  0
SECTION
  2
HEADER
  9
$ACADVER
  1
AC1021
  9
$DWGCODEPAGE
  3
ANSI_1252
  9
$EXTMAX
 10
297.0
 20
210.0
 30
0.0
  9
$EXTMIN
 10
0.0
 20
0.0
 30
0.0
  9
$LIMMIN
 10
0.0
 20
0.0
  9
$LIMMAX
 10
297.0
 20
210.0
  9
$VIEWCTR
 10
148.5
 20
105.0
  9
$VIEWSIZE
 40
210.0
  9
$CLAYER
  8
0
  9
$LTSCALE
 40
16.335
  9
$CELTYPE
  6
BYLAYER
  9
$DIMSCALE
 40
1.0
  9
$DIMASZ
 40
3.0
  9
$DIMEXO
 40
0.5
  9
$DIMDLI
 40
11.286
  9
$DIMEXE
 40
1.5
  9
$DIMCEN
 40
2.673
  9
$DIMLFAC
 40
1.0
  9
$DIMBLK
  1
_FILLED
  9
$DIMALT
 70
0
  9
$DIMALTF
 40
0.0393700787
  9
$DIMTXT
 40
3.0
  9
$DIMTOL
 70
1
  9
$DIMLIM
 70
0
  9
$DIMTFAC
 40
1.0
  9
$DIMTP
 40
0.01
  9
$DIMTM
 40
0.01
  9
$DIMGAP
 40
0.625
  9
$DIMDSEP
 70
44
  9
$AUNITS
 70
0
  9
$PDMODE
 70
3
  9
$PDSIZE
 40
3.0
  9
$HANDSEED
  5
52A
  9
$TILEMODE
 70
1
  9
$MEASUREMENT
 70
1
  9
$INSUNITS
 70
4
  0
ENDSEC
  0
SECTION
  2
CLASSES
  0
CLASS
  1
ACDBDICTIONARYWDFLT
  2
AcDbDictionaryWithDefault
  3
AutoCAD 2000
 90
0
 91
1
280
0
281
0
  0
CLASS
  1
ACDBPLACEHOLDER
  2
AcDbPlaceHolder
  3
AutoCAD 2000
 90
0
 91
1
280
0
281
0
  0
CLASS
  1
LAYOUT
  2
AcDbLayout
  3
AutoCAD 2000
 90
0
 91
0
280
0
281
0
  0
ENDSEC
  0
SECTION
  2
TABLES
  0
TABLE
  2
VPORT
  5
8
100
AcDbSymbolTable
 70
2
  0
VPORT
  5
1F4
100
AcDbSymbolTableRecord
100
AcDbViewportTableRecord
  2
*ACTIVE
 70
0
 10
0.0
 20
0.0
 11
1.0
 21
1.0
 12
148.5
 22
105.0
 13
0.0
 23
0.0
 14
1.0
 24
1.0
 15
0.0
 25
0.0
 16
0.0
 26
0.0
 36
1.0
 17
0.0
 27
0.0
 37
0.0
 40
210.0
 41
1.4142857143
 42
50.0
 43
0.0
 44
0.0
 50
0.0
 51
0.0
 71
0
 72
100
 73
1
 74
1
 75
0
 76
0
 77
0
 78
0
  0
ENDTAB
  0
TABLE
  2
LTYPE
  5
5
100
AcDbSymbolTable
 70
6
  0
LTYPE
  5
14
100
AcDbSymbolTableRecord
100
AcDbLinetypeTableRecord
  2
BYBLOCK
 70
0
  3

 72
65
 73
0
 40
0.0
  0
LTYPE
  5
15
100
AcDbSymbolTableRecord
100
AcDbLinetypeTableRecord
  2
BYLAYER
 70
0
  3

 72
65
 73
0
 40
0.0
  0
LTYPE
  5
16
100
AcDbSymbolTableRecord
100
AcDbLinetypeTableRecord
  2
CONTINUOUS
 70
64
  3
Solid line
 72
65
 73
0
 40
0.0
  0
LTYPE
  5
1F5
100
AcDbSymbolTableRecord
100
AcDbLinetypeTableRecord
  2
CENTER
 70
64
  3
____ _ ____ _ ____ _ ____ _ ____ _ ____ _ ____
 72
65
 73
4
 40
0.6
 49
0.375
 74
0
 49
-0.075
 74
0
 49
0.075
 74
0
 49
-0.075
 74
0
  0
LTYPE
  5
1F6
100
AcDbSymbolTableRecord
100
AcDbLinetypeTableRecord
  2
HIDDEN
 70
64
  3
- - - - - - - - - - - - - - - - - - - -
 72
65
 73
2
 40
0.2
 49
0.1
 74
0
 49
-0.1
 74
0
  0
LTYPE
  5
1F7
100
AcDbSymbolTableRecord
100
AcDbLinetypeTableRecord
  2
PHANTOM
 70
64
  3
_____ _ _ _____ _ _ _____ _ _ _____
 72
65
 73
6
 40
0.8
 49
0.45
 74
0
 49
-0.05
 74
0
 49
0.1
 74
0
 49
-0.05
 74
0
 49
0.1
 74
0
 49
-0.05
 74
0
  0
LTYPE
  5
1F8
100
AcDbSymbolTableRecord
100
AcDbLinetypeTableRecord
  2
DOT
 70
64
  3
. . . . . . . . . . . . . . . . . . . .
 72
65
 73
2
 40
0.2
 49
0.1
 74
0
 49
-0.1
 74
0
  0
LTYPE
  5
1F9
100
AcDbSymbolTableRecord
100
AcDbLinetypeTableRecord
  2
DASHED
 70
64
  3
- - - - - - - - - - - - - - - - - - - -
 72
65
 73
2
 40
0.2
 49
0.1
 74
0
 49
-0.1
 74
0
  0
ENDTAB
  0
TABLE
  2
LAYER
  5
2
100
AcDbSymbolTable
 70
36
  0
LAYER
  5
10
100
AcDbSymbolTableRecord
100
AcDbLayerTableRecord
  2
0
 70
0
 62
7
  6
CONTINUOUS
370
-3
390
F
  0
LAYER
  5
1FA
100
AcDbSymbolTableRecord
100
AcDbLayerTableRecord
  2
DEFAULT_1
 70
0
 62
7
  6
CENTER
370
-3
390
F
  0
LAYER
  5
1FB
100
AcDbSymbolTableRecord
100
AcDbLayerTableRecord
  2
DEFAULT_2
 70
0
 62
7
  6
HIDDEN
370
-3
390
F
  0
LAYER
  5
1FC
100
AcDbSymbolTableRecord
100
AcDbLayerTableRecord
  2
DEFAULT_3
 70
0
 62
7
  6
PHANTOM
370
-3
390
F
  0
LAYER
  5
1FD
100
AcDbSymbolTableRecord
100
AcDbLayerTableRecord
  2
06___PRT_ALL_SURFS_24
 70
0
 62
7
  6
CONTINUOUS
370
-3
390
F
  0
LAYER
  5
1FE
100
AcDbSymbolTableRecord
100
AcDbLayerTableRecord
  2
06___PRT_ALL_SURFS_25
 70
0
 62
7
  6
CONTINUOUS
370
-3
390
F
  0
LAYER
  5
1FF
100
AcDbSymbolTableRecord
100
AcDbLayerTableRecord
  2
1206_R_REF_65000
 70
0
 62
7
  6
CONTINUOUS
370
-3
390
F
  0
LAYER
  5
200
100
AcDbSymbolTableRecord
100
AcDbLayerTableRecord
  2
1206_R_WAVE_65000
 70
0
 62
7
  6
CONTINUOUS
370
-3
390
F
  0
LAYER
  5
201
100
AcDbSymbolTableRecord
100
AcDbLayerTableRecord
  2
2125-CC-H1_5-RF-VIMAR_150000
 70
0
 62
7
  6
CONTINUOUS
370
-3
390
F
  0
LAYER
  5
202
100
AcDbSymbolTableRecord
100
AcDbLayerTableRecord
  2
2125-CC-RF-VIMAR_110000
 70
0
 62
7
  6
CONTINUOUS
370
-3
390
F
  0
LAYER
  5
203
100
AcDbSymbolTableRecord
100
AcDbLayerTableRecord
  2
2125-CC-RF-VIMAR_110000_1
 70
0
 62
7
  6
CONTINUOUS
370
-3
390
F
  0
LAYER
  5
204
100
AcDbSymbolTableRecord
100
AcDbLayerTableRecord
  2
2125-CC-RF-VIMAR_110000_2
 70
0
 62
7
  6
CONTINUOUS
370
-3
390
F
  0
LAYER
  5
205
100
AcDbSymbolTableRecord
100
AcDbLayerTableRecord
  2
2125-CC-RF-VIMAR_110000_3
 70
0
 62
7
  6
CONTINUOUS
370
-3
390
F
  0
LAYER
  5
206
100
AcDbSymbolTableRecord
100
AcDbLayerTableRecord
  2
2125-CC-RF-VIMAR_110000_4
 70
0
 62
7
  6
CONTINUOUS
370
-3
390
F
  0
LAYER
  5
207
100
AcDbSymbolTableRecord
100
AcDbLayerTableRecord
  2
2125-R1-RF-VIMAR_60000
 70
0
 62
7
  6
CONTINUOUS
370
-3
390
F
  0
LAYER
  5
208
100
AcDbSymbolTableRecord
100
AcDbLayerTableRecord
  2
2125-R1-RF-VIMAR_60000_1
 70
0
 62
7
  6
CONTINUOUS
370
-3
390
F
  0
LAYER
  5
209
100
AcDbSymbolTableRecord
100
AcDbLayerTableRecord
  2
2125-R1-RF-VIMAR_60000_2
 70
0
 62
7
  6
CONTINUOUS
370
-3
390
F
  0
LAYER
  5
20A
100
AcDbSymbolTableRecord
100
AcDbLayerTableRecord
  2
2125-R1-RF-VIMAR_60000_3
 70
0
 62
7
  6
CONTINUOUS
370
-3
390
F
  0
LAYER
  5
20B
100
AcDbSymbolTableRecord
100
AcDbLayerTableRecord
  2
2125-R1-RF-VIMAR_60000_4
 70
0
 62
7
  6
CONTINUOUS
370
-3
390
F
  0
LAYER
  5
20C
100
AcDbSymbolTableRecord
100
AcDbLayerTableRecord
  2
2125-R1-RF-VIMAR_60000_5
 70
0
 62
7
  6
CONTINUOUS
370
-3
390
F
  0
LAYER
  5
20D
100
AcDbSymbolTableRecord
100
AcDbLayerTableRecord
  2
2125-R1-RF-VIMAR_60000_6
 70
0
 62
7
  6
CONTINUOUS
370
-3
390
F
  0
LAYER
  5
20E
100
AcDbSymbolTableRecord
100
AcDbLayerTableRecord
  2
2125-R1-RF-VIMAR_60000_7
 70
0
 62
7
  6
CONTINUOUS
370
-3
390
F
  0
LAYER
  5
20F
100
AcDbSymbolTableRecord
100
AcDbLayerTableRecord
  2
3216-CF-RF-VIMAR_100000
 70
0
 62
7
  6
CONTINUOUS
370
-3
390
F
  0
LAYER
  5
210
100
AcDbSymbolTableRecord
100
AcDbLayerTableRecord
  2
3216-CF-RF-VIMAR_100000_1
 70
0
 62
7
  6
CONTINUOUS
370
-3
390
F
  0
LAYER
  5
211
100
AcDbSymbolTableRecord
100
AcDbLayerTableRecord
  2
3216-CF-RF-VIMAR_100000_2
 70
0
 62
7
  6
CONTINUOUS
370
-3
390
F
  0
LAYER
  5
212
100
AcDbSymbolTableRecord
100
AcDbLayerTableRecord
  2
3216-CF-RF-VIMAR_100000_3
 70
0
 62
7
  6
CONTINUOUS
370
-3
390
F
  0
LAYER
  5
213
100
AcDbSymbolTableRecord
100
AcDbLayerTableRecord
  2
3216-R1-RF-VIMAR_60000
 70
0
 62
7
  6
CONTINUOUS
370
-3
390
F
  0
LAYER
  5
214
100
AcDbSymbolTableRecord
100
AcDbLayerTableRecord
  2
3216-R1-RF-VIMAR_60000_1
 70
0
 62
7
  6
CONTINUOUS
370
-3
390
F
  0
LAYER
  5
215
100
AcDbSymbolTableRecord
100
AcDbLayerTableRecord
  2
3225-L-RF-VIMAR_220000
 70
0
 62
7
  6
CONTINUOUS
370
-3
390
F
  0
LAYER
  5
216
100
AcDbSymbolTableRecord
100
AcDbLayerTableRecord
  2
43000679A0
 70
0
 62
7
  6
CONTINUOUS
370
-3
390
F
  0
LAYER
  5
217
100
AcDbSymbolTableRecord
100
AcDbLayerTableRecord
  2
ASSI
 70
0
 62
7
  6
CONTINUOUS
370
-3
390
F
  0
LAYER
  5
218
100
AcDbSymbolTableRecord
100
AcDbLayerTableRecord
  2
CN-MKDSN2-VIMAR_1500000
 70
0
 62
7
  6
CONTINUOUS
370
-3
390
F
  0
LAYER
  5
219
100
AcDbSymbolTableRecord
100
AcDbLayerTableRecord
  2
CN-MSB02001-VIMAR_1000000
 70
0
 62
7
  6
CONTINUOUS
370
-3
390
F
  0
LAYER
  5
21A
100
AcDbSymbolTableRecord
100
AcDbLayerTableRecord
  2
CN1-REF_SQUAREHOLE12_SPEA-VIMAR
 70
0
 62
7
  6
CONTINUOUS
370
-3
390
F
  0
LAYER
  5
21B
100
AcDbSymbolTableRecord
100
AcDbLayerTableRecord
  2
CN1-REF_SQUAREHOLE12_SPEA-VIM_1
 70
0
 62
7
  6
CONTINUOUS
370
-3
390
F
  0
LAYER
  5
21C
100
AcDbSymbolTableRecord
100
AcDbLayerTableRecord
  2
CN1-REF_SQUAREHOLE12_SPEA-VIM_2
 70
0
 62
7
  6
CONTINUOUS
370
-3
390
F
  0
LAYER
  5
21D
100
AcDbSymbolTableRecord
100
AcDbLayerTableRecord
  2
CN1-REF_SQUAREHOLE12_SPEA-VIM_3
 70
0
 62
7
  6
CONTINUOUS
370
-3
390
F
  0
LAYER
  5
21E
100
AcDbSymbolTableRecord
100
AcDbLayerTableRecord
  2
CN_THT_USB_TYPE-A_4P_RIGHT_ANGL
 70
0
 62
7
  6
CONTINUOUS
370
-3
390
F
  0
LAYER
  5
21F
100
AcDbSymbolTableRecord
100
AcDbLayerTableRecord
  2
CN_THT_USB_TYPE-A_4P_VERTICAL_U
 70
0
 62
7
  6
CONTINUOUS
370
-3
390
F
  0
LAYER
  5
220
100
AcDbSymbolTableRecord
100
AcDbLayerTableRecord
  2
CN_THT_USB_TYPE-A_4P_VERT_UPRIG
 70
0
 62
7
  6
CONTINUOUS
370
-3
390
F
  0
LAYER
  5
221
100
AcDbSymbolTableRecord
100
AcDbLayerTableRecord
  2
COLORE_MATERIALE
 70
0
 62
7
  6
CONTINUOUS
370
-3
390
F
  0
LAYER
  5
222
100
AcDbSymbolTableRecord
100
AcDbLayerTableRecord
  2
COORDINATE
 70
0
 62
7
  6
CONTINUOUS
370
-3
390
F
  0
LAYER
  5
223
100
AcDbSymbolTableRecord
100
AcDbLayerTableRecord
  2
COORD_ORIGINE
 70
0
 62
7
  6
CONTINUOUS
370
-3
390
F
  0
LAYER
  5
224
100
AcDbSymbolTableRecord
100
AcDbLayerTableRecord
  2
COPY_PUBLISH
 70
0
 62
7
  6
CONTINUOUS
370
-3
390
F
  0
LAYER
  5
225
100
AcDbSymbolTableRecord
100
AcDbLayerTableRecord
  2
COSMETIC
 70
0
 62
7
  6
CONTINUOUS
370
-3
390
F
  0
LAYER
  5
226
100
AcDbSymbolTableRecord
100
AcDbLayerTableRecord
  2
COSMETICI
 70
0
 62
7
  6
CONTINUOUS
370
-3
390
F
  0
LAYER
  5
227
100
AcDbSymbolTableRecord
100
AcDbLayerTableRecord
  2
CP-DO-214AC-D-VIMAR_240000
 70
0
 62
7
  6
CONTINUOUS
370
-3
390
F
  0
LAYER
  5
228
100
AcDbSymbolTableRecord
100
AcDbLayerTableRecord
  2
CP-DO-214AC-D-VIMAR_240000_1
 70
0
 62
7
  6
CONTINUOUS
370
-3
390
F
  0
LAYER
  5
229
100
AcDbSymbolTableRecord
100
AcDbLayerTableRecord
  2
CP-DO-SUB-SMA-VIMAR_145000
 70
0
 62
7
  6
CONTINUOUS
370
-3
390
F
  0
LAYER
  5
22A
100
AcDbSymbolTableRecord
100
AcDbLayerTableRecord
  2
CP-DO-SUB-SMA-VIMAR_145000_1
 70
0
 62
7
  6
CONTINUOUS
370
-3
390
F
  0
LAYER
  5
22B
100
AcDbSymbolTableRecord
100
AcDbLayerTableRecord
  2
CR_TO220AC__1900000
 70
0
 62
7
  6
CONTINUOUS
370
-3
390
F
  0
LAYER
  5
22C
100
AcDbSymbolTableRecord
100
AcDbLayerTableRecord
  2
CURVE
 70
0
 62
7
  6
CONTINUOUS
370
-3
390
F
  0
LAYER
  5
22D
100
AcDbSymbolTableRecord
100
AcDbLayerTableRecord
  2
DEMO_00025
 70
0
 62
7
  6
CONTINUOUS
370
-3
390
F
  0
LAYER
  5
22E
100
AcDbSymbolTableRecord
100
AcDbLayerTableRecord
  2
DRAFT
 70
0
 62
7
  6
CONTINUOUS
370
-3
390
F
  0
LAYER
  5
22F
100
AcDbSymbolTableRecord
100
AcDbLayerTableRecord
  2
E2_MARK_10000
 70
0
 62
7
  6
CONTINUOUS
370
-3
390
F
  0
LAYER
  5
230
100
AcDbSymbolTableRecord
100
AcDbLayerTableRecord
  2
ESOP-12B-VIMAR_0
 70
0
 62
7
  6
CONTINUOUS
370
-3
390
F
  0
LAYER
  5
231
100
AcDbSymbolTableRecord
100
AcDbLayerTableRecord
  2
FUSE-1A-250V_770000
 70
0
 62
7
  6
CONTINUOUS
370
-3
390
F
  0
LAYER
  5
232
100
AcDbSymbolTableRecord
100
AcDbLayerTableRecord
  2
GEOMETRIA_SOLIDA
 70
0
 62
7
  6
CONTINUOUS
370
-3
390
F
  0
LAYER
  5
233
100
AcDbSymbolTableRecord
100
AcDbLayerTableRecord
  2
GEOMETRIA_SOLIDA_1
 70
0
 62
7
  6
CONTINUOUS
370
-3
390
F
  0
LAYER
  5
234
100
AcDbSymbolTableRecord
100
AcDbLayerTableRecord
  2
IGES_SCRITTE
 70
0
 62
7
  6
CONTINUOUS
370
-3
390
F
  0
LAYER
  5
235
100
AcDbSymbolTableRecord
100
AcDbLayerTableRecord
  2
IMPORT_IGES
 70
0
 62
7
  6
CONTINUOUS
370
-3
390
F
  0
LAYER
  5
236
100
AcDbSymbolTableRecord
100
AcDbLayerTableRecord
  2
INTFCLR_4
 70
0
 62
7
  6
CONTINUOUS
370
-3
390
F
  0
LAYER
  5
237
100
AcDbSymbolTableRecord
100
AcDbLayerTableRecord
  2
INTF_11
 70
0
 62
7
  6
CONTINUOUS
370
-3
390
F
  0
LAYER
  5
238
100
AcDbSymbolTableRecord
100
AcDbLayerTableRecord
  2
INTF_RED
 70
0
 62
7
  6
CONTINUOUS
370
-3
390
F
  0
LAYER
  5
239
100
AcDbSymbolTableRecord
100
AcDbLayerTableRecord
  2
LOGO_RESIST-RESTYLING_10000
 70
0
 62
7
  6
CONTINUOUS
370
-3
390
F
  0
LAYER
  5
23A
100
AcDbSymbolTableRecord
100
AcDbLayerTableRecord
  2
MM4-ABS-VIMAR_180000
 70
0
 62
7
  6
CONTINUOUS
370
-3
390
F
  0
LAYER
  5
23B
100
AcDbSymbolTableRecord
100
AcDbLayerTableRecord
  2
MM4-MB-1-VIMAR_290000
 70
0
 62
7
  6
CONTINUOUS
370
-3
390
F
  0
LAYER
  5
23C
100
AcDbSymbolTableRecord
100
AcDbLayerTableRecord
  2
NO-PB_MARK_10000
 70
0
 62
7
  6
CONTINUOUS
370
-3
390
F
  0
LAYER
  5
23D
100
AcDbSymbolTableRecord
100
AcDbLayerTableRecord
  2
NORMAL
 70
0
 62
7
  6
CONTINUOUS
370
-3
390
F
  0
LAYER
  5
23E
100
AcDbSymbolTableRecord
100
AcDbLayerTableRecord
  2
NOTE
 70
0
 62
7
  6
CONTINUOUS
370
-3
390
F
  0
LAYER
  5
23F
100
AcDbSymbolTableRecord
100
AcDbLayerTableRecord
  2
PIANI
 70
0
 62
7
  6
CONTINUOUS
370
-3
390
F
  0
LAYER
  5
240
100
AcDbSymbolTableRecord
100
AcDbLayerTableRecord
  2
PIANI_ORIGINE
 70
0
 62
7
  6
CONTINUOUS
370
-3
390
F
  0
LAYER
  5
241
100
AcDbSymbolTableRecord
100
AcDbLayerTableRecord
  2
PIANI_RIFERIMENTO
 70
0
 62
7
  6
CONTINUOUS
370
-3
390
F
  0
LAYER
  5
242
100
AcDbSymbolTableRecord
100
AcDbLayerTableRecord
  2
PREDEFINITO
 70
0
 62
7
  6
CONTINUOUS
370
-3
390
F
  0
LAYER
  5
243
100
AcDbSymbolTableRecord
100
AcDbLayerTableRecord
  2
PUNTI
 70
0
 62
7
  6
CONTINUOUS
370
-3
390
F
  0
LAYER
  5
244
100
AcDbSymbolTableRecord
100
AcDbLayerTableRecord
  2
RACCORDO
 70
0
 62
7
  6
CONTINUOUS
370
-3
390
F
  0
LAYER
  5
245
100
AcDbSymbolTableRecord
100
AcDbLayerTableRecord
  2
RD-C100-5-VIMAR_1250000
 70
0
 62
7
  6
CONTINUOUS
370
-3
390
F
  0
LAYER
  5
246
100
AcDbSymbolTableRecord
100
AcDbLayerTableRecord
  2
RD-C50-17-VIMAR_1300000
 70
0
 62
7
  6
CONTINUOUS
370
-3
390
F
  0
LAYER
  5
247
100
AcDbSymbolTableRecord
100
AcDbLayerTableRecord
  2
RD-CE25-1-VIMAR_1100000
 70
0
 62
7
  6
CONTINUOUS
370
-3
390
F
  0
LAYER
  5
248
100
AcDbSymbolTableRecord
100
AcDbLayerTableRecord
  2
RD-CE25-1-VIMAR_1100000_1
 70
0
 62
7
  6
CONTINUOUS
370
-3
390
F
  0
LAYER
  5
249
100
AcDbSymbolTableRecord
100
AcDbLayerTableRecord
  2
RD-CE50-3-VIMAR_2000000
 70
0
 62
7
  6
CONTINUOUS
370
-3
390
F
  0
LAYER
  5
24A
100
AcDbSymbolTableRecord
100
AcDbLayerTableRecord
  2
RD-CE50-3-VIMAR_2000000_1
 70
0
 62
7
  6
CONTINUOUS
370
-3
390
F
  0
LAYER
  5
24B
100
AcDbSymbolTableRecord
100
AcDbLayerTableRecord
  2
RD_D6H8_5_VIMAR_850000
 70
0
 62
7
  6
CONTINUOUS
370
-3
390
F
  0
LAYER
  5
24C
100
AcDbSymbolTableRecord
100
AcDbLayerTableRecord
  2
RD_D6H8_5_VIMAR_850000_1
 70
0
 62
7
  6
CONTINUOUS
370
-3
390
F
  0
LAYER
  5
24D
100
AcDbSymbolTableRecord
100
AcDbLayerTableRecord
  2
RUBBERPAD-R-07X22_0
 70
0
 62
7
  6
CONTINUOUS
370
-3
390
F
  0
LAYER
  5
24E
100
AcDbSymbolTableRecord
100
AcDbLayerTableRecord
  2
RUBBERPAD-R-07X22_0_1
 70
0
 62
7
  6
CONTINUOUS
370
-3
390
F
  0
LAYER
  5
24F
100
AcDbSymbolTableRecord
100
AcDbLayerTableRecord
  2
SIMBOLI
 70
0
 62
7
  6
CONTINUOUS
370
-3
390
F
  0
LAYER
  5
250
100
AcDbSymbolTableRecord
100
AcDbLayerTableRecord
  2
SMUSSO
 70
0
 62
7
  6
CONTINUOUS
370
-3
390
F
  0
LAYER
  5
251
100
AcDbSymbolTableRecord
100
AcDbLayerTableRecord
  2
SNAPLINE
 70
0
 62
7
  6
CONTINUOUS
370
-3
390
F
  0
LAYER
  5
252
100
AcDbSymbolTableRecord
100
AcDbLayerTableRecord
  2
SUPERFICI
 70
0
 62
7
  6
CONTINUOUS
370
-3
390
F
  0
LAYER
  5
253
100
AcDbSymbolTableRecord
100
AcDbLayerTableRecord
  2
TRA-EPC1702_1200000
 70
0
 62
7
  6
CONTINUOUS
370
-3
390
F
  0
LAYER
  5
254
100
AcDbSymbolTableRecord
100
AcDbLayerTableRecord
  2
TRASH
 70
0
 62
7
  6
CONTINUOUS
370
-3
390
F
  0
LAYER
  5
255
100
AcDbSymbolTableRecord
100
AcDbLayerTableRecord
  2
USB1M
 70
0
 62
7
  6
CONTINUOUS
370
-3
390
F
  0
LAYER
  5
256
100
AcDbSymbolTableRecord
100
AcDbLayerTableRecord
  2
WHITE
 70
0
 62
7
  6
CONTINUOUS
370
-3
390
F
  0
LAYER
  5
257
100
AcDbSymbolTableRecord
100
AcDbLayerTableRecord
  2
XSEC_DATUMS
 70
0
 62
7
  6
CONTINUOUS
370
-3
390
F
  0
LAYER
  5
258
100
AcDbSymbolTableRecord
100
AcDbLayerTableRecord
  2
___SHELL
 70
0
 62
7
  6
CONTINUOUS
370
-3
390
F
  0
ENDTAB
  0
TABLE
  2
STYLE
  5
3
100
AcDbSymbolTable
 70
1
  0
STYLE
  5
11
100
AcDbSymbolTableRecord
100
AcDbTextStyleTableRecord
  2
STANDARD
 70
0
 40
0.0
 41
0.8
 50
0.0
 71
0
 42
0.2
  3
txt
  4

  0
STYLE
  5
259
100
AcDbSymbolTableRecord
100
AcDbTextStyleTableRecord
  2
TEXTSTYLE_1
 70
0
 40
0.0
 41
0.8
 50
0.0
 71
0
 42
0.2
  3
gdt
  4

  0
ENDTAB
  0
TABLE
  2
VIEW
  5
6
100
AcDbSymbolTable
 70
0
  0
ENDTAB
  0
TABLE
  2
UCS
  5
7
100
AcDbSymbolTable
 70
0
  0
ENDTAB
  0
TABLE
  2
APPID
  5
9
100
AcDbSymbolTable
 70
1
  0
APPID
  5
25A
100
AcDbSymbolTableRecord
100
AcDbRegAppTableRecord
  2
ACAD
 70
0
  0
ENDTAB
  0
TABLE
  2
BLOCK_RECORD
  5
1
100
AcDbSymbolTable
 70
0
  0
BLOCK_RECORD
  5
25B
100
AcDbSymbolTableRecord
100
AcDbBlockTableRecord
  2
*Model_Space
  0
BLOCK_RECORD
  5
25C
100
AcDbSymbolTableRecord
100
AcDbBlockTableRecord
  2
*Paper_Space
  0
ENDTAB
  0
TABLE
  2
DIMSTYLE
  5
A
100
AcDbSymbolTable
 70
1
100
AcDbDimStyleTable
 71
0
  0
DIMSTYLE
105
25D
100
AcDbSymbolTableRecord
100
AcDbDimStyleTableRecord
  2
STANDARD
 70
0
  3

  4

 40
1.0
 41
3.0
 42
0.5
 43
0.38
 44
1.5
 45
0.0
 46
0.0
 47
0.01
 48
0.01
140
3.0
141
0.09
142
0.0
143
25.4
144
1.0
145
0.0
146
1.0
147
0.625
 71
1.0
 72
0.0
 73
0
 74
0
 75
0
 76
0
 77
1
 78
8
170
0
171
2
172
0
173
0
174
0
175
0
176
0
177
0
178
0
270
2
271
2
272
2
273
2
274
2
275
0
280
0
281
0
282
0
283
1
284
8
285
0
286
0
287
3
288
0
340
11
278
44
  0
ENDTAB
  0
ENDSEC
  0
SECTION
  2
BLOCKS
  0
BLOCK
  5
20
100
AcDbEntity
  8
0
100
AcDbBlockBegin
  2
*Model_Space
 70
0
 10
0.0
 20
0.0
 30
0.0
  3
*Model_Space
  1

  0
ENDBLK
  5
21
100
AcDbEntity
  8
0
100
AcDbBlockEnd
  0
BLOCK
  5
1C
100
AcDbEntity
  8
0
100
AcDbBlockBegin
  2
*Paper_Space
 70
0
 10
0.0
 20
0.0
 30
0.0
  3
*Paper_Space
  1

  0
ENDBLK
  5
1D
100
AcDbEntity
  8
0
100
AcDbBlockEnd
  0
ENDSEC
  0
SECTION
  2
ENTITIES
  0
LINE
  5
25E
100
AcDbEntity
  8
ASSI
100
AcDbLine
 62
253
  6
CONTINUOUS
 10
-22.893943006
 20
-19.054297795
 11
-22.9227098553
 21
-19.038830076
  0
LWPOLYLINE
  5
25F
100
AcDbEntity
  8
ASSI
100
AcDbPolyline
 62
253
  6
CONTINUOUS
 90
24
 70
0
 10
-22.9227098553
 20
-19.038830076
 10
-22.9499811324
 20
-19.0220373564
 10
-22.9763631823
 20
-19.0036198675
 10
-23.0018230299
 20
-18.9836005815
 10
-23.0263287801
 20
-18.962004481
 10
-23.0498508983
 20
-18.9388578774
 10
-23.0723600586
 20
-18.9141894747
 10
-23.0938279689
 20
-18.8880300477
 10
-23.1142285598
 20
-18.8604118421
 10
-23.1335363035
 20
-18.8313692829
 10
-23.1517270848
 20
-18.8009383968
 10
-23.1687790149
 20
-18.769156474
 10
-23.1846707878
 20
-18.7360630023
 10
-23.1993825084
 20
-18.7016990165
 10
-23.2128965354
 20
-18.6661064962
 10
-23.2251961191
 20
-18.6293291032
 10
-23.236265634
 20
-18.5914128207
 10
-23.2460914628
 20
-18.5524053421
 10
-23.2546612608
 20
-18.5123559137
 10
-23.2619645513
 20
-18.4713133756
 10
-23.2679928084
 20
-18.4293266864
 10
-23.2727385638
 20
-18.3864471133
 10
-23.2761955931
 20
-18.3427282998
 10
-23.2783594821
 20
-18.2982242996
  0
LINE
  5
260
100
AcDbEntity
  8
ASSI
100
AcDbLine
 62
253
  6
CONTINUOUS
 10
-1.3885695759
 20
-25.1355303874
 11
-1.9168367477
 21
-25.0270281103
  0
LWPOLYLINE
  5
261
100
AcDbEntity
  8
ASSI
100
AcDbPolyline
 62
7
  6
CONTINUOUS
 90
34
 70
0
 10
-2.8068969304
 20
-25.3426371511
 10
-2.8147760534
 20
-25.3409608223
 10
-2.8229963025
 20
-25.3390929162
 10
-2.8315541636
 20
-25.3370435108
 10
-2.8404525942
 20
-25.3348330983
 10
-2.8496790292
 20
-25.3324632596
 10
-2.8592056035
 20
-25.3299165657
 10
-2.8690257918
 20
-25.3272061576
 10
-2.87913169
 20
-25.3243445239
 10
-2.889492473
 20
-25.3213140289
 10
-2.9000989943
 20
-25.318129497
 10
-2.9109409057
 20
-25.3148052259
 10
-2.9219846827
 20
-25.3113235729
 10
-2.9332185312
 20
-25.3077009661
 10
-2.944629482
 20
-25.3039534965
 10
-2.9561813025
 20
-25.3000638423
 10
-2.9678594343
 20
-25.2960499408
 10
-2.9796481658
 20
-25.2919296531
 10
-2.9915084798
 20
-25.2876864324
 10
-3.0034229275
 20
-25.2833395667
 10
-3.0153729409
 20
-25.2789086573
 10
-3.0273166184
 20
-25.2743785638
 10
-3.0392334681
 20
-25.2697696777
 10
-3.0511020352
 20
-25.265103253
 10
-3.0628776139
 20
-25.2603663665
 10
-3.0745364344
 20
-25.2555801993
 10
-3.0860543715
 20
-25.2507673888
 10
-3.0973847242
 20
-25.2459180117
 10
-3.1084899866
 20
-25.2410601741
 10
-3.1193543384
 20
-25.2362102397
 10
-3.129961024
 20
-25.2313442282
 10
-3.1402830822
 20
-25.2264730208
 10
-3.1502847788
 20
-25.2216386512
 10
-3.1599331184
 20
-25.2168673131
  0
LWPOLYLINE
  5
262
100
AcDbEntity
  8
ASSI
100
AcDbPolyline
 62
7
  6
CONTINUOUS
 90
12
 70
0
 10
-8.0610810446
 20
-26.4707274709
 10
-8.0041385972
 20
-26.4968217864
 10
-7.9291922765
 20
-26.5241630945
 10
-7.8512440128
 20
-26.544946342
 10
-7.7706984289
 20
-26.5589121274
 10
-7.6877702694
 20
-26.5658453257
 10
-7.6029117467
 20
-26.5655165796
 10
-7.5165928687
 20
-26.5577492499
 10
-7.428932468
 20
-26.5423491839
 10
-7.340189087
 20
-26.5190993834
 10
-7.2508649623
 20
-26.4878608669
 10
-7.2257337563
 20
-26.4776359782
  0
LWPOLYLINE
  5
263
100
AcDbEntity
  8
ASSI
100
AcDbPolyline
 62
253
  6
CONTINUOUS
 90
31
 70
0
 10
-3.8706394981
 20
-26.5335948385
 10
-3.8611793488
 20
-26.538084332
 10
-3.8512637622
 20
-26.5423210341
 10
-3.8409197243
 20
-26.5462934112
 10
-3.8301753761
 20
-26.5499906528
 10
-3.8190599706
 20
-26.5534026891
 10
-3.807603797
 20
-26.5565202212
 10
-3.7958380478
 20
-26.5593347624
 10
-3.7837947404
 20
-26.5618386548
 10
-3.7715066678
 20
-26.5640250819
 10
-3.7590072803
 20
-26.5658880937
 10
-3.7463305985
 20
-26.5674226216
 10
-3.7335111325
 20
-26.5686244899
 10
-3.720583761
 20
-26.5694904303
 10
-3.7075836859
 20
-26.5700180863
 10
-3.6945463426
 20
-26.5702060237
 10
-3.6815072712
 20
-26.5700537384
 10
-3.6685019062
 20
-26.5695616526
 10
-3.6555655319
 20
-26.5687311029
 10
-3.6427331928
 20
-26.5675643298
 10
-3.6300399857
 20
-26.5660645151
 10
-3.6175208364
 20
-26.5642357984
 10
-3.6052100397
 20
-26.562083229
 10
-3.5931408349
 20
-26.559612659
 10
-3.5813457172
 20
-26.5568307551
 10
-3.5698542947
 20
-26.5537443759
 10
-3.5587004781
 20
-26.5503625012
 10
-3.5479213225
 20
-26.5466967421
 10
-3.5375475566
 20
-26.5427584563
 10
-3.5276042526
 20
-26.5385581037
 10
-3.5181175385
 20
-26.5341075624
  0
LWPOLYLINE
  5
264
100
AcDbEntity
  8
ASSI
100
AcDbPolyline
 62
253
  6
CONTINUOUS
 90
31
 70
0
 10
-3.8706394981
 20
-26.1936209044
 10
-3.8611805278
 20
-26.1981098668
 10
-3.8512662514
 20
-26.2023460913
 10
-3.8409236477
 20
-26.2063180502
 10
-3.8301808772
 20
-26.2100149296
 10
-3.819067158
 20
-26.2134266757
 10
-3.8076126807
 20
-26.2165440176
 10
-3.7958485753
 20
-26.2193584765
 10
-3.7838068849
 20
-26.2218623794
 10
-3.7715204306
 20
-26.2240488991
 10
-3.7590226662
 20
-26.225912083
 10
-3.7463475835
 20
-26.2274468642
 10
-3.733529675
 20
-26.2286490663
 10
-3.7206038117
 20
-26.2295154181
 10
-3.7076051785
 20
-26.230043561
 10
-3.6945691802
 20
-26.2302320578
 10
-3.6815313124
 20
-26.2300803985
 10
-3.6685270331
 20
-26.2295889989
 10
-3.6555916986
 20
-26.2287591962
 10
-3.642760393
 20
-26.2275932364
 10
-3.6300681518
 20
-26.2260942985
 10
-3.6175498228
 20
-26.224266511
 10
-3.6052396584
 20
-26.2221149103
 10
-3.5931709276
 20
-26.219645347
 10
-3.5813761568
 20
-26.2168644904
 10
-3.5698862942
 20
-26.2137795804
 10
-3.5587338124
 20
-26.2103992767
 10
-3.5479520026
 20
-26.2067338355
 10
-3.5375708135
 20
-26.2027938376
 10
-3.5276171013
 20
-26.1985898901
 10
-3.5181175385
 20
-26.1941336283
  0
LWPOLYLINE
  5
265
100
AcDbEntity
  8
CURVE
100
AcDbPolyline
 62
253
  6
CONTINUOUS
 90
81
 70
0
 10
-12.0880306612
 20
-22.854415394
 10
-12.0730690684
 20
-22.8615412038
 10
-12.0583438956
 20
-22.8678608163
 10
-12.043812036
 20
-22.873411499
 10
-12.0294303828
 20
-22.8782305195
 10
-12.0151643154
 20
-22.8823467522
 10
-12.0010131583
 20
-22.8857554978
 10
-11.986984722
 20
-22.8884436636
 10
-11.9730868173
 20
-22.8903981572
 10
-11.959331779
 20
-22.891607542
 10
-11.9457500387
 20
-22.8920670061
 10
-11.9323765524
 20
-22.8917733936
 10
-11.9192462759
 20
-22.8907235486
 10
-11.9063919055
 20
-22.8889158371
 10
-11.8938370996
 20
-22.8863547123
 10
-11.8816032572
 20
-22.8830461492
 10
-11.8697117772
 20
-22.8789961228
 10
-11.8581828004
 20
-22.8742108327
 10
-11.8470314365
 20
-22.8686973761
 10
-11.8362715371
 20
-22.8624630751
 10
-11.8259169538
 20
-22.8555152513
 10
-11.8159815383
 20
-22.8478612267
 10
-11.8064791423
 20
-22.8395083232
 10
-11.7974236174
 20
-22.8304638626
 10
-11.7888288153
 20
-22.8207351667
 10
-11.780708416
 20
-22.8103321309
 10
-11.7730754139
 20
-22.7992749445
 10
-11.7659426317
 20
-22.7875863702
 10
-11.7593228921
 20
-22.7752891707
 10
-11.7532290177
 20
-22.7624061088
 10
-11.7476738314
 20
-22.7489599472
 10
-11.7426701559
 20
-22.7349734487
 10
-11.7382308139
 20
-22.7204693759
 10
-11.7343667887
 20
-22.7054704507
 10
-11.7310817066
 20
-22.6899992302
 10
-11.7283773543
 20
-22.674078231
 10
-11.7262555187
 20
-22.6577299691
 10
-11.7247179866
 20
-22.640976961
 10
-11.7237665447
 20
-22.6238417229
 10
-11.7234029799
 20
-22.6063467712
 10
-11.723629079
 20
-22.5885146221
 10
-11.7244456337
 20
-22.5703695495
 10
-11.7258494554
 20
-22.5519428577
 10
-11.7278363606
 20
-22.5332676086
 10
-11.7304021654
 20
-22.514376864
 10
-11.7335426864
 20
-22.4953036857
 10
-11.7372537397
 20
-22.4760811357
 10
-11.7415311418
 20
-22.4567422757
 10
-11.746370709
 20
-22.4373201677
 10
-11.7517671101
 20
-22.417846966
 10
-11.7577104242
 20
-22.3983511952
 10
-11.7641895827
 20
-22.3788604725
 10
-11.7711935173
 20
-22.3594024148
 10
-11.7787111594
 20
-22.3400046395
 10
-11.7867314405
 20
-22.3206947635
 10
-11.7952432922
 20
-22.301500404
 10
-11.804235646
 20
-22.2824491781
 10
-11.8136964364
 20
-22.263569012
 10
-11.8236096097
 20
-22.2448890682
 10
-11.8339581152
 20
-22.2264388183
 10
-11.8447249021
 20
-22.208247734
 10
-11.8558929196
 20
-22.1903452868
 10
-11.8674451171
 20
-22.1727609482
 10
-11.8793644439
 20
-22.15552419
 10
-11.8916338491
 20
-22.1386644837
 10
-11.9042354234
 20
-22.1222104391
 10
-11.9171478233
 20
-22.106187219
 10
-11.9303488464
 20
-22.0906191243
 10
-11.9438162906
 20
-22.0755304559
 10
-11.957525314
 20
-22.0609473825
 10
-11.9714405164
 20
-22.0469035443
 10
-11.9855238578
 20
-22.0334344488
 10
-11.9997372983
 20
-22.0205756039
 10
-12.0140480271
 20
-22.0083555746
 10
-12.0284441497
 20
-21.9967751555
 10
-12.0429190005
 20
-21.9858281981
 10
-12.0574659141
 20
-21.9755085543
 10
-12.0720864808
 20
-21.9658097784
 10
-12.0868153146
 20
-21.9567242353
 10
-12.101695285
 20
-21.9482439925
 10
-12.1167692617
 20
-21.9403611178
  0
LWPOLYLINE
  5
266
100
AcDbEntity
  8
CURVE
100
AcDbPolyline
 62
253
  6
CONTINUOUS
 90
81
 70
0
 10
-12.1167692617
 20
-21.9403611178
 10
-12.1317160858
 20
-21.933240172
 10
-12.1464302021
 20
-21.9269202855
 10
-12.1609544439
 20
-21.9213669778
 10
-12.1753316443
 20
-21.916545768
 10
-12.189596269
 20
-21.9124300022
 10
-12.2037493125
 20
-21.9090243328
 10
-12.2177834018
 20
-21.906341239
 10
-12.2316911637
 20
-21.9043932001
 10
-12.2454605017
 20
-21.9031911103
 10
-12.2590604247
 20
-21.9027395244
 10
-12.2724552185
 20
-21.9030414124
 10
-12.2856091683
 20
-21.9040997442
 10
-12.2984888549
 20
-21.9059160759
 10
-12.3110700388
 20
-21.9084863087
 10
-12.3233307756
 20
-21.9118049298
 10
-12.3352491209
 20
-21.9158664264
 10
-12.3468044454
 20
-21.9206649338
 10
-12.3579813803
 20
-21.9261931786
 10
-12.3687658717
 20
-21.9324435354
 10
-12.379143866
 20
-21.9394083788
 10
-12.3891013091
 20
-21.9470800835
 10
-12.3986241475
 20
-21.9554510238
 10
-12.4076983273
 20
-21.9645135746
 10
-12.4163097948
 20
-21.9742601103
 10
-12.4244447292
 20
-21.9846804566
 10
-12.4320902428
 20
-21.9957542436
 10
-12.4392336809
 20
-22.0074585522
 10
-12.4458623888
 20
-22.0197704638
 10
-12.4519637119
 20
-22.0326670592
 10
-12.4575249954
 20
-22.0461254197
 10
-12.4625335847
 20
-22.0601226264
 10
-12.466976825
 20
-22.0746357603
 10
-12.4708438621
 20
-22.0896420169
 10
-12.4741310423
 20
-22.1051190493
 10
-12.4768365124
 20
-22.121044625
 10
-12.478958419
 20
-22.1373965114
 10
-12.4804949089
 20
-22.1541524759
 10
-12.4814441288
 20
-22.171290286
 10
-12.4818042254
 20
-22.1887877091
 10
-12.4815733454
 20
-22.2066225128
 10
-12.4807506501
 20
-22.2247706081
 10
-12.4793393594
 20
-22.2432004813
 10
-12.4773437077
 20
-22.2618787622
 10
-12.4747679294
 20
-22.2807720808
 10
-12.471616259
 20
-22.2998470669
 10
-12.4678929309
 20
-22.3190703504
 10
-12.4636021796
 20
-22.3384085614
 10
-12.4587482394
 20
-22.3578283295
 10
-12.4533365284
 20
-22.3772972492
 10
-12.4473771985
 20
-22.396786772
 10
-12.4408815852
 20
-22.4162693137
 10
-12.4338610242
 20
-22.4357172903
 10
-12.4263268508
 20
-22.4551031176
 10
-12.4182904007
 20
-22.4743992117
 10
-12.4097630094
 20
-22.4935779884
 10
-12.4007560124
 20
-22.5126118635
 10
-12.3912816944
 20
-22.5314729952
 10
-12.3813561375
 20
-22.5501325097
 10
-12.3709963729
 20
-22.5685612754
 10
-12.3602194318
 20
-22.5867301607
 10
-12.3490423454
 20
-22.6046100339
 10
-12.3374821451
 20
-22.6221717636
 10
-12.3255558619
 20
-22.6393862181
 10
-12.3132805272
 20
-22.6562242658
 10
-12.3006739907
 20
-22.6726575594
 10
-12.2877573763
 20
-22.6886608882
 10
-12.2745526264
 20
-22.7042098262
 10
-12.2610816834
 20
-22.7192799471
 10
-12.2473691082
 20
-22.7338450983
 10
-12.2334499346
 20
-22.7478722228
 10
-12.2193618147
 20
-22.761326537
 10
-12.205142401
 20
-22.7741732576
 10
-12.1908242369
 20
-22.7863844936
 10
-12.1764194315
 20
-22.7979599239
 10
-12.1619349852
 20
-22.8089061197
 10
-12.1473778985
 20
-22.8192296524
 10
-12.1327468515
 20
-22.8289368873
 10
-12.1180072435
 20
-22.8380333657
 10
-12.1031161537
 20
-22.8465244229
 10
-12.0880306612
 20
-22.854415394
  0
LINE
  5
267
100
AcDbEntity
  8
ASSI
100
AcDbLine
 62
7
  6
CONTINUOUS
 10
-8.0600449259
 20
-26.4712468351
 11
-22.8939430153
 21
-19.0542977903
  0
LINE
  5
268
100
AcDbEntity
  8
ASSI
100
AcDbLine
 62
253
  6
CONTINUOUS
 10
-8.4535134045
 20
-25.7106473384
 11
-23.2783594821
 21
-18.2982242996
  0
LINE
  5
269
100
AcDbEntity
  8
ASSI
100
AcDbLine
 62
7
  6
CONTINUOUS
 10
-5.1306508815
 20
-26.0063209487
 11
-3.8056662017
 21
-26.6688132886
  0
LINE
  5
26A
100
AcDbEntity
  8
ASSI
100
AcDbLine
 62
253
  6
CONTINUOUS
 10
-5.195624178
 20
-25.8711024986
 11
-3.8706394981
 21
-26.5335948385
  0
LINE
  5
26B
100
AcDbEntity
  8
CURVE
100
AcDbLine
 62
253
  6
CONTINUOUS
 10
-11.4327653449
 20
-22.4152058547
 11
-9.8330100054
 21
-23.2150835245
  0
LINE
  5
26C
100
AcDbEntity
  8
ASSI
100
AcDbLine
 62
253
  6
CONTINUOUS
 10
-3.8706394981
 20
-26.1936209044
 11
-5.0930428685
 21
-25.5824192193
  0
LWPOLYLINE
  5
26D
100
AcDbEntity
  8
ASSI
100
AcDbPolyline
 62
253
  6
CONTINUOUS
 90
16
 70
0
 10
-5.195624178
 20
-25.8711024986
 10
-5.2045808793
 20
-25.8663847931
 10
-5.2130396613
 20
-25.8614373969
 10
-5.2209766392
 20
-25.8562733178
 10
-5.2283707327
 20
-25.8509050735
 10
-5.2351991222
 20
-25.8453479439
 10
-5.2414385001
 20
-25.8396202995
 10
-5.2470707434
 20
-25.8337390058
 10
-5.2520819226
 20
-25.827718862
 10
-5.2564585081
 20
-25.8215760879
 10
-5.2601886023
 20
-25.815327277
 10
-5.263261917
 20
-25.8089895401
 10
-5.2656699771
 20
-25.8025803045
 10
-5.2674062167
 20
-25.7961170958
 10
-5.2684659498
 20
-25.7896174263
 10
-5.2688474827
 20
-25.782714151
  0
LWPOLYLINE
  5
26E
100
AcDbEntity
  8
ASSI
100
AcDbPolyline
 62
7
  6
CONTINUOUS
 90
4
 70
0
 10
-5.1306508815
 20
-26.0063209487
 10
-5.1535648362
 20
-25.9933111827
 10
-5.1752074012
 20
-25.9777820728
 10
-5.1952286501
 20
-25.9598854912
  0
LWPOLYLINE
  5
26F
100
AcDbEntity
  8
ASSI
100
AcDbPolyline
 62
253
  6
CONTINUOUS
 90
17
 70
0
 10
-23.4246339882
 20
-18.1245253906
 10
-23.4233119687
 20
-18.1368385718
 10
-23.4208862656
 20
-18.1490785392
 10
-23.4173622527
 20
-18.1612181772
 10
-23.4127477367
 20
-18.1732305929
 10
-23.4070529402
 20
-18.185089175
 10
-23.400290479
 20
-18.196767653
 10
-23.3924753341
 20
-18.2082401554
 10
-23.3836248184
 20
-18.2194812671
 10
-23.3737585387
 20
-18.2304660855
 10
-23.3628983516
 20
-18.2411702758
 10
-23.3510683161
 20
-18.2515701248
 10
-23.3382946393
 20
-18.2616425938
 10
-23.3246056189
 20
-18.2713653689
 10
-23.3100315803
 20
-18.2807169112
 10
-23.2946048096
 20
-18.2896765042
 10
-23.2783594819
 20
-18.2982242995
  0
LWPOLYLINE
  5
270
100
AcDbEntity
  8
ASSI
100
AcDbPolyline
 62
7
  6
CONTINUOUS
 90
19
 70
0
 10
-22.5189515811
 20
19.0777009723
 10
-22.5511683911
 20
19.0583265852
 10
-22.6407351871
 20
18.9980202451
 10
-22.7267368068
 20
18.9306493333
 10
-22.8090764492
 20
18.8566404603
 10
-22.8875714818
 20
18.7764304306
 10
-22.9618771333
 20
18.6906044631
 10
-23.0317892559
 20
18.5995913284
 10
-23.0970734276
 20
18.503815883
 10
-23.1572813345
 20
18.4040334104
 10
-23.2121762094
 20
18.3007119107
 10
-23.2615045689
 20
18.1943149094
 10
-23.304852466
 20
18.085691653
 10
-23.3419954262
 20
17.9753226051
 10
-23.3726942505
 20
17.8636743007
 10
-23.3966316851
 20
17.7515261799
 10
-23.4135787846
 20
17.6393846086
 10
-23.4233047935
 20
17.5275669305
 10
-23.4248467477
 20
17.4919033068
  0
LINE
  5
271
100
AcDbEntity
  8
ASSI
100
AcDbLine
 62
7
  6
CONTINUOUS
 10
-22.5191475196
 20
19.077587117
 11
-17.9301726928
 21
21.753379759
  0
LINE
  5
272
100
AcDbEntity
  8
ASSI
100
AcDbLine
 62
253
  6
CONTINUOUS
 10
-17.9301726928
 20
21.6085455825
 11
-22.2857934721
 21
19.0688197239
  0
LWPOLYLINE
  5
273
100
AcDbEntity
  8
ASSI
100
AcDbPolyline
 62
253
  6
CONTINUOUS
 90
17
 70
0
 10
-22.51895168
 20
19.0777011421
 10
-22.5166888573
 20
19.0789945838
 10
-22.5040523862
 20
19.0854463436
 10
-22.4908801953
 20
19.0909029864
 10
-22.4772020893
 20
19.0953521654
 10
-22.4630490175
 20
19.0987838136
 10
-22.4484530038
 20
19.1011901662
 10
-22.4334470745
 20
19.1025657783
 10
-22.4180651834
 20
19.1029075375
 10
-22.4023421348
 20
19.1022146704
 10
-22.3863135051
 20
19.1004887448
 10
-22.3700155621
 20
19.0977336658
 10
-22.3534851829
 20
19.0939556674
 10
-22.3367597708
 20
19.089163298
 10
-22.31987717
 20
19.0833674013
 10
-22.3028755807
 20
19.0765810915
 10
-22.2857934721
 20
19.0688197239
  0
LINE
  5
274
100
AcDbEntity
  8
ASSI
100
AcDbLine
 62
7
  6
CONTINUOUS
 10
-16.9141060872
 20
23.9136314395
 11
-18.4972797526
 21
23.1014333813
  0
LINE
  5
275
100
AcDbEntity
  8
ASSI
100
AcDbLine
 62
253
  6
CONTINUOUS
 10
-16.8014374832
 20
23.9069695035
 11
-18.3841940864
 21
23.0949854062
  0
LINE
  5
276
100
AcDbEntity
  8
ASSI
100
AcDbLine
 62
253
  6
CONTINUOUS
 10
-15.4579286158
 20
23.2352150698
 11
-17.0592094066
 21
22.4324930663
  0
LINE
  5
277
100
AcDbEntity
  8
ASSI
100
AcDbLine
 62
253
  6
CONTINUOUS
 10
-15.2811549121
 20
22.930325531
 11
-16.8824357029
 21
22.1276035274
  0
LINE
  5
278
100
AcDbEntity
  8
ASSI
100
AcDbLine
 62
7
  6
CONTINUOUS
 10
-16.9123696742
 20
23.9144996604
 11
-16.9141060852
 21
23.9136314405
  0
LINE
  5
279
100
AcDbEntity
  8
ASSI
100
AcDbLine
 62
253
  6
CONTINUOUS
 10
-14.929661444
 20
23.4986538898
 11
-15.4579286158
 21
23.2352150698
  0
LINE
  5
27A
100
AcDbEntity
  8
ASSI
100
AcDbLine
 62
253
  6
CONTINUOUS
 10
-14.7528877403
 20
23.193764351
 11
-15.2811549121
 21
22.930325531
  0
LINE
  5
27B
100
AcDbEntity
  8
ASSI
100
AcDbLine
 62
7
  6
CONTINUOUS
 10
-16.3774997157
 20
24.1750517611
 11
-16.9123696734
 21
23.9144996608
  0
LINE
  5
27C
100
AcDbEntity
  8
ASSI
100
AcDbLine
 62
253
  6
CONTINUOUS
 10
-16.2669876046
 20
24.1673169701
 11
-16.8014374832
 21
23.9069695035
  0
LWPOLYLINE
  5
27D
100
AcDbEntity
  8
ASSI
100
AcDbPolyline
 62
7
  6
CONTINUOUS
 90
3
 70
0
 10
-16.3398602887
 20
24.1897544526
 10
-16.3697465167
 20
24.1786656707
 10
-16.3776638555
 20
24.174971605
  0
LINE
  5
27E
100
AcDbEntity
  8
ASSI
100
AcDbLine
 62
253
  6
CONTINUOUS
 10
-1.4779833713
 20
-24.8159635814
 11
-1.9168367477
 21
-24.7258262547
  0
LWPOLYLINE
  5
27F
100
AcDbEntity
  8
CURVE
100
AcDbPolyline
 62
253
  6
CONTINUOUS
 90
81
 70
0
 10
-12.9743498244
 20
-19.3373719588
 10
-12.9652074631
 20
-19.3417205468
 10
-12.9562139046
 20
-19.3455675093
 10
-12.9473401692
 20
-19.3489366787
 10
-12.9385572772
 20
-19.3518518879
 10
-12.9298418811
 20
-19.3543316614
 10
-12.9211931623
 20
-19.356373292
 10
-12.9126159347
 20
-19.3579687646
 10
-12.9041150121
 20
-19.359110064
 10
-12.8956984752
 20
-19.3597900669
 10
-12.8873874731
 20
-19.3600052181
 10
-12.8792064218
 20
-19.3597528544
 10
-12.8711797373
 20
-19.3590303126
 10
-12.8633302843
 20
-19.3578368329
 10
-12.8556747212
 20
-19.3561792692
 10
-12.8482281549
 20
-19.3540663791
 10
-12.8410056925
 20
-19.35150692
 10
-12.8340207242
 20
-19.3485086748
 10
-12.8272797736
 20
-19.3450755279
 10
-12.8207876473
 20
-19.3412103892
 10
-12.8145491522
 20
-19.3369161685
 10
-12.8085690078
 20
-19.3321959871
 10
-12.8028515851
 20
-19.3270538115
 10
-12.7974011678
 20
-19.3214938193
 10
-12.7922220397
 20
-19.3155201885
 10
-12.7873199126
 20
-19.3091385647
 10
-12.7827062098
 20
-19.3023604658
 10
-12.7783937826
 20
-19.2951988772
 10
-12.7743954823
 20
-19.2876667846
 10
-12.7707229593
 20
-19.2797783312
 10
-12.7673830595
 20
-19.2715522897
 10
-12.764381428
 20
-19.2630085906
 10
-12.7617237099
 20
-19.2541671642
 10
-12.7594143572
 20
-19.2450463828
 10
-12.7574530509
 20
-19.2356583867
 10
-12.7558382791
 20
-19.2260137584
 10
-12.7545685298
 20
-19.2161230803
 10
-12.7536431667
 20
-19.2059964555
 10
-12.7530650561
 20
-19.1956420708
 10
-12.7528379402
 20
-19.1850676339
 10
-12.7529655608
 20
-19.1742808523
 10
-12.7534506513
 20
-19.1632922642
 10
-12.7542919103
 20
-19.1521237295
 10
-12.7554870276
 20
-19.1407999386
 10
-12.7570336931
 20
-19.1293455819
 10
-12.7589293386
 20
-19.1177847078
 10
-12.7611703637
 20
-19.1061387976
 10
-12.7637529098
 20
-19.0944286904
 10
-12.7666731183
 20
-19.0826752254
 10
-12.7699266325
 20
-19.0708985757
 10
-12.7735071024
 20
-19.0591162491
 10
-12.7774076796
 20
-19.0473450872
 10
-12.781621516
 20
-19.0356019318
 10
-12.7861417632
 20
-19.0239036245
 10
-12.7909615731
 20
-19.012267007
 10
-12.7960740973
 20
-19.0007089209
 10
-12.8014724876
 20
-18.9892462079
 10
-12.8071492921
 20
-18.9778957185
 10
-12.8130946448
 20
-18.9666743389
 10
-12.819298076
 20
-18.955598964
 10
-12.825749116
 20
-18.9446864888
 10
-12.8324372952
 20
-18.9339538084
 10
-12.8393521439
 20
-18.9234178177
 10
-12.8464831924
 20
-18.9130954118
 10
-12.8538199712
 20
-18.9030034855
 10
-12.8613518135
 20
-18.8931583518
 10
-12.8690672644
 20
-18.883573994
 10
-12.8769546722
 20
-18.8742638135
 10
-12.8850023851
 20
-18.8652412116
 10
-12.8931970732
 20
-18.8565206682
 10
-12.9015186948
 20
-18.8481209775
 10
-12.9099455303
 20
-18.8400620124
 10
-12.9184558602
 20
-18.8323636459
 10
-12.9270305582
 20
-18.8250421479
 10
-12.935660873
 20
-18.8180993769
 10
-12.9443406463
 20
-18.8115335885
 10
-12.9530637204
 20
-18.8053430382
 10
-12.9618296751
 20
-18.799525369
 10
-12.9706610426
 20
-18.7940757735
 10
-12.979586093
 20
-18.7889888315
 10
-12.9886330964
 20
-18.784259123
  0
LWPOLYLINE
  5
280
100
AcDbEntity
  8
CURVE
100
AcDbPolyline
 62
253
  6
CONTINUOUS
 90
81
 70
0
 10
-12.9886330964
 20
-18.784259123
 10
-12.9977758212
 20
-18.7799106011
 10
-13.0067701976
 20
-18.7760639505
 10
-13.0156451919
 20
-18.7726953303
 10
-13.0244297705
 20
-18.7697808995
 10
-13.0331472688
 20
-18.7673021258
 10
-13.0417984976
 20
-18.7652617124
 10
-13.0503786368
 20
-18.763667671
 10
-13.0588828663
 20
-18.7625280137
 10
-13.0673030948
 20
-18.7618498583
 10
-13.0756181467
 20
-18.7616367465
 10
-13.0838035753
 20
-18.7618913261
 10
-13.0918349338
 20
-18.7626162449
 10
-13.0996893255
 20
-18.7638122463
 10
-13.107350053
 20
-18.7654724557
 10
-13.1148019688
 20
-18.7675880942
 10
-13.1220299255
 20
-18.7701503829
 10
-13.1290204945
 20
-18.7731515185
 10
-13.135767123
 20
-18.7765876
 10
-13.1422649769
 20
-18.7804557023
 10
-13.1485092222
 20
-18.7847529
 10
-13.1544951112
 20
-18.7894760561
 10
-13.1602182408
 20
-18.7946211859
 10
-13.1656742943
 20
-18.800184093
 10
-13.170858955
 20
-18.8061605808
 10
-13.1757664778
 20
-18.8125449851
 10
-13.1803854047
 20
-18.8193257702
 10
-13.1847028495
 20
-18.8264899326
 10
-13.188705926
 20
-18.8340244686
 10
-13.1923829504
 20
-18.8419152188
 10
-13.1957270494
 20
-18.850143399
 10
-13.198732552
 20
-18.8586890693
 10
-13.2013937874
 20
-18.8675322895
 10
-13.2037062796
 20
-18.8766546778
 10
-13.2056703324
 20
-18.8860440853
 10
-13.2072874445
 20
-18.8956899211
 10
-13.2085591148
 20
-18.9055815945
 10
-13.2094859671
 20
-18.9157089954
 10
-13.2100651265
 20
-18.9260639362
 10
-13.2102928433
 20
-18.93663871
 10
-13.2101653678
 20
-18.9474256099
 10
-13.2096799612
 20
-18.9584140981
 10
-13.2088379275
 20
-18.9695823133
 10
-13.2076415817
 20
-18.9809055634
 10
-13.2060932387
 20
-18.9923591564
 10
-13.2041954736
 20
-19.0039190438
 10
-13.2019519014
 20
-19.0155637527
 10
-13.1993663971
 20
-19.027272454
 10
-13.1964428359
 20
-19.0390243185
 10
-13.1931855934
 20
-19.0507991837
 10
-13.189601048
 20
-19.0625795536
 10
-13.1856960782
 20
-19.0743485987
 10
-13.1814775631
 20
-19.0860894897
 10
-13.1769523812
 20
-19.0977853972
 10
-13.1721274116
 20
-19.1094194916
 10
-13.1670095329
 20
-19.1209749437
 10
-13.1616056239
 20
-19.1324349239
 10
-13.155923168
 20
-19.1437825953
 10
-13.1499720665
 20
-19.1550010904
 10
-13.143762825
 20
-19.1660735342
 10
-13.1373059493
 20
-19.1769830514
 10
-13.1306119453
 20
-19.1877127672
 10
-13.1236913186
 20
-19.1982458063
 10
-13.116554575
 20
-19.2085652936
 10
-13.1092122204
 20
-19.2186543542
 10
-13.1016749567
 20
-19.2284966943
 10
-13.0939542707
 20
-19.2380783462
 10
-13.0860618458
 20
-19.2473859234
 10
-13.0780093649
 20
-19.2564060395
 10
-13.0698101889
 20
-19.2651242295
 10
-13.0614843896
 20
-19.2735217132
 10
-13.0530537162
 20
-19.2815786322
 10
-13.0445399181
 20
-19.2892751276
 10
-13.035962147
 20
-19.2965949422
 10
-13.0273291641
 20
-19.3035362245
 10
-13.0186471326
 20
-19.3101007242
 10
-13.0099222159
 20
-19.3162901912
 10
-13.001154841
 20
-19.3221069883
 10
-12.9923224881
 20
-19.3275559302
 10
-12.9833969013
 20
-19.3326424445
 10
-12.9743498244
 20
-19.3373719588
  0
LWPOLYLINE
  5
281
100
AcDbEntity
  8
ASSI
100
AcDbPolyline
 62
253
  6
CONTINUOUS
 90
5
 70
0
 10
-1.4546995396
 20
-24.8239854759
 10
-1.4561483454
 20
-24.8232793797
 10
-1.4631760453
 20
-24.8202731742
 10
-1.4704604269
 20
-24.8178325513
 10
-1.4779833713
 20
-24.8159635814
  0
LINE
  5
282
100
AcDbEntity
  8
ASSI
100
AcDbLine
 62
253
  6
CONTINUOUS
 10
-1.45456832
 20
-24.8240509574
 11
-1.4546995396
 21
-24.8239854759
  0
LINE
  5
283
100
AcDbEntity
  8
ASSI
100
AcDbLine
 62
253
  6
CONTINUOUS
 10
-3.7822511505
 20
-25.9619267306
 11
-4.7930857784
 21
-25.4565094167
  0
LINE
  5
284
100
AcDbEntity
  8
CURVE
100
AcDbLine
 62
253
  6
CONTINUOUS
 10
-10.2728363397
 20
-22.4879198462
 11
-11.6367818469
 21
-21.8059470926
  0
LINE
  5
285
100
AcDbEntity
  8
CURVE
100
AcDbLine
 62
253
  6
CONTINUOUS
 10
-11.6588812843
 20
-21.0376955947
 11
-10.294935777
 21
-21.7196683483
  0
LINE
  5
286
100
AcDbEntity
  8
ASSI
100
AcDbLine
 62
7
  6
CONTINUOUS
 10
-3.15941889
 20
-25.2171244273
 11
-3.6447219183
 21
-24.9744729132
  0
LINE
  5
287
100
AcDbEntity
  8
ASSI
100
AcDbLine
 62
253
  6
CONTINUOUS
 10
-1.9168367477
 20
-24.5965368932
 11
-1.4779833713
 21
-24.8159635814
  0
LINE
  5
288
100
AcDbEntity
  8
ASSI
100
AcDbLine
 62
7
  6
CONTINUOUS
 10
-1.9168367477
 20
-24.5929167436
 11
-1.45456832
 21
-24.8240509574
  0
LINE
  5
289
100
AcDbEntity
  8
CURVE
100
AcDbLine
 62
253
  6
CONTINUOUS
 10
-11.6277752691
 20
-19.3217710061
 11
-11.1741823892
 21
-19.548567446
  0
LINE
  5
28A
100
AcDbEntity
  8
ASSI
100
AcDbLine
 62
253
  6
CONTINUOUS
 10
-1.4688283423
 20
-24.8209060628
 11
-1.4779833713
 21
-24.8159635814
  0
LWPOLYLINE
  5
28B
100
AcDbEntity
  8
ASSI
100
AcDbPolyline
 62
253
  6
CONTINUOUS
 90
3
 70
0
 10
-5.1442105636
 20
-25.9980428235
 10
-5.1375412279
 20
-26.0025063173
 10
-5.1306508815
 20
-26.0063209487
  0
LWPOLYLINE
  5
28C
100
AcDbEntity
  8
ASSI
100
AcDbPolyline
 62
7
  6
CONTINUOUS
 90
14
 70
0
 10
-23.4248221587
 20
-18.1206052572
 10
-23.423000297
 20
-18.1596981661
 10
-23.413004428
 20
-18.2637464751
 10
-23.3958699796
 20
-18.3632583233
 10
-23.3718594684
 20
-18.4579528378
 10
-23.3411947081
 20
-18.5476961724
 10
-23.3040405002
 20
-18.6323997564
 10
-23.2606431432
 20
-18.7117371144
 10
-23.2112814784
 20
-18.7853910241
 10
-23.156222716
 20
-18.8530963277
 10
-23.0958772542
 20
-18.9144593038
 10
-23.0307346608
 20
-18.9691125123
 10
-22.9613280265
 20
-19.0167490826
 10
-22.8930161511
 20
-19.0547601233
  0
LWPOLYLINE
  5
28D
100
AcDbEntity
  8
ASSI
100
AcDbPolyline
 62
253
  6
CONTINUOUS
 90
22
 70
0
 10
-23.2783594821
 20
-18.2982242996
 10
-23.3316660225
 20
-16.6306841547
 10
-23.3796442619
 20
-14.9601379886
 10
-23.422293451
 20
-13.2866114488
 10
-23.4596129149
 20
-11.610130236
 10
-23.4916020798
 20
-9.9307200796
 10
-23.5182604724
 20
-8.2484067366
 10
-23.5395876809
 20
-6.5632160282
 10
-23.5555833676
 20
-4.8751738274
 10
-23.5662472961
 20
-3.1843060343
 10
-23.5715793041
 20
-1.4906386044
 10
-23.5715793041
 20
0.2058024667
 10
-23.5662472961
 20
1.9049911549
 10
-23.5555833676
 20
3.6069013855
 10
-23.5395876808
 20
5.3115070324
 10
-23.5182604724
 20
7.0187819325
 10
-23.4916020798
 20
8.7286998841
 10
-23.4596129149
 20
10.4412346455
 10
-23.422293451
 20
12.1563599341
 10
-23.3796442619
 20
13.8740494293
 10
-23.3316660225
 20
15.5942767729
 10
-23.2783594821
 20
17.317015568
  0
LWPOLYLINE
  5
28E
100
AcDbEntity
  8
ASSI
100
AcDbPolyline
 62
253
  6
CONTINUOUS
 90
18
 70
0
 10
-23.4248467477
 20
17.4919033068
 10
-23.4246338764
 20
17.4806572757
 10
-23.4233118533
 20
17.4694832769
 10
-23.4208861472
 20
17.4583233495
 10
-23.4173621317
 20
17.4472022162
 10
-23.4127476135
 20
17.4361445137
 10
-23.4070528153
 20
17.4251747382
 10
-23.4002903529
 20
17.4143171914
 10
-23.3924752071
 20
17.4035959259
 10
-23.383624691
 20
17.3930346928
 10
-23.3737584112
 20
17.3826568884
 10
-23.3628982246
 20
17.3724855029
 10
-23.35106819
 20
17.362543069
 10
-23.3382945144
 20
17.3528516124
 10
-23.3246054956
 20
17.3434326025
 10
-23.310031459
 20
17.3343069054
 10
-23.2946046906
 20
17.3254947375
 10
-23.2783593656
 20
17.3170156204
  0
LWPOLYLINE
  5
28F
100
AcDbEntity
  8
ASSI
100
AcDbPolyline
 62
7
  6
CONTINUOUS
 90
10
 70
0
 10
-23.4248419047
 20
17.4920591265
 10
-23.5396563928
 20
13.5264787467
 10
-23.627358604
 20
9.5097487855
 10
-23.6858240384
 20
5.5072895994
 10
-23.7150474746
 20
1.5194340464
 10
-23.7150259161
 20
-2.4534821239
 10
-23.6857588289
 20
-6.4111294034
 10
-23.6272481411
 20
-10.3531746221
 10
-23.5394980053
 20
-14.279289769
 10
-23.4248232831
 20
-18.1205773501
  0
LWPOLYLINE
  5
290
100
AcDbEntity
  8
ASSI
100
AcDbPolyline
 62
253
  6
CONTINUOUS
 90
43
 70
0
 10
-23.2783594821
 20
17.317015568
 10
-23.2761955795
 20
17.3637348858
 10
-23.272738529
 20
17.4109922739
 10
-23.2679927503
 20
17.4587292617
 10
-23.2619644765
 20
17.5068861639
 10
-23.2546611797
 20
17.5554040579
 10
-23.2460913773
 20
17.6042249048
 10
-23.2362655403
 20
17.6532895279
 10
-23.2251960166
 20
17.7025361967
 10
-23.2128964227
 20
17.7519026279
 10
-23.1993823816
 20
17.8013273216
 10
-23.184670644
 20
17.8507497577
 10
-23.1687788572
 20
17.9001090174
 10
-23.1517269213
 20
17.9493442615
 10
-23.1335361392
 20
17.9983946058
 10
-23.1142283941
 20
18.047199302
 10
-23.093827798
 20
18.0956983111
 10
-23.0723598808
 20
18.1438315772
 10
-23.0498507121
 20
18.1915389079
 10
-23.0263285828
 20
18.2387613252
 10
-23.0018228196
 20
18.28544071
 10
-22.9763629612
 20
18.3315190712
 10
-22.949980906
 20
18.3769396065
 10
-22.9227096265
 20
18.4216462937
 10
-22.8945819898
 20
18.465583531
 10
-22.8656331285
 20
18.5086973128
 10
-22.8358993188
 20
18.5509343374
 10
-22.8054166951
 20
18.5922416067
 10
-22.7742235558
 20
18.6325681258
 10
-22.7423588144
 20
18.6718643668
 10
-22.7098608714
 20
18.7100813695
 10
-22.676770487
 20
18.7471720349
 10
-22.6431289946
 20
18.7830907739
 10
-22.6089767472
 20
18.8177929464
 10
-22.5743561122
 20
18.8512362142
 10
-22.5393107692
 20
18.8833790112
 10
-22.5038839377
 20
18.9141802619
 10
-22.4681207738
 20
18.9436015613
 10
-22.4320652757
 20
18.9716075223
 10
-22.3957595507
 20
18.9981640883
 10
-22.3592480109
 20
19.0232386288
 10
-22.3225773532
 20
19.0468001728
 10
-22.2857934721
 20
19.0688197239
  0
LWPOLYLINE
  5
291
100
AcDbEntity
  8
ASSI
100
AcDbPolyline
 62
253
  6
CONTINUOUS
 90
23
 70
0
 10
-17.2198028982
 20
22.2234006866
 10
-17.2158484169
 20
22.2355813586
 10
-17.2114646531
 20
22.2477106464
 10
-17.2066635735
 20
22.2597553103
 10
-17.201458368
 20
22.271682221
 10
-17.1958632791
 20
22.2834587725
 10
-17.1898934761
 20
22.2950530623
 10
-17.1835651542
 20
22.3064336327
 10
-17.1768955031
 20
22.3175695504
 10
-17.1699026957
 20
22.3284304539
 10
-17.1626057869
 20
22.3389867384
 10
-17.1550246444
 20
22.3492096587
 10
-17.1471798932
 20
22.3590713991
 10
-17.139092887
 20
22.3685451115
 10
-17.1307856348
 20
22.3776050093
 10
-17.122280748
 20
22.386226429
 10
-17.113601383
 20
22.3943858945
 10
-17.104771157
 20
22.4020612011
 10
-17.0958141106
 20
22.4092314502
 10
-17.0867546514
 20
22.4158771046
 10
-17.0776174479
 20
22.4219800733
 10
-17.0684273615
 20
22.4275237556
 10
-17.0592094066
 20
22.4324930663
  0
LWPOLYLINE
  5
292
100
AcDbEntity
  8
ASSI
100
AcDbPolyline
 62
253
  6
CONTINUOUS
 90
27
 70
0
 10
-16.8824357029
 20
21.7876295933
 10
-16.8873142027
 20
21.7756736917
 10
-16.8926598443
 20
21.7639894176
 10
-16.8984584344
 20
21.7526088692
 10
-16.9046951196
 20
21.7415623557
 10
-16.9113527138
 20
21.7308813939
 10
-16.9184113628
 20
21.7205982686
 10
-16.9258510186
 20
21.7107420375
 10
-16.9336520547
 20
21.7013385614
 10
-16.941793374
 20
21.6924133037
 10
-16.9502529095
 20
21.683990541
 10
-16.9590074463
 20
21.6760934684
 10
-16.9680328665
 20
21.6687438711
 10
-16.9773044329
 20
21.6619618828
 10
-16.9867969022
 20
21.6557659584
 10
-16.9964843705
 20
21.6501730086
 10
-17.0063403951
 20
21.6451983065
 10
-17.0163380409
 20
21.6408554542
 10
-17.0264499769
 20
21.6371563266
 10
-17.0366485749
 20
21.6341110295
 10
-17.0469059866
 20
21.6317278777
 10
-17.0571941947
 20
21.6300133807
 10
-17.0674851132
 20
21.6289722203
 10
-17.0777506182
 20
21.6286072434
 10
-17.0879626241
 20
21.6289194439
 10
-17.0980932092
 20
21.6299079559
 10
-17.108114735
 20
21.6315700701
  0
LWPOLYLINE
  5
293
100
AcDbEntity
  8
ASSI
100
AcDbPolyline
 62
7
  6
CONTINUOUS
 90
6
 70
0
 10
-14.737527168
 20
22.7753976677
 10
-14.7230463536
 20
22.7948784815
 10
-14.7105056848
 20
22.8157039812
 10
-14.7000350004
 20
22.8376776438
 10
-14.6917367575
 20
22.860611229
 10
-14.6857075522
 20
22.8842691607
  0
LINE
  5
294
100
AcDbEntity
  8
ASSI
100
AcDbLine
 62
253
  6
CONTINUOUS
 10
-15.2811549121
 20
22.2032806785
 11
-14.7528877403
 21
22.8462328342
  0
LINE
  5
295
100
AcDbEntity
  8
ASSI
100
AcDbLine
 62
7
  6
CONTINUOUS
 10
-15.2811549121
 20
22.1137502122
 11
-14.737527168
 21
22.7753976677
  0
LWPOLYLINE
  5
296
100
AcDbEntity
  8
ASSI
100
AcDbPolyline
 62
7
  6
CONTINUOUS
 90
30
 70
0
 10
-16.1712150948
 20
21.6391260705
 10
-16.1790942178
 20
21.6299916672
 10
-16.1873144669
 20
21.6209942262
 10
-16.1958723281
 20
21.6121552397
 10
-16.2047707586
 20
21.6034987098
 10
-16.2139971936
 20
21.5950440306
 10
-16.2235237679
 20
21.5868061378
 10
-16.2333439562
 20
21.5788073843
 10
-16.2434498545
 20
21.5710695074
 10
-16.2538106374
 20
21.5636069676
 10
-16.2644171587
 20
21.5564421898
 10
-16.2752590701
 20
21.5495968845
 10
-16.2863028472
 20
21.5430849129
 10
-16.2975366956
 20
21.5369283937
 10
-16.3089476464
 20
21.5311487299
 10
-16.3204994669
 20
21.5257592064
 10
-16.3321775988
 20
21.5207812487
 10
-16.3439663303
 20
21.5162355514
 10
-16.3558266443
 20
21.5121347662
 10
-16.3677410919
 20
21.5084991408
 10
-16.3796911053
 20
21.5053481557
 10
-16.3916347828
 20
21.5026936194
 10
-16.4035516325
 20
21.500553987
 10
-16.4154201997
 20
21.4989468496
 10
-16.4271957783
 20
21.4978826888
 10
-16.4388545988
 20
21.4973773835
 10
-16.4503725359
 20
21.4974457496
 10
-16.4617028886
 20
21.498096148
 10
-16.472808151
 20
21.4993395408
 10
-16.4836725028
 20
21.5011870362
  0
LINE
  5
297
100
AcDbEntity
  8
ASSI
100
AcDbLine
 62
7
  6
CONTINUOUS
 10
-15.2811549121
 20
21.32817487
 11
-16.1712150948
 21
20.8314939487
  0
LINE
  5
298
100
AcDbEntity
  8
ASSI
100
AcDbLine
 62
7
  6
CONTINUOUS
 10
-7.5585718505
 20
24.468478899
 11
-13.8731121771
 21
21.3237025945
  0
LINE
  5
299
100
AcDbEntity
  8
RACCORDO
100
AcDbLine
 62
7
  6
CONTINUOUS
 10
9.7776983528
 20
31.9657738462
 11
-6.6072383207
 21
24.2386831023
  0
LINE
  5
29A
100
AcDbEntity
  8
CURVE
100
AcDbLine
 62
253
  6
CONTINUOUS
 10
-11.187364205
 20
-18.9999211547
 11
-11.6409570848
 21
-18.7731247148
  0
LINE
  5
29B
100
AcDbEntity
  8
CURVE
100
AcDbLine
 62
253
  6
CONTINUOUS
 10
-12.4657719008
 20
-17.7842369177
 11
-11.9795359243
 21
-18.027354906
  0
LINE
  5
29C
100
AcDbEntity
  8
CURVE
100
AcDbLine
 62
253
  6
CONTINUOUS
 10
-9.9533358376
 20
-18.5845214301
 11
-11.7791568015
 21
-17.6716109482
  0
LINE
  5
29D
100
AcDbEntity
  8
CURVE
100
AcDbLine
 62
253
  6
CONTINUOUS
 10
-11.4313042812
 20
-17.409068708
 11
-10.7126689452
 21
-17.768386376
  0
LWPOLYLINE
  5
29E
100
AcDbEntity
  8
ASSI
100
AcDbPolyline
 62
7
  6
CONTINUOUS
 90
8
 70
0
 10
-5.1952286501
 20
-25.9598854912
 10
-5.2132610432
 20
-25.9398871912
 10
-5.2290747919
 20
-25.918008156
 10
-5.2425332563
 20
-25.8943594584
 10
-5.2534261865
 20
-25.8691596488
 10
-5.2615078694
 20
-25.8428467596
 10
-5.2666467968
 20
-25.8158124881
 10
-5.2687863219
 20
-25.7882421157
  0
LWPOLYLINE
  5
29F
100
AcDbEntity
  8
CURVE
100
AcDbPolyline
 62
253
  6
CONTINUOUS
 90
37
 70
0
 10
-12.8368508895
 20
-20.237426547
 10
-12.8428202738
 20
-20.2274800633
 10
-12.8486328264
 20
-20.2174743265
 10
-12.8542980888
 20
-20.2073982603
 10
-12.8598256026
 20
-20.197240788
 10
-12.8652249097
 20
-20.1869908331
 10
-12.8705055516
 20
-20.176637319
 10
-12.8756755465
 20
-20.1661698617
 10
-12.8807368187
 20
-20.1555808472
 10
-12.885689769
 20
-20.1448633543
 10
-12.8905347981
 20
-20.1340104615
 10
-12.895272307
 20
-20.1230152475
 10
-12.8999026963
 20
-20.1118707909
 10
-12.9044242951
 20
-20.1005756147
 10
-12.9088271451
 20
-20.0891500196
 10
-12.9130992162
 20
-20.0776197508
 10
-12.9172284783
 20
-20.0660105534
 10
-12.9212029014
 20
-20.0543481725
 10
-12.9250104553
 20
-20.0426583531
 10
-12.9286403795
 20
-20.0309668459
 10
-12.9320869912
 20
-20.0192994224
 10
-12.9353458772
 20
-20.0076818597
 10
-12.9384126243
 20
-19.996139935
 10
-12.9412828193
 20
-19.9846994252
 10
-12.9439520488
 20
-19.9733861075
 10
-12.9464172896
 20
-19.9622203216
 10
-12.9486810782
 20
-19.9512006588
 10
-12.9507473413
 20
-19.9403202731
 10
-12.9526200054
 20
-19.9295723185
 10
-12.954302997
 20
-19.918949949
 10
-12.9558002425
 20
-19.9084463186
 10
-12.9571145874
 20
-19.8980538709
 10
-12.9582445513
 20
-19.8877622079
 10
-12.9591875729
 20
-19.8775602213
 10
-12.9599410908
 20
-19.8674368027
 10
-12.9605025434
 20
-19.8573808438
 10
-12.9608693693
 20
-19.8473812362
  0
LWPOLYLINE
  5
2A0
100
AcDbEntity
  8
ASSI
100
AcDbPolyline
 62
7
  6
CONTINUOUS
 90
10
 70
0
 10
-18.6331656471
 20
22.8789969389
 10
-18.6311170981
 20
22.9109313764
 10
-18.6249200088
 20
22.9426731114
 10
-18.6145813601
 20
22.973584294
 10
-18.6002066866
 20
23.0030661626
 10
-18.5820485513
 20
23.0304749416
 10
-18.5604852391
 20
23.055229065
 10
-18.5357489516
 20
23.0770330689
 10
-18.5083578061
 20
23.0953922306
 10
-18.4972923505
 20
23.1014269172
  0
LINE
  5
2A1
100
AcDbEntity
  8
ASSI
100
AcDbLine
 62
7
  6
CONTINUOUS
 10
-12.9123351937
 20
20.9980564567
 11
-12.5587938045
 21
21.1794298815
  0
LINE
  5
2A2
100
AcDbEntity
  8
ASSI
100
AcDbLine
 62
7
  6
CONTINUOUS
 10
-7.6090463362
 20
21.1992541646
 11
-6.901939555
 21
21.5528075552
  0
LINE
  5
2A3
100
AcDbEntity
  8
ASSI
100
AcDbLine
 62
7
  6
CONTINUOUS
 10
-6.6170399639
 20
23.4761081297
 11
-11.2152909203
 21
21.2097468321
  0
LINE
  5
2A4
100
AcDbEntity
  8
ASSI
100
AcDbLine
 62
7
  6
CONTINUOUS
 10
-6.901939555
 20
22.1053657445
 11
-6.5681639324
 21
22.2686860997
  0
LINE
  5
2A5
100
AcDbEntity
  8
ASSI
100
AcDbLine
 62
7
  6
CONTINUOUS
 10
-4.4916059066
 20
22.934995927
 11
-6.5483861644
 21
21.9285890492
  0
LINE
  5
2A6
100
AcDbEntity
  8
ASSI
100
AcDbLine
 62
7
  6
CONTINUOUS
 10
-12.5587938045
 20
21.1794298815
 11
-7.2225703986
 21
23.778873347
  0
LINE
  5
2A7
100
AcDbEntity
  8
RACCORDO
100
AcDbLine
 62
253
  6
CONTINUOUS
 10
10.2170907134
 20
31.9336102987
 11
-6.3608607476
 21
24.1154943157
  0
LWPOLYLINE
  5
2A8
100
AcDbEntity
  8
ASSI
100
AcDbPolyline
 62
7
  6
CONTINUOUS
 90
7
 70
0
 10
-6.5681639324
 20
23.4960366968
 10
-6.5762466835
 20
23.4933213261
 10
-6.5843547363
 20
23.4903635326
 10
-6.5924880907
 20
23.4871633162
 10
-6.6006467468
 20
23.4837206769
 10
-6.6088307045
 20
23.4800356148
 10
-6.6170399639
 20
23.4761081297
  0
LWPOLYLINE
  5
2A9
100
AcDbEntity
  8
ASSI
100
AcDbPolyline
 62
7
  6
CONTINUOUS
 90
4
 70
0
 10
-1.3957806195
 20
-24.8649047079
 10
-1.4154746064
 20
-24.848333744
 10
-1.4367100752
 20
-24.8339106236
 10
-1.4546995396
 20
-24.8239854759
  0
LWPOLYLINE
  5
2AA
100
AcDbEntity
  8
ASSI
100
AcDbPolyline
 62
7
  6
CONTINUOUS
 90
9
 70
0
 10
-18.6331656471
 20
22.5390230047
 10
-18.6318928572
 20
22.5138294808
 10
-18.6280506781
 20
22.4887111562
 10
-18.621636824
 20
22.4639796987
 10
-18.6126989979
 20
22.4399551576
 10
-18.6013251726
 20
22.4169311576
 10
-18.5876209736
 20
22.395154942
 10
-18.5716970402
 20
22.3748404543
 10
-18.5537567465
 20
22.3562699575
  0
LWPOLYLINE
  5
2AB
100
AcDbEntity
  8
ASSI
100
AcDbPolyline
 62
253
  6
CONTINUOUS
 90
17
 70
0
 10
-18.5599423424
 20
22.4506346571
 10
-18.5597234712
 20
22.4399736649
 10
-18.5590669155
 20
22.4295522483
 10
-18.5579735778
 20
22.419396671
 10
-18.556445128
 20
22.4095308169
 10
-18.5544848094
 20
22.3999816202
 10
-18.5520982263
 20
22.3907783841
 10
-18.5492918935
 20
22.3819456575
 10
-18.5460723765
 20
22.3735036167
 10
-18.5424476073
 20
22.3654731021
 10
-18.5384265242
 20
22.3578740168
 10
-18.5340191511
 20
22.3507253951
 10
-18.5292365232
 20
22.3440451675
 10
-18.5240905503
 20
22.3378499664
 10
-18.5185940214
 20
22.3321551861
 10
-18.5127606781
 20
22.3269750498
 10
-18.5066050893
 20
22.3223224585
  0
LWPOLYLINE
  5
2AC
100
AcDbEntity
  8
ASSI
100
AcDbPolyline
 62
253
  6
CONTINUOUS
 90
19
 70
0
 10
-18.1420847426
 20
2.8270700789
 10
-18.1419525909
 20
2.8135633294
 10
-18.1412418233
 20
2.8003728651
 10
-18.1399543801
 20
2.7875346907
 10
-18.1380937753
 20
2.7750838493
 10
-18.1356650877
 20
2.7630543265
 10
-18.1326749467
 20
2.7514789582
 10
-18.1291315141
 20
2.7403893405
 10
-18.125044462
 20
2.7298157435
 10
-18.1204249465
 20
2.7197870289
 10
-18.115285577
 20
2.7103305711
 10
-18.1096403819
 20
2.7014721822
 10
-18.1035047702
 20
2.6932360423
 10
-18.0968954898
 20
2.6856446326
 10
-18.0898305813
 20
2.6787186746
 10
-18.082329329
 20
2.6724770734
 10
-18.0744122084
 20
2.6669368661
 10
-18.06610083
 20
2.6621131751
 10
-18.0642302196
 20
2.6611537595
  0
LWPOLYLINE
  5
2AD
100
AcDbEntity
  8
ASSI
100
AcDbPolyline
 62
253
  6
CONTINUOUS
 90
10
 70
0
 10
-18.5721570451
 20
-8.742463584
 10
-18.5841675566
 20
-7.4972966062
 10
-18.5931754674
 20
-6.25065021
 10
-18.5991807528
 20
-5.0025348257
 10
-18.6021834049
 20
-3.7529678506
 10
-18.6021834889
 20
-2.5019528015
 10
-18.5991809788
 20
-1.2494792323
 10
-18.5931757593
 20
0.00444943
 10
-18.5841677896
 20
1.2598158039
 10
-18.5721570451
 20
2.5166094578
  0
LWPOLYLINE
  5
2AE
100
AcDbEntity
  8
ASSI
100
AcDbPolyline
 62
253
  6
CONTINUOUS
 90
10
 70
0
 10
-18.1516454279
 20
-8.7409297791
 10
-18.1636488568
 20
-7.4964924457
 10
-18.1726514473
 20
-6.2505974657
 10
-18.1786531994
 20
-5.003244839
 10
-18.1816541382
 20
-3.754431096
 10
-18.1816542386
 20
-2.5041597063
 10
-18.1786534253
 20
-1.252441079
 10
-18.1726516732
 20
0.0007213161
 10
-18.1636490074
 20
1.2553309487
 10
-18.1516454279
 20
2.5113878189
  0
LINE
  5
2AF
100
AcDbEntity
  8
ASSI
100
AcDbLine
 62
7
  6
CONTINUOUS
 10
-18.6331656471
 20
22.8789969389
 11
-18.6331656471
 21
22.5390230047
  0
LINE
  5
2B0
100
AcDbEntity
  8
ASSI
100
AcDbLine
 62
253
  6
CONTINUOUS
 10
-18.5599423424
 20
22.7906085912
 11
-18.5599423424
 21
22.4506346571
  0
LINE
  5
2B1
100
AcDbEntity
  8
ASSI
100
AcDbLine
 62
7
  6
CONTINUOUS
 10
-17.9301726928
 20
22.0330180304
 11
-17.9301726928
 21
21.5790439287
  0
LINE
  5
2B2
100
AcDbEntity
  8
ASSI
100
AcDbLine
 62
253
  6
CONTINUOUS
 10
-17.8569493881
 20
21.9964063781
 11
-17.8569493881
 21
21.4873322339
  0
LINE
  5
2B3
100
AcDbEntity
  8
ASSI
100
AcDbLine
 62
253
  6
CONTINUOUS
 10
-17.2349576626
 20
21.7881423172
 11
-17.2349576626
 21
22.1281162513
  0
LWPOLYLINE
  5
2B4
100
AcDbEntity
  8
ASSI
100
AcDbPolyline
 62
253
  6
CONTINUOUS
 90
31
 70
0
 10
-18.1420847426
 20
-9.4714521908
 10
-18.1419525898
 20
-9.4578132539
 10
-18.1412418183
 20
-9.4439119881
 10
-18.1399543688
 20
-9.4297863384
 10
-18.1380937557
 20
-9.4154748626
 10
-18.1356650582
 20
-9.4010166255
 10
-18.132674906
 20
-9.3864510923
 10
-18.1291314613
 20
-9.3718180214
 10
-18.1250443967
 20
-9.3571573552
 10
-18.1204248686
 20
-9.3425091115
 10
-18.1152854868
 20
-9.327913274
 10
-18.1096402799
 20
-9.3134096837
 10
-18.1035046574
 20
-9.2990379291
 10
-18.0968953673
 20
-9.2848372394
 10
-18.0898304506
 20
-9.2708463766
 10
-18.0823291918
 20
-9.2571035299
 10
-18.0744120665
 20
-9.2436462114
 10
-18.0661006854
 20
-9.2305111541
 10
-18.0574177353
 20
-9.2177342109
 10
-18.0483869172
 20
-9.2053502576
 10
-18.0390328818
 20
-9.1933930969
 10
-18.0293811615
 20
-9.1818953668
 10
-18.0194581019
 20
-9.1708884511
 10
-18.0092907888
 20
-9.160402394
 10
-17.9989069747
 20
-9.1504658176
 10
-17.9883350031
 20
-9.1411058447
 10
-17.9776037313
 20
-9.1323480238
 10
-17.9667424509
 20
-9.1242162599
 10
-17.9557808086
 20
-9.116732749
 10
-17.9447487254
 20
-9.1099179182
 10
-17.9336763143
 20
-9.1037903688
  0
LWPOLYLINE
  5
2B5
100
AcDbEntity
  8
ASSI
100
AcDbPolyline
 62
253
  6
CONTINUOUS
 90
31
 70
0
 10
-18.5599423424
 20
22.7906085912
 10
-18.5597029875
 20
22.8019910914
 10
-18.5589849823
 20
22.8135893171
 10
-18.5577893921
 20
22.8253721779
 10
-18.5561181947
 20
22.8373104454
 10
-18.5539752598
 20
22.8493694963
 10
-18.5513673043
 20
22.8615092003
 10
-18.5483021323
 20
22.8736939011
 10
-18.544787578
 20
22.8858930265
 10
-18.5408330968
 20
22.8980736985
 10
-18.536449333
 20
22.9102029863
 10
-18.5316482533
 20
22.9222476502
 10
-18.5264430479
 20
22.9341745609
 10
-18.5208479589
 20
22.9459511125
 10
-18.514878156
 20
22.9575454022
 10
-18.508549834
 20
22.9689259727
 10
-18.501880183
 20
22.9800618903
 10
-18.4948873755
 20
22.9909227938
 10
-18.4875904667
 20
23.0014790784
 10
-18.4800093243
 20
23.0117019986
 10
-18.472164573
 20
23.021563739
 10
-18.4640775668
 20
23.0310374514
 10
-18.4557703146
 20
23.0400973492
 10
-18.4472654278
 20
23.0487187689
 10
-18.4385860628
 20
23.0568782345
 10
-18.4297558368
 20
23.064553541
 10
-18.4207987905
 20
23.0717237901
 10
-18.4117393313
 20
23.0783694445
 10
-18.4026021277
 20
23.0844724132
 10
-18.3934120414
 20
23.0900160955
 10
-18.3841940864
 20
23.0949854062
  0
LWPOLYLINE
  5
2B6
100
AcDbEntity
  8
ASSI
100
AcDbPolyline
 62
253
  6
CONTINUOUS
 90
9
 70
0
 10
-17.2349576626
 20
22.1281162513
 10
-17.2347183076
 20
22.1394987514
 10
-17.2340003024
 20
22.1510969771
 10
-17.2328047123
 20
22.162879838
 10
-17.2311335149
 20
22.1748181055
 10
-17.22899058
 20
22.1868771564
 10
-17.2263826245
 20
22.1990168603
 10
-17.2233174525
 20
22.2112015612
 10
-17.2198028982
 20
22.2234006866
  0
LWPOLYLINE
  5
2B7
100
AcDbEntity
  8
ASSI
100
AcDbPolyline
 62
253
  6
CONTINUOUS
 90
19
 70
0
 10
-18.1516454279
 20
2.5113878189
 10
-18.151354278
 20
2.5227575893
 10
-18.1506497287
 20
2.5338443346
 10
-18.1495396712
 20
2.5446306195
 10
-18.1480370616
 20
2.5550731831
 10
-18.1461486407
 20
2.5651853297
 10
-18.1438649877
 20
2.5750293052
 10
-18.1411770435
 20
2.5846195816
 10
-18.1380949608
 20
2.5938984728
 10
-18.1346340229
 20
2.6028170957
 10
-18.1308058981
 20
2.611350553
 10
-18.1266151799
 20
2.619493949
 10
-18.1220711324
 20
2.6272330338
 10
-18.1171835782
 20
2.6345536411
 10
-18.1119618178
 20
2.6414443781
 10
-18.1064147761
 20
2.6478958667
 10
-18.100553469
 20
2.6538963823
 10
-18.0943884964
 20
2.6594361726
 10
-18.0879279664
 20
2.664508615
  0
LWPOLYLINE
  5
2B8
100
AcDbEntity
  8
ASSI
100
AcDbPolyline
 62
253
  6
CONTINUOUS
 90
37
 70
0
 10
-18.5721570451
 20
2.5166094578
 10
-18.5714698477
 20
2.5394524278
 10
-18.5700051697
 20
2.5616560138
 10
-18.5677630431
 20
2.5832202002
 10
-18.5647426971
 20
2.6041276239
 10
-18.5609449667
 20
2.6243956168
 10
-18.5563722864
 20
2.6440762097
 10
-18.5510089989
 20
2.6632430811
 10
-18.5448708037
 20
2.6818225318
 10
-18.5380071872
 20
2.6996455184
 10
-18.5304173058
 20
2.7166838038
 10
-18.5221020972
 20
2.7329655795
 10
-18.5131137542
 20
2.7484064277
 10
-18.5034505866
 20
2.7630000421
 10
-18.4931143949
 20
2.7767526756
 10
-18.4821626282
 20
2.7895987406
 10
-18.470594432
 20
2.8015338692
 10
-18.4584107805
 20
2.8125623713
 10
-18.4456718802
 20
2.8226316686
 10
-18.4323773077
 20
2.8317388167
 10
-18.4185276082
 20
2.8398867012
 10
-18.4041844517
 20
2.8470314844
 10
-18.389334526
 20
2.8531716722
 10
-18.3739912599
 20
2.8583087024
 10
-18.3582564428
 20
2.8624031314
 10
-18.3421507812
 20
2.8654479822
 10
-18.3256536774
 20
2.8674501793
 10
-18.3088049681
 20
2.8683911308
 10
-18.2916307663
 20
2.8682859269
 10
-18.2741050462
 20
2.8671194351
 10
-18.2561894335
 20
2.864827731
 10
-18.2378099759
 20
2.8613987317
 10
-18.219040689
 20
2.8568444894
 10
-18.2000651482
 20
2.8511372831
 10
-18.1809445591
 20
2.8442678656
 10
-18.161617754
 20
2.8362454658
 10
-18.1420847426
 20
2.8270700789
  0
LWPOLYLINE
  5
2B9
100
AcDbEntity
  8
ASSI
100
AcDbPolyline
 62
253
  6
CONTINUOUS
 90
15
 70
0
 10
-14.6810159718
 20
22.9277956793
 10
-14.6819769991
 20
22.9214375816
 10
-14.6836366045
 20
22.9149699143
 10
-14.685968524
 20
22.9085542615
 10
-14.6889663998
 20
22.9022081409
 10
-14.6926219748
 20
22.8959489764
 10
-14.6969251763
 20
22.8897938942
 10
-14.7018643029
 20
22.8837595288
 10
-14.707426016
 20
22.8778621434
 10
-14.7135958362
 20
22.8721172121
 10
-14.7203564434
 20
22.8665409712
 10
-14.7276873258
 20
22.8611500663
 10
-14.7355673217
 20
22.8559594717
 10
-14.7439752167
 20
22.8509826157
 10
-14.7528877403
 20
22.8462328342
  0
LINE
  5
2BA
100
AcDbEntity
  8
ASSI
100
AcDbLine
 62
7
  6
CONTINUOUS
 10
-14.6857075522
 20
22.8842691607
 11
-14.6820173437
 21
22.9083767267
  0
LINE
  5
2BB
100
AcDbEntity
  8
RACCORDO
100
AcDbLine
 62
7
  6
CONTINUOUS
 10
-8.0410728055
 20
19.6226377747
 11
-7.2643341169
 21
20.4164402305
  0
LINE
  5
2BC
100
AcDbEntity
  8
RACCORDO
100
AcDbLine
 62
253
  6
CONTINUOUS
 10
-7.8805577992
 20
19.5423802716
 11
-7.018829044
 21
20.4230398964
  0
LWPOLYLINE
  5
2BD
100
AcDbEntity
  8
RACCORDO
100
AcDbPolyline
 62
7
  6
CONTINUOUS
 90
6
 70
0
 10
-7.2325132792
 20
20.4404061545
 10
-7.2379467529
 20
20.4373091229
 10
-7.2450150134
 20
20.4327464514
 10
-7.2517635485
 20
20.4277539066
 10
-7.2581838967
 20
20.4223384215
 10
-7.2643334132
 20
20.416440633
  0
LINE
  5
2BE
100
AcDbEntity
  8
RACCORDO
100
AcDbLine
 62
7
  6
CONTINUOUS
 10
-7.2325128045
 20
20.4404064106
 11
-6.9186215151
 21
20.6097579624
  0
LINE
  5
2BF
100
AcDbEntity
  8
RACCORDO
100
AcDbLine
 62
253
  6
CONTINUOUS
 10
-7.0166051618
 20
20.4219545521
 11
-6.6898613686
 21
20.5982403246
  0
LINE
  5
2C0
100
AcDbEntity
  8
RACCORDO
100
AcDbLine
 62
253
  6
CONTINUOUS
 10
-6.5689326332
 20
20.6555754456
 11
-6.5396591075
 21
20.6711493624
  0
LINE
  5
2C1
100
AcDbEntity
  8
RACCORDO
100
AcDbLine
 62
253
  6
CONTINUOUS
 10
-6.5396591075
 20
20.6711493624
 11
-6.532472448
 21
20.6749273838
  0
LINE
  5
2C2
100
AcDbEntity
  8
RACCORDO
100
AcDbLine
 62
253
  6
CONTINUOUS
 10
-6.5753598384
 20
20.6521953913
 11
-6.5689326332
 21
20.6555754456
  0
LWPOLYLINE
  5
2C3
100
AcDbEntity
  8
RACCORDO
100
AcDbPolyline
 62
7
  6
CONTINUOUS
 90
3
 70
0
 10
-6.9186214941
 20
20.6097579722
 10
-6.9141217047
 20
20.6121076472
 10
-6.9082067588
 20
20.6149661177
  0
LINE
  5
2C4
100
AcDbEntity
  8
RACCORDO
100
AcDbLine
 62
253
  6
CONTINUOUS
 10
-6.532472448
 20
20.6749273838
 11
-6.5250858242
 21
20.678761972
  0
LINE
  5
2C5
100
AcDbEntity
  8
RACCORDO
100
AcDbLine
 62
253
  6
CONTINUOUS
 10
-6.5817027907
 20
20.648905051
 11
-6.5753598384
 21
20.6521953913
  0
LINE
  5
2C6
100
AcDbEntity
  8
RACCORDO
100
AcDbLine
 62
253
  6
CONTINUOUS
 10
-6.5250858242
 20
20.678761972
 11
-6.5200420608
 21
20.6813465915
  0
LINE
  5
2C7
100
AcDbEntity
  8
RACCORDO
100
AcDbLine
 62
253
  6
CONTINUOUS
 10
-6.5858936848
 20
20.6467628885
 11
-6.5817027907
 21
20.648905051
  0
LINE
  5
2C8
100
AcDbEntity
  8
RACCORDO
100
AcDbLine
 62
253
  6
CONTINUOUS
 10
-6.5200420608
 20
20.6813465915
 11
-6.5148969348
 21
20.6839513063
  0
LINE
  5
2C9
100
AcDbEntity
  8
RACCORDO
100
AcDbLine
 62
253
  6
CONTINUOUS
 10
-6.5900619296
 20
20.6446626768
 11
-6.5858936848
 21
20.6467628885
  0
LINE
  5
2CA
100
AcDbEntity
  8
ASSI
100
AcDbLine
 62
7
  6
CONTINUOUS
 10
-5.1506016579
 20
22.0749231132
 11
-6.5483861644
 21
21.3760308599
  0
LINE
  5
2CB
100
AcDbEntity
  8
RACCORDO
100
AcDbLine
 62
253
  6
CONTINUOUS
 10
-6.5148969348
 20
20.6839513063
 11
-6.5096449645
 21
20.6865737586
  0
LINE
  5
2CC
100
AcDbEntity
  8
RACCORDO
100
AcDbLine
 62
253
  6
CONTINUOUS
 10
-6.5942118524
 20
20.6426047409
 11
-6.5900619296
 21
20.6446626768
  0
LINE
  5
2CD
100
AcDbEntity
  8
RACCORDO
100
AcDbLine
 62
253
  6
CONTINUOUS
 10
-6.5096449645
 20
20.6865737586
 11
-6.5042824765
 21
20.6892123837
  0
LINE
  5
2CE
100
AcDbEntity
  8
SMUSSO
100
AcDbLine
 62
7
  6
CONTINUOUS
 10
14.070461968
 20
30.0069246714
 11
-2.9353946644
 21
21.7210337739
  0
LINE
  5
2CF
100
AcDbEntity
  8
SMUSSO
100
AcDbLine
 62
7
  6
CONTINUOUS
 10
14.2599737992
 20
29.0460114421
 11
12.6339005107
 21
28.2537275748
  0
LINE
  5
2D0
100
AcDbEntity
  8
RACCORDO
100
AcDbLine
 62
253
  6
CONTINUOUS
 10
-6.5983499815
 20
20.6405894506
 11
-6.5942118524
 21
20.6426047409
  0
LINE
  5
2D1
100
AcDbEntity
  8
RACCORDO
100
AcDbLine
 62
253
  6
CONTINUOUS
 10
-6.5042824765
 20
20.6892123837
 11
-6.4988038561
 21
20.6918648814
  0
LINE
  5
2D2
100
AcDbEntity
  8
RACCORDO
100
AcDbLine
 62
253
  6
CONTINUOUS
 10
-6.6024839159
 20
20.6386165005
 11
-6.5983499815
 21
20.6405894506
  0
LINE
  5
2D3
100
AcDbEntity
  8
RACCORDO
100
AcDbLine
 62
253
  6
CONTINUOUS
 10
-6.4988038561
 20
20.6918648814
 11
-6.4932040247
 21
20.6945286816
  0
LINE
  5
2D4
100
AcDbEntity
  8
RACCORDO
100
AcDbLine
 62
253
  6
CONTINUOUS
 10
-6.4932040247
 20
20.6945286816
 11
-6.4874796416
 21
20.6972020512
  0
LINE
  5
2D5
100
AcDbEntity
  8
RACCORDO
100
AcDbLine
 62
253
  6
CONTINUOUS
 10
-6.6066159203
 20
20.6366858312
 11
-6.6024839159
 21
20.6386165005
  0
LINE
  5
2D6
100
AcDbEntity
  8
RACCORDO
100
AcDbLine
 62
7
  6
CONTINUOUS
 10
-6.9082067429
 20
20.6149661251
 11
-6.7863786367
 21
20.6713418476
  0
LINE
  5
2D7
100
AcDbEntity
  8
RACCORDO
100
AcDbLine
 62
253
  6
CONTINUOUS
 10
-6.6898613686
 20
20.5982403246
 11
-6.6066159203
 21
20.6366858312
  0
LINE
  5
2D8
100
AcDbEntity
  8
RACCORDO
100
AcDbLine
 62
7
  6
CONTINUOUS
 10
-6.7762823938
 20
20.6759764494
 11
-6.7863786367
 21
20.6713418476
  0
LINE
  5
2D9
100
AcDbEntity
  8
RACCORDO
100
AcDbLine
 62
253
  6
CONTINUOUS
 10
-6.4874796416
 20
20.6972020512
 11
-6.481625811
 21
20.6998823359
  0
LWPOLYLINE
  5
2DA
100
AcDbEntity
  8
RACCORDO
100
AcDbPolyline
 62
253
  6
CONTINUOUS
 90
18
 70
0
 10
-5.8374800398
 20
20.7280572404
 10
-5.8318516296
 20
20.730613735
 10
-5.8262360617
 20
20.7328895272
 10
-5.8206422434
 20
20.7348810072
 10
-5.8150790475
 20
20.7365850164
 10
-5.8095552979
 20
20.7379988517
 10
-5.8040797565
 20
20.7391202707
 10
-5.7986611082
 20
20.7399474947
 10
-5.793307948
 20
20.7404792114
 10
-5.7880287668
 20
20.7407145776
 10
-5.7828319383
 20
20.7406532199
 10
-5.7777257055
 20
20.7402952356
 10
-5.7727181679
 20
20.7396411926
 10
-5.767817268
 20
20.7386921282
 10
-5.7630307796
 20
20.7374495479
 10
-5.7583662949
 20
20.7359154225
 10
-5.7538312125
 20
20.7340921855
 10
-5.7505054633
 20
20.7325299062
  0
LINE
  5
2DB
100
AcDbEntity
  8
RACCORDO
100
AcDbLine
 62
7
  6
CONTINUOUS
 10
-6.765662384
 20
20.6807913109
 11
-6.7762823938
 21
20.6759764494
  0
LWPOLYLINE
  5
2DC
100
AcDbEntity
  8
RACCORDO
100
AcDbPolyline
 62
253
  6
CONTINUOUS
 90
22
 70
0
 10
-6.8224257517
 20
20.6545826295
 10
-6.8192974143
 20
20.6559925722
 10
-6.8100489495
 20
20.6597664659
 10
-6.8005893327
 20
20.6630489211
 10
-6.7909286895
 20
20.6658364244
 10
-6.7810773608
 20
20.6681259919
 10
-6.7710458915
 20
20.6699151728
 10
-6.7608450194
 20
20.6712020521
 10
-6.7504856636
 20
20.6719852522
 10
-6.739978913
 20
20.6722639349
 10
-6.7293360139
 20
20.6720378017
 10
-6.7185683588
 20
20.6713070948
 10
-6.7076874733
 20
20.6700725964
 10
-6.6967050045
 20
20.6683356278
 10
-6.6856327081
 20
20.6660980484
 10
-6.674482436
 20
20.6633622532
 10
-6.6632661235
 20
20.6601311707
 10
-6.6519957768
 20
20.6564082595
 10
-6.6406834596
 20
20.6521975045
 10
-6.6293412808
 20
20.6475034131
 10
-6.6179813811
 20
20.6423310098
 10
-6.6066159203
 20
20.6366858312
  0
LWPOLYLINE
  5
2DD
100
AcDbEntity
  8
RACCORDO
100
AcDbPolyline
 62
7
  6
CONTINUOUS
 90
22
 70
0
 10
-6.9082067588
 20
20.6149661177
 10
-6.905066105
 20
20.616381752
 10
-6.8957826509
 20
20.6201724585
 10
-6.8862749667
 20
20.6234781343
 10
-6.8765474737
 20
20.6262960656
 10
-6.8666154885
 20
20.6286206575
 10
-6.856499437
 20
20.6304471875
 10
-6.8462175767
 20
20.6317738136
 10
-6.8357740839
 20
20.6326014182
 10
-6.8251685031
 20
20.632929921
 10
-6.8144036754
 20
20.6327578263
 10
-6.8034987103
 20
20.6320840342
 10
-6.7924777148
 20
20.6309098521
 10
-6.7813603022
 20
20.6292387607
 10
-6.7701507305
 20
20.6270727546
 10
-6.7588503342
 20
20.6244119368
 10
-6.7474646531
 20
20.6212567024
 10
-6.736011829
 20
20.6176111595
 10
-6.7245121038
 20
20.613481303
 10
-6.7129803747
 20
20.6088729579
 10
-6.7014260744
 20
20.6037906837
 10
-6.6898613686
 20
20.5982403246
  0
LINE
  5
2DE
100
AcDbEntity
  8
RACCORDO
100
AcDbLine
 62
253
  6
CONTINUOUS
 10
-6.481625811
 20
20.6998823359
 11
-6.4756378291
 21
20.7025667942
  0
LINE
  5
2DF
100
AcDbEntity
  8
RACCORDO
100
AcDbLine
 62
7
  6
CONTINUOUS
 10
-6.7545327526
 20
20.6857607597
 11
-6.765662384
 21
20.6807913109
  0
LINE
  5
2E0
100
AcDbEntity
  8
RACCORDO
100
AcDbLine
 62
7
  6
CONTINUOUS
 10
-6.7428828505
 20
20.69087032
 11
-6.7545327526
 21
20.6857607597
  0
LINE
  5
2E1
100
AcDbEntity
  8
RACCORDO
100
AcDbLine
 62
253
  6
CONTINUOUS
 10
-6.4756378291
 20
20.7025667942
 11
-6.4695126627
 21
20.7052535537
  0
LINE
  5
2E2
100
AcDbEntity
  8
RACCORDO
100
AcDbLine
 62
7
  6
CONTINUOUS
 10
-6.7306605726
 20
20.6961227536
 11
-6.7428828505
 21
20.69087032
  0
LWPOLYLINE
  5
2E3
100
AcDbEntity
  8
RACCORDO
100
AcDbPolyline
 62
253
  6
CONTINUOUS
 90
3
 70
0
 10
-6.4695126627
 20
20.7052535537
 10
-6.4632458682
 20
20.7079397566
 10
-6.4600580595
 20
20.7092816226
  0
LWPOLYLINE
  5
2E4
100
AcDbEntity
  8
RACCORDO
100
AcDbPolyline
 62
253
  6
CONTINUOUS
 90
153
 70
0
 10
-6.4600580595
 20
20.7092816226
 10
-6.4535722687
 20
20.7119618763
 10
-6.4502729873
 20
20.7132992393
 10
-6.4469356924
 20
20.7146344152
 10
-6.4435603708
 20
20.7159674079
 10
-6.4401456747
 20
20.7172972069
 10
-6.436691531
 20
20.7186238425
 10
-6.4331980128
 20
20.7199472843
 10
-6.4296639922
 20
20.7212664313
 10
-6.4260893868
 20
20.7225813132
 10
-6.4224742789
 20
20.7238919002
 10
-6.4188177884
 20
20.7251970021
 10
-6.4151198907
 20
20.7264966255
 10
-6.4113806103
 20
20.7277907637
 10
-6.4075991402
 20
20.7290782061
 10
-6.4037754479
 20
20.7303589625
 10
-6.3999095659
 20
20.7316330231
 10
-6.3960007848
 20
20.732899148
 10
-6.3920490628
 20
20.7341573497
 10
-6.3880544417
 20
20.7354076157
 10
-6.3840163371
 20
20.7366486688
 10
-6.3799347115
 20
20.7378805196
 10
-6.3758096025
 20
20.7391031575
 10
-6.3716405381
 20
20.7403152728
 10
-6.3674274622
 20
20.741516881
 10
-6.3631704309
 20
20.7427079667
 10
-6.3588691416
 20
20.7438871735
 10
-6.354523516
 20
20.7450545209
 10
-6.3501336324
 20
20.7462099895
 10
-6.3456994219
 20
20.7473521652
 10
-6.3412208045
 20
20.7484810649
 10
-6.3366978603
 20
20.7495966718
 10
-6.3321307613
 20
20.7506975215
 10
-6.3275194362
 20
20.751783626
 10
-6.3228639563
 20
20.7528549734
 10
-6.3181647069
 20
20.7539100636
 10
-6.3134217373
 20
20.7549488838
 10
-6.3086349983
 20
20.7559714468
 10
-6.3038047277
 20
20.7569762907
 10
-6.2989280917
 20
20.757963908
 10
-6.294007924
 20
20.7589338062
 10
-6.2890529637
 20
20.7598830461
 10
-6.2840596439
 20
20.7608120073
 10
-6.2790315315
 20
20.7617203102
 10
-6.2739880658
 20
20.7626038762
 10
-6.268931994
 20
20.7634619208
 10
-6.2638605689
 20
20.7642952286
 10
-6.2587849885
 20
20.7651020748
 10
-6.2537079768
 20
20.7658819091
 10
-6.2486268098
 20
20.7666352819
 10
-6.2435445126
 20
20.7673621189
 10
-6.2384616287
 20
20.7680623275
 10
-6.2333776145
 20
20.7687360004
 10
-6.2282938642
 20
20.7693833418
 10
-6.2232103355
 20
20.7700043572
 10
-6.2181270706
 20
20.7705990412
 10
-6.2130455903
 20
20.7711675812
 10
-6.207965676
 20
20.7717099941
 10
-6.2028875463
 20
20.7722262631
 10
-6.197813378
 20
20.7727165255
 10
-6.1927430439
 20
20.7731807762
 10
-6.1876766711
 20
20.7736190204
 10
-6.1826168176
 20
20.7740314102
 10
-6.1775633405
 20
20.7744179326
 10
-6.1725163827
 20
20.7747786007
 10
-6.1674789302
 20
20.7751136063
 10
-6.1624509691
 20
20.7754229216
 10
-6.1574325133
 20
20.7757065744
 10
-6.1524265908
 20
20.7759648397
 10
-6.1474332975
 20
20.7761976866
 10
-6.1424525376
 20
20.776405146
 10
-6.137487052
 20
20.776587585
 10
-6.1325368538
 20
20.7767449802
 10
-6.1276019299
 20
20.7768773549
 10
-6.1226849818
 20
20.7769851467
 10
-6.1177860503
 20
20.7770683329
 10
-6.1129050945
 20
20.7771269362
 10
-6.1080446942
 20
20.7771614623
 10
-6.1032049214
 20
20.7771718914
 10
-6.098385704
 20
20.7771582433
 10
-6.0935894053
 20
20.7771210831
 10
-6.08881611
 20
20.7770603958
 10
-6.0840657334
 20
20.7769761965
 10
-6.0793403842
 20
20.7768690956
 10
-6.0746399911
 20
20.7767390743
 10
-6.0699646255
 20
20.7765861515
 10
-6.0653166105
 20
20.776410994
 10
-6.0606957814
 20
20.7762135692
 10
-6.0561023029
 20
20.7759939098
 10
-6.0515389928
 20
20.7757527807
 10
-6.0470059841
 20
20.7754901599
 10
-6.0425031437
 20
20.7752060694
 10
-6.0380328898
 20
20.77490134
 10
-6.033595452
 20
20.7745759671
 10
-6.0291906008
 20
20.7742299554
 10
-6.0248200655
 20
20.7738641499
 10
-6.0204839547
 20
20.7734785466
 10
-6.01618216
 20
20.7730731495
 10
-6.011916085
 20
20.7726488151
 10
-6.0076858099
 20
20.7722055416
 10
-6.0034912545
 20
20.7717433307
 10
-5.9993335824
 20
20.7712630449
 10
-5.9952128703
 20
20.7707646853
 10
-5.9911290415
 20
20.7702482507
 10
-5.9870830293
 20
20.7697146003
 10
-5.9830749206
 20
20.7691637403
 10
-5.9791046285
 20
20.7685956644
 10
-5.9751728265
 20
20.7680112133
 10
-5.9712795731
 20
20.7674103925
 10
-5.9674248096
 20
20.7667931966
 10
-5.9636090336
 20
20.7661604503
 10
-5.9598323213
 20
20.7655121648
 10
-5.9560945963
 20
20.7648483291
 10
-5.9523961269
 20
20.7641697344
 10
-5.948736997
 20
20.7634763976
 10
-5.9451171226
 20
20.7627683019
 10
-5.9415365193
 20
20.7620461877
 10
-5.9379952211
 20
20.761310065
 10
-5.9344931941
 20
20.7605599238
 10
-5.9310303523
 20
20.7597964741
 10
-5.9276067666
 20
20.7590197367
 10
-5.924222366
 20
20.758229691
 10
-5.9208768526
 20
20.7574269845
 10
-5.9175703373
 20
20.7566116548
 10
-5.9143027092
 20
20.7557836644
 10
-5.9110733371
 20
20.754943549
 10
-5.9078822531
 20
20.7540913322
 10
-5.9047294252
 20
20.7532269904
 10
-5.901614126
 20
20.7523509883
 10
-5.8985363703
 20
20.7514633469
 10
-5.8954961433
 20
20.7505640453
 10
-5.8924926734
 20
20.7496534855
 10
-5.8895259874
 20
20.7487316943
 10
-5.8865960585
 20
20.747798645
 10
-5.8837020343
 20
20.746854659
 10
-5.8808439212
 20
20.7458997591
 10
-5.8780217129
 20
20.7449339226
 10
-5.8752345385
 20
20.7439574024
 10
-5.8724823887
 20
20.7429702166
 10
-5.8697652729
 20
20.7419723471
 10
-5.8670823487
 20
20.740963992
 10
-5.8644336042
 20
20.7399451696
 10
-5.8618190512
 20
20.7389158617
 10
-5.8592378833
 20
20.7378762119
 10
-5.8566900873
 20
20.736826237
 10
-5.8541756763
 20
20.7357659202
 10
-5.8516938836
 20
20.7346953553
 10
-5.8492446958
 20
20.7336145625
 10
-5.8468281263
 20
20.7325235215
 10
-5.8444434486
 20
20.7314222655
 10
-5.8420904205
 20
20.7303108055
 10
-5.8397692843
 20
20.7291891305
 10
-5.8374800398
 20
20.7280572404
  0
LWPOLYLINE
  5
2E5
100
AcDbEntity
  8
ASSI
100
AcDbPolyline
 62
7
  6
CONTINUOUS
 90
7
 70
0
 10
-1.6184164641
 20
21.0211629626
 10
-1.6264992152
 20
21.018447592
 10
-1.634607268
 20
21.0154897985
 10
-1.6427406224
 20
21.0122895821
 10
-1.6508992785
 20
21.0088469428
 10
-1.6590832362
 20
21.0051618806
 10
-1.6672924956
 20
21.0012343955
  0
LWPOLYLINE
  5
2E6
100
AcDbEntity
  8
ASSI
100
AcDbPolyline
 62
7
  6
CONTINUOUS
 90
4
 70
0
 10
-1.6184164641
 20
21.0211629626
 10
-1.6062586262
 20
21.0246527317
 10
-1.5935286471
 20
21.0273755576
 10
-1.5802340663
 20
21.029315398
  0
LWPOLYLINE
  5
2E7
100
AcDbEntity
  8
ASSI
100
AcDbPolyline
 62
253
  6
CONTINUOUS
 90
28
 70
0
 10
-18.5721570451
 20
-8.742463584
 10
-18.5596086497
 20
-8.7483779036
 10
-18.5463999043
 20
-8.7539105406
 10
-18.5325745157
 20
-8.7590431878
 10
-18.5181782314
 20
-8.7637588616
 10
-18.5032586876
 20
-8.7680419581
 10
-18.4878652522
 20
-8.7718783049
 10
-18.4720488611
 20
-8.7752552077
 10
-18.4558618497
 20
-8.7781614925
 10
-18.4393577796
 20
-8.7805875428
 10
-18.422591262
 20
-8.7825253307
 10
-18.4056177759
 20
-8.7839684444
 10
-18.3884934857
 20
-8.7849121086
 10
-18.3712750545
 20
-8.7853532008
 10
-18.3540194569
 20
-8.7852902614
 10
-18.3367837907
 20
-8.7847234988
 10
-18.3196250875
 20
-8.7836547883
 10
-18.3026001243
 20
-8.7820876662
 10
-18.2857652356
 20
-8.7800273181
 10
-18.2691761271
 20
-8.7774805614
 10
-18.2528876909
 20
-8.7744558232
 10
-18.2369538246
 20
-8.7709631122
 10
-18.2214272521
 20
-8.7670139855
 10
-18.2063593499
 20
-8.7626215106
 10
-18.1917999768
 20
-8.7578002218
 10
-18.1777973087
 20
-8.7525660725
 10
-18.1643976796
 20
-8.7469363822
 10
-18.1516454279
 20
-8.7409297791
  0
LINE
  5
2E8
100
AcDbEntity
  8
ASSI
100
AcDbLine
 62
253
  6
CONTINUOUS
 10
-14.1166867849
 20
-11.4841511697
 11
-18.1420847426
 21
-9.4714521908
  0
LINE
  5
2E9
100
AcDbEntity
  8
ASSI
100
AcDbLine
 62
253
  6
CONTINUOUS
 10
-13.9082783566
 20
-11.1164893477
 11
-17.9336763143
 21
-9.1037903688
  0
LWPOLYLINE
  5
2EA
100
AcDbEntity
  8
ASSI
100
AcDbPolyline
 62
253
  6
CONTINUOUS
 90
37
 70
0
 10
-17.9336763143
 20
-9.1037903688
 10
-17.9430860515
 20
-9.0990067601
 10
-17.9524533262
 20
-9.0937569093
 10
-17.9617612333
 20
-9.0880552396
 10
-17.9709774517
 20
-9.0819284481
 10
-17.9801018218
 20
-9.0753821974
 10
-17.9891651578
 20
-9.0683934071
 10
-17.9981767502
 20
-9.0609501119
 10
-18.0070928442
 20
-9.0530835485
 10
-18.0158647278
 20
-9.0448340377
 10
-18.0244661916
 20
-9.0362294575
 10
-18.0328931778
 20
-9.027277419
 10
-18.0411318269
 20
-9.0179924806
 10
-18.049167182
 20
-9.008393543
 10
-18.0569857381
 20
-8.998498921
 10
-18.0645760022
 20
-8.9883223397
 10
-18.0719239947
 20
-8.9778838715
 10
-18.0790172662
 20
-8.9672026779
 10
-18.0858464993
 20
-8.956290909
 10
-18.092398497
 20
-8.9451697874
 10
-18.0986618092
 20
-8.9338589572
 10
-18.1046291348
 20
-8.9223678739
 10
-18.1102933959
 20
-8.9107068563
 10
-18.1156376297
 20
-8.8989077672
 10
-18.1206413127
 20
-8.8870130901
 10
-18.1252853375
 20
-8.8750732047
 10
-18.129573686
 20
-8.863083002
 10
-18.1335177617
 20
-8.8510018035
 10
-18.1371056757
 20
-8.8388517205
 10
-18.1403251975
 20
-8.8266563931
 10
-18.1431769225
 20
-8.814378291
 10
-18.1456519087
 20
-8.8020007742
 10
-18.147723398
 20
-8.7895936484
 10
-18.1493668181
 20
-8.7772496917
 10
-18.1505714911
 20
-8.7650170921
 10
-18.1513333301
 20
-8.7529013121
 10
-18.1516454279
 20
-8.7409297791
  0
LWPOLYLINE
  5
2EB
100
AcDbEntity
  8
ASSI
100
AcDbPolyline
 62
253
  6
CONTINUOUS
 90
37
 70
0
 10
-18.1420847426
 20
-9.4714521908
 10
-18.1606315277
 20
-9.4616692142
 10
-18.1790324455
 20
-9.4510158199
 10
-18.1972874881
 20
-9.4394920039
 10
-18.2153983276
 20
-9.4270955761
 10
-18.2333632606
 20
-9.4138287102
 10
-18.2511772081
 20
-9.3996979441
 10
-18.2688914171
 20
-9.3846593608
 10
-18.2864545783
 20
-9.3687568448
 10
-18.3037077735
 20
-9.3521286331
 10
-18.3206263924
 20
-9.3347869095
 10
-18.3372349592
 20
-9.3167194456
 10
-18.3534482569
 20
-9.2980278598
 10
-18.3692633313
 20
-9.2787111284
 10
-18.3846830318
 20
-9.258770221
 10
-18.3996308498
 20
-9.2383097464
 10
-18.4141040683
 20
-9.2173295221
 10
-18.4281052873
 20
-9.1958296701
 10
-18.4415659789
 20
-9.17391526
 10
-18.454483786
 20
-9.15158701
 10
-18.4668609427
 20
-9.1288441382
 10
-18.4786358163
 20
-9.1057894678
 10
-18.4898144426
 20
-9.0823995791
 10
-18.5003906606
 20
-9.058697827
 10
-18.5102845601
 20
-9.0348572063
 10
-18.5194753059
 20
-9.01093198
 10
-18.5279836305
 20
-8.9868678319
 10
-18.5357919879
 20
-8.9626748947
 10
-18.5429127109
 20
-8.9383483652
 10
-18.5493333534
 20
-8.913892988
 10
-18.5549991984
 20
-8.8893332163
 10
-18.5599243432
 20
-8.8645796302
 10
-18.5640945611
 20
-8.8397215829
 10
-18.5674126796
 20
-8.815051703
 10
-18.5698463009
 20
-8.7906675301
 10
-18.5714277668
 20
-8.7664714959
 10
-18.5721570451
 20
-8.742463584
  0
LWPOLYLINE
  5
2EC
100
AcDbEntity
  8
ASSI
100
AcDbPolyline
 62
253
  6
CONTINUOUS
 90
15
 70
0
 10
-13.698158799
 20
-11.179462707
 10
-13.7100054322
 20
-11.1731795101
 10
-13.7211109863
 20
-11.1665549907
 10
-13.7314387143
 20
-11.1596110692
 10
-13.7409544428
 20
-11.1523707229
 10
-13.7496266852
 20
-11.1448579102
 10
-13.7574267458
 20
-11.1370974908
 10
-13.7643288153
 20
-11.129115144
 10
-13.7703100559
 20
-11.1209372829
 10
-13.7753506767
 20
-11.1125909681
 10
-13.7794339994
 20
-11.1041038171
 10
-13.7825465133
 20
-11.0955039135
 10
-13.7846779202
 20
-11.0868197139
 10
-13.7858211683
 20
-11.0780799539
 10
-13.7860276759
 20
-11.0732221837
  0
LWPOLYLINE
  5
2ED
100
AcDbEntity
  8
ASSI
100
AcDbPolyline
 62
253
  6
CONTINUOUS
 90
31
 70
0
 10
-3.5181175385
 20
-26.1941336283
 10
-3.5230015556
 20
-26.1865125311
 10
-3.5283521591
 20
-26.1786694754
 10
-3.5341547374
 20
-26.1706258788
 10
-3.5403934451
 20
-26.1624037068
 10
-3.5470512454
 20
-26.1540254123
 10
-3.5541099574
 20
-26.1455138747
 10
-3.5615503051
 20
-26.1368923373
 10
-3.5693519705
 20
-26.1281843437
 10
-3.577493649
 20
-26.1194136735
 10
-3.5859531073
 20
-26.1106042777
 10
-3.5947072443
 20
-26.1017802128
 10
-3.6037321545
 20
-26.0929655756
 10
-3.6130031925
 20
-26.0841844369
 10
-3.6224950413
 20
-26.0754607762
 10
-3.6321817804
 20
-26.066818416
 10
-3.6420369575
 20
-26.0582809568
 10
-3.6520336602
 20
-26.0498717126
 10
-3.6621445894
 20
-26.0416136473
 10
-3.6723421345
 20
-26.0335293119
 10
-3.682598448
 20
-26.025640783
 10
-3.6928855221
 20
-26.0179696026
 10
-3.703175265
 20
-26.0105367191
 10
-3.7134395774
 20
-26.0033624301
 10
-3.7236504298
 20
-25.996466327
 10
-3.7337799384
 20
-25.9898672418
 10
-3.7438004417
 20
-25.9835831951
 10
-3.7536845758
 20
-25.9776313473
 10
-3.7634053491
 20
-25.9720279517
 10
-3.7729362163
 20
-25.96678831
 10
-3.7822511505
 20
-25.9619267306
  0
LWPOLYLINE
  5
2EE
100
AcDbEntity
  8
ASSI
100
AcDbPolyline
 62
253
  6
CONTINUOUS
 90
31
 70
0
 10
-16.8824357029
 20
22.1276035274
 10
-16.8827294048
 20
22.1390017458
 10
-16.8835023334
 20
22.1506187269
 10
-16.8847532777
 20
22.1624231109
 10
-16.8864801227
 20
22.174385441
 10
-16.888678815
 20
22.1864707443
 10
-16.8913423887
 20
22.1986384128
 10
-16.8944628071
 20
22.2108524052
 10
-16.8980320462
 20
22.2230818858
 10
-16.9020404381
 20
22.2352936686
 10
-16.9064771187
 20
22.247454505
 10
-16.9113298848
 20
22.2595308104
 10
-16.9165853
 20
22.2714891065
 10
-16.9222288757
 20
22.2832964538
 10
-16.9282451999
 20
22.2949206344
 10
-16.9346178304
 20
22.3063298753
 10
-16.9413293288
 20
22.3174929355
 10
-16.9483612724
 20
22.3283791536
 10
-16.9556943565
 20
22.338958634
 10
-16.9633084662
 20
22.3492023541
 10
-16.9711827339
 20
22.3590822359
 10
-16.9792955666
 20
22.3685711827
 10
-16.9876247214
 20
22.3776431751
 10
-16.996147359
 20
22.3862733334
 10
-17.0048401026
 20
22.3944379835
 10
-17.0136791224
 20
22.4021147412
 10
-17.022640176
 20
22.4092825498
 10
-17.0316986658
 20
22.4159217352
 10
-17.0408297437
 20
22.4220140902
 10
-17.05000838
 20
22.4275429194
 10
-17.0592094066
 20
22.4324930663
  0
LWPOLYLINE
  5
2EF
100
AcDbEntity
  8
ASSI
100
AcDbPolyline
 62
253
  6
CONTINUOUS
 90
19
 70
0
 10
-17.2349576626
 20
21.7881423172
 10
-17.2347387914
 20
21.7774813249
 10
-17.2340822357
 20
21.7670599084
 10
-17.232988898
 20
21.7569043311
 10
-17.2314604482
 20
21.747038477
 10
-17.2295001296
 20
21.7374892803
 10
-17.2271135465
 20
21.7282860442
 10
-17.2243072137
 20
21.7194533176
 10
-17.2210876967
 20
21.7110112768
 10
-17.2174629275
 20
21.7029807622
 10
-17.2134418444
 20
21.6953816769
 10
-17.2090344712
 20
21.6882330552
 10
-17.2042518434
 20
21.6815528276
 10
-17.1991058705
 20
21.6753576265
 10
-17.1936093416
 20
21.6696628462
 10
-17.1877759983
 20
21.6644827099
 10
-17.1816204095
 20
21.6598301186
 10
-17.1751578542
 20
21.6557165861
 10
-17.1699843661
 20
21.6529238671
  0
LWPOLYLINE
  5
2F0
100
AcDbEntity
  8
ASSI
100
AcDbPolyline
 62
7
  6
CONTINUOUS
 90
34
 70
0
 10
-15.2811549121
 20
22.930325531
 10
-15.2813549681
 20
22.9407273396
 10
-15.2819552056
 20
22.9513057076
 10
-15.2829541636
 20
22.9620367257
 10
-15.2843493991
 20
22.9728961789
 10
-15.2861377474
 20
22.9838594713
 10
-15.2883153287
 20
22.9949016823
 10
-15.2908771532
 20
23.0059978292
 10
-15.2938173275
 20
23.0171228226
 10
-15.2971293225
 20
23.028251393
 10
-15.3008055996
 20
23.0393583508
 10
-15.3048377598
 20
23.050418572
 10
-15.3092167571
 20
23.0614069533
 10
-15.3139326577
 20
23.0722986109
 10
-15.3189747277
 20
23.083068898
 10
-15.3243315883
 20
23.0936933892
 10
-15.3299911126
 20
23.1041480137
 10
-15.3359404505
 20
23.1144091038
 10
-15.3421661223
 20
23.1244534102
 10
-15.3486540548
 20
23.1342581651
 10
-15.3553895436
 20
23.1438011623
 10
-15.3623572829
 20
23.1530608025
 10
-15.3695415399
 20
23.1620160849
 10
-15.3769260556
 20
23.1706467169
 10
-15.3844940099
 20
23.1789331897
 10
-15.3922283314
 20
23.186856697
 10
-15.4001115374
 20
23.194399273
 10
-15.4081256369
 20
23.2015438968
 10
-15.4162525672
 20
23.2082743396
 10
-15.4244739783
 20
23.2145753281
 10
-15.432771075
 20
23.2204326754
 10
-15.4411250683
 20
23.2258331121
 10
-15.4495172175
 20
23.2307643167
 10
-15.4579286158
 20
23.2352150698
  0
LINE
  5
2F1
100
AcDbEntity
  8
ASSI
100
AcDbLine
 62
253
  6
CONTINUOUS
 10
-16.8824357029
 20
21.7876295933
 11
-16.8824357029
 21
22.1276035274
  0
LINE
  5
2F2
100
AcDbEntity
  8
ASSI
100
AcDbLine
 62
253
  6
CONTINUOUS
 10
-16.5237370545
 20
21.50954669
 11
-16.5237370545
 21
20.8207260671
  0
LINE
  5
2F3
100
AcDbEntity
  8
ASSI
100
AcDbLine
 62
7
  6
CONTINUOUS
 10
-16.2357490667
 20
-7.7755945996
 11
-16.2357490667
 21
1.7469131304
  0
LINE
  5
2F4
100
AcDbEntity
  8
ASSI
100
AcDbLine
 62
253
  6
CONTINUOUS
 10
-16.1712150948
 20
21.6391260705
 11
-16.1712150948
 21
20.8314939487
  0
LINE
  5
2F5
100
AcDbEntity
  8
0
100
AcDbLine
 62
7
  6
CONTINUOUS
 10
-16.0306881001
 20
1.6443826471
 11
-16.0306881001
 21
-7.5899936205
  0
LINE
  5
2F6
100
AcDbEntity
  8
ASSI
100
AcDbLine
 62
7
  6
CONTINUOUS
 10
-15.5639976246
 20
-8.367757449
 11
-15.5639976246
 21
-8.2563515602
  0
LINE
  5
2F7
100
AcDbEntity
  8
ASSI
100
AcDbLine
 62
7
  6
CONTINUOUS
 10
-15.2811549121
 20
21.32817487
 11
-15.2811549121
 21
22.930325531
  0
LINE
  5
2F8
100
AcDbEntity
  8
ASSI
100
AcDbLine
 62
253
  6
CONTINUOUS
 10
-14.7528877403
 20
23.193764351
 11
-14.7528877403
 21
22.8462328342
  0
LINE
  5
2F9
100
AcDbEntity
  8
ASSI
100
AcDbLine
 62
7
  6
CONTINUOUS
 10
-14.6806898833
 20
23.2816369832
 11
-14.6806898833
 21
22.9341054664
  0
LINE
  5
2FA
100
AcDbEntity
  8
ASSI
100
AcDbLine
 62
253
  6
CONTINUOUS
 10
-14.6806898833
 20
23.2816369832
 11
-14.6806899218
 21
23.2815676186
  0
LWPOLYLINE
  5
2FB
100
AcDbEntity
  8
ASSI
100
AcDbPolyline
 62
253
  6
CONTINUOUS
 90
16
 70
0
 10
-14.6806899218
 20
23.2815676186
 10
-14.6809911539
 20
23.2755021543
 10
-14.6819708725
 20
23.2689992061
 10
-14.6836275615
 20
23.2625306419
 10
-14.685956713
 20
23.2561140752
 10
-14.6889519932
 20
23.249766964
 10
-14.6926052521
 20
23.2435065872
 10
-14.6969065502
 20
23.2373499841
 10
-14.7018441827
 20
23.2313139136
 10
-14.707404708
 20
23.2254148112
 10
-14.7135729971
 20
23.2196687298
 10
-14.7203322584
 20
23.2140913141
 10
-14.7276640723
 20
23.2086977618
 10
-14.7355484704
 20
23.2035027574
 10
-14.7439639962
 20
23.1985204339
 10
-14.7528877403
 20
23.193764351
  0
LINE
  5
2FC
100
AcDbEntity
  8
ASSI
100
AcDbLine
 62
7
  6
CONTINUOUS
 10
-14.6820173437
 20
22.9083767267
 11
-14.6806898849
 21
22.934119271
  0
LWPOLYLINE
  5
2FD
100
AcDbEntity
  8
ASSI
100
AcDbPolyline
 62
7
  6
CONTINUOUS
 90
5
 70
0
 10
-13.0519094686
 20
20.855442964
 10
-13.0539460119
 20
20.846321566
 10
-13.0554603707
 20
20.8364879685
 10
-13.0564167544
 20
20.8260298085
 10
-13.0567487407
 20
20.8144839903
  0
LINE
  5
2FE
100
AcDbEntity
  8
ASSI
100
AcDbLine
 62
7
  6
CONTINUOUS
 10
-6.3362541301
 20
16.855724479
 11
-6.6939332793
 21
16.6561285271
  0
LINE
  5
2FF
100
AcDbEntity
  8
DRAFT
100
AcDbLine
 62
7
  6
CONTINUOUS
 10
13.2085698685
 20
28.0719825438
 11
14.2599737992
 21
28.6069407503
  0
LINE
  5
300
100
AcDbEntity
  8
ASSI
100
AcDbLine
 62
7
  6
CONTINUOUS
 10
-6.6939332793
 20
17.8888554995
 11
-6.3362541301
 21
18.0681600443
  0
LINE
  5
301
100
AcDbEntity
  8
ASSI
100
AcDbLine
 62
7
  6
CONTINUOUS
 10
-6.3362541301
 20
18.0681600443
 11
-1.0617620609
 21
20.6984691782
  0
LINE
  5
302
100
AcDbEntity
  8
RACCORDO
100
AcDbLine
 62
7
  6
CONTINUOUS
 10
13.2085698685
 20
28.1143511577
 11
5.5042623252
 21
24.2774410182
  0
LINE
  5
303
100
AcDbEntity
  8
ASSI
100
AcDbLine
 62
7
  6
CONTINUOUS
 10
-6.3362541301
 20
16.855724479
 11
-1.0114200599
 21
19.4920559109
  0
LINE
  5
304
100
AcDbEntity
  8
ASSI
100
AcDbLine
 62
7
  6
CONTINUOUS
 10
-1.6672924956
 20
21.0012343955
 11
-6.265543452
 21
18.734873098
  0
LINE
  5
305
100
AcDbEntity
  8
ASSI
100
AcDbLine
 62
7
  6
CONTINUOUS
 10
-0.2489652194
 20
20.8136755835
 11
-0.887825996
 21
20.5010734584
  0
LINE
  5
306
100
AcDbEntity
  8
SMUSSO
100
AcDbLine
 62
7
  6
CONTINUOUS
 10
17.605995874
 20
28.2391577184
 11
1.2906797723
 21
20.2897240558
  0
LINE
  5
307
100
AcDbEntity
  8
SMUSSO
100
AcDbLine
 62
7
  6
CONTINUOUS
 10
15.8248579993
 20
29.1297266558
 11
-1.4450471109
 21
21.0101844148
  0
LWPOLYLINE
  5
308
100
AcDbEntity
  8
ASSI
100
AcDbPolyline
 62
7
  6
CONTINUOUS
 90
18
 70
0
 10
-0.2489652194
 20
20.8136755835
 10
-0.2205906987
 20
20.8268575403
 10
-0.1923562467
 20
20.838591932
 10
-0.1642618634
 20
20.8488787587
 10
-0.1362575504
 20
20.8577308933
 10
-0.1083933061
 20
20.8651354629
 10
-0.0808191265
 20
20.8710538485
 10
-0.0535499978
 20
20.8754772698
 10
-0.0265709338
 20
20.8784145071
 10
0.0000130288
 20
20.8798532831
 10
0.0262179877
 20
20.8797861465
 10
0.0520278451
 20
20.8782205485
 10
0.0772892714
 20
20.8751665651
 10
0.1019790247
 20
20.8706207807
 10
0.1261203468
 20
20.8645866109
 10
0.1496296331
 20
20.8570843781
 10
0.1725254133
 20
20.8480989634
 10
0.1920733978
 20
20.8390162766
  0
LWPOLYLINE
  5
309
100
AcDbEntity
  8
ASSI
100
AcDbPolyline
 62
7
  6
CONTINUOUS
 90
7
 70
0
 10
-3.0131815512
 20
17.4928926789
 10
-2.9849598589
 20
17.504564453
 10
-2.9550956825
 20
17.5127998964
 10
-2.9240941369
 20
17.5173075775
 10
-2.8923992986
 20
17.5178854758
 10
-2.8607504213
 20
17.5144243779
 10
-2.8299983767
 20
17.5070308791
  0
LINE
  5
30A
100
AcDbEntity
  8
ASSI
100
AcDbLine
 62
7
  6
CONTINUOUS
 10
-7.2576005821
 20
17.7565778352
 11
-7.345184163
 21
17.7306026297
  0
LWPOLYLINE
  5
30B
100
AcDbEntity
  8
ASSI
100
AcDbPolyline
 62
7
  6
CONTINUOUS
 90
4
 70
0
 10
-7.345184163
 20
17.7306026297
 10
-7.3783785023
 20
17.7209388259
 10
-7.3888279347
 20
17.7179786906
 10
-7.3989771986
 20
17.7151760747
  0
LWPOLYLINE
  5
30C
100
AcDbEntity
  8
ASSI
100
AcDbPolyline
 62
253
  6
CONTINUOUS
 90
8
 70
0
 10
-13.8435327666
 20
-11.1372652944
 10
-13.8523160544
 20
-11.1360114399
 10
-13.8613294443
 20
-11.1341880928
 10
-13.8705273826
 20
-11.1317864292
 10
-13.8798452654
 20
-11.1288133751
 10
-13.8892481511
 20
-11.1252749429
 10
-13.898732502
 20
-11.121166404
 10
-13.9082783566
 20
-11.1164893477
  0
LINE
  5
30D
100
AcDbEntity
  8
ASSI
100
AcDbLine
 62
7
  6
CONTINUOUS
 10
-13.8016341482
 20
-9.25242011
 11
-16.0236493411
 21
-8.1414125136
  0
LINE
  5
30E
100
AcDbEntity
  8
0
100
AcDbLine
 62
7
  6
CONTINUOUS
 10
-13.8024477311
 20
-9.1371265069
 11
-16.1996265595
 21
-7.9385370927
  0
LINE
  5
30F
100
AcDbEntity
  8
0
100
AcDbLine
 62
7
  6
CONTINUOUS
 10
-16.0306881001
 20
-7.5899936205
 11
-13.8055141556
 21
-8.7025805927
  0
LINE
  5
310
100
AcDbEntity
  8
CURVE
100
AcDbLine
 62
253
  6
CONTINUOUS
 10
-11.6367818469
 20
-21.8059470926
 11
-11.6588812836
 21
-21.0376956184
  0
LWPOLYLINE
  5
311
100
AcDbEntity
  8
CURVE
100
AcDbPolyline
 62
253
  6
CONTINUOUS
 90
4
 70
0
 10
-12.1181688715
 20
-21.8861089976
 10
-12.1609062463
 20
-20.3968855482
 10
-12.1993380146
 20
-18.9053357896
 10
-12.2215171609
 20
-17.956544307
  0
LINE
  5
312
100
AcDbEntity
  8
CURVE
100
AcDbLine
 62
253
  6
CONTINUOUS
 10
-12.9608693693
 20
-19.8473812362
 11
-12.9731409855
 21
-19.3839075296
  0
LWPOLYLINE
  5
313
100
AcDbEntity
  8
ASSI
100
AcDbPolyline
 62
7
  6
CONTINUOUS
 90
27
 70
0
 10
-13.0567487407
 20
20.8144839903
 10
-13.0564725043
 20
20.8035921692
 10
-13.0556813203
 20
20.7917323191
 10
-13.0543695498
 20
20.7795195026
 10
-13.052516792
 20
20.7670136975
 10
-13.0501939623
 20
20.7542367498
 10
-13.0473994261
 20
20.7412317935
 10
-13.044121728
 20
20.7280448149
 10
-13.0404139783
 20
20.7146873023
 10
-13.0362759632
 20
20.7011917386
 10
-13.0317017594
 20
20.6875942878
 10
-13.0267322672
 20
20.6739030999
 10
-13.0213677992
 20
20.6601439288
 10
-13.0156057546
 20
20.6463459245
 10
-13.0094792004
 20
20.6325171444
 10
-13.0029886554
 20
20.6186788244
 10
-12.9961336097
 20
20.6048552904
 10
-12.9889425981
 20
20.5910563303
 10
-12.9814162998
 20
20.5773000441
 10
-12.9735556604
 20
20.5636074167
 10
-12.965387221
 20
20.5499910521
 10
-12.9569116927
 20
20.5364663946
 10
-12.9481314216
 20
20.5230524152
 10
-12.9390737367
 20
20.5097662642
 10
-12.9297488949
 20
20.4966240222
 10
-12.9201512976
 20
20.483640372
 10
-12.9102842983
 20
20.4708296245
  0
LINE
  5
314
100
AcDbEntity
  8
CURVE
100
AcDbLine
 62
253
  6
CONTINUOUS
 10
-11.6409570848
 20
-18.7731247148
 11
-11.6277752687
 21
-19.3217710228
  0
LWPOLYLINE
  5
315
100
AcDbEntity
  8
ASSI
100
AcDbPolyline
 62
253
  6
CONTINUOUS
 90
31
 70
0
 10
-14.7528877403
 20
23.193764351
 10
-14.7530779884
 20
23.2052450133
 10
-14.7537552529
 20
23.2169351682
 10
-14.7549176798
 20
23.2288027621
 10
-14.7565620865
 20
23.2408152663
 10
-14.758683966
 20
23.2529397312
 10
-14.7612774949
 20
23.2651428764
 10
-14.7643355584
 20
23.277391232
 10
-14.7678497715
 20
23.2896512202
 10
-14.7718104932
 20
23.3018892122
 10
-14.7762068599
 20
23.3140716486
 10
-14.7810268151
 20
23.3261651277
 10
-14.7862571382
 20
23.338136485
 10
-14.791883492
 20
23.3499529094
 10
-14.7978904406
 20
23.3615819874
 10
-14.8042614854
 20
23.3729917896
 10
-14.8109791222
 20
23.384150989
 10
-14.8180249516
 20
23.3950290409
 10
-14.8253797141
 20
23.4055962143
 10
-14.8330233466
 20
23.4158236622
 10
-14.8409347996
 20
23.4256832
 10
-14.8490921338
 20
23.4351475118
 10
-14.8574728001
 20
23.4441905111
 10
-14.8660539598
 20
23.452787628
 10
-14.8748123194
 20
23.4609155514
 10
-14.8837258295
 20
23.4685536105
 10
-14.8927681499
 20
23.4756790295
 10
-14.9019087187
 20
23.4822683012
 10
-14.9111203916
 20
23.4883031881
 10
-14.9203797553
 20
23.4937696687
 10
-14.929661444
 20
23.4986538898
  0
LWPOLYLINE
  5
316
100
AcDbEntity
  8
ASSI
100
AcDbPolyline
 62
253
  6
CONTINUOUS
 90
19
 70
0
 10
-14.1166867849
 20
0.8143711
 10
-14.1165546321
 20
0.8008643159
 10
-14.1158438606
 20
0.7876738215
 10
-14.1145564111
 20
0.7748356214
 10
-14.112695798
 20
0.7623847587
 10
-14.1102671005
 20
0.750355219
 10
-14.1072769483
 20
0.7387798381
 10
-14.1037335036
 20
0.7276902119
 10
-14.0996464391
 20
0.7171166102
 10
-14.095026911
 20
0.7070878946
 10
-14.0898875291
 20
0.697631439
 10
-14.0842423223
 20
0.6887730555
 10
-14.0781066998
 20
0.6805369234
 10
-14.0714974097
 20
0.6729455238
 10
-14.064432493
 20
0.6660195777
 10
-14.0569312342
 20
0.6597779898
 10
-14.0490141089
 20
0.6542377967
 10
-14.0407027278
 20
0.6494141204
 10
-14.0387402208
 20
0.6484087075
  0
LINE
  5
317
100
AcDbEntity
  8
ASSI
100
AcDbLine
 62
7
  6
CONTINUOUS
 10
-13.0567309077
 20
20.8144865935
 11
-13.0567309077
 21
19.5736697034
  0
LINE
  5
318
100
AcDbEntity
  8
ASSI
100
AcDbLine
 62
253
  6
CONTINUOUS
 10
-12.9102842983
 20
20.4708296245
 11
-12.9102842983
 21
19.3902463137
  0
LWPOLYLINE
  5
319
100
AcDbEntity
  8
ASSI
100
AcDbPolyline
 62
253
  6
CONTINUOUS
 90
37
 70
0
 10
-13.698158799
 20
-11.179462707
 10
-13.6983426125
 20
-11.2018582247
 10
-13.6993072619
 20
-11.2236712022
 10
-13.7010527721
 20
-11.2449016522
 10
-13.7035803209
 20
-11.2655511017
 10
-13.7068887789
 20
-11.2856180485
 10
-13.7109747097
 20
-11.3050979613
 10
-13.7158525983
 20
-11.324045534
 10
-13.7215080035
 20
-11.3424060952
 10
-13.7278941233
 20
-11.3600110779
 10
-13.7350113924
 20
-11.3768304312
 10
-13.7428594712
 20
-11.392894255
 10
-13.7513904312
 20
-11.4081242271
 10
-13.7606063825
 20
-11.4225157538
 10
-13.7705053247
 20
-11.4360734853
 10
-13.7810331825
 20
-11.4487329746
 10
-13.79219126
 20
-11.460490351
 10
-13.8039783723
 20
-11.4713495467
 10
-13.8163367256
 20
-11.4812578271
 10
-13.8292667205
 20
-11.4902122411
 10
-13.8427680779
 20
-11.4982158025
 10
-13.8567819939
 20
-11.5052247294
 10
-13.8713251947
 20
-11.5112377887
 10
-13.8863810703
 20
-11.5162562736
 10
-13.901840822
 20
-11.5202401957
 10
-13.9176685255
 20
-11.5231830235
 10
-13.9339002148
 20
-11.5250913453
 10
-13.9505350304
 20
-11.525944854
 10
-13.9675715794
 20
-11.5257593035
 10
-13.9850113406
 20
-11.5245189843
 10
-14.0028577601
 20
-11.5221563928
 10
-14.021178594
 20
-11.5186537715
 10
-14.0399061508
 20
-11.5140289114
 10
-14.0588407043
 20
-11.5082676307
 10
-14.0779156929
 20
-11.5013652094
 10
-14.0971977166
 20
-11.4933263875
 10
-14.1166867849
 20
-11.4841511697
  0
LWPOLYLINE
  5
31A
100
AcDbEntity
  8
ASSI
100
AcDbPolyline
 62
7
  6
CONTINUOUS
 90
10
 70
0
 10
-13.786028549
 20
0.1854019147
 10
-13.7971779879
 20
-1.0163344774
 10
-13.8060912962
 20
-2.2867525531
 10
-13.8120358215
 20
-3.5556630955
 10
-13.8150114789
 20
-4.8230537814
 10
-13.8150182451
 20
-6.0889143807
 10
-13.8120561091
 20
-7.3532355095
 10
-13.8061250727
 20
-8.6160069568
 10
-13.7972251989
 20
-9.8772164812
 10
-13.7860281965
 20
-11.0731739763
  0
LWPOLYLINE
  5
31B
100
AcDbEntity
  8
ASSI
100
AcDbPolyline
 62
253
  6
CONTINUOUS
 90
10
 70
0
 10
-13.698158799
 20
0.0796103348
 10
-13.7097574582
 20
-1.1773612282
 10
-13.7184564791
 20
-2.4328610903
 10
-13.724255837
 20
-3.6868787963
 10
-13.7271555232
 20
-4.9393969405
 10
-13.7271556038
 20
-6.190412072
 10
-13.7242560553
 20
-7.4399346118
 10
-13.7184567632
 20
-8.6879610183
 10
-13.709757686
 20
-9.9344738688
 10
-13.698158799
 20
-11.179462707
  0
LWPOLYLINE
  5
31C
100
AcDbEntity
  8
ASSI
100
AcDbPolyline
 62
253
  6
CONTINUOUS
 90
31
 70
0
 10
-14.1166867849
 20
-11.4841511697
 10
-14.1165546331
 20
-11.4705122684
 10
-14.1158438656
 20
-11.4566110366
 10
-14.1145564223
 20
-11.442485419
 10
-14.1126958176
 20
-11.4281739728
 10
-14.11026713
 20
-11.4137157625
 10
-14.107276989
 20
-11.3991502532
 10
-14.1037335564
 20
-11.3845172028
 10
-14.0996465043
 20
-11.3698565538
 10
-14.0950269888
 20
-11.3552083237
 10
-14.0898876193
 20
-11.3406124963
 10
-14.0842424241
 20
-11.3261089123
 10
-14.0781068125
 20
-11.3117371608
 10
-14.0714975321
 20
-11.2975364706
 10
-14.0644326236
 20
-11.2835456041
 10
-14.0569313713
 20
-11.2698027507
 10
-14.0490142507
 20
-11.2563454227
 10
-14.0407028723
 20
-11.2432103533
 10
-14.0320199228
 20
-11.2304333959
 10
-14.0229891031
 20
-11.2180494265
 10
-14.0136350639
 20
-11.2060922483
 10
-14.0039833377
 20
-11.1945944995
 10
-13.99406027
 20
-11.1835875645
 10
-13.9838929467
 20
-11.1731014876
 10
-13.9735091204
 20
-11.1631648917
 10
-13.962937135
 20
-11.1538048997
 10
-13.9522058475
 20
-11.1450470605
 10
-13.9413445502
 20
-11.1369152795
 10
-13.93038289
 20
-11.1294317533
 10
-13.9193507877
 20
-11.1226169087
 10
-13.9082783566
 20
-11.1164893477
  0
LWPOLYLINE
  5
31D
100
AcDbEntity
  8
ASSI
100
AcDbPolyline
 62
7
  6
CONTINUOUS
 90
6
 70
0
 10
-13.7860276759
 20
-11.0732221837
 10
-13.7862179776
 20
-11.0880038389
 10
-13.7873047486
 20
-11.1041398811
 10
-13.7891047292
 20
-11.117772035
 10
-13.7913517571
 20
-11.1288374914
 10
-13.7936877852
 20
-11.1370903109
  0
LWPOLYLINE
  5
31E
100
AcDbEntity
  8
ASSI
100
AcDbPolyline
 62
7
  6
CONTINUOUS
 90
12
 70
0
 10
-5.1328812442
 20
16.4193154683
 10
-5.1537680252
 20
16.4073050683
 10
-5.1747331508
 20
16.3922851794
 10
-5.1940779689
 20
16.3751473536
 10
-5.211615469
 20
16.3560248644
 10
-5.227139959
 20
16.3350921298
 10
-5.2404467124
 20
16.3125693607
 10
-5.2513659706
 20
16.2886809444
 10
-5.2597498934
 20
16.2636662075
 10
-5.26546774
 20
16.2378066925
 10
-5.2684219721
 20
16.2114177822
 10
-5.2688474654
 20
16.196884274
  0
LINE
  5
31F
100
AcDbEntity
  8
ASSI
100
AcDbLine
 62
7
  6
CONTINUOUS
 10
3.6995361831
 20
18.5463344202
 11
-1.7920071452
 21
15.5835208093
  0
LINE
  5
320
100
AcDbEntity
  8
ASSI
100
AcDbLine
 62
7
  6
CONTINUOUS
 10
-3.5497879228
 20
17.2314723572
 11
-5.1329615881
 21
16.4192742991
  0
LINE
  5
321
100
AcDbEntity
  8
ASSI
100
AcDbLine
 62
253
  6
CONTINUOUS
 10
-3.4371193188
 20
17.2248104213
 11
-5.019875922
 21
16.412826324
  0
LINE
  5
322
100
AcDbEntity
  8
ASSI
100
AcDbLine
 62
253
  6
CONTINUOUS
 10
-5.1328812442
 20
16.4193154683
 11
-5.1329615881
 21
16.4192742991
  0
LINE
  5
323
100
AcDbEntity
  8
DRAFT
100
AcDbLine
 62
7
  6
CONTINUOUS
 10
16.7441037745
 20
26.3042155909
 11
17.7955077052
 21
26.8391737973
  0
LINE
  5
324
100
AcDbEntity
  8
ASSI
100
AcDbLine
 62
253
  6
CONTINUOUS
 10
-2.0936104513
 20
16.5530559876
 11
-3.6948912422
 21
15.7503339841
  0
LINE
  5
325
100
AcDbEntity
  8
ASSI
100
AcDbLine
 62
253
  6
CONTINUOUS
 10
-1.9168367477
 20
16.2481664487
 11
-3.5181175385
 21
15.4454444452
  0
LINE
  5
326
100
AcDbEntity
  8
ASSI
100
AcDbLine
 62
7
  6
CONTINUOUS
 10
-3.5480515097
 20
17.2323405781
 11
-3.5497879208
 21
17.2314723583
  0
LINE
  5
327
100
AcDbEntity
  8
ASSI
100
AcDbLine
 62
253
  6
CONTINUOUS
 10
-1.5653432796
 20
16.8164948076
 11
-2.0936104513
 21
16.5530559876
  0
LINE
  5
328
100
AcDbEntity
  8
ASSI
100
AcDbLine
 62
253
  6
CONTINUOUS
 10
-1.3885695759
 20
16.5116052688
 11
-1.9168367477
 21
16.2481664487
  0
LINE
  5
329
100
AcDbEntity
  8
RACCORDO
100
AcDbLine
 62
7
  6
CONTINUOUS
 10
16.7441037745
 20
26.3465842047
 11
9.0397962312
 21
22.5096740653
  0
LINE
  5
32A
100
AcDbEntity
  8
ASSI
100
AcDbLine
 62
7
  6
CONTINUOUS
 10
-3.0131815512
 20
17.4928926789
 11
-3.5480515089
 21
17.2323405785
  0
LINE
  5
32B
100
AcDbEntity
  8
ASSI
100
AcDbLine
 62
253
  6
CONTINUOUS
 10
-2.9026694401
 20
17.4851578879
 11
-3.4371193188
 21
17.2248104213
  0
LINE
  5
32C
100
AcDbEntity
  8
SMUSSO
100
AcDbLine
 62
7
  6
CONTINUOUS
 10
17.7955077052
 20
27.2782444892
 11
2.3575461637
 21
19.7562908601
  0
LINE
  5
32D
100
AcDbEntity
  8
ASSI
100
AcDbLine
 62
7
  6
CONTINUOUS
 10
2.8180007245
 20
19.2801926115
 11
-1.8655361551
 21
17.0285686162
  0
LINE
  5
32E
100
AcDbEntity
  8
SMUSSO
100
AcDbLine
 62
7
  6
CONTINUOUS
 10
19.3603919052
 20
27.3619597028
 11
2.7578056214
 21
19.5561611312
  0
LWPOLYLINE
  5
32F
100
AcDbEntity
  8
ASSI
100
AcDbPolyline
 62
253
  6
CONTINUOUS
 90
25
 70
0
 10
-8.4535134045
 20
-25.7106473384
 10
-8.4512983258
 20
-25.7551769335
 10
-8.4477599279
 20
-25.7989364312
 10
-8.4429026251
 20
-25.8418717781
 10
-8.4367324315
 20
-25.8839294355
 10
-8.4292570257
 20
-25.9250580313
 10
-8.4204855634
 20
-25.9652082918
 10
-8.4104284076
 20
-26.0043314339
 10
-8.3990980167
 20
-26.0423781544
 10
-8.38650898
 20
-26.0793002739
 10
-8.3726768199
 20
-26.1150518608
 10
-8.3576183892
 20
-26.1495892017
 10
-8.341352609
 20
-26.1828696769
 10
-8.3238992727
 20
-26.2148523028
 10
-8.3052797881
 20
-26.2454975406
 10
-8.2855176295
 20
-26.2747673073
 10
-8.264636815
 20
-26.3026256247
 10
-8.2426629696
 20
-26.3290380193
 10
-8.2196240384
 20
-26.3539713074
 10
-8.1955482267
 20
-26.3773947577
 10
-8.1704649474
 20
-26.3992796227
 10
-8.1444058722
 20
-26.4195985226
 10
-8.1174028158
 20
-26.4383265147
 10
-8.0894888338
 20
-26.4554405868
 10
-8.0610811603
 20
-26.4707274131
  0
LWPOLYLINE
  5
330
100
AcDbEntity
  8
CURVE
100
AcDbPolyline
 62
253
  6
CONTINUOUS
 90
4
 70
0
 10
-9.8330100054
 20
-23.2150835245
 10
-9.8762950347
 20
-21.7261572926
 10
-9.9152745208
 20
-20.2349024418
 10
-9.9533358363
 20
-18.5845214939
  0
LINE
  5
331
100
AcDbEntity
  8
CURVE
100
AcDbLine
 62
253
  6
CONTINUOUS
 10
-10.294935777
 20
-21.7196683483
 11
-10.2728363404
 21
-22.4879198225
  0
LINE
  5
332
100
AcDbEntity
  8
CURVE
100
AcDbLine
 62
253
  6
CONTINUOUS
 10
-11.3996002765
 20
-19.491167251
 11
-11.3915073877
 21
-19.8150120985
  0
LINE
  5
333
100
AcDbEntity
  8
CURVE
100
AcDbLine
 62
253
  6
CONTINUOUS
 10
-11.1741823892
 20
-19.548567446
 11
-11.1873642053
 21
-18.999921138
  0
LINE
  5
334
100
AcDbEntity
  8
CURVE
100
AcDbLine
 62
253
  6
CONTINUOUS
 10
-11.4220315803
 20
-17.8501735588
 11
-11.4313042807
 21
-17.4090687298
  0
LINE
  5
335
100
AcDbEntity
  8
CURVE
100
AcDbLine
 62
253
  6
CONTINUOUS
 10
-10.7126689452
 20
-17.768386376
 11
-10.7033962448
 21
-18.2094912049
  0
LWPOLYLINE
  5
336
100
AcDbEntity
  8
CURVE
100
AcDbPolyline
 62
253
  6
CONTINUOUS
 90
37
 70
0
 10
-11.3907765723
 20
-19.8153774998
 10
-11.3906242975
 20
-19.8249807357
 10
-11.3906551045
 20
-19.8344552822
 10
-11.3908661353
 20
-19.8438138059
 10
-11.3912545318
 20
-19.8530689737
 10
-11.391817436
 20
-19.8622334525
 10
-11.3925519899
 20
-19.871319909
 10
-11.3934563632
 20
-19.8803394087
 10
-11.3945328365
 20
-19.889296612
 10
-11.3957847181
 20
-19.8981945782
 10
-11.3972153163
 20
-19.9070363664
 10
-11.3988279395
 20
-19.9158250357
 10
-11.400625896
 20
-19.9245636452
 10
-11.4026114788
 20
-19.9332513262
 10
-11.4047829201
 20
-19.9418714972
 10
-11.4071374369
 20
-19.950403649
 10
-11.409672246
 20
-19.9588272723
 10
-11.4123845644
 20
-19.9671218577
 10
-11.415271609
 20
-19.9752668958
 10
-11.4183294055
 20
-19.9832430367
 10
-11.4215492148
 20
-19.9910355679
 10
-11.4249211066
 20
-19.9986309364
 10
-11.4284351506
 20
-20.0060155892
 10
-11.4320814166
 20
-20.013175973
 10
-11.4358499741
 20
-20.0200985348
 10
-11.4397325536
 20
-20.026773052
 10
-11.4437275279
 20
-20.0332026237
 10
-11.4478349306
 20
-20.0393936795
 10
-11.4520547953
 20
-20.0453526489
 10
-11.4563871555
 20
-20.0510859614
 10
-11.4608320448
 20
-20.0566000467
 10
-11.4653908291
 20
-20.0619006085
 10
-11.470070204
 20
-20.0669904478
 10
-11.4748781975
 20
-20.0718716399
 10
-11.4798228374
 20
-20.07654626
 10
-11.4849121518
 20
-20.0810163835
 10
-11.4901541687
 20
-20.0852840854
  0
LINE
  5
337
100
AcDbEntity
  8
ASSI
100
AcDbLine
 62
253
  6
CONTINUOUS
 10
-1.9168367477
 20
15.5211215963
 11
-1.3885695759
 21
16.164073752
  0
LINE
  5
338
100
AcDbEntity
  8
ASSI
100
AcDbLine
 62
7
  6
CONTINUOUS
 10
-1.9168367477
 20
15.4315911299
 11
-1.3174242434
 21
16.1611340249
  0
LWPOLYLINE
  5
339
100
AcDbEntity
  8
ASSI
100
AcDbPolyline
 62
7
  6
CONTINUOUS
 90
17
 70
0
 10
-1.3174240791
 20
16.1611384031
 10
-1.3177726256
 20
16.1607492667
 10
-1.3192710499
 20
16.1596059214
 10
-1.3212909724
 20
16.1586803154
 10
-1.3238203262
 20
16.1579451638
 10
-1.3268455406
 20
16.1574109294
 10
-1.3303520722
 20
16.1570885312
 10
-1.3343267159
 20
16.1569508042
 10
-1.3387543121
 20
16.157006747
 10
-1.3436187963
 20
16.1572659397
 10
-1.34890587
 20
16.1577015849
 10
-1.3545990842
 20
16.1583212489
 10
-1.3606811784
 20
16.159133193
 10
-1.3671368227
 20
16.1601111837
 10
-1.3739491927
 20
16.1612509099
 10
-1.3810995608
 20
16.1625698274
 10
-1.3885695759
 20
16.164073752
  0
LWPOLYLINE
  5
33A
100
AcDbEntity
  8
ASSI
100
AcDbPolyline
 62
253
  6
CONTINUOUS
 90
3
 70
0
 10
-18.0879279664
 20
2.664508615
 10
-18.0811838491
 20
2.6691038541
 10
-18.0741677248
 20
2.6732136014
  0
LWPOLYLINE
  5
33B
100
AcDbEntity
  8
ASSI
100
AcDbPolyline
 62
253
  6
CONTINUOUS
 90
43
 70
0
 10
-7.4375750113
 20
11.6447104935
 10
-7.4752268572
 20
11.6231249248
 10
-7.5127606553
 20
11.599994951
 10
-7.5501305111
 20
11.5753495684
 10
-7.5872907604
 20
11.5492202646
 10
-7.6241959585
 20
11.5216391536
 10
-7.6608008994
 20
11.4926387427
 10
-7.6970615829
 20
11.462254418
 10
-7.7329328548
 20
11.4305245855
 10
-7.7683684036
 20
11.3974887746
 10
-7.8033244936
 20
11.3631885234
 10
-7.8377588134
 20
11.3276661981
 10
-7.8716280857
 20
11.2909649767
 10
-7.9048909295
 20
11.2531304243
 10
-7.9375066323
 20
11.214209664
 10
-7.9694340123
 20
11.1742502653
 10
-8.0006340959
 20
11.133301726
 10
-8.031068645
 20
11.0914150711
 10
-8.0606989255
 20
11.0486419988
 10
-8.0894885876
 20
11.0050357742
 10
-8.1174025723
 20
10.9606504397
 10
-8.1444056345
 20
10.9155404079
 10
-8.1704647213
 20
10.8697616609
 10
-8.1955480146
 20
10.8233710411
 10
-8.2196238384
 20
10.776425471
 10
-8.2426627788
 20
10.7289830263
 10
-8.2646366322
 20
10.6811027282
 10
-8.2855174527
 20
10.6328438313
 10
-8.3052796138
 20
10.5842663431
 10
-8.3238991002
 20
10.5354303509
 10
-8.3413524432
 20
10.4863958104
 10
-8.3576182379
 20
10.4372235547
 10
-8.3726766861
 20
10.3879744739
 10
-8.3865088612
 20
10.3387088471
 10
-8.3990979097
 20
10.2894871432
 10
-8.4104283113
 20
10.2403709134
 10
-8.4204854765
 20
10.1914219544
 10
-8.4292569428
 20
10.1427019395
 10
-8.4367323538
 20
10.0942701025
 10
-8.4429025635
 20
10.0461841683
 10
-8.4477598902
 20
9.9985029545
 10
-8.4512983105
 20
9.9512862513
 10
-8.4535134045
 20
9.9045925292
  0
LWPOLYLINE
  5
33C
100
AcDbEntity
  8
ASSI
100
AcDbPolyline
 62
253
  6
CONTINUOUS
 90
43
 70
0
 10
-7.0717422713
 20
11.0417080478
 10
-7.097020715
 20
11.0273675329
 10
-7.1221637418
 20
11.0120348223
 10
-7.1471713518
 20
10.9957099163
 10
-7.1720754502
 20
10.9783694935
 10
-7.1968441317
 20
10.9600368751
 10
-7.2213816807
 20
10.9407820246
 10
-7.2456861227
 20
10.9206020528
 10
-7.2697594322
 20
10.8994998489
 10
-7.2935118175
 20
10.8775540436
 10
-7.3169418121
 20
10.854761715
 10
-7.3400508825
 20
10.831125785
 10
-7.3627536361
 20
10.8067336508
 10
-7.3850486165
 20
10.781582485
 10
-7.4069372802
 20
10.7556751151
 10
-7.4283386031
 20
10.7291074196
 10
-7.4492508452
 20
10.7018768514
 10
-7.4696757465
 20
10.6739859576
 10
-7.489537504
 20
10.6455382594
 10
-7.5088339598
 20
10.6165317803
 10
-7.5275672717
 20
10.5869684967
 10
-7.5456681099
 20
10.5569578585
 10
-7.5631341373
 20
10.5264982047
 10
-7.5799676909
 20
10.4955911963
 10
-7.5961064523
 20
10.4643512658
 10
-7.6115478877
 20
10.4327770708
 10
-7.6262945308
 20
10.4008699539
 10
-7.6402916639
 20
10.3687483749
 10
-7.6535364438
 20
10.3364116705
 10
-7.6660317138
 20
10.3038605041
 10
-7.6777312856
 20
10.2712153262
 10
-7.6886322125
 20
10.2384758438
 10
-7.6987374411
 20
10.2056423501
 10
-7.7080096242
 20
10.1728361747
 10
-7.7164457347
 20
10.1400570638
 10
-7.7240487997
 20
10.1073052712
 10
-7.7307905524
 20
10.0747028887
 10
-7.7366677576
 20
10.0422496238
 10
-7.7416836505
 20
10.0099457688
 10
-7.7458196704
 20
9.9779142925
 10
-7.7490696302
 20
9.9461961842
 10
-7.751439717
 20
9.9147504546
 10
-7.7529299306
 20
9.8835771035
  0
LINE
  5
33D
100
AcDbEntity
  8
ASSI
100
AcDbLine
 62
7
  6
CONTINUOUS
 10
-2.8068969304
 20
14.1484661643
 11
-1.9168367477
 21
14.6457629752
  0
LINE
  5
33E
100
AcDbEntity
  8
ASSI
100
AcDbLine
 62
253
  6
CONTINUOUS
 10
-7.4375750113
 20
11.6447104935
 11
-2.9185438729
 21
14.1117824218
  0
LINE
  5
33F
100
AcDbEntity
  8
ASSI
100
AcDbLine
 62
253
  6
CONTINUOUS
 10
-1.5740529988
 20
14.0430582176
 11
-7.0717422713
 21
11.0417080478
  0
LWPOLYLINE
  5
340
100
AcDbEntity
  8
ASSI
100
AcDbPolyline
 62
7
  6
CONTINUOUS
 90
13
 70
0
 10
-2.8068969304
 20
14.1484661643
 10
-2.814767222
 20
14.1442588561
 10
-2.8229540911
 20
14.1402484468
 10
-2.83144228
 20
14.1364416843
 10
-2.8402165031
 20
14.1328487596
 10
-2.8492598601
 20
14.1294719861
 10
-2.8585537056
 20
14.1263056661
 10
-2.8680806104
 20
14.1233580471
 10
-2.877822543
 20
14.1206309499
 10
-2.8877590298
 20
14.1181082173
 10
-2.8978705279
 20
14.11578687
 10
-2.908138607
 20
14.1136772487
 10
-2.9185438729
 20
14.1117824218
  0
LINE
  5
341
100
AcDbEntity
  8
DRAFT
100
AcDbLine
 62
7
  6
CONTINUOUS
 10
-1.2124579875
 20
14.9970534675
 11
4.3786396509
 21
17.9341128057
  0
LINE
  5
342
100
AcDbEntity
  8
ASSI
100
AcDbLine
 62
7
  6
CONTINUOUS
 10
3.6995361831
 20
17.9695827767
 11
-1.6378486994
 21
15.2060708556
  0
LINE
  5
343
100
AcDbEntity
  8
DRAFT
100
AcDbLine
 62
7
  6
CONTINUOUS
 10
20.2796376804
 20
24.5364486379
 11
21.3310416111
 21
25.0714068443
  0
LINE
  5
344
100
AcDbEntity
  8
RACCORDO
100
AcDbLine
 62
7
  6
CONTINUOUS
 10
20.2796376804
 20
24.5788172517
 11
12.5753301371
 21
20.7419071123
  0
LINE
  5
345
100
AcDbEntity
  8
SMUSSO
100
AcDbLine
 62
7
  6
CONTINUOUS
 10
21.1415297799
 20
26.4713907655
 11
4.0040900057
 21
18.1213876283
  0
LINE
  5
346
100
AcDbEntity
  8
SMUSSO
100
AcDbLine
 62
7
  6
CONTINUOUS
 10
21.3310416111
 20
25.5104775362
 11
4.6876299298
 21
17.4011834069
  0
LINE
  5
347
100
AcDbEntity
  8
RACCORDO
100
AcDbLine
 62
253
  6
CONTINUOUS
 10
5.1241665866
 20
16.6482690468
 11
23.2137631598
 21
25.4352740755
  0
LINE
  5
348
100
AcDbEntity
  8
RACCORDO
100
AcDbLine
 62
253
  6
CONTINUOUS
 10
5.4618349205
 20
16.0658773198
 11
23.7136870074
 21
24.9316978162
  0
LWPOLYLINE
  5
349
100
AcDbEntity
  8
SMUSSO
100
AcDbPolyline
 62
7
  6
CONTINUOUS
 90
51
 70
0
 10
5.2530644496
 20
17.2993030464
 10
5.2457737768
 20
17.2957905715
 10
5.2384169818
 20
17.2923182812
 10
5.2309940646
 20
17.2888861755
 10
5.2235048896
 20
17.2854943245
 10
5.2159495925
 20
17.2821426581
 10
5.2083285798
 20
17.2788309662
 10
5.2006420307
 20
17.2755592582
 10
5.1928897659
 20
17.2723275247
 10
5.1850716548
 20
17.2691355276
 10
5.1771887391
 20
17.2659835699
 10
5.1692399771
 20
17.2628713486
 10
5.1612221117
 20
17.2597977165
 10
5.1531320517
 20
17.25676149
 10
5.1449728885
 20
17.2537638527
 10
5.1367506387
 20
17.2508072088
 10
5.1284644433
 20
17.24789142
 10
5.1201151614
 20
17.2450166247
 10
5.1117113871
 20
17.2421856418
 10
5.1032568773
 20
17.2393997512
 10
5.0947478751
 20
17.2366576731
 10
5.0861817043
 20
17.2339583869
 10
5.0775565406
 20
17.2313012681
 10
5.0688742083
 20
17.2286869413
 10
5.0601375046
 20
17.2261162599
 10
5.0513455972
 20
17.2235890366
 10
5.0424993185
 20
17.2211054589
 10
5.033603962
 20
17.2186669418
 10
5.0246626678
 20
17.216274299
 10
5.015672296
 20
17.2139267168
 10
5.0066287202
 20
17.2116231701
 10
4.9975283025
 20
17.2093627258
 10
4.9883746808
 20
17.2071463169
 10
4.9791746435
 20
17.2049757164
 10
4.9699273867
 20
17.2028508817
 10
4.9606337141
 20
17.2007718554
 10
4.9513028257
 20
17.1987405391
 10
4.9419389593
 20
17.1967578579
 10
4.9325378771
 20
17.1948228866
 10
4.9230960653
 20
17.1929347507
 10
4.913611197
 20
17.1910929397
 10
4.9040855991
 20
17.1892979642
 10
4.8945227387
 20
17.187550482
 10
4.8849222477
 20
17.1858504683
 10
4.8752844942
 20
17.1841979479
 10
4.8656140495
 20
17.1825936532
 10
4.8559139482
 20
17.1810380317
 10
4.8461811558
 20
17.1795306358
 10
4.8364111397
 20
17.1780708548
 10
4.8265994265
 20
17.1766580322
 10
4.8184627512
 20
17.1755301691
  0
LINE
  5
34A
100
AcDbEntity
  8
ASSI
100
AcDbLine
 62
253
  6
CONTINUOUS
 10
-1.2098376766
 20
14.9920653442
 11
-1.9168367477
 21
14.6581217118
  0
LINE
  5
34B
100
AcDbEntity
  8
ASSI
100
AcDbLine
 62
253
  6
CONTINUOUS
 10
-0.8561765759
 20
14.3821396536
 11
-1.5740529988
 21
14.0430582176
  0
LINE
  5
34C
100
AcDbEntity
  8
SMUSSO
100
AcDbLine
 62
7
  6
CONTINUOUS
 10
22.8959258111
 20
25.5941927499
 11
5.2530644496
 21
17.2993030464
  0
LWPOLYLINE
  5
34D
100
AcDbEntity
  8
ASSI
100
AcDbPolyline
 62
253
  6
CONTINUOUS
 90
27
 70
0
 10
-13.9392528473
 20
0.6771519625
 10
-13.9228713776
 20
0.6589709501
 10
-13.9069038709
 20
0.6401564688
 10
-13.8913532376
 20
0.6207075169
 10
-13.8762164625
 20
0.6006251468
 10
-13.8615684069
 20
0.580014791
 10
-13.8474117081
 20
0.5588763068
 10
-13.8337436119
 20
0.5372098935
 10
-13.8206308973
 20
0.5151214948
 10
-13.8080758101
 20
0.4926118848
 10
-13.7960759815
 20
0.469680349
 10
-13.7846912774
 20
0.4464305939
 10
-13.7739160004
 20
0.4228390305
 10
-13.7637557226
 20
0.3989293084
 10
-13.7542872314
 20
0.3748759835
 10
-13.7455302739
 20
0.350733863
 10
-13.7374650003
 20
0.3264481895
 10
-13.7301088152
 20
0.3020291661
 10
-13.7234492421
 20
0.2774720615
 10
-13.7174986442
 20
0.2527816621
 10
-13.7123116834
 20
0.2279824483
 10
-13.7078759453
 20
0.2029841589
 10
-13.7042037148
 20
0.1778771178
 10
-13.7013867329
 20
0.1529566697
 10
-13.6994555731
 20
0.128321266
 10
-13.6983796058
 20
0.1038724825
 10
-13.698158799
 20
0.0796103348
  0
LWPOLYLINE
  5
34E
100
AcDbEntity
  8
ASSI
100
AcDbPolyline
 62
253
  6
CONTINUOUS
 90
13
 70
0
 10
-1.3860459269
 20
-24.9230669038
 10
-1.3906060082
 20
-24.9120317675
 10
-1.3956461728
 20
-24.9013670891
 10
-1.4011526574
 20
-24.8911019892
 10
-1.4071104215
 20
-24.8812645061
 10
-1.413503202
 20
-24.8718814962
 10
-1.4203135288
 20
-24.8629786033
 10
-1.4275227667
 20
-24.8545801819
 10
-1.4351111961
 20
-24.8467091866
 10
-1.4430581062
 20
-24.839387083
 10
-1.4513418231
 20
-24.8326338344
 10
-1.4599397336
 20
-24.8264678774
 10
-1.4688283423
 20
-24.8209060628
  0
LWPOLYLINE
  5
34F
100
AcDbEntity
  8
ASSI
100
AcDbPolyline
 62
253
  6
CONTINUOUS
 90
43
 70
0
 10
-7.7529299306
 20
-25.6960475242
 10
-7.7514403023
 20
-25.7257762636
 10
-7.7490707553
 20
-25.7549291087
 10
-7.7458212896
 20
-25.7835060595
 10
-7.7416856979
 20
-25.8115425937
 10
-7.7366701874
 20
-25.8390032336
 10
-7.7307933801
 20
-25.8657815462
 10
-7.7240520647
 20
-25.8918736541
 10
-7.7164494526
 20
-25.9172834347
 10
-7.7080138
 20
-25.9419160879
 10
-7.698742077
 20
-25.9657684307
 10
-7.6886373135
 20
-25.9888436461
 10
-7.6777368554
 20
-26.0110564827
 10
-7.6660377556
 20
-26.0324038082
 10
-7.6535429612
 20
-26.052888755
 10
-7.64029866
 20
-26.0724354685
 10
-7.6263020177
 20
-26.0910405306
 10
-7.6115558686
 20
-26.1087073594
 10
-7.5961149035
 20
-26.1253703553
 10
-7.5799765884
 20
-26.1410257377
 10
-7.5631434572
 20
-26.1556772872
 10
-7.5456778028
 20
-26.1692707458
 10
-7.5275772778
 20
-26.1818022031
 10
-7.5088442295
 20
-26.1932755694
 10
-7.4895479931
 20
-26.2036483173
 10
-7.4696864034
 20
-26.2129163837
 10
-7.4492616254
 20
-26.2210838316
 10
-7.4283494897
 20
-26.2281203229
 10
-7.4069482671
 20
-26.234021624
 10
-7.3850596868
 20
-26.2387919685
 10
-7.3627647666
 20
-26.2424137181
 10
-7.3400620447
 20
-26.244882637
 10
-7.316952983
 20
-26.2462029611
 10
-7.2935229846
 20
-26.2463697591
 10
-7.2697705871
 20
-26.2453786983
 10
-7.245697253
 20
-26.2432341115
 10
-7.2213927736
 20
-26.2399440658
 10
-7.1968555667
 20
-26.2355039209
 10
-7.1720872145
 20
-26.2299183171
 10
-7.1471822551
 20
-26.2232092435
 10
-7.122172201
 20
-26.2153840297
 10
-7.0970255398
 20
-26.2064353459
 10
-7.0717422713
 20
-26.1963631923
  0
LINE
  5
350
100
AcDbEntity
  8
ASSI
100
AcDbLine
 62
253
  6
CONTINUOUS
 10
-7.6090463362
 20
21.1992541646
 11
-7.6090463362
 21
20.0641552082
  0
LINE
  5
351
100
AcDbEntity
  8
ASSI
100
AcDbLine
 62
253
  6
CONTINUOUS
 10
-7.3989771986
 20
16.6345927639
 11
-7.3989771986
 21
17.7151760747
  0
LWPOLYLINE
  5
352
100
AcDbEntity
  8
ASSI
100
AcDbPolyline
 62
253
  6
CONTINUOUS
 90
22
 70
0
 10
-8.4535134045
 20
9.9045925292
 10
-8.5087120548
 20
8.182799789
 10
-8.5583932323
 20
6.4634239145
 10
-8.6025561877
 20
4.7464913025
 10
-8.6412002636
 20
3.0320283198
 10
-8.6743248686
 20
1.3200612785
 10
-8.7019294773
 20
-0.3893835651
 10
-8.724013669
 20
-2.0962799736
 10
-8.740577115
 20
-3.8006017408
 10
-8.7516195526
 20
-5.5023227169
 10
-8.7571408108
 20
-7.20141678
 10
-8.7571408108
 20
-8.8978578511
 10
-8.7516195526
 20
-10.5916199061
 10
-8.740577115
 20
-12.2826769537
 10
-8.724013669
 20
-13.9710030342
 10
-8.7019294773
 20
-15.6565722342
 10
-8.6743248686
 20
-17.3393586852
 10
-8.6412002636
 20
-19.0193365617
 10
-8.6025561877
 20
-20.6964800804
 10
-8.5583932323
 20
-22.3707635034
 10
-8.5087120548
 20
-24.0421611386
 10
-8.4535134045
 20
-25.7106473384
  0
LWPOLYLINE
  5
353
100
AcDbEntity
  8
ASSI
100
AcDbPolyline
 62
253
  6
CONTINUOUS
 90
22
 70
0
 10
-7.7529299306
 20
9.8835771035
 10
-7.8080754297
 20
8.1634630474
 10
-7.8577075231
 20
6.4458159668
 10
-7.9018262109
 20
4.7306358617
 10
-7.9404320019
 20
3.0178964515
 10
-7.9735243873
 20
1.3076240167
 10
-8.0011018407
 20
-0.4001026006
 10
-8.023164107
 20
-2.1052832512
 10
-8.0397114413
 20
-3.8079180843
 10
-8.0507430819
 20
-5.5079287065
 10
-8.056258775
 20
-7.205314994
 10
-8.0562587744
 20
-8.9000770706
 10
-8.0507430801
 20
-10.5921369145
 10
-8.0397114382
 20
-12.2814944045
 10
-8.0231641026
 20
-13.9681496618
 10
-8.001101835
 20
-15.6520250285
 10
-7.97352438
 20
-17.3331204218
 10
-7.9404319929
 20
-19.0114359245
 10
-7.9018262016
 20
-20.6868941271
 10
-7.8577075155
 20
-22.3594692263
 10
-7.8080754251
 20
-24.0291870253
 10
-7.7529299306
 20
-25.6960475242
  0
LWPOLYLINE
  5
354
100
AcDbEntity
  8
ASSI
100
AcDbPolyline
 62
253
  6
CONTINUOUS
 90
27
 70
0
 10
-3.5181175385
 20
15.1054705111
 10
-3.5229960383
 20
15.0935146095
 10
-3.5283416799
 20
15.0818303354
 10
-3.53414027
 20
15.0704497869
 10
-3.5403769551
 20
15.0594032735
 10
-3.5470345493
 20
15.0487223117
 10
-3.5540931984
 20
15.0384391864
 10
-3.5615328542
 20
15.0285829553
 10
-3.5693338903
 20
15.0191794791
 10
-3.5774752096
 20
15.0102542215
 10
-3.585934745
 20
15.0018314588
 10
-3.5946892819
 20
14.9939343862
 10
-3.6037147021
 20
14.9865847889
 10
-3.6129862685
 20
14.9798028006
 10
-3.6224787377
 20
14.9736068762
 10
-3.6321662061
 20
14.9680139263
 10
-3.6420222306
 20
14.9630392243
 10
-3.6520198765
 20
14.958696372
 10
-3.6621318124
 20
14.9549972444
 10
-3.6723304105
 20
14.9519519473
 10
-3.6825878222
 20
14.9495687955
 10
-3.6928760302
 20
14.9478542985
 10
-3.7031669488
 20
14.9468131381
 10
-3.7134324537
 20
14.9464481612
 10
-3.7236444597
 20
14.9467603617
 10
-3.7337750448
 20
14.9477488737
 10
-3.7437965706
 20
14.9494109879
  0
LWPOLYLINE
  5
355
100
AcDbEntity
  8
IMPORT_IGES
100
AcDbPolyline
 62
7
  6
CONTINUOUS
 90
3
 70
0
 10
-15.5131668991
 20
-8.2817669229
 10
-15.5482602115
 20
-8.3482166902
 10
-15.5659962305
 20
-8.3702390688
  0
LINE
  5
356
100
AcDbEntity
  8
IMPORT_IGES
100
AcDbLine
 62
7
  6
CONTINUOUS
 10
-15.6049122464
 20
-8.2358942493
 11
-15.6531424669
 21
-8.3266659506
  0
LINE
  5
357
100
AcDbEntity
  8
RACCORDO
100
AcDbLine
 62
253
  6
CONTINUOUS
 10
23.7411836592
 20
24.884273107
 11
-0.8561765759
 21
12.370297526
  0
LINE
  5
358
100
AcDbEntity
  8
RACCORDO
100
AcDbLine
 62
253
  6
CONTINUOUS
 10
24.1553341349
 20
23.4526395323
 11
-0.8561765759
 21
10.7279637425
  0
LINE
  5
359
100
AcDbEntity
  8
ASSI
100
AcDbLine
 62
253
  6
CONTINUOUS
 10
-18.1516454279
 20
2.5113878189
 11
-17.9504946417
 21
2.6042859179
  0
LWPOLYLINE
  5
35A
100
AcDbEntity
  8
ASSI
100
AcDbPolyline
 62
253
  6
CONTINUOUS
 90
34
 70
0
 10
-7.7529299306
 20
9.8835771035
 10
-7.7702242619
 20
9.8764496369
 10
-7.7882497234
 20
9.8697363504
 10
-7.8069663831
 20
9.8634521161
 10
-7.8263327778
 20
9.8576108554
 10
-7.8463060048
 20
9.8522255086
 10
-7.8668418172
 20
9.847308006
 10
-7.8878947219
 20
9.8428692412
 10
-7.9094180799
 20
9.8389190477
 10
-7.9313642104
 20
9.8354661763
 10
-7.9536844959
 20
9.8325182761
 10
-7.9763294899
 20
9.8300818777
 10
-7.9992490267
 20
9.8281623785
 10
-8.0223923324
 20
9.8267640308
 10
-8.0457081373
 20
9.8258899323
 10
-8.0691447897
 20
9.8255420195
 10
-8.09265037
 20
9.825721063
 10
-8.1161728061
 20
9.8264266663
 10
-8.1396599884
 20
9.8276572662
 10
-8.1630598854
 20
9.8294101366
 10
-8.1863206591
 20
9.8316813942
 10
-8.2093907797
 20
9.8344660077
 10
-8.2322191395
 20
9.837757808
 10
-8.2547551667
 20
9.841549503
 10
-8.2769489369
 20
9.8458326928
 10
-8.298751284
 20
9.8505978888
 10
-8.320113909
 20
9.8558345346
 10
-8.340989487
 20
9.8615310294
 10
-8.3613317721
 20
9.8676747537
 10
-8.3810956997
 20
9.8742520972
 10
-8.4002374866
 20
9.8812484891
 10
-8.4187147278
 20
9.8886484301
 10
-8.4364864904
 20
9.8964355271
 10
-8.4535134044
 20
9.9045925293
  0
LWPOLYLINE
  5
35B
100
AcDbEntity
  8
ASSI
100
AcDbPolyline
 62
253
  6
CONTINUOUS
 90
28
 70
0
 10
-18.5721570451
 20
2.5166094578
 10
-18.5596086122
 20
2.5106771652
 10
-18.5463998284
 20
2.5051042646
 10
-18.5325744015
 20
2.4999091962
 10
-18.5181780793
 20
2.4951091502
 10
-18.5032584991
 20
2.4907200092
 10
-18.4878650296
 20
2.4867562967
 10
-18.4720486076
 20
2.483231128
 10
-18.455861569
 20
2.4801561674
 10
-18.4393574761
 20
2.4775415894
 10
-18.4225909404
 20
2.4753960453
 10
-18.4056174415
 20
2.473726634
 10
-18.3884931437
 20
2.4725388793
 10
-18.3712747105
 20
2.4718367108
 10
-18.3540191165
 20
2.4716224518
 10
-18.3367834589
 20
2.4718968108
 10
-18.3196247694
 20
2.4726588796
 10
-18.3025998247
 20
2.4739061363
 10
-18.2857649586
 20
2.4756344534
 10
-18.2691758761
 20
2.4778381119
 10
-18.2528874692
 20
2.4805098198
 10
-18.236953634
 20
2.4836407363
 10
-18.2214270941
 20
2.4872205015
 10
-18.2063592255
 20
2.4912372699
 10
-18.1917998855
 20
2.4956777505
 10
-18.1777972493
 20
2.5005272501
 10
-18.1643976507
 20
2.5057697219
 10
-18.1516454279
 20
2.5113878189
  0
LINE
  5
35C
100
AcDbEntity
  8
ASSI
100
AcDbLine
 62
7
  6
CONTINUOUS
 10
-18.0641381785
 20
2.6611076863
 11
-14.0387402208
 21
0.6484087075
  0
LINE
  5
35D
100
AcDbEntity
  8
ASSI
100
AcDbLine
 62
253
  6
CONTINUOUS
 10
-18.1420847426
 20
2.8270700789
 11
-14.1166867849
 21
0.8143711
  0
LWPOLYLINE
  5
35E
100
AcDbEntity
  8
ASSI
100
AcDbPolyline
 62
7
  6
CONTINUOUS
 90
21
 70
0
 10
-14.0387097738
 20
0.6483934897
 10
-14.0352884976
 20
0.6466369616
 10
-14.0212498965
 20
0.6385492926
 10
-14.0051279411
 20
0.62766766
 10
-13.9874772097
 20
0.6139385375
 10
-13.968696694
 20
0.5973018763
 10
-13.9491454881
 20
0.57772689
 10
-13.9292573716
 20
0.5553233995
 10
-13.909356647
 20
0.5301474743
 10
-13.8898866348
 20
0.5024680604
 10
-13.8713797281
 20
0.4728291081
 10
-13.8541464852
 20
0.4415912409
 10
-13.8384647439
 20
0.4091577817
 10
-13.8246833003
 20
0.3762519724
 10
-13.8129476121
 20
0.3433519886
 10
-13.8033418788
 20
0.3109153964
 10
-13.7959547214
 20
0.2796682703
 10
-13.7907117116
 20
0.2500258554
 10
-13.7874883098
 20
0.2223935075
 10
-13.7861096787
 20
0.1974287832
 10
-13.7860283208
 20
0.1854235986
  0
LWPOLYLINE
  5
35F
100
AcDbEntity
  8
ASSI
100
AcDbPolyline
 62
253
  6
CONTINUOUS
 90
11
 70
0
 10
-14.1166867849
 20
0.8143711
 10
-14.0981519566
 20
0.804582145
 10
-14.0797851245
 20
0.7939117078
 10
-14.0615862808
 20
0.7823597923
 10
-14.0435537586
 20
0.7699242059
 10
-14.0256891933
 20
0.7566071562
 10
-14.0079975229
 20
0.7424152515
 10
-13.9904278706
 20
0.7273043898
 10
-13.9730310508
 20
0.7113187032
 10
-13.9559645328
 20
0.6945971529
 10
-13.9392528473
 20
0.6771519625
  0
LWPOLYLINE
  5
360
100
AcDbEntity
  8
ASSI
100
AcDbPolyline
 62
253
  6
CONTINUOUS
 90
15
 70
0
 10
-13.698158799
 20
0.0796103348
 10
-13.7100053946
 20
0.0858755544
 10
-13.7211109188
 20
0.092459802
 10
-13.731438624
 20
0.0993412909
 10
-13.7409543367
 20
0.1064972505
 10
-13.7496265699
 20
0.1139040023
 10
-13.7574266277
 20
0.1215370378
 10
-13.7643287004
 20
0.1293710999
 10
-13.7703099492
 20
0.137380266
 10
-13.7753505828
 20
0.1455380345
 10
-13.779433922
 20
0.1538174116
 10
-13.7825464553
 20
0.1621910017
 10
-13.7846778834
 20
0.1706310969
 10
-13.7858211537
 20
0.1791097696
 10
-13.786028549
 20
0.1854019147
  0
LINE
  5
361
100
AcDbEntity
  8
SMUSSO
100
AcDbLine
 62
253
  6
CONTINUOUS
 10
6.970400706
 20
-12.2365700619
 11
6.2544419215
 21
-11.6576012928
  0
LWPOLYLINE
  5
362
100
AcDbEntity
  8
ASSI
100
AcDbPolyline
 62
253
  6
CONTINUOUS
 90
34
 70
0
 10
-7.0717422713
 20
11.0417080478
 10
-7.0730302293
 20
11.0620427357
 10
-7.0751011704
 20
11.0827383232
 10
-7.0779504085
 20
11.1037479827
 10
-7.0815714968
 20
11.125024176
 10
-7.0859562421
 20
11.1465187617
 10
-7.0910947229
 20
11.1681831043
 10
-7.0969753128
 20
11.1899681842
 10
-7.1035847056
 20
11.2118247086
 10
-7.1109079466
 20
11.233703223
 10
-7.1189284656
 20
11.2555542233
 10
-7.1276281147
 20
11.2773282673
 10
-7.1369872093
 20
11.2989760872
 10
-7.1469845729
 20
11.3204487009
 10
-7.1575975845
 20
11.3416975223
 10
-7.1688022302
 20
11.362674472
 10
-7.1805731575
 20
11.3833320857
 10
-7.1928837324
 20
11.4036236217
 10
-7.2057061001
 20
11.4235031663
 10
-7.2190112474
 20
11.4429257385
 10
-7.2327690691
 20
11.4618473908
 10
-7.2469484353
 20
11.4802253094
 10
-7.2615172628
 20
11.4980179108
 10
-7.2764425867
 20
11.5151849357
 10
-7.2916906356
 20
11.5316875405
 10
-7.307226908
 20
11.5474883848
 10
-7.3230162501
 20
11.5625517162
 10
-7.3390229355
 20
11.576843451
 10
-7.355210746
 20
11.5903312513
 10
-7.3715430537
 20
11.6029845985
 10
-7.3879829034
 20
11.6147748618
 10
-7.404493097
 20
11.6256753636
 10
-7.421036277
 20
11.6356614393
 10
-7.4375750113
 20
11.6447104935
  0
LWPOLYLINE
  5
363
100
AcDbEntity
  8
ASSI
100
AcDbPolyline
 62
7
  6
CONTINUOUS
 90
6
 70
0
 10
-5.2688474827
 20
15.8568639225
 10
-5.2675746928
 20
15.8316703986
 10
-5.2637325136
 20
15.8065520739
 10
-5.2573186596
 20
15.7818206165
 10
-5.2483808335
 20
15.7577960754
 10
-5.2370070081
 20
15.7347720753
  0
LWPOLYLINE
  5
364
100
AcDbEntity
  8
ASSI
100
AcDbPolyline
 62
7
  6
CONTINUOUS
 90
6
 70
0
 10
-6.4428144251
 20
23.505602526
 10
-6.4428712661
 20
23.5069170992
 10
-6.4436814925
 20
23.5103547732
 10
-6.4454091721
 20
23.5131767345
 10
-6.448009339
 20
23.5154340228
 10
-6.4495887352
 20
23.5163414308
  0
LWPOLYLINE
  5
365
100
AcDbEntity
  8
ASSI
100
AcDbPolyline
 62
253
  6
CONTINUOUS
 90
16
 70
0
 10
-5.195624178
 20
-25.8711024986
 10
-5.1953837025
 20
-25.882271399
 10
-5.1946629303
 20
-25.8931694371
 10
-5.1934638224
 20
-25.9037669628
 10
-5.1917896411
 20
-25.9140351438
 10
-5.1896449414
 20
-25.9239460438
 10
-5.1870355582
 20
-25.9334726985
 10
-5.1839685909
 20
-25.942589189
 10
-5.1804523836
 20
-25.9512707123
 10
-5.1764965028
 20
-25.959493649
 10
-5.1721117111
 20
-25.9672356271
 10
-5.1673099381
 20
-25.9744755832
 10
-5.1621042479
 20
-25.9811938199
 10
-5.1565088033
 20
-25.987372059
 10
-5.1505388277
 20
-25.9929934915
 10
-5.1442105636
 20
-25.9980428235
  0
LWPOLYLINE
  5
366
100
AcDbEntity
  8
ASSI
100
AcDbPolyline
 62
253
  6
CONTINUOUS
 90
18
 70
0
 10
-3.8706394981
 20
-26.5335948385
 10
-3.8703989169
 20
-26.5447661667
 10
-3.8696778257
 20
-26.5556665322
 10
-3.8684781839
 20
-26.5662662635
 10
-3.8668032514
 20
-26.5765365176
 10
-3.8646575849
 20
-26.5864493262
 10
-3.8620470303
 20
-26.5959776753
 10
-3.8589786968
 20
-26.605095624
 10
-3.8554609355
 20
-26.6137783621
 10
-3.8515033263
 20
-26.6220022498
 10
-3.8471166444
 20
-26.6297449035
 10
-3.8423128314
 20
-26.6369852527
 10
-3.8371049667
 20
-26.64370359
 10
-3.8315072214
 20
-26.6498816393
 10
-3.8255348398
 20
-26.6555025801
 10
-3.8192041055
 20
-26.660551098
 10
-3.8125322845
 20
-26.6650134448
 10
-3.8058260597
 20
-26.668733169
  0
LWPOLYLINE
  5
367
100
AcDbEntity
  8
ASSI
100
AcDbPolyline
 62
253
  6
CONTINUOUS
 90
17
 70
0
 10
-5.195624178
 20
15.7684755749
 10
-5.1954053068
 20
15.7578145826
 10
-5.1947487511
 20
15.7473931661
 10
-5.1936554134
 20
15.7372375888
 10
-5.1921269636
 20
15.7273717347
 10
-5.190166645
 20
15.717822538
 10
-5.1877800619
 20
15.7086193019
 10
-5.1849737291
 20
15.6997865753
 10
-5.181754212
 20
15.6913445345
 10
-5.1781294429
 20
15.6833140199
 10
-5.1741083598
 20
15.6757149346
 10
-5.1697009866
 20
15.6685663129
 10
-5.1649183588
 20
15.6618860853
 10
-5.1597723859
 20
15.6556908842
 10
-5.154275857
 20
15.6499961039
 10
-5.1484425137
 20
15.6448159676
 10
-5.1422869249
 20
15.6401633763
  0
LINE
  5
368
100
AcDbEntity
  8
ASSI
100
AcDbLine
 62
7
  6
CONTINUOUS
 10
-5.2687863219
 20
-25.7882421157
 11
-5.2688474442
 21
-25.7826447864
  0
LINE
  5
369
100
AcDbEntity
  8
ASSI
100
AcDbLine
 62
7
  6
CONTINUOUS
 10
-6.901939555
 20
21.5528075552
 11
-6.901939555
 21
22.1053657445
  0
LINE
  5
36A
100
AcDbEntity
  8
ASSI
100
AcDbLine
 62
253
  6
CONTINUOUS
 10
-6.6939332793
 20
16.6561285271
 11
-6.6939332793
 21
17.8888554995
  0
LINE
  5
36B
100
AcDbEntity
  8
ASSI
100
AcDbLine
 62
253
  6
CONTINUOUS
 10
-6.5681639324
 20
22.2686860997
 11
-6.5681639324
 21
23.4960366968
  0
LINE
  5
36C
100
AcDbEntity
  8
ASSI
100
AcDbLine
 62
7
  6
CONTINUOUS
 10
-6.5483861644
 20
21.3760308599
 11
-6.5483861644
 21
21.9285890492
  0
LINE
  5
36D
100
AcDbEntity
  8
ASSI
100
AcDbLine
 62
7
  6
CONTINUOUS
 10
-6.4428144251
 20
22.4177092284
 11
-6.4428144251
 21
23.5056048368
  0
LINE
  5
36E
100
AcDbEntity
  8
ASSI
100
AcDbLine
 62
7
  6
CONTINUOUS
 10
-6.3362541301
 20
18.0681600443
 11
-6.3362541301
 21
16.855724479
  0
LINE
  5
36F
100
AcDbEntity
  8
ASSI
100
AcDbLine
 62
253
  6
CONTINUOUS
 10
-6.1948327738
 20
21.1992541646
 11
-6.1948327738
 21
20.8124244476
  0
LINE
  5
370
100
AcDbEntity
  8
ASSI
100
AcDbLine
 62
7
  6
CONTINUOUS
 10
-5.2688474827
 20
16.1968378566
 11
-5.2688474827
 21
15.8568639225
  0
LINE
  5
371
100
AcDbEntity
  8
ASSI
100
AcDbLine
 62
7
  6
CONTINUOUS
 10
-5.2688474827
 20
-25.6562148553
 11
-5.2688474827
 21
-25.782714151
  0
LINE
  5
372
100
AcDbEntity
  8
ASSI
100
AcDbLine
 62
253
  6
CONTINUOUS
 10
-5.195624178
 20
16.108449509
 11
-5.195624178
 21
15.7684755749
  0
LINE
  5
373
100
AcDbEntity
  8
ASSI
100
AcDbLine
 62
253
  6
CONTINUOUS
 10
-5.195624178
 20
-25.6254786863
 11
-5.195624178
 21
-25.8711024986
  0
LINE
  5
374
100
AcDbEntity
  8
ASSI
100
AcDbLine
 62
7
  6
CONTINUOUS
 10
-4.5658545284
 20
14.8968848465
 11
-4.5658545284
 21
15.3508589482
  0
LINE
  5
375
100
AcDbEntity
  8
ASSI
100
AcDbLine
 62
253
  6
CONTINUOUS
 10
-4.4926312237
 20
14.8051731517
 11
-4.4926312237
 21
15.3142472958
  0
LWPOLYLINE
  5
376
100
AcDbEntity
  8
ASSI
100
AcDbPolyline
 62
253
  6
CONTINUOUS
 90
31
 70
0
 10
-5.195624178
 20
16.108449509
 10
-5.1953837025
 20
16.1198588849
 10
-5.1946629303
 20
16.1314776951
 10
-5.1934638224
 20
16.1432743287
 10
-5.1917896411
 20
16.155216691
 10
-5.1896449414
 20
16.1672722907
 10
-5.1870355582
 20
16.1794083286
 10
-5.1839685909
 20
16.1915917864
 10
-5.1804523836
 20
16.203789517
 10
-5.1764965028
 20
16.2159683345
 10
-5.1721117111
 20
16.2280951043
 10
-5.1673099381
 20
16.2401368334
 10
-5.1621042479
 20
16.2520607604
 10
-5.1565088033
 20
16.263834444
 10
-5.1505388277
 20
16.2754258521
 10
-5.1442105636
 20
16.2868034482
 10
-5.1375412279
 20
16.2979362777
 10
-5.1305489658
 20
16.3087940518
 10
-5.1232528008
 20
16.3193472301
 10
-5.1156725835
 20
16.3295671009
 10
-5.1078289371
 20
16.3394258593
 10
-5.0997432015
 20
16.3488966828
 10
-5.0914373755
 20
16.3579538045
 10
-5.0829340563
 20
16.366572583
 10
-5.0742563788
 20
16.3747295694
 10
-5.0654279519
 20
16.3824025712
 10
-5.056472795
 20
16.3895707128
 10
-5.0474152721
 20
16.396214492
 10
-5.0382800256
 20
16.4023158332
 10
-5.0290919097
 20
16.4078581368
 10
-5.019875922
 20
16.412826324
  0
LWPOLYLINE
  5
377
100
AcDbEntity
  8
ASSI
100
AcDbPolyline
 62
253
  6
CONTINUOUS
 90
21
 70
0
 10
-7.0717422713
 20
-26.1963631923
 10
-7.0730302299
 20
-26.2171552785
 10
-7.0751011721
 20
-26.2374934081
 10
-7.0779504118
 20
-26.2573315624
 10
-7.0815715022
 20
-26.2766248539
 10
-7.0859562498
 20
-26.2953296277
 10
-7.0910947333
 20
-26.3134035609
 10
-7.0969753259
 20
-26.3308057578
 10
-7.1035847218
 20
-26.3474968425
 10
-7.1109079658
 20
-26.3634390485
 10
-7.1189284877
 20
-26.3785963034
 10
-7.1276281397
 20
-26.392934311
 10
-7.1369872371
 20
-26.4064206291
 10
-7.1469846032
 20
-26.4190247421
 10
-7.1575976171
 20
-26.430718131
 10
-7.1688022648
 20
-26.4414743372
 10
-7.1805731937
 20
-26.4512690228
 10
-7.1928837698
 20
-26.4600800255
 10
-7.2057061382
 20
-26.4678874087
 10
-7.2190112858
 20
-26.4746735067
 10
-7.2255495167
 20
-26.4775588907
  0
LINE
  5
378
100
AcDbEntity
  8
RACCORDO
100
AcDbLine
 62
253
  6
CONTINUOUS
 10
19.4693134687
 20
18.8514324966
 11
24.1553341349
 21
21.277690722
  0
LINE
  5
379
100
AcDbEntity
  8
RACCORDO
100
AcDbLine
 62
7
  6
CONTINUOUS
 10
19.3914484789
 20
18.6892229232
 11
24.0787816498
 21
21.1161607178
  0
LWPOLYLINE
  5
37A
100
AcDbEntity
  8
SMUSSO
100
AcDbPolyline
 62
7
  6
CONTINUOUS
 90
200
 70
0
 10
6.4113017139
 20
-12.1971158814
 10
6.4090082662
 20
-12.1947538077
 10
6.4045797991
 20
-12.1900855378
 10
6.4002092467
 20
-12.1853349966
 10
6.3958946327
 20
-12.1805001923
 10
6.3916343044
 20
-12.1755792999
 10
6.3874299145
 20
-12.1705741443
 10
6.3832844442
 20
-12.165488209
 10
6.379198426
 20
-12.1603219658
 10
6.3751713274
 20
-12.1550749429
 10
6.3712045328
 20
-12.1497492085
 10
6.3672988969
 20
-12.1443460572
 10
6.3634535649
 20
-12.1388641943
 10
6.3596673564
 20
-12.1333018045
 10
6.3559388056
 20
-12.1276566722
 10
6.3522693783
 20
-12.1219310131
 10
6.3486622908
 20
-12.1161296592
 10
6.3451182067
 20
-12.1102534127
 10
6.3416364625
 20
-12.1043014716
 10
6.3382182843
 20
-12.0982762611
 10
6.3348644242
 20
-12.0921792746
 10
6.3315741301
 20
-12.0860090188
 10
6.3283463714
 20
-12.07976344
 10
6.3251798343
 20
-12.073439897
 10
6.3220758326
 20
-12.0670410311
 10
6.3190372765
 20
-12.0605727124
 10
6.3160648018
 20
-12.0540359456
 10
6.3131577728
 20
-12.0474297261
 10
6.3103171926
 20
-12.0407569096
 10
6.3075436855
 20
-12.0340191494
 10
6.3048366271
 20
-12.0272147922
 10
6.3021951475
 20
-12.0203417341
 10
6.2996183423
 20
-12.0133976017
 10
6.2971071159
 20
-12.0063847685
 10
6.2946633103
 20
-11.9993082502
 10
6.2922874585
 20
-11.9921694124
 10
6.2899790277
 20
-11.9849668895
 10
6.2877382617
 20
-11.977701602
 10
6.2855652905
 20
-11.9703742477
 10
6.2834599843
 20
-11.9629841287
 10
6.281422197
 20
-11.9555300709
 10
6.2794511694
 20
-11.9480089152
 10
6.2775476608
 20
-11.9404238208
 10
6.2757138039
 20
-11.9327830903
 10
6.2739501773
 20
-11.9250884716
 10
6.2722562025
 20
-11.9173382169
 10
6.2706322763
 20
-11.9095353856
 10
6.2690786987
 20
-11.9016817533
 10
6.2675951698
 20
-11.8937755444
 10
6.2661811862
 20
-11.8858144912
 10
6.2648363064
 20
-11.8777961383
 10
6.2635609719
 20
-11.8697229411
 10
6.2623560034
 20
-11.8615999982
 10
6.2612216928
 20
-11.8534292285
 10
6.2601577483
 20
-11.8452087131
 10
6.2591641151
 20
-11.8369377938
 10
6.2582406827
 20
-11.8286161308
 10
6.2573875617
 20
-11.8202440639
 10
6.2566050285
 20
-11.8118219551
 10
6.2558929151
 20
-11.8033465487
 10
6.2552513896
 20
-11.7948211004
 10
6.2546812319
 20
-11.7862557399
 10
6.2541827505
 20
-11.7776530789
 10
6.2537556369
 20
-11.7690105056
 10
6.2533997458
 20
-11.7603303153
 10
6.2531150673
 20
-11.7516139027
 10
6.2529016113
 20
-11.742859873
 10
6.2527592624
 20
-11.7340663362
 10
6.2526879821
 20
-11.7252308701
 10
6.2526878088
 20
-11.716355897
 10
6.2527587426
 20
-11.7074467938
 10
6.2529007453
 20
-11.6985060209
 10
6.2531138552
 20
-11.6895311181
 10
6.2533981871
 20
-11.6805200816
 10
6.253753731
 20
-11.6714715312
 10
6.254180497
 20
-11.6623868473
 10
6.2546786307
 20
-11.6532681666
 10
6.2552484403
 20
-11.6441125573
 10
6.2558896176
 20
-11.6349229512
 10
6.2566013835
 20
-11.625710281
 10
6.2573835704
 20
-11.6164779742
 10
6.2582363459
 20
-11.6072226032
 10
6.2591594338
 20
-11.5979448173
 10
6.2601527237
 20
-11.5886450711
 10
6.261216326
 20
-11.57932291
 10
6.2623502956
 20
-11.5699776202
 10
6.2635549247
 20
-11.5606069778
 10
6.2648299212
 20
-11.5512132066
 10
6.2661744629
 20
-11.5418022646
 10
6.2675881091
 20
-11.5323770641
 10
6.2690713006
 20
-11.5229346927
 10
6.2706245385
 20
-11.5134723713
 10
6.2722481216
 20
-11.503988021
 10
6.2739417511
 20
-11.4944837206
 10
6.2757050322
 20
-11.4849629267
 10
6.2775385431
 20
-11.4754232916
 10
6.2794417057
 20
-11.465867163
 10
6.2814123902
 20
-11.4563050403
 10
6.2834498378
 20
-11.4467408657
 10
6.2855548072
 20
-11.437170697
 10
6.2877274457
 20
-11.4275932065
 10
6.2899678838
 20
-11.4180075584
 10
6.292275991
 20
-11.4084145885
 10
6.2946515222
 20
-11.3988154765
 10
6.2970950111
 20
-11.3892083023
 10
6.2996059241
 20
-11.3795949861
 10
6.3021824147
 20
-11.3699824677
 10
6.3048235787
 20
-11.3603740586
 10
6.3075303203
 20
-11.3507664474
 10
6.3103035059
 20
-11.3411566384
 10
6.3131437571
 20
-11.3315423409
 10
6.3160504523
 20
-11.3219258458
 10
6.3190225931
 20
-11.3123110303
 10
6.322060815
 20
-11.3026962302
 10
6.3251644825
 20
-11.2930831097
 10
6.3283306904
 20
-11.2834805385
 10
6.3315581263
 20
-11.2738925142
 10
6.3348481026
 20
-11.2643150393
 10
6.3382016512
 20
-11.2547449908
 10
6.3416195256
 20
-11.2451800937
 10
6.3451009723
 20
-11.235622623
 10
6.3486447632
 20
-11.2260762816
 10
6.3522515629
 20
-11.2165395778
 10
6.3559207069
 20
-11.2070140033
 10
6.3596489734
 20
-11.1975077352
 10
6.3634348958
 20
-11.1880245102
 10
6.3672799407
 20
-11.1785605916
 10
6.3711852859
 20
-11.1691129461
 10
6.3751517839
 20
-11.1596793995
 10
6.3791785822
 20
-11.1502621261
 10
6.3832643011
 20
-11.1408646161
 10
6.3874094736
 20
-11.1314858445
 10
6.3916135668
 20
-11.1221268363
 10
6.3958736019
 20
-11.1127941569
 10
6.4001879276
 20
-11.1034913402
 10
6.4045581952
 20
-11.0942148524
 10
6.4089863805
 20
-11.0849606565
 10
6.4134740685
 20
-11.0757253964
 10
6.4180196741
 20
-11.0665124283
 10
6.4226204178
 20
-11.0573277844
 10
6.4272769154
 20
-11.0481705627
 10
6.4319885511
 20
-11.0390416652
 10
6.4367506974
 20
-11.0299498301
 10
6.4415612623
 20
-11.0208990635
 10
6.4464223379
 20
-11.0118853593
 10
6.4513355731
 20
-11.0029054374
 10
6.4563020774
 20
-10.9939571651
 10
6.4613207413
 20
-10.9850426751
 10
6.4663898853
 20
-10.9761650847
 10
6.4715098554
 20
-10.967323896
 10
6.4766803056
 20
-10.9585196069
 10
6.4818985176
 20
-10.949756828
 10
6.4871627209
 20
-10.941038416
 10
6.492474686
 20
-10.9323615142
 10
6.4978370058
 20
-10.923722163
 10
6.5032520278
 20
-10.9151165882
 10
6.5087174045
 20
-10.906548564
 10
6.5142286865
 20
-10.8980254539
 10
6.5197862558
 20
-10.8895469873
 10
6.5253897304
 20
-10.8811134348
 10
6.5310335143
 20
-10.8727329711
 10
6.5367149818
 20
-10.8644094954
 10
6.5424367587
 20
-10.8561391087
 10
6.5482011264
 20
-10.8479182887
 10
6.5540095641
 20
-10.839744832
 10
6.5598605928
 20
-10.8316209421
 10
6.5657520565
 20
-10.8235497069
 10
6.5716840523
 20
-10.8155310662
 10
6.5776564832
 20
-10.8075650801
 10
6.583666903
 20
-10.7996550175
 10
6.5897135685
 20
-10.7918030549
 10
6.5957982229
 20
-10.7840070158
 10
6.6019236485
 20
-10.7762636388
 10
6.6080927126
 20
-10.7685693371
 10
6.614302548
 20
-10.7609276976
 10
6.6205473355
 20
-10.7533462194
 10
6.6268270797
 20
-10.7458251863
 10
6.633141776
 20
-10.7383643146
 10
6.6394855919
 20
-10.7309702524
 10
6.6458556253
 20
-10.7236463591
 10
6.6522547783
 20
-10.7163892754
 10
6.6586859238
 20
-10.7091955707
 10
6.6651510094
 20
-10.7020629928
 10
6.6716480875
 20
-10.6949937939
 10
6.6781741883
 20
-10.6879913011
 10
6.6847291015
 20
-10.6810558094
 10
6.6913130373
 20
-10.6741870238
 10
6.6979236568
 20
-10.6673873858
 10
6.7045593017
 20
-10.6606584959
 10
6.7112216303
 20
-10.6539987537
 10
6.7179132782
 20
-10.6474057994
 10
6.724637317
 20
-10.6408766569
 10
6.7313906752
 20
-10.6344143022
 10
6.7381667744
 20
-10.6280253041
 10
6.7449651595
 20
-10.621710332
 10
6.7517862856
 20
-10.6154687164
 10
6.7586249396
 20
-10.6093050175
 10
6.7654783385
 20
-10.6032216953
 10
6.7723492652
 20
-10.5972162898
 10
6.7792408556
 20
-10.5912859806
  0
LWPOLYLINE
  5
37B
100
AcDbEntity
  8
SMUSSO
100
AcDbPolyline
 62
7
  6
CONTINUOUS
 90
28
 70
0
 10
6.7792408556
 20
-10.5912859806
 10
6.7861555515
 20
-10.585428626
 10
6.793090911
 20
-10.5796463676
 10
6.8000427442
 20
-10.5739428096
 10
6.8070104604
 20
-10.5683185246
 10
6.8139946502
 20
-10.56277294
 10
6.8209928958
 20
-10.5573079423
 10
6.8280035971
 20
-10.5519246895
 10
6.8350283543
 20
-10.5466220237
 10
6.8420695494
 20
-10.5413983581
 10
6.8491302478
 20
-10.5362514708
 10
6.8562073842
 20
-10.5311835838
 10
6.8632941445
 20
-10.526199776
 10
6.8703899896
 20
-10.5213006481
 10
6.8774954587
 20
-10.5164855993
 10
6.8846053557
 20
-10.5117579063
 10
6.8917170595
 20
-10.5071192769
 10
6.8988331912
 20
-10.5025680032
 10
6.9059564184
 20
-10.4981022387
 10
6.9130875326
 20
-10.4937213355
 10
6.9202257422
 20
-10.4894259416
 10
6.9273713402
 20
-10.4852161535
 10
6.9345244229
 20
-10.4810918262
 10
6.9416848941
 20
-10.4770531049
 10
6.9488527576
 20
-10.4731005211
 10
6.9560280147
 20
-10.4692342523
 10
6.9632106642
 20
-10.4654541211
 10
6.970400706
 20
-10.4617601275
  0
LWPOLYLINE
  5
37C
100
AcDbEntity
  8
ASSI
100
AcDbPolyline
 62
7
  6
CONTINUOUS
 90
9
 70
0
 10
-1.3163717189
 20
-25.0476577552
 10
-1.3176445088
 20
-25.0224642313
 10
-1.3214866879
 20
-24.9973459066
 10
-1.327900542
 20
-24.9726144491
 10
-1.3368383681
 20
-24.9485899081
 10
-1.3482121934
 20
-24.925565908
 10
-1.3619163924
 20
-24.9037896924
 10
-1.3778403258
 20
-24.8834752048
 10
-1.3957806195
 20
-24.8649047079
  0
LWPOLYLINE
  5
37D
100
AcDbEntity
  8
ASSI
100
AcDbPolyline
 62
253
  6
CONTINUOUS
 90
31
 70
0
 10
-3.5181175385
 20
15.4454444452
 10
-3.5184125154
 20
15.4568701529
 10
-3.5191883686
 20
15.4685082061
 10
-3.5204429717
 20
15.4803267069
 10
-3.522172886
 20
15.4922932632
 10
-3.5243733701
 20
15.5043750768
 10
-3.527038393
 20
15.5165390337
 10
-3.5301606503
 20
15.5287517949
 10
-3.5337315845
 20
15.5409798875
 10
-3.5377414084
 20
15.5531897964
 10
-3.5421791316
 20
15.5653480567
 10
-3.5470325914
 20
15.5774213449
 10
-3.5522884852
 20
15.5893765704
 10
-3.5579324077
 20
15.601180966
 10
-3.5639488899
 20
15.6128021782
 10
-3.5703214417
 20
15.6242083554
 10
-3.5770325973
 20
15.6353682354
 10
-3.5840639625
 20
15.6462512311
 10
-3.5913962658
 20
15.6568275143
 10
-3.5990094106
 20
15.6670680972
 10
-3.6068825307
 20
15.6769449125
 10
-3.6149940475
 20
15.6864308895
 10
-3.6233217287
 20
15.6955000291
 10
-3.6318427498
 20
15.7041274744
 10
-3.6405337562
 20
15.7122895793
 10
-3.6493709275
 20
15.7199639728
 10
-3.6583300427
 20
15.7271296209
 10
-3.6673865465
 20
15.733766884
 10
-3.6765156168
 20
15.7398575706
 10
-3.6856922325
 20
15.7453849871
 10
-3.6948912422
 20
15.7503339841
  0
LWPOLYLINE
  5
37E
100
AcDbEntity
  8
ASSI
100
AcDbPolyline
 62
253
  6
CONTINUOUS
 90
19
 70
0
 10
-3.8706394981
 20
15.105983235
 10
-3.870420627
 20
15.0953222427
 10
-3.8697640712
 20
15.0849008262
 10
-3.8686707336
 20
15.0747452489
 10
-3.8671422837
 20
15.0648793948
 10
-3.8651819652
 20
15.0553301981
 10
-3.8627953821
 20
15.046126962
 10
-3.8599890493
 20
15.0372942354
 10
-3.8567695322
 20
15.0288521946
 10
-3.8531447631
 20
15.02082168
 10
-3.84912368
 20
15.0132225947
 10
-3.8447163068
 20
15.006073973
 10
-3.839933679
 20
14.9993937454
 10
-3.8347877061
 20
14.9931985443
 10
-3.8292911772
 20
14.987503764
 10
-3.8234578339
 20
14.9823236277
 10
-3.8173022451
 20
14.9776710364
 10
-3.8108396898
 20
14.9735575038
 10
-3.8056662017
 20
14.9707647849
  0
LWPOLYLINE
  5
37F
100
AcDbEntity
  8
ASSI
100
AcDbPolyline
 62
7
  6
CONTINUOUS
 90
24
 70
0
 10
-3.7906697178
 20
22.4194715932
 10
-3.7912429022
 20
22.4539439994
 10
-3.7929420152
 20
22.4876939204
 10
-3.7957670568
 20
22.5207213561
 10
-3.7997274913
 20
22.5530829135
 10
-3.8048138544
 20
22.5847219857
 10
-3.8109977528
 20
22.6154687523
 10
-3.8182803682
 20
22.6453042797
 10
-3.8266605189
 20
22.6742475015
 10
-3.8361062662
 20
22.7021853974
 10
-3.8466301247
 20
22.7291315602
 10
-3.8582195797
 20
22.7550723972
 10
-3.8708051485
 20
22.7798541101
 10
-3.8843803343
 20
22.8034514115
 10
-3.8989516339
 20
22.8258895888
 10
-3.9144690539
 20
22.847090706
 10
-3.9309523413
 20
22.8670677959
 10
-3.9483817491
 20
22.8858078258
 10
-3.9666480438
 20
22.9031937613
 10
-3.9857366997
 20
22.9192026877
 10
-4.0056622424
 20
22.9338575197
 10
-4.0263590149
 20
22.9471099681
 10
-4.0478515294
 20
22.9589658294
 10
-7.2768861466
 20
24.5735070152
  0
LINE
  5
380
100
AcDbEntity
  8
ASSI
100
AcDbLine
 62
253
  6
CONTINUOUS
 10
-3.8706394981
 20
-26.5335948385
 11
-3.8706394981
 21
-26.1936209044
  0
LINE
  5
381
100
AcDbEntity
  8
ASSI
100
AcDbLine
 62
253
  6
CONTINUOUS
 10
-3.8706394981
 20
15.105983235
 11
-3.8706394981
 21
15.4459571691
  0
LINE
  5
382
100
AcDbEntity
  8
ASSI
100
AcDbLine
 62
7
  6
CONTINUOUS
 10
-3.7906697178
 20
22.4194715932
 11
-3.7906697178
 21
22.1486713006
  0
LINE
  5
383
100
AcDbEntity
  8
ASSI
100
AcDbLine
 62
253
  6
CONTINUOUS
 10
-3.5181175385
 20
-26.5341075624
 11
-3.5181175385
 21
-26.1941336283
  0
LINE
  5
384
100
AcDbEntity
  8
ASSI
100
AcDbLine
 62
253
  6
CONTINUOUS
 10
-3.5181175385
 20
15.1054705111
 11
-3.5181175385
 21
15.4454444452
  0
LINE
  5
385
100
AcDbEntity
  8
ASSI
100
AcDbLine
 62
253
  6
CONTINUOUS
 10
-3.15941889
 20
-25.2171244273
 11
-3.15941889
 21
-24.7707624142
  0
LINE
  5
386
100
AcDbEntity
  8
ASSI
100
AcDbLine
 62
253
  6
CONTINUOUS
 10
-3.15941889
 20
14.1385669849
 11
-3.15941889
 21
14.8273876078
  0
LINE
  5
387
100
AcDbEntity
  8
ASSI
100
AcDbLine
 62
253
  6
CONTINUOUS
 10
-2.8068969304
 20
-25.3426371511
 11
-2.8068969304
 21
-24.6227880145
  0
LINE
  5
388
100
AcDbEntity
  8
ASSI
100
AcDbLine
 62
253
  6
CONTINUOUS
 10
-2.8068969304
 20
14.1484661643
 11
-2.8068969304
 21
14.9569669882
  0
LWPOLYLINE
  5
389
100
AcDbEntity
  8
ASSI
100
AcDbPolyline
 62
253
  6
CONTINUOUS
 90
22
 70
0
 10
-3.8706394981
 20
-26.1936209044
 10
-3.8704196435
 20
-26.1827163932
 10
-3.8697606262
 20
-26.1716191495
 10
-3.8686640854
 20
-26.1603567763
 10
-3.8671327545
 20
-26.1489573268
 10
-3.8651704393
 20
-26.1374491169
 10
-3.8627819934
 20
-26.1258606506
 10
-3.8599733233
 20
-26.1142206686
 10
-3.8567514178
 20
-26.1025582061
 10
-3.8531243202
 20
-26.0909024001
 10
-3.8491010406
 20
-26.0792822097
 10
-3.8446915981
 20
-26.0677265763
 10
-3.8399070615
 20
-26.0562644744
 10
-3.8347594281
 20
-26.0449245637
 10
-3.8292614601
 20
-26.0337348833
 10
-3.8234267264
 20
-26.0227230234
 10
-3.81726851
 20
-26.0119142919
 10
-3.8108032358
 20
-26.001337744
 10
-3.8040508689
 20
-25.9910254228
 10
-3.7970300101
 20
-25.9810043547
 10
-3.7897572891
 20
-25.9712969496
 10
-3.7822511505
 20
-25.9619267306
  0
LWPOLYLINE
  5
38A
100
AcDbEntity
  8
ASSI
100
AcDbPolyline
 62
253
  6
CONTINUOUS
 90
31
 70
0
 10
-3.8706394981
 20
15.4459571691
 10
-3.8703989169
 20
15.4573690785
 10
-3.8696778257
 20
15.4689905351
 10
-3.8684781839
 20
15.4807899082
 10
-3.8668032514
 20
15.4927350949
 10
-3.8646575849
 20
15.50479357
 10
-3.8620470303
 20
15.5169324737
 10
-3.8589786968
 20
15.5291187559
 10
-3.8554609355
 20
15.5413192553
 10
-3.8515033263
 20
15.5535007522
 10
-3.8471166444
 20
15.5656300878
 10
-3.8423128314
 20
15.57767425
 10
-3.8371049667
 20
15.5896004519
 10
-3.8315072214
 20
15.6013762466
 10
-3.8255348398
 20
15.612969569
 10
-3.8192041055
 20
15.6243488212
 10
-3.8125322845
 20
15.635482989
 10
-3.8055375162
 20
15.6463418206
 10
-3.7982387793
 20
15.6568958566
 10
-3.7906558367
 20
15.6671164993
 10
-3.7828094184
 20
15.6769757882
 10
-3.7747211271
 20
15.6864466044
 10
-3.7664131593
 20
15.6955030325
 10
-3.757907987
 20
15.7041206491
 10
-3.7492285242
 20
15.7122762629
 10
-3.7403964337
 20
15.7199493115
 10
-3.7314376507
 20
15.727117059
 10
-3.7223823139
 20
15.7337559656
 10
-3.7132571451
 20
15.739847763
 10
-3.7040851405
 20
15.7453784103
 10
-3.6948912422
 20
15.7503339841
  0
LWPOLYLINE
  5
38B
100
AcDbEntity
  8
ASSI
100
AcDbPolyline
 62
253
  6
CONTINUOUS
 90
16
 70
0
 10
-1.3163717189
 20
16.599477901
 10
-1.31667494
 20
16.5933232567
 10
-1.3176564457
 20
16.5868217475
 10
-1.3193146236
 20
16.5803546714
 10
-1.3216449621
 20
16.5739396234
 10
-1.3246411212
 20
16.5675940565
 10
-1.3282949494
 20
16.5613352351
 10
-1.3325965058
 20
16.5551801873
 10
-1.3375340874
 20
16.5491456588
 10
-1.3430942604
 20
16.5432480678
 10
-1.3492618977
 20
16.5375034596
 10
-1.356020219
 20
16.5319274634
 10
-1.3633508372
 20
16.5265352495
 10
-1.3712338081
 20
16.5213414885
 10
-1.3796476848
 20
16.5163603109
 10
-1.3885695759
 20
16.5116052688
  0
LWPOLYLINE
  5
38C
100
AcDbEntity
  8
IMPORT_IGES
100
AcDbPolyline
 62
7
  6
CONTINUOUS
 90
3
 70
0
 10
-14.8575399017
 20
-8.7244672332
 10
-14.8434635016
 20
-8.7070990584
 10
-14.8054792338
 20
-8.6356107555
  0
LWPOLYLINE
  5
38D
100
AcDbEntity
  8
RACCORDO
100
AcDbPolyline
 62
7
  6
CONTINUOUS
 90
28
 70
0
 10
17.3112324521
 20
15.5998879563
 10
17.3139404479
 20
15.6013223131
 10
17.3165037068
 20
15.602843713
 10
17.3189222288
 20
15.6044521559
 10
17.321206933
 20
15.6061504361
 10
17.3233469002
 20
15.6079357593
 10
17.3253093733
 20
15.6097997429
 10
17.3270889628
 20
15.6117447295
 10
17.3286910582
 20
15.6137683766
 10
17.3300990707
 20
15.6158552738
 10
17.3313065842
 20
15.6180009168
 10
17.3323200148
 20
15.62020981
 10
17.3331420226
 20
15.6224800561
 10
17.3337738117
 20
15.6248039836
 10
17.334214178
 20
15.627189264
 10
17.3344621685
 20
15.6296570146
 10
17.3345227956
 20
15.6322097293
 10
17.334391047
 20
15.6348449141
 10
17.3340509327
 20
15.6375762046
 10
17.3335036044
 20
15.6404062591
 10
17.3327479103
 20
15.6433324193
 10
17.3317644056
 20
15.6463603454
 10
17.330550805
 20
15.6494937394
 10
17.3291093937
 20
15.6527288994
 10
17.3274275827
 20
15.6560603798
 10
17.3255011754
 20
15.6594863652
 10
17.3233343682
 20
15.663008671
 10
17.3209271613
 20
15.6666272972
  0
LINE
  5
38E
100
AcDbEntity
  8
RACCORDO
100
AcDbLine
 62
7
  6
CONTINUOUS
 10
18.0108743467
 20
17.0253465114
 11
6.970400706
 21
11.1888749671
  0
LWPOLYLINE
  5
38F
100
AcDbEntity
  8
SMUSSO
100
AcDbPolyline
 62
7
  6
CONTINUOUS
 90
91
 70
0
 10
6.970400706
 20
9.4140650327
 10
6.9632142016
 20
9.4103153285
 10
6.9560348493
 20
9.4066592253
 10
6.9488626491
 20
9.4030967231
 10
6.9416976032
 20
9.3996279919
 10
6.9345397095
 20
9.3962528617
 10
6.9273889609
 20
9.3929708225
 10
6.920245457
 20
9.38978183
 10
6.9131090983
 20
9.3866859286
 10
6.9059795801
 20
9.3836827406
 10
6.8988577297
 20
9.3807724497
 10
6.8917427198
 20
9.3779548723
 10
6.8846317636
 20
9.3752290808
 10
6.877522121
 20
9.3725940264
 10
6.8704165321
 20
9.370050758
 10
6.8633204312
 20
9.3676014939
 10
6.8562332483
 20
9.3652462805
 10
6.8491555534
 20
9.3629850714
 10
6.8420944911
 20
9.360819946
 10
6.8350532325
 20
9.3587518976
 10
6.8280286065
 20
9.3567799329
 10
6.8210182452
 20
9.3549031518
 10
6.8140206056
 20
9.3531210664
 10
6.8070372306
 20
9.3514341647
 10
6.8000703813
 20
9.3498430098
 10
6.7931194519
 20
9.3483475522
 10
6.7861850483
 20
9.3469478416
 10
6.7792712487
 20
9.3456445898
 10
6.7723804464
 20
9.3444381733
 10
6.7655102482
 20
9.3433282155
 10
6.7586575533
 20
9.3423142995
 10
6.7518195987
 20
9.3413960063
 10
6.7449991475
 20
9.3405737548
 10
6.7382013874
 20
9.3398483841
 10
6.7314258722
 20
9.339220091
 10
6.7246730481
 20
9.3386886787
 10
6.7179494427
 20
9.3382543958
 10
6.7112581123
 20
9.3379174443
 10
6.7045960006
 20
9.3376776222
 10
6.6979604656
 20
9.3375345721
 10
6.6913498266
 20
9.3374881783
 10
6.6847657644
 20
9.3375385564
 10
6.67821068
 20
9.3376856962
 10
6.6716843637
 20
9.3379296785
 10
6.6651870251
 20
9.3382704223
 10
6.6587216944
 20
9.3387076749
 10
6.6522903442
 20
9.3392412002
 10
6.6458910019
 20
9.3398712342
 10
6.6395207789
 20
9.340598232
 10
6.6331767705
 20
9.3414225474
 10
6.6268618814
 20
9.3423438265
 10
6.6205819374
 20
9.3433614628
 10
6.6143369391
 20
9.344475745
 10
6.608126886
 20
9.3456863843
 10
6.6019576025
 20
9.346991907
 10
6.5958319578
 20
9.3483916953
 10
6.5897470827
 20
9.3498863669
 10
6.5837001948
 20
9.3514763013
 10
6.5776895515
 20
9.3531618699
 10
6.5717168954
 20
9.3549427013
 10
6.5657846709
 20
9.3568180608
 10
6.5598929734
 20
9.3587879889
 10
6.5540417075
 20
9.3608524451
 10
6.5482330312
 20
9.3630105732
 10
6.5424684245
 20
9.3652617011
 10
6.5367464074
 20
9.3676065008
 10
6.531064697
 20
9.3700461319
 10
6.5254206679
 20
9.3725817739
 10
6.5198169457
 20
9.3752122473
 10
6.5142591238
 20
9.3779351737
 10
6.5087475831
 20
9.3807506791
 10
6.5032819428
 20
9.3836586375
 10
6.497866654
 20
9.3866562931
 10
6.4925040647
 20
9.3897423024
 10
6.4871918268
 20
9.3929180089
 10
6.4819273476
 20
9.3961846868
 10
6.4767088565
 20
9.3995433593
 10
6.471538124
 20
9.4029930032
 10
6.4664178686
 20
9.406531823
 10
6.4613484355
 20
9.4101596803
 10
6.4563294794
 20
9.4138767135
 10
6.4513626832
 20
9.4176815421
 10
6.446449158
 20
9.4215731815
 10
6.4415877926
 20
9.4255526164
 10
6.4367769363
 20
9.4296214202
 10
6.4320144971
 20
9.4337814317
 10
6.4273025671
 20
9.438030812
 10
6.422645771
 20
9.4423656178
 10
6.4180447237
 20
9.4467855859
 10
6.4134988104
 20
9.4512909795
 10
6.4113017208
 20
9.4535192061
  0
LINE
  5
390
100
AcDbEntity
  8
RACCORDO
100
AcDbLine
 62
253
  6
CONTINUOUS
 10
23.9431697869
 20
17.486658579
 11
19.2535115286
 21
15.0585169351
  0
LINE
  5
391
100
AcDbEntity
  8
DRAFT
100
AcDbLine
 62
7
  6
CONTINUOUS
 10
22.3891973449
 20
17.2029846282
 11
18.7092835875
 21
15.3306309057
  0
LINE
  5
392
100
AcDbEntity
  8
RACCORDO
100
AcDbLine
 62
7
  6
CONTINUOUS
 10
17.3112237748
 20
15.5998835579
 11
6.2545716808
 21
9.9954093195
  0
LINE
  5
393
100
AcDbEntity
  8
RACCORDO
100
AcDbLine
 62
7
  6
CONTINUOUS
 10
18.0108743467
 20
15.010338622
 11
6.970400706
 21
9.4140650327
  0
LWPOLYLINE
  5
394
100
AcDbEntity
  8
RACCORDO
100
AcDbPolyline
 62
253
  6
CONTINUOUS
 90
32
 70
0
 10
19.2535115286
 20
15.0585169351
 10
19.220798553
 20
15.0419535427
 10
19.1880563273
 20
15.0262970131
 10
19.1553018866
 20
15.011558971
 10
19.1225464644
 20
14.9977479065
 10
19.0898132874
 20
14.9848777113
 10
19.0571374198
 20
14.9729658267
 10
19.0245361666
 20
14.9620205093
 10
18.9920268408
 20
14.9520495335
 10
18.9596442098
 20
14.9430655663
 10
18.9274058954
 20
14.9350738572
 10
18.8953283656
 20
14.9280788476
 10
18.863444072
 20
14.9220879934
 10
18.8317749202
 20
14.9171040908
 10
18.8003318883
 20
14.9131275383
 10
18.7691305495
 20
14.9101598334
 10
18.7381905135
 20
14.9082015876
 10
18.7075241575
 20
14.9072523281
 10
18.6771362376
 20
14.9073121265
 10
18.6470405682
 20
14.9083809924
 10
18.6172550407
 20
14.9104583372
 10
18.5877906966
 20
14.9135439397
 10
18.5586606207
 20
14.9176369203
 10
18.5298827515
 20
14.9227352613
 10
18.5014751373
 20
14.9288362365
 10
18.4734531116
 20
14.9359365115
 10
18.4458309066
 20
14.9440324438
 10
18.4186243685
 20
14.9531194379
 10
18.3918486901
 20
14.9631920967
 10
18.3655167257
 20
14.974245266
 10
18.3396404162
 20
14.9862738227
 10
18.3331860653
 20
14.9894616456
  0
LINE
  5
395
100
AcDbEntity
  8
ASSI
100
AcDbLine
 62
7
  6
CONTINUOUS
 10
22.2662151689
 20
17.2644757162
 11
23.3268753407
 21
17.7948058021
  0
LINE
  5
396
100
AcDbEntity
  8
RACCORDO
100
AcDbLine
 62
7
  6
CONTINUOUS
 10
17.3209271613
 20
15.6666272972
 11
6.275747129
 21
10.1658911156
  0
LINE
  5
397
100
AcDbEntity
  8
SMUSSO
100
AcDbLine
 62
253
  6
CONTINUOUS
 10
6.970400706
 20
-7.906443043
 11
6.2544419207
 21
-7.3274742733
  0
LWPOLYLINE
  5
398
100
AcDbEntity
  8
SMUSSO
100
AcDbPolyline
 62
7
  6
CONTINUOUS
 90
200
 70
0
 10
6.4113017208
 20
-7.8669888696
 10
6.4090108114
 20
-7.864629431
 10
6.4045823124
 20
-7.8599612092
 10
6.4002117277
 20
-7.8552107157
 10
6.3958970816
 20
-7.8503759594
 10
6.3916367219
 20
-7.8454551158
 10
6.3874323007
 20
-7.8404500094
 10
6.383286798
 20
-7.8353641218
 10
6.3792007462
 20
-7.8301979249
 10
6.3751736129
 20
-7.8249509469
 10
6.3712067811
 20
-7.8196252538
 10
6.3673011052
 20
-7.8142221394
 10
6.3634557309
 20
-7.8087403099
 10
6.3596694782
 20
-7.8031779498
 10
6.3559408805
 20
-7.797532842
 10
6.3522714044
 20
-7.7918072036
 10
6.3486642695
 20
-7.7860058714
 10
6.3451201394
 20
-7.7801296473
 10
6.3416383505
 20
-7.7741777294
 10
6.3382201314
 20
-7.7681525487
 10
6.3348662358
 20
-7.7620556008
 10
6.33157591
 20
-7.7558853901
 10
6.3283481216
 20
-7.7496398613
 10
6.3251815576
 20
-7.743316375
 10
6.322077531
 20
-7.7369175706
 10
6.3190389485
 20
-7.730449311
 10
6.3160664453
 20
-7.7239126007
 10
6.3131593861
 20
-7.7173064351
 10
6.310318772
 20
-7.7106336636
 10
6.3075452259
 20
-7.7038959363
 10
6.3048381249
 20
-7.6970916032
 10
6.3021966007
 20
-7.6902185628
 10
6.2996197488
 20
-7.68327444
 10
6.2971084737
 20
-7.67626161
 10
6.2946646208
 20
-7.6691850965
 10
6.2922887233
 20
-7.6620462652
 10
6.2899802479
 20
-7.6548437505
 10
6.2877394403
 20
-7.6475784798
 10
6.2855664316
 20
-7.6402511549
 10
6.2834610907
 20
-7.632861074
 10
6.2814232699
 20
-7.6254070591
 10
6.2794522096
 20
-7.6178859524
 10
6.2775486694
 20
-7.6103009118
 10
6.2757147799
 20
-7.6026602322
 10
6.2739511193
 20
-7.5949656608
 10
6.2722571095
 20
-7.5872154505
 10
6.2706331466
 20
-7.5794126554
 10
6.2690795302
 20
-7.5715590484
 10
6.2675959608
 20
-7.5636528565
 10
6.2661819361
 20
-7.5556918156
 10
6.2648370149
 20
-7.5476734693
 10
6.2635616384
 20
-7.5396002738
 10
6.2623566285
 20
-7.5314773337
 10
6.2612222774
 20
-7.5233065683
 10
6.2601582929
 20
-7.5150860581
 10
6.2591646205
 20
-7.5068151494
 10
6.2582411501
 20
-7.4984935048
 10
6.2573879918
 20
-7.4901214616
 10
6.2566054215
 20
-7.4816993784
 10
6.255893271
 20
-7.4732239996
 10
6.2552517085
 20
-7.4646985808
 10
6.2546815136
 20
-7.456133248
 10
6.2541829948
 20
-7.4475306117
 10
6.2537558436
 20
-7.4388880614
 10
6.253399915
 20
-7.4302078911
 10
6.2531151988
 20
-7.4214914951
 10
6.2529017051
 20
-7.4127374792
 10
6.2527593187
 20
-7.4039439542
 10
6.2526880008
 20
-7.3951084982
 10
6.2526877902
 20
-7.3862335331
 10
6.252758687
 20
-7.377324436
 10
6.2529006528
 20
-7.3683836675
 10
6.2531137261
 20
-7.3594087669
 10
6.2533980218
 20
-7.3503977297
 10
6.2537535299
 20
-7.341349175
 10
6.2541802605
 20
-7.3322644836
 10
6.2546783593
 20
-7.3231457932
 10
6.2552481346
 20
-7.313990171
 10
6.2558892781
 20
-7.3048005499
 10
6.2566010105
 20
-7.2955878664
 10
6.2573831642
 20
-7.2863555485
 10
6.2582359067
 20
-7.2771001682
 10
6.2591589612
 20
-7.2678223791
 10
6.260152217
 20
-7.2585226385
 10
6.2612157847
 20
-7.2492004891
 10
6.2623497195
 20
-7.2398552124
 10
6.2635543133
 20
-7.2304845855
 10
6.2648292742
 20
-7.2210908313
 10
6.2661737812
 20
-7.2116799008
 10
6.2675873935
 20
-7.2022547058
 10
6.2690705519
 20
-7.1928123346
 10
6.2706237588
 20
-7.1833500032
 10
6.2722473133
 20
-7.1738656297
 10
6.2739409163
 20
-7.164361296
 10
6.2757041722
 20
-7.154840465
 10
6.2775376598
 20
-7.1453007876
 10
6.2794408004
 20
-7.1357446128
 10
6.2814114621
 20
-7.1261824498
 10
6.2834488862
 20
-7.1166182423
 10
6.2855538315
 20
-7.1070480466
 10
6.2877264432
 20
-7.0974705408
 10
6.2899668509
 20
-7.0878848942
 10
6.292274925
 20
-7.0782919375
 10
6.2946504222
 20
-7.0686928416
 10
6.2970938758
 20
-7.0590856873
 10
6.2996047526
 20
-7.0494723937
 10
6.3021812092
 20
-7.0398598897
 10
6.3048223416
 20
-7.0302514848
 10
6.3075290538
 20
-7.0206438695
 10
6.3103022141
 20
-7.0110340436
 10
6.3131424454
 20
-7.0014197119
 10
6.3160491248
 20
-6.9918031697
 10
6.3190212517
 20
-6.982188303
 10
6.3220594622
 20
-6.9725734471
 10
6.3251631201
 20
-6.9629602668
 10
6.3283293165
 20
-6.953357643
 10
6.3315567386
 20
-6.943769576
 10
6.3348466992
 20
-6.9341920655
 10
6.3382002286
 20
-6.9246219922
 10
6.3416180786
 20
-6.9150570849
 10
6.3450994973
 20
-6.9054996147
 10
6.3486432593
 20
-6.8959532762
 10
6.3522500289
 20
-6.8864165778
 10
6.3559191416
 20
-6.8768910112
 10
6.3596473789
 20
-6.8673847456
 10
6.3634332752
 20
-6.8579015152
 10
6.367278296
 20
-6.8484375857
 10
6.3711836198
 20
-6.8389899235
 10
6.3751500997
 20
-6.8295563526
 10
6.3791768826
 20
-6.820139049
 10
6.3832625875
 20
-6.8107415063
 10
6.3874077474
 20
-6.8013626998
 10
6.3916118293
 20
-6.7920036543
 10
6.3958718532
 20
-6.7826709383
 10
6.4001861672
 20
-6.7733680873
 10
6.4045564231
 20
-6.7640915658
 10
6.4089845972
 20
-6.754837336
 10
6.4134722747
 20
-6.7456020409
 10
6.4180178704
 20
-6.7363890375
 10
6.4226186041
 20
-6.727204359
 10
6.4272750922
 20
-6.7180471027
 10
6.4319867183
 20
-6.7089181713
 10
6.4367488534
 20
-6.699826306
 10
6.4415594053
 20
-6.6907755131
 10
6.4464204661
 20
-6.6817617864
 10
6.4513336832
 20
-6.672781848
 10
6.4563001641
 20
-6.6638335688
 10
6.4613188011
 20
-6.654919078
 10
6.4663879187
 20
-6.6460414857
 10
6.4715078624
 20
-6.6372002944
 10
6.4766782866
 20
-6.6283960017
 10
6.4818964783
 20
-6.6196332099
 10
6.487160668
 20
-6.6109147737
 10
6.4924726251
 20
-6.6022378383
 10
6.4978349448
 20
-6.593598442
 10
6.5032499777
 20
-6.5849928057
 10
6.5087153731
 20
-6.5764247083
 10
6.5142266745
 20
-6.5679015254
 10
6.5197842646
 20
-6.559422986
 10
6.5253877607
 20
-6.5509893609
 10
6.5310315574
 20
-6.5426088385
 10
6.5367130266
 20
-6.5342853216
 10
6.5424347964
 20
-6.5260149073
 10
6.5481991463
 20
-6.5177940748
 10
6.5540075508
 20
-6.5096206268
 10
6.5598585352
 20
-6.5014967605
 10
6.5657499552
 20
-6.4934255476
 10
6.571681907
 20
-6.4854069275
 10
6.5776542943
 20
-6.4774409607
 10
6.5836646836
 20
-6.4695308999
 10
6.5897113356
 20
-6.4616789164
 10
6.5957959896
 20
-6.4538828389
 10
6.6019214294
 20
-6.4461394064
 10
6.6080905277
 20
-6.4384450258
 10
6.6143004117
 20
-6.4308032901
 10
6.6205452481
 20
-6.4232217176
 10
6.6268250418
 20
-6.415700592
 10
6.6331397878
 20
-6.4082396296
 10
6.6394836372
 20
-6.4008454961
 10
6.6458536829
 20
-6.3935215579
 10
6.652252832
 20
-6.3862644488
 10
6.6586839576
 20
-6.3790707361
 10
6.6651490014
 20
-6.3719381732
 10
6.6716460215
 20
-6.3648690069
 10
6.6781720658
 20
-6.3578665438
 10
6.6847269237
 20
-6.3509310782
 10
6.6913108057
 20
-6.3440623159
 10
6.6979213905
 20
-6.3372626814
 10
6.7045570263
 20
-6.3305337682
 10
6.7112193649
 20
-6.3238739828
 10
6.7179110405
 20
-6.3172809693
 10
6.7246351302
 20
-6.3107517466
 10
6.7313885569
 20
-6.3042892959
 10
6.7381647233
 20
-6.2979002047
 10
6.7449631743
 20
-6.2915851438
 10
6.751784365
 20
-6.2853434424
 10
6.7586230637
 20
-6.2791796764
 10
6.7654764801
 20
-6.2730963129
 10
6.7723474044
 20
-6.2670908849
 10
6.779238976
 20
-6.2611605665
  0
LWPOLYLINE
  5
399
100
AcDbEntity
  8
SMUSSO
100
AcDbPolyline
 62
7
  6
CONTINUOUS
 90
28
 70
0
 10
6.779238976
 20
-6.2611605665
 10
6.7861536317
 20
-6.2553032198
 10
6.7930889348
 20
-6.2495209827
 10
6.800040714
 20
-6.2438174429
 10
6.8070083804
 20
-6.2381931706
 10
6.813992523
 20
-6.2326475956
 10
6.8209907378
 20
-6.2271825945
 10
6.8280014316
 20
-6.2217993197
 10
6.8350261975
 20
-6.2164966188
 10
6.8420674115
 20
-6.2112729114
 10
6.8491281367
 20
-6.2061259773
 10
6.85620531
 20
-6.2010580367
 10
6.8632921178
 20
-6.1960741694
 10
6.8703880205
 20
-6.1911749762
 10
6.8774935578
 20
-6.1863598563
 10
6.8846035343
 20
-6.1816320869
 10
6.8917153293
 20
-6.1769933756
 10
6.8988315636
 20
-6.1724420149
 10
6.9059549043
 20
-6.1679761595
 10
6.9130861428
 20
-6.1635951618
 10
6.9202244879
 20
-6.1592996694
 10
6.9273702323
 20
-6.1550897803
 10
6.9345234724
 20
-6.1509653495
 10
6.941684112
 20
-6.146926522
 10
6.9488521548
 20
-6.1429738308
 10
6.956027602
 20
-6.1391074537
 10
6.9632104524
 20
-6.135327213
 10
6.970400706
 20
-6.1316331086
  0
LWPOLYLINE
  5
39A
100
AcDbEntity
  8
ASSI
100
AcDbPolyline
 62
253
  6
CONTINUOUS
 90
15
 70
0
 10
-14.7528877403
 20
22.8462328342
 10
-14.7485401793
 20
22.8388799651
 10
-14.7446900309
 20
22.831787137
 10
-14.7413478092
 20
22.8249737187
 10
-14.738522641
 20
22.8184583164
 10
-14.7362222414
 20
22.8122587223
 10
-14.7344528922
 20
22.8063918661
 10
-14.7332194251
 20
22.800873769
 10
-14.7325252085
 20
22.7957194998
 10
-14.7323721382
 20
22.7909431337
 10
-14.732760632
 20
22.7865577139
 10
-14.7336896293
 20
22.7825752162
 10
-14.735156593
 20
22.7790065159
 10
-14.7371575171
 20
22.7758613583
 10
-14.737527168
 20
22.7753976677
  0
LWPOLYLINE
  5
39B
100
AcDbEntity
  8
ASSI
100
AcDbPolyline
 62
7
  6
CONTINUOUS
 90
10
 70
0
 10
-1.3163717189
 20
16.599477901
 10
-1.3184263914
 20
16.6314598162
 10
-1.3246427104
 20
16.6632502413
 10
-1.3350140267
 20
16.6942070846
 10
-1.3494315213
 20
16.7237233675
 10
-1.3676415013
 20
16.7511561629
 10
-1.3892707675
 20
16.7759297443
 10
-1.4140850867
 20
16.7977422575
 10
-1.4415597408
 20
16.8160926956
 10
-1.4545504028
 20
16.8230757377
  0
LWPOLYLINE
  5
39C
100
AcDbEntity
  8
ASSI
100
AcDbPolyline
 62
7
  6
CONTINUOUS
 90
6
 70
0
 10
-0.887825996
 20
20.7281087617
 10
-0.8878644802
 20
20.7291952265
 10
-0.8886127175
 20
20.7326579179
 10
-0.890274585
 20
20.7355081194
 10
-0.8928053027
 20
20.7377959848
 10
-0.8946003041
 20
20.7388472355
  0
LWPOLYLINE
  5
39D
100
AcDbEntity
  8
ASSI
100
AcDbPolyline
 62
7
  6
CONTINUOUS
 90
34
 70
0
 10
-1.9168367477
 20
16.2481664487
 10
-1.9170368037
 20
16.2585682574
 10
-1.9176370411
 20
16.2691466254
 10
-1.9186359991
 20
16.2798776435
 10
-1.9200312347
 20
16.2907370966
 10
-1.9218195829
 20
16.3017003891
 10
-1.9239971643
 20
16.3127426
 10
-1.9265589888
 20
16.3238387469
 10
-1.9294991631
 20
16.3349637404
 10
-1.932811158
 20
16.3460923108
 10
-1.9364874352
 20
16.3571992686
 10
-1.9405195954
 20
16.3682594898
 10
-1.9448985927
 20
16.3792478711
 10
-1.9496144933
 20
16.3901395287
 10
-1.9546565633
 20
16.4009098158
 10
-1.9600134239
 20
16.411534307
 10
-1.9656729482
 20
16.4219889315
 10
-1.9716222861
 20
16.4322500216
 10
-1.9778479579
 20
16.442294328
 10
-1.9843358904
 20
16.4520990829
 10
-1.9910713792
 20
16.4616420801
 10
-1.9980391185
 20
16.4709017203
 10
-2.0052233755
 20
16.4798570027
 10
-2.0126078912
 20
16.4884876347
 10
-2.0201758455
 20
16.4967741074
 10
-2.027910167
 20
16.5046976147
 10
-2.0357933729
 20
16.5122401908
 10
-2.0438074724
 20
16.5193848146
 10
-2.0519344028
 20
16.5261152574
 10
-2.0601558138
 20
16.5324162459
 10
-2.0684529106
 20
16.5382735931
 10
-2.0768069039
 20
16.5436740299
 10
-2.0851990531
 20
16.5486052345
 10
-2.0936104513
 20
16.5530559876
  0
LWPOLYLINE
  5
39E
100
AcDbEntity
  8
ASSI
100
AcDbPolyline
 62
253
  6
CONTINUOUS
 90
31
 70
0
 10
-1.3885695759
 20
16.5116052688
 10
-1.3887586967
 20
16.5230557777
 10
-1.38943288
 20
16.5347221314
 10
-1.3905911959
 20
16.5465728296
 10
-1.3922317774
 20
16.5585782914
 10
-1.3943508395
 20
16.5707034098
 10
-1.3969416911
 20
16.5829074395
 10
-1.3999965084
 20
16.5951542324
 10
-1.4035074304
 20
16.6074128715
 10
-1.407464948
 20
16.6196500914
 10
-1.4118583364
 20
16.631832574
 10
-1.4166755126
 20
16.6439266743
 10
-1.4219031394
 20
16.6558988646
 10
-1.4275268043
 20
16.6677161674
 10
-1.4335311495
 20
16.6793463374
 10
-1.4398997656
 20
16.6907575855
 10
-1.4466152254
 20
16.701918665
 10
-1.4536590956
 20
16.7127989198
 10
-1.4610120385
 20
16.7233684708
 10
-1.4686538852
 20
16.7335983224
 10
-1.4765636919
 20
16.7434604347
 10
-1.4847197681
 20
16.7529277597
 10
-1.4930997525
 20
16.7619743374
 10
-1.5016806664
 20
16.7705753575
 10
-1.5104389732
 20
16.778707226
 10
-1.5193506634
 20
16.7863476485
 10
-1.5283912954
 20
16.7934756679
 10
-1.5375360529
 20
16.8000717195
 10
-1.5467598513
 20
16.8061177142
 10
-1.5560374067
 20
16.8115970839
 10
-1.5653432796
 20
16.8164948076
  0
LINE
  5
39F
100
AcDbEntity
  8
ASSI
100
AcDbLine
 62
7
  6
CONTINUOUS
 10
-1.9168367477
 20
-24.2491769028
 11
-1.9168367477
 21
-25.7540729627
  0
LINE
  5
3A0
100
AcDbEntity
  8
ASSI
100
AcDbLine
 62
7
  6
CONTINUOUS
 10
-1.9168367477
 20
14.6457472922
 11
-1.9168367477
 21
16.2481664487
  0
LINE
  5
3A1
100
AcDbEntity
  8
ASSI
100
AcDbLine
 62
253
  6
CONTINUOUS
 10
-1.3885695759
 20
16.5116052688
 11
-1.3885695759
 21
16.164073752
  0
LINE
  5
3A2
100
AcDbEntity
  8
ASSI
100
AcDbLine
 62
253
  6
CONTINUOUS
 10
-1.3885695759
 20
-25.1355303874
 11
-1.3885695759
 21
-25.4830619041
  0
LINE
  5
3A3
100
AcDbEntity
  8
ASSI
100
AcDbLine
 62
7
  6
CONTINUOUS
 10
-1.3163717189
 20
16.599477901
 11
-1.3163717189
 21
16.1640730085
  0
LINE
  5
3A4
100
AcDbEntity
  8
ASSI
100
AcDbLine
 62
7
  6
CONTINUOUS
 10
-1.3163717189
 20
-25.0476577552
 11
-1.3163717189
 21
-25.3951892719
  0
LINE
  5
3A5
100
AcDbEntity
  8
ASSI
100
AcDbLine
 62
253
  6
CONTINUOUS
 10
-1.0114200599
 20
19.4920559109
 11
-1.0114200599
 21
20.7191058781
  0
LINE
  5
3A6
100
AcDbEntity
  8
ASSI
100
AcDbLine
 62
7
  6
CONTINUOUS
 10
-0.887825996
 20
19.6402150138
 11
-0.887825996
 21
20.7281106222
  0
LINE
  5
3A7
100
AcDbEntity
  8
RACCORDO
100
AcDbLine
 62
7
  6
CONTINUOUS
 10
-0.8561765759
 20
10.7279637425
 11
-0.8561765759
 21
-19.8803168659
  0
LINE
  5
3A8
100
AcDbEntity
  8
ASSI
100
AcDbLine
 62
7
  6
CONTINUOUS
 10
-0.8561765759
 20
-23.534492777
 11
-0.8561765759
 21
14.3821396536
  0
LINE
  5
3A9
100
AcDbEntity
  8
ASSI
100
AcDbLine
 62
253
  6
CONTINUOUS
 10
-1.3163717189
 20
-25.3951892719
 11
-1.3163717361
 21
-25.3952356893
  0
LWPOLYLINE
  5
3AA
100
AcDbEntity
  8
ASSI
100
AcDbPolyline
 62
7
  6
CONTINUOUS
 90
22
 70
0
 10
-1.5740529988
 20
-23.8886565443
 10
-1.5746724527
 20
-23.9065024155
 10
-1.5758816794
 20
-23.9240433906
 10
-1.5776826021
 20
-23.9412480528
 10
-1.580076498
 20
-23.9580831082
 10
-1.5830626703
 20
-23.9745201259
 10
-1.5866393448
 20
-23.990534916
 10
-1.5908035547
 20
-24.0060916288
 10
-1.595553898
 20
-24.0211659147
 10
-1.6008927517
 20
-24.0357485355
 10
-1.6068188282
 20
-24.0498098426
 10
-1.6133280312
 20
-24.0633167033
 10
-1.6204211905
 20
-24.0762508986
 10
-1.6281009817
 20
-24.0885903697
 10
-1.6363562366
 20
-24.1002921201
 10
-1.6451645083
 20
-24.1113083384
 10
-1.6545192138
 20
-24.1216158244
 10
-1.6644053126
 20
-24.1311837404
 10
-1.6747793836
 20
-24.1399635276
 10
-1.6856254258
 20
-24.1479389923
 10
-1.6969227153
 20
-24.1550922883
 10
-1.7086109126
 20
-24.161388794
  0
LWPOLYLINE
  5
3AB
100
AcDbEntity
  8
ASSI
100
AcDbPolyline
 62
7
  6
CONTINUOUS
 90
4
 70
0
 10
-1.3163717189
 20
16.164067069
 10
-1.3163898278
 20
16.1636404107
 10
-1.3168083556
 20
16.1620980951
 10
-1.3174240791
 20
16.1611384031
  0
LWPOLYLINE
  5
3AC
100
AcDbEntity
  8
ASSI
100
AcDbPolyline
 62
253
  6
CONTINUOUS
 90
16
 70
0
 10
-1.3163717189
 20
-25.0476577552
 10
-1.31667494
 20
-25.0538123994
 10
-1.3176564457
 20
-25.0603139087
 10
-1.3193146236
 20
-25.0667809847
 10
-1.3216449621
 20
-25.0731960328
 10
-1.3246411212
 20
-25.0795415996
 10
-1.3282949494
 20
-25.085800421
 10
-1.3325965058
 20
-25.0919554689
 10
-1.3375340874
 20
-25.0979899973
 10
-1.3430942604
 20
-25.1038875883
 10
-1.3492618977
 20
-25.1096321965
 10
-1.356020219
 20
-25.1152081928
 10
-1.3633508372
 20
-25.1206004066
 10
-1.3712338081
 20
-25.1257941676
 10
-1.3796476848
 20
-25.1307753452
 10
-1.3885695759
 20
-25.1355303874
  0
LWPOLYLINE
  5
3AD
100
AcDbEntity
  8
ASSI
100
AcDbPolyline
 62
253
  6
CONTINUOUS
 90
16
 70
0
 10
-1.3163717361
 20
-25.3952356893
 10
-1.3166729894
 20
-25.4013241008
 10
-1.317652708
 20
-25.407827049
 10
-1.319309397
 20
-25.4142956132
 10
-1.3216385486
 20
-25.4207121799
 10
-1.3246338288
 20
-25.4270592911
 10
-1.3282870877
 20
-25.4333196678
 10
-1.3325883858
 20
-25.439476271
 10
-1.3375260183
 20
-25.4455123415
 10
-1.3430865436
 20
-25.4514114439
 10
-1.3492548327
 20
-25.4571575253
 10
-1.356014094
 20
-25.462734941
 10
-1.3633459079
 20
-25.4681284933
 10
-1.371230306
 20
-25.4733234977
 10
-1.3796458318
 20
-25.4783058212
 10
-1.3885695759
 20
-25.4830619041
  0
LINE
  5
3AE
100
AcDbEntity
  8
RACCORDO
100
AcDbLine
 62
7
  6
CONTINUOUS
 10
18.0108743467
 20
12.6952194925
 11
6.970400706
 21
6.8587479481
  0
LINE
  5
3AF
100
AcDbEntity
  8
RACCORDO
100
AcDbLine
 62
253
  6
CONTINUOUS
 10
24.1553341349
 20
17.1207687839
 11
19.4693134687
 21
14.6945105584
  0
LINE
  5
3B0
100
AcDbEntity
  8
RACCORDO
100
AcDbLine
 62
253
  6
CONTINUOUS
 10
19.4693134687
 20
14.5213054777
 11
24.1553341349
 21
16.9475637031
  0
LINE
  5
3B1
100
AcDbEntity
  8
RACCORDO
100
AcDbLine
 62
7
  6
CONTINUOUS
 10
19.3914484789
 20
14.3590959042
 11
24.0787816498
 21
16.7860336989
  0
LINE
  5
3B2
100
AcDbEntity
  8
RACCORDO
100
AcDbLine
 62
7
  6
CONTINUOUS
 10
17.3112237748
 20
11.2697565389
 11
6.2545716911
 21
5.6652823058
  0
LWPOLYLINE
  5
3B3
100
AcDbEntity
  8
RACCORDO
100
AcDbPolyline
 62
253
  6
CONTINUOUS
 90
49
 70
0
 10
19.4693134687
 20
14.6945105584
 10
19.4325584897
 20
14.6759792139
 10
19.3958057239
 20
14.6584662287
 10
19.3590551713
 20
14.6419716027
 10
19.3222812371
 20
14.626481879
 10
19.2855095161
 20
14.6120105145
 10
19.2488167922
 20
14.5985978803
 10
19.2122037619
 20
14.5862480991
 10
19.1756697287
 20
14.5749570481
 10
19.1392893879
 20
14.5647527301
 10
19.1030636426
 20
14.5556391679
 10
19.0669915897
 20
14.5476123387
 10
19.0311452139
 20
14.5406881772
 10
18.9955307533
 20
14.5348705651
 10
18.9601419698
 20
14.5301556206
 10
18.9250321352
 20
14.5265476335
 10
18.8902057135
 20
14.5240480214
 10
18.8556582406
 20
14.5226553668
 10
18.821429596
 20
14.5223697068
 10
18.7875181675
 20
14.5231916706
 10
18.7539255672
 20
14.5251206289
 10
18.7206965109
 20
14.5281547322
 10
18.6878286661
 20
14.5322958182
 10
18.6553243653
 20
14.5375420492
 10
18.623235321
 20
14.543886061
 10
18.5915624053
 20
14.5513298949
 10
18.5603047463
 20
14.5598715098
 10
18.5295114403
 20
14.569497418
 10
18.4991844048
 20
14.5802090028
 10
18.4693217225
 20
14.5920048809
 10
18.4399667374
 20
14.6048674153
 10
18.4111203842
 20
14.6187979377
 10
18.3827817284
 20
14.6337951163
 10
18.3549913101
 20
14.6498373193
 10
18.3277495271
 20
14.6669262105
 10
18.3010559816
 20
14.6850601261
 10
18.2749500208
 20
14.7042124425
 10
18.2494323648
 20
14.7243848107
 10
18.2245022936
 20
14.7455755797
 10
18.2001969941
 20
14.7677531721
 10
18.1765175034
 20
14.7909189978
 10
18.1534627845
 20
14.815071647
 10
18.1310669127
 20
14.8401753124
 10
18.1093308881
 20
14.8662313149
 10
18.0882537106
 20
14.8932383337
 10
18.0678664559
 20
14.9211565993
 10
18.0481794825
 20
14.9499728551
 10
18.0291824319
 20
14.9797003578
 10
18.010875304
 20
15.0103391072
  0
LINE
  5
3B4
100
AcDbEntity
  8
IMPORT_IGES
100
AcDbLine
 62
7
  6
CONTINUOUS
 10
19.5792094004
 20
13.7900200638
 11
19.2963666879
 21
13.6485987075
  0
LINE
  5
3B5
100
AcDbEntity
  8
IMPORT_IGES
100
AcDbLine
 62
7
  6
CONTINUOUS
 10
18.6599705849
 20
13.330400656
 11
18.2685302816
 21
13.1346805043
  0
LINE
  5
3B6
100
AcDbEntity
  8
IMPORT_IGES
100
AcDbLine
 62
7
  6
CONTINUOUS
 10
19.2963666879
 20
13.1289834653
 11
18.6599705849
 21
12.8107854137
  0
LINE
  5
3B7
100
AcDbEntity
  8
RACCORDO
100
AcDbLine
 62
7
  6
CONTINUOUS
 10
17.3209271613
 20
11.3365002783
 11
6.2757471121
 21
5.8357640883
  0
LWPOLYLINE
  5
3B8
100
AcDbEntity
  8
ASSI
100
AcDbPolyline
 62
7
  6
CONTINUOUS
 90
7
 70
0
 10
-18.0900900799
 20
2.6708618691
 10
-18.0905356594
 20
2.670867862
 10
-18.0906703993
 20
2.6708429233
 10
-18.087121851
 20
2.670118426
 10
-18.0802487951
 20
2.6680343025
 10
-18.0705262323
 20
2.6641362921
 10
-18.0642302196
 20
2.6611537595
  0
LWPOLYLINE
  5
3B9
100
AcDbEntity
  8
IMPORT_IGES
100
AcDbPolyline
 62
7
  6
CONTINUOUS
 90
3
 70
0
 10
11.9777741471
 20
0.569486533
 10
12.000364846
 20
0.565401571
 10
12.0838775198
 20
0.5723367231
  0
LINE
  5
3BA
100
AcDbEntity
  8
IMPORT_IGES
100
AcDbLine
 62
7
  6
CONTINUOUS
 10
6.3374485283
 20
-2.5966401458
 11
6.5349604999
 21
-2.6953961316
  0
LINE
  5
3BB
100
AcDbEntity
  8
IMPORT_IGES
100
AcDbLine
 62
7
  6
CONTINUOUS
 10
6.9246402443
 20
-2.5013272741
 11
6.6037999656
 21
-2.3409071348
  0
LINE
  5
3BC
100
AcDbEntity
  8
SMUSSO
100
AcDbLine
 62
253
  6
CONTINUOUS
 10
6.970400706
 20
-3.5763160241
 11
6.2544419215
 21
-2.997347255
  0
LWPOLYLINE
  5
3BD
100
AcDbEntity
  8
IMPORT_IGES
100
AcDbPolyline
 62
7
  6
CONTINUOUS
 90
4
 70
0
 10
7.3658992259
 20
-5.9225554972
 10
7.3788329836
 20
-5.9351892894
 10
7.6287150158
 20
-6.3036902759
 10
7.6964574359
 20
-6.4470728036
  0
LWPOLYLINE
  5
3BE
100
AcDbEntity
  8
SMUSSO
100
AcDbPolyline
 62
7
  6
CONTINUOUS
 90
200
 70
0
 10
6.4113017139
 20
-3.5368618435
 10
6.4090082662
 20
-3.5344997698
 10
6.4045797991
 20
-3.5298314999
 10
6.4002092467
 20
-3.5250809588
 10
6.3958946327
 20
-3.5202461545
 10
6.3916343044
 20
-3.515325262
 10
6.3874299145
 20
-3.5103201065
 10
6.3832844442
 20
-3.5052341712
 10
6.379198426
 20
-3.500067928
 10
6.3751713274
 20
-3.4948209051
 10
6.3712045328
 20
-3.4894951707
 10
6.3672988969
 20
-3.4840920193
 10
6.3634535649
 20
-3.4786101564
 10
6.3596673564
 20
-3.4730477667
 10
6.3559388056
 20
-3.4674026344
 10
6.3522693783
 20
-3.4616769752
 10
6.3486622908
 20
-3.4558756213
 10
6.3451182067
 20
-3.4499993749
 10
6.3416364625
 20
-3.4440474337
 10
6.3382182843
 20
-3.4380222233
 10
6.3348644242
 20
-3.4319252367
 10
6.3315741301
 20
-3.4257549809
 10
6.3283463714
 20
-3.4195094022
 10
6.3251798343
 20
-3.4131858592
 10
6.3220758326
 20
-3.4067869932
 10
6.3190372765
 20
-3.4003186745
 10
6.3160648018
 20
-3.3937819078
 10
6.3131577728
 20
-3.3871756883
 10
6.3103171926
 20
-3.3805028718
 10
6.3075436855
 20
-3.3737651116
 10
6.3048366271
 20
-3.3669607544
 10
6.3021951475
 20
-3.3600876963
 10
6.2996183423
 20
-3.3531435639
 10
6.2971071159
 20
-3.3461307306
 10
6.2946633103
 20
-3.3390542124
 10
6.2922874585
 20
-3.3319153745
 10
6.2899790277
 20
-3.3247128517
 10
6.2877382617
 20
-3.3174475641
 10
6.2855652905
 20
-3.3101202099
 10
6.2834599843
 20
-3.3027300909
 10
6.281422197
 20
-3.295276033
 10
6.2794511694
 20
-3.2877548774
 10
6.2775476608
 20
-3.2801697829
 10
6.2757138039
 20
-3.2725290524
 10
6.2739501773
 20
-3.2648344338
 10
6.2722562025
 20
-3.2570841791
 10
6.2706322763
 20
-3.2492813478
 10
6.2690786987
 20
-3.2414277155
 10
6.2675951698
 20
-3.2335215066
 10
6.2661811862
 20
-3.2255604533
 10
6.2648363064
 20
-3.2175421004
 10
6.2635609719
 20
-3.2094689032
 10
6.2623560034
 20
-3.2013459604
 10
6.2612216928
 20
-3.1931751906
 10
6.2601577483
 20
-3.1849546752
 10
6.2591641151
 20
-3.176683756
 10
6.2582406827
 20
-3.1683620929
 10
6.2573875617
 20
-3.159990026
 10
6.2566050285
 20
-3.1515679173
 10
6.2558929151
 20
-3.1430925108
 10
6.2552513896
 20
-3.1345670625
 10
6.2546812319
 20
-3.1260017021
 10
6.2541827505
 20
-3.117399041
 10
6.2537556369
 20
-3.1087564678
 10
6.2533997458
 20
-3.1000762774
 10
6.2531150673
 20
-3.0913598649
 10
6.2529016113
 20
-3.0826058352
 10
6.2527592624
 20
-3.0738122984
 10
6.2526879821
 20
-3.0649768323
 10
6.2526878088
 20
-3.0561018591
 10
6.2527587426
 20
-3.047192756
 10
6.2529007453
 20
-3.0382519831
 10
6.2531138552
 20
-3.0292770802
 10
6.2533981871
 20
-3.0202660437
 10
6.253753731
 20
-3.0112174934
 10
6.254180497
 20
-3.0021328094
 10
6.2546786307
 20
-2.9930141287
 10
6.2552484403
 20
-2.9838585194
 10
6.2558896176
 20
-2.9746689134
 10
6.2566013835
 20
-2.9654562431
 10
6.2573835704
 20
-2.9562239364
 10
6.2582363459
 20
-2.9469685653
 10
6.2591594338
 20
-2.9376907795
 10
6.2601527237
 20
-2.9283910332
 10
6.261216326
 20
-2.9190688722
 10
6.2623502956
 20
-2.9097235824
 10
6.2635549247
 20
-2.9003529399
 10
6.2648299212
 20
-2.8909591687
 10
6.2661744629
 20
-2.8815482267
 10
6.2675881091
 20
-2.8721230262
 10
6.2690713006
 20
-2.8626806549
 10
6.2706245385
 20
-2.8532183334
 10
6.2722481216
 20
-2.8437339832
 10
6.2739417511
 20
-2.8342296828
 10
6.2757050322
 20
-2.8247088888
 10
6.2775385431
 20
-2.8151692538
 10
6.2794417057
 20
-2.8056131252
 10
6.2814123902
 20
-2.7960510024
 10
6.2834498378
 20
-2.7864868279
 10
6.2855548072
 20
-2.7769166592
 10
6.2877274457
 20
-2.7673391687
 10
6.2899678838
 20
-2.7577535206
 10
6.292275991
 20
-2.7481605506
 10
6.2946515222
 20
-2.7385614386
 10
6.2970950111
 20
-2.7289542645
 10
6.2996059241
 20
-2.7193409483
 10
6.3021824147
 20
-2.7097284298
 10
6.3048235787
 20
-2.7001200208
 10
6.3075303203
 20
-2.6905124095
 10
6.3103035059
 20
-2.6809026006
 10
6.3131437571
 20
-2.6712883031
 10
6.3160504523
 20
-2.661671808
 10
6.3190225931
 20
-2.6520569924
 10
6.322060815
 20
-2.6424421923
 10
6.3251644825
 20
-2.6328290718
 10
6.3283306904
 20
-2.6232265007
 10
6.3315581263
 20
-2.6136384764
 10
6.3348481026
 20
-2.6040610014
 10
6.3382016512
 20
-2.594490953
 10
6.3416195256
 20
-2.5849260558
 10
6.3451009723
 20
-2.5753685852
 10
6.3486447632
 20
-2.5658222437
 10
6.3522515629
 20
-2.55628554
 10
6.3559207069
 20
-2.5467599655
 10
6.3596489734
 20
-2.5372536973
 10
6.3634348958
 20
-2.5277704723
 10
6.3672799407
 20
-2.5183065537
 10
6.3711852859
 20
-2.5088589083
 10
6.3751517839
 20
-2.4994253617
 10
6.3791785822
 20
-2.4900080882
 10
6.3832643011
 20
-2.4806105783
 10
6.3874094736
 20
-2.4712318066
 10
6.3916135668
 20
-2.4618727984
 10
6.3958736019
 20
-2.452540119
 10
6.4001879276
 20
-2.4432373024
 10
6.4045581952
 20
-2.4339608145
 10
6.4089863805
 20
-2.4247066187
 10
6.4134740685
 20
-2.4154713585
 10
6.4180196741
 20
-2.4062583905
 10
6.4226204178
 20
-2.3970737466
 10
6.4272769154
 20
-2.3879165249
 10
6.4319885511
 20
-2.3787876274
 10
6.4367506974
 20
-2.3696957923
 10
6.4415612623
 20
-2.3606450257
 10
6.4464223379
 20
-2.3516313215
 10
6.4513355731
 20
-2.3426513995
 10
6.4563020774
 20
-2.3337031273
 10
6.4613207413
 20
-2.3247886373
 10
6.4663898853
 20
-2.3159110468
 10
6.4715098554
 20
-2.3070698582
 10
6.4766803056
 20
-2.2982655691
 10
6.4818985176
 20
-2.2895027902
 10
6.4871627209
 20
-2.2807843782
 10
6.492474686
 20
-2.2721074763
 10
6.4978370058
 20
-2.2634681252
 10
6.5032520278
 20
-2.2548625504
 10
6.5087174045
 20
-2.2462945262
 10
6.5142286865
 20
-2.2377714161
 10
6.5197862558
 20
-2.2292929495
 10
6.5253897304
 20
-2.2208593969
 10
6.5310335143
 20
-2.2124789333
 10
6.5367149818
 20
-2.2041554576
 10
6.5424367587
 20
-2.1958850708
 10
6.5482011264
 20
-2.1876642508
 10
6.5540095641
 20
-2.1794907942
 10
6.5598605928
 20
-2.1713669043
 10
6.5657520565
 20
-2.1632956691
 10
6.5716840523
 20
-2.1552770283
 10
6.5776564832
 20
-2.1473110423
 10
6.583666903
 20
-2.1394009797
 10
6.5897135685
 20
-2.1315490171
 10
6.5957982229
 20
-2.123752978
 10
6.6019236485
 20
-2.116009601
 10
6.6080927126
 20
-2.1083152993
 10
6.614302548
 20
-2.1006736598
 10
6.6205473355
 20
-2.0930921816
 10
6.6268270797
 20
-2.0855711485
 10
6.633141776
 20
-2.0781102768
 10
6.6394855919
 20
-2.0707162145
 10
6.6458556253
 20
-2.0633923213
 10
6.6522547783
 20
-2.0561352375
 10
6.6586859238
 20
-2.0489415329
 10
6.6651510094
 20
-2.0418089549
 10
6.6716480875
 20
-2.0347397561
 10
6.6781741883
 20
-2.0277372633
 10
6.6847291015
 20
-2.0208017716
 10
6.6913130373
 20
-2.0139329859
 10
6.6979236568
 20
-2.0071333479
 10
6.7045593017
 20
-2.0004044581
 10
6.7112216303
 20
-1.9937447159
 10
6.7179132782
 20
-1.9871517616
 10
6.724637317
 20
-1.980622619
 10
6.7313906752
 20
-1.9741602644
 10
6.7381667744
 20
-1.9677712663
 10
6.7449651595
 20
-1.9614562942
 10
6.7517862856
 20
-1.9552146786
 10
6.7586249396
 20
-1.9490509796
 10
6.7654783385
 20
-1.9429676575
 10
6.7723492652
 20
-1.936962252
 10
6.7792408556
 20
-1.9310319427
  0
LWPOLYLINE
  5
3BF
100
AcDbEntity
  8
SMUSSO
100
AcDbPolyline
 62
7
  6
CONTINUOUS
 90
28
 70
0
 10
6.7792408556
 20
-1.9310319427
 10
6.7861555515
 20
-1.9251745881
 10
6.793090911
 20
-1.9193923297
 10
6.8000427442
 20
-1.9136887718
 10
6.8070104604
 20
-1.9080644867
 10
6.8139946502
 20
-1.9025189021
 10
6.8209928958
 20
-1.8970539045
 10
6.8280035971
 20
-1.8916706517
 10
6.8350283543
 20
-1.8863679858
 10
6.8420695494
 20
-1.8811443202
 10
6.8491302478
 20
-1.875997433
 10
6.8562073842
 20
-1.870929546
 10
6.8632941445
 20
-1.8659457381
 10
6.8703899896
 20
-1.8610466102
 10
6.8774954587
 20
-1.8562315614
 10
6.8846053557
 20
-1.8515038685
 10
6.8917170595
 20
-1.846865239
 10
6.8988331912
 20
-1.8423139653
 10
6.9059564184
 20
-1.8378482008
 10
6.9130875326
 20
-1.8334672977
 10
6.9202257422
 20
-1.8291719037
 10
6.9273713402
 20
-1.8249621156
 10
6.9345244229
 20
-1.8208377884
 10
6.9416848941
 20
-1.816799067
 10
6.9488527576
 20
-1.8128464833
 10
6.9560280147
 20
-1.8089802145
 10
6.9632106642
 20
-1.8052000833
 10
6.970400706
 20
-1.8015060897
  0
LWPOLYLINE
  5
3C0
100
AcDbEntity
  8
RACCORDO
100
AcDbPolyline
 62
7
  6
CONTINUOUS
 90
28
 70
0
 10
17.3112324521
 20
11.2697609374
 10
17.3139404479
 20
11.2711952942
 10
17.3165037068
 20
11.2727166941
 10
17.3189222288
 20
11.274325137
 10
17.321206933
 20
11.2760234171
 10
17.3233469002
 20
11.2778087403
 10
17.3253093733
 20
11.279672724
 10
17.3270889628
 20
11.2816177106
 10
17.3286910582
 20
11.2836413577
 10
17.3300990707
 20
11.2857282549
 10
17.3313065842
 20
11.2878738979
 10
17.3323200148
 20
11.2900827911
 10
17.3331420226
 20
11.2923530372
 10
17.3337738117
 20
11.2946769647
 10
17.334214178
 20
11.2970622451
 10
17.3344621685
 20
11.2995299956
 10
17.3345227956
 20
11.3020827103
 10
17.334391047
 20
11.3047178952
 10
17.3340509327
 20
11.3074491857
 10
17.3335036044
 20
11.3102792402
 10
17.3327479103
 20
11.3132054004
 10
17.3317644056
 20
11.3162333265
 10
17.330550805
 20
11.3193667205
 10
17.3291093937
 20
11.3226018805
 10
17.3274275827
 20
11.3259333608
 10
17.3255011754
 20
11.3293593463
 10
17.3233343682
 20
11.3328816521
 10
17.3209271613
 20
11.3365002783
  0
LWPOLYLINE
  5
3C1
100
AcDbEntity
  8
SMUSSO
100
AcDbPolyline
 62
7
  6
CONTINUOUS
 90
91
 70
0
 10
6.970400706
 20
5.0839380138
 10
6.9632137744
 20
5.080188091
 10
6.9560340212
 20
5.0765317912
 10
6.9488614462
 20
5.0729691143
 10
6.9416960518
 20
5.0695002313
 10
6.9345378356
 20
5.0661249713
 10
6.9273867912
 20
5.0628428213
 10
6.9202430177
 20
5.0596537372
 10
6.913106416
 20
5.0565577632
 10
6.9059766822
 20
5.0535545193
 10
6.898854641
 20
5.050644188
 10
6.8917394676
 20
5.0478265867
 10
6.8846283835
 20
5.0451007875
 10
6.8775186566
 20
5.0424657447
 10
6.870413019
 20
5.039922504
 10
6.8633168885
 20
5.0374732749
 10
6.8562296966
 20
5.0351181033
 10
6.8491520117
 20
5.0328569432
 10
6.8420909563
 20
5.0306918661
 10
6.8350496922
 20
5.028623862
 10
6.8280250576
 20
5.0266519409
 10
6.8210146895
 20
5.0247752041
 10
6.8140170478
 20
5.0229931647
 10
6.8070336727
 20
5.0213063096
 10
6.8000668221
 20
5.0197152015
 10
6.793115893
 20
5.018219791
 10
6.7861814885
 20
5.0168201275
 10
6.7792676761
 20
5.0155169215
 10
6.7723768473
 20
5.0143105486
 10
6.7655066106
 20
5.0132006332
 10
6.758653859
 20
5.0121867591
 10
6.7518158206
 20
5.0112685066
 10
6.7449952672
 20
5.0104462955
 10
6.7381974075
 20
5.0097209683
 10
6.7314217943
 20
5.009092723
 10
6.7246688747
 20
5.0085613617
 10
6.7179451992
 20
5.0081271331
 10
6.7112538308
 20
5.0077902403
 10
6.7045917065
 20
5.0075504801
 10
6.6979561865
 20
5.0074074919
 10
6.6913455985
 20
5.0073611597
 10
6.6847616149
 20
5.0074115994
 10
6.6782066136
 20
5.0075587989
 10
6.6716803849
 20
5.0078028375
 10
6.6651831386
 20
5.0081436359
 10
6.6587178822
 20
5.0085809431
 10
6.6522865806
 20
5.009114523
 10
6.6458872689
 20
5.0097446117
 10
6.63951706
 20
5.0104716667
 10
6.6331730438
 20
5.011296043
 10
6.6268581304
 20
5.0122173856
 10
6.6205781623
 20
5.0132350864
 10
6.6143331409
 20
5.0143494355
 10
6.6081230649
 20
5.0155601428
 10
6.601953773
 20
5.0168657309
 10
6.5958281396
 20
5.0182655813
 10
6.5897432903
 20
5.0197603124
 10
6.5836964411
 20
5.021350302
 10
6.5776858535
 20
5.0230359201
 10
6.5717132661
 20
5.0248167967
 10
6.5657811105
 20
5.0266921998
 10
6.5598894818
 20
5.0286621692
 10
6.554038285
 20
5.0307266651
 10
6.5482296667
 20
5.0328848361
 10
6.5424651025
 20
5.0351360116
 10
6.5367431168
 20
5.0374808622
 10
6.5310614291
 20
5.0399205485
 10
6.5254174115
 20
5.0424562511
 10
6.5198136919
 20
5.0450867893
 10
6.5142558733
 20
5.0478097812
 10
6.5087443374
 20
5.0506253527
 10
6.5032787024
 20
5.0535333778
 10
6.4978634267
 20
5.056531096
 10
6.4925008613
 20
5.0596171624
 10
6.4871886551
 20
5.062792922
 10
6.4819242131
 20
5.0660596489
 10
6.4767057658
 20
5.0694183655
 10
6.4715350826
 20
5.0728680495
 10
6.4664148769
 20
5.0764069083
 10
6.4613454933
 20
5.0800348033
 10
6.4563265871
 20
5.083751873
 10
6.451359837
 20
5.0875567403
 10
6.4464463524
 20
5.091448422
 10
6.4415850238
 20
5.0954279014
 10
6.4367742024
 20
5.099496751
 10
6.4320117963
 20
5.1036568101
 10
6.4272998974
 20
5.1079062394
 10
6.4226431322
 20
5.1122410943
 10
6.4180421161
 20
5.1166611114
 10
6.4134962338
 20
5.1211665541
 10
6.4113017139
 20
5.1233921943
  0
LINE
  5
3C2
100
AcDbEntity
  8
RACCORDO
100
AcDbLine
 62
253
  6
CONTINUOUS
 10
23.9431697869
 20
13.1565315601
 11
19.2535115286
 21
10.7283899162
  0
LINE
  5
3C3
100
AcDbEntity
  8
RACCORDO
100
AcDbLine
 62
253
  6
CONTINUOUS
 10
24.1553341349
 20
12.7906417649
 11
19.4693134687
 21
10.3643835395
  0
LINE
  5
3C4
100
AcDbEntity
  8
DRAFT
100
AcDbLine
 62
7
  6
CONTINUOUS
 10
22.3891973449
 20
12.8728576093
 11
18.7092835875
 21
11.0005038867
  0
LINE
  5
3C5
100
AcDbEntity
  8
RACCORDO
100
AcDbLine
 62
7
  6
CONTINUOUS
 10
18.0108743467
 20
10.680211603
 11
6.970400706
 21
5.0839380138
  0
LWPOLYLINE
  5
3C6
100
AcDbEntity
  8
RACCORDO
100
AcDbPolyline
 62
253
  6
CONTINUOUS
 90
32
 70
0
 10
19.2535115286
 20
10.7283899162
 10
19.220798553
 20
10.7118265238
 10
19.1880563273
 20
10.6961699942
 10
19.1553018866
 20
10.6814319521
 10
19.1225464644
 20
10.6676208876
 10
19.0898132874
 20
10.6547506924
 10
19.0571374198
 20
10.6428388078
 10
19.0245361666
 20
10.6318934904
 10
18.9920268408
 20
10.6219225146
 10
18.9596442098
 20
10.6129385474
 10
18.9274058954
 20
10.6049468383
 10
18.8953283656
 20
10.5979518287
 10
18.863444072
 20
10.5919609744
 10
18.8317749202
 20
10.5869770719
 10
18.8003318883
 20
10.5830005194
 10
18.7691305495
 20
10.5800328145
 10
18.7381905135
 20
10.5780745687
 10
18.7075241575
 20
10.5771253091
 10
18.6771362376
 20
10.5771851076
 10
18.6470405682
 20
10.5782539735
 10
18.6172550407
 20
10.5803313183
 10
18.5877906966
 20
10.5834169207
 10
18.5586606207
 20
10.5875099014
 10
18.5298827515
 20
10.5926082424
 10
18.5014751373
 20
10.5987092176
 10
18.4734531116
 20
10.6058094926
 10
18.4458309066
 20
10.6139054249
 10
18.4186243685
 20
10.6229924189
 10
18.3918486901
 20
10.6330650777
 10
18.3655167257
 20
10.6441182471
 10
18.3396404162
 20
10.6561468038
 10
18.3331860653
 20
10.6593346266
  0
LWPOLYLINE
  5
3C7
100
AcDbEntity
  8
RACCORDO
100
AcDbPolyline
 62
253
  6
CONTINUOUS
 90
49
 70
0
 10
19.4693134687
 20
10.3643835395
 10
19.4325584897
 20
10.345852195
 10
19.3958057239
 20
10.3283392098
 10
19.3590551713
 20
10.3118445838
 10
19.3222812371
 20
10.2963548601
 10
19.2855095161
 20
10.2818834956
 10
19.2488167922
 20
10.2684708614
 10
19.2122037619
 20
10.2561210802
 10
19.1756697287
 20
10.2448300291
 10
19.1392893879
 20
10.2346257112
 10
19.1030636426
 20
10.225512149
 10
19.0669915897
 20
10.2174853198
 10
19.0311452139
 20
10.2105611583
 10
18.9955307533
 20
10.2047435462
 10
18.9601419698
 20
10.2000286017
 10
18.9250321352
 20
10.1964206146
 10
18.8902057135
 20
10.1939210025
 10
18.8556582406
 20
10.1925283479
 10
18.821429596
 20
10.1922426879
 10
18.7875181675
 20
10.1930646516
 10
18.7539255672
 20
10.19499361
 10
18.7206965109
 20
10.1980277132
 10
18.6878286661
 20
10.2021687993
 10
18.6553243653
 20
10.2074150302
 10
18.623235321
 20
10.2137590421
 10
18.5915624053
 20
10.221202876
 10
18.5603047463
 20
10.2297444909
 10
18.5295114403
 20
10.2393703991
 10
18.4991844049
 20
10.2500819838
 10
18.4693217225
 20
10.261877862
 10
18.4399667374
 20
10.2747403964
 10
18.4111203842
 20
10.2886709187
 10
18.3827817284
 20
10.3036680974
 10
18.3549913101
 20
10.3197103004
 10
18.3277495271
 20
10.3367991916
 10
18.3010559816
 20
10.3549331072
 10
18.2749500208
 20
10.3740854235
 10
18.2494323648
 20
10.3942577918
 10
18.2245022936
 20
10.4154485608
 10
18.2001969941
 20
10.4376261531
 10
18.1765175034
 20
10.4607919789
 10
18.1534627845
 20
10.4849446281
 10
18.1310669127
 20
10.5100482935
 10
18.1093308881
 20
10.536104296
 10
18.0882537106
 20
10.5631113148
 10
18.0678664559
 20
10.5910295804
 10
18.0481794825
 20
10.6198458362
 10
18.0291824319
 20
10.6495733389
 10
18.010875304
 20
10.6802120883
  0
LINE
  5
3C8
100
AcDbEntity
  8
ASSI
100
AcDbLine
 62
253
  6
CONTINUOUS
 10
-16.2357490667
 20
-7.7755945996
 11
-18.1516454279
 21
-8.7409297791
  0
LINE
  5
3C9
100
AcDbEntity
  8
ASSI
100
AcDbLine
 62
253
  6
CONTINUOUS
 10
-16.0236493411
 20
-8.1414125136
 11
-17.9336763143
 21
-9.1037903688
  0
LINE
  5
3CA
100
AcDbEntity
  8
ASSI
100
AcDbLine
 62
7
  6
CONTINUOUS
 10
22.2662151689
 20
12.9343486973
 11
23.3268753407
 21
13.4646787832
  0
LINE
  5
3CB
100
AcDbEntity
  8
0
100
AcDbLine
 62
7
  6
CONTINUOUS
 10
-16.0306881001
 20
-7.5899936205
 11
-13.8140980041
 21
-6.4816985725
  0
LWPOLYLINE
  5
3CC
100
AcDbEntity
  8
IMPORT_IGES
100
AcDbPolyline
 62
7
  6
CONTINUOUS
 90
6
 70
0
 10
9.771760149
 20
3.2467264266
 10
9.7341128944
 20
3.2350197495
 10
9.3185012488
 20
3.1745106579
 10
8.9266026338
 20
3.1896195188
 10
8.5620306904
 20
3.2722625733
 10
8.4571628473
 20
3.3145876561
  0
LINE
  5
3CD
100
AcDbEntity
  8
IMPORT_IGES
100
AcDbLine
 62
7
  6
CONTINUOUS
 10
9.0079630217
 20
-1.1388256068
 11
9.3335695733
 21
-1.3016288826
  0
LINE
  5
3CE
100
AcDbEntity
  8
DRAFT
100
AcDbLine
 62
7
  6
CONTINUOUS
 10
18.7104227247
 20
-5.2920092517
 11
18.1009636611
 21
-4.9872797199
  0
LINE
  5
3CF
100
AcDbEntity
  8
IMPORT_IGES
100
AcDbLine
 62
7
  6
CONTINUOUS
 10
9.9249940434
 20
-0.8889691418
 11
9.5007299746
 21
-0.6768371074
  0
LINE
  5
3D0
100
AcDbEntity
  8
DRAFT
100
AcDbLine
 62
7
  6
CONTINUOUS
 10
18.1009636611
 20
-4.9449111061
 11
17.7439422753
 21
-4.7664004132
  0
LINE
  5
3D1
100
AcDbEntity
  8
DRAFT
100
AcDbLine
 62
7
  6
CONTINUOUS
 10
14.4141638034
 20
-3.1015111772
 11
13.5343903807
 21
-2.6616244658
  0
LINE
  5
3D2
100
AcDbEntity
  8
ASSI
100
AcDbLine
 62
253
  6
CONTINUOUS
 10
-8.4535134045
 20
9.9045925292
 11
-23.2783594821
 21
17.317015568
  0
LINE
  5
3D3
100
AcDbEntity
  8
IMPORT_IGES
100
AcDbLine
 62
7
  6
CONTINUOUS
 10
9.5007299746
 20
-0.6768371074
 11
9.9436129049
 21
-0.9978142397
  0
LINE
  5
3D4
100
AcDbEntity
  8
IMPORT_IGES
100
AcDbLine
 62
7
  6
CONTINUOUS
 10
10.0215927893
 20
-0.9589785874
 11
9.9249940434
 21
-0.8889691418
  0
LINE
  5
3D5
100
AcDbEntity
  8
SMUSSO
100
AcDbLine
 62
253
  6
CONTINUOUS
 10
6.2544419207
 20
1.3327797646
 11
6.970400706
 21
0.7538109949
  0
LWPOLYLINE
  5
3D6
100
AcDbEntity
  8
ASSI
100
AcDbPolyline
 62
7
  6
CONTINUOUS
 90
4
 70
0
 10
-5.2370070081
 20
15.7347720753
 10
-5.2233028091
 20
15.7129958598
 10
-5.2073788758
 20
15.6926813721
 10
-5.189438582
 20
15.6741108753
  0
LINE
  5
3D7
100
AcDbEntity
  8
ASSI
100
AcDbLine
 62
253
  6
CONTINUOUS
 10
3.6995361831
 20
18.5463344202
 11
3.6995361831
 21
17.9695827767
  0
LINE
  5
3D8
100
AcDbEntity
  8
ASSI
100
AcDbLine
 62
253
  6
CONTINUOUS
 10
3.6995361831
 20
-18.5358863551
 11
3.6995361831
 21
-18.807030745
  0
LINE
  5
3D9
100
AcDbEntity
  8
ASSI
100
AcDbLine
 62
7
  6
CONTINUOUS
 10
3.8398662829
 20
18.8467595469
 11
3.8398662829
 21
18.1432473693
  0
LINE
  5
3DA
100
AcDbEntity
  8
ASSI
100
AcDbLine
 62
7
  6
CONTINUOUS
 10
3.8398662829
 20
-18.4621695545
 11
3.8398662829
 21
-18.7601266865
  0
LWPOLYLINE
  5
3DB
100
AcDbEntity
  8
ASSI
100
AcDbPolyline
 62
7
  6
CONTINUOUS
 90
18
 70
0
 10
3.839855783
 20
18.1432473687
 10
3.8398018822
 20
18.1395227268
 10
3.8389057307
 20
18.1277584256
 10
3.8369018341
 20
18.1160579342
 10
3.8337956353
 20
18.1044043991
 10
3.829601657
 20
18.0928507837
 10
3.8243070158
 20
18.0813826886
 10
3.8179245949
 20
18.0700145133
 10
3.8105075666
 20
18.0588424197
 10
3.8020570955
 20
18.0478800773
 10
3.7925720169
 20
18.0371138165
 10
3.782102009
 20
18.0265987917
 10
3.7706325799
 20
18.0163279108
 10
3.7581782215
 20
18.0063082658
 10
3.7448320873
 20
17.9966162869
 10
3.7306252284
 20
17.9872774508
 10
3.7155265936
 20
17.9782662807
 10
3.6995361831
 20
17.9695827767
  0
LINE
  5
3DC
100
AcDbEntity
  8
SMUSSO
100
AcDbLine
 62
7
  6
CONTINUOUS
 10
24.1553341349
 20
11.6133194859
 11
6.970400706
 21
2.5286209292
  0
LWPOLYLINE
  5
3DD
100
AcDbEntity
  8
SMUSSO
100
AcDbPolyline
 62
7
  6
CONTINUOUS
 90
91
 70
0
 10
6.970400706
 20
0.7538109949
 10
6.9632142016
 20
0.7500612907
 10
6.9560348493
 20
0.7464051875
 10
6.9488626491
 20
0.7428426853
 10
6.9416976032
 20
0.7393739541
 10
6.9345397095
 20
0.7359988239
 10
6.9273889609
 20
0.7327167846
 10
6.920245457
 20
0.7295277922
 10
6.9131090983
 20
0.7264318907
 10
6.9059795801
 20
0.7234287028
 10
6.8988577297
 20
0.7205184118
 10
6.8917427198
 20
0.7177008344
 10
6.8846317636
 20
0.7149750429
 10
6.877522121
 20
0.7123399886
 10
6.8704165321
 20
0.7097967202
 10
6.8633204312
 20
0.7073474561
 10
6.8562332483
 20
0.7049922426
 10
6.8491555534
 20
0.7027310335
 10
6.8420944911
 20
0.7005659082
 10
6.8350532325
 20
0.6984978597
 10
6.8280286065
 20
0.696525895
 10
6.8210182452
 20
0.6946491139
 10
6.8140206056
 20
0.6928670286
 10
6.8070372306
 20
0.6911801268
 10
6.8000703813
 20
0.6895889719
 10
6.7931194519
 20
0.6880935144
 10
6.7861850483
 20
0.6866938038
 10
6.7792712487
 20
0.685390552
 10
6.7723804464
 20
0.6841841354
 10
6.7655102482
 20
0.6830741777
 10
6.7586575533
 20
0.6820602616
 10
6.7518195987
 20
0.6811419685
 10
6.7449991475
 20
0.680319717
 10
6.7382013874
 20
0.6795943463
 10
6.7314258722
 20
0.6789660532
 10
6.7246730481
 20
0.6784346409
 10
6.7179494427
 20
0.678000358
 10
6.7112581123
 20
0.6776634065
 10
6.7045960006
 20
0.6774235844
 10
6.6979604656
 20
0.6772805343
 10
6.6913498266
 20
0.6772341404
 10
6.6847657644
 20
0.6772845186
 10
6.67821068
 20
0.6774316584
 10
6.6716843637
 20
0.6776756406
 10
6.6651870251
 20
0.6780163845
 10
6.6587216944
 20
0.6784536371
 10
6.6522903442
 20
0.6789871624
 10
6.6458910019
 20
0.6796171964
 10
6.6395207789
 20
0.6803441941
 10
6.6331767705
 20
0.6811685095
 10
6.6268618814
 20
0.6820897887
 10
6.6205819374
 20
0.6831074249
 10
6.6143369391
 20
0.6842217072
 10
6.608126886
 20
0.6854323465
 10
6.6019576025
 20
0.6867378691
 10
6.5958319578
 20
0.6881376574
 10
6.5897470827
 20
0.689632329
 10
6.5837001948
 20
0.6912222634
 10
6.5776895515
 20
0.6929078321
 10
6.5717168954
 20
0.6946886635
 10
6.5657846709
 20
0.696564023
 10
6.5598929734
 20
0.6985339511
 10
6.5540417075
 20
0.7005984073
 10
6.5482330312
 20
0.7027565353
 10
6.5424684245
 20
0.7050076632
 10
6.5367464074
 20
0.7073524629
 10
6.531064697
 20
0.7097920941
 10
6.5254206679
 20
0.712327736
 10
6.5198169457
 20
0.7149582094
 10
6.5142591238
 20
0.7176811359
 10
6.5087475831
 20
0.7204966412
 10
6.5032819428
 20
0.7234045997
 10
6.497866654
 20
0.7264022552
 10
6.4925040647
 20
0.7294882646
 10
6.4871918268
 20
0.7326639711
 10
6.4819273476
 20
0.735930649
 10
6.4767088565
 20
0.7392893215
 10
6.471538124
 20
0.7427389654
 10
6.4664178686
 20
0.7462777852
 10
6.4613484355
 20
0.7499056425
 10
6.4563294794
 20
0.7536226756
 10
6.4513626832
 20
0.7574275042
 10
6.446449158
 20
0.7613191437
 10
6.4415877926
 20
0.7652985786
 10
6.4367769363
 20
0.7693673823
 10
6.4320144971
 20
0.7735273938
 10
6.4273025671
 20
0.7777767741
 10
6.422645771
 20
0.7821115799
 10
6.4180447237
 20
0.786531548
 10
6.4134988104
 20
0.7910369416
 10
6.4113017208
 20
0.7932651683
  0
LINE
  5
3DE
100
AcDbEntity
  8
SMUSSO
100
AcDbLine
 62
7
  6
CONTINUOUS
 10
23.4481196497
 20
10.0503428302
 11
6.2545716808
 21
1.3351552816
  0
LINE
  5
3DF
100
AcDbEntity
  8
SMUSSO
100
AcDbLine
 62
7
  6
CONTINUOUS
 10
24.1553341349
 20
9.4646319443
 11
6.970400706
 21
0.7538109949
  0
LINE
  5
3E0
100
AcDbEntity
  8
RACCORDO
100
AcDbLine
 62
7
  6
CONTINUOUS
 10
22.3891973449
 20
9.5304803446
 11
11.24639321
 21
3.9811252694
  0
LINE
  5
3E1
100
AcDbEntity
  8
RACCORDO
100
AcDbLine
 62
7
  6
CONTINUOUS
 10
9.771760149
 20
3.2467264266
 11
6.275747129
 21
1.5056370778
  0
LINE
  5
3E2
100
AcDbEntity
  8
DRAFT
100
AcDbLine
 62
7
  6
CONTINUOUS
 10
22.3722811861
 20
9.538938424
 11
23.4329413579
 21
10.0579319761
  0
LINE
  5
3E3
100
AcDbEntity
  8
IMPORT_IGES
100
AcDbLine
 62
253
  6
CONTINUOUS
 10
12.0838777438
 20
0.572336835
 11
12.0029015679
 21
0.612824923
  0
LINE
  5
3E4
100
AcDbEntity
  8
DRAFT
100
AcDbLine
 62
7
  6
CONTINUOUS
 10
22.3891973449
 20
-3.4599007122
 11
22.3722811861
 21
-3.4514426328
  0
LINE
  5
3E5
100
AcDbEntity
  8
RACCORDO
100
AcDbLine
 62
7
  6
CONTINUOUS
 10
18.2322299509
 20
-1.2000324743
 11
17.238796048
 21
-0.7033155228
  0
LINE
  5
3E6
100
AcDbEntity
  8
RACCORDO
100
AcDbLine
 62
7
  6
CONTINUOUS
 10
13.8935184197
 20
0.9693232913
 11
13.0292441533
 21
1.4014604245
  0
LINE
  5
3E7
100
AcDbEntity
  8
ASSI
100
AcDbLine
 62
253
  6
CONTINUOUS
 10
-7.4375750113
 20
11.6447104935
 11
-22.2857934721
 21
19.0688197239
  0
LINE
  5
3E8
100
AcDbEntity
  8
SMUSSO
100
AcDbLine
 62
7
  6
CONTINUOUS
 10
18.586484264
 20
-1.0236062402
 11
17.5825045209
 21
-0.5216163687
  0
LINE
  5
3E9
100
AcDbEntity
  8
SMUSSO
100
AcDbLine
 62
7
  6
CONTINUOUS
 10
14.2477727327
 20
1.1457495254
 11
13.3729526262
 21
1.5831595786
  0
LINE
  5
3EA
100
AcDbEntity
  8
SMUSSO
100
AcDbLine
 62
7
  6
CONTINUOUS
 10
19.0624379521
 20
-0.7865711113
 11
18.0442894852
 21
-0.2774968779
  0
LINE
  5
3EB
100
AcDbEntity
  8
SMUSSO
100
AcDbLine
 62
7
  6
CONTINUOUS
 10
14.7237264208
 20
1.3827846543
 11
13.8347375905
 21
1.8272790694
  0
LINE
  5
3EC
100
AcDbEntity
  8
SMUSSO
100
AcDbLine
 62
7
  6
CONTINUOUS
 10
23.4481196497
 20
-2.9400382266
 11
23.4329413579
 21
-2.9324490807
  0
LWPOLYLINE
  5
3ED
100
AcDbEntity
  8
ASSI
100
AcDbPolyline
 62
7
  6
CONTINUOUS
 90
4
 70
0
 10
-18.5537567465
 20
22.3562699575
 10
-18.5340627596
 20
22.3396989936
 10
-18.5128272908
 20
22.3252758732
 10
-18.4948378264
 20
22.3153507254
  0
LWPOLYLINE
  5
3EE
100
AcDbEntity
  8
SMUSSO
100
AcDbPolyline
 62
7
  6
CONTINUOUS
 90
200
 70
0
 10
6.4113017208
 20
0.7932651683
 10
6.4090108114
 20
0.7956246068
 10
6.4045823124
 20
0.8002928287
 10
6.4002117277
 20
0.8050433221
 10
6.3958970816
 20
0.8098780785
 10
6.3916367219
 20
0.814798922
 10
6.3874323007
 20
0.8198040285
 10
6.383286798
 20
0.8248899161
 10
6.3792007462
 20
0.8300561129
 10
6.3751736129
 20
0.8353030909
 10
6.3712067811
 20
0.840628784
 10
6.3673011052
 20
0.8460318984
 10
6.3634557309
 20
0.851513728
 10
6.3596694782
 20
0.857076088
 10
6.3559408805
 20
0.8627211959
 10
6.3522714044
 20
0.8684468343
 10
6.3486642695
 20
0.8742481664
 10
6.3451201394
 20
0.8801243905
 10
6.3416383505
 20
0.8860763084
 10
6.3382201314
 20
0.8921014891
 10
6.3348662358
 20
0.8981984371
 10
6.33157591
 20
0.9043686477
 10
6.3283481216
 20
0.9106141765
 10
6.3251815576
 20
0.9169376628
 10
6.322077531
 20
0.9233364672
 10
6.3190389485
 20
0.9298047268
 10
6.3160664453
 20
0.9363414372
 10
6.3131593861
 20
0.9429476028
 10
6.310318772
 20
0.9496203743
 10
6.3075452259
 20
0.9563581015
 10
6.3048381249
 20
0.9631624346
 10
6.3021966007
 20
0.9700354751
 10
6.2996197488
 20
0.9769795978
 10
6.2971084737
 20
0.9839924279
 10
6.2946646208
 20
0.9910689413
 10
6.2922887233
 20
0.9982077726
 10
6.2899802479
 20
1.0054102873
 10
6.2877394403
 20
1.012675558
 10
6.2855664316
 20
1.0200028829
 10
6.2834610907
 20
1.0273929638
 10
6.2814232699
 20
1.0348469788
 10
6.2794522096
 20
1.0423680854
 10
6.2775486694
 20
1.0499531261
 10
6.2757147799
 20
1.0575938056
 10
6.2739511193
 20
1.065288377
 10
6.2722571095
 20
1.0730385873
 10
6.2706331466
 20
1.0808413824
 10
6.2690795302
 20
1.0886949895
 10
6.2675959608
 20
1.0966011813
 10
6.2661819361
 20
1.1045622223
 10
6.2648370149
 20
1.1125805686
 10
6.2635616384
 20
1.120653764
 10
6.2623566285
 20
1.1287767041
 10
6.2612222774
 20
1.1369474696
 10
6.2601582929
 20
1.1451679797
 10
6.2591646205
 20
1.1534388884
 10
6.2582411501
 20
1.1617605331
 10
6.2573879918
 20
1.1701325763
 10
6.2566054215
 20
1.1785546594
 10
6.255893271
 20
1.1870300383
 10
6.2552517085
 20
1.195555457
 10
6.2546815136
 20
1.2041207899
 10
6.2541829948
 20
1.2127234261
 10
6.2537558436
 20
1.2213659765
 10
6.253399915
 20
1.2300461468
 10
6.2531151988
 20
1.2387625427
 10
6.2529017051
 20
1.2475165587
 10
6.2527593187
 20
1.2563100836
 10
6.2526880008
 20
1.2651455397
 10
6.2526877902
 20
1.2740205047
 10
6.252758687
 20
1.2829296018
 10
6.2529006528
 20
1.2918703704
 10
6.2531137261
 20
1.3008452709
 10
6.2533980218
 20
1.3098563081
 10
6.2537535299
 20
1.3189048629
 10
6.2541802605
 20
1.3279895543
 10
6.2546783593
 20
1.3371082446
 10
6.2552481346
 20
1.3462638668
 10
6.2558892781
 20
1.355453488
 10
6.2566010105
 20
1.3646661714
 10
6.2573831642
 20
1.3738984894
 10
6.2582359067
 20
1.3831538697
 10
6.2591589612
 20
1.3924316587
 10
6.260152217
 20
1.4017313993
 10
6.2612157847
 20
1.4110535488
 10
6.2623497195
 20
1.4203988254
 10
6.2635543133
 20
1.4297694524
 10
6.2648292742
 20
1.4391632066
 10
6.2661737812
 20
1.448574137
 10
6.2675873935
 20
1.457999332
 10
6.2690705519
 20
1.4674417033
 10
6.2706237588
 20
1.4769040346
 10
6.2722473133
 20
1.4863884082
 10
6.2739409163
 20
1.4958927418
 10
6.2757041722
 20
1.5054135729
 10
6.2775376598
 20
1.5149532502
 10
6.2794408004
 20
1.524509425
 10
6.2814114621
 20
1.5340715881
 10
6.2834488862
 20
1.5436357956
 10
6.2855538315
 20
1.5532059913
 10
6.2877264432
 20
1.562783497
 10
6.2899668509
 20
1.5723691437
 10
6.292274925
 20
1.5819621003
 10
6.2946504222
 20
1.5915611962
 10
6.2970938758
 20
1.6011683506
 10
6.2996047526
 20
1.6107816441
 10
6.3021812092
 20
1.6203941482
 10
6.3048223416
 20
1.630002553
 10
6.3075290538
 20
1.6396101684
 10
6.3103022141
 20
1.6492199942
 10
6.3131424454
 20
1.6588343259
 10
6.3160491248
 20
1.6684508682
 10
6.3190212517
 20
1.6780657348
 10
6.3220594622
 20
1.6876805908
 10
6.3251631201
 20
1.6972937711
 10
6.3283293165
 20
1.7068963948
 10
6.3315567386
 20
1.7164844619
 10
6.3348466992
 20
1.7260619723
 10
6.3382002286
 20
1.7356320456
 10
6.3416180786
 20
1.745196953
 10
6.3450994973
 20
1.7547544232
 10
6.3486432593
 20
1.7643007617
 10
6.3522500289
 20
1.77383746
 10
6.3559191416
 20
1.7833630266
 10
6.3596473789
 20
1.7928692923
 10
6.3634332752
 20
1.8023525227
 10
6.367278296
 20
1.8118164521
 10
6.3711836198
 20
1.8212641143
 10
6.3751500997
 20
1.8306976852
 10
6.3791768826
 20
1.8401149889
 10
6.3832625875
 20
1.8495125315
 10
6.3874077474
 20
1.858891338
 10
6.3916118293
 20
1.8682503835
 10
6.3958718532
 20
1.8775830995
 10
6.4001861672
 20
1.8868859505
 10
6.4045564231
 20
1.8961624721
 10
6.4089845972
 20
1.9054167019
 10
6.4134722747
 20
1.914651997
 10
6.4180178704
 20
1.9238650004
 10
6.4226186041
 20
1.9330496789
 10
6.4272750922
 20
1.9422069352
 10
6.4319867183
 20
1.9513358666
 10
6.4367488534
 20
1.9604277319
 10
6.4415594053
 20
1.9694785247
 10
6.4464204661
 20
1.9784922515
 10
6.4513336832
 20
1.9874721898
 10
6.4563001641
 20
1.996420469
 10
6.4613188011
 20
2.0053349599
 10
6.4663879187
 20
2.0142125522
 10
6.4715078624
 20
2.0230537434
 10
6.4766782866
 20
2.0318580361
 10
6.4818964783
 20
2.040620828
 10
6.487160668
 20
2.0493392642
 10
6.4924726251
 20
2.0580161995
 10
6.4978349448
 20
2.0666555958
 10
6.5032499777
 20
2.0752612322
 10
6.5087153731
 20
2.0838293295
 10
6.5142266745
 20
2.0923525124
 10
6.5197842646
 20
2.1008310519
 10
6.5253877607
 20
2.1092646769
 10
6.5310315574
 20
2.1176451994
 10
6.5367130266
 20
2.1259687162
 10
6.5424347964
 20
2.1342391305
 10
6.5481991463
 20
2.142459963
 10
6.5540075508
 20
2.1506334111
 10
6.5598585352
 20
2.1587572773
 10
6.5657499552
 20
2.1668284903
 10
6.571681907
 20
2.1748471104
 10
6.5776542943
 20
2.1828130772
 10
6.5836646836
 20
2.190723138
 10
6.5897113356
 20
2.1985751215
 10
6.5957959896
 20
2.206371199
 10
6.6019214294
 20
2.2141146315
 10
6.6080905277
 20
2.2218090121
 10
6.6143004117
 20
2.2294507477
 10
6.6205452481
 20
2.2370323203
 10
6.6268250418
 20
2.2445534458
 10
6.6331397878
 20
2.2520144083
 10
6.6394836372
 20
2.2594085417
 10
6.6458536829
 20
2.2667324799
 10
6.652252832
 20
2.2739895891
 10
6.6586839576
 20
2.2811833018
 10
6.6651490014
 20
2.2883158646
 10
6.6716460215
 20
2.295385031
 10
6.6781720658
 20
2.302387494
 10
6.6847269237
 20
2.3093229596
 10
6.6913108057
 20
2.3161917219
 10
6.6979213905
 20
2.3229913564
 10
6.7045570263
 20
2.3297202696
 10
6.7112193649
 20
2.3363800551
 10
6.7179110405
 20
2.3429730686
 10
6.7246351302
 20
2.3495022912
 10
6.7313885569
 20
2.355964742
 10
6.7381647233
 20
2.3623538331
 10
6.7449631743
 20
2.3686688941
 10
6.751784365
 20
2.3749105955
 10
6.7586230637
 20
2.3810743615
 10
6.7654764801
 20
2.3871577249
 10
6.7723474044
 20
2.3931631529
 10
6.779238976
 20
2.3990934714
  0
LWPOLYLINE
  5
3EF
100
AcDbEntity
  8
SMUSSO
100
AcDbPolyline
 62
7
  6
CONTINUOUS
 90
28
 70
0
 10
6.779238976
 20
2.3990934714
 10
6.7861536317
 20
2.4049508181
 10
6.7930889348
 20
2.4107330551
 10
6.800040714
 20
2.416436595
 10
6.8070083804
 20
2.4220608672
 10
6.813992523
 20
2.4276064423
 10
6.8209907378
 20
2.4330714434
 10
6.8280014316
 20
2.4384547182
 10
6.8350261975
 20
2.443757419
 10
6.8420674115
 20
2.4489811264
 10
6.8491281367
 20
2.4541280605
 10
6.85620531
 20
2.4591960011
 10
6.8632921178
 20
2.4641798685
 10
6.8703880205
 20
2.4690790617
 10
6.8774935578
 20
2.4738941816
 10
6.8846035343
 20
2.4786219509
 10
6.8917153293
 20
2.4832606622
 10
6.8988315636
 20
2.487812023
 10
6.9059549043
 20
2.4922778783
 10
6.9130861428
 20
2.4966588761
 10
6.9202244879
 20
2.5009543685
 10
6.9273702323
 20
2.5051642575
 10
6.9345234724
 20
2.5092886883
 10
6.941684112
 20
2.5133275159
 10
6.9488521548
 20
2.517280207
 10
6.956027602
 20
2.5211465841
 10
6.9632104524
 20
2.5249268248
 10
6.970400706
 20
2.5286209292
  0
LINE
  5
3F0
100
AcDbEntity
  8
IMPORT_IGES
100
AcDbLine
 62
7
  6
CONTINUOUS
 10
6.6037999656
 20
-2.3409071348
 11
6.6037999656
 21
-2.6611126035
  0
LWPOLYLINE
  5
3F1
100
AcDbEntity
  8
IMPORT_IGES
100
AcDbPolyline
 62
7
  6
CONTINUOUS
 90
3
 70
0
 10
7.0122085963
 20
6.2025376782
 10
7.0129309709
 20
6.424494217
 10
7.0616157138
 20
6.9069681437
  0
LWPOLYLINE
  5
3F2
100
AcDbEntity
  8
ASSI
100
AcDbPolyline
 62
253
  6
CONTINUOUS
 90
18
 70
0
 10
-1.3885695759
 20
-25.1355303874
 10
-1.3842264346
 20
-25.1233068065
 10
-1.3803786256
 20
-25.1108736161
 10
-1.3770370569
 20
-25.0982645569
 10
-1.3742110326
 20
-25.0855127131
 10
-1.3719090327
 20
-25.0726539541
 10
-1.3701382003
 20
-25.0597269205
 10
-1.3689034693
 20
-25.046768227
 10
-1.3682080064
 20
-25.0338119642
 10
-1.3680537136
 20
-25.0208931933
 10
-1.3684410634
 20
-25.008046988
 10
-1.3693690452
 20
-24.9953086561
 10
-1.3708351214
 20
-24.9827133106
 10
-1.3728352671
 20
-24.9702954663
 10
-1.3753640301
 20
-24.9580889258
 10
-1.3784145112
 20
-24.9461270011
 10
-1.3819783886
 20
-24.9344423482
 10
-1.3860459269
 20
-24.9230669038
  0
LWPOLYLINE
  5
3F3
100
AcDbEntity
  8
RACCORDO
100
AcDbPolyline
 62
7
  6
CONTINUOUS
 90
16
 70
0
 10
18.1020616045
 20
17.0969814119
 10
18.0992807484
 20
17.0926975348
 10
18.0960296105
 20
17.0883252832
 10
18.0923081908
 20
17.083864657
 10
18.0881161183
 20
17.0793073509
 10
18.0834537641
 20
17.0746616702
 10
18.0783222412
 20
17.0699525313
 10
18.0727250287
 20
17.0651842095
 10
18.0666586476
 20
17.0603524294
 10
18.0601137745
 20
17.0554692814
 10
18.0530837168
 20
17.0505302525
 10
18.0455751671
 20
17.0455398558
 10
18.0375988799
 20
17.0405237203
 10
18.0291584398
 20
17.0354903893
 10
18.020250262
 20
17.0304313197
 10
18.0108743467
 20
17.0253465114
  0
LINE
  5
3F4
100
AcDbEntity
  8
ASSI
100
AcDbLine
 62
253
  6
CONTINUOUS
 10
-13.7862391084
 20
-11.0506463735
 11
-13.9082783566
 21
-11.1164893477
  0
LINE
  5
3F5
100
AcDbEntity
  8
SMUSSO
100
AcDbLine
 62
7
  6
CONTINUOUS
 10
24.1553341349
 20
7.283192467
 11
6.970400706
 21
-1.8015060897
  0
LINE
  5
3F6
100
AcDbEntity
  8
SMUSSO
100
AcDbLine
 62
7
  6
CONTINUOUS
 10
23.4481196497
 20
5.7202158113
 11
6.2545716911
 21
-2.9949717321
  0
LINE
  5
3F7
100
AcDbEntity
  8
IMPORT_IGES
100
AcDbLine
 62
7
  6
CONTINUOUS
 10
9.0079630217
 20
-1.1388256068
 11
6.6037999656
 21
-2.3409071348
  0
LINE
  5
3F8
100
AcDbEntity
  8
RACCORDO
100
AcDbLine
 62
7
  6
CONTINUOUS
 10
22.3891973449
 20
5.2003533257
 11
6.2757471121
 21
-2.8244899496
  0
LINE
  5
3F9
100
AcDbEntity
  8
DRAFT
100
AcDbLine
 62
7
  6
CONTINUOUS
 10
22.3722811861
 20
5.2088114051
 11
23.4329413579
 21
5.7278049572
  0
LINE
  5
3FA
100
AcDbEntity
  8
RACCORDO
100
AcDbLine
 62
7
  6
CONTINUOUS
 10
14.2921097217
 20
2.069065746
 11
15.195131879
 21
1.6175546673
  0
LINE
  5
3FB
100
AcDbEntity
  8
RACCORDO
100
AcDbLine
 62
7
  6
CONTINUOUS
 10
18.5016616163
 20
-0.0357102013
 11
19.5338434102
 21
-0.5518010983
  0
LWPOLYLINE
  5
3FC
100
AcDbEntity
  8
ASSI
100
AcDbPolyline
 62
253
  6
CONTINUOUS
 90
3
 70
0
 10
-18.5066050893
 20
22.3223224585
 10
-18.5001425341
 20
22.318208926
 10
-18.494969046
 20
22.315416207
  0
LINE
  5
3FD
100
AcDbEntity
  8
SMUSSO
100
AcDbLine
 62
253
  6
CONTINUOUS
 10
6.2544419215
 20
5.6629067829
 11
6.970400706
 21
5.0839380138
  0
LWPOLYLINE
  5
3FE
100
AcDbEntity
  8
ASSI
100
AcDbPolyline
 62
7
  6
CONTINUOUS
 90
4
 70
0
 10
-5.189438582
 20
15.6741108753
 10
-5.1697445952
 20
15.6575399114
 10
-5.1485091264
 20
15.643116791
 10
-5.1305196619
 20
15.6331916432
  0
LWPOLYLINE
  5
3FF
100
AcDbEntity
  8
SMUSSO
100
AcDbPolyline
 62
7
  6
CONTINUOUS
 90
200
 70
0
 10
6.4113017139
 20
5.1233921943
 10
6.4090082662
 20
5.125754268
 10
6.4045797991
 20
5.1304225379
 10
6.4002092467
 20
5.1351730791
 10
6.3958946327
 20
5.1400078833
 10
6.3916343044
 20
5.1449287758
 10
6.3874299145
 20
5.1499339314
 10
6.3832844442
 20
5.1550198666
 10
6.379198426
 20
5.1601861098
 10
6.3751713274
 20
5.1654331327
 10
6.3712045328
 20
5.1707588671
 10
6.3672988969
 20
5.1761620185
 10
6.3634535649
 20
5.1816438814
 10
6.3596673564
 20
5.1872062711
 10
6.3559388056
 20
5.1928514035
 10
6.3522693783
 20
5.1985770626
 10
6.3486622908
 20
5.2043784165
 10
6.3451182067
 20
5.2102546629
 10
6.3416364625
 20
5.2162066041
 10
6.3382182843
 20
5.2222318145
 10
6.3348644242
 20
5.2283288011
 10
6.3315741301
 20
5.2344990569
 10
6.3283463714
 20
5.2407446357
 10
6.3251798343
 20
5.2470681787
 10
6.3220758326
 20
5.2534670446
 10
6.3190372765
 20
5.2599353633
 10
6.3160648018
 20
5.26647213
 10
6.3131577728
 20
5.2730783496
 10
6.3103171926
 20
5.279751166
 10
6.3075436855
 20
5.2864889263
 10
6.3048366271
 20
5.2932932835
 10
6.3021951475
 20
5.3001663416
 10
6.2996183423
 20
5.3071104739
 10
6.2971071159
 20
5.3141233072
 10
6.2946633103
 20
5.3211998255
 10
6.2922874585
 20
5.3283386633
 10
6.2899790277
 20
5.3355411861
 10
6.2877382617
 20
5.3428064737
 10
6.2855652905
 20
5.350133828
 10
6.2834599843
 20
5.357523947
 10
6.281422197
 20
5.3649780048
 10
6.2794511694
 20
5.3724991605
 10
6.2775476608
 20
5.3800842549
 10
6.2757138039
 20
5.3877249854
 10
6.2739501773
 20
5.3954196041
 10
6.2722562025
 20
5.4031698588
 10
6.2706322763
 20
5.4109726901
 10
6.2690786987
 20
5.4188263224
 10
6.2675951698
 20
5.4267325313
 10
6.2661811862
 20
5.4346935845
 10
6.2648363064
 20
5.4427119374
 10
6.2635609719
 20
5.4507851346
 10
6.2623560034
 20
5.4589080775
 10
6.2612216928
 20
5.4670788472
 10
6.2601577483
 20
5.4752993626
 10
6.2591641151
 20
5.4835702818
 10
6.2582406827
 20
5.4918919449
 10
6.2573875617
 20
5.5002640118
 10
6.2566050285
 20
5.5086861206
 10
6.2558929151
 20
5.517161527
 10
6.2552513896
 20
5.5256869753
 10
6.2546812319
 20
5.5342523358
 10
6.2541827505
 20
5.5428549968
 10
6.2537556369
 20
5.55149757
 10
6.2533997458
 20
5.5601777604
 10
6.2531150673
 20
5.568894173
 10
6.2529016113
 20
5.5776482027
 10
6.2527592624
 20
5.5864417394
 10
6.2526879821
 20
5.5952772056
 10
6.2526878088
 20
5.6041521787
 10
6.2527587426
 20
5.6130612819
 10
6.2529007453
 20
5.6220020548
 10
6.2531138552
 20
5.6309769576
 10
6.2533981871
 20
5.6399879941
 10
6.253753731
 20
5.6490365445
 10
6.254180497
 20
5.6581212284
 10
6.2546786307
 20
5.6672399091
 10
6.2552484403
 20
5.6763955184
 10
6.2558896176
 20
5.6855851245
 10
6.2566013835
 20
5.6947977947
 10
6.2573835704
 20
5.7040301015
 10
6.2582363459
 20
5.7132854725
 10
6.2591594338
 20
5.7225632584
 10
6.2601527237
 20
5.7318630046
 10
6.261216326
 20
5.7411851657
 10
6.2623502956
 20
5.7505304555
 10
6.2635549247
 20
5.7599010979
 10
6.2648299212
 20
5.7692948691
 10
6.2661744629
 20
5.7787058111
 10
6.2675881091
 20
5.7881310116
 10
6.2690713006
 20
5.797573383
 10
6.2706245385
 20
5.8070357044
 10
6.2722481216
 20
5.8165200547
 10
6.2739417511
 20
5.8260243551
 10
6.2757050322
 20
5.835545149
 10
6.2775385431
 20
5.8450847841
 10
6.2794417057
 20
5.8546409127
 10
6.2814123902
 20
5.8642030354
 10
6.2834498378
 20
5.87376721
 10
6.2855548072
 20
5.8833373787
 10
6.2877274457
 20
5.8929148692
 10
6.2899678838
 20
5.9025005173
 10
6.292275991
 20
5.9120934872
 10
6.2946515222
 20
5.9216925992
 10
6.2970950111
 20
5.9312997733
 10
6.2996059241
 20
5.9409130896
 10
6.3021824147
 20
5.950525608
 10
6.3048235787
 20
5.960134017
 10
6.3075303203
 20
5.9697416283
 10
6.3103035059
 20
5.9793514373
 10
6.3131437571
 20
5.9889657347
 10
6.3160504523
 20
5.9985822299
 10
6.3190225931
 20
6.0081970454
 10
6.322060815
 20
6.0178118455
 10
6.3251644825
 20
6.027424966
 10
6.3283306904
 20
6.0370275372
 10
6.3315581263
 20
6.0466155614
 10
6.3348481026
 20
6.0561930364
 10
6.3382016512
 20
6.0657630849
 10
6.3416195256
 20
6.075327982
 10
6.3451009723
 20
6.0848854527
 10
6.3486447632
 20
6.0944317941
 10
6.3522515629
 20
6.1039684979
 10
6.3559207069
 20
6.1134940724
 10
6.3596489734
 20
6.1230003405
 10
6.3634348958
 20
6.1324835655
 10
6.3672799407
 20
6.1419474841
 10
6.3711852859
 20
6.1513951295
 10
6.3751517839
 20
6.1608286762
 10
6.3791785822
 20
6.1702459496
 10
6.3832643011
 20
6.1796434596
 10
6.3874094736
 20
6.1890222312
 10
6.3916135668
 20
6.1983812394
 10
6.3958736019
 20
6.2077139188
 10
6.4001879276
 20
6.2170167355
 10
6.4045581952
 20
6.2262932233
 10
6.4089863805
 20
6.2355474192
 10
6.4134740685
 20
6.2447826793
 10
6.4180196741
 20
6.2539956474
 10
6.4226204178
 20
6.2631802913
 10
6.4272769154
 20
6.272337513
 10
6.4319885511
 20
6.2814664105
 10
6.4367506974
 20
6.2905582456
 10
6.4415612623
 20
6.2996090121
 10
6.4464223379
 20
6.3086227164
 10
6.4513355731
 20
6.3176026383
 10
6.4563020774
 20
6.3265509106
 10
6.4613207413
 20
6.3354654006
 10
6.4663898853
 20
6.344342991
 10
6.4715098554
 20
6.3531841797
 10
6.4766803056
 20
6.3619884688
 10
6.4818985176
 20
6.3707512477
 10
6.4871627209
 20
6.3794696597
 10
6.492474686
 20
6.3881465615
 10
6.4978370058
 20
6.3967859127
 10
6.5032520278
 20
6.4053914875
 10
6.5087174045
 20
6.4139595117
 10
6.5142286865
 20
6.4224826218
 10
6.5197862558
 20
6.4309610884
 10
6.5253897304
 20
6.4393946409
 10
6.5310335143
 20
6.4477751046
 10
6.5367149818
 20
6.4560985802
 10
6.5424367587
 20
6.464368967
 10
6.5482011264
 20
6.472589787
 10
6.5540095641
 20
6.4807632437
 10
6.5598605928
 20
6.4888871336
 10
6.5657520565
 20
6.4969583688
 10
6.5716840523
 20
6.5049770095
 10
6.5776564832
 20
6.5129429956
 10
6.583666903
 20
6.5208530582
 10
6.5897135685
 20
6.5287050207
 10
6.5957982229
 20
6.5365010599
 10
6.6019236485
 20
6.5442444369
 10
6.6080927126
 20
6.5519387386
 10
6.614302548
 20
6.5595803781
 10
6.6205473355
 20
6.5671618563
 10
6.6268270797
 20
6.5746828894
 10
6.633141776
 20
6.5821437611
 10
6.6394855919
 20
6.5895378233
 10
6.6458556253
 20
6.5968617166
 10
6.6522547783
 20
6.6041188003
 10
6.6586859238
 20
6.611312505
 10
6.6651510094
 20
6.6184450829
 10
6.6716480875
 20
6.6255142818
 10
6.6781741883
 20
6.6325167746
 10
6.6847291015
 20
6.6394522663
 10
6.6913130373
 20
6.6463210519
 10
6.6979236568
 20
6.6531206899
 10
6.7045593017
 20
6.6598495798
 10
6.7112216303
 20
6.666509322
 10
6.7179132782
 20
6.6731022763
 10
6.724637317
 20
6.6796314188
 10
6.7313906752
 20
6.6860937735
 10
6.7381667744
 20
6.6924827716
 10
6.7449651595
 20
6.6987977437
 10
6.7517862856
 20
6.7050393593
 10
6.7586249396
 20
6.7112030582
 10
6.7654783385
 20
6.7172863804
 10
6.7723492652
 20
6.7232917858
 10
6.7792408556
 20
6.7292220951
  0
LWPOLYLINE
  5
400
100
AcDbEntity
  8
SMUSSO
100
AcDbPolyline
 62
7
  6
CONTINUOUS
 90
28
 70
0
 10
6.7792408556
 20
6.7292220951
 10
6.7861555515
 20
6.7350794497
 10
6.793090911
 20
6.7408617081
 10
6.8000427442
 20
6.7465652661
 10
6.8070104604
 20
6.7521895511
 10
6.8139946502
 20
6.7577351357
 10
6.8209928958
 20
6.7632001333
 10
6.8280035971
 20
6.7685833862
 10
6.8350283543
 20
6.773886052
 10
6.8420695494
 20
6.7791097176
 10
6.8491302478
 20
6.7842566049
 10
6.8562073842
 20
6.7893244919
 10
6.8632941445
 20
6.7943082997
 10
6.8703899896
 20
6.7992074276
 10
6.8774954587
 20
6.8040224764
 10
6.8846053557
 20
6.8087501694
 10
6.8917170595
 20
6.8133887988
 10
6.8988331912
 20
6.8179400725
 10
6.9059564184
 20
6.822405837
 10
6.9130875326
 20
6.8267867401
 10
6.9202257422
 20
6.8310821341
 10
6.9273713402
 20
6.8352919222
 10
6.9345244229
 20
6.8394162495
 10
6.9416848941
 20
6.8434549708
 10
6.9488527576
 20
6.8474075546
 10
6.9560280147
 20
6.8512738234
 10
6.9632106642
 20
6.8550539546
 10
6.970400706
 20
6.8587479481
  0
LWPOLYLINE
  5
401
100
AcDbEntity
  8
RACCORDO
100
AcDbPolyline
 62
7
  6
CONTINUOUS
 90
3
 70
0
 10
18.1020469848
 20
17.0969621897
 10
18.1047282217
 20
17.1019282918
 10
18.107092874
 20
17.1073381628
  0
LINE
  5
402
100
AcDbEntity
  8
IMPORT_IGES
100
AcDbLine
 62
7
  6
CONTINUOUS
 10
9.6787854366
 20
-0.3697368626
 11
9.5007299746
 21
-0.6768371074
  0
LINE
  5
403
100
AcDbEntity
  8
IMPORT_IGES
100
AcDbLine
 62
7
  6
CONTINUOUS
 10
9.9249940434
 20
-0.8889691418
 11
10.4679151151
 21
0.0474311922
  0
LWPOLYLINE
  5
404
100
AcDbEntity
  8
RACCORDO
100
AcDbPolyline
 62
7
  6
CONTINUOUS
 90
16
 70
0
 10
18.1020616045
 20
12.7668543929
 10
18.0992807484
 20
12.7625705159
 10
18.0960296105
 20
12.7581982643
 10
18.0923081908
 20
12.7537376381
 10
18.0881161183
 20
12.749180332
 10
18.0834537641
 20
12.7445346513
 10
18.0783222412
 20
12.7398255124
 10
18.0727250287
 20
12.7350571906
 10
18.0666586476
 20
12.7302254105
 10
18.0601137745
 20
12.7253422625
 10
18.0530837168
 20
12.7204032336
 10
18.0455751671
 20
12.7154128368
 10
18.0375988799
 20
12.7103967014
 10
18.0291584398
 20
12.7053633704
 10
18.020250262
 20
12.7003043008
 10
18.0108743467
 20
12.6952194925
  0
LWPOLYLINE
  5
405
100
AcDbEntity
  8
IMPORT_IGES
100
AcDbPolyline
 62
7
  6
CONTINUOUS
 90
5
 70
0
 10
12.7389251452
 20
5.5781122679
 10
12.4624629799
 20
5.1923912845
 10
12.0445317855
 20
4.7065790549
 10
11.584441461
 20
4.2551957747
 10
11.24639321
 20
3.9811252694
  0
LWPOLYLINE
  5
406
100
AcDbEntity
  8
IMPORT_IGES
100
AcDbPolyline
 62
7
  6
CONTINUOUS
 90
12
 70
0
 10
12.0838775198
 20
0.5723367231
 10
12.1223865189
 20
0.5965179628
 10
12.1577283654
 20
0.6257818883
 10
12.1899030596
 20
0.6601284995
 10
12.2196673468
 20
0.7008682917
 10
12.2462644815
 20
0.7466907696
 10
12.2674242272
 20
0.7936644471
 10
12.2826812005
 20
0.841895183
 10
12.2925007847
 20
0.8912771184
 10
12.2960088927
 20
0.9375611904
 10
12.2926394732
 20
0.9805008698
 10
12.2858441571
 20
1.0084670562
  0
LWPOLYLINE
  5
407
100
AcDbEntity
  8
SMUSSO
100
AcDbPolyline
 62
7
  6
CONTINUOUS
 90
91
 70
0
 10
6.970400706
 20
-3.5763160241
 10
6.9632137744
 20
-3.5800659468
 10
6.9560340212
 20
-3.5837222466
 10
6.9488614462
 20
-3.5872849235
 10
6.9416960518
 20
-3.5907538065
 10
6.9345378356
 20
-3.5941290666
 10
6.9273867912
 20
-3.5974112165
 10
6.9202430177
 20
-3.6006003006
 10
6.913106416
 20
-3.6036962746
 10
6.9059766822
 20
-3.6066995186
 10
6.898854641
 20
-3.6096098499
 10
6.8917394676
 20
-3.6124274512
 10
6.8846283835
 20
-3.6151532503
 10
6.8775186566
 20
-3.6177882931
 10
6.870413019
 20
-3.6203315338
 10
6.8633168885
 20
-3.622780763
 10
6.8562296966
 20
-3.6251359346
 10
6.8491520117
 20
-3.6273970946
 10
6.8420909563
 20
-3.6295621717
 10
6.8350496922
 20
-3.6316301758
 10
6.8280250576
 20
-3.633602097
 10
6.8210146895
 20
-3.6354788337
 10
6.8140170478
 20
-3.6372608732
 10
6.8070336727
 20
-3.6389477282
 10
6.8000668221
 20
-3.6405388363
 10
6.793115893
 20
-3.6420342468
 10
6.7861814885
 20
-3.6434339103
 10
6.7792676761
 20
-3.6447371164
 10
6.7723768473
 20
-3.6459434893
 10
6.7655066106
 20
-3.6470534046
 10
6.758653859
 20
-3.6480672787
 10
6.7518158206
 20
-3.6489855312
 10
6.7449952672
 20
-3.6498077424
 10
6.7381974075
 20
-3.6505330696
 10
6.7314217943
 20
-3.6511613148
 10
6.7246688747
 20
-3.6516926761
 10
6.7179451992
 20
-3.6521269047
 10
6.7112538308
 20
-3.6524637976
 10
6.7045917065
 20
-3.6527035577
 10
6.6979561865
 20
-3.6528465459
 10
6.6913455985
 20
-3.6528928782
 10
6.6847616149
 20
-3.6528424384
 10
6.6782066136
 20
-3.652695239
 10
6.6716803849
 20
-3.6524512003
 10
6.6651831386
 20
-3.652110402
 10
6.6587178822
 20
-3.6516730948
 10
6.6522865806
 20
-3.6511395149
 10
6.6458872689
 20
-3.6505094261
 10
6.63951706
 20
-3.6497823712
 10
6.6331730438
 20
-3.6489579948
 10
6.6268581304
 20
-3.6480366523
 10
6.6205781623
 20
-3.6470189514
 10
6.6143331409
 20
-3.6459046024
 10
6.6081230649
 20
-3.644693895
 10
6.601953773
 20
-3.643388307
 10
6.5958281396
 20
-3.6419884566
 10
6.5897432903
 20
-3.6404937255
 10
6.5836964411
 20
-3.6389037358
 10
6.5776858535
 20
-3.6372181177
 10
6.5717132661
 20
-3.6354372411
 10
6.5657811105
 20
-3.633561838
 10
6.5598894818
 20
-3.6315918686
 10
6.554038285
 20
-3.6295273727
 10
6.5482296667
 20
-3.6273692017
 10
6.5424651025
 20
-3.6251180262
 10
6.5367431168
 20
-3.6227731756
 10
6.5310614291
 20
-3.6203334894
 10
6.5254174115
 20
-3.6177977867
 10
6.5198136919
 20
-3.6151672485
 10
6.5142558733
 20
-3.6124442567
 10
6.5087443374
 20
-3.6096286851
 10
6.5032787024
 20
-3.60672066
 10
6.4978634267
 20
-3.6037229418
 10
6.4925008613
 20
-3.6006368754
 10
6.4871886551
 20
-3.5974611159
 10
6.4819242131
 20
-3.594194389
 10
6.4767057658
 20
-3.5908356723
 10
6.4715350826
 20
-3.5873859883
 10
6.4664148769
 20
-3.5838471296
 10
6.4613454933
 20
-3.5802192346
 10
6.4563265871
 20
-3.5765021649
 10
6.451359837
 20
-3.5726972975
 10
6.4464463524
 20
-3.5688056158
 10
6.4415850238
 20
-3.5648261365
 10
6.4367742024
 20
-3.5607572868
 10
6.4320117963
 20
-3.5565972278
 10
6.4272998974
 20
-3.5523477985
 10
6.4226431322
 20
-3.5480129435
 10
6.4180421161
 20
-3.5435929265
 10
6.4134962338
 20
-3.5390874838
 10
6.4113017139
 20
-3.5368618435
  0
LINE
  5
408
100
AcDbEntity
  8
SMUSSO
100
AcDbLine
 62
7
  6
CONTINUOUS
 10
24.1553341349
 20
5.1345049254
 11
6.970400706
 21
-3.5763160241
  0
LWPOLYLINE
  5
409
100
AcDbEntity
  8
ASSI
100
AcDbPolyline
 62
253
  6
CONTINUOUS
 90
8
 70
0
 10
-13.792457235
 20
-11.1327429707
 10
-13.79498816
 20
-11.1335771986
 10
-13.8026070249
 20
-11.1355005757
 10
-13.8104052834
 20
-11.1369005121
 10
-13.8183850562
 20
-11.1377800183
 10
-13.8265751716
 20
-11.138139324
 10
-13.8349626107
 20
-11.1379702047
 10
-13.8435327666
 20
-11.1372652944
  0
LWPOLYLINE
  5
40A
100
AcDbEntity
  8
RACCORDO
100
AcDbPolyline
 62
7
  6
CONTINUOUS
 90
19
 70
0
 10
18.1080698767
 20
10.8532551713
 10
18.137552915
 20
10.8523971854
 10
18.16954888
 20
10.8525576244
 10
18.2018230745
 20
10.853799668
 10
18.2343744853
 20
10.8561250308
 10
18.2672041256
 20
10.8595319983
 10
18.3002599875
 20
10.8640151768
 10
18.3335438163
 20
10.869576535
 10
18.3670538666
 20
10.8762141043
 10
18.4007328952
 20
10.8839165856
 10
18.4345800042
 20
10.892685474
 10
18.4685960914
 20
10.9025192744
 10
18.5027266065
 20
10.9134022022
 10
18.5369726249
 20
10.9253362546
 10
18.5713330711
 20
10.9383194344
 10
18.6057501682
 20
10.9523299652
 10
18.6402046571
 20
10.9673605881
 10
18.6747157969
 20
10.9834185619
 10
18.7092835875
 20
11.0005038867
  0
LWPOLYLINE
  5
40B
100
AcDbEntity
  8
RACCORDO
100
AcDbPolyline
 62
7
  6
CONTINUOUS
 90
13
 70
0
 10
17.3209271613
 20
11.3365002783
 10
17.3271675048
 20
11.3362365685
 10
17.3333270225
 20
11.335683742
 10
17.3394057144
 20
11.334841799
 10
17.3454127753
 20
11.3337100139
 10
17.3513390105
 20
11.3322891121
 10
17.357156835
 20
11.33058127
 10
17.362863941
 20
11.328585037
 10
17.3684626363
 20
11.3263018636
 10
17.3739322593
 20
11.3237382772
 10
17.3792689999
 20
11.3208958701
 10
17.384476668
 20
11.3177730499
 10
17.3859657012
 20
11.316812431
  0
LWPOLYLINE
  5
40C
100
AcDbEntity
  8
ASSI
100
AcDbPolyline
 62
7
  6
CONTINUOUS
 90
4
 70
0
 10
-3.8056658506
 20
14.9707646093
 10
-3.7851845738
 20
14.9616478534
 10
-3.760762453
 20
14.9534889622
 10
-3.7449604746
 20
14.9496492339
  0
LWPOLYLINE
  5
40D
100
AcDbEntity
  8
ASSI
100
AcDbPolyline
 62
7
  6
CONTINUOUS
 90
4
 70
0
 10
-17.169984015
 20
21.6529236915
 10
-17.1495027382
 20
21.6438069356
 10
-17.1250806174
 20
21.6356480444
 10
-17.109278639
 20
21.6318083161
  0
LWPOLYLINE
  5
40E
100
AcDbEntity
  8
ASSI
100
AcDbPolyline
 62
253
  6
CONTINUOUS
 90
15
 70
0
 10
-5.019875922
 20
16.412826324
 10
-5.0291576107
 20
16.4171192104
 10
-5.0384169744
 20
16.4208133482
 10
-5.0476286473
 20
16.423897506
 10
-5.0567692161
 20
16.4263625394
 10
-5.0658115365
 20
16.4281998108
 10
-5.0747250466
 20
16.4294025396
 10
-5.0834834062
 20
16.4299673746
 10
-5.0920645659
 20
16.4298931005
 10
-5.1004452322
 20
16.4291798931
 10
-5.1086025664
 20
16.4278296232
 10
-5.1165140194
 20
16.4258459487
 10
-5.1241576518
 20
16.4232343447
 10
-5.1315124144
 20
16.420002023
 10
-5.1328812442
 20
16.4193154683
  0
LWPOLYLINE
  5
40F
100
AcDbEntity
  8
ASSI
100
AcDbPolyline
 62
253
  6
CONTINUOUS
 90
31
 70
0
 10
-3.8706394981
 20
15.105983235
 10
-3.86118148
 20
15.1014947014
 10
-3.851268243
 20
15.097258855
 10
-3.8409267578
 20
15.0932872204
 10
-3.8301851602
 20
15.0895906028
 10
-3.8190726745
 20
15.0861790597
 10
-3.8076195342
 20
15.0830618727
 10
-3.7958568994
 20
15.0802475226
 10
-3.7838167723
 20
15.0777436664
 10
-3.7715319102
 20
15.0755571162
 10
-3.7590357362
 20
15.0736938208
 10
-3.7463622482
 20
15.0721588498
 10
-3.7335459265
 20
15.0709563792
 10
-3.7206216401
 20
15.0700896806
 10
-3.7076245518
 20
15.069561112
 10
-3.6945900223
 20
15.0693721115
 10
-3.6815535143
 20
15.0695231931
 10
-3.6685504958
 20
15.070013946
 10
-3.6556163438
 20
15.0708430349
 10
-3.6427862477
 20
15.0720082042
 10
-3.630095114
 20
15.0735062838
 10
-3.6175774711
 20
15.0753331979
 10
-3.6052673754
 20
15.0774839761
 10
-3.5931983186
 20
15.0799527668
 10
-3.5814031366
 20
15.0827328534
 10
-3.5699139202
 20
15.085816672
 10
-3.5587619277
 20
15.0891958326
 10
-3.5479775
 20
15.0928611417
 10
-3.537589978
 20
15.0968026272
 10
-3.5276276228
 20
15.1010095656
 10
-3.5181175385
 20
15.1054705111
  0
LWPOLYLINE
  5
410
100
AcDbEntity
  8
ASSI
100
AcDbPolyline
 62
253
  6
CONTINUOUS
 90
31
 70
0
 10
-17.2349576626
 20
21.7881423172
 10
-17.2254996444
 20
21.7836537836
 10
-17.2155864074
 20
21.7794179373
 10
-17.2052449222
 20
21.7754463026
 10
-17.1945033246
 20
21.7717496851
 10
-17.183390839
 20
21.7683381419
 10
-17.1719376986
 20
21.7652209549
 10
-17.1601750638
 20
21.7624066048
 10
-17.1481349367
 20
21.7599027486
 10
-17.1358500747
 20
21.7577161984
 10
-17.1233539006
 20
21.755852903
 10
-17.1106804126
 20
21.754317932
 10
-17.0978640909
 20
21.7531154614
 10
-17.0849398045
 20
21.7522487629
 10
-17.0719427162
 20
21.7517201942
 10
-17.0589081868
 20
21.7515311937
 10
-17.0458716788
 20
21.7516822753
 10
-17.0328686603
 20
21.7521730282
 10
-17.0199345082
 20
21.7530021171
 10
-17.0071044121
 20
21.7541672864
 10
-16.9944132784
 20
21.755665366
 10
-16.9818956356
 20
21.7574922801
 10
-16.9695855399
 20
21.7596430583
 10
-16.957516483
 20
21.762111849
 10
-16.945721301
 20
21.7648919356
 10
-16.9342320846
 20
21.7679757542
 10
-16.9230800921
 20
21.7713549149
 10
-16.9122956644
 20
21.775020224
 10
-16.9019081425
 20
21.7789617094
 10
-16.8919457872
 20
21.7831686478
 10
-16.8824357029
 20
21.7876295933
  0
LWPOLYLINE
  5
411
100
AcDbEntity
  8
ASSI
100
AcDbPolyline
 62
253
  6
CONTINUOUS
 90
31
 70
0
 10
-3.8706394981
 20
15.4459571691
 10
-3.8611793488
 20
15.4414676757
 10
-3.8512637622
 20
15.4372309736
 10
-3.8409197243
 20
15.4332585964
 10
-3.8301753761
 20
15.4295613548
 10
-3.8190599706
 20
15.4261493186
 10
-3.807603797
 20
15.4230317864
 10
-3.7958380478
 20
15.4202172452
 10
-3.7837947404
 20
15.4177133529
 10
-3.7715066678
 20
15.4155269258
 10
-3.7590072803
 20
15.4136639139
 10
-3.7463305985
 20
15.412129386
 10
-3.7335111325
 20
15.4109275177
 10
-3.720583761
 20
15.4100615773
 10
-3.7075836859
 20
15.4095339214
 10
-3.6945463426
 20
15.409345984
 10
-3.6815072712
 20
15.4094982692
 10
-3.6685019062
 20
15.4099903551
 10
-3.6555655319
 20
15.4108209048
 10
-3.6427331928
 20
15.4119876778
 10
-3.6300399857
 20
15.4134874926
 10
-3.6175208364
 20
15.4153162093
 10
-3.6052100397
 20
15.4174687787
 10
-3.5931408349
 20
15.4199393487
 10
-3.5813457172
 20
15.4227212525
 10
-3.5698542947
 20
15.4258076318
 10
-3.5587004781
 20
15.4291895065
 10
-3.5479213225
 20
15.4328552656
 10
-3.5375475566
 20
15.4367935514
 10
-3.5276042526
 20
15.4409939039
 10
-3.5181175385
 20
15.4454444452
  0
LWPOLYLINE
  5
412
100
AcDbEntity
  8
ASSI
100
AcDbPolyline
 62
253
  6
CONTINUOUS
 90
8
 70
0
 10
-17.2349576626
 20
22.1281162513
 10
-17.2254996444
 20
22.1236277177
 10
-17.2155864074
 20
22.1193918714
 10
-17.2052449222
 20
22.1154202367
 10
-17.1945033246
 20
22.1117236192
 10
-17.183390839
 20
22.1083120761
 10
-17.1719376986
 20
22.105194889
 10
-17.1601750638
 20
22.102380539
  0
LINE
  5
413
100
AcDbEntity
  8
DRAFT
100
AcDbLine
 62
7
  6
CONTINUOUS
 10
22.3891973449
 20
0.8702263068
 11
22.3722811861
 21
0.8786843862
  0
LINE
  5
414
100
AcDbEntity
  8
RACCORDO
100
AcDbLine
 62
7
  6
CONTINUOUS
 10
18.2322299509
 20
3.1300945446
 11
17.238796048
 21
3.6268114961
  0
LINE
  5
415
100
AcDbEntity
  8
RACCORDO
100
AcDbLine
 62
7
  6
CONTINUOUS
 10
13.8935184197
 20
5.2994503102
 11
13.1798930307
 21
5.6562630047
  0
LINE
  5
416
100
AcDbEntity
  8
ASSI
100
AcDbLine
 62
7
  6
CONTINUOUS
 10
-3.15941889
 20
14.1385669849
 11
-4.4926312237
 21
14.8051731517
  0
LINE
  5
417
100
AcDbEntity
  8
ASSI
100
AcDbLine
 62
7
  6
CONTINUOUS
 10
-16.5237370545
 20
20.8207260671
 11
-17.8569493881
 21
21.4873322339
  0
LINE
  5
418
100
AcDbEntity
  8
SMUSSO
100
AcDbLine
 62
7
  6
CONTINUOUS
 10
18.586484264
 20
3.3065207787
 11
17.5825045209
 21
3.8085106502
  0
LINE
  5
419
100
AcDbEntity
  8
SMUSSO
100
AcDbLine
 62
7
  6
CONTINUOUS
 10
14.2477727327
 20
5.4758765443
 11
13.3729526262
 21
5.9132865975
  0
LINE
  5
41A
100
AcDbEntity
  8
ASSI
100
AcDbLine
 62
7
  6
CONTINUOUS
 10
-12.9102842983
 20
19.3902463137
 11
-7.3989771986
 21
16.6345927639
  0
LINE
  5
41B
100
AcDbEntity
  8
ASSI
100
AcDbLine
 62
7
  6
CONTINUOUS
 10
-18.494969046
 20
22.315416207
 11
-17.1699843661
 21
21.6529238671
  0
LINE
  5
41C
100
AcDbEntity
  8
ASSI
100
AcDbLine
 62
7
  6
CONTINUOUS
 10
-5.1306508815
 20
15.6332571248
 11
-3.8056662017
 21
14.9707647849
  0
LINE
  5
41D
100
AcDbEntity
  8
SMUSSO
100
AcDbLine
 62
7
  6
CONTINUOUS
 10
19.0624379521
 20
3.5435559076
 11
18.0442894852
 21
4.0526301411
  0
LINE
  5
41E
100
AcDbEntity
  8
SMUSSO
100
AcDbLine
 62
7
  6
CONTINUOUS
 10
14.7237264208
 20
5.7129116732
 11
13.8347375905
 21
6.1574060884
  0
LINE
  5
41F
100
AcDbEntity
  8
SMUSSO
100
AcDbLine
 62
7
  6
CONTINUOUS
 10
23.4481196497
 20
1.3900887923
 11
23.4329413579
 21
1.3976779383
  0
LINE
  5
420
100
AcDbEntity
  8
ASSI
100
AcDbLine
 62
253
  6
CONTINUOUS
 10
-18.5599423424
 20
22.4506346571
 11
-17.2349576626
 21
21.7881423172
  0
LINE
  5
421
100
AcDbEntity
  8
ASSI
100
AcDbLine
 62
253
  6
CONTINUOUS
 10
-5.195624178
 20
15.7684755749
 11
-3.8706394981
 21
15.105983235
  0
LINE
  5
422
100
AcDbEntity
  8
ASSI
100
AcDbLine
 62
253
  6
CONTINUOUS
 10
-3.8706394981
 20
15.4459571691
 11
-5.195624178
 21
16.108449509
  0
LINE
  5
423
100
AcDbEntity
  8
ASSI
100
AcDbLine
 62
253
  6
CONTINUOUS
 10
-17.2349576626
 20
22.1281162513
 11
-18.5599423424
 21
22.7906085912
  0
LINE
  5
424
100
AcDbEntity
  8
RACCORDO
100
AcDbLine
 62
7
  6
CONTINUOUS
 10
14.2921097217
 20
6.3991927649
 11
15.195131879
 21
5.9476816862
  0
LINE
  5
425
100
AcDbEntity
  8
RACCORDO
100
AcDbLine
 62
7
  6
CONTINUOUS
 10
18.5016616163
 20
4.2944168176
 11
19.5338434102
 21
3.7783259206
  0
LINE
  5
426
100
AcDbEntity
  8
ASSI
100
AcDbLine
 62
7
  6
CONTINUOUS
 10
-15.2811549121
 20
21.32817487
 11
-13.0567309077
 21
20.2159628678
  0
LINE
  5
427
100
AcDbEntity
  8
ASSI
100
AcDbLine
 62
7
  6
CONTINUOUS
 10
-6.3362541301
 20
16.855724479
 11
-5.242213477
 21
16.3087041524
  0
LINE
  5
428
100
AcDbEntity
  8
ASSI
100
AcDbLine
 62
253
  6
CONTINUOUS
 10
-3.6948912422
 20
15.7503339841
 11
-5.019875922
 21
16.412826324
  0
LINE
  5
429
100
AcDbEntity
  8
ASSI
100
AcDbLine
 62
253
  6
CONTINUOUS
 10
-17.0592094066
 20
22.4324930663
 11
-18.3841940864
 21
23.0949854062
  0
LINE
  5
42A
100
AcDbEntity
  8
ASSI
100
AcDbLine
 62
253
  6
CONTINUOUS
 10
-7.3989771986
 20
17.7151760747
 11
-12.9102842983
 21
20.4708296245
  0
LINE
  5
42B
100
AcDbEntity
  8
ASSI
100
AcDbLine
 62
253
  6
CONTINUOUS
 10
-6.9761548188
 20
17.8175656391
 11
-13.0519094686
 21
20.855442964
  0
LINE
  5
42C
100
AcDbEntity
  8
ASSI
100
AcDbLine
 62
7
  6
CONTINUOUS
 10
-15.2811549121
 20
22.027723962
 11
-13.8731121771
 21
21.3237025945
  0
LINE
  5
42D
100
AcDbEntity
  8
ASSI
100
AcDbLine
 62
7
  6
CONTINUOUS
 10
-1.9168367477
 20
15.3455648798
 11
-1.2098376766
 21
14.9920653442
  0
LWPOLYLINE
  5
42E
100
AcDbEntity
  8
ASSI
100
AcDbPolyline
 62
253
  6
CONTINUOUS
 90
16
 70
0
 10
-18.5599423424
 20
22.4506346571
 10
-18.5689194096
 20
22.4553636662
 10
-18.5773911022
 20
22.4603202847
 10
-18.5853343716
 20
22.4654910273
 10
-18.5927276066
 20
22.4708618261
 10
-18.5995506929
 20
22.4764180689
 10
-18.6057850669
 20
22.4821446391
 10
-18.6114137671
 20
22.4880259565
 10
-18.6164214795
 20
22.49404602
 10
-18.62079458
 20
22.500188451
 10
-18.6245211706
 20
22.506436538
 10
-18.6275911127
 20
22.5127732821
 10
-18.6299960538
 20
22.5191814429
 10
-18.631729451
 20
22.5256435861
 10
-18.6327865882
 20
22.5321421302
 10
-18.6331656471
 20
22.5390230047
  0
LWPOLYLINE
  5
42F
100
AcDbEntity
  8
ASSI
100
AcDbPolyline
 62
253
  6
CONTINUOUS
 90
16
 70
0
 10
-18.5599423424
 20
22.7906085912
 10
-18.5689194096
 20
22.7953376003
 10
-18.5773911022
 20
22.8002942188
 10
-18.5853343716
 20
22.8054649614
 10
-18.5927276066
 20
22.8108357602
 10
-18.5995506929
 20
22.816392003
 10
-18.6057850669
 20
22.8221185732
 10
-18.6114137671
 20
22.8279998906
 10
-18.6164214795
 20
22.8340199541
 10
-18.62079458
 20
22.8401623852
 10
-18.6245211706
 20
22.8464104722
 10
-18.6275911127
 20
22.8527472162
 10
-18.6299960538
 20
22.859155377
 10
-18.631729451
 20
22.8656175202
 10
-18.6327865882
 20
22.8721160644
 10
-18.6331656471
 20
22.8789969389
  0
LWPOLYLINE
  5
430
100
AcDbEntity
  8
ASSI
100
AcDbPolyline
 62
253
  6
CONTINUOUS
 90
16
 70
0
 10
-5.195624178
 20
15.7684755749
 10
-5.2046012452
 20
15.773204584
 10
-5.2130729378
 20
15.7781612025
 10
-5.2210162071
 20
15.783331945
 10
-5.2284094422
 20
15.7887027438
 10
-5.2352325284
 20
15.7942589867
 10
-5.2414669025
 20
15.7999855569
 10
-5.2470956026
 20
15.8058668743
 10
-5.2521033151
 20
15.8118869378
 10
-5.2564764156
 20
15.8180293688
 10
-5.2602030062
 20
15.8242774558
 10
-5.2632729483
 20
15.8306141999
 10
-5.2656778894
 20
15.8370223607
 10
-5.2674112866
 20
15.8434845039
 10
-5.2684684238
 20
15.849983048
 10
-5.2688474827
 20
15.8568639225
  0
LWPOLYLINE
  5
431
100
AcDbEntity
  8
ASSI
100
AcDbPolyline
 62
253
  6
CONTINUOUS
 90
16
 70
0
 10
-5.195624178
 20
16.108449509
 10
-5.2045808793
 20
16.1131672146
 10
-5.2130396613
 20
16.1181146108
 10
-5.2209766392
 20
16.1232786898
 10
-5.2283707327
 20
16.1286469341
 10
-5.2351991222
 20
16.1342040637
 10
-5.2414385001
 20
16.1399317082
 10
-5.2470707434
 20
16.1458130018
 10
-5.2520819226
 20
16.1518331457
 10
-5.2564585081
 20
16.1579759197
 10
-5.2601886023
 20
16.1642247306
 10
-5.263261917
 20
16.1705624676
 10
-5.2656699771
 20
16.1769717031
 10
-5.2674062167
 20
16.1834349119
 10
-5.2684659498
 20
16.1899345814
 10
-5.2688474827
 20
16.1968378566
  0
LWPOLYLINE
  5
432
100
AcDbEntity
  8
ASSI
100
AcDbPolyline
 62
7
  6
CONTINUOUS
 90
37
 70
0
 10
-1.916941989
 20
14.645696346
 10
-1.9020397047
 20
14.6368979377
 10
-1.8871352561
 20
14.6273202836
 10
-1.8722567159
 20
14.6169771633
 10
-1.8574123014
 20
14.6058736511
 10
-1.8426506219
 20
14.5940355139
 10
-1.828058972
 20
14.5815168902
 10
-1.8136786992
 20
14.5683534387
 10
-1.7995202064
 20
14.5545649645
 10
-1.785621399
 20
14.5401919503
 10
-1.7720254057
 20
14.5252874977
 10
-1.7587346784
 20
14.5098629927
 10
-1.7457274523
 20
14.4938932534
 10
-1.733020155
 20
14.4773949244
 10
-1.7206456217
 20
14.460407342
 10
-1.7086109126
 20
14.4429331964
 10
-1.6969227153
 20
14.4249729954
 10
-1.6856254258
 20
14.4065848785
 10
-1.6747793836
 20
14.3878614406
 10
-1.6644053126
 20
14.3688427517
 10
-1.6545192138
 20
14.3495615864
 10
-1.6451645083
 20
14.3301059935
 10
-1.6363562366
 20
14.3105228911
 10
-1.6281009817
 20
14.290842744
 10
-1.6204211905
 20
14.2711311412
 10
-1.6133280312
 20
14.2514426683
 10
-1.6068188282
 20
14.2317976042
 10
-1.6008927517
 20
14.2122093
 10
-1.595553898
 20
14.1927154304
 10
-1.5908035547
 20
14.1733476351
 10
-1.5866393448
 20
14.1541091848
 10
-1.5830626703
 20
14.1350264987
 10
-1.580076498
 20
14.1161387932
 10
-1.5776826021
 20
14.0974680848
 10
-1.5758816794
 20
14.0790424876
 10
-1.5746724527
 20
14.0608959086
 10
-1.5740529988
 20
14.0430582176
  0
LWPOLYLINE
  5
433
100
AcDbEntity
  8
ASSI
100
AcDbPolyline
 62
253
  6
CONTINUOUS
 90
3
 70
0
 10
-5.1422869249
 20
15.6401633763
 10
-5.1358243696
 20
15.6360498438
 10
-5.1306508815
 20
15.6332571248
  0
LINE
  5
434
100
AcDbEntity
  8
SMUSSO
100
AcDbLine
 62
253
  6
CONTINUOUS
 10
6.2544419207
 20
9.9930338024
 11
6.970400706
 21
9.4140650327
  0
LWPOLYLINE
  5
435
100
AcDbEntity
  8
SMUSSO
100
AcDbPolyline
 62
7
  6
CONTINUOUS
 90
200
 70
0
 10
6.4113017208
 20
9.4535192061
 10
6.4090108114
 20
9.4558786447
 10
6.4045823124
 20
9.4605468665
 10
6.4002117277
 20
9.46529736
 10
6.3958970816
 20
9.4701321163
 10
6.3916367219
 20
9.4750529599
 10
6.3874323007
 20
9.4800580663
 10
6.383286798
 20
9.4851439539
 10
6.3792007462
 20
9.4903101507
 10
6.3751736129
 20
9.4955571287
 10
6.3712067811
 20
9.5008828219
 10
6.3673011052
 20
9.5062859363
 10
6.3634557309
 20
9.5117677658
 10
6.3596694782
 20
9.5173301259
 10
6.3559408805
 20
9.5229752337
 10
6.3522714044
 20
9.5287008721
 10
6.3486642695
 20
9.5345022043
 10
6.3451201394
 20
9.5403784284
 10
6.3416383505
 20
9.5463303463
 10
6.3382201314
 20
9.552355527
 10
6.3348662358
 20
9.5584524749
 10
6.33157591
 20
9.5646226856
 10
6.3283481216
 20
9.5708682144
 10
6.3251815576
 20
9.5771917007
 10
6.322077531
 20
9.5835905051
 10
6.3190389485
 20
9.5900587647
 10
6.3160664453
 20
9.596595475
 10
6.3131593861
 20
9.6032016406
 10
6.310318772
 20
9.6098744121
 10
6.3075452259
 20
9.6166121393
 10
6.3048381249
 20
9.6234164725
 10
6.3021966007
 20
9.6302895129
 10
6.2996197488
 20
9.6372336357
 10
6.2971084737
 20
9.6442464657
 10
6.2946646208
 20
9.6513229792
 10
6.2922887233
 20
9.6584618105
 10
6.2899802479
 20
9.6656643252
 10
6.2877394403
 20
9.6729295959
 10
6.2855664316
 20
9.6802569208
 10
6.2834610907
 20
9.6876470017
 10
6.2814232699
 20
9.6951010166
 10
6.2794522096
 20
9.7026221233
 10
6.2775486694
 20
9.7102071639
 10
6.2757147799
 20
9.7178478435
 10
6.2739511193
 20
9.7255424149
 10
6.2722571095
 20
9.7332926252
 10
6.2706331466
 20
9.7410954202
 10
6.2690795302
 20
9.7489490273
 10
6.2675959608
 20
9.7568552191
 10
6.2661819361
 20
9.7648162601
 10
6.2648370149
 20
9.7728346064
 10
6.2635616384
 20
9.7809078018
 10
6.2623566285
 20
9.789030742
 10
6.2612222774
 20
9.7972015074
 10
6.2601582929
 20
9.8054220176
 10
6.2591646205
 20
9.8136929263
 10
6.2582411501
 20
9.8220145709
 10
6.2573879918
 20
9.8303866141
 10
6.2566054215
 20
9.8388086973
 10
6.255893271
 20
9.8472840761
 10
6.2552517085
 20
9.8558094949
 10
6.2546815136
 20
9.8643748277
 10
6.2541829948
 20
9.872977464
 10
6.2537558436
 20
9.8816200143
 10
6.253399915
 20
9.8903001846
 10
6.2531151988
 20
9.8990165806
 10
6.2529017051
 20
9.9077705965
 10
6.2527593187
 20
9.9165641215
 10
6.2526880008
 20
9.9253995775
 10
6.2526877902
 20
9.9342745426
 10
6.252758687
 20
9.9431836397
 10
6.2529006528
 20
9.9521244082
 10
6.2531137261
 20
9.9610993088
 10
6.2533980218
 20
9.970110346
 10
6.2537535299
 20
9.9791589007
 10
6.2541802605
 20
9.9882435921
 10
6.2546783593
 20
9.9973622824
 10
6.2552481346
 20
10.0065179047
 10
6.2558892781
 20
10.0157075258
 10
6.2566010105
 20
10.0249202092
 10
6.2573831642
 20
10.0341525272
 10
6.2582359067
 20
10.0434079075
 10
6.2591589612
 20
10.0526856966
 10
6.260152217
 20
10.0619854372
 10
6.2612157847
 20
10.0713075866
 10
6.2623497195
 20
10.0806528632
 10
6.2635543133
 20
10.0900234902
 10
6.2648292742
 20
10.0994172444
 10
6.2661737812
 20
10.1088281749
 10
6.2675873935
 20
10.1182533699
 10
6.2690705519
 20
10.1276957411
 10
6.2706237588
 20
10.1371580725
 10
6.2722473133
 20
10.146642446
 10
6.2739409163
 20
10.1561467796
 10
6.2757041722
 20
10.1656676107
 10
6.2775376598
 20
10.1752072881
 10
6.2794408004
 20
10.1847634629
 10
6.2814114621
 20
10.1943256259
 10
6.2834488862
 20
10.2038898334
 10
6.2855538315
 20
10.2134600291
 10
6.2877264432
 20
10.2230375349
 10
6.2899668509
 20
10.2326231815
 10
6.292274925
 20
10.2422161382
 10
6.2946504222
 20
10.251815234
 10
6.2970938758
 20
10.2614223884
 10
6.2996047526
 20
10.271035682
 10
6.3021812092
 20
10.280648186
 10
6.3048223416
 20
10.2902565909
 10
6.3075290538
 20
10.2998642062
 10
6.3103022141
 20
10.309474032
 10
6.3131424454
 20
10.3190883638
 10
6.3160491248
 20
10.328704906
 10
6.3190212517
 20
10.3383197727
 10
6.3220594622
 20
10.3479346286
 10
6.3251631201
 20
10.3575478089
 10
6.3283293165
 20
10.3671504327
 10
6.3315567386
 20
10.3767384997
 10
6.3348466992
 20
10.3863160102
 10
6.3382002286
 20
10.3958860834
 10
6.3416180786
 20
10.4054509908
 10
6.3450994973
 20
10.415008461
 10
6.3486432593
 20
10.4245547995
 10
6.3522500289
 20
10.4340914978
 10
6.3559191416
 20
10.4436170645
 10
6.3596473789
 20
10.4531233301
 10
6.3634332752
 20
10.4626065605
 10
6.367278296
 20
10.4720704899
 10
6.3711836198
 20
10.4815181522
 10
6.3751500997
 20
10.490951723
 10
6.3791768826
 20
10.5003690267
 10
6.3832625875
 20
10.5097665693
 10
6.3874077474
 20
10.5191453759
 10
6.3916118293
 20
10.5285044214
 10
6.3958718532
 20
10.5378371373
 10
6.4001861672
 20
10.5471399884
 10
6.4045564231
 20
10.5564165099
 10
6.4089845972
 20
10.5656707397
 10
6.4134722747
 20
10.5749060348
 10
6.4180178704
 20
10.5841190382
 10
6.4226186041
 20
10.5933037167
 10
6.4272750922
 20
10.602460973
 10
6.4319867183
 20
10.6115899044
 10
6.4367488534
 20
10.6206817697
 10
6.4415594053
 20
10.6297325626
 10
6.4464204661
 20
10.6387462893
 10
6.4513336832
 20
10.6477262276
 10
6.4563001641
 20
10.6566745069
 10
6.4613188011
 20
10.6655889977
 10
6.4663879187
 20
10.67446659
 10
6.4715078624
 20
10.6833077812
 10
6.4766782866
 20
10.692112074
 10
6.4818964783
 20
10.7008748658
 10
6.487160668
 20
10.709593302
 10
6.4924726251
 20
10.7182702374
 10
6.4978349448
 20
10.7269096337
 10
6.5032499777
 20
10.73551527
 10
6.5087153731
 20
10.7440833673
 10
6.5142266745
 20
10.7526065503
 10
6.5197842646
 20
10.7610850897
 10
6.5253877607
 20
10.7695187148
 10
6.5310315574
 20
10.7778992372
 10
6.5367130266
 20
10.7862227541
 10
6.5424347964
 20
10.7944931684
 10
6.5481991463
 20
10.8027140009
 10
6.5540075508
 20
10.8108874489
 10
6.5598585352
 20
10.8190113152
 10
6.5657499552
 20
10.8270825281
 10
6.571681907
 20
10.8351011482
 10
6.5776542943
 20
10.843067115
 10
6.5836646836
 20
10.8509771758
 10
6.5897113356
 20
10.8588291593
 10
6.5957959896
 20
10.8666252368
 10
6.6019214294
 20
10.8743686693
 10
6.6080905277
 20
10.8820630499
 10
6.6143004117
 20
10.8897047855
 10
6.6205452481
 20
10.8972863581
 10
6.6268250418
 20
10.9048074837
 10
6.6331397878
 20
10.9122684461
 10
6.6394836372
 20
10.9196625796
 10
6.6458536829
 20
10.9269865178
 10
6.652252832
 20
10.9342436269
 10
6.6586839576
 20
10.9414373396
 10
6.6651490014
 20
10.9485699024
 10
6.6716460215
 20
10.9556390688
 10
6.6781720658
 20
10.9626415319
 10
6.6847269237
 20
10.9695769975
 10
6.6913108057
 20
10.9764457598
 10
6.6979213905
 20
10.9832453942
 10
6.7045570263
 20
10.9899743075
 10
6.7112193649
 20
10.9966340929
 10
6.7179110405
 20
11.0032271064
 10
6.7246351302
 20
11.0097563291
 10
6.7313885569
 20
11.0162187798
 10
6.7381647233
 20
11.022607871
 10
6.7449631743
 20
11.0289229319
 10
6.751784365
 20
11.0351646333
 10
6.7586230637
 20
11.0413283993
 10
6.7654764801
 20
11.0474117627
 10
6.7723474044
 20
11.0534171908
 10
6.779238976
 20
11.0593475092
  0
LWPOLYLINE
  5
436
100
AcDbEntity
  8
SMUSSO
100
AcDbPolyline
 62
7
  6
CONTINUOUS
 90
28
 70
0
 10
6.779238976
 20
11.0593475092
 10
6.7861536317
 20
11.0652048559
 10
6.7930889348
 20
11.070987093
 10
6.800040714
 20
11.0766906328
 10
6.8070083804
 20
11.0823149051
 10
6.813992523
 20
11.0878604801
 10
6.8209907378
 20
11.0933254812
 10
6.8280014316
 20
11.098708756
 10
6.8350261975
 20
11.1040114569
 10
6.8420674115
 20
11.1092351643
 10
6.8491281367
 20
11.1143820984
 10
6.85620531
 20
11.119450039
 10
6.8632921178
 20
11.1244339063
 10
6.8703880205
 20
11.1293330995
 10
6.8774935578
 20
11.1341482194
 10
6.8846035343
 20
11.1388759887
 10
6.8917153293
 20
11.1435147
 10
6.8988315636
 20
11.1480660608
 10
6.9059549043
 20
11.1525319162
 10
6.9130861428
 20
11.1569129139
 10
6.9202244879
 20
11.1612084063
 10
6.9273702323
 20
11.1654182954
 10
6.9345234724
 20
11.1695427262
 10
6.941684112
 20
11.1735815537
 10
6.9488521548
 20
11.1775342449
 10
6.956027602
 20
11.181400622
 10
6.9632104524
 20
11.1851808627
 10
6.970400706
 20
11.1888749671
  0
LINE
  5
437
100
AcDbEntity
  8
IMPORT_IGES
100
AcDbLine
 62
7
  6
CONTINUOUS
 10
11.5535474339
 20
4.1340946504
 11
11.5535474339
 21
4.2301486355
  0
LINE
  5
438
100
AcDbEntity
  8
IMPORT_IGES
100
AcDbLine
 62
7
  6
CONTINUOUS
 10
12.6495629448
 20
27.8359537389
 11
12.6495629448
 21
27.6368439701
  0
LINE
  5
439
100
AcDbEntity
  8
IMPORT_IGES
100
AcDbLine
 62
7
  6
CONTINUOUS
 10
12.6495629448
 20
1.2007445275
 11
12.6495629448
 21
0.3498068263
  0
LINE
  5
43A
100
AcDbEntity
  8
IMPORT_IGES
100
AcDbLine
 62
7
  6
CONTINUOUS
 10
13.1798930307
 20
5.8112269511
 11
13.1798930307
 21
4.9440495847
  0
LWPOLYLINE
  5
43B
100
AcDbEntity
  8
IMPORT_IGES
100
AcDbPolyline
 62
7
  6
CONTINUOUS
 90
3
 70
0
 10
7.7382437695
 20
-10.0558450974
 10
7.6287150158
 20
-10.3972006672
 10
7.4194061412
 20
-10.9151773002
  0
LWPOLYLINE
  5
43C
100
AcDbEntity
  8
RACCORDO
100
AcDbPolyline
 62
7
  6
CONTINUOUS
 90
18
 70
0
 10
18.1020460382
 20
15.1011854129
 10
18.1047587421
 20
15.1086695424
 10
18.107092763
 20
15.1158812355
 10
18.1090604543
 20
15.1228087731
 10
18.110679588
 20
15.1294304234
 10
18.1119596729
 20
15.1357473196
 10
18.1129000031
 20
15.1417824934
 10
18.1135135557
 20
15.1475273024
 10
18.1138144408
 20
15.1529727949
 10
18.1138011138
 20
15.1581408546
 10
18.1134863391
 20
15.1630241191
 10
18.1128839034
 20
15.1676146713
 10
18.1119913073
 20
15.1719325822
 10
18.1108209545
 20
15.1759712949
 10
18.109386179
 20
15.1797237644
 10
18.10768359
 20
15.1832081589
 10
18.1057251803
 20
15.1864184691
 10
18.1049373922
 20
15.1875367544
  0
LWPOLYLINE
  5
43D
100
AcDbEntity
  8
RACCORDO
100
AcDbPolyline
 62
253
  6
CONTINUOUS
 90
49
 70
0
 10
18.0108753118
 20
17.0253470216
 10
18.0291826035
 20
17.0749437949
 10
18.0481798323
 20
17.1243437577
 10
18.0678669984
 20
17.17354691
 10
18.0882544609
 20
17.2225772369
 10
18.1093318606
 20
17.2714107532
 10
18.1310681194
 20
17.319975504
 10
18.1534642392
 20
17.3682712072
 10
18.1765192181
 20
17.4162981449
 10
18.2001989725
 20
17.4639852087
 10
18.2245045371
 20
17.5113320572
 10
18.2494348771
 20
17.5583390319
 10
18.2749528048
 20
17.6049360489
 10
18.3010590328
 20
17.6511221921
 10
18.3277528485
 20
17.6968983776
 10
18.3549949256
 20
17.7421972707
 10
18.3827856656
 20
17.787017628
 10
18.411124667
 20
17.8313606928
 10
18.4399713998
 20
17.8751628598
 10
18.4693268198
 20
17.9184237931
 10
18.499189971
 20
17.9611438285
 10
18.5295174557
 20
18.0032603683
 10
18.5603111934
 20
18.0447740094
 10
18.5915692646
 20
18.085684155
 10
18.6232425122
 20
18.1259264167
 10
18.6553317584
 20
18.1654995964
 10
18.687836181
 20
18.2044048921
 10
18.7207041577
 20
18.2425815098
 10
18.7539333247
 20
18.280025179
 10
18.7875260458
 20
18.3167401702
 10
18.8214377894
 20
18.3526785003
 10
18.8556670245
 20
18.3878379626
 10
18.8902152821
 20
18.4222207638
 10
18.9250426241
 20
18.4557855415
 10
18.9601536165
 20
18.4885355712
 10
18.9955436934
 20
18.5204675773
 10
19.0311592192
 20
18.5515303704
 10
19.0670063966
 20
18.5817264616
 10
19.1030790228
 20
18.6110533398
 10
19.139304854
 20
18.6394522817
 10
19.175684702
 20
18.666920119
 10
19.2122177548
 20
18.69346002
 10
19.248829333
 20
18.7190227664
 10
19.2855199139
 20
18.7436048434
 10
19.3222890201
 20
18.7672097658
 10
19.3590605399
 20
18.7897988597
 10
19.3958091026
 20
18.8113592338
 10
19.4325600789
 20
18.8319037794
 10
19.4693134687
 20
18.8514324966
  0
LWPOLYLINE
  5
43E
100
AcDbEntity
  8
RACCORDO
100
AcDbPolyline
 62
7
  6
CONTINUOUS
 90
48
 70
0
 10
18.1071116504
 20
17.1073409715
 10
18.1090150417
 20
17.1122314048
 10
18.1273112652
 20
17.1582122535
 10
18.1462699379
 20
17.2040355248
 10
18.1658801903
 20
17.2496729349
 10
18.1861295346
 20
17.2950936926
 10
18.2070064164
 20
17.3402712944
 10
18.2284989041
 20
17.3851793743
 10
18.250592798
 20
17.4297878181
 10
18.2732750377
 20
17.4740708048
 10
18.2965321922
 20
17.5180027191
 10
18.3203484293
 20
17.5615542944
 10
18.3447092904
 20
17.6047006051
 10
18.369599937
 20
17.6474169688
 10
18.3950029509
 20
17.6896750845
 10
18.4209025341
 20
17.7314510481
 10
18.4472825838
 20
17.7727213795
 10
18.4741242647
 20
17.813459065
 10
18.5014106009
 20
17.8536414938
 10
18.5291242875
 20
17.8932464927
 10
18.557245083
 20
17.9322483942
 10
18.5857548957
 20
17.9706260025
 10
18.6146353741
 20
18.0083587114
 10
18.6438650082
 20
18.045422458
 10
18.6734245325
 20
18.08179744
 10
18.7032948373
 20
18.1174650199
 10
18.7334538121
 20
18.1524035805
 10
18.763881564
 20
18.1865953521
 10
18.7945579623
 20
18.2200232961
 10
18.8254597253
 20
18.2526675659
 10
18.8565653023
 20
18.2845114136
 10
18.8878547879
 20
18.3155408414
 10
18.9193065918
 20
18.3457406159
 10
18.9508981551
 20
18.3750956041
 10
18.9826094723
 20
18.4035941751
 10
19.014422056
 20
18.4312263183
 10
19.0463143759
 20
18.457980005
 10
19.0782646321
 20
18.4838441125
 10
19.1102531353
 20
18.5088096653
 10
19.1422579561
 20
18.5328665989
 10
19.1742567552
 20
18.5560057696
 10
19.2062282443
 20
18.5782193359
 10
19.2381499454
 20
18.5994992975
 10
19.2700001318
 20
18.619839347
 10
19.3017575729
 20
18.6392340716
 10
19.3333997405
 20
18.6576780091
 10
19.3649023415
 20
18.6751661372
 10
19.3914475753
 20
18.6892224365
  0
LWPOLYLINE
  5
43F
100
AcDbEntity
  8
RACCORDO
100
AcDbPolyline
 62
7
  6
CONTINUOUS
 90
16
 70
0
 10
18.1020616002
 20
15.1012174838
 10
18.0992807477
 20
15.0944447142
 10
18.0960296127
 20
15.0877389801
 10
18.092308195
 20
15.0811002814
 10
18.0881161234
 20
15.0745129729
 10
18.0834537692
 20
15.0679926999
 10
18.0783222463
 20
15.0615863979
 10
18.0727250339
 20
15.0553004744
 10
18.0666586528
 20
15.0491285218
 10
18.0601137795
 20
15.0430982532
 10
18.0530837217
 20
15.0372044179
 10
18.0455751717
 20
15.0314522667
 10
18.0375988838
 20
15.025885265
 10
18.0291584427
 20
15.0205179011
 10
18.0202502637
 20
15.0153356868
 10
18.0108743467
 20
15.010338622
  0
LWPOLYLINE
  5
440
100
AcDbEntity
  8
RACCORDO
100
AcDbPolyline
 62
7
  6
CONTINUOUS
 90
3
 70
0
 10
18.1020469848
 20
12.7668351708
 10
18.1047282217
 20
12.7718012729
 10
18.107092874
 20
12.7772111439
  0
LINE
  5
441
100
AcDbEntity
  8
IMPORT_IGES
100
AcDbLine
 62
7
  6
CONTINUOUS
 10
12.2086252632
 20
0.9676458114
 11
11.5259649716
 21
-0.2097690255
  0
LINE
  5
442
100
AcDbEntity
  8
SMUSSO
100
AcDbLine
 62
7
  6
CONTINUOUS
 10
13.6567055186
 20
-2.7227820348
 11
7.4372785293
 21
-6.0213789249
  0
LINE
  5
443
100
AcDbEntity
  8
SMUSSO
100
AcDbLine
 62
7
  6
CONTINUOUS
 10
14.070461968
 20
-3.1742280933
 11
11.0269207795
 21
-4.7884307388
  0
LINE
  5
444
100
AcDbEntity
  8
SMUSSO
100
AcDbLine
 62
7
  6
CONTINUOUS
 10
24.1553341349
 20
2.9530654481
 11
6.970400706
 21
-6.1316331086
  0
LWPOLYLINE
  5
445
100
AcDbEntity
  8
SMUSSO
100
AcDbPolyline
 62
7
  6
CONTINUOUS
 90
91
 70
0
 10
6.970400706
 20
-7.906443043
 10
6.9632142016
 20
-7.9101927472
 10
6.9560348493
 20
-7.9138488504
 10
6.9488626491
 20
-7.9174113526
 10
6.9416976032
 20
-7.9208800838
 10
6.9345397095
 20
-7.924255214
 10
6.9273889609
 20
-7.9275372532
 10
6.920245457
 20
-7.9307262457
 10
6.9131090983
 20
-7.9338221471
 10
6.9059795801
 20
-7.9368253351
 10
6.8988577297
 20
-7.939735626
 10
6.8917427198
 20
-7.9425532034
 10
6.8846317636
 20
-7.9452789949
 10
6.877522121
 20
-7.9479140493
 10
6.8704165321
 20
-7.9504573177
 10
6.8633204312
 20
-7.9529065818
 10
6.8562332483
 20
-7.9552617952
 10
6.8491555534
 20
-7.9575230043
 10
6.8420944911
 20
-7.9596881297
 10
6.8350532325
 20
-7.9617561781
 10
6.8280286065
 20
-7.9637281428
 10
6.8210182452
 20
-7.9656049239
 10
6.8140206056
 20
-7.9673870093
 10
6.8070372306
 20
-7.969073911
 10
6.8000703813
 20
-7.9706650659
 10
6.7931194519
 20
-7.9721605234
 10
6.7861850483
 20
-7.9735602341
 10
6.7792712487
 20
-7.9748634859
 10
6.7723804464
 20
-7.9760699024
 10
6.7655102482
 20
-7.9771798601
 10
6.7586575533
 20
-7.9781937762
 10
6.7518195987
 20
-7.9791120694
 10
6.7449991475
 20
-7.9799343209
 10
6.7382013874
 20
-7.9806596916
 10
6.7314258722
 20
-7.9812879847
 10
6.7246730481
 20
-7.981819397
 10
6.7179494427
 20
-7.9822536799
 10
6.7112581123
 20
-7.9825906314
 10
6.7045960006
 20
-7.9828304535
 10
6.6979604656
 20
-7.9829735036
 10
6.6913498266
 20
-7.9830198974
 10
6.6847657644
 20
-7.9829695193
 10
6.67821068
 20
-7.9828223795
 10
6.6716843637
 20
-7.9825783972
 10
6.6651870251
 20
-7.9822376533
 10
6.6587216944
 20
-7.9818004008
 10
6.6522903442
 20
-7.9812668755
 10
6.6458910019
 20
-7.9806368415
 10
6.6395207789
 20
-7.9799098437
 10
6.6331767705
 20
-7.9790855283
 10
6.6268618814
 20
-7.9781642491
 10
6.6205819374
 20
-7.9771466129
 10
6.6143369391
 20
-7.9760323307
 10
6.608126886
 20
-7.9748216913
 10
6.6019576025
 20
-7.9735161687
 10
6.5958319578
 20
-7.9721163804
 10
6.5897470827
 20
-7.9706217088
 10
6.5837001948
 20
-7.9690317744
 10
6.5776895515
 20
-7.9673462058
 10
6.5717168954
 20
-7.9655653744
 10
6.5657846709
 20
-7.9636900149
 10
6.5598929734
 20
-7.9617200867
 10
6.5540417075
 20
-7.9596556305
 10
6.5482330312
 20
-7.9574975025
 10
6.5424684245
 20
-7.9552463746
 10
6.5367464074
 20
-7.9529015749
 10
6.531064697
 20
-7.9504619437
 10
6.5254206679
 20
-7.9479263018
 10
6.5198169457
 20
-7.9452958284
 10
6.5142591238
 20
-7.942572902
 10
6.5087475831
 20
-7.9397573966
 10
6.5032819428
 20
-7.9368494382
 10
6.497866654
 20
-7.9338517826
 10
6.4925040647
 20
-7.9307657733
 10
6.4871918268
 20
-7.9275900668
 10
6.4819273476
 20
-7.9243233889
 10
6.4767088565
 20
-7.9209647164
 10
6.471538124
 20
-7.9175150725
 10
6.4664178686
 20
-7.9139762527
 10
6.4613484355
 20
-7.9103483954
 10
6.4563294794
 20
-7.9066313622
 10
6.4513626832
 20
-7.9028265336
 10
6.446449158
 20
-7.8989348942
 10
6.4415877926
 20
-7.8949554593
 10
6.4367769363
 20
-7.8908866555
 10
6.4320144971
 20
-7.886726644
 10
6.4273025671
 20
-7.8824772637
 10
6.422645771
 20
-7.8781424579
 10
6.4180447237
 20
-7.8737224898
 10
6.4134988104
 20
-7.8692170962
 10
6.4113017208
 20
-7.8669888696
  0
LINE
  5
446
100
AcDbEntity
  8
SMUSSO
100
AcDbLine
 62
7
  6
CONTINUOUS
 10
23.4481196497
 20
1.3900887923
 11
6.2545716808
 21
-7.3250987562
  0
LINE
  5
447
100
AcDbEntity
  8
SMUSSO
100
AcDbLine
 62
7
  6
CONTINUOUS
 10
24.1553341349
 20
0.8043779064
 11
6.970400706
 21
-7.906443043
  0
LINE
  5
448
100
AcDbEntity
  8
RACCORDO
100
AcDbLine
 62
7
  6
CONTINUOUS
 10
22.3891973449
 20
0.8702263068
 11
7.6964574359
 21
-6.4470728036
  0
LINE
  5
449
100
AcDbEntity
  8
DRAFT
100
AcDbLine
 62
7
  6
CONTINUOUS
 10
22.3722811861
 20
0.8786843862
 11
23.4329413579
 21
1.3976779383
  0
LWPOLYLINE
  5
44A
100
AcDbEntity
  8
ASSI
100
AcDbPolyline
 62
7
  6
CONTINUOUS
 90
31
 70
0
 10
-3.1207653233
 20
14.8193157146
 10
-3.1192929399
 20
14.8190154642
 10
-3.1083977055
 20
14.8171738171
 10
-3.097256913
 20
14.8159263347
 10
-3.0859187139
 20
14.815278343
 10
-3.0744063401
 20
14.8152260086
 10
-3.0627483412
 20
14.8157323095
 10
-3.050978193
 20
14.8167967605
 10
-3.0391282151
 20
14.8184171099
 10
-3.0272234539
 20
14.8205532749
 10
-3.015294577
 20
14.8232023645
 10
-3.0033711362
 20
14.8263606467
 10
-2.991474802
 20
14.8299866444
 10
-2.9796331908
 20
14.8340756427
 10
-2.9678730489
 20
14.8386226619
 10
-2.9562132182
 20
14.8435858838
 10
-2.9446782725
 20
14.8489592236
 10
-2.9332921422
 20
14.854736644
 10
-2.9220713939
 20
14.8608765434
 10
-2.9110376564
 20
14.8673717849
 10
-2.9002120646
 20
14.8742154485
 10
-2.8896093158
 20
14.8813664177
 10
-2.8792482099
 20
14.8888167115
 10
-2.8691471047
 20
14.896558699
 10
-2.8593190235
 20
14.9045519216
 10
-2.8497800437
 20
14.9127876826
 10
-2.8405457432
 20
14.921257824
 10
-2.8316274401
 20
14.9299227885
 10
-2.8230377731
 20
14.9387635332
 10
-2.8147903928
 20
14.9477813249
 10
-2.8068969304
 20
14.9569669882
  0
LINE
  5
44B
100
AcDbEntity
  8
ASSI
100
AcDbLine
 62
7
  6
CONTINUOUS
 10
-3.744961032
 20
14.9496493503
 11
-3.120765435
 21
14.8193167305
  0
LINE
  5
44C
100
AcDbEntity
  8
ASSI
100
AcDbLine
 62
253
  6
CONTINUOUS
 10
-3.5181175385
 20
15.1054705111
 11
-2.8068969304
 21
14.9569669882
  0
LWPOLYLINE
  5
44D
100
AcDbEntity
  8
ASSI
100
AcDbPolyline
 62
7
  6
CONTINUOUS
 90
3
 70
0
 10
-2.8299983767
 20
17.5070308791
 10
-2.8003072316
 20
17.4957597751
 10
-2.7917346226
 20
17.4916676593
  0
LWPOLYLINE
  5
44E
100
AcDbEntity
  8
ASSI
100
AcDbPolyline
 62
253
  6
CONTINUOUS
 90
14
 70
0
 10
-2.7918944806
 20
17.491747779
 10
-2.799321903
 20
17.4950672975
 10
-2.8069048456
 20
17.4977049977
 10
-2.8147512639
 20
17.4997178683
 10
-2.8228395552
 20
17.5011003932
 10
-2.831147523
 20
17.5018488535
 10
-2.8396526953
 20
17.5019612977
 10
-2.8483321581
 20
17.5014374488
 10
-2.8571642486
 20
17.5002784068
 10
-2.8661230316
 20
17.4984873714
 10
-2.8751783685
 20
17.4960709411
 10
-2.8843035372
 20
17.4930375697
 10
-2.8934755418
 20
17.4893962125
 10
-2.9026694401
 20
17.4851578879
  0
LWPOLYLINE
  5
44F
100
AcDbEntity
  8
ASSI
100
AcDbPolyline
 62
253
  6
CONTINUOUS
 90
14
 70
0
 10
-14.8188864845
 20
23.5052437809
 10
-14.8262845652
 20
23.5085516748
 10
-14.8338647825
 20
23.5111913282
 10
-14.8417084289
 20
23.5132064402
 10
-14.8497941645
 20
23.5145915282
 10
-14.8580999905
 20
23.5153428239
 10
-14.8666033097
 20
23.5154582832
 10
-14.8752809872
 20
23.514937592
 10
-14.8841094141
 20
23.513782167
 10
-14.893064571
 20
23.5119951517
 10
-14.9021220939
 20
23.509581408
 10
-14.9112573404
 20
23.5065475027
 10
-14.9204454563
 20
23.5029016903
 10
-14.929661444
 20
23.4986538898
  0
LWPOLYLINE
  5
450
100
AcDbEntity
  8
ASSI
100
AcDbPolyline
 62
253
  6
CONTINUOUS
 90
14
 70
0
 10
-16.156212645
 20
24.1739068612
 10
-16.1636107257
 20
24.1772147551
 10
-16.1711909431
 20
24.1798544085
 10
-16.1790345895
 20
24.1818695205
 10
-16.187120325
 20
24.1832546085
 10
-16.1954261511
 20
24.1840059042
 10
-16.2039294702
 20
24.1841213635
 10
-16.2126071478
 20
24.1836006723
 10
-16.2214355746
 20
24.1824452473
 10
-16.2303907315
 20
24.180658232
 10
-16.2394482544
 20
24.1782444882
 10
-16.2485835009
 20
24.175210583
 10
-16.2577716169
 20
24.1715647706
 10
-16.2669876046
 20
24.1673169701
  0
LWPOLYLINE
  5
451
100
AcDbEntity
  8
ASSI
100
AcDbPolyline
 62
253
  6
CONTINUOUS
 90
14
 70
0
 10
-1.45456832
 20
16.8230846987
 10
-1.4619468993
 20
16.8263848601
 10
-1.4695280417
 20
16.8290266378
 10
-1.477372793
 20
16.831043627
 10
-1.4854597992
 20
16.8324303332
 10
-1.4937670514
 20
16.8331829788
 10
-1.5022719382
 20
16.8332995117
 10
-1.5109513032
 20
16.8327796122
 10
-1.5197815292
 20
16.8316246928
 10
-1.5287385755
 20
16.8298378956
 10
-1.5377980347
 20
16.8274240907
 10
-1.5469352383
 20
16.8243898559
 10
-1.5561253246
 20
16.8207434519
 10
-1.5653432796
 20
16.8164948076
  0
LWPOLYLINE
  5
452
100
AcDbEntity
  8
ASSI
100
AcDbPolyline
 62
253
  6
CONTINUOUS
 90
15
 70
0
 10
-18.3841940864
 20
23.0949854062
 10
-18.3934999593
 20
23.0992887091
 10
-18.4027775147
 20
23.1029879757
 10
-18.4120013131
 20
23.1060730588
 10
-18.4211460706
 20
23.1085354971
 10
-18.4301867026
 20
23.1103685313
 10
-18.4390983928
 20
23.1115671286
 10
-18.4478566996
 20
23.1121280037
 10
-18.4564376135
 20
23.1120496211
 10
-18.4648175979
 20
23.1113321983
 10
-18.4729736741
 20
23.109977706
 10
-18.4808834808
 20
23.1079898614
 10
-18.4885253275
 20
23.1053741195
 10
-18.4958782704
 20
23.1021376526
 10
-18.4972797526
 20
23.1014333813
  0
LWPOLYLINE
  5
453
100
AcDbEntity
  8
ASSI
100
AcDbPolyline
 62
7
  6
CONTINUOUS
 90
16
 70
0
 10
-3.4371193188
 20
17.2248104213
 10
-3.4455303943
 20
17.2287709051
 10
-3.4539226119
 20
17.2322318839
 10
-3.4622768596
 20
17.2351855677
 10
-3.4705740336
 20
17.2376253557
 10
-3.4787953319
 20
17.2395457219
 10
-3.4869222977
 20
17.2409422272
 10
-3.4949364631
 20
17.2418117359
 10
-3.5028195825
 20
17.2421523225
 10
-3.5105539247
 20
17.241963147
 10
-3.5181219322
 20
17.2412446552
 10
-3.5255063891
 20
17.2399985095
 10
-3.5326906517
 20
17.2382274869
 10
-3.5396584304
 20
17.2359356057
 10
-3.5463938896
 20
17.2331280825
 10
-3.5480515097
 20
17.2323405781
  0
LWPOLYLINE
  5
454
100
AcDbEntity
  8
ASSI
100
AcDbPolyline
 62
7
  6
CONTINUOUS
 90
16
 70
0
 10
-16.8014374832
 20
23.9069695035
 10
-16.8098485587
 20
23.9109299873
 10
-16.8182407763
 20
23.9143909661
 10
-16.826595024
 20
23.9173446499
 10
-16.834892198
 20
23.9197844379
 10
-16.8431134964
 20
23.9217048041
 10
-16.8512404622
 20
23.9231013094
 10
-16.8592546275
 20
23.9239708181
 10
-16.8671377469
 20
23.9243114047
 10
-16.8748720891
 20
23.9241222292
 10
-16.8824400966
 20
23.9234037374
 10
-16.8898245536
 20
23.9221575917
 10
-16.8970088161
 20
23.9203865691
 10
-16.9039765948
 20
23.9180946879
 10
-16.910712054
 20
23.9152871647
 10
-16.9123696742
 20
23.9144996604
  0
LWPOLYLINE
  5
455
100
AcDbEntity
  8
ASSI
100
AcDbPolyline
 62
253
  6
CONTINUOUS
 90
14
 70
0
 10
-2.9026694401
 20
17.4851578879
 10
-2.9118684498
 20
17.4895127246
 10
-2.9210450655
 20
17.4932608229
 10
-2.9301741358
 20
17.4963919099
 10
-2.9392306396
 20
17.498897404
 10
-2.9481897548
 20
17.500770438
 10
-2.9570269261
 20
17.5020058782
 10
-2.9657179325
 20
17.5026003387
 10
-2.9742389536
 20
17.5025521901
 10
-2.9825666348
 20
17.5018615643
 10
-2.9906781516
 20
17.5005303543
 10
-2.9985512717
 20
17.4985622085
 10
-3.0061644165
 20
17.4959625215
 10
-3.0131815512
 20
17.4928926789
  0
LWPOLYLINE
  5
456
100
AcDbEntity
  8
ASSI
100
AcDbPolyline
 62
253
  6
CONTINUOUS
 90
14
 70
0
 10
-16.2669876046
 20
24.1673169701
 10
-16.2761647121
 20
24.1716621471
 10
-16.2853253306
 20
24.1754056576
 10
-16.2944443751
 20
24.1785361295
 10
-16.3034986803
 20
24.1810442947
 10
-16.3124613706
 20
24.1829213811
 10
-16.3213021586
 20
24.184160471
 10
-16.3299949171
 20
24.1847581066
 10
-16.3385177598
 20
24.184712991
 10
-16.3468475517
 20
24.1840252207
 10
-16.3549615937
 20
24.182696597
 10
-16.3628374569
 20
24.1807307173
 10
-16.3704533008
 20
24.1781330076
 10
-16.3774997157
 20
24.1750517611
  0
LINE
  5
457
100
AcDbEntity
  8
ASSI
100
AcDbLine
 62
7
  6
CONTINUOUS
 10
-12.5587938045
 20
21.1794298815
 11
-6.3362541301
 21
18.0681600443
  0
LINE
  5
458
100
AcDbEntity
  8
ASSI
100
AcDbLine
 62
7
  6
CONTINUOUS
 10
-16.8014374832
 20
23.9069695035
 11
-15.4579286158
 21
23.2352150698
  0
LINE
  5
459
100
AcDbEntity
  8
ASSI
100
AcDbLine
 62
7
  6
CONTINUOUS
 10
-3.4371193188
 20
17.2248104213
 11
-2.0936104513
 21
16.5530559876
  0
LINE
  5
45A
100
AcDbEntity
  8
ASSI
100
AcDbLine
 62
7
  6
CONTINUOUS
 10
-11.2152909203
 20
21.2097468321
 11
-6.265543452
 21
18.734873098
  0
LINE
  5
45B
100
AcDbEntity
  8
ASSI
100
AcDbLine
 62
253
  6
CONTINUOUS
 10
-16.2669876046
 20
24.1673169701
 11
-14.929661444
 21
23.4986538898
  0
LINE
  5
45C
100
AcDbEntity
  8
ASSI
100
AcDbLine
 62
253
  6
CONTINUOUS
 10
-2.9026694401
 20
17.4851578879
 11
-1.5653432796
 21
16.8164948076
  0
LINE
  5
45D
100
AcDbEntity
  8
ASSI
100
AcDbLine
 62
7
  6
CONTINUOUS
 10
-16.156212645
 20
24.1739068612
 11
-14.8188864845
 21
23.5052437809
  0
LINE
  5
45E
100
AcDbEntity
  8
ASSI
100
AcDbLine
 62
7
  6
CONTINUOUS
 10
-2.7918944806
 20
17.491747779
 11
-1.45456832
 21
16.8230846987
  0
LINE
  5
45F
100
AcDbEntity
  8
DRAFT
100
AcDbLine
 62
7
  6
CONTINUOUS
 10
22.3891973449
 20
5.2003533257
 11
22.3722811861
 21
5.2088114051
  0
LINE
  5
460
100
AcDbEntity
  8
RACCORDO
100
AcDbLine
 62
7
  6
CONTINUOUS
 10
18.2322299509
 20
7.4602215636
 11
17.238796048
 21
7.956938515
  0
LINE
  5
461
100
AcDbEntity
  8
RACCORDO
100
AcDbLine
 62
7
  6
CONTINUOUS
 10
-7.0166051618
 20
20.4219545521
 11
-4.94458052
 21
19.3859422312
  0
LINE
  5
462
100
AcDbEntity
  8
SMUSSO
100
AcDbLine
 62
7
  6
CONTINUOUS
 10
18.586484264
 20
7.6366477976
 11
17.5825045209
 21
8.1386376691
  0
LINE
  5
463
100
AcDbEntity
  8
RACCORDO
100
AcDbLine
 62
7
  6
CONTINUOUS
 10
-6.6898613686
 20
20.5982403246
 11
-4.6024853003
 21
19.5545522904
  0
LWPOLYLINE
  5
464
100
AcDbEntity
  8
ASSI
100
AcDbPolyline
 62
7
  6
CONTINUOUS
 90
12
 70
0
 10
-14.8188864845
 20
23.5052437809
 10
-14.7959725298
 20
23.4922340149
 10
-14.7743299648
 20
23.476704905
 10
-14.7543087159
 20
23.4588083233
 10
-14.7362763228
 20
23.4388100234
 10
-14.7204625741
 20
23.4169309882
 10
-14.7070041097
 20
23.3932822906
 10
-14.6961111795
 20
23.368082481
 10
-14.6880294966
 20
23.3417695918
 10
-14.6828905692
 20
23.3147353202
 10
-14.6807510441
 20
23.2871649479
 10
-14.6806899218
 20
23.2815676186
  0
LINE
  5
465
100
AcDbEntity
  8
SMUSSO
100
AcDbLine
 62
7
  6
CONTINUOUS
 10
24.1553341349
 20
-3.5257491125
 11
23.4481196497
 21
-2.9400382266
  0
LINE
  5
466
100
AcDbEntity
  8
RACCORDO
100
AcDbLine
 62
7
  6
CONTINUOUS
 10
5.4618349205
 20
16.0658773198
 11
4.3786396509
 21
17.9341128057
  0
LINE
  5
467
100
AcDbEntity
  8
DRAFT
100
AcDbLine
 62
7
  6
CONTINUOUS
 10
13.2085698685
 20
28.1143511577
 11
13.2085698685
 21
28.0719825438
  0
LINE
  5
468
100
AcDbEntity
  8
IMPORT_IGES
100
AcDbLine
 62
7
  6
CONTINUOUS
 10
13.7809337947
 20
13.9036347939
 11
13.7809337947
 21
14.7892171143
  0
LINE
  5
469
100
AcDbEntity
  8
SMUSSO
100
AcDbLine
 62
7
  6
CONTINUOUS
 10
14.2599737992
 20
29.0460114421
 11
14.2599737992
 21
28.6069407503
  0
LINE
  5
46A
100
AcDbEntity
  8
SMUSSO
100
AcDbLine
 62
7
  6
CONTINUOUS
 10
14.070461968
 20
-3.1742280933
 11
14.1239724531
 21
-2.9564155021
  0
LWPOLYLINE
  5
46B
100
AcDbEntity
  8
RACCORDO
100
AcDbPolyline
 62
7
  6
CONTINUOUS
 90
18
 70
0
 10
18.1020460382
 20
10.7710583939
 10
18.1047587421
 20
10.7785425235
 10
18.107092763
 20
10.7857542165
 10
18.1090604543
 20
10.7926817542
 10
18.110679588
 20
10.7993034044
 10
18.1119596729
 20
10.8056203007
 10
18.1129000031
 20
10.8116554745
 10
18.1135135557
 20
10.8174002835
 10
18.1138144408
 20
10.822845776
 10
18.1138011138
 20
10.8280138357
 10
18.1134863391
 20
10.8328971002
 10
18.1128839034
 20
10.8374876524
 10
18.1119913073
 20
10.8418055633
 10
18.1108209545
 20
10.845844276
 10
18.109386179
 20
10.8495967455
 10
18.10768359
 20
10.85308114
 10
18.1057251803
 20
10.8562914501
 10
18.1049373922
 20
10.8574097354
  0
LWPOLYLINE
  5
46C
100
AcDbEntity
  8
RACCORDO
100
AcDbPolyline
 62
253
  6
CONTINUOUS
 90
49
 70
0
 10
18.0108753118
 20
12.6952200027
 10
18.0291826035
 20
12.744816776
 10
18.0481798323
 20
12.7942167388
 10
18.0678669984
 20
12.8434198911
 10
18.0882544609
 20
12.8924502179
 10
18.1093318606
 20
12.9412837343
 10
18.1310681194
 20
12.9898484851
 10
18.1534642392
 20
13.0381441883
 10
18.1765192181
 20
13.086171126
 10
18.2001989725
 20
13.1338581898
 10
18.2245045371
 20
13.1812050383
 10
18.2494348771
 20
13.228212013
 10
18.2749528048
 20
13.27480903
 10
18.3010590328
 20
13.3209951732
 10
18.3277528485
 20
13.3667713587
 10
18.3549949256
 20
13.4120702517
 10
18.3827856656
 20
13.4568906091
 10
18.411124667
 20
13.5012336739
 10
18.4399713998
 20
13.5450358409
 10
18.4693268198
 20
13.5882967741
 10
18.499189971
 20
13.6310168095
 10
18.5295174557
 20
13.6731333494
 10
18.5603111934
 20
13.7146469905
 10
18.5915692646
 20
13.7555571361
 10
18.6232425122
 20
13.7957993978
 10
18.6553317584
 20
13.8353725775
 10
18.687836181
 20
13.8742778732
 10
18.7207041577
 20
13.9124544909
 10
18.7539333247
 20
13.9498981601
 10
18.7875260458
 20
13.9866131513
 10
18.8214377894
 20
14.0225514814
 10
18.8556670245
 20
14.0577109436
 10
18.8902152821
 20
14.0920937449
 10
18.9250426241
 20
14.1256585225
 10
18.9601536165
 20
14.1584085523
 10
18.9955436934
 20
14.1903405584
 10
19.0311592192
 20
14.2214033515
 10
19.0670063966
 20
14.2515994427
 10
19.1030790228
 20
14.2809263209
 10
19.139304854
 20
14.3093252628
 10
19.175684702
 20
14.3367931001
 10
19.2122177548
 20
14.363333001
 10
19.248829333
 20
14.3888957474
 10
19.2855199139
 20
14.4134778244
 10
19.3222890201
 20
14.4370827469
 10
19.3590605399
 20
14.4596718408
 10
19.3958091026
 20
14.4812322149
 10
19.4325600789
 20
14.5017767605
 10
19.4693134687
 20
14.5213054777
  0
LWPOLYLINE
  5
46D
100
AcDbEntity
  8
RACCORDO
100
AcDbPolyline
 62
7
  6
CONTINUOUS
 90
48
 70
0
 10
18.1071116504
 20
12.7772139525
 10
18.1090150417
 20
12.7821043858
 10
18.1273112652
 20
12.8280852346
 10
18.1462699379
 20
12.8739085059
 10
18.1658801903
 20
12.919545916
 10
18.1861295346
 20
12.9649666737
 10
18.2070064164
 20
13.0101442755
 10
18.2284989041
 20
13.0550523554
 10
18.250592798
 20
13.0996607991
 10
18.2732750377
 20
13.1439437858
 10
18.2965321922
 20
13.1878757002
 10
18.3203484293
 20
13.2314272755
 10
18.3447092904
 20
13.2745735862
 10
18.369599937
 20
13.3172899499
 10
18.3950029509
 20
13.3595480656
 10
18.4209025341
 20
13.4013240291
 10
18.4472825838
 20
13.4425943606
 10
18.4741242647
 20
13.4833320461
 10
18.5014106009
 20
13.5235144748
 10
18.5291242875
 20
13.5631194738
 10
18.557245083
 20
13.6021213753
 10
18.5857548957
 20
13.6404989835
 10
18.6146353741
 20
13.6782316925
 10
18.6438650082
 20
13.7152954391
 10
18.6734245325
 20
13.7516704211
 10
18.7032948373
 20
13.787338001
 10
18.7334538121
 20
13.8222765616
 10
18.7638815641
 20
13.8564683332
 10
18.7945579623
 20
13.8898962772
 10
18.8254597253
 20
13.922540547
 10
18.8565653023
 20
13.9543843947
 10
18.8878547879
 20
13.9854138225
 10
18.9193065918
 20
14.015613597
 10
18.9508981551
 20
14.0449685852
 10
18.9826094723
 20
14.0734671562
 10
19.014422056
 20
14.1010992994
 10
19.0463143759
 20
14.1278529861
 10
19.0782646321
 20
14.1537170936
 10
19.1102531353
 20
14.1786826464
 10
19.1422579561
 20
14.20273958
 10
19.1742567552
 20
14.2258787506
 10
19.2062282443
 20
14.248092317
 10
19.2381499454
 20
14.2693722786
 10
19.2700001318
 20
14.2897123281
 10
19.3017575729
 20
14.3091070527
 10
19.3333997405
 20
14.3275509902
 10
19.3649023415
 20
14.3450391183
 10
19.3914475753
 20
14.3590954175
  0
LWPOLYLINE
  5
46E
100
AcDbEntity
  8
RACCORDO
100
AcDbPolyline
 62
7
  6
CONTINUOUS
 90
16
 70
0
 10
18.1020616002
 20
10.7710904649
 10
18.0992807477
 20
10.7643176953
 10
18.0960296127
 20
10.7576119611
 10
18.092308195
 20
10.7509732624
 10
18.0881161234
 20
10.744385954
 10
18.0834537692
 20
10.737865681
 10
18.0783222463
 20
10.731459379
 10
18.0727250339
 20
10.7251734554
 10
18.0666586528
 20
10.7190015028
 10
18.0601137795
 20
10.7129712343
 10
18.0530837217
 20
10.707077399
 10
18.0455751717
 20
10.7013252478
 10
18.0375988838
 20
10.695758246
 10
18.0291584427
 20
10.6903908822
 10
18.0202502637
 20
10.6852086679
 10
18.0108743467
 20
10.680211603
  0
LINE
  5
46F
100
AcDbEntity
  8
ASSI
100
AcDbLine
 62
253
  6
CONTINUOUS
 10
-3.1599331184
 20
-25.2168673131
 11
-3.7822511505
 21
-25.9619267306
  0
LINE
  5
470
100
AcDbEntity
  8
SMUSSO
100
AcDbLine
 62
7
  6
CONTINUOUS
 10
17.605995874
 20
-4.9419950463
 11
7.6919565447
 21
-10.2001031254
  0
LINE
  5
471
100
AcDbEntity
  8
SMUSSO
100
AcDbLine
 62
7
  6
CONTINUOUS
 10
24.1553341349
 20
-1.3770615709
 11
6.970400706
 21
-10.4617601275
  0
LINE
  5
472
100
AcDbEntity
  8
RACCORDO
100
AcDbLine
 62
7
  6
CONTINUOUS
 10
18.1009636611
 20
-4.9872797199
 11
7.6873980149
 21
-10.2143101665
  0
LINE
  5
473
100
AcDbEntity
  8
RACCORDO
100
AcDbLine
 62
7
  6
CONTINUOUS
 10
22.3891973449
 20
-3.4599007122
 11
7.4194061412
 21
-10.9151773002
  0
LINE
  5
474
100
AcDbEntity
  8
DRAFT
100
AcDbLine
 62
7
  6
CONTINUOUS
 10
22.3722811861
 20
-3.4514426328
 11
23.4329413579
 21
-2.9324490807
  0
LWPOLYLINE
  5
475
100
AcDbEntity
  8
RACCORDO
100
AcDbPolyline
 62
7
  6
CONTINUOUS
 90
19
 70
0
 10
18.1080698767
 20
15.1833821903
 10
18.137552915
 20
15.1825242043
 10
18.16954888
 20
15.1826846433
 10
18.2018230745
 20
15.1839266869
 10
18.2343744853
 20
15.1862520497
 10
18.2672041256
 20
15.1896590172
 10
18.3002599875
 20
15.1941421957
 10
18.3335438163
 20
15.1997035539
 10
18.3670538666
 20
15.2063411232
 10
18.4007328952
 20
15.2140436045
 10
18.4345800042
 20
15.2228124929
 10
18.4685960914
 20
15.2326462933
 10
18.5027266065
 20
15.2435292211
 10
18.5369726249
 20
15.2554632736
 10
18.5713330711
 20
15.2684464534
 10
18.6057501682
 20
15.2824569841
 10
18.6402046571
 20
15.297487607
 10
18.6747157969
 20
15.3135455809
 10
18.7092835875
 20
15.3306309057
  0
LWPOLYLINE
  5
476
100
AcDbEntity
  8
RACCORDO
100
AcDbPolyline
 62
7
  6
CONTINUOUS
 90
13
 70
0
 10
17.3209271613
 20
15.6666272972
 10
17.3271675048
 20
15.6663635874
 10
17.3333270225
 20
15.665810761
 10
17.3394057144
 20
15.6649688179
 10
17.3454127753
 20
15.6638370328
 10
17.3513390105
 20
15.662416131
 10
17.357156835
 20
15.6607082889
 10
17.362863941
 20
15.6587120559
 10
17.3684626363
 20
15.6564288825
 10
17.3739322593
 20
15.6538652961
 10
17.3792689999
 20
15.651022889
 10
17.384476668
 20
15.6479000688
 10
17.3859657012
 20
15.64693945
  0
LINE
  5
477
100
AcDbEntity
  8
ASSI
100
AcDbLine
 62
7
  6
CONTINUOUS
 10
-17.1092791964
 20
21.6318084325
 11
-16.4836725028
 21
21.5011870362
  0
LINE
  5
478
100
AcDbEntity
  8
ASSI
100
AcDbLine
 62
253
  6
CONTINUOUS
 10
-16.8824357029
 20
21.7876295933
 11
-16.1712150948
 21
21.6391260705
  0
LWPOLYLINE
  5
479
100
AcDbEntity
  8
ASSI
100
AcDbPolyline
 62
7
  6
CONTINUOUS
 90
7
 70
0
 10
-16.156212645
 20
24.1739068612
 10
-16.1844063572
 20
24.1859034998
 10
-16.2142901062
 20
24.1944582846
 10
-16.2453561169
 20
24.1992710009
 10
-16.2771542103
 20
24.200132936
 10
-16.3089403768
 20
24.1969277064
 10
-16.3398602887
 20
24.1897544526
  0
LWPOLYLINE
  5
47A
100
AcDbEntity
  8
RACCORDO
100
AcDbPolyline
 62
7
  6
CONTINUOUS
 90
23
 70
0
 10
-7.018829044
 20
20.4230398964
 10
-7.0306283512
 20
20.4284636302
 10
-7.0423304458
 20
20.4334482496
 10
-7.0539225378
 20
20.4379891273
 10
-7.0653913874
 20
20.4420823914
 10
-7.0767248974
 20
20.4457242717
 10
-7.0879121226
 20
20.4489110707
 10
-7.0989404859
 20
20.4516404092
 10
-7.1097978729
 20
20.4539101945
 10
-7.1204742196
 20
20.4557179326
 10
-7.1309573599
 20
20.4570628473
 10
-7.1412356461
 20
20.4579444694
 10
-7.1513000386
 20
20.4583615681
 10
-7.1611389011
 20
20.4583149775
 10
-7.1707411613
 20
20.4578058506
 10
-7.1800989339
 20
20.4568342501
 10
-7.189201228
 20
20.4554026058
 10
-7.1980376475
 20
20.4535136707
 10
-7.2066015621
 20
20.451168801
 10
-7.214882731
 20
20.4483719888
 10
-7.2228715305
 20
20.4451275448
 10
-7.2305626689
 20
20.4414380898
 10
-7.2325132792
 20
20.4404061545
  0
LWPOLYLINE
  5
47B
100
AcDbEntity
  8
ASSI
100
AcDbPolyline
 62
7
  6
CONTINUOUS
 90
40
 70
0
 10
-6.1948327738
 20
21.1992541646
 10
-6.2239591942
 20
21.2132363907
 10
-6.2540851021
 20
21.2265811774
 10
-6.2852104975
 20
21.2392885246
 10
-6.3173890774
 20
21.2513769948
 10
-6.3505671447
 20
21.2628280256
 10
-6.384583609
 20
21.2735859295
 10
-6.4194425705
 20
21.2836473241
 10
-6.4551399288
 20
21.2930155919
 10
-6.4915022919
 20
21.3016451931
 10
-6.5285325647
 20
21.3095324894
 10
-6.5662278422
 20
21.3166811192
 10
-6.6044060177
 20
21.3230564575
 10
-6.643069903
 20
21.3286548255
 10
-6.6822166863
 20
21.3334799019
 10
-6.7216558248
 20
21.3375080983
 10
-6.7613886409
 20
21.3407354951
 10
-6.8014138123
 20
21.3431660119
 10
-6.8415368292
 20
21.3447878182
 10
-6.8817580832
 20
21.3455969694
 10
-6.9220771829
 20
21.3455974101
 10
-6.9622984443
 20
21.3447891441
 10
-7.0024213909
 20
21.3431682397
 10
-7.0424464994
 20
21.3407386285
 10
-7.0821795152
 20
21.337512109
 10
-7.1216190173
 20
21.333484807
 10
-7.1607664269
 20
21.3286605966
 10
-7.1994317524
 20
21.3230628988
 10
-7.2376126491
 20
21.3166879532
 10
-7.2753114618
 20
21.3095395201
 10
-7.3123452331
 20
21.3016523009
 10
-7.3487107289
 20
21.2930227041
 10
-7.3844111833
 20
21.2836543212
 10
-7.4192733414
 20
21.2735926276
 10
-7.4532931267
 20
21.2628342533
 10
-7.4864746156
 20
21.2513825683
 10
-7.5186567836
 20
21.2392931584
 10
-7.5497859555
 20
21.2265845521
 10
-7.5799158064
 20
21.2132382208
 10
-7.6090463362
 20
21.1992541646
  0
LWPOLYLINE
  5
47C
100
AcDbEntity
  8
RACCORDO
100
AcDbPolyline
 62
7
  6
CONTINUOUS
 90
80
 70
0
 10
-5.7504752343
 20
20.7325147797
 10
-5.761970925
 20
20.7381006019
 10
-5.7799075763
 20
20.7461982643
 10
-5.7978011946
 20
20.7535852592
 10
-5.8155407059
 20
20.760286223
 10
-5.8331126929
 20
20.7663639906
 10
-5.8505961979
 20
20.7719023054
 10
-5.8679612508
 20
20.776938954
 10
-5.8851633041
 20
20.7815051897
 10
-5.9022621486
 20
20.7856550747
 10
-5.9192390204
 20
20.7894162035
 10
-5.93607225
 20
20.7928132323
 10
-5.952817274
 20
20.7958823805
 10
-5.9694737589
 20
20.7986442353
 10
-5.9860200591
 20
20.8011140253
 10
-6.0024787117
 20
20.8033118133
 10
-6.0188529301
 20
20.8052523171
 10
-6.0351258467
 20
20.8069465811
 10
-6.0512885902
 20
20.8084059012
 10
-6.0673358513
 20
20.8096410788
 10
-6.0832630862
 20
20.8106621505
 10
-6.0990615352
 20
20.8114782302
 10
-6.1147266706
 20
20.8120981483
 10
-6.1302554294
 20
20.8125302216
 10
-6.1456405979
 20
20.8127821902
 10
-6.1608784181
 20
20.812861517
 10
-6.1759666385
 20
20.8127752755
 10
-6.1908999051
 20
20.8125302239
 10
-6.2056767575
 20
20.8121327935
 10
-6.2202939083
 20
20.8115891717
 10
-6.2347430181
 20
20.8109056019
 10
-6.2490268968
 20
20.810087655
 10
-6.2631390991
 20
20.8091411804
 10
-6.2770573283
 20
20.8080733234
 10
-6.2907808895
 20
20.8068898795
 10
-6.3043080807
 20
20.8055965543
 10
-6.3176151839
 20
20.8042013359
 10
-6.3306957497
 20
20.8027108457
 10
-6.3435551436
 20
20.8011302581
 10
-6.3561873962
 20
20.7994659466
 10
-6.3685841639
 20
20.797724687
 10
-6.3807536971
 20
20.7959108717
 10
-6.3927145958
 20
20.7940268135
 10
-6.4044662626
 20
20.7920773616
 10
-6.4160094879
 20
20.7900670564
 10
-6.4273643436
 20
20.7879967303
 10
-6.438531383
 20
20.785870302
 10
-6.4495103057
 20
20.7836917826
 10
-6.460319227
 20
20.781461273
 10
-6.4709597679
 20
20.7791818603
 10
-6.4814304595
 20
20.77685724
 10
-6.4917441386
 20
20.7744877907
 10
-6.501901281
 20
20.7720764409
 10
-6.5119014499
 20
20.7696263263
 10
-6.5217555062
 20
20.7671376681
 10
-6.5314636141
 20
20.764613183
 10
-6.5410254474
 20
20.7620556953
 10
-6.550450507
 20
20.7594653018
 10
-6.5597396867
 20
20.7568442718
 10
-6.5688916201
 20
20.7541955089
 10
-6.5779118143
 20
20.7515198968
 10
-6.5868002415
 20
20.7488198544
 10
-6.5955561787
 20
20.7460980372
 10
-6.6041834751
 20
20.7433556372
 10
-6.6126820549
 20
20.7405950555
 10
-6.6210508655
 20
20.7378190032
 10
-6.6292917657
 20
20.7350292613
 10
-6.6374046901
 20
20.732228207
 10
-6.6453881419
 20
20.7294187708
 10
-6.6532411457
 20
20.7266037065
 10
-6.660962806
 20
20.7237858086
 10
-6.6685519812
 20
20.7209679578
 10
-6.6760069157
 20
20.718153339
 10
-6.6833250553
 20
20.7153454614
 10
-6.6905062826
 20
20.7125469731
 10
-6.6975516538
 20
20.7097600316
 10
-6.7044606771
 20
20.7069874197
 10
-6.7112300744
 20
20.704233055
 10
-6.7178560986
 20
20.701501131
 10
-6.7306605726
 20
20.6961227536
  0
LINE
  5
47D
100
AcDbEntity
  8
RACCORDO
100
AcDbLine
 62
7
  6
CONTINUOUS
 10
18.3331860653
 20
10.6593346266
 11
18.3330976406
 21
10.6593788317
  0
LINE
  5
47E
100
AcDbEntity
  8
SMUSSO
100
AcDbLine
 62
7
  6
CONTINUOUS
 10
19.0624379521
 20
7.8736829265
 11
18.0442894852
 21
8.38275716
  0
LINE
  5
47F
100
AcDbEntity
  8
SMUSSO
100
AcDbLine
 62
7
  6
CONTINUOUS
 10
14.7237264208
 20
10.0430386921
 11
13.8347375905
 21
10.4875331073
  0
LINE
  5
480
100
AcDbEntity
  8
SMUSSO
100
AcDbLine
 62
7
  6
CONTINUOUS
 10
23.4481196497
 20
5.7202158113
 11
23.4329413579
 21
5.7278049572
  0
LINE
  5
481
100
AcDbEntity
  8
RACCORDO
100
AcDbLine
 62
253
  6
CONTINUOUS
 10
-4.0424875359
 20
19.8305609885
 11
-5.8374800398
 21
20.7280572404
  0
LINE
  5
482
100
AcDbEntity
  8
RACCORDO
100
AcDbLine
 62
7
  6
CONTINUOUS
 10
-3.9941833977
 20
19.8543688734
 11
-5.7505054633
 21
20.7325299062
  0
LINE
  5
483
100
AcDbEntity
  8
RACCORDO
100
AcDbLine
 62
7
  6
CONTINUOUS
 10
14.2921097217
 20
10.7293197838
 11
15.195131879
 21
10.2778087052
  0
LINE
  5
484
100
AcDbEntity
  8
RACCORDO
100
AcDbLine
 62
7
  6
CONTINUOUS
 10
18.5016616163
 20
8.6245438365
 11
19.5338434102
 21
8.1084529395
  0
LINE
  5
485
100
AcDbEntity
  8
ASSI
100
AcDbLine
 62
7
  6
CONTINUOUS
 10
-3.7478677072
 20
19.9757716313
 11
-6.1948327738
 21
21.1992541646
  0
LINE
  5
486
100
AcDbEntity
  8
ASSI
100
AcDbLine
 62
7
  6
CONTINUOUS
 10
-6.5483861644
 20
21.3760308599
 11
-6.901939555
 21
21.5528075552
  0
LINE
  5
487
100
AcDbEntity
  8
ASSI
100
AcDbLine
 62
7
  6
CONTINUOUS
 10
-6.5483861644
 20
21.9285890492
 11
-6.901939555
 21
22.1053657445
  0
LINE
  5
488
100
AcDbEntity
  8
IMPORT_IGES
100
AcDbLine
 62
7
  6
CONTINUOUS
 10
10.8909621439
 20
13.2614531929
 11
11.6896285417
 21
12.862119994
  0
LINE
  5
489
100
AcDbEntity
  8
ASSI
100
AcDbLine
 62
7
  6
CONTINUOUS
 10
-2.3400520109
 20
20.6696482897
 11
-5.1506016579
 21
22.0749231132
  0
LWPOLYLINE
  5
48A
100
AcDbEntity
  8
RACCORDO
100
AcDbPolyline
 62
7
  6
CONTINUOUS
 90
15
 70
0
 10
18.3331879657
 20
10.659333687
 10
18.3280231264
 20
10.6619479137
 10
18.307440055
 20
10.6730369145
 10
18.2874803352
 20
10.6848618886
 10
18.2681417847
 20
10.6973899176
 10
18.2493983337
 20
10.7106033169
 10
18.2312036185
 20
10.7245043353
 10
18.213545051
 20
10.7390762846
 10
18.1964210102
 20
10.7542933892
 10
18.1798085704
 20
10.7701499596
 10
18.163701322
 20
10.7866283228
 10
18.1481003054
 20
10.8037024877
 10
18.1329975626
 20
10.8213559412
 10
18.1183898977
 20
10.8395679879
 10
18.1049381144
 20
10.8574087486
  0
LINE
  5
48B
100
AcDbEntity
  8
SMUSSO
100
AcDbLine
 62
7
  6
CONTINUOUS
 10
24.1553341349
 20
0.8043779064
 11
23.4481196497
 21
1.3900887923
  0
LINE
  5
48C
100
AcDbEntity
  8
DRAFT
100
AcDbLine
 62
7
  6
CONTINUOUS
 10
16.7441037745
 20
26.3465842047
 11
16.7441037745
 21
26.3042155909
  0
LINE
  5
48D
100
AcDbEntity
  8
SMUSSO
100
AcDbLine
 62
7
  6
CONTINUOUS
 10
17.7955077052
 20
27.2782444892
 11
17.7955077052
 21
26.8391737973
  0
LINE
  5
48E
100
AcDbEntity
  8
DRAFT
100
AcDbLine
 62
7
  6
CONTINUOUS
 10
18.1009636611
 20
-4.9872797199
 11
18.1009636611
 21
-4.9449111061
  0
LINE
  5
48F
100
AcDbEntity
  8
ASSI
100
AcDbLine
 62
253
  6
CONTINUOUS
 10
-2.8068969304
 20
-25.3426371511
 11
-3.5181175385
 21
-26.1941336283
  0
LWPOLYLINE
  5
490
100
AcDbEntity
  8
ASSI
100
AcDbPolyline
 62
7
  6
CONTINUOUS
 90
9
 70
0
 10
-1.3911412327
 20
-25.5734987688
 10
-1.3736037325
 20
-25.5543762796
 10
-1.3580792426
 20
-25.5334435451
 10
-1.3447724891
 20
-25.5109207759
 10
-1.333853231
 20
-25.4870323597
 10
-1.3254693082
 20
-25.4620176227
 10
-1.3197514615
 20
-25.4361581078
 10
-1.3167972295
 20
-25.4097691975
 10
-1.3163717361
 20
-25.3952356893
  0
LWPOLYLINE
  5
491
100
AcDbEntity
  8
SMUSSO
100
AcDbPolyline
 62
7
  6
CONTINUOUS
 90
91
 70
0
 10
6.970400706
 20
-12.2365700619
 10
6.9632137744
 20
-12.2403199847
 10
6.9560340212
 20
-12.2439762845
 10
6.9488614462
 20
-12.2475389614
 10
6.9416960518
 20
-12.2510078444
 10
6.9345378356
 20
-12.2543831044
 10
6.9273867912
 20
-12.2576652544
 10
6.9202430177
 20
-12.2608543385
 10
6.913106416
 20
-12.2639503125
 10
6.9059766822
 20
-12.2669535564
 10
6.898854641
 20
-12.2698638877
 10
6.8917394676
 20
-12.272681489
 10
6.8846283835
 20
-12.2754072882
 10
6.8775186566
 20
-12.278042331
 10
6.870413019
 20
-12.2805855717
 10
6.8633168885
 20
-12.2830348008
 10
6.8562296966
 20
-12.2853899724
 10
6.8491520117
 20
-12.2876511325
 10
6.8420909563
 20
-12.2898162096
 10
6.8350496922
 20
-12.2918842137
 10
6.8280250576
 20
-12.2938561348
 10
6.8210146895
 20
-12.2957328716
 10
6.8140170478
 20
-12.297514911
 10
6.8070336727
 20
-12.2992017661
 10
6.8000668221
 20
-12.3007928742
 10
6.793115893
 20
-12.3022882847
 10
6.7861814885
 20
-12.3036879482
 10
6.7792676761
 20
-12.3049911542
 10
6.7723768473
 20
-12.3061975271
 10
6.7655066106
 20
-12.3073074425
 10
6.758653859
 20
-12.3083213166
 10
6.7518158206
 20
-12.309239569
 10
6.7449952672
 20
-12.3100617802
 10
6.7381974075
 20
-12.3107871074
 10
6.7314217943
 20
-12.3114153527
 10
6.7246688747
 20
-12.311946714
 10
6.7179451992
 20
-12.3123809426
 10
6.7112538308
 20
-12.3127178354
 10
6.7045917065
 20
-12.3129575956
 10
6.6979561865
 20
-12.3131005837
 10
6.6913455985
 20
-12.313146916
 10
6.6847616149
 20
-12.3130964762
 10
6.6782066136
 20
-12.3129492768
 10
6.6716803849
 20
-12.3127052382
 10
6.6651831386
 20
-12.3123644398
 10
6.6587178822
 20
-12.3119271326
 10
6.6522865806
 20
-12.3113935527
 10
6.6458872689
 20
-12.310763464
 10
6.63951706
 20
-12.310036409
 10
6.6331730438
 20
-12.3092120327
 10
6.6268581304
 20
-12.3082906901
 10
6.6205781623
 20
-12.3072729893
 10
6.6143331409
 20
-12.3061586402
 10
6.6081230649
 20
-12.3049479329
 10
6.601953773
 20
-12.3036423448
 10
6.5958281396
 20
-12.3022424944
 10
6.5897432903
 20
-12.3007477633
 10
6.5836964411
 20
-12.2991577737
 10
6.5776858535
 20
-12.2974721556
 10
6.5717132661
 20
-12.295691279
 10
6.5657811105
 20
-12.2938158759
 10
6.5598894818
 20
-12.2918459065
 10
6.554038285
 20
-12.2897814106
 10
6.5482296667
 20
-12.2876232395
 10
6.5424651025
 20
-12.285372064
 10
6.5367431168
 20
-12.2830272134
 10
6.5310614291
 20
-12.2805875272
 10
6.5254174115
 20
-12.2780518246
 10
6.5198136919
 20
-12.2754212863
 10
6.5142558733
 20
-12.2726982945
 10
6.5087443374
 20
-12.269882723
 10
6.5032787024
 20
-12.2669746979
 10
6.4978634267
 20
-12.2639769797
 10
6.4925008613
 20
-12.2608909133
 10
6.4871886551
 20
-12.2577151537
 10
6.4819242131
 20
-12.2544484268
 10
6.4767057658
 20
-12.2510897102
 10
6.4715350826
 20
-12.2476400262
 10
6.4664148769
 20
-12.2441011674
 10
6.4613454933
 20
-12.2404732724
 10
6.4563265871
 20
-12.2367562027
 10
6.451359837
 20
-12.2329513354
 10
6.4464463524
 20
-12.2290596536
 10
6.4415850238
 20
-12.2250801743
 10
6.4367742024
 20
-12.2210113247
 10
6.4320117963
 20
-12.2168512656
 10
6.4272998974
 20
-12.2126018363
 10
6.4226431322
 20
-12.2082669814
 10
6.4180421161
 20
-12.2038469643
 10
6.4134962338
 20
-12.1993415216
 10
6.4113017139
 20
-12.1971158814
  0
LINE
  5
492
100
AcDbEntity
  8
SMUSSO
100
AcDbLine
 62
7
  6
CONTINUOUS
 10
23.4481196497
 20
-2.9400382266
 11
6.2545716911
 21
-11.6552257699
  0
LINE
  5
493
100
AcDbEntity
  8
SMUSSO
100
AcDbLine
 62
7
  6
CONTINUOUS
 10
24.1553341349
 20
-3.5257491125
 11
6.970400706
 21
-12.2365700619
  0
LWPOLYLINE
  5
494
100
AcDbEntity
  8
ASSI
100
AcDbPolyline
 62
7
  6
CONTINUOUS
 90
18
 70
0
 10
-6.9761548188
 20
17.8175656391
 10
-6.9934494868
 20
17.8160733035
 10
-7.010643885
 20
17.8140797256
 10
-7.0277022228
 20
17.8116725427
 10
-7.0445930562
 20
17.8089615891
 10
-7.061297319
 20
17.8060045765
 10
-7.0778041389
 20
17.8027937285
 10
-7.0940975458
 20
17.7993835006
 10
-7.1101673388
 20
17.7958389709
 10
-7.1260104926
 20
17.7921450149
 10
-7.1416193043
 20
17.7883417326
 10
-7.1569883869
 20
17.7844781444
 10
-7.1721151149
 20
17.7805378706
 10
-7.1869961326
 20
17.7765518233
 10
-7.2016286585
 20
17.7725577374
 10
-7.2160072834
 20
17.768540608
 10
-7.2301308364
 20
17.7645254474
 10
-7.2576005821
 20
17.7565778352
  0
LWPOLYLINE
  5
495
100
AcDbEntity
  8
ASSI
100
AcDbPolyline
 62
253
  6
CONTINUOUS
 90
24
 70
0
 10
-17.1601750638
 20
22.102380539
 10
-17.1481349367
 20
22.0998766827
 10
-17.1358500747
 20
22.0976901325
 10
-17.1233539006
 20
22.0958268372
 10
-17.1106804126
 20
22.0942918661
 10
-17.0978640909
 20
22.0930893956
 10
-17.0849398045
 20
22.092222697
 10
-17.0719427162
 20
22.0916941284
 10
-17.0589081868
 20
22.0915051278
 10
-17.0458716788
 20
22.0916562095
 10
-17.0328686603
 20
22.0921469624
 10
-17.0199345082
 20
22.0929760513
 10
-17.0071044121
 20
22.0941412205
 10
-16.9944132784
 20
22.0956393001
 10
-16.9818956356
 20
22.0974662142
 10
-16.9695855399
 20
22.0996169924
 10
-16.957516483
 20
22.1020857832
 10
-16.945721301
 20
22.1048658697
 10
-16.9342320846
 20
22.1079496883
 10
-16.9230800921
 20
22.111328849
 10
-16.9122956644
 20
22.1149941581
 10
-16.9019081425
 20
22.1189356436
 10
-16.8919457872
 20
22.1231425819
 10
-16.8824357029
 20
22.1276035274
  0
LWPOLYLINE
  5
496
100
AcDbEntity
  8
ASSI
100
AcDbPolyline
 62
7
  6
CONTINUOUS
 90
8
 70
0
 10
-6.4495887352
 20
23.5163414308
 10
-6.4514348157
 20
23.517143816
 10
-6.455638324
 20
23.5183221691
 10
-6.4605916451
 20
23.5190169058
 10
-6.4662510341
 20
23.5192459049
 10
-6.4725800418
 20
23.5190161849
 10
-6.4795828148
 20
23.5183605245
 10
-6.4872490998
 20
23.5172909687
  0
LWPOLYLINE
  5
497
100
AcDbEntity
  8
ASSI
100
AcDbPolyline
 62
7
  6
CONTINUOUS
 90
8
 70
0
 10
-0.8946003041
 20
20.7388472355
 10
-0.8961583441
 20
20.7395383309
 10
-0.9002866804
 20
20.7407514496
 10
-0.9051606681
 20
20.7414830803
 10
-0.9107356946
 20
20.7417505019
 10
-0.9169754224
 20
20.7415609946
 10
-0.923883316
 20
20.7409483923
 10
-0.9314481213
 20
20.7399249199
  0
LWPOLYLINE
  5
498
100
AcDbEntity
  8
ASSI
100
AcDbPolyline
 62
7
  6
CONTINUOUS
 90
18
 70
0
 10
-4.0505672893
 20
22.9603366202
 10
-4.0701152738
 20
22.969419307
 10
-4.093011054
 20
22.9784047216
 10
-4.1165203403
 20
22.9859069544
 10
-4.1406616624
 20
22.9919411243
 10
-4.1653514157
 20
22.9964869087
 10
-4.190612842
 20
22.9995408921
 10
-4.2164226995
 20
23.00110649
 10
-4.2426276583
 20
23.0011736266
 10
-4.2692116209
 20
22.9997348507
 10
-4.2961906849
 20
22.9967976133
 10
-4.3234598136
 20
22.9923741921
 10
-4.3510339932
 20
22.9864558064
 10
-4.3788982375
 20
22.9790512369
 10
-4.4069025506
 20
22.9701991023
 10
-4.4349969338
 20
22.9599122756
 10
-4.4632313858
 20
22.9481778838
 10
-4.4916059066
 20
22.934995927
  0
LINE
  5
499
100
AcDbEntity
  8
DRAFT
100
AcDbLine
 62
7
  6
CONTINUOUS
 10
3.8398662829
 20
18.2034994897
 11
4.3786396509
 21
17.9341128057
  0
LINE
  5
49A
100
AcDbEntity
  8
ASSI
100
AcDbLine
 62
253
  6
CONTINUOUS
 10
-7.2225703986
 20
23.778873347
 11
-6.6170399639
 21
23.4761081297
  0
LINE
  5
49B
100
AcDbEntity
  8
ASSI
100
AcDbLine
 62
253
  6
CONTINUOUS
 10
-1.6672924956
 20
21.0012343955
 11
-1.0617620609
 21
20.6984691782
  0
LINE
  5
49C
100
AcDbEntity
  8
ASSI
100
AcDbLine
 62
7
  6
CONTINUOUS
 10
-3.7906697178
 20
22.1486713006
 11
-1.5548088462
 21
21.0307408648
  0
LINE
  5
49D
100
AcDbEntity
  8
ASSI
100
AcDbLine
 62
7
  6
CONTINUOUS
 10
-0.887825996
 20
20.6972494397
 11
-0.6895305965
 21
20.5981017399
  0
LINE
  5
49E
100
AcDbEntity
  8
ASSI
100
AcDbLine
 62
7
  6
CONTINUOUS
 10
-6.9466319201
 20
23.7648588495
 11
-6.4495891303
 21
23.5163374546
  0
LINE
  5
49F
100
AcDbEntity
  8
ASSI
100
AcDbLine
 62
7
  6
CONTINUOUS
 10
-1.391643491
 20
20.987364635
 11
-0.8946007012
 21
20.7388432401
  0
LINE
  5
4A0
100
AcDbEntity
  8
ASSI
100
AcDbLine
 62
253
  6
CONTINUOUS
 10
-7.5585718505
 20
24.468478899
 11
-4.4916059066
 21
22.934995927
  0
LINE
  5
4A1
100
AcDbEntity
  8
ASSI
100
AcDbLine
 62
253
  6
CONTINUOUS
 10
-0.2489652194
 20
20.8136755835
 11
2.8180007245
 21
19.2801926115
  0
LINE
  5
4A2
100
AcDbEntity
  8
DRAFT
100
AcDbLine
 62
7
  6
CONTINUOUS
 10
22.3891973449
 20
9.5304803446
 11
22.3722811861
 21
9.538938424
  0
LINE
  5
4A3
100
AcDbEntity
  8
RACCORDO
100
AcDbLine
 62
7
  6
CONTINUOUS
 10
19.2557901867
 20
11.2785684646
 11
17.238796048
 21
12.2870655339
  0
LINE
  5
4A4
100
AcDbEntity
  8
ASSI
100
AcDbLine
 62
7
  6
CONTINUOUS
 10
0.1920777836
 20
20.8390250501
 11
3.4184010268
 21
19.2258634285
  0
LINE
  5
4A5
100
AcDbEntity
  8
SMUSSO
100
AcDbLine
 62
7
  6
CONTINUOUS
 10
19.6062581636
 20
11.4568878667
 11
17.5825045209
 21
12.4687646881
  0
LINE
  5
4A6
100
AcDbEntity
  8
SMUSSO
100
AcDbLine
 62
7
  6
CONTINUOUS
 10
20.0771247699
 20
11.6964665365
 11
18.0427657488
 21
12.7136460471
  0
LINE
  5
4A7
100
AcDbEntity
  8
SMUSSO
100
AcDbLine
 62
7
  6
CONTINUOUS
 10
23.4481196497
 20
10.0503428302
 11
23.4329413579
 21
10.0579319761
  0
LINE
  5
4A8
100
AcDbEntity
  8
IMPORT_IGES
100
AcDbLine
 62
7
  6
CONTINUOUS
 10
18.6599705849
 20
12.8107854137
 11
18.2174808142
 21
13.0320302991
  0
LINE
  5
4A9
100
AcDbEntity
  8
RACCORDO
100
AcDbLine
 62
7
  6
CONTINUOUS
 10
18.7247015423
 20
12.8431508924
 11
20.4277375378
 21
11.9916328947
  0
LWPOLYLINE
  5
4AA
100
AcDbEntity
  8
RACCORDO
100
AcDbPolyline
 62
7
  6
CONTINUOUS
 90
8
 70
0
 10
20.4277375378
 20
11.9916328947
 10
20.4436112726
 20
11.9834046177
 10
20.4594474583
 20
11.9746160309
 10
20.475246095
 20
11.9652671343
 10
20.4910242949
 20
11.955346572
 10
20.5067649457
 20
11.9448656999
 10
20.522416711
 20
11.9338585855
 10
20.5310774437
 20
11.927439335
  0
LWPOLYLINE
  5
4AB
100
AcDbEntity
  8
RACCORDO
100
AcDbPolyline
 62
253
  6
CONTINUOUS
 90
10
 70
0
 10
18.1020616002
 20
10.7710904649
 10
18.0127383445
 20
10.8255170829
 10
17.9237851718
 20
10.880195192
 10
17.8352020821
 20
10.9351247923
 10
17.7469983907
 20
10.9903142975
 10
17.6591647824
 20
11.0457552939
 10
17.5716733112
 20
11.1014225403
 10
17.4845146619
 20
11.1573076231
 10
17.3976981498
 20
11.213418956
 10
17.3112237748
 20
11.2697565389
  0
LWPOLYLINE
  5
4AC
100
AcDbEntity
  8
RACCORDO
100
AcDbPolyline
 62
7
  6
CONTINUOUS
 90
9
 70
0
 10
18.0944422778
 20
10.8670663934
 10
18.0295311354
 20
10.907003888
 10
17.9385311948
 20
10.9634375147
 10
17.8458700204
 20
11.0214266921
 10
17.7515645117
 20
11.0809806898
 10
17.6556311316
 20
11.1421080333
 10
17.5580867722
 20
11.2048169979
 10
17.4589491464
 20
11.2691158737
 10
17.3859652357
 20
11.316811584
  0
LINE
  5
4AD
100
AcDbEntity
  8
SMUSSO
100
AcDbLine
 62
7
  6
CONTINUOUS
 10
24.1553341349
 20
5.1345049254
 11
23.4481196497
 21
5.7202158113
  0
LWPOLYLINE
  5
4AE
100
AcDbEntity
  8
RACCORDO
100
AcDbPolyline
 62
253
  6
CONTINUOUS
 90
43
 70
0
 10
19.4693134687
 20
10.3643835395
 10
19.4691625594
 20
10.3741709233
 10
19.4687100426
 20
10.3840903499
 10
19.4679565512
 20
10.3941279461
 10
19.4669031389
 20
10.4042696734
 10
19.4655512792
 20
10.4145013476
 10
19.4639028627
 20
10.424808659
 10
19.4619601949
 20
10.4351771916
 10
19.4597259927
 20
10.4455924443
 10
19.4572033809
 20
10.4560398503
 10
19.4543958877
 20
10.466504798
 10
19.4513074395
 20
10.4769726512
 10
19.4479423558
 20
10.4874287697
 10
19.444305343
 20
10.4978585297
 10
19.4404014879
 20
10.5082473441
 10
19.4362362502
 20
10.5185806833
 10
19.4318154555
 20
10.5288440953
 10
19.4271452867
 20
10.5390232255
 10
19.4222322753
 20
10.5491038378
 10
19.4170832928
 20
10.5590718333
 10
19.4117055404
 20
10.568913271
 10
19.4061065393
 20
10.5786143867
 10
19.4002941204
 20
10.5881616126
 10
19.3942764128
 20
10.5975415959
 10
19.3880618328
 20
10.606741218
 10
19.381659072
 20
10.6157476123
 10
19.3750770854
 20
10.6245481825
 10
19.3683250783
 20
10.6331306204
 10
19.3614124942
 20
10.6414829225
 10
19.3543490008
 20
10.6495934075
 10
19.3471444772
 20
10.6574507321
 10
19.3398089994
 20
10.665043907
 10
19.3323528268
 20
10.6723623127
 10
19.3247863876
 20
10.6793957136
 10
19.317120264
 20
10.6861342728
 10
19.3093651779
 20
10.692568566
 10
19.3015319755
 20
10.6986895941
 10
19.2936316121
 20
10.7044887964
 10
19.2856751371
 20
10.7099580622
 10
19.2776736785
 20
10.7150897421
 10
19.2696384269
 20
10.7198766591
 10
19.2615806204
 20
10.7243121183
 10
18.7092835875
 20
11.0005038867
  0
LWPOLYLINE
  5
4AF
100
AcDbEntity
  8
RACCORDO
100
AcDbPolyline
 62
253
  6
CONTINUOUS
 90
43
 70
0
 10
19.4693134687
 20
14.6945105584
 10
19.4691625594
 20
14.7042979422
 10
19.4687100426
 20
14.7142173688
 10
19.4679565512
 20
14.724254965
 10
19.4669031389
 20
14.7343966923
 10
19.4655512792
 20
14.7446283666
 10
19.4639028627
 20
14.7549356779
 10
19.4619601949
 20
14.7653042106
 10
19.4597259927
 20
14.7757194632
 10
19.4572033809
 20
14.7861668692
 10
19.4543958877
 20
14.7966318169
 10
19.4513074395
 20
14.8070996702
 10
19.4479423558
 20
14.8175557887
 10
19.444305343
 20
14.8279855486
 10
19.4404014879
 20
14.838374363
 10
19.4362362502
 20
14.8487077023
 10
19.4318154555
 20
14.8589711142
 10
19.4271452867
 20
14.8691502445
 10
19.4222322753
 20
14.8792308567
 10
19.4170832928
 20
14.8891988522
 10
19.4117055404
 20
14.8990402899
 10
19.4061065393
 20
14.9087414056
 10
19.4002941204
 20
14.9182886315
 10
19.3942764128
 20
14.9276686148
 10
19.3880618328
 20
14.9368682369
 10
19.381659072
 20
14.9458746312
 10
19.3750770854
 20
14.9546752014
 10
19.3683250783
 20
14.9632576393
 10
19.3614124942
 20
14.9716099414
 10
19.3543490008
 20
14.9797204264
 10
19.3471444772
 20
14.987577751
 10
19.3398089994
 20
14.995170926
 10
19.3323528268
 20
15.0024893316
 10
19.3247863876
 20
15.0095227325
 10
19.317120264
 20
15.0162612917
 10
19.3093651779
 20
15.0226955849
 10
19.3015319755
 20
15.028816613
 10
19.2936316121
 20
15.0346158153
 10
19.2856751371
 20
15.0400850811
 10
19.2776736785
 20
15.045216761
 10
19.2696384269
 20
15.050003678
 10
19.2615806204
 20
15.0544391372
 10
18.7092835875
 20
15.3306309057
  0
LINE
  5
4B0
100
AcDbEntity
  8
IMPORT_IGES
100
AcDbLine
 62
7
  6
CONTINUOUS
 10
18.6599705849
 20
12.8107854137
 11
18.6599705849
 21
13.330400656
  0
LINE
  5
4B1
100
AcDbEntity
  8
IMPORT_IGES
100
AcDbLine
 62
7
  6
CONTINUOUS
 10
19.2963666879
 20
13.6485987075
 11
19.2963666879
 21
13.1289834653
  0
LINE
  5
4B2
100
AcDbEntity
  8
IMPORT_IGES
100
AcDbLine
 62
7
  6
CONTINUOUS
 10
19.5792094004
 20
18.7864389862
 11
19.5792094004
 21
15.7732523749
  0
LINE
  5
4B3
100
AcDbEntity
  8
IMPORT_IGES
100
AcDbLine
 62
7
  6
CONTINUOUS
 10
19.5792094004
 20
14.4563119673
 11
19.5792094004
 21
13.7900200638
  0
LINE
  5
4B4
100
AcDbEntity
  8
DRAFT
100
AcDbLine
 62
7
  6
CONTINUOUS
 10
20.2796376804
 20
24.5788172517
 11
20.2796376804
 21
24.5364486379
  0
LWPOLYLINE
  5
4B5
100
AcDbEntity
  8
RACCORDO
100
AcDbPolyline
 62
253
  6
CONTINUOUS
 90
25
 70
0
 10
19.4693134687
 20
18.8514324966
 10
19.4691625594
 20
18.841790845
 10
19.4687100427
 20
18.8323084096
 10
19.4679565514
 20
18.8229984523
 10
19.4669031393
 20
18.813873994
 10
19.4655512798
 20
18.804947796
 10
19.4639028635
 20
18.7962323424
 10
19.4619601959
 20
18.7877398227
 10
19.459725994
 20
18.7794821143
 10
19.4572033825
 20
18.7714707663
 10
19.4543958895
 20
18.7637169835
 10
19.4513074416
 20
18.7562316101
 10
19.4479423583
 20
18.7490251152
 10
19.4443053458
 20
18.7421075776
 10
19.4404014909
 20
18.7354886722
 10
19.4362362535
 20
18.7291776561
 10
19.4318154591
 20
18.7231833558
 10
19.4271452905
 20
18.717514155
 10
19.4222322793
 20
18.7121779824
 10
19.417083297
 20
18.7071823012
 10
19.4117055447
 20
18.7025340984
 10
19.4061065438
 20
18.6982398748
 10
19.400294125
 20
18.6943056363
 10
19.3942764175
 20
18.6907368853
 10
19.3914484789
 20
18.6892229232
  0
LWPOLYLINE
  5
4B6
100
AcDbEntity
  8
RACCORDO
100
AcDbPolyline
 62
253
  6
CONTINUOUS
 90
25
 70
0
 10
19.4693134687
 20
14.5213054777
 10
19.4691625594
 20
14.5116638261
 10
19.4687100427
 20
14.5021813907
 10
19.4679565514
 20
14.4928714334
 10
19.4669031393
 20
14.483746975
 10
19.4655512798
 20
14.4748207771
 10
19.4639028635
 20
14.4661053235
 10
19.4619601959
 20
14.4576128037
 10
19.459725994
 20
14.4493550953
 10
19.4572033825
 20
14.4413437474
 10
19.4543958895
 20
14.4335899646
 10
19.4513074416
 20
14.4261045912
 10
19.4479423583
 20
14.4188980963
 10
19.4443053458
 20
14.4119805587
 10
19.4404014909
 20
14.4053616533
 10
19.4362362535
 20
14.3990506372
 10
19.4318154591
 20
14.3930563369
 10
19.4271452905
 20
14.387387136
 10
19.4222322793
 20
14.3820509635
 10
19.417083297
 20
14.3770552823
 10
19.4117055447
 20
14.3724070795
 10
19.4061065438
 20
14.3681128559
 10
19.400294125
 20
14.3641786174
 10
19.3942764175
 20
14.3606098664
 10
19.3914484789
 20
14.3590959042
  0
LINE
  5
4B7
100
AcDbEntity
  8
SMUSSO
100
AcDbLine
 62
7
  6
CONTINUOUS
 10
17.605995874
 20
-4.9419950463
 11
17.634983833
 21
-4.8240005551
  0
LINE
  5
4B8
100
AcDbEntity
  8
RACCORDO
100
AcDbLine
 62
7
  6
CONTINUOUS
 10
4.3786396509
 20
-18.1791465321
 11
5.4618349205
 21
-17.3941063158
  0
LINE
  5
4B9
100
AcDbEntity
  8
RACCORDO
100
AcDbLine
 62
253
  6
CONTINUOUS
 10
23.7136870074
 20
-7.7422262775
 11
5.4618349205
 21
-17.3941063158
  0
LINE
  5
4BA
100
AcDbEntity
  8
RACCORDO
100
AcDbLine
 62
7
  6
CONTINUOUS
 10
23.6685056982
 20
-7.7703689969
 11
5.4401428182
 21
-17.4098275557
  0
LINE
  5
4BB
100
AcDbEntity
  8
RACCORDO
100
AcDbLine
 62
253
  6
CONTINUOUS
 10
-0.8561765759
 20
-19.8803168659
 11
24.1553341349
 21
-6.7048151211
  0
LINE
  5
4BC
100
AcDbEntity
  8
RACCORDO
100
AcDbLine
 62
253
  6
CONTINUOUS
 10
-0.8561765759
 20
-20.6796348018
 11
23.7411836592
 21
-7.7222982201
  0
LINE
  5
4BD
100
AcDbEntity
  8
DRAFT
100
AcDbLine
 62
7
  6
CONTINUOUS
 10
-0.8561765759
 20
-20.9290476924
 11
4.3786396509
 21
-18.1791465321
  0
LWPOLYLINE
  5
4BE
100
AcDbEntity
  8
ASSI
100
AcDbPolyline
 62
7
  6
CONTINUOUS
 90
9
 70
0
 10
-0.9314481213
 20
20.7399249199
 10
-0.9396277982
 20
20.7385015491
 10
-0.9483913418
 20
20.7367111564
 10
-0.9577121942
 20
20.7345566771
 10
-0.9675577011
 20
20.7320523973
 10
-0.9778847521
 20
20.7292460535
 10
-0.9886566624
 20
20.7261566533
 10
-0.9998456412
 20
20.722775316
 10
-1.0114200599
 20
20.7191058781
  0
LWPOLYLINE
  5
4BF
100
AcDbEntity
  8
ASSI
100
AcDbPolyline
 62
7
  6
CONTINUOUS
 90
13
 70
0
 10
-1.5802340663
 20
21.029315398
 10
-1.566378353
 20
21.0304692183
 10
-1.551978102
 20
21.0308073293
 10
-1.5370647602
 20
21.0302746405
 10
-1.521658281
 20
21.0288503943
 10
-1.505773188
 20
21.0265252022
 10
-1.4894374858
 20
21.0232627868
 10
-1.4727100607
 20
21.0190595537
 10
-1.4555792346
 20
21.0138926096
 10
-1.437965468
 20
21.0076910799
 10
-1.4198781409
 20
21.0004343458
 10
-1.4013574511
 20
20.9921025634
 10
-1.3916413291
 20
20.9873676657
  0
LINE
  5
4C0
100
AcDbEntity
  8
ASSI
100
AcDbLine
 62
7
  6
CONTINUOUS
 10
-5.1506016579
 20
22.0749231132
 11
-3.7906697178
 21
22.1486713006
  0
LINE
  5
4C1
100
AcDbEntity
  8
RACCORDO
100
AcDbLine
 62
7
  6
CONTINUOUS
 10
18.3331860653
 20
14.9894616456
 11
18.3330976406
 21
14.9895058507
  0
LINE
  5
4C2
100
AcDbEntity
  8
DRAFT
100
AcDbLine
 62
7
  6
CONTINUOUS
 10
22.3891973449
 20
12.8728576093
 11
22.2662151689
 21
12.9343486973
  0
LINE
  5
4C3
100
AcDbEntity
  8
RACCORDO
100
AcDbLine
 62
7
  6
CONTINUOUS
 10
23.9431697869
 20
13.1565315601
 11
23.3268753407
 21
13.4646787832
  0
LWPOLYLINE
  5
4C4
100
AcDbEntity
  8
RACCORDO
100
AcDbPolyline
 62
7
  6
CONTINUOUS
 90
15
 70
0
 10
18.3331879657
 20
14.9894607059
 10
18.3280231264
 20
14.9920749327
 10
18.307440055
 20
15.0031639334
 10
18.2874803352
 20
15.0149889075
 10
18.2681417847
 20
15.0275169365
 10
18.2493983337
 20
15.0407303359
 10
18.2312036185
 20
15.0546313542
 10
18.213545051
 20
15.0692033035
 10
18.1964210102
 20
15.0844204081
 10
18.1798085704
 20
15.1002769785
 10
18.163701322
 20
15.1167553417
 10
18.1481003054
 20
15.1338295067
 10
18.1329975626
 20
15.1514829601
 10
18.1183898977
 20
15.1696950069
 10
18.1049381144
 20
15.1875357675
  0
LWPOLYLINE
  5
4C5
100
AcDbEntity
  8
RACCORDO
100
AcDbPolyline
 62
253
  6
CONTINUOUS
 90
10
 70
0
 10
18.1020616002
 20
15.1012174838
 10
18.0127383445
 20
15.1556441018
 10
17.9237851718
 20
15.2103222109
 10
17.8352020821
 20
15.2652518112
 10
17.7469983907
 20
15.3204413164
 10
17.6591647824
 20
15.3758823128
 10
17.5716733112
 20
15.4315495593
 10
17.4845146619
 20
15.4874346421
 10
17.3976981498
 20
15.5435459749
 10
17.3112237748
 20
15.5998835579
  0
LWPOLYLINE
  5
4C6
100
AcDbEntity
  8
RACCORDO
100
AcDbPolyline
 62
7
  6
CONTINUOUS
 90
9
 70
0
 10
18.0944422778
 20
15.1971934123
 10
18.0295311354
 20
15.2371309069
 10
17.9385311948
 20
15.2935645336
 10
17.8458700204
 20
15.3515537111
 10
17.7515645117
 20
15.4111077087
 10
17.6556311316
 20
15.4722350522
 10
17.5580867722
 20
15.5349440168
 10
17.4589491464
 20
15.5992428926
 10
17.3859652357
 20
15.6469386029
  0
LINE
  5
4C7
100
AcDbEntity
  8
SMUSSO
100
AcDbLine
 62
7
  6
CONTINUOUS
 10
24.1553341349
 20
9.4646319443
 11
23.4481196497
 21
10.0503428302
  0
LWPOLYLINE
  5
4C8
100
AcDbEntity
  8
RACCORDO
100
AcDbPolyline
 62
7
  6
CONTINUOUS
 90
6
 70
0
 10
18.1049373922
 20
10.8574097354
 10
18.103523794
 20
10.8592212956
 10
18.1010752791
 20
10.8618870087
 10
18.0983912258
 20
10.8642829677
 10
18.0954840201
 20
10.8664033017
 10
18.0944448343
 20
10.8670634988
  0
LINE
  5
4C9
100
AcDbEntity
  8
SMUSSO
100
AcDbLine
 62
7
  6
CONTINUOUS
 10
14.070461968
 20
30.0069246714
 11
14.2599737992
 21
29.0460114421
  0
LINE
  5
4CA
100
AcDbEntity
  8
SMUSSO
100
AcDbLine
 62
7
  6
CONTINUOUS
 10
21.3310416111
 20
25.5104775362
 11
21.3310416111
 21
25.0714068443
  0
LINE
  5
4CB
100
AcDbEntity
  8
ASSI
100
AcDbLine
 62
7
  6
CONTINUOUS
 10
22.2662151689
 20
12.9343486973
 11
22.2662151689
 21
15.8475499306
  0
LINE
  5
4CC
100
AcDbEntity
  8
ASSI
100
AcDbLine
 62
7
  6
CONTINUOUS
 10
22.2662151689
 20
17.2644757162
 11
22.2662151689
 21
20.1776769495
  0
LINE
  5
4CD
100
AcDbEntity
  8
DRAFT
100
AcDbLine
 62
7
  6
CONTINUOUS
 10
22.3722811861
 20
10.6707206323
 11
22.3722811861
 21
9.538938424
  0
LINE
  5
4CE
100
AcDbEntity
  8
DRAFT
100
AcDbLine
 62
7
  6
CONTINUOUS
 10
22.3722811861
 20
6.3405936133
 11
22.3722811861
 21
5.2088114051
  0
LINE
  5
4CF
100
AcDbEntity
  8
DRAFT
100
AcDbLine
 62
7
  6
CONTINUOUS
 10
22.3722811861
 20
2.0104665944
 11
22.3722811861
 21
0.8786843862
  0
LINE
  5
4D0
100
AcDbEntity
  8
DRAFT
100
AcDbLine
 62
7
  6
CONTINUOUS
 10
22.3722811861
 20
-2.3196604245
 11
22.3722811861
 21
-3.4514426328
  0
LINE
  5
4D1
100
AcDbEntity
  8
RACCORDO
100
AcDbLine
 62
7
  6
CONTINUOUS
 10
23.7411836592
 20
-7.7222982201
 11
23.7136870074
 21
-7.7422262775
  0
LWPOLYLINE
  5
4D2
100
AcDbEntity
  8
ASSI
100
AcDbPolyline
 62
253
  6
CONTINUOUS
 90
17
 70
0
 10
-1.4466609577
 20
-25.6145092368
 10
-1.439943321
 20
-25.6100636599
 10
-1.4335722761
 20
-25.6050288639
 10
-1.4275653275
 20
-25.5994186611
 10
-1.4219389738
 20
-25.5932484493
 10
-1.4167086506
 20
-25.5865351521
 10
-1.4118886955
 20
-25.5792971671
 10
-1.4074923288
 20
-25.5715543408
 10
-1.4035316071
 20
-25.5633279002
 10
-1.400017394
 20
-25.5546404015
 10
-1.3969593305
 20
-25.5455156725
 10
-1.3943658016
 20
-25.5359787267
 10
-1.392243922
 20
-25.5260557196
 10
-1.3905995154
 20
-25.5157738898
 10
-1.3894370885
 20
-25.5051614433
 10
-1.388759824
 20
-25.494247472
 10
-1.3885695759
 20
-25.4830619041
  0
LWPOLYLINE
  5
4D3
100
AcDbEntity
  8
ASSI
100
AcDbPolyline
 62
253
  6
CONTINUOUS
 90
34
 70
0
 10
-7.7529299306
 20
-25.6960475242
 10
-7.7702242623
 20
-25.7048510804
 10
-7.7882497235
 20
-25.7132367434
 10
-7.8069663821
 20
-25.7211859365
 10
-7.826332775
 20
-25.7286810496
 10
-7.8463059995
 20
-25.7357054788
 10
-7.8668418088
 20
-25.7422436627
 10
-7.8878947096
 20
-25.7482811174
 10
-7.9094180633
 20
-25.7538044679
 10
-7.9313641889
 20
-25.7588014782
 10
-7.9536844689
 20
-25.7632610786
 10
-7.9763294569
 20
-25.7671733894
 10
-7.9992489874
 20
-25.7705297439
 10
-8.0223922863
 20
-25.7733227065
 10
-8.0457080841
 20
-25.7755460901
 10
-8.069144729
 20
-25.7771949691
 10
-8.0926503016
 20
-25.7782656908
 10
-8.1161727298
 20
-25.7787558832
 10
-8.139659904
 20
-25.7786644603
 10
-8.1630597928
 20
-25.7779916246
 10
-8.1863205582
 20
-25.7767388668
 10
-8.2093906705
 20
-25.7749089621
 10
-8.232219022
 20
-25.7725059642
 10
-8.254755041
 20
-25.7695351966
 10
-8.2769488031
 20
-25.7660032404
 10
-8.2987511423
 20
-25.7619179201
 10
-8.3201137595
 20
-25.7572882858
 10
-8.34098933
 20
-25.7521245936
 10
-8.3613316079
 20
-25.7464382828
 10
-8.3810955287
 20
-25.7402419503
 10
-8.4002373091
 20
-25.7335493229
 10
-8.4187145442
 20
-25.7263752268
 10
-8.4364863012
 20
-25.7187355548
 10
-8.45351321
 20
-25.7106472314
  0
LINE
  5
4D4
100
AcDbEntity
  8
ASSI
100
AcDbLine
 62
7
  6
CONTINUOUS
 10
2.8180007245
 20
-19.3664597891
 11
-0.8561765759
 21
-21.2106923284
  0
LINE
  5
4D5
100
AcDbEntity
  8
ASSI
100
AcDbLine
 62
7
  6
CONTINUOUS
 10
3.6995361831
 20
-18.807030745
 11
-0.8561765759
 21
-21.0666978586
  0
LINE
  5
4D6
100
AcDbEntity
  8
ASSI
100
AcDbLine
 62
253
  6
CONTINUOUS
 10
-1.5740529988
 20
-23.8886565443
 11
-0.8561765759
 21
-23.534492777
  0
LWPOLYLINE
  5
4D7
100
AcDbEntity
  8
ASSI
100
AcDbPolyline
 62
7
  6
CONTINUOUS
 90
16
 70
0
 10
-7.1716392073
 20
23.7992154519
 10
-7.1594701695
 20
23.8025802102
 10
-7.1467363818
 20
23.805182767
 10
-7.1334454573
 20
23.8070073214
 10
-7.1196014469
 20
23.8080507858
 10
-7.1052204528
 20
23.808284052
 10
-7.0903321746
 20
23.8076531272
 10
-7.074956961
 20
23.8061379433
 10
-7.0591085316
 20
23.8037287494
 10
-7.0428109145
 20
23.8003884468
 10
-7.0261212878
 20
23.7961134866
 10
-7.0090287004
 20
23.7908806489
 10
-6.9914531508
 20
23.7846174434
 10
-6.9734019249
 20
23.7773019984
 10
-6.9549166467
 20
23.7689153548
 10
-6.9466297479
 20
23.7648618953
  0
LWPOLYLINE
  5
4D8
100
AcDbEntity
  8
ASSI
100
AcDbPolyline
 62
7
  6
CONTINUOUS
 90
9
 70
0
 10
-6.4872490998
 20
23.5172909687
 10
-6.4955364276
 20
23.5158191632
 10
-6.5044118612
 20
23.5139781419
 10
-6.513848226
 20
23.5117705494
 10
-6.5238128516
 20
23.5092111777
 10
-6.5342609136
 20
23.5063488983
 10
-6.5451547213
 20
23.5032030525
 10
-6.5564664318
 20
23.4997643846
 10
-6.5681639324
 20
23.4960366968
  0
LINE
  5
4D9
100
AcDbEntity
  8
DRAFT
100
AcDbLine
 62
7
  6
CONTINUOUS
 10
22.3891973449
 20
17.2029846282
 11
22.2662151689
 21
17.2644757162
  0
LWPOLYLINE
  5
4DA
100
AcDbEntity
  8
RACCORDO
100
AcDbPolyline
 62
7
  6
CONTINUOUS
 90
6
 70
0
 10
18.1049373922
 20
15.1875367544
 10
18.103523794
 20
15.1893483145
 10
18.1010752791
 20
15.1920140276
 10
18.0983912258
 20
15.1944099866
 10
18.0954840201
 20
15.1965303206
 10
18.0944448343
 20
15.1971905178
  0
LINE
  5
4DB
100
AcDbEntity
  8
SMUSSO
100
AcDbLine
 62
7
  6
CONTINUOUS
 10
17.605995874
 20
28.2391577184
 11
17.7955077052
 21
27.2782444892
  0
LINE
  5
4DC
100
AcDbEntity
  8
ASSI
100
AcDbLine
 62
7
  6
CONTINUOUS
 10
23.3268753407
 20
13.4646787832
 11
23.3268753407
 21
16.3967228108
  0
LINE
  5
4DD
100
AcDbEntity
  8
ASSI
100
AcDbLine
 62
7
  6
CONTINUOUS
 10
23.3268753407
 20
17.7948058021
 11
23.3268753407
 21
20.7268498297
  0
LINE
  5
4DE
100
AcDbEntity
  8
DRAFT
100
AcDbLine
 62
7
  6
CONTINUOUS
 10
23.4329413579
 20
11.2314314416
 11
23.4329413579
 21
10.0579319761
  0
LINE
  5
4DF
100
AcDbEntity
  8
DRAFT
100
AcDbLine
 62
7
  6
CONTINUOUS
 10
23.4329413579
 20
6.9013044227
 11
23.4329413579
 21
5.7278049572
  0
LINE
  5
4E0
100
AcDbEntity
  8
DRAFT
100
AcDbLine
 62
7
  6
CONTINUOUS
 10
23.4329413579
 20
2.5711774038
 11
23.4329413579
 21
1.3976779383
  0
LINE
  5
4E1
100
AcDbEntity
  8
DRAFT
100
AcDbLine
 62
7
  6
CONTINUOUS
 10
23.4329413579
 20
-1.7589496152
 11
23.4329413579
 21
-2.9324490807
  0
LINE
  5
4E2
100
AcDbEntity
  8
RACCORDO
100
AcDbLine
 62
7
  6
CONTINUOUS
 10
24.1553341349
 20
23.4526395323
 11
24.1553341349
 21
21.277690722
  0
LINE
  5
4E3
100
AcDbEntity
  8
RACCORDO
100
AcDbLine
 62
7
  6
CONTINUOUS
 10
24.1553341349
 20
17.1207687839
 11
24.1553341349
 21
16.9475637031
  0
LINE
  5
4E4
100
AcDbEntity
  8
RACCORDO
100
AcDbLine
 62
7
  6
CONTINUOUS
 10
24.1553341349
 20
12.7906417649
 11
24.1553341349
 21
11.6133194859
  0
LINE
  5
4E5
100
AcDbEntity
  8
SMUSSO
100
AcDbLine
 62
7
  6
CONTINUOUS
 10
24.1553341349
 20
9.4646319443
 11
24.1553341349
 21
7.283192467
  0
LINE
  5
4E6
100
AcDbEntity
  8
SMUSSO
100
AcDbLine
 62
7
  6
CONTINUOUS
 10
24.1553341349
 20
5.1345049254
 11
24.1553341349
 21
2.9530654481
  0
LINE
  5
4E7
100
AcDbEntity
  8
SMUSSO
100
AcDbLine
 62
7
  6
CONTINUOUS
 10
24.1553341349
 20
0.8043779064
 11
24.1553341349
 21
-1.3770615709
  0
LINE
  5
4E8
100
AcDbEntity
  8
SMUSSO
100
AcDbLine
 62
7
  6
CONTINUOUS
 10
24.1553341349
 20
-3.5257491125
 11
24.1553341349
 21
-6.7048151211
  0
LWPOLYLINE
  5
4E9
100
AcDbEntity
  8
ASSI
100
AcDbPolyline
 62
7
  6
CONTINUOUS
 90
4
 70
0
 10
-1.4523379573
 20
-25.6176668836
 10
-1.4314511763
 20
-25.6056564836
 10
-1.4104860507
 20
-25.5906365947
 10
-1.3911412327
 20
-25.5734987688
  0
LINE
  5
4EA
100
AcDbEntity
  8
ASSI
100
AcDbLine
 62
253
  6
CONTINUOUS
 10
-1.4522576134
 20
-25.6176257144
 11
-1.4466609577
 21
-25.6145092368
  0
LWPOLYLINE
  5
4EB
100
AcDbEntity
  8
ASSI
100
AcDbPolyline
 62
253
  6
CONTINUOUS
 90
18
 70
0
 10
-3.5843791311
 20
-26.6699581886
 10
-3.5770325973
 20
-26.6659642453
 10
-3.5703214417
 20
-26.6615195071
 10
-3.5639488899
 20
-26.6564818955
 10
-3.5579324077
 20
-26.6508652176
 10
-3.5522884852
 20
-26.6446848678
 10
-3.5470325914
 20
-26.6379577851
 10
-3.5421791316
 20
-26.6307024073
 10
-3.5377414084
 20
-26.62293862
 10
-3.5337315845
 20
-26.6146877023
 10
-3.5301606503
 20
-26.6059722683
 10
-3.527038393
 20
-26.5968162055
 10
-3.5243733701
 20
-26.587244609
 10
-3.522172886
 20
-26.5772837126
 10
-3.5204429717
 20
-26.5669608173
 10
-3.5191883686
 20
-26.5563042163
 10
-3.5184125154
 20
-26.5453431172
 10
-3.5181175385
 20
-26.5341075624
  0
LWPOLYLINE
  5
4EC
100
AcDbEntity
  8
ASSI
100
AcDbPolyline
 62
7
  6
CONTINUOUS
 90
20
 70
0
 10
-1.9809418454
 20
-25.8888507329
 10
-1.9778479579
 20
-25.8871896318
 10
-1.9716222861
 20
-25.883371022
 10
-1.9656729482
 20
-25.8790592699
 10
-1.9600134239
 20
-25.8742641448
 10
-1.9546565633
 20
-25.8689965239
 10
-1.9496144933
 20
-25.8632683365
 10
-1.9448985927
 20
-25.85709254
 10
-1.9405195954
 20
-25.8504831506
 10
-1.9364874352
 20
-25.8434551483
 10
-1.932811158
 20
-25.8360244144
 10
-1.9294991631
 20
-25.8282078183
 10
-1.9265589888
 20
-25.8200230857
 10
-1.9239971643
 20
-25.8114886974
 10
-1.9218195829
 20
-25.8026240324
 10
-1.9200312347
 20
-25.7934492008
 10
-1.9186359991
 20
-25.783984906
 10
-1.9176370411
 20
-25.7742525916
 10
-1.9170368037
 20
-25.7642743925
 10
-1.9168367477
 20
-25.7540729627
  0
LINE
  5
4ED
100
AcDbEntity
  8
ASSI
100
AcDbLine
 62
253
  6
CONTINUOUS
 10
-1.3885695759
 20
-25.4830619041
 11
-1.9168367477
 21
-25.7540729627
  0
LINE
  5
4EE
100
AcDbEntity
  8
ASSI
100
AcDbLine
 62
7
  6
CONTINUOUS
 10
-1.4522576134
 20
-25.6176257144
 11
-1.9809418474
 21
-25.8888507338
  0
LINE
  5
4EF
100
AcDbEntity
  8
ASSI
100
AcDbLine
 62
7
  6
CONTINUOUS
 10
-1.982678262
 20
-25.8897189555
 11
-1.9809418454
 21
-25.8888507329
  0
LINE
  5
4F0
100
AcDbEntity
  8
ASSI
100
AcDbLine
 62
7
  6
CONTINUOUS
 10
-1.7086975924
 20
-24.1614315852
 11
-0.9870488436
 21
-23.8054067439
  0
LINE
  5
4F1
100
AcDbEntity
  8
ASSI
100
AcDbLine
 62
253
  6
CONTINUOUS
 10
-1.9168367477
 20
-25.7540729627
 11
-3.5181175385
 21
-26.5341075624
  0
LINE
  5
4F2
100
AcDbEntity
  8
ASSI
100
AcDbLine
 62
7
  6
CONTINUOUS
 10
-1.9826782612
 20
-25.8897189551
 11
-3.5843791311
 21
-26.6699581886
  0
LINE
  5
4F3
100
AcDbEntity
  8
ASSI
100
AcDbLine
 62
7
  6
CONTINUOUS
 10
-1.7086109126
 20
-24.161388794
 11
-1.7190864548
 21
-24.1661693499
  0
LINE
  5
4F4
100
AcDbEntity
  8
ASSI
100
AcDbLine
 62
253
  6
CONTINUOUS
 10
-7.0717422713
 20
-26.1963631923
 11
-1.5740529988
 21
-23.8886565443
  0
LINE
  5
4F5
100
AcDbEntity
  8
ASSI
100
AcDbLine
 62
7
  6
CONTINUOUS
 10
-1.7190867891
 20
-24.1661695026
 11
-7.2257337068
 21
-26.4776360962
  0
LINE
  5
4F6
100
AcDbEntity
  8
RACCORDO
100
AcDbLine
 62
7
  6
CONTINUOUS
 10
23.9431697869
 20
17.486658579
 11
23.3268753407
 21
17.7948058021
  0
LINE
  5
4F7
100
AcDbEntity
  8
SMUSSO
100
AcDbLine
 62
7
  6
CONTINUOUS
 10
21.1415297799
 20
26.4713907655
 11
21.3310416111
 21
25.5104775362
  0
LWPOLYLINE
  5
4F8
100
AcDbEntity
  8
ASSI
100
AcDbPolyline
 62
7
  6
CONTINUOUS
 90
9
 70
0
 10
-3.5843791311
 20
-26.6699581886
 10
-3.6126008234
 20
-26.6816299626
 10
-3.6424649998
 20
-26.6898654061
 10
-3.6734665454
 20
-26.6943730871
 10
-3.7051613837
 20
-26.6949509855
 10
-3.736810261
 20
-26.6914898876
 10
-3.7675623056
 20
-26.6840963888
 10
-3.7972534507
 20
-26.6728252847
 10
-3.8058260597
 20
-26.668733169
  0
LINE
  5
4F9
100
AcDbEntity
  8
IMPORT_IGES
100
AcDbLine
 62
7
  6
CONTINUOUS
 10
17.9459188677
 20
23.266919368
 11
17.7959662336
 21
23.341895685
  0
LINE
  5
4FA
100
AcDbEntity
  8
IMPORT_IGES
100
AcDbLine
 62
7
  6
CONTINUOUS
 10
14.4103849618
 20
25.0346863209
 11
14.2604323277
 21
25.109662638
  0
LINE
  5
4FB
100
AcDbEntity
  8
DRAFT
100
AcDbLine
 62
7
  6
CONTINUOUS
 10
13.2085698685
 20
28.0719825438
 11
13.3861891632
 21
27.9831728965
  0
LINE
  5
4FC
100
AcDbEntity
  8
DRAFT
100
AcDbLine
 62
7
  6
CONTINUOUS
 10
16.7441037745
 20
26.3042155909
 11
16.9217230691
 21
26.2154059435
  0
LINE
  5
4FD
100
AcDbEntity
  8
DRAFT
100
AcDbLine
 62
7
  6
CONTINUOUS
 10
20.2796376804
 20
24.5364486379
 11
20.457256975
 21
24.4476389906
  0
LINE
  5
4FE
100
AcDbEntity
  8
DRAFT
100
AcDbLine
 62
7
  6
CONTINUOUS
 10
14.2599737992
 20
28.6069407503
 11
14.4794779041
 21
28.4971886978
  0
LINE
  5
4FF
100
AcDbEntity
  8
DRAFT
100
AcDbLine
 62
7
  6
CONTINUOUS
 10
17.7955077052
 20
26.8391737973
 11
18.01501181
 21
26.7294217449
  0
LINE
  5
500
100
AcDbEntity
  8
DRAFT
100
AcDbLine
 62
7
  6
CONTINUOUS
 10
21.3310416111
 20
25.0714068443
 11
21.550545716
 21
24.9616547919
  0
LINE
  5
501
100
AcDbEntity
  8
SMUSSO
100
AcDbLine
 62
7
  6
CONTINUOUS
 10
10.2170907134
 20
31.9336102987
 11
14.070461968
 21
30.0069246714
  0
LINE
  5
502
100
AcDbEntity
  8
SMUSSO
100
AcDbLine
 62
7
  6
CONTINUOUS
 10
15.8248579993
 20
29.1297266558
 11
17.605995874
 21
28.2391577184
  0
LINE
  5
503
100
AcDbEntity
  8
SMUSSO
100
AcDbLine
 62
7
  6
CONTINUOUS
 10
19.3603919052
 20
27.3619597028
 11
21.1415297799
 21
26.4713907655
  0
LINE
  5
504
100
AcDbEntity
  8
SMUSSO
100
AcDbLine
 62
7
  6
CONTINUOUS
 10
22.8959258111
 20
25.5941927499
 11
23.2137631598
 21
25.4352740755
  0
LINE
  5
505
100
AcDbEntity
  8
RACCORDO
100
AcDbLine
 62
7
  6
CONTINUOUS
 10
23.7136870074
 20
24.9316978162
 11
23.7411836592
 21
24.884273107
  0
ELLIPSE
  5
506
100
AcDbEntity
  8
ASSI
100
AcDbEllipse
 62
7
  6
CONTINUOUS
 10
-7.2246392438
 20
23.344845517
 30
0.0
 11
0.2257019663
 21
0.4461636818
 31
0.0
 40
0.6159267166
 41
0.5380090616
 42
0.6817883054
  0
ELLIPSE
  5
507
100
AcDbEntity
  8
ASSI
100
AcDbEllipse
 62
7
  6
CONTINUOUS
 10
-1.2097838226
 20
14.5590092269
 30
0.0
 11
-0.2237046003
 21
0.4472532382
 31
0.0
 40
0.6122950388
 41
-2.2557482655
 42
-0.6847996396
  0
ELLIPSE
  5
508
100
AcDbEntity
  8
ASSI
100
AcDbEllipse
 62
7
  6
CONTINUOUS
 10
-1.2097838226
 20
-23.3577551036
 30
0.0
 11
-0.2236445579
 21
0.4471998343
 31
0.0
 40
0.6124778111
 41
-3.144909013
 42
-2.255529033
  0
ELLIPSE
  5
509
100
AcDbEntity
  8
ASSI
100
AcDbEllipse
 62
7
  6
CONTINUOUS
 10
3.5189099888
 20
-18.8570925855
 30
0.0
 11
0.9987332359
 21
0.6172510855
 31
0.0
 40
0.0815198604
 41
-2.3978073241
 42
-1.2985018509
  0
ELLIPSE
  5
50A
100
AcDbEntity
  8
ASSI
100
AcDbEllipse
 62
7
  6
CONTINUOUS
 10
-8.2718222996
 20
23.952941103
 30
0.0
 11
0.9987332359
 21
0.6172510855
 31
0.0
 40
0.0815198604
 41
0.0503395054
 42
0.7263320369
  0
ELLIPSE
  5
50B
100
AcDbEntity
  8
ASSI
100
AcDbEllipse
 62
7
  6
CONTINUOUS
 10
-16.0235847187
 20
-7.8815976276
 30
0.0
 11
-0.1341484654
 21
0.2683369961
 31
0.0
 40
0.6125552124
 41
7.1694817727
 42
8.739973513
  0
ELLIPSE
  5
50C
100
AcDbEntity
  8
ASSI
100
AcDbEllipse
 62
7
  6
CONTINUOUS
 10
-12.5567309077
 20
20.8223258483
 30
0.0
 11
0.4999985559
 21
0.0023864752
 31
0.0
 40
0.5035541159
 41
2.3596088132
 42
3.0002042076
  0
ELLIPSE
  5
50D
100
AcDbEntity
  8
ASSI
100
AcDbEllipse
 62
7
  6
CONTINUOUS
 10
-6.8707844128
 20
22.4199963399
 30
0.0
 11
0.4279673669
 21
-0.0030279657
 31
0.0
 40
0.4946372042
 41
5.5012867993
 42
6.2866849573
  0
ELLIPSE
  5
50E
100
AcDbEntity
  8
ASSI
100
AcDbEllipse
 62
7
  6
CONTINUOUS
 10
-1.3157959836
 20
19.6425021254
 30
0.0
 11
0.4279673669
 21
-0.0030279657
 31
0.0
 40
0.4946372042
 41
-0.7760807437
 42
0.0034996507
  0
ELLIPSE
  5
50F
100
AcDbEntity
  8
ASSI
100
AcDbEllipse
 62
7
  6
CONTINUOUS
 10
3.3398662829
 20
19.1529457647
 30
0.0
 11
-0.3708957
 21
0.6001218488
 31
0.0
 40
0.5587454355
 41
-3.1744788413
 42
-2.2817038581
  0
ELLIPSE
  5
510
100
AcDbEntity
  8
ASSI
100
AcDbEllipse
 62
7
  6
CONTINUOUS
 10
3.5189099888
 20
18.0575749588
 30
0.0
 11
-0.7417913999
 21
1.2002436976
 31
0.0
 40
0.5587454355
 41
5.1248137075
 42
6.2241191807
  0
ELLIPSE
  5
511
100
AcDbEntity
  8
ASSI
100
AcDbEllipse
 62
7
  6
CONTINUOUS
 10
3.3398662829
 20
-19.0663129044
 30
0.0
 11
0.499366618
 21
0.3086255427
 31
0.0
 40
0.0815198604
 41
6.1080157147
 42
7.0007906979
  0
ELLIPSE
  5
512
100
AcDbEntity
  8
ASSI
100
AcDbEllipse
 62
7
  6
CONTINUOUS
 10
-2.9826421947
 20
14.2383019496
 30
0.0
 11
0.249929385
 21
0.0111824824
 31
0.0
 40
0.5313301283
 41
-2.3799630874
 42
-1.3352760237
  0
ELLIPSE
  5
513
100
AcDbEntity
  8
ASSI
100
AcDbEllipse
 62
7
  6
CONTINUOUS
 10
-4.3158545284
 20
14.9049081164
 30
0.0
 11
0.249929385
 21
0.0111824824
 31
0.0
 40
0.5313301283
 41
3.1178240563
 42
3.9032222197
  0
ELLIPSE
  5
514
100
AcDbEntity
  8
ASSI
100
AcDbEllipse
 62
7
  6
CONTINUOUS
 10
-16.3469603592
 20
20.9204610318
 30
0.0
 11
0.249929385
 21
0.0111824824
 31
0.0
 40
0.5313301283
 41
-2.3799630874
 42
-0.8149845248
  0
ELLIPSE
  5
515
100
AcDbEntity
  8
ASSI
100
AcDbEllipse
 62
7
  6
CONTINUOUS
 10
-17.6801726928
 20
21.5870671986
 30
0.0
 11
0.249929385
 21
0.0111824824
 31
0.0
 40
0.5313301283
 41
3.1178240624
 42
3.9032222197
  0
ELLIPSE
  5
516
100
AcDbEntity
  8
ASSI
100
AcDbEllipse
 62
7
  6
CONTINUOUS
 10
-1.063806973
 20
20.2644293816
 30
0.0
 11
0.221538876
 21
0.4482453432
 31
0.0
 40
0.6088015717
 41
0.5323082896
 42
0.6760875334
  0
ELLIPSE
  5
517
100
AcDbEntity
  8
ASSI
100
AcDbEllipse
 62
7
  6
CONTINUOUS
 10
-7.045423808
 20
18.0666722985
 30
0.0
 11
0.4999985559
 21
0.0023864752
 31
0.0
 40
0.5035541159
 41
-1.4342147631
 42
-0.7936193687
  0
ELLIPSE
  5
518
100
AcDbEntity
  8
ASSI
100
AcDbEllipse
 62
7
  6
CONTINUOUS
 10
-7.045423808
 20
16.8340626933
 30
0.0
 11
0.4998587701
 21
0.0223649649
 31
0.0
 40
0.5313301283
 41
-2.3799630874
 42
-0.8149845248
  0
ELLIPSE
  5
519
100
AcDbEntity
  8
ASSI
100
AcDbEllipse
 62
7
  6
CONTINUOUS
 10
-12.5567309077
 20
19.5897162431
 30
0.0
 11
0.4998587701
 21
0.0223649649
 31
0.0
 40
0.5313301283
 41
3.1178240551
 42
3.9032222197
  0
ELLIPSE
  5
51A
100
AcDbEntity
  8
CURVE
100
AcDbEllipse
 62
253
  6
CONTINUOUS
 10
336.7224602395
 20
172.7632744214
 30
0.0
 11
-101.5496885295
 21
544.8649953708
 31
0.0
 40
0.699193702
 41
-4.4887474921
 42
-4.4873607025
  0
ELLIPSE
  5
51B
100
AcDbEntity
  8
CURVE
100
AcDbEllipse
 62
253
  6
CONTINUOUS
 10
328.745117954
 20
176.7519455642
 30
0.0
 11
-370.895699963
 21
600.1218488206
 31
0.0
 40
0.5587454355
 41
1.5537706865
 42
1.5555851199
  0
ELLIPSE
  5
51C
100
AcDbEntity
  8
CURVE
100
AcDbEllipse
 62
253
  6
CONTINUOUS
 10
345.7276133581
 20
168.2606978621
 30
0.0
 11
376.1829474988
 21
367.3396316983
 31
0.0
 40
0.3283734091
 41
-3.8886653795
 42
-3.8872785899
  0
ELLIPSE
  5
51D
100
AcDbEntity
  8
CURVE
100
AcDbEllipse
 62
253
  6
CONTINUOUS
 10
352.9778441068
 20
164.6355824878
 30
0.0
 11
499.4649885713
 21
308.578552707
 31
0.0
 40
0.0813647484
 41
2.3371327776
 42
2.3389348124
  0
ELLIPSE
  5
51E
100
AcDbEntity
  8
RACCORDO
100
AcDbEllipse
 62
7
  6
CONTINUOUS
 10
23.9431697869
 20
17.2268509579
 30
0.0
 11
-0.1342114942
 21
0.268324886
 31
0.0
 40
0.6123910759
 41
-2.2556797026
 42
-0.6848833758
  0
ELLIPSE
  5
51F
100
AcDbEntity
  8
RACCORDO
100
AcDbEllipse
 62
7
  6
CONTINUOUS
 10
23.9431697869
 20
21.383772896
 30
0.0
 11
-0.1342114942
 21
0.268324886
 31
0.0
 40
0.6123910759
 41
-3.1330404636
 42
-2.2556797026
  0
ELLIPSE
  5
520
100
AcDbEntity
  8
RACCORDO
100
AcDbEllipse
 62
7
  6
CONTINUOUS
 10
23.2136739349
 20
24.5691613642
 30
0.0
 11
-0.447101003
 21
0.8945282396
 31
0.0
 40
0.6124326778
 41
-1.4698904957
 42
-0.6846185041
  0
ELLIPSE
  5
521
100
AcDbEntity
  8
RACCORDO
100
AcDbEllipse
 62
7
  6
CONTINUOUS
 10
23.2136739349
 20
-6.879676753
 30
0.0
 11
-0.4472005764
 21
0.894616689
 31
0.0
 40
0.6122812743
 41
-3.1275803462
 42
-3.040868577
  0
ELLIPSE
  5
522
100
AcDbEntity
  8
RACCORDO
100
AcDbEllipse
 62
7
  6
CONTINUOUS
 10
23.9431697869
 20
12.8967239389
 30
0.0
 11
-0.1342114942
 21
0.268324886
 31
0.0
 40
0.6123910759
 41
-2.2556797026
 42
-0.6848833758
  0
ELLIPSE
  5
523
100
AcDbEntity
  8
RACCORDO
100
AcDbEllipse
 62
7
  6
CONTINUOUS
 10
23.9431697869
 20
17.0536458771
 30
0.0
 11
-0.1342114942
 21
0.268324886
 31
0.0
 40
0.6123910759
 41
-3.1330404636
 42
-2.2556797026
  0
ELLIPSE
  5
524
100
AcDbEntity
  8
RACCORDO
100
AcDbEllipse
 62
7
  6
CONTINUOUS
 10
10.2171799383
 20
31.0674083625
 30
0.0
 11
-0.4472005764
 21
0.894616689
 31
0.0
 40
0.6122812743
 41
-0.684547915
 42
-0.0140123073
  0
ELLIPSE
  5
525
100
AcDbEntity
  8
RACCORDO
100
AcDbEllipse
 62
7
  6
CONTINUOUS
 10
22.7409051481
 20
24.1596354702
 30
0.0
 11
-0.894612936
 21
1.7887945813
 31
0.0
 40
0.6124635976
 41
-2.2555607096
 42
-1.470288718
  0
ELLIPSE
  5
526
100
AcDbEntity
  8
RACCORDO
100
AcDbEllipse
 62
7
  6
CONTINUOUS
 10
22.7409051481
 20
-5.9973820722
 30
0.0
 11
-0.894811907
 21
1.788971565
 31
0.0
 40
0.6123121697
 41
-3.0410143285
 42
-2.2557423369
  0
ELLIPSE
  5
527
100
AcDbEntity
  8
RACCORDO
100
AcDbEllipse
 62
7
  6
CONTINUOUS
 10
-7.9141711408
 20
19.5045064921
 30
0.0
 11
0.92906458
 21
0.8945128843
 31
0.0
 40
0.2904497238
 41
0.1026084894
 42
0.108848247
  0
ENDSEC
  0
SECTION
  2
OBJECTS
  0
DICTIONARY
  5
C
100
AcDbDictionary
280
0
281
1
  3
ACAD_GROUP
350
D
  3
ACAD_MLINESTYLE
350
17
  3
ACAD_LAYOUT
350
1A
  3
ACAD_PLOTSETTINGS
350
19
  3
ACAD_PLOTSTYLENAME
350
E
  0
DICTIONARY
  5
D
102
{ACAD_REACTORS
330
C
102
}
100
AcDbDictionary
280
0
281
1
  0
ACDBDICTIONARYWDFLT
  5
E
102
{ACAD_REACTORS
330
C
102
}
100
AcDbDictionary
281
1
  3
Normal
350
F
100
AcDbDictionaryWithDefault
340
F
  0
DICTIONARY
  5
17
102
{ACAD_REACTORS
330
C
102
}
100
AcDbDictionary
280
0
281
1
  3
Standard
350
18
  0
DICTIONARY
  5
19
102
{ACAD_REACTORS
330
C
102
}
100
AcDbDictionary
281
1
  0
DICTIONARY
  5
1A
102
{ACAD_REACTORS
330
C
102
}
100
AcDbDictionary
281
1
  3
Model
350
528
  3
Layout1
350
529
  0
ACDBPLACEHOLDER
  5
F
102
{ACAD_REACTORS
330
E
102
}
  0
MLINESTYLE
  5
18
102
{ACAD_REACTORS
330
17
102
}
100
AcDbMlineStyle
  2
STANDARD
 70
0
  3

 62
256
 51
90.0
 52
90.0
 71
2
 49
0.5
 62
256
  6
BYLAYER
 49
-0.5
 62
256
  6
BYLAYER
  0
LAYOUT
  5
528
102
{ACAD_REACTORS
330
1A
102
}
100
AcDbPlotSettings
  1

  2
none_device
  4
ISO_A4_(297.00_x_210.00_MM)
  6

 40
0.0
 41
0.0
 42
0.0
 43
0.0
 44
297.0
 45
210.0
 46
0.0
 47
0.0
 48
0.0
 49
0.0
140
0.0
141
0.0
142
1.0
143
1.0
 70
1024
 72
1
 73
0
 74
0
  7

 75
0
147
1.0
148
0.0
149
0.0
100
AcDbLayout
  1
Model
 70
0
 71
0
 10
0.0
 20
0.0
 11
297.0
 21
210.0
 12
0.0
 22
0.0
 32
0.0
 14
0.0
 24
0.0
 34
0.0
 15
0.0
 25
0.0
 35
0.0
146
0.0
 13
0.0
 23
0.0
 33
0.0
 16
1.0
 26
0.0
 36
0.0
 17
0.0
 27
1.0
 37
0.0
 76
0
330
25B
345
0
346
0
  0
LAYOUT
  5
529
102
{ACAD_REACTORS
330
1A
102
}
100
AcDbPlotSettings
  1

  2
none_device
  4
ISO_A4_(297.00_x_210.00_MM)
  6

 40
0.0
 41
0.0
 42
0.0
 43
0.0
 44
297.0
 45
210.0
 46
0.0
 47
0.0
 48
0.0
 49
0.0
140
0.0
141
0.0
142
1.0
143
1.0
 70
0
 72
1
 73
0
 74
0
  7

 75
0
147
1.0
148
0.0
149
0.0
100
AcDbLayout
  1
Layout1
 70
0
 71
1
 10
0.0
 20
0.0
 11
297.0
 21
210.0
 12
0.0
 22
0.0
 32
0.0
 14
0.0
 24
0.0
 34
0.0
 15
0.0
 25
0.0
 35
0.0
146
0.0
 13
0.0
 23
0.0
 33
0.0
 16
1.0
 26
0.0
 36
0.0
 17
0.0
 27
1.0
 37
0.0
 76
0
330
25C
345
0
346
0
  0
ENDSEC
  0
EOF
