  0
SECTION
  2
HEADER
  9
$ACADVER
  1
AC1021
  9
$DWGCODEPAGE
  3
ANSI_1252
  9
$EXTMAX
 10
297.0
 20
210.0
 30
0.0
  9
$EXTMIN
 10
0.0
 20
0.0
 30
0.0
  9
$LIMMIN
 10
0.0
 20
0.0
  9
$LIMMAX
 10
297.0
 20
210.0
  9
$VIEWCTR
 10
148.5
 20
105.0
  9
$VIEWSIZE
 40
210.0
  9
$CLAYER
  8
0
  9
$LTSCALE
 40
16.335
  9
$CELTYPE
  6
BYLAYER
  9
$DIMSCALE
 40
1.0
  9
$DIMASZ
 40
3.0
  9
$DIMEXO
 40
0.5
  9
$DIMDLI
 40
11.286
  9
$DIMEXE
 40
1.5
  9
$DIMCEN
 40
2.673
  9
$DIMLFAC
 40
1.0
  9
$DIMBLK
  1
_FILLED
  9
$DIMALT
 70
0
  9
$DIMALTF
 40
25.4
  9
$DIMTXT
 40
3.0
  9
$DIMTOL
 70
1
  9
$DIMLIM
 70
0
  9
$DIMTFAC
 40
1.0
  9
$DIMTP
 40
0.01
  9
$DIMTM
 40
0.01
  9
$DIMGAP
 40
0.625
  9
$DIMDSEP
 70
44
  9
$AUNITS
 70
0
  9
$PDMODE
 70
3
  9
$PDSIZE
 40
3.0
  9
$HANDSEED
  5
2AE
  9
$TILEMODE
 70
1
  9
$MEASUREMENT
 70
1
  9
$INSUNITS
 70
4
  0
ENDSEC
  0
SECTION
  2
CLASSES
  0
CLASS
  1
ACDBDICTIONARYWDFLT
  2
AcDbDictionaryWithDefault
  3
AutoCAD 2000
 90
0
 91
1
280
0
281
0
  0
CLASS
  1
ACDBPLACEHOLDER
  2
AcDbPlaceHolder
  3
AutoCAD 2000
 90
0
 91
1
280
0
281
0
  0
CLASS
  1
LAYOUT
  2
AcDbLayout
  3
AutoCAD 2000
 90
0
 91
0
280
0
281
0
  0
ENDSEC
  0
SECTION
  2
TABLES
  0
TABLE
  2
VPORT
  5
8
100
AcDbSymbolTable
 70
2
  0
VPORT
  5
1F4
100
AcDbSymbolTableRecord
100
AcDbViewportTableRecord
  2
*ACTIVE
 70
0
 10
0.0
 20
0.0
 11
1.0
 21
1.0
 12
148.5
 22
105.0
 13
0.0
 23
0.0
 14
1.0
 24
1.0
 15
0.0
 25
0.0
 16
0.0
 26
0.0
 36
1.0
 17
0.0
 27
0.0
 37
0.0
 40
210.0
 41
1.4142857143
 42
50.0
 43
0.0
 44
0.0
 50
0.0
 51
0.0
 71
0
 72
100
 73
1
 74
1
 75
0
 76
0
 77
0
 78
0
  0
ENDTAB
  0
TABLE
  2
LTYPE
  5
5
100
AcDbSymbolTable
 70
6
  0
LTYPE
  5
14
100
AcDbSymbolTableRecord
100
AcDbLinetypeTableRecord
  2
BYBLOCK
 70
0
  3

 72
65
 73
0
 40
0.0
  0
LTYPE
  5
15
100
AcDbSymbolTableRecord
100
AcDbLinetypeTableRecord
  2
BYLAYER
 70
0
  3

 72
65
 73
0
 40
0.0
  0
LTYPE
  5
16
100
AcDbSymbolTableRecord
100
AcDbLinetypeTableRecord
  2
CONTINUOUS
 70
64
  3
Solid line
 72
65
 73
0
 40
0.0
  0
LTYPE
  5
1F5
100
AcDbSymbolTableRecord
100
AcDbLinetypeTableRecord
  2
CENTER
 70
64
  3
____ _ ____ _ ____ _ ____ _ ____ _ ____ _ ____
 72
65
 73
4
 40
0.6
 49
0.375
 74
0
 49
-0.075
 74
0
 49
0.075
 74
0
 49
-0.075
 74
0
  0
LTYPE
  5
1F6
100
AcDbSymbolTableRecord
100
AcDbLinetypeTableRecord
  2
HIDDEN
 70
64
  3
- - - - - - - - - - - - - - - - - - - -
 72
65
 73
2
 40
0.2
 49
0.1
 74
0
 49
-0.1
 74
0
  0
LTYPE
  5
1F7
100
AcDbSymbolTableRecord
100
AcDbLinetypeTableRecord
  2
PHANTOM
 70
64
  3
_____ _ _ _____ _ _ _____ _ _ _____
 72
65
 73
6
 40
0.8
 49
0.45
 74
0
 49
-0.05
 74
0
 49
0.1
 74
0
 49
-0.05
 74
0
 49
0.1
 74
0
 49
-0.05
 74
0
  0
LTYPE
  5
1F8
100
AcDbSymbolTableRecord
100
AcDbLinetypeTableRecord
  2
DOT
 70
64
  3
. . . . . . . . . . . . . . . . . . . .
 72
65
 73
2
 40
0.2
 49
0.1
 74
0
 49
-0.1
 74
0
  0
LTYPE
  5
1F9
100
AcDbSymbolTableRecord
100
AcDbLinetypeTableRecord
  2
DASHED
 70
64
  3
- - - - - - - - - - - - - - - - - - - -
 72
65
 73
2
 40
0.2
 49
0.1
 74
0
 49
-0.1
 74
0
  0
ENDTAB
  0
TABLE
  2
LAYER
  5
2
100
AcDbSymbolTable
 70
36
  0
LAYER
  5
10
100
AcDbSymbolTableRecord
100
AcDbLayerTableRecord
  2
0
 70
0
 62
7
  6
CONTINUOUS
370
-3
390
F
  0
LAYER
  5
1FA
100
AcDbSymbolTableRecord
100
AcDbLayerTableRecord
  2
DEFAULT_1
 70
0
 62
7
  6
CENTER
370
-3
390
F
  0
LAYER
  5
1FB
100
AcDbSymbolTableRecord
100
AcDbLayerTableRecord
  2
DEFAULT_2
 70
0
 62
7
  6
HIDDEN
370
-3
390
F
  0
LAYER
  5
1FC
100
AcDbSymbolTableRecord
100
AcDbLayerTableRecord
  2
DEFAULT_3
 70
0
 62
7
  6
PHANTOM
370
-3
390
F
  0
LAYER
  5
1FD
100
AcDbSymbolTableRecord
100
AcDbLayerTableRecord
  2
ASSI
 70
0
 62
7
  6
CONTINUOUS
370
-3
390
F
  0
LAYER
  5
1FE
100
AcDbSymbolTableRecord
100
AcDbLayerTableRecord
  2
COORDINATE
 70
0
 62
7
  6
CONTINUOUS
370
-3
390
F
  0
LAYER
  5
1FF
100
AcDbSymbolTableRecord
100
AcDbLayerTableRecord
  2
COORD_ORIGINE
 70
0
 62
7
  6
CONTINUOUS
370
-3
390
F
  0
LAYER
  5
200
100
AcDbSymbolTableRecord
100
AcDbLayerTableRecord
  2
COPY_PUBLISH
 70
0
 62
7
  6
CONTINUOUS
370
-3
390
F
  0
LAYER
  5
201
100
AcDbSymbolTableRecord
100
AcDbLayerTableRecord
  2
COSMETIC
 70
0
 62
7
  6
CONTINUOUS
370
-3
390
F
  0
LAYER
  5
202
100
AcDbSymbolTableRecord
100
AcDbLayerTableRecord
  2
COSMETICI
 70
0
 62
7
  6
CONTINUOUS
370
-3
390
F
  0
LAYER
  5
203
100
AcDbSymbolTableRecord
100
AcDbLayerTableRecord
  2
CURVE
 70
0
 62
7
  6
CONTINUOUS
370
-3
390
F
  0
LAYER
  5
204
100
AcDbSymbolTableRecord
100
AcDbLayerTableRecord
  2
DRAFT
 70
0
 62
7
  6
CONTINUOUS
370
-3
390
F
  0
LAYER
  5
205
100
AcDbSymbolTableRecord
100
AcDbLayerTableRecord
  2
IGES
 70
0
 62
7
  6
CONTINUOUS
370
-3
390
F
  0
LAYER
  5
206
100
AcDbSymbolTableRecord
100
AcDbLayerTableRecord
  2
IMPORT_IGES
 70
0
 62
7
  6
CONTINUOUS
370
-3
390
F
  0
LAYER
  5
207
100
AcDbSymbolTableRecord
100
AcDbLayerTableRecord
  2
NOTE
 70
0
 62
7
  6
CONTINUOUS
370
-3
390
F
  0
LAYER
  5
208
100
AcDbSymbolTableRecord
100
AcDbLayerTableRecord
  2
PIANI
 70
0
 62
7
  6
CONTINUOUS
370
-3
390
F
  0
LAYER
  5
209
100
AcDbSymbolTableRecord
100
AcDbLayerTableRecord
  2
PIANI_ORIGINE
 70
0
 62
7
  6
CONTINUOUS
370
-3
390
F
  0
LAYER
  5
20A
100
AcDbSymbolTableRecord
100
AcDbLayerTableRecord
  2
PIANI_RIFERIMENTO
 70
0
 62
7
  6
CONTINUOUS
370
-3
390
F
  0
LAYER
  5
20B
100
AcDbSymbolTableRecord
100
AcDbLayerTableRecord
  2
PUNTI
 70
0
 62
7
  6
CONTINUOUS
370
-3
390
F
  0
LAYER
  5
20C
100
AcDbSymbolTableRecord
100
AcDbLayerTableRecord
  2
RACCORDO
 70
0
 62
7
  6
CONTINUOUS
370
-3
390
F
  0
LAYER
  5
20D
100
AcDbSymbolTableRecord
100
AcDbLayerTableRecord
  2
SIMBOLI
 70
0
 62
7
  6
CONTINUOUS
370
-3
390
F
  0
LAYER
  5
20E
100
AcDbSymbolTableRecord
100
AcDbLayerTableRecord
  2
SMUSSO
 70
0
 62
7
  6
CONTINUOUS
370
-3
390
F
  0
LAYER
  5
20F
100
AcDbSymbolTableRecord
100
AcDbLayerTableRecord
  2
SNAPLINE
 70
0
 62
7
  6
CONTINUOUS
370
-3
390
F
  0
LAYER
  5
210
100
AcDbSymbolTableRecord
100
AcDbLayerTableRecord
  2
SUPERFICI
 70
0
 62
7
  6
CONTINUOUS
370
-3
390
F
  0
LAYER
  5
211
100
AcDbSymbolTableRecord
100
AcDbLayerTableRecord
  2
TRASH
 70
0
 62
7
  6
CONTINUOUS
370
-3
390
F
  0
ENDTAB
  0
TABLE
  2
STYLE
  5
3
100
AcDbSymbolTable
 70
1
  0
STYLE
  5
11
100
AcDbSymbolTableRecord
100
AcDbTextStyleTableRecord
  2
STANDARD
 70
0
 40
0.0
 41
0.8
 50
0.0
 71
0
 42
0.2
  3
txt
  4

  0
STYLE
  5
212
100
AcDbSymbolTableRecord
100
AcDbTextStyleTableRecord
  2
TEXTSTYLE_1
 70
0
 40
0.0
 41
0.8
 50
0.0
 71
0
 42
0.2
  3
gdt
  4

  0
ENDTAB
  0
TABLE
  2
VIEW
  5
6
100
AcDbSymbolTable
 70
0
  0
ENDTAB
  0
TABLE
  2
UCS
  5
7
100
AcDbSymbolTable
 70
0
  0
ENDTAB
  0
TABLE
  2
APPID
  5
9
100
AcDbSymbolTable
 70
1
  0
APPID
  5
213
100
AcDbSymbolTableRecord
100
AcDbRegAppTableRecord
  2
ACAD
 70
0
  0
ENDTAB
  0
TABLE
  2
BLOCK_RECORD
  5
1
100
AcDbSymbolTable
 70
0
  0
BLOCK_RECORD
  5
214
100
AcDbSymbolTableRecord
100
AcDbBlockTableRecord
  2
*Model_Space
  0
BLOCK_RECORD
  5
215
100
AcDbSymbolTableRecord
100
AcDbBlockTableRecord
  2
*Paper_Space
  0
ENDTAB
  0
TABLE
  2
DIMSTYLE
  5
A
100
AcDbSymbolTable
 70
1
100
AcDbDimStyleTable
 71
0
  0
DIMSTYLE
105
216
100
AcDbSymbolTableRecord
100
AcDbDimStyleTableRecord
  2
STANDARD
 70
0
  3

  4

 40
1.0
 41
3.0
 42
0.5
 43
0.38
 44
1.5
 45
0.0
 46
0.0
 47
0.01
 48
0.01
140
3.0
141
0.09
142
0.0
143
25.4
144
1.0
145
0.0
146
1.0
147
0.625
 71
1.0
 72
0.0
 73
0
 74
0
 75
0
 76
0
 77
1
 78
8
170
0
171
1
172
0
173
0
174
0
175
0
176
0
177
0
178
0
270
2
271
2
272
2
273
2
274
2
275
0
280
0
281
0
282
0
283
1
284
8
285
0
286
0
287
3
288
0
340
11
278
44
  0
ENDTAB
  0
ENDSEC
  0
SECTION
  2
BLOCKS
  0
BLOCK
  5
20
100
AcDbEntity
  8
0
100
AcDbBlockBegin
  2
*Model_Space
 70
0
 10
0.0
 20
0.0
 30
0.0
  3
*Model_Space
  1

  0
ENDBLK
  5
21
100
AcDbEntity
  8
0
100
AcDbBlockEnd
  0
BLOCK
  5
1C
100
AcDbEntity
  8
0
100
AcDbBlockBegin
  2
*Paper_Space
 70
0
 10
0.0
 20
0.0
 30
0.0
  3
*Paper_Space
  1

  0
ENDBLK
  5
1D
100
AcDbEntity
  8
0
100
AcDbBlockEnd
  0
ENDSEC
  0
SECTION
  2
ENTITIES
  0
LWPOLYLINE
  5
217
100
AcDbEntity
  8
RACCORDO
100
AcDbPolyline
 62
7
  6
CONTINUOUS
 90
37
 70
0
 10
-17.0715271907
 20
25.9877633276
 10
-17.1026610948
 20
25.9666760274
 10
-17.1443277663
 20
25.9366913244
 10
-17.1851671128
 20
25.9052862055
 10
-17.2251625449
 20
25.8725269918
 10
-17.2643139703
 20
25.8384653071
 10
-17.3026221365
 20
25.8031447536
 10
-17.34007447
 20
25.7666183277
 10
-17.3766566139
 20
25.7289366666
 10
-17.412353558
 20
25.6901475344
 10
-17.4471480469
 20
25.6503008649
 10
-17.4810220115
 20
25.609442909
 10
-17.5139528224
 20
25.5676251238
 10
-17.545918883
 20
25.5248961992
 10
-17.5768991686
 20
25.481300679
 10
-17.6068682382
 20
25.436890545
 10
-17.6358023222
 20
25.3917118993
 10
-17.6636777033
 20
25.3458102859
 10
-17.6904659499
 20
25.2992388113
 10
-17.7161414183
 20
25.2520425643
 10
-17.740679165
 20
25.2042670311
 10
-17.7640490218
 20
25.1559644142
 10
-17.7862245058
 20
25.1071788411
 10
-17.8071789956
 20
25.0579548013
 10
-17.8268815948
 20
25.0083413434
 10
-17.8453053458
 20
24.9583798123
 10
-17.8624203352
 20
24.9081142833
 10
-17.8781944511
 20
24.8575913404
 10
-17.8925979805
 20
24.8068507171
 10
-17.905597609
 20
24.7559334859
 10
-17.9171604115
 20
24.7048780723
 10
-17.9272511913
 20
24.6537233788
 10
-17.9358315021
 20
24.6025082933
 10
-17.9428640685
 20
24.5512558245
 10
-17.9483054628
 20
24.499993201
 10
-17.9521081305
 20
24.4487684767
 10
-17.9537881023
 20
24.4123975959
  0
LINE
  5
218
100
AcDbEntity
  8
RACCORDO
100
AcDbLine
 62
7
  6
CONTINUOUS
 10
-17.071539431
 20
25.9877553845
 11
-14.2428027089
 21
27.8532806495
  0
LINE
  5
219
100
AcDbEntity
  8
RACCORDO
100
AcDbLine
 62
253
  6
CONTINUOUS
 10
-16.8147618437
 20
25.9673502855
 11
-13.9942861644
 21
27.8274274705
  0
LWPOLYLINE
  5
21A
100
AcDbEntity
  8
RACCORDO
100
AcDbPolyline
 62
253
  6
CONTINUOUS
 90
17
 70
0
 10
-17.0715272497
 20
25.9877634171
 10
-17.0635534281
 20
25.9926815027
 10
-17.0505635343
 20
25.9993724743
 10
-17.03687744
 20
26.0048889001
 10
-17.0225326143
 20
26.0092156775
 10
-17.0075683296
 20
26.0123409608
 10
-16.9920255544
 20
26.0142561939
 10
-16.9759468408
 20
26.0149561333
 10
-16.9593762082
 20
26.0144388628
 10
-16.9423590227
 20
26.0127057986
 10
-16.9249418731
 20
26.0097616852
 10
-16.9071724431
 20
26.005614583
 10
-16.8890993809
 20
26.0002758456
 10
-16.8707721657
 20
25.9937600892
 10
-16.852240973
 20
25.9860851522
 10
-16.8335565364
 20
25.9772720467
 10
-16.814770009
 20
25.9673449006
  0
LINE
  5
21B
100
AcDbEntity
  8
RACCORDO
100
AcDbLine
 62
7
  6
CONTINUOUS
 10
-12.0280510275
 20
26.6921479451
 11
-12.2082174739
 21
26.2781226647
  0
LWPOLYLINE
  5
21C
100
AcDbEntity
  8
RACCORDO
100
AcDbPolyline
 62
253
  6
CONTINUOUS
 90
16
 70
0
 10
-17.9537619092
 20
-9.1663221061
 10
-17.9529499743
 20
-9.1781441396
 10
-17.9507061277
 20
-9.1935997921
 10
-17.9471311172
 20
-9.208934401
 10
-17.9422345253
 20
-9.224106863
 10
-17.9360294772
 20
-9.2390765097
 10
-17.9285326048
 20
-9.2538032159
 10
-17.9197640029
 20
-9.2682475079
 10
-17.9097471753
 20
-9.2823706688
 10
-17.8985089711
 20
-9.2961348426
 10
-17.8860795136
 20
-9.3095031354
 10
-17.872492119
 20
-9.3224397146
 10
-17.8577832072
 20
-9.3349099047
 10
-17.8419922044
 20
-9.3468802802
 10
-17.825161437
 20
-9.3583187555
 10
-17.8073360189
 20
-9.3691946706
  0
LWPOLYLINE
  5
21D
100
AcDbEntity
  8
RACCORDO
100
AcDbPolyline
 62
7
  6
CONTINUOUS
 90
24
 70
0
 10
-17.9537617246
 20
-9.1663220995
 10
-17.9511339555
 20
-9.2153475719
 10
-17.946484615
 20
-9.2663687408
 10
-17.9399916251
 20
-9.3159660966
 10
-17.931720278
 20
-9.3641031601
 10
-17.9217267308
 20
-9.4108005634
 10
-17.910049359
 20
-9.4561179507
 10
-17.8967391619
 20
-9.5000418418
 10
-17.8818482218
 20
-9.5425535878
 10
-17.8654073951
 20
-9.5836844282
 10
-17.8474682586
 20
-9.6234073737
 10
-17.8280816205
 20
-9.6617011991
 10
-17.8072737262
 20
-9.6985865638
 10
-17.7850986884
 20
-9.7340304299
 10
-17.7616127768
 20
-9.7680033907
 10
-17.7368445181
 20
-9.8005139224
 10
-17.7108567525
 20
-9.8315225744
 10
-17.6837105623
 20
-9.8610013263
 10
-17.6554302795
 20
-9.8889607329
 10
-17.6260811933
 20
-9.9153663412
 10
-17.5957325828
 20
-9.9401871344
 10
-17.5644127224
 20
-9.9634284649
 10
-17.532177501
 20
-9.985071109
 10
-17.5010978855
 20
-10.0039378439
  0
LWPOLYLINE
  5
21E
100
AcDbEntity
  8
RACCORDO
100
AcDbPolyline
 62
253
  6
CONTINUOUS
 90
13
 70
0
 10
-17.8073364113
 20
-9.3691837276
 10
-17.8534938568
 20
-8.0226082342
 10
-17.8957108955
 20
-6.6735324999
 10
-17.9339873078
 20
-5.3219720046
 10
-17.9683226797
 20
-3.9679521206
 10
-17.9987171805
 20
-2.6114785488
 10
-18.0251712704
 20
-1.2525371417
 10
-18.0476849632
 20
0.1088562742
 10
-18.0662576934
 20
1.4726866457
 10
-18.0808885795
 20
2.8389695644
 10
-18.0915769245
 20
4.2077000627
 10
-18.0983225248
 20
5.5788524295
 10
-18.1011250292
 20
6.9524112637
  0
LWPOLYLINE
  5
21F
100
AcDbEntity
  8
RACCORDO
100
AcDbPolyline
 62
253
  6
CONTINUOUS
 90
13
 70
0
 10
-18.1011338552
 20
7.5351702167
 10
-18.1008407097
 20
7.5247136916
 10
-18.0999493794
 20
7.5146470953
 10
-18.0984636422
 20
7.505013096
 10
-18.0963897957
 20
7.4958525282
 10
-18.0937366299
 20
7.48720422
 10
-18.0905153907
 20
7.4791048278
 10
-18.0867397314
 20
7.4715886818
 10
-18.0824256556
 20
7.4646876398
 10
-18.077591449
 20
7.4584309526
 10
-18.0722576016
 20
7.4528451396
 10
-18.0664467216
 20
7.4479538769
 10
-18.0597284575
 20
7.4435126771
  0
LWPOLYLINE
  5
220
100
AcDbEntity
  8
RACCORDO
100
AcDbPolyline
 62
253
  6
CONTINUOUS
 90
18
 70
0
 10
-18.2475808089
 20
7.7387458568
 10
-18.2473205352
 20
7.7293823742
 10
-18.2460078209
 20
7.7158855602
 10
-18.2435908278
 20
7.7024357087
 10
-18.2400749288
 20
7.6890627601
 10
-18.2354679736
 20
7.6757962066
 10
-18.2297802987
 20
7.6626657026
 10
-18.2230244924
 20
7.6497002756
 10
-18.2152152875
 20
7.6369280273
 10
-18.2063696551
 20
7.6243769716
 10
-18.1965073416
 20
7.6120754036
 10
-18.185650736
 20
7.600051079
 10
-18.1738243917
 20
7.5883310203
 10
-18.1610542618
 20
7.5769408394
 10
-18.1473680791
 20
7.5659051523
 10
-18.1327958975
 20
7.5552482502
 10
-18.1173701666
 20
7.5449939927
 10
-18.1011250274
 20
7.5351651259
  0
LWPOLYLINE
  5
221
100
AcDbEntity
  8
RACCORDO
100
AcDbPolyline
 62
7
  6
CONTINUOUS
 90
21
 70
0
 10
-18.2475801543
 20
7.7388339612
 10
-18.2475613308
 20
7.7352044434
 10
-18.2468403641
 20
7.7175616724
 10
-18.2450615245
 20
7.6998573659
 10
-18.2422086737
 20
7.6821449925
 10
-18.2382673498
 20
7.6644658628
 10
-18.2332297077
 20
7.6468804712
 10
-18.227092114
 20
7.6294486136
 10
-18.219844943
 20
7.6122066052
 10
-18.2114864093
 20
7.595204821
 10
-18.2020245219
 20
7.5785038014
 10
-18.1914604256
 20
7.5621454233
 10
-18.1797974074
 20
7.5461725462
 10
-18.1670481074
 20
7.5306329647
 10
-18.153218782
 20
7.5155630068
 10
-18.1383188117
 20
7.5010019679
 10
-18.1223511196
 20
7.4869791545
 10
-18.1052962708
 20
7.4735075328
 10
-18.087140354
 20
7.4606126191
 10
-18.0678936429
 20
7.4483359453
 10
-18.0597282826
 20
7.44351298
  0
LWPOLYLINE
  5
222
100
AcDbEntity
  8
RACCORDO
100
AcDbPolyline
 62
7
  6
CONTINUOUS
 90
13
 70
0
 10
-18.2475808081
 20
7.157113581
 10
-18.2448148059
 20
5.7947029038
 10
-18.2380858365
 20
4.4212413575
 10
-18.227401889
 20
3.0501724398
 10
-18.2127630327
 20
1.6815134242
 10
-18.1941694323
 20
0.3152795781
 10
-18.1716212632
 20
-1.0485144972
 10
-18.1451187271
 20
-2.409853643
 10
-18.1146620962
 20
-3.7687228354
 10
-18.0802516401
 20
-5.1251076708
 10
-18.0418876762
 20
-6.4789928948
 10
-17.9995706897
 20
-7.8303613026
 10
-17.9537621017
 20
-9.1663167262
  0
LWPOLYLINE
  5
223
100
AcDbEntity
  8
RACCORDO
100
AcDbPolyline
 62
253
  6
CONTINUOUS
 90
13
 70
0
 10
-18.1011250292
 20
7.5351651206
 10
-18.0983225248
 20
8.9120843326
 10
-18.0915769245
 20
10.291309747
 10
-18.0808885795
 20
11.6728255573
 10
-18.0662576934
 20
13.0566050707
 10
-18.0476849632
 20
14.4426432612
 10
-18.0251712704
 20
15.830956943
 10
-17.9987171805
 20
17.2215311562
 10
-17.9683226797
 20
18.6143493439
 10
-17.9339873078
 20
20.0094261866
 10
-17.8957108956
 20
21.4067561791
 10
-17.8534938568
 20
22.806313471
 10
-17.8073364113
 20
24.2080823284
  0
LWPOLYLINE
  5
224
100
AcDbEntity
  8
RACCORDO
100
AcDbPolyline
 62
253
  6
CONTINUOUS
 90
17
 70
0
 10
-17.9537881023
 20
24.4123975959
 10
-17.9538564613
 20
24.4046406741
 10
-17.9529497862
 20
24.3903135359
 10
-17.9507059336
 20
24.3759996825
 10
-17.9471309181
 20
24.3617374812
 10
-17.9422343221
 20
24.3475651605
 10
-17.9360292706
 20
24.3335207084
 10
-17.9285323957
 20
24.3196417698
 10
-17.9197637923
 20
24.3059655463
 10
-17.9097469639
 20
24.2925286958
 10
-17.8985087599
 20
24.2793672348
 10
-17.8860793033
 20
24.2665164415
 10
-17.8724919104
 20
24.2540107616
 10
-17.8577830011
 20
24.2418837155
 10
-17.8419920015
 20
24.2301678088
 10
-17.8251612381
 20
24.2188944451
 10
-17.8073358246
 20
24.2080938417
  0
LWPOLYLINE
  5
225
100
AcDbEntity
  8
RACCORDO
100
AcDbPolyline
 62
253
  6
CONTINUOUS
 90
25
 70
0
 10
-18.1011338552
 20
6.9524163598
 10
-18.1008407092
 20
6.9632114137
 10
-18.099949377
 20
6.9743073077
 10
-18.098463637
 20
6.9856570107
 10
-18.0963897865
 20
6.997212416
 10
-18.0937366158
 20
7.0089245447
 10
-18.090515371
 20
7.0207437532
 10
-18.0867397058
 20
7.0326199447
 10
-18.0824256237
 20
7.0445027808
 10
-18.0775914107
 20
7.0563418946
 10
-18.0722575573
 20
7.0680871049
 10
-18.0664466716
 20
7.0796886286
 10
-18.0601833839
 20
7.0910972913
 10
-18.0534942419
 20
7.1022647364
 10
-18.0464075984
 20
7.1131436298
 10
-18.0389534909
 20
7.1236878602
 10
-18.0311635145
 20
7.1338527351
 10
-18.0230706879
 20
7.1435951699
 10
-18.0147093135
 20
7.1528738706
 10
-18.0061148317
 20
7.1616495088
 10
-17.9973236712
 20
7.1698848885
 10
-17.988373094
 20
7.1775451034
 10
-17.9793010381
 20
7.1845976855
 10
-17.9701459561
 20
7.1910127421
 10
-17.9609466527
 20
7.1967630827
  0
LWPOLYLINE
  5
226
100
AcDbEntity
  8
RACCORDO
100
AcDbPolyline
 62
7
  6
CONTINUOUS
 90
13
 70
0
 10
-17.9537877655
 20
24.4124125715
 10
-17.9996258699
 20
23.0207363171
 10
-18.0419350401
 20
21.6189210321
 10
-18.0802919748
 20
20.2193022413
 10
-18.114696117
 20
18.8218977695
 10
-18.1451470773
 20
17.4267232972
 10
-18.1716445139
 20
16.0337936033
 10
-18.194188083
 20
14.6431240813
 10
-18.2127775108
 20
13.2547301741
 10
-18.2274125504
 20
11.8686267396
 10
-18.2380929652
 20
10.4848292871
 10
-18.2448186141
 20
9.1033552159
 10
-18.2475808088
 20
7.7387458814
  0
LWPOLYLINE
  5
227
100
AcDbEntity
  8
RACCORDO
100
AcDbPolyline
 62
253
  6
CONTINUOUS
 90
43
 70
0
 10
-17.8073364068
 20
24.2080823258
 10
-17.8051731584
 20
24.2523578628
 10
-17.8017169044
 20
24.2972825074
 10
-17.7969719175
 20
24.3428007479
 10
-17.7909441893
 20
24.3888563991
 10
-17.7836411054
 20
24.4353925101
 10
-17.775071434
 20
24.4823514351
 10
-17.7652458416
 20
24.5296754855
 10
-17.754176564
 20
24.5773059082
 10
-17.7418771437
 20
24.6251827804
 10
-17.7283631516
 20
24.6732466269
 10
-17.7136513691
 20
24.7214384492
 10
-17.6977594731
 20
24.7696986974
 10
-17.6807073711
 20
24.8179678956
 10
-17.6625163632
 20
24.8661863849
 10
-17.6432083605
 20
24.9142943386
 10
-17.6228075053
 20
24.9622325495
 10
-17.6013393124
 20
25.009941734
 10
-17.578829808
 20
25.0573622804
 10
-17.5553072605
 20
25.1044356348
 10
-17.5308010166
 20
25.1511038377
 10
-17.5053406302
 20
25.197308827
 10
-17.4789579994
 20
25.242993678
 10
-17.4516861007
 20
25.2881020624
 10
-17.423557828
 20
25.3325777822
 10
-17.3946083467
 20
25.3763661615
 10
-17.3648739103
 20
25.4194131375
 10
-17.3343905931
 20
25.4616647245
 10
-17.3031966642
 20
25.503068824
 10
-17.2713310647
 20
25.5435745647
 10
-17.2388322187
 20
25.5831313881
 10
-17.2057408647
 20
25.6216905965
 10
-17.1720983614
 20
25.6592047895
 10
-17.1379451624
 20
25.6956271868
 10
-17.1033237595
 20
25.7309132757
 10
-17.0682777234
 20
25.7650193629
 10
-17.0328500191
 20
25.7979020547
 10
-16.9970852857
 20
25.8295207797
 10
-16.961028027
 20
25.8598370087
 10
-16.9247216524
 20
25.8888128096
 10
-16.8882110325
 20
25.9164124065
 10
-16.8515424469
 20
25.9426022438
 10
-16.8147617949
 20
25.9673502573
  0
LWPOLYLINE
  5
228
100
AcDbEntity
  8
RACCORDO
100
AcDbPolyline
 62
7
  6
CONTINUOUS
 90
24
 70
0
 10
13.263705746
 20
-27.7671498892
 10
13.294435612
 20
-27.784059482
 10
13.3295145496
 20
-27.8014045039
 10
13.3655239177
 20
-27.8171836561
 10
13.4024194868
 20
-27.8313566757
 10
13.4401861286
 20
-27.8438945311
 10
13.4787640847
 20
-27.8547539836
 10
13.5180927841
 20
-27.8638957433
 10
13.5581621076
 20
-27.8712923663
 10
13.5989170967
 20
-27.8769070564
 10
13.6402939296
 20
-27.880706673
 10
13.6822794431
 20
-27.8826631607
 10
13.7248196137
 20
-27.8827444135
 10
13.7678586996
 20
-27.8809231544
 10
13.8113942448
 20
-27.8771693558
 10
13.8553803188
 20
-27.8714524488
 10
13.8997666615
 20
-27.8637457477
 10
13.9445578426
 20
-27.8540124444
 10
13.9897102061
 20
-27.8422205061
 10
14.0351834361
 20
-27.8283386393
 10
14.0809986284
 20
-27.8123136979
 10
14.1271391044
 20
-27.7940957448
 10
14.1735381167
 20
-27.7736554505
 10
14.2078653417
 20
-27.7571508285
  0
LWPOLYLINE
  5
229
100
AcDbEntity
  8
RACCORDO
100
AcDbPolyline
 62
253
  6
CONTINUOUS
 90
22
 70
0
 10
-17.50534063
 20
-10.0014612056
 10
-17.5308010164
 20
-9.98534922
 10
-17.5553072604
 20
-9.9676471429
 10
-17.5788298078
 20
-9.9483764398
 10
-17.6013393122
 20
-9.9275610803
 10
-17.6228075051
 20
-9.9052270759
 10
-17.6432083603
 20
-9.8814018184
 10
-17.6625163631
 20
-9.8561150162
 10
-17.680707371
 20
-9.8293981088
 10
-17.697759473
 20
-9.8012837892
 10
-17.713651369
 20
-9.7718070015
 10
-17.7283631516
 20
-9.7410043508
 10
-17.7418771436
 20
-9.7089134949
 10
-17.7541765639
 20
-9.6755739342
 10
-17.7652458415
 20
-9.6410272825
 10
-17.7750714339
 20
-9.6053167036
 10
-17.7836411053
 20
-9.5684866906
 10
-17.7909441893
 20
-9.5305827451
 10
-17.7969719175
 20
-9.4916516582
 10
-17.8017169044
 20
-9.4517416092
 10
-17.8051731583
 20
-9.4109021072
 10
-17.8073364068
 20
-9.3691837301
  0
LWPOLYLINE
  5
22A
100
AcDbEntity
  8
RACCORDO
100
AcDbPolyline
 62
7
  6
CONTINUOUS
 90
21
 70
0
 10
-18.0784393763
 20
7.4429905763
 10
-18.0948470511
 20
7.4318617425
 10
-18.1104884495
 20
7.4202128156
 10
-18.1253550386
 20
7.4080571584
 10
-18.1394363426
 20
7.3954115634
 10
-18.1527130797
 20
7.3823008545
 10
-18.1651762985
 20
7.3687403576
 10
-18.1768113963
 20
7.3547537737
 10
-18.1875882879
 20
7.3403887461
 10
-18.1974960758
 20
7.3256741425
 10
-18.2065244481
 20
7.3106410108
 10
-18.2146498549
 20
7.2953544934
 10
-18.2218673756
 20
7.2798597232
 10
-18.2281793023
 20
7.2641919674
 10
-18.2335809705
 20
7.2484131265
 10
-18.238080597
 20
7.2325691105
 10
-18.2416901747
 20
7.2167037395
 10
-18.2444211161
 20
7.2008815572
 10
-18.2462930613
 20
7.1851538433
 10
-18.2473313717
 20
7.1695559721
 10
-18.2475802129
 20
7.1570943893
  0
LINE
  5
22B
100
AcDbEntity
  8
RACCORDO
100
AcDbLine
 62
7
  6
CONTINUOUS
 10
-18.0688983905
 20
7.4489768318
 11
-18.0784393763
 21
7.4429905763
  0
LINE
  5
22C
100
AcDbEntity
  8
RACCORDO
100
AcDbLine
 62
7
  6
CONTINUOUS
 10
13.2638364768
 20
-27.7672254368
 11
-17.5012135668
 21
-10.0038711183
  0
LINE
  5
22D
100
AcDbEntity
  8
RACCORDO
100
AcDbLine
 62
7
  6
CONTINUOUS
 10
-17.5010933797
 20
-10.0039404901
 11
-17.5012135137
 21
-10.003871149
  0
LINE
  5
22E
100
AcDbEntity
  8
RACCORDO
100
AcDbLine
 62
253
  6
CONTINUOUS
 10
12.9505052686
 20
-27.1283760271
 11
-17.8073364068
 21
-9.3691837301
  0
LINE
  5
22F
100
AcDbEntity
  8
RACCORDO
100
AcDbLine
 62
253
  6
CONTINUOUS
 10
-17.5012135137
 20
-10.003871149
 11
-17.50534063
 21
-10.0014612056
  0
LINE
  5
230
100
AcDbEntity
  8
DRAFT
100
AcDbLine
 62
7
  6
CONTINUOUS
 10
-12.0280510275
 20
26.6921479451
 11
-12.0068542958
 21
26.0759242313
  0
LINE
  5
231
100
AcDbEntity
  8
RACCORDO
100
AcDbLine
 62
253
  6
CONTINUOUS
 10
-12.2082174739
 20
26.2781226647
 11
-12.2082174739
 21
26.2152175199
  0
LWPOLYLINE
  5
232
100
AcDbEntity
  8
RACCORDO
100
AcDbPolyline
 62
253
  6
CONTINUOUS
 90
23
 70
0
 10
-11.5324912084
 20
-0.1263102845
 10
-11.532196995
 20
-0.0872220374
 10
-11.5306279836
 20
-0.0487782653
 10
-11.5277733097
 20
-0.0110402009
 10
-11.523621895
 20
0.025948959
 10
-11.5181671644
 20
0.0621091109
 10
-11.5114134837
 20
0.0973282708
 10
-11.5033628413
 20
0.1315513185
 10
-11.4940195636
 20
0.1647227974
 10
-11.4834059311
 20
0.1967412738
 10
-11.4715364072
 20
0.2275576253
 10
-11.4584258625
 20
0.2571287175
 10
-11.4441105144
 20
0.2853748408
 10
-11.428621815
 20
0.3122466071
 10
-11.4119783438
 20
0.3377236201
 10
-11.394203645
 20
0.3617772395
 10
-11.3753301108
 20
0.3843712933
 10
-11.3553826735
 20
0.4054831544
 10
-11.3343725105
 20
0.4251031777
 10
-11.3123237549
 20
0.4432068858
 10
-11.2892716287
 20
0.4597634942
 10
-11.2652426709
 20
0.4747521037
 10
-11.256764329
 20
0.4795373582
  0
LWPOLYLINE
  5
233
100
AcDbEntity
  8
RACCORDO
100
AcDbPolyline
 62
253
  6
CONTINUOUS
 90
85
 70
0
 10
-11.6726648586
 20
-0.1263372813
 10
-11.6723398086
 20
-0.0841653392
 10
-11.6706235554
 20
-0.0428163325
 10
-11.6675161057
 20
-0.0022902656
 10
-11.6630176884
 20
0.0374953966
 10
-11.6571280728
 20
0.0764581191
 10
-11.6498466439
 20
0.1143502524
 10
-11.6411590276
 20
0.1511618568
 10
-11.6310797456
 20
0.1869027845
 10
-11.6196516596
 20
0.2213549959
 10
-11.6068623598
 20
0.2545035164
 10
-11.5927245286
 20
0.2863631599
 10
-11.5773187855
 20
0.3167604994
 10
-11.5606449606
 20
0.3456712228
 10
-11.5427035971
 20
0.3731194225
 10
-11.5235764726
 20
0.3990042273
 10
-11.5032662879
 20
0.4233157319
 10
-11.4817707599
 20
0.4460635962
 10
-11.4591642435
 20
0.4671762642
 10
-11.4354396335
 20
0.486654792
 10
-11.4106044678
 20
0.5044978697
 10
-11.3847551107
 20
0.5206303665
 10
-11.3578818657
 20
0.535047498
 10
-11.329994873
 20
0.5477537885
 10
-11.3012202909
 20
0.5586880476
 10
-11.2715558658
 20
0.5678400612
 10
-11.2410042904
 20
0.5752197862
 10
-11.2096991693
 20
0.5807962731
 10
-11.1776403239
 20
0.5845612616
 10
-11.1448283392
 20
0.5865227739
 10
-11.1113979765
 20
0.5866742778
 10
-11.0773468601
 20
0.5850087902
 10
-11.0426777172
 20
0.5815330885
 10
-11.0075329608
 20
0.5762612818
 10
-10.9719092542
 20
0.5691856532
 10
-10.9358102143
 20
0.5603137558
 10
-10.899388673
 20
0.549682611
 10
-10.8626434768
 20
0.5372845749
 10
-10.8255759742
 20
0.5231271773
 10
-10.7883427325
 20
0.5072702103
 10
-10.7509436731
 20
0.489706719
 10
-10.7133789746
 20
0.4704435998
 10
-10.6758055666
 20
0.4495614356
 10
-10.6382234337
 20
0.4270535445
 10
-10.6006325913
 20
0.4029266083
 10
-10.5631899901
 20
0.3772812696
 10
-10.525895656
 20
0.3501107585
 10
-10.488749463
 20
0.3214219033
 10
-10.45190811
 20
0.291335758
 10
-10.415372654
 20
0.2598461707
 10
-10.379141843
 20
0.2269594072
 10
-10.343368894
 20
0.1928151583
 10
-10.3080570792
 20
0.1574098229
 10
-10.2732028465
 20
0.1207471658
 10
-10.238949165
 20
0.0829779336
 10
-10.2052984552
 20
0.0440983743
 10
-10.1722479452
 20
0.0041124455
 10
-10.1399328144
 20
-0.0368175411
 10
-10.1083532101
 20
-0.0786990907
 10
-10.0775085784
 20
-0.1215244602
 10
-10.0475330577
 20
-0.1651084718
 10
-10.0184286386
 20
-0.2094585051
 10
-9.9901928912
 20
-0.2545669231
 10
-9.962953349
 20
-0.3002260399
 10
-9.9367195745
 20
-0.3464293339
 10
-9.9114815613
 20
-0.3931830663
 10
-9.8873375298
 20
-0.4402987477
 10
-9.8642949264
 20
-0.4877662194
 10
-9.8423458724
 20
-0.5355953864
 10
-9.8215656441
 20
-0.5836278796
 10
-9.8019516763
 20
-0.631875404
 10
-9.7835061172
 20
-0.6803260096
 10
-9.7663113674
 20
-0.7287858768
 10
-9.7503670148
 20
-0.7772789021
 10
-9.7356730977
 20
-0.8257809691
 10
-9.7223127794
 20
-0.8740262899
 10
-9.7102980186
 20
-0.9220161353
 10
-9.6996165821
 20
-0.9697490727
 10
-9.6903154646
 20
-1.0169553289
 10
-9.6824090043
 20
-1.0636285983
 10
-9.6758827133
 20
-1.1097750977
 10
-9.67074048
 20
-1.1551439149
 10
-9.666983626
 20
-1.1996514271
 10
-9.6646108306
 20
-1.2433812565
 10
-9.6636220866
 20
-1.2863333987
  0
LWPOLYLINE
  5
234
100
AcDbEntity
  8
RACCORDO
100
AcDbPolyline
 62
253
  6
CONTINUOUS
 90
85
 70
0
 10
-11.6726648586
 20
7.2233651503
 10
-11.6716620328
 20
7.2659069757
 10
-11.6692689094
 20
7.3076255285
 10
-11.6654854951
 20
7.3485208046
 10
-11.6603107068
 20
7.3886760371
 10
-11.653745626
 20
7.4280079928
 10
-11.6457935745
 20
7.4662669292
 10
-11.6364402127
 20
7.5034428971
 10
-11.625700028
 20
7.539545761
 10
-11.6136197146
 20
7.5743554248
 10
-11.6001869906
 20
7.60785686
 10
-11.5854144106
 20
7.6400649399
 10
-11.5693860433
 20
7.6708043533
 10
-11.55210209
 20
7.700050599
 10
-11.5335627227
 20
7.7278279663
 10
-11.5138520537
 20
7.7540342799
 10
-11.4929729588
 20
7.7786595324
 10
-11.4709229798
 20
7.8017134945
 10
-11.4477782821
 20
7.8231236279
 10
-11.4235316823
 20
7.8428910299
 10
-11.3981907962
 20
7.8610143583
 10
-11.371854032
 20
7.8774173902
 10
-11.3445116815
 20
7.8920953549
 10
-11.3161738964
 20
7.9050527724
 10
-11.2869689138
 20
7.9162273342
 10
-11.2568946206
 20
7.9256087563
 10
-11.2259535687
 20
7.9332070746
 10
-11.1942810201
 20
7.9389904452
 10
-11.1618769292
 20
7.9429505451
 10
-11.1287417477
 20
7.9450954678
 10
-11.0950114941
 20
7.945417988
 10
-11.0606838862
 20
7.9439110849
 10
-11.0257615572
 20
7.9405815811
 10
-10.9903878971
 20
7.9354430172
 10
-10.9545596676
 20
7.9284876394
 10
-10.9182803868
 20
7.9197230436
 10
-10.8817035676
 20
7.9091858012
 10
-10.844828169
 20
7.8968682214
 10
-10.807655427
 20
7.882777885
 10
-10.7703422514
 20
7.866974282
 10
-10.7328886749
 20
7.84945041
 10
-10.6952947649
 20
7.8302132149
 10
-10.6577174596
 20
7.8093431221
 10
-10.6201568483
 20
7.7868334015
 10
-10.5826128419
 20
7.7626907831
 10
-10.5452420865
 20
7.7370158963
 10
-10.5080447113
 20
7.7098019169
 10
-10.4710204871
 20
7.6810557255
 10
-10.4343254999
 20
7.6508985216
 10
-10.3979609089
 20
7.6193240959
 10
-10.3619253598
 20
7.5863387676
 10
-10.3263711494
 20
7.552082539
 10
-10.291301628
 20
7.5165517543
 10
-10.2567131655
 20
7.4797502272
 10
-10.2227475763
 20
7.4418291714
 10
-10.189407356
 20
7.4027847799
 10
-10.156689658
 20
7.3626210579
 10
-10.1247282818
 20
7.3215009378
 10
-10.0935234884
 20
7.2794168334
 10
-10.0630746106
 20
7.2363765603
 10
-10.0335140662
 20
7.1925661479
 10
-10.0048439792
 20
7.1479781312
 10
-9.9770617866
 20
7.1026202232
 10
-9.9502929023
 20
7.0567012056
 10
-9.9245468722
 20
7.0102275954
 10
-9.8998137067
 20
6.9631931264
 10
-9.8761895566
 20
6.9157873831
 10
-9.8536817735
 20
6.8680205501
 10
-9.8322825736
 20
6.8198826875
 10
-9.8120654486
 20
6.7715331675
 10
-9.7930279989
 20
6.7229601818
 10
-9.7751722071
 20
6.674175775
 10
-9.7585781924
 20
6.6253750693
 10
-9.7432459232
 20
6.5765339784
 10
-9.7291750575
 20
6.5276768006
 10
-9.7164453355
 20
6.479071186
 10
-9.7050688394
 20
6.4307157903
 10
-9.6950332128
 20
6.382612114
 10
-9.6863816563
 20
6.335032007
 10
-9.6791285302
 20
6.2879817463
 10
-9.6732593247
 20
6.2414551406
 10
-9.6687740677
 20
6.1957052627
 10
-9.6656727939
 20
6.1508164562
 10
-9.6639554693
 20
6.1067043781
 10
-9.6636220866
 20
6.063369033
  0
LWPOLYLINE
  5
235
100
AcDbEntity
  8
RACCORDO
100
AcDbPolyline
 62
253
  6
CONTINUOUS
 90
23
 70
0
 10
-11.5324912084
 20
7.2219222067
 10
-11.5315192005
 20
7.2613809155
 10
-11.5292733018
 20
7.3001946852
 10
-11.5257426521
 20
7.338302311
 10
-11.5209148721
 20
7.3756613394
 10
-11.5147846954
 20
7.4121909732
 10
-11.5073604021
 20
7.4477771041
 10
-11.4986439896
 20
7.4823646361
 10
-11.4886397663
 20
7.5158981445
 10
-11.4773738746
 20
7.5482740945
 10
-11.4648608844
 20
7.5794433326
 10
-11.4511155324
 20
7.6093628089
 10
-11.4361775286
 20
7.637950896
 10
-11.4200786753
 20
7.6651580399
 10
-11.4028371592
 20
7.6909640582
 10
-11.3844789038
 20
7.7153389772
 10
-11.3650364622
 20
7.7382465552
 10
-11.3445345683
 20
7.7596642907
 10
-11.322986249
 20
7.7795815197
 10
-11.3004155426
 20
7.7979738381
 10
-11.2768577308
 20
7.8148104494
 10
-11.2523414386
 20
7.8300693226
 10
-11.2436347548
 20
7.8349809975
  0
LINE
  5
236
100
AcDbEntity
  8
RACCORDO
100
AcDbLine
 62
7
  6
CONTINUOUS
 10
-4.1084550782
 20
22.1194724999
 11
-4.2886215246
 21
21.7054472195
  0
LWPOLYLINE
  5
237
100
AcDbEntity
  8
RACCORDO
100
AcDbPolyline
 62
253
  6
CONTINUOUS
 90
38
 70
0
 10
-9.9610515057
 20
5.7649445921
 10
-9.9099096267
 20
5.814290612
 10
-9.8671238426
 20
5.8728312449
 10
-9.8327746587
 20
5.9393710931
 10
-9.8072531395
 20
6.011144867
 10
-9.7900412038
 20
6.0858601471
 10
-9.7801664926
 20
6.1626761201
 10
-9.7768534761
 20
6.2407735884
 10
-9.7793992321
 20
6.3190736388
 10
-9.7870855793
 20
6.3966613197
 10
-9.7992992397
 20
6.4732840885
 10
-9.8154409103
 20
6.5483307551
 10
-9.8349108335
 20
6.6212186654
 10
-9.857287613
 20
6.6919450831
 10
-9.8820980054
 20
6.7601784045
 10
-9.908868751
 20
6.8255931057
 10
-9.9373261839
 20
6.888307546
 10
-9.9671055184
 20
6.9481553987
 10
-9.997852499
 20
7.0049922768
 10
-10.0294192802
 20
7.059022158
 10
-10.0615497318
 20
7.1102056743
 10
-10.0939756144
 20
7.1584820748
 10
-10.1266090237
 20
7.2040420217
 10
-10.1592590397
 20
7.2468985734
 10
-10.1917373517
 20
7.2870661507
 10
-10.2240126872
 20
7.324738798
 10
-10.255952802
 20
7.35996782
 10
-10.287423022
 20
7.3927994843
 10
-10.3184249449
 20
7.4234115184
 10
-10.3488706786
 20
7.4518748909
 10
-10.3786646756
 20
7.4782510783
 10
-10.4078214335
 20
7.5026915149
 10
-10.4362704962
 20
7.5252641835
 10
-10.4639596853
 20
7.5460496764
 10
-10.4909475173
 20
7.5652022705
 10
-10.5172284442
 20
7.5828158755
 10
-10.5427305793
 20
7.598936935
 10
-10.5674234504
 20
7.6136396686
  0
LWPOLYLINE
  5
238
100
AcDbEntity
  8
RACCORDO
100
AcDbPolyline
 62
7
  6
CONTINUOUS
 90
21
 70
0
 10
-11.1092466267
 20
7.7814141363
 10
-11.1744538719
 20
7.7338014506
 10
-11.2323306478
 20
7.674227456
 10
-11.2818221386
 20
7.6031175234
 10
-11.3221936685
 20
7.5205682825
 10
-11.3523981142
 20
7.4275065182
 10
-11.371567247
 20
7.3260794332
 10
-11.3795709417
 20
7.2174538366
 10
-11.3763673679
 20
7.1025356316
 10
-11.3621403813
 20
6.9837550997
 10
-11.3374035921
 20
6.8629713691
 10
-11.3025832244
 20
6.7410883276
 10
-11.2582052522
 20
6.6194622888
 10
-11.2049142607
 20
6.4995519051
 10
-11.1433783279
 20
6.3826649948
 10
-11.0742612064
 20
6.2699945523
 10
-10.9983486292
 20
6.1628399148
 10
-10.9165096718
 20
6.0624830658
 10
-10.8295531964
 20
5.9700245498
 10
-10.7383490154
 20
5.8865662585
 10
-10.6438825907
 20
5.8132272853
  0
LINE
  5
239
100
AcDbEntity
  8
DRAFT
100
AcDbLine
 62
7
  6
CONTINUOUS
 10
-10.9489012073
 20
7.8786236088
 11
-11.1092467179
 21
7.781414081
  0
LINE
  5
23A
100
AcDbEntity
  8
RACCORDO
100
AcDbLine
 62
7
  6
CONTINUOUS
 10
-11.2436347548
 20
7.8349809975
 11
-11.2435233933
 21
7.8350421808
  0
LWPOLYLINE
  5
23B
100
AcDbEntity
  8
RACCORDO
100
AcDbPolyline
 62
7
  6
CONTINUOUS
 90
65
 70
0
 10
-11.2436419465
 20
7.8349768675
 10
-11.2320840231
 20
7.8410762023
 10
-11.2073669726
 20
7.8525128417
 10
-11.1819606773
 20
7.8621851338
 10
-11.1557962019
 20
7.8701566046
 10
-11.1288946975
 20
7.8764451859
 10
-11.1013095845
 20
7.8810589692
 10
-11.0730174159
 20
7.8840168822
 10
-11.0440535927
 20
7.8853249012
 10
-11.014478263
 20
7.884987953
 10
-10.9843088772
 20
7.8830131272
 10
-10.9536030825
 20
7.8794104494
 10
-10.9224170988
 20
7.8741915962
 10
-10.8907655981
 20
7.8673625876
 10
-10.8587070358
 20
7.8589385328
 10
-10.8263010522
 20
7.8489367754
 10
-10.7935585962
 20
7.8373608742
 10
-10.7605379916
 20
7.8242306118
 10
-10.7272964164
 20
7.8095671456
 10
-10.6938367022
 20
7.7933679112
 10
-10.6602190817
 20
7.7756573053
 10
-10.626494568
 20
7.756456706
 10
-10.5926470693
 20
7.7357473744
 10
-10.5587090561
 20
7.7135359909
 10
-10.52475688
 20
7.6898585809
 10
-10.4908373547
 20
7.664734888
 10
-10.4569970437
 20
7.6381878747
 10
-10.4232973659
 20
7.6102535196
 10
-10.3898049494
 20
7.5809758811
 10
-10.3565726583
 20
7.5503932784
 10
-10.3236523588
 20
7.5185450556
 10
-10.2911062009
 20
7.4854829961
 10
-10.258985508
 20
7.4512540863
 10
-10.2273384605
 20
7.4159042779
 10
-10.1962194559
 20
7.379488313
 10
-10.1656763632
 20
7.3420589504
 10
-10.135754342
 20
7.3036683573
 10
-10.106500977
 20
7.2643733078
 10
-10.077959805
 20
7.2242303136
 10
-10.0501729869
 20
7.1832971905
 10
-10.0231835999
 20
7.1416346233
 10
-9.9970310864
 20
7.0993028121
 10
-9.9717533603
 20
7.0563634409
 10
-9.9473889674
 20
7.0128808598
 10
-9.923972933
 20
6.9689183547
 10
-9.9015382268
 20
6.9245402596
 10
-9.8801182878
 20
6.8798135989
 10
-9.8597431837
 20
6.8348037433
 10
-9.8404405467
 20
6.7895768217
 10
-9.8222383531
 20
6.7442019338
 10
-9.805161146
 20
6.6987454008
 10
-9.7892308777
 20
6.6532745632
 10
-9.7744699056
 20
6.6078609997
 10
-9.7608964727
 20
6.5625701128
 10
-9.7485265813
 20
6.5174702797
 10
-9.737377077
 20
6.4726385048
 10
-9.7274596192
 20
6.4281403565
 10
-9.7187826119
 20
6.3840425699
 10
-9.7113551162
 20
6.3404247866
 10
-9.7051812707
 20
6.2973517533
 10
-9.7002612885
 20
6.254884511
 10
-9.6965948975
 20
6.2130977965
 10
-9.6941782053
 20
6.1720570909
 10
-9.6930023629
 20
6.1318206834
 10
-9.6929116091
 20
6.104224781
  0
LWPOLYLINE
  5
23C
100
AcDbEntity
  8
RACCORDO
100
AcDbPolyline
 62
7
  6
CONTINUOUS
 90
23
 70
0
 10
-9.6929114452
 20
-1.2455461107
 10
-9.6929628349
 20
-1.2695262737
 10
-9.6939553499
 20
-1.3055835121
 10
-9.6960508884
 20
-1.3408574418
 10
-9.6992441722
 20
-1.3752738159
 10
-9.7035284362
 20
-1.4087952309
 10
-9.7089009402
 20
-1.4414110079
 10
-9.7153542397
 20
-1.4730677515
 10
-9.7228774779
 20
-1.5037134249
 10
-9.7314665535
 20
-1.5333290086
 10
-9.7411088191
 20
-1.561859163
 10
-9.7517894131
 20
-1.5892540746
 10
-9.7635031756
 20
-1.6154955893
 10
-9.7762319093
 20
-1.6405317385
 10
-9.7899588881
 20
-1.6643212123
 10
-9.8046857226
 20
-1.6868574341
 10
-9.8203893446
 20
-1.7080901789
 10
-9.837061152
 20
-1.727994073
 10
-9.8547388538
 20
-1.746592519
 10
-9.8734082561
 20
-1.7638385975
 10
-9.8930784961
 20
-1.7797092581
 10
-9.9138502173
 20
-1.7942399183
 10
-9.9234244487
 20
-1.8002450291
  0
LWPOLYLINE
  5
23D
100
AcDbEntity
  8
RACCORDO
100
AcDbPolyline
 62
253
  6
CONTINUOUS
 90
85
 70
0
 10
-9.6636220866
 20
-1.2863333987
 10
-9.6639547009
 20
-1.3284882523
 10
-9.6656702588
 20
-1.3698155873
 10
-9.6687687671
 20
-1.4103154073
 10
-9.6732499666
 20
-1.4500701703
 10
-9.679114115
 20
-1.4889974164
 10
-9.6863620612
 20
-1.5268498112
 10
-9.6950083194
 20
-1.5636175063
 10
-9.7050385234
 20
-1.5993104363
 10
-9.7164103341
 20
-1.6337110196
 10
-9.7291364406
 20
-1.6668044627
 10
-9.7432044266
 20
-1.6986057188
 10
-9.7585344143
 20
-1.7289418965
 10
-9.7751270075
 20
-1.7577889596
 10
-9.7929819759
 20
-1.7851711636
 10
-9.8120182785
 20
-1.8109881064
 10
-9.8322336678
 20
-1.8352301437
 10
-9.8536308089
 20
-1.8579071654
 10
-9.8761360836
 20
-1.8789481039
 10
-9.8997570129
 20
-1.8983542516
 10
-9.9244865083
 20
-1.9161245707
 10
-9.9502290811
 20
-1.932184524
 10
-9.9769948704
 20
-1.9465295895
 10
-10.0047741806
 20
-1.9591645506
 10
-10.0334418102
 20
-1.9700288514
 10
-10.0630004909
 20
-1.9791125653
 10
-10.0934479298
 20
-1.9864258777
 10
-10.1246514155
 20
-1.9919384172
 10
-10.1566115693
 20
-1.9956421934
 10
-10.1893281761
 20
-1.9975454363
 10
-10.2226672804
 20
-1.9976421118
 10
-10.2566316379
 20
-1.9959254725
 10
-10.2912188442
 20
-1.9924024731
 10
-10.3262872012
 20
-1.987087631
 10
-10.3618403562
 20
-1.9799734286
 10
-10.3978749418
 20
-1.9710675488
 10
-10.4342387263
 20
-1.9604073029
 10
-10.4709331022
 20
-1.9479852028
 10
-10.507956872
 20
-1.9338088518
 10
-10.5451539007
 20
-1.9179381871
 10
-10.5825244132
 20
-1.9003663549
 10
-10.6200682846
 20
-1.8811002681
 10
-10.6576288327
 20
-1.8602204999
 10
-10.6952061225
 20
-1.8377204093
 10
-10.7328000891
 20
-1.8136066372
 10
-10.7702538302
 20
-1.7879796654
 10
-10.8075672742
 20
-1.7608327027
 10
-10.8447403929
 20
-1.7321724811
 10
-10.8816163263
 20
-1.7021197532
 10
-10.9181938768
 20
-1.6706682876
 10
-10.9544740472
 20
-1.6378242006
 10
-10.9903032594
 20
-1.6037267547
 10
-11.0256780131
 20
-1.5683722073
 10
-11.0606015287
 20
-1.5317641356
 10
-11.0949302986
 20
-1.4940527758
 10
-11.1286615974
 20
-1.4552341882
 10
-11.1617977992
 20
-1.415312105
 10
-11.1942030434
 20
-1.3744482686
 10
-11.2258768304
 20
-1.3326349553
 10
-11.2568192536
 20
-1.2898796491
 10
-11.2868953519
 20
-1.2463669111
 10
-11.3161027446
 20
-1.202089128
 10
-11.3444433736
 20
-1.1570536541
 10
-11.3717887886
 20
-1.1114675181
 10
-11.3981289942
 20
-1.0653369774
 10
-11.4234735423
 20
-1.0186555131
 10
-11.4477233437
 20
-0.971611013
 10
-11.4708705159
 20
-0.9242133553
 10
-11.4929225091
 20
-0.8764524073
 10
-11.5138032772
 20
-0.8284860666
 10
-11.5335149999
 20
-0.7803023976
 10
-11.5520550805
 20
-0.7319130906
 10
-11.569340362
 20
-0.6835115137
 10
-11.585370932
 20
-0.6350736129
 10
-11.6001463292
 20
-0.5866232228
 10
-11.6135826602
 20
-0.5384255954
 10
-11.6256677144
 20
-0.4904793123
 10
-11.6364134279
 20
-0.4427856312
 10
-11.6457722454
 20
-0.3956138878
 10
-11.6537296921
 20
-0.348970293
 10
-11.6603000932
 20
-0.3028485488
 10
-11.6654792255
 20
-0.2574993059
 10
-11.6692657069
 20
-0.2130061297
 10
-11.6716609204
 20
-0.1692854561
 10
-11.6726648586
 20
-0.1263372813
  0
LWPOLYLINE
  5
23E
100
AcDbEntity
  8
RACCORDO
100
AcDbPolyline
 62
7
  6
CONTINUOUS
 90
23
 70
0
 10
-9.6929115586
 20
6.1042188001
 10
-9.6933402861
 20
6.0797858743
 10
-9.694918298
 20
6.0431663861
 10
-9.6976098807
 20
6.0073395351
 10
-9.7014083658
 20
5.9723803171
 10
-9.7063061308
 20
5.9383264254
 10
-9.7123001689
 20
5.90518839
 10
-9.7193820687
 20
5.8730199492
 10
-9.7275399902
 20
5.8418732725
 10
-9.7367698262
 20
5.811766584
 10
-9.7470582559
 20
5.7827553247
 10
-9.7583896489
 20
5.7548895863
 10
-9.7707591689
 20
5.7281869848
 10
-9.784148398
 20
5.7026995762
 10
-9.7985399476
 20
5.6784696903
 10
-9.8139353137
 20
5.6555051079
 10
-9.8303114669
 20
5.6338562713
 10
-9.8476583641
 20
5.6135509933
 10
-9.8660104742
 20
5.5945705662
 10
-9.8853525277
 20
5.5769624124
 10
-9.9056901416
 20
5.560752154
 10
-9.9271145682
 20
5.5459106892
 10
-9.9358748156
 20
5.5404394144
  0
LWPOLYLINE
  5
23F
100
AcDbEntity
  8
RACCORDO
100
AcDbPolyline
 62
253
  6
CONTINUOUS
 90
85
 70
0
 10
-9.6636220866
 20
6.063369033
 10
-9.6646097271
 20
6.0208145194
 10
-9.6669804474
 20
5.9790876316
 10
-9.6707342542
 20
5.9381883662
 10
-9.6758721676
 20
5.898033467
 10
-9.6823931657
 20
5.8587061921
 10
-9.6902942594
 20
5.8204562721
 10
-9.6995899483
 20
5.7832935742
 10
-9.7102658806
 20
5.7472081482
 10
-9.7222759218
 20
5.7124199231
 10
-9.7356326486
 20
5.6789437773
 10
-9.7503237571
 20
5.6467646784
 10
-9.7662659121
 20
5.6160576214
 10
-9.7834593351
 20
5.5868468887
 10
-9.8019041779
 20
5.5591079862
 10
-9.8215170888
 20
5.5329426945
 10
-9.8422956428
 20
5.5083607593
 10
-9.8642426827
 20
5.4853521978
 10
-9.8872828123
 20
5.4639891669
 10
-9.9114236448
 20
5.4442703175
 10
-9.9366579998
 20
5.4261967529
 10
-9.9628883352
 20
5.409844284
 10
-9.9901248124
 20
5.3952174268
 10
-10.0183577138
 20
5.3823114129
 10
-10.0474597182
 20
5.3711881043
 10
-10.0774334264
 20
5.3618575145
 10
-10.1082766767
 20
5.35430938
 10
-10.1398550313
 20
5.3485751316
 10
-10.1721689967
 20
5.34466284
 10
-10.205218473
 20
5.342564203
 10
-10.2388681236
 20
5.342286085
 10
-10.2731206287
 20
5.3438352933
 10
-10.3079736597
 20
5.3472048203
 10
-10.3432843651
 20
5.3523808101
 10
-10.379056315
 20
5.3593708449
 10
-10.4152862194
 20
5.3681671827
 10
-10.4518209266
 20
5.378732987
 10
-10.4886617267
 20
5.3910758226
 10
-10.5258075247
 20
5.4051880134
 10
-10.5631015718
 20
5.4210098721
 10
-10.6005439895
 20
5.4385483289
 10
-10.6381347564
 20
5.4577963965
 10
-10.6757168858
 20
5.4786735252
 10
-10.7132903382
 20
5.5011864282
 10
-10.7508551532
 20
5.5253283923
 10
-10.7882544373
 20
5.5509987418
 10
-10.8254880074
 20
5.5782043372
 10
-10.8625559466
 20
5.6069383752
 10
-10.8993017374
 20
5.637079697
 10
-10.9357240692
 20
5.6686346008
 10
-10.9718240575
 20
5.7015968997
 10
-11.0074488052
 20
5.7358267181
 10
-11.042594713
 20
5.7713278462
 10
-11.0772651002
 20
5.8080966533
 10
-11.1113174367
 20
5.8459821396
 10
-11.1447489044
 20
5.8849882865
 10
-11.17756197
 20
5.9251113127
 10
-11.2096220288
 20
5.9661885747
 10
-11.2409284492
 20
6.0082278572
 10
-11.2714814564
 20
6.051221607
 10
-11.3011477411
 20
6.0949841677
 10
-11.3299247797
 20
6.1395232263
 10
-11.3578146566
 20
6.1848313458
 10
-11.384691001
 20
6.2307001683
 10
-11.4105438238
 20
6.2771234191
 10
-11.4353826703
 20
6.3241076254
 10
-11.4591105106
 20
6.3714636103
 10
-11.4817195432
 20
6.4191814204
 10
-11.5032171372
 20
6.4672712547
 10
-11.5235290628
 20
6.51557414
 10
-11.5426573364
 20
6.5641020981
 10
-11.5605995245
 20
6.6128433439
 10
-11.5772747765
 20
6.6616031626
 10
-11.5926828105
 20
6.7104058515
 10
-11.6068235347
 20
6.7592273252
 10
-11.61961647
 20
6.8078002458
 10
-11.6310492678
 20
6.8561261094
 10
-11.6411340023
 20
6.904203575
 10
-11.6498269478
 20
6.9517609821
 10
-11.6571135869
 20
6.9987921285
 10
-11.6630082874
 20
7.0453033003
 10
-11.6675107842
 20
7.0910414934
 10
-11.6706210142
 20
7.1359223581
 10
-11.6723390414
 20
7.1800302425
 10
-11.6726648586
 20
7.2233651503
  0
LWPOLYLINE
  5
240
100
AcDbEntity
  8
RACCORDO
100
AcDbPolyline
 62
253
  6
CONTINUOUS
 90
5
 70
0
 10
-9.9024278994
 20
5.6912772514
 10
-9.8438541135
 20
5.7304698345
 10
-9.7886502316
 20
5.7837356192
 10
-9.7424654512
 20
5.8469255435
 10
-9.712252773
 20
5.9054504181
  0
LINE
  5
241
100
AcDbEntity
  8
RACCORDO
100
AcDbLine
 62
7
  6
CONTINUOUS
 10
-9.9357762455
 20
5.5404991236
 11
-9.9358708563
 21
5.5404417818
  0
LWPOLYLINE
  5
242
100
AcDbEntity
  8
RACCORDO
100
AcDbPolyline
 62
253
  6
CONTINUOUS
 90
65
 70
0
 10
-9.9358708563
 20
5.5404417818
 10
-9.9434511082
 20
5.5359503429
 10
-9.9687924619
 20
5.5223403918
 10
-9.9950261798
 20
5.5103530538
 10
-10.0221061281
 20
5.5000105392
 10
-10.0499923341
 20
5.4913278387
 10
-10.0786479675
 20
5.4843161188
 10
-10.1080285461
 20
5.4789857507
 10
-10.1380900272
 20
5.4753435803
 10
-10.1687927176
 20
5.4733932757
 10
-10.2000971229
 20
5.4731367124
 10
-10.2319596985
 20
5.4745739703
 10
-10.2643356501
 20
5.4777027512
 10
-10.297182784
 20
5.482518849
 10
-10.330456717
 20
5.4890160132
 10
-10.3641095717
 20
5.497185155
 10
-10.3980930783
 20
5.5070145547
 10
-10.4323595726
 20
5.5184903881
 10
-10.4668612314
 20
5.5315966211
 10
-10.50154887
 20
5.5463144433
 10
-10.5363733982
 20
5.5626228558
 10
-10.5712865461
 20
5.5804991195
 10
-10.6062400454
 20
5.5999184357
 10
-10.6411849254
 20
5.620853572
 10
-10.6760722094
 20
5.6432752087
 10
-10.71085362
 20
5.6671524065
 10
-10.7454809065
 20
5.6924521809
 10
-10.7799049585
 20
5.7191388379
 10
-10.8140765218
 20
5.7471743692
 10
-10.8479478247
 20
5.7765196381
 10
-10.8814711453
 20
5.807133397
 10
-10.9145979818
 20
5.8389714726
 10
-10.947280484
 20
5.8719876912
 10
-10.9794742385
 20
5.906137029
 10
-11.0111367412
 20
5.9413747234
 10
-11.0422231151
 20
5.977651232
 10
-11.072689914
 20
6.0149162796
 10
-11.102497603
 20
6.0531224441
 10
-11.1316063659
 20
6.0922201022
 10
-11.1599722848
 20
6.1321516739
 10
-11.1875511753
 20
6.1728558877
 10
-11.2143062186
 20
6.2142792375
 10
-11.2401973594
 20
6.2563604412
 10
-11.2651786015
 20
6.2990240093
 10
-11.2892111296
 20
6.3422013577
 10
-11.3122669777
 20
6.3858396898
 10
-11.3343189438
 20
6.4298858078
 10
-11.3553317086
 20
6.4742678391
 10
-11.3752813802
 20
6.5189337964
 10
-11.3941567386
 20
6.5638606038
 10
-11.4119326298
 20
6.6089962303
 10
-11.4285771208
 20
6.6542677068
 10
-11.4440675037
 20
6.6996205343
 10
-11.4583851349
 20
6.7450133783
 10
-11.4714984872
 20
6.7903600482
 10
-11.4833718095
 20
6.8355388218
 10
-11.4939901378
 20
6.8804904015
 10
-11.5033385315
 20
6.9251478369
 10
-11.5113944191
 20
6.9693805158
 10
-11.5181532462
 20
7.0131283823
 10
-11.5236126927
 20
7.0563333534
 10
-11.5277680369
 20
7.098873356
 10
-11.530625654
 20
7.1406741091
 10
-11.5321964813
 20
7.181706679
 10
-11.5324912084
 20
7.2219222067
  0
LINE
  5
243
100
AcDbEntity
  8
DRAFT
100
AcDbLine
 62
7
  6
CONTINUOUS
 10
-9.7502754595
 20
5.7748436976
 11
-9.902427906
 21
5.6912772477
  0
LWPOLYLINE
  5
244
100
AcDbEntity
  8
RACCORDO
100
AcDbPolyline
 62
7
  6
CONTINUOUS
 90
21
 70
0
 10
-11.1092466267
 20
0.4331816451
 10
-11.1744538719
 20
0.3855689595
 10
-11.2323306478
 20
0.3259949649
 10
-11.2818221386
 20
0.2548850323
 10
-11.3221936685
 20
0.1723357914
 10
-11.3523981142
 20
0.0792740271
 10
-11.371567247
 20
-0.0221530579
 10
-11.3795709417
 20
-0.1307786546
 10
-11.3763673679
 20
-0.2456968596
 10
-11.3621403813
 20
-0.3644773915
 10
-11.3374035921
 20
-0.4852611221
 10
-11.3025832244
 20
-0.6071441635
 10
-11.2582052522
 20
-0.7287702024
 10
-11.2049142607
 20
-0.8486805861
 10
-11.1433783279
 20
-0.9655674963
 10
-11.0742612064
 20
-1.0782379389
 10
-10.9983486292
 20
-1.1853925764
 10
-10.9165096718
 20
-1.2857494254
 10
-10.8295531964
 20
-1.3782079413
 10
-10.7383490154
 20
-1.4616662326
 10
-10.6438825907
 20
-1.5350052058
  0
LINE
  5
245
100
AcDbEntity
  8
RACCORDO
100
AcDbLine
 62
7
  6
CONTINUOUS
 10
-10.6438825907
 20
-1.5350052058
 11
-10.5471585244
 21
-1.5972000998
  0
LWPOLYLINE
  5
246
100
AcDbEntity
  8
RACCORDO
100
AcDbPolyline
 62
253
  6
CONTINUOUS
 90
4
 70
0
 10
-10.6438994035
 20
-1.5118615734
 10
-10.6176184635
 20
-1.5294751708
 10
-10.5921163217
 20
-1.5455962265
 10
-10.5674234504
 20
-1.56029896
  0
LWPOLYLINE
  5
247
100
AcDbEntity
  8
RACCORDO
100
AcDbPolyline
 62
253
  6
CONTINUOUS
 90
38
 70
0
 10
-9.9610515057
 20
-1.5832878991
 10
-9.9099096267
 20
-1.5339418791
 10
-9.8671238426
 20
-1.4754012462
 10
-9.8327746587
 20
-1.4088613981
 10
-9.8072531395
 20
-1.3370876241
 10
-9.7900412038
 20
-1.262372344
 10
-9.7801664926
 20
-1.185556371
 10
-9.7768534761
 20
-1.1074589028
 10
-9.7793992321
 20
-1.0291588523
 10
-9.7870855793
 20
-0.9515711715
 10
-9.7992992397
 20
-0.8749484027
 10
-9.8154409103
 20
-0.799901736
 10
-9.8349108335
 20
-0.7270138257
 10
-9.857287613
 20
-0.656287408
 10
-9.8820980054
 20
-0.5880540867
 10
-9.908868751
 20
-0.5226393854
 10
-9.9373261839
 20
-0.4599249451
 10
-9.9671055184
 20
-0.4000770924
 10
-9.997852499
 20
-0.3432402143
 10
-10.0294192802
 20
-0.2892103332
 10
-10.0615497318
 20
-0.2380268168
 10
-10.0939756144
 20
-0.1897504163
 10
-10.1266090237
 20
-0.1441904695
 10
-10.1592590397
 20
-0.1013339177
 10
-10.1917373517
 20
-0.0611663404
 10
-10.2240126872
 20
-0.0234936932
 10
-10.255952802
 20
0.0117353288
 10
-10.287423022
 20
0.0445669932
 10
-10.3184249449
 20
0.0751790273
 10
-10.3488706786
 20
0.1036423998
 10
-10.3786646756
 20
0.1300185872
 10
-10.4078214335
 20
0.1544590238
 10
-10.4362704962
 20
0.1770316924
 10
-10.4639596853
 20
0.1978171852
 10
-10.4909475173
 20
0.2169697794
 10
-10.5172284442
 20
0.2345833844
 10
-10.5427305793
 20
0.2507044439
 10
-10.5674234504
 20
0.2654071774
  0
LINE
  5
248
100
AcDbEntity
  8
DRAFT
100
AcDbLine
 62
7
  6
CONTINUOUS
 10
-10.9647516777
 20
0.5207817639
 11
-11.1092467179
 21
0.4331815898
  0
LINE
  5
249
100
AcDbEntity
  8
RACCORDO
100
AcDbLine
 62
7
  6
CONTINUOUS
 10
-11.256764329
 20
0.4795373582
 11
-11.2566252596
 21
0.4796137722
  0
LWPOLYLINE
  5
24A
100
AcDbEntity
  8
RACCORDO
100
AcDbPolyline
 62
7
  6
CONTINUOUS
 90
65
 70
0
 10
-11.2567717062
 20
0.4795331278
 10
-11.243821465
 20
0.486321344
 10
-11.2195575845
 20
0.4973626553
 10
-11.1946044989
 20
0.5066492109
 10
-11.1688778789
 20
0.5142537081
 10
-11.1423980378
 20
0.5201958988
 10
-11.1152225197
 20
0.5244847579
 10
-11.0873179998
 20
0.5271415117
 10
-11.0587205334
 20
0.5281719602
 10
-11.0294930771
 20
0.5275812333
 10
-10.9996441139
 20
0.5253759
 10
-10.9692288724
 20
0.5215645548
 10
-10.9383075627
 20
0.5161582855
 10
-10.906893471
 20
0.5091619352
 10
-10.8750446395
 20
0.5005895583
 10
-10.8428216349
 20
0.4904578779
 10
-10.8102348923
 20
0.4787693902
 10
-10.7773431454
 20
0.465543238
 10
-10.7442030253
 20
0.4507995826
 10
-10.7108147279
 20
0.4345336969
 10
-10.6772368596
 20
0.4167680383
 10
-10.6435216601
 20
0.3975234339
 10
-10.6096543201
 20
0.3767809245
 10
-10.5756655001
 20
0.3545451642
 10
-10.5416331079
 20
0.3308522266
 10
-10.5076101805
 20
0.3057257555
 10
-10.4736449635
 20
0.2791899203
 10
-10.4397972058
 20
0.2512792413
 10
-10.4061347329
 20
0.2220385377
 10
-10.3727105805
 20
0.1915060419
 10
-10.339576719
 20
0.1597208569
 10
-10.3067964444
 20
0.126735495
 10
-10.2744215043
 20
0.0925970262
 10
-10.2425001392
 20
0.0573510233
 10
-10.2110873863
 20
0.0210524043
 10
-10.1802314506
 20
-0.0162462343
 10
-10.1499778484
 20
-0.0544929632
 10
-10.1203748579
 20
-0.0936308514
 10
-10.0914664117
 20
-0.1336036071
 10
-10.0632951345
 20
-0.1743536791
 10
-10.0359048907
 20
-0.2158201951
 10
-10.0093356472
 20
-0.2579431108
 10
-9.9836257759
 20
-0.3006611536
 10
-9.9588144929
 20
-0.3439100913
 10
-9.9349374807
 20
-0.3876267151
 10
-9.9120281576
 20
-0.431747296
 10
-9.8901203543
 20
-0.4762056751
 10
-9.8692447843
 20
-0.5209368422
 10
-9.8494297576
 20
-0.5658751203
 10
-9.8307037785
 20
-0.6109523676
 10
-9.8130920741
 20
-0.6561028303
 10
-9.7966174609
 20
-0.7012594668
 10
-9.7813031628
 20
-0.7463511698
 10
-9.7671679505
 20
-0.7913138164
 10
-9.7542290078
 20
-0.8360785905
 10
-9.7425048529
 20
-0.880566299
 10
-9.732007702
 20
-0.9247121505
 10
-9.7227467365
 20
-0.96844954
 10
-9.7147325308
 20
-1.0116956772
 10
-9.7079695045
 20
-1.0543868374
 10
-9.7024582695
 20
-1.0964621495
 10
-9.6981995142
 20
-1.1378426273
 10
-9.6951893804
 20
-1.1784620105
 10
-9.6934186738
 20
-1.2182646761
 10
-9.6929115911
 20
-1.2455395398
  0
LWPOLYLINE
  5
24B
100
AcDbEntity
  8
RACCORDO
100
AcDbPolyline
 62
253
  6
CONTINUOUS
 90
8
 70
0
 10
-10.4813643527
 20
-1.6045670554
 10
-10.3963301312
 20
-1.6374580326
 10
-10.3133316411
 20
-1.6585817526
 10
-10.2333719397
 20
-1.6676865671
 10
-10.1573832267
 20
-1.6646717634
 10
-10.086224038
 20
-1.6495636927
 10
-10.0203569399
 20
-1.6223147311
 10
-9.9610515057
 20
-1.5832878991
  0
LWPOLYLINE
  5
24C
100
AcDbEntity
  8
RACCORDO
100
AcDbPolyline
 62
7
  6
CONTINUOUS
 90
9
 70
0
 10
-10.4676292769
 20
-1.6388707836
 10
-10.3888306134
 20
-1.6717509845
 10
-10.3112379289
 20
-1.6957721973
 10
-10.235118897
 20
-1.710923085
 10
-10.1611385241
 20
-1.7171214197
 10
-10.0903681772
 20
-1.7144541348
 10
-10.0234634428
 20
-1.7032702713
 10
-9.960672662
 20
-1.6839522392
 10
-9.9024278318
 20
-1.6569552026
  0
LINE
  5
24D
100
AcDbEntity
  8
RACCORDO
100
AcDbLine
 62
253
  6
CONTINUOUS
 10
-10.5674234504
 20
-1.56029896
 11
-10.4813643527
 21
-1.6045670554
  0
LINE
  5
24E
100
AcDbEntity
  8
RACCORDO
100
AcDbLine
 62
253
  6
CONTINUOUS
 10
-10.5674234504
 20
0.2654071774
 11
-10.6534818539
 21
0.3096756737
  0
LINE
  5
24F
100
AcDbEntity
  8
RACCORDO
100
AcDbLine
 62
7
  6
CONTINUOUS
 10
-10.5471585244
 20
-1.5972000998
 11
-10.4676292769
 21
-1.6388707836
  0
LINE
  5
250
100
AcDbEntity
  8
DRAFT
100
AcDbLine
 62
7
  6
CONTINUOUS
 10
-4.1084550782
 20
22.1194724999
 11
-4.0872583466
 21
21.5032487861
  0
LINE
  5
251
100
AcDbEntity
  8
RACCORDO
100
AcDbLine
 62
253
  6
CONTINUOUS
 10
-4.2886215246
 20
21.7054472195
 11
-4.2886215246
 21
21.6425420746
  0
LINE
  5
252
100
AcDbEntity
  8
RACCORDO
100
AcDbLine
 62
7
  6
CONTINUOUS
 10
3.8818515492
 20
17.5059695953
 11
3.7016851028
 21
17.0919443149
  0
LWPOLYLINE
  5
253
100
AcDbEntity
  8
RACCORDO
100
AcDbPolyline
 62
253
  6
CONTINUOUS
 90
5
 70
0
 10
-9.9024278994
 20
-1.6569552398
 10
-9.8438541135
 20
-1.6177626567
 10
-9.7886502316
 20
-1.564496872
 10
-9.7424654512
 20
-1.5013069477
 10
-9.7076619372
 20
-1.4338891809
  0
LINE
  5
254
100
AcDbEntity
  8
RACCORDO
100
AcDbLine
 62
7
  6
CONTINUOUS
 10
-9.9233051355
 20
-1.8001727523
 11
-9.9234203462
 21
-1.8002425741
  0
LWPOLYLINE
  5
255
100
AcDbEntity
  8
RACCORDO
100
AcDbPolyline
 62
253
  6
CONTINUOUS
 90
65
 70
0
 10
-9.9234203462
 20
-1.8002425741
 10
-9.9307968932
 20
-1.804611481
 10
-9.9556676843
 20
-1.8179394928
 10
-9.9814479356
 20
-1.8296556504
 10
-10.0080935814
 20
-1.8397390128
 10
-10.0355648125
 20
-1.8481746983
 10
-10.063824692
 20
-1.8549514817
 10
-10.0928304031
 20
-1.8600600194
 10
-10.1225380564
 20
-1.8634935626
 10
-10.1529078732
 20
-1.8652483883
 10
-10.1839016687
 20
-1.8653234279
 10
-10.2154760186
 20
-1.8637186683
 10
-10.2475860877
 20
-1.8604363691
 10
-10.2801907534
 20
-1.8554813868
 10
-10.3132457606
 20
-1.8488600331
 10
-10.3467031943
 20
-1.8405813453
 10
-10.3805156126
 20
-1.8306575259
 10
-10.4146355072
 20
-1.8191024588
 10
-10.4490149996
 20
-1.8059321038
 10
-10.4836054186
 20
-1.7911655502
 10
-10.5183578326
 20
-1.7748238448
 10
-10.5532239202
 20
-1.7569296403
 10
-10.5881556128
 20
-1.737507809
 10
-10.6231040986
 20
-1.7165856163
 10
-10.6580203515
 20
-1.694192286
 10
-10.6928559806
 20
-1.6703586336
 10
-10.727562898
 20
-1.6451176662
 10
-10.7620919379
 20
-1.6185049702
 10
-10.7963934037
 20
-1.590558235
 10
-10.8304196831
 20
-1.5613166115
 10
-10.8641229955
 20
-1.530821231
 10
-10.8974540665
 20
-1.4991157527
 10
-10.9303651851
 20
-1.4662463429
 10
-10.9628118892
 20
-1.4322579184
 10
-10.9947506162
 20
-1.3971945822
 10
-11.0261366166
 20
-1.3611058646
 10
-11.0569263957
 20
-1.3240419333
 10
-11.0870790932
 20
-1.2860494143
 10
-11.1165550539
 20
-1.2471779403
 10
-11.1453102664
 20
-1.2074849615
 10
-11.1732988352
 20
-1.167030755
 10
-11.2004841088
 20
-1.1258688529
 10
-11.2268259214
 20
-1.0840603951
 10
-11.2522761477
 20
-1.0416796378
 10
-11.2767959849
 20
-0.9987951031
 10
-11.300357499
 20
-0.9554595407
 10
-11.3229313867
 20
-0.9117249487
 10
-11.3444822656
 20
-0.8676630832
 10
-11.3649863419
 20
-0.8233259458
 10
-11.3844305399
 20
-0.7787356206
 10
-11.4027898924
 20
-0.7339441826
 10
-11.4200323169
 20
-0.6890244575
 10
-11.4361327552
 20
-0.6440296808
 10
-11.451072955
 20
-0.5990013879
 10
-11.4648210401
 20
-0.5540254712
 10
-11.4773378017
 20
-0.5092216539
 10
-11.4886084204
 20
-0.4646492798
 10
-11.4986178388
 20
-0.4203751674
 10
-11.507339626
 20
-0.376527684
 10
-11.5147692517
 20
-0.3331668666
 10
-11.5209043811
 20
-0.2903507501
 10
-11.5257363631
 20
-0.2481991429
 10
-11.5292702588
 20
-0.206785562
 10
-11.5315183122
 20
-0.1661396637
 10
-11.5324912084
 20
-0.1263102845
  0
LINE
  5
256
100
AcDbEntity
  8
DRAFT
100
AcDbLine
 62
7
  6
CONTINUOUS
 10
-9.7443310572
 20
-1.5701239587
 11
-9.902427906
 21
-1.6569552434
  0
LWPOLYLINE
  5
257
100
AcDbEntity
  8
RACCORDO
100
AcDbPolyline
 62
253
  6
CONTINUOUS
 90
42
 70
0
 10
-10.6534818539
 20
0.3096756737
 10
-10.7385156804
 20
0.342566879
 10
-10.8215140747
 20
0.3636906543
 10
-10.9014741372
 20
0.3727952603
 10
-10.9774635105
 20
0.3697800754
 10
-11.0486231853
 20
0.3546717239
 10
-11.1144903624
 20
0.3274227168
 10
-11.1737957013
 20
0.2883959398
 10
-11.2249375377
 20
0.2390499444
 10
-11.2677234392
 20
0.1805092437
 10
-11.3020727931
 20
0.1139692974
 10
-11.327594439
 20
0.0421954503
 10
-11.3448064115
 20
-0.0325198511
 10
-11.3546811164
 20
-0.1093358204
 10
-11.3579941272
 20
-0.1874332853
 10
-11.3554483871
 20
-0.265733345
 10
-11.3477620564
 20
-0.3433210354
 10
-11.3355483947
 20
-0.4199438034
 10
-11.3194066917
 20
-0.4949904514
 10
-11.2999367182
 20
-0.5678783326
 10
-11.2775598903
 20
-0.6386047224
 10
-11.2527494594
 20
-0.7068380215
 10
-11.2259786772
 20
-0.7722527016
 10
-11.1975212063
 20
-0.83496712
 10
-11.16774183
 20
-0.8948149485
 10
-11.1369948061
 20
-0.9516518016
 10
-11.1054279849
 20
-1.0056816597
 10
-11.0732974989
 20
-1.0568651562
 10
-11.0408715852
 20
-1.1051415388
 10
-11.0082381465
 20
-1.1507014686
 10
-10.9755881022
 20
-1.193558004
 10
-10.9431097636
 20
-1.233725566
 10
-10.9108344027
 20
-1.2713981986
 10
-10.8788942624
 20
-1.3066272058
 10
-10.8474240181
 20
-1.3394588562
 10
-10.8164220761
 20
-1.3700708792
 10
-10.7859763338
 20
-1.3985342467
 10
-10.7561823332
 20
-1.4249104321
 10
-10.7270255655
 20
-1.449350863
 10
-10.6985764787
 20
-1.4719235177
 10
-10.6708872594
 20
-1.492708993
 10
-10.6438994035
 20
-1.5118615734
  0
LWPOLYLINE
  5
258
100
AcDbEntity
  8
RACCORDO
100
AcDbPolyline
 62
7
  6
CONTINUOUS
 90
28
 70
0
 10
12.6876908819
 20
-10.309661491
 10
12.7050195199
 20
-10.3192074496
 10
12.7262044804
 20
-10.329723389
 10
12.7479106584
 20
-10.3393161055
 10
12.7700973838
 20
-10.3480081817
 10
12.7927289101
 20
-10.3558190063
 10
12.8157570102
 20
-10.3627593697
 10
12.839142576
 20
-10.368841734
 10
12.8628506449
 20
-10.3740742755
 10
12.8868197294
 20
-10.3784594119
 10
12.9110110737
 20
-10.3820029305
 10
12.9353892236
 20
-10.3847080828
 10
12.9598860241
 20
-10.3865751426
 10
12.9844625585
 20
-10.3876052396
 10
13.0090809552
 20
-10.3877991664
 10
13.0336711448
 20
-10.3871562937
 10
13.0581953049
 20
-10.3856754534
 10
13.0826144814
 20
-10.3833548739
 10
13.1068604457
 20
-10.3801932102
 10
13.1308977927
 20
-10.3761868762
 10
13.1546878036
 20
-10.3713293445
 10
13.1781691415
 20
-10.365617488
 10
13.201306818
 20
-10.3590425935
 10
13.2240620381
 20
-10.3515915525
 10
13.2463871984
 20
-10.343252886
 10
13.2682467101
 20
-10.3340065358
 10
13.2895998603
 20
-10.323829841
 10
13.3043107805
 20
-10.3160912712
  0
LWPOLYLINE
  5
259
100
AcDbEntity
  8
RACCORDO
100
AcDbPolyline
 62
253
  6
CONTINUOUS
 90
34
 70
0
 10
12.6462709118
 20
-10.217995934
 10
12.6632984684
 20
-10.2273783049
 10
12.6810713404
 20
-10.2362925045
 10
12.6995501276
 20
-10.2447188176
 10
12.718693572
 20
-10.2526385457
 10
12.7384595202
 20
-10.2600342885
 10
12.7588051087
 20
-10.2668899007
 10
12.7796860148
 20
-10.2731904176
 10
12.8010553699
 20
-10.2789216236
 10
12.8228647156
 20
-10.284070368
 10
12.8450650671
 20
-10.2886252616
 10
12.8676078388
 20
-10.2925764664
 10
12.8904438366
 20
-10.2959151734
 10
12.9135228015
 20
-10.2986341232
 10
12.9367932992
 20
-10.3007273044
 10
12.9602035905
 20
-10.3021898032
 10
12.9837018233
 20
-10.3030185191
 10
13.0072359241
 20
-10.3032117181
 10
13.0307535237
 20
-10.3027686841
 10
13.0542025089
 20
-10.3016905759
 10
13.0775309369
 20
-10.2999799263
 10
13.1006869265
 20
-10.2976402317
 10
13.1236188653
 20
-10.2946769281
 10
13.1462762846
 20
-10.2910967334
 10
13.1686097402
 20
-10.2869070993
 10
13.1905703604
 20
-10.2821173198
 10
13.2121088152
 20
-10.276738255
 10
13.2331762469
 20
-10.2707817361
 10
13.2537257439
 20
-10.2642613112
 10
13.2737121325
 20
-10.257191591
 10
13.2930909809
 20
-10.2495879847
 10
13.3118193782
 20
-10.2414674386
 10
13.3298560069
 20
-10.2328483774
 10
13.3471610165
 20
-10.223750157
  0
LINE
  5
25A
100
AcDbEntity
  8
RACCORDO
100
AcDbLine
 62
253
  6
CONTINUOUS
 10
12.64627091
 20
-10.8007497962
 11
-18.1011250292
 21
6.9524112637
  0
LINE
  5
25B
100
AcDbEntity
  8
RACCORDO
100
AcDbLine
 62
253
  6
CONTINUOUS
 10
12.7864669386
 20
-10.5564081693
 11
-17.9609466527
 21
7.1967630827
  0
LINE
  5
25C
100
AcDbEntity
  8
RACCORDO
100
AcDbLine
 62
7
  6
CONTINUOUS
 10
-18.0597173671
 20
7.4435062721
 11
12.6876962246
 21
-10.3096649801
  0
LINE
  5
25D
100
AcDbEntity
  8
RACCORDO
100
AcDbLine
 62
253
  6
CONTINUOUS
 10
-18.1011250292
 20
7.5351651206
 11
12.6462709099
 21
-10.2179959393
  0
LWPOLYLINE
  5
25E
100
AcDbEntity
  8
RACCORDO
100
AcDbPolyline
 62
253
  6
CONTINUOUS
 90
18
 70
0
 10
-18.1011250274
 20
6.9524112606
 10
-18.1173701665
 20
6.9622453895
 10
-18.1327958973
 20
6.9725147991
 10
-18.1473680789
 20
6.9831967373
 10
-18.1610542615
 20
6.99426742
 10
-18.1738243915
 20
7.0057024605
 10
-18.1856507359
 20
7.0174769775
 10
-18.1965073415
 20
7.0295653999
 10
-18.206369655
 20
7.0419406275
 10
-18.2152152873
 20
7.0545744574
 10
-18.2230244923
 20
7.0674386187
 10
-18.2297802986
 20
7.0805050194
 10
-18.2354679735
 20
7.0937449533
 10
-18.2400749288
 20
7.1071294099
 10
-18.2435908278
 20
7.1206286488
 10
-18.2460078208
 20
7.1342124148
 10
-18.2473205352
 20
7.147850771
 10
-18.2475807941
 20
7.1570926476
  0
LWPOLYLINE
  5
25F
100
AcDbEntity
  8
RACCORDO
100
AcDbPolyline
 62
253
  6
CONTINUOUS
 90
30
 70
0
 10
-17.9609466527
 20
7.1967630827
 10
-17.9707191746
 20
7.2026833867
 10
-17.9799629457
 20
7.2088396129
 10
-17.9886779662
 20
7.2152317613
 10
-17.9968817343
 20
7.2218753085
 10
-18.0045567518
 20
7.2287547779
 10
-18.0116505232
 20
7.2358237395
 10
-18.0181587446
 20
7.2430832455
 10
-18.02408572
 20
7.2505322438
 10
-18.0293918661
 20
7.2581211478
 10
-18.0340729198
 20
7.2658507193
 10
-18.0381331443
 20
7.2737201967
 10
-18.0415457462
 20
7.2816777076
 10
-18.0443065026
 20
7.2897239515
 10
-18.0464196363
 20
7.297858229
 10
-18.0478710228
 20
7.3060265704
 10
-18.0486562241
 20
7.3142292373
 10
-18.0487796781
 20
7.3224659681
 10
-18.0482405738
 20
7.3306820087
 10
-18.047034474
 20
7.3388771741
 10
-18.0451658158
 20
7.3470516493
 10
-18.0426470998
 20
7.3551512351
 10
-18.0394740855
 20
7.3631753322
 10
-18.0356510134
 20
7.3711245399
 10
-18.0312031048
 20
7.3789464567
 10
-18.0261260738
 20
7.3866404049
 10
-18.0204242063
 20
7.3942070621
 10
-18.0141355816
 20
7.4015960597
 10
-18.0072558674
 20
7.408806436
 10
-18.0043537139
 20
7.4115399927
  0
LWPOLYLINE
  5
260
100
AcDbEntity
  8
RACCORDO
100
AcDbPolyline
 62
253
  6
CONTINUOUS
 90
31
 70
0
 10
13.6510891514
 20
6.4284084916
 10
13.6320245283
 20
6.4191854094
 10
13.6120800172
 20
6.4105436896
 10
13.5913090776
 20
6.4025064957
 10
13.5697673845
 20
6.3950953708
 10
13.5475126788
 20
6.3883301797
 10
13.5246046126
 20
6.3822290562
 10
13.5011045891
 20
6.3768083538
 10
13.4770755984
 20
6.3720826023
 10
13.4525820484
 20
6.3680644687
 10
13.4276895921
 20
6.3647647232
 10
13.4024649518
 20
6.3621922107
 10
13.3769757404
 20
6.3603538265
 10
13.3512902797
 20
6.3592544983
 10
13.3254774176
 20
6.3588971727
 10
13.2996063435
 20
6.3592828076
 10
13.2737464029
 20
6.3604103693
 10
13.2479669114
 20
6.3622768353
 10
13.2223369689
 20
6.3648772029
 10
13.1969252746
 20
6.3682045019
 10
13.1717999424
 20
6.3722498137
 10
13.1470283191
 20
6.3770022953
 10
13.122676803
 20
6.3824492079
 10
13.0988106666
 20
6.3885759514
 10
13.0754938811
 20
6.3953661037
 10
13.0527889454
 20
6.4028014643
 10
13.0307567185
 20
6.4108621031
 10
13.0094562559
 20
6.4195264144
 10
12.9889446521
 20
6.4287711741
 10
12.9692768866
 20
6.4385716022
 10
12.9505056776
 20
6.4489014295
  0
LWPOLYLINE
  5
261
100
AcDbEntity
  8
RACCORDO
100
AcDbPolyline
 62
253
  6
CONTINUOUS
 90
6
 70
0
 10
-10.8497396315
 20
0.4926330609
 10
-10.858972494
 20
0.4936845957
 10
-10.9409985563
 20
0.490434156
 10
-11.0178114601
 20
0.4741288569
 10
-11.0889106927
 20
0.4447159471
 10
-11.10924669
 20
0.4331816068
  0
LINE
  5
262
100
AcDbEntity
  8
RACCORDO
100
AcDbLine
 62
7
  6
CONTINUOUS
 10
-10.6438825907
 20
5.8132272853
 11
-10.5471585244
 21
5.7510323913
  0
LWPOLYLINE
  5
263
100
AcDbEntity
  8
RACCORDO
100
AcDbPolyline
 62
253
  6
CONTINUOUS
 90
4
 70
0
 10
-10.6438994035
 20
5.8363709177
 10
-10.6176184635
 20
5.8187573203
 10
-10.5921163217
 20
5.8026362646
 10
-10.5674234504
 20
5.7879335312
  0
LWPOLYLINE
  5
264
100
AcDbEntity
  8
RACCORDO
100
AcDbPolyline
 62
253
  6
CONTINUOUS
 90
43
 70
0
 10
13.9664524774
 20
8.1946629159
 10
13.9288039309
 20
8.1704160139
 10
13.8912722502
 20
8.1447245169
 10
13.8539033345
 20
8.1176204894
 10
13.8167424213
 20
8.0891380884
 10
13.7798354234
 20
8.0593124881
 10
13.7432288772
 20
8.0281798153
 10
13.7069672994
 20
7.9957785915
 10
13.6710953162
 20
7.9621493959
 10
13.6356589802
 20
7.9273338391
 10
13.6007019161
 20
7.8913755835
 10
13.5662665618
 20
7.8543191727
 10
13.5323962971
 20
7.8162096975
 10
13.4991325289
 20
7.7770945307
 10
13.4665159474
 20
7.7370223976
 10
13.4345877587
 20
7.6960422504
 10
13.4033869652
 20
7.6542049253
 10
13.3729517746
 20
7.611562556
 10
13.3433208596
 20
7.568167628
 10
13.3145305467
 20
7.5240741618
 10
13.2866159285
 20
7.4793368756
 10
13.2596122775
 20
7.4340105939
 10
13.2335526509
 20
7.3881515985
 10
13.2084688662
 20
7.3418168604
 10
13.1843926151
 20
7.2950632075
 10
13.1613533317
 20
7.2479485488
 10
13.1393791969
 20
7.2005314888
 10
13.1184981121
 20
7.1528705565
 10
13.0987356883
 20
7.1050249797
 10
13.0801159718
 20
7.0570540214
 10
13.0626624594
 20
7.0090165925
 10
13.0463965534
 20
6.960972293
 10
13.0313380593
 20
6.9129806576
 10
13.0175059349
 20
6.8651004968
 10
13.0049170649
 20
6.8173907492
 10
12.9935869168
 20
6.7699109498
 10
12.9835300034
 20
6.7227204612
 10
12.9747586734
 20
6.6758779714
 10
12.9672834804
 20
6.629441234
 10
12.9611138242
 20
6.5834675303
 10
12.9562573008
 20
6.5380136895
 10
12.9527196914
 20
6.4931360184
 10
12.9505052686
 20
6.4488900289
  0
LWPOLYLINE
  5
265
100
AcDbEntity
  8
RACCORDO
100
AcDbPolyline
 62
253
  6
CONTINUOUS
 90
43
 70
0
 10
14.3322768107
 20
7.5899968319
 10
14.3069890406
 20
7.5738827426
 10
14.2818391331
 20
7.5568486373
 10
14.2568270881
 20
7.538894516
 10
14.2319217703
 20
7.5199955905
 10
14.2071543151
 20
7.5001766491
 10
14.1826181281
 20
7.4795120561
 10
14.1583144762
 20
7.4579988743
 10
14.1342420926
 20
7.4356400409
 10
14.1104905828
 20
7.4125187332
 10
14.0870613299
 20
7.3886322793
 10
14.0639529507
 20
7.363983351
 10
14.0412509009
 20
7.3386631408
 10
14.0189566558
 20
7.3126691439
 10
13.9970687401
 20
7.2860038652
 10
13.9756681835
 20
7.2587660119
 10
13.9547567363
 20
7.2309533748
 10
13.9343326483
 20
7.202568163
 10
13.9144716985
 20
7.1737157121
 10
13.8951760322
 20
7.1443943587
 10
13.876443504
 20
7.1146057661
 10
13.8583434577
 20
7.084460259
 10
13.8408782419
 20
7.0539565269
 10
13.8240455078
 20
7.0230958803
 10
13.8079075536
 20
6.9919925757
 10
13.7924669259
 20
6.9606456456
 10
13.7777210781
 20
6.9290560575
 10
13.7637246674
 20
6.8973409696
 10
13.750480512
 20
6.8654999972
 10
13.7379857938
 20
6.833533525
 10
13.7262867156
 20
6.8015598653
 10
13.715386224
 20
6.769579033
 10
13.7052813725
 20
6.7375910131
 10
13.6960095245
 20
6.7057140735
 10
13.6875737305
 20
6.6739483848
 10
13.67997094
 20
6.6422937764
 10
13.6732293646
 20
6.6108680048
 10
13.6673522121
 20
6.579671284
 10
13.6623362747
 20
6.5487034
 10
13.6582001411
 20
6.5180814673
 10
13.6549500074
 20
6.4878445241
 10
13.6525796775
 20
6.4579535322
 10
13.6510891514
 20
6.4284084916
  0
LINE
  5
266
100
AcDbEntity
  8
RACCORDO
100
AcDbLine
 62
253
  6
CONTINUOUS
 10
16.8871405913
 20
9.9968786969
 11
13.9664525262
 21
8.1946628877
  0
LINE
  5
267
100
AcDbEntity
  8
RACCORDO
100
AcDbLine
 62
253
  6
CONTINUOUS
 10
17.271767386
 20
9.4038147637
 11
14.3322768107
 21
7.5899968319
  0
LWPOLYLINE
  5
268
100
AcDbEntity
  8
RACCORDO
100
AcDbPolyline
 62
253
  6
CONTINUOUS
 90
8
 70
0
 10
-10.4813643527
 20
5.7436654357
 10
-10.3963301312
 20
5.7107744585
 10
-10.3133316411
 20
5.6896507385
 10
-10.2333719397
 20
5.6805459241
 10
-10.1573832267
 20
5.6835607277
 10
-10.086224038
 20
5.6986687984
 10
-10.0203569399
 20
5.72591776
 10
-9.9610515057
 20
5.7649445921
  0
LWPOLYLINE
  5
269
100
AcDbEntity
  8
RACCORDO
100
AcDbPolyline
 62
7
  6
CONTINUOUS
 90
9
 70
0
 10
-10.4676292769
 20
5.7093617075
 10
-10.3888306134
 20
5.6764815066
 10
-10.3112379289
 20
5.6524602938
 10
-10.235118897
 20
5.6373094061
 10
-10.1611385241
 20
5.6311110714
 10
-10.0903681772
 20
5.6337783563
 10
-10.0234634428
 20
5.6449622198
 10
-9.960672662
 20
5.664280252
 10
-9.9024278318
 20
5.6912772885
  0
LINE
  5
26A
100
AcDbEntity
  8
RACCORDO
100
AcDbLine
 62
253
  6
CONTINUOUS
 10
-10.5674234504
 20
5.7879335312
 11
-10.4813643527
 21
5.7436654357
  0
LINE
  5
26B
100
AcDbEntity
  8
RACCORDO
100
AcDbLine
 62
253
  6
CONTINUOUS
 10
-10.5674234504
 20
7.6136396686
 11
-10.6534818539
 21
7.6579081648
  0
LINE
  5
26C
100
AcDbEntity
  8
RACCORDO
100
AcDbLine
 62
7
  6
CONTINUOUS
 10
-10.5471585244
 20
5.7510323913
 11
-10.4676292769
 21
5.7093617075
  0
LINE
  5
26D
100
AcDbEntity
  8
RACCORDO
100
AcDbLine
 62
7
  6
CONTINUOUS
 10
17.5848842178
 20
-7.9717377683
 11
17.6725135204
 21
-8.0223338293
  0
LINE
  5
26E
100
AcDbEntity
  8
DRAFT
100
AcDbLine
 62
7
  6
CONTINUOUS
 10
3.8818515492
 20
17.5059695953
 11
3.9030482809
 21
16.8897458814
  0
LINE
  5
26F
100
AcDbEntity
  8
RACCORDO
100
AcDbLine
 62
253
  6
CONTINUOUS
 10
3.7016851028
 20
17.0919443149
 11
3.7016851028
 21
17.02903917
  0
LWPOLYLINE
  5
270
100
AcDbEntity
  8
RACCORDO
100
AcDbPolyline
 62
253
  6
CONTINUOUS
 90
42
 70
0
 10
-10.6534818539
 20
7.6579081648
 10
-10.7385156804
 20
7.6907993701
 10
-10.8215140747
 20
7.7119231454
 10
-10.9014741372
 20
7.7210277514
 10
-10.9774635105
 20
7.7180125666
 10
-11.0486231853
 20
7.7029042151
 10
-11.1144903624
 20
7.675655208
 10
-11.1737957013
 20
7.6366284309
 10
-11.2249375377
 20
7.5872824356
 10
-11.2677234392
 20
7.5287417349
 10
-11.3020727931
 20
7.4622017886
 10
-11.327594439
 20
7.3904279414
 10
-11.3448064115
 20
7.3157126401
 10
-11.3546811164
 20
7.2388966708
 10
-11.3579941272
 20
7.1607992058
 10
-11.3554483871
 20
7.0824991462
 10
-11.3477620564
 20
7.0049114557
 10
-11.3355483947
 20
6.9282886878
 10
-11.3194066917
 20
6.8532420398
 10
-11.2999367182
 20
6.7803541585
 10
-11.2775598903
 20
6.7096277687
 10
-11.2527494594
 20
6.6413944697
 10
-11.2259786772
 20
6.5759797895
 10
-11.1975212063
 20
6.5132653711
 10
-11.16774183
 20
6.4534175426
 10
-11.1369948061
 20
6.3965806895
 10
-11.1054279849
 20
6.3425508314
 10
-11.0732974989
 20
6.2913673349
 10
-11.0408715852
 20
6.2430909524
 10
-11.0082381465
 20
6.1975310225
 10
-10.9755881022
 20
6.1546744871
 10
-10.9431097636
 20
6.1145069252
 10
-10.9108344027
 20
6.0768342926
 10
-10.8788942624
 20
6.0416052853
 10
-10.8474240181
 20
6.008773635
 10
-10.8164220761
 20
5.9781616119
 10
-10.7859763338
 20
5.9496982444
 10
-10.7561823332
 20
5.9233220591
 10
-10.7270255655
 20
5.8988816282
 10
-10.6985764787
 20
5.8763089734
 10
-10.6708872594
 20
5.8555234981
 10
-10.6438994035
 20
5.8363709177
  0
LINE
  5
271
100
AcDbEntity
  8
RACCORDO
100
AcDbLine
 62
7
  6
CONTINUOUS
 10
11.8014474985
 20
12.93329415
 11
11.6212810521
 21
12.5192688696
  0
LWPOLYLINE
  5
272
100
AcDbEntity
  8
RACCORDO
100
AcDbPolyline
 62
253
  6
CONTINUOUS
 90
6
 70
0
 10
-10.7833600917
 20
7.8333055565
 10
-10.858972494
 20
7.8419170868
 10
-10.9409985563
 20
7.8386666471
 10
-11.0178114601
 20
7.822361348
 10
-11.0889106927
 20
7.7929484383
 10
-11.10924669
 20
7.7814140979
  0
LINE
  5
273
100
AcDbEntity
  8
RACCORDO
100
AcDbLine
 62
7
  6
CONTINUOUS
 10
14.9209054544
 20
11.1321582222
 11
14.2485151224
 21
11.0023368444
  0
LWPOLYLINE
  5
274
100
AcDbEntity
  8
RACCORDO
100
AcDbPolyline
 62
253
  6
CONTINUOUS
 90
43
 70
0
 10
13.6510891514
 20
-27.1153026294
 10
13.6525796775
 20
-27.143185505
 10
13.6549500074
 20
-27.1704332159
 10
13.6582001411
 20
-27.1970457621
 10
13.6623362747
 20
-27.2230552722
 10
13.6673522121
 20
-27.2484296176
 10
13.6732293646
 20
-27.273072413
 10
13.6799709399
 20
-27.2969802954
 10
13.6875737304
 20
-27.3201566277
 10
13.6960095244
 20
-27.3425151139
 10
13.7052813724
 20
-27.3640525225
 10
13.715386224
 20
-27.3847720849
 10
13.7262867155
 20
-27.4045971993
 10
13.7379857937
 20
-27.4235245947
 10
13.7504805119
 20
-27.441557542
 10
13.7637246673
 20
-27.4586292522
 10
13.777721078
 20
-27.4747361981
 10
13.7924669258
 20
-27.4898819069
 10
13.8079075535
 20
-27.5040101717
 10
13.8240455077
 20
-27.5171171852
 10
13.8408782417
 20
-27.5292067548
 10
13.8583434576
 20
-27.5402340957
 10
13.8764435039
 20
-27.5501952784
 10
13.895176032
 20
-27.5590942325
 10
13.9144716984
 20
-27.5668979619
 10
13.9343326482
 20
-27.5736024113
 10
13.9547567362
 20
-27.5792116361
 10
13.9756681833
 20
-27.5837048063
 10
13.9970687399
 20
-27.5870777606
 10
14.0189566556
 20
-27.5893346603
 10
14.0412509007
 20
-27.5904671586
 10
14.0639529505
 20
-27.5904711055
 10
14.0870613297
 20
-27.589350651
 10
14.1104905826
 20
-27.5871098988
 10
14.1342420924
 20
-27.5837446345
 10
14.158314476
 20
-27.5792590724
 10
14.1826181279
 20
-27.5736699594
 10
14.2071543149
 20
-27.5669729451
 10
14.2319217701
 20
-27.5591723799
 10
14.2568270879
 20
-27.5502980608
 10
14.2818391329
 20
-27.5403599202
 10
14.3069890405
 20
-27.5293480258
 10
14.3322768107
 20
-27.5172623776
  0
LWPOLYLINE
  5
275
100
AcDbEntity
  8
RACCORDO
100
AcDbPolyline
 62
253
  6
CONTINUOUS
 90
23
 70
0
 10
12.9505052686
 20
-27.1283760271
 10
12.9527196914
 20
-27.1701239515
 10
12.9562573008
 20
-27.2110104272
 10
12.9611138242
 20
-27.2509848759
 10
12.9672834804
 20
-27.2899979102
 10
12.9747586734
 20
-27.3280012293
 10
12.9835300033
 20
-27.3649476774
 10
12.9935869167
 20
-27.4007918182
 10
13.0049170648
 20
-27.4354890933
 10
13.0175059348
 20
-27.4689957786
 10
13.0313380592
 20
-27.5012703201
 10
13.0463965533
 20
-27.5322731578
 10
13.0626624593
 20
-27.5619658942
 10
13.0801159716
 20
-27.5903119831
 10
13.0987356882
 20
-27.6172764215
 10
13.1184981119
 20
-27.6428256007
 10
13.1393791967
 20
-27.6669281368
 10
13.1613533315
 20
-27.6895542656
 10
13.1843926149
 20
-27.7106755129
 10
13.208468866
 20
-27.7302659176
 10
13.2335526507
 20
-27.7483014595
 10
13.2596122773
 20
-27.7647594389
 10
13.2637100591
 20
-27.7671524208
  0
LWPOLYLINE
  5
276
100
AcDbEntity
  8
RACCORDO
100
AcDbPolyline
 62
253
  6
CONTINUOUS
 90
25
 70
0
 10
13.3471610165
 20
-10.8020704104
 10
13.3467815187
 20
-10.7912598479
 10
13.3458088329
 20
-10.7801399297
 10
13.3442471236
 20
-10.768758264
 10
13.3421030769
 20
-10.7571635795
 10
13.3393858725
 20
-10.7454055168
 10
13.3361071437
 20
-10.7335344168
 10
13.3322809282
 20
-10.7216011033
 10
13.3279236072
 20
-10.709656667
 10
13.3230538362
 20
-10.6977522462
 10
13.3176924645
 20
-10.6859388076
 10
13.311862446
 20
-10.6742669284
 10
13.3055887413
 20
-10.6627865799
 10
13.2988982104
 20
-10.6515469131
 10
13.2918194976
 20
-10.6405960486
 10
13.2843829095
 20
-10.6299808706
 10
13.2766202848
 20
-10.6197468259
 10
13.2685648579
 20
-10.6099377295
 10
13.2602511168
 20
-10.6005955772
 10
13.2517146555
 20
-10.5917603656
 10
13.2429920212
 20
-10.5834699205
 10
13.2341205586
 20
-10.5757597359
 10
13.2251382491
 20
-10.5686628211
 10
13.2160835489
 20
-10.5622095599
 10
13.2069952239
 20
-10.5564275803
  0
LINE
  5
277
100
AcDbEntity
  8
DRAFT
100
AcDbLine
 62
7
  6
CONTINUOUS
 10
11.8014474985
 20
12.93329415
 11
11.8226442301
 21
12.3170704362
  0
LWPOLYLINE
  5
278
100
AcDbEntity
  8
RACCORDO
100
AcDbPolyline
 62
253
  6
CONTINUOUS
 90
13
 70
0
 10
12.646279736
 20
-10.2180010353
 10
12.6465728822
 20
-10.2284575714
 10
12.6474642144
 20
-10.2385241773
 10
12.6489499546
 20
-10.2481581849
 10
12.6510238052
 20
-10.2573187596
 10
12.653676976
 20
-10.2659670732
 10
12.6568982209
 20
-10.274066469
 10
12.6606738862
 20
-10.2815826168
 10
12.6649879684
 20
-10.288483659
 10
12.6698221814
 20
-10.2947403448
 10
12.6751560349
 20
-10.3003261548
 10
12.6809669206
 20
-10.3052174133
 10
12.687690707
 20
-10.3096617939
  0
LWPOLYLINE
  5
279
100
AcDbEntity
  8
RACCORDO
100
AcDbPolyline
 62
253
  6
CONTINUOUS
 90
12
 70
0
 10
13.3500597186
 20
-12.1745014427
 10
13.3570365989
 20
-13.5445782453
 10
13.3680916573
 20
-14.9123008181
 10
13.3832251004
 20
-16.2776743509
 10
13.4024367216
 20
-17.6406936539
 10
13.4257259013
 20
-19.0013431582
 10
13.4530924077
 20
-20.3596228831
 10
13.4845364726
 20
-21.7155328092
 10
13.5200581719
 20
-23.0690573096
 10
13.5596575307
 20
-24.4201911752
 10
13.6033345239
 20
-25.7689396152
 10
13.6510891514
 20
-27.1153026294
  0
LWPOLYLINE
  5
27A
100
AcDbEntity
  8
RACCORDO
100
AcDbPolyline
 62
253
  6
CONTINUOUS
 90
13
 70
0
 10
12.64627091
 20
-10.8007497962
 10
12.6491808949
 20
-12.1743706884
 10
12.6561719088
 20
-13.5456647539
 10
12.6672436005
 20
-14.9146165917
 10
12.6823951198
 20
-16.2812001175
 10
12.7016264161
 20
-17.6454107369
 10
12.7249385483
 20
-19.0072651617
 10
12.7523315971
 20
-20.3667487118
 10
12.78380493
 20
-21.7238451877
 10
12.8193590085
 20
-23.0785687377
 10
12.8589940022
 20
-24.4309136609
 10
12.902709497
 20
-25.7808545849
 10
12.950505273
 20
-27.1283760297
  0
LINE
  5
27B
100
AcDbEntity
  8
RACCORDO
100
AcDbLine
 62
253
  6
CONTINUOUS
 10
13.3471610165
 20
-10.8020704104
 11
13.3500597186
 21
-12.1745014427
  0
LINE
  5
27C
100
AcDbEntity
  8
RACCORDO
100
AcDbLine
 62
253
  6
CONTINUOUS
 10
11.6212810521
 20
12.5192688696
 11
11.6212810521
 21
12.4563637248
  0
LWPOLYLINE
  5
27D
100
AcDbEntity
  8
RACCORDO
100
AcDbPolyline
 62
253
  6
CONTINUOUS
 90
25
 70
0
 10
12.646279736
 20
-10.8007548922
 10
12.6465728815
 20
-10.78995985
 10
12.6474642118
 20
-10.7788639678
 10
12.648949949
 20
-10.7675142765
 10
12.6510237955
 20
-10.7559588827
 10
12.6536769613
 20
-10.7442467651
 10
12.6568982005
 20
-10.7324275666
 10
12.6606738598
 20
-10.7205513839
 10
12.6649879356
 20
-10.7086685554
 10
12.6698221422
 20
-10.6968294474
 10
12.6751559896
 20
-10.6850842412
 10
12.6809668696
 20
-10.67348272
 10
12.6872301523
 20
-10.6620740577
 10
12.6939192903
 20
-10.6509066111
 10
12.7010059309
 20
-10.6400277145
 10
12.7084600368
 20
-10.629483479
 10
12.7162500131
 20
-10.6193185974
 10
12.7243428413
 20
-10.6095761544
 10
12.7327042191
 20
-10.6002974444
 10
12.7412987061
 20
-10.5915217959
 10
12.7500898737
 20
-10.5832864054
 10
12.7590404598
 20
-10.5756261793
 10
12.7681125265
 20
-10.5685735863
 10
12.777267621
 20
-10.5621585193
 10
12.7864669386
 20
-10.5564081693
  0
LWPOLYLINE
  5
27E
100
AcDbEntity
  8
RACCORDO
100
AcDbPolyline
 62
253
  6
CONTINUOUS
 90
13
 70
0
 10
12.950505273
 20
6.4488900263
 10
12.902709497
 20
5.0480671203
 10
12.8589940022
 20
3.6493750182
 10
12.8193590085
 20
2.2528294535
 10
12.78380493
 20
0.8584562767
 10
12.7523315971
 20
-0.5337390069
 10
12.7249385483
 20
-1.9237710769
 10
12.7016264161
 20
-3.3116237498
 10
12.6823951198
 20
-4.6972816925
 10
12.6672436005
 20
-6.0807605988
 10
12.6561719088
 20
-7.4620550696
 10
12.6491808949
 20
-8.8411387852
 10
12.6462709099
 20
-10.2179959393
  0
LINE
  5
27F
100
AcDbEntity
  8
RACCORDO
100
AcDbLine
 62
253
  6
CONTINUOUS
 10
-17.8073364068
 20
24.2080823258
 11
12.9505052686
 21
6.4488900289
  0
LWPOLYLINE
  5
280
100
AcDbEntity
  8
RACCORDO
100
AcDbPolyline
 62
253
  6
CONTINUOUS
 90
31
 70
0
 10
14.3322768107
 20
7.5899968319
 10
14.330816929
 20
7.6110559122
 10
14.3284101459
 20
7.6326258826
 10
14.3250630504
 20
7.6546476902
 10
14.3207848061
 20
7.6770610448
 10
14.3155871256
 20
7.6998045844
 10
14.3094842388
 20
7.7228160432
 10
14.3024928538
 20
7.7460324216
 10
14.2946321111
 20
7.7693901591
 10
14.2859235314
 20
7.7928253084
 10
14.2763909566
 20
7.8162737098
 10
14.2660604843
 20
7.8396711678
 10
14.2549603967
 20
7.8629536259
 10
14.2431210829
 20
7.8860573429
 10
14.2305749561
 20
7.9089190666
 10
14.2173563641
 20
7.9314762074
 10
14.2035014961
 20
7.9536670096
 10
14.1890482832
 20
7.9754307205
 10
14.1740362946
 20
7.9967077565
 10
14.1585066292
 20
8.0174398664
 10
14.1425018034
 20
8.0375702911
 10
14.1260656342
 20
8.0570439184
 10
14.1092431197
 20
8.0758074346
 10
14.0920803156
 20
8.0938094698
 10
14.0746242094
 20
8.1110007391
 10
14.0569225914
 20
8.127334177
 10
14.0390239242
 20
8.1427650669
 10
14.0209772098
 20
8.1572511626
 10
14.0028318555
 20
8.1707528051
 10
13.9846375386
 20
8.1832330302
 10
13.9664440707
 20
8.1946576702
  0
LWPOLYLINE
  5
281
100
AcDbEntity
  8
RACCORDO
100
AcDbPolyline
 62
253
  6
CONTINUOUS
 90
8
 70
0
 10
13.4530924077
 20
-0.5480679553
 10
13.4257259013
 20
-1.9368655271
 10
13.4024367216
 20
-3.3234860345
 10
13.3832251004
 20
-4.7079292383
 10
13.3680916573
 20
-6.0901788784
 10
13.3570365989
 20
-7.4702295349
 10
13.3500597186
 20
-8.8480866278
 10
13.3471610165
 20
-10.223750157
  0
LWPOLYLINE
  5
282
100
AcDbEntity
  8
RACCORDO
100
AcDbPolyline
 62
253
  6
CONTINUOUS
 90
6
 70
0
 10
13.6510891514
 20
6.4284084916
 10
13.6033345239
 20
5.0287917521
 10
13.5596575307
 20
3.6313367738
 10
13.5200581719
 20
2.2360435567
 10
13.4845364726
 20
0.8429069201
 10
13.4530924077
 20
-0.5480679553
  0
LWPOLYLINE
  5
283
100
AcDbEntity
  8
RACCORDO
100
AcDbPolyline
 62
253
  6
CONTINUOUS
 90
14
 70
0
 10
13.3471610165
 20
-10.223750157
 10
13.3467815196
 20
-10.2342966113
 10
13.3458088361
 20
-10.2444422736
 10
13.3442471302
 20
-10.2541437073
 10
13.3421030882
 20
-10.2633593772
 10
13.3393858894
 20
-10.2720498282
 10
13.3361071669
 20
-10.2801778536
 10
13.3322809582
 20
-10.2877086547
 10
13.3279236443
 20
-10.2946099897
 10
13.3230538804
 20
-10.3008523117
 10
13.3176925155
 20
-10.3064088954
 10
13.3118625034
 20
-10.3112559512
 10
13.3055888041
 20
-10.3153727273
 10
13.3043109666
 20
-10.316091611
  0
LINE
  5
284
100
AcDbEntity
  8
RACCORDO
100
AcDbLine
 62
253
  6
CONTINUOUS
 10
13.3471610165
 20
-10.223750157
 11
17.8139348774
 21
-7.7774192902
  0
LINE
  5
285
100
AcDbEntity
  8
RACCORDO
100
AcDbLine
 62
7
  6
CONTINUOUS
 10
13.3042995302
 20
-10.3160978758
 11
17.7712138549
 21
-7.8696900809
  0
LWPOLYLINE
  5
286
100
AcDbEntity
  8
RACCORDO
100
AcDbPolyline
 62
253
  6
CONTINUOUS
 90
34
 70
0
 10
13.2069952239
 20
-10.5564275803
 10
13.1965767559
 20
-10.5620667983
 10
13.1857670914
 20
-10.567395993
 10
13.1745662303
 20
-10.5724151643
 10
13.1629471438
 20
-10.5771343644
 10
13.1509368608
 20
-10.5815435412
 10
13.1386164678
 20
-10.5856125378
 10
13.1259842767
 20
-10.5893388396
 10
13.1130419757
 20
-10.5927249613
 10
13.0998757164
 20
-10.5957482905
 10
13.0864842984
 20
-10.598406337
 10
13.0728689221
 20
-10.600701591
 10
13.0591193406
 20
-10.6026189108
 10
13.0452344882
 20
-10.6041558319
 10
13.0312154306
 20
-10.6053148187
 10
13.0171551173
 20
-10.6060881224
 10
13.0030531924
 20
-10.6064731603
 10
12.9889100117
 20
-10.6064725151
 10
12.9748195929
 20
-10.6060861853
 10
12.9607823465
 20
-10.6053115843
 10
12.9467978619
 20
-10.6041512987
 10
12.9329589251
 20
-10.6026130878
 10
12.9192667
 20
-10.600694486
 10
12.9057200226
 20
-10.5983979589
 10
12.8924081868
 20
-10.5957386616
 10
12.8793324639
 20
-10.5927141047
 10
12.8664915826
 20
-10.5893267777
 10
12.8539710232
 20
-10.5855993042
 10
12.841772555
 20
-10.5815291685
 10
12.8298944087
 20
-10.5771188862
 10
12.8184167567
 20
-10.5723986281
 10
12.8073663231
 20
-10.567378451
 10
12.7967163837
 20
-10.5620482981
 10
12.7864669386
 20
-10.5564081693
  0
LINE
  5
287
100
AcDbEntity
  8
RACCORDO
100
AcDbLine
 62
7
  6
CONTINUOUS
 10
7.0013095051
 20
15.7048336675
 11
6.3289191731
 21
15.5750122896
  0
LINE
  5
288
100
AcDbEntity
  8
RACCORDO
100
AcDbLine
 62
253
  6
CONTINUOUS
 10
-16.8147618437
 20
25.9673502855
 11
13.9664525262
 21
8.1946628877
  0
LWPOLYLINE
  5
289
100
AcDbEntity
  8
RACCORDO
100
AcDbPolyline
 62
253
  6
CONTINUOUS
 90
17
 70
0
 10
14.3322768107
 20
-27.5172623776
 10
14.3308169286
 20
-27.5388507116
 10
14.3284101447
 20
-27.5598113979
 10
14.3250630482
 20
-27.5800870515
 10
14.3207848025
 20
-27.5996221628
 10
14.3155871204
 20
-27.6183632496
 10
14.3094842319
 20
-27.6362590038
 10
14.302492845
 20
-27.6532604311
 10
14.2946321004
 20
-27.6693209862
 10
14.2859235189
 20
-27.6843966993
 10
14.2763909422
 20
-27.6984462969
 10
14.2660604682
 20
-27.7114313148
 10
14.2549603791
 20
-27.7233162034
 10
14.243121064
 20
-27.7340684249
 10
14.230574936
 20
-27.7436585425
 10
14.2173563431
 20
-27.7520603008
 10
14.2078743848
 20
-27.7571464539
  0
LINE
  5
28A
100
AcDbEntity
  8
RACCORDO
100
AcDbLine
 62
253
  6
CONTINUOUS
 10
17.6725135204
 20
-8.0223338293
 11
13.2069952239
 21
-10.5564275803
  0
LINE
  5
28B
100
AcDbEntity
  8
RACCORDO
100
AcDbLine
 62
253
  6
CONTINUOUS
 10
17.8139348774
 20
-8.2672641513
 11
13.3471610165
 21
-10.8020704104
  0
LWPOLYLINE
  5
28C
100
AcDbEntity
  8
RACCORDO
100
AcDbPolyline
 62
253
  6
CONTINUOUS
 90
34
 70
0
 10
13.3471610165
 20
-10.8020704104
 10
13.3298560071
 20
-10.8113812121
 10
13.3118193785
 20
-10.8202114232
 10
13.2930909812
 20
-10.828541627
 10
13.2737121329
 20
-10.8363537348
 10
13.2537257442
 20
-10.843630344
 10
13.2331762471
 20
-10.8503547977
 10
13.2121088155
 20
-10.8565124161
 10
13.1905703607
 20
-10.8620896027
 10
13.1686097405
 20
-10.8670733103
 10
13.1462762849
 20
-10.8714525884
 10
13.1236188656
 20
-10.8752181214
 10
13.1006869268
 20
-10.8783613462
 10
13.0775309372
 20
-10.8808754642
 10
13.0542025092
 20
-10.8827550155
 10
13.030753524
 20
-10.8839954799
 10
13.0072359244
 20
-10.8845942376
 10
12.9837018236
 20
-10.8845501221
 10
12.9602035908
 20
-10.8838629484
 10
12.9367932996
 20
-10.8825343641
 10
12.9135228019
 20
-10.8805674733
 10
12.890443837
 20
-10.8779664266
 10
12.8676078391
 20
-10.8747371494
 10
12.8450650674
 20
-10.8708869184
 10
12.8228647159
 20
-10.8664239378
 10
12.8010553702
 20
-10.8613579676
 10
12.7796860151
 20
-10.8557004212
 10
12.758805109
 20
-10.8494640021
 10
12.7384595205
 20
-10.8426628483
 10
12.7186935724
 20
-10.8353119651
 10
12.6995501279
 20
-10.8274272325
 10
12.6810713407
 20
-10.8190259556
 10
12.6632984686
 20
-10.810126908
 10
12.6462709118
 20
-10.8007497993
  0
LINE
  5
28D
100
AcDbEntity
  8
RACCORDO
100
AcDbLine
 62
7
  6
CONTINUOUS
 10
14.0553299572
 20
11.0279456795
 11
11.6730448611
 21
12.403447237
  0
LINE
  5
28E
100
AcDbEntity
  8
RACCORDO
100
AcDbLine
 62
7
  6
CONTINUOUS
 10
6.1357340079
 20
15.6006211248
 11
3.7534489118
 21
16.9761226822
  0
LINE
  5
28F
100
AcDbEntity
  8
RACCORDO
100
AcDbLine
 62
7
  6
CONTINUOUS
 10
-1.8545726195
 20
20.2141240294
 11
-4.2368577156
 21
21.5896255868
  0
LINE
  5
290
100
AcDbEntity
  8
RACCORDO
100
AcDbLine
 62
7
  6
CONTINUOUS
 10
-9.7741685688
 20
24.7867994747
 11
-12.1564536649
 21
26.1623010321
  0
LINE
  5
291
100
AcDbEntity
  8
RACCORDO
100
AcDbLine
 62
7
  6
CONTINUOUS
 10
16.8871405913
 20
9.9968786969
 11
14.9209054544
 21
11.1321582222
  0
LINE
  5
292
100
AcDbEntity
  8
DRAFT
100
AcDbLine
 62
7
  6
CONTINUOUS
 10
11.8014474985
 20
12.93329415
 11
7.0013095051
 21
15.7048336675
  0
LINE
  5
293
100
AcDbEntity
  8
DRAFT
100
AcDbLine
 62
7
  6
CONTINUOUS
 10
3.8818515492
 20
17.5059695953
 11
-0.9889971223
 21
20.3183365721
  0
LINE
  5
294
100
AcDbEntity
  8
DRAFT
100
AcDbLine
 62
7
  6
CONTINUOUS
 10
-4.1084550782
 20
22.1194724999
 11
-8.9085930715
 21
24.8910120174
  0
LINE
  5
295
100
AcDbEntity
  8
RACCORDO
100
AcDbLine
 62
7
  6
CONTINUOUS
 10
-12.0280510275
 20
26.6921479451
 11
-13.9942861644
 21
27.8274274705
  0
LINE
  5
296
100
AcDbEntity
  8
RACCORDO
100
AcDbLine
 62
7
  6
CONTINUOUS
 10
17.8139348774
 20
2.6734189052
 11
17.271767386
 21
9.4038147637
  0
LINE
  5
297
100
AcDbEntity
  8
RACCORDO
100
AcDbLine
 62
7
  6
CONTINUOUS
 10
17.8139348774
 20
-8.2672641513
 11
17.8139348774
 21
-18.7181023468
  0
LINE
  5
298
100
AcDbEntity
  8
RACCORDO
100
AcDbLine
 62
7
  6
CONTINUOUS
 10
17.8139348774
 20
-7.7774192902
 11
17.8139348774
 21
2.6734189052
  0
LINE
  5
299
100
AcDbEntity
  8
RACCORDO
100
AcDbLine
 62
7
  6
CONTINUOUS
 10
17.8139348774
 20
-18.7181023468
 11
17.271767386
 21
-26.0530980135
  0
LINE
  5
29A
100
AcDbEntity
  8
RACCORDO
100
AcDbLine
 62
7
  6
CONTINUOUS
 10
-0.9889971223
 20
20.3183365721
 11
-1.6613874543
 21
20.1885151942
  0
LINE
  5
29B
100
AcDbEntity
  8
RACCORDO
100
AcDbLine
 62
7
  6
CONTINUOUS
 10
-8.9085930715
 20
24.8910120174
 11
-9.5809834036
 21
24.7611906395
  0
LWPOLYLINE
  5
29C
100
AcDbEntity
  8
RACCORDO
100
AcDbPolyline
 62
253
  6
CONTINUOUS
 90
31
 70
0
 10
13.6510891514
 20
-27.1153026294
 10
13.6320245279
 20
-27.1262637748
 10
13.6120800172
 20
-27.1366388991
 10
13.591309079
 20
-27.1464001926
 10
13.5697673882
 20
-27.1555214909
 10
13.5475126856
 20
-27.1639783451
 10
13.5246046232
 20
-27.1717480873
 10
13.5011046044
 20
-27.1788098911
 10
13.4770756189
 20
-27.1851448281
 10
13.4525820748
 20
-27.190735918
 10
13.427689625
 20
-27.1955681741
 10
13.4024649919
 20
-27.1996286442
 10
13.376975788
 20
-27.2029064443
 10
13.3512903352
 20
-27.2053927886
 10
13.3254774814
 20
-27.2070810126
 10
13.2996064159
 20
-27.2079665913
 10
13.2737464841
 20
-27.2080471507
 10
13.2479670016
 20
-27.2073224752
 10
13.2223370681
 20
-27.205794507
 10
13.1969253829
 20
-27.2034673417
 10
13.1718000599
 20
-27.2003472172
 10
13.1470284456
 20
-27.1964424967
 10
13.1226769384
 20
-27.1917636465
 10
13.0988108106
 20
-27.1863232079
 10
13.0754940335
 20
-27.1801357636
 10
13.052789106
 20
-27.1732178985
 10
13.0307568868
 20
-27.1655881555
 10
13.0094564315
 20
-27.1572669854
 10
12.9889448344
 20
-27.1482766925
 10
12.9692770753
 20
-27.1386413746
 10
12.9505058719
 20
-27.1283868585
  0
LINE
  5
29D
100
AcDbEntity
  8
RACCORDO
100
AcDbLine
 62
253
  6
CONTINUOUS
 10
14.3322768107
 20
-27.5172623776
 11
17.271767386
 21
-26.0530980135
  0
LINE
  5
29E
100
AcDbEntity
  8
RACCORDO
100
AcDbLine
 62
7
  6
CONTINUOUS
 10
14.2078743848
 20
-27.7571464539
 11
17.136189713
 21
-26.298548496
  0
ELLIPSE
  5
29F
100
AcDbEntity
  8
RACCORDO
100
AcDbEllipse
 62
7
  6
CONTINUOUS
 10
16.9181887934
 20
-25.8485419594
 30
0.0
 11
-0.2148150744
 21
0.4515576038
 31
0.0
 40
0.6258090719
 41
-3.1302699021
 42
-2.3092664522
  0
ELLIPSE
  5
2A0
100
AcDbEntity
  8
RACCORDO
100
AcDbEllipse
 62
7
  6
CONTINUOUS
 10
17.6724919787
 20
-8.1856216648
 30
0.0
 11
-0.1000238792
 21
0.1731956925
 31
0.0
 40
0.5774195892
 41
-2.3562809449
 42
-0.7856369171
  0
ELLIPSE
  5
2A1
100
AcDbEntity
  8
RACCORDO
100
AcDbEllipse
 62
7
  6
CONTINUOUS
 10
-13.9636683845
 20
27.4384247423
 30
0.0
 11
-0.2805986523
 21
0.4138767202
 31
0.0
 40
0.5251497255
 41
-0.8253745819
 42
-0.0067082748
  0
ELLIPSE
  5
2A2
100
AcDbEntity
  8
RACCORDO
100
AcDbEllipse
 62
7
  6
CONTINUOUS
 10
16.9181887934
 20
9.6076274483
 30
0.0
 11
-0.2807400337
 21
0.4141474974
 31
0.0
 40
0.5245128892
 41
-2.3945640771
 42
-0.8246811388
  0
ELLIPSE
  5
2A3
100
AcDbEntity
  8
RACCORDO
100
AcDbEllipse
 62
7
  6
CONTINUOUS
 10
17.6724919787
 20
-7.6957270628
 30
0.0
 11
-0.1000390991
 21
0.1732220807
 31
0.0
 40
0.5772437351
 41
-3.1546807091
 42
-2.3564331449
  0
ELLIPSE
  5
2A4
100
AcDbEntity
  8
RACCORDO
100
AcDbEllipse
 62
7
  6
CONTINUOUS
 10
6.2771553641
 20
15.6908339223
 30
0.0
 11
0.1999154856
 21
0.0095814127
 31
0.0
 40
0.6067642562
 41
-2.385266879
 42
-1.3380693278
  0
ELLIPSE
  5
2A5
100
AcDbEntity
  8
RACCORDO
100
AcDbEllipse
 62
7
  6
CONTINUOUS
 10
-1.7131512633
 20
20.3043368269
 30
0.0
 11
0.1999154856
 21
0.0095814127
 31
0.0
 40
0.6067642562
 41
-2.385266879
 42
-1.3380693278
  0
ELLIPSE
  5
2A6
100
AcDbEntity
  8
RACCORDO
100
AcDbEllipse
 62
7
  6
CONTINUOUS
 10
14.1967513134
 20
11.118158477
 30
0.0
 11
0.1999154856
 21
0.0095814127
 31
0.0
 40
0.6067642562
 41
-2.385266879
 42
-1.3380693278
  0
ELLIPSE
  5
2A7
100
AcDbEntity
  8
RACCORDO
100
AcDbEllipse
 62
7
  6
CONTINUOUS
 10
-9.6327472126
 20
24.8770122721
 30
0.0
 11
0.1999154856
 21
0.0095814127
 31
0.0
 40
0.6067642562
 41
-2.385266879
 42
-1.3380693278
  0
ELLIPSE
  5
2A8
100
AcDbEntity
  8
RACCORDO
100
AcDbEllipse
 62
7
  6
CONTINUOUS
 10
-12.0150323087
 20
26.2525138296
 30
0.0
 11
0.1999154856
 21
0.0095814127
 31
0.0
 40
0.6067642562
 41
2.850720877
 42
3.8979184282
  0
ELLIPSE
  5
2A9
100
AcDbEntity
  8
RACCORDO
100
AcDbEllipse
 62
7
  6
CONTINUOUS
 10
3.894870268
 20
17.0663354797
 30
0.0
 11
0.1999154856
 21
0.0095814127
 31
0.0
 40
0.6067642562
 41
2.850720877
 42
3.8979184282
  0
ELLIPSE
  5
2AA
100
AcDbEntity
  8
RACCORDO
100
AcDbEllipse
 62
7
  6
CONTINUOUS
 10
-4.0954363594
 20
21.6798383843
 30
0.0
 11
0.1999154856
 21
0.0095814127
 31
0.0
 40
0.6067642562
 41
2.850720877
 42
3.8979184282
  0
ELLIPSE
  5
2AB
100
AcDbEntity
  8
RACCORDO
100
AcDbEllipse
 62
7
  6
CONTINUOUS
 10
11.8144662173
 20
12.4936600344
 30
0.0
 11
0.1999154856
 21
0.0095814127
 31
0.0
 40
0.6067642562
 41
2.850720877
 42
3.8979184282
  0
ENDSEC
  0
SECTION
  2
OBJECTS
  0
DICTIONARY
  5
C
100
AcDbDictionary
280
0
281
1
  3
ACAD_GROUP
350
D
  3
ACAD_MLINESTYLE
350
17
  3
ACAD_LAYOUT
350
1A
  3
ACAD_PLOTSETTINGS
350
19
  3
ACAD_PLOTSTYLENAME
350
E
  0
DICTIONARY
  5
D
102
{ACAD_REACTORS
330
C
102
}
100
AcDbDictionary
280
0
281
1
  0
ACDBDICTIONARYWDFLT
  5
E
102
{ACAD_REACTORS
330
C
102
}
100
AcDbDictionary
281
1
  3
Normal
350
F
100
AcDbDictionaryWithDefault
340
F
  0
DICTIONARY
  5
17
102
{ACAD_REACTORS
330
C
102
}
100
AcDbDictionary
280
0
281
1
  3
Standard
350
18
  0
DICTIONARY
  5
19
102
{ACAD_REACTORS
330
C
102
}
100
AcDbDictionary
281
1
  0
DICTIONARY
  5
1A
102
{ACAD_REACTORS
330
C
102
}
100
AcDbDictionary
281
1
  3
Model
350
2AC
  3
Layout1
350
2AD
  0
ACDBPLACEHOLDER
  5
F
102
{ACAD_REACTORS
330
E
102
}
  0
MLINESTYLE
  5
18
102
{ACAD_REACTORS
330
17
102
}
100
AcDbMlineStyle
  2
STANDARD
 70
0
  3

 62
256
 51
90.0
 52
90.0
 71
2
 49
0.5
 62
256
  6
BYLAYER
 49
-0.5
 62
256
  6
BYLAYER
  0
LAYOUT
  5
2AC
102
{ACAD_REACTORS
330
1A
102
}
100
AcDbPlotSettings
  1

  2
none_device
  4
ISO_A4_(297.00_x_210.00_MM)
  6

 40
0.0
 41
0.0
 42
0.0
 43
0.0
 44
297.0
 45
210.0
 46
0.0
 47
0.0
 48
0.0
 49
0.0
140
0.0
141
0.0
142
1.0
143
1.0
 70
1024
 72
1
 73
0
 74
0
  7

 75
0
147
1.0
148
0.0
149
0.0
100
AcDbLayout
  1
Model
 70
0
 71
0
 10
0.0
 20
0.0
 11
297.0
 21
210.0
 12
0.0
 22
0.0
 32
0.0
 14
0.0
 24
0.0
 34
0.0
 15
0.0
 25
0.0
 35
0.0
146
0.0
 13
0.0
 23
0.0
 33
0.0
 16
1.0
 26
0.0
 36
0.0
 17
0.0
 27
1.0
 37
0.0
 76
0
330
214
345
0
346
0
  0
LAYOUT
  5
2AD
102
{ACAD_REACTORS
330
1A
102
}
100
AcDbPlotSettings
  1

  2
none_device
  4
ISO_A4_(297.00_x_210.00_MM)
  6

 40
0.0
 41
0.0
 42
0.0
 43
0.0
 44
297.0
 45
210.0
 46
0.0
 47
0.0
 48
0.0
 49
0.0
140
0.0
141
0.0
142
1.0
143
1.0
 70
0
 72
1
 73
0
 74
0
  7

 75
0
147
1.0
148
0.0
149
0.0
100
AcDbLayout
  1
Layout1
 70
0
 71
1
 10
0.0
 20
0.0
 11
297.0
 21
210.0
 12
0.0
 22
0.0
 32
0.0
 14
0.0
 24
0.0
 34
0.0
 15
0.0
 25
0.0
 35
0.0
146
0.0
 13
0.0
 23
0.0
 33
0.0
 16
1.0
 26
0.0
 36
0.0
 17
0.0
 27
1.0
 37
0.0
 76
0
330
215
345
0
346
0
  0
ENDSEC
  0
EOF
