  0
SECTION
  2
HEADER
  9
$ACADVER
  1
AC1024
  9
$DWGCODEPAGE
  3
ANSI_1252
  9
$EXTMAX
 10
297.0
 20
210.0
 30
0.0
  9
$EXTMIN
 10
0.0
 20
0.0
 30
0.0
  9
$LIMMIN
 10
0.0
 20
0.0
  9
$LIMMAX
 10
297.0
 20
210.0
  9
$VIEWCTR
 10
148.5
 20
105.0
  9
$VIEWSIZE
 40
210.0
  9
$CLAYER
  8
0
  9
$LTSCALE
 40
16.335
  9
$CELTYPE
  6
BYLAYER
  9
$DIMSCALE
 40
1.0
  9
$DIMASZ
 40
3.0
  9
$DIMEXO
 40
0.5
  9
$DIMDLI
 40
11.286
  9
$DIMEXE
 40
1.5
  9
$DIMCEN
 40
2.673
  9
$DIMLFAC
 40
1.0
  9
$DIMBLK
  1
_FILLED
  9
$DIMALT
 70
0
  9
$DIMALTF
 40
0.0393700787
  9
$DIMTXT
 40
3.0
  9
$DIMTOL
 70
1
  9
$DIMLIM
 70
0
  9
$DIMTFAC
 40
1.0
  9
$DIMTP
 40
0.01
  9
$DIMTM
 40
0.01
  9
$DIMGAP
 40
0.625
  9
$DIMDSEP
 70
44
  9
$AUNITS
 70
0
  9
$PDMODE
 70
3
  9
$PDSIZE
 40
3.0
  9
$HANDSEED
  5
24C
  9
$TILEMODE
 70
1
  9
$MEASUREMENT
 70
1
  9
$INSUNITS
 70
4
  0
ENDSEC
  0
SECTION
  2
CLASSES
  0
CLASS
  1
ACDBDICTIONARYWDFLT
  2
AcDbDictionaryWithDefault
  3
AutoCAD 2000
 90
0
 91
1
280
0
281
0
  0
CLASS
  1
ACDBPLACEHOLDER
  2
AcDbPlaceHolder
  3
AutoCAD 2000
 90
0
 91
1
280
0
281
0
  0
CLASS
  1
LAYOUT
  2
AcDbLayout
  3
AutoCAD 2000
 90
0
 91
0
280
0
281
0
  0
ENDSEC
  0
SECTION
  2
TABLES
  0
TABLE
  2
VPORT
  5
8
100
AcDbSymbolTable
 70
2
  0
VPORT
  5
1F4
100
AcDbSymbolTableRecord
100
AcDbViewportTableRecord
  2
*ACTIVE
 70
0
 10
0.0
 20
0.0
 11
1.0
 21
1.0
 12
148.5
 22
105.0
 13
0.0
 23
0.0
 14
1.0
 24
1.0
 15
0.0
 25
0.0
 16
0.0
 26
0.0
 36
1.0
 17
0.0
 27
0.0
 37
0.0
 40
210.0
 41
1.4142857143
 42
50.0
 43
0.0
 44
0.0
 50
0.0
 51
0.0
 71
0
 72
100
 73
1
 74
1
 75
0
 76
0
 77
0
 78
0
  0
ENDTAB
  0
TABLE
  2
LTYPE
  5
5
100
AcDbSymbolTable
 70
6
  0
LTYPE
  5
14
100
AcDbSymbolTableRecord
100
AcDbLinetypeTableRecord
  2
BYBLOCK
 70
0
  3

 72
65
 73
0
 40
0.0
  0
LTYPE
  5
15
100
AcDbSymbolTableRecord
100
AcDbLinetypeTableRecord
  2
BYLAYER
 70
0
  3

 72
65
 73
0
 40
0.0
  0
LTYPE
  5
16
100
AcDbSymbolTableRecord
100
AcDbLinetypeTableRecord
  2
CONTINUOUS
 70
64
  3
Solid line
 72
65
 73
0
 40
0.0
  0
LTYPE
  5
1F5
100
AcDbSymbolTableRecord
100
AcDbLinetypeTableRecord
  2
CENTER
 70
64
  3
____ _ ____ _ ____ _ ____ _ ____ _ ____ _ ____
 72
65
 73
4
 40
0.6
 49
0.375
 74
0
 49
-0.075
 74
0
 49
0.075
 74
0
 49
-0.075
 74
0
  0
LTYPE
  5
1F6
100
AcDbSymbolTableRecord
100
AcDbLinetypeTableRecord
  2
HIDDEN
 70
64
  3
- - - - - - - - - - - - - - - - - - - -
 72
65
 73
2
 40
0.2
 49
0.1
 74
0
 49
-0.1
 74
0
  0
LTYPE
  5
1F7
100
AcDbSymbolTableRecord
100
AcDbLinetypeTableRecord
  2
PHANTOM
 70
64
  3
_____ _ _ _____ _ _ _____ _ _ _____
 72
65
 73
6
 40
0.8
 49
0.45
 74
0
 49
-0.05
 74
0
 49
0.1
 74
0
 49
-0.05
 74
0
 49
0.1
 74
0
 49
-0.05
 74
0
  0
LTYPE
  5
1F8
100
AcDbSymbolTableRecord
100
AcDbLinetypeTableRecord
  2
DOT
 70
64
  3
. . . . . . . . . . . . . . . . . . . .
 72
65
 73
2
 40
0.2
 49
0.1
 74
0
 49
-0.1
 74
0
  0
LTYPE
  5
1F9
100
AcDbSymbolTableRecord
100
AcDbLinetypeTableRecord
  2
DASHED
 70
64
  3
- - - - - - - - - - - - - - - - - - - -
 72
65
 73
2
 40
0.2
 49
0.1
 74
0
 49
-0.1
 74
0
  0
ENDTAB
  0
TABLE
  2
LAYER
  5
2
100
AcDbSymbolTable
 70
36
  0
LAYER
  5
10
100
AcDbSymbolTableRecord
100
AcDbLayerTableRecord
  2
0
 70
0
 62
7
  6
CONTINUOUS
370
-3
390
F
  0
LAYER
  5
1FA
100
AcDbSymbolTableRecord
100
AcDbLayerTableRecord
  2
DEFAULT_1
 70
0
 62
7
  6
CENTER
370
-3
390
F
  0
LAYER
  5
1FB
100
AcDbSymbolTableRecord
100
AcDbLayerTableRecord
  2
DEFAULT_2
 70
0
 62
7
  6
HIDDEN
370
-3
390
F
  0
LAYER
  5
1FC
100
AcDbSymbolTableRecord
100
AcDbLayerTableRecord
  2
DEFAULT_3
 70
0
 62
7
  6
PHANTOM
370
-3
390
F
  0
LAYER
  5
1FD
100
AcDbSymbolTableRecord
100
AcDbLayerTableRecord
  2
ASSI
 70
0
 62
7
  6
CONTINUOUS
370
-3
390
F
  0
LAYER
  5
1FE
100
AcDbSymbolTableRecord
100
AcDbLayerTableRecord
  2
COORDINATE
 70
0
 62
7
  6
CONTINUOUS
370
-3
390
F
  0
LAYER
  5
1FF
100
AcDbSymbolTableRecord
100
AcDbLayerTableRecord
  2
COORD_ORIGINE
 70
0
 62
7
  6
CONTINUOUS
370
-3
390
F
  0
LAYER
  5
200
100
AcDbSymbolTableRecord
100
AcDbLayerTableRecord
  2
PIANI
 70
0
 62
7
  6
CONTINUOUS
370
-3
390
F
  0
LAYER
  5
201
100
AcDbSymbolTableRecord
100
AcDbLayerTableRecord
  2
PIANI_ORIGINE
 70
0
 62
7
  6
CONTINUOUS
370
-3
390
F
  0
LAYER
  5
202
100
AcDbSymbolTableRecord
100
AcDbLayerTableRecord
  2
RACCORDO
 70
0
 62
7
  6
CONTINUOUS
370
-3
390
F
  0
LAYER
  5
203
100
AcDbSymbolTableRecord
100
AcDbLayerTableRecord
  2
SNAPLINE
 70
0
 62
7
  6
CONTINUOUS
370
-3
390
F
  0
LAYER
  5
204
100
AcDbSymbolTableRecord
100
AcDbLayerTableRecord
  2
TRASH
 70
0
 62
7
  6
CONTINUOUS
370
-3
390
F
  0
ENDTAB
  0
TABLE
  2
STYLE
  5
3
100
AcDbSymbolTable
 70
1
  0
STYLE
  5
11
100
AcDbSymbolTableRecord
100
AcDbTextStyleTableRecord
  2
STANDARD
 70
0
 40
0.0
 41
0.8
 50
0.0
 71
0
 42
0.2
  3
txt
  4

  0
STYLE
  5
205
100
AcDbSymbolTableRecord
100
AcDbTextStyleTableRecord
  2
TEXTSTYLE_1
 70
0
 40
0.0
 41
0.8
 50
0.0
 71
0
 42
0.2
  3
gdt
  4

  0
ENDTAB
  0
TABLE
  2
VIEW
  5
6
100
AcDbSymbolTable
 70
0
  0
ENDTAB
  0
TABLE
  2
UCS
  5
7
100
AcDbSymbolTable
 70
0
  0
ENDTAB
  0
TABLE
  2
APPID
  5
9
100
AcDbSymbolTable
 70
1
  0
APPID
  5
206
100
AcDbSymbolTableRecord
100
AcDbRegAppTableRecord
  2
ACAD
 70
0
  0
ENDTAB
  0
TABLE
  2
BLOCK_RECORD
  5
1
100
AcDbSymbolTable
 70
0
  0
BLOCK_RECORD
  5
207
100
AcDbSymbolTableRecord
100
AcDbBlockTableRecord
  2
*Model_Space
  0
BLOCK_RECORD
  5
208
100
AcDbSymbolTableRecord
100
AcDbBlockTableRecord
  2
*Paper_Space
  0
BLOCK_RECORD
  5
209
100
AcDbSymbolTableRecord
100
AcDbBlockTableRecord
  2
_FILLED
  0
ENDTAB
  0
TABLE
  2
DIMSTYLE
  5
A
100
AcDbSymbolTable
 70
1
100
AcDbDimStyleTable
 71
0
  0
DIMSTYLE
105
20A
100
AcDbSymbolTableRecord
100
AcDbDimStyleTableRecord
  2
STANDARD
 70
0
  3

  4

 40
1.0
 41
3.0
 42
0.5
 43
0.38
 44
1.5
 45
0.0
 46
0.0
 47
0.01
 48
0.01
140
3.0
141
0.09
142
0.0
143
25.4
144
1.0
145
0.0
146
1.0
147
0.625
 71
1
 72
0
 73
0
 74
0
 75
0
 76
0
 77
1
 78
8
 79
2
170
0
171
1
172
0
173
0
174
0
175
0
176
0
177
0
178
0
270
2
179
2
271
2
272
2
273
2
274
2
275
0
280
0
281
0
282
0
283
1
284
8
285
0
286
0
287
3
288
0
340
11
278
44
341
209
342
209
343
209
344
209
  0
ENDTAB
  0
ENDSEC
  0
SECTION
  2
BLOCKS
  0
BLOCK
  5
20
100
AcDbEntity
  8
0
100
AcDbBlockBegin
  2
*Model_Space
 70
0
 10
0.0
 20
0.0
 30
0.0
  3
*Model_Space
  1

  0
ENDBLK
  5
21
100
AcDbEntity
  8
0
100
AcDbBlockEnd
  0
BLOCK
  5
1C
100
AcDbEntity
  8
0
100
AcDbBlockBegin
  2
*Paper_Space
 70
0
 10
0.0
 20
0.0
 30
0.0
  3
*Paper_Space
  1

  0
ENDBLK
  5
1D
100
AcDbEntity
  8
0
100
AcDbBlockEnd
  0
BLOCK
  5
20B
100
AcDbEntity
  8
0
100
AcDbBlockBegin
  2
_FILLED
 70
64
 10
0.0
 20
0.0
  3
_FILLED
  1

  0
SOLID
  5
20C
100
AcDbEntity
  8
0
  6
BYBLOCK
 62
0
100
AcDbTrace
 10
0.0
 20
0.0
 11
-1.0
 21
0.3166666667
 12
-1.0
 22
-0.3166666667
 13
-1.0
 23
-0.3166666667
  0
ENDBLK
  5
20D
100
AcDbEntity
  8
0
  6
BYBLOCK
 62
0
100
AcDbBlockEnd
  0
ENDSEC
  0
SECTION
  2
ENTITIES
  0
LWPOLYLINE
  5
20E
100
AcDbEntity
  8
0
100
AcDbPolyline
 62
7
  6
CONTINUOUS
 90
16
 70
0
 10
-3.7811057235
 20
9.375245205
 10
-3.9197537678
 20
9.2169978878
 10
-4.0496462477
 20
9.0538862477
 10
-4.1706226187
 20
8.8863500848
 10
-4.2823945322
 20
8.71509087
 10
-4.3850447957
 20
8.5403175697
 10
-4.4788927018
 20
8.3616963101
 10
-4.5638554337
 20
8.1794640287
 10
-4.6396952577
 20
7.9942393144
 10
-4.7063809115
 20
7.8062354776
 10
-4.763758492
 20
7.6160488542
 10
-4.8117950275
 20
7.4240146759
 10
-4.8505543264
 20
7.2299533119
 10
-4.8799517124
 20
7.0341146127
 10
-4.8998603423
 20
6.8371924075
 10
-4.9102365013
 20
6.6396708926
  0
LWPOLYLINE
  5
20F
100
AcDbEntity
  8
0
100
AcDbPolyline
 62
250
  6
CONTINUOUS
 90
61
 70
0
 10
-3.1882368138
 20
9.6958552764
 10
-3.0668812944
 20
9.8207194553
 10
-2.9367624296
 20
9.9405925108
 10
-2.798236866
 20
10.0551458793
 10
-2.6516842927
 20
10.1640655778
 10
-2.4975064001
 20
10.2670530651
 10
-2.3361257791
 20
10.3638260596
 10
-2.1679847626
 20
10.4541193133
 10
-1.9935442136
 20
10.5376853386
 10
-1.8132822616
 20
10.6142950869
 10
-1.6276929918
 20
10.6837385762
 10
-1.4372850917
 20
10.7458254666
 10
-1.2425804561
 20
10.8003855824
 10
-1.0441127569
 20
10.8472693781
 10
-0.8424259801
 20
10.8863483484
 10
-0.6380729353
 20
10.9175153806
 10
-0.4316137399
 20
10.940685048
 10
-0.2236142843
 20
10.9557938441
 10
-0.0146446804
 20
10.962800357
 10
0.1947223004
 20
10.961685382
 10
0.403912798
 20
10.9524519754
 10
0.6123534357
 20
10.9351254452
 10
0.8194728922
 20
10.9097532823
 10
1.0247034675
 20
10.87640503
 10
1.2274826387
 20
10.8351720935
 10
1.4272546024
 20
10.7861674895
 10
1.6234717974
 20
10.7295255361
 10
1.8155964061
 20
10.665401485
 10
2.0031018282
 20
10.5939710959
 10
2.1854741245
 20
10.5154301544
 10
2.362213425
 20
10.4299939357
 10
2.5328352998
 20
10.3378966147
 10
2.6968720861
 20
10.2393906236
 10
2.8538741704
 20
10.1347459606
 10
3.003411221
 20
10.0242494494
 10
3.1450733672
 20
9.9082039532
 10
3.2784723229
 20
9.7869275447
 10
3.4032424509
 20
9.6607526341
 10
3.5190417649
 20
9.5300250581
 10
3.6255528669
 20
9.3951031318
 10
3.7224838176
 20
9.2563566669
 10
3.8095689359
 20
9.1141659578
 10
3.8865695275
 20
8.9689207394
 10
3.9532745393
 20
8.8210191186
 10
4.0095011372
 20
8.6708664836
 10
4.0550952083
 20
8.5188743923
 10
4.0899317823
 20
8.3654594444
 10
4.1139153745
 20
8.2110421397
 10
4.1269802476
 20
8.0560457252
 10
4.1290905918
 20
7.9008950354
 10
4.1202406226
 20
7.7460153275
 10
4.1004545973
 20
7.591831116
 10
4.069786748
 20
7.4387650091
 10
4.028321133
 20
7.2872365504
 10
3.9761714069
 20
7.1376610689
 10
3.9134805083
 20
6.9904485406
 10
3.8404202686
 20
6.8460024647
 10
3.7571909409
 20
6.7047187579
 10
3.6640206511
 20
6.5669846691
 10
3.5611647723
 20
6.4331777178
 10
3.4489052253
 20
6.3036646595
  0
LWPOLYLINE
  5
210
100
AcDbEntity
  8
0
100
AcDbPolyline
 62
7
  6
CONTINUOUS
 90
50
 70
0
 10
-4.3533226967
 20
-8.7074453854
 10
-4.2178459623
 20
-8.8726036222
 10
-4.0691255943
 20
-9.0321439686
 10
-3.9078795273
 20
-9.1851117783
 10
-3.7344646519
 20
-9.3310429255
 10
-3.5493729151
 20
-9.4693902951
 10
-3.353759051
 20
-9.5992414352
 10
-3.1483914415
 20
-9.720122086
 10
-2.9337242525
 20
-9.8317832703
 10
-2.7106128691
 20
-9.9337859286
 10
-2.4797685429
 20
-10.0258193691
 10
-2.2418471835
 20
-10.1076223551
 10
-1.9977028625
 20
-10.1788965936
 10
-1.7480716503
 20
-10.2394212284
 10
-1.4937025464
 20
-10.2889970012
 10
-1.2355284223
 20
-10.327425018
 10
-0.9743452908
 20
-10.3545715775
 10
-0.7109291056
 20
-10.3703306171
 10
-0.4462181204
 20
-10.3746190361
 10
-0.1810241508
 20
-10.3673968805
 10
0.083857285
 20
-10.3486495785
 10
0.347504597
 20
-10.3184039034
 10
0.6091197217
 20
-10.2767112709
 10
0.8679067858
 20
-10.223648925
 10
1.1229640696
 20
-10.1593506462
 10
1.3735528871
 20
-10.0839472717
 10
1.6188735734
 20
-9.9976138178
 10
1.8579752237
 20
-9.9006275123
 10
2.0901630022
 20
-9.7932164015
 10
2.3147024851
 20
-9.6756555865
 10
2.5306559164
 20
-9.5483873646
 10
2.7373889443
 20
-9.4117512791
 10
2.9342737778
 20
-9.266117856
 10
3.1204787431
 20
-9.11207956
 10
3.2954528901
 20
-8.9500960617
 10
3.458700691
 20
-8.780624015
 10
3.6095799177
 20
-8.6043524289
 10
3.7475818675
 20
-8.4219533847
 10
3.8724345047
 20
-8.2338704959
 10
3.9839052471
 20
-8.0404903598
 10
4.0816908073
 20
-7.8423569366
 10
4.1654862649
 20
-7.6401216096
 10
4.2350733777
 20
-7.4343568528
 10
4.2902568005
 20
-7.2256778844
 10
4.3308637613
 20
-7.01481439
 10
4.3567841371
 20
-6.8025614603
 10
4.3679888577
 20
-6.5897885808
 10
4.3645345211
 20
-6.3770666497
 10
4.3464712331
 20
-6.1647548781
 10
4.3225517223
 20
-6.0097591075
  0
LWPOLYLINE
  5
211
100
AcDbEntity
  8
0
100
AcDbPolyline
 62
250
  6
CONTINUOUS
 90
61
 70
0
 10
-3.1882368138
 20
9.6958552764
 10
-3.3004963607
 20
9.5663422181
 10
-3.4033522395
 20
9.4325352668
 10
-3.4965225294
 20
9.294801178
 10
-3.5797518571
 20
9.1535174712
 10
-3.6528120968
 20
9.0090713953
 10
-3.7155029954
 20
8.8618588669
 10
-3.7676527215
 20
8.7122833854
 10
-3.8091183364
 20
8.5607549268
 10
-3.8397861858
 20
8.4076888199
 10
-3.8595722111
 20
8.2535046084
 10
-3.8684221803
 20
8.0986249005
 10
-3.8663118361
 20
7.9434742107
 10
-3.853246963
 20
7.7884777962
 10
-3.8292633707
 20
7.6340604915
 10
-3.7944267968
 20
7.4806455436
 10
-3.7488327257
 20
7.3286534523
 10
-3.6926061277
 20
7.1785008173
 10
-3.625901116
 20
7.0305991965
 10
-3.5489005244
 20
6.885353978
 10
-3.4618154061
 20
6.7431632689
 10
-3.3648844554
 20
6.604416804
 10
-3.2583733533
 20
6.4694948778
 10
-3.1425740394
 20
6.3387673017
 10
-3.0178039114
 20
6.2125923912
 10
-2.8844049557
 20
6.0913159827
 10
-2.7427428095
 20
5.9752704865
 10
-2.5932057589
 20
5.8647739753
 10
-2.4362036746
 20
5.7601293123
 10
-2.2721668883
 20
5.6616233212
 10
-2.1015450135
 20
5.5695260002
 10
-1.9248057129
 20
5.4840897815
 10
-1.7424334167
 20
5.40554884
 10
-1.5549279946
 20
5.3341184508
 10
-1.3628033859
 20
5.2699943998
 10
-1.1665861909
 20
5.2133524464
 10
-0.9668142272
 20
5.1643478424
 10
-0.764035056
 20
5.1231149059
 10
-0.5588044807
 20
5.0897666536
 10
-0.3516850242
 20
5.0643944907
 10
-0.1432443865
 20
5.0470679605
 10
0.0659461111
 20
5.0378345539
 10
0.275313092
 20
5.0367195789
 10
0.4842826958
 20
5.0437260917
 10
0.6922821514
 20
5.0588348879
 10
0.8987413468
 20
5.0820045553
 10
1.1030943916
 20
5.1131715875
 10
1.3047811684
 20
5.1522505578
 10
1.5032488677
 20
5.1991343534
 10
1.6979535033
 20
5.2536944692
 10
1.8883614033
 20
5.3157813597
 10
2.0739506731
 20
5.3852248489
 10
2.2542126252
 20
5.4618345972
 10
2.4286531741
 20
5.5454006225
 10
2.5967941906
 20
5.6356938762
 10
2.7581748116
 20
5.7324668707
 10
2.9123527043
 20
5.835454358
 10
3.0589052775
 20
5.9443740566
 10
3.1974308411
 20
6.058927425
 10
3.3275497059
 20
6.1788004806
 10
3.4489052253
 20
6.3036646595
  0
LWPOLYLINE
  5
212
100
AcDbEntity
  8
0
100
AcDbPolyline
 62
7
  6
CONTINUOUS
 90
4
 70
0
 10
-4.6775499172
 20
-8.1847602547
 10
-4.5831154707
 20
-8.3633495358
 10
-4.4750677174
 20
-8.5375934491
 10
-4.3533226967
 20
-8.7074453854
  0
LWPOLYLINE
  5
213
100
AcDbEntity
  8
0
100
AcDbPolyline
 62
7
  6
CONTINUOUS
 90
30
 70
0
 10
-4.0912598377
 20
-9.0083993739
 10
-4.0665275419
 20
-9.0527806295
 10
-3.9723044903
 20
-9.200477521
 10
-3.8680871973
 20
-9.3447096249
 10
-3.75411746
 20
-9.485086144
 10
-3.6306982477
 20
-9.6211926179
 10
-3.4981072187
 20
-9.7526812268
 10
-3.3566487249
 20
-9.8791981401
 10
-3.2067204863
 20
-10.0003444002
 10
-3.0486612504
 20
-10.115813041
 10
-2.8828538418
 20
-10.225278496
 10
-2.7098243387
 20
-10.3283522085
 10
-2.5299943239
 20
-10.4247714847
 10
-2.3438030372
 20
-10.5142678387
 10
-2.151871997
 20
-10.5964993907
 10
-1.9547208087
 20
-10.6712548566
 10
-1.7528156973
 20
-10.7383470005
 10
-1.5467605533
 20
-10.7975309124
 10
-1.3371340537
 20
-10.8486575792
 10
-1.1244330177
 20
-10.8916181617
 10
-0.9091816377
 20
-10.9262766963
 10
-0.691967486
 20
-10.9525532918
 10
-0.473324359
 20
-10.9703987098
 10
-0.2537208281
 20
-10.9797543888
 10
-0.0337367928
 20
-10.980603437
 10
0.1860687098
 20
-10.9729540234
 10
0.4052428798
 20
-10.9568069538
 10
0.6232520803
 20
-10.932196232
 10
0.8394932463
 20
-10.899196871
 10
1.0534087871
 20
-10.8578977803
  0
LWPOLYLINE
  5
214
100
AcDbEntity
  8
0
100
AcDbPolyline
 62
7
  6
CONTINUOUS
 90
53
 70
0
 10
-4.6245816491
 20
-7.0037523853
 10
-4.5467800711
 20
-7.1481476433
 10
-4.4372820106
 20
-7.3241193899
 10
-4.3140386843
 20
-7.4952859429
 10
-4.1772682458
 20
-7.6611600437
 10
-4.0273871828
 20
-7.8210569996
 10
-3.8650761647
 20
-7.9741471033
 10
-3.6908092899
 20
-8.1199261875
 10
-3.5050516446
 20
-8.257935854
 10
-3.3086164494
 20
-8.3875259879
 10
-3.1020897109
 20
-8.5082876471
 10
-2.8860530493
 20
-8.6198437377
 10
-2.6614402467
 20
-8.7216894435
 10
-2.4289710143
 20
-8.8134943411
 10
-2.1892935885
 20
-8.8949845435
 10
-1.9433353375
 20
-8.9658268584
 10
-1.6918763166
 20
-9.025785223
 10
-1.4356443911
 20
-9.0746628938
 10
-1.1755533322
 20
-9.1122583077
 10
-0.9123969024
 20
-9.1384281677
 10
-0.6469791786
 20
-9.1530536195
 10
-0.3802653383
 20
-9.1560425822
 10
-0.1130741979
 20
-9.1473470405
 10
0.1537705252
 20
-9.1269452027
 10
0.4192877067
 20
-9.0948642726
 10
0.6826655179
 20
-9.0511548274
 10
0.943082804
 20
-8.9958957488
 10
1.199564077
 20
-8.9292390182
 10
1.4513274201
 20
-8.8513341679
 10
1.6975850201
 20
-8.7623607788
 10
1.937397506
 20
-8.6625980097
 10
2.1700765812
 20
-8.5522711665
 10
2.394848408
 20
-8.4316746445
 10
2.6107222487
 20
-8.30128946
 10
2.8170746581
 20
-8.1614581151
 10
3.0132485512
 20
-8.0125814718
 10
3.1983210127
 20
-7.8553524837
 10
3.3716891731
 20
-7.6903275063
 10
3.5329458722
 20
-7.5179353696
 10
3.6815657181
 20
-7.3387760757
 10
3.8170479606
 20
-7.1535267345
 10
3.9391086798
 20
-6.9626556557
 10
4.0475650354
 20
-6.7664692575
 10
4.1421022691
 20
-6.5655092546
 10
4.2223915532
 20
-6.3604537231
 10
4.2882137954
 20
-6.1518318988
 10
4.3393471206
 20
-5.9402683335
 10
4.3755915815
 20
-5.7265231888
 10
4.3968191725
 20
-5.5113808967
 10
4.4029776259
 20
-5.2956234314
 10
4.3940820834
 20
-5.0799600474
 10
4.3701968781
 20
-4.8650767353
 10
4.3568549699
 20
-4.7916113826
  0
LWPOLYLINE
  5
215
100
AcDbEntity
  8
0
100
AcDbPolyline
 62
7
  6
CONTINUOUS
 90
49
 70
0
 10
-4.3314884333
 20
-4.9410201714
 10
-4.203757025
 20
-5.1109421028
 10
-4.0623550607
 20
-5.2755682979
 10
-3.9080368929
 20
-5.4338340905
 10
-3.7412237777
 20
-5.5852088243
 10
-3.5623542663
 20
-5.7291870866
 10
-3.3724472549
 20
-5.8649039693
 10
-3.1722093132
 20
-5.9918792656
 10
-2.9621232957
 20
-6.109813966
 10
-2.7430294487
 20
-6.2182357522
 10
-2.5156287166
 20
-6.3168063059
 10
-2.2805683056
 20
-6.4052389082
 10
-2.03869347
 20
-6.4832041427
 10
-1.7907350883
 20
-6.5504533538
 10
-1.537441693
 20
-6.6067583229
 10
-1.2797507359
 20
-6.6518862212
 10
-1.0184474724
 20
-6.6856759732
 10
-0.7543308709
 20
-6.7079901005
 10
-0.4884033457
 20
-6.7187124843
 10
-0.2214903525
 20
-6.7177817419
 10
0.0455952621
 20
-6.7051628127
 10
0.3118554317
 20
-6.6808663492
 10
0.5764651984
 20
-6.6449335924
 10
0.8386172084
 20
-6.5974305414
 10
1.0973546674
 20
-6.5384872126
 10
1.3518845238
 20
-6.4682417334
 10
1.6014263862
 20
-6.3868569248
 10
1.84508025
 20
-6.2945737229
 10
2.0821129557
 20
-6.1916163064
 10
2.3117831225
 20
-6.0782422485
 10
2.533233256
 20
-5.9548138807
 10
2.7458500697
 20
-5.8216080285
 10
2.9489010288
 20
-5.6790066277
 10
3.1414412203
 20
-5.5276303559
 10
3.322922843
 20
-5.3678944415
 10
3.4927739081
 20
-5.2002788555
 10
3.6501611575
 20
-5.0256385044
 10
3.7945263076
 20
-4.8447204557
 10
3.9256559398
 20
-4.6579296689
 10
4.0433221151
 20
-4.4656694567
 10
4.1471527216
 20
-4.2686393927
 10
4.236938751
 20
-4.0673615672
 10
4.312622026
 20
-3.8619616163
 10
4.3739396451
 20
-3.6529708477
 10
4.4206028711
 20
-3.4411719001
 10
4.452438634
 20
-3.2270913502
 10
4.4692774033
 20
-3.0113530149
 10
4.4709871906
 20
-2.7948013568
 10
4.4690382391
 20
-2.7634487749
  0
LWPOLYLINE
  5
216
100
AcDbEntity
  8
0
100
AcDbPolyline
 62
7
  6
CONTINUOUS
 90
49
 70
0
 10
-4.3193926543
 20
-5.5880207975
 10
-4.2110758316
 20
-5.7483840146
 10
-4.0899740585
 20
-5.9040615821
 10
-3.956670168
 20
-6.0543277028
 10
-3.8114485344
 20
-6.1988799724
 10
-3.6542515202
 20
-6.3376683584
 10
-3.485027755
 20
-6.470490518
 10
-3.3046268602
 20
-6.5964442983
 10
-3.1144370848
 20
-6.7144939958
 10
-2.9153955215
 20
-6.8241165034
 10
-2.7079448551
 20
-6.9251223963
 10
-2.4929253913
 20
-7.0171394089
 10
-2.2712878426
 20
-7.0998229902
 10
-2.0435907335
 20
-7.1730242165
 10
-1.8100813671
 20
-7.2366671894
 10
-1.5715613091
 20
-7.290503711
 10
-1.3287325672
 20
-7.3343455591
 10
-1.0816418724
 20
-7.3681030896
 10
-0.8308031359
 20
-7.3915622648
 10
-0.577246129
 20
-7.4044831686
 10
-0.3217909411
 20
-7.4066968662
 10
-0.0648557254
 20
-7.3980471066
 10
0.1923087174
 20
-7.3784224456
 10
0.4476235268
 20
-7.3479321829
 10
0.7000118355
 20
-7.3067515859
 10
0.9489153807
 20
-7.2550194941
 10
1.1930907965
 20
-7.1930582815
 10
1.4313164332
 20
-7.1213103313
 10
1.6633881936
 20
-7.0399729243
 10
1.889585311
 20
-6.9489775006
 10
2.1091296266
 20
-6.8485961845
 10
2.3213770201
 20
-6.7390823753
 10
2.5266502778
 20
-6.6201256779
 10
2.724661603
 20
-6.4915878253
 10
2.9140690756
 20
-6.3540197264
 10
3.093595048
 20
-6.2081380421
 10
3.2626795667
 20
-6.0542289053
 10
3.4205570068
 20
-5.8928108801
 10
3.5659412575
 20
-5.7251666565
 10
3.6983550919
 20
-5.5519854445
 10
3.8175599481
 20
-5.3737349466
 10
3.9229825302
 20
-5.1915280508
 10
4.0142512421
 20
-5.0065329825
 10
4.0916100902
 20
-4.8188603225
 10
4.1553634903
 20
-4.6280153016
 10
4.2053654553
 20
-4.4342507269
 10
4.2413287706
 20
-4.2384535865
 10
4.2631385655
 20
-4.0410309294
 10
4.2650311836
 20
-3.9911203597
  0
LWPOLYLINE
  5
217
100
AcDbEntity
  8
0
100
AcDbPolyline
 62
7
  6
CONTINUOUS
 90
52
 70
0
 10
-4.4931391302
 20
-5.9625304595
 10
-4.3807962263
 20
-6.1380911309
 10
-4.2548098009
 20
-6.30856603
 10
-4.115385441
 20
-6.4735409301
 10
-3.9626983853
 20
-6.632605719
 10
-3.7972595757
 20
-6.7850275026
 10
-3.6198529818
 20
-6.9299697203
 10
-3.4309532359
 20
-7.0669733549
 10
-3.2310972835
 20
-7.1955653335
 10
-3.0213453791
 20
-7.3150260966
 10
-2.8024266686
 20
-7.4249511538
 10
-2.5749119217
 20
-7.5250488201
 10
-2.3397698548
 20
-7.6148897467
 10
-2.0977613572
 20
-7.6941933048
 10
-1.8495902175
 20
-7.7627253422
 10
-1.5962278137
 20
-7.8202143739
 10
-1.3384873498
 20
-7.866478268
 10
-1.0771323643
 20
-7.9013708653
 10
-0.8131122616
 20
-7.9247531764
 10
-0.5472538462
 20
-7.9365398928
 10
-0.2803631391
 20
-7.9366731294
 10
-0.0133797415
 20
-7.925127421
 10
0.2528746662
 20
-7.9019115126
 10
0.5175827111
 20
-7.8670603506
 10
0.7798163963
 20
-7.8206579202
 10
1.0387802
 20
-7.7628044331
 10
1.2936711295
 20
-7.6936289208
 10
1.5435786212
 20
-7.6133280991
 10
1.7877749788
 20
-7.5220818592
 10
2.0254714511
 20
-7.4201202843
 10
2.2557206503
 20
-7.3077958543
 10
2.4778342827
 20
-7.1853980064
 10
2.6911226171
 20
-7.0532495461
 10
2.8947156205
 20
-6.911845857
 10
3.0880130844
 20
-6.761573503
 10
3.2704175336
 20
-6.6028570051
 10
3.4411605283
 20
-6.436349908
 10
3.5997229697
 20
-6.262576019
 10
3.7456614342
 20
-6.0820362769
 10
3.8784331747
 20
-5.8954395637
 10
3.9976090336
 20
-5.7034820274
 10
4.1029542158
 20
-5.5066668647
 10
4.1942785048
 20
-5.3054508961
 10
4.2713282688
 20
-5.100479095
 10
4.3339023337
 20
-4.8924034003
 10
4.3818805072
 20
-4.681716625
 10
4.4151167903
 20
-4.4691307459
 10
4.4335253956
 20
-4.2553569334
 10
4.4370739064
 20
-4.0409160345
 10
4.4257544233
 20
-3.8265780473
 10
4.3996184544
 20
-3.6130323052
 10
4.3917434676
 20
-3.5721613713
  0
LWPOLYLINE
  5
218
100
AcDbEntity
  8
0
100
AcDbPolyline
 62
7
  6
CONTINUOUS
 90
50
 70
0
 10
-4.475369491
 20
-6.5911353171
 10
-4.3850503721
 20
-6.7554479605
 10
-4.281438036
 20
-6.9162377
 10
-4.1647788373
 20
-7.0729332521
 10
-4.0352299204
 20
-7.2251184563
 10
-3.8932379392
 20
-7.3720791266
 10
-3.7396566229
 20
-7.5128623156
 10
-3.5752493399
 20
-7.6468116905
 10
-3.4003612909
 20
-7.7736843152
 10
-3.2153351746
 20
-7.8932063586
 10
-3.0206503595
 20
-8.0050053467
 10
-2.8170087532
 20
-8.1086166418
 10
-2.6051006345
 20
-8.2036424134
 10
-2.3855063408
 20
-8.2897725598
 10
-2.1590141293
 20
-8.3666485147
 10
-1.9266983494
 20
-8.4338899945
 10
-1.6897241502
 20
-8.4911973375
 10
-1.4484836848
 20
-8.5385119687
 10
-1.2028934546
 20
-8.5758013338
 10
-0.9530998422
 20
-8.6028983142
 10
-0.7004874245
 20
-8.6195082283
 10
-0.4468373958
 20
-8.6254706108
 10
-0.1935481877
 20
-8.620807092
 10
0.0591438752
 20
-8.6055766643
 10
0.3111832585
 20
-8.5797542429
 10
0.562146744
 20
-8.5432822642
 10
0.8108287698
 20
-8.4962340634
 10
1.056009655
 20
-8.4387907717
 10
1.2968380413
 20
-8.3711350458
 10
1.5326166104
 20
-8.2934464401
 10
1.7624080097
 20
-8.2060275473
 10
1.9852202343
 20
-8.1092881657
 10
2.2006645445
 20
-8.0034317195
 10
2.408693574
 20
-7.8884371514
 10
2.6090173416
 20
-7.7643178961
 10
2.8004946103
 20
-7.6316286571
 10
2.9818613095
 20
-7.4912084177
 10
3.1522194866
 20
-7.3438457282
 10
3.3114895561
 20
-7.1897107865
 10
3.4596816354
 20
-7.0287614665
 10
3.5965404774
 20
-6.8610917497
 10
3.7212484328
 20
-6.6875064369
 10
3.833028009
 20
-6.5090484266
 10
3.9314362316
 20
-6.3265581351
 10
4.0163955592
 20
-6.1403349899
 10
4.0877941585
 20
-5.9506565982
 10
4.1453272614
 20
-5.7583715741
 10
4.188920837
 20
-5.5637840835
 10
4.2185640717
 20
-5.3663168863
 10
4.230650945
 20
-5.2086910336
  0
LINE
  5
219
100
AcDbEntity
  8
0
100
AcDbLine
 62
7
  6
CONTINUOUS
 10
1.5054771788
 20
-5.5885155451
 11
1.7268976311
 21
-5.5426466401
  0
LINE
  5
21A
100
AcDbEntity
  8
0
100
AcDbLine
 62
7
  6
CONTINUOUS
 10
1.7268976311
 20
-5.5426466401
 11
1.7592196621
 21
-5.5361347221
  0
LINE
  5
21B
100
AcDbEntity
  8
0
100
AcDbLine
 62
7
  6
CONTINUOUS
 10
1.4345536072
 20
-5.602795587
 11
1.5054771788
 21
-5.5885155451
  0
LINE
  5
21C
100
AcDbEntity
  8
0
100
AcDbLine
 62
7
  6
CONTINUOUS
 10
1.7592196621
 20
-5.5361347221
 11
1.7794766866
 21
-5.5321522378
  0
LINE
  5
21D
100
AcDbEntity
  8
0
100
AcDbLine
 62
7
  6
CONTINUOUS
 10
1.3764540967
 20
-5.6141689451
 11
1.4345536072
 21
-5.602795587
  0
LINE
  5
21E
100
AcDbEntity
  8
0
100
AcDbLine
 62
7
  6
CONTINUOUS
 10
1.7794766866
 20
-5.5321522378
 11
1.7987888899
 21
-5.5284525962
  0
LINE
  5
21F
100
AcDbEntity
  8
0
100
AcDbLine
 62
7
  6
CONTINUOUS
 10
1.3136621996
 20
-5.6260811731
 11
1.3764540967
 21
-5.6141689451
  0
LINE
  5
220
100
AcDbEntity
  8
0
100
AcDbLine
 62
7
  6
CONTINUOUS
 10
1.7987888899
 20
-5.5284525962
 11
1.8172344361
 21
-5.5250355571
  0
LINE
  5
221
100
AcDbEntity
  8
0
100
AcDbLine
 62
7
  6
CONTINUOUS
 10
1.2690177358
 20
-5.634289885
 11
1.3136621996
 21
-5.6260811731
  0
LINE
  5
222
100
AcDbEntity
  8
0
100
AcDbLine
 62
7
  6
CONTINUOUS
 10
1.2220128413
 20
-5.6426851141
 11
1.2690177358
 21
-5.634289885
  0
LWPOLYLINE
  5
223
100
AcDbEntity
  8
0
100
AcDbPolyline
 62
7
  6
CONTINUOUS
 90
113
 70
0
 10
1.8172344361
 20
-5.5250355571
 10
1.834864724
 20
-5.521905293
 10
1.8434000277
 20
-5.5204483622
 10
1.8517497377
 20
-5.5190654709
 10
1.8599381527
 20
-5.5177602393
 10
1.8679655423
 20
-5.5165310016
 10
1.8758324352
 20
-5.515380774
 10
1.8835633747
 20
-5.5143199657
 10
1.891181352
 20
-5.5133432624
 10
1.8986639736
 20
-5.5124569879
 10
1.905967749
 20
-5.5116890657
 10
1.9131031725
 20
-5.5110365592
 10
1.9200605751
 20
-5.5105037277
 10
1.9267665135
 20
-5.5101297168
 10
1.9332163546
 20
-5.5099081683
 10
1.9394158814
 20
-5.5098472095
 10
1.9453075645
 20
-5.5100081357
 10
1.9509218065
 20
-5.5103697498
 10
1.9562294263
 20
-5.5109550836
 10
1.9610838941
 20
-5.5118923149
 10
1.9655685419
 20
-5.5131667667
 10
1.9696015013
 20
-5.5147952667
 10
1.9727892237
 20
-5.5169543756
 10
1.975079291
 20
-5.5197554511
 10
1.9765259423
 20
-5.5230897703
 10
1.9768959602
 20
-5.5268042654
 10
1.9759869182
 20
-5.530938286
 10
1.9740011045
 20
-5.5354522835
 10
1.9713121093
 20
-5.5400744613
 10
1.9679481867
 20
-5.5447374467
 10
1.9638795499
 20
-5.5495063927
 10
1.9593931279
 20
-5.5543088637
 10
1.9545399971
 20
-5.5591244114
 10
1.9492677191
 20
-5.5639714825
 10
1.9437085389
 20
-5.5688368291
 10
1.9378923979
 20
-5.5737099451
 10
1.9317882349
 20
-5.5785996555
 10
1.9254371014
 20
-5.5835221548
 10
1.918826528
 20
-5.5884916713
 10
1.9119678589
 20
-5.5934922513
 10
1.9049381228
 20
-5.598495187
 10
1.8977434369
 20
-5.6034967525
 10
1.890376892
 20
-5.6084994096
 10
1.882896307
 20
-5.6134842198
 10
1.875322223
 20
-5.6184390742
 10
1.8676336083
 20
-5.6233752461
 10
1.8598260615
 20
-5.6283090725
 10
1.8519098717
 20
-5.6332357645
 10
1.8438742105
 20
-5.6381591772
 10
1.8356828894
 20
-5.6431084358
 10
1.8273355436
 20
-5.64808451
 10
1.8188317673
 20
-5.6530851045
 10
1.8101351051
 20
-5.6581341161
 10
1.8012456238
 20
-5.6632313811
 10
1.7921622508
 20
-5.6683753201
 10
1.7828465983
 20
-5.6735873358
 10
1.7732984158
 20
-5.6788668143
 10
1.7635166736
 20
-5.6842121211
 10
1.7534615646
 20
-5.6896427046
 10
1.7431325221
 20
-5.6951575584
 10
1.7325285178
 20
-5.7007548361
 10
1.7216087765
 20
-5.7064522462
 10
1.7103723788
 20
-5.7122484006
 10
1.698818293
 20
-5.7181411172
 10
1.6869052741
 20
-5.7241463717
 10
1.6746319764
 20
-5.7302623875
 10
1.661997399
 20
-5.7364865277
 10
1.6489604907
 20
-5.7428328726
 10
1.6355193894
 20
-5.7492992367
 10
1.6216731819
 20
-5.7558824142
 10
1.6073819027
 20
-5.7625942913
 10
1.5926430546
 20
-5.7694322542
 10
1.577455911
 20
-5.7763924114
 10
1.5617828181
 20
-5.7834840204
 10
1.5456210629
 20
-5.7907037863
 10
1.5289696899
 20
-5.7980472629
 10
1.5117933422
 20
-5.80552123
 10
1.4940901468
 20
-5.8131212266
 10
1.475857886
 20
-5.8208426192
 10
1.4570603442
 20
-5.828691113
 10
1.4376915789
 20
-5.8366630187
 10
1.4177530119
 20
-5.8447513603
 10
1.3972191779
 20
-5.8529561154
 10
1.3760797397
 20
-5.8612743282
 10
1.3543402274
 20
-5.8696967612
 10
1.3319988626
 20
-5.8782134718
 10
1.3090529183
 20
-5.8868179168
 10
1.2855003895
 20
-5.895503431
 10
1.2613406162
 20
-5.9042596426
 10
1.2365712183
 20
-5.9130794054
 10
1.2111900114
 20
-5.92195561
 10
1.1851966992
 20
-5.9308777096
 10
1.1585889021
 20
-5.9398381003
 10
1.1313647175
 20
-5.9488290838
 10
1.1035246679
 20
-5.9578397563
 10
1.0750665165
 20
-5.9668620307
 10
1.0459886284
 20
-5.9758876663
 10
1.016292572
 20
-5.9849053379
 10
0.9859763174
 20
-5.9939064864
 10
0.9550385694
 20
-6.0028823507
 10
0.9234821833
 20
-6.0118211456
 10
0.8913051293
 20
-6.0207139324
 10
0.8585068006
 20
-6.0295513828
 10
0.8250924201
 20
-6.038321028
 10
0.7910608731
 20
-6.0470133692
 10
0.7564114846
 20
-6.0556187947
 10
0.7211504132
 20
-6.0641246234
 10
0.6852992465
 20
-6.0725159528
 10
0.6488356578
 20
-6.0807880486
 10
0.6116999557
 20
-6.0889422957
 10
0.5738720546
 20
-6.0969709887
 10
0.5353717742
 20
-6.1048585018
 10
0.4961993329
 20
-6.1125929879
  0
LINE
  5
224
100
AcDbEntity
  8
0
100
AcDbLine
 62
7
  6
CONTINUOUS
 10
1.1725229779
 20
-5.6512401626
 11
1.2220128413
 21
-5.6426851141
  0
LINE
  5
225
100
AcDbEntity
  8
0
100
AcDbLine
 62
7
  6
CONTINUOUS
 10
1.1204590084
 20
-5.6599132809
 11
1.1725229779
 21
-5.6512401626
  0
LWPOLYLINE
  5
226
100
AcDbEntity
  8
0
100
AcDbPolyline
 62
7
  6
CONTINUOUS
 90
16
 70
0
 10
0.4961993329
 20
-6.1125929879
 10
0.7504919557
 20
-6.0723698788
 10
1.0022001852
 20
-6.0216731423
 10
1.2505396071
 20
-5.960594221
 10
1.4948493445
 20
-5.8892202299
 10
1.7342379834
 20
-5.8077351547
 10
1.9676128467
 20
-5.7164676407
 10
2.1940957354
 20
-5.6157574042
 10
2.4131699546
 20
-5.5058315097
 10
2.6243253902
 20
-5.3869155071
 10
2.8269823808
 20
-5.2592821863
 10
3.0204188378
 20
-5.1233317318
 10
3.2039452263
 20
-4.9795123183
 10
3.3769727789
 20
-4.828263164
 10
3.5390004898
 20
-4.6700008079
 10
3.6895328385
 20
-4.5051846516
  0
LINE
  5
227
100
AcDbEntity
  8
0
100
AcDbLine
 62
7
  6
CONTINUOUS
 10
1.0656959409
 20
-5.6686657205
 11
1.1204590084
 21
-5.6599132809
  0
LINE
  5
228
100
AcDbEntity
  8
0
100
AcDbLine
 62
7
  6
CONTINUOUS
 10
1.0081102942
 20
-5.6774518466
 11
1.0656959409
 21
-5.6686657205
  0
LINE
  5
229
100
AcDbEntity
  8
0
100
AcDbLine
 62
7
  6
CONTINUOUS
 10
0.9476145181
 20
-5.6862103505
 11
1.0081102942
 21
-5.6774518466
  0
LWPOLYLINE
  5
22A
100
AcDbEntity
  8
0
100
AcDbPolyline
 62
7
  6
CONTINUOUS
 90
32
 70
0
 10
-0.5885522717
 20
-5.7369053319
 10
-0.5095045523
 20
-5.7426078846
 10
-0.4380378538
 20
-5.7469613281
 10
-0.368999633
 20
-5.7504508261
 10
-0.3024058732
 20
-5.7531588123
 10
-0.2379854808
 20
-5.7551584766
 10
-0.1757559975
 20
-5.7565163129
 10
-0.1157264356
 20
-5.7572985247
 10
-0.0576087161
 20
-5.7575569378
 10
-0.0014123605
 20
-5.7573435816
 10
0.0528579432
 20
-5.7567105911
 10
0.1054995858
 20
-5.7556910555
 10
0.1565077405
 20
-5.7543245941
 10
0.2058804327
 20
-5.7526514138
 10
0.2539198496
 20
-5.7506885978
 10
0.3006248453
 20
-5.7484652275
 10
0.345993732
 20
-5.7460115485
 10
0.3903273151
 20
-5.7433313608
 10
0.4336806815
 20
-5.740441402
 10
0.4759974079
 20
-5.7373664559
 10
0.5174103071
 20
-5.7341123478
 10
0.5579515883
 20
-5.7306933627
 10
0.5975891435
 20
-5.7271291513
 10
0.6363591809
 20
-5.7234296294
 10
0.6742646383
 20
-5.7196101415
 10
0.7113042793
 20
-5.7156861928
 10
0.7475081763
 20
-5.711666218
 10
0.7828765219
 20
-5.7075644095
 10
0.8174120143
 20
-5.7033944302
 10
0.8511485174
 20
-5.6991623731
 10
0.8840872941
 20
-5.6948808621
 10
0.9476145181
 20
-5.6862103505
  0
LWPOLYLINE
  5
22B
100
AcDbEntity
  8
0
100
AcDbPolyline
 62
7
  6
CONTINUOUS
 90
47
 70
0
 10
-4.9997596867
 20
-0.39504929
 10
-4.9851424165
 20
-0.5684627213
 10
-4.955762516
 20
-0.7576239196
 10
-4.9130877129
 20
-0.9455572307
 10
-4.8572349758
 20
-1.1317475426
 10
-4.7883573933
 20
-1.3156845205
 10
-4.706643754
 20
-1.4968640059
 10
-4.6123180292
 20
-1.6747893986
 10
-4.5056387593
 20
-1.8489730172
 10
-4.3868983447
 20
-2.0189374367
 10
-4.2564222447
 20
-2.1842167964
 10
-4.1145680851
 20
-2.344358077
 10
-3.9617246783
 20
-2.4989223425
 10
-3.7983109576
 20
-2.6474859429
 10
-3.6247748284
 20
-2.7896416757
 10
-3.4415919415
 20
-2.9249999019
 10
-3.2492643882
 20
-3.0531896141
 10
-3.048319325
 20
-3.1738594532
 10
-2.8393075284
 20
-3.2866786714
 10
-2.6228018852
 20
-3.3913380393
 10
-2.3993958223
 20
-3.4875506927
 10
-2.1697016802
 20
-3.5750529194
 10
-1.9343490346
 20
-3.6536048819
 10
-1.6939829707
 20
-3.7229912748
 10
-1.4492623152
 20
-3.7830219147
 10
-1.2008578304
 20
-3.8335322619
 10
-0.9494503757
 20
-3.874383871
 10
-0.6957290415
 20
-3.9054647706
 10
-0.4403892603
 20
-3.9266897701
 10
-0.1841309008
 20
-3.9380006932
 10
0.0723436508
 20
-3.9393665375
 10
0.3283314155
 20
-3.9307835593
 10
0.5831307487
 20
-3.912275284
 10
0.836043263
 20
-3.8838924414
 10
1.0863757429
 20
-3.845712827
 10
1.3334420444
 20
-3.7978410884
 10
1.5765649761
 20
-3.7404084387
 10
1.8150781547
 20
-3.6735722968
 10
2.0483278323
 20
-3.597515856
 10
2.2756746877
 20
-3.5124475817
 10
2.496495579
 20
-3.41860064
 10
2.7101852515
 20
-3.316232259
 10
2.9161579966
 20
-3.2056230233
 10
3.1138492574
 20
-3.087076105
 10
3.3027171759
 20
-2.9609164331
 10
3.4822440782
 20
-2.8274898024
 10
3.6519378935
 20
-2.687161926
  0
LWPOLYLINE
  5
22C
100
AcDbEntity
  8
0
100
AcDbPolyline
 62
250
  6
CONTINUOUS
 90
54
 70
0
 10
-5.0854241105
 20
0.2597235388
 10
-5.0734042423
 20
0.0835054821
 10
-5.0500910967
 20
-0.0922338838
 10
-5.0155374854
 20
-0.2670964528
 10
-4.9698216836
 20
-0.4406861049
 10
-4.9130472522
 20
-0.6126096036
 10
-4.8453428035
 20
-0.782477487
 10
-4.7668617099
 20
-0.9499049497
 10
-4.6777817564
 20
-1.1145127146
 10
-4.5783047376
 20
-1.2759278921
 10
-4.468656001
 20
-1.4337848251
 10
-4.3490839364
 20
-1.5877259167
 10
-4.2198594127
 20
-1.7374024409
 10
-4.0812751653
 20
-1.8824753322
 10
-3.9336451318
 20
-2.0226159539
 10
-3.777303742
 20
-2.1575068423
 10
-3.6126051593
 20
-2.2868424263
 10
-3.4399224789
 20
-2.4103297191
 10
-3.2596468827
 20
-2.5276889823
 10
-3.0721867528
 20
-2.6386543593
 10
-2.8779667469
 20
-2.7429744781
 10
-2.6774268356
 20
-2.8404130198
 10
-2.4710213063
 20
-2.930749255
 10
-2.259217734
 20
-3.0137785429
 10
-2.0424959219
 20
-3.0893127955
 10
-1.8213468145
 20
-3.1571809034
 10
-1.5962713858
 20
-3.2172291236
 10
-1.367779504
 20
-3.2693214275
 10
-1.1363887767
 20
-3.3133398093
 10
-0.9026233782
 20
-3.3491845532
 10
-0.6670128625
 20
-3.3767744593
 10
-0.4300909631
 20
-3.3960470277
 10
-0.1923943843
 20
-3.4069585997
 10
0.0455384146
 20
-3.4094844571
 10
0.2831684394
 20
-3.403618878
 10
0.5199573817
 20
-3.3893751499
 10
0.7553688382
 20
-3.3667855394
 10
0.9888695264
 20
-3.3359012193
 10
1.2199304921
 20
-3.2967921524
 10
1.4480283079
 20
-3.2495469333
 10
1.6726462588
 20
-3.1942725878
 10
1.893275513
 20
-3.1310943299
 10
2.1094162742
 20
-3.0601552787
 10
2.3205789141
 20
-2.981616134
 10
2.5262850815
 20
-2.8956548122
 10
2.7260687855
 20
-2.8024660434
 10
2.919477452
 20
-2.70226093
 10
3.1060729481
 20
-2.595266469
 10
3.285432575
 20
-2.4817250371
 10
3.4571500254
 20
-2.3618938423
 10
3.6208363041
 20
-2.2360443407
 10
3.7761206089
 20
-2.1044616219
 10
3.9226511711
 20
-1.9674437632
 10
4.0600960517
 20
-1.8253011539
  0
LWPOLYLINE
  5
22D
100
AcDbEntity
  8
0
100
AcDbPolyline
 62
7
  6
CONTINUOUS
 90
46
 70
0
 10
-5.0861093178
 20
0.4365219561
 10
-5.0849047721
 20
0.2198916938
 10
-5.0689032777
 20
0.0024171889
 10
-5.0379403951
 20
-0.2151277092
 10
-4.991975561
 20
-0.4317309616
 10
-4.9309538222
 20
-0.6468417572
 10
-4.8546394956
 20
-0.8603704073
 10
-4.7626669854
 20
-1.0721940489
 10
-4.655269198
 20
-1.2808314047
 10
-4.533302104
 20
-1.4842802193
 10
-4.3976701112
 20
-1.6811744192
 10
-4.2483221376
 20
-1.871710807
 10
-4.0847548777
 20
-2.0563044278
 10
-3.9063118976
 20
-2.2351351416
 10
-3.7140334275
 20
-2.4066246286
 10
-3.5101126419
 20
-2.5687067101
 10
-3.295909039
 20
-2.720518653
 10
-3.0714095258
 20
-2.8622527217
 10
-2.8370585847
 20
-2.9936767673
 10
-2.5930205799
 20
-3.1146574347
 10
-2.3403958754
 20
-3.2245878965
 10
-2.0811705053
 20
-3.3226750766
 10
-1.8166327682
 20
-3.4086242826
 10
-1.5470945952
 20
-3.4824996172
 10
-1.2732074977
 20
-3.5442156496
 10
-0.9955641588
 20
-3.5936868653
 10
-0.715140526
 20
-3.6307670127
 10
-0.4331942126
 20
-3.6553421514
 10
-0.1507095351
 20
-3.6674024765
 10
0.1316998792
 20
-3.666978482
 10
0.4133213706
 20
-3.6540918136
 10
0.6935786434
 20
-3.6287513658
 10
0.9714732595
 20
-3.5910109042
 10
1.2456887066
 20
-3.5410450599
 10
1.5152619022
 20
-3.4790589871
 10
1.7796732819
 20
-3.4051828284
 10
2.0383195685
 20
-3.3195508111
 10
2.2910093434
 20
-3.2221167229
 10
2.5364607033
 20
-3.1132406585
 10
2.7725923128
 20
-2.9938616206
 10
2.9981924529
 20
-2.8647886118
 10
3.2134494126
 20
-2.726098264
 10
3.4184814474
 20
-2.5777396887
 10
3.6129050192
 20
-2.4198917675
 10
3.7959272095
 20
-2.2530745344
 10
3.9669783993
 20
-2.0776875377
  0
LWPOLYLINE
  5
22E
100
AcDbEntity
  8
0
100
AcDbPolyline
 62
250
  6
CONTINUOUS
 90
55
 70
0
 10
-4.9102365013
 20
6.6396708926
 10
-4.909551294
 20
6.4628724753
 10
-4.8975314258
 20
6.2866544186
 10
-4.8742182802
 20
6.1109150526
 10
-4.8396646689
 20
5.9360524837
 10
-4.7939488671
 20
5.7624628316
 10
-4.7371744357
 20
5.5905393329
 10
-4.669469987
 20
5.4206714495
 10
-4.5909888934
 20
5.2532439868
 10
-4.5019089399
 20
5.0886362219
 10
-4.4024319211
 20
4.9272210443
 10
-4.2927831845
 20
4.7693641114
 10
-4.1732111199
 20
4.6154230198
 10
-4.0439865962
 20
4.4657464956
 10
-3.9054023488
 20
4.3206736042
 10
-3.7577723153
 20
4.1805329826
 10
-3.6014309255
 20
4.0456420941
 10
-3.4367323428
 20
3.9163065102
 10
-3.2640496624
 20
3.7928192174
 10
-3.0837740662
 20
3.6754599542
 10
-2.8963139363
 20
3.5644945771
 10
-2.7020939304
 20
3.4601744584
 10
-2.5015540191
 20
3.3627359166
 10
-2.2951484898
 20
3.2723996815
 10
-2.0833449175
 20
3.1893703936
 10
-1.8666231054
 20
3.113836141
 10
-1.645473998
 20
3.045968033
 10
-1.4203985693
 20
2.9859198128
 10
-1.1919066875
 20
2.9338275089
 10
-0.9605159602
 20
2.8898091271
 10
-0.7267505617
 20
2.8539643832
 10
-0.491140046
 20
2.8263744771
 10
-0.2542181466
 20
2.8071019088
 10
-0.0165215678
 20
2.7961903368
 10
0.2214112311
 20
2.7936644794
 10
0.4590412559
 20
2.7995300584
 10
0.6958301982
 20
2.8137737865
 10
0.9312416547
 20
2.836363397
 10
1.1647423429
 20
2.8672477172
 10
1.3958033086
 20
2.9063567841
 10
1.6239011244
 20
2.9536020031
 10
1.8485190753
 20
3.0088763487
 10
2.0691483295
 20
3.0720546066
 10
2.2852890907
 20
3.1429936578
 10
2.4964517306
 20
3.2215328025
 10
2.702157898
 20
3.3074941243
 10
2.901941602
 20
3.4006828931
 10
3.0953502685
 20
3.5008880064
 10
3.2819457646
 20
3.6078824675
 10
3.4613053915
 20
3.7214238993
 10
3.6330228419
 20
3.8412550942
 10
3.7967091206
 20
3.9671045958
 10
3.9519934254
 20
4.0986873145
 10
4.0985239876
 20
4.2357051733
 10
4.2359688682
 20
4.3778477825
  0
LWPOLYLINE
  5
22F
100
AcDbEntity
  8
0
100
AcDbPolyline
 62
7
  6
CONTINUOUS
 90
45
 70
0
 10
-4.8151214446
 20
-2.3552479215
 10
-4.81467463
 20
-2.4991375108
 10
-4.8016425602
 20
-2.6770076539
 10
-4.7750460468
 20
-2.8534809624
 10
-4.7352790866
 20
-3.0277039414
 10
-4.6826566064
 20
-3.1994726097
 10
-4.6176815302
 20
-3.3680141908
 10
-4.5414106947
 20
-3.5317188296
 10
-4.4546295509
 20
-3.6901796631
 10
-4.3580591402
 20
-3.8431627003
 10
-4.2531277089
 20
-3.989500242
 10
-4.1406237542
 20
-4.1292250186
 10
-4.0215645709
 20
-4.2620772494
 10
-3.8981476947
 20
-4.3867128266
 10
-3.7718025082
 20
-4.5029675368
 10
-3.6432260883
 20
-4.6113570248
 10
-3.5137413914
 20
-4.7117830298
 10
-3.3845995177
 20
-4.8043154945
 10
-3.2563481609
 20
-4.8895223473
 10
-3.1291393212
 20
-4.9680777166
 10
-3.0037077037
 20
-5.0402475914
 10
-2.8805840804
 20
-5.1064041616
 10
-2.7594036617
 20
-5.167285867
 10
-2.6406540237
 20
-5.2231417687
 10
-2.5246975329
 20
-5.2742738612
 10
-2.4108012104
 20
-5.3213728234
 10
-2.29927212
 20
-5.364637502
 10
-2.1903505135
 20
-5.4042921436
 10
-2.0830626763
 20
-5.4409291391
 10
-1.9776014875
 20
-5.4746831764
 10
-1.8741153543
 20
-5.5057075947
 10
-1.7714586273
 20
-5.5344869377
 10
-1.6693325236
 20
-5.5611981912
 10
-1.5682359986
 20
-5.5858063578
 10
-1.4681705121
 20
-5.6084069829
 10
-1.3687775342
 20
-5.6291664688
 10
-1.2705786766
 20
-5.6480552808
 10
-1.1749061088
 20
-5.6649311101
 10
-1.0823018096
 20
-5.679861332
 10
-0.9923940438
 20
-5.6930579628
 10
-0.905150616
 20
-5.704647481
 10
-0.8206841158
 20
-5.7147454121
 10
-0.73899681
 20
-5.7234769506
 10
-0.659877349
 20
-5.7309640221
 10
-0.5885522717
 20
-5.7369053319
  0
LINE
  5
230
100
AcDbEntity
  8
0
100
AcDbLine
 62
7
  6
CONTINUOUS
 10
-5.0861093178
 20
0.4365219561
 11
-4.9102365013
 21
6.6396708926
  0
LINE
  5
231
100
AcDbEntity
  8
0
100
AcDbLine
 62
7
  6
CONTINUOUS
 10
-4.8151212946
 20
-2.355242632
 11
-4.7858078278
 21
-1.321337542
  0
LWPOLYLINE
  5
232
100
AcDbEntity
  8
0
100
AcDbPolyline
 62
7
  6
CONTINUOUS
 90
29
 70
0
 10
-4.5290871832
 20
-3.5542213435
 10
-4.5108438641
 20
-3.6479575883
 10
-4.4638060869
 20
-3.8166435081
 10
-4.4028652272
 20
-3.9836022897
 10
-4.3282416579
 20
-4.1480609099
 10
-4.2403057872
 20
-4.3092017879
 10
-4.1392129935
 20
-4.4667334103
 10
-4.0248315275
 20
-4.6206523177
 10
-3.8970141039
 20
-4.7707685178
 10
-3.7563050367
 20
-4.9160846486
 10
-3.603702276
 20
-5.0554223298
 10
-3.4398693633
 20
-5.1881761812
 10
-3.2652026917
 20
-5.3140214065
 10
-3.0805646004
 20
-5.432338514
 10
-2.8871501814
 20
-5.5424574888
 10
-2.6851216082
 20
-5.6443762504
 10
-2.473693413
 20
-5.7383894977
 10
-2.2526436829
 20
-5.8243130262
 10
-2.0232617515
 20
-5.9013678318
 10
-1.7869816861
 20
-5.9689132057
 10
-1.5444414503
 20
-6.0266657991
 10
-1.2964707479
 20
-6.0743273383
 10
-1.0449665679
 20
-6.1115096081
 10
-0.7913748726
 20
-6.1380918884
 10
-0.5359225668
 20
-6.1541427519
 10
-0.2787161674
 20
-6.1596615772
 10
-0.0203134021
 20
-6.154587071
 10
0.2382560185
 20
-6.1388926566
 10
0.4961993329
 20
-6.1125929879
  0
LWPOLYLINE
  5
233
100
AcDbEntity
  8
0
100
AcDbPolyline
 62
7
  6
CONTINUOUS
 90
8
 70
0
 10
-4.7271977337
 20
-5.4602096358
 10
-4.7295308451
 20
-5.5983268189
 10
-4.7193531453
 20
-5.7667566388
 10
-4.6961545139
 20
-5.9348006639
 10
-4.6600158594
 20
-6.1017881688
 10
-4.6110689225
 20
-6.2671539392
 10
-4.5494571547
 20
-6.4304375303
 10
-4.475369491
 20
-6.5911353171
  0
LWPOLYLINE
  5
234
100
AcDbEntity
  8
0
100
AcDbPolyline
 62
7
  6
CONTINUOUS
 90
9
 70
0
 10
-4.6925047881
 20
-4.2442058083
 10
-4.694888998
 20
-4.3843329605
 10
-4.6835034141
 20
-4.5612259416
 10
-4.6578186873
 20
-4.7373162651
 10
-4.6179240284
 20
-4.912176667
 10
-4.563952401
 20
-5.0852291838
 10
-4.4960904547
 20
-5.2558698145
 10
-4.4145049917
 20
-5.4236341752
 10
-4.3193926543
 20
-5.5880207975
  0
LWPOLYLINE
  5
235
100
AcDbEntity
  8
0
100
AcDbPolyline
 62
7
  6
CONTINUOUS
 90
37
 70
0
 10
-4.7622652668
 20
-6.6789836295
 10
-4.7631754547
 20
-6.6909170177
 10
-4.7624662109
 20
-6.8654140638
 10
-4.7477827271
 20
-7.0397551976
 10
-4.7191818892
 20
-7.213337117
 10
-4.6767809819
 20
-7.38552882
 10
-4.6207168862
 20
-7.5558179684
 10
-4.5511120149
 20
-7.7237816368
 10
-4.4680934598
 20
-7.8889815054
 10
-4.3719466266
 20
-8.0507335081
 10
-4.263116193
 20
-8.2082683954
 10
-4.1421267307
 20
-8.3608929758
 10
-4.0092652571
 20
-8.5083012874
 10
-3.8646552825
 20
-8.650312782
 10
-3.7084651275
 20
-8.7866272145
 10
-3.541348939
 20
-8.9165454898
 10
-3.3642135393
 20
-9.0393249984
 10
-3.1779272559
 20
-9.1544064843
 10
-2.9828465917
 20
-9.261608643
 10
-2.7791676191
 20
-9.3607910966
 10
-2.5672103398
 20
-9.4517019026
 10
-2.3478827267
 20
-9.5338574386
 10
-2.1222891049
 20
-9.6068078713
 10
-1.8913798983
 20
-9.6702585405
 10
-1.6556717142
 20
-9.7240792544
 10
-1.4156642106
 20
-9.7681348376
 10
-1.1724816162
 20
-9.8022061732
 10
-0.9265089245
 20
-9.8262263942
 10
-0.6770994566
 20
-9.8401334102
 10
-0.4242017663
 20
-9.8436662068
 10
-0.169407076
 20
-9.8365368574
 10
0.0854608024
 20
-9.8186426157
 10
0.3396387195
 20
-9.7899415209
 10
0.5922234648
 20
-9.7504392845
 10
0.8412082096
 20
-9.7004355247
 10
1.0856026515
 20
-9.6402092927
 10
1.3248737911
 20
-9.5699741978
  0
LWPOLYLINE
  5
236
100
AcDbEntity
  8
0
100
AcDbPolyline
 62
7
  6
CONTINUOUS
 90
13
 70
0
 10
-4.7791207334
 20
-2.8264445828
 10
-4.7919288631
 20
-2.879050447
 10
-4.8234186894
 20
-3.0710506733
 10
-4.8400315177
 20
-3.2642105803
 10
-4.8417489199
 20
-3.4577093813
 10
-4.8286219248
 20
-3.6508442658
 10
-4.8007374984
 20
-3.8429718253
 10
-4.758273976
 20
-4.0332233862
 10
-4.7014096047
 20
-4.2210505932
 10
-4.6301553266
 20
-4.4063332581
 10
-4.5446510086
 20
-4.588453477
 10
-4.4451079376
 20
-4.7667470634
 10
-4.3314884333
 20
-4.9410201714
  0
LWPOLYLINE
  5
237
100
AcDbEntity
  8
0
100
AcDbPolyline
 62
250
  6
CONTINUOUS
 90
37
 70
0
 10
-3.849002563
 20
-2.6014009055
 10
-3.7732114556
 20
-2.6780453425
 10
-3.6181351696
 20
-2.8190291674
 10
-3.4534529246
 20
-2.9539320567
 10
-3.2796161033
 20
-3.082384251
 10
-3.0971011802
 20
-3.2040336717
 10
-2.9064084162
 20
-3.3185468863
 10
-2.7080604868
 20
-3.425610022
 10
-2.5026010499
 20
-3.5249296262
 10
-2.2905932555
 20
-3.6162334708
 10
-2.0726182023
 20
-3.6992712982
 10
-1.8492733447
 20
-3.7738155075
 10
-1.6211708555
 20
-3.8396617783
 10
-1.3889359477
 20
-3.8966296305
 10
-1.1532051611
 20
-3.9445629191
 10
-0.9146246174
 20
-3.9833302624
 10
-0.6738482492
 20
-4.0128254018
 10
-0.4315360079
 20
-4.0329674932
 10
-0.1883520544
 20
-4.0437013284
 10
0.0550370609
 20
-4.0449974867
 10
0.2979642253
 20
-4.0368524156
 10
0.5397635925
 20
-4.01928844
 10
0.7797724071
 20
-3.9923537017
 10
1.0173328217
 20
-3.9561220268
 10
1.2517936997
 20
-3.9106927238
 10
1.4825124001
 20
-3.8561903113
 10
1.708856539
 20
-3.7927641767
 10
1.9302057228
 20
-3.7205881666
 10
2.1459532489
 20
-3.6398601103
 10
2.3555077682
 20
-3.5508012779
 10
2.5582949064
 20
-3.4536557735
 10
2.753758838
 20
-3.3486898661
 10
2.94136381
 20
-3.23619126
 10
3.1205956101
 20
-3.116468306
 10
3.2909629766
 20
-2.9898491565
 10
3.4519989442
 20
-2.8566808656
 10
3.4963197977
 20
-2.8158499212
  0
LWPOLYLINE
  5
238
100
AcDbEntity
  8
0
100
AcDbPolyline
 62
7
  6
CONTINUOUS
 90
11
 70
0
 10
-4.8180270429
 20
-5.1382808007
 10
-4.8614916342
 20
-5.3180532135
 10
-4.8923814328
 20
-5.5067247919
 10
-4.9089164124
 20
-5.6967189958
 10
-4.9110074282
 20
-5.8882053906
 10
-4.898446332
 20
-6.0804455078
 10
-4.8710856062
 20
-6.2726970981
 10
-4.8286040901
 20
-6.4651095922
 10
-4.7706598383
 20
-6.6572124875
 10
-4.6971283628
 20
-6.8479147996
 10
-4.6246119601
 20
-7.0036920835
  0
LWPOLYLINE
  5
239
100
AcDbEntity
  8
0
100
AcDbPolyline
 62
7
  6
CONTINUOUS
 90
12
 70
0
 10
-4.7829710836
 20
-3.9225716312
 10
-4.8186127884
 20
-4.0601773745
 10
-4.8529495278
 20
-4.2515570342
 10
-4.8725132619
 20
-4.4449666781
 10
-4.877106105
 20
-4.6394815865
 10
-4.8666481498
 20
-4.8341433019
 10
-4.8411545976
 20
-5.0281568025
 10
-4.8006985565
 20
-5.2207919964
 10
-4.7454414239
 20
-5.4112267473
 10
-4.675637781
 20
-5.5986440968
 10
-4.5914997717
 20
-5.7825217813
 10
-4.4931391302
 20
-5.9625304595
  0
LWPOLYLINE
  5
23A
100
AcDbEntity
  8
0
100
AcDbPolyline
 62
7
  6
CONTINUOUS
 90
11
 70
0
 10
-4.8519034153
 20
-6.3595794303
 10
-4.883417395
 20
-6.4776352691
 10
-4.9190917676
 20
-6.6678192115
 10
-4.940138897
 20
-6.8597475716
 10
-4.9464347208
 20
-7.0525322407
 10
-4.9379508462
 20
-7.2454092412
 10
-4.9147215255
 20
-7.437640002
 10
-4.8768660472
 20
-7.6283832244
 10
-4.8246043065
 20
-7.8167900518
 10
-4.7581334269
 20
-8.0023445626
 10
-4.6775499172
 20
-8.1847602547
  0
LWPOLYLINE
  5
23B
100
AcDbEntity
  8
0
100
AcDbPolyline
 62
7
  6
CONTINUOUS
 90
27
 70
0
 10
4.27826613
 20
-7.271021225
 10
4.28158268
 20
-7.2951115386
 10
4.2942649433
 20
-7.4704732741
 10
4.2950599742
 20
-7.6544658979
 10
4.2823854845
 20
-7.8445791857
 10
4.2558442333
 20
-8.0345979526
 10
4.2156711044
 20
-8.2225151505
 10
4.161644423
 20
-8.4091742188
 10
4.0942326035
 20
-8.5927441386
 10
4.0139905678
 20
-8.7721399246
 10
3.9210572089
 20
-8.9474094759
 10
3.8155182912
 20
-9.1184645642
 10
3.6974818376
 20
-9.2850543941
 10
3.5674668631
 20
-9.4463810236
 10
3.4262338315
 20
-9.6015655061
 10
3.2745488023
 20
-9.7499463949
 10
3.1127391419
 20
-9.8913713596
 10
2.9409753413
 20
-10.0257554084
 10
2.7595402157
 20
-10.1528636964
 10
2.5692357907
 20
-10.272122729
 10
2.3710436643
 20
-10.3829696003
 10
2.165858771
 20
-10.4850164978
 10
1.9541655804
 20
-10.5781309935
 10
1.7363891504
 20
-10.662185315
 10
1.5131401928
 20
-10.7369768747
 10
1.2852341567
 20
-10.80227034
 10
1.0534087871
 20
-10.8578977803
  0
LINE
  5
23C
100
AcDbEntity
  8
0
100
AcDbLine
 62
7
  6
CONTINUOUS
 10
4.4829656583
 20
-2.5545282199
 11
4.5105166473
 21
-1.5827868699
  0
LINE
  5
23D
100
AcDbEntity
  8
0
100
AcDbLine
 62
7
  6
CONTINUOUS
 10
4.9098738722
 20
0.1531140071
 11
5.0857466887
 21
6.3562629436
  0
LWPOLYLINE
  5
23E
100
AcDbEntity
  8
0
100
AcDbPolyline
 62
250
  6
CONTINUOUS
 90
13
 70
0
 10
5.0857466887
 20
6.3562629436
 10
5.0751381148
 20
6.1807861175
 10
5.0532173596
 20
6.0055269476
 10
5.0200482352
 20
5.8313833126
 10
4.9757058805
 20
5.6587497038
 10
4.9202907451
 20
5.488017192
 10
4.8539283622
 20
5.3195725411
 10
4.7767690638
 20
5.1537973325
 10
4.6889876407
 20
4.9910671004
 10
4.5907829459
 20
4.831750481
 10
4.4823774447
 20
4.6762083777
 10
4.3640167104
 20
4.5247931435
 10
4.2359688682
 20
4.3778477825
  0
LWPOLYLINE
  5
23F
100
AcDbEntity
  8
0
100
AcDbPolyline
 62
250
  6
CONTINUOUS
 90
12
 70
0
 10
4.8992652983
 20
-0.022362819
 10
4.8773445431
 20
-0.1976219889
 10
4.8441754187
 20
-0.3717656239
 10
4.799833064
 20
-0.5443992326
 10
4.7444179286
 20
-0.7151317445
 10
4.6780555457
 20
-0.8835763953
 10
4.6008962473
 20
-1.0493516039
 10
4.5131148242
 20
-1.2120818361
 10
4.4149101294
 20
-1.3713984555
 10
4.3065046282
 20
-1.5269405587
 10
4.1881438939
 20
-1.6783557929
 10
4.0600960517
 20
-1.8253011539
  0
LWPOLYLINE
  5
240
100
AcDbEntity
  8
0
100
AcDbPolyline
 62
7
  6
CONTINUOUS
 90
11
 70
0
 10
4.7751840417
 20
-0.6765533686
 10
4.7581419949
 20
-0.8093549046
 10
4.7205738794
 20
-0.9968608855
 10
4.6697785011
 20
-1.1824832474
 10
4.6058950866
 20
-1.3657132122
 10
4.5290987358
 20
-1.5460485595
 10
4.4395999422
 20
-1.7229950024
 10
4.3376440158
 20
-1.8960675432
 10
4.2235104107
 20
-2.064791802
 10
4.0975119592
 20
-2.2287053174
 10
3.9599940142
 20
-2.3873588138
  0
LWPOLYLINE
  5
241
100
AcDbEntity
  8
0
100
AcDbPolyline
 62
7
  6
CONTINUOUS
 90
12
 70
0
 10
4.1116098446
 20
-1.9111812334
 10
4.2445754096
 20
-1.7395256192
 10
4.3656958949
 20
-1.5632334922
 10
4.4747828628
 20
-1.3828997583
 10
4.5717745874
 20
-1.1989809739
 10
4.6566793807
 20
-1.0117988746
 10
4.7293720853
 20
-0.8219909849
 10
4.7898371524
 20
-0.6300346503
 10
4.838161608
 20
-0.4360212539
 10
4.8743043511
 20
-0.240361507
 10
4.8982002808
 20
-0.0437897839
 10
4.9098738722
 20
0.1531140071
  0
LINE
  5
242
100
AcDbEntity
  8
0
100
AcDbLine
 62
7
  6
CONTINUOUS
 10
3.9669783993
 20
-2.0776875377
 11
4.1116098446
 21
-1.9111812334
  0
LINE
  5
243
100
AcDbEntity
  8
0
100
AcDbLine
 62
7
  6
CONTINUOUS
 10
3.811333503
 20
-2.540317433
 11
3.9599940142
 21
-2.3873588138
  0
LINE
  5
244
100
AcDbEntity
  8
0
100
AcDbLine
 62
7
  6
CONTINUOUS
 10
3.6519378935
 20
-2.687161926
 11
3.811333503
 21
-2.540317433
  0
LWPOLYLINE
  5
245
100
AcDbEntity
  8
0
100
AcDbPolyline
 62
7
  6
CONTINUOUS
 90
46
 70
0
 10
5.0857466887
 20
6.3562629436
 10
5.0856286422
 20
6.5926054566
 10
5.0717790251
 20
6.8298510162
 10
5.0440489256
 20
7.067149981
 10
5.0025406383
 20
7.3027833725
 10
4.9471785732
 20
7.5367616113
 10
4.8772090995
 20
7.7707367754
 10
4.7917881676
 20
8.005114422
 10
4.6911086687
 20
8.237406461
 10
4.5759304167
 20
8.4649767913
 10
4.4469447835
 20
8.6862546558
 10
4.3040983762
 20
8.9011831496
 10
4.147249693
 20
9.1096084428
 10
3.9763212829
 20
9.3111230571
 10
3.7919332437
 20
9.504531481
 10
3.5949349823
 20
9.6886598576
 10
3.3855919716
 20
9.863038608
 10
3.1644533781
 20
10.0269763184
 10
2.9328914774
 20
10.1793390993
 10
2.690711045
 20
10.3201379376
 10
2.4389696049
 20
10.4485898529
 10
2.181172648
 20
10.5630548128
 10
1.9189704754
 20
10.6632612809
 10
1.6518167046
 20
10.7497799252
 10
1.380060838
 20
10.8226636164
 10
1.1029631057
 20
10.8820904793
 10
0.8220152815
 20
10.9276351274
 10
0.5410053373
 20
10.9588418373
 10
0.2614094669
 20
10.9759510264
 10
-0.0174696984
 20
10.9793156408
 10
-0.2950306595
 20
10.9690897902
 10
-0.5718410511
 20
10.9452807399
 10
-0.8466307868
 20
10.9079429372
 10
-1.1160410031
 20
10.8576926006
 10
-1.3782416883
 20
10.7953045143
 10
-1.6344954013
 20
10.7208467732
 10
-1.8860595235
 20
10.6340136657
 10
-2.1348990716
 20
10.5337856115
 10
-2.3780982827
 20
10.4209173825
 10
-2.6097706381
 20
10.2983938345
 10
-2.8263671423
 20
10.1692037236
 10
-3.0314452122
 20
10.032334162
 10
-3.2296607303
 20
9.8848782441
 10
-3.4219184099
 20
9.7255800424
 10
-3.6059609906
 20
9.555660268
 10
-3.7811057235
 20
9.375245205
  0
LWPOLYLINE
  5
246
100
AcDbEntity
  8
0
100
AcDbPolyline
 62
7
  6
CONTINUOUS
 90
12
 70
0
 10
3.6895328385
 20
-4.5051846516
 10
3.8172473604
 20
-4.3484717552
 10
3.9348957082
 20
-4.1865185817
 10
4.0420768771
 20
-4.0196837283
 10
4.1384501826
 20
-3.848273005
 10
4.2236151895
 20
-3.6727500582
 10
4.2971609583
 20
-3.4937495448
 10
4.3588831733
 20
-3.3115405431
 10
4.4084825304
 20
-3.1267384916
 10
4.4456409402
 20
-2.9405525229
 10
4.4703128242
 20
-2.7538009181
 10
4.4829656583
 20
-2.5545282199
  0
LWPOLYLINE
  5
247
100
AcDbEntity
  8
0
100
AcDbPolyline
 62
7
  6
CONTINUOUS
 90
20
 70
0
 10
1.7831767832
 20
-9.4014772397
 10
2.0009778795
 20
-9.3040259439
 10
2.2117807604
 20
-9.1976418993
 10
2.415040965
 20
-9.0825479206
 10
2.6100042729
 20
-8.9591183615
 10
2.796753447
 20
-8.8271805456
 10
2.9749779421
 20
-8.6866980942
 10
3.1435676321
 20
-8.5382761332
 10
3.3014226234
 20
-8.3827226068
 10
3.4480775909
 20
-8.2203882246
 10
3.5829364344
 20
-8.0518189643
 10
3.7050075155
 20
-7.8782909273
 10
3.8138104633
 20
-7.7007587304
 10
3.9094034865
 20
-7.5194341785
 10
3.991762867
 20
-7.3345411391
 10
4.0607041171
 20
-7.1466026715
 10
4.1160566036
 20
-6.9562204806
 10
4.1577562548
 20
-6.7637114587
 10
4.1856761847
 20
-6.5697051185
 10
4.1958992867
 20
-6.4281138828
  0
LWPOLYLINE
  5
248
100
AcDbEntity
  8
0
100
AcDbPolyline
 62
7
  6
CONTINUOUS
 90
3
 70
0
 10
1.3248737911
 20
-9.5699741978
 10
1.5578047093
 20
-9.4901939316
 10
1.7831767832
 20
-9.4014772397
  0
LWPOLYLINE
  5
249
100
AcDbEntity
  8
0
100
AcDbPolyline
 62
7
  6
CONTINUOUS
 90
23
 70
0
 10
1.0534087871
 20
-10.8578977803
 10
1.2946395308
 20
-10.7869257728
 10
1.5294615176
 20
-10.7062319995
 10
1.7572017003
 20
-10.6161909608
 10
1.977002743
 20
-10.517308358
 10
2.1885154552
 20
-10.4099140942
 10
2.3918211854
 20
-10.2940674065
 10
2.5862365528
 20
-10.1702121177
 10
2.7713198695
 20
-10.0386881117
 10
2.9473632679
 20
-9.8992383345
 10
3.1139956852
 20
-9.7519627328
 10
3.2703237207
 20
-9.5974459546
 10
3.4157603585
 20
-9.4360927519
 10
3.5499453336
 20
-9.2680737293
 10
3.6721279275
 20
-9.0940813122
 10
3.7813523135
 20
-8.9154150811
 10
3.877214761
 20
-8.7329011196
 10
3.9596504175
 20
-8.546855802
 10
4.0284591263
 20
-8.357900269
 10
4.0834839556
 20
-8.1667239109
 10
4.1246836637
 20
-7.9738004661
 10
4.1520486032
 20
-7.7794241677
 10
4.1608971705
 20
-7.6511971146
  0
ENDSEC
  0
SECTION
  2
OBJECTS
  0
DICTIONARY
  5
C
100
AcDbDictionary
280
0
281
1
  3
ACAD_GROUP
350
D
  3
ACAD_MLINESTYLE
350
17
  3
ACAD_LAYOUT
350
1A
  3
ACAD_PLOTSETTINGS
350
19
  3
ACAD_PLOTSTYLENAME
350
E
  0
DICTIONARY
  5
D
102
{ACAD_REACTORS
330
C
102
}
100
AcDbDictionary
280
0
281
1
  0
ACDBDICTIONARYWDFLT
  5
E
102
{ACAD_REACTORS
330
C
102
}
100
AcDbDictionary
281
1
  3
Normal
350
F
100
AcDbDictionaryWithDefault
340
F
  0
DICTIONARY
  5
17
102
{ACAD_REACTORS
330
C
102
}
100
AcDbDictionary
280
0
281
1
  3
Standard
350
18
  0
DICTIONARY
  5
19
102
{ACAD_REACTORS
330
C
102
}
100
AcDbDictionary
281
1
  0
DICTIONARY
  5
1A
102
{ACAD_REACTORS
330
C
102
}
100
AcDbDictionary
281
1
  3
Model
350
24A
  3
Layout1
350
24B
  0
ACDBPLACEHOLDER
  5
F
102
{ACAD_REACTORS
330
E
102
}
  0
MLINESTYLE
  5
18
102
{ACAD_REACTORS
330
17
102
}
100
AcDbMlineStyle
  2
STANDARD
 70
0
  3

 62
256
 51
90.0
 52
90.0
 71
2
 49
0.5
 62
256
  6
BYLAYER
 49
-0.5
 62
256
  6
BYLAYER
  0
LAYOUT
  5
24A
102
{ACAD_REACTORS
330
1A
102
}
100
AcDbPlotSettings
  1

  2
none_device
  4
ISO_A4_(297.00_x_210.00_MM)
  6

 40
0.0
 41
0.0
 42
0.0
 43
0.0
 44
297.0
 45
210.0
 46
0.0
 47
0.0
 48
0.0
 49
0.0
140
0.0
141
0.0
142
1.0
143
1.0
 70
1024
 72
1
 73
0
 74
0
  7

 75
0
147
1.0
148
0.0
149
0.0
100
AcDbLayout
  1
Model
 70
0
 71
0
 10
0.0
 20
0.0
 11
297.0
 21
210.0
 12
0.0
 22
0.0
 32
0.0
 14
0.0
 24
0.0
 34
0.0
 15
0.0
 25
0.0
 35
0.0
146
0.0
 13
0.0
 23
0.0
 33
0.0
 16
1.0
 26
0.0
 36
0.0
 17
0.0
 27
1.0
 37
0.0
 76
0
330
207
345
0
346
0
  0
LAYOUT
  5
24B
102
{ACAD_REACTORS
330
1A
102
}
100
AcDbPlotSettings
  1

  2
none_device
  4
ISO_A4_(297.00_x_210.00_MM)
  6

 40
0.0
 41
0.0
 42
0.0
 43
0.0
 44
297.0
 45
210.0
 46
0.0
 47
0.0
 48
0.0
 49
0.0
140
0.0
141
0.0
142
1.0
143
1.0
 70
0
 72
1
 73
0
 74
0
  7

 75
0
147
1.0
148
0.0
149
0.0
100
AcDbLayout
  1
Layout1
 70
0
 71
1
 10
0.0
 20
0.0
 11
297.0
 21
210.0
 12
0.0
 22
0.0
 32
0.0
 14
0.0
 24
0.0
 34
0.0
 15
0.0
 25
0.0
 35
0.0
146
0.0
 13
0.0
 23
0.0
 33
0.0
 16
1.0
 26
0.0
 36
0.0
 17
0.0
 27
1.0
 37
0.0
 76
0
330
208
345
0
346
0
  0
ENDSEC
  0
EOF
