  0
SECTION
  2
HEADER
  9
$ACADVER
  1
AC1024
  9
$DWGCODEPAGE
  3
ANSI_1252
  9
$EXTMAX
 10
297.0
 20
210.0
 30
0.0
  9
$EXTMIN
 10
0.0
 20
0.0
 30
0.0
  9
$LIMMIN
 10
0.0
 20
0.0
  9
$LIMMAX
 10
297.0
 20
210.0
  9
$VIEWCTR
 10
148.5
 20
105.0
  9
$VIEWSIZE
 40
210.0
  9
$CLAYER
  8
0
  9
$LTSCALE
 40
16.335
  9
$CELTYPE
  6
BYLAYER
  9
$DIMSCALE
 40
1.0
  9
$DIMASZ
 40
3.0
  9
$DIMEXO
 40
0.5
  9
$DIMDLI
 40
11.286
  9
$DIMEXE
 40
1.5
  9
$DIMCEN
 40
2.673
  9
$DIMLFAC
 40
1.0
  9
$DIMBLK
  1
_FILLED
  9
$DIMALT
 70
0
  9
$DIMALTF
 40
0.0393700787
  9
$DIMTXT
 40
3.0
  9
$DIMTOL
 70
1
  9
$DIMLIM
 70
0
  9
$DIMTFAC
 40
1.0
  9
$DIMTP
 40
0.01
  9
$DIMTM
 40
0.01
  9
$DIMGAP
 40
0.625
  9
$DIMDSEP
 70
44
  9
$AUNITS
 70
0
  9
$PDMODE
 70
3
  9
$PDSIZE
 40
3.0
  9
$HANDSEED
  5
2F6
  9
$TILEMODE
 70
1
  9
$MEASUREMENT
 70
1
  9
$INSUNITS
 70
4
  0
ENDSEC
  0
SECTION
  2
CLASSES
  0
CLASS
  1
ACDBDICTIONARYWDFLT
  2
AcDbDictionaryWithDefault
  3
AutoCAD 2000
 90
0
 91
1
280
0
281
0
  0
CLASS
  1
ACDBPLACEHOLDER
  2
AcDbPlaceHolder
  3
AutoCAD 2000
 90
0
 91
1
280
0
281
0
  0
CLASS
  1
LAYOUT
  2
AcDbLayout
  3
AutoCAD 2000
 90
0
 91
0
280
0
281
0
  0
ENDSEC
  0
SECTION
  2
TABLES
  0
TABLE
  2
VPORT
  5
8
100
AcDbSymbolTable
 70
2
  0
VPORT
  5
1F4
100
AcDbSymbolTableRecord
100
AcDbViewportTableRecord
  2
*ACTIVE
 70
0
 10
0.0
 20
0.0
 11
1.0
 21
1.0
 12
148.5
 22
105.0
 13
0.0
 23
0.0
 14
1.0
 24
1.0
 15
0.0
 25
0.0
 16
0.0
 26
0.0
 36
1.0
 17
0.0
 27
0.0
 37
0.0
 40
210.0
 41
1.4142857143
 42
50.0
 43
0.0
 44
0.0
 50
0.0
 51
0.0
 71
0
 72
100
 73
1
 74
1
 75
0
 76
0
 77
0
 78
0
  0
ENDTAB
  0
TABLE
  2
LTYPE
  5
5
100
AcDbSymbolTable
 70
6
  0
LTYPE
  5
14
100
AcDbSymbolTableRecord
100
AcDbLinetypeTableRecord
  2
BYBLOCK
 70
0
  3

 72
65
 73
0
 40
0.0
  0
LTYPE
  5
15
100
AcDbSymbolTableRecord
100
AcDbLinetypeTableRecord
  2
BYLAYER
 70
0
  3

 72
65
 73
0
 40
0.0
  0
LTYPE
  5
16
100
AcDbSymbolTableRecord
100
AcDbLinetypeTableRecord
  2
CONTINUOUS
 70
64
  3
Solid line
 72
65
 73
0
 40
0.0
  0
LTYPE
  5
1F5
100
AcDbSymbolTableRecord
100
AcDbLinetypeTableRecord
  2
CENTER
 70
64
  3
____ _ ____ _ ____ _ ____ _ ____ _ ____ _ ____
 72
65
 73
4
 40
0.6
 49
0.375
 74
0
 49
-0.075
 74
0
 49
0.075
 74
0
 49
-0.075
 74
0
  0
LTYPE
  5
1F6
100
AcDbSymbolTableRecord
100
AcDbLinetypeTableRecord
  2
HIDDEN
 70
64
  3
- - - - - - - - - - - - - - - - - - - -
 72
65
 73
2
 40
0.2
 49
0.1
 74
0
 49
-0.1
 74
0
  0
LTYPE
  5
1F7
100
AcDbSymbolTableRecord
100
AcDbLinetypeTableRecord
  2
PHANTOM
 70
64
  3
_____ _ _ _____ _ _ _____ _ _ _____
 72
65
 73
6
 40
0.8
 49
0.45
 74
0
 49
-0.05
 74
0
 49
0.1
 74
0
 49
-0.05
 74
0
 49
0.1
 74
0
 49
-0.05
 74
0
  0
LTYPE
  5
1F8
100
AcDbSymbolTableRecord
100
AcDbLinetypeTableRecord
  2
DOT
 70
64
  3
. . . . . . . . . . . . . . . . . . . .
 72
65
 73
2
 40
0.2
 49
0.1
 74
0
 49
-0.1
 74
0
  0
LTYPE
  5
1F9
100
AcDbSymbolTableRecord
100
AcDbLinetypeTableRecord
  2
DASHED
 70
64
  3
- - - - - - - - - - - - - - - - - - - -
 72
65
 73
2
 40
0.2
 49
0.1
 74
0
 49
-0.1
 74
0
  0
ENDTAB
  0
TABLE
  2
LAYER
  5
2
100
AcDbSymbolTable
 70
36
  0
LAYER
  5
10
100
AcDbSymbolTableRecord
100
AcDbLayerTableRecord
  2
0
 70
0
 62
7
  6
CONTINUOUS
370
-3
390
F
  0
LAYER
  5
1FA
100
AcDbSymbolTableRecord
100
AcDbLayerTableRecord
  2
DEFAULT_1
 70
0
 62
7
  6
CENTER
370
-3
390
F
  0
LAYER
  5
1FB
100
AcDbSymbolTableRecord
100
AcDbLayerTableRecord
  2
DEFAULT_2
 70
0
 62
7
  6
HIDDEN
370
-3
390
F
  0
LAYER
  5
1FC
100
AcDbSymbolTableRecord
100
AcDbLayerTableRecord
  2
DEFAULT_3
 70
0
 62
7
  6
PHANTOM
370
-3
390
F
  0
LAYER
  5
1FD
100
AcDbSymbolTableRecord
100
AcDbLayerTableRecord
  2
26216763_GEN
 70
0
 62
7
  6
CONTINUOUS
370
-3
390
F
  0
LAYER
  5
1FE
100
AcDbSymbolTableRecord
100
AcDbLayerTableRecord
  2
ASSI
 70
0
 62
7
  6
CONTINUOUS
370
-3
390
F
  0
LAYER
  5
1FF
100
AcDbSymbolTableRecord
100
AcDbLayerTableRecord
  2
COORDINATE
 70
0
 62
7
  6
CONTINUOUS
370
-3
390
F
  0
LAYER
  5
200
100
AcDbSymbolTableRecord
100
AcDbLayerTableRecord
  2
COORD_ORIGINE
 70
0
 62
7
  6
CONTINUOUS
370
-3
390
F
  0
LAYER
  5
201
100
AcDbSymbolTableRecord
100
AcDbLayerTableRecord
  2
COSMETICI
 70
0
 62
7
  6
CONTINUOUS
370
-3
390
F
  0
LAYER
  5
202
100
AcDbSymbolTableRecord
100
AcDbLayerTableRecord
  2
CURVE
 70
0
 62
7
  6
CONTINUOUS
370
-3
390
F
  0
LAYER
  5
203
100
AcDbSymbolTableRecord
100
AcDbLayerTableRecord
  2
DRAFT
 70
0
 62
7
  6
CONTINUOUS
370
-3
390
F
  0
LAYER
  5
204
100
AcDbSymbolTableRecord
100
AcDbLayerTableRecord
  2
IGES_SCRITTE
 70
0
 62
7
  6
CONTINUOUS
370
-3
390
F
  0
LAYER
  5
205
100
AcDbSymbolTableRecord
100
AcDbLayerTableRecord
  2
IMPORT_FEATURE
 70
0
 62
7
  6
CONTINUOUS
370
-3
390
F
  0
LAYER
  5
206
100
AcDbSymbolTableRecord
100
AcDbLayerTableRecord
  2
INTF_1
 70
0
 62
7
  6
CONTINUOUS
370
-3
390
F
  0
LAYER
  5
207
100
AcDbSymbolTableRecord
100
AcDbLayerTableRecord
  2
LAY0001
 70
0
 62
7
  6
CONTINUOUS
370
-3
390
F
  0
LAYER
  5
208
100
AcDbSymbolTableRecord
100
AcDbLayerTableRecord
  2
NOTE
 70
0
 62
7
  6
CONTINUOUS
370
-3
390
F
  0
LAYER
  5
209
100
AcDbSymbolTableRecord
100
AcDbLayerTableRecord
  2
PIANI
 70
0
 62
7
  6
CONTINUOUS
370
-3
390
F
  0
LAYER
  5
20A
100
AcDbSymbolTableRecord
100
AcDbLayerTableRecord
  2
PIANI_DI_RIFERIMENTO
 70
0
 62
7
  6
CONTINUOUS
370
-3
390
F
  0
LAYER
  5
20B
100
AcDbSymbolTableRecord
100
AcDbLayerTableRecord
  2
PIANI_ORIGINE
 70
0
 62
7
  6
CONTINUOUS
370
-3
390
F
  0
LAYER
  5
20C
100
AcDbSymbolTableRecord
100
AcDbLayerTableRecord
  2
PUNTI
 70
0
 62
7
  6
CONTINUOUS
370
-3
390
F
  0
LAYER
  5
20D
100
AcDbSymbolTableRecord
100
AcDbLayerTableRecord
  2
RACCORDO
 70
0
 62
7
  6
CONTINUOUS
370
-3
390
F
  0
LAYER
  5
20E
100
AcDbSymbolTableRecord
100
AcDbLayerTableRecord
  2
RGB____0____0____0__
 70
0
 62
7
  6
CONTINUOUS
370
-3
390
F
  0
LAYER
  5
20F
100
AcDbSymbolTableRecord
100
AcDbLayerTableRecord
  2
SIMBOLI
 70
0
 62
7
  6
CONTINUOUS
370
-3
390
F
  0
LAYER
  5
210
100
AcDbSymbolTableRecord
100
AcDbLayerTableRecord
  2
SNAPLINE
 70
0
 62
7
  6
CONTINUOUS
370
-3
390
F
  0
LAYER
  5
211
100
AcDbSymbolTableRecord
100
AcDbLayerTableRecord
  2
SUPERFICI
 70
0
 62
7
  6
CONTINUOUS
370
-3
390
F
  0
LAYER
  5
212
100
AcDbSymbolTableRecord
100
AcDbLayerTableRecord
  2
TRASH
 70
0
 62
7
  6
CONTINUOUS
370
-3
390
F
  0
LAYER
  5
213
100
AcDbSymbolTableRecord
100
AcDbLayerTableRecord
  2
XSEC_DATUMS
 70
0
 62
7
  6
CONTINUOUS
370
-3
390
F
  0
ENDTAB
  0
TABLE
  2
STYLE
  5
3
100
AcDbSymbolTable
 70
1
  0
STYLE
  5
11
100
AcDbSymbolTableRecord
100
AcDbTextStyleTableRecord
  2
STANDARD
 70
0
 40
0.0
 41
0.8
 50
0.0
 71
0
 42
0.2
  3
txt
  4

  0
STYLE
  5
214
100
AcDbSymbolTableRecord
100
AcDbTextStyleTableRecord
  2
TEXTSTYLE_1
 70
0
 40
0.0
 41
0.8
 50
0.0
 71
0
 42
0.2
  3
gdt
  4

  0
ENDTAB
  0
TABLE
  2
VIEW
  5
6
100
AcDbSymbolTable
 70
0
  0
ENDTAB
  0
TABLE
  2
UCS
  5
7
100
AcDbSymbolTable
 70
0
  0
ENDTAB
  0
TABLE
  2
APPID
  5
9
100
AcDbSymbolTable
 70
1
  0
APPID
  5
215
100
AcDbSymbolTableRecord
100
AcDbRegAppTableRecord
  2
ACAD
 70
0
  0
ENDTAB
  0
TABLE
  2
BLOCK_RECORD
  5
1
100
AcDbSymbolTable
 70
0
  0
BLOCK_RECORD
  5
216
100
AcDbSymbolTableRecord
100
AcDbBlockTableRecord
  2
*Model_Space
  0
BLOCK_RECORD
  5
217
100
AcDbSymbolTableRecord
100
AcDbBlockTableRecord
  2
*Paper_Space
  0
BLOCK_RECORD
  5
218
100
AcDbSymbolTableRecord
100
AcDbBlockTableRecord
  2
_FILLED
  0
ENDTAB
  0
TABLE
  2
DIMSTYLE
  5
A
100
AcDbSymbolTable
 70
1
100
AcDbDimStyleTable
 71
0
  0
DIMSTYLE
105
219
100
AcDbSymbolTableRecord
100
AcDbDimStyleTableRecord
  2
STANDARD
 70
0
  3

  4

 40
1.0
 41
3.0
 42
0.5
 43
0.38
 44
1.5
 45
0.0
 46
0.0
 47
0.01
 48
0.01
140
3.0
141
0.09
142
0.0
143
25.4
144
1.0
145
0.0
146
1.0
147
0.625
 71
1
 72
0
 73
0
 74
0
 75
0
 76
0
 77
1
 78
8
 79
2
170
0
171
1
172
0
173
0
174
0
175
0
176
0
177
0
178
0
270
2
179
2
271
2
272
2
273
2
274
2
275
0
280
0
281
0
282
0
283
1
284
8
285
0
286
0
287
3
288
0
340
11
278
44
341
218
342
218
343
218
344
218
  0
ENDTAB
  0
ENDSEC
  0
SECTION
  2
BLOCKS
  0
BLOCK
  5
20
100
AcDbEntity
  8
0
100
AcDbBlockBegin
  2
*Model_Space
 70
0
 10
0.0
 20
0.0
 30
0.0
  3
*Model_Space
  1

  0
ENDBLK
  5
21
100
AcDbEntity
  8
0
100
AcDbBlockEnd
  0
BLOCK
  5
1C
100
AcDbEntity
  8
0
100
AcDbBlockBegin
  2
*Paper_Space
 70
0
 10
0.0
 20
0.0
 30
0.0
  3
*Paper_Space
  1

  0
ENDBLK
  5
1D
100
AcDbEntity
  8
0
100
AcDbBlockEnd
  0
BLOCK
  5
21A
100
AcDbEntity
  8
0
100
AcDbBlockBegin
  2
_FILLED
 70
64
 10
0.0
 20
0.0
  3
_FILLED
  1

  0
SOLID
  5
21B
100
AcDbEntity
  8
0
  6
BYBLOCK
 62
0
100
AcDbTrace
 10
0.0
 20
0.0
 11
-1.0
 21
0.3166666667
 12
-1.0
 22
-0.3166666667
 13
-1.0
 23
-0.3166666667
  0
ENDBLK
  5
21C
100
AcDbEntity
  8
0
  6
BYBLOCK
 62
0
100
AcDbBlockEnd
  0
ENDSEC
  0
SECTION
  2
ENTITIES
  0
LWPOLYLINE
  5
21D
100
AcDbEntity
  8
0
100
AcDbPolyline
 62
7
  6
CONTINUOUS
 90
31
 70
0
 10
-31.0997954646
 20
28.9755431341
 10
-31.1503819435
 20
28.9198566602
 10
-31.2390252549
 20
28.819177227
 10
-31.325755684
 20
28.716626748
 10
-31.4105313197
 20
28.6122458451
 10
-31.4933102902
 20
28.5060773776
 10
-31.5740772768
 20
28.3981306369
 10
-31.6527918745
 20
28.2884487533
 10
-31.7294153834
 20
28.1770757784
 10
-31.8039337107
 20
28.0640201767
 10
-31.8763084672
 20
27.9493261226
 10
-31.9465030788
 20
27.8330392663
 10
-32.0145042682
 20
27.7151674604
 10
-32.0802764322
 20
27.5957554454
 10
-32.1437844646
 20
27.4748504049
 10
-32.2050145659
 20
27.3524612893
 10
-32.2639333401
 20
27.2286346811
 10
-32.3205084238
 20
27.1034178267
 10
-32.3747262726
 20
26.9768178013
 10
-32.4265566618
 20
26.8488799272
 10
-32.4759688543
 20
26.7196536957
 10
-32.5229473391
 20
26.5891493829
 10
-32.5674642112
 20
26.4574122236
 10
-32.6094911101
 20
26.3244927621
 10
-32.6490109208
 20
26.1904061488
 10
-32.6859972875
 20
26.0551987986
 10
-32.7204253594
 20
25.9189175611
 10
-32.7522789415
 20
25.7815738695
 10
-32.7815356806
 20
25.6432023099
 10
-32.8081690168
 20
25.5038657414
 10
-32.8288651335
 20
25.3838695629
  0
LWPOLYLINE
  5
21E
100
AcDbEntity
  8
0
100
AcDbPolyline
 62
250
  6
CONTINUOUS
 90
52
 70
0
 10
-31.0997676613
 20
28.9755735759
 10
-31.0764197946
 20
29.0007546049
 10
-31.0041171175
 20
29.0758751159
 10
-30.9298702616
 20
29.1487906706
 10
-30.8537069811
 20
29.2194742503
 10
-30.7756557462
 20
29.2878997154
 10
-30.6957479813
 20
29.3540393481
 10
-30.6140136792
 20
29.4178686581
 10
-30.5304834198
 20
29.4793641456
 10
-30.4451905772
 20
29.5385008575
 10
-30.3581671857
 20
29.5952569765
 10
-30.2694459083
 20
29.6496116439
 10
-30.1790620749
 20
29.7015426598
 10
-30.0870497494
 20
29.751030898
 10
-29.9934434768
 20
29.7980582817
 10
-29.8982802602
 20
29.8426055293
 10
-29.8015959561
 20
29.8846563215
 10
-29.7034269778
 20
29.9241953519
 10
-29.6038120536
 20
29.9612062294
 10
-29.5027888508
 20
29.9956754469
 10
-29.4003953974
 20
30.02759059
 10
-29.2966717876
 20
30.0569382999
 10
-29.1916572168
 20
30.0837079651
 10
-29.0853913357
 20
30.1078900394
 10
-28.9779156768
 20
30.1294741701
 10
-28.8692709809
 20
30.148452647
 10
-28.7594982454
 20
30.1648188735
 10
-28.648640074
 20
30.1785655845
 10
-28.5367384444
 20
30.189688013
 10
-28.4238357179
 20
30.1981824907
 10
-28.3099756897
 20
30.2040448273
 10
-28.1952016215
 20
30.2072732085
 10
-28.0795569161
 20
30.2078669401
 10
-27.9630861225
 20
30.205824942
 10
-27.8458334991
 20
30.201148353
 10
-27.7278434731
 20
30.1938394337
 10
-27.609161311
 20
30.1839002055
 10
-27.4898322017
 20
30.1713347626
 10
-27.3699013636
 20
30.1561483065
 10
-27.2494144941
 20
30.1383459201
 10
-27.1284173369
 20
30.1179345848
 10
-27.0069559662
 20
30.0949224495
 10
-26.8850768887
 20
30.069317754
 10
-26.7628264702
 20
30.0411304176
 10
-26.6402512761
 20
30.0103714943
 10
-26.5173983556
 20
29.9770523559
 10
-26.3943148481
 20
29.9411859073
 10
-26.271047344
 20
29.9027860297
 10
-26.1476422273
 20
29.8618669382
 10
-26.0241463635
 20
29.8184441468
 10
-25.9006070831
 20
29.7725345225
 10
-25.7770715448
 20
29.7241556742
  0
LWPOLYLINE
  5
21F
100
AcDbEntity
  8
0
100
AcDbPolyline
 62
250
  6
CONTINUOUS
 90
64
 70
0
 10
-25.7770715448
 20
29.7241556742
 10
-25.8450351574
 20
29.6572160355
 10
-25.9128116881
 20
29.5883272905
 10
-25.9803692557
 20
29.5175218435
 10
-26.0476760817
 20
29.4448330009
 10
-26.1147005056
 20
29.3702949546
 10
-26.181411
 20
29.2939427666
 10
-26.2477761848
 20
29.2158123522
 10
-26.3137648426
 20
29.1359404632
 10
-26.3793459329
 20
29.0543646705
 10
-26.4444886071
 20
28.9711233464
 10
-26.5091622226
 20
28.886255647
 10
-26.5733363578
 20
28.799801493
 10
-26.6369808257
 20
28.7118015516
 10
-26.7000656887
 20
28.6222972172
 10
-26.7625612722
 20
28.5313305916
 10
-26.824438179
 20
28.4389444646
 10
-26.8856673027
 20
28.3451822937
 10
-26.946219842
 20
28.2500881837
 10
-27.0060673133
 20
28.1537068659
 10
-27.0651815652
 20
28.0560836771
 10
-27.1235347908
 20
27.9572645382
 10
-27.1810995414
 20
27.8572959327
 10
-27.2378487391
 20
27.7562248849
 10
-27.2937556898
 20
27.6540989376
 10
-27.3487940952
 20
27.5509661298
 10
-27.4029380659
 20
27.446874974
 10
-27.4561621332
 20
27.3418744337
 10
-27.5084412609
 20
27.2360139001
 10
-27.5597508576
 20
27.129343169
 10
-27.6100667876
 20
27.0219124171
 10
-27.6593653829
 20
26.9137721787
 10
-27.707623454
 20
26.804973322
 10
-27.7548183007
 20
26.6955670249
 10
-27.800927723
 20
26.5856047508
 10
-27.8459300316
 20
26.475138225
 10
-27.8898040578
 20
26.3642194098
 10
-27.9325291637
 20
26.2529004803
 10
-27.9740852519
 20
26.1412337998
 10
-28.0144527748
 20
26.0292718951
 10
-28.053612744
 20
25.917067432
 10
-28.0915467389
 20
25.8046731903
 10
-28.1282369158
 20
25.6921420391
 10
-28.1636660161
 20
25.579526912
 10
-28.1978173742
 20
25.4668807819
 10
-28.2306749257
 20
25.3542566365
 10
-28.2622232148
 20
25.241707453
 10
-28.2924474013
 20
25.1292861733
 10
-28.3213332683
 20
25.0170456794
 10
-28.348867228
 20
24.905038768
 10
-28.3750363288
 20
24.793318126
 10
-28.399828261
 20
24.6819363056
 10
-28.4232313628
 20
24.5709456998
 10
-28.4452346255
 20
24.4603985174
 10
-28.465827699
 20
24.3503467587
 10
-28.4850008965
 20
24.2408421908
 10
-28.5027451993
 20
24.1319363237
 10
-28.5190522605
 20
24.0236803855
 10
-28.5339144094
 20
23.9161252988
 10
-28.5473246552
 20
23.8093216563
 10
-28.5592766896
 20
23.7033196974
 10
-28.5697648907
 20
23.5981692843
 10
-28.5787843248
 20
23.4939198788
 10
-28.5863307493
 20
23.3906205187
  0
LINE
  5
220
100
AcDbEntity
  8
0
100
AcDbLine
 62
250
  6
CONTINUOUS
 10
-24.420583051
 20
31.0389408939
 11
-25.7770715448
 21
29.7241556742
  0
LWPOLYLINE
  5
221
100
AcDbEntity
  8
0
100
AcDbPolyline
 62
250
  6
CONTINUOUS
 90
49
 70
0
 10
-32.8288665598
 20
25.3838608611
 10
-32.8334370193
 20
25.3543325556
 10
-32.841779483
 20
25.2877816753
 10
-32.8474733321
 20
25.2208444678
 10
-32.8505157946
 20
25.1535535205
 10
-32.8509053893
 20
25.0859415928
 10
-32.8486419265
 20
25.0180416006
 10
-32.8437265081
 20
24.9498866
 10
-32.8361615273
 20
24.881509771
 10
-32.8259506668
 20
24.8129444018
 10
-32.8130988976
 20
24.7442238725
 10
-32.7976124765
 20
24.6753816385
 10
-32.7794989427
 20
24.6064512145
 10
-32.7587671145
 20
24.5374661583
 10
-32.7354270849
 20
24.4684600541
 10
-32.7094902167
 20
24.3994664965
 10
-32.6809691367
 20
24.3305190738
 10
-32.64987773
 20
24.261651352
 10
-32.6162311329
 20
24.1928968584
 10
-32.5800457259
 20
24.1242890648
 10
-32.5413391251
 20
24.055861372
 10
-32.5001301742
 20
23.9876470928
 10
-32.4564389353
 20
23.9196794363
 10
-32.4102866786
 20
23.8519914915
 10
-32.3616958726
 20
23.7846162112
 10
-32.3106901731
 20
23.7175863959
 10
-32.2572944113
 20
23.6509346781
 10
-32.2015345821
 20
23.5846935061
 10
-32.1434378313
 20
23.5188951284
 10
-32.0830324424
 20
23.4535715778
 10
-32.0203478228
 20
23.388754656
 10
-31.9554144895
 20
23.3244759183
 10
-31.8882640542
 20
23.2607666576
 10
-31.8189292081
 20
23.1976578898
 10
-31.7474437058
 20
23.1351803384
 10
-31.6738423487
 20
23.0733644195
 10
-31.5981609687
 20
23.0122402274
 10
-31.5204364099
 20
22.9518375193
 10
-31.4407065114
 20
22.8921857014
 10
-31.3590100883
 20
22.8333138141
 10
-31.2753869133
 20
22.7752505184
 10
-31.1898776969
 20
22.7180240814
 10
-31.102524068
 20
22.6616623628
 10
-31.0133685534
 20
22.6061928016
 10
-30.9224545569
 20
22.5516424021
 10
-30.8298263386
 20
22.4980377215
 10
-30.735528993
 20
22.4454048561
 10
-30.6396084274
 20
22.3937694297
 10
-30.5421113391
 20
22.3431565799
  0
LWPOLYLINE
  5
222
100
AcDbEntity
  8
0
100
AcDbPolyline
 62
7
  6
CONTINUOUS
 90
49
 70
0
 10
-32.8288665653
 20
25.383860862
 10
-33.0118535184
 20
24.2440548225
 10
-33.1889598609
 20
23.0923051563
 10
-33.3581709493
 20
21.9409255608
 10
-33.5194806742
 20
20.789983829
 10
-33.6728919341
 20
19.6394945203
 10
-33.818413904
 20
18.4894210227
 10
-33.9560452525
 20
17.3398005558
 10
-34.0857855165
 20
16.1906719317
 10
-34.2076425037
 20
15.0420011349
 10
-34.3216151477
 20
13.8938265982
 10
-34.4277031386
 20
12.7461879875
 10
-34.5259132002
 20
11.5990530222
 10
-34.6162448407
 20
10.4524606538
 10
-34.6986982167
 20
9.3064493567
 10
-34.7732791487
 20
8.1609862493
 10
-34.8399876941
 20
7.0161110445
 10
-34.8988244015
 20
5.8718615952
 10
-34.9497941855
 20
4.7282023279
 10
-34.9928972162
 20
3.5851865091
 10
-35.0281350664
 20
2.4428382861
 10
-35.0555123419
 20
1.3010785795
 10
-35.0750292773
 20
0.1599528539
 10
-35.0866864854
 20
-0.9805069112
 10
-35.0904855153
 20
-2.1203997331
 10
-35.0864257976
 20
-3.259704926
 10
-35.0745068304
 20
-4.3983655909
 10
-35.0547273891
 20
-5.5364261547
 10
-35.027087231
 20
-6.6738524028
 10
-34.9915863955
 20
-7.8106010282
 10
-34.9482225874
 20
-8.9467026536
 10
-34.896996248
 20
-10.0821186352
 10
-34.8379080095
 20
-11.2168102722
 10
-34.7709545626
 20
-12.3508079504
 10
-34.6961368344
 20
-13.484073299
 10
-34.6134561336
 20
-14.6165674897
 10
-34.5229082753
 20
-15.7483200349
 10
-34.4244946512
 20
-16.8792922077
 10
-34.3182171813
 20
-18.0094459672
 10
-34.2040707355
 20
-19.1388116474
 10
-34.0820571275
 20
-20.2673502771
 10
-33.9521789566
 20
-21.395023685
 10
-33.8144301811
 20
-22.5218629138
 10
-33.6688127978
 20
-23.6478300298
 10
-33.5153297417
 20
-24.7728881348
 10
-33.353973868
 20
-25.8970696176
 10
-33.1847441006
 20
-27.0203588475
 10
-33.0076480378
 20
-28.1426906696
 10
-32.8248890585
 20
-29.2509725544
  0
LWPOLYLINE
  5
223
100
AcDbEntity
  8
0
100
AcDbPolyline
 62
250
  6
CONTINUOUS
 90
55
 70
0
 10
-30.5421113392
 20
22.3431565799
 10
-30.5329110033
 20
22.3951816559
 10
-30.5223359261
 20
22.4463907486
 10
-30.5103862025
 20
22.4967837914
 10
-30.4970475458
 20
22.5464065489
 10
-30.482334419
 20
22.5952131325
 10
-30.4662900943
 20
22.6430659606
 10
-30.4489133367
 20
22.6899528154
 10
-30.4302056741
 20
22.7358857114
 10
-30.4102146151
 20
22.7807633536
 10
-30.3889363157
 20
22.8245845917
 10
-30.3663749817
 20
22.8673503262
 10
-30.3425902737
 20
22.9089622843
 10
-30.317579918
 20
22.9494160435
 10
-30.2913466164
 20
22.988715732
 10
-30.2639575626
 20
23.0267758555
 10
-30.2354103706
 20
23.0635928366
 10
-30.2057079045
 20
23.0991699248
 10
-30.1749252951
 20
23.1334318249
 10
-30.143059631
 20
23.1663754033
 10
-30.1101143379
 20
23.1980034415
 10
-30.0761741035
 20
23.2282494824
 10
-30.0412397257
 20
23.25710783
 10
-30.005310945
 20
23.2845838126
 10
-29.968470904
 20
23.3106274813
 10
-29.9307162949
 20
23.3352367178
 10
-29.8920509665
 20
23.3584132716
 10
-29.8525688271
 20
23.3801129746
 10
-29.8122693017
 20
23.4003316735
 10
-29.7711534998
 20
23.4190731578
 10
-29.7293178791
 20
23.4363051573
 10
-29.6867629996
 20
23.4520237731
 10
-29.6434888138
 20
23.4662325558
 10
-29.5995908814
 20
23.4789104009
 10
-29.5550669273
 20
23.4900544177
 10
-29.5099197031
 20
23.4996671734
 10
-29.4642523139
 20
23.5077357467
 10
-29.4180657059
 20
23.5142565725
 10
-29.3713593639
 20
23.5192329235
 10
-29.3242342007
 20
23.5226621354
 10
-29.2766900307
 20
23.5245412354
 10
-29.2287274136
 20
23.5248729425
 10
-29.1804483727
 20
23.5236631354
 10
-29.1318520369
 20
23.5209087973
 10
-29.0829395867
 20
23.5166127353
 10
-29.0338161105
 20
23.510789572
 10
-28.9844842003
 20
23.5034370747
 10
-28.9349415021
 20
23.494557315
 10
-28.8852856704
 20
23.484171382
 10
-28.8355064723
 20
23.4722731324
 10
-28.7856143019
 20
23.4588686004
 10
-28.7357377349
 20
23.4439971528
 10
-28.6859196572
 20
23.4276718936
 10
-28.6361172645
 20
23.4098796637
 10
-28.5863305769
 20
23.3906204494
  0
LWPOLYLINE
  5
224
100
AcDbEntity
  8
0
100
AcDbPolyline
 62
250
  6
CONTINUOUS
 90
40
 70
0
 10
-32.8248872415
 20
-29.2509833413
 10
-32.8130989025
 20
-29.3143093127
 10
-32.7976124812
 20
-29.3835399089
 10
-32.7794989474
 20
-29.4522612123
 10
-32.7587671191
 20
-29.520439767
 10
-32.7354270894
 20
-29.5880423814
 10
-32.7094902211
 20
-29.6550361442
 10
-32.680969141
 20
-29.7213884406
 10
-32.6498777342
 20
-29.7870669681
 10
-32.616231137
 20
-29.852039752
 10
-32.5800457299
 20
-29.9162751614
 10
-32.5413391289
 20
-29.9797419243
 10
-32.500130178
 20
-30.0424091429
 10
-32.4564389389
 20
-30.1042463087
 10
-32.4102866821
 20
-30.1652233173
 10
-32.361695876
 20
-30.2253104829
 10
-32.3106901763
 20
-30.2844785531
 10
-32.2572944144
 20
-30.3426987229
 10
-32.2015345851
 20
-30.3999426486
 10
-32.1434378342
 20
-30.456182462
 10
-32.0830324451
 20
-30.5113907836
 10
-32.0203478253
 20
-30.5655407361
 10
-31.9554144919
 20
-30.6186059575
 10
-31.8882640565
 20
-30.6705606139
 10
-31.8189292102
 20
-30.7213794118
 10
-31.7474437077
 20
-30.7710376111
 10
-31.6738423506
 20
-30.8195110363
 10
-31.5981609704
 20
-30.866776089
 10
-31.5204364114
 20
-30.912809759
 10
-31.4407065127
 20
-30.9575896354
 10
-31.3590100895
 20
-31.0010939179
 10
-31.2753869143
 20
-31.0433014272
 10
-31.1898776978
 20
-31.0841916151
 10
-31.1025240688
 20
-31.123744575
 10
-31.013368554
 20
-31.1619410511
 10
-30.9224545573
 20
-31.198762448
 10
-30.8298263388
 20
-31.2341908399
 10
-30.7355289931
 20
-31.268208979
 10
-30.6396084274
 20
-31.3008003041
 10
-30.5421113389
 20
-31.3319489486
  0
LWPOLYLINE
  5
225
100
AcDbEntity
  8
0
100
AcDbPolyline
 62
7
  6
CONTINUOUS
 90
58
 70
0
 10
-32.8248872358
 20
-29.2509833403
 10
-32.8022687039
 20
-29.3785194109
 10
-32.7738368034
 20
-29.5232891943
 10
-32.7424339052
 20
-29.6681886283
 10
-32.7080313259
 20
-29.8132453815
 10
-32.6706303881
 20
-29.9583581677
 10
-32.6302726664
 20
-30.1033020065
 10
-32.5869527844
 20
-30.2480549604
 10
-32.5406659748
 20
-30.3925885892
 10
-32.491472732
 20
-30.5366847519
 10
-32.4393686441
 20
-30.6803422439
 10
-32.3843568557
 20
-30.8235303799
 10
-32.3265296797
 20
-30.9660038093
 10
-32.265887928
 20
-31.1077661808
 10
-32.2024377313
 20
-31.2488007518
 10
-32.1363008822
 20
-31.3888484843
 10
-32.0674848712
 20
-31.5279134521
 10
-31.9959958083
 20
-31.6659967175
 10
-31.921972493
 20
-31.8028507411
 10
-31.8454281863
 20
-31.93848087
 10
-31.7663661231
 20
-32.0729016273
 10
-31.6849310787
 20
-32.2058928053
 10
-31.6011419594
 20
-32.3374557208
 10
-31.5149951082
 20
-32.4676188876
 10
-31.4266190979
 20
-32.5962132579
 10
-31.3360218267
 20
-32.7232534251
 10
-31.243203777
 20
-32.8487579986
 10
-31.1482939277
 20
-32.9725717163
 10
-31.051300567
 20
-33.0947059859
 10
-30.952216739
 20
-33.2151828102
 10
-30.8511621925
 20
-33.3338709722
 10
-30.7481466393
 20
-33.4507735029
 10
-30.6431534181
 20
-33.5659173545
 10
-30.5362694716
 20
-33.6792125161
 10
-30.4274886785
 20
-33.7906695908
 10
-30.3167987487
 20
-33.900298799
 10
-30.2042815602
 20
-34.0080147538
 10
-30.0899126755
 20
-34.1138349855
 10
-29.9736872794
 20
-34.2177512969
 10
-29.855722153
 20
-34.3196482781
 10
-29.7359820299
 20
-34.4195437118
 10
-29.6144673867
 20
-34.5174199491
 10
-29.4913549306
 20
-34.6131197584
 10
-29.3666276279
 20
-34.706645283
 10
-29.2402700007
 20
-34.7979905819
 10
-29.1124722426
 20
-34.8870046129
 10
-28.983222896
 20
-34.9736842609
 10
-28.8525056506
 20
-35.0580248249
 10
-28.7205139635
 20
-35.1398887273
 10
-28.5872488335
 20
-35.2192658072
 10
-28.452689518
 20
-35.296155033
 10
-28.3170072767
 20
-35.3704461401
 10
-28.1802007052
 20
-35.4421311752
 10
-28.0422621654
 20
-35.5112004021
 10
-27.9033632673
 20
-35.5775571872
 10
-27.7635626887
 20
-35.6411668554
 10
-27.6228066494
 20
-35.7020444783
 10
-27.4971048038
 20
-35.7537658638
  0
LWPOLYLINE
  5
226
100
AcDbEntity
  8
0
100
AcDbPolyline
 62
250
  6
CONTINUOUS
 90
46
 70
0
 10
-30.5421113392
 20
-31.3319489489
 10
-30.7336944622
 20
-30.1577450652
 10
-30.9165566711
 20
-28.9824834382
 10
-31.0906979449
 20
-27.8061849253
 10
-31.2561182515
 20
-26.6288633569
 10
-31.412817721
 20
-25.4505467035
 10
-31.5607968681
 20
-24.2712772805
 10
-31.7000531459
 20
-23.0911024913
 10
-31.8305901643
 20
-21.9100175284
 10
-31.9524174687
 20
-20.7279861843
 10
-32.0655371249
 20
-19.5450130963
 10
-32.1699472562
 20
-18.3611353416
 10
-32.2656510191
 20
-17.176364924
 10
-32.352648187
 20
-15.9907317987
 10
-32.430939546
 20
-14.8042479897
 10
-32.5005294812
 20
-13.616898334
 10
-32.5614186237
 20
-12.428700567
 10
-32.6136065735
 20
-11.2396785928
 10
-32.6570957147
 20
-10.0498260983
 10
-32.6918864034
 20
-8.8591621455
 10
-32.7179784169
 20
-7.6677091961
 10
-32.7353729344
 20
-6.4754657446
 10
-32.7440702864
 20
-5.282456476
 10
-32.7440702853
 20
-4.0886982191
 10
-32.7353729308
 20
-2.8941773492
 10
-32.7179784091
 20
-1.6989102267
 10
-32.6918863906
 20
-0.5029217704
 10
-32.6570956987
 20
0.6937891307
 10
-32.61360656
 20
1.8912003042
 10
-32.5614186161
 20
3.0892926161
 10
-32.5005294755
 20
4.2880719955
 10
-32.4309395305
 20
5.4875151772
 10
-32.3526481557
 20
6.6876041671
 10
-32.2656509795
 20
7.8883531417
 10
-32.1699472284
 20
9.0897507419
 10
-32.0655371193
 20
10.2917672622
 10
-31.9524174759
 20
11.4943895646
 10
-31.8305901594
 20
12.6975809748
 10
-31.7000531165
 20
13.9013367645
 10
-31.5607968237
 20
15.1056920452
 10
-31.4128176856
 20
16.3106530953
 10
-31.2561182369
 20
17.5161727803
 10
-31.0906979465
 20
18.7222062201
 10
-30.9165566778
 20
19.9287245221
 10
-30.7336944686
 20
21.135714939
 10
-30.5421113392
 20
22.3431565799
  0
LWPOLYLINE
  5
227
100
AcDbEntity
  8
RACCORDO
100
AcDbPolyline
 62
250
  6
CONTINUOUS
 90
43
 70
0
 10
-17.7322012782
 20
10.2421408068
 10
-17.7156232161
 20
10.2639328046
 10
-17.6982376717
 20
10.285324508
 10
-17.6800675155
 20
10.3062877766
 10
-17.6611366498
 20
10.3267950337
 10
-17.6414699778
 20
10.3468193023
 10
-17.6210933708
 20
10.3663342409
 10
-17.6000336338
 20
10.385314178
 10
-17.5783184704
 20
10.4037341458
 10
-17.5559764465
 20
10.4215699132
 10
-17.5330369526
 20
10.4387980177
 10
-17.5095301653
 20
10.455395796
 10
-17.4854870071
 20
10.4713414141
 10
-17.4609391066
 20
10.4866138958
 10
-17.4359187558
 20
10.5011931504
 10
-17.4104588687
 20
10.5150599993
 10
-17.3845929372
 20
10.5281962008
 10
-17.3583549874
 20
10.5405844746
 10
-17.331779535
 20
10.5522085242
 10
-17.3049015393
 20
10.5630530583
 10
-17.2777563578
 20
10.5731038111
 10
-17.2503796995
 20
10.5823475611
 10
-17.222807578
 20
10.5907721484
 10
-17.1950762637
 20
10.5983664905
 10
-17.1672222366
 20
10.6051205973
 10
-17.1392821383
 20
10.6110255838
 10
-17.1112927233
 20
10.6160736822
 10
-17.0832908112
 20
10.6202582518
 10
-17.055313238
 20
10.6235737879
 10
-17.0273968076
 20
10.6260159289
 10
-16.9995782436
 20
10.6275814623
 10
-16.9718941406
 20
10.6282683287
 10
-16.9443809167
 20
10.6280756245
 10
-16.9170747649
 20
10.6270036032
 10
-16.8900116059
 20
10.625053675
 10
-16.8632270408
 20
10.6222284051
 10
-16.8367563042
 20
10.6185315099
 10
-16.8106342177
 20
10.6139678528
 10
-16.7848951446
 20
10.6085434371
 10
-16.759572944
 20
10.6022653985
 10
-16.7347009268
 20
10.5951419957
 10
-16.7103118116
 20
10.5871825994
 10
-16.6864376819
 20
10.57839768
  0
LWPOLYLINE
  5
228
100
AcDbEntity
  8
RACCORDO
100
AcDbPolyline
 62
250
  6
CONTINUOUS
 90
28
 70
0
 10
-18.0291491168
 20
12.1723792633
 10
-18.0037346766
 20
12.1811728501
 10
-17.9780927526
 20
12.1894877426
 10
-17.9522526077
 20
12.1973144518
 10
-17.9262437312
 20
12.2046440458
 10
-17.9000958048
 20
12.2114681599
 10
-17.8738386688
 20
12.2177790063
 10
-17.8475022883
 20
12.2235693829
 10
-17.8211167187
 20
12.2288326818
 10
-17.7947120718
 20
12.2335628964
 10
-17.7683184807
 20
12.2377546285
 10
-17.7419660664
 20
12.2414030943
 10
-17.7156849025
 20
12.2445041303
 10
-17.6895049816
 20
12.2470541974
 10
-17.6634561805
 20
12.2490503855
 10
-17.6375682265
 20
12.2504904166
 10
-17.6118706634
 20
12.2513726472
 10
-17.5863928175
 20
12.2516960705
 10
-17.5611637646
 20
12.2514603174
 10
-17.5362122965
 20
12.2506656569
 10
-17.5115668881
 20
12.249312996
 10
-17.4872556652
 20
12.2474038783
 10
-17.463306372
 20
12.2449404826
 10
-17.4397463399
 20
12.24192562
 10
-17.4166024558
 20
12.2383627312
 10
-17.3939011321
 20
12.2342558822
 10
-17.3716682757
 20
12.2296097598
 10
-17.3499292592
 20
12.2244296663
  0
LWPOLYLINE
  5
229
100
AcDbEntity
  8
0
100
AcDbPolyline
 62
7
  6
CONTINUOUS
 90
46
 70
0
 10
31.0579852652
 20
-59.2708101282
 10
31.1917854741
 20
-59.3231580302
 10
31.3405551611
 20
-59.3781302578
 10
31.4896008552
 20
-59.429833456
 10
31.6389131922
 20
-59.4782854479
 10
31.7884411768
 20
-59.5234890986
 10
31.9380773824
 20
-59.5654321334
 10
32.0877767429
 20
-59.6041241515
 10
32.2375062461
 20
-59.6395766112
 10
32.3871601061
 20
-59.6717857319
 10
32.5366785398
 20
-59.7007619824
 10
32.6860293708
 20
-59.7265209886
 10
32.8351346192
 20
-59.7490720421
 10
32.9839398935
 20
-59.7684301305
 10
33.1323952583
 20
-59.784611298
 10
33.2804169156
 20
-59.7976307312
 10
33.4279297399
 20
-59.8075073906
 10
33.574894761
 20
-59.8142640708
 10
33.7212718517
 20
-59.8179244067
 10
33.8669680651
 20
-59.8185121727
 10
34.0119565395
 20
-59.816053411
 10
34.1562883754
 20
-59.810570184
 10
34.2999036589
 20
-59.8020847717
 10
34.4427400068
 20
-59.7906210032
 10
34.5848383323
 20
-59.7761935603
 10
34.7261479959
 20
-59.7588231246
 10
34.8665952969
 20
-59.7385346271
 10
35.0061807509
 20
-59.7153427504
 10
35.1448435526
 20
-59.6892717701
 10
35.2825191906
 20
-59.6603487922
 10
35.4191977692
 20
-59.6285896595
 10
35.5548163888
 20
-59.5940219244
 10
35.6893129026
 20
-59.556675916
 10
35.82267416
 20
-59.5165688215
 10
35.9548336998
 20
-59.4737332451
 10
36.0857346155
 20
-59.4282013469
 10
36.2153746255
 20
-59.3799869292
 10
36.3436850616
 20
-59.329127496
 10
36.4706140358
 20
-59.2756562808
 10
36.596180555
 20
-59.2195757391
 10
36.7203247792
 20
-59.160921649
 10
36.8429881899
 20
-59.0997315602
 10
36.9641877236
 20
-59.0360046266
 10
37.0838634985
 20
-58.969777791
 10
37.2019586192
 20
-58.9010895672
 10
38.7860121283
 20
-57.9412677835
  0
LINE
  5
22A
100
AcDbEntity
  8
0
100
AcDbLine
 62
7
  6
CONTINUOUS
 10
31.0579791348
 20
-59.270807673
 11
-27.4971042816
 21
-35.7537660795
  0
LWPOLYLINE
  5
22B
100
AcDbEntity
  8
0
100
AcDbPolyline
 62
250
  6
CONTINUOUS
 90
37
 70
0
 10
31.0579791348
 20
-59.270807673
 10
31.0466421554
 20
-59.2661879791
 10
30.9953325588
 20
-59.2435779699
 10
30.9450166288
 20
-59.2185800119
 10
30.8957180334
 20
-59.1912058638
 10
30.8474599624
 20
-59.1614684022
 10
30.8002651157
 20
-59.1293816153
 10
30.7541556933
 20
-59.0949605964
 10
30.7091533847
 20
-59.0582215368
 10
30.6652793585
 20
-59.0191817181
 10
30.6225542526
 20
-58.9778595044
 10
30.5809981644
 20
-58.934274333
 10
30.5406306415
 20
-58.8884467061
 10
30.5014706724
 20
-58.8403981806
 10
30.4635366775
 20
-58.7901513579
 10
30.4268465005
 20
-58.7377298736
 10
30.3914174003
 20
-58.6831583863
 10
30.3572660421
 20
-58.6264625658
 10
30.3244084906
 20
-58.5676690814
 10
30.2928602016
 20
-58.5068055888
 10
30.262636015
 20
-58.4439007176
 10
30.2337501481
 20
-58.3789840576
 10
30.2062161883
 20
-58.312086145
 10
30.1800470875
 20
-58.2432384478
 10
30.1552551553
 20
-58.1724733513
 10
30.1318520536
 20
-58.0998241428
 10
30.1098487909
 20
-58.0253249956
 10
30.0892557174
 20
-57.9490109534
 10
30.0700825198
 20
-57.8709179135
 10
30.0523382171
 20
-57.7910826101
 10
30.0360311559
 20
-57.709542597
 10
30.0211690069
 20
-57.6263362296
 10
30.0077587612
 20
-57.5415026475
 10
29.9958067267
 20
-57.4550817555
 10
29.9853185257
 20
-57.3671142052
 10
29.9762990916
 20
-57.2776413754
 10
29.9687526671
 20
-57.1867053535
  0
LWPOLYLINE
  5
22C
100
AcDbEntity
  8
0
100
AcDbPolyline
 62
250
  6
CONTINUOUS
 90
36
 70
0
 10
-27.5084412616
 20
-35.7491463853
 10
-27.5597508582
 20
-35.7265363761
 10
-27.6100667883
 20
-35.701538418
 10
-27.6593653836
 20
-35.67416427
 10
-27.7076234546
 20
-35.6444268084
 10
-27.7548183013
 20
-35.6123400214
 10
-27.8009277236
 20
-35.5779190025
 10
-27.8459300322
 20
-35.5411799429
 10
-27.8898040584
 20
-35.5021401242
 10
-27.9325291643
 20
-35.4608179104
 10
-27.9740852525
 20
-35.417232739
 10
-28.0144527754
 20
-35.3714051121
 10
-28.0536127445
 20
-35.3233565865
 10
-28.0915467394
 20
-35.2731097638
 10
-28.1282369163
 20
-35.2206882795
 10
-28.1636660165
 20
-35.1661167922
 10
-28.1978173746
 20
-35.1094209717
 10
-28.2306749261
 20
-35.0506274873
 10
-28.2622232151
 20
-34.9897639946
 10
-28.2924474017
 20
-34.9268591234
 10
-28.3213332686
 20
-34.8619424635
 10
-28.3488672283
 20
-34.7950445509
 10
-28.3750363291
 20
-34.7261968537
 10
-28.3998282613
 20
-34.6554317573
 10
-28.423231363
 20
-34.5827825488
 10
-28.4452346256
 20
-34.5082834016
 10
-28.4658276991
 20
-34.4319693594
 10
-28.4850008967
 20
-34.3538763195
 10
-28.5027451994
 20
-34.2740410162
 10
-28.5190522606
 20
-34.1925010031
 10
-28.5339144095
 20
-34.1092946358
 10
-28.5473246552
 20
-34.0244610538
 10
-28.5592766897
 20
-33.9380401619
 10
-28.5697648907
 20
-33.8500726115
 10
-28.5787843248
 20
-33.7605997819
 10
-28.5863307493
 20
-33.66966376
  0
LWPOLYLINE
  5
22D
100
AcDbEntity
  8
RACCORDO
100
AcDbPolyline
 62
250
  6
CONTINUOUS
 90
27
 70
0
 10
-17.1467661357
 20
9.3885489108
 10
-17.1330973789
 20
9.4116558895
 10
-17.1187160977
 20
9.4344096229
 10
-17.1036388981
 20
9.4567838431
 10
-17.0878830343
 20
9.4787525815
 10
-17.0714668541
 20
9.5002906137
 10
-17.0544097771
 20
9.5213734868
 10
-17.0367316516
 20
9.5419769963
 10
-17.0184527325
 20
9.5620772135
 10
-16.9995941229
 20
9.5816509261
 10
-16.9801775979
 20
9.6006755348
 10
-16.9602255739
 20
9.6191290723
 10
-16.9397610808
 20
9.6369902255
 10
-16.9188077466
 20
9.6542383713
 10
-16.8973897637
 20
9.6708535947
 10
-16.8755318555
 20
9.6868167061
 10
-16.8532592556
 20
9.7021092708
 10
-16.8305976829
 20
9.7167136351
 10
-16.8075733068
 20
9.7306129408
 10
-16.7842127141
 20
9.743791143
 10
-16.7605428736
 20
9.7562330225
 10
-16.7365911092
 20
9.7679242083
 10
-16.712385077
 20
9.7788512034
 10
-16.6879527237
 20
9.7890013897
 10
-16.6633222491
 20
9.7983630378
 10
-16.638522089
 20
9.8069253362
 10
-16.6135808801
 20
9.8146784015
  0
LINE
  5
22E
100
AcDbEntity
  8
RACCORDO
100
AcDbLine
 62
250
  6
CONTINUOUS
 10
-16.6431773172
 20
9.6215395407
 11
-16.5636173454
 21
9.6957269778
  0
LINE
  5
22F
100
AcDbEntity
  8
RACCORDO
100
AcDbLine
 62
250
  6
CONTINUOUS
 10
-16.5636173454
 20
9.6957269778
 11
-16.5459435499
 21
9.7120510347
  0
LINE
  5
230
100
AcDbEntity
  8
RACCORDO
100
AcDbLine
 62
250
  6
CONTINUOUS
 10
-16.662382236
 20
9.6038283035
 11
-16.6431773172
 21
9.6215395407
  0
LINE
  5
231
100
AcDbEntity
  8
RACCORDO
100
AcDbLine
 62
250
  6
CONTINUOUS
 10
-16.6759715523
 20
9.5914088185
 11
-16.662382236
 21
9.6038283035
  0
LINE
  5
232
100
AcDbEntity
  8
RACCORDO
100
AcDbLine
 62
250
  6
CONTINUOUS
 10
-16.5459435499
 20
9.7120510347
 11
-16.5334497951
 21
9.723472117
  0
LINE
  5
233
100
AcDbEntity
  8
RACCORDO
100
AcDbLine
 62
250
  6
CONTINUOUS
 10
-16.6902449238
 20
9.5784934919
 11
-16.6759715523
 21
9.5914088185
  0
LINE
  5
234
100
AcDbEntity
  8
RACCORDO
100
AcDbLine
 62
250
  6
CONTINUOUS
 10
-16.5334497951
 20
9.723472117
 11
-16.5215479536
 21
9.7342304101
  0
LINE
  5
235
100
AcDbEntity
  8
RACCORDO
100
AcDbLine
 62
250
  6
CONTINUOUS
 10
-16.5215479536
 20
9.7342304101
 11
-16.5139224499
 21
9.7410481534
  0
LINE
  5
236
100
AcDbEntity
  8
RACCORDO
100
AcDbLine
 62
250
  6
CONTINUOUS
 10
-16.705297822
 20
9.5650284811
 11
-16.6902449238
 21
9.5784934919
  0
LINE
  5
237
100
AcDbEntity
  8
RACCORDO
100
AcDbLine
 62
250
  6
CONTINUOUS
 10
-16.5139224499
 20
9.7410481534
 11
-16.5065287198
 21
9.7475939805
  0
LINE
  5
238
100
AcDbEntity
  8
RACCORDO
100
AcDbLine
 62
250
  6
CONTINUOUS
 10
-16.5065287198
 20
9.7475939805
 11
-16.4993521579
 21
9.7538797035
  0
LINE
  5
239
100
AcDbEntity
  8
RACCORDO
100
AcDbLine
 62
250
  6
CONTINUOUS
 10
-16.4993521579
 20
9.7538797035
 11
-16.4923836392
 21
9.7599127529
  0
LINE
  5
23A
100
AcDbEntity
  8
RACCORDO
100
AcDbLine
 62
250
  6
CONTINUOUS
 10
-16.4923836392
 20
9.7599127529
 11
-16.485610273
 21
9.7657037928
  0
LINE
  5
23B
100
AcDbEntity
  8
RACCORDO
100
AcDbLine
 62
250
  6
CONTINUOUS
 10
-16.485610273
 20
9.7657037928
 11
-16.4790197113
 21
9.7712634017
  0
LINE
  5
23C
100
AcDbEntity
  8
RACCORDO
100
AcDbLine
 62
250
  6
CONTINUOUS
 10
-16.4790197113
 20
9.7712634017
 11
-16.472604021
 21
9.7765984028
  0
LINE
  5
23D
100
AcDbEntity
  8
RACCORDO
100
AcDbLine
 62
250
  6
CONTINUOUS
 10
-16.472604021
 20
9.7765984028
 11
-16.4663514616
 21
9.7817189695
  0
LINE
  5
23E
100
AcDbEntity
  8
RACCORDO
100
AcDbLine
 62
250
  6
CONTINUOUS
 10
-16.4663514616
 20
9.7817189695
 11
-16.4602527787
 21
9.7866333388
  0
LWPOLYLINE
  5
23F
100
AcDbEntity
  8
RACCORDO
100
AcDbPolyline
 62
250
  6
CONTINUOUS
 90
16
 70
0
 10
-16.4602527787
 20
9.7866333388
 10
-16.4543018951
 20
9.7913469425
 10
-16.4513786393
 20
9.7936313834
 10
-16.4484901928
 20
9.7958675674
 10
-16.4456337512
 20
9.7980580263
 10
-16.4428092595
 20
9.8002028134
 10
-16.4400167728
 20
9.8023018754
 10
-16.4372536521
 20
9.8043575842
 10
-16.4345198275
 20
9.8063700095
 10
-16.4318153689
 20
9.8083390816
 10
-16.4291378473
 20
9.8102669637
 10
-16.4264872037
 20
9.8121537186
 10
-16.4238634971
 20
9.8139992835
 10
-16.421264475
 20
9.8158056323
 10
-16.4186893867
 20
9.8175734231
 10
-16.4161389831
 20
9.8193019977
  0
LINE
  5
240
100
AcDbEntity
  8
RACCORDO
100
AcDbLine
 62
250
  6
CONTINUOUS
 10
-16.4161389831
 20
9.8193019977
 11
-16.3973675919
 21
9.8317867702
  0
LWPOLYLINE
  5
241
100
AcDbEntity
  8
RACCORDO
100
AcDbPolyline
 62
7
  6
CONTINUOUS
 90
26
 70
0
 10
-16.5826120914
 20
9.7989357703
 10
-16.5822742472
 20
9.7990981284
 10
-16.5814320143
 20
9.7994907483
 10
-16.5800988315
 20
9.8000915933
 10
-16.57829797
 20
9.800875054
 10
-16.5760542539
 20
9.8018160818
 10
-16.573369629
 20
9.8028999663
 10
-16.5702233233
 20
9.8041205802
 10
-16.5666266287
 20
9.8054586134
 10
-16.5625732523
 20
9.8069013067
 10
-16.557993188
 20
9.8084563682
 10
-16.5528644763
 20
9.8101114944
 10
-16.5471903878
 20
9.8118450094
 10
-16.5409252295
 20
9.8136486432
 10
-16.5340403767
 20
9.8155059678
 10
-16.5265458419
 20
9.8173885938
 10
-16.5184589616
 20
9.8192665756
 10
-16.509776732
 20
9.821114803
 10
-16.5005035533
 20
9.8229060265
 10
-16.4906804218
 20
9.8246067224
 10
-16.4803204671
 20
9.8261898731
 10
-16.4694302639
 20
9.8276296968
 10
-16.4580496512
 20
9.8288969455
 10
-16.4461972564
 20
9.8299665952
 10
-16.4338857786
 20
9.830814707
 10
-16.42115031
 20
9.8314168597
  0
LINE
  5
242
100
AcDbEntity
  8
0
100
AcDbLine
 62
250
  6
CONTINUOUS
 10
29.9687526671
 20
-57.1867053535
 11
-28.5863307493
 21
-33.66966376
  0
LINE
  5
243
100
AcDbEntity
  8
RACCORDO
100
AcDbLine
 62
250
  6
CONTINUOUS
 10
19.5179310007
 20
-51.0248911981
 11
-18.4239522084
 21
-35.7865755216
  0
LWPOLYLINE
  5
244
100
AcDbEntity
  8
0
100
AcDbPolyline
 62
250
  6
CONTINUOUS
 90
76
 70
0
 10
-28.5863307493
 20
-33.66966376
 10
-28.622731457
 20
-33.6547114021
 10
-28.6591413181
 20
-33.6390926365
 10
-28.695560327
 20
-33.6228074574
 10
-28.7320028273
 20
-33.6058489157
 10
-28.7684544521
 20
-33.5882239382
 10
-28.8048721238
 20
-33.5699533282
 10
-28.841255629
 20
-33.5510363497
 10
-28.877605135
 20
-33.5314736942
 10
-28.9138781301
 20
-33.5112883013
 10
-28.9500744598
 20
-33.4904794083
 10
-28.9861942103
 20
-33.4690477121
 10
-29.0221952257
 20
-33.4470183362
 10
-29.0580772751
 20
-33.4243905583
 10
-29.0938404998
 20
-33.4011650146
 10
-29.1294432982
 20
-33.3773688631
 10
-29.1648854334
 20
-33.3530013734
 10
-29.2001670328
 20
-33.3280631706
 10
-29.2352470375
 20
-33.3025834433
 10
-29.2701251376
 20
-33.2765614965
 10
-29.3048015149
 20
-33.2499979021
 10
-29.3392358462
 20
-33.2229237472
 10
-29.3734277761
 20
-33.1953383566
 10
-29.4073775153
 20
-33.1672422665
 10
-29.4410455887
 20
-33.1386683802
 10
-29.4744315573
 20
-33.109616081
 10
-29.5075357008
 20
-33.0800858327
 10
-29.540319623
 20
-33.0501121604
 10
-29.5727828593
 20
-33.0196944607
 10
-29.6049257027
 20
-32.9888331723
 10
-29.636710894
 20
-32.9575643844
 10
-29.6681378974
 20
-32.9258875554
 10
-29.6992070672
 20
-32.8938030528
 10
-29.729882484
 20
-32.8613483333
 10
-29.7601635872
 20
-32.8285228754
 10
-29.7900507485
 20
-32.7953270195
 10
-29.8195094519
 20
-32.7617995196
 10
-29.8485390715
 20
-32.727939925
 10
-29.8771400397
 20
-32.6937485012
 10
-29.9052794354
 20
-32.6592650827
 10
-29.9329566119
 20
-32.6244892449
 10
-29.9601720204
 20
-32.5894212254
 10
-29.9868943948
 20
-32.55410186
 10
-30.0131230372
 20
-32.5185307946
 10
-30.0388584508
 20
-32.4827081972
 10
-30.0640711818
 20
-32.4466756962
 10
-30.0887605134
 20
-32.410432972
 10
-30.1129269712
 20
-32.3739801617
 10
-30.1365429763
 20
-32.3373595903
 10
-30.1596077708
 20
-32.3005710129
 10
-30.1821219279
 20
-32.2636144979
 10
-30.2040598781
 20
-32.2265328535
 10
-30.2254208489
 20
-32.1893258773
 10
-30.2462054368
 20
-32.1519936037
 10
-30.2663901418
 20
-32.1145792096
 10
-30.2859741694
 20
-32.0770825523
 10
-30.3049581491
 20
-32.0395036176
 10
-30.323320733
 20
-32.001885791
 10
-30.3410611126
 20
-31.9642289827
 10
-30.3581799451
 20
-31.9265331386
 10
-30.3746580991
 20
-31.8888417153
 10
-30.3904947441
 20
-31.8511547058
 10
-30.4056905748
 20
-31.8134719882
 10
-30.4202287662
 20
-31.775836865
 10
-30.434108487
 20
-31.7382493785
 10
-30.44733045
 20
-31.7007093741
 10
-30.4598801658
 20
-31.6632598778
 10
-30.4717568081
 20
-31.6259009529
 10
-30.4829611036
 20
-31.5886324421
 10
-30.4934809135
 20
-31.5514970612
 10
-30.5033154311
 20
-31.5144947765
 10
-30.5124653838
 20
-31.4776255474
 10
-30.5209209561
 20
-31.4409320994
 10
-30.528678862
 20
-31.4044286615
 10
-30.5357423327
 20
-31.3681009536
 10
-30.5421113392
 20
-31.3319489489
  0
LWPOLYLINE
  5
245
100
AcDbEntity
  8
RACCORDO
100
AcDbPolyline
 62
250
  6
CONTINUOUS
 90
46
 70
0
 10
-18.4239522553
 20
16.9925276063
 10
-18.5035016886
 20
15.7643452019
 10
-18.579444173
 20
14.53838846
 10
-18.6517785264
 20
13.3146779887
 10
-18.7205036975
 20
12.0932344026
 10
-18.7856185423
 20
10.8740781843
 10
-18.8471218241
 20
9.6572296844
 10
-18.9050125738
 20
8.4427093421
 10
-18.9592899028
 20
7.2305375745
 10
-19.0099527786
 20
6.0207346382
 10
-19.0570004001
 20
4.8133208622
 10
-19.1004320489
 20
3.6083165263
 10
-19.1402469005
 20
2.4057417506
 10
-19.1764443228
 20
1.2056167412
 10
-19.2090237664
 20
0.0079616475
 10
-19.2379846137
 20
-1.1872035591
 10
-19.2633264018
 20
-2.3798588115
 10
-19.2850487493
 20
-3.56998408
 10
-19.3031512447
 20
-4.7575595136
 10
-19.3176335937
 20
-5.9425651859
 10
-19.3284955835
 20
-7.1249811911
 10
-19.3357370081
 20
-8.3047877759
 10
-19.339357742
 20
-9.4819651462
 10
-19.3393577417
 20
-10.6564935349
 10
-19.3357370071
 20
-11.8283532967
 10
-19.3284955819
 20
-12.997524767
 10
-19.3176335914
 20
-14.1639883262
 10
-19.3031512418
 20
-15.327724466
 10
-19.2850487458
 20
-16.4887136601
 10
-19.2633263976
 20
-17.6469364333
 10
-19.2379846088
 20
-18.8023734244
 10
-19.2090237609
 20
-19.955005259
 10
-19.1764443167
 20
-21.1048125981
 10
-19.1402468937
 20
-22.2517762054
 10
-19.1004320415
 20
-23.3958768628
 10
-19.0570003921
 20
-24.5370953688
 10
-19.00995277
 20
-25.6754125855
 10
-18.9592898935
 20
-26.8108094415
 10
-18.9050125639
 20
-27.943266889
 10
-18.8471218135
 20
-29.0727658997
 10
-18.7856185306
 20
-30.1992875498
 10
-18.7205036847
 20
-31.3228129504
 10
-18.6517785138
 20
-32.4433232032
 10
-18.5794441628
 20
-33.5607995083
 10
-18.5035016824
 20
-34.6752231652
 10
-18.4239522553
 20
-35.7865755028
  0
LINE
  5
246
100
AcDbEntity
  8
RACCORDO
100
AcDbLine
 62
250
  6
CONTINUOUS
 10
-17.683282059
 20
-32.361838989
 11
18.6961725655
 21
-46.9726481219
  0
LWPOLYLINE
  5
247
100
AcDbEntity
  8
RACCORDO
100
AcDbPolyline
 62
250
  6
CONTINUOUS
 90
37
 70
0
 10
-16.4225479092
 20
-27.0834084911
 10
-16.4219033579
 20
-27.093886354
 10
-16.42081159
 20
-27.1045452991
 10
-16.4192746767
 20
-27.1153651069
 10
-16.4172955333
 20
-27.1263252531
 10
-16.4148779141
 20
-27.1374049472
 10
-16.4120264052
 20
-27.1485831719
 10
-16.4087464156
 20
-27.1598387228
 10
-16.4050441672
 20
-27.1711502491
 10
-16.400926683
 20
-27.1824962935
 10
-16.3964017734
 20
-27.1938553337
 10
-16.391478022
 20
-27.2052058222
 10
-16.3861647686
 20
-27.216526228
 10
-16.3804720921
 20
-27.2277950773
 10
-16.3744107911
 20
-27.2389909938
 10
-16.3679923634
 20
-27.2500927397
 10
-16.3612289843
 20
-27.2610792559
 10
-16.3541334835
 20
-27.2719297018
 10
-16.3467193204
 20
-27.2826234948
 10
-16.3390005594
 20
-27.2931403497
 10
-16.3309918421
 20
-27.3034603167
 10
-16.3227083607
 20
-27.3135638197
 10
-16.3141658282
 20
-27.323431693
 10
-16.3053804492
 20
-27.3330452181
 10
-16.2963688889
 20
-27.3423861588
 10
-16.2871482416
 20
-27.351436796
 10
-16.277735998
 20
-27.3601799613
 10
-16.2681500127
 20
-27.3685990697
 10
-16.2584084694
 20
-27.3766781506
 10
-16.2485298471
 20
-27.3844018787
 10
-16.2385328849
 20
-27.3917556027
 10
-16.2284365462
 20
-27.398725373
 10
-16.2182599831
 20
-27.4052979685
 10
-16.2080224997
 20
-27.4114609216
 10
-16.1977435157
 20
-27.4172025416
 10
-16.1874425296
 20
-27.4225119369
 10
-16.1771390817
 20
-27.4273790362
  0
LWPOLYLINE
  5
248
100
AcDbEntity
  8
RACCORDO
100
AcDbPolyline
 62
250
  6
CONTINUOUS
 90
18
 70
0
 10
-18.4239522447
 20
16.9925277673
 10
-18.4084889371
 20
16.6985030407
 10
-18.3918113892
 20
16.4063894434
 10
-18.3739711948
 20
16.1161900646
 10
-18.3549733605
 20
15.8275486053
 10
-18.3349090228
 20
15.5408630677
 10
-18.3139706963
 20
15.2572522524
 10
-18.292229313
 20
14.9768196478
 10
-18.2697371602
 20
14.6994966551
 10
-18.2466793095
 20
14.4261112766
 10
-18.2231206362
 20
14.1566359074
 10
-18.1991262285
 20
13.8911105694
 10
-18.174892545
 20
13.6304305607
 10
-18.1505078299
 20
13.3747686619
 10
-18.1260210681
 20
13.1239376978
 10
-18.1015701761
 20
12.8782626517
 10
-18.0772418202
 20
12.6378372435
 10
-18.029149107
 20
12.1723792453
  0
LWPOLYLINE
  5
249
100
AcDbEntity
  8
RACCORDO
100
AcDbPolyline
 62
7
  6
CONTINUOUS
 90
12
 70
0
 10
-16.5622196192
 20
-14.1907387794
 10
-16.5580690421
 20
-14.2887488608
 10
-16.5480361728
 20
-14.3804618742
 10
-16.5321210112
 20
-14.4658778197
 10
-16.510057148
 20
-14.5458223843
 10
-16.4821109925
 20
-14.619469881
 10
-16.4490817731
 20
-14.6843432488
 10
-16.4109590621
 20
-14.7398257039
 10
-16.3677532871
 20
-14.7865340301
 10
-16.3202949592
 20
-14.8238415175
 10
-16.2685637277
 20
-14.8516908732
 10
-16.2610254179
 20
-14.8548243901
  0
LWPOLYLINE
  5
24A
100
AcDbEntity
  8
RACCORDO
100
AcDbPolyline
 62
250
  6
CONTINUOUS
 90
10
 70
0
 10
-17.152754904
 20
-14.6738074755
 10
-17.1685753256
 20
-13.4624329709
 10
-17.1804406421
 20
-12.2481434914
 10
-17.1883508535
 20
-11.030939037
 10
-17.1923059602
 20
-9.8108120639
 10
-17.1923059617
 20
-8.587770116
 10
-17.188350857
 20
-7.361835824
 10
-17.1804406456
 20
-6.1330167318
 10
-17.1685753279
 20
-4.9013052956
 10
-17.152754904
 20
-3.6667015155
  0
LWPOLYLINE
  5
24B
100
AcDbEntity
  8
RACCORDO
100
AcDbPolyline
 62
7
  6
CONTINUOUS
 90
10
 70
0
 10
-17.0468143756
 20
-14.4898882941
 10
-17.0624950687
 20
-13.2905508647
 10
-17.0744007071
 20
-12.0751487013
 10
-17.0823386465
 20
-10.8567633968
 10
-17.0863085804
 20
-9.6354205919
 10
-17.0863103852
 20
-8.4111418232
 10
-17.0823439742
 20
-7.1839470466
 10
-17.0744092979
 20
-5.953857859
 10
-17.0625064896
 20
-4.7209002332
 10
-17.0468121127
 20
-3.4973363108
  0
LWPOLYLINE
  5
24C
100
AcDbEntity
  8
RACCORDO
100
AcDbPolyline
 62
7
  6
CONTINUOUS
 90
10
 70
0
 10
-16.5622196192
 20
-14.1907387794
 10
-16.5761979022
 20
-13.0112688883
 10
-16.5866816145
 20
-11.828895035
 10
-16.593670756
 20
-10.6436172195
 10
-16.5971653268
 20
-9.4554078567
 10
-16.5971653268
 20
-8.2642945317
 10
-16.593670756
 20
-7.0703599994
 10
-16.5866816145
 20
-5.8736318448
 10
-16.5761979022
 20
-4.6740824828
 10
-16.5622196192
 20
-3.4717119135
  0
LWPOLYLINE
  5
24D
100
AcDbEntity
  8
RACCORDO
100
AcDbPolyline
 62
7
  6
CONTINUOUS
 90
58
 70
0
 10
-17.0468120099
 20
-3.4973318984
 10
-17.0464161833
 20
-3.4775515263
 10
-17.0452638722
 20
-3.4442912318
 10
-17.0434718626
 20
-3.4101509884
 10
-17.0410217561
 20
-3.3751490034
 10
-17.0378977566
 20
-3.3393235675
 10
-17.0340881575
 20
-3.3027332277
 10
-17.0295804714
 20
-3.2654080177
 10
-17.0243633605
 20
-3.2273787321
 10
-17.0184312957
 20
-3.1887061405
 10
-17.01177671
 20
-3.1494244454
 10
-17.0043931654
 20
-3.1095684596
 10
-16.9962809929
 20
-3.069200407
 10
-16.9874374601
 20
-3.028357624
 10
-16.9778606453
 20
-2.9870768016
 10
-16.9675559819
 20
-2.9454196266
 10
-16.9565251572
 20
-2.9034253555
 10
-16.9447706504
 20
-2.8611327947
 10
-16.9323026315
 20
-2.8186030564
 10
-16.9191268663
 20
-2.775876388
 10
-16.9052500086
 20
-2.7329930546
 10
-16.8906868598
 20
-2.6900140013
 10
-16.8754471406
 20
-2.6469801902
 10
-16.8595413401
 20
-2.603932279
 10
-16.8429885027
 20
-2.5609302429
 10
-16.8258019661
 20
-2.5180148815
 10
-16.8079958267
 20
-2.475226698
 10
-16.7895931458
 20
-2.432624359
 10
-16.7706104886
 20
-2.3902475976
 10
-16.7510653548
 20
-2.3481362604
 10
-16.7309849236
 20
-2.3063479488
 10
-16.7103888609
 20
-2.2649209791
 10
-16.6892976354
 20
-2.2238934622
 10
-16.667742207
 20
-2.1833210643
 10
-16.6457449415
 20
-2.1432398195
 10
-16.6233290257
 20
-2.1036855566
 10
-16.6005290921
 20
-2.0647116149
 10
-16.5773699398
 20
-2.0263511724
 10
-16.5538770621
 20
-1.9886369377
 10
-16.5300884566
 20
-1.9516191465
 10
-16.5060310234
 20
-1.9153274795
 10
-16.4817321635
 20
-1.8797908022
 10
-16.4572328486
 20
-1.8450553962
 10
-16.4325613812
 20
-1.8111463605
 10
-16.4077470436
 20
-1.7780885946
 10
-16.3828344725
 20
-1.745925006
 10
-16.3578531657
 20
-1.7146756862
 10
-16.3328336877
 20
-1.6843604984
 10
-16.3078244806
 20
-1.6550184774
 10
-16.2828562957
 20
-1.6266645087
 10
-16.2579604747
 20
-1.599312483
 10
-16.2331886793
 20
-1.5729960876
 10
-16.2085718818
 20
-1.5477236528
 10
-16.1841412991
 20
-1.5235020948
 10
-16.1599511674
 20
-1.5003585554
 10
-16.1360413134
 20
-1.4783024566
 10
-16.1124365527
 20
-1.4573271107
 10
-16.097534965
 20
-1.444495576
  0
LWPOLYLINE
  5
24E
100
AcDbEntity
  8
RACCORDO
100
AcDbPolyline
 62
250
  6
CONTINUOUS
 90
55
 70
0
 10
-17.152754904
 20
-3.6667015155
 10
-17.1516788767
 20
-3.6219556118
 10
-17.1497045916
 20
-3.5765744067
 10
-17.1468320489
 20
-3.5305579002
 10
-17.143060924
 20
-3.4838595832
 10
-17.1383915414
 20
-3.4365259648
 10
-17.1328248746
 20
-3.3886965727
 10
-17.1263560296
 20
-3.3403698292
 10
-17.1189899003
 20
-3.291547312
 10
-17.1107421421
 20
-3.2423732813
 10
-17.1016081413
 20
-3.1928464693
 10
-17.0915925116
 20
-3.1429681438
 10
-17.0807247502
 20
-3.0928863687
 10
-17.0690038797
 20
-3.0426110568
 10
-17.0564308775
 20
-2.9921322953
 10
-17.0430381733
 20
-2.9415684101
 10
-17.0288272639
 20
-2.8909293571
 10
-17.0137966523
 20
-2.8402051804
 10
-16.9979742775
 20
-2.7894843377
 10
-16.981358638
 20
-2.738763881
 10
-16.9639512352
 20
-2.6880467584
 10
-16.9457845123
 20
-2.6374302721
 10
-16.9268546774
 20
-2.5869080481
 10
-16.9071655225
 20
-2.5364864604
 10
-16.886760867
 20
-2.486281933
 10
-16.8656385262
 20
-2.4362943734
 10
-16.8438006848
 20
-2.386523874
 10
-16.8212977157
 20
-2.3370871363
 10
-16.7981278089
 20
-2.2879850852
 10
-16.7742927743
 20
-2.2392167958
 10
-16.7498484151
 20
-2.1908961936
 10
-16.7247933206
 20
-2.1430249058
 10
-16.6991289014
 20
-2.0956013054
 10
-16.6729151928
 20
-2.0487344364
 10
-16.6461543664
 20
-2.0024310182
 10
-16.6188442506
 20
-1.9566843316
 10
-16.5910383649
 20
-1.9115832625
 10
-16.5627380936
 20
-1.8671311567
 10
-16.5339420525
 20
-1.8233246684
 10
-16.5046996088
 20
-1.7802426467
 10
-16.475004611
 20
-1.7378782275
 10
-16.4448632107
 20
-1.6962382747
 10
-16.4143432297
 20
-1.655422229
 10
-16.3834365771
 20
-1.6154245616
 10
-16.3521513439
 20
-1.5762508012
 10
-16.3205796242
 20
-1.5380169745
 10
-16.2887191994
 20
-1.5007272465
 10
-16.2565722881
 20
-1.4643774522
 10
-16.2242376411
 20
-1.4290711234
 10
-16.1917129176
 20
-1.3948128508
 10
-16.1590004584
 20
-1.3615980438
 10
-16.1262060367
 20
-1.3295164625
 10
-16.0933649104
 20
-1.2985980269
 10
-16.0604418217
 20
-1.2688128169
 10
-16.0274367705
 20
-1.2401608326
  0
LWPOLYLINE
  5
24F
100
AcDbEntity
  8
RACCORDO
100
AcDbPolyline
 62
250
  6
CONTINUOUS
 90
27
 70
0
 10
-16.0274367705
 20
-15.4480562363
 10
-16.0266762023
 20
-15.4306408269
 10
-16.0265596698
 20
-15.4129657761
 10
-16.0270873631
 20
-15.3950599196
 10
-16.0282584213
 20
-15.3769524698
 10
-16.0300709338
 20
-15.3586729677
 10
-16.0325219437
 20
-15.3402512352
 10
-16.0356074522
 20
-15.3217173263
 10
-16.0393224255
 20
-15.3031014777
 10
-16.0436608028
 20
-15.2844340602
 10
-16.0486155064
 20
-15.2657455283
 10
-16.0541784528
 20
-15.2470663713
 10
-16.0603405666
 20
-15.228427063
 10
-16.0670917946
 20
-15.2098580122
 10
-16.0744211226
 20
-15.1913895132
 10
-16.0823165932
 20
-15.1730516961
 10
-16.0907653255
 20
-15.1548744779
 10
-16.0997535359
 20
-15.1368875136
 10
-16.1092665606
 20
-15.1191201478
 10
-16.1192888798
 20
-15.1016013667
 10
-16.1298041427
 20
-15.0843597511
 10
-16.1407951943
 20
-15.0674234296
 10
-16.1522441034
 20
-15.0508200328
 10
-16.1641321918
 20
-15.0345766479
 10
-16.1764400649
 20
-15.018719775
 10
-16.1891476431
 20
-15.0032752836
 10
-16.2022341948
 20
-14.9882683704
  0
LWPOLYLINE
  5
250
100
AcDbEntity
  8
RACCORDO
100
AcDbPolyline
 62
250
  6
CONTINUOUS
 90
34
 70
0
 10
-17.7322012847
 20
10.2421408065
 10
-17.7929921019
 20
8.999271968
 10
-17.8499946371
 20
7.7588926107
 10
-17.9032088902
 20
6.5210027345
 10
-17.9526357607
 20
5.2855786794
 10
-17.9982743491
 20
4.0526441055
 10
-18.0401219571
 20
2.8222699926
 10
-18.0781782864
 20
1.5944584638
 10
-18.1124436353
 20
0.3692073959
 10
-18.1429162012
 20
-0.8534186003
 10
-18.1695957859
 20
-2.0734193831
 10
-18.1924825875
 20
-3.2907950944
 10
-18.2115753976
 20
-4.505481548
 10
-18.2268740179
 20
-5.7174786194
 10
-18.2383786466
 20
-6.9267864333
 10
-18.2460886708
 20
-8.133341178
 10
-18.2500038891
 20
-9.3371428853
 10
-18.2501245029
 20
-10.5381915235
 10
-18.246450503
 20
-11.7364231857
 10
-18.2389816864
 20
-12.9318376099
 10
-18.2277182561
 20
-14.124435058
 10
-18.2126608118
 20
-15.3141524097
 10
-18.1938091545
 20
-16.5009894317
 10
-18.1711634831
 20
-17.6849463571
 10
-18.1447249935
 20
-18.8659607647
 10
-18.1144934874
 20
-20.0440325045
 10
-18.0804691631
 20
-21.2191617266
 10
-18.0426538108
 20
-22.3912864592
 10
-18.0010471291
 20
-23.5604084496
 10
-17.9556494195
 20
-24.7265259506
 10
-17.906463376
 20
-25.8895717491
 10
-17.8534898968
 20
-27.0495234409
 10
-17.7967280837
 20
-28.2064034303
 10
-17.7361779369
 20
-29.3602117173
  0
LINE
  5
251
100
AcDbEntity
  8
RACCORDO
100
AcDbLine
 62
250
  6
CONTINUOUS
 10
-16.413613264
 20
9.8209913563
 11
-16.4129841432
 21
9.8316246337
  0
LWPOLYLINE
  5
252
100
AcDbEntity
  8
RACCORDO
100
AcDbPolyline
 62
250
  6
CONTINUOUS
 90
13
 70
0
 10
-18.177626079
 20
-32.1999472089
 10
-18.2024260725
 20
-32.4925198872
 10
-18.2268044543
 20
-32.7869388021
 10
-18.2506796136
 20
-33.0831653512
 10
-18.2740180545
 20
-33.3815166539
 10
-18.2966810956
 20
-33.6815929819
 10
-18.3184317531
 20
-33.982301953
 10
-18.3391976344
 20
-34.2836541626
 10
-18.3588951212
 20
-34.5855906257
 10
-18.377296767
 20
-34.8869616261
 10
-18.3942914805
 20
-35.1873915617
 10
-18.4098657759
 20
-35.4872607539
 10
-18.4239522409
 20
-35.7865756999
  0
LWPOLYLINE
  5
253
100
AcDbEntity
  8
RACCORDO
100
AcDbPolyline
 62
7
  6
CONTINUOUS
 90
19
 70
0
 10
-15.7470359232
 20
-1.6000763105
 10
-15.817952978
 20
-1.6675427892
 10
-15.8875831606
 20
-1.7422627596
 10
-15.955926471
 20
-1.8242362218
 10
-16.0236742818
 20
-1.9144312241
 10
-16.0901352204
 20
-2.0118797183
 10
-16.1532351692
 20
-2.113677559
 10
-16.2125799433
 20
-2.2194951922
 10
-16.2685637277
 20
-2.329662172
 10
-16.3202949592
 20
-2.4422630158
 10
-16.3677532871
 20
-2.5573216758
 10
-16.4109590621
 20
-2.6748141998
 10
-16.4490817731
 20
-2.7927532482
 10
-16.4821109925
 20
-2.9117385212
 10
-16.510057148
 20
-3.0311703186
 10
-16.5321210112
 20
-3.1472622005
 10
-16.5480361728
 20
-3.2587520203
 10
-16.5580690421
 20
-3.3669019246
 10
-16.5622196192
 20
-3.4717119135
  0
LINE
  5
254
100
AcDbEntity
  8
RACCORDO
100
AcDbLine
 62
7
  6
CONTINUOUS
 10
-15.3357342533
 20
-1.2323733951
 11
-15.7470359232
 21
-1.6000763105
  0
LWPOLYLINE
  5
255
100
AcDbEntity
  8
RACCORDO
100
AcDbPolyline
 62
7
  6
CONTINUOUS
 90
25
 70
0
 10
-15.8449288098
 20
-1.2296816046
 10
-15.8351790528
 20
-1.2211705682
 10
-15.8217226112
 20
-1.2086601102
 10
-15.8087619858
 20
-1.1956918134
 10
-15.7963163921
 20
-1.1822915388
 10
-15.7843857926
 20
-1.1684650715
 10
-15.7730109515
 20
-1.1542677094
 10
-15.7622462037
 20
-1.1397862745
 10
-15.7520482831
 20
-1.1249821351
 10
-15.7423245903
 20
-1.1097155135
 10
-15.7330182287
 20
-1.0938552857
 10
-15.7242415085
 20
-1.0775472687
 10
-15.7161462668
 20
-1.0610779866
 10
-15.7088187885
 20
-1.0446940304
 10
-15.7021487519
 20
-1.0282260172
 10
-15.6960011738
 20
-1.0113370834
 10
-15.6903329476
 20
-0.9938045523
 10
-15.6852619223
 20
-0.9758749147
 10
-15.6808950582
 20
-0.9579146148
 10
-15.6772672449
 20
-0.940194532
 10
-15.6743068252
 20
-0.9225166333
 10
-15.6719599928
 20
-0.9045488923
 10
-15.6702420568
 20
-0.8861933185
 10
-15.6691947663
 20
-0.8675964399
 10
-15.6688408307
 20
-0.8487866024
  0
LINE
  5
256
100
AcDbEntity
  8
RACCORDO
100
AcDbLine
 62
250
  6
CONTINUOUS
 10
-16.0274367705
 20
-1.2401608326
 11
-15.7748354539
 21
-1.0253510599
  0
LINE
  5
257
100
AcDbEntity
  8
RACCORDO
100
AcDbLine
 62
7
  6
CONTINUOUS
 10
-16.0975315831
 20
-1.4444926161
 11
-15.8449302665
 21
-1.2296828434
  0
LWPOLYLINE
  5
258
100
AcDbEntity
  8
RACCORDO
100
AcDbPolyline
 62
250
  6
CONTINUOUS
 90
19
 70
0
 10
-15.7748354539
 20
-1.0253510599
 10
-15.7632360094
 20
-1.0164875709
 10
-15.7522422837
 20
-1.007373642
 10
-15.7418706947
 20
-0.9980228837
 10
-15.7321367308
 20
-0.98844926
 10
-15.7230549285
 20
-0.978667068
 10
-15.7146388504
 20
-0.9686909162
 10
-15.7069010649
 20
-0.9585357027
 10
-15.6998531272
 20
-0.9482165929
 10
-15.6935055626
 20
-0.9377489972
 10
-15.6878678504
 20
-0.9271485475
 10
-15.6829484097
 20
-0.9164310743
 10
-15.6787545871
 20
-0.9056125826
 10
-15.6752926455
 20
-0.8947092287
 10
-15.672567755
 20
-0.8837372951
 10
-15.6705839849
 20
-0.8727131672
 10
-15.6693442975
 20
-0.861653308
 10
-15.6688505442
 20
-0.850574234
 10
-15.6688408307
 20
-0.8487866024
  0
LWPOLYLINE
  5
259
100
AcDbEntity
  8
RACCORDO
100
AcDbPolyline
 62
250
  6
CONTINUOUS
 90
17
 70
0
 10
-17.1527549429
 20
-3.6667014981
 10
-17.1402905753
 20
-3.6574774093
 10
-17.1285301738
 20
-3.6479635031
 10
-17.1174941063
 20
-3.6381762566
 10
-17.1072014861
 20
-3.6281326205
 10
-17.0976701392
 20
-3.6178499893
 10
-17.0889165727
 20
-3.6073461715
 10
-17.0809559472
 20
-3.5966393588
 10
-17.0738020495
 20
-3.5857480943
 10
-17.0674672697
 20
-3.5746912406
 10
-17.0619625788
 20
-3.5634879472
 10
-17.0572975106
 20
-3.552157617
 10
-17.0534801444
 20
-3.540719873
 10
-17.0505170915
 20
-3.5291945245
 10
-17.0484134837
 20
-3.517601532
 10
-17.0471729642
 20
-3.5059609737
 10
-17.0468120734
 20
-3.4973363113
  0
LWPOLYLINE
  5
25A
100
AcDbEntity
  8
RACCORDO
100
AcDbPolyline
 62
250
  6
CONTINUOUS
 90
19
 70
0
 10
-18.177626079
 20
-32.1999472089
 10
-18.1484629211
 20
-32.2036048638
 10
-18.1192898926
 20
-32.2079398423
 10
-18.0901470625
 20
-32.2129461905
 10
-18.0610744579
 20
-32.2186170321
 10
-18.0321120098
 20
-32.2249445784
 10
-18.0032994977
 20
-32.2319201385
 10
-17.9746764952
 20
-32.2395341315
 10
-17.9462823157
 20
-32.2477760998
 10
-17.9181559583
 20
-32.2566347232
 10
-17.8903360541
 20
-32.2660978343
 10
-17.8628608134
 20
-32.2761524358
 10
-17.8357679732
 20
-32.2867847177
 10
-17.8090947451
 20
-32.2979800768
 10
-17.7828777645
 20
-32.3097231364
 10
-17.75715304
 20
-32.3219977675
 10
-17.7319559043
 20
-32.3347871111
 10
-17.7073209653
 20
-32.3480736011
 10
-17.6832820587
 20
-32.3618389888
  0
LINE
  5
25B
100
AcDbEntity
  8
RACCORDO
100
AcDbLine
 62
250
  6
CONTINUOUS
 10
-17.1004173679
 20
-27.7104757714
 11
-17.0686593503
 21
-27.7215265169
  0
LINE
  5
25C
100
AcDbEntity
  8
RACCORDO
100
AcDbLine
 62
250
  6
CONTINUOUS
 10
-17.0686593503
 20
-27.7215265169
 11
-17.0343313777
 21
-27.7337662132
  0
LINE
  5
25D
100
AcDbEntity
  8
RACCORDO
100
AcDbLine
 62
250
  6
CONTINUOUS
 10
-17.0343313777
 20
-27.7337662132
 11
-16.9975925402
 21
-27.7471393184
  0
LINE
  5
25E
100
AcDbEntity
  8
RACCORDO
100
AcDbLine
 62
250
  6
CONTINUOUS
 10
-16.9975925402
 20
-27.7471393184
 11
-16.9586124538
 21
-27.7615836704
  0
LINE
  5
25F
100
AcDbEntity
  8
RACCORDO
100
AcDbLine
 62
250
  6
CONTINUOUS
 10
-16.9586124538
 20
-27.7615836704
 11
-16.9175709605
 21
-27.7770318147
  0
LINE
  5
260
100
AcDbEntity
  8
RACCORDO
100
AcDbLine
 62
250
  6
CONTINUOUS
 10
-16.9175709605
 20
-27.7770318147
 11
-16.8525603398
 21
-27.8019275515
  0
LINE
  5
261
100
AcDbEntity
  8
RACCORDO
100
AcDbLine
 62
250
  6
CONTINUOUS
 10
-16.8525603398
 20
-27.8019275515
 11
-16.784014559
 21
-27.8286581094
  0
LINE
  5
262
100
AcDbEntity
  8
RACCORDO
100
AcDbLine
 62
250
  6
CONTINUOUS
 10
-16.784014559
 20
-27.8286581094
 11
-16.7126460876
 21
-27.8569459371
  0
LINE
  5
263
100
AcDbEntity
  8
RACCORDO
100
AcDbLine
 62
250
  6
CONTINUOUS
 10
-16.1533888949
 20
-28.0924941023
 11
18.7326366271
 21
-42.103508439
  0
LINE
  5
264
100
AcDbEntity
  8
RACCORDO
100
AcDbLine
 62
250
  6
CONTINUOUS
 10
-16.1771390817
 20
-27.4273790362
 11
18.705648569
 21
-41.4370929708
  0
LINE
  5
265
100
AcDbEntity
  8
RACCORDO
100
AcDbLine
 62
250
  6
CONTINUOUS
 10
-16.7126460876
 20
-27.8569459371
 11
-16.6391977288
 21
-27.8864996855
  0
LINE
  5
266
100
AcDbEntity
  8
RACCORDO
100
AcDbLine
 62
250
  6
CONTINUOUS
 10
-16.6391977288
 20
-27.8864996855
 11
-16.5644338371
 21
-27.9170146901
  0
LINE
  5
267
100
AcDbEntity
  8
RACCORDO
100
AcDbLine
 62
250
  6
CONTINUOUS
 10
-16.5644338371
 20
-27.9170146901
 11
-16.4891316798
 21
-27.9481744898
  0
LINE
  5
268
100
AcDbEntity
  8
RACCORDO
100
AcDbLine
 62
250
  6
CONTINUOUS
 10
-16.4891316798
 20
-27.9481744898
 11
-16.4140732195
 21
-27.9796537582
  0
LINE
  5
269
100
AcDbEntity
  8
RACCORDO
100
AcDbLine
 62
250
  6
CONTINUOUS
 10
-16.4140732195
 20
-27.9796537582
 11
-16.3400371988
 21
-28.0111221721
  0
LINE
  5
26A
100
AcDbEntity
  8
RACCORDO
100
AcDbLine
 62
250
  6
CONTINUOUS
 10
-16.3400371988
 20
-28.0111221721
 11
-16.2677918751
 21
-28.0422498652
  0
LWPOLYLINE
  5
26B
100
AcDbEntity
  8
RACCORDO
100
AcDbPolyline
 62
250
  6
CONTINUOUS
 90
7
 70
0
 10
18.8086218475
 20
-43.8635760353
 10
18.7957439666
 20
-43.8579288079
 10
18.7745264117
 20
-43.8489179315
 10
18.7526499105
 20
-43.8399111838
 10
18.7301432672
 20
-43.8309204237
 10
18.7070361158
 20
-43.8219574892
 10
18.6833588808
 20
-43.8130341816
  0
LINE
  5
26C
100
AcDbEntity
  8
RACCORDO
100
AcDbLine
 62
250
  6
CONTINUOUS
 10
-16.2677918751
 20
-28.0422498652
 11
-16.1980875594
 21
-28.0727121616
  0
LINE
  5
26D
100
AcDbEntity
  8
RACCORDO
100
AcDbLine
 62
250
  6
CONTINUOUS
 10
-16.1980875594
 20
-28.0727121616
 11
-16.1533887909
 21
-28.0924941381
  0
LINE
  5
26E
100
AcDbEntity
  8
RACCORDO
100
AcDbLine
 62
250
  6
CONTINUOUS
 10
-16.1894637878
 20
-27.8001720425
 11
-16.1759928794
 21
-27.8419738686
  0
LWPOLYLINE
  5
26F
100
AcDbEntity
  8
RACCORDO
100
AcDbPolyline
 62
250
  6
CONTINUOUS
 90
30
 70
0
 10
-16.1759928794
 20
-27.8419738686
 10
-16.167711616
 20
-27.8681400441
 10
-16.1638933906
 20
-27.8805955225
 10
-16.1603512493
 20
-27.892539657
 10
-16.157062269
 20
-27.9040231196
 10
-16.1540331891
 20
-27.915132164
 10
-16.1512697822
 20
-27.9258645813
 10
-16.1487721295
 20
-27.9362141794
 10
-16.1465363328
 20
-27.9462635715
 10
-16.1445628564
 20
-27.9560269076
 10
-16.142855067
 20
-27.9654846439
 10
-16.1414120766
 20
-27.974670195
 10
-16.140238492
 20
-27.9835929577
 10
-16.1393328245
 20
-27.9922394865
 10
-16.138684698
 20
-28.0006093669
 10
-16.1383022575
 20
-28.0087020374
 10
-16.1381806128
 20
-28.0165145657
 10
-16.1382900184
 20
-28.0240430257
 10
-16.1386385671
 20
-28.0312853663
 10
-16.1392216782
 20
-28.0382405781
 10
-16.1399909319
 20
-28.0449062596
 10
-16.1409533048
 20
-28.0512805331
 10
-16.142105599
 20
-28.0573626131
 10
-16.1433845235
 20
-28.0631516811
 10
-16.144781496
 20
-28.0686163816
 10
-16.1463092771
 20
-28.0737857209
 10
-16.1479361048
 20
-28.0787497111
 10
-16.1496519316
 20
-28.083538017
 10
-16.1514691299
 20
-28.0881196814
 10
-16.1533888949
 20
-28.0924941023
  0
LWPOLYLINE
  5
270
100
AcDbEntity
  8
RACCORDO
100
AcDbPolyline
 62
250
  6
CONTINUOUS
 90
12
 70
0
 10
-18.0291491168
 20
12.1723792633
 10
-18.0146494888
 20
12.0382902437
 10
-17.9988993844
 20
11.9059613618
 10
-17.9821415917
 20
11.7754040721
 10
-17.9645949391
 20
11.6459171511
 10
-17.9464389406
 20
11.5182158492
 10
-17.9279217539
 20
11.3943700475
 10
-17.9093227129
 20
11.2746065596
 10
-17.8907919046
 20
11.1585507219
 10
-17.8724639457
 20
11.0472752233
 10
-17.8545775442
 20
10.9411431696
 10
-17.8203095573
 20
10.7421841522
  0
LWPOLYLINE
  5
271
100
AcDbEntity
  8
RACCORDO
100
AcDbPolyline
 62
250
  6
CONTINUOUS
 90
19
 70
0
 10
-15.7748354539
 20
-1.0253510599
 10
-15.7741084802
 20
-1.0397703385
 10
-15.7739352986
 20
-1.0539263466
 10
-15.7743167042
 20
-1.0677989352
 10
-15.7752528337
 20
-1.081369652
 10
-15.7767429122
 20
-1.0946177085
 10
-15.7787847033
 20
-1.107520342
 10
-15.7813751365
 20
-1.1200582696
 10
-15.7845107797
 20
-1.1322149724
 10
-15.7881871491
 20
-1.1439729342
 10
-15.7923990132
 20
-1.1553154573
 10
-15.7971404961
 20
-1.1662267468
 10
-15.8024049794
 20
-1.1766915421
 10
-15.8081851181
 20
-1.1866951783
 10
-15.8144727588
 20
-1.196223486
 10
-15.8212589775
 20
-1.2052629268
 10
-15.8285341748
 20
-1.2138007337
 10
-15.8362881522
 20
-1.2218249571
 10
-15.8449288098
 20
-1.2296816046
  0
LWPOLYLINE
  5
272
100
AcDbEntity
  8
RACCORDO
100
AcDbPolyline
 62
250
  6
CONTINUOUS
 90
18
 70
0
 10
-16.0274367705
 20
-1.2401608326
 10
-16.0266762024
 20
-1.2556995475
 10
-16.0265596697
 20
-1.2709248583
 10
-16.0270873627
 20
-1.2858119259
 10
-16.0282584203
 20
-1.300336463
 10
-16.0300709321
 20
-1.3144747737
 10
-16.0325219411
 20
-1.3282037923
 10
-16.0356074487
 20
-1.3415011208
 10
-16.0393224209
 20
-1.3543450655
 10
-16.0436607971
 20
-1.3667146721
 10
-16.0486154995
 20
-1.3785897606
 10
-16.0541784448
 20
-1.3899509575
 10
-16.0603405574
 20
-1.4007797277
 10
-16.0670917842
 20
-1.4110584047
 10
-16.0744211111
 20
-1.4207702196
 10
-16.0823165806
 20
-1.4298993282
 10
-16.0907653119
 20
-1.4384308368
 10
-16.0975315831
 20
-1.4444926161
  0
LINE
  5
273
100
AcDbEntity
  8
RACCORDO
100
AcDbLine
 62
250
  6
CONTINUOUS
 10
-15.7748354539
 20
-26.5627910945
 11
-15.7748354539
 21
-15.2919743451
  0
LINE
  5
274
100
AcDbEntity
  8
RACCORDO
100
AcDbLine
 62
250
  6
CONTINUOUS
 10
-15.7748354539
 20
-1.0253510599
 11
-15.7748354539
 21
9.6314836892
  0
LINE
  5
275
100
AcDbEntity
  8
RACCORDO
100
AcDbLine
 62
7
  6
CONTINUOUS
 10
-15.6688408307
 20
-26.386226637
 11
-15.6688408307
 21
-15.1154098876
  0
LINE
  5
276
100
AcDbEntity
  8
RACCORDO
100
AcDbLine
 62
7
  6
CONTINUOUS
 10
-15.6688408307
 20
-0.8487866024
 11
-15.6688408307
 21
9.588913859
  0
LINE
  5
277
100
AcDbEntity
  8
DRAFT
100
AcDbLine
 62
7
  6
CONTINUOUS
 10
-15.3357342533
 20
-1.2323733951
 11
-15.3357342533
 21
-14.4207213082
  0
LWPOLYLINE
  5
278
100
AcDbEntity
  8
RACCORDO
100
AcDbPolyline
 62
250
  6
CONTINUOUS
 90
19
 70
0
 10
-15.6688408307
 20
-15.1154098876
 10
-15.6688505442
 20
-15.1171975192
 10
-15.6693442975
 20
-15.1282765932
 10
-15.6705839849
 20
-15.1393364524
 10
-15.672567755
 20
-15.1503605803
 10
-15.6752926455
 20
-15.1613325139
 10
-15.6787545871
 20
-15.1722358678
 10
-15.6829484097
 20
-15.1830543595
 10
-15.6878678504
 20
-15.1937718327
 10
-15.6935055626
 20
-15.2043722824
 10
-15.6998531272
 20
-15.2148398782
 10
-15.7069010649
 20
-15.2251589879
 10
-15.7146388504
 20
-15.2353142014
 10
-15.7230549285
 20
-15.2452903532
 10
-15.7321367308
 20
-15.2550725452
 10
-15.7418706947
 20
-15.2646461689
 10
-15.7522422837
 20
-15.2739969272
 10
-15.7632360094
 20
-15.2831108561
 10
-15.7748354539
 20
-15.2919743451
  0
LWPOLYLINE
  5
279
100
AcDbEntity
  8
RACCORDO
100
AcDbPolyline
 62
250
  6
CONTINUOUS
 90
29
 70
0
 10
-15.7748354539
 20
-15.2919743451
 10
-15.7741084802
 20
-15.2758341734
 10
-15.7739352986
 20
-15.2594634759
 10
-15.7743167042
 20
-15.2428850209
 10
-15.7752528337
 20
-15.2261202338
 10
-15.7767429122
 20
-15.2091941559
 10
-15.7787847033
 20
-15.1921355544
 10
-15.7813751366
 20
-15.1749699417
 10
-15.7845107798
 20
-15.1577199525
 10
-15.7881871493
 20
-15.1404104088
 10
-15.7923990134
 20
-15.1230659026
 10
-15.7971404961
 20
-15.1057105973
 10
-15.8024049794
 20
-15.0883687524
 10
-15.8081851184
 20
-15.0710646386
 10
-15.8144727594
 20
-15.0538227332
 10
-15.8212589786
 20
-15.0366675254
 10
-15.8285341765
 20
-15.0196232588
 10
-15.8362881546
 20
-15.0027138047
 10
-15.8445100473
 20
-14.9859628591
 10
-15.8531883165
 20
-14.9693939439
 10
-15.8623107331
 20
-14.9530304218
 10
-15.8718644357
 20
-14.9368953675
 10
-15.8818359693
 20
-14.9210115033
 10
-15.8922113158
 20
-14.9054011566
 10
-15.9029758861
 20
-14.8900862789
 10
-15.9141145401
 20
-14.8750884125
 10
-15.9256116021
 20
-14.8604286667
 10
-15.9374508907
 20
-14.8461276754
 10
-15.9433335133
 20
-14.8393952868
  0
LINE
  5
27A
100
AcDbEntity
  8
RACCORDO
100
AcDbLine
 62
250
  6
CONTINUOUS
 10
-17.7361777891
 20
-29.3602117987
 11
-17.7612889228
 21
-29.5226650323
  0
LINE
  5
27B
100
AcDbEntity
  8
RACCORDO
100
AcDbLine
 62
250
  6
CONTINUOUS
 10
-17.7612889228
 20
-29.5226650323
 11
-17.789025864
 21
-29.6938918635
  0
LWPOLYLINE
  5
27C
100
AcDbEntity
  8
RACCORDO
100
AcDbPolyline
 62
250
  6
CONTINUOUS
 90
12
 70
0
 10
-18.0028651904
 20
-30.9251640625
 10
-18.0228882254
 20
-31.044206026
 10
-18.0426071298
 20
-31.1642048473
 10
-18.0619663208
 20
-31.285484332
 10
-18.0807983169
 20
-31.4077741669
 10
-18.0986614917
 20
-31.5289120092
 10
-18.115528476
 20
-31.6493529816
 10
-18.1312453144
 20
-31.76875757
 10
-18.1453222009
 20
-31.883801005
 10
-18.157654782
 20
-31.9934183131
 10
-18.1684101183
 20
-32.0987876465
 10
-18.1776260811
 20
-32.1999471805
  0
LINE
  5
27D
100
AcDbEntity
  8
RACCORDO
100
AcDbLine
 62
250
  6
CONTINUOUS
 10
-17.789025864
 20
-29.6938918635
 11
-17.8192795007
 21
-29.8739240526
  0
LINE
  5
27E
100
AcDbEntity
  8
RACCORDO
100
AcDbLine
 62
250
  6
CONTINUOUS
 10
-17.9630336301
 20
-30.6941952669
 11
-18.0028651904
 21
-30.9251640625
  0
LINE
  5
27F
100
AcDbEntity
  8
RACCORDO
100
AcDbLine
 62
250
  6
CONTINUOUS
 10
-17.8192795007
 20
-29.8739240526
 11
-17.8519835606
 21
-30.0633844618
  0
LINE
  5
280
100
AcDbEntity
  8
RACCORDO
100
AcDbLine
 62
250
  6
CONTINUOUS
 10
-17.8519835606
 20
-30.0633844618
 11
-17.9630336301
 21
-30.6941952669
  0
LWPOLYLINE
  5
281
100
AcDbEntity
  8
RACCORDO
100
AcDbPolyline
 62
250
  6
CONTINUOUS
 90
13
 70
0
 10
-17.683282059
 20
-32.361838989
 10
-17.7508213244
 20
-32.6487191079
 10
-17.8179014229
 20
-32.9361363407
 10
-17.8844378958
 20
-33.2239803749
 10
-17.9505566387
 20
-33.5124101779
 10
-18.0159549288
 20
-33.8010308429
 10
-18.0799330506
 20
-34.0889191762
 10
-18.1424605994
 20
-34.3759878805
 10
-18.2034525339
 20
-34.6621222233
 10
-18.2621867117
 20
-34.9464046779
 10
-18.3184190644
 20
-35.2284894409
 10
-18.372349219
 20
-35.5085726393
 10
-18.4239522084
 20
-35.7865755216
  0
LWPOLYLINE
  5
282
100
AcDbEntity
  8
RACCORDO
100
AcDbPolyline
 62
250
  6
CONTINUOUS
 90
4
 70
0
 10
-17.1429146505
 20
-27.6962311601
 10
-17.1294567624
 20
-27.7006606861
 10
-17.1152855425
 20
-27.7054107157
 10
-17.1004173679
 20
-27.7104757714
  0
LWPOLYLINE
  5
283
100
AcDbEntity
  8
RACCORDO
100
AcDbPolyline
 62
250
  6
CONTINUOUS
 90
46
 70
0
 10
-15.5294266264
 20
-26.9067616397
 10
-15.5384467853
 20
-26.9036517809
 10
-15.5474594675
 20
-26.9002264251
 10
-15.5564548919
 20
-26.8964880943
 10
-15.5654284779
 20
-26.8924386341
 10
-15.5743647516
 20
-26.8880822241
 10
-15.5832375166
 20
-26.8834266351
 10
-15.5920364068
 20
-26.8784768153
 10
-15.600751509
 20
-26.8732387133
 10
-15.6093576896
 20
-26.8677243519
 10
-15.6178433316
 20
-26.861941873
 10
-15.6262005824
 20
-26.8558982424
 10
-15.634410635
 20
-26.8496058417
 10
-15.6424607373
 20
-26.8430760822
 10
-15.6503456128
 20
-26.8363154863
 10
-15.6580580713
 20
-26.8293298279
 10
-15.6655880473
 20
-26.8221294981
 10
-15.6729284287
 20
-26.8147227001
 10
-15.6800762337
 20
-26.8071115539
 10
-15.6870247523
 20
-26.7993031408
 10
-15.69376373
 20
-26.7913091214
 10
-15.7002847272
 20
-26.7831383226
 10
-15.706580929
 20
-26.7747985932
 10
-15.7126432933
 20
-26.7663019778
 10
-15.7184606885
 20
-26.7576640491
 10
-15.7240248292
 20
-26.7488969843
 10
-15.7293304513
 20
-26.7400098491
 10
-15.7343717136
 20
-26.7310139113
 10
-15.7391410547
 20
-26.7219225306
 10
-15.7436341917
 20
-26.7127440562
 10
-15.7478500301
 20
-26.7034822048
 10
-15.7517832022
 20
-26.6941464249
 10
-15.7554275083
 20
-26.6847490805
 10
-15.7587801085
 20
-26.6752982298
 10
-15.7618367037
 20
-26.6658007587
 10
-15.7645909448
 20
-26.6562720047
 10
-15.7670377298
 20
-26.6467327356
 10
-15.7691733684
 20
-26.6371919887
 10
-15.770994254
 20
-26.6276629868
 10
-15.7724977934
 20
-26.6181724642
 10
-15.7736821026
 20
-26.6087309461
 10
-15.7745463611
 20
-26.5993491127
 10
-15.7750925063
 20
-26.5900531122
 10
-15.7753223355
 20
-26.580857876
 10
-15.7752361674
 20
-26.5717674991
 10
-15.7748354539
 20
-26.5627910945
  0
LINE
  5
284
100
AcDbEntity
  8
RACCORDO
100
AcDbLine
 62
250
  6
CONTINUOUS
 10
18.6754486717
 20
-40.6442106903
 11
-15.5294266264
 21
-26.9067616397
  0
LINE
  5
285
100
AcDbEntity
  8
RACCORDO
100
AcDbLine
 62
7
  6
CONTINUOUS
 10
18.6697190664
 20
-40.4937829424
 11
-15.3280731465
 21
-26.8395031274
  0
LINE
  5
286
100
AcDbEntity
  8
ASSI
100
AcDbLine
 62
7
  6
CONTINUOUS
 10
-15.6688408307
 20
-25.9717492787
 11
18.6433060882
 21
-39.7522810306
  0
LINE
  5
287
100
AcDbEntity
  8
0
100
AcDbLine
 62
7
  6
CONTINUOUS
 10
-15.6688408307
 20
-25.4465936251
 11
18.6247678982
 21
-39.2196800219
  0
LWPOLYLINE
  5
288
100
AcDbEntity
  8
RACCORDO
100
AcDbPolyline
 62
7
  6
CONTINUOUS
 90
56
 70
0
 10
-15.3280741528
 20
-26.8395027746
 10
-15.3327212666
 20
-26.8375946972
 10
-15.340195044
 20
-26.8343549831
 10
-15.3479976741
 20
-26.8307548711
 10
-15.3561054567
 20
-26.8267853487
 10
-15.3644856157
 20
-26.8224436258
 10
-15.3731162995
 20
-26.8177233356
 10
-15.3819769155
 20
-26.8126185842
 10
-15.3910353388
 20
-26.8071314123
 10
-15.4002673064
 20
-26.8012611353
 10
-15.4096510434
 20
-26.7950069418
 10
-15.4191580473
 20
-26.7883738273
 10
-15.4287644005
 20
-26.7813650621
 10
-15.4384468239
 20
-26.7739849361
 10
-15.4481780736
 20
-26.7662424322
 10
-15.457934887
 20
-26.758144749
 10
-15.4676934707
 20
-26.7497008684
 10
-15.477426394
 20
-26.7409248695
 10
-15.4871132248
 20
-26.7318262639
 10
-15.4967289031
 20
-26.7224199432
 10
-15.5062405404
 20
-26.7127310756
 10
-15.5156275077
 20
-26.7027752788
 10
-15.5248686438
 20
-26.6925700195
 10
-15.5339325202
 20
-26.6821465019
 10
-15.5428005763
 20
-26.6715245465
 10
-15.5514552113
 20
-26.6607246444
 10
-15.5598691248
 20
-26.6497815522
 10
-15.5680265418
 20
-26.6387186267
 10
-15.5759142629
 20
-26.6275580208
 10
-15.5835118178
 20
-26.6163343488
 10
-15.5908077356
 20
-26.6050720532
 10
-15.5977925149
 20
-26.5937950269
 10
-15.6044516983
 20
-26.5825379798
 10
-15.6107783197
 20
-26.5713257709
 10
-15.6167671251
 20
-26.5601827331
 10
-15.6224093468
 20
-26.5491430824
 10
-15.6277023375
 20
-26.5382323542
 10
-15.6326458671
 20
-26.5274733603
 10
-15.6372378547
 20
-26.516896255
 10
-15.6414806676
 20
-26.5065246993
 10
-15.6453780457
 20
-26.4963811165
 10
-15.6489328771
 20
-26.4864937272
 10
-15.6521511133
 20
-26.4768869985
 10
-15.6550420053
 20
-26.4675787595
 10
-15.6576153893
 20
-26.4585870023
 10
-15.6598809668
 20
-26.4499341861
 10
-15.6618514687
 20
-26.4416358093
 10
-15.6635416803
 20
-26.4337003559
 10
-15.6649651109
 20
-26.4261441455
 10
-15.6661360305
 20
-26.4189857612
 10
-15.6670706568
 20
-26.4122391642
 10
-15.6677860752
 20
-26.4059182374
 10
-15.6683002073
 20
-26.4000398131
 10
-15.6686323523
 20
-26.3946238329
 10
-15.6688038452
 20
-26.3896862689
 10
-15.6688408238
 20
-26.3862339125
  0
LWPOLYLINE
  5
289
100
AcDbEntity
  8
RACCORDO
100
AcDbPolyline
 62
7
  6
CONTINUOUS
 90
15
 70
0
 10
-15.7411784902
 20
-14.8563637092
 10
-15.7314762326
 20
-14.8731038656
 10
-15.7224446169
 20
-14.890175742
 10
-15.7141449645
 20
-14.9074395309
 10
-15.7065310208
 20
-14.9249639906
 10
-15.6995573048
 20
-14.9428614239
 10
-15.6932303193
 20
-14.9611547695
 10
-15.6875920424
 20
-14.9797647486
 10
-15.6826635999
 20
-14.9986550148
 10
-15.6784590331
 20
-15.0178102329
 10
-15.6749989054
 20
-15.0371784821
 10
-15.6723037349
 20
-15.0566654199
 10
-15.6703794728
 20
-15.076214556
 10
-15.6692251978
 20
-15.0958084003
 10
-15.6688408307
 20
-15.1154098876
  0
LINE
  5
28A
100
AcDbEntity
  8
RACCORDO
100
AcDbLine
 62
250
  6
CONTINUOUS
 10
-17.8203095573
 20
10.7421841522
 11
-17.7450036023
 21
10.3155883367
  0
LINE
  5
28B
100
AcDbEntity
  8
RACCORDO
100
AcDbLine
 62
250
  6
CONTINUOUS
 10
-17.7450036023
 20
10.3155883367
 11
-17.732201228
 21
10.2421407843
  0
LWPOLYLINE
  5
28C
100
AcDbEntity
  8
RACCORDO
100
AcDbPolyline
 62
250
  6
CONTINUOUS
 90
19
 70
0
 10
-18.4239522158
 20
16.9925275904
 10
-18.3739056904
 20
16.6939836079
 10
-18.3219215785
 20
16.3981499108
 10
-18.2680179274
 20
16.1050610412
 10
-18.2120252897
 20
15.8143667286
 10
-18.1541448638
 20
15.5264873801
 10
-18.0949764907
 20
15.2425924051
 10
-18.0345989451
 20
14.9627768813
 10
-17.9730243069
 20
14.6869628516
 10
-17.9107966203
 20
14.4160222825
 10
-17.8479939538
 20
14.1499143314
 10
-17.7846644854
 20
13.8886553906
 10
-17.7213471084
 20
13.6331656526
 10
-17.6581947043
 20
13.3835861106
 10
-17.5952233122
 20
13.1396975897
 10
-17.5327944463
 20
12.9018505294
 10
-17.4710907124
 20
12.6701242181
 10
-17.4101069712
 20
12.444335211
 10
-17.349929263
 20
12.2244296624
  0
LWPOLYLINE
  5
28D
100
AcDbEntity
  8
RACCORDO
100
AcDbPolyline
 62
250
  6
CONTINUOUS
 90
13
 70
0
 10
-16.665716494
 20
-29.5026050045
 10
-16.7222015548
 20
-29.6880327218
 10
-16.74946132
 20
-29.7741627447
 10
-16.7782043755
 20
-29.8620677644
 10
-16.8083317205
 20
-29.9516728373
 10
-16.8398389806
 20
-30.0430109219
 10
-16.8728116536
 20
-30.1362218458
 10
-16.9071930618
 20
-30.2312557918
 10
-16.9429159675
 20
-30.3281029919
 10
-16.9800367111
 20
-30.4269564912
 10
-17.0185154584
 20
-30.5277965299
 10
-17.0582418652
 20
-30.6305591948
 10
-17.0991526971
 20
-30.7353624869
  0
LWPOLYLINE
  5
28E
100
AcDbEntity
  8
RACCORDO
100
AcDbPolyline
 62
250
  6
CONTINUOUS
 90
11
 70
0
 10
-17.3173911767
 20
-31.2874678746
 10
-17.3616975184
 20
-31.4014512218
 10
-17.4055951673
 20
-31.5159515373
 10
-17.4488662349
 20
-31.6306697844
 10
-17.4901659164
 20
-31.7438433228
 10
-17.5296195535
 20
-31.8558334661
 10
-17.5671477819
 20
-31.9662348175
 10
-17.6012832773
 20
-32.0722474048
 10
-17.6316755289
 20
-32.1730094365
 10
-17.6589662501
 20
-32.2695184131
 10
-17.683282059
 20
-32.361838989
  0
LINE
  5
28F
100
AcDbEntity
  8
RACCORDO
100
AcDbLine
 62
250
  6
CONTINUOUS
 10
-17.0991526971
 20
-30.7353624869
 11
-17.3173911767
 21
-31.2874678746
  0
LWPOLYLINE
  5
290
100
AcDbEntity
  8
RACCORDO
100
AcDbPolyline
 62
250
  6
CONTINUOUS
 90
13
 70
0
 10
-17.1429128811
 20
-27.6962266614
 10
-17.199436836
 20
-27.8338081769
 10
-17.2546956308
 20
-27.9716516308
 10
-17.3086892654
 20
-28.109757023
 10
-17.3614329597
 20
-28.2481665552
 10
-17.4129114939
 20
-28.3868380257
 10
-17.4630792088
 20
-28.5256448296
 10
-17.5119315896
 20
-28.6645767183
 10
-17.5594731512
 20
-28.8036439405
 10
-17.6056717781
 20
-28.9427506373
 10
-17.6505167656
 20
-29.081864856
 10
-17.6940188185
 20
-29.2210185493
 10
-17.7361779369
 20
-29.3602117173
  0
LWPOLYLINE
  5
291
100
AcDbEntity
  8
RACCORDO
100
AcDbPolyline
 62
250
  6
CONTINUOUS
 90
15
 70
0
 10
-16.1533888724
 20
-28.0924941113
 10
-16.1948551649
 20
-28.1923622475
 10
-16.235599249
 20
-28.2924369787
 10
-16.2756143458
 20
-28.3926997355
 10
-16.3148949724
 20
-28.4931333896
 10
-16.3534334076
 20
-28.5937178621
 10
-16.3912198076
 20
-28.6944301063
 10
-16.4282469782
 20
-28.7952487456
 10
-16.4645099493
 20
-28.8961578191
 10
-16.5000024476
 20
-28.9971423822
 10
-16.5347178037
 20
-29.0981813752
 10
-16.5686511823
 20
-29.199258524
 10
-16.6017989731
 20
-29.3003660745
 10
-16.634156145
 20
-29.4014890008
 10
-16.665716494
 20
-29.5026050045
  0
LWPOLYLINE
  5
292
100
AcDbEntity
  8
RACCORDO
100
AcDbPolyline
 62
250
  6
CONTINUOUS
 90
18
 70
0
 10
-17.152754904
 20
-14.6738074755
 10
-17.1402905423
 20
-14.6639235264
 10
-17.1285301466
 20
-14.6537509028
 10
-17.1174940848
 20
-14.6433072229
 10
-17.1072014703
 20
-14.6326105739
 10
-17.0976701288
 20
-14.6216794815
 10
-17.0889165678
 20
-14.6105328772
 10
-17.0809559476
 20
-14.599190066
 10
-17.0738020551
 20
-14.5876706923
 10
-17.0674672803
 20
-14.5759947068
 10
-17.0619625943
 20
-14.564182331
 10
-17.0572975307
 20
-14.5522540228
 10
-17.053480169
 20
-14.5402304408
 10
-17.0505171204
 20
-14.5281324089
 10
-17.0484135167
 20
-14.5159808796
 10
-17.0471730011
 20
-14.503796898
 10
-17.046797722
 20
-14.4916015658
 10
-17.0468143756
 20
-14.4898882941
  0
LWPOLYLINE
  5
293
100
AcDbEntity
  8
RACCORDO
100
AcDbPolyline
 62
250
  6
CONTINUOUS
 90
43
 70
0
 10
-17.7361777891
 20
-29.3602117987
 10
-17.7198284686
 20
-29.3594595919
 10
-17.7026706311
 20
-29.3590803404
 10
-17.684726868
 20
-29.3590745436
 10
-17.6660208053
 20
-29.3594422092
 10
-17.6465770729
 20
-29.3601828529
 10
-17.6264212719
 20
-29.3612954996
 10
-17.6055799408
 20
-29.3627786843
 10
-17.584080521
 20
-29.3646304542
 10
-17.5619513201
 20
-29.3668483711
 10
-17.5392214753
 20
-29.3694295146
 10
-17.5159209142
 20
-29.3723704862
 10
-17.4920803161
 20
-29.3756674137
 10
-17.4677310715
 20
-29.379315956
 10
-17.4429052403
 20
-29.3833113092
 10
-17.41763551
 20
-29.3876482127
 10
-17.3919551528
 20
-29.3923209562
 10
-17.3658979812
 20
-29.3973233873
 10
-17.3394983042
 20
-29.4026489192
 10
-17.3127908815
 20
-29.4082905401
 10
-17.2858108781
 20
-29.4142408218
 10
-17.2585938179
 20
-29.4204919296
 10
-17.231175537
 20
-29.4270356329
 10
-17.2035921363
 20
-29.4338633157
 10
-17.1758799342
 20
-29.4409659882
 10
-17.1480754186
 20
-29.4483342984
 10
-17.1202151991
 20
-29.4559585448
 10
-17.0923359586
 20
-29.4638286885
 10
-17.0644744049
 20
-29.4719343673
 10
-17.0366672227
 20
-29.4802649085
 10
-17.0089510249
 20
-29.4888093436
 10
-16.9813623049
 20
-29.4975564222
 10
-16.9539373879
 20
-29.5064946274
 10
-16.9267123837
 20
-29.5156121903
 10
-16.8997231389
 20
-29.5248971062
 10
-16.8730051894
 20
-29.5343371498
 10
-16.846593714
 20
-29.5439198916
 10
-16.8205234883
 20
-29.5536327142
 10
-16.7948288381
 20
-29.5634628291
 10
-16.769543595
 20
-29.5733972931
 10
-16.7447010514
 20
-29.5834230258
 10
-16.7203339169
 20
-29.5935268265
 10
-16.696474275
 20
-29.6036953919
  0
LWPOLYLINE
  5
294
100
AcDbEntity
  8
RACCORDO
100
AcDbPolyline
 62
7
  6
CONTINUOUS
 90
7
 70
0
 10
-15.8083700487
 20
-14.7689897275
 10
-15.7975481829
 20
-14.7805341351
 10
-15.7850190859
 20
-14.7949713315
 10
-15.7732429515
 20
-14.8096284005
 10
-15.7621004784
 20
-14.8246139354
 10
-15.7514300782
 20
-14.8401495313
 10
-15.7411784902
 20
-14.8563637092
  0
LWPOLYLINE
  5
295
100
AcDbEntity
  8
RACCORDO
100
AcDbPolyline
 62
250
  6
CONTINUOUS
 90
13
 70
0
 10
-16.2022341948
 20
-14.9882683704
 10
-16.2156783702
 20
-14.9737235181
 10
-16.229458236
 20
-14.9596644557
 10
-16.2435513111
 20
-14.9461141198
 10
-16.2579346037
 20
-14.9330946167
 10
-16.2725846483
 20
-14.920627187
 10
-16.2874775443
 20
-14.9087321705
 10
-16.3025889949
 20
-14.897428973
 10
-16.3178943468
 20
-14.8867360351
 10
-16.3333686302
 20
-14.8766708015
 10
-16.3489865999
 20
-14.8672496931
 10
-16.3647227762
 20
-14.8584880797
 10
-16.3805514864
 20
-14.8504002554
  0
LWPOLYLINE
  5
296
100
AcDbEntity
  8
RACCORDO
100
AcDbPolyline
 62
250
  6
CONTINUOUS
 90
15
 70
0
 10
-17.349929263
 20
12.2244296624
 10
-17.3140026979
 20
12.1041114578
 10
-17.2766886967
 20
11.9859262228
 10
-17.2380089251
 20
11.8698956622
 10
-17.1975841173
 20
11.7554009218
 10
-17.1558226084
 20
11.6431178967
 10
-17.113997584
 20
11.5349288449
 10
-17.072395357
 20
11.4310453927
 10
-17.0309160509
 20
11.3311168788
 10
-16.9903561594
 20
11.2360549633
 10
-16.9510808886
 20
11.1461507747
 10
-16.9129683021
 20
11.0608713169
 10
-16.8761024322
 20
10.9798620249
 10
-16.840559084
 20
10.9029059821
 10
-16.7738860505
 20
10.7612275486
  0
LINE
  5
297
100
AcDbEntity
  8
RACCORDO
100
AcDbLine
 62
7
  6
CONTINUOUS
 10
-15.3357342533
 20
-14.4207213082
 11
-15.7470359232
 21
-14.7268556001
  0
LINE
  5
298
100
AcDbEntity
  8
RACCORDO
100
AcDbLine
 62
7
  6
CONTINUOUS
 10
-17.0327476761
 20
-14.6690073353
 11
-16.9166948059
 21
-14.591535958
  0
LINE
  5
299
100
AcDbEntity
  8
RACCORDO
100
AcDbLine
 62
250
  6
CONTINUOUS
 10
-16.7793475623
 20
-14.6892137359
 11
-16.7395822958
 21
-14.662668335
  0
LINE
  5
29A
100
AcDbEntity
  8
RACCORDO
100
AcDbLine
 62
250
  6
CONTINUOUS
 10
-16.3547408667
 20
-14.817229329
 11
-16.3964428626
 21
-14.8429969159
  0
LINE
  5
29B
100
AcDbEntity
  8
RACCORDO
100
AcDbLine
 62
250
  6
CONTINUOUS
 10
-15.7748354539
 20
-15.2919743451
 11
-16.0274367705
 21
-15.4480562363
  0
LWPOLYLINE
  5
29C
100
AcDbEntity
  8
RACCORDO
100
AcDbPolyline
 62
250
  6
CONTINUOUS
 90
55
 70
0
 10
-16.0274367705
 20
-15.4480562363
 10
-16.0604332702
 20
-15.4678602356
 10
-16.0933480085
 20
-15.4864113773
 10
-16.1261809853
 20
-15.5037096614
 10
-16.1589670272
 20
-15.5197768297
 10
-16.1916713077
 20
-15.5345911404
 10
-16.2241893465
 20
-15.548087368
 10
-16.2565192412
 20
-15.5602577568
 10
-16.2886628943
 20
-15.5711100625
 10
-16.3205215335
 20
-15.5806023269
 10
-16.3520932102
 20
-15.5887271525
 10
-16.383379873
 20
-15.5954919368
 10
-16.4142885962
 20
-15.6008769147
 10
-16.4448113545
 20
-15.6048755925
 10
-16.4749561731
 20
-15.607494464
 10
-16.5046542022
 20
-15.6087332446
 10
-16.5338989875
 20
-15.6085896522
 10
-16.5626969834
 20
-15.607065969
 10
-16.5909987037
 20
-15.6041687563
 10
-16.618805339
 20
-15.5998967509
 10
-16.6461156987
 20
-15.5942512162
 10
-16.6728767248
 20
-15.587242503
 10
-16.6990906733
 20
-15.5788671276
 10
-16.7247552881
 20
-15.5691285739
 10
-16.7498107431
 20
-15.5580476435
 10
-16.7742557004
 20
-15.5456206335
 10
-16.7980914978
 20
-15.5318512469
 10
-16.821262323
 20
-15.5167713948
 10
-16.8437663796
 20
-15.5003774855
 10
-16.8656054639
 20
-15.4826731106
 10
-16.8867291521
 20
-15.463700956
 10
-16.9071353017
 20
-15.4434578308
 10
-16.9268260552
 20
-15.4219469258
 10
-16.9457574161
 20
-15.3992204991
 10
-16.9639255975
 20
-15.3752792455
 10
-16.9813343863
 20
-15.3501224702
 10
-16.9979511467
 20
-15.3238003469
 10
-17.0137742418
 20
-15.2963137995
 10
-17.0288053084
 20
-15.2676619042
 10
-17.0430166215
 20
-15.2378920631
 10
-17.0564096168
 20
-15.206996889
 10
-17.0689828585
 20
-15.1749837691
 10
-17.0807043138
 20
-15.141922267
 10
-17.0915731477
 20
-15.1078010312
 10
-17.1015901953
 20
-15.0726314132
 10
-17.1107259286
 20
-15.03651703
 10
-17.1189758461
 20
-14.9994520831
 10
-17.1263444492
 20
-14.961442371
 10
-17.1328157146
 20
-14.9226089072
 10
-17.138384755
 20
-14.8829455069
 10
-17.1430564577
 20
-14.8424583549
 10
-17.1468294601
 20
-14.801287019
 10
-17.1497033083
 20
-14.7594780217
 10
-17.1516784562
 20
-14.7169848406
 10
-17.152754904
 20
-14.6738074755
  0
LWPOLYLINE
  5
29D
100
AcDbEntity
  8
RACCORDO
100
AcDbPolyline
 62
250
  6
CONTINUOUS
 90
24
 70
0
 10
-16.3964427705
 20
-14.8429969529
 10
-16.4217478243
 20
-14.8575994583
 10
-16.4470213495
 20
-14.8712925017
 10
-16.4722462108
 20
-14.884059872
 10
-16.4974135128
 20
-14.8958882355
 10
-16.5224974206
 20
-14.9067596857
 10
-16.5474555189
 20
-14.9166543813
 10
-16.5722707074
 20
-14.9255609462
 10
-16.5969256474
 20
-14.9334685332
 10
-16.621378317
 20
-14.9403639524
 10
-16.6456115563
 20
-14.9462403128
 10
-16.6696093309
 20
-14.9510915996
 10
-16.6933324555
 20
-14.9549119052
 10
-16.7167602359
 20
-14.9576986017
 10
-16.7398823808
 20
-14.9594511509
 10
-16.7626762848
 20
-14.9601707106
 10
-16.7851228001
 20
-14.9598580013
 10
-16.8072118229
 20
-14.9585145471
 10
-16.8289343933
 20
-14.9561428687
 10
-16.8502772633
 20
-14.9527441964
 10
-16.8712250093
 20
-14.948320836
 10
-16.8917650683
 20
-14.9428758222
 10
-16.9118858661
 20
-14.936411215
 10
-16.928640094
 20
-14.9301204647
  0
LWPOLYLINE
  5
29E
100
AcDbEntity
  8
RACCORDO
100
AcDbPolyline
 62
7
  6
CONTINUOUS
 90
34
 70
0
 10
-16.9286414862
 20
-14.9301197276
 10
-16.9288654556
 20
-14.930032857
 10
-16.9294795876
 20
-14.9297532548
 10
-16.9303797239
 20
-14.9292547812
 10
-16.9315546943
 20
-14.9284948634
 10
-16.9331246352
 20
-14.9273427283
 10
-16.9353143056
 20
-14.9255408042
 10
-16.9381489021
 20
-14.9229361609
 10
-16.9415389637
 20
-14.9194771941
 10
-16.9454818682
 20
-14.9150337344
 10
-16.949938074
 20
-14.9095050282
 10
-16.9548098635
 20
-14.9028680626
 10
-16.9599988624
 20
-14.8951253856
 10
-16.9654388131
 20
-14.8862506878
 10
-16.9710581229
 20
-14.8762378924
 10
-16.9767676986
 20
-14.8651334453
 10
-16.9825068371
 20
-14.85295243
 10
-16.9882268912
 20
-14.8396965896
 10
-16.9938764881
 20
-14.8253857775
 10
-16.9994089786
 20
-14.8100417145
 10
-17.0047866355
 20
-14.7936719178
 10
-17.0099823458
 20
-14.7762554584
 10
-17.0149569507
 20
-14.7578150913
 10
-17.0196792132
 20
-14.7383539526
 10
-17.0241348944
 20
-14.7177973062
 10
-17.0282873144
 20
-14.6961605048
 10
-17.0321048155
 20
-14.6734422973
 10
-17.0355729027
 20
-14.6495166842
 10
-17.0386522079
 20
-14.6243873095
 10
-17.0413056456
 20
-14.5980486518
 10
-17.0435073887
 20
-14.5703348925
 10
-17.0452136984
 20
-14.5411801003
 10
-17.0463733104
 20
-14.5106368378
 10
-17.0468143188
 20
-14.4898879785
  0
LINE
  5
29F
100
AcDbEntity
  8
RACCORDO
100
AcDbLine
 62
7
  6
CONTINUOUS
 10
-16.928640094
 20
-14.9301204647
 11
-16.9287992085
 21
-14.9300566003
  0
LINE
  5
2A0
100
AcDbEntity
  8
RACCORDO
100
AcDbLine
 62
250
  6
CONTINUOUS
 10
-16.3964428626
 20
-14.8429969159
 11
-16.7793475623
 21
-14.6892137359
  0
LINE
  5
2A1
100
AcDbEntity
  8
RACCORDO
100
AcDbLine
 62
7
  6
CONTINUOUS
 10
-16.2610403487
 20
-14.8548615694
 11
-17.0452622853
 21
-14.5399003598
  0
LINE
  5
2A2
100
AcDbEntity
  8
RACCORDO
100
AcDbLine
 62
250
  6
CONTINUOUS
 10
-16.5622196192
 20
-14.1907387794
 11
-17.0533042801
 21
-13.9935081084
  0
LINE
  5
2A3
100
AcDbEntity
  8
RACCORDO
100
AcDbLine
 62
250
  6
CONTINUOUS
 10
-16.3805514864
 20
-14.8504002554
 11
-16.3964469071
 21
-14.842999415
  0
LWPOLYLINE
  5
2A4
100
AcDbEntity
  8
RACCORDO
100
AcDbPolyline
 62
250
  6
CONTINUOUS
 90
19
 70
0
 10
19.0002381715
 20
-47.131415621
 10
18.9912898287
 20
-47.1197668403
 10
18.9813070967
 20
-47.1083759849
 10
18.9703036866
 20
-47.0972587
 10
18.9582947115
 20
-47.0864302552
 10
18.9452966654
 20
-47.075905523
 10
18.9313274011
 20
-47.0656989592
 10
18.9164061053
 20
-47.0558245823
 10
18.9005532719
 20
-47.0462959546
 10
18.8837906749
 20
-47.0371261635
 10
18.8661413373
 20
-47.0283278038
 10
18.8476295004
 20
-47.0199129597
 10
18.8282805899
 20
-47.0118931891
 10
18.8081211812
 20
-47.0042795069
 10
18.7871789631
 20
-46.9970823704
 10
18.7654826995
 20
-46.9903116649
 10
18.7430621899
 20
-46.9839766897
 10
18.7199482285
 20
-46.978086146
 10
18.6961725622
 20
-46.9726481243
  0
LWPOLYLINE
  5
2A5
100
AcDbEntity
  8
RACCORDO
100
AcDbPolyline
 62
250
  6
CONTINUOUS
 90
13
 70
0
 10
-17.7322012847
 20
10.2421408065
 10
-17.6913639946
 20
10.1591635746
 10
-17.6490572579
 20
10.0783017234
 10
-17.6052810745
 20
9.999555253
 10
-17.5600211335
 20
9.9229004443
 10
-17.5132917459
 20
9.8483610164
 10
-17.4651358445
 20
9.7760081265
 10
-17.415551615
 20
9.7058433784
 10
-17.3645408716
 20
9.6378651684
 10
-17.3121519899
 20
9.5721398424
 10
-17.258401095
 20
9.5086895155
 10
-17.2032720617
 20
9.4474920725
 10
-17.14676489
 20
9.3885475135
  0
LINE
  5
2A6
100
AcDbEntity
  8
RACCORDO
100
AcDbLine
 62
250
  6
CONTINUOUS
 10
-16.7138019047
 20
10.6355372558
 11
-16.68643771
 21
10.5783976381
  0
LINE
  5
2A7
100
AcDbEntity
  8
RACCORDO
100
AcDbLine
 62
250
  6
CONTINUOUS
 10
-16.7738860505
 20
10.7612275486
 11
-16.7138019047
 21
10.6355372558
  0
LWPOLYLINE
  5
2A8
100
AcDbEntity
  8
RACCORDO
100
AcDbPolyline
 62
250
  6
CONTINUOUS
 90
18
 70
0
 10
-17.0316791045
 20
-14.6759757319
 10
-17.0271816527
 20
-14.6742011649
 10
-17.0133817593
 20
-14.6696164342
 10
-16.9992434665
 20
-14.6657571042
 10
-16.9847896622
 20
-14.6626294224
 10
-16.9700437452
 20
-14.6602384521
 10
-16.9550295872
 20
-14.6585880641
 10
-16.939771494
 20
-14.65768093
 10
-16.9242941664
 20
-14.6575185185
 10
-16.9086226601
 20
-14.6581010923
 10
-16.8927823452
 20
-14.6594277085
 10
-16.8767988649
 20
-14.6614962194
 10
-16.8606980943
 20
-14.6643032764
 10
-16.8445060984
 20
-14.6678443351
 10
-16.8282490899
 20
-14.6721136632
 10
-16.8119533867
 20
-14.6771043492
 10
-16.7956453692
 20
-14.6828083138
 10
-16.7793514379
 20
-14.689216323
  0
LWPOLYLINE
  5
2A9
100
AcDbEntity
  8
RACCORDO
100
AcDbPolyline
 62
7
  6
CONTINUOUS
 90
9
 70
0
 10
-16.2610254179
 20
-14.8548243901
 10
-16.2125799433
 20
-14.8701393901
 10
-16.1532351692
 20
-14.8787322371
 10
-16.0901352204
 20
-14.8771531738
 10
-16.0236742818
 20
-14.8657184405
 10
-15.955926471
 20
-14.8449219275
 10
-15.8875831606
 20
-14.8149282648
 10
-15.817952978
 20
-14.7755728224
 10
-15.7470359232
 20
-14.7268556001
  0
LWPOLYLINE
  5
2AA
100
AcDbEntity
  8
RACCORDO
100
AcDbPolyline
 62
250
  6
CONTINUOUS
 90
16
 70
0
 10
-16.68643771
 20
10.5783976381
 10
-16.6567011222
 20
10.5179448223
 10
-16.6260884967
 20
10.4586857253
 10
-16.5946053076
 20
10.4006322192
 10
-16.5622566092
 20
10.3437955823
 10
-16.5290487775
 20
10.2881875597
 10
-16.4949895306
 20
10.2338203265
 10
-16.4600849057
 20
10.1807046389
 10
-16.4243412934
 20
10.1288512115
 10
-16.3877672277
 20
10.0782716975
 10
-16.3503692272
 20
10.0289760293
 10
-16.3121541945
 20
9.9809741118
 10
-16.2731315428
 20
9.9342770414
 10
-16.2333092346
 20
9.8888945187
 10
-16.1926937327
 20
9.8448349313
 10
-16.1512924663
 20
9.8021069312
  0
LWPOLYLINE
  5
2AB
100
AcDbEntity
  8
RACCORDO
100
AcDbPolyline
 62
250
  6
CONTINUOUS
 90
20
 70
0
 10
-15.5294266264
 20
-26.9067616397
 10
-15.517984551
 20
-26.8968592166
 10
-15.5065367911
 20
-26.8876047323
 10
-15.4951015884
 20
-26.8790129335
 10
-15.4836971644
 20
-26.8710975111
 10
-15.4723416918
 20
-26.8638710779
 10
-15.461053265
 20
-26.857345149
 10
-15.4498498718
 20
-26.8515301235
 10
-15.4387493644
 20
-26.8464352672
 10
-15.4277694311
 20
-26.8420686989
 10
-15.416927568
 20
-26.8384373764
 10
-15.4062410513
 20
-26.8355470863
 10
-15.3957269095
 20
-26.8334024341
 10
-15.3854018967
 20
-26.8320068375
 10
-15.3752824654
 20
-26.8313625202
 10
-15.3653847406
 20
-26.8314705091
 10
-15.3557244939
 20
-26.8323306322
 10
-15.3463171188
 20
-26.833941519
 10
-15.3371776056
 20
-26.8363006026
 10
-15.328074135
 20
-26.8395027304
  0
LINE
  5
2AC
100
AcDbEntity
  8
RACCORDO
100
AcDbLine
 62
250
  6
CONTINUOUS
 10
-15.5294266264
 20
-26.9067616397
 11
-16.1771390817
 21
-27.4273790362
  0
LWPOLYLINE
  5
2AD
100
AcDbEntity
  8
RACCORDO
100
AcDbPolyline
 62
250
  6
CONTINUOUS
 90
27
 70
0
 10
-15.7748354539
 20
-26.5627910945
 10
-16.4250005661
 20
-27.0853688563
 10
-16.4274767462
 20
-27.0873251706
 10
-16.4299764495
 20
-27.0892774339
 10
-16.4324989292
 20
-27.0912252203
 10
-16.4350449322
 20
-27.0931689558
 10
-16.4376166986
 20
-27.0951099178
 10
-16.4402141677
 20
-27.0970480877
 10
-16.4428374003
 20
-27.0989834841
 10
-16.4454888193
 20
-27.1009174417
 10
-16.4481683618
 20
-27.1028499378
 10
-16.4508760907
 20
-27.1047809951
 10
-16.4536146173
 20
-27.1067120151
 10
-16.4563838885
 20
-27.1086429776
 10
-16.4591839575
 20
-27.1105739028
 10
-16.4620175954
 20
-27.1125062533
 10
-16.4648847724
 20
-27.1144400173
 10
-16.4677855183
 20
-27.1163752064
 10
-16.4707226933
 20
-27.1183133181
 10
-16.473696215
 20
-27.1202542979
 10
-16.4767061657
 20
-27.1221982002
 10
-16.4797556524
 20
-27.1241466858
 10
-16.4828444307
 20
-27.1260995964
 10
-16.4859727451
 20
-27.1280570903
 10
-16.4891444355
 20
-27.1300213029
 10
-16.4923593995
 20
-27.1319921627
 10
-16.4956177396
 20
-27.1339697414
  0
LWPOLYLINE
  5
2AE
100
AcDbEntity
  8
RACCORDO
100
AcDbPolyline
 62
250
  6
CONTINUOUS
 90
42
 70
0
 10
-16.1771390817
 20
-27.4273790362
 10
-16.180112198
 20
-27.4297186275
 10
-16.1831151628
 20
-27.4322537788
 10
-16.1861477012
 20
-27.4349880381
 10
-16.1892218153
 20
-27.4379193727
 10
-16.1923248207
 20
-27.4410573379
 10
-16.1954193388
 20
-27.4444231306
 10
-16.1985068914
 20
-27.4480231303
 10
-16.2015849358
 20
-27.451859466
 10
-16.2046099116
 20
-27.4559470468
 10
-16.2075790964
 20
-27.4602871806
 10
-16.2104938137
 20
-27.4648873438
 10
-16.213316461
 20
-27.469771817
 10
-16.2160465983
 20
-27.4749443252
 10
-16.2186827336
 20
-27.4804107968
 10
-16.2211855075
 20
-27.4861992773
 10
-16.2235547575
 20
-27.492315048
 10
-16.2257880255
 20
-27.4987633945
 10
-16.2278422795
 20
-27.5055728564
 10
-16.2297166055
 20
-27.5127489701
 10
-16.2314084547
 20
-27.520297474
 10
-16.2328720669
 20
-27.5282476253
 10
-16.2341056174
 20
-27.5366050152
 10
-16.2351064488
 20
-27.5453758356
 10
-16.235827215
 20
-27.554590623
 10
-16.2362652843
 20
-27.564251126
 10
-16.2364175943
 20
-27.5743676284
 10
-16.2362356442
 20
-27.5849841921
 10
-16.2357170358
 20
-27.5960983019
 10
-16.2348567957
 20
-27.6077252574
 10
-16.2336015836
 20
-27.6199376598
 10
-16.2319456268
 20
-27.6327415387
 10
-16.2298845773
 20
-27.6461458645
 10
-16.2273656647
 20
-27.6602303605
 10
-16.2243188126
 20
-27.6751923828
 10
-16.2207987302
 20
-27.6908548612
 10
-16.216944397
 20
-27.7067241565
 10
-16.212716509
 20
-27.7227988879
 10
-16.2081508306
 20
-27.7390705768
 10
-16.2035109618
 20
-27.755011176
 10
-16.1988508567
 20
-27.7704271041
 10
-16.1894637878
 20
-27.8001720425
  0
LWPOLYLINE
  5
2AF
100
AcDbEntity
  8
RACCORDO
100
AcDbPolyline
 62
250
  6
CONTINUOUS
 90
17
 70
0
 10
-15.7748354539
 20
-26.5627910945
 10
-15.7623686184
 20
-26.5532352541
 10
-15.7506057617
 20
-26.5433901675
 10
-15.7395672562
 20
-26.5332728857
 10
-15.7292722197
 20
-26.5229009311
 10
-15.7197384824
 20
-26.512292267
 10
-15.7109825562
 20
-26.5014652668
 10
-15.7030196054
 20
-26.4904386822
 10
-15.6958634215
 20
-26.4792316102
 10
-15.6895263982
 20
-26.4678634608
 10
-15.684019511
 20
-26.4563539226
 10
-15.6793522972
 20
-26.4447229293
 10
-15.6755328402
 20
-26.4329906249
 10
-15.6725677549
 20
-26.4211773289
 10
-15.6704621766
 20
-26.4093035009
 10
-15.6692197521
 20
-26.3973897055
 10
-15.6688408308
 20
-26.3862339125
  0
LINE
  5
2B0
100
AcDbEntity
  8
RACCORDO
100
AcDbLine
 62
250
  6
CONTINUOUS
 10
-16.4956177396
 20
-27.1339697414
 11
-16.502276937
 21
-27.137952048
  0
LINE
  5
2B1
100
AcDbEntity
  8
RACCORDO
100
AcDbLine
 62
250
  6
CONTINUOUS
 10
-16.502276937
 20
-27.137952048
 11
-16.5091304894
 21
-27.1419730957
  0
LINE
  5
2B2
100
AcDbEntity
  8
RACCORDO
100
AcDbLine
 62
250
  6
CONTINUOUS
 10
-16.5091304894
 20
-27.1419730957
 11
-16.5161910968
 21
-27.146040253
  0
LWPOLYLINE
  5
2B3
100
AcDbEntity
  8
RACCORDO
100
AcDbPolyline
 62
250
  6
CONTINUOUS
 90
98
 70
0
 10
-16.7223755333
 20
-27.2551768159
 10
-16.7307008152
 20
-27.2598967247
 10
-16.7393341855
 20
-27.2648593067
 10
-16.74822495
 20
-27.2700351377
 10
-16.7572206
 20
-27.2753617067
 10
-16.7663560874
 20
-27.2808670936
 10
-16.7755964605
 20
-27.2865232185
 10
-16.7846843556
 20
-27.2921833305
 10
-16.7935659247
 20
-27.2978218926
 10
-16.8022950159
 20
-27.303464442
 10
-16.8107758099
 20
-27.3090408393
 10
-16.8189632706
 20
-27.3145233875
 10
-16.8269024342
 20
-27.3199397837
 10
-16.8346325893
 20
-27.3253029798
 10
-16.842156162
 20
-27.33061362
 10
-16.8494707263
 20
-27.3358710602
 10
-16.8566082928
 20
-27.3410863201
 10
-16.8635724054
 20
-27.3462611741
 10
-16.8703595201
 20
-27.3513938478
 10
-16.8769910161
 20
-27.3564900376
 10
-16.8834680768
 20
-27.3615500424
 10
-16.8897895187
 20
-27.3665735633
 10
-16.8959731706
 20
-27.3715654002
 10
-16.9020200592
 20
-27.3765258505
 10
-16.9079291578
 20
-27.3814546167
 10
-16.9137152145
 20
-27.3863556061
 10
-16.9193791974
 20
-27.3912291992
 10
-16.9249201385
 20
-27.3960750155
 10
-16.9303498819
 20
-27.4008958199
 10
-16.9356689001
 20
-27.4056916561
 10
-16.9408767206
 20
-27.4104624805
 10
-16.9459837708
 20
-27.4152109272
 10
-16.950990603
 20
-27.4199371799
 10
-16.9558966649
 20
-27.424641055
 10
-16.9607107272
 20
-27.4293246362
 10
-16.9654329877
 20
-27.4339878131
 10
-16.9700632485
 20
-27.438630696
 10
-16.9746096866
 20
-27.4432556995
 10
-16.9790727279
 20
-27.4478629803
 10
-16.9834519464
 20
-27.4524523816
 10
-16.987754241
 20
-27.4570258473
 10
-16.9919798154
 20
-27.4615833456
 10
-16.996128466
 20
-27.4661249083
 10
-17.0002064801
 20
-27.4706525753
 10
-17.0042143453
 20
-27.4751666826
 10
-17.0081515741
 20
-27.4796668942
 10
-17.0120229915
 20
-27.484154242
 10
-17.0158283356
 20
-27.4886282094
 10
-17.0195678684
 20
-27.493089313
 10
-17.0232472009
 20
-27.4975401346
 10
-17.0268659992
 20
-27.5019799682
 10
-17.0304245973
 20
-27.5064095199
 10
-17.0339296084
 20
-27.5108334888
 10
-17.0373818654
 20
-27.5152526572
 10
-17.0407805355
 20
-27.5196662429
 10
-17.0441297336
 20
-27.5240765991
 10
-17.0474310853
 20
-27.5284858587
 10
-17.0506829651
 20
-27.5328918888
 10
-17.0538846109
 20
-27.537290644
 10
-17.0570363794
 20
-27.5416828289
 10
-17.0601379139
 20
-27.5460677389
 10
-17.0631873822
 20
-27.5504392152
 10
-17.0661845256
 20
-27.5547971269
 10
-17.0691296028
 20
-27.5591416048
 10
-17.0720215575
 20
-27.5634668826
 10
-17.0748596875
 20
-27.5677720403
 10
-17.077644695
 20
-27.5720579978
 10
-17.0803776305
 20
-27.5763217486
 10
-17.0830582329
 20
-27.5805628999
 10
-17.0856867633
 20
-27.5847818445
 10
-17.0882650563
 20
-27.5889767541
 10
-17.0907931214
 20
-27.5931476261
 10
-17.0932709492
 20
-27.5972944632
 10
-17.0957003454
 20
-27.6014154453
 10
-17.0980806382
 20
-27.6055093046
 10
-17.1004124995
 20
-27.609577309
 10
-17.10269975
 20
-27.613621442
 10
-17.1049415549
 20
-27.6176398542
 10
-17.1071387491
 20
-27.6216343951
 10
-17.1092976582
 20
-27.6256125967
 10
-17.1114186258
 20
-27.6295746169
 10
-17.1135013082
 20
-27.6335202979
 10
-17.1155510005
 20
-27.6374566979
 10
-17.1175683491
 20
-27.6413846922
 10
-17.1195527076
 20
-27.6453034055
 10
-17.121507431
 20
-27.6492172702
 10
-17.1234326907
 20
-27.6531263467
 10
-17.1253283154
 20
-27.6570305747
 10
-17.1271971467
 20
-27.660934205
 10
-17.1290392145
 20
-27.6648370042
 10
-17.1308544889
 20
-27.6687392058
 10
-17.1326457214
 20
-27.6726457612
 10
-17.1344131205
 20
-27.676556831
 10
-17.1361564777
 20
-27.6804722546
 10
-17.1378779197
 20
-27.6843965024
 10
-17.1395781554
 20
-27.6883310645
 10
-17.1412564758
 20
-27.6922744508
 10
-17.1429128811
 20
-27.6962266614
  0
LINE
  5
2B4
100
AcDbEntity
  8
RACCORDO
100
AcDbLine
 62
250
  6
CONTINUOUS
 10
-16.5161910968
 20
-27.146040253
 11
-16.5234732958
 21
-27.1501624169
  0
LINE
  5
2B5
100
AcDbEntity
  8
RACCORDO
100
AcDbLine
 62
250
  6
CONTINUOUS
 10
-16.5234732958
 20
-27.1501624169
 11
-16.5309867172
 21
-27.1543456602
  0
LWPOLYLINE
  5
2B6
100
AcDbEntity
  8
RACCORDO
100
AcDbPolyline
 62
250
  6
CONTINUOUS
 90
3
 70
0
 10
-16.6989711314
 20
-27.2422307374
 10
-16.7064975779
 20
-27.2463509831
 10
-16.7223755333
 20
-27.2551768159
  0
LINE
  5
2B7
100
AcDbEntity
  8
RACCORDO
100
AcDbLine
 62
250
  6
CONTINUOUS
 10
-16.5309867172
 20
-27.1543456602
 11
-16.5387461398
 21
-27.158599442
  0
LINE
  5
2B8
100
AcDbEntity
  8
RACCORDO
100
AcDbLine
 62
250
  6
CONTINUOUS
 10
-16.5387461398
 20
-27.158599442
 11
-16.5467648233
 21
-27.162933441
  0
LINE
  5
2B9
100
AcDbEntity
  8
RACCORDO
100
AcDbLine
 62
250
  6
CONTINUOUS
 10
-16.6846147207
 20
-27.2344926228
 11
-16.6989711314
 21
-27.2422307374
  0
LINE
  5
2BA
100
AcDbEntity
  8
RACCORDO
100
AcDbLine
 62
250
  6
CONTINUOUS
 10
-16.5467648233
 20
-27.162933441
 11
-16.5550541276
 21
-27.1673557691
  0
LINE
  5
2BB
100
AcDbEntity
  8
RACCORDO
100
AcDbLine
 62
250
  6
CONTINUOUS
 10
-16.6709422306
 20
-27.2272387611
 11
-16.6846147207
 21
-27.2344926228
  0
LINE
  5
2BC
100
AcDbEntity
  8
RACCORDO
100
AcDbLine
 62
250
  6
CONTINUOUS
 10
-16.5550541276
 20
-27.1673557691
 11
-16.5680409759
 21
-27.1741873523
  0
LINE
  5
2BD
100
AcDbEntity
  8
RACCORDO
100
AcDbLine
 62
250
  6
CONTINUOUS
 10
-16.6579408085
 20
-27.2204278488
 11
-16.6709422306
 21
-27.2272387611
  0
LINE
  5
2BE
100
AcDbEntity
  8
RACCORDO
100
AcDbLine
 62
250
  6
CONTINUOUS
 10
-16.5680409759
 20
-27.1741873523
 11
-16.5817526416
 21
-27.181302499
  0
LINE
  5
2BF
100
AcDbEntity
  8
RACCORDO
100
AcDbLine
 62
250
  6
CONTINUOUS
 10
-16.639598432
 20
-27.2109380248
 11
-16.6579408085
 21
-27.2204278488
  0
LINE
  5
2C0
100
AcDbEntity
  8
RACCORDO
100
AcDbLine
 62
250
  6
CONTINUOUS
 10
-16.5817526416
 20
-27.181302499
 11
-16.639598432
 21
-27.2109380248
  0
LINE
  5
2C1
100
AcDbEntity
  8
RACCORDO
100
AcDbLine
 62
250
  6
CONTINUOUS
 10
-17.0317229851
 20
-3.283148777
 11
-16.5622196192
 21
-3.4717119135
  0
LINE
  5
2C2
100
AcDbEntity
  8
RACCORDO
100
AcDbLine
 62
250
  6
CONTINUOUS
 10
-16.10265767
 20
-1.4572505997
 11
-15.7470359232
 21
-1.6000763105
  0
LWPOLYLINE
  5
2C3
100
AcDbEntity
  8
RACCORDO
100
AcDbPolyline
 62
250
  6
CONTINUOUS
 90
25
 70
0
 10
-16.1512924747
 20
9.8021069345
 10
-16.1493625689
 20
9.8002250721
 10
-16.1475373768
 20
9.7983833372
 10
-16.1458155967
 20
9.7965844537
 10
-16.1441842412
 20
9.7948310874
 10
-16.1426537519
 20
9.7931260315
 10
-16.1412572995
 20
9.7914735911
 10
-16.1399830787
 20
9.7898689326
 10
-16.1388384981
 20
9.7883263697
 10
-16.1378850678
 20
9.7868799875
 10
-16.1371258414
 20
9.785536588
 10
-16.1365537619
 20
9.7842985667
 10
-16.1362155533
 20
9.783192752
 10
-16.1361155642
 20
9.7822264293
 10
-16.1362456815
 20
9.7814015741
 10
-16.1366342567
 20
9.7807365182
 10
-16.1372860508
 20
9.7802388349
 10
-16.1381927818
 20
9.7799103062
 10
-16.1393634152
 20
9.7797603518
 10
-16.1407997894
 20
9.7797959665
 10
-16.1424966786
 20
9.7800199035
 10
-16.1444521358
 20
9.7804361511
 10
-16.1466626686
 20
9.7810507058
 10
-16.1491277503
 20
9.7818696548
 10
-16.1519269749
 20
9.7829321456
  0
LWPOLYLINE
  5
2C4
100
AcDbEntity
  8
RACCORDO
100
AcDbPolyline
 62
250
  6
CONTINUOUS
 90
99
 70
0
 10
-17.14676489
 20
9.3885475135
 10
-17.1451005458
 20
9.3868980497
 10
-17.1434129123
 20
9.3852903292
 10
-17.1417019895
 20
9.3837243521
 10
-17.1399685558
 20
9.3822006389
 10
-17.1382118328
 20
9.380718669
 10
-17.1364294856
 20
9.3792768807
 10
-17.1346216138
 20
9.3778750424
 10
-17.1327881178
 20
9.3765133857
 10
-17.130926363
 20
9.3751910426
 10
-17.1290363672
 20
9.3739077373
 10
-17.1271181126
 20
9.3726637458
 10
-17.1251689108
 20
9.371459028
 10
-17.1231892155
 20
9.3702935357
 10
-17.121178573
 20
9.3691673171
 10
-17.1191329345
 20
9.3680804769
 10
-17.1170530578
 20
9.3670329329
 10
-17.1149381851
 20
9.3660247672
 10
-17.1127819942
 20
9.3650563307
 10
-17.1105842135
 20
9.3641270101
 10
-17.1083451146
 20
9.3632374187
 10
-17.1060591902
 20
9.3623897474
 10
-17.1037254664
 20
9.3615833871
 10
-17.1013449169
 20
9.3608189469
 10
-17.0989149558
 20
9.3601004444
 10
-17.096435341
 20
9.3594277518
 10
-17.0939063145
 20
9.3588009969
 10
-17.091326016
 20
9.3582245804
 10
-17.0886943856
 20
9.3576984798
 10
-17.0860114832
 20
9.3572227177
 10
-17.0832756277
 20
9.3568017623
 10
-17.0804863279
 20
9.3564356087
 10
-17.0776440749
 20
9.3561242619
 10
-17.0747486608
 20
9.3558722051
 10
-17.0717995071
 20
9.35567959
 10
-17.0687971921
 20
9.3555462648
 10
-17.0657432435
 20
9.3554762574
 10
-17.0626376032
 20
9.3554698227
 10
-17.0594803292
 20
9.3555267058
 10
-17.0562731229
 20
9.3556501701
 10
-17.0530168
 20
9.3558403202
 10
-17.0497105448
 20
9.3560970516
 10
-17.046353611
 20
9.3564233133
 10
-17.042947403
 20
9.3568188424
 10
-17.0394905164
 20
9.3572839019
 10
-17.0359779923
 20
9.3578222307
 10
-17.0324101458
 20
9.3584334951
 10
-17.0287866618
 20
9.3591180288
 10
-17.0251016355
 20
9.3598805711
 10
-17.021354986
 20
9.3607208628
 10
-17.0175467941
 20
9.3616391631
 10
-17.013671398
 20
9.3626409896
 10
-17.0097286531
 20
9.3637261541
 10
-17.0057187039
 20
9.3648948448
 10
-17.0016363219
 20
9.3661531438
 10
-16.9974815712
 20
9.367500835
 10
-16.9932543878
 20
9.3689381345
 10
-16.9889493506
 20
9.3704717732
 10
-16.9845668382
 20
9.3721013975
 10
-16.9801064721
 20
9.3738273609
 10
-16.9755616959
 20
9.3756574551
 10
-16.970932902
 20
9.3775912571
 10
-16.966219698
 20
9.3796291898
 10
-16.9614143499
 20
9.381780314
 10
-16.9565171026
 20
9.3840442278
 10
-16.9515277112
 20
9.386421333
 10
-16.9464377069
 20
9.3889218965
 10
-16.941247535
 20
9.3915453779
 10
-16.9359567502
 20
9.3942923176
 10
-16.9305555487
 20
9.3971746029
 10
-16.9250443001
 20
9.4001916835
 10
-16.9194226347
 20
9.4033441098
 10
-16.9136796395
 20
9.4066454204
 10
-16.9078159122
 20
9.4100948816
 10
-16.9018308551
 20
9.4136932271
 10
-16.895711762
 20
9.4174561968
 10
-16.8894597153
 20
9.4213826542
 10
-16.8830736326
 20
9.4254737357
 10
-16.876537561
 20
9.4297485906
 10
-16.8698524091
 20
9.4342060766
 10
-16.8630172683
 20
9.4388473359
 10
-16.8560134594
 20
9.4436949443
 10
-16.8488452453
 20
9.448745111
 10
-16.8415083632
 20
9.4540016267
 10
-16.8339713455
 20
9.45949844
 10
-16.8262377296
 20
9.4652317546
 10
-16.8183039781
 20
9.4712053668
 10
-16.8101280112
 20
9.477464614
 10
-16.8016686266
 20
9.4840429767
 10
-16.7929670266
 20
9.4909069745
 10
-16.7841047387
 20
9.4980015031
 10
-16.7750293788
 20
9.5053765021
 10
-16.7657933309
 20
9.5129820321
 10
-16.7566352744
 20
9.5206131702
 10
-16.7475793722
 20
9.5282571441
 10
-16.7386014613
 20
9.5359267262
 10
-16.7298677319
 20
9.5434553114
 10
-16.7214298269
 20
9.550799369
 10
-16.705297822
 20
9.5650284811
  0
LWPOLYLINE
  5
2C5
100
AcDbEntity
  8
0
100
AcDbPolyline
 62
250
  6
CONTINUOUS
 90
64
 70
0
 10
32.7780118715
 20
6.2071140807
 10
32.710048259
 20
6.140174442
 10
32.6422717282
 20
6.0712856969
 10
32.5747141606
 20
6.0004802499
 10
32.5074073346
 20
5.9277914072
 10
32.4403829105
 20
5.8532533609
 10
32.3736724161
 20
5.7769011729
 10
32.3073072313
 20
5.6987707584
 10
32.2413185735
 20
5.6188988694
 10
32.1757374832
 20
5.5373230766
 10
32.110594809
 20
5.4540817525
 10
32.0459211934
 20
5.369214053
 10
31.9817470582
 20
5.2827598989
 10
31.9181025902
 20
5.1947599575
 10
31.8550177272
 20
5.105255623
 10
31.7925221437
 20
5.0142889974
 10
31.7306452369
 20
4.9219028703
 10
31.6694161131
 20
4.8281406994
 10
31.6088635739
 20
4.7330465894
 10
31.5490161025
 20
4.6366652715
 10
31.4899018507
 20
4.5390420826
 10
31.431548625
 20
4.4402229437
 10
31.3739838744
 20
4.3402543382
 10
31.3172346767
 20
4.2391832904
 10
31.2613277261
 20
4.137057343
 10
31.2062893206
 20
4.0339245351
 10
31.1521453499
 20
3.9298333793
 10
31.0989212826
 20
3.824832839
 10
31.0466421549
 20
3.7189723054
 10
30.9953325583
 20
3.6123015742
 10
30.9450166282
 20
3.5048708223
 10
30.8957180329
 20
3.3967305839
 10
30.8474599619
 20
3.2879317272
 10
30.8002651152
 20
3.17852543
 10
30.7541556928
 20
3.068563156
 10
30.7091533843
 20
2.9580966302
 10
30.6652793581
 20
2.847177815
 10
30.6225542522
 20
2.7358588855
 10
30.580998164
 20
2.624192205
 10
30.5406306411
 20
2.5122303003
 10
30.501470672
 20
2.4000258372
 10
30.4635366771
 20
2.2876315955
 10
30.4268465002
 20
2.1751004444
 10
30.3914173999
 20
2.0624853173
 10
30.3572660418
 20
1.9498391872
 10
30.3244084904
 20
1.8372150418
 10
30.2928602013
 20
1.7246658584
 10
30.2626360148
 20
1.6122445788
 10
30.2337501478
 20
1.5000040849
 10
30.2062161881
 20
1.3879971735
 10
30.1800470873
 20
1.2762765315
 10
30.1552551552
 20
1.1648947112
 10
30.1318520534
 20
1.0539041055
 10
30.1098487908
 20
0.9433569231
 10
30.0892557173
 20
0.8333051645
 10
30.0700825197
 20
0.7238005967
 10
30.052338217
 20
0.6148947296
 10
30.0360311558
 20
0.5066387915
 10
30.0211690069
 20
0.3990837049
 10
30.0077587612
 20
0.2922800625
 10
29.9958067267
 20
0.1862781036
 10
29.9853185257
 20
0.0811276907
 10
29.9762990916
 20
-0.0231217147
 10
29.9687526671
 20
-0.1264210748
  0
LINE
  5
2C6
100
AcDbEntity
  8
0
100
AcDbLine
 62
250
  6
CONTINUOUS
 10
34.1345003653
 20
7.5218993005
 11
32.7780118715
 21
6.2071140807
  0
LWPOLYLINE
  5
2C7
100
AcDbEntity
  8
0
100
AcDbPolyline
 62
250
  6
CONTINUOUS
 90
67
 70
0
 10
38.9593151131
 20
-2.0692074749
 10
38.8780929045
 20
-2.1126191892
 10
38.7949025748
 20
-2.1552465202
 10
38.7097846239
 20
-2.1970687154
 10
38.6227804901
 20
-2.2380654142
 10
38.5339325301
 20
-2.2782166581
 10
38.443283998
 20
-2.3175029001
 10
38.3508790246
 20
-2.3559050143
 10
38.2567625959
 20
-2.3934043053
 10
38.1609805309
 20
-2.4299825171
 10
38.0635794595
 20
-2.4656218422
 10
37.9646068001
 20
-2.5003049302
 10
37.8641107357
 20
-2.5340148961
 10
37.7621401914
 20
-2.5667353288
 10
37.6587448099
 20
-2.5984502989
 10
37.5539749275
 20
-2.6291443663
 10
37.4478815499
 20
-2.6588025884
 10
37.3405163269
 20
-2.6874105263
 10
37.2319315275
 20
-2.7149542527
 10
37.1221800146
 20
-2.7414203585
 10
37.0113152189
 20
-2.766795959
 10
36.8993911132
 20
-2.7910687006
 10
36.786462186
 20
-2.8142267664
 10
36.6725834149
 20
-2.8362588822
 10
36.55781024
 20
-2.8571543222
 10
36.4421985367
 20
-2.8769029137
 10
36.3258045889
 20
-2.8954950424
 10
36.208685061
 20
-2.9129216569
 10
36.0908969708
 20
-2.9291742736
 10
35.9724976617
 20
-2.9442449799
 10
35.8535447743
 20
-2.9581264391
 10
35.7340962191
 20
-2.9708118931
 10
35.6142101477
 20
-2.9822951661
 10
35.4939449246
 20
-2.9925706679
 10
35.3733590992
 20
-3.0016333958
 10
35.2525113767
 20
-3.0094789379
 10
35.1314605899
 20
-3.0161034746
 10
35.0102656704
 20
-3.021503781
 10
34.8889856202
 20
-3.025677228
 10
34.7676794823
 20
-3.0286217837
 10
34.6464063129
 20
-3.0303360147
 10
34.5252251518
 20
-3.0308190864
 10
34.4041949941
 20
-3.0300707638
 10
34.2833747615
 20
-3.0280914109
 10
34.1628232734
 20
-3.0248819916
 10
34.0425992183
 20
-3.0204440682
 10
33.9227611255
 20
-3.0147798013
 10
33.8033673361
 20
-3.0078919484
 10
33.6844759752
 20
-2.9997838627
 10
33.5661449231
 20
-2.9904594917
 10
33.4484317875
 20
-2.9799233746
 10
33.331393875
 20
-2.9681806409
 10
33.2150881638
 20
-2.9552370072
 10
33.0995712754
 20
-2.9410987751
 10
32.9848994474
 20
-2.9257728274
 10
32.871128506
 20
-2.9092666253
 10
32.7583138387
 20
-2.8915882048
 10
32.6465103675
 20
-2.8727461721
 10
32.5357725222
 20
-2.8527497002
 10
32.4261542138
 20
-2.8316085242
 10
32.3177088082
 20
-2.8093329362
 10
32.2104891003
 20
-2.7859337809
 10
32.1045472884
 20
-2.7614224495
 10
31.9999349484
 20
-2.7358108753
 10
31.8967030094
 20
-2.7091115266
 10
31.794901728
 20
-2.6813374017
 10
31.6945806646
 20
-2.652502022
  0
LWPOLYLINE
  5
2C8
100
AcDbEntity
  8
RACCORDO
100
AcDbPolyline
 62
250
  6
CONTINUOUS
 90
11
 70
0
 10
-17.0040699024
 20
-14.7958536813
 10
-16.9905144809
 20
-14.7920002203
 10
-16.9675547325
 20
-14.7845087533
 10
-16.9444069924
 20
-14.7760014141
 10
-16.9211086746
 20
-14.7664933233
 10
-16.8976771276
 20
-14.7559954012
 10
-16.8741293978
 20
-14.7445190984
 10
-16.8505031907
 20
-14.7320861761
 10
-16.8268227494
 20
-14.7187152156
 10
-16.8030984966
 20
-14.7044189861
 10
-16.7793475315
 20
-14.6892137482
  0
LINE
  5
2C9
100
AcDbEntity
  8
DRAFT
100
AcDbLine
 62
7
  6
CONTINUOUS
 10
-15.7237459769
 20
-1.0765391394
 11
-15.3357342533
 21
-1.2323733951
  0
LWPOLYLINE
  5
2CA
100
AcDbEntity
  8
RACCORDO
100
AcDbPolyline
 62
250
  6
CONTINUOUS
 90
13
 70
0
 10
19.5179310007
 20
-51.0248911981
 10
19.4275924806
 20
-50.6898814056
 10
19.3409671275
 20
-50.3533479466
 10
19.2580299743
 20
-50.0153695725
 10
19.1785095017
 20
-49.6755609335
 10
19.1026327878
 20
-49.3344570558
 10
19.0310911288
 20
-48.9935431351
 10
18.9638546826
 20
-48.6529560732
 10
18.9008378453
 20
-48.3127609979
 10
18.8425887417
 20
-47.9743822639
 10
18.789220596
 20
-47.6383818317
 10
18.7404433568
 20
-47.3044336801
 10
18.6961725655
 20
-46.9726481219
  0
LINE
  5
2CB
100
AcDbEntity
  8
RACCORDO
100
AcDbLine
 62
250
  6
CONTINUOUS
 10
19.0002381715
 20
-47.131415621
 11
18.9903894477
 21
-47.0225994193
  0
LINE
  5
2CC
100
AcDbEntity
  8
0
100
AcDbLine
 62
250
  6
CONTINUOUS
 10
40.6482465839
 20
-0.9292236879
 11
38.9593151135
 21
-2.069207475
  0
LWPOLYLINE
  5
2CD
100
AcDbEntity
  8
RACCORDO
100
AcDbPolyline
 62
250
  6
CONTINUOUS
 90
13
 70
0
 10
19.5179310601
 20
-51.0248914133
 10
19.4627991114
 20
-50.6977768515
 10
19.4096218296
 20
-50.3702954554
 10
19.3584289677
 20
-50.0424798122
 10
19.3091743092
 20
-49.7139365015
 10
19.2619913363
 20
-49.3851393443
 10
19.2171494517
 20
-49.0574375821
 10
19.1746746928
 20
-48.7309342267
 10
19.1345883533
 20
-48.4056563247
 10
19.0970867208
 20
-48.0828702918
 10
19.0622186503
 20
-47.7630511821
 10
19.0299330102
 20
-47.4458747416
 10
19.0002381301
 20
-47.1314156305
  0
LWPOLYLINE
  5
2CE
100
AcDbEntity
  8
RACCORDO
100
AcDbPolyline
 62
250
  6
CONTINUOUS
 90
27
 70
0
 10
18.6961725655
 20
-46.9726481219
 10
18.6656830186
 20
-46.7508469339
 10
18.6498497182
 20
-46.6315196784
 10
18.6334668152
 20
-46.5052177633
 10
18.6170249695
 20
-46.3731408134
 10
18.6015803688
 20
-46.2391023002
 10
18.5871747272
 20
-46.1035562483
 10
18.5738123081
 20
-45.9660927162
 10
18.5623085831
 20
-45.82934196
 10
18.5527072412
 20
-45.6937080716
 10
18.5448686105
 20
-45.5589067606
 10
18.5392200865
 20
-45.4265917265
 10
18.5357656471
 20
-45.2972007804
 10
18.5343295874
 20
-45.1704327039
 10
18.5350199969
 20
-45.0468495944
 10
18.5377943478
 20
-44.9267298318
 10
18.542518102
 20
-44.8099093124
 10
18.5491581972
 20
-44.6962821532
 10
18.5576590061
 20
-44.585934243
 10
18.5679259776
 20
-44.4788633659
 10
18.5798814731
 20
-44.3748226678
 10
18.593475322
 20
-44.2738287712
 10
18.6086337793
 20
-44.1759246388
 10
18.6252571616
 20
-44.08089607
 10
18.6432793671
 20
-43.9886853153
 10
18.6626631225
 20
-43.8993921092
 10
18.6833588797
 20
-43.8130341817
  0
LWPOLYLINE
  5
2CF
100
AcDbEntity
  8
RACCORDO
100
AcDbPolyline
 62
250
  6
CONTINUOUS
 90
28
 70
0
 10
18.9303685506
 20
-2.671396279
 10
18.9284751443
 20
-2.6516352448
 10
18.9256737035
 20
-2.6318968552
 10
18.9219674252
 20
-2.6122036359
 10
18.9173605393
 20
-2.5925780609
 10
18.911858303
 20
-2.5730425275
 10
18.9054669956
 20
-2.5536193297
 10
18.898193911
 20
-2.5343306336
 10
18.8900473494
 20
-2.5151984518
 10
18.8810366076
 20
-2.4962446182
 10
18.871171969
 20
-2.4774907633
 10
18.8604646911
 20
-2.4589582891
 10
18.8489269933
 20
-2.4406683452
 10
18.8365720426
 20
-2.4226418044
 10
18.8234139386
 20
-2.4048992389
 10
18.8094676976
 20
-2.3874608966
 10
18.7947492352
 20
-2.3703466786
 10
18.7792753483
 20
-2.3535761158
 10
18.763063696
 20
-2.337168347
 10
18.7461327792
 20
-2.321142097
 10
18.7285019198
 20
-2.3055156553
 10
18.7101912384
 20
-2.2903068549
 10
18.6912216313
 20
-2.2755330523
 10
18.671614747
 20
-2.2612111077
 10
18.6513929612
 20
-2.2473573654
 10
18.6305793512
 20
-2.2339876356
 10
18.6091976699
 20
-2.221117176
 10
18.5872723184
 20
-2.2087606745
  0
LWPOLYLINE
  5
2D0
100
AcDbEntity
  8
RACCORDO
100
AcDbPolyline
 62
250
  6
CONTINUOUS
 90
9
 70
0
 10
18.9903894477
 20
-47.0225994193
 10
18.9697176298
 20
-46.7900376469
 10
18.9590239672
 20
-46.6650457402
 10
18.9483513098
 20
-46.5350425526
 10
18.9381447616
 20
-46.4037282789
 10
18.9285622214
 20
-46.2715676327
 10
18.9196884325
 20
-46.1381505212
 10
18.9117803534
 20
-46.0059198712
 10
18.9067230435
 20
-45.911460949
  0
LWPOLYLINE
  5
2D1
100
AcDbEntity
  8
RACCORDO
100
AcDbPolyline
 62
250
  6
CONTINUOUS
 90
46
 70
0
 10
19.5179310476
 20
-51.0248912169
 10
19.4494370404
 20
-49.9179789001
 10
19.3840483998
 20
-48.807793839
 10
19.3217663079
 20
-47.6943547048
 10
19.2625919667
 20
-46.5776802664
 10
19.2065263694
 20
-45.4577892558
 10
19.153570301
 20
-44.3347003677
 10
19.1037247062
 20
-43.2084324733
 10
19.0569904979
 20
-42.0790045141
 10
19.0133683296
 20
-40.9464353655
 10
18.9728589769
 20
-39.8107440652
 10
18.9354631838
 20
-38.6719496947
 10
18.9011814726
 20
-37.5300712712
 10
18.87001445
 20
-36.3851279859
 10
18.8419626909
 20
-35.237139067
 10
18.8170265862
 20
-34.0861236601
 10
18.7952065738
 20
-32.9321010943
 10
18.7765030602
 20
-31.7750907538
 10
18.7609163058
 20
-30.6151119391
 10
18.7484465799
 20
-29.4521841153
 10
18.7390941203
 20
-28.2863268187
 10
18.7328590576
 20
-27.1175595273
 10
18.7297414919
 20
-25.9459018501
 10
18.7297414921
 20
-24.7713734622
 10
18.7328590582
 20
-23.5939940088
 10
18.7390941214
 20
-22.4137832467
 10
18.7484465814
 20
-21.2307609803
 10
18.7609163078
 20
-20.0449469935
 10
18.7765030625
 20
-18.856361182
 10
18.7952065766
 20
-17.6650234823
 10
18.8170265894
 20
-16.4709538062
 10
18.8419626945
 20
-15.2741721734
 10
18.870014454
 20
-14.074698661
 10
18.901181477
 20
-12.8725533312
 10
18.9354631887
 20
-11.6677563232
 10
18.9728589822
 20
-10.4603278532
 10
19.0133683353
 20
-9.2502881625
 10
19.056990504
 20
-8.0376575202
 10
19.1037247127
 20
-6.8224562659
 10
19.153570308
 20
-5.6047048087
 10
19.2065263771
 20
-4.3844235499
 10
19.2625919751
 20
-3.1616329443
 10
19.3217663161
 20
-1.9363535425
 10
19.3840484065
 20
-0.7086058938
 10
19.4494370444
 20
0.5215894538
 10
19.5179310476
 20
1.7542118921
  0
LWPOLYLINE
  5
2D2
100
AcDbEntity
  8
RACCORDO
100
AcDbPolyline
 62
7
  6
CONTINUOUS
 90
34
 70
0
 10
18.9098199067
 20
-3.0380400986
 10
18.8866475475
 20
-3.540873609
 10
18.824438652
 20
-4.9494496697
 10
18.7663697109
 20
-6.3546845622
 10
18.7124421295
 20
-7.7565465919
 10
18.6626573018
 20
-9.1550041043
 10
18.6170164347
 20
-10.5500266545
 10
18.5755206419
 20
-11.9415831004
 10
18.538171023
 20
-13.3296424336
 10
18.5049685152
 20
-14.714174737
 10
18.4759139689
 20
-16.0951490623
 10
18.4510082244
 20
-17.4725344705
 10
18.4302519664
 20
-18.8463012447
 10
18.4136457759
 20
-20.2164186991
 10
18.401190224
 20
-21.5828561596
 10
18.3928857405
 20
-22.9455841598
 10
18.3887326392
 20
-24.3045722533
 10
18.3887312248
 20
-25.6597899993
 10
18.3928816731
 20
-27.0112081669
 10
18.4011840307
 20
-28.3587965505
 10
18.4136383346
 20
-29.7025249666
 10
18.4302445078
 20
-31.042364455
 10
18.4510023306
 20
-32.3782850718
 10
18.4759115741
 20
-33.7102568921
 10
18.5049719083
 20
-35.0382512173
 10
18.538182846
 20
-36.3622383401
 10
18.5755438905
 20
-37.6821885719
 10
18.6170544627
 20
-38.9980735144
 10
18.6627138185
 20
-40.309863875
 10
18.7125212003
 20
-41.6175302572
 10
18.7664757636
 20
-42.9210442589
 10
18.824576473
 20
-44.220376482
 10
18.8868222823
 20
-45.5154975212
 10
18.906706578
 20
-45.9111355145
  0
LWPOLYLINE
  5
2D3
100
AcDbEntity
  8
RACCORDO
100
AcDbPolyline
 62
250
  6
CONTINUOUS
 90
4
 70
0
 10
18.9098192743
 20
-3.0380546322
 10
18.9157422285
 20
-2.9197908986
 10
18.9226819945
 20
-2.7965747865
 10
18.9303685861
 20
-2.671396279
  0
LWPOLYLINE
  5
2D4
100
AcDbEntity
  8
RACCORDO
100
AcDbPolyline
 62
250
  6
CONTINUOUS
 90
19
 70
0
 10
18.9303685506
 20
-2.671396279
 10
18.9449986752
 20
-2.456717666
 10
18.9617856563
 20
-2.2378712509
 10
18.9807511029
 20
-2.0148335621
 10
19.0019274577
 20
-1.7874834298
 10
19.0253314309
 20
-1.5558864726
 10
19.0509390034
 20
-1.3203026178
 10
19.0787818293
 20
-1.0805377143
 10
19.1088584679
 20
-0.8367285256
 10
19.1410513216
 20
-0.5896442245
 10
19.1753498765
 20
-0.3392944737
 10
19.2117554245
 20
-0.0856261281
 10
19.2501182366
 20
0.1706672794
 10
19.2904305498
 20
0.4296784672
 10
19.3326630722
 20
0.691344186
 10
19.3765859727
 20
0.9547152417
 10
19.4220881243
 20
1.2194748621
 10
19.469211158
 20
1.4859646857
 10
19.5179310568
 20
1.7542120536
  0
LWPOLYLINE
  5
2D5
100
AcDbEntity
  8
RACCORDO
100
AcDbPolyline
 62
250
  6
CONTINUOUS
 90
19
 70
0
 10
18.587272316
 20
-2.208760677
 10
18.606165297
 20
-2.0206116997
 10
18.6289059506
 20
-1.8284482971
 10
18.6555803173
 20
-1.6322166235
 10
18.6863549993
 20
-1.4318022092
 10
18.7212408607
 20
-1.2272153675
 10
18.7600841905
 20
-1.0185996117
 10
18.8030220453
 20
-0.8057843702
 10
18.8500862888
 20
-0.5888620329
 10
18.9009375367
 20
-0.3684000561
 10
18.9556550491
 20
-0.1444273153
 10
19.0142858124
 20
0.0831095151
 10
19.0764023463
 20
0.313728655
 10
19.1420847143
 20
0.5474807578
 10
19.2113437075
 20
0.7842980493
 10
19.2836036914
 20
1.0234832176
 10
19.3586740394
 20
1.2647732215
 10
19.4367771291
 20
1.5083609657
 10
19.517931008
 20
1.7542119079
  0
LINE
  5
2D6
100
AcDbEntity
  8
RACCORDO
100
AcDbLine
 62
7
  6
CONTINUOUS
 10
-16.1583892523
 20
9.7854903619
 11
-16.1519301631
 21
9.7829334164
  0
LINE
  5
2D7
100
AcDbEntity
  8
RACCORDO
100
AcDbLine
 62
7
  6
CONTINUOUS
 10
-16.1519321878
 20
9.782934239
 11
18.8541676872
 21
-4.2763046648
  0
LINE
  5
2D8
100
AcDbEntity
  8
RACCORDO
100
AcDbLine
 62
250
  6
CONTINUOUS
 10
-16.1512924747
 20
9.8021069345
 11
18.8550108292
 21
-4.2572136709
  0
LWPOLYLINE
  5
2D9
100
AcDbEntity
  8
RACCORDO
100
AcDbPolyline
 62
7
  6
CONTINUOUS
 90
73
 70
0
 10
41.9292710261
 20
-34.0257144208
 10
41.8521968295
 20
-33.9485063142
 10
41.777034456
 20
-33.8682163574
 10
41.7038063113
 20
-33.7848707133
 10
41.6325360461
 20
-33.6984983944
 10
41.5632430243
 20
-33.6091259431
 10
41.495942635
 20
-33.5167768657
 10
41.4306534954
 20
-33.421478274
 10
41.3673972021
 20
-33.3232634708
 10
41.3061928449
 20
-33.222166532
 10
41.2470603632
 20
-33.1182232869
 10
41.1900158666
 20
-33.011465139
 10
41.1350718901
 20
-32.9019208249
 10
41.0822437876
 20
-32.7896227315
 10
41.0315492627
 20
-32.6746103221
 10
40.9830035118
 20
-32.5569242274
 10
40.9366222872
 20
-32.4366059763
 10
40.892418465
 20
-32.3136923114
 10
40.8504019887
 20
-32.1882180139
 10
40.8105848478
 20
-32.0602210353
 10
40.7729803927
 20
-31.9297461772
 10
40.7375996554
 20
-31.7968397417
 10
40.7044539482
 20
-31.6615481265
 10
40.6735527416
 20
-31.5239134915
 10
40.6449032601
 20
-31.3839770764
 10
40.6185138685
 20
-31.2417824663
 10
40.5943933735
 20
-31.0973789297
 10
40.5725486362
 20
-30.950817401
 10
40.5529864608
 20
-30.8021482418
 10
40.5357126515
 20
-30.651418989
 10
40.5207314446
 20
-30.4986775411
 10
40.5080472837
 20
-30.3439730781
 10
40.497664398
 20
-30.1873583415
 10
40.489585629
 20
-30.0288876226
 10
40.483813352
 20
-29.8686142809
 10
40.4803494173
 20
-29.7065910673
 10
40.4791947085
 20
-29.5428724144
 10
40.4803494487
 20
-29.3775129018
 10
40.4838134084
 20
-29.2105676935
 10
40.4895857036
 20
-29.042092991
 10
40.4976644861
 20
-28.8721442547
 10
40.5080473796
 20
-28.7007790562
 10
40.5207315436
 20
-28.5280576215
 10
40.5357127512
 20
-28.3540392923
 10
40.5529865579
 20
-28.178780856
 10
40.5725487229
 20
-28.0023394155
 10
40.5943934344
 20
-27.8247718778
 10
40.6185138929
 20
-27.646139892
 10
40.6449032536
 20
-27.4665083153
 10
40.6735527236
 20
-27.2859404492
 10
40.7044539317
 20
-27.1044939739
 10
40.7375996418
 20
-26.9222258242
 10
40.7729803789
 20
-26.7391936734
 10
40.8105848351
 20
-26.5554624544
 10
40.8504019769
 20
-26.3711004114
 10
40.8924184529
 20
-26.1861738779
 10
40.9366222745
 20
-26.0007407879
 10
40.9830034994
 20
-25.8148571007
 10
41.0315492524
 20
-25.6285808412
 10
41.0822437806
 20
-25.4419791582
 10
41.1350718848
 20
-25.2551219063
 10
41.1900158591
 20
-25.0680772162
 10
41.2470603514
 20
-24.8809029657
 10
41.3061928322
 20
-24.693653764
 10
41.3673971965
 20
-24.506387822
 10
41.4306535012
 20
-24.3191732208
 10
41.4959426488
 20
-24.1320794026
 10
41.563243038
 20
-23.9451747751
 10
41.6325360555
 20
-23.7585172277
 10
41.7038063167
 20
-23.5721604009
 10
41.7770344592
 20
-23.3861642022
 10
41.8521968309
 20
-23.2005947502
 10
41.9411750845
 20
-22.9866225936
  0
LINE
  5
2DA
100
AcDbEntity
  8
RACCORDO
100
AcDbLine
 62
250
  6
CONTINUOUS
 10
-17.349929263
 20
12.2244296624
 11
18.587272316
 21
-2.208760677
  0
LWPOLYLINE
  5
2DB
100
AcDbEntity
  8
RACCORDO
100
AcDbPolyline
 62
250
  6
CONTINUOUS
 90
10
 70
0
 10
18.8775632873
 20
-3.7465655987
 10
18.8641729111
 20
-3.7346329389
 10
18.8451805077
 20
-3.7190731304
 10
18.8254413145
 20
-3.7042110591
 10
18.8049812981
 20
-3.6900662759
 10
18.7838273731
 20
-3.6766573879
 10
18.7620073671
 20
-3.6640020342
 10
18.7395499839
 20
-3.6521168628
 10
18.7164847658
 20
-3.6410175083
 10
18.6928420545
 20
-3.6307185718
  0
LWPOLYLINE
  5
2DC
100
AcDbEntity
  8
RACCORDO
100
AcDbPolyline
 62
250
  6
CONTINUOUS
 90
8
 70
0
 10
18.8670697148
 20
-3.9841681936
 10
18.855121843
 20
-3.9635813509
 10
18.8262513851
 20
-3.9112980523
 10
18.798103578
 20
-3.8577222497
 10
18.7706831437
 20
-3.8028649147
 10
18.7439954597
 20
-3.7467373915
 10
18.7180465786
 20
-3.6893513594
 10
18.6928419748
 20
-3.6307186905
  0
LWPOLYLINE
  5
2DD
100
AcDbEntity
  8
RACCORDO
100
AcDbPolyline
 62
250
  6
CONTINUOUS
 90
19
 70
0
 10
18.6928419748
 20
-3.6307186905
 10
18.6709302899
 20
-3.5757689237
 10
18.6505246252
 20
-3.5183829316
 10
18.6317080259
 20
-3.4584572329
 10
18.6145482737
 20
-3.3958458159
 10
18.5991554579
 20
-3.3304823477
 10
18.5856766222
 20
-3.2623879105
 10
18.5742689697
 20
-3.1916032126
 10
18.5649594034
 20
-3.1178916969
 10
18.5577110973
 20
-3.0408502594
 10
18.5526949586
 20
-2.9600635163
 10
18.54998335
 20
-2.8757049838
 10
18.5493733765
 20
-2.7882849447
 10
18.5510557289
 20
-2.6975694363
 10
18.5550261531
 20
-2.6036533866
 10
18.560686745
 20
-2.5076675817
 10
18.5678221431
 20
-2.410037426
 10
18.5766767782
 20
-2.3103945562
 10
18.587272316
 20
-2.208760677
  0
LWPOLYLINE
  5
2DE
100
AcDbEntity
  8
RACCORDO
100
AcDbPolyline
 62
250
  6
CONTINUOUS
 90
5
 70
0
 10
18.6833588797
 20
-43.8130341817
 10
18.7094361887
 20
-43.710063836
 10
18.7361953442
 20
-43.6070195649
 10
18.7636309535
 20
-43.5039200281
 10
18.7884646569
 20
-43.4127917425
  0
LINE
  5
2DF
100
AcDbEntity
  8
RACCORDO
100
AcDbLine
 62
250
  6
CONTINUOUS
 10
-18.4239522158
 20
16.9925275904
 11
19.517931008
 21
1.7542119079
  0
LINE
  5
2E0
100
AcDbEntity
  8
0
100
AcDbLine
 62
250
  6
CONTINUOUS
 10
-28.5863307493
 20
23.3906205187
 11
29.9687526671
 21
-0.1264210748
  0
LWPOLYLINE
  5
2E1
100
AcDbEntity
  8
0
100
AcDbPolyline
 62
250
  6
CONTINUOUS
 90
76
 70
0
 10
29.9687526671
 20
-0.1264210748
 10
30.0051023763
 20
-0.1414152081
 10
30.0413597509
 20
-0.1571588834
 10
30.0775247969
 20
-0.1736520967
 10
30.1136116972
 20
-0.190901929
 10
30.1496062919
 20
-0.2089012835
 10
30.1854660783
 20
-0.2276288865
 10
30.2211907636
 20
-0.2470855386
 10
30.2567806866
 20
-0.267270408
 10
30.2921942966
 20
-0.288159768
 10
30.3274313842
 20
-0.3097544261
 10
30.3624922272
 20
-0.3320535286
 10
30.3973360099
 20
-0.355030854
 10
30.4319624717
 20
-0.3786871491
 10
30.4663719628
 20
-0.4030216064
 10
30.5005245882
 20
-0.42800567
 10
30.5344201021
 20
-0.4536400777
 10
30.5680588601
 20
-0.4799240175
 10
30.601401872
 20
-0.5068266059
 10
30.6344488407
 20
-0.5343485278
 10
30.6672001915
 20
-0.5624890116
 10
30.6996180206
 20
-0.5912149884
 10
30.7317020042
 20
-0.6205271075
 10
30.7634526108
 20
-0.6504246216
 10
30.7948331262
 20
-0.6808723656
 10
30.8258431631
 20
-0.7118709142
 10
30.8564832681
 20
-0.7434195847
 10
30.8867181269
 20
-0.7754813274
 10
30.9165473419
 20
-0.8080566911
 10
30.9459714824
 20
-0.8411450105
 10
30.9749566838
 20
-0.8747074159
 10
31.0035024928
 20
-0.9087443811
 10
31.0316095442
 20
-0.9432553091
 10
31.0592456023
 20
-0.9781997255
 10
31.0864101992
 20
-1.0135780759
 10
31.1131039917
 20
-1.0493897864
 10
31.1392964253
 20
-1.0855928579
 10
31.1649869793
 20
-1.1221876548
 10
31.190176368
 20
-1.159173681
 10
31.2148358835
 20
-1.1965076505
 10
31.2389649897
 20
-1.2341898974
 10
31.262564418
 20
-1.2722199545
 10
31.2856073537
 20
-1.3105533396
 10
31.3080932166
 20
-1.3491903105
 10
31.3300227815
 20
-1.3881304766
 10
31.3513712568
 20
-1.4273283905
 10
31.3721380441
 20
-1.4667842748
 10
31.392323933
 20
-1.5064977763
 10
31.4119062022
 20
-1.5464225907
 10
31.4308842143
 20
-1.5865588643
 10
31.4492587916
 20
-1.6269063244
 10
31.4670093892
 20
-1.6674180475
 10
31.484135351
 20
-1.7080941399
 10
31.5006375091
 20
-1.7489343746
 10
31.5164975361
 20
-1.7898913375
 10
31.5317147498
 20
-1.8309650793
 10
31.5462899973
 20
-1.8721554361
 10
31.5602072285
 20
-1.9134146824
 10
31.5734657395
 20
-1.9547428226
 10
31.5860663857
 20
-1.9961397483
 10
31.5979954379
 20
-2.0375575775
 10
31.6092521647
 20
-2.0789962364
 10
31.6198374334
 20
-2.1204557052
 10
31.6297398945
 20
-2.1618881964
 10
31.638958804
 20
-2.2032935961
 10
31.6474950244
 20
-2.2446719361
 10
31.6553395953
 20
-2.2859756614
 10
31.6624917606
 20
-2.3272046514
 10
31.668952376
 20
-2.3683589575
 10
31.6747148786
 20
-2.4093912963
 10
31.6797784968
 20
-2.4503016729
 10
31.6841440815
 20
-2.4910900269
 10
31.6878074821
 20
-2.5317089921
 10
31.6907673291
 20
-2.5721427698
 10
31.693025047
 20
-2.6124071199
 10
31.6945806644
 20
-2.6525020222
  0
LWPOLYLINE
  5
2E2
100
AcDbEntity
  8
RACCORDO
100
AcDbPolyline
 62
7
  6
CONTINUOUS
 90
18
 70
0
 10
-16.42115031
 20
9.8314168597
 10
-16.408016285
 20
9.8317510322
 10
-16.3944981383
 20
9.8317964003
 10
-16.3806155114
 20
9.8315326075
 10
-16.3663941956
 20
9.8309404703
 10
-16.3518526294
 20
9.8300016342
 10
-16.336998167
 20
9.8286972667
 10
-16.3218562146
 20
9.8270102328
 10
-16.3064477039
 20
9.8249239866
 10
-16.2907738183
 20
9.8224193937
 10
-16.2748610911
 20
9.819481113
 10
-16.2587360708
 20
9.8160950295
 10
-16.2424022371
 20
9.8122424425
 10
-16.2258990584
 20
9.8079133248
 10
-16.2092443822
 20
9.803093643
 10
-16.1924154453
 20
9.7977560899
 10
-16.1754538204
 20
9.7918919187
 10
-16.1583892523
 20
9.7854903619
  0
LWPOLYLINE
  5
2E3
100
AcDbEntity
  8
0
100
AcDbPolyline
 62
250
  6
CONTINUOUS
 90
46
 70
0
 10
31.6945806644
 20
-2.6525020222
 10
31.7328792131
 20
-3.9522692725
 10
31.7694310708
 20
-5.2473812888
 10
31.804236258
 20
-6.5378171801
 10
31.8372938386
 20
-7.8235638185
 10
31.8686046502
 20
-9.1045926918
 10
31.8981710828
 20
-10.3808600606
 10
31.9259921409
 20
-11.6523173511
 10
31.952067759
 20
-12.9189722813
 10
31.9764019261
 20
-14.1808654229
 10
31.9989953017
 20
-15.4379931604
 10
32.0198470347
 20
-16.6903177063
 10
32.0389593238
 20
-17.9378280438
 10
32.0563320066
 20
-19.1804942918
 10
32.0719646882
 20
-20.4183052673
 10
32.0858595095
 20
-21.6512777947
 10
32.0980168007
 20
-22.8793942829
 10
32.1084359986
 20
-24.1026310636
 10
32.1171183567
 20
-25.3209955057
 10
32.1240641186
 20
-26.5344687049
 10
32.1292729087
 20
-27.7430282594
 10
32.1327453889
 20
-28.9466760309
 10
32.1344818423
 20
-30.1453873507
 10
32.1344818426
 20
-31.3391456082
 10
32.1327453899
 20
-32.5279644284
 10
32.1292729109
 20
-33.7118272334
 10
32.1240641219
 20
-34.8907090873
 10
32.1171183603
 20
-36.0646107434
 10
32.1084360014
 20
-37.2335099689
 10
32.0980168029
 20
-38.3973874733
 10
32.0858595125
 20
-39.5562481324
 10
32.071964694
 20
-40.7100684469
 10
32.0563320148
 20
-41.8588302763
 10
32.0389593325
 20
-43.0025461308
 10
32.0198470409
 20
-44.1412038077
 10
31.9989953052
 20
-45.2747735311
 10
31.9764019294
 20
-46.4032411819
 10
31.9520677654
 20
-47.5265708
 10
31.9259921509
 20
-48.6447566307
 10
31.8981710941
 20
-49.7578294148
 10
31.86860466
 20
-50.8657925169
 10
31.8372938462
 20
-51.968599977
 10
31.8042362636
 20
-53.0662083415
 10
31.7694310746
 20
-54.1585892606
 10
31.7328792151
 20
-55.2457292828
 10
31.6945806644
 20
-56.3276075509
  0
LWPOLYLINE
  5
2E4
100
AcDbEntity
  8
0
100
AcDbPolyline
 62
250
  6
CONTINUOUS
 90
76
 70
0
 10
31.6945806644
 20
-56.3276075509
 10
31.6930250299
 20
-56.3605770421
 10
31.690767297
 20
-56.3931612949
 10
31.6878074368
 20
-56.4253603364
 10
31.6841440257
 20
-56.4571865603
 10
31.6797784324
 20
-56.4886276241
 10
31.6747148053
 20
-56.5196464604
 10
31.6689522929
 20
-56.5502424925
 10
31.6624916676
 20
-56.5804163716
 10
31.6553394925
 20
-56.6101328932
 10
31.6474949118
 20
-56.6393915787
 10
31.6389586818
 20
-56.6681930006
 10
31.6297397626
 20
-56.6965035506
 10
31.6198372918
 20
-56.7243227507
 10
31.6092520134
 20
-56.7516511912
 10
31.597995277
 20
-56.7784568852
 10
31.5860662151
 20
-56.8047393274
 10
31.5734655594
 20
-56.8304991521
 10
31.5602070388
 20
-56.8557061001
 10
31.546289798
 20
-56.8803596181
 10
31.531714541
 20
-56.9044604035
 10
31.5164973177
 20
-56.9279800903
 10
31.5006372813
 20
-56.9509180999
 10
31.4841351137
 20
-56.973275168
 10
31.4670091425
 20
-56.9950249165
 10
31.4492585356
 20
-57.0161667373
 10
31.430883949
 20
-57.0367014066
 10
31.4119059278
 20
-57.0566046366
 10
31.3923236494
 20
-57.0758757987
 10
31.3721377515
 20
-57.094515698
 10
31.3513709552
 20
-57.1125022113
 10
31.3300224709
 20
-57.1298346732
 10
31.3080928972
 20
-57.1465139316
 10
31.2856070257
 20
-57.1625201443
 10
31.2625640811
 20
-57.1778526299
 10
31.2389646442
 20
-57.192512256
 10
31.2148355298
 20
-57.2064815131
 10
31.1901760064
 20
-57.2197596886
 10
31.1649866102
 20
-57.2323476823
 10
31.1392960492
 20
-57.2442304112
 10
31.1131036089
 20
-57.2554071493
 10
31.0864098103
 20
-57.265878808
 10
31.0592452073
 20
-57.275632767
 10
31.0316091433
 20
-57.284668273
 10
31.0035020861
 20
-57.2929862604
 10
30.9749562716
 20
-57.3005766453
 10
30.9459710648
 20
-57.3074386627
 10
30.9165469191
 20
-57.3135732518
 10
30.8867176991
 20
-57.3189728881
 10
30.8564828354
 20
-57.3236367866
 10
30.8258427259
 20
-57.3275658971
 10
30.7948326846
 20
-57.3307552981
 10
30.7634521649
 20
-57.3332041941
 10
30.7317015542
 20
-57.3349135336
 10
30.6996175667
 20
-57.3358810127
 10
30.6671997338
 20
-57.3361058224
 10
30.6344483794
 20
-57.3355889106
 10
30.6014014073
 20
-57.3343306082
 10
30.5680583923
 20
-57.3323300991
 10
30.5344196314
 20
-57.3295883224
 10
30.5005241148
 20
-57.3261082388
 10
30.466371487
 20
-57.3218890293
 10
30.4319619939
 20
-57.3169316183
 10
30.3973355303
 20
-57.3112415787
 10
30.3624917461
 20
-57.3048180767
 10
30.3274309017
 20
-57.2976620322
 10
30.2921938126
 20
-57.2897816446
 10
30.2567802008
 20
-57.2811760708
 10
30.2211902758
 20
-57.2718462197
 10
30.1854655886
 20
-57.2618029135
 10
30.149605782
 20
-57.25104525
 10
30.113611167
 20
-57.2395741756
 10
30.077524302
 20
-57.2274032803
 10
30.0413593655
 20
-57.2145371015
 10
30.0051021558
 20
-57.200971124
 10
29.9687526671
 20
-57.1867053535
  0
LWPOLYLINE
  5
2E5
100
AcDbEntity
  8
RACCORDO
100
AcDbPolyline
 62
250
  6
CONTINUOUS
 90
20
 70
0
 10
-16.6135808801
 20
9.8146784015
 10
-16.5885274175
 20
9.8216132797
 10
-16.5633906267
 20
9.8277219628
 10
-16.538199532
 20
9.8329973988
 10
-16.5129832193
 20
9.8374334973
 10
-16.4877708048
 20
9.8410251375
 10
-16.4625913975
 20
9.8437681714
 10
-16.4374740669
 20
9.8456594292
 10
-16.4124478144
 20
9.8466967282
 10
-16.3875415345
 20
9.8468788698
 10
-16.3627839786
 20
9.8462056384
 10
-16.3382037315
 20
9.844677811
 10
-16.3138291739
 20
9.8422971519
 10
-16.2896884443
 20
9.8390664055
 10
-16.2658094142
 20
9.8349893003
 10
-16.2422196557
 20
9.8300705454
 10
-16.2189464055
 20
9.8243158207
 10
-16.1960165348
 20
9.8177317706
 10
-16.1734565185
 20
9.8103259966
 10
-16.1512924044
 20
9.8021070494
  0
LWPOLYLINE
  5
2E6
100
AcDbEntity
  8
0
100
AcDbPolyline
 62
7
  6
CONTINUOUS
 90
52
 70
0
 10
-24.420583051
 20
31.0389408939
 10
-24.5483064421
 20
31.0889906294
 10
-24.6758876497
 20
31.1365012163
 10
-24.8033266736
 20
31.1814726545
 10
-24.9306747479
 20
31.2239209299
 10
-25.0578806387
 20
31.2638300566
 10
-25.1847906443
 20
31.3011520772
 10
-25.3113966373
 20
31.3358820498
 10
-25.4377067451
 20
31.3680249162
 10
-25.5635916488
 20
31.3975475445
 10
-25.6890620233
 20
31.4244492606
 10
-25.8141071937
 20
31.4487307386
 10
-25.9385658156
 20
31.4703608684
 10
-26.0624231406
 20
31.4893345094
 10
-26.1856939173
 20
31.5056568023
 10
-26.3082610475
 20
31.5193120588
 10
-26.4301402677
 20
31.530298751
 10
-26.5513158415
 20
31.538618407
 10
-26.6716234616
 20
31.5442599222
 10
-26.7910436234
 20
31.5472197268
 10
-26.9095958316
 20
31.5475013908
 10
-27.027174293
 20
31.5451045199
 10
-27.1437979158
 20
31.5400253047
 10
-27.2594477917
 20
31.5322675547
 10
-27.3739614033
 20
31.5218423036
 10
-27.4873164178
 20
31.5087487912
 10
-27.5995351679
 20
31.4929877778
 10
-27.7105221346
 20
31.4745725783
 10
-27.8202975148
 20
31.4534962262
 10
-27.9288411116
 20
31.4297656879
 10
-28.0359968149
 20
31.403415178
 10
-28.1417413335
 20
31.3744474183
 10
-28.2460979586
 20
31.3428596868
 10
-28.3489804541
 20
31.3086780324
 10
-28.4504085479
 20
31.2718920302
 10
-28.550362512
 20
31.232512105
 10
-28.6486969272
 20
31.1905955798
 10
-28.7453892396
 20
31.1461487534
 10
-28.8404620031
 20
31.099165327
 10
-28.9338374591
 20
31.0496837276
 10
-29.0255333437
 20
30.9976903435
 10
-29.1155319208
 20
30.9431987864
 10
-29.2037022245
 20
30.8862883185
 10
-29.2900238552
 20
30.8269683452
 10
-29.3745172125
 20
30.7652294611
 10
-29.457112528
 20
30.7011227123
 10
-29.5378243579
 20
30.6346321173
 10
-29.6166381462
 20
30.5657736575
 10
-29.6934404568
 20
30.4946463239
 10
-29.7682140893
 20
30.4212616313
 10
-29.8409762442
 20
30.3456080648
 10
-31.0997676526
 20
28.9755735854
  0
LINE
  5
2E7
100
AcDbEntity
  8
0
100
AcDbLine
 62
250
  6
CONTINUOUS
 10
-25.7770715448
 20
29.7241556742
 11
32.7780118715
 21
6.2071140807
  0
LINE
  5
2E8
100
AcDbEntity
  8
0
100
AcDbLine
 62
7
  6
CONTINUOUS
 10
34.1345003653
 20
7.5218993005
 11
-24.420583051
 21
31.0389408939
  0
LWPOLYLINE
  5
2E9
100
AcDbEntity
  8
0
100
AcDbPolyline
 62
250
  6
CONTINUOUS
 90
76
 70
0
 10
32.7780118715
 20
6.2071140807
 10
32.9014971411
 20
6.1562838031
 10
33.0248863081
 20
6.103021396
 10
33.1481322137
 20
6.0473471303
 10
33.2711873251
 20
5.9892822386
 10
33.3940049793
 20
5.9288487698
 10
33.5165393991
 20
5.8660695223
 10
33.6387438347
 20
5.8009681023
 10
33.7605713062
 20
5.7335694054
 10
33.8819758494
 20
5.6638994163
 10
34.0029107749
 20
5.5919845344
 10
34.123329841
 20
5.5178520333
 10
34.2431879974
 20
5.4415304448
 10
34.3624390275
 20
5.3630486857
 10
34.4810373302
 20
5.2824364611
 10
34.5989390916
 20
5.1997246378
 10
34.7160989659
 20
5.1149443873
 10
34.8324718917
 20
5.0281278616
 10
34.9480148692
 20
4.9393084891
 10
35.0626833428
 20
4.8485197465
 10
35.1764331825
 20
4.7557959942
 10
35.2892224905
 20
4.6611730308
 10
35.4010077427
 20
4.5646864625
 10
35.5117457987
 20
4.4663728045
 10
35.6213958792
 20
4.3662702143
 10
35.729915508
 20
4.2644164328
 10
35.8372628223
 20
4.1608498992
 10
35.9433985776
 20
4.0556107508
 10
36.0482816668
 20
3.9487385591
 10
36.151871459
 20
3.840273715
 10
36.2541301096
 20
3.730258451
 10
36.3550178672
 20
3.6187342028
 10
36.454495637
 20
3.5057430252
 10
36.552527315
 20
3.3913288796
 10
36.6490747782
 20
3.2755347646
 10
36.7441004542
 20
3.1584044053
 10
36.8375698902
 20
3.0399835837
 10
36.9294465882
 20
2.9203168894
 10
37.0196947762
 20
2.799449409
 10
37.1082819808
 20
2.6774283276
 10
37.1951735784
 20
2.5542995018
 10
37.2803355835
 20
2.4301093877
 10
37.3637374313
 20
2.3049066502
 10
37.4453463908
 20
2.1787384115
 10
37.5251304957
 20
2.0516521931
 10
37.6030613402
 20
1.9236977603
 10
37.6791082836
 20
1.7949232005
 10
37.7532413938
 20
1.665377071
 10
37.8254343974
 20
1.5351102626
 10
37.8956587743
 20
1.4041718032
 10
37.9638868202
 20
1.2726109852
 10
38.0300946062
 20
1.1404794335
 10
38.0942558932
 20
1.0078268264
 10
38.1563452273
 20
0.8747031392
 10
38.2163410253
 20
0.7411606938
 10
38.2742193916
 20
0.6072497035
 10
38.3299572455
 20
0.4730206011
 10
38.3835354424
 20
0.3385262038
 10
38.4349325303
 20
0.2038170631
 10
38.484127867
 20
0.0689439191
 10
38.5311047833
 20
-0.0660400495
 10
38.5758442982
 20
-0.2010840335
 10
38.61832834
 20
-0.3361372553
 10
38.6585428964
 20
-0.4711465932
 10
38.6964716037
 20
-0.6060612447
 10
38.7320989233
 20
-0.740830483
 10
38.7654133935
 20
-0.8754013979
 10
38.7964012165
 20
-1.0097235561
 10
38.8250495386
 20
-1.1437462654
 10
38.8513496688
 20
-1.277416416
 10
38.8752906157
 20
-1.4106835359
 10
38.8968621146
 20
-1.5434977374
 10
38.916057934
 20
-1.6758070613
 10
38.9328707124
 20
-1.8075611041
 10
38.94729196
 20
-1.9387110113
 10
38.9593151135
 20
-2.069207475
  0
LWPOLYLINE
  5
2EA
100
AcDbEntity
  8
0
100
AcDbPolyline
 62
250
  6
CONTINUOUS
 90
46
 70
0
 10
38.9593151135
 20
-2.069207475
 10
39.0011654071
 20
-3.3719833594
 10
39.0411058986
 20
-4.6701095866
 10
39.0791373276
 20
-5.9635652124
 10
39.115261021
 20
-7.2523371461
 10
39.1494772606
 20
-8.5363967001
 10
39.1817856469
 20
-9.8156997071
 10
39.212186938
 20
-11.0901973534
 10
39.2406833727
 20
-12.3598972728
 10
39.2672763654
 20
-13.6248398604
 10
39.2919666657
 20
-14.8850214416
 10
39.3147548379
 20
-16.1404040598
 10
39.3356411586
 20
-17.3909764147
 10
39.3546262155
 20
-18.6367084249
 10
39.3717111258
 20
-19.8775887724
 10
39.3868964124
 20
-21.1136341225
 10
39.4001823412
 20
-22.3448267217
 10
39.4115695864
 20
-23.5711427185
 10
39.4210584622
 20
-24.7925893404
 10
39.4286491056
 20
-26.0091474751
 10
39.4343419304
 20
-27.2207945292
 10
39.4381370418
 20
-28.4275322769
 10
39.4400344056
 20
-29.6293357887
 10
39.440034406
 20
-30.8261882353
 10
39.4381370429
 20
-32.0181032527
 10
39.4343419319
 20
-33.2050639964
 10
39.4286491081
 20
-34.3870452714
 10
39.4210584661
 20
-35.5640478869
 10
39.4115695912
 20
-36.7360492682
 10
39.4001823455
 20
-37.9030298414
 10
39.3868964158
 20
-39.0649946471
 10
39.3717111298
 20
-40.2219198003
 10
39.3546262221
 20
-41.373786827
 10
39.3356411681
 20
-42.5206085154
 10
39.3147548474
 20
-43.6623722521
 10
39.2919666723
 20
-44.79904788
 10
39.267276369
 20
-45.9306216096
 10
39.2406833771
 20
-47.0570569268
 10
39.2121869466
 20
-48.1783476607
 10
39.1817856593
 20
-49.2945251178
 10
39.1494772729
 20
-50.40559218
 10
39.1152610303
 20
-51.5115023771
 10
39.0791373337
 20
-52.6122127708
 10
39.0411059025
 20
-53.7076947498
 10
39.0011654089
 20
-54.7979338549
 10
38.9593151135
 20
-55.882908548
  0
LWPOLYLINE
  5
2EB
100
AcDbEntity
  8
RACCORDO
100
AcDbPolyline
 62
7
  6
CONTINUOUS
 90
19
 70
0
 10
42.054983342
 20
-22.4196636309
 10
42.0237364696
 20
-21.2419981003
 10
41.9869662425
 20
-20.0623275628
 10
41.9446726607
 20
-18.8806520185
 10
41.8968547328
 20
-17.6969478984
 10
41.8435134501
 20
-16.5112387714
 10
41.7846517869
 20
-15.3235953444
 10
41.7202686743
 20
-14.1340065479
 10
41.6503651812
 20
-12.9424834514
 10
41.5749474887
 20
-11.74912997
 10
41.494016428
 20
-10.5539635808
 10
41.4075711679
 20
-9.3569668067
 10
41.3156153956
 20
-8.1581911311
 10
41.2181474068
 20
-6.9576188788
 10
41.1151689059
 20
-5.755267725
 10
41.0066886931
 20
-4.5512421782
 10
40.8927097019
 20
-3.3455770745
 10
40.7732289989
 20
-2.1382375777
 10
40.6482465839
 20
-0.9292236879
  0
LWPOLYLINE
  5
2EC
100
AcDbEntity
  8
RACCORDO
100
AcDbPolyline
 62
7
  6
CONTINUOUS
 90
22
 70
0
 10
42.054983342
 20
-34.4307903644
 10
42.0552862764
 20
-34.4056342192
 10
42.0549397249
 20
-34.3809223179
 10
42.0539441796
 20
-34.3566793388
 10
42.0523003808
 20
-34.3329242413
 10
42.0500099711
 20
-34.3096862448
 10
42.0470767514
 20
-34.2870035196
 10
42.043506527
 20
-34.2649100604
 10
42.0393022756
 20
-34.2434133299
 10
42.0344637387
 20
-34.2225115932
 10
42.0289902543
 20
-34.2022121248
 10
42.0228895897
 20
-34.182551123
 10
42.0161749011
 20
-34.1635691755
 10
42.0088582091
 20
-34.1452962867
 10
42.0009426242
 20
-34.1277354937
 10
41.9924287435
 20
-34.1108859616
 10
41.9833178268
 20
-34.0947561439
 10
41.9736221884
 20
-34.0793729329
 10
41.9633591251
 20
-34.0647628987
 10
41.9525411863
 20
-34.0509431151
 10
41.9411750845
 20
-34.0379229064
 10
41.9292710261
 20
-34.0257144208
  0
LWPOLYLINE
  5
2ED
100
AcDbEntity
  8
0
100
AcDbPolyline
 62
250
  6
CONTINUOUS
 90
36
 70
0
 10
38.9593151135
 20
-55.882908548
 10
38.9472919648
 20
-55.9979628325
 10
38.9328707205
 20
-56.1117539226
 10
38.916057944
 20
-56.2242377824
 10
38.8968621243
 20
-56.3353702205
 10
38.8752906238
 20
-56.4451089027
 10
38.8513496758
 20
-56.5534133435
 10
38.8250495461
 20
-56.6602416569
 10
38.796401225
 20
-56.7655524431
 10
38.7654134026
 20
-56.8693067731
 10
38.7320989323
 20
-56.9714644176
 10
38.6964716122
 20
-57.071985888
 10
38.6585429047
 20
-57.1708342653
 10
38.6183283485
 20
-57.2679712561
 10
38.5758443073
 20
-57.3633592498
 10
38.5311047928
 20
-57.4569633086
 10
38.4841278769
 20
-57.5487472067
 10
38.4349325404
 20
-57.6386753454
 10
38.3835354528
 20
-57.726714757
 10
38.3299572563
 20
-57.8128313063
 10
38.2742194025
 20
-57.8969916488
 10
38.2163410364
 20
-57.9791650953
 10
38.1563452386
 20
-58.0593197947
 10
38.0942559048
 20
-58.1374246854
 10
38.030094618
 20
-58.2134514053
 10
37.9638868324
 20
-58.2873704756
 10
37.895658787
 20
-58.3591532438
 10
37.8254344104
 20
-58.4287737763
 10
37.7532414073
 20
-58.4962050952
 10
37.6791082975
 20
-58.5614210202
 10
37.6030613545
 20
-58.6243980526
 10
37.5251305105
 20
-58.6851117522
 10
37.445346406
 20
-58.7435385692
 10
37.3637374469
 20
-58.7996576204
 10
37.2803355996
 20
-58.8534471441
 10
37.2423031013
 20
-58.8768416256
  0
LWPOLYLINE
  5
2EE
100
AcDbEntity
  8
RACCORDO
100
AcDbPolyline
 62
7
  6
CONTINUOUS
 90
21
 70
0
 10
41.9411750845
 20
-22.9866225936
 10
41.9525411863
 20
-22.9575973971
 10
41.9633591251
 20
-22.928468195
 10
41.9736221884
 20
-22.8992578255
 10
41.9833178268
 20
-22.8700014054
 10
41.9924287435
 20
-22.8407462929
 10
42.0009426242
 20
-22.8115380984
 10
42.0088582091
 20
-22.7823887958
 10
42.0161749011
 20
-22.753295349
 10
42.0228895897
 20
-22.7242659679
 10
42.0289902543
 20
-22.6953502734
 10
42.0344637387
 20
-22.6666069969
 10
42.0393022756
 20
-22.6380840863
 10
42.043506527
 20
-22.609788707
 10
42.0470767514
 20
-22.5817182171
 10
42.0500099711
 20
-22.5538842982
 10
42.0523003808
 20
-22.5263311153
 10
42.0539441796
 20
-22.4991045614
 10
42.0549397249
 20
-22.472237045
 10
42.0552862764
 20
-22.4457482399
 10
42.054983342
 20
-22.4196636309
  0
LWPOLYLINE
  5
2EF
100
AcDbEntity
  8
0
100
AcDbPolyline
 62
7
  6
CONTINUOUS
 90
76
 70
0
 10
40.6482465839
 20
-0.9292236879
 10
40.633010152
 20
-0.7962869244
 10
40.6153222067
 20
-0.6627789099
 10
40.595182748
 20
-0.5286996444
 10
40.5725815982
 20
-0.3939946182
 10
40.5475289349
 20
-0.2587183409
 10
40.5200552918
 20
-0.1230343422
 10
40.4901598921
 20
0.0130494277
 10
40.4578435125
 20
0.1495409191
 10
40.4231390172
 20
0.2863004536
 10
40.3860403051
 20
0.4233405489
 10
40.3465534772
 20
0.5606486873
 10
40.3047297018
 20
0.6980476384
 10
40.260571373
 20
0.8355218664
 10
40.2140760967
 20
0.973086907
 10
40.1652878578
 20
1.1106121367
 10
40.1141971309
 20
1.2481161625
 10
40.0608134415
 20
1.3855803774
 10
40.0052093502
 20
1.5228183366
 10
39.9473912325
 20
1.6598085595
 10
39.8873527131
 20
1.7965725267
 10
39.8251472268
 20
1.9329882345
 10
39.7607613669
 20
2.0690786121
 10
39.6942085401
 20
2.2048207304
 10
39.6255824017
 20
2.3400237989
 10
39.5548935585
 20
2.4746622588
 10
39.4821314036
 20
2.6087616688
 10
39.4073577711
 20
2.7422079146
 10
39.3305554604
 20
2.875026327
 10
39.2517416722
 20
3.0071915751
 10
39.1710298423
 20
3.1385135511
 10
39.0884345267
 20
3.2689645815
 10
39.0039411695
 20
3.3985723398
 10
38.9176195387
 20
3.5272297391
 10
38.8294492351
 20
3.6549625704
 10
38.739450658
 20
3.7817450426
 10
38.6477547734
 20
3.9073926957
 10
38.5543793174
 20
4.0318776716
 10
38.4593065539
 20
4.1552278283
 10
38.3626142414
 20
4.2773422798
 10
38.2642798263
 20
4.398245441
 10
38.1643258621
 20
4.5179128971
 10
38.0628977684
 20
4.6361705175
 10
37.9600152729
 20
4.7529920312
 10
37.8556586478
 20
4.8684037092
 10
37.7499141292
 20
4.9823102342
 10
37.6427584259
 20
5.0947330366
 10
37.5342148291
 20
5.2056506858
 10
37.4244394489
 20
5.314903573
 10
37.3134524822
 20
5.4224685085
 10
37.201233732
 20
5.5283686818
 10
37.0878787176
 20
5.6325140529
 10
36.973365106
 20
5.7349218001
 10
36.85771523
 20
5.835574745
 10
36.7410916073
 20
5.9343313124
 10
36.6235131459
 20
6.031172505
 10
36.5049609377
 20
6.1261173201
 10
36.3855407759
 20
6.219081174
 10
36.2652331557
 20
6.3100761637
 10
36.144057582
 20
6.3990901923
 10
36.0221783618
 20
6.4860023851
 10
35.8996112316
 20
6.570798574
 10
35.7763404549
 20
6.6534929272
 10
35.6524831299
 20
6.7340070742
 10
35.5280245079
 20
6.8123477213
 10
35.4029793376
 20
6.8885081622
 10
35.2775089631
 20
6.9623899082
 10
35.1516240594
 20
7.0339837106
 10
35.0253139516
 20
7.103298818
 10
34.8987079586
 20
7.1702644876
 10
34.7717979529
 20
7.2348823057
 10
34.6445920622
 20
7.297150686
 10
34.5172439879
 20
7.3569941258
 10
34.3898049639
 20
7.4143874578
 10
34.2622237564
 20
7.4693558493
 10
34.1345003653
 20
7.5218993005
  0
LWPOLYLINE
  5
2F0
100
AcDbEntity
  8
RACCORDO
100
AcDbPolyline
 62
7
  6
CONTINUOUS
 90
19
 70
0
 10
40.6482465839
 20
-54.7912759151
 10
40.7732289989
 20
-53.6826535362
 10
40.8927097019
 20
-52.5712863274
 10
41.0066886931
 20
-51.4571742886
 10
41.1151689059
 20
-50.34028494
 10
41.2181474068
 20
-49.2206507613
 10
41.3156153956
 20
-48.0983691924
 10
41.4075711679
 20
-46.9734565392
 10
41.494016428
 20
-45.8458964958
 10
41.5749474887
 20
-44.7157375836
 10
41.6503651812
 20
-43.5829629933
 10
41.7202686743
 20
-42.4475895344
 10
41.7846517869
 20
-41.3097161569
 10
41.8435134501
 20
-40.1693530718
 10
41.8968547328
 20
-39.0264900681
 10
41.9446726607
 20
-37.8811954638
 10
41.9869662425
 20
-36.7334920313
 10
42.0237364696
 20
-35.5833569982
 10
42.054983342
 20
-34.4307903644
  0
LWPOLYLINE
  5
2F1
100
AcDbEntity
  8
0
100
AcDbPolyline
 62
250
  6
CONTINUOUS
 90
67
 70
0
 10
38.9593151082
 20
-55.8829085447
 10
38.8780928996
 20
-55.9423210082
 10
38.79490257
 20
-56.0004631975
 10
38.7097846191
 20
-56.0573068071
 10
38.6227804855
 20
-56.1128241635
 10
38.5339325255
 20
-56.1669882391
 10
38.4432839935
 20
-56.2197726648
 10
38.3508790202
 20
-56.2711517434
 10
38.2567625916
 20
-56.3211004619
 10
38.1609805267
 20
-56.3695945034
 10
38.0635794554
 20
-56.4166102595
 10
37.964606796
 20
-56.4621248412
 10
37.8641107318
 20
-56.5061160906
 10
37.7621401876
 20
-56.5485625911
 10
37.6587448062
 20
-56.5894436784
 10
37.5539749239
 20
-56.6287394501
 10
37.4478815464
 20
-56.6664307758
 10
37.3405163235
 20
-56.702499306
 10
37.2319315242
 20
-56.7369274813
 10
37.1221800114
 20
-56.7696985409
 10
37.0113152158
 20
-56.8007965308
 10
36.8993911102
 20
-56.8302063113
 10
36.7864621831
 20
-56.8579135649
 10
36.6725834121
 20
-56.8839048026
 10
36.5578102373
 20
-56.908167371
 10
36.4421985341
 20
-56.9306894583
 10
36.3258045864
 20
-56.9514601
 10
36.2086850586
 20
-56.9704691842
 10
36.0908969685
 20
-56.9877074567
 10
35.9724976595
 20
-57.0031665252
 10
35.8535447722
 20
-57.0168388637
 10
35.7340962171
 20
-57.0287178162
 10
35.6142101458
 20
-57.0387975995
 10
35.4939449228
 20
-57.0470733064
 10
35.3733590975
 20
-57.0535409081
 10
35.2525113751
 20
-57.0581972559
 10
35.1314605884
 20
-57.0610400829
 10
35.010265669
 20
-57.0620680051
 10
34.8889856188
 20
-57.0612805221
 10
34.7676794811
 20
-57.0586780173
 10
34.6464063117
 20
-57.0542617577
 10
34.5252251507
 20
-57.0480338933
 10
34.4041949931
 20
-57.0399974559
 10
34.2833747606
 20
-57.0301563581
 10
34.1628232726
 20
-57.0185153908
 10
34.0425992176
 20
-57.0050802211
 10
33.9227611248
 20
-56.9898573899
 10
33.8033673355
 20
-56.972854308
 10
33.6844759746
 20
-56.9540792533
 10
33.5661449226
 20
-56.933541366
 10
33.448431787
 20
-56.9112506446
 10
33.3313938746
 20
-56.8872179411
 10
33.2150881634
 20
-56.8614549554
 10
33.0995712751
 20
-56.8339742297
 10
32.9848994471
 20
-56.8047891427
 10
32.8711285057
 20
-56.7739139027
 10
32.7583138384
 20
-56.7413635407
 10
32.6465103673
 20
-56.7071539033
 10
32.535772522
 20
-56.6713016451
 10
32.4261542137
 20
-56.6338242201
 10
32.3177088081
 20
-56.5947398736
 10
32.2104891002
 20
-56.5540676332
 10
32.1045472882
 20
-56.5118272995
 10
31.9999349483
 20
-56.4680394365
 10
31.8967030092
 20
-56.4227253618
 10
31.7949017278
 20
-56.3759071356
 10
31.6945806644
 20
-56.3276075508
  0
LINE
  5
2F2
100
AcDbEntity
  8
0
100
AcDbLine
 62
250
  6
CONTINUOUS
 10
40.6482465839
 20
-54.7912759151
 11
38.9593151135
 21
-55.882908548
  0
LWPOLYLINE
  5
2F3
100
AcDbEntity
  8
0
100
AcDbPolyline
 62
7
  6
CONTINUOUS
 90
36
 70
0
 10
38.7860094357
 20
-57.94126403
 10
38.8294492351
 20
-57.9145221351
 10
38.9176195387
 20
-57.8576116672
 10
39.0039411695
 20
-57.7982916939
 10
39.0884345267
 20
-57.7365528098
 10
39.1710298423
 20
-57.6724460611
 10
39.2517416722
 20
-57.605955466
 10
39.3305554604
 20
-57.5370970062
 10
39.4073577711
 20
-57.4659696727
 10
39.4821314036
 20
-57.39258498
 10
39.5548935585
 20
-57.3169314135
 10
39.6255824017
 20
-57.2390734198
 10
39.6942085401
 20
-57.15899396
 10
39.7607613669
 20
-57.0767100729
 10
39.8251472268
 20
-56.9923373211
 10
39.8873527131
 20
-56.9058878646
 10
39.9473912325
 20
-56.8173495434
 10
40.0052093502
 20
-56.7268014395
 10
40.0608134415
 20
-56.6342271936
 10
40.1141971309
 20
-56.539643165
 10
40.1652878578
 20
-56.4431775146
 10
40.2140760967
 20
-56.3448411983
 10
40.260571373
 20
-56.2446232601
 10
40.3047297018
 20
-56.1426189928
 10
40.3465534772
 20
-56.0388147839
 10
40.3860403051
 20
-55.933224246
 10
40.4231390172
 20
-55.8259835091
 10
40.4578435125
 20
-55.7171001899
 10
40.4901598921
 20
-55.6065666717
 10
40.5200552918
 20
-55.4944962349
 10
40.5475289349
 20
-55.380880305
 10
40.5725815982
 20
-55.2657274565
 10
40.595182748
 20
-55.1491766929
 10
40.6153222067
 20
-55.0312743487
 10
40.633010152
 20
-54.9119740895
 10
40.6482465839
 20
-54.7912759151
  0
ENDSEC
  0
SECTION
  2
OBJECTS
  0
DICTIONARY
  5
C
100
AcDbDictionary
280
0
281
1
  3
ACAD_GROUP
350
D
  3
ACAD_MLINESTYLE
350
17
  3
ACAD_LAYOUT
350
1A
  3
ACAD_PLOTSETTINGS
350
19
  3
ACAD_PLOTSTYLENAME
350
E
  0
DICTIONARY
  5
D
102
{ACAD_REACTORS
330
C
102
}
100
AcDbDictionary
280
0
281
1
  0
ACDBDICTIONARYWDFLT
  5
E
102
{ACAD_REACTORS
330
C
102
}
100
AcDbDictionary
281
1
  3
Normal
350
F
100
AcDbDictionaryWithDefault
340
F
  0
DICTIONARY
  5
17
102
{ACAD_REACTORS
330
C
102
}
100
AcDbDictionary
280
0
281
1
  3
Standard
350
18
  0
DICTIONARY
  5
19
102
{ACAD_REACTORS
330
C
102
}
100
AcDbDictionary
281
1
  0
DICTIONARY
  5
1A
102
{ACAD_REACTORS
330
C
102
}
100
AcDbDictionary
281
1
  3
Model
350
2F4
  3
Layout1
350
2F5
  0
ACDBPLACEHOLDER
  5
F
102
{ACAD_REACTORS
330
E
102
}
  0
MLINESTYLE
  5
18
102
{ACAD_REACTORS
330
17
102
}
100
AcDbMlineStyle
  2
STANDARD
 70
0
  3

 62
256
 51
90.0
 52
90.0
 71
2
 49
0.5
 62
256
  6
BYLAYER
 49
-0.5
 62
256
  6
BYLAYER
  0
LAYOUT
  5
2F4
102
{ACAD_REACTORS
330
1A
102
}
100
AcDbPlotSettings
  1

  2
none_device
  4
ISO_A4_(297.00_x_210.00_MM)
  6

 40
0.0
 41
0.0
 42
0.0
 43
0.0
 44
297.0
 45
210.0
 46
0.0
 47
0.0
 48
0.0
 49
0.0
140
0.0
141
0.0
142
1.0
143
1.0
 70
1024
 72
1
 73
0
 74
0
  7

 75
0
147
1.0
148
0.0
149
0.0
100
AcDbLayout
  1
Model
 70
0
 71
0
 10
0.0
 20
0.0
 11
297.0
 21
210.0
 12
0.0
 22
0.0
 32
0.0
 14
0.0
 24
0.0
 34
0.0
 15
0.0
 25
0.0
 35
0.0
146
0.0
 13
0.0
 23
0.0
 33
0.0
 16
1.0
 26
0.0
 36
0.0
 17
0.0
 27
1.0
 37
0.0
 76
0
330
216
345
0
346
0
  0
LAYOUT
  5
2F5
102
{ACAD_REACTORS
330
1A
102
}
100
AcDbPlotSettings
  1

  2
none_device
  4
ISO_A4_(297.00_x_210.00_MM)
  6

 40
0.0
 41
0.0
 42
0.0
 43
0.0
 44
297.0
 45
210.0
 46
0.0
 47
0.0
 48
0.0
 49
0.0
140
0.0
141
0.0
142
1.0
143
1.0
 70
0
 72
1
 73
0
 74
0
  7

 75
0
147
1.0
148
0.0
149
0.0
100
AcDbLayout
  1
Layout1
 70
0
 71
1
 10
0.0
 20
0.0
 11
297.0
 21
210.0
 12
0.0
 22
0.0
 32
0.0
 14
0.0
 24
0.0
 34
0.0
 15
0.0
 25
0.0
 35
0.0
146
0.0
 13
0.0
 23
0.0
 33
0.0
 16
1.0
 26
0.0
 36
0.0
 17
0.0
 27
1.0
 37
0.0
 76
0
330
217
345
0
346
0
  0
ENDSEC
  0
EOF
