  0
SECTION
  2
HEADER
  9
$ACADVER
  1
AC1015
  9
$DWGCODEPAGE
  3
ANSI_1252
  9
$EXTMAX
 10
297.0
 20
210.0
 30
0.0
  9
$EXTMIN
 10
0.0
 20
0.0
 30
0.0
  9
$LIMMIN
 10
0.0
 20
0.0
  9
$LIMMAX
 10
297.0
 20
210.0
  9
$VIEWCTR
 10
148.5
 20
105.0
  9
$VIEWSIZE
 40
210.0
  9
$CLAYER
  8
0
  9
$LTSCALE
 40
16.335
  9
$CELTYPE
  6
BYLAYER
  9
$DIMSCALE
 40
1.0
  9
$DIMASZ
 40
3.0
  9
$DIMEXO
 40
1.85625
  9
$DIMDLI
 40
11.286
  9
$DIMEXE
 40
5.346
  9
$DIMCEN
 40
2.673
  9
$DIMLFAC
 40
1.0
  9
$DIMBLK
  1
_FILLED
  9
$DIMTXT
 40
3.0
  9
$DIMTOL
 70
1
  9
$DIMLIM
 70
0
  9
$DIMTFAC
 40
1.0
  9
$DIMTP
 40
0.01
  9
$DIMTM
 40
0.01
  9
$PDMODE
 70
3
  9
$PDSIZE
 40
3.0
  9
$HANDSEED
  5
5A6
  9
$TILEMODE
 70
1
  9
$MEASUREMENT
 70
1
  9
$INSUNITS
 70
4
  0
ENDSEC
  0
SECTION
  2
CLASSES
  0
CLASS
  1
ACDBDICTIONARYWDFLT
  2
AcDbDictionaryWithDefault
  3
AutoCAD 2000
 90
0
280
0
281
0
  0
CLASS
  1
ACDBPLACEHOLDER
  2
AcDbPlaceHolder
  3
AutoCAD 2000
 90
0
280
0
281
0
  0
CLASS
  1
LAYOUT
  2
AcDbLayout
  3
AutoCAD 2000
 90
0
280
0
281
0
  0
ENDSEC
  0
SECTION
  2
TABLES
  0
TABLE
  2
VPORT
  5
8
100
AcDbSymbolTable
 70
2
  0
VPORT
  5
1F4
100
AcDbSymbolTableRecord
100
AcDbViewportTableRecord
  2
*ACTIVE
 70
0
 10
0.0
 20
0.0
 11
1.0
 21
1.0
 12
148.5
 22
105.0
 13
0.0
 23
0.0
 14
1.0
 24
1.0
 15
0.0
 25
0.0
 16
0.0
 26
0.0
 36
1.0
 17
0.0
 27
0.0
 37
0.0
 40
210.0
 41
1.4142857143
 42
50.0
 43
0.0
 44
0.0
 50
0.0
 51
0.0
 71
0
 72
100
 73
1
 74
1
 75
0
 76
0
 77
0
 78
0
  0
ENDTAB
  0
TABLE
  2
LTYPE
  5
5
100
AcDbSymbolTable
 70
6
  0
LTYPE
  5
14
100
AcDbSymbolTableRecord
100
AcDbLinetypeTableRecord
  2
BYBLOCK
 70
0
  3

 72
65
 73
0
 40
0.0
  0
LTYPE
  5
15
100
AcDbSymbolTableRecord
100
AcDbLinetypeTableRecord
  2
BYLAYER
 70
0
  3

 72
65
 73
0
 40
0.0
  0
LTYPE
  5
16
100
AcDbSymbolTableRecord
100
AcDbLinetypeTableRecord
  2
CONTINUOUS
 70
64
  3
Solid line
 72
65
 73
0
 40
0.0
  0
LTYPE
  5
1F5
100
AcDbSymbolTableRecord
100
AcDbLinetypeTableRecord
  2
CENTER
 70
64
  3
____ _ ____ _ ____ _ ____ _ ____ _ ____ _ ____
 72
65
 73
4
 40
0.6
 49
0.375
 74
0
 49
-0.075
 74
0
 49
0.075
 74
0
 49
-0.075
 74
0
  0
LTYPE
  5
1F6
100
AcDbSymbolTableRecord
100
AcDbLinetypeTableRecord
  2
HIDDEN
 70
64
  3
- - - - - - - - - - - - - - - - - - - -
 72
65
 73
2
 40
0.2
 49
0.1
 74
0
 49
-0.1
 74
0
  0
LTYPE
  5
1F7
100
AcDbSymbolTableRecord
100
AcDbLinetypeTableRecord
  2
PHANTOM
 70
64
  3
_____ _ _ _____ _ _ _____ _ _ _____
 72
65
 73
6
 40
0.8
 49
0.45
 74
0
 49
-0.05
 74
0
 49
0.1
 74
0
 49
-0.05
 74
0
 49
0.1
 74
0
 49
-0.05
 74
0
  0
LTYPE
  5
1F8
100
AcDbSymbolTableRecord
100
AcDbLinetypeTableRecord
  2
DOT
 70
64
  3
. . . . . . . . . . . . . . . . . . . .
 72
65
 73
2
 40
0.2
 49
0.1
 74
0
 49
-0.1
 74
0
  0
LTYPE
  5
1F9
100
AcDbSymbolTableRecord
100
AcDbLinetypeTableRecord
  2
DASHED
 70
64
  3
- - - - - - - - - - - - - - - - - - - -
 72
65
 73
2
 40
0.2
 49
0.1
 74
0
 49
-0.1
 74
0
  0
ENDTAB
  0
TABLE
  2
LAYER
  5
2
100
AcDbSymbolTable
 70
36
  0
LAYER
  5
10
100
AcDbSymbolTableRecord
100
AcDbLayerTableRecord
  2
0
 70
0
 62
7
  6
CONTINUOUS
370
-3
390
F
  0
LAYER
  5
1FA
100
AcDbSymbolTableRecord
100
AcDbLayerTableRecord
  2
DEFAULT_1
 70
0
 62
7
  6
CENTER
370
-3
390
F
  0
LAYER
  5
1FB
100
AcDbSymbolTableRecord
100
AcDbLayerTableRecord
  2
DEFAULT_2
 70
0
 62
7
  6
HIDDEN
370
-3
390
F
  0
LAYER
  5
1FC
100
AcDbSymbolTableRecord
100
AcDbLayerTableRecord
  2
DEFAULT_3
 70
0
 62
7
  6
PHANTOM
370
-3
390
F
  0
LAYER
  5
1FD
100
AcDbSymbolTableRecord
100
AcDbLayerTableRecord
  2
ASSI
 70
0
 62
7
  6
CONTINUOUS
370
-3
390
F
  0
LAYER
  5
1FE
100
AcDbSymbolTableRecord
100
AcDbLayerTableRecord
  2
COORDINATE
 70
0
 62
7
  6
CONTINUOUS
370
-3
390
F
  0
LAYER
  5
1FF
100
AcDbSymbolTableRecord
100
AcDbLayerTableRecord
  2
COORD_ORIGINE
 70
0
 62
7
  6
CONTINUOUS
370
-3
390
F
  0
LAYER
  5
200
100
AcDbSymbolTableRecord
100
AcDbLayerTableRecord
  2
COPY_PUBLISH
 70
0
 62
7
  6
CONTINUOUS
370
-3
390
F
  0
LAYER
  5
201
100
AcDbSymbolTableRecord
100
AcDbLayerTableRecord
  2
COSMETIC
 70
0
 62
7
  6
CONTINUOUS
370
-3
390
F
  0
LAYER
  5
202
100
AcDbSymbolTableRecord
100
AcDbLayerTableRecord
  2
COSMETICI
 70
0
 62
7
  6
CONTINUOUS
370
-3
390
F
  0
LAYER
  5
203
100
AcDbSymbolTableRecord
100
AcDbLayerTableRecord
  2
CURVE
 70
0
 62
7
  6
CONTINUOUS
370
-3
390
F
  0
LAYER
  5
204
100
AcDbSymbolTableRecord
100
AcDbLayerTableRecord
  2
DRAFT
 70
0
 62
7
  6
CONTINUOUS
370
-3
390
F
  0
LAYER
  5
205
100
AcDbSymbolTableRecord
100
AcDbLayerTableRecord
  2
IMPORT
 70
0
 62
7
  6
CONTINUOUS
370
-3
390
F
  0
LAYER
  5
206
100
AcDbSymbolTableRecord
100
AcDbLayerTableRecord
  2
IMPORT_IGES
 70
0
 62
7
  6
CONTINUOUS
370
-3
390
F
  0
LAYER
  5
207
100
AcDbSymbolTableRecord
100
AcDbLayerTableRecord
  2
NOTE
 70
0
 62
7
  6
CONTINUOUS
370
-3
390
F
  0
LAYER
  5
208
100
AcDbSymbolTableRecord
100
AcDbLayerTableRecord
  2
PIANI
 70
0
 62
7
  6
CONTINUOUS
370
-3
390
F
  0
LAYER
  5
209
100
AcDbSymbolTableRecord
100
AcDbLayerTableRecord
  2
PIANI_ORIGINE
 70
0
 62
7
  6
CONTINUOUS
370
-3
390
F
  0
LAYER
  5
20A
100
AcDbSymbolTableRecord
100
AcDbLayerTableRecord
  2
PIANI_RIFERIMENTO
 70
0
 62
7
  6
CONTINUOUS
370
-3
390
F
  0
LAYER
  5
20B
100
AcDbSymbolTableRecord
100
AcDbLayerTableRecord
  2
PUNTI
 70
0
 62
7
  6
CONTINUOUS
370
-3
390
F
  0
LAYER
  5
20C
100
AcDbSymbolTableRecord
100
AcDbLayerTableRecord
  2
RACCORDO
 70
0
 62
7
  6
CONTINUOUS
370
-3
390
F
  0
LAYER
  5
20D
100
AcDbSymbolTableRecord
100
AcDbLayerTableRecord
  2
SMUSSO
 70
0
 62
7
  6
CONTINUOUS
370
-3
390
F
  0
LAYER
  5
20E
100
AcDbSymbolTableRecord
100
AcDbLayerTableRecord
  2
SNAPLINE
 70
0
 62
7
  6
CONTINUOUS
370
-3
390
F
  0
LAYER
  5
20F
100
AcDbSymbolTableRecord
100
AcDbLayerTableRecord
  2
SUPERFICI
 70
0
 62
7
  6
CONTINUOUS
370
-3
390
F
  0
LAYER
  5
210
100
AcDbSymbolTableRecord
100
AcDbLayerTableRecord
  2
TRASH
 70
0
 62
7
  6
CONTINUOUS
370
-3
390
F
  0
LAYER
  5
211
100
AcDbSymbolTableRecord
100
AcDbLayerTableRecord
  2
XSEC_DATUMS
 70
0
 62
7
  6
CONTINUOUS
370
-3
390
F
  0
ENDTAB
  0
TABLE
  2
STYLE
  5
3
100
AcDbSymbolTable
 70
1
  0
STYLE
  5
11
100
AcDbSymbolTableRecord
100
AcDbTextStyleTableRecord
  2
STANDARD
 70
0
 40
0.0
 41
0.8
 50
0.0
 71
0
 42
0.2
  3
txt
  4

  0
STYLE
  5
212
100
AcDbSymbolTableRecord
100
AcDbTextStyleTableRecord
  2
TEXTSTYLE_1
 70
0
 40
0.0
 41
0.8
 50
0.0
 71
0
 42
0.2
  3
gdt
  4

  0
ENDTAB
  0
TABLE
  2
VIEW
  5
6
100
AcDbSymbolTable
 70
0
  0
ENDTAB
  0
TABLE
  2
UCS
  5
7
100
AcDbSymbolTable
 70
0
  0
ENDTAB
  0
TABLE
  2
APPID
  5
9
100
AcDbSymbolTable
 70
1
  0
APPID
  5
213
100
AcDbSymbolTableRecord
100
AcDbRegAppTableRecord
  2
ACAD
 70
0
  0
ENDTAB
  0
TABLE
  2
BLOCK_RECORD
  5
1
100
AcDbSymbolTable
 70
0
  0
BLOCK_RECORD
  5
214
100
AcDbSymbolTableRecord
100
AcDbBlockTableRecord
  2
*Model_Space
  0
BLOCK_RECORD
  5
215
100
AcDbSymbolTableRecord
100
AcDbBlockTableRecord
  2
*Paper_Space
  0
ENDTAB
  0
TABLE
  2
DIMSTYLE
  5
A
100
AcDbSymbolTable
 70
1
100
AcDbDimStyleTable
 71
0
  0
DIMSTYLE
105
216
100
AcDbSymbolTableRecord
100
AcDbDimStyleTableRecord
  2
STANDARD
 70
0
  3

  4

 40
1.0
 41
3.0
 42
0.0625
 43
0.38
 44
0.18
 45
0.0
 46
0.0
 47
0.01
 48
0.01
140
3.0
141
0.09
142
0.0
143
25.4
144
1.0
145
0.0
146
1.0
147
0.09
 71
1.0
 72
0.0
 73
0
 74
0
 75
0
 76
0
 77
1
 78
8
170
0
171
2
172
0
173
0
174
0
175
0
176
0
177
0
178
0
270
2
271
2
272
2
273
2
274
2
275
0
280
0
281
0
282
0
283
1
284
8
285
0
286
0
287
3
288
0
340
11
  0
ENDTAB
  0
ENDSEC
  0
SECTION
  2
BLOCKS
  0
BLOCK
  5
20
100
AcDbEntity
  8
0
100
AcDbBlockBegin
  2
*Model_Space
 70
0
 10
0.0
 20
0.0
 30
0.0
  3
*Model_Space
  1

  0
ENDBLK
  5
21
100
AcDbEntity
  8
0
100
AcDbBlockEnd
  0
BLOCK
  5
1C
100
AcDbEntity
  8
0
100
AcDbBlockBegin
  2
*Paper_Space
 70
0
 10
0.0
 20
0.0
 30
0.0
  3
*Paper_Space
  1

  0
ENDBLK
  5
1D
100
AcDbEntity
  8
0
100
AcDbBlockEnd
  0
ENDSEC
  0
SECTION
  2
ENTITIES
  0
SPLINE
  5
217
100
AcDbEntity
  8
CURVE
100
AcDbSpline
 62
253
  6
CONTINUOUS
 70
0
 71
3
 72
8
 73
4
 74
0
 42
0.0000001
 43
0.0000001
 44
0.0000000001
 40
0.0
 40
0.0
 40
0.0
 40
0.0
 40
1.0
 40
1.0
 40
1.0
 40
1.0
 10
-5.9368521095
 20
-8.9867984854
 30
0.0
 10
-5.8995725514
 20
-9.0256665185
 30
0.0
 10
-5.8571826329
 20
-9.0624165378
 30
0.0
 10
-5.8100065659
 20
-9.0999673221
 30
0.0
  0
SPLINE
  5
218
100
AcDbEntity
  8
CURVE
100
AcDbSpline
 62
253
  6
CONTINUOUS
 70
0
 71
3
 72
8
 73
4
 74
0
 42
0.0000001
 43
0.0000001
 44
0.0000000001
 40
0.0
 40
0.0
 40
0.0
 40
0.0
 40
1.0
 40
1.0
 40
1.0
 40
1.0
 10
-6.0335759167
 20
-8.8616775006
 30
0.0
 10
-6.0069488512
 20
-8.9066173713
 30
0.0
 10
-5.9734008568
 20
-8.9486924027
 30
0.0
 10
-5.9368521095
 20
-8.9867984854
 30
0.0
  0
SPLINE
  5
219
100
AcDbEntity
  8
CURVE
100
AcDbSpline
 62
253
  6
CONTINUOUS
 70
0
 71
3
 72
8
 73
4
 74
0
 42
0.0000001
 43
0.0000001
 44
0.0000000001
 40
0.0
 40
0.0
 40
0.0
 40
0.0
 40
1.0
 40
1.0
 40
1.0
 40
1.0
 10
-6.0984801445
 20
-8.7133894507
 30
0.0
 10
-6.0817100253
 20
-8.7680327409
 30
0.0
 10
-6.0602028669
 20
-8.8167378246
 30
0.0
 10
-6.0335759167
 20
-8.8616775006
 30
0.0
  0
SPLINE
  5
21A
100
AcDbEntity
  8
CURVE
100
AcDbSpline
 62
253
  6
CONTINUOUS
 70
0
 71
3
 72
8
 73
4
 74
0
 42
0.0000001
 43
0.0000001
 44
0.0000000001
 40
0.0
 40
0.0
 40
0.0
 40
0.0
 40
1.0
 40
1.0
 40
1.0
 40
1.0
 10
-6.1252589364
 20
-8.5375249166
 30
0.0
 10
-6.1224313153
 20
-8.602191266
 30
0.0
 10
-6.1145779385
 20
-8.6609368464
 30
0.0
 10
-6.0984801445
 20
-8.7133894507
 30
0.0
  0
SPLINE
  5
21B
100
AcDbEntity
  8
CURVE
100
AcDbSpline
 62
253
  6
CONTINUOUS
 70
0
 71
3
 72
8
 73
4
 74
0
 42
0.0000001
 43
0.0000001
 44
0.0000000001
 40
0.0
 40
0.0
 40
0.0
 40
0.0
 40
1.0
 40
1.0
 40
1.0
 40
1.0
 10
-6.1045221372
 20
-8.3768909236
 30
0.0
 10
-6.1215324388
 20
-8.4213167347
 30
0.0
 10
-6.1279923017
 20
-8.4750141538
 30
0.0
 10
-6.1252589364
 20
-8.5375249166
 30
0.0
  0
SPLINE
  5
21C
100
AcDbEntity
  8
CURVE
100
AcDbSpline
 62
253
  6
CONTINUOUS
 70
0
 71
3
 72
8
 73
4
 74
0
 42
0.0000001
 43
0.0000001
 44
0.0000000001
 40
0.0
 40
0.0
 40
0.0
 40
0.0
 40
1.0
 40
1.0
 40
1.0
 40
1.0
 10
-6.0257850201
 20
-8.2831241518
 30
0.0
 10
-6.0614955116
 20
-8.3037460036
 30
0.0
 10
-6.0883311675
 20
-8.3346049622
 30
0.0
 10
-6.1045221372
 20
-8.3768909236
 30
0.0
  0
SPLINE
  5
21D
100
AcDbEntity
  8
CURVE
100
AcDbSpline
 62
253
  6
CONTINUOUS
 70
0
 71
3
 72
8
 73
4
 74
0
 42
0.0000001
 43
0.0000001
 44
0.0000000001
 40
0.0
 40
0.0
 40
0.0
 40
0.0
 40
1.0
 40
1.0
 40
1.0
 40
1.0
 10
-5.8942723667
 20
-8.2626400677
 30
0.0
 10
-5.9472517217
 20
-8.2575553967
 30
0.0
 10
-5.9910500445
 20
-8.2630656343
 30
0.0
 10
-6.0257850201
 20
-8.2831241518
 30
0.0
  0
SPLINE
  5
21E
100
AcDbEntity
  8
CURVE
100
AcDbSpline
 62
253
  6
CONTINUOUS
 70
0
 71
3
 72
8
 73
4
 74
0
 42
0.0000001
 43
0.0000001
 44
0.0000000001
 40
0.0
 40
0.0
 40
0.0
 40
0.0
 40
1.0
 40
1.0
 40
1.0
 40
1.0
 10
-5.7154855484
 20
-8.3207280499
 30
0.0
 10
-5.7839213925
 20
-8.2865101279
 30
0.0
 10
-5.842881241
 20
-8.267572309
 30
0.0
 10
-5.8942723667
 20
-8.2626400677
 30
0.0
  0
SPLINE
  5
21F
100
AcDbEntity
  8
CURVE
100
AcDbSpline
 62
253
  6
CONTINUOUS
 70
0
 71
3
 72
8
 73
4
 74
0
 42
0.0000001
 43
0.0000001
 44
0.0000000001
 40
0.0
 40
0.0
 40
0.0
 40
0.0
 40
1.0
 40
1.0
 40
1.0
 40
1.0
 10
-6.9817130089
 20
-7.9659255092
 30
0.0
 10
-6.9506156206
 20
-7.9519563456
 30
0.0
 10
-6.9009432602
 20
-7.9599251383
 30
0.0
 10
-6.8289054622
 20
-7.9959440374
 30
0.0
  0
SPLINE
  5
220
100
AcDbEntity
  8
CURVE
100
AcDbSpline
 62
253
  6
CONTINUOUS
 70
0
 71
3
 72
8
 73
4
 74
0
 42
0.0000001
 43
0.0000001
 44
0.0000000001
 40
0.0
 40
0.0
 40
0.0
 40
0.0
 40
1.0
 40
1.0
 40
1.0
 40
1.0
 10
-7.0228822073
 20
-8.0718459875
 30
0.0
 10
-7.0253328134
 20
-8.0158017925
 30
0.0
 10
-7.0128103972
 20
-7.9798946727
 30
0.0
 10
-6.9817130089
 20
-7.9659255092
 30
0.0
  0
SPLINE
  5
221
100
AcDbEntity
  8
CURVE
100
AcDbSpline
 62
253
  6
CONTINUOUS
 70
0
 71
3
 72
8
 73
4
 74
0
 42
0.0000001
 43
0.0000001
 44
0.0000000001
 40
0.0
 40
0.0
 40
0.0
 40
0.0
 40
1.0
 40
1.0
 40
1.0
 40
1.0
 10
-7.0073477342
 20
-8.1622282881
 30
0.0
 10
-7.016641144
 20
-8.1340021408
 30
0.0
 10
-7.0214683989
 20
-8.1041791143
 30
0.0
 10
-7.0228822073
 20
-8.0718459875
 30
0.0
  0
SPLINE
  5
222
100
AcDbEntity
  8
CURVE
100
AcDbSpline
 62
253
  6
CONTINUOUS
 70
0
 71
3
 72
8
 73
4
 74
0
 42
0.0000001
 43
0.0000001
 44
0.0000000001
 40
0.0
 40
0.0
 40
0.0
 40
0.0
 40
1.0
 40
1.0
 40
1.0
 40
1.0
 10
-6.9610283271
 20
-8.2468543441
 30
0.0
 10
-6.9830092032
 20
-8.2182875672
 30
0.0
 10
-6.9983592405
 20
-8.1895283377
 30
0.0
 10
-7.0073477342
 20
-8.1622282881
 30
0.0
  0
SPLINE
  5
223
100
AcDbEntity
  8
CURVE
100
AcDbSpline
 62
253
  6
CONTINUOUS
 70
0
 71
3
 72
8
 73
4
 74
0
 42
0.0000001
 43
0.0000001
 44
0.0000000001
 40
0.0
 40
0.0
 40
0.0
 40
0.0
 40
1.0
 40
1.0
 40
1.0
 40
1.0
 10
-6.8740812008
 20
-8.3414999761
 30
0.0
 10
-6.9104158717
 20
-8.3072946663
 30
0.0
 10
-6.9381840803
 20
-8.2765431746
 30
0.0
 10
-6.9610283271
 20
-8.2468543441
 30
0.0
  0
SPLINE
  5
224
100
AcDbEntity
  8
CURVE
100
AcDbSpline
 62
253
  6
CONTINUOUS
 70
0
 71
3
 72
8
 73
4
 74
0
 42
0.0000001
 43
0.0000001
 44
0.0000000001
 40
0.0
 40
0.0
 40
0.0
 40
0.0
 40
1.0
 40
1.0
 40
1.0
 40
1.0
 10
-6.7401950103
 20
-8.4535491772
 30
0.0
 10
-6.7948831373
 20
-8.4114461849
 30
0.0
 10
-6.8387654024
 20
-8.3747461235
 30
0.0
 10
-6.8740812008
 20
-8.3414999761
 30
0.0
  0
SPLINE
  5
225
100
AcDbEntity
  8
CURVE
100
AcDbSpline
 62
253
  6
CONTINUOUS
 70
0
 71
3
 72
8
 73
4
 74
0
 42
0.0000001
 43
0.0000001
 44
0.0000000001
 40
0.0
 40
0.0
 40
0.0
 40
0.0
 40
1.0
 40
1.0
 40
1.0
 40
1.0
 10
-6.3666863221
 20
-8.8174107249
 30
0.0
 10
-6.4161501032
 20
-8.7336430615
 30
0.0
 10
-6.4847641454
 20
-8.6550592539
 30
0.0
 10
-6.5723404883
 20
-8.5859700482
 30
0.0
  0
SPLINE
  5
226
100
AcDbEntity
  8
CURVE
100
AcDbSpline
 62
253
  6
CONTINUOUS
 70
0
 71
3
 72
8
 73
4
 74
0
 42
0.0000001
 43
0.0000001
 44
0.0000000001
 40
0.0
 40
0.0
 40
0.0
 40
0.0
 40
1.0
 40
1.0
 40
1.0
 40
1.0
 10
-6.2851390855
 20
-9.1111943941
 30
0.0
 10
-6.2900402955
 20
-8.999106052
 30
0.0
 10
-6.3172226766
 20
-8.9011781587
 30
0.0
 10
-6.3666863221
 20
-8.8174107249
 30
0.0
  0
SPLINE
  5
227
100
AcDbEntity
  8
CURVE
100
AcDbSpline
 62
253
  6
CONTINUOUS
 70
0
 71
3
 72
8
 73
4
 74
0
 42
0.0000001
 43
0.0000001
 44
0.0000000001
 40
0.0
 40
0.0
 40
0.0
 40
0.0
 40
1.0
 40
1.0
 40
1.0
 40
1.0
 10
-6.2987388939
 20
-9.2836100017
 30
0.0
 10
-6.2869705135
 20
-9.2304584991
 30
0.0
 10
-6.2824999719
 20
-9.1715496663
 30
0.0
 10
-6.2851390855
 20
-9.1111943941
 30
0.0
  0
SPLINE
  5
228
100
AcDbEntity
  8
CURVE
100
AcDbSpline
 62
253
  6
CONTINUOUS
 70
0
 71
3
 72
8
 73
4
 74
0
 42
0.0000001
 43
0.0000001
 44
0.0000000001
 40
0.0
 40
0.0
 40
0.0
 40
0.0
 40
1.0
 40
1.0
 40
1.0
 40
1.0
 10
-6.3654142044
 20
-9.410512116
 30
0.0
 10
-6.3314688938
 20
-9.3810995848
 30
0.0
 10
-6.3105072785
 20
-9.3367615239
 30
0.0
 10
-6.2987388939
 20
-9.2836100017
 30
0.0
  0
SPLINE
  5
229
100
AcDbEntity
  8
CURVE
100
AcDbSpline
 62
253
  6
CONTINUOUS
 70
0
 71
3
 72
8
 73
4
 74
0
 42
0.0000001
 43
0.0000001
 44
0.0000000001
 40
0.0
 40
0.0
 40
0.0
 40
0.0
 40
1.0
 40
1.0
 40
1.0
 40
1.0
 10
-6.5009567958
 20
-9.4562127631
 30
0.0
 10
-6.4444873831
 20
-9.4553122353
 30
0.0
 10
-6.3993595151
 20
-9.4399246472
 30
0.0
 10
-6.3654142044
 20
-9.410512116
 30
0.0
  0
SPLINE
  5
22A
100
AcDbEntity
  8
CURVE
100
AcDbSpline
 62
253
  6
CONTINUOUS
 70
0
 71
3
 72
8
 73
4
 74
0
 42
0.0000001
 43
0.0000001
 44
0.0000000001
 40
0.0
 40
0.0
 40
0.0
 40
0.0
 40
1.0
 40
1.0
 40
1.0
 40
1.0
 10
-5.8705315109
 20
-8.5215162581
 30
0.0
 10
-5.8394341227
 20
-8.5075470946
 30
0.0
 10
-5.7897617623
 20
-8.5155158873
 30
0.0
 10
-5.7177242845
 20
-8.5515346262
 30
0.0
  0
SPLINE
  5
22B
100
AcDbEntity
  8
CURVE
100
AcDbSpline
 62
253
  6
CONTINUOUS
 70
0
 71
3
 72
8
 73
4
 74
0
 42
0.0000001
 43
0.0000001
 44
0.0000000001
 40
0.0
 40
0.0
 40
0.0
 40
0.0
 40
1.0
 40
1.0
 40
1.0
 40
1.0
 10
-6.722135456
 20
-9.3902828255
 30
0.0
 10
-6.6320882084
 20
-9.4353064493
 30
0.0
 10
-6.5589093717
 20
-9.4571369432
 30
0.0
 10
-6.5009567958
 20
-9.4562127631
 30
0.0
  0
SPLINE
  5
22C
100
AcDbEntity
  8
CURVE
100
AcDbSpline
 62
253
  6
CONTINUOUS
 70
0
 71
3
 72
8
 73
4
 74
0
 42
0.0000001
 43
0.0000001
 44
0.0000000001
 40
0.0
 40
0.0
 40
0.0
 40
0.0
 40
1.0
 40
1.0
 40
1.0
 40
1.0
 10
-6.5553725809
 20
-9.184285047
 30
0.0
 10
-6.594490673
 20
-9.2074203204
 30
0.0
 10
-6.6566754594
 20
-9.1953037029
 30
0.0
 10
-6.7431204327
 20
-9.1520812162
 30
0.0
  0
SPLINE
  5
22D
100
AcDbEntity
  8
CURVE
100
AcDbSpline
 62
253
  6
CONTINUOUS
 70
0
 71
3
 72
8
 73
4
 74
0
 42
0.0000001
 43
0.0000001
 44
0.0000000001
 40
0.0
 40
0.0
 40
0.0
 40
0.0
 40
1.0
 40
1.0
 40
1.0
 40
1.0
 10
-6.501262471
 20
-9.0431926176
 30
0.0
 10
-6.4980578328
 20
-9.1164811692
 30
0.0
 10
-6.5172183109
 20
-9.1617197986
 30
0.0
 10
-6.5553725809
 20
-9.184285047
 30
0.0
  0
SPLINE
  5
22E
100
AcDbEntity
  8
CURVE
100
AcDbSpline
 62
253
  6
CONTINUOUS
 70
0
 71
3
 72
8
 73
4
 74
0
 42
0.0000001
 43
0.0000001
 44
0.0000000001
 40
0.0
 40
0.0
 40
0.0
 40
0.0
 40
1.0
 40
1.0
 40
1.0
 40
1.0
 10
-5.9117010297
 20
-8.6274365763
 30
0.0
 10
-5.9141516358
 20
-8.5713923813
 30
0.0
 10
-5.9016288992
 20
-8.5354854217
 30
0.0
 10
-5.8705315109
 20
-8.5215162581
 30
0.0
  0
SPLINE
  5
22F
100
AcDbEntity
  8
CURVE
100
AcDbSpline
 62
253
  6
CONTINUOUS
 70
0
 71
3
 72
8
 73
4
 74
0
 42
0.0000001
 43
0.0000001
 44
0.0000000001
 40
0.0
 40
0.0
 40
0.0
 40
0.0
 40
1.0
 40
1.0
 40
1.0
 40
1.0
 10
-6.5564855103
 20
-8.8679918563
 30
0.0
 10
-6.5225605009
 20
-8.9186890421
 30
0.0
 10
-6.5041843458
 20
-8.9763707296
 30
0.0
 10
-6.501262471
 20
-9.0431926176
 30
0.0
  0
SPLINE
  5
230
100
AcDbEntity
  8
CURVE
100
AcDbSpline
 62
253
  6
CONTINUOUS
 70
0
 71
3
 72
8
 73
4
 74
0
 42
0.0000001
 43
0.0000001
 44
0.0000000001
 40
0.0
 40
0.0
 40
0.0
 40
0.0
 40
1.0
 40
1.0
 40
1.0
 40
1.0
 10
-5.8961664201
 20
-8.7178188783
 30
0.0
 10
-5.9054599663
 20
-8.6895927296
 30
0.0
 10
-5.9102872212
 20
-8.6597697031
 30
0.0
 10
-5.9117010297
 20
-8.6274365763
 30
0.0
  0
SPLINE
  5
231
100
AcDbEntity
  8
CURVE
100
AcDbSpline
 62
253
  6
CONTINUOUS
 70
0
 71
3
 72
8
 73
4
 74
0
 42
0.0000001
 43
0.0000001
 44
0.0000000001
 40
0.0
 40
0.0
 40
0.0
 40
0.0
 40
1.0
 40
1.0
 40
1.0
 40
1.0
 10
-5.8498468778
 20
-8.8024451555
 30
0.0
 10
-5.8718277053
 20
-8.7738783161
 30
0.0
 10
-5.8871777426
 20
-8.7451190866
 30
0.0
 10
-5.8961664201
 20
-8.7178188783
 30
0.0
  0
SPLINE
  5
232
100
AcDbEntity
  8
CURVE
100
AcDbSpline
 62
253
  6
CONTINUOUS
 70
0
 71
3
 72
8
 73
4
 74
0
 42
0.0000001
 43
0.0000001
 44
0.0000000001
 40
0.0
 40
0.0
 40
0.0
 40
0.0
 40
1.0
 40
1.0
 40
1.0
 40
1.0
 10
-6.7003522961
 20
-8.7201554544
 30
0.0
 10
-6.6383660075
 20
-8.7680159393
 30
0.0
 10
-6.5904105197
 20
-8.8172946705
 30
0.0
 10
-6.5564855103
 20
-8.8679918563
 30
0.0
  0
SPLINE
  5
233
100
AcDbEntity
  8
CURVE
100
AcDbSpline
 62
253
  6
CONTINUOUS
 70
0
 71
3
 72
8
 73
4
 74
0
 42
0.0000001
 43
0.0000001
 44
0.0000000001
 40
0.0
 40
0.0
 40
0.0
 40
0.0
 40
1.0
 40
1.0
 40
1.0
 40
1.0
 10
-5.7629000232
 20
-8.8970905649
 30
0.0
 10
-5.7992346941
 20
-8.8628852551
 30
0.0
 10
-5.8270029027
 20
-8.8321337634
 30
0.0
 10
-5.8498468778
 20
-8.8024451555
 30
0.0
  0
SPLINE
  5
234
100
AcDbEntity
  8
CURVE
100
AcDbSpline
 62
253
  6
CONTINUOUS
 70
0
 71
3
 72
8
 73
4
 74
0
 42
0.0000001
 43
0.0000001
 44
0.0000000001
 40
0.0
 40
0.0
 40
0.0
 40
0.0
 40
1.0
 40
1.0
 40
1.0
 40
1.0
 10
-5.6290135124
 20
-9.0091399262
 30
0.0
 10
-5.6837016394
 20
-8.9670369338
 30
0.0
 10
-5.7275842247
 20
-8.9303367123
 30
0.0
 10
-5.7629000232
 20
-8.8970905649
 30
0.0
  0
SPLINE
  5
235
100
AcDbEntity
  8
CURVE
100
AcDbSpline
 62
253
  6
CONTINUOUS
 70
0
 71
3
 72
8
 73
4
 74
0
 42
0.0000001
 43
0.0000001
 44
0.0000000001
 40
0.0
 40
0.0
 40
0.0
 40
0.0
 40
1.0
 40
1.0
 40
1.0
 40
1.0
 10
-5.255504906
 20
-9.3730015265
 30
0.0
 10
-5.3049689256
 20
-9.2892336503
 30
0.0
 10
-5.3735829529
 20
-9.2106497619
 30
0.0
 10
-5.4611589904
 20
-9.1415607971
 30
0.0
  0
SPLINE
  5
236
100
AcDbEntity
  8
CURVE
100
AcDbSpline
 62
253
  6
CONTINUOUS
 70
0
 71
3
 72
8
 73
4
 74
0
 42
0.0000001
 43
0.0000001
 44
0.0000000001
 40
0.0
 40
0.0
 40
0.0
 40
0.0
 40
1.0
 40
1.0
 40
1.0
 40
1.0
 10
-5.1739579078
 20
-9.6667849829
 30
0.0
 10
-5.1788591179
 20
-9.5546966408
 30
0.0
 10
-5.2060411786
 20
-9.4567689077
 30
0.0
 10
-5.255504906
 20
-9.3730015265
 30
0.0
  0
SPLINE
  5
237
100
AcDbEntity
  8
CURVE
100
AcDbSpline
 62
253
  6
CONTINUOUS
 70
0
 71
3
 72
8
 73
4
 74
0
 42
0.0000001
 43
0.0000001
 44
0.0000000001
 40
0.0
 40
0.0
 40
0.0
 40
0.0
 40
1.0
 40
1.0
 40
1.0
 40
1.0
 10
-5.1875576965
 20
-9.8392005014
 30
0.0
 10
-5.1757893359
 20
-9.7860490879
 30
0.0
 10
-5.1713187943
 20
-9.7271402551
 30
0.0
 10
-5.1739579078
 20
-9.6667849829
 30
0.0
  0
SPLINE
  5
238
100
AcDbEntity
  8
CURVE
100
AcDbSpline
 62
253
  6
CONTINUOUS
 70
0
 71
3
 72
8
 73
4
 74
0
 42
0.0000001
 43
0.0000001
 44
0.0000000001
 40
0.0
 40
0.0
 40
0.0
 40
0.0
 40
1.0
 40
1.0
 40
1.0
 40
1.0
 10
-5.2542327065
 20
-9.966102865
 30
0.0
 10
-5.2202873959
 20
-9.9366903337
 30
0.0
 10
-5.1993261009
 20
-9.8923521127
 30
0.0
 10
-5.1875576965
 20
-9.8392005014
 30
0.0
  0
SPLINE
  5
239
100
AcDbEntity
  8
CURVE
100
AcDbSpline
 62
253
  6
CONTINUOUS
 70
0
 71
3
 72
8
 73
4
 74
0
 42
0.0000001
 43
0.0000001
 44
0.0000000001
 40
0.0
 40
0.0
 40
0.0
 40
0.0
 40
1.0
 40
1.0
 40
1.0
 40
1.0
 10
-5.3897753256
 20
-10.011803431
 30
0.0
 10
-5.3333058852
 20
-10.0109029843
 30
0.0
 10
-5.2881780171
 20
-9.9955153962
 30
0.0
 10
-5.2542327065
 20
-9.966102865
 30
0.0
  0
SPLINE
  5
23A
100
AcDbEntity
  8
CURVE
100
AcDbSpline
 62
253
  6
CONTINUOUS
 70
0
 71
3
 72
8
 73
4
 74
0
 42
0.0000001
 43
0.0000001
 44
0.0000000001
 40
0.0
 40
0.0
 40
0.0
 40
0.0
 40
1.0
 40
1.0
 40
1.0
 40
1.0
 10
-5.610953958
 20
-9.9458735745
 30
0.0
 10
-5.5209070308
 20
-9.9908970381
 30
0.0
 10
-5.447728194
 20
-10.012727532
 30
0.0
 10
-5.3897753256
 20
-10.011803431
 30
0.0
  0
SPLINE
  5
23B
100
AcDbEntity
  8
CURVE
100
AcDbSpline
 62
253
  6
CONTINUOUS
 70
0
 71
3
 72
8
 73
4
 74
0
 42
0.0000001
 43
0.0000001
 44
0.0000000001
 40
0.0
 40
0.0
 40
0.0
 40
0.0
 40
1.0
 40
1.0
 40
1.0
 40
1.0
 10
-7.0480333136
 20
-8.4312079567
 30
0.0
 10
-7.010753729
 20
-8.4700759297
 30
0.0
 10
-6.9683638245
 20
-8.5068260327
 30
0.0
 10
-6.9211880638
 20
-8.5443765731
 30
0.0
  0
SPLINE
  5
23C
100
AcDbEntity
  8
CURVE
100
AcDbSpline
 62
253
  6
CONTINUOUS
 70
0
 71
3
 72
8
 73
4
 74
0
 42
0.0000001
 43
0.0000001
 44
0.0000000001
 40
0.0
 40
0.0
 40
0.0
 40
0.0
 40
1.0
 40
1.0
 40
1.0
 40
1.0
 10
-7.1447572571
 20
-8.3060870175
 30
0.0
 10
-7.1181303491
 20
-8.3510266223
 30
0.0
 10
-7.0845823547
 20
-8.3931016537
 30
0.0
 10
-7.0480333136
 20
-8.4312079567
 30
0.0
  0
SPLINE
  5
23D
100
AcDbEntity
  8
CURVE
100
AcDbSpline
 62
253
  6
CONTINUOUS
 70
0
 71
3
 72
8
 73
4
 74
0
 42
0.0000001
 43
0.0000001
 44
0.0000000001
 40
0.0
 40
0.0
 40
0.0
 40
0.0
 40
1.0
 40
1.0
 40
1.0
 40
1.0
 10
-7.2096613221
 20
-8.1577988619
 30
0.0
 10
-7.192891203
 20
-8.212442152
 30
0.0
 10
-7.1713843648
 20
-8.2611470757
 30
0.0
 10
-7.1447572571
 20
-8.3060870175
 30
0.0
  0
SPLINE
  5
23E
100
AcDbEntity
  8
CURVE
100
AcDbSpline
 62
253
  6
CONTINUOUS
 70
0
 71
3
 72
8
 73
4
 74
0
 42
0.0000001
 43
0.0000001
 44
0.0000000001
 40
0.0
 40
0.0
 40
0.0
 40
0.0
 40
1.0
 40
1.0
 40
1.0
 40
1.0
 10
-7.2364404344
 20
-7.9819341677
 30
0.0
 10
-7.2336128133
 20
-8.046600517
 30
0.0
 10
-7.2257591161
 20
-8.1053462576
 30
0.0
 10
-7.2096613221
 20
-8.1577988619
 30
0.0
  0
SPLINE
  5
23F
100
AcDbEntity
  8
CURVE
100
AcDbSpline
 62
253
  6
CONTINUOUS
 70
0
 71
3
 72
8
 73
4
 74
0
 42
0.0000001
 43
0.0000001
 44
0.0000000001
 40
0.0
 40
0.0
 40
0.0
 40
0.0
 40
1.0
 40
1.0
 40
1.0
 40
1.0
 10
-5.444191231
 20
-9.739875534
 30
0.0
 10
-5.4833094954
 20
-9.7630109092
 30
0.0
 10
-5.5454939614
 20
-9.7508944519
 30
0.0
 10
-5.6319392551
 20
-9.707671805
 30
0.0
  0
SPLINE
  5
240
100
AcDbEntity
  8
CURVE
100
AcDbSpline
 62
253
  6
CONTINUOUS
 70
0
 71
3
 72
8
 73
4
 74
0
 42
0.0000001
 43
0.0000001
 44
0.0000000001
 40
0.0
 40
0.0
 40
0.0
 40
0.0
 40
1.0
 40
1.0
 40
1.0
 40
1.0
 10
-5.3900812933
 20
-9.5987832064
 30
0.0
 10
-5.3868766551
 20
-9.672071758
 30
0.0
 10
-5.4060371333
 20
-9.7173103875
 30
0.0
 10
-5.444191231
 20
-9.739875534
 30
0.0
  0
SPLINE
  5
241
100
AcDbEntity
  8
CURVE
100
AcDbSpline
 62
253
  6
CONTINUOUS
 70
0
 71
3
 72
8
 73
4
 74
0
 42
0.0000001
 43
0.0000001
 44
0.0000000001
 40
0.0
 40
0.0
 40
0.0
 40
0.0
 40
1.0
 40
1.0
 40
1.0
 40
1.0
 10
-5.4453041996
 20
-9.4235823255
 30
0.0
 10
-5.411379003
 20
-9.4742797911
 30
0.0
 10
-5.3930031682
 20
-9.5319613185
 30
0.0
 10
-5.3900812933
 20
-9.5987832064
 30
0.0
  0
SPLINE
  5
242
100
AcDbEntity
  8
CURVE
100
AcDbSpline
 62
253
  6
CONTINUOUS
 70
0
 71
3
 72
8
 73
4
 74
0
 42
0.0000001
 43
0.0000001
 44
0.0000000001
 40
0.0
 40
0.0
 40
0.0
 40
0.0
 40
1.0
 40
1.0
 40
1.0
 40
1.0
 10
-7.2157034488
 20
-7.8213001986
 30
0.0
 10
-7.2327139368
 20
-7.8657259857
 30
0.0
 10
-7.2391737996
 20
-7.9194234048
 30
0.0
 10
-7.2364404344
 20
-7.9819341677
 30
0.0
  0
SPLINE
  5
243
100
AcDbEntity
  8
CURVE
100
AcDbSpline
 62
253
  6
CONTINUOUS
 70
0
 71
3
 72
8
 73
4
 74
0
 42
0.0000001
 43
0.0000001
 44
0.0000000001
 40
0.0
 40
0.0
 40
0.0
 40
0.0
 40
1.0
 40
1.0
 40
1.0
 40
1.0
 10
-5.5891707982
 20
-9.2757462033
 30
0.0
 10
-5.5271845095
 20
-9.3236066882
 30
0.0
 10
-5.4792290217
 20
-9.3728854195
 30
0.0
 10
-5.4453041996
 20
-9.4235823255
 30
0.0
  0
SPLINE
  5
244
100
AcDbEntity
  8
CURVE
100
AcDbSpline
 62
253
  6
CONTINUOUS
 70
0
 71
3
 72
8
 73
4
 74
0
 42
0.0000001
 43
0.0000001
 44
0.0000000001
 40
0.0
 40
0.0
 40
0.0
 40
0.0
 40
1.0
 40
1.0
 40
1.0
 40
1.0
 10
-7.1369663721
 20
-7.7275336637
 30
0.0
 10
-7.1726766892
 20
-7.7481554148
 30
0.0
 10
-7.1995123452
 20
-7.7790143734
 30
0.0
 10
-7.2157034488
 20
-7.8213001986
 30
0.0
  0
SPLINE
  5
245
100
AcDbEntity
  8
CURVE
100
AcDbSpline
 62
253
  6
CONTINUOUS
 70
0
 71
3
 72
8
 73
4
 74
0
 42
0.0000001
 43
0.0000001
 44
0.0000000001
 40
0.0
 40
0.0
 40
0.0
 40
0.0
 40
1.0
 40
1.0
 40
1.0
 40
1.0
 10
-7.005453827
 20
-7.7070494517
 30
0.0
 10
-7.0584328993
 20
-7.7019648079
 30
0.0
 10
-7.1022312222
 20
-7.7074750455
 30
0.0
 10
-7.1369663721
 20
-7.7275336637
 30
0.0
  0
SPLINE
  5
246
100
AcDbEntity
  8
CURVE
100
AcDbSpline
 62
253
  6
CONTINUOUS
 70
0
 71
3
 72
8
 73
4
 74
0
 42
0.0000001
 43
0.0000001
 44
0.0000000001
 40
0.0
 40
0.0
 40
0.0
 40
0.0
 40
1.0
 40
1.0
 40
1.0
 40
1.0
 10
-6.826666726
 20
-7.7651374611
 30
0.0
 10
-6.8951025702
 20
-7.730919539
 30
0.0
 10
-6.9540624186
 20
-7.7119817202
 30
0.0
 10
-7.005453827
 20
-7.7070494517
 30
0.0
  0
SPLINE
  5
247
100
AcDbEntity
  8
CURVE
100
AcDbSpline
 62
253
  6
CONTINUOUS
 70
0
 71
3
 72
8
 73
4
 74
0
 42
0.0000001
 43
0.0000001
 44
0.0000000001
 40
0.0
 40
0.0
 40
0.0
 40
0.0
 40
1.0
 40
1.0
 40
1.0
 40
1.0
 10
-10.2081365853
 20
-7.0569252477
 30
0.0
 10
-10.1415017182
 20
-7.0902426812
 30
0.0
 10
-10.0807408907
 20
-7.1100810365
 30
0.0
 10
-10.0259562578
 20
-7.1160773299
 30
0.0
  0
SPLINE
  5
248
100
AcDbEntity
  8
CURVE
100
AcDbSpline
 62
253
  6
CONTINUOUS
 70
0
 71
3
 72
8
 73
4
 74
0
 42
0.0000001
 43
0.0000001
 44
0.0000000001
 40
0.0
 40
0.0
 40
0.0
 40
0.0
 40
1.0
 40
1.0
 40
1.0
 40
1.0
 10
-10.0259562578
 20
-7.1160773299
 30
0.0
 10
-9.9727685382
 20
-7.1218988379
 30
0.0
 10
-9.9255569311
 20
-7.113878372
 30
0.0
 10
-9.8874439842
 20
-7.0892255466
 30
0.0
  0
SPLINE
  5
249
100
AcDbEntity
  8
CURVE
100
AcDbSpline
 62
253
  6
CONTINUOUS
 70
0
 71
3
 72
8
 73
4
 74
0
 42
0.0000001
 43
0.0000001
 44
0.0000000001
 40
0.0
 40
0.0
 40
0.0
 40
0.0
 40
1.0
 40
1.0
 40
1.0
 40
1.0
 10
-9.8874439842
 20
-7.0892255466
 30
0.0
 10
-9.8501798799
 20
-7.0651217831
 30
0.0
 10
-9.8221086894
 20
-7.0222301216
 30
0.0
 10
-9.8035135212
 20
-6.9640582401
 30
0.0
  0
SPLINE
  5
24A
100
AcDbEntity
  8
CURVE
100
AcDbSpline
 62
253
  6
CONTINUOUS
 70
0
 71
3
 72
8
 73
4
 74
0
 42
0.0000001
 43
0.0000001
 44
0.0000000001
 40
0.0
 40
0.0
 40
0.0
 40
0.0
 40
1.0
 40
1.0
 40
1.0
 40
1.0
 10
-9.8035135212
 20
-6.9640582401
 30
0.0
 10
-9.7849183841
 20
-6.905886456
 30
0.0
 10
-9.7776943335
 20
-6.8293786489
 30
0.0
 10
-9.7818415114
 20
-6.7345346634
 30
0.0
  0
SPLINE
  5
24B
100
AcDbEntity
  8
CURVE
100
AcDbSpline
 62
253
  6
CONTINUOUS
 70
0
 71
3
 72
8
 73
4
 74
0
 42
0.0000001
 43
0.0000001
 44
0.0000000001
 40
0.0
 40
0.0
 40
0.0
 40
0.0
 40
1.0
 40
1.0
 40
1.0
 40
1.0
 10
-9.7818415114
 20
-6.7345346634
 30
0.0
 10
-9.7863657043
 20
-6.6310685237
 30
0.0
 10
-9.8043549353
 20
-6.5419539819
 30
0.0
 10
-9.8358091368
 20
-6.4671911773
 30
0.0
  0
SPLINE
  5
24C
100
AcDbEntity
  8
CURVE
100
AcDbSpline
 62
253
  6
CONTINUOUS
 70
0
 71
3
 72
8
 73
4
 74
0
 42
0.0000001
 43
0.0000001
 44
0.0000000001
 40
0.0
 40
0.0
 40
0.0
 40
0.0
 40
1.0
 40
1.0
 40
1.0
 40
1.0
 10
-9.8358091368
 20
-6.4671911773
 30
0.0
 10
-9.8672633006
 20
-6.3924284623
 30
0.0
 10
-9.9052614548
 20
-6.3291525986
 30
0.0
 10
-9.9534055323
 20
-6.2755627022
 30
0.0
  0
SPLINE
  5
24D
100
AcDbEntity
  8
CURVE
100
AcDbSpline
 62
253
  6
CONTINUOUS
 70
0
 71
3
 72
8
 73
4
 74
0
 42
0.0000001
 43
0.0000001
 44
0.0000000001
 40
0.0
 40
0.0
 40
0.0
 40
0.0
 40
1.0
 40
1.0
 40
1.0
 40
1.0
 10
-9.9534055323
 20
-6.2755627022
 30
0.0
 10
-10.0015496098
 20
-6.2219728058
 30
0.0
 10
-10.05652042
 20
-6.1734031898
 30
0.0
 10
-10.1163284747
 20
-6.1350655212
 30
0.0
  0
SPLINE
  5
24E
100
AcDbEntity
  8
CURVE
100
AcDbSpline
 62
253
  6
CONTINUOUS
 70
0
 71
3
 72
8
 73
4
 74
0
 42
0.0000001
 43
0.0000001
 44
0.0000000001
 40
0.0
 40
0.0
 40
0.0
 40
0.0
 40
1.0
 40
1.0
 40
1.0
 40
1.0
 10
-10.1163284747
 20
-6.1350655212
 30
0.0
 10
-10.1761366087
 20
-6.0967278018
 30
0.0
 10
-10.2376513883
 20
-6.05964513
 30
0.0
 10
-10.2988834446
 20
-6.0290291018
 30
0.0
  0
SPLINE
  5
24F
100
AcDbEntity
  8
CURVE
100
AcDbSpline
 62
253
  6
CONTINUOUS
 70
0
 71
3
 72
8
 73
4
 74
0
 42
0.0000001
 43
0.0000001
 44
0.0000000001
 40
0.0
 40
0.0
 40
0.0
 40
0.0
 40
1.0
 40
1.0
 40
1.0
 40
1.0
 10
-10.2948608504
 20
-6.2418822262
 30
0.0
 10
-10.2516382036
 20
-6.2634935496
 30
0.0
 10
-10.2136299802
 20
-6.2867144847
 30
0.0
 10
-10.1772616143
 20
-6.3135397332
 30
0.0
  0
SPLINE
  5
250
100
AcDbEntity
  8
CURVE
100
AcDbSpline
 62
253
  6
CONTINUOUS
 70
0
 71
3
 72
8
 73
4
 74
0
 42
0.0000001
 43
0.0000001
 44
0.0000000001
 40
0.0
 40
0.0
 40
0.0
 40
0.0
 40
1.0
 40
1.0
 40
1.0
 40
1.0
 10
-10.1772616143
 20
-6.3135397332
 30
0.0
 10
-10.1426392092
 20
-6.3390771639
 30
0.0
 10
-10.1132585312
 20
-6.3664180669
 30
0.0
 10
-10.0878880301
 20
-6.3992622769
 30
0.0
  0
SPLINE
  5
251
100
AcDbEntity
  8
CURVE
100
AcDbSpline
 62
253
  6
CONTINUOUS
 70
0
 71
3
 72
8
 73
4
 74
0
 42
0.0000001
 43
0.0000001
 44
0.0000000001
 40
0.0
 40
0.0
 40
0.0
 40
0.0
 40
1.0
 40
1.0
 40
1.0
 40
1.0
 10
-10.0878880301
 20
-6.3992622769
 30
0.0
 10
-10.0628422901
 20
-6.4316860568
 30
0.0
 10
-10.0437018713
 20
-6.4665573004
 30
0.0
 10
-10.0285113774
 20
-6.5082811721
 30
0.0
  0
SPLINE
  5
252
100
AcDbEntity
  8
CURVE
100
AcDbSpline
 62
253
  6
CONTINUOUS
 70
0
 71
3
 72
8
 73
4
 74
0
 42
0.0000001
 43
0.0000001
 44
0.0000000001
 40
0.0
 40
0.0
 40
0.0
 40
0.0
 40
1.0
 40
1.0
 40
1.0
 40
1.0
 10
-10.0285113774
 20
-6.5082811721
 30
0.0
 10
-10.0136715684
 20
-6.5490418141
 30
0.0
 10
-10.004676993
 20
-6.5935990649
 30
0.0
 10
-10.0024148944
 20
-6.6453321828
 30
0.0
  0
SPLINE
  5
253
100
AcDbEntity
  8
CURVE
100
AcDbSpline
 62
253
  6
CONTINUOUS
 70
0
 71
3
 72
8
 73
4
 74
0
 42
0.0000001
 43
0.0000001
 44
0.0000000001
 40
0.0
 40
0.0
 40
0.0
 40
0.0
 40
1.0
 40
1.0
 40
1.0
 40
1.0
 10
-10.0024148944
 20
-6.6453321828
 30
0.0
 10
-9.9976079424
 20
-6.7552648904
 30
0.0
 10
-10.0194279918
 20
-6.8202579685
 30
0.0
 10
-10.0641788424
 20
-6.8442676988
 30
0.0
  0
SPLINE
  5
254
100
AcDbEntity
  8
CURVE
100
AcDbSpline
 62
253
  6
CONTINUOUS
 70
0
 71
3
 72
8
 73
4
 74
0
 42
0.0000001
 43
0.0000001
 44
0.0000000001
 40
0.0
 40
0.0
 40
0.0
 40
0.0
 40
1.0
 40
1.0
 40
1.0
 40
1.0
 10
-10.0641788424
 20
-6.8442676988
 30
0.0
 10
-10.1089297753
 20
-6.8682774732
 30
0.0
 10
-10.1871344476
 20
-6.8523677127
 30
0.0
 10
-10.2951909846
 20
-6.7983394442
 30
0.0
  0
SPLINE
  5
255
100
AcDbEntity
  8
CURVE
100
AcDbSpline
 62
253
  6
CONTINUOUS
 70
0
 71
3
 72
8
 73
4
 74
0
 42
0.0000001
 43
0.0000001
 44
0.0000000001
 40
0.0
 40
0.0
 40
0.0
 40
0.0
 40
1.0
 40
1.0
 40
1.0
 40
1.0
 10
-9.0339221742
 20
-7.6440324532
 30
0.0
 10
-8.9330695452
 20
-7.6944587677
 30
0.0
 10
-8.8575341962
 20
-7.7701779936
 30
0.0
 10
-8.8109185213
 20
-7.8693888041
 30
0.0
  0
SPLINE
  5
256
100
AcDbEntity
  8
CURVE
100
AcDbSpline
 62
253
  6
CONTINUOUS
 70
0
 71
3
 72
8
 73
4
 74
0
 42
0.0000001
 43
0.0000001
 44
0.0000000001
 40
0.0
 40
0.0
 40
0.0
 40
0.0
 40
1.0
 40
1.0
 40
1.0
 40
1.0
 10
-8.8109185213
 20
-7.8693888041
 30
0.0
 10
-8.7643027734
 20
-7.96859977
 30
0.0
 10
-8.7362497902
 20
-8.0964963586
 30
0.0
 10
-8.7254125911
 20
-8.2537055101
 30
0.0
  0
SPLINE
  5
257
100
AcDbEntity
  8
CURVE
100
AcDbSpline
 62
253
  6
CONTINUOUS
 70
0
 71
3
 72
8
 73
4
 74
0
 42
0.0000001
 43
0.0000001
 44
0.0000000001
 40
0.0
 40
0.0
 40
0.0
 40
0.0
 40
1.0
 40
1.0
 40
1.0
 40
1.0
 10
-8.5148808058
 20
-8.3146946279
 30
0.0
 10
-8.5194151496
 20
-8.2512833406
 30
0.0
 10
-8.5256560559
 20
-8.1891271955
 30
0.0
 10
-8.5353104102
 20
-8.1294811501
 30
0.0
  0
SPLINE
  5
258
100
AcDbEntity
  8
CURVE
100
AcDbSpline
 62
253
  6
CONTINUOUS
 70
0
 71
3
 72
8
 73
4
 74
0
 42
0.0000001
 43
0.0000001
 44
0.0000000001
 40
0.0
 40
0.0
 40
0.0
 40
0.0
 40
1.0
 40
1.0
 40
1.0
 40
1.0
 10
-8.5353104102
 20
-8.1294811501
 30
0.0
 10
-8.5449647605
 20
-8.0698351296
 30
0.0
 10
-8.5580325608
 20
-8.012699161
 30
0.0
 10
-8.5766277017
 20
-7.9571751672
 30
0.0
  0
SPLINE
  5
259
100
AcDbEntity
  8
CURVE
100
AcDbSpline
 62
253
  6
CONTINUOUS
 70
0
 71
3
 72
8
 73
4
 74
0
 42
0.0000001
 43
0.0000001
 44
0.0000000001
 40
0.0
 40
0.0
 40
0.0
 40
0.0
 40
1.0
 40
1.0
 40
1.0
 40
1.0
 10
-8.5766277017
 20
-7.9571751672
 30
0.0
 10
-8.5945024279
 20
-7.9038022895
 30
0.0
 10
-8.6196112221
 20
-7.853296341
 30
0.0
 10
-8.6503437169
 20
-7.8047260391
 30
0.0
  0
SPLINE
  5
25A
100
AcDbEntity
  8
CURVE
100
AcDbSpline
 62
253
  6
CONTINUOUS
 70
0
 71
3
 72
8
 73
4
 74
0
 42
0.0000001
 43
0.0000001
 44
0.0000000001
 40
0.0
 40
0.0
 40
0.0
 40
0.0
 40
1.0
 40
1.0
 40
1.0
 40
1.0
 10
-8.6503437169
 20
-7.8047260391
 30
0.0
 10
-8.6820584701
 20
-7.7546033548
 30
0.0
 10
-8.7228102101
 20
-7.7089264974
 30
0.0
 10
-8.77218982
 20
-7.6673693519
 30
0.0
  0
SPLINE
  5
25B
100
AcDbEntity
  8
CURVE
100
AcDbSpline
 62
253
  6
CONTINUOUS
 70
0
 71
3
 72
8
 73
4
 74
0
 42
0.0000001
 43
0.0000001
 44
0.0000000001
 40
0.0
 40
0.0
 40
0.0
 40
0.0
 40
1.0
 40
1.0
 40
1.0
 40
1.0
 10
-8.77218982
 20
-7.6673693519
 30
0.0
 10
-8.7018485959
 20
-7.6645884125
 30
0.0
 10
-8.6485642903
 20
-7.6343032616
 30
0.0
 10
-8.6109971491
 20
-7.5809192443
 30
0.0
  0
SPLINE
  5
25C
100
AcDbEntity
  8
CURVE
100
AcDbSpline
 62
253
  6
CONTINUOUS
 70
0
 71
3
 72
8
 73
4
 74
0
 42
0.0000001
 43
0.0000001
 44
0.0000000001
 40
0.0
 40
0.0
 40
0.0
 40
0.0
 40
1.0
 40
1.0
 40
1.0
 40
1.0
 10
-8.6109971491
 20
-7.5809192443
 30
0.0
 10
-8.5739311999
 20
-7.5282474356
 30
0.0
 10
-8.5564669743
 20
-7.4442091519
 30
0.0
 10
-8.5616509456
 20
-7.3256541941
 30
0.0
  0
SPLINE
  5
25D
100
AcDbEntity
  8
CURVE
100
AcDbSpline
 62
253
  6
CONTINUOUS
 70
0
 71
3
 72
8
 73
4
 74
0
 42
0.0000001
 43
0.0000001
 44
0.0000000001
 40
0.0
 40
0.0
 40
0.0
 40
0.0
 40
1.0
 40
1.0
 40
1.0
 40
1.0
 10
-8.5616509456
 20
-7.3256541941
 30
0.0
 10
-8.5658923793
 20
-7.2286546221
 30
0.0
 10
-8.5836931787
 20
-7.1438512134
 30
0.0
 10
-8.6142753347
 20
-7.0723750306
 30
0.0
  0
SPLINE
  5
25E
100
AcDbEntity
  8
CURVE
100
AcDbSpline
 62
253
  6
CONTINUOUS
 70
0
 71
3
 72
8
 73
4
 74
0
 42
0.0000001
 43
0.0000001
 44
0.0000000001
 40
0.0
 40
0.0
 40
0.0
 40
0.0
 40
1.0
 40
1.0
 40
1.0
 40
1.0
 10
-8.6142753347
 20
-7.0723750306
 30
0.0
 10
-8.6445178078
 20
-7.0016927501
 30
0.0
 10
-8.6825160421
 20
-6.9384168464
 30
0.0
 10
-8.7306600395
 20
-6.88482699
 30
0.0
  0
SPLINE
  5
25F
100
AcDbEntity
  8
CURVE
100
AcDbSpline
 62
253
  6
CONTINUOUS
 70
0
 71
3
 72
8
 73
4
 74
0
 42
0.0000001
 43
0.0000001
 44
0.0000000001
 40
0.0
 40
0.0
 40
0.0
 40
0.0
 40
1.0
 40
1.0
 40
1.0
 40
1.0
 10
-8.7306600395
 20
-6.88482699
 30
0.0
 10
-8.7788040369
 20
-6.8312371336
 30
0.0
 10
-8.8318796944
 20
-6.7857235526
 30
0.0
 10
-8.8916948455
 20
-6.7475064404
 30
0.0
  0
SPLINE
  5
260
100
AcDbEntity
  8
CURVE
100
AcDbSpline
 62
253
  6
CONTINUOUS
 70
0
 71
3
 72
8
 73
4
 74
0
 42
0.0000001
 43
0.0000001
 44
0.0000000001
 40
0.0
 40
0.0
 40
0.0
 40
0.0
 40
1.0
 40
1.0
 40
1.0
 40
1.0
 10
-8.8916948455
 20
-6.7475064404
 30
0.0
 10
-8.95329678
 20
-6.7081477161
 30
0.0
 10
-9.0148116397
 20
-6.6710650043
 30
0.0
 10
-9.0778445529
 20
-6.6395485477
 30
0.0
  0
SPLINE
  5
261
100
AcDbEntity
  8
CURVE
100
AcDbSpline
 62
253
  6
CONTINUOUS
 70
0
 71
3
 72
8
 73
4
 74
0
 42
0.0000001
 43
0.0000001
 44
0.0000000001
 40
0.0
 40
0.0
 40
0.0
 40
0.0
 40
1.0
 40
1.0
 40
1.0
 40
1.0
 10
-9.0612154
 20
-6.8587049513
 30
0.0
 10
-9.0179927532
 20
-6.8803162748
 30
0.0
 10
-8.9781835529
 20
-6.9044376984
 30
0.0
 10
-8.9453895928
 20
-6.9292683253
 30
0.0
  0
SPLINE
  5
262
100
AcDbEntity
  8
CURVE
100
AcDbSpline
 62
253
  6
CONTINUOUS
 70
0
 71
3
 72
8
 73
4
 74
0
 42
0.0000001
 43
0.0000001
 44
0.0000000001
 40
0.0
 40
0.0
 40
0.0
 40
0.0
 40
1.0
 40
1.0
 40
1.0
 40
1.0
 10
-8.9453895928
 20
-6.9292683253
 30
0.0
 10
-8.9125956327
 20
-6.9540989521
 30
0.0
 10
-8.8832151148
 20
-6.9814397751
 30
0.0
 10
-8.8607554522
 20
-7.0116454036
 30
0.0
  0
SPLINE
  5
263
100
AcDbEntity
  8
CURVE
100
AcDbSpline
 62
253
  6
CONTINUOUS
 70
0
 71
3
 72
8
 73
4
 74
0
 42
0.0000001
 43
0.0000001
 44
0.0000000001
 40
0.0
 40
0.0
 40
0.0
 40
0.0
 40
1.0
 40
1.0
 40
1.0
 40
1.0
 10
-8.8607554522
 20
-7.0116454036
 30
0.0
 10
-8.8382958962
 20
-7.0418508889
 30
0.0
 10
-8.8191553974
 20
-7.0767221726
 30
0.0
 10
-8.8068417002
 20
-7.1166137331
 30
0.0
  0
SPLINE
  5
264
100
AcDbEntity
  8
CURVE
100
AcDbSpline
 62
253
  6
CONTINUOUS
 70
0
 71
3
 72
8
 73
4
 74
0
 42
0.0000001
 43
0.0000001
 44
0.0000000001
 40
0.0
 40
0.0
 40
0.0
 40
0.0
 40
1.0
 40
1.0
 40
1.0
 40
1.0
 10
-8.8068417002
 20
-7.1166137331
 30
0.0
 10
-8.7945280254
 20
-7.1565052208
 30
0.0
 10
-8.785533294
 20
-7.2010624558
 30
0.0
 10
-8.7832711955
 20
-7.2527955737
 30
0.0
  0
SPLINE
  5
265
100
AcDbEntity
  8
CURVE
100
AcDbSpline
 62
253
  6
CONTINUOUS
 70
0
 71
3
 72
8
 73
4
 74
0
 42
0.0000001
 43
0.0000001
 44
0.0000000001
 40
0.0
 40
0.0
 40
0.0
 40
0.0
 40
1.0
 40
1.0
 40
1.0
 40
1.0
 10
-8.7832711955
 20
-7.2527955737
 30
0.0
 10
-8.7787470026
 20
-7.3562617134
 30
0.0
 10
-8.7969652582
 20
-7.4230556884
 30
0.0
 10
-8.8366058508
 20
-7.4533075596
 30
0.0
  0
SPLINE
  5
266
100
AcDbEntity
  8
CURVE
100
AcDbSpline
 62
253
  6
CONTINUOUS
 70
0
 71
3
 72
8
 73
4
 74
0
 42
0.0000001
 43
0.0000001
 44
0.0000000001
 40
0.0
 40
0.0
 40
0.0
 40
0.0
 40
1.0
 40
1.0
 40
1.0
 40
1.0
 10
-8.8366058508
 20
-7.4533075596
 30
0.0
 10
-8.877085382
 20
-7.4841996699
 30
0.0
 10
-8.9444842725
 20
-7.4736928003
 30
0.0
 10
-9.0417352679
 20
-7.4250673026
 30
0.0
  0
SPLINE
  5
267
100
AcDbEntity
  8
CURVE
100
AcDbSpline
 62
253
  6
CONTINUOUS
 70
0
 71
3
 72
8
 73
4
 74
0
 42
0.0000001
 43
0.0000001
 44
0.0000000001
 40
0.0
 40
0.0
 40
0.0
 40
0.0
 40
1.0
 40
1.0
 40
1.0
 40
1.0
 10
-7.8243887561
 20
-7.2662764461
 30
0.0
 10
-7.9216395913
 20
-7.2176510285
 30
0.0
 10
-8.0001272631
 20
-7.19527458
 30
0.0
 10
-8.0634530889
 20
-7.1973463482
 30
0.0
  0
SPLINE
  5
268
100
AcDbEntity
  8
CURVE
100
AcDbSpline
 62
253
  6
CONTINUOUS
 70
0
 71
3
 72
8
 73
4
 74
0
 42
0.0000001
 43
0.0000001
 44
0.0000000001
 40
0.0
 40
0.0
 40
0.0
 40
0.0
 40
1.0
 40
1.0
 40
1.0
 40
1.0
 10
-8.0634530889
 20
-7.1973463482
 30
0.0
 10
-8.1267789148
 20
-7.1994181164
 30
0.0
 10
-8.1750374666
 20
-7.2237824504
 30
0.0
 10
-8.2101371426
 20
-7.271437254
 30
0.0
  0
SPLINE
  5
269
100
AcDbEntity
  8
CURVE
100
AcDbSpline
 62
253
  6
CONTINUOUS
 70
0
 71
3
 72
8
 73
4
 74
0
 42
0.0000001
 43
0.0000001
 44
0.0000000001
 40
0.0
 40
0.0
 40
0.0
 40
0.0
 40
1.0
 40
1.0
 40
1.0
 40
1.0
 10
-8.2101371426
 20
-7.271437254
 30
0.0
 10
-8.2465400342
 20
-7.3208614325
 30
0.0
 10
-8.2698781413
 20
-7.39142067
 30
0.0
 10
-8.2806420889
 20
-7.4870565784
 30
0.0
  0
SPLINE
  5
26A
100
AcDbEntity
  8
CURVE
100
AcDbSpline
 62
253
  6
CONTINUOUS
 70
0
 71
3
 72
8
 73
4
 74
0
 42
0.0000001
 43
0.0000001
 44
0.0000000001
 40
0.0
 40
0.0
 40
0.0
 40
0.0
 40
1.0
 40
1.0
 40
1.0
 40
1.0
 10
-8.2806420889
 20
-7.4870565784
 30
0.0
 10
-8.2914457194
 20
-7.5830450614
 30
0.0
 10
-8.2934654958
 20
-7.6979981453
 30
0.0
 10
-8.2875274924
 20
-7.8337974598
 30
0.0
  0
SPLINE
  5
26B
100
AcDbEntity
  8
CURVE
100
AcDbSpline
 62
253
  6
CONTINUOUS
 70
0
 71
3
 72
8
 73
4
 74
0
 42
0.0000001
 43
0.0000001
 44
0.0000000001
 40
0.0
 40
0.0
 40
0.0
 40
0.0
 40
1.0
 40
1.0
 40
1.0
 40
1.0
 10
-8.2875274924
 20
-7.8337974598
 30
0.0
 10
-8.2822492673
 20
-7.9545079562
 30
0.0
 10
-8.2738405172
 20
-8.0662416566
 30
0.0
 10
-8.2597829272
 20
-8.1682830387
 30
0.0
  0
SPLINE
  5
26C
100
AcDbEntity
  8
CURVE
100
AcDbSpline
 62
253
  6
CONTINUOUS
 70
0
 71
3
 72
8
 73
4
 74
0
 42
0.0000001
 43
0.0000001
 44
0.0000000001
 40
0.0
 40
0.0
 40
0.0
 40
0.0
 40
1.0
 40
1.0
 40
1.0
 40
1.0
 10
-8.2597829272
 20
-8.1682830387
 30
0.0
 10
-8.2454529737
 20
-8.2723014564
 30
0.0
 10
-8.2202600771
 20
-8.3650177841
 30
0.0
 10
-8.1848270055
 20
-8.4502036835
 30
0.0
  0
SPLINE
  5
26D
100
AcDbEntity
  8
CURVE
100
AcDbSpline
 62
253
  6
CONTINUOUS
 70
0
 71
3
 72
8
 73
4
 74
0
 42
0.0000001
 43
0.0000001
 44
0.0000000001
 40
0.0
 40
0.0
 40
0.0
 40
0.0
 40
1.0
 40
1.0
 40
1.0
 40
1.0
 10
-8.1848270055
 20
-8.4502036835
 30
0.0
 10
-8.1493939292
 20
-8.5353895942
 30
0.0
 10
-8.1003073918
 20
-8.6105348904
 30
0.0
 10
-8.0378062224
 20
-8.678459594
 30
0.0
  0
SPLINE
  5
26E
100
AcDbEntity
  8
CURVE
100
AcDbSpline
 62
253
  6
CONTINUOUS
 70
0
 71
3
 72
8
 73
4
 74
0
 42
0.0000001
 43
0.0000001
 44
0.0000000001
 40
0.0
 40
0.0
 40
0.0
 40
0.0
 40
1.0
 40
1.0
 40
1.0
 40
1.0
 10
-8.0378062224
 20
-8.678459594
 30
0.0
 10
-7.9745443081
 20
-8.747211056
 30
0.0
 10
-7.892747753
 20
-8.804976677
 30
0.0
 10
-7.7900941469
 20
-8.85630348
 30
0.0
  0
SPLINE
  5
26F
100
AcDbEntity
  8
CURVE
100
AcDbSpline
 62
253
  6
CONTINUOUS
 70
0
 71
3
 72
8
 73
4
 74
0
 42
0.0000001
 43
0.0000001
 44
0.0000000001
 40
0.0
 40
0.0
 40
0.0
 40
0.0
 40
1.0
 40
1.0
 40
1.0
 40
1.0
 10
-7.7582863886
 20
-8.657148732
 30
0.0
 10
-7.817717508
 20
-8.6274331723
 30
0.0
 10
-7.8648247109
 20
-8.5975543122
 30
0.0
 10
-7.9015033847
 20
-8.5644560595
 30
0.0
  0
SPLINE
  5
270
100
AcDbEntity
  8
CURVE
100
AcDbSpline
 62
253
  6
CONTINUOUS
 70
0
 71
3
 72
8
 73
4
 74
0
 42
0.0000001
 43
0.0000001
 44
0.0000000001
 40
0.0
 40
0.0
 40
0.0
 40
0.0
 40
1.0
 40
1.0
 40
1.0
 40
1.0
 10
-7.9015033847
 20
-8.5644560595
 30
0.0
 10
-7.9381820648
 20
-8.5313578011
 30
0.0
 10
-7.9681281041
 20
-8.4910837706
 30
0.0
 10
-7.9900256033
 20
-8.4424852595
 30
0.0
  0
SPLINE
  5
271
100
AcDbEntity
  8
CURVE
100
AcDbSpline
 62
253
  6
CONTINUOUS
 70
0
 71
3
 72
8
 73
4
 74
0
 42
0.0000001
 43
0.0000001
 44
0.0000000001
 40
0.0
 40
0.0
 40
0.0
 40
0.0
 40
1.0
 40
1.0
 40
1.0
 40
1.0
 10
-7.9900256033
 20
-8.4424852595
 30
0.0
 10
-8.0110478491
 20
-8.3958292539
 30
0.0
 10
-8.0258220502
 20
-8.3399485433
 30
0.0
 10
-8.0358823309
 20
-8.2737948204
 30
0.0
  0
SPLINE
  5
272
100
AcDbEntity
  8
CURVE
100
AcDbSpline
 62
253
  6
CONTINUOUS
 70
0
 71
3
 72
8
 73
4
 74
0
 42
0.0000001
 43
0.0000001
 44
0.0000000001
 40
0.0
 40
0.0
 40
0.0
 40
0.0
 40
1.0
 40
1.0
 40
1.0
 40
1.0
 10
-8.0358823309
 20
-8.2737948204
 30
0.0
 10
-8.0456023449
 20
-8.2098786004
 30
0.0
 10
-8.0507963074
 20
-8.1313785632
 30
0.0
 10
-8.0548492316
 20
-8.0386901163
 30
0.0
  0
SPLINE
  5
273
100
AcDbEntity
  8
CURVE
100
AcDbSpline
 62
253
  6
CONTINUOUS
 70
0
 71
3
 72
8
 73
4
 74
0
 42
0.0000001
 43
0.0000001
 44
0.0000000001
 40
0.0
 40
0.0
 40
0.0
 40
0.0
 40
1.0
 40
1.0
 40
1.0
 40
1.0
 10
-8.0646516516
 20
-7.8145134322
 30
0.0
 10
-8.0679505394
 20
-7.7390694379
 30
0.0
 10
-8.0690715996
 20
-7.6731479104
 30
0.0
 10
-8.0651866026
 20
-7.6180517561
 30
0.0
  0
SPLINE
  5
274
100
AcDbEntity
  8
CURVE
100
AcDbSpline
 62
253
  6
CONTINUOUS
 70
0
 71
3
 72
8
 73
4
 74
0
 42
0.0000001
 43
0.0000001
 44
0.0000000001
 40
0.0
 40
0.0
 40
0.0
 40
0.0
 40
1.0
 40
1.0
 40
1.0
 40
1.0
 10
-8.0651866026
 20
-7.6180517561
 30
0.0
 10
-8.0614603846
 20
-7.5652073691
 30
0.0
 10
-8.0509272927
 20
-7.5240887637
 30
0.0
 10
-8.0323960538
 20
-7.495704482
 30
0.0
  0
SPLINE
  5
275
100
AcDbEntity
  8
CURVE
100
AcDbSpline
 62
253
  6
CONTINUOUS
 70
0
 71
3
 72
8
 73
4
 74
0
 42
0.0000001
 43
0.0000001
 44
0.0000000001
 40
0.0
 40
0.0
 40
0.0
 40
0.0
 40
1.0
 40
1.0
 40
1.0
 40
1.0
 10
-8.0323960538
 20
-7.495704482
 30
0.0
 10
-8.014605652
 20
-7.4684549398
 30
0.0
 10
-7.9870156457
 20
-7.4548404501
 30
0.0
 10
-7.9496983575
 20
-7.4554329491
 30
0.0
  0
SPLINE
  5
276
100
AcDbEntity
  8
CURVE
100
AcDbSpline
 62
253
  6
CONTINUOUS
 70
0
 71
3
 72
8
 73
4
 74
0
 42
0.0000001
 43
0.0000001
 44
0.0000000001
 40
0.0
 40
0.0
 40
0.0
 40
0.0
 40
1.0
 40
1.0
 40
1.0
 40
1.0
 10
-7.9496983575
 20
-7.4554329491
 30
0.0
 10
-7.91297853
 20
-7.4560159621
 30
0.0
 10
-7.8630234062
 20
-7.4704514185
 30
0.0
 10
-7.7981895161
 20
-7.5028683636
 30
0.0
  0
LWPOLYLINE
  5
277
100
AcDbEntity
  8
RACCORDO
100
AcDbPolyline
 62
7
  6
CONTINUOUS
 90
14
 70
0
 10
-14.2511736887
 20
26.224085504
 10
-14.3024347796
 20
26.1931748391
 10
-14.3730667709
 20
26.1428845905
 10
-14.4411712275
 20
26.0849851004
 10
-14.5059028755
 20
26.0200464964
 10
-14.5654113096
 20
25.9501692872
 10
-14.6193860208
 20
25.8763393208
 10
-14.6682340852
 20
25.7984321994
 10
-14.7114743579
 20
25.7174662188
 10
-14.748990886
 20
25.6338829428
 10
-14.7806659146
 20
25.5479125829
 10
-14.8061159013
 20
25.4603406898
 10
-14.8250830316
 20
25.3715421853
 10
-14.8353472892
 20
25.3000724071
  0
LINE
  5
278
100
AcDbEntity
  8
RACCORDO
100
AcDbLine
 62
7
  6
CONTINUOUS
 10
-14.2512157555
 20
26.2240619768
 11
-11.5160236956
 21
27.7552868481
  0
LINE
  5
279
100
AcDbEntity
  8
RACCORDO
100
AcDbLine
 62
253
  6
CONTINUOUS
 10
-14.0162276334
 20
26.2160129952
 11
-11.2846745851
 21
27.7452006623
  0
LINE
  5
27A
100
AcDbEntity
  8
0
100
AcDbLine
 62
253
  6
CONTINUOUS
 10
22.3716664392
 20
-25.7242797276
 11
21.8433992674
 21
-25.6157774505
  0
LINE
  5
27B
100
AcDbEntity
  8
0
100
AcDbLine
 62
253
  6
CONTINUOUS
 10
22.2822526438
 20
-25.4047129216
 11
21.8433992674
 21
-25.3145755949
  0
LWPOLYLINE
  5
27C
100
AcDbEntity
  8
RACCORDO
100
AcDbPolyline
 62
7
  6
CONTINUOUS
 90
7
 70
0
 10
-14.7466997046
 20
-11.5993230475
 10
-14.7035032762
 20
-11.6715973439
 10
-14.6532973453
 20
-11.7373002846
 10
-14.5969372395
 20
-11.79568379
 10
-14.5352128802
 20
-11.846320161
 10
-14.469307754
 20
-11.8886947313
 10
-14.4387961176
 20
-11.9049012842
  0
LWPOLYLINE
  5
27D
100
AcDbEntity
  8
RACCORDO
100
AcDbPolyline
 62
7
  6
CONTINUOUS
 90
10
 70
0
 10
-15.5095352717
 20
14.8696772441
 10
-15.5332623242
 20
13.0989256688
 10
-15.5520889296
 20
11.2398623699
 10
-15.5646356541
 20
9.3840149211
 10
-15.5709021083
 20
7.5314216117
 10
-15.5708881841
 20
5.6821142469
 10
-15.5645938249
 20
3.8361222207
 10
-15.5520190308
 20
1.99347738
 10
-15.5331640829
 20
0.1542177626
 10
-15.5095334547
 20
-1.5834601126
  0
LWPOLYLINE
  5
27E
100
AcDbEntity
  8
RACCORDO
100
AcDbPolyline
 62
7
  6
CONTINUOUS
 90
10
 70
0
 10
-14.8353231775
 20
25.300291289
 10
-14.9540840144
 20
24.1941747603
 10
-15.0703441155
 20
22.9972060464
 10
-15.1733186411
 20
21.8051296643
 10
-15.2629789215
 20
20.6182354971
 10
-15.3393063736
 20
19.4367630606
 10
-15.40228474
 20
18.2609337565
 10
-15.4518979514
 20
17.0909870573
 10
-15.4881338677
 20
15.927207143
 10
-15.5095352499
 20
14.8696770658
  0
LINE
  5
27F
100
AcDbEntity
  8
0
100
AcDbLine
 62
7
  6
CONTINUOUS
 10
5.9700630437
 20
22.1591306505
 11
7.5532347387
 21
22.9713276978
  0
LINE
  5
280
100
AcDbEntity
  8
0
100
AcDbLine
 62
253
  6
CONTINUOUS
 10
6.0831487099
 20
22.1526826754
 11
7.665905313
 21
22.9646667727
  0
LINE
  5
281
100
AcDbEntity
  8
0
100
AcDbLine
 62
7
  6
CONTINUOUS
 10
7.5532367084
 20
22.9713287083
 11
7.5549731258
 21
22.9721969314
  0
LINE
  5
282
100
AcDbEntity
  8
0
100
AcDbLine
 62
253
  6
CONTINUOUS
 10
9.3629675711
 20
22.1161356437
 11
9.8912347429
 21
22.3795744637
  0
LINE
  5
283
100
AcDbEntity
  8
0
100
AcDbLine
 62
7
  6
CONTINUOUS
 10
7.5549758898
 20
22.9721982778
 11
8.0898430806
 21
23.2327490303
  0
LINE
  5
284
100
AcDbEntity
  8
0
100
AcDbLine
 62
253
  6
CONTINUOUS
 10
7.665905313
 20
22.9646667727
 11
8.2003551917
 21
23.2250142393
  0
LINE
  5
285
100
AcDbEntity
  8
RACCORDO
100
AcDbLine
 62
7
  6
CONTINUOUS
 10
25.8616936124
 20
-15.0610150564
 11
25.8616524031
 21
-15.0610172117
  0
LINE
  5
286
100
AcDbEntity
  8
RACCORDO
100
AcDbLine
 62
7
  6
CONTINUOUS
 10
25.8616952718
 20
-15.0610145836
 11
23.9526864976
 21
-15.1607807937
  0
LWPOLYLINE
  5
287
100
AcDbEntity
  8
RACCORDO
100
AcDbPolyline
 62
7
  6
CONTINUOUS
 90
12
 70
0
 10
16.1613344729
 20
-27.2049663001
 10
16.1834149874
 20
-27.2155515838
 10
16.2414265343
 20
-27.2390395992
 10
16.3023716282
 20
-27.2575393816
 10
16.3658821405
 20
-27.2706670792
 10
16.4314456808
 20
-27.2780859902
 10
16.4984691771
 20
-27.2795421828
 10
16.5665457358
 20
-27.2748656975
 10
16.6351226183
 20
-27.2639585933
 10
16.7035250755
 20
-27.2468407515
 10
16.7713365717
 20
-27.223578092
 10
16.8078672065
 20
-27.2083627637
  0
LINE
  5
288
100
AcDbEntity
  8
RACCORDO
100
AcDbLine
 62
7
  6
CONTINUOUS
 10
-14.4392886803
 20
-11.9046557589
 11
16.1619550575
 21
-27.2052776295
  0
LINE
  5
289
100
AcDbEntity
  8
RACCORDO
100
AcDbLine
 62
253
  6
CONTINUOUS
 10
-14.6880830929
 20
-11.4900103402
 11
15.9065743747
 21
-26.7873390739
  0
LINE
  5
28A
100
AcDbEntity
  8
RACCORDO
100
AcDbLine
 62
7
  6
CONTINUOUS
 10
16.1613512793
 20
-27.204975111
 11
16.161958636
 21
-27.2052794181
  0
LWPOLYLINE
  5
28B
100
AcDbEntity
  8
RACCORDO
100
AcDbPolyline
 62
7
  6
CONTINUOUS
 90
5
 70
0
 10
-14.8343965269
 20
-11.3144243241
 10
-14.8287470318
 20
-11.3524285899
 10
-14.8095360982
 20
-11.4391411657
 10
-14.782142676
 20
-11.5215940314
 10
-14.7466997046
 20
-11.5993230475
  0
LINE
  5
28C
100
AcDbEntity
  8
RACCORDO
100
AcDbLine
 62
7
  6
CONTINUOUS
 10
-14.8344404389
 20
-11.314082042
 11
-14.8343965155
 21
-11.3144243226
  0
LWPOLYLINE
  5
28D
100
AcDbEntity
  8
RACCORDO
100
AcDbPolyline
 62
7
  6
CONTINUOUS
 90
10
 70
0
 10
-15.509533415
 20
-1.5834598858
 10
-15.4879108082
 20
-2.6269461014
 10
-15.451556921
 20
-3.7531264063
 10
-15.4018090276
 20
-4.8715600395
 10
-15.3386749664
 20
-5.9819741924
 10
-15.2621664699
 20
-7.0841455837
 10
-15.1722951952
 20
-8.1778690162
 10
-15.0690754031
 20
-9.2629218518
 10
-14.9525315115
 20
-10.3390405021
 10
-14.8344404389
 20
-11.314082042
  0
LINE
  5
28E
100
AcDbEntity
  8
0
100
AcDbLine
 62
7
  6
CONTINUOUS
 10
5.8598759817
 20
20.8117829774
 11
6.4300764958
 21
21.1442621034
  0
LINE
  5
28F
100
AcDbEntity
  8
0
100
AcDbLine
 62
253
  6
CONTINUOUS
 10
6.0937799442
 20
20.803336235
 11
6.5371701035
 21
21.0618733093
  0
LINE
  5
290
100
AcDbEntity
  8
0
100
AcDbLine
 62
7
  6
CONTINUOUS
 10
9.5397412748
 20
20.2090954439
 11
8.6496810921
 21
19.7124145226
  0
LINE
  5
291
100
AcDbEntity
  8
0
100
AcDbLine
 62
7
  6
CONTINUOUS
 10
11.5196402621
 20
20.6047865963
 11
10.4651508307
 21
20.0638135576
  0
LINE
  5
292
100
AcDbEntity
  8
0
100
AcDbLine
 62
253
  6
CONTINUOUS
 10
7.7616867803
 20
21.3134136401
 11
9.3629675711
 21
22.1161356437
  0
LINE
  5
293
100
AcDbEntity
  8
0
100
AcDbLine
 62
253
  6
CONTINUOUS
 10
7.938460484
 20
21.0085241013
 11
9.5397412748
 21
21.8112461048
  0
LINE
  5
294
100
AcDbEntity
  8
0
100
AcDbLine
 62
253
  6
CONTINUOUS
 10
9.5397412748
 20
21.8112461048
 11
10.0680084465
 21
22.0746849249
  0
LINE
  5
295
100
AcDbEntity
  8
0
100
AcDbLine
 62
7
  6
CONTINUOUS
 10
17.276753596
 20
24.0674260491
 11
10.2427342291
 21
20.5596673595
  0
LINE
  5
296
100
AcDbEntity
  8
0
100
AcDbLine
 62
7
  6
CONTINUOUS
 10
16.8558636681
 20
23.2042300617
 11
11.5196402621
 21
20.6047865963
  0
LWPOLYLINE
  5
297
100
AcDbEntity
  8
RACCORDO
100
AcDbPolyline
 62
7
  6
CONTINUOUS
 90
7
 70
0
 10
-3.5846919317
 20
-12.9325388147
 10
-3.5359523767
 20
-12.9452407559
 10
-3.4893680213
 20
-12.952252532
 10
-3.4448380771
 20
-12.9539587257
 10
-3.4018395947
 20
-12.9505345605
 10
-3.3606533958
 20
-12.942018249
 10
-3.3216518452
 20
-12.9285454262
  0
LINE
  5
298
100
AcDbEntity
  8
RACCORDO
100
AcDbLine
 62
7
  6
CONTINUOUS
 10
-3.6350965175
 20
-12.9138958594
 11
-3.5846919317
 21
-12.9325388147
  0
LWPOLYLINE
  5
299
100
AcDbEntity
  8
ASSI
100
AcDbPolyline
 62
7
  6
CONTINUOUS
 90
9
 70
0
 10
-3.671051051
 20
-12.8972911362
 10
-3.6333499277
 20
-12.9146329205
 10
-3.5831201101
 20
-12.9330314854
 10
-3.5345575152
 20
-12.9455248315
 10
-3.4881483115
 20
-12.9523660696
 10
-3.4437903128
 20
-12.9539366552
 10
-3.4009592755
 20
-12.9504083804
 10
-3.3599352969
 20
-12.941820249
 10
-3.3212552238
 20
-12.9283657641
  0
LINE
  5
29A
100
AcDbEntity
  8
RACCORDO
100
AcDbLine
 62
7
  6
CONTINUOUS
 10
-3.6710496174
 20
-12.8972918518
 11
-3.6350965175
 21
-12.9138958594
  0
LINE
  5
29B
100
AcDbEntity
  8
0
100
AcDbLine
 62
7
  6
CONTINUOUS
 10
18.4237537101
 20
-26.4921545772
 11
19.9545698134
 21
-27.2575626289
  0
LINE
  5
29C
100
AcDbEntity
  8
0
100
AcDbLine
 62
253
  6
CONTINUOUS
 10
18.5326686582
 20
-26.4438802494
 11
19.889596517
 21
-27.1223441788
  0
LINE
  5
29D
100
AcDbEntity
  8
0
100
AcDbLine
 62
253
  6
CONTINUOUS
 10
19.889596517
 20
-26.7823702446
 11
18.8931046935
 21
-26.2841243329
  0
LINE
  5
29E
100
AcDbEntity
  8
0
100
AcDbLine
 62
253
  6
CONTINUOUS
 10
19.9779848646
 20
-26.5506760708
 11
19.1855980062
 21
-26.1544826416
  0
LINE
  5
29F
100
AcDbEntity
  8
0
100
AcDbLine
 62
7
  6
CONTINUOUS
 10
20.6008171251
 20
-25.8058737675
 11
19.8281449411
 21
-25.4195376755
  0
LINE
  5
2A0
100
AcDbEntity
  8
RACCORDO
100
AcDbLine
 62
253
  6
CONTINUOUS
 10
-3.6766812465
 20
-13.1092192131
 11
-11.8718860319
 21
-9.0116168204
  0
LINE
  5
2A1
100
AcDbEntity
  8
0
100
AcDbLine
 62
7
  6
CONTINUOUS
 10
21.117430589
 20
-25.3702677722
 11
20.6008171251
 21
-25.1119610403
  0
LINE
  5
2A2
100
AcDbEntity
  8
RACCORDO
100
AcDbLine
 62
253
  6
CONTINUOUS
 10
-3.6068942444
 20
-12.9796702776
 11
-11.8020990298
 21
-8.8820678849
  0
LINE
  5
2A3
100
AcDbEntity
  8
ASSI
100
AcDbLine
 62
7
  6
CONTINUOUS
 10
-3.6710713364
 20
-12.8973070468
 11
-11.866276118
 21
-8.799704656
  0
LINE
  5
2A4
100
AcDbEntity
  8
RACCORDO
100
AcDbLine
 62
7
  6
CONTINUOUS
 10
-3.6710713357
 20
-12.8973070472
 11
-11.8662761187
 21
-8.7997046557
  0
LINE
  5
2A5
100
AcDbEntity
  8
ASSI
100
AcDbLine
 62
253
  6
CONTINUOUS
 10
-3.696776364
 20
-12.850835458
 11
-11.8919811495
 21
-8.7532330653
  0
LINE
  5
2A6
100
AcDbEntity
  8
RACCORDO
100
AcDbLine
 62
253
  6
CONTINUOUS
 10
-3.696776364
 20
-12.850835458
 11
-11.8919811495
 21
-8.7532330653
  0
LINE
  5
2A7
100
AcDbEntity
  8
RACCORDO
100
AcDbLine
 62
7
  6
CONTINUOUS
 10
-11.9049979425
 20
-8.7787287229
 11
-11.8661448977
 21
-8.7997453688
  0
LINE
  5
2A8
100
AcDbEntity
  8
ASSI
100
AcDbLine
 62
7
  6
CONTINUOUS
 10
-11.9113440255
 20
-8.7749933797
 11
-11.8661578615
 21
-8.7997389485
  0
LINE
  5
2A9
100
AcDbEntity
  8
ASSI
100
AcDbLine
 62
7
  6
CONTINUOUS
 10
-11.9632847016
 20
-8.7411767042
 11
-11.9113440255
 21
-8.7749933797
  0
LWPOLYLINE
  5
2AA
100
AcDbEntity
  8
RACCORDO
100
AcDbPolyline
 62
7
  6
CONTINUOUS
 90
3
 70
0
 10
-12.0099509376
 20
-8.7057051122
 10
-11.9580977591
 20
-8.7448174176
 10
-11.9049979425
 20
-8.7787287229
  0
LWPOLYLINE
  5
2AB
100
AcDbEntity
  8
ASSI
100
AcDbPolyline
 62
7
  6
CONTINUOUS
 90
10
 70
0
 10
-12.3354863045
 20
-8.2655437706
 10
-12.3064865959
 20
-8.3281169743
 10
-12.2736937852
 20
-8.3893884589
 10
-12.2373792576
 20
-8.4488662078
 10
-12.1978097215
 20
-8.5060785707
 10
-12.1553293445
 20
-8.5605340087
 10
-12.1103042008
 20
-8.6117118653
 10
-12.0630670148
 20
-8.6591425606
 10
-12.0139576634
 20
-8.7024275889
 10
-11.9632847016
 20
-8.7411767042
  0
LWPOLYLINE
  5
2AC
100
AcDbEntity
  8
RACCORDO
100
AcDbPolyline
 62
7
  6
CONTINUOUS
 90
9
 70
0
 10
-12.3379019196
 20
-8.2598617219
 10
-12.3086437922
 20
-8.3237725175
 10
-12.2753917022
 20
-8.3864118413
 10
-12.2384429209
 20
-8.4472277199
 10
-12.198075191
 20
-8.5057171174
 10
-12.1546518807
 20
-8.5613512799
 10
-12.1085843563
 20
-8.6135461559
 10
-12.0602299011
 20
-8.6618043952
 10
-12.0099509376
 20
-8.7057051122
  0
LINE
  5
2AD
100
AcDbEntity
  8
ASSI
100
AcDbLine
 62
7
  6
CONTINUOUS
 10
-12.3604221221
 20
-8.2021511704
 11
-12.3354863045
 21
-8.2655437706
  0
LINE
  5
2AE
100
AcDbEntity
  8
RACCORDO
100
AcDbLine
 62
7
  6
CONTINUOUS
 10
-12.3628876886
 20
-8.1952063788
 11
-12.3379019196
 21
-8.2598617219
  0
LINE
  5
2AF
100
AcDbEntity
  8
ASSI
100
AcDbLine
 62
7
  6
CONTINUOUS
 10
-12.3802346718
 20
-8.1413589773
 11
-12.3604221221
 21
-8.2021511704
  0
LINE
  5
2B0
100
AcDbEntity
  8
RACCORDO
100
AcDbLine
 62
7
  6
CONTINUOUS
 10
-12.3802354152
 20
-8.1413564199
 11
-12.3628876886
 21
-8.1952063788
  0
LINE
  5
2B1
100
AcDbEntity
  8
CURVE
100
AcDbLine
 62
253
  6
CONTINUOUS
 10
-10.7743321793
 20
-5.7913047345
 11
-10.7040186711
 21
-7.3993412179
  0
LINE
  5
2B2
100
AcDbEntity
  8
CURVE
100
AcDbLine
 62
253
  6
CONTINUOUS
 10
-10.4969103019
 20
-7.5028954025
 11
-10.5233014314
 21
-6.8993428246
  0
LINE
  5
2B3
100
AcDbEntity
  8
CURVE
100
AcDbLine
 62
253
  6
CONTINUOUS
 10
-10.529313468
 20
-6.6812782025
 11
-10.5541965311
 21
-6.1122143858
  0
LWPOLYLINE
  5
2B4
100
AcDbEntity
  8
ASSI
100
AcDbPolyline
 62
7
  6
CONTINUOUS
 90
13
 70
0
 10
-12.5934492619
 20
-3.1925743216
 10
-12.6703343497
 20
-3.5081314251
 10
-12.7422601367
 20
-3.8902895179
 10
-12.7943164404
 20
-4.2847622917
 10
-12.8263120198
 20
-4.6904909761
 10
-12.8381259977
 20
-5.1064320892
 10
-12.8297005574
 20
-5.5315596597
 10
-12.8010398169
 20
-5.9647762786
 10
-12.7522132444
 20
-6.4049782806
 10
-12.6833475788
 20
-6.8511115237
 10
-12.5946359229
 20
-7.302069219
 10
-12.4863377737
 20
-7.7567138963
 10
-12.3802489371
 20
-8.1413784021
  0
LWPOLYLINE
  5
2B5
100
AcDbEntity
  8
RACCORDO
100
AcDbPolyline
 62
7
  6
CONTINUOUS
 90
13
 70
0
 10
-12.5934491721
 20
-3.1925739897
 10
-12.6689567168
 20
-3.5018178675
 10
-12.7414342469
 20
-3.8851289184
 10
-12.7939051121
 20
-4.2808565189
 10
-12.8261751341
 20
-4.6879319033
 10
-12.8381213478
 20
-5.1052999461
 10
-12.8296849248
 20
-5.5319213188
 10
-12.8008701324
 20
-5.9666867041
 10
-12.7517475551
 20
-6.4084808012
 10
-12.6824461596
 20
-6.8562359904
 10
-12.5931623043
 20
-7.3088328465
 10
-12.4841593372
 20
-7.765122812
 10
-12.3802488877
 20
-8.1413785707
  0
LINE
  5
2B6
100
AcDbEntity
  8
RACCORDO
100
AcDbLine
 62
7
  6
CONTINUOUS
 10
-12.5896335906
 20
-3.1791768187
 11
-12.5934482533
 21
-3.1925840542
  0
LINE
  5
2B7
100
AcDbEntity
  8
ASSI
100
AcDbLine
 62
7
  6
CONTINUOUS
 10
-12.5887862817
 20
-3.1763714839
 11
-12.5934481475
 21
-3.1925836627
  0
LINE
  5
2B8
100
AcDbEntity
  8
ASSI
100
AcDbLine
 62
7
  6
CONTINUOUS
 10
-12.5804672298
 20
-3.1514875962
 11
-12.5887862817
 21
-3.1763714839
  0
LINE
  5
2B9
100
AcDbEntity
  8
RACCORDO
100
AcDbLine
 62
7
  6
CONTINUOUS
 10
-12.5804672298
 20
-3.1514875962
 11
-12.5896335906
 21
-3.1791768187
  0
LINE
  5
2BA
100
AcDbEntity
  8
ASSI
100
AcDbLine
 62
7
  6
CONTINUOUS
 10
-12.5704790244
 20
-3.126272845
 11
-12.5804672298
 21
-3.1514875962
  0
LINE
  5
2BB
100
AcDbEntity
  8
RACCORDO
100
AcDbLine
 62
7
  6
CONTINUOUS
 10
-12.5704790244
 20
-3.126272845
 11
-12.5804672298
 21
-3.1514875962
  0
LINE
  5
2BC
100
AcDbEntity
  8
0
100
AcDbLine
 62
7
  6
CONTINUOUS
 10
11.1307315325
 20
18.2848604409
 11
11.8378383137
 21
18.6838002997
  0
LINE
  5
2BD
100
AcDbEntity
  8
0
100
AcDbLine
 62
7
  6
CONTINUOUS
 10
11.1307315325
 20
19.7310232067
 11
11.9784369184
 21
20.1609161034
  0
LINE
  5
2BE
100
AcDbEntity
  8
0
100
AcDbLine
 62
253
  6
CONTINUOUS
 10
13.6047825152
 20
19.347743305
 11
13.817737301
 21
19.4557380768
  0
LINE
  5
2BF
100
AcDbEntity
  8
0
100
AcDbLine
 62
253
  6
CONTINUOUS
 10
13.7470266229
 20
19.104241853
 11
13.9591586572
 21
19.2118193867
  0
LINE
  5
2C0
100
AcDbEntity
  8
0
100
AcDbLine
 62
7
  6
CONTINUOUS
 10
19.2817425461
 20
21.4686744768
 11
14.6662654384
 21
19.160935923
  0
LINE
  5
2C1
100
AcDbEntity
  8
0
100
AcDbLine
 62
7
  6
CONTINUOUS
 10
17.4967494418
 20
22.8837871749
 11
12.8984984854
 21
20.6174258774
  0
LINE
  5
2C2
100
AcDbEntity
  8
0
100
AcDbLine
 62
7
  6
CONTINUOUS
 10
14.2940831709
 20
19.9196335346
 11
17.5278963814
 21
21.5134980656
  0
LINE
  5
2C3
100
AcDbEntity
  8
0
100
AcDbLine
 62
253
  6
CONTINUOUS
 10
13.817737301
 20
19.4557380768
 11
14.5248440822
 21
19.804253079
  0
LINE
  5
2C4
100
AcDbEntity
  8
0
100
AcDbLine
 62
7
  6
CONTINUOUS
 10
14.611230987
 20
19.7249134548
 11
20.3272334452
 21
22.5421861245
  0
LINE
  5
2C5
100
AcDbEntity
  8
0
100
AcDbLine
 62
253
  6
CONTINUOUS
 10
13.9591586572
 20
19.2118193867
 11
14.6662654384
 21
19.5603343889
  0
LINE
  5
2C6
100
AcDbEntity
  8
0
100
AcDbLine
 62
253
  6
CONTINUOUS
 10
21.8433992674
 20
-25.1852862334
 11
22.2822526438
 21
-25.4047129216
  0
LINE
  5
2C7
100
AcDbEntity
  8
0
100
AcDbLine
 62
7
  6
CONTINUOUS
 10
21.8433992674
 20
-25.1816660838
 11
22.3056676951
 21
-25.4128002977
  0
LINE
  5
2C8
100
AcDbEntity
  8
CURVE
100
AcDbLine
 62
253
  6
CONTINUOUS
 10
-10.7040186711
 20
-7.3993412179
 11
-10.4969103019
 21
-7.5028954025
  0
LINE
  5
2C9
100
AcDbEntity
  8
CURVE
100
AcDbLine
 62
253
  6
CONTINUOUS
 10
-9.4595676191
 20
-8.0215667439
 11
-9.2560610637
 21
-8.1233200216
  0
LINE
  5
2CA
100
AcDbEntity
  8
CURVE
100
AcDbLine
 62
253
  6
CONTINUOUS
 10
-8.715778539
 20
-8.393461284
 11
-8.5014662819
 21
-8.5006174125
  0
LINE
  5
2CB
100
AcDbEntity
  8
CURVE
100
AcDbLine
 62
253
  6
CONTINUOUS
 10
-7.7900941469
 20
-8.85630348
 11
-7.3560671822
 21
-9.0733169624
  0
LINE
  5
2CC
100
AcDbEntity
  8
CURVE
100
AcDbLine
 62
253
  6
CONTINUOUS
 10
-7.1723710534
 20
-9.1651650268
 11
-6.722135456
 21
-9.3902828255
  0
LINE
  5
2CD
100
AcDbEntity
  8
CURVE
100
AcDbLine
 62
253
  6
CONTINUOUS
 10
-6.0611895554
 20
-9.7207557758
 11
-5.610953958
 21
-9.9458735745
  0
LINE
  5
2CE
100
AcDbEntity
  8
CURVE
100
AcDbLine
 62
253
  6
CONTINUOUS
 10
-7.3656810938
 20
-8.8534513794
 11
-7.7582863886
 21
-8.657148732
  0
LINE
  5
2CF
100
AcDbEntity
  8
CURVE
100
AcDbLine
 62
253
  6
CONTINUOUS
 10
-5.6319392551
 20
-9.707671805
 11
-6.0713689906
 21
-9.4879569373
  0
LINE
  5
2D0
100
AcDbEntity
  8
CURVE
100
AcDbLine
 62
253
  6
CONTINUOUS
 10
-6.7431204327
 20
-9.1520812162
 11
-7.1825504885
 21
-8.9323661883
  0
LINE
  5
2D1
100
AcDbEntity
  8
CURVE
100
AcDbLine
 62
253
  6
CONTINUOUS
 10
-10.5233014314
 20
-6.8993428246
 11
-10.2081365853
 21
-7.0569252477
  0
LINE
  5
2D2
100
AcDbEntity
  8
CURVE
100
AcDbLine
 62
253
  6
CONTINUOUS
 10
-9.2824521932
 20
-7.5197674437
 11
-9.0339221742
 21
-7.6440324532
  0
LINE
  5
2D3
100
AcDbEntity
  8
CURVE
100
AcDbLine
 62
253
  6
CONTINUOUS
 10
-8.0548492316
 20
-8.0386901163
 11
-7.4497324964
 21
-8.3412484839
  0
LINE
  5
2D4
100
AcDbEntity
  8
CURVE
100
AcDbLine
 62
253
  6
CONTINUOUS
 10
-9.0417352679
 20
-7.4250673026
 11
-9.2884643099
 21
-7.3017027816
  0
LINE
  5
2D5
100
AcDbEntity
  8
CURVE
100
AcDbLine
 62
253
  6
CONTINUOUS
 10
-10.2951909846
 20
-6.7983394442
 11
-10.529313468
 21
-6.6812782025
  0
LINE
  5
2D6
100
AcDbEntity
  8
CURVE
100
AcDbLine
 62
253
  6
CONTINUOUS
 10
-7.4595349165
 20
-8.1170717998
 11
-8.0646516516
 21
-7.8145134322
  0
LINE
  5
2D7
100
AcDbEntity
  8
CURVE
100
AcDbLine
 62
253
  6
CONTINUOUS
 10
-6.5723404883
 20
-8.5859700482
 11
-6.7401950103
 21
-8.4535491772
  0
LINE
  5
2D8
100
AcDbEntity
  8
CURVE
100
AcDbLine
 62
253
  6
CONTINUOUS
 10
-5.4611589904
 20
-9.1415607971
 11
-5.6290135124
 21
-9.0091399262
  0
LINE
  5
2D9
100
AcDbEntity
  8
CURVE
100
AcDbLine
 62
253
  6
CONTINUOUS
 10
-6.9211880638
 20
-8.5443765731
 11
-6.7003522961
 21
-8.7201554544
  0
LINE
  5
2DA
100
AcDbEntity
  8
CURVE
100
AcDbLine
 62
253
  6
CONTINUOUS
 10
-5.8100065659
 20
-9.0999673221
 11
-5.5891707982
 21
-9.2757462033
  0
LINE
  5
2DB
100
AcDbEntity
  8
CURVE
100
AcDbLine
 62
253
  6
CONTINUOUS
 10
-8.5014662819
 20
-8.5006174125
 11
-8.5148808058
 21
-8.3146946279
  0
LINE
  5
2DC
100
AcDbEntity
  8
CURVE
100
AcDbLine
 62
253
  6
CONTINUOUS
 10
-8.7254125911
 20
-8.2537055101
 11
-8.715778539
 21
-8.393461284
  0
LINE
  5
2DD
100
AcDbEntity
  8
CURVE
100
AcDbLine
 62
253
  6
CONTINUOUS
 10
-9.5298811273
 20
-6.4135302605
 11
-9.4595676191
 21
-8.0215667439
  0
LINE
  5
2DE
100
AcDbEntity
  8
CURVE
100
AcDbLine
 62
253
  6
CONTINUOUS
 10
-9.2560610637
 20
-8.1233200216
 11
-9.2824521932
 21
-7.5197674437
  0
LINE
  5
2DF
100
AcDbEntity
  8
CURVE
100
AcDbLine
 62
253
  6
CONTINUOUS
 10
-9.2884643099
 20
-7.3017027816
 11
-9.313347373
 21
-6.7326389649
  0
LINE
  5
2E0
100
AcDbEntity
  8
CURVE
100
AcDbLine
 62
253
  6
CONTINUOUS
 10
-7.4497324964
 20
-8.3412484839
 11
-7.4595349165
 21
-8.1170717998
  0
LINE
  5
2E1
100
AcDbEntity
  8
CURVE
100
AcDbLine
 62
253
  6
CONTINUOUS
 10
-7.4253944876
 20
-7.6892658778
 11
-7.4353854152
 21
-7.4607781165
  0
LINE
  5
2E2
100
AcDbEntity
  8
CURVE
100
AcDbLine
 62
253
  6
CONTINUOUS
 10
-7.3560671822
 20
-9.0733169624
 11
-7.3656810938
 21
-8.8534513794
  0
LINE
  5
2E3
100
AcDbEntity
  8
ASSI
100
AcDbLine
 62
7
  6
CONTINUOUS
 10
-12.559952235
 20
-3.1035222363
 11
-12.5704790244
 21
-3.126272845
  0
LINE
  5
2E4
100
AcDbEntity
  8
RACCORDO
100
AcDbLine
 62
7
  6
CONTINUOUS
 10
-12.5586871066
 20
-3.1010032383
 11
-12.5704790244
 21
-3.126272845
  0
LINE
  5
2E5
100
AcDbEntity
  8
ASSI
100
AcDbLine
 62
7
  6
CONTINUOUS
 10
-12.5527775582
 20
-3.0897475447
 11
-12.559952235
 21
-3.1035222363
  0
LINE
  5
2E6
100
AcDbEntity
  8
RACCORDO
100
AcDbLine
 62
7
  6
CONTINUOUS
 10
-12.5527777428
 20
-3.0897478839
 11
-12.5586871066
 21
-3.1010032383
  0
LINE
  5
2E7
100
AcDbEntity
  8
RACCORDO
100
AcDbLine
 62
7
  6
CONTINUOUS
 10
-12.5527211936
 20
-3.0896463094
 11
-12.5527768592
 21
-3.089748362
  0
LINE
  5
2E8
100
AcDbEntity
  8
ASSI
100
AcDbLine
 62
7
  6
CONTINUOUS
 10
-12.5527199787
 20
-3.0896440877
 11
-12.5527766762
 21
-3.0897480257
  0
LINE
  5
2E9
100
AcDbEntity
  8
ASSI
100
AcDbLine
 62
7
  6
CONTINUOUS
 10
-12.5432330438
 20
-3.0731302246
 11
-12.5527199787
 21
-3.0896440877
  0
LWPOLYLINE
  5
2EA
100
AcDbEntity
  8
RACCORDO
100
AcDbPolyline
 62
7
  6
CONTINUOUS
 90
3
 70
0
 10
-12.5240905138
 20
-3.0443994626
 10
-12.5465939739
 20
-3.078782127
 10
-12.5527211936
 20
-3.0896463094
  0
LINE
  5
2EB
100
AcDbEntity
  8
ASSI
100
AcDbLine
 62
7
  6
CONTINUOUS
 10
-12.5208225885
 20
-3.0400012723
 11
-12.5432330438
 21
-3.0731302246
  0
LINE
  5
2EC
100
AcDbEntity
  8
RACCORDO
100
AcDbLine
 62
7
  6
CONTINUOUS
 10
-12.4986877829
 20
-3.0133243588
 11
-12.5240905138
 21
-3.0443994626
  0
LINE
  5
2ED
100
AcDbEntity
  8
ASSI
100
AcDbLine
 62
7
  6
CONTINUOUS
 10
-12.4956663046
 20
-3.0100549475
 11
-12.5208225885
 21
-3.0400012723
  0
LINE
  5
2EE
100
AcDbEntity
  8
0
100
AcDbLine
 62
7
  6
CONTINUOUS
 10
13.9591586572
 20
17.9993867527
 11
13.7470266229
 21
17.879704795
  0
LINE
  5
2EF
100
AcDbEntity
  8
0
100
AcDbLine
 62
7
  6
CONTINUOUS
 10
15.4249699859
 20
18.6126978389
 11
15.2122034836
 21
18.5047985504
  0
LINE
  5
2F0
100
AcDbEntity
  8
0
100
AcDbLine
 62
253
  6
CONTINUOUS
 10
15.5147935758
 20
18.6072099394
 11
15.30183879
 21
18.4992151676
  0
LINE
  5
2F1
100
AcDbEntity
  8
0
100
AcDbLine
 62
7
  6
CONTINUOUS
 10
16.9281843867
 20
17.6860423692
 11
16.0804790008
 21
17.2561494725
  0
LINE
  5
2F2
100
AcDbEntity
  8
0
100
AcDbLine
 62
7
  6
CONTINUOUS
 10
17.8128906147
 20
17.45816142
 11
16.7460597025
 21
16.9233591217
  0
LINE
  5
2F3
100
AcDbEntity
  8
0
100
AcDbLine
 62
7
  6
CONTINUOUS
 10
15.4257358061
 20
18.6130807408
 11
15.4249710205
 21
18.6126983636
  0
LINE
  5
2F4
100
AcDbEntity
  8
0
100
AcDbLine
 62
7
  6
CONTINUOUS
 10
23.0873826838
 20
20.0884705539
 11
17.8128906147
 21
17.45816142
  0
LINE
  5
2F5
100
AcDbEntity
  8
0
100
AcDbLine
 62
7
  6
CONTINUOUS
 10
14.6662654384
 20
18.3484056034
 11
13.9591586572
 21
17.9993867527
  0
LINE
  5
2F6
100
AcDbEntity
  8
0
100
AcDbLine
 62
7
  6
CONTINUOUS
 10
16.1328443085
 20
18.9615965911
 11
15.4257366616
 21
18.6130811623
  0
LINE
  5
2F7
100
AcDbEntity
  8
0
100
AcDbLine
 62
253
  6
CONTINUOUS
 10
16.221900357
 20
18.9557249416
 11
15.5147935758
 21
18.6072099394
  0
LINE
  5
2F8
100
AcDbEntity
  8
0
100
AcDbLine
 62
7
  6
CONTINUOUS
 10
22.4464969101
 20
20.4089134407
 11
17.8482459537
 21
18.1425521432
  0
LINE
  5
2F9
100
AcDbEntity
  8
CURVE
100
AcDbLine
 62
253
  6
CONTINUOUS
 10
-6.8289054622
 20
-7.9959440374
 11
-6.4236934886
 21
-8.1985500242
  0
LINE
  5
2FA
100
AcDbEntity
  8
CURVE
100
AcDbLine
 62
253
  6
CONTINUOUS
 10
-5.7177242845
 20
-8.5515346262
 11
-5.3125123109
 21
-8.754140613
  0
LINE
  5
2FB
100
AcDbEntity
  8
CURVE
100
AcDbLine
 62
253
  6
CONTINUOUS
 10
-7.7981895161
 20
-7.5028683636
 11
-7.4253944876
 21
-7.6892658778
  0
LINE
  5
2FC
100
AcDbEntity
  8
CURVE
100
AcDbLine
 62
253
  6
CONTINUOUS
 10
-10.5541965311
 20
-6.1122143858
 11
-10.2948608504
 21
-6.2418822262
  0
LINE
  5
2FD
100
AcDbEntity
  8
CURVE
100
AcDbLine
 62
253
  6
CONTINUOUS
 10
-9.313347373
 20
-6.7326389649
 11
-9.0612154
 21
-6.8587049513
  0
LINE
  5
2FE
100
AcDbEntity
  8
CURVE
100
AcDbLine
 62
253
  6
CONTINUOUS
 10
-5.3228802536
 20
-8.5170306973
 11
-5.7154855484
 21
-8.3207280499
  0
LINE
  5
2FF
100
AcDbEntity
  8
CURVE
100
AcDbLine
 62
253
  6
CONTINUOUS
 10
-6.4340614312
 20
-7.9614401085
 11
-6.826666726
 21
-7.7651374611
  0
LINE
  5
300
100
AcDbEntity
  8
CURVE
100
AcDbLine
 62
253
  6
CONTINUOUS
 10
-7.4353854152
 20
-7.4607781165
 11
-7.8243887561
 21
-7.2662764461
  0
LINE
  5
301
100
AcDbEntity
  8
CURVE
100
AcDbLine
 62
253
  6
CONTINUOUS
 10
-9.0778445529
 20
-6.6395485477
 11
-9.5298811273
 21
-6.4135302605
  0
LINE
  5
302
100
AcDbEntity
  8
CURVE
100
AcDbLine
 62
253
  6
CONTINUOUS
 10
-10.2988834446
 20
-6.0290291018
 11
-10.7743321793
 21
-5.7913047345
  0
LINE
  5
303
100
AcDbEntity
  8
RACCORDO
100
AcDbLine
 62
7
  6
CONTINUOUS
 10
21.470714855
 20
-20.5920422656
 11
19.8281449411
 21
-19.7707573086
  0
LINE
  5
304
100
AcDbEntity
  8
RACCORDO
100
AcDbLine
 62
253
  6
CONTINUOUS
 10
15.195482051
 20
-17.040098955
 11
-3.2995992344
 21
-7.7925583123
  0
LINE
  5
305
100
AcDbEntity
  8
ASSI
100
AcDbLine
 62
253
  6
CONTINUOUS
 10
-3.541864541
 20
-7.671425659
 11
-12.5356369957
 21
-3.1745394317
  0
LINE
  5
306
100
AcDbEntity
  8
RACCORDO
100
AcDbLine
 62
253
  6
CONTINUOUS
 10
-3.541864541
 20
-7.671425659
 11
-12.5356369957
 21
-3.1745394317
  0
LINE
  5
307
100
AcDbEntity
  8
RACCORDO
100
AcDbLine
 62
253
  6
CONTINUOUS
 10
-12.7779023022
 20
-3.0534067784
 11
-15.3630810109
 21
-1.760817424
  0
LINE
  5
308
100
AcDbEntity
  8
ASSI
100
AcDbLine
 62
253
  6
CONTINUOUS
 10
-12.1408196903
 20
-3.0833308014
 11
-3.9456149048
 21
-7.1809331942
  0
LINE
  5
309
100
AcDbEntity
  8
RACCORDO
100
AcDbLine
 62
253
  6
CONTINUOUS
 10
-12.1408196903
 20
-3.0833308014
 11
-3.9456149048
 21
-7.1809331942
  0
LINE
  5
30A
100
AcDbEntity
  8
ASSI
100
AcDbLine
 62
253
  6
CONTINUOUS
 10
-12.0707379425
 20
-2.9601038532
 11
-3.8755331571
 21
-7.057706246
  0
LINE
  5
30B
100
AcDbEntity
  8
RACCORDO
100
AcDbLine
 62
253
  6
CONTINUOUS
 10
-12.0707379425
 20
-2.9601038532
 11
-3.8755331571
 21
-7.057706246
  0
LINE
  5
30C
100
AcDbEntity
  8
RACCORDO
100
AcDbLine
 62
7
  6
CONTINUOUS
 10
-12.1188670819
 20
-2.8641456453
 11
-3.9236623
 21
-6.9617480363
  0
LINE
  5
30D
100
AcDbEntity
  8
RACCORDO
100
AcDbLine
 62
253
  6
CONTINUOUS
 10
-12.1448453337
 20
-2.8115848124
 11
-3.9496405483
 21
-6.9091872051
  0
LINE
  5
30E
100
AcDbEntity
  8
RACCORDO
100
AcDbLine
 62
7
  6
CONTINUOUS
 10
-3.9235509041
 20
-6.9618335853
 11
-3.8819322095
 21
-6.9844124202
  0
LINE
  5
30F
100
AcDbEntity
  8
RACCORDO
100
AcDbLine
 62
7
  6
CONTINUOUS
 10
-3.8819322095
 20
-6.9844124202
 11
-3.8221853679
 21
-7.0229505722
  0
LWPOLYLINE
  5
310
100
AcDbEntity
  8
RACCORDO
100
AcDbPolyline
 62
7
  6
CONTINUOUS
 90
10
 70
0
 10
-3.8221853679
 20
-7.0229505722
 10
-3.7623939372
 20
-7.0689074163
 10
-3.7033940193
 20
-7.1218377695
 10
-3.6460413891
 20
-7.1811327665
 10
-3.5910402007
 20
-7.2462113507
 10
-3.5390511556
 20
-7.3163563529
 10
-3.490760427
 20
-7.390703463
 10
-3.4467551
 20
-7.4684096097
 10
-3.4074894558
 20
-7.5486371268
 10
-3.373385311
 20
-7.630505073
  0
LINE
  5
311
100
AcDbEntity
  8
CURVE
100
AcDbLine
 62
253
  6
CONTINUOUS
 10
-7.1825504885
 20
-8.9323661883
 11
-7.1723710534
 21
-9.1651650268
  0
LINE
  5
312
100
AcDbEntity
  8
CURVE
100
AcDbLine
 62
253
  6
CONTINUOUS
 10
-6.4236934886
 20
-8.1985500242
 11
-6.4340614312
 21
-7.9614401085
  0
LINE
  5
313
100
AcDbEntity
  8
CURVE
100
AcDbLine
 62
253
  6
CONTINUOUS
 10
-6.0713689906
 20
-9.4879569373
 11
-6.0611895554
 21
-9.7207557758
  0
LINE
  5
314
100
AcDbEntity
  8
CURVE
100
AcDbLine
 62
253
  6
CONTINUOUS
 10
-5.3125123109
 20
-8.754140613
 11
-5.3228802536
 21
-8.5170306973
  0
LINE
  5
315
100
AcDbEntity
  8
0
100
AcDbLine
 62
253
  6
CONTINUOUS
 10
9.5397412748
 20
21.0842012524
 11
10.0680084465
 21
21.7271534081
  0
LINE
  5
316
100
AcDbEntity
  8
0
100
AcDbLine
 62
7
  6
CONTINUOUS
 10
9.5397412748
 20
20.994670786
 11
10.0833690189
 21
21.6563182416
  0
LINE
  5
317
100
AcDbEntity
  8
RACCORDO
100
AcDbLine
 62
7
  6
CONTINUOUS
 10
-12.470605732
 20
-2.9857856528
 11
-12.4986877829
 21
-3.0133243588
  0
LINE
  5
318
100
AcDbEntity
  8
ASSI
100
AcDbLine
 62
7
  6
CONTINUOUS
 10
-12.4679757541
 20
-2.9835048124
 11
-12.4956663046
 21
-3.0100549475
  0
LINE
  5
319
100
AcDbEntity
  8
RACCORDO
100
AcDbLine
 62
7
  6
CONTINUOUS
 10
-12.4402433911
 20
-2.9620699789
 11
-12.470605732
 21
-2.9857856528
  0
LINE
  5
31A
100
AcDbEntity
  8
ASSI
100
AcDbLine
 62
7
  6
CONTINUOUS
 10
-12.4381314375
 20
-2.9606175825
 11
-12.4679757541
 21
-2.9835048124
  0
LINE
  5
31B
100
AcDbEntity
  8
0
100
AcDbLine
 62
7
  6
CONTINUOUS
 10
17.8128906147
 20
16.0725207739
 11
16.7460597025
 21
15.4771963559
  0
LINE
  5
31C
100
AcDbEntity
  8
0
100
AcDbLine
 62
7
  6
CONTINUOUS
 10
18.2737210364
 20
16.0073016542
 11
19.8568927313
 21
16.8194987015
  0
LINE
  5
31D
100
AcDbEntity
  8
0
100
AcDbLine
 62
253
  6
CONTINUOUS
 10
18.3868067025
 20
16.000853679
 11
19.9695633057
 21
16.8128377764
  0
LINE
  5
31E
100
AcDbEntity
  8
0
100
AcDbLine
 62
7
  6
CONTINUOUS
 10
19.8568947011
 20
16.819499712
 11
19.8586311185
 21
16.820367935
  0
LINE
  5
31F
100
AcDbEntity
  8
0
100
AcDbLine
 62
7
  6
CONTINUOUS
 10
17.8128906147
 20
16.0725207739
 11
23.1202012808
 21
18.719196044
  0
LINE
  5
320
100
AcDbEntity
  8
0
100
AcDbLine
 62
7
  6
CONTINUOUS
 10
24.5698741323
 20
20.4208657809
 11
23.251036132
 21
19.7708439726
  0
LINE
  5
321
100
AcDbEntity
  8
0
100
AcDbLine
 62
7
  6
CONTINUOUS
 10
19.8586338824
 20
16.8203692814
 11
20.3935010733
 21
17.080920034
  0
LINE
  5
322
100
AcDbEntity
  8
0
100
AcDbLine
 62
253
  6
CONTINUOUS
 10
19.9695633057
 20
16.8128377764
 11
20.5040131844
 21
17.0731852429
  0
LINE
  5
323
100
AcDbEntity
  8
RACCORDO
100
AcDbLine
 62
7
  6
CONTINUOUS
 10
-12.1747841468
 20
-2.8394223117
 11
-12.1189729463
 21
-2.864105561
  0
LWPOLYLINE
  5
324
100
AcDbEntity
  8
RACCORDO
100
AcDbPolyline
 62
7
  6
CONTINUOUS
 90
3
 70
0
 10
-3.373385311
 20
-7.630505073
 10
-3.3448218259
 20
-7.7130953952
 10
-3.3258390092
 20
-7.7802055063
  0
LWPOLYLINE
  5
325
100
AcDbEntity
  8
RACCORDO
100
AcDbPolyline
 62
7
  6
CONTINUOUS
 90
4
 70
0
 10
-3.3258124475
 20
-7.7802263253
 10
-3.324186584
 20
-7.7866842261
 10
-3.3226214332
 20
-7.793037426
 10
-3.3210923505
 20
-7.7993825955
  0
LINE
  5
326
100
AcDbEntity
  8
CURVE
100
AcDbLine
 62
7
  6
CONTINUOUS
 10
-10.7710385752
 20
-5.8666278937
 11
-10.7219210037
 21
-5.8175103223
  0
LINE
  5
327
100
AcDbEntity
  8
CURVE
100
AcDbLine
 62
7
  6
CONTINUOUS
 10
-10.762240297
 20
-6.0678403295
 11
-10.5819138611
 21
-5.8875138936
  0
LINE
  5
328
100
AcDbEntity
  8
CURVE
100
AcDbLine
 62
7
  6
CONTINUOUS
 10
-10.7534420189
 20
-6.2690527654
 11
-10.4419067184
 21
-5.9575174649
  0
LINE
  5
329
100
AcDbEntity
  8
CURVE
100
AcDbLine
 62
7
  6
CONTINUOUS
 10
-10.7446437407
 20
-6.4702652013
 11
-10.5471748744
 21
-6.272796335
  0
LINE
  5
32A
100
AcDbEntity
  8
CURVE
100
AcDbLine
 62
7
  6
CONTINUOUS
 10
-10.4424607939
 20
-6.1680822544
 11
-10.3018995757
 21
-6.0275210363
  0
LINE
  5
32B
100
AcDbEntity
  8
CURVE
100
AcDbLine
 62
7
  6
CONTINUOUS
 10
-10.7358454626
 20
-6.6714776371
 11
-10.5383765963
 21
-6.4740087708
  0
LINE
  5
32C
100
AcDbEntity
  8
CURVE
100
AcDbLine
 62
7
  6
CONTINUOUS
 10
-10.3024536512
 20
-6.2380858258
 11
-10.1673765218
 21
-6.1030086964
  0
LINE
  5
32D
100
AcDbEntity
  8
CURVE
100
AcDbLine
 62
7
  6
CONTINUOUS
 10
-10.7270471844
 20
-6.872690073
 11
-10.5295783181
 21
-6.6752212067
  0
LINE
  5
32E
100
AcDbEntity
  8
CURVE
100
AcDbLine
 62
7
  6
CONTINUOUS
 10
-10.1719240334
 20
-6.3175669219
 11
-10.0432115385
 21
-6.188854427
  0
LINE
  5
32F
100
AcDbEntity
  8
CURVE
100
AcDbLine
 62
7
  6
CONTINUOUS
 10
-10.7182489063
 20
-7.0739025089
 11
-10.3935208893
 21
-6.7491744919
  0
LINE
  5
330
100
AcDbEntity
  8
CURVE
100
AcDbLine
 62
7
  6
CONTINUOUS
 10
-10.0695324208
 20
-6.4251860234
 11
-9.9379373267
 21
-6.2935909292
  0
LINE
  5
331
100
AcDbEntity
  8
CURVE
100
AcDbLine
 62
7
  6
CONTINUOUS
 10
-10.7094506281
 20
-7.2751149447
 11
-10.5153572881
 21
-7.0810216047
  0
LINE
  5
332
100
AcDbEntity
  8
CURVE
100
AcDbLine
 62
7
  6
CONTINUOUS
 10
-10.3968861492
 20
-6.9625504658
 11
-10.2525277811
 21
-6.8181920977
  0
LINE
  5
333
100
AcDbEntity
  8
CURVE
100
AcDbLine
 62
7
  6
CONTINUOUS
 10
-10.0101869206
 20
-6.5758512372
 11
-9.8563478681
 21
-6.4220121847
  0
LINE
  5
334
100
AcDbEntity
  8
RACCORDO
100
AcDbLine
 62
7
  6
CONTINUOUS
 10
-12.4079693801
 20
-2.9422987043
 11
-12.4402433911
 21
-2.9620699789
  0
LINE
  5
335
100
AcDbEntity
  8
ASSI
100
AcDbLine
 62
7
  6
CONTINUOUS
 10
-12.4066708301
 20
-2.9416188077
 11
-12.4381314375
 21
-2.9606175825
  0
LINE
  5
336
100
AcDbEntity
  8
0
100
AcDbLine
 62
7
  6
CONTINUOUS
 10
28.5080897752
 20
18.1556496023
 11
22.035255222
 21
14.6634068631
  0
LINE
  5
337
100
AcDbEntity
  8
ASSI
100
AcDbLine
 62
7
  6
CONTINUOUS
 10
-12.4018396141
 20
-2.939088245
 11
-12.4066708301
 21
-2.9416188077
  0
LINE
  5
338
100
AcDbEntity
  8
RACCORDO
100
AcDbLine
 62
7
  6
CONTINUOUS
 10
-12.4017659619
 20
-2.93905071
 11
-12.4079693801
 21
-2.9422987043
  0
LINE
  5
339
100
AcDbEntity
  8
0
100
AcDbLine
 62
7
  6
CONTINUOUS
 10
28.5080897752
 20
17.5637814291
 11
22.4784160326
 21
14.4418264578
  0
LINE
  5
33A
100
AcDbEntity
  8
ASSI
100
AcDbLine
 62
7
  6
CONTINUOUS
 10
-12.1952533203
 20
-2.8329267899
 11
-12.4025516276
 21
-2.9394522676
  0
LINE
  5
33B
100
AcDbEntity
  8
DRAFT
100
AcDbLine
 62
7
  6
CONTINUOUS
 10
-12.1952533203
 20
-2.8329267899
 11
-12.402604723
 21
-2.9394795519
  0
LINE
  5
33C
100
AcDbEntity
  8
RACCORDO
100
AcDbLine
 62
7
  6
CONTINUOUS
 10
-12.4030161024
 20
-2.9396913784
 11
-12.4017655263
 21
-2.9390501916
  0
LINE
  5
33D
100
AcDbEntity
  8
ASSI
100
AcDbLine
 62
253
  6
CONTINUOUS
 10
-11.9996045908
 20
-2.9237768909
 11
-12.0707379425
 21
-2.9601038532
  0
LINE
  5
33E
100
AcDbEntity
  8
RACCORDO
100
AcDbLine
 62
253
  6
CONTINUOUS
 10
-11.9996045908
 20
-2.9237768909
 11
-12.0707379425
 21
-2.9601038532
  0
LINE
  5
33F
100
AcDbEntity
  8
0
100
AcDbLine
 62
253
  6
CONTINUOUS
 10
22.8982016406
 20
14.2319336538
 11
22.1972656868
 21
13.8803332379
  0
LINE
  5
340
100
AcDbEntity
  8
0
100
AcDbLine
 62
253
  6
CONTINUOUS
 10
20.0653447729
 20
15.1615846438
 11
21.6666255638
 21
15.9643066473
  0
LINE
  5
341
100
AcDbEntity
  8
0
100
AcDbLine
 62
253
  6
CONTINUOUS
 10
20.2421184766
 20
14.856695105
 11
21.8433992674
 21
15.6594171085
  0
LINE
  5
342
100
AcDbEntity
  8
0
100
AcDbLine
 62
253
  6
CONTINUOUS
 10
21.6666255638
 20
15.9643066473
 11
22.1948927355
 21
16.2277454674
  0
LINE
  5
343
100
AcDbEntity
  8
0
100
AcDbLine
 62
253
  6
CONTINUOUS
 10
21.8433992674
 20
15.6594171085
 11
22.3716664392
 21
15.9228559285
  0
LINE
  5
344
100
AcDbEntity
  8
RACCORDO
100
AcDbLine
 62
253
  6
CONTINUOUS
 10
-12.5083786123
 20
-3.0251791287
 11
-12.6447486813
 21
-3.0918116769
  0
LINE
  5
345
100
AcDbEntity
  8
RACCORDO
100
AcDbLine
 62
7
  6
CONTINUOUS
 10
-12.4523861233
 20
-2.8346778371
 11
-12.4518179353
 21
-2.8344008834
  0
LINE
  5
346
100
AcDbEntity
  8
0
100
AcDbLine
 62
7
  6
CONTINUOUS
 10
27.6203539815
 20
18.8956258563
 11
22.2323862402
 21
16.2709760859
  0
LWPOLYLINE
  5
347
100
AcDbEntity
  8
RACCORDO
100
AcDbPolyline
 62
7
  6
CONTINUOUS
 90
5
 70
0
 10
-12.4523204442
 20
-2.8346558646
 10
-12.4382436276
 20
-2.8283009199
 10
-12.3939082439
 20
-2.8144940862
 10
-12.3449731441
 20
-2.8082410237
 10
-12.2919783836
 20
-2.8100278422
  0
LWPOLYLINE
  5
348
100
AcDbEntity
  8
RACCORDO
100
AcDbPolyline
 62
7
  6
CONTINUOUS
 90
3
 70
0
 10
-12.2919783836
 20
-2.8100278422
 10
-12.2350387891
 20
-2.8203015914
 10
-12.1747841468
 20
-2.8394223117
  0
LINE
  5
349
100
AcDbEntity
  8
RACCORDO
100
AcDbLine
 62
7
  6
CONTINUOUS
 10
28.1639332819
 20
-18.1166191693
 11
28.5019732656
 21
-18.2856391612
  0
LINE
  5
34A
100
AcDbEntity
  8
RACCORDO
100
AcDbLine
 62
253
  6
CONTINUOUS
 10
26.2721505594
 20
-16.6131284163
 11
27.4093030626
 21
-17.1817046679
  0
LINE
  5
34B
100
AcDbEntity
  8
RACCORDO
100
AcDbLine
 62
7
  6
CONTINUOUS
 10
26.3283553705
 20
-16.5920566282
 11
27.4594422904
 21
-17.1576000881
  0
LINE
  5
34C
100
AcDbEntity
  8
RACCORDO
100
AcDbLine
 62
253
  6
CONTINUOUS
 10
27.6742093584
 20
-17.0543501947
 11
28.1065833717
 21
-17.2705372013
  0
LINE
  5
34D
100
AcDbEntity
  8
RACCORDO
100
AcDbLine
 62
7
  6
CONTINUOUS
 10
27.794397691
 20
-17.0652701673
 11
28.1628122404
 21
-17.249477442
  0
LWPOLYLINE
  5
34E
100
AcDbEntity
  8
RACCORDO
100
AcDbPolyline
 62
7
  6
CONTINUOUS
 90
13
 70
0
 10
-3.3210812329
 20
-7.7994307047
 10
-3.2367461716
 20
-8.1727943095
 10
-3.1430081867
 20
-8.6475714963
 10
-3.0656195257
 20
-9.1166427257
 10
-3.0047213385
 20
-9.5787223261
 10
-2.9604254349
 20
-10.0325347123
 10
-2.9328202886
 20
-10.4768047777
 10
-2.9219457911
 20
-10.9102915802
 10
-2.9278189267
 20
-11.3318233502
 10
-2.9504271877
 20
-11.7403436828
 10
-2.9897415251
 20
-12.1348021926
 10
-3.0456644011
 20
-12.5140970406
 10
-3.1021774477
 20
-12.8054957139
  0
LINE
  5
34F
100
AcDbEntity
  8
RACCORDO
100
AcDbLine
 62
7
  6
CONTINUOUS
 10
-3.1022249069
 20
-12.8056497165
 11
-3.1021912615
 21
-12.8054926778
  0
LWPOLYLINE
  5
350
100
AcDbEntity
  8
RACCORDO
100
AcDbPolyline
 62
7
  6
CONTINUOUS
 90
5
 70
0
 10
-3.1022249069
 20
-12.8056497165
 10
-3.1044717868
 20
-12.8155528896
 10
-3.1157694549
 20
-12.8551370567
 10
-3.1301351171
 20
-12.8915007364
 10
-3.147485372
 20
-12.9242150595
  0
LINE
  5
351
100
AcDbEntity
  8
CURVE
100
AcDbLine
 62
7
  6
CONTINUOUS
 10
-10.6504503486
 20
-7.4261253792
 11
-10.5065590099
 21
-7.2822340405
  0
LINE
  5
352
100
AcDbEntity
  8
CURVE
100
AcDbLine
 62
7
  6
CONTINUOUS
 10
-10.2568790065
 20
-7.0325540371
 11
-10.0718229869
 21
-6.8474980175
  0
LINE
  5
353
100
AcDbEntity
  8
CURVE
100
AcDbLine
 62
7
  6
CONTINUOUS
 10
-10.0235714792
 20
-6.7992465098
 11
-9.8015628419
 21
-6.5772378725
  0
LINE
  5
354
100
AcDbEntity
  8
CURVE
100
AcDbLine
 62
7
  6
CONTINUOUS
 10
-10.5104432059
 20
-7.4961289505
 11
-10.4977607318
 21
-7.4834464764
  0
LINE
  5
355
100
AcDbEntity
  8
CURVE
100
AcDbLine
 62
7
  6
CONTINUOUS
 10
-10.111421827
 20
-7.0971075716
 11
-9.7809042975
 21
-6.7665900421
  0
LINE
  5
356
100
AcDbEntity
  8
CURVE
100
AcDbLine
 62
7
  6
CONTINUOUS
 10
-9.5256063621
 20
-6.5112921067
 11
-9.4618567197
 21
-6.4475424643
  0
LINE
  5
357
100
AcDbEntity
  8
CURVE
100
AcDbLine
 62
7
  6
CONTINUOUS
 10
-9.9016298524
 20
-7.097326311
 11
-9.8300687429
 21
-7.0257652016
  0
LINE
  5
358
100
AcDbEntity
  8
CURVE
100
AcDbLine
 62
7
  6
CONTINUOUS
 10
-9.5168080839
 20
-6.7125045426
 11
-9.321849577
 21
-6.5175460356
  0
LINE
  5
359
100
AcDbEntity
  8
CURVE
100
AcDbLine
 62
7
  6
CONTINUOUS
 10
-9.5080098058
 20
-6.9137169784
 11
-9.1818424343
 21
-6.587549607
  0
LINE
  5
35A
100
AcDbEntity
  8
CURVE
100
AcDbLine
 62
7
  6
CONTINUOUS
 10
-9.4992115276
 20
-7.1149294143
 11
-9.3051182063
 21
-6.920836093
  0
LINE
  5
35B
100
AcDbEntity
  8
CURVE
100
AcDbLine
 62
7
  6
CONTINUOUS
 10
-9.1823965098
 20
-6.7981143965
 11
-9.0422794745
 21
-6.6579973611
  0
LINE
  5
35C
100
AcDbEntity
  8
CURVE
100
AcDbLine
 62
7
  6
CONTINUOUS
 10
-9.4904132495
 20
-7.3161418502
 11
-9.2963199282
 21
-7.1220485288
  0
LINE
  5
35D
100
AcDbEntity
  8
CURVE
100
AcDbLine
 62
7
  6
CONTINUOUS
 10
-9.0425891596
 20
-6.8683177602
 11
-8.9100933062
 21
-6.7358219069
  0
LINE
  5
35E
100
AcDbEntity
  8
CURVE
100
AcDbLine
 62
7
  6
CONTINUOUS
 10
-9.4816149713
 20
-7.517354286
 11
-9.2734637479
 21
-7.3092030626
  0
LINE
  5
35F
100
AcDbEntity
  8
CURVE
100
AcDbLine
 62
7
  6
CONTINUOUS
 10
-8.9167179677
 20
-6.9524572824
 11
-8.7897173601
 21
-6.8254566748
  0
LINE
  5
360
100
AcDbEntity
  8
CURVE
100
AcDbLine
 62
7
  6
CONTINUOUS
 10
-9.4728166932
 20
-7.7185667219
 11
-9.2820988231
 21
-7.5278488518
  0
LINE
  5
361
100
AcDbEntity
  8
CURVE
100
AcDbLine
 62
7
  6
CONTINUOUS
 10
-9.2768290078
 20
-7.5225790365
 11
-9.1334566052
 21
-7.3792066339
  0
LINE
  5
362
100
AcDbEntity
  8
CURVE
100
AcDbLine
 62
7
  6
CONTINUOUS
 10
-8.8249074915
 20
-7.0706575202
 11
-8.6899466799
 21
-6.9356967085
  0
LINE
  5
363
100
AcDbEntity
  8
CURVE
100
AcDbLine
 62
7
  6
CONTINUOUS
 10
-9.464018415
 20
-7.9197791578
 11
-9.2733005449
 21
-7.7290612876
  0
LINE
  5
364
100
AcDbEntity
  8
CURVE
100
AcDbLine
 62
7
  6
CONTINUOUS
 10
-9.1368218651
 20
-7.5925826078
 11
-8.9918292974
 21
-7.4475900401
  0
LINE
  5
365
100
AcDbEntity
  8
CURVE
100
AcDbLine
 62
7
  6
CONTINUOUS
 10
-8.7840171865
 20
-7.2397779292
 11
-8.614994118
 21
-7.0707548607
  0
LINE
  5
366
100
AcDbEntity
  8
CURVE
100
AcDbLine
 62
7
  6
CONTINUOUS
 10
-9.3903860645
 20
-8.0561575212
 11
-9.2645022668
 21
-7.9302737235
  0
LINE
  5
367
100
AcDbEntity
  8
CURVE
100
AcDbLine
 62
7
  6
CONTINUOUS
 10
-8.9979571765
 20
-7.6637286332
 11
-8.5700175342
 21
-7.2357889909
  0
LINE
  5
368
100
AcDbEntity
  8
CURVE
100
AcDbLine
 62
7
  6
CONTINUOUS
 10
-8.8831204429
 20
-7.7589026137
 11
-8.5649287221
 21
-7.4407108929
  0
LINE
  5
369
100
AcDbEntity
  8
CURVE
100
AcDbLine
 62
7
  6
CONTINUOUS
 10
-8.8025895821
 20
-7.8883824669
 11
-8.678603808
 21
-7.7643966927
  0
LINE
  5
36A
100
AcDbEntity
  8
CURVE
100
AcDbLine
 62
7
  6
CONTINUOUS
 10
-8.2419037992
 20
-7.3276966839
 11
-8.120997718
 21
-7.2067906028
  0
LINE
  5
36B
100
AcDbEntity
  8
CURVE
100
AcDbLine
 62
7
  6
CONTINUOUS
 10
-8.7529326458
 20
-8.0487362446
 11
-8.6005869462
 21
-7.8963905449
  0
LINE
  5
36C
100
AcDbEntity
  8
CURVE
100
AcDbLine
 62
7
  6
CONTINUOUS
 10
-8.2882522805
 20
-7.5840558793
 11
-7.9266483209
 21
-7.2224519196
  0
LINE
  5
36D
100
AcDbEntity
  8
CURVE
100
AcDbLine
 62
7
  6
CONTINUOUS
 10
-8.7271052262
 20
-8.232919539
 11
-8.5495194004
 21
-8.0553337132
  0
LINE
  5
36E
100
AcDbEntity
  8
CURVE
100
AcDbLine
 62
7
  6
CONTINUOUS
 10
-8.2890248281
 20
-7.7948391409
 11
-8.0580589233
 21
-7.563873236
  0
LINE
  5
36F
100
AcDbEntity
  8
CURVE
100
AcDbLine
 62
7
  6
CONTINUOUS
 10
-7.9496225836
 20
-7.4554368963
 11
-7.7817710076
 21
-7.2875853203
  0
LINE
  5
370
100
AcDbEntity
  8
CURVE
100
AcDbLine
 62
7
  6
CONTINUOUS
 10
-8.6903503511
 20
-8.4061753779
 11
-8.5214574726
 21
-8.2372824993
  0
LINE
  5
371
100
AcDbEntity
  8
CURVE
100
AcDbLine
 62
7
  6
CONTINUOUS
 10
-8.2780328214
 20
-7.9938578482
 11
-8.0659428722
 21
-7.7817678989
  0
LINE
  5
372
100
AcDbEntity
  8
CURVE
100
AcDbLine
 62
7
  6
CONTINUOUS
 10
-7.7907587299
 20
-7.5065837567
 11
-7.6417638649
 21
-7.3575888917
  0
LINE
  5
373
100
AcDbEntity
  8
CURVE
100
AcDbLine
 62
7
  6
CONTINUOUS
 10
-8.5503432085
 20
-8.4761789493
 11
-8.5064000851
 21
-8.4322358259
  0
LINE
  5
374
100
AcDbEntity
  8
CURVE
100
AcDbLine
 62
7
  6
CONTINUOUS
 10
-8.2575244268
 20
-8.1833601676
 11
-7.9473356782
 21
-7.873171419
  0
LINE
  5
375
100
AcDbEntity
  8
CURVE
100
AcDbLine
 62
7
  6
CONTINUOUS
 10
-7.6507515872
 20
-7.576587328
 11
-7.5017567222
 21
-7.427592463
  0
LINE
  5
376
100
AcDbEntity
  8
CURVE
100
AcDbLine
 62
7
  6
CONTINUOUS
 10
-8.2190515402
 20
-8.354897995
 11
-8.0462508826
 21
-8.1820973374
  0
LINE
  5
377
100
AcDbEntity
  8
CURVE
100
AcDbLine
 62
7
  6
CONTINUOUS
 10
-7.9535121849
 20
-8.0893586397
 11
-7.8073285355
 21
-7.9431749903
  0
LINE
  5
378
100
AcDbEntity
  8
CURVE
100
AcDbLine
 62
7
  6
CONTINUOUS
 10
-7.5107444445
 20
-7.6465908994
 11
-7.4307580187
 21
-7.5666044735
  0
LINE
  5
379
100
AcDbEntity
  8
CURVE
100
AcDbLine
 62
7
  6
CONTINUOUS
 10
-8.1592927395
 20
-8.5051499083
 11
-8.017580102
 21
-8.3634372709
  0
LINE
  5
37A
100
AcDbEntity
  8
CURVE
100
AcDbLine
 62
7
  6
CONTINUOUS
 10
-7.8135050422
 20
-8.159362211
 11
-7.6673213928
 21
-8.0131785616
  0
LINE
  5
37B
100
AcDbEntity
  8
0
100
AcDbLine
 62
7
  6
CONTINUOUS
 10
21.8433992674
 20
14.0572664475
 11
20.9533390847
 21
13.5605855263
  0
LINE
  5
37C
100
AcDbEntity
  8
0
100
AcDbLine
 62
253
  6
CONTINUOUS
 10
22.196604653
 20
13.8806637548
 11
21.117430589
 21
13.2915109127
  0
LINE
  5
37D
100
AcDbEntity
  8
0
100
AcDbLine
 62
253
  6
CONTINUOUS
 10
22.5498889189
 20
13.2708107282
 11
21.470714855
 21
12.6816578861
  0
LINE
  5
37E
100
AcDbEntity
  8
RACCORDO
100
AcDbLine
 62
7
  6
CONTINUOUS
 10
28.1065833717
 20
17.0141361755
 11
22.8236611853
 21
14.2692038814
  0
LINE
  5
37F
100
AcDbEntity
  8
RACCORDO
100
AcDbLine
 62
253
  6
CONTINUOUS
 10
19.4747127044
 20
12.3655070175
 11
16.5962563909
 21
10.9097709831
  0
LINE
  5
380
100
AcDbEntity
  8
RACCORDO
100
AcDbLine
 62
253
  6
CONTINUOUS
 10
19.8281449411
 20
11.75592658
 11
16.9496886276
 21
10.3001905455
  0
LINE
  5
381
100
AcDbEntity
  8
0
100
AcDbLine
 62
253
  6
CONTINUOUS
 10
23.2517505438
 20
13.622161156
 11
22.55081459
 21
13.2705607401
  0
LINE
  5
382
100
AcDbEntity
  8
CURVE
100
AcDbLine
 62
7
  6
CONTINUOUS
 10
-8.0768683175
 20
-8.6327362004
 11
-7.9521742723
 21
-8.5080421551
  0
LINE
  5
383
100
AcDbEntity
  8
CURVE
100
AcDbLine
 62
7
  6
CONTINUOUS
 10
-7.6734978995
 20
-8.2293657824
 11
-7.5273142501
 21
-8.083182133
  0
LINE
  5
384
100
AcDbEntity
  8
CURVE
100
AcDbLine
 62
7
  6
CONTINUOUS
 10
-7.9734827299
 20
-8.7393613267
 11
-7.8430949069
 21
-8.6089735038
  0
LINE
  5
385
100
AcDbEntity
  8
CURVE
100
AcDbLine
 62
7
  6
CONTINUOUS
 10
-7.5334907569
 20
-8.2993693537
 11
-7.4549960027
 21
-8.2208745995
  0
LINE
  5
386
100
AcDbEntity
  8
CURVE
100
AcDbLine
 62
7
  6
CONTINUOUS
 10
-7.2354276174
 20
-8.0013062142
 11
-6.9510186187
 21
-7.7168972155
  0
LINE
  5
387
100
AcDbEntity
  8
CURVE
100
AcDbLine
 62
7
  6
CONTINUOUS
 10
-7.8489490373
 20
-8.8248383481
 11
-7.7069350769
 21
-8.6828243878
  0
LINE
  5
388
100
AcDbEntity
  8
CURVE
100
AcDbLine
 62
7
  6
CONTINUOUS
 10
-7.2028597472
 20
-8.1787490581
 11
-6.8017210088
 21
-7.7776103197
  0
LINE
  5
389
100
AcDbEntity
  8
CURVE
100
AcDbLine
 62
7
  6
CONTINUOUS
 10
-7.7103003524
 20
-8.8962003773
 11
-7.5669279343
 21
-8.7528279591
  0
LINE
  5
38A
100
AcDbEntity
  8
CURVE
100
AcDbLine
 62
7
  6
CONTINUOUS
 10
-7.1353906873
 20
-8.3212907121
 11
-6.9986617097
 21
-8.1845617346
  0
LINE
  5
38B
100
AcDbEntity
  8
CURVE
100
AcDbLine
 62
7
  6
CONTINUOUS
 10
-6.8163311624
 20
-8.0022311873
 11
-6.6617138662
 21
-7.847613891
  0
LINE
  5
38C
100
AcDbEntity
  8
CURVE
100
AcDbLine
 62
7
  6
CONTINUOUS
 10
-7.5702932097
 20
-8.9662039486
 11
-7.4269207916
 21
-8.8228315305
  0
LINE
  5
38D
100
AcDbEntity
  8
CURVE
100
AcDbLine
 62
7
  6
CONTINUOUS
 10
-7.0417382601
 20
-8.437648999
 11
-6.9100057368
 21
-8.3059164757
  0
LINE
  5
38E
100
AcDbEntity
  8
CURVE
100
AcDbLine
 62
7
  6
CONTINUOUS
 10
-6.6763240197
 20
-8.0722347586
 11
-6.5217067235
 21
-7.9176174624
  0
LINE
  5
38F
100
AcDbEntity
  8
CURVE
100
AcDbLine
 62
7
  6
CONTINUOUS
 10
-7.4302860671
 20
-9.03620752
 11
-7.3607312185
 21
-8.9666526714
  0
LINE
  5
390
100
AcDbEntity
  8
CURVE
100
AcDbLine
 62
7
  6
CONTINUOUS
 10
-6.9307668159
 20
-8.5366882688
 11
-6.8001131128
 21
-8.4060345657
  0
LINE
  5
391
100
AcDbEntity
  8
CURVE
100
AcDbLine
 62
7
  6
CONTINUOUS
 10
-6.536316877
 20
-8.1422383299
 11
-6.4307709268
 21
-8.0366923796
  0
LINE
  5
392
100
AcDbEntity
  8
CURVE
100
AcDbLine
 62
7
  6
CONTINUOUS
 10
-7.1797805771
 20
-8.995712744
 11
-7.1384728438
 21
-8.9544050107
  0
LINE
  5
393
100
AcDbEntity
  8
CURVE
100
AcDbLine
 62
7
  6
CONTINUOUS
 10
-6.8138680399
 20
-8.6298002069
 11
-6.6828537111
 21
-8.498785878
  0
LINE
  5
394
100
AcDbEntity
  8
CURVE
100
AcDbLine
 62
7
  6
CONTINUOUS
 10
-7.1502717817
 20
-9.1762146626
 11
-6.9984657011
 21
-9.024408582
  0
LINE
  5
395
100
AcDbEntity
  8
CURVE
100
AcDbLine
 62
7
  6
CONTINUOUS
 10
-6.6969267555
 20
-8.7228696365
 11
-6.5655648082
 21
-8.5915076891
  0
LINE
  5
396
100
AcDbEntity
  8
CURVE
100
AcDbLine
 62
7
  6
CONTINUOUS
 10
-7.010264639
 20
-9.246218234
 11
-6.8584585584
 21
-9.0944121534
  0
LINE
  5
397
100
AcDbEntity
  8
CURVE
100
AcDbLine
 62
7
  6
CONTINUOUS
 10
-6.5889996427
 20
-8.8249532376
 11
-6.4576198097
 21
-8.6935734046
  0
LINE
  5
398
100
AcDbEntity
  8
CURVE
100
AcDbLine
 62
7
  6
CONTINUOUS
 10
-6.8702574964
 20
-9.3162218053
 11
-6.7180711307
 21
-9.1640354396
  0
LINE
  5
399
100
AcDbEntity
  8
CURVE
100
AcDbLine
 62
7
  6
CONTINUOUS
 10
-6.5141213813
 20
-8.9600856903
 11
-6.3685031214
 21
-8.8144674303
  0
LINE
  5
39A
100
AcDbEntity
  8
CURVE
100
AcDbLine
 62
7
  6
CONTINUOUS
 10
-6.1233735355
 20
-8.5693378445
 11
-5.8292844863
 21
-8.2752487952
  0
LINE
  5
39B
100
AcDbEntity
  8
CURVE
100
AcDbLine
 62
7
  6
CONTINUOUS
 10
-6.7302503537
 20
-9.3862253766
 11
-6.306908067
 21
-8.96288309
  0
LINE
  5
39C
100
AcDbEntity
  8
CURVE
100
AcDbLine
 62
7
  6
CONTINUOUS
 10
-6.0882710671
 20
-8.74424609
 11
-5.90409389
 21
-8.560068913
  0
LINE
  5
39D
100
AcDbEntity
  8
CURVE
100
AcDbLine
 62
7
  6
CONTINUOUS
 10
-5.8627758564
 20
-8.5187508794
 11
-5.6816638674
 21
-8.3376388904
  0
LINE
  5
39E
100
AcDbEntity
  8
CURVE
100
AcDbLine
 62
7
  6
CONTINUOUS
 10
-6.5798557688
 20
-9.4458415057
 11
-6.284461028
 21
-9.150446765
  0
LINE
  5
39F
100
AcDbEntity
  8
CURVE
100
AcDbLine
 62
7
  6
CONTINUOUS
 10
-6.0189671111
 20
-8.8849528481
 11
-5.8832419347
 21
-8.7492276716
  0
LINE
  5
3A0
100
AcDbEntity
  8
CURVE
100
AcDbLine
 62
7
  6
CONTINUOUS
 10
-5.696274021
 20
-8.562259758
 11
-5.5416567248
 21
-8.4076424617
  0
LINE
  5
3A1
100
AcDbEntity
  8
CURVE
100
AcDbLine
 62
7
  6
CONTINUOUS
 10
-5.9239483562
 20
-8.9999448072
 11
-5.7922878838
 21
-8.8682843348
  0
LINE
  5
3A2
100
AcDbEntity
  8
CURVE
100
AcDbLine
 62
7
  6
CONTINUOUS
 10
-5.5562668783
 20
-8.6322633293
 11
-5.4016495821
 21
-8.4776460331
  0
LINE
  5
3A3
100
AcDbEntity
  8
CURVE
100
AcDbLine
 62
7
  6
CONTINUOUS
 10
-5.8121997871
 20
-9.0982069521
 11
-5.6815904266
 21
-8.9675975916
  0
LINE
  5
3A4
100
AcDbEntity
  8
CURVE
100
AcDbLine
 62
7
  6
CONTINUOUS
 10
-5.4162597356
 20
-8.7022669006
 11
-5.319031969
 21
-8.605039134
  0
LINE
  5
3A5
100
AcDbEntity
  8
CURVE
100
AcDbLine
 62
7
  6
CONTINUOUS
 10
-6.0680413192
 20
-9.5640591982
 11
-6.0184157024
 21
-9.5144335814
  0
LINE
  5
3A6
100
AcDbEntity
  8
CURVE
100
AcDbLine
 62
7
  6
CONTINUOUS
 10
-5.69527358
 20
-9.1912914591
 11
-5.5642299605
 21
-9.0602478395
  0
LINE
  5
3A7
100
AcDbEntity
  8
CURVE
100
AcDbLine
 62
7
  6
CONTINUOUS
 10
-6.0302146403
 20
-9.7362432333
 11
-5.8784085597
 21
-9.5844371527
  0
LINE
  5
3A8
100
AcDbEntity
  8
CURVE
100
AcDbLine
 62
7
  6
CONTINUOUS
 10
-5.5783172648
 20
-9.2843458578
 11
-5.44705728
 21
-9.153085873
  0
LINE
  5
3A9
100
AcDbEntity
  8
CURVE
100
AcDbLine
 62
7
  6
CONTINUOUS
 10
-5.8902074976
 20
-9.8062468047
 11
-5.738401417
 21
-9.6544407241
  0
LINE
  5
3AA
100
AcDbEntity
  8
CURVE
100
AcDbLine
 62
7
  6
CONTINUOUS
 10
-5.4718237717
 20
-9.3878630788
 11
-5.3402199646
 21
-9.2562592717
  0
LINE
  5
3AB
100
AcDbEntity
  8
CURVE
100
AcDbLine
 62
7
  6
CONTINUOUS
 10
-5.750200355
 20
-9.876250376
 11
-5.5975636795
 21
-9.7236137005
  0
LINE
  5
3AC
100
AcDbEntity
  8
CURVE
100
AcDbLine
 62
7
  6
CONTINUOUS
 10
-5.4002617913
 20
-9.5263118123
 11
-5.2524506956
 21
-9.3785007167
  0
LINE
  5
3AD
100
AcDbEntity
  8
0
100
AcDbLine
 62
7
  6
CONTINUOUS
 10
23.2517505438
 20
10.6898783205
 11
23.9526864976
 21
11.054074814
  0
LINE
  5
3AE
100
AcDbEntity
  8
RACCORDO
100
AcDbLine
 62
253
  6
CONTINUOUS
 10
-11.7523560077
 20
-8.8566647111
 11
-11.8020990298
 21
-8.8820678849
  0
LINE
  5
3AF
100
AcDbEntity
  8
RACCORDO
100
AcDbLine
 62
253
  6
CONTINUOUS
 10
-12.3969387467
 20
-8.0809452305
 11
-12.4216829895
 21
-8.0931896032
  0
LINE
  5
3B0
100
AcDbEntity
  8
RACCORDO
100
AcDbLine
 62
7
  6
CONTINUOUS
 10
-3.147485372
 20
-12.9242150595
 11
-3.1677068431
 21
-12.9529785395
  0
LINE
  5
3B1
100
AcDbEntity
  8
CURVE
100
AcDbLine
 62
7
  6
CONTINUOUS
 10
-5.6101846387
 20
-9.9462453738
 11
-5.1930218553
 21
-9.5290825903
  0
LINE
  5
3B2
100
AcDbEntity
  8
CURVE
100
AcDbLine
 62
7
  6
CONTINUOUS
 10
-5.4578371382
 20
-10.0039085873
 11
-5.1734912165
 21
-9.7195626656
  0
LINE
  5
3B3
100
AcDbEntity
  8
ASSI
100
AcDbLine
 62
253
  6
CONTINUOUS
 10
-3.8163137628
 20
-7.0274636009
 11
-3.8755331571
 21
-7.057706246
  0
LINE
  5
3B4
100
AcDbEntity
  8
RACCORDO
100
AcDbLine
 62
253
  6
CONTINUOUS
 10
-3.8163137628
 20
-7.0274636009
 11
-3.8755331571
 21
-7.057706246
  0
LINE
  5
3B5
100
AcDbEntity
  8
ASSI
100
AcDbLine
 62
253
  6
CONTINUOUS
 10
-3.3366992061
 20
-7.7418113613
 11
-3.369045977
 21
-7.7578177479
  0
LINE
  5
3B6
100
AcDbEntity
  8
RACCORDO
100
AcDbLine
 62
253
  6
CONTINUOUS
 10
-3.3366992061
 20
-7.7418113613
 11
-3.369045977
 21
-7.7578177479
  0
LINE
  5
3B7
100
AcDbEntity
  8
DRAFT
100
AcDbLine
 62
7
  6
CONTINUOUS
 10
20.3207482674
 20
-6.7712754753
 11
19.8281449411
 21
-6.5249738121
  0
LINE
  5
3B8
100
AcDbEntity
  8
DRAFT
100
AcDbLine
 62
7
  6
CONTINUOUS
 10
5.7404956783
 20
20.5467674744
 11
5.7404956783
 21
19.2326155306
  0
LINE
  5
3B9
100
AcDbEntity
  8
0
100
AcDbLine
 62
7
  6
CONTINUOUS
 10
5.8341771492
 20
21.936694208
 11
5.8341771492
 21
21.5967202739
  0
LINE
  5
3BA
100
AcDbEntity
  8
0
100
AcDbLine
 62
253
  6
CONTINUOUS
 10
5.9074004539
 20
21.8483058604
 11
5.9074004539
 21
21.5083319263
  0
LINE
  5
3BB
100
AcDbEntity
  8
0
100
AcDbLine
 62
7
  6
CONTINUOUS
 10
6.5371701035
 20
21.0907152996
 11
6.5371701035
 21
20.6367615576
  0
LINE
  5
3BC
100
AcDbEntity
  8
0
100
AcDbLine
 62
253
  6
CONTINUOUS
 10
6.6103934082
 20
21.0541036472
 11
6.6103934082
 21
20.5450295031
  0
LINE
  5
3BD
100
AcDbEntity
  8
0
100
AcDbLine
 62
253
  6
CONTINUOUS
 10
7.5859385243
 20
20.6690628911
 11
7.5859385243
 21
21.0090368252
  0
LINE
  5
3BE
100
AcDbEntity
  8
0
100
AcDbLine
 62
253
  6
CONTINUOUS
 10
7.938460484
 20
20.6685501672
 11
7.938460484
 21
21.0085241013
  0
LINE
  5
3BF
100
AcDbEntity
  8
0
100
AcDbLine
 62
253
  6
CONTINUOUS
 10
8.2971591324
 20
19.701646641
 11
8.2971591324
 21
20.3904672639
  0
LINE
  5
3C0
100
AcDbEntity
  8
0
100
AcDbLine
 62
253
  6
CONTINUOUS
 10
21.8433992674
 20
14.932372256
 11
22.3716664392
 21
15.5753244118
  0
LINE
  5
3C1
100
AcDbEntity
  8
0
100
AcDbLine
 62
7
  6
CONTINUOUS
 10
21.8433992674
 20
14.8428417897
 11
22.3870270116
 21
15.5044892452
  0
LINE
  5
3C2
100
AcDbEntity
  8
RACCORDO
100
AcDbLine
 62
7
  6
CONTINUOUS
 10
-3.1677068431
 20
-12.9529785395
 11
-3.1907218332
 21
-12.977563635
  0
LINE
  5
3C3
100
AcDbEntity
  8
RACCORDO
100
AcDbLine
 62
7
  6
CONTINUOUS
 10
23.0970888977
 20
14.0574697082
 11
23.9055901134
 21
14.8313589823
  0
LINE
  5
3C4
100
AcDbEntity
  8
RACCORDO
100
AcDbLine
 62
7
  6
CONTINUOUS
 10
-3.1907218332
 20
-12.977563635
 11
-3.2165049145
 21
-12.997836955
  0
LINE
  5
3C5
100
AcDbEntity
  8
RACCORDO
100
AcDbLine
 62
253
  6
CONTINUOUS
 10
15.195482051
 20
-0.5856162831
 11
-15.3630810109
 21
14.6936652479
  0
LINE
  5
3C6
100
AcDbEntity
  8
0
100
AcDbLine
 62
253
  6
CONTINUOUS
 10
8.6496810921
 20
19.7124145226
 11
8.6496810921
 21
20.5200466443
  0
LINE
  5
3C7
100
AcDbEntity
  8
0
100
AcDbLine
 62
7
  6
CONTINUOUS
 10
9.5397412748
 20
20.2090954439
 11
9.5397412748
 21
21.8112461048
  0
LINE
  5
3C8
100
AcDbEntity
  8
0
100
AcDbLine
 62
253
  6
CONTINUOUS
 10
10.0680084465
 20
22.0746849249
 11
10.0680084465
 21
21.7271534081
  0
LINE
  5
3C9
100
AcDbEntity
  8
0
100
AcDbLine
 62
7
  6
CONTINUOUS
 10
10.1402063035
 20
22.162557557
 11
10.1402063035
 21
21.8150260403
  0
LINE
  5
3CA
100
AcDbEntity
  8
0
100
AcDbLine
 62
7
  6
CONTINUOUS
 10
10.4651508307
 20
20.0638135576
 11
10.4651508307
 21
18.6176507918
  0
LINE
  5
3CB
100
AcDbEntity
  8
RACCORDO
100
AcDbLine
 62
7
  6
CONTINUOUS
 10
-3.2165049145
 20
-12.997836955
 11
-3.2370017832
 21
-13.0098440073
  0
LINE
  5
3CC
100
AcDbEntity
  8
RACCORDO
100
AcDbLine
 62
7
  6
CONTINUOUS
 10
-3.2365321021
 20
-13.009613437
 11
-3.2369474082
 21
-13.0098263139
  0
LINE
  5
3CD
100
AcDbEntity
  8
RACCORDO
100
AcDbLine
 62
253
  6
CONTINUOUS
 10
-3.5382856579
 20
-12.944632683
 11
-3.6068942444
 21
-12.9796702776
  0
LINE
  5
3CE
100
AcDbEntity
  8
ASSI
100
AcDbLine
 62
253
  6
CONTINUOUS
 10
-3.0753516964
 20
-12.6671738782
 11
-3.1528305783
 21
-12.7050312715
  0
LINE
  5
3CF
100
AcDbEntity
  8
RACCORDO
100
AcDbLine
 62
253
  6
CONTINUOUS
 10
-3.0753516964
 20
-12.6671738782
 11
-3.1528305783
 21
-12.7050312715
  0
LINE
  5
3D0
100
AcDbEntity
  8
ASSI
100
AcDbLine
 62
7
  6
CONTINUOUS
 10
-3.1070971369
 20
-12.8247514511
 11
-3.3065489786
 21
-12.9217403021
  0
LINE
  5
3D1
100
AcDbEntity
  8
DRAFT
100
AcDbLine
 62
7
  6
CONTINUOUS
 10
-3.1070971369
 20
-12.8247514511
 11
-3.3065515179
 21
-12.9217415368
  0
LINE
  5
3D2
100
AcDbEntity
  8
RACCORDO
100
AcDbLine
 62
7
  6
CONTINUOUS
 10
-3.3216518452
 20
-12.9285454262
 11
-3.3062431813
 21
-12.9215655885
  0
LINE
  5
3D3
100
AcDbEntity
  8
ASSI
100
AcDbLine
 62
7
  6
CONTINUOUS
 10
-3.3212552238
 20
-12.9283657641
 11
-3.3062438859
 21
-12.921565931
  0
LINE
  5
3D4
100
AcDbEntity
  8
0
100
AcDbLine
 62
7
  6
CONTINUOUS
 10
11.1307315325
 20
18.2848604409
 11
11.1307315325
 21
19.7310232067
  0
LINE
  5
3D5
100
AcDbEntity
  8
0
100
AcDbLine
 62
7
  6
CONTINUOUS
 10
11.8378383137
 20
19.9174146514
 11
11.8378383137
 21
18.6838002997
  0
LINE
  5
3D6
100
AcDbEntity
  8
0
100
AcDbLine
 62
253
  6
CONTINUOUS
 10
13.4641839104
 20
17.8706275014
 11
13.4641839104
 21
19.104241853
  0
LINE
  5
3D7
100
AcDbEntity
  8
0
100
AcDbLine
 62
253
  6
CONTINUOUS
 10
13.7470266229
 20
17.879704795
 11
13.7470266229
 21
19.104241853
  0
LINE
  5
3D8
100
AcDbEntity
  8
0
100
AcDbLine
 62
7
  6
CONTINUOUS
 10
14.6662654384
 20
19.5603343889
 11
14.6662654384
 21
18.3484056034
  0
LINE
  5
3D9
100
AcDbEntity
  8
0
100
AcDbLine
 62
7
  6
CONTINUOUS
 10
15.1026615415
 20
18.3264243937
 11
15.1026615415
 21
17.0954689085
  0
LINE
  5
3DA
100
AcDbEntity
  8
0
100
AcDbLine
 62
253
  6
CONTINUOUS
 10
15.1612401852
 20
18.2557137156
 11
15.1612401852
 21
17.0220993639
  0
LINE
  5
3DB
100
AcDbEntity
  8
0
100
AcDbLine
 62
7
  6
CONTINUOUS
 10
16.0804790008
 20
17.2561494725
 11
16.0804790008
 21
15.8099867068
  0
LINE
  5
3DC
100
AcDbEntity
  8
RACCORDO
100
AcDbLine
 62
253
  6
CONTINUOUS
 10
-14.6880830929
 20
25.1339504877
 11
15.9065743747
 21
9.8366217539
  0
LINE
  5
3DD
100
AcDbEntity
  8
0
100
AcDbLine
 62
7
  6
CONTINUOUS
 10
16.7460597025
 20
15.4771963559
 11
16.7460597025
 21
16.9233591217
  0
LINE
  5
3DE
100
AcDbEntity
  8
0
100
AcDbLine
 62
253
  6
CONTINUOUS
 10
17.5278963814
 20
21.5134980656
 11
17.5278963814
 21
22.8974541685
  0
LINE
  5
3DF
100
AcDbEntity
  8
0
100
AcDbLine
 62
7
  6
CONTINUOUS
 10
17.660589519
 20
21.6720613063
 11
17.660589519
 21
22.9199251801
  0
LINE
  5
3E0
100
AcDbEntity
  8
0
100
AcDbLine
 62
7
  6
CONTINUOUS
 10
17.8128906147
 20
16.0725207739
 11
17.8128906147
 21
17.45816142
  0
LINE
  5
3E1
100
AcDbEntity
  8
0
100
AcDbLine
 62
7
  6
CONTINUOUS
 10
18.1378351419
 20
15.7848652117
 11
18.1378351419
 21
15.4448912776
  0
LINE
  5
3E2
100
AcDbEntity
  8
0
100
AcDbLine
 62
253
  6
CONTINUOUS
 10
18.2110584466
 20
15.6964768641
 11
18.2110584466
 21
15.3565029299
  0
LINE
  5
3E3
100
AcDbEntity
  8
0
100
AcDbLine
 62
7
  6
CONTINUOUS
 10
18.8408280961
 20
14.9388863033
 11
18.8408280961
 21
14.4849325613
  0
LINE
  5
3E4
100
AcDbEntity
  8
0
100
AcDbLine
 62
253
  6
CONTINUOUS
 10
18.9140514008
 20
14.9022746509
 11
18.9140514008
 21
14.3932005067
  0
LINE
  5
3E5
100
AcDbEntity
  8
0
100
AcDbLine
 62
7
  6
CONTINUOUS
 10
20.0152749831
 20
14.3609000101
 11
20.6395728689
 21
14.2305460323
  0
LINE
  5
3E6
100
AcDbEntity
  8
0
100
AcDbLine
 62
253
  6
CONTINUOUS
 10
20.2421184766
 20
14.5167211709
 11
20.9533390847
 21
14.368217648
  0
LINE
  5
3E7
100
AcDbEntity
  8
RACCORDO
100
AcDbLine
 62
7
  6
CONTINUOUS
 10
19.8281449411
 20
8.981286097
 11
21.470714855
 21
8.1600011401
  0
LINE
  5
3E8
100
AcDbEntity
  8
RACCORDO
100
AcDbLine
 62
253
  6
CONTINUOUS
 10
-14.0162276334
 20
26.2160129952
 11
16.5962563909
 21
10.9097709831
  0
LINE
  5
3E9
100
AcDbEntity
  8
DRAFT
100
AcDbLine
 62
7
  6
CONTINUOUS
 10
21.470714855
 20
-20.5920422656
 11
20.3207482674
 21
-6.7712754753
  0
LINE
  5
3EA
100
AcDbEntity
  8
RACCORDO
100
AcDbLine
 62
7
  6
CONTINUOUS
 10
19.8281449411
 20
-25.6566676288
 11
19.8281449411
 21
11.75592658
  0
LINE
  5
3EB
100
AcDbEntity
  8
0
100
AcDbLine
 62
253
  6
CONTINUOUS
 10
19.889596517
 20
-27.1223441788
 11
19.889596517
 21
-26.7823702446
  0
LINE
  5
3EC
100
AcDbEntity
  8
0
100
AcDbLine
 62
253
  6
CONTINUOUS
 10
19.889596517
 20
14.5172338947
 11
19.889596517
 21
14.8572078289
  0
LINE
  5
3ED
100
AcDbEntity
  8
0
100
AcDbLine
 62
253
  6
CONTINUOUS
 10
20.2421184766
 20
-27.1228569026
 11
20.2421184766
 21
-26.7828829685
  0
LINE
  5
3EE
100
AcDbEntity
  8
0
100
AcDbLine
 62
253
  6
CONTINUOUS
 10
20.2421184766
 20
14.5167211709
 11
20.2421184766
 21
14.856695105
  0
LINE
  5
3EF
100
AcDbEntity
  8
0
100
AcDbLine
 62
253
  6
CONTINUOUS
 10
20.6008171251
 20
-25.8058737675
 11
20.6008171251
 21
-25.1119610403
  0
LINE
  5
3F0
100
AcDbEntity
  8
0
100
AcDbLine
 62
253
  6
CONTINUOUS
 10
20.6008171251
 20
13.5498176446
 11
20.6008171251
 21
14.2386382676
  0
LINE
  5
3F1
100
AcDbEntity
  8
0
100
AcDbLine
 62
253
  6
CONTINUOUS
 10
20.9533390847
 20
-25.9313864914
 11
20.9533390847
 21
-25.2882220201
  0
LINE
  5
3F2
100
AcDbEntity
  8
0
100
AcDbLine
 62
253
  6
CONTINUOUS
 10
20.9533390847
 20
13.5605855263
 11
20.9533390847
 21
14.368217648
  0
LINE
  5
3F3
100
AcDbEntity
  8
0
100
AcDbLine
 62
7
  6
CONTINUOUS
 10
21.0302264691
 20
22.0276718885
 11
21.0302264691
 21
21.5634935749
  0
LINE
  5
3F4
100
AcDbEntity
  8
DRAFT
100
AcDbLine
 62
7
  6
CONTINUOUS
 10
21.470714855
 20
12.6816578861
 11
21.470714855
 21
8.1600011401
  0
LINE
  5
3F5
100
AcDbEntity
  8
DRAFT
100
AcDbLine
 62
7
  6
CONTINUOUS
 10
21.470714855
 20
-20.5920422656
 11
21.470714855
 21
-25.1136990116
  0
LINE
  5
3F6
100
AcDbEntity
  8
DRAFT
100
AcDbLine
 62
7
  6
CONTINUOUS
 10
20.3207482674
 20
-6.7712754753
 11
21.470714855
 21
8.1600011401
  0
LINE
  5
3F7
100
AcDbEntity
  8
0
100
AcDbLine
 62
7
  6
CONTINUOUS
 10
21.0302264691
 20
21.5634935749
 11
19.2817425461
 21
21.4686744768
  0
LINE
  5
3F8
100
AcDbEntity
  8
RACCORDO
100
AcDbLine
 62
7
  6
CONTINUOUS
 10
19.4747127044
 20
12.3655070175
 11
-11.2846745851
 21
27.7452006623
  0
LINE
  5
3F9
100
AcDbEntity
  8
0
100
AcDbLine
 62
7
  6
CONTINUOUS
 10
21.117430589
 20
13.2915109127
 11
20.6008171251
 21
13.5498176446
  0
LINE
  5
3FA
100
AcDbEntity
  8
0
100
AcDbLine
 62
7
  6
CONTINUOUS
 10
18.9140514008
 20
14.3932005067
 11
16.7460597025
 21
15.4771963559
  0
LINE
  5
3FB
100
AcDbEntity
  8
0
100
AcDbLine
 62
7
  6
CONTINUOUS
 10
16.0804790008
 20
15.8099867068
 11
11.1307315325
 21
18.2848604409
  0
LINE
  5
3FC
100
AcDbEntity
  8
0
100
AcDbLine
 62
7
  6
CONTINUOUS
 10
10.4651508307
 20
18.6176507918
 11
8.2971591324
 21
19.701646641
  0
LINE
  5
3FD
100
AcDbEntity
  8
0
100
AcDbLine
 62
7
  6
CONTINUOUS
 10
6.6103934082
 20
20.5450295031
 11
6.0937799442
 21
20.803336235
  0
LINE
  5
3FE
100
AcDbEntity
  8
0
100
AcDbLine
 62
7
  6
CONTINUOUS
 10
21.8433992674
 20
-25.1738948974
 11
21.8433992674
 21
-26.342822303
  0
LINE
  5
3FF
100
AcDbEntity
  8
0
100
AcDbLine
 62
7
  6
CONTINUOUS
 10
21.8433992674
 20
14.0572664475
 11
21.8433992674
 21
15.6594171085
  0
LINE
  5
400
100
AcDbEntity
  8
0
100
AcDbLine
 62
253
  6
CONTINUOUS
 10
22.3716664392
 20
15.9228559285
 11
22.3716664392
 21
15.5753244118
  0
LINE
  5
401
100
AcDbEntity
  8
0
100
AcDbLine
 62
253
  6
CONTINUOUS
 10
22.3716664392
 20
-25.7242797276
 11
22.3716664392
 21
-26.0718112443
  0
LINE
  5
402
100
AcDbEntity
  8
0
100
AcDbLine
 62
7
  6
CONTINUOUS
 10
22.4438642962
 20
16.0107285607
 11
22.4438642962
 21
15.663197044
  0
LINE
  5
403
100
AcDbEntity
  8
0
100
AcDbLine
 62
7
  6
CONTINUOUS
 10
22.4438642962
 20
-25.6364070954
 11
22.4438642962
 21
-25.9839386121
  0
LINE
  5
404
100
AcDbEntity
  8
0
100
AcDbLine
 62
7
  6
CONTINUOUS
 10
22.5498889189
 20
13.2708107282
 11
22.5498889189
 21
-24.6607055741
  0
LINE
  5
405
100
AcDbEntity
  8
0
100
AcDbLine
 62
7
  6
CONTINUOUS
 10
22.55081459
 20
13.2705607401
 11
22.55081459
 21
-24.6613812572
  0
LINE
  5
406
100
AcDbEntity
  8
0
100
AcDbLine
 62
253
  6
CONTINUOUS
 10
23.1202012808
 20
18.719196044
 11
23.1202012808
 21
19.1935974193
  0
LINE
  5
407
100
AcDbEntity
  8
0
100
AcDbLine
 62
253
  6
CONTINUOUS
 10
23.1202012808
 20
19.5497732858
 11
23.1202012808
 21
20.1029440089
  0
LINE
  5
408
100
AcDbEntity
  8
0
100
AcDbLine
 62
7
  6
CONTINUOUS
 10
23.251036132
 20
18.8768376939
 11
23.251036132
 21
20.1247303891
  0
LINE
  5
409
100
AcDbEntity
  8
0
100
AcDbLine
 62
7
  6
CONTINUOUS
 10
23.2517505438
 20
13.622161156
 11
23.2517505438
 21
10.6898783205
  0
LINE
  5
40A
100
AcDbEntity
  8
0
100
AcDbLine
 62
7
  6
CONTINUOUS
 10
23.2517505438
 20
-21.367421229
 11
23.2517505438
 21
-24.2997040645
  0
LINE
  5
40B
100
AcDbEntity
  8
0
100
AcDbLine
 62
7
  6
CONTINUOUS
 10
23.9526864976
 20
11.054074814
 11
23.9526864976
 21
-21.0183401139
  0
LINE
  5
40C
100
AcDbEntity
  8
0
100
AcDbLine
 62
7
  6
CONTINUOUS
 10
7.7116169905
 20
20.5127290064
 11
8.3359164127
 21
20.3823747078
  0
LINE
  5
40D
100
AcDbEntity
  8
0
100
AcDbLine
 62
253
  6
CONTINUOUS
 10
7.938460484
 20
20.6685501672
 11
8.6496810921
 21
20.5200466443
  0
LINE
  5
40E
100
AcDbEntity
  8
0
100
AcDbLine
 62
7
  6
CONTINUOUS
 10
5.9723737503
 20
21.3731134762
 11
7.6509118207
 21
20.533844441
  0
LINE
  5
40F
100
AcDbEntity
  8
0
100
AcDbLine
 62
7
  6
CONTINUOUS
 10
18.276031743
 20
15.2212844798
 11
19.9545698134
 21
14.3820154446
  0
LINE
  5
410
100
AcDbEntity
  8
0
100
AcDbLine
 62
253
  6
CONTINUOUS
 10
5.9074004539
 20
21.5083319263
 11
7.5859385243
 21
20.6690628911
  0
LINE
  5
411
100
AcDbEntity
  8
0
100
AcDbLine
 62
253
  6
CONTINUOUS
 10
18.2110584466
 20
15.3565029299
 11
19.889596517
 21
14.5172338947
  0
LINE
  5
412
100
AcDbEntity
  8
0
100
AcDbLine
 62
7
  6
CONTINUOUS
 10
16.0804790008
 20
16.5624799562
 11
15.1612401852
 21
17.0220993639
  0
LINE
  5
413
100
AcDbEntity
  8
0
100
AcDbLine
 62
7
  6
CONTINUOUS
 10
13.4641839104
 20
17.8706275014
 11
11.8378383137
 21
18.6838002997
  0
LINE
  5
414
100
AcDbEntity
  8
0
100
AcDbLine
 62
253
  6
CONTINUOUS
 10
19.889596517
 20
14.8572078289
 11
18.2110584466
 21
15.6964768641
  0
LINE
  5
415
100
AcDbEntity
  8
0
100
AcDbLine
 62
253
  6
CONTINUOUS
 10
7.5859385243
 20
21.0090368252
 11
5.9074004539
 21
21.8483058604
  0
LINE
  5
416
100
AcDbEntity
  8
0
100
AcDbLine
 62
7
  6
CONTINUOUS
 10
13.9591586572
 20
17.9993867527
 11
15.1026615415
 21
17.4276353105
  0
LINE
  5
417
100
AcDbEntity
  8
0
100
AcDbLine
 62
7
  6
CONTINUOUS
 10
22.1972656868
 20
13.8803332379
 11
21.8433992674
 21
14.0572664475
  0
LINE
  5
418
100
AcDbEntity
  8
0
100
AcDbLine
 62
7
  6
CONTINUOUS
 10
18.1643460871
 20
15.8967930377
 11
17.8128906147
 21
16.0725207739
  0
LINE
  5
419
100
AcDbEntity
  8
0
100
AcDbLine
 62
7
  6
CONTINUOUS
 10
10.4651508307
 20
19.7463906659
 11
9.5397412748
 21
20.2090954439
  0
LINE
  5
41A
100
AcDbEntity
  8
0
100
AcDbLine
 62
253
  6
CONTINUOUS
 10
20.0653447729
 20
15.1615846438
 11
18.3868067025
 21
16.000853679
  0
LINE
  5
41B
100
AcDbEntity
  8
0
100
AcDbLine
 62
253
  6
CONTINUOUS
 10
7.7616867803
 20
21.3134136401
 11
6.0831487099
 21
22.1526826754
  0
LINE
  5
41C
100
AcDbEntity
  8
0
100
AcDbLine
 62
7
  6
CONTINUOUS
 10
10.4651508307
 20
20.0638135576
 11
11.1307315325
 21
19.7310232067
  0
LINE
  5
41D
100
AcDbEntity
  8
0
100
AcDbLine
 62
7
  6
CONTINUOUS
 10
16.0804790008
 20
17.2561494725
 11
16.7460597025
 21
16.9233591217
  0
LINE
  5
41E
100
AcDbEntity
  8
0
100
AcDbLine
 62
7
  6
CONTINUOUS
 10
22.8982016406
 20
14.2319336538
 11
21.8433992674
 21
14.7593348403
  0
LINE
  5
41F
100
AcDbEntity
  8
0
100
AcDbLine
 62
7
  6
CONTINUOUS
 10
10.2427342291
 20
20.5596673595
 11
9.5397412748
 21
20.9111638366
  0
LINE
  5
420
100
AcDbEntity
  8
0
100
AcDbLine
 62
7
  6
CONTINUOUS
 10
15.1026615415
 20
18.1302075519
 11
14.6662654384
 21
18.3484056034
  0
LINE
  5
421
100
AcDbEntity
  8
0
100
AcDbLine
 62
253
  6
CONTINUOUS
 10
16.6166037557
 20
17.5280319304
 11
15.1612401852
 21
18.2557137156
  0
LINE
  5
422
100
AcDbEntity
  8
0
100
AcDbLine
 62
253
  6
CONTINUOUS
 10
13.4641839104
 20
19.104241853
 11
11.8378383137
 21
19.9174146514
  0
LINE
  5
423
100
AcDbEntity
  8
0
100
AcDbLine
 62
253
  6
CONTINUOUS
 10
16.9281843867
 20
17.6860423692
 11
15.30183879
 21
18.4992151676
  0
LINE
  5
424
100
AcDbEntity
  8
0
100
AcDbLine
 62
253
  6
CONTINUOUS
 10
13.6047825152
 20
19.347743305
 11
11.9784369184
 21
20.1609161034
  0
LINE
  5
425
100
AcDbEntity
  8
0
100
AcDbLine
 62
7
  6
CONTINUOUS
 10
11.5196402621
 20
20.6047865963
 11
13.817737301
 21
19.4557380768
  0
LINE
  5
426
100
AcDbEntity
  8
0
100
AcDbLine
 62
7
  6
CONTINUOUS
 10
15.5147935758
 20
18.6072099394
 11
17.8128906147
 21
17.45816142
  0
LINE
  5
427
100
AcDbEntity
  8
0
100
AcDbLine
 62
7
  6
CONTINUOUS
 10
21.6666255638
 20
15.9643066473
 11
19.9695633057
 21
16.8128377764
  0
LINE
  5
428
100
AcDbEntity
  8
0
100
AcDbLine
 62
7
  6
CONTINUOUS
 10
9.3629675711
 20
22.1161356437
 11
7.665905313
 21
22.9646667727
  0
LINE
  5
429
100
AcDbEntity
  8
0
100
AcDbLine
 62
7
  6
CONTINUOUS
 10
17.8482459537
 20
18.1425521432
 11
16.221900357
 21
18.9557249416
  0
LINE
  5
42A
100
AcDbEntity
  8
0
100
AcDbLine
 62
7
  6
CONTINUOUS
 10
14.5248440822
 20
19.804253079
 11
12.8984984854
 21
20.6174258774
  0
LWPOLYLINE
  5
42B
100
AcDbEntity
  8
RACCORDO
100
AcDbPolyline
 62
7
  6
CONTINUOUS
 90
40
 70
0
 10
26.3294948872
 20
-15.6098166493
 10
26.3294437283
 20
-15.6025684132
 10
26.3286592342
 20
-15.580355408
 10
26.3269531232
 20
-15.5581615343
 10
26.3243517351
 20
-15.5359962547
 10
26.3208814453
 20
-15.5138946733
 10
26.3165751314
 20
-15.491930697
 10
26.3114598887
 20
-15.4701347916
 10
26.3055555897
 20
-15.4485203445
 10
26.2988920477
 20
-15.4271454896
 10
26.2914931084
 20
-15.4060416844
 10
26.2833734847
 20
-15.3852236295
 10
26.2745556352
 20
-15.3647304486
 10
26.2650532682
 20
-15.3445830464
 10
26.254880527
 20
-15.3248106909
 10
26.2440652146
 20
-15.3054661618
 10
26.2326152502
 20
-15.2865686061
 10
26.2205451407
 20
-15.2681516684
 10
26.2078942984
 20
-15.250283011
 10
26.1946730067
 20
-15.2329878468
 10
26.1808926084
 20
-15.2162927942
 10
26.1665906481
 20
-15.20025702
 10
26.1517735361
 20
-15.1849028665
 10
26.1364540939
 20
-15.170259392
 10
26.1206749205
 20
-15.1563856855
 10
26.1044103487
 20
-15.1432789623
 10
26.0877038978
 20
-15.1309962226
 10
26.0707118949
 20
-15.1196618911
 10
26.053461596
 20
-15.1092875759
 10
26.0359696026
 20
-15.0998793655
 10
26.0183997203
 20
-15.091513157
 10
26.0008443111
 20
-15.0842005923
 10
25.9832794942
 20
-15.0779009358
 10
25.9657109226
 20
-15.0725956864
 10
25.948179011
 20
-15.0682765682
 10
25.9307158425
 20
-15.0649300995
 10
25.913324181
 20
-15.0625401012
 10
25.8960489269
 20
-15.0610982863
 10
25.8789254757
 20
-15.0605901338
 10
25.8616413793
 20
-15.0610177887
  0
LINE
  5
42C
100
AcDbEntity
  8
RACCORDO
100
AcDbLine
 62
253
  6
CONTINUOUS
 10
26.2733630439
 20
-16.6125204189
 11
26.2733630439
 21
-15.6792646045
  0
LINE
  5
42D
100
AcDbEntity
  8
RACCORDO
100
AcDbLine
 62
7
  6
CONTINUOUS
 10
26.3294950838
 20
-16.5920566282
 11
26.3294950838
 21
-15.6097987657
  0
LINE
  5
42E
100
AcDbEntity
  8
RACCORDO
100
AcDbLine
 62
7
  6
CONTINUOUS
 10
26.2721505594
 20
-16.6131284163
 11
23.9526864976
 21
-17.7888348119
  0
LINE
  5
42F
100
AcDbEntity
  8
0
100
AcDbLine
 62
253
  6
CONTINUOUS
 10
8.2003551917
 20
23.2250142393
 11
9.8912347429
 21
22.3795744637
  0
LINE
  5
430
100
AcDbEntity
  8
0
100
AcDbLine
 62
253
  6
CONTINUOUS
 10
20.5040131844
 20
17.0731852429
 11
22.1948927355
 21
16.2277454674
  0
LINE
  5
431
100
AcDbEntity
  8
0
100
AcDbLine
 62
7
  6
CONTINUOUS
 10
8.3111301513
 20
23.2316041304
 11
10.0020097024
 21
22.3861643548
  0
LINE
  5
432
100
AcDbEntity
  8
0
100
AcDbLine
 62
7
  6
CONTINUOUS
 10
20.6147881439
 20
17.079775134
 11
22.3056676951
 21
16.2343353585
  0
LINE
  5
433
100
AcDbEntity
  8
0
100
AcDbLine
 62
7
  6
CONTINUOUS
 10
23.2517505438
 20
12.2630105055
 11
23.9526864976
 21
11.054074814
  0
LINE
  5
434
100
AcDbEntity
  8
RACCORDO
100
AcDbLine
 62
253
  6
CONTINUOUS
 10
28.1065833717
 20
17.3558954031
 11
28.1065833717
 21
17.0141361755
  0
LINE
  5
435
100
AcDbEntity
  8
RACCORDO
100
AcDbLine
 62
253
  6
CONTINUOUS
 10
28.1065833717
 20
-17.2705372013
 11
28.1065833717
 21
-18.228131452
  0
LINE
  5
436
100
AcDbEntity
  8
RACCORDO
100
AcDbLine
 62
7
  6
CONTINUOUS
 10
28.1639332819
 20
17.3855891884
 11
28.1639332819
 21
17.1351410241
  0
LINE
  5
437
100
AcDbEntity
  8
RACCORDO
100
AcDbLine
 62
7
  6
CONTINUOUS
 10
28.1639332819
 20
-17.251360197
 11
28.1639332819
 21
-18.1580405255
  0
LINE
  5
438
100
AcDbEntity
  8
0
100
AcDbLine
 62
253
  6
CONTINUOUS
 10
28.5080897752
 20
18.1556496023
 11
28.5080897752
 21
17.5637814291
  0
LINE
  5
439
100
AcDbEntity
  8
0
100
AcDbLine
 62
253
  6
CONTINUOUS
 10
28.5080897752
 20
-18.6360804491
 11
28.5080897752
 21
-19.2279486222
  0
LINE
  5
43A
100
AcDbEntity
  8
0
100
AcDbLine
 62
7
  6
CONTINUOUS
 10
28.648419875
 20
18.4562859565
 11
28.648419875
 21
17.7374460217
  0
LINE
  5
43B
100
AcDbEntity
  8
0
100
AcDbLine
 62
7
  6
CONTINUOUS
 10
28.648419875
 20
-18.4624158565
 11
28.648419875
 21
-19.1812557913
  0
LINE
  5
43C
100
AcDbEntity
  8
RACCORDO
100
AcDbLine
 62
7
  6
CONTINUOUS
 10
28.1065833717
 20
-18.228131452
 11
23.9526864976
 21
-20.3416495363
  0
LINE
  5
43D
100
AcDbEntity
  8
RACCORDO
100
AcDbLine
 62
7
  6
CONTINUOUS
 10
28.1065833717
 20
-17.2705372013
 11
23.9526864976
 21
-19.3392667977
  0
LINE
  5
43E
100
AcDbEntity
  8
0
100
AcDbLine
 62
7
  6
CONTINUOUS
 10
23.2517505438
 20
-21.367421229
 11
23.9526864976
 21
-21.0183401139
  0
LINE
  5
43F
100
AcDbEntity
  8
RACCORDO
100
AcDbLine
 62
7
  6
CONTINUOUS
 10
27.6742093584
 20
-17.0543501947
 11
23.9526864976
 21
-18.8434831487
  0
LINE
  5
440
100
AcDbEntity
  8
0
100
AcDbLine
 62
7
  6
CONTINUOUS
 10
19.2817425461
 20
21.4686744768
 11
21.9201302134
 21
20.1494806431
  0
LINE
  5
441
100
AcDbEntity
  8
0
100
AcDbLine
 62
253
  6
CONTINUOUS
 10
23.0873826838
 20
20.0884705539
 11
22.4464969101
 21
20.4089134407
  0
LINE
  5
442
100
AcDbEntity
  8
0
100
AcDbLine
 62
253
  6
CONTINUOUS
 10
17.4967494418
 20
22.8837871749
 11
16.8558636681
 21
23.2042300617
  0
LINE
  5
443
100
AcDbEntity
  8
0
100
AcDbLine
 62
7
  6
CONTINUOUS
 10
23.2460159997
 20
20.1331086377
 11
22.7308175836
 21
20.3907078457
  0
LINE
  5
444
100
AcDbEntity
  8
0
100
AcDbLine
 62
7
  6
CONTINUOUS
 10
17.6555291954
 20
22.9283520399
 11
17.1403296415
 21
23.1859518168
  0
LINE
  5
445
100
AcDbEntity
  8
0
100
AcDbLine
 62
7
  6
CONTINUOUS
 10
23.9381770271
 20
20.1095182959
 11
21.0302264691
 21
21.5634935749
  0
LINE
  5
446
100
AcDbEntity
  8
0
100
AcDbLine
 62
253
  6
CONTINUOUS
 10
17.276753596
 20
24.0674260491
 11
20.3272334452
 21
22.5421861245
  0
LINE
  5
447
100
AcDbEntity
  8
0
100
AcDbLine
 62
253
  6
CONTINUOUS
 10
24.5698741323
 20
20.4208657809
 11
27.6203539815
 21
18.8956258563
  0
LINE
  5
448
100
AcDbEntity
  8
0
100
AcDbLine
 62
7
  6
CONTINUOUS
 10
17.5603529799
 20
24.1735358407
 11
20.7703332834
 21
22.5685456889
  0
LINE
  5
449
100
AcDbEntity
  8
0
100
AcDbLine
 62
7
  6
CONTINUOUS
 10
25.0129739705
 20
20.4472253454
 11
28.222954274
 21
18.8422351936
  0
LINE
  5
44A
100
AcDbEntity
  8
0
100
AcDbLine
 62
7
  6
CONTINUOUS
 10
23.9526864976
 20
-21.0183401139
 11
23.2517505438
 21
-21.5263398516
  0
LINE
  5
44B
100
AcDbEntity
  8
0
100
AcDbLine
 62
7
  6
CONTINUOUS
 10
28.5080897752
 20
-18.6360804491
 11
23.9526864976
 21
-20.9947095418
  0
LINE
  5
44C
100
AcDbEntity
  8
0
100
AcDbLine
 62
253
  6
CONTINUOUS
 10
22.55081459
 20
-24.6613812572
 11
23.2517505438
 21
-24.2997040645
  0
LINE
  5
44D
100
AcDbEntity
  8
0
100
AcDbLine
 62
7
  6
CONTINUOUS
 10
27.6203539815
 20
-19.7914090642
 11
23.2517505438
 21
-21.9813898122
  0
LINE
  5
44E
100
AcDbEntity
  8
0
100
AcDbLine
 62
7
  6
CONTINUOUS
 10
28.5080897752
 20
-19.2279486222
 11
23.2517505438
 21
-21.8351316312
  0
LINE
  5
44F
100
AcDbEntity
  8
RACCORDO
100
AcDbLine
 62
253
  6
CONTINUOUS
 10
16.9496886276
 20
-26.9324846427
 11
19.8281449411
 21
-25.6566676288
  0
LINE
  5
450
100
AcDbEntity
  8
RACCORDO
100
AcDbLine
 62
7
  6
CONTINUOUS
 10
16.8081167442
 20
-27.2082526884
 11
19.6903328702
 21
-25.9307692144
  0
LINE
  5
451
100
AcDbEntity
  8
0
100
AcDbLine
 62
253
  6
CONTINUOUS
 10
21.470714855
 20
-25.1136990116
 11
22.5498889189
 21
-24.6607055741
  0
LINE
  5
452
100
AcDbEntity
  8
0
100
AcDbLine
 62
7
  6
CONTINUOUS
 10
21.3294189758
 20
-25.3896429466
 11
22.4086000103
 21
-24.9366465832
  0
LINE
  5
453
100
AcDbEntity
  8
0
100
AcDbLine
 62
253
  6
CONTINUOUS
 10
20.6003028967
 20
-25.8056166533
 11
19.9779848646
 21
-26.5506760708
  0
LINE
  5
454
100
AcDbEntity
  8
0
100
AcDbLine
 62
253
  6
CONTINUOUS
 10
20.9533390847
 20
-25.9313864914
 11
20.2421184766
 21
-26.7828829685
  0
LINE
  5
455
100
AcDbEntity
  8
0
100
AcDbLine
 62
7
  6
CONTINUOUS
 10
22.4230023372
 20
-24.9307266486
 11
23.123938291
 21
-24.5690494559
  0
LINE
  5
456
100
AcDbEntity
  8
0
100
AcDbLine
 62
253
  6
CONTINUOUS
 10
21.8433992674
 20
-26.342822303
 11
22.3716664392
 21
-26.0718112443
  0
LINE
  5
457
100
AcDbEntity
  8
0
100
AcDbLine
 62
7
  6
CONTINUOUS
 10
21.7792961381
 20
-26.4775990632
 11
22.3079784017
 21
-26.2063750546
  0
LINE
  5
458
100
AcDbEntity
  8
0
100
AcDbLine
 62
7
  6
CONTINUOUS
 10
21.7792941644
 20
-26.4776000758
 11
21.7775577526
 21
-26.478468296
  0
LINE
  5
459
100
AcDbEntity
  8
0
100
AcDbLine
 62
253
  6
CONTINUOUS
 10
20.2421184766
 20
-27.1228569026
 11
21.8433992674
 21
-26.342822303
  0
LINE
  5
45A
100
AcDbEntity
  8
0
100
AcDbLine
 62
7
  6
CONTINUOUS
 10
20.175856884
 20
-27.2587075288
 11
21.777554987
 21
-26.4784696432
  0
ARC
  5
45B
100
AcDbEntity
  8
RACCORDO
100
AcDbCircle
 62
253
  6
CONTINUOUS
 10
-18.9958617289
 20
-11.4953537372
 40
16.0675617222
100
AcDbArc
 50
13.0531203691
 51
13.337841943
  0
ARC
  5
45C
100
AcDbEntity
  8
RACCORDO
100
AcDbCircle
 62
253
  6
CONTINUOUS
 10
-11.3055213023
 20
-7.9525849586
 40
1.0551351624
100
AcDbArc
 50
230.6079971337
 51
234.4631298681
  0
ARC
  5
45D
100
AcDbEntity
  8
RACCORDO
100
AcDbCircle
 62
253
  6
CONTINUOUS
 10
-11.3515557914
 20
-8.0169052593
 40
0.9760385815
100
AcDbArc
 50
234.4675621416
 51
236.691567439
  0
ARC
  5
45E
100
AcDbEntity
  8
ASSI
100
AcDbCircle
 62
253
  6
CONTINUOUS
 10
-11.5841110575
 20
-8.1511788565
 40
0.6763670523
100
AcDbArc
 50
235.3412198841
 51
239.1899984021
  0
ARC
  5
45F
100
AcDbEntity
  8
ASSI
100
AcDbCircle
 62
253
  6
CONTINUOUS
 10
-11.6269152878
 20
-8.2240642144
 40
0.5918442225
100
AcDbArc
 50
239.1350046949
 51
243.3932619814
  0
ARC
  5
460
100
AcDbEntity
  8
RACCORDO
100
AcDbCircle
 62
253
  6
CONTINUOUS
 10
-11.0613700931
 20
-7.6692872802
 40
1.4251892508
100
AcDbArc
 50
202.6178558076
 51
205.2872024093
  0
ARC
  5
461
100
AcDbEntity
  8
RACCORDO
100
AcDbCircle
 62
253
  6
CONTINUOUS
 10
-11.1948594547
 20
-7.7250923975
 40
1.4222590433
100
AcDbArc
 50
196.4200445561
 51
199.5075638588
  0
ARC
  5
462
100
AcDbEntity
  8
RACCORDO
100
AcDbCircle
 62
253
  6
CONTINUOUS
 10
-11.1205333796
 20
-7.6937118979
 40
1.361182911
100
AcDbArc
 50
199.5410682312
 51
202.6265717128
  0
ARC
  5
463
100
AcDbEntity
  8
RACCORDO
100
AcDbCircle
 62
253
  6
CONTINUOUS
 10
-11.2056524878
 20
-7.7239294671
 40
1.2708592484
100
AcDbArc
 50
196.8914511172
 51
199.5407864293
  0
ARC
  5
464
100
AcDbEntity
  8
ASSI
100
AcDbCircle
 62
253
  6
CONTINUOUS
 10
-11.365193171
 20
-7.8621700242
 40
1.0322794795
100
AcDbArc
 50
199.4243958737
 51
202.3471888523
  0
ARC
  5
465
100
AcDbEntity
  8
ASSI
100
AcDbCircle
 62
253
  6
CONTINUOUS
 10
-11.4272913301
 20
-7.8839366721
 40
0.9664771091
100
AcDbArc
 50
196.3388546664
 51
199.4317361467
  0
ARC
  5
466
100
AcDbEntity
  8
RACCORDO
100
AcDbCircle
 62
253
  6
CONTINUOUS
 10
-12.1669859165
 20
-3.2357312843
 40
0.6375429835
100
AcDbArc
 50
163.3825666301
 51
164.868090937
  0
ARC
  5
467
100
AcDbEntity
  8
RACCORDO
100
AcDbCircle
 62
253
  6
CONTINUOUS
 10
-12.3302561399
 20
-3.4786530369
 40
0.5798645968
100
AcDbArc
 50
63.4134196087
 51
66.5099350649
  0
ARC
  5
468
100
AcDbEntity
  8
RACCORDO
100
AcDbCircle
 62
253
  6
CONTINUOUS
 10
-12.0967850851
 20
-3.2391743273
 40
0.5674326863
100
AcDbArc
 50
163.457209987
 51
164.9476981279
  0
ARC
  5
469
100
AcDbEntity
  8
ASSI
100
AcDbCircle
 62
253
  6
CONTINUOUS
 10
-12.3207556979
 20
-3.4583674509
 40
0.5574724125
100
AcDbArc
 50
63.353505256
 51
68.6437340907
  0
ARC
  5
46A
100
AcDbEntity
  8
RACCORDO
100
AcDbCircle
 62
253
  6
CONTINUOUS
 10
-12.1191473082
 20
-3.232528121
 40
0.5441037114
100
AcDbArc
 50
161.582021708
 51
163.4576181977
  0
ARC
  5
46B
100
AcDbEntity
  8
RACCORDO
100
AcDbCircle
 62
253
  6
CONTINUOUS
 10
-12.3062103608
 20
-3.4219947089
 40
0.5183174527
100
AcDbArc
 50
66.4513081482
 51
71.4785367656
  0
ARC
  5
46C
100
AcDbEntity
  8
ASSI
100
AcDbCircle
 62
253
  6
CONTINUOUS
 10
-12.3037176272
 20
-3.4150832434
 40
0.5109556808
100
AcDbArc
 50
68.6555641469
 51
71.4964413352
  0
ARC
  5
46D
100
AcDbEntity
  8
RACCORDO
100
AcDbCircle
 62
253
  6
CONTINUOUS
 10
-12.2425309829
 20
-3.1778681073
 40
0.4088634669
100
AcDbArc
 50
145.2945874432
 51
151.8879949151
  0
ARC
  5
46E
100
AcDbEntity
  8
RACCORDO
100
AcDbCircle
 62
253
  6
CONTINUOUS
 10
-12.2776669658
 20
-3.1536982449
 40
0.3662172577
100
AcDbArc
 50
138.1548168105
 51
145.2734481671
  0
ARC
  5
46F
100
AcDbEntity
  8
RACCORDO
100
AcDbCircle
 62
253
  6
CONTINUOUS
 10
-12.2297125124
 20
-3.3399167254
 40
0.3477777369
100
AcDbArc
 50
153.9297713351
 51
156.2811916345
  0
ARC
  5
470
100
AcDbEntity
  8
ASSI
100
AcDbCircle
 62
253
  6
CONTINUOUS
 10
-12.2374897467
 20
-3.3362027845
 40
0.3391600215
100
AcDbArc
 50
153.1044120793
 51
154.6917324431
  0
ARC
  5
471
100
AcDbEntity
  8
RACCORDO
100
AcDbCircle
 62
253
  6
CONTINUOUS
 10
-12.299256749
 20
-3.1344987636
 40
0.3373255998
100
AcDbArc
 50
130.6160188885
 51
138.1377766683
  0
ARC
  5
472
100
AcDbEntity
  8
RACCORDO
100
AcDbCircle
 62
253
  6
CONTINUOUS
 10
-12.2445857139
 20
-3.3326386451
 40
0.3312192777
100
AcDbArc
 50
151.4891667696
 51
153.9299818196
  0
ARC
  5
473
100
AcDbEntity
  8
ASSI
100
AcDbCircle
 62
253
  6
CONTINUOUS
 10
-12.2466429985
 20
-3.3315597286
 40
0.3288964944
100
AcDbArc
 50
151.4832576547
 51
153.1044482059
  0
ARC
  5
474
100
AcDbEntity
  8
RACCORDO
100
AcDbCircle
 62
253
  6
CONTINUOUS
 10
-12.313316512
 20
-3.1182498614
 40
0.3158385303
100
AcDbArc
 50
117.5893656334
 51
130.5988212466
  0
ARC
  5
475
100
AcDbEntity
  8
RACCORDO
100
AcDbCircle
 62
253
  6
CONTINUOUS
 10
-12.3158997734
 20
-3.1141785452
 40
0.3110340376
100
AcDbArc
 50
116.0275734814
 51
117.5149513925
  0
ARC
  5
476
100
AcDbEntity
  8
RACCORDO
100
AcDbCircle
 62
253
  6
CONTINUOUS
 10
-12.2964148179
 20
-3.2991809927
 40
0.269398229
100
AcDbArc
 50
139.3361541879
 51
140.8351218288
  0
ARC
  5
477
100
AcDbEntity
  8
RACCORDO
100
AcDbCircle
 62
253
  6
CONTINUOUS
 10
-12.5523038498
 20
-7.8778543557
 40
0.2507942231
100
AcDbArc
 50
278.264768035
 51
282.127023928
  0
ARC
  5
478
100
AcDbEntity
  8
ASSI
100
AcDbCircle
 62
253
  6
CONTINUOUS
 10
-12.3196782748
 20
-3.2749290319
 40
0.2357056019
100
AcDbArc
 50
119.9090048322
 51
128.3797939906
  0
ARC
  5
479
100
AcDbEntity
  8
RACCORDO
100
AcDbCircle
 62
253
  6
CONTINUOUS
 10
-12.3210233079
 20
-3.2726994888
 40
0.233103688
100
AcDbArc
 50
117.2615885751
 51
120.4044399797
  0
ARC
  5
47A
100
AcDbEntity
  8
ASSI
100
AcDbCircle
 62
253
  6
CONTINUOUS
 10
-12.4515671534
 20
-3.1006056365
 40
0.1119551001
100
AcDbArc
 50
215.025372841
 51
221.3294641044
  0
ARC
  5
47B
100
AcDbEntity
  8
RACCORDO
100
AcDbCircle
 62
253
  6
CONTINUOUS
 10
-12.4534298539
 20
-3.1022187207
 40
0.1094910928
100
AcDbArc
 50
212.7917864787
 51
221.3393021362
  0
ARC
  5
47C
100
AcDbEntity
  8
RACCORDO
100
AcDbCircle
 62
253
  6
CONTINUOUS
 10
-9.9400542315
 20
-11.3899820346
 40
7.0227364853
100
AcDbArc
 50
347.8401689412
 51
348.3036758201
  0
ARC
  5
47D
100
AcDbEntity
  8
RACCORDO
100
AcDbCircle
 62
253
  6
CONTINUOUS
 10
-4.7423621194
 20
-8.1627588073
 40
1.4895282813
100
AcDbArc
 50
15.1173166809
 51
20.3288776742
  0
ARC
  5
47E
100
AcDbEntity
  8
RACCORDO
100
AcDbCircle
 62
253
  6
CONTINUOUS
 10
-4.6514984981
 20
-8.1363117577
 40
1.3949186537
100
AcDbArc
 50
13.3905299589
 51
14.2665123766
  0
ARC
  5
47F
100
AcDbEntity
  8
RACCORDO
100
AcDbCircle
 62
253
  6
CONTINUOUS
 10
-4.6505920668
 20
-8.1365051923
 40
1.3940879059
100
AcDbArc
 50
14.283397671
 51
15.0592933944
  0
ARC
  5
480
100
AcDbEntity
  8
RACCORDO
100
AcDbCircle
 62
253
  6
CONTINUOUS
 10
-4.513531652
 20
-8.0352597598
 40
1.1778310586
100
AcDbArc
 50
19.2366337237
 51
20.3799636519
  0
ARC
  5
481
100
AcDbEntity
  8
ASSI
100
AcDbCircle
 62
253
  6
CONTINUOUS
 10
-4.5114994589
 20
-8.0345278
 40
1.1756711725
100
AcDbArc
 50
18.8575469458
 51
20.3810142498
  0
ARC
  5
482
100
AcDbEntity
  8
RACCORDO
100
AcDbCircle
 62
253
  6
CONTINUOUS
 10
-4.4684043543
 20
-8.0199353591
 40
1.1301745369
100
AcDbArc
 50
13.4105291475
 51
19.2568784086
  0
ARC
  5
483
100
AcDbEntity
  8
ASSI
100
AcDbCircle
 62
253
  6
CONTINUOUS
 10
-4.4646219898
 20
-8.0188611854
 40
1.1262461881
100
AcDbArc
 50
13.4020000823
 51
18.8741241363
  0
ARC
  5
484
100
AcDbEntity
  8
ASSI
100
AcDbCircle
 62
253
  6
CONTINUOUS
 10
-3.4658593327
 20
-12.3902630054
 40
0.5152180698
100
AcDbArc
 50
243.3722048821
 51
248.0431800462
  0
ARC
  5
485
100
AcDbEntity
  8
RACCORDO
100
AcDbCircle
 62
253
  6
CONTINUOUS
 10
-3.4659167219
 20
-12.3903846511
 40
0.5150836047
100
AcDbArc
 50
243.371846883
 51
248.0564028879
  0
ARC
  5
486
100
AcDbEntity
  8
DRAFT
100
AcDbCircle
 62
7
  6
CONTINUOUS
 10
-3.1248574056
 20
-12.409024899
 40
0.5093703438
100
AcDbArc
 50
254.4985967962
 51
256.70268399
  0
ARC
  5
487
100
AcDbEntity
  8
DRAFT
100
AcDbCircle
 62
7
  6
CONTINUOUS
 10
-3.1410496836
 20
-12.5086417509
 40
0.4083018592
100
AcDbArc
 50
264.453238675
 51
269.6615417609
  0
ARC
  5
488
100
AcDbEntity
  8
RACCORDO
100
AcDbCircle
 62
253
  6
CONTINUOUS
 10
-3.427768512
 20
-12.6854890944
 40
0.2663256295
100
AcDbArc
 50
312.9391982698
 51
320.9477318832
  0
ARC
  5
489
100
AcDbEntity
  8
ASSI
100
AcDbCircle
 62
253
  6
CONTINUOUS
 10
-3.5234961154
 20
-12.6748282688
 40
0.2253898976
100
AcDbArc
 50
313.1721333263
 51
321.3871658528
  0
ARC
  5
48A
100
AcDbEntity
  8
ASSI
100
AcDbCircle
 62
253
  6
CONTINUOUS
 10
-3.5135385674
 20
-12.6852568411
 40
0.210971483
100
AcDbArc
 50
304.6205094103
 51
313.1376687161
  0
ARC
  5
48B
100
AcDbEntity
  8
ASSI
100
AcDbCircle
 62
253
  6
CONTINUOUS
 10
-3.5111905599
 20
-12.6883149959
 40
0.2071209249
100
AcDbArc
 50
295.9794305899
 51
304.5666225191
  0
ARC
  5
48C
100
AcDbEntity
  8
RACCORDO
100
AcDbCircle
 62
253
  6
CONTINUOUS
 10
-6.3519246933
 20
-4.7936704501
 40
6.5189019355
100
AcDbArc
 50
165.610472423
 51
166.4829122412
  0
ARC
  5
48D
100
AcDbEntity
  8
RACCORDO
100
AcDbCircle
 62
253
  6
CONTINUOUS
 10
-6.455269033
 20
-4.7671939234
 40
6.4122198955
100
AcDbArc
 50
164.8539973984
 51
165.6101465035
  0
ARC
  5
48E
100
AcDbEntity
  8
RACCORDO
100
AcDbCircle
 62
253
  6
CONTINUOUS
 10
-4.3179967952
 20
-7.6448099792
 40
0.8226950774
100
AcDbArc
 50
58.9434924472
 51
63.4010086893
  0
ARC
  5
48F
100
AcDbEntity
  8
0
100
AcDbCircle
 62
7
  6
CONTINUOUS
 10
22.1938628013
 20
-25.6364080114
 40
0.2500014878
100
AcDbArc
 50
359.9991947506
 51
63.4347362773
  0
ARC
  5
490
100
AcDbEntity
  8
0
100
AcDbCircle
 62
7
  6
CONTINUOUS
 10
20.0663727301
 20
-27.0339539979
 40
0.250001424
100
AcDbArc
 50
243.4352355626
 51
295.9737880832
  0
ARC
  5
491
100
AcDbEntity
  8
0
100
AcDbCircle
 62
7
  6
CONTINUOUS
 10
22.1938638979
 20
-25.9839384155
 40
0.2500003968
100
AcDbArc
 50
297.1601718424
 51
0.0000315367
  0
ARC
  5
492
100
AcDbEntity
  8
RACCORDO
100
AcDbCircle
 62
253
  6
CONTINUOUS
 10
25.8733049288
 20
-15.2836583696
 40
0.2229460649
100
AcDbArc
 50
90.4351600794
 51
92.9851203572
  0
ARC
  5
493
100
AcDbEntity
  8
0
100
AcDbCircle
 62
7
  6
CONTINUOUS
 10
22.3364692948
 20
-24.7628885272
 40
0.1888321402
100
AcDbArc
 50
288.5054504538
 51
297.2745255251
  0
ARC
  5
494
100
AcDbEntity
  8
0
100
AcDbCircle
 62
7
  6
CONTINUOUS
 10
22.3357599386
 20
-24.763170725
 40
0.1881475565
100
AcDbArc
 50
292.7898774788
 51
302.5047286106
  0
ARC
  5
495
100
AcDbEntity
  8
0
100
AcDbCircle
 62
253
  6
CONTINUOUS
 10
22.3812593197
 20
-25.9839381892
 40
0.0626047184
100
AcDbArc
 50
357.2943620916
 51
359.9996291028
  0
ARC
  5
496
100
AcDbEntity
  8
0
100
AcDbCircle
 62
7
  6
CONTINUOUS
 10
20.0667348971
 20
14.6066630101
 40
0.2510925841
100
AcDbArc
 50
243.4673571148
 51
258.173807384
  0
ARC
  5
497
100
AcDbEntity
  8
0
100
AcDbCircle
 62
7
  6
CONTINUOUS
 10
7.7630623925
 20
20.7584486628
 40
0.2510473639
100
AcDbArc
 50
243.463175523
 51
258.1750030378
  0
ARC
  5
498
100
AcDbEntity
  8
0
100
AcDbCircle
 62
7
  6
CONTINUOUS
 10
22.1938620432
 20
16.0107273167
 40
0.2500021202
100
AcDbArc
 50
0.0018403594
 51
63.4346144876
  0
ARC
  5
499
100
AcDbEntity
  8
0
100
AcDbCircle
 62
7
  6
CONTINUOUS
 10
9.8902040505
 20
22.162556313
 40
0.2500021202
100
AcDbArc
 50
0.0018403594
 51
63.4346144876
  0
ARC
  5
49A
100
AcDbEntity
  8
0
100
AcDbCircle
 62
7
  6
CONTINUOUS
 10
6.0841792814
 20
21.9366930936
 40
0.2500019648
100
AcDbArc
 50
117.1590003956
 51
179.9982785534
  0
ARC
  5
49B
100
AcDbEntity
  8
0
100
AcDbCircle
 62
7
  6
CONTINUOUS
 10
18.3878372741
 20
15.7848640973
 40
0.2500019648
100
AcDbArc
 50
117.1590003956
 51
179.9982785534
  0
ARC
  5
49C
100
AcDbEntity
  8
0
100
AcDbCircle
 62
7
  6
CONTINUOUS
 10
6.0841786441
 20
21.5967211899
 40
0.2500014878
100
AcDbArc
 50
179.9991947506
 51
243.4347362773
  0
ARC
  5
49D
100
AcDbEntity
  8
0
100
AcDbCircle
 62
7
  6
CONTINUOUS
 10
8.1993272346
 20
23.0079954994
 40
0.250001424
100
AcDbArc
 50
63.4352355626
 51
115.9737880832
  0
ARC
  5
49E
100
AcDbEntity
  8
0
100
AcDbCircle
 62
7
  6
CONTINUOUS
 10
20.5029842484
 20
16.8561667216
 40
0.2500012342
100
AcDbArc
 50
63.4334738355
 51
115.9719157382
  0
ARC
  5
49F
100
AcDbEntity
  8
0
100
AcDbCircle
 62
7
  6
CONTINUOUS
 10
18.3878364198
 20
15.4448919072
 40
0.2500010157
100
AcDbArc
 50
179.9973937911
 51
243.444817609
  0
ARC
  5
4A0
100
AcDbEntity
  8
0
100
AcDbCircle
 62
7
  6
CONTINUOUS
 10
22.1938639926
 20
15.6631969054
 40
0.2500001466
100
AcDbArc
 50
320.5926030822
 51
0.0004114696
  0
ARC
  5
4A1
100
AcDbEntity
  8
0
100
AcDbCircle
 62
7
  6
CONTINUOUS
 10
9.8902059999
 20
21.8150259017
 40
0.2500001466
100
AcDbArc
 50
320.5926030822
 51
0.0004114696
  0
ARC
  5
4A2
100
AcDbEntity
  8
0
100
AcDbCircle
 62
7
  6
CONTINUOUS
 10
15.3026603858
 20
18.3264245075
 40
0.1999988444
100
AcDbArc
 50
116.8886104779
 51
180.0000325946
  0
ARC
  5
4A3
100
AcDbEntity
  8
0
100
AcDbCircle
 62
253
  6
CONTINUOUS
 10
8.2691704256
 20
23.1476751118
 40
0.0938332146
100
AcDbArc
 50
63.4375613892
 51
65.4061602789
  0
ARC
  5
4A4
100
AcDbEntity
  8
0
100
AcDbCircle
 62
7
  6
CONTINUOUS
 10
7.5960596291
 20
22.8878443914
 40
0.0938265491
100
AcDbArc
 50
114.8491440205
 51
115.9698242544
  0
ARC
  5
4A5
100
AcDbEntity
  8
0
100
AcDbCircle
 62
7
  6
CONTINUOUS
 10
19.8997176217
 20
16.7360153951
 40
0.0938265491
100
AcDbArc
 50
114.8491440207
 51
115.9698242542
  0
ARC
  5
4A6
100
AcDbEntity
  8
0
100
AcDbCircle
 62
253
  6
CONTINUOUS
 10
20.5728565995
 20
16.995903747
 40
0.0937690651
100
AcDbArc
 50
63.4372240786
 51
63.8578114571
  0
ARC
  5
4A7
100
AcDbEntity
  8
0
100
AcDbCircle
 62
253
  6
CONTINUOUS
 10
18.317965209
 20
15.3051491237
 40
0.0937640833
100
AcDbArc
 50
241.892215172
 51
243.4351971271
  0
ARC
  5
4A8
100
AcDbEntity
  8
0
100
AcDbCircle
 62
253
  6
CONTINUOUS
 10
20.4344979324
 20
16.9967510593
 40
0.0936222645
100
AcDbArc
 50
114.2433576846
 51
115.969696183
  0
ARC
  5
4A9
100
AcDbEntity
  8
0
100
AcDbCircle
 62
253
  6
CONTINUOUS
 10
8.1308289509
 20
23.1486031938
 40
0.0935966514
100
AcDbArc
 50
114.8176114238
 51
115.9698433071
  0
ARC
  5
4AA
100
AcDbEntity
  8
RACCORDO
100
AcDbCircle
 62
253
  6
CONTINUOUS
 10
541.7601926586
 20
-8.9101375382
 40
525.9327257178
100
AcDbArc
 50
179.0944756653
 51
179.4731714308
  0
ARC
  5
4AB
100
AcDbEntity
  8
RACCORDO
100
AcDbCircle
 62
253
  6
CONTINUOUS
 10
533.8700937124
 20
-8.812857619
 40
518.7398580042
100
AcDbArc
 50
179.0912478331
 51
180.9087521669
  0
ARC
  5
4AC
100
AcDbEntity
  8
RACCORDO
100
AcDbCircle
 62
253
  6
CONTINUOUS
 10
531.1733368689
 20
-8.8280908216
 40
515.3455632904
100
AcDbArc
 50
179.4714703438
 51
180.9126408282
  0
ARC
  5
4AD
100
AcDbEntity
  8
RACCORDO
100
AcDbCircle
 62
253
  6
CONTINUOUS
 10
526.9548801764
 20
6.4664239119
 40
542.3803633303
100
AcDbArc
 50
179.1308603402
 51
180.8691396598
  0
SPLINE
  5
4AE
100
AcDbEntity
  8
ASSI
100
AcDbSpline
 62
253
  6
CONTINUOUS
 70
0
 71
3
 72
9
 73
5
 74
3
 42
0.0000001
 43
0.0000001
 44
0.0000000001
 12
-0.1303428421
 22
-0.0665645468
 32
0.0
 13
0.0022062315
 23
-0.1463394271
 33
0.0
 40
0.0
 40
0.0
 40
0.0
 40
0.0
 40
0.4893474344
 40
1.0
 40
1.0
 40
1.0
 40
1.0
 10
-3.8755331571
 20
-7.057706246
 30
0.0
 10
-3.8967941355
 20
-7.068563976
 30
0.0
 10
-3.9308356841
 20
-7.107426095
 30
0.0
 10
-3.9459904441
 20
-7.1560236595
 30
0.0
 10
-3.9456149048
 20
-7.1809331942
 30
0.0
 11
-3.8755331571
 21
-7.057706246
 31
0.0
 11
-3.9255877768
 21
-7.1089293911
 31
0.0
 11
-3.9456149048
 21
-7.1809331942
 31
0.0
  0
LINE
  5
4AF
100
AcDbEntity
  8
ASSI
100
AcDbLine
 62
253
  6
CONTINUOUS
 10
-12.3547370094
 20
-8.1558236238
 11
-12.3605705275
 21
-8.1358263046
  0
SPLINE
  5
4B0
100
AcDbEntity
  8
ASSI
100
AcDbSpline
 62
253
  6
CONTINUOUS
 70
0
 71
3
 72
9
 73
5
 74
3
 42
0.0000001
 43
0.0000001
 44
0.0000000001
 12
-1.372807627
 22
4.7203783309
 32
0.0
 13
1.2816139838
 23
4.7459496377
 33
0.0
 40
0.0
 40
0.0
 40
0.0
 40
0.0
 40
0.2728793144
 40
1.0
 40
1.0
 40
1.0
 40
1.0
 10
-12.3605705275
 20
-8.1358263046
 30
0.0
 10
-12.4854407955
 20
-7.7064617704
 30
0.0
 10
-12.8601455747
 20
-6.1145680047
 30
0.0
 10
-12.8782425272
 20
-4.4060761977
 30
0.0
 10
-12.567613181
 20
-3.2557834795
 30
0.0
 11
-12.3605705275
 21
-8.1358263046
 31
0.0
 11
-12.6633850305
 21
-6.8289897577
 31
0.0
 11
-12.567613181
 21
-3.2557834795
 31
0.0
  0
SPLINE
  5
4B1
100
AcDbEntity
  8
ASSI
100
AcDbSpline
 62
253
  6
CONTINUOUS
 70
0
 71
3
 72
9
 73
5
 74
3
 42
0.0000001
 43
0.0000001
 44
0.0000000001
 12
0.0419961222
 22
-0.112523973
 32
0.0
 13
0.0279261004
 23
-0.1168137479
 33
0.0
 40
0.0
 40
0.0
 40
0.0
 40
0.0
 40
0.2533651737
 40
1.0
 40
1.0
 40
1.0
 40
1.0
 10
-3.541864541
 20
-7.671425659
 30
0.0
 10
-3.5383177561
 20
-7.6809288777
 30
0.0
 10
-3.5248734837
 20
-7.7186405913
 30
0.0
 10
-3.513669683
 20
-7.7571579242
 30
0.0
 10
-3.5067194833
 20
-7.7862303284
 30
0.0
 11
-3.541864541
 21
-7.671425659
 31
0.0
 11
-3.5316489599
 21
-7.7000902633
 31
0.0
 11
-3.5067194833
 21
-7.7862303284
 31
0.0
  0
SPLINE
  5
4B2
100
AcDbEntity
  8
ASSI
100
AcDbSpline
 62
253
  6
CONTINUOUS
 70
0
 71
3
 72
9
 73
5
 74
3
 42
0.0000001
 43
0.0000001
 44
0.0000000001
 12
0.0179246133
 22
0.0663893648
 32
0.0
 13
0.0294012536
 23
0.0621643452
 33
0.0
 40
0.0
 40
0.0
 40
0.0
 40
0.0
 40
0.2575010761
 40
1.0
 40
1.0
 40
1.0
 40
1.0
 10
-12.567613181
 20
-3.2557834795
 30
0.0
 10
-12.5660746452
 20
-3.2500850352
 30
0.0
 10
-12.5596492445
 20
-3.2280814786
 30
0.0
 10
-12.5513742855
 20
-3.2066014917
 30
0.0
 10
-12.5440974858
 20
-3.1912158386
 30
0.0
 11
-12.567613181
 21
-3.2557834795
 31
0.0
 11
-12.5626429117
 21
-3.2387878725
 31
0.0
 11
-12.5440974858
 21
-3.1912158386
 31
0.0
  0
SPLINE
  5
4B3
100
AcDbEntity
  8
ASSI
100
AcDbSpline
 62
253
  6
CONTINUOUS
 70
0
 71
3
 72
10
 73
6
 74
4
 42
0.0000001
 43
0.0000001
 44
0.0000000001
 12
-0.1246591936
 22
-0.0652403862
 32
0.0
 13
-0.1391167686
 23
-0.0210415598
 33
0.0
 40
0.0
 40
0.0
 40
0.0
 40
0.0
 40
0.5256244483
 40
0.7888978768
 40
1.0
 40
1.0
 40
1.0
 40
1.0
 10
-3.409427568
 20
-7.6250867443
 30
0.0
 10
-3.4312688747
 20
-7.6365173917
 30
0.0
 10
-3.4656871763
 20
-7.6505778655
 30
0.0
 10
-3.5103704546
 20
-7.6647783703
 30
0.0
 10
-3.5320752476
 20
-7.6699450136
 30
0.0
 10
-3.5418645294
 20
-7.6714256529
 30
0.0
 11
-3.409427568
 21
-7.6250867443
 31
0.0
 11
-3.4775025676
 21
-7.6539851144
 31
0.0
 11
-3.5128581529
 21
-7.6650357318
 31
0.0
 11
-3.5418645294
 21
-7.6714256529
 31
0.0
  0
LINE
  5
4B4
100
AcDbEntity
  8
ASSI
100
AcDbLine
 62
253
  6
CONTINUOUS
 10
-3.369045977
 20
-7.7578177479
 11
-3.3617323685
 21
-7.7885306923
  0
LINE
  5
4B5
100
AcDbEntity
  8
ASSI
100
AcDbLine
 62
253
  6
CONTINUOUS
 10
-3.3617323685
 20
-7.7885306923
 11
-3.3571626266
 21
-7.8078579837
  0
SPLINE
  5
4B6
100
AcDbEntity
  8
ASSI
100
AcDbSpline
 62
253
  6
CONTINUOUS
 70
0
 71
3
 72
11
 73
7
 74
5
 42
0.0000001
 43
0.0000001
 44
0.0000000001
 12
1.1331167889
 22
-4.8056664711
 32
0.0
 13
-1.0417814628
 23
-4.8262900112
 33
0.0
 40
0.0
 40
0.0
 40
0.0
 40
0.0
 40
0.275966432
 40
0.5364886028
 40
0.7784724039
 40
1.0
 40
1.0
 40
1.0
 40
1.0
 10
-3.3571626266
 20
-7.8078579837
 30
0.0
 10
-3.2529285608
 20
-8.2499255269
 30
0.0
 10
-3.0863339502
 20
-9.1184140371
 30
0.0
 10
-2.9630840063
 20
-10.3957707454
 30
0.0
 10
-2.9740372065
 20
-11.5896780593
 30
0.0
 10
-3.0759027973
 20
-12.3486457969
 30
0.0
 10
-3.1528305783
 20
-12.7050312715
 30
0.0
 11
-3.3571626266
 21
-7.8078579837
 31
0.0
 11
-3.1031443984
 21
-9.1465404771
 31
0.0
 11
-2.9835763851
 21
-10.4272856984
 31
0.0
 11
-3.0001993424
 21
-11.6219522733
 31
0.0
 11
-3.1528305783
 21
-12.7050312715
 31
0.0
  0
SPLINE
  5
4B7
100
AcDbEntity
  8
ASSI
100
AcDbSpline
 62
253
  6
CONTINUOUS
 70
0
 71
3
 72
9
 73
5
 74
3
 42
0.0000001
 43
0.0000001
 44
0.0000000001
 12
0.0263337373
 22
0.0483997096
 32
0.0
 13
0.0348628542
 23
0.0426682435
 33
0.0
 40
0.0
 40
0.0
 40
0.0
 40
0.0
 40
0.2553807879
 40
1.0
 40
1.0
 40
1.0
 40
1.0
 10
-12.5356369957
 20
-3.1745394317
 30
0.0
 10
-12.5333952855
 20
-3.170419313
 30
0.0
 10
-12.5242647373
 20
-3.1544817518
 30
0.0
 10
-12.5136945042
 20
-3.1393587685
 30
0.0
 10
-12.5050413205
 20
-3.1287682372
 30
0.0
 11
-12.5356369957
 21
-3.1745394317
 31
0.0
 11
-12.528637857
 21
-3.1623321454
 31
0.0
 11
-12.5050413205
 21
-3.1287682372
 31
0.0
  0
SPLINE
  5
4B8
100
AcDbEntity
  8
ASSI
100
AcDbSpline
 62
253
  6
CONTINUOUS
 70
0
 71
3
 72
9
 73
5
 74
3
 42
0.0000001
 43
0.0000001
 44
0.0000000001
 12
0.0347707372
 22
0.0425555027
 32
0.0
 13
0.0430859398
 23
0.034111241
 33
0.0
 40
0.0
 40
0.0
 40
0.0
 40
0.0
 40
0.2541539463
 40
1.0
 40
1.0
 40
1.0
 40
1.0
 10
-12.5050413205
 20
-3.1287682372
 30
0.0
 10
-12.5020956138
 20
-3.1251630209
 30
0.0
 10
-12.4901469576
 20
-3.1112761608
 30
0.0
 10
-12.4767329593
 20
-3.0986370511
 30
0.0
 10
-12.4660211332
 20
-3.0901564729
 30
0.0
 11
-12.5050413205
 21
-3.1287682372
 31
0.0
 11
-12.4959273649
 21
-3.1181848178
 31
0.0
 11
-12.4660211332
 21
-3.0901564729
 31
0.0
  0
SPLINE
  5
4B9
100
AcDbEntity
  8
ASSI
100
AcDbSpline
 62
253
  6
CONTINUOUS
 70
0
 71
3
 72
11
 73
7
 74
5
 42
0.0000001
 43
0.0000001
 44
0.0000000001
 12
0.2674402809
 22
0.1537002121
 32
0.0
 13
0.2758854815
 23
-0.1379683304
 33
0.0
 40
0.0
 40
0.0
 40
0.0
 40
0.0
 40
0.2257445285
 40
0.4620124786
 40
0.7185440826
 40
1.0
 40
1.0
 40
1.0
 40
1.0
 10
-12.4372067398
 20
-3.0706150806
 30
0.0
 10
-12.4170823464
 20
-3.05904942
 30
0.0
 10
-12.3720162365
 20
-3.0415633023
 30
0.0
 10
-12.2974763838
 20
-3.0357581734
 30
0.0
 10
-12.2183940329
 20
-3.049654889
 30
0.0
 10
-12.1667028907
 20
-3.0703868004
 30
0.0
 10
-12.1408196903
 20
-3.0833308014
 30
0.0
 11
-12.4372067398
 21
-3.0706150806
 31
0.0
 11
-12.3723594855
 21
-3.0452451173
 31
0.0
 11
-12.2997594375
 21
-3.038870185
 31
0.0
 11
-12.2216807667
 21
-3.0517258752
 31
0.0
 11
-12.1408196903
 21
-3.0833308014
 31
0.0
  0
SPLINE
  5
4BA
100
AcDbEntity
  8
ASSI
100
AcDbSpline
 62
253
  6
CONTINUOUS
 70
0
 71
3
 72
11
 73
7
 74
5
 42
0.0000001
 43
0.0000001
 44
0.0000000001
 12
1.1495144338
 22
-4.8074362681
 32
0.0
 13
-1.0377897636
 23
-4.8327858748
 33
0.0
 40
0.0
 40
0.0
 40
0.0
 40
0.0
 40
0.2760920637
 40
0.5367076939
 40
0.7786688866
 40
1.0
 40
1.0
 40
1.0
 40
1.0
 10
-3.5067194833
 20
-7.7862303284
 30
0.0
 10
-3.4009288792
 20
-8.2286619951
 30
0.0
 10
-3.2315167533
 20
-9.0979903319
 30
0.0
 10
-3.104742529
 20
-10.3767815909
 30
0.0
 10
-3.113021554
 20
-11.5718521007
 30
0.0
 10
-3.2137005133
 20
-12.3315107184
 30
0.0
 10
-3.2902655679
 20
-12.6880593445
 30
0.0
 11
-3.5067194833
 21
-7.7862303284
 31
0.0
 11
-3.2483392164
 21
-9.1262588812
 31
0.0
 11
-3.1252537422
 21
-10.4085770748
 31
0.0
 11
-3.1392735066
 21
-11.6044987459
 31
0.0
 11
-3.2902655679
 21
-12.6880593445
 31
0.0
  0
SPLINE
  5
4BB
100
AcDbEntity
  8
ASSI
100
AcDbSpline
 62
253
  6
CONTINUOUS
 70
0
 71
3
 72
9
 73
5
 74
3
 42
0.0000001
 43
0.0000001
 44
0.0000000001
 12
-0.1303428408
 22
-0.0665645483
 32
0.0
 13
0.0022062274
 23
-0.1463394267
 33
0.0
 40
0.0
 40
0.0
 40
0.0
 40
0.0
 40
0.4893474275
 40
1.0
 40
1.0
 40
1.0
 40
1.0
 10
-12.0707379425
 20
-2.9601038532
 30
0.0
 10
-12.0919989205
 20
-2.9709615834
 30
0.0
 10
-12.1260404684
 20
-3.0098237026
 30
0.0
 10
-12.1411952288
 20
-3.0584212665
 30
0.0
 10
-12.1408196903
 20
-3.0833308014
 30
0.0
 11
-12.0707379425
 21
-2.9601038532
 31
0.0
 11
-12.1207925611
 21
-3.0113269979
 31
0.0
 11
-12.1408196903
 21
-3.0833308014
 31
0.0
  0
SPLINE
  5
4BC
100
AcDbEntity
  8
ASSI
100
AcDbSpline
 62
253
  6
CONTINUOUS
 70
0
 71
3
 72
9
 73
5
 74
3
 42
0.0000001
 43
0.0000001
 44
0.0000000001
 12
-0.0200216394
 22
-0.0104735279
 32
0.0
 13
-0.0210392998
 23
-0.008240673
 33
0.0
 40
0.0
 40
0.0
 40
0.0
 40
0.0
 40
0.2355898482
 40
1.0
 40
1.0
 40
1.0
 40
1.0
 10
-3.3690460112
 20
-7.7578177435
 30
0.0
 10
-3.3706183095
 20
-7.7586402291
 30
0.0
 10
-3.377349898
 20
-7.7620208228
 30
0.0
 10
-3.3842787471
 20
-7.7650010867
 30
0.0
 10
-3.3896396319
 20
-7.7671008381
 30
0.0
 11
-3.3690460112
 21
-7.7578177435
 31
0.0
 11
-3.3738010458
 21
-7.7602108769
 31
0.0
 11
-3.3896396319
 21
-7.7671008381
 31
0.0
  0
SPLINE
  5
4BD
100
AcDbEntity
  8
ASSI
100
AcDbSpline
 62
253
  6
CONTINUOUS
 70
0
 71
3
 72
9
 73
5
 74
3
 42
0.0000001
 43
0.0000001
 44
0.0000000001
 12
-0.0595701124
 22
-0.0233324218
 32
0.0
 13
-0.0631401125
 23
-0.0103114688
 33
0.0
 40
0.0
 40
0.0
 40
0.0
 40
0.0
 40
0.242183717
 40
1.0
 40
1.0
 40
1.0
 40
1.0
 10
-3.3896396319
 20
-7.7671008381
 30
0.0
 10
-3.3944486023
 20
-7.7689844157
 30
0.0
 10
-3.4145401981
 20
-7.7761501508
 30
0.0
 10
-3.4353791036
 20
-7.7812034685
 30
0.0
 10
-3.4513286388
 20
-7.7838082015
 30
0.0
 11
-3.3896396319
 21
-7.7671008381
 31
0.0
 11
-3.4042241489
 21
-7.7723313649
 31
0.0
 11
-3.4513286388
 21
-7.7838082015
 31
0.0
  0
SPLINE
  5
4BE
100
AcDbEntity
  8
ASSI
100
AcDbSpline
 62
253
  6
CONTINUOUS
 70
0
 71
3
 72
9
 73
5
 74
3
 42
0.0000001
 43
0.0000001
 44
0.0000000001
 12
-0.054807775
 22
-0.0089507073
 32
0.0
 13
-0.0550855094
 23
0.0070423017
 33
0.0
 40
0.0
 40
0.0
 40
0.0
 40
0.0
 40
0.2808613944
 40
1.0
 40
1.0
 40
1.0
 40
1.0
 10
-3.4513286388
 20
-7.7838082015
 30
0.0
 10
-3.4564597681
 20
-7.7846461708
 30
0.0
 10
-3.474782243
 20
-7.7871252823
 30
0.0
 10
-3.4935147697
 20
-7.7879184544
 30
0.0
 10
-3.5067194752
 20
-7.7862303241
 30
0.0
 11
-3.4513286388
 21
-7.7838082015
 31
0.0
 11
-3.466784266
 21
-7.7859057521
 31
0.0
 11
-3.5067194752
 21
-7.7862303241
 31
0.0
  0
SPLINE
  5
4BF
100
AcDbEntity
  8
ASSI
100
AcDbSpline
 62
253
  6
CONTINUOUS
 70
0
 71
3
 72
10
 73
6
 74
4
 42
0.0000001
 43
0.0000001
 44
0.0000000001
 12
-0.0601076844
 22
-0.2668796
 32
0.0
 13
-0.2460508326
 23
-0.1195685678
 33
0.0
 40
0.0
 40
0.0
 40
0.0
 40
0.0
 40
0.5293671333
 40
0.7682632061
 40
1.0
 40
1.0
 40
1.0
 40
1.0
 10
-3.1528305783
 20
-12.7050312715
 30
0.0
 10
-3.1634369225
 20
-12.7521237011
 30
0.0
 10
-3.1897632882
 20
-12.8197823236
 30
0.0
 10
-3.2510153091
 20
-12.8884127144
 30
0.0
 10
-3.2873242134
 20
-12.9123834913
 30
0.0
 10
-3.3063305571
 20
-12.9216196368
 30
0.0
 11
-3.1528305783
 21
-12.7050312715
 31
0.0
 11
-3.2095598135
 21
-12.838273596
 31
0.0
 11
-3.2533815906
 21
-12.8867579915
 31
0.0
 11
-3.3063305571
 21
-12.9216196368
 31
0.0
  0
SPLINE
  5
4C0
100
AcDbEntity
  8
ASSI
100
AcDbSpline
 62
253
  6
CONTINUOUS
 70
0
 71
3
 72
9
 73
5
 74
3
 42
0.0000001
 43
0.0000001
 44
0.0000000001
 12
-0.049144607
 22
0.0245489312
 32
0.0
 13
-0.0041759593
 23
0.0547759417
 33
0.0
 40
0.0
 40
0.0
 40
0.0
 40
0.0
 40
0.4550191446
 40
1.0
 40
1.0
 40
1.0
 40
1.0
 10
-3.6710709443
 20
-12.8973062175
 30
0.0
 10
-3.6785248567
 20
-12.8935828063
 30
0.0
 10
-3.6919585637
 20
-12.8792706632
 30
0.0
 10
-3.6960177581
 20
-12.8607860712
 30
0.0
 10
-3.696776364
 20
-12.850835458
 30
0.0
 11
-3.6710709443
 21
-12.8973062175
 31
0.0
 11
-3.6888091226
 21
-12.8796943342
 31
0.0
 11
-3.696776364
 21
-12.850835458
 31
0.0
  0
SPLINE
  5
4C1
100
AcDbEntity
  8
ASSI
100
AcDbSpline
 62
253
  6
CONTINUOUS
 70
0
 71
3
 72
9
 73
5
 74
3
 42
0.0000001
 43
0.0000001
 44
0.0000000001
 12
-0.0491446133
 22
0.0245489322
 32
0.0
 13
-0.0041759528
 23
0.0547759482
 33
0.0
 40
0.0
 40
0.0
 40
0.0
 40
0.0
 40
0.4550192004
 40
1.0
 40
1.0
 40
1.0
 40
1.0
 10
-11.8662757244
 20
-8.7997038275
 30
0.0
 10
-11.8737296386
 20
-8.7959804157
 30
0.0
 10
-11.8871633497
 20
-8.7816682737
 30
0.0
 10
-11.8912225448
 20
-8.7631836787
 30
0.0
 10
-11.8919811495
 20
-8.7532330653
 30
0.0
 11
-11.8662757244
 21
-8.7997038275
 31
0.0
 11
-11.8840139086
 21
-8.7820919419
 31
0.0
 11
-11.8919811495
 21
-8.7532330653
 31
0.0
  0
SPLINE
  5
4C2
100
AcDbEntity
  8
ASSI
100
AcDbSpline
 62
253
  6
CONTINUOUS
 70
0
 71
3
 72
10
 73
6
 74
4
 42
0.0000001
 43
0.0000001
 44
0.0000000001
 12
0.0086334448
 22
-0.0294151574
 32
0.0
 13
0.0303418962
 23
-0.0043768928
 33
0.0
 40
0.0
 40
0.0
 40
0.0
 40
0.0
 40
0.18836634
 40
0.5350323208
 40
1.0
 40
1.0
 40
1.0
 40
1.0
 10
-12.3802466007
 20
-8.1413777178
 30
0.0
 10
-12.3797045172
 20
-8.1432246596
 30
0.0
 10
-12.3767907328
 20
-8.1481059845
 30
0.0
 10
-12.367566363
 20
-8.1533302628
 30
0.0
 10
-12.3594396466
 20
-8.1551452345
 30
0.0
 10
-12.3547369796
 20
-8.1558236058
 30
0.0
 11
-12.3802466007
 21
-8.1413777178
 31
0.0
 11
-12.3774022608
 21
-8.1464031699
 31
0.0
 11
-12.3685408816
 21
-8.1522697812
 31
0.0
 11
-12.3547369796
 21
-8.1558236058
 31
0.0
  0
SPLINE
  5
4C3
100
AcDbEntity
  8
ASSI
100
AcDbSpline
 62
253
  6
CONTINUOUS
 70
0
 71
3
 72
9
 73
5
 74
3
 42
0.0000001
 43
0.0000001
 44
0.0000000001
 12
-0.0376209621
 22
-0.0691900562
 32
0.0
 13
0.0451663264
 23
-0.0645182426
 33
0.0
 40
0.0
 40
0.0
 40
0.0
 40
0.0
 40
0.4661599474
 40
1.0
 40
1.0
 40
1.0
 40
1.0
 10
-12.5527773086
 20
-3.0897476817
 30
0.0
 10
-12.5586231038
 20
-3.1004988927
 30
0.0
 10
-12.5627556494
 20
-3.1284763026
 30
0.0
 10
-12.5512841547
 20
-3.1533802423
 30
0.0
 10
-12.5432469567
 20
-3.1648610496
 30
0.0
 11
-12.5527773086
 21
-3.0897476817
 31
0.0
 11
-12.5590851208
 21
-3.1259149078
 31
0.0
 11
-12.5432469567
 21
-3.1648610496
 31
0.0
  0
SPLINE
  5
4C4
100
AcDbEntity
  8
ASSI
100
AcDbSpline
 62
253
  6
CONTINUOUS
 70
0
 71
3
 72
9
 73
5
 74
3
 42
0.0000001
 43
0.0000001
 44
0.0000000001
 12
-0.0185410881
 22
-0.0685840692
 32
0.0
 13
0.0536637099
 23
-0.0465591316
 33
0.0
 40
0.0
 40
0.0
 40
0.0
 40
0.0
 40
0.4556693744
 40
1.0
 40
1.0
 40
1.0
 40
1.0
 10
-12.5934451602
 20
-3.1925844704
 30
0.0
 10
-12.5962613622
 20
-3.2030016904
 30
0.0
 10
-12.5932184024
 20
-3.22849179
 30
0.0
 10
-12.5773500738
 20
-3.2473356044
 30
0.0
 10
-12.5676131402
 20
-3.2557834581
 30
0.0
 11
-12.5934451602
 21
-3.1925844704
 31
0.0
 11
-12.590825205
 21
-3.2248518073
 31
0.0
 11
-12.5676131402
 21
-3.2557834581
 31
0.0
  0
SPLINE
  5
4C5
100
AcDbEntity
  8
ASSI
100
AcDbSpline
 62
253
  6
CONTINUOUS
 70
0
 71
3
 72
9
 73
5
 74
3
 42
0.0000001
 43
0.0000001
 44
0.0000000001
 12
0.1746491682
 22
0.0890135518
 32
0.0
 13
0.1934323506
 23
-0.0317753068
 33
0.0
 40
0.0
 40
0.0
 40
0.0
 40
0.0
 40
0.4826998775
 40
1.0
 40
1.0
 40
1.0
 40
1.0
 10
-12.4018369475
 20
-2.9390909529
 30
0.0
 10
-12.3737359034
 20
-2.9247686761
 30
0.0
 10
-12.3097657059
 20
-2.9054765947
 30
0.0
 10
-12.2433929973
 20
-2.907890502
 30
0.0
 10
-12.2100388044
 20
-2.9133696253
 30
0.0
 11
-12.4018369475
 21
-2.9390909529
 31
0.0
 11
-12.3114193073
 21
-2.9112015828
 31
0.0
 11
-12.2100388044
 21
-2.9133696253
 31
0.0
  0
SPLINE
  5
4C6
100
AcDbEntity
  8
ASSI
100
AcDbSpline
 62
253
  6
CONTINUOUS
 70
0
 71
3
 72
9
 73
5
 74
3
 42
0.0000001
 43
0.0000001
 44
0.0000000001
 12
0.0697089255
 22
-0.0114511481
 32
0.0
 13
0.0669977227
 23
-0.0224001839
 33
0.0
 40
0.0
 40
0.0
 40
0.0
 40
0.0
 40
0.2436169693
 40
1.0
 40
1.0
 40
1.0
 40
1.0
 10
-12.2100388044
 20
-2.9133696253
 30
0.0
 10
-12.2043780454
 20
-2.9142995233
 30
0.0
 10
-12.1812260659
 20
-2.9186221806
 30
0.0
 10
-12.1584508952
 20
-2.924894249
 30
0.0
 10
-12.1415589151
 20
-2.9305419553
 30
0.0
 11
-12.2100388044
 21
-2.9133696253
 31
0.0
 11
-12.1931199786
 21
-2.9165213647
 31
0.0
 11
-12.1415589151
 21
-2.9305419553
 31
0.0
  0
SPLINE
  5
4C7
100
AcDbEntity
  8
ASSI
100
AcDbSpline
 62
253
  6
CONTINUOUS
 70
0
 71
3
 72
9
 73
5
 74
3
 42
0.0000001
 43
0.0000001
 44
0.0000000001
 12
-0.0295012912
 22
-0.1371689767
 32
0.0
 13
-0.0876579275
 23
-0.1095524627
 33
0.0
 40
0.0
 40
0.0
 40
0.0
 40
0.0
 40
0.268827246
 40
1.0
 40
1.0
 40
1.0
 40
1.0
 10
-3.2902655679
 20
-12.6880593445
 30
0.0
 10
-3.2929091515
 20
-12.7003509306
 30
0.0
 10
-3.3047986513
 20
-12.7455388865
 30
0.0
 10
-3.3260164356
 20
-12.7887832882
 30
0.0
 10
-3.3473807984
 20
-12.8154838802
 30
0.0
 11
-3.2902655679
 21
-12.6880593445
 31
0.0
 11
-3.2999757318
 21
-12.7245059811
 31
0.0
 11
-3.3473807984
 21
-12.8154838802
 31
0.0
  0
SPLINE
  5
4C8
100
AcDbEntity
  8
ASSI
100
AcDbSpline
 62
253
  6
CONTINUOUS
 70
0
 71
3
 72
9
 73
5
 74
3
 42
0.0000001
 43
0.0000001
 44
0.0000000001
 12
-0.1503526096
 22
-0.0732709579
 32
0.0
 13
-0.1639872069
 23
0.0329049609
 33
0.0
 40
0.0
 40
0.0
 40
0.0
 40
0.0
 40
0.4754801318
 40
1.0
 40
1.0
 40
1.0
 40
1.0
 10
-3.4204615603
 20
-12.8745066341
 30
0.0
 10
-3.4442914531
 20
-12.8861195956
 30
0.0
 10
-3.4995395773
 20
-12.9007457504
 30
0.0
 10
-3.5560127558
 20
-12.8963108271
 30
0.0
 10
-3.5846842718
 20
-12.8905577252
 30
0.0
 11
-3.4204615603
 21
-12.8745066341
 31
0.0
 11
-3.4971071858
 21
-12.8957191332
 31
0.0
 11
-3.5846842718
 21
-12.8905577252
 31
0.0
  0
SPLINE
  5
4C9
100
AcDbEntity
  8
ASSI
100
AcDbSpline
 62
253
  6
CONTINUOUS
 70
0
 71
3
 72
9
 73
5
 74
3
 42
0.0000001
 43
0.0000001
 44
0.0000000001
 12
-0.0757106552
 22
0.0151917713
 32
0.0
 13
-0.0716319573
 23
0.0288401788
 33
0.0
 40
0.0
 40
0.0
 40
0.0
 40
0.0
 40
0.2408314495
 40
1.0
 40
1.0
 40
1.0
 40
1.0
 10
-3.5846842718
 20
-12.8905577252
 30
0.0
 10
-3.5907621075
 20
-12.8893381731
 30
0.0
 10
-3.6158655553
 20
-12.8836160476
 30
0.0
 10
-3.6403764418
 20
-12.8754083856
 30
0.0
 10
-3.6585033515
 20
-12.8681102
 30
0.0
 11
-3.5846842718
 21
-12.8905577252
 31
0.0
 11
-3.6028191385
 21
-12.8864378769
 31
0.0
 11
-3.6585033515
 21
-12.8681102
 31
0.0
  0
SPLINE
  5
4CA
100
AcDbEntity
  8
ASSI
100
AcDbSpline
 62
253
  6
CONTINUOUS
 70
0
 71
3
 72
9
 73
5
 74
3
 42
0.0000001
 43
0.0000001
 44
0.0000000001
 12
-0.1258078023
 22
-0.0701802696
 32
0.0
 13
-0.1104446028
 23
0.0924925028
 33
0.0
 40
0.0
 40
0.0
 40
0.0
 40
0.0
 40
0.4881754182
 40
1.0
 40
1.0
 40
1.0
 40
1.0
 10
-3.1528511099
 20
-12.7050130189
 30
0.0
 10
-3.1733232021
 20
-12.716433113
 30
0.0
 10
-3.2244166685
 20
-12.7225521509
 30
0.0
 10
-3.2714225148
 20
-12.7038391427
 30
0.0
 10
-3.290265269
 20
-12.6880591638
 30
0.0
 11
-3.1528511099
 21
-12.7050130189
 31
0.0
 11
-3.2222342086
 21
-12.7164895858
 31
0.0
 11
-3.290265269
 21
-12.6880591638
 31
0.0
  0
SPLINE
  5
4CB
100
AcDbEntity
  8
ASSI
100
AcDbSpline
 62
253
  6
CONTINUOUS
 70
0
 71
3
 72
11
 73
7
 74
5
 42
0.0000001
 43
0.0000001
 44
0.0000000001
 12
0.6701831108
 22
-0.3350764672
 32
0.0
 13
0.2609188377
 23
-0.7023837989
 33
0.0
 40
0.0
 40
0.0
 40
0.0
 40
0.0
 40
0.2241109563
 40
0.4719824411
 40
0.7344840874
 40
1.0
 40
1.0
 40
1.0
 40
1.0
 10
-3.8755331571
 20
-7.057706246
 30
0.0
 10
-3.8254680311
 20
-7.0827376818
 30
0.0
 10
-3.7271060698
 20
-7.149945341
 30
0.0
 10
-3.5986868322
 20
-7.2822307562
 30
0.0
 10
-3.4888621945
 20
-7.4429323602
 30
0.0
 10
-3.4325210101
 20
-7.5629221647
 30
0.0
 10
-3.409428309
 20
-7.6250868565
 30
0.0
 11
-3.8755331571
 21
-7.057706246
 31
0.0
 11
-3.7356289615
 21
-7.1505750922
 31
0.0
 11
-3.6052530774
 21
-7.2828476431
 31
0.0
 11
-3.4938359977
 21
-7.4449345935
 31
0.0
 11
-3.409428309
 21
-7.6250868565
 31
0.0
  0
SPLINE
  5
4CC
100
AcDbEntity
  8
ASSI
100
AcDbSpline
 62
253
  6
CONTINUOUS
 70
0
 71
3
 72
9
 73
5
 74
3
 42
0.0000001
 43
0.0000001
 44
0.0000000001
 12
-0.4762582665
 22
0.3285914236
 32
0.0
 13
-0.2198831188
 23
0.5352061978
 33
0.0
 40
0.0
 40
0.0
 40
0.0
 40
0.0
 40
0.4841812889
 40
1.0
 40
1.0
 40
1.0
 40
1.0
 10
-11.9687528208
 20
-8.707526862
 30
0.0
 10
-12.0456179346
 20
-8.6544942557
 30
0.0
 10
-12.1840387698
 20
-8.5153693394
 30
0.0
 10
-12.2821386363
 20
-8.3466844224
 30
0.0
 10
-12.3199452452
 20
-8.2546612987
 30
0.0
 11
-11.9687528208
 21
-8.707526862
 31
0.0
 11
-12.1702069854
 21
-8.5128410972
 31
0.0
 11
-12.3199452452
 21
-8.2546612987
 31
0.0
  0
SPLINE
  5
4CD
100
AcDbEntity
  8
ASSI
100
AcDbSpline
 62
253
  6
CONTINUOUS
 70
0
 71
3
 72
10
 73
6
 74
4
 42
0.0000001
 43
0.0000001
 44
0.0000000001
 12
0.5787562544
 22
-0.2893502795
 32
0.0
 13
0.226391209
 23
-0.6061595555
 33
0.0
 40
0.0
 40
0.0
 40
0.0
 40
0.0
 40
0.2245122935
 40
0.4728581526
 40
1.0
 40
1.0
 40
1.0
 40
1.0
 10
-3.9456149048
 20
-7.1809331942
 30
0.0
 10
-3.9023022735
 20
-7.2025874258
 30
0.0
 10
-3.8171567346
 20
-7.2607440832
 30
0.0
 10
-3.6662993202
 20
-7.4159423715
 30
0.0
 10
-3.5816446344
 20
-7.5649149697
 30
0.0
 10
-3.541864541
 20
-7.671425659
 30
0.0
 11
-3.9456149048
 21
-7.1809331942
 31
0.0
 11
-3.8245618906
 21
-7.2612461806
 31
0.0
 11
-3.7116737672
 21
-7.3756087028
 31
0.0
 11
-3.541864541
 21
-7.671425659
 31
0.0
  0
SPLINE
  5
4CE
100
AcDbEntity
  8
RACCORDO
100
AcDbSpline
 62
253
  6
CONTINUOUS
 70
0
 71
3
 72
9
 73
5
 74
3
 42
0.0000001
 43
0.0000001
 44
0.0000000001
 12
-0.0185827892
 22
-0.0685704679
 32
0.0
 13
0.0536620228
 23
-0.0465576678
 33
0.0
 40
0.0
 40
0.0
 40
0.0
 40
0.0
 40
0.4559564437
 40
1.0
 40
1.0
 40
1.0
 40
1.0
 10
-12.5934592351
 20
-3.1925810817
 30
0.0
 10
-12.5962835493
 20
-3.2030027973
 30
0.0
 10
-12.5931812142
 20
-3.2284902152
 30
0.0
 10
-12.5773446327
 20
-3.2473403251
 30
0.0
 10
-12.5676131402
 20
-3.2557834581
 30
0.0
 11
-12.5934592351
 21
-3.1925810817
 31
0.0
 11
-12.5908070875
 21
-3.2248652305
 31
0.0
 11
-12.5676131402
 21
-3.2557834581
 31
0.0
  0
SPLINE
  5
4CF
100
AcDbEntity
  8
RACCORDO
100
AcDbSpline
 62
253
  6
CONTINUOUS
 70
0
 71
3
 72
9
 73
5
 74
3
 42
0.0000001
 43
0.0000001
 44
0.0000000001
 12
-0.036030861
 22
-0.0656107463
 32
0.0
 13
0.0404865725
 23
-0.0629589583
 33
0.0
 40
0.0
 40
0.0
 40
0.0
 40
0.0
 40
0.467870283
 40
1.0
 40
1.0
 40
1.0
 40
1.0
 10
-12.5527624034
 20
-3.0897562683
 30
0.0
 10
-12.5583816598
 20
-3.0999887078
 30
0.0
 10
-12.5627405138
 20
-3.1263968377
 30
0.0
 10
-12.5526542809
 20
-3.1503503063
 30
0.0
 10
-12.5454729115
 20
-3.1615177505
 30
0.0
 11
-12.5527624034
 21
-3.0897562683
 31
0.0
 11
-12.5592983492
 21
-3.1241625344
 31
0.0
 11
-12.5454729115
 21
-3.1615177505
 31
0.0
  0
SPLINE
  5
4D0
100
AcDbEntity
  8
RACCORDO
100
AcDbSpline
 62
253
  6
CONTINUOUS
 70
0
 71
3
 72
10
 73
6
 74
4
 42
0.0000001
 43
0.0000001
 44
0.0000000001
 12
0.0086299084
 22
-0.0294090905
 32
0.0
 13
0.0303351487
 23
-0.0043759201
 33
0.0
 40
0.0
 40
0.0
 40
0.0
 40
0.0
 40
0.1887007477
 40
0.5366280062
 40
1.0
 40
1.0
 40
1.0
 40
1.0
 10
-12.3802601537
 20
-8.1413818705
 30
0.0
 10
-12.3797173303
 20
-8.1432317096
 30
0.0
 10
-12.3767657636
 20
-8.1481128584
 30
0.0
 10
-12.3675362467
 20
-8.1533017541
 30
0.0
 10
-12.3594224657
 20
-8.1551477128
 30
0.0
 10
-12.3547369796
 20
-8.1558236058
 30
0.0
 11
-12.3802601537
 21
-8.1413818705
 31
0.0
 11
-12.3773940845
 21
-8.1464052862
 31
0.0
 11
-12.3684866376
 21
-8.1522679896
 31
0.0
 11
-12.3547369796
 21
-8.1558236058
 31
0.0
  0
SPLINE
  5
4D1
100
AcDbEntity
  8
RACCORDO
100
AcDbSpline
 62
253
  6
CONTINUOUS
 70
0
 71
3
 72
10
 73
6
 74
4
 42
0.0000001
 43
0.0000001
 44
0.0000000001
 12
0.6689942135
 22
-0.3344820453
 32
0.0
 13
0.2604559707
 23
-0.7011377779
 33
0.0
 40
0.0
 40
0.0
 40
0.0
 40
0.0
 40
0.2246222747
 40
0.4729638928
 40
1.0
 40
1.0
 40
1.0
 40
1.0
 10
-3.8755331571
 20
-7.057706246
 30
0.0
 10
-3.8254428231
 20
-7.0827502853
 30
0.0
 10
-3.7270127365
 20
-7.1500222607
 30
0.0
 10
-3.5527810072
 20
-7.3295729687
 30
0.0
 10
-3.4551848759
 20
-7.5019118814
 30
0.0
 10
-3.409428309
 20
-7.6250868565
 30
0.0
 11
-3.8755331571
 21
-7.057706246
 31
0.0
 11
-3.7355634915
 21
-7.1506293426
 31
0.0
 11
-3.6051851909
 21
-7.2829306287
 31
0.0
 11
-3.409428309
 21
-7.6250868565
 31
0.0
  0
SPLINE
  5
4D2
100
AcDbEntity
  8
RACCORDO
100
AcDbSpline
 62
253
  6
CONTINUOUS
 70
0
 71
3
 72
10
 73
6
 74
4
 42
0.0000001
 43
0.0000001
 44
0.0000000001
 12
0.5787568797
 22
-0.2893505922
 32
0.0
 13
0.2263914537
 23
-0.6061602105
 33
0.0
 40
0.0
 40
0.0
 40
0.0
 40
0.0
 40
0.2246281514
 40
0.4730034338
 40
1.0
 40
1.0
 40
1.0
 40
1.0
 10
-3.9456149048
 20
-7.1809331942
 30
0.0
 10
-3.9022798755
 20
-7.2025986237
 30
0.0
 10
-3.8171114651
 20
-7.2607799229
 30
0.0
 10
-3.6662690246
 20
-7.4159926901
 30
0.0
 10
-3.5816337139
 20
-7.5649442092
 30
0.0
 10
-3.541864541
 20
-7.671425659
 30
0.0
 11
-3.9456149048
 21
-7.1809331942
 31
0.0
 11
-3.8245040048
 21
-7.2612948165
 31
0.0
 11
-3.7116137244
 21
-7.3756822041
 31
0.0
 11
-3.541864541
 21
-7.671425659
 31
0.0
  0
SPLINE
  5
4D3
100
AcDbEntity
  8
RACCORDO
100
AcDbSpline
 62
253
  6
CONTINUOUS
 70
0
 71
3
 72
9
 73
5
 74
3
 42
0.0000001
 43
0.0000001
 44
0.0000000001
 12
-0.1303464008
 22
-0.0665663636
 32
0.0
 13
0.0022062916
 23
-0.1463434223
 33
0.0
 40
0.0
 40
0.0
 40
0.0
 40
0.0
 40
0.489343516
 40
1.0
 40
1.0
 40
1.0
 40
1.0
 10
-3.8755331571
 20
-7.057706246
 30
0.0
 10
-3.8967945458
 20
-7.0685641854
 30
0.0
 10
-3.9308491456
 20
-7.1074179621
 30
0.0
 10
-3.9459904572
 20
-7.1560227883
 30
0.0
 10
-3.9456149048
 20
-7.1809331942
 30
0.0
 11
-3.8755331571
 21
-7.057706246
 31
0.0
 11
-3.9255944203
 21
-7.1089248306
 31
0.0
 11
-3.9456149048
 21
-7.1809331942
 31
0.0
  0
SPLINE
  5
4D4
100
AcDbEntity
  8
RACCORDO
100
AcDbSpline
 62
253
  6
CONTINUOUS
 70
0
 71
3
 72
9
 73
5
 74
3
 42
0.0000001
 43
0.0000001
 44
0.0000000001
 12
0.0419961122
 22
-0.1125239462
 32
0.0
 13
0.0279260938
 23
-0.1168137201
 33
0.0
 40
0.0
 40
0.0
 40
0.0
 40
0.0
 40
0.2533326683
 40
1.0
 40
1.0
 40
1.0
 40
1.0
 10
-3.541864541
 20
-7.671425659
 30
0.0
 10
-3.5383182119
 20
-7.6809276562
 30
0.0
 10
-3.5248749005
 20
-7.7186396958
 30
0.0
 10
-3.513669984
 20
-7.7571566655
 30
0.0
 10
-3.5067194833
 20
-7.7862303284
 30
0.0
 11
-3.541864541
 21
-7.671425659
 31
0.0
 11
-3.5316506065
 21
-7.7000866978
 31
0.0
 11
-3.5067194833
 21
-7.7862303284
 31
0.0
  0
SPLINE
  5
4D5
100
AcDbEntity
  8
RACCORDO
100
AcDbSpline
 62
253
  6
CONTINUOUS
 70
0
 71
3
 72
10
 73
6
 74
4
 42
0.0000001
 43
0.0000001
 44
0.0000000001
 12
-0.1246588821
 22
-0.0652402232
 32
0.0
 13
-0.139116421
 23
-0.0210415072
 33
0.0
 40
0.0
 40
0.0
 40
0.0
 40
0.0
 40
0.5256380714
 40
0.7890222736
 40
1.0
 40
1.0
 40
1.0
 40
1.0
 10
-3.409427568
 20
-7.6250867443
 30
0.0
 10
-3.4312693862
 20
-7.6365176594
 30
0.0
 10
-3.4656893431
 20
-7.650591913
 30
0.0
 10
-3.5103797754
 20
-7.6647677201
 30
0.0
 10
-3.5320810406
 20
-7.6699458898
 30
0.0
 10
-3.5418645294
 20
-7.6714256529
 30
0.0
 11
-3.409427568
 21
-7.6250867443
 31
0.0
 11
-3.4775033822
 21
-7.6539876277
 31
0.0
 11
-3.5128765514
 21
-7.665033917
 31
0.0
 11
-3.5418645294
 21
-7.6714256529
 31
0.0
  0
LINE
  5
4D6
100
AcDbEntity
  8
RACCORDO
100
AcDbLine
 62
253
  6
CONTINUOUS
 10
-3.369045977
 20
-7.7578177479
 11
-3.3616948417
 21
-7.7886887346
  0
SPLINE
  5
4D7
100
AcDbEntity
  8
RACCORDO
100
AcDbSpline
 62
253
  6
CONTINUOUS
 70
0
 71
3
 72
11
 73
7
 74
5
 42
0.0000001
 43
0.0000001
 44
0.0000000001
 12
1.1015641408
 22
-4.7513490764
 32
0.0
 13
-1.0291059441
 23
-4.7675677822
 33
0.0
 40
0.0
 40
0.0
 40
0.0
 40
0.0
 40
0.2758175869
 40
0.536256219
 40
0.7782748624
 40
1.0
 40
1.0
 40
1.0
 40
1.0
 10
-3.3434683164
 20
-7.866425499
 30
0.0
 10
-3.2421913954
 20
-8.3032607112
 30
0.0
 10
-3.0806275381
 20
-9.1613465655
 30
0.0
 10
-2.9623253686
 20
-10.4231366502
 30
0.0
 10
-2.9754520027
 20
-11.6027027139
 30
0.0
 10
-3.0767710259
 20
-12.352668064
 30
0.0
 10
-3.1528305783
 20
-12.7050312715
 30
0.0
 11
-3.3434683164
 21
-7.866425499
 31
0.0
 11
-3.097170931
 21
-9.1889517765
 31
0.0
 11
-2.9824920487
 21
-10.4540207715
 31
0.0
 11
-3.0011255582
 21
-11.6342887456
 31
0.0
 11
-3.1528305783
 21
-12.7050312715
 31
0.0
  0
SPLINE
  5
4D8
100
AcDbEntity
  8
RACCORDO
100
AcDbSpline
 62
253
  6
CONTINUOUS
 70
0
 71
3
 72
11
 73
7
 74
5
 42
0.0000001
 43
0.0000001
 44
0.0000000001
 12
1.1495144532
 22
-4.8074363493
 32
0.0
 13
-1.0377897811
 23
-4.8327859565
 33
0.0
 40
0.0
 40
0.0
 40
0.0
 40
0.0
 40
0.2760717701
 40
0.5366982864
 40
0.7786717028
 40
1.0
 40
1.0
 40
1.0
 40
1.0
 10
-3.5067194833
 20
-7.7862303284
 30
0.0
 10
-3.4009366533
 20
-8.2286294826
 30
0.0
 10
-3.2315310836
 20
-9.0979425175
 30
0.0
 10
-3.10473195
 20
-10.3767366373
 30
0.0
 10
-3.1130263339
 20
-11.5718409391
 30
0.0
 10
-3.2137014862
 20
-12.3315152489
 30
0.0
 10
-3.2902655679
 20
-12.6880593445
 30
0.0
 11
-3.5067194833
 21
-7.7862303284
 31
0.0
 11
-3.248355273
 21
-9.126159843
 31
0.0
 11
-3.1252507475
 21
-10.4085302862
 31
0.0
 11
-3.1392767534
 21
-11.6045123293
 31
0.0
 11
-3.2902655679
 21
-12.6880593445
 31
0.0
  0
SPLINE
  5
4D9
100
AcDbEntity
  8
RACCORDO
100
AcDbSpline
 62
253
  6
CONTINUOUS
 70
0
 71
3
 72
8
 73
4
 74
2
 42
0.0000001
 43
0.0000001
 44
0.0000000001
 12
-0.0130528368
 22
-0.0068280748
 32
0.0
 13
-0.0135379779
 23
-0.0058070913
 33
0.0
 40
0.0
 40
0.0
 40
0.0
 40
0.0
 40
1.0
 40
1.0
 40
1.0
 40
1.0
 10
-3.3690460112
 20
-7.7578177435
 30
0.0
 10
-3.3733969568
 20
-7.7600937684
 30
0.0
 10
-3.3778535875
 20
-7.7621725534
 30
0.0
 10
-3.3823662468
 20
-7.7641082505
 30
0.0
 11
-3.3690460112
 21
-7.7578177435
 31
0.0
 11
-3.3823662468
 21
-7.7641082505
 31
0.0
  0
SPLINE
  5
4DA
100
AcDbEntity
  8
RACCORDO
100
AcDbSpline
 62
253
  6
CONTINUOUS
 70
0
 71
3
 72
9
 73
5
 74
3
 42
0.0000001
 43
0.0000001
 44
0.0000000001
 12
-0.0774872308
 22
-0.0332380086
 32
0.0
 13
-0.0837363286
 23
-0.0098622225
 33
0.0
 40
0.0
 40
0.0
 40
0.0
 40
0.0
 40
0.239765667
 40
1.0
 40
1.0
 40
1.0
 40
1.0
 10
-3.3823662468
 20
-7.7641082505
 30
0.0
 10
-3.3885591726
 20
-7.766764695
 30
0.0
 10
-3.4148586009
 20
-7.7767091401
 30
0.0
 10
-3.4425278408
 20
-7.7830643583
 30
0.0
 10
-3.4637475847
 20
-7.7855635584
 30
0.0
 11
-3.3823662468
 21
-7.7641082505
 31
0.0
 11
-3.4012493197
 21
-7.7713270321
 31
0.0
 11
-3.4637475847
 21
-7.7855635584
 31
0.0
  0
SPLINE
  5
4DB
100
AcDbEntity
  8
RACCORDO
100
AcDbSpline
 62
253
  6
CONTINUOUS
 70
0
 71
3
 72
9
 73
5
 74
3
 42
0.0000001
 43
0.0000001
 44
0.0000000001
 12
-0.042732407
 22
-0.0050328993
 32
0.0
 13
-0.0426803989
 23
0.005456394
 33
0.0
 40
0.0
 40
0.0
 40
0.0
 40
0.0
 40
0.2793430315
 40
1.0
 40
1.0
 40
1.0
 40
1.0
 10
-3.4637475847
 20
-7.7855635584
 30
0.0
 10
-3.4677265848
 20
-7.7860321935
 30
0.0
 10
-3.481996345
 20
-7.7873637113
 30
0.0
 10
-3.4964668329
 20
-7.7875410536
 30
0.0
 10
-3.5067194752
 20
-7.7862303241
 30
0.0
 11
-3.4637475847
 21
-7.7855635584
 31
0.0
 11
-3.4757145642
 21
-7.7866860307
 31
0.0
 11
-3.5067194752
 21
-7.7862303241
 31
0.0
  0
SPLINE
  5
4DC
100
AcDbEntity
  8
RACCORDO
100
AcDbSpline
 62
253
  6
CONTINUOUS
 70
0
 71
3
 72
9
 73
5
 74
3
 42
0.0000001
 43
0.0000001
 44
0.0000000001
 12
-0.0166050065
 22
-0.0737266381
 32
0.0
 13
-0.0295452545
 23
-0.0695587618
 33
0.0
 40
0.0
 40
0.0
 40
0.0
 40
0.0
 40
0.2579407347
 40
1.0
 40
1.0
 40
1.0
 40
1.0
 10
-3.1528305783
 20
-12.7050312715
 30
0.0
 10
-3.1542582808
 20
-12.7113703059
 30
0.0
 10
-3.1602972065
 20
-12.7358271672
 30
0.0
 10
-3.1684097898
 20
-12.7597911571
 30
0.0
 10
-3.1757178998
 20
-12.7769967317
 30
0.0
 11
-3.1528305783
 21
-12.7050312715
 31
0.0
 11
-3.1575116182
 21
-12.7239543551
 31
0.0
 11
-3.1757178998
 21
-12.7769967317
 31
0.0
  0
SPLINE
  5
4DD
100
AcDbEntity
  8
RACCORDO
100
AcDbSpline
 62
253
  6
CONTINUOUS
 70
0
 71
3
 72
9
 73
5
 74
3
 42
0.0000001
 43
0.0000001
 44
0.0000000001
 12
-0.0347342224
 22
-0.081775214
 32
0.0
 13
-0.0560354656
 23
-0.0689469247
 33
0.0
 40
0.0
 40
0.0
 40
0.0
 40
0.0
 40
0.2595918344
 40
1.0
 40
1.0
 40
1.0
 40
1.0
 10
-3.1757178998
 20
-12.7769967317
 30
0.0
 10
-3.1787234733
 20
-12.7840727909
 30
0.0
 10
-3.1911354653
 20
-12.8109610577
 30
0.0
 10
-3.2071179023
 20
-12.8362656974
 30
0.0
 10
-3.2209476077
 20
-12.8532819861
 30
0.0
 11
-3.1757178998
 21
-12.7769967317
 31
0.0
 11
-3.1854081817
 21
-12.7979260226
 31
0.0
 11
-3.2209476077
 21
-12.8532819861
 31
0.0
  0
SPLINE
  5
4DE
100
AcDbEntity
  8
RACCORDO
100
AcDbSpline
 62
253
  6
CONTINUOUS
 70
0
 71
3
 72
8
 73
4
 74
2
 42
0.0000001
 43
0.0000001
 44
0.0000000001
 12
-0.0533078891
 22
-0.049501646
 32
0.0
 13
-0.065430167
 23
-0.0317968118
 33
0.0
 40
0.0
 40
0.0
 40
0.0
 40
0.0
 40
1.0
 40
1.0
 40
1.0
 40
1.0
 10
-3.2463416685
 20
-12.8804599676
 30
0.0
 10
-3.2641109649
 20
-12.8969605162
 30
0.0
 10
-3.2845167291
 20
-12.911018409
 30
0.0
 10
-3.3063267848
 20
-12.9216173463
 30
0.0
 11
-3.2463416685
 21
-12.8804599676
 31
0.0
 11
-3.3063267848
 21
-12.9216173463
 31
0.0
  0
SPLINE
  5
4DF
100
AcDbEntity
  8
RACCORDO
100
AcDbSpline
 62
253
  6
CONTINUOUS
 70
0
 71
3
 72
9
 73
5
 74
3
 42
0.0000001
 43
0.0000001
 44
0.0000000001
 12
-0.029453569
 22
-0.1369470877
 32
0.0
 13
-0.0874077488
 23
-0.1094618793
 33
0.0
 40
0.0
 40
0.0
 40
0.0
 40
0.0
 40
0.268796618
 40
1.0
 40
1.0
 40
1.0
 40
1.0
 10
-3.2902655679
 20
-12.6880593445
 30
0.0
 10
-3.2929045745
 20
-12.7003296492
 30
0.0
 10
-3.3047717719
 20
-12.7454456042
 30
0.0
 10
-3.3259322768
 20
-12.7886244325
 30
0.0
 10
-3.3472365573
 20
-12.8153040646
 30
0.0
 11
-3.2902655679
 21
-12.6880593445
 31
0.0
 11
-3.2999557561
 21
-12.7244437209
 31
0.0
 11
-3.3472365573
 21
-12.8153040646
 31
0.0
  0
SPLINE
  5
4E0
100
AcDbEntity
  8
RACCORDO
100
AcDbSpline
 62
253
  6
CONTINUOUS
 70
0
 71
3
 72
9
 73
5
 74
3
 42
0.0000001
 43
0.0000001
 44
0.0000000001
 12
-0.0588645946
 22
-0.0737169099
 32
0.0
 13
-0.0847489479
 23
-0.0414347577
 33
0.0
 40
0.0
 40
0.0
 40
0.0
 40
0.0
 40
0.2557329586
 40
1.0
 40
1.0
 40
1.0
 40
1.0
 10
-3.3472365573
 20
-12.8153040646
 30
0.0
 10
-3.3522544296
 20
-12.8215880125
 30
0.0
 10
-3.3730954281
 20
-12.8451570743
 30
0.0
 10
-3.3991947394
 20
-12.8641085842
 30
0.0
 10
-3.4202200223
 20
-12.8743880923
 30
0.0
 11
-3.3472365573
 21
-12.8153040646
 31
0.0
 11
-3.3632577802
 21
-12.8333407994
 31
0.0
 11
-3.4202200223
 21
-12.8743880923
 31
0.0
  0
SPLINE
  5
4E1
100
AcDbEntity
  8
RACCORDO
100
AcDbSpline
 62
253
  6
CONTINUOUS
 70
0
 71
3
 72
9
 73
5
 74
3
 42
0.0000001
 43
0.0000001
 44
0.0000000001
 12
-0.1181510549
 22
-0.0577654408
 32
0.0
 13
-0.1310022858
 23
0.011615466
 33
0.0
 40
0.0
 40
0.0
 40
0.0
 40
0.0
 40
0.4825895872
 40
1.0
 40
1.0
 40
1.0
 40
1.0
 10
-3.4202200223
 20
-12.8743880923
 30
0.0
 10
-3.4392261786
 20
-12.8836804257
 30
0.0
 10
-3.4817887714
 20
-12.8968820131
 30
0.0
 10
-3.5261407587
 20
-12.8977940639
 30
0.0
 10
-3.548734741
 20
-12.8957907429
 30
0.0
 11
-3.4202200223
 21
-12.8743880923
 31
0.0
 11
-3.4807234437
 21
-12.8935601795
 31
0.0
 11
-3.548734741
 21
-12.8957907429
 31
0.0
  0
SPLINE
  5
4E2
100
AcDbEntity
  8
RACCORDO
100
AcDbSpline
 62
253
  6
CONTINUOUS
 70
0
 71
3
 72
9
 73
5
 74
3
 42
0.0000001
 43
0.0000001
 44
0.0000000001
 12
-0.0360373509
 22
0.0031952925
 32
0.0
 13
-0.03547479
 23
0.0071021002
 33
0.0
 40
0.0
 40
0.0
 40
0.0
 40
0.0
 40
0.2453172519
 40
1.0
 40
1.0
 40
1.0
 40
1.0
 10
-3.548734741
 20
-12.8957907429
 30
0.0
 10
-3.5516816022
 20
-12.8955294561
 30
0.0
 10
-3.5636783626
 20
-12.8942917745
 30
0.0
 10
-3.5756031981
 20
-12.8923757409
 30
0.0
 10
-3.5845272688
 20
-12.8905891301
 30
0.0
 11
-3.548734741
 21
-12.8957907429
 31
0.0
 11
-3.5575632983
 21
-12.8948813832
 31
0.0
 11
-3.5845272688
 21
-12.8905891301
 31
0.0
  0
SPLINE
  5
4E3
100
AcDbEntity
  8
RACCORDO
100
AcDbSpline
 62
253
  6
CONTINUOUS
 70
0
 71
3
 72
9
 73
5
 74
3
 42
0.0000001
 43
0.0000001
 44
0.0000000001
 12
-0.0757651481
 22
0.0151682836
 32
0.0
 13
-0.071683964
 23
0.0288417025
 33
0.0
 40
0.0
 40
0.0
 40
0.0
 40
0.0
 40
0.2408220317
 40
1.0
 40
1.0
 40
1.0
 40
1.0
 10
-3.5845272688
 20
-12.8905891301
 30
0.0
 10
-3.5906092411
 20
-12.8893715111
 30
0.0
 10
-3.6157308988
 20
-12.883655963
 30
0.0
 10
-3.6402599129
 20
-12.8754502302
 30
0.0
 10
-3.6584002083
 20
-12.8681515685
 30
0.0
 11
-3.5845272688
 21
-12.8905891301
 31
0.0
 11
-3.6026745679
 21
-12.8864742324
 31
0.0
 11
-3.6584002083
 21
-12.8681515685
 31
0.0
  0
SPLINE
  5
4E4
100
AcDbEntity
  8
RACCORDO
100
AcDbSpline
 62
253
  6
CONTINUOUS
 70
0
 71
3
 72
9
 73
5
 74
3
 42
0.0000001
 43
0.0000001
 44
0.0000000001
 12
-0.1258119081
 22
-0.0701825717
 32
0.0
 13
-0.1104482122
 23
0.0924955243
 33
0.0
 40
0.0
 40
0.0
 40
0.0
 40
0.0
 40
0.4881716157
 40
1.0
 40
1.0
 40
1.0
 40
1.0
 10
-3.1528511099
 20
-12.7050130189
 30
0.0
 10
-3.1733237107
 20
-12.7164333987
 30
0.0
 10
-3.2244182336
 20
-12.7225686849
 30
0.0
 10
-3.271421759
 20
-12.7038397754
 30
0.0
 10
-3.290265269
 20
-12.6880591638
 30
0.0
 11
-3.1528511099
 21
-12.7050130189
 31
0.0
 11
-3.2222345705
 21
-12.7164981194
 31
0.0
 11
-3.290265269
 21
-12.6880591638
 31
0.0
  0
SPLINE
  5
4E5
100
AcDbEntity
  8
RACCORDO
100
AcDbSpline
 62
253
  6
CONTINUOUS
 70
0
 71
3
 72
9
 73
5
 74
3
 42
0.0000001
 43
0.0000001
 44
0.0000000001
 12
-0.0801360715
 22
0.0400942975
 32
0.0
 13
-0.0737400258
 23
0.0509092451
 33
0.0
 40
0.0
 40
0.0
 40
0.0
 40
0.0
 40
0.2417632768
 40
1.0
 40
1.0
 40
1.0
 40
1.0
 10
-11.8919811495
 20
-8.7532330652
 30
0.0
 10
-11.8984391359
 20
-8.7500019557
 30
0.0
 10
-11.924889488
 20
-8.7361167945
 30
0.0
 10
-11.9502944243
 20
-8.720270082
 30
0.0
 10
-11.9689318895
 20
-8.7074029956
 30
0.0
 11
-11.8919811495
 21
-8.7532330652
 31
0.0
 11
-11.9111674795
 21
-8.7431734599
 31
0.0
 11
-11.9689318895
 21
-8.7074029956
 31
0.0
  0
SPLINE
  5
4E6
100
AcDbEntity
  8
RACCORDO
100
AcDbSpline
 62
253
  6
CONTINUOUS
 70
0
 71
3
 72
9
 73
5
 74
3
 42
0.0000001
 43
0.0000001
 44
0.0000000001
 12
-0.476074122
 22
0.3286759652
 32
0.0
 13
-0.2197863962
 23
0.5351340017
 33
0.0
 40
0.0
 40
0.0
 40
0.0
 40
0.0
 40
0.4842104979
 40
1.0
 40
1.0
 40
1.0
 40
1.0
 10
-11.9689318895
 20
-8.7074029956
 30
0.0
 10
-12.0457719187
 20
-8.6543535446
 30
0.0
 10
-12.1841385336
 20
-8.515228621
 30
0.0
 10
-12.2822001811
 20
-8.3465625641
 30
0.0
 10
-12.3199880197
 20
-8.254557064
 30
0.0
 11
-11.9689318895
 21
-8.7074029956
 31
0.0
 11
-12.1703191589
 21
-8.5126958392
 31
0.0
 11
-12.3199880197
 21
-8.254557064
 31
0.0
  0
SPLINE
  5
4E7
100
AcDbEntity
  8
RACCORDO
100
AcDbSpline
 62
253
  6
CONTINUOUS
 70
0
 71
3
 72
9
 73
5
 74
3
 42
0.0000001
 43
0.0000001
 44
0.0000000001
 12
-0.0397760418
 22
0.0968463599
 32
0.0
 13
-0.029416407
 23
0.1004789825
 33
0.0
 40
0.0
 40
0.0
 40
0.0
 40
0.0
 40
0.2539333852
 40
1.0
 40
1.0
 40
1.0
 40
1.0
 10
-12.3199880197
 20
-8.254557064
 30
0.0
 10
-12.3233548413
 20
-8.246359556
 30
0.0
 10
-12.3362064153
 20
-8.2139124263
 30
0.0
 10
-12.3474214763
 20
-8.1808116285
 30
0.0
 10
-12.3547370094
 20
-8.1558236238
 30
0.0
 11
-12.3199880197
 21
-8.254557064
 31
0.0
 11
-12.3297762028
 21
-8.2298385871
 31
0.0
 11
-12.3547370094
 21
-8.1558236238
 31
0.0
  0
LINE
  5
4E8
100
AcDbEntity
  8
RACCORDO
100
AcDbLine
 62
253
  6
CONTINUOUS
 10
-12.3547370094
 20
-8.1558236238
 11
-12.3606060159
 21
-8.1357044127
  0
SPLINE
  5
4E9
100
AcDbEntity
  8
RACCORDO
100
AcDbSpline
 62
253
  6
CONTINUOUS
 70
0
 71
3
 72
9
 73
5
 74
3
 42
0.0000001
 43
0.0000001
 44
0.0000000001
 12
-1.3727422333
 22
4.7202661365
 32
0.0
 13
1.2815811369
 23
4.7458280024
 33
0.0
 40
0.0
 40
0.0
 40
0.0
 40
0.0
 40
0.272872546
 40
1.0
 40
1.0
 40
1.0
 40
1.0
 10
-12.3606060159
 20
-8.1357044127
 30
0.0
 10
-12.4854672386
 20
-7.7063607333
 30
0.0
 10
-12.8601432665
 20
-6.1145030847
 30
0.0
 10
-12.8782374574
 20
-4.4060574238
 30
0.0
 10
-12.567613181
 20
-3.2557834795
 30
0.0
 11
-12.3606060159
 21
-8.1357044127
 31
0.0
 11
-12.6633939629
 21
-6.828931158
 31
0.0
 11
-12.567613181
 21
-3.2557834795
 31
0.0
  0
SPLINE
  5
4EA
100
AcDbEntity
  8
RACCORDO
100
AcDbSpline
 62
253
  6
CONTINUOUS
 70
0
 71
3
 72
9
 73
5
 74
3
 42
0.0000001
 43
0.0000001
 44
0.0000000001
 12
-0.049129345
 22
0.0245639498
 32
0.0
 13
-0.0041754267
 23
0.0547690239
 33
0.0
 40
0.0
 40
0.0
 40
0.0
 40
0.0
 40
0.4554807253
 40
1.0
 40
1.0
 40
1.0
 40
1.0
 10
-11.8662811631
 20
-8.7997139066
 30
0.0
 10
-11.8737403197
 20
-8.795984438
 30
0.0
 10
-11.8871303023
 20
-8.7816365812
 30
0.0
 10
-11.8912232827
 20
-8.763173995
 30
0.0
 10
-11.8919811495
 20
-8.7532330653
 30
0.0
 11
-11.8662811631
 21
-8.7997139066
 31
0.0
 11
-11.8840092965
 21
-8.7820604407
 31
0.0
 11
-11.8919811495
 21
-8.7532330653
 31
0.0
  0
SPLINE
  5
4EB
100
AcDbEntity
  8
RACCORDO
100
AcDbSpline
 62
253
  6
CONTINUOUS
 70
0
 71
3
 72
9
 73
5
 74
3
 42
0.0000001
 43
0.0000001
 44
0.0000000001
 12
-0.0491299109
 22
0.0245635911
 32
0.0
 13
-0.0041754577
 23
0.0547693683
 33
0.0
 40
0.0
 40
0.0
 40
0.0
 40
0.0
 40
0.4554804224
 40
1.0
 40
1.0
 40
1.0
 40
1.0
 10
-3.6710760458
 20
-12.8973164667
 30
0.0
 10
-3.6785352833
 20
-12.8935870551
 30
0.0
 10
-3.6919254351
 20
-12.8792391521
 30
0.0
 10
-3.6960184912
 20
-12.8607764557
 30
0.0
 10
-3.696776364
 20
-12.850835458
 30
0.0
 11
-3.6710760458
 21
-12.8973164667
 31
0.0
 11
-3.6888043894
 21
-12.8796630123
 31
0.0
 11
-3.696776364
 21
-12.850835458
 31
0.0
  0
SPLINE
  5
4EC
100
AcDbEntity
  8
RACCORDO
100
AcDbSpline
 62
253
  6
CONTINUOUS
 70
0
 71
3
 72
9
 73
5
 74
3
 42
0.0000001
 43
0.0000001
 44
0.0000000001
 12
0.0154054023
 22
0.0570586854
 32
0.0
 13
0.0237824494
 23
0.0541055921
 33
0.0
 40
0.0
 40
0.0
 40
0.0
 40
0.0
 40
0.2563458951
 40
1.0
 40
1.0
 40
1.0
 40
1.0
 10
-12.567613181
 20
-3.2557834795
 30
0.0
 10
-12.5662968104
 20
-3.2509078929
 30
0.0
 10
-12.5608309344
 20
-3.2319802777
 30
0.0
 10
-12.5540089771
 20
-3.2134356574
 30
0.0
 10
-12.5481136717
 20
-3.2000237088
 30
0.0
 11
-12.567613181
 21
-3.2557834795
 31
0.0
 11
-12.5634053882
 21
-3.2412290278
 31
0.0
 11
-12.5481136717
 21
-3.2000237088
 31
0.0
  0
SPLINE
  5
4ED
100
AcDbEntity
  8
RACCORDO
100
AcDbSpline
 62
253
  6
CONTINUOUS
 70
0
 71
3
 72
9
 73
5
 74
3
 42
0.0000001
 43
0.0000001
 44
0.0000000001
 12
0.0261592316
 22
0.0480789794
 32
0.0
 13
0.0345697728
 23
0.0424361222
 33
0.0
 40
0.0
 40
0.0
 40
0.0
 40
0.0
 40
0.2556759908
 40
1.0
 40
1.0
 40
1.0
 40
1.0
 10
-12.5356369957
 20
-3.1745394317
 30
0.0
 10
-12.5334075665
 20
-3.1704418848
 30
0.0
 10
-12.5243435716
 20
-3.1546066837
 30
0.0
 10
-12.5138648614
 20
-3.1395701648
 30
0.0
 10
-12.5052878241
 20
-3.1290414232
 30
0.0
 11
-12.5356369957
 21
-3.1745394317
 31
0.0
 11
-12.5286801945
 21
-3.1623967333
 31
0.0
 11
-12.5052878241
 21
-3.1290414232
 31
0.0
  0
SPLINE
  5
4EE
100
AcDbEntity
  8
RACCORDO
100
AcDbSpline
 62
253
  6
CONTINUOUS
 70
0
 71
3
 72
9
 73
5
 74
3
 42
0.0000001
 43
0.0000001
 44
0.0000000001
 12
0.0527429279
 22
0.0613921984
 32
0.0
 13
0.0698064184
 23
0.0409619631
 33
0.0
 40
0.0
 40
0.0
 40
0.0
 40
0.0
 40
0.2551974478
 40
1.0
 40
1.0
 40
1.0
 40
1.0
 10
-12.5007656769
 20
-3.1236357499
 30
0.0
 10
-12.4962790567
 20
-3.1184133725
 30
0.0
 10
-12.4779223818
 20
-3.0986330736
 30
0.0
 10
-12.4563278906
 20
-3.0818230379
 30
0.0
 10
-12.4389972244
 20
-3.071653513
 30
0.0
 11
-12.5007656769
 21
-3.1236357499
 31
0.0
 11
-12.4866990383
 21
-3.1085110495
 31
0.0
 11
-12.4389972244
 21
-3.071653513
 31
0.0
  0
SPLINE
  5
4EF
100
AcDbEntity
  8
RACCORDO
100
AcDbSpline
 62
253
  6
CONTINUOUS
 70
0
 71
3
 72
11
 73
7
 74
5
 42
0.0000001
 43
0.0000001
 44
0.0000000001
 12
0.2647626509
 22
0.1364242771
 32
0.0
 13
0.2663895822
 23
-0.1332195
 33
0.0
 40
0.0
 40
0.0
 40
0.0
 40
0.0
 40
0.2255147487
 40
0.4623782482
 40
0.7189852344
 40
1.0
 40
1.0
 40
1.0
 40
1.0
 10
-12.4277973187
 20
-3.0654879062
 30
0.0
 10
-12.4078946911
 20
-3.0552326773
 30
0.0
 10
-12.3637597901
 20
-3.0401454332
 30
0.0
 10
-12.2917154423
 20
-3.0363736098
 30
0.0
 10
-12.2155592285
 20
-3.050693696
 30
0.0
 10
-12.1657728256
 20
-3.0708519193
 30
0.0
 10
-12.1408196903
 20
-3.0833308014
 30
0.0
 11
-12.4277973187
 21
-3.0654879062
 31
0.0
 11
-12.364320502
 21
-3.0435276587
 31
0.0
 11
-12.2939065641
 21
-3.0391757933
 31
0.0
 11
-12.2186606535
 21
-3.052570151
 31
0.0
 11
-12.1408196903
 21
-3.0833308014
 31
0.0
  0
SPLINE
  5
4F0
100
AcDbEntity
  8
RACCORDO
100
AcDbSpline
 62
253
  6
CONTINUOUS
 70
0
 71
3
 72
9
 73
5
 74
3
 42
0.0000001
 43
0.0000001
 44
0.0000000001
 12
-0.1303463997
 22
-0.0665663659
 32
0.0
 13
0.0022062877
 23
-0.1463434224
 33
0.0
 40
0.0
 40
0.0
 40
0.0
 40
0.0
 40
0.4893432915
 40
1.0
 40
1.0
 40
1.0
 40
1.0
 10
-12.0707379425
 20
-2.9601038532
 30
0.0
 10
-12.0919993213
 20
-2.9709617881
 30
0.0
 10
-12.126053925
 20
-3.0098155573
 30
0.0
 10
-12.1411952421
 20
-3.0584203847
 30
0.0
 10
-12.1408196903
 20
-3.0833308014
 30
0.0
 11
-12.0707379425
 21
-2.9601038532
 31
0.0
 11
-12.1207991889
 21
-3.0113224085
 31
0.0
 11
-12.1408196903
 21
-3.0833308014
 31
0.0
  0
SPLINE
  5
4F1
100
AcDbEntity
  8
RACCORDO
100
AcDbSpline
 62
253
  6
CONTINUOUS
 70
0
 71
3
 72
9
 73
5
 74
3
 42
0.0000001
 43
0.0000001
 44
0.0000000001
 12
0.1226399576
 22
0.0624788044
 32
0.0
 13
0.137637438
 23
-0.0003096155
 33
0.0
 40
0.0
 40
0.0
 40
0.0
 40
0.0
 40
0.2448382794
 40
1.0
 40
1.0
 40
1.0
 40
1.0
 10
-12.4017650483
 20
-2.9390500854
 30
0.0
 10
-12.3917560629
 20
-2.9339510177
 30
0.0
 10
-12.3495977836
 20
-2.9156500946
 30
0.0
 10
-12.3029902209
 20
-2.9083445722
 30
0.0
 10
-12.268344046
 20
-2.9084225088
 30
0.0
 11
-12.4017650483
 21
-2.9390500854
 31
0.0
 11
-12.370845426
 21
-2.9256486125
 31
0.0
 11
-12.268344046
 21
-2.9084225088
 31
0.0
  0
SPLINE
  5
4F2
100
AcDbEntity
  8
RACCORDO
100
AcDbSpline
 62
253
  6
CONTINUOUS
 70
0
 71
3
 72
9
 73
5
 74
3
 42
0.0000001
 43
0.0000001
 44
0.0000000001
 12
0.1290139095
 22
-0.0002902169
 32
0.0
 13
0.1223516202
 23
-0.0409237597
 33
0.0
 40
0.0
 40
0.0
 40
0.0
 40
0.0
 40
0.2387667072
 40
1.0
 40
1.0
 40
1.0
 40
1.0
 10
-12.268344046
 20
-2.9084225088
 30
0.0
 10
-12.2580759706
 20
-2.9084456069
 30
0.0
 10
-12.2150786772
 20
-2.9105045177
 30
0.0
 10
-12.1726077432
 20
-2.920139475
 30
0.0
 10
-12.1415617009
 20
-2.9305236511
 30
0.0
 11
-12.268344046
 21
-2.9084225088
 31
0.0
 11
-12.2375733338
 21
-2.9098607125
 31
0.0
 11
-12.1415617009
 21
-2.9305236511
 31
0.0
  0
SPLINE
  5
4F3
100
AcDbEntity
  8
RACCORDO
100
AcDbSpline
 62
7
  6
CONTINUOUS
 70
0
 71
3
 72
11
 73
7
 74
5
 42
0.0000001
 43
0.0000001
 44
0.0000000001
 12
0.0000633444
 22
-0.1403599084
 32
0.0
 13
-0.1245507823
 23
-0.0647148401
 33
0.0
 40
0.0
 40
0.0
 40
0.0
 40
0.0
 40
0.2670645357
 40
0.5217617922
 40
0.7641497217
 40
1.0
 40
1.0
 40
1.0
 40
1.0
 10
28.1639333498
 20
17.1350592413
 30
0.0
 10
28.1639389889
 20
17.12256419
 30
0.0
 10
28.1621218595
 20
17.0980813057
 30
0.0
 10
28.1523726665
 20
17.0633616013
 30
0.0
 10
28.1343786452
 20
17.033537981
 30
0.0
 10
28.1163751506
 20
17.0192238466
 30
0.0
 10
28.1065833717
 20
17.0141361755
 30
0.0
 11
28.1639333498
 21
17.1350592413
 31
0.0
 11
28.1608108458
 21
17.097704362
 31
0.0
 11
28.1506766879
 21
17.0634215619
 31
0.0
 11
28.1326094322
 21
17.0345937939
 31
0.0
 11
28.1065833717
 21
17.0141361755
 31
0.0
  0
SPLINE
  5
4F4
100
AcDbEntity
  8
RACCORDO
100
AcDbSpline
 62
7
  6
CONTINUOUS
 70
0
 71
3
 72
9
 73
5
 74
3
 42
0.0000001
 43
0.0000001
 44
0.0000000001
 12
0.0000089992
 22
0.0020193724
 32
0.0
 13
-0.0018034028
 23
0.0009086716
 33
0.0
 40
0.0
 40
0.0
 40
0.0
 40
0.0
 40
0.4967432546
 40
1.0
 40
1.0
 40
1.0
 40
1.0
 10
28.1639333498
 20
-17.2511811604
 30
0.0
 10
28.1639348399
 20
-17.2508467905
 30
0.0
 10
28.163790107
 20
-17.2501420797
 30
0.0
 10
28.1632298718
 20
-17.2496874423
 30
0.0
 10
28.1629273469
 20
-17.2495350106
 30
0.0
 11
28.1639333498
 21
-17.2511811604
 31
0.0
 11
28.1636885229
 21
-17.2502083764
 31
0.0
 11
28.1629273469
 21
-17.2495350106
 31
0.0
  0
SPLINE
  5
4F5
100
AcDbEntity
  8
RACCORDO
100
AcDbSpline
 62
7
  6
CONTINUOUS
 70
0
 71
3
 72
11
 73
7
 74
5
 42
0.0000001
 43
0.0000001
 44
0.0000000001
 12
-0.1114421631
 22
0.0557644433
 32
0.0
 13
-0.1123107589
 23
-0.0539937244
 33
0.0
 40
0.0
 40
0.0
 40
0.0
 40
0.0
 40
0.2675053273
 40
0.5239515792
 40
0.7675805393
 40
1.0
 40
1.0
 40
1.0
 40
1.0
 10
27.7943572089
 20
-17.0652499416
 30
0.0
 10
27.7844200848
 20
-17.060277513
 30
0.0
 10
27.7642647026
 20
-17.0518160343
 30
0.0
 10
27.7329929498
 20
-17.0446441469
 30
0.0
 10
27.7022582669
 20
-17.0445424705
 30
0.0
 10
27.6829104271
 20
-17.0501671306
 30
0.0
 10
27.6742093584
 20
-17.0543501947
 30
0.0
 11
27.7943572089
 21
-17.0652499416
 31
0.0
 11
27.7635288921
 21
-17.0525669523
 31
0.0
 11
27.7323105548
 21
-17.0457348934
 31
0.0
 11
27.7019520521
 21
-17.0460313881
 31
0.0
 11
27.6742093584
 21
-17.0543501947
 31
0.0
  0
SPLINE
  5
4F6
100
AcDbEntity
  8
0
100
AcDbSpline
 62
7
  6
CONTINUOUS
 70
0
 71
3
 72
9
 73
5
 74
3
 42
0.0000001
 43
0.0000001
 44
0.0000000001
 12
0.0305149002
 22
0.0150400205
 32
0.0
 13
0.0317539986
 23
0.0122083956
 33
0.0
 40
0.0
 40
0.0
 40
0.0
 40
0.0
 40
0.2541764983
 40
1.0
 40
1.0
 40
1.0
 40
1.0
 10
22.4464969101
 20
20.4089134407
 30
0.0
 10
22.4490823003
 20
20.410187714
 30
0.0
 10
22.4593076879
 20
20.4150909074
 30
0.0
 10
22.4697495569
 20
20.4195453316
 30
0.0
 10
22.4776438497
 20
20.4225804344
 30
0.0
 11
22.4464969101
 21
20.4089134407
 31
0.0
 11
22.4542943926
 21
20.412651274
 31
0.0
 11
22.4776438497
 21
20.4225804344
 31
0.0
  0
SPLINE
  5
4F7
100
AcDbEntity
  8
0
100
AcDbSpline
 62
7
  6
CONTINUOUS
 70
0
 71
3
 72
11
 73
7
 74
5
 42
0.0000001
 43
0.0000001
 44
0.0000000001
 12
0.2436028876
 22
0.0908255081
 32
0.0
 13
0.2325383084
 23
-0.1162651061
 33
0.0
 40
0.0
 40
0.0
 40
0.0
 40
0.0
 40
0.2295811504
 40
0.4729475724
 40
0.7304501795
 40
1.0
 40
1.0
 40
1.0
 40
1.0
 10
16.8890663657
 20
23.2185114665
 30
0.0
 10
16.9077085761
 20
23.2254620747
 30
0.0
 10
16.948462875
 20
23.2338942303
 30
0.0
 10
17.0121808233
 20
23.2307594928
 30
0.0
 10
17.0772501652
 20
23.2143608028
 30
0.0
 10
17.1194278125
 20
23.1964023663
 30
0.0
 10
17.1403213656
 20
23.1859559535
 30
0.0
 11
16.8890663657
 21
23.2185114665
 31
0.0
 11
16.9473931408
 21
23.2311832454
 31
0.0
 11
17.0106199973
 21
23.2288106475
 31
0.0
 11
17.0756748056
 21
23.213008406
 31
0.0
 11
17.1403213656
 21
23.1859559535
 31
0.0
  0
SPLINE
  5
4F8
100
AcDbEntity
  8
0
100
AcDbSpline
 62
7
  6
CONTINUOUS
 70
0
 71
3
 72
11
 73
7
 74
5
 42
0.0000001
 43
0.0000001
 44
0.0000000001
 12
0.244487123
 22
0.0939974698
 32
0.0
 13
0.2342896368
 23
-0.1171231989
 33
0.0
 40
0.0
 40
0.0
 40
0.0
 40
0.0
 40
0.2294207512
 40
0.4726924147
 40
0.7302539212
 40
1.0
 40
1.0
 40
1.0
 40
1.0
 10
22.4776438497
 20
20.4225804344
 30
0.0
 10
22.4963406562
 20
20.4297687577
 30
0.0
 10
22.5373236086
 20
20.4386022922
 30
0.0
 10
22.6015304501
 20
20.4357428412
 30
0.0
 10
22.6671447161
 20
20.4193581378
 30
0.0
 10
22.7096722249
 20
20.4012785938
 30
0.0
 10
22.7307384619
 20
20.3907474193
 30
0.0
 11
22.4776438497
 21
20.4225804344
 31
0.0
 11
22.5362588874
 21
20.4358265825
 31
0.0
 11
22.5999461547
 21
20.4337489651
 31
0.0
 11
22.6655412133
 21
20.417978772
 31
0.0
 11
22.7307384619
 21
20.3907474193
 31
0.0
  0
SPLINE
  5
4F9
100
AcDbEntity
  8
0
100
AcDbSpline
 62
7
  6
CONTINUOUS
 70
0
 71
3
 72
11
 73
7
 74
5
 42
0.0000001
 43
0.0000001
 44
0.0000000001
 12
0.4119128158
 22
0.2030213819
 32
0.0
 13
0.410745665
 23
-0.2053724617
 33
0.0
 40
0.0
 40
0.0
 40
0.0
 40
0.0
 40
0.2788963795
 40
0.5348937977
 40
0.7725962252
 40
1.0
 40
1.0
 40
1.0
 40
1.0
 10
24.5698741323
 20
20.4208657809
 30
0.0
 10
24.6081677966
 20
20.4397397571
 30
0.0
 10
24.6847246274
 20
20.4702010251
 30
0.0
 10
24.8019472398
 20
20.4916465087
 30
0.0
 10
24.9132972604
 20
20.4856969596
 30
0.0
 10
24.9818387474
 20
20.4627925896
 30
0.0
 10
25.0129737857
 20
20.4472250986
 30
0.0
 11
24.5698741323
 21
20.4208657809
 31
0.0
 11
24.6892526851
 21
20.4672602467
 31
0.0
 11
24.8050802046
 21
20.4873745232
 31
0.0
 11
24.9140312387
 21
20.4806318171
 31
0.0
 11
25.0129737857
 21
20.4472250986
 31
0.0
  0
SPLINE
  5
4FA
100
AcDbEntity
  8
0
100
AcDbSpline
 62
7
  6
CONTINUOUS
 70
0
 71
3
 72
14
 73
10
 74
8
 42
0.0000001
 43
0.0000001
 44
0.0000000001
 12
0.0
 22
0.6310074925
 32
0.0
 13
-0.5643904628
 23
0.2821947219
 33
0.0
 40
0.0
 40
0.0
 40
0.0
 40
0.0
 40
0.2891514166
 40
0.4227191423
 40
0.5489645701
 40
0.6685092523
 40
0.7824374111
 40
0.8922923349
 40
1.0
 40
1.0
 40
1.0
 40
1.0
 10
21.0302264691
 20
22.0276718885
 30
0.0
 10
21.0302264691
 20
22.088490792
 30
0.0
 10
21.0226390687
 20
22.1778846642
 30
0.0
 10
20.993639032
 20
22.2898742971
 30
0.0
 10
20.9641871165
 20
22.364285411
 30
0.0
 10
20.9267770051
 20
22.4303568584
 30
0.0
 10
20.8817850575
 20
22.4872485845
 30
0.0
 10
20.8297445662
 20
22.5341535066
 30
0.0
 10
20.7905961582
 20
22.5584139307
 30
0.0
 10
20.7703330986
 20
22.5685454422
 30
0.0
 11
21.0302264691
 21
22.0276718885
 31
0.0
 11
21.0129481091
 21
22.2093086398
 31
0.0
 11
20.9915486523
 21
22.2908289348
 31
0.0
 11
20.9619574815
 21
22.3647908623
 31
0.0
 11
20.9245372645
 21
22.4302886019
 31
0.0
 11
20.8797465767
 21
22.4865193553
 31
0.0
 11
20.8281343526
 21
22.5327939801
 31
0.0
 11
20.7703330986
 21
22.5685454422
 31
0.0
  0
SPLINE
  5
4FB
100
AcDbEntity
  8
0
100
AcDbSpline
 62
7
  6
CONTINUOUS
 70
0
 71
3
 72
13
 73
9
 74
7
 42
0.0000001
 43
0.0000001
 44
0.0000000001
 12
0.3364743548
 22
0.4066031681
 32
0.0
 13
-0.2177018024
 23
0.4807775504
 33
0.0
 40
0.0
 40
0.0
 40
0.0
 40
0.0
 40
0.0981979478
 40
0.2040361348
 40
0.3185604286
 40
0.441845736
 40
0.7108959592
 40
1.0
 40
1.0
 40
1.0
 40
1.0
 10
23.0853377718
 20
19.1368279139
 30
0.0
 10
23.0963514688
 20
19.1501371127
 30
0.0
 10
23.1160060696
 20
19.1805652326
 30
0.0
 10
23.1366021788
 20
19.2329969387
 30
0.0
 10
23.1489963757
 20
19.2924273387
 30
0.0
 10
23.1544186035
 20
19.3816832923
 30
0.0
 10
23.1386227372
 20
19.5016451469
 30
0.0
 10
23.106317262
 20
19.5950747229
 30
0.0
 10
23.0853377718
 20
19.6414063004
 30
0.0
 11
23.0853377718
 21
19.1368279139
 31
0.0
 11
23.1137731032
 21
19.1801564103
 31
0.0
 11
23.1345874158
 21
19.231991771
 31
0.0
 11
23.1472812365
 21
19.2910862759
 31
0.0
 11
23.1515468126
 21
19.3560125867
 31
0.0
 11
23.1345874158
 21
19.4969927992
 31
0.0
 11
23.0853377718
 21
19.6414063004
 31
0.0
  0
SPLINE
  5
4FC
100
AcDbEntity
  8
0
100
AcDbSpline
 62
7
  6
CONTINUOUS
 70
0
 71
3
 72
9
 73
5
 74
3
 42
0.0000001
 43
0.0000001
 44
0.0000000001
 12
-0.0000314749
 22
0.0098526456
 32
0.0
 13
-0.0088129521
 23
0.0044053935
 33
0.0
 40
0.0
 40
0.0
 40
0.0
 40
0.0
 40
0.4910187424
 40
1.0
 40
1.0
 40
1.0
 40
1.0
 10
23.251036301
 20
20.1251366451
 30
0.0
 10
23.2510311495
 20
20.1267492564
 30
0.0
 10
23.2502721695
 20
20.1301768647
 30
0.0
 10
23.2475158385
 20
20.1323589006
 30
0.0
 10
23.2460206293
 20
20.1331063215
 30
0.0
 11
23.251036301
 21
20.1251366451
 31
0.0
 11
23.2498042425
 21
20.1298149894
 31
0.0
 11
23.2460206293
 21
20.1331063215
 31
0.0
  0
SPLINE
  5
4FD
100
AcDbEntity
  8
0
100
AcDbSpline
 62
7
  6
CONTINUOUS
 70
0
 71
3
 72
9
 73
5
 74
3
 42
0.0000001
 43
0.0000001
 44
0.0000000001
 12
-0.0000339545
 22
0.0098543043
 32
0.0
 13
-0.0088161535
 23
0.0044027154
 33
0.0
 40
0.0
 40
0.0
 40
0.0
 40
0.0
 40
0.4909558521
 40
1.0
 40
1.0
 40
1.0
 40
1.0
 10
17.660589708
 20
22.9203630415
 30
0.0
 10
17.6605841512
 20
22.9219757176
 30
0.0
 10
17.6598234933
 20
22.925403676
 30
0.0
 10
17.6570656601
 20
22.9275847297
 30
0.0
 10
17.655569723
 20
22.9283317886
 30
0.0
 11
17.660589708
 21
22.9203630415
 31
0.0
 11
17.6593558579
 21
22.9250411191
 31
0.0
 11
17.655569723
 21
22.9283317886
 31
0.0
  0
SPLINE
  5
4FE
100
AcDbEntity
  8
0
100
AcDbSpline
 62
7
  6
CONTINUOUS
 70
0
 71
3
 72
12
 73
8
 74
6
 42
0.0000001
 43
0.0000001
 44
0.0000000001
 12
-0.0000023583
 22
-0.2340338475
 32
0.0
 13
-0.2078285542
 23
-0.107606384
 33
0.0
 40
0.0
 40
0.0
 40
0.0
 40
0.0
 40
0.102854546
 40
0.2084742904
 40
0.4366763484
 40
0.6988731301
 40
1.0
 40
1.0
 40
1.0
 40
1.0
 10
28.648419617
 20
17.7374434779
 30
0.0
 10
28.6484195362
 20
17.7294196629
 30
0.0
 10
28.6468307332
 20
17.7131149712
 30
0.0
 10
28.6371823063
 20
17.6802633784
 30
0.0
 10
28.612275002
 20
17.6399998982
 30
0.0
 10
28.5666393051
 20
17.5976864073
 30
0.0
 10
28.5289506958
 20
17.574582487
 30
0.0
 10
28.5080897752
 20
17.5637814291
 30
0.0
 11
28.648419617
 21
17.7374434779
 31
0.0
 11
28.6461173195
 21
17.7134823866
 31
0.0
 11
28.6392326425
 21
17.6897419113
 31
0.0
 11
28.6120108023
 21
17.6437932478
 31
0.0
 11
28.5677551422
 21
17.601286252
 31
0.0
 11
28.5080897752
 21
17.5637814291
 31
0.0
  0
SPLINE
  5
4FF
100
AcDbEntity
  8
0
100
AcDbSpline
 62
7
  6
CONTINUOUS
 70
0
 71
3
 72
12
 73
8
 74
6
 42
0.0000001
 43
0.0000001
 44
0.0000000001
 12
0.2154454605
 22
-0.1077227303
 32
0.0
 13
-0.0000024273
 23
-0.2408753476
 33
0.0
 40
0.0
 40
0.0
 40
0.0
 40
0.0
 40
0.3022919886
 40
0.5649556675
 40
0.792687319
 40
0.8977789023
 40
1.0
 40
1.0
 40
1.0
 40
1.0
 10
28.5019732656
 20
-18.2856391612
 30
0.0
 10
28.5236824111
 20
-18.2964937339
 30
0.0
 10
28.5629176622
 20
-18.3197927609
 30
0.0
 10
28.6105499231
 20
-18.3627616508
 30
0.0
 10
28.6366461426
 20
-18.4038917567
 30
0.0
 10
28.6467564851
 20
-18.4375212537
 30
0.0
 10
28.6484196997
 20
-18.4542108861
 30
0.0
 10
28.648419617
 20
-18.4624184003
 30
0.0
 11
28.5019732656
 21
-18.2856391612
 31
0.0
 11
28.5641560206
 21
-18.3235242999
 31
0.0
 11
28.6103605236
 21
-18.3667462411
 31
0.0
 11
28.6388132393
 21
-18.4136451482
 31
0.0
 11
28.6460125306
 21
-18.437913798
 31
0.0
 11
28.648419617
 21
-18.4624184003
 31
0.0
  0
SPLINE
  5
500
100
AcDbEntity
  8
0
100
AcDbSpline
 62
253
  6
CONTINUOUS
 70
0
 71
3
 72
11
 73
7
 74
5
 42
0.0000001
 43
0.0000001
 44
0.0000000001
 12
0.3293173435
 22
-0.1627674777
 32
0.0
 13
-0.0017306173
 23
-0.3673420334
 33
0.0
 40
0.0
 40
0.0
 40
0.0
 40
0.0
 40
0.2299225475
 40
0.4883138243
 40
0.7531101442
 40
1.0
 40
1.0
 40
1.0
 40
1.0
 10
22.1948927355
 20
16.2277454674
 30
0.0
 10
22.2201318964
 20
16.2152708297
 30
0.0
 10
22.268368279
 20
16.1778392087
 30
0.0
 10
22.3239697813
 20
16.1032451643
 30
0.0
 10
22.3616188866
 20
16.0159044895
 30
0.0
 10
22.3718088631
 20
15.9530869358
 30
0.0
 10
22.3716664392
 20
15.9228559285
 30
0.0
 11
22.1948927355
 21
16.2277454674
 31
0.0
 11
22.2628547781
 21
16.1775972151
 31
0.0
 11
22.3203143176
 21
16.1020457515
 31
0.0
 11
22.358523777
 21
16.0125926388
 31
0.0
 11
22.3716664392
 21
15.9228559285
 31
0.0
  0
SPLINE
  5
501
100
AcDbEntity
  8
0
100
AcDbSpline
 62
7
  6
CONTINUOUS
 70
0
 71
3
 72
11
 73
7
 74
5
 42
0.0000001
 43
0.0000001
 44
0.0000000001
 12
0.328298287
 22
-0.1641491435
 32
0.0
 13
-0.0
 23
-0.3670486434
 33
0.0
 40
0.0
 40
0.0
 40
0.0
 40
0.0
 40
0.2296752475
 40
0.4882147097
 40
0.7532072079
 40
1.0
 40
1.0
 40
1.0
 40
1.0
 10
21.6666255638
 20
15.9643066473
 30
0.0
 10
21.6917595605
 20
15.9517396489
 30
0.0
 10
21.7397868846
 20
15.914166352
 30
0.0
 10
21.7952454903
 20
15.8395702428
 30
0.0
 10
21.832979264
 20
15.7523364335
 30
0.0
 10
21.8433992674
 20
15.689612095
 30
0.0
 10
21.8433992674
 20
15.6594171085
 30
0.0
 11
21.6666255638
 21
15.9643066473
 31
0.0
 11
21.7342739327
 21
15.9140023398
 31
0.0
 11
21.7916236799
 21
15.8383957039
 31
0.0
 11
21.8299433033
 21
15.7489970835
 31
0.0
 11
21.8433992674
 21
15.6594171085
 31
0.0
  0
SPLINE
  5
502
100
AcDbEntity
  8
0
100
AcDbSpline
 62
253
  6
CONTINUOUS
 70
0
 71
3
 72
11
 73
7
 74
5
 42
0.0000001
 43
0.0000001
 44
0.0000000001
 12
0.3272561542
 22
-0.1655567191
 32
0.0
 13
0.0017563535
 23
-0.3667458697
 33
0.0
 40
0.0
 40
0.0
 40
0.0
 40
0.0
 40
0.2294296147
 40
0.4881164794
 40
0.7533035489
 40
1.0
 40
1.0
 40
1.0
 40
1.0
 10
20.0653447729
 20
15.1615846438
 30
0.0
 10
20.0903721907
 20
15.1489234391
 30
0.0
 10
20.1381875439
 20
15.1112068675
 30
0.0
 10
20.1935021066
 20
15.0366084906
 30
0.0
 10
20.231321491
 20
14.9494826958
 30
0.0
 10
20.2419740479
 20
14.8868534065
 30
0.0
 10
20.2421184766
 20
14.856695105
 30
0.0
 11
20.0653447729
 21
15.1615846438
 31
0.0
 11
20.1326762922
 21
15.1111211299
 31
0.0
 11
20.1899144203
 21
15.0354589606
 31
0.0
 11
20.2283452907
 21
14.9461165534
 31
0.0
 11
20.2421184766
 21
14.856695105
 31
0.0
  0
SPLINE
  5
503
100
AcDbEntity
  8
0
100
AcDbSpline
 62
253
  6
CONTINUOUS
 70
0
 71
3
 72
11
 73
7
 74
5
 42
0.0000001
 43
0.0000001
 44
0.0000000001
 12
0.3293173435
 22
-0.1627674777
 32
0.0
 13
-0.0017306173
 23
-0.3673420334
 33
0.0
 40
0.0
 40
0.0
 40
0.0
 40
0.0
 40
0.2299225475
 40
0.4883138243
 40
0.7531101442
 40
1.0
 40
1.0
 40
1.0
 40
1.0
 10
9.8912347429
 20
22.3795744637
 30
0.0
 10
9.9164739037
 20
22.367099826
 30
0.0
 10
9.9647102863
 20
22.3296682051
 30
0.0
 10
10.0203117886
 20
22.2550741607
 30
0.0
 10
10.057960894
 20
22.1677334858
 30
0.0
 10
10.0681508705
 20
22.1049159321
 30
0.0
 10
10.0680084465
 20
22.0746849249
 30
0.0
 11
9.8912347429
 21
22.3795744637
 31
0.0
 11
9.9591967855
 21
22.3294262114
 31
0.0
 11
10.016656325
 21
22.2538747478
 31
0.0
 11
10.0548657844
 21
22.1644216351
 31
0.0
 11
10.0680084465
 21
22.0746849249
 31
0.0
  0
SPLINE
  5
504
100
AcDbEntity
  8
0
100
AcDbSpline
 62
7
  6
CONTINUOUS
 70
0
 71
3
 72
11
 73
7
 74
5
 42
0.0000001
 43
0.0000001
 44
0.0000000001
 12
0.328298287
 22
-0.1641491435
 32
0.0
 13
-0.0
 23
-0.3670486434
 33
0.0
 40
0.0
 40
0.0
 40
0.0
 40
0.0
 40
0.2296752475
 40
0.4882147097
 40
0.7532072079
 40
1.0
 40
1.0
 40
1.0
 40
1.0
 10
9.3629675711
 20
22.1161356437
 30
0.0
 10
9.3881015679
 20
22.1035686453
 30
0.0
 10
9.4361288919
 20
22.0659953483
 30
0.0
 10
9.4915874977
 20
21.9913992391
 30
0.0
 10
9.5293212714
 20
21.9041654299
 30
0.0
 10
9.5397412748
 20
21.8414410913
 30
0.0
 10
9.5397412748
 20
21.8112461048
 30
0.0
 11
9.3629675711
 21
22.1161356437
 31
0.0
 11
9.4306159401
 21
22.0658313361
 31
0.0
 11
9.4879656873
 21
21.9902247003
 31
0.0
 11
9.5262853107
 21
21.9008260798
 31
0.0
 11
9.5397412748
 21
21.8112461048
 31
0.0
  0
SPLINE
  5
505
100
AcDbEntity
  8
0
100
AcDbSpline
 62
253
  6
CONTINUOUS
 70
0
 71
3
 72
11
 73
7
 74
5
 42
0.0000001
 43
0.0000001
 44
0.0000000001
 12
0.327256154
 22
-0.1655567189
 32
0.0
 13
0.0017563535
 23
-0.3667458694
 33
0.0
 40
0.0
 40
0.0
 40
0.0
 40
0.0
 40
0.2294297766
 40
0.4881166035
 40
0.7533036098
 40
1.0
 40
1.0
 40
1.0
 40
1.0
 10
7.7616867803
 20
21.3134136401
 30
0.0
 10
7.7867142157
 20
21.3007524265
 30
0.0
 10
7.834529576
 20
21.2630358366
 30
0.0
 10
7.8898441347
 20
21.1884374492
 30
0.0
 10
7.9276635039
 20
21.1013116694
 30
0.0
 10
7.9383160553
 20
21.0386823954
 30
0.0
 10
7.938460484
 20
21.0085241013
 30
0.0
 11
7.7616867803
 21
21.3134136401
 31
0.0
 11
7.829018341
 21
21.2629500826
 31
0.0
 11
7.8862564509
 21
21.187287917
 31
0.0
 11
7.9246873047
 21
21.0979455281
 31
0.0
 11
7.938460484
 21
21.0085241013
 31
0.0
  0
SPLINE
  5
506
100
AcDbEntity
  8
0
100
AcDbSpline
 62
253
  6
CONTINUOUS
 70
0
 71
3
 72
11
 73
7
 74
5
 42
0.0000001
 43
0.0000001
 44
0.0000000001
 12
-0.0860962971
 22
0.0430481485
 32
0.0
 13
0.0
 23
0.0962585864
 33
0.0
 40
0.0
 40
0.0
 40
0.0
 40
0.0
 40
0.3025804329
 40
0.5654850464
 40
0.7934324537
 40
1.0
 40
1.0
 40
1.0
 40
1.0
 10
15.1612401852
 20
18.2557137156
 30
0.0
 10
15.1525565003
 20
18.2600555581
 30
0.0
 10
15.136861754
 20
18.2693675207
 30
0.0
 10
15.1178123177
 20
18.2865836557
 30
0.0
 10
15.1055890062
 20
18.3057473312
 30
0.0
 10
15.1026617517
 20
18.3197964271
 30
0.0
 10
15.1026617517
 20
18.3264243937
 30
0.0
 11
15.1612401852
 21
18.2557137156
 31
0.0
 11
15.1363670023
 21
18.2708678105
 31
0.0
 11
15.1178858483
 21
18.2881560265
 31
0.0
 11
15.1065045366
 21
18.3069153578
 31
0.0
 11
15.1026617517
 21
18.3264243937
 31
0.0
  0
SPLINE
  5
507
100
AcDbEntity
  8
0
100
AcDbSpline
 62
253
  6
CONTINUOUS
 70
0
 71
3
 72
11
 73
7
 74
5
 42
0.0000001
 43
0.0000001
 44
0.0000000001
 12
-0.0831673495
 22
0.0415836747
 32
0.0
 13
-0.0829349307
 23
-0.0420453005
 33
0.0
 40
0.0
 40
0.0
 40
0.0
 40
0.0
 40
0.2797899728
 40
0.5360242409
 40
0.7733576888
 40
1.0
 40
1.0
 40
1.0
 40
1.0
 10
15.30183879
 20
18.4992151676
 30
0.0
 10
15.2940823265
 20
18.5030933993
 30
0.0
 10
15.278582475
 20
18.5093614688
 30
0.0
 10
15.2548399533
 20
18.5138116049
 30
0.0
 10
15.2323132718
 20
18.5126466873
 30
0.0
 10
15.218474742
 20
18.5079777814
 30
0.0
 10
15.2122092205
 20
18.5048013667
 30
0.0
 11
15.30183879
 21
18.4992151676
 31
0.0
 11
15.2776407547
 21
18.5087695253
 31
0.0
 11
15.2541828845
 21
18.5129397483
 31
0.0
 11
15.2321551444
 21
18.5116041195
 31
0.0
 11
15.2122092205
 21
18.5048013667
 31
0.0
  0
SPLINE
  5
508
100
AcDbEntity
  8
0
100
AcDbSpline
 62
7
  6
CONTINUOUS
 70
0
 71
3
 72
11
 73
7
 74
5
 42
0.0000001
 43
0.0000001
 44
0.0000000001
 12
-0.0825853838
 22
0.0412926919
 32
0.0
 13
-0.0828188911
 23
-0.0408223382
 33
0.0
 40
0.0
 40
0.0
 40
0.0
 40
0.0
 40
0.2791508924
 40
0.5352728096
 40
0.7729074645
 40
1.0
 40
1.0
 40
1.0
 40
1.0
 10
15.5147935758
 20
18.6072099394
 30
0.0
 10
15.5071089813
 20
18.6110522367
 30
0.0
 10
15.4917423663
 20
18.6172720621
 30
0.0
 10
15.4681921518
 20
18.6217343762
 30
0.0
 10
15.4458045568
 20
18.6206859484
 30
0.0
 10
15.4320050013
 20
18.6161708255
 30
0.0
 10
15.4257358173
 20
18.613080676
 30
0.0
 11
15.5147935758
 21
18.6072099394
 31
0.0
 11
15.4908247905
 21
18.6166885207
 31
0.0
 11
15.4675507837
 21
18.6208808492
 31
0.0
 11
15.4456428144
 21
18.6196667744
 31
0.0
 11
15.4257358173
 21
18.613080676
 31
0.0
  0
SPLINE
  5
509
100
AcDbEntity
  8
0
100
AcDbSpline
 62
253
  6
CONTINUOUS
 70
0
 71
3
 72
11
 73
7
 74
5
 42
0.0000001
 43
0.0000001
 44
0.0000000001
 12
0.0
 22
-0.157418891
 32
0.0
 13
0.1407902719
 23
-0.0704187941
 33
0.0
 40
0.0
 40
0.0
 40
0.0
 40
0.0
 40
0.2897438841
 40
0.549586293
 40
0.7828493095
 40
1.0
 40
1.0
 40
1.0
 40
1.0
 10
7.5859385243
 20
20.6690628911
 30
0.0
 10
7.5859385243
 20
20.6538591708
 30
0.0
 10
7.588391844
 20
20.6249110843
 30
0.0
 10
7.6007635933
 20
20.5853193651
 30
0.0
 10
7.6214258405
 20
20.5536206243
 30
0.0
 10
7.6407102857
 20
20.5389468666
 30
0.0
 10
7.6509011873
 20
20.5338497034
 30
0.0
 11
7.5859385243
 21
20.6690628911
 31
0.0
 11
7.590257484
 21
20.6236566736
 31
0.0
 11
7.6030030587
 21
20.5847890001
 31
0.0
 11
7.6235524417
 21
20.5543574105
 31
0.0
 11
7.6509011873
 21
20.5338497034
 31
0.0
  0
SPLINE
  5
50A
100
AcDbEntity
  8
0
100
AcDbSpline
 62
253
  6
CONTINUOUS
 70
0
 71
3
 72
11
 73
7
 74
5
 42
0.0000001
 43
0.0000001
 44
0.0000000001
 12
0.0
 22
-0.1574306019
 32
0.0
 13
0.1408096751
 23
-0.0704061773
 33
0.0
 40
0.0
 40
0.0
 40
0.0
 40
0.0
 40
0.2897462804
 40
0.5495881417
 40
0.782849192
 40
1.0
 40
1.0
 40
1.0
 40
1.0
 10
5.9074004539
 20
21.5083319263
 30
0.0
 10
5.9074004539
 20
21.4931269492
 30
0.0
 10
5.9098541628
 20
21.464176589
 30
0.0
 10
5.9222280239
 20
21.4245822059
 30
0.0
 10
5.9428938815
 20
21.3928824196
 30
0.0
 10
5.9621814162
 20
21.3782096837
 30
0.0
 10
5.9723737277
 20
21.373113431
 30
0.0
 11
5.9074004539
 21
21.5083319263
 31
0.0
 11
5.9117201661
 21
21.4629219929
 31
0.0
 11
5.9244679249
 21
21.4240519241
 31
0.0
 11
5.9450207083
 21
21.393619708
 31
0.0
 11
5.9723737277
 21
21.373113431
 31
0.0
  0
SPLINE
  5
50B
100
AcDbEntity
  8
0
100
AcDbSpline
 62
7
  6
CONTINUOUS
 70
0
 71
3
 72
11
 73
7
 74
5
 42
0.0000001
 43
0.0000001
 44
0.0000000001
 12
0.2626453264
 22
-0.1313226632
 32
0.0
 13
0.0
 23
-0.2936464019
 33
0.0
 40
0.0
 40
0.0
 40
0.0
 40
0.0
 40
0.2296758689
 40
0.4882154538
 40
0.7532072935
 40
1.0
 40
1.0
 40
1.0
 40
1.0
 10
13.817737301
 20
19.4557380768
 30
0.0
 10
13.8378450655
 20
19.4456841946
 30
0.0
 10
13.8762677983
 20
19.4156244332
 30
0.0
 10
13.9206351372
 20
19.3559455446
 30
0.0
 10
13.9508225906
 20
19.2861566699
 30
0.0
 10
13.9591586572
 20
19.2359759835
 30
0.0
 10
13.9591586572
 20
19.2118193867
 30
0.0
 11
13.817737301
 21
19.4557380768
 31
0.0
 11
13.8718573036
 21
19.4154932015
 31
0.0
 11
13.9177377259
 21
19.3550058917
 31
0.0
 11
13.9483937601
 21
19.2834851909
 31
0.0
 11
13.9591586572
 21
19.2118193867
 31
0.0
  0
SPLINE
  5
50C
100
AcDbEntity
  8
0
100
AcDbSpline
 62
253
  6
CONTINUOUS
 70
0
 71
3
 72
13
 73
9
 74
7
 42
0.0000001
 43
0.0000001
 44
0.0000000001
 12
-0.1069171078
 22
-0.2783413113
 32
0.0
 13
-0.2918755456
 23
0.0609411144
 33
0.0
 40
0.0
 40
0.0
 40
0.0
 40
0.0
 40
0.2769971196
 40
0.5361981698
 40
0.6582140823
 40
0.7753286929
 40
0.8886886666
 40
1.0
 40
1.0
 40
1.0
 40
1.0
 10
7.938460484
 20
20.6685501672
 30
0.0
 10
7.9285885737
 20
20.6428502534
 30
0.0
 10
7.9028514092
 20
20.5953152759
 30
0.0
 10
7.8555251179
 20
20.548410016
 30
0.0
 10
7.8122441879
 20
20.5238097874
 30
0.0
 10
7.7788445578
 20
20.5124800356
 30
0.0
 10
7.7448865452
 20
20.5083222853
 30
0.0
 10
7.7224466726
 20
20.5104678453
 30
0.0
 10
7.7116169872
 20
20.5127289908
 30
0.0
 11
7.938460484
 21
20.6685501672
 31
0.0
 11
7.8985769885
 21
20.5962261155
 31
0.0
 11
7.8430264848
 21
20.5424929725
 31
0.0
 11
7.8113265603
 21
20.524640121
 31
0.0
 11
7.7782149616
 21
20.5135482239
 31
0.0
 11
7.7446530294
 21
20.5095393673
 31
0.0
 11
7.7116169872
 21
20.5127289908
 31
0.0
  0
SPLINE
  5
50D
100
AcDbEntity
  8
0
100
AcDbSpline
 62
253
  6
CONTINUOUS
 70
0
 71
3
 72
11
 73
7
 74
5
 42
0.0000001
 43
0.0000001
 44
0.0000000001
 12
0.2625900352
 22
-0.1312950176
 32
0.0
 13
0.0013979011
 23
-0.2935812564
 33
0.0
 40
0.0
 40
0.0
 40
0.0
 40
0.0
 40
0.2298287956
 40
0.4885445418
 40
0.7535295902
 40
1.0
 40
1.0
 40
1.0
 40
1.0
 10
13.6047825152
 20
19.347743305
 30
0.0
 10
13.6248994323
 20
19.3376848464
 30
0.0
 10
13.6633606416
 20
19.3076558443
 30
0.0
 10
13.7078949854
 20
19.2480912954
 30
0.0
 10
13.7383415414
 20
19.1784562778
 30
0.0
 10
13.7469117758
 20
19.1283615505
 30
0.0
 10
13.7470266229
 20
19.104241853
 30
0.0
 11
13.6047825152
 21
19.347743305
 31
0.0
 11
13.6589646232
 21
19.3075305499
 31
0.0
 11
13.705023389
 21
19.2471339832
 31
0.0
 11
13.7359466279
 21
19.175748431
 31
0.0
 11
13.7470266229
 21
19.104241853
 31
0.0
  0
SPLINE
  5
50E
100
AcDbEntity
  8
0
100
AcDbSpline
 62
253
  6
CONTINUOUS
 70
0
 71
3
 72
13
 73
9
 74
7
 42
0.0000001
 43
0.0000001
 44
0.0000000001
 12
0.0399145092
 22
-0.0649790005
 32
0.0
 13
-0.0484066513
 23
-0.0589256706
 33
0.0
 40
0.0
 40
0.0
 40
0.0
 40
0.0
 40
0.3448149562
 40
0.6206425332
 40
0.7337421877
 40
0.8322189645
 40
0.9193059906
 40
1.0
 40
1.0
 40
1.0
 40
1.0
 10
10.0680084465
 20
21.7271534081
 30
0.0
 10
10.0725961531
 20
21.7196848311
 30
0.0
 10
10.0802249761
 20
21.7058422887
 30
0.0
 10
10.0867494952
 20
21.6882091712
 30
0.0
 10
10.0886603975
 20
21.6759227796
 30
0.0
 10
10.0885219185
 20
21.6682825105
 30
0.0
 10
10.0868690269
 20
21.6616465136
 30
0.0
 10
10.0846709867
 20
21.6579032856
 30
0.0
 10
10.0833689444
 20
21.6563183027
 30
0.0
 11
10.0680084465
 21
21.7271534081
 31
0.0
 11
10.0804216708
 21
21.7039725514
 31
0.0
 11
10.0872239713
 21
21.6840684757
 31
0.0
 11
10.0884526646
 21
21.6755315746
 31
0.0
 11
10.0882164423
 21
21.668025548
 31
0.0
 11
10.0865177677
 21
21.6616052939
 31
0.0
 11
10.0833689444
 21
21.6563183027
 31
0.0
  0
SPLINE
  5
50F
100
AcDbEntity
  8
0
100
AcDbSpline
 62
253
  6
CONTINUOUS
 70
0
 71
3
 72
13
 73
9
 74
7
 42
0.0000001
 43
0.0000001
 44
0.0000000001
 12
0.260215385
 22
-0.1301076925
 32
0.0
 13
0.260215385
 23
0.1301076925
 33
0.0
 40
0.0
 40
0.0
 40
0.0
 40
0.0
 40
0.1126065465
 40
0.2356257154
 40
0.5000001351
 40
0.7643745278
 40
0.8873936907
 40
1.0
 40
1.0
 40
1.0
 40
1.0
 10
13.4641839104
 20
19.104241853
 30
0.0
 10
13.473951229
 20
19.0993581937
 30
0.0
 10
13.4952369192
 20
19.0907990382
 30
0.0
 10
13.5422248679
 20
19.0784710248
 30
0.0
 10
13.6056053033
 20
19.0725515305
 30
0.0
 10
13.6689857385
 20
19.0784710332
 30
0.0
 10
13.7159736574
 20
19.0907990564
 30
0.0
 10
13.7372593248
 20
19.099358204
 30
0.0
 10
13.7470266229
 20
19.104241853
 30
0.0
 11
13.4641839104
 21
19.104241853
 31
0.0
 11
13.4944921088
 21
19.0918052587
 31
0.0
 11
13.5290685505
 21
19.082564681
 31
0.0
 11
13.605605306
 21
19.0749526363
 31
0.0
 11
13.6821420523
 21
19.0825646944
 31
0.0
 11
13.7167184896
 21
19.0918052818
 31
0.0
 11
13.7470266229
 21
19.104241853
 31
0.0
  0
SPLINE
  5
510
100
AcDbEntity
  8
0
100
AcDbSpline
 62
253
  6
CONTINUOUS
 70
0
 71
3
 72
11
 73
7
 74
5
 42
0.0000001
 43
0.0000001
 44
0.0000000001
 12
-0.0054877346
 22
-0.1161370801
 32
0.0
 13
-0.103748081
 23
-0.0524811613
 33
0.0
 40
0.0
 40
0.0
 40
0.0
 40
0.0
 40
0.2070618539
 40
0.4360719419
 40
0.6990008121
 40
1.0
 40
1.0
 40
1.0
 40
1.0
 10
22.4437942485
 20
-25.9868934288
 30
0.0
 10
22.4434154817
 20
-25.9949092818
 30
0.0
 10
22.4392116149
 20
-26.0117399457
 30
0.0
 10
22.4240209406
 20
-26.0346248142
 30
0.0
 10
22.400942856
 20
-26.0552818602
 30
0.0
 10
22.3820758019
 20
-26.0665456487
 30
0.0
 10
22.3716664392
 20
-26.0718112443
 30
0.0
 11
22.4437942485
 21
-25.9868934288
 31
0.0
 11
22.4382343483
 21
-26.0103170021
 31
0.0
 11
22.4239720767
 21
-26.0328013118
 31
0.0
 11
22.401517369
 21
-26.0535450472
 31
0.0
 11
22.3716664392
 21
-26.0718112443
 31
0.0
  0
SPLINE
  5
511
100
AcDbEntity
  8
0
100
AcDbSpline
 62
253
  6
CONTINUOUS
 70
0
 71
3
 72
11
 73
7
 74
5
 42
0.0000001
 43
0.0000001
 44
0.0000000001
 12
0.0
 22
-0.1574306117
 32
0.0
 13
0.1408096926
 23
-0.0704061643
 33
0.0
 40
0.0
 40
0.0
 40
0.0
 40
0.0
 40
0.2897460728
 40
0.5495880269
 40
0.7828491409
 40
1.0
 40
1.0
 40
1.0
 40
1.0
 10
19.889596517
 20
14.5172338947
 30
0.0
 10
19.889596517
 20
14.5020289276
 30
0.0
 10
19.8920502248
 20
14.473078572
 30
0.0
 10
19.9044240802
 20
14.433484187
 30
0.0
 10
19.9250899433
 20
14.401784388
 30
0.0
 10
19.9443774848
 20
14.3871116478
 30
0.0
 10
19.9545698001
 20
14.3820153947
 30
0.0
 11
19.889596517
 21
14.5172338947
 31
0.0
 11
19.8939162238
 21
14.4718239909
 31
0.0
 11
19.9066639829
 21
14.432953904
 31
0.0
 11
19.9272167716
 21
14.4025216766
 31
0.0
 11
19.9545698001
 21
14.3820153947
 31
0.0
  0
SPLINE
  5
512
100
AcDbEntity
  8
0
100
AcDbSpline
 62
253
  6
CONTINUOUS
 70
0
 71
3
 72
11
 73
7
 74
5
 42
0.0000001
 43
0.0000001
 44
0.0000000001
 12
0.0
 22
-0.1549388799
 32
0.0
 13
0.1366659686
 23
-0.0729963666
 33
0.0
 40
0.0
 40
0.0
 40
0.0
 40
0.0
 40
0.2892246208
 40
0.5491717527
 40
0.7828500299
 40
1.0
 40
1.0
 40
1.0
 40
1.0
 10
18.2110584466
 20
15.3565029299
 30
0.0
 10
18.2110584466
 20
15.3415655503
 30
0.0
 10
18.2134299475
 20
15.3130997497
 30
0.0
 10
18.2253585212
 20
15.2740747356
 30
0.0
 10
18.2452649897
 20
15.2426058217
 30
0.0
 10
18.263897637
 20
15.2277270277
 30
0.0
 10
18.273789974
 20
15.2224433081
 30
0.0
 11
18.2110584466
 21
15.3565029299
 31
0.0
 11
18.2152195867
 21
15.3118844058
 31
0.0
 11
18.2275067858
 21
15.2735285162
 31
0.0
 11
18.2473416252
 21
15.2432391986
 31
0.0
 11
18.273789974
 21
15.2224433081
 31
0.0
  0
SPLINE
  5
513
100
AcDbEntity
  8
0
100
AcDbSpline
 62
7
  6
CONTINUOUS
 70
0
 71
3
 72
12
 73
8
 74
6
 42
0.0000001
 43
0.0000001
 44
0.0000000001
 12
-0.2289276309
 22
-0.2740837016
 32
0.0
 13
-0.3495898397
 23
0.072915565
 33
0.0
 40
0.0
 40
0.0
 40
0.0
 40
0.0
 40
0.2548701702
 40
0.514254073
 40
0.6425246768
 40
0.7675239418
 40
1.0
 40
1.0
 40
1.0
 40
1.0
 10
20.9533390847
 20
14.368217648
 30
0.0
 10
20.9338901433
 20
14.3449323948
 30
0.0
 10
20.8892631389
 20
14.3022529488
 30
0.0
 10
20.8235803065
 20
14.2618130006
 30
0.0
 10
20.7665858984
 20
14.2394870734
 30
0.0
 10
20.7103922989
 20
14.2256950076
 30
0.0
 10
20.6666006613
 20
14.2249087773
 30
0.0
 10
20.6395102387
 20
14.2305591517
 30
0.0
 11
20.9533390847
 21
14.368217648
 31
0.0
 11
20.8877037436
 21
14.3051606812
 31
0.0
 11
20.8086239247
 21
14.2569260048
 31
0.0
 11
20.7659292251
 21
14.2403292063
 31
0.0
 11
20.7225277905
 21
14.2298915747
 31
0.0
 11
20.6395102387
 21
14.2305591517
 31
0.0
  0
SPLINE
  5
514
100
AcDbEntity
  8
0
100
AcDbSpline
 62
253
  6
CONTINUOUS
 70
0
 71
3
 72
13
 73
9
 74
7
 42
0.0000001
 43
0.0000001
 44
0.0000000001
 12
-0.1069170787
 22
-0.2783412356
 32
0.0
 13
-0.2918754997
 23
0.0609409373
 33
0.0
 40
0.0
 40
0.0
 40
0.0
 40
0.0
 40
0.2769970015
 40
0.5361980882
 40
0.6582140249
 40
0.7753286584
 40
0.8886886531
 40
1.0
 40
1.0
 40
1.0
 40
1.0
 10
20.2421184766
 20
14.5167211709
 30
0.0
 10
20.2322465732
 20
14.491021275
 30
0.0
 10
20.2065094246
 20
14.4434863166
 30
0.0
 10
20.1591831631
 20
14.3965810616
 30
0.0
 10
20.115902246
 20
14.3719808211
 30
0.0
 10
20.0825026233
 20
14.3606510567
 30
0.0
 10
20.0485446163
 20
14.3564932908
 30
0.0
 10
20.0261047453
 20
14.3586388384
 30
0.0
 10
20.0152750603
 20
14.3608999777
 30
0.0
 11
20.2421184766
 21
14.5167211709
 31
0.0
 11
20.2022350165
 21
14.4443971656
 31
0.0
 11
20.1466845343
 21
14.3906640148
 31
0.0
 11
20.1149846183
 21
14.3728111539
 31
0.0
 11
20.0818730266
 21
14.3617192442
 31
0.0
 11
20.0483110992
 21
14.3577103722
 31
0.0
 11
20.0152750603
 21
14.3608999777
 31
0.0
  0
SPLINE
  5
515
100
AcDbEntity
  8
0
100
AcDbSpline
 62
253
  6
CONTINUOUS
 70
0
 71
3
 72
9
 73
5
 74
3
 42
0.0000001
 43
0.0000001
 44
0.0000000001
 12
-0.0221923478
 22
0.0110963851
 32
0.0
 13
-0.0242962914
 23
0.0050319267
 33
0.0
 40
0.0
 40
0.0
 40
0.0
 40
0.0
 40
0.2486313407
 40
1.0
 40
1.0
 40
1.0
 40
1.0
 10
22.3056677177
 20
-25.4128002525
 30
0.0
 10
22.3038284799
 20
-25.4118806161
 30
0.0
 10
22.2963111518
 20
-25.4084252501
 30
0.0
 10
22.2883378011
 20
-25.4059731989
 30
0.0
 10
22.2822526438
 20
-25.4047129216
 30
0.0
 11
22.3056677177
 21
-25.4128002525
 31
0.0
 11
22.300062203
 21
-25.410224414
 31
0.0
 11
22.2822526438
 21
-25.4047129216
 31
0.0
  0
SPLINE
  5
516
100
AcDbEntity
  8
0
100
AcDbSpline
 62
253
  6
CONTINUOUS
 70
0
 71
3
 72
13
 73
9
 74
7
 42
0.0000001
 43
0.0000001
 44
0.0000000001
 12
0.0399145092
 22
-0.0649790005
 32
0.0
 13
-0.0484066513
 23
-0.0589256706
 33
0.0
 40
0.0
 40
0.0
 40
0.0
 40
0.0
 40
0.3448149562
 40
0.6206425332
 40
0.7337421877
 40
0.8322189645
 40
0.9193059906
 40
1.0
 40
1.0
 40
1.0
 40
1.0
 10
22.3716664392
 20
15.5753244118
 30
0.0
 10
22.3762541458
 20
15.5678558347
 30
0.0
 10
22.3838829687
 20
15.5540132923
 30
0.0
 10
22.3904074878
 20
15.5363801749
 30
0.0
 10
22.3923183902
 20
15.5240937833
 30
0.0
 10
22.3921799112
 20
15.5164535141
 30
0.0
 10
22.3905270196
 20
15.5098175172
 30
0.0
 10
22.3883289794
 20
15.5060742893
 30
0.0
 10
22.3870269371
 20
15.5044893064
 30
0.0
 11
22.3716664392
 21
15.5753244118
 31
0.0
 11
22.3840796634
 21
15.552143555
 31
0.0
 11
22.3908819639
 21
15.5322394794
 31
0.0
 11
22.3921106573
 21
15.5237025783
 31
0.0
 11
22.3918744349
 21
15.5161965517
 31
0.0
 11
22.3901757603
 21
15.5097762975
 31
0.0
 11
22.3870269371
 21
15.5044893064
 31
0.0
  0
SPLINE
  5
517
100
AcDbEntity
  8
RACCORDO
100
AcDbSpline
 62
7
  6
CONTINUOUS
 70
0
 71
3
 72
13
 73
9
 74
7
 42
0.0000001
 43
0.0000001
 44
0.0000000001
 12
-0.0542077038
 22
0.0273133668
 32
0.0
 13
-0.0543347027
 23
-0.0270598455
 33
0.0
 40
0.0
 40
0.0
 40
0.0
 40
0.0
 40
0.0359187172
 40
0.0926950778
 40
0.1741244732
 40
0.2825228238
 40
0.5849983278
 40
1.0
 40
1.0
 40
1.0
 40
1.0
 10
28.1629273469
 20
-17.2495350106
 30
0.0
 10
28.1622783232
 20
-17.2492079902
 30
0.0
 10
28.1603342016
 20
-17.2490158239
 30
0.0
 10
28.1568586755
 20
-17.2494941432
 30
0.0
 10
28.1520108796
 20
-17.2507528537
 30
0.0
 10
28.1425820328
 20
-17.253960604
 30
0.0
 10
28.1271848078
 20
-17.2605087739
 30
0.0
 10
28.1140997025
 20
-17.2667939076
 30
0.0
 10
28.1065833717
 20
-17.2705372013
 30
0.0
 11
28.1629273469
 21
-17.2495350106
 31
0.0
 11
28.1607857584
 21
-17.2491261513
 31
0.0
 11
28.1573577895
 21
-17.249481401
 31
0.0
 11
28.1525587051
 21
-17.250664508
 31
0.0
 11
28.1463136554
 21
-17.2527364437
 31
0.0
 11
28.1293344456
 21
-17.2597225848
 31
0.0
 11
28.1065833717
 21
-17.2705372013
 31
0.0
  0
SPLINE
  5
518
100
AcDbEntity
  8
0
100
AcDbSpline
 62
7
  6
CONTINUOUS
 70
0
 71
3
 72
12
 73
8
 74
6
 42
0.0000001
 43
0.0000001
 44
0.0000000001
 12
0.349569871
 22
-0.0730588803
 32
0.0
 13
0.2289338769
 23
0.2740911796
 33
0.0
 40
0.0
 40
0.0
 40
0.0
 40
0.0
 40
0.232471406
 40
0.3574706578
 40
0.4857417175
 40
0.7451274141
 40
1.0
 40
1.0
 40
1.0
 40
1.0
 10
8.335842614
 20
20.382392066
 30
0.0
 10
8.3629309471
 20
20.3767306991
 30
0.0
 10
8.4067258234
 20
20.3775246289
 30
0.0
 10
8.4629202769
 20
20.391313225
 30
0.0
 10
8.519917098
 20
20.4136393231
 30
0.0
 10
8.5856026315
 20
20.4540796504
 30
0.0
 10
8.6302314357
 20
20.4967605351
 30
0.0
 10
8.6496810921
 20
20.5200466443
 30
0.0
 11
8.335842614
 21
20.382392066
 31
0.0
 11
8.4188607259
 21
20.3817190936
 31
0.0
 11
8.462263631
 21
20.3921557997
 31
0.0
 11
8.5049599811
 21
20.4087522509
 31
0.0
 11
8.5840430889
 21
20.4569876189
 31
0.0
 11
8.6496810921
 21
20.5200466443
 31
0.0
  0
SPLINE
  5
519
100
AcDbEntity
  8
0
100
AcDbSpline
 62
253
  6
CONTINUOUS
 70
0
 71
3
 72
11
 73
7
 74
5
 42
0.0000001
 43
0.0000001
 44
0.0000000001
 12
0.1043532206
 22
0.0535301431
 32
0.0
 13
0.1051440722
 23
-0.0519595512
 33
0.0
 40
0.0
 40
0.0
 40
0.0
 40
0.0
 40
0.2268558556
 40
0.4643038579
 40
0.7204819073
 40
1.0
 40
1.0
 40
1.0
 40
1.0
 10
5.9700630826
 20
22.1591305747
 30
0.0
 10
5.977954129
 20
22.1631784501
 30
0.0
 10
5.9953906044
 20
22.169158931
 30
0.0
 10
6.0238059982
 20
22.1707809003
 30
0.0
 10
6.0537743337
 20
22.1653283218
 30
0.0
 10
6.073352153
 20
22.1575238869
 30
0.0
 10
6.0831487099
 20
22.1526826754
 30
0.0
 11
5.9700630826
 21
22.1591305747
 31
0.0
 11
5.9952018061
 21
22.1678443433
 31
0.0
 11
6.0229898796
 21
22.1696760737
 31
0.0
 11
6.0525982624
 21
22.1645721183
 31
0.0
 11
6.0831487099
 21
22.1526826754
 31
0.0
  0
SPLINE
  5
51A
100
AcDbEntity
  8
0
100
AcDbSpline
 62
253
  6
CONTINUOUS
 70
0
 71
3
 72
11
 73
7
 74
5
 42
0.0000001
 43
0.0000001
 44
0.0000000001
 12
0.1023324294
 22
0.0473225223
 32
0.0
 13
0.1006069514
 23
-0.0508880001
 33
0.0
 40
0.0
 40
0.0
 40
0.0
 40
0.0
 40
0.2273078617
 40
0.4652352514
 40
0.7213437179
 40
1.0
 40
1.0
 40
1.0
 40
1.0
 10
8.0915435261
 20
23.2335560546
 30
0.0
 10
8.0992971813
 20
23.2371416484
 30
0.0
 10
8.1162697505
 20
23.2422897202
 30
0.0
 10
8.1436279163
 20
23.2431588255
 30
0.0
 10
8.1723131569
 20
23.2374362948
 30
0.0
 10
8.191010272
 20
23.2297409929
 30
0.0
 10
8.2003551917
 20
23.2250142393
 30
0.0
 11
8.0915435261
 21
23.2335560546
 31
0.0
 11
8.116042811
 21
23.2410770857
 31
0.0
 11
8.142846367
 21
23.2421502449
 31
0.0
 11
8.1712110997
 21
23.236746648
 31
0.0
 11
8.2003551917
 21
23.2250142393
 31
0.0
  0
SPLINE
  5
51B
100
AcDbEntity
  8
0
100
AcDbSpline
 62
7
  6
CONTINUOUS
 70
0
 71
3
 72
11
 73
7
 74
5
 42
0.0000001
 43
0.0000001
 44
0.0000000001
 12
0.1026878294
 22
0.0475555594
 32
0.0
 13
0.1012178701
 23
-0.050608935
 33
0.0
 40
0.0
 40
0.0
 40
0.0
 40
0.0
 40
0.227038882
 40
0.4649699236
 40
0.7212137363
 40
1.0
 40
1.0
 40
1.0
 40
1.0
 10
7.5566308466
 20
22.9729842319
 30
0.0
 10
7.5644022232
 20
22.9765832189
 30
0.0
 10
7.5814241269
 20
22.9817571737
 30
0.0
 10
7.6088749374
 20
22.9826754722
 30
0.0
 10
7.6376919426
 20
22.9770176637
 30
0.0
 10
7.6564992624
 20
22.969369798
 30
0.0
 10
7.665905313
 20
22.9646667727
 30
0.0
 11
7.5566308466
 21
22.9729842319
 31
0.0
 11
7.5811864988
 21
22.9805435287
 31
0.0
 11
7.6080884885
 21
22.9816677758
 31
0.0
 11
7.6365902001
 21
22.9763267155
 31
0.0
 11
7.665905313
 21
22.9646667727
 31
0.0
  0
SPLINE
  5
51C
100
AcDbEntity
  8
0
100
AcDbSpline
 62
253
  6
CONTINUOUS
 70
0
 71
3
 72
13
 73
9
 74
7
 42
0.0000001
 43
0.0000001
 44
0.0000000001
 12
0.1276934998
 22
0.3370671862
 32
0.0
 13
-0.3225549718
 23
0.1608670508
 33
0.0
 40
0.0
 40
0.0
 40
0.0
 40
0.0
 40
0.2701274356
 40
0.5327826472
 40
0.6577244683
 40
0.7769937766
 40
0.8907285726
 40
1.0
 40
1.0
 40
1.0
 40
1.0
 10
22.3716664392
 20
-25.7242797276
 30
0.0
 10
22.3831642784
 20
-25.6939293627
 30
0.0
 10
22.3966485571
 20
-25.6302026743
 30
0.0
 10
22.3888584034
 20
-25.550084352
 30
0.0
 10
22.3674450617
 20
-25.4927514454
 30
0.0
 10
22.3449461955
 20
-25.4557578137
 30
0.0
 10
22.3165647352
 20
-25.4255715738
 30
0.0
 10
22.2940013246
 20
-25.4105723123
 30
0.0
 10
22.2822526438
 20
-25.4047129216
 30
0.0
 11
22.3716664392
 21
-25.7242797276
 31
0.0
 11
22.3917492384
 21
-25.6290075608
 31
0.0
 11
22.3818160344
 21
-25.5348575974
 31
0.0
 11
22.365888052
 21
-25.4927338644
 31
0.0
 11
22.3433733644
 21
-25.4561111735
 31
0.0
 11
22.3151355401
 21
-25.4263921919
 31
0.0
 11
22.2822526438
 21
-25.4047129216
 31
0.0
  0
SPLINE
  5
51D
100
AcDbEntity
  8
0
100
AcDbSpline
 62
253
  6
CONTINUOUS
 70
0
 71
3
 72
11
 73
7
 74
5
 42
0.0000001
 43
0.0000001
 44
0.0000000001
 12
0.1043532206
 22
0.0535301431
 32
0.0
 13
0.1051440722
 23
-0.0519595512
 33
0.0
 40
0.0
 40
0.0
 40
0.0
 40
0.0
 40
0.2268558556
 40
0.4643038579
 40
0.7204819073
 40
1.0
 40
1.0
 40
1.0
 40
1.0
 10
18.2737210753
 20
16.0073015783
 30
0.0
 10
18.2816121217
 20
16.0113494538
 30
0.0
 10
18.299048597
 20
16.0173299347
 30
0.0
 10
18.3274639908
 20
16.018951904
 30
0.0
 10
18.3574323263
 20
16.0134993255
 30
0.0
 10
18.3770101457
 20
16.0056948906
 30
0.0
 10
18.3868067025
 20
16.000853679
 30
0.0
 11
18.2737210753
 21
16.0073015783
 31
0.0
 11
18.2988597987
 21
16.0160153469
 31
0.0
 11
18.3266478723
 21
16.0178470774
 31
0.0
 11
18.356256255
 21
16.012743122
 31
0.0
 11
18.3868067025
 21
16.000853679
 31
0.0
  0
SPLINE
  5
51E
100
AcDbEntity
  8
0
100
AcDbSpline
 62
253
  6
CONTINUOUS
 70
0
 71
3
 72
11
 73
7
 74
5
 42
0.0000001
 43
0.0000001
 44
0.0000000001
 12
0.1019522845
 22
0.0459122515
 32
0.0
 13
0.0997758586
 23
-0.0504676251
 33
0.0
 40
0.0
 40
0.0
 40
0.0
 40
0.0
 40
0.2272902454
 40
0.4653391799
 40
0.7214964938
 40
1.0
 40
1.0
 40
1.0
 40
1.0
 10
20.3960553996
 20
17.0821167437
 30
0.0
 10
20.4037796528
 20
17.0855952127
 30
0.0
 10
20.4206546008
 20
17.0905527418
 30
0.0
 10
20.4477902518
 20
17.0912647302
 30
0.0
 10
20.4762187856
 20
17.0855121605
 30
0.0
 10
20.4947505422
 20
17.0778703798
 30
0.0
 10
20.5040131844
 20
17.0731852429
 30
0.0
 11
20.3960553996
 21
17.0821167437
 31
0.0
 11
20.4204139326
 21
17.0893649424
 31
0.0
 11
20.4470152213
 21
17.0902800781
 31
0.0
 11
20.4751352566
 21
17.0848380843
 31
0.0
 11
20.5040131844
 21
17.0731852429
 31
0.0
  0
SPLINE
  5
51F
100
AcDbEntity
  8
0
100
AcDbSpline
 62
7
  6
CONTINUOUS
 70
0
 71
3
 72
11
 73
7
 74
5
 42
0.0000001
 43
0.0000001
 44
0.0000000001
 12
0.1026878294
 22
0.0475555594
 32
0.0
 13
0.1012178701
 23
-0.050608935
 33
0.0
 40
0.0
 40
0.0
 40
0.0
 40
0.0
 40
0.227038882
 40
0.4649699236
 40
0.7212137363
 40
1.0
 40
1.0
 40
1.0
 40
1.0
 10
19.8602888392
 20
16.8211552356
 30
0.0
 10
19.8680602159
 20
16.8247542226
 30
0.0
 10
19.8850821196
 20
16.8299281774
 30
0.0
 10
19.9125329301
 20
16.8308464759
 30
0.0
 10
19.9413499353
 20
16.8251886674
 30
0.0
 10
19.9601572551
 20
16.8175408017
 30
0.0
 10
19.9695633057
 20
16.8128377764
 30
0.0
 11
19.8602888392
 21
16.8211552356
 31
0.0
 11
19.8848444914
 21
16.8287145323
 31
0.0
 11
19.9117464811
 21
16.8298387795
 31
0.0
 11
19.9402481927
 21
16.8244977192
 31
0.0
 11
19.9695633057
 21
16.8128377764
 31
0.0
  0
SPLINE
  5
520
100
AcDbEntity
  8
0
100
AcDbSpline
 62
7
  6
CONTINUOUS
 70
0
 71
3
 72
11
 73
7
 74
5
 42
0.0000001
 43
0.0000001
 44
0.0000000001
 12
-0.410745665
 22
0.2053724617
 32
0.0
 13
-0.4119128158
 23
-0.2030213819
 33
0.0
 40
0.0
 40
0.0
 40
0.0
 40
0.0
 40
0.2274037748
 40
0.4651062023
 40
0.7211036205
 40
1.0
 40
1.0
 40
1.0
 40
1.0
 10
20.7703330986
 20
22.5685454422
 30
0.0
 10
20.7391980603
 20
22.5841129332
 30
0.0
 10
20.6706565733
 20
22.6070173032
 30
0.0
 10
20.5593065527
 20
22.6129668523
 30
0.0
 10
20.4420839403
 20
22.5915213687
 30
0.0
 10
20.3655271095
 20
22.5610601006
 30
0.0
 10
20.3272334452
 20
22.5421861245
 30
0.0
 11
20.7703330986
 21
22.5685454422
 31
0.0
 11
20.6713905516
 21
22.6019521607
 31
0.0
 11
20.5624395175
 21
22.6086948668
 31
0.0
 11
20.446611998
 21
22.5885805903
 31
0.0
 11
20.3272334452
 21
22.5421861245
 31
0.0
  0
SPLINE
  5
521
100
AcDbEntity
  8
0
100
AcDbSpline
 62
253
  6
CONTINUOUS
 70
0
 71
3
 72
13
 73
9
 74
7
 42
0.0000001
 43
0.0000001
 44
0.0000000001
 12
0.3242438811
 22
-0.1621219405
 32
0.0
 13
0.324992319
 23
0.1606163459
 33
0.0
 40
0.0
 40
0.0
 40
0.0
 40
0.0
 40
0.1125239958
 40
0.2354263585
 40
0.4995814771
 40
0.763962852
 40
0.8871320065
 40
1.0
 40
1.0
 40
1.0
 40
1.0
 10
19.889596517
 20
-26.7823702446
 30
0.0
 10
19.901758256
 20
-26.7884511142
 30
0.0
 10
19.9282550906
 20
-26.7991151242
 30
0.0
 10
19.9867448982
 20
-26.8145030159
 30
0.0
 10
20.0656698389
 20
-26.8219620221
 30
0.0
 10
20.1446448368
 20
-26.8147225982
 30
0.0
 10
20.2032839777
 20
-26.7995091617
 30
0.0
 10
20.2298913996
 20
-26.7889257834
 30
0.0
 10
20.2421184766
 20
-26.7828829685
 30
0.0
 11
19.889596517
 21
-26.7823702446
 31
0.0
 11
19.9273306182
 21
-26.7978654517
 31
0.0
 11
19.9703664752
 21
-26.8093970133
 31
0.0
 11
20.0656460194
 21
-26.8189812387
 31
0.0
 11
20.161035462
 21
-26.8096743221
 31
0.0
 11
20.2042047608
 21
-26.7982681356
 31
0.0
 11
20.2421184766
 21
-26.7828829685
 31
0.0
  0
SPLINE
  5
522
100
AcDbEntity
  8
0
100
AcDbSpline
 62
253
  6
CONTINUOUS
 70
0
 71
3
 72
13
 73
9
 74
7
 42
0.0000001
 43
0.0000001
 44
0.0000000001
 12
0.324243881
 22
-0.1621219405
 32
0.0
 13
0.3249923189
 23
0.1606163459
 33
0.0
 40
0.0
 40
0.0
 40
0.0
 40
0.0
 40
0.1125237948
 40
0.2354261649
 40
0.4995812834
 40
0.763962697
 40
0.887131874
 40
1.0
 40
1.0
 40
1.0
 40
1.0
 10
19.889596517
 20
-27.1223441788
 30
0.0
 10
19.9017582343
 20
-27.1284250374
 30
0.0
 10
19.9282550463
 20
-27.1390890395
 30
0.0
 10
19.9867448268
 20
-27.1544769423
 30
0.0
 10
20.0656697733
 20
-27.1619359561
 30
0.0
 10
20.1446447786
 20
-27.1546965396
 30
0.0
 10
20.2032839453
 20
-27.1394831091
 30
0.0
 10
20.2298913853
 20
-27.1288997246
 30
0.0
 10
20.2421184766
 20
-27.1228569026
 30
0.0
 11
19.889596517
 21
-27.1223441788
 31
0.0
 11
19.9273305495
 21
-27.1378393613
 31
0.0
 11
19.9703664063
 21
-27.1493709341
 31
0.0
 11
20.0656459491
 21
-27.1589551727
 31
0.0
 11
20.1610354067
 21
-27.1496482667
 31
0.0
 11
20.2042047154
 21
-27.1382420855
 31
0.0
 11
20.2421184766
 21
-27.1228569026
 31
0.0
  0
SPLINE
  5
523
100
AcDbEntity
  8
0
100
AcDbSpline
 62
253
  6
CONTINUOUS
 70
0
 71
3
 72
13
 73
9
 74
7
 42
0.0000001
 43
0.0000001
 44
0.0000000001
 12
-0.1868382088
 22
0.3017261093
 32
0.0
 13
-0.3164708721
 23
0.160603077
 33
0.0
 40
0.0
 40
0.0
 40
0.0
 40
0.0
 40
0.1018783706
 40
0.2189949013
 40
0.4830124304
 40
0.7559754682
 40
0.8838502087
 40
1.0
 40
1.0
 40
1.0
 40
1.0
 10
20.2421184766
 20
-26.7828829685
 30
0.0
 10
20.2357735525
 20
-26.7726365137
 30
0.0
 10
20.2207587965
 20
-26.7514605895
 30
0.0
 10
20.1839535506
 20
-26.7077027053
 30
0.0
 10
20.1283210376
 20
-26.6536451682
 30
0.0
 10
20.0665098484
 20
-26.6047592745
 30
0.0
 10
20.0153933244
 20
-26.5711241954
 30
0.0
 10
19.9902375399
 20
-26.5568940754
 30
0.0
 10
19.9779848646
 20
-26.5506760708
 30
0.0
 11
20.2421184766
 21
-26.7828829685
 31
0.0
 11
20.2214415918
 21
-26.7532232734
 31
0.0
 11
20.1948287126
 21
-26.7212970865
 31
0.0
 11
20.1280541703
 21
-26.6555677963
 31
0.0
 11
20.0519235504
 21
-26.59566535
 31
0.0
 11
20.0139517022
 21
-26.5708133817
 31
0.0
 11
19.9779848646
 21
-26.5506760708
 31
0.0
  0
SPLINE
  5
524
100
AcDbEntity
  8
0
100
AcDbSpline
 62
7
  6
CONTINUOUS
 70
0
 71
3
 72
12
 73
8
 74
6
 42
0.0000001
 43
0.0000001
 44
0.0000000001
 12
-0.3675872488
 22
0.0767591186
 32
0.0
 13
-0.3358718181
 23
0.1679359091
 33
0.0
 40
0.0
 40
0.0
 40
0.0
 40
0.0
 40
0.0967020994
 40
0.2082925315
 40
0.4660849651
 40
0.7455532914
 40
1.0
 40
1.0
 40
1.0
 40
1.0
 10
20.9533390847
 20
-25.9313864914
 30
0.0
 10
20.9414902652
 20
-25.9289122354
 30
0.0
 10
20.9161115902
 20
-25.9228943398
 30
0.0
 10
20.8598626141
 20
-25.9073827923
 30
0.0
 10
20.7825901014
 20
-25.8822301738
 30
0.0
 10
20.6898929134
 20
-25.8470999934
 30
0.0
 10
20.6287900562
 20
-25.8198602331
 30
0.0
 10
20.6003028967
 20
-25.8056166533
 30
0.0
 11
20.9533390847
 21
-25.9313864914
 31
0.0
 11
20.9179775752
 21
-25.9231274446
 31
0.0
 11
20.8775605412
 21
-25.9120635854
 31
0.0
 11
20.7854196598
 21
-25.8823767712
 31
0.0
 11
20.6873497493
 21
-25.8450174891
 31
0.0
 11
20.6003028967
 21
-25.8056166533
 31
0.0
  0
SPLINE
  5
525
100
AcDbEntity
  8
RACCORDO
100
AcDbSpline
 62
7
  6
CONTINUOUS
 70
0
 71
3
 72
11
 73
7
 74
5
 42
0.0000001
 43
0.0000001
 44
0.0000000001
 12
0.0000013462
 22
-0.0948921058
 32
0.0
 13
-0.0845741634
 23
-0.043031647
 33
0.0
 40
0.0
 40
0.0
 40
0.0
 40
0.0
 40
0.2071632902
 40
0.4353397694
 40
0.6980034867
 40
1.0
 40
1.0
 40
1.0
 40
1.0
 10
28.1639332779
 20
-18.1580389427
 30
0.0
 10
28.1639333709
 20
-18.164591663
 30
0.0
 10
28.1610784088
 20
-18.1784666023
 30
0.0
 10
28.1491303257
 20
-18.1974395248
 30
0.0
 10
28.130481798
 20
-18.2145254145
 30
0.0
 10
28.1150970725
 20
-18.2237996495
 30
0.0
 10
28.1065833717
 20
-18.228131452
 30
0.0
 11
28.1639332779
 21
-18.1580389427
 31
0.0
 11
28.1601752374
 21
-18.177334549
 31
0.0
 11
28.1490414005
 21
-18.1959047705
 31
0.0
 11
28.1309518562
 21
-18.2130514821
 31
0.0
 11
28.1065833717
 21
-18.228131452
 31
0.0
  0
SPLINE
  5
526
100
AcDbEntity
  8
0
100
AcDbSpline
 62
253
  6
CONTINUOUS
 70
0
 71
3
 72
11
 73
7
 74
5
 42
0.0000001
 43
0.0000001
 44
0.0000000001
 12
0.0
 22
0.2523287372
 32
0.0
 13
0.1609736157
 23
0.1943123431
 33
0.0
 40
0.0
 40
0.0
 40
0.0
 40
0.0
 40
0.2352255909
 40
0.4870809229
 40
0.7456503071
 40
1.0
 40
1.0
 40
1.0
 40
1.0
 10
19.889596517
 20
-26.7823702446
 30
0.0
 10
19.889596517
 20
-26.7625855192
 30
0.0
 10
19.8941273706
 20
-26.7215602175
 30
0.0
 10
19.9118766821
 20
-26.6611300759
 30
0.0
 10
19.9397015793
 20
-26.6028489277
 30
0.0
 10
19.9643370014
 20
-26.5671504991
 30
0.0
 10
19.9779848646
 20
-26.5506760708
 30
0.0
 11
19.889596517
 21
-26.7823702446
 31
0.0
 11
19.895620039
 21
-26.7233225061
 31
0.0
 11
19.9132801125
 21
-26.6622752519
 31
0.0
 11
19.9413732322
 21
-26.6033887542
 31
0.0
 11
19.9779848646
 21
-26.5506760708
 31
0.0
  0
SPLINE
  5
527
100
AcDbEntity
  8
0
100
AcDbSpline
 62
253
  6
CONTINUOUS
 70
0
 71
3
 72
11
 73
7
 74
5
 42
0.0000001
 43
0.0000001
 44
0.0000000001
 12
-0.1026883093
 22
0.0513390957
 32
0.0
 13
-0.1029781103
 23
-0.0507552993
 33
0.0
 40
0.0
 40
0.0
 40
0.0
 40
0.0
 40
0.227403554
 40
0.4651088733
 40
0.7210989994
 40
1.0
 40
1.0
 40
1.0
 40
1.0
 10
10.0020096391
 20
22.3861642282
 30
0.0
 10
9.9942257436
 20
22.3900557924
 30
0.0
 10
9.9770904504
 20
22.3957822573
 30
0.0
 10
9.9492530868
 20
22.3972691249
 30
0.0
 10
9.919947365
 20
22.3919085487
 30
0.0
 10
9.9008083089
 20
22.3842930316
 30
0.0
 10
9.8912347429
 20
22.3795744637
 30
0.0
 11
10.0020096391
 21
22.3861642282
 31
0.0
 11
9.9772740093
 21
22.3945157748
 31
0.0
 11
9.9500359353
 21
22.3962013271
 31
0.0
 11
9.9210798418
 21
22.3911732788
 31
0.0
 11
9.8912347429
 21
22.3795744637
 31
0.0
  0
SPLINE
  5
528
100
AcDbEntity
  8
0
100
AcDbSpline
 62
253
  6
CONTINUOUS
 70
0
 71
3
 72
11
 73
7
 74
5
 42
0.0000001
 43
0.0000001
 44
0.0000000001
 12
-0.1014829003
 22
0.0464497497
 32
0.0
 13
-0.1001089744
 23
-0.049341175
 33
0.0
 40
0.0
 40
0.0
 40
0.0
 40
0.0
 40
0.2273245815
 40
0.4654457536
 40
0.7216122135
 40
1.0
 40
1.0
 40
1.0
 40
1.0
 10
8.3082222173
 20
23.232995858
 30
0.0
 10
8.3005323647
 20
23.2365155813
 30
0.0
 10
8.2837204671
 20
23.2415774099
 30
0.0
 10
8.2566397509
 20
23.2425084752
 30
0.0
 10
8.2282143698
 20
23.237031266
 30
0.0
 10
8.209644897
 20
23.2295928994
 30
0.0
 10
8.2003551917
 20
23.2250142393
 30
0.0
 11
8.3082222173
 21
23.232995858
 31
0.0
 11
8.2839541067
 21
23.2403958159
 31
0.0
 11
8.2574018232
 21
23.241524017
 31
0.0
 11
8.2292835114
 21
23.2363507772
 31
0.0
 11
8.2003551917
 21
23.2250142393
 31
0.0
  0
SPLINE
  5
529
100
AcDbEntity
  8
0
100
AcDbSpline
 62
253
  6
CONTINUOUS
 70
0
 71
3
 72
11
 73
7
 74
5
 42
0.0000001
 43
0.0000001
 44
0.0000000001
 12
-0.1026883093
 22
0.0513390957
 32
0.0
 13
-0.1029781103
 23
-0.0507552993
 33
0.0
 40
0.0
 40
0.0
 40
0.0
 40
0.0
 40
0.227403554
 40
0.4651088733
 40
0.7210989994
 40
1.0
 40
1.0
 40
1.0
 40
1.0
 10
22.3056676318
 20
16.2343352318
 30
0.0
 10
22.2978837363
 20
16.2382267961
 30
0.0
 10
22.2807484431
 20
16.243953261
 30
0.0
 10
22.2529110795
 20
16.2454401286
 30
0.0
 10
22.2236053576
 20
16.2400795524
 30
0.0
 10
22.2044663015
 20
16.2324640353
 30
0.0
 10
22.1948927355
 20
16.2277454674
 30
0.0
 11
22.3056676318
 21
16.2343352318
 31
0.0
 11
22.2809320019
 21
16.2426867785
 31
0.0
 11
22.2536939279
 21
16.2443723308
 31
0.0
 11
22.2247378345
 21
16.2393442825
 31
0.0
 11
22.1948927355
 21
16.2277454674
 31
0.0
  0
SPLINE
  5
52A
100
AcDbEntity
  8
0
100
AcDbSpline
 62
7
  6
CONTINUOUS
 70
0
 71
3
 72
11
 73
7
 74
5
 42
0.0000001
 43
0.0000001
 44
0.0000000001
 12
0.1706102467
 22
0.3461309449
 32
0.0
 13
-0.1209853778
 23
0.3664382972
 33
0.0
 40
0.0
 40
0.0
 40
0.0
 40
0.0
 40
0.2151615186
 40
0.455593573
 40
0.719125393
 40
1.0
 40
1.0
 40
1.0
 40
1.0
 10
17.8128906147
 20
16.5332939659
 30
0.0
 10
17.8251268679
 20
16.5581186525
 30
0.0
 10
17.8432010838
 20
16.6146604057
 30
0.0
 10
17.8511728235
 20
16.7073720238
 30
0.0
 10
17.8415988913
 20
16.8083380988
 30
0.0
 10
17.8242178548
 20
16.8764779501
 30
0.0
 10
17.8128906147
 20
16.9107856876
 30
0.0
 11
17.8128906147
 21
16.5332939659
 31
0.0
 11
17.8392937835
 21
16.6120136667
 31
0.0
 11
17.8482459537
 21
16.7043621572
 31
0.0
 11
17.8392937835
 21
16.805662818
 31
0.0
 11
17.8128906147
 21
16.9107856876
 31
0.0
  0
SPLINE
  5
52B
100
AcDbEntity
  8
0
100
AcDbSpline
 62
253
  6
CONTINUOUS
 70
0
 71
3
 72
11
 73
7
 74
5
 42
0.0000001
 43
0.0000001
 44
0.0000000001
 12
-0.1024494628
 22
0.0502830642
 32
0.0
 13
-0.1023656647
 23
-0.0504534404
 33
0.0
 40
0.0
 40
0.0
 40
0.0
 40
0.0
 40
0.2273799049
 40
0.4651739456
 40
0.7212050258
 40
1.0
 40
1.0
 40
1.0
 40
1.0
 10
20.6141712772
 20
17.0800805549
 30
0.0
 10
20.6064062941
 20
17.0838916743
 30
0.0
 10
20.5893381394
 20
17.0894737316
 30
0.0
 10
20.5616615788
 20
17.0908389335
 30
0.0
 10
20.5325437222
 20
17.085451919
 30
0.0
 10
20.5135261953
 20
17.0778739648
 30
0.0
 10
20.5040131844
 20
17.0731852429
 30
0.0
 11
20.6141712772
 21
17.0800805549
 31
0.0
 11
20.5895331474
 21
17.0882254243
 31
0.0
 11
20.5624402457
 21
17.0897892756
 31
0.0
 11
20.5336625512
 21
17.0847285726
 31
0.0
 11
20.5040131844
 21
17.0731852429
 31
0.0
  0
SPLINE
  5
52C
100
AcDbEntity
  8
0
100
AcDbSpline
 62
253
  6
CONTINUOUS
 70
0
 71
3
 72
11
 73
7
 74
5
 42
0.0000001
 43
0.0000001
 44
0.0000000001
 12
0.0007391864
 22
-0.1561523752
 32
0.0
 13
-0.1389354569
 23
-0.0712814807
 33
0.0
 40
0.0
 40
0.0
 40
0.0
 40
0.0
 40
0.2893575764
 40
0.549042676
 40
0.7824595675
 40
1.0
 40
1.0
 40
1.0
 40
1.0
 10
22.3716664392
 20
-26.0718112443
 30
0.0
 10
22.3717377356
 20
-26.0868725353
 30
0.0
 10
22.3694445871
 20
-26.1155703732
 30
0.0
 10
22.3573838384
 20
-26.1548861606
 30
0.0
 10
22.3370762078
 20
-26.1864690485
 30
0.0
 10
22.3180586039
 20
-26.2012032653
 30
0.0
 10
22.3079839108
 20
-26.2063721334
 30
0.0
 11
22.3716664392
 21
-26.0718112443
 31
0.0
 11
22.3676069981
 21
-26.1168129004
 31
0.0
 11
22.3551788406
 21
-26.155412335
 31
0.0
 11
22.3349799814
 21
-26.1857526785
 31
0.0
 11
22.3079839108
 21
-26.2063721334
 31
0.0
  0
SPLINE
  5
52D
100
AcDbEntity
  8
0
100
AcDbSpline
 62
7
  6
CONTINUOUS
 70
0
 71
3
 72
11
 73
7
 74
5
 42
0.0000001
 43
0.0000001
 44
0.0000000001
 12
0.0
 22
-0.156469187
 32
0.0
 13
-0.1392205295
 23
-0.0714160392
 33
0.0
 40
0.0
 40
0.0
 40
0.0
 40
0.0
 40
0.2895498204
 40
0.5494320339
 40
0.7828527029
 40
1.0
 40
1.0
 40
1.0
 40
1.0
 10
21.8433992674
 20
-26.342822303
 30
0.0
 10
21.8433992674
 20
-26.357924178
 30
0.0
 10
21.840977335
 20
-26.3866876273
 30
0.0
 10
21.8287767668
 20
-26.4260631441
 30
0.0
 10
21.8084051071
 20
-26.457674864
 30
0.0
 10
21.7893712485
 20
-26.472430732
 30
0.0
 10
21.779294128
 20
-26.4775999986
 30
0.0
 11
21.8433992674
 21
-26.342822303
 31
0.0
 11
21.8391410814
 21
-26.3879273748
 31
0.0
 11
21.8265722633
 21
-26.426599714
 31
0.0
 11
21.8062975374
 21
-26.4569785786
 31
0.0
 11
21.779294128
 21
-26.4775999986
 31
0.0
  0
SPLINE
  5
52E
100
AcDbEntity
  8
0
100
AcDbSpline
 62
253
  6
CONTINUOUS
 70
0
 71
3
 72
11
 73
7
 74
5
 42
0.0000001
 43
0.0000001
 44
0.0000000001
 12
0.0000005502
 22
-0.1191822452
 32
0.0
 13
-0.10634974
 23
-0.0537972154
 33
0.0
 40
0.0
 40
0.0
 40
0.0
 40
0.0
 40
0.2069626084
 40
0.4350625143
 40
0.6978081357
 40
1.0
 40
1.0
 40
1.0
 40
1.0
 10
10.1402060454
 20
21.8150260328
 30
0.0
 10
10.1402060834
 20
21.8068039433
 30
0.0
 10
10.1366073
 20
21.7893880618
 30
0.0
 10
10.1215580538
 20
21.7655925398
 30
0.0
 10
10.0980806595
 20
21.7441811885
 30
0.0
 10
10.0787211219
 20
21.7325724351
 30
0.0
 10
10.0680084465
 20
21.7271534081
 30
0.0
 11
10.1402060454
 21
21.8150260328
 31
0.0
 11
10.1354732447
 21
21.7908180715
 31
0.0
 11
10.1214532178
 21
21.7675266992
 31
0.0
 11
10.0986784942
 21
21.7460344457
 31
0.0
 11
10.0680084465
 21
21.7271534081
 31
0.0
  0
SPLINE
  5
52F
100
AcDbEntity
  8
0
100
AcDbSpline
 62
253
  6
CONTINUOUS
 70
0
 71
3
 72
11
 73
7
 74
5
 42
0.0000001
 43
0.0000001
 44
0.0000000001
 12
-0.0007563309
 22
-0.1586777619
 32
0.0
 13
-0.1426512398
 23
-0.0694969635
 33
0.0
 40
0.0
 40
0.0
 40
0.0
 40
0.0
 40
0.2901374998
 40
0.5501324132
 40
0.7832368276
 40
1.0
 40
1.0
 40
1.0
 40
1.0
 10
20.2421184766
 20
-27.1228569026
 30
0.0
 10
20.24204533
 20
-27.1382030257
 30
0.0
 10
20.2394282267
 20
-27.1674001128
 30
0.0
 10
20.2267421468
 20
-27.2072649214
 30
0.0
 10
20.2057216177
 20
-27.2390731111
 30
0.0
 10
20.1861706314
 20
-27.2536826887
 30
0.0
 10
20.1758634529
 20
-27.2587041494
 30
0.0
 11
20.2421184766
 21
-27.1228569026
 31
0.0
 11
20.2375343496
 21
-27.1686670037
 31
0.0
 11
20.2244675669
 21
-27.207798919
 31
0.0
 11
20.2035651589
 21
-27.2383156124
 31
0.0
 11
20.1758634529
 21
-27.2587041494
 31
0.0
  0
SPLINE
  5
530
100
AcDbEntity
  8
0
100
AcDbSpline
 62
253
  6
CONTINUOUS
 70
0
 71
3
 72
11
 73
7
 74
5
 42
0.0000001
 43
0.0000001
 44
0.0000000001
 12
0.0000006317
 22
-0.1191822703
 32
0.0
 13
-0.1063497623
 23
-0.0537972267
 33
0.0
 40
0.0
 40
0.0
 40
0.0
 40
0.0
 40
0.2069625494
 40
0.4350623935
 40
0.6978079022
 40
1.0
 40
1.0
 40
1.0
 40
1.0
 10
10.1402060455
 20
22.1625575747
 30
0.0
 10
10.140206089
 20
22.1543354859
 30
0.0
 10
10.1366073113
 20
22.1369196032
 30
0.0
 10
10.1215580718
 20
22.1131240818
 30
0.0
 10
10.0980806794
 20
22.0917127149
 30
0.0
 10
10.0787211325
 20
22.0801039571
 30
0.0
 10
10.0680084465
 20
22.0746849249
 30
0.0
 11
10.1402060455
 21
22.1625575747
 31
0.0
 11
10.1354732553
 21
22.1383496132
 31
0.0
 11
10.121453235
 21
22.1150582389
 31
0.0
 11
10.0986785231
 21
22.0935659831
 31
0.0
 11
10.0680084465
 21
22.0746849249
 31
0.0
  0
SPLINE
  5
531
100
AcDbEntity
  8
0
100
AcDbSpline
 62
7
  6
CONTINUOUS
 70
0
 71
3
 72
11
 73
7
 74
5
 42
0.0000001
 43
0.0000001
 44
0.0000000001
 12
0.0
 22
-0.2958982934
 32
0.0
 13
-0.2495376243
 23
-0.1590181564
 33
0.0
 40
0.0
 40
0.0
 40
0.0
 40
0.0
 40
0.2875843726
 40
0.5477283435
 40
0.7825983356
 40
1.0
 40
1.0
 40
1.0
 40
1.0
 10
22.5498889189
 20
-24.6607055741
 30
0.0
 10
22.5498889189
 20
-24.6890708158
 30
0.0
 10
22.5456066077
 20
-24.7432659061
 30
0.0
 10
22.524215864
 20
-24.8180783457
 30
0.0
 10
22.4885662048
 20
-24.8796088845
 30
0.0
 10
22.454947941
 20
-24.9103208171
 30
0.0
 10
22.4368646427
 20
-24.9218444211
 30
0.0
 11
22.5498889189
 21
-24.6607055741
 31
0.0
 11
22.5424454341
 21
-24.7454751262
 31
0.0
 11
22.5204206308
 21
-24.819233087
 31
0.0
 11
22.4847292302
 21
-24.8788656661
 31
0.0
 11
22.4368646427
 21
-24.9218444211
 31
0.0
  0
SPLINE
  5
532
100
AcDbEntity
  8
0
100
AcDbSpline
 62
7
  6
CONTINUOUS
 70
0
 71
3
 72
15
 73
11
 74
9
 42
0.0000001
 43
0.0000001
 44
0.0000000001
 12
0.6577643085
 22
-0.3288821542
 32
0.0
 13
0.0
 23
-0.7354028535
 33
0.0
 40
0.0
 40
0.0
 40
0.0
 40
0.0
 40
0.1103594991
 40
0.2299539128
 40
0.3568636316
 40
0.488441235
 40
0.6216310848
 40
0.753249039
 40
0.8802491262
 40
1.0
 40
1.0
 40
1.0
 40
1.0
 10
22.1969351702
 20
13.8804984962
 30
0.0
 10
22.2211320167
 20
13.8684000729
 30
0.0
 10
22.2690463914
 20
13.8380459979
 30
0.0
 10
22.3348633126
 20
13.7799904571
 30
0.0
 10
22.3954354022
 20
13.7094794111
 30
0.0
 10
22.44851062
 20
13.6291860849
 30
0.0
 10
22.492128044
 20
13.5421017168
 30
0.0
 10
22.524664265
 20
13.4514766401
 30
0.0
 10
22.5449131066
 20
13.3607141285
 30
0.0
 10
22.5498889189
 20
13.300165773
 30
0.0
 10
22.5498889189
 20
13.2708107282
 30
0.0
 11
22.1969351702
 21
13.8804984962
 31
0.0
 11
22.2658545472
 21
13.8376399787
 31
0.0
 11
22.3321086803
 21
13.7797987719
 31
0.0
 11
22.3931484453
 21
13.7091971222
 31
0.0
 11
22.4466267344
 21
13.6285555528
 31
0.0
 11
22.4904924999
 21
13.5409790512
 31
0.0
 11
22.5230700257
 21
13.4498339006
 31
0.0
 11
22.5431210609
 21
13.3586154205
 31
0.0
 11
22.5498889189
 21
13.2708107282
 31
0.0
  0
SPLINE
  5
533
100
AcDbEntity
  8
0
100
AcDbSpline
 62
253
  6
CONTINUOUS
 70
0
 71
3
 72
11
 73
7
 74
5
 42
0.0000001
 43
0.0000001
 44
0.0000000001
 12
0.0000005502
 22
-0.1191822452
 32
0.0
 13
-0.10634974
 23
-0.0537972154
 33
0.0
 40
0.0
 40
0.0
 40
0.0
 40
0.0
 40
0.2069626084
 40
0.4350625143
 40
0.6978081357
 40
1.0
 40
1.0
 40
1.0
 40
1.0
 10
22.4438640381
 20
15.6631970365
 30
0.0
 10
22.443864076
 20
15.654974947
 30
0.0
 10
22.4402652926
 20
15.6375590654
 30
0.0
 10
22.4252160465
 20
15.6137635435
 30
0.0
 10
22.4017386522
 20
15.5923521922
 30
0.0
 10
22.3823791146
 20
15.5807434387
 30
0.0
 10
22.3716664392
 20
15.5753244118
 30
0.0
 11
22.4438640381
 21
15.6631970365
 31
0.0
 11
22.4391312373
 21
15.6389890752
 31
0.0
 11
22.4251112104
 21
15.6156977028
 31
0.0
 11
22.4023364868
 21
15.5942054494
 31
0.0
 11
22.3716664392
 21
15.5753244118
 31
0.0
  0
SPLINE
  5
534
100
AcDbEntity
  8
0
100
AcDbSpline
 62
253
  6
CONTINUOUS
 70
0
 71
3
 72
11
 73
7
 74
5
 42
0.0000001
 43
0.0000001
 44
0.0000000001
 12
0.0000006317
 22
-0.1191822703
 32
0.0
 13
-0.1063497623
 23
-0.0537972267
 33
0.0
 40
0.0
 40
0.0
 40
0.0
 40
0.0
 40
0.2069625494
 40
0.4350623935
 40
0.6978079022
 40
1.0
 40
1.0
 40
1.0
 40
1.0
 10
22.4438640381
 20
16.0107285784
 30
0.0
 10
22.4438640817
 20
16.0025064895
 30
0.0
 10
22.4402653039
 20
15.9850906069
 30
0.0
 10
22.4252160645
 20
15.9612950854
 30
0.0
 10
22.4017386721
 20
15.9398837185
 30
0.0
 10
22.3823791251
 20
15.9282749608
 30
0.0
 10
22.3716664392
 20
15.9228559285
 30
0.0
 11
22.4438640381
 21
16.0107285784
 31
0.0
 11
22.4391312479
 21
15.9865206169
 31
0.0
 11
22.4251112277
 21
15.9632292425
 31
0.0
 11
22.4023365157
 21
15.9417369867
 31
0.0
 11
22.3716664392
 21
15.9228559285
 31
0.0
  0
SPLINE
  5
535
100
AcDbEntity
  8
0
100
AcDbSpline
 62
7
  6
CONTINUOUS
 70
0
 71
3
 72
9
 73
5
 74
3
 42
0.0000001
 43
0.0000001
 44
0.0000000001
 12
0.0305149002
 22
0.0150400205
 32
0.0
 13
0.0317539986
 23
0.0122083956
 33
0.0
 40
0.0
 40
0.0
 40
0.0
 40
0.0
 40
0.2541764983
 40
1.0
 40
1.0
 40
1.0
 40
1.0
 10
17.4967494418
 20
22.8837871749
 30
0.0
 10
17.499334832
 20
22.8850614481
 30
0.0
 10
17.5095602196
 20
22.8899646416
 30
0.0
 10
17.5200020886
 20
22.8944190657
 30
0.0
 10
17.5278963814
 20
22.8974541685
 30
0.0
 11
17.4967494418
 21
22.8837871749
 31
0.0
 11
17.5045469243
 21
22.8875250082
 31
0.0
 11
17.5278963814
 21
22.8974541685
 31
0.0
  0
SPLINE
  5
536
100
AcDbEntity
  8
0
100
AcDbSpline
 62
7
  6
CONTINUOUS
 70
0
 71
3
 72
14
 73
10
 74
8
 42
0.0000001
 43
0.0000001
 44
0.0000000001
 12
0.0
 22
0.735645008
 32
0.0
 13
-0.6579808981
 23
0.328990449
 33
0.0
 40
0.0
 40
0.0
 40
0.0
 40
0.0
 40
0.1198787376
 40
0.2470289242
 40
0.3787945225
 40
0.5121101
 40
0.6437813186
 40
0.770751571
 40
1.0
 40
1.0
 40
1.0
 40
1.0
 10
22.55081459
 20
13.2705607401
 30
0.0
 10
22.55081459
 20
13.2999568051
 30
0.0
 10
22.545811751
 20
13.360593697
 30
0.0
 10
22.5254708411
 20
13.4514742451
 30
0.0
 10
22.4928008245
 20
13.542200801
 30
0.0
 10
22.4490455386
 20
13.6293349656
 30
0.0
 10
22.3957753956
 20
13.7096943304
 30
0.0
 10
22.3176627451
 20
13.8004059358
 30
0.0
 10
22.2472155326
 20
13.855358315
 30
0.0
 10
22.1969351702
 20
13.8804984962
 30
0.0
 11
22.55081459
 21
13.2705607401
 31
0.0
 11
22.5440132315
 21
13.3584862725
 31
0.0
 11
22.5238708028
 21
13.4498291856
 31
0.0
 11
22.4911620888
 21
13.5410765924
 31
0.0
 11
22.4471455206
 21
13.6287170117
 31
0.0
 11
22.3935146575
 21
13.7093781827
 31
0.0
 11
22.3323333647
 21
13.7799568586
 31
0.0
 11
22.1969351702
 21
13.8804984962
 31
0.0
  0
SPLINE
  5
537
100
AcDbEntity
  8
0
100
AcDbSpline
 62
253
  6
CONTINUOUS
 70
0
 71
3
 72
11
 73
7
 74
5
 42
0.0000001
 43
0.0000001
 44
0.0000000001
 12
0.0
 22
-0.1574305342
 32
0.0
 13
0.1408129253
 23
-0.0703995254
 33
0.0
 40
0.0
 40
0.0
 40
0.0
 40
0.0
 40
0.2897477355
 40
0.549586599
 40
0.7828464392
 40
1.0
 40
1.0
 40
1.0
 40
1.0
 10
19.889596517
 20
-27.1223441788
 30
0.0
 10
19.889596517
 20
-27.1375492257
 30
0.0
 10
19.8920503336
 20
-27.1664994306
 30
0.0
 10
19.9044237589
 20
-27.2060939018
 30
0.0
 10
19.9250900866
 20
-27.2377930493
 30
0.0
 10
19.9443772007
 20
-27.2524666664
 30
0.0
 10
19.9545698767
 20
-27.2575625022
 30
0.0
 11
19.889596517
 21
-27.1223441788
 31
0.0
 11
19.8939162769
 21
-27.167754318
 31
0.0
 11
19.9066637592
 21
-27.2066239624
 31
0.0
 11
19.9272165691
 21
-27.2370559116
 31
0.0
 11
19.9545698767
 21
-27.2575625022
 31
0.0
  0
SPLINE
  5
538
100
AcDbEntity
  8
0
100
AcDbSpline
 62
253
  6
CONTINUOUS
 70
0
 71
3
 72
11
 73
7
 74
5
 42
0.0000001
 43
0.0000001
 44
0.0000000001
 12
-0.1076203781
 22
0.0538101891
 32
0.0
 13
-0.0000005555
 23
0.1203232406
 33
0.0
 40
0.0
 40
0.0
 40
0.0
 40
0.0
 40
0.3025803408
 40
0.5654851464
 40
0.7934324264
 40
1.0
 40
1.0
 40
1.0
 40
1.0
 10
18.2110584466
 20
15.3565029299
 30
0.0
 10
18.200203843
 20
15.3619302317
 30
0.0
 10
18.180585412
 20
15.3735701953
 30
0.0
 10
18.1567735939
 20
15.3950903405
 30
0.0
 10
18.1414944741
 20
15.4190449667
 30
0.0
 10
18.1378354382
 20
15.4366063251
 30
0.0
 10
18.1378354
 20
15.4448912851
 30
0.0
 11
18.2110584466
 21
15.3565029299
 31
0.0
 11
18.1799669756
 21
15.3754455445
 31
0.0
 11
18.1568655066
 21
15.3970558228
 31
0.0
 11
18.1426388948
 21
15.4205049879
 31
0.0
 11
18.1378354
 21
15.4448912851
 31
0.0
  0
SPLINE
  5
539
100
AcDbEntity
  8
0
100
AcDbSpline
 62
253
  6
CONTINUOUS
 70
0
 71
3
 72
11
 73
7
 74
5
 42
0.0000001
 43
0.0000001
 44
0.0000000001
 12
-0.1076203879
 22
0.0538101939
 32
0.0
 13
-0.0000005245
 23
0.1203232516
 33
0.0
 40
0.0
 40
0.0
 40
0.0
 40
0.0
 40
0.3025803505
 40
0.5654851532
 40
0.7934324302
 40
1.0
 40
1.0
 40
1.0
 40
1.0
 10
18.2110584466
 20
15.6964768641
 30
0.0
 10
18.2002038417
 20
15.7019041665
 30
0.0
 10
18.1805854086
 20
15.7135441314
 30
0.0
 10
18.1567735894
 20
15.73506428
 30
0.0
 10
18.1414944701
 20
15.7590189091
 30
0.0
 10
18.1378354362
 20
15.7765802697
 30
0.0
 10
18.1378354001
 20
15.7848652303
 30
0.0
 11
18.2110584466
 21
15.6964768641
 31
0.0
 11
18.179966972
 21
15.7154194813
 31
0.0
 11
18.1568655022
 21
15.7370297625
 31
0.0
 11
18.1426388912
 21
15.7604789305
 31
0.0
 11
18.1378354001
 21
15.7848652303
 31
0.0
  0
SPLINE
  5
53A
100
AcDbEntity
  8
0
100
AcDbSpline
 62
253
  6
CONTINUOUS
 70
0
 71
3
 72
13
 73
9
 74
7
 42
0.0000001
 43
0.0000001
 44
0.0000000001
 12
0.324243881
 22
-0.1621219405
 32
0.0
 13
0.3249923189
 23
0.1606163459
 33
0.0
 40
0.0
 40
0.0
 40
0.0
 40
0.0
 40
0.1125237948
 40
0.2354261649
 40
0.4995812834
 40
0.763962697
 40
0.887131874
 40
1.0
 40
1.0
 40
1.0
 40
1.0
 10
19.889596517
 20
14.8572078289
 30
0.0
 10
19.9017582343
 20
14.8511269702
 30
0.0
 10
19.9282550463
 20
14.8404629681
 30
0.0
 10
19.9867448268
 20
14.8250750653
 30
0.0
 10
20.0656697733
 20
14.8176160516
 30
0.0
 10
20.1446447786
 20
14.824855468
 30
0.0
 10
20.2032839453
 20
14.8400688985
 30
0.0
 10
20.2298913853
 20
14.850652283
 30
0.0
 10
20.2421184766
 20
14.856695105
 30
0.0
 11
19.889596517
 21
14.8572078289
 31
0.0
 11
19.9273305495
 21
14.8417126464
 31
0.0
 11
19.9703664063
 21
14.8301810735
 31
0.0
 11
20.0656459491
 21
14.8205968349
 31
0.0
 11
20.1610354067
 21
14.8299037409
 31
0.0
 11
20.2042047154
 21
14.8413099221
 31
0.0
 11
20.2421184766
 21
14.856695105
 31
0.0
  0
SPLINE
  5
53B
100
AcDbEntity
  8
0
100
AcDbSpline
 62
253
  6
CONTINUOUS
 70
0
 71
3
 72
13
 73
9
 74
7
 42
0.0000001
 43
0.0000001
 44
0.0000000001
 12
0.3242438812
 22
-0.1621219406
 32
0.0
 13
0.3249923191
 23
0.160616346
 33
0.0
 40
0.0
 40
0.0
 40
0.0
 40
0.0
 40
0.112523981
 40
0.2354263268
 40
0.4995814058
 40
0.7639627555
 40
0.8871319024
 40
1.0
 40
1.0
 40
1.0
 40
1.0
 10
19.889596517
 20
14.5172338947
 30
0.0
 10
19.9017582544
 20
14.511153026
 30
0.0
 10
19.9282550854
 20
14.5004890172
 30
0.0
 10
19.9867448842
 20
14.4851011261
 30
0.0
 10
20.0656698148
 20
14.4776421174
 30
0.0
 10
20.1446448037
 20
14.4848815383
 30
0.0
 10
20.2032839551
 20
14.5000949681
 30
0.0
 10
20.2298913884
 20
14.5106783504
 30
0.0
 10
20.2421184766
 20
14.5167211709
 30
0.0
 11
19.889596517
 21
14.5172338947
 31
0.0
 11
19.9273306131
 21
14.5017386895
 31
0.0
 11
19.970366464
 21
14.4902071283
 31
0.0
 11
20.0656459935
 21
14.4806229007
 31
0.0
 11
20.1610354276
 21
14.4899298107
 31
0.0
 11
20.2042047252
 21
14.5013359913
 31
0.0
 11
20.2421184766
 21
14.5167211709
 31
0.0
  0
SPLINE
  5
53C
100
AcDbEntity
  8
0
100
AcDbSpline
 62
253
  6
CONTINUOUS
 70
0
 71
3
 72
13
 73
9
 74
7
 42
0.0000001
 43
0.0000001
 44
0.0000000001
 12
0.324243881
 22
-0.1621219405
 32
0.0
 13
0.3249923189
 23
0.1606163459
 33
0.0
 40
0.0
 40
0.0
 40
0.0
 40
0.0
 40
0.1125240102
 40
0.2354263873
 40
0.4995815327
 40
0.7639629237
 40
0.8871320954
 40
1.0
 40
1.0
 40
1.0
 40
1.0
 10
7.5859385243
 20
21.0090368252
 30
0.0
 10
7.5981002649
 20
21.0029559549
 30
0.0
 10
7.6245971029
 20
20.9922919437
 30
0.0
 10
7.6830869174
 20
20.9769040518
 30
0.0
 10
7.7620118651
 20
20.9694450478
 30
0.0
 10
7.8409868706
 20
20.9766844739
 30
0.0
 10
7.8996260031
 20
20.9918979158
 30
0.0
 10
7.9262334166
 20
21.0024812912
 30
0.0
 10
7.938460484
 20
21.0085241013
 30
0.0
 11
7.5859385243
 21
21.0090368252
 31
0.0
 11
7.6236726305
 21
20.9935416165
 31
0.0
 11
7.6667084928
 21
20.9820100546
 31
0.0
 11
7.761988047
 21
20.9724258311
 31
0.0
 11
7.8573774949
 21
20.9817327525
 31
0.0
 11
7.9005467986
 21
20.9931389451
 31
0.0
 11
7.938460484
 21
21.0085241013
 31
0.0
  0
SPLINE
  5
53D
100
AcDbEntity
  8
0
100
AcDbSpline
 62
253
  6
CONTINUOUS
 70
0
 71
3
 72
13
 73
9
 74
7
 42
0.0000001
 43
0.0000001
 44
0.0000000001
 12
0.3242438811
 22
-0.1621219405
 32
0.0
 13
0.324992319
 23
0.1606163459
 33
0.0
 40
0.0
 40
0.0
 40
0.0
 40
0.0
 40
0.1125239958
 40
0.2354263585
 40
0.4995814771
 40
0.763962852
 40
0.8871320065
 40
1.0
 40
1.0
 40
1.0
 40
1.0
 10
7.5859385243
 20
20.6690628911
 30
0.0
 10
7.5981002634
 20
20.6629820215
 30
0.0
 10
7.624597098
 20
20.6523180115
 30
0.0
 10
7.6830869056
 20
20.6369301198
 30
0.0
 10
7.7620118462
 20
20.6294711136
 30
0.0
 10
7.8409868442
 20
20.6367105375
 30
0.0
 10
7.899625985
 20
20.651923974
 30
0.0
 10
7.926233407
 20
20.6625073523
 30
0.0
 10
7.938460484
 20
20.6685501672
 30
0.0
 11
7.5859385243
 21
20.6690628911
 31
0.0
 11
7.6236726255
 21
20.6535676841
 31
0.0
 11
7.6667084826
 21
20.6420361224
 31
0.0
 11
7.7619880267
 21
20.632451897
 31
0.0
 11
7.8573774694
 21
20.6417588136
 31
0.0
 11
7.9005467682
 21
20.6531650002
 31
0.0
 11
7.938460484
 21
20.6685501672
 31
0.0
  0
SPLINE
  5
53E
100
AcDbEntity
  8
0
100
AcDbSpline
 62
7
  6
CONTINUOUS
 70
0
 71
3
 72
13
 73
9
 74
7
 42
0.0000001
 43
0.0000001
 44
0.0000000001
 12
-0.1189396767
 22
0.0593975073
 32
0.0
 13
-0.1240909441
 23
-0.0477089944
 33
0.0
 40
0.0
 40
0.0
 40
0.0
 40
0.0
 40
0.0475881606
 40
0.1129824154
 40
0.199595545
 40
0.3096164591
 40
0.6046797999
 40
1.0
 40
1.0
 40
1.0
 40
1.0
 10
17.655569723
 20
22.9283317886
 30
0.0
 10
17.6536830162
 20
22.9292739946
 30
0.0
 10
17.6487074225
 20
22.9304479363
 30
0.0
 10
17.6398441747
 20
22.9305202053
 30
0.0
 10
17.6282896462
 20
22.9291187452
 30
0.0
 10
17.6069487566
 20
22.9246531603
 30
0.0
 10
17.5729716115
 20
22.9142809289
 30
0.0
 10
17.544248267
 20
22.9037409449
 30
0.0
 10
17.5278963814
 20
22.8974541685
 30
0.0
 11
17.655569723
 21
22.9283317886
 31
0.0
 11
17.6494842151
 21
22.9300619119
 31
0.0
 11
17.6407951294
 21
22.9303518672
 31
0.0
 11
17.6293483245
 21
22.9291015053
 31
0.0
 11
17.6150085211
 21
22.9262178674
 31
0.0
 11
17.5773340805
 21
22.9152890612
 31
0.0
 11
17.5278963814
 21
22.8974541685
 31
0.0
  0
SPLINE
  5
53F
100
AcDbEntity
  8
0
100
AcDbSpline
 62
253
  6
CONTINUOUS
 70
0
 71
3
 72
11
 73
7
 74
5
 42
0.0000001
 43
0.0000001
 44
0.0000000001
 12
-0.1076203714
 22
0.0538101857
 32
0.0
 13
-0.0000005857
 23
0.1203232331
 33
0.0
 40
0.0
 40
0.0
 40
0.0
 40
0.0
 40
0.3025802731
 40
0.5654851182
 40
0.7934324128
 40
1.0
 40
1.0
 40
1.0
 40
1.0
 10
5.9074004539
 20
21.5083319263
 30
0.0
 10
5.8965458535
 20
21.5137592265
 30
0.0
 10
5.8769274251
 20
21.5253991891
 30
0.0
 10
5.8531156062
 20
21.5469193296
 30
0.0
 10
5.8378364849
 20
21.5708739561
 30
0.0
 10
5.8341774475
 20
21.5884353138
 30
0.0
 10
5.8341774072
 20
21.5967202738
 30
0.0
 11
5.9074004539
 21
21.5083319263
 31
0.0
 11
5.8763089916
 21
21.5272745348
 31
0.0
 11
5.8532075185
 21
21.5488848129
 31
0.0
 11
5.8389809053
 21
21.5723339771
 31
0.0
 11
5.8341774072
 21
21.5967202738
 31
0.0
  0
SPLINE
  5
540
100
AcDbEntity
  8
0
100
AcDbSpline
 62
7
  6
CONTINUOUS
 70
0
 71
3
 72
13
 73
9
 74
7
 42
0.0000001
 43
0.0000001
 44
0.0000000001
 12
-0.1171413236
 22
0.0585562731
 32
0.0
 13
-0.1222960856
 23
-0.0468464969
 33
0.0
 40
0.0
 40
0.0
 40
0.0
 40
0.0
 40
0.0478251951
 40
0.1133859498
 40
0.2000812306
 40
0.3100969627
 40
0.6049336254
 40
1.0
 40
1.0
 40
1.0
 40
1.0
 10
23.2460206293
 20
20.1331063215
 30
0.0
 10
23.2441531938
 20
20.1340398099
 30
0.0
 10
23.2392381356
 20
20.1352111032
 30
0.0
 10
23.2304857021
 20
20.1353055238
 30
0.0
 10
23.2190898159
 20
20.1339516665
 30
0.0
 10
23.1980640481
 20
20.1296004568
 30
0.0
 10
23.1645956473
 20
20.119449459
 30
0.0
 10
23.1363063046
 20
20.1091131675
 30
0.0
 10
23.1202012808
 20
20.1029440089
 30
0.0
 11
23.2460206293
 21
20.1331063215
 31
0.0
 11
23.2399989417
 21
20.1348290295
 31
0.0
 11
23.2314185111
 21
20.1351365028
 31
0.0
 11
23.2201289364
 21
20.1339310567
 31
0.0
 11
23.2059976433
 21
20.1311217628
 31
0.0
 11
23.1688944368
 21
20.1204325573
 31
0.0
 11
23.1202012808
 21
20.1029440089
 31
0.0
  0
SPLINE
  5
541
100
AcDbEntity
  8
0
100
AcDbSpline
 62
253
  6
CONTINUOUS
 70
0
 71
3
 72
11
 73
7
 74
5
 42
0.0000001
 43
0.0000001
 44
0.0000000001
 12
-0.1076203879
 22
0.0538101939
 32
0.0
 13
-0.0000005245
 23
0.1203232516
 33
0.0
 40
0.0
 40
0.0
 40
0.0
 40
0.0
 40
0.3025803505
 40
0.5654851532
 40
0.7934324302
 40
1.0
 40
1.0
 40
1.0
 40
1.0
 10
5.9074004539
 20
21.8483058604
 30
0.0
 10
5.896545849
 20
21.8537331628
 30
0.0
 10
5.876927416
 20
21.8653731277
 30
0.0
 10
5.8531155968
 20
21.8868932764
 30
0.0
 10
5.8378364774
 20
21.9108479054
 30
0.0
 10
5.8341774436
 20
21.928409266
 30
0.0
 10
5.8341774074
 20
21.9366942266
 30
0.0
 11
5.9074004539
 21
21.8483058604
 31
0.0
 11
5.8763089794
 21
21.8672484776
 31
0.0
 11
5.8532075096
 21
21.8888587588
 31
0.0
 11
5.8389808985
 21
21.9123079268
 31
0.0
 11
5.8341774074
 21
21.9366942266
 31
0.0
  0
SPLINE
  5
542
100
AcDbEntity
  8
0
100
AcDbSpline
 62
7
  6
CONTINUOUS
 70
0
 71
3
 72
12
 73
8
 74
6
 42
0.0000001
 43
0.0000001
 44
0.0000000001
 12
-0.0000023583
 22
-0.2340338475
 32
0.0
 13
-0.2078285542
 23
-0.107606384
 33
0.0
 40
0.0
 40
0.0
 40
0.0
 40
0.0
 40
0.102854546
 40
0.2084742904
 40
0.4366763484
 40
0.6988731301
 40
1.0
 40
1.0
 40
1.0
 40
1.0
 10
28.648419617
 20
-18.4624184003
 30
0.0
 10
28.6484195362
 20
-18.4704422153
 30
0.0
 10
28.6468307332
 20
-18.486746907
 30
0.0
 10
28.6371823063
 20
-18.5195984997
 30
0.0
 10
28.612275002
 20
-18.5598619799
 30
0.0
 10
28.5666393051
 20
-18.6021754709
 30
0.0
 10
28.5289506958
 20
-18.6252793912
 30
0.0
 10
28.5080897752
 20
-18.6360804491
 30
0.0
 11
28.648419617
 21
-18.4624184003
 31
0.0
 11
28.6461173195
 21
-18.4863794916
 31
0.0
 11
28.6392326425
 21
-18.5101199669
 31
0.0
 11
28.6120108023
 21
-18.5560686304
 31
0.0
 11
28.5677551422
 21
-18.5985756262
 31
0.0
 11
28.5080897752
 21
-18.6360804491
 31
0.0
  0
SPLINE
  5
543
100
AcDbEntity
  8
0
100
AcDbSpline
 62
253
  6
CONTINUOUS
 70
0
 71
3
 72
11
 73
7
 74
5
 42
0.0000001
 43
0.0000001
 44
0.0000000001
 12
0.0
 22
0.365918508
 32
0.0
 13
0.3263520263
 23
0.1655013879
 33
0.0
 40
0.0
 40
0.0
 40
0.0
 40
0.0
 40
0.2466001016
 40
0.5114084622
 40
0.7699750674
 40
1.0
 40
1.0
 40
1.0
 40
1.0
 10
18.2110584466
 20
15.6964768641
 30
0.0
 10
18.2110584466
 20
15.7265553778
 30
0.0
 10
18.2214007532
 20
15.7890405429
 30
0.0
 10
18.2588853029
 20
15.8760105019
 30
0.0
 10
18.3140237862
 20
15.9505100423
 30
0.0
 10
18.3617836682
 20
15.9881638638
 30
0.0
 10
18.3868067025
 20
16.000853679
 30
0.0
 11
18.2110584466
 21
15.6964768641
 31
0.0
 11
18.2244166602
 21
15.7857181719
 31
0.0
 11
18.2624722138
 21
15.8748307499
 31
0.0
 11
18.3194738592
 21
15.9503468369
 31
0.0
 11
18.3868067025
 21
16.000853679
 31
0.0
  0
SPLINE
  5
544
100
AcDbEntity
  8
0
100
AcDbSpline
 62
253
  6
CONTINUOUS
 70
0
 71
3
 72
11
 73
7
 74
5
 42
0.0000001
 43
0.0000001
 44
0.0000000001
 12
0.0
 22
0.3659185077
 32
0.0
 13
0.326352026
 23
0.1655013878
 33
0.0
 40
0.0
 40
0.0
 40
0.0
 40
0.0
 40
0.2466000408
 40
0.5114083384
 40
0.7699749055
 40
1.0
 40
1.0
 40
1.0
 40
1.0
 10
19.889596517
 20
14.8572078289
 30
0.0
 10
19.889596517
 20
14.8872863352
 30
0.0
 10
19.8999388182
 20
14.9497714851
 30
0.0
 10
19.9374233527
 20
15.036741429
 30
0.0
 10
19.9925618319
 20
15.11124098
 30
0.0
 10
20.0403217211
 20
15.1488948197
 30
0.0
 10
20.0653447729
 20
15.1615846438
 30
0.0
 11
19.889596517
 21
14.8572078289
 31
0.0
 11
19.902954724
 21
14.9464491152
 31
0.0
 11
19.9410102612
 21
15.035561675
 31
0.0
 11
19.9980118883
 21
15.1110777582
 31
0.0
 11
20.0653447729
 21
15.1615846438
 31
0.0
  0
SPLINE
  5
545
100
AcDbEntity
  8
0
100
AcDbSpline
 62
253
  6
CONTINUOUS
 70
0
 71
3
 72
11
 73
7
 74
5
 42
0.0000001
 43
0.0000001
 44
0.0000000001
 12
0.0
 22
0.365918508
 32
0.0
 13
0.3263520263
 23
0.1655013879
 33
0.0
 40
0.0
 40
0.0
 40
0.0
 40
0.0
 40
0.2466001016
 40
0.5114084622
 40
0.7699750674
 40
1.0
 40
1.0
 40
1.0
 40
1.0
 10
5.9074004539
 20
21.8483058604
 30
0.0
 10
5.9074004539
 20
21.8783843741
 30
0.0
 10
5.9177427605
 20
21.9408695392
 30
0.0
 10
5.9552273103
 20
22.0278394982
 30
0.0
 10
6.0103657936
 20
22.1023390386
 30
0.0
 10
6.0581256756
 20
22.1399928602
 30
0.0
 10
6.0831487099
 20
22.1526826754
 30
0.0
 11
5.9074004539
 21
21.8483058604
 31
0.0
 11
5.9207586675
 21
21.9375471683
 31
0.0
 11
5.9588142212
 21
22.0266597462
 31
0.0
 11
6.0158158666
 21
22.1021758332
 31
0.0
 11
6.0831487099
 21
22.1526826754
 31
0.0
  0
SPLINE
  5
546
100
AcDbEntity
  8
0
100
AcDbSpline
 62
253
  6
CONTINUOUS
 70
0
 71
3
 72
11
 73
7
 74
5
 42
0.0000001
 43
0.0000001
 44
0.0000000001
 12
0.0
 22
0.365918508
 32
0.0
 13
0.3263520263
 23
0.1655013879
 33
0.0
 40
0.0
 40
0.0
 40
0.0
 40
0.0
 40
0.2466001016
 40
0.5114084622
 40
0.7699750674
 40
1.0
 40
1.0
 40
1.0
 40
1.0
 10
7.5859385243
 20
21.0090368252
 30
0.0
 10
7.5859385243
 20
21.0391153389
 30
0.0
 10
7.5962808309
 20
21.101600504
 30
0.0
 10
7.6337653807
 20
21.188570463
 30
0.0
 10
7.688903864
 20
21.2630700034
 30
0.0
 10
7.736663746
 20
21.3007238249
 30
0.0
 10
7.7616867803
 20
21.3134136401
 30
0.0
 11
7.5859385243
 21
21.0090368252
 31
0.0
 11
7.599296738
 21
21.098278133
 31
0.0
 11
7.6373522916
 21
21.187390711
 31
0.0
 11
7.694353937
 21
21.262906798
 31
0.0
 11
7.7616867803
 21
21.3134136401
 31
0.0
  0
SPLINE
  5
547
100
AcDbEntity
  8
0
100
AcDbSpline
 62
7
  6
CONTINUOUS
 70
0
 71
3
 72
12
 73
8
 74
6
 42
0.0000001
 43
0.0000001
 44
0.0000000001
 12
0.2779285219
 22
0.1434221234
 32
0.0
 13
-0.0
 23
0.3127525679
 33
0.0
 40
0.0
 40
0.0
 40
0.0
 40
0.0
 40
0.1077721999
 40
0.2177988141
 40
0.4510629182
 40
0.7107430849
 40
1.0
 40
1.0
 40
1.0
 40
1.0
 10
22.4230024573
 20
-24.9307265115
 30
0.0
 10
22.43298678
 20
-24.9255742055
 30
0.0
 10
22.4522634825
 20
-24.9133038025
 30
0.0
 10
22.4870419661
 20
-24.8813476873
 30
0.0
 10
22.5217140318
 20
-24.8276033034
 30
0.0
 10
22.5459685853
 20
-24.7489841281
 30
0.0
 10
22.55081459
 20
-24.6915365382
 30
0.0
 10
22.55081459
 20
-24.6613812572
 30
0.0
 11
22.4230024573
 21
-24.9307265115
 31
0.0
 11
22.4514558204
 21
-24.9126571247
 31
0.0
 11
22.4768487122
 21
-24.8894337471
 31
0.0
 11
22.5172705971
 21
-24.8287019622
 31
0.0
 11
22.5423267688
 21
-24.7514480415
 31
0.0
 11
22.55081459
 21
-24.6613812572
 31
0.0
  0
SPLINE
  5
548
100
AcDbEntity
  8
0
100
AcDbSpline
 62
7
  6
CONTINUOUS
 70
0
 71
3
 72
11
 73
7
 74
5
 42
0.0000001
 43
0.0000001
 44
0.0000000001
 12
0.0
 22
0.2927347423
 32
0.0
 13
0.2610815639
 23
0.1324010814
 33
0.0
 40
0.0
 40
0.0
 40
0.0
 40
0.0
 40
0.2465994866
 40
0.5114083944
 40
0.7699753493
 40
1.0
 40
1.0
 40
1.0
 40
1.0
 10
11.8378383137
 20
19.9174146514
 30
0.0
 10
11.8378383137
 20
19.9414773971
 30
0.0
 10
11.8461125232
 20
19.9914654045
 30
0.0
 10
11.8760994219
 20
20.0610417335
 30
0.0
 10
11.9202108953
 20
20.1206409225
 30
0.0
 10
11.9584185199
 20
20.1507642659
 30
0.0
 10
11.9784369184
 20
20.1609161034
 30
0.0
 11
11.8378383137
 21
19.9174146514
 31
0.0
 11
11.8485250028
 21
19.988807482
 31
0.0
 11
11.8789692052
 21
20.0600978028
 31
0.0
 11
11.9245708238
 21
20.1205105517
 31
0.0
 11
11.9784369184
 21
20.1609161034
 31
0.0
  0
SPLINE
  5
549
100
AcDbEntity
  8
RACCORDO
100
AcDbSpline
 62
7
  6
CONTINUOUS
 70
0
 71
3
 72
13
 73
9
 74
7
 42
0.0000001
 43
0.0000001
 44
0.0000000001
 12
0.0531617693
 22
0.0263686295
 32
0.0
 13
0.0529801515
 23
-0.0267316644
 33
0.0
 40
0.0
 40
0.0
 40
0.0
 40
0.0
 40
0.4148866015
 40
0.7170398196
 40
0.8253902078
 40
0.9068811003
 40
0.9638221497
 40
1.0
 40
1.0
 40
1.0
 40
1.0
 10
26.2733630439
 20
-16.6125204189
 30
0.0
 10
26.2807150792
 20
-16.6088737552
 30
0.0
 10
26.2935101359
 20
-16.6027547025
 30
0.0
 10
26.3085673425
 20
-16.5963879274
 30
0.0
 10
26.3177879507
 20
-16.5932780626
 30
0.0
 10
26.3225342049
 20
-16.5920613597
 30
0.0
 10
26.3259440715
 20
-16.5916048314
 30
0.0
 10
26.3278514522
 20
-16.5918017682
 30
0.0
 10
26.3284903549
 20
-16.5921241329
 30
0.0
 11
26.2733630439
 21
-16.6125204189
 31
0.0
 11
26.2956173857
 21
-16.6019895366
 31
0.0
 11
26.3122137198
 21
-16.5952027423
 31
0.0
 11
26.3183217123
 21
-16.5931942845
 31
0.0
 11
26.3230205578
 21
-16.5920514099
 31
0.0
 11
26.32638279
 21
-16.5917152185
 31
0.0
 11
26.3284903549
 21
-16.5921241329
 31
0.0
  0
SPLINE
  5
54A
100
AcDbEntity
  8
RACCORDO
100
AcDbSpline
 62
253
  6
CONTINUOUS
 70
0
 71
3
 72
15
 73
11
 74
9
 42
0.0000001
 43
0.0000001
 44
0.0000000001
 12
0.0858814967
 22
0.8080435238
 32
0.0
 13
-0.8125706969
 23
-0.0062314013
 33
0.0
 40
0.0
 40
0.0
 40
0.0
 40
0.0
 40
0.1304686306
 40
0.2668328805
 40
0.4052303688
 40
0.5413918912
 40
0.6712044353
 40
0.7914311637
 40
0.9006133859
 40
1.0
 40
1.0
 40
1.0
 40
1.0
 10
26.2733628438
 20
-15.6792645079
 30
0.0
 10
26.2770977909
 20
-15.6441230639
 30
0.0
 10
26.2777130604
 20
-15.5713886189
 30
0.0
 10
26.2601444052
 20
-15.4625826522
 30
0.0
 10
26.2249792615
 20
-15.3564681529
 30
0.0
 10
26.1739513297
 20
-15.2589749905
 30
0.0
 10
26.1097005534
 20
-15.1756654019
 30
0.0
 10
26.0355254947
 20
-15.1114821705
 30
0.0
 10
25.955356253
 20
-15.0704614581
 30
0.0
 10
25.8985312251
 20
-15.0605122956
 30
0.0
 10
25.871611675
 20
-15.0607187349
 30
0.0
 11
26.2733628438
 21
-15.6792645079
 31
0.0
 11
26.2747866432
 21
-15.5732559656
 31
0.0
 11
26.2573751269
 21
-15.4638236087
 31
0.0
 11
26.2219545375
 21
-15.3570862222
 31
0.0
 11
26.1703496757
 21
-15.2592135562
 31
0.0
 11
26.1054017832
 21
-15.1760940617
 31
0.0
 11
26.0308923205
 21
-15.1129057076
 31
0.0
 11
25.9513317488
 21
-15.0736436325
 31
0.0
 11
25.871611675
 21
-15.0607187349
 31
0.0
  0
SPLINE
  5
54B
100
AcDbEntity
  8
RACCORDO
100
AcDbSpline
 62
253
  6
CONTINUOUS
 70
0
 71
3
 72
11
 73
7
 74
5
 42
0.0000001
 43
0.0000001
 44
0.0000000001
 12
0.0830414202
 22
0.0429959566
 32
0.0
 13
0.0000377398
 23
0.0935121828
 33
0.0
 40
0.0
 40
0.0
 40
0.0
 40
0.0
 40
0.3013862596
 40
0.5638281004
 40
0.7922424754
 40
1.0
 40
1.0
 40
1.0
 40
1.0
 10
26.2733630439
 20
-15.6792646045
 30
0.0
 10
26.2817055582
 20
-15.674945141
 30
0.0
 10
26.2967789349
 20
-15.6657123597
 30
0.0
 10
26.3150283912
 20
-15.6487650603
 30
0.0
 10
26.3267048739
 20
-15.6299895443
 30
0.0
 10
26.3294924456
 20
-15.6162926025
 30
0.0
 10
26.3294950591
 20
-15.6098166493
 30
0.0
 11
26.2733630439
 21
-15.6792646045
 31
0.0
 11
26.2972241912
 21
-15.6642664899
 31
0.0
 11
26.3149252171
 21
-15.6472676821
 31
0.0
 11
26.3258153569
 21
-15.6288928539
 31
0.0
 11
26.3294950591
 21
-15.6098166493
 31
0.0
  0
LINE
  5
54C
100
AcDbEntity
  8
RACCORDO
100
AcDbLine
 62
253
  6
CONTINUOUS
 10
23.4823347327
 20
14.6114414211
 11
23.0047476016
 21
14.158480797
  0
LINE
  5
54D
100
AcDbEntity
  8
RACCORDO
100
AcDbLine
 62
253
  6
CONTINUOUS
 10
23.9526864976
 20
-15.8813833277
 11
26.2733630439
 21
-15.6792646045
  0
SPLINE
  5
54E
100
AcDbEntity
  8
0
100
AcDbSpline
 62
253
  6
CONTINUOUS
 70
0
 71
3
 72
11
 73
7
 74
5
 42
0.0000001
 43
0.0000001
 44
0.0000000001
 12
0.0
 22
0.2927347428
 32
0.0
 13
0.2610815643
 23
0.1324010816
 33
0.0
 40
0.0
 40
0.0
 40
0.0
 40
0.0
 40
0.2465996
 40
0.5114086203
 40
0.7699756349
 40
1.0
 40
1.0
 40
1.0
 40
1.0
 10
13.4641839104
 20
19.104241853
 30
0.0
 10
13.4641839104
 20
19.1283046098
 30
0.0
 10
13.4724581276
 20
19.1782926395
 30
0.0
 10
13.5024450481
 20
19.2478689897
 30
0.0
 10
13.546556528
 20
19.3074681621
 30
0.0
 10
13.5847641415
 20
19.3375914801
 30
0.0
 10
13.6047825152
 20
19.347743305
 30
0.0
 11
13.4641839104
 21
19.104241853
 31
0.0
 11
13.474870609
 21
19.1756347159
 31
0.0
 11
13.5053148354
 21
19.2469250624
 31
0.0
 11
13.5509164792
 21
19.3073378143
 31
0.0
 11
13.6047825152
 21
19.347743305
 31
0.0
  0
SPLINE
  5
54F
100
AcDbEntity
  8
0
100
AcDbSpline
 62
253
  6
CONTINUOUS
 70
0
 71
3
 72
11
 73
7
 74
5
 42
0.0000001
 43
0.0000001
 44
0.0000000001
 12
0.0
 22
0.2927347425
 32
0.0
 13
0.2610815641
 23
0.1324010815
 33
0.0
 40
0.0
 40
0.0
 40
0.0
 40
0.0
 40
0.2465991873
 40
0.5114081683
 40
0.7699752412
 40
1.0
 40
1.0
 40
1.0
 40
1.0
 10
15.1612401852
 20
18.2557137156
 30
0.0
 10
15.1612401852
 20
18.2797764321
 30
0.0
 10
15.1695143797
 20
18.3297644176
 30
0.0
 10
15.1995012608
 20
18.399340744
 30
0.0
 10
15.2436127419
 20
18.4589399639
 30
0.0
 10
15.2818203821
 20
18.4890633253
 30
0.0
 10
15.30183879
 20
18.4992151676
 30
0.0
 11
15.1612401852
 21
18.2557137156
 31
0.0
 11
15.1719268489
 21
18.3271064615
 31
0.0
 11
15.2023710433
 21
18.398396809
 31
0.0
 11
15.2479726731
 21
18.4588095929
 31
0.0
 11
15.30183879
 21
18.4992151676
 31
0.0
  0
SPLINE
  5
550
100
AcDbEntity
  8
0
100
AcDbSpline
 62
253
  6
CONTINUOUS
 70
0
 71
3
 72
11
 73
7
 74
5
 42
0.0000001
 43
0.0000001
 44
0.0000000001
 12
-0.0000078909
 22
-0.1191778695
 32
0.0
 13
-0.1063458357
 23
-0.0537952404
 33
0.0
 40
0.0
 40
0.0
 40
0.0
 40
0.0
 40
0.2069625703
 40
0.4350637933
 40
0.6978096439
 40
1.0
 40
1.0
 40
1.0
 40
1.0
 10
22.4438640381
 20
-25.6364115414
 30
0.0
 10
22.4438634937
 20
-25.6446333274
 30
0.0
 10
22.4402637618
 20
-25.6620483346
 30
0.0
 10
22.4252142776
 20
-25.6858424676
 30
0.0
 10
22.4017374747
 20
-25.7072526892
 30
0.0
 10
22.3823786678
 20
-25.7188609266
 30
0.0
 10
22.3716664392
 20
-25.7242797276
 30
0.0
 11
22.4438640381
 21
-25.6364115414
 31
0.0
 11
22.4391299509
 21
-25.6606183238
 31
0.0
 11
22.4251095316
 21
-25.6839084782
 31
0.0
 11
22.4023352835
 21
-25.7053996002
 31
0.0
 11
22.3716664392
 21
-25.7242797276
 31
0.0
  0
SPLINE
  5
551
100
AcDbEntity
  8
RACCORDO
100
AcDbSpline
 62
253
  6
CONTINUOUS
 70
0
 71
3
 72
11
 73
7
 74
5
 42
0.0000001
 43
0.0000001
 44
0.0000000001
 12
-0.0256058546
 22
-0.232433825
 32
0.0
 13
0.2095936213
 23
-0.1036901958
 33
0.0
 40
0.0
 40
0.0
 40
0.0
 40
0.0
 40
0.1837774754
 40
0.4026124127
 40
0.6745048436
 40
1.0
 40
1.0
 40
1.0
 40
1.0
 10
-14.8353417931
 20
25.300071792
 30
0.0
 10
-14.8369103862
 20
25.2858330915
 30
0.0
 10
-14.8312030591
 20
25.2534499775
 30
0.0
 10
-14.8005506117
 20
25.2095431106
 30
0.0
 10
-14.7513935351
 20
25.1684650977
 30
0.0
 10
-14.7108234061
 20
25.1452007876
 30
0.0
 10
-14.6880828366
 20
25.1339505687
 30
0.0
 11
-14.8353417931
 21
25.300071792
 31
0.0
 11
-14.8290769759
 21
25.2575563624
 31
0.0
 11
-14.8015193661
 21
25.2144380529
 31
0.0
 11
-14.7536704539
 21
25.1725714541
 31
0.0
 11
-14.6880828366
 21
25.1339505687
 31
0.0
  0
SPLINE
  5
552
100
AcDbEntity
  8
RACCORDO
100
AcDbSpline
 62
253
  6
CONTINUOUS
 70
0
 71
3
 72
10
 73
6
 74
4
 42
0.0000001
 43
0.0000001
 44
0.0000000001
 12
0.2121913024
 22
0.1185882089
 32
0.0
 13
0.2196816165
 23
-0.1040591152
 33
0.0
 40
0.0
 40
0.0
 40
0.0
 40
0.0
 40
0.2264978282
 40
0.464395107
 40
1.0
 40
1.0
 40
1.0
 40
1.0
 10
-14.2511702159
 20
26.2240792967
 30
0.0
 10
-14.2351499262
 20
26.2330326207
 30
0.0
 10
-14.1993794691
 20
26.2465981842
 30
0.0
 10
-14.1178177132
 20
26.2532696002
 30
0.0
 10
-14.0554484829
 20
26.2345911857
 30
0.0
 10
-14.0162276334
 20
26.2160129952
 30
0.0
 11
-14.2511702159
 21
26.2240792967
 31
0.0
 11
-14.1997564521
 21
26.2437752384
 31
0.0
 11
-14.1421672775
 21
26.2490285044
 31
0.0
 11
-14.0162276334
 21
26.2160129952
 31
0.0
  0
SPLINE
  5
553
100
AcDbEntity
  8
RACCORDO
100
AcDbSpline
 62
253
  6
CONTINUOUS
 70
0
 71
3
 72
11
 73
7
 74
5
 42
0.0000001
 43
0.0000001
 44
0.0000000001
 12
-0.0036714825
 22
-0.2402206269
 32
0.0
 13
0.2149381197
 23
-0.1073360799
 33
0.0
 40
0.0
 40
0.0
 40
0.0
 40
0.0
 40
0.203969863
 40
0.4309006057
 40
0.6953622125
 40
1.0
 40
1.0
 40
1.0
 40
1.0
 10
-15.5095344619
 20
14.869677054
 30
0.0
 10
-15.5097840859
 20
14.8533444645
 30
0.0
 10
-15.5027443114
 20
14.8184671936
 30
0.0
 10
-15.4722563689
 20
14.7707890508
 30
0.0
 10
-15.4243163775
 20
14.7279457533
 30
0.0
 10
-15.3849070759
 20
14.7045648023
 30
0.0
 10
-15.3630809848
 20
14.6936652603
 30
0.0
 11
-15.5095344619
 21
14.869677054
 31
0.0
 11
-15.5004635815
 21
14.8215204216
 31
0.0
 11
-15.4721853753
 21
14.7749076235
 31
0.0
 11
-15.4256268434
 21
14.7316734169
 31
0.0
 11
-15.3630809848
 21
14.6936652603
 31
0.0
  0
SPLINE
  5
554
100
AcDbEntity
  8
RACCORDO
100
AcDbSpline
 62
253
  6
CONTINUOUS
 70
0
 71
3
 72
11
 73
7
 74
5
 42
0.0000001
 43
0.0000001
 44
0.0000000001
 12
0.0036476611
 22
-0.2408344893
 32
0.0
 13
0.215381924
 23
-0.1078201441
 33
0.0
 40
0.0
 40
0.0
 40
0.0
 40
0.0
 40
0.2088707253
 40
0.4379675198
 40
0.7007005451
 40
1.0
 40
1.0
 40
1.0
 40
1.0
 10
-15.509533395
 20
-1.5834601117
 30
0.0
 10
-15.5092794318
 20
-1.6002278698
 30
0.0
 10
-15.5016077543
 20
-1.6355322958
 30
0.0
 10
-15.4710136526
 20
-1.6837673503
 30
0.0
 10
-15.4235173526
 20
-1.7267681681
 30
0.0
 10
-15.3845689079
 20
-1.750060587
 30
0.0
 10
-15.3630810104
 20
-1.7608174238
 30
0.0
 11
-15.509533395
 21
-1.5834601117
 31
0.0
 11
-15.4993576182
 21
-1.6327293055
 31
0.0
 11
-15.47073495
 21
-1.6799061714
 31
0.0
 11
-15.4245749548
 21
-1.7231949799
 31
0.0
 11
-15.3630810104
 21
-1.7608174238
 31
0.0
  0
SPLINE
  5
555
100
AcDbEntity
  8
RACCORDO
100
AcDbSpline
 62
253
  6
CONTINUOUS
 70
0
 71
3
 72
11
 73
7
 74
5
 42
0.0000001
 43
0.0000001
 44
0.0000000001
 12
0.0305538122
 22
-0.235389792
 32
0.0
 13
0.2119541604
 23
-0.1068518765
 33
0.0
 40
0.0
 40
0.0
 40
0.0
 40
0.0
 40
0.2227378
 40
0.458407799
 40
0.7164581386
 40
1.0
 40
1.0
 40
1.0
 40
1.0
 10
-14.8343917817
 20
-11.3144237159
 30
0.0
 10
-14.8321232854
 20
-11.3319004507
 30
0.0
 10
-14.8217674049
 20
-11.3673377988
 30
0.0
 10
-14.7904916539
 20
-11.4154183656
 30
0.0
 10
-14.7449322225
 20
-11.4574672085
 30
0.0
 10
-14.7081156927
 20
-11.4799113292
 30
0.0
 10
-14.688083067
 20
-11.4900103225
 30
0.0
 11
-14.8343917817
 21
-11.3144237159
 31
0.0
 11
-14.8197800444
 21
-11.3652345233
 31
0.0
 11
-14.7897855029
 21
-11.4124529059
 31
0.0
 11
-14.7452752061
 21
-11.4545318633
 31
0.0
 11
-14.688083067
 21
-11.4900103225
 31
0.0
  0
SPLINE
  5
556
100
AcDbEntity
  8
RACCORDO
100
AcDbSpline
 62
253
  6
CONTINUOUS
 70
0
 71
3
 72
11
 73
7
 74
5
 42
0.0000001
 43
0.0000001
 44
0.0000000001
 12
-0.4493504288
 22
0.2245991867
 32
0.0
 13
-0.0642287588
 23
0.4982321438
 33
0.0
 40
0.0
 40
0.0
 40
0.0
 40
0.0
 40
0.2232775077
 40
0.459192842
 40
0.7166408364
 40
1.0
 40
1.0
 40
1.0
 40
1.0
 10
-14.4392882903
 20
-11.9046546876
 30
0.0
 10
-14.4727315716
 20
-11.8879387054
 30
0.0
 10
-14.5364577445
 20
-11.8424719764
 30
0.0
 10
-14.6107448775
 20
-11.7464484727
 30
0.0
 10
-14.6631830656
 20
-11.6262524557
 30
0.0
 10
-14.6820164904
 20
-11.537069888
 30
0.0
 10
-14.6880830929
 20
-11.4900103402
 30
0.0
 11
-14.4392882903
 21
-11.9046546876
 31
0.0
 11
-14.5308912029
 21
-11.8399260192
 31
0.0
 11
-14.6044349534
 21
-11.7469921191
 31
0.0
 11
-14.6574276834
 21
-11.6290171323
 31
0.0
 11
-14.6880830929
 21
-11.4900103402
 31
0.0
  0
SPLINE
  5
557
100
AcDbEntity
  8
DRAFT
100
AcDbSpline
 62
7
  6
CONTINUOUS
 70
0
 71
3
 72
9
 73
5
 74
3
 42
0.0000001
 43
0.0000001
 44
0.0000000001
 12
-0.0620935548
 22
0.0059920857
 32
0.0
 13
-0.0607117339
 23
0.0143387589
 33
0.0
 40
0.0
 40
0.0
 40
0.0
 40
0.0
 40
0.245297949
 40
1.0
 40
1.0
 40
1.0
 40
1.0
 10
-3.1805153665
 20
-12.9150317952
 30
0.0
 10
-3.185592507
 20
-12.9145418464
 30
0.0
 10
-3.2062534962
 20
-12.9121726856
 30
0.0
 10
-3.226741608
 20
-12.9083460083
 30
0.0
 10
-3.242014698
 20
-12.9047388447
 30
0.0
 11
-3.1805153665
 21
-12.9150317952
 31
0.0
 11
-3.1957183013
 21
-12.9132918455
 31
0.0
 11
-3.242014698
 21
-12.9047388447
 31
0.0
  0
SPLINE
  5
558
100
AcDbEntity
  8
RACCORDO
100
AcDbSpline
 62
253
  6
CONTINUOUS
 70
0
 71
3
 72
11
 73
7
 74
5
 42
0.0000001
 43
0.0000001
 44
0.0000000001
 12
-0.3420719248
 22
-0.1748241653
 32
0.0
 13
-0.3435841227
 23
0.1718331782
 33
0.0
 40
0.0
 40
0.0
 40
0.0
 40
0.0
 40
0.2180792896
 40
0.452395871
 40
0.7119014949
 40
1.0
 40
1.0
 40
1.0
 40
1.0
 10
-3.236939179
 20
-13.0098083624
 30
0.0
 10
-3.2618054465
 20
-13.0225168723
 30
0.0
 10
-3.3178663226
 20
-13.0407699174
 30
0.0
 10
-3.4099625256
 20
-13.0434622688
 30
0.0
 10
-3.5087132375
 20
-13.0230334159
 30
0.0
 10
-3.573898887
 20
-12.9961719049
 30
0.0
 10
-3.6068942444
 20
-12.9796702776
 30
0.0
 11
-3.236939179
 21
-13.0098083624
 31
0.0
 11
-3.3164267714
 21
-13.0362707883
 31
0.0
 11
-3.4063621321
 21
-13.040041721
 31
0.0
 11
-3.5042100188
 21
-13.0209610225
 31
0.0
 11
-3.6068942444
 21
-12.9796702776
 31
0.0
  0
SPLINE
  5
559
100
AcDbEntity
  8
RACCORDO
100
AcDbSpline
 62
253
  6
CONTINUOUS
 70
0
 71
3
 72
9
 73
5
 74
3
 42
0.0000001
 43
0.0000001
 44
0.0000000001
 12
-0.0308440146
 22
0.0039499777
 32
0.0
 13
-0.0072189889
 23
0.0302463512
 33
0.0
 40
0.0
 40
0.0
 40
0.0
 40
0.0
 40
0.6145390022
 40
1.0
 40
1.0
 40
1.0
 40
1.0
 10
-3.2945017611
 20
-7.8132665133
 30
0.0
 10
-3.3008200444
 20
-7.8124573748
 30
0.0
 10
-3.3109608481
 20
-7.8107775462
 30
0.0
 10
-3.3201658452
 20
-7.8033198649
 30
0.0
 10
-3.3210933914
 20
-7.799433602
 30
0.0
 11
-3.2945017611
 21
-7.8132665133
 31
0.0
 11
-3.3129304682
 21
-7.808210681
 31
0.0
 11
-3.3210933914
 21
-7.799433602
 31
0.0
  0
SPLINE
  5
55A
100
AcDbEntity
  8
RACCORDO
100
AcDbSpline
 62
253
  6
CONTINUOUS
 70
0
 71
3
 72
11
 73
7
 74
5
 42
0.0000001
 43
0.0000001
 44
0.0000000001
 12
1.1674152758
 22
-4.9044581408
 32
0.0
 13
-1.0220891426
 23
-4.9367906443
 33
0.0
 40
0.0
 40
0.0
 40
0.0
 40
0.0
 40
0.2756965423
 40
0.5361706773
 40
0.7782620536
 40
1.0
 40
1.0
 40
1.0
 40
1.0
 10
-3.2945018672
 20
-7.8132665688
 30
0.0
 10
-3.1872177489
 20
-8.2639806192
 30
0.0
 10
-3.0149618615
 20
-9.1497765936
 30
0.0
 10
-2.884277472
 20
-10.4531579758
 30
0.0
 10
-2.8890492509
 20
-11.6726507237
 30
0.0
 10
-2.9875938057
 20
-12.4487713126
 30
0.0
 10
-3.0631391215
 20
-12.8136625858
 30
0.0
 11
-3.2945018672
 21
-7.8132665688
 31
0.0
 11
-3.031810878
 21
-9.1781368116
 31
0.0
 11
-2.9047491755
 21
-10.4851515399
 31
0.0
 11
-2.9151965957
 21
-11.7056067963
 31
0.0
 11
-3.0631391215
 21
-12.8136625858
 31
0.0
  0
SPLINE
  5
55B
100
AcDbEntity
  8
RACCORDO
100
AcDbSpline
 62
253
  6
CONTINUOUS
 70
0
 71
3
 72
9
 73
5
 74
3
 42
0.0000001
 43
0.0000001
 44
0.0000000001
 12
-0.0252840811
 22
0.0024423465
 32
0.0
 13
-0.0176431926
 23
0.0182747796
 33
0.0
 40
0.0
 40
0.0
 40
0.0
 40
0.0
 40
0.5880496144
 40
1.0
 40
1.0
 40
1.0
 40
1.0
 10
-3.2995992319
 20
-7.792558311
 30
0.0
 10
-3.30455533
 20
-7.7920795707
 30
0.0
 10
-3.3128857938
 20
-7.7907182196
 30
0.0
 10
-3.3209310507
 20
-7.7870089917
 30
0.0
 10
-3.3233537574
 20
-7.7844995575
 30
0.0
 11
-3.2995992319
 21
-7.792558311
 31
0.0
 11
-3.3142541568
 21
-7.7896665854
 31
0.0
 11
-3.3233537574
 21
-7.7844995575
 31
0.0
  0
SPLINE
  5
55C
100
AcDbEntity
  8
RACCORDO
100
AcDbSpline
 62
253
  6
CONTINUOUS
 70
0
 71
3
 72
8
 73
4
 74
2
 42
0.0000001
 43
0.0000001
 44
0.0000000001
 12
-0.0034266061
 22
0.0035492709
 32
0.0
 13
-0.0012177318
 23
0.0047808036
 33
0.0
 40
0.0
 40
0.0
 40
0.0
 40
0.0
 40
1.0
 40
1.0
 40
1.0
 40
1.0
 10
-3.3233537574
 20
-7.7844995575
 30
0.0
 10
-3.3244959594
 20
-7.7833164672
 30
0.0
 10
-3.3254186173
 20
-7.781823001
 30
0.0
 10
-3.3258245279
 20
-7.7802293998
 30
0.0
 11
-3.3233537574
 21
-7.7844995575
 31
0.0
 11
-3.3258245279
 21
-7.7802293998
 31
0.0
  0
SPLINE
  5
55D
100
AcDbEntity
  8
RACCORDO
100
AcDbSpline
 62
253
  6
CONTINUOUS
 70
0
 71
3
 72
9
 73
5
 74
3
 42
0.0000001
 43
0.0000001
 44
0.0000000001
 12
0.0008857493
 22
-0.0608682288
 32
0.0
 13
0.0544513117
 23
-0.0272172829
 33
0.0
 40
0.0
 40
0.0
 40
0.0
 40
0.0
 40
0.5499180968
 40
1.0
 40
1.0
 40
1.0
 40
1.0
 10
-3.9496405483
 20
-6.9091872051
 30
0.0
 10
-3.9494781851
 20
-6.9203447186
 30
0.0
 10
-3.9462521524
 20
-6.9410893311
 30
0.0
 10
-3.9318364803
 20
-6.9576758023
 30
0.0
 10
-3.923667297
 20
-6.9617591378
 30
0.0
 11
-3.9496405483
 21
-6.9091872051
 31
0.0
 11
-3.9425462197
 21
-6.9419029311
 31
0.0
 11
-3.923667297
 21
-6.9617591378
 31
0.0
  0
SPLINE
  5
55E
100
AcDbEntity
  8
RACCORDO
100
AcDbSpline
 62
253
  6
CONTINUOUS
 70
0
 71
3
 72
11
 73
7
 74
5
 42
0.0000001
 43
0.0000001
 44
0.0000000001
 12
-0.0070707546
 22
-0.325844146
 32
0.0
 13
-0.2979996115
 23
-0.1319872518
 33
0.0
 40
0.0
 40
0.0
 40
0.0
 40
0.0
 40
0.2910637369
 40
0.5521954244
 40
0.7847511507
 40
1.0
 40
1.0
 40
1.0
 40
1.0
 10
16.9496886276
 20
-26.9324846427
 30
0.0
 10
16.9490026142
 20
-26.9640984476
 30
0.0
 10
16.9424874829
 20
-27.0241754066
 30
0.0
 10
16.91501529
 20
-27.1057841493
 30
0.0
 10
16.8704024239
 20
-27.1700836502
 30
0.0
 10
16.8294924167
 20
-27.1987698232
 30
0.0
 10
16.8081110589
 20
-27.2082398579
 30
0.0
 11
16.9496886276
 21
-26.9324846427
 31
0.0
 11
16.9385736019
 21
-27.0266949695
 31
0.0
 11
16.9101582663
 21
-27.106919561
 31
0.0
 11
16.8658800705
 21
-27.168436121
 31
0.0
 11
16.8081110589
 21
-27.2082398579
 31
0.0
  0
SPLINE
  5
55F
100
AcDbEntity
  8
RACCORDO
100
AcDbSpline
 62
253
  6
CONTINUOUS
 70
0
 71
3
 72
13
 73
9
 74
7
 42
0.0000001
 43
0.0000001
 44
0.0000000001
 12
0.0638401314
 22
-0.4774732308
 32
0.0
 13
0.440401969
 23
0.1951982434
 33
0.0
 40
0.0
 40
0.0
 40
0.0
 40
0.0
 40
0.2695710988
 40
0.3900200172
 40
0.5047724006
 40
0.6187480371
 40
0.7370529466
 40
1.0
 40
1.0
 40
1.0
 40
1.0
 10
16.6003909803
 20
-26.7296094382
 30
0.0
 10
16.6061274651
 20
-26.7725137661
 30
0.0
 10
16.6241597484
 20
-26.8348246474
 30
0.0
 10
16.6728611162
 20
-26.9005591403
 30
0.0
 10
16.7174426518
 20
-26.9357518664
 30
0.0
 10
16.769784129
 20
-26.9569505324
 30
0.0
 10
16.8496016008
 20
-26.9659649724
 30
0.0
 10
16.9110878276
 20
-26.949593577
 30
0.0
 10
16.9496886276
 20
-26.9324846427
 30
0.0
 11
16.6003909803
 21
-26.7296094382
 31
0.0
 11
16.6404164368
 21
-26.8531455069
 31
0.0
 11
16.6753348843
 21
-26.8994851294
 31
0.0
 11
16.7188745714
 21
-26.9335444561
 31
0.0
 11
16.7697098617
 21
-26.9542878251
 31
0.0
 11
16.826292863
 21
-26.9610874719
 31
0.0
 11
16.9496886276
 21
-26.9324846427
 31
0.0
  0
SPLINE
  5
560
100
AcDbEntity
  8
RACCORDO
100
AcDbSpline
 62
253
  6
CONTINUOUS
 70
0
 71
3
 72
11
 73
7
 74
5
 42
0.0000001
 43
0.0000001
 44
0.0000000001
 12
0.0665498759
 22
-0.5037544163
 32
0.0
 13
0.4541064561
 23
-0.2280015889
 33
0.0
 40
0.0
 40
0.0
 40
0.0
 40
0.0
 40
0.2808605844
 40
0.5374494421
 40
0.7742824988
 40
1.0
 40
1.0
 40
1.0
 40
1.0
 10
15.9065743747
 20
-26.7873390739
 30
0.0
 10
15.912804787
 20
-26.8345006605
 30
0.0
 10
15.9321948712
 20
-26.9240734316
 30
0.0
 10
15.9860157867
 20
-27.0448699608
 30
0.0
 10
16.0621694896
 20
-27.1417252194
 30
0.0
 10
16.1271852897
 20
-27.1878194107
 30
0.0
 10
16.1613518812
 20
-27.2049740603
 30
0.0
 11
15.9065743747
 21
-26.7873390739
 31
0.0
 11
15.9379775426
 21
-26.926555239
 31
0.0
 11
15.9922439054
 21
-27.045106162
 31
0.0
 11
16.0675499785
 21
-27.138974478
 31
0.0
 11
16.1613518812
 21
-27.2049740603
 31
0.0
  0
SPLINE
  5
561
100
AcDbEntity
  8
RACCORDO
100
AcDbSpline
 62
253
  6
CONTINUOUS
 70
0
 71
3
 72
11
 73
7
 74
5
 42
0.0000001
 43
0.0000001
 44
0.0000000001
 12
-0.6038515584
 22
-0.3947296935
 32
0.0
 13
-0.6463232627
 23
0.3204909915
 33
0.0
 40
0.0
 40
0.0
 40
0.0
 40
0.0
 40
0.2454988421
 40
0.5105069382
 40
0.7698062741
 40
1.0
 40
1.0
 40
1.0
 40
1.0
 10
16.6003909803
 20
-26.7296094382
 30
0.0
 10
16.5509760275
 20
-26.7619113325
 30
0.0
 10
16.4373927127
 20
-26.8128198071
 30
0.0
 10
16.2543504208
 20
-26.8484795968
 30
0.0
 10
16.0716098535
 20
-26.8441505807
 30
0.0
 10
15.9561675904
 20
-26.8119307258
 30
0.0
 10
15.9065744038
 20
-26.787339054
 30
0.0
 11
16.6003909803
 21
-26.7296094382
 31
0.0
 11
16.4399287251
 21
-26.8045701882
 31
0.0
 11
16.2524005046
 21
-26.8417706869
 31
0.0
 11
16.0654340702
 21
-26.8357303419
 31
0.0
 11
15.9065744038
 21
-26.787339054
 31
0.0
  0
SPLINE
  5
562
100
AcDbEntity
  8
RACCORDO
100
AcDbSpline
 62
253
  6
CONTINUOUS
 70
0
 71
3
 72
11
 73
7
 74
5
 42
0.0000001
 43
0.0000001
 44
0.0000000001
 12
-0.6420665047
 22
-0.3192214424
 32
0.0
 13
-0.64149725
 23
0.3203638617
 33
0.0
 40
0.0
 40
0.0
 40
0.0
 40
0.0
 40
0.238283023
 40
0.5029754886
 40
0.7660677409
 40
1.0
 40
1.0
 40
1.0
 40
1.0
 10
15.8931489073
 20
-17.0364705222
 30
0.0
 10
15.842151058
 20
-17.0618255389
 30
0.0
 10
15.7260816991
 20
-17.0984664758
 30
0.0
 10
15.5428861544
 20
-17.1167871509
 30
0.0
 10
15.3605467701
 20
-17.1005823612
 30
0.0
 10
15.2455043958
 20
-17.065080079
 30
0.0
 10
15.1954820955
 20
-17.0400989317
 30
0.0
 11
15.8931489073
 21
-17.0364705222
 31
0.0
 11
15.7312309956
 21
-17.0910187339
 31
0.0
 11
15.5424713698
 21
-17.1108266611
 31
0.0
 11
15.3546690561
 21
-17.0929771486
 31
0.0
 11
15.1954820955
 21
-17.0400989317
 31
0.0
  0
SPLINE
  5
563
100
AcDbEntity
  8
RACCORDO
100
AcDbSpline
 62
253
  6
CONTINUOUS
 70
0
 71
3
 72
9
 73
5
 74
3
 42
0.0000001
 43
0.0000001
 44
0.0000000001
 12
0.1559620297
 22
-9.720718282
 32
0.0
 13
1.2883357602
 23
-9.6362274278
 33
0.0
 40
0.0
 40
0.0
 40
0.0
 40
0.0
 40
0.2552950269
 40
1.0
 40
1.0
 40
1.0
 40
1.0
 10
15.8931489073
 20
-17.0364705222
 30
0.0
 10
15.9064210174
 20
-17.8636875339
 30
0.0
 10
16.0028695005
 20
-21.1029712755
 30
0.0
 10
16.2805809644
 20
-24.3375606091
 30
0.0
 10
16.6003909803
 20
-26.7296094382
 30
0.0
 11
15.8931489073
 21
-17.0364705222
 31
0.0
 11
15.9674805682
 21
-19.5173276332
 31
0.0
 11
16.6003909803
 21
-26.7296094382
 31
0.0
  0
SPLINE
  5
564
100
AcDbEntity
  8
RACCORDO
100
AcDbSpline
 62
253
  6
CONTINUOUS
 70
0
 71
3
 72
9
 73
5
 74
3
 42
0.0000001
 43
0.0000001
 44
0.0000000001
 12
0.1568077676
 22
-9.7749659351
 32
0.0
 13
1.2953593419
 23
-9.690025381
 33
0.0
 40
0.0
 40
0.0
 40
0.0
 40
0.0
 40
0.2552959744
 40
1.0
 40
1.0
 40
1.0
 40
1.0
 10
15.195482051
 20
-17.040098955
 30
0.0
 10
15.2088261816
 20
-17.8719354394
 30
0.0
 10
15.3057998302
 20
-21.1292966155
 30
0.0
 10
15.5850212692
 20
-24.3819387709
 30
0.0
 10
15.9065743747
 20
-26.7873390739
 30
0.0
 11
15.195482051
 21
-17.040098955
 31
0.0
 11
15.2702183341
 21
-19.5348102634
 31
0.0
 11
15.9065743747
 21
-26.7873390739
 31
0.0
  0
SPLINE
  5
565
100
AcDbEntity
  8
RACCORDO
100
AcDbSpline
 62
253
  6
CONTINUOUS
 70
0
 71
3
 72
11
 73
7
 74
5
 42
0.0000001
 43
0.0000001
 44
0.0000000001
 12
-0.6520434624
 22
-0.2945842926
 32
0.0
 13
-0.6398044459
 23
0.3202980696
 33
0.0
 40
0.0
 40
0.0
 40
0.0
 40
0.0
 40
0.2361736674
 40
0.5007681257
 40
0.7649506886
 40
1.0
 40
1.0
 40
1.0
 40
1.0
 10
15.8931489073
 20
-0.5984423329
 30
0.0
 10
15.8418170753
 20
-0.6216333505
 30
0.0
 10
15.7253419887
 20
-0.6538850135
 30
0.0
 10
15.5424651535
 20
-0.6670040779
 30
0.0
 10
15.3604609956
 20
-0.647229448
 30
0.0
 10
15.2456105833
 20
-0.6107115629
 30
0.0
 10
15.1954820518
 20
-0.5856162827
 30
0.0
 11
15.8931489073
 21
-0.5984423329
 31
0.0
 11
15.7312309943
 21
-0.646791189
 31
0.0
 11
15.5424713567
 21
-0.6613127506
 31
0.0
 11
15.3546690266
 21
-0.6398683967
 31
0.0
 11
15.1954820518
 21
-0.5856162827
 31
0.0
  0
SPLINE
  5
566
100
AcDbEntity
  8
RACCORDO
100
AcDbSpline
 62
253
  6
CONTINUOUS
 70
0
 71
3
 72
9
 73
5
 74
3
 42
0.0000001
 43
0.0000001
 44
0.0000000001
 12
-1.2242337713
 22
-10.3185334393
 32
0.0
 13
-0.1641928579
 23
-10.3896064108
 33
0.0
 40
0.0
 40
0.0
 40
0.0
 40
0.0
 40
0.2543329725
 40
1.0
 40
1.0
 40
1.0
 40
1.0
 10
16.6003909803
 20
9.7658442505
 30
0.0
 10
16.4966033089
 20
8.8910631567
 30
0.0
 10
16.1303530307
 20
5.446779471
 30
0.0
 10
15.933959974
 20
1.9839533101
 30
0.0
 10
15.8931489073
 20
-0.5984423329
 30
0.0
 11
16.6003909803
 21
9.7658442505
 31
0.0
 11
16.3212915237
 21
7.1378739159
 31
0.0
 11
15.8931489073
 21
-0.5984423329
 31
0.0
  0
SPLINE
  5
567
100
AcDbEntity
  8
RACCORDO
100
AcDbSpline
 62
253
  6
CONTINUOUS
 70
0
 71
3
 72
9
 73
5
 74
3
 42
0.0000001
 43
0.0000001
 44
0.0000000001
 12
-1.2308981915
 22
-10.3762426044
 32
0.0
 13
-0.1650850878
 23
-10.4476919871
 33
0.0
 40
0.0
 40
0.0
 40
0.0
 40
0.0
 40
0.2543334356
 40
1.0
 40
1.0
 40
1.0
 40
1.0
 10
15.9065743747
 20
9.8366217539
 30
0.0
 10
15.8022215193
 20
8.9569466104
 30
0.0
 10
15.4339784976
 20
5.4934011677
 30
0.0
 10
15.236514861
 20
2.0112152468
 30
0.0
 10
15.195482051
 20
-0.5856162831
 30
0.0
 11
15.9065743747
 21
9.8366217539
 31
0.0
 11
15.6259554429
 21
7.1939500179
 31
0.0
 11
15.195482051
 21
-0.5856162831
 31
0.0
  0
SPLINE
  5
568
100
AcDbEntity
  8
RACCORDO
100
AcDbSpline
 62
253
  6
CONTINUOUS
 70
0
 71
3
 72
11
 73
7
 74
5
 42
0.0000001
 43
0.0000001
 44
0.0000000001
 12
-0.6807130513
 22
-0.2009994499
 32
0.0
 13
-0.6334909885
 23
0.3200940558
 33
0.0
 40
0.0
 40
0.0
 40
0.0
 40
0.0
 40
0.2291475795
 40
0.4934208704
 40
0.761188593
 40
1.0
 40
1.0
 40
1.0
 40
1.0
 10
16.6003909803
 20
9.7658442505
 30
0.0
 10
16.5483963976
 20
9.7504914047
 30
0.0
 10
16.4317027292
 20
9.7338388597
 30
0.0
 10
16.2511013072
 20
9.7387885311
 30
0.0
 10
16.0709676226
 20
9.7709996294
 30
0.0
 10
15.9570027101
 20
9.8111410639
 30
0.0
 10
15.9065744187
 20
9.8366217679
 30
0.0
 11
16.6003909803
 21
9.7658442505
 31
0.0
 11
16.4399287233
 21
9.7393078112
 31
0.0
 11
16.2524005081
 21
9.743397467
 31
0.0
 11
16.0654340801
 21
9.777510706
 31
0.0
 11
15.9065744187
 21
9.8366217679
 31
0.0
  0
SPLINE
  5
569
100
AcDbEntity
  8
RACCORDO
100
AcDbSpline
 62
253
  6
CONTINUOUS
 70
0
 71
3
 72
11
 73
7
 74
5
 42
0.0000001
 43
0.0000001
 44
0.0000000001
 12
-0.5890377668
 22
-0.2979015142
 32
0.0
 13
-0.0777706749
 23
-0.6554864797
 33
0.0
 40
0.0
 40
0.0
 40
0.0
 40
0.0
 40
0.2300295628
 40
0.4848949519
 40
0.7478890943
 40
1.0
 40
1.0
 40
1.0
 40
1.0
 10
16.9496886276
 20
10.3001905455
 30
0.0
 10
16.9045232609
 20
10.2773484938
 30
0.0
 10
16.8175727633
 20
10.2125452829
 30
0.0
 10
16.7127499574
 20
10.0840690826
 30
0.0
 10
16.6354813874
 20
9.9319239673
 30
0.0
 10
16.606926592
 20
9.8209293472
 30
0.0
 10
16.6003909803
 20
9.7658442505
 30
0.0
 11
16.9496886276
 21
10.3001905455
 31
0.0
 11
16.8262995683
 21
10.2117023142
 31
0.0
 11
16.7188821783
 21
10.0822276258
 31
0.0
 11
16.6404205729
 21
9.9273724852
 31
0.0
 11
16.6003909803
 21
9.7658442505
 31
0.0
  0
SPLINE
  5
56A
100
AcDbEntity
  8
RACCORDO
100
AcDbSpline
 62
253
  6
CONTINUOUS
 70
0
 71
3
 72
11
 73
7
 74
5
 42
0.0000001
 43
0.0000001
 44
0.0000000001
 12
-1.1700502883
 22
-0.6069523637
 32
0.0
 13
-0.1532296055
 23
-1.3091713169
 33
0.0
 40
0.0
 40
0.0
 40
0.0
 40
0.0
 40
0.2291817101
 40
0.4839418664
 40
0.7473331662
 40
1.0
 40
1.0
 40
1.0
 40
1.0
 10
16.5962563909
 20
10.9097709831
 30
0.0
 10
16.5068716823
 20
10.8634035229
 30
0.0
 10
16.335002956
 20
10.7323887874
 30
0.0
 10
16.1282265255
 20
10.4741775981
 30
0.0
 10
15.9758112023
 20
10.1690627014
 30
0.0
 10
15.9194797211
 20
9.9468831444
 30
0.0
 10
15.9065743747
 20
9.8366217539
 30
0.0
 11
16.5962563909
 21
10.9097709831
 31
0.0
 11
16.3526023045
 21
10.7311966464
 31
0.0
 11
16.1405042654
 21
10.4708564616
 31
0.0
 11
15.9855979382
 21
10.1601528594
 31
0.0
 11
15.9065743747
 21
9.8366217539
 31
0.0
  0
SPLINE
  5
56B
100
AcDbEntity
  8
RACCORDO
100
AcDbSpline
 62
253
  6
CONTINUOUS
 70
0
 71
3
 72
11
 73
7
 74
5
 42
0.0000001
 43
0.0000001
 44
0.0000000001
 12
-0.0161958582
 22
0.7309902771
 32
0.0
 13
-0.6466472819
 23
0.3412570642
 33
0.0
 40
0.0
 40
0.0
 40
0.0
 40
0.0
 40
0.2463644306
 40
0.5122192109
 40
0.771413944
 40
1.0
 40
1.0
 40
1.0
 40
1.0
 10
16.9496886276
 20
10.3001905455
 30
0.0
 10
16.9483585998
 20
10.3602205466
 30
0.0
 10
16.9254070629
 20
10.4847475239
 30
0.0
 10
16.8491859969
 20
10.6581766405
 30
0.0
 10
16.7396085799
 20
10.8073438708
 30
0.0
 10
16.6455279082
 20
10.883768781
 30
0.0
 10
16.5962563909
 20
10.9097709831
 30
0.0
 11
16.9496886276
 21
10.3001905455
 31
0.0
 11
16.919881783
 21
10.4778415576
 31
0.0
 11
16.842256098
 21
10.6560542477
 31
0.0
 11
16.7286192037
 21
10.8077207104
 31
0.0
 11
16.5962563909
 21
10.9097709831
 31
0.0
  0
SPLINE
  5
56C
100
AcDbEntity
  8
RACCORDO
100
AcDbSpline
 62
253
  6
CONTINUOUS
 70
0
 71
3
 72
9
 73
5
 74
3
 42
0.0000001
 43
0.0000001
 44
0.0000000001
 12
0.1150510518
 22
-0.0690866946
 32
0.0
 13
0.1046239775
 23
-0.0840448643
 33
0.0
 40
0.0
 40
0.0
 40
0.0
 40
0.0
 40
0.2432772337
 40
1.0
 40
1.0
 40
1.0
 40
1.0
 10
-3.8935822265
 20
-6.9400408934
 30
0.0
 10
-3.8842524593
 20
-6.9456433
 30
0.0
 10
-3.8463276371
 20
-6.969376963
 30
0.0
 10
-3.8101039152
 20
-6.9958010025
 30
0.0
 10
-3.7837134667
 20
-7.0170005566
 30
0.0
 11
-3.8935822265
 21
-6.9400408934
 31
0.0
 11
-3.8659006453
 21
-6.9573502465
 31
0.0
 11
-3.7837134667
 21
-7.0170005566
 31
0.0
  0
SPLINE
  5
56D
100
AcDbEntity
  8
RACCORDO
100
AcDbSpline
 62
253
  6
CONTINUOUS
 70
0
 71
3
 72
9
 73
5
 74
3
 42
0.0000001
 43
0.0000001
 44
0.0000000001
 12
0.6022849442
 22
-0.4838179313
 32
0.0
 13
0.2681953359
 23
-0.7244985897
 33
0.0
 40
0.0
 40
0.0
 40
0.0
 40
0.0
 40
0.4860796818
 40
1.0
 40
1.0
 40
1.0
 40
1.0
 10
-3.7837134667
 20
-7.0170005566
 30
0.0
 10
-3.6861273087
 20
-7.0953919119
 30
0.0
 10
-3.5120523479
 20
-7.290439109
 30
0.0
 10
-3.3915543392
 20
-7.5211727842
 30
0.0
 10
-3.3456106617
 20
-7.6452842994
 30
0.0
 11
-3.7837134667
 21
-7.0170005566
 31
0.0
 11
-3.5295575173
 21
-7.2934406384
 31
0.0
 11
-3.3456106617
 21
-7.6452842994
 31
0.0
  0
SPLINE
  5
56E
100
AcDbEntity
  8
RACCORDO
100
AcDbSpline
 62
253
  6
CONTINUOUS
 70
0
 71
3
 72
9
 73
5
 74
3
 42
0.0000001
 43
0.0000001
 44
0.0000000001
 12
0.0008841883
 22
-0.0607607505
 32
0.0
 13
0.0542726913
 23
-0.0273335977
 33
0.0
 40
0.0
 40
0.0
 40
0.0
 40
0.0
 40
0.5498568377
 40
1.0
 40
1.0
 40
1.0
 40
1.0
 10
-12.1448453337
 20
-2.8115848124
 30
0.0
 10
-12.1446832748
 20
-2.8227213837
 30
0.0
 10
-12.1414659072
 20
-2.8434246481
 30
0.0
 10
-12.1271166998
 20
-2.8600046609
 30
0.0
 10
-12.1189732061
 20
-2.8641060049
 30
0.0
 11
-12.1448453337
 21
-2.8115848124
 31
0.0
 11
-12.1377794629
 21
-2.8442424123
 31
0.0
 11
-12.1189732061
 21
-2.8641060049
 31
0.0
  0
SPLINE
  5
56F
100
AcDbEntity
  8
RACCORDO
100
AcDbSpline
 62
253
  6
CONTINUOUS
 70
0
 71
3
 72
9
 73
5
 74
3
 42
0.0000001
 43
0.0000001
 44
0.0000000001
 12
0.1065732666
 22
-0.095778682
 32
0.0
 13
0.1279782195
 23
0.0644437151
 33
0.0
 40
0.0
 40
0.0
 40
0.0
 40
0.0
 40
0.2575182623
 40
1.0
 40
1.0
 40
1.0
 40
1.0
 10
-12.777898967
 20
-3.0534050343
 30
0.0
 10
-12.7687507795
 20
-3.0616266209
 30
0.0
 10
-12.728657464
 20
-3.087445306
 30
0.0
 10
-12.6723891673
 20
-3.0935716008
 30
0.0
 10
-12.640715337
 20
-3.0776221736
 30
0.0
 11
-12.777898967
 21
-3.0534050343
 31
0.0
 11
-12.7470286031
 21
-3.073618273
 31
0.0
 11
-12.640715337
 21
-3.0776221736
 31
0.0
  0
SPLINE
  5
570
100
AcDbEntity
  8
RACCORDO
100
AcDbSpline
 62
253
  6
CONTINUOUS
 70
0
 71
3
 72
9
 73
5
 74
3
 42
0.0000001
 43
0.0000001
 44
0.0000000001
 12
0.0259342296
 22
0.0778511583
 32
0.0
 13
0.0387495088
 23
0.072331616
 33
0.0
 40
0.0
 40
0.0
 40
0.0
 40
0.0
 40
0.2565675725
 40
1.0
 40
1.0
 40
1.0
 40
1.0
 10
-12.635380352
 20
-3.0606203162
 30
0.0
 10
-12.6331623912
 20
-3.0539622887
 30
0.0
 10
-12.6240075111
 20
-3.0281866604
 30
0.0
 10
-12.61276262
 20
-3.0031375467
 30
0.0
 10
-12.6031600728
 20
-2.9852129904
 30
0.0
 11
-12.635380352
 21
-3.0606203162
 31
0.0
 11
-12.6283271215
 21
-3.0407837321
 31
0.0
 11
-12.6031600728
 21
-2.9852129904
 31
0.0
  0
SPLINE
  5
571
100
AcDbEntity
  8
RACCORDO
100
AcDbSpline
 62
253
  6
CONTINUOUS
 70
0
 71
3
 72
10
 73
6
 74
4
 42
0.0000001
 43
0.0000001
 44
0.0000000001
 12
0.1166702367
 22
0.3903157563
 32
0.0
 13
0.389489527
 23
0.1193995063
 33
0.0
 40
0.0
 40
0.0
 40
0.0
 40
0.0
 40
0.5248042132
 40
0.7642097433
 40
1.0
 40
1.0
 40
1.0
 40
1.0
 10
-12.7779023022
 20
-3.0534067784
 30
0.0
 10
-12.757492625
 20
-2.9851269939
 30
0.0
 10
-12.7092591839
 20
-2.887954585
 30
0.0
 10
-12.6053931034
 20
-2.798238087
 30
0.0
 10
-12.5458996309
 20
-2.770769875
 30
0.0
 10
-12.5152870191
 20
-2.7613854616
 30
0.0
 11
-12.7779023022
 21
-3.0534067784
 31
0.0
 11
-12.6765596825
 21
-2.8651574
 31
0.0
 11
-12.6024447053
 21
-2.8017628155
 31
0.0
 11
-12.5152870191
 21
-2.7613854616
 31
0.0
  0
SPLINE
  5
572
100
AcDbEntity
  8
RACCORDO
100
AcDbSpline
 62
253
  6
CONTINUOUS
 70
0
 71
3
 72
9
 73
5
 74
3
 42
0.0000001
 43
0.0000001
 44
0.0000000001
 12
0.196369209
 22
0.0601977332
 32
0.0
 13
0.2017497725
 23
-0.0384923711
 33
0.0
 40
0.0
 40
0.0
 40
0.0
 40
0.0
 40
0.4831104932
 40
1.0
 40
1.0
 40
1.0
 40
1.0
 10
-12.5152870191
 20
-2.7613854616
 30
0.0
 10
-12.4836643439
 20
-2.7516914094
 30
0.0
 10
-12.4151678789
 20
-2.7407730556
 30
0.0
 10
-12.3463351045
 20
-2.7469133987
 30
0.0
 10
-12.3115743243
 20
-2.7535454997
 30
0.0
 11
-12.5152870191
 21
-2.7613854616
 31
0.0
 11
-12.4174031287
 21
-2.7451232942
 31
0.0
 11
-12.3115743243
 21
-2.7535454997
 31
0.0
  0
SPLINE
  5
573
100
AcDbEntity
  8
RACCORDO
100
AcDbSpline
 62
253
  6
CONTINUOUS
 70
0
 71
3
 72
9
 73
5
 74
3
 42
0.0000001
 43
0.0000001
 44
0.0000000001
 12
0.0550086822
 22
-0.0104952515
 32
0.0
 13
0.0537014322
 23
-0.0158827456
 33
0.0
 40
0.0
 40
0.0
 40
0.0
 40
0.0
 40
0.2459887319
 40
1.0
 40
1.0
 40
1.0
 40
1.0
 10
-12.3115743243
 20
-2.7535454997
 30
0.0
 10
-12.307063819
 20
-2.7544060709
 30
0.0
 10
-12.28877376
 20
-2.7581437976
 30
0.0
 10
-12.2706775039
 20
-2.7628178914
 30
0.0
 10
-12.2571803423
 20
-2.7668098145
 30
0.0
 11
-12.3115743243
 21
-2.7535454997
 31
0.0
 11
-12.2980772493
 21
-2.7563016082
 31
0.0
 11
-12.2571803423
 21
-2.7668098145
 31
0.0
  0
SPLINE
  5
574
100
AcDbEntity
  8
RACCORDO
100
AcDbSpline
 62
253
  6
CONTINUOUS
 70
0
 71
3
 72
9
 73
5
 74
3
 42
0.0000001
 43
0.0000001
 44
0.0000000001
 12
0.1160498121
 22
-0.0343229142
 32
0.0
 13
0.108231412
 23
-0.0541440928
 33
0.0
 40
0.0
 40
0.0
 40
0.0
 40
0.0
 40
0.2422808339
 40
1.0
 40
1.0
 40
1.0
 40
1.0
 10
-12.2571803423
 20
-2.7668098145
 30
0.0
 10
-12.2478081272
 20
-2.7695817426
 30
0.0
 10
-12.2094041245
 20
-2.7819580571
 30
0.0
 10
-12.1721816722
 20
-2.7979094734
 30
0.0
 10
-12.1448453337
 20
-2.8115848124
 30
0.0
 11
-12.2571803423
 21
-2.7668098145
 31
0.0
 11
-12.2292683766
 21
-2.7757886887
 31
0.0
 11
-12.1448453337
 21
-2.8115848124
 31
0.0
  0
LINE
  5
575
100
AcDbEntity
  8
RACCORDO
100
AcDbLine
 62
253
  6
CONTINUOUS
 10
-14.6880830929
 20
-11.4900103402
 11
-14.7120606289
 21
-11.2998773348
  0
SPLINE
  5
576
100
AcDbEntity
  8
RACCORDO
100
AcDbSpline
 62
253
  6
CONTINUOUS
 70
0
 71
3
 72
9
 73
5
 74
3
 42
0.0000001
 43
0.0000001
 44
0.0000000001
 12
-1.1852743732
 22
9.4902171214
 32
0.0
 13
-0.1456773546
 23
9.562838201
 33
0.0
 40
0.0
 40
0.0
 40
0.0
 40
0.0
 40
0.2445083857
 40
1.0
 40
1.0
 40
1.0
 40
1.0
 10
-14.7120606289
 20
-11.2998773348
 30
0.0
 10
-14.8086638035
 20
-10.5263981119
 30
0.0
 10
-15.1576428885
 20
-7.3573278712
 30
0.0
 10
-15.3263950043
 20
-4.1690321138
 30
0.0
 10
-15.3630810109
 20
-1.760817424
 30
0.0
 11
-14.7120606289
 21
-11.2998773348
 31
0.0
 11
-14.9685456766
 21
-8.9755202292
 31
0.0
 11
-15.3630810109
 21
-1.760817424
 31
0.0
  0
SPLINE
  5
577
100
AcDbEntity
  8
RACCORDO
100
AcDbSpline
 62
253
  6
CONTINUOUS
 70
0
 71
3
 72
9
 73
5
 74
3
 42
0.0000001
 43
0.0000001
 44
0.0000000001
 12
0.1082954368
 22
-0.0939537256
 32
0.0
 13
0.1279986028
 23
0.0645876293
 33
0.0
 40
0.0
 40
0.0
 40
0.0
 40
0.0
 40
0.2560926423
 40
1.0
 40
1.0
 40
1.0
 40
1.0
 10
-12.7824236229
 20
-3.0693056856
 30
0.0
 10
-12.773179068
 20
-3.0773259716
 30
0.0
 10
-12.7325651853
 20
-3.1024114911
 30
0.0
 10
-12.6764883629
 20
-3.1078274315
 30
0.0
 10
-12.6447486621
 20
-3.091811694
 30
0.0
 11
-12.7824236229
 21
-3.0693056856
 31
0.0
 11
-12.7513631222
 21
-3.0888844069
 31
0.0
 11
-12.6447486621
 21
-3.091811694
 31
0.0
  0
SPLINE
  5
578
100
AcDbEntity
  8
RACCORDO
100
AcDbSpline
 62
253
  6
CONTINUOUS
 70
0
 71
3
 72
9
 73
5
 74
3
 42
0.0000001
 43
0.0000001
 44
0.0000000001
 12
0.0425230956
 22
-0.0060674398
 32
0.0
 13
0.0425135963
 23
0.0061336464
 33
0.0
 40
0.0
 40
0.0
 40
0.0
 40
0.0
 40
0.2161110058
 40
1.0
 40
1.0
 40
1.0
 40
1.0
 10
-12.5591114681
 20
-8.1271321484
 30
0.0
 10
-12.5560482318
 20
-8.1275692285
 30
0.0
 10
-12.5417613003
 20
-8.1287820512
 30
0.0
 10
-12.5273614037
 20
-8.1276466217
 30
0.0
 10
-12.5162527569
 20
-8.1260439224
 30
0.0
 11
-12.5591114681
 21
-8.1271321484
 31
0.0
 11
-12.5498678296
 21
-8.1279837645
 31
0.0
 11
-12.5162527569
 21
-8.1260439224
 31
0.0
  0
SPLINE
  5
579
100
AcDbEntity
  8
RACCORDO
100
AcDbSpline
 62
253
  6
CONTINUOUS
 70
0
 71
3
 72
9
 73
5
 74
3
 42
0.0000001
 43
0.0000001
 44
0.0000000001
 12
0.0818098956
 22
0.0174982777
 32
0.0
 13
0.0712053382
 23
0.0439186583
 33
0.0
 40
0.0
 40
0.0
 40
0.0
 40
0.0
 40
0.2615745706
 40
1.0
 40
1.0
 40
1.0
 40
1.0
 10
-12.4996170703
 20
-8.1230519201
 30
0.0
 10
-12.4924839409
 20
-8.1215262186
 30
0.0
 10
-12.4654962386
 20
-8.1145728317
 30
0.0
 10
-12.4392076934
 20
-8.1040000688
 30
0.0
 10
-12.4216810826
 20
-8.0931898508
 30
0.0
 11
-12.4996170703
 21
-8.1230519201
 31
0.0
 11
-12.4784131848
 21
-8.117640918
 31
0.0
 11
-12.4216810826
 21
-8.0931898508
 31
0.0
  0
SPLINE
  5
57A
100
AcDbEntity
  8
RACCORDO
100
AcDbSpline
 62
253
  6
CONTINUOUS
 70
0
 71
3
 72
9
 73
5
 74
3
 42
0.0000001
 43
0.0000001
 44
0.0000000001
 12
-1.376728132
 22
4.6602526611
 32
0.0
 13
1.1359083715
 23
4.7247272288
 33
0.0
 40
0.0
 40
0.0
 40
0.0
 40
0.0
 40
0.2717504671
 40
1.0
 40
1.0
 40
1.0
 40
1.0
 10
-12.4216829895
 20
-8.0931896032
 30
0.0
 10
-12.5463918272
 20
-7.6710476574
 30
0.0
 10
-12.9261094846
 20
-6.0992199363
 30
0.0
 10
-12.9659962876
 20
-4.4168994185
 30
0.0
 10
-12.6902547072
 20
-3.2699726194
 30
0.0
 11
-12.4216829895
 21
-8.0931896032
 31
0.0
 11
-12.7276727923
 21
-6.8085981154
 31
0.0
 11
-12.6902547072
 21
-3.2699726194
 31
0.0
  0
SPLINE
  5
57B
100
AcDbEntity
  8
RACCORDO
100
AcDbSpline
 62
253
  6
CONTINUOUS
 70
0
 71
3
 72
9
 73
5
 74
3
 42
0.0000001
 43
0.0000001
 44
0.0000000001
 12
0.1568755372
 22
10.463229005
 32
0.0
 13
1.1674752507
 23
10.3990755687
 33
0.0
 40
0.0
 40
0.0
 40
0.0
 40
0.0
 40
0.2454540631
 40
1.0
 40
1.0
 40
1.0
 40
1.0
 10
-15.3630810109
 20
14.6936652479
 30
0.0
 10
-15.3502457649
 20
15.5497459388
 30
0.0
 10
-15.2533141432
 20
19.0367301007
 30
0.0
 10
-14.9817209951
 20
22.5184237485
 30
0.0
 10
-14.6880830929
 20
25.1339504877
 30
0.0
 11
-15.3630810109
 21
14.6936652479
 31
0.0
 11
-15.2921382894
 21
17.2612160588
 31
0.0
 11
-14.6880830929
 21
25.1339504877
 31
0.0
  0
SPLINE
  5
57C
100
AcDbEntity
  8
RACCORDO
100
AcDbSpline
 62
253
  6
CONTINUOUS
 70
0
 71
3
 72
9
 73
5
 74
3
 42
0.0000001
 43
0.0000001
 44
0.0000000001
 12
-1.4393954672
 22
4.8883751188
 32
0.0
 13
1.330568579
 23
4.9191114919
 33
0.0
 40
0.0
 40
0.0
 40
0.0
 40
0.0
 40
0.272952385
 40
1.0
 40
1.0
 40
1.0
 40
1.0
 10
-12.5591118627
 20
-8.1271323872
 30
0.0
 10
-12.6900740047
 20
-7.682367838
 30
0.0
 10
-13.0835709381
 20
-6.0334542052
 30
0.0
 10
-13.1048858654
 20
-4.2614484477
 30
0.0
 10
-12.7824236281
 20
-3.0693056884
 30
0.0
 11
-12.5591118627
 21
-8.1271323872
 31
0.0
 11
-12.8771571799
 21
-6.7730472874
 31
0.0
 11
-12.7824236281
 21
-3.0693056884
 31
0.0
  0
SPLINE
  5
57D
100
AcDbEntity
  8
RACCORDO
100
AcDbSpline
 62
253
  6
CONTINUOUS
 70
0
 71
3
 72
9
 73
5
 74
3
 42
0.0000001
 43
0.0000001
 44
0.0000000001
 12
-0.0120490606
 22
0.1519230387
 32
0.0
 13
0.1357255791
 23
0.0693134671
 33
0.0
 40
0.0
 40
0.0
 40
0.0
 40
0.0
 40
0.5063674961
 40
1.0
 40
1.0
 40
1.0
 40
1.0
 10
-11.8718860319
 20
-9.0116168204
 30
0.0
 10
-11.8739197828
 20
-8.9859738575
 30
0.0
 10
-11.8593978176
 20
-8.9345630634
 30
0.0
 10
-11.8244318772
 20
-8.8934730131
 30
0.0
 10
-11.8020990247
 20
-8.8820678863
 30
0.0
 11
-11.8718860319
 21
-9.0116168204
 31
0.0
 11
-11.8539708809
 21
-8.936554669
 31
0.0
 11
-11.8020990247
 21
-8.8820678863
 31
0.0
  0
SPLINE
  5
57E
100
AcDbEntity
  8
RACCORDO
100
AcDbSpline
 62
253
  6
CONTINUOUS
 70
0
 71
3
 72
11
 73
7
 74
5
 42
0.0000001
 43
0.0000001
 44
0.0000000001
 12
0.1208804802
 22
1.0618059411
 32
0.0
 13
0.7862157007
 23
0.7238154592
 33
0.0
 40
0.0
 40
0.0
 40
0.0
 40
0.0
 40
0.2453858374
 40
0.5019341965
 40
0.7574736611
 40
1.0
 40
1.0
 40
1.0
 40
1.0
 10
-14.6880830929
 20
25.1339504877
 30
0.0
 10
-14.6781956402
 20
25.220801201
 30
0.0
 10
-14.6398055207
 20
25.3966542378
 30
0.0
 10
-14.5379753258
 20
25.6477829718
 30
0.0
 10
-14.3971794262
 20
25.878138276
 30
0.0
 10
-14.2791537822
 20
26.0122738824
 30
0.0
 10
-14.2155944437
 20
26.0707886535
 30
0.0
 11
-14.6880830929
 21
25.1339504877
 31
0.0
 11
-14.6337073922
 21
25.39048617
 31
0.0
 11
-14.531137531
 21
25.6447407652
 31
0.0
 11
-14.3881451685
 21
25.8773974465
 31
0.0
 11
-14.2155944437
 21
26.0707886535
 31
0.0
  0
SPLINE
  5
57F
100
AcDbEntity
  8
RACCORDO
100
AcDbSpline
 62
253
  6
CONTINUOUS
 70
0
 71
3
 72
9
 73
5
 74
3
 42
0.0000001
 43
0.0000001
 44
0.0000000001
 12
0.1817061031
 22
0.1672844823
 32
0.0
 13
0.2167982902
 23
0.1183203586
 33
0.0
 40
0.0
 40
0.0
 40
0.0
 40
0.0
 40
0.2618872216
 40
1.0
 40
1.0
 40
1.0
 40
1.0
 10
-14.2155944437
 20
26.0707886535
 30
0.0
 10
-14.1997322749
 20
26.0853918763
 30
0.0
 10
-14.1377032175
 20
26.1395111276
 30
0.0
 10
-14.0695681628
 20
26.186901739
 30
0.0
 10
-14.0162276334
 20
26.2160129952
 30
0.0
 11
-14.2155944437
 21
26.0707886535
 31
0.0
 11
-14.1668242606
 21
26.1132766738
 31
0.0
 11
-14.0162276334
 21
26.2160129952
 31
0.0
  0
SPLINE
  5
580
100
AcDbEntity
  8
RACCORDO
100
AcDbSpline
 62
253
  6
CONTINUOUS
 70
0
 71
3
 72
9
 73
5
 74
3
 42
0.0000001
 43
0.0000001
 44
0.0000000001
 12
-0.088331132
 22
0.0441718816
 32
0.0
 13
-0.0825484704
 23
0.0542152566
 33
0.0
 40
0.0
 40
0.0
 40
0.0
 40
0.0
 40
0.2428069057
 40
1.0
 40
1.0
 40
1.0
 40
1.0
 10
-11.8020990298
 20
-8.8820678849
 30
0.0
 10
-11.8092481661
 20
-8.8784928056
 30
0.0
 10
-11.8384533021
 20
-8.8632939106
 30
0.0
 10
-11.8667082574
 20
-8.846290421
 30
0.0
 10
-11.8875433013
 20
-8.8326066151
 30
0.0
 11
-11.8020990298
 21
-8.8820678849
 31
0.0
 11
-11.8233745654
 21
-8.8710056221
 31
0.0
 11
-11.8875433013
 21
-8.8326066151
 31
0.0
  0
SPLINE
  5
581
100
AcDbEntity
  8
RACCORDO
100
AcDbSpline
 62
253
  6
CONTINUOUS
 70
0
 71
3
 72
9
 73
5
 74
3
 42
0.0000001
 43
0.0000001
 44
0.0000000001
 12
-0.4798624172
 22
0.3934000496
 32
0.0
 13
-0.264988925
 23
0.561081463
 33
0.0
 40
0.0
 40
0.0
 40
0.0
 40
0.0
 40
0.4893194142
 40
1.0
 40
1.0
 40
1.0
 40
1.0
 10
-11.975133977
 20
-8.7680167932
 30
0.0
 10
-12.0534026426
 20
-8.7038506992
 30
0.0
 10
-12.1962807898
 20
-8.5514718579
 30
0.0
 10
-12.3048866004
 20
-8.3735764379
 30
0.0
 10
-12.3499948335
 20
-8.2780653012
 30
0.0
 11
-11.975133977
 21
-8.7680167932
 31
0.0
 11
-12.1850228001
 21
-8.548617325
 31
0.0
 11
-12.3499948335
 21
-8.2780653012
 31
0.0
  0
SPLINE
  5
582
100
AcDbEntity
  8
RACCORDO
100
AcDbSpline
 62
253
  6
CONTINUOUS
 70
0
 71
3
 72
11
 73
7
 74
5
 42
0.0000001
 43
0.0000001
 44
0.0000000001
 12
-0.9570651388
 22
0.4787033092
 32
0.0
 13
-0.3569745461
 23
1.0088110386
 33
0.0
 40
0.0
 40
0.0
 40
0.0
 40
0.0
 40
0.2252932235
 40
0.4763212842
 40
0.7396059093
 40
1.0
 40
1.0
 40
1.0
 40
1.0
 10
-11.8718860319
 20
-9.0116168204
 30
0.0
 10
-11.943759462
 20
-8.9756672832
 30
0.0
 10
-12.0851276346
 20
-8.8781479297
 30
0.0
 10
-12.2693564934
 20
-8.6875347861
 30
0.0
 10
-12.4257050339
 20
-8.4581765511
 30
0.0
 10
-12.5044924658
 20
-8.2875920175
 30
0.0
 10
-12.5354771532
 20
-8.2000292065
 30
0.0
 11
-11.8718860319
 21
-9.0116168204
 31
0.0
 11
-12.0724067008
 21
-8.8777702892
 31
0.0
 11
-12.2605113309
 21
-8.6859965972
 31
0.0
 11
-12.4194890664
 21
-8.4533914655
 31
0.0
 11
-12.5354771532
 21
-8.2000292065
 31
0.0
  0
SPLINE
  5
583
100
AcDbEntity
  8
RACCORDO
100
AcDbSpline
 62
253
  6
CONTINUOUS
 70
0
 71
3
 72
9
 73
5
 74
3
 42
0.0000001
 43
0.0000001
 44
0.0000000001
 12
-0.0120490771
 22
0.1519230339
 32
0.0
 13
0.1357255798
 23
0.0693134581
 33
0.0
 40
0.0
 40
0.0
 40
0.0
 40
0.0
 40
0.5063658142
 40
1.0
 40
1.0
 40
1.0
 40
1.0
 10
-3.6766812465
 20
-13.1092192131
 30
0.0
 10
-3.6787149934
 20
-13.0835763362
 30
0.0
 10
-3.6641930763
 20
-13.0321655559
 30
0.0
 10
-3.6292271731
 20
-12.9910754418
 30
0.0
 10
-3.6068942444
 20
-12.9796702776
 30
0.0
 11
-3.6766812465
 21
-13.1092192131
 31
0.0
 11
-3.658766221
 21
-13.0341572971
 31
0.0
 11
-3.6068942444
 21
-12.9796702776
 31
0.0
  0
SPLINE
  5
584
100
AcDbEntity
  8
RACCORDO
100
AcDbSpline
 62
253
  6
CONTINUOUS
 70
0
 71
3
 72
9
 73
5
 74
3
 42
0.0000001
 43
0.0000001
 44
0.0000000001
 12
-0.0550589678
 22
0.0461771474
 32
0.0
 13
0.0149625142
 23
0.0702847213
 33
0.0
 40
0.0
 40
0.0
 40
0.0
 40
0.0
 40
0.5365550968
 40
1.0
 40
1.0
 40
1.0
 40
1.0
 10
-3.0748774051
 20
-12.8692454225
 30
0.0
 10
-3.084724795
 20
-12.8609865612
 30
0.0
 10
-3.1008471696
 20
-12.8419917531
 30
0.0
 10
-3.1045488929
 20
-12.816504724
 30
0.0
 10
-3.1022374592
 20
-12.8056470254
 30
0.0
 11
-3.0748774051
 21
-12.8692454225
 31
0.0
 11
-3.0984500812
 21
-12.8387339846
 31
0.0
 11
-3.1022374592
 21
-12.8056470254
 31
0.0
  0
SPLINE
  5
585
100
AcDbEntity
  8
RACCORDO
100
AcDbSpline
 62
253
  6
CONTINUOUS
 70
0
 71
3
 72
9
 73
5
 74
3
 42
0.0000001
 43
0.0000001
 44
0.0000000001
 12
-0.0230292334
 22
-0.10683654
 32
0.0
 13
-0.0448059819
 23
-0.0996835786
 33
0.0
 40
0.0
 40
0.0
 40
0.0
 40
0.0
 40
0.2593934942
 40
1.0
 40
1.0
 40
1.0
 40
1.0
 10
-3.0748811983
 20
-12.8692477194
 30
0.0
 10
-3.0768724094
 20
-12.8784852872
 30
0.0
 10
-3.0853849832
 20
-12.9139062951
 30
0.0
 10
-3.0973624687
 20
-12.9485392322
 30
0.0
 10
-3.1084236692
 20
-12.9731480011
 30
0.0
 11
-3.0748811983
 21
-12.8692477194
 31
0.0
 11
-3.0815217585
 21
-12.8968082199
 31
0.0
 11
-3.1084236692
 21
-12.9731480011
 31
0.0
  0
SPLINE
  5
586
100
AcDbEntity
  8
RACCORDO
100
AcDbSpline
 62
253
  6
CONTINUOUS
 70
0
 71
3
 72
9
 73
5
 74
3
 42
0.0000001
 43
0.0000001
 44
0.0000000001
 12
-0.0477787697
 22
-0.1062973859
 32
0.0
 13
-0.0775196118
 23
-0.0870210025
 33
0.0
 40
0.0
 40
0.0
 40
0.0
 40
0.0
 40
0.2599266249
 40
1.0
 40
1.0
 40
1.0
 40
1.0
 10
-3.1084236692
 20
-12.9731480011
 30
0.0
 10
-3.1125633274
 20
-12.9823578414
 30
0.0
 10
-3.1296607136
 20
-13.0172396306
 30
0.0
 10
-3.1518222657
 20
-13.0497360731
 30
0.0
 10
-3.170945666
 20
-13.0712033821
 30
0.0
 11
-3.1084236692
 21
-12.9731480011
 31
0.0
 11
-3.1217936036
 21
-13.0003300944
 31
0.0
 11
-3.170945666
 21
-13.0712033821
 31
0.0
  0
SPLINE
  5
587
100
AcDbEntity
  8
RACCORDO
100
AcDbSpline
 62
253
  6
CONTINUOUS
 70
0
 71
3
 72
11
 73
7
 74
5
 42
0.0000001
 43
0.0000001
 44
0.0000000001
 12
-0.3625772728
 22
-0.407017489
 32
0.0
 13
-0.4874878061
 23
0.2438875848
 33
0.0
 40
0.0
 40
0.0
 40
0.0
 40
0.0
 40
0.2235302393
 40
0.4525599812
 40
0.707783091
 40
1.0
 40
1.0
 40
1.0
 40
1.0
 10
-3.170945666
 20
-13.0712033821
 30
0.0
 10
-3.1979613275
 20
-13.1015302876
 30
0.0
 10
-3.2652251594
 20
-13.1532686463
 30
0.0
 10
-3.3931573789
 20
-13.184752525
 30
0.0
 10
-3.5355526895
 20
-13.1693076066
 30
0.0
 10
-3.6291971865
 20
-13.1329752385
 30
0.0
 10
-3.6766812465
 20
-13.1092192131
 30
0.0
 11
-3.170945666
 21
-13.0712033821
 31
0.0
 11
-3.2679541465
 21
-13.144928949
 31
0.0
 11
-3.3887086072
 21
-13.1766143876
 31
0.0
 11
-3.5273014419
 21
-13.1645133016
 31
0.0
 11
-3.6766812465
 21
-13.1092192131
 31
0.0
  0
ELLIPSE
  5
588
100
AcDbEntity
  8
0
100
AcDbEllipse
 62
7
  6
CONTINUOUS
 10
16.8537948229
 20
22.7702022318
 30
0.0
 11
0.2257019663
 21
0.4461636818
 31
0.0
 40
0.6159267166
 41
0.5882567743
 42
0.6817883054
  0
ELLIPSE
  5
589
100
AcDbEntity
  8
0
100
AcDbEllipse
 62
7
  6
CONTINUOUS
 10
14.5248440822
 20
19.631045067
 30
0.0
 11
-0.0894407211
 21
0.1788887077
 31
0.0
 40
0.6123703628
 41
-2.2554972904
 42
-0.6847009636
  0
ELLIPSE
  5
58A
100
AcDbEntity
  8
0
100
AcDbEllipse
 62
7
  6
CONTINUOUS
 10
16.565545024
 20
23.5529058299
 30
0.0
 11
0.9987332359
 21
0.6172510855
 31
0.0
 40
0.0815198604
 41
0.0504376855
 42
0.729240919
  0
ELLIPSE
  5
58B
100
AcDbEntity
  8
0
100
AcDbEllipse
 62
7
  6
CONTINUOUS
 10
28.3233350389
 20
-19.2810026023
 30
0.0
 11
0.9987332359
 21
0.6172510855
 31
0.0
 40
0.0815198604
 41
-2.4007162062
 42
-1.2945337033
  0
ELLIPSE
  5
58C
100
AcDbEntity
  8
0
100
AcDbEllipse
 62
7
  6
CONTINUOUS
 10
22.8981836905
 20
13.7989225989
 30
0.0
 11
-0.223611546
 21
0.4472115081
 31
0.0
 40
0.6124054886
 41
-2.2555017776
 42
-0.6847562194
  0
ELLIPSE
  5
58D
100
AcDbEntity
  8
0
100
AcDbEllipse
 62
7
  6
CONTINUOUS
 10
22.8981836905
 20
-24.122898654
 30
0.0
 11
-0.2236315662
 21
0.4472293059
 31
0.0
 40
0.6123445654
 41
-3.1338150222
 42
-2.2555748796
  0
ELLIPSE
  5
58E
100
AcDbEntity
  8
0
100
AcDbEllipse
 62
7
  6
CONTINUOUS
 10
16.221900357
 20
18.7825169296
 30
0.0
 11
-0.0894407211
 21
0.1788887077
 31
0.0
 40
0.6123703628
 41
-0.6847009636
 42
-0.0035385455
  0
ELLIPSE
  5
58F
100
AcDbEntity
  8
0
100
AcDbEllipse
 62
7
  6
CONTINUOUS
 10
15.3026615415
 20
17.1018873357
 30
0.0
 11
0.199943508
 21
0.008945986
 31
0.0
 40
0.5313301283
 41
3.1178257339
 42
3.9032222197
  0
ELLIPSE
  5
590
100
AcDbEntity
  8
0
100
AcDbEllipse
 62
7
  6
CONTINUOUS
 10
13.6056052666
 20
17.9504154731
 30
0.0
 11
0.199943508
 21
0.008945986
 31
0.0
 40
0.5313301283
 41
-2.3799630874
 42
-0.8091667606
  0
ELLIPSE
  5
591
100
AcDbEntity
  8
0
100
AcDbEllipse
 62
7
  6
CONTINUOUS
 10
28.3233350389
 20
17.6740108224
 30
0.0
 11
-0.7417913999
 21
1.2002436976
 31
0.0
 40
0.5587454355
 41
5.1208455599
 42
6.2270280628
  0
ELLIPSE
  5
592
100
AcDbEntity
  8
0
100
AcDbEllipse
 62
7
  6
CONTINUOUS
 10
20.7775938204
 20
13.6495526093
 30
0.0
 11
0.249929385
 21
0.0111824824
 31
0.0
 40
0.5313301283
 41
-2.3799630874
 42
-0.8149845248
  0
ELLIPSE
  5
593
100
AcDbEntity
  8
0
100
AcDbEllipse
 62
7
  6
CONTINUOUS
 10
21.1171076083
 20
-24.9364993367
 30
0.0
 11
-0.2234618187
 21
0.4480306886
 31
0.0
 40
0.6116748051
 41
2.4584403302
 42
4.0283232676
  0
ELLIPSE
  5
594
100
AcDbEntity
  8
0
100
AcDbEllipse
 62
7
  6
CONTINUOUS
 10
21.1171076083
 20
12.8580654579
 30
0.0
 11
-0.2230998035
 21
0.4477110033
 31
0.0
 40
0.6127700112
 41
-2.2535417632
 42
-0.6836588258
  0
ELLIPSE
  5
595
100
AcDbEntity
  8
0
100
AcDbEllipse
 62
7
  6
CONTINUOUS
 10
28.148419875
 20
-19.4872307816
 30
0.0
 11
0.499366618
 21
0.3086255427
 31
0.0
 40
0.0815198604
 41
6.102242859
 42
7.0007906979
  0
ELLIPSE
  5
596
100
AcDbEntity
  8
0
100
AcDbEllipse
 62
7
  6
CONTINUOUS
 10
28.148419875
 20
18.7622609469
 30
0.0
 11
-0.3708957
 21
0.6001218488
 31
0.0
 40
0.5587454355
 41
-3.1744788413
 42
-2.2759310025
  0
ELLIPSE
  5
597
100
AcDbEntity
  8
0
100
AcDbEllipse
 62
7
  6
CONTINUOUS
 10
72.1882917012
 20
44.2279384216
 30
0.0
 11
60.4168605605
 21
30.5632322457
 31
0.0
 40
0.005706723
 41
2.5167363259
 42
2.6876789752
  0
ELLIPSE
  5
598
100
AcDbEntity
  8
0
100
AcDbEllipse
 62
7
  6
CONTINUOUS
 10
23.0853377718
 20
19.6544307573
 30
0.0
 11
0.221538876
 21
0.4482453432
 31
0.0
 40
0.6088015717
 41
0.5825560023
 42
0.6760875334
  0
ELLIPSE
  5
599
100
AcDbEntity
  8
0
100
AcDbEllipse
 62
7
  6
CONTINUOUS
 10
19.0908280961
 20
14.4929354714
 30
0.0
 11
0.249929385
 21
0.0111824824
 31
0.0
 40
0.5313301283
 41
3.1178197826
 42
3.9032222197
  0
ELLIPSE
  5
59A
100
AcDbEntity
  8
0
100
AcDbEllipse
 62
7
  6
CONTINUOUS
 10
6.7871701035
 20
20.6447644678
 30
0.0
 11
0.249929385
 21
0.0111824824
 31
0.0
 40
0.5313301283
 41
3.1178197826
 42
3.9032222197
  0
ELLIPSE
  5
59B
100
AcDbEntity
  8
0
100
AcDbEllipse
 62
7
  6
CONTINUOUS
 10
8.4739358277
 20
19.8013816057
 30
0.0
 11
0.249929385
 21
0.0111824824
 31
0.0
 40
0.5313301283
 41
-2.3799630874
 42
-0.8149845248
  0
ELLIPSE
  5
59C
100
AcDbEntity
  8
0
100
AcDbEllipse
 62
7
  6
CONTINUOUS
 10
72.1882917012
 20
44.2279384216
 30
0.0
 11
60.4168605605
 21
30.5632322457
 31
0.0
 40
0.005706723
 41
-2.6934527084
 42
-2.5225100591
  0
ELLIPSE
  5
59D
100
AcDbEntity
  8
0
100
AcDbEllipse
 62
7
  6
CONTINUOUS
 10
17.207546809
 20
21.6736728517
 30
0.0
 11
0.4530414621
 21
-0.0021419047
 31
0.0
 40
0.4964289597
 41
-0.7830511342
 42
0.0023167121
  0
ELLIPSE
  5
59E
100
AcDbEntity
  8
0
100
AcDbEllipse
 62
7
  6
CONTINUOUS
 10
22.7979934221
 20
18.8784495452
 30
0.0
 11
0.4530414621
 21
-0.0021419047
 31
0.0
 40
0.4964289597
 41
-0.77723337
 42
0.0023153674
  0
ELLIPSE
  5
59F
100
AcDbEntity
  8
RACCORDO
100
AcDbEllipse
 62
7
  6
CONTINUOUS
 10
26.2709379825
 20
-16.786954732
 30
0.0
 11
0.0869927845
 21
0.180102834
 31
0.0
 40
0.6016116119
 41
0.6590366007
 42
0.667763247
  0
ELLIPSE
  5
5A0
100
AcDbEntity
  8
0
100
AcDbEllipse
 62
7
  6
CONTINUOUS
 10
6.094102925
 20
20.3695677995
 30
0.0
 11
-0.2234618187
 21
0.4480306886
 31
0.0
 40
0.6116748051
 41
-0.6831523234
 42
0.886730614
  0
ELLIPSE
  5
5A1
100
AcDbEntity
  8
RACCORDO
100
AcDbEllipse
 62
7
  6
CONTINUOUS
 10
-11.2844322357
 20
27.3119183522
 30
0.0
 11
-0.2238185272
 21
0.4474870472
 31
0.0
 40
0.6119614214
 41
-0.6845271385
 42
0.0285911304
  0
ELLIPSE
  5
5A2
100
AcDbEntity
  8
RACCORDO
100
AcDbEllipse
 62
7
  6
CONTINUOUS
 10
19.474470355
 20
-25.4795335197
 30
0.0
 11
-0.2238185272
 21
0.4474870472
 31
0.0
 40
0.6119614214
 41
-3.170196376
 42
-2.2560086979
  0
ELLIPSE
  5
5A3
100
AcDbEntity
  8
RACCORDO
100
AcDbEllipse
 62
7
  6
CONTINUOUS
 10
19.474470355
 20
11.9324670568
 30
0.0
 11
-0.2235482059
 21
0.4472467618
 31
0.0
 40
0.6127837007
 41
-2.2550219623
 42
-0.6849108682
  0
ENDSEC
  0
SECTION
  2
OBJECTS
  0
DICTIONARY
  5
C
100
AcDbDictionary
280
0
281
1
  3
ACAD_GROUP
350
D
  3
ACAD_MLINESTYLE
350
17
  3
ACAD_LAYOUT
350
1A
  3
ACAD_PLOTSETTINGS
350
19
  3
ACAD_PLOTSTYLENAME
350
E
  0
DICTIONARY
  5
D
102
{ACAD_REACTORS
330
C
102
}
100
AcDbDictionary
280
0
281
1
  0
ACDBDICTIONARYWDFLT
  5
E
102
{ACAD_REACTORS
330
C
102
}
100
AcDbDictionary
281
1
  3
Normal
350
F
100
AcDbDictionaryWithDefault
340
F
  0
DICTIONARY
  5
17
102
{ACAD_REACTORS
330
C
102
}
100
AcDbDictionary
280
0
281
1
  3
Standard
350
18
  0
DICTIONARY
  5
19
102
{ACAD_REACTORS
330
C
102
}
100
AcDbDictionary
281
1
  0
DICTIONARY
  5
1A
102
{ACAD_REACTORS
330
C
102
}
100
AcDbDictionary
281
1
  3
Model
350
5A4
  3
Layout1
350
5A5
  0
ACDBPLACEHOLDER
  5
F
102
{ACAD_REACTORS
330
E
102
}
  0
MLINESTYLE
  5
18
102
{ACAD_REACTORS
330
17
102
}
100
AcDbMlineStyle
  2
STANDARD
 70
0
  3

 62
256
 51
90.0
 52
90.0
 71
2
 49
0.5
 62
256
  6
BYLAYER
 49
-0.5
 62
256
  6
BYLAYER
  0
LAYOUT
  5
5A4
102
{ACAD_REACTORS
330
1A
102
}
100
AcDbPlotSettings
  1

  2
none_device
  4
ISO_A4_(297.00_x_210.00_MM)
  6

 40
0.0
 41
0.0
 42
0.0
 43
0.0
 44
297.0
 45
210.0
 46
0.0
 47
0.0
 48
0.0
 49
0.0
140
0.0
141
0.0
142
1.0
143
1.0
 70
1024
 72
1
 73
0
 74
0
  7

 75
0
147
1.0
148
0.0
149
0.0
100
AcDbLayout
  1
Model
 70
0
 71
0
 10
0.0
 20
0.0
 11
297.0
 21
210.0
 12
0.0
 22
0.0
 32
0.0
 14
0.0
 24
0.0
 34
0.0
 15
0.0
 25
0.0
 35
0.0
146
0.0
 13
0.0
 23
0.0
 33
0.0
 16
1.0
 26
0.0
 36
0.0
 17
0.0
 27
1.0
 37
0.0
 76
0
330
214
345
0
346
0
  0
LAYOUT
  5
5A5
102
{ACAD_REACTORS
330
1A
102
}
100
AcDbPlotSettings
  1

  2
none_device
  4
ISO_A4_(297.00_x_210.00_MM)
  6

 40
0.0
 41
0.0
 42
0.0
 43
0.0
 44
297.0
 45
210.0
 46
0.0
 47
0.0
 48
0.0
 49
0.0
140
0.0
141
0.0
142
1.0
143
1.0
 70
0
 72
1
 73
0
 74
0
  7

 75
0
147
1.0
148
0.0
149
0.0
100
AcDbLayout
  1
Layout1
 70
0
 71
1
 10
0.0
 20
0.0
 11
297.0
 21
210.0
 12
0.0
 22
0.0
 32
0.0
 14
0.0
 24
0.0
 34
0.0
 15
0.0
 25
0.0
 35
0.0
146
0.0
 13
0.0
 23
0.0
 33
0.0
 16
1.0
 26
0.0
 36
0.0
 17
0.0
 27
1.0
 37
0.0
 76
0
330
215
345
0
346
0
  0
ENDSEC
  0
EOF
