  0
SECTION
  2
HEADER
  9
$ACADVER
  1
AC1015
  9
$DWGCODEPAGE
  3
ANSI_1252
  9
$EXTMAX
 10
297.0
 20
210.0
 30
0.0
  9
$EXTMIN
 10
0.0
 20
0.0
 30
0.0
  9
$LIMMIN
 10
0.0
 20
0.0
  9
$LIMMAX
 10
297.0
 20
210.0
  9
$VIEWCTR
 10
148.5
 20
105.0
  9
$VIEWSIZE
 40
210.0
  9
$CLAYER
  8
0
  9
$LTSCALE
 40
16.335
  9
$CELTYPE
  6
BYLAYER
  9
$DIMSCALE
 40
1.0
  9
$DIMASZ
 40
3.0
  9
$DIMEXO
 40
1.85625
  9
$DIMDLI
 40
11.286
  9
$DIMEXE
 40
5.346
  9
$DIMCEN
 40
2.673
  9
$DIMLFAC
 40
1.0
  9
$DIMBLK
  1
_FILLED
  9
$DIMTXT
 40
3.0
  9
$DIMTOL
 70
1
  9
$DIMLIM
 70
0
  9
$DIMTFAC
 40
1.0
  9
$DIMTP
 40
0.01
  9
$DIMTM
 40
0.01
  9
$PDMODE
 70
3
  9
$PDSIZE
 40
3.0
  9
$HANDSEED
  5
2CD
  9
$TILEMODE
 70
1
  9
$MEASUREMENT
 70
1
  9
$INSUNITS
 70
4
  0
ENDSEC
  0
SECTION
  2
CLASSES
  0
CLASS
  1
ACDBDICTIONARYWDFLT
  2
AcDbDictionaryWithDefault
  3
AutoCAD 2000
 90
0
280
0
281
0
  0
CLASS
  1
ACDBPLACEHOLDER
  2
AcDbPlaceHolder
  3
AutoCAD 2000
 90
0
280
0
281
0
  0
CLASS
  1
LAYOUT
  2
AcDbLayout
  3
AutoCAD 2000
 90
0
280
0
281
0
  0
ENDSEC
  0
SECTION
  2
TABLES
  0
TABLE
  2
VPORT
  5
8
100
AcDbSymbolTable
 70
2
  0
VPORT
  5
1F4
100
AcDbSymbolTableRecord
100
AcDbViewportTableRecord
  2
*ACTIVE
 70
0
 10
0.0
 20
0.0
 11
1.0
 21
1.0
 12
148.5
 22
105.0
 13
0.0
 23
0.0
 14
1.0
 24
1.0
 15
0.0
 25
0.0
 16
0.0
 26
0.0
 36
1.0
 17
0.0
 27
0.0
 37
0.0
 40
210.0
 41
1.4142857143
 42
50.0
 43
0.0
 44
0.0
 50
0.0
 51
0.0
 71
0
 72
100
 73
1
 74
1
 75
0
 76
0
 77
0
 78
0
  0
ENDTAB
  0
TABLE
  2
LTYPE
  5
5
100
AcDbSymbolTable
 70
6
  0
LTYPE
  5
14
100
AcDbSymbolTableRecord
100
AcDbLinetypeTableRecord
  2
BYBLOCK
 70
0
  3

 72
65
 73
0
 40
0.0
  0
LTYPE
  5
15
100
AcDbSymbolTableRecord
100
AcDbLinetypeTableRecord
  2
BYLAYER
 70
0
  3

 72
65
 73
0
 40
0.0
  0
LTYPE
  5
16
100
AcDbSymbolTableRecord
100
AcDbLinetypeTableRecord
  2
CONTINUOUS
 70
64
  3
Solid line
 72
65
 73
0
 40
0.0
  0
LTYPE
  5
1F5
100
AcDbSymbolTableRecord
100
AcDbLinetypeTableRecord
  2
CENTER
 70
64
  3
____ _ ____ _ ____ _ ____ _ ____ _ ____ _ ____
 72
65
 73
4
 40
0.6
 49
0.375
 74
0
 49
-0.075
 74
0
 49
0.075
 74
0
 49
-0.075
 74
0
  0
LTYPE
  5
1F6
100
AcDbSymbolTableRecord
100
AcDbLinetypeTableRecord
  2
HIDDEN
 70
64
  3
- - - - - - - - - - - - - - - - - - - -
 72
65
 73
2
 40
0.2
 49
0.1
 74
0
 49
-0.1
 74
0
  0
LTYPE
  5
1F7
100
AcDbSymbolTableRecord
100
AcDbLinetypeTableRecord
  2
PHANTOM
 70
64
  3
_____ _ _ _____ _ _ _____ _ _ _____
 72
65
 73
6
 40
0.8
 49
0.45
 74
0
 49
-0.05
 74
0
 49
0.1
 74
0
 49
-0.05
 74
0
 49
0.1
 74
0
 49
-0.05
 74
0
  0
LTYPE
  5
1F8
100
AcDbSymbolTableRecord
100
AcDbLinetypeTableRecord
  2
DOT
 70
64
  3
. . . . . . . . . . . . . . . . . . . .
 72
65
 73
2
 40
0.2
 49
0.1
 74
0
 49
-0.1
 74
0
  0
LTYPE
  5
1F9
100
AcDbSymbolTableRecord
100
AcDbLinetypeTableRecord
  2
DASHED
 70
64
  3
- - - - - - - - - - - - - - - - - - - -
 72
65
 73
2
 40
0.2
 49
0.1
 74
0
 49
-0.1
 74
0
  0
ENDTAB
  0
TABLE
  2
LAYER
  5
2
100
AcDbSymbolTable
 70
36
  0
LAYER
  5
10
100
AcDbSymbolTableRecord
100
AcDbLayerTableRecord
  2
0
 70
0
 62
7
  6
CONTINUOUS
370
-3
390
F
  0
LAYER
  5
1FA
100
AcDbSymbolTableRecord
100
AcDbLayerTableRecord
  2
DEFAULT_1
 70
0
 62
7
  6
CENTER
370
-3
390
F
  0
LAYER
  5
1FB
100
AcDbSymbolTableRecord
100
AcDbLayerTableRecord
  2
DEFAULT_2
 70
0
 62
7
  6
HIDDEN
370
-3
390
F
  0
LAYER
  5
1FC
100
AcDbSymbolTableRecord
100
AcDbLayerTableRecord
  2
DEFAULT_3
 70
0
 62
7
  6
PHANTOM
370
-3
390
F
  0
LAYER
  5
1FD
100
AcDbSymbolTableRecord
100
AcDbLayerTableRecord
  2
ASSI
 70
0
 62
7
  6
CONTINUOUS
370
-3
390
F
  0
LAYER
  5
1FE
100
AcDbSymbolTableRecord
100
AcDbLayerTableRecord
  2
COLOR9
 70
0
 62
7
  6
CONTINUOUS
370
-3
390
F
  0
LAYER
  5
1FF
100
AcDbSymbolTableRecord
100
AcDbLayerTableRecord
  2
COORDINATE
 70
0
 62
7
  6
CONTINUOUS
370
-3
390
F
  0
LAYER
  5
200
100
AcDbSymbolTableRecord
100
AcDbLayerTableRecord
  2
COORD_ORIGINE
 70
0
 62
7
  6
CONTINUOUS
370
-3
390
F
  0
LAYER
  5
201
100
AcDbSymbolTableRecord
100
AcDbLayerTableRecord
  2
COSMETICI
 70
0
 62
7
  6
CONTINUOUS
370
-3
390
F
  0
LAYER
  5
202
100
AcDbSymbolTableRecord
100
AcDbLayerTableRecord
  2
CURVE
 70
0
 62
7
  6
CONTINUOUS
370
-3
390
F
  0
LAYER
  5
203
100
AcDbSymbolTableRecord
100
AcDbLayerTableRecord
  2
DRAFT
 70
0
 62
7
  6
CONTINUOUS
370
-3
390
F
  0
LAYER
  5
204
100
AcDbSymbolTableRecord
100
AcDbLayerTableRecord
  2
IMPORT_IGES
 70
0
 62
7
  6
CONTINUOUS
370
-3
390
F
  0
LAYER
  5
205
100
AcDbSymbolTableRecord
100
AcDbLayerTableRecord
  2
INTF_1
 70
0
 62
7
  6
CONTINUOUS
370
-3
390
F
  0
LAYER
  5
206
100
AcDbSymbolTableRecord
100
AcDbLayerTableRecord
  2
INTF_8
 70
0
 62
7
  6
CONTINUOUS
370
-3
390
F
  0
LAYER
  5
207
100
AcDbSymbolTableRecord
100
AcDbLayerTableRecord
  2
INTF_YELLOW
 70
0
 62
7
  6
CONTINUOUS
370
-3
390
F
  0
LAYER
  5
208
100
AcDbSymbolTableRecord
100
AcDbLayerTableRecord
  2
NOTE
 70
0
 62
7
  6
CONTINUOUS
370
-3
390
F
  0
LAYER
  5
209
100
AcDbSymbolTableRecord
100
AcDbLayerTableRecord
  2
PIANI
 70
0
 62
7
  6
CONTINUOUS
370
-3
390
F
  0
LAYER
  5
20A
100
AcDbSymbolTableRecord
100
AcDbLayerTableRecord
  2
PIANI_ORIGINE
 70
0
 62
7
  6
CONTINUOUS
370
-3
390
F
  0
LAYER
  5
20B
100
AcDbSymbolTableRecord
100
AcDbLayerTableRecord
  2
PIANI_RIFERIMENTO
 70
0
 62
7
  6
CONTINUOUS
370
-3
390
F
  0
LAYER
  5
20C
100
AcDbSymbolTableRecord
100
AcDbLayerTableRecord
  2
PUNTI
 70
0
 62
7
  6
CONTINUOUS
370
-3
390
F
  0
LAYER
  5
20D
100
AcDbSymbolTableRecord
100
AcDbLayerTableRecord
  2
RACCORDO
 70
0
 62
7
  6
CONTINUOUS
370
-3
390
F
  0
LAYER
  5
20E
100
AcDbSymbolTableRecord
100
AcDbLayerTableRecord
  2
RGB__255__255__255__
 70
0
 62
7
  6
CONTINUOUS
370
-3
390
F
  0
LAYER
  5
20F
100
AcDbSymbolTableRecord
100
AcDbLayerTableRecord
  2
RGB____0____0____0__
 70
0
 62
7
  6
CONTINUOUS
370
-3
390
F
  0
LAYER
  5
210
100
AcDbSymbolTableRecord
100
AcDbLayerTableRecord
  2
SIMBOLI
 70
0
 62
7
  6
CONTINUOUS
370
-3
390
F
  0
LAYER
  5
211
100
AcDbSymbolTableRecord
100
AcDbLayerTableRecord
  2
SMUSSO
 70
0
 62
7
  6
CONTINUOUS
370
-3
390
F
  0
LAYER
  5
212
100
AcDbSymbolTableRecord
100
AcDbLayerTableRecord
  2
SNAPLINE
 70
0
 62
7
  6
CONTINUOUS
370
-3
390
F
  0
LAYER
  5
213
100
AcDbSymbolTableRecord
100
AcDbLayerTableRecord
  2
SUPERFICI
 70
0
 62
7
  6
CONTINUOUS
370
-3
390
F
  0
LAYER
  5
214
100
AcDbSymbolTableRecord
100
AcDbLayerTableRecord
  2
TRASH
 70
0
 62
7
  6
CONTINUOUS
370
-3
390
F
  0
LAYER
  5
215
100
AcDbSymbolTableRecord
100
AcDbLayerTableRecord
  2
XSEC_DATUMS
 70
0
 62
7
  6
CONTINUOUS
370
-3
390
F
  0
ENDTAB
  0
TABLE
  2
STYLE
  5
3
100
AcDbSymbolTable
 70
1
  0
STYLE
  5
11
100
AcDbSymbolTableRecord
100
AcDbTextStyleTableRecord
  2
STANDARD
 70
0
 40
0.0
 41
0.8
 50
0.0
 71
0
 42
0.2
  3
txt
  4

  0
STYLE
  5
216
100
AcDbSymbolTableRecord
100
AcDbTextStyleTableRecord
  2
TEXTSTYLE_1
 70
0
 40
0.0
 41
0.8
 50
0.0
 71
0
 42
0.2
  3
gdt
  4

  0
ENDTAB
  0
TABLE
  2
VIEW
  5
6
100
AcDbSymbolTable
 70
0
  0
ENDTAB
  0
TABLE
  2
UCS
  5
7
100
AcDbSymbolTable
 70
0
  0
ENDTAB
  0
TABLE
  2
APPID
  5
9
100
AcDbSymbolTable
 70
1
  0
APPID
  5
217
100
AcDbSymbolTableRecord
100
AcDbRegAppTableRecord
  2
ACAD
 70
0
  0
ENDTAB
  0
TABLE
  2
BLOCK_RECORD
  5
1
100
AcDbSymbolTable
 70
0
  0
BLOCK_RECORD
  5
218
100
AcDbSymbolTableRecord
100
AcDbBlockTableRecord
  2
*Model_Space
  0
BLOCK_RECORD
  5
219
100
AcDbSymbolTableRecord
100
AcDbBlockTableRecord
  2
*Paper_Space
  0
ENDTAB
  0
TABLE
  2
DIMSTYLE
  5
A
100
AcDbSymbolTable
 70
1
100
AcDbDimStyleTable
 71
0
  0
DIMSTYLE
105
21A
100
AcDbSymbolTableRecord
100
AcDbDimStyleTableRecord
  2
STANDARD
 70
0
  3

  4

 40
1.0
 41
3.0
 42
0.0625
 43
0.38
 44
0.18
 45
0.0
 46
0.0
 47
0.01
 48
0.01
140
3.0
141
0.09
142
0.0
143
25.4
144
1.0
145
0.0
146
1.0
147
0.09
 71
1.0
 72
0.0
 73
0
 74
0
 75
0
 76
0
 77
1
 78
8
170
0
171
2
172
0
173
0
174
0
175
0
176
0
177
0
178
0
270
2
271
2
272
2
273
2
274
2
275
0
280
0
281
0
282
0
283
1
284
8
285
0
286
0
287
3
288
0
340
11
  0
ENDTAB
  0
ENDSEC
  0
SECTION
  2
BLOCKS
  0
BLOCK
  5
20
100
AcDbEntity
  8
0
100
AcDbBlockBegin
  2
*Model_Space
 70
0
 10
0.0
 20
0.0
 30
0.0
  3
*Model_Space
  1

  0
ENDBLK
  5
21
100
AcDbEntity
  8
0
100
AcDbBlockEnd
  0
BLOCK
  5
1C
100
AcDbEntity
  8
0
100
AcDbBlockBegin
  2
*Paper_Space
 70
0
 10
0.0
 20
0.0
 30
0.0
  3
*Paper_Space
  1

  0
ENDBLK
  5
1D
100
AcDbEntity
  8
0
100
AcDbBlockEnd
  0
ENDSEC
  0
SECTION
  2
ENTITIES
  0
LWPOLYLINE
  5
21B
100
AcDbEntity
  8
RACCORDO
100
AcDbPolyline
 62
7
  6
CONTINUOUS
 90
15
 70
0
 10
-7.4497160249
 20
22.1815103142
 10
-7.4864114116
 20
22.1568927819
 10
-7.5500846339
 20
22.1084183688
 10
-7.6101163562
 20
22.0553715185
 10
-7.6667040507
 20
21.9980133749
 10
-7.7198247913
 20
21.9366518889
 10
-7.7691504091
 20
21.8719167198
 10
-7.814646072
 20
21.8040831845
 10
-7.856209353
 20
21.7333467265
 10
-7.8934338443
 20
21.6604754175
 10
-7.9262049437
 20
21.5856907419
 10
-7.9543515975
 20
21.5091635133
 10
-7.9775230477
 20
21.4315490492
 10
-7.9954816194
 20
21.3530865091
 10
-8.0084736358
 20
21.2699268215
  0
LINE
  5
21C
100
AcDbEntity
  8
RACCORDO
100
AcDbLine
 62
7
  6
CONTINUOUS
 10
-7.4498711249
 20
22.1814282109
 11
-6.7898860464
 21
22.6034810173
  0
LINE
  5
21D
100
AcDbEntity
  8
0
100
AcDbLine
 62
253
  6
CONTINUOUS
 10
-7.1897521241
 20
22.1629462495
 11
-6.533339134
 21
22.5827147468
  0
LWPOLYLINE
  5
21E
100
AcDbEntity
  8
RACCORDO
100
AcDbPolyline
 62
253
  6
CONTINUOUS
 90
9
 70
0
 10
-7.4497237157
 20
22.1815223683
 10
-7.4299716324
 20
22.1923238687
 10
-7.4010841467
 20
22.2026930557
 10
-7.3697819701
 20
22.2082183632
 10
-7.336407757
 20
22.2088393074
 10
-7.3013268437
 20
22.2045490909
 10
-7.2649232492
 20
22.1953946773
 10
-7.2275954711
 20
22.1814762768
 10
-7.1897521241
 20
22.1629462495
  0
LWPOLYLINE
  5
21F
100
AcDbEntity
  8
RACCORDO
100
AcDbPolyline
 62
7
  6
CONTINUOUS
 90
12
 70
0
 10
7.208566632
 20
-22.5335176347
 10
7.2160229819
 20
-22.5377749509
 10
7.2820583406
 20
-22.570317331
 10
7.3509292528
 20
-22.5954182581
 10
7.4221364656
 20
-22.6130547385
 10
7.4960219475
 20
-22.6232462163
 10
7.571998658
 20
-22.6256661206
 10
7.6492306121
 20
-22.620097376
 10
7.7279945678
 20
-22.6062503107
 10
7.8080908122
 20
-22.5836647515
 10
7.8885913131
 20
-22.5521070281
 10
7.9362276454
 20
-22.5291065395
  0
LINE
  5
220
100
AcDbEntity
  8
RACCORDO
100
AcDbLine
 62
7
  6
CONTINUOUS
 10
-7.6643422806
 20
-13.9460931389
 11
-7.664962959
 21
-13.9457356798
  0
LINE
  5
221
100
AcDbEntity
  8
ASSI
100
AcDbLine
 62
7
  6
CONTINUOUS
 10
7.2093976571
 20
-22.53400508
 11
-7.6649973836
 21
-13.9457158035
  0
LINE
  5
222
100
AcDbEntity
  8
RACCORDO
100
AcDbLine
 62
253
  6
CONTINUOUS
 10
7.0076084155
 20
-22.1921426812
 11
-7.861500905
 21
-13.6069053132
  0
LINE
  5
223
100
AcDbEntity
  8
RACCORDO
100
AcDbLine
 62
7
  6
CONTINUOUS
 10
7.2084779632
 20
-22.533472293
 11
7.2093635254
 21
-22.5339853728
  0
LWPOLYLINE
  5
224
100
AcDbEntity
  8
RACCORDO
100
AcDbPolyline
 62
253
  6
CONTINUOUS
 90
9
 70
0
 10
-7.6725770384
 20
-13.9411997555
 10
-7.7086615104
 20
-13.915512259
 10
-7.7415273135
 20
-13.8847858173
 10
-7.7709757529
 20
-13.8492043252
 10
-7.7968257622
 20
-13.8089832194
 10
-7.8189253217
 20
-13.7643622184
 10
-7.8371418238
 20
-13.7156092004
 10
-7.8513625545
 20
-13.6630181986
 10
-7.861500905
 20
-13.6069053132
  0
LWPOLYLINE
  5
225
100
AcDbEntity
  8
RACCORDO
100
AcDbPolyline
 62
7
  6
CONTINUOUS
 90
8
 70
0
 10
-7.926019732
 20
-13.6711300311
 10
-7.8940442086
 20
-13.7261536117
 10
-7.8580233799
 20
-13.7770485098
 10
-7.8183231836
 20
-13.8236225748
 10
-7.7749559904
 20
-13.866067595
 10
-7.728167787
 20
-13.9042122915
 10
-7.678525466
 20
-13.9376780102
 10
-7.664259314
 20
-13.9461357704
  0
LWPOLYLINE
  5
226
100
AcDbEntity
  8
RACCORDO
100
AcDbPolyline
 62
253
  6
CONTINUOUS
 90
10
 70
0
 10
-8.0084736358
 20
21.2699268215
 10
-8.0089880477
 20
21.2643137937
 10
-8.0080208031
 20
21.2392681487
 10
-8.0017957005
 20
21.2139276386
 10
-7.9903787146
 20
21.1885608253
 10
-7.9738908437
 20
21.1634365493
 10
-7.9525068285
 20
21.138821081
 10
-7.9264532991
 20
21.1149752982
 10
-7.8960063743
 20
21.0921519214
 10
-7.861488734
 20
21.0705928355
  0
LWPOLYLINE
  5
227
100
AcDbEntity
  8
RACCORDO
100
AcDbPolyline
 62
7
  6
CONTINUOUS
 90
10
 70
0
 10
-8.0084553107
 20
21.2701651846
 10
-8.1312871843
 20
20.1839171488
 10
-8.248433498
 20
19.0391081468
 10
-8.352231088
 20
17.9003856995
 10
-8.442650231
 20
16.7680286138
 10
-8.5196714374
 20
15.6422659461
 10
-8.5832776258
 20
14.5233082171
 10
-8.6334517729
 20
13.4113837626
 10
-8.6701807371
 20
12.3067638048
 10
-8.6924213938
 20
11.2762486803
  0
LWPOLYLINE
  5
228
100
AcDbEntity
  8
RACCORDO
100
AcDbPolyline
 62
253
  6
CONTINUOUS
 90
19
 70
0
 10
-7.861500905
 20
21.0705879353
 10
-7.8513626149
 20
21.1387241862
 10
-7.8371418931
 20
21.2081717256
 10
-7.8189252741
 20
21.2785144578
 10
-7.7968253021
 20
21.3493331251
 10
-7.7709745952
 20
21.4202017728
 10
-7.7415254871
 20
21.4906903166
 10
-7.7086592784
 20
21.5603758708
 10
-7.6725745481
 20
21.6288434372
 10
-7.6334805122
 20
21.6956821348
 10
-7.5916154373
 20
21.7604931095
 10
-7.5472330905
 20
21.8228891521
 10
-7.5005903357
 20
21.8824946302
 10
-7.4519695023
 20
21.9389552662
 10
-7.4016666844
 20
21.9919321847
 10
-7.3499772496
 20
22.0411010124
 10
-7.2972120058
 20
22.0861660873
 10
-7.2436951631
 20
22.1268618606
 10
-7.1897521241
 20
22.1629462495
  0
LWPOLYLINE
  5
229
100
AcDbEntity
  8
RACCORDO
100
AcDbPolyline
 62
253
  6
CONTINUOUS
 90
8
 70
0
 10
-8.007135835
 20
-13.4130354916
 10
-8.0018073413
 20
-13.439178699
 10
-7.9903908915
 20
-13.4715595946
 10
-7.9739033725
 20
-13.502589282
 10
-7.9525195253
 20
-13.5319388964
 10
-7.9264659845
 20
-13.5592973791
 10
-7.8960188757
 20
-13.5843747742
 10
-7.8615008893
 20
-13.6069053015
  0
LWPOLYLINE
  5
22A
100
AcDbEntity
  8
RACCORDO
100
AcDbPolyline
 62
7
  6
CONTINUOUS
 90
5
 70
0
 10
-8.007119924
 20
-13.4130332628
 10
-7.9945156743
 20
-13.4826829265
 10
-7.9764926182
 20
-13.5495106314
 10
-7.9535524978
 20
-13.6123184236
 10
-7.926019732
 20
-13.6711300311
  0
LINE
  5
22B
100
AcDbEntity
  8
RACCORDO
100
AcDbLine
 62
7
  6
CONTINUOUS
 10
-8.0072118854
 20
-13.412490076
 11
-8.007135835
 21
-13.4130354916
  0
LWPOLYLINE
  5
22C
100
AcDbEntity
  8
RACCORDO
100
AcDbPolyline
 62
253
  6
CONTINUOUS
 90
10
 70
0
 10
-7.861500905
 20
-13.6069053132
 10
-7.9897579177
 20
-12.6265219639
 10
-8.1050119835
 20
-11.6361280609
 10
-8.2072380658
 20
-10.6359337021
 10
-8.2964135255
 20
-9.6261513235
 10
-8.3725194326
 20
-8.6069947372
 10
-8.4355405622
 20
-7.578679081
 10
-8.4854636596
 20
-6.5414219975
 10
-8.5222774503
 20
-5.4954435937
 10
-8.5459739444
 20
-4.4409654734
  0
LWPOLYLINE
  5
22D
100
AcDbEntity
  8
RACCORDO
100
AcDbPolyline
 62
253
  6
CONTINUOUS
 90
9
 70
0
 10
-8.6924189012
 20
-4.2371999239
 10
-8.6913964857
 20
-4.2534047182
 10
-8.6854324394
 20
-4.2834290748
 10
-8.6742458891
 20
-4.3128779366
 10
-8.6579553498
 20
-4.3414393094
 10
-8.6367334107
 20
-4.3688106019
 10
-8.610804906
 20
-4.3947018309
 10
-8.5804445335
 20
-4.4188386934
 10
-8.5459739441
 20
-4.4409654732
  0
LWPOLYLINE
  5
22E
100
AcDbEntity
  8
RACCORDO
100
AcDbPolyline
 62
253
  6
CONTINUOUS
 90
9
 70
0
 10
-8.6924213938
 20
11.2762486803
 10
-8.6913964699
 20
11.2554038393
 10
-8.6854324228
 20
11.2264029864
 10
-8.6742458719
 20
11.1978461544
 10
-8.6579553324
 20
11.1700358867
 10
-8.6367333934
 20
11.1432668171
 10
-8.610804889
 20
11.1178225488
 10
-8.5804445172
 20
11.0939726492
 10
-8.5459739286
 20
11.0719697945
  0
LWPOLYLINE
  5
22F
100
AcDbEntity
  8
RACCORDO
100
AcDbPolyline
 62
7
  6
CONTINUOUS
 90
10
 70
0
 10
-8.6924188795
 20
-4.2371996827
 10
-8.6700128294
 20
-5.2466005725
 10
-8.6331840196
 20
-6.3073328377
 10
-8.5828865455
 20
-7.3592423987
 10
-8.5191277336
 20
-8.4020708107
 10
-8.4419187248
 20
-9.4356083018
 10
-8.3512704153
 20
-10.4596637367
 10
-8.2471962982
 20
-11.474028561
 10
-8.1297202171
 20
-12.4784551759
 10
-8.0072118854
 20
-13.412490076
  0
LWPOLYLINE
  5
230
100
AcDbEntity
  8
RACCORDO
100
AcDbPolyline
 62
253
  6
CONTINUOUS
 90
10
 70
0
 10
-8.5459739444
 20
-4.4409654734
 10
-8.5705284878
 20
-2.7323180813
 10
-8.5889441772
 20
-1.0198633632
 10
-8.6012210612
 20
0.6963679145
 10
-8.607359258
 20
2.4163215659
 10
-8.6073592548
 20
4.139989958
 10
-8.6012210525
 20
5.8674125052
 10
-8.5889441658
 20
7.5985821361
 10
-8.5705284787
 20
9.3334448001
 10
-8.5459739444
 20
11.0719697857
  0
LWPOLYLINE
  5
231
100
AcDbEntity
  8
RACCORDO
100
AcDbPolyline
 62
7
  6
CONTINUOUS
 90
10
 70
0
 10
-8.6924214053
 20
11.2762488875
 10
-8.7163945659
 20
9.5844841954
 10
-8.735101006
 20
7.8354325113
 10
-8.7475690077
 20
6.0900868759
 10
-8.753798167
 20
4.3484830917
 10
-8.7537883574
 20
2.6106508496
 10
-8.7475395035
 20
0.8766175387
 10
-8.7350515846
 20
-0.8535871503
 10
-8.7163248574
 20
-2.57992775
 10
-8.6924189012
 20
-4.2371999239
  0
LWPOLYLINE
  5
232
100
AcDbEntity
  8
RACCORDO
100
AcDbPolyline
 62
253
  6
CONTINUOUS
 90
10
 70
0
 10
-8.5459739444
 20
11.0719697857
 10
-8.5222774509
 20
12.1552763848
 10
-8.4854636606
 20
13.2460395031
 10
-8.4355405634
 20
14.3440283103
 10
-8.3725194336
 20
15.4490106739
 10
-8.2964135261
 20
16.5607526511
 10
-8.207238066
 20
17.6790185419
 10
-8.1050119836
 20
18.8035716804
 10
-7.9897579178
 20
19.9341744813
 10
-7.861500905
 20
21.0705879353
  0
LINE
  5
233
100
AcDbEntity
  8
0
100
AcDbLine
 62
253
  6
CONTINUOUS
 10
8.3888958856
 20
13.966803266
 11
7.6971809226
 21
13.5674176854
  0
LWPOLYLINE
  5
234
100
AcDbEntity
  8
RACCORDO
100
AcDbPolyline
 62
253
  6
CONTINUOUS
 90
16
 70
0
 10
7.7013709742
 20
12.4167943351
 10
7.6626772981
 20
12.4039750769
 10
7.6207459869
 20
12.3935111029
 10
7.576021445
 20
12.3855133142
 10
7.5289776808
 20
12.3800664747
 10
7.4801132826
 20
12.377228312
 10
7.4299461344
 20
12.3770289062
 10
7.3790079275
 20
12.3794703707
 10
7.3278385249
 20
12.3845268297
 10
7.2769802401
 20
12.3921446931
 10
7.2269720893
 20
12.4022432235
 10
7.1783440784
 20
12.414715393
 10
7.1316115863
 20
12.4294290168
 10
7.0872699023
 20
12.4462281541
 10
7.045788977
 20
12.4649347612
 10
7.0076084416
 20
12.4853505779
  0
LINE
  5
235
100
AcDbEntity
  8
RACCORDO
100
AcDbLine
 62
253
  6
CONTINUOUS
 10
6.2865343039
 20
-13.0050698409
 11
-8.5459739444
 21
-4.4409654734
  0
LWPOLYLINE
  5
236
100
AcDbEntity
  8
RACCORDO
100
AcDbPolyline
 62
253
  6
CONTINUOUS
 90
19
 70
0
 10
7.6971809226
 20
13.5674176854
 10
7.6417926686
 20
13.5321677456
 10
7.5868589676
 20
13.4922900485
 10
7.5327052221
 20
13.4480266771
 10
7.4796477479
 20
13.3996477382
 10
7.4280052471
 20
13.3474443357
 10
7.3780967713
 20
13.2917271683
 10
7.3302192505
 20
13.2328346287
 10
7.2846541779
 20
13.1711214772
 10
7.2416795924
 20
13.1069511199
 10
7.2015505476
 20
13.0407100235
 10
7.1645040235
 20
12.9727977848
 10
7.1307665521
 20
12.9036152867
 10
7.1005384448
 20
12.8335765274
 10
7.0739992697
 20
12.7631053926
 10
7.0513134798
 20
12.6926249692
 10
7.0326177328
 20
12.6225588794
 10
7.0180205331
 20
12.5533287136
 10
7.0076084155
 20
12.4853505674
  0
LWPOLYLINE
  5
237
100
AcDbEntity
  8
RACCORDO
100
AcDbPolyline
 62
253
  6
CONTINUOUS
 90
19
 70
0
 10
8.0506131593
 20
12.9552550951
 10
8.0224708067
 20
12.9377604449
 10
7.9948269778
 20
12.9181706212
 10
7.9676816724
 20
12.8964856239
 10
7.9408609561
 20
12.87254136
 10
7.9145387634
 20
12.8465019225
 10
7.8892368978
 20
12.8188595906
 10
7.8649902379
 20
12.7895957741
 10
7.8417639051
 20
12.7587290632
 10
7.8199750677
 20
12.7268075074
 10
7.799647593
 20
12.693806159
 10
7.7807576137
 20
12.6597499658
 10
7.7636506959
 20
12.62526182
 10
7.7483595704
 20
12.5903165149
 10
7.7348515065
 20
12.5549392572
 10
7.7233738775
 20
12.5198285591
 10
7.7140091414
 20
12.4852172582
 10
7.7066748403
 20
12.4508725168
 10
7.7013709742
 20
12.4167943351
  0
LINE
  5
238
100
AcDbEntity
  8
0
100
AcDbLine
 62
253
  6
CONTINUOUS
 10
8.7423281223
 20
13.3546406757
 11
8.0506131593
 21
12.9552550951
  0
LWPOLYLINE
  5
239
100
AcDbEntity
  8
SUPERFICI
100
AcDbPolyline
 62
7
  6
CONTINUOUS
 90
19
 70
0
 10
-4.3857578834
 20
0.9802653836
 10
-4.3936414935
 20
0.9708110032
 10
-4.4006369224
 20
0.9603886214
 10
-4.4067441282
 20
0.9489982625
 10
-4.4119849171
 20
0.9365747309
 10
-4.4163373899
 20
0.9231832758
 10
-4.4197359682
 20
0.9090195766
 10
-4.422165251
 20
0.8940810693
 10
-4.4236405939
 20
0.8783703442
 10
-4.4241425999
 20
0.8620907859
 10
-4.4236595914
 20
0.8452319141
 10
-4.4222032441
 20
0.8278042102
 10
-4.4197892375
 20
0.8100424745
 10
-4.4164031759
 20
0.791938012
 10
-4.4120595002
 20
0.7734994917
 10
-4.4068171905
 20
0.7549877328
 10
-4.4006959459
 20
0.7364896526
 10
-4.3936761585
 20
0.7179182811
 10
-4.3857578695
 20
0.6992735946
  0
LINE
  5
23A
100
AcDbEntity
  8
0
100
AcDbLine
 62
7
  6
CONTINUOUS
 10
-3.6363929981
 20
0.9299468689
 11
-3.9535513256
 21
0.5901946766
  0
LINE
  5
23B
100
AcDbEntity
  8
SUPERFICI
100
AcDbLine
 62
7
  6
CONTINUOUS
 10
-3.9535513256
 20
0.5901946766
 11
-3.6363929981
 21
0.9299468689
  0
LINE
  5
23C
100
AcDbEntity
  8
SUPERFICI
100
AcDbLine
 62
7
  6
CONTINUOUS
 10
-3.919506471
 20
1.479516036
 11
-4.3857578834
 21
0.9802653836
  0
LINE
  5
23D
100
AcDbEntity
  8
0
100
AcDbLine
 62
7
  6
CONTINUOUS
 10
-4.3857565402
 20
0.9802668228
 11
-3.919506479
 21
1.4795160274
  0
LWPOLYLINE
  5
23E
100
AcDbEntity
  8
0
100
AcDbPolyline
 62
7
  6
CONTINUOUS
 90
3
 70
0
 10
-3.919506479
 20
1.4795160274
 10
-3.9122114816
 20
1.4865506557
 10
-3.9064230672
 20
1.4913212326
  0
LWPOLYLINE
  5
23F
100
AcDbEntity
  8
SUPERFICI
100
AcDbPolyline
 62
7
  6
CONTINUOUS
 90
3
 70
0
 10
-3.9064236609
 20
1.4913221651
 10
-3.9122221052
 20
1.4865427449
 10
-3.919506471
 20
1.479516036
  0
LWPOLYLINE
  5
240
100
AcDbEntity
  8
0
100
AcDbPolyline
 62
7
  6
CONTINUOUS
 90
6
 70
0
 10
-3.9064230672
 20
1.4913212326
 10
-3.9045368465
 20
1.4927355406
 10
-3.8964826162
 20
1.4980706578
 10
-3.8880106141
 20
1.5025407539
 10
-3.8791590939
 20
1.506161038
 10
-3.8700427403
 20
1.5089771811
  0
LWPOLYLINE
  5
241
100
AcDbEntity
  8
SUPERFICI
100
AcDbPolyline
 62
7
  6
CONTINUOUS
 90
19
 70
0
 10
-3.9194991262
 20
-0.3364374752
 10
-3.9129057959
 20
-0.3504814261
 10
-3.9058982303
 20
-0.364309914
 10
-3.8984764578
 20
-0.3779229554
 10
-3.8906250599
 20
-0.391346959
 10
-3.8823595073
 20
-0.4045555463
 10
-3.8737261637
 20
-0.4174695539
 10
-3.8647047686
 20
-0.4301132346
 10
-3.8553156317
 20
-0.4424623642
 10
-3.8456659764
 20
-0.4543650658
 10
-3.8358220726
 20
-0.4657511766
 10
-3.8257176972
 20
-0.4766908865
 10
-3.8152613348
 20
-0.4872428485
 10
-3.8044023801
 20
-0.497479434
 10
-3.7931914696
 20
-0.5073282897
 10
-3.7816889502
 20
-0.5166309805
 10
-3.7699149455
 20
-0.5253346994
 10
-3.7578493531
 20
-0.5334922658
 10
-3.7454921785
 20
-0.5411036827
  0
LINE
  5
242
100
AcDbEntity
  8
0
100
AcDbLine
 62
7
  6
CONTINUOUS
 10
-3.9129054027
 20
-0.3504822019
 11
-3.9194991261
 21
-0.3364374756
  0
LINE
  5
243
100
AcDbEntity
  8
0
100
AcDbLine
 62
7
  6
CONTINUOUS
 10
-3.9535513256
 20
0.5901946766
 11
-3.6363929981
 21
-0.1151350854
  0
LINE
  5
244
100
AcDbEntity
  8
SUPERFICI
100
AcDbLine
 62
7
  6
CONTINUOUS
 10
-4.3857578695
 20
0.6992735946
 11
-3.9194991262
 21
-0.3364374752
  0
LINE
  5
245
100
AcDbEntity
  8
0
100
AcDbLine
 62
7
  6
CONTINUOUS
 10
-3.9194991261
 20
-0.3364374756
 11
-4.3857578707
 21
0.6992735972
  0
LINE
  5
246
100
AcDbEntity
  8
SUPERFICI
100
AcDbLine
 62
7
  6
CONTINUOUS
 10
-3.6363929981
 20
-0.1151350854
 11
-3.9535513256
 21
0.5901946766
  0
LINE
  5
247
100
AcDbEntity
  8
0
100
AcDbLine
 62
7
  6
CONTINUOUS
 10
-4.3857578707
 20
0.6992735972
 11
-4.3937021766
 21
0.717987114
  0
LWPOLYLINE
  5
248
100
AcDbEntity
  8
0
100
AcDbPolyline
 62
7
  6
CONTINUOUS
 90
18
 70
0
 10
-4.3937078404
 20
0.7180004555
 10
-4.4007509746
 20
0.7366480214
 10
-4.4068872318
 20
0.7552163185
 10
-4.4121356906
 20
0.7737960563
 10
-4.4164771811
 20
0.7922965782
 10
-4.4198543113
 20
0.8104458461
 10
-4.4222506772
 20
0.8282311764
 10
-4.4236826407
 20
0.845665277
 10
-4.4241420072
 20
0.8625141695
 10
-4.4236175367
 20
0.8787640657
 10
-4.4221204749
 20
0.8944287505
 10
-4.4196764019
 20
0.9093155777
 10
-4.4162724281
 20
0.9234213703
 10
-4.4119214905
 20
0.9367492779
 10
-4.4066879533
 20
0.9491161201
 10
-4.4005933097
 20
0.9604608141
 10
-4.3936161582
 20
0.9708443897
 10
-4.3857565402
 20
0.9802668228
  0
LWPOLYLINE
  5
249
100
AcDbEntity
  8
SUPERFICI
100
AcDbPolyline
 62
7
  6
CONTINUOUS
 90
16
 70
0
 10
-2.7099530137
 20
-0.4912468578
 10
-2.7033180139
 20
-0.4674158162
 10
-2.6996502483
 20
-0.4411933698
 10
-2.6987730074
 20
-0.4135988519
 10
-2.7007003123
 20
-0.3846396919
 10
-2.7054182298
 20
-0.3543085114
 10
-2.712708435
 20
-0.3236026161
 10
-2.7226310388
 20
-0.2924777408
 10
-2.735126297
 20
-0.2609783628
 10
-2.7497963808
 20
-0.2302350617
 10
-2.7667825108
 20
-0.200191139
 10
-2.7859440135
 20
-0.1709036096
 10
-2.8064604145
 20
-0.1436737366
 10
-2.8283872784
 20
-0.1186379444
 10
-2.8516695524
 20
-0.0956601044
 10
-2.8753208433
 20
-0.0756326975
  0
LWPOLYLINE
  5
24A
100
AcDbEntity
  8
SUPERFICI
100
AcDbPolyline
 62
7
  6
CONTINUOUS
 90
4
 70
0
 10
-2.747839502
 20
-0.547373014
 10
-2.732243094
 20
-0.5310555012
 10
-2.719614302
 20
-0.5123468041
 10
-2.7099530473
 20
-0.4912469311
  0
LINE
  5
24B
100
AcDbEntity
  8
SUPERFICI
100
AcDbLine
 62
7
  6
CONTINUOUS
 10
-3.0738074252
 20
-0.0455637711
 11
-3.3587263166
 21
-0.2754563474
  0
LINE
  5
24C
100
AcDbEntity
  8
0
100
AcDbLine
 62
7
  6
CONTINUOUS
 10
-3.3587263166
 20
-0.2754563474
 11
-3.0738073472
 21
-0.0455637081
  0
LINE
  5
24D
100
AcDbEntity
  8
0
100
AcDbLine
 62
7
  6
CONTINUOUS
 10
-3.0738073472
 20
-0.0455637081
 11
-3.0715526377
 21
-0.0439072574
  0
LINE
  5
24E
100
AcDbEntity
  8
SUPERFICI
100
AcDbLine
 62
7
  6
CONTINUOUS
 10
-3.0715526346
 20
-0.0439072624
 11
-3.0738074252
 21
-0.0455637711
  0
LWPOLYLINE
  5
24F
100
AcDbEntity
  8
0
100
AcDbPolyline
 62
7
  6
CONTINUOUS
 90
28
 70
0
 10
-3.0715526377
 20
-0.0439072574
 10
-3.055803839
 20
-0.034349183
 10
-3.036581061
 20
-0.0268590279
 10
-3.0161393709
 20
-0.0230934497
 10
-2.994204402
 20
-0.0231670929
 10
-2.97105106
 20
-0.0269656244
 10
-2.9475035323
 20
-0.034145738
 10
-2.9235822048
 20
-0.0447367627
 10
-2.8992668859
 20
-0.0587094819
 10
-2.8753208102
 20
-0.0756327209
 10
-2.8516694798
 20
-0.0956601705
 10
-2.8283871996
 20
-0.1186380286
 10
-2.8064603328
 20
-0.1436738372
 10
-2.7859439327
 20
-0.1709037233
 10
-2.766782434
 20
-0.2001912643
 10
-2.7497963092
 20
-0.2302351995
 10
-2.7351262305
 20
-0.260978515
 10
-2.7226309786
 20
-0.2924779086
 10
-2.7127083839
 20
-0.3236027996
 10
-2.7054181916
 20
-0.3543087144
 10
-2.7007002899
 20
-0.3846399145
 10
-2.6987730029
 20
-0.4135990827
 10
-2.6996502693
 20
-0.4411935942
 10
-2.7033180626
 20
-0.4674160227
 10
-2.7099530757
 20
-0.4912470331
 10
-2.7196143572
 20
-0.512346934
 10
-2.7322431282
 20
-0.5310555723
 10
-2.7478395006
 20
-0.5473730129
  0
LINE
  5
250
100
AcDbEntity
  8
0
100
AcDbLine
 62
7
  6
CONTINUOUS
 10
-3.1984240629
 20
-0.8469110964
 11
-3.2180019416
 21
-0.8411504841
  0
LINE
  5
251
100
AcDbEntity
  8
0
100
AcDbLine
 62
7
  6
CONTINUOUS
 10
-3.2180019416
 20
-0.8411504841
 11
-3.2380732492
 21
-0.8329158364
  0
LWPOLYLINE
  5
252
100
AcDbEntity
  8
SUPERFICI
100
AcDbPolyline
 62
7
  6
CONTINUOUS
 90
9
 70
0
 10
-3.2586379777
 20
-0.8222071965
 10
-3.2380732967
 20
-0.8329158205
 10
-3.2180020242
 20
-0.84115046
 10
-3.1984241133
 20
-0.8469110877
 10
-3.1791684458
 20
-0.8502415801
 10
-3.1604059518
 20
-0.8510979514
 10
-3.1426496205
 20
-0.8493483608
 10
-3.1260703412
 20
-0.8449487991
 10
-3.1202742432
 20
-0.8426957569
  0
LINE
  5
253
100
AcDbEntity
  8
0
100
AcDbLine
 62
7
  6
CONTINUOUS
 10
-3.2380732492
 20
-0.8329158364
 11
-3.2586379777
 21
-0.8222071965
  0
LINE
  5
254
100
AcDbEntity
  8
SUPERFICI
100
AcDbLine
 62
7
  6
CONTINUOUS
 10
-3.2586379939
 20
-0.8222071872
 11
-3.7454920653
 21
-0.5411037481
  0
LINE
  5
255
100
AcDbEntity
  8
0
100
AcDbLine
 62
7
  6
CONTINUOUS
 10
-3.2586379939
 20
-0.8222071872
 11
-3.7454920653
 21
-0.5411037481
  0
LINE
  5
256
100
AcDbEntity
  8
SUPERFICI
100
AcDbLine
 62
7
  6
CONTINUOUS
 10
-3.3587263166
 20
-0.2754563474
 11
-3.6363929981
 21
-0.1151350854
  0
LINE
  5
257
100
AcDbEntity
  8
0
100
AcDbLine
 62
7
  6
CONTINUOUS
 10
-3.3587263166
 20
-0.2754563474
 11
-3.6363929981
 21
-0.1151350854
  0
LWPOLYLINE
  5
258
100
AcDbEntity
  8
0
100
AcDbPolyline
 62
7
  6
CONTINUOUS
 90
4
 70
0
 10
-3.7454954066
 20
-0.5411018189
 10
-3.7578486194
 20
-0.533492946
 10
-3.7699108736
 20
-0.5253377592
 10
-3.7816821639
 20
-0.5166362554
  0
LWPOLYLINE
  5
259
100
AcDbEntity
  8
SUPERFICI
100
AcDbPolyline
 62
7
  6
CONTINUOUS
 90
10
 70
0
 10
-2.8753208736
 20
-0.0756326718
 10
-2.8992669349
 20
-0.0587094491
 10
-2.9235822362
 20
-0.0447367453
 10
-2.9475035489
 20
-0.0341457318
 10
-2.9710510632
 20
-0.0269656207
 10
-2.9942043944
 20
-0.0231670876
 10
-3.0161393646
 20
-0.0230934492
 10
-3.0365810709
 20
-0.0268590422
 10
-3.055803877
 20
-0.0343492184
 10
-3.0715526346
 20
-0.0439072624
  0
LWPOLYLINE
  5
25A
100
AcDbEntity
  8
0
100
AcDbPolyline
 62
7
  6
CONTINUOUS
 90
15
 70
0
 10
-3.7816858802
 20
-0.51663325
 10
-3.7931825869
 20
-0.5073357407
 10
-3.8043920247
 20
-0.4974888967
 10
-3.815250147
 20
-0.4872537818
 10
-3.8257064751
 20
-0.4767025415
 10
-3.8358114564
 20
-0.4657630122
 10
-3.8456561492
 20
-0.4543767894
 10
-3.8553066512
 20
-0.4424737768
 10
-3.8646968179
 20
-0.4301240435
 10
-3.8737193458
 20
-0.4174794333
 10
-3.8823539713
 20
-0.4045640627
 10
-3.8906209084
 20
-0.3913537865
 10
-3.8984735742
 20
-0.3779280579
 10
-3.9058964246
 20
-0.3643133519
 10
-3.9129049514
 20
-0.3504831633
  0
LWPOLYLINE
  5
25B
100
AcDbEntity
  8
SUPERFICI
100
AcDbPolyline
 62
7
  6
CONTINUOUS
 90
15
 70
0
 10
-1.7349931604
 20
-0.818705618
 10
-1.7517792753
 20
-0.7884623131
 10
-1.7707469385
 20
-0.7590006258
 10
-1.7910469544
 20
-0.7316017405
 10
-1.8126776395
 20
-0.7064311181
 10
-1.8356411986
 20
-0.6833235989
 10
-1.8590943042
 20
-0.663064455
 10
-1.8830210988
 20
-0.6457334732
 10
-1.9074376453
 20
-0.6312509854
 10
-1.931548421
 20
-0.6201630383
 10
-1.955359633
 20
-0.6124879828
 10
-1.9788648914
 20
-0.6082073624
 10
-2.0012496777
 20
-0.6078119542
 10
-2.0222422905
 20
-0.611465238
 10
-2.0421138128
 20
-0.6190033836
  0
LWPOLYLINE
  5
25C
100
AcDbEntity
  8
SUPERFICI
100
AcDbPolyline
 62
7
  6
CONTINUOUS
 90
18
 70
0
 10
-1.0534243747
 20
-1.7223998321
 10
-1.0683017653
 20
-1.6894150721
 10
-1.0849875884
 20
-1.6581775455
 10
-1.1037467196
 20
-1.6284634356
 10
-1.1243149989
 20
-1.6004969735
 10
-1.145899255
 20
-1.5749504531
 10
-1.1684935412
 20
-1.5518489239
 10
-1.1921042494
 20
-1.531167594
 10
-1.2159566581
 20
-1.5135039614
 10
-1.2400844087
 20
-1.498896696
 10
-1.2644539523
 20
-1.4873071815
 10
-1.2881896944
 20
-1.4792169348
 10
-1.3113333313
 20
-1.4747590378
 10
-1.3338428716
 20
-1.4738002377
 10
-1.3547171322
 20
-1.4764225165
 10
-1.3738480177
 20
-1.4828179547
 10
-1.3913430742
 20
-1.4927941536
 10
-1.3940863837
 20
-1.4947959661
  0
LWPOLYLINE
  5
25D
100
AcDbEntity
  8
SUPERFICI
100
AcDbPolyline
 62
7
  6
CONTINUOUS
 90
3
 70
0
 10
-0.9390694424
 20
-2.0269343451
 10
-0.9929171948
 20
-1.8928486978
 10
-1.0403549817
 20
-1.7571315737
  0
LINE
  5
25E
100
AcDbEntity
  8
SUPERFICI
100
AcDbLine
 62
7
  6
CONTINUOUS
 10
-1.0403549817
 20
-1.7571315737
 11
-1.0534243459
 21
-1.7223999089
  0
LWPOLYLINE
  5
25F
100
AcDbEntity
  8
0
100
AcDbPolyline
 62
7
  6
CONTINUOUS
 90
28
 70
0
 10
-1.0403549652
 20
-1.7571316094
 10
-0.9929171923
 20
-1.8928487016
 10
-0.9390694518
 20
-2.0269343235
 10
-0.8788152348
 20
-2.1593904924
 10
-0.8116890271
 20
-2.2910811211
 10
-0.7381625655
 20
-2.4211458961
 10
-0.6596459385
 20
-2.5470009173
 10
-0.576113838
 20
-2.6684315749
 10
-0.4875986098
 20
-2.7856565611
 10
-0.3955977876
 20
-2.8967424906
 10
-0.3000465615
 20
-3.0016000694
 10
-0.2010153885
 20
-3.1003218729
 10
-0.100204699
 20
-3.1912473197
 10
0.0023977246
 20
-3.2742330821
 10
0.1067764526
 20
-3.3494243562
 10
0.2111901291
 20
-3.4155930288
 10
0.3156344658
 20
-3.4725941421
 10
0.4201136007
 20
-3.5205727413
 10
0.5228995676
 20
-3.5587352814
 10
0.6239846473
 20
-3.5869227445
 10
0.7233794872
 20
-3.6052924451
 10
0.8193842399
 20
-3.6135250057
 10
0.9119345839
 20
-3.6114420124
 10
1.0011002543
 20
-3.5992187329
 10
1.085382526
 20
-3.577066292
 10
1.1647016918
 20
-3.5448139651
 10
1.2391442655
 20
-3.5026285278
 10
1.2772089287
 20
-3.4757171601
  0
LWPOLYLINE
  5
260
100
AcDbEntity
  8
SUPERFICI
100
AcDbPolyline
 62
7
  6
CONTINUOUS
 90
27
 70
0
 10
-1.4260381771
 20
-1.7373327496
 10
-1.3677108814
 20
-1.9047395203
 10
-1.3017956384
 20
-2.0704204297
 10
-1.2282973995
 20
-2.2343783391
 10
-1.1466656434
 20
-2.3976423902
 10
-1.0574597573
 20
-2.5591885711
 10
-0.9623506902
 20
-2.715940678
 10
-0.8614511006
 20
-2.8674855794
 10
-0.7546587061
 20
-3.0142424326
 10
-0.6433234645
 20
-3.1543842963
 10
-0.5271632701
 20
-3.2880669217
 10
-0.4064686683
 20
-3.4151394699
 10
-0.2834487227
 20
-3.5333151921
 10
-0.1583546602
 20
-3.6422143737
 10
-0.0309408085
 20
-3.7422199671
 10
0.0973297029
 20
-3.8321888841
 10
0.2267904964
 20
-3.9121800896
 10
0.3571065115
 20
-3.9821354575
 10
0.4858126098
 20
-4.0407356709
 10
0.6125477179
 20
-4.0876736568
 10
0.7376757298
 20
-4.1232548433
 10
0.8598199098
 20
-4.1470781109
 10
0.9793072354
 20
-4.1589947996
 10
1.095817493
 20
-4.1591496283
 10
1.2070034357
 20
-4.1475813872
 10
1.312408426
 20
-4.1241661799
 10
1.4094145276
 20
-4.0903135287
  0
LINE
  5
261
100
AcDbEntity
  8
0
100
AcDbLine
 62
7
  6
CONTINUOUS
 10
-1.3677193116
 20
-1.9047169612
 11
-1.4260456137
 21
-1.7373097786
  0
LWPOLYLINE
  5
262
100
AcDbEntity
  8
0
100
AcDbPolyline
 62
7
  6
CONTINUOUS
 90
10
 70
0
 10
-1.4260456137
 20
-1.7373097786
 10
-1.4351742908
 20
-1.7040091059
 10
-1.4414154777
 20
-1.6724114735
 10
-1.4447691813
 20
-1.6425168855
 10
-1.4451516585
 20
-1.6140685028
 10
-1.4426466293
 20
-1.5873231514
 10
-1.4375054597
 20
-1.5630514284
 10
-1.4297048607
 20
-1.5413063847
 10
-1.4192684515
 20
-1.522035161
 10
-1.406521034
 20
-1.5058531957
  0
LINE
  5
263
100
AcDbEntity
  8
SUPERFICI
100
AcDbLine
 62
7
  6
CONTINUOUS
 10
-1.0464420487
 20
-0.4360949283
 11
-1.0403535825
 21
-0.4254789792
  0
LWPOLYLINE
  5
264
100
AcDbEntity
  8
0
100
AcDbPolyline
 62
7
  6
CONTINUOUS
 90
8
 70
0
 10
-1.0403535942
 20
-0.4254790022
 10
-1.0464461215
 20
-0.4361020296
 10
-1.0532350841
 20
-0.4457366363
 10
-1.0607205323
 20
-0.4543828512
 10
-1.0689424753
 20
-0.4620666498
 10
-1.0778609957
 20
-0.4687621093
 10
-1.0873562623
 20
-0.4743914161
 10
-1.0950407936
 20
-0.4779780911
  0
LINE
  5
265
100
AcDbEntity
  8
SUPERFICI
100
AcDbLine
 62
7
  6
CONTINUOUS
 10
-1.0403535825
 20
-0.4254789792
 11
-0.9929964835
 21
-0.3442865538
  0
LINE
  5
266
100
AcDbEntity
  8
SUPERFICI
100
AcDbLine
 62
7
  6
CONTINUOUS
 10
-1.0532133504
 20
-0.4457057928
 11
-1.0464420487
 21
-0.4360949283
  0
LINE
  5
267
100
AcDbEntity
  8
0
100
AcDbLine
 62
7
  6
CONTINUOUS
 10
-1.3632794603
 20
0.1082828357
 11
-1.2960857976
 21
0.1985620589
  0
LINE
  5
268
100
AcDbEntity
  8
SUPERFICI
100
AcDbLine
 62
7
  6
CONTINUOUS
 10
-0.9929964835
 20
-0.3442865538
 11
-0.9392539841
 21
-0.2720636381
  0
LINE
  5
269
100
AcDbEntity
  8
SUPERFICI
100
AcDbLine
 62
7
  6
CONTINUOUS
 10
-1.0606709929
 20
-0.4543256297
 11
-1.0532133504
 21
-0.4457057928
  0
LINE
  5
26A
100
AcDbEntity
  8
0
100
AcDbLine
 62
7
  6
CONTINUOUS
 10
-1.2960857976
 20
0.1985620589
 11
-1.2217034309
 21
0.2779589534
  0
LINE
  5
26B
100
AcDbEntity
  8
SUPERFICI
100
AcDbLine
 62
7
  6
CONTINUOUS
 10
-0.9392539841
 20
-0.2720636381
 11
-0.8791295558
 21
-0.2088122275
  0
LINE
  5
26C
100
AcDbEntity
  8
0
100
AcDbLine
 62
7
  6
CONTINUOUS
 10
-2.4244303322
 20
-0.9271096007
 11
-2.4092733464
 21
-0.911568586
  0
LWPOLYLINE
  5
26D
100
AcDbEntity
  8
SUPERFICI
100
AcDbPolyline
 62
7
  6
CONTINUOUS
 90
27
 70
0
 10
-2.4092728223
 20
-0.911568163
 10
-2.4244299179
 20
-0.9271091045
 10
-2.4367913261
 20
-0.9451052658
 10
-2.4463569119
 20
-0.9655565684
 10
-2.4531133296
 20
-0.9887955009
 10
-2.4570736023
 20
-1.0144893876
 10
-2.4582773142
 20
-1.0416405006
 10
-2.4566948089
 20
-1.0702216407
 10
-2.4523557949
 20
-1.1002600369
 10
-2.4453892236
 20
-1.1308397898
 10
-2.4356893011
 20
-1.1620965252
 10
-2.4233621379
 20
-1.1938948006
 10
-2.4088548471
 20
-1.2249122904
 10
-2.3920330889
 20
-1.2551351093
 10
-2.3730317739
 20
-1.2845774736
 10
-2.3527021103
 20
-1.3119593377
 10
-2.3310466729
 20
-1.3371157499
 10
-2.3080634084
 20
-1.3602119643
 10
-2.2845966182
 20
-1.3804632637
 10
-2.2606625745
 20
-1.3977900971
 10
-2.2362452106
 20
-1.4122721347
 10
-2.212140245
 20
-1.4233634479
 10
-2.188341396
 20
-1.4310456407
 10
-2.1648547623
 20
-1.4353370029
 10
-2.1424945333
 20
-1.4357465763
 10
-2.1215319105
 20
-1.4321105949
 10
-2.1074765489
 20
-1.427233796
  0
LWPOLYLINE
  5
26E
100
AcDbEntity
  8
SUPERFICI
100
AcDbPolyline
 62
7
  6
CONTINUOUS
 90
13
 70
0
 10
-1.7348953306
 20
-1.1322348804
 10
-1.7197284825
 20
-1.1166881575
 10
-1.7073542994
 20
-1.0986844943
 10
-1.6977726461
 20
-1.0782238126
 10
-1.6909963239
 20
-1.0549733085
 10
-1.687012209
 20
-1.0292655996
 10
-1.6857814446
 20
-1.0020988368
 10
-1.6873337909
 20
-0.9735002853
 10
-1.6916395399
 20
-0.9434427104
 10
-1.6985709523
 20
-0.9128426975
 10
-1.7082340424
 20
-0.8815647448
 10
-1.7205231126
 20
-0.8497445375
 10
-1.7349931604
 20
-0.818705618
  0
LINE
  5
26F
100
AcDbEntity
  8
SUPERFICI
100
AcDbLine
 62
7
  6
CONTINUOUS
 10
-1.0688763646
 20
-0.4620048662
 11
-1.0606709929
 21
-0.4543256297
  0
LINE
  5
270
100
AcDbEntity
  8
0
100
AcDbLine
 62
7
  6
CONTINUOUS
 10
-1.406521034
 20
-1.5058531957
 11
-1.3940864031
 21
-1.4947959357
  0
LWPOLYLINE
  5
271
100
AcDbEntity
  8
SUPERFICI
100
AcDbPolyline
 62
7
  6
CONTINUOUS
 90
11
 70
0
 10
-1.3940863837
 20
-1.4947959661
 10
-1.4065246651
 20
-1.5058564246
 10
-1.4192740706
 20
-1.5220437597
 10
-1.429709506
 20
-1.5413168745
 10
-1.4375089486
 20
-1.5630637892
 10
-1.4426487805
 20
-1.5873373357
 10
-1.4451522895
 20
-1.6140844905
 10
-1.444768095
 20
-1.6425346539
 10
-1.4414124718
 20
-1.6724309988
 10
-1.4351691681
 20
-1.7040303654
 10
-1.4260381771
 20
-1.7373327496
  0
LWPOLYLINE
  5
272
100
AcDbEntity
  8
SUPERFICI
100
AcDbPolyline
 62
7
  6
CONTINUOUS
 90
4
 70
0
 10
-1.150612613
 20
0.3385886611
 10
-1.2217035998
 20
0.2779588093
 10
-1.2960858802
 20
0.1985619707
 10
-1.3632794603
 20
0.1082828357
  0
LINE
  5
273
100
AcDbEntity
  8
0
100
AcDbLine
 62
7
  6
CONTINUOUS
 10
-1.2217034309
 20
0.2779589534
 11
-1.1506126128
 21
0.3385886606
  0
LINE
  5
274
100
AcDbEntity
  8
SUPERFICI
100
AcDbLine
 62
7
  6
CONTINUOUS
 10
-0.8791295558
 20
-0.2088122275
 11
-0.8121591254
 21
-0.1542137696
  0
LINE
  5
275
100
AcDbEntity
  8
0
100
AcDbLine
 62
7
  6
CONTINUOUS
 10
-2.7478395006
 20
-0.5473730129
 11
-3.0959290376
 21
-0.8283310684
  0
LINE
  5
276
100
AcDbEntity
  8
0
100
AcDbLine
 62
7
  6
CONTINUOUS
 10
-1.7348953292
 20
-1.1322348793
 11
-2.0829838643
 21
-1.4131921262
  0
LINE
  5
277
100
AcDbEntity
  8
SUPERFICI
100
AcDbLine
 62
7
  6
CONTINUOUS
 10
-3.0959290638
 20
-0.8283310896
 11
-2.747839502
 21
-0.547373014
  0
LINE
  5
278
100
AcDbEntity
  8
SUPERFICI
100
AcDbLine
 62
7
  6
CONTINUOUS
 10
-2.0608639559
 20
-0.6304262038
 11
-2.4092728223
 21
-0.911568163
  0
LINE
  5
279
100
AcDbEntity
  8
SUPERFICI
100
AcDbLine
 62
7
  6
CONTINUOUS
 10
-2.0829837351
 20
-1.4131920219
 11
-1.7348953306
 21
-1.1322348804
  0
LINE
  5
27A
100
AcDbEntity
  8
0
100
AcDbLine
 62
7
  6
CONTINUOUS
 10
-2.4092733464
 20
-0.911568586
 11
-2.0608638778
 21
-0.6304261408
  0
LWPOLYLINE
  5
27B
100
AcDbEntity
  8
0
100
AcDbPolyline
 62
7
  6
CONTINUOUS
 90
13
 70
0
 10
-1.1506126128
 20
0.3385886606
 10
-1.1401374089
 20
0.3464706662
 10
-1.0507922557
 20
0.40441115
 10
-0.9542729493
 20
0.4514609118
 10
-0.8523868648
 20
0.4866656597
 10
-0.7452463345
 20
0.5097435521
 10
-0.6327490643
 20
0.5209706739
 10
-0.5163815162
 20
0.520229038
 10
-0.3958881245
 20
0.5073076192
 10
-0.2715320363
 20
0.4824131034
 10
-0.1455775847
 20
0.4460541864
 10
-0.0182840016
 20
0.3981619083
 10
0.1106037984
 20
0.3388028584
  0
LINE
  5
27C
100
AcDbEntity
  8
SUPERFICI
100
AcDbLine
 62
7
  6
CONTINUOUS
 10
-1.0777835655
 20
-0.4687039796
 11
-1.0688763646
 21
-0.4620048662
  0
LINE
  5
27D
100
AcDbEntity
  8
SUPERFICI
100
AcDbLine
 62
7
  6
CONTINUOUS
 10
-2.0585928399
 20
-0.6287938633
 11
-2.0608639559
 21
-0.6304262038
  0
LINE
  5
27E
100
AcDbEntity
  8
0
100
AcDbLine
 62
7
  6
CONTINUOUS
 10
-2.0608638778
 20
-0.6304261408
 11
-2.058592842
 21
-0.6287938598
  0
LWPOLYLINE
  5
27F
100
AcDbEntity
  8
0
100
AcDbPolyline
 62
7
  6
CONTINUOUS
 90
3
 70
0
 10
-3.0959290376
 20
-0.8283310684
 10
-3.1104968329
 20
-0.8379430577
 10
-3.1202742399
 20
-0.8426957631
  0
LINE
  5
280
100
AcDbEntity
  8
SUPERFICI
100
AcDbLine
 62
7
  6
CONTINUOUS
 10
-3.1104968913
 20
-0.8379430821
 11
-3.0959290638
 21
-0.8283310896
  0
LWPOLYLINE
  5
281
100
AcDbEntity
  8
SUPERFICI
100
AcDbPolyline
 62
7
  6
CONTINUOUS
 90
3
 70
0
 10
-1.0507929014
 20
0.4044107847
 10
-1.1401378607
 20
0.346470332
 10
-1.150612613
 20
0.3385886611
  0
LINE
  5
282
100
AcDbEntity
  8
SUPERFICI
100
AcDbLine
 62
7
  6
CONTINUOUS
 10
-0.8121591254
 20
-0.1542137696
 11
-0.7388129525
 21
-0.1085903828
  0
LINE
  5
283
100
AcDbEntity
  8
SUPERFICI
100
AcDbLine
 62
7
  6
CONTINUOUS
 10
-2.1016951084
 20
-1.4245924859
 11
-2.0829837351
 21
-1.4131920219
  0
LWPOLYLINE
  5
284
100
AcDbEntity
  8
0
100
AcDbPolyline
 62
7
  6
CONTINUOUS
 90
3
 70
0
 10
-2.0829838643
 20
-1.4131921262
 10
-2.1016952217
 20
-1.424592545
 10
-2.1074765478
 20
-1.4272337979
  0
LINE
  5
285
100
AcDbEntity
  8
SUPERFICI
100
AcDbLine
 62
7
  6
CONTINUOUS
 10
-2.0421138128
 20
-0.6190033836
 11
-2.0585928399
 21
-0.6287938633
  0
LWPOLYLINE
  5
286
100
AcDbEntity
  8
0
100
AcDbPolyline
 62
7
  6
CONTINUOUS
 90
28
 70
0
 10
-2.058592842
 20
-0.6287938598
 10
-2.0421137643
 20
-0.6190033548
 10
-2.0222422042
 20
-0.6114652152
 10
-2.0012495895
 20
-0.6078119485
 10
-1.9788648031
 20
-0.6082073716
 10
-1.9553595461
 20
-0.6124880049
 10
-1.9315483365
 20
-0.6201630714
 10
-1.9074375644
 20
-0.631251028
 10
-1.8830210225
 20
-0.6457335235
 10
-1.859094233
 20
-0.6630645114
 10
-1.8356411332
 20
-0.68332366
 10
-1.8126775803
 20
-0.7064311824
 10
-1.7910469019
 20
-0.7316018062
 10
-1.770746893
 20
-0.7590006914
 10
-1.7517792372
 20
-0.7884623768
 10
-1.7349931294
 20
-0.8187056788
 10
-1.7205230884
 20
-0.8497445938
 10
-1.7082340248
 20
-0.8815647955
 10
-1.6985709403
 20
-0.9128427422
 10
-1.6916395327
 20
-0.943442749
 10
-1.6873337877
 20
-0.9735003177
 10
-1.6857814444
 20
-1.002098863
 10
-1.687012211
 20
-1.0292656198
 10
-1.6909963271
 20
-1.0549733229
 10
-1.6977726495
 20
-1.0782238219
 10
-1.7073543022
 20
-1.0986844994
 10
-1.7197284837
 20
-1.1166881591
 10
-1.7348953292
 20
-1.1322348793
  0
LINE
  5
287
100
AcDbEntity
  8
SUPERFICI
100
AcDbLine
 62
7
  6
CONTINUOUS
 10
-1.0872538767
 20
-0.4743307164
 11
-1.0777835655
 21
-0.4687039796
  0
LINE
  5
288
100
AcDbEntity
  8
SUPERFICI
100
AcDbLine
 62
7
  6
CONTINUOUS
 10
-3.1202742432
 20
-0.8426957569
 11
-3.1104968913
 21
-0.8379430821
  0
LWPOLYLINE
  5
289
100
AcDbEntity
  8
0
100
AcDbPolyline
 62
7
  6
CONTINUOUS
 90
7
 70
0
 10
-0.6808826911
 20
-0.0810165937
 10
-0.73881297
 20
-0.1085903911
 10
-0.8121591382
 20
-0.1542137775
 10
-0.8791295713
 20
-0.2088122401
 10
-0.9392540028
 20
-0.2720636577
 10
-0.9929965023
 20
-0.3442865802
 10
-1.0403535942
 20
-0.4254790022
  0
LINE
  5
28A
100
AcDbEntity
  8
SUPERFICI
100
AcDbLine
 62
7
  6
CONTINUOUS
 10
-0.7388129525
 20
-0.1085903828
 11
-0.6808826911
 21
-0.0810165937
  0
LINE
  5
28B
100
AcDbEntity
  8
SUPERFICI
100
AcDbLine
 62
7
  6
CONTINUOUS
 10
-1.0950414649
 20
-0.4779768001
 11
-1.0872538767
 21
-0.4743307164
  0
LWPOLYLINE
  5
28C
100
AcDbEntity
  8
0
100
AcDbPolyline
 62
7
  6
CONTINUOUS
 90
13
 70
0
 10
-1.0950407936
 20
-0.4779780911
 10
-1.0974332933
 20
-0.4789383701
 10
-1.108087171
 20
-0.4824192292
 10
-1.1191831729
 20
-0.4848048734
 10
-1.1307207785
 20
-0.4860836721
 10
-1.1427005979
 20
-0.4862673075
 10
-1.154989608
 20
-0.4853616302
 10
-1.1675960197
 20
-0.4833549285
 10
-1.1805116886
 20
-0.4802589524
 10
-1.1935790544
 20
-0.4761147429
 10
-1.2067456097
 20
-0.4709359875
 10
-1.2200638977
 20
-0.4647090194
 10
-1.2335339274
 20
-0.4574338436
  0
LWPOLYLINE
  5
28D
100
AcDbEntity
  8
SUPERFICI
100
AcDbPolyline
 62
7
  6
CONTINUOUS
 90
42
 70
0
 10
-0.6808826911
 20
-0.0810165937
 10
-0.6604967262
 20
-0.0729054873
 10
-0.5771979275
 20
-0.0474076194
 10
-0.488936094
 20
-0.0318522732
 10
-0.3971660276
 20
-0.0264638857
 10
-0.3018100272
 20
-0.0314087643
 10
-0.2029514102
 20
-0.0465238238
 10
-0.1022865093
 20
-0.0715394121
 10
0.0001982006
 20
-0.1066206236
 10
0.1044859741
 20
-0.1516042095
 10
0.2088356072
 20
-0.2057276967
 10
0.3132504916
 20
-0.2691423822
 10
0.417727062
 20
-0.3416970684
 10
0.5205144249
 20
-0.4221751125
 10
0.6215908516
 20
-0.5107142686
 10
0.7209809708
 20
-0.6071751208
 10
0.8170039968
 20
-0.7099249431
 10
0.9096052991
 20
-0.819072499
 10
0.9988448998
 20
-0.9345059322
 10
1.0832140344
 20
-1.0542615626
 10
1.1626275064
 20
-1.1784032266
 10
1.2371772971
 20
-1.3068631894
 10
1.305619679
 20
-1.43748083
 10
1.3678562127
 20
-1.5702927432
 10
1.423992164
 20
-1.7052584021
 10
1.4730877755
 20
-1.8401024131
 10
1.5150261165
 20
-1.9748147184
 10
1.549929608
 20
-2.1094022014
 10
1.5772151662
 20
-2.2416162309
 10
1.5967582147
 20
-2.3714255675
 10
1.6086864219
 20
-2.4988596492
 10
1.6127921722
 20
-2.6217625307
 10
1.6089419571
 20
-2.7400565282
 10
1.597269317
 20
-2.8538192862
 10
1.5779640991
 20
-2.9611296479
 10
1.550890086
 20
-3.0618846449
 10
1.516180473
 20
-3.1561889741
 10
1.4744262895
 20
-3.2424346768
 10
1.4255109343
 20
-3.3204757516
 10
1.3695454936
 20
-3.3904613797
 10
1.3074601472
 20
-3.4512277578
 10
1.2772089286
 20
-3.47571716
  0
LINE
  5
28E
100
AcDbEntity
  8
0
100
AcDbLine
 62
7
  6
CONTINUOUS
 10
-3.1202742399
 20
-0.8426957631
 11
-3.1260702581
 21
-0.8449487758
  0
LWPOLYLINE
  5
28F
100
AcDbEntity
  8
0
100
AcDbPolyline
 62
7
  6
CONTINUOUS
 90
3
 70
0
 10
-0.5771979653
 20
-0.0474076285
 10
-0.6604967622
 20
-0.072905501
 10
-0.6808826911
 20
-0.0810165937
  0
LINE
  5
290
100
AcDbEntity
  8
0
100
AcDbLine
 62
7
  6
CONTINUOUS
 10
-3.1260702581
 20
-0.8449487758
 11
-3.1426495204
 21
-0.8493483431
  0
LWPOLYLINE
  5
291
100
AcDbEntity
  8
0
100
AcDbPolyline
 62
7
  6
CONTINUOUS
 90
25
 70
0
 10
-2.1215320036
 20
-1.4321106207
 10
-2.142494602
 20
-1.4357465807
 10
-2.1648548011
 20
-1.4353369986
 10
-2.1883414007
 20
-1.4310456396
 10
-2.2121402151
 20
-1.4233634596
 10
-2.2362451455
 20
-1.412272169
 10
-2.2606624737
 20
-1.3977901635
 10
-2.2845964845
 20
-1.3804633696
 10
-2.3080632443
 20
-1.3602121177
 10
-2.3310464813
 20
-1.3371159581
 10
-2.3527018983
 20
-1.3119596028
 10
-2.3730315489
 20
-1.2845777986
 10
-2.3920328581
 20
-1.2551354962
 10
-2.4088546202
 20
-1.2249127341
 10
-2.4233619257
 20
-1.1938952944
 10
-2.4356891134
 20
-1.162097064
 10
-2.445389069
 20
-1.1308403665
 10
-2.4523556817
 20
-1.1002606453
 10
-2.4566947456
 20
-1.0702222734
 10
-2.4582773093
 20
-1.0416411453
 10
-2.4570736642
 20
-1.0144900303
 10
-2.4531134666
 20
-0.988796129
 10
-2.4463571327
 20
-0.9655571675
 10
-2.4367916394
 20
-0.9451058207
 10
-2.4244303322
 20
-0.9271096007
  0
LINE
  5
292
100
AcDbEntity
  8
0
100
AcDbLine
 62
7
  6
CONTINUOUS
 10
-3.1426495204
 20
-0.8493483431
 11
-3.1604058894
 21
-0.8510979453
  0
LINE
  5
293
100
AcDbEntity
  8
0
100
AcDbLine
 62
7
  6
CONTINUOUS
 10
-3.1604058894
 20
-0.8510979453
 11
-3.1791684024
 21
-0.850241582
  0
LINE
  5
294
100
AcDbEntity
  8
0
100
AcDbLine
 62
7
  6
CONTINUOUS
 10
-3.1791684024
 20
-0.850241582
 11
-3.1984240629
 21
-0.8469110964
  0
LWPOLYLINE
  5
295
100
AcDbEntity
  8
SUPERFICI
100
AcDbPolyline
 62
7
  6
CONTINUOUS
 90
17
 70
0
 10
-3.7565562395
 20
1.4897981499
 10
-3.7675199155
 20
1.4951415316
 10
-3.7783978206
 20
1.4997811908
 10
-3.789212057
 20
1.5037243663
 10
-3.7999405062
 20
1.5069638287
 10
-3.8105168291
 20
1.5094778807
 10
-3.8209395771
 20
1.5112711624
 10
-3.8312101673
 20
1.5123390518
 10
-3.8412665563
 20
1.5126459599
 10
-3.8511054668
 20
1.512194195
 10
-3.8607301293
 20
1.5109814756
 10
-3.8700882568
 20
1.5089653308
 10
-3.879200433
 20
1.5061463043
 10
-3.88804601
 20
1.5025238892
 10
-3.8965108507
 20
1.4980540395
 10
-3.9045568844
 20
1.4927220875
 10
-3.9064236609
 20
1.4913221651
  0
LWPOLYLINE
  5
296
100
AcDbEntity
  8
SUPERFICI
100
AcDbPolyline
 62
7
  6
CONTINUOUS
 90
13
 70
0
 10
-1.2335290737
 20
-0.457436646
 10
-1.2200119203
 20
-0.464735357
 10
-1.2066472925
 20
-0.4709783985
 10
-1.1934351813
 20
-0.4761657654
 10
-1.1803197885
 20
-0.4803110125
 10
-1.1673568761
 20
-0.4834005641
 10
-1.1547137677
 20
-0.485393715
 10
-1.1424012221
 20
-0.4862760809
 10
-1.1304084136
 20
-0.4860620076
 10
-1.1188702876
 20
-0.4847538828
 10
-1.1077889317
 20
-0.4823399154
 10
-1.0971621694
 20
-0.4788318452
 10
-1.0950414649
 20
-0.4779768001
  0
LINE
  5
297
100
AcDbEntity
  8
SUPERFICI
100
AcDbLine
 62
7
  6
CONTINUOUS
 10
-3.7455067967
 20
1.4837510434
 11
-3.7565527499
 21
1.4897962401
  0
LINE
  5
298
100
AcDbEntity
  8
SUPERFICI
100
AcDbLine
 62
7
  6
CONTINUOUS
 10
-1.2335290592
 20
-0.4574366544
 11
-3.6363929981
 21
0.9299468689
  0
LINE
  5
299
100
AcDbEntity
  8
0
100
AcDbLine
 62
7
  6
CONTINUOUS
 10
-1.2335290592
 20
-0.4574366544
 11
-3.6363929981
 21
0.9299468689
  0
LINE
  5
29A
100
AcDbEntity
  8
SUPERFICI
100
AcDbLine
 62
7
  6
CONTINUOUS
 10
-1.3632794603
 20
0.1082828357
 11
-3.7455068193
 21
1.4837510564
  0
LINE
  5
29B
100
AcDbEntity
  8
0
100
AcDbLine
 62
7
  6
CONTINUOUS
 10
-1.3632794603
 20
0.1082828357
 11
-3.7455068193
 21
1.4837510564
  0
LWPOLYLINE
  5
29C
100
AcDbEntity
  8
0
100
AcDbPolyline
 62
7
  6
CONTINUOUS
 90
19
 70
0
 10
-1.3940864031
 20
-1.4947959357
 10
-1.3913360058
 20
-1.4927891425
 10
-1.3738404738
 20
-1.4828146399
 10
-1.3547093163
 20
-1.4764207571
 10
-1.3338350194
 20
-1.4737998906
 10
-1.3113256465
 20
-1.474759962
 10
-1.2881823164
 20
-1.4792189189
 10
-1.2644470314
 20
-1.487309984
 10
-1.2400780843
 20
-1.4989001055
 10
-1.2159509747
 20
-1.5135077869
 10
-1.1920992351
 20
-1.5311716431
 10
-1.1684892404
 20
-1.5518530057
 10
-1.1458956651
 20
-1.5749544026
 10
-1.1243121222
 20
-1.6005006236
 10
-1.1037445537
 20
-1.6284666212
 10
-1.0849860699
 20
-1.6581801342
 10
-1.0683008107
 20
-1.6894169422
 10
-1.0534239208
 20
-1.7224008513
 10
-1.0403549652
 20
-1.7571316094
  0
LWPOLYLINE
  5
29D
100
AcDbEntity
  8
RACCORDO
100
AcDbPolyline
 62
253
  6
CONTINUOUS
 90
16
 70
0
 10
6.9842011602
 20
2.4947983617
 10
6.945103064
 20
2.476281559
 10
6.9027728275
 20
2.4601795221
 10
6.8576589155
 20
2.4466628426
 10
6.8102392841
 20
2.4358747223
 10
6.7610163174
 20
2.427929455
 10
6.7105115046
 20
2.4229112164
 10
6.6592599155
 20
2.4208731718
 10
6.6078045315
 20
2.4218369132
 10
6.5566904931
 20
2.4257922303
 10
6.5064593243
 20
2.4326972187
 10
6.4576431959
 20
2.442478724
 10
6.410759287
 20
2.4550331167
 10
6.3663043057
 20
2.4702273903
 10
6.3247492274
 20
2.4879005699
 10
6.2865343044
 20
2.5078654184
  0
LINE
  5
29E
100
AcDbEntity
  8
SUPERFICI
100
AcDbLine
 62
7
  6
CONTINUOUS
 10
-2.1074765489
 20
-1.427233796
 11
-2.1016951084
 21
-1.4245924859
  0
LINE
  5
29F
100
AcDbEntity
  8
0
100
AcDbLine
 62
7
  6
CONTINUOUS
 10
-2.1074765478
 20
-1.4272337979
 11
-2.1215320036
 21
-1.4321106207
  0
LWPOLYLINE
  5
2A0
100
AcDbEntity
  8
0
100
AcDbPolyline
 62
7
  6
CONTINUOUS
 90
8
 70
0
 10
-3.8208975942
 20
1.5112653285
 10
-3.8104789684
 20
1.5094700922
 10
-3.7999081717
 20
1.5069552328
 10
-3.7891863298
 20
1.5037158899
 10
-3.7783787353
 20
1.4997736454
 10
-3.7675071577
 20
1.49513569
 10
-3.7565498438
 20
1.4897948236
 10
-3.7455067976
 20
1.4837510439
  0
LWPOLYLINE
  5
2A1
100
AcDbEntity
  8
SUPERFICI
100
AcDbPolyline
 62
7
  6
CONTINUOUS
 90
11
 70
0
 10
0.1106006459
 20
0.3388044451
 10
-0.0182868965
 20
0.3981631208
 10
-0.145580219
 20
0.4460550625
 10
-0.2715344108
 20
0.4824136848
 10
-0.3958902362
 20
0.5073079439
 10
-0.5163833675
 20
0.5202291455
 10
-0.6327506551
 20
0.5209706036
 10
-0.7452476671
 20
0.5097433438
 10
-0.8523879531
 20
0.4866653557
 10
-0.9542738092
 20
0.4514605559
 10
-1.0507929014
 20
0.4044107847
  0
LINE
  5
2A2
100
AcDbEntity
  8
SUPERFICI
100
AcDbLine
 62
7
  6
CONTINUOUS
 10
0.2395903707
 20
0.2686915017
 11
0.1106006459
 21
0.3388044451
  0
LINE
  5
2A3
100
AcDbEntity
  8
0
100
AcDbLine
 62
7
  6
CONTINUOUS
 10
0.1106037984
 20
0.3388028584
 11
0.239593761
 21
0.2686895155
  0
LWPOLYLINE
  5
2A4
100
AcDbEntity
  8
0
100
AcDbPolyline
 62
7
  6
CONTINUOUS
 90
23
 70
0
 10
0.239593761
 20
0.2686895155
 10
0.3689898477
 20
0.1874880463
 10
0.4984882409
 20
0.0955323663
 10
0.6256862501
 20
-0.0054628322
 10
0.7502422665
 20
-0.115368442
 10
0.8725021907
 20
-0.2343111165
 10
0.9910954131
 20
-0.3609593367
 10
1.106315073
 20
-0.4958389716
 10
1.2178759686
 20
-0.6384196086
 10
1.3235399333
 20
-0.7857853299
 10
1.4228638025
 20
-0.9374927472
 10
1.5163000315
 20
-1.0939799193
 10
1.6029530342
 20
-1.2536535823
 10
1.683000615
 20
-1.4170694342
 10
1.7562754119
 20
-1.5836657704
 10
1.8213619625
 20
-1.7501744387
 10
1.8779479739
 20
-1.9160406512
 10
1.9263532999
 20
-2.0818148245
 10
1.9661078258
 20
-2.2458882599
 10
1.997212324
 20
-2.408823011
 10
2.0196724292
 20
-2.5700533003
 10
2.0330214231
 20
-2.726280923
 10
2.0370845017
 20
-2.8768840597
  0
LWPOLYLINE
  5
2A5
100
AcDbEntity
  8
SUPERFICI
100
AcDbPolyline
 62
7
  6
CONTINUOUS
 90
23
 70
0
 10
2.0370845308
 20
-2.8768742162
 10
2.0330208592
 20
-2.726271031
 10
2.0196713168
 20
-2.570043424
 10
1.9972107023
 20
-2.4088132158
 10
1.9661057362
 20
-2.2458786073
 10
1.9263507824
 20
-2.0818053829
 10
1.8779450696
 20
-1.9160314821
 10
1.8213587175
 20
-1.7501655796
 10
1.7562718743
 20
-1.5836572522
 10
1.6829968309
 20
-1.4170612943
 10
1.6029490484
 20
-1.253645853
 10
1.5162958906
 20
-1.0939726404
 10
1.4228595512
 20
-0.9374859511
 10
1.3235356094
 20
-0.7857790222
 10
1.2178716068
 20
-0.638413786
 10
1.1063107111
 20
-0.4958336396
 10
0.9910910903
 20
-0.3609545001
 10
0.8724979516
 20
-0.2343067878
 10
0.7502381505
 20
-0.1153646259
 10
0.6256822819
 20
-0.0054595091
 10
0.4984844422
 20
0.0955352223
 10
0.3689862433
 20
0.1874904547
 10
0.2395903707
 20
0.2686915017
  0
LINE
  5
2A6
100
AcDbEntity
  8
SUPERFICI
100
AcDbLine
 62
7
  6
CONTINUOUS
 10
2.0320373912
 20
-3.0224746105
 11
2.0370845308
 21
-2.8768742162
  0
LINE
  5
2A7
100
AcDbEntity
  8
0
100
AcDbLine
 62
7
  6
CONTINUOUS
 10
2.0370845017
 20
-2.8768840597
 11
2.0320367297
 21
-3.0224843403
  0
LWPOLYLINE
  5
2A8
100
AcDbEntity
  8
0
100
AcDbPolyline
 62
7
  6
CONTINUOUS
 90
10
 70
0
 10
2.0320367297
 20
-3.0224843403
 10
2.0179319699
 20
-3.1616511685
 10
1.9945638228
 20
-3.2947664831
 10
1.9621368458
 20
-3.4214493724
 10
1.9213172331
 20
-3.53912734
 10
1.8721369295
 20
-3.647260392
 10
1.8145563701
 20
-3.7463929056
 10
1.7491308365
 20
-3.8355810583
 10
1.6755124585
 20
-3.914977082
 10
1.5940407357
 20
-3.9844335812
  0
LWPOLYLINE
  5
2A9
100
AcDbEntity
  8
0
100
AcDbPolyline
 62
7
  6
CONTINUOUS
 90
39
 70
0
 10
1.307460113
 20
-3.4512277872
 10
1.369545464
 20
-3.3904614123
 10
1.4255109094
 20
-3.3204757866
 10
1.474426269
 20
-3.242434714
 10
1.5161804564
 20
-3.1561890134
 10
1.5508900732
 20
-3.0618846859
 10
1.5779640897
 20
-2.9611296898
 10
1.597269311
 20
-2.8538193282
 10
1.6089419543
 20
-2.7400565695
 10
1.6127921722
 20
-2.6217625705
 10
1.6086864243
 20
-2.4988596869
 10
1.596758219
 20
-2.3714256025
 10
1.5772151718
 20
-2.2416162625
 10
1.5499296142
 20
-2.1094022284
 10
1.5150261227
 20
-1.9748147404
 10
1.4730877811
 20
-1.8401024298
 10
1.4239921686
 20
-1.705258414
 10
1.3678562158
 20
-1.5702927503
 10
1.3056196802
 20
-1.4374808325
 10
1.237177296
 20
-1.3068631875
 10
1.1626275026
 20
-1.1784032205
 10
1.0832140279
 20
-1.0542615528
 10
0.9988448906
 20
-0.9345059197
 10
0.9096052872
 20
-0.8190724842
 10
0.8170039821
 20
-0.7099249266
 10
0.7209809532
 20
-0.6071751029
 10
0.621590831
 20
-0.5107142497
 10
0.5205144013
 20
-0.4221750929
 10
0.4177270353
 20
-0.3416970487
 10
0.3132504617
 20
-0.2691423628
 10
0.2088355744
 20
-0.2057276783
 10
0.1044859388
 20
-0.1516041928
 10
0.0001981629
 20
-0.1066206092
 10
-0.1022865486
 20
-0.0715394005
 10
-0.2029514503
 20
-0.0465238157
 10
-0.3018100675
 20
-0.0314087602
 10
-0.3971660676
 20
-0.0264638858
 10
-0.4889361331
 20
-0.0318522777
 10
-0.5771979653
 20
-0.0474076285
  0
LINE
  5
2AA
100
AcDbEntity
  8
0
100
AcDbLine
 62
7
  6
CONTINUOUS
 10
-3.8700427403
 20
1.5089771811
 11
-3.860682586
 21
1.5109898538
  0
LWPOLYLINE
  5
2AB
100
AcDbEntity
  8
0
100
AcDbPolyline
 62
7
  6
CONTINUOUS
 90
5
 70
0
 10
-3.860682586
 20
1.5109898538
 10
-3.8510576627
 20
1.5121983487
 10
-3.8412196507
 20
1.5126462712
 10
-3.8311651434
 20
1.5123360995
 10
-3.8208975942
 20
1.5112653285
  0
LWPOLYLINE
  5
2AC
100
AcDbEntity
  8
RACCORDO
100
AcDbPolyline
 62
253
  6
CONTINUOUS
 90
10
 70
0
 10
7.0076084155
 20
-22.1921426812
 10
7.0180206042
 20
-22.2484136772
 10
7.0326178145
 20
-22.3012220537
 10
7.0513134376
 20
-22.3502517102
 10
7.0739988394
 20
-22.3952109691
 10
7.1005373324
 20
-22.4358295968
 10
7.1307646577
 20
-22.4718608079
 10
7.1645013265
 20
-22.5030900765
 10
7.2015470664
 20
-22.529332597
 10
7.2084779632
 20
-22.533472293
  0
LWPOLYLINE
  5
2AD
100
AcDbEntity
  8
SUPERFICI
100
AcDbPolyline
 62
7
  6
CONTINUOUS
 90
9
 70
0
 10
1.6755188619
 20
-3.9149709323
 10
1.749136488
 20
-3.8355742121
 10
1.814561266
 20
-3.7463854243
 10
1.8721410686
 20
-3.6472523423
 10
1.921320634
 20
-3.5391187988
 10
1.9621395321
 20
-3.4214404216
 10
1.9945658129
 20
-3.2947571998
 10
2.0179332865
 20
-3.1616416252
 10
2.0320373912
 20
-3.0224746105
  0
LINE
  5
2AE
100
AcDbEntity
  8
SUPERFICI
100
AcDbLine
 62
7
  6
CONTINUOUS
 10
1.5940441399
 20
-3.9844306791
 11
1.6755188619
 21
-3.9149709323
  0
LINE
  5
2AF
100
AcDbEntity
  8
0
100
AcDbLine
 62
7
  6
CONTINUOUS
 10
1.2772089287
 20
-3.4757171601
 11
1.307460113
 21
-3.4512277872
  0
LINE
  5
2B0
100
AcDbEntity
  8
SUPERFICI
100
AcDbLine
 62
7
  6
CONTINUOUS
 10
1.2772089286
 20
-3.47571716
 11
1.2391443041
 21
-3.5026285024
  0
LINE
  5
2B1
100
AcDbEntity
  8
SUPERFICI
100
AcDbLine
 62
7
  6
CONTINUOUS
 10
1.5063073819
 20
-4.0425542061
 11
1.5940441399
 21
-3.9844306791
  0
LWPOLYLINE
  5
2B2
100
AcDbEntity
  8
0
100
AcDbPolyline
 62
7
  6
CONTINUOUS
 90
3
 70
0
 10
1.5940407357
 20
-3.9844335812
 10
1.5062994901
 20
-4.0425587581
 10
1.4094145315
 20
-4.090313536
  0
LWPOLYLINE
  5
2B3
100
AcDbEntity
  8
SUPERFICI
100
AcDbPolyline
 62
7
  6
CONTINUOUS
 90
25
 70
0
 10
1.2391443041
 20
-3.5026285024
 10
1.1647017347
 20
-3.5448139444
 10
1.0853825729
 20
-3.5770662764
 10
1.0011003049
 20
-3.5992187228
 10
0.9119346381
 20
-3.6114420082
 10
0.8193842971
 20
-3.6135250076
 10
0.7233795468
 20
-3.6052924531
 10
0.6239847088
 20
-3.5869227587
 10
0.5228996311
 20
-3.558735302
 10
0.4201136668
 20
-3.5205727689
 10
0.3156345346
 20
-3.4725941769
 10
0.2111901997
 20
-3.4155930704
 10
0.1067765238
 20
-3.3494244045
 10
0.0023977957
 20
-3.2742331366
 10
-0.1002046294
 20
-3.1912473792
 10
-0.2010153218
 20
-3.100321936
 10
-0.3000464991
 20
-3.0016001348
 10
-0.3955977302
 20
-2.8967425566
 10
-0.4875985586
 20
-2.7856566255
 10
-0.5761137939
 20
-2.668431636
 10
-0.6596459012
 20
-2.5470009742
 10
-0.7381625336
 20
-2.4211459502
 10
-0.8116890005
 20
-2.2910811716
 10
-0.8788152154
 20
-2.1593905328
 10
-0.9390694424
 20
-2.0269343451
  0
LINE
  5
2B4
100
AcDbEntity
  8
SUPERFICI
100
AcDbLine
 62
7
  6
CONTINUOUS
 10
1.4094145276
 20
-4.0903135287
 11
1.5063073819
 21
-4.0425542061
  0
LWPOLYLINE
  5
2B5
100
AcDbEntity
  8
0
100
AcDbPolyline
 62
7
  6
CONTINUOUS
 90
26
 70
0
 10
1.4094145315
 20
-4.090313536
 10
1.3123990943
 20
-4.1241688304
 10
1.2069934229
 20
-4.1475830035
 10
1.0958068305
 20
-4.159150167
 10
0.9792959553
 20
-4.1589942127
 10
0.8598080653
 20
-4.147076361
 10
0.7376633804
 20
-4.1232518873
 10
0.6125349168
 20
-4.0876694572
 10
0.4857994129
 20
-4.0407302163
 10
0.3570929673
 20
-3.9821287377
 10
0.2267766607
 20
-3.9121720933
 10
0.097315656
 20
-3.832179622
 10
-0.0309549756
 20
-3.7422094515
 10
-0.1583688671
 20
-3.6422026152
 10
-0.2834628972
 20
-3.5333022194
 10
-0.4064827482
 20
-3.4151253052
 10
-0.5271771827
 20
-3.2880515936
 10
-0.6433371144
 20
-3.1543678698
 10
-0.7546719835
 20
-3.0142249816
 10
-0.8614639097
 20
-2.8674671689
 10
-0.9623629547
 20
-2.7159213824
 10
-1.0574714067
 20
-2.5591684662
 10
-1.1466766012
 20
-2.3976215503
 10
-1.2283075901
 20
-2.2343568446
 10
-1.3018049866
 20
-2.0703983628
 10
-1.3677193116
 20
-1.9047169612
  0
LWPOLYLINE
  5
2B6
100
AcDbEntity
  8
RACCORDO
100
AcDbPolyline
 62
253
  6
CONTINUOUS
 90
19
 70
0
 10
7.7013709742
 20
-22.1387162116
 10
7.7066748355
 20
-22.1669743897
 10
7.7140056678
 20
-22.1932733423
 10
7.7233634711
 20
-22.2176130693
 10
7.7348302926
 20
-22.2401343177
 10
7.7483240851
 20
-22.2606963404
 10
7.7635987072
 20
-22.2788768968
 10
7.7806831366
 20
-22.2946165937
 10
7.7995483957
 20
-22.3079748242
 10
7.8198614097
 20
-22.3187075264
 10
7.8416527707
 20
-22.3267666019
 10
7.8648918868
 20
-22.3322001491
 10
7.8891539076
 20
-22.334908401
 10
7.9144729265
 20
-22.3348308402
 10
7.9408148502
 20
-22.3320279841
 10
7.9676525483
 20
-22.3265816178
 10
7.9948103108
 20
-22.318519003
 10
8.0224638478
 20
-22.3078128779
 10
8.0506131593
 20
-22.2944632425
  0
LWPOLYLINE
  5
2B7
100
AcDbEntity
  8
RACCORDO
100
AcDbPolyline
 62
253
  6
CONTINUOUS
 90
10
 70
0
 10
6.2865343039
 20
-13.0050698409
 10
6.311498894
 20
-14.0602801441
 10
6.3502810987
 20
-15.1073950854
 10
6.4028729279
 20
-16.1461930612
 10
6.4692639677
 20
-17.1764544614
 10
6.5494401029
 20
-18.1979611464
 10
6.6433835269
 20
-19.2104964878
 10
6.751074449
 20
-20.2138461765
 10
6.8724910907
 20
-21.2077982737
 10
7.0076084155
 20
-22.1921426812
  0
LWPOLYLINE
  5
2B8
100
AcDbEntity
  8
RACCORDO
100
AcDbPolyline
 62
253
  6
CONTINUOUS
 90
10
 70
0
 10
6.9842011602
 20
-13.0026239621
 10
7.0090472893
 20
-14.0523177122
 10
7.0476161762
 20
-15.0935334448
 10
7.0999078211
 20
-16.1262711599
 10
7.1659394325
 20
-17.1507509641
 10
7.2456938018
 20
-18.1667527508
 10
7.3391193033
 20
-19.1736162008
 10
7.4461987281
 20
-20.1711212077
 10
7.5669492851
 20
-21.159487878
 10
7.7013709742
 20
-22.1387162116
  0
LWPOLYLINE
  5
2B9
100
AcDbEntity
  8
RACCORDO
100
AcDbPolyline
 62
253
  6
CONTINUOUS
 90
10
 70
0
 10
6.2865343039
 20
2.5078654181
 10
6.2606605939
 20
0.770102108
 10
6.241255525
 20
-0.9641892993
 10
6.2283190504
 20
-2.6949780924
 10
6.221851054
 20
-4.4222102207
 10
6.2218510506
 20
-6.1458786127
 10
6.2283190412
 20
-7.8660226828
 10
6.2412555132
 20
-9.5826347983
 10
6.2606605845
 20
-11.2956607732
 10
6.2865343039
 20
-13.0050698409
  0
LWPOLYLINE
  5
2BA
100
AcDbEntity
  8
RACCORDO
100
AcDbPolyline
 62
253
  6
CONTINUOUS
 90
10
 70
0
 10
7.0076084155
 20
12.4853505674
 10
6.8724910897
 20
11.3528981721
 10
6.7510744475
 20
10.2258535655
 10
6.6433835253
 20
9.1044557571
 10
6.5494401017
 20
7.9889428286
 10
6.4692639673
 20
6.8795509494
 10
6.402872928
 20
5.7765143294
 10
6.3502810991
 20
4.6800664145
 10
6.3114988944
 20
3.5904398339
 10
6.2865343039
 20
2.5078654181
  0
LWPOLYLINE
  5
2BB
100
AcDbEntity
  8
RACCORDO
100
AcDbPolyline
 62
253
  6
CONTINUOUS
 90
10
 70
0
 10
7.7013709742
 20
12.4167943351
 10
7.5669503856
 20
11.2902725565
 10
7.4462005804
 20
10.1695909667
 10
7.3391215585
 20
9.0547495658
 10
7.2456960133
 20
7.945509345
 10
7.1659412515
 20
6.8421093131
 10
7.0999091932
 20
5.7452664961
 10
7.0476171453
 20
4.655219903
 10
7.0090478009
 20
3.5717305248
 10
6.9842011602
 20
2.4947983617
  0
LINE
  5
2BC
100
AcDbEntity
  8
RACCORDO
100
AcDbLine
 62
253
  6
CONTINUOUS
 10
6.2865343039
 20
2.5078654181
 11
-8.5459739444
 21
11.0719697857
  0
LWPOLYLINE
  5
2BD
100
AcDbEntity
  8
RACCORDO
100
AcDbPolyline
 62
253
  6
CONTINUOUS
 90
10
 70
0
 10
6.9842011602
 20
2.4947983617
 10
6.9583529375
 20
0.7587239893
 10
6.9389667689
 20
-0.9738215903
 10
6.9260426542
 20
-2.702838377
 10
6.9195805912
 20
-4.4283341666
 10
6.9195805823
 20
-6.1503011634
 10
6.926042634
 20
-7.86871598
 10
6.9389667487
 20
-9.5835708208
 10
6.9583529241
 20
-11.2948734815
 10
6.9842011602
 20
-13.0026239621
  0
LWPOLYLINE
  5
2BE
100
AcDbEntity
  8
RACCORDO
100
AcDbPolyline
 62
253
  6
CONTINUOUS
 90
16
 70
0
 10
8.0506131593
 20
12.9552550951
 10
8.047737863
 20
12.9984958427
 10
8.0411266065
 20
13.0435556918
 10
8.0308517132
 20
13.089941428
 10
8.0170256097
 20
13.1371453174
 10
7.9997996004
 20
13.1846506516
 10
7.9793622146
 20
13.231937404
 10
7.9559371326
 20
13.2784879485
 10
7.9297807499
 20
13.3237926968
 10
7.9011793821
 20
13.3673556673
 10
7.8704460971
 20
13.4086999715
 10
7.8379173117
 20
13.4473729918
 10
7.8039491329
 20
13.4829513187
 10
7.7689134117
 20
13.5150454463
 10
7.7331936682
 20
13.5433040272
 10
7.697180925
 20
13.5674176868
  0
LINE
  5
2BF
100
AcDbEntity
  8
0
100
AcDbLine
 62
7
  6
CONTINUOUS
 10
8.7423281223
 20
13.3546406757
 11
8.7423281223
 21
-21.9358395557
  0
LWPOLYLINE
  5
2C0
100
AcDbEntity
  8
RACCORDO
100
AcDbPolyline
 62
253
  6
CONTINUOUS
 90
9
 70
0
 10
8.0506131593
 20
-22.2944632425
 10
8.0477377364
 20
-22.3364994375
 10
8.0411261978
 20
-22.3757831248
 10
8.0308509175
 20
-22.4118842792
 10
8.0170243757
 20
-22.4444077137
 10
7.9997979268
 20
-22.4729974052
 10
7.979360143
 20
-22.497340392
 10
7.9559347496
 20
-22.5171701998
 10
7.9365725396
 20
-22.528940835
  0
LWPOLYLINE
  5
2C1
100
AcDbEntity
  8
RACCORDO
100
AcDbPolyline
 62
253
  6
CONTINUOUS
 90
16
 70
0
 10
6.9842011602
 20
-13.0026239621
 10
6.9451030634
 20
-13.0227359275
 10
6.9027728269
 20
-13.0404162274
 10
6.8576589155
 20
-13.0554775493
 10
6.8102392851
 20
-13.0677603268
 10
6.7610163199
 20
-13.0771344312
 10
6.710511509
 20
-13.083500549
 10
6.6592599221
 20
-13.0867912348
 10
6.6078045405
 20
-13.0869716258
 10
6.5566905046
 20
-13.0840398108
 10
6.5064593385
 20
-13.0780268507
 10
6.4576432127
 20
-13.0689964494
 10
6.4107593063
 20
-13.0570442788
 10
6.3663043274
 20
-13.0422969654
 10
6.3247492513
 20
-13.0249107485
 10
6.2865343302
 20
-13.0050698252
  0
LINE
  5
2C2
100
AcDbEntity
  8
RACCORDO
100
AcDbLine
 62
253
  6
CONTINUOUS
 10
7.0076084155
 20
12.4853505674
 11
-7.861500905
 21
21.0705879353
  0
LINE
  5
2C3
100
AcDbEntity
  8
RACCORDO
100
AcDbLine
 62
253
  6
CONTINUOUS
 10
7.6971809226
 20
13.5674176854
 11
-7.1897521241
 21
22.1629462495
  0
LINE
  5
2C4
100
AcDbEntity
  8
0
100
AcDbLine
 62
7
  6
CONTINUOUS
 10
8.3888958856
 20
13.966803266
 11
-6.533339134
 21
22.5827147468
  0
LWPOLYLINE
  5
2C5
100
AcDbEntity
  8
RACCORDO
100
AcDbPolyline
 62
253
  6
CONTINUOUS
 90
16
 70
0
 10
7.7013709741
 20
-22.1387162115
 10
7.6626778213
 20
-22.1640793716
 10
7.6207472422
 20
-22.1869543121
 10
7.5760236186
 20
-22.2070986038
 10
7.5289809329
 20
-22.2242987568
 10
7.480117745
 20
-22.2383724832
 10
7.4299519087
 20
-22.2491706292
 10
7.3790150831
 20
-22.2565787558
 10
7.3278470984
 20
-22.2605183514
 10
7.2769902347
 20
-22.260947664
 10
7.2269834746
 20
-22.2578621436
 10
7.1783567915
 20
-22.2512944907
 10
7.1316255327
 20
-22.2413143097
 10
7.0872849575
 20
-22.228027371
 10
7.0458049888
 20
-22.2115744897
 10
7.0076252329
 20
-22.1921300342
  0
LINE
  5
2C6
100
AcDbEntity
  8
0
100
AcDbLine
 62
253
  6
CONTINUOUS
 10
8.0506131593
 20
-22.2944632425
 11
8.7423281223
 21
-21.9358395557
  0
LINE
  5
2C7
100
AcDbEntity
  8
RACCORDO
100
AcDbLine
 62
7
  6
CONTINUOUS
 10
7.9365725396
 20
-22.528940835
 11
8.6320516978
 21
-22.1683655791
  0
ELLIPSE
  5
2C8
100
AcDbEntity
  8
0
100
AcDbEllipse
 62
7
  6
CONTINUOUS
 10
-6.5330967846
 20
22.174199739
 30
0.0
 11
-0.2501834304
 21
0.4333025529
 31
0.0
 40
0.5769361983
 41
-0.7851038024
 42
0.0263715828
  0
ELLIPSE
  5
2C9
100
AcDbEntity
  8
0
100
AcDbEllipse
 62
7
  6
CONTINUOUS
 10
8.3886535362
 20
-21.7313524504
 30
0.0
 11
-0.2501834304
 21
0.4333025529
 31
0.0
 40
0.5769361983
 41
-3.1679635486
 42
-2.3565853618
  0
ELLIPSE
  5
2CA
100
AcDbEntity
  8
0
100
AcDbEllipse
 62
7
  6
CONTINUOUS
 10
8.3886535362
 20
13.5585681172
 30
0.0
 11
-0.2500121049
 21
0.4330057129
 31
0.0
 40
0.5777274115
 41
-2.3559002616
 42
-0.7857891675
  0
ENDSEC
  0
SECTION
  2
OBJECTS
  0
DICTIONARY
  5
C
100
AcDbDictionary
280
0
281
1
  3
ACAD_GROUP
350
D
  3
ACAD_MLINESTYLE
350
17
  3
ACAD_LAYOUT
350
1A
  3
ACAD_PLOTSETTINGS
350
19
  3
ACAD_PLOTSTYLENAME
350
E
  0
DICTIONARY
  5
D
102
{ACAD_REACTORS
330
C
102
}
100
AcDbDictionary
280
0
281
1
  0
ACDBDICTIONARYWDFLT
  5
E
102
{ACAD_REACTORS
330
C
102
}
100
AcDbDictionary
281
1
  3
Normal
350
F
100
AcDbDictionaryWithDefault
340
F
  0
DICTIONARY
  5
17
102
{ACAD_REACTORS
330
C
102
}
100
AcDbDictionary
280
0
281
1
  3
Standard
350
18
  0
DICTIONARY
  5
19
102
{ACAD_REACTORS
330
C
102
}
100
AcDbDictionary
281
1
  0
DICTIONARY
  5
1A
102
{ACAD_REACTORS
330
C
102
}
100
AcDbDictionary
281
1
  3
Model
350
2CB
  3
Layout1
350
2CC
  0
ACDBPLACEHOLDER
  5
F
102
{ACAD_REACTORS
330
E
102
}
  0
MLINESTYLE
  5
18
102
{ACAD_REACTORS
330
17
102
}
100
AcDbMlineStyle
  2
STANDARD
 70
0
  3

 62
256
 51
90.0
 52
90.0
 71
2
 49
0.5
 62
256
  6
BYLAYER
 49
-0.5
 62
256
  6
BYLAYER
  0
LAYOUT
  5
2CB
102
{ACAD_REACTORS
330
1A
102
}
100
AcDbPlotSettings
  1

  2
none_device
  4
ISO_A4_(297.00_x_210.00_MM)
  6

 40
0.0
 41
0.0
 42
0.0
 43
0.0
 44
297.0
 45
210.0
 46
0.0
 47
0.0
 48
0.0
 49
0.0
140
0.0
141
0.0
142
1.0
143
1.0
 70
1024
 72
1
 73
0
 74
0
  7

 75
0
147
1.0
148
0.0
149
0.0
100
AcDbLayout
  1
Model
 70
0
 71
0
 10
0.0
 20
0.0
 11
297.0
 21
210.0
 12
0.0
 22
0.0
 32
0.0
 14
0.0
 24
0.0
 34
0.0
 15
0.0
 25
0.0
 35
0.0
146
0.0
 13
0.0
 23
0.0
 33
0.0
 16
1.0
 26
0.0
 36
0.0
 17
0.0
 27
1.0
 37
0.0
 76
0
330
218
345
0
346
0
  0
LAYOUT
  5
2CC
102
{ACAD_REACTORS
330
1A
102
}
100
AcDbPlotSettings
  1

  2
none_device
  4
ISO_A4_(297.00_x_210.00_MM)
  6

 40
0.0
 41
0.0
 42
0.0
 43
0.0
 44
297.0
 45
210.0
 46
0.0
 47
0.0
 48
0.0
 49
0.0
140
0.0
141
0.0
142
1.0
143
1.0
 70
0
 72
1
 73
0
 74
0
  7

 75
0
147
1.0
148
0.0
149
0.0
100
AcDbLayout
  1
Layout1
 70
0
 71
1
 10
0.0
 20
0.0
 11
297.0
 21
210.0
 12
0.0
 22
0.0
 32
0.0
 14
0.0
 24
0.0
 34
0.0
 15
0.0
 25
0.0
 35
0.0
146
0.0
 13
0.0
 23
0.0
 33
0.0
 16
1.0
 26
0.0
 36
0.0
 17
0.0
 27
1.0
 37
0.0
 76
0
330
219
345
0
346
0
  0
ENDSEC
  0
EOF
