  0
SECTION
  2
HEADER
  9
$ACADVER
  1
AC1015
  9
$DWGCODEPAGE
  3
ANSI_1252
  9
$EXTMAX
 10
297.0
 20
210.0
 30
0.0
  9
$EXTMIN
 10
0.0
 20
0.0
 30
0.0
  9
$LIMMIN
 10
0.0
 20
0.0
  9
$LIMMAX
 10
297.0
 20
210.0
  9
$VIEWCTR
 10
148.5
 20
105.0
  9
$VIEWSIZE
 40
210.0
  9
$CLAYER
  8
0
  9
$LTSCALE
 40
16.335
  9
$CELTYPE
  6
BYLAYER
  9
$DIMSCALE
 40
1.0
  9
$DIMASZ
 40
3.0
  9
$DIMEXO
 40
0.5
  9
$DIMDLI
 40
11.286
  9
$DIMEXE
 40
1.5
  9
$DIMCEN
 40
2.673
  9
$DIMLFAC
 40
1.0
  9
$DIMBLK
  1
_FILLED
  9
$DIMTXT
 40
3.0
  9
$DIMTOL
 70
1
  9
$DIMLIM
 70
0
  9
$DIMTFAC
 40
1.0
  9
$DIMTP
 40
0.01
  9
$DIMTM
 40
0.01
  9
$DIMGAP
 40
0.625
  9
$DIMDSEP
 70
44
  9
$PDMODE
 70
3
  9
$PDSIZE
 40
3.0
  9
$HANDSEED
  5
361
  9
$TILEMODE
 70
1
  9
$MEASUREMENT
 70
1
  9
$INSUNITS
 70
4
  0
ENDSEC
  0
SECTION
  2
CLASSES
  0
CLASS
  1
ACDBDICTIONARYWDFLT
  2
AcDbDictionaryWithDefault
  3
AutoCAD 2000
 90
0
280
0
281
0
  0
CLASS
  1
ACDBPLACEHOLDER
  2
AcDbPlaceHolder
  3
AutoCAD 2000
 90
0
280
0
281
0
  0
CLASS
  1
LAYOUT
  2
AcDbLayout
  3
AutoCAD 2000
 90
0
280
0
281
0
  0
ENDSEC
  0
SECTION
  2
TABLES
  0
TABLE
  2
VPORT
  5
8
100
AcDbSymbolTable
 70
2
  0
VPORT
  5
1F4
100
AcDbSymbolTableRecord
100
AcDbViewportTableRecord
  2
*ACTIVE
 70
0
 10
0.0
 20
0.0
 11
1.0
 21
1.0
 12
148.5
 22
105.0
 13
0.0
 23
0.0
 14
1.0
 24
1.0
 15
0.0
 25
0.0
 16
0.0
 26
0.0
 36
1.0
 17
0.0
 27
0.0
 37
0.0
 40
210.0
 41
1.4142857143
 42
50.0
 43
0.0
 44
0.0
 50
0.0
 51
0.0
 71
0
 72
100
 73
1
 74
1
 75
0
 76
0
 77
0
 78
0
  0
ENDTAB
  0
TABLE
  2
LTYPE
  5
5
100
AcDbSymbolTable
 70
6
  0
LTYPE
  5
14
100
AcDbSymbolTableRecord
100
AcDbLinetypeTableRecord
  2
BYBLOCK
 70
0
  3

 72
65
 73
0
 40
0.0
  0
LTYPE
  5
15
100
AcDbSymbolTableRecord
100
AcDbLinetypeTableRecord
  2
BYLAYER
 70
0
  3

 72
65
 73
0
 40
0.0
  0
LTYPE
  5
16
100
AcDbSymbolTableRecord
100
AcDbLinetypeTableRecord
  2
CONTINUOUS
 70
64
  3
Solid line
 72
65
 73
0
 40
0.0
  0
LTYPE
  5
1F5
100
AcDbSymbolTableRecord
100
AcDbLinetypeTableRecord
  2
CENTER
 70
64
  3
____ _ ____ _ ____ _ ____ _ ____ _ ____ _ ____
 72
65
 73
4
 40
0.6
 49
0.375
 74
0
 49
-0.075
 74
0
 49
0.075
 74
0
 49
-0.075
 74
0
  0
LTYPE
  5
1F6
100
AcDbSymbolTableRecord
100
AcDbLinetypeTableRecord
  2
HIDDEN
 70
64
  3
- - - - - - - - - - - - - - - - - - - -
 72
65
 73
2
 40
0.2
 49
0.1
 74
0
 49
-0.1
 74
0
  0
LTYPE
  5
1F7
100
AcDbSymbolTableRecord
100
AcDbLinetypeTableRecord
  2
PHANTOM
 70
64
  3
_____ _ _ _____ _ _ _____ _ _ _____
 72
65
 73
6
 40
0.8
 49
0.45
 74
0
 49
-0.05
 74
0
 49
0.1
 74
0
 49
-0.05
 74
0
 49
0.1
 74
0
 49
-0.05
 74
0
  0
LTYPE
  5
1F8
100
AcDbSymbolTableRecord
100
AcDbLinetypeTableRecord
  2
DOT
 70
64
  3
. . . . . . . . . . . . . . . . . . . .
 72
65
 73
2
 40
0.2
 49
0.1
 74
0
 49
-0.1
 74
0
  0
LTYPE
  5
1F9
100
AcDbSymbolTableRecord
100
AcDbLinetypeTableRecord
  2
DASHED
 70
64
  3
- - - - - - - - - - - - - - - - - - - -
 72
65
 73
2
 40
0.2
 49
0.1
 74
0
 49
-0.1
 74
0
  0
ENDTAB
  0
TABLE
  2
LAYER
  5
2
100
AcDbSymbolTable
 70
36
  0
LAYER
  5
10
100
AcDbSymbolTableRecord
100
AcDbLayerTableRecord
  2
0
 70
0
 62
7
  6
CONTINUOUS
370
-3
390
F
  0
LAYER
  5
1FA
100
AcDbSymbolTableRecord
100
AcDbLayerTableRecord
  2
DEFAULT_1
 70
0
 62
7
  6
CENTER
370
-3
390
F
  0
LAYER
  5
1FB
100
AcDbSymbolTableRecord
100
AcDbLayerTableRecord
  2
DEFAULT_2
 70
0
 62
7
  6
HIDDEN
370
-3
390
F
  0
LAYER
  5
1FC
100
AcDbSymbolTableRecord
100
AcDbLayerTableRecord
  2
DEFAULT_3
 70
0
 62
7
  6
PHANTOM
370
-3
390
F
  0
LAYER
  5
1FD
100
AcDbSymbolTableRecord
100
AcDbLayerTableRecord
  2
641
 70
0
 62
7
  6
CONTINUOUS
370
-3
390
F
  0
LAYER
  5
1FE
100
AcDbSymbolTableRecord
100
AcDbLayerTableRecord
  2
641D_ASM
 70
0
 62
7
  6
CONTINUOUS
370
-3
390
F
  0
LAYER
  5
1FF
100
AcDbSymbolTableRecord
100
AcDbLayerTableRecord
  2
647______
 70
0
 62
7
  6
CONTINUOUS
370
-3
390
F
  0
LAYER
  5
200
100
AcDbSymbolTableRecord
100
AcDbLayerTableRecord
  2
ASSI
 70
0
 62
7
  6
CONTINUOUS
370
-3
390
F
  0
LAYER
  5
201
100
AcDbSymbolTableRecord
100
AcDbLayerTableRecord
  2
COORDINATE
 70
0
 62
7
  6
CONTINUOUS
370
-3
390
F
  0
LAYER
  5
202
100
AcDbSymbolTableRecord
100
AcDbLayerTableRecord
  2
COPY_PUBLISH
 70
0
 62
7
  6
CONTINUOUS
370
-3
390
F
  0
LAYER
  5
203
100
AcDbSymbolTableRecord
100
AcDbLayerTableRecord
  2
COSMETICI
 70
0
 62
7
  6
CONTINUOUS
370
-3
390
F
  0
LAYER
  5
204
100
AcDbSymbolTableRecord
100
AcDbLayerTableRecord
  2
CURVE
 70
0
 62
7
  6
CONTINUOUS
370
-3
390
F
  0
LAYER
  5
205
100
AcDbSymbolTableRecord
100
AcDbLayerTableRecord
  2
DRAFT
 70
0
 62
7
  6
CONTINUOUS
370
-3
390
F
  0
LAYER
  5
206
100
AcDbSymbolTableRecord
100
AcDbLayerTableRecord
  2
IMPORT_IGES
 70
0
 62
7
  6
CONTINUOUS
370
-3
390
F
  0
LAYER
  5
207
100
AcDbSymbolTableRecord
100
AcDbLayerTableRecord
  2
INTF_1
 70
0
 62
7
  6
CONTINUOUS
370
-3
390
F
  0
LAYER
  5
208
100
AcDbSymbolTableRecord
100
AcDbLayerTableRecord
  2
INTF_641
 70
0
 62
7
  6
CONTINUOUS
370
-3
390
F
  0
LAYER
  5
209
100
AcDbSymbolTableRecord
100
AcDbLayerTableRecord
  2
NONE
 70
0
 62
7
  6
CONTINUOUS
370
-3
390
F
  0
LAYER
  5
20A
100
AcDbSymbolTableRecord
100
AcDbLayerTableRecord
  2
NONE_1
 70
0
 62
7
  6
CONTINUOUS
370
-3
390
F
  0
LAYER
  5
20B
100
AcDbSymbolTableRecord
100
AcDbLayerTableRecord
  2
NONE_2
 70
0
 62
7
  6
CONTINUOUS
370
-3
390
F
  0
LAYER
  5
20C
100
AcDbSymbolTableRecord
100
AcDbLayerTableRecord
  2
NONE_3
 70
0
 62
7
  6
CONTINUOUS
370
-3
390
F
  0
LAYER
  5
20D
100
AcDbSymbolTableRecord
100
AcDbLayerTableRecord
  2
NOTE
 70
0
 62
7
  6
CONTINUOUS
370
-3
390
F
  0
LAYER
  5
20E
100
AcDbSymbolTableRecord
100
AcDbLayerTableRecord
  2
PIANI
 70
0
 62
7
  6
CONTINUOUS
370
-3
390
F
  0
LAYER
  5
20F
100
AcDbSymbolTableRecord
100
AcDbLayerTableRecord
  2
PUNTI
 70
0
 62
7
  6
CONTINUOUS
370
-3
390
F
  0
LAYER
  5
210
100
AcDbSymbolTableRecord
100
AcDbLayerTableRecord
  2
RACCORDO
 70
0
 62
7
  6
CONTINUOUS
370
-3
390
F
  0
LAYER
  5
211
100
AcDbSymbolTableRecord
100
AcDbLayerTableRecord
  2
SIMBOLI
 70
0
 62
7
  6
CONTINUOUS
370
-3
390
F
  0
LAYER
  5
212
100
AcDbSymbolTableRecord
100
AcDbLayerTableRecord
  2
SMUSSO
 70
0
 62
7
  6
CONTINUOUS
370
-3
390
F
  0
LAYER
  5
213
100
AcDbSymbolTableRecord
100
AcDbLayerTableRecord
  2
SNAPLINE
 70
0
 62
7
  6
CONTINUOUS
370
-3
390
F
  0
LAYER
  5
214
100
AcDbSymbolTableRecord
100
AcDbLayerTableRecord
  2
SUPERFICI
 70
0
 62
7
  6
CONTINUOUS
370
-3
390
F
  0
LAYER
  5
215
100
AcDbSymbolTableRecord
100
AcDbLayerTableRecord
  2
TRASH
 70
0
 62
7
  6
CONTINUOUS
370
-3
390
F
  0
LAYER
  5
216
100
AcDbSymbolTableRecord
100
AcDbLayerTableRecord
  2
___SHELL
 70
0
 62
7
  6
CONTINUOUS
370
-3
390
F
  0
LAYER
  5
217
100
AcDbSymbolTableRecord
100
AcDbLayerTableRecord
  2
___W
 70
0
 62
7
  6
CONTINUOUS
370
-3
390
F
  0
LAYER
  5
218
100
AcDbSymbolTableRecord
100
AcDbLayerTableRecord
  2
___W3
 70
0
 62
7
  6
CONTINUOUS
370
-3
390
F
  0
LAYER
  5
219
100
AcDbSymbolTableRecord
100
AcDbLayerTableRecord
  2
___W3_1
 70
0
 62
7
  6
CONTINUOUS
370
-3
390
F
  0
LAYER
  5
21A
100
AcDbSymbolTableRecord
100
AcDbLayerTableRecord
  2
___W3_2
 70
0
 62
7
  6
CONTINUOUS
370
-3
390
F
  0
LAYER
  5
21B
100
AcDbSymbolTableRecord
100
AcDbLayerTableRecord
  2
___W3_3
 70
0
 62
7
  6
CONTINUOUS
370
-3
390
F
  0
LAYER
  5
21C
100
AcDbSymbolTableRecord
100
AcDbLayerTableRecord
  2
___W_1
 70
0
 62
7
  6
CONTINUOUS
370
-3
390
F
  0
LAYER
  5
21D
100
AcDbSymbolTableRecord
100
AcDbLayerTableRecord
  2
___W_2
 70
0
 62
7
  6
CONTINUOUS
370
-3
390
F
  0
LAYER
  5
21E
100
AcDbSymbolTableRecord
100
AcDbLayerTableRecord
  2
___W_3
 70
0
 62
7
  6
CONTINUOUS
370
-3
390
F
  0
ENDTAB
  0
TABLE
  2
STYLE
  5
3
100
AcDbSymbolTable
 70
1
  0
STYLE
  5
11
100
AcDbSymbolTableRecord
100
AcDbTextStyleTableRecord
  2
STANDARD
 70
0
 40
0.0
 41
0.8
 50
0.0
 71
0
 42
0.2
  3
txt
  4

  0
STYLE
  5
21F
100
AcDbSymbolTableRecord
100
AcDbTextStyleTableRecord
  2
TEXTSTYLE_1
 70
0
 40
0.0
 41
0.8
 50
0.0
 71
0
 42
0.2
  3
gdt
  4

  0
ENDTAB
  0
TABLE
  2
VIEW
  5
6
100
AcDbSymbolTable
 70
0
  0
ENDTAB
  0
TABLE
  2
UCS
  5
7
100
AcDbSymbolTable
 70
0
  0
ENDTAB
  0
TABLE
  2
APPID
  5
9
100
AcDbSymbolTable
 70
1
  0
APPID
  5
220
100
AcDbSymbolTableRecord
100
AcDbRegAppTableRecord
  2
ACAD
 70
0
  0
ENDTAB
  0
TABLE
  2
BLOCK_RECORD
  5
1
100
AcDbSymbolTable
 70
0
  0
BLOCK_RECORD
  5
221
100
AcDbSymbolTableRecord
100
AcDbBlockTableRecord
  2
*Model_Space
  0
BLOCK_RECORD
  5
222
100
AcDbSymbolTableRecord
100
AcDbBlockTableRecord
  2
*Paper_Space
  0
ENDTAB
  0
TABLE
  2
DIMSTYLE
  5
A
100
AcDbSymbolTable
 70
1
100
AcDbDimStyleTable
 71
0
  0
DIMSTYLE
105
223
100
AcDbSymbolTableRecord
100
AcDbDimStyleTableRecord
  2
STANDARD
 70
0
  3

  4

 40
1.0
 41
3.0
 42
0.5
 43
0.38
 44
1.5
 45
0.0
 46
0.0
 47
0.01
 48
0.01
140
3.0
141
0.09
142
0.0
143
25.4
144
1.0
145
0.0
146
1.0
147
0.625
 71
1.0
 72
0.0
 73
0
 74
0
 75
0
 76
0
 77
1
 78
8
170
0
171
2
172
0
173
0
174
0
175
0
176
0
177
0
178
0
270
2
271
2
272
2
273
2
274
2
275
0
280
0
281
0
282
0
283
1
284
8
285
0
286
0
287
3
288
0
340
11
278
44
  0
ENDTAB
  0
ENDSEC
  0
SECTION
  2
BLOCKS
  0
BLOCK
  5
20
100
AcDbEntity
  8
0
100
AcDbBlockBegin
  2
*Model_Space
 70
0
 10
0.0
 20
0.0
 30
0.0
  3
*Model_Space
  1

  0
ENDBLK
  5
21
100
AcDbEntity
  8
0
100
AcDbBlockEnd
  0
BLOCK
  5
1C
100
AcDbEntity
  8
0
100
AcDbBlockBegin
  2
*Paper_Space
 70
0
 10
0.0
 20
0.0
 30
0.0
  3
*Paper_Space
  1

  0
ENDBLK
  5
1D
100
AcDbEntity
  8
0
100
AcDbBlockEnd
  0
ENDSEC
  0
SECTION
  2
ENTITIES
  0
LWPOLYLINE
  5
224
100
AcDbEntity
  8
RACCORDO
100
AcDbPolyline
 62
253
  6
CONTINUOUS
 90
17
 70
0
 10
103.6726618213
 20
116.1061293214
 10
103.6711670037
 20
116.0196960825
 10
103.678015619
 20
115.8346052767
 10
103.6985427038
 20
115.6498399231
 10
103.7326918527
 20
115.4659064118
 10
103.7803691843
 20
115.2833101758
 10
103.8414440313
 20
115.1025509166
 10
103.9157494811
 20
114.9241212051
 10
104.0030825986
 20
114.7485105257
 10
104.1032039501
 20
114.5762013563
 10
104.2158384825
 20
114.4076644063
 10
104.34067687
 20
114.2433637559
 10
104.4773775679
 20
114.0837498634
 10
104.6255671955
 20
113.9292558874
 10
104.7848404289
 20
113.7803050338
 10
104.9547607699
 20
113.6373092485
 10
105.1348629045
 20
113.5006623897
  0
LINE
  5
225
100
AcDbEntity
  8
RACCORDO
100
AcDbLine
 62
7
  6
CONTINUOUS
 10
103.6726885407
 20
116.1068980902
 11
103.1717385161
 21
101.7571942459
  0
LINE
  5
226
100
AcDbEntity
  8
RACCORDO
100
AcDbLine
 62
253
  6
CONTINUOUS
 10
105.1348629045
 20
113.5006623897
 11
104.6345849749
 21
99.170210693
  0
LINE
  5
227
100
AcDbEntity
  8
RACCORDO
100
AcDbLine
 62
7
  6
CONTINUOUS
 10
104.6345849749
 20
99.170210693
 11
132.9693035593
 21
79.1345390389
  0
LINE
  5
228
100
AcDbEntity
  8
DRAFT
100
AcDbLine
 62
7
  6
CONTINUOUS
 10
111.5434296105
 20
95.7340434932
 11
111.9112389789
 21
106.269935793
  0
LINE
  5
229
100
AcDbEntity
  8
RACCORDO
100
AcDbLine
 62
7
  6
CONTINUOUS
 10
104.683955354
 20
100.5844242554
 11
111.7555616448
 21
95.5840434933
  0
LINE
  5
22A
100
AcDbEntity
  8
RACCORDO
100
AcDbLine
 62
7
  6
CONTINUOUS
 10
125.8976972685
 20
85.5840434933
 11
132.9693035593
 21
80.5836627311
  0
LINE
  5
22B
100
AcDbEntity
  8
DRAFT
100
AcDbLine
 62
7
  6
CONTINUOUS
 10
115.5917391524
 20
103.667455005
 11
115.6680258714
 21
99.2966589272
  0
LINE
  5
22C
100
AcDbEntity
  8
DRAFT
100
AcDbLine
 62
7
  6
CONTINUOUS
 10
114.5686477329
 20
104.2459503822
 11
114.5192735938
 21
98.4843684018
  0
LINE
  5
22D
100
AcDbEntity
  8
DRAFT
100
AcDbLine
 62
7
  6
CONTINUOUS
 10
112.1184339312
 20
105.9785131767
 11
111.7555616448
 21
95.5840434933
  0
LINE
  5
22E
100
AcDbEntity
  8
DRAFT
100
AcDbLine
 62
7
  6
CONTINUOUS
 10
123.2993760895
 20
92.2758983876
 11
114.5192735938
 21
98.4843684018
  0
LINE
  5
22F
100
AcDbEntity
  8
DRAFT
100
AcDbLine
 62
7
  6
CONTINUOUS
 10
123.3408860793
 20
93.8711274431
 11
115.6680258714
 21
99.2966589272
  0
LINE
  5
230
100
AcDbEntity
  8
IMPORT_IGES
100
AcDbLine
 62
253
  6
CONTINUOUS
 10
116.2103343662
 20
99.6837909616
 11
123.3605758837
 21
94.6278066974
  0
LINE
  5
231
100
AcDbEntity
  8
IMPORT_IGES
100
AcDbLine
 62
7
  6
CONTINUOUS
 10
123.3789727453
 20
95.3347981519
 11
117.1790706565
 21
99.7187909616
  0
LINE
  5
232
100
AcDbEntity
  8
IMPORT_IGES
100
AcDbLine
 62
7
  6
CONTINUOUS
 10
117.4654489029
 20
99.6119406731
 11
118.4235785914
 21
98.9344406731
  0
LINE
  5
233
100
AcDbEntity
  8
IMPORT_IGES
100
AcDbLine
 62
7
  6
CONTINUOUS
 10
118.777131982
 20
98.6844406731
 11
119.1448275082
 21
98.4244406731
  0
LINE
  5
234
100
AcDbEntity
  8
IMPORT_IGES
100
AcDbLine
 62
7
  6
CONTINUOUS
 10
119.4983808988
 20
98.1744406731
 11
119.866076425
 21
97.9144406731
  0
LINE
  5
235
100
AcDbEntity
  8
IMPORT_IGES
100
AcDbLine
 62
7
  6
CONTINUOUS
 10
120.2196298156
 20
97.6644406731
 11
120.5873253418
 21
97.4044406731
  0
LINE
  5
236
100
AcDbEntity
  8
IMPORT_IGES
100
AcDbLine
 62
7
  6
CONTINUOUS
 10
120.9408787324
 20
97.1544406731
 11
121.3085742586
 21
96.8944406731
  0
LINE
  5
237
100
AcDbEntity
  8
IMPORT_IGES
100
AcDbLine
 62
7
  6
CONTINUOUS
 10
121.6621276492
 20
96.6444406731
 11
122.0298231754
 21
96.3844406731
  0
LINE
  5
238
100
AcDbEntity
  8
IMPORT_IGES
100
AcDbLine
 62
7
  6
CONTINUOUS
 10
122.383376566
 20
96.1344406731
 11
122.7510720922
 21
95.8744406731
  0
LINE
  5
239
100
AcDbEntity
  8
IMPORT_IGES
100
AcDbLine
 62
7
  6
CONTINUOUS
 10
123.1046254828
 20
95.6244406731
 11
123.3814167098
 21
95.4287197195
  0
LWPOLYLINE
  5
23A
100
AcDbEntity
  8
IMPORT_IGES
100
AcDbPolyline
 62
253
  6
CONTINUOUS
 90
7
 70
0
 10
120.062026296
 20
98.5729981557
 10
120.0456554094
 20
98.5883510615
 10
120.0210333478
 20
98.6103566389
 10
119.9953840558
 20
98.6322310057
 10
119.9693100023
 20
98.6534343103
 10
119.9433672886
 20
98.673488285
 10
119.9181768197
 20
98.6918838373
  0
LWPOLYLINE
  5
23B
100
AcDbEntity
  8
IMPORT_IGES
100
AcDbPolyline
 62
253
  6
CONTINUOUS
 90
7
 70
0
 10
121.5045241296
 20
97.5529981557
 10
121.488153243
 20
97.5683510615
 10
121.4635311814
 20
97.5903566389
 10
121.4378818895
 20
97.6122310057
 10
121.4118078359
 20
97.6334343103
 10
121.3858651223
 20
97.653488285
 10
121.3606746533
 20
97.6718838373
  0
LWPOLYLINE
  5
23C
100
AcDbEntity
  8
IMPORT_IGES
100
AcDbPolyline
 62
253
  6
CONTINUOUS
 90
7
 70
0
 10
122.9470219633
 20
96.5329981557
 10
122.9306510766
 20
96.5483510615
 10
122.906029015
 20
96.5703566389
 10
122.8803797231
 20
96.5922310057
 10
122.8543056695
 20
96.6134343103
 10
122.8283629559
 20
96.633488285
 10
122.8031724869
 20
96.6518838373
  0
LINE
  5
23D
100
AcDbEntity
  8
IMPORT_IGES
100
AcDbLine
 62
253
  6
CONTINUOUS
 10
116.2103343662
 20
103.230046478
 11
116.2103343662
 21
99.6837909616
  0
LINE
  5
23E
100
AcDbEntity
  8
IMPORT_IGES
100
AcDbLine
 62
7
  6
CONTINUOUS
 10
117.4654489029
 20
99.5162909616
 11
117.4654489029
 21
99.6119406731
  0
LINE
  5
23F
100
AcDbEntity
  8
IMPORT_IGES
100
AcDbLine
 62
253
  6
CONTINUOUS
 10
118.0488119973
 20
103.9588226761
 11
118.0488119973
 21
103.6517364814
  0
LINE
  5
240
100
AcDbEntity
  8
IMPORT_IGES
100
AcDbLine
 62
7
  6
CONTINUOUS
 10
118.4235785914
 20
98.9344406731
 11
118.4235785914
 21
98.8387909616
  0
LINE
  5
241
100
AcDbEntity
  8
IMPORT_IGES
100
AcDbLine
 62
7
  6
CONTINUOUS
 10
118.777131982
 20
98.5887909616
 11
118.777131982
 21
98.6844406731
  0
LINE
  5
242
100
AcDbEntity
  8
IMPORT_IGES
100
AcDbLine
 62
7
  6
CONTINUOUS
 10
119.1448275082
 20
98.4244406731
 11
119.1448275082
 21
98.3287909616
  0
LINE
  5
243
100
AcDbEntity
  8
IMPORT_IGES
100
AcDbLine
 62
7
  6
CONTINUOUS
 10
119.4983808988
 20
98.0787909616
 11
119.4983808988
 21
98.1744406731
  0
LINE
  5
244
100
AcDbEntity
  8
IMPORT_IGES
100
AcDbLine
 62
7
  6
CONTINUOUS
 10
119.866076425
 20
97.9144406731
 11
119.866076425
 21
97.8187909616
  0
LINE
  5
245
100
AcDbEntity
  8
DRAFT
100
AcDbLine
 62
7
  6
CONTINUOUS
 10
116.6614751413
 20
104.0703437595
 11
116.6417269896
 21
102.9250088577
  0
LINE
  5
246
100
AcDbEntity
  8
DRAFT
100
AcDbLine
 62
7
  6
CONTINUOUS
 10
117.4187483753
 20
104.4043449359
 11
117.4039372615
 21
103.5453437595
  0
LINE
  5
247
100
AcDbEntity
  8
DRAFT
100
AcDbLine
 62
7
  6
CONTINUOUS
 10
117.6330968168
 20
103.707384035
 11
117.6316764833
 21
103.6250088577
  0
LWPOLYLINE
  5
248
100
AcDbEntity
  8
RACCORDO
100
AcDbPolyline
 62
7
  6
CONTINUOUS
 90
19
 70
0
 10
105.6273145931
 20
119.655828338
 10
105.4986966787
 20
119.5616806915
 10
105.300412719
 20
119.403172215
 10
105.1119967762
 20
119.2355842147
 10
104.9339752674
 20
119.0595236575
 10
104.7666097722
 20
118.8754461219
 10
104.6100767135
 20
118.6836996558
 10
104.4648010866
 20
118.4849303217
 10
104.3310899916
 20
118.2797469826
 10
104.2090702717
 20
118.0685208145
 10
104.0990928078
 20
117.8520073931
 10
104.001406008
 20
117.6308982182
 10
103.9160486382
 20
117.4055168579
 10
103.843244357
 20
117.1766772907
 10
103.7831339856
 20
116.9451212209
 10
103.7357128925
 20
116.7110784119
 10
103.7010588961
 20
116.4751565658
 10
103.6792517933
 20
116.2383407362
 10
103.6726600216
 20
116.1060239481
  0
LINE
  5
249
100
AcDbEntity
  8
RACCORDO
100
AcDbLine
 62
7
  6
CONTINUOUS
 10
105.6275283894
 20
119.6559825237
 11
105.6273131955
 21
119.6558303138
  0
LINE
  5
24A
100
AcDbEntity
  8
IMPORT_IGES
100
AcDbLine
 62
7
  6
CONTINUOUS
 10
117.6327600244
 20
103.687851066
 11
117.6383822001
 21
103.6840922858
  0
LWPOLYLINE
  5
24B
100
AcDbEntity
  8
IMPORT_IGES
100
AcDbPolyline
 62
253
  6
CONTINUOUS
 90
8
 70
0
 10
122.0818113966
 20
97.161963156
 10
122.0591515206
 20
97.1774497898
 10
122.0381662402
 20
97.1906659797
 10
122.0194202707
 20
97.2012034793
 10
122.0033348374
 20
97.208745382
 10
121.9906120955
 20
97.2128653721
 10
121.9818928825
 20
97.2133520018
 10
121.9778565104
 20
97.2112162429
  0
LWPOLYLINE
  5
24C
100
AcDbEntity
  8
IMPORT_IGES
100
AcDbPolyline
 62
253
  6
CONTINUOUS
 90
8
 70
0
 10
120.639313563
 20
98.181963156
 10
120.616653687
 20
98.1974497898
 10
120.5956684066
 20
98.2106659797
 10
120.5769224371
 20
98.2212034793
 10
120.5608370037
 20
98.228745382
 10
120.5481142619
 20
98.2328653721
 10
120.5393950489
 20
98.2333520018
 10
120.5353586751
 20
98.2312162409
  0
LWPOLYLINE
  5
24D
100
AcDbEntity
  8
IMPORT_IGES
100
AcDbPolyline
 62
253
  6
CONTINUOUS
 90
8
 70
0
 10
119.1968157294
 20
99.201963156
 10
119.1741558534
 20
99.2174497898
 10
119.153170573
 20
99.2306659797
 10
119.1344246034
 20
99.2412034793
 10
119.1183391701
 20
99.248745382
 10
119.1056164282
 20
99.2528653721
 10
119.0968972153
 20
99.2533520018
 10
119.0928608415
 20
99.2512162409
  0
LINE
  5
24E
100
AcDbEntity
  8
IMPORT_IGES
100
AcDbLine
 62
253
  6
CONTINUOUS
 10
120.1052102494
 20
99.7453475243
 11
120.1913455443
 21
99.6844406731
  0
LINE
  5
24F
100
AcDbEntity
  8
IMPORT_IGES
100
AcDbLine
 62
253
  6
CONTINUOUS
 10
120.8264591663
 20
99.2353475243
 11
120.9125944611
 21
99.1744406731
  0
LINE
  5
250
100
AcDbEntity
  8
IMPORT_IGES
100
AcDbLine
 62
253
  6
CONTINUOUS
 10
121.5477080831
 20
98.7253475243
 11
121.6338433779
 21
98.6644406731
  0
LINE
  5
251
100
AcDbEntity
  8
IMPORT_IGES
100
AcDbLine
 62
253
  6
CONTINUOUS
 10
122.2689569999
 20
98.2153475243
 11
122.3550922948
 21
98.1544406731
  0
LINE
  5
252
100
AcDbEntity
  8
IMPORT_IGES
100
AcDbLine
 62
253
  6
CONTINUOUS
 10
122.9902059167
 20
97.7053475243
 11
123.0763412116
 21
97.6444406731
  0
LINE
  5
253
100
AcDbEntity
  8
DRAFT
100
AcDbLine
 62
7
  6
CONTINUOUS
 10
112.1184339312
 20
105.9785131767
 11
114.5686477329
 21
104.2459503822
  0
LINE
  5
254
100
AcDbEntity
  8
DRAFT
100
AcDbLine
 62
7
  6
CONTINUOUS
 10
123.4474834668
 20
97.9676654257
 11
125.8976972685
 21
96.2351026311
  0
LINE
  5
255
100
AcDbEntity
  8
DRAFT
100
AcDbLine
 62
7
  6
CONTINUOUS
 10
126.1098293027
 20
96.2300162917
 11
121.3793424236
 21
99.5750088577
  0
LINE
  5
256
100
AcDbEntity
  8
DRAFT
100
AcDbLine
 62
7
  6
CONTINUOUS
 10
116.6417269896
 20
102.9250088577
 11
111.9112389789
 21
106.269935793
  0
LINE
  5
257
100
AcDbEntity
  8
DRAFT
100
AcDbLine
 62
7
  6
CONTINUOUS
 10
121.3990905752
 20
100.7203437595
 11
120.656628455
 21
101.2453437595
  0
LINE
  5
258
100
AcDbEntity
  8
DRAFT
100
AcDbLine
 62
7
  6
CONTINUOUS
 10
117.4039372615
 20
103.5453437595
 11
116.6614751413
 21
104.0703437595
  0
LWPOLYLINE
  5
259
100
AcDbEntity
  8
IMPORT_IGES
100
AcDbPolyline
 62
253
  6
CONTINUOUS
 90
7
 70
0
 10
119.1969279029
 20
99.2018838373
 10
119.2213688703
 20
99.1840515505
 10
119.2467691682
 20
99.1644579551
 10
119.2725627654
 20
99.1435389107
 10
119.2981762707
 20
99.1217585595
 10
119.3230351927
 20
99.0996045233
 10
119.3407810227
 20
99.0830007321
  0
LWPOLYLINE
  5
25A
100
AcDbEntity
  8
IMPORT_IGES
100
AcDbPolyline
 62
253
  6
CONTINUOUS
 90
7
 70
0
 10
120.6394257365
 20
98.1818838373
 10
120.6638667039
 20
98.1640515505
 10
120.6892670018
 20
98.1444579551
 10
120.715060599
 20
98.1235389107
 10
120.7406741044
 20
98.1017585595
 10
120.7655330264
 20
98.0796045233
 10
120.7832788564
 20
98.0630007321
  0
LWPOLYLINE
  5
25B
100
AcDbEntity
  8
IMPORT_IGES
100
AcDbPolyline
 62
253
  6
CONTINUOUS
 90
7
 70
0
 10
122.0819235701
 20
97.1618838373
 10
122.1063645376
 20
97.1440515505
 10
122.1317648354
 20
97.1244579551
 10
122.1575584326
 20
97.1035389107
 10
122.183171938
 20
97.0817585595
 10
122.20803086
 20
97.0596045233
 10
122.22577669
 20
97.0430007321
  0
LINE
  5
25C
100
AcDbEntity
  8
IMPORT_IGES
100
AcDbLine
 62
7
  6
CONTINUOUS
 10
120.2196298156
 20
97.5687909616
 11
120.2196298156
 21
97.6644406731
  0
LINE
  5
25D
100
AcDbEntity
  8
IMPORT_IGES
100
AcDbLine
 62
7
  6
CONTINUOUS
 10
120.5873253418
 20
97.4044406731
 11
120.5873253418
 21
97.3087909616
  0
LINE
  5
25E
100
AcDbEntity
  8
IMPORT_IGES
100
AcDbLine
 62
7
  6
CONTINUOUS
 10
120.9408787324
 20
97.0587909616
 11
120.9408787324
 21
97.1544406731
  0
LINE
  5
25F
100
AcDbEntity
  8
IMPORT_IGES
100
AcDbLine
 62
7
  6
CONTINUOUS
 10
121.3085742586
 20
96.8944406731
 11
121.3085742586
 21
96.7987909616
  0
LINE
  5
260
100
AcDbEntity
  8
IMPORT_IGES
100
AcDbLine
 62
7
  6
CONTINUOUS
 10
121.6621276492
 20
96.5487909616
 11
121.6621276492
 21
96.6444406731
  0
LINE
  5
261
100
AcDbEntity
  8
IMPORT_IGES
100
AcDbLine
 62
7
  6
CONTINUOUS
 10
122.0298231754
 20
96.3844406731
 11
122.0298231754
 21
96.2887909616
  0
LINE
  5
262
100
AcDbEntity
  8
IMPORT_IGES
100
AcDbLine
 62
7
  6
CONTINUOUS
 10
122.383376566
 20
96.0387909616
 11
122.383376566
 21
96.1344406731
  0
LINE
  5
263
100
AcDbEntity
  8
IMPORT_IGES
100
AcDbLine
 62
7
  6
CONTINUOUS
 10
122.7510720922
 20
95.8744406731
 11
122.7510720922
 21
95.7787909616
  0
LINE
  5
264
100
AcDbEntity
  8
IMPORT_IGES
100
AcDbLine
 62
7
  6
CONTINUOUS
 10
123.1046254828
 20
95.5287909616
 11
123.1046254828
 21
95.6244406731
  0
LINE
  5
265
100
AcDbEntity
  8
DRAFT
100
AcDbLine
 62
7
  6
CONTINUOUS
 10
120.656628455
 20
101.2453437595
 11
120.6714395687
 21
102.1043449359
  0
LINE
  5
266
100
AcDbEntity
  8
DRAFT
100
AcDbLine
 62
7
  6
CONTINUOUS
 10
121.3793424236
 20
99.5750088577
 11
121.3990905752
 21
100.7203437595
  0
LWPOLYLINE
  5
267
100
AcDbEntity
  8
RACCORDO
100
AcDbPolyline
 62
253
  6
CONTINUOUS
 90
31
 70
0
 10
107.821459429
 20
119.2403012965
 10
107.7781010133
 20
119.2079733878
 10
107.7373800081
 20
119.1742668818
 10
107.6992964134
 20
119.1391817785
 10
107.6637540651
 20
119.1026099767
 10
107.6308491274
 20
119.0646595776
 10
107.6008700926
 20
119.0256548845
 10
107.5738472317
 20
118.9855917534
 10
107.5497502738
 20
118.9444743282
 10
107.5287768986
 20
118.9026393442
 10
107.5109529057
 20
118.8600810701
 10
107.4962524954
 20
118.8168052372
 10
107.4847959481
 20
118.7731657744
 10
107.476609801
 20
118.7291595356
 10
107.4716675168
 20
118.684789667
 10
107.4700097648
 20
118.6404195353
 10
107.4716635952
 20
118.5960490537
 10
107.4766019577
 20
118.5516783091
 10
107.4847843698
 20
118.5076709295
 10
107.4962374374
 20
118.4640300902
 10
107.5109345546
 20
118.4207526159
 10
107.5287554218
 20
118.3781926083
 10
107.5497258063
 20
118.3363558357
 10
107.5738199408
 20
118.2952365298
 10
107.6008402236
 20
118.2551714882
 10
107.630815469
 20
118.2161659516
 10
107.6637168626
 20
118.1782146794
 10
107.6992603598
 20
118.1416387468
 10
107.7373512792
 20
118.1065451789
 10
107.7780843023
 20
118.0728269508
 10
107.821459429
 20
118.0404840623
  0
LWPOLYLINE
  5
268
100
AcDbEntity
  8
RACCORDO
100
AcDbPolyline
 62
253
  6
CONTINUOUS
 90
28
 70
0
 10
107.821459429
 20
118.0404840623
 10
107.6669579618
 20
117.9267894716
 10
107.5129677289
 20
117.8045799774
 10
107.3599982731
 20
117.674259962
 10
107.2085557595
 20
117.5362606452
 10
107.0591413005
 20
117.3910386569
 10
106.9122492979
 20
117.2390745264
 10
106.768365807
 20
117.080871092
 10
106.6279669279
 20
116.9169518378
 10
106.4915172307
 20
116.7478591608
 10
106.3594682175
 20
116.5741525768
 10
106.2322568293
 20
116.3964068684
 10
106.1103039994
 20
116.2152101835
 10
105.994013261
 20
116.0311620891
 10
105.8837694121
 20
115.8448715873
 10
105.7799372415
 20
115.6569551
 10
105.6828603226
 20
115.4680344295
 10
105.5928598761
 20
115.278734701
 10
105.5102337068
 20
115.0896822936
 10
105.4352552191
 20
114.9015027685
 10
105.3681725113
 20
114.7148187982
 10
105.3092075555
 20
114.5302481068
 10
105.2585554623
 20
114.3484014255
 10
105.216383836
 20
114.169880472
 10
105.1828322195
 20
113.9952759595
 10
105.1580116328
 20
113.825165642
 10
105.1420042053
 20
113.6601124022
 10
105.1348629045
 20
113.5006623897
  0
LINE
  5
269
100
AcDbEntity
  8
RACCORDO
100
AcDbLine
 62
7
  6
CONTINUOUS
 10
153.2610648017
 20
153.3379791219
 11
105.6275283864
 21
119.6559825216
  0
LINE
  5
26A
100
AcDbEntity
  8
RACCORDO
100
AcDbLine
 62
253
  6
CONTINUOUS
 10
155.454889957
 20
152.922223034
 11
107.821459429
 21
119.2403012965
  0
LWPOLYLINE
  5
26B
100
AcDbEntity
  8
RACCORDO
100
AcDbPolyline
 62
253
  6
CONTINUOUS
 90
18
 70
0
 10
157.151687762
 20
152.922223034
 10
157.3061891546
 20
153.0270264692
 10
157.4601793194
 20
153.1225920181
 10
157.6131487143
 20
153.2086034605
 10
157.7645911746
 20
153.2847761897
 10
157.9140055883
 20
153.3508581546
 10
158.0608975538
 20
153.4066306938
 10
158.2047810162
 20
153.4519092589
 10
158.345179875
 20
153.4865440252
 10
158.4816295602
 20
153.5104203874
 10
158.6136785692
 20
153.5234593392
 10
158.7408899608
 20
153.5256177345
 10
158.8628428009
 20
153.5168884299
 10
158.9791335557
 20
153.4973003089
 10
159.0893774266
 20
153.4669181861
 10
159.1932096236
 20
153.4258425927
 10
159.2902865726
 20
153.3742094437
 10
159.345492015
 20
153.3379938974
  0
LWPOLYLINE
  5
26C
100
AcDbEntity
  8
IMPORT_IGES
100
AcDbPolyline
 62
7
  6
CONTINUOUS
 90
9
 70
0
 10
117.690816752
 20
103.6541054444
 10
117.7426585498
 20
103.6307607984
 10
117.7934721489
 20
103.6143877073
 10
117.842909908
 20
103.6049578376
 10
117.8903249613
 20
103.6021518922
 10
117.9349364194
 20
103.6057595913
 10
117.9763151324
 20
103.6154547342
 10
118.0143354406
 20
103.6308911675
 10
118.0488119973
 20
103.6517364814
  0
LINE
  5
26D
100
AcDbEntity
  8
IMPORT_IGES
100
AcDbLine
 62
7
  6
CONTINUOUS
 10
117.6383822001
 20
103.6840922858
 11
117.690816752
 21
103.6541054444
  0
LWPOLYLINE
  5
26E
100
AcDbEntity
  8
RACCORDO
100
AcDbPolyline
 62
253
  6
CONTINUOUS
 90
31
 70
0
 10
132.9693035593
 20
93.8187406522
 10
133.1591774991
 20
93.6937750419
 10
133.3582157746
 20
93.5758777473
 10
133.5658728814
 20
93.4653696784
 10
133.7815791013
 20
93.3625503922
 10
134.0047438669
 20
93.2677009102
 10
134.2347575813
 20
93.1810831779
 10
134.4709912847
 20
93.102932992
 10
134.7127966461
 20
93.0334634231
 10
134.9595095661
 20
92.9728678406
 10
135.2104528502
 20
92.921311925
 10
135.4649400534
 20
92.8789350819
 10
135.7222758305
 20
92.8458544504
 10
135.9817561246
 20
92.8221605778
 10
136.2426690605
 20
92.8079177801
 10
136.5042988122
 20
92.8031656869
 10
136.7659285289
 20
92.8079177303
 10
137.0268413924
 20
92.8221604727
 10
137.2863216258
 20
92.8458542887
 10
137.5436573659
 20
92.878934864
 10
137.7981445438
 20
92.9213116525
 10
138.0490878254
 20
92.9728675245
 10
138.2958007813
 20
93.033463089
 10
138.5376061987
 20
93.1029326565
 10
138.7738399391
 20
93.1810828279
 10
139.0038536333
 20
93.2677004909
 10
139.2270183648
 20
93.3625498837
 10
139.4427246155
 20
93.4653691509
 10
139.6503818356
 20
93.5758773092
 10
139.8494202727
 20
93.6937747778
 10
140.0392944133
 20
93.8187406522
  0
LINE
  5
26F
100
AcDbEntity
  8
DRAFT
100
AcDbLine
 62
7
  6
CONTINUOUS
 10
120.6714395687
 20
102.1043449359
 11
117.4187483753
 21
104.4043449359
  0
LINE
  5
270
100
AcDbEntity
  8
RACCORDO
100
AcDbLine
 62
253
  6
CONTINUOUS
 10
105.1348629045
 20
113.5006623897
 11
132.9693035593
 21
93.8187406522
  0
LINE
  5
271
100
AcDbEntity
  8
DRAFT
100
AcDbLine
 62
7
  6
CONTINUOUS
 10
125.8976972685
 20
85.5840434933
 11
125.8976972685
 21
96.2351026311
  0
LINE
  5
272
100
AcDbEntity
  8
DRAFT
100
AcDbLine
 62
7
  6
CONTINUOUS
 10
126.1098293027
 20
85.4340434933
 11
126.1098293027
 21
96.2300162917
  0
LINE
  5
273
100
AcDbEntity
  8
DRAFT
100
AcDbLine
 62
7
  6
CONTINUOUS
 10
123.4474834668
 20
97.9676654257
 11
123.2993760895
 21
92.2758983876
  0
LWPOLYLINE
  5
274
100
AcDbEntity
  8
IMPORT_IGES
100
AcDbPolyline
 62
7
  6
CONTINUOUS
 90
8
 70
0
 10
118.9093370198
 20
98.9600947753
 10
118.8947669608
 20
98.9252342189
 10
118.8815571235
 20
98.8900167659
 10
118.8697845375
 20
98.8544839868
 10
118.8595068928
 20
98.818569163
 10
118.8508666325
 20
98.7824549308
 10
118.8440249385
 20
98.7465269928
 10
118.8417356805
 20
98.7301223864
  0
LWPOLYLINE
  5
275
100
AcDbEntity
  8
RACCORDO
100
AcDbPolyline
 62
253
  6
CONTINUOUS
 90
31
 70
0
 10
135.6559000838
 20
98.3585623247
 10
135.7016186507
 20
98.3279032949
 10
135.7492868486
 20
98.299109196
 10
135.7989046775
 20
98.272180028
 10
135.8506250156
 20
98.2470477925
 10
135.9042949847
 20
98.2237804879
 10
135.9594559507
 20
98.2025821091
 10
136.0161137741
 20
98.1834740609
 10
136.0742625944
 20
98.1664349386
 10
136.1334261962
 20
98.1516045227
 10
136.1936126846
 20
98.1390010565
 10
136.2548139544
 20
98.1286062966
 10
136.3165294746
 20
98.1205052944
 10
136.3787636943
 20
98.1147168142
 10
136.4415121643
 20
98.1112220916
 10
136.5042610063
 20
98.1100498839
 10
136.5670103431
 20
98.1112193186
 10
136.6297600519
 20
98.1147112682
 10
136.691995885
 20
98.1204971073
 10
136.7537133518
 20
98.1285956491
 10
136.8149169429
 20
98.1389880803
 10
136.8751058828
 20
98.1515893363
 10
136.9342720141
 20
98.1664176374
 10
136.9924234942
 20
98.1834547633
 10
137.0490840194
 20
98.2025609885
 10
137.1042461782
 20
98.2237566878
 10
137.1579173821
 20
98.2470214863
 10
137.2096435621
 20
98.2721545342
 10
137.2592733616
 20
98.2990888817
 10
137.3069581372
 20
98.3278914785
 10
137.3526978888
 20
98.3585623247
  0
LWPOLYLINE
  5
276
100
AcDbEntity
  8
RACCORDO
100
AcDbPolyline
 62
253
  6
CONTINUOUS
 90
18
 70
0
 10
107.821459429
 20
119.2403012965
 10
107.6669580307
 20
119.3451047275
 10
107.5129678604
 20
119.4406702726
 10
107.3599984605
 20
119.5266817115
 10
107.2085559956
 20
119.6028544374
 10
107.0591415777
 20
119.6689363993
 10
106.9122496084
 20
119.7247089359
 10
106.7683661427
 20
119.7699874987
 10
106.627967281
 20
119.8046222629
 10
106.4915175934
 20
119.8284986234
 10
106.3594685824
 20
119.8415375739
 10
106.2322571894
 20
119.8436959681
 10
106.1103043484
 20
119.8349666628
 10
105.9940135931
 20
119.8153785415
 10
105.8837697223
 20
119.7849964188
 10
105.7799375258
 20
119.7439208256
 10
105.6828605777
 20
119.6922876773
 10
105.6275283894
 20
119.6559825237
  0
LINE
  5
277
100
AcDbEntity
  8
RACCORDO
100
AcDbLine
 62
253
  6
CONTINUOUS
 10
107.821459429
 20
118.0404840623
 11
135.6559000838
 21
98.3585623247
  0
LWPOLYLINE
  5
278
100
AcDbEntity
  8
RACCORDO
100
AcDbPolyline
 62
253
  6
CONTINUOUS
 90
28
 70
0
 10
137.3526978888
 20
98.3585623247
 10
137.507199356
 20
98.2448677341
 10
137.6611895889
 20
98.1226582398
 10
137.8141590447
 20
97.9923382245
 10
137.9656015583
 20
97.8543389077
 10
138.1150160173
 20
97.7091169194
 10
138.2619080199
 20
97.5571527888
 10
138.4057915108
 20
97.3989493545
 10
138.5461903899
 20
97.2350301002
 10
138.6826400871
 20
97.0659374233
 10
138.8146891003
 20
96.8922308392
 10
138.9419004885
 20
96.7144851308
 10
139.0638533184
 20
96.5332884459
 10
139.1801440568
 20
96.3492403516
 10
139.2903879057
 20
96.1629498497
 10
139.3942200763
 20
95.9750333624
 10
139.4912969952
 20
95.786112692
 10
139.5812974417
 20
95.5968129634
 10
139.663923611
 20
95.4077605561
 10
139.7389020987
 20
95.219581031
 10
139.8059848064
 20
95.0328970607
 10
139.8649497623
 20
94.8483263693
 10
139.9156018555
 20
94.6664796879
 10
139.9577734818
 20
94.4879587345
 10
139.9913250983
 20
94.313354222
 10
140.016145685
 20
94.1432439044
 10
140.0321531125
 20
93.9781906647
 10
140.0392944133
 20
93.8187406522
  0
LINE
  5
279
100
AcDbEntity
  8
0
100
AcDbLine
 62
7
  6
CONTINUOUS
 10
129.4487012566
 20
116.1537176794
 11
129.4487012566
 21
116.1183623403
  0
LINE
  5
27A
100
AcDbEntity
  8
0
100
AcDbLine
 62
7
  6
CONTINUOUS
 10
130.3328661616
 20
115.5285186794
 11
130.3328661616
 21
115.4931633403
  0
LWPOLYLINE
  5
27B
100
AcDbEntity
  8
IMPORT_IGES
100
AcDbPolyline
 62
7
  6
CONTINUOUS
 90
8
 70
0
 10
120.3518348534
 20
97.9400947753
 10
120.3372647944
 20
97.9052342189
 10
120.3240549572
 20
97.8700167659
 10
120.3122823711
 20
97.8344839868
 10
120.3020047264
 20
97.798569163
 10
120.2933644662
 20
97.7624549308
 10
120.2865227721
 20
97.7265269928
 10
120.2842335141
 20
97.7101223864
  0
LWPOLYLINE
  5
27C
100
AcDbEntity
  8
IMPORT_IGES
100
AcDbPolyline
 62
7
  6
CONTINUOUS
 90
8
 70
0
 10
121.0730837702
 20
97.4300947753
 10
121.0585137112
 20
97.3952342189
 10
121.045303874
 20
97.3600167659
 10
121.0335312879
 20
97.3244839868
 10
121.0232536432
 20
97.288569163
 10
121.014613383
 20
97.2524549308
 10
121.0077716889
 20
97.2165269928
 10
121.0054824309
 20
97.2001223864
  0
LINE
  5
27D
100
AcDbEntity
  8
0
100
AcDbLine
 62
7
  6
CONTINUOUS
 10
132.1011966786
 20
114.2781201794
 11
132.1011966786
 21
114.2427648403
  0
LINE
  5
27E
100
AcDbEntity
  8
0
100
AcDbLine
 62
7
  6
CONTINUOUS
 10
132.3226448448
 20
120.6866956794
 11
132.3226448448
 21
120.6513403403
  0
LINE
  5
27F
100
AcDbEntity
  8
RACCORDO
100
AcDbLine
 62
253
  6
CONTINUOUS
 10
132.9693035593
 20
93.8187406522
 11
132.9693035593
 21
79.1345390389
  0
LINE
  5
280
100
AcDbEntity
  8
0
100
AcDbLine
 62
7
  6
CONTINUOUS
 10
132.9848199398
 20
117.4037331794
 11
132.9848199398
 21
117.3683778403
  0
LINE
  5
281
100
AcDbEntity
  8
0
100
AcDbLine
 62
7
  6
CONTINUOUS
 10
132.9853601694
 20
113.6529221794
 11
132.9853601694
 21
113.6175668403
  0
LWPOLYLINE
  5
282
100
AcDbEntity
  8
IMPORT_IGES
100
AcDbPolyline
 62
7
  6
CONTINUOUS
 90
8
 70
0
 10
122.5155816039
 20
96.4100947753
 10
122.5010115448
 20
96.3752342189
 10
122.4878017076
 20
96.3400167659
 10
122.4760291215
 20
96.3044839868
 10
122.4657514768
 20
96.268569163
 10
122.4571112166
 20
96.2324549308
 10
122.4502695225
 20
96.1965269928
 10
122.4479802645
 20
96.1801223864
  0
LWPOLYLINE
  5
283
100
AcDbEntity
  8
IMPORT_IGES
100
AcDbPolyline
 62
7
  6
CONTINUOUS
 90
8
 70
0
 10
123.2368305207
 20
95.9000947753
 10
123.2222604616
 20
95.8652342189
 10
123.2090506244
 20
95.8300167659
 10
123.1972780383
 20
95.7944839868
 10
123.1870003936
 20
95.758569163
 10
123.1783601334
 20
95.7224549308
 10
123.1715184393
 20
95.6865269928
 10
123.1692291813
 20
95.6701223864
  0
LINE
  5
284
100
AcDbEntity
  8
0
100
AcDbLine
 62
7
  6
CONTINUOUS
 10
160.2298719073
 20
140.4300431794
 11
157.8589237781
 21
138.7535296794
  0
LINE
  5
285
100
AcDbEntity
  8
IMPORT_IGES
100
AcDbLine
 62
7
  6
CONTINUOUS
 10
160.2298719073
 20
140.4300431794
 11
157.8589237781
 21
138.7535296794
  0
LINE
  5
286
100
AcDbEntity
  8
0
100
AcDbLine
 62
7
  6
CONTINUOUS
 10
155.0889383217
 20
136.7948541794
 11
152.7174478416
 21
135.1179571794
  0
LINE
  5
287
100
AcDbEntity
  8
IMPORT_IGES
100
AcDbLine
 62
7
  6
CONTINUOUS
 10
155.0889383217
 20
136.7948541794
 11
152.7174478416
 21
135.1179571794
  0
LINE
  5
288
100
AcDbEntity
  8
0
100
AcDbLine
 62
7
  6
CONTINUOUS
 10
151.7531535962
 20
134.4261401794
 11
143.7415276994
 21
128.7610651794
  0
LINE
  5
289
100
AcDbEntity
  8
IMPORT_IGES
100
AcDbLine
 62
7
  6
CONTINUOUS
 10
151.7531535962
 20
134.4261401794
 11
143.7415276994
 21
128.7610651794
  0
LINE
  5
28A
100
AcDbEntity
  8
0
100
AcDbLine
 62
7
  6
CONTINUOUS
 10
139.8513097391
 20
126.0102656794
 11
133.0671186839
 21
121.2131181794
  0
LINE
  5
28B
100
AcDbEntity
  8
IMPORT_IGES
100
AcDbLine
 62
7
  6
CONTINUOUS
 10
139.8513097391
 20
126.0102656794
 11
133.0671186839
 21
121.2131181794
  0
LINE
  5
28C
100
AcDbEntity
  8
0
100
AcDbLine
 62
7
  6
CONTINUOUS
 10
132.3226448448
 20
120.6866956794
 11
125.4994695786
 21
115.8619821794
  0
LINE
  5
28D
100
AcDbEntity
  8
IMPORT_IGES
100
AcDbLine
 62
7
  6
CONTINUOUS
 10
132.3226448448
 20
120.6866956794
 11
125.4994695786
 21
115.8619821794
  0
LINE
  5
28E
100
AcDbEntity
  8
0
100
AcDbLine
 62
7
  6
CONTINUOUS
 10
160.2298719073
 20
140.3946878403
 11
157.8657199916
 21
138.722979989
  0
LINE
  5
28F
100
AcDbEntity
  8
0
100
AcDbLine
 62
7
  6
CONTINUOUS
 10
155.0889383217
 20
136.7594988403
 11
152.7606477918
 21
135.113148818
  0
LINE
  5
290
100
AcDbEntity
  8
0
100
AcDbLine
 62
7
  6
CONTINUOUS
 10
151.7531535962
 20
134.3907848403
 11
143.758194366
 21
128.7374949533
  0
LINE
  5
291
100
AcDbEntity
  8
0
100
AcDbLine
 62
7
  6
CONTINUOUS
 10
139.8513097391
 20
125.9749103403
 11
133.0921186839
 21
121.1954405098
  0
LINE
  5
292
100
AcDbEntity
  8
0
100
AcDbLine
 62
7
  6
CONTINUOUS
 10
132.3226448448
 20
120.6513403403
 11
125.5244695786
 21
115.8443045098
  0
LINE
  5
293
100
AcDbEntity
  8
DRAFT
100
AcDbLine
 62
7
  6
CONTINUOUS
 10
112.1184339312
 20
105.9785131767
 11
112.2209049007
 21
106.0509710941
  0
LINE
  5
294
100
AcDbEntity
  8
0
100
AcDbLine
 62
7
  6
CONTINUOUS
 10
125.4994695786
 20
115.8619821794
 11
132.5727852829
 21
110.8603926794
  0
LINE
  5
295
100
AcDbEntity
  8
IMPORT_IGES
100
AcDbLine
 62
7
  6
CONTINUOUS
 10
125.4994695786
 20
115.8619821794
 11
132.5727852829
 21
110.8603926794
  0
LINE
  5
296
100
AcDbEntity
  8
0
100
AcDbLine
 62
7
  6
CONTINUOUS
 10
138.4246256415
 20
117.4990636794
 11
138.4246256415
 21
117.4637083403
  0
LINE
  5
297
100
AcDbEntity
  8
0
100
AcDbLine
 62
7
  6
CONTINUOUS
 10
138.6574440848
 20
121.4148841794
 11
138.6574440848
 21
121.3795288403
  0
LWPOLYLINE
  5
298
100
AcDbEntity
  8
IMPORT_IGES
100
AcDbPolyline
 62
7
  6
CONTINUOUS
 90
9
 70
0
 10
119.8141070261
 20
98.7412130349
 10
119.7664235321
 20
98.6815196932
 10
119.7223423164
 20
98.6186028012
 10
119.6822801085
 20
98.5529568296
 10
119.6466712151
 20
98.4850214256
 10
119.6161077274
 20
98.41546513
 10
119.591151131
 20
98.3448644538
 10
119.5723464591
 20
98.2735184575
 10
119.5635183394
 20
98.2204997991
  0
LWPOLYLINE
  5
299
100
AcDbEntity
  8
IMPORT_IGES
100
AcDbPolyline
 62
7
  6
CONTINUOUS
 90
9
 70
0
 10
121.9778537765
 20
97.2112130348
 10
121.9301702826
 20
97.1515196932
 10
121.8860890669
 20
97.0886028012
 10
121.846026859
 20
97.0229568296
 10
121.8104179656
 20
96.9550214256
 10
121.7798544778
 20
96.88546513
 10
121.7548978814
 20
96.8148644538
 10
121.7360932096
 20
96.7435184575
 10
121.7272650898
 20
96.6904997991
  0
LWPOLYLINE
  5
29A
100
AcDbEntity
  8
IMPORT_IGES
100
AcDbPolyline
 62
7
  6
CONTINUOUS
 90
10
 70
0
 10
119.0928581093
 20
99.2512130348
 10
119.0684363574
 20
99.2216074204
 10
119.0449116428
 20
99.1911683714
 10
119.0223340463
 20
99.1599698839
 10
119.0007709197
 20
99.1281101935
 10
118.980256351
 20
99.0956380062
 10
118.9607970573
 20
99.0625437153
 10
118.9424394969
 20
99.0288644195
 10
118.9252644781
 20
98.9946938449
 10
118.9093403476
 20
98.960102352
  0
LWPOLYLINE
  5
29B
100
AcDbEntity
  8
IMPORT_IGES
100
AcDbPolyline
 62
7
  6
CONTINUOUS
 90
10
 70
0
 10
120.5353559429
 20
98.2312130348
 10
120.510934191
 20
98.2016074204
 10
120.4874094764
 20
98.1711683714
 10
120.4648318799
 20
98.1399698839
 10
120.4432687534
 20
98.1081101935
 10
120.4227541847
 20
98.0756380062
 10
120.403294891
 20
98.0425437153
 10
120.3849373305
 20
98.0088644195
 10
120.3677623117
 20
97.9746938449
 10
120.3518381812
 20
97.940102352
  0
LWPOLYLINE
  5
29C
100
AcDbEntity
  8
IMPORT_IGES
100
AcDbPolyline
 62
7
  6
CONTINUOUS
 90
10
 70
0
 10
121.2566048597
 20
97.7212130348
 10
121.2321831078
 20
97.6916074204
 10
121.2086583932
 20
97.6611683714
 10
121.1860807967
 20
97.6299698839
 10
121.1645176702
 20
97.5981101935
 10
121.1440031015
 20
97.5656380062
 10
121.1245438078
 20
97.5325437153
 10
121.1061862474
 20
97.4988644195
 10
121.0890112285
 20
97.4646938449
 10
121.073087098
 20
97.430102352
  0
LINE
  5
29D
100
AcDbEntity
  8
IMPORT_IGES
100
AcDbLine
 62
7
  6
CONTINUOUS
 10
119.0928608416
 20
99.251216241
 11
120.7412752111
 21
101.1854894642
  0
LINE
  5
29E
100
AcDbEntity
  8
IMPORT_IGES
100
AcDbLine
 62
7
  6
CONTINUOUS
 10
119.843979922
 20
99.438816086
 11
121.1102017204
 21
100.9246190277
  0
LINE
  5
29F
100
AcDbEntity
  8
IMPORT_IGES
100
AcDbLine
 62
7
  6
CONTINUOUS
 10
119.8141097584
 20
98.741216241
 11
121.3969913061
 21
100.5985923049
  0
LINE
  5
2A0
100
AcDbEntity
  8
IMPORT_IGES
100
AcDbLine
 62
7
  6
CONTINUOUS
 10
120.5652288388
 20
98.928816086
 11
121.3847820573
 21
99.8904916664
  0
LINE
  5
2A1
100
AcDbEntity
  8
IMPORT_IGES
100
AcDbLine
 62
7
  6
CONTINUOUS
 10
120.5353586752
 20
98.231216241
 11
121.5672948786
 21
99.4421050825
  0
LINE
  5
2A2
100
AcDbEntity
  8
IMPORT_IGES
100
AcDbLine
 62
7
  6
CONTINUOUS
 10
121.2864777556
 20
98.418816086
 11
121.9362200104
 21
99.1812330296
  0
LINE
  5
2A3
100
AcDbEntity
  8
0
100
AcDbLine
 62
7
  6
CONTINUOUS
 10
129.4487012566
 20
116.1537176794
 11
134.0909725335
 21
119.4362991794
  0
LINE
  5
2A4
100
AcDbEntity
  8
IMPORT_IGES
100
AcDbLine
 62
7
  6
CONTINUOUS
 10
129.4487012566
 20
116.1537176794
 11
134.0909725335
 21
119.4362991794
  0
LINE
  5
2A5
100
AcDbEntity
  8
0
100
AcDbLine
 62
7
  6
CONTINUOUS
 10
134.8354463725
 20
119.9627216794
 11
140.5145688288
 21
123.9784676794
  0
LINE
  5
2A6
100
AcDbEntity
  8
IMPORT_IGES
100
AcDbLine
 62
7
  6
CONTINUOUS
 10
134.8354463725
 20
119.9627216794
 11
140.5145688288
 21
123.9784676794
  0
LINE
  5
2A7
100
AcDbEntity
  8
0
100
AcDbLine
 62
7
  6
CONTINUOUS
 10
146.6149254012
 20
128.2920711794
 11
154.8068515064
 21
134.0846376794
  0
LINE
  5
2A8
100
AcDbEntity
  8
IMPORT_IGES
100
AcDbLine
 62
7
  6
CONTINUOUS
 10
146.6149254012
 20
128.2920711794
 11
154.8068515064
 21
134.0846376794
  0
LINE
  5
2A9
100
AcDbEntity
  8
0
100
AcDbLine
 62
7
  6
CONTINUOUS
 10
154.7153476463
 20
132.7695366794
 11
147.6810126175
 21
127.7955106794
  0
LINE
  5
2AA
100
AcDbEntity
  8
IMPORT_IGES
100
AcDbLine
 62
7
  6
CONTINUOUS
 10
154.7153476463
 20
132.7695366794
 11
147.6810126175
 21
127.7955106794
  0
LINE
  5
2AB
100
AcDbEntity
  8
0
100
AcDbLine
 62
7
  6
CONTINUOUS
 10
138.6574440848
 20
121.4148841794
 11
136.5225621402
 21
119.9052946794
  0
LINE
  5
2AC
100
AcDbEntity
  8
IMPORT_IGES
100
AcDbLine
 62
7
  6
CONTINUOUS
 10
138.6574440848
 20
121.4148841794
 11
136.5225621402
 21
119.9052946794
  0
LINE
  5
2AD
100
AcDbEntity
  8
0
100
AcDbLine
 62
7
  6
CONTINUOUS
 10
132.9848199398
 20
117.4037331794
 11
130.3328661616
 21
115.5285186794
  0
LINE
  5
2AE
100
AcDbEntity
  8
IMPORT_IGES
100
AcDbLine
 62
7
  6
CONTINUOUS
 10
132.9848199398
 20
117.4037331794
 11
130.3328661616
 21
115.5285186794
  0
LINE
  5
2AF
100
AcDbEntity
  8
0
100
AcDbLine
 62
7
  6
CONTINUOUS
 10
154.7153476463
 20
132.7341813403
 11
147.7060126175
 21
127.7778330098
  0
LINE
  5
2B0
100
AcDbEntity
  8
0
100
AcDbLine
 62
7
  6
CONTINUOUS
 10
138.6574440848
 20
121.3795288403
 11
136.5475621402
 21
119.8876170098
  0
LINE
  5
2B1
100
AcDbEntity
  8
0
100
AcDbLine
 62
7
  6
CONTINUOUS
 10
132.9848199398
 20
117.3683778403
 11
130.3328661616
 21
115.4931633403
  0
LINE
  5
2B2
100
AcDbEntity
  8
DRAFT
100
AcDbLine
 62
7
  6
CONTINUOUS
 10
114.6711308677
 20
104.3184169018
 11
114.5686477329
 21
104.2459503822
  0
LINE
  5
2B3
100
AcDbEntity
  8
0
100
AcDbLine
 62
7
  6
CONTINUOUS
 10
132.9853601694
 20
113.6175668403
 11
132.1011966786
 21
114.2427648403
  0
LINE
  5
2B4
100
AcDbEntity
  8
0
100
AcDbLine
 62
7
  6
CONTINUOUS
 10
130.3328661616
 20
115.4931633403
 11
129.4487012566
 21
116.1183623403
  0
LINE
  5
2B5
100
AcDbEntity
  8
0
100
AcDbLine
 62
7
  6
CONTINUOUS
 10
132.9853601694
 20
113.6529221794
 11
132.1011966786
 21
114.2781201794
  0
LINE
  5
2B6
100
AcDbEntity
  8
IMPORT_IGES
100
AcDbLine
 62
7
  6
CONTINUOUS
 10
132.9853601694
 20
113.6529221794
 11
132.1011966786
 21
114.2781201794
  0
LINE
  5
2B7
100
AcDbEntity
  8
0
100
AcDbLine
 62
7
  6
CONTINUOUS
 10
130.3328661616
 20
115.5285186794
 11
129.4487012566
 21
116.1537176794
  0
LINE
  5
2B8
100
AcDbEntity
  8
IMPORT_IGES
100
AcDbLine
 62
7
  6
CONTINUOUS
 10
130.3328661616
 20
115.5285186794
 11
129.4487012566
 21
116.1537176794
  0
LINE
  5
2B9
100
AcDbEntity
  8
0
100
AcDbLine
 62
7
  6
CONTINUOUS
 10
139.8513097391
 20
126.0102656794
 11
139.8513097391
 21
125.9749103403
  0
LINE
  5
2BA
100
AcDbEntity
  8
RACCORDO
100
AcDbLine
 62
253
  6
CONTINUOUS
 10
140.0392944133
 20
93.8187406522
 11
140.0392944133
 21
79.1345390389
  0
LINE
  5
2BB
100
AcDbEntity
  8
0
100
AcDbLine
 62
7
  6
CONTINUOUS
 10
141.3099380926
 20
119.5392876794
 11
141.3099380926
 21
119.5039323403
  0
LWPOLYLINE
  5
2BC
100
AcDbEntity
  8
IMPORT_IGES
100
AcDbPolyline
 62
7
  6
CONTINUOUS
 90
10
 70
0
 10
122.6991026933
 20
96.7012130348
 10
122.6746809414
 20
96.6716074204
 10
122.6511562268
 20
96.6411683714
 10
122.6285786303
 20
96.6099698839
 10
122.6070155038
 20
96.5781101935
 10
122.5865009351
 20
96.5456380062
 10
122.5670416414
 20
96.5125437153
 10
122.548684081
 20
96.4788644195
 10
122.5315090621
 20
96.4446938449
 10
122.5155849317
 20
96.410102352
  0
LWPOLYLINE
  5
2BD
100
AcDbEntity
  8
IMPORT_IGES
100
AcDbPolyline
 62
7
  6
CONTINUOUS
 90
10
 70
0
 10
123.4006358764
 20
96.1673123575
 10
123.3959298582
 20
96.1616074204
 10
123.3724051437
 20
96.1311683714
 10
123.3498275471
 20
96.0999698839
 10
123.3282644206
 20
96.0681101935
 10
123.3077498519
 20
96.0356380062
 10
123.2882905582
 20
96.0025437153
 10
123.2699329978
 20
95.9688644195
 10
123.2527579789
 20
95.9346938449
 10
123.2368338485
 20
95.900102352
  0
LINE
  5
2BE
100
AcDbEntity
  8
IMPORT_IGES
100
AcDbLine
 62
7
  6
CONTINUOUS
 10
121.256607592
 20
97.721216241
 11
122.2885411024
 21
98.9321019225
  0
LINE
  5
2BF
100
AcDbEntity
  8
IMPORT_IGES
100
AcDbLine
 62
7
  6
CONTINUOUS
 10
122.0077266724
 20
97.908816086
 11
122.6574662342
 21
98.6712298696
  0
LINE
  5
2C0
100
AcDbEntity
  8
IMPORT_IGES
100
AcDbLine
 62
7
  6
CONTINUOUS
 10
121.9778565089
 20
97.211216241
 11
123.0097873262
 21
98.4220987625
  0
LINE
  5
2C1
100
AcDbEntity
  8
IMPORT_IGES
100
AcDbLine
 62
7
  6
CONTINUOUS
 10
122.7289755893
 20
97.398816086
 11
123.378712458
 21
98.1612267096
  0
LINE
  5
2C2
100
AcDbEntity
  8
IMPORT_IGES
100
AcDbLine
 62
7
  6
CONTINUOUS
 10
122.6991054257
 20
96.701216241
 11
123.4370613752
 21
97.5671444079
  0
LINE
  5
2C3
100
AcDbEntity
  8
0
100
AcDbLine
 62
7
  6
CONTINUOUS
 10
151.34698439
 20
128.3937181794
 11
153.8693551938
 21
130.1773036794
  0
LINE
  5
2C4
100
AcDbEntity
  8
IMPORT_IGES
100
AcDbLine
 62
7
  6
CONTINUOUS
 10
151.34698439
 20
128.3937181794
 11
153.8693551938
 21
130.1773036794
  0
LINE
  5
2C5
100
AcDbEntity
  8
0
100
AcDbLine
 62
7
  6
CONTINUOUS
 10
132.1011966786
 20
114.2781201794
 11
134.7531504569
 21
116.1533346794
  0
LINE
  5
2C6
100
AcDbEntity
  8
IMPORT_IGES
100
AcDbLine
 62
7
  6
CONTINUOUS
 10
132.1011966786
 20
114.2781201794
 11
134.7531504569
 21
116.1533346794
  0
LINE
  5
2C7
100
AcDbEntity
  8
DRAFT
100
AcDbLine
 62
7
  6
CONTINUOUS
 10
118.0187483753
 20
103.9800808672
 11
117.4039372615
 21
103.5453437595
  0
LINE
  5
2C8
100
AcDbEntity
  8
DRAFT
100
AcDbLine
 62
7
  6
CONTINUOUS
 10
117.6316764833
 20
103.6250088577
 11
116.6417269896
 21
102.9250088577
  0
LINE
  5
2C9
100
AcDbEntity
  8
IMPORT_IGES
100
AcDbLine
 62
7
  6
CONTINUOUS
 10
118.265954728
 20
103.8052795788
 11
118.0488119973
 21
103.6517364814
  0
LINE
  5
2CA
100
AcDbEntity
  8
0
100
AcDbLine
 62
7
  6
CONTINUOUS
 10
145.2992379764
 20
122.3601486794
 11
141.3099380926
 21
119.5392876794
  0
LINE
  5
2CB
100
AcDbEntity
  8
IMPORT_IGES
100
AcDbLine
 62
7
  6
CONTINUOUS
 10
145.2992379764
 20
122.3601486794
 11
141.3099380926
 21
119.5392876794
  0
LINE
  5
2CC
100
AcDbEntity
  8
0
100
AcDbLine
 62
7
  6
CONTINUOUS
 10
138.4246256415
 20
117.4990636794
 11
132.9853601694
 21
113.6529221794
  0
LINE
  5
2CD
100
AcDbEntity
  8
IMPORT_IGES
100
AcDbLine
 62
7
  6
CONTINUOUS
 10
138.4246256415
 20
117.4990636794
 11
132.9853601694
 21
113.6529221794
  0
LINE
  5
2CE
100
AcDbEntity
  8
0
100
AcDbLine
 62
7
  6
CONTINUOUS
 10
145.2992379764
 20
122.3247933403
 11
141.3099380926
 21
119.5039323403
  0
LINE
  5
2CF
100
AcDbEntity
  8
0
100
AcDbLine
 62
7
  6
CONTINUOUS
 10
138.4246256415
 20
117.4637083403
 11
132.9853601694
 21
113.6175668403
  0
LINE
  5
2D0
100
AcDbEntity
  8
0
100
AcDbLine
 62
7
  6
CONTINUOUS
 10
155.4702011058
 20
129.0453346794
 11
152.947830302
 21
127.2617491794
  0
LINE
  5
2D1
100
AcDbEntity
  8
IMPORT_IGES
100
AcDbLine
 62
7
  6
CONTINUOUS
 10
155.4702011058
 20
129.0453346794
 11
152.947830302
 21
127.2617491794
  0
LINE
  5
2D2
100
AcDbEntity
  8
0
100
AcDbLine
 62
7
  6
CONTINUOUS
 10
155.4702011058
 20
129.0099793403
 11
152.947830302
 21
127.2263938403
  0
LINE
  5
2D3
100
AcDbEntity
  8
IMPORT_IGES
100
AcDbLine
 62
7
  6
CONTINUOUS
 10
120.152477097
 20
102.4713068189
 11
116.2103343662
 21
99.6837909616
  0
LINE
  5
2D4
100
AcDbEntity
  8
DRAFT
100
AcDbLine
 62
7
  6
CONTINUOUS
 10
115.6680258714
 20
99.2966589272
 11
114.5192735938
 21
98.4843684018
  0
LINE
  5
2D5
100
AcDbEntity
  8
0
100
AcDbLine
 62
7
  6
CONTINUOUS
 10
159.779937034
 20
130.1240231794
 11
162.1514275141
 21
131.8009201794
  0
LINE
  5
2D6
100
AcDbEntity
  8
IMPORT_IGES
100
AcDbLine
 62
7
  6
CONTINUOUS
 10
159.779937034
 20
130.1240231794
 11
162.1514275141
 21
131.8009201794
  0
LINE
  5
2D7
100
AcDbEntity
  8
0
100
AcDbLine
 62
7
  6
CONTINUOUS
 10
164.9214129705
 20
133.7595956794
 11
167.2923610997
 21
135.4361091794
  0
LINE
  5
2D8
100
AcDbEntity
  8
IMPORT_IGES
100
AcDbLine
 62
7
  6
CONTINUOUS
 10
164.9214129705
 20
133.7595956794
 11
167.2923610997
 21
135.4361091794
  0
LINE
  5
2D9
100
AcDbEntity
  8
0
100
AcDbLine
 62
7
  6
CONTINUOUS
 10
132.5727852829
 20
110.8603926794
 11
140.1929547444
 21
116.2486661794
  0
LINE
  5
2DA
100
AcDbEntity
  8
IMPORT_IGES
100
AcDbLine
 62
7
  6
CONTINUOUS
 10
132.5727852829
 20
110.8603926794
 11
140.1929547444
 21
116.2486661794
  0
LINE
  5
2DB
100
AcDbEntity
  8
0
100
AcDbLine
 62
7
  6
CONTINUOUS
 10
140.9433852509
 20
116.7793006794
 11
147.0675670792
 21
121.1097511794
  0
LINE
  5
2DC
100
AcDbEntity
  8
IMPORT_IGES
100
AcDbLine
 62
7
  6
CONTINUOUS
 10
140.9433852509
 20
116.7793006794
 11
147.0675670792
 21
121.1097511794
  0
LINE
  5
2DD
100
AcDbEntity
  8
0
100
AcDbLine
 62
7
  6
CONTINUOUS
 10
152.1018357282
 20
124.6695166794
 11
159.136170757
 21
129.6435426794
  0
LINE
  5
2DE
100
AcDbEntity
  8
IMPORT_IGES
100
AcDbLine
 62
7
  6
CONTINUOUS
 10
152.1018357282
 20
124.6695166794
 11
159.136170757
 21
129.6435426794
  0
LINE
  5
2DF
100
AcDbEntity
  8
DRAFT
100
AcDbLine
 62
7
  6
CONTINUOUS
 10
111.5434296105
 20
95.7340434932
 11
111.766299756
 21
95.8916364844
  0
LINE
  5
2E0
100
AcDbEntity
  8
IMPORT_IGES
100
AcDbLine
 62
7
  6
CONTINUOUS
 10
120.6120965047
 20
102.1463068189
 11
117.1790706565
 21
99.7187909616
  0
LINE
  5
2E1
100
AcDbEntity
  8
0
100
AcDbLine
 62
7
  6
CONTINUOUS
 10
134.7281504569
 20
116.1356570098
 11
132.9848199398
 21
117.3683778403
  0
LINE
  5
2E2
100
AcDbEntity
  8
0
100
AcDbLine
 62
7
  6
CONTINUOUS
 10
134.7531504569
 20
116.1533346794
 11
132.9848199398
 21
117.4037331794
  0
LINE
  5
2E3
100
AcDbEntity
  8
IMPORT_IGES
100
AcDbLine
 62
7
  6
CONTINUOUS
 10
134.7531504569
 20
116.1533346794
 11
132.9848199398
 21
117.4037331794
  0
LINE
  5
2E4
100
AcDbEntity
  8
0
100
AcDbLine
 62
7
  6
CONTINUOUS
 10
134.0659725335
 20
119.4186215098
 11
132.3226448448
 21
120.6513403403
  0
LINE
  5
2E5
100
AcDbEntity
  8
0
100
AcDbLine
 62
7
  6
CONTINUOUS
 10
134.0909725335
 20
119.4362991794
 11
132.3226448448
 21
120.6866956794
  0
LINE
  5
2E6
100
AcDbEntity
  8
IMPORT_IGES
100
AcDbLine
 62
7
  6
CONTINUOUS
 10
134.0909725335
 20
119.4362991794
 11
132.3226448448
 21
120.6866956794
  0
LINE
  5
2E7
100
AcDbEntity
  8
0
100
AcDbLine
 62
7
  6
CONTINUOUS
 10
133.0671186839
 20
121.2131181794
 11
134.8354463725
 21
119.9627216794
  0
LINE
  5
2E8
100
AcDbEntity
  8
IMPORT_IGES
100
AcDbLine
 62
7
  6
CONTINUOUS
 10
133.0671186839
 20
121.2131181794
 11
134.8354463725
 21
119.9627216794
  0
LINE
  5
2E9
100
AcDbEntity
  8
0
100
AcDbLine
 62
7
  6
CONTINUOUS
 10
140.1679547444
 20
116.2309885098
 11
138.4246256415
 21
117.4637083403
  0
LINE
  5
2EA
100
AcDbEntity
  8
0
100
AcDbLine
 62
7
  6
CONTINUOUS
 10
140.1929547444
 20
116.2486661794
 11
138.4246256415
 21
117.4990636794
  0
LINE
  5
2EB
100
AcDbEntity
  8
IMPORT_IGES
100
AcDbLine
 62
7
  6
CONTINUOUS
 10
140.1929547444
 20
116.2486661794
 11
138.4246256415
 21
117.4990636794
  0
LINE
  5
2EC
100
AcDbEntity
  8
0
100
AcDbLine
 62
7
  6
CONTINUOUS
 10
145.179582074
 20
124.9937931794
 11
145.179582074
 21
124.9584378403
  0
LINE
  5
2ED
100
AcDbEntity
  8
0
100
AcDbLine
 62
7
  6
CONTINUOUS
 10
145.2992379764
 20
122.3601486794
 11
145.2992379764
 21
122.3247933403
  0
LINE
  5
2EE
100
AcDbEntity
  8
0
100
AcDbLine
 62
7
  6
CONTINUOUS
 10
146.6149254012
 20
128.2920711794
 11
146.6149254012
 21
128.2567158403
  0
LINE
  5
2EF
100
AcDbEntity
  8
IMPORT_IGES
100
AcDbLine
 62
7
  6
CONTINUOUS
 10
117.4654489029
 20
99.6119406731
 11
120.6675047341
 21
101.8761360652
  0
LINE
  5
2F0
100
AcDbEntity
  8
IMPORT_IGES
100
AcDbLine
 62
7
  6
CONTINUOUS
 10
119.4284299601
 20
99.64497789
 11
118.4235785914
 21
98.9344406731
  0
LINE
  5
2F1
100
AcDbEntity
  8
IMPORT_IGES
100
AcDbLine
 62
7
  6
CONTINUOUS
 10
118.777131982
 20
98.6844406731
 11
120.1913455443
 21
99.6844406731
  0
LINE
  5
2F2
100
AcDbEntity
  8
IMPORT_IGES
100
AcDbLine
 62
7
  6
CONTINUOUS
 10
120.1496788769
 20
99.13497789
 11
119.1448275082
 21
98.4244406731
  0
LINE
  5
2F3
100
AcDbEntity
  8
IMPORT_IGES
100
AcDbLine
 62
7
  6
CONTINUOUS
 10
119.4983808988
 20
98.1744406731
 11
120.9125944611
 21
99.1744406731
  0
LINE
  5
2F4
100
AcDbEntity
  8
IMPORT_IGES
100
AcDbLine
 62
7
  6
CONTINUOUS
 10
120.8709277937
 20
98.62497789
 11
119.866076425
 21
97.9144406731
  0
LINE
  5
2F5
100
AcDbEntity
  8
IMPORT_IGES
100
AcDbLine
 62
7
  6
CONTINUOUS
 10
120.2196298156
 20
97.6644406731
 11
121.6338433779
 21
98.6644406731
  0
LINE
  5
2F6
100
AcDbEntity
  8
IMPORT_IGES
100
AcDbLine
 62
7
  6
CONTINUOUS
 10
121.5921767105
 20
98.11497789
 11
120.5873253418
 21
97.4044406731
  0
LINE
  5
2F7
100
AcDbEntity
  8
0
100
AcDbLine
 62
7
  6
CONTINUOUS
 10
136.5225621402
 20
119.9052946794
 11
140.9433852509
 21
116.7793006794
  0
LINE
  5
2F8
100
AcDbEntity
  8
IMPORT_IGES
100
AcDbLine
 62
7
  6
CONTINUOUS
 10
136.5225621402
 20
119.9052946794
 11
140.9433852509
 21
116.7793006794
  0
LINE
  5
2F9
100
AcDbEntity
  8
0
100
AcDbLine
 62
7
  6
CONTINUOUS
 10
141.3099380926
 20
119.5039323403
 11
138.6574440848
 21
121.3795288403
  0
LINE
  5
2FA
100
AcDbEntity
  8
0
100
AcDbLine
 62
7
  6
CONTINUOUS
 10
141.3099380926
 20
119.5392876794
 11
138.6574440848
 21
121.4148841794
  0
LINE
  5
2FB
100
AcDbEntity
  8
IMPORT_IGES
100
AcDbLine
 62
7
  6
CONTINUOUS
 10
141.3099380926
 20
119.5392876794
 11
138.6574440848
 21
121.4148841794
  0
LINE
  5
2FC
100
AcDbEntity
  8
IMPORT_IGES
100
AcDbLine
 62
7
  6
CONTINUOUS
 10
120.9408787324
 20
97.1544406731
 11
122.3550922948
 21
98.1544406731
  0
LINE
  5
2FD
100
AcDbEntity
  8
IMPORT_IGES
100
AcDbLine
 62
7
  6
CONTINUOUS
 10
122.3134256273
 20
97.60497789
 11
121.3085742586
 21
96.8944406731
  0
LINE
  5
2FE
100
AcDbEntity
  8
DRAFT
100
AcDbLine
 62
7
  6
CONTINUOUS
 10
123.4474834668
 20
97.9676654257
 11
123.5499656086
 21
98.040131243
  0
LINE
  5
2FF
100
AcDbEntity
  8
IMPORT_IGES
100
AcDbLine
 62
7
  6
CONTINUOUS
 10
121.6621276492
 20
96.6444406731
 11
123.0763412116
 21
97.6444406731
  0
LINE
  5
300
100
AcDbEntity
  8
IMPORT_IGES
100
AcDbLine
 62
7
  6
CONTINUOUS
 10
123.0346745441
 20
97.09497789
 11
122.0298231754
 21
96.3844406731
  0
LINE
  5
301
100
AcDbEntity
  8
IMPORT_IGES
100
AcDbLine
 62
7
  6
CONTINUOUS
 10
122.383376566
 20
96.1344406731
 11
123.4188327629
 21
96.8666187716
  0
LINE
  5
302
100
AcDbEntity
  8
IMPORT_IGES
100
AcDbLine
 62
7
  6
CONTINUOUS
 10
123.4050480315
 20
96.3368714945
 11
122.7510720922
 21
95.8744406731
  0
LINE
  5
303
100
AcDbEntity
  8
IMPORT_IGES
100
AcDbLine
 62
7
  6
CONTINUOUS
 10
123.1046254828
 20
95.6244406731
 11
123.3917934821
 21
95.8274991127
  0
LWPOLYLINE
  5
304
100
AcDbEntity
  8
IMPORT_IGES
100
AcDbPolyline
 62
7
  6
CONTINUOUS
 90
13
 70
0
 10
115.6664072148
 20
99.3893987649
 10
115.6960465127
 20
99.4016624168
 10
115.7476684922
 20
99.4246721912
 10
115.7999045691
 20
99.4489181476
 10
115.8523391209
 20
99.4743431204
 10
115.9041809187
 20
99.5008444253
 10
115.9549945178
 20
99.5278085015
 10
116.004432277
 20
99.5549971174
 10
116.0518473302
 20
99.582300874
 10
116.0964587883
 20
99.6091962666
 10
116.1378375013
 20
99.6352526862
 10
116.1758578096
 20
99.6602283878
 10
116.2103343662
 20
99.6837909616
  0
LINE
  5
305
100
AcDbEntity
  8
0
100
AcDbLine
 62
7
  6
CONTINUOUS
 10
143.7415276994
 20
128.7610651794
 11
145.179582074
 21
124.9937931794
  0
LINE
  5
306
100
AcDbEntity
  8
IMPORT_IGES
100
AcDbLine
 62
7
  6
CONTINUOUS
 10
143.7415276994
 20
128.7610651794
 11
145.179582074
 21
124.9937931794
  0
LINE
  5
307
100
AcDbEntity
  8
0
100
AcDbLine
 62
7
  6
CONTINUOUS
 10
151.34698439
 20
128.3937181794
 11
151.34698439
 21
128.3583628403
  0
LINE
  5
308
100
AcDbEntity
  8
0
100
AcDbLine
 62
7
  6
CONTINUOUS
 10
151.7531535962
 20
134.4261401794
 11
151.7531535962
 21
134.3907848403
  0
LINE
  5
309
100
AcDbEntity
  8
0
100
AcDbLine
 62
7
  6
CONTINUOUS
 10
152.947830302
 20
127.2617491794
 11
152.947830302
 21
127.2263938403
  0
LWPOLYLINE
  5
30A
100
AcDbEntity
  8
RACCORDO
100
AcDbPolyline
 62
253
  6
CONTINUOUS
 90
28
 70
0
 10
135.6559000838
 20
98.3585623247
 10
135.5013986913
 20
98.2448677869
 10
135.3474085265
 20
98.1226583487
 10
135.1944391316
 20
97.9923383911
 10
135.0429966712
 20
97.8543391324
 10
134.8935822576
 20
97.7091172012
 10
134.746690292
 20
97.5571531252
 10
134.6028068297
 20
97.3989497417
 10
134.4624079708
 20
97.2350305336
 10
134.3259582856
 20
97.065937897
 10
134.1939092766
 20
96.8922313467
 10
134.066697885
 20
96.7144856646
 10
133.9447450449
 20
96.5332889982
 10
133.8284542902
 20
96.3492409141
 10
133.7182104193
 20
96.1629504139
 10
133.6143782223
 20
95.9750339199
 10
133.5173012732
 20
95.7861132344
 10
133.4273007936
 20
95.5968134824
 10
133.3446745898
 20
95.4077610443
 10
133.2696960667
 20
95.2195814813
 10
133.2026133237
 20
95.0328974665
 10
133.1436483341
 20
94.8483267254
 10
133.0929962095
 20
94.6664799898
 10
133.0508245549
 20
94.4879589782
 10
133.0172729143
 20
94.3133544056
 10
132.9924523084
 20
94.1432440268
 10
132.9764448673
 20
93.9781907256
 10
132.9693035592
 20
93.8187406523
  0
LINE
  5
30B
100
AcDbEntity
  8
DRAFT
100
AcDbLine
 62
7
  6
CONTINUOUS
 10
125.8976972685
 20
96.2351026311
 11
126.000167245
 21
96.3075598464
  0
LWPOLYLINE
  5
30C
100
AcDbEntity
  8
RACCORDO
100
AcDbPolyline
 62
253
  6
CONTINUOUS
 90
18
 70
0
 10
184.9861284168
 20
133.2403012965
 10
185.1406298841
 20
133.3451047762
 10
185.2946201169
 20
133.4406703577
 10
185.4475895727
 20
133.5266818214
 10
185.5990320864
 20
133.6028545613
 10
185.7484465454
 20
133.6689365274
 10
185.8953385479
 20
133.724709059
 10
186.0392220389
 20
133.7699876089
 10
186.1796209179
 20
133.8046223536
 10
186.3160706152
 20
133.8284986891
 10
186.4481196283
 20
133.8415376103
 10
186.5753310166
 20
133.8436959725
 10
186.6972838465
 20
133.8349666336
 10
186.8135745848
 20
133.8153784786
 10
186.9238184338
 20
133.7849963231
 10
187.0276506043
 20
133.7439206996
 10
187.1247275232
 20
133.6922875244
 10
187.1800594397
 20
133.6559825355
  0
LWPOLYLINE
  5
30D
100
AcDbEntity
  8
IMPORT_IGES
100
AcDbPolyline
 62
253
  6
CONTINUOUS
 90
8
 70
0
 10
119.81410976
 20
98.7412162429
 10
119.8190481146
 20
98.7434905562
 10
119.8278561395
 20
98.7426426308
 10
119.8401831013
 20
98.7385022163
 10
119.8557491179
 20
98.7311641459
 10
119.8742024666
 20
98.7207957523
 10
119.8951304826
 20
98.7076301852
 10
119.9180646462
 20
98.691963156
  0
LWPOLYLINE
  5
30E
100
AcDbEntity
  8
IMPORT_IGES
100
AcDbPolyline
 62
253
  6
CONTINUOUS
 90
8
 70
0
 10
121.256607592
 20
97.721216241
 10
121.2615459482
 20
97.7234905562
 10
121.2703539732
 20
97.7226426308
 10
121.2826809349
 20
97.7185022163
 10
121.2982469515
 20
97.7111641459
 10
121.3167003002
 20
97.7007957523
 10
121.3376283163
 20
97.6876301852
 10
121.3605624798
 20
97.671963156
  0
LWPOLYLINE
  5
30F
100
AcDbEntity
  8
IMPORT_IGES
100
AcDbPolyline
 62
253
  6
CONTINUOUS
 90
8
 70
0
 10
122.6991054257
 20
96.701216241
 10
122.7040437818
 20
96.7034905562
 10
122.7128518068
 20
96.7026426308
 10
122.7251787685
 20
96.6985022163
 10
122.7407447851
 20
96.6911641459
 10
122.7591981339
 20
96.6807957523
 10
122.7801261499
 20
96.6676301852
 10
122.8030603134
 20
96.651963156
  0
LINE
  5
310
100
AcDbEntity
  8
0
100
AcDbLine
 62
7
  6
CONTINUOUS
 10
140.5145688288
 20
123.9784676794
 11
148.8700070132
 21
122.3842686794
  0
LINE
  5
311
100
AcDbEntity
  8
IMPORT_IGES
100
AcDbLine
 62
7
  6
CONTINUOUS
 10
140.5145688288
 20
123.9784676794
 11
148.8700070132
 21
122.3842686794
  0
LINE
  5
312
100
AcDbEntity
  8
0
100
AcDbLine
 62
7
  6
CONTINUOUS
 10
147.0425670792
 20
121.0920735098
 11
145.2992379764
 21
122.3247933403
  0
LINE
  5
313
100
AcDbEntity
  8
0
100
AcDbLine
 62
7
  6
CONTINUOUS
 10
147.0675670792
 20
121.1097511794
 11
145.2992379764
 21
122.3601486794
  0
LINE
  5
314
100
AcDbEntity
  8
IMPORT_IGES
100
AcDbLine
 62
7
  6
CONTINUOUS
 10
147.0675670792
 20
121.1097511794
 11
145.2992379764
 21
122.3601486794
  0
LINE
  5
315
100
AcDbEntity
  8
0
100
AcDbLine
 62
7
  6
CONTINUOUS
 10
148.8554513541
 20
122.3870458667
 11
146.6149254012
 21
128.2567158403
  0
LINE
  5
316
100
AcDbEntity
  8
0
100
AcDbLine
 62
7
  6
CONTINUOUS
 10
148.8700070132
 20
122.3842686794
 11
146.6149254012
 21
128.2920711794
  0
LINE
  5
317
100
AcDbEntity
  8
IMPORT_IGES
100
AcDbLine
 62
7
  6
CONTINUOUS
 10
148.8700070132
 20
122.3842686794
 11
146.6149254012
 21
128.2920711794
  0
LINE
  5
318
100
AcDbEntity
  8
0
100
AcDbLine
 62
7
  6
CONTINUOUS
 10
154.7153476463
 20
132.7695366794
 11
154.7153476463
 21
132.7341813403
  0
LINE
  5
319
100
AcDbEntity
  8
0
100
AcDbLine
 62
7
  6
CONTINUOUS
 10
155.0889383217
 20
136.7948541794
 11
155.0889383217
 21
136.7594988403
  0
LINE
  5
31A
100
AcDbEntity
  8
0
100
AcDbLine
 62
7
  6
CONTINUOUS
 10
155.4702011058
 20
129.0453346794
 11
155.4702011058
 21
129.0099793403
  0
LINE
  5
31B
100
AcDbEntity
  8
0
100
AcDbLine
 62
7
  6
CONTINUOUS
 10
158.3759977332
 20
136.4292281794
 11
158.3759977332
 21
136.3938728403
  0
LWPOLYLINE
  5
31C
100
AcDbEntity
  8
RACCORDO
100
AcDbPolyline
 62
253
  6
CONTINUOUS
 90
31
 70
0
 10
184.9861284168
 20
132.0404840623
 10
185.0294868325
 20
132.0728119709
 10
185.0702078377
 20
132.1065184769
 10
185.1082914324
 20
132.1416035802
 10
185.1438337807
 20
132.178175382
 10
185.1767387185
 20
132.2161257811
 10
185.2067177532
 20
132.2551304742
 10
185.2337406141
 20
132.2951936054
 10
185.257837572
 20
132.3363110305
 10
185.2788109472
 20
132.3781460145
 10
185.2966349402
 20
132.4207042886
 10
185.3113353505
 20
132.4639801215
 10
185.3227918977
 20
132.5076195843
 10
185.3309780449
 20
132.5516258231
 10
185.335920329
 20
132.5959956918
 10
185.3375780811
 20
132.6403658234
 10
185.3359242506
 20
132.684736305
 10
185.3309858881
 20
132.7291070496
 10
185.322803476
 20
132.7731144293
 10
185.3113504084
 20
132.8167552685
 10
185.2966532912
 20
132.8600327429
 10
185.278832424
 20
132.9025927504
 10
185.2578620395
 20
132.9444295231
 10
185.233767905
 20
132.985548829
 10
185.2067476222
 20
133.0256138706
 10
185.1767723769
 20
133.0646194071
 10
185.1438709833
 20
133.1025706794
 10
185.108327486
 20
133.139146612
 10
185.0702365666
 20
133.1742401798
 10
185.0295035435
 20
133.2079584079
 10
184.9861284168
 20
133.2403012965
  0
LINE
  5
31D
100
AcDbEntity
  8
RACCORDO
100
AcDbLine
 62
253
  6
CONTINUOUS
 10
137.3526978888
 20
98.3585623247
 11
184.9861284168
 21
132.0404840623
  0
LINE
  5
31E
100
AcDbEntity
  8
0
100
AcDbLine
 62
7
  6
CONTINUOUS
 10
145.179582074
 20
124.9584378403
 11
139.8513097391
 21
125.9749103403
  0
LINE
  5
31F
100
AcDbEntity
  8
0
100
AcDbLine
 62
7
  6
CONTINUOUS
 10
145.179582074
 20
124.9937931794
 11
139.8513097391
 21
126.0102656794
  0
LINE
  5
320
100
AcDbEntity
  8
IMPORT_IGES
100
AcDbLine
 62
7
  6
CONTINUOUS
 10
145.179582074
 20
124.9937931794
 11
139.8513097391
 21
126.0102656794
  0
LINE
  5
321
100
AcDbEntity
  8
0
100
AcDbLine
 62
7
  6
CONTINUOUS
 10
147.6810126175
 20
127.7955106794
 11
152.1018357282
 21
124.6695166794
  0
LINE
  5
322
100
AcDbEntity
  8
IMPORT_IGES
100
AcDbLine
 62
7
  6
CONTINUOUS
 10
147.6810126175
 20
127.7955106794
 11
152.1018357282
 21
124.6695166794
  0
LINE
  5
323
100
AcDbEntity
  8
0
100
AcDbLine
 62
7
  6
CONTINUOUS
 10
160.2298719073
 20
140.4300431794
 11
160.2298719073
 21
140.3946878403
  0
LINE
  5
324
100
AcDbEntity
  8
0
100
AcDbLine
 62
7
  6
CONTINUOUS
 10
161.1909212397
 20
136.1156736794
 11
161.1909212397
 21
136.0803183403
  0
LINE
  5
325
100
AcDbEntity
  8
DRAFT
100
AcDbLine
 62
7
  6
CONTINUOUS
 10
126.1098293027
 20
85.7340434932
 11
125.8976972685
 21
85.5840434933
  0
LINE
  5
326
100
AcDbEntity
  8
RACCORDO
100
AcDbLine
 62
253
  6
CONTINUOUS
 10
140.0392944133
 20
93.8187406522
 11
187.6727249413
 21
127.5006623897
  0
LINE
  5
327
100
AcDbEntity
  8
0
100
AcDbLine
 62
7
  6
CONTINUOUS
 10
152.947830302
 20
127.2263938403
 11
151.34698439
 21
128.3583628403
  0
LINE
  5
328
100
AcDbEntity
  8
0
100
AcDbLine
 62
7
  6
CONTINUOUS
 10
152.947830302
 20
127.2617491794
 11
151.34698439
 21
128.3937181794
  0
LINE
  5
329
100
AcDbEntity
  8
IMPORT_IGES
100
AcDbLine
 62
7
  6
CONTINUOUS
 10
152.947830302
 20
127.2617491794
 11
151.34698439
 21
128.3937181794
  0
LINE
  5
32A
100
AcDbEntity
  8
0
100
AcDbLine
 62
7
  6
CONTINUOUS
 10
153.8693551938
 20
130.1773036794
 11
155.4702011058
 21
129.0453346794
  0
LINE
  5
32B
100
AcDbEntity
  8
IMPORT_IGES
100
AcDbLine
 62
7
  6
CONTINUOUS
 10
153.8693551938
 20
130.1773036794
 11
155.4702011058
 21
129.0453346794
  0
LWPOLYLINE
  5
32C
100
AcDbEntity
  8
RACCORDO
100
AcDbPolyline
 62
253
  6
CONTINUOUS
 90
17
 70
0
 10
187.6727249413
 20
127.5006623897
 10
187.8528268904
 20
127.6373092394
 10
188.0227471156
 20
127.7803050026
 10
188.182020295
 20
127.9292558272
 10
188.3302099396
 20
128.0837497745
 10
188.4669106953
 20
128.2433636429
 10
188.5917491266
 20
128.4076642691
 10
188.7043836717
 20
128.5762011876
 10
188.8045050316
 20
128.7485103219
 10
188.8918381697
 20
128.9241209723
 10
188.9661436539
 20
129.1025506663
 10
189.0272185393
 20
129.283309916
 10
189.0748959078
 20
129.4659061481
 10
189.1090450917
 20
129.6498396705
 10
189.1295722055
 20
129.8346050406
 10
189.1364208421
 20
130.0196958362
 10
189.1349274801
 20
130.1060872446
  0
LINE
  5
32D
100
AcDbEntity
  8
0
100
AcDbLine
 62
7
  6
CONTINUOUS
 10
152.7174478416
 20
135.1179571794
 11
158.8194314667
 21
134.4387771794
  0
LINE
  5
32E
100
AcDbEntity
  8
IMPORT_IGES
100
AcDbLine
 62
7
  6
CONTINUOUS
 10
152.7174478416
 20
135.1179571794
 11
158.8194314667
 21
134.4387771794
  0
LINE
  5
32F
100
AcDbEntity
  8
0
100
AcDbLine
 62
7
  6
CONTINUOUS
 10
161.6338147437
 20
134.1256036794
 11
164.9214129705
 21
133.7595956794
  0
LINE
  5
330
100
AcDbEntity
  8
IMPORT_IGES
100
AcDbLine
 62
7
  6
CONTINUOUS
 10
161.6338147437
 20
134.1256036794
 11
164.9214129705
 21
133.7595956794
  0
LINE
  5
331
100
AcDbEntity
  8
0
100
AcDbLine
 62
7
  6
CONTINUOUS
 10
154.7636793906
 20
134.0541103835
 11
151.7531535962
 21
134.3907848403
  0
LINE
  5
332
100
AcDbEntity
  8
0
100
AcDbLine
 62
7
  6
CONTINUOUS
 10
154.8068515064
 20
134.0846376794
 11
151.7531535962
 21
134.4261401794
  0
LINE
  5
333
100
AcDbEntity
  8
IMPORT_IGES
100
AcDbLine
 62
7
  6
CONTINUOUS
 10
154.8068515064
 20
134.0846376794
 11
151.7531535962
 21
134.4261401794
  0
LINE
  5
334
100
AcDbEntity
  8
0
100
AcDbLine
 62
7
  6
CONTINUOUS
 10
159.111170757
 20
129.6258650098
 11
154.7153476463
 21
132.7341813403
  0
LINE
  5
335
100
AcDbEntity
  8
0
100
AcDbLine
 62
7
  6
CONTINUOUS
 10
159.136170757
 20
129.6435426794
 11
154.7153476463
 21
132.7695366794
  0
LINE
  5
336
100
AcDbEntity
  8
IMPORT_IGES
100
AcDbLine
 62
7
  6
CONTINUOUS
 10
159.136170757
 20
129.6435426794
 11
154.7153476463
 21
132.7695366794
  0
LINE
  5
337
100
AcDbEntity
  8
0
100
AcDbLine
 62
7
  6
CONTINUOUS
 10
161.1909212397
 20
136.0803183403
 11
160.2298719073
 21
140.3946878403
  0
LINE
  5
338
100
AcDbEntity
  8
0
100
AcDbLine
 62
7
  6
CONTINUOUS
 10
161.1909212397
 20
136.1156736794
 11
160.2298719073
 21
140.4300431794
  0
LINE
  5
339
100
AcDbEntity
  8
IMPORT_IGES
100
AcDbLine
 62
7
  6
CONTINUOUS
 10
161.1909212397
 20
136.1156736794
 11
160.2298719073
 21
140.4300431794
  0
LINE
  5
33A
100
AcDbEntity
  8
0
100
AcDbLine
 62
7
  6
CONTINUOUS
 10
158.8194314667
 20
134.4387771794
 11
159.779937034
 21
130.1240231794
  0
LINE
  5
33B
100
AcDbEntity
  8
IMPORT_IGES
100
AcDbLine
 62
7
  6
CONTINUOUS
 10
158.8194314667
 20
134.4387771794
 11
159.779937034
 21
130.1240231794
  0
LINE
  5
33C
100
AcDbEntity
  8
0
100
AcDbLine
 62
7
  6
CONTINUOUS
 10
162.1439271603
 20
131.7992501546
 11
161.6338147437
 21
134.0902483403
  0
LINE
  5
33D
100
AcDbEntity
  8
0
100
AcDbLine
 62
7
  6
CONTINUOUS
 10
162.1514275141
 20
131.8009201794
 11
161.6338147437
 21
134.1256036794
  0
LINE
  5
33E
100
AcDbEntity
  8
IMPORT_IGES
100
AcDbLine
 62
7
  6
CONTINUOUS
 10
162.1514275141
 20
131.8009201794
 11
161.6338147437
 21
134.1256036794
  0
LINE
  5
33F
100
AcDbEntity
  8
0
100
AcDbLine
 62
7
  6
CONTINUOUS
 10
157.8589237781
 20
138.7535296794
 11
158.3759977332
 21
136.4292281794
  0
LINE
  5
340
100
AcDbEntity
  8
IMPORT_IGES
100
AcDbLine
 62
7
  6
CONTINUOUS
 10
157.8589237781
 20
138.7535296794
 11
158.3759977332
 21
136.4292281794
  0
LINE
  5
341
100
AcDbEntity
  8
0
100
AcDbLine
 62
7
  6
CONTINUOUS
 10
158.3759977332
 20
136.3938728403
 11
155.0889383217
 21
136.7594988403
  0
LINE
  5
342
100
AcDbEntity
  8
0
100
AcDbLine
 62
7
  6
CONTINUOUS
 10
158.3759977332
 20
136.4292281794
 11
155.0889383217
 21
136.7948541794
  0
LINE
  5
343
100
AcDbEntity
  8
IMPORT_IGES
100
AcDbLine
 62
7
  6
CONTINUOUS
 10
158.3759977332
 20
136.4292281794
 11
155.0889383217
 21
136.7948541794
  0
LINE
  5
344
100
AcDbEntity
  8
0
100
AcDbLine
 62
7
  6
CONTINUOUS
 10
167.2491649992
 20
135.4055649238
 11
161.1909212397
 21
136.0803183403
  0
LINE
  5
345
100
AcDbEntity
  8
0
100
AcDbLine
 62
7
  6
CONTINUOUS
 10
167.2923610997
 20
135.4361091794
 11
161.1909212397
 21
136.1156736794
  0
LINE
  5
346
100
AcDbEntity
  8
IMPORT_IGES
100
AcDbLine
 62
7
  6
CONTINUOUS
 10
167.2923610997
 20
135.4361091794
 11
161.1909212397
 21
136.1156736794
  0
LINE
  5
347
100
AcDbEntity
  8
DRAFT
100
AcDbLine
 62
7
  6
CONTINUOUS
 10
188.1329680887
 20
114.0113760423
 11
187.7230940129
 21
114.3012007808
  0
LINE
  5
348
100
AcDbEntity
  8
RACCORDO
100
AcDbLine
 62
7
  6
CONTINUOUS
 10
140.0392944133
 20
80.5836627311
 11
188.1236324919
 21
114.5844242554
  0
LINE
  5
349
100
AcDbEntity
  8
DRAFT
100
AcDbLine
 62
7
  6
CONTINUOUS
 10
183.8903274016
 20
111.0113760423
 11
188.1329680887
 21
114.0113760423
  0
LINE
  5
34A
100
AcDbEntity
  8
RACCORDO
100
AcDbLine
 62
7
  6
CONTINUOUS
 10
140.0392944133
 20
79.1345390389
 11
188.173002871
 21
113.170210693
  0
LINE
  5
34B
100
AcDbEntity
  8
DRAFT
100
AcDbLine
 62
7
  6
CONTINUOUS
 10
183.87057925
 20
111.5770614673
 11
183.8903274016
 21
111.0113760423
  0
LWPOLYLINE
  5
34C
100
AcDbEntity
  8
RACCORDO
100
AcDbPolyline
 62
253
  6
CONTINUOUS
 90
31
 70
0
 10
157.151687762
 20
152.922223034
 10
157.1059691952
 20
152.9528820638
 10
157.0583009973
 20
152.9816761627
 10
157.0086831683
 20
153.0086053307
 10
156.9569628303
 20
153.0337375662
 10
156.9032928611
 20
153.0570048709
 10
156.8481318951
 20
153.0782032497
 10
156.7914740717
 20
153.0973112978
 10
156.7333252514
 20
153.1143504201
 10
156.6741616496
 20
153.129180836
 10
156.6139751612
 20
153.1417843023
 10
156.5527738914
 20
153.1521790621
 10
156.4910583712
 20
153.1602800643
 10
156.4288241515
 20
153.1660685445
 10
156.3660756815
 20
153.1695632671
 10
156.3033268396
 20
153.1707354748
 10
156.2405775027
 20
153.1695660401
 10
156.1778277939
 20
153.1660740905
 10
156.1155919608
 20
153.1602882514
 10
156.053874494
 20
153.1521897097
 10
155.9926709029
 20
153.1417972784
 10
155.932481963
 20
153.1291960224
 10
155.8733158317
 20
153.1143677213
 10
155.8151643516
 20
153.0973305954
 10
155.7585038264
 20
153.0782243702
 10
155.7033416676
 20
153.057028671
 10
155.6496704637
 20
153.0337638724
 10
155.5979442838
 20
153.0086308245
 10
155.5483144842
 20
152.9816964771
 10
155.5006297086
 20
152.9528938802
 10
155.454889957
 20
152.922223034
  0
LWPOLYLINE
  5
34D
100
AcDbEntity
  8
RACCORDO
100
AcDbPolyline
 62
253
  6
CONTINUOUS
 90
18
 70
0
 10
155.454889957
 20
152.922223034
 10
155.3003884898
 20
153.0270265137
 10
155.1463982569
 20
153.1225920953
 10
154.9934288012
 20
153.2086035589
 10
154.8419862875
 20
153.2847762989
 10
154.6925718285
 20
153.3508582649
 10
154.5456798259
 20
153.4066307966
 10
154.401796335
 20
153.4519093465
 10
154.261397456
 20
153.4865440911
 10
154.1249477587
 20
153.5104204266
 10
153.9928987455
 20
153.5234593479
 10
153.8656873573
 20
153.52561771
 10
153.7437345274
 20
153.5168883712
 10
153.6274437891
 20
153.4973002161
 10
153.5171999401
 20
153.4669180606
 10
153.4133677696
 20
153.4258424372
 10
153.3162908507
 20
153.374209262
 10
153.2610648017
 20
153.3379791219
  0
LWPOLYLINE
  5
34E
100
AcDbEntity
  8
RACCORDO
100
AcDbPolyline
 62
7
  6
CONTINUOUS
 90
28
 70
0
 10
159.345490618
 20
153.3379919218
 10
159.2282017488
 20
153.4183945187
 10
159.0249625936
 20
153.5464671567
 10
158.8146927617
 20
153.6652270795
 10
158.5972748525
 20
153.774615223
 10
158.3733413741
 20
153.874195399
 10
158.1442822913
 20
153.9633127241
 10
157.910141125
 20
154.0419408607
 10
157.6711402755
 20
154.1099520463
 10
157.4288611203
 20
154.1668615172
 10
157.1831303476
 20
154.2127077601
 10
156.9341885011
 20
154.2473647622
 10
156.6842063372
 20
154.2705051728
 10
156.4331559323
 20
154.2821934183
 10
156.1810118247
 20
154.2823671427
 10
155.9299501524
 20
154.2710269895
 10
155.679945273
 20
154.2482343014
 10
155.4309683963
 20
154.213926702
 10
155.1851910473
 20
154.1684305688
 10
154.9428527156
 20
154.1118701577
 10
154.7037788104
 20
154.0442112332
 10
154.4695549918
 20
153.9659365047
 10
154.2404028258
 20
153.8771739646
 10
154.0163598879
 20
153.7779508327
 10
153.7988161479
 20
153.6689175434
 10
153.588405197
 20
153.5505125084
 10
153.3850111447
 20
153.422797336
 10
153.2610655605
 20
153.3379780488
  0
LINE
  5
34F
100
AcDbEntity
  8
RACCORDO
100
AcDbLine
 62
253
  6
CONTINUOUS
 10
184.9861284168
 20
133.2403012965
 11
157.151687762
 21
152.922223034
  0
LINE
  5
350
100
AcDbEntity
  8
RACCORDO
100
AcDbLine
 62
7
  6
CONTINUOUS
 10
187.1800594397
 20
133.6559825355
 11
159.3456187653
 21
153.3379042869
  0
LWPOLYLINE
  5
351
100
AcDbEntity
  8
RACCORDO
100
AcDbPolyline
 62
253
  6
CONTINUOUS
 90
28
 70
0
 10
184.9861284168
 20
132.0404840623
 10
185.1406298152
 20
131.9267895286
 10
185.2946199854
 20
131.8045800942
 10
185.4475893853
 20
131.6742601401
 10
185.5990318502
 20
131.5362608847
 10
185.7484462681
 20
131.3910389564
 10
185.8953382374
 20
131.2390748831
 10
186.0392217031
 20
131.080871502
 10
186.1796205648
 20
130.9169522959
 10
186.3160702524
 20
130.747859661
 10
186.4481192634
 20
130.574153112
 10
186.5753306564
 20
130.3964074309
 10
186.6972834975
 20
130.2152107653
 10
186.8135742527
 20
130.0311626815
 10
186.9238181236
 20
129.8448721813
 10
187.0276503201
 20
129.656955687
 10
187.1247272681
 20
129.4680350007
 10
187.2147277463
 20
129.2787352477
 10
187.2973539481
 20
129.0896828082
 10
187.3723324688
 20
128.9015032435
 10
187.4394152088
 20
128.7148192266
 10
187.4983801951
 20
128.5302484831
 10
187.5490323159
 20
128.3484017448
 10
187.5912039663
 20
128.1698807303
 10
187.6247556022
 20
127.9952761544
 10
187.6495762031
 20
127.8251657721
 10
187.6655836388
 20
127.6601124671
 10
187.6727249412
 20
127.5006623896
  0
LINE
  5
352
100
AcDbEntity
  8
RACCORDO
100
AcDbLine
 62
253
  6
CONTINUOUS
 10
187.6727249413
 20
127.5006623897
 11
188.1236324919
 21
114.5844242554
  0
LINE
  5
353
100
AcDbEntity
  8
RACCORDO
100
AcDbLine
 62
253
  6
CONTINUOUS
 10
188.1329680887
 20
114.3170062618
 11
188.173002871
 21
113.170210693
  0
LINE
  5
354
100
AcDbEntity
  8
RACCORDO
100
AcDbLine
 62
7
  6
CONTINUOUS
 10
188.1329563525
 20
114.5844249954
 11
188.1329557652
 21
114.5910342333
  0
LINE
  5
355
100
AcDbEntity
  8
RACCORDO
100
AcDbLine
 62
7
  6
CONTINUOUS
 10
188.1329680887
 20
114.3170062618
 11
188.1329680887
 21
114.0113760423
  0
LWPOLYLINE
  5
356
100
AcDbEntity
  8
RACCORDO
100
AcDbPolyline
 62
7
  6
CONTINUOUS
 90
19
 70
0
 10
189.1349286547
 20
130.1059702729
 10
189.1283605039
 20
130.2379480872
 10
189.1066175588
 20
130.4744146668
 10
189.07206468
 20
130.7099973186
 10
189.024777523
 20
130.9437186489
 10
188.9648349373
 20
131.1749699233
 10
188.8922368054
 20
131.4035115968
 10
188.8071223121
 20
131.6286044756
 10
188.7097124927
 20
131.8494384692
 10
188.6000534992
 20
132.0656838002
 10
188.4783965981
 20
132.2766524869
 10
188.3450900593
 20
132.4815936245
 10
188.2002641801
 20
132.680133168
 10
188.0442292657
 20
132.8716690177
 10
187.8774087791
 20
133.0555606137
 10
187.6999821195
 20
133.2314590257
 10
187.5122191409
 20
133.3989109806
 10
187.3146484327
 20
133.5573149488
 10
187.1802457717
 20
133.6558491352
  0
LINE
  5
357
100
AcDbEntity
  8
RACCORDO
100
AcDbLine
 62
7
  6
CONTINUOUS
 10
189.1348981184
 20
130.1069320854
 11
189.6358493298
 21
115.7571942464
  0
ELLIPSE
  5
358
100
AcDbEntity
  8
RACCORDO
100
AcDbEllipse
 62
7
  6
CONTINUOUS
 10
184.6358533642
 20
115.6698299309
 30
0.0
 11
5.0015231645
 21
0.0
 31
0.0
 40
0.7068914388
 41
-0.7852458701
 42
0.0246139749
  0
ELLIPSE
  5
359
100
AcDbEntity
  8
RACCORDO
100
AcDbEllipse
 62
7
  6
CONTINUOUS
 10
108.1717344817
 20
101.6698299309
 30
0.0
 11
5.0015231645
 21
-0.0
 31
0.0
 40
0.7068914388
 41
3.1169786776
 42
3.9268385237
  0
ELLIPSE
  5
35A
100
AcDbEntity
  8
RACCORDO
100
AcDbEllipse
 62
7
  6
CONTINUOUS
 10
136.5042989863
 20
81.6356814412
 30
0.0
 11
5.0
 21
-0.0
 31
0.0
 40
0.7073221892
 41
-2.3560421969
 42
-0.7855504566
  0
ELLIPSE
  5
35B
100
AcDbEntity
  8
RACCORDO
100
AcDbEllipse
 62
7
  6
CONTINUOUS
 10
184.5968956218
 20
116.7857737123
 30
0.0
 11
-0.0841825733
 21
103.8204607495
 31
0.0
 40
0.0340498418
 41
4.6885799301
 42
4.6911563632
  0
ELLIPSE
  5
35C
100
AcDbEntity
  8
RACCORDO
100
AcDbEllipse
 62
7
  6
CONTINUOUS
 10
108.2211048608
 20
103.0840434933
 30
0.0
 11
5.0015231645
 21
0.0
 31
0.0
 40
0.7068914388
 41
3.1169786776
 42
3.9268385237
  0
ELLIPSE
  5
35D
100
AcDbEntity
  8
RACCORDO
100
AcDbEllipse
 62
7
  6
CONTINUOUS
 10
136.5042989863
 20
83.0848051335
 30
0.0
 11
5.0
 21
-0.0
 31
0.0
 40
0.7073221892
 41
-2.3560421969
 42
-0.7855504566
  0
ELLIPSE
  5
35E
100
AcDbEntity
  8
RACCORDO
100
AcDbEllipse
 62
7
  6
CONTINUOUS
 10
184.5864829851
 20
117.0840434933
 30
0.0
 11
5.0015231645
 21
-0.0
 31
0.0
 40
0.7068914388
 41
-0.7852458701
 42
0.0246139749
  0
ENDSEC
  0
SECTION
  2
OBJECTS
  0
DICTIONARY
  5
C
100
AcDbDictionary
280
0
281
1
  3
ACAD_GROUP
350
D
  3
ACAD_MLINESTYLE
350
17
  3
ACAD_LAYOUT
350
1A
  3
ACAD_PLOTSETTINGS
350
19
  3
ACAD_PLOTSTYLENAME
350
E
  0
DICTIONARY
  5
D
102
{ACAD_REACTORS
330
C
102
}
100
AcDbDictionary
280
0
281
1
  0
ACDBDICTIONARYWDFLT
  5
E
102
{ACAD_REACTORS
330
C
102
}
100
AcDbDictionary
281
1
  3
Normal
350
F
100
AcDbDictionaryWithDefault
340
F
  0
DICTIONARY
  5
17
102
{ACAD_REACTORS
330
C
102
}
100
AcDbDictionary
280
0
281
1
  3
Standard
350
18
  0
DICTIONARY
  5
19
102
{ACAD_REACTORS
330
C
102
}
100
AcDbDictionary
281
1
  0
DICTIONARY
  5
1A
102
{ACAD_REACTORS
330
C
102
}
100
AcDbDictionary
281
1
  3
Model
350
35F
  3
Layout1
350
360
  0
ACDBPLACEHOLDER
  5
F
102
{ACAD_REACTORS
330
E
102
}
  0
MLINESTYLE
  5
18
102
{ACAD_REACTORS
330
17
102
}
100
AcDbMlineStyle
  2
STANDARD
 70
0
  3

 62
256
 51
90.0
 52
90.0
 71
2
 49
0.5
 62
256
  6
BYLAYER
 49
-0.5
 62
256
  6
BYLAYER
  0
LAYOUT
  5
35F
102
{ACAD_REACTORS
330
1A
102
}
100
AcDbPlotSettings
  1

  2
none_device
  4
ISO_A4_(297.00_x_210.00_MM)
  6

 40
0.0
 41
0.0
 42
0.0
 43
0.0
 44
297.0
 45
210.0
 46
0.0
 47
0.0
 48
0.0
 49
0.0
140
0.0
141
0.0
142
1.0
143
1.0
 70
1024
 72
1
 73
0
 74
0
  7

 75
0
147
1.0
148
0.0
149
0.0
100
AcDbLayout
  1
Model
 70
0
 71
0
 10
0.0
 20
0.0
 11
297.0
 21
210.0
 12
0.0
 22
0.0
 32
0.0
 14
0.0
 24
0.0
 34
0.0
 15
0.0
 25
0.0
 35
0.0
146
0.0
 13
0.0
 23
0.0
 33
0.0
 16
1.0
 26
0.0
 36
0.0
 17
0.0
 27
1.0
 37
0.0
 76
0
330
221
345
0
346
0
  0
LAYOUT
  5
360
102
{ACAD_REACTORS
330
1A
102
}
100
AcDbPlotSettings
  1

  2
none_device
  4
ISO_A4_(297.00_x_210.00_MM)
  6

 40
0.0
 41
0.0
 42
0.0
 43
0.0
 44
297.0
 45
210.0
 46
0.0
 47
0.0
 48
0.0
 49
0.0
140
0.0
141
0.0
142
1.0
143
1.0
 70
0
 72
1
 73
0
 74
0
  7

 75
0
147
1.0
148
0.0
149
0.0
100
AcDbLayout
  1
Layout1
 70
0
 71
1
 10
0.0
 20
0.0
 11
297.0
 21
210.0
 12
0.0
 22
0.0
 32
0.0
 14
0.0
 24
0.0
 34
0.0
 15
0.0
 25
0.0
 35
0.0
146
0.0
 13
0.0
 23
0.0
 33
0.0
 16
1.0
 26
0.0
 36
0.0
 17
0.0
 27
1.0
 37
0.0
 76
0
330
222
345
0
346
0
  0
ENDSEC
  0
EOF
