  0
SECTION
  2
HEADER
  9
$ACADVER
  1
AC1015
  9
$DWGCODEPAGE
  3
ANSI_1252
  9
$EXTMAX
 10
297.0
 20
210.0
 30
0.0
  9
$EXTMIN
 10
0.0
 20
0.0
 30
0.0
  9
$LIMMIN
 10
0.0
 20
0.0
  9
$LIMMAX
 10
297.0
 20
210.0
  9
$VIEWCTR
 10
148.5
 20
105.0
  9
$VIEWSIZE
 40
210.0
  9
$CLAYER
  8
0
  9
$LTSCALE
 40
16.335
  9
$CELTYPE
  6
BYLAYER
  9
$DIMSCALE
 40
1.0
  9
$DIMASZ
 40
3.0
  9
$DIMEXO
 40
1.85625
  9
$DIMDLI
 40
11.286
  9
$DIMEXE
 40
5.346
  9
$DIMCEN
 40
2.673
  9
$DIMLFAC
 40
1.0
  9
$DIMBLK
  1
_FILLED
  9
$DIMTXT
 40
3.0
  9
$DIMTOL
 70
1
  9
$DIMLIM
 70
0
  9
$DIMTFAC
 40
1.0
  9
$DIMTP
 40
0.01
  9
$DIMTM
 40
0.01
  9
$PDMODE
 70
3
  9
$PDSIZE
 40
3.0
  9
$HANDSEED
  5
4E7
  9
$TILEMODE
 70
1
  9
$MEASUREMENT
 70
1
  9
$INSUNITS
 70
4
  0
ENDSEC
  0
SECTION
  2
CLASSES
  0
CLASS
  1
ACDBDICTIONARYWDFLT
  2
AcDbDictionaryWithDefault
  3
AutoCAD 2000
 90
0
280
0
281
0
  0
CLASS
  1
ACDBPLACEHOLDER
  2
AcDbPlaceHolder
  3
AutoCAD 2000
 90
0
280
0
281
0
  0
CLASS
  1
LAYOUT
  2
AcDbLayout
  3
AutoCAD 2000
 90
0
280
0
281
0
  0
ENDSEC
  0
SECTION
  2
TABLES
  0
TABLE
  2
VPORT
  5
8
100
AcDbSymbolTable
 70
2
  0
VPORT
  5
1F4
100
AcDbSymbolTableRecord
100
AcDbViewportTableRecord
  2
*ACTIVE
 70
0
 10
0.0
 20
0.0
 11
1.0
 21
1.0
 12
148.5
 22
105.0
 13
0.0
 23
0.0
 14
1.0
 24
1.0
 15
0.0
 25
0.0
 16
0.0
 26
0.0
 36
1.0
 17
0.0
 27
0.0
 37
0.0
 40
210.0
 41
1.4142857143
 42
50.0
 43
0.0
 44
0.0
 50
0.0
 51
0.0
 71
0
 72
100
 73
1
 74
1
 75
0
 76
0
 77
0
 78
0
  0
ENDTAB
  0
TABLE
  2
LTYPE
  5
5
100
AcDbSymbolTable
 70
6
  0
LTYPE
  5
14
100
AcDbSymbolTableRecord
100
AcDbLinetypeTableRecord
  2
BYBLOCK
 70
0
  3

 72
65
 73
0
 40
0.0
  0
LTYPE
  5
15
100
AcDbSymbolTableRecord
100
AcDbLinetypeTableRecord
  2
BYLAYER
 70
0
  3

 72
65
 73
0
 40
0.0
  0
LTYPE
  5
16
100
AcDbSymbolTableRecord
100
AcDbLinetypeTableRecord
  2
CONTINUOUS
 70
64
  3
Solid line
 72
65
 73
0
 40
0.0
  0
LTYPE
  5
1F5
100
AcDbSymbolTableRecord
100
AcDbLinetypeTableRecord
  2
CENTER
 70
64
  3
____ _ ____ _ ____ _ ____ _ ____ _ ____ _ ____
 72
65
 73
4
 40
0.6
 49
0.375
 74
0
 49
-0.075
 74
0
 49
0.075
 74
0
 49
-0.075
 74
0
  0
LTYPE
  5
1F6
100
AcDbSymbolTableRecord
100
AcDbLinetypeTableRecord
  2
HIDDEN
 70
64
  3
- - - - - - - - - - - - - - - - - - - -
 72
65
 73
2
 40
0.2
 49
0.1
 74
0
 49
-0.1
 74
0
  0
LTYPE
  5
1F7
100
AcDbSymbolTableRecord
100
AcDbLinetypeTableRecord
  2
PHANTOM
 70
64
  3
_____ _ _ _____ _ _ _____ _ _ _____
 72
65
 73
6
 40
0.8
 49
0.45
 74
0
 49
-0.05
 74
0
 49
0.1
 74
0
 49
-0.05
 74
0
 49
0.1
 74
0
 49
-0.05
 74
0
  0
LTYPE
  5
1F8
100
AcDbSymbolTableRecord
100
AcDbLinetypeTableRecord
  2
DOT
 70
64
  3
. . . . . . . . . . . . . . . . . . . .
 72
65
 73
2
 40
0.2
 49
0.1
 74
0
 49
-0.1
 74
0
  0
LTYPE
  5
1F9
100
AcDbSymbolTableRecord
100
AcDbLinetypeTableRecord
  2
DASHED
 70
64
  3
- - - - - - - - - - - - - - - - - - - -
 72
65
 73
2
 40
0.2
 49
0.1
 74
0
 49
-0.1
 74
0
  0
ENDTAB
  0
TABLE
  2
LAYER
  5
2
100
AcDbSymbolTable
 70
36
  0
LAYER
  5
10
100
AcDbSymbolTableRecord
100
AcDbLayerTableRecord
  2
0
 70
0
 62
7
  6
CONTINUOUS
370
-3
390
F
  0
LAYER
  5
1FA
100
AcDbSymbolTableRecord
100
AcDbLayerTableRecord
  2
DEFAULT_1
 70
0
 62
7
  6
CENTER
370
-3
390
F
  0
LAYER
  5
1FB
100
AcDbSymbolTableRecord
100
AcDbLayerTableRecord
  2
DEFAULT_2
 70
0
 62
7
  6
HIDDEN
370
-3
390
F
  0
LAYER
  5
1FC
100
AcDbSymbolTableRecord
100
AcDbLayerTableRecord
  2
DEFAULT_3
 70
0
 62
7
  6
PHANTOM
370
-3
390
F
  0
LAYER
  5
1FD
100
AcDbSymbolTableRecord
100
AcDbLayerTableRecord
  2
ASSI
 70
0
 62
7
  6
CONTINUOUS
370
-3
390
F
  0
LAYER
  5
1FE
100
AcDbSymbolTableRecord
100
AcDbLayerTableRecord
  2
COORDINATE
 70
0
 62
7
  6
CONTINUOUS
370
-3
390
F
  0
LAYER
  5
1FF
100
AcDbSymbolTableRecord
100
AcDbLayerTableRecord
  2
COORD_ORIGINE
 70
0
 62
7
  6
CONTINUOUS
370
-3
390
F
  0
LAYER
  5
200
100
AcDbSymbolTableRecord
100
AcDbLayerTableRecord
  2
COPY_PUBLISH
 70
0
 62
7
  6
CONTINUOUS
370
-3
390
F
  0
LAYER
  5
201
100
AcDbSymbolTableRecord
100
AcDbLayerTableRecord
  2
COSMETIC
 70
0
 62
7
  6
CONTINUOUS
370
-3
390
F
  0
LAYER
  5
202
100
AcDbSymbolTableRecord
100
AcDbLayerTableRecord
  2
CURVE
 70
0
 62
7
  6
CONTINUOUS
370
-3
390
F
  0
LAYER
  5
203
100
AcDbSymbolTableRecord
100
AcDbLayerTableRecord
  2
DRAFT
 70
0
 62
7
  6
CONTINUOUS
370
-3
390
F
  0
LAYER
  5
204
100
AcDbSymbolTableRecord
100
AcDbLayerTableRecord
  2
IMPORT_IGES
 70
0
 62
7
  6
CONTINUOUS
370
-3
390
F
  0
LAYER
  5
205
100
AcDbSymbolTableRecord
100
AcDbLayerTableRecord
  2
NOTE
 70
0
 62
7
  6
CONTINUOUS
370
-3
390
F
  0
LAYER
  5
206
100
AcDbSymbolTableRecord
100
AcDbLayerTableRecord
  2
PIANI
 70
0
 62
7
  6
CONTINUOUS
370
-3
390
F
  0
LAYER
  5
207
100
AcDbSymbolTableRecord
100
AcDbLayerTableRecord
  2
PIANI_ORIGINE
 70
0
 62
7
  6
CONTINUOUS
370
-3
390
F
  0
LAYER
  5
208
100
AcDbSymbolTableRecord
100
AcDbLayerTableRecord
  2
PUNTI
 70
0
 62
7
  6
CONTINUOUS
370
-3
390
F
  0
LAYER
  5
209
100
AcDbSymbolTableRecord
100
AcDbLayerTableRecord
  2
RACCORDO
 70
0
 62
7
  6
CONTINUOUS
370
-3
390
F
  0
LAYER
  5
20A
100
AcDbSymbolTableRecord
100
AcDbLayerTableRecord
  2
SMUSSO
 70
0
 62
7
  6
CONTINUOUS
370
-3
390
F
  0
LAYER
  5
20B
100
AcDbSymbolTableRecord
100
AcDbLayerTableRecord
  2
TRASH
 70
0
 62
7
  6
CONTINUOUS
370
-3
390
F
  0
LAYER
  5
20C
100
AcDbSymbolTableRecord
100
AcDbLayerTableRecord
  2
XSEC_DATUMS
 70
0
 62
7
  6
CONTINUOUS
370
-3
390
F
  0
ENDTAB
  0
TABLE
  2
STYLE
  5
3
100
AcDbSymbolTable
 70
1
  0
STYLE
  5
11
100
AcDbSymbolTableRecord
100
AcDbTextStyleTableRecord
  2
STANDARD
 70
0
 40
0.0
 41
0.8
 50
0.0
 71
0
 42
0.2
  3
txt
  4

  0
STYLE
  5
20D
100
AcDbSymbolTableRecord
100
AcDbTextStyleTableRecord
  2
TEXTSTYLE_1
 70
0
 40
0.0
 41
0.8
 50
0.0
 71
0
 42
0.2
  3
gdt
  4

  0
ENDTAB
  0
TABLE
  2
VIEW
  5
6
100
AcDbSymbolTable
 70
0
  0
ENDTAB
  0
TABLE
  2
UCS
  5
7
100
AcDbSymbolTable
 70
0
  0
ENDTAB
  0
TABLE
  2
APPID
  5
9
100
AcDbSymbolTable
 70
1
  0
APPID
  5
20E
100
AcDbSymbolTableRecord
100
AcDbRegAppTableRecord
  2
ACAD
 70
0
  0
ENDTAB
  0
TABLE
  2
BLOCK_RECORD
  5
1
100
AcDbSymbolTable
 70
0
  0
BLOCK_RECORD
  5
20F
100
AcDbSymbolTableRecord
100
AcDbBlockTableRecord
  2
*Model_Space
  0
BLOCK_RECORD
  5
210
100
AcDbSymbolTableRecord
100
AcDbBlockTableRecord
  2
*Paper_Space
  0
ENDTAB
  0
TABLE
  2
DIMSTYLE
  5
A
100
AcDbSymbolTable
 70
1
100
AcDbDimStyleTable
 71
0
  0
DIMSTYLE
105
211
100
AcDbSymbolTableRecord
100
AcDbDimStyleTableRecord
  2
STANDARD
 70
0
  3

  4

 40
1.0
 41
3.0
 42
0.0625
 43
0.38
 44
0.18
 45
0.0
 46
0.0
 47
0.01
 48
0.01
140
3.0
141
0.09
142
0.0
143
25.4
144
1.0
145
0.0
146
1.0
147
0.09
 71
1.0
 72
0.0
 73
0
 74
0
 75
0
 76
0
 77
1
 78
8
170
0
171
2
172
0
173
0
174
0
175
0
176
0
177
0
178
0
270
2
271
2
272
2
273
2
274
2
275
0
280
0
281
0
282
0
283
1
284
8
285
0
286
0
287
3
288
0
340
11
  0
ENDTAB
  0
ENDSEC
  0
SECTION
  2
BLOCKS
  0
BLOCK
  5
20
100
AcDbEntity
  8
0
100
AcDbBlockBegin
  2
*Model_Space
 70
0
 10
0.0
 20
0.0
 30
0.0
  3
*Model_Space
  1

  0
ENDBLK
  5
21
100
AcDbEntity
  8
0
100
AcDbBlockEnd
  0
BLOCK
  5
1C
100
AcDbEntity
  8
0
100
AcDbBlockBegin
  2
*Paper_Space
 70
0
 10
0.0
 20
0.0
 30
0.0
  3
*Paper_Space
  1

  0
ENDBLK
  5
1D
100
AcDbEntity
  8
0
100
AcDbBlockEnd
  0
ENDSEC
  0
SECTION
  2
ENTITIES
  0
LINE
  5
212
100
AcDbEntity
  8
ASSI
100
AcDbLine
 62
7
  6
CONTINUOUS
 10
-92.0620770875
 20
111.2060547058
 11
-94.6783721779
 21
109.8979071606
  0
LINE
  5
213
100
AcDbEntity
  8
RACCORDO
100
AcDbLine
 62
253
  6
CONTINUOUS
 10
-87.5899411325
 20
110.9220368336
 11
-90.2062362229
 21
109.6138892884
  0
LINE
  5
214
100
AcDbEntity
  8
0
100
AcDbLine
 62
7
  6
CONTINUOUS
 10
-83.2201500886
 20
87.8977627278
 11
-83.099813072
 21
88.0314132624
  0
LINE
  5
215
100
AcDbEntity
  8
RACCORDO
100
AcDbLine
 62
253
  6
CONTINUOUS
 10
-66.3767376969
 20
103.6045640674
 11
-64.2430766384
 21
104.6257811878
  0
LINE
  5
216
100
AcDbEntity
  8
DRAFT
100
AcDbLine
 62
7
  6
CONTINUOUS
 10
-73.8947916899
 20
105.3285963266
 11
-75.1841246907
 21
104.7191286127
  0
LINE
  5
217
100
AcDbEntity
  8
RACCORDO
100
AcDbLine
 62
253
  6
CONTINUOUS
 10
-73.8947916921
 20
105.3285963255
 11
-73.8856495342
 21
105.3329109597
  0
LINE
  5
218
100
AcDbEntity
  8
DRAFT
100
AcDbLine
 62
7
  6
CONTINUOUS
 10
-64.0186001295
 20
100.6934444761
 11
-64.9923710789
 21
99.6232518068
  0
LINE
  5
219
100
AcDbEntity
  8
DRAFT
100
AcDbLine
 62
7
  6
CONTINUOUS
 10
-63.0780210149
 20
100.2231549188
 11
-64.0863903517
 21
99.1702614432
  0
LINE
  5
21A
100
AcDbEntity
  8
0
100
AcDbLine
 62
7
  6
CONTINUOUS
 10
-83.7362091751
 20
89.6489508085
 11
-83.6546078141
 21
89.689751489
  0
LINE
  5
21B
100
AcDbEntity
  8
0
100
AcDbLine
 62
7
  6
CONTINUOUS
 10
-84.51749454
 20
88.927743845
 11
-83.8422751922
 21
89.2653535189
  0
LINE
  5
21C
100
AcDbEntity
  8
0
100
AcDbLine
 62
7
  6
CONTINUOUS
 10
-84.5343083665
 20
88.8758710693
 11
-83.729532204
 21
89.2782591506
  0
LINE
  5
21D
100
AcDbEntity
  8
0
100
AcDbLine
 62
7
  6
CONTINUOUS
 10
-83.7802479823
 20
88.9030828624
 11
-84.8959690588
 21
88.3452223242
  0
LINE
  5
21E
100
AcDbEntity
  8
0
100
AcDbLine
 62
7
  6
CONTINUOUS
 10
-84.5343083665
 20
87.9756835889
 11
-83.6697612309
 21
88.4079571566
  0
LINE
  5
21F
100
AcDbEntity
  8
0
100
AcDbLine
 62
7
  6
CONTINUOUS
 10
-84.51749454
 20
87.9127314209
 11
-83.8422751922
 21
88.2503410947
  0
LINE
  5
220
100
AcDbEntity
  8
0
100
AcDbLine
 62
7
  6
CONTINUOUS
 10
-83.7362091751
 20
87.760677788
 11
-83.099813072
 21
88.0788758395
  0
LINE
  5
221
100
AcDbEntity
  8
0
100
AcDbLine
 62
7
  6
CONTINUOUS
 10
-83.7993083665
 20
87.6081835889
 11
-82.9318042988
 21
88.0419356227
  0
LINE
  5
222
100
AcDbEntity
  8
0
100
AcDbLine
 62
7
  6
CONTINUOUS
 10
-83.3542005937
 20
87.5743380916
 11
-82.6077574172
 21
87.9475596798
  0
LINE
  5
223
100
AcDbEntity
  8
0
100
AcDbLine
 62
7
  6
CONTINUOUS
 10
-83.8422751922
 20
86.4159730574
 11
-84.1251179047
 21
86.2745517012
  0
LINE
  5
224
100
AcDbEntity
  8
RACCORDO
100
AcDbLine
 62
7
  6
CONTINUOUS
 10
-28.2672691052
 20
114.762953325
 11
-56.2643270739
 21
100.8762061755
  0
LINE
  5
225
100
AcDbEntity
  8
RACCORDO
100
AcDbLine
 62
7
  6
CONTINUOUS
 10
-30.8138965038
 20
116.0362670243
 11
-31.0661775732
 21
115.9161644192
  0
LINE
  5
226
100
AcDbEntity
  8
RACCORDO
100
AcDbLine
 62
7
  6
CONTINUOUS
 10
-61.5406177983
 20
103.5143515377
 11
-33.0936110044
 21
116.9298811348
  0
LINE
  5
227
100
AcDbEntity
  8
RACCORDO
100
AcDbLine
 62
7
  6
CONTINUOUS
 10
-29.4345359362
 20
115.3465867405
 11
-58.1776331566
 21
101.8328592168
  0
LINE
  5
228
100
AcDbEntity
  8
0
100
AcDbLine
 62
7
  6
CONTINUOUS
 10
-83.7362091751
 20
89.6489508085
 11
-83.8422751922
 21
89.2653535189
  0
LINE
  5
229
100
AcDbEntity
  8
RACCORDO
100
AcDbLine
 62
7
  6
CONTINUOUS
 10
-55.6297367328
 20
94.9419346337
 11
-52.6637785724
 21
96.5421371054
  0
LINE
  5
22A
100
AcDbEntity
  8
RACCORDO
100
AcDbLine
 62
253
  6
CONTINUOUS
 10
-55.3701195956
 20
94.8121260652
 11
-52.206044211
 21
96.5192173244
  0
LINE
  5
22B
100
AcDbEntity
  8
DRAFT
100
AcDbLine
 62
7
  6
CONTINUOUS
 10
-52.0327328233
 20
93.143432679
 11
-51.0595589833
 21
93.630019599
  0
LINE
  5
22C
100
AcDbEntity
  8
0
100
AcDbLine
 62
7
  6
CONTINUOUS
 10
41.923661121
 20
-95.2994977648
 11
43.5083023294
 21
-95.0343909991
  0
LINE
  5
22D
100
AcDbEntity
  8
RACCORDO
100
AcDbLine
 62
7
  6
CONTINUOUS
 10
-97.8630904724
 20
103.7820623753
 11
-97.8630904724
 21
-33.9159768264
  0
LINE
  5
22E
100
AcDbEntity
  8
RACCORDO
100
AcDbLine
 62
253
  6
CONTINUOUS
 10
-97.2773040348
 20
103.0749555941
 11
-97.2773040348
 21
-34.6230836076
  0
LINE
  5
22F
100
AcDbEntity
  8
RACCORDO
100
AcDbLine
 62
253
  6
CONTINUOUS
 10
-32.1106166716
 20
86.4715035547
 11
-35.3871126474
 21
84.8206225911
  0
LINE
  5
230
100
AcDbEntity
  8
RACCORDO
100
AcDbLine
 62
253
  6
CONTINUOUS
 10
-31.4036175862
 20
85.2521105081
 11
-33.8175458054
 21
84.03583917
  0
LINE
  5
231
100
AcDbEntity
  8
DRAFT
100
AcDbLine
 62
7
  6
CONTINUOUS
 10
-40.59423677
 20
87.4241846523
 11
-39.62106293
 21
87.9107715723
  0
LINE
  5
232
100
AcDbEntity
  8
RACCORDO
100
AcDbLine
 62
7
  6
CONTINUOUS
 10
-0.5965458059
 20
100.9275916754
 11
-29.5883480295
 21
87.5382166532
  0
LINE
  5
233
100
AcDbEntity
  8
RACCORDO
100
AcDbLine
 62
253
  6
CONTINUOUS
 10
0.5863385399
 20
100.8676295131
 11
-28.9580335517
 21
87.2230594144
  0
LINE
  5
234
100
AcDbEntity
  8
RACCORDO
100
AcDbLine
 62
7
  6
CONTINUOUS
 10
0.504017128
 20
100.7033088051
 11
-28.8267192319
 21
87.1574022545
  0
LWPOLYLINE
  5
235
100
AcDbEntity
  8
RACCORDO
100
AcDbPolyline
 62
7
  6
CONTINUOUS
 90
5
 70
0
 10
0.5040170329
 20
100.7033090284
 10
0.5079293677
 20
100.7050482972
 10
0.5204403676
 20
100.7097246728
 10
0.5282090398
 20
100.7117419569
 10
0.5301857853
 20
100.7120859298
  0
LINE
  5
236
100
AcDbEntity
  8
DRAFT
100
AcDbLine
 62
7
  6
CONTINUOUS
 10
63.7309100414
 20
-81.8570239871
 11
60.9024829166
 21
-82.4129926217
  0
LINE
  5
237
100
AcDbEntity
  8
DRAFT
100
AcDbLine
 62
7
  6
CONTINUOUS
 10
63.7309100414
 20
-83.0089934338
 11
60.9024829166
 21
-83.4824880824
  0
LINE
  5
238
100
AcDbEntity
  8
0
100
AcDbLine
 62
7
  6
CONTINUOUS
 10
-83.8422751922
 20
90.1455719792
 11
-83.8422751922
 21
89.2653535189
  0
LINE
  5
239
100
AcDbEntity
  8
0
100
AcDbLine
 62
7
  6
CONTINUOUS
 10
-83.8422751922
 20
88.2503410947
 11
-83.8422751922
 21
86.4159730574
  0
LINE
  5
23A
100
AcDbEntity
  8
0
100
AcDbLine
 62
7
  6
CONTINUOUS
 10
-83.8422751922
 20
-30.2319591468
 11
-83.8422751922
 21
-31.1121776072
  0
LINE
  5
23B
100
AcDbEntity
  8
0
100
AcDbLine
 62
7
  6
CONTINUOUS
 10
-83.8422751922
 20
-32.1271900313
 11
-83.8422751922
 21
-33.9615580686
  0
LINE
  5
23C
100
AcDbEntity
  8
0
100
AcDbLine
 62
7
  6
CONTINUOUS
 10
-83.7362091751
 20
-32.7377979415
 11
-83.7362091751
 21
-32.6168533381
  0
LINE
  5
23D
100
AcDbEntity
  8
0
100
AcDbLine
 62
7
  6
CONTINUOUS
 10
-83.7362091751
 20
-30.7285803176
 11
-83.7362091751
 21
-30.3368256439
  0
LINE
  5
23E
100
AcDbEntity
  8
0
100
AcDbLine
 62
7
  6
CONTINUOUS
 10
-83.7362091751
 20
87.6397331846
 11
-83.7362091751
 21
87.760677788
  0
LINE
  5
23F
100
AcDbEntity
  8
0
100
AcDbLine
 62
7
  6
CONTINUOUS
 10
-83.7362091751
 20
89.6489508085
 11
-83.7362091751
 21
90.0407054821
  0
LINE
  5
240
100
AcDbEntity
  8
0
100
AcDbLine
 62
7
  6
CONTINUOUS
 10
-83.099813072
 20
-32.3461178636
 11
-83.099813072
 21
-32.2986552865
  0
LINE
  5
241
100
AcDbEntity
  8
0
100
AcDbLine
 62
7
  6
CONTINUOUS
 10
-83.099813072
 20
88.0314132624
 11
-83.099813072
 21
88.0788758395
  0
LINE
  5
242
100
AcDbEntity
  8
RACCORDO
100
AcDbLine
 62
7
  6
CONTINUOUS
 10
0.5826875672
 20
100.3379749888
 11
-27.4143704015
 21
86.4512278393
  0
LINE
  5
243
100
AcDbEntity
  8
RACCORDO
100
AcDbLine
 62
7
  6
CONTINUOUS
 10
-91.1006634139
 20
-45.4614615634
 11
50.3206928234
 21
-116.1721396821
  0
LINE
  5
244
100
AcDbEntity
  8
RACCORDO
100
AcDbLine
 62
253
  6
CONTINUOUS
 10
-91.6204497853
 20
-44.3797139626
 11
49.800906452
 21
-115.0903920813
  0
LINE
  5
245
100
AcDbEntity
  8
0
100
AcDbLine
 62
7
  6
CONTINUOUS
 10
-83.8422751922
 20
-32.1271900313
 11
-83.7362091751
 21
-32.6168533381
  0
LINE
  5
246
100
AcDbEntity
  8
0
100
AcDbLine
 62
7
  6
CONTINUOUS
 10
-83.1034070245
 20
-32.2820634814
 11
-83.099813072
 21
-32.2986552865
  0
LINE
  5
247
100
AcDbEntity
  8
0
100
AcDbLine
 62
7
  6
CONTINUOUS
 10
-83.7362091751
 20
-30.7285803176
 11
-83.8422751922
 21
-31.1121776072
  0
LINE
  5
248
100
AcDbEntity
  8
DRAFT
100
AcDbLine
 62
7
  6
CONTINUOUS
 10
-27.2490475078
 20
82.3086681652
 11
-28.2228184572
 21
81.2384754959
  0
LINE
  5
249
100
AcDbEntity
  8
DRAFT
100
AcDbLine
 62
7
  6
CONTINUOUS
 10
-26.3084683932
 20
81.8383786079
 11
-27.31683773
 21
80.7854851324
  0
LINE
  5
24A
100
AcDbEntity
  8
DRAFT
100
AcDbLine
 62
7
  6
CONTINUOUS
 10
-61.639122263
 20
97.9466273989
 11
-61.639122263
 21
99.5037055428
  0
LINE
  5
24B
100
AcDbEntity
  8
RACCORDO
100
AcDbLine
 62
7
  6
CONTINUOUS
 10
32.1196500081
 20
84.5694937683
 11
4.1225920394
 21
70.6827466188
  0
LINE
  5
24C
100
AcDbEntity
  8
RACCORDO
100
AcDbLine
 62
7
  6
CONTINUOUS
 10
29.4111058636
 20
85.9237658406
 11
0.9664079803
 21
72.2608386483
  0
LINE
  5
24D
100
AcDbEntity
  8
RACCORDO
100
AcDbLine
 62
7
  6
CONTINUOUS
 10
30.961955011
 20
85.1483412669
 11
2.417792702
 21
71.5351462875
  0
LINE
  5
24E
100
AcDbEntity
  8
RACCORDO
100
AcDbLine
 62
7
  6
CONTINUOUS
 10
28.2534108665
 20
86.5026133392
 11
-0.7383913571
 21
73.113238317
  0
LINE
  5
24F
100
AcDbEntity
  8
RACCORDO
100
AcDbLine
 62
253
  6
CONTINUOUS
 10
29.4362952123
 20
86.4426511769
 11
-0.1080768793
 21
72.7980810782
  0
LINE
  5
250
100
AcDbEntity
  8
RACCORDO
100
AcDbLine
 62
7
  6
CONTINUOUS
 10
29.3539738004
 20
86.2783304689
 11
0.0232374405
 21
72.7324239183
  0
LWPOLYLINE
  5
251
100
AcDbEntity
  8
RACCORDO
100
AcDbPolyline
 62
7
  6
CONTINUOUS
 90
5
 70
0
 10
29.3539737053
 20
86.2783306922
 10
29.3578860401
 20
86.280069961
 10
29.37039704
 20
86.2847463366
 10
29.3781657122
 20
86.2867636207
 10
29.3801424577
 20
86.2871075936
  0
LINE
  5
252
100
AcDbEntity
  8
DRAFT
100
AcDbLine
 62
7
  6
CONTINUOUS
 10
63.7309100414
 20
-57.5217101408
 11
60.9024829166
 21
-58.0776787754
  0
LINE
  5
253
100
AcDbEntity
  8
DRAFT
100
AcDbLine
 62
7
  6
CONTINUOUS
 10
63.7309100414
 20
-58.6736795875
 11
60.9024829166
 21
-59.1471742361
  0
LINE
  5
254
100
AcDbEntity
  8
0
100
AcDbLine
 62
7
  6
CONTINUOUS
 10
44.2528895679
 20
-96.0224691836
 11
44.1794075416
 21
-95.9857281704
  0
LINE
  5
255
100
AcDbEntity
  8
0
100
AcDbLine
 62
7
  6
CONTINUOUS
 10
-83.0263310457
 20
-32.3828588768
 11
-83.099813072
 21
-32.3461178636
  0
LINE
  5
256
100
AcDbEntity
  8
0
100
AcDbLine
 62
7
  6
CONTINUOUS
 10
-83.8422751922
 20
88.2503410947
 11
-83.7362091751
 21
87.760677788
  0
LINE
  5
257
100
AcDbEntity
  8
0
100
AcDbLine
 62
7
  6
CONTINUOUS
 10
-83.1034070245
 20
88.0954676447
 11
-83.099813072
 21
88.0788758395
  0
LINE
  5
258
100
AcDbEntity
  8
RACCORDO
100
AcDbLine
 62
253
  6
CONTINUOUS
 10
-54.1852631628
 20
94.2588219015
 11
-54.1852631628
 21
94.2196978487
  0
LINE
  5
259
100
AcDbEntity
  8
0
100
AcDbLine
 62
7
  6
CONTINUOUS
 10
-83.2201500886
 20
-32.4797683982
 11
-83.099813072
 21
-32.3461178636
  0
LINE
  5
25A
100
AcDbEntity
  8
RACCORDO
100
AcDbLine
 62
7
  6
CONTINUOUS
 10
11.8989608705
 20
61.1775858321
 11
14.8649190309
 21
62.7777883037
  0
LINE
  5
25B
100
AcDbEntity
  8
RACCORDO
100
AcDbLine
 62
253
  6
CONTINUOUS
 10
12.1585780077
 20
61.0477772635
 11
15.3226533923
 21
62.7548685227
  0
LINE
  5
25C
100
AcDbEntity
  8
DRAFT
100
AcDbLine
 62
7
  6
CONTINUOUS
 10
15.4959647801
 20
59.3790838773
 11
16.46913862
 21
59.8656707973
  0
LWPOLYLINE
  5
25D
100
AcDbEntity
  8
RACCORDO
100
AcDbPolyline
 62
7
  6
CONTINUOUS
 90
5
 70
0
 10
60.8909361462
 20
70.5098494718
 10
60.894848481
 20
70.5115887406
 10
60.9073594809
 20
70.5162651161
 10
60.9151281531
 20
70.5182824002
 10
60.9171048986
 20
70.5186263731
  0
LINE
  5
25E
100
AcDbEntity
  8
DRAFT
100
AcDbLine
 62
7
  6
CONTINUOUS
 10
63.7309100414
 20
-33.1863962945
 11
60.9024829166
 21
-33.742364929
  0
LINE
  5
25F
100
AcDbEntity
  8
DRAFT
100
AcDbLine
 62
7
  6
CONTINUOUS
 10
63.7309100414
 20
-34.3383657411
 11
60.9024829166
 21
-34.8118603898
  0
LINE
  5
260
100
AcDbEntity
  8
DRAFT
100
AcDbLine
 62
7
  6
CONTINUOUS
 10
62.1359394153
 20
-79.6150920524
 11
63.7309100414
 21
-80.4125773655
  0
LINE
  5
261
100
AcDbEntity
  8
RACCORDO
100
AcDbLine
 62
253
  6
CONTINUOUS
 10
-36.4953587505
 20
85.3747456426
 11
-36.4953587505
 21
85.4138696954
  0
LINE
  5
262
100
AcDbEntity
  8
RACCORDO
100
AcDbLine
 62
7
  6
CONTINUOUS
 10
-31.4036175862
 20
84.3859532044
 11
-31.4036175862
 21
85.2521105081
  0
LINE
  5
263
100
AcDbEntity
  8
DRAFT
100
AcDbLine
 62
7
  6
CONTINUOUS
 10
-29.9647188342
 20
82.1094256845
 11
-29.9647188342
 21
83.6665038284
  0
LINE
  5
264
100
AcDbEntity
  8
DRAFT
100
AcDbLine
 62
7
  6
CONTINUOUS
 10
-16.7024863186
 20
91.8574145685
 11
-16.7285054481
 21
91.7514956334
  0
LINE
  5
265
100
AcDbEntity
  8
DRAFT
100
AcDbLine
 62
7
  6
CONTINUOUS
 10
9.5205051139
 20
63.9238918544
 11
8.5467341645
 21
62.8536991851
  0
LINE
  5
266
100
AcDbEntity
  8
DRAFT
100
AcDbLine
 62
7
  6
CONTINUOUS
 10
10.4610842285
 20
63.4536022971
 11
9.4527148917
 21
62.4007088215
  0
LINE
  5
267
100
AcDbEntity
  8
RACCORDO
100
AcDbLine
 62
253
  6
CONTINUOUS
 10
35.4180809317
 20
52.707154753
 11
32.1415849559
 21
51.0562737894
  0
LINE
  5
268
100
AcDbEntity
  8
RACCORDO
100
AcDbLine
 62
253
  6
CONTINUOUS
 10
36.1250800171
 20
51.4877617064
 11
33.7111517979
 21
50.2714903684
  0
LINE
  5
269
100
AcDbEntity
  8
DRAFT
100
AcDbLine
 62
7
  6
CONTINUOUS
 10
26.9344608334
 20
53.6598358507
 11
27.9076346733
 21
54.1464227707
  0
LINE
  5
26A
100
AcDbEntity
  8
RACCORDO
100
AcDbLine
 62
7
  6
CONTINUOUS
 10
60.9696066806
 20
70.1445154321
 11
32.9725487118
 21
56.2577682826
  0
LINE
  5
26B
100
AcDbEntity
  8
RACCORDO
100
AcDbLine
 62
7
  6
CONTINUOUS
 10
59.7903733074
 20
70.7341321187
 11
30.7985710839
 21
57.3447570966
  0
LINE
  5
26C
100
AcDbEntity
  8
RACCORDO
100
AcDbLine
 62
253
  6
CONTINUOUS
 10
60.9732576532
 20
70.6741699564
 11
31.4288855616
 21
57.0295998577
  0
LINE
  5
26D
100
AcDbEntity
  8
RACCORDO
100
AcDbLine
 62
7
  6
CONTINUOUS
 10
60.8909362413
 20
70.5098492484
 11
31.5601998814
 21
56.9639426978
  0
LINE
  5
26E
100
AcDbEntity
  8
RACCORDO
100
AcDbLine
 62
7
  6
CONTINUOUS
 10
-28.0515501566
 20
114.8558242622
 11
-28.0515501566
 21
115.4829562399
  0
LINE
  5
26F
100
AcDbEntity
  8
DRAFT
100
AcDbLine
 62
7
  6
CONTINUOUS
 10
-24.8695696413
 20
79.561851088
 11
-24.8695696413
 21
81.118929232
  0
LINE
  5
270
100
AcDbEntity
  8
RACCORDO
100
AcDbLine
 62
253
  6
CONTINUOUS
 10
51.7224354762
 20
46.6430251305
 11
49.5887744177
 21
45.6218080101
  0
LINE
  5
271
100
AcDbEntity
  8
DRAFT
100
AcDbLine
 62
7
  6
CONTINUOUS
 10
63.7309100414
 20
-8.8510824481
 11
60.9024829166
 21
-9.4070510827
  0
LINE
  5
272
100
AcDbEntity
  8
DRAFT
100
AcDbLine
 62
7
  6
CONTINUOUS
 10
63.7309100414
 20
-10.0030518948
 11
60.9024829166
 21
-10.4765465434
  0
LINE
  5
273
100
AcDbEntity
  8
DRAFT
100
AcDbLine
 62
7
  6
CONTINUOUS
 10
62.1359394153
 20
-55.2797782061
 11
63.7309100414
 21
-56.0772635191
  0
LINE
  5
274
100
AcDbEntity
  8
RACCORDO
100
AcDbLine
 62
253
  6
CONTINUOUS
 10
53.8314151048
 20
40.211358715
 11
51.2151200144
 21
38.9032111698
  0
LINE
  5
275
100
AcDbEntity
  8
0
100
AcDbLine
 62
7
  6
CONTINUOUS
 10
-83.7362091751
 20
-30.7285803176
 11
-83.6546078141
 21
-30.6877796371
  0
LINE
  5
276
100
AcDbEntity
  8
0
100
AcDbLine
 62
7
  6
CONTINUOUS
 10
-84.51749454
 20
-31.449787281
 11
-83.8422751922
 21
-31.1121776072
  0
LINE
  5
277
100
AcDbEntity
  8
0
100
AcDbLine
 62
7
  6
CONTINUOUS
 10
-84.5343083665
 20
-31.5016600567
 11
-83.729532204
 21
-31.0992719755
  0
LINE
  5
278
100
AcDbEntity
  8
0
100
AcDbLine
 62
7
  6
CONTINUOUS
 10
-83.7802479823
 20
-31.4744482636
 11
-84.8959690588
 21
-32.0323088019
  0
LINE
  5
279
100
AcDbEntity
  8
0
100
AcDbLine
 62
7
  6
CONTINUOUS
 10
-84.5343083665
 20
-32.4018475372
 11
-83.6697612309
 21
-31.9695739694
  0
LINE
  5
27A
100
AcDbEntity
  8
RACCORDO
100
AcDbLine
 62
7
  6
CONTINUOUS
 10
89.8075968109
 20
55.725520367
 11
59.355546331
 21
40.8881397319
  0
LINE
  5
27B
100
AcDbEntity
  8
RACCORDO
100
AcDbLine
 62
7
  6
CONTINUOUS
 10
90.9359938035
 20
54.9150787308
 11
91.1869573785
 21
55.0358400832
  0
LINE
  5
27C
100
AcDbEntity
  8
RACCORDO
100
AcDbLine
 62
7
  6
CONTINUOUS
 10
88.6403299798
 20
56.3091537825
 11
58.1283935998
 21
42.2177304314
  0
LINE
  5
27D
100
AcDbEntity
  8
RACCORDO
100
AcDbLine
 62
253
  6
CONTINUOUS
 10
89.8232143256
 20
56.2491916202
 11
58.5282254952
 21
41.796128698
  0
LINE
  5
27E
100
AcDbEntity
  8
RACCORDO
100
AcDbLine
 62
7
  6
CONTINUOUS
 10
89.7408929137
 20
56.0848709122
 11
58.6115230478
 21
41.7082958038
  0
LWPOLYLINE
  5
27F
100
AcDbEntity
  8
RACCORDO
100
AcDbPolyline
 62
7
  6
CONTINUOUS
 90
5
 70
0
 10
89.7408928186
 20
56.0848711356
 10
89.7448051535
 20
56.0866104044
 10
89.7573161533
 20
56.0912867799
 10
89.7650848255
 20
56.093304064
 10
89.767061571
 20
56.0936480369
  0
LINE
  5
280
100
AcDbEntity
  8
0
100
AcDbLine
 62
7
  6
CONTINUOUS
 10
-85.3555594925
 20
-31.659887458
 11
-83.7709182842
 21
-31.3947806923
  0
LINE
  5
281
100
AcDbEntity
  8
RACCORDO
100
AcDbLine
 62
7
  6
CONTINUOUS
 10
97.8212254224
 20
-66.1084263327
 11
96.8761198497
 21
-65.6358735464
  0
LINE
  5
282
100
AcDbEntity
  8
DRAFT
100
AcDbLine
 62
7
  6
CONTINUOUS
 10
-39.3318546885
 20
86.7929936116
 11
-39.62106293
 21
87.9107715723
  0
LINE
  5
283
100
AcDbEntity
  8
RACCORDO
100
AcDbLine
 62
7
  6
CONTINUOUS
 10
0.7984065158
 20
101.0579779037
 11
0.7984065158
 21
100.8978407438
  0
LINE
  5
284
100
AcDbEntity
  8
RACCORDO
100
AcDbLine
 62
7
  6
CONTINUOUS
 10
62.9624944993
 20
35.8649464831
 11
93.7046057676
 21
51.3754024904
  0
LINE
  5
285
100
AcDbEntity
  8
RACCORDO
100
AcDbLine
 62
7
  6
CONTINUOUS
 10
94.2111234393
 20
51.7424985753
 11
62.864420291
 21
36.0263937451
  0
LINE
  5
286
100
AcDbEntity
  8
0
100
AcDbLine
 62
7
  6
CONTINUOUS
 10
-84.51749454
 20
-32.4647997052
 11
-83.8422751922
 21
-32.1271900313
  0
LINE
  5
287
100
AcDbEntity
  8
0
100
AcDbLine
 62
7
  6
CONTINUOUS
 10
-83.7362091751
 20
-32.6168533381
 11
-83.099813072
 21
-32.2986552865
  0
LINE
  5
288
100
AcDbEntity
  8
0
100
AcDbLine
 62
7
  6
CONTINUOUS
 10
-83.7993083665
 20
-32.7693475372
 11
-82.9318042988
 21
-32.3355955033
  0
LINE
  5
289
100
AcDbEntity
  8
0
100
AcDbLine
 62
7
  6
CONTINUOUS
 10
-83.3542005937
 20
-32.8031930344
 11
-82.6077574172
 21
-32.4299714462
  0
LINE
  5
28A
100
AcDbEntity
  8
0
100
AcDbLine
 62
7
  6
CONTINUOUS
 10
-83.8422751922
 20
-33.9615580686
 11
-84.1251179047
 21
-34.1029794249
  0
LINE
  5
28B
100
AcDbEntity
  8
0
100
AcDbLine
 62
7
  6
CONTINUOUS
 10
43.5430114385
 20
26.0093405017
 11
43.6246127995
 21
26.0501411822
  0
LINE
  5
28C
100
AcDbEntity
  8
0
100
AcDbLine
 62
7
  6
CONTINUOUS
 10
42.7617260736
 20
25.2881335382
 11
43.4369454213
 21
25.6257432121
  0
LINE
  5
28D
100
AcDbEntity
  8
0
100
AcDbLine
 62
7
  6
CONTINUOUS
 10
42.7449122471
 20
25.2362607625
 11
43.5496884096
 21
25.6386488438
  0
LINE
  5
28E
100
AcDbEntity
  8
0
100
AcDbLine
 62
7
  6
CONTINUOUS
 10
43.4989726313
 20
25.2634725556
 11
42.3832515548
 21
24.7056120174
  0
LINE
  5
28F
100
AcDbEntity
  8
0
100
AcDbLine
 62
7
  6
CONTINUOUS
 10
42.7449122471
 20
24.3360732821
 11
43.6094593826
 21
24.7683468498
  0
LINE
  5
290
100
AcDbEntity
  8
0
100
AcDbLine
 62
7
  6
CONTINUOUS
 10
42.7617260736
 20
24.2731211141
 11
43.4369454213
 21
24.6107307879
  0
LINE
  5
291
100
AcDbEntity
  8
0
100
AcDbLine
 62
7
  6
CONTINUOUS
 10
43.5430114385
 20
24.1210674812
 11
44.1794075416
 21
24.4392655327
  0
LINE
  5
292
100
AcDbEntity
  8
0
100
AcDbLine
 62
7
  6
CONTINUOUS
 10
43.4799122471
 20
23.9685732821
 11
44.3474163148
 21
24.4023253159
  0
LINE
  5
293
100
AcDbEntity
  8
0
100
AcDbLine
 62
7
  6
CONTINUOUS
 10
43.9250200199
 20
23.9347277848
 11
44.6714631963
 21
24.307949373
  0
LINE
  5
294
100
AcDbEntity
  8
0
100
AcDbLine
 62
7
  6
CONTINUOUS
 10
43.4369454213
 20
22.7763627506
 11
43.1541027089
 21
22.6349413944
  0
LINE
  5
295
100
AcDbEntity
  8
RACCORDO
100
AcDbLine
 62
7
  6
CONTINUOUS
 10
96.7306593818
 20
47.4512978974
 11
96.7671206526
 21
47.469451079
  0
LINE
  5
296
100
AcDbEntity
  8
DRAFT
100
AcDbLine
 62
7
  6
CONTINUOUS
 10
63.9105275146
 20
35.8894379731
 11
94.7710944197
 21
51.1921874442
  0
LINE
  5
297
100
AcDbEntity
  8
RACCORDO
100
AcDbLine
 62
7
  6
CONTINUOUS
 10
95.3925490884
 20
49.7048407461
 11
63.8897526153
 21
34.1728743624
  0
LINE
  5
298
100
AcDbEntity
  8
RACCORDO
100
AcDbLine
 62
7
  6
CONTINUOUS
 10
61.2493365498
 20
38.4962714041
 11
92.9634272347
 21
53.9013620152
  0
LINE
  5
299
100
AcDbEntity
  8
DRAFT
100
AcDbLine
 62
7
  6
CONTINUOUS
 10
62.1359394153
 20
-30.9444643597
 11
63.7309100414
 21
-31.7419496728
  0
LINE
  5
29A
100
AcDbEntity
  8
RACCORDO
100
AcDbLine
 62
7
  6
CONTINUOUS
 10
3.9803870311
 20
73.7085522609
 11
3.9803870311
 21
74.5599667347
  0
LINE
  5
29B
100
AcDbEntity
  8
DRAFT
100
AcDbLine
 62
7
  6
CONTINUOUS
 10
46.2900577356
 20
45.5391155435
 11
45.3162867862
 21
44.4689228742
  0
LINE
  5
29C
100
AcDbEntity
  8
DRAFT
100
AcDbLine
 62
7
  6
CONTINUOUS
 10
47.2306368502
 20
45.0688259862
 11
46.2222675134
 21
44.0159325107
  0
LINE
  5
29D
100
AcDbEntity
  8
DRAFT
100
AcDbLine
 62
7
  6
CONTINUOUS
 10
59.827103976
 20
33.1321045559
 11
59.9326475407
 21
33.2085967131
  0
LINE
  5
29E
100
AcDbEntity
  8
RACCORDO
100
AcDbLine
 62
7
  6
CONTINUOUS
 10
93.7046057676
 20
51.3754024904
 11
93.7350936712
 21
51.394556805
  0
LINE
  5
29F
100
AcDbEntity
  8
RACCORDO
100
AcDbLine
 62
7
  6
CONTINUOUS
 10
66.7669133092
 20
26.4156572813
 11
97.4022377075
 21
42.9441176203
  0
LINE
  5
2A0
100
AcDbEntity
  8
RACCORDO
100
AcDbLine
 62
253
  6
CONTINUOUS
 10
66.7828772239
 20
26.3433067884
 11
97.5409826391
 21
42.9380103029
  0
LINE
  5
2A1
100
AcDbEntity
  8
RACCORDO
100
AcDbLine
 62
7
  6
CONTINUOUS
 10
96.8936915601
 20
42.0742107253
 11
66.8843375316
 21
25.8834757616
  0
LINE
  5
2A2
100
AcDbEntity
  8
RACCORDO
100
AcDbLine
 62
7
  6
CONTINUOUS
 10
96.8936915601
 20
45.1931795711
 11
96.6464613219
 21
45.0659791653
  0
LINE
  5
2A3
100
AcDbEntity
  8
RACCORDO
100
AcDbLine
 62
7
  6
CONTINUOUS
 10
65.1208175288
 20
31.5103087097
 11
96.6464613219
 21
47.5490678622
  0
LINE
  5
2A4
100
AcDbEntity
  8
RACCORDO
100
AcDbLine
 62
7
  6
CONTINUOUS
 10
96.8936915601
 20
43.5038147902
 11
66.3510462587
 21
28.0221421004
  0
LINE
  5
2A5
100
AcDbEntity
  8
RACCORDO
100
AcDbLine
 62
253
  6
CONTINUOUS
 10
60.9024829166
 20
28.0155707712
 11
58.2861878263
 21
26.707423226
  0
LINE
  5
2A6
100
AcDbEntity
  8
DRAFT
100
AcDbLine
 62
253
  6
CONTINUOUS
 10
62.1359394153
 20
27.339045315
 11
60.9024829166
 21
26.7434777675
  0
LINE
  5
2A7
100
AcDbEntity
  8
DRAFT
100
AcDbLine
 62
7
  6
CONTINUOUS
 10
63.7309100414
 20
15.4842313982
 11
60.9024829166
 21
14.9282627636
  0
LINE
  5
2A8
100
AcDbEntity
  8
DRAFT
100
AcDbLine
 62
7
  6
CONTINUOUS
 10
63.7309100414
 20
14.3322619515
 11
60.9024829166
 21
13.8587673029
  0
LINE
  5
2A9
100
AcDbEntity
  8
DRAFT
100
AcDbLine
 62
7
  6
CONTINUOUS
 10
61.1025274388
 20
-95.76382023
 11
60.9024829166
 21
-95.4187944663
  0
LINE
  5
2AA
100
AcDbEntity
  8
DRAFT
100
AcDbLine
 62
7
  6
CONTINUOUS
 10
11.8999829804
 20
61.1781372838
 11
11.8999829804
 21
62.7341529211
  0
LINE
  5
2AB
100
AcDbEntity
  8
RACCORDO
100
AcDbLine
 62
253
  6
CONTINUOUS
 10
13.3434344406
 20
60.4944730998
 11
13.3434344406
 21
60.4553490471
  0
LINE
  5
2AC
100
AcDbEntity
  8
0
100
AcDbLine
 62
7
  6
CONTINUOUS
 10
44.059070525
 20
24.258152421
 11
44.1794075416
 21
24.3918029556
  0
LINE
  5
2AD
100
AcDbEntity
  8
RACCORDO
100
AcDbLine
 62
7
  6
CONTINUOUS
 10
94.2142256282
 20
51.7440539008
 11
94.2370390016
 21
51.7626503193
  0
LINE
  5
2AE
100
AcDbEntity
  8
RACCORDO
100
AcDbLine
 62
253
  6
CONTINUOUS
 10
94.2111234393
 20
51.7424985753
 11
93.7046057676
 21
51.3754024904
  0
LINE
  5
2AF
100
AcDbEntity
  8
RACCORDO
100
AcDbLine
 62
7
  6
CONTINUOUS
 10
94.2308805788
 20
51.753860818
 11
93.7357921168
 21
51.3950479943
  0
LINE
  5
2B0
100
AcDbEntity
  8
RACCORDO
100
AcDbLine
 62
7
  6
CONTINUOUS
 10
97.4165945563
 20
42.9524904527
 11
97.4025441865
 21
42.9442823561
  0
LINE
  5
2B1
100
AcDbEntity
  8
RACCORDO
100
AcDbLine
 62
253
  6
CONTINUOUS
 10
67.24154147
 20
19.8765266592
 11
65.1451236038
 21
18.7910745338
  0
LINE
  5
2B2
100
AcDbEntity
  8
DRAFT
100
AcDbLine
 62
7
  6
CONTINUOUS
 10
62.1359394153
 20
17.726163333
 11
60.9024829166
 21
17.1046793244
  0
LINE
  5
2B3
100
AcDbEntity
  8
0
100
AcDbLine
 62
7
  6
CONTINUOUS
 10
41.923661121
 20
25.0780333612
 11
43.5083023294
 21
25.3431401269
  0
LINE
  5
2B4
100
AcDbEntity
  8
RACCORDO
100
AcDbLine
 62
7
  6
CONTINUOUS
 10
97.6904739789
 20
-29.669983652
 11
97.8212254224
 21
-29.7353593738
  0
LINE
  5
2B5
100
AcDbEntity
  8
RACCORDO
100
AcDbLine
 62
7
  6
CONTINUOUS
 10
29.6483631882
 20
86.6329995674
 11
29.6483631882
 21
86.4728624076
  0
LINE
  5
2B6
100
AcDbEntity
  8
RACCORDO
100
AcDbLine
 62
253
  6
CONTINUOUS
 10
31.0333388528
 20
51.610396841
 11
31.0333388528
 21
51.6495208937
  0
LINE
  5
2B7
100
AcDbEntity
  8
DRAFT
100
AcDbLine
 62
7
  6
CONTINUOUS
 10
62.1359394153
 20
-6.6091505134
 11
63.7309100414
 21
-7.4066358264
  0
LINE
  5
2B8
100
AcDbEntity
  8
DRAFT
100
AcDbLine
 62
7
  6
CONTINUOUS
 10
72.7260453395
 20
-4.8419268994
 11
74.5541861713
 21
-5.7559973153
  0
LINE
  5
2B9
100
AcDbEntity
  8
RACCORDO
100
AcDbLine
 62
253
  6
CONTINUOUS
 10
75.5920024804
 20
-5.1960716073
 11
73.8092038509
 21
-4.3046722926
  0
LINE
  5
2BA
100
AcDbEntity
  8
RACCORDO
100
AcDbLine
 62
253
  6
CONTINUOUS
 10
76.0423993425
 20
-4.9530721673
 11
74.2792785554
 21
-4.0715117737
  0
LINE
  5
2BB
100
AcDbEntity
  8
RACCORDO
100
AcDbLine
 62
7
  6
CONTINUOUS
 10
76.1192223729
 20
-3.158886076
 11
77.7882747635
 21
-3.9934122713
  0
LINE
  5
2BC
100
AcDbEntity
  8
RACCORDO
100
AcDbLine
 62
253
  6
CONTINUOUS
 10
76.2429947121
 20
-3.0974940833
 11
77.8727200909
 21
-3.9123567727
  0
LINE
  5
2BD
100
AcDbEntity
  8
0
100
AcDbLine
 62
7
  6
CONTINUOUS
 10
43.4369454213
 20
-95.7668003381
 11
43.5430114385
 21
-96.2564636449
  0
LINE
  5
2BE
100
AcDbEntity
  8
0
100
AcDbLine
 62
7
  6
CONTINUOUS
 10
44.175813589
 20
-95.9216737882
 11
44.1794075416
 21
-95.9382655933
  0
LINE
  5
2BF
100
AcDbEntity
  8
RACCORDO
100
AcDbLine
 62
7
  6
CONTINUOUS
 10
32.3353689567
 20
84.6623647055
 11
32.3353689567
 21
85.2894966832
  0
LINE
  5
2C0
100
AcDbEntity
  8
RACCORDO
100
AcDbLine
 62
7
  6
CONTINUOUS
 10
33.5020951457
 20
56.5204272176
 11
33.5020951457
 21
57.860774283
  0
LINE
  5
2C1
100
AcDbEntity
  8
RACCORDO
100
AcDbLine
 62
7
  6
CONTINUOUS
 10
36.1250800171
 20
50.6216044028
 11
36.1250800171
 21
51.4877617064
  0
LINE
  5
2C2
100
AcDbEntity
  8
DRAFT
100
AcDbLine
 62
7
  6
CONTINUOUS
 10
37.5639787691
 20
48.3450768828
 11
37.5639787691
 21
49.9021550268
  0
LINE
  5
2C3
100
AcDbEntity
  8
0
100
AcDbLine
 62
7
  6
CONTINUOUS
 10
43.5430114385
 20
26.0093405017
 11
43.4369454213
 21
25.6257432121
  0
LINE
  5
2C4
100
AcDbEntity
  8
0
100
AcDbLine
 62
7
  6
CONTINUOUS
 10
64.5670515377
 20
34.5068061168
 11
65.4279663162
 21
35.7601940569
  0
LINE
  5
2C5
100
AcDbEntity
  8
RACCORDO
100
AcDbLine
 62
7
  6
CONTINUOUS
 10
67.5222016696
 20
-9.5499142796
 11
97.4022377075
 21
6.5710506614
  0
LINE
  5
2C6
100
AcDbEntity
  8
RACCORDO
100
AcDbLine
 62
253
  6
CONTINUOUS
 10
67.5222016696
 20
-9.6308776707
 11
97.5409826391
 21
6.564943344
  0
LINE
  5
2C7
100
AcDbEntity
  8
RACCORDO
100
AcDbLine
 62
7
  6
CONTINUOUS
 10
96.8936915601
 20
5.7011437663
 11
67.5222016696
 21
-10.1454488612
  0
LINE
  5
2C8
100
AcDbEntity
  8
DRAFT
100
AcDbLine
 62
7
  6
CONTINUOUS
 10
62.1359394153
 20
-6.6091505134
 11
60.9024829166
 21
-7.2306345219
  0
LINE
  5
2C9
100
AcDbEntity
  8
RACCORDO
100
AcDbLine
 62
7
  6
CONTINUOUS
 10
96.8936915601
 20
7.1454037923
 11
67.5222016696
 21
-7.4230717229
  0
LINE
  5
2CA
100
AcDbEntity
  8
0
100
AcDbLine
 62
7
  6
CONTINUOUS
 10
64.0033016648
 20
35.8195536528
 11
65.4279663162
 21
35.7601940569
  0
LINE
  5
2CB
100
AcDbEntity
  8
DRAFT
100
AcDbLine
 62
7
  6
CONTINUOUS
 10
78.9617284979
 20
-3.3780271137
 11
77.3261532235
 21
-2.5602394765
  0
LINE
  5
2CC
100
AcDbEntity
  8
0
100
AcDbLine
 62
7
  6
CONTINUOUS
 10
44.2528895679
 20
24.3550619425
 11
44.1794075416
 21
24.3918029556
  0
LINE
  5
2CD
100
AcDbEntity
  8
0
100
AcDbLine
 62
7
  6
CONTINUOUS
 10
-83.0263310457
 20
87.9946722493
 11
-83.099813072
 21
88.0314132624
  0
LINE
  5
2CE
100
AcDbEntity
  8
DRAFT
100
AcDbLine
 62
7
  6
CONTINUOUS
 10
28.1968429148
 20
53.02864481
 11
27.9076346733
 21
54.1464227707
  0
LINE
  5
2CF
100
AcDbEntity
  8
0
100
AcDbLine
 62
7
  6
CONTINUOUS
 10
43.4369454213
 20
26.5059616724
 11
43.4369454213
 21
25.6257432121
  0
LINE
  5
2D0
100
AcDbEntity
  8
0
100
AcDbLine
 62
7
  6
CONTINUOUS
 10
43.4369454213
 20
24.6107307879
 11
43.4369454213
 21
22.7763627506
  0
LINE
  5
2D1
100
AcDbEntity
  8
0
100
AcDbLine
 62
7
  6
CONTINUOUS
 10
43.4369454213
 20
-93.8715694536
 11
43.4369454213
 21
-94.7517879139
  0
LINE
  5
2D2
100
AcDbEntity
  8
0
100
AcDbLine
 62
7
  6
CONTINUOUS
 10
43.4369454213
 20
-95.7668003381
 11
43.4369454213
 21
-97.6011683754
  0
LINE
  5
2D3
100
AcDbEntity
  8
0
100
AcDbLine
 62
7
  6
CONTINUOUS
 10
43.5430114385
 20
-96.3774082483
 11
43.5430114385
 21
-96.2564636449
  0
LINE
  5
2D4
100
AcDbEntity
  8
0
100
AcDbLine
 62
7
  6
CONTINUOUS
 10
43.5430114385
 20
-94.3681906243
 11
43.5430114385
 21
-93.9764359507
  0
LINE
  5
2D5
100
AcDbEntity
  8
0
100
AcDbLine
 62
7
  6
CONTINUOUS
 10
43.5430114385
 20
24.0001228778
 11
43.5430114385
 21
24.1210674812
  0
LINE
  5
2D6
100
AcDbEntity
  8
0
100
AcDbLine
 62
7
  6
CONTINUOUS
 10
43.5430114385
 20
26.0093405017
 11
43.5430114385
 21
26.4010951753
  0
LINE
  5
2D7
100
AcDbEntity
  8
0
100
AcDbLine
 62
7
  6
CONTINUOUS
 10
44.1794075416
 20
-95.9857281704
 11
44.1794075416
 21
-95.9382655933
  0
LINE
  5
2D8
100
AcDbEntity
  8
0
100
AcDbLine
 62
7
  6
CONTINUOUS
 10
44.1794075416
 20
24.3918029556
 11
44.1794075416
 21
24.4392655327
  0
LINE
  5
2D9
100
AcDbEntity
  8
DRAFT
100
AcDbLine
 62
7
  6
CONTINUOUS
 10
48.6695356021
 20
42.7922984663
 11
48.6695356021
 21
44.3493766103
  0
LINE
  5
2DA
100
AcDbEntity
  8
RACCORDO
100
AcDbLine
 62
7
  6
CONTINUOUS
 10
97.4165945563
 20
6.5794234937
 11
97.4025441865
 21
6.5712153971
  0
LINE
  5
2DB
100
AcDbEntity
  8
DRAFT
100
AcDbLine
 62
7
  6
CONTINUOUS
 10
62.1359394153
 20
17.726163333
 11
63.7309100414
 21
16.9286780199
  0
LINE
  5
2DC
100
AcDbEntity
  8
RACCORDO
100
AcDbLine
 62
7
  6
CONTINUOUS
 10
97.6904739789
 20
6.7030833069
 11
97.8212254224
 21
6.6377075852
  0
LINE
  5
2DD
100
AcDbEntity
  8
RACCORDO
100
AcDbLine
 62
253
  6
CONTINUOUS
 10
94.1080402431
 20
-72.9181959947
 11
94.2111234393
 21
-73.0959882087
  0
LINE
  5
2DE
100
AcDbEntity
  8
RACCORDO
100
AcDbLine
 62
7
  6
CONTINUOUS
 10
94.2098838854
 20
-72.8644051644
 11
94.259297938
 21
-72.9496317982
  0
LINE
  5
2DF
100
AcDbEntity
  8
0
100
AcDbLine
 62
7
  6
CONTINUOUS
 10
43.4369454213
 20
24.6107307879
 11
43.5430114385
 21
24.1210674812
  0
LINE
  5
2E0
100
AcDbEntity
  8
0
100
AcDbLine
 62
7
  6
CONTINUOUS
 10
44.175813589
 20
24.4558573379
 11
44.1794075416
 21
24.4392655327
  0
LINE
  5
2E1
100
AcDbEntity
  8
RACCORDO
100
AcDbLine
 62
253
  6
CONTINUOUS
 10
55.4577607015
 20
-110.9906159757
 11
55.4577607015
 21
26.707423226
  0
LINE
  5
2E2
100
AcDbEntity
  8
RACCORDO
100
AcDbLine
 62
253
  6
CONTINUOUS
 10
58.2861878263
 20
-110.9906159757
 11
58.2861878263
 21
26.707423226
  0
LINE
  5
2E3
100
AcDbEntity
  8
RACCORDO
100
AcDbLine
 62
7
  6
CONTINUOUS
 10
58.7071070044
 20
41.6075075419
 11
58.7071070044
 21
41.7524396426
  0
LINE
  5
2E4
100
AcDbEntity
  8
0
100
AcDbLine
 62
7
  6
CONTINUOUS
 10
60.9024829166
 20
-109.6824684305
 11
60.9024829166
 21
28.0155707712
  0
LINE
  5
2E5
100
AcDbEntity
  8
RACCORDO
100
AcDbLine
 62
7
  6
CONTINUOUS
 10
61.1853256291
 20
70.864518347
 11
61.1853256291
 21
70.7043811871
  0
LINE
  5
2E6
100
AcDbEntity
  8
DRAFT
100
AcDbLine
 62
7
  6
CONTINUOUS
 10
62.1359394153
 20
-90.4404095997
 11
62.1359394153
 21
-83.2760005098
  0
LINE
  5
2E7
100
AcDbEntity
  8
DRAFT
100
AcDbLine
 62
7
  6
CONTINUOUS
 10
62.1359394153
 20
-79.6150920524
 11
62.1359394153
 21
-58.9406866635
  0
LINE
  5
2E8
100
AcDbEntity
  8
DRAFT
100
AcDbLine
 62
7
  6
CONTINUOUS
 10
62.1359394153
 20
-55.2797782061
 11
62.1359394153
 21
-34.6053728171
  0
LINE
  5
2E9
100
AcDbEntity
  8
DRAFT
100
AcDbLine
 62
7
  6
CONTINUOUS
 10
62.1359394153
 20
-30.9444643597
 11
62.1359394153
 21
-10.2700589708
  0
LINE
  5
2EA
100
AcDbEntity
  8
DRAFT
100
AcDbLine
 62
7
  6
CONTINUOUS
 10
62.1359394153
 20
-6.6091505134
 11
62.1359394153
 21
14.0652548756
  0
LINE
  5
2EB
100
AcDbEntity
  8
DRAFT
100
AcDbLine
 62
7
  6
CONTINUOUS
 10
62.1359394153
 20
17.726163333
 11
62.1359394153
 21
27.339045315
  0
LWPOLYLINE
  5
2EC
100
AcDbEntity
  8
RACCORDO
100
AcDbPolyline
 62
7
  6
CONTINUOUS
 90
5
 70
0
 10
97.4271437258
 20
42.9549067795
 10
97.4312445627
 20
42.9617476672
 10
97.4340591908
 20
42.9655519432
 10
97.4295922497
 20
42.9616577584
 10
97.4165945563
 20
42.9524904527
  0
LINE
  5
2ED
100
AcDbEntity
  8
DRAFT
100
AcDbLine
 62
7
  6
CONTINUOUS
 10
62.1359394153
 20
-30.9444643597
 11
60.9024829166
 21
-31.5659483683
  0
LINE
  5
2EE
100
AcDbEntity
  8
RACCORDO
100
AcDbLine
 62
253
  6
CONTINUOUS
 10
49.800906452
 20
36.464053581
 11
-91.6204497853
 21
107.1747316997
  0
LINE
  5
2EF
100
AcDbEntity
  8
RACCORDO
100
AcDbLine
 62
253
  6
CONTINUOUS
 10
51.2151200144
 20
38.9032111698
 11
-90.2062362229
 21
109.6138892884
  0
LINE
  5
2F0
100
AcDbEntity
  8
0
100
AcDbLine
 62
7
  6
CONTINUOUS
 10
53.8314151048
 20
40.211358715
 11
-87.5899411325
 21
110.9220368336
  0
LINE
  5
2F1
100
AcDbEntity
  8
RACCORDO
100
AcDbLine
 62
7
  6
CONTINUOUS
 10
-54.1852631628
 20
94.2588219015
 11
-51.9936087705
 21
93.1629947054
  0
LINE
  5
2F2
100
AcDbEntity
  8
RACCORDO
100
AcDbLine
 62
7
  6
CONTINUOUS
 10
-39.3434815922
 20
86.8379311162
 11
-36.4953587505
 21
85.4138696954
  0
LINE
  5
2F3
100
AcDbEntity
  8
RACCORDO
100
AcDbLine
 62
7
  6
CONTINUOUS
 10
13.3434344406
 20
60.4944730998
 11
15.5350888328
 21
59.3986459037
  0
LINE
  5
2F4
100
AcDbEntity
  8
RACCORDO
100
AcDbLine
 62
7
  6
CONTINUOUS
 10
28.1852160111
 20
53.0735823145
 11
31.0333388528
 21
51.6495208937
  0
LINE
  5
2F5
100
AcDbEntity
  8
DRAFT
100
AcDbLine
 62
7
  6
CONTINUOUS
 10
-51.0595589833
 20
93.630019599
 11
-39.62106293
 21
87.9107715723
  0
LINE
  5
2F6
100
AcDbEntity
  8
DRAFT
100
AcDbLine
 62
7
  6
CONTINUOUS
 10
16.46913862
 20
59.8656707973
 11
27.9076346733
 21
54.1464227707
  0
LINE
  5
2F7
100
AcDbEntity
  8
DRAFT
100
AcDbLine
 62
7
  6
CONTINUOUS
 10
-66.3767376969
 20
101.8725132598
 11
-54.1318591184
 21
95.7500739705
  0
LINE
  5
2F8
100
AcDbEntity
  8
DRAFT
100
AcDbLine
 62
7
  6
CONTINUOUS
 10
-31.4036175862
 20
84.3859532044
 11
13.3968384849
 21
61.9857251689
  0
LINE
  5
2F9
100
AcDbEntity
  8
DRAFT
100
AcDbLine
 62
7
  6
CONTINUOUS
 10
36.1250800171
 20
50.6216044028
 11
49.5887744177
 21
43.8897572025
  0
LINE
  5
2FA
100
AcDbEntity
  8
RACCORDO
100
AcDbLine
 62
7
  6
CONTINUOUS
 10
63.0238032602
 20
42.67545203
 11
63.0238032602
 21
43.7460330239
  0
LINE
  5
2FB
100
AcDbEntity
  8
DRAFT
100
AcDbLine
 62
7
  6
CONTINUOUS
 10
63.7309100414
 20
19.4981813149
 11
63.7309100414
 21
-87.0229433505
  0
LINE
  5
2FC
100
AcDbEntity
  8
DRAFT
100
AcDbLine
 62
7
  6
CONTINUOUS
 10
65.1451236038
 20
-87.7300501317
 11
65.1451236038
 21
18.7910745338
  0
LINE
  5
2FD
100
AcDbEntity
  8
RACCORDO
100
AcDbLine
 62
253
  6
CONTINUOUS
 10
67.24154147
 20
19.8765266592
 11
67.24154147
 21
-86.6445980063
  0
LINE
  5
2FE
100
AcDbEntity
  8
RACCORDO
100
AcDbLine
 62
7
  6
CONTINUOUS
 10
67.5222016696
 20
20.2238558444
 11
67.5222016696
 21
-86.2972688211
  0
LINE
  5
2FF
100
AcDbEntity
  8
0
100
AcDbLine
 62
7
  6
CONTINUOUS
 10
43.5430114385
 20
-94.3681906243
 11
43.4369454213
 21
-94.7517879139
  0
LINE
  5
300
100
AcDbEntity
  8
RACCORDO
100
AcDbLine
 62
7
  6
CONTINUOUS
 10
67.5222016696
 20
-45.9229812386
 11
97.4022377075
 21
-29.8020162976
  0
LINE
  5
301
100
AcDbEntity
  8
RACCORDO
100
AcDbLine
 62
7
  6
CONTINUOUS
 10
96.8936915601
 20
-29.2276631667
 11
67.5222016696
 21
-43.7961386818
  0
LINE
  5
302
100
AcDbEntity
  8
RACCORDO
100
AcDbLine
 62
7
  6
CONTINUOUS
 10
49.5887744177
 20
45.6218080101
 11
-66.3767376969
 21
103.6045640674
  0
LINE
  5
303
100
AcDbEntity
  8
RACCORDO
100
AcDbLine
 62
253
  6
CONTINUOUS
 10
-64.2430766384
 20
104.6257811878
 11
51.7224354762
 21
46.6430251305
  0
LINE
  5
304
100
AcDbEntity
  8
RACCORDO
100
AcDbLine
 62
7
  6
CONTINUOUS
 10
-63.8082037579
 20
104.6481445174
 11
52.1573083567
 21
46.6653884601
  0
LINE
  5
305
100
AcDbEntity
  8
0
100
AcDbLine
 62
7
  6
CONTINUOUS
 10
62.9886895745
 20
35.8781628025
 11
63.0027709543
 21
35.7986444093
  0
LINE
  5
306
100
AcDbEntity
  8
RACCORDO
100
AcDbLine
 62
7
  6
CONTINUOUS
 10
80.0297213477
 20
-1.2192497559
 11
80.0297213477
 21
-2.8018204696
  0
LINE
  5
307
100
AcDbEntity
  8
RACCORDO
100
AcDbLine
 62
7
  6
CONTINUOUS
 10
81.0903815195
 20
-2.2295699736
 11
81.0903815195
 21
-0.6931544914
  0
LWPOLYLINE
  5
308
100
AcDbEntity
  8
RACCORDO
100
AcDbPolyline
 62
7
  6
CONTINUOUS
 90
5
 70
0
 10
97.4271437258
 20
6.5818398206
 10
97.4312445627
 20
6.5886807082
 10
97.4340591908
 20
6.5924849843
 10
97.4295922497
 20
6.5885907995
 10
97.4165945563
 20
6.5794234937
  0
LINE
  5
309
100
AcDbEntity
  8
RACCORDO
100
AcDbLine
 62
7
  6
CONTINUOUS
 10
97.4165945563
 20
-29.7936434652
 11
97.4025441865
 21
-29.8018515618
  0
LINE
  5
30A
100
AcDbEntity
  8
RACCORDO
100
AcDbLine
 62
253
  6
CONTINUOUS
 10
67.5222016696
 20
-46.0039446296
 11
97.5409826391
 21
-29.8081236149
  0
LINE
  5
30B
100
AcDbEntity
  8
RACCORDO
100
AcDbLine
 62
7
  6
CONTINUOUS
 10
96.8936915601
 20
-30.6719231926
 11
67.5222016696
 21
-46.5185158202
  0
LINE
  5
30C
100
AcDbEntity
  8
DRAFT
100
AcDbLine
 62
7
  6
CONTINUOUS
 10
62.1359394153
 20
-55.2797782061
 11
60.9024829166
 21
-55.9012622146
  0
LINE
  5
30D
100
AcDbEntity
  8
RACCORDO
100
AcDbLine
 62
7
  6
CONTINUOUS
 10
97.6904739789
 20
43.0761502659
 11
97.8212254224
 21
43.0107745441
  0
LINE
  5
30E
100
AcDbEntity
  8
RACCORDO
100
AcDbLine
 62
7
  6
CONTINUOUS
 10
85.370047171
 20
0.0794078281
 11
85.370047171
 21
1.4295912219
  0
LINE
  5
30F
100
AcDbEntity
  8
RACCORDO
100
AcDbLine
 62
7
  6
CONTINUOUS
 10
90.0352823015
 20
56.4395400108
 11
90.0352823015
 21
56.2794028509
  0
LINE
  5
310
100
AcDbEntity
  8
DRAFT
100
AcDbLine
 62
7
  6
CONTINUOUS
 10
-4.4200379986
 20
98.4292164576
 11
-3.8451123042
 21
98.1417536104
  0
LINE
  5
311
100
AcDbEntity
  8
DRAFT
100
AcDbLine
 62
7
  6
CONTINUOUS
 10
24.4299186738
 20
84.0042381214
 11
24.9125106979
 21
83.7629421093
  0
LINE
  5
312
100
AcDbEntity
  8
DRAFT
100
AcDbLine
 62
7
  6
CONTINUOUS
 10
55.9668811147
 20
68.2357569009
 11
56.5418068091
 21
67.9482940537
  0
LINE
  5
313
100
AcDbEntity
  8
DRAFT
100
AcDbLine
 62
7
  6
CONTINUOUS
 10
84.8168377871
 20
53.8107785647
 11
85.3404636644
 21
53.5489656261
  0
LINE
  5
314
100
AcDbEntity
  8
DRAFT
100
AcDbLine
 62
7
  6
CONTINUOUS
 10
86.1319376975
 20
53.9346014472
 11
85.6292165731
 21
54.1859620094
  0
LINE
  5
315
100
AcDbEntity
  8
DRAFT
100
AcDbLine
 62
7
  6
CONTINUOUS
 10
57.3263118837
 20
68.3374143542
 11
56.7792599007
 21
68.6109403456
  0
LINE
  5
316
100
AcDbEntity
  8
DRAFT
100
AcDbLine
 62
7
  6
CONTINUOUS
 10
25.7095590828
 20
84.1457907546
 11
25.2422974598
 21
84.3794215661
  0
LINE
  5
317
100
AcDbEntity
  8
DRAFT
100
AcDbLine
 62
7
  6
CONTINUOUS
 10
-3.0606072296
 20
98.5308739108
 11
-3.6076592126
 21
98.8043999023
  0
LINE
  5
318
100
AcDbEntity
  8
DRAFT
100
AcDbLine
 62
7
  6
CONTINUOUS
 10
88.1803052801
 20
54.9326429263
 11
87.7316865221
 21
55.1569523053
  0
LINE
  5
319
100
AcDbEntity
  8
DRAFT
100
AcDbLine
 62
7
  6
CONTINUOUS
 10
59.3566435127
 20
69.34447381
 11
58.8817298497
 21
69.5819306415
  0
LINE
  5
31A
100
AcDbEntity
  8
DRAFT
100
AcDbLine
 62
7
  6
CONTINUOUS
 10
27.7723533184
 20
85.1366189072
 11
27.3447674088
 21
85.350411862
  0
LINE
  5
31B
100
AcDbEntity
  8
DRAFT
100
AcDbLine
 62
7
  6
CONTINUOUS
 10
-1.0302756006
 20
99.5379333666
 11
-1.5051892637
 21
99.7753901982
  0
LINE
  5
31C
100
AcDbEntity
  8
RACCORDO
100
AcDbLine
 62
253
  6
CONTINUOUS
 10
-33.0936110044
 20
116.9298811348
 11
-31.0661775732
 21
115.9161644192
  0
LINE
  5
31D
100
AcDbEntity
  8
RACCORDO
100
AcDbLine
 62
253
  6
CONTINUOUS
 10
90.9359938035
 20
54.9150787308
 11
92.9634272347
 21
53.9013620152
  0
LINE
  5
31E
100
AcDbEntity
  8
RACCORDO
100
AcDbLine
 62
7
  6
CONTINUOUS
 10
-32.9417806345
 20
116.9259058808
 11
-30.9924736612
 21
115.9512523941
  0
LINE
  5
31F
100
AcDbEntity
  8
RACCORDO
100
AcDbLine
 62
7
  6
CONTINUOUS
 10
91.0661245616
 20
54.9219532828
 11
92.9922032071
 21
53.95891396
  0
LINE
  5
320
100
AcDbEntity
  8
RACCORDO
100
AcDbLine
 62
253
  6
CONTINUOUS
 10
-30.8138965038
 20
116.0362670243
 11
-29.4345359362
 21
115.3465867405
  0
LINE
  5
321
100
AcDbEntity
  8
RACCORDO
100
AcDbLine
 62
253
  6
CONTINUOUS
 10
-28.2672691052
 20
114.762953325
 11
-0.5965458059
 21
100.9275916754
  0
LINE
  5
322
100
AcDbEntity
  8
RACCORDO
100
AcDbLine
 62
253
  6
CONTINUOUS
 10
0.5826875672
 20
100.3379749888
 11
28.2534108665
 21
86.5026133392
  0
LINE
  5
323
100
AcDbEntity
  8
RACCORDO
100
AcDbLine
 62
253
  6
CONTINUOUS
 10
29.4111058636
 20
85.9237658406
 11
30.961955011
 21
85.1483412669
  0
LINE
  5
324
100
AcDbEntity
  8
RACCORDO
100
AcDbLine
 62
253
  6
CONTINUOUS
 10
32.1196500081
 20
84.5694937683
 11
59.7903733074
 21
70.7341321187
  0
LINE
  5
325
100
AcDbEntity
  8
RACCORDO
100
AcDbLine
 62
253
  6
CONTINUOUS
 10
60.9696066806
 20
70.1445154321
 11
88.6403299798
 21
56.3091537825
  0
LINE
  5
326
100
AcDbEntity
  8
RACCORDO
100
AcDbLine
 62
253
  6
CONTINUOUS
 10
89.8075968109
 20
55.725520367
 11
91.1869573785
 21
55.0358400832
  0
LINE
  5
327
100
AcDbEntity
  8
RACCORDO
100
AcDbLine
 62
253
  6
CONTINUOUS
 10
0.3942014522
 20
100.6525917744
 11
0.5899449462
 21
100.5547200275
  0
LINE
  5
328
100
AcDbEntity
  8
RACCORDO
100
AcDbLine
 62
253
  6
CONTINUOUS
 10
29.2441581247
 20
86.2276134382
 11
29.4399016186
 21
86.1297416912
  0
LINE
  5
329
100
AcDbEntity
  8
RACCORDO
100
AcDbLine
 62
253
  6
CONTINUOUS
 10
60.7811205656
 20
70.4591322178
 11
60.9768640595
 21
70.3612604708
  0
LINE
  5
32A
100
AcDbEntity
  8
RACCORDO
100
AcDbLine
 62
253
  6
CONTINUOUS
 10
89.631077238
 20
56.0341538816
 11
89.826820732
 21
55.9362821346
  0
LINE
  5
32B
100
AcDbEntity
  8
RACCORDO
100
AcDbLine
 62
7
  6
CONTINUOUS
 10
-28.0515501566
 20
115.4829562399
 11
-26.9201793067
 21
114.9172708149
  0
LINE
  5
32C
100
AcDbEntity
  8
RACCORDO
100
AcDbLine
 62
7
  6
CONTINUOUS
 10
0.7984065158
 20
101.0579779037
 11
1.9297773657
 21
100.4922924787
  0
LINE
  5
32D
100
AcDbEntity
  8
RACCORDO
100
AcDbLine
 62
7
  6
CONTINUOUS
 10
29.6483631882
 20
86.6329995674
 11
30.7797340381
 21
86.0673141425
  0
LINE
  5
32E
100
AcDbEntity
  8
RACCORDO
100
AcDbLine
 62
7
  6
CONTINUOUS
 10
32.3353689567
 20
85.2894966832
 11
33.4667398066
 21
84.7238112582
  0
LINE
  5
32F
100
AcDbEntity
  8
RACCORDO
100
AcDbLine
 62
7
  6
CONTINUOUS
 10
61.1853256291
 20
70.864518347
 11
62.316696479
 21
70.298832922
  0
LINE
  5
330
100
AcDbEntity
  8
RACCORDO
100
AcDbLine
 62
7
  6
CONTINUOUS
 10
90.0352823015
 20
56.4395400108
 11
91.1666531514
 21
55.8738545858
  0
LINE
  5
331
100
AcDbEntity
  8
RACCORDO
100
AcDbLine
 62
7
  6
CONTINUOUS
 10
-29.2878836795
 20
116.1125598068
 11
-28.0469754344
 21
115.4921056842
  0
LINE
  5
332
100
AcDbEntity
  8
RACCORDO
100
AcDbLine
 62
7
  6
CONTINUOUS
 10
-26.9156045845
 20
114.9264202593
 11
0.7093373672
 21
101.1139492834
  0
LINE
  5
333
100
AcDbEntity
  8
RACCORDO
100
AcDbLine
 62
7
  6
CONTINUOUS
 10
1.9343520879
 20
100.5014419231
 11
29.5592940396
 21
86.6889709472
  0
LINE
  5
334
100
AcDbEntity
  8
RACCORDO
100
AcDbLine
 62
7
  6
CONTINUOUS
 10
30.7843087603
 20
86.0764635869
 11
32.3399436789
 21
85.2986461276
  0
LINE
  5
335
100
AcDbEntity
  8
RACCORDO
100
AcDbLine
 62
7
  6
CONTINUOUS
 10
33.4713145288
 20
84.7329607026
 11
61.0962564805
 21
70.9204897268
  0
LINE
  5
336
100
AcDbEntity
  8
RACCORDO
100
AcDbLine
 62
7
  6
CONTINUOUS
 10
62.3212712012
 20
70.3079823664
 11
89.9462131529
 21
56.4955113906
  0
LINE
  5
337
100
AcDbEntity
  8
RACCORDO
100
AcDbLine
 62
7
  6
CONTINUOUS
 10
91.1712278736
 20
55.8830040302
 11
92.7050547181
 21
55.116090608
  0
LINE
  5
338
100
AcDbEntity
  8
DRAFT
100
AcDbLine
 62
7
  6
CONTINUOUS
 10
93.1811114041
 20
41.6219558273
 11
93.1811114041
 21
40.6667231399
  0
LINE
  5
339
100
AcDbEntity
  8
DRAFT
100
AcDbLine
 62
7
  6
CONTINUOUS
 10
93.1811114041
 20
5.3039366654
 11
93.1811114041
 21
4.2936561809
  0
LINE
  5
33A
100
AcDbEntity
  8
DRAFT
100
AcDbLine
 62
7
  6
CONTINUOUS
 10
93.1811114041
 20
-31.0691302935
 11
93.1811114041
 21
-32.079410778
  0
LINE
  5
33B
100
AcDbEntity
  8
DRAFT
100
AcDbLine
 62
7
  6
CONTINUOUS
 10
93.8190996546
 20
-31.7352014804
 11
93.8190996546
 21
-30.752683418
  0
LINE
  5
33C
100
AcDbEntity
  8
DRAFT
100
AcDbLine
 62
7
  6
CONTINUOUS
 10
93.8190996546
 20
4.6378654786
 11
93.8190996546
 21
5.620383541
  0
LINE
  5
33D
100
AcDbEntity
  8
DRAFT
100
AcDbLine
 62
7
  6
CONTINUOUS
 10
93.8190996546
 20
41.0109324375
 11
93.8190996546
 21
41.945343837
  0
LINE
  5
33E
100
AcDbEntity
  8
DRAFT
100
AcDbLine
 62
7
  6
CONTINUOUS
 10
95.8335579073
 20
-30.6483550379
 11
95.8335579073
 21
-29.7534972739
  0
LINE
  5
33F
100
AcDbEntity
  8
DRAFT
100
AcDbLine
 62
7
  6
CONTINUOUS
 10
95.8335579073
 20
5.724711921
 11
95.8335579073
 21
6.6195696851
  0
LINE
  5
340
100
AcDbEntity
  8
DRAFT
100
AcDbLine
 62
7
  6
CONTINUOUS
 10
95.8335579073
 20
42.0977788799
 11
95.8335579073
 21
42.9664467247
  0
LINE
  5
341
100
AcDbEntity
  8
RACCORDO
100
AcDbLine
 62
253
  6
CONTINUOUS
 10
96.6464613219
 20
47.5490678622
 11
96.6464613219
 21
45.0659791653
  0
LINE
  5
342
100
AcDbEntity
  8
RACCORDO
100
AcDbLine
 62
253
  6
CONTINUOUS
 10
96.6464613219
 20
-68.8485129718
 11
96.6464613219
 21
-71.3316016687
  0
LINE
  5
343
100
AcDbEntity
  8
RACCORDO
100
AcDbLine
 62
7
  6
CONTINUOUS
 10
96.7306593818
 20
47.5490678622
 11
96.7306593818
 21
45.1697249369
  0
LINE
  5
344
100
AcDbEntity
  8
RACCORDO
100
AcDbLine
 62
7
  6
CONTINUOUS
 10
96.7306593818
 20
-68.8046433829
 11
96.7306593818
 21
-71.1934489172
  0
LINE
  5
345
100
AcDbEntity
  8
RACCORDO
100
AcDbLine
 62
253
  6
CONTINUOUS
 10
96.8936915601
 20
45.1931795711
 11
96.8936915601
 21
43.5038147902
  0
LINE
  5
346
100
AcDbEntity
  8
RACCORDO
100
AcDbLine
 62
253
  6
CONTINUOUS
 10
96.8936915601
 20
42.0742107253
 11
96.8936915601
 21
7.1454037923
  0
LINE
  5
347
100
AcDbEntity
  8
RACCORDO
100
AcDbLine
 62
253
  6
CONTINUOUS
 10
96.8936915601
 20
5.7011437663
 11
96.8936915601
 21
-29.2276631667
  0
LINE
  5
348
100
AcDbEntity
  8
RACCORDO
100
AcDbLine
 62
253
  6
CONTINUOUS
 10
96.8936915601
 20
-30.6719231926
 11
96.8936915601
 21
-65.6007301256
  0
LINE
  5
349
100
AcDbEntity
  8
RACCORDO
100
AcDbLine
 62
253
  6
CONTINUOUS
 10
96.8936915601
 20
-67.0303341905
 11
96.8936915601
 21
-68.7196989715
  0
LINE
  5
34A
100
AcDbEntity
  8
RACCORDO
100
AcDbLine
 62
253
  6
CONTINUOUS
 10
97.3252130077
 20
43.0034685132
 11
97.3252130077
 21
42.9441176198
  0
LINE
  5
34B
100
AcDbEntity
  8
RACCORDO
100
AcDbLine
 62
253
  6
CONTINUOUS
 10
97.3252130077
 20
6.6304015543
 11
97.3252130077
 21
6.5710506609
  0
LINE
  5
34C
100
AcDbEntity
  8
RACCORDO
100
AcDbLine
 62
253
  6
CONTINUOUS
 10
97.3252130077
 20
-29.7426654047
 11
97.3252130077
 21
-29.8020162981
  0
LINE
  5
34D
100
AcDbEntity
  8
RACCORDO
100
AcDbLine
 62
7
  6
CONTINUOUS
 10
97.8212254224
 20
44.3964151902
 11
97.8212254224
 21
43.0107745441
  0
LINE
  5
34E
100
AcDbEntity
  8
RACCORDO
100
AcDbLine
 62
7
  6
CONTINUOUS
 10
97.8212254224
 20
8.0233482312
 11
97.8212254224
 21
6.6377075852
  0
LINE
  5
34F
100
AcDbEntity
  8
RACCORDO
100
AcDbLine
 62
7
  6
CONTINUOUS
 10
97.8212254224
 20
-28.3497187277
 11
97.8212254224
 21
-29.7353593738
  0
LINE
  5
350
100
AcDbEntity
  8
RACCORDO
100
AcDbLine
 62
7
  6
CONTINUOUS
 10
97.8212254224
 20
-64.7227856867
 11
97.8212254224
 21
-66.1084263327
  0
LINE
  5
351
100
AcDbEntity
  8
RACCORDO
100
AcDbLine
 62
7
  6
CONTINUOUS
 10
97.8760022589
 20
46.4034267879
 11
97.8760022589
 21
-67.4986418916
  0
LWPOLYLINE
  5
352
100
AcDbEntity
  8
RACCORDO
100
AcDbPolyline
 62
7
  6
CONTINUOUS
 90
5
 70
0
 10
97.4271437258
 20
-29.7912271384
 10
97.4312445627
 20
-29.7843862507
 10
97.4340591908
 20
-29.7805819747
 10
97.4295922497
 20
-29.7844761595
 10
97.4165945563
 20
-29.7936434652
  0
LINE
  5
353
100
AcDbEntity
  8
0
100
AcDbLine
 62
7
  6
CONTINUOUS
 10
44.059070525
 20
-96.119378705
 11
44.1794075416
 21
-95.9857281704
  0
LINE
  5
354
100
AcDbEntity
  8
DRAFT
100
AcDbLine
 62
7
  6
CONTINUOUS
 10
62.1359394153
 20
-79.6150920524
 11
60.9024829166
 21
-80.236576061
  0
LINE
  5
355
100
AcDbEntity
  8
RACCORDO
100
AcDbLine
 62
7
  6
CONTINUOUS
 10
96.8936915601
 20
-65.6007301256
 11
67.5222016696
 21
-80.1692056408
  0
LINE
  5
356
100
AcDbEntity
  8
0
100
AcDbLine
 62
7
  6
CONTINUOUS
 10
-85.3555594925
 20
88.717643668
 11
-83.7709182842
 21
88.9827504337
  0
LINE
  5
357
100
AcDbEntity
  8
RACCORDO
100
AcDbLine
 62
7
  6
CONTINUOUS
 10
96.6464613219
 20
-71.3316016687
 11
96.6686328538
 21
-71.3173509523
  0
LINE
  5
358
100
AcDbEntity
  8
RACCORDO
100
AcDbLine
 62
7
  6
CONTINUOUS
 10
95.3956629283
 20
-72.2381113896
 11
95.4225512071
 21
-72.2209168979
  0
LINE
  5
359
100
AcDbEntity
  8
RACCORDO
100
AcDbLine
 62
7
  6
CONTINUOUS
 10
92.9634272347
 20
-74.0008617345
 11
92.9869204059
 21
-73.9861387571
  0
LINE
  5
35A
100
AcDbEntity
  8
RACCORDO
100
AcDbLine
 62
7
  6
CONTINUOUS
 10
67.4904745016
 20
-87.4713787446
 11
92.9634272347
 21
-74.0008617345
  0
LINE
  5
35B
100
AcDbEntity
  8
RACCORDO
100
AcDbLine
 62
7
  6
CONTINUOUS
 10
96.8936915601
 20
-67.0303341905
 11
67.5222016696
 21
-82.5573732052
  0
LINE
  5
35C
100
AcDbEntity
  8
RACCORDO
100
AcDbLine
 62
7
  6
CONTINUOUS
 10
95.3925490884
 20
-72.2397560286
 11
67.5055551186
 21
-86.9688498068
  0
LINE
  5
35D
100
AcDbEntity
  8
RACCORDO
100
AcDbLine
 62
7
  6
CONTINUOUS
 10
94.2111234393
 20
-73.0959882087
 11
67.500217541
 21
-87.1841866458
  0
LINE
  5
35E
100
AcDbEntity
  8
RACCORDO
100
AcDbLine
 62
7
  6
CONTINUOUS
 10
67.5127499168
 20
-86.6785860988
 11
96.6464613219
 21
-71.3316016687
  0
LINE
  5
35F
100
AcDbEntity
  8
RACCORDO
100
AcDbLine
 62
7
  6
CONTINUOUS
 10
96.6464613219
 20
-68.8485129718
 11
96.8936915601
 21
-68.7196989715
  0
LINE
  5
360
100
AcDbEntity
  8
RACCORDO
100
AcDbLine
 62
253
  6
CONTINUOUS
 10
67.24154147
 20
-86.6445980063
 11
65.1451236038
 21
-87.7300501317
  0
LINE
  5
361
100
AcDbEntity
  8
0
100
AcDbLine
 62
7
  6
CONTINUOUS
 10
43.5430114385
 20
-94.3681906243
 11
43.6246127995
 21
-94.3273899439
  0
LINE
  5
362
100
AcDbEntity
  8
0
100
AcDbLine
 62
7
  6
CONTINUOUS
 10
42.7617260736
 20
-95.0893975878
 11
43.4369454213
 21
-94.7517879139
  0
LINE
  5
363
100
AcDbEntity
  8
0
100
AcDbLine
 62
7
  6
CONTINUOUS
 10
42.7449122471
 20
-95.1412703635
 11
43.5496884096
 21
-94.7388822823
  0
LINE
  5
364
100
AcDbEntity
  8
0
100
AcDbLine
 62
7
  6
CONTINUOUS
 10
43.4989726313
 20
-95.1140585704
 11
42.3832515548
 21
-95.6719191087
  0
LINE
  5
365
100
AcDbEntity
  8
0
100
AcDbLine
 62
7
  6
CONTINUOUS
 10
42.7449122471
 20
-96.041457844
 11
43.6094593826
 21
-95.6091842762
  0
LINE
  5
366
100
AcDbEntity
  8
0
100
AcDbLine
 62
7
  6
CONTINUOUS
 10
42.7617260736
 20
-96.104410012
 11
43.4369454213
 21
-95.7668003381
  0
LINE
  5
367
100
AcDbEntity
  8
0
100
AcDbLine
 62
7
  6
CONTINUOUS
 10
43.5430114385
 20
-96.2564636449
 11
44.1794075416
 21
-95.9382655933
  0
LINE
  5
368
100
AcDbEntity
  8
0
100
AcDbLine
 62
7
  6
CONTINUOUS
 10
43.4799122471
 20
-96.408957844
 11
44.3474163148
 21
-95.9752058101
  0
LINE
  5
369
100
AcDbEntity
  8
0
100
AcDbLine
 62
7
  6
CONTINUOUS
 10
43.9250200199
 20
-96.4428033412
 11
44.6714631963
 21
-96.069581753
  0
LINE
  5
36A
100
AcDbEntity
  8
0
100
AcDbLine
 62
7
  6
CONTINUOUS
 10
43.4369454213
 20
-97.6011683754
 11
43.1541027089
 21
-97.7425897317
  0
LINE
  5
36B
100
AcDbEntity
  8
DRAFT
100
AcDbLine
 62
253
  6
CONTINUOUS
 10
62.1359394153
 20
-90.4404095997
 11
60.9024829166
 21
-91.0359771472
  0
LINE
  5
36C
100
AcDbEntity
  8
RACCORDO
100
AcDbLine
 62
253
  6
CONTINUOUS
 10
92.9634272347
 20
53.9013620152
 11
94.2142256282
 21
51.7440539008
  0
LINE
  5
36D
100
AcDbEntity
  8
RACCORDO
100
AcDbLine
 62
253
  6
CONTINUOUS
 10
95.3956629283
 20
49.7063759767
 11
96.6464613219
 21
47.5490678622
  0
LINE
  5
36E
100
AcDbEntity
  8
RACCORDO
100
AcDbLine
 62
253
  6
CONTINUOUS
 10
94.2676507887
 20
51.7803989079
 11
94.6449578767
 21
51.1296404429
  0
LINE
  5
36F
100
AcDbEntity
  8
RACCORDO
100
AcDbLine
 62
253
  6
CONTINUOUS
 10
96.7306593818
 20
47.5323374688
 11
96.7671206526
 21
47.469451079
  0
LINE
  5
370
100
AcDbEntity
  8
RACCORDO
100
AcDbLine
 62
7
  6
CONTINUOUS
 10
93.0944126439
 20
53.8979444849
 11
94.2593414026
 21
51.8887395827
  0
LINE
  5
371
100
AcDbEntity
  8
RACCORDO
100
AcDbLine
 62
7
  6
CONTINUOUS
 10
95.5622965678
 20
49.6414743439
 11
96.7271818619
 21
47.632344407
  0
LINE
  5
372
100
AcDbEntity
  8
RACCORDO
100
AcDbLine
 62
7
  6
CONTINUOUS
 10
93.5689771911
 20
53.2148777422
 11
94.7491138032
 21
51.1794431729
  0
LINE
  5
373
100
AcDbEntity
  8
RACCORDO
100
AcDbLine
 62
7
  6
CONTINUOUS
 10
95.6210657717
 20
49.6755484872
 11
96.8173481591
 21
47.6122665747
  0
LINE
  5
374
100
AcDbEntity
  8
RACCORDO
100
AcDbLine
 62
7
  6
CONTINUOUS
 10
96.7306576312
 20
47.6219389517
 11
96.7281639865
 21
47.6306493228
  0
LINE
  5
375
100
AcDbEntity
  8
RACCORDO
100
AcDbLine
 62
7
  6
CONTINUOUS
 10
94.2111234393
 20
-73.0959882087
 11
94.2329828526
 21
-73.0787319646
  0
LINE
  5
376
100
AcDbEntity
  8
RACCORDO
100
AcDbLine
 62
253
  6
CONTINUOUS
 10
96.6464613219
 20
-71.3316016687
 11
95.3956629283
 21
-72.2381113896
  0
LINE
  5
377
100
AcDbEntity
  8
RACCORDO
100
AcDbLine
 62
253
  6
CONTINUOUS
 10
94.2142256282
 20
-73.0943520137
 11
92.9634272347
 21
-74.0008617345
  0
LINE
  5
378
100
AcDbEntity
  8
RACCORDO
100
AcDbLine
 62
7
  6
CONTINUOUS
 10
96.6668986777
 20
-71.3190939044
 11
95.4232176855
 21
-72.2204453252
  0
LINE
  5
379
100
AcDbEntity
  8
RACCORDO
100
AcDbLine
 62
7
  6
CONTINUOUS
 10
94.231426377
 20
-73.0841899638
 11
92.9877304353
 21
-73.9855522191
  0
LINE
  5
37A
100
AcDbEntity
  8
DRAFT
100
AcDbLine
 62
7
  6
CONTINUOUS
 10
61.6992149364
 20
-98.4322734183
 11
60.9024829166
 21
-98.852875853
  0
LINE
  5
37B
100
AcDbEntity
  8
RACCORDO
100
AcDbLine
 62
253
  6
CONTINUOUS
 10
60.9024829166
 20
-109.6824684305
 11
58.2861878263
 21
-110.9906159757
  0
LINE
  5
37C
100
AcDbEntity
  8
ASSI
100
AcDbLine
 62
7
  6
CONTINUOUS
 10
58.3035510598
 20
-115.0912064346
 11
55.6872559694
 21
-116.3993539798
  0
ARC
  5
37D
100
AcDbEntity
  8
0
100
AcDbCircle
 62
7
  6
CONTINUOUS
 10
-67.0773209943
 20
-32.7302847687
 40
15.5350070954
100
AcDbArc
 50
178.8805154464
 51
181.1164946862
  0
ARC
  5
37E
100
AcDbEntity
  8
RACCORDO
100
AcDbCircle
 62
7
  6
CONTINUOUS
 10
-86.5579672327
 20
-33.8904020851
 40
11.3056763239
100
AcDbArc
 50
183.4068822815
 51
183.9660664049
  0
ARC
  5
37F
100
AcDbEntity
  8
RACCORDO
100
AcDbCircle
 62
7
  6
CONTINUOUS
 10
-86.9851827703
 20
-33.9124134922
 40
10.8779082857
100
AcDbArc
 50
180.0187686829
 51
183.4248713693
  0
ARC
  5
380
100
AcDbEntity
  8
RACCORDO
100
AcDbCircle
 62
7
  6
CONTINUOUS
 10
-86.6448755076
 20
-36.7420986733
 40
9.7951322846
100
AcDbArc
 50
235.7467233899
 51
236.9638368984
  0
ARC
  5
381
100
AcDbEntity
  8
RACCORDO
100
AcDbCircle
 62
7
  6
CONTINUOUS
 10
-87.0477318423
 20
-37.3812098811
 40
9.0397301715
100
AcDbArc
 50
236.8960309437
 51
243.3623521642
  0
ARC
  5
382
100
AcDbEntity
  8
0
100
AcDbCircle
 62
7
  6
CONTINUOUS
 10
-82.9008449219
 20
-23.8893891744
 40
8.9253069101
100
AcDbArc
 50
264.2225437004
 51
267.088447919
  0
ARC
  5
383
100
AcDbEntity
  8
0
100
AcDbCircle
 62
7
  6
CONTINUOUS
 10
-75.8647686496
 20
-30.4996949582
 40
8.0518541452
100
AcDbArc
 50
189.3175606024
 51
189.7925119453
  0
ARC
  5
384
100
AcDbEntity
  8
0
100
AcDbCircle
 62
7
  6
CONTINUOUS
 10
-78.8831351729
 20
-25.6596174126
 40
7.92005644
100
AcDbArc
 50
231.6308965808
 51
235.6307820283
  0
ARC
  5
385
100
AcDbEntity
  8
0
100
AcDbCircle
 62
7
  6
CONTINUOUS
 10
-77.2883970651
 20
-30.5002663997
 40
7.4912776887
100
AcDbArc
 50
194.7048226946
 51
195.2031810519
  0
ARC
  5
386
100
AcDbEntity
  8
0
100
AcDbCircle
 62
7
  6
CONTINUOUS
 10
-77.6689017635
 20
-33.6983231248
 40
7.2082686173
100
AcDbArc
 50
161.8239130891
 51
162.2573500263
  0
ARC
  5
387
100
AcDbEntity
  8
0
100
AcDbCircle
 62
7
  6
CONTINUOUS
 10
-80.0710670935
 20
-27.6715561671
 40
6.5035411377
100
AcDbArc
 50
222.1073157185
 51
226.6638372672
  0
ARC
  5
388
100
AcDbEntity
  8
0
100
AcDbCircle
 62
7
  6
CONTINUOUS
 10
-78.3054303396
 20
-34.0371828748
 40
5.6382712082
100
AcDbArc
 50
167.0052115977
 51
167.5157734866
  0
ARC
  5
389
100
AcDbEntity
  8
0
100
AcDbCircle
 62
7
  6
CONTINUOUS
 10
-80.2287722022
 20
-31.3569105896
 40
5.135726678
100
AcDbArc
 50
176.6149940728
 51
183.3820652921
  0
ARC
  5
38A
100
AcDbEntity
  8
0
100
AcDbCircle
 62
7
  6
CONTINUOUS
 10
-87.0664482953
 20
-33.5553668303
 40
4.6363469711
100
AcDbArc
 50
33.9931381892
 51
36.0578173753
  0
ARC
  5
38B
100
AcDbEntity
  8
0
100
AcDbCircle
 62
7
  6
CONTINUOUS
 10
-82.1066352513
 20
-31.870257156
 40
2.7497003919
100
AcDbArc
 50
237.8689528548
 51
239.2551282683
  0
ARC
  5
38C
100
AcDbEntity
  8
0
100
AcDbCircle
 62
7
  6
CONTINUOUS
 10
-83.8324645459
 20
-30.3379704962
 40
1.5868566671
100
AcDbArc
 50
149.4137144816
 51
155.1159096638
  0
ARC
  5
38D
100
AcDbEntity
  8
0
100
AcDbCircle
 62
7
  6
CONTINUOUS
 10
-82.5351569242
 20
-32.953568711
 40
1.5786594219
100
AcDbArc
 50
258.2016405071
 51
263.90673946
  0
ARC
  5
38E
100
AcDbEntity
  8
DRAFT
100
AcDbCircle
 62
7
  6
CONTINUOUS
 10
-25.6801523307
 20
76.7476127682
 40
20.6564678423
100
AcDbArc
 50
53.6500761501
 51
56.2271902772
  0
ARC
  5
38F
100
AcDbEntity
  8
DRAFT
100
AcDbCircle
 62
7
  6
CONTINUOUS
 10
-24.580642821
 20
77.7213234874
 40
18.5090755792
100
AcDbArc
 50
55.7626560855
 51
58.7843623477
  0
ARC
  5
390
100
AcDbEntity
  8
DRAFT
100
AcDbCircle
 62
7
  6
CONTINUOUS
 10
-23.5130408277
 20
78.3423181506
 40
18.0699637086
100
AcDbArc
 50
56.2507712096
 51
59.2806352255
  0
ARC
  5
391
100
AcDbEntity
  8
RACCORDO
100
AcDbCircle
 62
7
  6
CONTINUOUS
 10
-71.7131509602
 20
88.8405826012
 40
17.6739130927
100
AcDbArc
 50
63.4315672059
 51
64.6796588551
  0
ARC
  5
392
100
AcDbEntity
  8
RACCORDO
100
AcDbCircle
 62
7
  6
CONTINUOUS
 10
-71.3978294065
 20
89.5109967546
 40
16.9330488491
100
AcDbArc
 50
64.6739300797
 51
66.764589622
  0
ARC
  5
393
100
AcDbEntity
  8
0
100
AcDbCircle
 62
7
  6
CONTINUOUS
 10
-67.0773209943
 20
87.6472463574
 40
15.5350070954
100
AcDbArc
 50
178.8805154464
 51
181.1164946862
  0
ARC
  5
394
100
AcDbEntity
  8
DRAFT
100
AcDbCircle
 62
7
  6
CONTINUOUS
 10
-21.4285662756
 20
81.2521244302
 40
11.6106851941
100
AcDbArc
 50
65.9806125307
 51
71.5859175708
  0
ARC
  5
395
100
AcDbEntity
  8
0
100
AcDbCircle
 62
7
  6
CONTINUOUS
 10
-82.9008449211
 20
96.4881419516
 40
8.9253069101
100
AcDbArc
 50
264.2225436955
 51
267.0884479141
  0
ARC
  5
396
100
AcDbEntity
  8
DRAFT
100
AcDbCircle
 62
7
  6
CONTINUOUS
 10
-72.3519686356
 20
96.2066922175
 40
8.9182191253
100
AcDbArc
 50
99.6311555301
 51
101.6739818619
  0
ARC
  5
397
100
AcDbEntity
  8
DRAFT
100
AcDbCircle
 62
7
  6
CONTINUOUS
 10
-72.465936477
 20
96.7072470873
 40
8.4049641292
100
AcDbArc
 50
101.6035849979
 51
108.3349262728
  0
ARC
  5
398
100
AcDbEntity
  8
RACCORDO
100
AcDbCircle
 62
253
  6
CONTINUOUS
 10
-70.339205916
 20
97.7975187298
 40
8.3282509709
100
AcDbArc
 50
107.6161750309
 51
108.9413119506
  0
ARC
  5
399
100
AcDbEntity
  8
RACCORDO
100
AcDbCircle
 62
253
  6
CONTINUOUS
 10
-70.3440119162
 20
97.8116831048
 40
8.3132935497
100
AcDbArc
 50
108.9416702423
 51
110.9909172419
  0
ARC
  5
39A
100
AcDbEntity
  8
RACCORDO
100
AcDbCircle
 62
253
  6
CONTINUOUS
 10
-70.3499845786
 20
97.8266921042
 40
8.2971410648
100
AcDbArc
 50
110.9895376851
 51
115.2219091074
  0
ARC
  5
39B
100
AcDbEntity
  8
0
100
AcDbCircle
 62
7
  6
CONTINUOUS
 10
-75.8647686498
 20
89.8778361678
 40
8.051854145
100
AcDbArc
 50
189.3175606024
 51
189.7925119453
  0
ARC
  5
39C
100
AcDbEntity
  8
0
100
AcDbCircle
 62
7
  6
CONTINUOUS
 10
-78.8831351729
 20
94.7179137134
 40
7.92005644
100
AcDbArc
 50
231.6308965808
 51
235.6307820283
  0
ARC
  5
39D
100
AcDbEntity
  8
0
100
AcDbCircle
 62
7
  6
CONTINUOUS
 10
-77.288397065
 20
89.8772647263
 40
7.4912776888
100
AcDbArc
 50
194.7048226947
 51
195.2031810519
  0
ARC
  5
39E
100
AcDbEntity
  8
0
100
AcDbCircle
 62
7
  6
CONTINUOUS
 10
-77.6689017632
 20
86.6792080011
 40
7.2082686176
100
AcDbArc
 50
161.8239130891
 51
162.2573500263
  0
ARC
  5
39F
100
AcDbEntity
  8
0
100
AcDbCircle
 62
7
  6
CONTINUOUS
 10
-80.0710670935
 20
92.7059749589
 40
6.5035411377
100
AcDbArc
 50
222.1073157185
 51
226.6638372672
  0
ARC
  5
3A0
100
AcDbEntity
  8
0
100
AcDbCircle
 62
7
  6
CONTINUOUS
 10
-78.3054303394
 20
86.3403482512
 40
5.6382712084
100
AcDbArc
 50
167.0052115977
 51
167.5157734866
  0
ARC
  5
3A1
100
AcDbEntity
  8
0
100
AcDbCircle
 62
7
  6
CONTINUOUS
 10
-80.2287722022
 20
89.0206205364
 40
5.135726678
100
AcDbArc
 50
176.6149940728
 51
183.3820652921
  0
ARC
  5
3A2
100
AcDbEntity
  8
0
100
AcDbCircle
 62
7
  6
CONTINUOUS
 10
-87.0664482954
 20
86.8221642957
 40
4.6363469711
100
AcDbArc
 50
33.9931381892
 51
36.0578173753
  0
ARC
  5
3A3
100
AcDbEntity
  8
0
100
AcDbCircle
 62
7
  6
CONTINUOUS
 10
-82.1066352512
 20
88.5072739702
 40
2.749700392
100
AcDbArc
 50
237.8689528548
 51
239.2551282683
  0
ARC
  5
3A4
100
AcDbEntity
  8
0
100
AcDbCircle
 62
7
  6
CONTINUOUS
 10
-83.8324645459
 20
90.0395606299
 40
1.5868566671
100
AcDbArc
 50
149.4137144816
 51
155.1159096638
  0
ARC
  5
3A5
100
AcDbEntity
  8
0
100
AcDbCircle
 62
7
  6
CONTINUOUS
 10
-82.5351569242
 20
87.423962415
 40
1.5786594219
100
AcDbArc
 50
258.2016405071
 51
263.90673946
  0
ARC
  5
3A6
100
AcDbEntity
  8
DRAFT
100
AcDbCircle
 62
7
  6
CONTINUOUS
 10
62.4105122654
 20
-41.4346266476
 40
31.5131307241
100
AcDbArc
 50
16.6711326399
 51
18.3781865017
  0
ARC
  5
3A7
100
AcDbEntity
  8
DRAFT
100
AcDbCircle
 62
7
  6
CONTINUOUS
 10
96.0831146947
 20
-24.6525348728
 40
31.1888210563
100
AcDbArc
 50
214.6028801414
 51
217.8704556403
  0
ARC
  5
3A8
100
AcDbEntity
  8
DRAFT
100
AcDbCircle
 62
7
  6
CONTINUOUS
 10
63.4506459598
 20
-40.9412261892
 40
29.7477989435
100
AcDbArc
 50
16.0851750006
 51
17.9398219237
  0
ARC
  5
3A9
100
AcDbEntity
  8
DRAFT
100
AcDbCircle
 62
7
  6
CONTINUOUS
 10
95.1030572204
 20
-25.1656749778
 40
29.4683750619
100
AcDbArc
 50
215.0377145804
 51
218.4570332798
  0
ARC
  5
3AA
100
AcDbEntity
  8
DRAFT
100
AcDbCircle
 62
7
  6
CONTINUOUS
 10
66.573656203
 20
-39.4855577289
 40
24.4566561985
100
AcDbArc
 50
13.8647587846
 51
16.2947795178
  0
ARC
  5
3AB
100
AcDbEntity
  8
DRAFT
100
AcDbCircle
 62
7
  6
CONTINUOUS
 10
92.2446871691
 20
-26.6591350533
 40
24.4001212797
100
AcDbArc
 50
216.6924291664
 51
220.6887921522
  0
ARC
  5
3AC
100
AcDbEntity
  8
RACCORDO
100
AcDbCircle
 62
7
  6
CONTINUOUS
 10
44.4757631759
 20
-86.298005618
 40
23.0464385055
100
AcDbArc
 50
359.1213156281
 51
0.0018317517
  0
ARC
  5
3AD
100
AcDbEntity
  8
DRAFT
100
AcDbCircle
 62
7
  6
CONTINUOUS
 10
67.666481
 20
-38.9942033188
 40
22.6413716876
100
AcDbArc
 50
12.9020576915
 51
15.5936231294
  0
ARC
  5
3AE
100
AcDbEntity
  8
DRAFT
100
AcDbCircle
 62
7
  6
CONTINUOUS
 10
91.0536684321
 20
-27.3565257145
 40
22.4002366709
100
AcDbArc
 50
217.3747798981
 51
221.6845166853
  0
ARC
  5
3AF
100
AcDbEntity
  8
DRAFT
100
AcDbCircle
 62
7
  6
CONTINUOUS
 10
70.4298195228
 20
-37.7852142668
 40
18.0774173959
100
AcDbArc
 50
9.6910544623
 51
13.2945131272
  0
ARC
  5
3B0
100
AcDbEntity
  8
DRAFT
100
AcDbCircle
 62
7
  6
CONTINUOUS
 10
88.5273503352
 20
-28.7694631277
 40
17.9585212735
100
AcDbArc
 50
219.673857668
 51
224.9239418268
  0
ARC
  5
3B1
100
AcDbEntity
  8
DRAFT
100
AcDbCircle
 62
7
  6
CONTINUOUS
 10
71.6249391714
 20
-37.3037206738
 40
16.164401094
100
AcDbArc
 50
7.9268967433
 51
12.0752062881
  0
ARC
  5
3B2
100
AcDbEntity
  8
DRAFT
100
AcDbCircle
 62
7
  6
CONTINUOUS
 10
87.2889378119
 20
-29.5650782157
 40
15.858684694
100
AcDbArc
 50
220.8680397727
 51
226.7742246024
  0
ARC
  5
3B3
100
AcDbEntity
  8
0
100
AcDbCircle
 62
7
  6
CONTINUOUS
 10
60.2018996194
 20
-96.3698950755
 40
15.5350070955
100
AcDbArc
 50
178.8805154464
 51
181.1164946862
  0
ARC
  5
3B4
100
AcDbEntity
  8
0
100
AcDbCircle
 62
7
  6
CONTINUOUS
 10
44.3783756902
 20
-87.5289994811
 40
8.9253069101
100
AcDbArc
 50
264.2225437099
 51
267.0884479286
  0
ARC
  5
3B5
100
AcDbEntity
  8
DRAFT
100
AcDbCircle
 62
7
  6
CONTINUOUS
 10
55.4332866421
 20
-91.8410676939
 40
8.7611154154
100
AcDbArc
 50
308.6888068775
 51
313.503012319
  0
ARC
  5
3B6
100
AcDbEntity
  8
0
100
AcDbCircle
 62
7
  6
CONTINUOUS
 10
51.414451964
 20
-94.139305265
 40
8.0518541452
100
AcDbArc
 50
189.3175606024
 51
189.7925119453
  0
ARC
  5
3B7
100
AcDbEntity
  8
0
100
AcDbCircle
 62
7
  6
CONTINUOUS
 10
48.3960854407
 20
-89.2992277194
 40
7.92005644
100
AcDbArc
 50
231.6308965808
 51
235.6307820283
  0
ARC
  5
3B8
100
AcDbEntity
  8
0
100
AcDbCircle
 62
7
  6
CONTINUOUS
 10
49.9908235496
 20
-94.1398767062
 40
7.4912776899
100
AcDbArc
 50
194.7048226947
 51
195.2031810519
  0
ARC
  5
3B9
100
AcDbEntity
  8
0
100
AcDbCircle
 62
7
  6
CONTINUOUS
 10
49.6103188497
 20
-97.3379334315
 40
7.2082686169
100
AcDbArc
 50
161.8239130891
 51
162.2573500263
  0
ARC
  5
3BA
100
AcDbEntity
  8
0
100
AcDbCircle
 62
7
  6
CONTINUOUS
 10
47.2081535201
 20
-91.3111664739
 40
6.5035411377
100
AcDbArc
 50
222.1073157184
 51
226.6638372672
  0
ARC
  5
3BB
100
AcDbEntity
  8
0
100
AcDbCircle
 62
7
  6
CONTINUOUS
 10
48.973790275
 20
-97.6767931818
 40
5.6382712093
100
AcDbArc
 50
167.0052115978
 51
167.5157734866
  0
ARC
  5
3BC
100
AcDbEntity
  8
0
100
AcDbCircle
 62
7
  6
CONTINUOUS
 10
47.0504484114
 20
-94.9965208964
 40
5.1357266781
100
AcDbArc
 50
176.6149940728
 51
183.3820652921
  0
ARC
  5
3BD
100
AcDbEntity
  8
0
100
AcDbCircle
 62
7
  6
CONTINUOUS
 10
40.2127723182
 20
-97.1949771371
 40
4.6363469711
100
AcDbArc
 50
33.9931381892
 51
36.0578173753
  0
ARC
  5
3BE
100
AcDbEntity
  8
0
100
AcDbCircle
 62
7
  6
CONTINUOUS
 10
45.1725853624
 20
-95.5098674626
 40
2.7497003921
100
AcDbArc
 50
237.8689528548
 51
239.2551282682
  0
ARC
  5
3BF
100
AcDbEntity
  8
0
100
AcDbCircle
 62
7
  6
CONTINUOUS
 10
43.4467560677
 20
-93.9775808029
 40
1.5868566671
100
AcDbArc
 50
149.4137144816
 51
155.1159096638
  0
ARC
  5
3C0
100
AcDbEntity
  8
0
100
AcDbCircle
 62
7
  6
CONTINUOUS
 10
44.7440636894
 20
-96.5931790178
 40
1.5786594219
100
AcDbArc
 50
258.2016405071
 51
263.90673946
  0
ARC
  5
3C1
100
AcDbEntity
  8
RACCORDO
100
AcDbCircle
 62
7
  6
CONTINUOUS
 10
97.5550552234
 20
-29.9406054044
 40
0.3026125778
100
AcDbArc
 50
63.4166796575
 51
72.2542291237
  0
ARC
  5
3C2
100
AcDbEntity
  8
DRAFT
100
AcDbCircle
 62
7
  6
CONTINUOUS
 10
31.4140362147
 20
17.4841198798
 40
32.5663993042
100
AcDbArc
 50
28.4975048166
 51
28.8712859997
  0
ARC
  5
3C3
100
AcDbEntity
  8
DRAFT
100
AcDbCircle
 62
7
  6
CONTINUOUS
 10
61.5132812098
 20
20.7929545932
 40
32.3809604505
100
AcDbArc
 50
32.6950654866
 51
34.442461582
  0
ARC
  5
3C4
100
AcDbEntity
  8
DRAFT
100
AcDbCircle
 62
7
  6
CONTINUOUS
 10
62.5803483778
 20
21.3565512892
 40
30.5603161859
100
AcDbArc
 50
32.9739360965
 51
34.8568564444
  0
ARC
  5
3C5
100
AcDbEntity
  8
DRAFT
100
AcDbCircle
 62
7
  6
CONTINUOUS
 10
35.2806888938
 20
20.3508555076
 40
27.7441169157
100
AcDbArc
 50
41.7444070119
 51
41.9557301944
  0
ARC
  5
3C6
100
AcDbEntity
  8
DRAFT
100
AcDbCircle
 62
7
  6
CONTINUOUS
 10
36.5086456831
 20
21.4924096847
 40
26.0677544629
100
AcDbArc
 50
41.8942492266
 51
46.7858872636
  0
ARC
  5
3C7
100
AcDbEntity
  8
DRAFT
100
AcDbCircle
 62
7
  6
CONTINUOUS
 10
37.4508354043
 20
22.4804221599
 40
24.7025506618
100
AcDbArc
 50
46.8094280604
 51
47.2716258965
  0
ARC
  5
3C8
100
AcDbEntity
  8
RACCORDO
100
AcDbCircle
 62
253
  6
CONTINUOUS
 10
43.1371613412
 20
19.8673039119
 40
24.1044458023
100
AcDbArc
 50
0.8421286805
 51
1.8625673752
  0
ARC
  5
3C9
100
AcDbEntity
  8
RACCORDO
100
AcDbCircle
 62
253
  6
CONTINUOUS
 10
43.7016367009
 20
19.8759202878
 40
23.5399047768
100
AcDbArc
 50
0.001475899
 51
0.8413519199
  0
ARC
  5
3CA
100
AcDbEntity
  8
RACCORDO
100
AcDbCircle
 62
253
  6
CONTINUOUS
 10
43.2822446731
 20
29.8101560112
 40
18.830584393
100
AcDbArc
 50
59.9738091647
 51
62.2370075419
  0
ARC
  5
3CB
100
AcDbEntity
  8
RACCORDO
100
AcDbCircle
 62
253
  6
CONTINUOUS
 10
43.6765878868
 20
30.5534393079
 40
17.9891755057
100
AcDbArc
 50
62.2456535006
 51
63.4319442949
  0
ARC
  5
3CC
100
AcDbEntity
  8
0
100
AcDbCircle
 62
7
  6
CONTINUOUS
 10
60.2018996193
 20
24.0076360506
 40
15.5350070955
100
AcDbArc
 50
178.8805154464
 51
181.1164946862
  0
ARC
  5
3CD
100
AcDbEntity
  8
DRAFT
100
AcDbCircle
 62
7
  6
CONTINUOUS
 10
51.5292583496
 20
27.3256079689
 40
10.6066895774
100
AcDbArc
 50
0.0725865898
 51
6.1868198202
  0
ARC
  5
3CE
100
AcDbEntity
  8
0
100
AcDbCircle
 62
7
  6
CONTINUOUS
 10
51.4144519639
 20
26.238225861
 40
8.0518541451
100
AcDbArc
 50
189.3175606024
 51
189.7925119453
  0
ARC
  5
3CF
100
AcDbEntity
  8
0
100
AcDbCircle
 62
7
  6
CONTINUOUS
 10
49.9908235497
 20
26.2376544199
 40
7.49127769
100
AcDbArc
 50
194.7048226947
 51
195.2031810519
  0
ARC
  5
3D0
100
AcDbEntity
  8
0
100
AcDbCircle
 62
7
  6
CONTINUOUS
 10
49.6103188497
 20
23.0395976946
 40
7.2082686169
100
AcDbArc
 50
161.8239130891
 51
162.2573500263
  0
ARC
  5
3D1
100
AcDbEntity
  8
0
100
AcDbCircle
 62
7
  6
CONTINUOUS
 10
47.2081535201
 20
29.0663646521
 40
6.5035411377
100
AcDbArc
 50
222.1073157184
 51
226.6638372672
  0
ARC
  5
3D2
100
AcDbEntity
  8
0
100
AcDbCircle
 62
7
  6
CONTINUOUS
 10
48.9737902747
 20
22.7007379443
 40
5.638271209
100
AcDbArc
 50
167.0052115978
 51
167.5157734866
  0
ARC
  5
3D3
100
AcDbEntity
  8
0
100
AcDbCircle
 62
7
  6
CONTINUOUS
 10
47.0504484114
 20
25.3810102296
 40
5.135726678
100
AcDbArc
 50
176.6149940728
 51
183.3820652921
  0
ARC
  5
3D4
100
AcDbEntity
  8
0
100
AcDbCircle
 62
7
  6
CONTINUOUS
 10
40.2127723182
 20
23.1825539889
 40
4.6363469711
100
AcDbArc
 50
33.9931381892
 51
36.0578173753
  0
ARC
  5
3D5
100
AcDbEntity
  8
0
100
AcDbCircle
 62
7
  6
CONTINUOUS
 10
45.1725853623
 20
24.8676636633
 40
2.7497003919
100
AcDbArc
 50
237.8689528548
 51
239.2551282683
  0
ARC
  5
3D6
100
AcDbEntity
  8
0
100
AcDbCircle
 62
7
  6
CONTINUOUS
 10
43.4467560677
 20
26.3999503231
 40
1.5868566671
100
AcDbArc
 50
149.4137144816
 51
155.1159096638
  0
ARC
  5
3D7
100
AcDbEntity
  8
0
100
AcDbCircle
 62
7
  6
CONTINUOUS
 10
44.7440636894
 20
23.7843521082
 40
1.5786594219
100
AcDbArc
 50
258.2016405071
 51
263.90673946
  0
ARC
  5
3D8
100
AcDbEntity
  8
0
100
AcDbCircle
 62
7
  6
CONTINUOUS
 10
44.3783756911
 20
32.848531645
 40
8.9253069102
100
AcDbArc
 50
264.2225437041
 51
267.0884479228
  0
ARC
  5
3D9
100
AcDbEntity
  8
0
100
AcDbCircle
 62
7
  6
CONTINUOUS
 10
48.3960854407
 20
31.0783034067
 40
7.92005644
100
AcDbArc
 50
231.6308965808
 51
235.6307820283
  0
ARC
  5
3DA
100
AcDbEntity
  8
DRAFT
100
AcDbCircle
 62
7
  6
CONTINUOUS
 10
41.9080285769
 20
53.724249548
 40
6.9795476688
100
AcDbArc
 50
89.9181821366
 51
92.4495524744
  0
ARC
  5
3DB
100
AcDbEntity
  8
DRAFT
100
AcDbCircle
 62
7
  6
CONTINUOUS
 10
42.7690047988
 20
54.6808896326
 40
6.2476433962
100
AcDbArc
 50
93.913304887
 51
103.8534717355
  0
ARC
  5
3DC
100
AcDbEntity
  8
DRAFT
100
AcDbCircle
 62
7
  6
CONTINUOUS
 10
65.4845846645
 20
22.8525941066
 40
25.4534407929
100
AcDbArc
 50
34.0454262701
 51
36.4224739812
  0
ARC
  5
3DD
100
AcDbEntity
  8
DRAFT
100
AcDbCircle
 62
7
  6
CONTINUOUS
 10
66.4474713923
 20
23.3507003716
 40
23.7557364796
100
AcDbArc
 50
34.5002257713
 51
37.088733827
  0
ARC
  5
3DE
100
AcDbEntity
  8
DRAFT
100
AcDbCircle
 62
7
  6
CONTINUOUS
 10
68.9681878465
 20
24.6923389076
 40
19.3630394957
100
AcDbArc
 50
35.9523076974
 51
39.2667651754
  0
ARC
  5
3DF
100
AcDbEntity
  8
DRAFT
100
AcDbCircle
 62
7
  6
CONTINUOUS
 10
69.8657758726
 20
25.1504474577
 40
17.7415663876
100
AcDbArc
 50
36.7281326247
 51
40.4141987475
  0
ARC
  5
3E0
100
AcDbEntity
  8
RACCORDO
100
AcDbCircle
 62
7
  6
CONTINUOUS
 10
97.5549741253
 20
6.4323073729
 40
0.3027867513
100
AcDbArc
 50
63.4160119385
 51
72.2094603491
  0
ARC
  5
3E1
100
AcDbEntity
  8
DRAFT
100
AcDbCircle
 62
7
  6
CONTINUOUS
 10
97.1568056425
 20
38.591174497
 40
32.5608286866
100
AcDbArc
 50
198.9344947147
 51
201.7966459852
  0
ARC
  5
3E2
100
AcDbEntity
  8
DRAFT
100
AcDbCircle
 62
7
  6
CONTINUOUS
 10
96.1361107357
 20
38.0978221316
 40
30.8139578245
100
AcDbArc
 50
198.5211907956
 51
201.5187255055
  0
ARC
  5
3E3
100
AcDbEntity
  8
DRAFT
100
AcDbCircle
 62
7
  6
CONTINUOUS
 10
93.189917686
 20
36.6640212793
 40
25.6980660889
100
AcDbArc
 50
196.9609975907
 51
200.4587651769
  0
ARC
  5
3E4
100
AcDbEntity
  8
DRAFT
100
AcDbCircle
 62
7
  6
CONTINUOUS
 10
92.2736076694
 20
36.2101716676
 40
24.0627476051
100
AcDbArc
 50
196.3020698928
 51
200.0052704681
  0
ARC
  5
3E5
100
AcDbEntity
  8
DRAFT
100
AcDbCircle
 62
7
  6
CONTINUOUS
 10
89.6337731792
 20
34.9727589227
 40
19.6108712117
100
AcDbArc
 50
194.1306082041
 51
198.5801334678
  0
ARC
  5
3E6
100
AcDbEntity
  8
DRAFT
100
AcDbCircle
 62
7
  6
CONTINUOUS
 10
88.5977071387
 20
34.4869872283
 40
17.8518427794
100
AcDbArc
 50
192.9681349005
 51
197.8144904538
  0
ARC
  5
3E7
100
AcDbEntity
  8
DRAFT
100
AcDbCircle
 62
7
  6
CONTINUOUS
 10
74.0521384929
 20
39.4752499331
 40
8.352589094
100
AcDbArc
 50
93.3745200333
 51
95.9304281625
  0
ARC
  5
3E8
100
AcDbEntity
  8
DRAFT
100
AcDbCircle
 62
7
  6
CONTINUOUS
 10
74.0053989152
 20
39.8785548587
 40
7.9466149134
100
AcDbArc
 50
95.8956780549
 51
103.8222302524
  0
ARC
  5
3E9
100
AcDbEntity
  8
DRAFT
100
AcDbCircle
 62
7
  6
CONTINUOUS
 10
74.9025303219
 20
40.2337279852
 40
7.816971327
100
AcDbArc
 50
97.2293231074
 51
103.8349526665
  0
ARC
  5
3EA
100
AcDbEntity
  8
ASSI
100
AcDbCircle
 62
7
  6
CONTINUOUS
 10
83.2265633587
 20
53.1488876843
 40
4.1216262664
100
AcDbArc
 50
205.7049300778
 51
213.8741485056
  0
ARC
  5
3EB
100
AcDbEntity
  8
ASSI
100
AcDbCircle
 62
7
  6
CONTINUOUS
 10
82.66418573
 20
52.8656199261
 40
2.8745663242
100
AcDbArc
 50
205.6760368555
 51
217.1772438041
  0
ARC
  5
3EC
100
AcDbEntity
  8
RACCORDO
100
AcDbCircle
 62
7
  6
CONTINUOUS
 10
95.0073507978
 20
50.6829356521
 40
0.5628417174
100
AcDbArc
 50
85.0792111188
 51
95.3941277858
  0
ARC
  5
3ED
100
AcDbEntity
  8
RACCORDO
100
AcDbCircle
 62
253
  6
CONTINUOUS
 10
95.3879078004
 20
49.9537242752
 40
0.3352093611
100
AcDbArc
 50
296.9346996507
 51
310.8077746119
  0
ARC
  5
3EE
100
AcDbEntity
  8
RACCORDO
100
AcDbCircle
 62
7
  6
CONTINUOUS
 10
97.5549729636
 20
42.8053721136
 40
0.3027892549
100
AcDbArc
 50
63.4160031922
 51
72.2087988978
  0
SPLINE
  5
3EF
100
AcDbEntity
  8
0
100
AcDbSpline
 62
7
  6
CONTINUOUS
 70
0
 71
3
 72
9
 73
5
 74
3
 42
0.0000001
 43
0.0000001
 44
0.0000000001
 12
-0.3146349819
 22
0.1676527526
 32
0.0
 13
-0.2882787499
 23
0.2094216566
 33
0.0
 40
0.0
 40
0.0
 40
0.0
 40
0.0
 40
0.2130096085
 40
1.0
 40
1.0
 40
1.0
 40
1.0
 10
-83.5407309794
 20
-34.1511789498
 30
0.0
 10
-83.5630710708
 20
-34.1392750674
 30
0.0
 10
-83.6670319113
 20
-34.0816607909
 30
0.0
 10
-83.7666509901
 20
-34.0164956791
 30
0.0
 10
-83.8422751922
 20
-33.9615580686
 30
0.0
 11
-83.5407309794
 21
-34.1511789498
 31
0.0
 11
-83.6071633875
 21
-34.1143876737
 31
0.0
 11
-83.8422751922
 21
-33.9615580686
 31
0.0
  0
SPLINE
  5
3F0
100
AcDbEntity
  8
0
100
AcDbSpline
 62
7
  6
CONTINUOUS
 70
0
 71
3
 72
15
 73
11
 74
9
 42
0.0000001
 43
0.0000001
 44
0.0000000001
 12
-2.939478045
 22
2.135399719
 32
0.0
 13
-0.0
 23
3.6332441615
 33
0.0
 40
0.0
 40
0.0
 40
0.0
 40
0.0
 40
0.1166507875
 40
0.2400441641
 40
0.3682594671
 40
0.499036013
 40
0.6299439153
 40
0.7585448031
 40
0.8825520476
 40
1.0
 40
1.0
 40
1.0
 40
1.0
 10
-84.1251179047
 20
-34.1029794249
 30
0.0
 10
-84.239415381
 20
-34.0199474052
 30
0.0
 10
-84.4621875813
 20
-33.8315441911
 30
0.0
 10
-84.7647370013
 20
-33.5025449944
 30
0.0
 10
-85.0379943049
 20
-33.1274678947
 30
0.0
 10
-85.2738782329
 20
-32.7173875663
 30
0.0
 10
-85.4654961233
 20
-32.2843408071
 30
0.0
 10
-85.6072055356
 20
-31.8410175357
 30
0.0
 10
-85.6948307125
 20
-31.4005218607
 30
0.0
 10
-85.7161081624
 20
-31.1078490757
 30
0.0
 10
-85.7161081624
 20
-30.9656100466
 30
0.0
 11
-84.1251179047
 21
-34.1029794249
 31
0.0
 11
-84.4498940549
 21
-33.8306845175
 31
0.0
 11
-84.7543032666
 21
-33.5015579482
 31
0.0
 11
-85.029205611
 21
-33.1254817878
 31
0.0
 11
-85.266347107
 21
-32.7137477752
 31
0.0
 11
-85.4586075484
 21
-32.2787182812
 31
0.0
 11
-85.6002142888
 21
-31.8334551268
 31
0.0
 11
-85.686915566
 21
-31.3913273998
 31
0.0
 11
-85.7161081624
 21
-30.9656100466
 31
0.0
  0
SPLINE
  5
3F1
100
AcDbEntity
  8
0
100
AcDbSpline
 62
7
  6
CONTINUOUS
 70
0
 71
3
 72
12
 73
8
 74
6
 42
0.0000001
 43
0.0000001
 44
0.0000000001
 12
0.0
 22
1.6046926561
 32
0.0
 13
1.3383831578
 23
0.8945373358
 33
0.0
 40
0.0
 40
0.0
 40
0.0
 40
0.0
 40
0.2477719948
 40
0.4757585984
 40
0.684553576
 40
0.8775367541
 40
1.0
 40
1.0
 40
1.0
 40
1.0
 10
-85.7161081624
 20
-30.9656100466
 30
0.0
 10
-85.7161081624
 20
-30.8330774131
 30
0.0
 10
-85.6988657665
 20
-30.5780478456
 30
0.0
 10
-85.6144638491
 20
-30.2198122505
 30
0.0
 10
-85.4739299115
 20
-29.9108334212
 30
0.0
 10
-85.2999621343
 20
-29.6870929906
 30
0.0
 10
-85.1679940719
 20
-29.5798170519
 30
0.0
 10
-85.1133598234
 20
-29.54330107
 30
0.0
 11
-85.7161081624
 21
-30.9656100466
 31
0.0
 11
-85.686915566
 21
-30.5690852898
 31
0.0
 11
-85.6002142888
 21
-30.2136588401
 31
0.0
 11
-85.4586075484
 21
-29.910002426
 31
0.0
 11
-85.266347107
 21
-29.6672333734
 31
0.0
 11
-85.1133598234
 21
-29.54330107
 31
0.0
  0
SPLINE
  5
3F2
100
AcDbEntity
  8
0
100
AcDbSpline
 62
7
  6
CONTINUOUS
 70
0
 71
3
 72
11
 73
7
 74
5
 42
0.0000001
 43
0.0000001
 44
0.0000000001
 12
0.3585770888
 22
-0.0893745271
 32
0.0
 13
0.3641339119
 23
-0.0630224474
 33
0.0
 40
0.0
 40
0.0
 40
0.0
 40
0.0
 40
0.2843614962
 40
0.5413138567
 40
0.7772617616
 40
1.0
 40
1.0
 40
1.0
 40
1.0
 10
-84.8959690588
 20
-31.4260910192
 30
0.0
 10
-84.8619805529
 20
-31.4345625773
 30
0.0
 10
-84.7970828
 20
-31.4499089786
 30
0.0
 10
-84.7034616197
 20
-31.469988869
 30
0.0
 10
-84.6169517836
 20
-31.4869558158
 30
0.0
 10
-84.5613438819
 20
-31.4969808871
 30
0.0
 10
-84.5343083665
 20
-31.5016600567
 30
0.0
 11
-84.8959690588
 21
-31.4260910192
 31
0.0
 11
-84.7937129834
 21
-31.4503101741
 31
0.0
 11
-84.7008733877
 21
-31.4702468124
 31
0.0
 11
-84.6153126758
 21
-31.4870441287
 31
0.0
 11
-84.5343083665
 21
-31.5016600567
 31
0.0
  0
SPLINE
  5
3F3
100
AcDbEntity
  8
0
100
AcDbSpline
 62
7
  6
CONTINUOUS
 70
0
 71
3
 72
12
 73
8
 74
6
 42
0.0000001
 43
0.0000001
 44
0.0000000001
 12
-0.4846905088
 22
0.3399843163
 32
0.0
 13
-0.4301881365
 23
0.4067583948
 33
0.0
 40
0.0
 40
0.0
 40
0.0
 40
0.0
 40
0.2112889118
 40
0.4160796887
 40
0.6146197839
 40
0.8089140402
 40
1.0
 40
1.0
 40
1.0
 40
1.0
 10
-84.8959690588
 20
-31.4260910192
 30
0.0
 10
-84.9301056355
 20
-31.4021460471
 30
0.0
 10
-84.996705537
 20
-31.3540953429
 30
0.0
 10
-85.0930750237
 20
-31.2804152098
 30
0.0
 10
-85.1847010987
 20
-31.2061290462
 30
0.0
 10
-85.272051335
 20
-31.1309437607
 30
0.0
 10
-85.3281585216
 20
-31.0795782815
 30
0.0
 10
-85.3555594925
 20
-31.0536696754
 30
0.0
 11
-84.8959690588
 21
-31.4260910192
 31
0.0
 11
-84.9973948137
 21
-31.3528733694
 31
0.0
 11
-85.0936934178
 21
-31.2792059624
 31
0.0
 11
-85.1849783568
 21
-31.2051540279
 31
0.0
 11
-85.2721391004
 21
-31.1300873428
 31
0.0
 11
-85.3555594925
 21
-31.0536696754
 31
0.0
  0
SPLINE
  5
3F4
100
AcDbEntity
  8
0
100
AcDbSpline
 62
7
  6
CONTINUOUS
 70
0
 71
3
 72
18
 73
14
 74
12
 42
0.0000001
 43
0.0000001
 44
0.0000000001
 12
0.1278471796
 22
-1.688061552
 32
0.0
 13
0.6956974518
 23
-1.543341103
 33
0.0
 40
0.0
 40
0.0
 40
0.0
 40
0.0
 40
0.0994487293
 40
0.1982410428
 40
0.2951515135
 40
0.389225246
 40
0.480723723
 40
0.5709101839
 40
0.6599274556
 40
0.7471425123
 40
0.8326363975
 40
0.9167966359
 40
1.0
 40
1.0
 40
1.0
 40
1.0
 10
-83.8103877588
 20
-32.8183530958
 30
0.0
 10
-83.806149679
 20
-32.8743116212
 30
0.0
 10
-83.7961927958
 20
-32.985751569
 30
0.0
 10
-83.7767106936
 20
-33.1511837516
 30
0.0
 10
-83.7528825238
 20
-33.3129828528
 30
0.0
 10
-83.724998524
 20
-33.4699535891
 30
0.0
 10
-83.6931842897
 20
-33.6223012736
 30
0.0
 10
-83.6573642887
 20
-33.7708246496
 30
0.0
 10
-83.6174836489
 20
-33.9158055487
 30
0.0
 10
-83.5736657344
 20
-34.0568757293
 30
0.0
 10
-83.5260356936
 20
-34.1938077632
 30
0.0
 10
-83.4745232644
 20
-34.3269016079
 30
0.0
 10
-83.437305913
 20
-34.4137290916
 30
0.0
 10
-83.4180111235
 20
-34.4565328155
 30
0.0
 11
-83.8103877588
 21
-32.8183530958
 31
0.0
 11
-83.7953725291
 21
-32.9860385271
 31
0.0
 11
-83.7757774516
 21
-33.1521317508
 31
0.0
 11
-83.7518388077
 21
-33.3144351998
 31
0.0
 11
-83.7239498405
 21
-33.4712312795
 31
0.0
 11
-83.6922517493
 21
-33.6228506581
 31
0.0
 11
-83.6564212436
 21
-33.7712630085
 31
0.0
 11
-83.6164167834
 21
-33.9165531411
 31
0.0
 11
-83.5725845386
 21
-34.0575427879
 31
0.0
 11
-83.5250001595
 21
-34.1942291138
 31
0.0
 11
-83.4735389194
 21
-34.3270851697
 31
0.0
 11
-83.4180111235
 21
-34.4565328155
 31
0.0
  0
SPLINE
  5
3F5
100
AcDbEntity
  8
0
100
AcDbSpline
 62
7
  6
CONTINUOUS
 70
0
 71
3
 72
12
 73
8
 74
6
 42
0.0000001
 43
0.0000001
 44
0.0000000001
 12
-0.7538005872
 22
0.1993050875
 32
0.0
 13
-0.7344507813
 23
0.2617630475
 33
0.0
 40
0.0
 40
0.0
 40
0.0
 40
0.0
 40
0.2031922224
 40
0.4037019467
 40
0.6024734814
 40
0.8012652599
 40
1.0
 40
1.0
 40
1.0
 40
1.0
 10
-82.609357906
 20
-32.4267704686
 30
0.0
 10
-82.6604133782
 20
-32.4132713874
 30
0.0
 10
-82.7616415417
 20
-32.385653979
 30
0.0
 10
-82.912027785
 20
-32.3420140425
 30
0.0
 10
-83.0605848522
 20
-32.2962467003
 30
0.0
 10
-83.2079082163
 20
-32.2481174471
 30
0.0
 10
-83.3055469653
 20
-32.2143157222
 30
0.0
 10
-83.3542005937
 20
-32.1969752518
 30
0.0
 11
-82.609357906
 21
-32.4267704686
 31
0.0
 11
-82.7621980952
 21
-32.3850589058
 31
0.0
 11
-82.9123386322
 21
-32.3414763047
 31
0.0
 11
-83.0604476919
 21
-32.2958319689
 31
0.0
 11
-83.2077784011
 21
-32.2476837198
 31
0.0
 11
-83.3542005937
 21
-32.1969752518
 31
0.0
  0
SPLINE
  5
3F6
100
AcDbEntity
  8
0
100
AcDbSpline
 62
7
  6
CONTINUOUS
 70
0
 71
3
 72
15
 73
11
 74
9
 42
0.0000001
 43
0.0000001
 44
0.0000000001
 12
-0.303220478
 22
-1.3127623572
 32
0.0
 13
-0.0946213128
 23
-1.343976994
 33
0.0
 40
0.0
 40
0.0
 40
0.0
 40
0.0
 40
0.0292799595
 40
0.1699813234
 40
0.3092964326
 40
0.4473822672
 40
0.5860115923
 40
0.7253718294
 40
0.8639466301
 40
1.0
 40
1.0
 40
1.0
 40
1.0
 10
-83.6076258421
 20
-30.4727433904
 30
0.0
 10
-83.6105852699
 20
-30.4855559332
 30
0.0
 10
-83.6276102227
 20
-30.5599735868
 30
0.0
 10
-83.6569358844
 20
-30.6957579955
 30
0.0
 10
-83.6927978214
 20
-30.8800854832
 30
0.0
 10
-83.7246504454
 20
-31.0642039945
 30
0.0
 10
-83.7525710776
 20
-31.2489809643
 30
0.0
 10
-83.7764428572
 20
-31.4345472694
 30
0.0
 10
-83.7959777194
 20
-31.6194564874
 30
0.0
 10
-83.806096576
 20
-31.7423898053
 30
0.0
 10
-83.8103877588
 20
-31.8033406716
 30
0.0
 11
-83.6076258421
 21
-30.4727433904
 31
0.0
 11
-83.6164235503
 21
-30.511199518
 31
0.0
 11
-83.6564281329
 21
-30.6964978187
 31
0.0
 11
-83.6922588797
 21
-30.8807459124
 31
0.0
 11
-83.7239570746
 21
-31.0640692085
 31
0.0
 11
-83.7518446428
 21
-31.2487513294
 31
0.0
 11
-83.7757807567
 21
-31.4349799344
 31
0.0
 11
-83.7953735965
 21
-31.6206513831
 31
0.0
 11
-83.8103877588
 21
-31.8033406716
 31
0.0
  0
SPLINE
  5
3F7
100
AcDbEntity
  8
0
100
AcDbSpline
 62
7
  6
CONTINUOUS
 70
0
 71
3
 72
10
 73
6
 74
4
 42
0.0000001
 43
0.0000001
 44
0.0000000001
 12
-0.7285342263
 22
-0.2595778186
 32
0.0
 13
-0.743418329
 23
0.2033580644
 33
0.0
 40
0.0
 40
0.0
 40
0.0
 40
0.0
 40
0.1768844456
 40
0.5731463157
 40
1.0
 40
1.0
 40
1.0
 40
1.0
 10
-82.6573962934
 20
-34.4467711799
 30
0.0
 10
-82.700351751
 20
-34.4620762727
 30
0.0
 10
-82.8427516189
 20
-34.5026688948
 30
0.0
 10
-83.1018127049
 20
-34.5215611931
 30
0.0
 10
-83.3122341726
 20
-34.4854675285
 30
0.0
 10
-83.4180111235
 20
-34.4565328155
 30
0.0
 11
-82.6573962934
 21
-34.4467711799
 31
0.0
 11
-82.7888257616
 21
-34.4842967006
 31
0.0
 11
-83.0932349733
 21
-34.5090140583
 31
0.0
 11
-83.4180111235
 21
-34.4565328155
 31
0.0
  0
SPLINE
  5
3F8
100
AcDbEntity
  8
0
100
AcDbSpline
 62
7
  6
CONTINUOUS
 70
0
 71
3
 72
12
 73
8
 74
6
 42
0.0000001
 43
0.0000001
 44
0.0000000001
 12
-0.4846905088
 22
0.3399843163
 32
0.0
 13
-0.4301881365
 23
0.4067583948
 33
0.0
 40
0.0
 40
0.0
 40
0.0
 40
0.0
 40
0.2112889118
 40
0.4160796887
 40
0.6146197839
 40
0.8089140402
 40
1.0
 40
1.0
 40
1.0
 40
1.0
 10
-84.8959690588
 20
-32.0323088019
 30
0.0
 10
-84.9301056355
 20
-32.0083638298
 30
0.0
 10
-84.996705537
 20
-31.9603131256
 30
0.0
 10
-85.0930750237
 20
-31.8866329924
 30
0.0
 10
-85.1847010987
 20
-31.8123468288
 30
0.0
 10
-85.272051335
 20
-31.7371615433
 30
0.0
 10
-85.3281585216
 20
-31.6857960641
 30
0.0
 10
-85.3555594925
 20
-31.659887458
 30
0.0
 11
-84.8959690588
 21
-32.0323088019
 31
0.0
 11
-84.9973948137
 21
-31.959091152
 31
0.0
 11
-85.0936934178
 21
-31.885423745
 31
0.0
 11
-85.1849783568
 21
-31.8113718106
 31
0.0
 11
-85.2721391004
 21
-31.7363051254
 31
0.0
 11
-85.3555594925
 21
-31.659887458
 31
0.0
  0
SPLINE
  5
3F9
100
AcDbEntity
  8
0
100
AcDbSpline
 62
7
  6
CONTINUOUS
 70
0
 71
3
 72
18
 73
14
 74
12
 42
0.0000001
 43
0.0000001
 44
0.0000000001
 12
-0.6956974515
 22
1.5433411025
 32
0.0
 13
-0.1278471795
 23
1.6880615514
 33
0.0
 40
0.0
 40
0.0
 40
0.0
 40
0.0
 40
0.0832064168
 40
0.1673706447
 40
0.2528685759
 40
0.3400867613
 40
0.4291060942
 40
0.5192954576
 40
0.610797256
 40
0.7048699557
 40
0.8017738049
 40
0.9005573899
 40
1.0
 40
1.0
 40
1.0
 40
1.0
 10
-84.1251179047
 20
-34.1029794249
 30
0.0
 10
-84.1444134021
 20
-34.0601741305
 30
0.0
 10
-84.1816322611
 20
-33.9733429665
 30
0.0
 10
-84.2331466677
 20
-33.8402431739
 30
0.0
 10
-84.280778283
 20
-33.7033050136
 30
0.0
 10
-84.324597064
 20
-33.5622296422
 30
0.0
 10
-84.3644781118
 20
-33.4172441177
 30
0.0
 10
-84.4002982949
 20
-33.2687159742
 30
0.0
 10
-84.4321120745
 20
-33.1163652005
 30
0.0
 10
-84.4599945539
 20
-32.959396679
 30
0.0
 10
-84.4838204898
 20
-32.7976065985
 30
0.0
 10
-84.5033006763
 20
-32.632186395
 30
0.0
 10
-84.5132567209
 20
-32.5207547874
 30
0.0
 10
-84.51749454
 20
-32.4647997052
 30
0.0
 11
-84.1251179047
 21
-34.1029794249
 31
0.0
 11
-84.1806476523
 21
-33.973526993
 31
0.0
 11
-84.2321110533
 21
-33.8406645315
 31
0.0
 11
-84.2796971918
 21
-33.7039715655
 31
0.0
 11
-84.3235303314
 21
-33.5629766503
 31
0.0
 11
-84.3635349141
 21
-33.4176829322
 31
0.0
 11
-84.3993656609
 21
-33.2692655852
 31
0.0
 11
-84.4310638558
 21
-33.117640484
 31
0.0
 11
-84.458951424
 21
-32.9608459314
 31
0.0
 11
-84.4828875378
 21
-32.7985534402
 31
0.0
 11
-84.5024803777
 21
-32.6324748315
 31
0.0
 11
-84.51749454
 21
-32.4647997052
 31
0.0
  0
SPLINE
  5
3FA
100
AcDbEntity
  8
0
100
AcDbSpline
 62
7
  6
CONTINUOUS
 70
0
 71
3
 72
16
 73
12
 74
10
 42
0.0000001
 43
0.0000001
 44
0.0000000001
 12
0.110616467
 22
1.5711680843
 32
0.0
 13
0.3910084721
 23
1.5257781274
 33
0.0
 40
0.0
 40
0.0
 40
0.0
 40
0.0
 40
0.1163872881
 40
0.234934946
 40
0.3541523748
 40
0.4727378525
 40
0.5908528029
 40
0.7100196374
 40
0.8303732501
 40
0.9509710342
 40
1.0
 40
1.0
 40
1.0
 40
1.0
 10
-84.51749454
 20
-31.449787281
 30
0.0
 10
-84.5132030898
 20
-31.3888326169
 30
0.0
 10
-84.5030833653
 20
-31.2658898638
 30
0.0
 10
-84.4835465716
 20
-31.0809667288
 30
0.0
 10
-84.4596725708
 20
-30.8953893478
 30
0.0
 10
-84.4317504522
 20
-30.7106088792
 30
0.0
 10
-84.3998973942
 20
-30.5264930978
 30
0.0
 10
-84.3640356383
 20
-30.3421705328
 30
0.0
 10
-84.3241188258
 20
-30.1573498425
 30
0.0
 10
-84.2889744385
 20
-30.0092061079
 30
0.0
 10
-84.2672110048
 20
-29.9228467381
 30
0.0
 10
-84.2608207578
 20
-29.8979109635
 30
0.0
 11
-84.51749454
 21
-31.449787281
 31
0.0
 11
-84.5024793103
 21
-31.2670866201
 31
0.0
 11
-84.4828842327
 21
-31.0813983187
 31
0.0
 11
-84.4589455888
 21
-30.8951562258
 31
0.0
 11
-84.4310566217
 21
-30.710471179
 31
0.0
 11
-84.3993585305
 21
-30.5271537093
 31
0.0
 11
-84.3635280248
 21
-30.3429108531
 31
0.0
 11
-84.3235235646
 21
-30.1576162603
 31
0.0
 11
-84.2796913197
 21
-29.9727943687
 31
0.0
 11
-84.2608207578
 21
-29.8979109635
 31
0.0
  0
SPLINE
  5
3FB
100
AcDbEntity
  8
0
100
AcDbSpline
 62
7
  6
CONTINUOUS
 70
0
 71
3
 72
12
 73
8
 74
6
 42
0.0000001
 43
0.0000001
 44
0.0000000001
 12
-0.7538005872
 22
0.1993050875
 32
0.0
 13
-0.7344507813
 23
0.2617630475
 33
0.0
 40
0.0
 40
0.0
 40
0.0
 40
0.0
 40
0.2031922224
 40
0.4037019467
 40
0.6024734814
 40
0.8012652599
 40
1.0
 40
1.0
 40
1.0
 40
1.0
 10
-82.609357906
 20
-33.0329882513
 30
0.0
 10
-82.6604133782
 20
-33.0194891701
 30
0.0
 10
-82.7616415417
 20
-32.9918717616
 30
0.0
 10
-82.912027785
 20
-32.9482318252
 30
0.0
 10
-83.0605848522
 20
-32.902464483
 30
0.0
 10
-83.2079082163
 20
-32.8543352297
 30
0.0
 10
-83.3055469653
 20
-32.8205335048
 30
0.0
 10
-83.3542005937
 20
-32.8031930344
 30
0.0
 11
-82.609357906
 21
-33.0329882513
 31
0.0
 11
-82.7621980952
 21
-32.9912766885
 31
0.0
 11
-82.9123386322
 21
-32.9476940873
 31
0.0
 11
-83.0604476919
 21
-32.9020497516
 31
0.0
 11
-83.2077784011
 21
-32.8539015025
 31
0.0
 11
-83.3542005937
 21
-32.8031930344
 31
0.0
  0
SPLINE
  5
3FC
100
AcDbEntity
  8
0
100
AcDbSpline
 62
7
  6
CONTINUOUS
 70
0
 71
3
 72
9
 73
5
 74
3
 42
0.0000001
 43
0.0000001
 44
0.0000000001
 12
-0.3146349819
 22
0.1676527526
 32
0.0
 13
-0.2882787499
 23
0.2094216566
 33
0.0
 40
0.0
 40
0.0
 40
0.0
 40
0.0
 40
0.2130096085
 40
1.0
 40
1.0
 40
1.0
 40
1.0
 10
-83.5407309794
 20
86.2263521762
 30
0.0
 10
-83.5630710708
 20
86.2382560586
 30
0.0
 10
-83.6670319113
 20
86.2958703352
 30
0.0
 10
-83.7666509901
 20
86.3610354469
 30
0.0
 10
-83.8422751922
 20
86.4159730574
 30
0.0
 11
-83.5407309794
 21
86.2263521762
 31
0.0
 11
-83.6071633875
 21
86.2631434524
 31
0.0
 11
-83.8422751922
 21
86.4159730574
 31
0.0
  0
SPLINE
  5
3FD
100
AcDbEntity
  8
0
100
AcDbSpline
 62
7
  6
CONTINUOUS
 70
0
 71
3
 72
15
 73
11
 74
9
 42
0.0000001
 43
0.0000001
 44
0.0000000001
 12
-2.939478045
 22
2.135399719
 32
0.0
 13
-0.0
 23
3.6332441615
 33
0.0
 40
0.0
 40
0.0
 40
0.0
 40
0.0
 40
0.1166507875
 40
0.2400441641
 40
0.3682594671
 40
0.499036013
 40
0.6299439153
 40
0.7585448031
 40
0.8825520476
 40
1.0
 40
1.0
 40
1.0
 40
1.0
 10
-84.1251179047
 20
86.2745517012
 30
0.0
 10
-84.239415381
 20
86.3575837208
 30
0.0
 10
-84.4621875813
 20
86.545986935
 30
0.0
 10
-84.7647370013
 20
86.8749861316
 30
0.0
 10
-85.0379943049
 20
87.2500632313
 30
0.0
 10
-85.2738782329
 20
87.6601435597
 30
0.0
 10
-85.4654961233
 20
88.0931903189
 30
0.0
 10
-85.6072055356
 20
88.5365135903
 30
0.0
 10
-85.6948307125
 20
88.9770092653
 30
0.0
 10
-85.7161081624
 20
89.2696820503
 30
0.0
 10
-85.7161081624
 20
89.4119210794
 30
0.0
 11
-84.1251179047
 21
86.2745517012
 31
0.0
 11
-84.4498940549
 21
86.5468466086
 31
0.0
 11
-84.7543032666
 21
86.8759731779
 31
0.0
 11
-85.029205611
 21
87.2520493383
 31
0.0
 11
-85.266347107
 21
87.6637833509
 31
0.0
 11
-85.4586075484
 21
88.0988128448
 31
0.0
 11
-85.6002142888
 21
88.5440759992
 31
0.0
 11
-85.686915566
 21
88.9862037262
 31
0.0
 11
-85.7161081624
 21
89.4119210794
 31
0.0
  0
SPLINE
  5
3FE
100
AcDbEntity
  8
0
100
AcDbSpline
 62
7
  6
CONTINUOUS
 70
0
 71
3
 72
12
 73
8
 74
6
 42
0.0000001
 43
0.0000001
 44
0.0000000001
 12
0.0
 22
1.6046926561
 32
0.0
 13
1.3383831578
 23
0.8945373358
 33
0.0
 40
0.0
 40
0.0
 40
0.0
 40
0.0
 40
0.2477719948
 40
0.4757585984
 40
0.684553576
 40
0.8775367541
 40
1.0
 40
1.0
 40
1.0
 40
1.0
 10
-85.7161081624
 20
89.4119210794
 30
0.0
 10
-85.7161081624
 20
89.5444537129
 30
0.0
 10
-85.6988657665
 20
89.7994832804
 30
0.0
 10
-85.6144638491
 20
90.1577188755
 30
0.0
 10
-85.4739299115
 20
90.4666977048
 30
0.0
 10
-85.2999621343
 20
90.6904381354
 30
0.0
 10
-85.1679940719
 20
90.7977140742
 30
0.0
 10
-85.1133598234
 20
90.834230056
 30
0.0
 11
-85.7161081624
 21
89.4119210794
 31
0.0
 11
-85.686915566
 21
89.8084458363
 31
0.0
 11
-85.6002142888
 21
90.1638722859
 31
0.0
 11
-85.4586075484
 21
90.4675287
 31
0.0
 11
-85.266347107
 21
90.7102977526
 31
0.0
 11
-85.1133598234
 21
90.834230056
 31
0.0
  0
SPLINE
  5
3FF
100
AcDbEntity
  8
0
100
AcDbSpline
 62
7
  6
CONTINUOUS
 70
0
 71
3
 72
11
 73
7
 74
5
 42
0.0000001
 43
0.0000001
 44
0.0000000001
 12
0.3585770888
 22
-0.0893745271
 32
0.0
 13
0.3641339119
 23
-0.0630224474
 33
0.0
 40
0.0
 40
0.0
 40
0.0
 40
0.0
 40
0.2843614962
 40
0.5413138567
 40
0.7772617616
 40
1.0
 40
1.0
 40
1.0
 40
1.0
 10
-84.8959690588
 20
88.9514401068
 30
0.0
 10
-84.8619805529
 20
88.9429685487
 30
0.0
 10
-84.7970828
 20
88.9276221475
 30
0.0
 10
-84.7034616197
 20
88.907542257
 30
0.0
 10
-84.6169517836
 20
88.8905753103
 30
0.0
 10
-84.5613438819
 20
88.880550239
 30
0.0
 10
-84.5343083665
 20
88.8758710693
 30
0.0
 11
-84.8959690588
 21
88.9514401068
 31
0.0
 11
-84.7937129834
 21
88.9272209519
 31
0.0
 11
-84.7008733877
 21
88.9072843136
 31
0.0
 11
-84.6153126758
 21
88.8904869974
 31
0.0
 11
-84.5343083665
 21
88.8758710693
 31
0.0
  0
SPLINE
  5
400
100
AcDbEntity
  8
0
100
AcDbSpline
 62
7
  6
CONTINUOUS
 70
0
 71
3
 72
12
 73
8
 74
6
 42
0.0000001
 43
0.0000001
 44
0.0000000001
 12
-0.4846905088
 22
0.3399843163
 32
0.0
 13
-0.4301881365
 23
0.4067583948
 33
0.0
 40
0.0
 40
0.0
 40
0.0
 40
0.0
 40
0.2112889118
 40
0.4160796887
 40
0.6146197839
 40
0.8089140402
 40
1.0
 40
1.0
 40
1.0
 40
1.0
 10
-84.8959690588
 20
88.9514401068
 30
0.0
 10
-84.9301056355
 20
88.9753850789
 30
0.0
 10
-84.996705537
 20
89.0234357831
 30
0.0
 10
-85.0930750237
 20
89.0971159163
 30
0.0
 10
-85.1847010987
 20
89.1714020799
 30
0.0
 10
-85.272051335
 20
89.2465873654
 30
0.0
 10
-85.3281585216
 20
89.2979528446
 30
0.0
 10
-85.3555594925
 20
89.3238614507
 30
0.0
 11
-84.8959690588
 21
88.9514401068
 31
0.0
 11
-84.9973948137
 21
89.0246577567
 31
0.0
 11
-85.0936934178
 21
89.0983251637
 31
0.0
 11
-85.1849783568
 21
89.1723770981
 31
0.0
 11
-85.2721391004
 21
89.2474437833
 31
0.0
 11
-85.3555594925
 21
89.3238614507
 31
0.0
  0
SPLINE
  5
401
100
AcDbEntity
  8
0
100
AcDbSpline
 62
7
  6
CONTINUOUS
 70
0
 71
3
 72
18
 73
14
 74
12
 42
0.0000001
 43
0.0000001
 44
0.0000000001
 12
0.1278471796
 22
-1.688061552
 32
0.0
 13
0.6956974518
 23
-1.543341103
 33
0.0
 40
0.0
 40
0.0
 40
0.0
 40
0.0
 40
0.0994487293
 40
0.1982410428
 40
0.2951515135
 40
0.389225246
 40
0.480723723
 40
0.5709101839
 40
0.6599274556
 40
0.7471425123
 40
0.8326363975
 40
0.9167966359
 40
1.0
 40
1.0
 40
1.0
 40
1.0
 10
-83.8103877588
 20
87.5591780303
 30
0.0
 10
-83.806149679
 20
87.5032195048
 30
0.0
 10
-83.7961927958
 20
87.391779557
 30
0.0
 10
-83.7767106936
 20
87.2263473744
 30
0.0
 10
-83.7528825238
 20
87.0645482732
 30
0.0
 10
-83.724998524
 20
86.9075775369
 30
0.0
 10
-83.6931842897
 20
86.7552298525
 30
0.0
 10
-83.6573642887
 20
86.6067064764
 30
0.0
 10
-83.6174836489
 20
86.4617255773
 30
0.0
 10
-83.5736657344
 20
86.3206553968
 30
0.0
 10
-83.5260356936
 20
86.1837233628
 30
0.0
 10
-83.4745232644
 20
86.0506295181
 30
0.0
 10
-83.437305913
 20
85.9638020345
 30
0.0
 10
-83.4180111235
 20
85.9209983106
 30
0.0
 11
-83.8103877588
 21
87.5591780303
 31
0.0
 11
-83.7953725291
 21
87.391492599
 31
0.0
 11
-83.7757774516
 21
87.2253993752
 31
0.0
 11
-83.7518388077
 21
87.0630959262
 31
0.0
 11
-83.7239498405
 21
86.9062998466
 31
0.0
 11
-83.6922517493
 21
86.754680468
 31
0.0
 11
-83.6564212436
 21
86.6062681175
 31
0.0
 11
-83.6164167834
 21
86.460977985
 31
0.0
 11
-83.5725845386
 21
86.3199883382
 31
0.0
 11
-83.5250001595
 21
86.1833020122
 31
0.0
 11
-83.4735389194
 21
86.0504459563
 31
0.0
 11
-83.4180111235
 21
85.9209983106
 31
0.0
  0
SPLINE
  5
402
100
AcDbEntity
  8
0
100
AcDbSpline
 62
7
  6
CONTINUOUS
 70
0
 71
3
 72
12
 73
8
 74
6
 42
0.0000001
 43
0.0000001
 44
0.0000000001
 12
-0.7538005872
 22
0.1993050875
 32
0.0
 13
-0.7344507813
 23
0.2617630475
 33
0.0
 40
0.0
 40
0.0
 40
0.0
 40
0.0
 40
0.2031922224
 40
0.4037019467
 40
0.6024734814
 40
0.8012652599
 40
1.0
 40
1.0
 40
1.0
 40
1.0
 10
-82.609357906
 20
87.9507606574
 30
0.0
 10
-82.6604133782
 20
87.9642597386
 30
0.0
 10
-82.7616415417
 20
87.9918771471
 30
0.0
 10
-82.912027785
 20
88.0355170835
 30
0.0
 10
-83.0605848522
 20
88.0812844257
 30
0.0
 10
-83.2079082163
 20
88.129413679
 30
0.0
 10
-83.3055469653
 20
88.1632154039
 30
0.0
 10
-83.3542005937
 20
88.1805558743
 30
0.0
 11
-82.609357906
 21
87.9507606574
 31
0.0
 11
-82.7621980952
 21
87.9924722202
 31
0.0
 11
-82.9123386322
 21
88.0360548213
 31
0.0
 11
-83.0604476919
 21
88.0816991571
 31
0.0
 11
-83.2077784011
 21
88.1298474062
 31
0.0
 11
-83.3542005937
 21
88.1805558743
 31
0.0
  0
SPLINE
  5
403
100
AcDbEntity
  8
0
100
AcDbSpline
 62
7
  6
CONTINUOUS
 70
0
 71
3
 72
15
 73
11
 74
9
 42
0.0000001
 43
0.0000001
 44
0.0000000001
 12
-0.303220478
 22
-1.3127623572
 32
0.0
 13
-0.0946213128
 23
-1.343976994
 33
0.0
 40
0.0
 40
0.0
 40
0.0
 40
0.0
 40
0.0292799595
 40
0.1699813234
 40
0.3092964326
 40
0.4473822672
 40
0.5860115923
 40
0.7253718294
 40
0.8639466301
 40
1.0
 40
1.0
 40
1.0
 40
1.0
 10
-83.6076258421
 20
89.9047877357
 30
0.0
 10
-83.6105852699
 20
89.8919751928
 30
0.0
 10
-83.6276102227
 20
89.8175575392
 30
0.0
 10
-83.6569358844
 20
89.6817731305
 30
0.0
 10
-83.6927978214
 20
89.4974456429
 30
0.0
 10
-83.7246504454
 20
89.3133271315
 30
0.0
 10
-83.7525710776
 20
89.1285501618
 30
0.0
 10
-83.7764428572
 20
88.9429838567
 30
0.0
 10
-83.7959777194
 20
88.7580746386
 30
0.0
 10
-83.806096576
 20
88.6351413208
 30
0.0
 10
-83.8103877588
 20
88.5741904544
 30
0.0
 11
-83.6076258421
 21
89.9047877357
 31
0.0
 11
-83.6164235503
 21
89.8663316081
 31
0.0
 11
-83.6564281329
 21
89.6810333074
 31
0.0
 11
-83.6922588797
 21
89.4967852136
 31
0.0
 11
-83.7239570746
 21
89.3134619175
 31
0.0
 11
-83.7518446428
 21
89.1287797966
 31
0.0
 11
-83.7757807567
 21
88.9425511916
 31
0.0
 11
-83.7953735965
 21
88.756879743
 31
0.0
 11
-83.8103877588
 21
88.5741904544
 31
0.0
  0
SPLINE
  5
404
100
AcDbEntity
  8
0
100
AcDbSpline
 62
7
  6
CONTINUOUS
 70
0
 71
3
 72
10
 73
6
 74
4
 42
0.0000001
 43
0.0000001
 44
0.0000000001
 12
-0.7285342263
 22
-0.2595778186
 32
0.0
 13
-0.743418329
 23
0.2033580644
 33
0.0
 40
0.0
 40
0.0
 40
0.0
 40
0.0
 40
0.1768844456
 40
0.5731463157
 40
1.0
 40
1.0
 40
1.0
 40
1.0
 10
-82.6573962934
 20
85.9307599462
 30
0.0
 10
-82.700351751
 20
85.9154548533
 30
0.0
 10
-82.8427516189
 20
85.8748622312
 30
0.0
 10
-83.1018127049
 20
85.855969933
 30
0.0
 10
-83.3122341726
 20
85.8920635976
 30
0.0
 10
-83.4180111235
 20
85.9209983106
 30
0.0
 11
-82.6573962934
 21
85.9307599462
 31
0.0
 11
-82.7888257616
 21
85.8932344254
 31
0.0
 11
-83.0932349733
 21
85.8685170677
 31
0.0
 11
-83.4180111235
 21
85.9209983106
 31
0.0
  0
SPLINE
  5
405
100
AcDbEntity
  8
0
100
AcDbSpline
 62
7
  6
CONTINUOUS
 70
0
 71
3
 72
12
 73
8
 74
6
 42
0.0000001
 43
0.0000001
 44
0.0000000001
 12
-0.4846905088
 22
0.3399843163
 32
0.0
 13
-0.4301881365
 23
0.4067583948
 33
0.0
 40
0.0
 40
0.0
 40
0.0
 40
0.0
 40
0.2112889118
 40
0.4160796887
 40
0.6146197839
 40
0.8089140402
 40
1.0
 40
1.0
 40
1.0
 40
1.0
 10
-84.8959690588
 20
88.3452223242
 30
0.0
 10
-84.9301056355
 20
88.3691672962
 30
0.0
 10
-84.996705537
 20
88.4172180005
 30
0.0
 10
-85.0930750237
 20
88.4908981336
 30
0.0
 10
-85.1847010987
 20
88.5651842972
 30
0.0
 10
-85.272051335
 20
88.6403695827
 30
0.0
 10
-85.3281585216
 20
88.6917350619
 30
0.0
 10
-85.3555594925
 20
88.717643668
 30
0.0
 11
-84.8959690588
 21
88.3452223242
 31
0.0
 11
-84.9973948137
 21
88.418439974
 31
0.0
 11
-85.0936934178
 21
88.492107381
 31
0.0
 11
-85.1849783568
 21
88.5661593155
 31
0.0
 11
-85.2721391004
 21
88.6412260006
 31
0.0
 11
-85.3555594925
 21
88.717643668
 31
0.0
  0
SPLINE
  5
406
100
AcDbEntity
  8
0
100
AcDbSpline
 62
7
  6
CONTINUOUS
 70
0
 71
3
 72
18
 73
14
 74
12
 42
0.0000001
 43
0.0000001
 44
0.0000000001
 12
-0.6956974515
 22
1.5433411025
 32
0.0
 13
-0.1278471795
 23
1.6880615514
 33
0.0
 40
0.0
 40
0.0
 40
0.0
 40
0.0
 40
0.0832064168
 40
0.1673706447
 40
0.2528685759
 40
0.3400867613
 40
0.4291060942
 40
0.5192954576
 40
0.610797256
 40
0.7048699557
 40
0.8017738049
 40
0.9005573899
 40
1.0
 40
1.0
 40
1.0
 40
1.0
 10
-84.1251179047
 20
86.2745517012
 30
0.0
 10
-84.1444134021
 20
86.3173569955
 30
0.0
 10
-84.1816322611
 20
86.4041881595
 30
0.0
 10
-84.2331466677
 20
86.5372879522
 30
0.0
 10
-84.280778283
 20
86.6742261124
 30
0.0
 10
-84.324597064
 20
86.8153014839
 30
0.0
 10
-84.3644781118
 20
86.9602870084
 30
0.0
 10
-84.4002982949
 20
87.1088151518
 30
0.0
 10
-84.4321120745
 20
87.2611659255
 30
0.0
 10
-84.4599945539
 20
87.4181344471
 30
0.0
 10
-84.4838204898
 20
87.5799245275
 30
0.0
 10
-84.5033006763
 20
87.745344731
 30
0.0
 10
-84.5132567209
 20
87.8567763386
 30
0.0
 10
-84.51749454
 20
87.9127314209
 30
0.0
 11
-84.1251179047
 21
86.2745517012
 31
0.0
 11
-84.1806476523
 21
86.404004133
 31
0.0
 11
-84.2321110533
 21
86.5368665946
 31
0.0
 11
-84.2796971918
 21
86.6735595605
 31
0.0
 11
-84.3235303314
 21
86.8145544758
 31
0.0
 11
-84.3635349141
 21
86.9598481938
 31
0.0
 11
-84.3993656609
 21
87.1082655408
 31
0.0
 11
-84.4310638558
 21
87.259890642
 31
0.0
 11
-84.458951424
 21
87.4166851946
 31
0.0
 11
-84.4828875378
 21
87.5789776858
 31
0.0
 11
-84.5024803777
 21
87.7450562945
 31
0.0
 11
-84.51749454
 21
87.9127314209
 31
0.0
  0
SPLINE
  5
407
100
AcDbEntity
  8
0
100
AcDbSpline
 62
7
  6
CONTINUOUS
 70
0
 71
3
 72
16
 73
12
 74
10
 42
0.0000001
 43
0.0000001
 44
0.0000000001
 12
0.110616467
 22
1.5711680843
 32
0.0
 13
0.3910084721
 23
1.5257781274
 33
0.0
 40
0.0
 40
0.0
 40
0.0
 40
0.0
 40
0.1163872881
 40
0.234934946
 40
0.3541523748
 40
0.4727378525
 40
0.5908528029
 40
0.7100196374
 40
0.8303732501
 40
0.9509710342
 40
1.0
 40
1.0
 40
1.0
 40
1.0
 10
-84.51749454
 20
88.927743845
 30
0.0
 10
-84.5132030898
 20
88.9886985092
 30
0.0
 10
-84.5030833653
 20
89.1116412622
 30
0.0
 10
-84.4835465716
 20
89.2965643972
 30
0.0
 10
-84.4596725708
 20
89.4821417782
 30
0.0
 10
-84.4317504522
 20
89.6669222468
 30
0.0
 10
-84.3998973942
 20
89.8510380283
 30
0.0
 10
-84.3640356383
 20
90.0353605932
 30
0.0
 10
-84.3241188258
 20
90.2201812836
 30
0.0
 10
-84.2889744385
 20
90.3683250182
 30
0.0
 10
-84.2672110048
 20
90.4546843879
 30
0.0
 10
-84.2608207578
 20
90.4796201625
 30
0.0
 11
-84.51749454
 21
88.927743845
 31
0.0
 11
-84.5024793103
 21
89.110444506
 31
0.0
 11
-84.4828842327
 21
89.2961328073
 31
0.0
 11
-84.4589455888
 21
89.4823749002
 31
0.0
 11
-84.4310566217
 21
89.667059947
 31
0.0
 11
-84.3993585305
 21
89.8503774168
 31
0.0
 11
-84.3635280248
 21
90.0346202729
 31
0.0
 11
-84.3235235646
 21
90.2199148657
 31
0.0
 11
-84.2796913197
 21
90.4047367573
 31
0.0
 11
-84.2608207578
 21
90.4796201625
 31
0.0
  0
SPLINE
  5
408
100
AcDbEntity
  8
0
100
AcDbSpline
 62
7
  6
CONTINUOUS
 70
0
 71
3
 72
12
 73
8
 74
6
 42
0.0000001
 43
0.0000001
 44
0.0000000001
 12
-0.7538005872
 22
0.1993050875
 32
0.0
 13
-0.7344507813
 23
0.2617630475
 33
0.0
 40
0.0
 40
0.0
 40
0.0
 40
0.0
 40
0.2031922224
 40
0.4037019467
 40
0.6024734814
 40
0.8012652599
 40
1.0
 40
1.0
 40
1.0
 40
1.0
 10
-82.609357906
 20
87.3445428747
 30
0.0
 10
-82.6604133782
 20
87.358041956
 30
0.0
 10
-82.7616415417
 20
87.3856593644
 30
0.0
 10
-82.912027785
 20
87.4292993009
 30
0.0
 10
-83.0605848522
 20
87.475066643
 30
0.0
 10
-83.2079082163
 20
87.5231958963
 30
0.0
 10
-83.3055469653
 20
87.5569976212
 30
0.0
 10
-83.3542005937
 20
87.5743380916
 30
0.0
 11
-82.609357906
 21
87.3445428747
 31
0.0
 11
-82.7621980952
 21
87.3862544376
 31
0.0
 11
-82.9123386322
 21
87.4298370387
 31
0.0
 11
-83.0604476919
 21
87.4754813745
 31
0.0
 11
-83.2077784011
 21
87.5236296235
 31
0.0
 11
-83.3542005937
 21
87.5743380916
 31
0.0
  0
SPLINE
  5
409
100
AcDbEntity
  8
0
100
AcDbSpline
 62
7
  6
CONTINUOUS
 70
0
 71
3
 72
9
 73
5
 74
3
 42
0.0000001
 43
0.0000001
 44
0.0000000001
 12
-0.3146349819
 22
0.1676527526
 32
0.0
 13
-0.2882787499
 23
0.2094216566
 33
0.0
 40
0.0
 40
0.0
 40
0.0
 40
0.0
 40
0.2130096085
 40
1.0
 40
1.0
 40
1.0
 40
1.0
 10
43.7384896342
 20
-97.7907892566
 30
0.0
 10
43.7161495428
 20
-97.7788853742
 30
0.0
 10
43.6121887023
 20
-97.7212710977
 30
0.0
 10
43.5125696234
 20
-97.6561059859
 30
0.0
 10
43.4369454213
 20
-97.6011683754
 30
0.0
 11
43.7384896342
 21
-97.7907892566
 31
0.0
 11
43.6720572261
 21
-97.7539979805
 31
0.0
 11
43.4369454213
 21
-97.6011683754
 31
0.0
  0
SPLINE
  5
40A
100
AcDbEntity
  8
0
100
AcDbSpline
 62
7
  6
CONTINUOUS
 70
0
 71
3
 72
15
 73
11
 74
9
 42
0.0000001
 43
0.0000001
 44
0.0000000001
 12
-2.939478045
 22
2.135399719
 32
0.0
 13
0.0
 23
3.6332441615
 33
0.0
 40
0.0
 40
0.0
 40
0.0
 40
0.0
 40
0.1166507875
 40
0.2400441641
 40
0.3682594671
 40
0.499036013
 40
0.6299439153
 40
0.7585448031
 40
0.8825520476
 40
1.0
 40
1.0
 40
1.0
 40
1.0
 10
43.1541027089
 20
-97.7425897317
 30
0.0
 10
43.0398052326
 20
-97.659557712
 30
0.0
 10
42.8170330323
 20
-97.4711544979
 30
0.0
 10
42.5144836122
 20
-97.1421553012
 30
0.0
 10
42.2412263086
 20
-96.7670782015
 30
0.0
 10
42.0053423806
 20
-96.3569978731
 30
0.0
 10
41.8137244903
 20
-95.9239511139
 30
0.0
 10
41.672015078
 20
-95.4806278425
 30
0.0
 10
41.584389901
 20
-95.0401321675
 30
0.0
 10
41.5631124512
 20
-94.7474593825
 30
0.0
 10
41.5631124512
 20
-94.6052203534
 30
0.0
 11
43.1541027089
 21
-97.7425897317
 31
0.0
 11
42.8293265587
 21
-97.4702948243
 31
0.0
 11
42.524917347
 21
-97.1411682549
 31
0.0
 11
42.2500150026
 21
-96.7650920946
 31
0.0
 11
42.0128735066
 21
-96.353358082
 31
0.0
 11
41.8206130652
 21
-95.918328588
 31
0.0
 11
41.6790063248
 21
-95.4730654336
 31
0.0
 11
41.5923050475
 21
-95.0309377066
 31
0.0
 11
41.5631124512
 21
-94.6052203534
 31
0.0
  0
SPLINE
  5
40B
100
AcDbEntity
  8
0
100
AcDbSpline
 62
7
  6
CONTINUOUS
 70
0
 71
3
 72
12
 73
8
 74
6
 42
0.0000001
 43
0.0000001
 44
0.0000000001
 12
0.0
 22
1.6046926561
 32
0.0
 13
1.3383831578
 23
0.8945373358
 33
0.0
 40
0.0
 40
0.0
 40
0.0
 40
0.0
 40
0.2477719948
 40
0.4757585984
 40
0.684553576
 40
0.8775367541
 40
1.0
 40
1.0
 40
1.0
 40
1.0
 10
41.5631124512
 20
-94.6052203534
 30
0.0
 10
41.5631124512
 20
-94.4726877199
 30
0.0
 10
41.5803548471
 20
-94.2176581524
 30
0.0
 10
41.6647567645
 20
-93.8594225573
 30
0.0
 10
41.8052907021
 20
-93.550443728
 30
0.0
 10
41.9792584792
 20
-93.3267032974
 30
0.0
 10
42.1112265416
 20
-93.2194273587
 30
0.0
 10
42.1658607902
 20
-93.1829113768
 30
0.0
 11
41.5631124512
 21
-94.6052203534
 31
0.0
 11
41.5923050475
 21
-94.2086955966
 31
0.0
 11
41.6790063248
 21
-93.8532691469
 31
0.0
 11
41.8206130652
 21
-93.5496127328
 31
0.0
 11
42.0128735066
 21
-93.3068436802
 31
0.0
 11
42.1658607902
 21
-93.1829113768
 31
0.0
  0
SPLINE
  5
40C
100
AcDbEntity
  8
0
100
AcDbSpline
 62
7
  6
CONTINUOUS
 70
0
 71
3
 72
11
 73
7
 74
5
 42
0.0000001
 43
0.0000001
 44
0.0000000001
 12
0.3585770888
 22
-0.0893745271
 32
0.0
 13
0.3641339119
 23
-0.0630224474
 33
0.0
 40
0.0
 40
0.0
 40
0.0
 40
0.0
 40
0.2843614962
 40
0.5413138567
 40
0.7772617616
 40
1.0
 40
1.0
 40
1.0
 40
1.0
 10
42.3832515548
 20
-95.065701326
 30
0.0
 10
42.4172400606
 20
-95.0741728841
 30
0.0
 10
42.4821378136
 20
-95.0895192854
 30
0.0
 10
42.5757589939
 20
-95.1095991758
 30
0.0
 10
42.66226883
 20
-95.1265661226
 30
0.0
 10
42.7178767317
 20
-95.1365911939
 30
0.0
 10
42.7449122471
 20
-95.1412703635
 30
0.0
 11
42.3832515548
 21
-95.065701326
 31
0.0
 11
42.4855076302
 21
-95.0899204809
 31
0.0
 11
42.5783472258
 21
-95.1098571192
 31
0.0
 11
42.6639079378
 21
-95.1266544355
 31
0.0
 11
42.7449122471
 21
-95.1412703635
 31
0.0
  0
SPLINE
  5
40D
100
AcDbEntity
  8
0
100
AcDbSpline
 62
7
  6
CONTINUOUS
 70
0
 71
3
 72
12
 73
8
 74
6
 42
0.0000001
 43
0.0000001
 44
0.0000000001
 12
-0.4846905088
 22
0.3399843163
 32
0.0
 13
-0.4301881365
 23
0.4067583948
 33
0.0
 40
0.0
 40
0.0
 40
0.0
 40
0.0
 40
0.2112889118
 40
0.4160796887
 40
0.6146197839
 40
0.8089140402
 40
1.0
 40
1.0
 40
1.0
 40
1.0
 10
42.3832515548
 20
-95.065701326
 30
0.0
 10
42.3491149781
 20
-95.0417563539
 30
0.0
 10
42.2825150765
 20
-94.9937056497
 30
0.0
 10
42.1861455898
 20
-94.9200255166
 30
0.0
 10
42.0945195149
 20
-94.845739353
 30
0.0
 10
42.0071692786
 20
-94.7705540675
 30
0.0
 10
41.951062092
 20
-94.7191885883
 30
0.0
 10
41.923661121
 20
-94.6932799822
 30
0.0
 11
42.3832515548
 21
-95.065701326
 31
0.0
 11
42.2818257998
 21
-94.9924836762
 31
0.0
 11
42.1855271957
 21
-94.9188162691
 31
0.0
 11
42.0942422568
 21
-94.8447643347
 31
0.0
 11
42.0070815132
 21
-94.7696976496
 31
0.0
 11
41.923661121
 21
-94.6932799822
 31
0.0
  0
SPLINE
  5
40E
100
AcDbEntity
  8
0
100
AcDbSpline
 62
7
  6
CONTINUOUS
 70
0
 71
3
 72
18
 73
14
 74
12
 42
0.0000001
 43
0.0000001
 44
0.0000000001
 12
0.1278471796
 22
-1.688061552
 32
0.0
 13
0.6956974518
 23
-1.543341103
 33
0.0
 40
0.0
 40
0.0
 40
0.0
 40
0.0
 40
0.0994487293
 40
0.1982410428
 40
0.2951515135
 40
0.389225246
 40
0.480723723
 40
0.5709101839
 40
0.6599274556
 40
0.7471425123
 40
0.8326363975
 40
0.9167966359
 40
1.0
 40
1.0
 40
1.0
 40
1.0
 10
43.4688328548
 20
-96.4579634026
 30
0.0
 10
43.4730709346
 20
-96.513921928
 30
0.0
 10
43.4830278178
 20
-96.6253618758
 30
0.0
 10
43.5025099199
 20
-96.7907940584
 30
0.0
 10
43.5263380898
 20
-96.9525931596
 30
0.0
 10
43.5542220896
 20
-97.1095638959
 30
0.0
 10
43.5860363239
 20
-97.2619115804
 30
0.0
 10
43.6218563249
 20
-97.4104349564
 30
0.0
 10
43.6617369646
 20
-97.5554158555
 30
0.0
 10
43.7055548792
 20
-97.6964860361
 30
0.0
 10
43.75318492
 20
-97.83341807
 30
0.0
 10
43.8046973492
 20
-97.9665119147
 30
0.0
 10
43.8419147006
 20
-98.0533393984
 30
0.0
 10
43.8612094901
 20
-98.0961431222
 30
0.0
 11
43.4688328548
 21
-96.4579634026
 31
0.0
 11
43.4838480844
 21
-96.6256488339
 31
0.0
 11
43.503443162
 21
-96.7917420576
 31
0.0
 11
43.5273818059
 21
-96.9540455066
 31
0.0
 11
43.5552707731
 21
-97.1108415863
 31
0.0
 11
43.5869688642
 21
-97.2624609648
 31
0.0
 11
43.62279937
 21
-97.4108733153
 31
0.0
 11
43.6628038302
 21
-97.5561634478
 31
0.0
 11
43.706636075
 21
-97.6971530947
 31
0.0
 11
43.754220454
 21
-97.8338394206
 31
0.0
 11
43.8056816942
 21
-97.9666954765
 31
0.0
 11
43.8612094901
 21
-98.0961431222
 31
0.0
  0
SPLINE
  5
40F
100
AcDbEntity
  8
0
100
AcDbSpline
 62
7
  6
CONTINUOUS
 70
0
 71
3
 72
12
 73
8
 74
6
 42
0.0000001
 43
0.0000001
 44
0.0000000001
 12
-0.7538005872
 22
0.1993050875
 32
0.0
 13
-0.7344507813
 23
0.2617630475
 33
0.0
 40
0.0
 40
0.0
 40
0.0
 40
0.0
 40
0.2031922224
 40
0.4037019467
 40
0.6024734814
 40
0.8012652599
 40
1.0
 40
1.0
 40
1.0
 40
1.0
 10
44.6698627076
 20
-96.0663807754
 30
0.0
 10
44.6188072354
 20
-96.0528816942
 30
0.0
 10
44.5175790719
 20
-96.0252642857
 30
0.0
 10
44.3671928286
 20
-95.9816243493
 30
0.0
 10
44.2186357613
 20
-95.9358570071
 30
0.0
 10
44.0713123973
 20
-95.8877277538
 30
0.0
 10
43.9736736483
 20
-95.853926029
 30
0.0
 10
43.9250200199
 20
-95.8365855586
 30
0.0
 11
44.6698627076
 21
-96.0663807754
 31
0.0
 11
44.5170225184
 21
-96.0246692126
 31
0.0
 11
44.3668819814
 21
-95.9810866115
 31
0.0
 11
44.2187729217
 21
-95.9354422757
 31
0.0
 11
44.0714422125
 21
-95.8872940266
 31
0.0
 11
43.9250200199
 21
-95.8365855586
 31
0.0
  0
SPLINE
  5
410
100
AcDbEntity
  8
0
100
AcDbSpline
 62
7
  6
CONTINUOUS
 70
0
 71
3
 72
15
 73
11
 74
9
 42
0.0000001
 43
0.0000001
 44
0.0000000001
 12
-0.303220478
 22
-1.3127623572
 32
0.0
 13
-0.0946213128
 23
-1.343976994
 33
0.0
 40
0.0
 40
0.0
 40
0.0
 40
0.0
 40
0.0292799595
 40
0.1699813234
 40
0.3092964326
 40
0.4473822672
 40
0.5860115923
 40
0.7253718294
 40
0.8639466301
 40
1.0
 40
1.0
 40
1.0
 40
1.0
 10
43.6715947715
 20
-94.1123536972
 30
0.0
 10
43.6686353437
 20
-94.12516624
 30
0.0
 10
43.6516103909
 20
-94.1995838936
 30
0.0
 10
43.6222847292
 20
-94.3353683023
 30
0.0
 10
43.5864227922
 20
-94.5196957899
 30
0.0
 10
43.5545701681
 20
-94.7038143013
 30
0.0
 10
43.526649536
 20
-94.888591271
 30
0.0
 10
43.5027777564
 20
-95.0741575762
 30
0.0
 10
43.4832428942
 20
-95.2590667942
 30
0.0
 10
43.4731240376
 20
-95.3820001121
 30
0.0
 10
43.4688328548
 20
-95.4429509784
 30
0.0
 11
43.6715947715
 21
-94.1123536972
 31
0.0
 11
43.6627970633
 21
-94.1508098248
 31
0.0
 11
43.6227924807
 21
-94.3361081255
 31
0.0
 11
43.5869617339
 21
-94.5203562192
 31
0.0
 11
43.555263539
 21
-94.7036795153
 31
0.0
 11
43.5273759708
 21
-94.8883616362
 31
0.0
 11
43.5034398569
 21
-95.0745902412
 31
0.0
 11
43.483847017
 21
-95.2602616898
 31
0.0
 11
43.4688328548
 21
-95.4429509784
 31
0.0
  0
SPLINE
  5
411
100
AcDbEntity
  8
0
100
AcDbSpline
 62
7
  6
CONTINUOUS
 70
0
 71
3
 72
10
 73
6
 74
4
 42
0.0000001
 43
0.0000001
 44
0.0000000001
 12
-0.7285342263
 22
-0.2595778186
 32
0.0
 13
-0.743418329
 23
0.2033580644
 33
0.0
 40
0.0
 40
0.0
 40
0.0
 40
0.0
 40
0.1768844456
 40
0.5731463157
 40
1.0
 40
1.0
 40
1.0
 40
1.0
 10
44.6218243202
 20
-98.0863814866
 30
0.0
 10
44.5788688626
 20
-98.1016865795
 30
0.0
 10
44.4364689947
 20
-98.1422792016
 30
0.0
 10
44.1774079087
 20
-98.1611714999
 30
0.0
 10
43.9669864409
 20
-98.1250778352
 30
0.0
 10
43.8612094901
 20
-98.0961431222
 30
0.0
 11
44.6218243202
 21
-98.0863814866
 31
0.0
 11
44.490394852
 21
-98.1239070074
 31
0.0
 11
44.1859856403
 21
-98.1486243651
 31
0.0
 11
43.8612094901
 21
-98.0961431222
 31
0.0
  0
SPLINE
  5
412
100
AcDbEntity
  8
0
100
AcDbSpline
 62
7
  6
CONTINUOUS
 70
0
 71
3
 72
12
 73
8
 74
6
 42
0.0000001
 43
0.0000001
 44
0.0000000001
 12
-0.4846905088
 22
0.3399843163
 32
0.0
 13
-0.4301881365
 23
0.4067583948
 33
0.0
 40
0.0
 40
0.0
 40
0.0
 40
0.0
 40
0.2112889118
 40
0.4160796887
 40
0.6146197839
 40
0.8089140402
 40
1.0
 40
1.0
 40
1.0
 40
1.0
 10
42.3832515548
 20
-95.6719191087
 30
0.0
 10
42.3491149781
 20
-95.6479741366
 30
0.0
 10
42.2825150765
 20
-95.5999234324
 30
0.0
 10
42.1861455898
 20
-95.5262432992
 30
0.0
 10
42.0945195149
 20
-95.4519571356
 30
0.0
 10
42.0071692786
 20
-95.3767718501
 30
0.0
 10
41.951062092
 20
-95.3254063709
 30
0.0
 10
41.923661121
 20
-95.2994977648
 30
0.0
 11
42.3832515548
 21
-95.6719191087
 31
0.0
 11
42.2818257998
 21
-95.5987014588
 31
0.0
 11
42.1855271957
 21
-95.5250340518
 31
0.0
 11
42.0942422568
 21
-95.4509821174
 31
0.0
 11
42.0070815132
 21
-95.3759154322
 31
0.0
 11
41.923661121
 21
-95.2994977648
 31
0.0
  0
SPLINE
  5
413
100
AcDbEntity
  8
0
100
AcDbSpline
 62
7
  6
CONTINUOUS
 70
0
 71
3
 72
18
 73
14
 74
12
 42
0.0000001
 43
0.0000001
 44
0.0000000001
 12
-0.6956974515
 22
1.5433411025
 32
0.0
 13
-0.1278471795
 23
1.6880615514
 33
0.0
 40
0.0
 40
0.0
 40
0.0
 40
0.0
 40
0.0832064168
 40
0.1673706447
 40
0.2528685759
 40
0.3400867613
 40
0.4291060942
 40
0.5192954576
 40
0.610797256
 40
0.7048699557
 40
0.8017738049
 40
0.9005573899
 40
1.0
 40
1.0
 40
1.0
 40
1.0
 10
43.1541027089
 20
-97.7425897317
 30
0.0
 10
43.1348072115
 20
-97.6997844373
 30
0.0
 10
43.0975883525
 20
-97.6129532733
 30
0.0
 10
43.0460739459
 20
-97.4798534806
 30
0.0
 10
42.9984423306
 20
-97.3429153204
 30
0.0
 10
42.9546235496
 20
-97.201839949
 30
0.0
 10
42.9147425017
 20
-97.0568544245
 30
0.0
 10
42.8789223187
 20
-96.908326281
 30
0.0
 10
42.8471085391
 20
-96.7559755073
 30
0.0
 10
42.8192260597
 20
-96.5990069858
 30
0.0
 10
42.7954001238
 20
-96.4372169053
 30
0.0
 10
42.7759199373
 20
-96.2717967018
 30
0.0
 10
42.7659638927
 20
-96.1603650942
 30
0.0
 10
42.7617260736
 20
-96.104410012
 30
0.0
 11
43.1541027089
 21
-97.7425897317
 31
0.0
 11
43.0985729613
 21
-97.6131372998
 31
0.0
 11
43.0471095603
 21
-97.4802748382
 31
0.0
 11
42.9995234218
 21
-97.3435818723
 31
0.0
 11
42.9556902821
 21
-97.2025869571
 31
0.0
 11
42.9156856995
 21
-97.057293239
 31
0.0
 11
42.8798549527
 21
-96.908875892
 31
0.0
 11
42.8481567578
 21
-96.7572507908
 31
0.0
 11
42.8202691896
 21
-96.6004562382
 31
0.0
 11
42.7963330757
 21
-96.438163747
 31
0.0
 11
42.7767402358
 21
-96.2720851383
 31
0.0
 11
42.7617260736
 21
-96.104410012
 31
0.0
  0
SPLINE
  5
414
100
AcDbEntity
  8
0
100
AcDbSpline
 62
7
  6
CONTINUOUS
 70
0
 71
3
 72
16
 73
12
 74
10
 42
0.0000001
 43
0.0000001
 44
0.0000000001
 12
0.110616467
 22
1.5711680843
 32
0.0
 13
0.3910084721
 23
1.5257781274
 33
0.0
 40
0.0
 40
0.0
 40
0.0
 40
0.0
 40
0.1163872881
 40
0.234934946
 40
0.3541523748
 40
0.4727378525
 40
0.5908528029
 40
0.7100196374
 40
0.8303732501
 40
0.9509710342
 40
1.0
 40
1.0
 40
1.0
 40
1.0
 10
42.7617260736
 20
-95.0893975878
 30
0.0
 10
42.7660175238
 20
-95.0284429237
 30
0.0
 10
42.7761372482
 20
-94.9055001706
 30
0.0
 10
42.795674042
 20
-94.7205770356
 30
0.0
 10
42.8195480428
 20
-94.5349996546
 30
0.0
 10
42.8474701614
 20
-94.350219186
 30
0.0
 10
42.8793232194
 20
-94.1661034046
 30
0.0
 10
42.9151849753
 20
-93.9817808396
 30
0.0
 10
42.9551017878
 20
-93.7969601492
 30
0.0
 10
42.9902461751
 20
-93.6488164147
 30
0.0
 10
43.0120096087
 20
-93.5624570449
 30
0.0
 10
43.0183998557
 20
-93.5375212703
 30
0.0
 11
42.7617260736
 21
-95.0893975878
 31
0.0
 11
42.7767413033
 21
-94.9066969268
 31
0.0
 11
42.7963363808
 21
-94.7210086255
 31
0.0
 11
42.8202750247
 21
-94.5347665326
 31
0.0
 11
42.8481639919
 21
-94.3500814858
 31
0.0
 11
42.879862083
 21
-94.1667640161
 31
0.0
 11
42.9156925888
 21
-93.9825211599
 31
0.0
 11
42.955697049
 21
-93.7972265671
 31
0.0
 11
42.9995292938
 21
-93.6124046755
 31
0.0
 11
43.0183998557
 21
-93.5375212703
 31
0.0
  0
SPLINE
  5
415
100
AcDbEntity
  8
0
100
AcDbSpline
 62
7
  6
CONTINUOUS
 70
0
 71
3
 72
12
 73
8
 74
6
 42
0.0000001
 43
0.0000001
 44
0.0000000001
 12
-0.7538005872
 22
0.1993050875
 32
0.0
 13
-0.7344507813
 23
0.2617630475
 33
0.0
 40
0.0
 40
0.0
 40
0.0
 40
0.0
 40
0.2031922224
 40
0.4037019467
 40
0.6024734814
 40
0.8012652599
 40
1.0
 40
1.0
 40
1.0
 40
1.0
 10
44.6698627076
 20
-96.6725985581
 30
0.0
 10
44.6188072354
 20
-96.6590994769
 30
0.0
 10
44.5175790719
 20
-96.6314820684
 30
0.0
 10
44.3671928286
 20
-96.5878421319
 30
0.0
 10
44.2186357613
 20
-96.5420747898
 30
0.0
 10
44.0713123973
 20
-96.4939455365
 30
0.0
 10
43.9736736483
 20
-96.4601438116
 30
0.0
 10
43.9250200199
 20
-96.4428033412
 30
0.0
 11
44.6698627076
 21
-96.6725985581
 31
0.0
 11
44.5170225184
 21
-96.6308869953
 31
0.0
 11
44.3668819814
 21
-96.5873043941
 31
0.0
 11
44.2187729217
 21
-96.5416600584
 31
0.0
 11
44.0714422125
 21
-96.4935118093
 31
0.0
 11
43.9250200199
 21
-96.4428033412
 31
0.0
  0
SPLINE
  5
416
100
AcDbEntity
  8
0
100
AcDbSpline
 62
7
  6
CONTINUOUS
 70
0
 71
3
 72
9
 73
5
 74
3
 42
0.0000001
 43
0.0000001
 44
0.0000000001
 12
-0.3146349819
 22
0.1676527526
 32
0.0
 13
-0.2882787499
 23
0.2094216566
 33
0.0
 40
0.0
 40
0.0
 40
0.0
 40
0.0
 40
0.2130096085
 40
1.0
 40
1.0
 40
1.0
 40
1.0
 10
43.7384896342
 20
22.5867418695
 30
0.0
 10
43.7161495428
 20
22.5986457519
 30
0.0
 10
43.6121887023
 20
22.6562600284
 30
0.0
 10
43.5125696234
 20
22.7214251401
 30
0.0
 10
43.4369454213
 20
22.7763627506
 30
0.0
 11
43.7384896342
 21
22.5867418695
 31
0.0
 11
43.6720572261
 21
22.6235331456
 31
0.0
 11
43.4369454213
 21
22.7763627506
 31
0.0
  0
SPLINE
  5
417
100
AcDbEntity
  8
0
100
AcDbSpline
 62
7
  6
CONTINUOUS
 70
0
 71
3
 72
13
 73
9
 74
7
 42
0.0000001
 43
0.0000001
 44
0.0000000001
 12
1.579405802
 22
-0.7802466271
 32
0.0
 13
0.6370859685
 23
-1.6413448788
 33
0.0
 40
0.0
 40
0.0
 40
0.0
 40
0.0
 40
0.0282264169
 40
0.2298465341
 40
0.4359183065
 40
0.6405597586
 40
0.8370904722
 40
1.0
 40
1.0
 40
1.0
 40
1.0
 10
63.0998842513
 20
35.6313297228
 30
0.0
 10
63.1147445735
 20
35.6239885339
 30
0.0
 10
63.2349782044
 20
35.5626574036
 30
0.0
 10
63.4506867107
 20
35.4234927139
 30
0.0
 10
63.7203027362
 20
35.1845186363
 30
0.0
 10
63.9521114774
 20
34.9128386525
 30
0.0
 10
64.1317628158
 20
34.6339570855
 30
0.0
 10
64.2220540415
 20
34.4428415913
 30
0.0
 10
64.2566498329
 20
34.3537113516
 30
0.0
 11
63.0998842513
 21
35.6313297228
 31
0.0
 11
63.1441772907
 21
35.6087432635
 31
0.0
 11
63.4430469422
 21
35.4178322222
 31
0.0
 11
63.7148766748
 21
35.1780534387
 31
0.0
 11
63.9486045669
 21
34.9043035329
 31
0.0
 11
64.1352404041
 21
34.6133262407
 31
0.0
 11
64.2566498329
 21
34.3537113516
 31
0.0
  0
SPLINE
  5
418
100
AcDbEntity
  8
0
100
AcDbSpline
 62
7
  6
CONTINUOUS
 70
0
 71
3
 72
11
 73
7
 74
5
 42
0.0000001
 43
0.0000001
 44
0.0000000001
 12
0.5761863632
 22
-0.2103320997
 32
0.0
 13
0.4782282073
 23
-0.3836517986
 33
0.0
 40
0.0
 40
0.0
 40
0.0
 40
0.0
 40
0.0496446211
 40
0.4658257822
 40
0.8748032035
 40
1.0
 40
1.0
 40
1.0
 40
1.0
 10
63.4736673021
 20
36.1232493875
 30
0.0
 10
63.4832021533
 20
36.1197687684
 30
0.0
 10
63.5723605288
 20
36.0862692302
 30
0.0
 10
63.734149539
 20
36.0089590928
 30
0.0
 10
63.8970071266
 20
35.9024026123
 30
0.0
 10
63.9834011914
 20
35.8356354541
 30
0.0
 10
64.0033587379
 20
35.8196247953
 30
0.0
 11
63.4736673021
 21
36.1232493875
 31
0.0
 11
63.5021718162
 21
36.1125413648
 31
0.0
 11
63.7326316209
 21
36.0033374948
 31
0.0
 11
63.9426214623
 21
35.8665548862
 31
0.0
 11
64.0033587379
 21
35.8196247953
 31
0.0
  0
SPLINE
  5
419
100
AcDbEntity
  8
0
100
AcDbSpline
 62
7
  6
CONTINUOUS
 70
0
 71
3
 72
12
 73
8
 74
6
 42
0.0000001
 43
0.0000001
 44
0.0000000001
 12
0.7102149643
 22
-0.5697598852
 32
0.0
 13
0.3629237571
 23
-0.8345245342
 33
0.0
 40
0.0
 40
0.0
 40
0.0
 40
0.0
 40
0.180010187
 40
0.4265761774
 40
0.6489740782
 40
0.8415822725
 40
1.0
 40
1.0
 40
1.0
 40
1.0
 10
64.0033587379
 20
35.8196247953
 30
0.0
 10
64.0459740474
 20
35.7854372675
 30
0.0
 10
64.1438166055
 20
35.7005090692
 30
0.0
 10
64.2806340906
 20
35.5584823102
 30
0.0
 10
64.4049638125
 20
35.400532523
 30
0.0
 10
64.4989476714
 20
35.2538659638
 30
0.0
 10
64.5474091485
 20
35.1587928872
 30
0.0
 10
64.5665736675
 20
35.1147250605
 30
0.0
 11
64.0033587379
 21
35.8196247953
 31
0.0
 11
64.1271420995
 21
35.7122591768
 31
0.0
 11
64.2827617991
 21
35.550613269
 31
0.0
 11
64.4076981451
 21
35.3913912916
 31
0.0
 11
64.5018202959
 21
35.243528283
 31
0.0
 11
64.5665736675
 21
35.1147250605
 31
0.0
  0
SPLINE
  5
41A
100
AcDbEntity
  8
0
100
AcDbSpline
 62
7
  6
CONTINUOUS
 70
0
 71
3
 72
15
 73
11
 74
9
 42
0.0000001
 43
0.0000001
 44
0.0000000001
 12
-2.939478045
 22
2.135399719
 32
0.0
 13
0.0
 23
3.6332441615
 33
0.0
 40
0.0
 40
0.0
 40
0.0
 40
0.0
 40
0.1166507875
 40
0.2400441641
 40
0.3682594671
 40
0.499036013
 40
0.6299439153
 40
0.7585448031
 40
0.8825520476
 40
1.0
 40
1.0
 40
1.0
 40
1.0
 10
43.1541027089
 20
22.6349413944
 30
0.0
 10
43.0398052326
 20
22.717973414
 30
0.0
 10
42.8170330323
 20
22.9063766282
 30
0.0
 10
42.5144836122
 20
23.2353758248
 30
0.0
 10
42.2412263086
 20
23.6104529245
 30
0.0
 10
42.0053423806
 20
24.0205332529
 30
0.0
 10
41.8137244903
 20
24.4535800121
 30
0.0
 10
41.672015078
 20
24.8969032835
 30
0.0
 10
41.584389901
 20
25.3373989585
 30
0.0
 10
41.5631124512
 20
25.6300717436
 30
0.0
 10
41.5631124512
 20
25.7723107726
 30
0.0
 11
43.1541027089
 21
22.6349413944
 31
0.0
 11
42.8293265587
 21
22.9072363018
 31
0.0
 11
42.524917347
 21
23.2363628711
 31
0.0
 11
42.2500150026
 21
23.6124390315
 31
0.0
 11
42.0128735066
 21
24.0241730441
 31
0.0
 11
41.8206130652
 21
24.459202538
 31
0.0
 11
41.6790063248
 21
24.9044656925
 31
0.0
 11
41.5923050475
 21
25.3465934194
 31
0.0
 11
41.5631124512
 21
25.7723107726
 31
0.0
  0
SPLINE
  5
41B
100
AcDbEntity
  8
0
100
AcDbSpline
 62
7
  6
CONTINUOUS
 70
0
 71
3
 72
12
 73
8
 74
6
 42
0.0000001
 43
0.0000001
 44
0.0000000001
 12
0.0
 22
1.6046926561
 32
0.0
 13
1.3383831578
 23
0.8945373358
 33
0.0
 40
0.0
 40
0.0
 40
0.0
 40
0.0
 40
0.2477719948
 40
0.4757585984
 40
0.684553576
 40
0.8775367541
 40
1.0
 40
1.0
 40
1.0
 40
1.0
 10
41.5631124512
 20
25.7723107726
 30
0.0
 10
41.5631124512
 20
25.9048434061
 30
0.0
 10
41.5803548471
 20
26.1598729736
 30
0.0
 10
41.6647567645
 20
26.5181085687
 30
0.0
 10
41.8052907021
 20
26.827087398
 30
0.0
 10
41.9792584792
 20
27.0508278286
 30
0.0
 10
42.1112265416
 20
27.1581037674
 30
0.0
 10
42.1658607902
 20
27.1946197493
 30
0.0
 11
41.5631124512
 21
25.7723107726
 31
0.0
 11
41.5923050475
 21
26.1688355295
 31
0.0
 11
41.6790063248
 21
26.5242619792
 31
0.0
 11
41.8206130652
 21
26.8279183932
 31
0.0
 11
42.0128735066
 21
27.0706874458
 31
0.0
 11
42.1658607902
 21
27.1946197493
 31
0.0
  0
SPLINE
  5
41C
100
AcDbEntity
  8
0
100
AcDbSpline
 62
7
  6
CONTINUOUS
 70
0
 71
3
 72
11
 73
7
 74
5
 42
0.0000001
 43
0.0000001
 44
0.0000000001
 12
0.3585770888
 22
-0.0893745271
 32
0.0
 13
0.3641339119
 23
-0.0630224474
 33
0.0
 40
0.0
 40
0.0
 40
0.0
 40
0.0
 40
0.2843614962
 40
0.5413138567
 40
0.7772617616
 40
1.0
 40
1.0
 40
1.0
 40
1.0
 10
42.3832515548
 20
25.3118298
 30
0.0
 10
42.4172400606
 20
25.303358242
 30
0.0
 10
42.4821378136
 20
25.2880118407
 30
0.0
 10
42.5757589939
 20
25.2679319502
 30
0.0
 10
42.66226883
 20
25.2509650035
 30
0.0
 10
42.7178767317
 20
25.2409399322
 30
0.0
 10
42.7449122471
 20
25.2362607625
 30
0.0
 11
42.3832515548
 21
25.3118298
 31
0.0
 11
42.4855076302
 21
25.2876106452
 31
0.0
 11
42.5783472258
 21
25.2676740068
 31
0.0
 11
42.6639079378
 21
25.2508766906
 31
0.0
 11
42.7449122471
 21
25.2362607625
 31
0.0
  0
SPLINE
  5
41D
100
AcDbEntity
  8
0
100
AcDbSpline
 62
7
  6
CONTINUOUS
 70
0
 71
3
 72
12
 73
8
 74
6
 42
0.0000001
 43
0.0000001
 44
0.0000000001
 12
-0.4846905088
 22
0.3399843163
 32
0.0
 13
-0.4301881365
 23
0.4067583948
 33
0.0
 40
0.0
 40
0.0
 40
0.0
 40
0.0
 40
0.2112889118
 40
0.4160796887
 40
0.6146197839
 40
0.8089140402
 40
1.0
 40
1.0
 40
1.0
 40
1.0
 10
42.3832515548
 20
25.3118298
 30
0.0
 10
42.3491149781
 20
25.3357747721
 30
0.0
 10
42.2825150765
 20
25.3838254763
 30
0.0
 10
42.1861455898
 20
25.4575056095
 30
0.0
 10
42.0945195149
 20
25.5317917731
 30
0.0
 10
42.0071692786
 20
25.6069770586
 30
0.0
 10
41.951062092
 20
25.6583425378
 30
0.0
 10
41.923661121
 20
25.6842511439
 30
0.0
 11
42.3832515548
 21
25.3118298
 31
0.0
 11
42.2818257998
 21
25.3850474499
 31
0.0
 11
42.1855271957
 21
25.4587148569
 31
0.0
 11
42.0942422568
 21
25.5327667913
 31
0.0
 11
42.0070815132
 21
25.6078334765
 31
0.0
 11
41.923661121
 21
25.6842511439
 31
0.0
  0
SPLINE
  5
41E
100
AcDbEntity
  8
0
100
AcDbSpline
 62
7
  6
CONTINUOUS
 70
0
 71
3
 72
18
 73
14
 74
12
 42
0.0000001
 43
0.0000001
 44
0.0000000001
 12
0.1278471796
 22
-1.688061552
 32
0.0
 13
0.6956974518
 23
-1.543341103
 33
0.0
 40
0.0
 40
0.0
 40
0.0
 40
0.0
 40
0.0994487293
 40
0.1982410428
 40
0.2951515135
 40
0.389225246
 40
0.480723723
 40
0.5709101839
 40
0.6599274556
 40
0.7471425123
 40
0.8326363975
 40
0.9167966359
 40
1.0
 40
1.0
 40
1.0
 40
1.0
 10
43.4688328548
 20
23.9195677235
 30
0.0
 10
43.4730709346
 20
23.863609198
 30
0.0
 10
43.4830278178
 20
23.7521692502
 30
0.0
 10
43.5025099199
 20
23.5867370676
 30
0.0
 10
43.5263380898
 20
23.4249379664
 30
0.0
 10
43.5542220896
 20
23.2679672302
 30
0.0
 10
43.5860363239
 20
23.1156195457
 30
0.0
 10
43.6218563249
 20
22.9670961696
 30
0.0
 10
43.6617369646
 20
22.8221152705
 30
0.0
 10
43.7055548792
 20
22.68104509
 30
0.0
 10
43.75318492
 20
22.544113056
 30
0.0
 10
43.8046973492
 20
22.4110192113
 30
0.0
 10
43.8419147006
 20
22.3241917277
 30
0.0
 10
43.8612094901
 20
22.2813880038
 30
0.0
 11
43.4688328548
 21
23.9195677235
 31
0.0
 11
43.4838480844
 21
23.7518822922
 31
0.0
 11
43.503443162
 21
23.5857890684
 31
0.0
 11
43.5273818059
 21
23.4234856194
 31
0.0
 11
43.5552707731
 21
23.2666895398
 31
0.0
 11
43.5869688642
 21
23.1150701612
 31
0.0
 11
43.62279937
 21
22.9666578107
 31
0.0
 11
43.6628038302
 21
22.8213676782
 31
0.0
 11
43.706636075
 21
22.6803780314
 31
0.0
 11
43.754220454
 21
22.5436917055
 31
0.0
 11
43.8056816942
 21
22.4108356496
 31
0.0
 11
43.8612094901
 21
22.2813880038
 31
0.0
  0
SPLINE
  5
41F
100
AcDbEntity
  8
0
100
AcDbSpline
 62
7
  6
CONTINUOUS
 70
0
 71
3
 72
12
 73
8
 74
6
 42
0.0000001
 43
0.0000001
 44
0.0000000001
 12
-0.7538005872
 22
0.1993050875
 32
0.0
 13
-0.7344507813
 23
0.2617630475
 33
0.0
 40
0.0
 40
0.0
 40
0.0
 40
0.0
 40
0.2031922224
 40
0.4037019467
 40
0.6024734814
 40
0.8012652599
 40
1.0
 40
1.0
 40
1.0
 40
1.0
 10
44.6698627076
 20
24.3111503506
 30
0.0
 10
44.6188072354
 20
24.3246494318
 30
0.0
 10
44.5175790719
 20
24.3522668403
 30
0.0
 10
44.3671928286
 20
24.3959067767
 30
0.0
 10
44.2186357613
 20
24.4416741189
 30
0.0
 10
44.0713123973
 20
24.4898033722
 30
0.0
 10
43.9736736483
 20
24.5236050971
 30
0.0
 10
43.9250200199
 20
24.5409455675
 30
0.0
 11
44.6698627076
 21
24.3111503506
 31
0.0
 11
44.5170225184
 21
24.3528619134
 31
0.0
 11
44.3668819814
 21
24.3964445146
 31
0.0
 11
44.2187729217
 21
24.4420888503
 31
0.0
 11
44.0714422125
 21
24.4902370994
 31
0.0
 11
43.9250200199
 21
24.5409455675
 31
0.0
  0
SPLINE
  5
420
100
AcDbEntity
  8
0
100
AcDbSpline
 62
7
  6
CONTINUOUS
 70
0
 71
3
 72
15
 73
11
 74
9
 42
0.0000001
 43
0.0000001
 44
0.0000000001
 12
-0.303220478
 22
-1.3127623572
 32
0.0
 13
-0.0946213128
 23
-1.343976994
 33
0.0
 40
0.0
 40
0.0
 40
0.0
 40
0.0
 40
0.0292799595
 40
0.1699813234
 40
0.3092964326
 40
0.4473822672
 40
0.5860115923
 40
0.7253718294
 40
0.8639466301
 40
1.0
 40
1.0
 40
1.0
 40
1.0
 10
43.6715947715
 20
26.2651774289
 30
0.0
 10
43.6686353437
 20
26.252364886
 30
0.0
 10
43.6516103909
 20
26.1779472324
 30
0.0
 10
43.6222847292
 20
26.0421628237
 30
0.0
 10
43.5864227922
 20
25.8578353361
 30
0.0
 10
43.5545701681
 20
25.6737168247
 30
0.0
 10
43.526649536
 20
25.488939855
 30
0.0
 10
43.5027777564
 20
25.3033735499
 30
0.0
 10
43.4832428942
 20
25.1184643318
 30
0.0
 10
43.4731240376
 20
24.995531014
 30
0.0
 10
43.4688328548
 20
24.9345801476
 30
0.0
 11
43.6715947715
 21
26.2651774289
 31
0.0
 11
43.6627970633
 21
26.2267213013
 31
0.0
 11
43.6227924807
 21
26.0414230006
 31
0.0
 11
43.5869617339
 21
25.8571749068
 31
0.0
 11
43.555263539
 21
25.6738516107
 31
0.0
 11
43.5273759708
 21
25.4891694898
 31
0.0
 11
43.5034398569
 21
25.3029408848
 31
0.0
 11
43.483847017
 21
25.1172694362
 31
0.0
 11
43.4688328548
 21
24.9345801476
 31
0.0
  0
SPLINE
  5
421
100
AcDbEntity
  8
0
100
AcDbSpline
 62
7
  6
CONTINUOUS
 70
0
 71
3
 72
10
 73
6
 74
4
 42
0.0000001
 43
0.0000001
 44
0.0000000001
 12
-0.7285342263
 22
-0.2595778186
 32
0.0
 13
-0.743418329
 23
0.2033580644
 33
0.0
 40
0.0
 40
0.0
 40
0.0
 40
0.0
 40
0.1768844456
 40
0.5731463157
 40
1.0
 40
1.0
 40
1.0
 40
1.0
 10
44.6218243202
 20
22.2911496394
 30
0.0
 10
44.5788688626
 20
22.2758445465
 30
0.0
 10
44.4364689947
 20
22.2352519244
 30
0.0
 10
44.1774079087
 20
22.2163596262
 30
0.0
 10
43.9669864409
 20
22.2524532908
 30
0.0
 10
43.8612094901
 20
22.2813880038
 30
0.0
 11
44.6218243202
 21
22.2911496394
 31
0.0
 11
44.490394852
 21
22.2536241186
 31
0.0
 11
44.1859856403
 21
22.228906761
 31
0.0
 11
43.8612094901
 21
22.2813880038
 31
0.0
  0
SPLINE
  5
422
100
AcDbEntity
  8
0
100
AcDbSpline
 62
7
  6
CONTINUOUS
 70
0
 71
3
 72
14
 73
10
 74
8
 42
0.0000001
 43
0.0000001
 44
0.0000000001
 12
1.3082794452
 22
-0.4779137831
 32
0.0
 13
0.6759734892
 23
-1.2162024421
 33
0.0
 40
0.0
 40
0.0
 40
0.0
 40
0.0
 40
0.0254121553
 40
0.2105489317
 40
0.3923272484
 40
0.5665291033
 40
0.7286538613
 40
0.874392163
 40
1.0
 40
1.0
 40
1.0
 40
1.0
 10
63.4032917388
 20
36.0877721889
 30
0.0
 10
63.4143738056
 20
36.0837239158
 30
0.0
 10
63.5058240121
 20
36.0491801971
 30
0.0
 10
63.670295143
 20
35.9698304366
 30
0.0
 10
63.88023477
 20
35.8311030098
 30
0.0
 10
64.0640376138
 20
35.6755200831
 30
0.0
 10
64.2184994278
 20
35.5133010139
 30
0.0
 10
64.3420066891
 20
35.3542710378
 30
0.0
 10
64.4092585938
 20
35.247601206
 30
0.0
 10
64.4375611164
 20
35.1966796866
 30
0.0
 11
63.4032917388
 21
36.0877721889
 31
0.0
 11
63.4364025466
 21
36.0752682933
 31
0.0
 11
63.6687843335
 21
35.9640956724
 31
0.0
 11
63.8800911362
 21
35.8250838066
 31
0.0
 11
64.0652233762
 21
35.668625663
 31
0.0
 11
64.2207198336
 21
35.5051941813
 31
0.0
 11
64.3448398791
 21
35.344831897
 31
0.0
 11
64.4375611164
 21
35.1966796866
 31
0.0
  0
SPLINE
  5
423
100
AcDbEntity
  8
0
100
AcDbSpline
 62
7
  6
CONTINUOUS
 70
0
 71
3
 72
12
 73
8
 74
6
 42
0.0000001
 43
0.0000001
 44
0.0000000001
 12
-0.4846905088
 22
0.3399843163
 32
0.0
 13
-0.4301881365
 23
0.4067583948
 33
0.0
 40
0.0
 40
0.0
 40
0.0
 40
0.0
 40
0.2112889118
 40
0.4160796887
 40
0.6146197839
 40
0.8089140402
 40
1.0
 40
1.0
 40
1.0
 40
1.0
 10
42.3832515548
 20
24.7056120174
 30
0.0
 10
42.3491149781
 20
24.7295569895
 30
0.0
 10
42.2825150765
 20
24.7776076937
 30
0.0
 10
42.1861455898
 20
24.8512878268
 30
0.0
 10
42.0945195149
 20
24.9255739904
 30
0.0
 10
42.0071692786
 20
25.0007592759
 30
0.0
 10
41.951062092
 20
25.0521247551
 30
0.0
 10
41.923661121
 20
25.0780333612
 30
0.0
 11
42.3832515548
 21
24.7056120174
 31
0.0
 11
42.2818257998
 21
24.7788296672
 31
0.0
 11
42.1855271957
 21
24.8524970742
 31
0.0
 11
42.0942422568
 21
24.9265490087
 31
0.0
 11
42.0070815132
 21
25.0016156938
 31
0.0
 11
41.923661121
 21
25.0780333612
 31
0.0
  0
SPLINE
  5
424
100
AcDbEntity
  8
0
100
AcDbSpline
 62
7
  6
CONTINUOUS
 70
0
 71
3
 72
18
 73
14
 74
12
 42
0.0000001
 43
0.0000001
 44
0.0000000001
 12
-0.6956974515
 22
1.5433411025
 32
0.0
 13
-0.1278471795
 23
1.6880615514
 33
0.0
 40
0.0
 40
0.0
 40
0.0
 40
0.0
 40
0.0832064168
 40
0.1673706447
 40
0.2528685759
 40
0.3400867613
 40
0.4291060942
 40
0.5192954576
 40
0.610797256
 40
0.7048699557
 40
0.8017738049
 40
0.9005573899
 40
1.0
 40
1.0
 40
1.0
 40
1.0
 10
43.1541027089
 20
22.6349413944
 30
0.0
 10
43.1348072115
 20
22.6777466887
 30
0.0
 10
43.0975883525
 20
22.7645778527
 30
0.0
 10
43.0460739459
 20
22.8976776454
 30
0.0
 10
42.9984423306
 20
23.0346158057
 30
0.0
 10
42.9546235496
 20
23.1756911771
 30
0.0
 10
42.9147425017
 20
23.3206767016
 30
0.0
 10
42.8789223187
 20
23.469204845
 30
0.0
 10
42.8471085391
 20
23.6215556188
 30
0.0
 10
42.8192260597
 20
23.7785241403
 30
0.0
 10
42.7954001238
 20
23.9403142208
 30
0.0
 10
42.7759199373
 20
24.1057344243
 30
0.0
 10
42.7659638927
 20
24.2171660318
 30
0.0
 10
42.7617260736
 20
24.2731211141
 30
0.0
 11
43.1541027089
 21
22.6349413944
 31
0.0
 11
43.0985729613
 21
22.7643938262
 31
0.0
 11
43.0471095603
 21
22.8972562878
 31
0.0
 11
42.9995234218
 21
23.0339492537
 31
0.0
 11
42.9556902821
 21
23.174944169
 31
0.0
 11
42.9156856995
 21
23.320237887
 31
0.0
 11
42.8798549527
 21
23.468655234
 31
0.0
 11
42.8481567578
 21
23.6202803352
 31
0.0
 11
42.8202691896
 21
23.7770748878
 31
0.0
 11
42.7963330757
 21
23.939367379
 31
0.0
 11
42.7767402358
 21
24.1054459878
 31
0.0
 11
42.7617260736
 21
24.2731211141
 31
0.0
  0
SPLINE
  5
425
100
AcDbEntity
  8
0
100
AcDbSpline
 62
7
  6
CONTINUOUS
 70
0
 71
3
 72
16
 73
12
 74
10
 42
0.0000001
 43
0.0000001
 44
0.0000000001
 12
0.110616467
 22
1.5711680843
 32
0.0
 13
0.3910084721
 23
1.5257781274
 33
0.0
 40
0.0
 40
0.0
 40
0.0
 40
0.0
 40
0.1163872881
 40
0.234934946
 40
0.3541523748
 40
0.4727378525
 40
0.5908528029
 40
0.7100196374
 40
0.8303732501
 40
0.9509710342
 40
1.0
 40
1.0
 40
1.0
 40
1.0
 10
42.7617260736
 20
25.2881335382
 30
0.0
 10
42.7660175238
 20
25.3490882024
 30
0.0
 10
42.7761372482
 20
25.4720309554
 30
0.0
 10
42.795674042
 20
25.6569540904
 30
0.0
 10
42.8195480428
 20
25.8425314714
 30
0.0
 10
42.8474701614
 20
26.0273119401
 30
0.0
 10
42.8793232194
 20
26.2114277215
 30
0.0
 10
42.9151849753
 20
26.3957502864
 30
0.0
 10
42.9551017878
 20
26.5805709768
 30
0.0
 10
42.9902461751
 20
26.7287147114
 30
0.0
 10
43.0120096087
 20
26.8150740812
 30
0.0
 10
43.0183998557
 20
26.8400098557
 30
0.0
 11
42.7617260736
 21
25.2881335382
 31
0.0
 11
42.7767413033
 21
25.4708341992
 31
0.0
 11
42.7963363808
 21
25.6565225005
 31
0.0
 11
42.8202750247
 21
25.8427645934
 31
0.0
 11
42.8481639919
 21
26.0274496402
 31
0.0
 11
42.879862083
 21
26.21076711
 31
0.0
 11
42.9156925888
 21
26.3950099662
 31
0.0
 11
42.955697049
 21
26.5803045589
 31
0.0
 11
42.9995292938
 21
26.7651264506
 31
0.0
 11
43.0183998557
 21
26.8400098557
 31
0.0
  0
SPLINE
  5
426
100
AcDbEntity
  8
0
100
AcDbSpline
 62
7
  6
CONTINUOUS
 70
0
 71
3
 72
12
 73
8
 74
6
 42
0.0000001
 43
0.0000001
 44
0.0000000001
 12
-0.7538005872
 22
0.1993050875
 32
0.0
 13
-0.7344507813
 23
0.2617630475
 33
0.0
 40
0.0
 40
0.0
 40
0.0
 40
0.0
 40
0.2031922224
 40
0.4037019467
 40
0.6024734814
 40
0.8012652599
 40
1.0
 40
1.0
 40
1.0
 40
1.0
 10
44.6698627076
 20
23.704932568
 30
0.0
 10
44.6188072354
 20
23.7184316492
 30
0.0
 10
44.5175790719
 20
23.7460490576
 30
0.0
 10
44.3671928286
 20
23.7896889941
 30
0.0
 10
44.2186357613
 20
23.8354563363
 30
0.0
 10
44.0713123973
 20
23.8835855895
 30
0.0
 10
43.9736736483
 20
23.9173873144
 30
0.0
 10
43.9250200199
 20
23.9347277848
 30
0.0
 11
44.6698627076
 21
23.704932568
 31
0.0
 11
44.5170225184
 21
23.7466441308
 31
0.0
 11
44.3668819814
 21
23.7902267319
 31
0.0
 11
44.2187729217
 21
23.8358710677
 31
0.0
 11
44.0714422125
 21
23.8840193168
 31
0.0
 11
43.9250200199
 21
23.9347277848
 31
0.0
  0
SPLINE
  5
427
100
AcDbEntity
  8
0
100
AcDbSpline
 62
7
  6
CONTINUOUS
 70
0
 71
3
 72
8
 73
4
 74
2
 42
0.0000001
 43
0.0000001
 44
0.0000000001
 12
0.0
 22
-0.1186644424
 32
0.0
 13
-0.01456585
 23
-0.1179446416
 33
0.0
 40
0.0
 40
0.0
 40
0.0
 40
0.0
 40
1.0
 40
1.0
 40
1.0
 40
1.0
 10
64.4279663162
 20
34.5530872757
 30
0.0
 10
64.4279663162
 20
34.5135324615
 30
0.0
 10
64.4257692996
 20
34.4738988905
 30
0.0
 10
64.4209140163
 20
34.4345840099
 30
0.0
 11
64.4279663162
 21
34.5530872757
 31
0.0
 11
64.4209140163
 21
34.4345840099
 31
0.0
  0
SPLINE
  5
428
100
AcDbEntity
  8
0
100
AcDbSpline
 62
7
  6
CONTINUOUS
 70
0
 71
3
 72
10
 73
6
 74
4
 42
0.0000001
 43
0.0000001
 44
0.0000000001
 12
0.5518436653
 22
-0.3357149291
 32
0.0
 13
0.4210028359
 23
-0.4898903518
 33
0.0
 40
0.0
 40
0.0
 40
0.0
 40
0.0
 40
0.3534105167
 40
0.6910610321
 40
1.0
 40
1.0
 40
1.0
 40
1.0
 10
63.9473713992
 20
35.6137740095
 30
0.0
 10
64.0123805175
 20
35.574225614
 30
0.0
 10
64.1350447716
 20
35.4893216416
 30
0.0
 10
64.298186693
 20
35.3482882308
 30
0.0
 10
64.3942063892
 20
35.2471284265
 30
0.0
 10
64.4375611164
 20
35.1966796866
 30
0.0
 11
63.9473713992
 21
35.6137740095
 31
0.0
 11
64.1352469431
 21
35.4841008455
 31
0.0
 11
64.3002893748
 21
35.3415204215
 31
0.0
 11
64.4375611164
 21
35.1966796866
 31
0.0
  0
SPLINE
  5
429
100
AcDbEntity
  8
0
100
AcDbSpline
 62
7
  6
CONTINUOUS
 70
0
 71
3
 72
9
 73
5
 74
3
 42
0.0000001
 43
0.0000001
 44
0.0000000001
 12
0.1283787156
 22
-0.0829485079
 32
0.0
 13
0.1302838867
 23
-0.0799228282
 33
0.0
 40
0.0
 40
0.0
 40
0.0
 40
0.0
 40
0.5226635613
 40
1.0
 40
1.0
 40
1.0
 40
1.0
 10
64.4375611164
 20
35.1966796866
 30
0.0
 10
64.4599274087
 20
35.1822282991
 30
0.0
 10
64.5027383744
 20
35.1546071764
 30
0.0
 10
64.5458439186
 20
35.1274417532
 30
0.0
 10
64.5665736675
 20
35.1147250605
 30
0.0
 11
64.4375611164
 21
35.1966796866
 31
0.0
 11
64.5047593444
 21
35.1534796771
 31
0.0
 11
64.5665736675
 21
35.1147250605
 31
0.0
  0
SPLINE
  5
42A
100
AcDbEntity
  8
0
100
AcDbSpline
 62
7
  6
CONTINUOUS
 70
0
 71
3
 72
11
 73
7
 74
5
 42
0.0000001
 43
0.0000001
 44
0.0000000001
 12
0.8584517474
 22
0.2548171573
 32
0.0
 13
0.8276262563
 23
-0.3393985685
 33
0.0
 40
0.0
 40
0.0
 40
0.0
 40
0.0
 40
0.2013878671
 40
0.462891814
 40
0.7286648827
 40
1.0
 40
1.0
 40
1.0
 40
1.0
 10
63.0713470484
 20
35.6817147094
 30
0.0
 10
63.1289743039
 20
35.698820404
 30
0.0
 10
63.2649581971
 20
35.7271442951
 30
0.0
 10
63.4834532182
 20
35.732403064
 30
0.0
 10
63.719745578
 20
35.694836617
 30
0.0
 10
63.8725167101
 20
35.6444709263
 30
0.0
 10
63.9473713992
 20
35.6137740095
 30
0.0
 11
63.0713470484
 21
35.6817147094
 31
0.0
 11
63.2478311374
 21
35.7187369996
 31
0.0
 11
63.4816571846
 21
35.725335527
 31
0.0
 11
63.7165946113
 21
35.6889524692
 31
0.0
 11
63.9473713992
 21
35.6137740095
 31
0.0
  0
SPLINE
  5
42B
100
AcDbEntity
  8
0
100
AcDbSpline
 62
7
  6
CONTINUOUS
 70
0
 71
3
 72
14
 73
10
 74
8
 42
0.0000001
 43
0.0000001
 44
0.0000000001
 12
0.0
 22
1.1946006046
 32
0.0
 13
-0.8817073386
 23
0.8060166088
 33
0.0
 40
0.0
 40
0.0
 40
0.0
 40
0.0
 40
0.1332233404
 40
0.2740144691
 40
0.4200159045
 40
0.5684890876
 40
0.7165250722
 40
0.8612446014
 40
1.0
 40
1.0
 40
1.0
 40
1.0
 10
64.4279663162
 20
34.5530872757
 30
0.0
 10
64.4279663162
 20
34.6061368367
 30
0.0
 10
64.4198254954
 20
34.7153463621
 30
0.0
 10
64.3863797808
 20
34.8795986561
 30
0.0
 10
64.3323584157
 20
35.0446785001
 30
0.0
 10
64.2594344227
 20
35.2054627684
 30
0.0
 10
64.1698488007
 20
35.3570182318
 30
0.0
 10
64.0663892127
 20
35.4946404896
 30
0.0
 10
63.9881519503
 20
35.5764942909
 30
0.0
 10
63.9473713992
 20
35.6137740095
 30
0.0
 11
64.4279663162
 21
34.5530872757
 31
0.0
 11
64.4168169014
 21
34.7118449333
 31
0.0
 11
64.3837202573
 21
34.8767455343
 31
0.0
 11
64.3297200966
 21
35.0425888874
 31
0.0
 11
64.256519331
 21
35.2041450716
 31
0.0
 11
64.1664263692
 21
35.3563193629
 31
0.0
 11
64.0622823204
 21
35.4943128984
 31
0.0
 11
63.9473713992
 21
35.6137740095
 31
0.0
  0
SPLINE
  5
42C
100
AcDbEntity
  8
0
100
AcDbSpline
 62
7
  6
CONTINUOUS
 70
0
 71
3
 72
12
 73
8
 74
6
 42
0.0000001
 43
0.0000001
 44
0.0000000001
 12
1.3918914555
 22
-0.8180251531
 32
0.0
 13
0.5844545958
 23
-1.5047674948
 33
0.0
 40
0.0
 40
0.0
 40
0.0
 40
0.0
 40
0.1602927231
 40
0.3850486404
 40
0.6082445532
 40
0.8225943418
 40
1.0
 40
1.0
 40
1.0
 40
1.0
 10
63.1575538028
 20
35.5265832437
 30
0.0
 10
63.2319238267
 20
35.4828754173
 30
0.0
 10
63.4040401038
 20
35.366808193
 30
0.0
 10
63.649592058
 20
35.1491632972
 30
0.0
 10
63.8814007992
 20
34.8774833134
 30
0.0
 10
64.0609719597
 20
34.5987262107
 30
0.0
 10
64.1512168733
 20
34.4077539565
 30
0.0
 10
64.1857787241
 20
34.3187692005
 30
0.0
 11
63.1575538028
 21
35.5265832437
 31
0.0
 11
63.3723362641
 21
35.3824768831
 31
0.0
 11
63.6441659967
 21
35.1426980997
 31
0.0
 11
63.8778938888
 21
34.8689481938
 31
0.0
 11
64.0645297259
 21
34.5779709016
 31
0.0
 11
64.1857787241
 21
34.3187692005
 31
0.0
  0
SPLINE
  5
42D
100
AcDbEntity
  8
0
100
AcDbSpline
 62
7
  6
CONTINUOUS
 70
0
 71
3
 72
9
 73
5
 74
3
 42
0.0000001
 43
0.0000001
 44
0.0000000001
 12
0.0
 22
1.0531625077
 32
0.0
 13
-0.2848675
 23
1.0154254249
 33
0.0
 40
0.0
 40
0.0
 40
0.0
 40
0.0
 40
0.7403191824
 40
1.0
 40
1.0
 40
1.0
 40
1.0
 10
-82.4280616299
 20
86.9900803538
 30
0.0
 10
-82.4280616299
 20
87.2499724894
 30
0.0
 10
-82.4704761264
 20
87.6015634075
 30
0.0
 10
-82.5550891435
 20
87.9430383387
 30
0.0
 10
-82.579747352
 20
88.0309338402
 30
0.0
 11
-82.4280616299
 21
86.9900803538
 31
0.0
 11
-82.513990009
 21
87.7650071973
 31
0.0
 11
-82.579747352
 21
88.0309338402
 31
0.0
  0
SPLINE
  5
42E
100
AcDbEntity
  8
0
100
AcDbSpline
 62
7
  6
CONTINUOUS
 70
0
 71
3
 72
10
 73
6
 74
4
 42
0.0000001
 43
0.0000001
 44
0.0000000001
 12
-0.4138066144
 22
1.4750357879
 32
0.0
 13
-0.8567334925
 23
1.2702192752
 33
0.0
 40
0.0
 40
0.0
 40
0.0
 40
0.0
 40
0.3680589131
 40
0.9260601688
 40
1.0
 40
1.0
 40
1.0
 40
1.0
 10
-82.579747352
 20
88.0309338402
 30
0.0
 10
-82.6305157562
 20
88.2119005298
 30
0.0
 10
-82.7868983997
 20
88.6589161104
 30
0.0
 10
-83.0240637844
 20
89.1132726276
 30
0.0
 10
-83.2013164135
 20
89.383009675
 30
0.0
 10
-83.2224319901
 20
89.4143162746
 30
0.0
 11
-82.579747352
 21
88.0309338402
 31
0.0
 11
-82.7648137401
 21
88.5630824557
 31
0.0
 11
-83.1602125763
 21
89.3196508179
 31
0.0
 11
-83.2224319901
 21
89.4143162746
 31
0.0
  0
SPLINE
  5
42F
100
AcDbEntity
  8
0
100
AcDbSpline
 62
7
  6
CONTINUOUS
 70
0
 71
3
 72
12
 73
8
 74
6
 42
0.0000001
 43
0.0000001
 44
0.0000000001
 12
-1.7965723982
 22
2.4670150761
 32
0.0
 13
-2.7455331504
 23
-1.3651322362
 33
0.0
 40
0.0
 40
0.0
 40
0.0
 40
0.0
 40
0.1798060516
 40
0.4304919956
 40
0.6520057017
 40
0.8439720686
 40
1.0
 40
1.0
 40
1.0
 40
1.0
 10
-83.3183166984
 20
89.5511243116
 30
0.0
 10
-83.4259948948
 20
89.6989857249
 30
0.0
 10
-83.7050569014
 20
90.0374332564
 30
0.0
 10
-84.2062300029
 20
90.478071293
 30
0.0
 10
-84.8107358587
 20
90.7953681252
 30
0.0
 10
-85.3945850857
 20
90.8938901249
 30
0.0
 10
-85.7486536526
 20
90.8047028381
 30
0.0
 10
-85.8914469386
 20
90.7337032518
 30
0.0
 11
-83.3183166984
 21
89.5511243116
 31
0.0
 11
-83.6681536553
 21
89.9734196148
 31
0.0
 11
-84.2474866118
 21
90.4714243865
 31
0.0
 11
-84.851277335
 21
90.7733197481
 31
0.0
 11
-85.4306102915
 21
90.8546479329
 31
0.0
 11
-85.8914469386
 21
90.7337032518
 31
0.0
  0
SPLINE
  5
430
100
AcDbEntity
  8
0
100
AcDbSpline
 62
7
  6
CONTINUOUS
 70
0
 71
3
 72
11
 73
7
 74
5
 42
0.0000001
 43
0.0000001
 44
0.0000000001
 12
0.0
 22
-1.8848198536
 32
0.0
 13
-1.6980704337
 23
-0.8443134945
 33
0.0
 40
0.0
 40
0.0
 40
0.0
 40
0.0
 40
0.3683832505
 40
0.6877739873
 40
0.9718976198
 40
1.0
 40
1.0
 40
1.0
 40
1.0
 10
44.8511589837
 20
23.3504700471
 30
0.0
 10
44.8511589837
 20
23.1190246923
 30
0.0
 10
44.8048083912
 20
22.6839540811
 30
0.0
 10
44.5606256225
 20
22.1110661911
 30
0.0
 10
44.2623373408
 20
21.8282242586
 30
0.0
 10
44.0878102123
 20
21.7360765656
 30
0.0
 10
44.0719036053
 20
21.7281674927
 30
0.0
 11
44.8511589837
 21
23.3504700471
 31
0.0
 11
44.7652306046
 21
22.6614715827
 31
0.0
 11
44.5144068734
 21
22.1142200555
 31
0.0
 11
44.1190080373
 21
21.7530505294
 31
0.0
 11
44.0719036053
 21
21.7281674927
 31
0.0
  0
SPLINE
  5
431
100
AcDbEntity
  8
0
100
AcDbSpline
 62
7
  6
CONTINUOUS
 70
0
 71
3
 72
11
 73
7
 74
5
 42
0.0000001
 43
0.0000001
 44
0.0000000001
 12
0.0
 22
-1.8848198536
 32
0.0
 13
-1.6980704337
 23
-0.8443134945
 33
0.0
 40
0.0
 40
0.0
 40
0.0
 40
0.0
 40
0.3683832505
 40
0.6877739873
 40
0.9718976198
 40
1.0
 40
1.0
 40
1.0
 40
1.0
 10
-82.4280616299
 20
-33.3874507722
 30
0.0
 10
-82.4280616299
 20
-33.618896127
 30
0.0
 10
-82.4744122224
 20
-34.0539667382
 30
0.0
 10
-82.7185949911
 20
-34.6268546282
 30
0.0
 10
-83.0168832728
 20
-34.9096965607
 30
0.0
 10
-83.1914104013
 20
-35.0018442536
 30
0.0
 10
-83.2073170083
 20
-35.0097533266
 30
0.0
 11
-82.4280616299
 21
-33.3874507722
 31
0.0
 11
-82.513990009
 21
-34.0764492365
 31
0.0
 11
-82.7648137401
 21
-34.6237007638
 31
0.0
 11
-83.1602125763
 21
-34.9848702898
 31
0.0
 11
-83.2073170083
 21
-35.0097533266
 31
0.0
  0
SPLINE
  5
432
100
AcDbEntity
  8
0
100
AcDbSpline
 62
7
  6
CONTINUOUS
 70
0
 71
3
 72
9
 73
5
 74
3
 42
0.0000001
 43
0.0000001
 44
0.0000000001
 12
0.0
 22
1.0531625077
 32
0.0
 13
-0.2848675
 23
1.0154254249
 33
0.0
 40
0.0
 40
0.0
 40
0.0
 40
0.0
 40
0.7403191824
 40
1.0
 40
1.0
 40
1.0
 40
1.0
 10
44.8511589837
 20
-97.027061079
 30
0.0
 10
44.8511589837
 20
-96.7671689434
 30
0.0
 10
44.8087444872
 20
-96.4155780253
 30
0.0
 10
44.72413147
 20
-96.0741030941
 30
0.0
 10
44.6994732616
 20
-95.9862075926
 30
0.0
 11
44.8511589837
 21
-97.027061079
 31
0.0
 11
44.7652306046
 21
-96.2521342355
 31
0.0
 11
44.6994732616
 21
-95.9862075926
 31
0.0
  0
SPLINE
  5
433
100
AcDbEntity
  8
0
100
AcDbSpline
 62
7
  6
CONTINUOUS
 70
0
 71
3
 72
10
 73
6
 74
4
 42
0.0000001
 43
0.0000001
 44
0.0000000001
 12
-0.4138066144
 22
1.4750357879
 32
0.0
 13
-0.8567334925
 23
1.2702192752
 33
0.0
 40
0.0
 40
0.0
 40
0.0
 40
0.0
 40
0.3680589131
 40
0.9260601688
 40
1.0
 40
1.0
 40
1.0
 40
1.0
 10
44.6994732616
 20
-95.9862075926
 30
0.0
 10
44.6487048574
 20
-95.805240903
 30
0.0
 10
44.4923222139
 20
-95.3582253224
 30
0.0
 10
44.2551568291
 20
-94.9038688053
 30
0.0
 10
44.0779042
 20
-94.6341317579
 30
0.0
 10
44.0567886234
 20
-94.6028251582
 30
0.0
 11
44.6994732616
 21
-95.9862075926
 31
0.0
 11
44.5144068734
 21
-95.4540589771
 31
0.0
 11
44.1190080373
 21
-94.6974906149
 31
0.0
 11
44.0567886234
 21
-94.6028251582
 31
0.0
  0
SPLINE
  5
434
100
AcDbEntity
  8
0
100
AcDbSpline
 62
7
  6
CONTINUOUS
 70
0
 71
3
 72
12
 73
8
 74
6
 42
0.0000001
 43
0.0000001
 44
0.0000000001
 12
-1.7965723982
 22
2.4670150761
 32
0.0
 13
-2.7455331504
 23
-1.3651322362
 33
0.0
 40
0.0
 40
0.0
 40
0.0
 40
0.0
 40
0.1798060516
 40
0.4304919956
 40
0.6520057017
 40
0.8439720686
 40
1.0
 40
1.0
 40
1.0
 40
1.0
 10
43.9609039152
 20
-94.4660171213
 30
0.0
 10
43.8532257187
 20
-94.3181557079
 30
0.0
 10
43.5741637122
 20
-93.9797081764
 30
0.0
 10
43.0729906106
 20
-93.5390701398
 30
0.0
 10
42.4684847549
 20
-93.2217733076
 30
0.0
 10
41.8846355279
 20
-93.1232513079
 30
0.0
 10
41.530566961
 20
-93.2124385947
 30
0.0
 10
41.387773675
 20
-93.283438181
 30
0.0
 11
43.9609039152
 21
-94.4660171213
 31
0.0
 11
43.6110669583
 21
-94.043721818
 31
0.0
 11
43.0317340018
 21
-93.5457170464
 31
0.0
 11
42.4279432785
 21
-93.2438216848
 31
0.0
 11
41.8486103221
 21
-93.1624934999
 31
0.0
 11
41.387773675
 21
-93.283438181
 31
0.0
  0
SPLINE
  5
435
100
AcDbEntity
  8
0
100
AcDbSpline
 62
7
  6
CONTINUOUS
 70
0
 71
3
 72
14
 73
10
 74
8
 42
0.0000001
 43
0.0000001
 44
0.0000000001
 12
0.0
 22
14.7133219561
 32
0.0
 13
-13.1599952275
 23
6.5799976137
 33
0.0
 40
0.0
 40
0.0
 40
0.0
 40
0.0
 40
0.1375292621
 40
0.2840848061
 40
0.4355534719
 40
0.5872669423
 40
0.7345302724
 40
0.8731477684
 40
1.0
 40
1.0
 40
1.0
 40
1.0
 10
60.9024829166
 20
28.0155707712
 30
0.0
 10
60.9024829166
 20
28.6900748753
 30
0.0
 10
60.7707340675
 20
30.085020163
 30
0.0
 10
60.2434554407
 20
32.1622537507
 30
0.0
 10
59.4046114444
 20
34.2099098353
 30
0.0
 10
58.2949799926
 20
36.1280343534
 30
0.0
 10
56.9676810453
 20
37.8243811838
 30
0.0
 10
55.4871653067
 20
39.2166016035
 30
0.0
 10
54.387873359
 20
39.9331295879
 30
0.0
 10
53.8314151048
 20
40.211358715
 30
0.0
 11
60.9024829166
 21
28.0155707712
 31
0.0
 11
60.7251964835
 21
30.0313018046
 31
0.0
 11
60.2022270661
 21
32.1232421001
 31
0.0
 11
59.3597985348
 21
34.1864930362
 31
0.0
 11
58.2401537737
 21
36.1175945956
 31
0.0
 11
56.8994364465
 21
37.8197132825
 31
0.0
 11
55.4048757183
 21
39.2074977584
 31
0.0
 11
53.8314151048
 21
40.211358715
 31
0.0
  0
SPLINE
  5
436
100
AcDbEntity
  8
0
100
AcDbSpline
 62
7
  6
CONTINUOUS
 70
0
 71
3
 72
11
 73
7
 74
5
 42
0.0000001
 43
0.0000001
 44
0.0000000001
 12
-4.1412572325
 22
2.0706286162
 32
0.0
 13
-4.1588376331
 23
-2.0820439822
 33
0.0
 40
0.0
 40
0.0
 40
0.0
 40
0.0
 40
0.3614173717
 40
0.6850347852
 40
0.9849381792
 40
1.0
 40
1.0
 40
1.0
 40
1.0
 10
-87.5899411325
 20
110.9220368336
 30
0.0
 10
-88.0888485674
 20
111.1714905511
 30
0.0
 10
-89.0888819508
 20
111.5499725251
 30
0.0
 10
-90.6266130304
 20
111.6849459179
 30
0.0
 10
-91.602025703
 20
111.4311072674
 30
0.0
 10
-92.0407354495
 20
111.2167101716
 30
0.0
 10
-92.0616153385
 20
111.2062570471
 30
0.0
 11
-87.5899411325
 21
110.9220368336
 31
0.0
 11
-89.1634017461
 21
111.4916364906
 31
0.0
 11
-90.6579624743
 21
111.5984127429
 31
0.0
 11
-91.9986798015
 21
111.2370113832
 31
0.0
 11
-92.0616153385
 21
111.2062570471
 31
0.0
  0
SPLINE
  5
437
100
AcDbEntity
  8
RACCORDO
100
AcDbSpline
 62
7
  6
CONTINUOUS
 70
0
 71
3
 72
11
 73
7
 74
5
 42
0.0000001
 43
0.0000001
 44
0.0000000001
 12
4.9738161427
 22
-2.4869080713
 32
0.0
 13
4.9738161426
 23
2.4869080713
 33
0.0
 40
0.0
 40
0.0
 40
0.0
 40
0.0
 40
0.2812331705
 40
0.5375775944
 40
0.7739321311
 40
1.0
 40
1.0
 40
1.0
 40
1.0
 10
50.3206928234
 20
-116.1721396821
 30
0.0
 10
50.7869601845
 20
-116.4052733626
 30
0.0
 10
51.7230898682
 20
-116.770140759
 30
0.0
 10
53.1533492319
 20
-116.9898609726
 30
0.0
 10
54.4935140706
 20
-116.8737631109
 30
0.0
 10
55.3124492974
 20
-116.5867573158
 30
0.0
 10
55.6872559694
 20
-116.3993539798
 30
0.0
 11
50.3206928234
 21
-116.1721396821
 31
0.0
 11
51.7821228912
 21
-116.7289441741
 31
0.0
 11
53.1924908549
 21
-116.9361287287
 31
0.0
 11
54.5013906044
 21
-116.8166354209
 31
0.0
 11
55.6872559694
 21
-116.3993539798
 31
0.0
  0
SPLINE
  5
438
100
AcDbEntity
  8
RACCORDO
100
AcDbSpline
 62
7
  6
CONTINUOUS
 70
0
 71
3
 72
12
 73
8
 74
6
 42
0.0000001
 43
0.0000001
 44
0.0000000001
 12
-6.4877358447
 22
-3.2438679223
 32
0.0
 13
0.0
 23
-7.2535091846
 33
0.0
 40
0.0
 40
0.0
 40
0.0
 40
0.0
 40
0.1728513509
 40
0.3544696935
 40
0.5518145041
 40
0.7678644433
 40
1.0
 40
1.0
 40
1.0
 40
1.0
 10
-94.6783721779
 20
109.8979071606
 30
0.0
 10
-95.052176813
 20
109.711004843
 30
0.0
 10
-95.773168668
 20
109.2283838805
 30
0.0
 10
-96.6717718487
 20
108.2248728554
 30
0.0
 10
-97.3556256655
 20
106.9442957996
 30
0.0
 10
-97.776307359
 20
105.4301355868
 30
0.0
 10
-97.8630904724
 20
104.3433281728
 30
0.0
 10
-97.8630904724
 20
103.7820623753
 30
0.0
 11
-94.6783721779
 21
109.8979071606
 31
0.0
 11
-95.7211535529
 21
109.2017976593
 31
0.0
 11
-96.6044571375
 21
108.2244342022
 31
0.0
 11
-97.287247584
 21
106.9663306536
 31
0.0
 11
-97.7181194961
 21
105.4596073299
 31
0.0
 11
-97.8630904724
 21
103.7820623753
 31
0.0
  0
SPLINE
  5
439
100
AcDbEntity
  8
RACCORDO
100
AcDbSpline
 62
7
  6
CONTINUOUS
 70
0
 71
3
 72
14
 73
10
 74
8
 42
0.0000001
 43
0.0000001
 44
0.0000000001
 12
0.8307734739
 22
-11.9841748045
 32
0.0
 13
9.9409635967
 23
-6.7687056077
 33
0.0
 40
0.0
 40
0.0
 40
0.0
 40
0.0
 40
0.1007503192
 40
0.2704850908
 40
0.4428142418
 40
0.6149543518
 40
0.7841191859
 40
0.9474937626
 40
1.0
 40
1.0
 40
1.0
 40
1.0
 10
-97.8365685961
 20
-34.6723665512
 30
0.0
 10
-97.8086683652
 20
-35.0748363634
 30
0.0
 10
-97.6761889815
 20
-36.1522649988
 30
0.0
 10
-97.2381226688
 20
-37.8744765864
 30
0.0
 10
-96.4528823864
 20
-39.7825668152
 30
0.0
 10
-95.4168016048
 20
-41.5639377011
 30
0.0
 10
-94.1632989192
 20
-43.1555078744
 30
0.0
 10
-93.0321197815
 20
-44.2099192636
 30
0.0
 10
-92.3320747703
 20
-44.7198729156
 30
0.0
 10
-92.1580872387
 20
-44.8383393368
 30
0.0
 11
-97.8365685961
 21
-34.6723665512
 31
0.0
 11
-97.6912317572
 21
-35.8739473392
 31
0.0
 11
-97.1953919663
 21
-37.849354437
 31
0.0
 11
-96.4103448303
 21
-39.7623538404
 31
0.0
 11
-95.3702894154
 21
-41.5469475061
 31
0.0
 11
-94.1098465742
 21
-43.1380364082
 31
0.0
 11
-92.6687082785
 21
-44.467008111
 31
0.0
 11
-92.1580872387
 21
-44.8383393368
 31
0.0
  0
SPLINE
  5
43A
100
AcDbEntity
  8
0
100
AcDbSpline
 62
7
  6
CONTINUOUS
 70
0
 71
3
 72
11
 73
7
 74
5
 42
0.0000001
 43
0.0000001
 44
0.0000000001
 12
1.6980704337
 22
0.8443134945
 32
0.0
 13
0.0
 23
1.8848198536
 33
0.0
 40
0.0
 40
0.0
 40
0.0
 40
0.0
 40
0.0281023802
 40
0.3122260127
 40
0.6316167495
 40
1.0
 40
1.0
 40
1.0
 40
1.0
 10
44.0719036053
 20
-98.6493636334
 30
0.0
 10
44.0878102123
 20
-98.6414545604
 30
0.0
 10
44.2623373408
 20
-98.5493068675
 30
0.0
 10
44.5606256225
 20
-98.266464935
 30
0.0
 10
44.8048083912
 20
-97.693577045
 30
0.0
 10
44.8511589837
 20
-97.2585064337
 30
0.0
 10
44.8511589837
 20
-97.027061079
 30
0.0
 11
44.0719036053
 21
-98.6493636334
 31
0.0
 11
44.1190080373
 21
-98.6244805966
 31
0.0
 11
44.5144068734
 21
-98.2633110706
 31
0.0
 11
44.7652306046
 21
-97.7160595433
 31
0.0
 11
44.8511589837
 21
-97.027061079
 31
0.0
  0
SPLINE
  5
43B
100
AcDbEntity
  8
0
100
AcDbSpline
 62
7
  6
CONTINUOUS
 70
0
 71
3
 72
12
 73
8
 74
6
 42
0.0000001
 43
0.0000001
 44
0.0000000001
 12
2.7455331504
 22
1.3651322362
 32
0.0
 13
1.7965723982
 23
-2.4670150761
 33
0.0
 40
0.0
 40
0.0
 40
0.0
 40
0.0
 40
0.1560279314
 40
0.3479942983
 40
0.5695080044
 40
0.8201939484
 40
1.0
 40
1.0
 40
1.0
 40
1.0
 10
-85.8914469386
 20
-29.6438278742
 30
0.0
 10
-85.7486536526
 20
-29.572828288
 30
0.0
 10
-85.3945850857
 20
-29.4836410011
 30
0.0
 10
-84.8107358587
 20
-29.5821630009
 30
0.0
 10
-84.2062300029
 20
-29.899459833
 30
0.0
 10
-83.7050569014
 20
-30.3400978696
 30
0.0
 10
-83.4259948948
 20
-30.6785454011
 30
0.0
 10
-83.3183166984
 20
-30.8264068145
 30
0.0
 11
-85.8914469386
 21
-29.6438278742
 31
0.0
 11
-85.4306102915
 21
-29.5228831931
 31
0.0
 11
-84.851277335
 21
-29.604211378
 31
0.0
 11
-84.2474866118
 21
-29.9061067396
 31
0.0
 11
-83.6681536553
 21
-30.4041115112
 31
0.0
 11
-83.3183166984
 21
-30.8264068145
 31
0.0
  0
SPLINE
  5
43C
100
AcDbEntity
  8
0
100
AcDbSpline
 62
7
  6
CONTINUOUS
 70
0
 71
3
 72
10
 73
6
 74
4
 42
0.0000001
 43
0.0000001
 44
0.0000000001
 12
0.8567334925
 22
-1.2702192752
 32
0.0
 13
0.4138066144
 23
-1.4750357879
 33
0.0
 40
0.0
 40
0.0
 40
0.0
 40
0.0
 40
0.0739398312
 40
0.6319410869
 40
1.0
 40
1.0
 40
1.0
 40
1.0
 10
-83.2224319901
 20
-30.9632148515
 30
0.0
 10
-83.2013164135
 20
-30.9945214511
 30
0.0
 10
-83.0240637844
 20
-31.2642584985
 30
0.0
 10
-82.7868983997
 20
-31.7186150157
 30
0.0
 10
-82.6305157562
 20
-32.1656305962
 30
0.0
 10
-82.579747352
 20
-32.3465972858
 30
0.0
 11
-83.2224319901
 21
-30.9632148515
 31
0.0
 11
-83.1602125763
 21
-31.0578803081
 31
0.0
 11
-82.7648137401
 21
-31.8144486703
 31
0.0
 11
-82.579747352
 21
-32.3465972858
 31
0.0
  0
SPLINE
  5
43D
100
AcDbEntity
  8
0
100
AcDbSpline
 62
7
  6
CONTINUOUS
 70
0
 71
3
 72
9
 73
5
 74
3
 42
0.0000001
 43
0.0000001
 44
0.0000000001
 12
0.2848675
 22
-1.0154254249
 32
0.0
 13
0.0
 23
-1.0531625077
 33
0.0
 40
0.0
 40
0.0
 40
0.0
 40
0.0
 40
0.2596808176
 40
1.0
 40
1.0
 40
1.0
 40
1.0
 10
-82.579747352
 20
-32.3465972858
 30
0.0
 10
-82.5550891435
 20
-32.4344927873
 30
0.0
 10
-82.4704761264
 20
-32.7759677185
 30
0.0
 10
-82.4280616299
 20
-33.1275586367
 30
0.0
 10
-82.4280616299
 20
-33.3874507722
 30
0.0
 11
-82.579747352
 21
-32.3465972858
 31
0.0
 11
-82.513990009
 21
-32.6125239287
 31
0.0
 11
-82.4280616299
 21
-33.3874507722
 31
0.0
  0
SPLINE
  5
43E
100
AcDbEntity
  8
0
100
AcDbSpline
 62
7
  6
CONTINUOUS
 70
0
 71
3
 72
12
 73
8
 74
6
 42
0.0000001
 43
0.0000001
 44
0.0000000001
 12
2.7455331504
 22
1.3651322362
 32
0.0
 13
1.7965723982
 23
-2.4670150761
 33
0.0
 40
0.0
 40
0.0
 40
0.0
 40
0.0
 40
0.1560279314
 40
0.3479942983
 40
0.5695080044
 40
0.8201939484
 40
1.0
 40
1.0
 40
1.0
 40
1.0
 10
41.387773675
 20
27.094092945
 30
0.0
 10
41.530566961
 20
27.1650925313
 30
0.0
 10
41.8846355279
 20
27.2542798181
 30
0.0
 10
42.4684847549
 20
27.1557578184
 30
0.0
 10
43.0729906106
 20
26.8384609863
 30
0.0
 10
43.5741637122
 20
26.3978229496
 30
0.0
 10
43.8532257187
 20
26.0593754181
 30
0.0
 10
43.9609039152
 20
25.9115140048
 30
0.0
 11
41.387773675
 21
27.094092945
 31
0.0
 11
41.8486103221
 21
27.2150376261
 31
0.0
 11
42.4279432785
 21
27.1337094413
 31
0.0
 11
43.0317340018
 21
26.8318140797
 31
0.0
 11
43.6110669583
 21
26.333809308
 31
0.0
 11
43.9609039152
 21
25.9115140048
 31
0.0
  0
SPLINE
  5
43F
100
AcDbEntity
  8
0
100
AcDbSpline
 62
7
  6
CONTINUOUS
 70
0
 71
3
 72
10
 73
6
 74
4
 42
0.0000001
 43
0.0000001
 44
0.0000000001
 12
0.8567334925
 22
-1.2702192752
 32
0.0
 13
0.4138066144
 23
-1.4750357879
 33
0.0
 40
0.0
 40
0.0
 40
0.0
 40
0.0
 40
0.0739398312
 40
0.6319410869
 40
1.0
 40
1.0
 40
1.0
 40
1.0
 10
44.0567886234
 20
25.7747059678
 30
0.0
 10
44.0779042
 20
25.7433993682
 30
0.0
 10
44.2551568291
 20
25.4736623208
 30
0.0
 10
44.4923222139
 20
25.0193058036
 30
0.0
 10
44.6487048574
 20
24.5722902231
 30
0.0
 10
44.6994732616
 20
24.3913235334
 30
0.0
 11
44.0567886234
 21
25.7747059678
 31
0.0
 11
44.1190080373
 21
25.6800405111
 31
0.0
 11
44.5144068734
 21
24.9234721489
 31
0.0
 11
44.6994732616
 21
24.3913235334
 31
0.0
  0
SPLINE
  5
440
100
AcDbEntity
  8
0
100
AcDbSpline
 62
7
  6
CONTINUOUS
 70
0
 71
3
 72
9
 73
5
 74
3
 42
0.0000001
 43
0.0000001
 44
0.0000000001
 12
0.2848675
 22
-1.0154254249
 32
0.0
 13
0.0
 23
-1.0531625077
 33
0.0
 40
0.0
 40
0.0
 40
0.0
 40
0.0
 40
0.2596808176
 40
1.0
 40
1.0
 40
1.0
 40
1.0
 10
44.6994732616
 20
24.3913235334
 30
0.0
 10
44.72413147
 20
24.3034280319
 30
0.0
 10
44.8087444872
 20
23.9619531008
 30
0.0
 10
44.8511589837
 20
23.6103621826
 30
0.0
 10
44.8511589837
 20
23.3504700471
 30
0.0
 11
44.6994732616
 21
24.3913235334
 31
0.0
 11
44.7652306046
 21
24.1253968905
 31
0.0
 11
44.8511589837
 21
23.3504700471
 31
0.0
  0
SPLINE
  5
441
100
AcDbEntity
  8
0
100
AcDbSpline
 62
7
  6
CONTINUOUS
 70
0
 71
3
 72
11
 73
7
 74
5
 42
0.0000001
 43
0.0000001
 44
0.0000000001
 12
1.6980704337
 22
0.8443134945
 32
0.0
 13
0.0
 23
1.8848198536
 33
0.0
 40
0.0
 40
0.0
 40
0.0
 40
0.0
 40
0.0281023802
 40
0.3122260127
 40
0.6316167495
 40
1.0
 40
1.0
 40
1.0
 40
1.0
 10
-83.2073170083
 20
85.3677777995
 30
0.0
 10
-83.1914104013
 20
85.3756868724
 30
0.0
 10
-83.0168832728
 20
85.4678345654
 30
0.0
 10
-82.7185949911
 20
85.7506764979
 30
0.0
 10
-82.4744122224
 20
86.3235643879
 30
0.0
 10
-82.4280616299
 20
86.7586349991
 30
0.0
 10
-82.4280616299
 20
86.9900803538
 30
0.0
 11
-83.2073170083
 21
85.3677777995
 31
0.0
 11
-83.1602125763
 21
85.3926608362
 31
0.0
 11
-82.7648137401
 21
85.7538303623
 31
0.0
 11
-82.513990009
 21
86.3010818895
 31
0.0
 11
-82.4280616299
 21
86.9900803538
 31
0.0
  0
SPLINE
  5
442
100
AcDbEntity
  8
0
100
AcDbSpline
 62
7
  6
CONTINUOUS
 70
0
 71
3
 72
11
 73
7
 74
5
 42
0.0000001
 43
0.0000001
 44
0.0000000001
 12
5.6562216791
 22
2.8316811927
 32
0.0
 13
-0.0
 23
6.297115668
 33
0.0
 40
0.0
 40
0.0
 40
0.0
 40
0.0
 40
0.2085141479
 40
0.4440618469
 40
0.7066954089
 40
1.0
 40
1.0
 40
1.0
 40
1.0
 10
58.3030893107
 20
-115.0914087759
 30
0.0
 10
58.6962233919
 20
-114.894593579
 30
0.0
 10
59.4583651665
 20
-114.3240511721
 30
0.0
 10
60.2947184158
 20
-113.069050943
 30
0.0
 10
60.8019131753
 20
-111.4696858072
 30
0.0
 10
60.9024829166
 20
-110.298126076
 30
0.0
 10
60.9024829166
 20
-109.6824684305
 30
0.0
 11
58.3030893107
 21
-115.0914087759
 31
0.0
 11
59.3597985348
 21
-114.3107063137
 31
0.0
 11
60.2022270661
 21
-113.0898839089
 31
0.0
 11
60.7251964835
 21
-111.5209130308
 31
0.0
 11
60.9024829166
 21
-109.6824684305
 31
0.0
  0
SPLINE
  5
443
100
AcDbEntity
  8
0
100
AcDbSpline
 62
7
  6
CONTINUOUS
 70
0
 71
3
 72
15
 73
11
 74
9
 42
0.0000001
 43
0.0000001
 44
0.0000000001
 12
0.0
 22
-5.7973232561
 32
0.0
 13
5.2229199501
 23
2.5969369155
 33
0.0
 40
0.0
 40
0.0
 40
0.0
 40
0.0
 40
0.1344890344
 40
0.2787905285
 40
0.4260412981
 40
0.5688485183
 40
0.7006266379
 40
0.8170697825
 40
0.9179807728
 40
1.0
 40
1.0
 40
1.0
 40
1.0
 10
-86.670702317
 20
89.1114006974
 30
0.0
 10
-86.670702317
 20
88.8515085619
 30
0.0
 10
-86.6056107902
 20
88.3119385671
 30
0.0
 10
-86.3542626956
 20
87.5237885171
 30
0.0
 10
-85.9638910964
 20
86.7759227171
 30
0.0
 10
-85.4643171992
 20
86.1261291783
 30
0.0
 10
-84.8925339439
 20
85.6234097582
 30
0.0
 10
-84.2880280881
 20
85.3061129261
 30
0.0
 10
-83.7041788611
 20
85.2075909264
 30
0.0
 10
-83.3501102942
 20
85.2967782132
 30
0.0
 10
-83.2073170083
 20
85.3677777995
 30
0.0
 11
-86.670702317
 21
89.1114006974
 31
0.0
 11
-86.5847739379
 21
88.3364738539
 31
0.0
 11
-86.3339502067
 21
87.5383985955
 31
0.0
 11
-85.9385513705
 21
86.7818302333
 31
0.0
 11
-85.4306102915
 21
86.1280614365
 31
0.0
 11
-84.851277335
 21
85.6300566648
 31
0.0
 11
-84.2474866118
 21
85.3281613032
 31
0.0
 11
-83.6681536553
 21
85.2468331184
 31
0.0
 11
-83.2073170083
 21
85.3677777995
 31
0.0
  0
SPLINE
  5
444
100
AcDbEntity
  8
0
100
AcDbSpline
 62
7
  6
CONTINUOUS
 70
0
 71
3
 72
11
 73
7
 74
5
 42
0.0000001
 43
0.0000001
 44
0.0000000001
 12
0.0
 22
1.8848198536
 32
0.0
 13
1.6980704337
 23
0.8443134945
 33
0.0
 40
0.0
 40
0.0
 40
0.0
 40
0.0
 40
0.3683832505
 40
0.6877739873
 40
0.9718976198
 40
1.0
 40
1.0
 40
1.0
 40
1.0
 10
40.6085182966
 20
25.4717903906
 30
0.0
 10
40.6085182966
 20
25.7032357454
 30
0.0
 10
40.6548688891
 20
26.1383063566
 30
0.0
 10
40.8990516578
 20
26.7111942466
 30
0.0
 10
41.1973399395
 20
26.9940361791
 30
0.0
 10
41.371867068
 20
27.0861838721
 30
0.0
 10
41.387773675
 20
27.094092945
 30
0.0
 11
40.6085182966
 21
25.4717903906
 31
0.0
 11
40.6944466757
 21
26.1607888549
 31
0.0
 11
40.9452704069
 21
26.7080403822
 31
0.0
 11
41.340669243
 21
27.0692099083
 31
0.0
 11
41.387773675
 21
27.094092945
 31
0.0
  0
SPLINE
  5
445
100
AcDbEntity
  8
0
100
AcDbSpline
 62
7
  6
CONTINUOUS
 70
0
 71
3
 72
11
 73
7
 74
5
 42
0.0000001
 43
0.0000001
 44
0.0000000001
 12
0.0
 22
1.8848198536
 32
0.0
 13
1.6980704337
 23
0.8443134945
 33
0.0
 40
0.0
 40
0.0
 40
0.0
 40
0.0
 40
0.3683832505
 40
0.6877739873
 40
0.9718976198
 40
1.0
 40
1.0
 40
1.0
 40
1.0
 10
-86.670702317
 20
-31.2661304286
 30
0.0
 10
-86.670702317
 20
-31.0346850739
 30
0.0
 10
-86.6243517245
 20
-30.5996144627
 30
0.0
 10
-86.3801689558
 20
-30.0267265727
 30
0.0
 10
-86.081880674
 20
-29.7438846402
 30
0.0
 10
-85.9073535456
 20
-29.6517369472
 30
0.0
 10
-85.8914469386
 20
-29.6438278742
 30
0.0
 11
-86.670702317
 21
-31.2661304286
 31
0.0
 11
-86.5847739379
 21
-30.5771319643
 31
0.0
 11
-86.3339502067
 21
-30.0298804371
 31
0.0
 11
-85.9385513705
 21
-29.668710911
 31
0.0
 11
-85.8914469386
 21
-29.6438278742
 31
0.0
  0
SPLINE
  5
446
100
AcDbEntity
  8
0
100
AcDbSpline
 62
7
  6
CONTINUOUS
 70
0
 71
3
 72
15
 73
11
 74
9
 42
0.0000001
 43
0.0000001
 44
0.0000000001
 12
0.0
 22
-5.7973232561
 32
0.0
 13
5.2229199501
 23
2.5969369155
 33
0.0
 40
0.0
 40
0.0
 40
0.0
 40
0.0
 40
0.1344890344
 40
0.2787905285
 40
0.4260412981
 40
0.5688485183
 40
0.7006266379
 40
0.8170697825
 40
0.9179807728
 40
1.0
 40
1.0
 40
1.0
 40
1.0
 10
40.6085182966
 20
-94.9057407354
 30
0.0
 10
40.6085182966
 20
-95.165632871
 30
0.0
 10
40.6736098234
 20
-95.7052028657
 30
0.0
 10
40.924957918
 20
-96.4933529157
 30
0.0
 10
41.3153295171
 20
-97.2412187158
 30
0.0
 10
41.8149034144
 20
-97.8910122545
 30
0.0
 10
42.3866866697
 20
-98.3937316746
 30
0.0
 10
42.9911925254
 20
-98.7110285068
 30
0.0
 10
43.5750417525
 20
-98.8095505065
 30
0.0
 10
43.9291103193
 20
-98.7203632197
 30
0.0
 10
44.0719036053
 20
-98.6493636334
 30
0.0
 11
40.6085182966
 21
-94.9057407354
 31
0.0
 11
40.6944466757
 21
-95.6806675789
 31
0.0
 11
40.9452704069
 21
-96.4787428373
 31
0.0
 11
41.340669243
 21
-97.2353111995
 31
0.0
 11
41.8486103221
 21
-97.8890799964
 31
0.0
 11
42.4279432785
 21
-98.387084768
 31
0.0
 11
43.0317340018
 21
-98.6889801297
 31
0.0
 11
43.6110669583
 21
-98.7703083145
 31
0.0
 11
44.0719036053
 21
-98.6493636334
 31
0.0
  0
SPLINE
  5
447
100
AcDbEntity
  8
RACCORDO
100
AcDbSpline
 62
253
  6
CONTINUOUS
 70
0
 71
3
 72
15
 73
11
 74
9
 42
0.0000001
 43
0.0000001
 44
0.0000000001
 12
0.0
 22
-11.7735170094
 32
0.0
 13
10.5305537469
 23
-5.2652768735
 33
0.0
 40
0.0
 40
0.0
 40
0.0
 40
0.0
 40
0.1196296506
 40
0.2467101445
 40
0.3784220324
 40
0.5116978853
 40
0.6433233389
 40
0.7702442704
 40
0.8898248286
 40
1.0
 40
1.0
 40
1.0
 40
1.0
 10
-97.2773040348
 20
-34.6230836076
 30
0.0
 10
-97.2773040348
 20
-35.0925708497
 30
0.0
 10
-97.1974971737
 20
-36.0617675443
 30
0.0
 10
-96.8725998799
 20
-37.5149129397
 30
0.0
 10
-96.3503837874
 20
-38.9664112247
 30
0.0
 10
-95.6505175122
 20
-40.360818729
 30
0.0
 10
-94.7993254713
 20
-41.6460104055
 30
0.0
 10
-93.8283226453
 20
-42.7739702115
 30
0.0
 10
-92.7743770508
 20
-43.7021426768
 30
0.0
 10
-92.0071849734
 20
-44.1863463686
 30
0.0
 10
-91.6204497853
 20
-44.3797139626
 30
0.0
 11
-97.2773040348
 21
-34.6230836076
 31
0.0
 11
-97.1688686475
 21
-36.0273649902
 31
0.0
 11
-96.8470349396
 21
-37.488525725
 31
0.0
 11
-96.324142204
 21
-38.9484200243
 31
0.0
 11
-95.6202618419
 21
-40.350813456
 31
0.0
 11
-94.7626005115
 21
-41.6415381126
 31
0.0
 11
-93.7841840883
 21
-42.7709853066
 31
0.0
 11
-92.7226695477
 21
-43.6958223159
 31
0.0
 11
-91.6204497853
 21
-44.3797139626
 31
0.0
  0
SPLINE
  5
448
100
AcDbEntity
  8
RACCORDO
100
AcDbSpline
 62
253
  6
CONTINUOUS
 70
0
 71
3
 72
15
 73
11
 74
9
 42
0.0000001
 43
0.0000001
 44
0.0000000001
 12
-7.8253200195
 22
3.9126600098
 32
0.0
 13
0.0
 23
-8.7489737547
 33
0.0
 40
0.0
 40
0.0
 40
0.0
 40
0.0
 40
0.1347632659
 40
0.2571095097
 40
0.370280841
 40
0.4801104182
 40
0.5934460695
 40
0.7160776803
 40
0.8513816747
 40
1.0
 40
1.0
 40
1.0
 40
1.0
 10
-91.6204497853
 20
107.1747316997
 30
0.0
 10
-91.9719716796
 20
107.3504926468
 30
0.0
 10
-92.6760217402
 20
107.626438128
 30
0.0
 10
-93.7568013464
 20
107.7791566035
 30
0.0
 10
-94.7693450831
 20
107.6325424469
 30
0.0
 10
-95.6606162233
 20
107.1821668744
 30
0.0
 10
-96.3806283422
 20
106.4536896841
 30
0.0
 10
-96.9019964912
 20
105.4911377906
 30
0.0
 10
-97.214366845
 20
104.3387626738
 30
0.0
 10
-97.2773040348
 20
103.5083748701
 30
0.0
 10
-97.2773040348
 20
103.0749555941
 30
0.0
 11
-91.6204497853
 21
107.1747316997
 31
0.0
 11
-92.7227721714
 21
107.5930872082
 31
0.0
 11
-93.7844168544
 21
107.7297453666
 31
0.0
 11
-94.762945493
 21
107.5785994897
 31
0.0
 11
-95.6206369805
 21
107.1453713699
 31
0.0
 11
-96.3243704776
 21
106.4468218026
 31
0.0
 11
-96.8471234177
 21
105.5098877763
 31
0.0
 11
-97.1688881772
 21
104.3706856665
 31
0.0
 11
-97.2773040348
 21
103.0749555941
 31
0.0
  0
SPLINE
  5
449
100
AcDbEntity
  8
RACCORDO
100
AcDbSpline
 62
253
  6
CONTINUOUS
 70
0
 71
3
 72
15
 73
11
 74
9
 42
0.0000001
 43
0.0000001
 44
0.0000000001
 12
0.0
 22
11.7735170094
 32
0.0
 13
-10.5305537469
 23
5.2652768735
 33
0.0
 40
0.0
 40
0.0
 40
0.0
 40
0.0
 40
0.1196296506
 40
0.2467101445
 40
0.3784220324
 40
0.5116978853
 40
0.6433233389
 40
0.7702442704
 40
0.8898248286
 40
1.0
 40
1.0
 40
1.0
 40
1.0
 10
55.4577607015
 20
26.707423226
 30
0.0
 10
55.4577607015
 20
27.1769104682
 30
0.0
 10
55.3779538404
 20
28.1461071627
 30
0.0
 10
55.0530565467
 20
29.5992525581
 30
0.0
 10
54.5308404541
 20
31.0507508432
 30
0.0
 10
53.830974179
 20
32.4451583475
 30
0.0
 10
52.9797821381
 20
33.7303500239
 30
0.0
 10
52.008779312
 20
34.85830983
 30
0.0
 10
50.9548337175
 20
35.7864822952
 30
0.0
 10
50.1876416401
 20
36.270685987
 30
0.0
 10
49.800906452
 20
36.464053581
 30
0.0
 11
55.4577607015
 21
26.707423226
 31
0.0
 11
55.3493253142
 21
28.1117046087
 31
0.0
 11
55.0274916063
 21
29.5728653434
 31
0.0
 11
54.5045988707
 21
31.0327596427
 31
0.0
 11
53.8007185086
 21
32.4351530744
 31
0.0
 11
52.9430571782
 21
33.725877731
 31
0.0
 11
51.964640755
 21
34.855324925
 31
0.0
 11
50.9031262144
 21
35.7801619343
 31
0.0
 11
49.800906452
 21
36.464053581
 31
0.0
  0
SPLINE
  5
44A
100
AcDbEntity
  8
RACCORDO
100
AcDbSpline
 62
253
  6
CONTINUOUS
 70
0
 71
3
 72
15
 73
11
 74
9
 42
0.0000001
 43
0.0000001
 44
0.0000000001
 12
7.8253200195
 22
-3.9126600098
 32
0.0
 13
0.0
 23
8.7489737547
 33
0.0
 40
0.0
 40
0.0
 40
0.0
 40
0.0
 40
0.1347632659
 40
0.2571095097
 40
0.370280841
 40
0.4801104182
 40
0.5934460695
 40
0.7160776803
 40
0.8513816747
 40
1.0
 40
1.0
 40
1.0
 40
1.0
 10
49.800906452
 20
-115.0903920813
 30
0.0
 10
50.1524283463
 20
-115.2661530284
 30
0.0
 10
50.8564784069
 20
-115.5420985096
 30
0.0
 10
51.9372580132
 20
-115.694816985
 30
0.0
 10
52.9498017498
 20
-115.5482028285
 30
0.0
 10
53.8410728901
 20
-115.097827256
 30
0.0
 10
54.5610850089
 20
-114.3693500657
 30
0.0
 10
55.0824531579
 20
-113.4067981722
 30
0.0
 10
55.3948235118
 20
-112.2544230554
 30
0.0
 10
55.4577607015
 20
-111.4240352516
 30
0.0
 10
55.4577607015
 20
-110.9906159757
 30
0.0
 11
49.800906452
 21
-115.0903920813
 31
0.0
 11
50.9032288381
 21
-115.5087475898
 31
0.0
 11
51.9648735212
 21
-115.6454057482
 31
0.0
 11
52.9434021597
 21
-115.4942598713
 31
0.0
 11
53.8010936473
 21
-115.0610317514
 31
0.0
 11
54.5048271443
 21
-114.3624821842
 31
0.0
 11
55.0275800845
 21
-113.4255481579
 31
0.0
 11
55.349344844
 21
-112.2863460481
 31
0.0
 11
55.4577607015
 21
-110.9906159757
 31
0.0
  0
SPLINE
  5
44B
100
AcDbEntity
  8
0
100
AcDbSpline
 62
7
  6
CONTINUOUS
 70
0
 71
3
 72
11
 73
7
 74
5
 42
0.0000001
 43
0.0000001
 44
0.0000000001
 12
-1.6980704337
 22
-0.8443134945
 32
0.0
 13
-0.0
 23
-1.8848198536
 33
0.0
 40
0.0
 40
0.0
 40
0.0
 40
0.0
 40
0.0281023802
 40
0.3122260127
 40
0.6316167495
 40
1.0
 40
1.0
 40
1.0
 40
1.0
 10
41.387773675
 20
-93.283438181
 30
0.0
 10
41.371867068
 20
-93.291347254
 30
0.0
 10
41.1973399395
 20
-93.3834949469
 30
0.0
 10
40.8990516578
 20
-93.6663368794
 30
0.0
 10
40.6548688891
 20
-94.2392247694
 30
0.0
 10
40.6085182966
 20
-94.6742953807
 30
0.0
 10
40.6085182966
 20
-94.9057407354
 30
0.0
 11
41.387773675
 21
-93.283438181
 31
0.0
 11
41.340669243
 21
-93.3083212178
 31
0.0
 11
40.9452704069
 21
-93.6694907438
 31
0.0
 11
40.6944466757
 21
-94.2167422711
 31
0.0
 11
40.6085182966
 21
-94.9057407354
 31
0.0
  0
SPLINE
  5
44C
100
AcDbEntity
  8
RACCORDO
100
AcDbSpline
 62
253
  6
CONTINUOUS
 70
0
 71
3
 72
15
 73
11
 74
9
 42
0.0000001
 43
0.0000001
 44
0.0000000001
 12
0.0000000035
 22
14.7168956325
 32
0.0
 13
-13.1631916237
 23
6.5815958048
 33
0.0
 40
0.0
 40
0.0
 40
0.0
 40
0.0
 40
0.1197055064
 40
0.2467642133
 40
0.3784372877
 40
0.5116648541
 40
0.6432576549
 40
0.7701630222
 40
0.8897412148
 40
1.0
 40
1.0
 40
1.0
 40
1.0
 10
58.2861878263
 20
26.707423226
 30
0.0
 10
58.2861878264
 20
27.2946543743
 30
0.0
 10
58.1863299426
 20
28.5064154104
 30
0.0
 10
57.7801006981
 20
30.3228952414
 30
0.0
 10
57.127438996
 20
32.1367361034
 30
0.0
 10
56.2528924728
 20
33.8792261641
 30
0.0
 10
55.1892324286
 20
35.4853601271
 30
0.0
 10
53.9757716043
 20
36.8952338249
 30
0.0
 10
52.6581882794
 20
38.0557594164
 30
0.0
 10
51.6989058538
 20
38.6613182504
 30
0.0
 10
51.2151200144
 20
38.9032111698
 30
0.0
 11
58.2861878263
 21
26.707423226
 31
0.0
 11
58.1504706249
 21
28.4638812059
 31
0.0
 11
57.7481348219
 21
30.2899940974
 31
0.0
 11
57.0946465925
 21
32.11430087
 31
0.0
 11
56.215129662
 21
33.8666648492
 31
0.0
 11
55.1433951792
 21
35.4797209753
 31
0.0
 11
53.9206429464
 21
36.8914592222
 31
0.0
 11
52.5938823602
 21
38.0476045433
 31
0.0
 11
51.2151200144
 21
38.9032111698
 31
0.0
  0
SPLINE
  5
44D
100
AcDbEntity
  8
0
100
AcDbSpline
 62
7
  6
CONTINUOUS
 70
0
 71
3
 72
8
 73
4
 74
2
 42
0.0000001
 43
0.0000001
 44
0.0000000001
 12
-0.3072094914
 22
0.1929178793
 32
0.0
 13
-0.2822117927
 23
0.2280941197
 33
0.0
 40
0.0
 40
0.0
 40
0.0
 40
0.0
 40
1.0
 40
1.0
 40
1.0
 40
1.0
 10
-83.5690841253
 20
-34.1987965127
 30
0.0
 10
-83.6714872891
 20
-34.1344905529
 30
0.0
 10
-83.7696709732
 20
-34.0635592916
 30
0.0
 10
-83.8637415707
 20
-33.9875279184
 30
0.0
 11
-83.5690841253
 21
-34.1987965127
 31
0.0
 11
-83.8637415707
 21
-33.9875279184
 31
0.0
  0
SPLINE
  5
44E
100
AcDbEntity
  8
0
100
AcDbSpline
 62
7
  6
CONTINUOUS
 70
0
 71
3
 72
15
 73
11
 74
9
 42
0.0000001
 43
0.0000001
 44
0.0000000001
 12
-5.2229199501
 22
-2.5969369155
 32
0.0
 13
-0.0
 23
5.7973232561
 33
0.0
 40
0.0
 40
0.0
 40
0.0
 40
0.0
 40
0.0820192272
 40
0.1829302175
 40
0.2993733621
 40
0.4311514817
 40
0.5739587019
 40
0.7212094715
 40
0.8655109656
 40
1.0
 40
1.0
 40
1.0
 40
1.0
 10
-83.2073170083
 20
-35.0097533266
 30
0.0
 10
-83.3501102942
 20
-35.0807529129
 30
0.0
 10
-83.7041788611
 20
-35.1699401997
 30
0.0
 10
-84.2880280881
 20
-35.0714182
 30
0.0
 10
-84.8925339439
 20
-34.7541213678
 30
0.0
 10
-85.4643171992
 20
-34.2514019477
 30
0.0
 10
-85.9638910964
 20
-33.601608409
 30
0.0
 10
-86.3542626956
 20
-32.8537426089
 30
0.0
 10
-86.6056107902
 20
-32.0655925589
 30
0.0
 10
-86.670702317
 20
-31.5260225642
 30
0.0
 10
-86.670702317
 20
-31.2661304286
 30
0.0
 11
-83.2073170083
 21
-35.0097533266
 31
0.0
 11
-83.6681536553
 21
-35.1306980077
 31
0.0
 11
-84.2474866118
 21
-35.0493698229
 31
0.0
 11
-84.851277335
 21
-34.7474744612
 31
0.0
 11
-85.4306102915
 21
-34.2494696896
 31
0.0
 11
-85.9385513705
 21
-33.5957008927
 31
0.0
 11
-86.3339502067
 21
-32.8391325305
 31
0.0
 11
-86.5847739379
 21
-32.0410572721
 31
0.0
 11
-86.670702317
 21
-31.2661304286
 31
0.0
  0
SPLINE
  5
44F
100
AcDbEntity
  8
RACCORDO
100
AcDbSpline
 62
253
  6
CONTINUOUS
 70
0
 71
3
 72
11
 73
7
 74
5
 42
0.0000001
 43
0.0000001
 44
0.0000000001
 12
-4.1453915726
 22
2.0726957878
 32
0.0
 13
-4.1639597863
 23
-2.0823548232
 33
0.0
 40
0.0
 40
0.0
 40
0.0
 40
0.0
 40
0.3181770052
 40
0.6068022383
 40
0.8737612979
 40
1.0
 40
1.0
 40
1.0
 40
1.0
 10
-90.2062362229
 20
109.6138892884
 30
0.0
 10
-90.645892315
 20
109.8337173346
 30
0.0
 10
-91.5261573168
 20
110.1786547044
 30
0.0
 10
-92.8771969075
 20
110.3694104018
 30
0.0
 10
-93.9361658623
 20
110.2159588455
 30
0.0
 10
-94.5029588901
 20
109.9851404983
 30
0.0
 10
-94.6781765165
 20
109.8975159082
 30
0.0
 11
-90.2062362229
 21
109.6138892884
 31
0.0
 11
-91.5849718426
 21
110.137038152
 31
0.0
 11
-92.9117338712
 21
110.307660455
 31
0.0
 11
-94.134488661
 21
110.1186814924
 31
0.0
 11
-94.6781765165
 21
109.8975159082
 31
0.0
  0
SPLINE
  5
450
100
AcDbEntity
  8
0
100
AcDbSpline
 62
7
  6
CONTINUOUS
 70
0
 71
3
 72
15
 73
11
 74
9
 42
0.0000001
 43
0.0000001
 44
0.0000000001
 12
-5.2229199501
 22
-2.5969369155
 32
0.0
 13
-0.0
 23
5.7973232561
 33
0.0
 40
0.0
 40
0.0
 40
0.0
 40
0.0
 40
0.0820192272
 40
0.1829302175
 40
0.2993733621
 40
0.4311514817
 40
0.5739587019
 40
0.7212094715
 40
0.8655109656
 40
1.0
 40
1.0
 40
1.0
 40
1.0
 10
44.0719036053
 20
21.7281674927
 30
0.0
 10
43.9291103193
 20
21.6571679064
 30
0.0
 10
43.5750417525
 20
21.5679806196
 30
0.0
 10
42.9911925254
 20
21.6665026193
 30
0.0
 10
42.3866866697
 20
21.9837994514
 30
0.0
 10
41.8149034144
 20
22.4865188715
 30
0.0
 10
41.3153295171
 20
23.1363124103
 30
0.0
 10
40.924957918
 20
23.8841782104
 30
0.0
 10
40.6736098234
 20
24.6723282604
 30
0.0
 10
40.6085182966
 20
25.2118982551
 30
0.0
 10
40.6085182966
 20
25.4717903906
 30
0.0
 11
44.0719036053
 21
21.7281674927
 31
0.0
 11
43.6110669583
 21
21.6072228116
 31
0.0
 11
43.0317340018
 21
21.6885509964
 31
0.0
 11
42.4279432785
 21
21.990446358
 31
0.0
 11
41.8486103221
 21
22.4884511297
 31
0.0
 11
41.340669243
 21
23.1422199265
 31
0.0
 11
40.9452704069
 21
23.8987882888
 31
0.0
 11
40.6944466757
 21
24.6968635472
 31
0.0
 11
40.6085182966
 21
25.4717903906
 31
0.0
  0
SPLINE
  5
451
100
AcDbEntity
  8
0
100
AcDbSpline
 62
7
  6
CONTINUOUS
 70
0
 71
3
 72
8
 73
4
 74
2
 42
0.0000001
 43
0.0000001
 44
0.0000000001
 12
-0.3072094914
 22
0.1929178793
 32
0.0
 13
-0.2822117927
 23
0.2280941197
 33
0.0
 40
0.0
 40
0.0
 40
0.0
 40
0.0
 40
1.0
 40
1.0
 40
1.0
 40
1.0
 10
-83.5690841253
 20
86.1787346133
 30
0.0
 10
-83.6714872891
 20
86.2430405731
 30
0.0
 10
-83.7696709732
 20
86.3139718344
 30
0.0
 10
-83.8637415707
 20
86.3900032076
 30
0.0
 11
-83.5690841253
 21
86.1787346133
 31
0.0
 11
-83.8637415707
 21
86.3900032076
 31
0.0
  0
SPLINE
  5
452
100
AcDbEntity
  8
0
100
AcDbSpline
 62
7
  6
CONTINUOUS
 70
0
 71
3
 72
11
 73
7
 74
5
 42
0.0000001
 43
0.0000001
 44
0.0000000001
 12
-1.6980704337
 22
-0.8443134945
 32
0.0
 13
0.0
 23
-1.8848198536
 33
0.0
 40
0.0
 40
0.0
 40
0.0
 40
0.0
 40
0.0281023802
 40
0.3122260127
 40
0.6316167495
 40
1.0
 40
1.0
 40
1.0
 40
1.0
 10
-85.8914469386
 20
90.7337032518
 30
0.0
 10
-85.9073535456
 20
90.7257941789
 30
0.0
 10
-86.081880674
 20
90.6336464859
 30
0.0
 10
-86.3801689558
 20
90.3508045534
 30
0.0
 10
-86.6243517245
 20
89.7779166634
 30
0.0
 10
-86.670702317
 20
89.3428460522
 30
0.0
 10
-86.670702317
 20
89.1114006974
 30
0.0
 11
-85.8914469386
 21
90.7337032518
 31
0.0
 11
-85.9385513705
 21
90.7088202151
 31
0.0
 11
-86.3339502067
 21
90.347650689
 31
0.0
 11
-86.5847739379
 21
89.8003991617
 31
0.0
 11
-86.670702317
 21
89.1114006974
 31
0.0
  0
SPLINE
  5
453
100
AcDbEntity
  8
RACCORDO
100
AcDbSpline
 62
253
  6
CONTINUOUS
 70
0
 71
3
 72
12
 73
8
 74
6
 42
0.0000001
 43
0.0000001
 44
0.0000000001
 12
5.6615131807
 22
2.8312665146
 32
0.0
 13
-0.0000000023
 23
6.3015381159
 33
0.0
 40
0.0
 40
0.0
 40
0.0
 40
0.0
 40
0.0976916455
 40
0.294328707
 40
0.50710876
 40
0.7418973647
 40
1.0
 40
1.0
 40
1.0
 40
1.0
 10
55.6870603812
 20
-116.3989626908
 30
0.0
 10
55.8714212273
 20
-116.3067656626
 30
0.0
 10
56.4043388578
 20
-115.9838995887
 30
0.0
 10
57.1649401767
 20
-115.2145353097
 30
0.0
 10
57.8167391847
 20
-114.0117047322
 30
0.0
 10
58.2074171297
 20
-112.5710641776
 30
0.0
 10
58.2861878265
 20
-111.5327638404
 30
0.0
 10
58.2861878263
 20
-110.9906159757
 30
0.0
 11
55.6870603812
 21
-116.3989626908
 31
0.0
 11
56.2151103667
 21
-116.0788134188
 31
0.0
 11
57.0946314082
 21
-115.2059726282
 31
0.0
 11
57.7481243512
 21
-114.0351595736
 31
0.0
 11
58.1504653118
 21
-112.6113868304
 31
0.0
 11
58.2861878263
 21
-110.9906159757
 31
0.0
  0
SPLINE
  5
454
100
AcDbEntity
  8
0
100
AcDbSpline
 62
7
  6
CONTINUOUS
 70
0
 71
3
 72
8
 73
4
 74
2
 42
0.0000001
 43
0.0000001
 44
0.0000000001
 12
0.2822117927
 22
-0.2280941197
 32
0.0
 13
0.3072094914
 23
-0.1929178793
 33
0.0
 40
0.0
 40
0.0
 40
0.0
 40
0.0
 40
1.0
 40
1.0
 40
1.0
 40
1.0
 10
43.4154790429
 20
-97.6271382252
 30
0.0
 10
43.5095496404
 20
-97.7031695984
 30
0.0
 10
43.6077333245
 20
-97.7741008597
 30
0.0
 10
43.7101364883
 20
-97.8384068195
 30
0.0
 11
43.4154790429
 21
-97.6271382252
 31
0.0
 11
43.7101364883
 21
-97.8384068195
 31
0.0
  0
SPLINE
  5
455
100
AcDbEntity
  8
RACCORDO
100
AcDbSpline
 62
253
  6
CONTINUOUS
 70
0
 71
3
 72
10
 73
6
 74
4
 42
0.0000001
 43
0.0000001
 44
0.0000000001
 12
-0.8566638175
 22
0.4283319087
 32
0.0
 13
-0.0000000053
 23
0.9749974886
 33
0.0
 40
0.0
 40
0.0
 40
0.0
 40
0.0
 40
0.4661615298
 40
0.8366695573
 40
1.0
 40
1.0
 40
1.0
 40
1.0
 10
-97.2773040348
 20
-34.6230836076
 30
0.0
 10
-97.4104186067
 20
-34.5565263216
 30
0.0
 10
-97.6383578049
 20
-34.4112782781
 30
0.0
 10
-97.8364324432
 20
-34.1425561407
 30
0.0
 10
-97.8612048321
 20
-33.9690590844
 30
0.0
 10
-97.8612048323
 20
-33.9159768273
 30
0.0
 11
-97.2773040348
 21
-34.6230836076
 31
0.0
 11
-97.6451034722
 21
-34.3699673738
 31
0.0
 11
-97.8384671387
 21
-34.0724113384
 31
0.0
 11
-97.8612048323
 21
-33.9159768273
 31
0.0
  0
SPLINE
  5
456
100
AcDbEntity
  8
RACCORDO
100
AcDbSpline
 62
253
  6
CONTINUOUS
 70
0
 71
3
 72
10
 73
6
 74
4
 42
0.0000001
 43
0.0000001
 44
0.0000000001
 12
-0.8566638191
 22
0.4283319095
 32
0.0
 13
-0.0
 23
0.9749974837
 33
0.0
 40
0.0
 40
0.0
 40
0.0
 40
0.0
 40
0.4661615988
 40
0.8366696059
 40
1.0
 40
1.0
 40
1.0
 40
1.0
 10
-97.2773040348
 20
103.0749555941
 30
0.0
 10
-97.4104186266
 20
103.1415128901
 30
0.0
 10
-97.6383578398
 20
103.2867609457
 30
0.0
 10
-97.8364324557
 20
103.5554831016
 30
0.0
 10
-97.8612048339
 20
103.7289801343
 30
0.0
 10
-97.8612048339
 20
103.7820623753
 30
0.0
 11
-97.2773040348
 21
103.0749555941
 31
0.0
 11
-97.6451035208
 21
103.3280718756
 31
0.0
 11
-97.8384671536
 21
103.6256279103
 31
0.0
 11
-97.8612048339
 21
103.7820623753
 31
0.0
  0
SPLINE
  5
457
100
AcDbEntity
  8
RACCORDO
100
AcDbSpline
 62
253
  6
CONTINUOUS
 70
0
 71
3
 72
12
 73
8
 74
6
 42
0.0000001
 43
0.0000001
 44
0.0000000001
 12
-0.0
 22
2.9397526275
 32
0.0
 13
2.6293946848
 23
1.3146973424
 33
0.0
 40
0.0
 40
0.0
 40
0.0
 40
0.0
 40
0.1952646095
 40
0.405111634
 40
0.6172925737
 40
0.8190521945
 40
1.0
 40
1.0
 40
1.0
 40
1.0
 10
-91.6204497853
 20
107.1747316997
 30
0.0
 10
-91.6204497853
 20
107.366074916
 30
0.0
 10
-91.5676203402
 20
107.7637072504
 30
0.0
 10
-91.3671704983
 20
108.3379832401
 30
0.0
 10
-91.0595782701
 20
108.8707086551
 30
0.0
 10
-90.6735288461
 20
109.3123599298
 30
0.0
 10
-90.3648306182
 20
109.5345920867
 30
0.0
 10
-90.2062362188
 20
109.6138892864
 30
0.0
 11
-91.6204497853
 21
107.1747316997
 31
0.0
 11
-91.5512332702
 21
107.7445730038
 31
0.0
 11
-91.3503590681
 21
108.3278509126
 31
0.0
 11
-91.0374900783
 21
108.8674701096
 31
0.0
 11
-90.6432521956
 21
109.3106087223
 31
0.0
 11
-90.2062362188
 21
109.6138892864
 31
0.0
  0
SPLINE
  5
458
100
AcDbEntity
  8
RACCORDO
100
AcDbSpline
 62
253
  6
CONTINUOUS
 70
0
 71
3
 72
12
 73
8
 74
6
 42
0.0000001
 43
0.0000001
 44
0.0000000001
 12
-0.0
 22
2.9397526251
 32
0.0
 13
2.6293946827
 23
1.3146973413
 33
0.0
 40
0.0
 40
0.0
 40
0.0
 40
0.0
 40
0.1952646443
 40
0.4051116665
 40
0.6172925625
 40
0.8190521716
 40
1.0
 40
1.0
 40
1.0
 40
1.0
 10
49.800906452
 20
36.464053581
 30
0.0
 10
49.800906452
 20
36.6553968313
 30
0.0
 10
49.8537359103
 20
37.0530291974
 30
0.0
 10
50.0541857659
 20
37.6273051694
 30
0.0
 10
50.3617779694
 20
38.1600305311
 30
0.0
 10
50.7478273652
 20
38.6016817851
 30
0.0
 10
51.0565255951
 20
38.8239139601
 30
0.0
 10
51.2151200144
 20
38.9032111698
 30
0.0
 11
49.800906452
 21
36.464053581
 31
0.0
 11
49.8701229905
 21
37.0338949849
 31
0.0
 11
50.0709972087
 21
37.6171728803
 31
0.0
 11
50.3838661389
 21
38.1567919629
 31
0.0
 11
50.77810399
 21
38.5999305571
 31
0.0
 11
51.2151200144
 21
38.9032111698
 31
0.0
  0
SPLINE
  5
459
100
AcDbEntity
  8
RACCORDO
100
AcDbSpline
 62
253
  6
CONTINUOUS
 70
0
 71
3
 72
12
 73
8
 74
6
 42
0.0000001
 43
0.0000001
 44
0.0000000001
 12
2.60168089
 22
-1.300840445
 32
0.0
 13
2.60168089
 23
1.300840445
 33
0.0
 40
0.0
 40
0.0
 40
0.0
 40
0.0
 40
0.1851644708
 40
0.3924393216
 40
0.6075606587
 40
0.8148355204
 40
1.0
 40
1.0
 40
1.0
 40
1.0
 10
55.4577607015
 20
26.707423226
 30
0.0
 10
55.6183403233
 20
26.6271334151
 30
0.0
 10
55.9812166782
 20
26.5016353614
 30
0.0
 10
56.5654103177
 20
26.4103873184
 30
0.0
 10
57.1785381615
 20
26.4103873132
 30
0.0
 10
57.7627318203
 20
26.5016353552
 30
0.0
 10
58.1256081969
 20
26.6271334063
 30
0.0
 10
58.2861878263
 20
26.707423221
 30
0.0
 11
55.4577607015
 21
26.707423226
 31
0.0
 11
55.9639931691
 21
26.5235235073
 31
0.0
 11
56.5591052399
 21
26.426841674
 31
0.0
 11
57.1848432288
 21
26.4268416694
 31
0.0
 11
57.779955332
 21
26.5235235005
 31
0.0
 11
58.2861878263
 21
26.707423221
 31
0.0
  0
SPLINE
  5
45A
100
AcDbEntity
  8
RACCORDO
100
AcDbSpline
 62
253
  6
CONTINUOUS
 70
0
 71
3
 72
12
 73
8
 74
6
 42
0.0000001
 43
0.0000001
 44
0.0000000001
 12
2.6016808914
 22
-1.3008404457
 32
0.0
 13
2.6016808914
 23
1.3008404457
 33
0.0
 40
0.0
 40
0.0
 40
0.0
 40
0.0
 40
0.1851645043
 40
0.3924393536
 40
0.6075606464
 40
0.8148354957
 40
1.0
 40
1.0
 40
1.0
 40
1.0
 10
55.4577607015
 20
-110.9906159757
 30
0.0
 10
55.6183403524
 20
-111.0709058012
 30
0.0
 10
55.9812167409
 20
-111.1964038575
 30
0.0
 10
56.5654103708
 20
-111.2876518839
 30
0.0
 10
57.178538157
 20
-111.2876518839
 30
0.0
 10
57.7627317869
 20
-111.1964038575
 30
0.0
 10
58.1256081754
 20
-111.0709058012
 30
0.0
 10
58.2861878263
 20
-110.9906159757
 30
0.0
 11
55.4577607015
 21
-110.9906159757
 31
0.0
 11
55.9639932644
 21
-111.1745157187
 31
0.0
 11
56.5591053338
 21
-111.2711975351
 31
0.0
 11
57.184843194
 21
-111.2711975351
 31
0.0
 11
57.7799552635
 21
-111.1745157187
 31
0.0
 11
58.2861878263
 21
-110.9906159757
 31
0.0
  0
SPLINE
  5
45B
100
AcDbEntity
  8
RACCORDO
100
AcDbSpline
 62
253
  6
CONTINUOUS
 70
0
 71
3
 72
10
 73
6
 74
4
 42
0.0000001
 43
0.0000001
 44
0.0000000001
 12
0.0
 22
-1.2550675698
 32
0.0
 13
1.1281714572
 23
-0.5717552217
 33
0.0
 40
0.0
 40
0.0
 40
0.0
 40
0.0
 40
0.4026771919
 40
0.7468439924
 40
1.0
 40
1.0
 40
1.0
 40
1.0
 10
49.800906452
 20
-115.0903920813
 30
0.0
 10
49.800906452
 20
-115.2588544428
 30
0.0
 10
49.8372647467
 20
-115.5738824226
 30
0.0
 10
50.0241698127
 20
-115.9609386997
 30
0.0
 10
50.2256264379
 20
-116.1236260568
 30
0.0
 10
50.3208275652
 20
-116.1718738132
 30
0.0
 11
49.800906452
 21
-115.0903920813
 31
0.0
 11
49.8701229671
 21
-115.5910168703
 31
0.0
 11
50.0709971692
 21
-115.9734205769
 31
0.0
 11
50.3208275652
 21
-116.1718738132
 31
0.0
  0
SPLINE
  5
45C
100
AcDbEntity
  8
0
100
AcDbSpline
 62
7
  6
CONTINUOUS
 70
0
 71
3
 72
8
 73
4
 74
2
 42
0.0000001
 43
0.0000001
 44
0.0000000001
 12
0.2822117927
 22
-0.2280941197
 32
0.0
 13
0.3072094914
 23
-0.1929178793
 33
0.0
 40
0.0
 40
0.0
 40
0.0
 40
0.0
 40
1.0
 40
1.0
 40
1.0
 40
1.0
 10
43.4154790429
 20
22.7503929008
 30
0.0
 10
43.5095496404
 20
22.6743615276
 30
0.0
 10
43.6077333245
 20
22.6034302663
 30
0.0
 10
43.7101364883
 20
22.5391243066
 30
0.0
 11
43.4154790429
 21
22.7503929008
 31
0.0
 11
43.7101364883
 21
22.5391243066
 31
0.0
  0
SPLINE
  5
45D
100
AcDbEntity
  8
RACCORDO
100
AcDbSpline
 62
253
  6
CONTINUOUS
 70
0
 71
3
 72
10
 73
6
 74
4
 42
0.0000001
 43
0.0000001
 44
0.0000000001
 12
0.0
 22
-1.255067571
 32
0.0
 13
1.128171458
 23
-0.5717552154
 33
0.0
 40
0.0
 40
0.0
 40
0.0
 40
0.0
 40
0.4026772544
 40
0.7468440397
 40
1.0
 40
1.0
 40
1.0
 40
1.0
 10
-91.6204497853
 20
-44.3797139626
 30
0.0
 10
-91.6204497853
 20
-44.5481763504
 30
0.0
 10
-91.5840914833
 20
-44.8632043525
 30
0.0
 10
-91.39718639
 20
-45.2502606179
 30
0.0
 10
-91.1957297819
 20
-45.4129479481
 30
0.0
 10
-91.1005286723
 20
-45.4611956949
 30
0.0
 11
-91.6204497853
 21
-44.3797139626
 31
0.0
 11
-91.5512332469
 21
-44.880338828
 31
0.0
 11
-91.3503590286
 21
-45.2627425051
 31
0.0
 11
-91.1005286723
 21
-45.4611956949
 31
0.0
  0
SPLINE
  5
45E
100
AcDbEntity
  8
ASSI
100
AcDbSpline
 62
7
  6
CONTINUOUS
 70
0
 71
3
 72
8
 73
4
 74
2
 42
0.0000001
 43
0.0000001
 44
0.0000000001
 12
-0.1543351512
 22
-0.077506763
 32
0.0
 13
-0.1384051072
 23
-0.1048762374
 33
0.0
 40
0.0
 40
0.0
 40
0.0
 40
0.0
 40
1.0
 40
1.0
 40
1.0
 40
1.0
 10
82.8971344244
 20
52.7350287791
 30
0.0
 10
82.845689374
 20
52.7091931914
 30
0.0
 10
82.7967187966
 20
52.6783240798
 30
0.0
 10
82.7505837608
 20
52.6433653339
 30
0.0
 11
82.8971344244
 21
52.7350287791
 31
0.0
 11
82.7505837608
 21
52.6433653339
 31
0.0
  0
SPLINE
  5
45F
100
AcDbEntity
  8
ASSI
100
AcDbSpline
 62
7
  6
CONTINUOUS
 70
0
 71
3
 72
9
 73
5
 74
3
 42
0.0000001
 43
0.0000001
 44
0.0000000001
 12
-0.5411779566
 22
-0.4100766874
 32
0.0
 13
-0.2402471068
 23
-0.6319298447
 33
0.0
 40
0.0
 40
0.0
 40
0.0
 40
0.0
 40
0.5718932389
 40
1.0
 40
1.0
 40
1.0
 40
1.0
 10
82.7505837608
 20
52.6433653339
 30
0.0
 10
82.6474184227
 20
52.5651919723
 30
0.0
 10
82.4918186496
 20
52.3927415646
 30
0.0
 10
82.3919155272
 20
52.1900352801
 30
0.0
 10
82.3576317236
 20
52.0998574671
 30
0.0
 11
82.7505837608
 21
52.6433653339
 31
0.0
 11
82.4876617574
 21
52.358049984
 31
0.0
 11
82.3576317236
 21
52.0998574671
 31
0.0
  0
SPLINE
  5
460
100
AcDbEntity
  8
DRAFT
100
AcDbSpline
 62
7
  6
CONTINUOUS
 70
0
 71
3
 72
14
 73
10
 74
8
 42
0.0000001
 43
0.0000001
 44
0.0000000001
 12
0.0
 22
-9.609483473
 32
0.0
 13
-6.3625208679
 23
-7.2129459224
 33
0.0
 40
0.0
 40
0.0
 40
0.0
 40
0.0
 40
0.1657396342
 40
0.3245989421
 40
0.4763783183
 40
0.6211151738
 40
0.7591184828
 40
0.8910005218
 40
1.0
 40
1.0
 40
1.0
 40
1.0
 10
63.7309100414
 20
-87.0229433505
 30
0.0
 10
63.7309100414
 20
-87.553834109
 30
0.0
 10
63.6919425518
 20
-88.5941299481
 30
0.0
 10
63.5086824687
 20
-90.1108412434
 30
0.0
 10
63.2032077142
 20
-91.5393814514
 30
0.0
 10
62.7778639348
 20
-92.8672737432
 30
0.0
 10
62.2359392908
 20
-94.0829501199
 30
0.0
 10
61.6107128803
 20
-95.1269294663
 30
0.0
 10
61.1353749887
 20
-95.7370230858
 30
0.0
 10
60.9042045039
 20
-95.9990921997
 30
0.0
 11
63.7309100414
 21
-87.0229433505
 31
0.0
 11
63.6687205278
 21
-88.6144009971
 31
0.0
 11
63.4827140705
 21
-90.1295823378
 31
0.0
 11
63.1745493394
 21
-91.5551766682
 31
0.0
 11
62.7469593663
 21
-92.8786647045
 31
0.0
 11
62.2037241301
 21
-94.088434992
 31
0.0
 11
61.5496194819
 21
-95.1739038849
 31
0.0
 11
60.9042045039
 21
-95.9990921997
 31
0.0
  0
SPLINE
  5
461
100
AcDbEntity
  8
DRAFT
100
AcDbSpline
 62
7
  6
CONTINUOUS
 70
0
 71
3
 72
11
 73
7
 74
5
 42
0.0000001
 43
0.0000001
 44
0.0000000001
 12
2.8665425766
 22
-5.2800583803
 32
0.0
 13
1.8356941877
 23
-5.7213341461
 33
0.0
 40
0.0
 40
0.0
 40
0.0
 40
0.0
 40
0.2767376423
 40
0.5883240766
 40
0.8976933655
 40
1.0
 40
1.0
 40
1.0
 40
1.0
 10
60.0346219194
 20
33.0222162101
 30
0.0
 10
60.2990486641
 20
32.5351525743
 30
0.0
 10
60.8348783622
 20
31.4851594642
 30
0.0
 10
61.5646379621
 20
29.8412199747
 30
0.0
 10
62.0750800756
 20
28.4848757348
 30
0.0
 10
62.3348107195
 20
27.7022732131
 30
0.0
 10
62.3974119509
 20
27.507163066
 30
0.0
 11
60.0346219194
 21
33.0222162101
 31
0.0
 11
60.7904022049
 21
31.5412921023
 31
0.0
 11
61.5496831341
 21
29.8302770098
 31
0.0
 11
62.2038153226
 21
28.0905928608
 31
0.0
 11
62.3974119509
 21
27.507163066
 31
0.0
  0
SPLINE
  5
462
100
AcDbEntity
  8
DRAFT
100
AcDbSpline
 62
7
  6
CONTINUOUS
 70
0
 71
3
 72
12
 73
8
 74
6
 42
0.0000001
 43
0.0000001
 44
0.0000000001
 12
2.4902697513
 22
-7.761459102
 32
0.0
 13
-0.0
 23
-8.1499423459
 33
0.0
 40
0.0
 40
0.0
 40
0.0
 40
0.0
 40
0.1497759932
 40
0.3709397466
 40
0.5869926079
 40
0.7969594584
 40
1.0
 40
1.0
 40
1.0
 40
1.0
 10
62.3974119509
 20
27.507163066
 30
0.0
 10
62.5217394927
 20
27.1196696507
 30
0.0
 10
62.8106520899
 20
26.1539001224
 30
0.0
 10
63.1901547042
 20
24.6040168085
 30
0.0
 10
63.4995054967
 20
22.871996744
 30
0.0
 10
63.6872168651
 20
21.172130652
 30
0.0
 10
63.7309100414
 20
20.0497708844
 30
0.0
 10
63.7309100414
 20
19.4981813149
 30
0.0
 11
62.3974119509
 21
27.507163066
 31
0.0
 11
62.7470468014
 21
26.3375377522
 31
0.0
 11
63.1746053715
 21
24.5865099399
 31
0.0
 11
63.4827363249
 21
22.8528615834
 31
0.0
 11
63.6687240299
 21
21.1517811389
 31
0.0
 11
63.7309100414
 21
19.4981813149
 31
0.0
  0
SPLINE
  5
463
100
AcDbEntity
  8
DRAFT
100
AcDbSpline
 62
7
  6
CONTINUOUS
 70
0
 71
3
 72
11
 73
7
 74
5
 42
0.0000001
 43
0.0000001
 44
0.0000000001
 12
5.0769147986
 22
-2.5384573993
 32
0.0
 13
4.1704539145
 23
-3.8521512517
 33
0.0
 40
0.0
 40
0.0
 40
0.0
 40
0.0
 40
0.26721821
 40
0.5461235821
 40
0.8360768805
 40
1.0
 40
1.0
 40
1.0
 40
1.0
 10
49.5887744177
 20
43.8897572025
 30
0.0
 10
50.0409891126
 20
43.663649855
 30
0.0
 10
50.9439142155
 20
43.1579716756
 30
0.0
 10
52.2558354767
 20
42.2712286899
 30
0.0
 10
53.342226454
 20
41.4077186531
 30
0.0
 10
53.9842193958
 20
40.8368744163
 30
0.0
 10
54.2120973343
 20
40.6263888663
 30
0.0
 11
49.5887744177
 21
43.8897572025
 31
0.0
 11
50.9135829074
 21
43.1511866699
 31
0.0
 11
52.2266601097
 21
42.266837614
 31
0.0
 11
53.516460731
 21
41.2445141294
 31
0.0
 11
54.2120973343
 21
40.6263888663
 31
0.0
  0
SPLINE
  5
464
100
AcDbEntity
  8
DRAFT
100
AcDbSpline
 62
7
  6
CONTINUOUS
 70
0
 71
3
 72
8
 73
4
 74
2
 42
0.0000001
 43
0.0000001
 44
0.0000000001
 12
0.717814444
 22
1.3993425344
 32
0.0
 13
0.9194512934
 23
1.2747774286
 33
0.0
 40
0.0
 40
0.0
 40
0.0
 40
0.0
 40
1.0
 40
1.0
 40
1.0
 40
1.0
 10
67.2155779096
 20
44.7269464268
 30
0.0
 10
67.454849391
 20
45.1933939383
 30
0.0
 10
67.7265286347
 20
45.6433392151
 30
0.0
 10
68.0330123992
 20
46.0682650246
 30
0.0
 11
67.2155779096
 21
44.7269464268
 31
0.0
 11
68.0330123992
 21
46.0682650246
 31
0.0
  0
SPLINE
  5
465
100
AcDbEntity
  8
DRAFT
100
AcDbSpline
 62
7
  6
CONTINUOUS
 70
0
 71
3
 72
11
 73
7
 74
5
 42
0.0000001
 43
0.0000001
 44
0.0000000001
 12
3.0395036252
 22
3.4582383566
 32
0.0
 13
4.4700658065
 23
1.1036498058
 33
0.0
 40
0.0
 40
0.0
 40
0.0
 40
0.0
 40
0.2089722862
 40
0.5514504412
 40
0.8918865689
 40
1.0
 40
1.0
 40
1.0
 40
1.0
 10
68.2447969411
 20
45.2225565659
 30
0.0
 10
68.4565209483
 20
45.4634485577
 30
0.0
 10
69.0514425731
 20
46.0671987157
 30
0.0
 10
70.1643445752
 20
46.8777412835
 30
0.0
 10
71.2828197946
 20
47.3685794485
 30
0.0
 10
71.9457799261
 20
47.5552758569
 30
0.0
 10
72.10687131
 20
47.5950489794
 30
0.0
 11
68.2447969411
 21
45.2225565659
 31
0.0
 11
68.9207935825
 21
45.906298213
 31
0.0
 11
70.1954282771
 21
46.8300831708
 31
0.0
 11
71.62786397
 21
47.4599540375
 31
0.0
 11
72.10687131
 21
47.5950489794
 31
0.0
  0
SPLINE
  5
466
100
AcDbEntity
  8
DRAFT
100
AcDbSpline
 62
7
  6
CONTINUOUS
 70
0
 71
3
 72
9
 73
5
 74
3
 42
0.0000001
 43
0.0000001
 44
0.0000000001
 12
0.5715128979
 22
1.7332262598
 32
0.0
 13
0.9083451949
 23
1.5837981873
 33
0.0
 40
0.0
 40
0.0
 40
0.0
 40
0.0
 40
0.7591757723
 40
1.0
 40
1.0
 40
1.0
 40
1.0
 10
-26.527673847
 20
86.8922143772
 30
0.0
 10
-26.3830475985
 20
87.330822172
 30
0.0
 10
-26.153468961
 20
87.8960090233
 30
0.0
 10
-25.8651804875
 20
88.4322745928
 30
0.0
 10
-25.7922633108
 20
88.5594135846
 30
0.0
 11
-26.527673847
 21
86.8922143772
 31
0.0
 11
-26.0006292317
 21
88.172305782
 31
0.0
 11
-25.7922633108
 21
88.5594135846
 31
0.0
  0
SPLINE
  5
467
100
AcDbEntity
  8
DRAFT
100
AcDbSpline
 62
7
  6
CONTINUOUS
 70
0
 71
3
 72
9
 73
5
 74
3
 42
0.0000001
 43
0.0000001
 44
0.0000000001
 12
-1.7201558994
 22
0.3703315488
 32
0.0
 13
-1.7599360807
 23
0.0058507405
 33
0.0
 40
0.0
 40
0.0
 40
0.0
 40
0.0
 40
0.258481747
 40
1.0
 40
1.0
 40
1.0
 40
1.0
 10
43.4130330403
 20
61.4438466918
 30
0.0
 10
43.2648234063
 20
61.4757546737
 30
0.0
 10
42.6883535087
 20
61.5853502844
 30
0.0
 10
42.1014459393
 20
61.6378174517
 30
0.0
 10
41.6664376967
 20
61.6392635953
 30
0.0
 11
43.4130330403
 21
61.4438466918
 31
0.0
 11
42.9661121436
 21
61.5285946915
 31
0.0
 11
41.6664376967
 21
61.6392635953
 31
0.0
  0
SPLINE
  5
468
100
AcDbEntity
  8
RACCORDO
100
AcDbSpline
 62
7
  6
CONTINUOUS
 70
0
 71
3
 72
9
 73
5
 74
3
 42
0.0000001
 43
0.0000001
 44
0.0000000001
 12
0.1138964721
 22
0.0861351242
 32
0.0
 13
-0.0012390194
 23
0.1419306143
 33
0.0
 40
0.0
 40
0.0
 40
0.0
 40
0.0
 40
0.6372434341
 40
1.0
 40
1.0
 40
1.0
 40
1.0
 10
96.6686954666
 20
-71.317433745
 30
0.0
 10
96.6928887262
 20
-71.2991373976
 30
0.0
 10
96.7241265757
 20
-71.2593741741
 30
0.0
 10
96.730763878
 20
-71.2125260948
 30
0.0
 10
96.7306140572
 20
-71.1953640073
 30
0.0
 11
96.6686954666
 21
-71.317433745
 31
0.0
 11
96.7227111848
 21
-71.2455826789
 31
0.0
 11
96.7306140572
 21
-71.1953640073
 31
0.0
  0
SPLINE
  5
469
100
AcDbEntity
  8
RACCORDO
100
AcDbSpline
 62
7
  6
CONTINUOUS
 70
0
 71
3
 72
9
 73
5
 74
3
 42
0.0000001
 43
0.0000001
 44
0.0000000001
 12
0.0963702288
 22
0.0794496916
 32
0.0
 13
-0.0392744638
 23
0.1095510427
 33
0.0
 40
0.0
 40
0.0
 40
0.0
 40
0.0
 40
0.725109936
 40
1.0
 40
1.0
 40
1.0
 40
1.0
 10
94.2343590844
 20
-73.0804012948
 30
0.0
 10
94.2576520878
 20
-73.0611980412
 30
0.0
 10
94.2834439891
 20
-73.0234590557
 30
0.0
 10
94.2767437517
 20
-72.9861151995
 30
0.0
 10
94.2731450318
 20
-72.9760770352
 30
0.0
 11
94.2343590844
 21
-73.0804012948
 31
0.0
 11
94.2779721554
 21
-73.0066759673
 31
0.0
 11
94.2731450318
 21
-72.9760770352
 31
0.0
  0
SPLINE
  5
46A
100
AcDbEntity
  8
RACCORDO
100
AcDbSpline
 62
7
  6
CONTINUOUS
 70
0
 71
3
 72
8
 73
4
 74
2
 42
0.0000001
 43
0.0000001
 44
0.0000000001
 12
-0.0084052344
 22
0.0234453153
 32
0.0
 13
-0.0138059391
 23
0.022339218
 33
0.0
 40
0.0
 40
0.0
 40
0.0
 40
0.0
 40
1.0
 40
1.0
 40
1.0
 40
1.0
 10
94.2731450318
 20
-72.9760770352
 30
0.0
 10
94.270343287
 20
-72.96826193
 30
0.0
 10
94.2664766493
 20
-72.9605845911
 30
0.0
 10
94.2618746696
 20
-72.9531381851
 30
0.0
 11
94.2731450318
 21
-72.9760770352
 31
0.0
 11
94.2618746696
 21
-72.9531381851
 31
0.0
  0
SPLINE
  5
46B
100
AcDbEntity
  8
RACCORDO
100
AcDbSpline
 62
7
  6
CONTINUOUS
 70
0
 71
3
 72
9
 73
5
 74
3
 42
0.0000001
 43
0.0000001
 44
0.0000000001
 12
0.0899975729
 22
0.078366212
 32
0.0
 13
-0.0375035961
 23
0.1050629001
 33
0.0
 40
0.0
 40
0.0
 40
0.0
 40
0.0
 40
0.717019193
 40
1.0
 40
1.0
 40
1.0
 40
1.0
 10
94.2387505613
 20
51.7606847245
 30
0.0
 10
94.260260557
 20
51.7794147506
 30
0.0
 10
94.2831504063
 20
51.8166105845
 30
0.0
 10
94.2766356509
 20
51.8525588568
 30
0.0
 10
94.2730980516
 20
51.8624691183
 30
0.0
 11
94.2387505613
 21
51.7606847245
 31
0.0
 11
94.2779680864
 21
51.8321136122
 31
0.0
 11
94.2730980516
 21
51.8624691183
 31
0.0
  0
SPLINE
  5
46C
100
AcDbEntity
  8
RACCORDO
100
AcDbSpline
 62
7
  6
CONTINUOUS
 70
0
 71
3
 72
8
 73
4
 74
2
 42
0.0000001
 43
0.0000001
 44
0.0000000001
 12
-0.0083311858
 22
0.0233390565
 32
0.0
 13
-0.0136361434
 23
0.0221329595
 33
0.0
 40
0.0
 40
0.0
 40
0.0
 40
0.0
 40
1.0
 40
1.0
 40
1.0
 40
1.0
 10
94.2730980516
 20
51.8624691183
 30
0.0
 10
94.2703209897
 20
51.8702488037
 30
0.0
 10
94.2664999777
 20
51.8778667804
 30
0.0
 10
94.2619545966
 20
51.8852444336
 30
0.0
 11
94.2730980516
 21
51.8624691183
 31
0.0
 11
94.2619545966
 21
51.8852444336
 31
0.0
  0
SPLINE
  5
46D
100
AcDbEntity
  8
RACCORDO
100
AcDbSpline
 62
7
  6
CONTINUOUS
 70
0
 71
3
 72
8
 73
4
 74
2
 42
0.0000001
 43
0.0000001
 44
0.0000000001
 12
0.0204302068
 22
-0.014046195
 32
0.0
 13
0.0147898982
 23
-0.0202986343
 33
0.0
 40
0.0
 40
0.0
 40
0.0
 40
0.0
 40
1.0
 40
1.0
 40
1.0
 40
1.0
 10
93.0728720285
 20
53.9155528056
 30
0.0
 10
93.0796820974
 20
53.9108707407
 30
0.0
 10
93.0858220303
 20
53.9048515143
 30
0.0
 10
93.0907519964
 20
53.8980853029
 30
0.0
 11
93.0728720285
 21
53.9155528056
 31
0.0
 11
93.0907519964
 21
53.8980853029
 31
0.0
  0
SPLINE
  5
46E
100
AcDbEntity
  8
RACCORDO
100
AcDbSpline
 62
7
  6
CONTINUOUS
 70
0
 71
3
 72
8
 73
4
 74
2
 42
0.0000001
 43
0.0000001
 44
0.0000000001
 12
0.1696957593
 22
0.0841465972
 32
0.0
 13
0.191832236
 23
0.0181125607
 33
0.0
 40
0.0
 40
0.0
 40
0.0
 40
0.0
 40
1.0
 40
1.0
 40
1.0
 40
1.0
 10
94.7710944197
 20
51.1921874442
 30
0.0
 10
94.8276596728
 20
51.2202363099
 30
0.0
 10
94.8904960641
 20
51.2372473636
 30
0.0
 10
94.9544401428
 20
51.2432848838
 30
0.0
 11
94.7710944197
 21
51.1921874442
 31
0.0
 11
94.9544401428
 21
51.2432848838
 31
0.0
  0
SPLINE
  5
46F
100
AcDbEntity
  8
RACCORDO
100
AcDbSpline
 62
7
  6
CONTINUOUS
 70
0
 71
3
 72
13
 73
9
 74
7
 42
0.0000001
 43
0.0000001
 44
0.0000000001
 12
1.999860994
 22
-0.1728065666
 32
0.0
 13
-1.6091476542
 23
-1.1923502096
 33
0.0
 40
0.0
 40
0.0
 40
0.0
 40
0.0
 40
0.1694053979
 40
0.3634470852
 40
0.5597592094
 40
0.7448546631
 40
0.9023375081
 40
1.0
 40
1.0
 40
1.0
 40
1.0
 10
95.0556304744
 20
51.2437028691
 30
0.0
 10
95.1685595568
 20
51.2339447474
 30
0.0
 10
95.399967386
 20
51.1391950099
 30
0.0
 10
95.6611017607
 20
50.8656678643
 30
0.0
 10
95.8266416983
 20
50.5168124041
 30
0.0
 10
95.8708119634
 20
50.1552924119
 30
0.0
 10
95.7838544003
 20
49.8664151347
 30
0.0
 10
95.6645913232
 20
49.7384271591
 30
0.0
 10
95.6122068666
 20
49.6996111949
 30
0.0
 11
95.0556304744
 21
51.2437028691
 31
0.0
 11
95.3708429185
 21
51.1276181278
 31
0.0
 11
95.6427921723
 21
50.8554359534
 31
0.0
 11
95.8090833611
 21
50.5034822725
 31
0.0
 11
95.8451244056
 21
50.1382363021
 31
0.0
 11
95.7458025854
 21
49.8421851387
 31
0.0
 11
95.6122068666
 21
49.6996111949
 31
0.0
  0
SPLINE
  5
470
100
AcDbEntity
  8
RACCORDO
100
AcDbSpline
 62
7
  6
CONTINUOUS
 70
0
 71
3
 72
8
 73
4
 74
2
 42
0.0000001
 43
0.0000001
 44
0.0000000001
 12
-0.0688389897
 22
-0.0510084849
 32
0.0
 13
-0.0757452364
 23
-0.0381866803
 33
0.0
 40
0.0
 40
0.0
 40
0.0
 40
0.0
 40
1.0
 40
1.0
 40
1.0
 40
1.0
 10
95.6122068666
 20
49.6996111949
 30
0.0
 10
95.5892605367
 20
49.6826083666
 30
0.0
 10
95.5650221322
 20
49.6675577368
 30
0.0
 10
95.5397737201
 20
49.6548288434
 30
0.0
 11
95.6122068666
 21
49.6996111949
 31
0.0
 11
95.5397737201
 21
49.6548288434
 31
0.0
  0
SPLINE
  5
471
100
AcDbEntity
  8
RACCORDO
100
AcDbSpline
 62
7
  6
CONTINUOUS
 70
0
 71
3
 72
12
 73
8
 74
6
 42
0.0000001
 43
0.0000001
 44
0.0000000001
 12
12.171327441
 22
6.4253598819
 32
0.0
 13
0.2115987175
 23
13.7675899224
 33
0.0
 40
0.0
 40
0.0
 40
0.0
 40
0.0
 40
0.1768920064
 40
0.3635915853
 40
0.5661480336
 40
0.7869611515
 40
1.0
 40
1.0
 40
1.0
 40
1.0
 10
61.6992149333
 20
-98.4322734199
 30
0.0
 10
62.4168851104
 20
-98.0534084862
 30
0.0
 10
63.7895647052
 20
-97.0635573175
 30
0.0
 10
65.4384783006
 20
-95.0227075624
 30
0.0
 10
66.64690116
 20
-92.4726815998
 30
0.0
 10
67.3455107465
 20
-89.6212525529
 30
0.0
 10
67.504465329
 20
-87.6291076232
 30
0.0
 10
67.519491578
 20
-86.6514304554
 30
0.0
 11
61.6992149333
 21
-98.4322734199
 31
0.0
 11
63.6782832883
 21
-97.0143204813
 31
0.0
 11
65.3088624774
 21
-95.0283700673
 31
0.0
 11
66.5251604183
 21
-92.5198606814
 31
0.0
 11
67.2718512153
 21
-89.5739159634
 31
0.0
 11
67.519491578
 21
-86.6514304554
 31
0.0
  0
SPLINE
  5
472
100
AcDbEntity
  8
RACCORDO
100
AcDbSpline
 62
7
  6
CONTINUOUS
 70
0
 71
3
 72
15
 73
11
 74
9
 42
0.0000001
 43
0.0000001
 44
0.0000000001
 12
0.0
 22
31.9344107752
 32
0.0
 13
-28.5630053259
 23
14.2815026629
 33
0.0
 40
0.0
 40
0.0
 40
0.0
 40
0.0
 40
0.1204411416
 40
0.2473916607
 40
0.3783603972
 40
0.5106626666
 40
0.6414730086
 40
0.7681025658
 40
0.8882121922
 40
1.0
 40
1.0
 40
1.0
 40
1.0
 10
67.5222016696
 20
20.2238558444
 30
0.0
 10
67.5222016696
 20
21.5059281415
 30
0.0
 10
67.3053538846
 20
24.1421111088
 30
0.0
 10
66.4234105868
 20
28.0828079123
 30
0.0
 10
65.0123874038
 20
32.0008466805
 30
0.0
 10
63.1251523086
 20
35.7583450199
 30
0.0
 10
60.8277973853
 20
39.2252112939
 30
0.0
 10
58.1973481067
 20
42.2793831973
 30
0.0
 10
55.3227535622
 20
44.8088862539
 30
0.0
 10
53.2216402737
 20
46.1332225017
 30
0.0
 10
52.1573083567
 20
46.6653884601
 30
0.0
 11
67.5222016696
 21
20.2238558444
 31
0.0
 11
67.2257778865
 21
24.0586331932
 31
0.0
 11
66.3524823438
 21
28.0175472904
 31
0.0
 11
64.940785717
 21
31.9545082078
 31
0.0
 11
63.0444559753
 21
35.7300235902
 31
0.0
 11
60.7318598084
 21
39.2088397637
 31
0.0
 11
58.0836446677
 21
42.2649158301
 31
0.0
 11
55.1911623527
 21
44.7839641957
 31
0.0
 11
52.1573083567
 21
46.6653884601
 31
0.0
  0
SPLINE
  5
473
100
AcDbEntity
  8
RACCORDO
100
AcDbSpline
 62
7
  6
CONTINUOUS
 70
0
 71
3
 72
11
 73
7
 74
5
 42
0.0000001
 43
0.0000001
 44
0.0000000001
 12
-8.6911967828
 22
3.729743442
 32
0.0
 13
-8.5387368495
 23
-4.0362609375
 33
0.0
 40
0.0
 40
0.0
 40
0.0
 40
0.0
 40
0.2030419491
 40
0.4872318289
 40
0.7500840364
 40
1.0
 40
1.0
 40
1.0
 40
1.0
 10
-64.7175742455
 20
105.0706347424
 30
0.0
 10
-65.3058000903
 20
105.3230662017
 30
0.0
 10
-66.7535731989
 20
105.8470480695
 30
0.0
 10
-69.0931434371
 20
106.2810464004
 30
0.0
 10
-71.6235260638
 20
106.1591958861
 30
0.0
 10
-73.1834694766
 20
105.6648383392
 30
0.0
 10
-73.8947916925
 20
105.3285963253
 30
0.0
 11
-64.7175742455
 21
105.0706347424
 31
0.0
 11
-66.5249414025
 21
105.7177415885
 31
0.0
 11
-69.1679611066
 21
106.1853964568
 31
0.0
 11
-71.6466987167
 21
106.0479153455
 31
0.0
 11
-73.8947916925
 21
105.3285963253
 31
0.0
  0
SPLINE
  5
474
100
AcDbEntity
  8
DRAFT
100
AcDbSpline
 62
7
  6
CONTINUOUS
 70
0
 71
3
 72
10
 73
6
 74
4
 42
0.0000001
 43
0.0000001
 44
0.0000000001
 12
-4.0451808979
 22
-1.0017241165
 32
0.0
 13
-2.5100506166
 23
-3.3201509317
 33
0.0
 40
0.0
 40
0.0
 40
0.0
 40
0.0
 40
0.3135604148
 40
0.7780501343
 40
1.0
 40
1.0
 40
1.0
 40
1.0
 10
40.3466319532
 20
60.5179737105
 30
0.0
 10
39.9238290864
 20
60.4132733674
 30
0.0
 10
38.9020038506
 20
60.0421365748
 30
0.0
 10
37.7665334173
 20
59.2092155961
 30
0.0
 10
37.1429758493
 20
58.4872465917
 30
0.0
 10
36.9572740502
 20
58.2416109072
 30
0.0
 11
40.3466319532
 21
60.5179737105
 31
0.0
 11
39.1226954323
 21
60.0691555137
 31
0.0
 11
37.562507628
 21
58.9384174041
 31
0.0
 11
36.9572740502
 21
58.2416109072
 31
0.0
  0
SPLINE
  5
475
100
AcDbEntity
  8
DRAFT
100
AcDbSpline
 62
7
  6
CONTINUOUS
 70
0
 71
3
 72
9
 73
5
 74
3
 42
0.0000001
 43
0.0000001
 44
0.0000000001
 12
-1.1019057432
 22
-1.5644436227
 32
0.0
 13
-0.7402914285
 23
-1.7612107083
 33
0.0
 40
0.0
 40
0.0
 40
0.0
 40
0.0
 40
0.7096205374
 40
1.0
 40
1.0
 40
1.0
 40
1.0
 10
37.1220218217
 20
59.5433368531
 30
0.0
 10
36.8613768398
 20
59.1732830784
 30
0.0
 10
36.5386451758
 20
58.6197935038
 30
0.0
 10
36.2754290109
 20
58.0394565309
 30
0.0
 10
36.2037738685
 20
57.8689833912
 30
0.0
 11
37.1220218217
 21
59.5433368531
 31
0.0
 11
36.4333125086
 21
58.3742286286
 31
0.0
 11
36.2037738685
 21
57.8689833912
 31
0.0
  0
SPLINE
  5
476
100
AcDbEntity
  8
DRAFT
100
AcDbSpline
 62
7
  6
CONTINUOUS
 70
0
 71
3
 72
9
 73
5
 74
3
 42
0.0000001
 43
0.0000001
 44
0.0000000001
 12
1.4809333723
 22
-0.2012206917
 32
0.0
 13
1.4261058098
 23
-0.4475537443
 33
0.0
 40
0.0
 40
0.0
 40
0.0
 40
0.0
 40
0.7187470725
 40
1.0
 40
1.0
 40
1.0
 40
1.0
 10
-18.4041816744
 20
91.9733720979
 30
0.0
 10
-18.0493761658
 20
91.9251631702
 30
0.0
 10
-17.5602879476
 20
91.8248625472
 30
0.0
 10
-17.0817038848
 20
91.6858525876
 30
0.0
 10
-16.9480050735
 20
91.6438939873
 30
0.0
 11
-18.4041816744
 21
91.9733720979
 31
0.0
 11
-17.3517411346
 21
91.760984471
 31
0.0
 11
-16.9480050735
 21
91.6438939873
 31
0.0
  0
SPLINE
  5
477
100
AcDbEntity
  8
DRAFT
100
AcDbSpline
 62
7
  6
CONTINUOUS
 70
0
 71
3
 72
8
 73
4
 74
2
 42
0.0000001
 43
0.0000001
 44
0.0000000001
 12
1.4107441471
 22
-0.0095498399
 32
0.0
 13
1.3968815456
 23
-0.2055302564
 33
0.0
 40
0.0
 40
0.0
 40
0.0
 40
0.0
 40
1.0
 40
1.0
 40
1.0
 40
1.0
 10
73.8694704247
 20
48.7638123694
 30
0.0
 10
74.3397184738
 20
48.7606290895
 30
0.0
 10
74.8100157093
 20
48.7222802414
 30
0.0
 10
75.2756428911
 20
48.6537701559
 30
0.0
 11
73.8694704247
 21
48.7638123694
 31
0.0
 11
75.2756428911
 21
48.6537701559
 31
0.0
  0
SPLINE
  5
478
100
AcDbEntity
  8
DRAFT
100
AcDbSpline
 62
7
  6
CONTINUOUS
 70
0
 71
3
 72
12
 73
8
 74
6
 42
0.0000001
 43
0.0000001
 44
0.0000000001
 12
6.0750369666
 22
0.3474963904
 32
0.0
 13
5.4382999234
 23
-2.7191499617
 33
0.0
 40
0.0
 40
0.0
 40
0.0
 40
0.0
 40
0.1107998378
 40
0.3179398477
 40
0.5345721828
 40
0.7617380748
 40
1.0
 40
1.0
 40
1.0
 40
1.0
 10
-72.2333223133
 20
103.2457754575
 30
0.0
 10
-72.0089512766
 20
103.2586096387
 30
0.0
 10
-71.3636797483
 20
103.2706610879
 30
0.0
 10
-70.2812696568
 20
103.1780619179
 30
0.0
 10
-68.9872863797
 20
102.906007745
 30
0.0
 10
-67.6719454523
 20
102.4728399137
 30
0.0
 10
-66.8086509669
 20
102.0884698948
 30
0.0
 10
-66.3767376969
 20
101.8725132598
 30
0.0
 11
-72.2333223133
 21
103.2457754575
 31
0.0
 11
-71.559388358
 21
103.258857133
 31
0.0
 11
-70.3042301914
 21
103.1549282156
 31
0.0
 11
-69.0145061707
 21
102.8874480101
 31
0.0
 11
-67.7015089665
 21
102.4587368959
 31
0.0
 11
-66.3767376969
 21
101.8725132598
 31
0.0
  0
SPLINE
  5
479
100
AcDbEntity
  8
DRAFT
100
AcDbSpline
 62
7
  6
CONTINUOUS
 70
0
 71
3
 72
9
 73
5
 74
3
 42
0.0000001
 43
0.0000001
 44
0.0000000001
 12
0.3220024638
 22
1.5578015402
 32
0.0
 13
0.5281850121
 23
1.5010125946
 33
0.0
 40
0.0
 40
0.0
 40
0.0
 40
0.0
 40
0.6269362188
 40
1.0
 40
1.0
 40
1.0
 40
1.0
 10
-26.8411943012
 20
86.7376035374
 30
0.0
 10
-26.7739026321
 20
87.0631509398
 30
0.0
 10
-26.6466326645
 20
87.5782231284
 30
0.0
 10
-26.4843872257
 20
88.083442309
 30
0.0
 10
-26.4187049931
 20
88.2701001204
 30
0.0
 11
-26.8411943012
 21
86.7376035374
 31
0.0
 11
-26.6005752528
 21
87.7051130453
 31
0.0
 11
-26.4187049931
 21
88.2701001204
 31
0.0
  0
SPLINE
  5
47A
100
AcDbEntity
  8
RACCORDO
100
AcDbSpline
 62
7
  6
CONTINUOUS
 70
0
 71
3
 72
9
 73
5
 74
3
 42
0.0000001
 43
0.0000001
 44
0.0000000001
 12
0.1384279084
 22
0.0652822181
 32
0.0
 13
0.1381736721
 23
-0.0689291728
 33
0.0
 40
0.0
 40
0.0
 40
0.0
 40
0.0
 40
0.7937629678
 40
1.0
 40
1.0
 40
1.0
 40
1.0
 10
-33.0936110044
 20
116.9298811348
 30
0.0
 10
-33.0569846885
 20
116.9471540038
 30
0.0
 10
-33.0002329395
 20
116.9505688087
 30
0.0
 10
-32.9522664569
 20
116.9314805826
 30
0.0
 10
-32.9427676142
 20
116.926742
 30
0.0
 11
-33.0936110044
 21
116.9298811348
 31
0.0
 11
-32.9724250569
 21
116.9383968433
 31
0.0
 11
-32.9427676142
 21
116.926742
 31
0.0
  0
SPLINE
  5
47B
100
AcDbEntity
  8
RACCORDO
100
AcDbSpline
 62
7
  6
CONTINUOUS
 70
0
 71
3
 72
9
 73
5
 74
3
 42
0.0000001
 43
0.0000001
 44
0.0000000001
 12
0.1559398762
 22
0.0768837432
 32
0.0
 13
0.0999365309
 23
-0.1449209387
 33
0.0
 40
0.0
 40
0.0
 40
0.0
 40
0.0
 40
0.7068935297
 40
1.0
 40
1.0
 40
1.0
 40
1.0
 10
95.3925490884
 20
49.7048407461
 30
0.0
 10
95.4292933849
 20
49.722956953
 30
0.0
 10
95.5012792557
 20
49.7183176319
 30
0.0
 10
95.5416118027
 20
49.6764270741
 30
0.0
 10
95.5513758173
 20
49.6622679858
 30
0.0
 11
95.3925490884
 21
49.7048407461
 31
0.0
 11
95.5152489603
 21
49.6977835551
 31
0.0
 11
95.5513758173
 21
49.6622679858
 31
0.0
  0
SPLINE
  5
47C
100
AcDbEntity
  8
RACCORDO
100
AcDbSpline
 62
7
  6
CONTINUOUS
 70
0
 71
3
 72
8
 73
4
 74
2
 42
0.0000001
 43
0.0000001
 44
0.0000000001
 12
0.0113752874
 22
-0.016495643
 32
0.0
 13
0.0096296142
 23
-0.0179655408
 33
0.0
 40
0.0
 40
0.0
 40
0.0
 40
0.0
 40
1.0
 40
1.0
 40
1.0
 40
1.0
 10
95.5513758173
 20
49.6622679858
 30
0.0
 10
95.5551675798
 20
49.6567694381
 30
0.0
 10
95.5586490215
 20
49.650987266
 30
0.0
 10
95.5618588929
 20
49.6449987524
 30
0.0
 11
95.5513758173
 21
49.6622679858
 31
0.0
 11
95.5618588929
 21
49.6449987524
 31
0.0
  0
SPLINE
  5
47D
100
AcDbEntity
  8
RACCORDO
100
AcDbSpline
 62
253
  6
CONTINUOUS
 70
0
 71
3
 72
9
 73
5
 74
3
 42
0.0000001
 43
0.0000001
 44
0.0000000001
 12
0.1729384062
 22
0.0860524592
 32
0.0
 13
0.0027322734
 23
0.1897993088
 33
0.0
 40
0.0
 40
0.0
 40
0.0
 40
0.0
 40
0.367427769
 40
1.0
 40
1.0
 40
1.0
 40
1.0
 10
89.7405646924
 20
56.085530534
 30
0.0
 10
89.7617454833
 20
56.0960698884
 30
0.0
 10
89.8122053395
 20
56.1423926091
 30
0.0
 10
89.8226382055
 20
56.2091710295
 30
0.0
 10
89.8232143256
 20
56.2491916202
 30
0.0
 11
89.7405646924
 21
56.085530534
 31
0.0
 11
89.7934224177
 21
56.1328719804
 31
0.0
 11
89.8232143256
 21
56.2491916202
 31
0.0
  0
SPLINE
  5
47E
100
AcDbEntity
  8
RACCORDO
100
AcDbSpline
 62
253
  6
CONTINUOUS
 70
0
 71
3
 72
9
 73
5
 74
3
 42
0.0000001
 43
0.0000001
 44
0.0000000001
 12
0.1729384062
 22
0.0860524592
 32
0.0
 13
0.0027322734
 23
0.1897993088
 33
0.0
 40
0.0
 40
0.0
 40
0.0
 40
0.0
 40
0.367427769
 40
1.0
 40
1.0
 40
1.0
 40
1.0
 10
60.89060802
 20
70.5105088702
 30
0.0
 10
60.9117888109
 20
70.5210482246
 30
0.0
 10
60.9622486671
 20
70.5673709453
 30
0.0
 10
60.9726815331
 20
70.6341493657
 30
0.0
 10
60.9732576532
 20
70.6741699564
 30
0.0
 11
60.89060802
 21
70.5105088702
 31
0.0
 11
60.9434657453
 21
70.5578503166
 31
0.0
 11
60.9732576532
 21
70.6741699564
 31
0.0
  0
SPLINE
  5
47F
100
AcDbEntity
  8
RACCORDO
100
AcDbSpline
 62
253
  6
CONTINUOUS
 70
0
 71
3
 72
17
 73
13
 74
11
 42
0.0000001
 43
0.0000001
 44
0.0000000001
 12
0.0
 22
-13.672978554
 32
0.0
 13
-12.1127229037
 23
-6.3913428291
 33
0.0
 40
0.0
 40
0.0
 40
0.0
 40
0.0
 40
0.0869027532
 40
0.1799436387
 40
0.2793722717
 40
0.3846160374
 40
0.4951900333
 40
0.6105920443
 40
0.7305479849
 40
0.8545308617
 40
0.9784413842
 40
1.0
 40
1.0
 40
1.0
 40
1.0
 10
67.24154147
 20
-86.6445980063
 30
0.0
 10
67.24154147
 20
-87.0406711667
 30
0.0
 10
67.2206256388
 20
-87.8609687872
 30
0.0
 10
67.1153765675
 20
-89.1306793385
 30
0.0
 10
66.9124713757
 20
-90.4735269916
 30
0.0
 10
66.5846374845
 20
-91.874275644
 30
0.0
 10
66.1007361267
 20
-93.3071224837
 30
0.0
 10
65.42531344
 20
-94.7364562878
 30
0.0
 10
64.5215722356
 20
-96.1100571944
 30
0.0
 10
63.3708308507
 20
-97.342349455
 30
0.0
 10
62.3680121965
 20
-98.0658561933
 30
0.0
 10
61.7862418127
 20
-98.3863104952
 30
0.0
 10
61.6991972994
 20
-98.4322399968
 30
0.0
 11
67.24154147
 21
-86.6445980063
 31
0.0
 11
67.2104061893
 21
-87.8324094937
 31
0.0
 11
67.1040736935
 21
-89.1001038291
 31
0.0
 11
66.8991240756
 21
-90.44405199
 31
0.0
 11
66.5685719068
 21
-91.8445676218
 31
0.0
 11
66.0811964323
 21
-93.275732814
 31
0.0
 11
65.402374663
 21
-94.7001398486
 31
0.0
 11
64.4955228303
 21
-96.0667883727
 31
0.0
 11
63.3338079703
 21
-97.3013624748
 31
0.0
 11
61.9577924232
 21
-98.2897868105
 31
0.0
 11
61.6991972994
 21
-98.4322399968
 31
0.0
  0
SPLINE
  5
480
100
AcDbEntity
  8
RACCORDO
100
AcDbSpline
 62
253
  6
CONTINUOUS
 70
0
 71
3
 72
23
 73
19
 74
17
 42
0.0000001
 43
0.0000001
 44
0.0000000001
 12
26.3534567595
 22
-15.2241889233
 32
0.0
 13
0.987952691
 23
-30.4169651412
 33
0.0
 40
0.0
 40
0.0
 40
0.0
 40
0.0
 40
0.0417160615
 40
0.089372744
 40
0.1436181115
 40
0.2051896668
 40
0.274756935
 40
0.3528358354
 40
0.4390353662
 40
0.5289695576
 40
0.6161869484
 40
0.6961857056
 40
0.7684951138
 40
0.8332642911
 40
0.8908390249
 40
0.9416921075
 40
0.9863653043
 40
1.0
 40
1.0
 40
1.0
 40
1.0
 10
52.7049904308
 20
46.1136148765
 30
0.0
 10
53.0714445715
 20
45.9019171428
 30
0.0
 10
53.8416242826
 20
45.4227618333
 30
0.0
 10
55.027921745
 20
44.5755869174
 30
0.0
 10
56.3119901825
 20
43.5246113519
 30
0.0
 10
57.6841651455
 20
42.2368179787
 30
0.0
 10
59.1275280142
 20
40.6787647162
 30
0.0
 10
60.6108627162
 20
38.8251872754
 30
0.0
 10
62.0680751642
 20
36.6949189075
 30
0.0
 10
63.4047862741
 20
34.3792310395
 30
0.0
 10
64.5365371628
 20
32.0266538606
 30
0.0
 10
65.4317465306
 20
29.7660257003
 30
0.0
 10
66.1041431924
 20
27.6677754376
 30
0.0
 10
66.5870482212
 20
25.7520996508
 30
0.0
 10
66.9139117449
 20
24.0250363944
 30
0.0
 10
67.1156516406
 20
22.4844928574
 30
0.0
 10
67.2001579809
 20
21.3800226909
 30
0.0
 10
67.2243817442
 20
20.7889936447
 30
0.0
 10
67.228871889
 20
20.650751623
 30
0.0
 11
52.7049904308
 21
46.1136148765
 31
0.0
 11
53.7834686247
 21
45.4441455953
 31
0.0
 11
54.9644680344
 21
44.6026348969
 31
0.0
 11
56.2429316395
 21
43.5585610182
 31
0.0
 11
57.6104433423
 21
42.2778945524
 31
0.0
 11
59.0505946457
 21
40.7264354199
 31
0.0
 11
60.536679205
 21
38.8727310087
 31
0.0
 11
62.0189728007
 21
36.7087798994
 31
0.0
 11
63.3877738409
 21
34.3391114007
 31
0.0
 11
64.5381148152
 21
31.9474526882
 31
0.0
 11
65.4335958769
 21
29.6838750761
 31
0.0
 11
66.1039778259
 21
27.5881956164
 31
0.0
 11
66.5845422219
 21
25.6768314657
 31
0.0
 11
66.9091850092
 21
23.9552405253
 31
0.0
 11
67.1090802059
 21
22.420805562
 31
0.0
 11
67.2119091426
 21
21.065346568
 31
0.0
 11
67.228871889
 21
20.650751623
 31
0.0
  0
SPLINE
  5
481
100
AcDbEntity
  8
RACCORDO
100
AcDbSpline
 62
253
  6
CONTINUOUS
 70
0
 71
3
 72
9
 73
5
 74
3
 42
0.0000001
 43
0.0000001
 44
0.0000000001
 12
0.1729384062
 22
0.0860524592
 32
0.0
 13
0.0027322734
 23
0.1897993088
 33
0.0
 40
0.0
 40
0.0
 40
0.0
 40
0.0
 40
0.367427769
 40
1.0
 40
1.0
 40
1.0
 40
1.0
 10
29.353645579
 20
86.2789900907
 30
0.0
 10
29.37482637
 20
86.2895294451
 30
0.0
 10
29.4252862262
 20
86.3358521657
 30
0.0
 10
29.4357190922
 20
86.4026305862
 30
0.0
 10
29.4362952123
 20
86.4426511769
 30
0.0
 11
29.353645579
 21
86.2789900907
 31
0.0
 11
29.4065033044
 21
86.3263315371
 31
0.0
 11
29.4362952123
 21
86.4426511769
 31
0.0
  0
SPLINE
  5
482
100
AcDbEntity
  8
DRAFT
100
AcDbSpline
 62
7
  6
CONTINUOUS
 70
0
 71
3
 72
9
 73
5
 74
3
 42
0.0000001
 43
0.0000001
 44
0.0000000001
 12
0.3550120096
 22
1.5375155582
 32
0.0
 13
0.5664642984
 23
1.4733015892
 33
0.0
 40
0.0
 40
0.0
 40
0.0
 40
0.0
 40
0.5257821442
 40
1.0
 40
1.0
 40
1.0
 40
1.0
 10
-27.4816562963
 20
86.4839860095
 30
0.0
 10
-27.4194366378
 20
86.7534520852
 30
0.0
 10
-27.283945643
 20
87.2619412345
 30
0.0
 10
-27.1131175193
 20
87.7600026466
 30
0.0
 10
-27.0235750243
 20
87.9928912868
 30
0.0
 11
-27.4816562963
 21
86.4839860095
 31
0.0
 11
-27.2671903078
 21
87.2852784004
 31
0.0
 11
-27.0235750243
 21
87.9928912868
 31
0.0
  0
SPLINE
  5
483
100
AcDbEntity
  8
RACCORDO
100
AcDbSpline
 62
253
  6
CONTINUOUS
 70
0
 71
3
 72
9
 73
5
 74
3
 42
0.0000001
 43
0.0000001
 44
0.0000000001
 12
0.1729384062
 22
0.0860524592
 32
0.0
 13
0.0027322734
 23
0.1897993088
 33
0.0
 40
0.0
 40
0.0
 40
0.0
 40
0.0
 40
0.367427769
 40
1.0
 40
1.0
 40
1.0
 40
1.0
 10
0.5036889066
 20
100.7039684269
 30
0.0
 10
0.5248696976
 20
100.7145077813
 30
0.0
 10
0.5753295538
 20
100.7608305019
 30
0.0
 10
0.5857624198
 20
100.8276089224
 30
0.0
 10
0.5863385399
 20
100.8676295131
 30
0.0
 11
0.5036889066
 21
100.7039684269
 31
0.0
 11
0.556546632
 21
100.7513098733
 31
0.0
 11
0.5863385399
 21
100.8676295131
 31
0.0
  0
SPLINE
  5
484
100
AcDbEntity
  8
RACCORDO
100
AcDbSpline
 62
253
  6
CONTINUOUS
 70
0
 71
3
 72
9
 73
5
 74
3
 42
0.0000001
 43
0.0000001
 44
0.0000000001
 12
0.0910565246
 22
0.0512848053
 32
0.0
 13
0.1014511168
 23
-0.0281900672
 33
0.0
 40
0.0
 40
0.0
 40
0.0
 40
0.0
 40
0.3184296284
 40
1.0
 40
1.0
 40
1.0
 40
1.0
 10
97.40301551
 20
6.5703785596
 30
0.0
 10
97.4126805418
 20
6.5758220934
 30
0.0
 10
97.4450148479
 20
6.5888181448
 30
0.0
 10
97.4805451347
 20
6.5855841232
 30
0.0
 10
97.5035938265
 20
6.5791796184
 30
0.0
 11
97.40301551
 21
6.5703785596
 31
0.0
 11
97.4335970082
 21
6.5824530614
 31
0.0
 11
97.5035938265
 21
6.5791796184
 31
0.0
  0
SPLINE
  5
485
100
AcDbEntity
  8
RACCORDO
100
AcDbSpline
 62
253
  6
CONTINUOUS
 70
0
 71
3
 72
8
 73
4
 74
2
 42
0.0000001
 43
0.0000001
 44
0.0000000001
 12
0.0389769758
 22
-0.0108304729
 32
0.0
 13
0.0353255841
 23
-0.0170439896
 33
0.0
 40
0.0
 40
0.0
 40
0.0
 40
0.0
 40
1.0
 40
1.0
 40
1.0
 40
1.0
 10
97.5035938265
 20
6.5791796184
 30
0.0
 10
97.5165861518
 20
6.5755694607
 30
0.0
 10
97.5292074444
 20
6.5706246739
 30
0.0
 10
97.5409826391
 20
6.564943344
 30
0.0
 11
97.5035938265
 21
6.5791796184
 31
0.0
 11
97.5409826391
 21
6.564943344
 31
0.0
  0
SPLINE
  5
486
100
AcDbEntity
  8
RACCORDO
100
AcDbSpline
 62
253
  6
CONTINUOUS
 70
0
 71
3
 72
9
 73
5
 74
3
 42
0.0000001
 43
0.0000001
 44
0.0000000001
 12
-0.0512056172
 22
0.0824953597
 32
0.0
 13
-0.0863619786
 23
0.0431922944
 33
0.0
 40
0.0
 40
0.0
 40
0.0
 40
0.0
 40
0.4473137609
 40
1.0
 40
1.0
 40
1.0
 40
1.0
 10
97.3987356023
 20
6.569163484
 30
0.0
 10
97.3911006099
 20
6.5814639205
 30
0.0
 10
97.3687657394
 20
6.6053389998
 30
0.0
 10
97.3411233668
 20
6.622444292
 30
0.0
 10
97.3252130077
 20
6.6304015543
 30
0.0
 11
97.3987356023
 21
6.569163484
 31
0.0
 11
97.3700572441
 21
6.6014686596
 31
0.0
 11
97.3252130077
 21
6.6304015543
 31
0.0
  0
SPLINE
  5
487
100
AcDbEntity
  8
RACCORDO
100
AcDbSpline
 62
253
  6
CONTINUOUS
 70
0
 71
3
 72
10
 73
6
 74
4
 42
0.0000001
 43
0.0000001
 44
0.0000000001
 12
0.3183918382
 22
0.1573784601
 32
0.0
 13
0.3266409963
 23
-0.1371395503
 33
0.0
 40
0.0
 40
0.0
 40
0.0
 40
0.0
 40
0.2314433644
 40
0.5915066222
 40
1.0
 40
1.0
 40
1.0
 40
1.0
 10
94.7711126874
 20
51.192150487
 30
0.0
 10
94.7956759134
 20
51.204291887
 30
0.0
 10
94.8623950784
 20
51.2274067235
 30
0.0
 10
94.9824178579
 20
51.2299683184
 30
0.0
 10
95.0703371305
 20
51.2042220424
 30
0.0
 10
95.1148140251
 20
51.1855485097
 30
0.0
 11
94.7711126874
 21
51.192150487
 31
0.0
 11
94.8485418703
 21
51.2190736616
 31
0.0
 11
94.9756558586
 21
51.2237612176
 31
0.0
 11
95.1148140251
 21
51.1855485097
 31
0.0
  0
SPLINE
  5
488
100
AcDbEntity
  8
RACCORDO
100
AcDbSpline
 62
253
  6
CONTINUOUS
 70
0
 71
3
 72
18
 73
14
 74
12
 42
0.0000001
 43
0.0000001
 44
0.0000000001
 12
1.6339138546
 22
-0.6859953705
 32
0.0
 13
-1.3473676591
 23
-1.1622448117
 33
0.0
 40
0.0
 40
0.0
 40
0.0
 40
0.0
 40
0.0925682456
 40
0.1949978479
 40
0.3046121377
 40
0.4180459022
 40
0.531512658
 40
0.6413199447
 40
0.7441735292
 40
0.8375753721
 40
0.9207080085
 40
0.9951433636
 40
1.0
 40
1.0
 40
1.0
 40
1.0
 10
95.1148140251
 20
51.1855485097
 30
0.0
 10
95.1652302048
 20
51.1643813804
 30
0.0
 10
95.2653357153
 20
51.1062879437
 30
0.0
 10
95.4010018892
 20
50.9874398298
 30
0.0
 10
95.5232038973
 20
50.8387308797
 30
0.0
 10
95.6255759175
 20
50.6681959541
 30
0.0
 10
95.7028683391
 20
50.4848076519
 30
0.0
 10
95.7510990304
 20
50.2980911501
 30
0.0
 10
95.7676818109
 20
50.1176639641
 30
0.0
 10
95.7514774498
 20
49.9526885979
 30
0.0
 10
95.7023990762
 20
49.8113646484
 30
0.0
 10
95.6443623857
 20
49.733048355
 30
0.0
 10
95.6091561587
 20
49.7018837032
 30
0.0
 10
95.6069749338
 20
49.7000021697
 30
0.0
 11
95.1148140251
 21
51.1855485097
 31
0.0
 11
95.2572853367
 21
51.1051723128
 31
0.0
 11
95.3943424568
 21
50.9869411382
 31
0.0
 11
95.5179321585
 21
50.8377893614
 31
0.0
 11
95.621332064
 21
50.6660643679
 31
0.0
 11
95.6989993493
 21
50.4812071727
 31
0.0
 11
95.7468142637
 21
50.293146965
 31
0.0
 11
95.7621469929
 21
50.1120393598
 31
0.0
 11
95.7440841884
 21
49.947977654
 31
0.0
 11
95.693603393
 21
49.8100172465
 31
0.0
 11
95.6134431349
 21
49.705727889
 31
0.0
 11
95.6069749338
 21
49.7000021697
 31
0.0
  0
SPLINE
  5
489
100
AcDbEntity
  8
RACCORDO
100
AcDbSpline
 62
253
  6
CONTINUOUS
 70
0
 71
3
 72
9
 73
5
 74
3
 42
0.0000001
 43
0.0000001
 44
0.0000000001
 12
-0.0020159707
 22
-0.460215224
 32
0.0
 13
-0.4111533907
 23
-0.2128808999
 33
0.0
 40
0.0
 40
0.0
 40
0.0
 40
0.0
 40
0.4279959011
 40
1.0
 40
1.0
 40
1.0
 40
1.0
 10
67.5221878705
 20
-86.2972687607
 30
0.0
 10
67.5219002614
 20
-86.3629255038
 30
0.0
 10
67.4526787309
 20
-86.5170423324
 30
0.0
 10
67.3199352782
 20
-86.6040084239
 30
0.0
 10
67.24154147
 20
-86.6445980063
 30
0.0
 11
67.5221878705
 21
-86.2972687607
 31
0.0
 11
67.4510112218
 21
-86.4825475407
 31
0.0
 11
67.24154147
 21
-86.6445980063
 31
0.0
  0
SPLINE
  5
48A
100
AcDbEntity
  8
RACCORDO
100
AcDbSpline
 62
253
  6
CONTINUOUS
 70
0
 71
3
 72
9
 73
5
 74
3
 42
0.0000001
 43
0.0000001
 44
0.0000000001
 12
-0.0020159707
 22
-0.4602152241
 32
0.0
 13
-0.4111533908
 23
-0.2128808999
 33
0.0
 40
0.0
 40
0.0
 40
0.0
 40
0.0
 40
0.427995899
 40
1.0
 40
1.0
 40
1.0
 40
1.0
 10
67.5221878705
 20
20.2238559048
 30
0.0
 10
67.5219002614
 20
20.158199162
 30
0.0
 10
67.4526787313
 20
20.0040823334
 30
0.0
 10
67.3199352785
 20
19.9171162417
 30
0.0
 10
67.24154147
 20
19.8765266592
 30
0.0
 11
67.5221878705
 21
20.2238559048
 31
0.0
 11
67.4510112225
 21
20.0385771256
 31
0.0
 11
67.24154147
 21
19.8765266592
 31
0.0
  0
SPLINE
  5
48B
100
AcDbEntity
  8
RACCORDO
100
AcDbSpline
 62
253
  6
CONTINUOUS
 70
0
 71
3
 72
9
 73
5
 74
3
 42
0.0000001
 43
0.0000001
 44
0.0000000001
 12
-0.4054069303
 22
0.1975029643
 32
0.0
 13
-0.4016788538
 23
-0.1922523359
 33
0.0
 40
0.0
 40
0.0
 40
0.0
 40
0.0
 40
0.3843300498
 40
1.0
 40
1.0
 40
1.0
 40
1.0
 10
52.1569886572
 20
46.6647322251
 30
0.0
 10
52.1050519687
 20
46.6900343332
 30
0.0
 10
51.9539845201
 20
46.7265957774
 30
0.0
 10
51.8048693428
 20
46.6824797926
 30
0.0
 10
51.7224354762
 20
46.6430251305
 30
0.0
 11
52.1569886572
 21
46.6647322251
 31
0.0
 11
51.9892208178
 21
46.7062208268
 31
0.0
 11
51.7224354762
 21
46.6430251305
 31
0.0
  0
SPLINE
  5
48C
100
AcDbEntity
  8
RACCORDO
100
AcDbSpline
 62
253
  6
CONTINUOUS
 70
0
 71
3
 72
9
 73
5
 74
3
 42
0.0000001
 43
0.0000001
 44
0.0000000001
 12
-0.4054069303
 22
0.1975029645
 32
0.0
 13
-0.4016788539
 23
-0.1922523359
 33
0.0
 40
0.0
 40
0.0
 40
0.0
 40
0.0
 40
0.3843300475
 40
1.0
 40
1.0
 40
1.0
 40
1.0
 10
-63.8085234573
 20
104.6474882824
 30
0.0
 10
-63.8604601456
 20
104.6727903903
 30
0.0
 10
-64.011527594
 20
104.7093518347
 30
0.0
 10
-64.1606427715
 20
104.66523585
 30
0.0
 10
-64.2430766384
 20
104.6257811878
 30
0.0
 11
-63.8085234573
 21
104.6474882824
 31
0.0
 11
-63.9762912957
 21
104.688976884
 31
0.0
 11
-64.2430766384
 21
104.6257811878
 31
0.0
  0
SPLINE
  5
48D
100
AcDbEntity
  8
DRAFT
100
AcDbSpline
 62
7
  6
CONTINUOUS
 70
0
 71
3
 72
9
 73
5
 74
3
 42
0.0000001
 43
0.0000001
 44
0.0000000001
 12
-1.2759378723
 22
-0.054775146
 32
0.0
 13
-1.2416592568
 23
-0.307476984
 33
0.0
 40
0.0
 40
0.0
 40
0.0
 40
0.0
 40
0.5198069267
 40
1.0
 40
1.0
 40
1.0
 40
1.0
 10
41.6097245719
 20
60.6974195863
 30
0.0
 10
41.3886441239
 20
60.6879287528
 30
0.0
 10
40.9643250526
 20
60.6490347292
 30
0.0
 10
40.5453773447
 20
60.5671898165
 30
0.0
 10
40.3466319532
 20
60.5179737105
 30
0.0
 11
41.6097245719
 21
60.6974195863
 31
0.0
 11
40.9489674775
 21
60.6358886894
 31
0.0
 11
40.3466319532
 21
60.5179737105
 31
0.0
  0
LINE
  5
48E
100
AcDbEntity
  8
DRAFT
100
AcDbLine
 62
7
  6
CONTINUOUS
 10
60.0105435607
 20
33.044841116
 11
59.8867729029
 21
32.9859651913
  0
SPLINE
  5
48F
100
AcDbEntity
  8
DRAFT
100
AcDbSpline
 62
7
  6
CONTINUOUS
 70
0
 71
3
 72
9
 73
5
 74
3
 42
0.0000001
 43
0.0000001
 44
0.0000000001
 12
-1.3557969587
 22
-1.627446101
 32
0.0
 13
-0.8943999676
 23
-1.9176592064
 33
0.0
 40
0.0
 40
0.0
 40
0.0
 40
0.0
 40
0.7770610974
 40
1.0
 40
1.0
 40
1.0
 40
1.0
 10
36.5873838955
 20
59.2915970745
 30
0.0
 10
36.2362048713
 20
58.8700553901
 30
0.0
 10
35.8459986173
 20
58.2759192242
 30
0.0
 10
35.5316411845
 20
57.6441010213
 30
0.0
 10
35.4651756688
 20
57.5015940749
 30
0.0
 11
36.5873838955
 21
59.2915970745
 31
0.0
 11
35.6755760062
 21
57.9239418716
 31
0.0
 11
35.4651756688
 21
57.5015940749
 31
0.0
  0
SPLINE
  5
490
100
AcDbEntity
  8
DRAFT
100
AcDbSpline
 62
7
  6
CONTINUOUS
 70
0
 71
3
 72
10
 73
6
 74
4
 42
0.0000001
 43
0.0000001
 44
0.0000000001
 12
2.7689745262
 22
3.3317013631
 32
0.0
 13
0.0
 23
4.3155049779
 33
0.0
 40
0.0
 40
0.0
 40
0.0
 40
0.0
 40
0.2180240146
 40
0.5863070486
 40
1.0
 40
1.0
 40
1.0
 40
1.0
 10
60.9034099116
 20
-94.5023431636
 30
0.0
 10
61.1046442258
 20
-94.2602128614
 30
0.0
 10
61.5728662846
 20
-93.5440050931
 30
0.0
 10
62.0343028672
 20
-92.1655747743
 30
0.0
 10
62.1359394153
 20
-91.0355075968
 30
0.0
 10
62.1359394153
 20
-90.4404095997
 30
0.0
 11
60.9034099116
 21
-94.5023431636
 31
0.0
 11
61.4255352073
 21
-93.7148367595
 31
0.0
 11
61.9558574541
 21
-92.2165979687
 31
0.0
 11
62.1359394153
 21
-90.4404095997
 31
0.0
  0
SPLINE
  5
491
100
AcDbEntity
  8
DRAFT
100
AcDbSpline
 62
7
  6
CONTINUOUS
 70
0
 71
3
 72
9
 73
5
 74
3
 42
0.0000001
 43
0.0000001
 44
0.0000000001
 12
1.4463695772
 22
-0.2506473741
 32
0.0
 13
1.3889536303
 23
-0.4745573948
 33
0.0
 40
0.0
 40
0.0
 40
0.0
 40
0.0
 40
0.4751428305
 40
1.0
 40
1.0
 40
1.0
 40
1.0
 10
-18.9972643066
 20
91.6999685254
 30
0.0
 10
-18.7681869283
 20
91.6602707578
 30
0.0
 10
-18.2894405703
 20
91.5567694623
 30
0.0
 10
-17.8204462859
 20
91.4158805374
 30
0.0
 10
-17.5774455289
 20
91.332855587
 30
0.0
 11
-18.9972643066
 21
91.6999685254
 31
0.0
 11
-18.3154427641
 21
91.553474303
 31
0.0
 11
-17.5774455289
 21
91.332855587
 31
0.0
  0
SPLINE
  5
492
100
AcDbEntity
  8
DRAFT
100
AcDbSpline
 62
7
  6
CONTINUOUS
 70
0
 71
3
 72
11
 73
7
 74
5
 42
0.0000001
 43
0.0000001
 44
0.0000000001
 12
8.2833598012
 22
7.8553316891
 32
0.0
 13
0.0
 23
11.3733097526
 33
0.0
 40
0.0
 40
0.0
 40
0.0
 40
0.0
 40
0.1396531691
 40
0.3992671534
 40
0.6851105152
 40
1.0
 40
1.0
 40
1.0
 40
1.0
 10
61.4643746362
 20
-98.1958392027
 30
0.0
 10
61.8499737853
 20
-97.8301652144
 30
0.0
 10
62.8605438459
 20
-96.6865425952
 30
0.0
 10
64.1117589114
 20
-94.3777460576
 30
0.0
 10
64.9716943227
 20
-91.2078488227
 30
0.0
 10
65.1451236038
 20
-88.9238286812
 30
0.0
 10
65.1451236038
 20
-87.7300501317
 30
0.0
 11
61.4643746362
 21
-98.1958392027
 31
0.0
 11
62.5224898457
 21
-97.005446994
 31
0.0
 11
63.961695871
 21
-94.4272794908
 31
0.0
 11
64.845981807
 21
-91.2988705547
 31
0.0
 11
65.1451236038
 21
-87.7300501317
 31
0.0
  0
SPLINE
  5
493
100
AcDbEntity
  8
RACCORDO
100
AcDbSpline
 62
253
  6
CONTINUOUS
 70
0
 71
3
 72
14
 73
10
 74
8
 42
0.0000001
 43
0.0000001
 44
0.0000000001
 12
8.4958047265
 22
2.697944566
 32
0.0
 13
7.9619443638
 23
-3.9809721819
 33
0.0
 40
0.0
 40
0.0
 40
0.0
 40
0.0
 40
0.1552671042
 40
0.3171537914
 40
0.4707917395
 40
0.6163108055
 40
0.7533437955
 40
0.8813732521
 40
1.0
 40
1.0
 40
1.0
 40
1.0
 10
-72.8596592252
 20
105.7352186077
 30
0.0
 10
-72.4199528927
 20
105.874852621
 30
0.0
 10
-71.4984455084
 20
106.0858398068
 30
0.0
 10
-70.0994017629
 20
106.1813987405
 30
0.0
 10
-68.731160112
 20
106.0837793295
 30
0.0
 10
-67.45724794
 20
105.8417181785
 30
0.0
 10
-66.2865300748
 20
105.4988558474
 30
0.0
 10
-65.2224794225
 20
105.0910990175
 30
0.0
 10
-64.5579098274
 20
104.7831977823
 30
0.0
 10
-64.2430766384
 20
104.6257811878
 30
0.0
 11
-72.8596592252
 21
105.7352186077
 31
0.0
 11
-71.5126523765
 21
106.0462969622
 31
0.0
 11
-70.0752195337
 21
106.1486273929
 31
0.0
 11
-68.7107868261
 21
106.0549798177
 31
0.0
 11
-67.4376485767
 21
105.8160152823
 31
0.0
 11
-66.266394542
 21
105.4752088813
 31
0.0
 11
-65.201646674
 21
105.0687741637
 31
0.0
 11
-64.2430766384
 21
104.6257811878
 31
0.0
  0
SPLINE
  5
494
100
AcDbEntity
  8
DRAFT
100
AcDbSpline
 62
7
  6
CONTINUOUS
 70
0
 71
3
 72
15
 73
11
 74
9
 42
0.0000001
 43
0.0000001
 44
0.0000000001
 12
0.0
 22
32.3771673311
 32
0.0
 13
-28.9590188285
 23
14.4795094142
 33
0.0
 40
0.0
 40
0.0
 40
0.0
 40
0.0
 40
0.1198224817
 40
0.2467321558
 40
0.3785345581
 40
0.5116661731
 40
0.643165345
 40
0.7701959894
 40
0.8896347103
 40
1.0
 40
1.0
 40
1.0
 40
1.0
 10
65.1451236038
 20
18.7910745338
 30
0.0
 10
65.1451236038
 20
20.0842453804
 30
0.0
 10
64.9252534485
 20
22.7497813011
 30
0.0
 10
64.0311759007
 20
26.7469894201
 30
0.0
 10
62.5956042419
 20
30.7362446668
 30
0.0
 10
60.6717338785
 20
34.5690387955
 30
0.0
 10
58.3322212891
 20
38.1020298887
 30
0.0
 10
55.6634547906
 20
41.2029890869
 30
0.0
 10
52.764151417
 20
43.7568775561
 30
0.0
 10
50.6541312523
 20
45.0891295928
 30
0.0
 10
49.5887744177
 20
45.6218080101
 30
0.0
 11
65.1451236038
 21
18.7910745338
 31
0.0
 11
64.845981807
 21
22.6590367535
 31
0.0
 11
63.961695871
 21
26.6717316256
 31
0.0
 11
62.5224898457
 21
30.6891051541
 31
0.0
 11
60.5887744177
 21
34.5414427121
 31
0.0
 11
58.2327899907
 21
38.0877429788
 31
0.0
 11
55.5401716398
 21
41.1967123526
 31
0.0
 11
52.6248282181
 21
43.7374087284
 31
0.0
 11
49.5887744177
 21
45.6218080101
 31
0.0
  0
SPLINE
  5
495
100
AcDbEntity
  8
RACCORDO
100
AcDbSpline
 62
253
  6
CONTINUOUS
 70
0
 71
3
 72
9
 73
5
 74
3
 42
0.0000001
 43
0.0000001
 44
0.0000000001
 12
0.0910565246
 22
0.0512848053
 32
0.0
 13
0.1014511168
 23
-0.0281900672
 33
0.0
 40
0.0
 40
0.0
 40
0.0
 40
0.0
 40
0.3184296284
 40
1.0
 40
1.0
 40
1.0
 40
1.0
 10
97.40301551
 20
-29.8026883994
 30
0.0
 10
97.4126805418
 20
-29.7972448655
 30
0.0
 10
97.4450148479
 20
-29.7842488141
 30
0.0
 10
97.4805451347
 20
-29.7874828357
 30
0.0
 10
97.5035938265
 20
-29.7938873406
 30
0.0
 11
97.40301551
 21
-29.8026883994
 31
0.0
 11
97.4335970082
 21
-29.7906138975
 31
0.0
 11
97.5035938265
 21
-29.7938873406
 31
0.0
  0
SPLINE
  5
496
100
AcDbEntity
  8
RACCORDO
100
AcDbSpline
 62
253
  6
CONTINUOUS
 70
0
 71
3
 72
8
 73
4
 74
2
 42
0.0000001
 43
0.0000001
 44
0.0000000001
 12
0.0389769758
 22
-0.0108304729
 32
0.0
 13
0.0353255841
 23
-0.0170439896
 33
0.0
 40
0.0
 40
0.0
 40
0.0
 40
0.0
 40
1.0
 40
1.0
 40
1.0
 40
1.0
 10
97.5035938265
 20
-29.7938873406
 30
0.0
 10
97.5165861518
 20
-29.7974974982
 30
0.0
 10
97.5292074444
 20
-29.8024422851
 30
0.0
 10
97.5409826391
 20
-29.8081236149
 30
0.0
 11
97.5035938265
 21
-29.7938873406
 31
0.0
 11
97.5409826391
 21
-29.8081236149
 31
0.0
  0
SPLINE
  5
497
100
AcDbEntity
  8
RACCORDO
100
AcDbSpline
 62
253
  6
CONTINUOUS
 70
0
 71
3
 72
9
 73
5
 74
3
 42
0.0000001
 43
0.0000001
 44
0.0000000001
 12
-0.0512056172
 22
0.0824953597
 32
0.0
 13
-0.0863619786
 23
0.0431922944
 33
0.0
 40
0.0
 40
0.0
 40
0.0
 40
0.0
 40
0.4473137609
 40
1.0
 40
1.0
 40
1.0
 40
1.0
 10
97.3987356023
 20
-29.803903475
 30
0.0
 10
97.3911006099
 20
-29.7916030384
 30
0.0
 10
97.3687657394
 20
-29.7677279591
 30
0.0
 10
97.3411233668
 20
-29.7506226669
 30
0.0
 10
97.3252130077
 20
-29.7426654047
 30
0.0
 11
97.3987356023
 21
-29.803903475
 31
0.0
 11
97.3700572441
 21
-29.7715982994
 31
0.0
 11
97.3252130077
 21
-29.7426654047
 31
0.0
  0
SPLINE
  5
498
100
AcDbEntity
  8
DRAFT
100
AcDbSpline
 62
7
  6
CONTINUOUS
 70
0
 71
3
 72
10
 73
6
 74
4
 42
0.0000001
 43
0.0000001
 44
0.0000000001
 12
-6.8904195621
 22
3.445209781
 32
0.0
 13
-7.6243394132
 23
-1.2943711923
 33
0.0
 40
0.0
 40
0.0
 40
0.0
 40
0.0
 40
0.4215029321
 40
0.8030479916
 40
1.0
 40
1.0
 40
1.0
 40
1.0
 10
-66.3767376969
 20
103.6045640674
 30
0.0
 10
-67.3448483798
 20
104.0886194088
 30
0.0
 10
-69.281334172
 20
104.8472583641
 30
0.0
 10
-71.8514162022
 20
105.2098337015
 30
0.0
 10
-73.3434871735
 20
105.0841872349
 30
0.0
 10
-73.8440301602
 20
104.9992108996
 30
0.0
 11
-66.3767376969
 21
103.6045640674
 31
0.0
 11
-69.4127914974
 21
104.7562185862
 31
0.0
 11
-72.3281349191
 21
105.1308656321
 31
0.0
 11
-73.8440301602
 21
104.9992108996
 31
0.0
  0
SPLINE
  5
499
100
AcDbEntity
  8
ASSI
100
AcDbSpline
 62
7
  6
CONTINUOUS
 70
0
 71
3
 72
9
 73
5
 74
3
 42
0.0000001
 43
0.0000001
 44
0.0000000001
 12
-0.3897405521
 22
0.1191699312
 32
0.0
 13
-0.410148876
 23
-0.0013168931
 33
0.0
 40
0.0
 40
0.0
 40
0.0
 40
0.0
 40
0.5553280185
 40
1.0
 40
1.0
 40
1.0
 40
1.0
 10
83.8965138551
 20
52.847469832
 30
0.0
 10
83.8243692389
 20
52.8695292992
 30
0.0
 10
83.6915726472
 20
52.9000182863
 30
0.0
 10
83.5546188385
 20
52.9099945728
 30
0.0
 10
83.4938249341
 20
52.9097993777
 30
0.0
 11
83.8965138551
 21
52.847469832
 31
0.0
 11
83.6755958618
 21
52.8970661813
 31
0.0
 11
83.4938249341
 21
52.9097993777
 31
0.0
  0
SPLINE
  5
49A
100
AcDbEntity
  8
ASSI
100
AcDbSpline
 62
7
  6
CONTINUOUS
 70
0
 71
3
 72
9
 73
5
 74
3
 42
0.0000001
 43
0.0000001
 44
0.0000000001
 12
-0.4727011265
 22
-0.0015177339
 32
0.0
 13
-0.4204881435
 23
-0.2129584811
 33
0.0
 40
0.0
 40
0.0
 40
0.0
 40
0.0
 40
0.736051693
 40
1.0
 40
1.0
 40
1.0
 40
1.0
 10
83.4938249341
 20
52.9097993777
 30
0.0
 10
83.3778474459
 20
52.9094270008
 30
0.0
 10
83.2208026229
 20
52.8860214572
 30
0.0
 10
83.0763551084
 20
52.8241315305
 30
0.0
 10
83.0393593972
 20
52.8053948537
 30
0.0
 11
83.4938249341
 21
52.9097993777
 31
0.0
 11
83.1534861004
 21
52.854121856
 31
0.0
 11
83.0393593972
 21
52.8053948537
 31
0.0
  0
SPLINE
  5
49B
100
AcDbEntity
  8
RACCORDO
100
AcDbSpline
 62
7
  6
CONTINUOUS
 70
0
 71
3
 72
9
 73
5
 74
3
 42
0.0000001
 43
0.0000001
 44
0.0000000001
 12
0.0223891296
 22
0.0805496108
 32
0.0
 13
0.0926815904
 23
0.0671705073
 33
0.0
 40
0.0
 40
0.0
 40
0.0
 40
0.0
 40
0.2118730212
 40
1.0
 40
1.0
 40
1.0
 40
1.0
 10
77.7891394914
 20
-3.990614335
 30
0.0
 10
77.7907207089
 20
-3.9849255719
 30
0.0
 10
77.8166141832
 20
-3.942549982
 30
0.0
 10
77.8483718036
 20
-3.930003069
 30
0.0
 10
77.8727200909
 20
-3.9123567727
 30
0.0
 11
77.7891394914
 21
-3.990614335
 31
0.0
 11
77.8019562087
 21
-3.968308098
 31
0.0
 11
77.8727200909
 21
-3.9123567727
 31
0.0
  0
SPLINE
  5
49C
100
AcDbEntity
  8
ASSI
100
AcDbSpline
 62
7
  6
CONTINUOUS
 70
0
 71
3
 72
9
 73
5
 74
3
 42
0.0000001
 43
0.0000001
 44
0.0000000001
 12
-0.3510775725
 22
0.4619752397
 32
0.0
 13
-0.2514734383
 23
0.5232079636
 33
0.0
 40
0.0
 40
0.0
 40
0.0
 40
0.0
 40
0.5212385634
 40
1.0
 40
1.0
 40
1.0
 40
1.0
 10
80.231357617
 20
51.0589913753
 30
0.0
 10
80.1703592272
 20
51.139257812
 30
0.0
 10
80.0621257844
 20
51.2998764106
 30
0.0
 10
79.9700007322
 20
51.4702845422
 30
0.0
 10
79.929868804
 20
51.5537818076
 30
0.0
 11
80.231357617
 21
51.0589913753
 31
0.0
 11
80.0619048216
 21
51.3093587419
 31
0.0
 11
79.929868804
 21
51.5537818076
 31
0.0
  0
SPLINE
  5
49D
100
AcDbEntity
  8
ASSI
100
AcDbSpline
 62
7
  6
CONTINUOUS
 70
0
 71
3
 72
10
 73
6
 74
4
 42
0.0000001
 43
0.0000001
 44
0.0000000001
 12
-0.8349828808
 22
0.2536482088
 32
0.0
 13
-0.7778953773
 23
-0.3906572945
 33
0.0
 40
0.0
 40
0.0
 40
0.0
 40
0.0
 40
0.325409557
 40
0.9852624969
 40
1.0
 40
1.0
 40
1.0
 40
1.0
 10
83.7509694806
 20
52.7783889417
 30
0.0
 10
83.6603990108
 20
52.8059021255
 30
0.0
 10
83.3786731346
 20
52.8643910102
 30
0.0
 10
83.0765010691
 20
52.82352114
 30
0.0
 10
82.9009558362
 20
52.7369478834
 30
0.0
 10
82.8971344244
 20
52.7350287791
 30
0.0
 11
83.7509694806
 21
52.7783889417
 31
0.0
 11
83.4725592926
 21
52.8337645551
 31
0.0
 11
82.9086394724
 21
52.7407023844
 31
0.0
 11
82.8971344244
 21
52.7350287791
 31
0.0
  0
SPLINE
  5
49E
100
AcDbEntity
  8
RACCORDO
100
AcDbSpline
 62
253
  6
CONTINUOUS
 70
0
 71
3
 72
10
 73
6
 74
4
 42
0.0000001
 43
0.0000001
 44
0.0000000001
 12
-0.212212668
 22
0.0484490763
 32
0.0
 13
-0.1976182856
 23
-0.0912608494
 33
0.0
 40
0.0
 40
0.0
 40
0.0
 40
0.0
 40
0.3007756143
 40
0.6296891775
 40
1.0
 40
1.0
 40
1.0
 40
1.0
 10
0.7984065158
 20
100.8978407438
 30
0.0
 10
0.7771303839
 20
100.9026981773
 30
0.0
 10
0.7310732948
 20
100.9069130978
 30
0.0
 10
0.6587558972
 20
100.8963576408
 30
0.0
 10
0.6107319365
 20
100.8788944732
 30
0.0
 10
0.5863385399
 20
100.8676295131
 30
0.0
 11
0.7984065158
 21
100.8978407438
 31
0.0
 11
0.7332499285
 21
100.904246613
 31
0.0
 11
0.662312146
 21
100.8945636048
 31
0.0
 11
0.5863385399
 21
100.8676295131
 31
0.0
  0
SPLINE
  5
49F
100
AcDbEntity
  8
RACCORDO
100
AcDbSpline
 62
253
  6
CONTINUOUS
 70
0
 71
3
 72
10
 73
6
 74
4
 42
0.0000001
 43
0.0000001
 44
0.0000000001
 12
-0.212212668
 22
0.0484490763
 32
0.0
 13
-0.1976182856
 23
-0.0912608494
 33
0.0
 40
0.0
 40
0.0
 40
0.0
 40
0.0
 40
0.3007756143
 40
0.6296891775
 40
1.0
 40
1.0
 40
1.0
 40
1.0
 10
29.6483631882
 20
86.4728624076
 30
0.0
 10
29.6270870563
 20
86.4777198411
 30
0.0
 10
29.5810299672
 20
86.4819347616
 30
0.0
 10
29.5087125696
 20
86.4713793046
 30
0.0
 10
29.4606886089
 20
86.453916137
 30
0.0
 10
29.4362952123
 20
86.4426511769
 30
0.0
 11
29.6483631882
 21
86.4728624076
 31
0.0
 11
29.5832066009
 21
86.4792682768
 31
0.0
 11
29.5122688184
 21
86.4695852686
 31
0.0
 11
29.4362952123
 21
86.4426511769
 31
0.0
  0
SPLINE
  5
4A0
100
AcDbEntity
  8
RACCORDO
100
AcDbSpline
 62
253
  6
CONTINUOUS
 70
0
 71
3
 72
10
 73
6
 74
4
 42
0.0000001
 43
0.0000001
 44
0.0000000001
 12
-0.212212668
 22
0.0484490763
 32
0.0
 13
-0.1976182856
 23
-0.0912608494
 33
0.0
 40
0.0
 40
0.0
 40
0.0
 40
0.0
 40
0.3007756143
 40
0.6296891775
 40
1.0
 40
1.0
 40
1.0
 40
1.0
 10
61.1853256291
 20
70.7043811871
 30
0.0
 10
61.1640494973
 20
70.7092386207
 30
0.0
 10
61.1179924082
 20
70.7134535411
 30
0.0
 10
61.0456750105
 20
70.7028980842
 30
0.0
 10
60.9976510498
 20
70.6854349165
 30
0.0
 10
60.9732576532
 20
70.6741699564
 30
0.0
 11
61.1853256291
 21
70.7043811871
 31
0.0
 11
61.1201690418
 21
70.7107870563
 31
0.0
 11
61.0492312593
 21
70.7011040481
 31
0.0
 11
60.9732576532
 21
70.6741699564
 31
0.0
  0
SPLINE
  5
4A1
100
AcDbEntity
  8
RACCORDO
100
AcDbSpline
 62
253
  6
CONTINUOUS
 70
0
 71
3
 72
10
 73
6
 74
4
 42
0.0000001
 43
0.0000001
 44
0.0000000001
 12
-0.212212668
 22
0.0484490763
 32
0.0
 13
-0.1976182856
 23
-0.0912608494
 33
0.0
 40
0.0
 40
0.0
 40
0.0
 40
0.0
 40
0.3007756143
 40
0.6296891775
 40
1.0
 40
1.0
 40
1.0
 40
1.0
 10
90.0352823015
 20
56.2794028509
 30
0.0
 10
90.0140061697
 20
56.2842602845
 30
0.0
 10
89.9679490806
 20
56.2884752049
 30
0.0
 10
89.8956316829
 20
56.277919748
 30
0.0
 10
89.8476077222
 20
56.2604565803
 30
0.0
 10
89.8232143256
 20
56.2491916202
 30
0.0
 11
90.0352823015
 21
56.2794028509
 31
0.0
 11
89.9701257142
 21
56.2858087201
 31
0.0
 11
89.8991879317
 21
56.2761257119
 31
0.0
 11
89.8232143256
 21
56.2491916202
 31
0.0
  0
SPLINE
  5
4A2
100
AcDbEntity
  8
RACCORDO
100
AcDbSpline
 62
253
  6
CONTINUOUS
 70
0
 71
3
 72
11
 73
7
 74
5
 42
0.0000001
 43
0.0000001
 44
0.0000000001
 12
0.1816703026
 22
0.0980148241
 32
0.0
 13
0.0924493088
 23
0.1845647038
 33
0.0
 40
0.0
 40
0.0
 40
0.0
 40
0.0
 40
0.2501381206
 40
0.5014902492
 40
0.7519784463
 40
1.0
 40
1.0
 40
1.0
 40
1.0
 10
97.5409826391
 20
-29.8081236149
 30
0.0
 10
97.5561301951
 20
-29.7999512003
 30
0.0
 10
97.5857955689
 20
-29.7822040444
 30
0.0
 10
97.6271149192
 20
-29.7508368772
 30
0.0
 10
97.6635411578
 20
-29.714013603
 30
0.0
 10
97.6828308385
 20
-29.6852423269
 30
0.0
 10
97.6904739789
 20
-29.669983652
 30
0.0
 11
97.5409826391
 21
-29.8081236149
 31
0.0
 11
97.5851988733
 21
-29.7814579824
 31
0.0
 11
97.6263604233
 21
-29.7498700057
 31
0.0
 11
97.6624171223
 21
-29.7128090601
 31
0.0
 11
97.6904739789
 21
-29.669983652
 31
0.0
  0
SPLINE
  5
4A3
100
AcDbEntity
  8
RACCORDO
100
AcDbSpline
 62
253
  6
CONTINUOUS
 70
0
 71
3
 72
11
 73
7
 74
5
 42
0.0000001
 43
0.0000001
 44
0.0000000001
 12
0.1816703026
 22
0.0980148241
 32
0.0
 13
0.0924493088
 23
0.1845647038
 33
0.0
 40
0.0
 40
0.0
 40
0.0
 40
0.0
 40
0.2501381206
 40
0.5014902492
 40
0.7519784463
 40
1.0
 40
1.0
 40
1.0
 40
1.0
 10
97.5409826391
 20
6.564943344
 30
0.0
 10
97.5561301951
 20
6.5731157586
 30
0.0
 10
97.5857955689
 20
6.5908629145
 30
0.0
 10
97.6271149192
 20
6.6222300817
 30
0.0
 10
97.6635411578
 20
6.659053356
 30
0.0
 10
97.6828308385
 20
6.6878246321
 30
0.0
 10
97.6904739789
 20
6.7030833069
 30
0.0
 11
97.5409826391
 21
6.564943344
 31
0.0
 11
97.5851988733
 21
6.5916089766
 31
0.0
 11
97.6263604233
 21
6.6231969533
 31
0.0
 11
97.6624171223
 21
6.6602578988
 31
0.0
 11
97.6904739789
 21
6.7030833069
 31
0.0
  0
SPLINE
  5
4A4
100
AcDbEntity
  8
RACCORDO
100
AcDbSpline
 62
253
  6
CONTINUOUS
 70
0
 71
3
 72
11
 73
7
 74
5
 42
0.0000001
 43
0.0000001
 44
0.0000000001
 12
0.1816703026
 22
0.0980148241
 32
0.0
 13
0.0924493088
 23
0.1845647038
 33
0.0
 40
0.0
 40
0.0
 40
0.0
 40
0.0
 40
0.2501381206
 40
0.5014902492
 40
0.7519784463
 40
1.0
 40
1.0
 40
1.0
 40
1.0
 10
97.5409826391
 20
42.9380103029
 30
0.0
 10
97.5561301951
 20
42.9461827176
 30
0.0
 10
97.5857955689
 20
42.9639298735
 30
0.0
 10
97.6271149192
 20
42.9952970407
 30
0.0
 10
97.6635411578
 20
43.0321203149
 30
0.0
 10
97.6828308385
 20
43.060891591
 30
0.0
 10
97.6904739789
 20
43.0761502659
 30
0.0
 11
97.5409826391
 21
42.9380103029
 31
0.0
 11
97.5851988733
 21
42.9646759355
 31
0.0
 11
97.6263604233
 21
42.9962639122
 31
0.0
 11
97.6624171223
 21
43.0333248578
 31
0.0
 11
97.6904739789
 21
43.0761502659
 31
0.0
  0
SPLINE
  5
4A5
100
AcDbEntity
  8
RACCORDO
100
AcDbSpline
 62
7
  6
CONTINUOUS
 70
0
 71
3
 72
9
 73
5
 74
3
 42
0.0000001
 43
0.0000001
 44
0.0000000001
 12
0.1021187342
 22
0.049604082
 32
0.0
 13
0.096783866
 23
-0.0665409346
 33
0.0
 40
0.0
 40
0.0
 40
0.0
 40
0.0
 40
0.857123201
 40
1.0
 40
1.0
 40
1.0
 40
1.0
 10
92.9634272347
 20
53.9013620152
 30
0.0
 10
92.9926033468
 20
53.9155342851
 30
0.0
 10
93.0338526043
 20
53.9366146513
 30
0.0
 10
93.0682626388
 20
53.9187218576
 30
0.0
 10
93.0728720285
 20
53.9155528056
 30
0.0
 11
92.9634272347
 21
53.9013620152
 31
0.0
 11
93.0582902332
 21
53.9230391982
 31
0.0
 11
93.0728720285
 21
53.9155528056
 31
0.0
  0
SPLINE
  5
4A6
100
AcDbEntity
  8
RACCORDO
100
AcDbSpline
 62
7
  6
CONTINUOUS
 70
0
 71
3
 72
9
 73
5
 74
3
 42
0.0000001
 43
0.0000001
 44
0.0000000001
 12
0.0989201366
 22
0.0503258952
 32
0.0
 13
-0.0104276812
 23
0.1177905292
 33
0.0
 40
0.0
 40
0.0
 40
0.0
 40
0.0
 40
0.8407166847
 40
1.0
 40
1.0
 40
1.0
 40
1.0
 10
96.6464613219
 20
47.5490678622
 30
0.0
 10
96.6741825916
 20
47.5631711355
 30
0.0
 10
96.7212335713
 20
47.5741770999
 30
0.0
 10
96.7250130492
 20
47.6151362166
 30
0.0
 10
96.7244593973
 20
47.6213902386
 30
0.0
 11
96.6464613219
 21
47.5490678622
 31
0.0
 11
96.7227111848
 21
47.6028479554
 31
0.0
 11
96.7244593973
 21
47.6213902386
 31
0.0
  0
SPLINE
  5
4A7
100
AcDbEntity
  8
RACCORDO
100
AcDbSpline
 62
253
  6
CONTINUOUS
 70
0
 71
3
 72
9
 73
5
 74
3
 42
0.0000001
 43
0.0000001
 44
0.0000000001
 12
0.0910565246
 22
0.0512848053
 32
0.0
 13
0.1014511168
 23
-0.0281900672
 33
0.0
 40
0.0
 40
0.0
 40
0.0
 40
0.0
 40
0.3184296284
 40
1.0
 40
1.0
 40
1.0
 40
1.0
 10
97.40301551
 20
42.9434455185
 30
0.0
 10
97.4126805418
 20
42.9488890524
 30
0.0
 10
97.4450148479
 20
42.9618851038
 30
0.0
 10
97.4805451347
 20
42.9586510822
 30
0.0
 10
97.5035938265
 20
42.9522465773
 30
0.0
 11
97.40301551
 21
42.9434455185
 31
0.0
 11
97.4335970082
 21
42.9555200204
 31
0.0
 11
97.5035938265
 21
42.9522465773
 31
0.0
  0
SPLINE
  5
4A8
100
AcDbEntity
  8
RACCORDO
100
AcDbSpline
 62
253
  6
CONTINUOUS
 70
0
 71
3
 72
8
 73
4
 74
2
 42
0.0000001
 43
0.0000001
 44
0.0000000001
 12
0.0389769758
 22
-0.0108304729
 32
0.0
 13
0.0353255841
 23
-0.0170439896
 33
0.0
 40
0.0
 40
0.0
 40
0.0
 40
0.0
 40
1.0
 40
1.0
 40
1.0
 40
1.0
 10
97.5035938265
 20
42.9522465773
 30
0.0
 10
97.5165861518
 20
42.9486364197
 30
0.0
 10
97.5292074444
 20
42.9436916328
 30
0.0
 10
97.5409826391
 20
42.9380103029
 30
0.0
 11
97.5035938265
 21
42.9522465773
 31
0.0
 11
97.5409826391
 21
42.9380103029
 31
0.0
  0
SPLINE
  5
4A9
100
AcDbEntity
  8
RACCORDO
100
AcDbSpline
 62
253
  6
CONTINUOUS
 70
0
 71
3
 72
9
 73
5
 74
3
 42
0.0000001
 43
0.0000001
 44
0.0000000001
 12
-0.0512056172
 22
0.0824953597
 32
0.0
 13
-0.0863619786
 23
0.0431922944
 33
0.0
 40
0.0
 40
0.0
 40
0.0
 40
0.0
 40
0.4473137609
 40
1.0
 40
1.0
 40
1.0
 40
1.0
 10
97.3987356023
 20
42.9422304429
 30
0.0
 10
97.3911006099
 20
42.9545308795
 30
0.0
 10
97.3687657394
 20
42.9784059588
 30
0.0
 10
97.3411233668
 20
42.995511251
 30
0.0
 10
97.3252130077
 20
43.0034685132
 30
0.0
 11
97.3987356023
 21
42.9422304429
 31
0.0
 11
97.3700572441
 21
42.9745356185
 31
0.0
 11
97.3252130077
 21
43.0034685132
 31
0.0
  0
SPLINE
  5
4AA
100
AcDbEntity
  8
DRAFT
100
AcDbSpline
 62
7
  6
CONTINUOUS
 70
0
 71
3
 72
8
 73
4
 74
2
 42
0.0000001
 43
0.0000001
 44
0.0000000001
 12
0.8547639718
 22
1.5133332887
 32
0.0
 13
1.1076087157
 23
1.3382193356
 33
0.0
 40
0.0
 40
0.0
 40
0.0
 40
0.0
 40
1.0
 40
1.0
 40
1.0
 40
1.0
 10
66.5278610026
 20
44.3925331633
 30
0.0
 10
66.8127823265
 20
44.8969775929
 30
0.0
 10
67.1389536168
 20
45.3788238627
 30
0.0
 10
67.508156522
 20
45.8248969746
 30
0.0
 11
66.5278610026
 21
44.3925331633
 31
0.0
 11
67.508156522
 21
45.8248969746
 31
0.0
  0
SPLINE
  5
4AB
100
AcDbEntity
  8
RACCORDO
100
AcDbSpline
 62
7
  6
CONTINUOUS
 70
0
 71
3
 72
10
 73
6
 74
4
 42
0.0000001
 43
0.0000001
 44
0.0000000001
 12
0.2813212472
 22
0.2042897922
 32
0.0
 13
0.3350683872
 23
-0.1073120579
 33
0.0
 40
0.0
 40
0.0
 40
0.0
 40
0.0
 40
0.3906738657
 40
0.7547568239
 40
1.0
 40
1.0
 40
1.0
 40
1.0
 10
97.3252130077
 20
43.0034685132
 30
0.0
 10
97.3618479608
 20
43.0300720742
 30
0.0
 10
97.433178185
 20
43.0815501228
 30
0.0
 10
97.5485844255
 20
43.1143928215
 30
0.0
 10
97.6200988643
 20
43.1024533909
 30
0.0
 10
97.6474899428
 20
43.0936808742
 30
0.0
 11
97.3252130077
 21
43.0034685132
 31
0.0
 11
97.4399173347
 21
43.0762128639
 31
0.0
 11
97.5627257112
 21
43.1068883469
 31
0.0
 11
97.6474899428
 21
43.0936808742
 31
0.0
  0
SPLINE
  5
4AC
100
AcDbEntity
  8
RACCORDO
100
AcDbSpline
 62
253
  6
CONTINUOUS
 70
0
 71
3
 72
10
 73
6
 74
4
 42
0.0000001
 43
0.0000001
 44
0.0000000001
 12
-0.0000011417
 22
0.0838665591
 32
0.0
 13
-0.028297644
 23
0.0791000419
 33
0.0
 40
0.0
 40
0.0
 40
0.0
 40
0.0
 40
0.4183630924
 40
0.8522770749
 40
1.0
 40
1.0
 40
1.0
 40
1.0
 10
0.5899449462
 20
100.5547200275
 30
0.0
 10
0.589944787
 20
100.5664155851
 30
0.0
 10
0.5885895477
 20
100.5902719726
 30
0.0
 10
0.5831606201
 20
100.6178054649
 30
0.0
 10
0.5781683984
 20
100.633318192
 30
0.0
 10
0.5767749948
 20
100.6372131552
 30
0.0
 11
0.5899449462
 21
100.5547200275
 31
0.0
 11
0.587825924
 21
100.589742654
 31
0.0
 11
0.5805858888
 21
100.6254060456
 31
0.0
 11
0.5767749948
 21
100.6372131552
 31
0.0
  0
SPLINE
  5
4AD
100
AcDbEntity
  8
RACCORDO
100
AcDbSpline
 62
253
  6
CONTINUOUS
 70
0
 71
3
 72
11
 73
7
 74
5
 42
0.0000001
 43
0.0000001
 44
0.0000000001
 12
-0.0361710892
 22
0.1011085824
 32
0.0
 13
-0.0960666746
 23
0.0485803848
 33
0.0
 40
0.0
 40
0.0
 40
0.0
 40
0.0
 40
0.2338352277
 40
0.5914748996
 40
0.960836754
 40
1.0
 40
1.0
 40
1.0
 40
1.0
 10
0.5767749948
 20
100.6372131552
 30
0.0
 10
0.5739556365
 20
100.6450940713
 30
0.0
 10
0.5655246931
 20
100.664563226
 30
0.0
 10
0.5458733362
 20
100.6931973034
 30
0.0
 10
0.5240711864
 20
100.7105572065
 30
0.0
 10
0.511108151
 20
100.7174040458
 30
0.0
 10
0.5098540567
 20
100.7180382343
 30
0.0
 11
0.5767749948
 21
100.6372131552
 31
0.0
 11
0.5667164182
 21
100.6602000691
 31
0.0
 11
0.5447049075
 21
100.691591253
 31
0.0
 11
0.513581257
 21
100.7160691573
 31
0.0
 11
0.5098540567
 21
100.7180382343
 31
0.0
  0
SPLINE
  5
4AE
100
AcDbEntity
  8
RACCORDO
100
AcDbSpline
 62
253
  6
CONTINUOUS
 70
0
 71
3
 72
10
 73
6
 74
4
 42
0.0000001
 43
0.0000001
 44
0.0000000001
 12
-0.0000011417
 22
0.0838665591
 32
0.0
 13
-0.028297644
 23
0.0791000419
 33
0.0
 40
0.0
 40
0.0
 40
0.0
 40
0.0
 40
0.4183630924
 40
0.8522770749
 40
1.0
 40
1.0
 40
1.0
 40
1.0
 10
29.4399016186
 20
86.1297416912
 30
0.0
 10
29.4399014594
 20
86.1414372489
 30
0.0
 10
29.4385462201
 20
86.1652936364
 30
0.0
 10
29.4331172926
 20
86.1928271287
 30
0.0
 10
29.4281250708
 20
86.2083398558
 30
0.0
 10
29.4267316672
 20
86.212234819
 30
0.0
 11
29.4399016186
 21
86.1297416912
 31
0.0
 11
29.4377825964
 21
86.1647643178
 31
0.0
 11
29.4305425612
 21
86.2004277094
 31
0.0
 11
29.4267316672
 21
86.212234819
 31
0.0
  0
SPLINE
  5
4AF
100
AcDbEntity
  8
RACCORDO
100
AcDbSpline
 62
253
  6
CONTINUOUS
 70
0
 71
3
 72
11
 73
7
 74
5
 42
0.0000001
 43
0.0000001
 44
0.0000000001
 12
-0.0361710892
 22
0.1011085824
 32
0.0
 13
-0.0960666746
 23
0.0485803848
 33
0.0
 40
0.0
 40
0.0
 40
0.0
 40
0.0
 40
0.2338352277
 40
0.5914748996
 40
0.960836754
 40
1.0
 40
1.0
 40
1.0
 40
1.0
 10
29.4267316672
 20
86.212234819
 30
0.0
 10
29.4239123089
 20
86.2201157351
 30
0.0
 10
29.4154813655
 20
86.2395848898
 30
0.0
 10
29.3958300086
 20
86.2682189672
 30
0.0
 10
29.3740278588
 20
86.2855788703
 30
0.0
 10
29.3610648234
 20
86.2924257096
 30
0.0
 10
29.3598107291
 20
86.2930598981
 30
0.0
 11
29.4267316672
 21
86.212234819
 31
0.0
 11
29.4166730907
 21
86.2352217329
 31
0.0
 11
29.3946615799
 21
86.2666129168
 31
0.0
 11
29.3635379294
 21
86.2910908211
 31
0.0
 11
29.3598107291
 21
86.2930598981
 31
0.0
  0
SPLINE
  5
4B0
100
AcDbEntity
  8
RACCORDO
100
AcDbSpline
 62
253
  6
CONTINUOUS
 70
0
 71
3
 72
10
 73
6
 74
4
 42
0.0000001
 43
0.0000001
 44
0.0000000001
 12
-0.0000011417
 22
0.0838665591
 32
0.0
 13
-0.028297644
 23
0.0791000419
 33
0.0
 40
0.0
 40
0.0
 40
0.0
 40
0.0
 40
0.4183630924
 40
0.8522770749
 40
1.0
 40
1.0
 40
1.0
 40
1.0
 10
60.9768640595
 20
70.3612604708
 30
0.0
 10
60.9768639003
 20
70.3729560285
 30
0.0
 10
60.975508661
 20
70.396812416
 30
0.0
 10
60.9700797335
 20
70.4243459082
 30
0.0
 10
60.9650875117
 20
70.4398586353
 30
0.0
 10
60.9636941081
 20
70.4437535985
 30
0.0
 11
60.9768640595
 21
70.3612604708
 31
0.0
 11
60.9747450373
 21
70.3962830973
 31
0.0
 11
60.9675050021
 21
70.4319464889
 31
0.0
 11
60.9636941081
 21
70.4437535985
 31
0.0
  0
SPLINE
  5
4B1
100
AcDbEntity
  8
RACCORDO
100
AcDbSpline
 62
253
  6
CONTINUOUS
 70
0
 71
3
 72
11
 73
7
 74
5
 42
0.0000001
 43
0.0000001
 44
0.0000000001
 12
-0.0361710892
 22
0.1011085824
 32
0.0
 13
-0.0960666746
 23
0.0485803848
 33
0.0
 40
0.0
 40
0.0
 40
0.0
 40
0.0
 40
0.2338352277
 40
0.5914748996
 40
0.960836754
 40
1.0
 40
1.0
 40
1.0
 40
1.0
 10
60.9636941081
 20
70.4437535985
 30
0.0
 10
60.9608747499
 20
70.4516345147
 30
0.0
 10
60.9524438064
 20
70.4711036693
 30
0.0
 10
60.9327924496
 20
70.4997377467
 30
0.0
 10
60.9109902998
 20
70.5170976498
 30
0.0
 10
60.8980272643
 20
70.5239444892
 30
0.0
 10
60.8967731701
 20
70.5245786777
 30
0.0
 11
60.9636941081
 21
70.4437535985
 31
0.0
 11
60.9536355316
 21
70.4667405124
 31
0.0
 11
60.9316240209
 21
70.4981316964
 31
0.0
 11
60.9005003703
 21
70.5226096006
 31
0.0
 11
60.8967731701
 21
70.5245786777
 31
0.0
  0
SPLINE
  5
4B2
100
AcDbEntity
  8
RACCORDO
100
AcDbSpline
 62
253
  6
CONTINUOUS
 70
0
 71
3
 72
10
 73
6
 74
4
 42
0.0000001
 43
0.0000001
 44
0.0000000001
 12
-0.0000011417
 22
0.0838665591
 32
0.0
 13
-0.028297644
 23
0.0791000419
 33
0.0
 40
0.0
 40
0.0
 40
0.0
 40
0.0
 40
0.4183630924
 40
0.8522770749
 40
1.0
 40
1.0
 40
1.0
 40
1.0
 10
89.826820732
 20
55.9362821346
 30
0.0
 10
89.8268205727
 20
55.9479776923
 30
0.0
 10
89.8254653335
 20
55.9718340798
 30
0.0
 10
89.8200364059
 20
55.999367572
 30
0.0
 10
89.8150441841
 20
56.0148802991
 30
0.0
 10
89.8136507806
 20
56.0187752623
 30
0.0
 11
89.826820732
 21
55.9362821346
 31
0.0
 11
89.8247017097
 21
55.9713047611
 31
0.0
 11
89.8174616745
 21
56.0069681527
 31
0.0
 11
89.8136507806
 21
56.0187752623
 31
0.0
  0
SPLINE
  5
4B3
100
AcDbEntity
  8
RACCORDO
100
AcDbSpline
 62
253
  6
CONTINUOUS
 70
0
 71
3
 72
11
 73
7
 74
5
 42
0.0000001
 43
0.0000001
 44
0.0000000001
 12
-0.0361710892
 22
0.1011085824
 32
0.0
 13
-0.0960666746
 23
0.0485803848
 33
0.0
 40
0.0
 40
0.0
 40
0.0
 40
0.0
 40
0.2338352277
 40
0.5914748996
 40
0.960836754
 40
1.0
 40
1.0
 40
1.0
 40
1.0
 10
89.8136507806
 20
56.0187752623
 30
0.0
 10
89.8108314223
 20
56.0266561785
 30
0.0
 10
89.8024004788
 20
56.0461253331
 30
0.0
 10
89.782749122
 20
56.0747594105
 30
0.0
 10
89.7609469722
 20
56.0921193136
 30
0.0
 10
89.7479839367
 20
56.0989661529
 30
0.0
 10
89.7467298425
 20
56.0996003415
 30
0.0
 11
89.8136507806
 21
56.0187752623
 31
0.0
 11
89.803592204
 21
56.0417621762
 31
0.0
 11
89.7815806933
 21
56.0731533602
 31
0.0
 11
89.7504570428
 21
56.0976312644
 31
0.0
 11
89.7467298425
 21
56.0996003415
 31
0.0
  0
SPLINE
  5
4B4
100
AcDbEntity
  8
RACCORDO
100
AcDbSpline
 62
7
  6
CONTINUOUS
 70
0
 71
3
 72
10
 73
6
 74
4
 42
0.0000001
 43
0.0000001
 44
0.0000000001
 12
0.2813187777
 22
0.2042879989
 32
0.0
 13
0.3350670969
 23
-0.1073074154
 33
0.0
 40
0.0
 40
0.0
 40
0.0
 40
0.0
 40
0.3906721895
 40
0.7547463582
 40
1.0
 40
1.0
 40
1.0
 40
1.0
 10
97.3252130077
 20
6.6304015543
 30
0.0
 10
97.361847482
 20
6.6570047676
 30
0.0
 10
97.433176114
 20
6.7084815682
 30
0.0
 10
97.548580499
 20
6.7413255046
 30
0.0
 10
97.6200948693
 20
6.7293873291
 30
0.0
 10
97.6474870112
 20
6.7206148177
 30
0.0
 11
97.3252130077
 21
6.6304015543
 31
0.0
 11
97.4399157234
 21
6.7031451312
 31
0.0
 11
97.5627196292
 21
6.7338213174
 31
0.0
 11
97.6474870112
 21
6.7206148177
 31
0.0
  0
SPLINE
  5
4B5
100
AcDbEntity
  8
RACCORDO
100
AcDbSpline
 62
7
  6
CONTINUOUS
 70
0
 71
3
 72
10
 73
6
 74
4
 42
0.0000001
 43
0.0000001
 44
0.0000000001
 12
0.0000241672
 22
-0.3801104718
 32
0.0
 13
-0.3046036171
 23
-0.2286006131
 33
0.0
 40
0.0
 40
0.0
 40
0.0
 40
0.0
 40
0.3850298523
 40
0.7416360046
 40
1.0
 40
1.0
 40
1.0
 40
1.0
 10
0.7984065158
 20
100.8978407438
 30
0.0
 10
0.7984096175
 20
100.8490561175
 30
0.0
 10
0.7820310443
 20
100.7533057798
 30
0.0
 10
0.7079272926
 20
100.6464048499
 30
0.0
 10
0.647217046
 20
100.5972020352
 30
0.0
 10
0.6209841769
 20
100.5775146459
 30
0.0
 11
0.7984065158
 21
100.8978407438
 31
0.0
 11
0.7710050068
 21
100.754074909
 31
0.0
 11
0.6955567231
 21
100.6414636901
 31
0.0
 11
0.6209841769
 21
100.5775146459
 31
0.0
  0
LINE
  5
4B6
100
AcDbEntity
  8
RACCORDO
100
AcDbLine
 62
7
  6
CONTINUOUS
 10
0.6209841769
 20
100.5775146459
 11
0.5899449462
 21
100.5547200275
  0
SPLINE
  5
4B7
100
AcDbEntity
  8
RACCORDO
100
AcDbSpline
 62
7
  6
CONTINUOUS
 70
0
 71
3
 72
10
 73
6
 74
4
 42
0.0000001
 43
0.0000001
 44
0.0000000001
 12
0.2811486012
 22
0.2041644202
 32
0.0
 13
0.3349807258
 23
-0.1069940712
 33
0.0
 40
0.0
 40
0.0
 40
0.0
 40
0.0
 40
0.3894834243
 40
0.7538754948
 40
1.0
 40
1.0
 40
1.0
 40
1.0
 10
97.3252130077
 20
-29.7426654047
 30
0.0
 10
97.3617139144
 20
-29.7161591855
 30
0.0
 10
97.4329057021
 20
-29.6647822034
 30
0.0
 10
97.5481686224
 20
-29.6317456178
 30
0.0
 10
97.6198073996
 20
-29.6436136933
 30
0.0
 10
97.6472897214
 20
-29.6523916476
 30
0.0
 11
97.3252130077
 21
-29.7426654047
 31
0.0
 11
97.4394663715
 21
-29.6701379516
 31
0.0
 11
97.5622525041
 21
-29.6392514917
 31
0.0
 11
97.6472897214
 21
-29.6523916476
 31
0.0
  0
SPLINE
  5
4B8
100
AcDbEntity
  8
RACCORDO
100
AcDbSpline
 62
7
  6
CONTINUOUS
 70
0
 71
3
 72
10
 73
6
 74
4
 42
0.0000001
 43
0.0000001
 44
0.0000000001
 12
0.0000241649
 22
-0.3800744318
 32
0.0
 13
-0.304571889
 23
-0.2285943267
 33
0.0
 40
0.0
 40
0.0
 40
0.0
 40
0.0
 40
0.3844315543
 40
0.7411067377
 40
1.0
 40
1.0
 40
1.0
 40
1.0
 10
29.6483631882
 20
86.4728624076
 30
0.0
 10
29.6483662848
 20
86.424158206
 30
0.0
 10
29.6320332193
 20
86.3284933645
 30
0.0
 10
29.558014369
 20
86.2215432367
 30
0.0
 10
29.4972560239
 20
86.1722872171
 30
0.0
 10
29.4709721539
 20
86.1525600401
 30
0.0
 11
29.6483631882
 21
86.4728624076
 31
0.0
 11
29.6210559044
 21
86.32932424
 31
0.0
 11
29.5456753204
 21
86.2166515881
 31
0.0
 11
29.4709721539
 21
86.1525600401
 31
0.0
  0
LINE
  5
4B9
100
AcDbEntity
  8
RACCORDO
100
AcDbLine
 62
7
  6
CONTINUOUS
 10
29.4709721539
 20
86.1525600401
 11
29.4399016186
 21
86.1297416912
  0
SPLINE
  5
4BA
100
AcDbEntity
  8
RACCORDO
100
AcDbSpline
 62
7
  6
CONTINUOUS
 70
0
 71
3
 72
10
 73
6
 74
4
 42
0.0000001
 43
0.0000001
 44
0.0000000001
 12
0.0000241581
 22
-0.3799669651
 32
0.0
 13
-0.304476513
 23
-0.2285748899
 33
0.0
 40
0.0
 40
0.0
 40
0.0
 40
0.0
 40
0.3828431365
 40
0.7396392873
 40
1.0
 40
1.0
 40
1.0
 40
1.0
 10
61.1853256291
 20
70.7043811871
 30
0.0
 10
61.185328712
 20
70.6558919389
 30
0.0
 10
61.1691182646
 20
70.5604651571
 30
0.0
 10
61.0953347449
 20
70.4533843446
 30
0.0
 10
61.0344519215
 20
70.4039864549
 30
0.0
 10
61.0080273475
 20
70.3841491478
 30
0.0
 11
61.1853256291
 21
70.7043811871
 31
0.0
 11
61.158269334
 21
70.5614517579
 31
0.0
 11
61.0830899875
 21
70.4486355608
 31
0.0
 11
61.0080273475
 21
70.3841491478
 31
0.0
  0
LINE
  5
4BB
100
AcDbEntity
  8
RACCORDO
100
AcDbLine
 62
7
  6
CONTINUOUS
 10
61.0080273475
 20
70.3841491478
 11
60.9768640595
 21
70.3612604708
  0
SPLINE
  5
4BC
100
AcDbEntity
  8
RACCORDO
100
AcDbSpline
 62
7
  6
CONTINUOUS
 70
0
 71
3
 72
10
 73
6
 74
4
 42
0.0000001
 43
0.0000001
 44
0.0000000001
 12
0.0000241665
 22
-0.3800996818
 32
0.0
 13
-0.3045940919
 23
-0.2285986975
 33
0.0
 40
0.0
 40
0.0
 40
0.0
 40
0.0
 40
0.384857302
 40
0.7414812518
 40
1.0
 40
1.0
 40
1.0
 40
1.0
 10
90.0352823015
 20
56.2794028509
 30
0.0
 10
90.0352854018
 20
56.2306414716
 30
0.0
 10
90.0189200402
 20
56.134916176
 30
0.0
 10
89.9448410982
 20
56.0280010352
 30
0.0
 10
89.8841170817
 20
55.9787828626
 30
0.0
 10
89.8578693205
 20
55.9590838462
 30
0.0
 11
90.0352823015
 21
56.2794028509
 31
0.0
 11
90.0079080463
 21
56.1357028186
 31
0.0
 11
89.9324799992
 21
56.0230745332
 31
0.0
 11
89.8578693205
 21
55.9590838462
 31
0.0
  0
LINE
  5
4BD
100
AcDbEntity
  8
RACCORDO
100
AcDbLine
 62
7
  6
CONTINUOUS
 10
89.8578693205
 20
55.9590838462
 11
89.826820732
 21
55.9362821346
  0
SPLINE
  5
4BE
100
AcDbEntity
  8
IMPORT_IGES
100
AcDbSpline
 62
7
  6
CONTINUOUS
 70
0
 71
3
 72
21
 73
17
 74
15
 42
0.0000001
 43
0.0000001
 44
0.0000000001
 12
-0.4460391832
 22
0.1251508045
 32
0.0
 13
-0.4686514486
 23
-0.0105719147
 33
0.0
 40
0.0
 40
0.0
 40
0.0
 40
0.0
 40
0.125
 40
0.1875
 40
0.25
 40
0.3125
 40
0.375
 40
0.4375
 40
0.5
 40
0.5625
 40
0.625
 40
0.6875
 40
0.75
 40
0.8125
 40
0.875
 40
1.0
 40
1.0
 40
1.0
 40
1.0
 10
83.8979764895
 20
52.8466530187
 30
0.0
 10
83.8793915236
 20
52.8518676355
 30
0.0
 10
83.8517181847
 20
52.8597838409
 30
0.0
 10
83.8140039592
 20
52.869961661
 30
0.0
 10
83.7836434067
 20
52.8763623885
 30
0.0
 10
83.7537586399
 20
52.883531349
 30
0.0
 10
83.7240456138
 20
52.8888600152
 30
0.0
 10
83.6945129402
 20
52.8934913548
 30
0.0
 10
83.6647586666
 20
52.89910716
 30
0.0
 10
83.6357104406
 20
52.9014824293
 30
0.0
 10
83.6064399259
 20
52.9048392962
 30
0.0
 10
83.577352518
 20
52.9075103089
 30
0.0
 10
83.5486686553
 20
52.9082651022
 30
0.0
 10
83.5200148715
 20
52.9100145502
 30
0.0
 10
83.4811113458
 20
52.9095972822
 30
0.0
 10
83.4517640946
 20
52.9087626407
 30
0.0
 10
83.4322369509
 20
52.9083221443
 30
0.0
 11
83.8979764895
 21
52.8466530187
 31
0.0
 11
83.8422215916
 21
52.8622968692
 31
0.0
 11
83.8136581453
 21
52.8697562214
 31
0.0
 11
83.7837227043
 21
52.8764904274
 31
0.0
 11
83.7537872633
 21
52.8832246333
 31
0.0
 11
83.7240756726
 21
52.8887437941
 31
0.0
 11
83.6944760069
 21
52.8936554324
 31
0.0
 11
83.6648763412
 21
52.8985670707
 31
0.0
 11
83.6356733925
 21
52.9016460289
 31
0.0
 11
83.6064704437
 21
52.9047249871
 31
0.0
 11
83.5774197755
 21
52.907190939
 31
0.0
 11
83.5486736685
 21
52.908430878
 31
0.0
 11
83.5199275614
 21
52.909670817
 31
0.0
 11
83.490818382
 21
52.9096436336
 31
0.0
 11
83.4322369509
 21
52.9083221443
 31
0.0
  0
SPLINE
  5
4BF
100
AcDbEntity
  8
IMPORT_IGES
100
AcDbSpline
 62
7
  6
CONTINUOUS
 70
0
 71
3
 72
19
 73
15
 74
13
 42
0.0000001
 43
0.0000001
 44
0.0000000001
 12
-0.4084665255
 22
-0.0360527653
 32
0.0
 13
-0.3835311066
 23
-0.1744819781
 33
0.0
 40
0.0
 40
0.0
 40
0.0
 40
0.0
 40
0.125
 40
0.25
 40
0.375
 40
0.4375
 40
0.5
 40
0.5625
 40
0.625
 40
0.6875
 40
0.75
 40
0.8125
 40
0.875
 40
1.0
 40
1.0
 40
1.0
 40
1.0
 10
83.4322369741
 20
52.9083221456
 30
0.0
 10
83.4152175356
 20
52.906819947
 30
0.0
 10
83.3810029593
 20
52.9043561886
 30
0.0
 10
83.3307352897
 20
52.8974167189
 30
0.0
 10
83.2893433274
 20
52.8906678193
 30
0.0
 10
83.2567392221
 20
52.882966118
 30
0.0
 10
83.232777977
 20
52.8784476686
 30
0.0
 10
83.2065946642
 20
52.8700492039
 30
0.0
 10
83.1808240952
 20
52.8627468406
 30
0.0
 10
83.1556246187
 20
52.8549400872
 30
0.0
 10
83.133077349
 20
52.8460212844
 30
0.0
 10
83.1100488011
 20
52.8379880531
 30
0.0
 10
83.0783746114
 20
52.8240367626
 30
0.0
 10
83.0542963913
 20
52.8129108111
 30
0.0
 10
83.0383159285
 20
52.8056407287
 30
0.0
 11
83.4322369741
 21
52.9083221456
 31
0.0
 11
83.3811786584
 21
52.9038155499
 31
0.0
 11
83.3308348422
 21
52.8972235172
 31
0.0
 11
83.2812347564
 21
52.8885505122
 31
0.0
 11
83.2568211944
 21
52.8831757558
 31
0.0
 11
83.2324076324
 21
52.8778009994
 31
0.0
 11
83.2066634549
 21
52.8702318875
 31
0.0
 11
83.1809192773
 21
52.8626627756
 31
0.0
 11
83.1560666532
 21
52.8547547456
 31
0.0
 11
83.132997136
 21
52.8461688797
 31
0.0
 11
83.1099276187
 21
52.8375830137
 31
0.0
 11
83.0862573169
 21
52.8274509759
 31
0.0
 11
83.0383159285
 21
52.8056407287
 31
0.0
  0
SPLINE
  5
4C0
100
AcDbEntity
  8
IMPORT_IGES
100
AcDbSpline
 62
7
  6
CONTINUOUS
 70
0
 71
3
 72
19
 73
15
 74
13
 42
0.0000001
 43
0.0000001
 44
0.0000000001
 12
0.2537133587
 22
-0.505302021
 32
0.0
 13
0.3395179618
 23
-0.4625824929
 33
0.0
 40
0.0
 40
0.0
 40
0.0
 40
0.0
 40
0.125
 40
0.25
 40
0.3125
 40
0.375
 40
0.4375
 40
0.5
 40
0.5625
 40
0.625
 40
0.6875
 40
0.75
 40
0.875
 40
1.0
 40
1.0
 40
1.0
 40
1.0
 10
80.0734755003
 20
51.6201354513
 30
0.0
 10
80.0840468903
 20
51.5990812005
 30
0.0
 10
80.1047698814
 20
51.5568288704
 30
0.0
 10
80.1327725641
 20
51.5047325993
 30
0.0
 10
80.1547229457
 20
51.4637626802
 30
0.0
 10
80.1732596682
 20
51.4315911102
 30
0.0
 10
80.192370933
 20
51.3993957338
 30
0.0
 10
80.2114322948
 20
51.3660163233
 30
0.0
 10
80.2301187263
 20
51.3373968556
 30
0.0
 10
80.2487564522
 20
51.307570513
 30
0.0
 10
80.267963931
 20
51.2778117274
 30
0.0
 10
80.2963955015
 20
51.2365014788
 30
0.0
 10
80.3310811168
 20
51.1861310455
 30
0.0
 10
80.3595558374
 20
51.1481651063
 30
0.0
 10
80.3737024191
 20
51.1288908358
 30
0.0
 11
80.0734755003
 21
51.6201354513
 31
0.0
 11
80.1051896702
 21
51.5569726987
 31
0.0
 11
80.1382225125
 21
51.4945490444
 31
0.0
 11
80.1550686018
 21
51.4635219918
 31
0.0
 11
80.1733554253
 21
51.4315871424
 31
0.0
 11
80.1923626158
 21
51.3991983948
 31
0.0
 11
80.2113698064
 21
51.3668096471
 31
0.0
 11
80.2301106087
 21
51.3371957098
 31
0.0
 11
80.248851411
 21
51.3075817725
 31
0.0
 11
80.2683166309
 21
51.2776077439
 31
0.0
 11
80.2892306857
 21
51.2469135328
 31
0.0
 11
80.3312626739
 21
51.1867136474
 31
0.0
 11
80.3737024191
 21
51.1288908358
 31
0.0
  0
ELLIPSE
  5
4C1
100
AcDbEntity
  8
RACCORDO
100
AcDbEllipse
 62
7
  6
CONTINUOUS
 10
-30.8572020841
 20
112.9841000484
 30
0.0
 11
1.5718234642
 21
3.1272039728
 31
0.0
 40
0.6139739381
 41
0.0017348067
 42
0.6685558724
  0
ELLIPSE
  5
4C2
100
AcDbEntity
  8
RACCORDO
100
AcDbEllipse
 62
7
  6
CONTINUOUS
 10
29.3679887465
 20
82.8715046331
 30
0.0
 11
1.5608851485
 21
3.1326749669
 31
0.0
 40
0.6113028998
 41
6.3588071737
 42
6.9495994601
  0
ELLIPSE
  5
4C3
100
AcDbEntity
  8
RACCORDO
100
AcDbEllipse
 62
7
  6
CONTINUOUS
 10
89.7647812438
 20
52.6731083845
 30
0.0
 11
1.5436043812
 21
3.1412823548
 31
0.0
 40
0.607010042
 41
6.3554649226
 42
6.946257209
  0
ELLIPSE
  5
4C4
100
AcDbEntity
  8
RACCORDO
100
AcDbEllipse
 62
7
  6
CONTINUOUS
 10
94.3760022589
 20
44.719928588
 30
0.0
 11
3.4999785667
 21
-0.0247631381
 31
0.0
 40
0.4946372042
 41
-0.7644452153
 42
-0.1736529289
  0
ELLIPSE
  5
4C5
100
AcDbEntity
  8
RACCORDO
100
AcDbEllipse
 62
7
  6
CONTINUOUS
 10
94.3760022589
 20
-67.5041853148
 30
0.0
 11
3.4999979795
 21
0.0074975973
 31
0.0
 40
0.5016014683
 41
-0.769019387
 42
-0.0011460615
  0
ELLIPSE
  5
4C6
100
AcDbEntity
  8
RACCORDO
100
AcDbEllipse
 62
7
  6
CONTINUOUS
 10
-28.3097076795
 20
111.7103528462
 30
0.0
 11
1.5223737289
 21
3.1517995957
 31
0.0
 40
0.6016116119
 41
0.0682443143
 42
0.6590366007
  0
ELLIPSE
  5
4C7
100
AcDbEntity
  8
RACCORDO
100
AcDbEllipse
 62
7
  6
CONTINUOUS
 10
0.5402489929
 20
97.28537451
 30
0.0
 11
1.5223737289
 21
3.1517995957
 31
0.0
 40
0.6016116119
 41
6.3514296215
 42
6.9422219079
  0
ELLIPSE
  5
4C8
100
AcDbEntity
  8
RACCORDO
100
AcDbEllipse
 62
7
  6
CONTINUOUS
 10
32.0772114338
 20
81.5168932895
 30
0.0
 11
1.5223737289
 21
3.1517995957
 31
0.0
 40
0.6016116119
 41
0.0682443143
 42
0.6590366007
  0
ELLIPSE
  5
4C9
100
AcDbEntity
  8
RACCORDO
100
AcDbEllipse
 62
7
  6
CONTINUOUS
 10
60.9271681062
 20
67.0919149533
 30
0.0
 11
1.5223737289
 21
3.1517995957
 31
0.0
 40
0.6016116119
 41
6.3514296215
 42
6.9422219079
  0
ELLIPSE
  5
4CA
100
AcDbEntity
  8
RACCORDO
100
AcDbEllipse
 62
7
  6
CONTINUOUS
 10
94.3760022589
 20
-64.384154608
 30
0.0
 11
3.4999172798
 21
-0.0491849743
 31
0.0
 40
0.4892375088
 41
-0.7610696355
 42
-0.1702773491
  0
ELLIPSE
  5
4CB
100
AcDbEntity
  8
RACCORDO
100
AcDbEllipse
 62
7
  6
CONTINUOUS
 10
94.3760022589
 20
-28.011087649
 30
0.0
 11
3.4999172798
 21
-0.0491849743
 31
0.0
 40
0.4892375088
 41
-0.7610696355
 42
-0.1702773491
  0
ELLIPSE
  5
4CC
100
AcDbEntity
  8
RACCORDO
100
AcDbEllipse
 62
7
  6
CONTINUOUS
 10
94.3760022589
 20
8.3619793099
 30
0.0
 11
3.4999172798
 21
-0.0491849743
 31
0.0
 40
0.4892375088
 41
-0.7610696355
 42
-0.1702773491
  0
ELLIPSE
  5
4CD
100
AcDbEntity
  8
RACCORDO
100
AcDbEllipse
 62
7
  6
CONTINUOUS
 10
96.4306593818
 20
45.1701897916
 30
0.0
 11
0.2999998305
 21
-0.0006399096
 31
0.0
 40
0.4983951047
 41
-0.7668817779
 42
0.0008630356
  0
ELLIPSE
  5
4CE
100
AcDbEntity
  8
RACCORDO
100
AcDbEllipse
 62
7
  6
CONTINUOUS
 10
94.3760022589
 20
46.4089702111
 30
0.0
 11
3.4999980222
 21
-0.0074656123
 31
0.0
 40
0.4983951047
 41
-0.7668817779
 42
0.7864612563
  0
ELLIPSE
  5
4CF
100
AcDbEntity
  8
RACCORDO
100
AcDbEllipse
 62
7
  6
CONTINUOUS
 10
96.466564867
 20
47.6191753928
 30
0.0
 11
0.3660507554
 21
-0.0778302479
 31
0.0
 40
0.452947083
 41
-0.5180846004
 42
0.3881354246
  0
ELLIPSE
  5
4D0
100
AcDbEntity
  8
RACCORDO
100
AcDbEllipse
 62
7
  6
CONTINUOUS
 10
30.9186871235
 20
82.0961554446
 30
0.0
 11
1.569627185
 21
3.1283039267
 31
0.0
 40
0.6134404793
 41
0.0773319479
 42
0.6681242342
  0
ELLIPSE
  5
4D1
100
AcDbEntity
  8
RACCORDO
100
AcDbEllipse
 62
7
  6
CONTINUOUS
 10
-29.4781053738
 20
112.2945516933
 30
0.0
 11
1.5873199426
 21
3.119421827
 31
0.0
 40
0.6176975122
 41
0.0808318056
 42
0.671624092
  0
ELLIPSE
  5
4D2
100
AcDbEntity
  8
RACCORDO
100
AcDbEllipse
 62
7
  6
CONTINUOUS
 10
94.3760022589
 20
-65.8151436917
 30
0.0
 11
3.4999769838
 21
0.0251185476
 31
0.0
 40
0.5053247124
 41
-0.7715714568
 42
-0.1807791704
  0
ELLIPSE
  5
4D3
100
AcDbEntity
  8
RACCORDO
100
AcDbEllipse
 62
7
  6
CONTINUOUS
 10
91.1438779541
 20
51.9835600293
 30
0.0
 11
1.5587103255
 21
3.1337606163
 31
0.0
 40
0.6107675755
 41
5.3958329955
 42
6.9491760298
  0
ELLIPSE
  5
4D4
100
AcDbEntity
  8
RACCORDO
100
AcDbEllipse
 62
7
  6
CONTINUOUS
 10
-52.205828803
 20
95.6529522967
 30
0.0
 11
-0.4474018214
 21
0.8946702271
 31
0.0
 40
0.6121897086
 41
-0.6846338704
 42
0.0199943986
  0
ELLIPSE
  5
4D5
100
AcDbEntity
  8
RACCORDO
100
AcDbEllipse
 62
7
  6
CONTINUOUS
 10
15.3228688003
 20
61.888603495
 30
0.0
 11
-0.4474018214
 21
0.8946702271
 31
0.0
 40
0.6121897086
 41
-0.6846338704
 42
0.0199943986
  0
ELLIPSE
  5
4D6
100
AcDbEntity
  8
RACCORDO
100
AcDbEllipse
 62
7
  6
CONTINUOUS
 10
-0.6404922361
 20
97.8757451245
 30
0.0
 11
1.609838465
 21
3.1080452296
 31
0.0
 40
0.6229838795
 41
0.0853598432
 42
0.6761521296
  0
ELLIPSE
  5
4D7
100
AcDbEntity
  8
RACCORDO
100
AcDbEllipse
 62
7
  6
CONTINUOUS
 10
28.2094644363
 20
83.4507667883
 30
0.0
 11
1.609838465
 21
3.1080452296
 31
0.0
 40
0.6229838795
 41
0.0853598432
 42
0.6761521296
  0
ELLIPSE
  5
4D8
100
AcDbEntity
  8
RACCORDO
100
AcDbEllipse
 62
7
  6
CONTINUOUS
 10
59.7464268772
 20
67.6822855678
 30
0.0
 11
1.609838465
 21
3.1080452296
 31
0.0
 40
0.6229838795
 41
0.0853598432
 42
0.6761521296
  0
ELLIPSE
  5
4D9
100
AcDbEntity
  8
RACCORDO
100
AcDbEllipse
 62
7
  6
CONTINUOUS
 10
88.5963835496
 20
53.2573072316
 30
0.0
 11
1.609838465
 21
3.1080452296
 31
0.0
 40
0.6229838795
 41
0.0853598432
 42
0.6761521296
  0
ELLIPSE
  5
4DA
100
AcDbEntity
  8
RACCORDO
100
AcDbEllipse
 62
7
  6
CONTINUOUS
 10
94.3760022589
 20
-29.4571944137
 30
0.0
 11
3.4999046093
 21
0.0506068827
 31
0.0
 40
0.5106100819
 41
-0.775327905
 42
-0.1845356186
  0
ELLIPSE
  5
4DB
100
AcDbEntity
  8
RACCORDO
100
AcDbEllipse
 62
7
  6
CONTINUOUS
 10
94.3760022589
 20
6.9158725453
 30
0.0
 11
3.4999046093
 21
0.0506068827
 31
0.0
 40
0.5106100819
 41
-0.775327905
 42
-0.1845356186
  0
ELLIPSE
  5
4DC
100
AcDbEntity
  8
RACCORDO
100
AcDbEllipse
 62
7
  6
CONTINUOUS
 10
94.3760022589
 20
43.2889395042
 30
0.0
 11
3.4999046093
 21
0.0506068827
 31
0.0
 40
0.5106100819
 41
-0.775327905
 42
-0.1845356186
  0
ELLIPSE
  5
4DD
100
AcDbEntity
  8
RACCORDO
100
AcDbEllipse
 62
7
  6
CONTINUOUS
 10
93.4006957965
 20
52.9070173484
 30
0.0
 11
0.0808830447
 21
0.3804291417
 31
0.0
 40
0.513909277
 41
-0.5165678243
 42
0.1656179538
  0
ELLIPSE
  5
4DE
100
AcDbEntity
  8
RACCORDO
100
AcDbEllipse
 62
7
  6
CONTINUOUS
 10
90.9323012814
 20
54.6534547262
 30
0.0
 11
0.1336037422
 21
0.2686080528
 31
0.0
 40
0.6107675755
 41
0.0007726102
 42
0.6659907226
  0
ELLIPSE
  5
4DF
100
AcDbEntity
  8
RACCORDO
100
AcDbEllipse
 62
7
  6
CONTINUOUS
 10
30.6797854622
 20
51.4651859336
 30
0.0
 11
0.4999863728
 21
0.0072295547
 31
0.0
 40
0.5106100819
 41
0.3147997442
 42
0.7780151293
  0
ELLIPSE
  5
4E0
100
AcDbEntity
  8
RACCORDO
100
AcDbEllipse
 62
7
  6
CONTINUOUS
 10
12.98988105
 20
60.3101381397
 30
0.0
 11
0.4999863728
 21
0.0072295547
 31
0.0
 40
0.5106100819
 41
0.7780151293
 42
1.2412305144
  0
ELLIPSE
  5
4E1
100
AcDbEntity
  8
RACCORDO
100
AcDbEllipse
 62
7
  6
CONTINUOUS
 10
-36.8489121411
 20
85.2295347352
 30
0.0
 11
0.4999863728
 21
0.0072295547
 31
0.0
 40
0.5106100819
 41
0.3147997442
 42
0.7780151293
  0
ELLIPSE
  5
4E2
100
AcDbEntity
  8
RACCORDO
100
AcDbEllipse
 62
7
  6
CONTINUOUS
 10
-54.5388165533
 20
94.0744869414
 30
0.0
 11
0.4999863728
 21
0.0072295547
 31
0.0
 40
0.5106100819
 41
0.7780151293
 42
1.2412305144
  0
ELLIPSE
  5
4E3
100
AcDbEntity
  8
RACCORDO
100
AcDbEllipse
 62
7
  6
CONTINUOUS
 10
-32.1108320795
 20
85.6054539349
 30
0.0
 11
-0.4471615512
 21
0.8944566536
 31
0.0
 40
0.6125552124
 41
-2.255296188
 42
-0.6848044569
  0
ELLIPSE
  5
4E4
100
AcDbEntity
  8
RACCORDO
100
AcDbEllipse
 62
7
  6
CONTINUOUS
 10
35.4178655238
 20
51.8411051333
 30
0.0
 11
-0.4471615512
 21
0.8944566536
 31
0.0
 40
0.6125552124
 41
-2.255296188
 42
-0.6848044569
  0
ENDSEC
  0
SECTION
  2
OBJECTS
  0
DICTIONARY
  5
C
100
AcDbDictionary
280
0
281
1
  3
ACAD_GROUP
350
D
  3
ACAD_MLINESTYLE
350
17
  3
ACAD_LAYOUT
350
1A
  3
ACAD_PLOTSETTINGS
350
19
  3
ACAD_PLOTSTYLENAME
350
E
  0
DICTIONARY
  5
D
102
{ACAD_REACTORS
330
C
102
}
100
AcDbDictionary
280
0
281
1
  0
ACDBDICTIONARYWDFLT
  5
E
102
{ACAD_REACTORS
330
C
102
}
100
AcDbDictionary
281
1
  3
Normal
350
F
100
AcDbDictionaryWithDefault
340
F
  0
DICTIONARY
  5
17
102
{ACAD_REACTORS
330
C
102
}
100
AcDbDictionary
280
0
281
1
  3
Standard
350
18
  0
DICTIONARY
  5
19
102
{ACAD_REACTORS
330
C
102
}
100
AcDbDictionary
281
1
  0
DICTIONARY
  5
1A
102
{ACAD_REACTORS
330
C
102
}
100
AcDbDictionary
281
1
  3
Model
350
4E5
  3
Layout1
350
4E6
  0
ACDBPLACEHOLDER
  5
F
102
{ACAD_REACTORS
330
E
102
}
  0
MLINESTYLE
  5
18
102
{ACAD_REACTORS
330
17
102
}
100
AcDbMlineStyle
  2
STANDARD
 70
0
  3

 62
256
 51
90.0
 52
90.0
 71
2
 49
0.5
 62
256
  6
BYLAYER
 49
-0.5
 62
256
  6
BYLAYER
  0
LAYOUT
  5
4E5
102
{ACAD_REACTORS
330
1A
102
}
100
AcDbPlotSettings
  1

  2
none_device
  4
ISO_A4_(297.00_x_210.00_MM)
  6

 40
0.0
 41
0.0
 42
0.0
 43
0.0
 44
297.0
 45
210.0
 46
0.0
 47
0.0
 48
0.0
 49
0.0
140
0.0
141
0.0
142
1.0
143
1.0
 70
1024
 72
1
 73
0
 74
0
  7

 75
0
147
1.0
148
0.0
149
0.0
100
AcDbLayout
  1
Model
 70
0
 71
0
 10
0.0
 20
0.0
 11
297.0
 21
210.0
 12
0.0
 22
0.0
 32
0.0
 14
0.0
 24
0.0
 34
0.0
 15
0.0
 25
0.0
 35
0.0
146
0.0
 13
0.0
 23
0.0
 33
0.0
 16
1.0
 26
0.0
 36
0.0
 17
0.0
 27
1.0
 37
0.0
 76
0
330
20F
345
0
346
0
  0
LAYOUT
  5
4E6
102
{ACAD_REACTORS
330
1A
102
}
100
AcDbPlotSettings
  1

  2
none_device
  4
ISO_A4_(297.00_x_210.00_MM)
  6

 40
0.0
 41
0.0
 42
0.0
 43
0.0
 44
297.0
 45
210.0
 46
0.0
 47
0.0
 48
0.0
 49
0.0
140
0.0
141
0.0
142
1.0
143
1.0
 70
0
 72
1
 73
0
 74
0
  7

 75
0
147
1.0
148
0.0
149
0.0
100
AcDbLayout
  1
Layout1
 70
0
 71
1
 10
0.0
 20
0.0
 11
297.0
 21
210.0
 12
0.0
 22
0.0
 32
0.0
 14
0.0
 24
0.0
 34
0.0
 15
0.0
 25
0.0
 35
0.0
146
0.0
 13
0.0
 23
0.0
 33
0.0
 16
1.0
 26
0.0
 36
0.0
 17
0.0
 27
1.0
 37
0.0
 76
0
330
210
345
0
346
0
  0
ENDSEC
  0
EOF
