  0
SECTION
  2
HEADER
  9
$ACADVER
  1
AC1015
  9
$DWGCODEPAGE
  3
ANSI_1252
  9
$EXTMAX
 10
297.0
 20
210.0
 30
0.0
  9
$EXTMIN
 10
0.0
 20
0.0
 30
0.0
  9
$LIMMIN
 10
0.0
 20
0.0
  9
$LIMMAX
 10
297.0
 20
210.0
  9
$VIEWCTR
 10
148.5
 20
105.0
  9
$VIEWSIZE
 40
210.0
  9
$CLAYER
  8
0
  9
$LTSCALE
 40
16.335
  9
$CELTYPE
  6
BYLAYER
  9
$DIMSCALE
 40
1.0
  9
$DIMASZ
 40
3.0
  9
$DIMEXO
 40
1.85625
  9
$DIMDLI
 40
11.286
  9
$DIMEXE
 40
5.346
  9
$DIMCEN
 40
2.673
  9
$DIMLFAC
 40
1.0
  9
$DIMBLK
  1
_FILLED
  9
$DIMTXT
 40
3.0
  9
$DIMTOL
 70
1
  9
$DIMLIM
 70
0
  9
$DIMTFAC
 40
1.0
  9
$DIMTP
 40
0.01
  9
$DIMTM
 40
0.01
  9
$PDMODE
 70
3
  9
$PDSIZE
 40
3.0
  9
$HANDSEED
  5
590
  9
$TILEMODE
 70
1
  9
$MEASUREMENT
 70
1
  9
$INSUNITS
 70
4
  0
ENDSEC
  0
SECTION
  2
CLASSES
  0
CLASS
  1
ACDBDICTIONARYWDFLT
  2
AcDbDictionaryWithDefault
  3
AutoCAD 2000
 90
0
280
0
281
0
  0
CLASS
  1
ACDBPLACEHOLDER
  2
AcDbPlaceHolder
  3
AutoCAD 2000
 90
0
280
0
281
0
  0
CLASS
  1
LAYOUT
  2
AcDbLayout
  3
AutoCAD 2000
 90
0
280
0
281
0
  0
ENDSEC
  0
SECTION
  2
TABLES
  0
TABLE
  2
VPORT
  5
8
100
AcDbSymbolTable
 70
2
  0
VPORT
  5
1F4
100
AcDbSymbolTableRecord
100
AcDbViewportTableRecord
  2
*ACTIVE
 70
0
 10
0.0
 20
0.0
 11
1.0
 21
1.0
 12
148.5
 22
105.0
 13
0.0
 23
0.0
 14
1.0
 24
1.0
 15
0.0
 25
0.0
 16
0.0
 26
0.0
 36
1.0
 17
0.0
 27
0.0
 37
0.0
 40
210.0
 41
1.4142857143
 42
50.0
 43
0.0
 44
0.0
 50
0.0
 51
0.0
 71
0
 72
100
 73
1
 74
1
 75
0
 76
0
 77
0
 78
0
  0
ENDTAB
  0
TABLE
  2
LTYPE
  5
5
100
AcDbSymbolTable
 70
6
  0
LTYPE
  5
14
100
AcDbSymbolTableRecord
100
AcDbLinetypeTableRecord
  2
BYBLOCK
 70
0
  3

 72
65
 73
0
 40
0.0
  0
LTYPE
  5
15
100
AcDbSymbolTableRecord
100
AcDbLinetypeTableRecord
  2
BYLAYER
 70
0
  3

 72
65
 73
0
 40
0.0
  0
LTYPE
  5
16
100
AcDbSymbolTableRecord
100
AcDbLinetypeTableRecord
  2
CONTINUOUS
 70
64
  3
Solid line
 72
65
 73
0
 40
0.0
  0
LTYPE
  5
1F5
100
AcDbSymbolTableRecord
100
AcDbLinetypeTableRecord
  2
CENTER
 70
64
  3
____ _ ____ _ ____ _ ____ _ ____ _ ____ _ ____
 72
65
 73
4
 40
0.6
 49
0.375
 74
0
 49
-0.075
 74
0
 49
0.075
 74
0
 49
-0.075
 74
0
  0
LTYPE
  5
1F6
100
AcDbSymbolTableRecord
100
AcDbLinetypeTableRecord
  2
HIDDEN
 70
64
  3
- - - - - - - - - - - - - - - - - - - -
 72
65
 73
2
 40
0.2
 49
0.1
 74
0
 49
-0.1
 74
0
  0
LTYPE
  5
1F7
100
AcDbSymbolTableRecord
100
AcDbLinetypeTableRecord
  2
PHANTOM
 70
64
  3
_____ _ _ _____ _ _ _____ _ _ _____
 72
65
 73
6
 40
0.8
 49
0.45
 74
0
 49
-0.05
 74
0
 49
0.1
 74
0
 49
-0.05
 74
0
 49
0.1
 74
0
 49
-0.05
 74
0
  0
LTYPE
  5
1F8
100
AcDbSymbolTableRecord
100
AcDbLinetypeTableRecord
  2
DOT
 70
64
  3
. . . . . . . . . . . . . . . . . . . .
 72
65
 73
2
 40
0.2
 49
0.1
 74
0
 49
-0.1
 74
0
  0
LTYPE
  5
1F9
100
AcDbSymbolTableRecord
100
AcDbLinetypeTableRecord
  2
DASHED
 70
64
  3
- - - - - - - - - - - - - - - - - - - -
 72
65
 73
2
 40
0.2
 49
0.1
 74
0
 49
-0.1
 74
0
  0
ENDTAB
  0
TABLE
  2
LAYER
  5
2
100
AcDbSymbolTable
 70
36
  0
LAYER
  5
10
100
AcDbSymbolTableRecord
100
AcDbLayerTableRecord
  2
0
 70
0
 62
7
  6
CONTINUOUS
370
-3
390
F
  0
LAYER
  5
1FA
100
AcDbSymbolTableRecord
100
AcDbLayerTableRecord
  2
DEFAULT_1
 70
0
 62
7
  6
CENTER
370
-3
390
F
  0
LAYER
  5
1FB
100
AcDbSymbolTableRecord
100
AcDbLayerTableRecord
  2
DEFAULT_2
 70
0
 62
7
  6
HIDDEN
370
-3
390
F
  0
LAYER
  5
1FC
100
AcDbSymbolTableRecord
100
AcDbLayerTableRecord
  2
DEFAULT_3
 70
0
 62
7
  6
PHANTOM
370
-3
390
F
  0
LAYER
  5
1FD
100
AcDbSymbolTableRecord
100
AcDbLayerTableRecord
  2
ASSI
 70
0
 62
7
  6
CONTINUOUS
370
-3
390
F
  0
LAYER
  5
1FE
100
AcDbSymbolTableRecord
100
AcDbLayerTableRecord
  2
COORDINATE
 70
0
 62
7
  6
CONTINUOUS
370
-3
390
F
  0
LAYER
  5
1FF
100
AcDbSymbolTableRecord
100
AcDbLayerTableRecord
  2
COORD_ORIGINE
 70
0
 62
7
  6
CONTINUOUS
370
-3
390
F
  0
LAYER
  5
200
100
AcDbSymbolTableRecord
100
AcDbLayerTableRecord
  2
COPY_PUBLISH
 70
0
 62
7
  6
CONTINUOUS
370
-3
390
F
  0
LAYER
  5
201
100
AcDbSymbolTableRecord
100
AcDbLayerTableRecord
  2
COSMETIC
 70
0
 62
7
  6
CONTINUOUS
370
-3
390
F
  0
LAYER
  5
202
100
AcDbSymbolTableRecord
100
AcDbLayerTableRecord
  2
CURVA_ASSE
 70
0
 62
7
  6
CONTINUOUS
370
-3
390
F
  0
LAYER
  5
203
100
AcDbSymbolTableRecord
100
AcDbLayerTableRecord
  2
CURVE
 70
0
 62
7
  6
CONTINUOUS
370
-3
390
F
  0
LAYER
  5
204
100
AcDbSymbolTableRecord
100
AcDbLayerTableRecord
  2
DRAFT
 70
0
 62
7
  6
CONTINUOUS
370
-3
390
F
  0
LAYER
  5
205
100
AcDbSymbolTableRecord
100
AcDbLayerTableRecord
  2
IMPORT_IGES
 70
0
 62
7
  6
CONTINUOUS
370
-3
390
F
  0
LAYER
  5
206
100
AcDbSymbolTableRecord
100
AcDbLayerTableRecord
  2
NOTE
 70
0
 62
7
  6
CONTINUOUS
370
-3
390
F
  0
LAYER
  5
207
100
AcDbSymbolTableRecord
100
AcDbLayerTableRecord
  2
PIANI
 70
0
 62
7
  6
CONTINUOUS
370
-3
390
F
  0
LAYER
  5
208
100
AcDbSymbolTableRecord
100
AcDbLayerTableRecord
  2
PIANI_ORIGINE
 70
0
 62
7
  6
CONTINUOUS
370
-3
390
F
  0
LAYER
  5
209
100
AcDbSymbolTableRecord
100
AcDbLayerTableRecord
  2
PUNTI
 70
0
 62
7
  6
CONTINUOUS
370
-3
390
F
  0
LAYER
  5
20A
100
AcDbSymbolTableRecord
100
AcDbLayerTableRecord
  2
RACCORDO
 70
0
 62
7
  6
CONTINUOUS
370
-3
390
F
  0
LAYER
  5
20B
100
AcDbSymbolTableRecord
100
AcDbLayerTableRecord
  2
SMUSSO
 70
0
 62
7
  6
CONTINUOUS
370
-3
390
F
  0
LAYER
  5
20C
100
AcDbSymbolTableRecord
100
AcDbLayerTableRecord
  2
SUPERFICI
 70
0
 62
7
  6
CONTINUOUS
370
-3
390
F
  0
LAYER
  5
20D
100
AcDbSymbolTableRecord
100
AcDbLayerTableRecord
  2
TRASH
 70
0
 62
7
  6
CONTINUOUS
370
-3
390
F
  0
LAYER
  5
20E
100
AcDbSymbolTableRecord
100
AcDbLayerTableRecord
  2
XSEC_DATUMS
 70
0
 62
7
  6
CONTINUOUS
370
-3
390
F
  0
ENDTAB
  0
TABLE
  2
STYLE
  5
3
100
AcDbSymbolTable
 70
1
  0
STYLE
  5
11
100
AcDbSymbolTableRecord
100
AcDbTextStyleTableRecord
  2
STANDARD
 70
0
 40
0.0
 41
0.8
 50
0.0
 71
0
 42
0.2
  3
txt
  4

  0
STYLE
  5
20F
100
AcDbSymbolTableRecord
100
AcDbTextStyleTableRecord
  2
TEXTSTYLE_1
 70
0
 40
0.0
 41
0.8
 50
0.0
 71
0
 42
0.2
  3
gdt
  4

  0
ENDTAB
  0
TABLE
  2
VIEW
  5
6
100
AcDbSymbolTable
 70
0
  0
ENDTAB
  0
TABLE
  2
UCS
  5
7
100
AcDbSymbolTable
 70
0
  0
ENDTAB
  0
TABLE
  2
APPID
  5
9
100
AcDbSymbolTable
 70
1
  0
APPID
  5
210
100
AcDbSymbolTableRecord
100
AcDbRegAppTableRecord
  2
ACAD
 70
0
  0
ENDTAB
  0
TABLE
  2
BLOCK_RECORD
  5
1
100
AcDbSymbolTable
 70
0
  0
BLOCK_RECORD
  5
211
100
AcDbSymbolTableRecord
100
AcDbBlockTableRecord
  2
*Model_Space
  0
BLOCK_RECORD
  5
212
100
AcDbSymbolTableRecord
100
AcDbBlockTableRecord
  2
*Paper_Space
  0
ENDTAB
  0
TABLE
  2
DIMSTYLE
  5
A
100
AcDbSymbolTable
 70
1
100
AcDbDimStyleTable
 71
0
  0
DIMSTYLE
105
213
100
AcDbSymbolTableRecord
100
AcDbDimStyleTableRecord
  2
STANDARD
 70
0
  3

  4

 40
1.0
 41
3.0
 42
0.0625
 43
0.38
 44
0.18
 45
0.0
 46
0.0
 47
0.01
 48
0.01
140
3.0
141
0.09
142
0.0
143
25.4
144
1.0
145
0.0
146
1.0
147
0.09
 71
1.0
 72
0.0
 73
0
 74
0
 75
0
 76
0
 77
1
 78
8
170
0
171
2
172
0
173
0
174
0
175
0
176
0
177
0
178
0
270
2
271
2
272
2
273
2
274
2
275
0
280
0
281
0
282
0
283
1
284
8
285
0
286
0
287
3
288
0
340
11
  0
ENDTAB
  0
ENDSEC
  0
SECTION
  2
BLOCKS
  0
BLOCK
  5
20
100
AcDbEntity
  8
0
100
AcDbBlockBegin
  2
*Model_Space
 70
0
 10
0.0
 20
0.0
 30
0.0
  3
*Model_Space
  1

  0
ENDBLK
  5
21
100
AcDbEntity
  8
0
100
AcDbBlockEnd
  0
BLOCK
  5
1C
100
AcDbEntity
  8
0
100
AcDbBlockBegin
  2
*Paper_Space
 70
0
 10
0.0
 20
0.0
 30
0.0
  3
*Paper_Space
  1

  0
ENDBLK
  5
1D
100
AcDbEntity
  8
0
100
AcDbBlockEnd
  0
ENDSEC
  0
SECTION
  2
ENTITIES
  0
LINE
  5
214
100
AcDbEntity
  8
ASSI
100
AcDbLine
 62
7
  6
CONTINUOUS
 10
-124.5889905464
 20
127.4184937059
 11
-127.2052856368
 21
126.1103461607
  0
LINE
  5
215
100
AcDbEntity
  8
RACCORDO
100
AcDbLine
 62
253
  6
CONTINUOUS
 10
-127.2044122973
 20
126.1107826884
 11
-127.2052857175
 21
126.1103461204
  0
LINE
  5
216
100
AcDbEntity
  8
RACCORDO
100
AcDbLine
 62
253
  6
CONTINUOUS
 10
-120.1168545914
 20
127.1344758338
 11
-122.7331496818
 21
125.8263282886
  0
LINE
  5
217
100
AcDbEntity
  8
0
100
AcDbLine
 62
7
  6
CONTINUOUS
 10
-115.7470635475
 20
104.1102017279
 11
-115.6267265309
 21
104.2438522626
  0
LINE
  5
218
100
AcDbEntity
  8
DRAFT
100
AcDbLine
 62
7
  6
CONTINUOUS
 10
-96.0505388415
 20
116.6583961028
 11
-97.0243097909
 21
115.5882034335
  0
LINE
  5
219
100
AcDbEntity
  8
DRAFT
100
AcDbLine
 62
7
  6
CONTINUOUS
 10
-95.109959727
 20
116.1881065455
 11
-96.1183290638
 21
115.1352130699
  0
LINE
  5
21A
100
AcDbEntity
  8
RACCORDO
100
AcDbLine
 62
253
  6
CONTINUOUS
 10
-96.7699900973
 20
120.838220188
 11
-98.9036511558
 21
119.8170030675
  0
LINE
  5
21B
100
AcDbEntity
  8
DRAFT
100
AcDbLine
 62
7
  6
CONTINUOUS
 10
-106.4217051487
 20
121.5410353268
 11
-107.7110381496
 21
120.9315676129
  0
LINE
  5
21C
100
AcDbEntity
  8
RACCORDO
100
AcDbLine
 62
253
  6
CONTINUOUS
 10
-106.4217051509
 20
121.5410353257
 11
-106.4124911309
 21
121.5453838207
  0
LINE
  5
21D
100
AcDbEntity
  8
DRAFT
100
AcDbLine
 62
7
  6
CONTINUOUS
 10
-94.0906193226
 20
119.7383345705
 11
-65.4336757352
 21
133.2528697778
  0
LINE
  5
21E
100
AcDbEntity
  8
0
100
AcDbLine
 62
7
  6
CONTINUOUS
 10
-116.2631226339
 20
105.8613898086
 11
-116.3691886511
 21
105.477792519
  0
LINE
  5
21F
100
AcDbEntity
  8
0
100
AcDbLine
 62
7
  6
CONTINUOUS
 10
-116.2631226339
 20
105.8613898086
 11
-116.181521273
 21
105.9021904891
  0
LINE
  5
220
100
AcDbEntity
  8
0
100
AcDbLine
 62
7
  6
CONTINUOUS
 10
-117.0444079989
 20
105.1401828451
 11
-116.3691886511
 21
105.477792519
  0
LINE
  5
221
100
AcDbEntity
  8
0
100
AcDbLine
 62
7
  6
CONTINUOUS
 10
-117.0612218254
 20
105.0883100695
 11
-116.2564456629
 21
105.4906981507
  0
LINE
  5
222
100
AcDbEntity
  8
0
100
AcDbLine
 62
7
  6
CONTINUOUS
 10
-116.3071614412
 20
105.1155218625
 11
-117.4228825177
 21
104.5576613243
  0
LINE
  5
223
100
AcDbEntity
  8
0
100
AcDbLine
 62
7
  6
CONTINUOUS
 10
-117.0612218254
 20
104.188122589
 11
-116.1966746898
 21
104.6203961568
  0
LINE
  5
224
100
AcDbEntity
  8
0
100
AcDbLine
 62
7
  6
CONTINUOUS
 10
-117.0444079989
 20
104.125170421
 11
-116.3691886511
 21
104.4627800949
  0
LINE
  5
225
100
AcDbEntity
  8
0
100
AcDbLine
 62
7
  6
CONTINUOUS
 10
-116.2631226339
 20
103.9731167881
 11
-115.6267265309
 21
104.2913148396
  0
LINE
  5
226
100
AcDbEntity
  8
0
100
AcDbLine
 62
7
  6
CONTINUOUS
 10
-116.3262218254
 20
103.820622589
 11
-115.4587177577
 21
104.2543746228
  0
LINE
  5
227
100
AcDbEntity
  8
0
100
AcDbLine
 62
7
  6
CONTINUOUS
 10
-115.8811140526
 20
103.7867770918
 11
-115.1346708761
 21
104.15999868
  0
LINE
  5
228
100
AcDbEntity
  8
0
100
AcDbLine
 62
7
  6
CONTINUOUS
 10
-116.3691886511
 20
102.6284120575
 11
-116.6520313636
 21
102.4869907013
  0
LINE
  5
229
100
AcDbEntity
  8
RACCORDO
100
AcDbLine
 62
7
  6
CONTINUOUS
 10
-60.7954168236
 20
130.9760094549
 11
-88.7924747923
 21
117.0892623053
  0
LINE
  5
22A
100
AcDbEntity
  8
RACCORDO
100
AcDbLine
 62
7
  6
CONTINUOUS
 10
-63.3408099627
 20
132.2487060245
 11
-63.384115543
 21
132.2280896817
  0
LINE
  5
22B
100
AcDbEntity
  8
RACCORDO
100
AcDbLine
 62
7
  6
CONTINUOUS
 10
-90.9639839013
 20
118.1750168598
 11
-61.9721816777
 21
131.564391882
  0
LINE
  5
22C
100
AcDbEntity
  8
RACCORDO
100
AcDbLine
 62
7
  6
CONTINUOUS
 10
-130.3900039313
 20
119.9945013755
 11
-130.3900039313
 21
-17.7035378263
  0
LINE
  5
22D
100
AcDbEntity
  8
RACCORDO
100
AcDbLine
 62
253
  6
CONTINUOUS
 10
-129.8042174937
 20
119.2873945943
 11
-129.8042174937
 21
-18.4106446074
  0
LINE
  5
22E
100
AcDbEntity
  8
RACCORDO
100
AcDbLine
 62
7
  6
CONTINUOUS
 10
-79.989566869
 20
107.0708319725
 11
-77.0236087086
 21
108.6710344441
  0
LINE
  5
22F
100
AcDbEntity
  8
RACCORDO
100
AcDbLine
 62
253
  6
CONTINUOUS
 10
-79.7299497318
 20
106.9410234039
 11
-76.5658743472
 21
108.6481146632
  0
LINE
  5
230
100
AcDbEntity
  8
DRAFT
100
AcDbLine
 62
7
  6
CONTINUOUS
 10
-76.3925629594
 20
105.2723300178
 11
-75.3486784414
 21
105.7942722768
  0
LINE
  5
231
100
AcDbEntity
  8
0
100
AcDbLine
 62
7
  6
CONTINUOUS
 10
-116.3691886511
 20
106.356182411
 11
-116.3691886511
 21
105.477792519
  0
LINE
  5
232
100
AcDbEntity
  8
0
100
AcDbLine
 62
7
  6
CONTINUOUS
 10
-116.3691886511
 20
104.4627800949
 11
-116.3691886511
 21
102.6284120575
  0
LINE
  5
233
100
AcDbEntity
  8
0
100
AcDbLine
 62
7
  6
CONTINUOUS
 10
-116.3691886511
 20
-14.021348715
 11
-116.3691886511
 21
-14.899738607
  0
LINE
  5
234
100
AcDbEntity
  8
0
100
AcDbLine
 62
7
  6
CONTINUOUS
 10
-116.3691886511
 20
-15.9147510312
 11
-116.3691886511
 21
-17.7491190685
  0
LINE
  5
235
100
AcDbEntity
  8
0
100
AcDbLine
 62
7
  6
CONTINUOUS
 10
-116.2631226339
 20
-16.5253589413
 11
-116.2631226339
 21
-16.4044143379
  0
LINE
  5
236
100
AcDbEntity
  8
0
100
AcDbLine
 62
7
  6
CONTINUOUS
 10
-116.2631226339
 20
-14.5161413174
 11
-116.2631226339
 21
-14.1244736285
  0
LINE
  5
237
100
AcDbEntity
  8
0
100
AcDbLine
 62
7
  6
CONTINUOUS
 10
-116.2631226339
 20
103.8521721847
 11
-116.2631226339
 21
103.9731167881
  0
LINE
  5
238
100
AcDbEntity
  8
0
100
AcDbLine
 62
7
  6
CONTINUOUS
 10
-116.2631226339
 20
105.8613898086
 11
-116.2631226339
 21
106.2530574975
  0
LINE
  5
239
100
AcDbEntity
  8
0
100
AcDbLine
 62
7
  6
CONTINUOUS
 10
-115.6267265309
 20
-16.1336788635
 11
-115.6267265309
 21
-16.0862162864
  0
LINE
  5
23A
100
AcDbEntity
  8
0
100
AcDbLine
 62
7
  6
CONTINUOUS
 10
-115.6267265309
 20
104.2438522626
 11
-115.6267265309
 21
104.2913148396
  0
LINE
  5
23B
100
AcDbEntity
  8
RACCORDO
100
AcDbLine
 62
253
  6
CONTINUOUS
 10
-56.4704468078
 20
98.6004008935
 11
-59.7469427836
 21
96.9495199299
  0
LINE
  5
23C
100
AcDbEntity
  8
RACCORDO
100
AcDbLine
 62
253
  6
CONTINUOUS
 10
-55.7634477224
 20
97.3810078468
 11
-58.1773759416
 21
96.1647365088
  0
LINE
  5
23D
100
AcDbEntity
  8
0
100
AcDbLine
 62
253
  6
CONTINUOUS
 10
-43.0055348366
 20
112.129503168
 11
-43.1469561928
 21
112.0587924899
  0
LINE
  5
23E
100
AcDbEntity
  8
DRAFT
100
AcDbLine
 62
7
  6
CONTINUOUS
 10
-64.9540669061
 20
99.5530819911
 11
-63.910182388
 21
100.0750242502
  0
LINE
  5
23F
100
AcDbEntity
  8
RACCORDO
100
AcDbLine
 62
7
  6
CONTINUOUS
 10
-32.5111455761
 20
116.8338738312
 11
-60.5082035448
 21
102.9471266816
  0
LINE
  5
240
100
AcDbEntity
  8
RACCORDO
100
AcDbLine
 62
7
  6
CONTINUOUS
 10
-33.6879104303
 20
117.4222562582
 11
-62.6797126538
 21
104.0328812361
  0
LINE
  5
241
100
AcDbEntity
  8
RACCORDO
100
AcDbLine
 62
253
  6
CONTINUOUS
 10
-32.5769710221
 20
117.3290675396
 11
-62.0493981761
 21
103.7177239972
  0
LINE
  5
242
100
AcDbEntity
  8
RACCORDO
100
AcDbLine
 62
7
  6
CONTINUOUS
 10
-32.6592896187
 20
117.1647481417
 11
-61.9180838563
 21
103.6520668373
  0
LWPOLYLINE
  5
243
100
AcDbEntity
  8
RACCORDO
100
AcDbPolyline
 62
7
  6
CONTINUOUS
 90
5
 70
0
 10
-32.6592897138
 20
117.164748365
 10
-32.6566229385
 20
117.1659467621
 10
-32.6436355716
 20
117.1709206548
 10
-32.6354480051
 20
117.1731108138
 10
-32.6332957429
 20
117.1734987734
  0
LINE
  5
244
100
AcDbEntity
  8
DRAFT
100
AcDbLine
 62
7
  6
CONTINUOUS
 10
96.2578204517
 20
-98.6911121639
 11
93.4293933269
 21
-99.2470807984
  0
LINE
  5
245
100
AcDbEntity
  8
0
100
AcDbLine
 62
7
  6
CONTINUOUS
 10
74.4505715313
 20
-111.6139706993
 11
76.0352127397
 21
-111.3488639336
  0
LINE
  5
246
100
AcDbEntity
  8
DRAFT
100
AcDbLine
 62
7
  6
CONTINUOUS
 10
96.2578204517
 20
-99.8430816106
 11
93.4293933269
 21
-100.3165762592
  0
LINE
  5
247
100
AcDbEntity
  8
0
100
AcDbLine
 62
7
  6
CONTINUOUS
 10
-116.3691886511
 20
-15.9147510312
 11
-116.2631226339
 21
-16.4044143379
  0
LINE
  5
248
100
AcDbEntity
  8
0
100
AcDbLine
 62
7
  6
CONTINUOUS
 10
-115.6303204834
 20
-16.0696244813
 11
-115.6267265309
 21
-16.0862162864
  0
LINE
  5
249
100
AcDbEntity
  8
0
100
AcDbLine
 62
7
  6
CONTINUOUS
 10
-116.2631226339
 20
-14.5161413174
 11
-116.3691886511
 21
-14.899738607
  0
LINE
  5
24A
100
AcDbEntity
  8
DRAFT
100
AcDbLine
 62
7
  6
CONTINUOUS
 10
-93.671060975
 20
113.9115790256
 11
-93.671060975
 21
115.4686571695
  0
LINE
  5
24B
100
AcDbEntity
  8
DRAFT
100
AcDbLine
 62
7
  6
CONTINUOUS
 10
-37.926361428
 20
87.596307396
 11
-38.9001323774
 21
86.5261147267
  0
LINE
  5
24C
100
AcDbEntity
  8
DRAFT
100
AcDbLine
 62
7
  6
CONTINUOUS
 10
-36.9857823134
 20
87.1260178387
 11
-37.9941516502
 21
86.0731243632
  0
LINE
  5
24D
100
AcDbEntity
  8
0
100
AcDbLine
 62
7
  6
CONTINUOUS
 10
-49.0879784212
 20
72.2738177022
 11
-49.0063770603
 21
72.3146183827
  0
LINE
  5
24E
100
AcDbEntity
  8
0
100
AcDbLine
 62
7
  6
CONTINUOUS
 10
-49.8692637862
 20
71.5526107388
 11
-49.1940444384
 21
71.8902204127
  0
LINE
  5
24F
100
AcDbEntity
  8
0
100
AcDbLine
 62
7
  6
CONTINUOUS
 10
-49.8860776127
 20
71.5007379631
 11
-49.0813014502
 21
71.9031260443
  0
LINE
  5
250
100
AcDbEntity
  8
0
100
AcDbLine
 62
7
  6
CONTINUOUS
 10
-49.1320172285
 20
71.5279497562
 11
-50.2477383049
 21
70.9700892179
  0
LINE
  5
251
100
AcDbEntity
  8
0
100
AcDbLine
 62
7
  6
CONTINUOUS
 10
-49.8860776127
 20
70.6005504826
 11
-49.0215304771
 21
71.0328240504
  0
LINE
  5
252
100
AcDbEntity
  8
0
100
AcDbLine
 62
7
  6
CONTINUOUS
 10
-49.8692637862
 20
70.5375983146
 11
-49.1940444384
 21
70.8752079885
  0
LINE
  5
253
100
AcDbEntity
  8
RACCORDO
100
AcDbLine
 62
7
  6
CONTINUOUS
 10
-4.2473018587
 20
102.7019519725
 11
-32.691999742
 21
89.0390247802
  0
LINE
  5
254
100
AcDbEntity
  8
RACCORDO
100
AcDbLine
 62
7
  6
CONTINUOUS
 10
-5.4036391828
 20
103.2801206345
 11
-34.3954414064
 21
89.8907456124
  0
LINE
  5
255
100
AcDbEntity
  8
RACCORDO
100
AcDbLine
 62
253
  6
CONTINUOUS
 10
-4.2926997746
 20
103.1869319159
 11
-33.7651269286
 21
89.5755883735
  0
LINE
  5
256
100
AcDbEntity
  8
RACCORDO
100
AcDbLine
 62
7
  6
CONTINUOUS
 10
-4.3750183713
 20
103.0226125179
 11
-33.6338126088
 21
89.5099312136
  0
LINE
  5
257
100
AcDbEntity
  8
RACCORDO
100
AcDbLine
 62
7
  6
CONTINUOUS
 10
-23.6474183323
 20
84.5167340754
 11
5.3443838912
 21
97.9061090975
  0
LWPOLYLINE
  5
258
100
AcDbEntity
  8
RACCORDO
100
AcDbPolyline
 62
7
  6
CONTINUOUS
 90
5
 70
0
 10
-4.3750184663
 20
103.0226127413
 10
-4.3723516911
 20
103.0238111383
 10
-4.3593643241
 20
103.0287850311
 10
-4.3511767576
 20
103.0309751901
 10
-4.3490244954
 20
103.0313631497
  0
LINE
  5
259
100
AcDbEntity
  8
DRAFT
100
AcDbLine
 62
7
  6
CONTINUOUS
 10
96.2578204517
 20
-74.0959906964
 11
93.4293933269
 21
-74.651959331
  0
LINE
  5
25A
100
AcDbEntity
  8
DRAFT
100
AcDbLine
 62
7
  6
CONTINUOUS
 10
96.2578204517
 20
-75.2479601431
 11
93.4293933269
 21
-75.7214547917
  0
LINE
  5
25B
100
AcDbEntity
  8
0
100
AcDbLine
 62
7
  6
CONTINUOUS
 10
-116.3691886511
 20
104.4627800949
 11
-116.2631226339
 21
103.9731167881
  0
LINE
  5
25C
100
AcDbEntity
  8
0
100
AcDbLine
 62
7
  6
CONTINUOUS
 10
-115.6303204834
 20
104.3079066448
 11
-115.6267265309
 21
104.2913148396
  0
LINE
  5
25D
100
AcDbEntity
  8
RACCORDO
100
AcDbLine
 62
253
  6
CONTINUOUS
 10
-78.4743826208
 20
106.4245862323
 11
-78.4743826208
 21
106.3132398485
  0
LINE
  5
25E
100
AcDbEntity
  8
DRAFT
100
AcDbLine
 62
7
  6
CONTINUOUS
 10
-49.9365065587
 20
108.3526962811
 11
-49.9818041517
 21
108.1682983822
  0
LINE
  5
25F
100
AcDbEntity
  8
0
100
AcDbLine
 62
7
  6
CONTINUOUS
 10
-48.5719193348
 20
70.5226296216
 11
-48.4515823182
 21
70.6562801562
  0
LINE
  5
260
100
AcDbEntity
  8
0
100
AcDbLine
 62
7
  6
CONTINUOUS
 10
-115.7470635475
 20
-16.2673293981
 11
-115.6267265309
 21
-16.1336788635
  0
LINE
  5
261
100
AcDbEntity
  8
0
100
AcDbLine
 62
7
  6
CONTINUOUS
 10
-49.0879784212
 20
70.3855446817
 11
-48.4515823182
 21
70.7037427333
  0
LINE
  5
262
100
AcDbEntity
  8
0
100
AcDbLine
 62
7
  6
CONTINUOUS
 10
-49.1510776127
 20
70.2330504826
 11
-48.283573545
 21
70.6668025165
  0
LINE
  5
263
100
AcDbEntity
  8
0
100
AcDbLine
 62
7
  6
CONTINUOUS
 10
-48.7059698398
 20
70.1992049854
 11
-47.9595266634
 21
70.5724265736
  0
LINE
  5
264
100
AcDbEntity
  8
0
100
AcDbLine
 62
7
  6
CONTINUOUS
 10
-49.1940444384
 20
69.0408399512
 11
-49.4768871509
 21
68.8994185949
  0
LINE
  5
265
100
AcDbEntity
  8
RACCORDO
100
AcDbLine
 62
7
  6
CONTINUOUS
 10
6.5211487454
 20
97.3177266704
 11
-21.4759092233
 21
83.4309795209
  0
LINE
  5
266
100
AcDbEntity
  8
0
100
AcDbLine
 62
7
  6
CONTINUOUS
 10
7.2754273186
 20
-78.0263985929
 11
8.8600685269
 21
-77.7612918272
  0
LINE
  5
267
100
AcDbEntity
  8
RACCORDO
100
AcDbLine
 62
7
  6
CONTINUOUS
 10
-123.6275768728
 20
-29.2490225633
 11
82.8476032337
 21
-132.4866126165
  0
LINE
  5
268
100
AcDbEntity
  8
RACCORDO
100
AcDbLine
 62
253
  6
CONTINUOUS
 10
-124.1473632442
 20
-28.1672749625
 11
82.3278168623
 21
-131.4048650157
  0
LINE
  5
269
100
AcDbEntity
  8
RACCORDO
100
AcDbLine
 62
253
  6
CONTINUOUS
 10
-60.7844782086
 20
97.4682876423
 11
-60.7844782086
 21
97.5796340262
  0
LINE
  5
26A
100
AcDbEntity
  8
RACCORDO
100
AcDbLine
 62
7
  6
CONTINUOUS
 10
-60.6491742936
 20
131.7181557204
 11
-60.6491742936
 21
131.0395354152
  0
LINE
  5
26B
100
AcDbEntity
  8
0
100
AcDbLine
 62
7
  6
CONTINUOUS
 10
-49.0879784212
 20
72.2738177022
 11
-49.1940444384
 21
71.8902204127
  0
LINE
  5
26C
100
AcDbEntity
  8
DRAFT
100
AcDbLine
 62
7
  6
CONTINUOUS
 10
-18.5516356235
 20
77.9089444937
 11
-19.5254065729
 21
76.8387518245
  0
LINE
  5
26D
100
AcDbEntity
  8
DRAFT
100
AcDbLine
 62
7
  6
CONTINUOUS
 10
-17.6110565089
 20
77.4386549365
 11
-18.6194258457
 21
76.3857614609
  0
LINE
  5
26E
100
AcDbEntity
  8
RACCORDO
100
AcDbLine
 62
7
  6
CONTINUOUS
 10
33.6286551387
 20
83.7639734738
 11
4.6368529151
 21
70.3745984516
  0
LINE
  5
26F
100
AcDbEntity
  8
RACCORDO
100
AcDbLine
 62
253
  6
CONTINUOUS
 10
34.7395945469
 20
83.6707847551
 11
5.2671673929
 21
70.0594412128
  0
LINE
  5
270
100
AcDbEntity
  8
RACCORDO
100
AcDbLine
 62
7
  6
CONTINUOUS
 10
34.6572759502
 20
83.5064653572
 11
5.3984817127
 21
69.9937840529
  0
LWPOLYLINE
  5
271
100
AcDbEntity
  8
RACCORDO
100
AcDbPolyline
 62
7
  6
CONTINUOUS
 90
5
 70
0
 10
34.6572758551
 20
83.5064655805
 10
34.6599426304
 20
83.5076639776
 10
34.6729299974
 20
83.5126378703
 10
34.6811175639
 20
83.5148280294
 10
34.6832698261
 20
83.5152159889
  0
LINE
  5
272
100
AcDbEntity
  8
DRAFT
100
AcDbLine
 62
7
  6
CONTINUOUS
 10
96.2578204517
 20
-49.5008692289
 11
93.4293933269
 21
-50.0568378635
  0
LINE
  5
273
100
AcDbEntity
  8
DRAFT
100
AcDbLine
 62
7
  6
CONTINUOUS
 10
96.2578204517
 20
-50.6528386756
 11
93.4293933269
 21
-51.1263333242
  0
LINE
  5
274
100
AcDbEntity
  8
0
100
AcDbLine
 62
7
  6
CONTINUOUS
 10
76.7797999782
 20
-112.336942118
 11
76.7063179519
 21
-112.3002011049
  0
LINE
  5
275
100
AcDbEntity
  8
0
100
AcDbLine
 62
7
  6
CONTINUOUS
 10
9.6046557655
 20
-78.7493700117
 11
9.5311737391
 21
-78.7126289985
  0
LINE
  5
276
100
AcDbEntity
  8
0
100
AcDbLine
 62
7
  6
CONTINUOUS
 10
-115.5532445046
 20
-16.1704198766
 11
-115.6267265309
 21
-16.1336788635
  0
LINE
  5
277
100
AcDbEntity
  8
RACCORDO
100
AcDbLine
 62
7
  6
CONTINUOUS
 10
-55.7634477224
 20
96.5148505432
 11
-55.7634477224
 21
97.3810078468
  0
LINE
  5
278
100
AcDbEntity
  8
DRAFT
100
AcDbLine
 62
7
  6
CONTINUOUS
 10
-54.3245489704
 20
94.2383230233
 11
-54.3245489704
 21
95.7954011672
  0
LINE
  5
279
100
AcDbEntity
  8
0
100
AcDbLine
 62
7
  6
CONTINUOUS
 10
-49.1940444384
 20
72.7686103047
 11
-49.1940444384
 21
71.8902204127
  0
LINE
  5
27A
100
AcDbEntity
  8
0
100
AcDbLine
 62
7
  6
CONTINUOUS
 10
-49.1940444384
 20
70.8752079885
 11
-49.1940444384
 21
69.0408399512
  0
LINE
  5
27B
100
AcDbEntity
  8
0
100
AcDbLine
 62
7
  6
CONTINUOUS
 10
-49.0879784212
 20
70.2646000783
 11
-49.0879784212
 21
70.3855446817
  0
LINE
  5
27C
100
AcDbEntity
  8
0
100
AcDbLine
 62
7
  6
CONTINUOUS
 10
-49.0879784212
 20
72.2738177022
 11
-49.0879784212
 21
72.6654853912
  0
LINE
  5
27D
100
AcDbEntity
  8
0
100
AcDbLine
 62
7
  6
CONTINUOUS
 10
-48.4515823182
 20
70.6562801562
 11
-48.4515823182
 21
70.7037427333
  0
LINE
  5
27E
100
AcDbEntity
  8
RACCORDO
100
AcDbLine
 62
7
  6
CONTINUOUS
 10
34.8054199929
 20
83.1755910467
 11
6.8083620241
 21
69.2888438971
  0
LINE
  5
27F
100
AcDbEntity
  8
0
100
AcDbLine
 62
7
  6
CONTINUOUS
 10
-41.3451591672
 20
112.4521379647
 11
-41.3451591672
 21
113.153325222
  0
LINE
  5
280
100
AcDbEntity
  8
DRAFT
100
AcDbLine
 62
7
  6
CONTINUOUS
 10
0.823090181
 20
68.2215815915
 11
-0.1506807684
 21
67.1513889222
  0
LINE
  5
281
100
AcDbEntity
  8
DRAFT
100
AcDbLine
 62
7
  6
CONTINUOUS
 10
1.7636692956
 20
67.7512920342
 11
0.7552999588
 21
66.6983985586
  0
LINE
  5
282
100
AcDbEntity
  8
0
100
AcDbLine
 62
7
  6
CONTINUOUS
 10
-116.2631226339
 20
-14.5161413174
 11
-116.181521273
 21
-14.4753406369
  0
LINE
  5
283
100
AcDbEntity
  8
0
100
AcDbLine
 62
7
  6
CONTINUOUS
 10
-117.0444079989
 20
-15.2373482809
 11
-116.3691886511
 21
-14.899738607
  0
LINE
  5
284
100
AcDbEntity
  8
0
100
AcDbLine
 62
7
  6
CONTINUOUS
 10
-117.0612218254
 20
-15.2892210566
 11
-116.2564456629
 21
-14.8868329753
  0
LINE
  5
285
100
AcDbEntity
  8
0
100
AcDbLine
 62
7
  6
CONTINUOUS
 10
-116.3071614412
 20
-15.2620092635
 11
-117.4228825177
 21
-15.8198698017
  0
LINE
  5
286
100
AcDbEntity
  8
0
100
AcDbLine
 62
7
  6
CONTINUOUS
 10
-117.0612218254
 20
-16.1894085371
 11
-116.1966746898
 21
-15.7571349693
  0
LINE
  5
287
100
AcDbEntity
  8
0
100
AcDbLine
 62
7
  6
CONTINUOUS
 10
-117.0444079989
 20
-16.2523607051
 11
-116.3691886511
 21
-15.9147510312
  0
LINE
  5
288
100
AcDbEntity
  8
0
100
AcDbLine
 62
7
  6
CONTINUOUS
 10
-116.2631226339
 20
-16.4044143379
 11
-115.6267265309
 21
-16.0862162864
  0
LINE
  5
289
100
AcDbEntity
  8
0
100
AcDbLine
 62
7
  6
CONTINUOUS
 10
-116.3262218254
 20
-16.5569085371
 11
-115.4587177577
 21
-16.1231565032
  0
LINE
  5
28A
100
AcDbEntity
  8
0
100
AcDbLine
 62
7
  6
CONTINUOUS
 10
-115.8811140526
 20
-16.5907540343
 11
-115.1346708761
 21
-16.2175324461
  0
LINE
  5
28B
100
AcDbEntity
  8
0
100
AcDbLine
 62
7
  6
CONTINUOUS
 10
-116.3691886511
 20
-17.7491190685
 11
-116.6520313636
 21
-17.8905404247
  0
LINE
  5
28C
100
AcDbEntity
  8
RACCORDO
100
AcDbLine
 62
7
  6
CONTINUOUS
 10
61.9129263861
 20
69.62183785
 11
32.9211241626
 21
56.2324628279
  0
LINE
  5
28D
100
AcDbEntity
  8
RACCORDO
100
AcDbLine
 62
253
  6
CONTINUOUS
 10
63.0238657943
 20
69.5286491314
 11
33.5514386403
 21
55.917305589
  0
LINE
  5
28E
100
AcDbEntity
  8
RACCORDO
100
AcDbLine
 62
7
  6
CONTINUOUS
 10
62.9415471977
 20
69.3643297334
 11
33.6827529601
 21
55.8516484291
  0
LWPOLYLINE
  5
28F
100
AcDbEntity
  8
RACCORDO
100
AcDbPolyline
 62
7
  6
CONTINUOUS
 90
5
 70
0
 10
62.9415471026
 20
69.3643299568
 10
62.9442138779
 20
69.3655283539
 10
62.9572012449
 20
69.3705022466
 10
62.9653888113
 20
69.3726924056
 10
62.9675410735
 20
69.3730803652
  0
LINE
  5
290
100
AcDbEntity
  8
DRAFT
100
AcDbLine
 62
7
  6
CONTINUOUS
 10
96.2578204517
 20
-24.9057477614
 11
93.4293933269
 21
-25.461716396
  0
LINE
  5
291
100
AcDbEntity
  8
DRAFT
100
AcDbLine
 62
7
  6
CONTINUOUS
 10
96.2578204517
 20
-26.0577172081
 11
93.4293933269
 21
-26.5312118567
  0
LINE
  5
292
100
AcDbEntity
  8
DRAFT
100
AcDbLine
 62
7
  6
CONTINUOUS
 10
94.6628498256
 20
-96.4491802291
 11
96.2578204517
 21
-97.2466655422
  0
LINE
  5
293
100
AcDbEntity
  8
DRAFT
100
AcDbLine
 62
7
  6
CONTINUOUS
 10
-63.5999603153
 20
98.8760286957
 11
-63.910182388
 21
100.0750242502
  0
LINE
  5
294
100
AcDbEntity
  8
DRAFT
100
AcDbLine
 62
7
  6
CONTINUOUS
 10
-35.5468835615
 20
84.8494903188
 11
-35.5468835615
 21
86.4065684628
  0
LINE
  5
295
100
AcDbEntity
  8
RACCORDO
100
AcDbLine
 62
7
  6
CONTINUOUS
 10
-32.3649030462
 20
117.5760200967
 11
-32.3649030462
 21
117.3592787703
  0
LINE
  5
296
100
AcDbEntity
  8
RACCORDO
100
AcDbLine
 62
253
  6
CONTINUOUS
 10
-30.3462397708
 20
90.1657707147
 11
-30.3462397708
 21
91.0282412966
  0
LINE
  5
297
100
AcDbEntity
  8
RACCORDO
100
AcDbLine
 62
253
  6
CONTINUOUS
 10
-29.9257102253
 20
90.3677649347
 11
-29.9257102253
 21
91.2224557766
  0
LINE
  5
298
100
AcDbEntity
  8
DRAFT
100
AcDbLine
 62
7
  6
CONTINUOUS
 10
20.1978159855
 20
58.5342186892
 11
19.2240450362
 21
57.46402602
  0
LINE
  5
299
100
AcDbEntity
  8
DRAFT
100
AcDbLine
 62
7
  6
CONTINUOUS
 10
21.1383951001
 20
58.063929132
 11
20.1300257633
 21
57.0110356564
  0
LINE
  5
29A
100
AcDbEntity
  8
RACCORDO
100
AcDbLine
 62
7
  6
CONTINUOUS
 10
36.2587879581
 20
48.946654559
 11
39.2247461185
 21
50.5468570306
  0
LINE
  5
29B
100
AcDbEntity
  8
RACCORDO
100
AcDbLine
 62
253
  6
CONTINUOUS
 10
36.5184050953
 20
48.8168459904
 11
39.6824804799
 21
50.5239372496
  0
LINE
  5
29C
100
AcDbEntity
  8
DRAFT
100
AcDbLine
 62
7
  6
CONTINUOUS
 10
39.8557918676
 20
47.1481526042
 11
40.8996763857
 21
47.6700948633
  0
LINE
  5
29D
100
AcDbEntity
  8
RACCORDO
100
AcDbLine
 62
7
  6
CONTINUOUS
 10
65.7766970088
 20
67.6899525387
 11
37.7796390401
 21
53.8032053891
  0
LINE
  5
29E
100
AcDbEntity
  8
RACCORDO
100
AcDbLine
 62
7
  6
CONTINUOUS
 10
63.0692637102
 20
69.043669188
 11
34.624565827
 21
55.3807419957
  0
LINE
  5
29F
100
AcDbEntity
  8
RACCORDO
100
AcDbLine
 62
7
  6
CONTINUOUS
 10
64.6203596847
 20
68.2681212007
 11
36.0761973757
 21
54.6549262213
  0
LINE
  5
2A0
100
AcDbEntity
  8
0
100
AcDbLine
 62
7
  6
CONTINUOUS
 10
-49.1940444384
 20
70.8752079885
 11
-49.0879784212
 21
70.3855446817
  0
LINE
  5
2A1
100
AcDbEntity
  8
0
100
AcDbLine
 62
7
  6
CONTINUOUS
 10
-48.4551762707
 20
70.7203345384
 11
-48.4515823182
 21
70.7037427333
  0
LINE
  5
2A2
100
AcDbEntity
  8
DRAFT
100
AcDbLine
 62
7
  6
CONTINUOUS
 10
-16.172157757
 20
75.1621274165
 11
-16.172157757
 21
76.7192055605
  0
LINE
  5
2A3
100
AcDbEntity
  8
RACCORDO
100
AcDbLine
 62
7
  6
CONTINUOUS
 10
28.3475959921
 20
80.5924455346
 11
27.8267569921
 21
79.7141227509
  0
LINE
  5
2A4
100
AcDbEntity
  8
RACCORDO
100
AcDbLine
 62
7
  6
CONTINUOUS
 10
30.0767666968
 20
81.0167594194
 11
29.9094493572
 21
80.7471535178
  0
LINE
  5
2A5
100
AcDbEntity
  8
DRAFT
100
AcDbLine
 62
7
  6
CONTINUOUS
 10
51.2942879209
 20
41.4289045776
 11
52.338172439
 21
41.9508468366
  0
LINE
  5
2A6
100
AcDbEntity
  8
DRAFT
100
AcDbLine
 62
7
  6
CONTINUOUS
 10
96.2578204517
 20
-0.310626294
 11
93.4293933269
 21
-0.8665949285
  0
LINE
  5
2A7
100
AcDbEntity
  8
DRAFT
100
AcDbLine
 62
7
  6
CONTINUOUS
 10
96.2578204517
 20
-1.4625957406
 11
93.4293933269
 21
-1.9360903893
  0
LINE
  5
2A8
100
AcDbEntity
  8
DRAFT
100
AcDbLine
 62
7
  6
CONTINUOUS
 10
94.6628498256
 20
-71.8540587617
 11
96.2578204517
 21
-72.6515440747
  0
LINE
  5
2A9
100
AcDbEntity
  8
RACCORDO
100
AcDbLine
 62
7
  6
CONTINUOUS
 10
130.3248765225
 20
-82.4819802902
 11
129.3070201794
 21
-81.9730521187
  0
LINE
  5
2AA
100
AcDbEntity
  8
RACCORDO
100
AcDbLine
 62
7
  6
CONTINUOUS
 10
-4.0806317987
 20
103.433884473
 11
-4.0806317987
 21
103.2171431465
  0
LINE
  5
2AB
100
AcDbEntity
  8
DRAFT
100
AcDbLine
 62
7
  6
CONTINUOUS
 10
13.5851757095
 20
73.7746706383
 11
13.4389204714
 21
73.1792933402
  0
LINE
  5
2AC
100
AcDbEntity
  8
RACCORDO
100
AcDbLine
 62
253
  6
CONTINUOUS
 10
59.7779080193
 20
40.4762234799
 11
56.5014120434
 21
38.8253425163
  0
LINE
  5
2AD
100
AcDbEntity
  8
RACCORDO
100
AcDbLine
 62
253
  6
CONTINUOUS
 10
60.4849071047
 20
39.2568304333
 11
58.0709788855
 21
38.0405590953
  0
LINE
  5
2AE
100
AcDbEntity
  8
RACCORDO
100
AcDbLine
 62
7
  6
CONTINUOUS
 10
94.0609682563
 20
53.547816915
 11
66.0639102876
 21
39.6610697654
  0
LINE
  5
2AF
100
AcDbEntity
  8
RACCORDO
100
AcDbLine
 62
7
  6
CONTINUOUS
 10
92.8842034021
 20
54.136199342
 11
63.8924011786
 21
40.7468243199
  0
LINE
  5
2B0
100
AcDbEntity
  8
RACCORDO
100
AcDbLine
 62
253
  6
CONTINUOUS
 10
93.9951428103
 20
54.0430106234
 11
64.5227156563
 21
40.431667081
  0
LINE
  5
2B1
100
AcDbEntity
  8
RACCORDO
100
AcDbLine
 62
7
  6
CONTINUOUS
 10
93.9128242137
 20
53.8786912255
 11
64.6540299761
 21
40.3660099211
  0
LWPOLYLINE
  5
2B2
100
AcDbEntity
  8
RACCORDO
100
AcDbPolyline
 62
7
  6
CONTINUOUS
 90
5
 70
0
 10
93.9128241186
 20
53.8786914488
 10
93.9154908939
 20
53.8798898459
 10
93.9284782608
 20
53.8848637386
 10
93.9366658273
 20
53.8870538976
 10
93.9388180895
 20
53.8874418572
  0
LINE
  5
2B3
100
AcDbEntity
  8
0
100
AcDbLine
 62
7
  6
CONTINUOUS
 10
74.4505715313
 20
8.7635604268
 11
76.0352127397
 21
9.0286671925
  0
LINE
  5
2B4
100
AcDbEntity
  8
DRAFT
100
AcDbLine
 62
7
  6
CONTINUOUS
 10
94.6628498256
 20
-47.2589372942
 11
96.2578204517
 21
-48.0564226072
  0
LINE
  5
2B5
100
AcDbEntity
  8
0
100
AcDbLine
 62
7
  6
CONTINUOUS
 10
8.7887116189
 20
-78.4937011662
 11
8.8947776361
 21
-78.983364473
  0
LINE
  5
2B6
100
AcDbEntity
  8
0
100
AcDbLine
 62
7
  6
CONTINUOUS
 10
9.5275797866
 20
-78.6485746163
 11
9.5311737391
 21
-78.6651664214
  0
LINE
  5
2B7
100
AcDbEntity
  8
DRAFT
100
AcDbLine
 62
7
  6
CONTINUOUS
 10
3.2025680475
 20
65.4747645143
 11
3.2025680475
 21
67.0318426583
  0
LINE
  5
2B8
100
AcDbEntity
  8
RACCORDO
100
AcDbLine
 62
7
  6
CONTINUOUS
 10
6.6673912753
 20
98.059872936
 11
6.6673912753
 21
97.3812526308
  0
LINE
  5
2B9
100
AcDbEntity
  8
0
100
AcDbLine
 62
7
  6
CONTINUOUS
 10
8.7887116189
 20
-76.60029885
 11
8.7887116189
 21
-77.478688742
  0
LINE
  5
2BA
100
AcDbEntity
  8
0
100
AcDbLine
 62
7
  6
CONTINUOUS
 10
8.7887116189
 20
-78.4937011662
 11
8.7887116189
 21
-80.3280692035
  0
LINE
  5
2BB
100
AcDbEntity
  8
0
100
AcDbLine
 62
7
  6
CONTINUOUS
 10
8.8947776361
 20
-79.1043090763
 11
8.8947776361
 21
-78.983364473
  0
LINE
  5
2BC
100
AcDbEntity
  8
0
100
AcDbLine
 62
7
  6
CONTINUOUS
 10
8.8947776361
 20
-77.0950914524
 11
8.8947776361
 21
-76.7034237635
  0
LINE
  5
2BD
100
AcDbEntity
  8
0
100
AcDbLine
 62
7
  6
CONTINUOUS
 10
9.5311737391
 20
-78.7126289985
 11
9.5311737391
 21
-78.6651664214
  0
LINE
  5
2BE
100
AcDbEntity
  8
RACCORDO
100
AcDbLine
 62
253
  6
CONTINUOUS
 10
84.2493458864
 20
30.3285521961
 11
82.1156848279
 21
29.3073350756
  0
LWPOLYLINE
  5
2BF
100
AcDbEntity
  8
RACCORDO
100
AcDbPolyline
 62
7
  6
CONTINUOUS
 90
5
 70
0
 10
122.197095366
 20
39.7365558251
 10
122.1997621413
 20
39.7377542221
 10
122.2127495083
 20
39.7427281149
 10
122.2209370748
 20
39.7449182739
 10
122.2230893369
 20
39.7453062335
  0
LINE
  5
2C0
100
AcDbEntity
  8
0
100
AcDbLine
 62
7
  6
CONTINUOUS
 10
-117.8824729514
 20
-15.4474484579
 11
-116.2978317431
 21
-15.1823416922
  0
LINE
  5
2C1
100
AcDbEntity
  8
DRAFT
100
AcDbLine
 62
7
  6
CONTINUOUS
 10
22.577293852
 20
55.787401612
 11
22.577293852
 21
57.344479756
  0
LINE
  5
2C2
100
AcDbEntity
  8
DRAFT
100
AcDbLine
 62
7
  6
CONTINUOUS
 10
95.48822292
 20
19.5524193098
 11
126.4546368852
 21
35.1760437681
  0
LINE
  5
2C3
100
AcDbEntity
  8
DRAFT
100
AcDbLine
 62
7
  6
CONTINUOUS
 10
95.390129923
 20
19.7138975012
 11
126.9581514799
 21
35.5409633883
  0
LINE
  5
2C4
100
AcDbEntity
  8
RACCORDO
100
AcDbLine
 62
253
  6
CONTINUOUS
 10
86.3583255151
 20
23.8968857805
 11
83.7420304247
 21
22.5887382353
  0
LINE
  5
2C5
100
AcDbEntity
  8
ASSI
100
AcDbLine
 62
7
  6
CONTINUOUS
 10
115.7261997209
 20
36.1865250294
 11
115.5847783647
 21
36.1158169494
  0
LINE
  5
2C6
100
AcDbEntity
  8
0
100
AcDbLine
 62
7
  6
CONTINUOUS
 10
76.0699218488
 20
9.6948675672
 11
76.1515232098
 21
9.7356682477
  0
LINE
  5
2C7
100
AcDbEntity
  8
0
100
AcDbLine
 62
7
  6
CONTINUOUS
 10
75.2886364838
 20
8.9736606038
 11
75.9638558316
 21
9.3112702776
  0
LINE
  5
2C8
100
AcDbEntity
  8
0
100
AcDbLine
 62
7
  6
CONTINUOUS
 10
75.2718226574
 20
8.9217878281
 11
76.0765988198
 21
9.3241759093
  0
LINE
  5
2C9
100
AcDbEntity
  8
0
100
AcDbLine
 62
7
  6
CONTINUOUS
 10
76.0258830415
 20
8.9489996212
 11
74.9101619651
 21
8.3911390829
  0
LINE
  5
2CA
100
AcDbEntity
  8
0
100
AcDbLine
 62
7
  6
CONTINUOUS
 10
75.2718226574
 20
8.0216003476
 11
76.1363697929
 21
8.4538739154
  0
LINE
  5
2CB
100
AcDbEntity
  8
RACCORDO
100
AcDbLine
 62
7
  6
CONTINUOUS
 10
92.0507757759
 20
24.3794039484
 11
122.3452395038
 21
39.4056812912
  0
LINE
  5
2CC
100
AcDbEntity
  8
DRAFT
100
AcDbLine
 62
7
  6
CONTINUOUS
 10
96.4352522742
 20
19.5765234145
 11
127.3095488627
 21
34.8860809882
  0
LINE
  5
2CD
100
AcDbEntity
  8
DRAFT
100
AcDbLine
 62
7
  6
CONTINUOUS
 10
93.7884649079
 20
22.1649742873
 11
125.7203485567
 21
37.6758576319
  0
LINE
  5
2CE
100
AcDbEntity
  8
RACCORDO
100
AcDbLine
 62
7
  6
CONTINUOUS
 10
123.6707883644
 20
38.700637728
 11
123.7138677887
 21
38.7213671487
  0
LINE
  5
2CF
100
AcDbEntity
  8
RACCORDO
100
AcDbLine
 62
7
  6
CONTINUOUS
 10
121.1684746496
 20
39.9940637183
 11
90.6560869468
 21
25.9024319314
  0
LINE
  5
2D0
100
AcDbEntity
  8
RACCORDO
100
AcDbLine
 62
253
  6
CONTINUOUS
 10
122.2794140578
 20
39.9008749997
 11
91.0559188421
 21
25.480830198
  0
LINE
  5
2D1
100
AcDbEntity
  8
RACCORDO
100
AcDbLine
 62
7
  6
CONTINUOUS
 10
122.1970954611
 20
39.7365556017
 11
91.1392163947
 21
25.3929973038
  0
LINE
  5
2D2
100
AcDbEntity
  8
0
100
AcDbLine
 62
7
  6
CONTINUOUS
 10
96.5302120751
 20
19.5050807184
 11
97.9548767265
 21
19.4457211224
  0
LINE
  5
2D3
100
AcDbEntity
  8
RACCORDO
100
AcDbLine
 62
7
  6
CONTINUOUS
 10
130.1479079705
 20
-46.0204290553
 11
130.3248765225
 21
-46.1089133312
  0
LINE
  5
2D4
100
AcDbEntity
  8
DRAFT
100
AcDbLine
 62
7
  6
CONTINUOUS
 10
94.6628498256
 20
-22.6638158267
 11
96.2578204517
 21
-23.4613011398
  0
LINE
  5
2D5
100
AcDbEntity
  8
DRAFT
100
AcDbLine
 62
7
  6
CONTINUOUS
 10
93.6294356915
 20
-112.078289443
 11
93.4293933269
 21
-111.7332674008
  0
LINE
  5
2D6
100
AcDbEntity
  8
DRAFT
100
AcDbLine
 62
7
  6
CONTINUOUS
 10
30.0767666968
 20
81.0167594194
 11
30.0767666968
 21
81.0590857024
  0
LINE
  5
2D7
100
AcDbEntity
  8
RACCORDO
100
AcDbLine
 62
7
  6
CONTINUOUS
 10
34.9516625228
 20
83.9177373122
 11
34.9516625228
 21
83.7009959858
  0
LINE
  5
2D8
100
AcDbEntity
  8
RACCORDO
100
AcDbLine
 62
253
  6
CONTINUOUS
 10
37.7739722062
 20
48.3004088188
 11
37.7739722062
 21
48.1890624349
  0
LINE
  5
2D9
100
AcDbEntity
  8
0
100
AcDbLine
 62
7
  6
CONTINUOUS
 10
8.8947776361
 20
-77.0950914524
 11
8.7887116189
 21
-77.478688742
  0
LINE
  5
2DA
100
AcDbEntity
  8
DRAFT
100
AcDbLine
 62
7
  6
CONTINUOUS
 10
78.3219933991
 20
29.4721299825
 11
77.3482224497
 21
28.4019373132
  0
LINE
  5
2DB
100
AcDbEntity
  8
DRAFT
100
AcDbLine
 62
7
  6
CONTINUOUS
 10
78.2542031769
 20
27.9489469496
 11
79.2625725136
 21
29.0018404252
  0
LINE
  5
2DC
100
AcDbEntity
  8
RACCORDO
100
AcDbLine
 62
7
  6
CONTINUOUS
 10
99.2935256601
 20
10.1025351899
 11
129.8596716991
 21
26.5936722171
  0
LINE
  5
2DD
100
AcDbEntity
  8
RACCORDO
100
AcDbLine
 62
253
  6
CONTINUOUS
 10
99.3094895747
 20
10.0301846971
 11
129.9984166307
 21
26.5875648997
  0
LINE
  5
2DE
100
AcDbEntity
  8
RACCORDO
100
AcDbLine
 62
7
  6
CONTINUOUS
 10
129.4206019703
 20
25.7612494438
 11
99.4109498825
 21
9.5703536702
  0
LINE
  5
2DF
100
AcDbEntity
  8
RACCORDO
100
AcDbLine
 62
7
  6
CONTINUOUS
 10
129.4206019703
 20
28.8787066367
 11
129.378163396
 21
28.8568719132
  0
LINE
  5
2E0
100
AcDbEntity
  8
DRAFT
100
AcDbLine
 62
7
  6
CONTINUOUS
 10
97.6382265553
 20
15.2192789094
 11
129.378163396
 21
31.3670602473
  0
LINE
  5
2E1
100
AcDbEntity
  8
0
100
AcDbLine
 62
7
  6
CONTINUOUS
 10
75.2886364838
 20
7.9586481796
 11
75.9638558316
 21
8.2962578535
  0
LINE
  5
2E2
100
AcDbEntity
  8
0
100
AcDbLine
 62
7
  6
CONTINUOUS
 10
76.0699218488
 20
7.8065945467
 11
76.7063179519
 21
8.1247925983
  0
LINE
  5
2E3
100
AcDbEntity
  8
0
100
AcDbLine
 62
7
  6
CONTINUOUS
 10
76.0068226574
 20
7.6541003476
 11
76.8743267251
 21
8.0878523815
  0
LINE
  5
2E4
100
AcDbEntity
  8
0
100
AcDbLine
 62
7
  6
CONTINUOUS
 10
76.4519304302
 20
7.6202548504
 11
77.1983736066
 21
7.9934764386
  0
LINE
  5
2E5
100
AcDbEntity
  8
0
100
AcDbLine
 62
7
  6
CONTINUOUS
 10
75.9638558316
 20
6.4618898162
 11
75.6810131191
 21
6.3204684599
  0
LINE
  5
2E6
100
AcDbEntity
  8
RACCORDO
100
AcDbLine
 62
253
  6
CONTINUOUS
 10
93.4293933269
 20
11.7010978367
 11
90.8130982365
 21
10.3929502915
  0
LINE
  5
2E7
100
AcDbEntity
  8
RACCORDO
100
AcDbLine
 62
7
  6
CONTINUOUS
 10
98.7844820505
 20
12.0067448311
 11
129.4206019703
 21
27.2024861638
  0
LINE
  5
2E8
100
AcDbEntity
  8
DRAFT
100
AcDbLine
 62
7
  6
CONTINUOUS
 10
128.1403604728
 20
33.5019544909
 11
96.415586175
 21
17.8605453753
  0
LINE
  5
2E9
100
AcDbEntity
  8
DRAFT
100
AcDbLine
 62
253
  6
CONTINUOUS
 10
94.6628498256
 20
11.0245723805
 11
93.4293933269
 21
10.429004833
  0
LINE
  5
2EA
100
AcDbEntity
  8
DRAFT
100
AcDbLine
 62
7
  6
CONTINUOUS
 10
108.0070436657
 20
-21.2246553265
 11
108.3386703782
 21
-21.3904686827
  0
LINE
  5
2EB
100
AcDbEntity
  8
DRAFT
100
AcDbLine
 62
7
  6
CONTINUOUS
 10
110.0921122743
 20
-20.4444465528
 11
108.398558166
 21
-19.5976694986
  0
LINE
  5
2EC
100
AcDbEntity
  8
RACCORDO
100
AcDbLine
 62
7
  6
CONTINUOUS
 10
111.5064132603
 20
-19.6813987244
 11
109.8746499728
 21
-18.8655170806
  0
LINE
  5
2ED
100
AcDbEntity
  8
RACCORDO
100
AcDbLine
 62
253
  6
CONTINUOUS
 10
115.470206715
 20
-17.5428412195
 11
114.0116215933
 21
-16.8135486587
  0
LINE
  5
2EE
100
AcDbEntity
  8
RACCORDO
100
AcDbLine
 62
253
  6
CONTINUOUS
 10
115.9206035771
 20
-17.2998417795
 11
114.4816962978
 21
-16.5803881398
  0
LINE
  5
2EF
100
AcDbEntity
  8
DRAFT
100
AcDbLine
 62
7
  6
CONTINUOUS
 10
14.735599022
 20
73.2208118884
 11
14.6930532418
 21
73.43655346
  0
LINE
  5
2F0
100
AcDbEntity
  8
DRAFT
100
AcDbLine
 62
7
  6
CONTINUOUS
 10
92.3530436231
 20
16.8169280657
 11
92.459557951
 21
16.8941237786
  0
LINE
  5
2F1
100
AcDbEntity
  8
DRAFT
100
AcDbLine
 62
7
  6
CONTINUOUS
 10
126.9581514799
 20
35.5409633883
 11
126.4546368852
 21
35.1760437681
  0
LINE
  5
2F2
100
AcDbEntity
  8
RACCORDO
100
AcDbLine
 62
253
  6
CONTINUOUS
 10
97.672034014
 20
2.4766015993
 11
99.7684518802
 21
3.5620537247
  0
LINE
  5
2F3
100
AcDbEntity
  8
DRAFT
100
AcDbLine
 62
7
  6
CONTINUOUS
 10
94.6628498256
 20
1.9313056408
 11
93.4293933269
 21
1.3098216322
  0
LINE
  5
2F4
100
AcDbEntity
  8
0
100
AcDbLine
 62
7
  6
CONTINUOUS
 10
76.7797999782
 20
8.040589008
 11
76.7063179519
 21
8.0773300212
  0
LINE
  5
2F5
100
AcDbEntity
  8
0
100
AcDbLine
 62
7
  6
CONTINUOUS
 10
-48.3781002918
 20
70.619539143
 11
-48.4515823182
 21
70.6562801562
  0
LINE
  5
2F6
100
AcDbEntity
  8
0
100
AcDbLine
 62
7
  6
CONTINUOUS
 10
-115.5532445046
 20
104.2071112494
 11
-115.6267265309
 21
104.2438522626
  0
LINE
  5
2F7
100
AcDbEntity
  8
DRAFT
100
AcDbLine
 62
7
  6
CONTINUOUS
 10
94.6628498256
 20
1.9313056408
 11
96.2578204517
 21
1.1338203277
  0
LINE
  5
2F8
100
AcDbEntity
  8
RACCORDO
100
AcDbLine
 62
7
  6
CONTINUOUS
 10
130.1479079705
 20
-9.6473620963
 11
130.3248765225
 21
-9.7358463723
  0
LINE
  5
2F9
100
AcDbEntity
  8
0
100
AcDbLine
 62
7
  6
CONTINUOUS
 10
75.9638558316
 20
-112.0812732725
 11
76.0699218488
 21
-112.5709365793
  0
LINE
  5
2FA
100
AcDbEntity
  8
0
100
AcDbLine
 62
7
  6
CONTINUOUS
 10
76.7027239993
 20
-112.2361467226
 11
76.7063179519
 21
-112.2527385278
  0
LINE
  5
2FB
100
AcDbEntity
  8
RACCORDO
100
AcDbLine
 62
253
  6
CONTINUOUS
 10
55.4638766185
 20
39.3441102288
 11
55.4638766185
 21
39.4554566126
  0
LINE
  5
2FC
100
AcDbEntity
  8
RACCORDO
100
AcDbLine
 62
7
  6
CONTINUOUS
 10
60.4849071047
 20
38.3906731297
 11
60.4849071047
 21
39.2568304333
  0
LINE
  5
2FD
100
AcDbEntity
  8
DRAFT
100
AcDbLine
 62
7
  6
CONTINUOUS
 10
61.9238058566
 20
36.1141456097
 11
61.9238058566
 21
37.6712237537
  0
LINE
  5
2FE
100
AcDbEntity
  8
RACCORDO
100
AcDbLine
 62
7
  6
CONTINUOUS
 10
63.2359337703
 20
69.7756016885
 11
63.2359337703
 21
69.5588603621
  0
LINE
  5
2FF
100
AcDbEntity
  8
0
100
AcDbLine
 62
7
  6
CONTINUOUS
 10
76.5859809353
 20
7.9436794866
 11
76.7063179519
 21
8.0773300212
  0
LINE
  5
300
100
AcDbEntity
  8
0
100
AcDbLine
 62
7
  6
CONTINUOUS
 10
9.4108367225
 20
-78.8462795331
 11
9.5311737391
 21
-78.7126289985
  0
LINE
  5
301
100
AcDbEntity
  8
DRAFT
100
AcDbLine
 62
7
  6
CONTINUOUS
 10
94.6628498256
 20
-22.6638158267
 11
93.4293933269
 21
-23.2852998353
  0
LINE
  5
302
100
AcDbEntity
  8
RACCORDO
100
AcDbLine
 62
253
  6
CONTINUOUS
 10
82.3278168623
 20
20.1495806466
 11
-124.1473632442
 21
123.3871706998
  0
LINE
  5
303
100
AcDbEntity
  8
RACCORDO
100
AcDbLine
 62
253
  6
CONTINUOUS
 10
83.7420304247
 20
22.5887382353
 11
-122.7331496818
 21
125.8263282886
  0
LINE
  5
304
100
AcDbEntity
  8
0
100
AcDbLine
 62
7
  6
CONTINUOUS
 10
86.3583255151
 20
23.8968857805
 11
-120.1168545914
 21
127.1344758338
  0
LINE
  5
305
100
AcDbEntity
  8
RACCORDO
100
AcDbLine
 62
7
  6
CONTINUOUS
 10
-78.4743826208
 20
106.4245862323
 11
-76.2812165756
 21
105.3280032097
  0
LINE
  5
306
100
AcDbEntity
  8
RACCORDO
100
AcDbLine
 62
7
  6
CONTINUOUS
 10
-63.6330502839
 20
99.0039200639
 11
-60.7844782086
 21
97.5796340262
  0
LINE
  5
307
100
AcDbEntity
  8
RACCORDO
100
AcDbLine
 62
7
  6
CONTINUOUS
 10
37.7739722062
 20
48.3004088188
 11
39.9671382515
 21
47.2038257962
  0
LINE
  5
308
100
AcDbEntity
  8
RACCORDO
100
AcDbLine
 62
7
  6
CONTINUOUS
 10
52.6153045431
 20
40.8797426503
 11
55.4638766185
 21
39.4554566126
  0
LINE
  5
309
100
AcDbEntity
  8
DRAFT
100
AcDbLine
 62
7
  6
CONTINUOUS
 10
-75.3486784414
 20
105.7942722768
 11
-63.910182388
 21
100.0750242502
  0
LINE
  5
30A
100
AcDbEntity
  8
DRAFT
100
AcDbLine
 62
7
  6
CONTINUOUS
 10
40.8996763857
 20
47.6700948633
 11
52.338172439
 21
41.9508468366
  0
LINE
  5
30B
100
AcDbEntity
  8
DRAFT
100
AcDbLine
 62
7
  6
CONTINUOUS
 10
-98.9036511558
 20
118.0849522599
 11
-78.4916892546
 21
107.8789713093
  0
LINE
  5
30C
100
AcDbEntity
  8
DRAFT
100
AcDbLine
 62
7
  6
CONTINUOUS
 10
-55.7634477224
 20
96.5148505432
 11
37.7566655725
 21
49.7547938958
  0
LINE
  5
30D
100
AcDbEntity
  8
DRAFT
100
AcDbLine
 62
7
  6
CONTINUOUS
 10
60.4849071047
 20
38.3906731297
 11
82.1156848279
 21
27.575284268
  0
LINE
  5
30E
100
AcDbEntity
  8
RACCORDO
100
AcDbLine
 62
7
  6
CONTINUOUS
 10
82.1156848279
 20
29.3073350756
 11
-98.9036511558
 21
119.8170030675
  0
LINE
  5
30F
100
AcDbEntity
  8
DRAFT
100
AcDbLine
 62
7
  6
CONTINUOUS
 10
52.6483945118
 20
40.7518512822
 11
52.338172439
 21
41.9508468366
  0
LINE
  5
310
100
AcDbEntity
  8
RACCORDO
100
AcDbLine
 62
7
  6
CONTINUOUS
 10
65.9229395388
 20
67.753478499
 11
65.9229395388
 21
68.4320988042
  0
LINE
  5
311
100
AcDbEntity
  8
RACCORDO
100
AcDbLine
 62
7
  6
CONTINUOUS
 10
67.1637212964
 20
40.2065841337
 11
67.1637212964
 21
41.5250685412
  0
LINE
  5
312
100
AcDbEntity
  8
0
100
AcDbLine
 62
7
  6
CONTINUOUS
 10
75.9638558316
 20
10.1896601697
 11
75.9638558316
 21
9.3112702776
  0
LINE
  5
313
100
AcDbEntity
  8
0
100
AcDbLine
 62
7
  6
CONTINUOUS
 10
75.9638558316
 20
8.2962578535
 11
75.9638558316
 21
6.4618898162
  0
LINE
  5
314
100
AcDbEntity
  8
0
100
AcDbLine
 62
7
  6
CONTINUOUS
 10
75.9638558316
 20
-110.1878709564
 11
75.9638558316
 21
-111.0662608484
  0
LINE
  5
315
100
AcDbEntity
  8
0
100
AcDbLine
 62
7
  6
CONTINUOUS
 10
75.9638558316
 20
-112.0812732725
 11
75.9638558316
 21
-113.9156413099
  0
LINE
  5
316
100
AcDbEntity
  8
0
100
AcDbLine
 62
7
  6
CONTINUOUS
 10
76.0699218488
 20
-112.6918811827
 11
76.0699218488
 21
-112.5709365793
  0
LINE
  5
317
100
AcDbEntity
  8
0
100
AcDbLine
 62
7
  6
CONTINUOUS
 10
76.0699218488
 20
-110.6826635588
 11
76.0699218488
 21
-110.2909958699
  0
LINE
  5
318
100
AcDbEntity
  8
0
100
AcDbLine
 62
7
  6
CONTINUOUS
 10
76.0699218488
 20
7.6856499433
 11
76.0699218488
 21
7.8065945467
  0
LINE
  5
319
100
AcDbEntity
  8
0
100
AcDbLine
 62
7
  6
CONTINUOUS
 10
76.0699218488
 20
9.6948675672
 11
76.0699218488
 21
10.0865352562
  0
LINE
  5
31A
100
AcDbEntity
  8
0
100
AcDbLine
 62
7
  6
CONTINUOUS
 10
76.0699218488
 20
9.6948675672
 11
75.9638558316
 21
9.3112702776
  0
LINE
  5
31B
100
AcDbEntity
  8
0
100
AcDbLine
 62
7
  6
CONTINUOUS
 10
97.0967400407
 20
18.1963777498
 11
97.9548767265
 21
19.4457211224
  0
LWPOLYLINE
  5
31C
100
AcDbEntity
  8
RACCORDO
100
AcDbPolyline
 62
7
  6
CONTINUOUS
 90
5
 70
0
 10
129.8914720344
 20
26.6150922003
 10
129.8881889341
 20
26.6121659537
 10
129.8786364197
 20
26.6050643543
 10
129.8624007647
 20
26.5951647304
 10
129.8596146626
 20
26.5936414148
  0
LINE
  5
31D
100
AcDbEntity
  8
RACCORDO
100
AcDbLine
 62
7
  6
CONTINUOUS
 10
100.0491120799
 20
-25.8628755611
 11
129.8596716991
 21
-9.7793947419
  0
LINE
  5
31E
100
AcDbEntity
  8
RACCORDO
100
AcDbLine
 62
253
  6
CONTINUOUS
 10
100.0491120799
 20
-25.9438389522
 11
129.9984166307
 21
-9.7855020592
  0
LINE
  5
31F
100
AcDbEntity
  8
RACCORDO
100
AcDbLine
 62
7
  6
CONTINUOUS
 10
129.4206019703
 20
-10.6118175152
 11
100.0491120799
 21
-26.4584101427
  0
LINE
  5
320
100
AcDbEntity
  8
0
100
AcDbLine
 62
7
  6
CONTINUOUS
 10
8.8947776361
 20
-77.0950914524
 11
8.976378997
 21
-77.054290772
  0
LINE
  5
321
100
AcDbEntity
  8
0
100
AcDbLine
 62
7
  6
CONTINUOUS
 10
8.1134922711
 20
-77.8162984159
 11
8.7887116189
 21
-77.478688742
  0
LINE
  5
322
100
AcDbEntity
  8
0
100
AcDbLine
 62
7
  6
CONTINUOUS
 10
8.0966784446
 20
-77.8681711916
 11
8.9014546071
 21
-77.4657831103
  0
LINE
  5
323
100
AcDbEntity
  8
0
100
AcDbLine
 62
7
  6
CONTINUOUS
 10
8.8507388288
 20
-77.8409593985
 11
7.7350177524
 21
-78.3988199367
  0
LINE
  5
324
100
AcDbEntity
  8
0
100
AcDbLine
 62
7
  6
CONTINUOUS
 10
8.0966784446
 20
-78.7683586721
 11
8.9612255802
 21
-78.3360851043
  0
LINE
  5
325
100
AcDbEntity
  8
0
100
AcDbLine
 62
7
  6
CONTINUOUS
 10
8.1134922711
 20
-78.8313108401
 11
8.7887116189
 21
-78.4937011662
  0
LINE
  5
326
100
AcDbEntity
  8
0
100
AcDbLine
 62
7
  6
CONTINUOUS
 10
8.8947776361
 20
-78.983364473
 11
9.5311737391
 21
-78.6651664214
  0
LINE
  5
327
100
AcDbEntity
  8
0
100
AcDbLine
 62
7
  6
CONTINUOUS
 10
8.8316784446
 20
-79.1358586721
 11
9.6991825123
 21
-78.7021066382
  0
LINE
  5
328
100
AcDbEntity
  8
0
100
AcDbLine
 62
7
  6
CONTINUOUS
 10
9.2767862175
 20
-79.1697041693
 11
10.0232293939
 21
-78.7964825811
  0
LINE
  5
329
100
AcDbEntity
  8
0
100
AcDbLine
 62
7
  6
CONTINUOUS
 10
8.7887116189
 20
-80.3280692035
 11
8.5058689064
 21
-80.4694905597
  0
LINE
  5
32A
100
AcDbEntity
  8
RACCORDO
100
AcDbLine
 62
7
  6
CONTINUOUS
 10
129.4206019703
 20
-9.1705807952
 11
100.0491120799
 21
-23.7390563103
  0
LINE
  5
32B
100
AcDbEntity
  8
RACCORDO
100
AcDbLine
 62
253
  6
CONTINUOUS
 10
-96.7699900973
 20
120.838220188
 11
84.2493458864
 21
30.3285521961
  0
LINE
  5
32C
100
AcDbEntity
  8
RACCORDO
100
AcDbLine
 62
7
  6
CONTINUOUS
 10
-96.3351172168
 20
120.8605835176
 11
84.684218767
 21
30.3509155257
  0
LINE
  5
32D
100
AcDbEntity
  8
DRAFT
100
AcDbLine
 62
7
  6
CONTINUOUS
 10
126.8549999343
 20
-89.1424530725
 11
126.9581514799
 21
-89.3203631716
  0
LINE
  5
32E
100
AcDbEntity
  8
0
100
AcDbLine
 62
7
  6
CONTINUOUS
 10
75.9638558316
 20
8.2962578535
 11
76.0699218488
 21
7.8065945467
  0
LINE
  5
32F
100
AcDbEntity
  8
0
100
AcDbLine
 62
7
  6
CONTINUOUS
 10
76.7063179519
 20
-112.3002011049
 11
76.7063179519
 21
-112.2527385278
  0
LINE
  5
330
100
AcDbEntity
  8
0
100
AcDbLine
 62
7
  6
CONTINUOUS
 10
76.7063179519
 20
8.0773300212
 11
76.7063179519
 21
8.1247925983
  0
LINE
  5
331
100
AcDbEntity
  8
DRAFT
100
AcDbLine
 62
7
  6
CONTINUOUS
 10
80.7014712656
 20
28.2823910492
 11
80.7014712656
 21
26.7253129053
  0
LINE
  5
332
100
AcDbEntity
  8
RACCORDO
100
AcDbLine
 62
253
  6
CONTINUOUS
 10
87.9846711118
 20
-127.3050889102
 11
87.9846711118
 21
10.3929502915
  0
LINE
  5
333
100
AcDbEntity
  8
DRAFT
100
AcDbLine
 62
7
  6
CONTINUOUS
 10
94.6628498256
 20
-47.2589372942
 11
93.4293933269
 21
-47.8804213027
  0
LINE
  5
334
100
AcDbEntity
  8
0
100
AcDbLine
 62
7
  6
CONTINUOUS
 10
-50.7073287387
 20
71.3425105618
 11
-49.1226875304
 21
71.6076173275
  0
LINE
  5
335
100
AcDbEntity
  8
0
100
AcDbLine
 62
7
  6
CONTINUOUS
 10
-45.3847172023
 20
111.2877234551
 11
-44.5421169573
 21
110.8664233326
  0
LINE
  5
336
100
AcDbEntity
  8
0
100
AcDbLine
 62
7
  6
CONTINUOUS
 10
-45.3406072573
 20
111.3080948894
 11
-44.4995204786
 21
110.8875515
  0
LINE
  5
337
100
AcDbEntity
  8
RACCORDO
100
AcDbLine
 62
7
  6
CONTINUOUS
 10
130.1479079705
 20
26.7257048626
 11
130.3248765225
 21
26.6372205867
  0
LINE
  5
338
100
AcDbEntity
  8
DRAFT
100
AcDbLine
 62
7
  6
CONTINUOUS
 10
29.6876405228
 20
81.2113225064
 11
30.0767666968
 21
81.0167594194
  0
LINE
  5
339
100
AcDbEntity
  8
DRAFT
100
AcDbLine
 62
7
  6
CONTINUOUS
 10
-37.584919198
 20
114.8899286499
 11
-37.0099395788
 21
114.6024388403
  0
LINE
  5
33A
100
AcDbEntity
  8
DRAFT
100
AcDbLine
 62
7
  6
CONTINUOUS
 10
89.5621742536
 20
51.3163819241
 11
88.9871946344
 21
51.6038717337
  0
LINE
  5
33B
100
AcDbEntity
  8
DRAFT
100
AcDbLine
 62
7
  6
CONTINUOUS
 10
58.4985393009
 20
66.8481994004
 11
58.0159176184
 21
67.0895102417
  0
LINE
  5
33C
100
AcDbEntity
  8
DRAFT
100
AcDbLine
 62
7
  6
CONTINUOUS
 10
30.3066259902
 20
80.9441560558
 11
30.0767666968
 21
81.0590857024
  0
LINE
  5
33D
100
AcDbEntity
  8
DRAFT
100
AcDbLine
 62
7
  6
CONTINUOUS
 10
-8.818026268
 20
100.5064821849
 11
-9.3006479506
 21
100.7477930261
  0
LINE
  5
33E
100
AcDbEntity
  8
DRAFT
100
AcDbLine
 62
7
  6
CONTINUOUS
 10
117.2714658818
 20
37.4617361099
 11
117.846445501
 21
37.1742463003
  0
LINE
  5
33F
100
AcDbEntity
  8
DRAFT
100
AcDbLine
 62
7
  6
CONTINUOUS
 10
118.6309505756
 20
37.5633666008
 11
118.0838446679
 21
37.8369195546
  0
LINE
  5
340
100
AcDbEntity
  8
DRAFT
100
AcDbLine
 62
7
  6
CONTINUOUS
 10
90.3466793282
 20
51.7055022245
 11
89.7995734204
 21
51.9790551784
  0
LINE
  5
341
100
AcDbEntity
  8
DRAFT
100
AcDbLine
 62
7
  6
CONTINUOUS
 10
30.544025157
 20
81.6068293101
 11
31.0911310647
 21
81.3332763562
  0
LINE
  5
342
100
AcDbEntity
  8
DRAFT
100
AcDbLine
 62
7
  6
CONTINUOUS
 10
58.8282964044
 20
67.4646936864
 11
59.2955876858
 21
67.2310480457
  0
LINE
  5
343
100
AcDbEntity
  8
DRAFT
100
AcDbLine
 62
7
  6
CONTINUOUS
 10
-8.0209778832
 20
100.8893308302
 11
-8.4882691645
 21
101.1229764708
  0
LINE
  5
344
100
AcDbEntity
  8
DRAFT
100
AcDbLine
 62
7
  6
CONTINUOUS
 10
-36.2254345042
 20
114.9915591407
 11
-36.772540412
 21
115.2651120946
  0
LINE
  5
345
100
AcDbEntity
  8
RACCORDO
100
AcDbLine
 62
253
  6
CONTINUOUS
 10
120.4475431915
 20
38.4644099303
 11
119.9649813894
 21
38.7056908314
  0
LINE
  5
346
100
AcDbEntity
  8
RACCORDO
100
AcDbLine
 62
253
  6
CONTINUOUS
 10
92.1632719441
 20
52.6065455541
 11
91.680710142
 21
52.8478264551
  0
LINE
  5
347
100
AcDbEntity
  8
RACCORDO
100
AcDbLine
 62
253
  6
CONTINUOUS
 10
61.1412254736
 20
68.1175687893
 11
60.709433126
 21
68.3334649631
  0
LINE
  5
348
100
AcDbEntity
  8
RACCORDO
100
AcDbLine
 62
253
  6
CONTINUOUS
 10
32.9077236806
 20
82.2343196858
 11
32.4251618785
 21
82.4756005868
  0
LINE
  5
349
100
AcDbEntity
  8
RACCORDO
100
AcDbLine
 62
253
  6
CONTINUOUS
 10
-6.1753400953
 20
101.7758515738
 11
-6.607132443
 21
101.9917477476
  0
LINE
  5
34A
100
AcDbEntity
  8
RACCORDO
100
AcDbLine
 62
253
  6
CONTINUOUS
 10
-34.4088418883
 20
115.8926024703
 11
-34.8914036904
 21
116.1338833713
  0
LINE
  5
34B
100
AcDbEntity
  8
0
100
AcDbLine
 62
7
  6
CONTINUOUS
 10
76.7027239993
 20
8.1413844034
 11
76.7063179519
 21
8.1247925983
  0
LINE
  5
34C
100
AcDbEntity
  8
RACCORDO
100
AcDbLine
 62
253
  6
CONTINUOUS
 10
90.8130982365
 20
-127.3050889102
 11
90.8130982365
 21
10.3929502915
  0
LINE
  5
34D
100
AcDbEntity
  8
DRAFT
100
AcDbLine
 62
7
  6
CONTINUOUS
 10
91.6279406602
 20
24.8674126543
 11
91.6279406602
 21
25.6187063654
  0
LINE
  5
34E
100
AcDbEntity
  8
RACCORDO
100
AcDbLine
 62
7
  6
CONTINUOUS
 10
92.8283525629
 20
24.7650877672
 11
92.8283525629
 21
26.1730963623
  0
LINE
  5
34F
100
AcDbEntity
  8
0
100
AcDbLine
 62
7
  6
CONTINUOUS
 10
93.4293933269
 20
-125.996941365
 11
93.4293933269
 21
11.7010978367
  0
LINE
  5
350
100
AcDbEntity
  8
RACCORDO
100
AcDbLine
 62
7
  6
CONTINUOUS
 10
94.2072107862
 20
54.2899631805
 11
94.2072107862
 21
54.0732218541
  0
LINE
  5
351
100
AcDbEntity
  8
DRAFT
100
AcDbLine
 62
7
  6
CONTINUOUS
 10
94.6628498256
 20
-106.7548825342
 11
94.6628498256
 21
-100.1100886865
  0
LINE
  5
352
100
AcDbEntity
  8
DRAFT
100
AcDbLine
 62
7
  6
CONTINUOUS
 10
94.6628498256
 20
-96.4491802291
 11
94.6628498256
 21
-75.514967219
  0
LINE
  5
353
100
AcDbEntity
  8
DRAFT
100
AcDbLine
 62
7
  6
CONTINUOUS
 10
94.6628498256
 20
-71.8540587617
 11
94.6628498256
 21
-50.9198457516
  0
LINE
  5
354
100
AcDbEntity
  8
DRAFT
100
AcDbLine
 62
7
  6
CONTINUOUS
 10
94.6628498256
 20
-47.2589372942
 11
94.6628498256
 21
-26.3247242841
  0
LINE
  5
355
100
AcDbEntity
  8
DRAFT
100
AcDbLine
 62
7
  6
CONTINUOUS
 10
94.6628498256
 20
-22.6638158267
 11
94.6628498256
 21
-1.7296028166
  0
LINE
  5
356
100
AcDbEntity
  8
DRAFT
100
AcDbLine
 62
7
  6
CONTINUOUS
 10
94.6628498256
 20
1.9313056408
 11
94.6628498256
 21
11.0245723805
  0
LINE
  5
357
100
AcDbEntity
  8
DRAFT
100
AcDbLine
 62
7
  6
CONTINUOUS
 10
96.2578204517
 20
3.1837083805
 11
96.2578204517
 21
-103.337416285
  0
LINE
  5
358
100
AcDbEntity
  8
RACCORDO
100
AcDbLine
 62
253
  6
CONTINUOUS
 10
96.9329808428
 20
26.8010136537
 11
96.9329808428
 21
28.0687497247
  0
LINE
  5
359
100
AcDbEntity
  8
RACCORDO
100
AcDbLine
 62
253
  6
CONTINUOUS
 10
97.3535103883
 20
27.0095994085
 11
97.3535103883
 21
28.2629642047
  0
LINE
  5
35A
100
AcDbEntity
  8
DRAFT
100
AcDbLine
 62
7
  6
CONTINUOUS
 10
97.672034014
 20
-104.0445230662
 11
97.672034014
 21
2.4766015993
  0
LINE
  5
35B
100
AcDbEntity
  8
RACCORDO
100
AcDbLine
 62
253
  6
CONTINUOUS
 10
99.7684518802
 20
3.5620537247
 11
99.7684518802
 21
-102.9590709408
  0
LINE
  5
35C
100
AcDbEntity
  8
RACCORDO
100
AcDbLine
 62
7
  6
CONTINUOUS
 10
100.0491120799
 20
3.9093829099
 11
100.0491120799
 21
-102.6117417555
  0
LWPOLYLINE
  5
35D
100
AcDbEntity
  8
RACCORDO
100
AcDbPolyline
 62
7
  6
CONTINUOUS
 90
5
 70
0
 10
129.8914720344
 20
-9.7579747586
 10
129.8881889341
 20
-9.7609010052
 10
129.8786364197
 20
-9.7680026047
 10
129.8624007647
 20
-9.7779022285
 10
129.8596146626
 20
-9.7794255441
  0
LINE
  5
35E
100
AcDbEntity
  8
RACCORDO
100
AcDbLine
 62
7
  6
CONTINUOUS
 10
129.4206019703
 20
-45.5436477541
 11
100.0491120799
 21
-60.1121232693
  0
LINE
  5
35F
100
AcDbEntity
  8
RACCORDO
100
AcDbLine
 62
253
  6
CONTINUOUS
 10
120.9176178959
 20
38.6975704492
 11
120.4517579956
 21
38.9305003993
  0
LINE
  5
360
100
AcDbEntity
  8
RACCORDO
100
AcDbLine
 62
253
  6
CONTINUOUS
 10
92.6333466485
 20
52.8397060729
 11
92.1674867481
 21
53.0726360231
  0
LINE
  5
361
100
AcDbEntity
  8
RACCORDO
100
AcDbLine
 62
253
  6
CONTINUOUS
 10
61.6188161178
 20
68.3469713383
 11
61.1962097322
 21
68.5582745311
  0
LINE
  5
362
100
AcDbEntity
  8
RACCORDO
100
AcDbLine
 62
253
  6
CONTINUOUS
 10
33.3777983851
 20
82.4674802046
 11
32.9119384847
 21
82.7004101548
  0
LINE
  5
363
100
AcDbEntity
  8
RACCORDO
100
AcDbLine
 62
253
  6
CONTINUOUS
 10
-5.6977494512
 20
102.0052541227
 11
-6.1203558368
 21
102.2165573155
  0
LINE
  5
364
100
AcDbEntity
  8
RACCORDO
100
AcDbLine
 62
253
  6
CONTINUOUS
 10
-33.9387671839
 20
116.1257629891
 11
-34.4046270842
 21
116.3586929393
  0
LINE
  5
365
100
AcDbEntity
  8
DRAFT
100
AcDbLine
 62
7
  6
CONTINUOUS
 10
125.7203485567
 20
37.6758576319
 11
123.6707883644
 21
38.700637728
  0
LINE
  5
366
100
AcDbEntity
  8
DRAFT
100
AcDbLine
 62
7
  6
CONTINUOUS
 10
-63.384115543
 20
132.2280896817
 11
-65.4336757352
 21
133.2528697778
  0
LINE
  5
367
100
AcDbEntity
  8
RACCORDO
100
AcDbLine
 62
253
  6
CONTINUOUS
 10
-63.3408099627
 20
132.2487060245
 11
-61.9721816777
 21
131.564391882
  0
LINE
  5
368
100
AcDbEntity
  8
RACCORDO
100
AcDbLine
 62
253
  6
CONTINUOUS
 10
-60.7954168236
 20
130.9760094549
 11
-33.6879104303
 21
117.4222562582
  0
LINE
  5
369
100
AcDbEntity
  8
RACCORDO
100
AcDbLine
 62
253
  6
CONTINUOUS
 10
-32.5111455761
 20
116.8338738312
 11
-5.4036391828
 21
103.2801206345
  0
LINE
  5
36A
100
AcDbEntity
  8
RACCORDO
100
AcDbLine
 62
253
  6
CONTINUOUS
 10
-4.2473018587
 20
102.7019519725
 11
5.3443838912
 21
97.9061090975
  0
LINE
  5
36B
100
AcDbEntity
  8
RACCORDO
100
AcDbLine
 62
253
  6
CONTINUOUS
 10
6.5211487454
 20
97.3177266704
 11
33.6286551387
 21
83.7639734738
  0
LINE
  5
36C
100
AcDbEntity
  8
RACCORDO
100
AcDbLine
 62
253
  6
CONTINUOUS
 10
34.8054199929
 20
83.1755910467
 11
61.9129263861
 21
69.62183785
  0
LINE
  5
36D
100
AcDbEntity
  8
RACCORDO
100
AcDbLine
 62
253
  6
CONTINUOUS
 10
63.0692637102
 20
69.043669188
 11
64.6203596847
 21
68.2681212007
  0
LINE
  5
36E
100
AcDbEntity
  8
RACCORDO
100
AcDbLine
 62
253
  6
CONTINUOUS
 10
65.7766970088
 20
67.6899525387
 11
92.8842034021
 21
54.136199342
  0
LINE
  5
36F
100
AcDbEntity
  8
RACCORDO
100
AcDbLine
 62
253
  6
CONTINUOUS
 10
94.0609682563
 20
53.547816915
 11
121.1684746496
 21
39.9940637183
  0
LINE
  5
370
100
AcDbEntity
  8
RACCORDO
100
AcDbLine
 62
253
  6
CONTINUOUS
 10
122.3452395038
 20
39.4056812912
 11
123.7138677887
 21
38.7213671487
  0
LINE
  5
371
100
AcDbEntity
  8
RACCORDO
100
AcDbLine
 62
253
  6
CONTINUOUS
 10
-32.7691081097
 20
117.1140298009
 11
-32.5733646157
 21
117.016158054
  0
LINE
  5
372
100
AcDbEntity
  8
RACCORDO
100
AcDbLine
 62
253
  6
CONTINUOUS
 10
-4.4848368623
 20
102.9718941772
 11
-4.2890933683
 21
102.8740224302
  0
LINE
  5
373
100
AcDbEntity
  8
RACCORDO
100
AcDbLine
 62
253
  6
CONTINUOUS
 10
34.5474574592
 20
83.4557470165
 11
34.7432009532
 21
83.3578752695
  0
LINE
  5
374
100
AcDbEntity
  8
RACCORDO
100
AcDbLine
 62
253
  6
CONTINUOUS
 10
62.8317287067
 20
69.3136113927
 11
63.0274722007
 21
69.2157396458
  0
LINE
  5
375
100
AcDbEntity
  8
RACCORDO
100
AcDbLine
 62
253
  6
CONTINUOUS
 10
93.8030057227
 20
53.8279728847
 11
93.9987492166
 21
53.7301011378
  0
LINE
  5
376
100
AcDbEntity
  8
RACCORDO
100
AcDbLine
 62
253
  6
CONTINUOUS
 10
122.0872769701
 20
39.685837261
 11
122.2830204641
 21
39.587965514
  0
LINE
  5
377
100
AcDbEntity
  8
RACCORDO
100
AcDbLine
 62
7
  6
CONTINUOUS
 10
-60.6491742936
 20
131.7181557204
 11
-59.5178034437
 21
131.1524702955
  0
LINE
  5
378
100
AcDbEntity
  8
RACCORDO
100
AcDbLine
 62
7
  6
CONTINUOUS
 10
-32.3649030462
 20
117.5760200967
 11
-31.2335321963
 21
117.0103346718
  0
LINE
  5
379
100
AcDbEntity
  8
RACCORDO
100
AcDbLine
 62
7
  6
CONTINUOUS
 10
-4.0806317987
 20
103.433884473
 11
-2.9492609488
 21
102.868199048
  0
LINE
  5
37A
100
AcDbEntity
  8
RACCORDO
100
AcDbLine
 62
7
  6
CONTINUOUS
 10
6.6673912753
 20
98.059872936
 11
7.7987621252
 21
97.494187511
  0
LINE
  5
37B
100
AcDbEntity
  8
RACCORDO
100
AcDbLine
 62
7
  6
CONTINUOUS
 10
34.9516625228
 20
83.9177373122
 11
36.0830333727
 21
83.3520518873
  0
LINE
  5
37C
100
AcDbEntity
  8
RACCORDO
100
AcDbLine
 62
7
  6
CONTINUOUS
 10
63.2359337703
 20
69.7756016885
 11
64.3673046202
 21
69.2099162635
  0
LINE
  5
37D
100
AcDbEntity
  8
RACCORDO
100
AcDbLine
 62
7
  6
CONTINUOUS
 10
65.9229395388
 20
68.4320988042
 11
67.0543103887
 21
67.8664133793
  0
LINE
  5
37E
100
AcDbEntity
  8
RACCORDO
100
AcDbLine
 62
7
  6
CONTINUOUS
 10
94.2072107862
 20
54.2899631805
 11
95.3385816361
 21
53.7242777556
  0
LINE
  5
37F
100
AcDbEntity
  8
RACCORDO
100
AcDbLine
 62
7
  6
CONTINUOUS
 10
122.4914820337
 20
40.1478275568
 11
123.6228528836
 21
39.5821421318
  0
LINE
  5
380
100
AcDbEntity
  8
RACCORDO
100
AcDbLine
 62
7
  6
CONTINUOUS
 10
-61.8147971363
 20
132.3249988059
 11
-60.639561628
 21
131.7373810517
  0
LINE
  5
381
100
AcDbEntity
  8
RACCORDO
100
AcDbLine
 62
7
  6
CONTINUOUS
 10
-59.5081907781
 20
131.1716956268
 11
-32.3552903805
 21
117.595245428
  0
LINE
  5
382
100
AcDbEntity
  8
RACCORDO
100
AcDbLine
 62
7
  6
CONTINUOUS
 10
-31.2239195306
 20
117.029560003
 11
-4.0710191331
 21
103.4531098043
  0
LINE
  5
383
100
AcDbEntity
  8
RACCORDO
100
AcDbLine
 62
7
  6
CONTINUOUS
 10
-2.9396482832
 20
102.8874243793
 11
6.677003941
 21
98.0790982672
  0
LINE
  5
384
100
AcDbEntity
  8
RACCORDO
100
AcDbLine
 62
7
  6
CONTINUOUS
 10
7.8083747909
 20
97.5134128423
 11
34.9612751884
 21
83.9369626435
  0
LINE
  5
385
100
AcDbEntity
  8
RACCORDO
100
AcDbLine
 62
7
  6
CONTINUOUS
 10
36.0926460383
 20
83.3712772186
 11
63.2455464359
 21
69.7948270198
  0
LINE
  5
386
100
AcDbEntity
  8
RACCORDO
100
AcDbLine
 62
7
  6
CONTINUOUS
 10
64.3769172858
 20
69.2291415948
 11
65.9325522044
 21
68.4513241355
  0
LINE
  5
387
100
AcDbEntity
  8
RACCORDO
100
AcDbLine
 62
7
  6
CONTINUOUS
 10
67.0639230543
 20
67.8856387106
 11
94.2168234519
 21
54.3091885118
  0
LINE
  5
388
100
AcDbEntity
  8
RACCORDO
100
AcDbLine
 62
7
  6
CONTINUOUS
 10
95.3481943018
 20
53.7435030868
 11
122.5010946993
 21
40.1670528881
  0
LINE
  5
389
100
AcDbEntity
  8
RACCORDO
100
AcDbLine
 62
7
  6
CONTINUOUS
 10
123.6324655492
 20
39.6013674631
 11
125.2319651263
 21
38.8016176746
  0
LINE
  5
38A
100
AcDbEntity
  8
0
100
AcDbLine
 62
7
  6
CONTINUOUS
 10
95.5151867398
 20
19.5660234873
 11
95.5296813646
 21
19.4841714749
  0
LINE
  5
38B
100
AcDbEntity
  8
0
100
AcDbLine
 62
7
  6
CONTINUOUS
 10
76.0699218488
 20
-110.6826635588
 11
75.9638558316
 21
-111.0662608484
  0
LINE
  5
38C
100
AcDbEntity
  8
RACCORDO
100
AcDbLine
 62
7
  6
CONTINUOUS
 10
100.0491120799
 20
-62.2359425201
 11
129.8596716991
 21
-46.1524617008
  0
LINE
  5
38D
100
AcDbEntity
  8
RACCORDO
100
AcDbLine
 62
253
  6
CONTINUOUS
 10
100.0491120799
 20
-62.3169059111
 11
129.9984166307
 21
-46.1585690182
  0
LINE
  5
38E
100
AcDbEntity
  8
RACCORDO
100
AcDbLine
 62
7
  6
CONTINUOUS
 10
129.4206019703
 20
-46.9848844741
 11
100.0491120799
 21
-62.8314771017
  0
LINE
  5
38F
100
AcDbEntity
  8
DRAFT
100
AcDbLine
 62
7
  6
CONTINUOUS
 10
94.6628498256
 20
-71.8540587617
 11
93.4293933269
 21
-72.4755427702
  0
LINE
  5
390
100
AcDbEntity
  8
ASSI
100
AcDbLine
 62
7
  6
CONTINUOUS
 10
115.5847783647
 20
36.0524427275
 11
115.5847783647
 21
36.1158143513
  0
LINE
  5
391
100
AcDbEntity
  8
IMPORT_IGES
100
AcDbLine
 62
7
  6
CONTINUOUS
 10
115.7261997209
 20
36.1865276275
 11
115.7261997209
 21
36.1225887627
  0
LINE
  5
392
100
AcDbEntity
  8
ASSI
100
AcDbLine
 62
7
  6
CONTINUOUS
 10
115.7261997209
 20
36.1225887627
 11
115.7261997209
 21
36.1865250294
  0
LINE
  5
393
100
AcDbEntity
  8
RACCORDO
100
AcDbLine
 62
7
  6
CONTINUOUS
 10
122.4914820337
 20
40.1478275568
 11
122.4914820337
 21
39.9310862304
  0
LINE
  5
394
100
AcDbEntity
  8
DRAFT
100
AcDbLine
 62
7
  6
CONTINUOUS
 10
125.6373111363
 20
25.3259460193
 11
125.6373111363
 21
24.3156118253
  0
LINE
  5
395
100
AcDbEntity
  8
DRAFT
100
AcDbLine
 62
7
  6
CONTINUOUS
 10
125.6373111363
 20
-11.0471209396
 11
125.6373111363
 21
-12.0574551336
  0
LINE
  5
396
100
AcDbEntity
  8
DRAFT
100
AcDbLine
 62
7
  6
CONTINUOUS
 10
125.6373111363
 20
-47.4201878986
 11
125.6373111363
 21
-48.4305220926
  0
LWPOLYLINE
  5
397
100
AcDbEntity
  8
RACCORDO
100
AcDbPolyline
 62
7
  6
CONTINUOUS
 90
5
 70
0
 10
129.8914720344
 20
-46.1310417176
 10
129.8881889341
 20
-46.1339679642
 10
129.8786364197
 20
-46.1410695636
 10
129.8624007647
 20
-46.1509691875
 10
129.8596146626
 20
-46.1524925031
  0
LINE
  5
398
100
AcDbEntity
  8
0
100
AcDbLine
 62
7
  6
CONTINUOUS
 10
-117.8824729514
 20
104.9300826681
 11
-116.2978317431
 21
105.1951894338
  0
LINE
  5
399
100
AcDbEntity
  8
DRAFT
100
AcDbLine
 62
7
  6
CONTINUOUS
 10
126.2752993867
 20
-48.0863127949
 11
126.2752993867
 21
-47.103741023
  0
LINE
  5
39A
100
AcDbEntity
  8
DRAFT
100
AcDbLine
 62
7
  6
CONTINUOUS
 10
126.2752993867
 20
-11.713245836
 11
126.2752993867
 21
-10.7306740641
  0
LINE
  5
39B
100
AcDbEntity
  8
DRAFT
100
AcDbLine
 62
7
  6
CONTINUOUS
 10
126.2752993867
 20
24.659821123
 11
126.2752993867
 21
25.6423928948
  0
LINE
  5
39C
100
AcDbEntity
  8
RACCORDO
100
AcDbLine
 62
253
  6
CONTINUOUS
 10
128.0776896635
 20
-47.1138818907
 11
128.0776896635
 21
-46.2097421584
  0
LINE
  5
39D
100
AcDbEntity
  8
RACCORDO
100
AcDbLine
 62
253
  6
CONTINUOUS
 10
128.0776896635
 20
-10.7408149318
 11
128.0776896635
 21
-9.8366751994
  0
LINE
  5
39E
100
AcDbEntity
  8
RACCORDO
100
AcDbLine
 62
253
  6
CONTINUOUS
 10
128.0776896635
 20
25.6322520272
 11
128.0776896635
 21
26.5363917595
  0
LINE
  5
39F
100
AcDbEntity
  8
RACCORDO
100
AcDbLine
 62
253
  6
CONTINUOUS
 10
128.498219209
 20
-46.8869965533
 11
128.498219209
 21
-46.0011564036
  0
LINE
  5
3A0
100
AcDbEntity
  8
RACCORDO
100
AcDbLine
 62
253
  6
CONTINUOUS
 10
128.498219209
 20
-10.5139295943
 11
128.498219209
 21
-9.6280894447
  0
LINE
  5
3A1
100
AcDbEntity
  8
RACCORDO
100
AcDbLine
 62
253
  6
CONTINUOUS
 10
128.498219209
 20
25.8591373646
 11
128.498219209
 21
26.7449775143
  0
LINE
  5
3A2
100
AcDbEntity
  8
DRAFT
100
AcDbLine
 62
7
  6
CONTINUOUS
 10
129.378163396
 20
-87.5664719467
 11
129.378163396
 21
-85.0562836127
  0
LINE
  5
3A3
100
AcDbEntity
  8
DRAFT
100
AcDbLine
 62
7
  6
CONTINUOUS
 10
129.378163396
 20
28.8568719132
 11
129.378163396
 21
31.3670602473
  0
LINE
  5
3A4
100
AcDbEntity
  8
RACCORDO
100
AcDbLine
 62
253
  6
CONTINUOUS
 10
129.4206019703
 20
28.8787066367
 11
129.4206019703
 21
27.2024861638
  0
LINE
  5
3A5
100
AcDbEntity
  8
RACCORDO
100
AcDbLine
 62
253
  6
CONTINUOUS
 10
129.4206019703
 20
25.7612494438
 11
129.4206019703
 21
-9.1705807952
  0
LINE
  5
3A6
100
AcDbEntity
  8
RACCORDO
100
AcDbLine
 62
253
  6
CONTINUOUS
 10
129.4206019703
 20
-10.6118175152
 11
129.4206019703
 21
-45.5436477541
  0
LINE
  5
3A7
100
AcDbEntity
  8
RACCORDO
100
AcDbLine
 62
253
  6
CONTINUOUS
 10
129.4206019703
 20
-46.9848844741
 11
129.4206019703
 21
-81.916714713
  0
LINE
  5
3A8
100
AcDbEntity
  8
RACCORDO
100
AcDbLine
 62
253
  6
CONTINUOUS
 10
129.4206019703
 20
-83.357951433
 11
129.4206019703
 21
-85.0341719059
  0
LINE
  5
3A9
100
AcDbEntity
  8
RACCORDO
100
AcDbLine
 62
253
  6
CONTINUOUS
 10
129.7826469994
 20
26.65302311
 11
129.7826469994
 21
26.5936722171
  0
LINE
  5
3AA
100
AcDbEntity
  8
RACCORDO
100
AcDbLine
 62
253
  6
CONTINUOUS
 10
129.7826469994
 20
-9.720043849
 11
129.7826469994
 21
-9.7793947419
  0
LINE
  5
3AB
100
AcDbEntity
  8
RACCORDO
100
AcDbLine
 62
253
  6
CONTINUOUS
 10
129.7826469994
 20
-46.0931108079
 11
129.7826469994
 21
-46.1524617008
  0
LINE
  5
3AC
100
AcDbEntity
  8
RACCORDO
100
AcDbLine
 62
7
  6
CONTINUOUS
 10
130.3248765225
 20
28.0228612327
 11
130.3248765225
 21
26.6372205867
  0
LINE
  5
3AD
100
AcDbEntity
  8
RACCORDO
100
AcDbLine
 62
7
  6
CONTINUOUS
 10
130.3248765225
 20
-8.3502057262
 11
130.3248765225
 21
-9.7358463723
  0
LINE
  5
3AE
100
AcDbEntity
  8
RACCORDO
100
AcDbLine
 62
7
  6
CONTINUOUS
 10
130.3248765225
 20
-44.7232726852
 11
130.3248765225
 21
-46.1089133312
  0
LINE
  5
3AF
100
AcDbEntity
  8
RACCORDO
100
AcDbLine
 62
7
  6
CONTINUOUS
 10
130.3248765225
 20
-81.0963396441
 11
130.3248765225
 21
-82.4819802902
  0
LINE
  5
3B0
100
AcDbEntity
  8
RACCORDO
100
AcDbLine
 62
7
  6
CONTINUOUS
 10
130.4029126691
 20
30.0889538562
 11
130.4029126691
 21
-83.8131148289
  0
LINE
  5
3B1
100
AcDbEntity
  8
0
100
AcDbLine
 62
7
  6
CONTINUOUS
 10
76.5859809353
 20
-112.4338516395
 11
76.7063179519
 21
-112.3002011049
  0
LINE
  5
3B2
100
AcDbEntity
  8
RACCORDO
100
AcDbLine
 62
7
  6
CONTINUOUS
 10
100.0491120799
 20
-99.2045440606
 11
129.4206019703
 21
-83.357951433
  0
LINE
  5
3B3
100
AcDbEntity
  8
DRAFT
100
AcDbLine
 62
7
  6
CONTINUOUS
 10
100.0318123208
 20
-103.3096754779
 11
128.1403604728
 21
-88.4635632671
  0
LINE
  5
3B4
100
AcDbEntity
  8
DRAFT
100
AcDbLine
 62
7
  6
CONTINUOUS
 10
126.9581514799
 20
-89.3203631716
 11
100.0264749692
 21
-103.5250031928
  0
LINE
  5
3B5
100
AcDbEntity
  8
DRAFT
100
AcDbLine
 62
7
  6
CONTINUOUS
 10
100.0389501492
 20
-103.0217101287
 11
129.378163396
 21
-87.5664719467
  0
LINE
  5
3B6
100
AcDbEntity
  8
RACCORDO
100
AcDbLine
 62
7
  6
CONTINUOUS
 10
129.378163396
 20
-85.0562836127
 11
129.4206019703
 21
-85.0341719059
  0
LINE
  5
3B7
100
AcDbEntity
  8
RACCORDO
100
AcDbLine
 62
253
  6
CONTINUOUS
 10
99.7684518802
 20
-102.9590709408
 11
97.672034014
 21
-104.0445230662
  0
LINE
  5
3B8
100
AcDbEntity
  8
DRAFT
100
AcDbLine
 62
7
  6
CONTINUOUS
 10
94.6628498256
 20
-96.4491802291
 11
93.4293933269
 21
-97.0706642377
  0
LINE
  5
3B9
100
AcDbEntity
  8
0
100
AcDbLine
 62
7
  6
CONTINUOUS
 10
76.0699218488
 20
-110.6826635588
 11
76.1515232098
 21
-110.6418628783
  0
LINE
  5
3BA
100
AcDbEntity
  8
0
100
AcDbLine
 62
7
  6
CONTINUOUS
 10
75.2886364838
 20
-111.4038705223
 11
75.9638558316
 21
-111.0662608484
  0
LINE
  5
3BB
100
AcDbEntity
  8
0
100
AcDbLine
 62
7
  6
CONTINUOUS
 10
75.2718226574
 20
-111.455743298
 11
76.0765988198
 21
-111.0533552167
  0
LINE
  5
3BC
100
AcDbEntity
  8
0
100
AcDbLine
 62
7
  6
CONTINUOUS
 10
76.0258830415
 20
-111.4285315049
 11
74.9101619651
 21
-111.9863920431
  0
LINE
  5
3BD
100
AcDbEntity
  8
0
100
AcDbLine
 62
7
  6
CONTINUOUS
 10
75.2718226574
 20
-112.3559307784
 11
76.1363697929
 21
-111.9236572106
  0
LINE
  5
3BE
100
AcDbEntity
  8
0
100
AcDbLine
 62
7
  6
CONTINUOUS
 10
75.2886364838
 20
-112.4188829464
 11
75.9638558316
 21
-112.0812732725
  0
LINE
  5
3BF
100
AcDbEntity
  8
0
100
AcDbLine
 62
7
  6
CONTINUOUS
 10
76.0699218488
 20
-112.5709365793
 11
76.7063179519
 21
-112.2527385278
  0
LINE
  5
3C0
100
AcDbEntity
  8
0
100
AcDbLine
 62
7
  6
CONTINUOUS
 10
76.0068226574
 20
-112.7234307784
 11
76.8743267251
 21
-112.2896787446
  0
LINE
  5
3C1
100
AcDbEntity
  8
0
100
AcDbLine
 62
7
  6
CONTINUOUS
 10
76.4519304302
 20
-112.7572762757
 11
77.1983736066
 21
-112.3840546874
  0
LINE
  5
3C2
100
AcDbEntity
  8
0
100
AcDbLine
 62
7
  6
CONTINUOUS
 10
75.9638558316
 20
-113.9156413099
 11
75.6810131191
 21
-114.0570626661
  0
LINE
  5
3C3
100
AcDbEntity
  8
RACCORDO
100
AcDbLine
 62
7
  6
CONTINUOUS
 10
129.4206019703
 20
-81.916714713
 11
100.0491120799
 21
-96.4851902282
  0
LINE
  5
3C4
100
AcDbEntity
  8
DRAFT
100
AcDbLine
 62
253
  6
CONTINUOUS
 10
94.6628498256
 20
-106.7548825342
 11
93.4293933269
 21
-107.3504500817
  0
LINE
  5
3C5
100
AcDbEntity
  8
RACCORDO
100
AcDbLine
 62
253
  6
CONTINUOUS
 10
126.8154280672
 20
35.4582129392
 11
127.1834123197
 21
34.823533987
  0
LINE
  5
3C6
100
AcDbEntity
  8
RACCORDO
100
AcDbLine
 62
7
  6
CONTINUOUS
 10
126.9149902591
 20
35.5159386895
 11
127.2875682462
 21
34.873336717
  0
LINE
  5
3C7
100
AcDbEntity
  8
DRAFT
100
AcDbLine
 62
7
  6
CONTINUOUS
 10
129.378163396
 20
31.3670602473
 11
128.1403604728
 21
33.5019544909
  0
LINE
  5
3C8
100
AcDbEntity
  8
DRAFT
100
AcDbLine
 62
7
  6
CONTINUOUS
 10
126.9581514799
 20
35.5409633883
 11
125.7203485567
 21
37.6758576319
  0
LINE
  5
3C9
100
AcDbEntity
  8
DRAFT
100
AcDbLine
 62
7
  6
CONTINUOUS
 10
125.7203485567
 20
-90.217454492
 11
126.9581514799
 21
-89.3203631716
  0
LINE
  5
3CA
100
AcDbEntity
  8
DRAFT
100
AcDbLine
 62
7
  6
CONTINUOUS
 10
128.1403604728
 20
-88.4635632671
 11
129.378163396
 21
-87.5664719467
  0
LINE
  5
3CB
100
AcDbEntity
  8
DRAFT
100
AcDbLine
 62
7
  6
CONTINUOUS
 10
100.0154946448
 20
-103.8106046654
 11
125.7203485567
 21
-90.217454492
  0
LINE
  5
3CC
100
AcDbEntity
  8
DRAFT
100
AcDbLine
 62
7
  6
CONTINUOUS
 10
94.2261253469
 20
-114.7467463526
 11
93.4293933269
 21
-115.1673487875
  0
LINE
  5
3CD
100
AcDbEntity
  8
RACCORDO
100
AcDbLine
 62
253
  6
CONTINUOUS
 10
93.4293933269
 20
-125.996941365
 11
90.8130982365
 21
-127.3050889102
  0
LINE
  5
3CE
100
AcDbEntity
  8
ASSI
100
AcDbLine
 62
7
  6
CONTINUOUS
 10
90.8304614701
 20
-131.405679369
 11
88.2141663797
 21
-132.7138269142
  0
ARC
  5
3CF
100
AcDbEntity
  8
0
100
AcDbCircle
 62
7
  6
CONTINUOUS
 10
-99.6042344532
 20
-16.5178457686
 40
15.5350070954
100
AcDbArc
 50
178.8805154464
 51
181.1164946862
  0
ARC
  5
3D0
100
AcDbEntity
  8
RACCORDO
100
AcDbCircle
 62
7
  6
CONTINUOUS
 10
-119.451298408
 20
-17.6986453987
 40
10.9387066174
100
AcDbArc
 50
180.025626015
 51
183.9907407406
  0
ARC
  5
3D1
100
AcDbEntity
  8
0
100
AcDbCircle
 62
7
  6
CONTINUOUS
 10
-115.4277583836
 20
-7.676950174
 40
8.9253069101
100
AcDbArc
 50
264.2225437185
 51
267.0884479371
  0
ARC
  5
3D2
100
AcDbEntity
  8
0
100
AcDbCircle
 62
7
  6
CONTINUOUS
 10
-108.3916821085
 20
-14.2872559581
 40
8.0518541451
100
AcDbArc
 50
189.3175606024
 51
189.7925119453
  0
ARC
  5
3D3
100
AcDbEntity
  8
0
100
AcDbCircle
 62
7
  6
CONTINUOUS
 10
-111.4100486318
 20
-9.4471784125
 40
7.92005644
100
AcDbArc
 50
231.6308965808
 51
235.6307820283
  0
ARC
  5
3D4
100
AcDbEntity
  8
0
100
AcDbCircle
 62
7
  6
CONTINUOUS
 10
-109.8153105232
 20
-14.2878273994
 40
7.4912776896
100
AcDbArc
 50
194.7048226947
 51
195.2031810519
  0
ARC
  5
3D5
100
AcDbEntity
  8
0
100
AcDbCircle
 62
7
  6
CONTINUOUS
 10
-110.1958152223
 20
-17.4858841247
 40
7.2082686174
100
AcDbArc
 50
161.8239130891
 51
162.2573500263
  0
ARC
  5
3D6
100
AcDbEntity
  8
0
100
AcDbCircle
 62
7
  6
CONTINUOUS
 10
-112.5979805524
 20
-11.459117167
 40
6.5035411378
100
AcDbArc
 50
222.1073157185
 51
226.6638372671
  0
ARC
  5
3D7
100
AcDbEntity
  8
0
100
AcDbCircle
 62
7
  6
CONTINUOUS
 10
-110.8323437985
 20
-17.8247438746
 40
5.6382712082
100
AcDbArc
 50
167.0052115977
 51
167.5157734866
  0
ARC
  5
3D8
100
AcDbEntity
  8
0
100
AcDbCircle
 62
7
  6
CONTINUOUS
 10
-112.7556856611
 20
-15.1444715895
 40
5.135726678
100
AcDbArc
 50
176.6149940728
 51
183.3820652921
  0
ARC
  5
3D9
100
AcDbEntity
  8
0
100
AcDbCircle
 62
7
  6
CONTINUOUS
 10
-119.6420833789
 20
-17.3782699631
 40
4.6964894395
100
AcDbArc
 50
34.0156468379
 51
35.7266040756
  0
ARC
  5
3DA
100
AcDbEntity
  8
0
100
AcDbCircle
 62
7
  6
CONTINUOUS
 10
-114.3253926181
 20
-15.2162939704
 40
3.2881899091
100
AcDbArc
 50
231.104506709
 51
234.3345299254
  0
ARC
  5
3DB
100
AcDbEntity
  8
0
100
AcDbCircle
 62
7
  6
CONTINUOUS
 10
-114.537260911
 20
-15.5163330777
 40
2.9208988035
100
AcDbArc
 50
234.2794275283
 51
239.057559543
  0
ARC
  5
3DC
100
AcDbEntity
  8
0
100
AcDbCircle
 62
7
  6
CONTINUOUS
 10
-115.0423051156
 20
-16.6562360031
 40
1.6652348935
100
AcDbArc
 50
258.2991830138
 51
262.2866767059
  0
ARC
  5
3DD
100
AcDbEntity
  8
0
100
AcDbCircle
 62
7
  6
CONTINUOUS
 10
-116.3323017905
 20
-14.13807005
 40
1.6164453646
100
AcDbArc
 50
149.4042621945
 51
154.9610501639
  0
ARC
  5
3DE
100
AcDbEntity
  8
0
100
AcDbCircle
 62
7
  6
CONTINUOUS
 10
-115.0562485131
 20
-16.7537132954
 40
1.5667683105
100
AcDbArc
 50
262.3135246874
 51
263.7157197612
  0
ARC
  5
3DF
100
AcDbEntity
  8
IMPORT_IGES
100
AcDbCircle
 62
7
  6
CONTINUOUS
 10
-115.45053621
 20
97.656521624
 40
73.8765552713
100
AcDbArc
 50
10.936967349
 51
11.2977502262
  0
ARC
  5
3E0
100
AcDbEntity
  8
0
100
AcDbCircle
 62
7
  6
CONTINUOUS
 10
-115.4361197806
 20
97.6598117998
 40
73.861773629
100
AcDbArc
 50
10.9365992702
 51
11.2974382864
  0
ARC
  5
3E1
100
AcDbEntity
  8
0
100
AcDbCircle
 62
7
  6
CONTINUOUS
 10
-115.5467658694
 20
97.595182078
 40
73.8304034077
100
AcDbArc
 50
10.9369040073
 51
11.2974893638
  0
ARC
  5
3E2
100
AcDbEntity
  8
RACCORDO
100
AcDbCircle
 62
7
  6
CONTINUOUS
 10
-104.2400644191
 20
105.0530216013
 40
17.6739130927
100
AcDbArc
 50
63.4315672059
 51
64.6796588551
  0
ARC
  5
3E3
100
AcDbEntity
  8
RACCORDO
100
AcDbCircle
 62
7
  6
CONTINUOUS
 10
-103.9247428655
 20
105.7234357546
 40
16.9330488492
100
AcDbArc
 50
64.6739300797
 51
66.7645896217
  0
ARC
  5
3E4
100
AcDbEntity
  8
0
100
AcDbCircle
 62
7
  6
CONTINUOUS
 10
-99.6042344532
 20
103.8596853575
 40
15.5350070954
100
AcDbArc
 50
178.8805154464
 51
181.1164946862
  0
ARC
  5
3E5
100
AcDbEntity
  8
0
100
AcDbCircle
 62
7
  6
CONTINUOUS
 10
-115.4277583825
 20
112.7005809519
 40
8.9253069101
100
AcDbArc
 50
264.2225437115
 51
267.0884479301
  0
ARC
  5
3E6
100
AcDbEntity
  8
DRAFT
100
AcDbCircle
 62
7
  6
CONTINUOUS
 10
-104.8789359563
 20
112.419526661
 40
8.9178263167
100
AcDbArc
 50
99.6311282184
 51
101.6710359465
  0
ARC
  5
3E7
100
AcDbEntity
  8
DRAFT
100
AcDbCircle
 62
7
  6
CONTINUOUS
 10
-104.9927750113
 20
112.9196466034
 40
8.4050238255
100
AcDbArc
 50
101.6007196906
 51
108.3348246864
  0
ARC
  5
3E8
100
AcDbEntity
  8
RACCORDO
100
AcDbCircle
 62
253
  6
CONTINUOUS
 10
-102.8650675906
 20
114.0071387862
 40
8.3312570135
100
AcDbArc
 50
107.5363268433
 51
108.8862160589
  0
ARC
  5
3E9
100
AcDbEntity
  8
RACCORDO
100
AcDbCircle
 62
253
  6
CONTINUOUS
 10
-102.8698156996
 20
114.0211769392
 40
8.3164377146
100
AcDbArc
 50
108.8865710085
 51
110.9672653721
  0
ARC
  5
3EA
100
AcDbEntity
  8
RACCORDO
100
AcDbCircle
 62
253
  6
CONTINUOUS
 10
-102.8766327635
 20
114.0383608906
 40
8.2979522203
100
AcDbArc
 50
110.9657693674
 51
115.2207514336
  0
ARC
  5
3EB
100
AcDbEntity
  8
0
100
AcDbCircle
 62
7
  6
CONTINUOUS
 10
-108.3916821083
 20
106.090275168
 40
8.0518541453
100
AcDbArc
 50
189.3175606024
 51
189.7925119453
  0
ARC
  5
3EC
100
AcDbEntity
  8
0
100
AcDbCircle
 62
7
  6
CONTINUOUS
 10
-111.4100486318
 20
110.9303527136
 40
7.92005644
100
AcDbArc
 50
231.6308965808
 51
235.6307820283
  0
ARC
  5
3ED
100
AcDbEntity
  8
0
100
AcDbCircle
 62
7
  6
CONTINUOUS
 10
-109.8153105231
 20
106.0897037267
 40
7.4912776897
100
AcDbArc
 50
194.7048226947
 51
195.2031810519
  0
ARC
  5
3EE
100
AcDbEntity
  8
0
100
AcDbCircle
 62
7
  6
CONTINUOUS
 10
-110.1958152225
 20
102.8916470014
 40
7.2082686172
100
AcDbArc
 50
161.8239130891
 51
162.2573500263
  0
ARC
  5
3EF
100
AcDbEntity
  8
0
100
AcDbCircle
 62
7
  6
CONTINUOUS
 10
-112.5979805524
 20
108.9184139591
 40
6.5035411377
100
AcDbArc
 50
222.1073157185
 51
226.6638372672
  0
ARC
  5
3F0
100
AcDbEntity
  8
0
100
AcDbCircle
 62
7
  6
CONTINUOUS
 10
-110.8323437987
 20
102.5527872514
 40
5.6382712081
100
AcDbArc
 50
167.0052115977
 51
167.5157734866
  0
ARC
  5
3F1
100
AcDbEntity
  8
0
100
AcDbCircle
 62
7
  6
CONTINUOUS
 10
-112.7556856611
 20
105.2330595366
 40
5.135726678
100
AcDbArc
 50
176.6149940728
 51
183.3820652921
  0
ARC
  5
3F2
100
AcDbEntity
  8
0
100
AcDbCircle
 62
7
  6
CONTINUOUS
 10
-119.6420833788
 20
102.999261163
 40
4.6964894394
100
AcDbArc
 50
34.0156468379
 51
35.7266040756
  0
ARC
  5
3F3
100
AcDbEntity
  8
0
100
AcDbCircle
 62
7
  6
CONTINUOUS
 10
-114.3253926181
 20
105.1612371556
 40
3.2881899091
100
AcDbArc
 50
231.104506709
 51
234.3345299254
  0
ARC
  5
3F4
100
AcDbEntity
  8
0
100
AcDbCircle
 62
7
  6
CONTINUOUS
 10
-114.537260911
 20
104.8611980483
 40
2.9208988035
100
AcDbArc
 50
234.2794275283
 51
239.057559543
  0
ARC
  5
3F5
100
AcDbEntity
  8
0
100
AcDbCircle
 62
7
  6
CONTINUOUS
 10
-115.0423051156
 20
103.7212951229
 40
1.6652348935
100
AcDbArc
 50
258.2991830138
 51
262.2866767059
  0
ARC
  5
3F6
100
AcDbEntity
  8
0
100
AcDbCircle
 62
7
  6
CONTINUOUS
 10
-116.3323017905
 20
106.239461076
 40
1.6164453646
100
AcDbArc
 50
149.4042621945
 51
154.9610501639
  0
ARC
  5
3F7
100
AcDbEntity
  8
0
100
AcDbCircle
 62
7
  6
CONTINUOUS
 10
-115.0562485131
 20
103.6238178304
 40
1.5667683103
100
AcDbArc
 50
262.3135246874
 51
263.7157197613
  0
ARC
  5
3F8
100
AcDbEntity
  8
0
100
AcDbCircle
 62
7
  6
CONTINUOUS
 10
-32.4290902405
 20
70.2721132511
 40
15.5350070955
100
AcDbArc
 50
178.8805154464
 51
181.1164946862
  0
ARC
  5
3F9
100
AcDbEntity
  8
0
100
AcDbCircle
 62
7
  6
CONTINUOUS
 10
-48.2526141677
 20
79.1130088454
 40
8.9253069101
100
AcDbArc
 50
264.2225436981
 51
267.0884479168
  0
ARC
  5
3FA
100
AcDbEntity
  8
0
100
AcDbCircle
 62
7
  6
CONTINUOUS
 10
-41.2165378956
 20
72.5027030616
 40
8.0518541453
100
AcDbArc
 50
189.3175606024
 51
189.7925119453
  0
ARC
  5
3FB
100
AcDbEntity
  8
0
100
AcDbCircle
 62
7
  6
CONTINUOUS
 10
-44.2349044191
 20
77.3427806072
 40
7.92005644
100
AcDbArc
 50
231.6308965808
 51
235.6307820283
  0
ARC
  5
3FC
100
AcDbEntity
  8
0
100
AcDbCircle
 62
7
  6
CONTINUOUS
 10
-42.6401663108
 20
72.5021316202
 40
7.4912776893
100
AcDbArc
 50
194.7048226947
 51
195.2031810519
  0
ARC
  5
3FD
100
AcDbEntity
  8
0
100
AcDbCircle
 62
7
  6
CONTINUOUS
 10
-43.0206710103
 20
69.3040748952
 40
7.2082686167
100
AcDbArc
 50
161.8239130891
 51
162.2573500263
  0
ARC
  5
3FE
100
AcDbEntity
  8
0
100
AcDbCircle
 62
7
  6
CONTINUOUS
 10
-45.4228363397
 20
75.3308418527
 40
6.5035411377
100
AcDbArc
 50
222.1073157184
 51
226.6638372672
  0
ARC
  5
3FF
100
AcDbEntity
  8
0
100
AcDbCircle
 62
7
  6
CONTINUOUS
 10
-43.6571995859
 20
68.9652151451
 40
5.6382712081
100
AcDbArc
 50
167.0052115977
 51
167.5157734866
  0
ARC
  5
400
100
AcDbEntity
  8
0
100
AcDbCircle
 62
7
  6
CONTINUOUS
 10
-45.5805414484
 20
71.6454874302
 40
5.135726678
100
AcDbArc
 50
176.6149940728
 51
183.3820652921
  0
ARC
  5
401
100
AcDbEntity
  8
0
100
AcDbCircle
 62
7
  6
CONTINUOUS
 10
-52.4669391661
 20
69.4116890567
 40
4.6964894393
100
AcDbArc
 50
34.0156468379
 51
35.7266040756
  0
ARC
  5
402
100
AcDbEntity
  8
0
100
AcDbCircle
 62
7
  6
CONTINUOUS
 10
-47.1502484054
 20
71.5736650493
 40
3.2881899091
100
AcDbArc
 50
231.104506709
 51
234.3345299254
  0
ARC
  5
403
100
AcDbEntity
  8
0
100
AcDbCircle
 62
7
  6
CONTINUOUS
 10
-47.3621166983
 20
71.273625942
 40
2.9208988035
100
AcDbArc
 50
234.2794275283
 51
239.057559543
  0
ARC
  5
404
100
AcDbEntity
  8
0
100
AcDbCircle
 62
7
  6
CONTINUOUS
 10
-47.8671609029
 20
70.1337230165
 40
1.6652348935
100
AcDbArc
 50
258.2991830137
 51
262.286676706
  0
ARC
  5
405
100
AcDbEntity
  8
0
100
AcDbCircle
 62
7
  6
CONTINUOUS
 10
-49.1571575778
 20
72.6518889697
 40
1.6164453646
100
AcDbArc
 50
149.4042621945
 51
154.9610501639
  0
ARC
  5
406
100
AcDbEntity
  8
0
100
AcDbCircle
 62
7
  6
CONTINUOUS
 10
-47.8811043004
 20
70.0362457243
 40
1.5667683105
100
AcDbArc
 50
262.3135246875
 51
263.7157197612
  0
ARC
  5
407
100
AcDbEntity
  8
DRAFT
100
AcDbCircle
 62
7
  6
CONTINUOUS
 10
-59.1256588446
 20
92.9417241007
 40
21.0242920823
100
AcDbArc
 50
53.4861062541
 51
56.0005495578
  0
ARC
  5
408
100
AcDbEntity
  8
DRAFT
100
AcDbCircle
 62
7
  6
CONTINUOUS
 10
-57.8735060322
 20
94.1254607903
 40
18.6175518662
100
AcDbArc
 50
55.5510387026
 51
58.5508671356
  0
ARC
  5
409
100
AcDbEntity
  8
DRAFT
100
AcDbCircle
 62
7
  6
CONTINUOUS
 10
-56.8051602062
 20
94.7459001243
 40
18.1785069798
100
AcDbArc
 50
56.0332176499
 51
59.0403763853
  0
ARC
  5
40A
100
AcDbEntity
  8
DRAFT
100
AcDbCircle
 62
7
  6
CONTINUOUS
 10
-54.6867054418
 20
97.6883844597
 40
11.6744137349
100
AcDbArc
 50
65.99039924
 51
71.1395291313
  0
ARC
  5
40B
100
AcDbEntity
  8
0
100
AcDbCircle
 62
7
  6
CONTINUOUS
 10
25.5536658169
 20
-79.0967959036
 40
15.5350070955
100
AcDbArc
 50
178.8805154464
 51
181.1164946862
  0
ARC
  5
40C
100
AcDbEntity
  8
0
100
AcDbCircle
 62
7
  6
CONTINUOUS
 10
9.7301418887
 20
-70.2559003092
 40
8.9253069101
100
AcDbArc
 50
264.2225437041
 51
267.0884479228
  0
ARC
  5
40D
100
AcDbEntity
  8
0
100
AcDbCircle
 62
7
  6
CONTINUOUS
 10
16.7662181612
 20
-76.8662060931
 40
8.0518541448
100
AcDbArc
 50
189.3175606024
 51
189.7925119453
  0
ARC
  5
40E
100
AcDbEntity
  8
0
100
AcDbCircle
 62
7
  6
CONTINUOUS
 10
13.7478516382
 20
-72.0261285475
 40
7.92005644
100
AcDbArc
 50
231.6308965808
 51
235.6307820283
  0
ARC
  5
40F
100
AcDbEntity
  8
0
100
AcDbCircle
 62
7
  6
CONTINUOUS
 10
15.3425897469
 20
-76.8667775344
 40
7.4912776896
100
AcDbArc
 50
194.7048226947
 51
195.2031810519
  0
ARC
  5
410
100
AcDbEntity
  8
0
100
AcDbCircle
 62
7
  6
CONTINUOUS
 10
14.9620850471
 20
-80.0648342595
 40
7.2082686167
100
AcDbArc
 50
161.8239130891
 51
162.2573500263
  0
ARC
  5
411
100
AcDbEntity
  8
0
100
AcDbCircle
 62
7
  6
CONTINUOUS
 10
12.5599197176
 20
-74.038067302
 40
6.5035411377
100
AcDbArc
 50
222.1073157184
 51
226.6638372672
  0
ARC
  5
412
100
AcDbEntity
  8
0
100
AcDbCircle
 62
7
  6
CONTINUOUS
 10
14.3255564721
 20
-80.4036940098
 40
5.6382712088
100
AcDbArc
 50
167.0052115978
 51
167.5157734866
  0
ARC
  5
413
100
AcDbEntity
  8
0
100
AcDbCircle
 62
7
  6
CONTINUOUS
 10
12.4022146089
 20
-77.7234217245
 40
5.135726678
100
AcDbArc
 50
176.6149940728
 51
183.3820652921
  0
ARC
  5
414
100
AcDbEntity
  8
0
100
AcDbCircle
 62
7
  6
CONTINUOUS
 10
5.5158168912
 20
-79.957220098
 40
4.6964894393
100
AcDbArc
 50
34.0156468379
 51
35.7266040756
  0
ARC
  5
415
100
AcDbEntity
  8
0
100
AcDbCircle
 62
7
  6
CONTINUOUS
 10
10.8325076519
 20
-77.7952441054
 40
3.2881899091
100
AcDbArc
 50
231.104506709
 51
234.3345299254
  0
ARC
  5
416
100
AcDbEntity
  8
0
100
AcDbCircle
 62
7
  6
CONTINUOUS
 10
10.620639359
 20
-78.0952832127
 40
2.9208988035
100
AcDbArc
 50
234.2794275283
 51
239.057559543
  0
ARC
  5
417
100
AcDbEntity
  8
0
100
AcDbCircle
 62
7
  6
CONTINUOUS
 10
10.1155951544
 20
-79.2351861381
 40
1.6652348935
100
AcDbArc
 50
258.2991830137
 51
262.2866767059
  0
ARC
  5
418
100
AcDbEntity
  8
0
100
AcDbCircle
 62
7
  6
CONTINUOUS
 10
8.8255984796
 20
-76.717020185
 40
1.6164453647
100
AcDbArc
 50
149.4042621945
 51
154.9610501639
  0
ARC
  5
419
100
AcDbEntity
  8
0
100
AcDbCircle
 62
7
  6
CONTINUOUS
 10
10.1016517569
 20
-79.3326634305
 40
1.5667683104
100
AcDbArc
 50
262.3135246874
 51
263.7157197612
  0
ARC
  5
41A
100
AcDbEntity
  8
RACCORDO
100
AcDbCircle
 62
7
  6
CONTINUOUS
 10
77.0026735864
 20
-102.6124785524
 40
23.0464385053
100
AcDbArc
 50
359.1213156281
 51
0.0018317517
  0
ARC
  5
41B
100
AcDbEntity
  8
0
100
AcDbCircle
 62
7
  6
CONTINUOUS
 10
92.7288100295
 20
-112.6843680099
 40
15.5350070954
100
AcDbArc
 50
178.8805154464
 51
181.1164946862
  0
ARC
  5
41C
100
AcDbEntity
  8
0
100
AcDbCircle
 62
7
  6
CONTINUOUS
 10
76.9052861002
 20
-103.8434724155
 40
8.9253069101
100
AcDbArc
 50
264.2225437115
 51
267.0884479301
  0
ARC
  5
41D
100
AcDbEntity
  8
DRAFT
100
AcDbCircle
 62
7
  6
CONTINUOUS
 10
87.9603120714
 20
-108.1556827874
 40
8.7609330383
100
AcDbArc
 50
308.6890873979
 51
313.5027224942
  0
ARC
  5
41E
100
AcDbEntity
  8
0
100
AcDbCircle
 62
7
  6
CONTINUOUS
 10
83.9413623744
 20
-110.4537781994
 40
8.0518541453
100
AcDbArc
 50
189.3175606024
 51
189.7925119453
  0
ARC
  5
41F
100
AcDbEntity
  8
0
100
AcDbCircle
 62
7
  6
CONTINUOUS
 10
80.922995851
 20
-105.6137006538
 40
7.92005644
100
AcDbArc
 50
231.6308965808
 51
235.6307820283
  0
ARC
  5
420
100
AcDbEntity
  8
0
100
AcDbCircle
 62
7
  6
CONTINUOUS
 10
82.5177339592
 20
-110.4543496408
 40
7.4912776893
100
AcDbArc
 50
194.7048226947
 51
195.2031810519
  0
ARC
  5
421
100
AcDbEntity
  8
0
100
AcDbCircle
 62
7
  6
CONTINUOUS
 10
82.1372292598
 20
-113.6524063659
 40
7.2082686167
100
AcDbArc
 50
161.8239130891
 51
162.2573500263
  0
ARC
  5
422
100
AcDbEntity
  8
0
100
AcDbCircle
 62
7
  6
CONTINUOUS
 10
79.7350639303
 20
-107.6256394084
 40
6.5035411377
100
AcDbArc
 50
222.1073157184
 51
226.6638372672
  0
ARC
  5
423
100
AcDbEntity
  8
0
100
AcDbCircle
 62
7
  6
CONTINUOUS
 10
81.5007006841
 20
-113.991266116
 40
5.6382712081
100
AcDbArc
 50
167.0052115977
 51
167.5157734866
  0
ARC
  5
424
100
AcDbEntity
  8
0
100
AcDbCircle
 62
7
  6
CONTINUOUS
 10
79.5773588216
 20
-111.3109938308
 40
5.135726678
100
AcDbArc
 50
176.6149940728
 51
183.3820652921
  0
ARC
  5
425
100
AcDbEntity
  8
0
100
AcDbCircle
 62
7
  6
CONTINUOUS
 10
72.6909611039
 20
-113.5447922044
 40
4.6964894395
100
AcDbArc
 50
34.0156468379
 51
35.7266040756
  0
ARC
  5
426
100
AcDbEntity
  8
0
100
AcDbCircle
 62
7
  6
CONTINUOUS
 10
78.0076518646
 20
-111.3828162118
 40
3.2881899091
100
AcDbArc
 50
231.104506709
 51
234.3345299254
  0
ARC
  5
427
100
AcDbEntity
  8
0
100
AcDbCircle
 62
7
  6
CONTINUOUS
 10
77.7957835717
 20
-111.6828553191
 40
2.9208988035
100
AcDbArc
 50
234.2794275283
 51
239.057559543
  0
ARC
  5
428
100
AcDbEntity
  8
0
100
AcDbCircle
 62
7
  6
CONTINUOUS
 10
77.2907393671
 20
-112.8227582445
 40
1.6652348935
100
AcDbArc
 50
258.2991830137
 51
262.2866767059
  0
ARC
  5
429
100
AcDbEntity
  8
0
100
AcDbCircle
 62
7
  6
CONTINUOUS
 10
76.0007426923
 20
-110.3045922914
 40
1.6164453646
100
AcDbArc
 50
149.4042621945
 51
154.9610501639
  0
ARC
  5
42A
100
AcDbEntity
  8
0
100
AcDbCircle
 62
7
  6
CONTINUOUS
 10
77.2767959696
 20
-112.9202355369
 40
1.5667683104
100
AcDbArc
 50
262.3135246874
 51
263.7157197612
  0
ARC
  5
42B
100
AcDbEntity
  8
DRAFT
100
AcDbCircle
 62
7
  6
CONTINUOUS
 10
95.105402657
 20
-58.2285937076
 40
31.9302402612
100
AcDbArc
 50
17.7458961332
 51
19.3942082495
  0
ARC
  5
42C
100
AcDbEntity
  8
DRAFT
100
AcDbCircle
 62
7
  6
CONTINUOUS
 10
129.5450730801
 20
-41.0527218213
 40
31.6449804718
100
AcDbArc
 50
213.585550375
 51
216.7756974909
  0
ARC
  5
42D
100
AcDbEntity
  8
DRAFT
100
AcDbCircle
 62
7
  6
CONTINUOUS
 10
96.0248647525
 20
-57.7740321185
 40
30.2917183132
100
AcDbArc
 50
17.235965616
 51
19.0167751185
  0
ARC
  5
42E
100
AcDbEntity
  8
DRAFT
100
AcDbCircle
 62
7
  6
CONTINUOUS
 10
128.4308574786
 20
-41.6589572437
 40
29.7613731341
100
AcDbArc
 50
213.9503056445
 51
217.3040340468
  0
ARC
  5
42F
100
AcDbEntity
  8
DRAFT
100
AcDbCircle
 62
7
  6
CONTINUOUS
 10
99.1778542913
 20
-56.2915490566
 40
24.964141991
100
AcDbArc
 50
15.277273388
 51
17.6025748637
  0
ARC
  5
430
100
AcDbEntity
  8
DRAFT
100
AcDbCircle
 62
7
  6
CONTINUOUS
 10
125.6265371446
 20
-43.1044553172
 40
24.7651751192
100
AcDbArc
 50
215.3752176681
 51
219.2708395679
  0
ARC
  5
431
100
AcDbEntity
  8
DRAFT
100
AcDbCircle
 62
7
  6
CONTINUOUS
 10
100.2178497907
 20
-55.8063390896
 40
23.2014130193
100
AcDbArc
 50
14.4341812231
 51
16.9991956567
  0
ARC
  5
432
100
AcDbEntity
  8
DRAFT
100
AcDbCircle
 62
7
  6
CONTINUOUS
 10
124.6973386745
 20
-43.5839184438
 40
23.1056298859
100
AcDbArc
 50
215.9853408453
 51
220.1149882025
  0
ARC
  5
433
100
AcDbEntity
  8
DRAFT
100
AcDbCircle
 62
7
  6
CONTINUOUS
 10
102.9323634243
 20
-54.5822032486
 40
18.6813116232
100
AcDbArc
 50
11.6481209336
 51
15.0399520269
  0
ARC
  5
434
100
AcDbEntity
  8
DRAFT
100
AcDbCircle
 62
7
  6
CONTINUOUS
 10
121.9518078103
 20
-45.1446378439
 40
18.4011047805
100
AcDbArc
 50
217.9096433066
 51
222.9632216337
  0
ARC
  5
435
100
AcDbEntity
  8
DRAFT
100
AcDbCircle
 62
7
  6
CONTINUOUS
 10
104.011360151
 20
-54.107081212
 40
16.8832979821
100
AcDbArc
 50
10.1447657131
 51
14.0029764002
  0
ARC
  5
436
100
AcDbEntity
  8
DRAFT
100
AcDbCircle
 62
7
  6
CONTINUOUS
 10
121.0346514411
 20
-45.6320001983
 40
16.7458486672
100
AcDbArc
 50
218.9620484738
 51
224.4667928401
  0
ARC
  5
437
100
AcDbEntity
  8
RACCORDO
100
AcDbCircle
 62
7
  6
CONTINUOUS
 10
130.0123053238
 20
-9.9183338433
 40
0.3030078638
100
AcDbArc
 50
63.4151992832
 51
72.1523327135
  0
ARC
  5
438
100
AcDbEntity
  8
RACCORDO
100
AcDbCircle
 62
7
  6
CONTINUOUS
 10
130.0123115216
 20
-46.2913890139
 40
0.3029945481
100
AcDbArc
 50
63.4152497685
 51
72.1557205942
  0
ARC
  5
439
100
AcDbEntity
  8
DRAFT
100
AcDbCircle
 62
7
  6
CONTINUOUS
 10
63.9409527467
 20
1.1696503227
 40
32.5663923127
100
AcDbArc
 50
28.4975029748
 51
28.8712859966
  0
ARC
  5
43A
100
AcDbEntity
  8
DRAFT
100
AcDbCircle
 62
7
  6
CONTINUOUS
 10
67.8069063641
 20
4.0357640841
 40
27.7450457343
100
AcDbArc
 50
41.7405197259
 51
41.9556599262
  0
ARC
  5
43B
100
AcDbEntity
  8
DRAFT
100
AcDbCircle
 62
7
  6
CONTINUOUS
 10
5.77348369
 20
60.5665950022
 40
17.8703065241
100
AcDbArc
 50
50.6885702938
 51
53.9904832307
  0
ARC
  5
43C
100
AcDbEntity
  8
DRAFT
100
AcDbCircle
 62
7
  6
CONTINUOUS
 10
6.9550655463
 20
61.5639283027
 40
15.6564656692
100
AcDbArc
 50
52.8867804043
 51
56.8427168879
  0
ARC
  5
43D
100
AcDbEntity
  8
DRAFT
100
AcDbCircle
 62
7
  6
CONTINUOUS
 10
8.0958252117
 20
62.2772190074
 40
15.1000463474
100
AcDbArc
 50
54.0262150916
 51
57.4095806947
  0
ARC
  5
43E
100
AcDbEntity
  8
DRAFT
100
AcDbCircle
 62
7
  6
CONTINUOUS
 10
8.736713701
 20
62.9538889155
 40
12.0567091978
100
AcDbArc
 50
59.2032747098
 51
60.394391763
  0
ARC
  5
43F
100
AcDbEntity
  8
DRAFT
100
AcDbCircle
 62
7
  6
CONTINUOUS
 10
15.7415628869
 20
67.7312312915
 40
10.3950872268
100
AcDbArc
 50
166.843870714
 51
167.933889889
  0
ARC
  5
440
100
AcDbEntity
  8
DRAFT
100
AcDbCircle
 62
7
  6
CONTINUOUS
 10
10.3010271539
 20
65.3401526489
 40
8.4438439855
100
AcDbArc
 50
68.1844967366
 51
72.8619445157
  0
ARC
  5
441
100
AcDbEntity
  8
DRAFT
100
AcDbCircle
 62
7
  6
CONTINUOUS
 10
13.2514559389
 20
67.3047188292
 40
7.8315194534
100
AcDbArc
 50
157.6739619486
 51
161.563693127
  0
ARC
  5
442
100
AcDbEntity
  8
DRAFT
100
AcDbCircle
 62
7
  6
CONTINUOUS
 10
46.1996078095
 20
53.6770794282
 40
7.6599654939
100
AcDbArc
 50
139.8989113481
 51
146.8437089225
  0
ARC
  5
443
100
AcDbEntity
  8
DRAFT
100
AcDbCircle
 62
7
  6
CONTINUOUS
 10
11.4304129005
 20
66.3941773454
 40
7.5820506378
100
AcDbArc
 50
73.6878149053
 51
74.7079835595
  0
ARC
  5
444
100
AcDbEntity
  8
DRAFT
100
AcDbCircle
 62
7
  6
CONTINUOUS
 10
45.7863644835
 20
54.0165867043
 40
7.1251852532
100
AcDbArc
 50
134.6647428706
 51
139.8466945636
  0
ARC
  5
445
100
AcDbEntity
  8
DRAFT
100
AcDbCircle
 62
7
  6
CONTINUOUS
 10
44.3043998357
 20
53.7670781058
 40
6.3793427024
100
AcDbArc
 50
119.7424658505
 51
129.2699172684
  0
ARC
  5
446
100
AcDbEntity
  8
DRAFT
100
AcDbCircle
 62
7
  6
CONTINUOUS
 10
13.2210516696
 20
67.4337064707
 40
5.6009908805
100
AcDbArc
 50
148.3722841606
 51
152.662708461
  0
ARC
  5
447
100
AcDbEntity
  8
DRAFT
100
AcDbCircle
 62
7
  6
CONTINUOUS
 10
129.7372637702
 20
21.7400529456
 40
32.0170271392
100
AcDbArc
 50
197.3343044372
 51
200.7850460508
  0
ARC
  5
448
100
AcDbEntity
  8
DRAFT
100
AcDbCircle
 62
7
  6
CONTINUOUS
 10
95.0595015895
 20
4.4324236356
 40
31.8329604019
100
AcDbArc
 50
33.7193346688
 51
35.6562921362
  0
ARC
  5
449
100
AcDbEntity
  8
DRAFT
100
AcDbCircle
 62
7
  6
CONTINUOUS
 10
128.8298910162
 20
21.2890946429
 40
30.3911038852
100
AcDbArc
 50
196.8450280943
 51
200.4427956627
  0
ARC
  5
44A
100
AcDbEntity
  8
DRAFT
100
AcDbCircle
 62
7
  6
CONTINUOUS
 10
96.0268484596
 20
4.9316016034
 40
30.1309881455
100
AcDbArc
 50
34.0616521666
 51
36.152470268
  0
ARC
  5
44B
100
AcDbEntity
  8
DRAFT
100
AcDbCircle
 62
7
  6
CONTINUOUS
 10
69.0340828112
 20
5.1765127697
 40
26.0698020606
100
AcDbArc
 50
41.8943491836
 51
46.7805269482
  0
ARC
  5
44C
100
AcDbEntity
  8
DRAFT
100
AcDbCircle
 62
7
  6
CONTINUOUS
 10
125.9401604878
 20
19.8825784895
 40
25.3374164035
100
AcDbArc
 50
194.9748646615
 51
199.1601288153
  0
ARC
  5
44D
100
AcDbEntity
  8
DRAFT
100
AcDbCircle
 62
7
  6
CONTINUOUS
 10
98.9983630076
 20
6.4909212008
 40
24.932665895
100
AcDbArc
 50
35.3480483834
 51
38.0368994221
  0
ARC
  5
44E
100
AcDbEntity
  8
DRAFT
100
AcDbCircle
 62
7
  6
CONTINUOUS
 10
69.9766650896
 20
6.1647826389
 40
24.7041409151
100
AcDbArc
 50
46.804024683
 51
47.2714911507
  0
ARC
  5
44F
100
AcDbEntity
  8
RACCORDO
100
AcDbCircle
 62
253
  6
CONTINUOUS
 10
75.6652648823
 20
3.5528551615
 40
24.1032524402
100
AcDbArc
 50
0.8421237948
 51
1.8586371794
  0
ARC
  5
450
100
AcDbEntity
  8
DRAFT
100
AcDbCircle
 62
7
  6
CONTINUOUS
 10
125.00208828
 20
19.4226881266
 40
23.6795456992
100
AcDbArc
 50
194.1755470229
 51
198.6113911258
  0
ARC
  5
451
100
AcDbEntity
  8
RACCORDO
100
AcDbCircle
 62
253
  6
CONTINUOUS
 10
76.2285775375
 20
3.5614472587
 40
23.5398743505
100
AcDbArc
 50
0.0014761313
 51
0.8413644101
  0
ARC
  5
452
100
AcDbEntity
  8
DRAFT
100
AcDbCircle
 62
7
  6
CONTINUOUS
 10
99.9170440301
 20
6.9616439079
 40
23.2867916432
100
AcDbArc
 50
35.899936505
 51
38.8384151444
  0
ARC
  5
453
100
AcDbEntity
  8
DRAFT
100
AcDbCircle
 62
7
  6
CONTINUOUS
 10
122.0740368468
 20
18.124495575
 40
18.9342699995
100
AcDbArc
 50
191.4802012524
 51
196.901353621
  0
ARC
  5
454
100
AcDbEntity
  8
RACCORDO
100
AcDbCircle
 62
253
  6
CONTINUOUS
 10
75.811399212
 20
13.4998146687
 40
18.8258830618
100
AcDbArc
 50
59.992778423
 51
62.2370685678
  0
ARC
  5
455
100
AcDbEntity
  8
DRAFT
100
AcDbCircle
 62
7
  6
CONTINUOUS
 10
102.511061352
 20
8.3827571267
 40
18.787577096
100
AcDbArc
 50
37.666726657
 51
41.5097636407
  0
ARC
  5
456
100
AcDbEntity
  8
RACCORDO
100
AcDbCircle
 62
253
  6
CONTINUOUS
 10
76.2035123439
 20
14.2389955262
 40
17.9891431488
100
AcDbArc
 50
62.245518696
 51
63.4319427807
  0
ARC
  5
457
100
AcDbEntity
  8
DRAFT
100
AcDbCircle
 62
7
  6
CONTINUOUS
 10
120.9067156461
 20
17.6225115462
 40
17.0443726955
100
AcDbArc
 50
190.0236194253
 51
195.9988304947
  0
ARC
  5
458
100
AcDbEntity
  8
DRAFT
100
AcDbCircle
 62
7
  6
CONTINUOUS
 10
103.5531841894
 20
8.9710097833
 40
16.9719120214
100
AcDbArc
 50
38.593044622
 51
42.9509769153
  0
ARC
  5
459
100
AcDbEntity
  8
0
100
AcDbCircle
 62
7
  6
CONTINUOUS
 10
92.7288100295
 20
7.6931631161
 40
15.5350070954
100
AcDbArc
 50
178.8805154464
 51
181.1164946862
  0
ARC
  5
45A
100
AcDbEntity
  8
DRAFT
100
AcDbCircle
 62
7
  6
CONTINUOUS
 10
84.0561739754
 20
11.0111352271
 40
10.6066843616
100
AcDbArc
 50
0.0725855845
 51
6.18677871
  0
ARC
  5
45B
100
AcDbEntity
  8
DRAFT
100
AcDbCircle
 62
7
  6
CONTINUOUS
 10
108.4496922084
 20
24.2499442565
 40
8.9312374709
100
AcDbArc
 50
137.6231349424
 51
137.749661736
  0
ARC
  5
45C
100
AcDbEntity
  8
0
100
AcDbCircle
 62
7
  6
CONTINUOUS
 10
76.9052861026
 20
16.5340587104
 40
8.9253069102
100
AcDbArc
 50
264.2225436962
 51
267.0884479149
  0
ARC
  5
45D
100
AcDbEntity
  8
DRAFT
100
AcDbCircle
 62
7
  6
CONTINUOUS
 10
108.4003157237
 20
24.2952817925
 40
8.864204016
100
AcDbArc
 50
136.4074557457
 51
137.6245060984
  0
ARC
  5
45E
100
AcDbEntity
  8
0
100
AcDbCircle
 62
7
  6
CONTINUOUS
 10
83.9413623742
 20
9.9237529266
 40
8.0518541451
100
AcDbArc
 50
189.3175606024
 51
189.7925119453
  0
ARC
  5
45F
100
AcDbEntity
  8
0
100
AcDbCircle
 62
7
  6
CONTINUOUS
 10
80.922995851
 20
14.7638304722
 40
7.92005644
100
AcDbArc
 50
231.6308965808
 51
235.6307820283
  0
ARC
  5
460
100
AcDbEntity
  8
0
100
AcDbCircle
 62
7
  6
CONTINUOUS
 10
82.5177339591
 20
9.9231814852
 40
7.4912776891
100
AcDbArc
 50
194.7048226947
 51
195.2031810519
  0
ARC
  5
461
100
AcDbEntity
  8
0
100
AcDbCircle
 62
7
  6
CONTINUOUS
 10
82.1372292598
 20
6.7251247601
 40
7.2082686168
100
AcDbArc
 50
161.8239130891
 51
162.2573500263
  0
ARC
  5
462
100
AcDbEntity
  8
0
100
AcDbCircle
 62
7
  6
CONTINUOUS
 10
79.7350639304
 20
12.7518917177
 40
6.5035411377
100
AcDbArc
 50
222.1073157184
 51
226.6638372672
  0
ARC
  5
463
100
AcDbEntity
  8
0
100
AcDbCircle
 62
7
  6
CONTINUOUS
 10
81.5007006842
 20
6.38626501
 40
5.6382712082
100
AcDbArc
 50
167.0052115977
 51
167.5157734866
  0
ARC
  5
464
100
AcDbEntity
  8
0
100
AcDbCircle
 62
7
  6
CONTINUOUS
 10
79.5773588216
 20
9.0665372952
 40
5.135726678
100
AcDbArc
 50
176.6149940728
 51
183.3820652921
  0
ARC
  5
465
100
AcDbEntity
  8
0
100
AcDbCircle
 62
7
  6
CONTINUOUS
 10
72.6909611039
 20
6.8327389217
 40
4.6964894394
100
AcDbArc
 50
34.0156468379
 51
35.7266040756
  0
ARC
  5
466
100
AcDbEntity
  8
0
100
AcDbCircle
 62
7
  6
CONTINUOUS
 10
78.0076518647
 20
8.9947149143
 40
3.2881899091
100
AcDbArc
 50
231.104506709
 51
234.3345299254
  0
ARC
  5
467
100
AcDbEntity
  8
0
100
AcDbCircle
 62
7
  6
CONTINUOUS
 10
77.7957835717
 20
8.694675807
 40
2.9208988035
100
AcDbArc
 50
234.2794275283
 51
239.057559543
  0
ARC
  5
468
100
AcDbEntity
  8
0
100
AcDbCircle
 62
7
  6
CONTINUOUS
 10
77.2907393671
 20
7.5547728815
 40
1.6652348935
100
AcDbArc
 50
258.2991830137
 51
262.2866767059
  0
ARC
  5
469
100
AcDbEntity
  8
0
100
AcDbCircle
 62
7
  6
CONTINUOUS
 10
76.0007426923
 20
10.0729388347
 40
1.6164453647
100
AcDbArc
 50
149.4042621945
 51
154.9610501639
  0
ARC
  5
46A
100
AcDbEntity
  8
0
100
AcDbCircle
 62
7
  6
CONTINUOUS
 10
77.2767959696
 20
7.4572955893
 40
1.5667683105
100
AcDbArc
 50
262.3135246875
 51
263.7157197612
  0
ARC
  5
46B
100
AcDbEntity
  8
RACCORDO
100
AcDbCircle
 62
7
  6
CONTINUOUS
 10
130.0122962909
 20
26.4547159247
 40
0.3030272796
100
AcDbArc
 50
63.415126568
 51
72.1473757771
  0
ARC
  5
46C
100
AcDbEntity
  8
DRAFT
100
AcDbCircle
 62
7
  6
CONTINUOUS
 10
76.5998350423
 20
38.5891500441
 40
7.1975721357
100
AcDbArc
 50
137.6906398806
 51
139.8343352382
  0
ARC
  5
46D
100
AcDbEntity
  8
DRAFT
100
AcDbCircle
 62
7
  6
CONTINUOUS
 10
75.355232772
 20
37.6119190845
 40
6.2077948398
100
AcDbArc
 50
100.5061217606
 51
103.9043215811
  0
SPLINE
  5
46E
100
AcDbEntity
  8
0
100
AcDbSpline
 62
7
  6
CONTINUOUS
 70
0
 71
3
 72
9
 73
5
 74
3
 42
0.0000001
 43
0.0000001
 44
0.0000000001
 12
-0.3146349819
 22
0.1676527526
 32
0.0
 13
-0.2882787499
 23
0.2094216566
 33
0.0
 40
0.0
 40
0.0
 40
0.0
 40
0.0
 40
0.2130096085
 40
1.0
 40
1.0
 40
1.0
 40
1.0
 10
-116.0676444383
 20
-17.9387399497
 30
0.0
 10
-116.0899845297
 20
-17.9268360673
 30
0.0
 10
-116.1939453702
 20
-17.8692217908
 30
0.0
 10
-116.293564449
 20
-17.804056679
 30
0.0
 10
-116.3691886511
 20
-17.7491190685
 30
0.0
 11
-116.0676444383
 21
-17.9387399497
 31
0.0
 11
-116.1340768464
 21
-17.9019486735
 31
0.0
 11
-116.3691886511
 21
-17.7491190685
 31
0.0
  0
SPLINE
  5
46F
100
AcDbEntity
  8
0
100
AcDbSpline
 62
7
  6
CONTINUOUS
 70
0
 71
3
 72
15
 73
11
 74
9
 42
0.0000001
 43
0.0000001
 44
0.0000000001
 12
-2.939478045
 22
2.135399719
 32
0.0
 13
0.0
 23
3.6332441615
 33
0.0
 40
0.0
 40
0.0
 40
0.0
 40
0.0
 40
0.1166507875
 40
0.2400441641
 40
0.3682594671
 40
0.499036013
 40
0.6299439153
 40
0.7585448031
 40
0.8825520476
 40
1.0
 40
1.0
 40
1.0
 40
1.0
 10
-116.6520313636
 20
-17.8905404247
 30
0.0
 10
-116.7663288399
 20
-17.8075084051
 30
0.0
 10
-116.9891010402
 20
-17.6191051909
 30
0.0
 10
-117.2916504602
 20
-17.2901059943
 30
0.0
 10
-117.5649077638
 20
-16.9150288946
 30
0.0
 10
-117.8007916918
 20
-16.5049485662
 30
0.0
 10
-117.9924095822
 20
-16.071901807
 30
0.0
 10
-118.1341189945
 20
-15.6285785356
 30
0.0
 10
-118.2217441714
 20
-15.1880828606
 30
0.0
 10
-118.2430216213
 20
-14.8954100756
 30
0.0
 10
-118.2430216213
 20
-14.7531710465
 30
0.0
 11
-116.6520313636
 21
-17.8905404247
 31
0.0
 11
-116.9768075138
 21
-17.6182455174
 31
0.0
 11
-117.2812167255
 21
-17.289118948
 31
0.0
 11
-117.5561190699
 21
-16.9130427876
 31
0.0
 11
-117.7932605659
 21
-16.5013087751
 31
0.0
 11
-117.9855210073
 21
-16.0662792811
 31
0.0
 11
-118.1271277476
 21
-15.6210161267
 31
0.0
 11
-118.2138290249
 21
-15.1788883997
 31
0.0
 11
-118.2430216213
 21
-14.7531710465
 31
0.0
  0
SPLINE
  5
470
100
AcDbEntity
  8
0
100
AcDbSpline
 62
7
  6
CONTINUOUS
 70
0
 71
3
 72
12
 73
8
 74
6
 42
0.0000001
 43
0.0000001
 44
0.0000000001
 12
0.0
 22
1.603700251
 32
0.0
 13
1.3367139612
 23
0.8952521971
 33
0.0
 40
0.0
 40
0.0
 40
0.0
 40
0.0
 40
0.2479253216
 40
0.4760530084
 40
0.6849771929
 40
0.8780797933
 40
1.0
 40
1.0
 40
1.0
 40
1.0
 10
-118.2430216213
 20
-14.7531710465
 30
0.0
 10
-118.2430216213
 20
-14.620638413
 30
0.0
 10
-118.2257792254
 20
-14.3656088455
 30
0.0
 10
-118.141377308
 20
-14.0073732504
 30
0.0
 10
-118.0008433703
 20
-13.6983944211
 30
0.0
 10
-117.8270808203
 20
-13.4749179336
 30
0.0
 10
-117.6954248783
 20
-13.3677987904
 30
0.0
 10
-117.6411007308
 20
-13.3314156794
 30
0.0
 11
-118.2430216213
 21
-14.7531710465
 31
0.0
 11
-118.2138290249
 21
-14.3566462897
 31
0.0
 11
-118.1271277476
 21
-14.00121984
 31
0.0
 11
-117.9855210073
 21
-13.6975634259
 31
0.0
 11
-117.7932605659
 21
-13.4547943733
 31
0.0
 11
-117.6411007308
 21
-13.3314156794
 31
0.0
  0
SPLINE
  5
471
100
AcDbEntity
  8
0
100
AcDbSpline
 62
7
  6
CONTINUOUS
 70
0
 71
3
 72
11
 73
7
 74
5
 42
0.0000001
 43
0.0000001
 44
0.0000000001
 12
0.3585770888
 22
-0.0893745271
 32
0.0
 13
0.3641339119
 23
-0.0630224474
 33
0.0
 40
0.0
 40
0.0
 40
0.0
 40
0.0
 40
0.2843614962
 40
0.5413138567
 40
0.7772617616
 40
1.0
 40
1.0
 40
1.0
 40
1.0
 10
-117.4228825177
 20
-15.2136520191
 30
0.0
 10
-117.3888940118
 20
-15.2221235772
 30
0.0
 10
-117.3239962589
 20
-15.2374699784
 30
0.0
 10
-117.2303750786
 20
-15.2575498689
 30
0.0
 10
-117.1438652425
 20
-15.2745168157
 30
0.0
 10
-117.0882573407
 20
-15.2845418869
 30
0.0
 10
-117.0612218254
 20
-15.2892210566
 30
0.0
 11
-117.4228825177
 21
-15.2136520191
 31
0.0
 11
-117.3206264422
 21
-15.237871174
 31
0.0
 11
-117.2277868466
 21
-15.2578078123
 31
0.0
 11
-117.1422261347
 21
-15.2746051285
 31
0.0
 11
-117.0612218254
 21
-15.2892210566
 31
0.0
  0
SPLINE
  5
472
100
AcDbEntity
  8
0
100
AcDbSpline
 62
7
  6
CONTINUOUS
 70
0
 71
3
 72
12
 73
8
 74
6
 42
0.0000001
 43
0.0000001
 44
0.0000000001
 12
-0.4846905088
 22
0.3399843163
 32
0.0
 13
-0.4301881365
 23
0.4067583948
 33
0.0
 40
0.0
 40
0.0
 40
0.0
 40
0.0
 40
0.2112889118
 40
0.4160796887
 40
0.6146197839
 40
0.8089140402
 40
1.0
 40
1.0
 40
1.0
 40
1.0
 10
-117.4228825177
 20
-15.2136520191
 30
0.0
 10
-117.4570190944
 20
-15.189707047
 30
0.0
 10
-117.5236189959
 20
-15.1416563428
 30
0.0
 10
-117.6199884826
 20
-15.0679762096
 30
0.0
 10
-117.7116145576
 20
-14.993690046
 30
0.0
 10
-117.7989647939
 20
-14.9185047605
 30
0.0
 10
-117.8550719804
 20
-14.8671392813
 30
0.0
 10
-117.8824729514
 20
-14.8412306753
 30
0.0
 11
-117.4228825177
 21
-15.2136520191
 31
0.0
 11
-117.5243082726
 21
-15.1404343693
 31
0.0
 11
-117.6206068767
 21
-15.0667669622
 31
0.0
 11
-117.7118918157
 21
-14.9927150278
 31
0.0
 11
-117.7990525592
 21
-14.9176483426
 31
0.0
 11
-117.8824729514
 21
-14.8412306753
 31
0.0
  0
SPLINE
  5
473
100
AcDbEntity
  8
0
100
AcDbSpline
 62
7
  6
CONTINUOUS
 70
0
 71
3
 72
18
 73
14
 74
12
 42
0.0000001
 43
0.0000001
 44
0.0000000001
 12
0.1278471796
 22
-1.688061552
 32
0.0
 13
0.6956974518
 23
-1.543341103
 33
0.0
 40
0.0
 40
0.0
 40
0.0
 40
0.0
 40
0.0994487293
 40
0.1982410428
 40
0.2951515135
 40
0.389225246
 40
0.480723723
 40
0.5709101839
 40
0.6599274556
 40
0.7471425123
 40
0.8326363975
 40
0.9167966359
 40
1.0
 40
1.0
 40
1.0
 40
1.0
 10
-116.3373012177
 20
-16.6059140956
 30
0.0
 10
-116.3330631379
 20
-16.6618726211
 30
0.0
 10
-116.3231062547
 20
-16.7733125689
 30
0.0
 10
-116.3036241525
 20
-16.9387447515
 30
0.0
 10
-116.2797959827
 20
-17.1005438527
 30
0.0
 10
-116.2519119829
 20
-17.257514589
 30
0.0
 10
-116.2200977485
 20
-17.4098622734
 30
0.0
 10
-116.1842777476
 20
-17.5583856495
 30
0.0
 10
-116.1443971078
 20
-17.7033665486
 30
0.0
 10
-116.1005791933
 20
-17.8444367291
 30
0.0
 10
-116.0529491525
 20
-17.9813687631
 30
0.0
 10
-116.0014367233
 20
-18.1144626078
 30
0.0
 10
-115.9642193719
 20
-18.2012900914
 30
0.0
 10
-115.9449245824
 20
-18.2440938153
 30
0.0
 11
-116.3373012177
 21
-16.6059140956
 31
0.0
 11
-116.322285988
 21
-16.773599527
 31
0.0
 11
-116.3026909104
 21
-16.9396927507
 31
0.0
 11
-116.2787522666
 21
-17.1019961997
 31
0.0
 11
-116.2508632994
 21
-17.2587922793
 31
0.0
 11
-116.2191652082
 21
-17.4104116579
 31
0.0
 11
-116.1833347025
 21
-17.5588240084
 31
0.0
 11
-116.1433302423
 21
-17.7041141409
 31
0.0
 11
-116.0994979974
 21
-17.8451037877
 31
0.0
 11
-116.0519136184
 21
-17.9817901137
 31
0.0
 11
-116.0004523782
 21
-18.1146461696
 31
0.0
 11
-115.9449245824
 21
-18.2440938153
 31
0.0
  0
SPLINE
  5
474
100
AcDbEntity
  8
0
100
AcDbSpline
 62
7
  6
CONTINUOUS
 70
0
 71
3
 72
12
 73
8
 74
6
 42
0.0000001
 43
0.0000001
 44
0.0000000001
 12
-0.7538005872
 22
0.1993050875
 32
0.0
 13
-0.7344507813
 23
0.2617630475
 33
0.0
 40
0.0
 40
0.0
 40
0.0
 40
0.0
 40
0.2031922224
 40
0.4037019467
 40
0.6024734814
 40
0.8012652599
 40
1.0
 40
1.0
 40
1.0
 40
1.0
 10
-115.1362713649
 20
-16.2143314685
 30
0.0
 10
-115.1873268371
 20
-16.2008323873
 30
0.0
 10
-115.2885550006
 20
-16.1732149788
 30
0.0
 10
-115.4389412439
 20
-16.1295750424
 30
0.0
 10
-115.5874983111
 20
-16.0838077002
 30
0.0
 10
-115.7348216752
 20
-16.0356784469
 30
0.0
 10
-115.8324604242
 20
-16.001876722
 30
0.0
 10
-115.8811140526
 20
-15.9845362516
 30
0.0
 11
-115.1362713649
 21
-16.2143314685
 31
0.0
 11
-115.2891115541
 21
-16.1726199057
 31
0.0
 11
-115.4392520911
 21
-16.1290373046
 31
0.0
 11
-115.5873611508
 21
-16.0833929688
 31
0.0
 11
-115.73469186
 21
-16.0352447197
 31
0.0
 11
-115.8811140526
 21
-15.9845362516
 31
0.0
  0
SPLINE
  5
475
100
AcDbEntity
  8
0
100
AcDbSpline
 62
7
  6
CONTINUOUS
 70
0
 71
3
 72
15
 73
11
 74
9
 42
0.0000001
 43
0.0000001
 44
0.0000000001
 12
-0.3028204546
 22
-1.3117275403
 32
0.0
 13
-0.0945441807
 23
-1.3428814298
 33
0.0
 40
0.0
 40
0.0
 40
0.0
 40
0.0
 40
0.0284880161
 40
0.1693041686
 40
0.3087329353
 40
0.4469314246
 40
0.5856738477
 40
0.7251477792
 40
0.8638356336
 40
1.0
 40
1.0
 40
1.0
 40
1.0
 10
-116.1347864136
 20
-14.2613745237
 30
0.0
 10
-116.1376619983
 20
-14.2738306954
 30
0.0
 10
-116.1546009708
 20
-14.3478924531
 30
0.0
 10
-116.1838493433
 20
-14.4833189954
 30
0.0
 10
-116.2197112803
 20
-14.667646483
 30
0.0
 10
-116.2515639043
 20
-14.8517649944
 30
0.0
 10
-116.2794845365
 20
-15.0365419641
 30
0.0
 10
-116.3033563161
 20
-15.2221082692
 30
0.0
 10
-116.3228911783
 20
-15.4070174873
 30
0.0
 10
-116.3330100349
 20
-15.5299508052
 30
0.0
 10
-116.3373012177
 20
-15.5909016715
 30
0.0
 11
-116.1347864136
 21
-14.2613745237
 31
0.0
 11
-116.1433370092
 21
-14.2987605178
 31
0.0
 11
-116.1833415918
 21
-14.4840588185
 31
0.0
 11
-116.2191723386
 21
-14.6683069123
 31
0.0
 11
-116.2508705335
 21
-14.8516302084
 31
0.0
 11
-116.2787581017
 21
-15.0363123293
 31
0.0
 11
-116.3026942156
 21
-15.2225409343
 31
0.0
 11
-116.3222870554
 21
-15.4082123829
 31
0.0
 11
-116.3373012177
 21
-15.5909016715
 31
0.0
  0
SPLINE
  5
476
100
AcDbEntity
  8
0
100
AcDbSpline
 62
7
  6
CONTINUOUS
 70
0
 71
3
 72
10
 73
6
 74
4
 42
0.0000001
 43
0.0000001
 44
0.0000000001
 12
-0.7254473858
 22
-0.2550712496
 32
0.0
 13
-0.7391738571
 23
0.202197012
 33
0.0
 40
0.0
 40
0.0
 40
0.0
 40
0.0
 40
0.1721579651
 40
0.5706952436
 40
1.0
 40
1.0
 40
1.0
 40
1.0
 10
-115.1884723315
 20
-18.2358055303
 30
0.0
 10
-115.2301028468
 20
-18.2504430461
 30
0.0
 10
-115.3711441609
 20
-18.2903377584
 30
0.0
 10
-115.6287261638
 20
-18.309122193
 30
0.0
 10
-115.8391476315
 20
-18.2730285283
 30
0.0
 10
-115.9449245824
 20
-18.2440938153
 30
0.0
 11
-115.1884723315
 21
-18.2358055303
 31
0.0
 11
-115.3157392205
 21
-18.2718577005
 31
0.0
 11
-115.6201484322
 21
-18.2965750582
 31
0.0
 11
-115.9449245824
 21
-18.2440938153
 31
0.0
  0
SPLINE
  5
477
100
AcDbEntity
  8
0
100
AcDbSpline
 62
7
  6
CONTINUOUS
 70
0
 71
3
 72
12
 73
8
 74
6
 42
0.0000001
 43
0.0000001
 44
0.0000000001
 12
-0.4846905088
 22
0.3399843163
 32
0.0
 13
-0.4301881365
 23
0.4067583948
 33
0.0
 40
0.0
 40
0.0
 40
0.0
 40
0.0
 40
0.2112889118
 40
0.4160796887
 40
0.6146197839
 40
0.8089140402
 40
1.0
 40
1.0
 40
1.0
 40
1.0
 10
-117.4228825177
 20
-15.8198698017
 30
0.0
 10
-117.4570190944
 20
-15.7959248297
 30
0.0
 10
-117.5236189959
 20
-15.7478741254
 30
0.0
 10
-117.6199884826
 20
-15.6741939923
 30
0.0
 10
-117.7116145576
 20
-15.5999078287
 30
0.0
 10
-117.7989647939
 20
-15.5247225432
 30
0.0
 10
-117.8550719804
 20
-15.473357064
 30
0.0
 10
-117.8824729514
 20
-15.4474484579
 30
0.0
 11
-117.4228825177
 21
-15.8198698017
 31
0.0
 11
-117.5243082726
 21
-15.7466521519
 31
0.0
 11
-117.6206068767
 21
-15.6729847449
 31
0.0
 11
-117.7118918157
 21
-15.5989328104
 31
0.0
 11
-117.7990525592
 21
-15.5238661253
 31
0.0
 11
-117.8824729514
 21
-15.4474484579
 31
0.0
  0
SPLINE
  5
478
100
AcDbEntity
  8
0
100
AcDbSpline
 62
7
  6
CONTINUOUS
 70
0
 71
3
 72
18
 73
14
 74
12
 42
0.0000001
 43
0.0000001
 44
0.0000000001
 12
-0.6956974515
 22
1.5433411025
 32
0.0
 13
-0.1278471795
 23
1.6880615514
 33
0.0
 40
0.0
 40
0.0
 40
0.0
 40
0.0
 40
0.0832064168
 40
0.1673706447
 40
0.2528685759
 40
0.3400867613
 40
0.4291060942
 40
0.5192954576
 40
0.610797256
 40
0.7048699557
 40
0.8017738049
 40
0.9005573899
 40
1.0
 40
1.0
 40
1.0
 40
1.0
 10
-116.6520313636
 20
-17.8905404247
 30
0.0
 10
-116.671326861
 20
-17.8477351304
 30
0.0
 10
-116.70854572
 20
-17.7609039664
 30
0.0
 10
-116.7600601266
 20
-17.6278041737
 30
0.0
 10
-116.8076917419
 20
-17.4908660135
 30
0.0
 10
-116.8515105229
 20
-17.349790642
 30
0.0
 10
-116.8913915707
 20
-17.2048051175
 30
0.0
 10
-116.9272117538
 20
-17.0562769741
 30
0.0
 10
-116.9590255334
 20
-16.9039262004
 30
0.0
 10
-116.9869080128
 20
-16.7469576788
 30
0.0
 10
-117.0107339487
 20
-16.5851675984
 30
0.0
 10
-117.0302141352
 20
-16.4197473949
 30
0.0
 10
-117.0401701798
 20
-16.3083157873
 30
0.0
 10
-117.0444079989
 20
-16.2523607051
 30
0.0
 11
-116.6520313636
 21
-17.8905404247
 31
0.0
 11
-116.7075611112
 21
-17.7610879929
 31
0.0
 11
-116.7590245122
 21
-17.6282255313
 31
0.0
 11
-116.8066106507
 21
-17.4915325654
 31
0.0
 11
-116.8504437903
 21
-17.3505376502
 31
0.0
 11
-116.8904483729
 21
-17.2052439321
 31
0.0
 11
-116.9262791198
 21
-17.0568265851
 31
0.0
 11
-116.9579773147
 21
-16.9052014839
 31
0.0
 11
-116.9858648829
 21
-16.7484069313
 31
0.0
 11
-117.0098009967
 21
-16.5861144401
 31
0.0
 11
-117.0293938366
 21
-16.4200358314
 31
0.0
 11
-117.0444079989
 21
-16.2523607051
 31
0.0
  0
SPLINE
  5
479
100
AcDbEntity
  8
0
100
AcDbSpline
 62
7
  6
CONTINUOUS
 70
0
 71
3
 72
16
 73
12
 74
10
 42
0.0000001
 43
0.0000001
 44
0.0000000001
 12
0.110443242
 22
1.5687076406
 32
0.0
 13
0.3900068559
 23
1.5234884895
 33
0.0
 40
0.0
 40
0.0
 40
0.0
 40
0.0
 40
0.1165698361
 40
0.2353034304
 40
0.354707846
 40
0.4734793195
 40
0.5917795276
 40
0.7111332697
 40
0.8316756512
 40
0.9524625873
 40
1.0
 40
1.0
 40
1.0
 40
1.0
 10
-117.0444079989
 20
-15.2373482809
 30
0.0
 10
-117.0401165487
 20
-15.1763936167
 30
0.0
 10
-117.0299968242
 20
-15.0534508637
 30
0.0
 10
-117.0104600304
 20
-14.8685277287
 30
0.0
 10
-116.9865860297
 20
-14.6829503477
 30
0.0
 10
-116.958663911
 20
-14.4981698791
 30
0.0
 10
-116.9268108531
 20
-14.3140540976
 30
0.0
 10
-116.8909490971
 20
-14.1297315327
 30
0.0
 10
-116.8510322847
 20
-13.9449108423
 30
0.0
 10
-116.8160776895
 20
-13.7975671363
 30
0.0
 10
-116.7945262016
 20
-13.7120023052
 30
0.0
 10
-116.7883462293
 20
-13.6878614048
 30
0.0
 11
-117.0444079989
 21
-15.2373482809
 31
0.0
 11
-117.0293927692
 21
-15.0546476199
 31
0.0
 11
-117.0097976916
 21
-14.8689593186
 31
0.0
 11
-116.9858590477
 21
-14.6827172257
 31
0.0
 11
-116.9579700806
 21
-14.4980321789
 31
0.0
 11
-116.9262719894
 21
-14.3147147092
 31
0.0
 11
-116.8904414837
 21
-14.130471853
 31
0.0
 11
-116.8504370234
 21
-13.9451772602
 31
0.0
 11
-116.8066047786
 21
-13.7603553686
 31
0.0
 11
-116.7883462293
 21
-13.6878614048
 31
0.0
  0
SPLINE
  5
47A
100
AcDbEntity
  8
0
100
AcDbSpline
 62
7
  6
CONTINUOUS
 70
0
 71
3
 72
12
 73
8
 74
6
 42
0.0000001
 43
0.0000001
 44
0.0000000001
 12
-0.7538005872
 22
0.1993050875
 32
0.0
 13
-0.7344507813
 23
0.2617630475
 33
0.0
 40
0.0
 40
0.0
 40
0.0
 40
0.0
 40
0.2031922224
 40
0.4037019467
 40
0.6024734814
 40
0.8012652599
 40
1.0
 40
1.0
 40
1.0
 40
1.0
 10
-115.1362713649
 20
-16.8205492512
 30
0.0
 10
-115.1873268371
 20
-16.8070501699
 30
0.0
 10
-115.2885550006
 20
-16.7794327615
 30
0.0
 10
-115.4389412439
 20
-16.735792825
 30
0.0
 10
-115.5874983111
 20
-16.6900254829
 30
0.0
 10
-115.7348216752
 20
-16.6418962296
 30
0.0
 10
-115.8324604242
 20
-16.6080945047
 30
0.0
 10
-115.8811140526
 20
-16.5907540343
 30
0.0
 11
-115.1362713649
 21
-16.8205492512
 31
0.0
 11
-115.2891115541
 21
-16.7788376884
 31
0.0
 11
-115.4392520911
 21
-16.7352550872
 31
0.0
 11
-115.5873611508
 21
-16.6896107514
 31
0.0
 11
-115.73469186
 21
-16.6414625024
 31
0.0
 11
-115.8811140526
 21
-16.5907540343
 31
0.0
  0
SPLINE
  5
47B
100
AcDbEntity
  8
0
100
AcDbSpline
 62
7
  6
CONTINUOUS
 70
0
 71
3
 72
9
 73
5
 74
3
 42
0.0000001
 43
0.0000001
 44
0.0000000001
 12
-0.3146349819
 22
0.1676527526
 32
0.0
 13
-0.2882787499
 23
0.2094216566
 33
0.0
 40
0.0
 40
0.0
 40
0.0
 40
0.0
 40
0.2130096085
 40
1.0
 40
1.0
 40
1.0
 40
1.0
 10
-116.0676444383
 20
102.4387911764
 30
0.0
 10
-116.0899845297
 20
102.4506950588
 30
0.0
 10
-116.1939453702
 20
102.5083093353
 30
0.0
 10
-116.293564449
 20
102.573474447
 30
0.0
 10
-116.3691886511
 20
102.6284120575
 30
0.0
 11
-116.0676444383
 21
102.4387911764
 31
0.0
 11
-116.1340768464
 21
102.4755824525
 31
0.0
 11
-116.3691886511
 21
102.6284120575
 31
0.0
  0
SPLINE
  5
47C
100
AcDbEntity
  8
0
100
AcDbSpline
 62
7
  6
CONTINUOUS
 70
0
 71
3
 72
15
 73
11
 74
9
 42
0.0000001
 43
0.0000001
 44
0.0000000001
 12
-2.939478045
 22
2.135399719
 32
0.0
 13
0.0
 23
3.6332441615
 33
0.0
 40
0.0
 40
0.0
 40
0.0
 40
0.0
 40
0.1166507875
 40
0.2400441641
 40
0.3682594671
 40
0.499036013
 40
0.6299439153
 40
0.7585448031
 40
0.8825520476
 40
1.0
 40
1.0
 40
1.0
 40
1.0
 10
-116.6520313636
 20
102.4869907013
 30
0.0
 10
-116.7663288399
 20
102.5700227209
 30
0.0
 10
-116.9891010402
 20
102.7584259351
 30
0.0
 10
-117.2916504602
 20
103.0874251317
 30
0.0
 10
-117.5649077638
 20
103.4625022315
 30
0.0
 10
-117.8007916918
 20
103.8725825598
 30
0.0
 10
-117.9924095822
 20
104.3056293191
 30
0.0
 10
-118.1341189945
 20
104.7489525904
 30
0.0
 10
-118.2217441714
 20
105.1894482655
 30
0.0
 10
-118.2430216213
 20
105.4821210505
 30
0.0
 10
-118.2430216213
 20
105.6243600795
 30
0.0
 11
-116.6520313636
 21
102.4869907013
 31
0.0
 11
-116.9768075138
 21
102.7592856087
 31
0.0
 11
-117.2812167255
 21
103.088412178
 31
0.0
 11
-117.5561190699
 21
103.4644883384
 31
0.0
 11
-117.7932605659
 21
103.876222351
 31
0.0
 11
-117.9855210073
 21
104.3112518449
 31
0.0
 11
-118.1271277476
 21
104.7565149994
 31
0.0
 11
-118.2138290249
 21
105.1986427263
 31
0.0
 11
-118.2430216213
 21
105.6243600795
 31
0.0
  0
SPLINE
  5
47D
100
AcDbEntity
  8
0
100
AcDbSpline
 62
7
  6
CONTINUOUS
 70
0
 71
3
 72
12
 73
8
 74
6
 42
0.0000001
 43
0.0000001
 44
0.0000000001
 12
0.0
 22
1.603700251
 32
0.0
 13
1.3367139612
 23
0.8952521971
 33
0.0
 40
0.0
 40
0.0
 40
0.0
 40
0.0
 40
0.2479253216
 40
0.4760530084
 40
0.6849771929
 40
0.8780797933
 40
1.0
 40
1.0
 40
1.0
 40
1.0
 10
-118.2430216213
 20
105.6243600795
 30
0.0
 10
-118.2430216213
 20
105.756892713
 30
0.0
 10
-118.2257792254
 20
106.0119222805
 30
0.0
 10
-118.141377308
 20
106.3701578757
 30
0.0
 10
-118.0008433703
 20
106.6791367049
 30
0.0
 10
-117.8270808203
 20
106.9026131924
 30
0.0
 10
-117.6954248783
 20
107.0097323356
 30
0.0
 10
-117.6411007308
 20
107.0461154466
 30
0.0
 11
-118.2430216213
 21
105.6243600795
 31
0.0
 11
-118.2138290249
 21
106.0208848364
 31
0.0
 11
-118.1271277476
 21
106.3763112861
 31
0.0
 11
-117.9855210073
 21
106.6799677002
 31
0.0
 11
-117.7932605659
 21
106.9227367527
 31
0.0
 11
-117.6411007308
 21
107.0461154466
 31
0.0
  0
SPLINE
  5
47E
100
AcDbEntity
  8
0
100
AcDbSpline
 62
7
  6
CONTINUOUS
 70
0
 71
3
 72
11
 73
7
 74
5
 42
0.0000001
 43
0.0000001
 44
0.0000000001
 12
0.3585770888
 22
-0.0893745271
 32
0.0
 13
0.3641339119
 23
-0.0630224474
 33
0.0
 40
0.0
 40
0.0
 40
0.0
 40
0.0
 40
0.2843614962
 40
0.5413138567
 40
0.7772617616
 40
1.0
 40
1.0
 40
1.0
 40
1.0
 10
-117.4228825177
 20
105.163879107
 30
0.0
 10
-117.3888940118
 20
105.1554075489
 30
0.0
 10
-117.3239962589
 20
105.1400611476
 30
0.0
 10
-117.2303750786
 20
105.1199812571
 30
0.0
 10
-117.1438652425
 20
105.1030143104
 30
0.0
 10
-117.0882573407
 20
105.0929892391
 30
0.0
 10
-117.0612218254
 20
105.0883100695
 30
0.0
 11
-117.4228825177
 21
105.163879107
 31
0.0
 11
-117.3206264422
 21
105.1396599521
 31
0.0
 11
-117.2277868466
 21
105.1197233137
 31
0.0
 11
-117.1422261347
 21
105.1029259975
 31
0.0
 11
-117.0612218254
 21
105.0883100695
 31
0.0
  0
SPLINE
  5
47F
100
AcDbEntity
  8
0
100
AcDbSpline
 62
7
  6
CONTINUOUS
 70
0
 71
3
 72
12
 73
8
 74
6
 42
0.0000001
 43
0.0000001
 44
0.0000000001
 12
-0.4846905088
 22
0.3399843163
 32
0.0
 13
-0.4301881365
 23
0.4067583948
 33
0.0
 40
0.0
 40
0.0
 40
0.0
 40
0.0
 40
0.2112889118
 40
0.4160796887
 40
0.6146197839
 40
0.8089140402
 40
1.0
 40
1.0
 40
1.0
 40
1.0
 10
-117.4228825177
 20
105.163879107
 30
0.0
 10
-117.4570190944
 20
105.187824079
 30
0.0
 10
-117.5236189959
 20
105.2358747832
 30
0.0
 10
-117.6199884826
 20
105.3095549164
 30
0.0
 10
-117.7116145576
 20
105.38384108
 30
0.0
 10
-117.7989647939
 20
105.4590263655
 30
0.0
 10
-117.8550719804
 20
105.5103918447
 30
0.0
 10
-117.8824729514
 20
105.5363004508
 30
0.0
 11
-117.4228825177
 21
105.163879107
 31
0.0
 11
-117.5243082726
 21
105.2370967568
 31
0.0
 11
-117.6206068767
 21
105.3107641638
 31
0.0
 11
-117.7118918157
 21
105.3848160983
 31
0.0
 11
-117.7990525592
 21
105.4598827834
 31
0.0
 11
-117.8824729514
 21
105.5363004508
 31
0.0
  0
SPLINE
  5
480
100
AcDbEntity
  8
0
100
AcDbSpline
 62
7
  6
CONTINUOUS
 70
0
 71
3
 72
18
 73
14
 74
12
 42
0.0000001
 43
0.0000001
 44
0.0000000001
 12
0.1278471796
 22
-1.688061552
 32
0.0
 13
0.6956974518
 23
-1.543341103
 33
0.0
 40
0.0
 40
0.0
 40
0.0
 40
0.0
 40
0.0994487293
 40
0.1982410428
 40
0.2951515135
 40
0.389225246
 40
0.480723723
 40
0.5709101839
 40
0.6599274556
 40
0.7471425123
 40
0.8326363975
 40
0.9167966359
 40
1.0
 40
1.0
 40
1.0
 40
1.0
 10
-116.3373012177
 20
103.7716170304
 30
0.0
 10
-116.3330631379
 20
103.715658505
 30
0.0
 10
-116.3231062547
 20
103.6042185572
 30
0.0
 10
-116.3036241525
 20
103.4387863746
 30
0.0
 10
-116.2797959827
 20
103.2769872733
 30
0.0
 10
-116.2519119829
 20
103.1200165371
 30
0.0
 10
-116.2200977485
 20
102.9676688526
 30
0.0
 10
-116.1842777476
 20
102.8191454765
 30
0.0
 10
-116.1443971078
 20
102.6741645774
 30
0.0
 10
-116.1005791933
 20
102.5330943969
 30
0.0
 10
-116.0529491525
 20
102.396162363
 30
0.0
 10
-116.0014367233
 20
102.2630685182
 30
0.0
 10
-115.9642193719
 20
102.1762410346
 30
0.0
 10
-115.9449245824
 20
102.1334373107
 30
0.0
 11
-116.3373012177
 21
103.7716170304
 31
0.0
 11
-116.322285988
 21
103.6039315991
 31
0.0
 11
-116.3026909104
 21
103.4378383753
 31
0.0
 11
-116.2787522666
 21
103.2755349263
 31
0.0
 11
-116.2508632994
 21
103.1187388467
 31
0.0
 11
-116.2191652082
 21
102.9671194681
 31
0.0
 11
-116.1833347025
 21
102.8187071177
 31
0.0
 11
-116.1433302423
 21
102.6734169851
 31
0.0
 11
-116.0994979974
 21
102.5324273383
 31
0.0
 11
-116.0519136184
 21
102.3957410124
 31
0.0
 11
-116.0004523782
 21
102.2628849565
 31
0.0
 11
-115.9449245824
 21
102.1334373107
 31
0.0
  0
SPLINE
  5
481
100
AcDbEntity
  8
0
100
AcDbSpline
 62
7
  6
CONTINUOUS
 70
0
 71
3
 72
12
 73
8
 74
6
 42
0.0000001
 43
0.0000001
 44
0.0000000001
 12
-0.7538005872
 22
0.1993050875
 32
0.0
 13
-0.7344507813
 23
0.2617630475
 33
0.0
 40
0.0
 40
0.0
 40
0.0
 40
0.0
 40
0.2031922224
 40
0.4037019467
 40
0.6024734814
 40
0.8012652599
 40
1.0
 40
1.0
 40
1.0
 40
1.0
 10
-115.1362713649
 20
104.1631996575
 30
0.0
 10
-115.1873268371
 20
104.1766987387
 30
0.0
 10
-115.2885550006
 20
104.2043161472
 30
0.0
 10
-115.4389412439
 20
104.2479560837
 30
0.0
 10
-115.5874983111
 20
104.2937234258
 30
0.0
 10
-115.7348216752
 20
104.3418526791
 30
0.0
 10
-115.8324604242
 20
104.375654404
 30
0.0
 10
-115.8811140526
 20
104.3929948744
 30
0.0
 11
-115.1362713649
 21
104.1631996575
 31
0.0
 11
-115.2891115541
 21
104.2049112203
 31
0.0
 11
-115.4392520911
 21
104.2484938215
 31
0.0
 11
-115.5873611508
 21
104.2941381572
 31
0.0
 11
-115.73469186
 21
104.3422864063
 31
0.0
 11
-115.8811140526
 21
104.3929948744
 31
0.0
  0
SPLINE
  5
482
100
AcDbEntity
  8
0
100
AcDbSpline
 62
7
  6
CONTINUOUS
 70
0
 71
3
 72
15
 73
11
 74
9
 42
0.0000001
 43
0.0000001
 44
0.0000000001
 12
-0.3028204546
 22
-1.3117275403
 32
0.0
 13
-0.0945441807
 23
-1.3428814298
 33
0.0
 40
0.0
 40
0.0
 40
0.0
 40
0.0
 40
0.0284880161
 40
0.1693041686
 40
0.3087329353
 40
0.4469314246
 40
0.5856738477
 40
0.7251477792
 40
0.8638356336
 40
1.0
 40
1.0
 40
1.0
 40
1.0
 10
-116.1347864136
 20
106.1161566024
 30
0.0
 10
-116.1376619983
 20
106.1037004306
 30
0.0
 10
-116.1546009708
 20
106.0296386729
 30
0.0
 10
-116.1838493433
 20
105.8942121306
 30
0.0
 10
-116.2197112803
 20
105.709884643
 30
0.0
 10
-116.2515639043
 20
105.5257661317
 30
0.0
 10
-116.2794845365
 20
105.3409891619
 30
0.0
 10
-116.3033563161
 20
105.1554228568
 30
0.0
 10
-116.3228911783
 20
104.9705136388
 30
0.0
 10
-116.3330100349
 20
104.8475803209
 30
0.0
 10
-116.3373012177
 20
104.7866294545
 30
0.0
 11
-116.1347864136
 21
106.1161566024
 31
0.0
 11
-116.1433370092
 21
106.0787706082
 31
0.0
 11
-116.1833415918
 21
105.8934723075
 31
0.0
 11
-116.2191723386
 21
105.7092242137
 31
0.0
 11
-116.2508705335
 21
105.5259009176
 31
0.0
 11
-116.2787581017
 21
105.3412187968
 31
0.0
 11
-116.3026942156
 21
105.1549901917
 31
0.0
 11
-116.3222870554
 21
104.9693187431
 31
0.0
 11
-116.3373012177
 21
104.7866294545
 31
0.0
  0
SPLINE
  5
483
100
AcDbEntity
  8
0
100
AcDbSpline
 62
7
  6
CONTINUOUS
 70
0
 71
3
 72
10
 73
6
 74
4
 42
0.0000001
 43
0.0000001
 44
0.0000000001
 12
-0.7254473858
 22
-0.2550712496
 32
0.0
 13
-0.7391738571
 23
0.202197012
 33
0.0
 40
0.0
 40
0.0
 40
0.0
 40
0.0
 40
0.1721579651
 40
0.5706952436
 40
1.0
 40
1.0
 40
1.0
 40
1.0
 10
-115.1884723315
 20
102.1417255957
 30
0.0
 10
-115.2301028468
 20
102.12708808
 30
0.0
 10
-115.3711441609
 20
102.0871933677
 30
0.0
 10
-115.6287261638
 20
102.0684089331
 30
0.0
 10
-115.8391476315
 20
102.1045025977
 30
0.0
 10
-115.9449245824
 20
102.1334373107
 30
0.0
 11
-115.1884723315
 21
102.1417255957
 31
0.0
 11
-115.3157392205
 21
102.1056734255
 31
0.0
 11
-115.6201484322
 21
102.0809560679
 31
0.0
 11
-115.9449245824
 21
102.1334373107
 31
0.0
  0
SPLINE
  5
484
100
AcDbEntity
  8
0
100
AcDbSpline
 62
7
  6
CONTINUOUS
 70
0
 71
3
 72
12
 73
8
 74
6
 42
0.0000001
 43
0.0000001
 44
0.0000000001
 12
-0.4846905088
 22
0.3399843163
 32
0.0
 13
-0.4301881365
 23
0.4067583948
 33
0.0
 40
0.0
 40
0.0
 40
0.0
 40
0.0
 40
0.2112889118
 40
0.4160796887
 40
0.6146197839
 40
0.8089140402
 40
1.0
 40
1.0
 40
1.0
 40
1.0
 10
-117.4228825177
 20
104.5576613243
 30
0.0
 10
-117.4570190944
 20
104.5816062964
 30
0.0
 10
-117.5236189959
 20
104.6296570006
 30
0.0
 10
-117.6199884826
 20
104.7033371338
 30
0.0
 10
-117.7116145576
 20
104.7776232973
 30
0.0
 10
-117.7989647939
 20
104.8528085828
 30
0.0
 10
-117.8550719804
 20
104.904174062
 30
0.0
 10
-117.8824729514
 20
104.9300826681
 30
0.0
 11
-117.4228825177
 21
104.5576613243
 31
0.0
 11
-117.5243082726
 21
104.6308789741
 31
0.0
 11
-117.6206068767
 21
104.7045463812
 31
0.0
 11
-117.7118918157
 21
104.7785983156
 31
0.0
 11
-117.7990525592
 21
104.8536650007
 31
0.0
 11
-117.8824729514
 21
104.9300826681
 31
0.0
  0
SPLINE
  5
485
100
AcDbEntity
  8
0
100
AcDbSpline
 62
7
  6
CONTINUOUS
 70
0
 71
3
 72
18
 73
14
 74
12
 42
0.0000001
 43
0.0000001
 44
0.0000000001
 12
-0.6956974515
 22
1.5433411025
 32
0.0
 13
-0.1278471795
 23
1.6880615514
 33
0.0
 40
0.0
 40
0.0
 40
0.0
 40
0.0
 40
0.0832064168
 40
0.1673706447
 40
0.2528685759
 40
0.3400867613
 40
0.4291060942
 40
0.5192954576
 40
0.610797256
 40
0.7048699557
 40
0.8017738049
 40
0.9005573899
 40
1.0
 40
1.0
 40
1.0
 40
1.0
 10
-116.6520313636
 20
102.4869907013
 30
0.0
 10
-116.671326861
 20
102.5297959956
 30
0.0
 10
-116.70854572
 20
102.6166271596
 30
0.0
 10
-116.7600601266
 20
102.7497269523
 30
0.0
 10
-116.8076917419
 20
102.8866651126
 30
0.0
 10
-116.8515105229
 20
103.027740484
 30
0.0
 10
-116.8913915707
 20
103.1727260085
 30
0.0
 10
-116.9272117538
 20
103.3212541519
 30
0.0
 10
-116.9590255334
 20
103.4736049257
 30
0.0
 10
-116.9869080128
 20
103.6305734472
 30
0.0
 10
-117.0107339487
 20
103.7923635277
 30
0.0
 10
-117.0302141352
 20
103.9577837312
 30
0.0
 10
-117.0401701798
 20
104.0692153387
 30
0.0
 10
-117.0444079989
 20
104.125170421
 30
0.0
 11
-116.6520313636
 21
102.4869907013
 31
0.0
 11
-116.7075611112
 21
102.6164431332
 31
0.0
 11
-116.7590245122
 21
102.7493055947
 31
0.0
 11
-116.8066106507
 21
102.8859985607
 31
0.0
 11
-116.8504437903
 21
103.0269934759
 31
0.0
 11
-116.8904483729
 21
103.172287194
 31
0.0
 11
-116.9262791198
 21
103.3207045409
 31
0.0
 11
-116.9579773147
 21
103.4723296421
 31
0.0
 11
-116.9858648829
 21
103.6291241948
 31
0.0
 11
-117.0098009967
 21
103.7914166859
 31
0.0
 11
-117.0293938366
 21
103.9574952947
 31
0.0
 11
-117.0444079989
 21
104.125170421
 31
0.0
  0
SPLINE
  5
486
100
AcDbEntity
  8
0
100
AcDbSpline
 62
7
  6
CONTINUOUS
 70
0
 71
3
 72
16
 73
12
 74
10
 42
0.0000001
 43
0.0000001
 44
0.0000000001
 12
0.110443242
 22
1.5687076406
 32
0.0
 13
0.3900068559
 23
1.5234884895
 33
0.0
 40
0.0
 40
0.0
 40
0.0
 40
0.0
 40
0.1165698361
 40
0.2353034304
 40
0.354707846
 40
0.4734793195
 40
0.5917795276
 40
0.7111332697
 40
0.8316756512
 40
0.9524625873
 40
1.0
 40
1.0
 40
1.0
 40
1.0
 10
-117.0444079989
 20
105.1401828451
 30
0.0
 10
-117.0401165487
 20
105.2011375093
 30
0.0
 10
-117.0299968242
 20
105.3240802624
 30
0.0
 10
-117.0104600304
 20
105.5090033973
 30
0.0
 10
-116.9865860297
 20
105.6945807783
 30
0.0
 10
-116.958663911
 20
105.879361247
 30
0.0
 10
-116.9268108531
 20
106.0634770284
 30
0.0
 10
-116.8909490971
 20
106.2477995934
 30
0.0
 10
-116.8510322847
 20
106.4326202837
 30
0.0
 10
-116.8160776895
 20
106.5799639897
 30
0.0
 10
-116.7945262016
 20
106.6655288208
 30
0.0
 10
-116.7883462293
 20
106.6896697212
 30
0.0
 11
-117.0444079989
 21
105.1401828451
 31
0.0
 11
-117.0293927692
 21
105.3228835061
 31
0.0
 11
-117.0097976916
 21
105.5085718074
 31
0.0
 11
-116.9858590477
 21
105.6948139003
 31
0.0
 11
-116.9579700806
 21
105.8794989471
 31
0.0
 11
-116.9262719894
 21
106.0628164169
 31
0.0
 11
-116.8904414837
 21
106.2470592731
 31
0.0
 11
-116.8504370234
 21
106.4323538659
 31
0.0
 11
-116.8066047786
 21
106.6171757575
 31
0.0
 11
-116.7883462293
 21
106.6896697212
 31
0.0
  0
SPLINE
  5
487
100
AcDbEntity
  8
0
100
AcDbSpline
 62
7
  6
CONTINUOUS
 70
0
 71
3
 72
12
 73
8
 74
6
 42
0.0000001
 43
0.0000001
 44
0.0000000001
 12
-0.7538005872
 22
0.1993050875
 32
0.0
 13
-0.7344507813
 23
0.2617630475
 33
0.0
 40
0.0
 40
0.0
 40
0.0
 40
0.0
 40
0.2031922224
 40
0.4037019467
 40
0.6024734814
 40
0.8012652599
 40
1.0
 40
1.0
 40
1.0
 40
1.0
 10
-115.1362713649
 20
103.5569818749
 30
0.0
 10
-115.1873268371
 20
103.5704809561
 30
0.0
 10
-115.2885550006
 20
103.5980983646
 30
0.0
 10
-115.4389412439
 20
103.641738301
 30
0.0
 10
-115.5874983111
 20
103.6875056432
 30
0.0
 10
-115.7348216752
 20
103.7356348965
 30
0.0
 10
-115.8324604242
 20
103.7694366214
 30
0.0
 10
-115.8811140526
 20
103.7867770918
 30
0.0
 11
-115.1362713649
 21
103.5569818749
 31
0.0
 11
-115.2891115541
 21
103.5986934377
 31
0.0
 11
-115.4392520911
 21
103.6422760388
 31
0.0
 11
-115.5873611508
 21
103.6879203746
 31
0.0
 11
-115.73469186
 21
103.7360686237
 31
0.0
 11
-115.8811140526
 21
103.7867770918
 31
0.0
  0
SPLINE
  5
488
100
AcDbEntity
  8
0
100
AcDbSpline
 62
7
  6
CONTINUOUS
 70
0
 71
3
 72
9
 73
5
 74
3
 42
0.0000001
 43
0.0000001
 44
0.0000000001
 12
-0.3146349819
 22
0.1676527526
 32
0.0
 13
-0.2882787499
 23
0.2094216566
 33
0.0
 40
0.0
 40
0.0
 40
0.0
 40
0.0
 40
0.2130096085
 40
1.0
 40
1.0
 40
1.0
 40
1.0
 10
9.0902558318
 20
-80.5176900847
 30
0.0
 10
9.0679157403
 20
-80.5057862023
 30
0.0
 10
8.9639548998
 20
-80.4481719258
 30
0.0
 10
8.864335821
 20
-80.383006814
 30
0.0
 10
8.7887116189
 20
-80.3280692035
 30
0.0
 11
9.0902558318
 21
-80.5176900847
 31
0.0
 11
9.0238234236
 21
-80.4808988086
 31
0.0
 11
8.7887116189
 21
-80.3280692035
 31
0.0
  0
SPLINE
  5
489
100
AcDbEntity
  8
0
100
AcDbSpline
 62
7
  6
CONTINUOUS
 70
0
 71
3
 72
15
 73
11
 74
9
 42
0.0000001
 43
0.0000001
 44
0.0000000001
 12
-2.939478045
 22
2.135399719
 32
0.0
 13
-0.0
 23
3.6332441615
 33
0.0
 40
0.0
 40
0.0
 40
0.0
 40
0.0
 40
0.1166507875
 40
0.2400441641
 40
0.3682594671
 40
0.499036013
 40
0.6299439153
 40
0.7585448031
 40
0.8825520476
 40
1.0
 40
1.0
 40
1.0
 40
1.0
 10
8.5058689064
 20
-80.4694905597
 30
0.0
 10
8.3915714301
 20
-80.3864585401
 30
0.0
 10
8.1687992299
 20
-80.198055326
 30
0.0
 10
7.8662498098
 20
-79.8690561293
 30
0.0
 10
7.5929925062
 20
-79.4939790296
 30
0.0
 10
7.3571085782
 20
-79.0838987012
 30
0.0
 10
7.1654906878
 20
-78.650851942
 30
0.0
 10
7.0237812755
 20
-78.2075286706
 30
0.0
 10
6.9361560986
 20
-77.7670329956
 30
0.0
 10
6.9148786487
 20
-77.4743602106
 30
0.0
 10
6.9148786487
 20
-77.3321211815
 30
0.0
 11
8.5058689064
 21
-80.4694905597
 31
0.0
 11
8.1810927562
 21
-80.1971956524
 31
0.0
 11
7.8766835445
 21
-79.868069083
 31
0.0
 11
7.6017812002
 21
-79.4919929226
 31
0.0
 11
7.3646397041
 21
-79.0802589101
 31
0.0
 11
7.1723792627
 21
-78.6452294161
 31
0.0
 11
7.0307725224
 21
-78.1999662617
 31
0.0
 11
6.9440712451
 21
-77.7578385347
 31
0.0
 11
6.9148786487
 21
-77.3321211815
 31
0.0
  0
SPLINE
  5
48A
100
AcDbEntity
  8
0
100
AcDbSpline
 62
7
  6
CONTINUOUS
 70
0
 71
3
 72
12
 73
8
 74
6
 42
0.0000001
 43
0.0000001
 44
0.0000000001
 12
0.0
 22
1.603700251
 32
0.0
 13
1.3367139612
 23
0.8952521971
 33
0.0
 40
0.0
 40
0.0
 40
0.0
 40
0.0
 40
0.2479253216
 40
0.4760530084
 40
0.6849771929
 40
0.8780797933
 40
1.0
 40
1.0
 40
1.0
 40
1.0
 10
6.9148786487
 20
-77.3321211815
 30
0.0
 10
6.9148786487
 20
-77.199588548
 30
0.0
 10
6.9321210446
 20
-76.9445589805
 30
0.0
 10
7.0165229621
 20
-76.5863233854
 30
0.0
 10
7.1570568997
 20
-76.2773445561
 30
0.0
 10
7.3308194497
 20
-76.0538680686
 30
0.0
 10
7.4624753917
 20
-75.9467489254
 30
0.0
 10
7.5167995392
 20
-75.9103658144
 30
0.0
 11
6.9148786487
 21
-77.3321211815
 31
0.0
 11
6.9440712451
 21
-76.9355964247
 31
0.0
 11
7.0307725224
 21
-76.580169975
 31
0.0
 11
7.1723792627
 21
-76.2765135609
 31
0.0
 11
7.3646397041
 21
-76.0337445083
 31
0.0
 11
7.5167995392
 21
-75.9103658144
 31
0.0
  0
SPLINE
  5
48B
100
AcDbEntity
  8
0
100
AcDbSpline
 62
7
  6
CONTINUOUS
 70
0
 71
3
 72
11
 73
7
 74
5
 42
0.0000001
 43
0.0000001
 44
0.0000000001
 12
0.3585770888
 22
-0.0893745271
 32
0.0
 13
0.3641339119
 23
-0.0630224474
 33
0.0
 40
0.0
 40
0.0
 40
0.0
 40
0.0
 40
0.2843614962
 40
0.5413138567
 40
0.7772617616
 40
1.0
 40
1.0
 40
1.0
 40
1.0
 10
7.7350177524
 20
-77.7926021541
 30
0.0
 10
7.7690062582
 20
-77.8010737122
 30
0.0
 10
7.8339040112
 20
-77.8164201134
 30
0.0
 10
7.9275251915
 20
-77.8365000039
 30
0.0
 10
8.0140350275
 20
-77.8534669507
 30
0.0
 10
8.0696429293
 20
-77.8634920219
 30
0.0
 10
8.0966784446
 20
-77.8681711916
 30
0.0
 11
7.7350177524
 21
-77.7926021541
 31
0.0
 11
7.8372738278
 21
-77.816821309
 31
0.0
 11
7.9301134234
 21
-77.8367579473
 31
0.0
 11
8.0156741353
 21
-77.8535552636
 31
0.0
 11
8.0966784446
 21
-77.8681711916
 31
0.0
  0
SPLINE
  5
48C
100
AcDbEntity
  8
0
100
AcDbSpline
 62
7
  6
CONTINUOUS
 70
0
 71
3
 72
12
 73
8
 74
6
 42
0.0000001
 43
0.0000001
 44
0.0000000001
 12
-0.4846905088
 22
0.3399843163
 32
0.0
 13
-0.4301881365
 23
0.4067583948
 33
0.0
 40
0.0
 40
0.0
 40
0.0
 40
0.0
 40
0.2112889118
 40
0.4160796887
 40
0.6146197839
 40
0.8089140402
 40
1.0
 40
1.0
 40
1.0
 40
1.0
 10
7.7350177524
 20
-77.7926021541
 30
0.0
 10
7.7008811756
 20
-77.768657182
 30
0.0
 10
7.6342812741
 20
-77.7206064778
 30
0.0
 10
7.5379117874
 20
-77.6469263446
 30
0.0
 10
7.4462857124
 20
-77.5726401811
 30
0.0
 10
7.3589354761
 20
-77.4974548956
 30
0.0
 10
7.3028282896
 20
-77.4460894164
 30
0.0
 10
7.2754273186
 20
-77.4201808103
 30
0.0
 11
7.7350177524
 21
-77.7926021541
 31
0.0
 11
7.6335919974
 21
-77.7193845043
 31
0.0
 11
7.5372933933
 21
-77.6457170972
 31
0.0
 11
7.4460084543
 21
-77.5716651628
 31
0.0
 11
7.3588477108
 21
-77.4965984777
 31
0.0
 11
7.2754273186
 21
-77.4201808103
 31
0.0
  0
SPLINE
  5
48D
100
AcDbEntity
  8
0
100
AcDbSpline
 62
7
  6
CONTINUOUS
 70
0
 71
3
 72
18
 73
14
 74
12
 42
0.0000001
 43
0.0000001
 44
0.0000000001
 12
0.1278471796
 22
-1.688061552
 32
0.0
 13
0.6956974518
 23
-1.543341103
 33
0.0
 40
0.0
 40
0.0
 40
0.0
 40
0.0
 40
0.0994487293
 40
0.1982410428
 40
0.2951515135
 40
0.389225246
 40
0.480723723
 40
0.5709101839
 40
0.6599274556
 40
0.7471425123
 40
0.8326363975
 40
0.9167966359
 40
1.0
 40
1.0
 40
1.0
 40
1.0
 10
8.8205990523
 20
-79.1848642307
 30
0.0
 10
8.8248371322
 20
-79.2408227561
 30
0.0
 10
8.8347940153
 20
-79.3522627039
 30
0.0
 10
8.8542761175
 20
-79.5176948865
 30
0.0
 10
8.8781042874
 20
-79.6794939877
 30
0.0
 10
8.9059882872
 20
-79.836464724
 30
0.0
 10
8.9378025215
 20
-79.9888124084
 30
0.0
 10
8.9736225224
 20
-80.1373357845
 30
0.0
 10
9.0135031622
 20
-80.2823166836
 30
0.0
 10
9.0573210767
 20
-80.4233868641
 30
0.0
 10
9.1049511176
 20
-80.5603188981
 30
0.0
 10
9.1564635467
 20
-80.6934127428
 30
0.0
 10
9.1936808982
 20
-80.7802402265
 30
0.0
 10
9.2129756876
 20
-80.8230439503
 30
0.0
 11
8.8205990523
 21
-79.1848642307
 31
0.0
 11
8.835614282
 21
-79.352549662
 31
0.0
 11
8.8552093596
 21
-79.5186428857
 31
0.0
 11
8.8791480035
 21
-79.6809463347
 31
0.0
 11
8.9070369706
 21
-79.8377424143
 31
0.0
 11
8.9387350618
 21
-79.9893617929
 31
0.0
 11
8.9745655675
 21
-80.1377741434
 31
0.0
 11
9.0145700278
 21
-80.2830642759
 31
0.0
 11
9.0584022726
 21
-80.4240539227
 31
0.0
 11
9.1059866516
 21
-80.5607402487
 31
0.0
 11
9.1574478918
 21
-80.6935963046
 31
0.0
 11
9.2129756876
 21
-80.8230439503
 31
0.0
  0
SPLINE
  5
48E
100
AcDbEntity
  8
0
100
AcDbSpline
 62
7
  6
CONTINUOUS
 70
0
 71
3
 72
12
 73
8
 74
6
 42
0.0000001
 43
0.0000001
 44
0.0000000001
 12
-0.7538005872
 22
0.1993050875
 32
0.0
 13
-0.7344507813
 23
0.2617630475
 33
0.0
 40
0.0
 40
0.0
 40
0.0
 40
0.0
 40
0.2031922224
 40
0.4037019467
 40
0.6024734814
 40
0.8012652599
 40
1.0
 40
1.0
 40
1.0
 40
1.0
 10
10.0216289051
 20
-78.7932816035
 30
0.0
 10
9.9705734329
 20
-78.7797825223
 30
0.0
 10
9.8693452694
 20
-78.7521651138
 30
0.0
 10
9.7189590262
 20
-78.7085251774
 30
0.0
 10
9.5704019589
 20
-78.6627578352
 30
0.0
 10
9.4230785948
 20
-78.6146285819
 30
0.0
 10
9.3254398458
 20
-78.580826857
 30
0.0
 10
9.2767862175
 20
-78.5634863866
 30
0.0
 11
10.0216289051
 21
-78.7932816035
 31
0.0
 11
9.8687887159
 21
-78.7515700407
 31
0.0
 11
9.718648179
 21
-78.7079874396
 31
0.0
 11
9.5705391192
 21
-78.6623431038
 31
0.0
 11
9.42320841
 21
-78.6141948547
 31
0.0
 11
9.2767862175
 21
-78.5634863866
 31
0.0
  0
SPLINE
  5
48F
100
AcDbEntity
  8
0
100
AcDbSpline
 62
7
  6
CONTINUOUS
 70
0
 71
3
 72
15
 73
11
 74
9
 42
0.0000001
 43
0.0000001
 44
0.0000000001
 12
-0.3028204546
 22
-1.3117275403
 32
0.0
 13
-0.0945441807
 23
-1.3428814298
 33
0.0
 40
0.0
 40
0.0
 40
0.0
 40
0.0
 40
0.0284880161
 40
0.1693041686
 40
0.3087329353
 40
0.4469314246
 40
0.5856738477
 40
0.7251477792
 40
0.8638356336
 40
1.0
 40
1.0
 40
1.0
 40
1.0
 10
9.0231138564
 20
-76.8403246587
 30
0.0
 10
9.0202382717
 20
-76.8527808304
 30
0.0
 10
9.0032992992
 20
-76.9268425881
 30
0.0
 10
8.9740509267
 20
-77.0622691304
 30
0.0
 10
8.9381889897
 20
-77.246596618
 30
0.0
 10
8.9063363657
 20
-77.4307151294
 30
0.0
 10
8.8784157336
 20
-77.6154920991
 30
0.0
 10
8.8545439539
 20
-77.8010584042
 30
0.0
 10
8.8350090917
 20
-77.9859676223
 30
0.0
 10
8.8248902351
 20
-78.1089009402
 30
0.0
 10
8.8205990523
 20
-78.1698518065
 30
0.0
 11
9.0231138564
 21
-76.8403246587
 31
0.0
 11
9.0145632609
 21
-76.8777106529
 31
0.0
 11
8.9745586783
 21
-77.0630089535
 31
0.0
 11
8.9387279315
 21
-77.2472570473
 31
0.0
 11
8.9070297365
 21
-77.4305803434
 31
0.0
 11
8.8791421683
 21
-77.6152624643
 31
0.0
 11
8.8552060545
 21
-77.8014910693
 31
0.0
 11
8.8356132146
 21
-77.9871625179
 31
0.0
 11
8.8205990523
 21
-78.1698518065
 31
0.0
  0
SPLINE
  5
490
100
AcDbEntity
  8
0
100
AcDbSpline
 62
7
  6
CONTINUOUS
 70
0
 71
3
 72
10
 73
6
 74
4
 42
0.0000001
 43
0.0000001
 44
0.0000000001
 12
-0.7254473858
 22
-0.2550712496
 32
0.0
 13
-0.7391738571
 23
0.202197012
 33
0.0
 40
0.0
 40
0.0
 40
0.0
 40
0.0
 40
0.1721579651
 40
0.5706952436
 40
1.0
 40
1.0
 40
1.0
 40
1.0
 10
9.9694279385
 20
-80.8147556653
 30
0.0
 10
9.9277974233
 20
-80.8293931811
 30
0.0
 10
9.7867561091
 20
-80.8692878934
 30
0.0
 10
9.5291741062
 20
-80.888072328
 30
0.0
 10
9.3187526385
 20
-80.8519786633
 30
0.0
 10
9.2129756876
 20
-80.8230439503
 30
0.0
 11
9.9694279385
 21
-80.8147556653
 31
0.0
 11
9.8421610495
 21
-80.8508078355
 31
0.0
 11
9.5377518378
 21
-80.8755251932
 31
0.0
 11
9.2129756876
 21
-80.8230439503
 31
0.0
  0
SPLINE
  5
491
100
AcDbEntity
  8
0
100
AcDbSpline
 62
7
  6
CONTINUOUS
 70
0
 71
3
 72
12
 73
8
 74
6
 42
0.0000001
 43
0.0000001
 44
0.0000000001
 12
-0.4846905088
 22
0.3399843163
 32
0.0
 13
-0.4301881365
 23
0.4067583948
 33
0.0
 40
0.0
 40
0.0
 40
0.0
 40
0.0
 40
0.2112889118
 40
0.4160796887
 40
0.6146197839
 40
0.8089140402
 40
1.0
 40
1.0
 40
1.0
 40
1.0
 10
7.7350177524
 20
-78.3988199367
 30
0.0
 10
7.7008811756
 20
-78.3748749647
 30
0.0
 10
7.6342812741
 20
-78.3268242605
 30
0.0
 10
7.5379117874
 20
-78.2531441273
 30
0.0
 10
7.4462857124
 20
-78.1788579637
 30
0.0
 10
7.3589354761
 20
-78.1036726782
 30
0.0
 10
7.3028282896
 20
-78.052307199
 30
0.0
 10
7.2754273186
 20
-78.0263985929
 30
0.0
 11
7.7350177524
 21
-78.3988199367
 31
0.0
 11
7.6335919974
 21
-78.3256022869
 31
0.0
 11
7.5372933933
 21
-78.2519348799
 31
0.0
 11
7.4460084543
 21
-78.1778829454
 31
0.0
 11
7.3588477108
 21
-78.1028162603
 31
0.0
 11
7.2754273186
 21
-78.0263985929
 31
0.0
  0
SPLINE
  5
492
100
AcDbEntity
  8
0
100
AcDbSpline
 62
7
  6
CONTINUOUS
 70
0
 71
3
 72
18
 73
14
 74
12
 42
0.0000001
 43
0.0000001
 44
0.0000000001
 12
-0.6956974515
 22
1.5433411025
 32
0.0
 13
-0.1278471795
 23
1.6880615514
 33
0.0
 40
0.0
 40
0.0
 40
0.0
 40
0.0
 40
0.0832064168
 40
0.1673706447
 40
0.2528685759
 40
0.3400867613
 40
0.4291060942
 40
0.5192954576
 40
0.610797256
 40
0.7048699557
 40
0.8017738049
 40
0.9005573899
 40
1.0
 40
1.0
 40
1.0
 40
1.0
 10
8.5058689064
 20
-80.4694905597
 30
0.0
 10
8.486573409
 20
-80.4266852654
 30
0.0
 10
8.44935455
 20
-80.3398541014
 30
0.0
 10
8.3978401434
 20
-80.2067543087
 30
0.0
 10
8.3502085281
 20
-80.0698161485
 30
0.0
 10
8.3063897471
 20
-79.928740777
 30
0.0
 10
8.2665086993
 20
-79.7837552525
 30
0.0
 10
8.2306885163
 20
-79.6352271091
 30
0.0
 10
8.1988747366
 20
-79.4828763354
 30
0.0
 10
8.1709922572
 20
-79.3259078138
 30
0.0
 10
8.1471663213
 20
-79.1641177334
 30
0.0
 10
8.1276861348
 20
-78.9986975299
 30
0.0
 10
8.1177300902
 20
-78.8872659223
 30
0.0
 10
8.1134922711
 20
-78.8313108401
 30
0.0
 11
8.5058689064
 21
-80.4694905597
 31
0.0
 11
8.4503391588
 21
-80.3400381279
 31
0.0
 11
8.3988757578
 21
-80.2071756663
 31
0.0
 11
8.3512896193
 21
-80.0704827004
 31
0.0
 11
8.3074564797
 21
-79.9294877852
 31
0.0
 11
8.2674518971
 21
-79.7841940671
 31
0.0
 11
8.2316211503
 21
-79.6357767201
 31
0.0
 11
8.1999229554
 21
-79.4841516189
 31
0.0
 11
8.1720353871
 21
-79.3273570663
 31
0.0
 11
8.1480992733
 21
-79.1650645751
 31
0.0
 11
8.1285064334
 21
-78.9989859664
 31
0.0
 11
8.1134922711
 21
-78.8313108401
 31
0.0
  0
SPLINE
  5
493
100
AcDbEntity
  8
0
100
AcDbSpline
 62
7
  6
CONTINUOUS
 70
0
 71
3
 72
16
 73
12
 74
10
 42
0.0000001
 43
0.0000001
 44
0.0000000001
 12
0.110443242
 22
1.5687076406
 32
0.0
 13
0.3900068559
 23
1.5234884895
 33
0.0
 40
0.0
 40
0.0
 40
0.0
 40
0.0
 40
0.1165698361
 40
0.2353034304
 40
0.354707846
 40
0.4734793195
 40
0.5917795276
 40
0.7111332697
 40
0.8316756512
 40
0.9524625873
 40
1.0
 40
1.0
 40
1.0
 40
1.0
 10
8.1134922711
 20
-77.8162984159
 30
0.0
 10
8.1177837213
 20
-77.7553437518
 30
0.0
 10
8.1279034458
 20
-77.6324009987
 30
0.0
 10
8.1474402396
 20
-77.4474778637
 30
0.0
 10
8.1713142403
 20
-77.2619004827
 30
0.0
 10
8.199236359
 20
-77.0771200141
 30
0.0
 10
8.2310894169
 20
-76.8930042326
 30
0.0
 10
8.2669511729
 20
-76.7086816677
 30
0.0
 10
8.3068679853
 20
-76.5238609773
 30
0.0
 10
8.3418225805
 20
-76.3765172713
 30
0.0
 10
8.3633740684
 20
-76.2909524402
 30
0.0
 10
8.3695540407
 20
-76.2668115398
 30
0.0
 11
8.1134922711
 21
-77.8162984159
 31
0.0
 11
8.1285075008
 21
-77.6335977549
 31
0.0
 11
8.1481025784
 21
-77.4479094536
 31
0.0
 11
8.1720412223
 21
-77.2616673607
 31
0.0
 11
8.1999301894
 21
-77.0769823139
 31
0.0
 11
8.2316282806
 21
-76.8936648442
 31
0.0
 11
8.2674587863
 21
-76.709421988
 31
0.0
 11
8.3074632466
 21
-76.5241273952
 31
0.0
 11
8.3512954914
 21
-76.3393055036
 31
0.0
 11
8.3695540407
 21
-76.2668115398
 31
0.0
  0
SPLINE
  5
494
100
AcDbEntity
  8
0
100
AcDbSpline
 62
7
  6
CONTINUOUS
 70
0
 71
3
 72
12
 73
8
 74
6
 42
0.0000001
 43
0.0000001
 44
0.0000000001
 12
-0.7538005872
 22
0.1993050875
 32
0.0
 13
-0.7344507813
 23
0.2617630475
 33
0.0
 40
0.0
 40
0.0
 40
0.0
 40
0.0
 40
0.2031922224
 40
0.4037019467
 40
0.6024734814
 40
0.8012652599
 40
1.0
 40
1.0
 40
1.0
 40
1.0
 10
10.0216289051
 20
-79.3994993862
 30
0.0
 10
9.9705734329
 20
-79.386000305
 30
0.0
 10
9.8693452694
 20
-79.3583828965
 30
0.0
 10
9.7189590262
 20
-79.31474296
 30
0.0
 10
9.5704019589
 20
-79.2689756179
 30
0.0
 10
9.4230785948
 20
-79.2208463646
 30
0.0
 10
9.3254398458
 20
-79.1870446397
 30
0.0
 10
9.2767862175
 20
-79.1697041693
 30
0.0
 11
10.0216289051
 21
-79.3994993862
 31
0.0
 11
9.8687887159
 21
-79.3577878234
 31
0.0
 11
9.718648179
 21
-79.3142052222
 31
0.0
 11
9.5705391192
 21
-79.2685608865
 31
0.0
 11
9.42320841
 21
-79.2204126374
 31
0.0
 11
9.2767862175
 21
-79.1697041693
 31
0.0
  0
SPLINE
  5
495
100
AcDbEntity
  8
0
100
AcDbSpline
 62
7
  6
CONTINUOUS
 70
0
 71
3
 72
9
 73
5
 74
3
 42
0.0000001
 43
0.0000001
 44
0.0000000001
 12
-0.3146349819
 22
0.1676527526
 32
0.0
 13
-0.2882787499
 23
0.2094216566
 33
0.0
 40
0.0
 40
0.0
 40
0.0
 40
0.0
 40
0.2130096085
 40
1.0
 40
1.0
 40
1.0
 40
1.0
 10
-48.8925002255
 20
68.85121907
 30
0.0
 10
-48.914840317
 20
68.8631229524
 30
0.0
 10
-49.0188011575
 20
68.9207372289
 30
0.0
 10
-49.1184202363
 20
68.9859023407
 30
0.0
 10
-49.1940444384
 20
69.0408399512
 30
0.0
 11
-48.8925002255
 21
68.85121907
 31
0.0
 11
-48.9589326337
 21
68.8880103461
 31
0.0
 11
-49.1940444384
 21
69.0408399512
 31
0.0
  0
SPLINE
  5
496
100
AcDbEntity
  8
0
100
AcDbSpline
 62
7
  6
CONTINUOUS
 70
0
 71
3
 72
15
 73
11
 74
9
 42
0.0000001
 43
0.0000001
 44
0.0000000001
 12
-2.939478045
 22
2.135399719
 32
0.0
 13
-0.0
 23
3.6332441615
 33
0.0
 40
0.0
 40
0.0
 40
0.0
 40
0.0
 40
0.1166507875
 40
0.2400441641
 40
0.3682594671
 40
0.499036013
 40
0.6299439153
 40
0.7585448031
 40
0.8825520476
 40
1.0
 40
1.0
 40
1.0
 40
1.0
 10
-49.4768871509
 20
68.8994185949
 30
0.0
 10
-49.5911846272
 20
68.9824506146
 30
0.0
 10
-49.8139568274
 20
69.1708538287
 30
0.0
 10
-50.1165062475
 20
69.4998530254
 30
0.0
 10
-50.3897635511
 20
69.8749301251
 30
0.0
 10
-50.6256474791
 20
70.2850104535
 30
0.0
 10
-50.8172653695
 20
70.7180572127
 30
0.0
 10
-50.9589747818
 20
71.1613804841
 30
0.0
 10
-51.0465999587
 20
71.6018761591
 30
0.0
 10
-51.0678774085
 20
71.8945489441
 30
0.0
 10
-51.0678774085
 20
72.0367879732
 30
0.0
 11
-49.4768871509
 21
68.8994185949
 31
0.0
 11
-49.8016633011
 21
69.1717135023
 31
0.0
 11
-50.1060725128
 21
69.5008400717
 31
0.0
 11
-50.3809748571
 21
69.876916232
 31
0.0
 11
-50.6181163532
 21
70.2886502446
 31
0.0
 11
-50.8103767946
 21
70.7236797386
 31
0.0
 11
-50.9519835349
 21
71.168942893
 31
0.0
 11
-51.0386848122
 21
71.61107062
 31
0.0
 11
-51.0678774085
 21
72.0367879732
 31
0.0
  0
SPLINE
  5
497
100
AcDbEntity
  8
0
100
AcDbSpline
 62
7
  6
CONTINUOUS
 70
0
 71
3
 72
12
 73
8
 74
6
 42
0.0000001
 43
0.0000001
 44
0.0000000001
 12
0.0
 22
1.603700251
 32
0.0
 13
1.3367139612
 23
0.8952521971
 33
0.0
 40
0.0
 40
0.0
 40
0.0
 40
0.0
 40
0.2479253216
 40
0.4760530084
 40
0.6849771929
 40
0.8780797933
 40
1.0
 40
1.0
 40
1.0
 40
1.0
 10
-51.0678774085
 20
72.0367879732
 30
0.0
 10
-51.0678774085
 20
72.1693206067
 30
0.0
 10
-51.0506350127
 20
72.4243501742
 30
0.0
 10
-50.9662330952
 20
72.7825857693
 30
0.0
 10
-50.8256991576
 20
73.0915645986
 30
0.0
 10
-50.6519366076
 20
73.3150410861
 30
0.0
 10
-50.5202806656
 20
73.4221602293
 30
0.0
 10
-50.4659565181
 20
73.4585433403
 30
0.0
 11
-51.0678774085
 21
72.0367879732
 31
0.0
 11
-51.0386848122
 21
72.43331273
 31
0.0
 11
-50.9519835349
 21
72.7887391797
 31
0.0
 11
-50.8103767946
 21
73.0923955938
 31
0.0
 11
-50.6181163532
 21
73.3351646464
 31
0.0
 11
-50.4659565181
 21
73.4585433403
 31
0.0
  0
SPLINE
  5
498
100
AcDbEntity
  8
0
100
AcDbSpline
 62
7
  6
CONTINUOUS
 70
0
 71
3
 72
11
 73
7
 74
5
 42
0.0000001
 43
0.0000001
 44
0.0000000001
 12
0.3585770888
 22
-0.0893745271
 32
0.0
 13
0.3641339119
 23
-0.0630224474
 33
0.0
 40
0.0
 40
0.0
 40
0.0
 40
0.0
 40
0.2843614962
 40
0.5413138567
 40
0.7772617616
 40
1.0
 40
1.0
 40
1.0
 40
1.0
 10
-50.2477383049
 20
71.5763070006
 30
0.0
 10
-50.2137497991
 20
71.5678354425
 30
0.0
 10
-50.1488520461
 20
71.5524890412
 30
0.0
 10
-50.0552308658
 20
71.5324091508
 30
0.0
 10
-49.9687210298
 20
71.515442204
 30
0.0
 10
-49.913113128
 20
71.5054171327
 30
0.0
 10
-49.8860776127
 20
71.5007379631
 30
0.0
 11
-50.2477383049
 21
71.5763070006
 31
0.0
 11
-50.1454822295
 21
71.5520878457
 31
0.0
 11
-50.0526426339
 21
71.5321512074
 31
0.0
 11
-49.967081922
 21
71.5153538911
 31
0.0
 11
-49.8860776127
 21
71.5007379631
 31
0.0
  0
SPLINE
  5
499
100
AcDbEntity
  8
0
100
AcDbSpline
 62
7
  6
CONTINUOUS
 70
0
 71
3
 72
12
 73
8
 74
6
 42
0.0000001
 43
0.0000001
 44
0.0000000001
 12
-0.4846905088
 22
0.3399843163
 32
0.0
 13
-0.4301881365
 23
0.4067583948
 33
0.0
 40
0.0
 40
0.0
 40
0.0
 40
0.0
 40
0.2112889118
 40
0.4160796887
 40
0.6146197839
 40
0.8089140402
 40
1.0
 40
1.0
 40
1.0
 40
1.0
 10
-50.2477383049
 20
71.5763070006
 30
0.0
 10
-50.2818748817
 20
71.6002519727
 30
0.0
 10
-50.3484747832
 20
71.6483026769
 30
0.0
 10
-50.4448442699
 20
71.72198281
 30
0.0
 10
-50.5364703449
 20
71.7962689736
 30
0.0
 10
-50.6238205812
 20
71.8714542591
 30
0.0
 10
-50.6799277677
 20
71.9228197383
 30
0.0
 10
-50.7073287387
 20
71.9487283444
 30
0.0
 11
-50.2477383049
 21
71.5763070006
 31
0.0
 11
-50.3491640599
 21
71.6495246504
 31
0.0
 11
-50.445462664
 21
71.7231920574
 31
0.0
 11
-50.536747603
 21
71.7972439919
 31
0.0
 11
-50.6239083465
 21
71.872310677
 31
0.0
 11
-50.7073287387
 21
71.9487283444
 31
0.0
  0
SPLINE
  5
49A
100
AcDbEntity
  8
0
100
AcDbSpline
 62
7
  6
CONTINUOUS
 70
0
 71
3
 72
18
 73
14
 74
12
 42
0.0000001
 43
0.0000001
 44
0.0000000001
 12
0.1278471796
 22
-1.688061552
 32
0.0
 13
0.6956974518
 23
-1.543341103
 33
0.0
 40
0.0
 40
0.0
 40
0.0
 40
0.0
 40
0.0994487293
 40
0.1982410428
 40
0.2951515135
 40
0.389225246
 40
0.480723723
 40
0.5709101839
 40
0.6599274556
 40
0.7471425123
 40
0.8326363975
 40
0.9167966359
 40
1.0
 40
1.0
 40
1.0
 40
1.0
 10
-49.162157005
 20
70.184044924
 30
0.0
 10
-49.1579189251
 20
70.1280863986
 30
0.0
 10
-49.147962042
 20
70.0166464508
 30
0.0
 10
-49.1284799398
 20
69.8512142682
 30
0.0
 10
-49.1046517699
 20
69.689415167
 30
0.0
 10
-49.0767677701
 20
69.5324444307
 30
0.0
 10
-49.0449535358
 20
69.3800967462
 30
0.0
 10
-49.0091335349
 20
69.2315733702
 30
0.0
 10
-48.9692528951
 20
69.0865924711
 30
0.0
 10
-48.9254349806
 20
68.9455222905
 30
0.0
 10
-48.8778049397
 20
68.8085902566
 30
0.0
 10
-48.8262925106
 20
68.6754964119
 30
0.0
 10
-48.7890751591
 20
68.5886689282
 30
0.0
 10
-48.7697803697
 20
68.5458652043
 30
0.0
 11
-49.162157005
 21
70.184044924
 31
0.0
 11
-49.1471417753
 21
70.0163594927
 31
0.0
 11
-49.1275466977
 21
69.850266269
 31
0.0
 11
-49.1036080538
 21
69.68796282
 31
0.0
 11
-49.0757190867
 21
69.5311667403
 31
0.0
 11
-49.0440209955
 21
69.3795473617
 31
0.0
 11
-49.0081904898
 21
69.2311350113
 31
0.0
 11
-48.9681860295
 21
69.0858448788
 31
0.0
 11
-48.9243537847
 21
68.9448552319
 31
0.0
 11
-48.8767694057
 21
68.808168906
 31
0.0
 11
-48.8253081655
 21
68.6753128501
 31
0.0
 11
-48.7697803697
 21
68.5458652043
 31
0.0
  0
SPLINE
  5
49B
100
AcDbEntity
  8
0
100
AcDbSpline
 62
7
  6
CONTINUOUS
 70
0
 71
3
 72
12
 73
8
 74
6
 42
0.0000001
 43
0.0000001
 44
0.0000000001
 12
-0.7538005872
 22
0.1993050875
 32
0.0
 13
-0.7344507813
 23
0.2617630475
 33
0.0
 40
0.0
 40
0.0
 40
0.0
 40
0.0
 40
0.2031922224
 40
0.4037019467
 40
0.6024734814
 40
0.8012652599
 40
1.0
 40
1.0
 40
1.0
 40
1.0
 10
-47.9611271522
 20
70.5756275512
 30
0.0
 10
-48.0121826244
 20
70.5891266324
 30
0.0
 10
-48.1134107879
 20
70.6167440409
 30
0.0
 10
-48.2637970311
 20
70.6603839773
 30
0.0
 10
-48.4123540984
 20
70.7061513195
 30
0.0
 10
-48.5596774625
 20
70.7542805727
 30
0.0
 10
-48.6573162115
 20
70.7880822976
 30
0.0
 10
-48.7059698398
 20
70.805422768
 30
0.0
 11
-47.9611271522
 21
70.5756275512
 31
0.0
 11
-48.1139673414
 21
70.617339114
 31
0.0
 11
-48.2641078783
 21
70.6609217151
 31
0.0
 11
-48.4122169381
 21
70.7065660509
 31
0.0
 11
-48.5595476473
 21
70.7547143
 31
0.0
 11
-48.7059698398
 21
70.805422768
 31
0.0
  0
SPLINE
  5
49C
100
AcDbEntity
  8
0
100
AcDbSpline
 62
7
  6
CONTINUOUS
 70
0
 71
3
 72
15
 73
11
 74
9
 42
0.0000001
 43
0.0000001
 44
0.0000000001
 12
-0.3028204546
 22
-1.3117275403
 32
0.0
 13
-0.0945441807
 23
-1.3428814298
 33
0.0
 40
0.0
 40
0.0
 40
0.0
 40
0.0
 40
0.0284880161
 40
0.1693041686
 40
0.3087329353
 40
0.4469314246
 40
0.5856738477
 40
0.7251477792
 40
0.8638356336
 40
1.0
 40
1.0
 40
1.0
 40
1.0
 10
-48.9596422009
 20
72.528584496
 30
0.0
 10
-48.9625177856
 20
72.5161283242
 30
0.0
 10
-48.9794567581
 20
72.4420665666
 30
0.0
 10
-49.0087051306
 20
72.3066400243
 30
0.0
 10
-49.0445670676
 20
72.1223125367
 30
0.0
 10
-49.0764196916
 20
71.9381940253
 30
0.0
 10
-49.1043403237
 20
71.7534170556
 30
0.0
 10
-49.1282121034
 20
71.5678507504
 30
0.0
 10
-49.1477469656
 20
71.3829415324
 30
0.0
 10
-49.1578658222
 20
71.2600082145
 30
0.0
 10
-49.162157005
 20
71.1990573482
 30
0.0
 11
-48.9596422009
 21
72.528584496
 31
0.0
 11
-48.9681927964
 21
72.4911985018
 31
0.0
 11
-49.008197379
 21
72.3059002011
 31
0.0
 11
-49.0440281258
 21
72.1216521074
 31
0.0
 11
-49.0757263208
 21
71.9383288113
 31
0.0
 11
-49.103613889
 21
71.7536466904
 31
0.0
 11
-49.1275500028
 21
71.5674180854
 31
0.0
 11
-49.1471428427
 21
71.3817466368
 31
0.0
 11
-49.162157005
 21
71.1990573482
 31
0.0
  0
SPLINE
  5
49D
100
AcDbEntity
  8
0
100
AcDbSpline
 62
7
  6
CONTINUOUS
 70
0
 71
3
 72
10
 73
6
 74
4
 42
0.0000001
 43
0.0000001
 44
0.0000000001
 12
-0.7254473858
 22
-0.2550712496
 32
0.0
 13
-0.7391738571
 23
0.202197012
 33
0.0
 40
0.0
 40
0.0
 40
0.0
 40
0.0
 40
0.1721579651
 40
0.5706952436
 40
1.0
 40
1.0
 40
1.0
 40
1.0
 10
-48.0133281188
 20
68.5541534894
 30
0.0
 10
-48.054958634
 20
68.5395159736
 30
0.0
 10
-48.1959999482
 20
68.4996212613
 30
0.0
 10
-48.4535819511
 20
68.4808368267
 30
0.0
 10
-48.6640034188
 20
68.5169304914
 30
0.0
 10
-48.7697803697
 20
68.5458652043
 30
0.0
 11
-48.0133281188
 21
68.5541534894
 31
0.0
 11
-48.1405950078
 21
68.5181013192
 31
0.0
 11
-48.4450042195
 21
68.4933839615
 31
0.0
 11
-48.7697803697
 21
68.5458652043
 31
0.0
  0
SPLINE
  5
49E
100
AcDbEntity
  8
0
100
AcDbSpline
 62
7
  6
CONTINUOUS
 70
0
 71
3
 72
12
 73
8
 74
6
 42
0.0000001
 43
0.0000001
 44
0.0000000001
 12
-0.4846905088
 22
0.3399843163
 32
0.0
 13
-0.4301881365
 23
0.4067583948
 33
0.0
 40
0.0
 40
0.0
 40
0.0
 40
0.0
 40
0.2112889118
 40
0.4160796887
 40
0.6146197839
 40
0.8089140402
 40
1.0
 40
1.0
 40
1.0
 40
1.0
 10
-50.2477383049
 20
70.9700892179
 30
0.0
 10
-50.2818748817
 20
70.99403419
 30
0.0
 10
-50.3484747832
 20
71.0420848942
 30
0.0
 10
-50.4448442699
 20
71.1157650274
 30
0.0
 10
-50.5364703449
 20
71.190051191
 30
0.0
 10
-50.6238205812
 20
71.2652364765
 30
0.0
 10
-50.6799277677
 20
71.3166019557
 30
0.0
 10
-50.7073287387
 20
71.3425105618
 30
0.0
 11
-50.2477383049
 21
70.9700892179
 31
0.0
 11
-50.3491640599
 21
71.0433068678
 31
0.0
 11
-50.445462664
 21
71.1169742748
 31
0.0
 11
-50.536747603
 21
71.1910262092
 31
0.0
 11
-50.6239083465
 21
71.2660928944
 31
0.0
 11
-50.7073287387
 21
71.3425105618
 31
0.0
  0
SPLINE
  5
49F
100
AcDbEntity
  8
0
100
AcDbSpline
 62
7
  6
CONTINUOUS
 70
0
 71
3
 72
18
 73
14
 74
12
 42
0.0000001
 43
0.0000001
 44
0.0000000001
 12
-0.6956974515
 22
1.5433411025
 32
0.0
 13
-0.1278471795
 23
1.6880615514
 33
0.0
 40
0.0
 40
0.0
 40
0.0
 40
0.0
 40
0.0832064168
 40
0.1673706447
 40
0.2528685759
 40
0.3400867613
 40
0.4291060942
 40
0.5192954576
 40
0.610797256
 40
0.7048699557
 40
0.8017738049
 40
0.9005573899
 40
1.0
 40
1.0
 40
1.0
 40
1.0
 10
-49.4768871509
 20
68.8994185949
 30
0.0
 10
-49.4961826483
 20
68.9422238893
 30
0.0
 10
-49.5334015073
 20
69.0290550533
 30
0.0
 10
-49.5849159139
 20
69.162154846
 30
0.0
 10
-49.6325475291
 20
69.2990930062
 30
0.0
 10
-49.6763663102
 20
69.4401683776
 30
0.0
 10
-49.716247358
 20
69.5851539021
 30
0.0
 10
-49.752067541
 20
69.7336820456
 30
0.0
 10
-49.7838813207
 20
69.8860328193
 30
0.0
 10
-49.8117638001
 20
70.0430013408
 30
0.0
 10
-49.835589736
 20
70.2047914213
 30
0.0
 10
-49.8550699225
 20
70.3702116248
 30
0.0
 10
-49.8650259671
 20
70.4816432324
 30
0.0
 10
-49.8692637862
 20
70.5375983146
 30
0.0
 11
-49.4768871509
 21
68.8994185949
 31
0.0
 11
-49.5324168985
 21
69.0288710268
 31
0.0
 11
-49.5838802995
 21
69.1617334883
 31
0.0
 11
-49.631466438
 21
69.2984264543
 31
0.0
 11
-49.6752995776
 21
69.4394213695
 31
0.0
 11
-49.7153041602
 21
69.5847150876
 31
0.0
 11
-49.751134907
 21
69.7331324346
 31
0.0
 11
-49.7828331019
 21
69.8847575358
 31
0.0
 11
-49.8107206702
 21
70.0415520884
 31
0.0
 11
-49.834656784
 21
70.2038445796
 31
0.0
 11
-49.8542496239
 21
70.3699231883
 31
0.0
 11
-49.8692637862
 21
70.5375983146
 31
0.0
  0
SPLINE
  5
4A0
100
AcDbEntity
  8
0
100
AcDbSpline
 62
7
  6
CONTINUOUS
 70
0
 71
3
 72
16
 73
12
 74
10
 42
0.0000001
 43
0.0000001
 44
0.0000000001
 12
0.110443242
 22
1.5687076406
 32
0.0
 13
0.3900068559
 23
1.5234884895
 33
0.0
 40
0.0
 40
0.0
 40
0.0
 40
0.0
 40
0.1165698361
 40
0.2353034304
 40
0.354707846
 40
0.4734793195
 40
0.5917795276
 40
0.7111332697
 40
0.8316756512
 40
0.9524625873
 40
1.0
 40
1.0
 40
1.0
 40
1.0
 10
-49.8692637862
 20
71.5526107388
 30
0.0
 10
-49.864972336
 20
71.6135654029
 30
0.0
 10
-49.8548526115
 20
71.736508156
 30
0.0
 10
-49.8353158177
 20
71.921431291
 30
0.0
 10
-49.811441817
 20
72.107008672
 30
0.0
 10
-49.7835196983
 20
72.2917891406
 30
0.0
 10
-49.7516666404
 20
72.475904922
 30
0.0
 10
-49.7158048844
 20
72.660227487
 30
0.0
 10
-49.675888072
 20
72.8450481773
 30
0.0
 10
-49.6409334768
 20
72.9923918834
 30
0.0
 10
-49.6193819889
 20
73.0779567145
 30
0.0
 10
-49.6132020166
 20
73.1020976148
 30
0.0
 11
-49.8692637862
 21
71.5526107388
 31
0.0
 11
-49.8542485565
 21
71.7353113998
 31
0.0
 11
-49.8346534789
 21
71.9209997011
 31
0.0
 11
-49.810714835
 21
72.107241794
 31
0.0
 11
-49.7828258679
 21
72.2919268408
 31
0.0
 11
-49.7511277767
 21
72.4752443105
 31
0.0
 11
-49.715297271
 21
72.6594871667
 31
0.0
 11
-49.6752928107
 21
72.8447817595
 31
0.0
 11
-49.6314605659
 21
73.0296036511
 31
0.0
 11
-49.6132020166
 21
73.1020976148
 31
0.0
  0
SPLINE
  5
4A1
100
AcDbEntity
  8
0
100
AcDbSpline
 62
7
  6
CONTINUOUS
 70
0
 71
3
 72
12
 73
8
 74
6
 42
0.0000001
 43
0.0000001
 44
0.0000000001
 12
-0.7538005872
 22
0.1993050875
 32
0.0
 13
-0.7344507813
 23
0.2617630475
 33
0.0
 40
0.0
 40
0.0
 40
0.0
 40
0.0
 40
0.2031922224
 40
0.4037019467
 40
0.6024734814
 40
0.8012652599
 40
1.0
 40
1.0
 40
1.0
 40
1.0
 10
-47.9611271522
 20
69.9694097685
 30
0.0
 10
-48.0121826244
 20
69.9829088497
 30
0.0
 10
-48.1134107879
 20
70.0105262582
 30
0.0
 10
-48.2637970311
 20
70.0541661946
 30
0.0
 10
-48.4123540984
 20
70.0999335368
 30
0.0
 10
-48.5596774625
 20
70.1480627901
 30
0.0
 10
-48.6573162115
 20
70.181864515
 30
0.0
 10
-48.7059698398
 20
70.1992049854
 30
0.0
 11
-47.9611271522
 21
69.9694097685
 31
0.0
 11
-48.1139673414
 21
70.0111213313
 31
0.0
 11
-48.2641078783
 21
70.0547039325
 31
0.0
 11
-48.4122169381
 21
70.1003482682
 31
0.0
 11
-48.5595476473
 21
70.1484965173
 31
0.0
 11
-48.7059698398
 21
70.1992049854
 31
0.0
  0
SPLINE
  5
4A2
100
AcDbEntity
  8
0
100
AcDbSpline
 62
7
  6
CONTINUOUS
 70
0
 71
3
 72
9
 73
5
 74
3
 42
0.0000001
 43
0.0000001
 44
0.0000000001
 12
-0.3146349819
 22
0.1676527526
 32
0.0
 13
-0.2882787499
 23
0.2094216566
 33
0.0
 40
0.0
 40
0.0
 40
0.0
 40
0.0
 40
0.2130096085
 40
1.0
 40
1.0
 40
1.0
 40
1.0
 10
76.2654000445
 20
-114.105262191
 30
0.0
 10
76.243059953
 20
-114.0933583086
 30
0.0
 10
76.1390991126
 20
-114.0357440321
 30
0.0
 10
76.0394800337
 20
-113.9705789204
 30
0.0
 10
75.9638558316
 20
-113.9156413099
 30
0.0
 11
76.2654000445
 21
-114.105262191
 31
0.0
 11
76.1989676363
 21
-114.0684709149
 31
0.0
 11
75.9638558316
 21
-113.9156413099
 31
0.0
  0
SPLINE
  5
4A3
100
AcDbEntity
  8
0
100
AcDbSpline
 62
7
  6
CONTINUOUS
 70
0
 71
3
 72
15
 73
11
 74
9
 42
0.0000001
 43
0.0000001
 44
0.0000000001
 12
-2.939478045
 22
2.135399719
 32
0.0
 13
0.0
 23
3.6332441615
 33
0.0
 40
0.0
 40
0.0
 40
0.0
 40
0.0
 40
0.1166507875
 40
0.2400441641
 40
0.3682594671
 40
0.499036013
 40
0.6299439153
 40
0.7585448031
 40
0.8825520476
 40
1.0
 40
1.0
 40
1.0
 40
1.0
 10
75.6810131191
 20
-114.0570626661
 30
0.0
 10
75.5667156429
 20
-113.9740306465
 30
0.0
 10
75.3439434426
 20
-113.7856274323
 30
0.0
 10
75.0413940225
 20
-113.4566282357
 30
0.0
 10
74.7681367189
 20
-113.081551136
 30
0.0
 10
74.5322527909
 20
-112.6714708076
 30
0.0
 10
74.3406349005
 20
-112.2384240483
 30
0.0
 10
74.1989254882
 20
-111.795100777
 30
0.0
 10
74.1113003113
 20
-111.354605102
 30
0.0
 10
74.0900228615
 20
-111.0619323169
 30
0.0
 10
74.0900228615
 20
-110.9196932879
 30
0.0
 11
75.6810131191
 21
-114.0570626661
 31
0.0
 11
75.3562369689
 21
-113.7847677587
 31
0.0
 11
75.0518277572
 21
-113.4556411894
 31
0.0
 11
74.7769254129
 21
-113.079565029
 31
0.0
 11
74.5397839168
 21
-112.6678310164
 31
0.0
 11
74.3475234754
 21
-112.2328015225
 31
0.0
 11
74.2059167351
 21
-111.787538368
 31
0.0
 11
74.1192154578
 21
-111.3454106411
 31
0.0
 11
74.0900228615
 21
-110.9196932879
 31
0.0
  0
SPLINE
  5
4A4
100
AcDbEntity
  8
0
100
AcDbSpline
 62
7
  6
CONTINUOUS
 70
0
 71
3
 72
12
 73
8
 74
6
 42
0.0000001
 43
0.0000001
 44
0.0000000001
 12
0.0
 22
1.603700251
 32
0.0
 13
1.3367139612
 23
0.8952521971
 33
0.0
 40
0.0
 40
0.0
 40
0.0
 40
0.0
 40
0.2479253216
 40
0.4760530084
 40
0.6849771929
 40
0.8780797933
 40
1.0
 40
1.0
 40
1.0
 40
1.0
 10
74.0900228615
 20
-110.9196932879
 30
0.0
 10
74.0900228615
 20
-110.7871606544
 30
0.0
 10
74.1072652573
 20
-110.5321310869
 30
0.0
 10
74.1916671748
 20
-110.1738954917
 30
0.0
 10
74.3322011124
 20
-109.8649166625
 30
0.0
 10
74.5059636624
 20
-109.641440175
 30
0.0
 10
74.6376196044
 20
-109.5343210318
 30
0.0
 10
74.6919437519
 20
-109.4979379208
 30
0.0
 11
74.0900228615
 21
-110.9196932879
 31
0.0
 11
74.1192154578
 21
-110.523168531
 31
0.0
 11
74.2059167351
 21
-110.1677420813
 31
0.0
 11
74.3475234754
 21
-109.8640856672
 31
0.0
 11
74.5397839168
 21
-109.6213166147
 31
0.0
 11
74.6919437519
 21
-109.4979379208
 31
0.0
  0
SPLINE
  5
4A5
100
AcDbEntity
  8
0
100
AcDbSpline
 62
7
  6
CONTINUOUS
 70
0
 71
3
 72
11
 73
7
 74
5
 42
0.0000001
 43
0.0000001
 44
0.0000000001
 12
0.3585770888
 22
-0.0893745271
 32
0.0
 13
0.3641339119
 23
-0.0630224474
 33
0.0
 40
0.0
 40
0.0
 40
0.0
 40
0.0
 40
0.2843614962
 40
0.5413138567
 40
0.7772617616
 40
1.0
 40
1.0
 40
1.0
 40
1.0
 10
74.9101619651
 20
-111.3801742605
 30
0.0
 10
74.9441504709
 20
-111.3886458185
 30
0.0
 10
75.0090482239
 20
-111.4039922198
 30
0.0
 10
75.1026694042
 20
-111.4240721103
 30
0.0
 10
75.1891792402
 20
-111.441039057
 30
0.0
 10
75.244787142
 20
-111.4510641283
 30
0.0
 10
75.2718226574
 20
-111.455743298
 30
0.0
 11
74.9101619651
 21
-111.3801742605
 31
0.0
 11
75.0124180405
 21
-111.4043934153
 31
0.0
 11
75.1052576361
 21
-111.4243300537
 31
0.0
 11
75.1908183481
 21
-111.4411273699
 31
0.0
 11
75.2718226574
 21
-111.455743298
 31
0.0
  0
SPLINE
  5
4A6
100
AcDbEntity
  8
0
100
AcDbSpline
 62
7
  6
CONTINUOUS
 70
0
 71
3
 72
12
 73
8
 74
6
 42
0.0000001
 43
0.0000001
 44
0.0000000001
 12
-0.4846905088
 22
0.3399843163
 32
0.0
 13
-0.4301881365
 23
0.4067583948
 33
0.0
 40
0.0
 40
0.0
 40
0.0
 40
0.0
 40
0.2112889118
 40
0.4160796887
 40
0.6146197839
 40
0.8089140402
 40
1.0
 40
1.0
 40
1.0
 40
1.0
 10
74.9101619651
 20
-111.3801742605
 30
0.0
 10
74.8760253884
 20
-111.3562292884
 30
0.0
 10
74.8094254868
 20
-111.3081785842
 30
0.0
 10
74.7130560001
 20
-111.234498451
 30
0.0
 10
74.6214299252
 20
-111.1602122874
 30
0.0
 10
74.5340796888
 20
-111.0850270019
 30
0.0
 10
74.4779725023
 20
-111.0336615227
 30
0.0
 10
74.4505715313
 20
-111.0077529166
 30
0.0
 11
74.9101619651
 21
-111.3801742605
 31
0.0
 11
74.8087362101
 21
-111.3069566106
 31
0.0
 11
74.712437606
 21
-111.2332892036
 31
0.0
 11
74.621152667
 21
-111.1592372692
 31
0.0
 11
74.5339919235
 21
-111.084170584
 31
0.0
 11
74.4505715313
 21
-111.0077529166
 31
0.0
  0
SPLINE
  5
4A7
100
AcDbEntity
  8
0
100
AcDbSpline
 62
7
  6
CONTINUOUS
 70
0
 71
3
 72
18
 73
14
 74
12
 42
0.0000001
 43
0.0000001
 44
0.0000000001
 12
0.1278471796
 22
-1.688061552
 32
0.0
 13
0.6956974518
 23
-1.543341103
 33
0.0
 40
0.0
 40
0.0
 40
0.0
 40
0.0
 40
0.0994487293
 40
0.1982410428
 40
0.2951515135
 40
0.389225246
 40
0.480723723
 40
0.5709101839
 40
0.6599274556
 40
0.7471425123
 40
0.8326363975
 40
0.9167966359
 40
1.0
 40
1.0
 40
1.0
 40
1.0
 10
75.995743265
 20
-112.772436337
 30
0.0
 10
75.9999813449
 20
-112.8283948624
 30
0.0
 10
76.009938228
 20
-112.9398348102
 30
0.0
 10
76.0294203302
 20
-113.1052669929
 30
0.0
 10
76.0532485001
 20
-113.2670660941
 30
0.0
 10
76.0811324999
 20
-113.4240368303
 30
0.0
 10
76.1129467342
 20
-113.5763845148
 30
0.0
 10
76.1487667352
 20
-113.7249078909
 30
0.0
 10
76.1886473749
 20
-113.86988879
 30
0.0
 10
76.2324652895
 20
-114.0109589705
 30
0.0
 10
76.2800953303
 20
-114.1478910045
 30
0.0
 10
76.3316077594
 20
-114.2809848492
 30
0.0
 10
76.3688251109
 20
-114.3678123328
 30
0.0
 10
76.3881199003
 20
-114.4106160567
 30
0.0
 11
75.995743265
 21
-112.772436337
 31
0.0
 11
76.0107584947
 21
-112.9401217683
 31
0.0
 11
76.0303535723
 21
-113.1062149921
 31
0.0
 11
76.0542922162
 21
-113.2685184411
 31
0.0
 11
76.0821811833
 21
-113.4253145207
 31
0.0
 11
76.1138792745
 21
-113.5769338993
 31
0.0
 11
76.1497097802
 21
-113.7253462498
 31
0.0
 11
76.1897142405
 21
-113.8706363823
 31
0.0
 11
76.2335464853
 21
-114.0116260291
 31
0.0
 11
76.2811308643
 21
-114.148312355
 31
0.0
 11
76.3325921045
 21
-114.2811684109
 31
0.0
 11
76.3881199003
 21
-114.4106160567
 31
0.0
  0
SPLINE
  5
4A8
100
AcDbEntity
  8
0
100
AcDbSpline
 62
7
  6
CONTINUOUS
 70
0
 71
3
 72
12
 73
8
 74
6
 42
0.0000001
 43
0.0000001
 44
0.0000000001
 12
-0.7538005872
 22
0.1993050875
 32
0.0
 13
-0.7344507813
 23
0.2617630475
 33
0.0
 40
0.0
 40
0.0
 40
0.0
 40
0.0
 40
0.2031922224
 40
0.4037019467
 40
0.6024734814
 40
0.8012652599
 40
1.0
 40
1.0
 40
1.0
 40
1.0
 10
77.1967731178
 20
-112.3808537099
 30
0.0
 10
77.1457176457
 20
-112.3673546287
 30
0.0
 10
77.0444894821
 20
-112.3397372202
 30
0.0
 10
76.8941032389
 20
-112.2960972837
 30
0.0
 10
76.7455461716
 20
-112.2503299416
 30
0.0
 10
76.5982228075
 20
-112.2022006883
 30
0.0
 10
76.5005840586
 20
-112.1683989634
 30
0.0
 10
76.4519304302
 20
-112.151058493
 30
0.0
 11
77.1967731178
 21
-112.3808537099
 31
0.0
 11
77.0439329286
 21
-112.3391421471
 31
0.0
 11
76.8937923917
 21
-112.2955595459
 31
0.0
 11
76.7456833319
 21
-112.2499152102
 31
0.0
 11
76.5983526227
 21
-112.2017669611
 31
0.0
 11
76.4519304302
 21
-112.151058493
 31
0.0
  0
SPLINE
  5
4A9
100
AcDbEntity
  8
0
100
AcDbSpline
 62
7
  6
CONTINUOUS
 70
0
 71
3
 72
15
 73
11
 74
9
 42
0.0000001
 43
0.0000001
 44
0.0000000001
 12
-0.3028204546
 22
-1.3117275403
 32
0.0
 13
-0.0945441807
 23
-1.3428814298
 33
0.0
 40
0.0
 40
0.0
 40
0.0
 40
0.0
 40
0.0284880161
 40
0.1693041686
 40
0.3087329353
 40
0.4469314246
 40
0.5856738477
 40
0.7251477792
 40
0.8638356336
 40
1.0
 40
1.0
 40
1.0
 40
1.0
 10
76.1982580691
 20
-110.427896765
 30
0.0
 10
76.1953824845
 20
-110.4403529368
 30
0.0
 10
76.1784435119
 20
-110.5144146945
 30
0.0
 10
76.1491951395
 20
-110.6498412368
 30
0.0
 10
76.1133332024
 20
-110.8341687244
 30
0.0
 10
76.0814805784
 20
-111.0182872357
 30
0.0
 10
76.0535599463
 20
-111.2030642055
 30
0.0
 10
76.0296881666
 20
-111.3886305106
 30
0.0
 10
76.0101533044
 20
-111.5735397286
 30
0.0
 10
76.0000344479
 20
-111.6964730465
 30
0.0
 10
75.995743265
 20
-111.7574239129
 30
0.0
 11
76.1982580691
 21
-110.427896765
 31
0.0
 11
76.1897074736
 21
-110.4652827592
 31
0.0
 11
76.149702891
 21
-110.6505810599
 31
0.0
 11
76.1138721442
 21
-110.8348291537
 31
0.0
 11
76.0821739493
 21
-111.0181524498
 31
0.0
 11
76.054286381
 21
-111.2028345706
 31
0.0
 11
76.0303502672
 21
-111.3890631757
 31
0.0
 11
76.0107574273
 21
-111.5747346243
 31
0.0
 11
75.995743265
 21
-111.7574239129
 31
0.0
  0
SPLINE
  5
4AA
100
AcDbEntity
  8
0
100
AcDbSpline
 62
7
  6
CONTINUOUS
 70
0
 71
3
 72
10
 73
6
 74
4
 42
0.0000001
 43
0.0000001
 44
0.0000000001
 12
-0.7254473858
 22
-0.2550712496
 32
0.0
 13
-0.7391738571
 23
0.202197012
 33
0.0
 40
0.0
 40
0.0
 40
0.0
 40
0.0
 40
0.1721579651
 40
0.5706952436
 40
1.0
 40
1.0
 40
1.0
 40
1.0
 10
77.1445721512
 20
-114.4023277717
 30
0.0
 10
77.102941636
 20
-114.4169652875
 30
0.0
 10
76.9619003218
 20
-114.4568599997
 30
0.0
 10
76.7043183189
 20
-114.4756444343
 30
0.0
 10
76.4938968512
 20
-114.4395507697
 30
0.0
 10
76.3881199003
 20
-114.4106160567
 30
0.0
 11
77.1445721512
 21
-114.4023277717
 31
0.0
 11
77.0173052622
 21
-114.4383799419
 31
0.0
 11
76.7128960505
 21
-114.4630972995
 31
0.0
 11
76.3881199003
 21
-114.4106160567
 31
0.0
  0
SPLINE
  5
4AB
100
AcDbEntity
  8
0
100
AcDbSpline
 62
7
  6
CONTINUOUS
 70
0
 71
3
 72
12
 73
8
 74
6
 42
0.0000001
 43
0.0000001
 44
0.0000000001
 12
-0.4846905088
 22
0.3399843163
 32
0.0
 13
-0.4301881365
 23
0.4067583948
 33
0.0
 40
0.0
 40
0.0
 40
0.0
 40
0.0
 40
0.2112889118
 40
0.4160796887
 40
0.6146197839
 40
0.8089140402
 40
1.0
 40
1.0
 40
1.0
 40
1.0
 10
74.9101619651
 20
-111.9863920431
 30
0.0
 10
74.8760253884
 20
-111.962447071
 30
0.0
 10
74.8094254868
 20
-111.9143963668
 30
0.0
 10
74.7130560001
 20
-111.8407162337
 30
0.0
 10
74.6214299252
 20
-111.7664300701
 30
0.0
 10
74.5340796888
 20
-111.6912447846
 30
0.0
 10
74.4779725023
 20
-111.6398793054
 30
0.0
 10
74.4505715313
 20
-111.6139706993
 30
0.0
 11
74.9101619651
 21
-111.9863920431
 31
0.0
 11
74.8087362101
 21
-111.9131743933
 31
0.0
 11
74.712437606
 21
-111.8395069862
 31
0.0
 11
74.621152667
 21
-111.7654550518
 31
0.0
 11
74.5339919235
 21
-111.6903883667
 31
0.0
 11
74.4505715313
 21
-111.6139706993
 31
0.0
  0
SPLINE
  5
4AC
100
AcDbEntity
  8
0
100
AcDbSpline
 62
7
  6
CONTINUOUS
 70
0
 71
3
 72
18
 73
14
 74
12
 42
0.0000001
 43
0.0000001
 44
0.0000000001
 12
-0.6956974515
 22
1.5433411025
 32
0.0
 13
-0.1278471795
 23
1.6880615514
 33
0.0
 40
0.0
 40
0.0
 40
0.0
 40
0.0
 40
0.0832064168
 40
0.1673706447
 40
0.2528685759
 40
0.3400867613
 40
0.4291060942
 40
0.5192954576
 40
0.610797256
 40
0.7048699557
 40
0.8017738049
 40
0.9005573899
 40
1.0
 40
1.0
 40
1.0
 40
1.0
 10
75.6810131191
 20
-114.0570626661
 30
0.0
 10
75.6617176218
 20
-114.0142573718
 30
0.0
 10
75.6244987627
 20
-113.9274262078
 30
0.0
 10
75.5729843562
 20
-113.7943264151
 30
0.0
 10
75.5253527409
 20
-113.6573882548
 30
0.0
 10
75.4815339598
 20
-113.5163128834
 30
0.0
 10
75.441652912
 20
-113.3713273589
 30
0.0
 10
75.405832729
 20
-113.2227992155
 30
0.0
 10
75.3740189493
 20
-113.0704484417
 30
0.0
 10
75.34613647
 20
-112.9134799202
 30
0.0
 10
75.322310534
 20
-112.7516898397
 30
0.0
 10
75.3028303475
 20
-112.5862696362
 30
0.0
 10
75.2928743029
 20
-112.4748380287
 30
0.0
 10
75.2886364838
 20
-112.4188829464
 30
0.0
 11
75.6810131191
 21
-114.0570626661
 31
0.0
 11
75.6254833715
 21
-113.9276102342
 31
0.0
 11
75.5740199705
 21
-113.7947477727
 31
0.0
 11
75.526433832
 21
-113.6580548067
 31
0.0
 11
75.4826006924
 21
-113.5170598915
 31
0.0
 11
75.4425961098
 21
-113.3717661734
 31
0.0
 11
75.406765363
 21
-113.2233488265
 31
0.0
 11
75.3750671681
 21
-113.0717237253
 31
0.0
 11
75.3471795998
 21
-112.9149291727
 31
0.0
 11
75.323243486
 21
-112.7526366815
 31
0.0
 11
75.3036506461
 21
-112.5865580727
 31
0.0
 11
75.2886364838
 21
-112.4188829464
 31
0.0
  0
SPLINE
  5
4AD
100
AcDbEntity
  8
0
100
AcDbSpline
 62
7
  6
CONTINUOUS
 70
0
 71
3
 72
16
 73
12
 74
10
 42
0.0000001
 43
0.0000001
 44
0.0000000001
 12
0.110443242
 22
1.5687076406
 32
0.0
 13
0.3900068559
 23
1.5234884895
 33
0.0
 40
0.0
 40
0.0
 40
0.0
 40
0.0
 40
0.1165698361
 40
0.2353034304
 40
0.354707846
 40
0.4734793195
 40
0.5917795276
 40
0.7111332697
 40
0.8316756512
 40
0.9524625873
 40
1.0
 40
1.0
 40
1.0
 40
1.0
 10
75.2886364838
 20
-111.4038705223
 30
0.0
 10
75.292927934
 20
-111.3429158581
 30
0.0
 10
75.3030476585
 20
-111.2199731051
 30
0.0
 10
75.3225844523
 20
-111.0350499701
 30
0.0
 10
75.346458453
 20
-110.8494725891
 30
0.0
 10
75.3743805717
 20
-110.6646921204
 30
0.0
 10
75.4062336296
 20
-110.480576339
 30
0.0
 10
75.4420953856
 20
-110.2962537741
 30
0.0
 10
75.482012198
 20
-110.1114330837
 30
0.0
 10
75.5169667932
 20
-109.9640893777
 30
0.0
 10
75.5385182811
 20
-109.8785245466
 30
0.0
 10
75.5446982534
 20
-109.8543836462
 30
0.0
 11
75.2886364838
 21
-111.4038705223
 31
0.0
 11
75.3036517135
 21
-111.2211698613
 31
0.0
 11
75.3232467911
 21
-111.03548156
 31
0.0
 11
75.347185435
 21
-110.8492394671
 31
0.0
 11
75.3750744022
 21
-110.6645544203
 31
0.0
 11
75.4067724933
 21
-110.4812369505
 31
0.0
 11
75.4426029991
 21
-110.2969940943
 31
0.0
 11
75.4826074593
 21
-110.1116995016
 31
0.0
 11
75.5264397041
 21
-109.9268776099
 31
0.0
 11
75.5446982534
 21
-109.8543836462
 31
0.0
  0
SPLINE
  5
4AE
100
AcDbEntity
  8
0
100
AcDbSpline
 62
7
  6
CONTINUOUS
 70
0
 71
3
 72
12
 73
8
 74
6
 42
0.0000001
 43
0.0000001
 44
0.0000000001
 12
-0.7538005872
 22
0.1993050875
 32
0.0
 13
-0.7344507813
 23
0.2617630475
 33
0.0
 40
0.0
 40
0.0
 40
0.0
 40
0.0
 40
0.2031922224
 40
0.4037019467
 40
0.6024734814
 40
0.8012652599
 40
1.0
 40
1.0
 40
1.0
 40
1.0
 10
77.1967731178
 20
-112.9870714925
 30
0.0
 10
77.1457176457
 20
-112.9735724113
 30
0.0
 10
77.0444894821
 20
-112.9459550028
 30
0.0
 10
76.8941032389
 20
-112.9023150664
 30
0.0
 10
76.7455461716
 20
-112.8565477242
 30
0.0
 10
76.5982228075
 20
-112.8084184709
 30
0.0
 10
76.5005840586
 20
-112.7746167461
 30
0.0
 10
76.4519304302
 20
-112.7572762757
 30
0.0
 11
77.1967731178
 21
-112.9870714925
 31
0.0
 11
77.0439329286
 21
-112.9453599297
 31
0.0
 11
76.8937923917
 21
-112.9017773286
 31
0.0
 11
76.7456833319
 21
-112.8561329928
 31
0.0
 11
76.5983526227
 21
-112.8079847437
 31
0.0
 11
76.4519304302
 21
-112.7572762757
 31
0.0
  0
SPLINE
  5
4AF
100
AcDbEntity
  8
0
100
AcDbSpline
 62
7
  6
CONTINUOUS
 70
0
 71
3
 72
9
 73
5
 74
3
 42
0.0000001
 43
0.0000001
 44
0.0000000001
 12
-0.3146349819
 22
0.1676527526
 32
0.0
 13
-0.2882787499
 23
0.2094216566
 33
0.0
 40
0.0
 40
0.0
 40
0.0
 40
0.0
 40
0.2130096085
 40
1.0
 40
1.0
 40
1.0
 40
1.0
 10
76.2654000445
 20
6.272268935
 30
0.0
 10
76.243059953
 20
6.2841728174
 30
0.0
 10
76.1390991126
 20
6.3417870939
 30
0.0
 10
76.0394800337
 20
6.4069522057
 30
0.0
 10
75.9638558316
 20
6.4618898162
 30
0.0
 11
76.2654000445
 21
6.272268935
 31
0.0
 11
76.1989676363
 21
6.3090602111
 31
0.0
 11
75.9638558316
 21
6.4618898162
 31
0.0
  0
SPLINE
  5
4B0
100
AcDbEntity
  8
0
100
AcDbSpline
 62
7
  6
CONTINUOUS
 70
0
 71
3
 72
13
 73
9
 74
7
 42
0.0000001
 43
0.0000001
 44
0.0000000001
 12
1.5772464025
 22
-0.7791798562
 32
0.0
 13
0.6381661676
 23
-1.6383254741
 33
0.0
 40
0.0
 40
0.0
 40
0.0
 40
0.0
 40
0.0282650615
 40
0.2301612158
 40
0.4365151198
 40
0.6414367455
 40
0.8382365282
 40
1.0
 40
1.0
 40
1.0
 40
1.0
 10
95.6267946616
 20
19.3168567884
 30
0.0
 10
95.6416549838
 20
19.3095155995
 30
0.0
 10
95.7618886147
 20
19.2481844691
 30
0.0
 10
95.977597121
 20
19.1090197794
 30
0.0
 10
96.2472131464
 20
18.8700457018
 30
0.0
 10
96.4790218876
 20
18.598365718
 30
0.0
 10
96.6582377867
 20
18.320160105
 30
0.0
 10
96.7482772104
 20
18.129822376
 30
0.0
 10
96.7826878686
 20
18.0414819705
 30
0.0
 11
95.6267946616
 21
19.3168567884
 31
0.0
 11
95.671087701
 21
19.2942703291
 31
0.0
 11
95.9699573525
 21
19.1033592877
 31
0.0
 11
96.2417870851
 21
18.8635805043
 31
0.0
 11
96.4755149772
 21
18.5898305984
 31
0.0
 11
96.6621508143
 21
18.2988533063
 31
0.0
 11
96.7826878686
 21
18.0414819705
 31
0.0
  0
SPLINE
  5
4B1
100
AcDbEntity
  8
0
100
AcDbSpline
 62
7
  6
CONTINUOUS
 70
0
 71
3
 72
11
 73
7
 74
5
 42
0.0000001
 43
0.0000001
 44
0.0000000001
 12
0.5795434714
 22
-0.2102857109
 32
0.0
 13
0.4806731625
 23
-0.3856132293
 33
0.0
 40
0.0
 40
0.0
 40
0.0
 40
0.0
 40
0.0544786257
 40
0.4685428718
 40
0.8754400199
 40
1.0
 40
1.0
 40
1.0
 40
1.0
 10
95.9976308965
 20
19.8098489303
 30
0.0
 10
96.0081551405
 20
19.8060302382
 30
0.0
 10
96.0983254111
 20
19.7722481119
 30
0.0
 10
96.2610599493
 20
19.6944861584
 30
0.0
 10
96.4239175369
 20
19.5879296778
 30
0.0
 10
96.5103116017
 20
19.5211625196
 30
0.0
 10
96.5302691482
 20
19.5051518609
 30
0.0
 11
95.9976308965
 21
19.8098489303
 31
0.0
 11
96.0290822265
 21
19.7980684304
 31
0.0
 11
96.2595420312
 21
19.6888645603
 31
0.0
 11
96.4695318726
 21
19.5520819517
 31
0.0
 11
96.5302691482
 21
19.5051518609
 31
0.0
  0
SPLINE
  5
4B2
100
AcDbEntity
  8
0
100
AcDbSpline
 62
7
  6
CONTINUOUS
 70
0
 71
3
 72
12
 73
8
 74
6
 42
0.0000001
 43
0.0000001
 44
0.0000000001
 12
0.7102149643
 22
-0.5697598852
 32
0.0
 13
0.3629237571
 23
-0.8345245342
 33
0.0
 40
0.0
 40
0.0
 40
0.0
 40
0.0
 40
0.180010187
 40
0.4265761774
 40
0.6489740782
 40
0.8415822725
 40
1.0
 40
1.0
 40
1.0
 40
1.0
 10
96.5302691482
 20
19.5051518609
 30
0.0
 10
96.5728844577
 20
19.4709643331
 30
0.0
 10
96.6707270157
 20
19.3860361348
 30
0.0
 10
96.8075445009
 20
19.2440093757
 30
0.0
 10
96.9318742227
 20
19.0860595885
 30
0.0
 10
97.0258580817
 20
18.9393930293
 30
0.0
 10
97.0743195588
 20
18.8443199528
 30
0.0
 10
97.0934840777
 20
18.800252126
 30
0.0
 11
96.5302691482
 21
19.5051518609
 31
0.0
 11
96.6540525098
 21
19.3977862423
 31
0.0
 11
96.8096722094
 21
19.2361403345
 31
0.0
 11
96.9346085554
 21
19.0769183571
 31
0.0
 11
97.0287307062
 21
18.9290553486
 31
0.0
 11
97.0934840777
 21
18.800252126
 31
0.0
  0
SPLINE
  5
4B3
100
AcDbEntity
  8
0
100
AcDbSpline
 62
7
  6
CONTINUOUS
 70
0
 71
3
 72
15
 73
11
 74
9
 42
0.0000001
 43
0.0000001
 44
0.0000000001
 12
-2.939478045
 22
2.135399719
 32
0.0
 13
0.0
 23
3.6332441615
 33
0.0
 40
0.0
 40
0.0
 40
0.0
 40
0.0
 40
0.1166507875
 40
0.2400441641
 40
0.3682594671
 40
0.499036013
 40
0.6299439153
 40
0.7585448031
 40
0.8825520476
 40
1.0
 40
1.0
 40
1.0
 40
1.0
 10
75.6810131191
 20
6.3204684599
 30
0.0
 10
75.5667156429
 20
6.4035004796
 30
0.0
 10
75.3439434426
 20
6.5919036937
 30
0.0
 10
75.0413940225
 20
6.9209028904
 30
0.0
 10
74.7681367189
 20
7.2959799901
 30
0.0
 10
74.5322527909
 20
7.7060603185
 30
0.0
 10
74.3406349005
 20
8.1391070777
 30
0.0
 10
74.1989254882
 20
8.5824303491
 30
0.0
 10
74.1113003113
 20
9.0229260241
 30
0.0
 10
74.0900228615
 20
9.3155988091
 30
0.0
 10
74.0900228615
 20
9.4578378382
 30
0.0
 11
75.6810131191
 21
6.3204684599
 31
0.0
 11
75.3562369689
 21
6.5927633673
 31
0.0
 11
75.0518277572
 21
6.9218899366
 31
0.0
 11
74.7769254129
 21
7.297966097
 31
0.0
 11
74.5397839168
 21
7.7097001096
 31
0.0
 11
74.3475234754
 21
8.1447296036
 31
0.0
 11
74.2059167351
 21
8.589992758
 31
0.0
 11
74.1192154578
 21
9.032120485
 31
0.0
 11
74.0900228615
 21
9.4578378382
 31
0.0
  0
SPLINE
  5
4B4
100
AcDbEntity
  8
0
100
AcDbSpline
 62
7
  6
CONTINUOUS
 70
0
 71
3
 72
12
 73
8
 74
6
 42
0.0000001
 43
0.0000001
 44
0.0000000001
 12
0.0
 22
1.603700251
 32
0.0
 13
1.3367139612
 23
0.8952521971
 33
0.0
 40
0.0
 40
0.0
 40
0.0
 40
0.0
 40
0.2479253216
 40
0.4760530084
 40
0.6849771929
 40
0.8780797933
 40
1.0
 40
1.0
 40
1.0
 40
1.0
 10
74.0900228615
 20
9.4578378382
 30
0.0
 10
74.0900228615
 20
9.5903704717
 30
0.0
 10
74.1072652573
 20
9.8454000391
 30
0.0
 10
74.1916671748
 20
10.2036356343
 30
0.0
 10
74.3322011124
 20
10.5126144636
 30
0.0
 10
74.5059636624
 20
10.7360909511
 30
0.0
 10
74.6376196044
 20
10.8432100943
 30
0.0
 10
74.6919437519
 20
10.8795932053
 30
0.0
 11
74.0900228615
 21
9.4578378382
 31
0.0
 11
74.1192154578
 21
9.854362595
 31
0.0
 11
74.2059167351
 21
10.2097890447
 31
0.0
 11
74.3475234754
 21
10.5134454588
 31
0.0
 11
74.5397839168
 21
10.7562145113
 31
0.0
 11
74.6919437519
 21
10.8795932053
 31
0.0
  0
SPLINE
  5
4B5
100
AcDbEntity
  8
0
100
AcDbSpline
 62
7
  6
CONTINUOUS
 70
0
 71
3
 72
11
 73
7
 74
5
 42
0.0000001
 43
0.0000001
 44
0.0000000001
 12
0.3585770888
 22
-0.0893745271
 32
0.0
 13
0.3641339119
 23
-0.0630224474
 33
0.0
 40
0.0
 40
0.0
 40
0.0
 40
0.0
 40
0.2843614962
 40
0.5413138567
 40
0.7772617616
 40
1.0
 40
1.0
 40
1.0
 40
1.0
 10
74.9101619651
 20
8.9973568656
 30
0.0
 10
74.9441504709
 20
8.9888853075
 30
0.0
 10
75.0090482239
 20
8.9735389062
 30
0.0
 10
75.1026694042
 20
8.9534590158
 30
0.0
 10
75.1891792402
 20
8.936492069
 30
0.0
 10
75.244787142
 20
8.9264669977
 30
0.0
 10
75.2718226574
 20
8.9217878281
 30
0.0
 11
74.9101619651
 21
8.9973568656
 31
0.0
 11
75.0124180405
 21
8.9731377107
 31
0.0
 11
75.1052576361
 21
8.9532010724
 31
0.0
 11
75.1908183481
 21
8.9364037561
 31
0.0
 11
75.2718226574
 21
8.9217878281
 31
0.0
  0
SPLINE
  5
4B6
100
AcDbEntity
  8
0
100
AcDbSpline
 62
7
  6
CONTINUOUS
 70
0
 71
3
 72
12
 73
8
 74
6
 42
0.0000001
 43
0.0000001
 44
0.0000000001
 12
-0.4846905088
 22
0.3399843163
 32
0.0
 13
-0.4301881365
 23
0.4067583948
 33
0.0
 40
0.0
 40
0.0
 40
0.0
 40
0.0
 40
0.2112889118
 40
0.4160796887
 40
0.6146197839
 40
0.8089140402
 40
1.0
 40
1.0
 40
1.0
 40
1.0
 10
74.9101619651
 20
8.9973568656
 30
0.0
 10
74.8760253884
 20
9.0213018377
 30
0.0
 10
74.8094254868
 20
9.0693525419
 30
0.0
 10
74.7130560001
 20
9.143032675
 30
0.0
 10
74.6214299252
 20
9.2173188386
 30
0.0
 10
74.5340796888
 20
9.2925041241
 30
0.0
 10
74.4779725023
 20
9.3438696033
 30
0.0
 10
74.4505715313
 20
9.3697782094
 30
0.0
 11
74.9101619651
 21
8.9973568656
 31
0.0
 11
74.8087362101
 21
9.0705745154
 31
0.0
 11
74.712437606
 21
9.1442419224
 31
0.0
 11
74.621152667
 21
9.2182938569
 31
0.0
 11
74.5339919235
 21
9.293360542
 31
0.0
 11
74.4505715313
 21
9.3697782094
 31
0.0
  0
SPLINE
  5
4B7
100
AcDbEntity
  8
0
100
AcDbSpline
 62
7
  6
CONTINUOUS
 70
0
 71
3
 72
18
 73
14
 74
12
 42
0.0000001
 43
0.0000001
 44
0.0000000001
 12
0.1278471796
 22
-1.688061552
 32
0.0
 13
0.6956974518
 23
-1.543341103
 33
0.0
 40
0.0
 40
0.0
 40
0.0
 40
0.0
 40
0.0994487293
 40
0.1982410428
 40
0.2951515135
 40
0.389225246
 40
0.480723723
 40
0.5709101839
 40
0.6599274556
 40
0.7471425123
 40
0.8326363975
 40
0.9167966359
 40
1.0
 40
1.0
 40
1.0
 40
1.0
 10
75.995743265
 20
7.605094789
 30
0.0
 10
75.9999813449
 20
7.5491362636
 30
0.0
 10
76.009938228
 20
7.4376963158
 30
0.0
 10
76.0294203302
 20
7.2722641332
 30
0.0
 10
76.0532485001
 20
7.110465032
 30
0.0
 10
76.0811324999
 20
6.9534942957
 30
0.0
 10
76.1129467342
 20
6.8011466112
 30
0.0
 10
76.1487667352
 20
6.6526232351
 30
0.0
 10
76.1886473749
 20
6.5076423361
 30
0.0
 10
76.2324652895
 20
6.3665721555
 30
0.0
 10
76.2800953303
 20
6.2296401216
 30
0.0
 10
76.3316077594
 20
6.0965462769
 30
0.0
 10
76.3688251109
 20
6.0097187932
 30
0.0
 10
76.3881199003
 20
5.9669150693
 30
0.0
 11
75.995743265
 21
7.605094789
 31
0.0
 11
76.0107584947
 21
7.4374093577
 31
0.0
 11
76.0303535723
 21
7.271316134
 31
0.0
 11
76.0542922162
 21
7.109012685
 31
0.0
 11
76.0821811833
 21
6.9522166053
 31
0.0
 11
76.1138792745
 21
6.8005972267
 31
0.0
 11
76.1497097802
 21
6.6521848763
 31
0.0
 11
76.1897142405
 21
6.5068947437
 31
0.0
 11
76.2335464853
 21
6.3659050969
 31
0.0
 11
76.2811308643
 21
6.229218771
 31
0.0
 11
76.3325921045
 21
6.0963627151
 31
0.0
 11
76.3881199003
 21
5.9669150693
 31
0.0
  0
SPLINE
  5
4B8
100
AcDbEntity
  8
0
100
AcDbSpline
 62
7
  6
CONTINUOUS
 70
0
 71
3
 72
12
 73
8
 74
6
 42
0.0000001
 43
0.0000001
 44
0.0000000001
 12
-0.7538005872
 22
0.1993050875
 32
0.0
 13
-0.7344507813
 23
0.2617630475
 33
0.0
 40
0.0
 40
0.0
 40
0.0
 40
0.0
 40
0.2031922224
 40
0.4037019467
 40
0.6024734814
 40
0.8012652599
 40
1.0
 40
1.0
 40
1.0
 40
1.0
 10
77.1967731178
 20
7.9966774161
 30
0.0
 10
77.1457176457
 20
8.0101764974
 30
0.0
 10
77.0444894821
 20
8.0377939058
 30
0.0
 10
76.8941032389
 20
8.0814338423
 30
0.0
 10
76.7455461716
 20
8.1272011845
 30
0.0
 10
76.5982228075
 20
8.1753304377
 30
0.0
 10
76.5005840586
 20
8.2091321626
 30
0.0
 10
76.4519304302
 20
8.226472633
 30
0.0
 11
77.1967731178
 21
7.9966774161
 31
0.0
 11
77.0439329286
 21
8.038388979
 31
0.0
 11
76.8937923917
 21
8.0819715801
 31
0.0
 11
76.7456833319
 21
8.1276159159
 31
0.0
 11
76.5983526227
 21
8.175764165
 31
0.0
 11
76.4519304302
 21
8.226472633
 31
0.0
  0
SPLINE
  5
4B9
100
AcDbEntity
  8
0
100
AcDbSpline
 62
7
  6
CONTINUOUS
 70
0
 71
3
 72
15
 73
11
 74
9
 42
0.0000001
 43
0.0000001
 44
0.0000000001
 12
-0.3028204546
 22
-1.3117275403
 32
0.0
 13
-0.0945441807
 23
-1.3428814298
 33
0.0
 40
0.0
 40
0.0
 40
0.0
 40
0.0
 40
0.0284880161
 40
0.1693041686
 40
0.3087329353
 40
0.4469314246
 40
0.5856738477
 40
0.7251477792
 40
0.8638356336
 40
1.0
 40
1.0
 40
1.0
 40
1.0
 10
76.1982580691
 20
9.949634361
 30
0.0
 10
76.1953824845
 20
9.9371781892
 30
0.0
 10
76.1784435119
 20
9.8631164316
 30
0.0
 10
76.1491951395
 20
9.7276898893
 30
0.0
 10
76.1133332024
 20
9.5433624016
 30
0.0
 10
76.0814805784
 20
9.3592438903
 30
0.0
 10
76.0535599463
 20
9.1744669205
 30
0.0
 10
76.0296881666
 20
8.9889006154
 30
0.0
 10
76.0101533044
 20
8.8039913974
 30
0.0
 10
76.0000344479
 20
8.6810580795
 30
0.0
 10
75.995743265
 20
8.6201072132
 30
0.0
 11
76.1982580691
 21
9.949634361
 31
0.0
 11
76.1897074736
 21
9.9122483668
 31
0.0
 11
76.149702891
 21
9.7269500661
 31
0.0
 11
76.1138721442
 21
9.5427019724
 31
0.0
 11
76.0821739493
 21
9.3593786762
 31
0.0
 11
76.054286381
 21
9.1746965554
 31
0.0
 11
76.0303502672
 21
8.9884679504
 31
0.0
 11
76.0107574273
 21
8.8027965017
 31
0.0
 11
75.995743265
 21
8.6201072132
 31
0.0
  0
SPLINE
  5
4BA
100
AcDbEntity
  8
0
100
AcDbSpline
 62
7
  6
CONTINUOUS
 70
0
 71
3
 72
10
 73
6
 74
4
 42
0.0000001
 43
0.0000001
 44
0.0000000001
 12
-0.7254473858
 22
-0.2550712496
 32
0.0
 13
-0.7391738571
 23
0.202197012
 33
0.0
 40
0.0
 40
0.0
 40
0.0
 40
0.0
 40
0.1721579651
 40
0.5706952436
 40
1.0
 40
1.0
 40
1.0
 40
1.0
 10
77.1445721512
 20
5.9752033543
 30
0.0
 10
77.102941636
 20
5.9605658386
 30
0.0
 10
76.9619003218
 20
5.9206711263
 30
0.0
 10
76.7043183189
 20
5.9018866917
 30
0.0
 10
76.4938968512
 20
5.9379803563
 30
0.0
 10
76.3881199003
 20
5.9669150693
 30
0.0
 11
77.1445721512
 21
5.9752033543
 31
0.0
 11
77.0173052622
 21
5.9391511841
 31
0.0
 11
76.7128960505
 21
5.9144338265
 31
0.0
 11
76.3881199003
 21
5.9669150693
 31
0.0
  0
SPLINE
  5
4BB
100
AcDbEntity
  8
0
100
AcDbSpline
 62
7
  6
CONTINUOUS
 70
0
 71
3
 72
14
 73
10
 74
8
 42
0.0000001
 43
0.0000001
 44
0.0000000001
 12
1.3121453386
 22
-0.4764541031
 32
0.0
 13
0.6774911067
 23
-1.2189329192
 33
0.0
 40
0.0
 40
0.0
 40
0.0
 40
0.0
 40
0.0275952859
 40
0.2123173457
 40
0.393688469
 40
0.5675001021
 40
0.7292616917
 40
0.8746735315
 40
1.0
 40
1.0
 40
1.0
 40
1.0
 10
95.9272639105
 20
19.7743693759
 30
0.0
 10
95.9393335858
 20
19.7699867468
 30
0.0
 10
96.0317932398
 20
19.73516134
 30
0.0
 10
96.1972055533
 20
19.6553575021
 30
0.0
 10
96.4071451803
 20
19.5166300753
 30
0.0
 10
96.5909480241
 20
19.3610471487
 30
0.0
 10
96.7454098381
 20
19.1988280794
 30
0.0
 10
96.8689170993
 20
19.0397981033
 30
0.0
 10
96.9361690041
 20
18.9331282715
 30
0.0
 10
96.9644715267
 20
18.8822067522
 30
0.0
 11
95.9272639105
 21
19.7743693759
 31
0.0
 11
95.9633129568
 21
19.7607953589
 31
0.0
 11
96.1956947438
 21
19.649622738
 31
0.0
 11
96.4070015465
 21
19.5106108722
 31
0.0
 11
96.5921337865
 21
19.3541527286
 31
0.0
 11
96.7476302439
 21
19.1907212468
 31
0.0
 11
96.8717502894
 21
19.0303589625
 31
0.0
 11
96.9644715267
 21
18.8822067522
 31
0.0
  0
SPLINE
  5
4BC
100
AcDbEntity
  8
0
100
AcDbSpline
 62
7
  6
CONTINUOUS
 70
0
 71
3
 72
12
 73
8
 74
6
 42
0.0000001
 43
0.0000001
 44
0.0000000001
 12
-0.4846905088
 22
0.3399843163
 32
0.0
 13
-0.4301881365
 23
0.4067583948
 33
0.0
 40
0.0
 40
0.0
 40
0.0
 40
0.0
 40
0.2112889118
 40
0.4160796887
 40
0.6146197839
 40
0.8089140402
 40
1.0
 40
1.0
 40
1.0
 40
1.0
 10
74.9101619651
 20
8.3911390829
 30
0.0
 10
74.8760253884
 20
8.415084055
 30
0.0
 10
74.8094254868
 20
8.4631347592
 30
0.0
 10
74.7130560001
 20
8.5368148924
 30
0.0
 10
74.6214299252
 20
8.611101056
 30
0.0
 10
74.5340796888
 20
8.6862863415
 30
0.0
 10
74.4779725023
 20
8.7376518207
 30
0.0
 10
74.4505715313
 20
8.7635604268
 30
0.0
 11
74.9101619651
 21
8.3911390829
 31
0.0
 11
74.8087362101
 21
8.4643567328
 31
0.0
 11
74.712437606
 21
8.5380241398
 31
0.0
 11
74.621152667
 21
8.6120760742
 31
0.0
 11
74.5339919235
 21
8.6871427594
 31
0.0
 11
74.4505715313
 21
8.7635604268
 31
0.0
  0
SPLINE
  5
4BD
100
AcDbEntity
  8
0
100
AcDbSpline
 62
7
  6
CONTINUOUS
 70
0
 71
3
 72
18
 73
14
 74
12
 42
0.0000001
 43
0.0000001
 44
0.0000000001
 12
-0.6956974515
 22
1.5433411025
 32
0.0
 13
-0.1278471795
 23
1.6880615514
 33
0.0
 40
0.0
 40
0.0
 40
0.0
 40
0.0
 40
0.0832064168
 40
0.1673706447
 40
0.2528685759
 40
0.3400867613
 40
0.4291060942
 40
0.5192954576
 40
0.610797256
 40
0.7048699557
 40
0.8017738049
 40
0.9005573899
 40
1.0
 40
1.0
 40
1.0
 40
1.0
 10
75.6810131191
 20
6.3204684599
 30
0.0
 10
75.6617176218
 20
6.3632737543
 30
0.0
 10
75.6244987627
 20
6.4501049183
 30
0.0
 10
75.5729843562
 20
6.5832047109
 30
0.0
 10
75.5253527409
 20
6.7201428712
 30
0.0
 10
75.4815339598
 20
6.8612182426
 30
0.0
 10
75.441652912
 20
7.0062037671
 30
0.0
 10
75.405832729
 20
7.1547319105
 30
0.0
 10
75.3740189493
 20
7.3070826843
 30
0.0
 10
75.34613647
 20
7.4640512058
 30
0.0
 10
75.322310534
 20
7.6258412863
 30
0.0
 10
75.3028303475
 20
7.7912614898
 30
0.0
 10
75.2928743029
 20
7.9026930974
 30
0.0
 10
75.2886364838
 20
7.9586481796
 30
0.0
 11
75.6810131191
 21
6.3204684599
 31
0.0
 11
75.6254833715
 21
6.4499208918
 31
0.0
 11
75.5740199705
 21
6.5827833533
 31
0.0
 11
75.526433832
 21
6.7194763193
 31
0.0
 11
75.4826006924
 21
6.8604712345
 31
0.0
 11
75.4425961098
 21
7.0057649526
 31
0.0
 11
75.406765363
 21
7.1541822995
 31
0.0
 11
75.3750671681
 21
7.3058074008
 31
0.0
 11
75.3471795998
 21
7.4626019534
 31
0.0
 11
75.323243486
 21
7.6248944446
 31
0.0
 11
75.3036506461
 21
7.7909730533
 31
0.0
 11
75.2886364838
 21
7.9586481796
 31
0.0
  0
SPLINE
  5
4BE
100
AcDbEntity
  8
0
100
AcDbSpline
 62
7
  6
CONTINUOUS
 70
0
 71
3
 72
16
 73
12
 74
10
 42
0.0000001
 43
0.0000001
 44
0.0000000001
 12
0.110443242
 22
1.5687076406
 32
0.0
 13
0.3900068559
 23
1.5234884895
 33
0.0
 40
0.0
 40
0.0
 40
0.0
 40
0.0
 40
0.1165698361
 40
0.2353034304
 40
0.354707846
 40
0.4734793195
 40
0.5917795276
 40
0.7111332697
 40
0.8316756512
 40
0.9524625873
 40
1.0
 40
1.0
 40
1.0
 40
1.0
 10
75.2886364838
 20
8.9736606038
 30
0.0
 10
75.292927934
 20
9.0346152679
 30
0.0
 10
75.3030476585
 20
9.157558021
 30
0.0
 10
75.3225844523
 20
9.342481156
 30
0.0
 10
75.346458453
 20
9.528058537
 30
0.0
 10
75.3743805717
 20
9.7128390056
 30
0.0
 10
75.4062336296
 20
9.896954787
 30
0.0
 10
75.4420953856
 20
10.081277352
 30
0.0
 10
75.482012198
 20
10.2660980423
 30
0.0
 10
75.5169667932
 20
10.4134417484
 30
0.0
 10
75.5385182811
 20
10.4990065794
 30
0.0
 10
75.5446982534
 20
10.5231474798
 30
0.0
 11
75.2886364838
 21
8.9736606038
 31
0.0
 11
75.3036517135
 21
9.1563612647
 31
0.0
 11
75.3232467911
 21
9.3420495661
 31
0.0
 11
75.347185435
 21
9.528291659
 31
0.0
 11
75.3750744022
 21
9.7129767058
 31
0.0
 11
75.4067724933
 21
9.8962941755
 31
0.0
 11
75.4426029991
 21
10.0805370317
 31
0.0
 11
75.4826074593
 21
10.2658316245
 31
0.0
 11
75.5264397041
 21
10.4506535161
 31
0.0
 11
75.5446982534
 21
10.5231474798
 31
0.0
  0
SPLINE
  5
4BF
100
AcDbEntity
  8
0
100
AcDbSpline
 62
7
  6
CONTINUOUS
 70
0
 71
3
 72
12
 73
8
 74
6
 42
0.0000001
 43
0.0000001
 44
0.0000000001
 12
-0.7538005872
 22
0.1993050875
 32
0.0
 13
-0.7344507813
 23
0.2617630475
 33
0.0
 40
0.0
 40
0.0
 40
0.0
 40
0.0
 40
0.2031922224
 40
0.4037019467
 40
0.6024734814
 40
0.8012652599
 40
1.0
 40
1.0
 40
1.0
 40
1.0
 10
77.1967731178
 20
7.3904596335
 30
0.0
 10
77.1457176457
 20
7.4039587147
 30
0.0
 10
77.0444894821
 20
7.4315761232
 30
0.0
 10
76.8941032389
 20
7.4752160596
 30
0.0
 10
76.7455461716
 20
7.5209834018
 30
0.0
 10
76.5982228075
 20
7.5691126551
 30
0.0
 10
76.5005840586
 20
7.60291438
 30
0.0
 10
76.4519304302
 20
7.6202548504
 30
0.0
 11
77.1967731178
 21
7.3904596335
 31
0.0
 11
77.0439329286
 21
7.4321711963
 31
0.0
 11
76.8937923917
 21
7.4757537975
 31
0.0
 11
76.7456833319
 21
7.5213981332
 31
0.0
 11
76.5983526227
 21
7.5695463823
 31
0.0
 11
76.4519304302
 21
7.6202548504
 31
0.0
  0
SPLINE
  5
4C0
100
AcDbEntity
  8
0
100
AcDbSpline
 62
7
  6
CONTINUOUS
 70
0
 71
3
 72
8
 73
4
 74
2
 42
0.0000001
 43
0.0000001
 44
0.0000000001
 12
0.0
 22
-0.1157694987
 32
0.0
 13
-0.0138316897
 23
-0.1151120766
 33
0.0
 40
0.0
 40
0.0
 40
0.0
 40
0.0
 40
1.0
 40
1.0
 40
1.0
 40
1.0
 10
96.9548767265
 20
18.2386143412
 30
0.0
 10
96.9548767265
 20
18.2000245083
 30
0.0
 10
96.9527855994
 20
18.1613597143
 30
0.0
 10
96.9481750361
 20
18.1229890221
 30
0.0
 11
96.9548767265
 21
18.2386143412
 31
0.0
 11
96.9481750361
 21
18.1229890221
 31
0.0
  0
SPLINE
  5
4C1
100
AcDbEntity
  8
0
100
AcDbSpline
 62
7
  6
CONTINUOUS
 70
0
 71
3
 72
10
 73
6
 74
4
 42
0.0000001
 43
0.0000001
 44
0.0000000001
 12
0.5518436653
 22
-0.3357149291
 32
0.0
 13
0.4210028359
 23
-0.4898903518
 33
0.0
 40
0.0
 40
0.0
 40
0.0
 40
0.0
 40
0.3534105167
 40
0.6910610321
 40
1.0
 40
1.0
 40
1.0
 40
1.0
 10
96.4742818095
 20
19.2993010751
 30
0.0
 10
96.5392909278
 20
19.2597526796
 30
0.0
 10
96.6619551819
 20
19.1748487071
 30
0.0
 10
96.8250971033
 20
19.0338152963
 30
0.0
 10
96.9211167995
 20
18.932655492
 30
0.0
 10
96.9644715267
 20
18.8822067522
 30
0.0
 11
96.4742818095
 21
19.2993010751
 31
0.0
 11
96.6621573534
 21
19.169627911
 31
0.0
 11
96.827199785
 21
19.0270474871
 31
0.0
 11
96.9644715267
 21
18.8822067522
 31
0.0
  0
SPLINE
  5
4C2
100
AcDbEntity
  8
0
100
AcDbSpline
 62
7
  6
CONTINUOUS
 70
0
 71
3
 72
9
 73
5
 74
3
 42
0.0000001
 43
0.0000001
 44
0.0000000001
 12
0.1283787156
 22
-0.0829485079
 32
0.0
 13
0.1302838867
 23
-0.0799228282
 33
0.0
 40
0.0
 40
0.0
 40
0.0
 40
0.0
 40
0.5226635613
 40
1.0
 40
1.0
 40
1.0
 40
1.0
 10
96.9644715267
 20
18.8822067522
 30
0.0
 10
96.9868378189
 20
18.8677553646
 30
0.0
 10
97.0296487846
 20
18.8401342419
 30
0.0
 10
97.0727543289
 20
18.8129688188
 30
0.0
 10
97.0934840777
 20
18.800252126
 30
0.0
 11
96.9644715267
 21
18.8822067522
 31
0.0
 11
97.0316697547
 21
18.8390067426
 31
0.0
 11
97.0934840777
 21
18.800252126
 31
0.0
  0
SPLINE
  5
4C3
100
AcDbEntity
  8
0
100
AcDbSpline
 62
7
  6
CONTINUOUS
 70
0
 71
3
 72
11
 73
7
 74
5
 42
0.0000001
 43
0.0000001
 44
0.0000000001
 12
0.8584517474
 22
0.2548171573
 32
0.0
 13
0.8276262563
 23
-0.3393985685
 33
0.0
 40
0.0
 40
0.0
 40
0.0
 40
0.0
 40
0.2013878671
 40
0.462891814
 40
0.7286648827
 40
1.0
 40
1.0
 40
1.0
 40
1.0
 10
95.5982574587
 20
19.3672417749
 30
0.0
 10
95.6558847142
 20
19.3843474695
 30
0.0
 10
95.7918686073
 20
19.4126713607
 30
0.0
 10
96.0103636285
 20
19.4179301296
 30
0.0
 10
96.2466559883
 20
19.3803636826
 30
0.0
 10
96.3994271204
 20
19.3299979919
 30
0.0
 10
96.4742818095
 20
19.2993010751
 30
0.0
 11
95.5982574587
 21
19.3672417749
 31
0.0
 11
95.7747415477
 21
19.4042640651
 31
0.0
 11
96.0085675949
 21
19.4108625926
 31
0.0
 11
96.2435050216
 21
19.3744795348
 31
0.0
 11
96.4742818095
 21
19.2993010751
 31
0.0
  0
SPLINE
  5
4C4
100
AcDbEntity
  8
0
100
AcDbSpline
 62
7
  6
CONTINUOUS
 70
0
 71
3
 72
14
 73
10
 74
8
 42
0.0000001
 43
0.0000001
 44
0.0000000001
 12
0.0
 22
1.1946006046
 32
0.0
 13
-0.8817073386
 23
0.8060166088
 33
0.0
 40
0.0
 40
0.0
 40
0.0
 40
0.0
 40
0.1332233404
 40
0.2740144691
 40
0.4200159045
 40
0.5684890876
 40
0.7165250722
 40
0.8612446014
 40
1.0
 40
1.0
 40
1.0
 40
1.0
 10
96.9548767265
 20
18.2386143412
 30
0.0
 10
96.9548767265
 20
18.2916639023
 30
0.0
 10
96.9467359057
 20
18.4008734276
 30
0.0
 10
96.9132901911
 20
18.5651257217
 30
0.0
 10
96.8592688259
 20
18.7302055656
 30
0.0
 10
96.7863448329
 20
18.890989834
 30
0.0
 10
96.696759211
 20
19.0425452974
 30
0.0
 10
96.593299623
 20
19.1801675552
 30
0.0
 10
96.5150623606
 20
19.2620213565
 30
0.0
 10
96.4742818095
 20
19.2993010751
 30
0.0
 11
96.9548767265
 21
18.2386143412
 31
0.0
 11
96.9437273117
 21
18.3973719989
 31
0.0
 11
96.9106306676
 21
18.5622725998
 31
0.0
 11
96.8566305069
 21
18.7281159529
 31
0.0
 11
96.7834297413
 21
18.8896721371
 31
0.0
 11
96.6933367795
 21
19.0418464285
 31
0.0
 11
96.5891927307
 21
19.179839964
 31
0.0
 11
96.4742818095
 21
19.2993010751
 31
0.0
  0
SPLINE
  5
4C5
100
AcDbEntity
  8
0
100
AcDbSpline
 62
7
  6
CONTINUOUS
 70
0
 71
3
 72
12
 73
8
 74
6
 42
0.0000001
 43
0.0000001
 44
0.0000000001
 12
1.3898158753
 22
-0.8168053189
 32
0.0
 13
0.5853712831
 23
-1.5018127049
 33
0.0
 40
0.0
 40
0.0
 40
0.0
 40
0.0
 40
0.1605321076
 40
0.3856236802
 40
0.6091529183
 40
0.8238228214
 40
1.0
 40
1.0
 40
1.0
 40
1.0
 10
95.684464213
 20
19.2121103093
 30
0.0
 10
95.7588342369
 20
19.1684024828
 30
0.0
 10
95.9309505141
 20
19.0523352586
 30
0.0
 10
96.1765024683
 20
18.8346903628
 30
0.0
 10
96.4083112095
 20
18.5630103789
 30
0.0
 10
96.5874469283
 20
18.2849292336
 30
0.0
 10
96.6774399098
 20
18.0947346773
 30
0.0
 10
96.7118162635
 20
18.0065396356
 30
0.0
 11
95.684464213
 21
19.2121103093
 31
0.0
 11
95.8992466743
 21
19.0680039487
 31
0.0
 11
96.171076407
 21
18.8282251652
 31
0.0
 11
96.4048042991
 21
18.5544752594
 31
0.0
 11
96.5914401362
 21
18.2634979672
 31
0.0
 11
96.7118162635
 21
18.0065396356
 31
0.0
  0
SPLINE
  5
4C6
100
AcDbEntity
  8
0
100
AcDbSpline
 62
7
  6
CONTINUOUS
 70
0
 71
3
 72
9
 73
5
 74
3
 42
0.0000001
 43
0.0000001
 44
0.0000000001
 12
0.0
 22
1.1636636804
 32
0.0
 13
-0.3421476948
 23
1.1142323761
 33
0.0
 40
0.0
 40
0.0
 40
0.0
 40
0.0
 40
0.7399428552
 40
1.0
 40
1.0
 40
1.0
 40
1.0
 10
-114.9549750888
 20
103.202519354
 30
0.0
 10
-114.9549750888
 20
103.4895342294
 30
0.0
 10
-115.0065870422
 20
103.8780582688
 30
0.0
 10
-115.1083254649
 20
104.2533882624
 30
0.0
 10
-115.1379847824
 20
104.3499762926
 30
0.0
 11
-114.9549750888
 21
103.202519354
 31
0.0
 11
-115.0587998964
 21
104.0572814598
 31
0.0
 11
-115.1379847824
 21
104.3499762926
 31
0.0
  0
SPLINE
  5
4C7
100
AcDbEntity
  8
0
100
AcDbSpline
 62
7
  6
CONTINUOUS
 70
0
 71
3
 72
9
 73
5
 74
3
 42
0.0000001
 43
0.0000001
 44
0.0000000001
 12
-0.4170392203
 22
1.3581228469
 32
0.0
 13
-0.7948540182
 23
1.1776604778
 33
0.0
 40
0.0
 40
0.0
 40
0.0
 40
0.0
 40
0.4390438966
 40
1.0
 40
1.0
 40
1.0
 40
1.0
 10
-115.1379847824
 20
104.3499762926
 30
0.0
 10
-115.1990176238
 20
104.5487348082
 30
0.0
 10
-115.3689089209
 20
104.9916122019
 30
0.0
 10
-115.6006084465
 20
105.4063626427
 30
0.0
 10
-115.7492345174
 20
105.6265679203
 30
0.0
 11
-115.1379847824
 21
104.3499762926
 31
0.0
 11
-115.3601112239
 21
104.9321983029
 31
0.0
 11
-115.7492345174
 21
105.6265679203
 31
0.0
  0
SPLINE
  5
4C8
100
AcDbEntity
  8
0
100
AcDbSpline
 62
7
  6
CONTINUOUS
 70
0
 71
3
 72
12
 73
8
 74
6
 42
0.0000001
 43
0.0000001
 44
0.0000000001
 12
-1.7967711589
 22
2.497886345
 32
0.0
 13
-2.7620828543
 23
-1.3965383997
 33
0.0
 40
0.0
 40
0.0
 40
0.0
 40
0.0
 40
0.2896941862
 40
0.5495060194
 40
0.7727248823
 40
0.9667547478
 40
1.0
 40
1.0
 40
1.0
 40
1.0
 10
-115.829414619
 20
105.7416269268
 30
0.0
 10
-116.0029193385
 20
105.982834644
 30
0.0
 10
-116.3759386408
 20
106.4093348805
 30
0.0
 10
-117.0246874488
 20
106.8765587249
 30
0.0
 10
-117.6943107844
 20
107.1046014087
 30
0.0
 10
-118.1724513433
 20
107.0580021701
 30
0.0
 10
-118.3863336141
 20
106.9619628842
 30
0.0
 10
-118.4169423278
 20
106.9464867938
 30
0.0
 11
-115.829414619
 21
105.7416269268
 31
0.0
 11
-116.4207713956
 21
106.4063348181
 31
0.0
 11
-117.0762954323
 21
106.8612557371
 31
0.0
 11
-117.731819469
 21
107.0618588547
 31
0.0
 11
-118.3231762456
 21
106.9885077401
 31
0.0
 11
-118.4169423278
 21
106.9464867938
 31
0.0
  0
SPLINE
  5
4C9
100
AcDbEntity
  8
0
100
AcDbSpline
 62
7
  6
CONTINUOUS
 70
0
 71
3
 72
10
 73
6
 74
4
 42
0.0000001
 43
0.0000001
 44
0.0000000001
 12
0.0
 22
-1.8835049295
 32
0.0
 13
-1.6939748922
 23
-0.8564916804
 33
0.0
 40
0.0
 40
0.0
 40
0.0
 40
0.0
 40
0.4024840782
 40
0.7464857565
 40
1.0
 40
1.0
 40
1.0
 40
1.0
 10
77.378069394
 20
7.0359971126
 30
0.0
 10
77.378069394
 20
6.7833035308
 30
0.0
 10
77.3235419235
 20
6.3107551283
 30
0.0
 10
77.0430134914
 20
5.7299153001
 30
0.0
 10
76.740544867
 20
5.4857276298
 30
0.0
 10
76.5973959459
 20
5.4133500164
 30
0.0
 11
77.378069394
 21
7.0359971126
 31
0.0
 11
77.2742445863
 21
6.2850598144
 31
0.0
 11
76.9729332589
 21
5.7114542988
 31
0.0
 11
76.5973959459
 21
5.4133500164
 31
0.0
  0
SPLINE
  5
4CA
100
AcDbEntity
  8
0
100
AcDbSpline
 62
7
  6
CONTINUOUS
 70
0
 71
3
 72
10
 73
6
 74
4
 42
0.0000001
 43
0.0000001
 44
0.0000000001
 12
0.0
 22
-1.8835049295
 32
0.0
 13
-1.6939748922
 23
-0.8564916804
 33
0.0
 40
0.0
 40
0.0
 40
0.0
 40
0.0
 40
0.4024840782
 40
0.7464857565
 40
1.0
 40
1.0
 40
1.0
 40
1.0
 10
-114.9549750888
 20
-17.1750117721
 30
0.0
 10
-114.9549750888
 20
-17.4277053538
 30
0.0
 10
-115.0095025593
 20
-17.9002537564
 30
0.0
 10
-115.2900309914
 20
-18.4810935846
 30
0.0
 10
-115.5924996158
 20
-18.7252812548
 30
0.0
 10
-115.7356485369
 20
-18.7976588683
 30
0.0
 11
-114.9549750888
 21
-17.1750117721
 31
0.0
 11
-115.0587998964
 21
-17.9259490702
 31
0.0
 11
-115.3601112239
 21
-18.4995545859
 31
0.0
 11
-115.7356485369
 21
-18.7976588683
 31
0.0
  0
SPLINE
  5
4CB
100
AcDbEntity
  8
0
100
AcDbSpline
 62
7
  6
CONTINUOUS
 70
0
 71
3
 72
9
 73
5
 74
3
 42
0.0000001
 43
0.0000001
 44
0.0000000001
 12
0.0
 22
1.1636636804
 32
0.0
 13
-0.3421476948
 23
1.1142323761
 33
0.0
 40
0.0
 40
0.0
 40
0.0
 40
0.0
 40
0.7399428552
 40
1.0
 40
1.0
 40
1.0
 40
1.0
 10
77.378069394
 20
-113.3415340134
 30
0.0
 10
77.378069394
 20
-113.054519138
 30
0.0
 10
77.3264574406
 20
-112.6659950986
 30
0.0
 10
77.2247190179
 20
-112.290665105
 30
0.0
 10
77.1950597003
 20
-112.1940770748
 30
0.0
 11
77.378069394
 21
-113.3415340134
 31
0.0
 11
77.2742445863
 21
-112.4867719076
 31
0.0
 11
77.1950597003
 21
-112.1940770748
 31
0.0
  0
SPLINE
  5
4CC
100
AcDbEntity
  8
0
100
AcDbSpline
 62
7
  6
CONTINUOUS
 70
0
 71
3
 72
9
 73
5
 74
3
 42
0.0000001
 43
0.0000001
 44
0.0000000001
 12
-0.4170392203
 22
1.3581228469
 32
0.0
 13
-0.7948540182
 23
1.1776604778
 33
0.0
 40
0.0
 40
0.0
 40
0.0
 40
0.0
 40
0.4390438966
 40
1.0
 40
1.0
 40
1.0
 40
1.0
 10
77.1950597003
 20
-112.1940770748
 30
0.0
 10
77.1340268589
 20
-111.9953185592
 30
0.0
 10
76.9641355618
 20
-111.5524411655
 30
0.0
 10
76.7324360362
 20
-111.1376907247
 30
0.0
 10
76.5838099653
 20
-110.9174854471
 30
0.0
 11
77.1950597003
 21
-112.1940770748
 31
0.0
 11
76.9729332589
 21
-111.6118550645
 31
0.0
 11
76.5838099653
 21
-110.9174854471
 31
0.0
  0
SPLINE
  5
4CD
100
AcDbEntity
  8
0
100
AcDbSpline
 62
7
  6
CONTINUOUS
 70
0
 71
3
 72
12
 73
8
 74
6
 42
0.0000001
 43
0.0000001
 44
0.0000000001
 12
-1.7967711589
 22
2.497886345
 32
0.0
 13
-2.7620828543
 23
-1.3965383997
 33
0.0
 40
0.0
 40
0.0
 40
0.0
 40
0.0
 40
0.2896941862
 40
0.5495060194
 40
0.7727248823
 40
0.9667547478
 40
1.0
 40
1.0
 40
1.0
 40
1.0
 10
76.5036298638
 20
-110.8024264407
 30
0.0
 10
76.3301251442
 20
-110.5612187234
 30
0.0
 10
75.957105842
 20
-110.1347184869
 30
0.0
 10
75.308357034
 20
-109.6674946426
 30
0.0
 10
74.6387336983
 20
-109.4394519587
 30
0.0
 10
74.1605931394
 20
-109.4860511973
 30
0.0
 10
73.9467108686
 20
-109.5820904832
 30
0.0
 10
73.916102155
 20
-109.5975665736
 30
0.0
 11
76.5036298638
 21
-110.8024264407
 31
0.0
 11
75.9122730871
 21
-110.1377185494
 31
0.0
 11
75.2567490504
 21
-109.6827976303
 31
0.0
 11
74.6012250138
 21
-109.4821945127
 31
0.0
 11
74.0098682371
 21
-109.5555456273
 31
0.0
 11
73.916102155
 21
-109.5975665736
 31
0.0
  0
SPLINE
  5
4CE
100
AcDbEntity
  8
0
100
AcDbSpline
 62
7
  6
CONTINUOUS
 70
0
 71
3
 72
9
 73
5
 74
3
 42
0.0000001
 43
0.0000001
 44
0.0000000001
 12
0.0
 22
1.1636636804
 32
0.0
 13
-0.3421476948
 23
1.1142323761
 33
0.0
 40
0.0
 40
0.0
 40
0.0
 40
0.0
 40
0.7399428552
 40
1.0
 40
1.0
 40
1.0
 40
1.0
 10
-47.779830876
 20
69.6149472476
 30
0.0
 10
-47.779830876
 20
69.901962123
 30
0.0
 10
-47.8314428295
 20
70.2904861624
 30
0.0
 10
-47.9331812521
 20
70.6658161561
 30
0.0
 10
-47.9628405697
 20
70.7624041862
 30
0.0
 11
-47.779830876
 21
69.6149472476
 31
0.0
 11
-47.8836556837
 21
70.4697093534
 31
0.0
 11
-47.9628405697
 21
70.7624041862
 31
0.0
  0
SPLINE
  5
4CF
100
AcDbEntity
  8
0
100
AcDbSpline
 62
7
  6
CONTINUOUS
 70
0
 71
3
 72
9
 73
5
 74
3
 42
0.0000001
 43
0.0000001
 44
0.0000000001
 12
-0.4170392203
 22
1.3581228469
 32
0.0
 13
-0.7948540182
 23
1.1776604778
 33
0.0
 40
0.0
 40
0.0
 40
0.0
 40
0.0
 40
0.4390438966
 40
1.0
 40
1.0
 40
1.0
 40
1.0
 10
-47.9628405697
 20
70.7624041862
 30
0.0
 10
-48.0238734111
 20
70.9611627018
 30
0.0
 10
-48.1937647082
 20
71.4040400955
 30
0.0
 10
-48.4254642338
 20
71.8187905363
 30
0.0
 10
-48.5740903047
 20
72.0389958139
 30
0.0
 11
-47.9628405697
 21
70.7624041862
 31
0.0
 11
-48.1849670111
 21
71.3446261965
 31
0.0
 11
-48.5740903047
 21
72.0389958139
 31
0.0
  0
SPLINE
  5
4D0
100
AcDbEntity
  8
0
100
AcDbSpline
 62
7
  6
CONTINUOUS
 70
0
 71
3
 72
12
 73
8
 74
6
 42
0.0000001
 43
0.0000001
 44
0.0000000001
 12
-1.7967711589
 22
2.497886345
 32
0.0
 13
-2.7620828543
 23
-1.3965383997
 33
0.0
 40
0.0
 40
0.0
 40
0.0
 40
0.0
 40
0.2896941862
 40
0.5495060194
 40
0.7727248823
 40
0.9667547478
 40
1.0
 40
1.0
 40
1.0
 40
1.0
 10
-48.6542704063
 20
72.1540548204
 30
0.0
 10
-48.8277751258
 20
72.3952625377
 30
0.0
 10
-49.200794428
 20
72.8217627741
 30
0.0
 10
-49.8495432361
 20
73.2889866185
 30
0.0
 10
-50.5191665717
 20
73.5170293024
 30
0.0
 10
-50.9973071306
 20
73.4704300638
 30
0.0
 10
-51.2111894014
 20
73.3743907778
 30
0.0
 10
-51.241798115
 20
73.3589146874
 30
0.0
 11
-48.6542704063
 21
72.1540548204
 31
0.0
 11
-49.2456271829
 21
72.8187627117
 31
0.0
 11
-49.9011512196
 21
73.2736836307
 31
0.0
 11
-50.5566752563
 21
73.4742867484
 31
0.0
 11
-51.1480320329
 21
73.4009356337
 31
0.0
 11
-51.241798115
 21
73.3589146874
 31
0.0
  0
SPLINE
  5
4D1
100
AcDbEntity
  8
0
100
AcDbSpline
 62
7
  6
CONTINUOUS
 70
0
 71
3
 72
9
 73
5
 74
3
 42
0.0000001
 43
0.0000001
 44
0.0000000001
 12
0.0
 22
1.1636636804
 32
0.0
 13
-0.3421476948
 23
1.1142323761
 33
0.0
 40
0.0
 40
0.0
 40
0.0
 40
0.0
 40
0.7399428552
 40
1.0
 40
1.0
 40
1.0
 40
1.0
 10
10.2029251813
 20
-79.7539619071
 30
0.0
 10
10.2029251813
 20
-79.4669470317
 30
0.0
 10
10.1513132278
 20
-79.0784229923
 30
0.0
 10
10.0495748052
 20
-78.7030929986
 30
0.0
 10
10.0199154876
 20
-78.6065049685
 30
0.0
 11
10.2029251813
 21
-79.7539619071
 31
0.0
 11
10.0991003736
 21
-78.8991998012
 31
0.0
 11
10.0199154876
 21
-78.6065049685
 31
0.0
  0
SPLINE
  5
4D2
100
AcDbEntity
  8
0
100
AcDbSpline
 62
7
  6
CONTINUOUS
 70
0
 71
3
 72
9
 73
5
 74
3
 42
0.0000001
 43
0.0000001
 44
0.0000000001
 12
-0.4170392203
 22
1.3581228469
 32
0.0
 13
-0.7948540182
 23
1.1776604778
 33
0.0
 40
0.0
 40
0.0
 40
0.0
 40
0.0
 40
0.4390438966
 40
1.0
 40
1.0
 40
1.0
 40
1.0
 10
10.0199154876
 20
-78.6065049685
 30
0.0
 10
9.9588826462
 20
-78.4077464529
 30
0.0
 10
9.7889913491
 20
-77.9648690592
 30
0.0
 10
9.5572918235
 20
-77.5501186183
 30
0.0
 10
9.4086657526
 20
-77.3299133408
 30
0.0
 11
10.0199154876
 21
-78.6065049685
 31
0.0
 11
9.7977890462
 21
-78.0242829582
 31
0.0
 11
9.4086657526
 21
-77.3299133408
 31
0.0
  0
SPLINE
  5
4D3
100
AcDbEntity
  8
0
100
AcDbSpline
 62
7
  6
CONTINUOUS
 70
0
 71
3
 72
12
 73
8
 74
6
 42
0.0000001
 43
0.0000001
 44
0.0000000001
 12
-1.7967711589
 22
2.497886345
 32
0.0
 13
-2.7620828543
 23
-1.3965383997
 33
0.0
 40
0.0
 40
0.0
 40
0.0
 40
0.0
 40
0.2896941862
 40
0.5495060194
 40
0.7727248823
 40
0.9667547478
 40
1.0
 40
1.0
 40
1.0
 40
1.0
 10
9.328485651
 20
-77.2148543343
 30
0.0
 10
9.1549809315
 20
-76.973646617
 30
0.0
 10
8.7819616293
 20
-76.5471463806
 30
0.0
 10
8.1332128212
 20
-76.0799225362
 30
0.0
 10
7.4635894856
 20
-75.8518798523
 30
0.0
 10
6.9854489267
 20
-75.8984790909
 30
0.0
 10
6.7715666559
 20
-75.9945183769
 30
0.0
 10
6.7409579423
 20
-76.0099944673
 30
0.0
 11
9.328485651
 21
-77.2148543343
 31
0.0
 11
8.7371288744
 21
-76.550146443
 31
0.0
 11
8.0816048377
 21
-76.0952255239
 31
0.0
 11
7.426080801
 21
-75.8946224063
 31
0.0
 11
6.8347240244
 21
-75.967973521
 31
0.0
 11
6.7409579423
 21
-76.0099944673
 31
0.0
  0
SPLINE
  5
4D4
100
AcDbEntity
  8
0
100
AcDbSpline
 62
7
  6
CONTINUOUS
 70
0
 71
3
 72
13
 73
9
 74
7
 42
0.0000001
 43
0.0000001
 44
0.0000000001
 12
0.0
 22
14.7078315618
 32
0.0
 13
-13.1550844695
 23
6.5775422348
 33
0.0
 40
0.0
 40
0.0
 40
0.0
 40
0.0
 40
0.1614219316
 40
0.3342559043
 40
0.511697351
 40
0.6862432064
 40
0.8508246292
 40
1.0
 40
1.0
 40
1.0
 40
1.0
 10
93.4293933269
 20
11.7010978367
 30
0.0
 10
93.4293933269
 20
12.492486697
 30
0.0
 10
93.2481422153
 20
14.1335252664
 30
0.0
 10
92.5382519526
 20
16.5506013629
 30
0.0
 10
91.4249454291
 20
18.8823372328
 30
0.0
 10
89.979893298
 20
20.9761753521
 30
0.0
 10
88.2977927895
 20
22.696171757
 30
0.0
 10
87.0124637161
 20
23.56981668
 30
0.0
 10
86.3583255151
 20
23.8968857805
 30
0.0
 11
93.4293933269
 21
11.7010978367
 31
0.0
 11
93.188452534
 21
14.0630069136
 31
0.0
 11
92.482049872
 21
16.5048965831
 31
0.0
 11
91.3583255151
 21
18.8603560996
 31
0.0
 11
89.893859421
 21
20.9688647897
 31
0.0
 11
88.188452534
 21
22.6867312706
 31
0.0
 11
86.3583255151
 21
23.8968857805
 31
0.0
  0
SPLINE
  5
4D5
100
AcDbEntity
  8
0
100
AcDbSpline
 62
7
  6
CONTINUOUS
 70
0
 71
3
 72
10
 73
6
 74
4
 42
0.0000001
 43
0.0000001
 44
0.0000000001
 12
-4.1364168077
 22
2.0682084038
 32
0.0
 13
-4.1723847984
 23
-2.0786002294
 33
0.0
 40
0.0
 40
0.0
 40
0.0
 40
0.0
 40
0.4178228639
 40
0.7865968708
 40
1.0
 40
1.0
 40
1.0
 40
1.0
 10
-120.1168545914
 20
127.1344758338
 30
0.0
 10
-120.692951097
 20
127.4225240866
 30
0.0
 10
-121.8512347165
 20
127.8416330546
 30
0.0
 10
-123.4297407165
 20
127.8638599444
 30
0.0
 10
-124.2923710605
 20
127.5644610595
 30
0.0
 10
-124.5891710513
 20
127.4166011283
 30
0.0
 11
-120.1168545914
 21
127.1344758338
 31
0.0
 11
-121.9469816103
 21
127.7544483428
 31
0.0
 11
-123.6523884973
 21
127.7419887489
 31
0.0
 11
-124.5891710513
 21
127.4166011283
 31
0.0
  0
SPLINE
  5
4D6
100
AcDbEntity
  8
RACCORDO
100
AcDbSpline
 62
7
  6
CONTINUOUS
 70
0
 71
3
 72
14
 73
10
 74
8
 42
0.0000001
 43
0.0000001
 44
0.0000000001
 12
0.8307734739
 22
-11.9841748059
 32
0.0
 13
9.9409635987
 23
-6.7687056072
 33
0.0
 40
0.0
 40
0.0
 40
0.0
 40
0.0
 40
0.100750319
 40
0.2704850907
 40
0.4428142417
 40
0.6149543517
 40
0.7841191858
 40
0.9474937626
 40
1.0
 40
1.0
 40
1.0
 40
1.0
 10
-130.363482055
 20
-18.4599275509
 30
0.0
 10
-130.3355818242
 20
-18.8623973626
 30
0.0
 10
-130.2031024405
 20
-19.9398259976
 30
0.0
 10
-129.7650361281
 20
-21.662037585
 30
0.0
 10
-128.9797958456
 20
-23.5701278144
 30
0.0
 10
-127.9437150637
 20
-25.351498701
 30
0.0
 10
-126.6902123778
 20
-26.9430688747
 30
0.0
 10
-125.5590332397
 20
-27.9974802641
 30
0.0
 10
-124.8589882282
 20
-28.5074339162
 30
0.0
 10
-124.6850006965
 20
-28.6259003374
 30
0.0
 11
-130.363482055
 21
-18.4599275509
 31
0.0
 11
-130.2181452164
 21
-19.6615083372
 31
0.0
 11
-129.7223054256
 21
-21.6369154356
 31
0.0
 11
-128.9372582895
 21
-23.5499148397
 31
0.0
 11
-127.8972028743
 21
-25.3345085059
 31
0.0
 11
-126.6367600327
 21
-26.9255974085
 31
0.0
 11
-125.1956217365
 21
-28.2545691116
 31
0.0
 11
-124.6850006965
 21
-28.6259003374
 31
0.0
  0
SPLINE
  5
4D7
100
AcDbEntity
  8
RACCORDO
100
AcDbSpline
 62
7
  6
CONTINUOUS
 70
0
 71
3
 72
8
 73
4
 74
2
 42
0.0000001
 43
0.0000001
 44
0.0000000001
 12
1.0163340258
 22
-0.6920119716
 32
0.0
 13
1.0972516845
 23
-0.5486258422
 33
0.0
 40
0.0
 40
0.0
 40
0.0
 40
0.0
 40
1.0
 40
1.0
 40
1.0
 40
1.0
 10
-124.6850006965
 20
-28.6259003374
 30
0.0
 10
-124.3462226879
 20
-28.8565709946
 30
0.0
 10
-123.9933274343
 20
-29.0661472825
 30
0.0
 10
-123.6275768728
 20
-29.2490225633
 30
0.0
 11
-124.6850006965
 21
-28.6259003374
 31
0.0
 11
-123.6275768728
 21
-29.2490225633
 31
0.0
  0
SPLINE
  5
4D8
100
AcDbEntity
  8
RACCORDO
100
AcDbSpline
 62
7
  6
CONTINUOUS
 70
0
 71
3
 72
12
 73
8
 74
6
 42
0.0000001
 43
0.0000001
 44
0.0000000001
 12
-6.5080077119
 22
-3.2510641555
 32
0.0
 13
0.0
 23
-7.2504002963
 33
0.0
 40
0.0
 40
0.0
 40
0.0
 40
0.0
 40
0.0817084628
 40
0.2814741886
 40
0.4985170788
 40
0.738856918
 40
1.0
 40
1.0
 40
1.0
 40
1.0
 10
-127.2043291112
 20
126.1106161658
 30
0.0
 10
-127.3815822133
 20
126.0220696809
 30
0.0
 10
-127.9741551377
 20
125.6810166873
 30
0.0
 10
-128.886167077
 20
124.8693461207
 30
0.0
 10
-129.7470687503
 20
123.5117683734
 30
0.0
 10
-130.2809758673
 20
121.8423372212
 30
0.0
 10
-130.3900039313
 20
120.6256320018
 30
0.0
 10
-130.3900039313
 20
119.9945013755
 30
0.0
 11
-127.2043291112
 21
126.1106161658
 31
0.0
 11
-127.7190736994
 21
125.8141837653
 31
0.0
 11
-128.8048313182
 21
124.8555705498
 31
0.0
 11
-129.6581511589
 21
123.5333705807
 31
0.0
 11
-130.2049711692
 21
121.8788303501
 31
0.0
 11
-130.3900039313
 21
119.9945013755
 31
0.0
  0
SPLINE
  5
4D9
100
AcDbEntity
  8
RACCORDO
100
AcDbSpline
 62
7
  6
CONTINUOUS
 70
0
 71
3
 72
11
 73
7
 74
5
 42
0.0000001
 43
0.0000001
 44
0.0000000001
 12
4.9701569434
 22
-2.4850784717
 32
0.0
 13
4.9878247213
 23
2.4916593346
 33
0.0
 40
0.0
 40
0.0
 40
0.0
 40
0.0
 40
0.3126589773
 40
0.5937928472
 40
0.8537696471
 40
1.0
 40
1.0
 40
1.0
 40
1.0
 10
82.8476032337
 20
-132.4866126165
 30
0.0
 10
83.3655912959
 20
-132.7456066476
 30
0.0
 10
84.4052169576
 20
-133.1387275879
 30
0.0
 10
85.9936095697
 20
-133.320332612
 30
0.0
 10
87.2673560614
 20
-133.1182765185
 30
0.0
 10
87.9700860644
 20
-132.8355489939
 30
0.0
 10
88.2132098541
 20
-132.7140969193
 30
0.0
 11
82.8476032337
 21
-132.4866126165
 31
0.0
 11
84.4784591567
 21
-133.0856241568
 31
0.0
 11
86.0319055391
 21
-133.250826102
 31
0.0
 11
87.4576511602
 21
-133.0179424388
 31
0.0
 11
88.2132098541
 21
-132.7140969193
 31
0.0
  0
SPLINE
  5
4DA
100
AcDbEntity
  8
0
100
AcDbSpline
 62
7
  6
CONTINUOUS
 70
0
 71
3
 72
10
 73
6
 74
4
 42
0.0000001
 43
0.0000001
 44
0.0000000001
 12
1.6939748922
 22
0.8564916804
 32
0.0
 13
-0.0
 23
1.8835049295
 33
0.0
 40
0.0
 40
0.0
 40
0.0
 40
0.0
 40
0.2535142435
 40
0.5975159218
 40
1.0
 40
1.0
 40
1.0
 40
1.0
 10
9.4222517331
 20
-81.3766090033
 30
0.0
 10
9.5654006542
 20
-81.3042313898
 30
0.0
 10
9.8678692787
 20
-81.0600437196
 30
0.0
 10
10.1483977108
 20
-80.4792038914
 30
0.0
 10
10.2029251813
 20
-80.0066554889
 30
0.0
 10
10.2029251813
 20
-79.7539619071
 30
0.0
 11
9.4222517331
 21
-81.3766090033
 31
0.0
 11
9.7977890462
 21
-81.0785047209
 31
0.0
 11
10.0991003736
 21
-80.5048992052
 31
0.0
 11
10.2029251813
 21
-79.7539619071
 31
0.0
  0
SPLINE
  5
4DB
100
AcDbEntity
  8
0
100
AcDbSpline
 62
7
  6
CONTINUOUS
 70
0
 71
3
 72
10
 73
6
 74
4
 42
0.0000001
 43
0.0000001
 44
0.0000000001
 12
1.6939748922
 22
0.8564916804
 32
0.0
 13
-0.0
 23
1.8835049295
 33
0.0
 40
0.0
 40
0.0
 40
0.0
 40
0.0
 40
0.2535142435
 40
0.5975159218
 40
1.0
 40
1.0
 40
1.0
 40
1.0
 10
-48.5605043241
 20
67.9923001514
 30
0.0
 10
-48.4173554031
 20
68.0646777648
 30
0.0
 10
-48.1148867786
 20
68.3088654351
 30
0.0
 10
-47.8343583465
 20
68.8897052633
 30
0.0
 10
-47.779830876
 20
69.3622536658
 30
0.0
 10
-47.779830876
 20
69.6149472476
 30
0.0
 11
-48.5605043241
 21
67.9923001514
 31
0.0
 11
-48.1849670111
 21
68.2904044338
 31
0.0
 11
-47.8836556837
 21
68.8640099495
 31
0.0
 11
-47.779830876
 21
69.6149472476
 31
0.0
  0
SPLINE
  5
4DC
100
AcDbEntity
  8
0
100
AcDbSpline
 62
7
  6
CONTINUOUS
 70
0
 71
3
 72
10
 73
6
 74
4
 42
0.0000001
 43
0.0000001
 44
0.0000000001
 12
1.6939748922
 22
0.8564916804
 32
0.0
 13
0.0
 23
1.8835049295
 33
0.0
 40
0.0
 40
0.0
 40
0.0
 40
0.0
 40
0.2535142435
 40
0.5975159218
 40
1.0
 40
1.0
 40
1.0
 40
1.0
 10
76.5973959459
 20
-114.9641811097
 30
0.0
 10
76.740544867
 20
-114.8918034962
 30
0.0
 10
77.0430134914
 20
-114.6476158259
 30
0.0
 10
77.3235419235
 20
-114.0667759978
 30
0.0
 10
77.378069394
 20
-113.5942275952
 30
0.0
 10
77.378069394
 20
-113.3415340134
 30
0.0
 11
76.5973959459
 21
-114.9641811097
 31
0.0
 11
76.9729332589
 21
-114.6660768272
 31
0.0
 11
77.2742445863
 21
-114.0924713116
 31
0.0
 11
77.378069394
 21
-113.3415340134
 31
0.0
  0
SPLINE
  5
4DD
100
AcDbEntity
  8
0
100
AcDbSpline
 62
7
  6
CONTINUOUS
 70
0
 71
3
 72
12
 73
8
 74
6
 42
0.0000001
 43
0.0000001
 44
0.0000000001
 12
2.7620828543
 22
1.3965383997
 32
0.0
 13
1.7967711589
 23
-2.497886345
 33
0.0
 40
0.0
 40
0.0
 40
0.0
 40
0.0
 40
0.0332452522
 40
0.2272751177
 40
0.4504939806
 40
0.7103058138
 40
1.0
 40
1.0
 40
1.0
 40
1.0
 10
-118.4169423278
 20
-13.4310443323
 30
0.0
 10
-118.3863336141
 20
-13.4155682419
 30
0.0
 10
-118.1724513433
 20
-13.3195289559
 30
0.0
 10
-117.6943107844
 20
-13.2729297173
 30
0.0
 10
-117.0246874488
 20
-13.5009724012
 30
0.0
 10
-116.3759386408
 20
-13.9681962456
 30
0.0
 10
-116.0029193385
 20
-14.394696482
 30
0.0
 10
-115.829414619
 20
-14.6359041993
 30
0.0
 11
-118.4169423278
 21
-13.4310443323
 31
0.0
 11
-118.3231762456
 21
-13.389023386
 31
0.0
 11
-117.731819469
 21
-13.3156722713
 31
0.0
 11
-117.0762954323
 21
-13.5162753889
 31
0.0
 11
-116.4207713956
 21
-13.971196308
 31
0.0
 11
-115.829414619
 21
-14.6359041993
 31
0.0
  0
SPLINE
  5
4DE
100
AcDbEntity
  8
0
100
AcDbSpline
 62
7
  6
CONTINUOUS
 70
0
 71
3
 72
9
 73
5
 74
3
 42
0.0000001
 43
0.0000001
 44
0.0000000001
 12
0.7948540182
 22
-1.1776604778
 32
0.0
 13
0.4170392203
 23
-1.3581228469
 33
0.0
 40
0.0
 40
0.0
 40
0.0
 40
0.0
 40
0.5609561034
 40
1.0
 40
1.0
 40
1.0
 40
1.0
 10
-115.7492345174
 20
-14.7509632058
 30
0.0
 10
-115.6006084465
 20
-14.9711684833
 30
0.0
 10
-115.3689089209
 20
-15.3859189242
 30
0.0
 10
-115.1990176238
 20
-15.8287963179
 30
0.0
 10
-115.1379847824
 20
-16.0275548335
 30
0.0
 11
-115.7492345174
 21
-14.7509632058
 31
0.0
 11
-115.3601112239
 21
-15.4453328231
 31
0.0
 11
-115.1379847824
 21
-16.0275548335
 31
0.0
  0
SPLINE
  5
4DF
100
AcDbEntity
  8
0
100
AcDbSpline
 62
7
  6
CONTINUOUS
 70
0
 71
3
 72
9
 73
5
 74
3
 42
0.0000001
 43
0.0000001
 44
0.0000000001
 12
0.3421476948
 22
-1.1142323761
 32
0.0
 13
-0.0
 23
-1.1636636804
 33
0.0
 40
0.0
 40
0.0
 40
0.0
 40
0.0
 40
0.2600571448
 40
1.0
 40
1.0
 40
1.0
 40
1.0
 10
-115.1379847824
 20
-16.0275548335
 30
0.0
 10
-115.1083254649
 20
-16.1241428636
 30
0.0
 10
-115.0065870422
 20
-16.4994728573
 30
0.0
 10
-114.9549750888
 20
-16.8879968967
 30
0.0
 10
-114.9549750888
 20
-17.1750117721
 30
0.0
 11
-115.1379847824
 21
-16.0275548335
 31
0.0
 11
-115.0587998964
 21
-16.3202496662
 31
0.0
 11
-114.9549750888
 21
-17.1750117721
 31
0.0
  0
SPLINE
  5
4E0
100
AcDbEntity
  8
0
100
AcDbSpline
 62
7
  6
CONTINUOUS
 70
0
 71
3
 72
12
 73
8
 74
6
 42
0.0000001
 43
0.0000001
 44
0.0000000001
 12
2.7620828543
 22
1.3965383997
 32
0.0
 13
1.7967711589
 23
-2.497886345
 33
0.0
 40
0.0
 40
0.0
 40
0.0
 40
0.0
 40
0.0332452522
 40
0.2272751177
 40
0.4504939806
 40
0.7103058138
 40
1.0
 40
1.0
 40
1.0
 40
1.0
 10
73.916102155
 20
10.7799645524
 30
0.0
 10
73.9467108686
 20
10.7954406428
 30
0.0
 10
74.1605931394
 20
10.8914799288
 30
0.0
 10
74.6387336983
 20
10.9380791674
 30
0.0
 10
75.308357034
 20
10.7100364835
 30
0.0
 10
75.957105842
 20
10.2428126391
 30
0.0
 10
76.3301251442
 20
9.8163124027
 30
0.0
 10
76.5036298638
 20
9.5751046854
 30
0.0
 11
73.916102155
 21
10.7799645524
 31
0.0
 11
74.0098682371
 21
10.8219854987
 31
0.0
 11
74.6012250138
 21
10.8953366134
 31
0.0
 11
75.2567490504
 21
10.6947334957
 31
0.0
 11
75.9122730871
 21
10.2398125767
 31
0.0
 11
76.5036298638
 21
9.5751046854
 31
0.0
  0
SPLINE
  5
4E1
100
AcDbEntity
  8
0
100
AcDbSpline
 62
7
  6
CONTINUOUS
 70
0
 71
3
 72
9
 73
5
 74
3
 42
0.0000001
 43
0.0000001
 44
0.0000000001
 12
0.7948540182
 22
-1.1776604778
 32
0.0
 13
0.4170392203
 23
-1.3581228469
 33
0.0
 40
0.0
 40
0.0
 40
0.0
 40
0.0
 40
0.5609561034
 40
1.0
 40
1.0
 40
1.0
 40
1.0
 10
76.5838099653
 20
9.4600456789
 30
0.0
 10
76.7324360362
 20
9.2398404013
 30
0.0
 10
76.9641355618
 20
8.8250899605
 30
0.0
 10
77.1340268589
 20
8.3822125668
 30
0.0
 10
77.1950597003
 20
8.1834540512
 30
0.0
 11
76.5838099653
 21
9.4600456789
 31
0.0
 11
76.9729332589
 21
8.7656760615
 31
0.0
 11
77.1950597003
 21
8.1834540512
 31
0.0
  0
SPLINE
  5
4E2
100
AcDbEntity
  8
0
100
AcDbSpline
 62
7
  6
CONTINUOUS
 70
0
 71
3
 72
9
 73
5
 74
3
 42
0.0000001
 43
0.0000001
 44
0.0000000001
 12
0.3421476948
 22
-1.1142323761
 32
0.0
 13
0.0
 23
-1.1636636804
 33
0.0
 40
0.0
 40
0.0
 40
0.0
 40
0.0
 40
0.2600571448
 40
1.0
 40
1.0
 40
1.0
 40
1.0
 10
77.1950597003
 20
8.1834540512
 30
0.0
 10
77.2247190179
 20
8.0868660211
 30
0.0
 10
77.3264574406
 20
7.7115360274
 30
0.0
 10
77.378069394
 20
7.323011988
 30
0.0
 10
77.378069394
 20
7.0359971126
 30
0.0
 11
77.1950597003
 21
8.1834540512
 31
0.0
 11
77.2742445863
 21
7.8907592184
 31
0.0
 11
77.378069394
 21
7.0359971126
 31
0.0
  0
SPLINE
  5
4E3
100
AcDbEntity
  8
0
100
AcDbSpline
 62
7
  6
CONTINUOUS
 70
0
 71
3
 72
10
 73
6
 74
4
 42
0.0000001
 43
0.0000001
 44
0.0000000001
 12
1.6939748922
 22
0.8564916804
 32
0.0
 13
-0.0
 23
1.8835049295
 33
0.0
 40
0.0
 40
0.0
 40
0.0
 40
0.0
 40
0.2535142435
 40
0.5975159218
 40
1.0
 40
1.0
 40
1.0
 40
1.0
 10
-115.7356485369
 20
101.5798722577
 30
0.0
 10
-115.5924996158
 20
101.6522498712
 30
0.0
 10
-115.2900309914
 20
101.8964375415
 30
0.0
 10
-115.0095025593
 20
102.4772773696
 30
0.0
 10
-114.9549750888
 20
102.9498257722
 30
0.0
 10
-114.9549750888
 20
103.202519354
 30
0.0
 11
-115.7356485369
 21
101.5798722577
 31
0.0
 11
-115.3601112239
 21
101.8779765402
 31
0.0
 11
-115.0587998964
 21
102.4515820558
 31
0.0
 11
-114.9549750888
 21
103.202519354
 31
0.0
  0
SPLINE
  5
4E4
100
AcDbEntity
  8
0
100
AcDbSpline
 62
7
  6
CONTINUOUS
 70
0
 71
3
 72
11
 73
7
 74
5
 42
0.0000001
 43
0.0000001
 44
0.0000000001
 12
5.673585275
 22
2.8264688479
 32
0.0
 13
0.0
 23
6.2885791724
 33
0.0
 40
0.0
 40
0.0
 40
0.0
 40
0.0
 40
0.0974644516
 40
0.3625977263
 40
0.6605576991
 40
1.0
 40
1.0
 40
1.0
 40
1.0
 10
90.8306419749
 20
-131.4037867915
 30
0.0
 10
91.0149662675
 20
-131.311960046
 30
0.0
 10
91.6728636981
 20
-130.915649903
 30
0.0
 10
92.6111749752
 20
-129.846330997
 30
0.0
 10
93.2968010009
 20
-128.0521929816
 30
0.0
 10
93.4293933269
 20
-126.7084779594
 30
0.0
 10
93.4293933269
 20
-125.996941365
 30
0.0
 11
90.8306419749
 21
-131.4037867915
 31
0.0
 11
91.3583255151
 21
-131.085131816
 31
0.0
 11
92.482049872
 21
-129.8533966565
 31
0.0
 11
93.188452534
 21
-128.1179096489
 31
0.0
 11
93.4293933269
 21
-125.996941365
 31
0.0
  0
SPLINE
  5
4E5
100
AcDbEntity
  8
0
100
AcDbSpline
 62
7
  6
CONTINUOUS
 70
0
 71
3
 72
15
 73
11
 74
9
 42
0.0000001
 43
0.0000001
 44
0.0000000001
 12
0.0
 22
-5.7931490808
 32
0.0
 13
5.2102062151
 23
2.6343355481
 33
0.0
 40
0.0
 40
0.0
 40
0.0
 40
0.0
 40
0.1486315325
 40
0.3083628787
 40
0.4698707229
 40
0.6234460924
 40
0.7611799517
 40
0.8795148062
 40
0.9823757185
 40
1.0
 40
1.0
 40
1.0
 40
1.0
 10
-119.1976157759
 20
105.3238396975
 30
0.0
 10
-119.1976157759
 20
105.0368248221
 30
0.0
 10
-119.1183839593
 20
104.4403842036
 30
0.0
 10
-118.8176498098
 20
103.5789321876
 30
0.0
 10
-118.3564811201
 20
102.7799849343
 30
0.0
 10
-117.7766522239
 20
102.117024171
 30
0.0
 10
-117.1279034158
 20
101.6498003267
 30
0.0
 10
-116.4582800802
 20
101.4217576428
 30
0.0
 10
-115.9801395213
 20
101.4683568814
 30
0.0
 10
-115.7662572505
 20
101.5643961673
 30
0.0
 10
-115.7356485369
 20
101.5798722577
 30
0.0
 11
-119.1976157759
 21
105.3238396975
 31
0.0
 11
-119.0937909682
 21
104.4690775917
 31
0.0
 11
-118.7924796408
 21
103.5941607486
 31
0.0
 11
-118.3231762456
 21
102.7847321248
 31
0.0
 11
-117.731819469
 21
102.1200242335
 31
0.0
 11
-117.0762954323
 21
101.6651033144
 31
0.0
 11
-116.4207713956
 21
101.4645001968
 31
0.0
 11
-115.829414619
 21
101.5378513114
 31
0.0
 11
-115.7356485369
 21
101.5798722577
 31
0.0
  0
SPLINE
  5
4E6
100
AcDbEntity
  8
0
100
AcDbSpline
 62
7
  6
CONTINUOUS
 70
0
 71
3
 72
10
 73
6
 74
4
 42
0.0000001
 43
0.0000001
 44
0.0000000001
 12
0.0
 22
1.8835049295
 32
0.0
 13
1.6939748922
 23
0.8564916804
 33
0.0
 40
0.0
 40
0.0
 40
0.0
 40
0.0
 40
0.4024840782
 40
0.7464857565
 40
1.0
 40
1.0
 40
1.0
 40
1.0
 10
73.1354287069
 20
9.1573174562
 30
0.0
 10
73.1354287069
 20
9.4100110379
 30
0.0
 10
73.1899561774
 20
9.8825594405
 30
0.0
 10
73.4704846095
 20
10.4633992687
 30
0.0
 10
73.7729532339
 20
10.7075869389
 30
0.0
 10
73.916102155
 20
10.7799645524
 30
0.0
 11
73.1354287069
 21
9.1573174562
 31
0.0
 11
73.2392535145
 21
9.9082547543
 31
0.0
 11
73.540564842
 21
10.48186027
 31
0.0
 11
73.916102155
 21
10.7799645524
 31
0.0
  0
SPLINE
  5
4E7
100
AcDbEntity
  8
RACCORDO
100
AcDbSpline
 62
253
  6
CONTINUOUS
 70
0
 71
3
 72
10
 73
6
 74
4
 42
0.0000001
 43
0.0000001
 44
0.0000000001
 12
0.0
 22
-1.255067571
 32
0.0
 13
1.128171458
 23
-0.5717552154
 33
0.0
 40
0.0
 40
0.0
 40
0.0
 40
0.0
 40
0.4026772543
 40
0.7468440397
 40
1.0
 40
1.0
 40
1.0
 40
1.0
 10
-124.1473632442
 20
-28.1672749625
 30
0.0
 10
-124.1473632442
 20
-28.3357373503
 30
0.0
 10
-124.1110049422
 20
-28.6507653523
 30
0.0
 10
-123.9240998489
 20
-29.0378216177
 30
0.0
 10
-123.7226432408
 20
-29.200508948
 30
0.0
 10
-123.6274421311
 20
-29.2487566948
 30
0.0
 11
-124.1473632442
 21
-28.1672749625
 31
0.0
 11
-124.0781467058
 21
-28.6678998278
 31
0.0
 11
-123.8772724875
 21
-29.050303505
 31
0.0
 11
-123.6274421311
 21
-29.2487566948
 31
0.0
  0
SPLINE
  5
4E8
100
AcDbEntity
  8
RACCORDO
100
AcDbSpline
 62
253
  6
CONTINUOUS
 70
0
 71
3
 72
10
 73
6
 74
4
 42
0.0000001
 43
0.0000001
 44
0.0000000001
 12
0.0
 22
-1.2550675692
 32
0.0
 13
1.1281714564
 23
-0.571755224
 33
0.0
 40
0.0
 40
0.0
 40
0.0
 40
0.0
 40
0.4026771215
 40
0.7468439571
 40
1.0
 40
1.0
 40
1.0
 40
1.0
 10
82.3278168623
 20
-131.4048650157
 30
0.0
 10
82.3278168623
 20
-131.5733273477
 30
0.0
 10
82.3641751492
 20
-131.88835531
 30
0.0
 10
82.5510801896
 20
-132.2754116004
 30
0.0
 10
82.752536835
 20
-132.4380989842
 30
0.0
 10
82.8477379756
 20
-132.4863467476
 30
0.0
 11
82.3278168623
 21
-131.4048650157
 31
0.0
 11
82.3970333511
 21
-131.9054897189
 31
0.0
 11
82.5979075502
 21
-132.2878934766
 31
0.0
 11
82.8477379756
 21
-132.4863467476
 31
0.0
  0
SPLINE
  5
4E9
100
AcDbEntity
  8
RACCORDO
100
AcDbSpline
 62
253
  6
CONTINUOUS
 70
0
 71
3
 72
12
 73
8
 74
6
 42
0.0000001
 43
0.0000001
 44
0.0000000001
 12
2.6016808914
 22
-1.3008404457
 32
0.0
 13
2.6016808914
 23
1.3008404457
 33
0.0
 40
0.0
 40
0.0
 40
0.0
 40
0.0
 40
0.1851645043
 40
0.3924393536
 40
0.6075606464
 40
0.8148354957
 40
1.0
 40
1.0
 40
1.0
 40
1.0
 10
87.9846711118
 20
-127.3050889102
 30
0.0
 10
88.1452507627
 20
-127.3853787356
 30
0.0
 10
88.5081271512
 20
-127.510876792
 30
0.0
 10
89.0923207811
 20
-127.6021248184
 30
0.0
 10
89.7054485673
 20
-127.6021248184
 30
0.0
 10
90.2896421972
 20
-127.510876792
 30
0.0
 10
90.6525185857
 20
-127.3853787356
 30
0.0
 10
90.8130982365
 20
-127.3050889102
 30
0.0
 11
87.9846711118
 21
-127.3050889102
 31
0.0
 11
88.4909036746
 21
-127.4889886532
 31
0.0
 11
89.086015744
 21
-127.5856704696
 31
0.0
 11
89.7117536043
 21
-127.5856704696
 31
0.0
 11
90.3068656738
 21
-127.4889886531
 31
0.0
 11
90.8130982365
 21
-127.3050889102
 31
0.0
  0
SPLINE
  5
4EA
100
AcDbEntity
  8
RACCORDO
100
AcDbSpline
 62
253
  6
CONTINUOUS
 70
0
 71
3
 72
12
 73
8
 74
6
 42
0.0000001
 43
0.0000001
 44
0.0000000001
 12
2.6016808895
 22
-1.3008404448
 32
0.0
 13
2.6016808895
 23
1.3008404448
 33
0.0
 40
0.0
 40
0.0
 40
0.0
 40
0.0
 40
0.1851644331
 40
0.3924392978
 40
0.6075606591
 40
0.8148355518
 40
1.0
 40
1.0
 40
1.0
 40
1.0
 10
87.9846711118
 20
10.3929502915
 30
0.0
 10
88.1452507008
 20
10.3126604971
 30
0.0
 10
88.5081270293
 20
10.1871624424
 30
0.0
 10
89.0923206679
 20
10.0959143857
 30
0.0
 10
89.7054485792
 20
10.0959143749
 30
0.0
 10
90.2896422606
 20
10.1871624284
 30
0.0
 10
90.6525186344
 20
10.3126604831
 30
0.0
 10
90.8130982365
 20
10.3929502842
 30
0.0
 11
87.9846711118
 21
10.3929502915
 31
0.0
 11
88.4909034724
 21
10.2090506001
 31
0.0
 11
89.0860155805
 21
10.1123687451
 31
0.0
 11
89.7117536397
 21
10.1123687349
 31
0.0
 11
90.3068658305
 21
10.2090505885
 31
0.0
 11
90.8130982365
 21
10.3929502842
 31
0.0
  0
SPLINE
  5
4EB
100
AcDbEntity
  8
RACCORDO
100
AcDbSpline
 62
253
  6
CONTINUOUS
 70
0
 71
3
 72
12
 73
8
 74
6
 42
0.0000001
 43
0.0000001
 44
0.0000000001
 12
0.0
 22
2.9397526251
 32
0.0
 13
2.6293946827
 23
1.3146973413
 33
0.0
 40
0.0
 40
0.0
 40
0.0
 40
0.0
 40
0.1952646443
 40
0.4051116665
 40
0.6172925625
 40
0.8190521716
 40
1.0
 40
1.0
 40
1.0
 40
1.0
 10
82.3278168623
 20
20.1495806466
 30
0.0
 10
82.3278168623
 20
20.3409238968
 30
0.0
 10
82.3806463206
 20
20.7385562629
 30
0.0
 10
82.5810961762
 20
21.312832235
 30
0.0
 10
82.8886883797
 20
21.8455575967
 30
0.0
 10
83.2747377755
 20
22.2872088507
 30
0.0
 10
83.5834360054
 20
22.5094410257
 30
0.0
 10
83.7420304247
 20
22.5887382353
 30
0.0
 11
82.3278168623
 21
20.1495806466
 31
0.0
 11
82.3970334007
 21
20.7194220504
 31
0.0
 11
82.597907619
 21
21.3026999458
 31
0.0
 11
82.9107765492
 21
21.8423190285
 31
0.0
 11
83.3050144004
 21
22.2854576228
 31
0.0
 11
83.7420304247
 21
22.5887382353
 31
0.0
  0
SPLINE
  5
4EC
100
AcDbEntity
  8
RACCORDO
100
AcDbSpline
 62
253
  6
CONTINUOUS
 70
0
 71
3
 72
12
 73
8
 74
6
 42
0.0000001
 43
0.0000001
 44
0.0000000001
 12
0.0
 22
2.9397526288
 32
0.0
 13
2.629394686
 23
1.314697343
 33
0.0
 40
0.0
 40
0.0
 40
0.0
 40
0.0
 40
0.1952645705
 40
0.40511161
 40
0.6172925737
 40
0.8190522244
 40
1.0
 40
1.0
 40
1.0
 40
1.0
 10
-124.1473632442
 20
123.3871706998
 30
0.0
 10
-124.1473632442
 20
123.578513878
 30
0.0
 10
-124.0945338124
 20
123.9761461887
 30
0.0
 10
-123.8940839864
 20
124.5504221855
 30
0.0
 10
-123.5864917294
 20
125.083147663
 30
0.0
 10
-123.200442283
 20
125.5247989531
 30
0.0
 10
-122.891744049
 20
125.7470310989
 30
0.0
 10
-122.7331496758
 20
125.8263282855
 30
0.0
 11
-124.1473632442
 21
123.3871706998
 31
0.0
 11
-124.0781467553
 21
123.9570118919
 31
0.0
 11
-123.8772725563
 21
124.5402898486
 31
0.0
 11
-123.5644035368
 21
125.0799091102
 31
0.0
 11
-123.1701655878
 21
125.5230477822
 31
0.0
 11
-122.7331496758
 21
125.8263282855
 31
0.0
  0
SPLINE
  5
4ED
100
AcDbEntity
  8
RACCORDO
100
AcDbSpline
 62
253
  6
CONTINUOUS
 70
0
 71
3
 72
10
 73
6
 74
4
 42
0.0000001
 43
0.0000001
 44
0.0000000001
 12
-0.8566638191
 22
0.4283319095
 32
0.0
 13
0.0
 23
0.9749974837
 33
0.0
 40
0.0
 40
0.0
 40
0.0
 40
0.0
 40
0.4661615988
 40
0.8366696059
 40
1.0
 40
1.0
 40
1.0
 40
1.0
 10
-129.8042174937
 20
119.2873945943
 30
0.0
 10
-129.9373320855
 20
119.3539518902
 30
0.0
 10
-130.1652712987
 20
119.4991999459
 30
0.0
 10
-130.3633459145
 20
119.7679221017
 30
0.0
 10
-130.3881182928
 20
119.9414191344
 30
0.0
 10
-130.3881182928
 20
119.9945013755
 30
0.0
 11
-129.8042174937
 21
119.2873945943
 31
0.0
 11
-130.1720169796
 21
119.5405108757
 31
0.0
 11
-130.3653806125
 21
119.8380669104
 31
0.0
 11
-130.3881182928
 21
119.9945013755
 31
0.0
  0
SPLINE
  5
4EE
100
AcDbEntity
  8
RACCORDO
100
AcDbSpline
 62
253
  6
CONTINUOUS
 70
0
 71
3
 72
10
 73
6
 74
4
 42
0.0000001
 43
0.0000001
 44
0.0000000001
 12
-0.8566638154
 22
0.4283319077
 32
0.0
 13
-0.0000000119
 23
0.9749974899
 33
0.0
 40
0.0
 40
0.0
 40
0.0
 40
0.0
 40
0.4661614523
 40
0.8366695218
 40
1.0
 40
1.0
 40
1.0
 40
1.0
 10
-129.8042174937
 20
-18.4106446074
 30
0.0
 10
-129.9373320431
 20
-18.3440873327
 30
0.0
 10
-130.1652712299
 20
-18.1988393003
 30
0.0
 10
-130.3633458912
 20
-17.9301171794
 30
0.0
 10
-130.3881182896
 20
-17.7566200975
 30
0.0
 10
-130.3881182903
 20
-17.7035378287
 30
0.0
 11
-129.8042174937
 21
-18.4106446074
 31
0.0
 11
-130.1720168766
 21
-18.1575284272
 31
0.0
 11
-130.3653805866
 21
-17.8599723731
 31
0.0
 11
-130.3881182903
 21
-17.7035378287
 31
0.0
  0
SPLINE
  5
4EF
100
AcDbEntity
  8
0
100
AcDbSpline
 62
7
  6
CONTINUOUS
 70
0
 71
3
 72
10
 73
6
 74
4
 42
0.0000001
 43
0.0000001
 44
0.0000000001
 12
0.0
 22
1.8835049295
 32
0.0
 13
1.6939748922
 23
0.8564916804
 33
0.0
 40
0.0
 40
0.0
 40
0.0
 40
0.0
 40
0.4024840782
 40
0.7464857565
 40
1.0
 40
1.0
 40
1.0
 40
1.0
 10
-119.1976157759
 20
-15.0536914285
 30
0.0
 10
-119.1976157759
 20
-14.8009978467
 30
0.0
 10
-119.1430883054
 20
-14.3284494442
 30
0.0
 10
-118.8625598733
 20
-13.747609616
 30
0.0
 10
-118.5600912488
 20
-13.5034219457
 30
0.0
 10
-118.4169423278
 20
-13.4310443323
 30
0.0
 11
-119.1976157759
 21
-15.0536914285
 31
0.0
 11
-119.0937909682
 21
-14.3027541303
 31
0.0
 11
-118.7924796408
 21
-13.7291486147
 31
0.0
 11
-118.4169423278
 21
-13.4310443323
 31
0.0
  0
SPLINE
  5
4F0
100
AcDbEntity
  8
0
100
AcDbSpline
 62
7
  6
CONTINUOUS
 70
0
 71
3
 72
15
 73
11
 74
9
 42
0.0000001
 43
0.0000001
 44
0.0000000001
 12
0.0
 22
-5.7931490808
 32
0.0
 13
5.2102062151
 23
2.6343355481
 33
0.0
 40
0.0
 40
0.0
 40
0.0
 40
0.0
 40
0.1486315325
 40
0.3083628787
 40
0.4698707229
 40
0.6234460924
 40
0.7611799517
 40
0.8795148062
 40
0.9823757185
 40
1.0
 40
1.0
 40
1.0
 40
1.0
 10
73.1354287069
 20
-111.2202136699
 30
0.0
 10
73.1354287069
 20
-111.5072285453
 30
0.0
 10
73.2146605234
 20
-112.1036691638
 30
0.0
 10
73.5153946729
 20
-112.9651211798
 30
0.0
 10
73.9765633626
 20
-113.7640684331
 30
0.0
 10
74.5563922589
 20
-114.4270291964
 30
0.0
 10
75.2051410669
 20
-114.8942530408
 30
0.0
 10
75.8747644025
 20
-115.1222957246
 30
0.0
 10
76.3529049614
 20
-115.075696486
 30
0.0
 10
76.5667872322
 20
-114.9796572001
 30
0.0
 10
76.5973959459
 20
-114.9641811097
 30
0.0
 11
73.1354287069
 21
-111.2202136699
 31
0.0
 11
73.2392535145
 21
-112.0749757757
 31
0.0
 11
73.540564842
 21
-112.9498926188
 31
0.0
 11
74.0098682371
 21
-113.7593212427
 31
0.0
 11
74.6012250138
 21
-114.424029134
 31
0.0
 11
75.2567490504
 21
-114.878950053
 31
0.0
 11
75.9122730871
 21
-115.0795531706
 31
0.0
 11
76.5036298638
 21
-115.006202056
 31
0.0
 11
76.5973959459
 21
-114.9641811097
 31
0.0
  0
SPLINE
  5
4F1
100
AcDbEntity
  8
0
100
AcDbSpline
 62
7
  6
CONTINUOUS
 70
0
 71
3
 72
15
 73
11
 74
9
 42
0.0000001
 43
0.0000001
 44
0.0000000001
 12
0.0
 22
-5.7931490808
 32
0.0
 13
5.2102062151
 23
2.6343355481
 33
0.0
 40
0.0
 40
0.0
 40
0.0
 40
0.0
 40
0.1486315325
 40
0.3083628787
 40
0.4698707229
 40
0.6234460924
 40
0.7611799517
 40
0.8795148062
 40
0.9823757185
 40
1.0
 40
1.0
 40
1.0
 40
1.0
 10
-52.0224715632
 20
71.7362675912
 30
0.0
 10
-52.0224715632
 20
71.4492527158
 30
0.0
 10
-51.9432397466
 20
70.8528120972
 30
0.0
 10
-51.6425055971
 20
69.9913600812
 30
0.0
 10
-51.1813369074
 20
69.192412828
 30
0.0
 10
-50.6015080112
 20
68.5294520647
 30
0.0
 10
-49.9527592031
 20
68.0622282203
 30
0.0
 10
-49.2831358675
 20
67.8341855364
 30
0.0
 10
-48.8049953086
 20
67.880784775
 30
0.0
 10
-48.5911130378
 20
67.976824061
 30
0.0
 10
-48.5605043241
 20
67.9923001514
 30
0.0
 11
-52.0224715632
 21
71.7362675912
 31
0.0
 11
-51.9186467555
 21
70.8815054853
 31
0.0
 11
-51.617335428
 21
70.0065886423
 31
0.0
 11
-51.1480320329
 21
69.1971600184
 31
0.0
 11
-50.5566752563
 21
68.5324521271
 31
0.0
 11
-49.9011512196
 21
68.077531208
 31
0.0
 11
-49.2456271829
 21
67.8769280904
 31
0.0
 11
-48.6542704063
 21
67.9502792051
 31
0.0
 11
-48.5605043241
 21
67.9923001514
 31
0.0
  0
SPLINE
  5
4F2
100
AcDbEntity
  8
0
100
AcDbSpline
 62
7
  6
CONTINUOUS
 70
0
 71
3
 72
15
 73
11
 74
9
 42
0.0000001
 43
0.0000001
 44
0.0000000001
 12
0.0
 22
-5.7931490808
 32
0.0
 13
5.2102062151
 23
2.6343355481
 33
0.0
 40
0.0
 40
0.0
 40
0.0
 40
0.0
 40
0.1486315325
 40
0.3083628787
 40
0.4698707229
 40
0.6234460924
 40
0.7611799517
 40
0.8795148062
 40
0.9823757185
 40
1.0
 40
1.0
 40
1.0
 40
1.0
 10
5.9602844941
 20
-77.6326415635
 30
0.0
 10
5.9602844941
 20
-77.9196564389
 30
0.0
 10
6.0395163107
 20
-78.5160970575
 30
0.0
 10
6.3402504602
 20
-79.3775490735
 30
0.0
 10
6.8014191499
 20
-80.1764963267
 30
0.0
 10
7.3812480461
 20
-80.83945709
 30
0.0
 10
8.0299968542
 20
-81.3066809344
 30
0.0
 10
8.6996201898
 20
-81.5347236183
 30
0.0
 10
9.1777607487
 20
-81.4881243797
 30
0.0
 10
9.3916430195
 20
-81.3920850937
 30
0.0
 10
9.4222517331
 20
-81.3766090033
 30
0.0
 11
5.9602844941
 21
-77.6326415635
 31
0.0
 11
6.0641093018
 21
-78.4874036693
 31
0.0
 11
6.3654206293
 21
-79.3623205124
 31
0.0
 11
6.8347240244
 21
-80.1717491363
 31
0.0
 11
7.426080801
 21
-80.8364570276
 31
0.0
 11
8.0816048377
 21
-81.2913779466
 31
0.0
 11
8.7371288744
 21
-81.4919810643
 31
0.0
 11
9.328485651
 21
-81.4186299496
 31
0.0
 11
9.4222517331
 21
-81.3766090033
 31
0.0
  0
SPLINE
  5
4F3
100
AcDbEntity
  8
RACCORDO
100
AcDbSpline
 62
253
  6
CONTINUOUS
 70
0
 71
3
 72
15
 73
11
 74
9
 42
0.0000001
 43
0.0000001
 44
0.0000000001
 12
0.0
 22
-11.7735158731
 32
0.0
 13
10.5305527305
 23
-5.2652763653
 33
0.0
 40
0.0
 40
0.0
 40
0.0
 40
0.0
 40
0.1196128017
 40
0.2466920581
 40
0.3784112361
 40
0.5116997295
 40
0.6433292898
 40
0.7702467875
 40
0.8898195182
 40
1.0
 40
1.0
 40
1.0
 40
1.0
 10
-129.8042174937
 20
-18.4106446074
 30
0.0
 10
-129.8042174937
 20
-18.8800656806
 30
0.0
 10
-129.7244288059
 20
-19.8491912121
 30
0.0
 10
-129.3995626457
 20
-21.3023001315
 30
0.0
 10
-128.8773447463
 20
-22.7538761222
 30
0.0
 10
-128.1774398821
 20
-24.148370832
 30
0.0
 10
-127.3262149295
 20
-25.4336038596
 30
0.0
 10
-126.3552206723
 20
-26.5615333454
 30
0.0
 10
-125.301298717
 20
-27.4896951541
 30
0.0
 10
-124.5341170354
 20
-27.9738980668
 30
0.0
 10
-124.1473632442
 20
-28.1672749625
 30
0.0
 11
-129.8042174937
 21
-18.4106446074
 31
0.0
 11
-129.6958118783
 21
-19.8147291911
 31
0.0
 11
-129.3740060946
 21
-21.2758810094
 31
0.0
 11
-128.8511059677
 21
-22.7358636727
 31
0.0
 11
-128.1471643808
 21
-24.1383927219
 31
0.0
 11
-127.2894709011
 21
-25.4291538863
 31
0.0
 11
-126.3110736585
 21
-26.5585640191
 31
0.0
 11
-125.2496325464
 21
-27.4833448092
 31
0.0
 11
-124.1473632442
 21
-28.1672749625
 31
0.0
  0
SPLINE
  5
4F4
100
AcDbEntity
  8
RACCORDO
100
AcDbSpline
 62
253
  6
CONTINUOUS
 70
0
 71
3
 72
15
 73
11
 74
9
 42
0.0000001
 43
0.0000001
 44
0.0000000001
 12
-7.8253169096
 22
3.9126584548
 32
0.0
 13
-0.0
 23
-8.7489702776
 33
0.0
 40
0.0
 40
0.0
 40
0.0
 40
0.0
 40
0.134745914
 40
0.2570932026
 40
0.3702719429
 40
0.4801119658
 40
0.5934515145
 40
0.7160806995
 40
0.8513752367
 40
1.0
 40
1.0
 40
1.0
 40
1.0
 10
-124.1473632442
 20
123.3871706998
 30
0.0
 10
-124.4988397374
 20
123.5629089464
 30
0.0
 10
-125.2028394077
 20
123.8388459691
 30
0.0
 10
-126.2835868115
 20
123.9915927011
 30
0.0
 10
-127.2961927993
 20
123.8450122176
 30
0.0
 10
-128.1875289682
 20
123.3946140402
 30
0.0
 10
-128.9075591603
 20
122.6661040608
 30
0.0
 10
-129.4289002762
 20
121.7035660725
 30
0.0
 10
-129.7412784885
 20
120.5512122285
 30
0.0
 10
-129.8042174937
 20
119.7208324732
 30
0.0
 10
-129.8042174937
 20
119.2873945943
 30
0.0
 11
-124.1473632442
 21
123.3871706998
 31
0.0
 11
-125.2495370989
 21
123.8054884057
 31
0.0
 11
-126.3111859017
 21
123.9421828239
 31
0.0
 11
-127.2897836716
 21
123.7910624603
 31
0.0
 11
-128.1475608955
 21
123.3578022239
 31
0.0
 11
-128.8513110762
 21
122.6592216238
 31
0.0
 11
-129.3740415864
 21
121.7222998738
 31
0.0
 11
-129.6957904202
 21
120.5831797323
 31
0.0
 11
-129.8042174937
 21
119.2873945943
 31
0.0
  0
SPLINE
  5
4F5
100
AcDbEntity
  8
RACCORDO
100
AcDbSpline
 62
253
  6
CONTINUOUS
 70
0
 71
3
 72
15
 73
11
 74
9
 42
0.0000001
 43
0.0000001
 44
0.0000000001
 12
0.0
 22
11.7735158731
 32
0.0
 13
-10.5305527305
 23
5.2652763653
 33
0.0
 40
0.0
 40
0.0
 40
0.0
 40
0.0
 40
0.1196128017
 40
0.2466920581
 40
0.3784112361
 40
0.5116997295
 40
0.6433292898
 40
0.7702467875
 40
0.8898195182
 40
1.0
 40
1.0
 40
1.0
 40
1.0
 10
87.9846711118
 20
10.3929502915
 30
0.0
 10
87.9846711118
 20
10.8623713647
 30
0.0
 10
87.904882424
 20
11.8314968962
 30
0.0
 10
87.5800162638
 20
13.2846058156
 30
0.0
 10
87.0577983644
 20
14.7361818063
 30
0.0
 10
86.3578935002
 20
16.1306765161
 30
0.0
 10
85.5066685476
 20
17.4159095437
 30
0.0
 10
84.5356742904
 20
18.5438390295
 30
0.0
 10
83.4817523351
 20
19.4720008382
 30
0.0
 10
82.7145706535
 20
19.9562037509
 30
0.0
 10
82.3278168623
 20
20.1495806466
 30
0.0
 11
87.9846711118
 21
10.3929502915
 31
0.0
 11
87.8762654964
 21
11.7970348752
 31
0.0
 11
87.5544597127
 21
13.2581866935
 31
0.0
 11
87.0315595858
 21
14.7181693568
 31
0.0
 11
86.3276179989
 21
16.120698406
 31
0.0
 11
85.4699245193
 21
17.4114595704
 31
0.0
 11
84.4915272766
 21
18.5408697032
 31
0.0
 11
83.4300861645
 21
19.4656504933
 31
0.0
 11
82.3278168623
 21
20.1495806466
 31
0.0
  0
SPLINE
  5
4F6
100
AcDbEntity
  8
RACCORDO
100
AcDbSpline
 62
253
  6
CONTINUOUS
 70
0
 71
3
 72
15
 73
11
 74
9
 42
0.0000001
 43
0.0000001
 44
0.0000000001
 12
7.8253169096
 22
-3.9126584548
 32
0.0
 13
-0.0
 23
8.7489702776
 33
0.0
 40
0.0
 40
0.0
 40
0.0
 40
0.0
 40
0.134745914
 40
0.2570932026
 40
0.3702719429
 40
0.4801119658
 40
0.5934515145
 40
0.7160806995
 40
0.8513752367
 40
1.0
 40
1.0
 40
1.0
 40
1.0
 10
82.3278168623
 20
-131.4048650157
 30
0.0
 10
82.6792933555
 20
-131.5806032623
 30
0.0
 10
83.3832930258
 20
-131.856540285
 30
0.0
 10
84.4640404296
 20
-132.009287017
 30
0.0
 10
85.4766464174
 20
-131.8627065335
 30
0.0
 10
86.3679825863
 20
-131.4123083561
 30
0.0
 10
87.0880127784
 20
-130.6837983767
 30
0.0
 10
87.6093538943
 20
-129.7212603884
 30
0.0
 10
87.9217321067
 20
-128.5689065444
 30
0.0
 10
87.9846711118
 20
-127.7385267891
 30
0.0
 10
87.9846711118
 20
-127.3050889102
 30
0.0
 11
82.3278168623
 21
-131.4048650157
 31
0.0
 11
83.429990717
 21
-131.8231827216
 31
0.0
 11
84.4916395198
 21
-131.9598771398
 31
0.0
 11
85.4702372897
 21
-131.8087567762
 31
0.0
 11
86.3280145136
 21
-131.3754965398
 31
0.0
 11
87.0317646943
 21
-130.6769159397
 31
0.0
 11
87.5544952045
 21
-129.7399941897
 31
0.0
 11
87.8762440383
 21
-128.6008740482
 31
0.0
 11
87.9846711118
 21
-127.3050889102
 31
0.0
  0
SPLINE
  5
4F7
100
AcDbEntity
  8
RACCORDO
100
AcDbSpline
 62
253
  6
CONTINUOUS
 70
0
 71
3
 72
15
 73
11
 74
9
 42
0.0000001
 43
0.0000001
 44
0.0000000001
 12
0.0000000051
 22
14.7168955564
 32
0.0
 13
-13.1631915562
 23
6.5815957695
 33
0.0
 40
0.0
 40
0.0
 40
0.0
 40
0.0
 40
0.1197006622
 40
0.2467585383
 40
0.3784308789
 40
0.5116578374
 40
0.6432502114
 40
0.7701553723
 40
0.8897335658
 40
1.0
 40
1.0
 40
1.0
 40
1.0
 10
90.8130982365
 20
10.3929502915
 30
0.0
 10
90.8130982367
 20
10.9801576726
 30
0.0
 10
90.7132466356
 20
12.1918907425
 30
0.0
 10
90.307034133
 20
14.0083420895
 30
0.0
 10
89.654386242
 20
15.8221765052
 30
0.0
 10
88.779854111
 20
17.5646640137
 30
0.0
 10
87.716208263
 20
19.17079994
 30
0.0
 10
86.5027604632
 20
20.5806806797
 30
0.0
 10
85.185160864
 20
21.7412426022
 30
0.0
 10
84.2258498233
 20
22.3468285363
 30
0.0
 10
83.7420304247
 20
22.5887382353
 30
0.0
 11
90.8130982365
 21
10.3929502915
 31
0.0
 11
90.6773916486
 21
12.1493375771
 31
0.0
 11
90.2750684968
 21
13.9754407268
 31
0.0
 11
89.6215942528
 21
15.7997410263
 31
0.0
 11
88.7420919999
 21
17.5521023519
 31
0.0
 11
87.6703719721
 21
19.1651605288
 31
0.0
 11
86.4476329146
 21
20.5769061558
 31
0.0
 11
85.1208834198
 21
21.733064212
 31
0.0
 11
83.7420304247
 21
22.5887382353
 31
0.0
  0
SPLINE
  5
4F8
100
AcDbEntity
  8
0
100
AcDbSpline
 62
7
  6
CONTINUOUS
 70
0
 71
3
 72
10
 73
6
 74
4
 42
0.0000001
 43
0.0000001
 44
0.0000000001
 12
-1.6939748922
 22
-0.8564916804
 32
0.0
 13
-0.0
 23
-1.8835049295
 33
0.0
 40
0.0
 40
0.0
 40
0.0
 40
0.0
 40
0.2535142435
 40
0.5975159218
 40
1.0
 40
1.0
 40
1.0
 40
1.0
 10
6.7409579423
 20
-76.0099944673
 30
0.0
 10
6.5978090212
 20
-76.0823720807
 30
0.0
 10
6.2953403967
 20
-76.326559751
 30
0.0
 10
6.0148119646
 20
-76.9073995792
 30
0.0
 10
5.9602844941
 20
-77.3799479817
 30
0.0
 10
5.9602844941
 20
-77.6326415635
 30
0.0
 11
6.7409579423
 21
-76.0099944673
 31
0.0
 11
6.3654206293
 21
-76.3080987497
 31
0.0
 11
6.0641093018
 21
-76.8817042654
 31
0.0
 11
5.9602844941
 21
-77.6326415635
 31
0.0
  0
SPLINE
  5
4F9
100
AcDbEntity
  8
RACCORDO
100
AcDbSpline
 62
253
  6
CONTINUOUS
 70
0
 71
3
 72
11
 73
7
 74
5
 42
0.0000001
 43
0.0000001
 44
0.0000000001
 12
-4.1445225655
 22
2.0722612849
 32
0.0
 13
-4.1636203549
 23
-2.0808499316
 33
0.0
 40
0.0
 40
0.0
 40
0.0
 40
0.0
 40
0.3182318984
 40
0.6069174403
 40
0.8739319937
 40
1.0
 40
1.0
 40
1.0
 40
1.0
 10
-122.7331496818
 20
125.8263282886
 30
0.0
 10
-123.1727894431
 20
126.0461481694
 30
0.0
 10
-124.0530351187
 20
126.3910812846
 30
0.0
 10
-125.4040530288
 20
126.5818485299
 30
0.0
 10
-126.4627165485
 20
126.4284564924
 30
0.0
 10
-127.0292503312
 20
126.197834321
 30
0.0
 10
-127.2042167701
 20
126.1103914536
 30
0.0
 11
-122.7331496818
 21
125.8263282886
 31
0.0
 11
-124.1118319127
 21
126.3494634564
 31
0.0
 11
-125.4385911519
 21
126.5200998592
 31
0.0
 11
-126.6613463661
 21
126.3311382374
 31
0.0
 11
-127.2042167701
 21
126.1103914536
 31
0.0
  0
SPLINE
  5
4FA
100
AcDbEntity
  8
0
100
AcDbSpline
 62
7
  6
CONTINUOUS
 70
0
 71
3
 72
10
 73
6
 74
4
 42
0.0000001
 43
0.0000001
 44
0.0000000001
 12
-1.6939748922
 22
-0.8564916804
 32
0.0
 13
-0.0
 23
-1.8835049295
 33
0.0
 40
0.0
 40
0.0
 40
0.0
 40
0.0
 40
0.2535142435
 40
0.5975159218
 40
1.0
 40
1.0
 40
1.0
 40
1.0
 10
-51.241798115
 20
73.3589146874
 30
0.0
 10
-51.3849470361
 20
73.2865370739
 30
0.0
 10
-51.6874156606
 20
73.0423494037
 30
0.0
 10
-51.9679440927
 20
72.4615095755
 30
0.0
 10
-52.0224715632
 20
71.988961173
 30
0.0
 10
-52.0224715632
 20
71.7362675912
 30
0.0
 11
-51.241798115
 21
73.3589146874
 31
0.0
 11
-51.617335428
 21
73.060810405
 31
0.0
 11
-51.9186467555
 21
72.4872048893
 31
0.0
 11
-52.0224715632
 21
71.7362675912
 31
0.0
  0
SPLINE
  5
4FB
100
AcDbEntity
  8
0
100
AcDbSpline
 62
7
  6
CONTINUOUS
 70
0
 71
3
 72
10
 73
6
 74
4
 42
0.0000001
 43
0.0000001
 44
0.0000000001
 12
-1.6939748922
 22
-0.8564916804
 32
0.0
 13
0.0
 23
-1.8835049295
 33
0.0
 40
0.0
 40
0.0
 40
0.0
 40
0.0
 40
0.2535142435
 40
0.5975159218
 40
1.0
 40
1.0
 40
1.0
 40
1.0
 10
73.916102155
 20
-109.5975665736
 30
0.0
 10
73.7729532339
 20
-109.6699441871
 30
0.0
 10
73.4704846095
 20
-109.9141318574
 30
0.0
 10
73.1899561774
 20
-110.4949716856
 30
0.0
 10
73.1354287069
 20
-110.9675200881
 30
0.0
 10
73.1354287069
 20
-111.2202136699
 30
0.0
 11
73.916102155
 21
-109.5975665736
 31
0.0
 11
73.540564842
 21
-109.8956708561
 31
0.0
 11
73.2392535145
 21
-110.4692763717
 31
0.0
 11
73.1354287069
 21
-111.2202136699
 31
0.0
  0
SPLINE
  5
4FC
100
AcDbEntity
  8
0
100
AcDbSpline
 62
7
  6
CONTINUOUS
 70
0
 71
3
 72
15
 73
11
 74
9
 42
0.0000001
 43
0.0000001
 44
0.0000000001
 12
-5.2102062151
 22
-2.6343355481
 32
0.0
 13
0.0
 23
5.7931490808
 33
0.0
 40
0.0
 40
0.0
 40
0.0
 40
0.0
 40
0.0176242815
 40
0.1204851938
 40
0.2388200483
 40
0.3765539076
 40
0.5301292771
 40
0.6916371213
 40
0.8513684675
 40
1.0
 40
1.0
 40
1.0
 40
1.0
 10
-115.7356485369
 20
-18.7976588683
 30
0.0
 10
-115.7662572505
 20
-18.8131349587
 30
0.0
 10
-115.9801395213
 20
-18.9091742447
 30
0.0
 10
-116.4582800802
 20
-18.9557734833
 30
0.0
 10
-117.1279034158
 20
-18.7277307994
 30
0.0
 10
-117.7766522239
 20
-18.260506955
 30
0.0
 10
-118.3564811201
 20
-17.5975461917
 30
0.0
 10
-118.8176498098
 20
-16.7985989385
 30
0.0
 10
-119.1183839593
 20
-15.9371469225
 30
0.0
 10
-119.1976157759
 20
-15.3407063039
 30
0.0
 10
-119.1976157759
 20
-15.0536914285
 30
0.0
 11
-115.7356485369
 21
-18.7976588683
 31
0.0
 11
-115.829414619
 21
-18.8396798146
 31
0.0
 11
-116.4207713956
 21
-18.9130309293
 31
0.0
 11
-117.0762954323
 21
-18.7124278116
 31
0.0
 11
-117.731819469
 21
-18.2575068926
 31
0.0
 11
-118.3231762456
 21
-17.5927990013
 31
0.0
 11
-118.7924796408
 21
-16.7833703774
 31
0.0
 11
-119.0937909682
 21
-15.9084535343
 31
0.0
 11
-119.1976157759
 21
-15.0536914285
 31
0.0
  0
SPLINE
  5
4FD
100
AcDbEntity
  8
0
100
AcDbSpline
 62
7
  6
CONTINUOUS
 70
0
 71
3
 72
15
 73
11
 74
9
 42
0.0000001
 43
0.0000001
 44
0.0000000001
 12
-5.2102062151
 22
-2.6343355481
 32
0.0
 13
0.0
 23
5.7931490808
 33
0.0
 40
0.0
 40
0.0
 40
0.0
 40
0.0
 40
0.0176242815
 40
0.1204851938
 40
0.2388200483
 40
0.3765539076
 40
0.5301292771
 40
0.6916371213
 40
0.8513684675
 40
1.0
 40
1.0
 40
1.0
 40
1.0
 10
76.5973959459
 20
5.4133500164
 30
0.0
 10
76.5667872322
 20
5.397873926
 30
0.0
 10
76.3529049614
 20
5.30183464
 30
0.0
 10
75.8747644025
 20
5.2552354014
 30
0.0
 10
75.2051410669
 20
5.4832780853
 30
0.0
 10
74.5563922589
 20
5.9505019297
 30
0.0
 10
73.9765633626
 20
6.613462693
 30
0.0
 10
73.5153946729
 20
7.4124099462
 30
0.0
 10
73.2146605234
 20
8.2738619622
 30
0.0
 10
73.1354287069
 20
8.8703025808
 30
0.0
 10
73.1354287069
 20
9.1573174562
 30
0.0
 11
76.5973959459
 21
5.4133500164
 31
0.0
 11
76.5036298638
 21
5.3713290701
 31
0.0
 11
75.9122730871
 21
5.2979779554
 31
0.0
 11
75.2567490504
 21
5.498581073
 31
0.0
 11
74.6012250138
 21
5.9535019921
 31
0.0
 11
74.0098682371
 21
6.6182098834
 31
0.0
 11
73.540564842
 21
7.4276385072
 31
0.0
 11
73.2392535145
 21
8.3025553503
 31
0.0
 11
73.1354287069
 21
9.1573174562
 31
0.0
  0
SPLINE
  5
4FE
100
AcDbEntity
  8
0
100
AcDbSpline
 62
7
  6
CONTINUOUS
 70
0
 71
3
 72
10
 73
6
 74
4
 42
0.0000001
 43
0.0000001
 44
0.0000000001
 12
-1.6939748922
 22
-0.8564916804
 32
0.0
 13
-0.0
 23
-1.8835049295
 33
0.0
 40
0.0
 40
0.0
 40
0.0
 40
0.0
 40
0.2535142435
 40
0.5975159218
 40
1.0
 40
1.0
 40
1.0
 40
1.0
 10
-118.4169423278
 20
106.9464867938
 30
0.0
 10
-118.5600912488
 20
106.8741091803
 30
0.0
 10
-118.8625598733
 20
106.62992151
 30
0.0
 10
-119.1430883054
 20
106.0490816819
 30
0.0
 10
-119.1976157759
 20
105.5765332793
 30
0.0
 10
-119.1976157759
 20
105.3238396975
 30
0.0
 11
-118.4169423278
 21
106.9464867938
 31
0.0
 11
-118.7924796408
 21
106.6483825113
 31
0.0
 11
-119.0937909682
 21
106.0747769957
 31
0.0
 11
-119.1976157759
 21
105.3238396975
 31
0.0
  0
SPLINE
  5
4FF
100
AcDbEntity
  8
RACCORDO
100
AcDbSpline
 62
253
  6
CONTINUOUS
 70
0
 71
3
 72
12
 73
8
 74
6
 42
0.0000001
 43
0.0000001
 44
0.0000000001
 12
5.6615136427
 22
2.8312648326
 32
0.0
 13
-0.0000000027
 23
6.3015379957
 33
0.0
 40
0.0
 40
0.0
 40
0.0
 40
0.0
 40
0.0976815209
 40
0.2943170371
 40
0.5070949501
 40
0.7418809893
 40
1.0
 40
1.0
 40
1.0
 40
1.0
 10
88.2139708007
 20
-132.7134356249
 30
0.0
 10
88.398312555
 20
-132.6212482066
 30
0.0
 10
88.9312113795
 20
-132.2983998124
 30
0.0
 10
89.6918051626
 20
-131.5290694228
 30
0.0
 10
90.3436165614
 20
-130.3262603961
 30
0.0
 10
90.7343204184
 20
-128.8856012405
 30
0.0
 10
90.8130982368
 20
-127.8472711613
 30
0.0
 10
90.8130982365
 20
-127.3050889102
 30
0.0
 11
88.2139708007
 21
-132.7134356249
 31
0.0
 11
88.7419688487
 21
-132.3933239872
 31
0.0
 11
89.6214974657
 21
-131.520504688
 31
0.0
 11
90.2750018134
 21
-130.3497134722
 31
0.0
 11
90.6773577001
 21
-128.9259617762
 31
0.0
 11
90.8130982365
 21
-127.3050889102
 31
0.0
  0
SPLINE
  5
500
100
AcDbEntity
  8
ASSI
100
AcDbSpline
 62
7
  6
CONTINUOUS
 70
0
 71
3
 72
10
 73
6
 74
4
 42
0.0000001
 43
0.0000001
 44
0.0000000001
 12
-0.6172765974
 22
-0.7046793072
 32
0.0
 13
-0.107328887
 23
-0.9199110635
 33
0.0
 40
0.0
 40
0.0
 40
0.0
 40
0.0
 40
0.1807892984
 40
0.9002965745
 40
1.0
 40
1.0
 40
1.0
 40
1.0
 10
114.0664241453
 20
35.9831095946
 30
0.0
 10
114.0292251443
 20
35.9406434355
 30
0.0
 10
113.8593921056
 20
35.7156260683
 30
0.0
 10
113.7650546516
 20
35.4144610186
 30
0.0
 10
113.7307300355
 20
35.1636387829
 30
0.0
 10
113.7271630162
 20
35.1330660215
 30
0.0
 11
114.0664241453
 21
35.9831095946
 31
0.0
 11
113.9644401648
 21
35.8484117805
 31
0.0
 11
113.7397214173
 21
35.2246314731
 31
0.0
 11
113.7271630162
 21
35.1330660215
 31
0.0
  0
SPLINE
  5
501
100
AcDbEntity
  8
DRAFT
100
AcDbSpline
 62
7
  6
CONTINUOUS
 70
0
 71
3
 72
14
 73
10
 74
8
 42
0.0000001
 43
0.0000001
 44
0.0000000001
 12
0.0
 22
-9.6094853605
 32
0.0
 13
-6.3625173111
 23
-7.2129408123
 33
0.0
 40
0.0
 40
0.0
 40
0.0
 40
0.0
 40
0.1658519051
 40
0.3247770136
 40
0.4765799602
 40
0.6213026404
 40
0.7592610591
 40
0.8910861087
 40
1.0
 40
1.0
 40
1.0
 40
1.0
 10
96.2578204517
 20
-103.337416285
 30
0.0
 10
96.2578204517
 20
-103.8686667698
 30
0.0
 10
96.2188052527
 20
-104.9095344295
 30
0.0
 10
96.0353493744
 20
-106.4268757082
 30
0.0
 10
95.7296554634
 20
-107.8556175714
 30
0.0
 10
95.3041598887
 20
-109.1833424935
 30
0.0
 10
94.7622189386
 20
-110.3986030293
 30
0.0
 10
94.1371873929
 20
-111.441995123
 30
0.0
 10
93.6621028352
 20
-112.0517030217
 30
0.0
 10
93.4311139957
 20
-112.3135661721
 30
0.0
 11
96.2578204517
 21
-103.337416285
 31
0.0
 11
96.1955448892
 21
-104.9299505711
 31
0.0
 11
96.0093404483
 21
-106.4457449607
 31
0.0
 11
95.7009578918
 21
-107.8715242175
 31
0.0
 11
95.2732238148
 21
-109.1948228191
 31
0.0
 11
94.7299993547
 21
-110.40412535
 31
0.0
 11
94.076059654
 21
-111.4890545381
 31
0.0
 11
93.4311139957
 21
-112.3135661721
 31
0.0
  0
SPLINE
  5
502
100
AcDbEntity
  8
DRAFT
100
AcDbSpline
 62
7
  6
CONTINUOUS
 70
0
 71
3
 72
11
 73
7
 74
5
 42
0.0000001
 43
0.0000001
 44
0.0000000001
 12
2.8660785905
 22
-5.2792041402
 32
0.0
 13
1.835577207
 23
-5.7203503561
 33
0.0
 40
0.0
 40
0.0
 40
0.0
 40
0.0
 40
0.2767323684
 40
0.5883203313
 40
0.8976928004
 40
1.0
 40
1.0
 40
1.0
 40
1.0
 10
92.5615328064
 20
16.7077423972
 30
0.0
 10
92.8259117118
 20
16.2207668421
 30
0.0
 10
93.3616560031
 20
15.1709529506
 30
0.0
 10
94.0913194555
 20
13.5272907431
 30
0.0
 10
94.6017137719
 20
12.1711680454
 30
0.0
 10
94.8614279763
 20
11.3886927964
 30
0.0
 10
94.9240255643
 20
11.1936151211
 30
0.0
 11
92.5615328064
 21
16.7077423972
 31
0.0
 11
93.3171831795
 21
15.2270895824
 31
0.0
 11
94.0763685403
 21
13.5163533848
 31
0.0
 11
94.7304418577
 21
11.7769479596
 31
0.0
 11
94.9240255643
 21
11.1936151211
 31
0.0
  0
SPLINE
  5
503
100
AcDbEntity
  8
DRAFT
100
AcDbSpline
 62
7
  6
CONTINUOUS
 70
0
 71
3
 72
12
 73
8
 74
6
 42
0.0000001
 43
0.0000001
 44
0.0000000001
 12
2.490810694
 22
-7.7623048412
 32
0.0
 13
0.0
 23
-8.1509132101
 33
0.0
 40
0.0
 40
0.0
 40
0.0
 40
0.0
 40
0.1497353179
 40
0.3708449811
 40
0.586871176
 40
0.7968631853
 40
1.0
 40
1.0
 40
1.0
 40
1.0
 10
94.9240255643
 20
11.1936151211
 30
0.0
 10
95.0483463413
 20
10.8061847268
 30
0.0
 10
95.3372532631
 20
9.8405571272
 30
0.0
 10
95.7167900025
 20
8.2908267354
 30
0.0
 10
96.0262396329
 20
6.5587651335
 30
0.0
 10
96.2140833719
 20
4.8584491663
 30
0.0
 10
96.2578204517
 20
3.7356252293
 30
0.0
 10
96.2578204517
 20
3.1837083805
 30
0.0
 11
94.9240255643
 21
11.1936151211
 31
0.0
 11
95.2736481075
 21
10.02418045
 31
0.0
 11
95.7012298651
 21
8.2733911104
 31
0.0
 11
96.0094485401
 21
6.5397660639
 31
0.0
 11
96.195561932
 21
4.8382880095
 31
0.0
 11
96.2578204517
 21
3.1837083805
 31
0.0
  0
SPLINE
  5
504
100
AcDbEntity
  8
DRAFT
100
AcDbSpline
 62
7
  6
CONTINUOUS
 70
0
 71
3
 72
11
 73
7
 74
5
 42
0.0000001
 43
0.0000001
 44
0.0000000001
 12
5.0769635634
 22
-2.5384817817
 32
0.0
 13
4.1704852044
 23
-3.8521970004
 33
0.0
 40
0.0
 40
0.0
 40
0.0
 40
0.0
 40
0.2674045711
 40
0.5464446888
 40
0.8364706495
 40
1.0
 40
1.0
 40
1.0
 40
1.0
 10
82.1156848279
 20
27.575284268
 30
0.0
 10
82.5682192493
 20
27.3490170574
 30
0.0
 10
83.4716691316
 20
26.8430058495
 30
0.0
 10
84.7841548668
 20
25.9557371508
 30
0.0
 10
85.8701992509
 20
25.0923363474
 30
0.0
 10
86.5117164759
 20
24.521860515
 30
0.0
 10
86.7390487215
 20
24.3118780905
 30
0.0
 11
82.1156848279
 21
27.575284268
 31
0.0
 11
83.4414075195
 21
26.8361512466
 31
0.0
 11
84.7550661006
 21
25.951269022
 31
0.0
 11
86.0451066405
 21
24.9285587975
 31
0.0
 11
86.7390487215
 21
24.3118780905
 31
0.0
  0
SPLINE
  5
505
100
AcDbEntity
  8
DRAFT
100
AcDbSpline
 62
7
  6
CONTINUOUS
 70
0
 71
3
 72
10
 73
6
 74
4
 42
0.0000001
 43
0.0000001
 44
0.0000000001
 12
1.4582964343
 22
-1.5463782356
 32
0.0
 13
2.1174390521
 23
0.1738896286
 33
0.0
 40
0.0
 40
0.0
 40
0.0
 40
0.0
 40
0.3513227801
 40
0.7190776498
 40
1.0
 40
1.0
 40
1.0
 40
1.0
 10
105.0333976646
 20
-21.2678840758
 30
0.0
 10
105.2041752505
 20
-21.4489767094
 30
0.0
 10
105.587935218
 20
-21.789292419
 30
0.0
 10
106.2203465292
 20
-22.1269432464
 30
0.0
 10
106.6896740929
 20
-22.1936612402
 30
0.0
 10
106.8879527446
 20
-22.1773780791
 30
0.0
 11
105.0333976646
 21
-21.2678840758
 31
0.0
 11
105.5961120158
 21
-21.7582375144
 31
0.0
 11
106.2942546921
 21
-22.1073088526
 31
0.0
 11
106.8879527446
 21
-22.1773780791
 31
0.0
  0
SPLINE
  5
506
100
AcDbEntity
  8
RACCORDO
100
AcDbSpline
 62
7
  6
CONTINUOUS
 70
0
 71
3
 72
8
 73
4
 74
2
 42
0.0000001
 43
0.0000001
 44
0.0000000001
 12
0.1471210559
 22
0.0729525374
 32
0.0
 13
0.1646962749
 23
0.0234979245
 33
0.0
 40
0.0
 40
0.0
 40
0.0
 40
0.0
 40
1.0
 40
1.0
 40
1.0
 40
1.0
 10
127.3095488627
 20
34.8860809882
 30
0.0
 10
127.3585892147
 20
34.9103985007
 30
0.0
 10
127.4122416262
 20
34.9265830247
 30
0.0
 10
127.4671403845
 20
34.9344156662
 30
0.0
 11
127.3095488627
 21
34.8860809882
 31
0.0
 11
127.4671403845
 21
34.9344156662
 31
0.0
  0
SPLINE
  5
507
100
AcDbEntity
  8
RACCORDO
100
AcDbSpline
 62
7
  6
CONTINUOUS
 70
0
 71
3
 72
9
 73
5
 74
3
 42
0.0000001
 43
0.0000001
 44
0.0000000001
 12
0.1784684604
 22
0.0254628613
 32
0.0
 13
0.1763843914
 23
-0.0321320475
 33
0.0
 40
0.0
 40
0.0
 40
0.0
 40
0.0
 40
0.4859939598
 40
1.0
 40
1.0
 40
1.0
 40
1.0
 10
127.4671403845
 20
34.9344156662
 30
0.0
 10
127.4960519158
 20
34.9385405985
 30
0.0
 10
127.5562526573
 20
34.9422620366
 30
0.0
 10
127.6158355737
 20
34.9360410308
 30
0.0
 10
127.6460564546
 20
34.9305356753
 30
0.0
 11
127.4671403845
 21
34.9344156662
 31
0.0
 11
127.5544203851
 21
34.9398094843
 31
0.0
 11
127.6460564546
 21
34.9305356753
 31
0.0
  0
SPLINE
  5
508
100
AcDbEntity
  8
RACCORDO
100
AcDbSpline
 62
7
  6
CONTINUOUS
 70
0
 71
3
 72
14
 73
10
 74
8
 42
0.0000001
 43
0.0000001
 44
0.0000000001
 12
1.8720048916
 22
-0.3410242232
 32
0.0
 13
-1.4327108276
 23
-1.2636162693
 33
0.0
 40
0.0
 40
0.0
 40
0.0
 40
0.0
 40
0.1036053528
 40
0.2778616774
 40
0.4588367201
 40
0.6367287364
 40
0.8007701115
 40
0.9408830796
 40
1.0
 40
1.0
 40
1.0
 40
1.0
 10
127.6460564546
 20
34.9305356753
 30
0.0
 10
127.7107063637
 20
34.9187583637
 30
0.0
 10
127.8791205363
 20
34.8588487204
 30
0.0
 10
128.1070814656
 20
34.6715859556
 30
0.0
 10
128.2927477523
 20
34.3868677622
 30
0.0
 10
128.392932455
 20
34.0687555737
 30
0.0
 10
128.3921009729
 20
33.7588815754
 30
0.0
 10
128.3015078733
 20
33.5414696408
 30
0.0
 10
128.2149416505
 20
33.4473982254
 30
0.0
 10
128.1867091665
 20
33.422497858
 30
0.0
 11
127.6460564546
 21
34.9305356753
 31
0.0
 11
127.8320766602
 21
34.8666446863
 31
0.0
 11
128.0910443085
 21
34.6635633521
 31
0.0
 11
128.2795229713
 21
34.3784407466
 31
0.0
 11
128.3776949104
 21
34.0571385495
 31
0.0
 11
128.3701486823
 21
33.7474231633
 31
0.0
 11
128.2630674013
 21
33.5054409672
 31
0.0
 11
128.1867091665
 21
33.422497858
 31
0.0
  0
SPLINE
  5
509
100
AcDbEntity
  8
RACCORDO
100
AcDbSpline
 62
7
  6
CONTINUOUS
 70
0
 71
3
 72
11
 73
7
 74
5
 42
0.0000001
 43
0.0000001
 44
0.0000000001
 12
-8.6911967829
 22
3.7297434421
 32
0.0
 13
-8.5387368495
 23
-4.0362609375
 33
0.0
 40
0.0
 40
0.0
 40
0.0
 40
0.0
 40
0.203041949
 40
0.4872318289
 40
0.7500840363
 40
1.0
 40
1.0
 40
1.0
 40
1.0
 10
-97.2444877043
 20
121.2830737424
 30
0.0
 10
-97.8327135491
 20
121.5355052017
 30
0.0
 10
-99.2804866575
 20
122.0594870695
 30
0.0
 10
-101.6200568955
 20
122.4934854005
 30
0.0
 10
-104.1504395223
 20
122.3716348863
 30
0.0
 10
-105.7103829353
 20
121.8772773394
 30
0.0
 10
-106.4217051514
 20
121.5410353255
 30
0.0
 11
-97.2444877043
 21
121.2830737424
 31
0.0
 11
-99.0518548611
 21
121.9301805885
 31
0.0
 11
-101.694874565
 21
122.3978354569
 31
0.0
 11
-104.1736121749
 21
122.2603543457
 31
0.0
 11
-106.4217051514
 21
121.5410353255
 31
0.0
  0
SPLINE
  5
50A
100
AcDbEntity
  8
RACCORDO
100
AcDbSpline
 62
7
  6
CONTINUOUS
 70
0
 71
3
 72
12
 73
8
 74
6
 42
0.0000001
 43
0.0000001
 44
0.0000000001
 12
12.1713274409
 22
6.4253598818
 32
0.0
 13
0.2115987175
 23
13.7675899224
 33
0.0
 40
0.0
 40
0.0
 40
0.0
 40
0.0
 40
0.1768920064
 40
0.3635915853
 40
0.5661480337
 40
0.7869611515
 40
1.0
 40
1.0
 40
1.0
 40
1.0
 10
94.2261253436
 20
-114.7467463543
 30
0.0
 10
94.9437955209
 20
-114.3678814205
 30
0.0
 10
96.3164751158
 20
-113.3780302516
 30
0.0
 10
97.9653887112
 20
-111.3371804964
 30
0.0
 10
99.1738115704
 20
-108.7871545339
 30
0.0
 10
99.8724211568
 20
-105.9357254872
 30
0.0
 10
100.0313757393
 20
-103.9435805576
 30
0.0
 10
100.0464019883
 20
-102.9659033899
 30
0.0
 11
94.2261253436
 21
-114.7467463543
 31
0.0
 11
96.2051936991
 21
-113.3287934153
 31
0.0
 11
97.835772888
 21
-111.3428430013
 31
0.0
 11
99.0520708287
 21
-108.8343336155
 31
0.0
 11
99.7987616256
 21
-105.8883888976
 31
0.0
 11
100.0464019883
 21
-102.9659033899
 31
0.0
  0
SPLINE
  5
50B
100
AcDbEntity
  8
RACCORDO
100
AcDbSpline
 62
7
  6
CONTINUOUS
 70
0
 71
3
 72
15
 73
11
 74
9
 42
0.0000001
 43
0.0000001
 44
0.0000000001
 12
0.0
 22
31.9344107752
 32
0.0
 13
-28.5630053259
 23
14.2815026629
 33
0.0
 40
0.0
 40
0.0
 40
0.0
 40
0.0
 40
0.1204411416
 40
0.2473916607
 40
0.3783603972
 40
0.5106626666
 40
0.6414730086
 40
0.7681025658
 40
0.8882121922
 40
1.0
 40
1.0
 40
1.0
 40
1.0
 10
100.0491120799
 20
3.9093829099
 30
0.0
 10
100.0491120799
 20
5.191455207
 30
0.0
 10
99.8322642949
 20
7.8276381744
 30
0.0
 10
98.9503209971
 20
11.7683349779
 30
0.0
 10
97.5392978141
 20
15.6863737461
 30
0.0
 10
95.6520627189
 20
19.4438720854
 30
0.0
 10
93.3547077956
 20
22.9107383594
 30
0.0
 10
90.7242585169
 20
25.9649102629
 30
0.0
 10
87.8496639724
 20
28.4944133194
 30
0.0
 10
85.748550684
 20
29.8187495672
 30
0.0
 10
84.684218767
 20
30.3509155257
 30
0.0
 11
100.0491120799
 21
3.9093829099
 31
0.0
 11
99.7526882968
 21
7.7441602587
 31
0.0
 11
98.8793927541
 21
11.7030743559
 31
0.0
 11
97.4676961272
 21
15.6400352733
 31
0.0
 11
95.5713663856
 21
19.4155506557
 31
0.0
 11
93.2587702187
 21
22.8943668293
 31
0.0
 11
90.6105550779
 21
25.9504428956
 31
0.0
 11
87.718072763
 21
28.4694912612
 31
0.0
 11
84.684218767
 21
30.3509155257
 31
0.0
  0
SPLINE
  5
50C
100
AcDbEntity
  8
DRAFT
100
AcDbSpline
 62
7
  6
CONTINUOUS
 70
0
 71
3
 72
10
 73
6
 74
4
 42
0.0000001
 43
0.0000001
 44
0.0000000001
 12
-3.2285852774
 22
-0.7971331788
 32
0.0
 13
-2.5657791263
 23
-2.116477026
 33
0.0
 40
0.0
 40
0.0
 40
0.0
 40
0.0
 40
0.1497116119
 40
0.6210380704
 40
1.0
 40
1.0
 40
1.0
 40
1.0
 10
105.1994622644
 20
30.9270214231
 30
0.0
 10
105.0383433623
 20
30.8872413921
 30
0.0
 10
104.3753748182
 20
30.7005382007
 30
0.0
 10
103.3541269021
 20
30.2523572968
 30
0.0
 10
102.5775317998
 20
29.7120575514
 30
0.0
 10
102.2534209302
 20
29.4447028121
 30
0.0
 11
105.1994622644
 21
30.9270214231
 31
0.0
 11
104.7203739197
 21
30.7919003853
 31
0.0
 11
103.2879943731
 21
30.1620397708
 31
0.0
 11
102.2534209302
 21
29.4447028121
 31
0.0
  0
SPLINE
  5
50D
100
AcDbEntity
  8
DRAFT
100
AcDbSpline
 62
7
  6
CONTINUOUS
 70
0
 71
3
 72
9
 73
5
 74
3
 42
0.0000001
 43
0.0000001
 44
0.0000000001
 12
2.1749698178
 22
0.3888766614
 32
0.0
 13
2.2037081116
 23
-0.1487294951
 33
0.0
 40
0.0
 40
0.0
 40
0.0
 40
0.0
 40
0.3259150368
 40
1.0
 40
1.0
 40
1.0
 40
1.0
 10
105.3532315004
 20
31.9613481894
 30
0.0
 10
105.5895166231
 20
32.0035951065
 30
0.0
 10
106.3201472902
 20
32.1019309572
 30
0.0
 10
107.0586153387
 20
32.1069913424
 30
0.0
 10
107.5537775058
 20
32.0735725704
 30
0.0
 11
105.3532315004
 21
31.9613481894
 31
0.0
 11
106.066596156
 21
32.0577855944
 31
0.0
 11
107.5537775058
 21
32.0735725704
 31
0.0
  0
SPLINE
  5
50E
100
AcDbEntity
  8
DRAFT
100
AcDbSpline
 62
7
  6
CONTINUOUS
 70
0
 71
3
 72
9
 73
5
 74
3
 42
0.0000001
 43
0.0000001
 44
0.0000000001
 12
-1.3294001421
 22
-1.4635372939
 32
0.0
 13
-1.0014856959
 23
-1.7013218484
 33
0.0
 40
0.0
 40
0.0
 40
0.0
 40
0.0
 40
0.4340549714
 40
1.0
 40
1.0
 40
1.0
 40
1.0
 10
101.8386637845
 20
30.2550509117
 30
0.0
 10
101.6463195376
 20
30.0432990322
 30
0.0
 10
101.2265753205
 20
29.5341415922
 30
0.0
 10
100.8628396399
 20
28.9848181056
 30
0.0
 10
100.6739110229
 20
28.6638665582
 30
0.0
 11
101.8386637845
 21
30.2550509117
 31
0.0
 11
101.2924876258
 21
29.5937269636
 31
0.0
 11
100.6739110229
 21
28.6638665582
 31
0.0
  0
SPLINE
  5
50F
100
AcDbEntity
  8
DRAFT
100
AcDbSpline
 62
7
  6
CONTINUOUS
 70
0
 71
3
 72
10
 73
6
 74
4
 42
0.0000001
 43
0.0000001
 44
0.0000000001
 12
-0.8820677003
 22
-1.5835179208
 32
0.0
 13
-0.5527536521
 23
-1.7253243423
 33
0.0
 40
0.0
 40
0.0
 40
0.0
 40
0.0
 40
0.1870141319
 40
0.9906660767
 40
1.0
 40
1.0
 40
1.0
 40
1.0
 10
-59.0758402687
 20
104.9670198473
 30
0.0
 10
-59.1308266438
 20
104.8683064375
 30
0.0
 10
-59.411177014
 20
104.3393132107
 30
0.0
 10
-59.6368438398
 20
103.7770968097
 30
0.0
 10
-59.7870190277
 20
103.3096603298
 30
0.0
 10
-59.7887388144
 20
103.3042923148
 30
0.0
 11
-59.0758402687
 21
104.9670198473
 31
0.0
 11
-59.2346497834
 21
104.6675868771
 31
0.0
 11
-59.7835663051
 21
103.3203922777
 31
0.0
 11
-59.7887388144
 21
103.3042923148
 31
0.0
  0
SPLINE
  5
510
100
AcDbEntity
  8
DRAFT
100
AcDbSpline
 62
7
  6
CONTINUOUS
 70
0
 71
3
 72
9
 73
5
 74
3
 42
0.0000001
 43
0.0000001
 44
0.0000000001
 12
1.43316541
 22
-0.2155889728
 32
0.0
 13
1.379816328
 23
-0.4437251569
 33
0.0
 40
0.0
 40
0.0
 40
0.0
 40
0.0
 40
0.6620576806
 40
1.0
 40
1.0
 40
1.0
 40
1.0
 10
-51.5246772842
 20
108.4524012695
 30
0.0
 10
-51.2083978951
 20
108.4048238244
 30
0.0
 10
-50.7348995147
 20
108.3046795875
 30
0.0
 10
-50.2712788469
 20
108.1681345487
 30
0.0
 10
-50.1158460702
 20
108.1181500458
 30
0.0
 11
-51.5246772842
 21
108.4524012695
 31
0.0
 11
-50.5857610188
 21
108.2562660889
 31
0.0
 11
-50.1158460702
 21
108.1181500458
 31
0.0
  0
SPLINE
  5
511
100
AcDbEntity
  8
DRAFT
100
AcDbSpline
 62
7
  6
CONTINUOUS
 70
0
 71
3
 72
9
 73
5
 74
3
 42
0.0000001
 43
0.0000001
 44
0.0000000001
 12
-0.5152619757
 22
-1.5011065932
 32
0.0
 13
-0.3117473171
 23
-1.5556754208
 33
0.0
 40
0.0
 40
0.0
 40
0.0
 40
0.0
 40
0.3215941565
 40
1.0
 40
1.0
 40
1.0
 40
1.0
 10
-59.680033836
 20
104.6868087453
 30
0.0
 10
-59.7352689161
 20
104.5258930425
 30
0.0
 10
-59.8952673982
 20
104.0214829299
 30
0.0
 10
-60.0204730678
 20
103.5072711018
 30
0.0
 10
-60.0909701351
 20
103.1554780031
 30
0.0
 11
-59.680033836
 21
104.6868087453
 31
0.0
 11
-59.8345796998
 21
104.2004486322
 31
0.0
 11
-60.0909701351
 21
103.1554780031
 31
0.0
  0
SPLINE
  5
512
100
AcDbEntity
  8
DRAFT
100
AcDbSpline
 62
7
  6
CONTINUOUS
 70
0
 71
3
 72
9
 73
5
 74
3
 42
0.0000001
 43
0.0000001
 44
0.0000000001
 12
-2.8536037004
 22
-0.7066491506
 32
0.0
 13
-2.1770347746
 23
-1.9747735661
 33
0.0
 40
0.0
 40
0.0
 40
0.0
 40
0.0
 40
0.4444936065
 40
1.0
 40
1.0
 40
1.0
 40
1.0
 10
73.8634918571
 20
43.6378153511
 30
0.0
 10
73.4406889903
 20
43.533115008
 30
0.0
 10
72.514233085
 20
43.1966172771
 30
0.0
 10
71.7015256223
 20
42.6324805611
 30
0.0
 10
71.2984067102
 20
42.2668141139
 30
0.0
 11
73.8634918571
 21
43.6378153511
 31
0.0
 11
72.6395553363
 21
43.1889971543
 31
0.0
 11
71.2984067102
 21
42.2668141139
 31
0.0
  0
SPLINE
  5
513
100
AcDbEntity
  8
DRAFT
100
AcDbSpline
 62
7
  6
CONTINUOUS
 70
0
 71
3
 72
9
 73
5
 74
3
 42
0.0000001
 43
0.0000001
 44
0.0000000001
 12
2.2649247955
 22
0.7933186671
 32
0.0
 13
2.3966481178
 23
-0.0348265082
 33
0.0
 40
0.0
 40
0.0
 40
0.0
 40
0.0
 40
0.5689641262
 40
1.0
 40
1.0
 40
1.0
 40
1.0
 10
42.1524834543
 20
59.7667714076
 30
0.0
 10
42.5820371066
 20
59.9172280284
 30
0.0
 10
43.3660136698
 20
60.1006467693
 30
0.0
 10
44.1651780044
 20
60.1429185177
 30
0.0
 10
44.5095251096
 20
60.1379146929
 30
0.0
 11
42.1524834543
 21
59.7667714076
 31
0.0
 11
43.4790627751
 21
60.0802532663
 31
0.0
 11
44.5095251096
 21
60.1379146929
 31
0.0
  0
SPLINE
  5
514
100
AcDbEntity
  8
DRAFT
100
AcDbSpline
 62
7
  6
CONTINUOUS
 70
0
 71
3
 72
9
 73
5
 74
3
 42
0.0000001
 43
0.0000001
 44
0.0000000001
 12
2.2591661708
 22
0.4097659596
 32
0.0
 13
2.2758252083
 23
-0.2938785548
 33
0.0
 40
0.0
 40
0.0
 40
0.0
 40
0.0
 40
0.146669429
 40
1.0
 40
1.0
 40
1.0
 40
1.0
 10
73.9056124272
 20
44.6489305308
 30
0.0
 10
74.0160626313
 20
44.6689639105
 30
0.0
 10
74.7723418152
 20
44.7865620528
 30
0.0
 10
75.5425227415
 20
44.7749648649
 30
0.0
 10
76.189866483
 20
44.6913730132
 30
0.0
 11
73.9056124272
 21
44.6489305308
 31
0.0
 11
74.2382077567
 21
44.7006807755
 31
0.0
 11
76.189866483
 21
44.6913730132
 31
0.0
  0
SPLINE
  5
515
100
AcDbEntity
  8
DRAFT
100
AcDbSpline
 62
7
  6
CONTINUOUS
 70
0
 71
3
 72
8
 73
4
 74
2
 42
0.0000001
 43
0.0000001
 44
0.0000000001
 12
-1.2203323117
 22
-1.4457076516
 32
0.0
 13
-0.8542325763
 23
-1.6873913926
 33
0.0
 40
0.0
 40
0.0
 40
0.0
 40
0.0
 40
1.0
 40
1.0
 40
1.0
 40
1.0
 10
71.0995750037
 20
43.2315830437
 30
0.0
 10
70.6927975665
 20
42.7496804931
 30
0.0
 10
70.3502275971
 20
42.2161584602
 30
0.0
 10
70.065483405
 20
41.6536946627
 30
0.0
 11
71.0995750037
 21
43.2315830437
 31
0.0
 11
70.065483405
 21
41.6536946627
 31
0.0
  0
SPLINE
  5
516
100
AcDbEntity
  8
DRAFT
100
AcDbSpline
 62
7
  6
CONTINUOUS
 70
0
 71
3
 72
10
 73
6
 74
4
 42
0.0000001
 43
0.0000001
 44
0.0000000001
 12
2.6276188555
 22
2.1453369718
 32
0.0
 13
3.369037782
 23
-0.3656472431
 33
0.0
 40
0.0
 40
0.0
 40
0.0
 40
0.0
 40
0.2713311912
 40
0.6745473192
 40
1.0
 40
1.0
 40
1.0
 40
1.0
 10
8.7247563076
 20
70.9379270467
 30
0.0
 10
8.962407959
 20
71.1319593254
 30
0.0
 10
9.6063964611
 20
71.5493870652
 30
0.0
 10
10.7095779899
 20
71.8644204726
 30
0.0
 10
11.5367106271
 20
71.8598651101
 30
0.0
 10
11.9021980864
 20
71.8201981516
 30
0.0
 11
8.7247563076
 21
70.9379270467
 31
0.0
 11
9.4966919523
 21
71.4346169647
 31
0.0
 11
10.8024932844
 21
71.817232267
 31
0.0
 11
11.9021980864
 21
71.8201981516
 31
0.0
  0
SPLINE
  5
517
100
AcDbEntity
  8
DRAFT
100
AcDbSpline
 62
7
  6
CONTINUOUS
 70
0
 71
3
 72
8
 73
4
 74
2
 42
0.0000001
 43
0.0000001
 44
0.0000000001
 12
-0.7242456194
 22
-0.7498552549
 32
0.0
 13
-0.5470970507
 23
-0.8873011
 33
0.0
 40
0.0
 40
0.0
 40
0.0
 40
0.0
 40
1.0
 40
1.0
 40
1.0
 40
1.0
 10
9.0866950078
 20
71.1945160697
 30
0.0
 10
8.8452798014
 20
70.9445643181
 30
0.0
 10
8.6343227985
 20
70.6666210952
 30
0.0
 10
8.4519571149
 20
70.3708540619
 30
0.0
 11
9.0866950078
 21
71.1945160697
 31
0.0
 11
8.4519571149
 21
70.3708540619
 31
0.0
  0
SPLINE
  5
518
100
AcDbEntity
  8
DRAFT
100
AcDbSpline
 62
7
  6
CONTINUOUS
 70
0
 71
3
 72
12
 73
8
 74
6
 42
0.0000001
 43
0.0000001
 44
0.0000000001
 12
6.0750295025
 22
0.3474919741
 32
0.0
 13
5.438293702
 23
-2.719146851
 33
0.0
 40
0.0
 40
0.0
 40
0.0
 40
0.0
 40
0.1106699422
 40
0.3177749527
 40
0.5343942
 40
0.7616022058
 40
1.0
 40
1.0
 40
1.0
 40
1.0
 10
-104.7602293058
 20
119.4582148147
 30
0.0
 10
-104.5361215844
 20
119.471033787
 30
0.0
 10
-103.8911872003
 20
119.4831076841
 30
0.0
 10
-102.8091308078
 20
119.3906376943
 30
0.0
 10
-101.5151355617
 20
119.1187051158
 30
0.0
 10
-100.1994456254
 20
118.6855273951
 30
0.0
 10
-99.33581023
 20
118.301031797
 30
0.0
 10
-98.9036511558
 20
118.0849522599
 30
0.0
 11
-104.7602293058
 21
119.4582148147
 31
0.0
 11
-104.0870865355
 21
119.4713099186
 31
0.0
 11
-102.8321325473
 21
119.3675114893
 31
0.0
 11
-101.5424633714
 21
119.1001661429
 31
0.0
 11
-100.2291928316
 21
118.6714722951
 31
0.0
 11
-98.9036511558
 21
118.0849522599
 31
0.0
  0
SPLINE
  5
519
100
AcDbEntity
  8
0
100
AcDbSpline
 62
7
  6
CONTINUOUS
 70
0
 71
3
 72
9
 73
5
 74
3
 42
0.0000001
 43
0.0000001
 44
0.0000000001
 12
0.0849518179
 22
-0.4066010106
 32
0.0
 13
0.0862589406
 23
-0.4061956934
 33
0.0
 40
0.0
 40
0.0
 40
0.0
 40
0.0
 40
0.6313627996
 40
1.0
 40
1.0
 40
1.0
 40
1.0
 10
-43.8317984525
 20
112.0050294251
 30
0.0
 10
-43.81391998
 20
111.9194585076
 30
0.0
 10
-43.7860366497
 20
111.7838247235
 30
0.0
 10
-43.7574384481
 20
111.6483832118
 30
0.0
 10
-43.7468390299
 20
111.5984702641
 30
0.0
 11
-43.8317984525
 21
112.0050294251
 31
0.0
 11
-43.7784260238
 21
111.7482668997
 31
0.0
 11
-43.7468390299
 21
111.5984702641
 31
0.0
  0
LINE
  5
51A
100
AcDbEntity
  8
0
100
AcDbLine
 62
7
  6
CONTINUOUS
 10
-43.7468390299
 20
111.5984702641
 11
-43.6816027461
 21
111.29313272
  0
SPLINE
  5
51B
100
AcDbEntity
  8
RACCORDO
100
AcDbSpline
 62
253
  6
CONTINUOUS
 70
0
 71
3
 72
9
 73
5
 74
3
 42
0.0000001
 43
0.0000001
 44
0.0000000001
 12
0.1729337698
 22
0.086055685
 32
0.0
 13
0.0027322298
 23
0.1897962774
 33
0.0
 40
0.0
 40
0.0
 40
0.0
 40
0.0
 40
0.3674176656
 40
1.0
 40
1.0
 40
1.0
 40
1.0
 10
34.6569476757
 20
83.5071250434
 30
0.0
 10
34.6781273164
 20
83.517664503
 30
0.0
 10
34.7285857274
 20
83.5639868105
 30
0.0
 10
34.7390184268
 20
83.6307641644
 30
0.0
 10
34.7395945469
 20
83.6707847551
 30
0.0
 11
34.6569476757
 21
83.5071250434
 31
0.0
 11
34.709802639
 21
83.5544651153
 31
0.0
 11
34.7395945469
 21
83.6707847551
 31
0.0
  0
SPLINE
  5
51C
100
AcDbEntity
  8
RACCORDO
100
AcDbSpline
 62
253
  6
CONTINUOUS
 70
0
 71
3
 72
9
 73
5
 74
3
 42
0.0000001
 43
0.0000001
 44
0.0000000001
 12
0.1729337698
 22
0.086055685
 32
0.0
 13
0.0027322298
 23
0.1897962774
 33
0.0
 40
0.0
 40
0.0
 40
0.0
 40
0.0
 40
0.3674176656
 40
1.0
 40
1.0
 40
1.0
 40
1.0
 10
62.9412189232
 20
69.3649894196
 30
0.0
 10
62.9623985639
 20
69.3755288793
 30
0.0
 10
63.0128569749
 20
69.4218511868
 30
0.0
 10
63.0232896742
 20
69.4886285407
 30
0.0
 10
63.0238657943
 20
69.5286491314
 30
0.0
 11
62.9412189232
 21
69.3649894196
 31
0.0
 11
62.9940738864
 21
69.4123294916
 31
0.0
 11
63.0238657943
 21
69.5286491314
 31
0.0
  0
SPLINE
  5
51D
100
AcDbEntity
  8
RACCORDO
100
AcDbSpline
 62
253
  6
CONTINUOUS
 70
0
 71
3
 72
9
 73
5
 74
3
 42
0.0000001
 43
0.0000001
 44
0.0000000001
 12
0.1729337698
 22
0.086055685
 32
0.0
 13
0.0027322298
 23
0.1897962774
 33
0.0
 40
0.0
 40
0.0
 40
0.0
 40
0.0
 40
0.3674176656
 40
1.0
 40
1.0
 40
1.0
 40
1.0
 10
93.9124959392
 20
53.8793509117
 30
0.0
 10
93.9336755798
 20
53.8898903713
 30
0.0
 10
93.9841339909
 20
53.9362126788
 30
0.0
 10
93.9945666902
 20
54.0029900327
 30
0.0
 10
93.9951428103
 20
54.0430106234
 30
0.0
 11
93.9124959392
 21
53.8793509117
 31
0.0
 11
93.9653509024
 21
53.9266909836
 31
0.0
 11
93.9951428103
 21
54.0430106234
 31
0.0
  0
SPLINE
  5
51E
100
AcDbEntity
  8
RACCORDO
100
AcDbSpline
 62
253
  6
CONTINUOUS
 70
0
 71
3
 72
9
 73
5
 74
3
 42
0.0000001
 43
0.0000001
 44
0.0000000001
 12
0.1729337698
 22
0.086055685
 32
0.0
 13
0.0027322298
 23
0.1897962774
 33
0.0
 40
0.0
 40
0.0
 40
0.0
 40
0.0
 40
0.3674176656
 40
1.0
 40
1.0
 40
1.0
 40
1.0
 10
122.1967671866
 20
39.7372152879
 30
0.0
 10
122.2179468273
 20
39.7477547476
 30
0.0
 10
122.2684052383
 20
39.7940770551
 30
0.0
 10
122.2788379377
 20
39.8608544089
 30
0.0
 10
122.2794140578
 20
39.9008749997
 30
0.0
 11
122.1967671866
 21
39.7372152879
 31
0.0
 11
122.2496221499
 21
39.7845553599
 31
0.0
 11
122.2794140578
 21
39.9008749997
 31
0.0
  0
SPLINE
  5
51F
100
AcDbEntity
  8
DRAFT
100
AcDbSpline
 62
7
  6
CONTINUOUS
 70
0
 71
3
 72
15
 73
11
 74
9
 42
0.0000001
 43
0.0000001
 44
0.0000000001
 12
0.0
 22
32.3771678898
 32
0.0
 13
-28.9590193282
 23
14.4795096641
 33
0.0
 40
0.0
 40
0.0
 40
0.0
 40
0.0
 40
0.1197748659
 40
0.2468141162
 40
0.3784631507
 40
0.51166617
 40
0.6432349982
 40
0.7701179729
 40
0.8896789821
 40
1.0
 40
1.0
 40
1.0
 40
1.0
 10
97.672034014
 20
2.4766015993
 30
0.0
 10
97.672034014
 20
3.7692585795
 30
0.0
 10
97.4521767832
 20
6.4356751132
 30
0.0
 10
96.5581713737
 20
10.4321410776
 30
0.0
 10
95.1224277802
 20
14.421845085
 30
0.0
 10
93.1987327191
 20
18.2545945224
 30
0.0
 10
90.8591404225
 20
21.7874681377
 30
0.0
 10
88.1900835529
 20
24.8887568854
 30
0.0
 10
85.2913902044
 20
27.4422554244
 30
0.0
 10
83.1806143248
 20
28.7748703272
 30
0.0
 10
82.1156848279
 20
29.3073350756
 30
0.0
 11
97.672034014
 21
2.4766015993
 31
0.0
 11
97.3731218522
 21
6.3430353742
 31
0.0
 11
96.4878675002
 21
10.3598128796
 31
0.0
 11
95.0503128224
 21
14.3725034311
 31
0.0
 11
93.1156848279
 21
18.2269697777
 31
0.0
 11
90.7583348061
 21
21.7750705029
 31
0.0
 11
88.0688659301
 21
24.8804426598
 31
0.0
 11
85.1505844065
 21
27.4237941491
 31
0.0
 11
82.1156848279
 21
29.3073350756
 31
0.0
  0
SPLINE
  5
520
100
AcDbEntity
  8
RACCORDO
100
AcDbSpline
 62
253
  6
CONTINUOUS
 70
0
 71
3
 72
10
 73
6
 74
4
 42
0.0000001
 43
0.0000001
 44
0.0000000001
 12
0.3213605405
 22
0.1588328109
 32
0.0
 13
0.3289606606
 23
-0.1401459092
 33
0.0
 40
0.0
 40
0.0
 40
0.0
 40
0.0
 40
0.2330027372
 40
0.5911726328
 40
1.0
 40
1.0
 40
1.0
 40
1.0
 10
127.3095662803
 20
34.8860457479
 30
0.0
 10
127.3345255755
 20
34.8983819078
 30
0.0
 10
127.4018959648
 20
34.9215586243
 30
0.0
 10
127.523048657
 20
34.9236307848
 30
0.0
 10
127.6114847958
 20
34.897252291
 30
0.0
 10
127.6563141694
 20
34.8781537966
 30
0.0
 11
127.3095662803
 21
34.8860457479
 31
0.0
 11
127.3882923249
 21
34.9132414313
 31
0.0
 11
127.5159327594
 21
34.9174269442
 31
0.0
 11
127.6563141694
 21
34.8781537966
 31
0.0
  0
SPLINE
  5
521
100
AcDbEntity
  8
RACCORDO
100
AcDbSpline
 62
253
  6
CONTINUOUS
 70
0
 71
3
 72
17
 73
13
 74
11
 42
0.0000001
 43
0.0000001
 44
0.0000000001
 12
1.5799209547
 22
-0.673087956
 32
0.0
 13
-1.1229845799
 23
-1.3027673845
 33
0.0
 40
0.0
 40
0.0
 40
0.0
 40
0.0
 40
0.0962476638
 40
0.2019304484
 40
0.314546284
 40
0.4311069756
 40
0.5480029877
 40
0.6611841981
 40
0.7670149226
 40
0.8630557371
 40
0.9485497296
 40
1.0
 40
1.0
 40
1.0
 40
1.0
 10
127.6563141694
 20
34.8781537966
 30
0.0
 10
127.7070020697
 20
34.8565594155
 30
0.0
 10
127.8071531469
 20
34.7977403388
 30
0.0
 10
127.9423801055
 20
34.6782288995
 30
0.0
 10
128.0637324819
 20
34.5295842405
 30
0.0
 10
128.1653603395
 20
34.3594010854
 30
0.0
 10
128.2421248366
 20
34.1762992444
 30
0.0
 10
128.2899181832
 20
33.9898406054
 30
0.0
 10
128.3061128165
 20
33.8098265389
 30
0.0
 10
128.2896518746
 20
33.6454208433
 30
0.0
 10
128.2452838171
 20
33.518360391
 30
0.0
 10
128.2011102131
 20
33.4527681861
 30
0.0
 10
128.1818509264
 20
33.430425608
 30
0.0
 11
127.6563141694
 21
34.8781537966
 31
0.0
 11
127.799443244
 21
34.796421115
 31
0.0
 11
127.9359453264
 21
34.677591056
 31
0.0
 11
128.0584990296
 21
34.5286871971
 31
0.0
 11
128.1610597141
 21
34.3574437555
 31
0.0
 11
128.2382452568
 21
34.1727413683
 31
0.0
 11
128.2856485639
 21
33.9848076906
 31
0.0
 11
128.3005860269
 21
33.8041919731
 31
0.0
 11
128.2822822968
 21
33.6407462799
 31
0.0
 11
128.2317483261
 21
33.5033377586
 31
0.0
 11
128.1818509264
 21
33.430425608
 31
0.0
  0
SPLINE
  5
522
100
AcDbEntity
  8
DRAFT
100
AcDbSpline
 62
7
  6
CONTINUOUS
 70
0
 71
3
 72
10
 73
6
 74
4
 42
0.0000001
 43
0.0000001
 44
0.0000000001
 12
-6.8904089577
 22
3.4452044789
 32
0.0
 13
-7.6242493854
 23
-1.2943505786
 33
0.0
 40
0.0
 40
0.0
 40
0.0
 40
0.0
 40
0.4213498729
 40
0.8032784791
 40
1.0
 40
1.0
 40
1.0
 40
1.0
 10
-98.9036511558
 20
119.8170030675
 30
0.0
 10
-99.8714088021
 20
120.3008818906
 30
0.0
 10
-101.8083906871
 20
121.0597955597
 30
0.0
 10
-104.378557592
 20
121.4223496575
 30
0.0
 10
-105.8709762596
 20
121.2965343203
 30
0.0
 10
-106.3709275711
 20
121.2116587822
 30
0.0
 11
-98.9036511558
 21
119.8170030675
 31
0.0
 11
-101.9385507343
 21
120.9683617195
 31
0.0
 11
-104.856832258
 21
121.3432917539
 31
0.0
 11
-106.3709275711
 21
121.2116587822
 31
0.0
  0
SPLINE
  5
523
100
AcDbEntity
  8
RACCORDO
100
AcDbSpline
 62
253
  6
CONTINUOUS
 70
0
 71
3
 72
9
 73
5
 74
3
 42
0.0000001
 43
0.0000001
 44
0.0000000001
 12
-0.0020159709
 22
-0.460215224
 32
0.0
 13
-0.4111533907
 23
-0.2128808999
 33
0.0
 40
0.0
 40
0.0
 40
0.0
 40
0.0
 40
0.4279959007
 40
1.0
 40
1.0
 40
1.0
 40
1.0
 10
100.0490982807
 20
-102.6117416951
 30
0.0
 10
100.0488106717
 20
-102.6773984382
 30
0.0
 10
99.9795891413
 20
-102.8315152668
 30
0.0
 10
99.8468456885
 20
-102.9184813583
 30
0.0
 10
99.7684518802
 20
-102.9590709408
 30
0.0
 11
100.0490982807
 21
-102.6117416951
 31
0.0
 11
99.9779216322
 21
-102.797020475
 31
0.0
 11
99.7684518802
 21
-102.9590709408
 31
0.0
  0
SPLINE
  5
524
100
AcDbEntity
  8
DRAFT
100
AcDbSpline
 62
7
  6
CONTINUOUS
 70
0
 71
3
 72
9
 73
5
 74
3
 42
0.0000001
 43
0.0000001
 44
0.0000000001
 12
0.8172789371
 22
1.3610393344
 32
0.0
 13
1.2312098811
 23
1.0052295341
 33
0.0
 40
0.0
 40
0.0
 40
0.0
 40
0.0
 40
0.7127428192
 40
1.0
 40
1.0
 40
1.0
 40
1.0
 10
7.6999805581
 20
69.7358922699
 30
0.0
 10
7.894150456
 20
70.059249274
 30
0.0
 10
8.214783641
 20
70.4842167314
 30
0.0
 10
8.6068650145
 20
70.8416739127
 30
0.0
 10
8.7247563076
 20
70.9379270467
 30
0.0
 11
7.6999805581
 21
69.7358922699
 31
0.0
 11
8.3875043023
 21
70.630738904
 31
0.0
 11
8.7247563076
 21
70.9379270467
 31
0.0
  0
SPLINE
  5
525
100
AcDbEntity
  8
RACCORDO
100
AcDbSpline
 62
253
  6
CONTINUOUS
 70
0
 71
3
 72
9
 73
5
 74
3
 42
0.0000001
 43
0.0000001
 44
0.0000000001
 12
-0.0020159707
 22
-0.4602152241
 32
0.0
 13
-0.4111533908
 23
-0.2128808999
 33
0.0
 40
0.0
 40
0.0
 40
0.0
 40
0.0
 40
0.427995899
 40
1.0
 40
1.0
 40
1.0
 40
1.0
 10
100.0490982808
 20
3.9093829704
 30
0.0
 10
100.0488106717
 20
3.8437262275
 30
0.0
 10
99.9795891415
 20
3.6896093989
 30
0.0
 10
99.8468456888
 20
3.6026433073
 30
0.0
 10
99.7684518802
 20
3.5620537247
 30
0.0
 11
100.0490982808
 21
3.9093829704
 31
0.0
 11
99.9779216328
 21
3.7241041912
 31
0.0
 11
99.7684518802
 21
3.5620537247
 31
0.0
  0
SPLINE
  5
526
100
AcDbEntity
  8
RACCORDO
100
AcDbSpline
 62
253
  6
CONTINUOUS
 70
0
 71
3
 72
9
 73
5
 74
3
 42
0.0000001
 43
0.0000001
 44
0.0000000001
 12
-0.4054069303
 22
0.1975029644
 32
0.0
 13
-0.4016788539
 23
-0.1922523359
 33
0.0
 40
0.0
 40
0.0
 40
0.0
 40
0.0
 40
0.3843300494
 40
1.0
 40
1.0
 40
1.0
 40
1.0
 10
84.6838990675
 20
30.3502592907
 30
0.0
 10
84.631962379
 20
30.3755613987
 30
0.0
 10
84.4808949304
 20
30.412122843
 30
0.0
 10
84.3317797531
 20
30.3680068581
 30
0.0
 10
84.2493458864
 20
30.3285521961
 30
0.0
 11
84.6838990675
 21
30.3502592907
 31
0.0
 11
84.5161312283
 21
30.3917478923
 31
0.0
 11
84.2493458864
 21
30.3285521961
 31
0.0
  0
SPLINE
  5
527
100
AcDbEntity
  8
RACCORDO
100
AcDbSpline
 62
253
  6
CONTINUOUS
 70
0
 71
3
 72
9
 73
5
 74
3
 42
0.0000001
 43
0.0000001
 44
0.0000000001
 12
-0.4054069303
 22
0.1975029645
 32
0.0
 13
-0.4016788539
 23
-0.1922523359
 33
0.0
 40
0.0
 40
0.0
 40
0.0
 40
0.0
 40
0.3843300475
 40
1.0
 40
1.0
 40
1.0
 40
1.0
 10
-96.3354369162
 20
120.8599272825
 30
0.0
 10
-96.3873736044
 20
120.8852293904
 30
0.0
 10
-96.5384410529
 20
120.9217908349
 30
0.0
 10
-96.6875562303
 20
120.8776748501
 30
0.0
 10
-96.7699900973
 20
120.838220188
 30
0.0
 11
-96.3354369162
 21
120.8599272825
 31
0.0
 11
-96.5032047546
 21
120.9014158842
 31
0.0
 11
-96.7699900973
 21
120.838220188
 31
0.0
  0
SPLINE
  5
528
100
AcDbEntity
  8
DRAFT
100
AcDbSpline
 62
7
  6
CONTINUOUS
 70
0
 71
3
 72
11
 73
7
 74
5
 42
0.0000001
 43
0.0000001
 44
0.0000000001
 12
8.2834782093
 22
7.8553633356
 32
0.0
 13
0.0
 23
11.3733722246
 33
0.0
 40
0.0
 40
0.0
 40
0.0
 40
0.0
 40
0.1397902441
 40
0.3990992846
 40
0.6852277295
 40
1.0
 40
1.0
 40
1.0
 40
1.0
 10
93.9912423741
 20
-114.5103525181
 30
0.0
 10
94.3772255209
 20
-114.1443181321
 30
0.0
 10
95.3872938557
 20
-113.0010723798
 30
0.0
 10
96.6387772015
 20
-110.6919933152
 30
0.0
 10
97.4986218957
 20
-107.522514135
 30
0.0
 10
97.672034014
 20
-105.2378637989
 30
0.0
 10
97.672034014
 20
-104.0445230662
 30
0.0
 11
93.9912423741
 21
-114.5103525181
 31
0.0
 11
95.0503128224
 21
-113.3187037063
 31
0.0
 11
96.4878675002
 21
-110.7435678326
 31
0.0
 11
97.3731218522
 21
-107.6120446792
 31
0.0
 11
97.672034014
 21
-104.0445230662
 31
0.0
  0
SPLINE
  5
529
100
AcDbEntity
  8
RACCORDO
100
AcDbSpline
 62
253
  6
CONTINUOUS
 70
0
 71
3
 72
14
 73
10
 74
8
 42
0.0000001
 43
0.0000001
 44
0.0000000001
 12
8.488354274
 22
2.6825587611
 32
0.0
 13
7.9514472159
 23
-3.9757236079
 33
0.0
 40
0.0
 40
0.0
 40
0.0
 40
0.0
 40
0.1557658418
 40
0.3177411235
 40
0.4713510668
 40
0.6167523686
 40
0.7536170117
 40
0.8814779637
 40
1.0
 40
1.0
 40
1.0
 40
1.0
 10
-105.3753621198
 20
121.9512098333
 30
0.0
 10
-104.9346302368
 20
122.0904935078
 30
0.0
 10
-104.0123092507
 20
122.3001913814
 30
0.0
 10
-102.6133333157
 20
122.393705817
 30
0.0
 10
-101.2471960729
 20
122.2946800346
 30
0.0
 10
-99.9760877231
 20
122.0520995378
 30
0.0
 10
-98.8083866928
 20
121.7094947234
 30
0.0
 10
-97.7470666799
 20
121.3024874889
 30
0.0
 10
-97.0841306691
 20
120.9952904739
 30
0.0
 10
-96.7699900973
 20
120.838220188
 30
0.0
 11
-105.3753621198
 21
121.9512098333
 31
0.0
 11
-104.0253496513
 21
122.260847627
 31
0.0
 11
-102.588879381
 21
122.361013558
 31
0.0
 11
-101.2266016512
 21
122.2659501693
 31
0.0
 11
-99.9563644948
 21
122.0264646007
 31
0.0
 11
-98.788263137
 21
121.6859369038
 31
0.0
 11
-97.7264204863
 21
121.2803053304
 31
0.0
 11
-96.7699900973
 21
120.838220188
 31
0.0
  0
SPLINE
  5
52A
100
AcDbEntity
  8
RACCORDO
100
AcDbSpline
 62
253
  6
CONTINUOUS
 70
0
 71
3
 72
9
 73
5
 74
3
 42
0.0000001
 43
0.0000001
 44
0.0000000001
 12
0.1729337698
 22
0.086055685
 32
0.0
 13
0.0027322298
 23
0.1897962774
 33
0.0
 40
0.0
 40
0.0
 40
0.0
 40
0.0
 40
0.3674176656
 40
1.0
 40
1.0
 40
1.0
 40
1.0
 10
-32.6596178932
 20
117.1654078278
 30
0.0
 10
-32.6384382526
 20
117.1759472875
 30
0.0
 10
-32.5879798415
 20
117.222269595
 30
0.0
 10
-32.5775471422
 20
117.2890469489
 30
0.0
 10
-32.5769710221
 20
117.3290675396
 30
0.0
 11
-32.6596178932
 21
117.1654078278
 31
0.0
 11
-32.60676293
 21
117.2127478998
 31
0.0
 11
-32.5769710221
 21
117.3290675396
 31
0.0
  0
SPLINE
  5
52B
100
AcDbEntity
  8
RACCORDO
100
AcDbSpline
 62
253
  6
CONTINUOUS
 70
0
 71
3
 72
17
 73
13
 74
11
 42
0.0000001
 43
0.0000001
 44
0.0000000001
 12
0.0
 22
-13.6729357777
 32
0.0
 13
-12.1126936285
 23
-6.3913624647
 33
0.0
 40
0.0
 40
0.0
 40
0.0
 40
0.0
 40
0.0864221298
 40
0.1792635524
 40
0.2787014944
 40
0.384112227
 40
0.4949555274
 40
0.6106794998
 40
0.7309691251
 40
0.855253659
 40
0.9793866993
 40
1.0
 40
1.0
 40
1.0
 40
1.0
 10
99.7684518802
 20
-102.9590709408
 30
0.0
 10
99.7684518802
 20
-103.3529523511
 30
0.0
 10
99.7477302833
 20
-104.1701446912
 30
0.0
 10
99.6432200521
 20
-105.4368387258
 30
0.0
 10
99.4410010693
 20
-106.7796767369
 30
0.0
 10
99.1133959007
 20
-108.1825654859
 30
0.0
 10
98.6289044771
 20
-109.6188732979
 30
0.0
 10
97.9518067315
 20
-111.0521102769
 30
0.0
 10
97.0452118029
 20
-112.4291194636
 30
0.0
 10
95.8907189646
 20
-113.6633610424
 30
0.0
 10
94.8884562609
 20
-114.3843930833
 30
0.0
 10
94.3093365029
 20
-114.7027996291
 30
0.0
 10
94.226108971
 20
-114.7467153212
 30
0.0
 11
99.7684518802
 21
-102.9590709408
 31
0.0
 11
99.7376648697
 21
-104.1403140354
 31
0.0
 11
99.6320523025
 21
-105.4053278462
 31
0.0
 11
99.4277565442
 21
-106.7494999976
 31
0.0
 11
99.0973674314
 21
-108.152394965
 31
0.0
 11
98.6093100449
 21
-109.5872126797
 31
0.0
 11
97.9287085169
 21
-111.0156425683
 31
0.0
 11
97.0188816598
 21
-112.3857862507
 31
0.0
 11
95.8532931397
 21
-113.6223706502
 31
0.0
 11
94.473472527
 21
-114.6107010948
 31
0.0
 11
94.226108971
 21
-114.7467153212
 31
0.0
  0
SPLINE
  5
52C
100
AcDbEntity
  8
RACCORDO
100
AcDbSpline
 62
253
  6
CONTINUOUS
 70
0
 71
3
 72
23
 73
19
 74
17
 42
0.0000001
 43
0.0000001
 44
0.0000000001
 12
26.3653387409
 22
-15.2195302077
 32
0.0
 13
0.9861342648
 23
-30.4250229807
 33
0.0
 40
0.0
 40
0.0
 40
0.0
 40
0.0
 40
0.0415989992
 40
0.089224824
 40
0.1435190044
 40
0.2052079181
 40
0.2749473162
 40
0.3532348189
 40
0.439643777
 40
0.5297321647
 40
0.6169986046
 40
0.6969489887
 40
0.7691470609
 40
0.8337663607
 40
0.8911754429
 40
0.941867589
 40
0.9864024555
 40
1.0
 40
1.0
 40
1.0
 40
1.0
 10
85.2263955904
 20
29.8023211095
 30
0.0
 10
85.591986159
 20
29.5912820344
 30
0.0
 10
86.3612807669
 20
29.1130981068
 30
0.0
 10
87.547443869
 20
28.2668052989
 30
0.0
 10
88.8333040498
 20
27.215153186
 30
0.0
 10
90.2086380789
 20
25.9249715288
 30
0.0
 10
91.6558840704
 20
24.3628451372
 30
0.0
 10
93.1430590215
 20
22.5038492582
 30
0.0
 10
94.6031821086
 20
20.3676928676
 30
0.0
 10
95.9411456644
 20
18.0470652484
 30
0.0
 10
97.0724232518
 20
15.6917483411
 30
0.0
 10
97.9659875847
 20
13.4309895248
 30
0.0
 10
98.6362974079
 20
11.3347650212
 30
0.0
 10
99.1172157546
 20
9.422525275
 30
0.0
 10
99.4424980934
 20
7.6996187936
 30
0.0
 10
99.6431918935
 20
6.1632893975
 30
0.0
 10
99.727261599
 20
5.0619205408
 30
0.0
 10
99.7513667115
 20
4.472513466
 30
0.0
 10
99.7558363797
 20
4.3346115982
 30
0.0
 11
85.2263955904
 21
29.8023211095
 31
0.0
 11
86.3023912352
 21
29.1349748316
 31
0.0
 11
87.4833065963
 21
28.2943069687
 31
0.0
 11
88.7636463541
 21
27.2494947155
 31
0.0
 11
90.1344187194
 21
25.9663627501
 31
0.0
 11
91.5785812533
 21
24.4107182518
 31
0.0
 11
93.0687341464
 21
22.551336028
 31
0.0
 11
94.5542505572
 21
20.3810292659
 31
0.0
 11
95.9245283453
 21
18.0059621588
 31
0.0
 11
97.074333152
 21
15.611614141
 31
0.0
 11
97.968034187
 21
13.3482269926
 31
0.0
 11
98.6362558607
 21
11.2548065763
 31
0.0
 11
99.1147844839
 21
9.34709961
 31
0.0
 11
99.4378174831
 21
7.6298666626
 31
0.0
 11
99.6366531659
 21
6.0998226811
 31
0.0
 11
99.7389518171
 21
4.7481869801
 31
0.0
 11
99.7558363797
 21
4.3346115982
 31
0.0
  0
SPLINE
  5
52D
100
AcDbEntity
  8
RACCORDO
100
AcDbSpline
 62
253
  6
CONTINUOUS
 70
0
 71
3
 72
9
 73
5
 74
3
 42
0.0000001
 43
0.0000001
 44
0.0000000001
 12
0.09123323
 22
0.051709861
 32
0.0
 13
0.1017862609
 23
-0.0282831932
 33
0.0
 40
0.0
 40
0.0
 40
0.0
 40
0.0
 40
0.3206737845
 40
1.0
 40
1.0
 40
1.0
 40
1.0
 10
129.8601489003
 20
-46.1533036432
 30
0.0
 10
129.8699009353
 20
-46.1477763109
 30
0.0
 10
129.9023314651
 20
-46.1346835337
 30
0.0
 10
129.9379791263
 20
-46.137928239
 30
0.0
 10
129.9610278181
 20
-46.1443327438
 30
0.0
 11
129.8601489003
 21
-46.1533036432
 31
0.0
 11
129.8910309998
 21
-46.1410593008
 31
0.0
 11
129.9610278181
 21
-46.1443327438
 31
0.0
  0
SPLINE
  5
52E
100
AcDbEntity
  8
RACCORDO
100
AcDbSpline
 62
253
  6
CONTINUOUS
 70
0
 71
3
 72
8
 73
4
 74
2
 42
0.0000001
 43
0.0000001
 44
0.0000000001
 12
0.0389769758
 22
-0.0108304729
 32
0.0
 13
0.0353255841
 23
-0.0170439896
 33
0.0
 40
0.0
 40
0.0
 40
0.0
 40
0.0
 40
1.0
 40
1.0
 40
1.0
 40
1.0
 10
129.9610278181
 20
-46.1443327438
 30
0.0
 10
129.9740201434
 20
-46.1479429015
 30
0.0
 10
129.986641436
 20
-46.1528876883
 30
0.0
 10
129.9984166307
 20
-46.1585690182
 30
0.0
 11
129.9610278181
 21
-46.1443327438
 31
0.0
 11
129.9984166307
 21
-46.1585690182
 31
0.0
  0
SPLINE
  5
52F
100
AcDbEntity
  8
ASSI
100
AcDbSpline
 62
7
  6
CONTINUOUS
 70
0
 71
3
 72
9
 73
5
 74
3
 42
0.0000001
 43
0.0000001
 44
0.0000000001
 12
-0.6911499758
 22
0.3787959493
 32
0.0
 13
-0.7978369891
 23
-0.002562953
 33
0.0
 40
0.0
 40
0.0
 40
0.0
 40
0.0
 40
0.7714047958
 40
1.0
 40
1.0
 40
1.0
 40
1.0
 10
115.7261997209
 20
36.1865250294
 30
0.0
 10
115.5484809189
 20
36.2839267001
 30
0.0
 10
115.2978037933
 20
36.3809517179
 30
0.0
 10
115.0313960703
 20
36.4003575615
 30
0.0
 10
114.9706021672
 20
36.4001622686
 30
0.0
 11
115.7261997209
 21
36.1865250294
 31
0.0
 11
115.1523731115
 21
36.3874293464
 31
0.0
 11
114.9706021672
 21
36.4001622686
 31
0.0
  0
SPLINE
  5
530
100
AcDbEntity
  8
RACCORDO
100
AcDbSpline
 62
253
  6
CONTINUOUS
 70
0
 71
3
 72
9
 73
5
 74
3
 42
0.0000001
 43
0.0000001
 44
0.0000000001
 12
-0.0512056172
 22
0.0824953597
 32
0.0
 13
-0.0863619786
 23
0.0431922944
 33
0.0
 40
0.0
 40
0.0
 40
0.0
 40
0.0
 40
0.4473137609
 40
1.0
 40
1.0
 40
1.0
 40
1.0
 10
129.8561695939
 20
26.5917850397
 30
0.0
 10
129.8485346015
 20
26.6040854762
 30
0.0
 10
129.826199731
 20
26.6279605555
 30
0.0
 10
129.7985573584
 20
26.6450658477
 30
0.0
 10
129.7826469994
 20
26.65302311
 30
0.0
 11
129.8561695939
 21
26.5917850397
 31
0.0
 11
129.8274912357
 21
26.6240902153
 31
0.0
 11
129.7826469994
 21
26.65302311
 31
0.0
  0
SPLINE
  5
531
100
AcDbEntity
  8
DRAFT
100
AcDbSpline
 62
7
  6
CONTINUOUS
 70
0
 71
3
 72
9
 73
5
 74
3
 42
0.0000001
 43
0.0000001
 44
0.0000000001
 12
0.9652960468
 22
1.2537999427
 32
0.0
 13
1.2276637562
 23
1.002083706
 33
0.0
 40
0.0
 40
0.0
 40
0.0
 40
0.0
 40
0.5628150751
 40
1.0
 40
1.0
 40
1.0
 40
1.0
 10
39.1683652302
 20
57.5703190264
 30
0.0
 10
39.3494596192
 20
57.805538196
 30
0.0
 10
39.695971086
 20
58.2041541215
 30
0.0
 10
40.0875333041
 20
58.55975882
 30
0.0
 10
40.2664386664
 20
58.7057907833
 30
0.0
 11
39.1683652302
 21
57.5703190264
 31
0.0
 11
39.753773686
 21
58.240608029
 31
0.0
 11
40.2664386664
 21
58.7057907833
 31
0.0
  0
SPLINE
  5
532
100
AcDbEntity
  8
RACCORDO
100
AcDbSpline
 62
253
  6
CONTINUOUS
 70
0
 71
3
 72
9
 73
5
 74
3
 42
0.0000001
 43
0.0000001
 44
0.0000000001
 12
-0.0512056172
 22
0.0824953597
 32
0.0
 13
-0.0863619786
 23
0.0431922944
 33
0.0
 40
0.0
 40
0.0
 40
0.0
 40
0.0
 40
0.4473137609
 40
1.0
 40
1.0
 40
1.0
 40
1.0
 10
129.8561695939
 20
-46.1543488782
 30
0.0
 10
129.8485346015
 20
-46.1420484417
 30
0.0
 10
129.826199731
 20
-46.1181733624
 30
0.0
 10
129.7985573584
 20
-46.1010680702
 30
0.0
 10
129.7826469994
 20
-46.0931108079
 30
0.0
 11
129.8561695939
 21
-46.1543488782
 31
0.0
 11
129.8274912357
 21
-46.1220437026
 31
0.0
 11
129.7826469994
 21
-46.0931108079
 31
0.0
  0
SPLINE
  5
533
100
AcDbEntity
  8
DRAFT
100
AcDbSpline
 62
7
  6
CONTINUOUS
 70
0
 71
3
 72
10
 73
6
 74
4
 42
0.0000001
 43
0.0000001
 44
0.0000000001
 12
0.4847727041
 22
1.4027170268
 32
0.0
 13
-0.2491300446
 23
1.4650234697
 33
0.0
 40
0.0
 40
0.0
 40
0.0
 40
0.0
 40
0.3749390292
 40
0.791700308
 40
1.0
 40
1.0
 40
1.0
 40
1.0
 10
108.0070436657
 20
-21.2246553265
 30
0.0
 10
108.0676304014
 20
-21.0493442064
 30
0.0
 10
108.1448034512
 20
-20.6609852985
 30
0.0
 10
108.1403191462
 20
-20.1638838998
 30
0.0
 10
108.0998100561
 20
-19.8566587061
 30
0.0
 10
108.0825121522
 20
-19.7549373935
 30
0.0
 11
108.0070436657
 21
-21.2246553265
 31
0.0
 11
108.1226217218
 21
-20.6803352136
 31
0.0
 11
108.1226217218
 21
-20.0618104175
 31
0.0
 11
108.0825121522
 21
-19.7549373935
 31
0.0
  0
SPLINE
  5
534
100
AcDbEntity
  8
ASSI
100
AcDbSpline
 62
7
  6
CONTINUOUS
 70
0
 71
3
 72
9
 73
5
 74
3
 42
0.0000001
 43
0.0000001
 44
0.0000000001
 12
-0.7058239846
 22
0.3868382777
 32
0.0
 13
-0.8182899559
 23
-0.0188798705
 33
0.0
 40
0.0
 40
0.0
 40
0.0
 40
0.0
 40
0.830826867
 40
1.0
 40
1.0
 40
1.0
 40
1.0
 10
115.5847783647
 20
36.1158143513
 30
0.0
 10
115.3893058548
 20
36.2229462294
 30
0.0
 10
115.1304374292
 20
36.3203299368
 30
0.0
 10
114.8573433609
 20
36.3298693017
 30
0.0
 10
114.8111991357
 20
36.328804646
 30
0.0
 11
115.5847783647
 21
36.1158143513
 31
0.0
 11
114.9493365877
 21
36.3241276277
 31
0.0
 11
114.8111991357
 21
36.328804646
 31
0.0
  0
SPLINE
  5
535
100
AcDbEntity
  8
DRAFT
100
AcDbSpline
 62
7
  6
CONTINUOUS
 70
0
 71
3
 72
10
 73
6
 74
4
 42
0.0000001
 43
0.0000001
 44
0.0000000001
 12
1.44677722
 22
2.2041335668
 32
0.0
 13
2.0316590233
 23
1.6831896305
 33
0.0
 40
0.0
 40
0.0
 40
0.0
 40
0.0
 40
0.2064626354
 40
0.8731448167
 40
1.0
 40
1.0
 40
1.0
 40
1.0
 10
99.9789755169
 20
28.3135169391
 30
0.0
 10
100.0785439961
 20
28.4652073474
 30
0.0
 10
100.5171967682
 20
29.0951755163
 30
0.0
 10
101.1066782546
 20
29.7535507153
 30
0.0
 10
101.6348268725
 20
30.2098826656
 30
0.0
 10
101.7207356984
 20
30.281056442
 30
0.0
 11
99.9789755169
 21
28.3135169391
 31
0.0
 11
100.2902426276
 21
28.76004876
 31
0.0
 11
101.4675096501
 21
30.0622943195
 31
0.0
 11
101.7207356984
 21
30.281056442
 31
0.0
  0
LINE
  5
536
100
AcDbEntity
  8
DRAFT
100
AcDbLine
 62
7
  6
CONTINUOUS
 10
109.8328021421
 20
-20.3147921463
 11
108.0070436657
 21
-21.2246553265
  0
SPLINE
  5
537
100
AcDbEntity
  8
DRAFT
100
AcDbSpline
 62
7
  6
CONTINUOUS
 70
0
 71
3
 72
9
 73
5
 74
3
 42
0.0000001
 43
0.0000001
 44
0.0000000001
 12
0.3280641234
 22
1.3873754804
 32
0.0
 13
0.5004635782
 23
1.3354161386
 33
0.0
 40
0.0
 40
0.0
 40
0.0
 40
0.0
 40
0.5363401466
 40
1.0
 40
1.0
 40
1.0
 40
1.0
 10
-60.7008647499
 20
103.0426535996
 30
0.0
 10
-60.6422134299
 20
103.2906886558
 30
0.0
 10
-60.5184824064
 20
103.7497073366
 30
0.0
 10
-60.3659066221
 20
104.2002139732
 30
0.0
 10
-60.2885583323
 20
104.4066069236
 30
0.0
 11
-60.7008647499
 21
103.0426535996
 31
0.0
 11
-60.5011920938
 21
103.7806203678
 31
0.0
 11
-60.2885583323
 21
104.4066069236
 31
0.0
  0
SPLINE
  5
538
100
AcDbEntity
  8
DRAFT
100
AcDbSpline
 62
7
  6
CONTINUOUS
 70
0
 71
3
 72
9
 73
5
 74
3
 42
0.0000001
 43
0.0000001
 44
0.0000000001
 12
-1.3665894782
 22
0.4798140158
 32
0.0
 13
-1.4241698934
 23
0.2652473744
 33
0.0
 40
0.0
 40
0.0
 40
0.0
 40
0.0
 40
0.5920950023
 40
1.0
 40
1.0
 40
1.0
 40
1.0
 10
-50.7290332487
 20
107.7995837751
 30
0.0
 10
-50.9987501821
 20
107.8942822687
 30
0.0
 10
-51.4609930423
 20
108.0355077652
 30
0.0
 10
-51.932732684
 20
108.1403243751
 30
0.0
 10
-52.1263746897
 20
108.1763896183
 30
0.0
 11
-50.7290332487
 21
107.7995837751
 31
0.0
 11
-51.5494629052
 21
108.0487559903
 31
0.0
 11
-52.1263746897
 21
108.1763896183
 31
0.0
  0
SPLINE
  5
539
100
AcDbEntity
  8
0
100
AcDbSpline
 62
7
  6
CONTINUOUS
 70
0
 71
3
 72
9
 73
5
 74
3
 42
0.0000001
 43
0.0000001
 44
0.0000000001
 12
-0.047733071
 22
0.2400679485
 32
0.0
 13
-0.0532256795
 23
0.2389488449
 33
0.0
 40
0.0
 40
0.0
 40
0.0
 40
0.0
 40
0.5755875985
 40
1.0
 40
1.0
 40
1.0
 40
1.0
 10
-43.1469561928
 20
112.0587924899
 30
0.0
 10
-43.1561143807
 20
112.1048525345
 30
0.0
 10
-43.1718259482
 20
112.1849342116
 30
0.0
 10
-43.1886437275
 20
112.2647856714
 30
0.0
 10
-43.196173607
 20
112.2985899558
 30
0.0
 11
-43.1469561928
 21
112.0587924899
 31
0.0
 11
-43.1745676367
 21
112.1969643037
 31
0.0
 11
-43.196173607
 21
112.2985899558
 31
0.0
  0
SPLINE
  5
53A
100
AcDbEntity
  8
RACCORDO
100
AcDbSpline
 62
253
  6
CONTINUOUS
 70
0
 71
3
 72
9
 73
5
 74
3
 42
0.0000001
 43
0.0000001
 44
0.0000000001
 12
0.1729337698
 22
0.086055685
 32
0.0
 13
0.0027322298
 23
0.1897962774
 33
0.0
 40
0.0
 40
0.0
 40
0.0
 40
0.0
 40
0.3674176656
 40
1.0
 40
1.0
 40
1.0
 40
1.0
 10
-4.3753466458
 20
103.0232722041
 30
0.0
 10
-4.3541670051
 20
103.0338116638
 30
0.0
 10
-4.3037085941
 20
103.0801339713
 30
0.0
 10
-4.2932758947
 20
103.1469113251
 30
0.0
 10
-4.2926997746
 20
103.1869319159
 30
0.0
 11
-4.3753466458
 21
103.0232722041
 31
0.0
 11
-4.3224916825
 21
103.0706122761
 31
0.0
 11
-4.2926997746
 21
103.1869319159
 31
0.0
  0
SPLINE
  5
53B
100
AcDbEntity
  8
0
100
AcDbSpline
 62
7
  6
CONTINUOUS
 70
0
 71
3
 72
9
 73
5
 74
3
 42
0.0000001
 43
0.0000001
 44
0.0000000001
 12
-0.0467568329
 22
0.2351580722
 32
0.0
 13
-0.0518784805
 23
0.2341183126
 33
0.0
 40
0.0
 40
0.0
 40
0.0
 40
0.0
 40
0.5876053186
 40
1.0
 40
1.0
 40
1.0
 40
1.0
 10
-43.0055348366
 20
112.129503168
 30
0.0
 10
-43.0146930245
 20
112.1755632126
 30
0.0
 10
-43.0300832585
 20
112.2540070571
 30
0.0
 10
-43.0465349186
 20
112.3322300047
 30
0.0
 10
-43.0536663885
 20
112.3644130537
 30
0.0
 11
-43.0055348366
 21
112.129503168
 31
0.0
 11
-43.0331462804
 21
112.2676749818
 31
0.0
 11
-43.0536663885
 21
112.3644130537
 31
0.0
  0
SPLINE
  5
53C
100
AcDbEntity
  8
RACCORDO
100
AcDbSpline
 62
7
  6
CONTINUOUS
 70
0
 71
3
 72
10
 73
6
 74
4
 42
0.0000001
 43
0.0000001
 44
0.0000000001
 12
0.2815221472
 22
0.2044356818
 32
0.0
 13
0.3351709454
 23
-0.1076842022
 33
0.0
 40
0.0
 40
0.0
 40
0.0
 40
0.0
 40
0.3917207206
 40
0.7557345619
 40
1.0
 40
1.0
 40
1.0
 40
1.0
 10
129.7826469994
 20
-46.0931108079
 30
0.0
 10
129.8194063522
 20
-46.0664169104
 30
0.0
 10
129.8908893767
 20
-46.0148254935
 30
0.0
 10
130.0064579377
 20
-45.9821754652
 30
0.0
 10
130.07786823
 20
-45.9942028239
 30
0.0
 10
130.1051584559
 20
-46.0029706668
 30
0.0
 11
129.7826469994
 21
-46.0931108079
 31
0.0
 11
129.8977701216
 21
-46.0201656616
 31
0.0
 11
130.0206954375
 21
-45.9896853284
 31
0.0
 11
130.1051584559
 21
-46.0029706668
 31
0.0
  0
SPLINE
  5
53D
100
AcDbEntity
  8
DRAFT
100
AcDbSpline
 62
7
  6
CONTINUOUS
 70
0
 71
3
 72
10
 73
6
 74
4
 42
0.0000001
 43
0.0000001
 44
0.0000000001
 12
2.7689745204
 22
3.3317013631
 32
0.0
 13
0.0
 23
4.3155049738
 33
0.0
 40
0.0
 40
0.0
 40
0.0
 40
0.0
 40
0.2180240167
 40
0.5863070375
 40
1.0
 40
1.0
 40
1.0
 40
1.0
 10
93.4303203246
 20
-110.8168160948
 30
0.0
 10
93.6315546403
 20
-110.5746857903
 30
0.0
 10
94.0997766884
 20
-109.8584780352
 30
0.0
 10
94.5612132752
 20
-108.4800477208
 30
0.0
 10
94.6628498256
 20
-107.3499805467
 30
0.0
 10
94.6628498256
 20
-106.7548825342
 30
0.0
 11
93.4303203246
 21
-110.8168160948
 31
0.0
 11
93.9524456233
 21
-110.029309683
 31
0.0
 11
94.4827678545
 21
-108.5310709487
 31
0.0
 11
94.6628498256
 21
-106.7548825342
 31
0.0
  0
LINE
  5
53E
100
AcDbEntity
  8
DRAFT
100
AcDbLine
 62
7
  6
CONTINUOUS
 10
92.5374539709
 20
16.7303681815
 11
92.4132565181
 21
16.6712892368
  0
SPLINE
  5
53F
100
AcDbEntity
  8
RACCORDO
100
AcDbSpline
 62
7
  6
CONTINUOUS
 70
0
 71
3
 72
10
 73
6
 74
4
 42
0.0000001
 43
0.0000001
 44
0.0000000001
 12
0.2815351111
 22
0.2044450959
 32
0.0
 13
0.3351774413
 23
-0.1077079401
 33
0.0
 40
0.0
 40
0.0
 40
0.0
 40
0.0
 40
0.3918334141
 40
0.7558039131
 40
1.0
 40
1.0
 40
1.0
 40
1.0
 10
129.7826469994
 20
-9.720043849
 30
0.0
 10
129.8194186206
 20
-9.6933410423
 30
0.0
 10
129.8909126697
 20
-9.6417417196
 30
0.0
 10
130.0064922582
 20
-9.6091087089
 30
0.0
 10
130.0778903866
 20
-9.6211410261
 30
0.0
 10
130.1051733931
 20
-9.6299083119
 30
0.0
 11
129.7826469994
 21
-9.720043849
 31
0.0
 11
129.8978114387
 21
-9.6470789257
 31
0.0
 11
130.0207320433
 21
-9.6166180247
 31
0.0
 11
130.1051733931
 21
-9.6299083119
 31
0.0
  0
SPLINE
  5
540
100
AcDbEntity
  8
RACCORDO
100
AcDbSpline
 62
7
  6
CONTINUOUS
 70
0
 71
3
 72
10
 73
6
 74
4
 42
0.0000001
 43
0.0000001
 44
0.0000000001
 12
0.2815540334
 22
0.2044588368
 32
0.0
 13
0.3351869595
 23
-0.1077426855
 33
0.0
 40
0.0
 40
0.0
 40
0.0
 40
0.0
 40
0.391982136
 40
0.7559029384
 40
1.0
 40
1.0
 40
1.0
 40
1.0
 10
129.7826469994
 20
26.65302311
 30
0.0
 10
129.8194350498
 20
26.6797378472
 30
0.0
 10
129.8909447908
 20
26.7313485061
 30
0.0
 10
130.0065402771
 20
26.7639582563
 30
0.0
 10
130.077922548
 20
26.7519184591
 30
0.0
 10
130.1051952653
 20
26.7431519015
 30
0.0
 11
129.7826469994
 21
26.65302311
 31
0.0
 11
129.8978667723
 21
26.7260145102
 31
0.0
 11
130.0207847683
 21
26.7564494217
 31
0.0
 11
130.1051952653
 21
26.7431519015
 31
0.0
  0
SPLINE
  5
541
100
AcDbEntity
  8
RACCORDO
100
AcDbSpline
 62
7
  6
CONTINUOUS
 70
0
 71
3
 72
10
 73
6
 74
4
 42
0.0000001
 43
0.0000001
 44
0.0000000001
 12
0.0000241712
 22
-0.3801736288
 32
0.0
 13
-0.3046749612
 23
-0.2286434253
 33
0.0
 40
0.0
 40
0.0
 40
0.0
 40
0.0
 40
0.3830148908
 40
0.7397915009
 40
1.0
 40
1.0
 40
1.0
 40
1.0
 10
-32.3649030462
 20
117.3592787703
 30
0.0
 10
-32.3648999602
 20
117.3107413833
 30
0.0
 10
-32.381141251
 20
117.2152379451
 30
0.0
 10
-32.4550274376
 20
117.1081412489
 30
0.0
 10
-32.515942694
 20
117.0587521975
 30
0.0
 10
-32.5423690321
 20
117.0389205433
 30
0.0
 11
-32.3649030462
 21
117.3592787703
 31
0.0
 11
-32.3920154427
 21
117.2162129831
 31
0.0
 11
-32.4672880939
 21
117.1033793016
 31
0.0
 11
-32.5423690321
 21
117.0389205433
 31
0.0
  0
LINE
  5
542
100
AcDbEntity
  8
RACCORDO
100
AcDbLine
 62
7
  6
CONTINUOUS
 10
-32.5423690321
 20
117.0389205433
 11
-32.5733646157
 21
117.016158054
  0
SPLINE
  5
543
100
AcDbEntity
  8
RACCORDO
100
AcDbSpline
 62
7
  6
CONTINUOUS
 70
0
 71
3
 72
10
 73
6
 74
4
 42
0.0000001
 43
0.0000001
 44
0.0000000001
 12
0.0000241621
 22
-0.3800298326
 32
0.0
 13
-0.3045468078
 23
-0.2286168967
 33
0.0
 40
0.0
 40
0.0
 40
0.0
 40
0.0
 40
0.3810439769
 40
0.7379165983
 40
1.0
 40
1.0
 40
1.0
 40
1.0
 10
-4.0806317987
 20
103.2171431465
 30
0.0
 10
-4.0806287298
 20
103.168873787
 30
0.0
 10
-4.0967166027
 20
103.0736753613
 30
0.0
 10
-4.1703017286
 20
102.9664165944
 30
0.0
 10
-4.2313686624
 20
102.9168508445
 30
0.0
 10
-4.2579742168
 20
102.8968786132
 30
0.0
 11
-4.0806317987
 21
103.2171431465
 31
0.0
 11
-4.107432621
 21
103.074836802
 31
0.0
 11
-4.1824365228
 21
102.9618420789
 31
0.0
 11
-4.2579742168
 21
102.8968786132
 31
0.0
  0
LINE
  5
544
100
AcDbEntity
  8
RACCORDO
100
AcDbLine
 62
7
  6
CONTINUOUS
 10
-4.2579742168
 20
102.8968786132
 11
-4.2890933683
 21
102.8740224302
  0
SPLINE
  5
545
100
AcDbEntity
  8
RACCORDO
100
AcDbSpline
 62
7
  6
CONTINUOUS
 70
0
 71
3
 72
10
 73
6
 74
4
 42
0.0000001
 43
0.0000001
 44
0.0000000001
 12
0.0000241701
 22
-0.3801554678
 32
0.0
 13
-0.304658949
 23
-0.2286402479
 33
0.0
 40
0.0
 40
0.0
 40
0.0
 40
0.0
 40
0.3827222586
 40
0.7395300871
 40
1.0
 40
1.0
 40
1.0
 40
1.0
 10
34.9516625228
 20
83.7009959858
 30
0.0
 10
34.9516656063
 20
83.6524979994
 30
0.0
 10
34.9354465502
 20
83.5570368171
 30
0.0
 10
34.8616023954
 20
83.4499161139
 30
0.0
 10
34.8006637579
 20
83.4005009817
 30
0.0
 10
34.7742122613
 20
83.3806496799
 30
0.0
 11
34.9516625228
 21
83.7009959858
 31
0.0
 11
34.9245960487
 21
83.5580418035
 31
0.0
 11
34.8493575021
 21
83.4451789017
 31
0.0
 11
34.7742122613
 21
83.3806496799
 31
0.0
  0
LINE
  5
546
100
AcDbEntity
  8
RACCORDO
100
AcDbLine
 62
7
  6
CONTINUOUS
 10
34.7742122613
 20
83.3806496799
 11
34.7432009532
 21
83.3578752695
  0
SPLINE
  5
547
100
AcDbEntity
  8
RACCORDO
100
AcDbSpline
 62
7
  6
CONTINUOUS
 70
0
 71
3
 72
10
 73
6
 74
4
 42
0.0000001
 43
0.0000001
 44
0.0000000001
 12
0.0000241712
 22
-0.3801733081
 32
0.0
 13
-0.3046746764
 23
-0.2286433667
 33
0.0
 40
0.0
 40
0.0
 40
0.0
 40
0.0
 40
0.3830102452
 40
0.7397871787
 40
1.0
 40
1.0
 40
1.0
 40
1.0
 10
63.2359337703
 20
69.5588603621
 30
0.0
 10
63.2359368562
 20
69.5103236047
 30
0.0
 10
63.2196959248
 20
69.4148208685
 30
0.0
 10
63.1458104322
 20
69.3077237899
 30
0.0
 10
63.0848948131
 20
69.2583343232
 30
0.0
 10
63.0584680608
 20
69.2385023447
 30
0.0
 11
63.2359337703
 21
69.5588603621
 31
0.0
 11
63.2088221079
 21
69.4157963584
 31
0.0
 11
63.1335500565
 21
69.3029622664
 31
0.0
 11
63.0584680608
 21
69.2385023447
 31
0.0
  0
LINE
  5
548
100
AcDbEntity
  8
RACCORDO
100
AcDbLine
 62
7
  6
CONTINUOUS
 10
63.0584680608
 20
69.2385023447
 11
63.0274722007
 21
69.2157396458
  0
SPLINE
  5
549
100
AcDbEntity
  8
RACCORDO
100
AcDbSpline
 62
7
  6
CONTINUOUS
 70
0
 71
3
 72
10
 73
6
 74
4
 42
0.0000001
 43
0.0000001
 44
0.0000000001
 12
0.000024163
 22
-0.3800439131
 32
0.0
 13
-0.3045600229
 23
-0.2286202494
 33
0.0
 40
0.0
 40
0.0
 40
0.0
 40
0.0
 40
0.3810697357
 40
0.7380062527
 40
1.0
 40
1.0
 40
1.0
 40
1.0
 10
94.2072107862
 20
54.0732218541
 30
0.0
 10
94.2072138555
 20
54.0249474429
 30
0.0
 10
94.1911216445
 20
53.9297333059
 30
0.0
 10
94.1175224607
 20
53.8224770604
 30
0.0
 10
94.056454274
 20
53.7729141447
 30
0.0
 10
94.0298566668
 20
53.7529484528
 30
0.0
 11
94.2072107862
 21
54.0732218541
 31
0.0
 11
94.1804041094
 21
53.930901191
 31
0.0
 11
94.1053746021
 21
53.8178882878
 31
0.0
 11
94.0298566668
 21
53.7529484528
 31
0.0
  0
LINE
  5
54A
100
AcDbEntity
  8
RACCORDO
100
AcDbLine
 62
7
  6
CONTINUOUS
 10
94.0298566668
 20
53.7529484528
 11
93.9987492166
 21
53.7301011378
  0
SPLINE
  5
54B
100
AcDbEntity
  8
RACCORDO
100
AcDbSpline
 62
7
  6
CONTINUOUS
 70
0
 71
3
 72
10
 73
6
 74
4
 42
0.0000001
 43
0.0000001
 44
0.0000000001
 12
0.0000241689
 22
-0.3801378127
 32
0.0
 13
-0.3046438012
 23
-0.2286376515
 33
0.0
 40
0.0
 40
0.0
 40
0.0
 40
0.0
 40
0.3823325699
 40
0.7392167494
 40
1.0
 40
1.0
 40
1.0
 40
1.0
 10
122.4914820337
 20
39.9310862304
 30
0.0
 10
122.4914851139
 20
39.8826398747
 30
0.0
 10
122.4752943725
 20
39.7872286785
 30
0.0
 10
122.4015007945
 20
39.6800762605
 30
0.0
 10
122.340529305
 20
39.6306266618
 30
0.0
 10
122.3140473048
 20
39.6107517051
 30
0.0
 11
122.4914820337
 21
39.9310862304
 31
0.0
 11
122.4644756739
 21
39.788278314
 31
0.0
 11
122.3892707508
 21
39.6753657004
 31
0.0
 11
122.3140473048
 21
39.6107517051
 31
0.0
  0
LINE
  5
54C
100
AcDbEntity
  8
RACCORDO
100
AcDbLine
 62
7
  6
CONTINUOUS
 10
122.3140473048
 20
39.6107517051
 11
122.2830204641
 21
39.587965514
  0
SPLINE
  5
54D
100
AcDbEntity
  8
RACCORDO
100
AcDbSpline
 62
253
  6
CONTINUOUS
 70
0
 71
3
 72
11
 73
7
 74
5
 42
0.0000001
 43
0.0000001
 44
0.0000000001
 12
-0.0000016556
 22
0.1216184584
 32
0.0
 13
-0.0653640478
 23
0.1029885436
 33
0.0
 40
0.0
 40
0.0
 40
0.0
 40
0.0
 40
0.288497926
 40
0.5877195502
 40
0.8957028857
 40
1.0
 40
1.0
 40
1.0
 40
1.0
 10
122.2830204641
 20
39.587965514
 30
0.0
 10
122.2830203049
 20
39.5996610717
 30
0.0
 10
122.2816650656
 20
39.6235174592
 30
0.0
 10
122.274613449
 20
39.6592806239
 30
0.0
 10
122.2640852479
 20
39.686341603
 30
0.0
 10
122.2556921386
 20
39.7008699328
 30
0.0
 10
122.2534197114
 20
39.7044504021
 30
0.0
 11
122.2830204641
 21
39.587965514
 31
0.0
 11
122.2809014419
 21
39.6229881405
 31
0.0
 11
122.2736614067
 21
39.6586515322
 31
0.0
 11
122.2597919361
 21
39.6934455557
 31
0.0
 11
122.2534197114
 21
39.7044504021
 31
0.0
  0
SPLINE
  5
54E
100
AcDbEntity
  8
RACCORDO
100
AcDbSpline
 62
253
  6
CONTINUOUS
 70
0
 71
3
 72
10
 73
6
 74
4
 42
0.0000001
 43
0.0000001
 44
0.0000000001
 12
-0.0373192911
 22
0.0588008175
 32
0.0
 13
-0.0622220216
 23
0.0314732197
 33
0.0
 40
0.0
 40
0.0
 40
0.0
 40
0.0
 40
0.3694689269
 40
0.9397096563
 40
1.0
 40
1.0
 40
1.0
 40
1.0
 10
122.2534197114
 20
39.7044504021
 30
0.0
 10
122.2488236053
 20
39.7116920938
 30
0.0
 10
122.2355818101
 20
39.7291237897
 30
0.0
 10
122.2171498744
 20
39.7438001689
 30
0.0
 10
122.2041907385
 20
39.7506457981
 30
0.0
 10
122.2029402762
 20
39.7512783085
 30
0.0
 11
122.2534197114
 21
39.7044504021
 31
0.0
 11
122.2377804254
 21
39.7248367396
 31
0.0
 11
122.2066567749
 21
39.7493146439
 31
0.0
 11
122.2029402762
 21
39.7512783085
 31
0.0
  0
SPLINE
  5
54F
100
AcDbEntity
  8
RACCORDO
100
AcDbSpline
 62
253
  6
CONTINUOUS
 70
0
 71
3
 72
11
 73
7
 74
5
 42
0.0000001
 43
0.0000001
 44
0.0000000001
 12
-0.0000016556
 22
0.1216184584
 32
0.0
 13
-0.0653640478
 23
0.1029885436
 33
0.0
 40
0.0
 40
0.0
 40
0.0
 40
0.0
 40
0.288497926
 40
0.5877195502
 40
0.8957028857
 40
1.0
 40
1.0
 40
1.0
 40
1.0
 10
93.9987492166
 20
53.7301011378
 30
0.0
 10
93.9987490574
 20
53.7417966954
 30
0.0
 10
93.9973938182
 20
53.7656530829
 30
0.0
 10
93.9903422016
 20
53.8014162476
 30
0.0
 10
93.9798140005
 20
53.8284772267
 30
0.0
 10
93.9714208912
 20
53.8430055565
 30
0.0
 10
93.969148464
 20
53.8465860258
 30
0.0
 11
93.9987492166
 21
53.7301011378
 31
0.0
 11
93.9966301944
 21
53.7651237643
 31
0.0
 11
93.9893901592
 21
53.8007871559
 31
0.0
 11
93.9755206887
 21
53.8355811794
 31
0.0
 11
93.969148464
 21
53.8465860258
 31
0.0
  0
SPLINE
  5
550
100
AcDbEntity
  8
RACCORDO
100
AcDbSpline
 62
253
  6
CONTINUOUS
 70
0
 71
3
 72
10
 73
6
 74
4
 42
0.0000001
 43
0.0000001
 44
0.0000000001
 12
-0.0373192911
 22
0.0588008175
 32
0.0
 13
-0.0622220216
 23
0.0314732197
 33
0.0
 40
0.0
 40
0.0
 40
0.0
 40
0.0
 40
0.3694689269
 40
0.9397096563
 40
1.0
 40
1.0
 40
1.0
 40
1.0
 10
93.969148464
 20
53.8465860258
 30
0.0
 10
93.9645523578
 20
53.8538277175
 30
0.0
 10
93.9513105627
 20
53.8712594134
 30
0.0
 10
93.9328786269
 20
53.8859357927
 30
0.0
 10
93.9199194911
 20
53.8927814218
 30
0.0
 10
93.9186690287
 20
53.8934139323
 30
0.0
 11
93.969148464
 21
53.8465860258
 31
0.0
 11
93.953509178
 21
53.8669723633
 31
0.0
 11
93.9223855275
 21
53.8914502676
 31
0.0
 11
93.9186690287
 21
53.8934139323
 31
0.0
  0
SPLINE
  5
551
100
AcDbEntity
  8
RACCORDO
100
AcDbSpline
 62
253
  6
CONTINUOUS
 70
0
 71
3
 72
11
 73
7
 74
5
 42
0.0000001
 43
0.0000001
 44
0.0000000001
 12
-0.0000018295
 22
0.1343976963
 32
0.0
 13
-0.0818655682
 23
0.10705393
 33
0.0
 40
0.0
 40
0.0
 40
0.0
 40
0.0
 40
0.26106603
 40
0.5318360927
 40
0.8105347572
 40
1.0
 40
1.0
 40
1.0
 40
1.0
 10
63.0274722007
 20
69.2157396458
 30
0.0
 10
63.0274720415
 20
69.2274352034
 30
0.0
 10
63.0261168022
 20
69.2512915909
 30
0.0
 10
63.0190651856
 20
69.2870547556
 30
0.0
 10
63.0069821525
 20
69.3181121701
 30
0.0
 10
62.9957167147
 20
69.3359747912
 30
0.0
 10
62.9905464881
 20
69.3427357908
 30
0.0
 11
63.0274722007
 21
69.2157396458
 31
0.0
 11
63.0253531784
 21
69.2507622723
 31
0.0
 11
63.0181131432
 21
69.2864256639
 31
0.0
 11
63.0042436727
 21
69.3212196874
 31
0.0
 11
62.9905464881
 21
69.3427357908
 31
0.0
  0
SPLINE
  5
552
100
AcDbEntity
  8
RACCORDO
100
AcDbSpline
 62
253
  6
CONTINUOUS
 70
0
 71
3
 72
11
 73
7
 74
5
 42
0.0000001
 43
0.0000001
 44
0.0000000001
 12
-0.0000016556
 22
0.1216184584
 32
0.0
 13
-0.0653640478
 23
0.1029885436
 33
0.0
 40
0.0
 40
0.0
 40
0.0
 40
0.0
 40
0.288497926
 40
0.5877195502
 40
0.8957028857
 40
1.0
 40
1.0
 40
1.0
 40
1.0
 10
34.7432009532
 20
83.3578752695
 30
0.0
 10
34.743200794
 20
83.3695708272
 30
0.0
 10
34.7418455547
 20
83.3934272147
 30
0.0
 10
34.7347939381
 20
83.4291903793
 30
0.0
 10
34.724265737
 20
83.4562513585
 30
0.0
 10
34.7158726277
 20
83.4707796883
 30
0.0
 10
34.7136002005
 20
83.4743601576
 30
0.0
 11
34.7432009532
 21
83.3578752695
 31
0.0
 11
34.741081931
 21
83.392897896
 31
0.0
 11
34.7338418958
 21
83.4285612876
 31
0.0
 11
34.7199724252
 21
83.4633553111
 31
0.0
 11
34.7136002005
 21
83.4743601576
 31
0.0
  0
SPLINE
  5
553
100
AcDbEntity
  8
RACCORDO
100
AcDbSpline
 62
253
  6
CONTINUOUS
 70
0
 71
3
 72
10
 73
6
 74
4
 42
0.0000001
 43
0.0000001
 44
0.0000000001
 12
-0.0373192911
 22
0.0588008175
 32
0.0
 13
-0.0622220216
 23
0.0314732197
 33
0.0
 40
0.0
 40
0.0
 40
0.0
 40
0.0
 40
0.3694689269
 40
0.9397096563
 40
1.0
 40
1.0
 40
1.0
 40
1.0
 10
34.7136002005
 20
83.4743601576
 30
0.0
 10
34.7090040944
 20
83.4816018492
 30
0.0
 10
34.6957622992
 20
83.4990335452
 30
0.0
 10
34.6773303635
 20
83.5137099244
 30
0.0
 10
34.6643712276
 20
83.5205555536
 30
0.0
 10
34.6631207653
 20
83.521188064
 30
0.0
 11
34.7136002005
 21
83.4743601576
 31
0.0
 11
34.6979609145
 21
83.4947464951
 31
0.0
 11
34.666837264
 21
83.5192243993
 31
0.0
 11
34.6631207653
 21
83.521188064
 31
0.0
  0
SPLINE
  5
554
100
AcDbEntity
  8
RACCORDO
100
AcDbSpline
 62
253
  6
CONTINUOUS
 70
0
 71
3
 72
11
 73
7
 74
5
 42
0.0000001
 43
0.0000001
 44
0.0000000001
 12
-0.0000018295
 22
0.1343976963
 32
0.0
 13
-0.0818655682
 23
0.10705393
 33
0.0
 40
0.0
 40
0.0
 40
0.0
 40
0.0
 40
0.26106603
 40
0.5318360927
 40
0.8105347572
 40
1.0
 40
1.0
 40
1.0
 40
1.0
 10
-4.2890933683
 20
102.8740224302
 30
0.0
 10
-4.2890935275
 20
102.8857179879
 30
0.0
 10
-4.2904487668
 20
102.9095743754
 30
0.0
 10
-4.2975003834
 20
102.9453375401
 30
0.0
 10
-4.3095834164
 20
102.9763949546
 30
0.0
 10
-4.3208488542
 20
102.9942575757
 30
0.0
 10
-4.3260190808
 20
103.0010185753
 30
0.0
 11
-4.2890933683
 21
102.8740224302
 31
0.0
 11
-4.2912123905
 21
102.9090450567
 31
0.0
 11
-4.2984524257
 21
102.9447084484
 31
0.0
 11
-4.3123218963
 21
102.9795024719
 31
0.0
 11
-4.3260190808
 21
103.0010185753
 31
0.0
  0
SPLINE
  5
555
100
AcDbEntity
  8
RACCORDO
100
AcDbSpline
 62
253
  6
CONTINUOUS
 70
0
 71
3
 72
11
 73
7
 74
5
 42
0.0000001
 43
0.0000001
 44
0.0000000001
 12
-0.0000016556
 22
0.1216184584
 32
0.0
 13
-0.0653640478
 23
0.1029885436
 33
0.0
 40
0.0
 40
0.0
 40
0.0
 40
0.0
 40
0.288497926
 40
0.5877195502
 40
0.8957028857
 40
1.0
 40
1.0
 40
1.0
 40
1.0
 10
-32.5733646157
 20
117.016158054
 30
0.0
 10
-32.573364775
 20
117.0278536116
 30
0.0
 10
-32.5747200142
 20
117.0517099991
 30
0.0
 10
-32.5817716308
 20
117.0874731638
 30
0.0
 10
-32.5922998319
 20
117.1145341429
 30
0.0
 10
-32.6006929412
 20
117.1290624727
 30
0.0
 10
-32.6029653684
 20
117.132642942
 30
0.0
 11
-32.5733646157
 21
117.016158054
 31
0.0
 11
-32.575483638
 21
117.0511806805
 31
0.0
 11
-32.5827236732
 21
117.0868440721
 31
0.0
 11
-32.5965931437
 21
117.1216380956
 31
0.0
 11
-32.6029653684
 21
117.132642942
 31
0.0
  0
SPLINE
  5
556
100
AcDbEntity
  8
RACCORDO
100
AcDbSpline
 62
253
  6
CONTINUOUS
 70
0
 71
3
 72
10
 73
6
 74
4
 42
0.0000001
 43
0.0000001
 44
0.0000000001
 12
-0.0373192911
 22
0.0588008175
 32
0.0
 13
-0.0622220216
 23
0.0314732197
 33
0.0
 40
0.0
 40
0.0
 40
0.0
 40
0.0
 40
0.3694689269
 40
0.9397096563
 40
1.0
 40
1.0
 40
1.0
 40
1.0
 10
-32.6029653684
 20
117.132642942
 30
0.0
 10
-32.6075614746
 20
117.1398846337
 30
0.0
 10
-32.6208032697
 20
117.1573163296
 30
0.0
 10
-32.6392352055
 20
117.1719927088
 30
0.0
 10
-32.6521943413
 20
117.178838338
 30
0.0
 10
-32.6534448037
 20
117.1794708485
 30
0.0
 11
-32.6029653684
 21
117.132642942
 31
0.0
 11
-32.6186046544
 21
117.1530292795
 31
0.0
 11
-32.6497283049
 21
117.1775071838
 31
0.0
 11
-32.6534448037
 21
117.1794708485
 31
0.0
  0
SPLINE
  5
557
100
AcDbEntity
  8
RACCORDO
100
AcDbSpline
 62
253
  6
CONTINUOUS
 70
0
 71
3
 72
11
 73
7
 74
5
 42
0.0000001
 43
0.0000001
 44
0.0000000001
 12
0.1816703026
 22
0.0980148241
 32
0.0
 13
0.0924493088
 23
0.1845647038
 33
0.0
 40
0.0
 40
0.0
 40
0.0
 40
0.0
 40
0.2501381206
 40
0.5014902492
 40
0.7519784463
 40
1.0
 40
1.0
 40
1.0
 40
1.0
 10
129.9984166307
 20
26.5875648997
 30
0.0
 10
130.0135641868
 20
26.5957373143
 30
0.0
 10
130.0432295605
 20
26.6134844702
 30
0.0
 10
130.0845489109
 20
26.6448516374
 30
0.0
 10
130.1209751494
 20
26.6816749117
 30
0.0
 10
130.1402648301
 20
26.7104461878
 30
0.0
 10
130.1479079705
 20
26.7257048626
 30
0.0
 11
129.9984166307
 21
26.5875648997
 31
0.0
 11
130.0426328649
 21
26.6142305323
 31
0.0
 11
130.0837944149
 21
26.645818509
 31
0.0
 11
130.1198511139
 21
26.6828794545
 31
0.0
 11
130.1479079705
 21
26.7257048626
 31
0.0
  0
SPLINE
  5
558
100
AcDbEntity
  8
RACCORDO
100
AcDbSpline
 62
253
  6
CONTINUOUS
 70
0
 71
3
 72
11
 73
7
 74
5
 42
0.0000001
 43
0.0000001
 44
0.0000000001
 12
0.1816703026
 22
0.0980148241
 32
0.0
 13
0.0924493088
 23
0.1845647038
 33
0.0
 40
0.0
 40
0.0
 40
0.0
 40
0.0
 40
0.2501381206
 40
0.5014902492
 40
0.7519784463
 40
1.0
 40
1.0
 40
1.0
 40
1.0
 10
129.9984166307
 20
-9.7855020592
 30
0.0
 10
130.0135641868
 20
-9.7773296446
 30
0.0
 10
130.0432295605
 20
-9.7595824887
 30
0.0
 10
130.0845489109
 20
-9.7282153215
 30
0.0
 10
130.1209751494
 20
-9.6913920473
 30
0.0
 10
130.1402648301
 20
-9.6626207712
 30
0.0
 10
130.1479079705
 20
-9.6473620963
 30
0.0
 11
129.9984166307
 21
-9.7855020592
 31
0.0
 11
130.0426328649
 21
-9.7588364267
 31
0.0
 11
130.0837944149
 21
-9.72724845
 31
0.0
 11
130.1198511139
 21
-9.6901875044
 31
0.0
 11
130.1479079705
 21
-9.6473620963
 31
0.0
  0
SPLINE
  5
559
100
AcDbEntity
  8
RACCORDO
100
AcDbSpline
 62
253
  6
CONTINUOUS
 70
0
 71
3
 72
11
 73
7
 74
5
 42
0.0000001
 43
0.0000001
 44
0.0000000001
 12
0.1816703026
 22
0.0980148241
 32
0.0
 13
0.0924493088
 23
0.1845647038
 33
0.0
 40
0.0
 40
0.0
 40
0.0
 40
0.0
 40
0.2501381206
 40
0.5014902492
 40
0.7519784463
 40
1.0
 40
1.0
 40
1.0
 40
1.0
 10
129.9984166307
 20
-46.1585690182
 30
0.0
 10
130.0135641868
 20
-46.1503966036
 30
0.0
 10
130.0432295605
 20
-46.1326494477
 30
0.0
 10
130.0845489109
 20
-46.1012822805
 30
0.0
 10
130.1209751494
 20
-46.0644590062
 30
0.0
 10
130.1402648301
 20
-46.0356877301
 30
0.0
 10
130.1479079705
 20
-46.0204290553
 30
0.0
 11
129.9984166307
 21
-46.1585690182
 31
0.0
 11
130.0426328649
 21
-46.1319033856
 31
0.0
 11
130.0837944149
 21
-46.1003154089
 31
0.0
 11
130.1198511139
 21
-46.0632544634
 31
0.0
 11
130.1479079705
 21
-46.0204290553
 31
0.0
  0
SPLINE
  5
55A
100
AcDbEntity
  8
RACCORDO
100
AcDbSpline
 62
253
  6
CONTINUOUS
 70
0
 71
3
 72
10
 73
6
 74
4
 42
0.0000001
 43
0.0000001
 44
0.0000000001
 12
-0.212212668
 22
0.0484490763
 32
0.0
 13
-0.1976182856
 23
-0.0912608494
 33
0.0
 40
0.0
 40
0.0
 40
0.0
 40
0.0
 40
0.3007756143
 40
0.6296891775
 40
1.0
 40
1.0
 40
1.0
 40
1.0
 10
122.4914820337
 20
39.9310862304
 30
0.0
 10
122.4702059018
 20
39.9359436639
 30
0.0
 10
122.4241488127
 20
39.9401585844
 30
0.0
 10
122.3518314151
 20
39.9296031274
 30
0.0
 10
122.3038074544
 20
39.9121399598
 30
0.0
 10
122.2794140578
 20
39.9008749997
 30
0.0
 11
122.4914820337
 21
39.9310862304
 31
0.0
 11
122.4263254464
 21
39.9374920996
 31
0.0
 11
122.3553876639
 21
39.9278090914
 31
0.0
 11
122.2794140578
 21
39.9008749997
 31
0.0
  0
SPLINE
  5
55B
100
AcDbEntity
  8
RACCORDO
100
AcDbSpline
 62
253
  6
CONTINUOUS
 70
0
 71
3
 72
10
 73
6
 74
4
 42
0.0000001
 43
0.0000001
 44
0.0000000001
 12
-0.212212668
 22
0.0484490763
 32
0.0
 13
-0.1976182856
 23
-0.0912608494
 33
0.0
 40
0.0
 40
0.0
 40
0.0
 40
0.0
 40
0.3007756143
 40
0.6296891775
 40
1.0
 40
1.0
 40
1.0
 40
1.0
 10
94.2072107862
 20
54.0732218541
 30
0.0
 10
94.1859346544
 20
54.0780792876
 30
0.0
 10
94.1398775653
 20
54.0822942081
 30
0.0
 10
94.0675601676
 20
54.0717387512
 30
0.0
 10
94.0195362069
 20
54.0542755835
 30
0.0
 10
93.9951428103
 20
54.0430106234
 30
0.0
 11
94.2072107862
 21
54.0732218541
 31
0.0
 11
94.1420541989
 21
54.0796277233
 31
0.0
 11
94.0711164164
 21
54.0699447151
 31
0.0
 11
93.9951428103
 21
54.0430106234
 31
0.0
  0
SPLINE
  5
55C
100
AcDbEntity
  8
RACCORDO
100
AcDbSpline
 62
253
  6
CONTINUOUS
 70
0
 71
3
 72
10
 73
6
 74
4
 42
0.0000001
 43
0.0000001
 44
0.0000000001
 12
-0.212212668
 22
0.0484490763
 32
0.0
 13
-0.1976182856
 23
-0.0912608494
 33
0.0
 40
0.0
 40
0.0
 40
0.0
 40
0.0
 40
0.3007756143
 40
0.6296891775
 40
1.0
 40
1.0
 40
1.0
 40
1.0
 10
63.2359337703
 20
69.5588603621
 30
0.0
 10
63.2146576384
 20
69.5637177956
 30
0.0
 10
63.1686005493
 20
69.5679327161
 30
0.0
 10
63.0962831516
 20
69.5573772591
 30
0.0
 10
63.048259191
 20
69.5399140915
 30
0.0
 10
63.0238657943
 20
69.5286491314
 30
0.0
 11
63.2359337703
 21
69.5588603621
 31
0.0
 11
63.170777183
 21
69.5652662313
 31
0.0
 11
63.0998394004
 21
69.5555832231
 31
0.0
 11
63.0238657943
 21
69.5286491314
 31
0.0
  0
SPLINE
  5
55D
100
AcDbEntity
  8
RACCORDO
100
AcDbSpline
 62
253
  6
CONTINUOUS
 70
0
 71
3
 72
10
 73
6
 74
4
 42
0.0000001
 43
0.0000001
 44
0.0000000001
 12
-0.212212668
 22
0.0484490763
 32
0.0
 13
-0.1976182856
 23
-0.0912608494
 33
0.0
 40
0.0
 40
0.0
 40
0.0
 40
0.0
 40
0.3007756143
 40
0.6296891775
 40
1.0
 40
1.0
 40
1.0
 40
1.0
 10
34.9516625228
 20
83.7009959858
 30
0.0
 10
34.9303863909
 20
83.7058534194
 30
0.0
 10
34.8843293018
 20
83.7100683398
 30
0.0
 10
34.8120119042
 20
83.6995128829
 30
0.0
 10
34.7639879435
 20
83.6820497152
 30
0.0
 10
34.7395945469
 20
83.6707847551
 30
0.0
 11
34.9516625228
 21
83.7009959858
 31
0.0
 11
34.8865059355
 21
83.707401855
 31
0.0
 11
34.815568153
 21
83.6977188468
 31
0.0
 11
34.7395945469
 21
83.6707847551
 31
0.0
  0
SPLINE
  5
55E
100
AcDbEntity
  8
RACCORDO
100
AcDbSpline
 62
253
  6
CONTINUOUS
 70
0
 71
3
 72
10
 73
6
 74
4
 42
0.0000001
 43
0.0000001
 44
0.0000000001
 12
-0.212212668
 22
0.0484490763
 32
0.0
 13
-0.1976182856
 23
-0.0912608494
 33
0.0
 40
0.0
 40
0.0
 40
0.0
 40
0.0
 40
0.3007756143
 40
0.6296891775
 40
1.0
 40
1.0
 40
1.0
 40
1.0
 10
-4.0806317987
 20
103.2171431465
 30
0.0
 10
-4.1019079306
 20
103.2220005801
 30
0.0
 10
-4.1479650197
 20
103.2262155006
 30
0.0
 10
-4.2202824173
 20
103.2156600436
 30
0.0
 10
-4.268306378
 20
103.1981968759
 30
0.0
 10
-4.2926997746
 20
103.1869319159
 30
0.0
 11
-4.0806317987
 21
103.2171431465
 31
0.0
 11
-4.145788386
 21
103.2235490158
 31
0.0
 11
-4.2167261685
 21
103.2138660076
 31
0.0
 11
-4.2926997746
 21
103.1869319159
 31
0.0
  0
SPLINE
  5
55F
100
AcDbEntity
  8
RACCORDO
100
AcDbSpline
 62
253
  6
CONTINUOUS
 70
0
 71
3
 72
10
 73
6
 74
4
 42
0.0000001
 43
0.0000001
 44
0.0000000001
 12
-0.212212668
 22
0.0484490763
 32
0.0
 13
-0.1976182856
 23
-0.0912608494
 33
0.0
 40
0.0
 40
0.0
 40
0.0
 40
0.0
 40
0.3007756143
 40
0.6296891775
 40
1.0
 40
1.0
 40
1.0
 40
1.0
 10
-32.3649030462
 20
117.3592787703
 30
0.0
 10
-32.386179178
 20
117.3641362038
 30
0.0
 10
-32.4322362671
 20
117.3683511243
 30
0.0
 10
-32.5045536648
 20
117.3577956674
 30
0.0
 10
-32.5525776255
 20
117.3403324997
 30
0.0
 10
-32.5769710221
 20
117.3290675396
 30
0.0
 11
-32.3649030462
 21
117.3592787703
 31
0.0
 11
-32.4300596335
 21
117.3656846395
 31
0.0
 11
-32.500997416
 21
117.3560016313
 31
0.0
 11
-32.5769710221
 21
117.3290675396
 31
0.0
  0
SPLINE
  5
560
100
AcDbEntity
  8
RACCORDO
100
AcDbSpline
 62
253
  6
CONTINUOUS
 70
0
 71
3
 72
9
 73
5
 74
3
 42
0.0000001
 43
0.0000001
 44
0.0000000001
 12
0.09123323
 22
0.051709861
 32
0.0
 13
0.1017862609
 23
-0.0282831932
 33
0.0
 40
0.0
 40
0.0
 40
0.0
 40
0.0
 40
0.3206737845
 40
1.0
 40
1.0
 40
1.0
 40
1.0
 10
129.8601489003
 20
-9.7802366842
 30
0.0
 10
129.8699009353
 20
-9.7747093519
 30
0.0
 10
129.9023314651
 20
-9.7616165748
 30
0.0
 10
129.9379791263
 20
-9.76486128
 30
0.0
 10
129.9610278181
 20
-9.7712657849
 30
0.0
 11
129.8601489003
 21
-9.7802366842
 31
0.0
 11
129.8910309998
 21
-9.7679923418
 31
0.0
 11
129.9610278181
 21
-9.7712657849
 31
0.0
  0
SPLINE
  5
561
100
AcDbEntity
  8
RACCORDO
100
AcDbSpline
 62
253
  6
CONTINUOUS
 70
0
 71
3
 72
8
 73
4
 74
2
 42
0.0000001
 43
0.0000001
 44
0.0000000001
 12
0.0389769758
 22
-0.0108304729
 32
0.0
 13
0.0353255841
 23
-0.0170439896
 33
0.0
 40
0.0
 40
0.0
 40
0.0
 40
0.0
 40
1.0
 40
1.0
 40
1.0
 40
1.0
 10
129.9610278181
 20
-9.7712657849
 30
0.0
 10
129.9740201434
 20
-9.7748759425
 30
0.0
 10
129.986641436
 20
-9.7798207294
 30
0.0
 10
129.9984166307
 20
-9.7855020592
 30
0.0
 11
129.9610278181
 21
-9.7712657849
 31
0.0
 11
129.9984166307
 21
-9.7855020592
 31
0.0
  0
SPLINE
  5
562
100
AcDbEntity
  8
DRAFT
100
AcDbSpline
 62
7
  6
CONTINUOUS
 70
0
 71
3
 72
9
 73
5
 74
3
 42
0.0000001
 43
0.0000001
 44
0.0000000001
 12
1.2997122848
 22
2.2677966285
 32
0.0
 13
2.0134360325
 23
1.671647471
 33
0.0
 40
0.0
 40
0.0
 40
0.0
 40
0.0
 40
0.7562031248
 40
1.0
 40
1.0
 40
1.0
 40
1.0
 10
69.3267987003
 20
41.2872161365
 30
0.0
 10
69.6544141973
 20
41.8588544354
 30
0.0
 10
70.1756035906
 20
42.5658436736
 30
0.0
 10
70.8196490026
 20
43.1555387945
 30
0.0
 10
70.9832721404
 20
43.2913862712
 30
0.0
 11
69.3267987003
 21
41.2872161365
 31
0.0
 11
70.5129186676
 21
42.8610355382
 31
0.0
 11
70.9832721404
 21
43.2913862712
 31
0.0
  0
SPLINE
  5
563
100
AcDbEntity
  8
RACCORDO
100
AcDbSpline
 62
253
  6
CONTINUOUS
 70
0
 71
3
 72
9
 73
5
 74
3
 42
0.0000001
 43
0.0000001
 44
0.0000000001
 12
-0.0512056172
 22
0.0824953597
 32
0.0
 13
-0.0863619786
 23
0.0431922944
 33
0.0
 40
0.0
 40
0.0
 40
0.0
 40
0.0
 40
0.4473137609
 40
1.0
 40
1.0
 40
1.0
 40
1.0
 10
129.8561695939
 20
-9.7812819193
 30
0.0
 10
129.8485346015
 20
-9.7689814827
 30
0.0
 10
129.826199731
 20
-9.7451064034
 30
0.0
 10
129.7985573584
 20
-9.7280011112
 30
0.0
 10
129.7826469994
 20
-9.720043849
 30
0.0
 11
129.8561695939
 21
-9.7812819193
 31
0.0
 11
129.8274912357
 21
-9.7489767437
 31
0.0
 11
129.7826469994
 21
-9.720043849
 31
0.0
  0
SPLINE
  5
564
100
AcDbEntity
  8
RACCORDO
100
AcDbSpline
 62
253
  6
CONTINUOUS
 70
0
 71
3
 72
9
 73
5
 74
3
 42
0.0000001
 43
0.0000001
 44
0.0000000001
 12
0.09123323
 22
0.051709861
 32
0.0
 13
0.1017862609
 23
-0.0282831932
 33
0.0
 40
0.0
 40
0.0
 40
0.0
 40
0.0
 40
0.3206737845
 40
1.0
 40
1.0
 40
1.0
 40
1.0
 10
129.8601489003
 20
26.5928302747
 30
0.0
 10
129.8699009353
 20
26.598357607
 30
0.0
 10
129.9023314651
 20
26.6114503841
 30
0.0
 10
129.9379791263
 20
26.6082056789
 30
0.0
 10
129.9610278181
 20
26.6018011741
 30
0.0
 11
129.8601489003
 21
26.5928302747
 31
0.0
 11
129.8910309998
 21
26.6050746171
 31
0.0
 11
129.9610278181
 21
26.6018011741
 31
0.0
  0
SPLINE
  5
565
100
AcDbEntity
  8
RACCORDO
100
AcDbSpline
 62
253
  6
CONTINUOUS
 70
0
 71
3
 72
8
 73
4
 74
2
 42
0.0000001
 43
0.0000001
 44
0.0000000001
 12
0.0389769758
 22
-0.0108304729
 32
0.0
 13
0.0353255841
 23
-0.0170439896
 33
0.0
 40
0.0
 40
0.0
 40
0.0
 40
0.0
 40
1.0
 40
1.0
 40
1.0
 40
1.0
 10
129.9610278181
 20
26.6018011741
 30
0.0
 10
129.9740201434
 20
26.5981910164
 30
0.0
 10
129.986641436
 20
26.5932462296
 30
0.0
 10
129.9984166307
 20
26.5875648997
 30
0.0
 11
129.9610278181
 21
26.6018011741
 31
0.0
 11
129.9984166307
 21
26.5875648997
 31
0.0
  0
SPLINE
  5
566
100
AcDbEntity
  8
IMPORT_IGES
100
AcDbSpline
 62
7
  6
CONTINUOUS
 70
0
 71
3
 72
8
 73
4
 74
2
 42
0.0000001
 43
0.0000001
 44
0.0000000001
 12
-0.0471062558
 22
0.2353254013
 32
0.0
 13
-0.052957286
 23
0.2387324061
 33
0.0
 40
0.0
 40
0.0
 40
0.0
 40
0.0
 40
1.0
 40
1.0
 40
1.0
 40
1.0
 10
-43.0055348366
 20
112.129503168
 30
0.0
 10
-43.0212369219
 20
112.2079449684
 30
0.0
 10
-43.03596768
 20
112.2847009763
 30
0.0
 10
-43.0536201087
 20
112.364278445
 30
0.0
 11
-43.0055348366
 21
112.129503168
 31
0.0
 11
-43.0536201087
 21
112.364278445
 31
0.0
  0
SPLINE
  5
567
100
AcDbEntity
  8
IMPORT_IGES
100
AcDbSpline
 62
7
  6
CONTINUOUS
 70
0
 71
3
 72
28
 73
24
 74
22
 42
0.0000001
 43
0.0000001
 44
0.0000000001
 12
-0.7551292498
 22
0.381559205
 32
0.0
 13
-0.7230324938
 23
0.0358285945
 33
0.0
 40
0.0
 40
0.0
 40
0.0
 40
0.0
 40
0.125
 40
0.15625
 40
0.1875
 40
0.25
 40
0.3125
 40
0.34375
 40
0.375
 40
0.4375
 40
0.46875
 40
0.5
 40
0.53125
 40
0.5625
 40
0.625
 40
0.65625
 40
0.6875
 40
0.75
 40
0.8125
 40
0.84375
 40
0.875
 40
0.9375
 40
1.0
 40
1.0
 40
1.0
 40
1.0
 10
115.7261997209
 20
36.1865250294
 30
0.0
 10
115.6947360022
 20
36.2024233296
 30
0.0
 10
115.6554176298
 20
36.2218792434
 30
0.0
 10
115.6082017548
 20
36.2464772244
 30
0.0
 10
115.5767966715
 20
36.2602073248
 30
0.0
 10
115.537519713
 20
36.2763432456
 30
0.0
 10
115.4984028744
 20
36.2931165394
 30
0.0
 10
115.4667415992
 20
36.3058268429
 30
0.0
 10
115.433763071
 20
36.3161788655
 30
0.0
 10
115.401074743
 20
36.3273437793
 30
0.0
 10
115.3685037541
 20
36.3378387302
 30
0.0
 10
115.3434332948
 20
36.3469069408
 30
0.0
 10
115.3208730364
 20
36.3515221431
 30
0.0
 10
115.2899305487
 20
36.3592780056
 30
0.0
 10
115.2591405185
 20
36.3663263278
 30
0.0
 10
115.228539723
 20
36.3742955764
 30
0.0
 10
115.1969787119
 20
36.3795245063
 30
0.0
 10
115.1572435716
 20
36.3850295403
 30
0.0
 10
115.1174278892
 20
36.391273699
 30
0.0
 10
115.0859957454
 20
36.3953200295
 30
0.0
 10
115.0561904874
 20
36.3961849845
 30
0.0
 10
115.0183719971
 20
36.3983650087
 30
0.0
 10
114.9882884559
 20
36.3997741464
 30
0.0
 10
114.973225279
 20
36.4005205754
 30
0.0
 11
115.7261997209
 21
36.1865250294
 31
0.0
 11
115.6318085647
 21
36.23421993
 31
0.0
 11
115.6082107756
 21
36.2461436552
 31
0.0
 11
115.5846465687
 21
36.2567063527
 31
0.0
 11
115.537551737
 21
36.2764707202
 31
0.0
 11
115.4904569052
 21
36.2962350876
 31
0.0
 11
115.4665769426
 21
36.3055320578
 31
0.0
 11
115.4420318864
 21
36.3136586008
 31
0.0
 11
115.392941774
 21
36.3299116868
 31
0.0
 11
115.3683967178
 21
36.3380382298
 31
0.0
 11
115.3438516617
 21
36.3461647728
 31
0.0
 11
115.3207652685
 21
36.3517224255
 31
0.0
 11
115.2976788754
 21
36.3572800783
 31
0.0
 11
115.2515060892
 21
36.3683953838
 31
0.0
 11
115.2284196961
 21
36.3739530366
 31
0.0
 11
115.2048500396
 21
36.3781485319
 31
0.0
 11
115.1572274632
 21
36.3851773653
 31
0.0
 11
115.1096048867
 21
36.3922061986
 31
0.0
 11
115.0861991061
 21
36.3949223575
 31
0.0
 11
115.0636043407
 21
36.3960420011
 31
0.0
 11
115.0184148098
 21
36.3982812883
 31
0.0
 11
114.973225279
 21
36.4005205754
 31
0.0
  0
ELLIPSE
  5
568
100
AcDbEntity
  8
RACCORDO
100
AcDbEllipse
 62
7
  6
CONTINUOUS
 10
-63.384115543
 20
129.1965390486
 30
0.0
 11
1.5718234642
 21
3.1272039728
 31
0.0
 40
0.6139739381
 41
0.0017349341
 42
0.6685558724
  0
ELLIPSE
  5
569
100
AcDbEntity
  8
RACCORDO
100
AcDbEllipse
 62
7
  6
CONTINUOUS
 10
126.9029126691
 20
-83.8186582493
 30
0.0
 11
3.4999979795
 21
0.0074975973
 31
0.0
 40
0.5016014683
 41
5.5141659202
 42
6.2820389439
  0
ELLIPSE
  5
56A
100
AcDbEntity
  8
RACCORDO
100
AcDbEllipse
 62
7
  6
CONTINUOUS
 10
63.0261465932
 20
65.9914079805
 30
0.0
 11
1.5608851485
 21
3.1326749669
 31
0.0
 40
0.6113028998
 41
6.3932173001
 42
6.9495994601
  0
ELLIPSE
  5
56B
100
AcDbEntity
  8
RACCORDO
100
AcDbEllipse
 62
7
  6
CONTINUOUS
 10
-4.2904189758
 20
99.649690765
 30
0.0
 11
1.5608851485
 21
3.1326749669
 31
0.0
 40
0.6113028998
 41
6.3932173001
 42
6.9495994601
  0
ELLIPSE
  5
56C
100
AcDbEntity
  8
RACCORDO
100
AcDbEllipse
 62
7
  6
CONTINUOUS
 10
126.9029126691
 20
28.4190616815
 30
0.0
 11
3.4999172798
 21
-0.0491849743
 31
0.0
 40
0.4892375088
 41
-0.7610696355
 42
-0.2046874755
  0
ELLIPSE
  5
56D
100
AcDbEntity
  8
RACCORDO
100
AcDbEllipse
 62
7
  6
CONTINUOUS
 10
122.3028009294
 20
36.3530808124
 30
0.0
 11
1.5223737289
 21
3.1517995957
 31
0.0
 40
0.6016116119
 41
6.3858397479
 42
6.9422219079
  0
ELLIPSE
  5
56E
100
AcDbEntity
  8
RACCORDO
100
AcDbEllipse
 62
7
  6
CONTINUOUS
 10
126.9029126691
 20
-7.9540052775
 30
0.0
 11
3.4999172798
 21
-0.0491849743
 31
0.0
 40
0.4892375088
 41
-0.7610696355
 42
-0.2046874755
  0
ELLIPSE
  5
56F
100
AcDbEntity
  8
RACCORDO
100
AcDbEllipse
 62
7
  6
CONTINUOUS
 10
126.9029126691
 20
-44.3270722364
 30
0.0
 11
3.4999172798
 21
-0.0491849743
 31
0.0
 40
0.4892375088
 41
-0.7610696355
 42
-0.2046874755
  0
ELLIPSE
  5
570
100
AcDbEntity
  8
RACCORDO
100
AcDbEllipse
 62
7
  6
CONTINUOUS
 10
126.9029126691
 20
-80.7001391954
 30
0.0
 11
3.4999172798
 21
-0.0491849743
 31
0.0
 40
0.4892375088
 41
-0.7610696355
 42
-0.2046874755
  0
ELLIPSE
  5
571
100
AcDbEntity
  8
RACCORDO
100
AcDbEllipse
 62
7
  6
CONTINUOUS
 10
94.0185296819
 20
50.4952164361
 30
0.0
 11
1.5223737289
 21
3.1517995957
 31
0.0
 40
0.6016116119
 41
6.3858397479
 42
6.9422219079
  0
ELLIPSE
  5
572
100
AcDbEntity
  8
RACCORDO
100
AcDbEllipse
 62
7
  6
CONTINUOUS
 10
65.7342584345
 20
64.6373520599
 30
0.0
 11
1.5223737289
 21
3.1517995957
 31
0.0
 40
0.6016116119
 41
0.1026544407
 42
0.6590366007
  0
ELLIPSE
  5
573
100
AcDbEntity
  8
RACCORDO
100
AcDbEllipse
 62
7
  6
CONTINUOUS
 10
34.7629814185
 20
80.1229905678
 30
0.0
 11
1.5223737289
 21
3.1517995957
 31
0.0
 40
0.6016116119
 41
6.3858397479
 42
6.9422219079
  0
ELLIPSE
  5
574
100
AcDbEntity
  8
RACCORDO
100
AcDbEllipse
 62
7
  6
CONTINUOUS
 10
6.4787101711
 20
94.2651261916
 30
0.0
 11
1.5223737289
 21
3.1517995957
 31
0.0
 40
0.6016116119
 41
0.1026544407
 42
0.6590366007
  0
ELLIPSE
  5
575
100
AcDbEntity
  8
RACCORDO
100
AcDbEllipse
 62
7
  6
CONTINUOUS
 10
-32.5535841504
 20
113.7812733523
 30
0.0
 11
1.5223737289
 21
3.1517995957
 31
0.0
 40
0.6016116119
 41
6.3858397479
 42
6.9422219079
  0
ELLIPSE
  5
576
100
AcDbEntity
  8
RACCORDO
100
AcDbEllipse
 62
7
  6
CONTINUOUS
 10
-60.8378553979
 20
127.923408976
 30
0.0
 11
1.5223737289
 21
3.1517995957
 31
0.0
 40
0.6016116119
 41
0.1026544407
 42
0.6590366007
  0
ELLIPSE
  5
577
100
AcDbEntity
  8
RACCORDO
100
AcDbEllipse
 62
7
  6
CONTINUOUS
 10
126.9029126691
 20
30.0944972766
 30
0.0
 11
3.4999980222
 21
-0.0074656123
 31
0.0
 40
0.4983951047
 41
-0.7668817779
 42
0.7733581918
  0
ELLIPSE
  5
578
100
AcDbEntity
  8
RACCORDO
100
AcDbEllipse
 62
7
  6
CONTINUOUS
 10
-76.5656589392
 20
107.7818496354
 30
0.0
 11
-0.4474018214
 21
0.8946702271
 31
0.0
 40
0.6121897086
 41
-0.6846338688
 42
0.0199943985
  0
ELLIPSE
  5
579
100
AcDbEntity
  8
RACCORDO
100
AcDbEllipse
 62
7
  6
CONTINUOUS
 10
39.6826958879
 20
49.6576722219
 30
0.0
 11
-0.4474018214
 21
0.8946702271
 31
0.0
 40
0.6121897086
 41
-0.6846338688
 42
0.0199943985
  0
ELLIPSE
  5
57A
100
AcDbEntity
  8
RACCORDO
100
AcDbEllipse
 62
7
  6
CONTINUOUS
 10
123.6707883644
 20
35.6690870949
 30
0.0
 11
1.5587103255
 21
3.1337606163
 31
0.0
 40
0.6107675755
 41
5.4256809297
 42
6.9491760298
  0
ELLIPSE
  5
57B
100
AcDbEntity
  8
RACCORDO
100
AcDbEllipse
 62
7
  6
CONTINUOUS
 10
-61.1380315992
 20
97.3952990661
 30
0.0
 11
0.4999863728
 21
0.0072295547
 31
0.0
 40
0.5106100819
 41
-0.0071782254
 42
0.7780151293
  0
ELLIPSE
  5
57C
100
AcDbEntity
  8
RACCORDO
100
AcDbEllipse
 62
7
  6
CONTINUOUS
 10
-78.8279360114
 20
106.2402512722
 30
0.0
 11
0.4999863728
 21
0.0072295547
 31
0.0
 40
0.5106100819
 41
0.7780151293
 42
1.5835566713
  0
ELLIPSE
  5
57D
100
AcDbEntity
  8
RACCORDO
100
AcDbEllipse
 62
7
  6
CONTINUOUS
 10
55.1103232279
 20
39.2711216525
 30
0.0
 11
0.4999863728
 21
0.0072295547
 31
0.0
 40
0.5106100819
 41
-0.0071782254
 42
0.7780151293
  0
ELLIPSE
  5
57E
100
AcDbEntity
  8
RACCORDO
100
AcDbEllipse
 62
7
  6
CONTINUOUS
 10
37.4204188157
 20
48.1160738586
 30
0.0
 11
0.4999863728
 21
0.0072295547
 31
0.0
 40
0.5106100819
 41
0.7780151293
 42
1.5835566713
  0
ELLIPSE
  5
57F
100
AcDbEntity
  8
RACCORDO
100
AcDbEllipse
 62
7
  6
CONTINUOUS
 10
-56.4706622157
 20
97.7343512737
 30
0.0
 11
-0.4471615512
 21
0.8944566536
 31
0.0
 40
0.6125552124
 41
-2.255296188
 42
-0.6848044584
  0
ELLIPSE
  5
580
100
AcDbEntity
  8
RACCORDO
100
AcDbEllipse
 62
7
  6
CONTINUOUS
 10
59.7776926113
 20
39.6101738602
 30
0.0
 11
-0.4471615512
 21
0.8944566536
 31
0.0
 40
0.6125552124
 41
-2.255296188
 42
-0.6848044583
  0
ELLIPSE
  5
581
100
AcDbEntity
  8
RACCORDO
100
AcDbEllipse
 62
7
  6
CONTINUOUS
 10
64.5770917972
 20
65.2159353785
 30
0.0
 11
1.569627185
 21
3.1283039267
 31
0.0
 40
0.6134404793
 41
0.1117420742
 42
0.6681242342
  0
ELLIPSE
  5
582
100
AcDbEntity
  8
RACCORDO
100
AcDbEllipse
 62
7
  6
CONTINUOUS
 10
5.300437461
 20
94.8542625466
 30
0.0
 11
1.609838465
 21
3.1080452296
 31
0.0
 40
0.6229838795
 41
0.1197699696
 42
0.6761521296
  0
ELLIPSE
  5
583
100
AcDbEntity
  8
RACCORDO
100
AcDbEllipse
 62
7
  6
CONTINUOUS
 10
126.9029126691
 20
-82.1432226541
 30
0.0
 11
3.4999046093
 21
0.0506068827
 31
0.0
 40
0.5106100819
 41
-0.775327905
 42
-0.218945745
  0
ELLIPSE
  5
584
100
AcDbEntity
  8
RACCORDO
100
AcDbEllipse
 62
7
  6
CONTINUOUS
 10
-62.016128108
 20
128.5125453311
 30
0.0
 11
1.609838465
 21
3.1080452296
 31
0.0
 40
0.6229838795
 41
0.1197699696
 42
0.6761521296
  0
ELLIPSE
  5
585
100
AcDbEntity
  8
RACCORDO
100
AcDbEllipse
 62
7
  6
CONTINUOUS
 10
126.9029126691
 20
26.9759782227
 30
0.0
 11
3.4999046093
 21
0.0506068827
 31
0.0
 40
0.5106100819
 41
-0.775327905
 42
-0.218945745
  0
ELLIPSE
  5
586
100
AcDbEntity
  8
RACCORDO
100
AcDbEllipse
 62
7
  6
CONTINUOUS
 10
126.9029126691
 20
-9.3970887362
 30
0.0
 11
3.4999046093
 21
0.0506068827
 31
0.0
 40
0.5106100819
 41
-0.775327905
 42
-0.218945745
  0
ELLIPSE
  5
587
100
AcDbEntity
  8
RACCORDO
100
AcDbEllipse
 62
7
  6
CONTINUOUS
 10
126.9029126691
 20
-45.7701556952
 30
0.0
 11
3.4999046093
 21
0.0506068827
 31
0.0
 40
0.5106100819
 41
-0.775327905
 42
-0.218945745
  0
ELLIPSE
  5
588
100
AcDbEntity
  8
RACCORDO
100
AcDbEllipse
 62
7
  6
CONTINUOUS
 10
121.1245282194
 20
36.9422171674
 30
0.0
 11
1.609838465
 21
3.1080452296
 31
0.0
 40
0.6229838795
 41
0.1197699696
 42
0.6761521296
  0
ELLIPSE
  5
589
100
AcDbEntity
  8
RACCORDO
100
AcDbEllipse
 62
7
  6
CONTINUOUS
 10
92.8402569719
 20
51.0843527911
 30
0.0
 11
1.609838465
 21
3.1080452296
 31
0.0
 40
0.6229838795
 41
0.1197699696
 42
0.6761521296
  0
ELLIPSE
  5
58A
100
AcDbEntity
  8
RACCORDO
100
AcDbEllipse
 62
7
  6
CONTINUOUS
 10
61.8689799559
 20
66.5699912991
 30
0.0
 11
1.609838465
 21
3.1080452296
 31
0.0
 40
0.6229838795
 41
0.1197699696
 42
0.6761521296
  0
ELLIPSE
  5
58B
100
AcDbEntity
  8
RACCORDO
100
AcDbEllipse
 62
7
  6
CONTINUOUS
 10
33.5847087085
 20
80.7121269229
 30
0.0
 11
1.609838465
 21
3.1080452296
 31
0.0
 40
0.6229838795
 41
0.1197699696
 42
0.6761521296
  0
ELLIPSE
  5
58C
100
AcDbEntity
  8
RACCORDO
100
AcDbEllipse
 62
7
  6
CONTINUOUS
 10
-5.447585613
 20
100.2282740836
 30
0.0
 11
1.609838465
 21
3.1080452296
 31
0.0
 40
0.6229838795
 41
0.1197699696
 42
0.6761521296
  0
ELLIPSE
  5
58D
100
AcDbEntity
  8
RACCORDO
100
AcDbEllipse
 62
7
  6
CONTINUOUS
 10
-33.7318568605
 20
114.3704097073
 30
0.0
 11
1.609838465
 21
3.1080452296
 31
0.0
 40
0.6229838795
 41
0.1197699696
 42
0.6761521296
  0
ENDSEC
  0
SECTION
  2
OBJECTS
  0
DICTIONARY
  5
C
100
AcDbDictionary
280
0
281
1
  3
ACAD_GROUP
350
D
  3
ACAD_MLINESTYLE
350
17
  3
ACAD_LAYOUT
350
1A
  3
ACAD_PLOTSETTINGS
350
19
  3
ACAD_PLOTSTYLENAME
350
E
  0
DICTIONARY
  5
D
102
{ACAD_REACTORS
330
C
102
}
100
AcDbDictionary
280
0
281
1
  0
ACDBDICTIONARYWDFLT
  5
E
102
{ACAD_REACTORS
330
C
102
}
100
AcDbDictionary
281
1
  3
Normal
350
F
100
AcDbDictionaryWithDefault
340
F
  0
DICTIONARY
  5
17
102
{ACAD_REACTORS
330
C
102
}
100
AcDbDictionary
280
0
281
1
  3
Standard
350
18
  0
DICTIONARY
  5
19
102
{ACAD_REACTORS
330
C
102
}
100
AcDbDictionary
281
1
  0
DICTIONARY
  5
1A
102
{ACAD_REACTORS
330
C
102
}
100
AcDbDictionary
281
1
  3
Model
350
58E
  3
Layout1
350
58F
  0
ACDBPLACEHOLDER
  5
F
102
{ACAD_REACTORS
330
E
102
}
  0
MLINESTYLE
  5
18
102
{ACAD_REACTORS
330
17
102
}
100
AcDbMlineStyle
  2
STANDARD
 70
0
  3

 62
256
 51
90.0
 52
90.0
 71
2
 49
0.5
 62
256
  6
BYLAYER
 49
-0.5
 62
256
  6
BYLAYER
  0
LAYOUT
  5
58E
102
{ACAD_REACTORS
330
1A
102
}
100
AcDbPlotSettings
  1

  2
none_device
  4
ISO_A4_(297.00_x_210.00_MM)
  6

 40
0.0
 41
0.0
 42
0.0
 43
0.0
 44
297.0
 45
210.0
 46
0.0
 47
0.0
 48
0.0
 49
0.0
140
0.0
141
0.0
142
1.0
143
1.0
 70
1024
 72
1
 73
0
 74
0
  7

 75
0
147
1.0
148
0.0
149
0.0
100
AcDbLayout
  1
Model
 70
0
 71
0
 10
0.0
 20
0.0
 11
297.0
 21
210.0
 12
0.0
 22
0.0
 32
0.0
 14
0.0
 24
0.0
 34
0.0
 15
0.0
 25
0.0
 35
0.0
146
0.0
 13
0.0
 23
0.0
 33
0.0
 16
1.0
 26
0.0
 36
0.0
 17
0.0
 27
1.0
 37
0.0
 76
0
330
211
345
0
346
0
  0
LAYOUT
  5
58F
102
{ACAD_REACTORS
330
1A
102
}
100
AcDbPlotSettings
  1

  2
none_device
  4
ISO_A4_(297.00_x_210.00_MM)
  6

 40
0.0
 41
0.0
 42
0.0
 43
0.0
 44
297.0
 45
210.0
 46
0.0
 47
0.0
 48
0.0
 49
0.0
140
0.0
141
0.0
142
1.0
143
1.0
 70
0
 72
1
 73
0
 74
0
  7

 75
0
147
1.0
148
0.0
149
0.0
100
AcDbLayout
  1
Layout1
 70
0
 71
1
 10
0.0
 20
0.0
 11
297.0
 21
210.0
 12
0.0
 22
0.0
 32
0.0
 14
0.0
 24
0.0
 34
0.0
 15
0.0
 25
0.0
 35
0.0
146
0.0
 13
0.0
 23
0.0
 33
0.0
 16
1.0
 26
0.0
 36
0.0
 17
0.0
 27
1.0
 37
0.0
 76
0
330
212
345
0
346
0
  0
ENDSEC
  0
EOF
