  0
SECTION
  2
HEADER
  9
$ACADVER
  1
AC1015
  9
$DWGCODEPAGE
  3
ANSI_1252
  9
$EXTMAX
 10
297.0
 20
210.0
 30
0.0
  9
$EXTMIN
 10
0.0
 20
0.0
 30
0.0
  9
$LIMMIN
 10
0.0
 20
0.0
  9
$LIMMAX
 10
297.0
 20
210.0
  9
$VIEWCTR
 10
148.5
 20
105.0
  9
$VIEWSIZE
 40
210.0
  9
$CLAYER
  8
0
  9
$LTSCALE
 40
16.335
  9
$CELTYPE
  6
BYLAYER
  9
$DIMSCALE
 40
1.0
  9
$DIMASZ
 40
3.0
  9
$DIMEXO
 40
0.5
  9
$DIMDLI
 40
11.286
  9
$DIMEXE
 40
1.5
  9
$DIMCEN
 40
2.673
  9
$DIMLFAC
 40
1.0
  9
$DIMBLK
  1
_FILLED
  9
$DIMTXT
 40
3.0
  9
$DIMTOL
 70
1
  9
$DIMLIM
 70
0
  9
$DIMTFAC
 40
1.0
  9
$DIMTP
 40
0.01
  9
$DIMTM
 40
0.01
  9
$DIMGAP
 40
0.625
  9
$DIMDSEP
 70
44
  9
$PDMODE
 70
3
  9
$PDSIZE
 40
3.0
  9
$HANDSEED
  5
524
  9
$TILEMODE
 70
1
  9
$MEASUREMENT
 70
1
  9
$INSUNITS
 70
4
  0
ENDSEC
  0
SECTION
  2
CLASSES
  0
CLASS
  1
ACDBDICTIONARYWDFLT
  2
AcDbDictionaryWithDefault
  3
AutoCAD 2000
 90
0
280
0
281
0
  0
CLASS
  1
ACDBPLACEHOLDER
  2
AcDbPlaceHolder
  3
AutoCAD 2000
 90
0
280
0
281
0
  0
CLASS
  1
LAYOUT
  2
AcDbLayout
  3
AutoCAD 2000
 90
0
280
0
281
0
  0
ENDSEC
  0
SECTION
  2
TABLES
  0
TABLE
  2
VPORT
  5
8
100
AcDbSymbolTable
 70
2
  0
VPORT
  5
1F4
100
AcDbSymbolTableRecord
100
AcDbViewportTableRecord
  2
*ACTIVE
 70
0
 10
0.0
 20
0.0
 11
1.0
 21
1.0
 12
148.5
 22
105.0
 13
0.0
 23
0.0
 14
1.0
 24
1.0
 15
0.0
 25
0.0
 16
0.0
 26
0.0
 36
1.0
 17
0.0
 27
0.0
 37
0.0
 40
210.0
 41
1.4142857143
 42
50.0
 43
0.0
 44
0.0
 50
0.0
 51
0.0
 71
0
 72
100
 73
1
 74
1
 75
0
 76
0
 77
0
 78
0
  0
ENDTAB
  0
TABLE
  2
LTYPE
  5
5
100
AcDbSymbolTable
 70
6
  0
LTYPE
  5
14
100
AcDbSymbolTableRecord
100
AcDbLinetypeTableRecord
  2
BYBLOCK
 70
0
  3

 72
65
 73
0
 40
0.0
  0
LTYPE
  5
15
100
AcDbSymbolTableRecord
100
AcDbLinetypeTableRecord
  2
BYLAYER
 70
0
  3

 72
65
 73
0
 40
0.0
  0
LTYPE
  5
16
100
AcDbSymbolTableRecord
100
AcDbLinetypeTableRecord
  2
CONTINUOUS
 70
64
  3
Solid line
 72
65
 73
0
 40
0.0
  0
LTYPE
  5
1F5
100
AcDbSymbolTableRecord
100
AcDbLinetypeTableRecord
  2
CENTER
 70
64
  3
____ _ ____ _ ____ _ ____ _ ____ _ ____ _ ____
 72
65
 73
4
 40
0.6
 49
0.375
 74
0
 49
-0.075
 74
0
 49
0.075
 74
0
 49
-0.075
 74
0
  0
LTYPE
  5
1F6
100
AcDbSymbolTableRecord
100
AcDbLinetypeTableRecord
  2
HIDDEN
 70
64
  3
- - - - - - - - - - - - - - - - - - - -
 72
65
 73
2
 40
0.2
 49
0.1
 74
0
 49
-0.1
 74
0
  0
LTYPE
  5
1F7
100
AcDbSymbolTableRecord
100
AcDbLinetypeTableRecord
  2
PHANTOM
 70
64
  3
_____ _ _ _____ _ _ _____ _ _ _____
 72
65
 73
6
 40
0.8
 49
0.45
 74
0
 49
-0.05
 74
0
 49
0.1
 74
0
 49
-0.05
 74
0
 49
0.1
 74
0
 49
-0.05
 74
0
  0
LTYPE
  5
1F8
100
AcDbSymbolTableRecord
100
AcDbLinetypeTableRecord
  2
DOT
 70
64
  3
. . . . . . . . . . . . . . . . . . . .
 72
65
 73
2
 40
0.2
 49
0.1
 74
0
 49
-0.1
 74
0
  0
LTYPE
  5
1F9
100
AcDbSymbolTableRecord
100
AcDbLinetypeTableRecord
  2
DASHED
 70
64
  3
- - - - - - - - - - - - - - - - - - - -
 72
65
 73
2
 40
0.2
 49
0.1
 74
0
 49
-0.1
 74
0
  0
ENDTAB
  0
TABLE
  2
LAYER
  5
2
100
AcDbSymbolTable
 70
36
  0
LAYER
  5
10
100
AcDbSymbolTableRecord
100
AcDbLayerTableRecord
  2
0
 70
0
 62
7
  6
CONTINUOUS
370
-3
390
F
  0
LAYER
  5
1FA
100
AcDbSymbolTableRecord
100
AcDbLayerTableRecord
  2
DEFAULT_1
 70
0
 62
7
  6
CENTER
370
-3
390
F
  0
LAYER
  5
1FB
100
AcDbSymbolTableRecord
100
AcDbLayerTableRecord
  2
DEFAULT_2
 70
0
 62
7
  6
HIDDEN
370
-3
390
F
  0
LAYER
  5
1FC
100
AcDbSymbolTableRecord
100
AcDbLayerTableRecord
  2
DEFAULT_3
 70
0
 62
7
  6
PHANTOM
370
-3
390
F
  0
LAYER
  5
1FD
100
AcDbSymbolTableRecord
100
AcDbLayerTableRecord
  2
ASSI
 70
0
 62
7
  6
CONTINUOUS
370
-3
390
F
  0
LAYER
  5
1FE
100
AcDbSymbolTableRecord
100
AcDbLayerTableRecord
  2
COORDINATE
 70
0
 62
7
  6
CONTINUOUS
370
-3
390
F
  0
LAYER
  5
1FF
100
AcDbSymbolTableRecord
100
AcDbLayerTableRecord
  2
COPY_PUBLISH
 70
0
 62
7
  6
CONTINUOUS
370
-3
390
F
  0
LAYER
  5
200
100
AcDbSymbolTableRecord
100
AcDbLayerTableRecord
  2
COSMETICI
 70
0
 62
7
  6
CONTINUOUS
370
-3
390
F
  0
LAYER
  5
201
100
AcDbSymbolTableRecord
100
AcDbLayerTableRecord
  2
CURVE
 70
0
 62
7
  6
CONTINUOUS
370
-3
390
F
  0
LAYER
  5
202
100
AcDbSymbolTableRecord
100
AcDbLayerTableRecord
  2
DRAFT
 70
0
 62
7
  6
CONTINUOUS
370
-3
390
F
  0
LAYER
  5
203
100
AcDbSymbolTableRecord
100
AcDbLayerTableRecord
  2
IMPORT_IGES
 70
0
 62
7
  6
CONTINUOUS
370
-3
390
F
  0
LAYER
  5
204
100
AcDbSymbolTableRecord
100
AcDbLayerTableRecord
  2
NOTE
 70
0
 62
7
  6
CONTINUOUS
370
-3
390
F
  0
LAYER
  5
205
100
AcDbSymbolTableRecord
100
AcDbLayerTableRecord
  2
PIANI
 70
0
 62
7
  6
CONTINUOUS
370
-3
390
F
  0
LAYER
  5
206
100
AcDbSymbolTableRecord
100
AcDbLayerTableRecord
  2
PUNTI
 70
0
 62
7
  6
CONTINUOUS
370
-3
390
F
  0
LAYER
  5
207
100
AcDbSymbolTableRecord
100
AcDbLayerTableRecord
  2
RACCORDO
 70
0
 62
7
  6
CONTINUOUS
370
-3
390
F
  0
LAYER
  5
208
100
AcDbSymbolTableRecord
100
AcDbLayerTableRecord
  2
SIMBOLI
 70
0
 62
7
  6
CONTINUOUS
370
-3
390
F
  0
LAYER
  5
209
100
AcDbSymbolTableRecord
100
AcDbLayerTableRecord
  2
SMUSSO
 70
0
 62
7
  6
CONTINUOUS
370
-3
390
F
  0
LAYER
  5
20A
100
AcDbSymbolTableRecord
100
AcDbLayerTableRecord
  2
SNAPLINE
 70
0
 62
7
  6
CONTINUOUS
370
-3
390
F
  0
LAYER
  5
20B
100
AcDbSymbolTableRecord
100
AcDbLayerTableRecord
  2
SUPERFICI
 70
0
 62
7
  6
CONTINUOUS
370
-3
390
F
  0
LAYER
  5
20C
100
AcDbSymbolTableRecord
100
AcDbLayerTableRecord
  2
TRASH
 70
0
 62
7
  6
CONTINUOUS
370
-3
390
F
  0
ENDTAB
  0
TABLE
  2
STYLE
  5
3
100
AcDbSymbolTable
 70
1
  0
STYLE
  5
11
100
AcDbSymbolTableRecord
100
AcDbTextStyleTableRecord
  2
STANDARD
 70
0
 40
0.0
 41
0.8
 50
0.0
 71
0
 42
0.2
  3
txt
  4

  0
STYLE
  5
20D
100
AcDbSymbolTableRecord
100
AcDbTextStyleTableRecord
  2
TEXTSTYLE_1
 70
0
 40
0.0
 41
0.8
 50
0.0
 71
0
 42
0.2
  3
gdt
  4

  0
ENDTAB
  0
TABLE
  2
VIEW
  5
6
100
AcDbSymbolTable
 70
0
  0
ENDTAB
  0
TABLE
  2
UCS
  5
7
100
AcDbSymbolTable
 70
0
  0
ENDTAB
  0
TABLE
  2
APPID
  5
9
100
AcDbSymbolTable
 70
1
  0
APPID
  5
20E
100
AcDbSymbolTableRecord
100
AcDbRegAppTableRecord
  2
ACAD
 70
0
  0
ENDTAB
  0
TABLE
  2
BLOCK_RECORD
  5
1
100
AcDbSymbolTable
 70
0
  0
BLOCK_RECORD
  5
20F
100
AcDbSymbolTableRecord
100
AcDbBlockTableRecord
  2
*Model_Space
  0
BLOCK_RECORD
  5
210
100
AcDbSymbolTableRecord
100
AcDbBlockTableRecord
  2
*Paper_Space
  0
ENDTAB
  0
TABLE
  2
DIMSTYLE
  5
A
100
AcDbSymbolTable
 70
1
100
AcDbDimStyleTable
 71
0
  0
DIMSTYLE
105
211
100
AcDbSymbolTableRecord
100
AcDbDimStyleTableRecord
  2
STANDARD
 70
0
  3

  4

 40
1.0
 41
3.0
 42
0.5
 43
0.38
 44
1.5
 45
0.0
 46
0.0
 47
0.01
 48
0.01
140
3.0
141
0.09
142
0.0
143
25.4
144
1.0
145
0.0
146
1.0
147
0.625
 71
1.0
 72
0.0
 73
0
 74
0
 75
0
 76
0
 77
1
 78
8
170
0
171
2
172
0
173
0
174
0
175
0
176
0
177
0
178
0
270
2
271
2
272
2
273
2
274
2
275
0
280
0
281
0
282
0
283
1
284
8
285
0
286
0
287
3
288
0
340
11
278
44
  0
ENDTAB
  0
ENDSEC
  0
SECTION
  2
BLOCKS
  0
BLOCK
  5
20
100
AcDbEntity
  8
0
100
AcDbBlockBegin
  2
*Model_Space
 70
0
 10
0.0
 20
0.0
 30
0.0
  3
*Model_Space
  1

  0
ENDBLK
  5
21
100
AcDbEntity
  8
0
100
AcDbBlockEnd
  0
BLOCK
  5
1C
100
AcDbEntity
  8
0
100
AcDbBlockBegin
  2
*Paper_Space
 70
0
 10
0.0
 20
0.0
 30
0.0
  3
*Paper_Space
  1

  0
ENDBLK
  5
1D
100
AcDbEntity
  8
0
100
AcDbBlockEnd
  0
ENDSEC
  0
SECTION
  2
ENTITIES
  0
LWPOLYLINE
  5
212
100
AcDbEntity
  8
RACCORDO
100
AcDbPolyline
 62
7
  6
CONTINUOUS
 90
24
 70
0
 10
4.6760635422
 20
25.1396305436
 10
4.5897323896
 20
25.0880390273
 10
4.4214638291
 20
24.976864541
 10
4.2596156298
 20
24.8553080033
 10
4.1041644293
 20
24.7234071923
 10
3.955677256
 20
24.5816432332
 10
3.8141795429
 20
24.429980105
 10
3.6796458569
 20
24.2684538288
 10
3.5525669272
 20
24.0976535925
 10
3.4329699789
 20
23.9175455269
 10
3.3208277867
 20
23.7281635011
 10
3.2165494039
 20
23.5301983107
 10
3.1201635496
 20
23.3236186092
 10
3.0316415046
 20
23.1084557431
 10
2.9513061645
 20
22.8854945466
 10
2.8791874277
 20
22.6547065398
 10
2.8152553959
 20
22.4161202026
 10
2.7597432693
 20
22.1706058096
 10
2.7126817981
 20
21.9181380591
 10
2.6740402322
 20
21.6587422527
 10
2.6439595216
 20
21.3933645703
 10
2.6224866498
 20
21.1223204051
 10
2.6095746333
 20
20.8452943638
 10
2.6052234723
 20
20.5622864464
  0
LINE
  5
213
100
AcDbEntity
  8
RACCORDO
100
AcDbLine
 62
7
  6
CONTINUOUS
 10
5.7367098545
 20
25.7520669478
 11
4.6760496827
 21
25.1396550578
  0
LWPOLYLINE
  5
214
100
AcDbEntity
  8
RACCORDO
100
AcDbPolyline
 62
7
  6
CONTINUOUS
 90
24
 70
0
 10
5.736723714
 20
25.7520424336
 10
5.8250581205
 20
25.8012811302
 10
6.0054835634
 20
25.8913992786
 10
6.1916899253
 20
25.9707662411
 10
6.3836561707
 20
26.0394211391
 10
6.5806820781
 20
26.0971135448
 10
6.7827861257
 20
26.1438034225
 10
6.9899498351
 20
26.179530808
 10
7.20141755
 20
26.2041653811
 10
7.4172049889
 20
26.2176666299
 10
7.6372964333
 20
26.2200750663
 10
7.8608890712
 20
26.2113819052
 10
8.0879956891
 20
26.1915466026
 10
8.3186035006
 20
26.1606097025
 10
8.5518713337
 20
26.1186840512
 10
8.787808903
 20
26.065729517
 10
9.0264064941
 20
26.0017862316
 10
9.2667937913
 20
25.9270874364
 10
9.5089773307
 20
25.8415938515
 10
9.7529505762
 20
25.7453447568
 10
9.9978236039
 20
25.6386912333
 10
10.2432997724
 20
25.521750308
 10
10.4896757231
 20
25.3944049539
 10
10.7369514559
 20
25.256655171
  0
LINE
  5
215
100
AcDbEntity
  8
RACCORDO
100
AcDbLine
 62
253
  6
CONTINUOUS
 10
10.7369514559
 20
25.256655171
 11
9.6762912841
 21
24.644243281
  0
LWPOLYLINE
  5
216
100
AcDbEntity
  8
ASSI
100
AcDbPolyline
 62
7
  6
CONTINUOUS
 90
6
 70
0
 10
4.1406374712
 20
1.9813918689
 10
4.1218954756
 20
1.9703697091
 10
4.0355604102
 20
1.9140115208
 10
3.9535929207
 20
1.8509949313
 10
3.8758132878
 20
1.781221465
 10
3.8022215115
 20
1.7046911218
  0
LINE
  5
217
100
AcDbEntity
  8
ASSI
100
AcDbLine
 62
7
  6
CONTINUOUS
 10
3.8022215115
 20
1.7046911218
 11
4.5469548885
 21
2.13469084
  0
LWPOLYLINE
  5
218
100
AcDbEntity
  8
ASSI
100
AcDbPolyline
 62
7
  6
CONTINUOUS
 90
42
 70
0
 10
18.6843448025
 20
8.4702238286
 10
18.7065589313
 20
8.4823193787
 10
18.752585648
 20
8.5030644323
 10
18.800937401
 20
8.5192676166
 10
18.8515908781
 20
8.5309744713
 10
18.9040347786
 20
8.5380668263
 10
18.9582872363
 20
8.5404979452
 10
19.0143301175
 20
8.5383145645
 10
19.0715977205
 20
8.5315387233
 10
19.1301024495
 20
8.5201239085
 10
19.1898319003
 20
8.5041166332
 10
19.2501831586
 20
8.4836784763
 10
19.3111625222
 20
8.4587645611
 10
19.3727636933
 20
8.4294197643
 10
19.4343648645
 20
8.3959402948
 10
19.4959660357
 20
8.3582842759
 10
19.5575672068
 20
8.3164935844
 10
19.6185465705
 20
8.270990059
 10
19.6788978288
 20
8.2217360955
 10
19.7386272795
 20
8.1687692982
 10
19.7971320085
 20
8.1126243185
 10
19.8543996115
 20
8.0532689672
 10
19.9104424927
 20
7.9907354335
 10
19.9646949504
 20
7.9256549363
 10
20.0171388509
 20
7.8580016795
 10
20.067792328
 20
7.7878014592
 10
20.116144081
 20
7.7157628824
 10
20.1621707977
 20
7.6418673301
 10
20.2058957904
 20
7.5661334213
 10
20.2468776951
 20
7.4893256208
 10
20.2850887295
 20
7.4114330518
 10
20.320556676
 20
7.3324665911
 10
20.352923518
 20
7.2532233329
 10
20.3821578472
 20
7.1737004737
 10
20.4082910719
 20
7.0939008169
 10
20.4310594011
 20
7.0146298673
 10
20.4504287546
 20
6.9358929797
 10
20.4664332127
 20
6.8576847991
 10
20.478911225
 20
6.7807947658
 10
20.4878089413
 20
6.7054860265
 10
20.4931802117
 20
6.6314954344
 10
20.4950250363
 20
6.5588229896
  0
LWPOLYLINE
  5
219
100
AcDbEntity
  8
ASSI
100
AcDbPolyline
 62
7
  6
CONTINUOUS
 90
72
 70
0
 10
8.1407824912
 20
-4.9466878396
 10
8.1931848573
 20
-4.9147863966
 10
8.2780873443
 20
-4.8556800935
 10
8.3585779332
 20
-4.7899944256
 10
8.4346302944
 20
-4.717690128
 10
8.5062707575
 20
-4.6388064656
 10
8.5730726294
 20
-4.5538132724
 10
8.6350070341
 20
-4.4626740872
 10
8.6921028475
 20
-4.3654253711
 10
8.7440200051
 20
-4.2626463408
 10
8.7907276013
 20
-4.154303992
 10
8.8322565416
 20
-4.0404313291
 10
8.8683594783
 20
-3.9217065816
 10
8.8990040295
 20
-3.7981007928
 10
8.9242225771
 20
-3.6696429194
 10
8.9438649185
 20
-3.5370980609
 10
8.9578977756
 20
-3.4004418268
 10
8.9663544264
 20
-3.2596986077
 10
8.9691845029
 20
-3.115706675
 10
8.9663544264
 20
-2.9684466409
 10
8.9578977756
 20
-2.8179378934
 10
8.9438649185
 20
-2.6650768677
 10
8.9242225771
 20
-2.5098495257
 10
8.8990040295
 20
-2.3522699056
 10
8.8683594783
 20
-2.1932765572
 10
8.8322565416
 20
-2.0328610433
 10
8.7907276013
 20
-1.8710318011
 10
8.7440200051
 20
-1.7087526911
 10
8.6921028475
 20
-1.5460210286
 10
8.6350070341
 20
-1.3828394982
 10
8.5730726294
 20
-1.220180015
 10
8.5062707575
 20
-1.0580456945
 10
8.4346302944
 20
-0.8964334211
 10
8.3585779332
 20
-0.7363057632
 10
8.2780873443
 20
-0.5776715807
 10
8.1931848573
 20
-0.4205220138
 10
8.1043761544
 20
-0.2657930506
 10
8.0116379238
 20
-0.1134991371
 10
7.9149934773
 20
0.0363741726
 10
7.8150184326
 20
0.1829342278
 10
7.7116929131
 20
0.3261612555
 10
7.6050367955
 20
0.4660750286
 10
7.4956853272
 20
0.601842216
 10
7.3836224227
 20
0.7334380712
 10
7.2688641677
 20
0.8608873407
 10
7.1520940662
 20
0.983430932
 10
7.0333001118
 20
1.1010395687
 10
6.9124943109
 20
1.2137425273
 10
6.7903961872
 20
1.3208685451
 10
6.6669980282
 20
1.4223843394
 10
6.5423075464
 20
1.5183231929
 10
6.4170674025
 20
1.6081136904
 10
6.2912743164
 20
1.6917191391
 10
6.1649315682
 20
1.7691762318
 10
6.0387916599
 20
1.8400236314
 10
5.912855802
 20
1.9042218918
 10
5.7871227839
 20
1.9618104591
 10
5.6623414758
 20
2.0124463337
 10
5.5385175576
 20
2.0560880227
 10
5.4156453494
 20
2.092777019
 10
5.2944566825
 20
2.1222948017
 10
5.1749616041
 20
2.1445985738
 10
5.0571500669
 20
2.1597311321
 10
4.9417237605
 20
2.1676023468
 10
4.8286969199
 20
2.168168883
 10
4.7180553101
 20
2.1614740755
 10
4.6104579166
 20
2.1475577987
 10
4.5059229067
 20
2.1263769559
 10
4.4044321131
 20
2.0979746439
 10
4.3065900183
 20
2.0625200279
 10
4.2124183975
 20
2.0199710205
 10
4.1406374712
 20
1.9813918689
  0
LINE
  5
21A
100
AcDbEntity
  8
ASSI
100
AcDbLine
 62
7
  6
CONTINUOUS
 10
2.6052234723
 20
-1.2782934578
 11
3.665883644
 21
-0.6658815679
  0
LINE
  5
21B
100
AcDbEntity
  8
ASSI
100
AcDbLine
 62
7
  6
CONTINUOUS
 10
3.8022215115
 20
-1.9694251238
 11
4.8628816832
 21
-1.3570132338
  0
LINE
  5
21C
100
AcDbEntity
  8
0
100
AcDbLine
 62
7
  6
CONTINUOUS
 10
26.1518792858
 20
5.1166556106
 11
26.293300642
 21
5.1983105293
  0
LINE
  5
21D
100
AcDbEntity
  8
0
100
AcDbLine
 62
7
  6
CONTINUOUS
 10
25.120681879
 20
4.1486023213
 11
25.2621032352
 21
4.23025724
  0
LINE
  5
21E
100
AcDbEntity
  8
0
100
AcDbLine
 62
7
  6
CONTINUOUS
 10
24.9733680014
 20
3.9730838884
 11
25.1147893576
 21
4.0547388071
  0
LWPOLYLINE
  5
21F
100
AcDbEntity
  8
ASSI
100
AcDbPolyline
 62
7
  6
CONTINUOUS
 90
42
 70
0
 10
20.1843849265
 20
5.8722459306
 10
20.1621707977
 20
5.8601503805
 10
20.116144081
 20
5.8394053269
 10
20.067792328
 20
5.8232021426
 10
20.0171388509
 20
5.8114952879
 10
19.9646949504
 20
5.8044029329
 10
19.9104424927
 20
5.801971814
 10
19.8543996115
 20
5.8041551947
 10
19.7971320085
 20
5.8109310359
 10
19.7386272795
 20
5.8223458507
 10
19.6788978288
 20
5.838353126
 10
19.6185465705
 20
5.8587912829
 10
19.5575672068
 20
5.8837051981
 10
19.4959660357
 20
5.9130499949
 10
19.4343648645
 20
5.9465294644
 10
19.3727636933
 20
5.9841854833
 10
19.3111625222
 20
6.0259761748
 10
19.2501831586
 20
6.0714797002
 10
19.1898319003
 20
6.1207336637
 10
19.1301024495
 20
6.173700461
 10
19.0715977205
 20
6.2298454407
 10
19.0143301175
 20
6.289200792
 10
18.9582872363
 20
6.3517343257
 10
18.9040347786
 20
6.4168148229
 10
18.8515908781
 20
6.4844680797
 10
18.800937401
 20
6.5546683
 10
18.752585648
 20
6.6267068767
 10
18.7065589313
 20
6.7006024291
 10
18.6628339386
 20
6.7763363379
 10
18.6218520339
 20
6.8531441384
 10
18.5836409995
 20
6.9310367073
 10
18.548173053
 20
7.0100031681
 10
18.515806211
 20
7.0892464263
 10
18.4865718818
 20
7.1687692855
 10
18.4604386572
 20
7.2485689423
 10
18.4376703279
 20
7.3278398919
 10
18.4183009744
 20
7.4065767795
 10
18.4022965163
 20
7.4847849601
 10
18.389818504
 20
7.5616749934
 10
18.3809207877
 20
7.6369837327
 10
18.3755495173
 20
7.7109743248
 10
18.3737046927
 20
7.7836467696
  0
LWPOLYLINE
  5
220
100
AcDbEntity
  8
ASSI
100
AcDbPolyline
 62
7
  6
CONTINUOUS
 90
31
 70
0
 10
-3.8496688659
 20
-36.8644344951
 10
-3.8340896011
 20
-37.0112183043
 10
-3.813251837
 20
-37.1595345997
 10
-3.7871555736
 20
-37.3093833813
 10
-3.7557259331
 20
-37.4610769615
 10
-3.7190377932
 20
-37.614303028
 10
-3.6773157877
 20
-37.768124644
 10
-3.6305291152
 20
-37.9225454276
 10
-3.5787085771
 20
-38.0775617608
 10
-3.5221712105
 20
-38.232225852
 10
-3.4608881543
 20
-38.3865355287
 10
-3.3948882696
 20
-38.5404929634
 10
-3.3245751779
 20
-38.6931568824
 10
-3.2499224851
 20
-38.8445193628
 10
-3.1709565852
 20
-38.9945883275
 10
-3.0881602814
 20
-39.1424462715
 10
-3.0015101295
 20
-39.2880796665
 10
-2.9110295737
 20
-39.4315020407
 10
-2.8172717497
 20
-39.5718364736
 10
-2.7202165919
 20
-39.709064079
 10
-2.619884166
 20
-39.843203743
 10
-2.5168878049
 20
-39.9734352039
 10
-2.4112111886
 20
-40.0997345622
 10
-2.3028706371
 20
-40.2221257173
 10
-2.1925284439
 20
-40.3398601057
 10
-2.0801723336
 20
-40.4529092509
 10
-1.9658145815
 20
-40.5613016294
 10
-1.8501543076
 20
-40.664374107
 10
-1.7334245521
 20
-40.7619056389
 10
-1.6153922747
 20
-40.8541172699
 10
-1.4960574757
 20
-40.941009
  0
LINE
  5
221
100
AcDbEntity
  8
0
100
AcDbLine
 62
7
  6
CONTINUOUS
 10
29.650584854
 20
1.4462345716
 11
29.7610702886
 21
1.5561587411
  0
LINE
  5
222
100
AcDbEntity
  8
0
100
AcDbLine
 62
7
  6
CONTINUOUS
 10
27.9933033356
 20
4.2705867671
 11
27.7723322558
 21
4.0941678451
  0
LINE
  5
223
100
AcDbEntity
  8
0
100
AcDbLine
 62
7
  6
CONTINUOUS
 10
28.0160201691
 20
4.2574703521
 11
27.913753612
 21
4.1758227638
  0
LINE
  5
224
100
AcDbEntity
  8
0
100
AcDbLine
 62
7
  6
CONTINUOUS
 10
27.7723322558
 20
3.7467336045
 11
27.9933033356
 21
3.9231526481
  0
LINE
  5
225
100
AcDbEntity
  8
0
100
AcDbLine
 62
7
  6
CONTINUOUS
 10
32.6336911657
 20
1.5912849917
 11
31.7498076892
 21
0.9290379603
  0
LINE
  5
226
100
AcDbEntity
  8
0
100
AcDbLine
 62
7
  6
CONTINUOUS
 10
32.6520116656
 20
1.5807069647
 11
31.8912290454
 21
1.010692879
  0
LINE
  5
227
100
AcDbEntity
  8
0
100
AcDbLine
 62
7
  6
CONTINUOUS
 10
32.0076073175
 20
0.780187686
 11
32.6336911657
 21
1.2438508728
  0
LWPOLYLINE
  5
228
100
AcDbEntity
  8
ASSI
100
AcDbPolyline
 62
7
  6
CONTINUOUS
 90
70
 70
0
 10
36.8796922154
 20
7.1641507114
 10
36.8519970272
 20
7.1477169207
 10
36.7628061758
 20
7.088304614
 10
36.6781912706
 20
7.0215687157
 10
36.5981230174
 20
6.9475561099
 10
36.5231161963
 20
6.8667426435
 10
36.4532034183
 20
6.779084498
 10
36.3883520723
 20
6.6846254918
 10
36.3289791049
 20
6.583972927
 10
36.2751198136
 20
6.477086898
 10
36.2267389008
 20
6.3640073104
 10
36.1841474204
 20
6.2454611828
 10
36.1473826739
 20
6.1214132941
 10
36.1164073597
 20
5.9918988653
 10
36.0914206263
 20
5.8577505794
 10
36.0724610586
 20
5.7189385798
 10
36.0594900717
 20
5.5754927231
 10
36.0525910595
 20
5.4283352605
 10
36.0518031442
 20
5.2774422781
 10
36.0570872036
 20
5.1228376899
 10
36.0684092651
 20
4.9655154899
 10
36.0858082321
 20
4.8054581683
 10
36.1092452011
 20
4.642683235
 10
36.1385694897
 20
4.4782372131
 10
36.1738190303
 20
4.3121093358
 10
36.2149558905
 20
4.1443103699
 10
36.2617155906
 20
3.9759191397
 10
36.3141343588
 20
3.806931829
 10
36.3721759668
 20
3.6373522539
 10
36.4354672497
 20
3.4682706866
 10
36.5040420315
 20
3.2996903357
 10
36.5778664882
 20
3.1316079926
 10
36.6564659828
 20
2.9651043031
 10
36.7398712811
 20
2.8001894389
 10
36.8280516172
 20
2.6368532283
 10
36.9204400565
 20
2.4761458034
 10
37.0170637118
 20
2.3180841016
 10
37.1178954703
 20
2.1626511854
 10
37.2222870576
 20
2.0108463744
 10
37.33026141
 20
1.8626930446
 10
37.4417955913
 20
1.71816782
 10
37.5561725187
 20
1.5781998915
 10
37.6734105081
 20
1.4428186223
 10
37.7934912435
 20
1.3119946492
 10
37.915642694
 20
1.1865690743
 10
38.0398782013
 20
1.06657668
 10
38.1661844237
 20
0.951982684
 10
38.2937493049
 20
0.8435238414
 10
38.4225809546
 20
0.7412396816
 10
38.5526712632
 20
0.6450906752
 10
38.6831838454
 20
0.5556949899
 10
38.814121422
 20
0.4730961376
 10
38.9454812723
 20
0.3972506064
 10
39.0764188489
 20
0.3286460272
 10
39.2069314311
 20
0.267329054
 10
39.3370217396
 20
0.2132530329
 10
39.4658533893
 20
0.166765633
 10
39.5934182706
 20
0.1279157482
 10
39.719724493
 20
0.0966544846
 10
39.8439600003
 20
0.0731828292
 10
39.9661114508
 20
0.0575509708
 10
40.0861921862
 20
0.0497087206
 10
40.2034301756
 20
0.0497064984
 10
40.3178071029
 20
0.0575948181
 10
40.4293412843
 20
0.0733231658
 10
40.5373156367
 20
0.0967904199
 10
40.641707224
 20
0.1280464426
 10
40.7425389824
 20
0.1670413715
 10
40.8391626378
 20
0.2135244981
 10
40.8798146208
 20
0.2360671904
  0
LINE
  5
229
100
AcDbEntity
  8
0
100
AcDbLine
 62
7
  6
CONTINUOUS
 10
27.2567336314
 20
4.4787265586
 11
27.3981549876
 21
4.5603814772
  0
LINE
  5
22A
100
AcDbEntity
  8
0
100
AcDbLine
 62
7
  6
CONTINUOUS
 10
27.7723322558
 20
4.0941678451
 11
27.913753612
 21
4.1758227638
  0
LINE
  5
22B
100
AcDbEntity
  8
0
100
AcDbLine
 62
7
  6
CONTINUOUS
 10
26.5201641379
 20
3.0799831851
 11
26.6615854941
 21
3.1616381037
  0
LINE
  5
22C
100
AcDbEntity
  8
0
100
AcDbLine
 62
7
  6
CONTINUOUS
 10
27.9933033356
 20
3.9231526481
 11
28.1347246918
 21
4.0048075668
  0
LINE
  5
22D
100
AcDbEntity
  8
ASSI
100
AcDbLine
 62
7
  6
CONTINUOUS
 10
37.3595217676
 20
8.6602929522
 11
38.4201819394
 21
9.2727048422
  0
LINE
  5
22E
100
AcDbEntity
  8
0
100
AcDbLine
 62
7
  6
CONTINUOUS
 10
28.6930442807
 20
3.6494187909
 11
28.8344656369
 21
3.7310737095
  0
LINE
  5
22F
100
AcDbEntity
  8
0
100
AcDbLine
 62
7
  6
CONTINUOUS
 10
28.5089017492
 20
2.8437256968
 11
28.6503231055
 21
2.9253806155
  0
LINE
  5
230
100
AcDbEntity
  8
0
100
AcDbLine
 62
7
  6
CONTINUOUS
 10
28.7667013775
 20
2.6948754225
 11
28.9081227338
 21
2.7765303411
  0
LINE
  5
231
100
AcDbEntity
  8
0
100
AcDbLine
 62
7
  6
CONTINUOUS
 10
27.9933033356
 20
2.2294110751
 11
28.1347246918
 21
2.3110659937
  0
LINE
  5
232
100
AcDbEntity
  8
0
100
AcDbLine
 62
7
  6
CONTINUOUS
 10
28.9140151498
 20
2.7401060912
 11
29.055436506
 21
2.8217610099
  0
LINE
  5
233
100
AcDbEntity
  8
0
100
AcDbLine
 62
7
  6
CONTINUOUS
 10
29.061328922
 20
2.6984782303
 11
29.2027502783
 21
2.7801331489
  0
LINE
  5
234
100
AcDbEntity
  8
ASSI
100
AcDbLine
 62
7
  6
CONTINUOUS
 10
37.3595217676
 20
7.3319407138
 11
38.4201819394
 21
7.9443526038
  0
LINE
  5
235
100
AcDbEntity
  8
0
100
AcDbLine
 62
7
  6
CONTINUOUS
 10
28.5825588461
 20
2.2366164778
 11
28.7239802023
 21
2.3182713964
  0
LINE
  5
236
100
AcDbEntity
  8
0
100
AcDbLine
 62
7
  6
CONTINUOUS
 10
29.2822997912
 20
2.5708924198
 11
29.4237211474
 21
2.6525473385
  0
LINE
  5
237
100
AcDbEntity
  8
0
100
AcDbLine
 62
7
  6
CONTINUOUS
 10
29.4296139849
 20
2.4424057858
 11
29.5602063201
 21
2.5178081635
  0
LINE
  5
238
100
AcDbEntity
  8
0
100
AcDbLine
 62
7
  6
CONTINUOUS
 10
28.6930442807
 20
1.9991064979
 11
28.8235057821
 21
2.0744333337
  0
LINE
  5
239
100
AcDbEntity
  8
0
100
AcDbLine
 62
7
  6
CONTINUOUS
 10
30.12935493
 20
2.8201110232
 11
30.2707762862
 21
2.9017659418
  0
LINE
  5
23A
100
AcDbEntity
  8
0
100
AcDbLine
 62
7
  6
CONTINUOUS
 10
29.5400994195
 20
2.2917543509
 11
29.6705609143
 21
2.3670811829
  0
LINE
  5
23B
100
AcDbEntity
  8
0
100
AcDbLine
 62
7
  6
CONTINUOUS
 10
28.8771868121
 20
1.7624971021
 11
29.0186081683
 21
1.8441520207
  0
LINE
  5
23C
100
AcDbEntity
  8
0
100
AcDbLine
 62
7
  6
CONTINUOUS
 10
29.6137560948
 20
2.118938115
 11
29.7438241605
 21
2.194037786
  0
LINE
  5
23D
100
AcDbEntity
  8
0
100
AcDbLine
 62
7
  6
CONTINUOUS
 10
29.650584854
 20
1.9673857956
 11
29.7920062102
 21
2.0490407143
  0
LINE
  5
23E
100
AcDbEntity
  8
0
100
AcDbLine
 62
7
  6
CONTINUOUS
 10
29.061328922
 20
1.612746487
 11
29.2027502783
 21
1.6944014056
  0
LINE
  5
23F
100
AcDbEntity
  8
0
100
AcDbLine
 62
7
  6
CONTINUOUS
 10
29.650584854
 20
1.8805272659
 11
29.7920062102
 21
1.9621821846
  0
LINE
  5
240
100
AcDbEntity
  8
0
100
AcDbLine
 62
7
  6
CONTINUOUS
 10
29.6137560948
 20
1.7715039353
 11
29.7551774511
 21
1.8531588539
  0
LINE
  5
241
100
AcDbEntity
  8
0
100
AcDbLine
 62
7
  6
CONTINUOUS
 10
29.5400994195
 20
1.6837445515
 11
29.6815207757
 21
1.7653994702
  0
LINE
  5
242
100
AcDbEntity
  8
0
100
AcDbLine
 62
7
  6
CONTINUOUS
 10
29.2822997912
 20
1.4851606766
 11
29.4237211474
 21
1.5668155952
  0
LINE
  5
243
100
AcDbEntity
  8
0
100
AcDbLine
 62
7
  6
CONTINUOUS
 10
29.4664423226
 20
1.4222683554
 11
29.6078636788
 21
1.5039232741
  0
LINE
  5
244
100
AcDbEntity
  8
0
100
AcDbLine
 62
7
  6
CONTINUOUS
 10
31.2342092756
 20
2.1821819711
 11
31.3756306318
 21
2.2638368898
  0
LINE
  5
245
100
AcDbEntity
  8
ASSI
100
AcDbLine
 62
7
  6
CONTINUOUS
 10
40.4000809267
 20
6.9047122009
 11
41.4607410985
 21
7.5171240909
  0
LINE
  5
246
100
AcDbEntity
  8
0
100
AcDbLine
 62
7
  6
CONTINUOUS
 10
30.4976395713
 20
0.7834387193
 11
30.6390609276
 21
0.8650936379
  0
LINE
  5
247
100
AcDbEntity
  8
0
100
AcDbLine
 62
7
  6
CONTINUOUS
 10
31.7498076892
 20
0.9290379603
 11
31.8912290454
 21
1.010692879
  0
LINE
  5
248
100
AcDbEntity
  8
0
100
AcDbLine
 62
7
  6
CONTINUOUS
 10
32.6336911657
 20
1.2438508728
 11
32.7751125219
 21
1.3255057914
  0
LINE
  5
249
100
AcDbEntity
  8
0
100
AcDbLine
 62
7
  6
CONTINUOUS
 10
31.7498076892
 20
0.6684623103
 11
31.8912290454
 21
0.750117229
  0
LINE
  5
24A
100
AcDbEntity
  8
0
100
AcDbLine
 62
7
  6
CONTINUOUS
 10
32.6336911657
 20
0.4186947187
 11
32.7751125219
 21
0.5003496373
  0
LINE
  5
24B
100
AcDbEntity
  8
0
100
AcDbLine
 62
7
  6
CONTINUOUS
 10
32.6336911657
 20
0.1581190687
 11
32.7751125219
 21
0.2397739873
  0
LINE
  5
24C
100
AcDbEntity
  8
0
100
AcDbLine
 62
7
  6
CONTINUOUS
 10
28.9081227338
 20
2.7765303411
 11
29.055436506
 21
2.8217610099
  0
LINE
  5
24D
100
AcDbEntity
  8
0
100
AcDbLine
 62
7
  6
CONTINUOUS
 10
28.7667013775
 20
2.6948754225
 11
28.9140151498
 21
2.7401060912
  0
LWPOLYLINE
  5
24E
100
AcDbEntity
  8
ASSI
100
AcDbPolyline
 62
7
  6
CONTINUOUS
 90
6
 70
0
 10
86.3620217038
 20
-115.4647470652
 10
86.4713342741
 20
-115.4431708011
 10
86.5767028557
 20
-115.4139826359
 10
86.6781274486
 20
-115.3771825698
 10
86.7758089407
 20
-115.3326588715
 10
86.841851256
 20
-115.2969570629
  0
LWPOLYLINE
  5
24F
100
AcDbEntity
  8
RACCORDO
100
AcDbPolyline
 62
7
  6
CONTINUOUS
 90
46
 70
0
 10
2.6052234723
 20
-60.2682709561
 10
2.6095746333
 20
-60.5563034853
 10
2.6224866498
 20
-60.8482399995
 10
2.6439595216
 20
-61.1440804989
 10
2.6740402322
 20
-61.4441946319
 10
2.7126817981
 20
-61.74821275
 10
2.7597432693
 20
-62.0550259079
 10
2.8152553959
 20
-62.3646443131
 10
2.8791874277
 20
-62.6770577582
 10
2.9513061645
 20
-62.9911266745
 10
3.0316415046
 20
-63.306857108
 10
3.1201635496
 20
-63.6242430129
 10
3.2165494039
 20
-63.9421266829
 10
3.3208277867
 20
-64.260509936
 10
3.4329699789
 20
-64.5793909542
 10
3.5525669272
 20
-64.897606578
 10
3.6796458569
 20
-65.215154377
 10
3.8141795429
 20
-65.5320367816
 10
3.955677256
 20
-65.847097922
 10
4.1041644293
 20
-66.160331147
 10
4.2596156298
 20
-66.4717431078
 10
4.4214638291
 20
-66.7801978892
 10
4.5897323896
 20
-67.0856846913
 10
4.7643979488
 20
-67.3882143138
 10
4.9448233916
 20
-67.686683241
 10
5.1310297535
 20
-67.9810766428
 10
5.322995999
 20
-68.2714093493
 10
5.5200219064
 20
-68.5566223342
 10
5.7221259539
 20
-68.8366969001
 10
5.9292896633
 20
-69.1116517445
 10
6.1407573782
 20
-69.3804839341
 10
6.3565448171
 20
-69.6431711085
 10
6.5766362615
 20
-69.8997356281
 10
6.8002288994
 20
-70.1492416406
 10
7.0273355173
 20
-70.3916633679
 10
7.2579433288
 20
-70.627026588
 10
7.4912111619
 20
-70.8544727834
 10
7.7271487313
 20
-71.0739730403
 10
7.9657463223
 20
-71.2855562724
 10
8.2061336195
 20
-71.4884507024
 10
8.4483171589
 20
-71.6826245983
 10
8.6922904044
 20
-71.8681096921
 10
8.9371634321
 20
-72.044229403
 10
9.1826396006
 20
-72.210758204
 10
9.4290155513
 20
-72.3679216221
 10
9.6762912841
 20
-72.5157196573
  0
LINE
  5
250
100
AcDbEntity
  8
RACCORDO
100
AcDbLine
 62
7
  6
CONTINUOUS
 10
2.6052234723
 20
-60.2682709561
 11
2.6052234723
 21
-41.8976897283
  0
LINE
  5
251
100
AcDbEntity
  8
ASSI
100
AcDbLine
 62
7
  6
CONTINUOUS
 10
2.6052234723
 20
-38.6318086211
 11
2.6052234723
 21
-1.2782934578
  0
LINE
  5
252
100
AcDbEntity
  8
RACCORDO
100
AcDbLine
 62
7
  6
CONTINUOUS
 10
2.6052234723
 20
2.3958227877
 11
2.6052234723
 21
20.5622864464
  0
LINE
  5
253
100
AcDbEntity
  8
0
100
AcDbLine
 62
7
  6
CONTINUOUS
 10
27.2567336314
 20
4.4787265586
 11
26.5201641379
 21
3.0799831851
  0
LINE
  5
254
100
AcDbEntity
  8
0
100
AcDbLine
 62
7
  6
CONTINUOUS
 10
27.3981549876
 20
4.5603814772
 11
26.6615854941
 21
3.1616381037
  0
LINE
  5
255
100
AcDbEntity
  8
0
100
AcDbLine
 62
7
  6
CONTINUOUS
 10
26.741135007
 20
2.9523973747
 11
27.4777045005
 21
4.3511407482
  0
LWPOLYLINE
  5
256
100
AcDbEntity
  8
ASSI
100
AcDbPolyline
 62
7
  6
CONTINUOUS
 90
3
 70
0
 10
37.557562395
 20
7.44628689
 10
37.5138635901
 20
7.391496388
 10
37.4490122441
 20
7.2970373818
  0
LINE
  5
257
100
AcDbEntity
  8
0
100
AcDbLine
 62
7
  6
CONTINUOUS
 10
29.6137560948
 20
1.7715039353
 11
29.5400994195
 21
1.6837445515
  0
LINE
  5
258
100
AcDbEntity
  8
0
100
AcDbLine
 62
7
  6
CONTINUOUS
 10
29.7551774511
 20
1.8531588539
 11
29.6815207757
 21
1.7653994702
  0
LINE
  5
259
100
AcDbEntity
  8
ASSI
100
AcDbLine
 62
7
  6
CONTINUOUS
 10
-1.2131531461
 20
-34.5900676944
 11
-1.4960574757
 21
-34.852432913
  0
LWPOLYLINE
  5
25A
100
AcDbEntity
  8
0
100
AcDbPolyline
 62
7
  6
CONTINUOUS
 90
29
 70
0
 10
21.3669168795
 20
-10.8859372084
 10
20.9520130081
 20
-11.1926260366
 10
20.5496582035
 20
-11.518936354
 10
20.1598267282
 20
-11.8648279164
 10
19.7833192061
 20
-12.229590378
 10
19.4201630203
 20
-12.6132625233
 10
19.0703307879
 20
-13.0158055679
 10
18.7345409829
 20
-13.4363928133
 10
18.4128224656
 20
-13.8750613447
 10
18.1051463758
 20
-14.331774077
 10
17.812144608
 20
-14.8055930559
 10
17.533847321
 20
-15.296553439
 10
17.270224356
 20
-15.8046200688
 10
17.0218171309
 20
-16.3287495187
 10
16.7886569175
 20
-16.8689748018
 10
16.570712444
 20
-17.4252629051
 10
16.3684313136
 20
-17.9964713636
 10
16.1818457179
 20
-18.582630842
 10
16.0109234651
 20
-19.1837106756
 10
15.8560155836
 20
-19.7984764052
 10
15.7171549863
 20
-20.4269561583
 10
15.5943087603
 20
-21.0691218074
 10
15.4877291941
 20
-21.7236545112
 10
15.3974497195
 20
-22.3905796902
 10
15.3234369049
 20
-23.0698719239
 10
15.265842744
 20
-23.7601361084
 10
15.224700963
 20
-24.4613945054
 10
15.1999778358
 20
-25.1736248534
 10
15.1972152748
 20
-25.4151967511
  0
LINE
  5
25B
100
AcDbEntity
  8
0
100
AcDbLine
 62
7
  6
CONTINUOUS
 10
21.7060239998
 20
-10.658155201
 11
21.3669168795
 21
-10.8859372084
  0
LWPOLYLINE
  5
25C
100
AcDbEntity
  8
ASSI
100
AcDbPolyline
 62
7
  6
CONTINUOUS
 90
40
 70
0
 10
40.8798146208
 20
0.2360671904
 10
40.931551077
 20
0.2675440692
 10
41.0197314132
 20
0.3290518378
 10
41.1031367115
 20
0.3976523542
 10
41.1817362061
 20
0.4733913175
 10
41.2555606628
 20
0.5562230285
 10
41.3241354446
 20
0.6456149403
 10
41.3874267275
 20
0.7416093206
 10
41.4454683355
 20
0.8441639016
 10
41.4978871037
 20
0.9526193326
 10
41.5446468037
 20
1.0670136333
 10
41.585783664
 20
1.1873087841
 10
41.6210332046
 20
1.3127313755
 10
41.6503574932
 20
1.4433144439
 10
41.6737944622
 20
1.5790249529
 10
41.6911934291
 20
1.7189903836
 10
41.7025154906
 20
1.8632381508
 10
41.7077995501
 20
2.0117408396
 10
41.7070116348
 20
2.1635436869
 10
41.7001126226
 20
2.3186679558
 10
41.6871416357
 20
2.4770923831
 10
41.6681820679
 20
2.6377984162
 10
41.6431953346
 20
2.8008007556
 10
41.6122200204
 20
2.9660847007
 10
41.5754552739
 20
3.1325875972
 10
41.5328637934
 20
3.3003172988
 10
41.4844828807
 20
3.4692659517
 10
41.4306235894
 20
3.6383473403
 10
41.371250622
 20
3.8075623196
 10
41.306399276
 20
3.9769100346
 10
41.236486498
 20
4.1453017037
 10
41.1614796768
 20
4.3127311671
 10
41.0814114237
 20
4.4792045846
 10
40.9967965185
 20
4.6436516545
 10
40.907605667
 20
4.8060593208
 10
40.8138681636
 20
4.9664406395
 10
40.7161866715
 20
5.1237644764
 10
40.6147620785
 20
5.2776871201
 10
40.5093934969
 20
5.4285522822
 10
40.4000809267
 20
5.5763599625
  0
LINE
  5
25D
100
AcDbEntity
  8
0
100
AcDbLine
 62
7
  6
CONTINUOUS
 10
32.8546620348
 20
0.0305332582
 11
32.996083391
 21
0.1121881769
  0
LINE
  5
25E
100
AcDbEntity
  8
0
100
AcDbLine
 62
7
  6
CONTINUOUS
 10
32.6336911657
 20
-0.4498907003
 11
32.7751125219
 21
-0.3682357816
  0
LWPOLYLINE
  5
25F
100
AcDbEntity
  8
0
100
AcDbPolyline
 62
7
  6
CONTINUOUS
 90
32
 70
0
 10
21.1720023623
 20
-10.9447526523
 10
21.4244865794
 20
-10.8032309121
 10
21.8729733031
 20
-10.5721265343
 10
22.3325077789
 20
-10.3605379805
 10
22.8021812797
 20
-10.1688837163
 10
23.2820138685
 20
-9.997203185
 10
23.7719854822
 20
-9.8454569432
 10
24.2711272039
 20
-9.7139451264
 10
24.7794571798
 20
-9.602707772
 10
25.2969572637
 20
-9.5117048426
 10
25.8226040996
 20
-9.4411163614
 10
26.3564138092
 20
-9.3909827223
 10
26.8983702707
 20
-9.3612635314
 10
27.4474017625
 20
-9.3520176305
 10
28.0035222864
 20
-9.3632855302
 10
28.5667178406
 20
-9.39502672
 10
29.1358746987
 20
-9.4471785098
 10
29.7110046591
 20
-9.5197812866
 10
30.2920959233
 20
-9.6127946635
 10
30.8779993701
 20
-9.7260347898
 10
31.4687245244
 20
-9.8595416891
 10
32.0642618613
 20
-10.0132753377
 10
32.6634336845
 20
-10.1869318142
 10
33.2662471891
 20
-10.3805505414
 10
33.8726951801
 20
-10.5940920965
 10
34.4815783763
 20
-10.8271342897
 10
35.0929016
 20
-11.079715709
 10
35.7066600288
 20
-11.3517977664
 10
36.3216399146
 20
-11.6428425084
 10
36.9374366747
 20
-11.9526706172
 10
37.5544548918
 20
-12.2814614104
 10
38.1726945659
 20
-12.6292148883
  0
LWPOLYLINE
  5
260
100
AcDbEntity
  8
0
100
AcDbPolyline
 62
7
  6
CONTINUOUS
 90
31
 70
0
 10
14.1414648846
 20
-25.6974031865
 10
14.1676175233
 20
-24.9992811503
 10
14.2095393065
 20
-24.3121982498
 10
14.2672302342
 20
-23.6361544848
 10
14.3407492777
 20
-22.9707145228
 10
14.4300374656
 20
-22.3163136964
 10
14.534917884
 20
-21.6742580034
 10
14.6554212818
 20
-21.0445758475
 10
14.79151691
 20
-20.427238825
 10
14.942935607
 20
-19.8234677226
 10
15.1097076921
 20
-19.233289384
 10
15.2918028461
 20
-18.6566769654
 10
15.4888609496
 20
-18.0947707226
 10
15.7009116092
 20
-17.5475997549
 10
15.9279252182
 20
-17.0151349629
 10
16.1694528371
 20
-16.4984293035
 10
16.4255231842
 20
-15.9975139594
 10
16.6961075412
 20
-15.512357748
 10
16.9806708129
 20
-15.0439200782
 10
17.279240659
 20
-14.5922340309
 10
17.5917894199
 20
-14.1572665251
 10
17.9176990209
 20
-13.7398777277
 10
18.2569958991
 20
-13.3401024213
 10
18.6096536173
 20
-12.9579058232
 10
18.97497479
 20
-12.5940437526
 10
19.3529844746
 20
-12.2485524873
 10
19.7436576135
 20
-11.9213957496
 10
20.1462216492
 20
-11.6132205247
 10
20.5607001107
 20
-11.3240643706
 10
20.9870694689
 20
-11.0538897293
 10
21.1720023623
 20
-10.9447526523
  0
LINE
  5
261
100
AcDbEntity
  8
0
100
AcDbLine
 62
7
  6
CONTINUOUS
 10
29.650584854
 20
1.8805272659
 11
29.6137560948
 21
1.7715039353
  0
LINE
  5
262
100
AcDbEntity
  8
0
100
AcDbLine
 62
7
  6
CONTINUOUS
 10
29.7920062102
 20
1.9621821846
 11
29.7551774511
 21
1.8531588539
  0
LINE
  5
263
100
AcDbEntity
  8
0
100
AcDbLine
 62
7
  6
CONTINUOUS
 10
25.2679958093
 20
3.8029694846
 11
25.8572514252
 21
5.5039163691
  0
LINE
  5
264
100
AcDbEntity
  8
0
100
AcDbLine
 62
7
  6
CONTINUOUS
 10
25.636280556
 20
5.6315021795
 11
25.120681879
 21
4.1486023213
  0
LINE
  5
265
100
AcDbEntity
  8
0
100
AcDbLine
 62
7
  6
CONTINUOUS
 10
25.730413171
 20
5.5771511874
 11
25.2621032352
 21
4.23025724
  0
LINE
  5
266
100
AcDbEntity
  8
0
100
AcDbLine
 62
7
  6
CONTINUOUS
 10
29.7610702886
 20
1.5561587411
 11
29.834726964
 21
1.7307766546
  0
LINE
  5
267
100
AcDbEntity
  8
0
100
AcDbLine
 62
7
  6
CONTINUOUS
 10
31.2342092756
 20
2.1821819711
 11
30.4976395713
 21
0.7834387193
  0
LINE
  5
268
100
AcDbEntity
  8
0
100
AcDbLine
 62
7
  6
CONTINUOUS
 10
31.3756306318
 20
2.2638368898
 11
30.6390609276
 21
0.8650936379
  0
LINE
  5
269
100
AcDbEntity
  8
0
100
AcDbLine
 62
7
  6
CONTINUOUS
 10
30.7186104405
 20
0.6558529089
 11
31.4551801447
 21
2.0545961607
  0
LWPOLYLINE
  5
26A
100
AcDbEntity
  8
ASSI
100
AcDbPolyline
 62
7
  6
CONTINUOUS
 90
57
 70
0
 10
37.4490122441
 20
7.2970373818
 10
37.3896392767
 20
7.196384817
 10
37.3357799854
 20
7.089498788
 10
37.2873990726
 20
6.9764192004
 10
37.2448075921
 20
6.8578730728
 10
37.2080428457
 20
6.733825184
 10
37.1770675315
 20
6.6043107553
 10
37.1520807981
 20
6.4701624694
 10
37.1331212304
 20
6.3313504698
 10
37.1201502435
 20
6.187904613
 10
37.1132512313
 20
6.0407471505
 10
37.112463316
 20
5.8898541681
 10
37.1177473754
 20
5.7352495799
 10
37.1290694369
 20
5.5779273799
 10
37.1464684038
 20
5.4178700583
 10
37.1699053728
 20
5.255095125
 10
37.1992296614
 20
5.0906491031
 10
37.2344792021
 20
4.9245212257
 10
37.2756160623
 20
4.7567222599
 10
37.3223757624
 20
4.5883310296
 10
37.3747945306
 20
4.419343719
 10
37.4328361386
 20
4.2497641439
 10
37.4961274215
 20
4.0806825766
 10
37.5647022033
 20
3.9121022257
 10
37.63852666
 20
3.7440198825
 10
37.7171261545
 20
3.5775161931
 10
37.8005314529
 20
3.4126013288
 10
37.888711789
 20
3.2492651183
 10
37.9811002282
 20
3.0885576934
 10
38.0777238836
 20
2.9304959916
 10
38.178555642
 20
2.7750630754
 10
38.2829472293
 20
2.6232582644
 10
38.3909215818
 20
2.4751049346
 10
38.5024557631
 20
2.33057971
 10
38.6168326905
 20
2.1906117815
 10
38.7340706799
 20
2.0552305123
 10
38.8541514153
 20
1.9244065392
 10
38.9763028658
 20
1.7989809643
 10
39.1005383731
 20
1.67898857
 10
39.2268445955
 20
1.564394574
 10
39.3544094767
 20
1.4559357314
 10
39.4832411264
 20
1.3536515716
 10
39.6133314349
 20
1.2575025652
 10
39.7438440171
 20
1.1681068799
 10
39.8747815938
 20
1.0855080276
 10
40.0061414441
 20
1.0096624964
 10
40.1370790207
 20
0.9410579172
 10
40.2675916029
 20
0.879740944
 10
40.3976819114
 20
0.8256649229
 10
40.5265135611
 20
0.779177523
 10
40.6540784423
 20
0.7403276382
 10
40.7803846647
 20
0.7090663746
 10
40.9046201721
 20
0.6855947191
 10
41.0267716226
 20
0.6699628608
 10
41.146852358
 20
0.6621206106
 10
41.2640903474
 20
0.6621183884
 10
41.3383953417
 20
0.6672430369
  0
LINE
  5
26B
100
AcDbEntity
  8
ASSI
100
AcDbLine
 62
7
  6
CONTINUOUS
 10
-1.2131531461
 20
-41.5300650471
 11
-0.9302488166
 21
-41.2676998285
  0
LWPOLYLINE
  5
26C
100
AcDbEntity
  8
ASSI
100
AcDbPolyline
 62
7
  6
CONTINUOUS
 90
16
 70
0
 10
-3.0882434911
 20
-34.8125232689
 10
-3.1709565852
 20
-34.8647220766
 10
-3.2499224851
 20
-34.9236031994
 10
-3.3245751779
 20
-34.9887586214
 10
-3.3948882696
 20
-35.0602267446
 10
-3.4608881543
 20
-35.1379691669
 10
-3.5221712105
 20
-35.2215107063
 10
-3.5787085771
 20
-35.3108868638
 10
-3.6305291152
 20
-35.4060621384
 10
-3.6773157877
 20
-35.5064548454
 10
-3.7190377932
 20
-35.6120969352
 10
-3.7557259331
 20
-35.7229564574
 10
-3.7871555736
 20
-35.8383558766
 10
-3.813251837
 20
-35.9580693474
 10
-3.8340896011
 20
-36.0823227152
 10
-3.8496688659
 20
-36.2111159798
  0
LINE
  5
26D
100
AcDbEntity
  8
ASSI
100
AcDbLine
 62
7
  6
CONTINUOUS
 10
-2.0275835749
 20
-34.2001115265
 11
-3.0882437467
 21
-34.8125234165
  0
LINE
  5
26E
100
AcDbEntity
  8
0
100
AcDbLine
 62
7
  6
CONTINUOUS
 10
14.1414648846
 20
-25.6974031865
 11
14.7071503095
 21
-25.3707835118
  0
LINE
  5
26F
100
AcDbEntity
  8
ASSI
100
AcDbLine
 62
7
  6
CONTINUOUS
 10
-4.2183569662
 20
-36.3248993491
 11
-3.8367822677
 21
-36.1045829004
  0
LINE
  5
270
100
AcDbEntity
  8
ASSI
100
AcDbLine
 62
7
  6
CONTINUOUS
 10
-1.2131531461
 20
-34.5900676944
 11
-0.1524929744
 21
-33.9776558044
  0
LINE
  5
271
100
AcDbEntity
  8
ASSI
100
AcDbLine
 62
7
  6
CONTINUOUS
 10
0.1304113552
 20
-34.5667118515
 11
-0.9302488166
 21
-35.1791237415
  0
LWPOLYLINE
  5
272
100
AcDbEntity
  8
0
100
AcDbPolyline
 62
7
  6
CONTINUOUS
 90
3
 70
0
 10
97.0081340587
 20
-110.50265652
 10
96.9859679519
 20
-110.4981292257
 10
96.962504247
 20
-110.4910795481
  0
LWPOLYLINE
  5
273
100
AcDbEntity
  8
ASSI
100
AcDbPolyline
 62
7
  6
CONTINUOUS
 90
16
 70
0
 10
39.1627056767
 20
-97.4839154803
 10
39.2820378943
 20
-97.5348276013
 10
39.4000678231
 20
-97.5789160006
 10
39.5167954628
 20
-97.6161806783
 10
39.6324538502
 20
-97.6466697279
 10
39.7468099485
 20
-97.6703350559
 10
39.8591646484
 20
-97.6870323812
 10
39.9695056812
 20
-97.6967190552
 10
40.0778453155
 20
-97.6994377266
 10
40.1835212474
 20
-97.6951720609
 10
40.2865171633
 20
-97.6838793135
 10
40.3868493767
 20
-97.6656022289
 10
40.4839045246
 20
-97.6404527056
 10
40.577662547
 20
-97.6083886852
 10
40.6681435039
 20
-97.5694522261
 10
40.7548916482
 20
-97.5238251496
  0
LINE
  5
274
100
AcDbEntity
  8
ASSI
100
AcDbLine
 62
7
  6
CONTINUOUS
 10
-1.4960574757
 20
-40.941009
 11
-1.2131531461
 21
-41.5300650471
  0
LINE
  5
275
100
AcDbEntity
  8
ASSI
100
AcDbLine
 62
7
  6
CONTINUOUS
 10
-0.9302488166
 20
-35.1791237415
 11
-1.2131531461
 21
-34.5900676944
  0
LINE
  5
276
100
AcDbEntity
  8
ASSI
100
AcDbLine
 62
7
  6
CONTINUOUS
 10
0.1304113552
 20
-34.5667118515
 11
-0.1524929744
 21
-33.9776558044
  0
LWPOLYLINE
  5
277
100
AcDbEntity
  8
ASSI
100
AcDbPolyline
 62
7
  6
CONTINUOUS
 90
22
 70
0
 10
1.0298916595
 20
-37.722231776
 10
0.9668874476
 20
-37.5758506036
 10
0.9001327571
 20
-37.4309103379
 10
0.8296275879
 20
-37.2874109787
 10
0.7552307321
 20
-37.1450997387
 10
0.6770833976
 20
-37.0042294053
 10
0.5956092086
 20
-36.8655583405
 10
0.510786751
 20
-36.7290920887
 10
0.4226374388
 20
-36.5948251055
 10
0.3316491383
 20
-36.4634991201
 10
0.2378072851
 20
-36.3351319591
 10
0.1411264435
 20
-36.2097057959
 10
0.0421381726
 20
-36.0879088795
 10
-0.0591700726
 20
-35.9697610588
 10
-0.1627857471
 20
-35.855242485
 10
-0.2681396564
 20
-35.7449818606
 10
-0.3752412851
 20
-35.6390024093
 10
-0.4840811486
 20
-35.5372809073
 10
-0.5940615984
 20
-35.4403763864
 10
-0.7049834183
 20
-35.3484751904
 10
-0.8170458243
 20
-35.2613909754
 10
-0.9302488166
 20
-35.1791237415
  0
LWPOLYLINE
  5
278
100
AcDbEntity
  8
ASSI
100
AcDbPolyline
 62
7
  6
CONTINUOUS
 90
22
 70
0
 10
2.0905518313
 20
-37.109819886
 10
2.0275756045
 20
-36.9634936762
 10
1.9608372513
 20
-36.8185856374
 10
1.8903367719
 20
-36.6750957696
 10
1.8159241126
 20
-36.5327555777
 10
1.737749327
 20
-36.3918335569
 10
1.6562625759
 20
-36.2531351926
 10
1.5714635354
 20
-36.1166997991
 10
1.4833525295
 20
-35.9824880623
 10
1.3923806911
 20
-35.8511875246
 10
1.2985063534
 20
-35.722778655
 10
1.2017711831
 20
-35.5972809846
 10
1.1027513137
 20
-35.47544065
 10
1.0014628544
 20
-35.357312545
 10
0.897889696
 20
-35.2428417757
 10
0.7925596439
 20
-35.1326097965
 10
0.6854385897
 20
-35.0266135207
 10
0.576560642
 20
-34.9248560349
 10
0.4665559315
 20
-34.8279280537
 10
0.3556345021
 20
-34.7360264818
 10
0.2435863099
 20
-34.6489544144
 10
0.1304113552
 20
-34.5667118515
  0
LWPOLYLINE
  5
279
100
AcDbEntity
  8
0
100
AcDbPolyline
 62
7
  6
CONTINUOUS
 90
58
 70
0
 10
15.2830680938
 20
-28.3426930085
 10
15.3234212942
 20
-28.8729584208
 10
15.3974305449
 20
-29.6377201398
 10
15.4877065815
 20
-30.4088992274
 10
15.594282835
 20
-31.1865087736
 10
15.7171258744
 20
-31.9705356882
 10
15.8559834049
 20
-32.7593697887
 10
16.0108883386
 20
-33.5530209536
 10
16.1818077635
 20
-34.3514793043
 10
16.368390648
 20
-35.1531050222
 10
16.5706691831
 20
-35.9579046163
 10
16.7886111779
 20
-36.7658715777
 10
17.021769029
 20
-37.5753465612
 10
17.2701740073
 20
-38.3863326656
 10
17.5337948419
 20
-39.1988267922
 10
17.8120901173
 20
-40.0111603001
 10
18.1050899914
 20
-40.8233328586
 10
18.4127643063
 20
-41.6353447985
 10
18.7344811724
 20
-42.4455284712
 10
19.070269449
 20
-43.2538801187
 10
19.4201002768
 20
-44.0604034991
 10
19.7832551886
 20
-44.8634422381
 10
20.1597615669
 20
-45.6629891736
 10
20.5495920291
 20
-46.4590514678
 10
20.95194596
 20
-47.2499942333
 10
21.3668490968
 20
-48.0358069479
 10
21.7942757022
 20
-48.8165001337
 10
22.2333479496
 20
-49.5904704702
 10
22.6840897721
 20
-50.3577041398
 10
23.1464772365
 20
-51.11821496
 10
23.6195607171
 20
-51.870441062
 10
24.1033621952
 20
-52.6143654186
 10
24.5978596896
 20
-53.3500050569
 10
25.1020376305
 20
-54.0758491899
 10
25.615915912
 20
-54.7918776853
 10
26.1394746401
 20
-55.4981106753
 10
26.6716385627
 20
-56.193097769
 10
27.2124253642
 20
-56.8768158536
 10
27.7618173604
 20
-57.5492880419
 10
28.3186862466
 20
-58.2091332814
 10
28.8830473883
 20
-58.8563256213
 10
29.4548854201
 20
-59.4908910124
 10
30.0330259417
 20
-60.1115262558
 10
30.6174819047
 20
-60.718202722
 10
31.2082403575
 20
-61.3109490405
 10
31.8040880448
 20
-61.8885478999
 10
32.4050354248
 20
-62.4509681694
 10
33.0110720393
 20
-62.9982409798
 10
33.6209532585
 20
-63.529242413
 10
34.2346869827
 20
-64.0439390283
 10
34.8522653117
 20
-64.5423642663
 10
35.4724199151
 20
-65.023494531
 10
36.0951560864
 20
-65.4872942782
 10
36.7204685321
 20
-65.9337990522
 10
37.3470730412
 20
-66.3620918896
 10
37.9745415433
 20
-66.7718671363
 10
38.6033021088
 20
-67.1634304465
 10
39.2333547377
 20
-67.5367818202
  0
LWPOLYLINE
  5
27A
100
AcDbEntity
  8
ASSI
100
AcDbPolyline
 62
7
  6
CONTINUOUS
 90
15
 70
0
 10
18.3737046927
 20
7.7836467696
 10
18.3755495173
 20
7.8541888572
 10
18.3809207877
 20
7.9219768408
 10
18.389818504
 20
7.9870107204
 10
18.4022965163
 20
8.0494914579
 10
18.4183009744
 20
8.1092180914
 10
18.4376703279
 20
8.1655877351
 10
18.4604386572
 20
8.2185663889
 10
18.4865718818
 20
8.2681880528
 10
18.515806211
 20
8.3139518415
 10
18.548173053
 20
8.3558186819
 10
18.5836409995
 20
8.393827647
 10
18.6218520339
 20
8.4275950712
 10
18.6628339386
 20
8.4570779954
 10
18.6843448025
 20
8.4702238286
  0
LWPOLYLINE
  5
27B
100
AcDbEntity
  8
ASSI
100
AcDbPolyline
 62
7
  6
CONTINUOUS
 90
15
 70
0
 10
18.3737046927
 20
-65.6986781418
 10
18.3755495173
 20
-65.6281360541
 10
18.3809207877
 20
-65.5603480705
 10
18.389818504
 20
-65.4953141909
 10
18.4022965163
 20
-65.4328334534
 10
18.4183009744
 20
-65.3731068199
 10
18.4376703279
 20
-65.3167371762
 10
18.4604386572
 20
-65.2637585225
 10
18.4865718818
 20
-65.2141368586
 10
18.515806211
 20
-65.1683730698
 10
18.548173053
 20
-65.1265062295
 10
18.5836409995
 20
-65.0884972643
 10
18.6218520339
 20
-65.0547298401
 10
18.6628339386
 20
-65.0252469159
 10
18.6843448025
 20
-65.0121010828
  0
LWPOLYLINE
  5
27C
100
AcDbEntity
  8
ASSI
100
AcDbPolyline
 62
7
  6
CONTINUOUS
 90
15
 70
0
 10
20.4950250363
 20
6.5588229896
 10
20.4931802117
 20
6.488280902
 10
20.4878089413
 20
6.4204929184
 10
20.478911225
 20
6.3554590388
 10
20.4664332127
 20
6.2929783013
 10
20.4504287546
 20
6.2332516677
 10
20.4310594011
 20
6.1768820241
 10
20.4082910719
 20
6.1239033703
 10
20.3821578472
 20
6.0742817064
 10
20.352923518
 20
6.0285179177
 10
20.320556676
 20
5.9866510773
 10
20.2850887295
 20
5.9486421122
 10
20.2468776951
 20
5.914874688
 10
20.2058957904
 20
5.8853917638
 10
20.1843849265
 20
5.8722459306
  0
LWPOLYLINE
  5
27D
100
AcDbEntity
  8
ASSI
100
AcDbPolyline
 62
7
  6
CONTINUOUS
 90
15
 70
0
 10
20.4950250363
 20
-66.9235019217
 10
20.4931802117
 20
-66.9940440094
 10
20.4878089413
 20
-67.061831993
 10
20.478911225
 20
-67.1268658726
 10
20.4664332127
 20
-67.1893466101
 10
20.4504287546
 20
-67.2490732436
 10
20.4310594011
 20
-67.3054428873
 10
20.4082910719
 20
-67.358421541
 10
20.3821578472
 20
-67.4080432049
 10
20.352923518
 20
-67.4538069937
 10
20.320556676
 20
-67.495673834
 10
20.2850887295
 20
-67.5336827992
 10
20.2468776951
 20
-67.5674502234
 10
20.2058957904
 20
-67.5969331476
 10
20.1843849265
 20
-67.6100789807
  0
LWPOLYLINE
  5
27E
100
AcDbEntity
  8
ASSI
100
AcDbPolyline
 62
7
  6
CONTINUOUS
 90
7
 70
0
 10
0.6618667846
 20
-41.3076338758
 10
0.6770833976
 20
-41.2987011164
 10
0.7552307321
 20
-41.248073366
 10
0.8296275879
 20
-41.1916737503
 10
0.9001327571
 20
-41.1295919932
 10
0.9668874476
 20
-41.0617383708
 10
1.0298916595
 20
-40.9881128831
  0
LINE
  5
27F
100
AcDbEntity
  8
0
100
AcDbLine
 62
7
  6
CONTINUOUS
 10
17.1813438817
 20
-25.6154147332
 11
16.1206837099
 21
-26.2278266232
  0
LINE
  5
280
100
AcDbEntity
  8
ASSI
100
AcDbLine
 62
7
  6
CONTINUOUS
 10
1.0298916595
 20
-37.722231776
 11
2.0905518313
 21
-37.109819886
  0
LINE
  5
281
100
AcDbEntity
  8
ASSI
100
AcDbLine
 62
7
  6
CONTINUOUS
 10
-1.2131531461
 20
-41.5300650471
 11
-0.8317646932
 21
-41.3098561343
  0
LINE
  5
282
100
AcDbEntity
  8
ASSI
100
AcDbLine
 62
7
  6
CONTINUOUS
 10
1.1225887663
 20
-41.0416350308
 11
0.6619374544
 21
-41.307609325
  0
LWPOLYLINE
  5
283
100
AcDbEntity
  8
RACCORDO
100
AcDbPolyline
 62
7
  6
CONTINUOUS
 90
24
 70
0
 10
114.0452521873
 20
-132.7770496325
 10
114.2925279201
 20
-132.9147994154
 10
114.5389038708
 20
-133.0421447695
 10
114.7843800393
 20
-133.1590856948
 10
115.029253067
 20
-133.2657392183
 10
115.2732263125
 20
-133.361988313
 10
115.5154098519
 20
-133.4474818979
 10
115.7557971491
 20
-133.5221806931
 10
115.9943947401
 20
-133.5861239785
 10
116.2303323095
 20
-133.6390785127
 10
116.4636001426
 20
-133.681004164
 10
116.6942079541
 20
-133.7119410641
 10
116.921314572
 20
-133.7317763667
 10
117.1449072099
 20
-133.7404695278
 10
117.3649986543
 20
-133.7380610914
 10
117.5807860932
 20
-133.7245598426
 10
117.7922538081
 20
-133.6999252695
 10
117.9994175175
 20
-133.664197884
 10
118.201521565
 20
-133.6175080063
 10
118.3985474724
 20
-133.5598156006
 10
118.5905137179
 20
-133.4911607026
 10
118.7767200798
 20
-133.4117937401
 10
118.9571455226
 20
-133.3216755917
 10
119.0454799292
 20
-133.2724368951
  0
LINE
  5
284
100
AcDbEntity
  8
RACCORDO
100
AcDbLine
 62
7
  6
CONTINUOUS
 10
114.0452521873
 20
-132.7770496325
 11
86.3620217038
 21
-116.7930993037
  0
LINE
  5
285
100
AcDbEntity
  8
ASSI
100
AcDbLine
 62
7
  6
CONTINUOUS
 10
83.3214625447
 20
-115.0375185524
 11
40.2940149095
 21
-90.1940095484
  0
LINE
  5
286
100
AcDbEntity
  8
RACCORDO
100
AcDbLine
 62
7
  6
CONTINUOUS
 10
37.4655877848
 20
-88.5609111751
 11
9.6762912841
 21
-72.5157196573
  0
LINE
  5
287
100
AcDbEntity
  8
ASSI
100
AcDbLine
 62
7
  6
CONTINUOUS
 10
-4.2183569662
 20
-36.3248993491
 11
-3.8496688659
 21
-36.8644344951
  0
LINE
  5
288
100
AcDbEntity
  8
ASSI
100
AcDbLine
 62
7
  6
CONTINUOUS
 10
35.8745975271
 20
-92.5411150009
 11
36.2432856274
 21
-93.0806501469
  0
LINE
  5
289
100
AcDbEntity
  8
ASSI
100
AcDbLine
 62
7
  6
CONTINUOUS
 10
41.8850051672
 20
-96.0114490442
 11
41.5163170669
 21
-95.4719138981
  0
LINE
  5
28A
100
AcDbEntity
  8
0
100
AcDbLine
 62
7
  6
CONTINUOUS
 10
26.1518792858
 20
5.333801935
 11
26.1518792858
 21
5.1166556106
  0
LINE
  5
28B
100
AcDbEntity
  8
0
100
AcDbLine
 62
7
  6
CONTINUOUS
 10
26.293300642
 20
5.2521470163
 11
26.293300642
 21
5.1983105293
  0
LINE
  5
28C
100
AcDbEntity
  8
0
100
AcDbLine
 62
7
  6
CONTINUOUS
 10
27.4777045005
 20
4.3511407482
 11
27.4777045005
 21
4.5682870725
  0
LINE
  5
28D
100
AcDbEntity
  8
0
100
AcDbLine
 62
7
  6
CONTINUOUS
 10
27.7723322558
 20
4.0941678451
 11
27.7723322558
 21
3.7467336045
  0
LINE
  5
28E
100
AcDbEntity
  8
0
100
AcDbLine
 62
7
  6
CONTINUOUS
 10
27.913753612
 20
4.1758227638
 11
27.913753612
 21
3.8596416848
  0
LINE
  5
28F
100
AcDbEntity
  8
0
100
AcDbLine
 62
7
  6
CONTINUOUS
 10
27.9933033356
 20
3.9231526481
 11
27.9933033356
 21
2.2294110751
  0
LINE
  5
290
100
AcDbEntity
  8
0
100
AcDbLine
 62
7
  6
CONTINUOUS
 10
28.1347246918
 20
4.0048075668
 11
28.1347246918
 21
2.3110659937
  0
LINE
  5
291
100
AcDbEntity
  8
0
100
AcDbLine
 62
7
  6
CONTINUOUS
 10
28.2142742047
 20
2.1018252647
 11
28.2142742047
 21
4.1430009566
  0
LINE
  5
292
100
AcDbEntity
  8
0
100
AcDbLine
 62
7
  6
CONTINUOUS
 10
28.5089017492
 20
3.972886705
 11
28.5089017492
 21
2.8437256968
  0
LINE
  5
293
100
AcDbEntity
  8
ASSI
100
AcDbLine
 62
7
  6
CONTINUOUS
 10
-3.8496688659
 20
-36.2111159798
 11
-4.2183569662
 21
-36.3248993491
  0
LINE
  5
294
100
AcDbEntity
  8
ASSI
100
AcDbLine
 62
7
  6
CONTINUOUS
 10
82.2052264045
 20
-12.007573938
 11
81.8365383042
 21
-12.1213573073
  0
LWPOLYLINE
  5
295
100
AcDbEntity
  8
0
100
AcDbPolyline
 62
7
  6
CONTINUOUS
 90
4
 70
0
 10
96.962504247
 20
-110.4910795481
 10
96.9376874229
 20
-110.4814147943
 10
96.9115730007
 20
-110.4692276572
 10
96.8841609803
 20
-110.4545181368
  0
LWPOLYLINE
  5
296
100
AcDbEntity
  8
0
100
AcDbPolyline
 62
7
  6
CONTINUOUS
 90
11
 70
0
 10
97.0737486697
 20
-110.5496910483
 10
97.1002828408
 20
-110.5622088707
 10
97.1257764592
 20
-110.573280358
 10
97.1503001566
 20
-110.5830998646
 10
97.1737833014
 20
-110.591473036
 10
97.1960139982
 20
-110.5978168089
 10
97.2167694965
 20
-110.6015980571
 10
97.236272547
 20
-110.6033499067
 10
97.254979507
 20
-110.604088673
 10
97.2731510838
 20
-110.6041781769
 10
97.2903359406
 20
-110.6032647303
  0
LWPOLYLINE
  5
297
100
AcDbEntity
  8
0
100
AcDbPolyline
 62
7
  6
CONTINUOUS
 90
15
 70
0
 10
96.9047525822
 20
-110.6173818051
 10
96.9322570171
 20
-110.6312973196
 10
96.9586775436
 20
-110.6437681665
 10
96.9840141617
 20
-110.6547943458
 10
97.0080942436
 20
-110.664564476
 10
97.031090417
 20
-110.6728899387
 10
97.0535205656
 20
-110.6792048782
 10
97.0754999607
 20
-110.6830707495
 10
97.0969133309
 20
-110.6849260978
 10
97.1179327456
 20
-110.6855207021
 10
97.1388252061
 20
-110.6853984763
 10
97.1593237111
 20
-110.6840155067
 10
97.1787993268
 20
-110.6804898312
 10
97.1969450797
 20
-110.6742457635
 10
97.2117884336
 20
-110.6670947569
  0
LINE
  5
298
100
AcDbEntity
  8
0
100
AcDbLine
 62
7
  6
CONTINUOUS
 10
97.0461739458
 20
-110.5357268906
 11
97.0737486697
 21
-110.5496910483
  0
LINE
  5
299
100
AcDbEntity
  8
0
100
AcDbLine
 62
7
  6
CONTINUOUS
 10
95.3769366638
 20
-111.8895442224
 11
95.5297777945
 21
-111.9777927757
  0
LINE
  5
29A
100
AcDbEntity
  8
0
100
AcDbLine
 62
7
  6
CONTINUOUS
 10
96.0766647857
 20
-112.2935584703
 11
96.2295059164
 21
-112.3818070237
  0
LINE
  5
29B
100
AcDbEntity
  8
0
100
AcDbLine
 62
7
  6
CONTINUOUS
 10
96.4677238271
 20
-112.5193510597
 11
96.6250437722
 21
-112.6101856243
  0
LINE
  5
29C
100
AcDbEntity
  8
0
100
AcDbLine
 62
7
  6
CONTINUOUS
 10
97.3089503799
 20
-113.0050647282
 11
97.4758219234
 21
-113.101414266
  0
LINE
  5
29D
100
AcDbEntity
  8
0
100
AcDbLine
 62
7
  6
CONTINUOUS
 10
97.6161260509
 20
-113.1824241109
 11
98.3424222959
 21
-113.6017784601
  0
LINE
  5
29E
100
AcDbEntity
  8
0
100
AcDbLine
 62
7
  6
CONTINUOUS
 10
98.600939828
 20
-113.7510432431
 11
98.7537809588
 21
-113.8392917965
  0
LWPOLYLINE
  5
29F
100
AcDbEntity
  8
ASSI
100
AcDbPolyline
 62
7
  6
CONTINUOUS
 90
27
 70
0
 10
20.4334238651
 20
-66.8857275381
 10
20.371822694
 20
-66.8439368465
 10
20.3108433303
 20
-66.7984333211
 10
20.250492072
 20
-66.7491793577
 10
20.1907626213
 20
-66.6962125604
 10
20.1322578923
 20
-66.6400675807
 10
20.0749902893
 20
-66.5807122294
 10
20.0189474081
 20
-66.5181786957
 10
19.9646949504
 20
-66.4530981985
 10
19.9122510499
 20
-66.3854449417
 10
19.8615975728
 20
-66.3152447214
 10
19.8132458198
 20
-66.2432061446
 10
19.7672191031
 20
-66.1693105923
 10
19.7234941104
 20
-66.0935766835
 10
19.6825122057
 20
-66.0167688829
 10
19.6443011713
 20
-65.938876314
 10
19.6088332248
 20
-65.8599098533
 10
19.5764663827
 20
-65.780666595
 10
19.5472320536
 20
-65.7011437358
 10
19.5210988289
 20
-65.6213440791
 10
19.4983304997
 20
-65.5420731295
 10
19.4789611461
 20
-65.4633362418
 10
19.4629566881
 20
-65.3851280613
 10
19.4504786758
 20
-65.308238028
 10
19.4415809595
 20
-65.2329292887
 10
19.4362096891
 20
-65.1589386966
 10
19.4343648645
 20
-65.0862662518
  0
LWPOLYLINE
  5
2A0
100
AcDbEntity
  8
ASSI
100
AcDbPolyline
 62
7
  6
CONTINUOUS
 90
22
 70
0
 10
41.3546750813
 20
-91.890457715
 10
41.4499102222
 20
-92.0181616321
 10
41.5420359064
 20
-92.1484141772
 10
41.6310521339
 20
-92.2812153503
 10
41.7171164019
 20
-92.4168293496
 10
41.8000712132
 20
-92.554991977
 10
41.8794440767
 20
-92.6949106376
 10
41.955200782
 20
-92.836565953
 10
42.0273755394
 20
-92.9799773016
 10
42.0955984885
 20
-93.1244102241
 10
42.1598657091
 20
-93.2699105681
 10
42.2201811215
 20
-93.4164324859
 10
42.2761866263
 20
-93.5631039755
 10
42.3278427377
 20
-93.7098836373
 10
42.3751889414
 20
-93.8568128709
 10
42.4179855952
 20
-94.0031438721
 10
42.4562183166
 20
-94.1489077203
 10
42.4899014881
 20
-94.294073336
 10
42.5188386155
 20
-94.4377996769
 10
42.5429642007
 20
-94.5798063955
 10
42.5623437417
 20
-94.7203738393
 10
42.5769772386
 20
-94.8595020081
  0
LINE
  5
2A1
100
AcDbEntity
  8
ASSI
100
AcDbLine
 62
7
  6
CONTINUOUS
 10
42.945665339
 20
-95.3990371542
 11
42.5769772386
 21
-94.8595020081
  0
LINE
  5
2A2
100
AcDbEntity
  8
ASSI
100
AcDbLine
 62
7
  6
CONTINUOUS
 10
38.5968970176
 20
-97.1572246518
 11
38.8798013471
 21
-97.7462806989
  0
LWPOLYLINE
  5
2A3
100
AcDbEntity
  8
ASSI
100
AcDbPolyline
 62
7
  6
CONTINUOUS
 90
31
 70
0
 10
36.2432856274
 20
-93.0806501469
 10
36.2588653311
 20
-93.2274371901
 10
36.2797036764
 20
-93.3757565329
 10
36.3058006633
 20
-93.5256081754
 10
36.3372311971
 20
-93.6773044496
 10
36.3739203724
 20
-93.8305330235
 10
36.4156434735
 20
-93.9843569007
 10
36.4624313009
 20
-94.138779691
 10
36.5142530541
 20
-94.2937977846
 10
36.5707916158
 20
-94.4484633562
 10
36.6320758451
 20
-94.6027742243
 10
36.698076883
 20
-94.7567325703
 10
36.7683910351
 20
-94.9093971131
 10
36.8430446918
 20
-95.0607599208
 10
36.9220114626
 20
-95.2108289253
 10
37.0048084824
 20
-95.3586866405
 10
37.0914591904
 20
-95.5043195299
 10
37.1819401473
 20
-95.64774113
 10
37.2756981697
 20
-95.7880745646
 10
37.3727533176
 20
-95.9253009399
 10
37.473085531
 20
-96.0594391496
 10
37.5760814468
 20
-96.1896689989
 10
37.6817573787
 20
-96.315966582
 10
37.790097013
 20
-96.4383558046
 10
37.9004380459
 20
-96.5560881895
 10
38.0127927457
 20
-96.6691352553
 10
38.1271488441
 20
-96.7775254833
 10
38.2428072314
 20
-96.8805958403
 10
38.3595348712
 20
-96.9781253151
 10
38.4775647999
 20
-97.070334919
 10
38.5968970176
 20
-97.1572246518
  0
LINE
  5
2A4
100
AcDbEntity
  8
0
100
AcDbLine
 62
7
  6
CONTINUOUS
 10
28.6503231055
 20
3.8912317863
 11
28.6503231055
 21
2.9253806155
  0
LINE
  5
2A5
100
AcDbEntity
  8
0
100
AcDbLine
 62
7
  6
CONTINUOUS
 10
28.6930442807
 20
2.9545504314
 11
28.6930442807
 21
3.6494187909
  0
LINE
  5
2A6
100
AcDbEntity
  8
0
100
AcDbLine
 62
7
  6
CONTINUOUS
 10
29.650584854
 20
1.9673857956
 11
29.650584854
 21
1.8805272659
  0
LINE
  5
2A7
100
AcDbEntity
  8
0
100
AcDbLine
 62
7
  6
CONTINUOUS
 10
29.7610702886
 20
3.0327539594
 11
29.7610702886
 21
3.2499002837
  0
LINE
  5
2A8
100
AcDbEntity
  8
0
100
AcDbLine
 62
7
  6
CONTINUOUS
 10
29.7920062102
 20
2.0490407143
 11
29.7920062102
 21
1.9621821846
  0
LINE
  5
2A9
100
AcDbEntity
  8
0
100
AcDbLine
 62
7
  6
CONTINUOUS
 10
29.834726964
 20
1.7307766546
 11
29.834726964
 21
1.9044937141
  0
LINE
  5
2AA
100
AcDbEntity
  8
0
100
AcDbLine
 62
7
  6
CONTINUOUS
 10
30.12935493
 20
3.0372573475
 11
30.12935493
 21
2.8201110232
  0
LINE
  5
2AB
100
AcDbEntity
  8
0
100
AcDbLine
 62
7
  6
CONTINUOUS
 10
30.2707762862
 20
2.9556024288
 11
30.2707762862
 21
2.9017659418
  0
LINE
  5
2AC
100
AcDbEntity
  8
0
100
AcDbLine
 62
7
  6
CONTINUOUS
 10
31.4551801447
 20
2.0545961607
 11
31.4551801447
 21
2.271742485
  0
LINE
  5
2AD
100
AcDbEntity
  8
0
100
AcDbLine
 62
7
  6
CONTINUOUS
 10
31.7498076892
 20
0.9290379603
 11
31.7498076892
 21
0.6684623103
  0
LINE
  5
2AE
100
AcDbEntity
  8
0
100
AcDbLine
 62
7
  6
CONTINUOUS
 10
31.8912290454
 20
1.010692879
 11
31.8912290454
 21
0.750117229
  0
LINE
  5
2AF
100
AcDbEntity
  8
0
100
AcDbLine
 62
7
  6
CONTINUOUS
 10
32.6336911657
 20
1.2438508728
 11
32.6336911657
 21
0.4186947187
  0
LINE
  5
2B0
100
AcDbEntity
  8
0
100
AcDbLine
 62
7
  6
CONTINUOUS
 10
32.6336911657
 20
0.1581190687
 11
32.6336911657
 21
-0.4498907003
  0
LINE
  5
2B1
100
AcDbEntity
  8
0
100
AcDbLine
 62
7
  6
CONTINUOUS
 10
32.7751125219
 20
1.3255057914
 11
32.7751125219
 21
0.5003496373
  0
LINE
  5
2B2
100
AcDbEntity
  8
0
100
AcDbLine
 62
7
  6
CONTINUOUS
 10
32.7751125219
 20
0.2397739873
 11
32.7751125219
 21
-0.3682357816
  0
LINE
  5
2B3
100
AcDbEntity
  8
0
100
AcDbLine
 62
7
  6
CONTINUOUS
 10
32.8546620348
 20
-0.5774765107
 11
32.8546620348
 21
0.0305332582
  0
LINE
  5
2B4
100
AcDbEntity
  8
0
100
AcDbLine
 62
7
  6
CONTINUOUS
 10
32.8546620348
 20
0.2911089083
 11
32.8546620348
 21
1.4636991813
  0
LINE
  5
2B5
100
AcDbEntity
  8
0
100
AcDbLine
 62
7
  6
CONTINUOUS
 10
33.2229470976
 20
-0.1821099214
 11
33.2229470976
 21
0.0784657287
  0
LWPOLYLINE
  5
2B6
100
AcDbEntity
  8
RACCORDO
100
AcDbPolyline
 62
7
  6
CONTINUOUS
 90
4
 70
0
 10
36.31830774
 20
-37.2773288949
 10
36.2727702275
 20
-37.313408823
 10
36.2248596023
 20
-37.3451558124
 10
36.2142470849
 20
-37.3514165041
  0
LWPOLYLINE
  5
2B7
100
AcDbEntity
  8
RACCORDO
100
AcDbPolyline
 62
7
  6
CONTINUOUS
 90
4
 70
0
 10
36.5262471855
 20
-37.1292432814
 10
36.4771463828
 20
-37.1590280628
 10
36.3959428477
 20
-37.2150143105
 10
36.31830774
 20
-37.2773288949
  0
LINE
  5
2B8
100
AcDbEntity
  8
RACCORDO
100
AcDbLine
 62
253
  6
CONTINUOUS
 10
36.2749978034
 20
-36.639851208
 11
35.2143376317
 21
-37.2522630979
  0
LINE
  5
2B9
100
AcDbEntity
  8
ASSI
100
AcDbLine
 62
7
  6
CONTINUOUS
 10
37.5868114878
 20
-36.516883888
 11
36.526151316
 21
-37.129295778
  0
LINE
  5
2BA
100
AcDbEntity
  8
ASSI
100
AcDbLine
 62
7
  6
CONTINUOUS
 10
84.0273116955
 20
-9.9965694847
 11
82.9666515237
 21
-10.6089813747
  0
LINE
  5
2BB
100
AcDbEntity
  8
ASSI
100
AcDbLine
 62
7
  6
CONTINUOUS
 10
87.478257844
 20
-15.7054747199
 11
87.8469459443
 21
-15.5916913506
  0
LWPOLYLINE
  5
2BC
100
AcDbEntity
  8
ASSI
100
AcDbPolyline
 62
7
  6
CONTINUOUS
 90
7
 70
0
 10
37.4655877848
 20
-90.8697712317
 10
37.3703190373
 20
-90.8875129046
 10
37.2781736123
 20
-90.9113884849
 10
37.1891515098
 20
-90.9413979726
 10
37.1031044132
 20
-90.9776187794
 10
37.020180639
 20
-91.0199734936
 10
37.0046540495
 20
-91.0287880018
  0
LINE
  5
2BD
100
AcDbEntity
  8
0
100
AcDbLine
 62
7
  6
CONTINUOUS
 10
98.3424222959
 20
-113.4452896845
 11
97.7689678888
 21
-113.1141842969
  0
LINE
  5
2BE
100
AcDbEntity
  8
0
100
AcDbLine
 62
7
  6
CONTINUOUS
 10
95.51835802
 20
-111.8078893037
 11
95.5297777945
 21
-111.8144829384
  0
LINE
  5
2BF
100
AcDbEntity
  8
0
100
AcDbLine
 62
7
  6
CONTINUOUS
 10
96.2180861419
 20
-112.2119035516
 11
96.2295059164
 21
-112.2184971863
  0
LINE
  5
2C0
100
AcDbEntity
  8
0
100
AcDbLine
 62
7
  6
CONTINUOUS
 10
96.6091451833
 20
-112.437696141
 11
96.6758218535
 21
-112.4761944147
  0
LINE
  5
2C1
100
AcDbEntity
  8
0
100
AcDbLine
 62
7
  6
CONTINUOUS
 10
97.7575474071
 20
-113.1007691922
 11
97.7719215903
 21
-113.1090686654
  0
LINE
  5
2C2
100
AcDbEntity
  8
0
100
AcDbLine
 62
7
  6
CONTINUOUS
 10
98.7423611842
 20
-113.6693883245
 11
98.7537809588
 21
-113.6759819592
  0
LINE
  5
2C3
100
AcDbEntity
  8
0
100
AcDbLine
 62
7
  6
CONTINUOUS
 10
96.7432571767
 20
-112.2982487287
 11
97.1970054769
 21
-112.5602373104
  0
LINE
  5
2C4
100
AcDbEntity
  8
0
100
AcDbLine
 62
7
  6
CONTINUOUS
 10
97.1420781292
 20
-112.3720341727
 11
96.7904226133
 21
-112.1689926851
  0
LINE
  5
2C5
100
AcDbEntity
  8
0
100
AcDbLine
 62
7
  6
CONTINUOUS
 10
97.1450318308
 20
-112.3669185412
 11
97.3054256459
 21
-112.4595279199
  0
LINE
  5
2C6
100
AcDbEntity
  8
0
100
AcDbLine
 62
7
  6
CONTINUOUS
 10
95.6939630394
 20
-110.9230541992
 11
96.0766647857
 21
-111.1440213911
  0
LINE
  5
2C7
100
AcDbEntity
  8
0
100
AcDbLine
 62
7
  6
CONTINUOUS
 10
96.2295059164
 20
-111.2322699445
 11
96.6125060618
 21
-111.4534094283
  0
LINE
  5
2C8
100
AcDbEntity
  8
0
100
AcDbLine
 62
7
  6
CONTINUOUS
 10
99.1806634439
 20
-112.7793979881
 11
99.0012534829
 21
-112.6758089252
  0
LINE
  5
2C9
100
AcDbEntity
  8
0
100
AcDbLine
 62
7
  6
CONTINUOUS
 10
98.3519746014
 20
-112.3009234364
 11
98.1740573429
 21
-112.1981962411
  0
LINE
  5
2CA
100
AcDbEntity
  8
0
100
AcDbLine
 62
7
  6
CONTINUOUS
 10
97.7689678888
 20
-111.9643026673
 11
97.6161260509
 21
-111.8760537056
  0
LINE
  5
2CB
100
AcDbEntity
  8
0
100
AcDbLine
 62
7
  6
CONTINUOUS
 10
97.066254362
 20
-111.558564684
 11
96.8931136098
 21
-111.4585953836
  0
LINE
  5
2CC
100
AcDbEntity
  8
0
100
AcDbLine
 62
7
  6
CONTINUOUS
 10
96.6125060618
 20
-111.2965761023
 11
95.6939630394
 21
-110.7662208731
  0
LINE
  5
2CD
100
AcDbEntity
  8
0
100
AcDbLine
 62
7
  6
CONTINUOUS
 10
95.5297777945
 20
-110.6714223705
 11
95.3769366638
 21
-110.5831738171
  0
LINE
  5
2CE
100
AcDbEntity
  8
0
100
AcDbLine
 62
7
  6
CONTINUOUS
 10
94.0706176967
 20
-108.9809878422
 11
94.2183846292
 21
-109.0663066171
  0
LINE
  5
2CF
100
AcDbEntity
  8
0
100
AcDbLine
 62
7
  6
CONTINUOUS
 10
94.5369044143
 20
-109.250215949
 11
94.6882535498
 21
-109.337603043
  0
LINE
  5
2D0
100
AcDbEntity
  8
0
100
AcDbLine
 62
7
  6
CONTINUOUS
 10
95.0064742287
 20
-109.5213396747
 11
95.1542411612
 21
-109.6066584496
  0
LINE
  5
2D1
100
AcDbEntity
  8
0
100
AcDbLine
 62
7
  6
CONTINUOUS
 10
95.2897687824
 20
-109.6849103995
 11
95.4473871266
 21
-109.775917256
  0
LINE
  5
2D2
100
AcDbEntity
  8
0
100
AcDbLine
 62
7
  6
CONTINUOUS
 10
96.1312937343
 20
-110.17079636
 11
96.2981652778
 21
-110.2671458978
  0
LINE
  5
2D3
100
AcDbEntity
  8
0
100
AcDbLine
 62
7
  6
CONTINUOUS
 10
96.4462306093
 20
-110.3526369645
 11
96.9047525822
 21
-110.6173818051
  0
LINE
  5
2D4
100
AcDbEntity
  8
0
100
AcDbLine
 62
7
  6
CONTINUOUS
 10
97.5916474283
 20
-111.0139862804
 11
98.4266047724
 21
-111.4960801864
  0
LINE
  5
2D5
100
AcDbEntity
  8
0
100
AcDbLine
 62
7
  6
CONTINUOUS
 10
99.0490164247
 20
-111.8554528737
 11
99.2018582625
 21
-111.9437018354
  0
LINE
  5
2D6
100
AcDbEntity
  8
0
100
AcDbLine
 62
7
  6
CONTINUOUS
 10
99.4633604924
 20
-112.0946899455
 11
99.6114258239
 21
-112.1801810122
  0
LINE
  5
2D7
100
AcDbEntity
  8
0
100
AcDbLine
 62
7
  6
CONTINUOUS
 10
100.1896567374
 20
-112.5140442947
 11
100.3616038933
 21
-112.6133244276
  0
LINE
  5
2D8
100
AcDbEntity
  8
0
100
AcDbLine
 62
7
  6
CONTINUOUS
 10
96.8841609803
 20
-110.4545181368
 11
96.5993708463
 21
-110.2900838827
  0
LINE
  5
2D9
100
AcDbEntity
  8
0
100
AcDbLine
 62
7
  6
CONTINUOUS
 10
98.4266047724
 20
-111.3395914108
 11
97.7444892662
 21
-110.9457464664
  0
LINE
  5
2DA
100
AcDbEntity
  8
0
100
AcDbLine
 62
7
  6
CONTINUOUS
 10
94.2120390529
 20
-108.8993329235
 11
94.2183846292
 21
-108.9029967797
  0
LINE
  5
2DB
100
AcDbEntity
  8
0
100
AcDbLine
 62
7
  6
CONTINUOUS
 10
94.6783257706
 20
-109.1685610303
 11
94.7356206763
 21
-109.2016423909
  0
LINE
  5
2DC
100
AcDbEntity
  8
0
100
AcDbLine
 62
7
  6
CONTINUOUS
 10
95.1478955849
 20
-109.4396847561
 11
95.1542411612
 21
-109.4433486123
  0
LINE
  5
2DD
100
AcDbEntity
  8
0
100
AcDbLine
 62
7
  6
CONTINUOUS
 10
95.4311901387
 20
-109.6032554809
 11
95.4981652079
 21
-109.6419260465
  0
LINE
  5
2DE
100
AcDbEntity
  8
0
100
AcDbLine
 62
7
  6
CONTINUOUS
 10
96.5876519656
 20
-110.2709820459
 11
96.5993708463
 21
-110.2777483807
  0
LINE
  5
2DF
100
AcDbEntity
  8
0
100
AcDbLine
 62
7
  6
CONTINUOUS
 10
96.9757292438
 20
-110.4950530026
 11
97.0461739458
 21
-110.5357268906
  0
LINE
  5
2E0
100
AcDbEntity
  8
0
100
AcDbLine
 62
7
  6
CONTINUOUS
 10
97.7330687846
 20
-110.9323313617
 11
97.7474429677
 21
-110.9406308349
  0
LINE
  5
2E1
100
AcDbEntity
  8
0
100
AcDbLine
 62
7
  6
CONTINUOUS
 10
99.1904377809
 20
-111.7737979551
 11
99.2018582625
 21
-111.780391998
  0
LINE
  5
2E2
100
AcDbEntity
  8
0
100
AcDbLine
 62
7
  6
CONTINUOUS
 10
99.6047818486
 20
-112.0130350268
 11
99.6114258239
 21
-112.0168711749
  0
LINE
  5
2E3
100
AcDbEntity
  8
0
100
AcDbLine
 62
7
  6
CONTINUOUS
 10
100.3310780936
 20
-112.432389376
 11
100.3616038933
 21
-112.4500145902
  0
LINE
  5
2E4
100
AcDbEntity
  8
0
100
AcDbLine
 62
7
  6
CONTINUOUS
 10
95.5656005312
 20
-109.4639803605
 11
96.0193488313
 21
-109.7259689422
  0
LINE
  5
2E5
100
AcDbEntity
  8
0
100
AcDbLine
 62
7
  6
CONTINUOUS
 10
95.9641230846
 20
-109.5375935126
 11
95.6130650738
 21
-109.334897017
  0
LINE
  5
2E6
100
AcDbEntity
  8
0
100
AcDbLine
 62
7
  6
CONTINUOUS
 10
95.9670767861
 20
-109.5324778811
 11
96.1277240471
 21
-109.6252335962
  0
LINE
  5
2E7
100
AcDbEntity
  8
0
100
AcDbLine
 62
7
  6
CONTINUOUS
 10
97.7444892662
 20
-110.509370047
 11
98.3636171146
 21
-110.8668467071
  0
LINE
  5
2E8
100
AcDbEntity
  8
0
100
AcDbLine
 62
7
  6
CONTINUOUS
 10
98.3636171146
 20
-110.7103579315
 11
97.7444892662
 21
-110.3528812714
  0
LINE
  5
2E9
100
AcDbEntity
  8
0
100
AcDbLine
 62
7
  6
CONTINUOUS
 10
97.7444892662
 20
-109.9526981629
 11
98.4158581636
 21
-110.34033815
  0
LINE
  5
2EA
100
AcDbEntity
  8
0
100
AcDbLine
 62
7
  6
CONTINUOUS
 10
96.5993708463
 20
-109.2860058822
 11
96.8841573303
 21
-109.4504380289
  0
LINE
  5
2EB
100
AcDbEntity
  8
0
100
AcDbLine
 62
7
  6
CONTINUOUS
 10
100.3616038933
 20
-111.3072985728
 11
100.2132394556
 21
-111.2216348059
  0
LINE
  5
2EC
100
AcDbEntity
  8
0
100
AcDbLine
 62
7
  6
CONTINUOUS
 10
99.6445615548
 20
-110.8932873132
 11
99.4633604924
 21
-110.7886640907
  0
LINE
  5
2ED
100
AcDbEntity
  8
0
100
AcDbLine
 62
7
  6
CONTINUOUS
 10
99.2018582625
 20
-110.6376759806
 11
99.0490164247
 21
-110.549427019
  0
LINE
  5
2EE
100
AcDbEntity
  8
0
100
AcDbLine
 62
7
  6
CONTINUOUS
 10
98.4158581636
 20
-110.1838493744
 11
97.5916474283
 21
-109.7079604256
  0
LINE
  5
2EF
100
AcDbEntity
  8
0
100
AcDbLine
 62
7
  6
CONTINUOUS
 10
96.9047564831
 20
-109.3113582026
 11
96.4462306093
 21
-109.0466111098
  0
LINE
  5
2F0
100
AcDbEntity
  8
0
100
AcDbLine
 62
7
  6
CONTINUOUS
 10
95.8885977164
 20
-108.7246408662
 11
95.7154569642
 21
-108.6246715658
  0
LINE
  5
2F1
100
AcDbEntity
  8
0
100
AcDbLine
 62
7
  6
CONTINUOUS
 10
95.1542411612
 20
-108.3006325949
 11
94.9369196702
 21
-108.1751538896
  0
LINE
  5
2F2
100
AcDbEntity
  8
0
100
AcDbLine
 62
7
  6
CONTINUOUS
 10
94.2894325972
 20
-107.8013029686
 11
94.0706176967
 21
-107.6749619874
  0
LINE
  5
2F3
100
AcDbEntity
  8
ASSI
100
AcDbLine
 62
7
  6
CONTINUOUS
 10
20.4950219842
 20
-66.9233816912
 11
20.4334238651
 21
-66.8857275381
  0
LINE
  5
2F4
100
AcDbEntity
  8
ASSI
100
AcDbLine
 62
7
  6
CONTINUOUS
 10
105.3478357266
 20
-115.9163328906
 11
105.2862376075
 21
-115.8786787374
  0
LWPOLYLINE
  5
2F5
100
AcDbEntity
  8
0
100
AcDbPolyline
 62
7
  6
CONTINUOUS
 90
39
 70
0
 10
96.8841573303
 20
-109.4504380289
 10
96.9119422483
 20
-109.4676417886
 10
96.9383809465
 20
-109.4858774769
 10
96.9634734249
 20
-109.5051450937
 10
96.9871636428
 20
-109.5254839141
 10
97.0095076409
 20
-109.5468546631
 10
97.0306735419
 20
-109.5691395158
 10
97.0506879151
 20
-109.5922839145
 10
97.0695241911
 20
-109.6163424169
 10
97.0872707848
 20
-109.6413608715
 10
97.1039502857
 20
-109.6673162575
 10
97.1195401043
 20
-109.6942315957
 10
97.1340608866
 20
-109.7222217962
 10
97.1474961723
 20
-109.7512719686
 10
97.1598624217
 20
-109.7813970033
 10
97.1712296622
 20
-109.8127564822
 10
97.1816803692
 20
-109.8453598681
 10
97.1911320673
 20
-109.8791976981
 10
97.199407358
 20
-109.9144011657
 10
97.2064758041
 20
-109.9511874218
 10
97.2123678428
 20
-109.9893393155
 10
97.216997387
 20
-110.0283365867
 10
97.2203916916
 20
-110.0685731977
 10
97.2225235017
 20
-110.1096551863
 10
97.2232249661
 20
-110.1498804061
 10
97.2223747798
 20
-110.1891627938
 10
97.2200942478
 20
-110.2275884127
 10
97.216579434
 20
-110.2637133067
 10
97.2118855542
 20
-110.2971975346
 10
97.2059573925
 20
-110.3283810377
 10
97.1988253657
 20
-110.3568396838
 10
97.1904271267
 20
-110.3823157327
 10
97.1808250225
 20
-110.4050669247
 10
97.1702365103
 20
-110.425442348
 10
97.1587626344
 20
-110.4435547058
 10
97.1463023506
 20
-110.4592912949
 10
97.1327699828
 20
-110.4726630947
 10
97.1181266588
 20
-110.4836113858
 10
97.1131033569
 20
-110.4866697697
  0
LINE
  5
2F6
100
AcDbEntity
  8
0
100
AcDbLine
 62
7
  6
CONTINUOUS
 10
96.932521182
 20
-109.3293701842
 11
96.9047564831
 21
-109.3113582026
  0
LWPOLYLINE
  5
2F7
100
AcDbEntity
  8
ASSI
100
AcDbPolyline
 62
7
  6
CONTINUOUS
 90
27
 70
0
 10
105.2862376075
 20
-115.8786787374
 10
105.2246364363
 20
-115.8368880459
 10
105.1636570727
 20
-115.7913845204
 10
105.1033058144
 20
-115.742130557
 10
105.0435763637
 20
-115.6891637597
 10
104.9850716347
 20
-115.63301878
 10
104.9278040317
 20
-115.5736634287
 10
104.8717611505
 20
-115.511129895
 10
104.8175086928
 20
-115.4460493978
 10
104.7650647922
 20
-115.378396141
 10
104.7144113152
 20
-115.3081959207
 10
104.6660595622
 20
-115.2361573439
 10
104.6200328454
 20
-115.1622617916
 10
104.5763078528
 20
-115.0865278828
 10
104.535325948
 20
-115.0097200823
 10
104.4971149137
 20
-114.9318275133
 10
104.4616469672
 20
-114.8528610526
 10
104.4292801251
 20
-114.7736177944
 10
104.400045796
 20
-114.6940949352
 10
104.3739125713
 20
-114.6142952784
 10
104.3511442421
 20
-114.5350243288
 10
104.3317748885
 20
-114.4562874412
 10
104.3157704304
 20
-114.3780792606
 10
104.3032924182
 20
-114.3011892273
 10
104.2943947019
 20
-114.225880488
 10
104.2890234315
 20
-114.1518898959
 10
104.2871786069
 20
-114.0792174511
  0
LWPOLYLINE
  5
2F8
100
AcDbEntity
  8
ASSI
100
AcDbPolyline
 62
7
  6
CONTINUOUS
 90
41
 70
0
 10
3.8022215115
 20
-1.9694251238
 10
3.8758132878
 20
-2.1309374056
 10
3.9535929207
 20
-2.2905288425
 10
4.0355604102
 20
-2.4481994342
 10
4.1218954756
 20
-2.6042551919
 10
4.2124183975
 20
-2.7583901045
 10
4.3065900183
 20
-2.9096861391
 10
4.4044321131
 20
-3.0581263537
 10
4.5059229067
 20
-3.2037276902
 10
4.6104579166
 20
-3.3456229422
 10
4.7180553101
 20
-3.483789992
 10
4.8286969199
 20
-3.6182509571
 10
4.9417237605
 20
-3.7482049834
 10
5.0571500669
 20
-3.873625174
 10
5.1749616041
 20
-3.9945384257
 10
5.2944566825
 20
-4.110224575
 10
5.4156453494
 20
-4.2206524272
 10
5.5385175576
 20
-4.325853177
 10
5.6623414758
 20
-4.425200245
 10
5.7871227839
 20
-4.5186586972
 10
5.912855802
 20
-4.6062634676
 10
6.0387916599
 20
-4.6874927792
 10
6.1649315682
 20
-4.7623085839
 10
6.2912743164
 20
-4.8307489299
 10
6.4170674025
 20
-4.8924061839
 10
6.5423075464
 20
-4.9472398653
 10
6.6669980282
 20
-4.9952904548
 10
6.7903961872
 20
-5.0362717614
 10
6.9124943109
 20
-5.0701415964
 10
7.0333001118
 20
-5.0969421484
 10
7.1520940662
 20
-5.1165137926
 10
7.2688641677
 20
-5.1288133875
 10
7.3836224227
 20
-5.1338840745
 10
7.4956853272
 20
-5.1316956524
 10
7.6050367955
 20
-5.1222047996
 10
7.7116929131
 20
-5.1054548377
 10
7.8150184326
 20
-5.08154553
 10
7.9149934773
 20
-5.0504341504
 10
8.0116379238
 20
-5.0121634251
 10
8.1043761544
 20
-4.9669612957
 10
8.1407824912
 20
-4.9466878396
  0
LWPOLYLINE
  5
2F9
100
AcDbEntity
  8
ASSI
100
AcDbPolyline
 62
7
  6
CONTINUOUS
 90
35
 70
0
 10
4.8628816832
 20
-1.3570132338
 10
4.9364734596
 20
-1.5185255156
 10
5.0142530925
 20
-1.6781169525
 10
5.096220582
 20
-1.8357875442
 10
5.1825556473
 20
-1.9918433019
 10
5.2730785693
 20
-2.1459782145
 10
5.3672501901
 20
-2.2972742491
 10
5.4650922849
 20
-2.4457144637
 10
5.5665830785
 20
-2.5913158002
 10
5.6711180884
 20
-2.7332110522
 10
5.7787154819
 20
-2.871378102
 10
5.8893570917
 20
-3.0058390671
 10
6.0023839323
 20
-3.1357930934
 10
6.1178102386
 20
-3.261213284
 10
6.2356217758
 20
-3.3821265357
 10
6.3551168543
 20
-3.497812685
 10
6.4763055212
 20
-3.6082405372
 10
6.5991777294
 20
-3.713441287
 10
6.7230016476
 20
-3.812788355
 10
6.8477829556
 20
-3.9062468072
 10
6.9735159738
 20
-3.9938515776
 10
7.0994518317
 20
-4.0750808892
 10
7.22559174
 20
-4.1498966939
 10
7.3519344882
 20
-4.2183370399
 10
7.4777275743
 20
-4.2799942939
 10
7.6029677182
 20
-4.3348279753
 10
7.7276582
 20
-4.3828785648
 10
7.851056359
 20
-4.4238598714
 10
7.9731544827
 20
-4.4577297064
 10
8.0939602835
 20
-4.4845302584
 10
8.2127542379
 20
-4.5041019026
 10
8.3295243394
 20
-4.5164014975
 10
8.4442825945
 20
-4.5214721845
 10
8.5563454989
 20
-4.5192837624
 10
8.5990565643
 20
-4.5155767757
  0
LWPOLYLINE
  5
2FA
100
AcDbEntity
  8
ASSI
100
AcDbPolyline
 62
7
  6
CONTINUOUS
 90
22
 70
0
 10
41.5163170669
 20
-95.4719138981
 10
41.5016762236
 20
-95.3327491137
 10
41.4822932698
 20
-95.1921632871
 10
41.4581682053
 20
-95.0501564185
 10
41.4292392644
 20
-94.9064628172
 10
41.3955682128
 20
-94.7613481738
 10
41.3573403487
 20
-94.6156095599
 10
41.3145308163
 20
-94.4692435758
 10
41.2671644714
 20
-94.3222536213
 10
41.2155011791
 20
-94.1754469671
 10
41.1595174761
 20
-94.0288245513
 10
41.0992368258
 20
-93.882385436
 10
41.0349894832
 20
-93.736934078
 10
40.9667527267
 20
-93.5924741752
 10
40.8945492781
 20
-93.4490020298
 10
40.8187775575
 20
-93.3073110059
 10
40.7394220552
 20
-93.1674168743
 10
40.6564982811
 20
-93.0293038643
 10
40.5704511845
 20
-92.8937180272
 10
40.481429082
 20
-92.7609080468
 10
40.389283657
 20
-92.6306252395
 10
40.2940149095
 20
-92.502869605
  0
LWPOLYLINE
  5
2FB
100
AcDbEntity
  8
0
100
AcDbPolyline
 62
7
  6
CONTINUOUS
 90
44
 70
0
 10
37.4655877848
 20
-39.9809297059
 10
37.4672389645
 20
-40.0496873244
 10
37.4720609719
 20
-40.1196647864
 10
37.480053807
 20
-40.1908620919
 10
37.4912609151
 20
-40.2635024215
 10
37.5056388509
 20
-40.3373625947
 10
37.5230572785
 20
-40.4117730696
 10
37.5435438435
 20
-40.4867388499
 10
37.5670709004
 20
-40.562254932
 10
37.5934251765
 20
-40.6376367634
 10
37.6226323784
 20
-40.7128831233
 10
37.6546667995
 20
-40.7879952325
 10
37.6892380483
 20
-40.8622922004
 10
37.7263691907
 20
-40.9357666154
 10
37.7660371606
 20
-41.0084258892
 10
37.8078823684
 20
-41.0796113661
 10
37.8519246106
 20
-41.1493096457
 10
37.8981440905
 20
-41.2175341284
 10
37.9461218292
 20
-41.28366636
 10
37.9958738135
 20
-41.3476873168
 10
38.0473840565
 20
-41.4096160225
 10
38.1001856184
 20
-41.468891094
 10
38.1542902405
 20
-41.5254884031
 10
38.2096861814
 20
-41.5794320781
 10
38.2658712776
 20
-41.63023312
 10
38.3228527043
 20
-41.6778629545
 10
38.3806232863
 20
-41.7223501559
 10
38.4386593338
 20
-41.7632914482
 10
38.4969632605
 20
-41.8006545903
 10
38.5555326526
 20
-41.8344718233
 10
38.6138365793
 20
-41.8644365942
 10
38.6718726268
 20
-41.8905138748
 10
38.7296432087
 20
-41.9127386934
 10
38.7866246355
 20
-41.9309095823
 10
38.8428097317
 20
-41.9449896811
 10
38.8982056726
 20
-41.9550158502
 10
38.9523102947
 20
-41.9608972024
 10
39.0051118566
 20
-41.9625960511
 10
39.0566220996
 20
-41.9601500829
 10
39.1063740839
 20
-41.9535814705
 10
39.1543518226
 20
-41.9428527289
 10
39.2005713025
 20
-41.9280013431
 10
39.2446135446
 20
-41.9091619407
 10
39.2762237716
 20
-41.8923766159
  0
LWPOLYLINE
  5
2FC
100
AcDbEntity
  8
0
100
AcDbPolyline
 62
7
  6
CONTINUOUS
 90
28
 70
0
 10
38.5262479565
 20
-39.3685178159
 10
38.5278991363
 20
-39.4372754344
 10
38.5327211437
 20
-39.5072528964
 10
38.5407139788
 20
-39.5784502019
 10
38.5519210869
 20
-39.6510905315
 10
38.5662990227
 20
-39.7249507047
 10
38.5837174503
 20
-39.7993611796
 10
38.6042040153
 20
-39.8743269599
 10
38.6277310721
 20
-39.949843042
 10
38.6540853483
 20
-40.0252248734
 10
38.6832925501
 20
-40.1004712333
 10
38.7153269713
 20
-40.1755833425
 10
38.7498982201
 20
-40.2498803104
 10
38.7870293624
 20
-40.3233547254
 10
38.8266973324
 20
-40.3960139992
 10
38.8685425402
 20
-40.4671994761
 10
38.9125847823
 20
-40.5368977557
 10
38.9588042623
 20
-40.6051222384
 10
39.006782001
 20
-40.67125447
 10
39.0565339853
 20
-40.7352754268
 10
39.1080442283
 20
-40.7972041325
 10
39.1608457902
 20
-40.856479204
 10
39.2149504123
 20
-40.9130765131
 10
39.2703463532
 20
-40.9670201881
 10
39.3265314494
 20
-41.01782123
 10
39.3835128761
 20
-41.0654510645
 10
39.4412834581
 20
-41.1099382659
 10
39.4993195056
 20
-41.1508795582
  0
LWPOLYLINE
  5
2FD
100
AcDbEntity
  8
0
100
AcDbPolyline
 62
7
  6
CONTINUOUS
 90
44
 70
0
 10
39.5869081283
 20
-41.2057534859
 10
39.5852569486
 20
-41.1369958674
 10
39.5804349412
 20
-41.0670184054
 10
39.572442106
 20
-40.9958210999
 10
39.561234998
 20
-40.9231807703
 10
39.5468570622
 20
-40.8493205972
 10
39.5294386346
 20
-40.7749101223
 10
39.5089520696
 20
-40.699944342
 10
39.4854250127
 20
-40.6244282599
 10
39.4590707366
 20
-40.5490464285
 10
39.4298635347
 20
-40.4738000686
 10
39.3978291136
 20
-40.3986879594
 10
39.3632578648
 20
-40.3243909914
 10
39.3261267224
 20
-40.2509165764
 10
39.2864587525
 20
-40.1782573027
 10
39.2446135446
 20
-40.1070718258
 10
39.2005713025
 20
-40.0373735462
 10
39.1543518226
 20
-39.9691490635
 10
39.1063740839
 20
-39.9030168318
 10
39.0566220996
 20
-39.838995875
 10
39.0051118566
 20
-39.7770671694
 10
38.9523102947
 20
-39.7177920979
 10
38.8982056726
 20
-39.6611947887
 10
38.8428097317
 20
-39.6072511138
 10
38.7866246355
 20
-39.5564500719
 10
38.7296432087
 20
-39.5088202374
 10
38.6718726268
 20
-39.464333036
 10
38.6138365793
 20
-39.4233917437
 10
38.5555326526
 20
-39.3860286016
 10
38.4969632605
 20
-39.3522113686
 10
38.4386593338
 20
-39.3222465976
 10
38.3806232863
 20
-39.296169317
 10
38.3228527043
 20
-39.2739444984
 10
38.2658712776
 20
-39.2557736096
 10
38.2096861814
 20
-39.2416935108
 10
38.1542902405
 20
-39.2316673417
 10
38.1001856184
 20
-39.2257859895
 10
38.0473840565
 20
-39.2240871408
 10
37.9958738135
 20
-39.226533109
 10
37.9461218292
 20
-39.2331017213
 10
37.8981440905
 20
-39.2438304629
 10
37.8519246106
 20
-39.2586818488
 10
37.8078823684
 20
-39.2775212511
 10
37.7762721415
 20
-39.294306576
  0
LINE
  5
2FE
100
AcDbEntity
  8
ASSI
100
AcDbLine
 62
7
  6
CONTINUOUS
 10
37.3595217676
 20
8.6602929522
 11
37.3595217676
 21
7.3319407138
  0
LINE
  5
2FF
100
AcDbEntity
  8
ASSI
100
AcDbLine
 62
7
  6
CONTINUOUS
 10
37.4655877848
 20
-88.5609111751
 11
37.4655877848
 21
-90.8697712317
  0
LINE
  5
300
100
AcDbEntity
  8
ASSI
100
AcDbLine
 62
7
  6
CONTINUOUS
 10
38.4201819394
 20
9.2727048422
 11
38.4201819394
 21
7.9443526038
  0
LINE
  5
301
100
AcDbEntity
  8
ASSI
100
AcDbLine
 62
7
  6
CONTINUOUS
 10
40.2940149095
 20
-92.502869605
 11
40.2940149095
 21
-90.1940095484
  0
LINE
  5
302
100
AcDbEntity
  8
ASSI
100
AcDbLine
 62
7
  6
CONTINUOUS
 10
40.4000809267
 20
6.9047122009
 11
40.4000809267
 21
5.5763599625
  0
LINE
  5
303
100
AcDbEntity
  8
ASSI
100
AcDbLine
 62
7
  6
CONTINUOUS
 10
41.3546750813
 20
-91.890457715
 11
41.3546750813
 21
-90.8064214384
  0
LWPOLYLINE
  5
304
100
AcDbEntity
  8
RACCORDO
100
AcDbPolyline
 62
7
  6
CONTINUOUS
 90
4
 70
0
 10
40.7341881731
 20
-43.909354297
 10
40.7797256856
 20
-43.8732743688
 10
40.8276363108
 20
-43.8415273795
 10
40.8382488282
 20
-43.8352666878
  0
LWPOLYLINE
  5
305
100
AcDbEntity
  8
ASSI
100
AcDbPolyline
 62
7
  6
CONTINUOUS
 90
16
 70
0
 10
82.9666518232
 20
-10.6089812019
 10
82.8839522398
 20
-10.6611707413
 10
82.8049854689
 20
-10.7200508982
 10
82.7303318123
 20
-10.7852055345
 10
82.6600176601
 20
-10.8566730569
 10
82.5940166222
 20
-10.9344150587
 10
82.5327323929
 20
-11.0179564349
 10
82.4761938312
 20
-11.1073326926
 10
82.424372078
 20
-11.2025083247
 10
82.3775842507
 20
-11.3029017047
 10
82.3358611495
 20
-11.4085447906
 10
82.2991719742
 20
-11.5194056244
 10
82.2677414405
 20
-11.634806706
 10
82.2416444536
 20
-11.7545222022
 10
82.2208061083
 20
-11.8787779462
 10
82.2052264045
 20
-12.007573938
  0
LWPOLYLINE
  5
306
100
AcDbEntity
  8
0
100
AcDbPolyline
 62
7
  6
CONTINUOUS
 90
16
 70
0
 10
37.7762721415
 20
-39.294306576
 10
37.7660371606
 20
-39.3003849309
 10
37.7263691907
 20
-39.3272366273
 10
37.6892380483
 20
-39.3578329298
 10
37.6546667995
 20
-39.3922078862
 10
37.6226323784
 20
-39.4303274488
 10
37.5934251765
 20
-39.4718460642
 10
37.5670709004
 20
-39.516794638
 10
37.5435438435
 20
-39.5651422646
 10
37.5230572785
 20
-39.6164506731
 10
37.5056388509
 20
-39.6707467844
 10
37.4912609151
 20
-39.7280036777
 10
37.480053807
 20
-39.7877023199
 10
37.4720609719
 20
-39.8496696997
 10
37.4672389645
 20
-39.9140788284
 10
37.4655877848
 20
-39.9809297059
  0
LWPOLYLINE
  5
307
100
AcDbEntity
  8
0
100
AcDbPolyline
 62
7
  6
CONTINUOUS
 90
16
 70
0
 10
39.2762237716
 20
-41.8923766159
 10
39.2864587525
 20
-41.8862982609
 10
39.3261267224
 20
-41.8594465646
 10
39.3632578648
 20
-41.8288502621
 10
39.3978291136
 20
-41.7944753056
 10
39.4298635347
 20
-41.756355743
 10
39.4590707366
 20
-41.7148371277
 10
39.4854250127
 20
-41.6698885539
 10
39.5089520696
 20
-41.6215409273
 10
39.5294386346
 20
-41.5702325187
 10
39.5468570622
 20
-41.5159364074
 10
39.561234998
 20
-41.4586795141
 10
39.572442106
 20
-41.398980872
 10
39.5804349412
 20
-41.3370134921
 10
39.5852569486
 20
-41.2726043634
 10
39.5869081283
 20
-41.2057534859
  0
LINE
  5
308
100
AcDbEntity
  8
ASSI
100
AcDbLine
 62
7
  6
CONTINUOUS
 10
81.8365383042
 20
-12.1213573073
 11
82.2181130997
 21
-11.9010408027
  0
LINE
  5
309
100
AcDbEntity
  8
ASSI
100
AcDbLine
 62
7
  6
CONTINUOUS
 10
84.8417421243
 20
-10.3865256526
 11
85.902402296
 21
-9.7741137626
  0
LINE
  5
30A
100
AcDbEntity
  8
ASSI
100
AcDbLine
 62
7
  6
CONTINUOUS
 10
86.1853066256
 20
-10.3631698097
 11
85.1246464538
 21
-10.9755816997
  0
LINE
  5
30B
100
AcDbEntity
  8
RACCORDO
100
AcDbLine
 62
253
  6
CONTINUOUS
 10
40.7341881731
 20
-39.827002913
 11
41.7948483449
 21
-39.214591023
  0
LINE
  5
30C
100
AcDbEntity
  8
RACCORDO
100
AcDbLine
 62
253
  6
CONTINUOUS
 10
41.8381582814
 20
-41.0767741251
 11
42.8988184532
 21
-40.4643622351
  0
LINE
  5
30D
100
AcDbEntity
  8
ASSI
100
AcDbLine
 62
7
  6
CONTINUOUS
 10
88.5389180158
 20
-14.4397443146
 11
87.478257844
 21
-15.0521562046
  0
LINE
  5
30E
100
AcDbEntity
  8
0
100
AcDbLine
 62
7
  6
CONTINUOUS
 10
64.1588687746
 20
-28.69381383
 11
63.0982086028
 21
-29.30622572
  0
LINE
  5
30F
100
AcDbEntity
  8
ASSI
100
AcDbLine
 62
7
  6
CONTINUOUS
 10
87.8469459443
 20
-15.5916913506
 11
88.9076061161
 21
-14.9792794606
  0
LWPOLYLINE
  5
310
100
AcDbEntity
  8
RACCORDO
100
AcDbPolyline
 62
7
  6
CONTINUOUS
 90
17
 70
0
 10
36.2142470849
 20
-37.3514165041
 10
36.1745758643
 20
-37.3725698629
 10
36.1217830138
 20
-37.3956973085
 10
36.0666170506
 20
-37.4144918153
 10
36.0094859744
 20
-37.4288143818
 10
35.9503752155
 20
-37.4386318524
 10
35.8892993437
 20
-37.4439773827
 10
35.8267100674
 20
-37.4448114378
 10
35.762596166
 20
-37.4411005692
 10
35.6969688603
 20
-37.4328782254
 10
35.6303135204
 20
-37.4202052178
 10
35.5626225244
 20
-37.4030485486
 10
35.4939034943
 20
-37.3814412155
 10
35.4246646663
 20
-37.3555430235
 10
35.3550754526
 20
-37.3254072406
 10
35.2849664411
 20
-37.2909805988
 10
35.2143376317
 20
-37.2522630979
  0
LWPOLYLINE
  5
311
100
AcDbEntity
  8
0
100
AcDbPolyline
 62
7
  6
CONTINUOUS
 90
28
 70
0
 10
86.6095090772
 20
-94.8911795732
 10
87.239556673
 20
-95.245394453
 10
87.8683123877
 20
-95.5799057235
 10
88.4957762215
 20
-95.8947133846
 10
89.1223762412
 20
-96.1900061192
 10
89.7476843799
 20
-96.4655952445
 10
90.3704164366
 20
-96.7209147115
 10
90.9905671195
 20
-96.9559228634
 10
91.6081417205
 20
-97.1706613571
 10
92.2218719141
 20
-97.3646891147
 10
92.8317498017
 20
-97.5379635724
 10
93.4377832819
 20
-97.690527294
 10
94.0387277256
 20
-97.8220668933
 10
94.6345726758
 20
-97.932539162
 10
95.2253285896
 20
-98.0219873083
 10
95.8097822084
 20
-98.0902275709
 10
96.3879205816
 20
-98.1372163636
 10
96.9597566598
 20
-98.1629972725
 10
97.5241160367
 20
-98.1675172953
 10
98.0809833476
 20
-98.1507327363
 10
98.6303739571
 20
-98.1126872911
 10
99.1711595524
 20
-98.0534590437
 10
99.7033224497
 20
-97.9730044587
 10
100.2268803328
 20
-97.8713670715
 10
100.7407579399
 20
-97.7487555717
 10
101.2449353772
 20
-97.6051268528
 10
101.7394325386
 20
-97.4405240213
 10
102.2232338437
 20
-97.2552850865
  0
LINE
  5
312
100
AcDbEntity
  8
0
100
AcDbLine
 62
7
  6
CONTINUOUS
 10
85.5488489054
 20
-95.5035914632
 11
62.5678785169
 21
-82.23466718
  0
LINE
  5
313
100
AcDbEntity
  8
0
100
AcDbLine
 62
7
  6
CONTINUOUS
 10
61.1536649545
 20
-81.4181179934
 11
38.1726945659
 21
-68.1491937102
  0
LINE
  5
314
100
AcDbEntity
  8
0
100
AcDbLine
 62
7
  6
CONTINUOUS
 10
39.2333547377
 20
-67.5367818202
 11
60.8694344505
 21
-80.0291830826
  0
LINE
  5
315
100
AcDbEntity
  8
0
100
AcDbLine
 62
7
  6
CONTINUOUS
 10
63.342780831
 20
-81.4572622844
 11
86.6095090772
 21
-94.8911795732
  0
LWPOLYLINE
  5
316
100
AcDbEntity
  8
0
100
AcDbPolyline
 62
7
  6
CONTINUOUS
 90
61
 70
0
 10
38.1726945659
 20
-68.1491937102
 10
37.5544548918
 20
-67.7830195092
 10
36.9374366747
 20
-67.3992931314
 10
36.3216399146
 20
-66.9980145771
 10
35.7066600288
 20
-66.578895962
 10
35.0929016
 20
-66.1422251702
 10
34.4815783763
 20
-65.6888658542
 10
33.8726951801
 20
-65.2187849946
 10
33.2662471891
 20
-64.7320156108
 10
32.6634336845
 20
-64.2295204129
 10
32.0642618613
 20
-63.7112682867
 10
31.4687245244
 20
-63.1772903465
 10
30.8779993701
 20
-62.6286426446
 10
30.2920959233
 20
-62.0652961567
 10
29.7110046591
 20
-61.4872799072
 10
29.1358746987
 20
-60.895737022
 10
28.5667178406
 20
-60.2906407384
 10
28.0035222864
 20
-59.6720178192
 10
27.4474017625
 20
-59.0410916776
 10
26.8983702707
 20
-58.3978379719
 10
26.3564138092
 20
-57.7422810439
 10
25.8226040996
 20
-57.0757173325
 10
25.2969572637
 20
-56.3981250611
 10
24.7794571798
 20
-55.7095260064
 10
24.2711272039
 20
-55.0112819375
 10
23.7719854822
 20
-54.303373772
 10
23.2820138685
 20
-53.5858205923
 10
22.8021812797
 20
-52.8600414149
 10
22.3325077789
 20
-52.1260199647
 10
21.8729733031
 20
-51.3837725169
 10
21.4244865794
 20
-50.6347669123
 10
20.9870694689
 20
-49.8789897801
 10
20.5607001107
 20
-49.1164544913
 10
20.1462216492
 20
-48.3486689992
 10
19.7436576135
 20
-47.5756229164
 10
19.3529844746
 20
-46.7973266304
 10
18.97497479
 20
-46.0153192566
 10
18.6096536173
 20
-45.2295934529
 10
18.2569958991
 20
-44.4401565614
 10
17.9176990209
 20
-43.6485697248
 10
17.5917894199
 20
-42.8548286894
 10
17.279240659
 20
-42.0589377089
 10
16.9806708129
 20
-41.2624706871
 10
16.6961075412
 20
-40.465426484
 10
16.4255231842
 20
-39.6678062397
 10
16.1694528371
 20
-38.8711872773
 10
15.9279252182
 20
-38.0755715778
 10
15.7009116092
 20
-37.2809571603
 10
15.4888609496
 20
-36.4889154062
 10
15.2918028461
 20
-35.6994514049
 10
15.1097076921
 20
-34.9125600669
 10
14.942935607
 20
-34.1297975047
 10
14.79151691
 20
-33.3511718864
 10
14.6554212818
 20
-32.5766750438
 10
14.534917884
 20
-31.8078385847
 10
14.4300374656
 20
-31.0446696135
 10
14.3407492777
 20
-30.2871610257
 10
14.2672302342
 20
-29.5368231151
 10
14.2095393065
 20
-28.7941593129
 10
14.1676175233
 20
-28.0586661879
 10
14.1414648846
 20
-27.3303437401
  0
LINE
  5
317
100
AcDbEntity
  8
0
100
AcDbLine
 62
7
  6
CONTINUOUS
 10
96.9591960957
 20
-109.3475978589
 11
96.932521182
 21
-109.3293701842
  0
LINE
  5
318
100
AcDbEntity
  8
0
100
AcDbLine
 62
7
  6
CONTINUOUS
 10
25.120681879
 20
4.1486023213
 11
24.6050832019
 21
6.2269026079
  0
LINE
  5
319
100
AcDbEntity
  8
0
100
AcDbLine
 62
7
  6
CONTINUOUS
 10
24.3841123328
 20
6.3544884183
 11
24.9733680014
 21
3.9730838884
  0
LINE
  5
31A
100
AcDbEntity
  8
0
100
AcDbLine
 62
7
  6
CONTINUOUS
 10
24.5726786985
 20
6.245612562
 11
25.1147893576
 21
4.0547388071
  0
LWPOLYLINE
  5
31B
100
AcDbEntity
  8
ASSI
100
AcDbPolyline
 62
7
  6
CONTINUOUS
 90
16
 70
0
 10
42.5641120492
 20
-95.6193412417
 10
42.5614446934
 20
-95.6414263148
 10
42.5406337365
 20
-95.7655700491
 10
42.5145443679
 20
-95.8852517264
 10
42.4830848325
 20
-96.0007471487
 10
42.4463468854
 20
-96.111780514
 10
42.4046057916
 20
-96.2175244162
 10
42.3578723693
 20
-96.3178521266
 10
42.3061358004
 20
-96.4128903739
 10
42.2496388951
 20
-96.5021919386
 10
42.1882956522
 20
-96.5858040157
 10
42.1221920731
 20
-96.6636794101
 10
42.0518289721
 20
-96.7352293166
 10
41.9772512773
 20
-96.8003483773
 10
41.8984140607
 20
-96.85914195
 10
41.8155526471
 20
-96.9114127363
  0
LINE
  5
31C
100
AcDbEntity
  8
ASSI
100
AcDbLine
 62
7
  6
CONTINUOUS
 10
84.8417421243
 20
-10.3865256526
 11
84.5588377947
 21
-10.6488908712
  0
LWPOLYLINE
  5
31D
100
AcDbEntity
  8
ASSI
100
AcDbPolyline
 62
7
  6
CONTINUOUS
 90
17
 70
0
 10
86.7168894219
 20
-17.1040183497
 10
86.7807183346
 20
-17.0645764712
 10
86.8564900552
 20
-17.0103847309
 10
86.9286935039
 20
-16.9502913182
 10
86.9969302603
 20
-16.8846295113
 10
87.0611776029
 20
-16.8133693741
 10
87.1214582532
 20
-16.7365408428
 10
87.1774419562
 20
-16.6545670039
 10
87.2291052485
 20
-16.5674198247
 10
87.2764715934
 20
-16.475127338
 10
87.3192811258
 20
-16.3781967288
 10
87.3575089899
 20
-16.2766026942
 10
87.3911800415
 20
-16.1703705372
 10
87.4201089825
 20
-16.0600833518
 10
87.4442340469
 20
-15.9459355028
 10
87.4636170007
 20
-15.8277326255
 10
87.478257844
 20
-15.7054747199
  0
LWPOLYLINE
  5
31E
100
AcDbEntity
  8
ASSI
100
AcDbPolyline
 62
7
  6
CONTINUOUS
 90
17
 70
0
 10
87.7775536609
 20
-16.4915990355
 10
87.8413848538
 20
-16.4521603893
 10
87.9171415591
 20
-16.3979870182
 10
87.9893163165
 20
-16.3379212703
 10
88.0575392656
 20
-16.2722704995
 10
88.1218064863
 20
-16.200984331
 10
88.1821218987
 20
-16.1241131395
 10
88.2381274034
 20
-16.042115403
 10
88.2897835148
 20
-15.9549869238
 10
88.3371297185
 20
-15.8627318994
 10
88.3799263724
 20
-15.7658214014
 10
88.4181590937
 20
-15.6642077415
 10
88.4518422652
 20
-15.5579386079
 10
88.4807793926
 20
-15.4476281364
 10
88.5049049778
 20
-15.3334810388
 10
88.5242845188
 20
-15.2152926033
 10
88.5261735727
 20
-15.1995138307
  0
LWPOLYLINE
  5
31F
100
AcDbEntity
  8
RACCORDO
100
AcDbPolyline
 62
7
  6
CONTINUOUS
 90
4
 70
0
 10
40.5262487276
 20
-44.0574399104
 10
40.5753495302
 20
-44.027655129
 10
40.6565530653
 20
-43.9716688814
 10
40.7341881731
 20
-43.909354297
  0
LINE
  5
320
100
AcDbEntity
  8
ASSI
100
AcDbLine
 62
7
  6
CONTINUOUS
 10
87.7774928966
 20
-16.4916553932
 11
86.7168327248
 21
-17.1040672832
  0
LINE
  5
321
100
AcDbEntity
  8
RACCORDO
100
AcDbLine
 62
253
  6
CONTINUOUS
 10
40.9514038911
 20
-43.7839366637
 11
40.7341881731
 21
-43.909354297
  0
LINE
  5
322
100
AcDbEntity
  8
ASSI
100
AcDbLine
 62
7
  6
CONTINUOUS
 10
41.0459336116
 20
-43.7573832288
 11
40.5263445971
 21
-44.0573874138
  0
LINE
  5
323
100
AcDbEntity
  8
ASSI
100
AcDbLine
 62
7
  6
CONTINUOUS
 10
86.2559556866
 20
-19.5718951764
 11
87.3166158584
 21
-18.9594832864
  0
LWPOLYLINE
  5
324
100
AcDbEntity
  8
RACCORDO
100
AcDbPolyline
 62
7
  6
CONTINUOUS
 90
17
 70
0
 10
40.8382488282
 20
-43.8352666878
 10
40.8779200487
 20
-43.8141133289
 10
40.9307128993
 20
-43.7909858833
 10
40.9858788625
 20
-43.7721913765
 10
41.0430099387
 20
-43.75786881
 10
41.1021206976
 20
-43.7480513394
 10
41.1631965694
 20
-43.7427058092
 10
41.2257858457
 20
-43.741871754
 10
41.289899747
 20
-43.7455826227
 10
41.3555270528
 20
-43.7538049665
 10
41.4221823927
 20
-43.766477974
 10
41.4898733887
 20
-43.7836346433
 10
41.5585924188
 20
-43.8052419763
 10
41.6278312468
 20
-43.8311401684
 10
41.6974204605
 20
-43.8612759512
 10
41.767529472
 20
-43.8957025931
 10
41.8381582814
 20
-43.9344200939
  0
LINE
  5
325
100
AcDbEntity
  8
0
100
AcDbLine
 62
7
  6
CONTINUOUS
 10
109.5800785868
 20
-82.435403165
 11
107.6008597615
 21
-81.9049797283
  0
LWPOLYLINE
  5
326
100
AcDbEntity
  8
ASSI
100
AcDbPolyline
 62
7
  6
CONTINUOUS
 90
17
 70
0
 10
-0.9302488166
 20
-41.2676998285
 10
-0.8170458243
 20
-41.3161565725
 10
-0.7049834183
 20
-41.3584792151
 10
-0.5940615984
 20
-41.3946677563
 10
-0.4840811486
 20
-41.424765902
 10
-0.3752412851
 20
-41.4487299463
 10
-0.2681396564
 20
-41.4664287712
 10
-0.1627857471
 20
-41.4778282005
 10
-0.0591700726
 20
-41.4829624104
 10
0.0421381726
 20
-41.4818028119
 10
0.1411264435
 20
-41.4743150695
 10
0.2378072851
 20
-41.4605335187
 10
0.3316491383
 20
-41.4405325776
 10
0.4226374388
 20
-41.4142776009
 10
0.510786751
 20
-41.3818032339
 10
0.5956092086
 20
-41.3432878299
 10
0.6618667846
 20
-41.3076338758
  0
LINE
  5
327
100
AcDbEntity
  8
ASSI
100
AcDbLine
 62
7
  6
CONTINUOUS
 10
121.1163199991
 20
-110.5286291392
 11
119.9193219599
 21
-109.8374974733
  0
LINE
  5
328
100
AcDbEntity
  8
ASSI
100
AcDbLine
 62
7
  6
CONTINUOUS
 10
1.0298916595
 20
-40.9881128831
 11
2.6052234723
 21
-41.8976897283
  0
LINE
  5
329
100
AcDbEntity
  8
ASSI
100
AcDbLine
 62
7
  6
CONTINUOUS
 10
122.1769801709
 20
-109.9162172492
 11
120.9799821317
 21
-109.2250855833
  0
LINE
  5
32A
100
AcDbEntity
  8
ASSI
100
AcDbLine
 62
7
  6
CONTINUOUS
 10
2.6052234723
 20
-38.6318086211
 11
1.0298916595
 21
-37.722231776
  0
LINE
  5
32B
100
AcDbEntity
  8
ASSI
100
AcDbLine
 62
7
  6
CONTINUOUS
 10
121.1163199991
 20
-106.8545128936
 11
119.9193219599
 21
-106.1633812277
  0
LINE
  5
32C
100
AcDbEntity
  8
ASSI
100
AcDbLine
 62
7
  6
CONTINUOUS
 10
2.6052234723
 20
-37.4069848411
 11
2.0905518313
 21
-37.109819886
  0
LWPOLYLINE
  5
32D
100
AcDbEntity
  8
RACCORDO
100
AcDbPolyline
 62
7
  6
CONTINUOUS
 90
41
 70
0
 10
36.2727702275
 20
-41.2710147727
 10
36.3959428477
 20
-41.5116459397
 10
36.4771463828
 20
-41.6614039943
 10
36.5619183452
 20
-41.8089544424
 10
36.6504256207
 20
-41.9545572766
 10
36.7425013236
 20
-42.0979525044
 10
36.8376447963
 20
-42.2383601488
 10
36.9358727578
 20
-42.3757639558
 10
37.0371684892
 20
-42.5101801795
 10
37.1409811763
 20
-42.6408776054
 10
37.2473245422
 20
-42.7678359983
 10
37.3561848639
 20
-42.8910755934
 10
37.4669701585
 20
-43.0099258825
 10
37.5796909229
 20
-43.1243629743
 10
37.6943366603
 20
-43.2344107601
 10
37.8102838973
 20
-43.339470405
 10
37.9275397687
 20
-43.4395147771
 10
38.0460971396
 20
-43.5345710084
 10
38.1653111317
 20
-43.6241216605
 10
38.2851856592
 20
-43.7081368863
 10
38.4057168079
 20
-43.7866465329
 10
38.5262479565
 20
-43.8592227031
 10
38.6467791052
 20
-43.9258328821
 10
38.7673102539
 20
-43.9865095848
 10
38.8871847814
 20
-44.0409224586
 10
39.0063987735
 20
-44.0890371364
 10
39.1249561444
 20
-44.1308879853
 10
39.2422120158
 20
-44.1662477544
 10
39.3581592528
 20
-44.1950810724
 10
39.4728049902
 20
-44.2174233105
 10
39.5855257546
 20
-44.233153332
 10
39.6963110492
 20
-44.2422351242
 10
39.8051713709
 20
-44.2447046998
 10
39.9115147367
 20
-44.2405489602
 10
40.0153274239
 20
-44.2297318233
 10
40.1166231553
 20
-44.2122893712
 10
40.2148511168
 20
-44.188316752
 10
40.3099945895
 20
-44.1577784049
 10
40.4020702923
 20
-44.1207098908
 10
40.4905775679
 20
-44.0773130399
 10
40.5262487276
 20
-44.0574399104
  0
LWPOLYLINE
  5
32E
100
AcDbEntity
  8
RACCORDO
100
AcDbPolyline
 62
7
  6
CONTINUOUS
 90
41
 70
0
 10
40.7341881731
 20
-39.827002913
 10
40.6565530653
 20
-39.6750372521
 10
40.5753495302
 20
-39.5252791976
 10
40.4905775679
 20
-39.3777287494
 10
40.4020702923
 20
-39.2321259153
 10
40.3099945895
 20
-39.0887306875
 10
40.2148511168
 20
-38.948323043
 10
40.1166231553
 20
-38.8109192361
 10
40.0153274239
 20
-38.6765030124
 10
39.9115147367
 20
-38.5458055865
 10
39.8051713709
 20
-38.4188471936
 10
39.6963110492
 20
-38.2956075984
 10
39.5855257546
 20
-38.1767573093
 10
39.4728049902
 20
-38.0623202175
 10
39.3581592528
 20
-37.9522724318
 10
39.2422120158
 20
-37.8472127868
 10
39.1249561444
 20
-37.7471684147
 10
39.0063987735
 20
-37.6521121835
 10
38.8871847814
 20
-37.5625615314
 10
38.7673102539
 20
-37.4785463056
 10
38.6467791052
 20
-37.400036659
 10
38.5262479565
 20
-37.3274604888
 10
38.4057168079
 20
-37.2608503097
 10
38.2851856592
 20
-37.2001736071
 10
38.1653111317
 20
-37.1457607333
 10
38.0460971396
 20
-37.0976460555
 10
37.9275397687
 20
-37.0557952065
 10
37.8102838973
 20
-37.0204354374
 10
37.6943366603
 20
-36.9916021195
 10
37.5796909229
 20
-36.9692598814
 10
37.4669701585
 20
-36.9535298599
 10
37.3561848639
 20
-36.9444480677
 10
37.2473245422
 20
-36.9419784921
 10
37.1409811763
 20
-36.9461342316
 10
37.0371684892
 20
-36.9569513686
 10
36.9358727578
 20
-36.9743938207
 10
36.8376447963
 20
-36.9983664399
 10
36.7425013236
 20
-37.0289047869
 10
36.6504256207
 20
-37.0659733011
 10
36.5619183452
 20
-37.109370152
 10
36.5262471855
 20
-37.1292432814
  0
LINE
  5
32F
100
AcDbEntity
  8
0
100
AcDbLine
 62
7
  6
CONTINUOUS
 10
28.5089017492
 20
2.4528622522
 11
28.5825588461
 21
2.2366164778
  0
LINE
  5
330
100
AcDbEntity
  8
0
100
AcDbLine
 62
7
  6
CONTINUOUS
 10
28.7195674643
 20
2.3312265086
 11
28.7239802023
 21
2.3182713964
  0
LINE
  5
331
100
AcDbEntity
  8
0
100
AcDbLine
 62
7
  6
CONTINUOUS
 10
28.8035297152
 20
2.1090306673
 11
28.7298726184
 21
2.3252764418
  0
LINE
  5
332
100
AcDbEntity
  8
0
100
AcDbLine
 62
7
  6
CONTINUOUS
 10
29.834726964
 20
1.9044937141
 11
29.7610702886
 21
2.1641685405
  0
LINE
  5
333
100
AcDbEntity
  8
0
100
AcDbLine
 62
7
  6
CONTINUOUS
 10
29.6137560948
 20
2.118938115
 11
29.650584854
 21
1.9673857956
  0
LINE
  5
334
100
AcDbEntity
  8
0
100
AcDbLine
 62
7
  6
CONTINUOUS
 10
60.6233348686
 20
-27.8772646434
 11
61.1536649545
 21
-25.8981391715
  0
LWPOLYLINE
  5
335
100
AcDbEntity
  8
ASSI
100
AcDbPolyline
 62
7
  6
CONTINUOUS
 90
42
 70
0
 10
18.6843448025
 20
-65.0121010828
 10
18.7065589313
 20
-65.0000055327
 10
18.752585648
 20
-64.9792604791
 10
18.800937401
 20
-64.9630572947
 10
18.8515908781
 20
-64.9513504401
 10
18.9040347786
 20
-64.9442580851
 10
18.9582872363
 20
-64.9418269661
 10
19.0143301175
 20
-64.9440103469
 10
19.0715977205
 20
-64.9507861881
 10
19.1301024495
 20
-64.9622010029
 10
19.1898319003
 20
-64.9782082782
 10
19.2501831586
 20
-64.998646435
 10
19.3111625222
 20
-65.0235603502
 10
19.3727636933
 20
-65.0529051471
 10
19.4343648645
 20
-65.0863846166
 10
19.4959660357
 20
-65.1240406354
 10
19.5575672068
 20
-65.165831327
 10
19.6185465705
 20
-65.2113348524
 10
19.6788978288
 20
-65.2605888158
 10
19.7386272795
 20
-65.3135556131
 10
19.7971320085
 20
-65.3697005929
 10
19.8543996115
 20
-65.4290559441
 10
19.9104424927
 20
-65.4915894778
 10
19.9646949504
 20
-65.556669975
 10
20.0171388509
 20
-65.6243232318
 10
20.067792328
 20
-65.6945234522
 10
20.116144081
 20
-65.7665620289
 10
20.1621707977
 20
-65.8404575812
 10
20.2058957904
 20
-65.91619149
 10
20.2468776951
 20
-65.9929992906
 10
20.2850887295
 20
-66.0708918595
 10
20.320556676
 20
-66.1498583202
 10
20.352923518
 20
-66.2291015785
 10
20.3821578472
 20
-66.3086244377
 10
20.4082910719
 20
-66.3884240944
 10
20.4310594011
 20
-66.467695044
 10
20.4504287546
 20
-66.5464319317
 10
20.4664332127
 20
-66.6246401122
 10
20.478911225
 20
-66.7015301455
 10
20.4878089413
 20
-66.7768388849
 10
20.4931802117
 20
-66.8508294769
 10
20.4950250363
 20
-66.9235019217
  0
LWPOLYLINE
  5
336
100
AcDbEntity
  8
ASSI
100
AcDbPolyline
 62
7
  6
CONTINUOUS
 90
42
 70
0
 10
20.1843849265
 20
-67.6100789807
 10
20.1621707977
 20
-67.6221745308
 10
20.116144081
 20
-67.6429195844
 10
20.067792328
 20
-67.6591227688
 10
20.0171388509
 20
-67.6708296235
 10
19.9646949504
 20
-67.6779219785
 10
19.9104424927
 20
-67.6803530974
 10
19.8543996115
 20
-67.6781697166
 10
19.7971320085
 20
-67.6713938754
 10
19.7386272795
 20
-67.6599790606
 10
19.6788978288
 20
-67.6439717853
 10
19.6185465705
 20
-67.6235336285
 10
19.5575672068
 20
-67.5986197133
 10
19.4959660357
 20
-67.5692749165
 10
19.4343648645
 20
-67.5357954469
 10
19.3727636933
 20
-67.4981394281
 10
19.3111625222
 20
-67.4563487365
 10
19.2501831586
 20
-67.4108452111
 10
19.1898319003
 20
-67.3615912477
 10
19.1301024495
 20
-67.3086244504
 10
19.0715977205
 20
-67.2524794707
 10
19.0143301175
 20
-67.1931241194
 10
18.9582872363
 20
-67.1305905857
 10
18.9040347786
 20
-67.0655100885
 10
18.8515908781
 20
-66.9978568317
 10
18.800937401
 20
-66.9276566114
 10
18.752585648
 20
-66.8556180346
 10
18.7065589313
 20
-66.7817224823
 10
18.6628339386
 20
-66.7059885735
 10
18.6218520339
 20
-66.6291807729
 10
18.5836409995
 20
-66.551288204
 10
18.548173053
 20
-66.4723217433
 10
18.515806211
 20
-66.393078485
 10
18.4865718818
 20
-66.3135556258
 10
18.4604386572
 20
-66.2337559691
 10
18.4376703279
 20
-66.1544850195
 10
18.4183009744
 20
-66.0757481318
 10
18.4022965163
 20
-65.9975399513
 10
18.389818504
 20
-65.920649918
 10
18.3809207877
 20
-65.8453411787
 10
18.3755495173
 20
-65.7713505866
 10
18.3737046927
 20
-65.6986781418
  0
LWPOLYLINE
  5
337
100
AcDbEntity
  8
ASSI
100
AcDbPolyline
 62
7
  6
CONTINUOUS
 90
16
 70
0
 10
-1.4960574757
 20
-34.852432913
 10
-1.6153922747
 20
-34.8015198083
 10
-1.7334245521
 20
-34.7574307241
 10
-1.8501543076
 20
-34.7201656602
 10
-1.9658145815
 20
-34.6896765526
 10
-2.0801723336
 20
-34.6660114655
 10
-2.1925284439
 20
-34.6493145908
 10
-2.3028706371
 20
-34.6396285803
 10
-2.4112111886
 20
-34.6369107822
 10
-2.5168878049
 20
-34.6411774329
 10
-2.619884166
 20
-34.6524712777
 10
-2.7202165919
 20
-34.6707495712
 10
-2.8172717497
 20
-34.6959003131
 10
-2.9110295737
 20
-34.727965561
 10
-3.0015101295
 20
-34.7669032574
 10
-3.0882434911
 20
-34.8125232689
  0
LWPOLYLINE
  5
338
100
AcDbEntity
  8
ASSI
100
AcDbPolyline
 62
7
  6
CONTINUOUS
 90
16
 70
0
 10
-0.5339983372
 20
-34.1979322195
 10
-0.5545437976
 20
-34.1891621913
 10
-0.6724653731
 20
-34.1451054005
 10
-0.7891620303
 20
-34.1078506507
 10
-0.9049185103
 20
-34.077339482
 10
-1.0194500721
 20
-34.0536303543
 10
-1.131902492
 20
-34.0368986471
 10
-1.2421606066
 20
-34.027198363
 10
-1.3503395793
 20
-34.0244754994
 10
-1.4559306772
 20
-34.0287434281
 10
-1.5590177787
 20
-34.0400530214
 10
-1.6595170053
 20
-34.0583534069
 10
-1.756667989
 20
-34.0835053396
 10
-1.8503570179
 20
-34.1155225985
 10
-1.9406978039
 20
-34.1543914047
 10
-2.0275822267
 20
-34.2001108579
  0
LINE
  5
339
100
AcDbEntity
  8
0
100
AcDbLine
 62
7
  6
CONTINUOUS
 10
16.1206837099
 20
-29.085472592
 11
14.1414648846
 21
-27.3303437401
  0
LWPOLYLINE
  5
33A
100
AcDbEntity
  8
0
100
AcDbPolyline
 62
7
  6
CONTINUOUS
 90
7
 70
0
 10
97.0986948645
 20
-109.4677009355
 10
97.077143524
 20
-109.4444918687
 10
97.054997899
 20
-109.4226654881
 10
97.0323517921
 20
-109.4027970458
 10
97.0091114008
 20
-109.3843112897
 10
96.9847812243
 20
-109.3660412267
 10
96.9591960957
 20
-109.3475978589
  0
LWPOLYLINE
  5
33B
100
AcDbEntity
  8
RACCORDO
100
AcDbPolyline
 62
7
  6
CONTINUOUS
 90
18
 70
0
 10
41.8403858574
 20
-39.3032565292
 10
41.8882964826
 20
-39.3903295076
 10
41.9385802205
 20
-39.4758099583
 10
41.991373071
 20
-39.5599012644
 10
42.0465390343
 20
-39.6424000427
 10
42.1036701105
 20
-39.722696144
 10
42.1627808694
 20
-39.8007732372
 10
42.2238567412
 20
-39.8766476534
 10
42.2864460175
 20
-39.949758236
 10
42.3505599188
 20
-40.0200844935
 10
42.4161872246
 20
-40.0876469174
 10
42.4828425645
 20
-40.1519458255
 10
42.5505335605
 20
-40.2129570218
 10
42.6192525906
 20
-40.2707047022
 10
42.6884914186
 20
-40.3247617731
 10
42.7580806323
 20
-40.37498587
 10
42.8281896438
 20
-40.4215193573
 10
42.8988184532
 20
-40.4643622351
  0
LWPOLYLINE
  5
33C
100
AcDbEntity
  8
RACCORDO
100
AcDbPolyline
 62
7
  6
CONTINUOUS
 90
41
 70
0
 10
41.8403858574
 20
-39.3032565292
 10
41.717147315
 20
-39.062514467
 10
41.6359057224
 20
-38.9126920243
 10
41.5511235671
 20
-38.7651236949
 10
41.4626534882
 20
-38.6195798592
 10
41.3706428467
 20
-38.4762901368
 10
41.2755337247
 20
-38.3359433866
 10
41.1772690436
 20
-38.1984976473
 10
41.0759058822
 20
-38.0639948802
 10
40.972057559
 20
-37.9332498277
 10
40.8657510553
 20
-37.8063335532
 10
40.7569593899
 20
-37.6831749933
 10
40.6462149379
 20
-37.5643757007
 10
40.5334709468
 20
-37.4499202092
 10
40.4187741692
 20
-37.3398239849
 10
40.3027972382
 20
-37.2347349794
 10
40.1855602745
 20
-37.1347062077
 10
40.0670431574
 20
-37.0396846549
 10
39.9478581572
 20
-36.9501592269
 10
39.8279867363
 20
-36.8661469635
 10
39.7074474323
 20
-36.787630825
 10
39.5869081283
 20
-36.7150485988
 10
39.4663688243
 20
-36.6484350582
 10
39.3458295203
 20
-36.5877554298
 10
39.2259580994
 20
-36.5333431811
 10
39.1067730992
 20
-36.4852367583
 10
38.9882559821
 20
-36.4433977151
 10
38.8710190185
 20
-36.4080441797
 10
38.7550420874
 20
-36.3792059323
 10
38.6403453098
 20
-36.3568531928
 10
38.5276013188
 20
-36.3411147495
 10
38.4168568668
 20
-36.3320291248
 10
38.3080652013
 20
-36.3295577964
 10
38.2017586976
 20
-36.3337139851
 10
38.0979103744
 20
-36.344537597
 10
37.996547213
 20
-36.3619887261
 10
37.8982825319
 20
-36.3859608748
 10
37.80317341
 20
-36.416477995
 10
37.7111627684
 20
-36.4535161348
 10
37.6226926896
 20
-36.496896941
 10
37.5869243107
 20
-36.5168265216
  0
LINE
  5
33D
100
AcDbEntity
  8
0
100
AcDbLine
 62
7
  6
CONTINUOUS
 10
28.5825588461
 20
2.2366164778
 11
28.6930442807
 21
1.9991064979
  0
LINE
  5
33E
100
AcDbEntity
  8
0
100
AcDbLine
 62
7
  6
CONTINUOUS
 10
28.7239802023
 20
2.3182713964
 11
28.754895777
 21
2.2518123419
  0
LINE
  5
33F
100
AcDbEntity
  8
0
100
AcDbLine
 62
7
  6
CONTINUOUS
 10
29.5400994195
 20
2.2917543509
 11
29.6137560948
 21
2.118938115
  0
LINE
  5
340
100
AcDbEntity
  8
0
100
AcDbLine
 62
7
  6
CONTINUOUS
 10
61.1536649545
 20
-81.4181179934
 11
60.6233348686
 21
-78.8265806315
  0
LINE
  5
341
100
AcDbEntity
  8
0
100
AcDbLine
 62
7
  6
CONTINUOUS
 10
60.6233348686
 20
-27.8772646434
 11
60.6233348686
 21
-49.5277812042
  0
LINE
  5
342
100
AcDbEntity
  8
0
100
AcDbLine
 62
7
  6
CONTINUOUS
 10
60.6233348686
 20
-57.1760640707
 11
60.6233348686
 21
-78.8265806315
  0
LINE
  5
343
100
AcDbEntity
  8
0
100
AcDbLine
 62
7
  6
CONTINUOUS
 10
63.0982086028
 20
-80.2555417081
 11
63.0982086028
 21
-58.6050251473
  0
LINE
  5
344
100
AcDbEntity
  8
0
100
AcDbLine
 62
7
  6
CONTINUOUS
 10
63.0982086028
 20
-50.9567422808
 11
63.0982086028
 21
-29.30622572
  0
LWPOLYLINE
  5
345
100
AcDbEntity
  8
0
100
AcDbPolyline
 62
7
  6
CONTINUOUS
 90
12
 70
0
 10
59.360663812
 20
-49.7363685531
 10
59.3103185991
 20
-49.7666259572
 10
59.2127423455
 20
-49.8325090473
 10
59.119578295
 20
-49.9054471453
 10
59.0308046748
 20
-49.985405427
 10
58.9468621709
 20
-50.0719873164
 10
58.8677747357
 20
-50.16522568
 10
58.7935184167
 20
-50.2650876512
 10
58.724462042
 20
-50.3710780542
 10
58.6607285541
 20
-50.4830318303
 10
58.6021950103
 20
-50.6011140382
 10
58.5488614108
 20
-50.7253246778
  0
LINE
  5
346
100
AcDbEntity
  8
0
100
AcDbLine
 62
7
  6
CONTINUOUS
 10
60.4213111068
 20
-49.1239340134
 11
59.360650935
 21
-49.7363459034
  0
LINE
  5
347
100
AcDbEntity
  8
0
100
AcDbLine
 62
7
  6
CONTINUOUS
 10
91.0462541113
 20
-33.5268270504
 11
91.1876754676
 21
-33.4451721317
  0
LINE
  5
348
100
AcDbEntity
  8
0
100
AcDbLine
 62
7
  6
CONTINUOUS
 10
90.8688707184
 20
-34.0605119304
 11
91.0102920746
 21
-33.9788570118
  0
LINE
  5
349
100
AcDbEntity
  8
0
100
AcDbLine
 62
7
  6
CONTINUOUS
 10
64.1588687746
 20
-50.3443303908
 11
63.0982086028
 21
-50.9567422808
  0
LINE
  5
34A
100
AcDbEntity
  8
0
100
AcDbLine
 62
7
  6
CONTINUOUS
 10
92.8993016776
 20
-33.9001483991
 11
93.0407230339
 21
-33.8184934805
  0
LINE
  5
34B
100
AcDbEntity
  8
0
100
AcDbLine
 62
7
  6
CONTINUOUS
 10
91.8991139849
 20
-34.6553614805
 11
92.0405353411
 21
-34.5737065618
  0
LINE
  5
34C
100
AcDbEntity
  8
0
100
AcDbLine
 62
7
  6
CONTINUOUS
 10
92.4667015271
 20
-34.9830794138
 11
92.6081228833
 21
-34.9014244952
  0
LINE
  5
34D
100
AcDbEntity
  8
0
100
AcDbLine
 62
7
  6
CONTINUOUS
 10
93.3600284146
 20
-34.5910622737
 11
93.5014497709
 21
-34.509407355
  0
LINE
  5
34E
100
AcDbEntity
  8
0
100
AcDbLine
 62
7
  6
CONTINUOUS
 10
93.8225844369
 20
-34.4387963731
 11
93.9640057931
 21
-34.3571414544
  0
LINE
  5
34F
100
AcDbEntity
  8
0
100
AcDbLine
 62
7
  6
CONTINUOUS
 10
93.3321401232
 20
-35.4827728127
 11
93.415835525
 21
-35.4344481367
  0
LINE
  5
350
100
AcDbEntity
  8
0
100
AcDbLine
 62
7
  6
CONTINUOUS
 10
95.043228225
 20
-34.9905775341
 11
95.1846495812
 21
-34.9089226154
  0
LINE
  5
351
100
AcDbEntity
  8
0
100
AcDbLine
 62
7
  6
CONTINUOUS
 10
93.8983891122
 20
-35.8097178822
 11
94.0398104685
 21
-35.7280629636
  0
LINE
  5
352
100
AcDbEntity
  8
0
100
AcDbLine
 62
253
  6
CONTINUOUS
 10
39.2333547377
 20
-67.5367818202
 11
38.1726945659
 21
-68.1491937102
  0
LINE
  5
353
100
AcDbEntity
  8
0
100
AcDbLine
 62
7
  6
CONTINUOUS
 10
94.3172706841
 20
-36.051574852
 11
94.4586920404
 21
-35.9699199334
  0
LINE
  5
354
100
AcDbEntity
  8
0
100
AcDbLine
 62
7
  6
CONTINUOUS
 10
94.7840417699
 20
-35.9136345659
 11
94.9254631261
 21
-35.8319796472
  0
LINE
  5
355
100
AcDbEntity
  8
0
100
AcDbLine
 62
7
  6
CONTINUOUS
 10
95.2127712179
 20
-35.8458951291
 11
95.3541925741
 21
-35.7642402105
  0
LWPOLYLINE
  5
356
100
AcDbEntity
  8
0
100
AcDbPolyline
 62
7
  6
CONTINUOUS
 90
12
 70
0
 10
96.6576199183
 20
-36.1875889802
 10
96.6443604563
 20
-36.1938023813
 10
96.6294437092
 20
-36.1981780761
 10
96.6135353162
 20
-36.2003387576
 10
96.5965889178
 20
-36.2003065367
 10
96.5784650314
 20
-36.1983479978
 10
96.5590914348
 20
-36.1945268328
 10
96.5385403503
 20
-36.1887793498
 10
96.516888963
 20
-36.1811810574
 10
96.4941630014
 20
-36.1717571251
 10
96.470336737
 20
-36.1604823833
 10
96.4454101698
 20
-36.1473568321
  0
LWPOLYLINE
  5
357
100
AcDbEntity
  8
0
100
AcDbPolyline
 62
7
  6
CONTINUOUS
 90
4
 70
0
 10
60.6233348686
 20
-49.025871507
 10
60.5786979156
 20
-49.0438443572
 10
60.4729001319
 20
-49.0953582067
 10
60.421315342
 20
-49.123941344
  0
LWPOLYLINE
  5
358
100
AcDbEntity
  8
0
100
AcDbPolyline
 62
7
  6
CONTINUOUS
 90
8
 70
0
 10
96.8921644373
 20
-36.5294078396
 10
96.8988873268
 20
-36.5267057842
 10
96.9057016694
 20
-36.523816362
 10
96.9126132379
 20
-36.520764897
 10
96.9196162595
 20
-36.5175260652
 10
96.9266854149
 20
-36.5140112918
 10
96.933823548
 20
-36.5102334754
 10
96.9391900433
 20
-36.5072445321
  0
LWPOLYLINE
  5
359
100
AcDbEntity
  8
0
100
AcDbPolyline
 62
7
  6
CONTINUOUS
 90
12
 70
0
 10
63.0982086028
 20
-58.6050251473
 10
63.2324510147
 20
-58.6209526814
 10
63.3639861014
 20
-58.6293128549
 10
63.4928138629
 20
-58.6301056679
 10
63.6191387261
 20
-58.6233071964
 10
63.7427562642
 20
-58.6089413644
 10
63.8630531964
 20
-58.5870799435
 10
63.9800130362
 20
-58.5576857573
 10
64.0936522703
 20
-58.5207959822
 10
64.2034070784
 20
-58.4765939192
 10
64.3092581883
 20
-58.4250433007
 10
64.3608796594
 20
-58.3964377984
  0
LINE
  5
35A
100
AcDbEntity
  8
RACCORDO
100
AcDbLine
 62
7
  6
CONTINUOUS
 10
16.1206837099
 20
-29.085472592
 11
35.2143376317
 21
-40.1099090667
  0
LINE
  5
35B
100
AcDbEntity
  8
0
100
AcDbLine
 62
7
  6
CONTINUOUS
 10
41.8381582814
 20
-43.9344200939
 11
58.5488614108
 21
-53.5829706465
  0
LINE
  5
35C
100
AcDbEntity
  8
0
100
AcDbLine
 62
7
  6
CONTINUOUS
 10
65.1726820606
 20
-57.4074816737
 11
81.88338519
 21
-67.0560322263
  0
LINE
  5
35D
100
AcDbEntity
  8
RACCORDO
100
AcDbLine
 62
7
  6
CONTINUOUS
 10
88.5072058397
 20
-70.8805432535
 11
107.6008597615
 21
-81.9049797283
  0
LINE
  5
35E
100
AcDbEntity
  8
RACCORDO
100
AcDbLine
 62
7
  6
CONTINUOUS
 10
107.6008597615
 20
-79.0473337595
 11
88.5072058397
 21
-68.0228972848
  0
LINE
  5
35F
100
AcDbEntity
  8
0
100
AcDbLine
 62
7
  6
CONTINUOUS
 10
81.88338519
 20
-64.1983862576
 11
65.1726820606
 21
-54.549835705
  0
LINE
  5
360
100
AcDbEntity
  8
0
100
AcDbLine
 62
7
  6
CONTINUOUS
 10
58.5488614108
 20
-50.7253246778
 11
41.8381582814
 21
-41.0767741251
  0
LINE
  5
361
100
AcDbEntity
  8
RACCORDO
100
AcDbLine
 62
7
  6
CONTINUOUS
 10
35.2143376317
 20
-37.2522630979
 11
16.1206837099
 21
-26.2278266232
  0
LWPOLYLINE
  5
362
100
AcDbEntity
  8
RACCORDO
100
AcDbPolyline
 62
7
  6
CONTINUOUS
 90
18
 70
0
 10
35.2143376317
 20
-40.1099090667
 10
35.2849664411
 20
-40.1527519446
 10
35.3550754526
 20
-40.1992854319
 10
35.4246646663
 20
-40.2495095288
 10
35.4939034943
 20
-40.3035665997
 10
35.5626225244
 20
-40.3613142801
 10
35.6303135204
 20
-40.4223254763
 10
35.6969688603
 20
-40.4866243845
 10
35.762596166
 20
-40.5541868084
 10
35.8267100674
 20
-40.6245130659
 10
35.8892993437
 20
-40.6976236485
 10
35.9503752155
 20
-40.7734980646
 10
36.0094859744
 20
-40.8515751579
 10
36.0666170506
 20
-40.9318712591
 10
36.1217830138
 20
-41.0143700375
 10
36.1745758643
 20
-41.0984613436
 10
36.2248596023
 20
-41.1839417943
 10
36.2727702275
 20
-41.2710147727
  0
LWPOLYLINE
  5
363
100
AcDbEntity
  8
RACCORDO
100
AcDbPolyline
 62
7
  6
CONTINUOUS
 90
18
 70
0
 10
81.88338519
 20
-67.0560322263
 10
81.9540139994
 20
-67.0988751042
 10
82.0241230109
 20
-67.1454085915
 10
82.0937122246
 20
-67.1956326884
 10
82.1629510526
 20
-67.2496897593
 10
82.2316700827
 20
-67.3074374397
 10
82.2993610787
 20
-67.368448636
 10
82.3660164186
 20
-67.4327475441
 10
82.4316437243
 20
-67.500309968
 10
82.4957576257
 20
-67.5706362255
 10
82.558346902
 20
-67.6437468081
 10
82.6194227738
 20
-67.7196212243
 10
82.6785335327
 20
-67.7976983175
 10
82.7356646089
 20
-67.8779944188
 10
82.7908305721
 20
-67.9604931971
 10
82.8436234227
 20
-68.0445845032
 10
82.8939071606
 20
-68.1300649539
 10
82.9418177858
 20
-68.2171379323
  0
LWPOLYLINE
  5
364
100
AcDbEntity
  8
RACCORDO
100
AcDbPolyline
 62
7
  6
CONTINUOUS
 90
19
 70
0
 10
41.8381582814
 20
-41.0767741251
 10
41.767529472
 20
-41.0339312473
 10
41.6974204605
 20
-40.9873977599
 10
41.6278312468
 20
-40.9371736631
 10
41.5585924188
 20
-40.8831165922
 10
41.4898733887
 20
-40.8253689117
 10
41.4221823927
 20
-40.7643577155
 10
41.3555270528
 20
-40.7000588074
 10
41.289899747
 20
-40.6324963835
 10
41.2257858457
 20
-40.5621701259
 10
41.1631965694
 20
-40.4890595434
 10
41.1021206976
 20
-40.4131851272
 10
41.0430099387
 20
-40.335108034
 10
40.9858788625
 20
-40.2548119327
 10
40.9307128993
 20
-40.1723131543
 10
40.8779200487
 20
-40.0882218483
 10
40.8276363108
 20
-40.0027413976
 10
40.7797256856
 20
-39.9156684192
 10
40.7341881731
 20
-39.827002913
  0
LWPOLYLINE
  5
365
100
AcDbEntity
  8
0
100
AcDbPolyline
 62
7
  6
CONTINUOUS
 90
3
 70
0
 10
39.4993195056
 20
-41.1508795582
 10
39.5576234322
 20
-41.1882427003
 10
39.5868934642
 20
-41.2051428499
  0
LWPOLYLINE
  5
366
100
AcDbEntity
  8
0
100
AcDbPolyline
 62
7
  6
CONTINUOUS
 90
3
 70
0
 10
86.1683670639
 20
-68.0970027178
 10
86.2266709906
 20
-68.1343658599
 10
86.2559410225
 20
-68.1512660095
  0
LINE
  5
367
100
AcDbEntity
  8
0
100
AcDbLine
 62
7
  6
CONTINUOUS
 10
29.7610702886
 20
2.1641685405
 11
29.650584854
 21
2.4016785051
  0
LWPOLYLINE
  5
368
100
AcDbEntity
  8
0
100
AcDbPolyline
 62
7
  6
CONTINUOUS
 90
22
 70
0
 10
58.5488614108
 20
-53.5829706465
 10
58.6021950103
 20
-53.76876959
 10
58.6607285541
 20
-53.9544448669
 10
58.724462042
 20
-54.1399964773
 10
58.7935184167
 20
-54.325731451
 10
58.8677747357
 20
-54.5113427581
 10
58.9468621709
 20
-54.6959093094
 10
59.0308046748
 20
-54.8794258983
 10
59.119578295
 20
-55.0618977314
 10
59.2127423455
 20
-55.2424193396
 10
59.3103185991
 20
-55.4209810416
 10
59.4122852831
 20
-55.5975925187
 10
59.518136393
 20
-55.7713773457
 10
59.6278912011
 20
-55.9423215099
 10
59.7415304351
 20
-56.1104390241
 10
59.858490275
 20
-56.2748955016
 10
59.9787872072
 20
-56.4356728046
 10
60.1024047453
 20
-56.5927890709
 10
60.2287296085
 20
-56.745464328
 10
60.35755737
 20
-56.8934385848
 10
60.4890924567
 20
-57.0369718324
 10
60.6233348686
 20
-57.1760640707
  0
LINE
  5
369
100
AcDbEntity
  8
0
100
AcDbLine
 62
7
  6
CONTINUOUS
 10
64.1588687746
 20
-79.6431298181
 11
64.1588687746
 21
-58.4945310369
  0
LINE
  5
36A
100
AcDbEntity
  8
0
100
AcDbLine
 62
7
  6
CONTINUOUS
 10
64.1588687746
 20
-50.3443303908
 11
64.1588687746
 21
-28.69381383
  0
LINE
  5
36B
100
AcDbEntity
  8
0
100
AcDbLine
 62
7
  6
CONTINUOUS
 10
63.0982086028
 20
-80.2555417081
 11
62.5678785169
 21
-82.23466718
  0
LWPOLYLINE
  5
36C
100
AcDbEntity
  8
0
100
AcDbPolyline
 62
7
  6
CONTINUOUS
 90
12
 70
0
 10
64.3608796594
 20
-58.3964377984
 10
64.4112248723
 20
-58.3661803943
 10
64.5088011259
 20
-58.3002973042
 10
64.6019651764
 20
-58.2273592062
 10
64.6907387965
 20
-58.1474009245
 10
64.7746813005
 20
-58.0608190351
 10
64.8537687357
 20
-57.9675806715
 10
64.9280250546
 20
-57.8677187003
 10
64.9970814294
 20
-57.7617282973
 10
65.0608149173
 20
-57.6497745212
 10
65.119348461
 20
-57.5316923133
 10
65.1726820606
 20
-57.4074816737
  0
LWPOLYLINE
  5
36D
100
AcDbEntity
  8
0
100
AcDbPolyline
 62
7
  6
CONTINUOUS
 90
4
 70
0
 10
65.421548473
 20
-57.7840412275
 10
65.4718325683
 20
-57.7538190761
 10
65.5693515372
 20
-57.6879652913
 10
65.607173003
 20
-57.6583512985
  0
LWPOLYLINE
  5
36E
100
AcDbEntity
  8
0
100
AcDbPolyline
 62
7
  6
CONTINUOUS
 90
48
 70
0
 10
96.9391900433
 20
-36.5072445321
 10
96.9410278149
 20
-36.5061797174
 10
96.9482643644
 20
-36.5017227479
 10
96.9555383681
 20
-36.4968721879
 10
96.9628446545
 20
-36.4916184163
 10
96.9701338568
 20
-36.4858053007
 10
96.9774097731
 20
-36.4794144623
 10
96.9846686054
 20
-36.4724642799
 10
96.991849593
 20
-36.4648537571
 10
96.9989498346
 20
-36.4565907178
 10
97.0059722315
 20
-36.4476673382
 10
97.0128647268
 20
-36.4379591497
 10
97.0196419693
 20
-36.4274687016
 10
97.0262893101
 20
-36.4161934446
 10
97.0327107458
 20
-36.4040012631
 10
97.0389214996
 20
-36.390894111
 10
97.0449063483
 20
-36.3768700344
 10
97.0505236196
 20
-36.3617910561
 10
97.0557795919
 20
-36.3456733165
 10
97.0606679867
 20
-36.3285006752
 10
97.0650282964
 20
-36.3100867336
 10
97.0688716409
 20
-36.290427832
 10
97.0721869003
 20
-36.2695276301
 10
97.0747802076
 20
-36.2472107084
 10
97.0766631637
 20
-36.2234474016
 10
97.0778241677
 20
-36.1982673749
 10
97.0780345493
 20
-36.1715842049
 10
97.077347374
 20
-36.1433954067
 10
97.0757095763
 20
-36.1137034653
 10
97.0727332896
 20
-36.0824294114
 10
97.0684434772
 20
-36.0494458687
 10
97.0628151757
 20
-36.0148802136
 10
97.0553856288
 20
-35.9790356058
 10
97.0459929024
 20
-35.9416542919
 10
97.0347989307
 20
-35.9029940253
 10
97.0218267597
 20
-35.8641312259
 10
97.0068999421
 20
-35.8250207525
 10
96.9901949253
 20
-35.7857077462
 10
96.9722640978
 20
-35.7474040504
 10
96.9529972884
 20
-35.7102022532
 10
96.9325046683
 20
-35.6740097663
 10
96.9116691396
 20
-35.6397606689
 10
96.8904653305
 20
-35.607520392
 10
96.868918613
 20
-35.5772235045
 10
96.8479880043
 20
-35.5496077913
 10
96.8279931772
 20
-35.5249191808
 10
96.8086144589
 20
-35.5029117447
 10
96.7898518497
 20
-35.4835854829
  0
LINE
  5
36F
100
AcDbEntity
  8
0
100
AcDbLine
 62
7
  6
CONTINUOUS
 10
96.2345513133
 20
-35.4653263145
 11
96.3759726696
 21
-35.3836713958
  0
LINE
  5
370
100
AcDbEntity
  8
0
100
AcDbLine
 62
7
  6
CONTINUOUS
 10
95.286508313
 20
-36.2037524505
 11
95.4279296693
 21
-36.1220975319
  0
LINE
  5
371
100
AcDbEntity
  8
0
100
AcDbLine
 62
253
  6
CONTINUOUS
 10
96.5236007905
 20
-35.6202054818
 11
96.6650221467
 21
-35.5385505631
  0
LINE
  5
372
100
AcDbEntity
  8
0
100
AcDbLine
 62
7
  6
CONTINUOUS
 10
95.3820893509
 20
-36.6663878049
 11
95.5235107071
 21
-36.5847328862
  0
LINE
  5
373
100
AcDbEntity
  8
0
100
AcDbLine
 62
253
  6
CONTINUOUS
 10
96.7320207464
 20
-35.9956779079
 11
96.8734421027
 21
-35.9140229893
  0
LINE
  5
374
100
AcDbEntity
  8
0
100
AcDbLine
 62
7
  6
CONTINUOUS
 10
96.2467855807
 20
-36.366933381
 11
96.3882069369
 21
-36.2852784624
  0
LINE
  5
375
100
AcDbEntity
  8
0
100
AcDbLine
 62
7
  6
CONTINUOUS
 10
96.657657003
 20
-36.1876535438
 11
96.7990783592
 21
-36.1059986252
  0
LINE
  5
376
100
AcDbEntity
  8
0
100
AcDbLine
 62
253
  6
CONTINUOUS
 10
96.4446148761
 20
-36.4811575369
 11
96.5860362324
 21
-36.3995026182
  0
LINE
  5
377
100
AcDbEntity
  8
0
100
AcDbLine
 62
7
  6
CONTINUOUS
 10
66.2333422324
 20
-53.937423815
 11
65.1726820606
 21
-54.549835705
  0
LINE
  5
378
100
AcDbEntity
  8
0
100
AcDbLine
 62
7
  6
CONTINUOUS
 10
95.8793068947
 20
-36.9534747157
 11
96.0207282509
 21
-36.8718197971
  0
LINE
  5
379
100
AcDbEntity
  8
0
100
AcDbLine
 62
7
  6
CONTINUOUS
 10
96.8278933959
 20
-36.5364144527
 11
96.9693147522
 21
-36.454759534
  0
LINE
  5
37A
100
AcDbEntity
  8
0
100
AcDbLine
 62
253
  6
CONTINUOUS
 10
96.6504633826
 20
-36.7798449338
 11
96.7918847388
 21
-36.6981900151
  0
LINE
  5
37B
100
AcDbEntity
  8
0
100
AcDbLine
 62
7
  6
CONTINUOUS
 10
96.8118019544
 20
-37.4918856763
 11
96.9532233107
 21
-37.4102307576
  0
LINE
  5
37C
100
AcDbEntity
  8
0
100
AcDbLine
 62
7
  6
CONTINUOUS
 10
65.4215527082
 20
-57.7840485581
 11
64.3608925364
 21
-58.3964604481
  0
LWPOLYLINE
  5
37D
100
AcDbEntity
  8
0
100
AcDbPolyline
 62
7
  6
CONTINUOUS
 90
12
 70
0
 10
60.6233348686
 20
-49.5277812042
 10
60.4890924567
 20
-49.5118536701
 10
60.35755737
 20
-49.5034934966
 10
60.2287296085
 20
-49.5027006836
 10
60.1024047453
 20
-49.509499155
 10
59.9787872072
 20
-49.5238649871
 10
59.858490275
 20
-49.545726408
 10
59.7415304351
 20
-49.5751205942
 10
59.6278912011
 20
-49.6120103693
 10
59.518136393
 20
-49.6562124323
 10
59.4122852831
 20
-49.7077630508
 10
59.360663812
 20
-49.7363685531
  0
LWPOLYLINE
  5
37E
100
AcDbEntity
  8
ASSI
100
AcDbPolyline
 62
7
  6
CONTINUOUS
 90
16
 70
0
 10
125.2176009471
 20
-73.2803734385
 10
125.3369357461
 20
-73.3312865432
 10
125.4549680235
 20
-73.3753756274
 10
125.571697779
 20
-73.4126406913
 10
125.6873580529
 20
-73.4431297988
 10
125.801715805
 20
-73.466794886
 10
125.9140719153
 20
-73.4834917607
 10
126.0244141085
 20
-73.4931777712
 10
126.13275466
 20
-73.4958955692
 10
126.2384312763
 20
-73.4916289186
 10
126.3414276374
 20
-73.4803350738
 10
126.4417600633
 20
-73.4620567803
 10
126.5388152211
 20
-73.4369060384
 10
126.6325730451
 20
-73.4048407904
 10
126.7230536009
 20
-73.3659030941
 10
126.8097869625
 20
-73.3202830826
  0
LWPOLYLINE
  5
37F
100
AcDbEntity
  8
RACCORDO
100
AcDbPolyline
 62
7
  6
CONTINUOUS
 90
13
 70
0
 10
82.9440453618
 20
-63.5859743676
 10
83.0146741711
 20
-63.6246918684
 10
83.0847831827
 20
-63.6591185103
 10
83.1543723964
 20
-63.6892542931
 10
83.2236112243
 20
-63.7151524852
 10
83.2923302545
 20
-63.7367598182
 10
83.3600212505
 20
-63.7539164875
 10
83.4266765904
 20
-63.766589495
 10
83.4923038961
 20
-63.7748118388
 10
83.5564177975
 20
-63.7785227075
 10
83.6190070738
 20
-63.7776886523
 10
83.6800829456
 20
-63.7723431221
 10
83.7362700316
 20
-63.7630112327
  0
LWPOLYLINE
  5
380
100
AcDbEntity
  8
RACCORDO
100
AcDbPolyline
 62
7
  6
CONTINUOUS
 90
13
 70
0
 10
36.2749978034
 20
-36.639851208
 10
36.3456266128
 20
-36.6785687088
 10
36.4157356244
 20
-36.7129953507
 10
36.4853248381
 20
-36.7431311335
 10
36.554563666
 20
-36.7690293255
 10
36.6232826962
 20
-36.7906366586
 10
36.6909736922
 20
-36.8077933278
 10
36.757629032
 20
-36.8204663354
 10
36.8232563378
 20
-36.8286886792
 10
36.8873702391
 20
-36.8323995478
 10
36.9499595154
 20
-36.8315654927
 10
37.0110353873
 20
-36.8262199624
 10
37.0672224733
 20
-36.816888073
  0
LINE
  5
381
100
AcDbEntity
  8
RACCORDO
100
AcDbLine
 62
7
  6
CONTINUOUS
 10
108.6615199333
 20
-78.4349218695
 11
89.5678660115
 21
-67.4104853948
  0
LINE
  5
382
100
AcDbEntity
  8
0
100
AcDbLine
 62
7
  6
CONTINUOUS
 10
82.9440453618
 20
-63.5859743676
 11
66.2333422324
 21
-53.937423815
  0
LINE
  5
383
100
AcDbEntity
  8
0
100
AcDbLine
 62
7
  6
CONTINUOUS
 10
59.1750235559
 20
-49.8620390727
 11
42.8988184532
 21
-40.4643622351
  0
LINE
  5
384
100
AcDbEntity
  8
RACCORDO
100
AcDbLine
 62
7
  6
CONTINUOUS
 10
36.2749978034
 20
-36.639851208
 11
17.1813438817
 21
-25.6154147332
  0
LWPOLYLINE
  5
385
100
AcDbEntity
  8
RACCORDO
100
AcDbPolyline
 62
7
  6
CONTINUOUS
 90
18
 70
0
 10
88.5072058397
 20
-68.0228972848
 10
88.4365770303
 20
-67.9800544069
 10
88.3664680188
 20
-67.9335209196
 10
88.2968788051
 20
-67.8832968227
 10
88.2276399771
 20
-67.8292397518
 10
88.158920947
 20
-67.7714920714
 10
88.091229951
 20
-67.7104808752
 10
88.0245746111
 20
-67.646181967
 10
87.9589473054
 20
-67.5786195431
 10
87.894833404
 20
-67.5082932856
 10
87.8322441277
 20
-67.435182703
 10
87.7711682559
 20
-67.3593082869
 10
87.712057497
 20
-67.2812311936
 10
87.6549264208
 20
-67.2009350923
 10
87.5997604576
 20
-67.118436314
 10
87.5469676071
 20
-67.0343450079
 10
87.4966838691
 20
-66.9488645572
 10
87.4487732439
 20
-66.8617915788
  0
LINE
  5
386
100
AcDbEntity
  8
0
100
AcDbLine
 62
7
  6
CONTINUOUS
 10
28.6930442807
 20
1.9991064979
 11
28.8771868121
 21
1.7624971021
  0
LINE
  5
387
100
AcDbEntity
  8
0
100
AcDbLine
 62
7
  6
CONTINUOUS
 10
28.9628776197
 20
1.9157616122
 11
29.0186081683
 21
1.8441520207
  0
LINE
  5
388
100
AcDbEntity
  8
0
100
AcDbLine
 62
7
  6
CONTINUOUS
 10
28.9140151498
 20
1.9583792324
 11
28.8035297152
 21
2.1090306673
  0
LINE
  5
389
100
AcDbEntity
  8
0
100
AcDbLine
 62
7
  6
CONTINUOUS
 10
29.4296139849
 20
2.4424057858
 11
29.5400994195
 21
2.2917543509
  0
LWPOLYLINE
  5
38A
100
AcDbEntity
  8
0
100
AcDbPolyline
 62
7
  6
CONTINUOUS
 90
22
 70
0
 10
66.2333422324
 20
-53.937423815
 10
66.1799555894
 20
-53.7514793319
 10
66.1213933167
 20
-53.5657237236
 10
66.057655414
 20
-53.38015699
 10
65.988637742
 20
-53.1945181853
 10
65.9144444402
 20
-53.0090682552
 10
65.8353879269
 20
-52.8245900375
 10
65.7514012434
 20
-52.640993275
 10
65.6625513485
 20
-52.4583682248
 10
65.5693515372
 20
-52.2777684961
 10
65.4718325683
 20
-52.0993022506
 10
65.3699636831
 20
-51.9228613265
 10
65.2641658994
 20
-51.7491748484
 10
65.1543601778
 20
-51.5781612182
 10
65.0406255578
 20
-51.409902034
 10
64.9236201763
 20
-51.245371214
 10
64.8033911674
 20
-51.0846748566
 10
64.679891397
 20
-50.9277068634
 10
64.5536375991
 20
-50.7751228579
 10
64.4248020184
 20
-50.6271413812
 10
64.2932124102
 20
-50.4835438922
 10
64.1588687746
 20
-50.3443303908
  0
LWPOLYLINE
  5
38B
100
AcDbEntity
  8
0
100
AcDbPolyline
 62
7
  6
CONTINUOUS
 90
22
 70
0
 10
65.1726820606
 20
-54.549835705
 10
65.119348461
 20
-54.3640367615
 10
65.0608149173
 20
-54.1783614846
 10
64.9970814294
 20
-53.9928098742
 10
64.9280250546
 20
-53.8070749005
 10
64.8537687357
 20
-53.6214635934
 10
64.7746813005
 20
-53.4368970421
 10
64.6907387965
 20
-53.2533804532
 10
64.6019651764
 20
-53.0709086201
 10
64.5088011259
 20
-52.8903870119
 10
64.4112248723
 20
-52.7118253099
 10
64.3092581883
 20
-52.5352138328
 10
64.2034070784
 20
-52.3614290058
 10
64.0936522703
 20
-52.1904848416
 10
63.9800130362
 20
-52.0223673274
 10
63.8630531964
 20
-51.8579108499
 10
63.7427562642
 20
-51.6971335469
 10
63.6191387261
 20
-51.5400172806
 10
63.4928138629
 20
-51.3873420235
 10
63.3639861014
 20
-51.2393677667
 10
63.2324510147
 20
-51.0958345191
 10
63.0982086028
 20
-50.9567422808
  0
LINE
  5
38C
100
AcDbEntity
  8
0
100
AcDbLine
 62
7
  6
CONTINUOUS
 10
62.5678785169
 20
-26.7146883581
 11
63.0982086028
 21
-29.30622572
  0
LINE
  5
38D
100
AcDbEntity
  8
0
100
AcDbLine
 62
7
  6
CONTINUOUS
 10
64.1235134355
 20
-28.5210446726
 11
64.1588687746
 21
-28.69381383
  0
LINE
  5
38E
100
AcDbEntity
  8
0
100
AcDbLine
 62
7
  6
CONTINUOUS
 10
64.1588687746
 20
-79.6431298181
 11
64.1235134355
 21
-79.7750715163
  0
LINE
  5
38F
100
AcDbEntity
  8
0
100
AcDbLine
 62
7
  6
CONTINUOUS
 10
63.1335639418
 20
-81.9080475054
 11
64.1235134355
 21
-79.7750715163
  0
LINE
  5
390
100
AcDbEntity
  8
RACCORDO
100
AcDbLine
 62
253
  6
CONTINUOUS
 10
115.105912359
 20
-35.0046748042
 11
114.0452521873
 21
-35.6170866942
  0
LWPOLYLINE
  5
391
100
AcDbEntity
  8
ASSI
100
AcDbPolyline
 62
7
  6
CONTINUOUS
 90
42
 70
0
 10
103.5371585449
 20
-40.5227273708
 10
103.5593726737
 20
-40.5106318206
 10
103.6053993904
 20
-40.4898867671
 10
103.6537511434
 20
-40.4736835827
 10
103.7044046205
 20
-40.461976728
 10
103.756848521
 20
-40.454884373
 10
103.8111009787
 20
-40.4524532541
 10
103.8671438599
 20
-40.4546366349
 10
103.9244114629
 20
-40.4614124761
 10
103.9829161919
 20
-40.4728272909
 10
104.0426456426
 20
-40.4888345661
 10
104.1029969009
 20
-40.509272723
 10
104.1639762646
 20
-40.5341866382
 10
104.2255774357
 20
-40.563531435
 10
104.2871786069
 20
-40.5970109045
 10
104.3487797781
 20
-40.6346669234
 10
104.4103809492
 20
-40.676457615
 10
104.4713603128
 20
-40.7219611404
 10
104.5317115711
 20
-40.7712151038
 10
104.5914410219
 20
-40.8241819011
 10
104.6499457509
 20
-40.8803268808
 10
104.7072133539
 20
-40.9396822321
 10
104.7632562351
 20
-41.0022157658
 10
104.8175086928
 20
-41.067296263
 10
104.8699525933
 20
-41.1349495198
 10
104.9206060704
 20
-41.2051497401
 10
104.9689578234
 20
-41.2771883169
 10
105.0149845401
 20
-41.3510838692
 10
105.0587095328
 20
-41.426817778
 10
105.0996914375
 20
-41.5036255786
 10
105.1379024719
 20
-41.5815181475
 10
105.1733704184
 20
-41.6604846082
 10
105.2057372604
 20
-41.7397278664
 10
105.2349715896
 20
-41.8192507257
 10
105.2611048142
 20
-41.8990503824
 10
105.2838731435
 20
-41.978321332
 10
105.303242497
 20
-42.0570582197
 10
105.3192469551
 20
-42.1352664002
 10
105.3317249674
 20
-42.2121564335
 10
105.3406226836
 20
-42.2874651728
 10
105.3459939541
 20
-42.3614557649
 10
105.3478387787
 20
-42.4341282097
  0
LWPOLYLINE
  5
392
100
AcDbEntity
  8
ASSI
100
AcDbPolyline
 62
7
  6
CONTINUOUS
 90
42
 70
0
 10
105.0371986689
 20
-43.1207052687
 10
105.0149845401
 20
-43.1328008188
 10
104.9689578234
 20
-43.1535458724
 10
104.9206060704
 20
-43.1697490568
 10
104.8699525933
 20
-43.1814559114
 10
104.8175086928
 20
-43.1885482664
 10
104.7632562351
 20
-43.1909793854
 10
104.7072133539
 20
-43.1887960046
 10
104.6499457509
 20
-43.1820201634
 10
104.5914410219
 20
-43.1706053486
 10
104.5317115711
 20
-43.1545980733
 10
104.4713603128
 20
-43.1341599164
 10
104.4103809492
 20
-43.1092460012
 10
104.3487797781
 20
-43.0799012044
 10
104.2871786069
 20
-43.0464217349
 10
104.2255774357
 20
-43.0087657161
 10
104.1639762646
 20
-42.9669750245
 10
104.1029969009
 20
-42.9214714991
 10
104.0426456426
 20
-42.8722175356
 10
103.9829161919
 20
-42.8192507383
 10
103.9244114629
 20
-42.7631057586
 10
103.8671438599
 20
-42.7037504074
 10
103.8111009787
 20
-42.6412168737
 10
103.756848521
 20
-42.5761363764
 10
103.7044046205
 20
-42.5084831196
 10
103.6537511434
 20
-42.4382828993
 10
103.6053993904
 20
-42.3662443226
 10
103.5593726737
 20
-42.2923487702
 10
103.515647681
 20
-42.2166148615
 10
103.4746657763
 20
-42.1398070609
 10
103.4364547419
 20
-42.061914492
 10
103.4009867954
 20
-41.9829480313
 10
103.3686199533
 20
-41.903704773
 10
103.3393856242
 20
-41.8241819138
 10
103.3132523995
 20
-41.7443822571
 10
103.2904840703
 20
-41.6651113075
 10
103.2711147168
 20
-41.5863744198
 10
103.2551102587
 20
-41.5081662392
 10
103.2426322464
 20
-41.431276206
 10
103.2337345301
 20
-41.3559674666
 10
103.2283632597
 20
-41.2819768746
 10
103.2265184351
 20
-41.2093044297
  0
LINE
  5
393
100
AcDbEntity
  8
0
100
AcDbLine
 62
7
  6
CONTINUOUS
 10
14.1414648846
 20
-25.6974031865
 11
16.1206837099
 21
-26.2278266232
  0
LWPOLYLINE
  5
394
100
AcDbEntity
  8
ASSI
100
AcDbPolyline
 62
7
  6
CONTINUOUS
 90
17
 70
0
 10
124.651792288
 20
-66.865106523
 10
124.5385892957
 20
-66.816649779
 10
124.4265268896
 20
-66.7743271364
 10
124.3156050698
 20
-66.7381385952
 10
124.20562462
 20
-66.7080404495
 10
124.0967847565
 20
-66.6840764052
 10
123.9896831277
 20
-66.6663775802
 10
123.8843292185
 20
-66.654978151
 10
123.780713544
 20
-66.6498439411
 10
123.6794052988
 20
-66.6510035396
 10
123.5804170279
 20
-66.658491282
 10
123.4837361863
 20
-66.6722728327
 10
123.3898943331
 20
-66.6922737739
 10
123.2989060326
 20
-66.7185287505
 10
123.2107567204
 20
-66.7510031176
 10
123.1259342628
 20
-66.7895185216
 10
123.0596766868
 20
-66.8251724757
  0
LWPOLYLINE
  5
395
100
AcDbEntity
  8
ASSI
100
AcDbPolyline
 62
7
  6
CONTINUOUS
 90
17
 70
0
 10
125.6139720539
 20
-66.2105361807
 10
125.599277505
 20
-66.204245595
 10
125.4872293129
 20
-66.1619272187
 10
125.3763078834
 20
-66.1257395042
 10
125.266303173
 20
-66.0956368032
 10
125.1574252252
 20
-66.071664764
 10
125.0503041711
 20
-66.0539603316
 10
124.944974119
 20
-66.0425598068
 10
124.8414009605
 20
-66.0374268889
 10
124.7401125012
 20
-66.0385896199
 10
124.6410926318
 20
-66.0460842914
 10
124.5443574616
 20
-66.059874612
 10
124.4504831239
 20
-66.0798797494
 10
124.3595112854
 20
-66.1061282883
 10
124.2714002795
 20
-66.1385916442
 10
124.186601239
 20
-66.1771032312
 10
124.1203453195
 20
-66.2127607874
  0
LINE
  5
396
100
AcDbEntity
  8
0
100
AcDbLine
 62
7
  6
CONTINUOUS
 10
107.6008597615
 20
-79.0473337595
 11
109.5800785868
 21
-80.8024626114
  0
LINE
  5
397
100
AcDbEntity
  8
0
100
AcDbLine
 62
7
  6
CONTINUOUS
 10
108.6615199333
 20
-78.4349218695
 11
108.7709636126
 21
-78.5319741796
  0
LINE
  5
398
100
AcDbEntity
  8
0
100
AcDbLine
 62
7
  6
CONTINUOUS
 10
29.650584854
 20
2.4016785051
 11
29.4664423226
 21
2.6382878895
  0
LWPOLYLINE
  5
399
100
AcDbEntity
  8
RACCORDO
100
AcDbPolyline
 62
7
  6
CONTINUOUS
 90
41
 70
0
 10
82.9418177858
 20
-68.2171379323
 10
83.0649904061
 20
-68.4577690994
 10
83.1461939411
 20
-68.6075271539
 10
83.2309659035
 20
-68.7550776021
 10
83.3194731791
 20
-68.9006804362
 10
83.4115488819
 20
-69.044075664
 10
83.5066923546
 20
-69.1844833085
 10
83.6049203161
 20
-69.3218871154
 10
83.7062160475
 20
-69.4563033391
 10
83.8100287347
 20
-69.587000765
 10
83.9163721005
 20
-69.7139591579
 10
84.0252324222
 20
-69.8371987531
 10
84.1360177168
 20
-69.9560490422
 10
84.2487384812
 20
-70.070486134
 10
84.3633842186
 20
-70.1805339197
 10
84.4793314556
 20
-70.2855935647
 10
84.596587327
 20
-70.3856379367
 10
84.7151446979
 20
-70.480694168
 10
84.83435869
 20
-70.5702448201
 10
84.9542332175
 20
-70.6542600459
 10
85.0747643662
 20
-70.7327696925
 10
85.1952955149
 20
-70.8053458627
 10
85.3158266635
 20
-70.8719560417
 10
85.4363578122
 20
-70.9326327444
 10
85.5562323397
 20
-70.9870456182
 10
85.6754463318
 20
-71.035160296
 10
85.7940037027
 20
-71.0770111449
 10
85.9112595741
 20
-71.1123709141
 10
86.0272068111
 20
-71.141204232
 10
86.1418525485
 20
-71.1635464701
 10
86.2545733129
 20
-71.1792764916
 10
86.3653586075
 20
-71.1883582838
 10
86.4742189292
 20
-71.1908278594
 10
86.5805622951
 20
-71.1866721199
 10
86.6843749822
 20
-71.1758549829
 10
86.7856707136
 20
-71.1584125308
 10
86.8838986751
 20
-71.1344399116
 10
86.9790421478
 20
-71.1039015646
 10
87.0711178507
 20
-71.0668330504
 10
87.1596251262
 20
-71.0234361995
 10
87.1952962859
 20
-71.00356307
  0
LINE
  5
39A
100
AcDbEntity
  8
0
100
AcDbLine
 62
7
  6
CONTINUOUS
 10
63.547729088
 20
-27.2804417975
 11
64.1235134355
 21
-28.5210446726
  0
LINE
  5
39B
100
AcDbEntity
  8
0
100
AcDbLine
 62
7
  6
CONTINUOUS
 10
98.1740573429
 20
-112.1981962411
 11
98.600939828
 21
-113.2253931472
  0
LINE
  5
39C
100
AcDbEntity
  8
0
100
AcDbLine
 62
7
  6
CONTINUOUS
 10
98.7202987614
 20
-113.0906499589
 11
98.7423611842
 21
-113.1437382285
  0
LINE
  5
39D
100
AcDbEntity
  8
0
100
AcDbLine
 62
7
  6
CONTINUOUS
 10
99.6114258239
 20
-111.1190627652
 11
100.1896567374
 21
-112.5140442947
  0
LINE
  5
39E
100
AcDbEntity
  8
0
100
AcDbLine
 62
7
  6
CONTINUOUS
 10
100.2581211722
 20
-112.2563808724
 11
100.3310780936
 21
-112.432389376
  0
LINE
  5
39F
100
AcDbEntity
  8
0
100
AcDbLine
 62
7
  6
CONTINUOUS
 10
100.2132394556
 20
-112.2822950131
 11
99.6445615548
 21
-110.8932873132
  0
LINE
  5
3A0
100
AcDbEntity
  8
0
100
AcDbLine
 62
7
  6
CONTINUOUS
 10
98.6764651962
 20
-113.1159589101
 11
98.3519746014
 21
-112.3009234364
  0
LWPOLYLINE
  5
3A1
100
AcDbEntity
  8
0
100
AcDbPolyline
 62
7
  6
CONTINUOUS
 90
44
 70
0
 10
84.1346353431
 20
-66.9270528656
 10
84.1362865228
 20
-66.995810484
 10
84.1411085302
 20
-67.065787946
 10
84.1491013653
 20
-67.1369852516
 10
84.1603084734
 20
-67.2096255812
 10
84.1746864092
 20
-67.2834857543
 10
84.1921048368
 20
-67.3578962292
 10
84.2125914018
 20
-67.4328620095
 10
84.2361184587
 20
-67.5083780916
 10
84.2624727348
 20
-67.583759923
 10
84.2916799367
 20
-67.6590062829
 10
84.3237143578
 20
-67.7341183921
 10
84.3582856066
 20
-67.80841536
 10
84.395416749
 20
-67.8818897751
 10
84.4350847189
 20
-67.9545490488
 10
84.4769299267
 20
-68.0257345257
 10
84.5209721689
 20
-68.0954328053
 10
84.5671916488
 20
-68.163657288
 10
84.6151693875
 20
-68.2297895197
 10
84.6649213718
 20
-68.2938104764
 10
84.7164316148
 20
-68.3557391821
 10
84.7692331767
 20
-68.4150142536
 10
84.8233377988
 20
-68.4716115628
 10
84.8787337397
 20
-68.5255552377
 10
84.9349188359
 20
-68.5763562796
 10
84.9919002627
 20
-68.6239861141
 10
85.0496708446
 20
-68.6684733155
 10
85.1077068921
 20
-68.7094146078
 10
85.1660108188
 20
-68.7467777499
 10
85.2245802109
 20
-68.7805949829
 10
85.2828841376
 20
-68.8105597539
 10
85.3409201851
 20
-68.8366370345
 10
85.3986907671
 20
-68.8588618531
 10
85.4556721938
 20
-68.8770327419
 10
85.51185729
 20
-68.8911128407
 10
85.5672532309
 20
-68.9011390098
 10
85.621357853
 20
-68.907020362
 10
85.6741594149
 20
-68.9087192107
 10
85.7256696579
 20
-68.9062732425
 10
85.7754216422
 20
-68.8997046301
 10
85.8233993809
 20
-68.8889758885
 10
85.8696188608
 20
-68.8741245027
 10
85.913661103
 20
-68.8552851004
 10
85.9452713299
 20
-68.8384997755
  0
LINE
  5
3A2
100
AcDbEntity
  8
ASSI
100
AcDbLine
 62
7
  6
CONTINUOUS
 10
83.3214625447
 20
-115.0375185524
 11
83.3214625447
 21
-113.7091663139
  0
LINE
  5
3A3
100
AcDbEntity
  8
ASSI
100
AcDbLine
 62
7
  6
CONTINUOUS
 10
83.4275285619
 20
-15.6299367464
 11
83.4275285619
 21
-17.9387968031
  0
LINE
  5
3A4
100
AcDbEntity
  8
0
100
AcDbLine
 62
7
  6
CONTINUOUS
 10
91.1940196296
 20
-34.2482488367
 11
91.762191242
 21
-32.535343861
  0
LINE
  5
3A5
100
AcDbEntity
  8
0
100
AcDbLine
 62
7
  6
CONTINUOUS
 10
93.7289917833
 20
-33.6709498437
 11
93.3600284146
 21
-34.5910622737
  0
LINE
  5
3A6
100
AcDbEntity
  8
0
100
AcDbLine
 62
7
  6
CONTINUOUS
 10
93.8172379256
 20
-33.7219020603
 11
93.5014497709
 21
-34.509407355
  0
LINE
  5
3A7
100
AcDbEntity
  8
ASSI
100
AcDbLine
 62
7
  6
CONTINUOUS
 10
38.8798013471
 20
-97.7462806989
 11
39.1627056767
 21
-97.4839154803
  0
LWPOLYLINE
  5
3A8
100
AcDbEntity
  8
RACCORDO
100
AcDbPolyline
 62
7
  6
CONTINUOUS
 90
4
 70
0
 10
82.9873552983
 20
-64.2234520545
 10
82.9418177858
 20
-64.2595319827
 10
82.8939071606
 20
-64.291278972
 10
82.8832946432
 20
-64.2975396637
  0
LWPOLYLINE
  5
3A9
100
AcDbEntity
  8
ASSI
100
AcDbPolyline
 62
7
  6
CONTINUOUS
 90
17
 70
0
 10
37.0046540495
 20
-91.0287880018
 10
36.9408251368
 20
-91.0682298803
 10
36.8650534162
 20
-91.1224216206
 10
36.7928499675
 20
-91.1825150333
 10
36.7246132111
 20
-91.2481768402
 10
36.6603658685
 20
-91.3194369773
 10
36.6000852181
 20
-91.3962655087
 10
36.5441015152
 20
-91.4782393476
 10
36.4924382229
 20
-91.5653865268
 10
36.445071878
 20
-91.6576790135
 10
36.4022623456
 20
-91.7546096226
 10
36.3640344815
 20
-91.8562036572
 10
36.3303634299
 20
-91.9624358143
 10
36.3014344889
 20
-92.0727229997
 10
36.2773094245
 20
-92.1868708486
 10
36.2579264707
 20
-92.305073726
 10
36.2432856274
 20
-92.4273316316
  0
LWPOLYLINE
  5
3AA
100
AcDbEntity
  8
RACCORDO
100
AcDbPolyline
 62
7
  6
CONTINUOUS
 90
4
 70
0
 10
83.1952947438
 20
-64.0753664411
 10
83.1461939411
 20
-64.1051512225
 10
83.0649904061
 20
-64.1611374701
 10
82.9873552983
 20
-64.2234520545
  0
LINE
  5
3AB
100
AcDbEntity
  8
RACCORDO
100
AcDbLine
 62
253
  6
CONTINUOUS
 10
82.9440453618
 20
-63.5859743676
 11
81.88338519
 21
-64.1983862576
  0
LINE
  5
3AC
100
AcDbEntity
  8
ASSI
100
AcDbLine
 62
7
  6
CONTINUOUS
 10
84.2558590461
 20
-63.4630070477
 11
83.1951988743
 21
-64.0754189377
  0
LINE
  5
3AD
100
AcDbEntity
  8
ASSI
100
AcDbLine
 62
7
  6
CONTINUOUS
 10
37.4655877848
 20
-90.7626344426
 11
37.0047107466
 21
-91.0287390683
  0
LINE
  5
3AE
100
AcDbEntity
  8
ASSI
100
AcDbLine
 62
7
  6
CONTINUOUS
 10
36.2560337918
 20
-92.3208784822
 11
35.8745975271
 21
-92.5411150009
  0
LWPOLYLINE
  5
3AF
100
AcDbEntity
  8
RACCORDO
100
AcDbPolyline
 62
7
  6
CONTINUOUS
 90
17
 70
0
 10
82.8832946432
 20
-64.2975396637
 10
82.8436234227
 20
-64.3186930226
 10
82.7908305721
 20
-64.3418204682
 10
82.7356646089
 20
-64.360614975
 10
82.6785335327
 20
-64.3749375415
 10
82.6194227738
 20
-64.3847550121
 10
82.558346902
 20
-64.3901005423
 10
82.4957576257
 20
-64.3909345975
 10
82.4316437243
 20
-64.3872237288
 10
82.3660164186
 20
-64.379001385
 10
82.2993610787
 20
-64.3663283774
 10
82.2316700827
 20
-64.3491717082
 10
82.1629510526
 20
-64.3275643752
 10
82.0937122246
 20
-64.3016661831
 10
82.0241230109
 20
-64.2715304003
 10
81.9540139994
 20
-64.2371037584
 10
81.88338519
 20
-64.1983862576
  0
LINE
  5
3B0
100
AcDbEntity
  8
0
100
AcDbLine
 62
7
  6
CONTINUOUS
 10
17.0719002024
 20
-25.5860842258
 11
17.1813438817
 21
-25.6154147332
  0
LINE
  5
3B1
100
AcDbEntity
  8
ASSI
100
AcDbLine
 62
7
  6
CONTINUOUS
 10
2.6052234723
 20
-1.2782934578
 11
3.8022215115
 21
-1.9694251238
  0
LINE
  5
3B2
100
AcDbEntity
  8
ASSI
100
AcDbLine
 62
7
  6
CONTINUOUS
 10
121.1163199991
 20
-69.5009977304
 11
122.6916518119
 21
-70.4105745755
  0
LINE
  5
3B3
100
AcDbEntity
  8
ASSI
100
AcDbLine
 62
7
  6
CONTINUOUS
 10
3.665883644
 20
-0.6658815679
 11
4.8628816832
 21
-1.3570132338
  0
LINE
  5
3B4
100
AcDbEntity
  8
ASSI
100
AcDbLine
 62
7
  6
CONTINUOUS
 10
122.6916518119
 20
-67.1446934684
 11
121.1163199991
 21
-66.2351166232
  0
LINE
  5
3B5
100
AcDbEntity
  8
ASSI
100
AcDbLine
 62
7
  6
CONTINUOUS
 10
3.8022215115
 20
1.7046911218
 11
2.6052234723
 21
2.3958227877
  0
LINE
  5
3B6
100
AcDbEntity
  8
ASSI
100
AcDbLine
 62
7
  6
CONTINUOUS
 10
123.6596148769
 20
-66.4787594307
 11
122.1769801709
 21
-65.6227047332
  0
LINE
  5
3B7
100
AcDbEntity
  8
0
100
AcDbLine
 62
7
  6
CONTINUOUS
 10
29.061328922
 20
1.8298928417
 11
28.9140151498
 21
1.9583792324
  0
LINE
  5
3B8
100
AcDbEntity
  8
0
100
AcDbLine
 62
7
  6
CONTINUOUS
 10
29.2822997912
 20
2.5708924198
 11
29.4296139849
 21
2.4424057858
  0
LINE
  5
3B9
100
AcDbEntity
  8
0
100
AcDbLine
 62
7
  6
CONTINUOUS
 10
29.4237211474
 20
2.6525473385
 11
29.522172915
 21
2.5666782453
  0
LWPOLYLINE
  5
3BA
100
AcDbEntity
  8
RACCORDO
100
AcDbPolyline
 62
7
  6
CONTINUOUS
 90
18
 70
0
 10
88.5094334157
 20
-66.2493796888
 10
88.5573440409
 20
-66.3364526672
 10
88.6076277788
 20
-66.4219331179
 10
88.6604206294
 20
-66.506024424
 10
88.7155865926
 20
-66.5885232023
 10
88.7727176688
 20
-66.6688193036
 10
88.8318284277
 20
-66.7468963969
 10
88.8929042995
 20
-66.822770813
 10
88.9554935758
 20
-66.8958813956
 10
89.0196074771
 20
-66.9662076531
 10
89.0852347829
 20
-67.033770077
 10
89.1518901228
 20
-67.0980689852
 10
89.2195811188
 20
-67.1590801814
 10
89.2883001489
 20
-67.2168278618
 10
89.3575389769
 20
-67.2708849327
 10
89.4271281906
 20
-67.3211090296
 10
89.4972372021
 20
-67.3676425169
 10
89.5678660115
 20
-67.4104853948
  0
LWPOLYLINE
  5
3BB
100
AcDbEntity
  8
RACCORDO
100
AcDbPolyline
 62
7
  6
CONTINUOUS
 90
41
 70
0
 10
87.4487732439
 20
-66.8617915788
 10
87.3256006237
 20
-66.6211604118
 10
87.2443970886
 20
-66.4714023572
 10
87.1596251262
 20
-66.3238519091
 10
87.0711178507
 20
-66.1782490749
 10
86.9790421478
 20
-66.0348538471
 10
86.8838986751
 20
-65.8944462027
 10
86.7856707136
 20
-65.7570423957
 10
86.6843749822
 20
-65.622626172
 10
86.5805622951
 20
-65.4919287461
 10
86.4742189292
 20
-65.3649703532
 10
86.3653586075
 20
-65.2417307581
 10
86.2545733129
 20
-65.122880469
 10
86.1418525485
 20
-65.0084433771
 10
86.0272068111
 20
-64.8983955914
 10
85.9112595741
 20
-64.7933359464
 10
85.7940037027
 20
-64.6932915744
 10
85.6754463318
 20
-64.5982353431
 10
85.5562323397
 20
-64.508684691
 10
85.4363578122
 20
-64.4246694652
 10
85.3158266635
 20
-64.3461598186
 10
85.1952955149
 20
-64.2735836484
 10
85.0747643662
 20
-64.2069734694
 10
84.9542332175
 20
-64.1462967667
 10
84.83435869
 20
-64.0918838929
 10
84.7151446979
 20
-64.0437692151
 10
84.596587327
 20
-64.0019183662
 10
84.4793314556
 20
-63.966558597
 10
84.3633842186
 20
-63.9377252791
 10
84.2487384812
 20
-63.915383041
 10
84.1360177168
 20
-63.8996530195
 10
84.0252324222
 20
-63.8905712273
 10
83.9163721005
 20
-63.8881016517
 10
83.8100287347
 20
-63.8922573913
 10
83.7062160475
 20
-63.9030745282
 10
83.6049203161
 20
-63.9205169803
 10
83.5066923546
 20
-63.9444895995
 10
83.4115488819
 20
-63.9750279465
 10
83.3194731791
 20
-64.0120964607
 10
83.2309659035
 20
-64.0554933116
 10
83.1952947438
 20
-64.0753664411
  0
LWPOLYLINE
  5
3BC
100
AcDbEntity
  8
RACCORDO
100
AcDbPolyline
 62
7
  6
CONTINUOUS
 90
41
 70
0
 10
88.5094334157
 20
-66.2493796888
 10
88.3861948733
 20
-66.0086376266
 10
88.3049532807
 20
-65.8588151839
 10
88.2201711254
 20
-65.7112468545
 10
88.1317010465
 20
-65.5657030188
 10
88.039690405
 20
-65.4224132965
 10
87.944581283
 20
-65.2820665462
 10
87.846316602
 20
-65.1446208069
 10
87.7449534405
 20
-65.0101180398
 10
87.6411051174
 20
-64.8793729873
 10
87.5347986136
 20
-64.7524567128
 10
87.4260069482
 20
-64.6292981529
 10
87.3152624962
 20
-64.5104988603
 10
87.2025185051
 20
-64.3960433688
 10
87.0878217275
 20
-64.2859471445
 10
86.9718447965
 20
-64.180858139
 10
86.8546078328
 20
-64.0808293674
 10
86.7360907157
 20
-63.9858078145
 10
86.6169057155
 20
-63.8962823865
 10
86.4970342946
 20
-63.8122701231
 10
86.3764949906
 20
-63.7337539846
 10
86.2559556866
 20
-63.6611717584
 10
86.1354163826
 20
-63.5945582178
 10
86.0148770786
 20
-63.5338785894
 10
85.8950056578
 20
-63.4794663407
 10
85.7758206575
 20
-63.4313599179
 10
85.6573035404
 20
-63.3895208747
 10
85.5400665768
 20
-63.3541673394
 10
85.4240896457
 20
-63.325329092
 10
85.3093928681
 20
-63.3029763524
 10
85.1966488771
 20
-63.2872379091
 10
85.0859044251
 20
-63.2781522845
 10
84.9771127596
 20
-63.275680956
 10
84.8708062559
 20
-63.2798371447
 10
84.7669579327
 20
-63.2906607567
 10
84.6655947713
 20
-63.3081118857
 10
84.5673300902
 20
-63.3320840344
 10
84.4722209683
 20
-63.3626011546
 10
84.3802103267
 20
-63.3996392944
 10
84.2917402479
 20
-63.4430201007
 10
84.255971869
 20
-63.4629496813
  0
LINE
  5
3BD
100
AcDbEntity
  8
0
100
AcDbLine
 62
7
  6
CONTINUOUS
 10
96.2981652778
 20
-110.2671458978
 11
95.8885977164
 21
-108.7246408662
  0
LINE
  5
3BE
100
AcDbEntity
  8
0
100
AcDbLine
 62
7
  6
CONTINUOUS
 10
97.4758219234
 20
-113.101414266
 11
97.066254362
 21
-111.558564684
  0
LINE
  5
3BF
100
AcDbEntity
  8
0
100
AcDbLine
 62
7
  6
CONTINUOUS
 10
96.0193488313
 20
-109.7259689422
 11
96.1312937343
 21
-110.17079636
  0
LINE
  5
3C0
100
AcDbEntity
  8
0
100
AcDbLine
 62
7
  6
CONTINUOUS
 10
97.1970054769
 20
-112.5602373104
 11
97.3089503799
 21
-113.0050647282
  0
LINE
  5
3C1
100
AcDbEntity
  8
0
100
AcDbLine
 62
7
  6
CONTINUOUS
 10
94.6140759271
 20
-109.0984135282
 11
94.2894325972
 21
-107.8013029686
  0
LINE
  5
3C2
100
AcDbEntity
  8
0
100
AcDbLine
 62
7
  6
CONTINUOUS
 10
94.2183846292
 20
-107.9712305548
 11
94.5369044143
 21
-109.250215949
  0
LINE
  5
3C3
100
AcDbEntity
  8
0
100
AcDbLine
 62
7
  6
CONTINUOUS
 10
94.6549751408
 20
-109.0747988348
 11
94.6783257706
 21
-109.1685610303
  0
LINE
  5
3C4
100
AcDbEntity
  8
0
100
AcDbLine
 62
7
  6
CONTINUOUS
 10
96.9733320457
 20
-111.6942421627
 11
97.1420781292
 21
-112.3720341727
  0
LINE
  5
3C5
100
AcDbEntity
  8
0
100
AcDbLine
 62
7
  6
CONTINUOUS
 10
95.7956754001
 20
-108.8599639968
 11
95.9641230846
 21
-109.5375935126
  0
LWPOLYLINE
  5
3C6
100
AcDbEntity
  8
ASSI
100
AcDbPolyline
 62
7
  6
CONTINUOUS
 90
22
 70
0
 10
82.2052264045
 20
-12.6608924534
 10
82.2198672478
 20
-12.8000572378
 10
82.2392502016
 20
-12.9406430644
 10
82.263375266
 20
-13.082649933
 10
82.292304207
 20
-13.2263435343
 10
82.3259752586
 20
-13.3714581777
 10
82.3642031227
 20
-13.5171967916
 10
82.4070126551
 20
-13.6635627757
 10
82.454379
 20
-13.8105527302
 10
82.5060422923
 20
-13.9573593844
 10
82.5620259953
 20
-14.1039818002
 10
82.6223066456
 20
-14.2504209155
 10
82.6865539882
 20
-14.3958722735
 10
82.7547907447
 20
-14.5403321763
 10
82.8269941933
 20
-14.6838043217
 10
82.9027659139
 20
-14.8254953456
 10
82.9821214162
 20
-14.9653894772
 10
83.0650451903
 20
-15.1035024872
 10
83.1510922869
 20
-15.2390883243
 10
83.2401143894
 20
-15.3718983046
 10
83.3322598144
 20
-15.502181112
 10
83.4275285619
 20
-15.6299367464
  0
LWPOLYLINE
  5
3C7
100
AcDbEntity
  8
0
100
AcDbPolyline
 62
7
  6
CONTINUOUS
 90
28
 70
0
 10
85.1952955149
 20
-66.3146409756
 10
85.1969466946
 20
-66.3833985941
 10
85.201768702
 20
-66.453376056
 10
85.2097615371
 20
-66.5245733616
 10
85.2209686452
 20
-66.5972136912
 10
85.235346581
 20
-66.6710738643
 10
85.2527650086
 20
-66.7454843392
 10
85.2732515736
 20
-66.8204501195
 10
85.2967786304
 20
-66.8959662016
 10
85.3231329066
 20
-66.971348033
 10
85.3523401085
 20
-67.0465943929
 10
85.3843745296
 20
-67.1217065021
 10
85.4189457784
 20
-67.19600347
 10
85.4560769207
 20
-67.2694778851
 10
85.4957448907
 20
-67.3421371588
 10
85.5375900985
 20
-67.4133226357
 10
85.5816323406
 20
-67.4830209153
 10
85.6278518206
 20
-67.551245398
 10
85.6758295593
 20
-67.6173776297
 10
85.7255815436
 20
-67.6813985865
 10
85.7770917866
 20
-67.7433272921
 10
85.8298933485
 20
-67.8026023636
 10
85.8839979706
 20
-67.8591996728
 10
85.9393939115
 20
-67.9131433477
 10
85.9955790077
 20
-67.9639443896
 10
86.0525604344
 20
-68.0115742241
 10
86.1103310164
 20
-68.0560614255
 10
86.1683670639
 20
-68.0970027178
  0
LWPOLYLINE
  5
3C8
100
AcDbEntity
  8
0
100
AcDbPolyline
 62
7
  6
CONTINUOUS
 90
44
 70
0
 10
86.2559556866
 20
-68.1518766456
 10
86.2543045069
 20
-68.0831190271
 10
86.2494824995
 20
-68.0131415651
 10
86.2414896644
 20
-67.9419442596
 10
86.2302825563
 20
-67.8693039299
 10
86.2159046205
 20
-67.7954437568
 10
86.1984861929
 20
-67.7210332819
 10
86.1779996279
 20
-67.6460675016
 10
86.154472571
 20
-67.5705514195
 10
86.1281182949
 20
-67.4951695881
 10
86.098911093
 20
-67.4199232282
 10
86.0668766719
 20
-67.344811119
 10
86.0323054231
 20
-67.2705141511
 10
85.9951742807
 20
-67.1970397361
 10
85.9555063108
 20
-67.1243804623
 10
85.913661103
 20
-67.0531949854
 10
85.8696188608
 20
-66.9834967058
 10
85.8233993809
 20
-66.9152722231
 10
85.7754216422
 20
-66.8491399915
 10
85.7256696579
 20
-66.7851190347
 10
85.6741594149
 20
-66.723190329
 10
85.621357853
 20
-66.6639152575
 10
85.5672532309
 20
-66.6073179484
 10
85.51185729
 20
-66.5533742734
 10
85.4556721938
 20
-66.5025732315
 10
85.3986907671
 20
-66.454943397
 10
85.3409201851
 20
-66.4104561956
 10
85.2828841376
 20
-66.3695149033
 10
85.2245802109
 20
-66.3321517612
 10
85.1660108188
 20
-66.2983345282
 10
85.1077068921
 20
-66.2683697572
 10
85.0496708446
 20
-66.2422924766
 10
84.9919002627
 20
-66.2200676581
 10
84.9349188359
 20
-66.2018967692
 10
84.8787337397
 20
-66.1878166704
 10
84.8233377988
 20
-66.1777905013
 10
84.7692331767
 20
-66.1719091491
 10
84.7164316148
 20
-66.1702103004
 10
84.6649213718
 20
-66.1726562686
 10
84.6151693875
 20
-66.179224881
 10
84.5671916488
 20
-66.1899536226
 10
84.5209721689
 20
-66.2048050084
 10
84.4769299267
 20
-66.2236444107
 10
84.4453196998
 20
-66.2404297356
  0
LINE
  5
3C9
100
AcDbEntity
  8
ASSI
100
AcDbLine
 62
7
  6
CONTINUOUS
 10
84.3821227165
 20
-114.4251066624
 11
84.3821227165
 21
-113.0967544239
  0
LINE
  5
3CA
100
AcDbEntity
  8
ASSI
100
AcDbLine
 62
7
  6
CONTINUOUS
 10
86.2559556866
 20
-19.5718951764
 11
86.2559556866
 21
-17.2630351198
  0
LINE
  5
3CB
100
AcDbEntity
  8
ASSI
100
AcDbLine
 62
7
  6
CONTINUOUS
 10
86.3620217038
 20
-116.7930993037
 11
86.3620217038
 21
-115.4647470652
  0
LINE
  5
3CC
100
AcDbEntity
  8
ASSI
100
AcDbLine
 62
7
  6
CONTINUOUS
 10
87.3166158584
 20
-18.9594832864
 11
87.3166158584
 21
-16.7577600189
  0
LINE
  5
3CD
100
AcDbEntity
  8
0
100
AcDbLine
 62
7
  6
CONTINUOUS
 10
92.6263040129
 20
-33.034271745
 11
92.4667015271
 21
-34.9830794138
  0
LINE
  5
3CE
100
AcDbEntity
  8
0
100
AcDbLine
 62
7
  6
CONTINUOUS
 10
92.7549545876
 20
-33.1085529745
 11
92.6081228833
 21
-34.9014244952
  0
LINE
  5
3CF
100
AcDbEntity
  8
0
100
AcDbLine
 62
7
  6
CONTINUOUS
 10
94.8595148122
 20
-35.6419293078
 11
95.043228225
 21
-34.9905775341
  0
LINE
  5
3D0
100
AcDbEntity
  8
0
100
AcDbLine
 62
7
  6
CONTINUOUS
 10
91.3934796033
 20
-32.3224543819
 11
91.0462541113
 21
-33.5268270504
  0
LINE
  5
3D1
100
AcDbEntity
  8
0
100
AcDbLine
 62
7
  6
CONTINUOUS
 10
91.4945371601
 20
-32.3808037486
 11
91.1876754676
 21
-33.4451721317
  0
LINE
  5
3D2
100
AcDbEntity
  8
0
100
AcDbLine
 62
7
  6
CONTINUOUS
 10
94.6822311213
 20
-36.2622984344
 11
94.7840417699
 21
-35.9136345659
  0
LINE
  5
3D3
100
AcDbEntity
  8
0
100
AcDbLine
 62
7
  6
CONTINUOUS
 10
94.8716961407
 20
-34.3307330182
 11
94.3172706841
 21
-36.051574852
  0
LINE
  5
3D4
100
AcDbEntity
  8
0
100
AcDbLine
 62
7
  6
CONTINUOUS
 10
94.9687544889
 20
-34.3867732921
 11
94.4586920404
 21
-35.9699199334
  0
LINE
  5
3D5
100
AcDbEntity
  8
0
100
AcDbLine
 62
7
  6
CONTINUOUS
 10
93.3838876116
 20
-35.512651164
 11
93.8225844369
 21
-34.4387963731
  0
LWPOLYLINE
  5
3D6
100
AcDbEntity
  8
ASSI
100
AcDbPolyline
 62
7
  6
CONTINUOUS
 90
16
 70
0
 10
40.7548916482
 20
-97.5238251496
 10
40.8375912316
 20
-97.4716356101
 10
40.9165580025
 20
-97.4127554533
 10
40.9912116591
 20
-97.347600817
 10
41.0615258113
 20
-97.2761332946
 10
41.1275268492
 20
-97.1983912928
 10
41.1888110785
 20
-97.1148499166
 10
41.2453496402
 20
-97.0254736589
 10
41.2971713934
 20
-96.9302980268
 10
41.3439592207
 20
-96.8299046468
 10
41.3856823219
 20
-96.7242615609
 10
41.4223714972
 20
-96.6134007271
 10
41.4538020309
 20
-96.4979996455
 10
41.4798990178
 20
-96.3782841493
 10
41.5007373631
 20
-96.2540284053
 10
41.5163170669
 20
-96.1252324135
  0
LWPOLYLINE
  5
3D7
100
AcDbEntity
  8
RACCORDO
100
AcDbPolyline
 62
7
  6
CONTINUOUS
 90
4
 70
0
 10
87.1952962859
 20
-71.00356307
 10
87.2443970886
 20
-70.9737782887
 10
87.3256006237
 20
-70.917792041
 10
87.4032357314
 20
-70.8554774566
  0
LWPOLYLINE
  5
3D8
100
AcDbEntity
  8
0
100
AcDbPolyline
 62
7
  6
CONTINUOUS
 90
16
 70
0
 10
84.4453196998
 20
-66.2404297356
 10
84.4350847189
 20
-66.2465080905
 10
84.395416749
 20
-66.2733597869
 10
84.3582856066
 20
-66.3039560894
 10
84.3237143578
 20
-66.3383310458
 10
84.2916799367
 20
-66.3764506084
 10
84.2624727348
 20
-66.4179692238
 10
84.2361184587
 20
-66.4629177976
 10
84.2125914018
 20
-66.5112654242
 10
84.1921048368
 20
-66.5625738327
 10
84.1746864092
 20
-66.6168699441
 10
84.1603084734
 20
-66.6741268374
 10
84.1491013653
 20
-66.7338254795
 10
84.1411085302
 20
-66.7957928594
 10
84.1362865228
 20
-66.8602019881
 10
84.1346353431
 20
-66.9270528656
  0
LWPOLYLINE
  5
3D9
100
AcDbEntity
  8
0
100
AcDbPolyline
 62
7
  6
CONTINUOUS
 90
16
 70
0
 10
85.9452713299
 20
-68.8384997755
 10
85.9555063108
 20
-68.8324214206
 10
85.9951742807
 20
-68.8055697242
 10
86.0323054231
 20
-68.7749734217
 10
86.0668766719
 20
-68.7405984653
 10
86.098911093
 20
-68.7024789027
 10
86.1281182949
 20
-68.6609602873
 10
86.154472571
 20
-68.6160117135
 10
86.1779996279
 20
-68.5676640869
 10
86.1984861929
 20
-68.5163556784
 10
86.2159046205
 20
-68.462059567
 10
86.2302825563
 20
-68.4048026737
 10
86.2414896644
 20
-68.3451040316
 10
86.2494824995
 20
-68.2831366517
 10
86.2543045069
 20
-68.2187275231
 10
86.2559556866
 20
-68.1518766456
  0
LINE
  5
3DA
100
AcDbEntity
  8
ASSI
100
AcDbLine
 62
7
  6
CONTINUOUS
 10
41.3546750813
 20
-91.890457715
 11
40.2940149095
 21
-92.502869605
  0
LINE
  5
3DB
100
AcDbEntity
  8
0
100
AcDbLine
 62
7
  6
CONTINUOUS
 10
64.1588687746
 20
-79.6431298181
 11
63.0982086028
 21
-80.2555417081
  0
LINE
  5
3DC
100
AcDbEntity
  8
RACCORDO
100
AcDbLine
 62
253
  6
CONTINUOUS
 10
87.4032357314
 20
-66.7731260726
 11
88.4638959032
 21
-66.1607141826
  0
LINE
  5
3DD
100
AcDbEntity
  8
RACCORDO
100
AcDbLine
 62
253
  6
CONTINUOUS
 10
122.1769801709
 20
-47.2521235054
 11
121.1163199991
 21
-47.8645353954
  0
LINE
  5
3DE
100
AcDbEntity
  8
0
100
AcDbLine
 62
7
  6
CONTINUOUS
 10
62.5678785169
 20
-82.23466718
 11
63.1335639418
 21
-81.9080475054
  0
LINE
  5
3DF
100
AcDbEntity
  8
RACCORDO
100
AcDbLine
 62
253
  6
CONTINUOUS
 10
88.5072058397
 20
-68.0228972848
 11
89.5678660115
 21
-67.4104853948
  0
LINE
  5
3E0
100
AcDbEntity
  8
ASSI
100
AcDbLine
 62
7
  6
CONTINUOUS
 10
42.5769772386
 20
-94.8595020081
 11
41.5163170669
 21
-95.4719138981
  0
LINE
  5
3E1
100
AcDbEntity
  8
ASSI
100
AcDbLine
 62
7
  6
CONTINUOUS
 10
39.2613280976
 20
-97.5259919348
 11
38.8798013471
 21
-97.7462806989
  0
LINE
  5
3E2
100
AcDbEntity
  8
ASSI
100
AcDbLine
 62
7
  6
CONTINUOUS
 10
41.8850051672
 20
-96.0114490442
 11
42.945665339
 21
-95.3990371542
  0
LINE
  5
3E3
100
AcDbEntity
  8
ASSI
100
AcDbLine
 62
7
  6
CONTINUOUS
 10
41.8155521194
 20
-96.9114130868
 11
40.7548919477
 21
-97.5238249768
  0
LINE
  5
3E4
100
AcDbEntity
  8
RACCORDO
100
AcDbLine
 62
253
  6
CONTINUOUS
 10
87.6204514494
 20
-70.7300598234
 11
87.4032357314
 21
-70.8554774566
  0
LINE
  5
3E5
100
AcDbEntity
  8
ASSI
100
AcDbLine
 62
7
  6
CONTINUOUS
 10
87.7149811699
 20
-70.7035063885
 11
87.1953921554
 21
-71.0035105734
  0
LWPOLYLINE
  5
3E6
100
AcDbEntity
  8
RACCORDO
100
AcDbPolyline
 62
7
  6
CONTINUOUS
 90
17
 70
0
 10
87.5072963865
 20
-70.7813898474
 10
87.5469676071
 20
-70.7602364886
 10
87.5997604576
 20
-70.7371090429
 10
87.6549264208
 20
-70.7183145361
 10
87.712057497
 20
-70.7039919697
 10
87.7711682559
 20
-70.6941744991
 10
87.8322441277
 20
-70.6888289688
 10
87.894833404
 20
-70.6879949137
 10
87.9589473054
 20
-70.6917057823
 10
88.0245746111
 20
-70.6999281261
 10
88.091229951
 20
-70.7126011337
 10
88.158920947
 20
-70.7297578029
 10
88.2276399771
 20
-70.751365136
 10
88.2968788051
 20
-70.777263328
 10
88.3664680188
 20
-70.8073991108
 10
88.4365770303
 20
-70.8418257527
 10
88.5072058397
 20
-70.8805432535
  0
LWPOLYLINE
  5
3E7
100
AcDbEntity
  8
0
100
AcDbPolyline
 62
7
  6
CONTINUOUS
 90
3
 70
0
 10
14.7071503095
 20
-25.3707835118
 10
16.8208748417
 20
-25.5631019385
 10
17.0719002024
 20
-25.5860842258
  0
LWPOLYLINE
  5
3E8
100
AcDbEntity
  8
0
100
AcDbPolyline
 62
7
  6
CONTINUOUS
 90
10
 70
0
 10
96.8278933959
 20
-36.5364144527
 10
96.8343825
 20
-36.5386490018
 10
96.8408347638
 20
-36.540127503
 10
96.8472501874
 20
-36.5408499562
 10
96.8536075886
 20
-36.540719048
 10
96.8599281494
 20
-36.5398320919
 10
96.8662754165
 20
-36.5384810282
 10
96.8726463228
 20
-36.5366667222
 10
96.8790439353
 20
-36.5343883086
 10
96.8921644373
 20
-36.5294078396
  0
LWPOLYLINE
  5
3E9
100
AcDbEntity
  8
0
100
AcDbPolyline
 62
7
  6
CONTINUOUS
 90
6
 70
0
 10
96.9693147522
 20
-36.454759534
 10
96.9760684333
 20
-36.4571065026
 10
96.9828854469
 20
-36.4585946457
 10
96.9897657931
 20
-36.4592239632
 10
96.9967072849
 20
-36.4588756828
 10
96.9970349326
 20
-36.4588192209
  0
LINE
  5
3EA
100
AcDbEntity
  8
0
100
AcDbLine
 62
7
  6
CONTINUOUS
 10
38.1726945659
 20
-12.6292148883
 11
61.1536649545
 21
-25.8981391715
  0
LINE
  5
3EB
100
AcDbEntity
  8
0
100
AcDbLine
 62
7
  6
CONTINUOUS
 10
62.5678785169
 20
-26.7146883581
 11
85.5488489054
 21
-39.9836126413
  0
LWPOLYLINE
  5
3EC
100
AcDbEntity
  8
0
100
AcDbPolyline
 62
7
  6
CONTINUOUS
 90
61
 70
0
 10
85.5488489054
 20
-39.9836126413
 10
86.1670885796
 20
-40.3497868423
 10
86.7841067967
 20
-40.73351322
 10
87.3999035568
 20
-41.1347917744
 10
88.0148834426
 20
-41.5539103895
 10
88.6286418714
 20
-41.9905811813
 10
89.2399650951
 20
-42.4439404973
 10
89.8488482913
 20
-42.9140213569
 10
90.4552962823
 20
-43.4007907407
 10
91.0581097869
 20
-43.9032859386
 10
91.6572816101
 20
-44.4215380647
 10
92.252818947
 20
-44.955516005
 10
92.8435441013
 20
-45.5041637069
 10
93.4294475481
 20
-46.0675101948
 10
94.0105388123
 20
-46.6455264443
 10
94.5856687727
 20
-47.2370693295
 10
95.1548256308
 20
-47.842165613
 10
95.718021185
 20
-48.4607885323
 10
96.2741417089
 20
-49.0917146739
 10
96.8231732007
 20
-49.7349683796
 10
97.3651296622
 20
-50.3905253076
 10
97.8989393718
 20
-51.0570890189
 10
98.4245862077
 20
-51.7346812903
 10
98.9420862916
 20
-52.4232803451
 10
99.4504162675
 20
-53.121524414
 10
99.9495579892
 20
-53.8294325795
 10
100.4395296029
 20
-54.5469857592
 10
100.9193621917
 20
-55.2727649366
 10
101.3890356924
 20
-56.0067863867
 10
101.8485701683
 20
-56.7490338346
 10
102.297056892
 20
-57.4980394392
 10
102.7344740025
 20
-58.2538165714
 10
103.1608433607
 20
-59.0163518602
 10
103.5753218222
 20
-59.7841373523
 10
103.9778858579
 20
-60.5571834351
 10
104.3685589968
 20
-61.3354797211
 10
104.7465686813
 20
-62.1174870949
 10
105.1118898541
 20
-62.9032128986
 10
105.4645475723
 20
-63.6926497901
 10
105.8038444505
 20
-64.4842366266
 10
106.1297540515
 20
-65.277977662
 10
106.4423028123
 20
-66.0738686425
 10
106.7408726585
 20
-66.8703356644
 10
107.0254359302
 20
-67.6673798674
 10
107.2960202872
 20
-68.4650001118
 10
107.5520906343
 20
-69.2616190742
 10
107.7936182532
 20
-70.0572347737
 10
108.0206318622
 20
-70.8518491911
 10
108.2326825218
 20
-71.6438909453
 10
108.4297406253
 20
-72.4333549466
 10
108.6118357793
 20
-73.2202462846
 10
108.7786078644
 20
-74.0030088468
 10
108.9300265614
 20
-74.7816344651
 10
109.0661221896
 20
-75.5561313077
 10
109.1866255874
 20
-76.3249677668
 10
109.2915060058
 20
-77.088136738
 10
109.3807941937
 20
-77.8456453258
 10
109.4543132372
 20
-78.5959832364
 10
109.5120041649
 20
-79.3386470386
 10
109.5539259481
 20
-80.0741401636
 10
109.5800785868
 20
-80.8024626114
  0
LWPOLYLINE
  5
3ED
100
AcDbEntity
  8
ASSI
100
AcDbPolyline
 62
7
  6
CONTINUOUS
 90
27
 70
0
 10
20.4334238651
 20
6.5965973733
 10
20.371822694
 20
6.6383880648
 10
20.3108433303
 20
6.6838915902
 10
20.250492072
 20
6.7331455537
 10
20.1907626213
 20
6.786112351
 10
20.1322578923
 20
6.8422573307
 10
20.0749902893
 20
6.901612682
 10
20.0189474081
 20
6.9641462157
 10
19.9646949504
 20
7.0292267129
 10
19.9122510499
 20
7.0968799697
 10
19.8615975728
 20
7.16708019
 10
19.8132458198
 20
7.2391187667
 10
19.7672191031
 20
7.3130143191
 10
19.7234941104
 20
7.3887482278
 10
19.6825122057
 20
7.4655560284
 10
19.6443011713
 20
7.5434485973
 10
19.6088332248
 20
7.6224150581
 10
19.5764663827
 20
7.7016583163
 10
19.5472320536
 20
7.7811811755
 10
19.5210988289
 20
7.8609808322
 10
19.4983304997
 20
7.9402517819
 10
19.4789611461
 20
8.0189886695
 10
19.4629566881
 20
8.0971968501
 10
19.4504786758
 20
8.1740868834
 10
19.4415809595
 20
8.2493956227
 10
19.4362096891
 20
8.3233862148
 10
19.4343648645
 20
8.3960586596
  0
LINE
  5
3EE
100
AcDbEntity
  8
0
100
AcDbLine
 62
7
  6
CONTINUOUS
 10
28.8771868121
 20
1.7624971021
 11
29.061328922
 21
1.612746487
  0
LINE
  5
3EF
100
AcDbEntity
  8
0
100
AcDbLine
 62
7
  6
CONTINUOUS
 10
29.0186081683
 20
1.8441520207
 11
29.2027502783
 21
1.6944014056
  0
LINE
  5
3F0
100
AcDbEntity
  8
0
100
AcDbLine
 62
7
  6
CONTINUOUS
 10
29.4664423226
 20
2.6382878895
 11
29.2822997912
 21
2.7880387442
  0
LINE
  5
3F1
100
AcDbEntity
  8
0
100
AcDbLine
 62
7
  6
CONTINUOUS
 10
109.5268924414
 20
-79.5998531277
 11
108.7709636126
 21
-78.5319741796
  0
LWPOLYLINE
  5
3F2
100
AcDbEntity
  8
ASSI
100
AcDbPolyline
 62
7
  6
CONTINUOUS
 90
31
 70
0
 10
87.478257844
 20
-15.0521562046
 10
87.4626781403
 20
-14.9053691614
 10
87.441839795
 20
-14.7570498186
 10
87.4157428081
 20
-14.6071981761
 10
87.3843122743
 20
-14.4555019019
 10
87.347623099
 20
-14.302273328
 10
87.3058999979
 20
-14.1484494508
 10
87.2591121705
 20
-13.9940266605
 10
87.2072904173
 20
-13.8390085668
 10
87.1507518556
 20
-13.6843429953
 10
87.0894676263
 20
-13.5300321272
 10
87.0234665884
 20
-13.3760737812
 10
86.9531524363
 20
-13.2234092384
 10
86.8784987796
 20
-13.0720464307
 10
86.7995320088
 20
-12.9219774262
 10
86.716734989
 20
-12.774119711
 10
86.630084281
 20
-12.6284868216
 10
86.5396033241
 20
-12.4850652215
 10
86.4458453017
 20
-12.3447317869
 10
86.3487901538
 20
-12.2075054116
 10
86.2484579404
 20
-12.0733672019
 10
86.1454620246
 20
-11.9431373526
 10
86.0397860927
 20
-11.8168397695
 10
85.9314464584
 20
-11.6944505469
 10
85.8211054255
 20
-11.576718162
 10
85.7087507257
 20
-11.4636710962
 10
85.5943946273
 20
-11.3552808682
 10
85.47873624
 20
-11.2522105112
 10
85.3620086002
 20
-11.1546810364
 10
85.2439786715
 20
-11.0624714325
 10
85.1246464538
 20
-10.9755816997
  0
LWPOLYLINE
  5
3F3
100
AcDbEntity
  8
ASSI
100
AcDbPolyline
 62
7
  6
CONTINUOUS
 90
31
 70
0
 10
88.5389180158
 20
-14.4397443146
 10
88.5233854706
 20
-14.2932019294
 10
88.5025745136
 20
-14.1450262236
 10
88.476485145
 20
-13.9952171974
 10
88.4450256096
 20
-13.8433930922
 10
88.4082876625
 20
-13.6899356665
 10
88.3665465688
 20
-13.5359901955
 10
88.3198131465
 20
-13.3816959004
 10
88.2680765775
 20
-13.2269135601
 10
88.2115796722
 20
-13.0723707854
 10
88.1502364293
 20
-12.917921069
 10
88.0841328502
 20
-12.7637109183
 10
88.0137697493
 20
-12.6109074665
 10
87.9391920544
 20
-12.4596679533
 10
87.8603548379
 20
-12.309835139
 10
87.7776241302
 20
-12.162104438
 10
87.6908930339
 20
-12.0163447584
 10
87.6002684465
 20
-11.8726871921
 10
87.506437092
 20
-11.7322204302
 10
87.409471467
 20
-11.5950985659
 10
87.3092990748
 20
-11.4611675058
 10
87.2063891495
 20
-11.3310536608
 10
87.1006272165
 20
-11.2046595238
 10
86.9921277503
 20
-11.0820826018
 10
86.8817034088
 20
-10.964241827
 10
86.76944188
 20
-10.8512703373
 10
86.6552554759
 20
-10.7430349948
 10
86.5396937891
 20
-10.6400553189
 10
86.4229400172
 20
-10.5425044826
 10
86.3048109627
 20
-10.4502093129
 10
86.1853066256
 20
-10.3631698097
  0
LINE
  5
3F4
100
AcDbEntity
  8
0
100
AcDbLine
 62
7
  6
CONTINUOUS
 10
94.2593331829
 20
-36.0181224649
 11
94.0940448515
 21
-33.8817269101
  0
LINE
  5
3F5
100
AcDbEntity
  8
0
100
AcDbLine
 62
7
  6
CONTINUOUS
 10
93.8225844369
 20
-34.4387963731
 11
93.8983891122
 21
-35.8097178822
  0
LINE
  5
3F6
100
AcDbEntity
  8
0
100
AcDbLine
 62
7
  6
CONTINUOUS
 10
93.9640057931
 20
-34.3571414544
 11
94.0398104685
 21
-35.7280629636
  0
LWPOLYLINE
  5
3F7
100
AcDbEntity
  8
0
100
AcDbPolyline
 62
7
  6
CONTINUOUS
 90
5
 70
0
 10
97.3633407316
 20
-110.0195144517
 10
97.3641142926
 20
-110.0368337124
 10
97.3645617893
 20
-110.077275513
 10
97.3634639119
 20
-110.1160364258
 10
97.3609478176
 20
-110.15346767
  0
LWPOLYLINE
  5
3F8
100
AcDbEntity
  8
0
100
AcDbPolyline
 62
7
  6
CONTINUOUS
 90
31
 70
0
 10
97.3800048049
 20
-110.2144185004
 10
97.3795887527
 20
-110.1905048055
 10
97.3787577235
 20
-110.1670328851
 10
97.3774816066
 20
-110.1440530895
 10
97.3757905125
 20
-110.1215150684
 10
97.3737747735
 20
-110.0992677705
 10
97.3715412662
 20
-110.0773668884
 10
97.3689831139
 20
-110.0557567296
 10
97.3658700183
 20
-110.0341191656
 10
97.3621254195
 20
-110.0124969448
 10
97.3578258773
 20
-109.9908473188
 10
97.3529707732
 20
-109.9687239135
 10
97.3476289317
 20
-109.9460998487
 10
97.3417315282
 20
-109.9230020045
 10
97.3350714707
 20
-109.8990646469
 10
97.3276782453
 20
-109.874141465
 10
97.3195223659
 20
-109.8483787697
 10
97.3103082825
 20
-109.8218497606
 10
97.2999220133
 20
-109.7943672128
 10
97.2884775402
 20
-109.7661183512
 10
97.2760212587
 20
-109.737738049
 10
97.2625247814
 20
-109.7093545253
 10
97.2480164959
 20
-109.6808395611
 10
97.2326279595
 20
-109.6524433724
 10
97.2164848239
 20
-109.6240022179
 10
97.1994614375
 20
-109.5956798389
 10
97.181312403
 20
-109.5682176762
 10
97.1617074357
 20
-109.5418749741
 10
97.1409768203
 20
-109.5163924882
 10
97.1198660133
 20
-109.4917339259
 10
97.0986948645
 20
-109.4677009355
  0
LINE
  5
3F9
100
AcDbEntity
  8
0
100
AcDbLine
 62
7
  6
CONTINUOUS
 10
91.8991139849
 20
-32.6142788661
 11
91.8991139849
 21
-34.6553614805
  0
LINE
  5
3FA
100
AcDbEntity
  8
0
100
AcDbLine
 62
7
  6
CONTINUOUS
 10
92.0405353411
 20
-32.6959337848
 11
92.0405353411
 21
-34.5737065618
  0
LINE
  5
3FB
100
AcDbEntity
  8
0
100
AcDbLine
 62
7
  6
CONTINUOUS
 10
92.2680773536
 20
-34.8683963054
 11
92.2680773536
 21
-32.827313691
  0
LINE
  5
3FC
100
AcDbEntity
  8
0
100
AcDbLine
 62
7
  6
CONTINUOUS
 10
94.0706176967
 20
-107.6749619874
 11
94.0706176967
 21
-108.9809878422
  0
LINE
  5
3FD
100
AcDbEntity
  8
0
100
AcDbLine
 62
7
  6
CONTINUOUS
 10
94.2120390529
 20
-107.7566169061
 11
94.2120390529
 21
-108.8993329235
  0
LINE
  5
3FE
100
AcDbEntity
  8
0
100
AcDbLine
 62
7
  6
CONTINUOUS
 10
94.2183846292
 20
-109.0663066171
 11
94.2183846292
 21
-107.9712305548
  0
LINE
  5
3FF
100
AcDbEntity
  8
0
100
AcDbLine
 62
7
  6
CONTINUOUS
 10
95.0064742287
 20
-108.4241954933
 11
95.0064742287
 21
-109.5213396747
  0
LINE
  5
400
100
AcDbEntity
  8
0
100
AcDbLine
 62
7
  6
CONTINUOUS
 10
95.1478955849
 20
-108.3425405746
 11
95.1478955849
 21
-109.4396847561
  0
LINE
  5
401
100
AcDbEntity
  8
0
100
AcDbLine
 62
7
  6
CONTINUOUS
 10
95.1542411612
 20
-109.6066584496
 11
95.1542411612
 21
-108.3006325949
  0
LINE
  5
402
100
AcDbEntity
  8
0
100
AcDbLine
 62
7
  6
CONTINUOUS
 10
95.3769366638
 20
-110.5831738171
 11
95.3769366638
 21
-111.8895442224
  0
LINE
  5
403
100
AcDbEntity
  8
0
100
AcDbLine
 62
7
  6
CONTINUOUS
 10
95.51835802
 20
-110.6714223705
 11
95.51835802
 21
-111.8078893037
  0
LINE
  5
404
100
AcDbEntity
  8
0
100
AcDbLine
 62
7
  6
CONTINUOUS
 10
95.5297777945
 20
-111.9777927757
 11
95.5297777945
 21
-110.6714223705
  0
LINE
  5
405
100
AcDbEntity
  8
0
100
AcDbLine
 62
7
  6
CONTINUOUS
 10
95.6939630394
 20
-110.7662208731
 11
95.6939630394
 21
-110.9230541992
  0
LINE
  5
406
100
AcDbEntity
  8
0
100
AcDbLine
 62
7
  6
CONTINUOUS
 10
95.8793068947
 20
-34.9363601015
 11
95.8793068947
 21
-36.9534747157
  0
LINE
  5
407
100
AcDbEntity
  8
0
100
AcDbLine
 62
7
  6
CONTINUOUS
 10
96.0207282509
 20
-34.9959868691
 11
96.0207282509
 21
-36.8718197971
  0
LINE
  5
408
100
AcDbEntity
  8
0
100
AcDbLine
 62
7
  6
CONTINUOUS
 10
96.0766647857
 20
-111.1440213911
 11
96.0766647857
 21
-112.2935584703
  0
LINE
  5
409
100
AcDbEntity
  8
0
100
AcDbLine
 62
7
  6
CONTINUOUS
 10
96.2180861419
 20
-111.0688429838
 11
96.2180861419
 21
-112.2119035516
  0
LINE
  5
40A
100
AcDbEntity
  8
0
100
AcDbLine
 62
7
  6
CONTINUOUS
 10
96.2295059164
 20
-112.3818070237
 11
96.2295059164
 21
-111.2322699445
  0
LINE
  5
40B
100
AcDbEntity
  8
0
100
AcDbLine
 62
7
  6
CONTINUOUS
 10
96.2345513133
 20
-36.025609571
 11
96.2345513133
 21
-35.4653263145
  0
LINE
  5
40C
100
AcDbEntity
  8
0
100
AcDbLine
 62
7
  6
CONTINUOUS
 10
96.2467855807
 20
-37.1656523034
 11
96.2467855807
 21
-36.366933381
  0
LINE
  5
40D
100
AcDbEntity
  8
0
100
AcDbLine
 62
7
  6
CONTINUOUS
 10
96.4462306093
 20
-109.0466111098
 11
96.4462306093
 21
-110.3526369645
  0
LINE
  5
40E
100
AcDbEntity
  8
0
100
AcDbLine
 62
7
  6
CONTINUOUS
 10
96.5876519656
 20
-109.1282660284
 11
96.5876519656
 21
-110.2709820459
  0
LINE
  5
40F
100
AcDbEntity
  8
0
100
AcDbLine
 62
7
  6
CONTINUOUS
 10
96.5993708463
 20
-110.2900838827
 11
96.5993708463
 21
-109.2860058822
  0
LINE
  5
410
100
AcDbEntity
  8
0
100
AcDbLine
 62
7
  6
CONTINUOUS
 10
96.6125060618
 20
-111.4534094283
 11
96.6125060618
 21
-111.2965761023
  0
LINE
  5
411
100
AcDbEntity
  8
0
100
AcDbLine
 62
7
  6
CONTINUOUS
 10
96.8278933959
 20
-36.5484747457
 11
96.8278933959
 21
-36.5364144527
  0
LINE
  5
412
100
AcDbEntity
  8
0
100
AcDbLine
 62
7
  6
CONTINUOUS
 10
97.5916474283
 20
-109.7079604256
 11
97.5916474283
 21
-111.0139862804
  0
LINE
  5
413
100
AcDbEntity
  8
0
100
AcDbLine
 62
7
  6
CONTINUOUS
 10
97.6161260509
 20
-111.8760537056
 11
97.6161260509
 21
-113.1824241109
  0
LINE
  5
414
100
AcDbEntity
  8
0
100
AcDbLine
 62
7
  6
CONTINUOUS
 10
97.7330687846
 20
-109.7896153443
 11
97.7330687846
 21
-110.9323313617
  0
LINE
  5
415
100
AcDbEntity
  8
0
100
AcDbLine
 62
7
  6
CONTINUOUS
 10
97.7444892662
 20
-110.9457464664
 11
97.7444892662
 21
-110.509370047
  0
LINE
  5
416
100
AcDbEntity
  8
0
100
AcDbLine
 62
7
  6
CONTINUOUS
 10
97.7444892662
 20
-110.3528812714
 11
97.7444892662
 21
-109.9526981629
  0
LINE
  5
417
100
AcDbEntity
  8
0
100
AcDbLine
 62
7
  6
CONTINUOUS
 10
97.7575474071
 20
-111.9643026673
 11
97.7575474071
 21
-113.1007691922
  0
LINE
  5
418
100
AcDbEntity
  8
0
100
AcDbLine
 62
7
  6
CONTINUOUS
 10
97.7689678888
 20
-113.1141842969
 11
97.7689678888
 21
-111.9643026673
  0
LWPOLYLINE
  5
419
100
AcDbEntity
  8
0
100
AcDbPolyline
 62
7
  6
CONTINUOUS
 90
11
 70
0
 10
96.8734421027
 20
-35.9140229893
 10
96.8726445891
 20
-35.9423802484
 10
96.8701948052
 20
-35.9689208349
 10
96.8660927512
 20
-35.9936447489
 10
96.8601331035
 20
-36.0168140584
 10
96.8525211856
 20
-36.0381666953
 10
96.8438729675
 20
-36.0569164554
 10
96.8343382513
 20
-36.0726939456
 10
96.8237672348
 20
-36.085868559
 10
96.8123264817
 20
-36.0967622703
 10
96.7990942776
 20
-36.1060262292
  0
LWPOLYLINE
  5
41A
100
AcDbEntity
  8
0
100
AcDbPolyline
 62
7
  6
CONTINUOUS
 90
11
 70
0
 10
96.7320207464
 20
-35.9956779079
 10
96.7312284857
 20
-36.0237116413
 10
96.7288436496
 20
-36.049941861
 10
96.7248662382
 20
-36.0743685671
 10
96.7191657828
 20
-36.0971689071
 10
96.711872752
 20
-36.1181657336
 10
96.7033785515
 20
-36.1368276036
 10
96.6937591273
 20
-36.1529967689
 10
96.6829385334
 20
-36.1668309778
 10
96.6710803378
 20
-36.1782720328
 10
96.6576199183
 20
-36.1875889802
  0
LINE
  5
41B
100
AcDbEntity
  8
0
100
AcDbLine
 62
7
  6
CONTINUOUS
 10
92.8196793327
 20
-35.186884375
 11
92.8993016776
 21
-33.9001483991
  0
LWPOLYLINE
  5
41C
100
AcDbEntity
  8
RACCORDO
100
AcDbPolyline
 62
7
  6
CONTINUOUS
 90
4
 70
0
 10
87.4032357314
 20
-70.8554774566
 10
87.4487732439
 20
-70.8193975285
 10
87.4966838691
 20
-70.7876505391
 10
87.5072963865
 20
-70.7813898474
  0
LINE
  5
41D
100
AcDbEntity
  8
ASSI
100
AcDbLine
 62
7
  6
CONTINUOUS
 10
36.2432856274
 20
-92.4273316316
 11
35.8745975271
 21
-92.5411150009
  0
LINE
  5
41E
100
AcDbEntity
  8
ASSI
100
AcDbLine
 62
7
  6
CONTINUOUS
 10
41.5163170669
 20
-96.1252324135
 11
41.8850051672
 21
-96.0114490442
  0
LWPOLYLINE
  5
41F
100
AcDbEntity
  8
ASSI
100
AcDbPolyline
 62
7
  6
CONTINUOUS
 90
7
 70
0
 10
86.2559556866
 20
-17.2630351198
 10
86.3512244341
 20
-17.2452934469
 10
86.4433698591
 20
-17.2214178666
 10
86.5323919616
 20
-17.1914083789
 10
86.6184390582
 20
-17.1551875721
 10
86.7013628324
 20
-17.1128328578
 10
86.7168894219
 20
-17.1040183497
  0
LWPOLYLINE
  5
420
100
AcDbEntity
  8
0
100
AcDbPolyline
 62
7
  6
CONTINUOUS
 90
10
 70
0
 10
96.3759726696
 20
-35.3836713958
 10
96.4087775363
 20
-35.3963312657
 10
96.4413741679
 20
-35.410106654
 10
96.4737625643
 20
-35.4249975607
 10
96.5058944982
 20
-35.4409750347
 10
96.537818197
 20
-35.4580680271
 10
96.569678343
 20
-35.4763633908
 10
96.6015231637
 20
-35.4958900769
 10
96.6333044316
 20
-35.5166191343
 10
96.6650221467
 20
-35.5385505631
  0
LWPOLYLINE
  5
421
100
AcDbEntity
  8
0
100
AcDbPolyline
 62
7
  6
CONTINUOUS
 90
10
 70
0
 10
96.2345513133
 20
-35.4653263145
 10
96.2679796691
 20
-35.4782750256
 10
96.3009965484
 20
-35.4922511465
 10
96.3336019513
 20
-35.5072546772
 10
96.3656844915
 20
-35.5232354691
 10
96.3973555553
 20
-35.5402436709
 10
96.4289493013
 20
-35.5584297284
 10
96.4605771156
 20
-35.5778437904
 10
96.492127612
 20
-35.5984357082
 10
96.5236007905
 20
-35.6202054818
  0
LINE
  5
422
100
AcDbEntity
  8
0
100
AcDbLine
 62
7
  6
CONTINUOUS
 10
24.9733680014
 20
3.9730838884
 11
25.2679958093
 21
3.8029694846
  0
LINE
  5
423
100
AcDbEntity
  8
0
100
AcDbLine
 62
7
  6
CONTINUOUS
 10
26.5201641379
 20
3.0799831851
 11
26.741135007
 21
2.9523973747
  0
LINE
  5
424
100
AcDbEntity
  8
0
100
AcDbLine
 62
7
  6
CONTINUOUS
 10
27.9933033356
 20
2.2294110751
 11
28.2142742047
 21
2.1018252647
  0
LINE
  5
425
100
AcDbEntity
  8
0
100
AcDbLine
 62
7
  6
CONTINUOUS
 10
29.061328922
 20
1.612746487
 11
29.2822997912
 21
1.4851606766
  0
LINE
  5
426
100
AcDbEntity
  8
0
100
AcDbLine
 62
7
  6
CONTINUOUS
 10
30.4976395713
 20
0.7834387193
 11
30.7186104405
 21
0.6558529089
  0
LINE
  5
427
100
AcDbEntity
  8
0
100
AcDbLine
 62
7
  6
CONTINUOUS
 10
32.6336911657
 20
-0.4498907003
 11
32.8546620348
 21
-0.5774765107
  0
LINE
  5
428
100
AcDbEntity
  8
0
100
AcDbLine
 62
7
  6
CONTINUOUS
 10
90.8688707184
 20
-34.0605119304
 11
91.1940196296
 21
-34.2482488367
  0
LINE
  5
429
100
AcDbEntity
  8
0
100
AcDbLine
 62
7
  6
CONTINUOUS
 10
91.8991139849
 20
-34.6553614805
 11
92.2680773536
 21
-34.8683963054
  0
LINE
  5
42A
100
AcDbEntity
  8
0
100
AcDbLine
 62
7
  6
CONTINUOUS
 10
92.4667015271
 20
-34.9830794138
 11
92.8196793327
 21
-35.186884375
  0
LINE
  5
42B
100
AcDbEntity
  8
0
100
AcDbLine
 62
7
  6
CONTINUOUS
 10
93.3321401232
 20
-35.4827728127
 11
93.3838876116
 21
-35.512651164
  0
LINE
  5
42C
100
AcDbEntity
  8
0
100
AcDbLine
 62
7
  6
CONTINUOUS
 10
93.8983891122
 20
-35.8097178822
 11
94.2593331829
 21
-36.0181224649
  0
LINE
  5
42D
100
AcDbEntity
  8
0
100
AcDbLine
 62
7
  6
CONTINUOUS
 10
94.3172706841
 20
-36.051574852
 11
94.6822311213
 21
-36.2622984344
  0
LINE
  5
42E
100
AcDbEntity
  8
0
100
AcDbLine
 62
7
  6
CONTINUOUS
 10
95.3820893509
 20
-36.6663878049
 11
95.770961311
 21
-36.890917601
  0
LINE
  5
42F
100
AcDbEntity
  8
0
100
AcDbLine
 62
7
  6
CONTINUOUS
 10
95.8793068947
 20
-36.9534747157
 11
96.2467855807
 21
-37.1656523034
  0
LINE
  5
430
100
AcDbEntity
  8
0
100
AcDbLine
 62
7
  6
CONTINUOUS
 10
96.8118019544
 20
-37.4918856763
 11
97.1667017458
 21
-37.6968003679
  0
LINE
  5
431
100
AcDbEntity
  8
0
100
AcDbLine
 62
7
  6
CONTINUOUS
 10
25.1147893576
 20
4.0547388071
 11
25.3151408146
 21
3.9390583868
  0
LINE
  5
432
100
AcDbEntity
  8
0
100
AcDbLine
 62
7
  6
CONTINUOUS
 10
26.6615854941
 20
3.1616381037
 11
26.8070818861
 21
3.0776303105
  0
LINE
  5
433
100
AcDbEntity
  8
0
100
AcDbLine
 62
7
  6
CONTINUOUS
 10
28.1347246918
 20
2.3110659937
 11
28.2142742047
 21
2.265135102
  0
LINE
  5
434
100
AcDbEntity
  8
0
100
AcDbLine
 62
7
  6
CONTINUOUS
 10
29.2027502783
 20
1.6944014056
 11
29.4237211474
 21
1.5668155952
  0
LINE
  5
435
100
AcDbEntity
  8
0
100
AcDbLine
 62
7
  6
CONTINUOUS
 10
30.6390609276
 20
0.8650936379
 11
30.7845573384
 21
0.7810858338
  0
LINE
  5
436
100
AcDbEntity
  8
0
100
AcDbLine
 62
7
  6
CONTINUOUS
 10
32.7751125219
 20
-0.3682357816
 11
32.8546620348
 21
-0.4141666734
  0
LINE
  5
437
100
AcDbEntity
  8
0
100
AcDbLine
 62
7
  6
CONTINUOUS
 10
91.0102920746
 20
-33.9788570118
 11
91.2394825525
 21
-34.1111887212
  0
LINE
  5
438
100
AcDbEntity
  8
0
100
AcDbLine
 62
7
  6
CONTINUOUS
 10
92.0405353411
 20
-34.5737065618
 11
92.2680773536
 21
-34.7050864681
  0
LINE
  5
439
100
AcDbEntity
  8
0
100
AcDbLine
 62
7
  6
CONTINUOUS
 10
92.6081228833
 20
-34.9014244952
 11
92.8294362361
 21
-35.0292080514
  0
LINE
  5
43A
100
AcDbEntity
  8
0
100
AcDbLine
 62
7
  6
CONTINUOUS
 10
94.0398104685
 20
-35.7280629636
 11
94.2461074418
 21
-35.8471762504
  0
LINE
  5
43B
100
AcDbEntity
  8
0
100
AcDbLine
 62
7
  6
CONTINUOUS
 10
94.4586920404
 20
-35.9699199334
 11
94.7230379923
 21
-36.122549973
  0
LINE
  5
43C
100
AcDbEntity
  8
0
100
AcDbLine
 62
7
  6
CONTINUOUS
 10
95.5235107071
 20
-36.5847328862
 11
95.7275655378
 21
-36.7025515881
  0
LINE
  5
43D
100
AcDbEntity
  8
0
100
AcDbLine
 62
7
  6
CONTINUOUS
 10
96.0207282509
 20
-36.8718197971
 11
96.2467855807
 21
-37.0023424661
  0
LINE
  5
43E
100
AcDbEntity
  8
0
100
AcDbLine
 62
7
  6
CONTINUOUS
 10
96.9532233107
 20
-37.4102307576
 11
97.1294321395
 21
-37.511971527
  0
LINE
  5
43F
100
AcDbEntity
  8
0
100
AcDbLine
 62
7
  6
CONTINUOUS
 10
29.2822997912
 20
1.7023070313
 11
29.061328922
 21
1.8298928417
  0
LINE
  5
440
100
AcDbEntity
  8
0
100
AcDbLine
 62
7
  6
CONTINUOUS
 10
94.7840417699
 20
-35.9136345659
 11
95.286508313
 21
-36.2037524505
  0
LINE
  5
441
100
AcDbEntity
  8
0
100
AcDbLine
 62
7
  6
CONTINUOUS
 10
28.7298726184
 20
2.3252764418
 11
28.5089017492
 21
2.4528622522
  0
LINE
  5
442
100
AcDbEntity
  8
0
100
AcDbLine
 62
7
  6
CONTINUOUS
 10
94.9254631261
 20
-35.8319796472
 11
95.4279296693
 21
-36.1220975319
  0
LINE
  5
443
100
AcDbEntity
  8
0
100
AcDbLine
 62
7
  6
CONTINUOUS
 10
31.7498076892
 20
0.6684623103
 11
32.6336911657
 21
0.1581190687
  0
LINE
  5
444
100
AcDbEntity
  8
0
100
AcDbLine
 62
7
  6
CONTINUOUS
 10
32.8546620348
 20
0.0305332582
 11
33.2229470976
 21
-0.1821099214
  0
LINE
  5
445
100
AcDbEntity
  8
0
100
AcDbLine
 62
7
  6
CONTINUOUS
 10
95.2127712179
 20
-35.8458951291
 11
94.8595148122
 21
-35.6419293078
  0
LINE
  5
446
100
AcDbEntity
  8
0
100
AcDbLine
 62
7
  6
CONTINUOUS
 10
31.8912290454
 20
0.750117229
 11
32.7751125219
 21
0.2397739873
  0
LINE
  5
447
100
AcDbEntity
  8
0
100
AcDbLine
 62
7
  6
CONTINUOUS
 10
32.996083391
 20
0.1121881769
 11
33.2229470976
 21
-0.018800084
  0
LINE
  5
448
100
AcDbEntity
  8
0
100
AcDbLine
 62
7
  6
CONTINUOUS
 10
96.2467855807
 20
-36.366933381
 11
96.4446148761
 21
-36.4811575369
  0
LINE
  5
449
100
AcDbEntity
  8
0
100
AcDbLine
 62
7
  6
CONTINUOUS
 10
33.2229470976
 20
0.0784657287
 11
32.8546620348
 21
0.2911089083
  0
LINE
  5
44A
100
AcDbEntity
  8
0
100
AcDbLine
 62
7
  6
CONTINUOUS
 10
32.6336911657
 20
0.4186947187
 11
32.0076073175
 21
0.780187686
  0
LINE
  5
44B
100
AcDbEntity
  8
0
100
AcDbLine
 62
7
  6
CONTINUOUS
 10
28.5089017492
 20
2.8437256968
 11
28.7667013775
 21
2.6948754225
  0
LINE
  5
44C
100
AcDbEntity
  8
0
100
AcDbLine
 62
7
  6
CONTINUOUS
 10
96.3882069369
 20
-36.2852784624
 11
96.5860362324
 21
-36.3995026182
  0
LINE
  5
44D
100
AcDbEntity
  8
0
100
AcDbLine
 62
7
  6
CONTINUOUS
 10
28.6503231055
 20
2.9253806155
 11
28.9081227338
 21
2.7765303411
  0
LINE
  5
44E
100
AcDbEntity
  8
0
100
AcDbLine
 62
7
  6
CONTINUOUS
 10
29.061328922
 20
2.6984782303
 11
29.2822997912
 21
2.5708924198
  0
LINE
  5
44F
100
AcDbEntity
  8
0
100
AcDbLine
 62
7
  6
CONTINUOUS
 10
96.4454101698
 20
-36.1473568321
 11
96.2345513133
 21
-36.025609571
  0
LINE
  5
450
100
AcDbEntity
  8
0
100
AcDbLine
 62
7
  6
CONTINUOUS
 10
29.2027502783
 20
2.7801331489
 11
29.4237211474
 21
2.6525473385
  0
LINE
  5
451
100
AcDbEntity
  8
0
100
AcDbLine
 62
7
  6
CONTINUOUS
 10
29.2822997912
 20
2.7880387442
 11
29.061328922
 21
2.9156245546
  0
LINE
  5
452
100
AcDbEntity
  8
0
100
AcDbLine
 62
7
  6
CONTINUOUS
 10
26.1518792858
 20
5.1166556106
 11
27.2567336314
 21
4.4787265586
  0
LINE
  5
453
100
AcDbEntity
  8
0
100
AcDbLine
 62
7
  6
CONTINUOUS
 10
28.6930442807
 20
3.6494187909
 11
29.7610702886
 21
3.0327539594
  0
LINE
  5
454
100
AcDbEntity
  8
0
100
AcDbLine
 62
7
  6
CONTINUOUS
 10
30.12935493
 20
2.8201110232
 11
31.2342092756
 21
2.1821819711
  0
LINE
  5
455
100
AcDbEntity
  8
0
100
AcDbLine
 62
7
  6
CONTINUOUS
 10
26.293300642
 20
5.1983105293
 11
27.3981549876
 21
4.5603814772
  0
LINE
  5
456
100
AcDbEntity
  8
0
100
AcDbLine
 62
7
  6
CONTINUOUS
 10
28.8344656369
 20
3.7310737095
 11
29.7610702886
 21
3.1960637967
  0
LINE
  5
457
100
AcDbEntity
  8
0
100
AcDbLine
 62
7
  6
CONTINUOUS
 10
30.2707762862
 20
2.9017659418
 11
31.3756306318
 21
2.2638368898
  0
LINE
  5
458
100
AcDbEntity
  8
0
100
AcDbLine
 62
7
  6
CONTINUOUS
 10
32.8546620348
 20
1.4636991813
 11
32.6336911657
 21
1.5912849917
  0
LINE
  5
459
100
AcDbEntity
  8
0
100
AcDbLine
 62
7
  6
CONTINUOUS
 10
31.4551801447
 20
2.271742485
 11
30.12935493
 21
3.0372573475
  0
LINE
  5
45A
100
AcDbEntity
  8
0
100
AcDbLine
 62
7
  6
CONTINUOUS
 10
29.7610702886
 20
3.2499002837
 11
28.5089017492
 21
3.972886705
  0
LINE
  5
45B
100
AcDbEntity
  8
0
100
AcDbLine
 62
7
  6
CONTINUOUS
 10
28.2142742047
 20
4.1430009566
 11
27.9933033356
 21
4.2705867671
  0
LINE
  5
45C
100
AcDbEntity
  8
0
100
AcDbLine
 62
7
  6
CONTINUOUS
 10
27.4777045005
 20
4.5682870725
 11
26.1518792858
 21
5.333801935
  0
LINE
  5
45D
100
AcDbEntity
  8
0
100
AcDbLine
 62
7
  6
CONTINUOUS
 10
25.8572514252
 20
5.5039163691
 11
25.636280556
 21
5.6315021795
  0
LINE
  5
45E
100
AcDbEntity
  8
0
100
AcDbLine
 62
7
  6
CONTINUOUS
 10
24.6050832019
 20
6.2269026079
 11
24.3841123328
 21
6.3544884183
  0
LINE
  5
45F
100
AcDbEntity
  8
0
100
AcDbLine
 62
7
  6
CONTINUOUS
 10
95.2286238448
 20
-34.5368186013
 11
94.8716961407
 21
-34.3307330182
  0
LINE
  5
460
100
AcDbEntity
  8
0
100
AcDbLine
 62
7
  6
CONTINUOUS
 10
94.0940448515
 20
-33.8817269101
 11
93.7289917833
 21
-33.6709498437
  0
LINE
  5
461
100
AcDbEntity
  8
0
100
AcDbLine
 62
7
  6
CONTINUOUS
 10
92.9949626185
 20
-33.2471306035
 11
92.6263040129
 21
-33.034271745
  0
LINE
  5
462
100
AcDbEntity
  8
0
100
AcDbLine
 62
7
  6
CONTINUOUS
 10
91.762191242
 20
-32.535343861
 11
91.3934796033
 21
-32.3224543819
  0
LINE
  5
463
100
AcDbEntity
  8
0
100
AcDbLine
 62
7
  6
CONTINUOUS
 10
90.7093212656
 20
-31.9274299322
 11
90.308513343
 21
-31.696008461
  0
LINE
  5
464
100
AcDbEntity
  8
0
100
AcDbLine
 62
7
  6
CONTINUOUS
 10
92.2680773536
 20
-32.827313691
 11
91.8991139849
 21
-32.6142788661
  0
LINE
  5
465
100
AcDbEntity
  8
ASSI
100
AcDbLine
 62
7
  6
CONTINUOUS
 10
20.4950219842
 20
6.5589432201
 11
20.4334238651
 21
6.5965973733
  0
LINE
  5
466
100
AcDbEntity
  8
ASSI
100
AcDbLine
 62
7
  6
CONTINUOUS
 10
105.3478357266
 20
-42.4340079792
 11
105.2862376075
 21
-42.3963538261
  0
LWPOLYLINE
  5
467
100
AcDbEntity
  8
0
100
AcDbPolyline
 62
7
  6
CONTINUOUS
 90
16
 70
0
 10
96.4446148761
 20
-36.4811575369
 10
96.4630039186
 20
-36.4927595492
 10
96.4806535182
 20
-36.5054321689
 10
96.4975636749
 20
-36.5191753961
 10
96.5136967143
 20
-36.5339568157
 10
96.5290903108
 20
-36.5498088428
 10
96.5438574878
 20
-36.566828722
 10
96.55796808
 20
-36.5849184175
 10
96.5714522527
 20
-36.6041759652
 10
96.5845135256
 20
-36.6249927173
 10
96.5973658101
 20
-36.6476315058
 10
96.6097951948
 20
-36.6718294987
 10
96.6213634658
 20
-36.6971895523
 10
96.6319245518
 20
-36.7235792854
 10
96.641624524
 20
-36.7511310792
 10
96.6504633826
 20
-36.7798449338
  0
LWPOLYLINE
  5
468
100
AcDbEntity
  8
0
100
AcDbPolyline
 62
7
  6
CONTINUOUS
 90
14
 70
0
 10
96.5860362324
 20
-36.3995026182
 10
96.6043025638
 20
-36.4110475063
 10
96.6217937023
 20
-36.4235829638
 10
96.6385096479
 20
-36.4371089907
 10
96.6543654184
 20
-36.4515359151
 10
96.6694459959
 20
-36.4669534088
 10
96.684006327
 20
-36.4836304872
 10
96.6980715504
 20
-36.5014956388
 10
96.7116165274
 20
-36.520620375
 10
96.7248207877
 20
-36.541488245
 10
96.7379429014
 20
-36.5644855562
 10
96.7507242985
 20
-36.5892260012
 10
96.7625687988
 20
-36.6150342069
 10
96.7732776756
 20
-36.641685049
  0
LWPOLYLINE
  5
469
100
AcDbEntity
  8
ASSI
100
AcDbPolyline
 62
7
  6
CONTINUOUS
 90
27
 70
0
 10
105.2862376075
 20
-42.3963538261
 10
105.2246364363
 20
-42.3545631345
 10
105.1636570727
 20
-42.3090596091
 10
105.1033058144
 20
-42.2598056456
 10
105.0435763637
 20
-42.2068388484
 10
104.9850716347
 20
-42.1506938686
 10
104.9278040317
 20
-42.0913385174
 10
104.8717611505
 20
-42.0288049837
 10
104.8175086928
 20
-41.9637244864
 10
104.7650647922
 20
-41.8960712297
 10
104.7144113152
 20
-41.8258710093
 10
104.6660595622
 20
-41.7538324326
 10
104.6200328454
 20
-41.6799368802
 10
104.5763078528
 20
-41.6042029715
 10
104.535325948
 20
-41.5273951709
 10
104.4971149137
 20
-41.449502602
 10
104.4616469672
 20
-41.3705361413
 10
104.4292801251
 20
-41.291292883
 10
104.400045796
 20
-41.2117700238
 10
104.3739125713
 20
-41.1319703671
 10
104.3511442421
 20
-41.0526994175
 10
104.3317748885
 20
-40.9739625298
 10
104.3157704304
 20
-40.8957543493
 10
104.3032924182
 20
-40.818864316
 10
104.2943947019
 20
-40.7435555766
 10
104.2890234315
 20
-40.6695649846
 10
104.2871786069
 20
-40.5968925397
  0
LWPOLYLINE
  5
46A
100
AcDbEntity
  8
0
100
AcDbPolyline
 62
7
  6
CONTINUOUS
 90
19
 70
0
 10
96.6650221467
 20
-35.5385505631
 10
96.6854063789
 20
-35.5541324342
 10
96.7049963636
 20
-35.5707864554
 10
96.7237921008
 20
-35.5885126269
 10
96.7419621592
 20
-35.6075715537
 10
96.7593379702
 20
-35.6277026307
 10
96.7754138276
 20
-35.6481240421
 10
96.7899436271
 20
-35.6684974746
 10
96.8031734731
 20
-35.6891612416
 10
96.8153359724
 20
-35.7103484674
 10
96.826520633
 20
-35.7321512019
 10
96.836637947
 20
-35.7544773953
 10
96.8456519979
 20
-35.7772840224
 10
96.8536639188
 20
-35.8009309581
 10
96.8605725765
 20
-35.8250583275
 10
96.8660386554
 20
-35.8485434804
 10
96.8699490501
 20
-35.8710121999
 10
96.8724168658
 20
-35.8928387029
 10
96.8734421027
 20
-35.9140229893
  0
LWPOLYLINE
  5
46B
100
AcDbEntity
  8
0
100
AcDbPolyline
 62
7
  6
CONTINUOUS
 90
19
 70
0
 10
96.5236007905
 20
-35.6202054818
 10
96.5438754189
 20
-35.6357167134
 10
96.5633320377
 20
-35.6522380138
 10
96.581970647
 20
-35.6697693827
 10
96.5998930384
 20
-35.6884677554
 10
96.6169974202
 20
-35.7081761967
 10
96.6329784172
 20
-35.7284239013
 10
96.647735875
 20
-35.7490650804
 10
96.6613699481
 20
-35.7702455229
 10
96.6738757241
 20
-35.7919317896
 10
96.6852733771
 20
-35.8142018397
 10
96.695542733
 20
-35.836977714
 10
96.7046183583
 20
-35.8599920967
 10
96.7125470398
 20
-35.8834104947
 10
96.7192819906
 20
-35.9070674009
 10
96.7246174161
 20
-35.930198979
 10
96.7284847181
 20
-35.9525506168
 10
96.7309524949
 20
-35.9743769264
 10
96.7320207464
 20
-35.9956779079
  0
LWPOLYLINE
  5
46C
100
AcDbEntity
  8
ASSI
100
AcDbPolyline
 62
7
  6
CONTINUOUS
 90
41
 70
0
 10
119.9193219599
 20
-106.1633812277
 10
119.8457301836
 20
-106.0018689458
 10
119.7679505507
 20
-105.842277509
 10
119.6859830612
 20
-105.6846069173
 10
119.5996479958
 20
-105.5285511596
 10
119.5091250739
 20
-105.374416247
 10
119.4149534531
 20
-105.2231202124
 10
119.3171113583
 20
-105.0746799978
 10
119.2156205647
 20
-104.9290786613
 10
119.1110855548
 20
-104.7871834093
 10
119.0034881612
 20
-104.6490163595
 10
118.8928465515
 20
-104.5145553944
 10
118.7798197109
 20
-104.3846013681
 10
118.6643934045
 20
-104.2591811775
 10
118.5465818673
 20
-104.1382679258
 10
118.4270867889
 20
-104.0225817765
 10
118.305898122
 20
-103.9121539243
 10
118.1830259138
 20
-103.8069531745
 10
118.0592019956
 20
-103.7076061065
 10
117.9344206875
 20
-103.6141476543
 10
117.8086876694
 20
-103.5265428839
 10
117.6827518115
 20
-103.4453135723
 10
117.5566119032
 20
-103.3704977675
 10
117.430269155
 20
-103.3020574216
 10
117.3044760689
 20
-103.2404001676
 10
117.179235925
 20
-103.1855664862
 10
117.0545454432
 20
-103.1375158967
 10
116.9311472842
 20
-103.0965345901
 10
116.8090491605
 20
-103.0626647551
 10
116.6882433596
 20
-103.035864203
 10
116.5694494052
 20
-103.0162925589
 10
116.4526793037
 20
-103.003992964
 10
116.3379210487
 20
-102.998922277
 10
116.2258581442
 20
-103.0011106991
 10
116.1165066759
 20
-103.0106015519
 10
116.0098505583
 20
-103.0273515138
 10
115.9065250388
 20
-103.0512608215
 10
115.8065499941
 20
-103.0823722011
 10
115.7099055476
 20
-103.1206429264
 10
115.617167317
 20
-103.1658450557
 10
115.5807609802
 20
-103.1861185119
  0
LINE
  5
46D
100
AcDbEntity
  8
0
100
AcDbLine
 62
7
  6
CONTINUOUS
 10
92.8993016776
 20
-33.9001483991
 11
93.3321401232
 21
-35.4827728127
  0
LINE
  5
46E
100
AcDbEntity
  8
0
100
AcDbLine
 62
7
  6
CONTINUOUS
 10
93.0407230339
 20
-33.8184934805
 11
93.4558732064
 21
-35.3364427409
  0
LINE
  5
46F
100
AcDbEntity
  8
0
100
AcDbLine
 62
7
  6
CONTINUOUS
 10
93.3600284146
 20
-34.5910622737
 11
92.9949626185
 21
-33.2471306035
  0
LINE
  5
470
100
AcDbEntity
  8
0
100
AcDbLine
 62
7
  6
CONTINUOUS
 10
90.308513343
 20
-31.696008461
 11
90.8688707184
 21
-34.0605119304
  0
LINE
  5
471
100
AcDbEntity
  8
0
100
AcDbLine
 62
7
  6
CONTINUOUS
 10
90.4947723567
 20
-31.8035520811
 11
91.0102920746
 21
-33.9788570118
  0
LINE
  5
472
100
AcDbEntity
  8
0
100
AcDbLine
 62
7
  6
CONTINUOUS
 10
91.0462541113
 20
-33.5268270504
 11
90.7093212656
 21
-31.9274299322
  0
LINE
  5
473
100
AcDbEntity
  8
0
100
AcDbLine
 62
7
  6
CONTINUOUS
 10
98.3424222959
 20
-113.6017784601
 11
98.3424222959
 21
-113.4452896845
  0
LINE
  5
474
100
AcDbEntity
  8
0
100
AcDbLine
 62
7
  6
CONTINUOUS
 10
98.3636171146
 20
-110.8668467071
 11
98.3636171146
 21
-110.7103579315
  0
LINE
  5
475
100
AcDbEntity
  8
0
100
AcDbLine
 62
7
  6
CONTINUOUS
 10
98.4158581636
 20
-110.34033815
 11
98.4158581636
 21
-110.1838493744
  0
LINE
  5
476
100
AcDbEntity
  8
0
100
AcDbLine
 62
7
  6
CONTINUOUS
 10
98.4266047724
 20
-111.4960801864
 11
98.4266047724
 21
-111.3395914108
  0
LINE
  5
477
100
AcDbEntity
  8
0
100
AcDbLine
 62
7
  6
CONTINUOUS
 10
98.600939828
 20
-113.2253931472
 11
98.600939828
 21
-113.7510432431
  0
LINE
  5
478
100
AcDbEntity
  8
0
100
AcDbLine
 62
7
  6
CONTINUOUS
 10
98.7423611842
 20
-113.1437382285
 11
98.7423611842
 21
-113.6693883245
  0
LINE
  5
479
100
AcDbEntity
  8
0
100
AcDbLine
 62
7
  6
CONTINUOUS
 10
98.7537809588
 20
-113.8392917965
 11
98.7537809588
 21
-113.3136417005
  0
LINE
  5
47A
100
AcDbEntity
  8
0
100
AcDbLine
 62
7
  6
CONTINUOUS
 10
99.0490164247
 20
-110.549427019
 11
99.0490164247
 21
-111.8554528737
  0
LINE
  5
47B
100
AcDbEntity
  8
0
100
AcDbLine
 62
7
  6
CONTINUOUS
 10
99.1904377809
 20
-110.6376759806
 11
99.1904377809
 21
-111.7737979551
  0
LINE
  5
47C
100
AcDbEntity
  8
0
100
AcDbLine
 62
7
  6
CONTINUOUS
 10
99.2018582625
 20
-111.9437018354
 11
99.2018582625
 21
-110.6376759806
  0
LINE
  5
47D
100
AcDbEntity
  8
0
100
AcDbLine
 62
7
  6
CONTINUOUS
 10
99.4633604924
 20
-110.7886640907
 11
99.4633604924
 21
-112.0946899455
  0
LINE
  5
47E
100
AcDbEntity
  8
0
100
AcDbLine
 62
7
  6
CONTINUOUS
 10
99.6047818486
 20
-110.8703190094
 11
99.6047818486
 21
-112.0130350268
  0
LINE
  5
47F
100
AcDbEntity
  8
0
100
AcDbLine
 62
7
  6
CONTINUOUS
 10
99.6114258239
 20
-112.1801810122
 11
99.6114258239
 21
-111.1190627652
  0
LINE
  5
480
100
AcDbEntity
  8
0
100
AcDbLine
 62
7
  6
CONTINUOUS
 10
100.2132394556
 20
-111.2216348059
 11
100.2132394556
 21
-112.2822950131
  0
LINE
  5
481
100
AcDbEntity
  8
0
100
AcDbLine
 62
7
  6
CONTINUOUS
 10
100.3546608119
 20
-111.3072985728
 11
100.3546608119
 21
-112.2006400944
  0
LINE
  5
482
100
AcDbEntity
  8
0
100
AcDbLine
 62
7
  6
CONTINUOUS
 10
100.3616038933
 20
-112.6133244276
 11
100.3616038933
 21
-111.3072985728
  0
LWPOLYLINE
  5
483
100
AcDbEntity
  8
ASSI
100
AcDbPolyline
 62
7
  6
CONTINUOUS
 90
15
 70
0
 10
103.2265184351
 20
-41.2093044297
 10
103.2283632597
 20
-41.1387623421
 10
103.2337345301
 20
-41.0709743585
 10
103.2426322464
 20
-41.0059404789
 10
103.2551102587
 20
-40.9434597414
 10
103.2711147168
 20
-40.8837331079
 10
103.2904840703
 20
-40.8273634642
 10
103.3132523995
 20
-40.7743848105
 10
103.3393856242
 20
-40.7247631466
 10
103.3686199533
 20
-40.6789993578
 10
103.4009867954
 20
-40.6371325175
 10
103.4364547419
 20
-40.5991235523
 10
103.4746657763
 20
-40.5653561281
 10
103.515647681
 20
-40.5358732039
 10
103.5371585449
 20
-40.5227273708
  0
LWPOLYLINE
  5
484
100
AcDbEntity
  8
ASSI
100
AcDbPolyline
 62
7
  6
CONTINUOUS
 90
15
 70
0
 10
103.2265184351
 20
-114.6916293411
 10
103.2283632597
 20
-114.6210872535
 10
103.2337345301
 20
-114.5532992699
 10
103.2426322464
 20
-114.4882653903
 10
103.2551102587
 20
-114.4257846527
 10
103.2711147168
 20
-114.3660580192
 10
103.2904840703
 20
-114.3096883755
 10
103.3132523995
 20
-114.2567097218
 10
103.3393856242
 20
-114.2070880579
 10
103.3686199533
 20
-114.1613242692
 10
103.4009867954
 20
-114.1194574288
 10
103.4364547419
 20
-114.0814484637
 10
103.4746657763
 20
-114.0476810395
 10
103.515647681
 20
-114.0181981152
 10
103.5371585449
 20
-114.0050522821
  0
LWPOLYLINE
  5
485
100
AcDbEntity
  8
0
100
AcDbPolyline
 62
7
  6
CONTINUOUS
 90
7
 70
0
 10
97.3609478176
 20
-110.15346767
 10
97.3572650733
 20
-110.1884694583
 10
97.352503972
 20
-110.2206911241
 10
97.3465762207
 20
-110.250483334
 10
97.3394685071
 20
-110.2777983014
 10
97.3310780648
 20
-110.3025823914
 10
97.3215076603
 20
-110.3248892388
  0
LWPOLYLINE
  5
486
100
AcDbEntity
  8
ASSI
100
AcDbPolyline
 62
7
  6
CONTINUOUS
 90
7
 70
0
 10
123.0596766868
 20
-66.8251724757
 10
123.0444600738
 20
-66.8341052351
 10
122.9663127393
 20
-66.8847329855
 10
122.8919158835
 20
-66.9411326012
 10
122.8214107143
 20
-67.0032143583
 10
122.7546560238
 20
-67.0710679807
 10
122.6916518119
 20
-67.1446934684
  0
LINE
  5
487
100
AcDbEntity
  8
ASSI
100
AcDbLine
 62
7
  6
CONTINUOUS
 10
121.1163199991
 20
-66.2351166232
 11
122.1769801709
 21
-65.6227047332
  0
LINE
  5
488
100
AcDbEntity
  8
ASSI
100
AcDbLine
 62
7
  6
CONTINUOUS
 10
124.1202661888
 20
-66.2127851365
 11
123.059606017
 21
-66.8251970265
  0
LINE
  5
489
100
AcDbEntity
  8
ASSI
100
AcDbLine
 62
7
  6
CONTINUOUS
 10
124.9346966175
 20
-66.6027413044
 11
125.9953567893
 21
-65.9903294144
  0
LINE
  5
48A
100
AcDbEntity
  8
ASSI
100
AcDbLine
 62
7
  6
CONTINUOUS
 10
127.5712123373
 20
-71.9216903717
 11
127.9399004376
 21
-71.8079070024
  0
LINE
  5
48B
100
AcDbEntity
  8
0
100
AcDbLine
 62
7
  6
CONTINUOUS
 10
29.2822997912
 20
1.4851606766
 11
29.4664423226
 21
1.4222683554
  0
LINE
  5
48C
100
AcDbEntity
  8
0
100
AcDbLine
 62
7
  6
CONTINUOUS
 10
29.4237211474
 20
1.5668155952
 11
29.6078636788
 21
1.5039232741
  0
LINE
  5
48D
100
AcDbEntity
  8
RACCORDO
100
AcDbLine
 62
7
  6
CONTINUOUS
 10
9.6762912841
 20
24.644243281
 11
37.3595217676
 21
8.6602929522
  0
LINE
  5
48E
100
AcDbEntity
  8
ASSI
100
AcDbLine
 62
7
  6
CONTINUOUS
 10
40.4000809267
 20
6.9047122009
 11
83.4275285619
 21
-17.9387968031
  0
LINE
  5
48F
100
AcDbEntity
  8
RACCORDO
100
AcDbLine
 62
7
  6
CONTINUOUS
 10
86.2559556866
 20
-19.5718951764
 11
114.0452521873
 21
-35.6170866942
  0
LWPOLYLINE
  5
490
100
AcDbEntity
  8
0
100
AcDbPolyline
 62
7
  6
CONTINUOUS
 90
16
 70
0
 10
96.7898518497
 20
-35.4835854829
 10
96.7458712864
 20
-35.4417350612
 10
96.6993962458
 20
-35.4007231129
 10
96.650426728
 20
-35.360549638
 10
96.5988900296
 20
-35.3212636232
 10
96.544858854
 20
-35.2828160818
 10
96.4885513111
 20
-35.2450600542
 10
96.4300524817
 20
-35.2079286046
 10
96.369277285
 20
-35.1714886689
 10
96.3061885883
 20
-35.1357940946
 10
96.2407625976
 20
-35.1009008615
 10
96.1730231069
 20
-35.0667529898
 10
96.1030043663
 20
-35.0332363872
 10
96.0307177924
 20
-35.0003130229
 10
95.9561519685
 20
-34.9680209277
 10
95.8793068947
 20
-34.9363601015
  0
LINE
  5
491
100
AcDbEntity
  8
ASSI
100
AcDbLine
 62
7
  6
CONTINUOUS
 10
81.8365383042
 20
-12.1213573073
 11
82.2052264045
 21
-12.6608924534
  0
LINE
  5
492
100
AcDbEntity
  8
ASSI
100
AcDbLine
 62
7
  6
CONTINUOUS
 10
87.8469459443
 20
-15.5916913506
 11
87.478257844
 21
-15.0521562046
  0
LINE
  5
493
100
AcDbEntity
  8
ASSI
100
AcDbLine
 62
7
  6
CONTINUOUS
 10
85.1246464538
 20
-10.9755816997
 11
84.8417421243
 21
-10.3865256526
  0
LINE
  5
494
100
AcDbEntity
  8
ASSI
100
AcDbLine
 62
7
  6
CONTINUOUS
 10
86.1853066256
 20
-10.3631698097
 11
85.902402296
 21
-9.7741137626
  0
LWPOLYLINE
  5
495
100
AcDbEntity
  8
0
100
AcDbPolyline
 62
7
  6
CONTINUOUS
 90
3
 70
0
 10
96.7732776756
 20
-36.641685049
 10
96.7830496556
 20
-36.6694036517
 10
96.7918847388
 20
-36.6981900151
  0
LWPOLYLINE
  5
496
100
AcDbEntity
  8
0
100
AcDbPolyline
 62
7
  6
CONTINUOUS
 90
6
 70
0
 10
96.6504633826
 20
-36.7798449338
 10
96.6688863234
 20
-36.852576706
 10
96.6869909722
 20
-36.9268982199
 10
96.704777329
 20
-37.0028094756
 10
96.7219864821
 20
-37.0803021733
 10
96.7562266474
 20
-37.2400816929
  0
LWPOLYLINE
  5
497
100
AcDbEntity
  8
0
100
AcDbPolyline
 62
7
  6
CONTINUOUS
 90
6
 70
0
 10
96.7918847388
 20
-36.6981900151
 10
96.8103093905
 20
-36.770929959
 10
96.8284081377
 20
-36.845224841
 10
96.8461809805
 20
-36.9210746612
 10
96.8633594277
 20
-36.998427439
 10
96.8975440827
 20
-37.1579537506
  0
LINE
  5
498
100
AcDbEntity
  8
0
100
AcDbLine
 62
7
  6
CONTINUOUS
 10
95.770961311
 20
-36.890917601
 11
95.2286238448
 21
-34.5368186013
  0
LINE
  5
499
100
AcDbEntity
  8
0
100
AcDbLine
 62
7
  6
CONTINUOUS
 10
96.7562266474
 20
-37.2400816929
 11
96.8118019544
 21
-37.4918856763
  0
LINE
  5
49A
100
AcDbEntity
  8
0
100
AcDbLine
 62
7
  6
CONTINUOUS
 10
96.8975440827
 20
-37.1579537506
 11
96.9532233107
 21
-37.4102307576
  0
LINE
  5
49B
100
AcDbEntity
  8
0
100
AcDbLine
 62
7
  6
CONTINUOUS
 10
95.286508313
 20
-36.2037524505
 11
95.3820893509
 21
-36.6663878049
  0
LINE
  5
49C
100
AcDbEntity
  8
0
100
AcDbLine
 62
7
  6
CONTINUOUS
 10
95.4279296693
 20
-36.1220975319
 11
95.5235107071
 21
-36.5847328862
  0
LINE
  5
49D
100
AcDbEntity
  8
0
100
AcDbLine
 62
7
  6
CONTINUOUS
 10
97.0840802167
 20
-37.2850275502
 11
97.0405681729
 21
-37.0715712115
  0
LINE
  5
49E
100
AcDbEntity
  8
0
100
AcDbLine
 62
7
  6
CONTINUOUS
 10
97.1667017458
 20
-37.6968003679
 11
97.0840802167
 21
-37.2850275502
  0
LINE
  5
49F
100
AcDbEntity
  8
0
100
AcDbLine
 62
7
  6
CONTINUOUS
 10
95.043228225
 20
-34.9905775341
 11
95.2127712179
 21
-35.8458951291
  0
LINE
  5
4A0
100
AcDbEntity
  8
0
100
AcDbLine
 62
7
  6
CONTINUOUS
 10
95.1846495812
 20
-34.9089226154
 11
95.3541925741
 21
-35.7642402105
  0
LWPOLYLINE
  5
4A1
100
AcDbEntity
  8
0
100
AcDbPolyline
 62
7
  6
CONTINUOUS
 90
19
 70
0
 10
97.0405681729
 20
-37.0715712115
 10
97.0328975228
 20
-37.0326348112
 10
97.0247859773
 20
-36.9946514778
 10
97.0162335365
 20
-36.9576212114
 10
97.007284777
 20
-36.9214787384
 10
96.9978951222
 20
-36.8862893323
 10
96.9879308417
 20
-36.8522488135
 10
96.9773540936
 20
-36.8193995945
 10
96.9662027198
 20
-36.7876992628
 10
96.9544565164
 20
-36.7572164019
 10
96.9420555991
 20
-36.7278555921
 10
96.9290598522
 20
-36.6997122532
 10
96.9156287251
 20
-36.6731412277
 10
96.9017533114
 20
-36.6482225967
 10
96.8874425175
 20
-36.6248762792
 10
96.8728825121
 20
-36.6032168754
 10
96.8581353515
 20
-36.5832825852
 10
96.8431389795
 20
-36.5650352086
 10
96.8278933959
 20
-36.5484747457
  0
LWPOLYLINE
  5
4A2
100
AcDbEntity
  8
ASSI
100
AcDbPolyline
 62
7
  6
CONTINUOUS
 90
15
 70
0
 10
105.3478387787
 20
-42.4341282097
 10
105.3459939541
 20
-42.5046702973
 10
105.3406226836
 20
-42.572458281
 10
105.3317249674
 20
-42.6374921606
 10
105.3192469551
 20
-42.6999728981
 10
105.303242497
 20
-42.7596995316
 10
105.2838731435
 20
-42.8160691753
 10
105.2611048142
 20
-42.869047829
 10
105.2349715896
 20
-42.9186694929
 10
105.2057372604
 20
-42.9644332816
 10
105.1733704184
 20
-43.006300122
 10
105.1379024719
 20
-43.0443090872
 10
105.0996914375
 20
-43.0780765114
 10
105.0587095328
 20
-43.1075594356
 10
105.0371986689
 20
-43.1207052687
  0
LWPOLYLINE
  5
4A3
100
AcDbEntity
  8
ASSI
100
AcDbPolyline
 62
7
  6
CONTINUOUS
 90
15
 70
0
 10
105.3478387787
 20
-115.9164531211
 10
105.3459939541
 20
-115.9869952087
 10
105.3406226836
 20
-116.0547831923
 10
105.3317249674
 20
-116.1198170719
 10
105.3192469551
 20
-116.1822978094
 10
105.303242497
 20
-116.2420244429
 10
105.2838731435
 20
-116.2983940866
 10
105.2611048142
 20
-116.3513727404
 10
105.2349715896
 20
-116.4009944043
 10
105.2057372604
 20
-116.446758193
 10
105.1733704184
 20
-116.4886250333
 10
105.1379024719
 20
-116.5266339985
 10
105.0996914375
 20
-116.5604014227
 10
105.0587095328
 20
-116.5898843469
 10
105.0371986689
 20
-116.60303018
  0
LWPOLYLINE
  5
4A4
100
AcDbEntity
  8
0
100
AcDbPolyline
 62
7
  6
CONTINUOUS
 90
31
 70
0
 10
109.5800785868
 20
-82.435403165
 10
109.5539259481
 20
-83.1335252012
 10
109.5120041649
 20
-83.8206081017
 10
109.4543132372
 20
-84.4966518667
 10
109.3807941937
 20
-85.1620918287
 10
109.2915060058
 20
-85.8164926551
 10
109.1866255874
 20
-86.4585483481
 10
109.0661221896
 20
-87.088230504
 10
108.9300265614
 20
-87.7055675265
 10
108.7786078644
 20
-88.3093386289
 10
108.6118357793
 20
-88.8995169675
 10
108.4297406253
 20
-89.476129386
 10
108.2326825218
 20
-90.0380356289
 10
108.0206318622
 20
-90.5852065966
 10
107.7936182532
 20
-91.1176713886
 10
107.5520906343
 20
-91.634377048
 10
107.2960202872
 20
-92.1352923921
 10
107.0254359302
 20
-92.6204486035
 10
106.7408726585
 20
-93.0888862733
 10
106.4423028123
 20
-93.5405723206
 10
106.1297540515
 20
-93.9755398264
 10
105.8038444505
 20
-94.3929286237
 10
105.4645475723
 20
-94.7927039302
 10
105.1118898541
 20
-95.1749005283
 10
104.7465686813
 20
-95.5387625989
 10
104.3685589968
 20
-95.8842538641
 10
103.9778858579
 20
-96.2114106019
 10
103.5753218222
 20
-96.5195858268
 10
103.1608433607
 20
-96.8087419809
 10
102.7344740025
 20
-97.0789166222
 10
102.5495411091
 20
-97.1880536992
  0
LINE
  5
4A5
100
AcDbEntity
  8
0
100
AcDbLine
 62
7
  6
CONTINUOUS
 10
94.6882535498
 20
-109.337603043
 11
95.0064742287
 21
-108.4241954933
  0
LINE
  5
4A6
100
AcDbEntity
  8
0
100
AcDbLine
 62
7
  6
CONTINUOUS
 10
94.9369196702
 20
-108.1751538896
 11
94.6140759271
 21
-109.0984135282
  0
LINE
  5
4A7
100
AcDbEntity
  8
0
100
AcDbLine
 62
7
  6
CONTINUOUS
 10
95.0308280093
 20
-108.2293753877
 11
94.7554972833
 21
-109.0167586095
  0
LWPOLYLINE
  5
4A8
100
AcDbEntity
  8
ASSI
100
AcDbPolyline
 62
7
  6
CONTINUOUS
 90
34
 70
0
 10
83.4438083015
 20
-108.1876374984
 10
83.3947769157
 20
-108.2620037821
 10
83.3367353077
 20
-108.3645583631
 10
83.2843165395
 20
-108.4730137941
 10
83.2375568394
 20
-108.5874080948
 10
83.1964199792
 20
-108.7077032456
 10
83.1611704386
 20
-108.833125837
 10
83.13184615
 20
-108.9637089054
 10
83.108409181
 20
-109.0994194144
 10
83.091010214
 20
-109.2393848451
 10
83.0796881525
 20
-109.3836326123
 10
83.0744040931
 20
-109.5321353011
 10
83.0751920084
 20
-109.6839381484
 10
83.0820910206
 20
-109.8390624173
 10
83.0950620075
 20
-109.9974868446
 10
83.1140215752
 20
-110.1581928777
 10
83.1390083086
 20
-110.3211952171
 10
83.1699836228
 20
-110.4864791622
 10
83.2067483693
 20
-110.6529820587
 10
83.2493398497
 20
-110.8207117603
 10
83.2977207625
 20
-110.9896604132
 10
83.3515800538
 20
-111.1587418018
 10
83.4109530212
 20
-111.3279567811
 10
83.4758043672
 20
-111.4973044961
 10
83.5457171452
 20
-111.6656961652
 10
83.6207239663
 20
-111.8331256286
 10
83.7007922195
 20
-111.9995990461
 10
83.7854071247
 20
-112.164046116
 10
83.8745979762
 20
-112.3264537823
 10
83.9683354796
 20
-112.486835101
 10
84.0660169717
 20
-112.6441589379
 10
84.1674415646
 20
-112.7980815816
 10
84.2728101462
 20
-112.9489467437
 10
84.3821227165
 20
-113.0967544239
  0
LINE
  5
4A9
100
AcDbEntity
  8
ASSI
100
AcDbLine
 62
7
  6
CONTINUOUS
 10
126.2782611188
 20
-66.5793854615
 11
125.2176009471
 21
-67.1917973515
  0
LINE
  5
4AA
100
AcDbEntity
  8
0
100
AcDbLine
 62
7
  6
CONTINUOUS
 10
108.6615199333
 20
-78.4349218695
 11
107.6008597615
 21
-79.0473337595
  0
LINE
  5
4AB
100
AcDbEntity
  8
0
100
AcDbLine
 62
253
  6
CONTINUOUS
 10
86.6095090772
 20
-94.8911795732
 11
85.5488489054
 21
-95.5035914632
  0
LINE
  5
4AC
100
AcDbEntity
  8
ASSI
100
AcDbLine
 62
7
  6
CONTINUOUS
 10
128.631872509
 20
-70.6559599664
 11
127.5712123373
 21
-71.2683718564
  0
LINE
  5
4AD
100
AcDbEntity
  8
ASSI
100
AcDbLine
 62
7
  6
CONTINUOUS
 10
124.9346966175
 20
-73.5427386571
 11
125.3162234649
 21
-73.3224498371
  0
LINE
  5
4AE
100
AcDbEntity
  8
ASSI
100
AcDbLine
 62
7
  6
CONTINUOUS
 10
127.9399004376
 20
-71.8079070024
 11
129.0005606094
 21
-71.1954951124
  0
LINE
  5
4AF
100
AcDbEntity
  8
ASSI
100
AcDbLine
 62
7
  6
CONTINUOUS
 10
127.8704473898
 20
-72.707871045
 11
126.8097872181
 21
-73.320282935
  0
LINE
  5
4B0
100
AcDbEntity
  8
0
100
AcDbLine
 62
7
  6
CONTINUOUS
 10
29.4296139849
 20
1.660678927
 11
29.2822997912
 21
1.7023070313
  0
LINE
  5
4B1
100
AcDbEntity
  8
0
100
AcDbLine
 62
7
  6
CONTINUOUS
 10
28.9140151498
 20
2.7401060912
 11
29.061328922
 21
2.6984782303
  0
LINE
  5
4B2
100
AcDbEntity
  8
0
100
AcDbLine
 62
7
  6
CONTINUOUS
 10
29.055436506
 20
2.8217610099
 11
29.2027502783
 21
2.7801331489
  0
LINE
  5
4B3
100
AcDbEntity
  8
0
100
AcDbLine
 62
7
  6
CONTINUOUS
 10
29.061328922
 20
2.9156245546
 11
28.8771868121
 21
2.9785166362
  0
LWPOLYLINE
  5
4B4
100
AcDbEntity
  8
ASSI
100
AcDbPolyline
 62
7
  6
CONTINUOUS
 90
16
 70
0
 10
85.5208554493
 20
-9.99441413
 10
85.4999936294
 20
-9.9855178714
 10
85.3818645749
 20
-9.94140057
 10
85.265110803
 20
-9.9041270771
 10
85.1495491162
 20
-9.8736590137
 10
85.035362712
 20
-9.8500347588
 10
84.9231011833
 20
-9.8333694491
 10
84.8126768417
 20
-9.8236949621
 10
84.7041773756
 20
-9.8209794202
 10
84.5984154426
 20
-9.8252423281
 10
84.4955055173
 20
-9.8365183708
 10
84.3953331251
 20
-9.8547728633
 10
84.2983675
 20
-9.8799212543
 10
84.2045361455
 20
-9.9120339201
 10
84.1139115582
 20
-9.9510404844
 10
84.0273111679
 20
-9.9965698352
  0
LWPOLYLINE
  5
4B5
100
AcDbEntity
  8
ASSI
100
AcDbPolyline
 62
7
  6
CONTINUOUS
 90
16
 70
0
 10
84.5588377947
 20
-10.6488908712
 10
84.439505577
 20
-10.5979787502
 10
84.3214756483
 20
-10.5538903509
 10
84.2047480085
 20
-10.5166256732
 10
84.0890896212
 20
-10.4861366236
 10
83.9747335229
 20
-10.4624712956
 10
83.862378823
 20
-10.4457739703
 10
83.7520377902
 20
-10.4360872963
 10
83.6436981558
 20
-10.4333686248
 10
83.538022224
 20
-10.4376342906
 10
83.4350263081
 20
-10.448927038
 10
83.3346940947
 20
-10.4672041226
 10
83.2376389468
 20
-10.4923536458
 10
83.1438809244
 20
-10.5244176663
 10
83.0533999675
 20
-10.5633541254
 10
82.9666518232
 20
-10.6089812019
  0
LWPOLYLINE
  5
4B6
100
AcDbEntity
  8
RACCORDO
100
AcDbPolyline
 62
7
  6
CONTINUOUS
 90
24
 70
0
 10
9.6762912841
 20
24.644243281
 10
9.4290155513
 20
24.7819930639
 10
9.1826396006
 20
24.909338418
 10
8.9371634321
 20
25.0262793433
 10
8.6922904044
 20
25.1329328668
 10
8.4483171589
 20
25.2291819615
 10
8.2061336195
 20
25.3146755464
 10
7.9657463223
 20
25.3893743416
 10
7.7271487313
 20
25.453317627
 10
7.4912111619
 20
25.5062721612
 10
7.2579433288
 20
25.5481978125
 10
7.0273355173
 20
25.5791347126
 10
6.8002288994
 20
25.5989700152
 10
6.5766362615
 20
25.6076631763
 10
6.3565448171
 20
25.60525474
 10
6.1407573782
 20
25.5917534911
 10
5.9292896633
 20
25.5671189181
 10
5.7221259539
 20
25.5313915325
 10
5.5200219064
 20
25.4847016548
 10
5.322995999
 20
25.4270092491
 10
5.1310297535
 20
25.3583543511
 10
4.9448233916
 20
25.2789873886
 10
4.7643979488
 20
25.1888692402
 10
4.6760635422
 20
25.1396305436
  0
LINE
  5
4B7
100
AcDbEntity
  8
RACCORDO
100
AcDbLine
 62
7
  6
CONTINUOUS
 10
10.7369514559
 20
25.256655171
 11
38.4201819394
 21
9.2727048422
  0
LINE
  5
4B8
100
AcDbEntity
  8
ASSI
100
AcDbLine
 62
7
  6
CONTINUOUS
 10
41.4607410985
 20
7.5171240909
 11
83.4275285619
 21
-16.7139730231
  0
LINE
  5
4B9
100
AcDbEntity
  8
RACCORDO
100
AcDbLine
 62
7
  6
CONTINUOUS
 10
87.3166158584
 20
-18.9594832864
 11
115.105912359
 21
-35.0046748042
  0
LWPOLYLINE
  5
4BA
100
AcDbEntity
  8
RACCORDO
100
AcDbPolyline
 62
7
  6
CONTINUOUS
 90
46
 70
0
 10
115.105912359
 20
-35.0046748042
 10
115.3531880919
 20
-35.1524728394
 10
115.5995640426
 20
-35.3096362575
 10
115.8450402111
 20
-35.4761650585
 10
116.0899132388
 20
-35.6522847694
 10
116.3338864843
 20
-35.8377698632
 10
116.5760700237
 20
-36.0319437591
 10
116.8164573209
 20
-36.2348381891
 10
117.0550549119
 20
-36.4464214212
 10
117.2909924813
 20
-36.6659216781
 10
117.5242603144
 20
-36.8933678735
 10
117.7548681258
 20
-37.1287310936
 10
117.9819747438
 20
-37.3711528209
 10
118.2055673817
 20
-37.6206588334
 10
118.4256588261
 20
-37.877223353
 10
118.641446265
 20
-38.1399105274
 10
118.8529139799
 20
-38.4087427169
 10
119.0600776893
 20
-38.6836975614
 10
119.2621817368
 20
-38.9637721273
 10
119.4592076442
 20
-39.2489851122
 10
119.6511738897
 20
-39.5393178187
 10
119.8373802516
 20
-39.8337112205
 10
120.0178056944
 20
-40.1321801477
 10
120.1924712536
 20
-40.4347097702
 10
120.360739814
 20
-40.7401965723
 10
120.5225880134
 20
-41.0486513537
 10
120.6780392139
 20
-41.3600633145
 10
120.8265263872
 20
-41.6732965395
 10
120.9680241003
 20
-41.9883576799
 10
121.1025577862
 20
-42.3052400845
 10
121.229636716
 20
-42.6227878835
 10
121.3492336643
 20
-42.9410035073
 10
121.4613758564
 20
-43.2598845255
 10
121.5656542393
 20
-43.5782677786
 10
121.6620400936
 20
-43.8961514486
 10
121.7505621386
 20
-44.2135373535
 10
121.8308974787
 20
-44.529267787
 10
121.9030162154
 20
-44.8433367033
 10
121.9669482473
 20
-45.1557501484
 10
122.0224603738
 20
-45.4653685536
 10
122.0695218451
 20
-45.7721817115
 10
122.108163411
 20
-46.0761998296
 10
122.1382441216
 20
-46.3763139626
 10
122.1597169934
 20
-46.672154462
 10
122.1726290098
 20
-46.9640909762
 10
122.1769801709
 20
-47.2521235054
  0
LINE
  5
4BB
100
AcDbEntity
  8
ASSI
100
AcDbLine
 62
7
  6
CONTINUOUS
 10
88.9076061161
 20
-14.9792794606
 11
88.5389180158
 21
-14.4397443146
  0
LINE
  5
4BC
100
AcDbEntity
  8
ASSI
100
AcDbLine
 62
7
  6
CONTINUOUS
 10
127.9399004376
 20
-71.8079070024
 11
127.5712123373
 21
-71.2683718564
  0
LINE
  5
4BD
100
AcDbEntity
  8
ASSI
100
AcDbLine
 62
7
  6
CONTINUOUS
 10
129.0005606094
 20
-71.1954951124
 11
128.631872509
 21
-70.6559599664
  0
LINE
  5
4BE
100
AcDbEntity
  8
ASSI
100
AcDbLine
 62
7
  6
CONTINUOUS
 10
124.651792288
 20
-72.95368261
 11
124.9346966175
 21
-73.5427386571
  0
LWPOLYLINE
  5
4BF
100
AcDbEntity
  8
ASSI
100
AcDbPolyline
 62
7
  6
CONTINUOUS
 90
22
 70
0
 10
122.6916518119
 20
-70.4105745755
 10
122.7546560238
 20
-70.5569557479
 10
122.8214107143
 20
-70.7018960136
 10
122.8919158835
 20
-70.8453953728
 10
122.9663127393
 20
-70.9877066128
 10
123.0444600738
 20
-71.1285769462
 10
123.1259342628
 20
-71.267248011
 10
123.2107567204
 20
-71.4037142628
 10
123.2989060326
 20
-71.537981246
 10
123.3898943331
 20
-71.6693072314
 10
123.4837361863
 20
-71.7976743924
 10
123.5804170279
 20
-71.9231005556
 10
123.6794052988
 20
-72.044897472
 10
123.780713544
 20
-72.1630452927
 10
123.8843292185
 20
-72.2775638665
 10
123.9896831277
 20
-72.3878244909
 10
124.0967847565
 20
-72.4938039422
 10
124.20562462
 20
-72.5955254442
 10
124.3156050698
 20
-72.6924299651
 10
124.4265268896
 20
-72.7843311611
 10
124.5385892957
 20
-72.8714153761
 10
124.651792288
 20
-72.95368261
  0
LINE
  5
4C0
100
AcDbEntity
  8
0
100
AcDbLine
 62
7
  6
CONTINUOUS
 10
95.4473871266
 20
-109.775917256
 11
95.5656005312
 21
-109.4639803605
  0
LINE
  5
4C1
100
AcDbEntity
  8
0
100
AcDbLine
 62
7
  6
CONTINUOUS
 10
96.6250437722
 20
-112.6101856243
 11
96.7432571767
 21
-112.2982487287
  0
LINE
  5
4C2
100
AcDbEntity
  8
0
100
AcDbLine
 62
7
  6
CONTINUOUS
 10
95.6130650738
 20
-109.334897017
 11
95.7956754001
 21
-108.8599639968
  0
LINE
  5
4C3
100
AcDbEntity
  8
0
100
AcDbLine
 62
7
  6
CONTINUOUS
 10
96.7904226133
 20
-112.1689926851
 11
96.9733320457
 21
-111.6942421627
  0
LINE
  5
4C4
100
AcDbEntity
  8
0
100
AcDbLine
 62
7
  6
CONTINUOUS
 10
96.8931136098
 20
-111.4585953836
 11
96.4677238271
 21
-112.5193510597
  0
LINE
  5
4C5
100
AcDbEntity
  8
0
100
AcDbLine
 62
7
  6
CONTINUOUS
 10
96.9813568353
 20
-111.5095459161
 11
96.6091451833
 21
-112.437696141
  0
LINE
  5
4C6
100
AcDbEntity
  8
0
100
AcDbLine
 62
7
  6
CONTINUOUS
 10
95.7154569642
 20
-108.6246715658
 11
95.2897687824
 21
-109.6849103995
  0
LINE
  5
4C7
100
AcDbEntity
  8
0
100
AcDbLine
 62
7
  6
CONTINUOUS
 10
95.8036488476
 20
-108.675592454
 11
95.4311901387
 21
-109.6032554809
  0
LWPOLYLINE
  5
4C8
100
AcDbEntity
  8
0
100
AcDbPolyline
 62
7
  6
CONTINUOUS
 90
18
 70
0
 10
97.3209190244
 20
-110.557011509
 10
97.329024876
 20
-110.5402916551
 10
97.3363047534
 20
-110.523677594
 10
97.3427982795
 20
-110.5073866166
 10
97.3484658315
 20
-110.4912014321
 10
97.3536152249
 20
-110.4749036181
 10
97.3583586131
 20
-110.4585920916
 10
97.3625838429
 20
-110.4421679357
 10
97.3662622698
 20
-110.425115977
 10
97.3693112635
 20
-110.407278259
 10
97.3718134544
 20
-110.3888127382
 10
97.3739880884
 20
-110.3696781106
 10
97.3759300926
 20
-110.3499332943
 10
97.37754454
 20
-110.3295193712
 10
97.3787658958
 20
-110.308218283
 10
97.3795723153
 20
-110.2859573437
 10
97.3799856434
 20
-110.2628092392
 10
97.3800048049
 20
-110.2144185004
  0
LINE
  5
4C9
100
AcDbEntity
  8
ASSI
100
AcDbLine
 62
7
  6
CONTINUOUS
 10
124.9346966175
 20
-66.6027413044
 11
124.651792288
 21
-66.865106523
  0
LWPOLYLINE
  5
4CA
100
AcDbEntity
  8
ASSI
100
AcDbPolyline
 62
7
  6
CONTINUOUS
 90
16
 70
0
 10
127.8704460416
 20
-72.7078717136
 10
127.9530008417
 20
-72.6557519182
 10
128.0320992787
 20
-72.5967814758
 10
128.1068307705
 20
-72.5315868775
 10
128.1770981159
 20
-72.4601957097
 10
128.2429985163
 20
-72.3825803861
 10
128.304224106
 20
-72.2991049564
 10
128.3608020887
 20
-72.2096529478
 10
128.4127052609
 20
-72.1143408331
 10
128.4595441464
 20
-72.0138820796
 10
128.5012472891
 20
-71.90833668
 10
128.5378861451
 20
-71.7976446416
 10
128.5692856059
 20
-71.6823394536
 10
128.5953873021
 20
-71.5625989459
 10
128.6162496032
 20
-71.4382452886
 10
128.6189657947
 20
-71.4158231759
  0
LWPOLYLINE
  5
4CB
100
AcDbEntity
  8
ASSI
100
AcDbPolyline
 62
7
  6
CONTINUOUS
 90
16
 70
0
 10
126.8097869625
 20
-73.3202830826
 10
126.8925000566
 20
-73.2680842749
 10
126.9714659565
 20
-73.2092031521
 10
127.0461186493
 20
-73.1440477301
 10
127.116431741
 20
-73.0725796069
 10
127.1824316256
 20
-72.9948371846
 10
127.2437146819
 20
-72.9112956452
 10
127.3002520485
 20
-72.8219194877
 10
127.3520725866
 20
-72.7267442131
 10
127.3988592591
 20
-72.626351506
 10
127.4405812646
 20
-72.5207094163
 10
127.4772694045
 20
-72.4098498941
 10
127.508699045
 20
-72.2944504749
 10
127.5347953084
 20
-72.1747370041
 10
127.5556330725
 20
-72.0504836363
 10
127.5712123373
 20
-71.9216903717
  0
LWPOLYLINE
  5
4CC
100
AcDbEntity
  8
0
100
AcDbPolyline
 62
7
  6
CONTINUOUS
 90
3
 70
0
 10
102.2232338437
 20
-97.2552850865
 10
102.6963173114
 20
-97.0493676364
 10
103.070206938
 20
-96.8661749613
  0
LINE
  5
4CD
100
AcDbEntity
  8
ASSI
100
AcDbLine
 62
7
  6
CONTINUOUS
 10
125.2176009471
 20
-67.1917973515
 11
124.9346966175
 21
-66.6027413044
  0
LINE
  5
4CE
100
AcDbEntity
  8
ASSI
100
AcDbLine
 62
7
  6
CONTINUOUS
 10
126.2782611188
 20
-66.5793854615
 11
125.9953567893
 21
-65.9903294144
  0
LWPOLYLINE
  5
4CF
100
AcDbEntity
  8
ASSI
100
AcDbPolyline
 62
7
  6
CONTINUOUS
 90
31
 70
0
 10
127.5712123373
 20
-71.2683718564
 10
127.5556330725
 20
-71.1215880472
 10
127.5347953084
 20
-70.9732717518
 10
127.508699045
 20
-70.8234229702
 10
127.4772694045
 20
-70.67172939
 10
127.4405812646
 20
-70.5185033235
 10
127.3988592591
 20
-70.3646817075
 10
127.3520725866
 20
-70.2102609239
 10
127.3002520485
 20
-70.0552445907
 10
127.2437146819
 20
-69.9005804995
 10
127.1824316256
 20
-69.7462708228
 10
127.116431741
 20
-69.5923133881
 10
127.0461186493
 20
-69.439649469
 10
126.9714659565
 20
-69.2882869886
 10
126.8925000566
 20
-69.1382180239
 10
126.8097037528
 20
-68.99036008
 10
126.7230536009
 20
-68.844726685
 10
126.6325730451
 20
-68.7013043108
 10
126.5388152211
 20
-68.5609698779
 10
126.4417600633
 20
-68.4237422725
 10
126.3414276374
 20
-68.2896026085
 10
126.2384312763
 20
-68.1593711476
 10
126.13275466
 20
-68.0330717893
 10
126.0244141085
 20
-67.9106806342
 10
125.9140719153
 20
-67.7929462458
 10
125.801715805
 20
-67.6798971006
 10
125.6873580529
 20
-67.5715047221
 10
125.571697779
 20
-67.4684322445
 10
125.4549680235
 20
-67.3709007126
 10
125.3369357461
 20
-67.2786890816
 10
125.2176009471
 20
-67.1917973515
  0
LWPOLYLINE
  5
4D0
100
AcDbEntity
  8
RACCORDO
100
AcDbPolyline
 62
7
  6
CONTINUOUS
 90
46
 70
0
 10
121.1163199991
 20
-47.8645353954
 10
121.1119688381
 20
-47.5765028662
 10
121.0990568216
 20
-47.284566352
 10
121.0775839498
 20
-46.9887258526
 10
121.0475032392
 20
-46.6886117196
 10
121.0088616733
 20
-46.3845936015
 10
120.9618002021
 20
-46.0777804436
 10
120.9062880755
 20
-45.7681620383
 10
120.8423560437
 20
-45.4557485933
 10
120.7702373069
 20
-45.141679677
 10
120.6899019668
 20
-44.8259492435
 10
120.6013799218
 20
-44.5085633386
 10
120.5049940675
 20
-44.1906796686
 10
120.4007156847
 20
-43.8722964155
 10
120.2885734925
 20
-43.5534153972
 10
120.1689765442
 20
-43.2351997735
 10
120.0418976145
 20
-42.9176519744
 10
119.9073639285
 20
-42.6007695699
 10
119.7658662154
 20
-42.2857084295
 10
119.6173790421
 20
-41.9724752045
 10
119.4619278416
 20
-41.6610632437
 10
119.3000796423
 20
-41.3526084623
 10
119.1318110818
 20
-41.0471216602
 10
118.9571455226
 20
-40.7445920377
 10
118.7767200798
 20
-40.4461231105
 10
118.5905137179
 20
-40.1517297086
 10
118.3985474724
 20
-39.8613970022
 10
118.201521565
 20
-39.5761840172
 10
117.9994175175
 20
-39.2961094514
 10
117.7922538081
 20
-39.0211546069
 10
117.5807860932
 20
-38.7523224173
 10
117.3649986543
 20
-38.4896352429
 10
117.1449072099
 20
-38.2330707234
 10
116.921314572
 20
-37.9835647109
 10
116.6942079541
 20
-37.7411429836
 10
116.4636001426
 20
-37.5057797634
 10
116.2303323095
 20
-37.2783335681
 10
115.9943947401
 20
-37.0588333112
 10
115.7557971491
 20
-36.8472500791
 10
115.5154098519
 20
-36.6443556491
 10
115.2732263125
 20
-36.4501817532
 10
115.029253067
 20
-36.2646966594
 10
114.7843800393
 20
-36.0885769485
 10
114.5389038708
 20
-35.9220481475
 10
114.2925279201
 20
-35.7648847294
 10
114.0452521873
 20
-35.6170866942
  0
LINE
  5
4D1
100
AcDbEntity
  8
RACCORDO
100
AcDbLine
 62
7
  6
CONTINUOUS
 10
121.1163199991
 20
-47.8645353954
 11
121.1163199991
 21
-66.2351166232
  0
LINE
  5
4D2
100
AcDbEntity
  8
ASSI
100
AcDbLine
 62
7
  6
CONTINUOUS
 10
121.1163199991
 20
-69.5009977304
 11
121.1163199991
 21
-106.8545128936
  0
LINE
  5
4D3
100
AcDbEntity
  8
RACCORDO
100
AcDbLine
 62
7
  6
CONTINUOUS
 10
121.1163199991
 20
-110.5286291392
 11
121.1163199991
 21
-128.6950927979
  0
LINE
  5
4D4
100
AcDbEntity
  8
RACCORDO
100
AcDbLine
 62
7
  6
CONTINUOUS
 10
122.1769801709
 20
-47.2521235054
 11
122.1769801709
 21
-65.6227047332
  0
LINE
  5
4D5
100
AcDbEntity
  8
ASSI
100
AcDbLine
 62
7
  6
CONTINUOUS
 10
122.1769801709
 20
-70.1134096204
 11
122.1769801709
 21
-106.2421010037
  0
LINE
  5
4D6
100
AcDbEntity
  8
RACCORDO
100
AcDbLine
 62
7
  6
CONTINUOUS
 10
122.1769801709
 20
-109.9162172492
 11
122.1769801709
 21
-128.0826809079
  0
LWPOLYLINE
  5
4D7
100
AcDbEntity
  8
RACCORDO
100
AcDbPolyline
 62
7
  6
CONTINUOUS
 90
24
 70
0
 10
122.1769801709
 20
-128.0826809079
 10
122.1726290098
 20
-128.3656888253
 10
122.1597169934
 20
-128.6427148666
 10
122.1382441216
 20
-128.9137590318
 10
122.108163411
 20
-129.1791367142
 10
122.0695218451
 20
-129.4385325206
 10
122.0224603738
 20
-129.6910002711
 10
121.9669482473
 20
-129.9365146641
 10
121.9030162154
 20
-130.1751010013
 10
121.8308974787
 20
-130.4058890081
 10
121.7505621386
 20
-130.6288502046
 10
121.6620400936
 20
-130.8440130707
 10
121.5656542393
 20
-131.0505927722
 10
121.4613758564
 20
-131.2485579626
 10
121.3492336643
 20
-131.4379399883
 10
121.229636716
 20
-131.618048054
 10
121.1025577862
 20
-131.7888482903
 10
120.9680241003
 20
-131.9503745665
 10
120.8265263872
 20
-132.1020376947
 10
120.6780392139
 20
-132.2438016538
 10
120.5225880134
 20
-132.3757024648
 10
120.360739814
 20
-132.4972590025
 10
120.1924712536
 20
-132.6084334888
 10
120.1061401009
 20
-132.6600250051
  0
LWPOLYLINE
  5
4D8
100
AcDbEntity
  8
0
100
AcDbPolyline
 62
7
  6
CONTINUOUS
 90
7
 70
0
 10
97.3215076603
 20
-110.3248892388
 10
97.3110522808
 20
-110.3448319621
 10
97.2998796534
 20
-110.3623946691
 10
97.2878220511
 20
-110.3775932519
 10
97.2746712804
 20
-110.3905885052
 10
97.2603926503
 20
-110.4014074116
 10
97.2545313516
 20
-110.4050263729
  0
LINE
  5
4D9
100
AcDbEntity
  8
ASSI
100
AcDbLine
 62
7
  6
CONTINUOUS
 10
124.9346966175
 20
-73.5427386571
 11
125.2176009471
 21
-73.2803734385
  0
LWPOLYLINE
  5
4DA
100
AcDbEntity
  8
ASSI
100
AcDbPolyline
 62
7
  6
CONTINUOUS
 90
40
 70
0
 10
82.8417288506
 20
-108.3688735419
 10
82.7899923944
 20
-108.4003504207
 10
82.7018120582
 20
-108.4618581893
 10
82.6184067599
 20
-108.5304587057
 10
82.5398072653
 20
-108.606197669
 10
82.4659828086
 20
-108.68902938
 10
82.3974080268
 20
-108.7784212918
 10
82.3341167439
 20
-108.8744156721
 10
82.2760751359
 20
-108.9769702531
 10
82.2236563677
 20
-109.0854256841
 10
82.1768966677
 20
-109.1998199848
 10
82.1357598074
 20
-109.3201151356
 10
82.1005102668
 20
-109.445537727
 10
82.0711859782
 20
-109.5761207954
 10
82.0477490092
 20
-109.7118313044
 10
82.0303500423
 20
-109.8517967351
 10
82.0190279808
 20
-109.9960445023
 10
82.0137439213
 20
-110.1445471911
 10
82.0145318366
 20
-110.2963500384
 10
82.0214308488
 20
-110.4514743073
 10
82.0344018357
 20
-110.6098987346
 10
82.0533614035
 20
-110.7706047677
 10
82.0783481368
 20
-110.9336071071
 10
82.109323451
 20
-111.0988910522
 10
82.1460881975
 20
-111.2653939486
 10
82.188679678
 20
-111.4331236502
 10
82.2370605907
 20
-111.6020723032
 10
82.290919882
 20
-111.7711536917
 10
82.3502928494
 20
-111.9403686711
 10
82.4151441954
 20
-112.1097163861
 10
82.4850569734
 20
-112.2781080552
 10
82.5600637946
 20
-112.4455375186
 10
82.6401320477
 20
-112.6120109361
 10
82.7247469529
 20
-112.776458006
 10
82.8139378044
 20
-112.9388656723
 10
82.9076753078
 20
-113.099246991
 10
83.0053567999
 20
-113.2565708279
 10
83.1067813929
 20
-113.4104934716
 10
83.2121499745
 20
-113.5613586337
 10
83.3214625447
 20
-113.7091663139
  0
LINE
  5
4DB
100
AcDbEntity
  8
ASSI
100
AcDbLine
 62
7
  6
CONTINUOUS
 10
83.3214625447
 20
-113.7091663139
 11
84.3821227165
 21
-113.0967544239
  0
LINE
  5
4DC
100
AcDbEntity
  8
0
100
AcDbLine
 62
7
  6
CONTINUOUS
 10
94.2183846292
 20
-107.9712305548
 11
94.3176216884
 21
-107.9139323205
  0
LWPOLYLINE
  5
4DD
100
AcDbEntity
  8
0
100
AcDbPolyline
 62
7
  6
CONTINUOUS
 90
32
 70
0
 10
102.5495411091
 20
-97.1880536992
 10
102.297056892
 20
-97.3295754394
 10
101.8485701683
 20
-97.5606798172
 10
101.3890356924
 20
-97.772268371
 10
100.9193621917
 20
-97.9639226352
 10
100.4395296029
 20
-98.1356031665
 10
99.9495579892
 20
-98.2873494083
 10
99.4504162675
 20
-98.418861225
 10
98.9420862916
 20
-98.5300985795
 10
98.4245862077
 20
-98.6211015089
 10
97.8989393718
 20
-98.6916899901
 10
97.3651296622
 20
-98.7418236292
 10
96.8231732007
 20
-98.7715428201
 10
96.2741417089
 20
-98.780788721
 10
95.718021185
 20
-98.7695208213
 10
95.1548256308
 20
-98.7377796315
 10
94.5856687727
 20
-98.6856278417
 10
94.0105388123
 20
-98.6130250649
 10
93.4294475481
 20
-98.520011688
 10
92.8435441013
 20
-98.4067715617
 10
92.252818947
 20
-98.2732646624
 10
91.6572816101
 20
-98.1195310138
 10
91.0581097869
 20
-97.9458745373
 10
90.4552962823
 20
-97.7522558101
 10
89.8488482913
 20
-97.538714255
 10
89.2399650951
 20
-97.3056720618
 10
88.6286418714
 20
-97.0530906425
 10
88.0148834426
 20
-96.7810085851
 10
87.3999035568
 20
-96.4899638431
 10
86.7841067967
 20
-96.1801357343
 10
86.1670885796
 20
-95.851344941
 10
85.5488489054
 20
-95.5035914632
  0
LINE
  5
4DE
100
AcDbEntity
  8
0
100
AcDbLine
 62
7
  6
CONTINUOUS
 10
29.5400994195
 20
1.6837445515
 11
29.4296139849
 21
1.660678927
  0
LINE
  5
4DF
100
AcDbEntity
  8
0
100
AcDbLine
 62
7
  6
CONTINUOUS
 10
29.4664423226
 20
1.4222683554
 11
29.650584854
 21
1.4462345716
  0
LINE
  5
4E0
100
AcDbEntity
  8
0
100
AcDbLine
 62
7
  6
CONTINUOUS
 10
29.6078636788
 20
1.5039232741
 11
29.723724422
 21
1.5190025912
  0
LINE
  5
4E1
100
AcDbEntity
  8
0
100
AcDbLine
 62
7
  6
CONTINUOUS
 10
28.8771868121
 20
2.9785166362
 11
28.6930442807
 21
2.9545504314
  0
LWPOLYLINE
  5
4E2
100
AcDbEntity
  8
ASSI
100
AcDbPolyline
 62
7
  6
CONTINUOUS
 90
31
 70
0
 10
128.631872509
 20
-70.6559599664
 10
128.6162496032
 20
-70.5089522194
 10
128.5953873021
 20
-70.3605072998
 10
128.5692856059
 20
-70.2106252075
 10
128.5378861451
 20
-70.0590607092
 10
128.5012472891
 20
-69.9060590383
 10
128.4595441464
 20
-69.7523558948
 10
128.4127052609
 20
-69.5978087704
 10
128.3608020887
 20
-69.4425601735
 10
128.304224106
 20
-69.2877733287
 10
128.2429985163
 20
-69.1335961225
 10
128.1770981159
 20
-68.9798806685
 10
128.1068307705
 20
-68.8273465316
 10
128.0320992787
 20
-68.6758538797
 10
127.9530008417
 20
-68.5255425449
 10
127.8701349289
 20
-68.3775515881
 10
127.7835616188
 20
-68.2320391289
 10
127.6932208329
 20
-68.0888470476
 10
127.5995318039
 20
-67.9486400464
 10
127.5023808203
 20
-67.811300593
 10
127.4018815937
 20
-67.6769462197
 10
127.2987944922
 20
-67.5465942256
 10
127.1932033943
 20
-67.4203923438
 10
127.0850244215
 20
-67.2981928413
 10
126.974766307
 20
-67.1805698184
 10
126.862313887
 20
-67.0674442897
 10
126.7477823253
 20
-66.9588952408
 10
126.6320258452
 20
-66.8557337278
 10
126.515329188
 20
-66.758230103
 10
126.3974076126
 20
-66.6661140142
 10
126.2782611188
 20
-66.5793854615
  0
LINE
  5
4E3
100
AcDbEntity
  8
0
100
AcDbLine
 62
7
  6
CONTINUOUS
 10
99.0012534829
 20
-112.6758089252
 11
98.6764651962
 21
-113.1159589101
  0
LINE
  5
4E4
100
AcDbEntity
  8
0
100
AcDbLine
 62
7
  6
CONTINUOUS
 10
99.0581712154
 20
-112.7086725106
 11
98.8178865524
 21
-113.0343039915
  0
LINE
  5
4E5
100
AcDbEntity
  8
0
100
AcDbLine
 62
7
  6
CONTINUOUS
 10
98.7537809588
 20
-113.3136417005
 11
99.1806634439
 21
-112.7793979881
  0
LWPOLYLINE
  5
4E6
100
AcDbEntity
  8
0
100
AcDbPolyline
 62
7
  6
CONTINUOUS
 90
5
 70
0
 10
97.2755423506
 20
-110.6201809039
 10
97.2886373864
 20
-110.6054965009
 10
97.3007252796
 20
-110.5896139319
 10
97.3115605145
 20
-110.5734037059
 10
97.3209190244
 20
-110.557011509
  0
LWPOLYLINE
  5
4E7
100
AcDbEntity
  8
0
100
AcDbPolyline
 62
7
  6
CONTINUOUS
 90
4
 70
0
 10
97.2423069748
 20
-110.6483194717
 10
97.246310369
 20
-110.6454411676
 10
97.2614299311
 20
-110.6334101187
 10
97.2755423506
 20
-110.6201809039
  0
LINE
  5
4E8
100
AcDbEntity
  8
0
100
AcDbLine
 62
7
  6
CONTINUOUS
 10
97.231809647
 20
-110.6553272775
 11
97.2423069748
 21
-110.6483194717
  0
LWPOLYLINE
  5
4E9
100
AcDbEntity
  8
ASSI
100
AcDbPolyline
 62
7
  6
CONTINUOUS
 90
72
 70
0
 10
115.5807609802
 20
-103.1861185119
 10
115.5283586141
 20
-103.2180199549
 10
115.4434561271
 20
-103.277126258
 10
115.3629655382
 20
-103.3428119259
 10
115.286913177
 20
-103.4151162235
 10
115.2152727139
 20
-103.4939998859
 10
115.1484708419
 20
-103.5789930791
 10
115.0865364373
 20
-103.6701322643
 10
115.0294406239
 20
-103.7673809804
 10
114.9775234663
 20
-103.8701600107
 10
114.9308158701
 20
-103.9785023594
 10
114.8892869298
 20
-104.0923750224
 10
114.8531839931
 20
-104.2110997699
 10
114.8225394419
 20
-104.3347055587
 10
114.7973208943
 20
-104.4631634321
 10
114.7776785529
 20
-104.5957082906
 10
114.7636456958
 20
-104.7323645247
 10
114.755189045
 20
-104.8731077438
 10
114.7523589685
 20
-105.0170996765
 10
114.755189045
 20
-105.1643597106
 10
114.7636456958
 20
-105.3148684581
 10
114.7776785529
 20
-105.4677294838
 10
114.7973208943
 20
-105.6229568258
 10
114.8225394419
 20
-105.7805364458
 10
114.8531839931
 20
-105.9395297943
 10
114.8892869298
 20
-106.0999453081
 10
114.9308158701
 20
-106.2617745504
 10
114.9775234663
 20
-106.4240536604
 10
115.0294406239
 20
-106.5867853229
 10
115.0865364373
 20
-106.7499668533
 10
115.1484708419
 20
-106.9126263364
 10
115.2152727139
 20
-107.074760657
 10
115.286913177
 20
-107.2363729304
 10
115.3629655382
 20
-107.3965005883
 10
115.4434561271
 20
-107.5551347708
 10
115.5283586141
 20
-107.7122843377
 10
115.617167317
 20
-107.8670133009
 10
115.7099055476
 20
-108.0193072144
 10
115.8065499941
 20
-108.1691805241
 10
115.9065250388
 20
-108.3157405793
 10
116.0098505583
 20
-108.4589676069
 10
116.1165066759
 20
-108.5988813801
 10
116.2258581442
 20
-108.7346485675
 10
116.3379210487
 20
-108.8662444227
 10
116.4526793037
 20
-108.9936936921
 10
116.5694494052
 20
-109.1162372835
 10
116.6882433596
 20
-109.2338459202
 10
116.8090491605
 20
-109.3465488788
 10
116.9311472842
 20
-109.4536748965
 10
117.0545454432
 20
-109.5551906909
 10
117.179235925
 20
-109.6511295444
 10
117.3044760689
 20
-109.7409200418
 10
117.430269155
 20
-109.8245254906
 10
117.5566119032
 20
-109.9019825833
 10
117.6827518115
 20
-109.9728299828
 10
117.8086876694
 20
-110.0370282433
 10
117.9344206875
 20
-110.0946168106
 10
118.0592019956
 20
-110.1452526852
 10
118.1830259138
 20
-110.1888943742
 10
118.305898122
 20
-110.2255833705
 10
118.4270867889
 20
-110.2551011532
 10
118.5465818673
 20
-110.2774049252
 10
118.6643934045
 20
-110.2925374836
 10
118.7798197109
 20
-110.3004086983
 10
118.8928465515
 20
-110.3009752345
 10
119.0034881612
 20
-110.2942804269
 10
119.1110855548
 20
-110.2803641502
 10
119.2156205647
 20
-110.2591833074
 10
119.3171113583
 20
-110.2307809954
 10
119.4149534531
 20
-110.1953263794
 10
119.5091250739
 20
-110.152777372
 10
119.5809060002
 20
-110.1141982204
  0
LWPOLYLINE
  5
4EA
100
AcDbEntity
  8
ASSI
100
AcDbPolyline
 62
7
  6
CONTINUOUS
 90
70
 70
0
 10
86.841851256
 20
-115.2969570629
 10
86.8695464441
 20
-115.2805232722
 10
86.9587372956
 20
-115.2211109655
 10
87.0433522008
 20
-115.1543750672
 10
87.123420454
 20
-115.0803624614
 10
87.1984272751
 20
-114.999548995
 10
87.2683400531
 20
-114.9118908495
 10
87.3331913991
 20
-114.8174318433
 10
87.3925643665
 20
-114.7167792785
 10
87.4464236578
 20
-114.6098932495
 10
87.4948045706
 20
-114.4968136619
 10
87.537396051
 20
-114.3782675343
 10
87.5741607975
 20
-114.2542196455
 10
87.6051361117
 20
-114.1247052168
 10
87.6301228451
 20
-113.9905569309
 10
87.6490824128
 20
-113.8517449313
 10
87.6620533997
 20
-113.7082990745
 10
87.6689524119
 20
-113.561141612
 10
87.6697403272
 20
-113.4102486296
 10
87.6644562678
 20
-113.2556440414
 10
87.6531342063
 20
-113.0983218414
 10
87.6357352393
 20
-112.9382645198
 10
87.6122982703
 20
-112.7754895864
 10
87.5829739817
 20
-112.6110435646
 10
87.5477244411
 20
-112.4449156872
 10
87.5065875809
 20
-112.2771167214
 10
87.4598278808
 20
-112.1087254911
 10
87.4074091126
 20
-111.9397381805
 10
87.3493675046
 20
-111.7701586054
 10
87.2860762217
 20
-111.6010770381
 10
87.2175014399
 20
-111.4324966872
 10
87.1436769832
 20
-111.264414344
 10
87.0650774886
 20
-111.0979106546
 10
86.9816721903
 20
-110.9329957903
 10
86.8934918542
 20
-110.7696595798
 10
86.8011034149
 20
-110.6089521549
 10
86.7044797596
 20
-110.4508904531
 10
86.6036480011
 20
-110.2954575369
 10
86.4992564138
 20
-110.1436527259
 10
86.3912820614
 20
-109.9954993961
 10
86.2797478801
 20
-109.8509741715
 10
86.1653709527
 20
-109.711006243
 10
86.0481329633
 20
-109.5756249737
 10
85.9280522279
 20
-109.4448010007
 10
85.8059007774
 20
-109.3193754258
 10
85.6816652701
 20
-109.1993830315
 10
85.5553590477
 20
-109.0847890355
 10
85.4277941665
 20
-108.9763301929
 10
85.2989625168
 20
-108.8740460331
 10
85.1688722082
 20
-108.7778970267
 10
85.038359626
 20
-108.6885013413
 10
84.9074220494
 20
-108.6059024891
 10
84.7760621991
 20
-108.5300569579
 10
84.6451246225
 20
-108.4614523787
 10
84.5146120403
 20
-108.4001354055
 10
84.3845217318
 20
-108.3460593844
 10
84.2556900821
 20
-108.2995719845
 10
84.1281252008
 20
-108.2607220997
 10
84.0018189784
 20
-108.2294608361
 10
83.8775834711
 20
-108.2059891806
 10
83.7554320206
 20
-108.1903573223
 10
83.6353512852
 20
-108.1825150721
 10
83.5181132958
 20
-108.1825128499
 10
83.4037363685
 20
-108.1904011696
 10
83.2922021871
 20
-108.2061295173
 10
83.1842278347
 20
-108.2295967714
 10
83.0798362474
 20
-108.260852794
 10
82.979004489
 20
-108.299847723
 10
82.8823808336
 20
-108.3463308496
 10
82.8417288506
 20
-108.3688735419
  0
LINE
  5
4EB
100
AcDbEntity
  8
ASSI
100
AcDbLine
 62
7
  6
CONTINUOUS
 10
83.3214625447
 20
-115.0375185524
 11
84.3821227165
 21
-114.4251066624
  0
LINE
  5
4EC
100
AcDbEntity
  8
0
100
AcDbLine
 62
7
  6
CONTINUOUS
 10
95.0064742287
 20
-108.4241954933
 11
95.1478955849
 21
-108.3425405746
  0
LINE
  5
4ED
100
AcDbEntity
  8
0
100
AcDbLine
 62
7
  6
CONTINUOUS
 10
94.0706176967
 20
-108.9809878422
 11
94.2120390529
 21
-108.8993329235
  0
LINE
  5
4EE
100
AcDbEntity
  8
0
100
AcDbLine
 62
7
  6
CONTINUOUS
 10
94.6140759271
 20
-109.0984135282
 11
94.7554972833
 21
-109.0167586095
  0
LINE
  5
4EF
100
AcDbEntity
  8
0
100
AcDbLine
 62
7
  6
CONTINUOUS
 10
94.5369044143
 20
-109.250215949
 11
94.6783257706
 21
-109.1685610303
  0
LINE
  5
4F0
100
AcDbEntity
  8
0
100
AcDbLine
 62
7
  6
CONTINUOUS
 10
95.7956754001
 20
-108.8599639968
 11
95.9074004531
 21
-108.7954553514
  0
LINE
  5
4F1
100
AcDbEntity
  8
0
100
AcDbLine
 62
7
  6
CONTINUOUS
 10
95.0064742287
 20
-109.5213396747
 11
95.1478955849
 21
-109.4396847561
  0
LINE
  5
4F2
100
AcDbEntity
  8
0
100
AcDbLine
 62
7
  6
CONTINUOUS
 10
95.5656005312
 20
-109.4639803605
 11
95.7011150552
 21
-109.3857359727
  0
LINE
  5
4F3
100
AcDbEntity
  8
0
100
AcDbLine
 62
7
  6
CONTINUOUS
 10
95.2897687824
 20
-109.6849103995
 11
95.4311901387
 21
-109.6032554809
  0
LINE
  5
4F4
100
AcDbEntity
  8
0
100
AcDbLine
 62
7
  6
CONTINUOUS
 10
95.9641230846
 20
-109.5375935126
 11
96.0857996973
 21
-109.4673389614
  0
LINE
  5
4F5
100
AcDbEntity
  8
0
100
AcDbLine
 62
7
  6
CONTINUOUS
 10
96.5993708463
 20
-109.2860058822
 11
96.7301093256
 21
-109.2105191227
  0
LINE
  5
4F6
100
AcDbEntity
  8
0
100
AcDbLine
 62
7
  6
CONTINUOUS
 10
96.0193488313
 20
-109.7259689422
 11
96.1365096496
 21
-109.6583217541
  0
LINE
  5
4F7
100
AcDbEntity
  8
ASSI
100
AcDbLine
 62
7
  6
CONTINUOUS
 10
86.3620217038
 20
-115.4647470652
 11
87.2246412482
 21
-114.9666813515
  0
LINE
  5
4F8
100
AcDbEntity
  8
0
100
AcDbLine
 62
253
  6
CONTINUOUS
 10
96.8841581024
 20
-109.4504384746
 11
97.0045798635
 21
-109.380908459
  0
LINE
  5
4F9
100
AcDbEntity
  8
0
100
AcDbLine
 62
7
  6
CONTINUOUS
 10
96.1312937343
 20
-110.17079636
 11
96.2538010332
 21
-110.1000621809
  0
LINE
  5
4FA
100
AcDbEntity
  8
0
100
AcDbLine
 62
7
  6
CONTINUOUS
 10
96.4462306093
 20
-110.3526369645
 11
96.5876519656
 21
-110.2709820459
  0
LINE
  5
4FB
100
AcDbEntity
  8
0
100
AcDbLine
 62
7
  6
CONTINUOUS
 10
95.6939630394
 20
-110.9230541992
 11
95.8297759337
 21
-110.8446375362
  0
LINE
  5
4FC
100
AcDbEntity
  8
0
100
AcDbLine
 62
7
  6
CONTINUOUS
 10
97.7444892662
 20
-109.9526981629
 11
97.8800037903
 21
-109.8744537751
  0
LINE
  5
4FD
100
AcDbEntity
  8
0
100
AcDbLine
 62
7
  6
CONTINUOUS
 10
97.1131182254
 20
-110.4866955188
 11
97.2545395817
 21
-110.4050406001
  0
LINE
  5
4FE
100
AcDbEntity
  8
0
100
AcDbLine
 62
7
  6
CONTINUOUS
 10
96.9047554158
 20
-110.6173834411
 11
97.0461767721
 21
-110.5357285225
  0
LINE
  5
4FF
100
AcDbEntity
  8
0
100
AcDbLine
 62
7
  6
CONTINUOUS
 10
96.0766647857
 20
-111.1440213911
 11
96.21247768
 21
-111.0656047281
  0
LINE
  5
500
100
AcDbEntity
  8
0
100
AcDbLine
 62
7
  6
CONTINUOUS
 10
96.2295059164
 20
-111.2322699445
 11
96.3653188107
 21
-111.1538532815
  0
LINE
  5
501
100
AcDbEntity
  8
0
100
AcDbLine
 62
7
  6
CONTINUOUS
 10
97.2427423801
 20
-110.6490735672
 11
97.2318356601
 21
-110.6553709706
  0
LINE
  5
502
100
AcDbEntity
  8
0
100
AcDbLine
 62
7
  6
CONTINUOUS
 10
97.7444892662
 20
-110.509370047
 11
97.8800037903
 21
-110.4311256592
  0
LINE
  5
503
100
AcDbEntity
  8
0
100
AcDbLine
 62
7
  6
CONTINUOUS
 10
95.3769366638
 20
-111.8895442224
 11
95.51835802
 21
-111.8078893037
  0
LINE
  5
504
100
AcDbEntity
  8
0
100
AcDbLine
 62
7
  6
CONTINUOUS
 10
97.5916474283
 20
-111.0139862804
 11
97.7330687846
 21
-110.9323313617
  0
LINE
  5
505
100
AcDbEntity
  8
0
100
AcDbLine
 62
7
  6
CONTINUOUS
 10
96.9733320457
 20
-111.6942421627
 11
97.0851350219
 21
-111.6296885254
  0
LINE
  5
506
100
AcDbEntity
  8
0
100
AcDbLine
 62
7
  6
CONTINUOUS
 10
96.0766647857
 20
-112.2935584703
 11
96.2180861419
 21
-112.2119035516
  0
LINE
  5
507
100
AcDbEntity
  8
0
100
AcDbLine
 62
7
  6
CONTINUOUS
 10
96.7432571767
 20
-112.2982487287
 11
96.8787717008
 21
-112.2200043409
  0
LINE
  5
508
100
AcDbEntity
  8
0
100
AcDbLine
 62
7
  6
CONTINUOUS
 10
96.4677238271
 20
-112.5193510597
 11
96.6091451833
 21
-112.437696141
  0
LINE
  5
509
100
AcDbEntity
  8
0
100
AcDbLine
 62
7
  6
CONTINUOUS
 10
97.1420781292
 20
-112.3720341727
 11
97.2635767821
 21
-112.3018823733
  0
LINE
  5
50A
100
AcDbEntity
  8
0
100
AcDbLine
 62
7
  6
CONTINUOUS
 10
99.6114258239
 20
-111.1190627652
 11
99.7129885619
 21
-111.0604217132
  0
LINE
  5
50B
100
AcDbEntity
  8
0
100
AcDbLine
 62
7
  6
CONTINUOUS
 10
97.1970054769
 20
-112.5602373104
 11
97.3141975983
 21
-112.4925720483
  0
LINE
  5
50C
100
AcDbEntity
  8
0
100
AcDbLine
 62
7
  6
CONTINUOUS
 10
99.0490164247
 20
-111.8554528737
 11
99.1904377809
 21
-111.7737979551
  0
LINE
  5
50D
100
AcDbEntity
  8
0
100
AcDbLine
 62
7
  6
CONTINUOUS
 10
97.3089503799
 20
-113.0050647282
 11
97.4314662695
 21
-112.934325589
  0
LINE
  5
50E
100
AcDbEntity
  8
0
100
AcDbLine
 62
7
  6
CONTINUOUS
 10
99.4633604924
 20
-112.0946899455
 11
99.6047818486
 21
-112.0130350268
  0
LINE
  5
50F
100
AcDbEntity
  8
0
100
AcDbLine
 62
7
  6
CONTINUOUS
 10
97.6161260509
 20
-113.1824241109
 11
97.7575474071
 21
-113.1007691922
  0
LINE
  5
510
100
AcDbEntity
  8
0
100
AcDbLine
 62
7
  6
CONTINUOUS
 10
98.6764651962
 20
-113.1159589101
 11
98.8178865524
 21
-113.0343039915
  0
LINE
  5
511
100
AcDbEntity
  8
0
100
AcDbLine
 62
7
  6
CONTINUOUS
 10
100.2132394556
 20
-112.2822950131
 11
100.3546608119
 21
-112.2006400944
  0
LINE
  5
512
100
AcDbEntity
  8
0
100
AcDbLine
 62
7
  6
CONTINUOUS
 10
98.600939828
 20
-113.2253931472
 11
98.7423611842
 21
-113.1437382285
  0
LINE
  5
513
100
AcDbEntity
  8
0
100
AcDbLine
 62
7
  6
CONTINUOUS
 10
100.1896567374
 20
-112.5140442947
 11
100.3310780936
 21
-112.432389376
  0
LINE
  5
514
100
AcDbEntity
  8
0
100
AcDbLine
 62
7
  6
CONTINUOUS
 10
98.600939828
 20
-113.7510432431
 11
98.7423611842
 21
-113.6693883245
  0
LWPOLYLINE
  5
515
100
AcDbEntity
  8
0
100
AcDbPolyline
 62
7
  6
CONTINUOUS
 90
3
 70
0
 10
97.2117884336
 20
-110.6670947569
 10
97.2140679433
 20
-110.6658589899
 10
97.231809647
 20
-110.6553272775
  0
LWPOLYLINE
  5
516
100
AcDbEntity
  8
0
100
AcDbPolyline
 62
7
  6
CONTINUOUS
 90
7
 70
0
 10
97.1131033569
 20
-110.4866697697
 10
97.1024112509
 20
-110.4921948876
 10
97.0856547001
 20
-110.4986007372
 10
97.0678972839
 20
-110.502913531
 10
97.0490987247
 20
-110.5050486727
 10
97.0291691306
 20
-110.5049395104
 10
97.0081340587
 20
-110.50265652
  0
LWPOLYLINE
  5
517
100
AcDbEntity
  8
ASSI
100
AcDbPolyline
 62
7
  6
CONTINUOUS
 90
6
 70
0
 10
37.3595217676
 20
7.3319407138
 10
37.2502091973
 20
7.3103644496
 10
37.1448406157
 20
7.2811762844
 10
37.0434160228
 20
7.2443762183
 10
36.9457345307
 20
7.19985252
 10
36.8796922154
 20
7.1641507114
  0
LWPOLYLINE
  5
518
100
AcDbEntity
  8
ASSI
100
AcDbPolyline
 62
7
  6
CONTINUOUS
 90
62
 70
0
 10
116.1831470788
 20
-103.0048176858
 10
116.1471966091
 20
-103.0577203743
 10
116.0901007957
 20
-103.1549690904
 10
116.0381836381
 20
-103.2577481207
 10
115.9914760419
 20
-103.3660904695
 10
115.9499471016
 20
-103.4799631324
 10
115.9138441649
 20
-103.5986878799
 10
115.8831996137
 20
-103.7222936687
 10
115.857981066
 20
-103.8507515421
 10
115.8383387246
 20
-103.9832964006
 10
115.8243058676
 20
-104.1199526347
 10
115.8158492168
 20
-104.2606958538
 10
115.8130191402
 20
-104.4046877865
 10
115.8158492168
 20
-104.5519478206
 10
115.8243058676
 20
-104.7024565681
 10
115.8383387246
 20
-104.8553175938
 10
115.857981066
 20
-105.0105449358
 10
115.8831996137
 20
-105.1681245558
 10
115.9138441649
 20
-105.3271179043
 10
115.9499471016
 20
-105.4875334182
 10
115.9914760419
 20
-105.6493626604
 10
116.0381836381
 20
-105.8116417704
 10
116.0901007957
 20
-105.9743734329
 10
116.1471966091
 20
-106.1375549633
 10
116.2091310137
 20
-106.3002144464
 10
116.2759328857
 20
-106.462348767
 10
116.3475733488
 20
-106.6239610404
 10
116.4236257099
 20
-106.7840886983
 10
116.5041162989
 20
-106.9427228808
 10
116.5890187859
 20
-107.0998724477
 10
116.6778274888
 20
-107.2546014109
 10
116.7705657194
 20
-107.4068953244
 10
116.8672101659
 20
-107.5567686341
 10
116.9671852106
 20
-107.7033286893
 10
117.07051073
 20
-107.8465557169
 10
117.1771668477
 20
-107.9864694901
 10
117.286518316
 20
-108.1222366775
 10
117.3985812205
 20
-108.2538325327
 10
117.5133394755
 20
-108.3812818021
 10
117.630109577
 20
-108.5038253935
 10
117.7489035314
 20
-108.6214340302
 10
117.8697093322
 20
-108.7341369888
 10
117.9918074559
 20
-108.8412630066
 10
118.1152056149
 20
-108.9427788009
 10
118.2398960968
 20
-109.0387176544
 10
118.3651362406
 20
-109.1285081518
 10
118.4909293268
 20
-109.2121136006
 10
118.6172720749
 20
-109.2895706933
 10
118.7434119832
 20
-109.3604180929
 10
118.8693478412
 20
-109.4246163533
 10
118.9950808593
 20
-109.4822049206
 10
119.1198621673
 20
-109.5328407952
 10
119.2436860856
 20
-109.5764824842
 10
119.3665582937
 20
-109.6131714805
 10
119.4877469606
 20
-109.6426892632
 10
119.6072420391
 20
-109.6649930352
 10
119.7250535763
 20
-109.6801255936
 10
119.8404798826
 20
-109.6879968083
 10
119.9535067233
 20
-109.6885633445
 10
120.064148333
 20
-109.6818685369
 10
120.1717457266
 20
-109.6679522602
 10
120.2352487547
 20
-109.6550853015
  0
LINE
  5
519
100
AcDbEntity
  8
ASSI
100
AcDbLine
 62
7
  6
CONTINUOUS
 10
121.1163199991
 20
-106.8545128936
 11
122.1769801709
 21
-106.2421010037
  0
LWPOLYLINE
  5
51A
100
AcDbEntity
  8
ASSI
100
AcDbPolyline
 62
7
  6
CONTINUOUS
 90
42
 70
0
 10
103.5371585449
 20
-114.0050522821
 10
103.5593726737
 20
-113.992956732
 10
103.6053993904
 20
-113.9722116784
 10
103.6537511434
 20
-113.9560084941
 10
103.7044046205
 20
-113.9443016394
 10
103.756848521
 20
-113.9372092844
 10
103.8111009787
 20
-113.9347781655
 10
103.8671438599
 20
-113.9369615462
 10
103.9244114629
 20
-113.9437373874
 10
103.9829161919
 20
-113.9551522022
 10
104.0426456426
 20
-113.9711594775
 10
104.1029969009
 20
-113.9915976344
 10
104.1639762646
 20
-114.0165115496
 10
104.2255774357
 20
-114.0458563464
 10
104.2871786069
 20
-114.0793358159
 10
104.3487797781
 20
-114.1169918348
 10
104.4103809492
 20
-114.1587825263
 10
104.4713603128
 20
-114.2042860517
 10
104.5317115711
 20
-114.2535400152
 10
104.5914410219
 20
-114.3065068125
 10
104.6499457509
 20
-114.3626517922
 10
104.7072133539
 20
-114.4220071435
 10
104.7632562351
 20
-114.4845406772
 10
104.8175086928
 20
-114.5496211744
 10
104.8699525933
 20
-114.6172744312
 10
104.9206060704
 20
-114.6874746515
 10
104.9689578234
 20
-114.7595132282
 10
105.0149845401
 20
-114.8334087806
 10
105.0587095328
 20
-114.9091426893
 10
105.0996914375
 20
-114.9859504899
 10
105.1379024719
 20
-115.0638430588
 10
105.1733704184
 20
-115.1428095196
 10
105.2057372604
 20
-115.2220527778
 10
105.2349715896
 20
-115.301575637
 10
105.2611048142
 20
-115.3813752937
 10
105.2838731435
 20
-115.4606462434
 10
105.303242497
 20
-115.539383131
 10
105.3192469551
 20
-115.6175913116
 10
105.3317249674
 20
-115.6944813449
 10
105.3406226836
 20
-115.7697900842
 10
105.3459939541
 20
-115.8437806763
 10
105.3478387787
 20
-115.9164531211
  0
LWPOLYLINE
  5
51B
100
AcDbEntity
  8
ASSI
100
AcDbPolyline
 62
7
  6
CONTINUOUS
 90
42
 70
0
 10
105.0371986689
 20
-116.60303018
 10
105.0149845401
 20
-116.6151257302
 10
104.9689578234
 20
-116.6358707838
 10
104.9206060704
 20
-116.6520739681
 10
104.8699525933
 20
-116.6637808228
 10
104.8175086928
 20
-116.6708731778
 10
104.7632562351
 20
-116.6733042967
 10
104.7072133539
 20
-116.671120916
 10
104.6499457509
 20
-116.6643450748
 10
104.5914410219
 20
-116.6529302599
 10
104.5317115711
 20
-116.6369229847
 10
104.4713603128
 20
-116.6164848278
 10
104.4103809492
 20
-116.5915709126
 10
104.3487797781
 20
-116.5622261158
 10
104.2871786069
 20
-116.5287466463
 10
104.2255774357
 20
-116.4910906274
 10
104.1639762646
 20
-116.4492999358
 10
104.1029969009
 20
-116.4037964104
 10
104.0426456426
 20
-116.354542447
 10
103.9829161919
 20
-116.3015756497
 10
103.9244114629
 20
-116.24543067
 10
103.8671438599
 20
-116.1860753187
 10
103.8111009787
 20
-116.123541785
 10
103.756848521
 20
-116.0584612878
 10
103.7044046205
 20
-115.990808031
 10
103.6537511434
 20
-115.9206078107
 10
103.6053993904
 20
-115.8485692339
 10
103.5593726737
 20
-115.7746736816
 10
103.515647681
 20
-115.6989397728
 10
103.4746657763
 20
-115.6221319723
 10
103.4364547419
 20
-115.5442394033
 10
103.4009867954
 20
-115.4652729426
 10
103.3686199533
 20
-115.3860296844
 10
103.3393856242
 20
-115.3065068252
 10
103.3132523995
 20
-115.2267071684
 10
103.2904840703
 20
-115.1474362188
 10
103.2711147168
 20
-115.0686993311
 10
103.2551102587
 20
-114.9904911506
 10
103.2426322464
 20
-114.9136011173
 10
103.2337345301
 20
-114.838292378
 10
103.2283632597
 20
-114.7643017859
 10
103.2265184351
 20
-114.6916293411
  0
LWPOLYLINE
  5
51C
100
AcDbEntity
  8
ASSI
100
AcDbPolyline
 62
7
  6
CONTINUOUS
 90
6
 70
0
 10
119.5809060002
 20
-110.1141982204
 10
119.5996479958
 20
-110.1031760606
 10
119.6859830612
 20
-110.0468178723
 10
119.7679505507
 20
-109.9838012828
 10
119.8457301836
 20
-109.9140278165
 10
119.9193219599
 20
-109.8374974733
  0
LINE
  5
51D
100
AcDbEntity
  8
ASSI
100
AcDbLine
 62
7
  6
CONTINUOUS
 10
119.9193219599
 20
-109.8374974733
 11
120.9799821317
 21
-109.2250855833
  0
LINE
  5
51E
100
AcDbEntity
  8
ASSI
100
AcDbLine
 62
7
  6
CONTINUOUS
 10
121.1163199991
 20
-110.5286291392
 11
122.1769801709
 21
-109.9162172492
  0
LWPOLYLINE
  5
51F
100
AcDbEntity
  8
RACCORDO
100
AcDbPolyline
 62
7
  6
CONTINUOUS
 90
24
 70
0
 10
119.0454799292
 20
-133.2724368951
 10
119.1318110818
 20
-133.2208453788
 10
119.3000796423
 20
-133.1096708925
 10
119.4619278416
 20
-132.9881143548
 10
119.6173790421
 20
-132.8562135438
 10
119.7658662154
 20
-132.7144495847
 10
119.9073639285
 20
-132.5627864565
 10
120.0418976145
 20
-132.4012601803
 10
120.1689765442
 20
-132.230459944
 10
120.2885734925
 20
-132.0503518783
 10
120.4007156847
 20
-131.8609698526
 10
120.5049940675
 20
-131.6630046622
 10
120.6013799218
 20
-131.4564249607
 10
120.6899019668
 20
-131.2412620946
 10
120.7702373069
 20
-131.0183008981
 10
120.8423560437
 20
-130.7875128913
 10
120.9062880755
 20
-130.5489265541
 10
120.9618002021
 20
-130.3034121611
 10
121.0088616733
 20
-130.0509444106
 10
121.0475032392
 20
-129.7915486042
 10
121.0775839498
 20
-129.5261709218
 10
121.0990568216
 20
-129.2551267566
 10
121.1119688381
 20
-128.9781007152
 10
121.1163199991
 20
-128.6950927979
  0
LINE
  5
520
100
AcDbEntity
  8
RACCORDO
100
AcDbLine
 62
253
  6
CONTINUOUS
 10
122.1769801709
 20
-128.0826809079
 11
121.1163199991
 21
-128.6950927979
  0
LINE
  5
521
100
AcDbEntity
  8
RACCORDO
100
AcDbLine
 62
7
  6
CONTINUOUS
 10
120.1061539604
 20
-132.6600495193
 11
119.0454937887
 21
-133.2724614093
  0
ENDSEC
  0
SECTION
  2
OBJECTS
  0
DICTIONARY
  5
C
100
AcDbDictionary
280
0
281
1
  3
ACAD_GROUP
350
D
  3
ACAD_MLINESTYLE
350
17
  3
ACAD_LAYOUT
350
1A
  3
ACAD_PLOTSETTINGS
350
19
  3
ACAD_PLOTSTYLENAME
350
E
  0
DICTIONARY
  5
D
102
{ACAD_REACTORS
330
C
102
}
100
AcDbDictionary
280
0
281
1
  0
ACDBDICTIONARYWDFLT
  5
E
102
{ACAD_REACTORS
330
C
102
}
100
AcDbDictionary
281
1
  3
Normal
350
F
100
AcDbDictionaryWithDefault
340
F
  0
DICTIONARY
  5
17
102
{ACAD_REACTORS
330
C
102
}
100
AcDbDictionary
280
0
281
1
  3
Standard
350
18
  0
DICTIONARY
  5
19
102
{ACAD_REACTORS
330
C
102
}
100
AcDbDictionary
281
1
  0
DICTIONARY
  5
1A
102
{ACAD_REACTORS
330
C
102
}
100
AcDbDictionary
281
1
  3
Model
350
522
  3
Layout1
350
523
  0
ACDBPLACEHOLDER
  5
F
102
{ACAD_REACTORS
330
E
102
}
  0
MLINESTYLE
  5
18
102
{ACAD_REACTORS
330
17
102
}
100
AcDbMlineStyle
  2
STANDARD
 70
0
  3

 62
256
 51
90.0
 52
90.0
 71
2
 49
0.5
 62
256
  6
BYLAYER
 49
-0.5
 62
256
  6
BYLAYER
  0
LAYOUT
  5
522
102
{ACAD_REACTORS
330
1A
102
}
100
AcDbPlotSettings
  1

  2
none_device
  4
ISO_A4_(297.00_x_210.00_MM)
  6

 40
0.0
 41
0.0
 42
0.0
 43
0.0
 44
297.0
 45
210.0
 46
0.0
 47
0.0
 48
0.0
 49
0.0
140
0.0
141
0.0
142
1.0
143
1.0
 70
1024
 72
1
 73
0
 74
0
  7

 75
0
147
1.0
148
0.0
149
0.0
100
AcDbLayout
  1
Model
 70
0
 71
0
 10
0.0
 20
0.0
 11
297.0
 21
210.0
 12
0.0
 22
0.0
 32
0.0
 14
0.0
 24
0.0
 34
0.0
 15
0.0
 25
0.0
 35
0.0
146
0.0
 13
0.0
 23
0.0
 33
0.0
 16
1.0
 26
0.0
 36
0.0
 17
0.0
 27
1.0
 37
0.0
 76
0
330
20F
345
0
346
0
  0
LAYOUT
  5
523
102
{ACAD_REACTORS
330
1A
102
}
100
AcDbPlotSettings
  1

  2
none_device
  4
ISO_A4_(297.00_x_210.00_MM)
  6

 40
0.0
 41
0.0
 42
0.0
 43
0.0
 44
297.0
 45
210.0
 46
0.0
 47
0.0
 48
0.0
 49
0.0
140
0.0
141
0.0
142
1.0
143
1.0
 70
0
 72
1
 73
0
 74
0
  7

 75
0
147
1.0
148
0.0
149
0.0
100
AcDbLayout
  1
Layout1
 70
0
 71
1
 10
0.0
 20
0.0
 11
297.0
 21
210.0
 12
0.0
 22
0.0
 32
0.0
 14
0.0
 24
0.0
 34
0.0
 15
0.0
 25
0.0
 35
0.0
146
0.0
 13
0.0
 23
0.0
 33
0.0
 16
1.0
 26
0.0
 36
0.0
 17
0.0
 27
1.0
 37
0.0
 76
0
330
210
345
0
346
0
  0
ENDSEC
  0
EOF
