  0
SECTION
  2
HEADER
  9
$ACADVER
  1
AC1024
  9
$DWGCODEPAGE
  3
ANSI_1252
  9
$EXTMAX
 10
420.0
 20
297.0
 30
0.0
  9
$EXTMIN
 10
0.0
 20
-0.0
 30
0.0
  9
$LIMMIN
 10
0.0
 20
-0.0
  9
$LIMMAX
 10
420.0
 20
297.0
  9
$VIEWCTR
 10
210.0
 20
148.5
  9
$VIEWSIZE
 40
297.0
  9
$CLAYER
  8
0
  9
$LTSCALE
 40
23.1
  9
$CELTYPE
  6
BYLAYER
  9
$DIMSCALE
 40
1.0
  9
$DIMASZ
 40
3.0
  9
$DIMEXO
 40
0.5
  9
$DIMDLI
 40
15.96
  9
$DIMEXE
 40
1.5
  9
$DIMCEN
 40
3.78
  9
$DIMLFAC
 40
1.0
  9
$DIMBLK
  1
_FILLED
  9
$DIMALT
 70
0
  9
$DIMALTF
 40
0.0393700787
  9
$DIMTXT
 40
3.0
  9
$DIMTOL
 70
1
  9
$DIMLIM
 70
0
  9
$DIMTFAC
 40
1.0
  9
$DIMTP
 40
0.01
  9
$DIMTM
 40
0.01
  9
$DIMGAP
 40
0.625
  9
$DIMDSEP
 70
44
  9
$AUNITS
 70
0
  9
$PDMODE
 70
3
  9
$PDSIZE
 40
3.0
  9
$HANDSEED
  5
3F8
  9
$TILEMODE
 70
1
  9
$MEASUREMENT
 70
1
  9
$INSUNITS
 70
4
  0
ENDSEC
  0
SECTION
  2
CLASSES
  0
CLASS
  1
ACDBDICTIONARYWDFLT
  2
AcDbDictionaryWithDefault
  3
AutoCAD 2000
 90
0
 91
1
280
0
281
0
  0
CLASS
  1
ACDBPLACEHOLDER
  2
AcDbPlaceHolder
  3
AutoCAD 2000
 90
0
 91
1
280
0
281
0
  0
CLASS
  1
LAYOUT
  2
AcDbLayout
  3
AutoCAD 2000
 90
0
 91
0
280
0
281
0
  0
ENDSEC
  0
SECTION
  2
TABLES
  0
TABLE
  2
VPORT
  5
8
100
AcDbSymbolTable
 70
2
  0
VPORT
  5
1F4
100
AcDbSymbolTableRecord
100
AcDbViewportTableRecord
  2
*ACTIVE
 70
0
 10
0.0
 20
0.0
 11
1.0
 21
1.0
 12
210.0
 22
148.5
 13
0.0
 23
0.0
 14
1.0
 24
1.0
 15
0.0
 25
0.0
 16
0.0
 26
0.0
 36
1.0
 17
0.0
 27
0.0
 37
0.0
 40
297.0
 41
1.4141414141
 42
50.0
 43
0.0
 44
0.0
 50
0.0
 51
0.0
 71
0
 72
100
 73
1
 74
1
 75
0
 76
0
 77
0
 78
0
  0
ENDTAB
  0
TABLE
  2
LTYPE
  5
5
100
AcDbSymbolTable
 70
6
  0
LTYPE
  5
14
100
AcDbSymbolTableRecord
100
AcDbLinetypeTableRecord
  2
BYBLOCK
 70
0
  3

 72
65
 73
0
 40
0.0
  0
LTYPE
  5
15
100
AcDbSymbolTableRecord
100
AcDbLinetypeTableRecord
  2
BYLAYER
 70
0
  3

 72
65
 73
0
 40
0.0
  0
LTYPE
  5
16
100
AcDbSymbolTableRecord
100
AcDbLinetypeTableRecord
  2
CONTINUOUS
 70
64
  3
Solid line
 72
65
 73
0
 40
0.0
  0
LTYPE
  5
1F5
100
AcDbSymbolTableRecord
100
AcDbLinetypeTableRecord
  2
CENTER
 70
64
  3
____ _ ____ _ ____ _ ____ _ ____ _ ____ _ ____
 72
65
 73
4
 40
0.6
 49
0.375
 74
0
 49
-0.075
 74
0
 49
0.075
 74
0
 49
-0.075
 74
0
  0
LTYPE
  5
1F6
100
AcDbSymbolTableRecord
100
AcDbLinetypeTableRecord
  2
HIDDEN
 70
64
  3
- - - - - - - - - - - - - - - - - - - -
 72
65
 73
2
 40
0.2
 49
0.1
 74
0
 49
-0.1
 74
0
  0
LTYPE
  5
1F7
100
AcDbSymbolTableRecord
100
AcDbLinetypeTableRecord
  2
PHANTOM
 70
64
  3
_____ _ _ _____ _ _ _____ _ _ _____
 72
65
 73
6
 40
0.8
 49
0.45
 74
0
 49
-0.05
 74
0
 49
0.1
 74
0
 49
-0.05
 74
0
 49
0.1
 74
0
 49
-0.05
 74
0
  0
LTYPE
  5
1F8
100
AcDbSymbolTableRecord
100
AcDbLinetypeTableRecord
  2
DOT
 70
64
  3
. . . . . . . . . . . . . . . . . . . .
 72
65
 73
2
 40
0.2
 49
0.1
 74
0
 49
-0.1
 74
0
  0
LTYPE
  5
1F9
100
AcDbSymbolTableRecord
100
AcDbLinetypeTableRecord
  2
DASHED
 70
64
  3
- - - - - - - - - - - - - - - - - - - -
 72
65
 73
2
 40
0.2
 49
0.1
 74
0
 49
-0.1
 74
0
  0
ENDTAB
  0
TABLE
  2
LAYER
  5
2
100
AcDbSymbolTable
 70
36
  0
LAYER
  5
10
100
AcDbSymbolTableRecord
100
AcDbLayerTableRecord
  2
0
 70
0
 62
7
  6
CONTINUOUS
370
-3
390
F
  0
LAYER
  5
1FA
100
AcDbSymbolTableRecord
100
AcDbLayerTableRecord
  2
DEFAULT_1
 70
0
 62
7
  6
CENTER
370
-3
390
F
  0
LAYER
  5
1FB
100
AcDbSymbolTableRecord
100
AcDbLayerTableRecord
  2
DEFAULT_2
 70
0
 62
7
  6
HIDDEN
370
-3
390
F
  0
LAYER
  5
1FC
100
AcDbSymbolTableRecord
100
AcDbLayerTableRecord
  2
DEFAULT_3
 70
0
 62
7
  6
PHANTOM
370
-3
390
F
  0
LAYER
  5
1FD
100
AcDbSymbolTableRecord
100
AcDbLayerTableRecord
  2
ASSI
 70
0
 62
7
  6
CONTINUOUS
370
-3
390
F
  0
LAYER
  5
1FE
100
AcDbSymbolTableRecord
100
AcDbLayerTableRecord
  2
COLOR5
 70
0
 62
7
  6
CONTINUOUS
370
-3
390
F
  0
LAYER
  5
1FF
100
AcDbSymbolTableRecord
100
AcDbLayerTableRecord
  2
COORDINATE
 70
0
 62
7
  6
CONTINUOUS
370
-3
390
F
  0
LAYER
  5
200
100
AcDbSymbolTableRecord
100
AcDbLayerTableRecord
  2
COORD_ORIGINE
 70
0
 62
7
  6
CONTINUOUS
370
-3
390
F
  0
LAYER
  5
201
100
AcDbSymbolTableRecord
100
AcDbLayerTableRecord
  2
COSMETICHE
 70
0
 62
7
  6
CONTINUOUS
370
-3
390
F
  0
LAYER
  5
202
100
AcDbSymbolTableRecord
100
AcDbLayerTableRecord
  2
CURVE
 70
0
 62
7
  6
CONTINUOUS
370
-3
390
F
  0
LAYER
  5
203
100
AcDbSymbolTableRecord
100
AcDbLayerTableRecord
  2
DRAFT
 70
0
 62
7
  6
CONTINUOUS
370
-3
390
F
  0
LAYER
  5
204
100
AcDbSymbolTableRecord
100
AcDbLayerTableRecord
  2
IMPORT_FEATURES
 70
0
 62
7
  6
CONTINUOUS
370
-3
390
F
  0
LAYER
  5
205
100
AcDbSymbolTableRecord
100
AcDbLayerTableRecord
  2
INTF_1
 70
0
 62
7
  6
CONTINUOUS
370
-3
390
F
  0
LAYER
  5
206
100
AcDbSymbolTableRecord
100
AcDbLayerTableRecord
  2
INTF_2
 70
0
 62
7
  6
CONTINUOUS
370
-3
390
F
  0
LAYER
  5
207
100
AcDbSymbolTableRecord
100
AcDbLayerTableRecord
  2
INTF_3
 70
0
 62
7
  6
CONTINUOUS
370
-3
390
F
  0
LAYER
  5
208
100
AcDbSymbolTableRecord
100
AcDbLayerTableRecord
  2
NOTE
 70
0
 62
7
  6
CONTINUOUS
370
-3
390
F
  0
LAYER
  5
209
100
AcDbSymbolTableRecord
100
AcDbLayerTableRecord
  2
PIANI
 70
0
 62
7
  6
CONTINUOUS
370
-3
390
F
  0
LAYER
  5
20A
100
AcDbSymbolTableRecord
100
AcDbLayerTableRecord
  2
PIANI_ORIGINE
 70
0
 62
7
  6
CONTINUOUS
370
-3
390
F
  0
LAYER
  5
20B
100
AcDbSymbolTableRecord
100
AcDbLayerTableRecord
  2
PUNTI
 70
0
 62
7
  6
CONTINUOUS
370
-3
390
F
  0
LAYER
  5
20C
100
AcDbSymbolTableRecord
100
AcDbLayerTableRecord
  2
RACCORDO
 70
0
 62
7
  6
CONTINUOUS
370
-3
390
F
  0
LAYER
  5
20D
100
AcDbSymbolTableRecord
100
AcDbLayerTableRecord
  2
RGB____0____0____0__
 70
0
 62
7
  6
CONTINUOUS
370
-3
390
F
  0
LAYER
  5
20E
100
AcDbSymbolTableRecord
100
AcDbLayerTableRecord
  2
SMUSSO
 70
0
 62
7
  6
CONTINUOUS
370
-3
390
F
  0
LAYER
  5
20F
100
AcDbSymbolTableRecord
100
AcDbLayerTableRecord
  2
SUPERFICI
 70
0
 62
7
  6
CONTINUOUS
370
-3
390
F
  0
LAYER
  5
210
100
AcDbSymbolTableRecord
100
AcDbLayerTableRecord
  2
TRASH
 70
0
 62
7
  6
CONTINUOUS
370
-3
390
F
  0
LAYER
  5
211
100
AcDbSymbolTableRecord
100
AcDbLayerTableRecord
  2
XSEC_DATUMS
 70
0
 62
7
  6
CONTINUOUS
370
-3
390
F
  0
ENDTAB
  0
TABLE
  2
STYLE
  5
3
100
AcDbSymbolTable
 70
1
  0
STYLE
  5
11
100
AcDbSymbolTableRecord
100
AcDbTextStyleTableRecord
  2
STANDARD
 70
0
 40
0.0
 41
0.8
 50
0.0
 71
0
 42
0.2
  3
txt
  4

  0
STYLE
  5
212
100
AcDbSymbolTableRecord
100
AcDbTextStyleTableRecord
  2
TEXTSTYLE_1
 70
0
 40
0.0
 41
0.8
 50
0.0
 71
0
 42
0.2
  3
gdt
  4

  0
ENDTAB
  0
TABLE
  2
VIEW
  5
6
100
AcDbSymbolTable
 70
0
  0
ENDTAB
  0
TABLE
  2
UCS
  5
7
100
AcDbSymbolTable
 70
0
  0
ENDTAB
  0
TABLE
  2
APPID
  5
9
100
AcDbSymbolTable
 70
1
  0
APPID
  5
213
100
AcDbSymbolTableRecord
100
AcDbRegAppTableRecord
  2
ACAD
 70
0
  0
ENDTAB
  0
TABLE
  2
BLOCK_RECORD
  5
1
100
AcDbSymbolTable
 70
0
  0
BLOCK_RECORD
  5
214
100
AcDbSymbolTableRecord
100
AcDbBlockTableRecord
  2
*Model_Space
  0
BLOCK_RECORD
  5
215
100
AcDbSymbolTableRecord
100
AcDbBlockTableRecord
  2
*Paper_Space
  0
BLOCK_RECORD
  5
216
100
AcDbSymbolTableRecord
100
AcDbBlockTableRecord
  2
_FILLED
  0
ENDTAB
  0
TABLE
  2
DIMSTYLE
  5
A
100
AcDbSymbolTable
 70
1
100
AcDbDimStyleTable
 71
0
  0
DIMSTYLE
105
217
100
AcDbSymbolTableRecord
100
AcDbDimStyleTableRecord
  2
STANDARD
 70
0
  3

  4

 40
1.0
 41
3.0
 42
0.5
 43
0.38
 44
1.5
 45
0.0
 46
0.0
 47
0.01
 48
0.01
140
3.0
141
0.09
142
0.0
143
25.4
144
1.0
145
0.0
146
1.0
147
0.625
 71
1.0
 72
0.0
 73
0
 74
0
 75
0
 76
0
 77
1
 78
8
 79
2
170
0
171
1
172
0
173
0
174
0
175
0
176
0
177
0
178
0
270
2
179
2
271
2
272
2
273
2
274
2
275
0
280
0
281
0
282
0
283
1
284
8
285
0
286
0
287
3
288
0
340
11
278
44
341
216
342
216
343
216
344
216
  0
ENDTAB
  0
ENDSEC
  0
SECTION
  2
BLOCKS
  0
BLOCK
  5
20
100
AcDbEntity
  8
0
100
AcDbBlockBegin
  2
*Model_Space
 70
0
 10
0.0
 20
0.0
 30
0.0
  3
*Model_Space
  1

  0
ENDBLK
  5
21
100
AcDbEntity
  8
0
100
AcDbBlockEnd
  0
BLOCK
  5
1C
100
AcDbEntity
  8
0
100
AcDbBlockBegin
  2
*Paper_Space
 70
0
 10
0.0
 20
0.0
 30
0.0
  3
*Paper_Space
  1

  0
ENDBLK
  5
1D
100
AcDbEntity
  8
0
100
AcDbBlockEnd
  0
BLOCK
  5
218
100
AcDbEntity
  8
0
100
AcDbBlockBegin
  2
_FILLED
 70
64
 10
0.0
 20
0.0
  3
_FILLED
  1

  0
SOLID
  5
219
100
AcDbEntity
  8
0
  6
BYBLOCK
 62
0
100
AcDbTrace
 10
0.0
 20
0.0
 11
-1.0
 21
0.3166666667
 12
-1.0
 22
-0.3166666667
 13
-1.0
 23
-0.3166666667
  0
ENDBLK
  5
21A
100
AcDbEntity
  8
0
  6
BYBLOCK
 62
0
100
AcDbBlockEnd
  0
ENDSEC
  0
SECTION
  2
ENTITIES
  0
LWPOLYLINE
  5
21B
100
AcDbEntity
  8
0
100
AcDbPolyline
 62
7
  6
CONTINUOUS
 90
8
 70
0
 10
-2.4708505925
 20
-30.319641477
 10
-2.4565592561
 20
-30.3175154722
 10
-2.4327688871
 20
-30.3156813075
 10
-2.3995376342
 20
-30.3141201425
 10
-2.356981857
 20
-30.3128508176
 10
-2.3053038848
 20
-30.3119298542
 10
-2.2446798526
 20
-30.3113859239
 10
-2.1753927345
 20
-30.311190355
  0
LINE
  5
21C
100
AcDbEntity
  8
0
100
AcDbLine
 62
7
  6
CONTINUOUS
 10
-0.2256140159
 20
-30.3365008325
 11
1.02481282
 21
-30.318095769
  0
LINE
  5
21D
100
AcDbEntity
  8
0
100
AcDbLine
 62
7
  6
CONTINUOUS
 10
1.02481282
 20
-30.318095769
 11
1.3636364264
 21
-30.3136375556
  0
LINE
  5
21E
100
AcDbEntity
  8
0
100
AcDbLine
 62
7
  6
CONTINUOUS
 10
1.3636364264
 20
-30.3136375556
 11
1.5572020172
 21
-30.3118039905
  0
LWPOLYLINE
  5
21F
100
AcDbEntity
  8
0
100
AcDbPolyline
 62
7
  6
CONTINUOUS
 90
10
 70
0
 10
1.5572020172
 20
-30.3118039905
 10
1.721247234
 20
-30.3111897647
 10
1.7911955538
 20
-30.311372967
 10
1.852412836
 20
-30.3119083427
 10
1.9046178875
 20
-30.3128254494
 10
1.9476107226
 20
-30.3140947296
 10
1.9811658117
 20
-30.3156585229
 10
2.005171189
 20
-30.3174976094
 10
2.0195842794
 20
-30.3196312091
 10
2.0243859841
 20
-30.322059322
  0
LINE
  5
220
100
AcDbEntity
  8
0
100
AcDbLine
 62
7
  6
CONTINUOUS
 10
-2.1753927345
 20
-30.311190355
 11
-2.0129320854
 21
-30.3117720252
  0
LINE
  5
221
100
AcDbEntity
  8
0
100
AcDbLine
 62
7
  6
CONTINUOUS
 10
-2.0129320854
 20
-30.3117720252
 11
-1.8211022476
 21
-30.3135672618
  0
LINE
  5
222
100
AcDbEntity
  8
0
100
AcDbLine
 62
7
  6
CONTINUOUS
 10
-1.8211022476
 20
-30.3135672618
 11
-1.4835414556
 21
-30.317987698
  0
LINE
  5
223
100
AcDbEntity
  8
0
100
AcDbLine
 62
7
  6
CONTINUOUS
 10
-1.4835414556
 20
-30.317987698
 11
-0.2256140159
 21
-30.3365008325
  0
LWPOLYLINE
  5
224
100
AcDbEntity
  8
DRAFT
100
AcDbPolyline
 62
7
  6
CONTINUOUS
 90
88
 70
0
 10
-0.2256140159
 20
-22.0157004994
 10
-0.2517608601
 20
-22.0155791691
 10
-0.2786621372
 20
-22.0152014017
 10
-0.3063150999
 20
-22.0145455289
 10
-0.3348168249
 20
-22.0135853835
 10
-0.3640633081
 20
-22.0122999889
 10
-0.3937498941
 20
-22.0106839784
 10
-0.4235659558
 20
-22.0087446824
 10
-0.4538141507
 20
-22.0064527526
 10
-0.4851081733
 20
-22.0037368303
 10
-0.517583414
 20
-22.0005464688
 10
-0.5510891918
 20
-21.9968564406
 10
-0.5858064157
 20
-21.9926046237
 10
-0.6218230616
 20
-21.9877306701
 10
-0.6590272005
 20
-21.9821982492
 10
-0.6972976599
 20
-21.9759765196
 10
-0.7365782253
 20
-21.96902696
 10
-0.7768939809
 20
-21.9612959481
 10
-0.818243885
 20
-21.9527319297
 10
-0.8605743095
 20
-21.9432927009
 10
-0.9038972991
 20
-21.9329206418
 10
-0.9483060602
 20
-21.9215333049
 10
-0.9937649875
 20
-21.9090745295
 10
-1.0402524182
 20
-21.8954828691
 10
-1.0878753636
 20
-21.8806536115
 10
-1.1365964313
 20
-21.8645179301
 10
-1.186374419
 20
-21.8470062409
 10
-1.237300952
 20
-21.8279962339
 10
-1.2893050075
 20
-21.8074167259
 10
-1.3423515941
 20
-21.7851803251
 10
-1.3965723973
 20
-21.7611195588
 10
-1.4518776235
 20
-21.7351504691
 10
-1.5082117058
 20
-21.7071704252
 10
-1.5657360122
 20
-21.6769546266
 10
-1.6243757796
 20
-21.6443788422
 10
-1.6840027795
 20
-21.6093434671
 10
-1.7446709447
 20
-21.5716313899
 10
-1.8062317513
 20
-21.5311320052
 10
-1.8685640971
 20
-21.4877121686
 10
-1.931728625
 20
-21.4410926744
 10
-1.9955206505
 20
-21.3911625147
 10
-2.0597836705
 20
-21.3377678113
 10
-2.1245977342
 20
-21.2805264919
 10
-2.1897841846
 20
-21.2192322114
 10
-2.2550233263
 20
-21.1537980816
 10
-2.3201279013
 20
-21.0839964622
 10
-2.3847385068
 20
-21.009765172
 10
-2.4485986521
 20
-20.9309190273
 10
-2.5116046779
 20
-20.8470278261
 10
-2.5732353065
 20
-20.7581652802
 10
-2.6332135845
 20
-20.6640556947
 10
-2.6916258031
 20
-20.5636780662
 10
-2.7479418323
 20
-20.456813545
 10
-2.8014803366
 20
-20.3434873006
 10
-2.8518526833
 20
-20.2229873652
 10
-2.8982443453
 20
-20.0953840801
 10
-2.9398732396
 20
-19.9606213807
 10
-2.976105141
 20
-19.817801299
 10
-3.0059610517
 20
-19.6666243998
 10
-3.0282163551
 20
-19.5077770868
 10
-3.0417151839
 20
-19.3419548907
 10
-3.0453555165
 20
-19.1692729979
 10
-3.0379860357
 20
-18.9907293063
 10
-3.0187000383
 20
-18.8085341557
 10
-2.9866133782
 20
-18.6231047554
 10
-2.9410130301
 20
-18.4358731237
 10
-2.882157612
 20
-18.2505925041
 10
-2.8094708695
 20
-18.0670549978
 10
-2.7233321718
 20
-17.8875467582
 10
-2.6273841103
 20
-17.7188539468
 10
-2.5239665693
 20
-17.5626457255
 10
-2.4135897421
 20
-17.4175602043
 10
-2.2986207121
 20
-17.2848327752
 10
-2.1814364309
 20
-17.1651089164
 10
-2.0624448471
 20
-17.0569202553
 10
-1.9408752175
 20
-16.9582882573
 10
-1.8177000345
 20
-16.869066719
 10
-1.6935478548
 20
-16.7888403768
 10
-1.5665103072
 20
-16.7158492297
 10
-1.4373035067
 20
-16.6502425591
 10
-1.3061035905
 20
-16.5918592885
 10
-1.1696814283
 20
-16.5393693252
 10
-1.0278697534
 20
-16.4931683019
 10
-0.8813165985
 20
-16.4539292615
 10
-0.7277312394
 20
-16.4216943794
 10
-0.5665348699
 20
-16.3973076209
 10
-0.3989917104
 20
-16.3819473692
 10
-0.2256140159
 20
-16.3765954496
  0
LINE
  5
225
100
AcDbEntity
  8
0
100
AcDbLine
 62
7
  6
CONTINUOUS
 10
2.1523986157
 20
-19.7014603182
 11
-2.6036266476
 21
-19.7014603182
  0
LINE
  5
226
100
AcDbEntity
  8
0
100
AcDbLine
 62
7
  6
CONTINUOUS
 10
2.1523986157
 20
-18.7014603182
 11
-2.6036266476
 21
-18.7014603182
  0
LINE
  5
227
100
AcDbEntity
  8
0
100
AcDbLine
 62
7
  6
CONTINUOUS
 10
-2.6434709174
 20
-16.6638065768
 11
-2.8060943385
 21
-16.6638065768
  0
LINE
  5
228
100
AcDbEntity
  8
0
100
AcDbLine
 62
7
  6
CONTINUOUS
 10
4.2746795563
 20
-16.2622013068
 11
3.2678921675
 21
-16.2622013068
  0
LWPOLYLINE
  5
229
100
AcDbEntity
  8
DRAFT
100
AcDbPolyline
 62
7
  6
CONTINUOUS
 90
88
 70
0
 10
-0.2256140159
 20
-16.3765954496
 10
-0.0535826495
 20
-16.3818646165
 10
0.112675304
 20
-16.3969881848
 10
0.2726592463
 20
-16.4210013665
 10
0.4251396991
 20
-16.4527506538
 10
0.5706752062
 20
-16.4914047088
 10
0.7114869684
 20
-16.5369044176
 10
0.8469384435
 20
-16.5885809365
 10
0.9772018982
 20
-16.646038998
 10
1.1054409944
 20
-16.7105550622
 10
1.2314609508
 20
-16.78225372
 10
1.354606764
 20
-16.8609951301
 10
1.4768541572
 20
-16.9485428528
 10
1.5976137997
 20
-17.0453177414
 10
1.7159269732
 20
-17.1514560308
 10
1.8326036476
 20
-17.2689203733
 10
1.9471427301
 20
-17.3990051065
 10
2.0573647127
 20
-17.5412332221
 10
2.1612832026
 20
-17.6949491533
 10
2.2584499623
 20
-17.8618174089
 10
2.3462720186
 20
-18.0400555044
 10
2.4208983668
 20
-18.2228784643
 10
2.4818799972
 20
-18.4081948252
 10
2.5296358022
 20
-18.5960798096
 10
2.5636909559
 20
-18.7822127494
 10
2.5847472633
 20
-18.9648558993
 10
2.5937697489
 20
-19.1438473743
 10
2.5916586213
 20
-19.3172204715
 10
2.5795206245
 20
-19.4840936324
 10
2.558435759
 20
-19.6441958371
 10
2.5295692986
 20
-19.7966671105
 10
2.4941647594
 20
-19.9407496098
 10
2.4532038352
 20
-20.0767839869
 10
2.4073281271
 20
-20.2056783473
 10
2.3573127228
 20
-20.3275065035
 10
2.303987363
 20
-20.4421576865
 10
2.2477858148
 20
-20.5502728202
 10
2.1894009005
 20
-20.6518264681
 10
2.1293781661
 20
-20.7470327626
 10
2.0676965205
 20
-20.8368466525
 10
2.0046968418
 20
-20.9214921029
 10
1.9408752319
 20
-21.0009631222
 10
1.876259999
 20
-21.0758004154
 10
1.811078515
 20
-21.1462214922
 10
1.7457226611
 20
-21.2122513384
 10
1.6803849215
 20
-21.2741151231
 10
1.6153806097
 20
-21.331905158
 10
1.5508981651
 20
-21.3858211309
 10
1.4868855231
 20
-21.4362270882
 10
1.4235198448
 20
-21.4832671047
 10
1.3609933661
 20
-21.5270672193
 10
1.2992233213
 20
-21.567925968
 10
1.2383213676
 20
-21.6059835459
 10
1.1784483152
 20
-21.6413435734
 10
1.1195592867
 20
-21.6742199606
 10
1.0617826935
 20
-21.7047139728
 10
1.0051961952
 20
-21.7329501198
 10
0.9496519369
 20
-21.7591491885
 10
0.8952155739
 20
-21.7834119038
 10
0.8419698955
 20
-21.8058279714
 10
0.7897707987
 20
-21.8265721376
 10
0.7386500424
 20
-21.845734097
 10
0.6886833184
 20
-21.8633842021
 10
0.6397778876
 20
-21.8796463197
 10
0.5919745449
 20
-21.8945910003
 10
0.5453121339
 20
-21.9082874193
 10
0.4996851883
 20
-21.9208408042
 10
0.4551177439
 20
-21.9323128017
 10
0.4116438405
 20
-21.9427607784
 10
0.3691657842
 20
-21.9522689638
 10
0.3276713599
 20
-21.960895481
 10
0.2872148385
 20
-21.9686827981
 10
0.2477938649
 20
-21.9756834748
 10
0.2093820163
 20
-21.9819516156
 10
0.1720371492
 20
-21.9875256632
 10
0.1358814698
 20
-21.9924365167
 10
0.101024905
 20
-21.9967209895
 10
0.0673817311
 20
-22.0004394524
 10
0.0347784663
 20
-22.0036536779
 10
0.0033711386
 20
-22.006388913
 10
-0.0269807691
 20
-22.0086966604
 10
-0.0568992673
 20
-22.0106493463
 10
-0.0866906389
 20
-22.0122766474
 10
-0.1160405513
 20
-22.0135709962
 10
-0.144641698
 20
-22.0145377511
 10
-0.1723891638
 20
-22.0151980705
 10
-0.1993808618
 20
-22.0155783667
 10
-0.2256140159
 20
-22.0157004994
  0
LWPOLYLINE
  5
22A
100
AcDbEntity
  8
0
100
AcDbPolyline
 62
7
  6
CONTINUOUS
 90
7
 70
0
 10
1.4084497221
 20
-13.7566380972
 10
1.4002511212
 20
-13.7575290967
 10
1.3920355001
 20
-13.7582581938
 10
1.3838076664
 20
-13.7588253446
 10
1.3755724201
 20
-13.7592305057
 10
1.3673345535
 20
-13.7594736339
 10
1.3590988519
 20
-13.7595546861
  0
LINE
  5
22B
100
AcDbEntity
  8
0
100
AcDbLine
 62
7
  6
CONTINUOUS
 10
-1.3484286936
 20
-15.2839098017
 11
-1.7724201064
 21
-15.3202676771
  0
LINE
  5
22C
100
AcDbEntity
  8
0
100
AcDbLine
 62
7
  6
CONTINUOUS
 10
0.6770716006
 20
-15.1102182824
 11
-1.1669831168
 21
-15.2683450134
  0
LINE
  5
22D
100
AcDbEntity
  8
0
100
AcDbLine
 62
7
  6
CONTINUOUS
 10
1.4861061334
 20
-15.0408329672
 11
0.829822608
 21
-15.0971185941
  0
LINE
  5
22E
100
AcDbEntity
  8
0
100
AcDbLine
 62
7
  6
CONTINUOUS
 10
0.6956620138
 20
-14.9658540021
 11
1.4086132775
 21
-14.9047206766
  0
LINE
  5
22F
100
AcDbEntity
  8
0
100
AcDbLine
 62
7
  6
CONTINUOUS
 10
-1.7665303756
 20
-15.1769834249
 11
-1.1825814437
 21
-15.1269089293
  0
LINE
  5
230
100
AcDbEntity
  8
0
100
AcDbLine
 62
7
  6
CONTINUOUS
 10
-1.0008389553
 20
-15.1113202732
 11
0.5430307137
 21
-14.9789303366
  0
LINE
  5
231
100
AcDbEntity
  8
0
100
AcDbLine
 62
7
  6
CONTINUOUS
 10
-1.7723956934
 20
-15.4916359101
 11
-1.9150994656
 21
-15.4916359101
  0
LINE
  5
232
100
AcDbEntity
  8
0
100
AcDbLine
 62
7
  6
CONTINUOUS
 10
-1.915175129
 20
-15.0471285052
 11
-2.0450237452
 21
-15.0471285052
  0
LINE
  5
233
100
AcDbEntity
  8
0
100
AcDbLine
 62
7
  6
CONTINUOUS
 10
-2.2014747188
 20
-15.0471169286
 11
-2.2957896544
 21
-15.0471169286
  0
LINE
  5
234
100
AcDbEntity
  8
0
100
AcDbLine
 62
7
  6
CONTINUOUS
 10
1.7660254643
 20
-14.9777084783
 11
1.5507685592
 21
-14.9777084783
  0
LINE
  5
235
100
AcDbEntity
  8
0
100
AcDbLine
 62
7
  6
CONTINUOUS
 10
-2.132250026
 20
-14.8040408358
 11
-1.9151974201
 21
-14.8040408358
  0
LINE
  5
236
100
AcDbEntity
  8
0
100
AcDbLine
 62
7
  6
CONTINUOUS
 10
-2.2958242829
 20
-14.8040408358
 11
-2.2812329441
 21
-14.8040408358
  0
LINE
  5
237
100
AcDbEntity
  8
0
100
AcDbLine
 62
7
  6
CONTINUOUS
 10
1.5512782807
 20
-14.7141004963
 11
1.7659879108
 21
-14.7141004963
  0
LINE
  5
238
100
AcDbEntity
  8
0
100
AcDbLine
 62
7
  6
CONTINUOUS
 10
-0.7737135966
 20
-14.4425152896
 11
-1.0591211399
 21
-14.4425152896
  0
LINE
  5
239
100
AcDbEntity
  8
0
100
AcDbLine
 62
7
  6
CONTINUOUS
 10
-2.0401064913
 20
-14.4187819352
 11
-2.1883040626
 21
-14.4187819352
  0
LINE
  5
23A
100
AcDbEntity
  8
0
100
AcDbLine
 62
7
  6
CONTINUOUS
 10
-2.3344214082
 20
-14.4187819352
 11
-2.3909315445
 21
-14.4187819352
  0
LINE
  5
23B
100
AcDbEntity
  8
0
100
AcDbLine
 62
7
  6
CONTINUOUS
 10
-2.2482608798
 20
-14.2765526232
 11
-2.1828309845
 21
-14.2765526232
  0
LINE
  5
23C
100
AcDbEntity
  8
0
100
AcDbLine
 62
7
  6
CONTINUOUS
 10
-2.1828900904
 20
-13.8616569223
 11
-2.2483199857
 21
-13.8616569223
  0
LINE
  5
23D
100
AcDbEntity
  8
0
100
AcDbLine
 62
7
  6
CONTINUOUS
 10
-2.1733964587
 20
-13.7193917149
 11
-2.0402061278
 21
-13.7193801383
  0
LINE
  5
23E
100
AcDbEntity
  8
0
100
AcDbLine
 62
7
  6
CONTINUOUS
 10
-1.0592452673
 20
-13.5711983317
 11
-0.8942445314
 21
-13.5711983317
  0
LINE
  5
23F
100
AcDbEntity
  8
0
100
AcDbLine
 62
7
  6
CONTINUOUS
 10
-2.391031181
 20
-13.7193801383
 11
-2.318704505
 21
-13.7193917149
  0
LWPOLYLINE
  5
240
100
AcDbEntity
  8
0
100
AcDbPolyline
 62
7
  6
CONTINUOUS
 90
19
 70
0
 10
1.3590988519
 20
-13.7595546861
 10
1.323452722
 20
-13.757920085
 10
1.2881688198
 20
-13.7531359212
 10
1.2535496985
 20
-13.7453772474
 10
1.21982292
 20
-13.7347928834
 10
1.1873155155
 20
-13.7215575859
 10
1.1564369952
 20
-13.7059187622
 10
1.1274521616
 20
-13.6881049678
 10
1.1004862425
 20
-13.6682716528
 10
1.075688484
 20
-13.6465847178
 10
1.0532163548
 20
-13.6233583813
 10
1.0329876465
 20
-13.5988211482
 10
1.0148075566
 20
-13.5729663205
 10
0.9987367633
 20
-13.5460358161
 10
0.9848081266
 20
-13.5182256784
 10
0.9729247446
 20
-13.4893616225
 10
0.9631797315
 20
-13.4594922737
 10
0.9557648454
 20
-13.428930684
 10
0.9508193679
 20
-13.3978745008
  0
LWPOLYLINE
  5
241
100
AcDbEntity
  8
0
100
AcDbPolyline
 62
7
  6
CONTINUOUS
 90
9
 70
0
 10
-1.9151209452
 20
-15.3408588965
 10
-1.9376134312
 20
-15.3326491077
 10
-1.9593940944
 20
-15.3229093142
 10
-1.9804296448
 20
-15.3117818797
 10
-2.0006632424
 20
-15.2994212061
 10
-2.0200915055
 20
-15.2859475748
 10
-2.0387556097
 20
-15.2714328495
 10
-2.0566348723
 20
-15.2559777381
 10
-2.0736771142
 20
-15.2397078495
  0
LWPOLYLINE
  5
242
100
AcDbEntity
  8
0
100
AcDbPolyline
 62
7
  6
CONTINUOUS
 90
25
 70
0
 10
-9.3993563846
 20
-22.0960472128
 10
-9.3508105381
 20
-22.5712981405
 10
-9.2774811561
 20
-23.0437521385
 10
-9.1796578766
 20
-23.5121604437
 10
-9.0575549985
 20
-23.9755325059
 10
-8.9115153692
 20
-24.4323342737
 10
-8.7421462225
 20
-24.8805316658
 10
-8.5500440866
 20
-25.3185163444
 10
-8.3355145632
 20
-25.7454895512
 10
-8.0989995815
 20
-26.1607339518
 10
-7.8411527177
 20
-26.5632397159
 10
-7.56273519
 20
-26.9518204023
 10
-7.2644085586
 20
-27.3255256764
 10
-6.9469143834
 20
-27.6834463215
 10
-6.6111553791
 20
-28.0245046291
 10
-6.2581281823
 20
-28.3475861497
 10
-5.8888610372
 20
-28.6517837285
 10
-5.5043304051
 20
-28.9363699949
 10
-5.1055388169
 20
-29.2005841284
 10
-4.6935355156
 20
-29.4436798352
 10
-4.2694633701
 20
-29.665039568
 10
-3.8344602794
 20
-29.8640882977
 10
-3.3896762747
 20
-30.0402457149
 10
-2.9363133027
 20
-30.1930251104
 10
-2.4756140159
 20
-30.322059322
  0
LWPOLYLINE
  5
243
100
AcDbEntity
  8
0
100
AcDbPolyline
 62
7
  6
CONTINUOUS
 90
28
 70
0
 10
-9.3993563846
 20
21.6931265764
 10
-9.3467980182
 20
22.1991559503
 10
-9.2661629773
 20
22.7018746569
 10
-9.1578089737
 20
23.1997754719
 10
-9.0220084619
 20
23.6916291067
 10
-8.8591790404
 20
24.1756187933
 10
-8.6700393259
 20
24.6493927967
 10
-8.4553137372
 20
25.1110337932
 10
-8.2154704735
 20
25.5596001118
 10
-7.9510921072
 20
25.9942959345
 10
-7.6629234376
 20
26.4139353376
 10
-7.351919824
 20
26.8170521558
 10
-7.0190134582
 20
27.2024792438
 10
-6.6651331237
 20
27.5691067873
 10
-6.2913627297
 20
27.9156646302
 10
-5.8990323201
 20
28.2409070442
 10
-5.4895102134
 20
28.5438111871
 10
-5.0639476637
 20
28.8235324601
 10
-4.6235005695
 20
29.079266454
 10
-4.1694788468
 20
29.3103051091
 10
-3.7033356332
 20
29.5158989894
 10
-3.2265299813
 20
29.6953348764
 10
-2.740559586
 20
29.8480881918
 10
-2.2469036084
 20
29.9737383202
 10
-1.7470461956
 20
30.0718610343
 10
-1.2425054828
 20
30.1421400857
 10
-0.7348426157
 20
30.1844152882
 10
-0.2256140159
 20
30.1985396818
  0
LWPOLYLINE
  5
244
100
AcDbEntity
  8
0
100
AcDbPolyline
 62
250
  6
CONTINUOUS
 90
25
 70
0
 10
-8.3622236642
 20
18.2278948585
 10
-8.2011788287
 20
18.869424908
 10
-8.011911697
 20
19.4888596995
 10
-7.7963356134
 20
20.0843381612
 10
-7.5560503131
 20
20.6551028682
 10
-7.2932766651
 20
21.1991791277
 10
-7.0111900509
 20
21.7133064355
 10
-6.7122789211
 20
22.1961339464
 10
-6.3985124328
 20
22.6475431209
 10
-6.0726930724
 20
23.0662502756
 10
-5.7383171417
 20
23.4507445164
 10
-5.3967318949
 20
23.802506489
 10
-5.04729884
 20
24.1244105044
 10
-4.6931285109
 20
24.4154886565
 10
-4.3352904265
 20
24.676876139
 10
-3.9691577859
 20
24.9134190935
 10
-3.5970577372
 20
25.1245161673
 10
-3.2203389393
 20
25.3102406294
 10
-2.8315865021
 20
25.4742877572
 10
-2.4322821101
 20
25.6160242475
 10
-2.0240257573
 20
25.7349938835
 10
-1.5987643961
 20
25.8326779575
 10
-1.1545889701
 20
25.9078537749
 10
-0.6962587093
 20
25.9586987312
 10
-0.2256140159
 20
25.9843676832
  0
LWPOLYLINE
  5
245
100
AcDbEntity
  8
0
100
AcDbPolyline
 62
7
  6
CONTINUOUS
 90
28
 70
0
 10
1.2904494279
 20
-12.9457684809
 10
1.3335062793
 20
-12.9410092176
 10
1.3766510582
 20
-12.9408662737
 10
1.4193035051
 20
-12.9450945996
 10
1.4607214046
 20
-12.9534046286
 10
1.5006300636
 20
-12.9655783228
 10
1.5391601047
 20
-12.9816693549
 10
1.5759598559
 20
-13.001728949
 10
1.6104145017
 20
-13.0255748987
 10
1.6423048054
 20
-13.0529699592
 10
1.6713903144
 20
-13.0836634333
 10
1.6972986979
 20
-13.1172764946
 10
1.7196445631
 20
-13.1533389448
 10
1.7380999063
 20
-13.1913579651
 10
1.75247501
 20
-13.2310877944
 10
1.7626434906
 20
-13.2723938413
 10
1.7685059896
 20
-13.3149783835
 10
1.7699218071
 20
-13.3582420967
 10
1.7668091681
 20
-13.4015471204
 10
1.7591041846
 20
-13.4444469738
 10
1.7467544493
 20
-13.4863907457
 10
1.7298587734
 20
-13.5266013118
 10
1.7088808443
 20
-13.5644075308
 10
1.6841723242
 20
-13.59972425
 10
1.6557667125
 20
-13.6326260964
 10
1.6238305096
 20
-13.6627574512
 10
1.5888306157
 20
-13.6894482553
 10
1.5511355448
 20
-13.7121606581
  0
LINE
  5
246
100
AcDbEntity
  8
0
100
AcDbLine
 62
7
  6
CONTINUOUS
 10
-1.0533962414
 20
-13.2274892986
 11
-1.0809141973
 21
-13.2274892986
  0
LINE
  5
247
100
AcDbEntity
  8
0
100
AcDbLine
 62
7
  6
CONTINUOUS
 10
-1.2451549345
 20
-13.2274892986
 11
-1.5509564451
 21
-13.2274892986
  0
LINE
  5
248
100
AcDbEntity
  8
0
100
AcDbLine
 62
7
  6
CONTINUOUS
 10
-1.1817620644
 20
-12.8692941195
 11
-1.4226936788
 21
-12.8692941195
  0
LINE
  5
249
100
AcDbEntity
  8
0
100
AcDbLine
 62
7
  6
CONTINUOUS
 10
-1.551049175
 20
-12.7447995108
 11
-1.0534651434
 21
-12.7447995108
  0
LINE
  5
24A
100
AcDbEntity
  8
0
100
AcDbLine
 62
7
  6
CONTINUOUS
 10
3.267305023
 20
-12.1407193296
 11
4.2740924118
 21
-12.1407193296
  0
LINE
  5
24B
100
AcDbEntity
  8
0
100
AcDbLine
 62
7
  6
CONTINUOUS
 10
-2.8259619785
 20
-11.6791534395
 11
-2.663255813
 21
-11.6791534395
  0
LINE
  5
24C
100
AcDbEntity
  8
0
100
AcDbLine
 62
7
  6
CONTINUOUS
 10
-1.5509652807
 20
-13.1654676203
 11
-1.7668197911
 21
-13.1454210751
  0
LINE
  5
24D
100
AcDbEntity
  8
0
100
AcDbLine
 62
7
  6
CONTINUOUS
 10
0.6713185731
 20
-13.3719131435
 11
-1.0533984925
 21
-13.2116873178
  0
LINE
  5
24E
100
AcDbEntity
  8
0
100
AcDbLine
 62
7
  6
CONTINUOUS
 10
0.9508193679
 20
-13.3978745008
 11
0.8245125767
 21
-13.3861386852
  0
LINE
  5
24F
100
AcDbEntity
  8
0
100
AcDbLine
 62
7
  6
CONTINUOUS
 10
-1.7710025521
 20
-13.002124273
 11
-1.5509979901
 21
-13.0225736787
  0
LINE
  5
250
100
AcDbEntity
  8
0
100
AcDbLine
 62
7
  6
CONTINUOUS
 10
-1.2629582851
 20
-13.0493402067
 11
-1.1817353393
 21
-13.0568913047
  0
LINE
  5
251
100
AcDbEntity
  8
0
100
AcDbLine
 62
7
  6
CONTINUOUS
 10
-1.0534189873
 20
-13.0687941252
 11
0.8087473331
 21
-13.2417982817
  0
LWPOLYLINE
  5
252
100
AcDbEntity
  8
0
100
AcDbPolyline
 62
7
  6
CONTINUOUS
 90
3
 70
0
 10
-2.0736771142
 20
-15.2397078495
 10
-2.0898662544
 20
-15.2227142481
 10
-2.1051821532
 20
-15.2050935276
  0
LWPOLYLINE
  5
253
100
AcDbEntity
  8
0
100
AcDbPolyline
 62
250
  6
CONTINUOUS
 90
25
 70
0
 10
-8.3622236642
 20
-18.630815495
 10
-8.2011788287
 20
-19.2723455445
 10
-8.011911697
 20
-19.891780336
 10
-7.7963356134
 20
-20.4872587977
 10
-7.5560503131
 20
-21.0580235047
 10
-7.2932766651
 20
-21.6020997641
 10
-7.0111900509
 20
-22.116227072
 10
-6.7122789211
 20
-22.5990545829
 10
-6.3985124328
 20
-23.0504637574
 10
-6.0726930724
 20
-23.469170912
 10
-5.7383171417
 20
-23.8536651528
 10
-5.3967318949
 20
-24.2054271254
 10
-5.04729884
 20
-24.5273311409
 10
-4.6931285109
 20
-24.8184092929
 10
-4.3352904265
 20
-25.0797967755
 10
-3.9691577859
 20
-25.3163397299
 10
-3.5970577372
 20
-25.5274368038
 10
-3.2203389393
 20
-25.7131612659
 10
-2.8315865021
 20
-25.8772083936
 10
-2.4322821101
 20
-26.018944884
 10
-2.0240257573
 20
-26.1379145199
 10
-1.5987643961
 20
-26.2355985939
 10
-1.1545889701
 20
-26.3107744114
 10
-0.6962587093
 20
-26.3616193677
 10
-0.2256140159
 20
-26.3872883196
  0
LINE
  5
254
100
AcDbEntity
  8
0
100
AcDbLine
 62
7
  6
CONTINUOUS
 10
-9.5734699548
 20
-19.6602046703
 11
-9.3993563846
 21
-22.0960472128
  0
LINE
  5
255
100
AcDbEntity
  8
SUPERFICI
100
AcDbLine
 62
7
  6
CONTINUOUS
 10
-9.7055512229
 20
-17.7436159659
 11
-9.5870120737
 21
-19.460254501
  0
LINE
  5
256
100
AcDbEntity
  8
SUPERFICI
100
AcDbLine
 62
7
  6
CONTINUOUS
 10
-9.6029977235
 20
-19.2270032604
 11
-9.5734699548
 21
-19.6602046703
  0
LINE
  5
257
100
AcDbEntity
  8
SUPERFICI
100
AcDbLine
 62
7
  6
CONTINUOUS
 10
-9.7330970791
 20
-17.3350200294
 11
-9.6932644432
 21
-17.9234475366
  0
LINE
  5
258
100
AcDbEntity
  8
SUPERFICI
100
AcDbLine
 62
7
  6
CONTINUOUS
 10
-9.7608766016
 20
-16.913139102
 11
-9.7223413002
 21
-17.4955692232
  0
LINE
  5
259
100
AcDbEntity
  8
SUPERFICI
100
AcDbLine
 62
7
  6
CONTINUOUS
 10
-9.7885203029
 20
-16.4807684278
 11
-9.7517747308
 21
-17.0526215083
  0
LINE
  5
25A
100
AcDbEntity
  8
SUPERFICI
100
AcDbLine
 62
7
  6
CONTINUOUS
 10
-9.8158263074
 20
-16.0384924349
 11
-9.7812847712
 21
-16.5953083863
  0
LINE
  5
25B
100
AcDbEntity
  8
SUPERFICI
100
AcDbLine
 62
7
  6
CONTINUOUS
 10
-9.8426500838
 20
-15.5861554067
 11
-9.8104623985
 21
-16.1267120948
  0
LINE
  5
25C
100
AcDbEntity
  8
SUPERFICI
100
AcDbLine
 62
7
  6
CONTINUOUS
 10
-9.8687643778
 20
-15.1253102397
 11
-9.8390848892
 21
-15.6474218019
  0
LINE
  5
25D
100
AcDbEntity
  8
SUPERFICI
100
AcDbLine
 62
7
  6
CONTINUOUS
 10
-9.8940706188
 20
-14.6557160924
 11
-9.8669976597
 21
-15.1572020811
  0
LINE
  5
25E
100
AcDbEntity
  8
SUPERFICI
100
AcDbLine
 62
7
  6
CONTINUOUS
 10
-9.9198958948
 20
-14.1486654525
 11
-9.8939648967
 21
-14.6577307507
  0
LINE
  5
25F
100
AcDbEntity
  8
SUPERFICI
100
AcDbLine
 62
7
  6
CONTINUOUS
 10
-9.9447024779
 20
-13.6301092841
 11
-9.9184659741
 21
-14.1775624958
  0
LINE
  5
260
100
AcDbEntity
  8
SUPERFICI
100
AcDbLine
 62
7
  6
CONTINUOUS
 10
-9.9682361912
 20
-13.1042527839
 11
-9.9417830935
 21
-13.6929231569
  0
LINE
  5
261
100
AcDbEntity
  8
SUPERFICI
100
AcDbLine
 62
7
  6
CONTINUOUS
 10
-9.9905128132
 20
-12.570582914
 11
-9.9640082024
 21
-13.201420041
  0
LINE
  5
262
100
AcDbEntity
  8
SUPERFICI
100
AcDbLine
 62
7
  6
CONTINUOUS
 10
-10.0115590316
 20
-12.0288665666
 11
-9.9851338067
 21
-12.7029566411
  0
LWPOLYLINE
  5
263
100
AcDbEntity
  8
SUPERFICI
100
AcDbPolyline
 62
7
  6
CONTINUOUS
 90
4
 70
0
 10
-10.0673729813
 20
-10.3704674505
 10
-10.0498873912
 20
-10.9292873313
 10
-10.0313278568
 20
-11.4816360902
 10
-10.0050770533
 20
-12.1999355371
  0
LWPOLYLINE
  5
264
100
AcDbEntity
  8
SUPERFICI
100
AcDbPolyline
 62
7
  6
CONTINUOUS
 90
4
 70
0
 10
-10.0741462411
 20
-10.1430846898
 10
-10.0583854412
 20
-10.6626176649
 10
-10.0416521901
 20
-11.1792877108
 10
-10.0238887129
 20
-11.6922622976
  0
LINE
  5
265
100
AcDbEntity
  8
SUPERFICI
100
AcDbLine
 62
7
  6
CONTINUOUS
 10
-10.0890619968
 20
-9.6191684566
 11
-10.0673729813
 21
-10.3704674505
  0
LINE
  5
266
100
AcDbEntity
  8
SUPERFICI
100
AcDbLine
 62
7
  6
CONTINUOUS
 10
-10.1032489784
 20
-9.0891711345
 11
-10.0838709098
 21
-9.8052374682
  0
LINE
  5
267
100
AcDbEntity
  8
SUPERFICI
100
AcDbLine
 62
7
  6
CONTINUOUS
 10
-10.1167571452
 20
-8.5532918423
 11
-10.0994487801
 21
-9.2343176832
  0
LINE
  5
268
100
AcDbEntity
  8
SUPERFICI
100
AcDbLine
 62
7
  6
CONTINUOUS
 10
-10.1296414951
 20
-8.0109896548
 11
-10.1142221535
 21
-8.6563075073
  0
LINE
  5
269
100
AcDbEntity
  8
SUPERFICI
100
AcDbLine
 62
7
  6
CONTINUOUS
 10
-10.1419781437
 20
-7.4598217297
 11
-10.1283106833
 21
-8.0685105919
  0
LINE
  5
26A
100
AcDbEntity
  8
SUPERFICI
100
AcDbLine
 62
7
  6
CONTINUOUS
 10
-10.1544920878
 20
-6.8638079259
 11
-10.1417334422
 21
-7.4710850786
  0
LINE
  5
26B
100
AcDbEntity
  8
SUPERFICI
100
AcDbLine
 62
7
  6
CONTINUOUS
 10
-10.1666053017
 20
-6.2439411147
 11
-10.1537560705
 21
-6.900015957
  0
LINE
  5
26C
100
AcDbEntity
  8
SUPERFICI
100
AcDbLine
 62
7
  6
CONTINUOUS
 10
-10.1779958524
 20
-5.6116414139
 11
-10.164950949
 21
-6.3314709228
  0
LINE
  5
26D
100
AcDbEntity
  8
SUPERFICI
100
AcDbLine
 62
7
  6
CONTINUOUS
 10
-10.1885573361
 20
-4.9672311629
 11
-10.1755601481
 21
-5.7516194273
  0
LWPOLYLINE
  5
26E
100
AcDbEntity
  8
SUPERFICI
100
AcDbPolyline
 62
7
  6
CONTINUOUS
 90
3
 70
0
 10
-10.206748689
 20
-3.6353353509
 10
-10.1981932171
 20
-4.3086593256
 10
-10.1855066246
 20
-5.160345473
  0
LWPOLYLINE
  5
26F
100
AcDbEntity
  8
SUPERFICI
100
AcDbPolyline
 62
7
  6
CONTINUOUS
 90
3
 70
0
 10
-10.2103081013
 20
-3.3171780042
 10
-10.202996301
 20
-3.9439280075
 10
-10.1946846674
 20
-4.5582063175
  0
LINE
  5
270
100
AcDbEntity
  8
SUPERFICI
100
AcDbLine
 62
7
  6
CONTINUOUS
 10
-10.2133755849
 20
-3.0163871784
 11
-10.206748689
 21
-3.6353353509
  0
LINE
  5
271
100
AcDbEntity
  8
0
100
AcDbLine
 62
7
  6
CONTINUOUS
 10
-10.2168177589
 20
-2.6362230816
 11
-10.2131818889
 21
-3.031001823
  0
LWPOLYLINE
  5
272
100
AcDbEntity
  8
0
100
AcDbPolyline
 62
250
  6
CONTINUOUS
 90
13
 70
0
 10
-9.5535404107
 20
-0.2014603182
 10
-9.5448612221
 20
-2.0540192695
 10
-9.5430265746
 20
-3.8480242841
 10
-9.5351029923
 20
-5.5838136913
 10
-9.5121709222
 20
-7.2611461126
 10
-9.4689333845
 20
-8.8805762466
 10
-9.4014370676
 20
-10.4435264941
 10
-9.3064590403
 20
-11.9497650783
 10
-9.1816592587
 20
-13.3991229859
 10
-9.025565369
 20
-14.7929649448
 10
-8.8365181896
 20
-16.1309144385
 10
-8.6147337991
 20
-17.4107146421
 10
-8.3622236642
 20
-18.630815495
  0
LINE
  5
273
100
AcDbEntity
  8
0
100
AcDbLine
 62
7
  6
CONTINUOUS
 10
-10.2168177589
 20
-2.6362230816
 11
-10.2270394957
 21
-0.1634236123
  0
LINE
  5
274
100
AcDbEntity
  8
0
100
AcDbLine
 62
7
  6
CONTINUOUS
 10
-10.227042591
 20
-0.2014603182
 11
-10.2168177589
 21
2.2333024451
  0
LWPOLYLINE
  5
275
100
AcDbEntity
  8
0
100
AcDbPolyline
 62
250
  6
CONTINUOUS
 90
13
 70
0
 10
-9.5535404107
 20
-0.2014603182
 10
-9.5448612221
 20
1.6510986331
 10
-9.5430265746
 20
3.4451036477
 10
-9.5351029923
 20
5.1808930548
 10
-9.5121709222
 20
6.8582254762
 10
-9.4689333845
 20
8.4776556101
 10
-9.4014370676
 20
10.0406058576
 10
-9.3064590403
 20
11.5468444419
 10
-9.1816592587
 20
12.9962023495
 10
-9.025565369
 20
14.3900443084
 10
-8.8365181896
 20
15.7279938021
 10
-8.6147337991
 20
17.0077940057
 10
-8.3622236642
 20
18.2278948585
  0
LINE
  5
276
100
AcDbEntity
  8
0
100
AcDbLine
 62
7
  6
CONTINUOUS
 10
-10.2168177589
 20
2.2333024451
 11
-10.2132333003
 21
2.6280818679
  0
LINE
  5
277
100
AcDbEntity
  8
SUPERFICI
100
AcDbLine
 62
7
  6
CONTINUOUS
 10
-10.206748689
 20
3.2324147144
 11
-10.2133848337
 21
2.6125138869
  0
LINE
  5
278
100
AcDbEntity
  8
SUPERFICI
100
AcDbLine
 62
7
  6
CONTINUOUS
 10
-10.2034854015
 20
3.5020961029
 11
-10.2106404188
 21
2.8830061011
  0
LINE
  5
279
100
AcDbEntity
  8
SUPERFICI
100
AcDbLine
 62
7
  6
CONTINUOUS
 10
-10.1953539896
 20
4.1086361781
 11
-10.206748689
 21
3.2324147144
  0
LINE
  5
27A
100
AcDbEntity
  8
SUPERFICI
100
AcDbLine
 62
7
  6
CONTINUOUS
 10
-10.1863777637
 20
4.7029179118
 11
-10.1981932171
 21
3.9057386892
  0
LINE
  5
27B
100
AcDbEntity
  8
SUPERFICI
100
AcDbLine
 62
7
  6
CONTINUOUS
 10
-10.1766489098
 20
5.286480211
 11
-10.1885573361
 21
4.5643105265
  0
LINE
  5
27C
100
AcDbEntity
  8
SUPERFICI
100
AcDbLine
 62
7
  6
CONTINUOUS
 10
-10.1662718425
 20
5.8587426532
 11
-10.1779958524
 21
5.2087207774
  0
LINE
  5
27D
100
AcDbEntity
  8
SUPERFICI
100
AcDbLine
 62
7
  6
CONTINUOUS
 10
-10.1544920878
 20
6.4608872895
 11
-10.1666053017
 21
5.8410204783
  0
LINE
  5
27E
100
AcDbEntity
  8
SUPERFICI
100
AcDbLine
 62
7
  6
CONTINUOUS
 10
-10.1417334422
 20
7.0681644421
 11
-10.1553223181
 21
6.4198586155
  0
LINE
  5
27F
100
AcDbEntity
  8
SUPERFICI
100
AcDbLine
 62
7
  6
CONTINUOUS
 10
-10.1283106833
 20
7.6655899555
 11
-10.1437970638
 21
6.9727272212
  0
LINE
  5
280
100
AcDbEntity
  8
SUPERFICI
100
AcDbLine
 62
7
  6
CONTINUOUS
 10
-10.1142221535
 20
8.2533868708
 11
-10.1317214988
 21
7.5174391422
  0
LINE
  5
281
100
AcDbEntity
  8
SUPERFICI
100
AcDbLine
 62
7
  6
CONTINUOUS
 10
-10.0994487801
 20
8.8313970467
 11
-10.1191087463
 21
8.0537556661
  0
LINE
  5
282
100
AcDbEntity
  8
SUPERFICI
100
AcDbLine
 62
7
  6
CONTINUOUS
 10
-10.0838709098
 20
9.4023168317
 11
-10.1058781738
 21
8.5844218058
  0
LINE
  5
283
100
AcDbEntity
  8
SUPERFICI
100
AcDbLine
 62
7
  6
CONTINUOUS
 10
-10.0773623032
 20
9.629947376
 11
-10.0919794709
 21
9.1098659575
  0
LINE
  5
284
100
AcDbEntity
  8
SUPERFICI
100
AcDbLine
 62
7
  6
CONTINUOUS
 10
-10.0618941886
 20
10.1469092098
 11
-10.0838709098
 21
9.4023168317
  0
LINE
  5
285
100
AcDbEntity
  8
SUPERFICI
100
AcDbLine
 62
7
  6
CONTINUOUS
 10
-10.0454398551
 20
10.6623849104
 11
-10.0673729813
 21
9.967546814
  0
LINE
  5
286
100
AcDbEntity
  8
SUPERFICI
100
AcDbLine
 62
7
  6
CONTINUOUS
 10
-10.0279394058
 20
11.1753823244
 11
-10.0498873912
 21
10.5263666949
  0
LINE
  5
287
100
AcDbEntity
  8
SUPERFICI
100
AcDbLine
 62
7
  6
CONTINUOUS
 10
-10.0093589708
 20
11.68444919
 11
-10.0313278568
 21
11.0787154538
  0
LINE
  5
288
100
AcDbEntity
  8
SUPERFICI
100
AcDbLine
 62
7
  6
CONTINUOUS
 10
-9.9895921664
 20
12.1904854228
 11
-10.0115590316
 21
11.6259459302
  0
LWPOLYLINE
  5
289
100
AcDbEntity
  8
SUPERFICI
100
AcDbPolyline
 62
7
  6
CONTINUOUS
 90
3
 70
0
 10
-9.9447024779
 20
13.2271886476
 10
-9.9682361912
 20
12.7013321475
 10
-9.9905128132
 20
12.1676622776
  0
LINE
  5
28A
100
AcDbEntity
  8
SUPERFICI
100
AcDbLine
 62
7
  6
CONTINUOUS
 10
-9.9464176318
 20
13.1900487995
 11
-9.9685815483
 21
12.6933400422
  0
LINE
  5
28B
100
AcDbEntity
  8
SUPERFICI
100
AcDbLine
 62
7
  6
CONTINUOUS
 10
-9.9198958948
 20
13.745744816
 11
-9.9464176318
 21
13.1900487995
  0
LINE
  5
28C
100
AcDbEntity
  8
SUPERFICI
100
AcDbLine
 62
7
  6
CONTINUOUS
 10
-9.8939648967
 20
14.2548101142
 11
-9.9230941828
 21
13.6807384841
  0
LINE
  5
28D
100
AcDbEntity
  8
SUPERFICI
100
AcDbLine
 62
7
  6
CONTINUOUS
 10
-9.8669976597
 20
14.7542814446
 11
-9.8986125251
 21
14.1657967231
  0
LINE
  5
28E
100
AcDbEntity
  8
SUPERFICI
100
AcDbLine
 62
7
  6
CONTINUOUS
 10
-9.8390848892
 20
15.2445011655
 11
-9.873159619
 21
14.6425676479
  0
LINE
  5
28F
100
AcDbEntity
  8
SUPERFICI
100
AcDbLine
 62
7
  6
CONTINUOUS
 10
-9.8104623985
 20
15.7237914584
 11
-9.8468330936
 21
15.1108712427
  0
LINE
  5
290
100
AcDbEntity
  8
SUPERFICI
100
AcDbLine
 62
7
  6
CONTINUOUS
 10
-9.7812847712
 20
16.1923877498
 11
-9.8197272943
 21
15.5709698333
  0
LINE
  5
291
100
AcDbEntity
  8
SUPERFICI
100
AcDbLine
 62
7
  6
CONTINUOUS
 10
-9.7517747308
 20
16.6497008719
 11
-9.7921032984
 21
16.0207401349
  0
LINE
  5
292
100
AcDbEntity
  8
SUPERFICI
100
AcDbLine
 62
7
  6
CONTINUOUS
 10
-9.7223413002
 20
17.0926485867
 11
-9.7641331306
 21
16.4599892405
  0
LINE
  5
293
100
AcDbEntity
  8
SUPERFICI
100
AcDbLine
 62
7
  6
CONTINUOUS
 10
-9.6804900574
 20
17.7062771745
 11
-9.7360023019
 21
16.8884871307
  0
LINE
  5
294
100
AcDbEntity
  8
SUPERFICI
100
AcDbLine
 62
7
  6
CONTINUOUS
 10
-9.5734699548
 20
19.2572840338
 11
-9.6114024255
 21
18.7022919755
  0
LINE
  5
295
100
AcDbEntity
  8
SUPERFICI
100
AcDbLine
 62
7
  6
CONTINUOUS
 10
-9.6036134217
 20
18.815144222
 11
-9.6932644432
 21
17.5205269002
  0
LINE
  5
296
100
AcDbEntity
  8
0
100
AcDbLine
 62
7
  6
CONTINUOUS
 10
-9.5734699548
 20
19.2572840338
 11
-9.3993563846
 21
21.6931265764
  0
LWPOLYLINE
  5
297
100
AcDbEntity
  8
0
100
AcDbPolyline
 62
7
  6
CONTINUOUS
 90
25
 70
0
 10
-5.9992540434
 20
15.0523088126
 10
-5.8751257162
 20
15.6205057541
 10
-5.7387944502
 20
16.166072906
 10
-5.5908070694
 20
16.6852358647
 10
-5.4310565295
 20
17.1776579866
 10
-5.2595802569
 20
17.6438014882
 10
-5.0769470843
 20
18.0828223081
 10
-4.8826455703
 20
18.4962274009
 10
-4.676968625
 20
18.8835038531
 10
-4.4622219906
 20
19.2414085492
 10
-4.2375024176
 20
19.5721480068
 10
-4.002124076
 20
19.8769523912
 10
-3.7597176977
 20
20.1528391754
 10
-3.5131533463
 20
20.399091038
 10
-3.2610600186
 20
20.6189749511
 10
-3.0013822977
 20
20.8157028416
 10
-2.7370134929
 20
20.9885748581
 10
-2.4677787573
 20
21.1391370519
 10
-2.1858248267
 20
21.2719327631
 10
-1.8913032613
 20
21.3859781916
 10
-1.5879253117
 20
21.4796421668
 10
-1.2707158305
 20
21.5538438432
 10
-0.9372169457
 20
21.6081132876
 10
-0.5891637725
 20
21.641188281
 10
-0.2256140159
 20
21.652351341
  0
LINE
  5
298
100
AcDbEntity
  8
0
100
AcDbLine
 62
7
  6
CONTINUOUS
 10
-1.2215174702
 20
-11.0012369813
 11
-1.0931680159
 21
-10.9986803182
  0
LINE
  5
299
100
AcDbEntity
  8
0
100
AcDbLine
 62
7
  6
CONTINUOUS
 10
2.8919419841
 20
-9.5764603182
 11
1.4314409841
 21
-9.5764603182
  0
LWPOLYLINE
  5
29A
100
AcDbEntity
  8
0
100
AcDbPolyline
 62
7
  6
CONTINUOUS
 90
25
 70
0
 10
-2.0638557541
 20
-13.0778152195
 10
-2.0835279622
 20
-13.0600022357
 10
-2.100582323
 20
-13.0395784832
 10
-2.1146671508
 20
-13.017060183
 10
-2.1254886508
 20
-12.9928225296
 10
-2.1327003698
 20
-12.967474963
 10
-2.1362573333
 20
-12.941931416
 10
-2.1363716343
 20
-12.9168537884
 10
-2.1332743493
 20
-12.8925242307
 10
-2.1271599157
 20
-12.8692510556
 10
-2.1184331089
 20
-12.8475486158
 10
-2.1073796556
 20
-12.8274568685
 10
-2.0938388436
 20
-12.8086237725
 10
-2.0778321289
 20
-12.7913582794
 10
-2.0595636376
 20
-12.7760723127
 10
-2.0388755071
 20
-12.7628073288
 10
-2.0157591894
 20
-12.7519251542
 10
-1.9906798015
 20
-12.7440633328
 10
-1.9642205759
 20
-12.7397244561
 10
-1.9367743851
 20
-12.7391527909
 10
-1.9090125228
 20
-12.7425866055
 10
-1.8820664702
 20
-12.7500643197
 10
-1.8565903442
 20
-12.7614223111
 10
-1.8330141328
 20
-12.7763613546
 10
-1.8120340653
 20
-12.7943599902
  0
LINE
  5
29B
100
AcDbEntity
  8
0
100
AcDbLine
 62
7
  6
CONTINUOUS
 10
-1.0809141973
 20
-13.2274892986
 11
-0.1442671328
 21
-14.1439832545
  0
LINE
  5
29C
100
AcDbEntity
  8
0
100
AcDbLine
 62
7
  6
CONTINUOUS
 10
-0.0622482231
 20
-14.2242379986
 11
0.6956620138
 21
-14.9658540021
  0
LINE
  5
29D
100
AcDbEntity
  8
0
100
AcDbLine
 62
7
  6
CONTINUOUS
 10
-2.663255813
 20
-11.6791534395
 11
-1.5510459477
 21
-12.7674535422
  0
LINE
  5
29E
100
AcDbEntity
  8
0
100
AcDbLine
 62
7
  6
CONTINUOUS
 10
0.829822608
 20
-15.0971185941
 11
2.2569757999
 21
-16.4935880486
  0
LINE
  5
29F
100
AcDbEntity
  8
0
100
AcDbLine
 62
7
  6
CONTINUOUS
 10
-1.4226902961
 20
-12.8930389583
 11
-1.2629582851
 21
-13.0493402067
  0
LINE
  5
2A0
100
AcDbEntity
  8
0
100
AcDbLine
 62
7
  6
CONTINUOUS
 10
0.5430307137
 20
-14.9789303366
 11
-0.146348373
 21
-14.30372262
  0
LINE
  5
2A1
100
AcDbEntity
  8
0
100
AcDbLine
 62
7
  6
CONTINUOUS
 10
2.1746953869
 20
-16.5770671775
 11
0.6770716006
 21
-15.1102182824
  0
LINE
  5
2A2
100
AcDbEntity
  8
0
100
AcDbLine
 62
7
  6
CONTINUOUS
 10
-1.5510114768
 20
-12.9279035595
 11
-2.8259619785
 21
-11.6791534395
  0
LINE
  5
2A3
100
AcDbEntity
  8
0
100
AcDbLine
 62
7
  6
CONTINUOUS
 10
-0.8942445314
 20
-13.5711983317
 11
-1.2451549345
 21
-13.2274892986
  0
LINE
  5
2A4
100
AcDbEntity
  8
0
100
AcDbLine
 62
7
  6
CONTINUOUS
 10
-0.2282596699
 20
-14.2235035432
 11
-0.7738209223
 21
-13.6891390057
  0
LWPOLYLINE
  5
2A5
100
AcDbEntity
  8
0
100
AcDbPolyline
 62
7
  6
CONTINUOUS
 90
10
 70
0
 10
-1.8120340653
 20
-12.7943599902
 10
-1.7940447817
 20
-12.8150313577
 10
-1.7793654274
 20
-12.8378713005
 10
-1.7682937281
 20
-12.8619867858
 10
-1.7608398328
 20
-12.8867562661
 10
-1.7569384326
 20
-12.9117321761
 10
-1.7563891055
 20
-12.9362133902
 10
-1.7587933522
 20
-12.9596510119
 10
-1.7637787829
 20
-12.9817225261
 10
-1.7710025521
 20
-13.002124273
  0
LWPOLYLINE
  5
2A6
100
AcDbEntity
  8
0
100
AcDbPolyline
 62
7
  6
CONTINUOUS
 90
9
 70
0
 10
-2.1051821532
 20
-15.2050935276
 10
-2.1196586146
 20
-15.1869047817
 10
-2.133355615
 20
-15.1681761354
 10
-2.1463156571
 20
-15.1489537378
 10
-2.1585754413
 20
-15.1292920889
 10
-2.1701818805
 20
-15.1092289044
 10
-2.1811758919
 20
-15.0888097662
 10
-2.1915938296
 20
-15.0680889912
 10
-2.2014747188
 20
-15.0471169286
  0
LWPOLYLINE
  5
2A7
100
AcDbEntity
  8
0
100
AcDbPolyline
 62
7
  6
CONTINUOUS
 90
13
 70
0
 10
-2.0450237452
 20
-15.0471285052
 10
-2.0372238809
 20
-15.060961624
 10
-2.0289481218
 20
-15.0746591494
 10
-2.0201917421
 20
-15.0881397692
 10
-2.0109848039
 20
-15.101275342
 10
-2.0012917029
 20
-15.1140366568
 10
-1.9909925909
 20
-15.1264789579
 10
-1.980018281
 20
-15.1385562781
 10
-1.9683893778
 20
-15.1501126667
 10
-1.9561063376
 20
-15.1610219786
 10
-1.9431571167
 20
-15.1711715032
 10
-1.9295136687
 20
-15.1804576579
 10
-1.9151549514
 20
-15.188765764
  0
LWPOLYLINE
  5
2A8
100
AcDbEntity
  8
0
100
AcDbPolyline
 62
7
  6
CONTINUOUS
 90
25
 70
0
 10
-5.9992540434
 20
-15.4552294491
 10
-5.8751257162
 20
-16.0234263905
 10
-5.7387944502
 20
-16.5689935424
 10
-5.5908070694
 20
-17.0881565011
 10
-5.4310565295
 20
-17.580578623
 10
-5.2595802569
 20
-18.0467221246
 10
-5.0769470843
 20
-18.4857429445
 10
-4.8826455703
 20
-18.8991480373
 10
-4.676968625
 20
-19.2864244896
 10
-4.4622219906
 20
-19.6443291857
 10
-4.2375024176
 20
-19.9750686433
 10
-4.002124076
 20
-20.2798730277
 10
-3.7597176977
 20
-20.5557598118
 10
-3.5131533463
 20
-20.8020116744
 10
-3.2610600186
 20
-21.0218955876
 10
-3.0013822977
 20
-21.2186234781
 10
-2.7370134929
 20
-21.3914954946
 10
-2.4677787573
 20
-21.5420576884
 10
-2.1858248267
 20
-21.6748533995
 10
-1.8913032613
 20
-21.788898828
 10
-1.5879253117
 20
-21.8825628033
 10
-1.2707158305
 20
-21.9567644797
 10
-0.9372169457
 20
-22.011033924
 10
-0.5891637725
 20
-22.0441089174
 10
-0.2256140159
 20
-22.0552719774
  0
LINE
  5
2A9
100
AcDbEntity
  8
0
100
AcDbLine
 62
7
  6
CONTINUOUS
 10
1.4314378721
 20
-8.8264603182
 11
2.8919419841
 21
-8.8264603182
  0
LWPOLYLINE
  5
2AA
100
AcDbEntity
  8
0
100
AcDbPolyline
 62
7
  6
CONTINUOUS
 90
13
 70
0
 10
-6.5909571985
 20
-0.2014603182
 10
-6.6034366147
 20
1.3094615659
 10
-6.6270207275
 20
2.7853377374
 10
-6.6488961423
 20
4.2228429629
 10
-6.6622188605
 20
5.6299215154
 10
-6.6610907577
 20
6.995911542
 10
-6.6411509879
 20
8.3033589543
 10
-6.6002955949
 20
9.5538417832
 10
-6.5371250237
 20
10.7497930924
 10
-6.447458649
 20
11.8995326983
 10
-6.3278901093
 20
13.0083403396
 10
-6.1778706528
 20
14.0674448933
 10
-5.9992540434
 20
15.0523088126
  0
LWPOLYLINE
  5
2AB
100
AcDbEntity
  8
0
100
AcDbPolyline
 62
7
  6
CONTINUOUS
 90
13
 70
0
 10
-6.5909571985
 20
-0.2014603182
 10
-6.6034366147
 20
-1.7123822023
 10
-6.6270207275
 20
-3.1882583739
 10
-6.6488961423
 20
-4.6257635993
 10
-6.6622188605
 20
-6.0328421519
 10
-6.6610907577
 20
-7.3988321784
 10
-6.6411509879
 20
-8.7062795907
 10
-6.6002955949
 20
-9.9567624196
 10
-6.5371250237
 20
-11.1527137288
 10
-6.447458649
 20
-12.3024533347
 10
-6.3278901093
 20
-13.4112609761
 10
-6.1778706528
 20
-14.4703655297
 10
-5.9992540434
 20
-15.4552294491
  0
LINE
  5
2AC
100
AcDbEntity
  8
0
100
AcDbLine
 62
7
  6
CONTINUOUS
 10
-3.7318420159
 20
9.4119816818
 11
-3.2786330159
 21
10.8235806818
  0
LINE
  5
2AD
100
AcDbEntity
  8
0
100
AcDbLine
 62
7
  6
CONTINUOUS
 10
-2.8686120159
 20
10.8235806818
 11
-3.5268320159
 21
8.7734886818
  0
LWPOLYLINE
  5
2AE
100
AcDbEntity
  8
SUPERFICI
100
AcDbPolyline
 62
250
  6
CONTINUOUS
 90
10
 70
0
 10
6.4385845708
 20
16.1884945973
 10
6.8014029488
 20
16.6022278929
 10
6.9776214308
 20
16.8057487867
 10
7.1481547116
 20
17.0085328185
 10
7.3095894036
 20
17.2097310531
 10
7.4593128475
 20
17.409550628
 10
7.5966726669
 20
17.6114005798
 10
7.7195556357
 20
17.8160347215
 10
7.8250370611
 20
18.0217059587
 10
7.9109956324
 20
18.2278948585
  0
LINE
  5
2AF
100
AcDbEntity
  8
0
100
AcDbLine
 62
7
  6
CONTINUOUS
 10
2.1606238892
 20
-11.9620488221
 11
2.2414657443
 21
-12.0469504303
  0
LWPOLYLINE
  5
2B0
100
AcDbEntity
  8
SUPERFICI
100
AcDbPolyline
 62
250
  6
CONTINUOUS
 90
9
 70
0
 10
6.8014029488
 20
-17.0051485293
 10
6.9776214308
 20
-17.2086694231
 10
7.1481547116
 20
-17.4114534549
 10
7.3095894036
 20
-17.6126516895
 10
7.4593128475
 20
-17.8124712644
 10
7.5966726669
 20
-18.0143212162
 10
7.7195556357
 20
-18.218955358
 10
7.8250370611
 20
-18.4246265951
 10
7.9109956324
 20
-18.630815495
  0
LINE
  5
2B1
100
AcDbEntity
  8
0
100
AcDbLine
 62
7
  6
CONTINUOUS
 10
-2.2812329441
 20
-14.8040408358
 11
-2.2941899111
 21
-14.7432758784
  0
LWPOLYLINE
  5
2B2
100
AcDbEntity
  8
0
100
AcDbPolyline
 62
7
  6
CONTINUOUS
 90
6
 70
0
 10
-2.2941899111
 20
-14.7432758784
 10
-2.3054119367
 20
-14.6810312829
 10
-2.3149610848
 20
-14.6173764624
 10
-2.3229144352
 20
-14.5523898144
 10
-2.3293647926
 20
-14.4861591177
 10
-2.3344214082
 20
-14.4187819352
  0
LWPOLYLINE
  5
2B3
100
AcDbEntity
  8
0
100
AcDbPolyline
 62
7
  6
CONTINUOUS
 90
7
 70
0
 10
-2.1883040626
 20
-14.4187819352
 10
-2.1826170032
 20
-14.4861907665
 10
-2.175650367
 20
-14.5524464786
 10
-2.1672523037
 20
-14.6174466023
 10
-2.157291245
 20
-14.6810989772
 10
-2.1456550271
 20
-14.7433213261
 10
-2.132250026
 20
-14.8040408358
  0
LINE
  5
2B4
100
AcDbEntity
  8
0
100
AcDbLine
 62
7
  6
CONTINUOUS
 10
-2.3909315445
 20
-14.4187819352
 11
-2.391031181
 21
-13.7193801383
  0
LINE
  5
2B5
100
AcDbEntity
  8
0
100
AcDbLine
 62
7
  6
CONTINUOUS
 10
-2.2957896544
 20
-15.0471169286
 11
-2.2958242829
 21
-14.8040408358
  0
LINE
  5
2B6
100
AcDbEntity
  8
0
100
AcDbLine
 62
7
  6
CONTINUOUS
 10
-2.2483199857
 20
-13.8616569223
 11
-2.2482608798
 21
-14.2765526232
  0
LINE
  5
2B7
100
AcDbEntity
  8
0
100
AcDbLine
 62
7
  6
CONTINUOUS
 10
-2.1828309845
 20
-14.2765526232
 11
-2.1828900904
 21
-13.8616569223
  0
LINE
  5
2B8
100
AcDbEntity
  8
0
100
AcDbLine
 62
7
  6
CONTINUOUS
 10
-2.5952760159
 20
8.7734836818
 11
-2.5952710159
 21
10.8235806818
  0
LINE
  5
2B9
100
AcDbEntity
  8
0
100
AcDbLine
 62
7
  6
CONTINUOUS
 10
-2.1852550159
 20
10.8235806818
 11
-2.1852600159
 21
8.7734886818
  0
LWPOLYLINE
  5
2BA
100
AcDbEntity
  8
SUPERFICI
100
AcDbPolyline
 62
250
  6
CONTINUOUS
 90
4
 70
0
 10
-9.3062215883
 20
-21.7003968232
 10
-9.3613998698
 20
-21.9452283404
 10
-9.3821598076
 20
-22.0326601079
 10
-9.3993563846
 20
-22.0960472128
  0
LINE
  5
2BB
100
AcDbEntity
  8
0
100
AcDbLine
 62
7
  6
CONTINUOUS
 10
-0.7725900159
 20
9.4884876818
 11
-0.3897580159
 21
10.8235806818
  0
LINE
  5
2BC
100
AcDbEntity
  8
0
100
AcDbLine
 62
7
  6
CONTINUOUS
 10
-0.1799450159
 20
10.1253866818
 11
-0.5675900159
 21
8.7734936818
  0
LINE
  5
2BD
100
AcDbEntity
  8
0
100
AcDbLine
 62
7
  6
CONTINUOUS
 10
0.5034169841
 20
8.7734886818
 11
1.1616259841
 21
10.8235856818
  0
LINE
  5
2BE
100
AcDbEntity
  8
0
100
AcDbLine
 62
7
  6
CONTINUOUS
 10
-0.7261451974
 20
3.9067543585
 11
-0.8503561036
 21
3.6854505255
  0
LWPOLYLINE
  5
2BF
100
AcDbEntity
  8
SUPERFICI
100
AcDbPolyline
 62
250
  6
CONTINUOUS
 90
6
 70
0
 10
5.5480259572
 20
15.0523102466
 10
5.7171487474
 20
15.296337789
 10
5.8941367484
 20
15.5325995248
 10
6.075887927
 20
15.7608807147
 10
6.2578418984
 20
15.9788618831
 10
6.4385845708
 20
16.1884945973
  0
LINE
  5
2C0
100
AcDbEntity
  8
0
100
AcDbLine
 62
7
  6
CONTINUOUS
 10
-0.0800910159
 20
5.0630186818
 11
0.6770236998
 21
5.7010444422
  0
LINE
  5
2C1
100
AcDbEntity
  8
0
100
AcDbLine
 62
7
  6
CONTINUOUS
 10
0.6418946977
 20
5.3400564405
 11
-0.0800910159
 21
4.7316346818
  0
LWPOLYLINE
  5
2C2
100
AcDbEntity
  8
0
100
AcDbPolyline
 62
7
  6
CONTINUOUS
 90
25
 70
0
 10
1.4663803135
 20
-2.1868447851
 10
1.4830863758
 20
-2.1861193445
 10
1.4999604858
 20
-2.1829543813
 10
1.516569899
 20
-2.1772512984
 10
1.5324430735
 20
-2.1689561191
 10
1.5471849021
 20
-2.1580616364
 10
1.5604491465
 20
-2.1445975121
 10
1.5721930148
 20
-2.1288325119
 10
1.5825640955
 20
-2.1113815531
 10
1.591718968
 20
-2.0927897949
 10
1.5996861615
 20
-2.0732023469
 10
1.6065580345
 20
-2.0526315409
 10
1.6124671708
 20
-2.0310941905
 10
1.6175405256
 20
-2.0086852261
 10
1.6218507391
 20
-1.9855147219
 10
1.6254490596
 20
-1.9616131818
 10
1.6284372872
 20
-1.9370245838
 10
1.6309698667
 20
-1.9117693984
 10
1.6330651979
 20
-1.8858305314
 10
1.6345481725
 20
-1.8592216981
 10
1.6354839459
 20
-1.8319385938
 10
1.6362586778
 20
-1.8039228778
 10
1.6368523695
 20
-1.7751487992
 10
1.63716234
 20
-1.7456419503
 10
1.6370914468
 20
-1.7154062589
  0
LINE
  5
2C3
100
AcDbEntity
  8
0
100
AcDbLine
 62
7
  6
CONTINUOUS
 10
2.0491939841
 20
-4.0893813182
 11
-1.6193300159
 21
-4.0893813182
  0
LINE
  5
2C4
100
AcDbEntity
  8
0
100
AcDbLine
 62
7
  6
CONTINUOUS
 10
-1.5862730159
 20
-3.9635123182
 11
-0.1297470159
 21
-3.9635123182
  0
LINE
  5
2C5
100
AcDbEntity
  8
0
100
AcDbLine
 62
7
  6
CONTINUOUS
 10
-0.4318340159
 20
-3.5887003182
 11
-1.4952400159
 21
-3.5887003182
  0
LINE
  5
2C6
100
AcDbEntity
  8
0
100
AcDbLine
 62
7
  6
CONTINUOUS
 10
1.2360009572
 20
-3.2375373182
 11
0.8349985007
 21
-3.2375373182
  0
LINE
  5
2C7
100
AcDbEntity
  8
0
100
AcDbLine
 62
7
  6
CONTINUOUS
 10
-1.9376910159
 20
-3.0399603182
 11
-1.0026960159
 21
-3.0399603182
  0
LINE
  5
2C8
100
AcDbEntity
  8
0
100
AcDbLine
 62
7
  6
CONTINUOUS
 10
-1.3045290159
 20
-2.6654033182
 11
-2.2397770159
 21
-2.6654033182
  0
LINE
  5
2C9
100
AcDbEntity
  8
0
100
AcDbLine
 62
7
  6
CONTINUOUS
 10
0.2715096997
 20
-2.5385163182
 11
0.6722579196
 21
-2.5385163182
  0
LINE
  5
2CA
100
AcDbEntity
  8
0
100
AcDbLine
 62
7
  6
CONTINUOUS
 10
-2.5988230159
 20
-2.2199013182
 11
-1.5809330159
 21
-2.2199013182
  0
LWPOLYLINE
  5
2CB
100
AcDbEntity
  8
0
100
AcDbPolyline
 62
7
  6
CONTINUOUS
 90
33
 70
0
 10
1.4663803135
 20
-2.5245310648
 10
1.4375614252
 20
-2.5218710276
 10
1.4077407411
 20
-2.519990168
 10
1.3770321889
 20
-2.5174265442
 10
1.3455388109
 20
-2.5125596983
 10
1.3137638594
 20
-2.5043847471
 10
1.2824352581
 20
-2.4920966487
 10
1.2510415787
 20
-2.4767163142
 10
1.2185756983
 20
-2.4612543358
 10
1.1891163648
 20
-2.440422224
 10
1.1613033377
 20
-2.4168978244
 10
1.134272922
 20
-2.3923811562
 10
1.1089911228
 20
-2.3668635878
 10
1.086301644
 20
-2.3399896199
 10
1.0665041937
 20
-2.3115739199
 10
1.0495785318
 20
-2.2822120255
 10
1.0350570709
 20
-2.2523553236
 10
1.0217458051
 20
-2.2227094479
 10
1.0095643509
 20
-2.1938001741
 10
0.9988404269
 20
-2.1656678151
 10
0.9896697603
 20
-2.1381784005
 10
0.9817772843
 20
-2.1114913314
 10
0.9748208814
 20
-2.0858605916
 10
0.9684762778
 20
-2.0612830525
 10
0.9626679909
 20
-2.0374746234
 10
0.9576279979
 20
-2.0143947234
 10
0.9534075397
 20
-1.9920163747
 10
0.9498691874
 20
-1.9700107652
 10
0.9469570549
 20
-1.9484042397
 10
0.9446195608
 20
-1.9272284
 10
0.9427301054
 20
-1.9061510646
 10
0.9410066516
 20
-1.8851413608
 10
0.9372157985
 20
-1.8433439475
  0
LWPOLYLINE
  5
2CC
100
AcDbEntity
  8
0
100
AcDbPolyline
 62
7
  6
CONTINUOUS
 90
52
 70
0
 10
-0.2262104575
 20
-3.4412243153
 10
-0.1593592573
 20
-3.4965408138
 10
-0.0936879439
 20
-3.5490998013
 10
-0.0288444934
 20
-3.5984041375
 10
0.0351236383
 20
-3.6442043819
 10
0.0981294169
 20
-3.6867602427
 10
0.1603677735
 20
-3.726464564
 10
0.221828087
 20
-3.763393539
 10
0.2823732303
 20
-3.7975258165
 10
0.3420942467
 20
-3.8289744958
 10
0.4009225904
 20
-3.8577606811
 10
0.4587567549
 20
-3.8839256857
 10
0.515624127
 20
-3.9076532694
 10
0.5714495088
 20
-3.9290868105
 10
0.626131743
 20
-3.9482569005
 10
0.6796784029
 20
-3.9651201813
 10
0.7319460269
 20
-3.9796119318
 10
0.7829684252
 20
-3.9917529491
 10
0.8330101909
 20
-4.0015797199
 10
0.88199651
 20
-4.0090003825
 10
0.929818265
 20
-4.0139655319
 10
0.9766632447
 20
-4.0166932138
 10
1.0226277377
 20
-4.0175142701
 10
1.0674430802
 20
-4.0167215894
 10
1.1107539912
 20
-4.0145774132
 10
1.1522883867
 20
-4.0107171752
 10
1.1920472644
 20
-4.0043249343
 10
1.2300777128
 20
-3.9947232693
 10
1.2657772731
 20
-3.9816781367
 10
1.2988810131
 20
-3.9653329546
 10
1.3298639893
 20
-3.9452183987
 10
1.3579202257
 20
-3.9211404607
 10
1.3818283511
 20
-3.893184499
 10
1.4010768772
 20
-3.8607553548
 10
1.415605294
 20
-3.8236013155
 10
1.4249075756
 20
-3.7833691
 10
1.4289519945
 20
-3.7429869904
 10
1.4284900159
 20
-3.7043771731
 10
1.4243797159
 20
-3.6671704442
 10
1.4172509888
 20
-3.6307828298
 10
1.4076417706
 20
-3.5950140381
 10
1.3961483156
 20
-3.5599910366
 10
1.3833031269
 20
-3.5256376007
 10
1.3696518179
 20
-3.4919842821
 10
1.3554612672
 20
-3.4589370979
 10
1.3406209219
 20
-3.4262496502
 10
1.3250486335
 20
-3.3938247812
 10
1.3087448773
 20
-3.3617430168
 10
1.2916923814
 20
-3.3300344452
 10
1.2738853173
 20
-3.2987368013
 10
1.2553203301
 20
-3.2678876089
 10
1.2360009572
 20
-3.2375373182
  0
LWPOLYLINE
  5
2CD
100
AcDbEntity
  8
0
100
AcDbPolyline
 62
7
  6
CONTINUOUS
 90
9
 70
0
 10
-0.5780004585
 20
-3.0944579151
 10
-0.5404453107
 20
-3.1361123121
 10
-0.5015082016
 20
-3.1786068092
 10
-0.4610227529
 20
-3.2217603493
 10
-0.4186884815
 20
-3.2653040555
 10
-0.3741422322
 20
-3.3091602921
 10
-0.327228208
 20
-3.3532118935
 10
-0.2778984336
 20
-3.397227937
 10
-0.2262104575
 20
-3.4412243153
  0
LINE
  5
2CE
100
AcDbEntity
  8
0
100
AcDbLine
 62
7
  6
CONTINUOUS
 10
-1.4952400159
 20
-3.5887003182
 11
-1.9376910159
 21
-3.0399603182
  0
LINE
  5
2CF
100
AcDbEntity
  8
0
100
AcDbLine
 62
7
  6
CONTINUOUS
 10
-1.5809330159
 20
-2.2199013182
 11
-1.8830200159
 21
-1.8453443182
  0
LINE
  5
2D0
100
AcDbEntity
  8
0
100
AcDbLine
 62
7
  6
CONTINUOUS
 10
-1.6193300159
 20
-4.0893813182
 11
-3.5333090159
 21
-1.7154063182
  0
LINE
  5
2D1
100
AcDbEntity
  8
0
100
AcDbLine
 62
7
  6
CONTINUOUS
 10
-3.2937760159
 20
-1.8453443182
 11
-1.5862730159
 21
-3.9635123182
  0
LINE
  5
2D2
100
AcDbEntity
  8
0
100
AcDbLine
 62
7
  6
CONTINUOUS
 10
-0.1297470159
 20
-3.9635123182
 11
-0.4318340159
 21
-3.5887003182
  0
LINE
  5
2D3
100
AcDbEntity
  8
0
100
AcDbLine
 62
7
  6
CONTINUOUS
 10
-2.2397770159
 20
-2.6654033182
 11
-2.5988230159
 21
-2.2199013182
  0
LINE
  5
2D4
100
AcDbEntity
  8
0
100
AcDbLine
 62
7
  6
CONTINUOUS
 10
-1.0026960159
 20
-3.0399603182
 11
-1.3045290159
 21
-2.6654033182
  0
LWPOLYLINE
  5
2D5
100
AcDbEntity
  8
0
100
AcDbPolyline
 62
7
  6
CONTINUOUS
 90
8
 70
0
 10
-0.858540761
 20
-2.7528162008
 10
-0.8049155236
 20
-2.8229541638
 10
-0.7770905033
 20
-2.860050262
 10
-0.7480743309
 20
-2.8980105024
 10
-0.7170485549
 20
-2.9361584837
 10
-0.6840691241
 20
-2.9745323146
 10
-0.6497375285
 20
-3.0136040126
 10
-0.5780004585
 20
-3.0944579151
  0
LWPOLYLINE
  5
2D6
100
AcDbEntity
  8
SUPERFICI
100
AcDbPolyline
 62
250
  6
CONTINUOUS
 90
7
 70
0
 10
5.5480259572
 20
-15.455230883
 10
5.7171487474
 20
-15.6992584254
 10
5.8941367484
 20
-15.9355201613
 10
6.075887927
 20
-16.1638013512
 10
6.2578418984
 20
-16.3817825195
 10
6.4385845708
 20
-16.5914152337
 10
6.8014029488
 20
-17.0051485293
  0
LWPOLYLINE
  5
2D7
100
AcDbEntity
  8
SUPERFICI
100
AcDbPolyline
 62
250
  6
CONTINUOUS
 90
3
 70
0
 10
-9.3613998698
 20
21.5423077039
 10
-9.3821598076
 20
21.6297394714
 10
-9.3993563846
 20
21.6931265764
  0
LINE
  5
2D8
100
AcDbEntity
  8
0
100
AcDbLine
 62
7
  6
CONTINUOUS
 10
-2.0402061278
 20
-13.7193801383
 11
-2.0401064913
 21
-14.4187819352
  0
LINE
  5
2D9
100
AcDbEntity
  8
0
100
AcDbLine
 62
7
  6
CONTINUOUS
 10
-1.9151549514
 20
-15.188765764
 11
-1.915175129
 21
-15.0471285052
  0
LINE
  5
2DA
100
AcDbEntity
  8
0
100
AcDbLine
 62
7
  6
CONTINUOUS
 10
-1.9150994656
 20
-15.4916359101
 11
-1.9151209452
 21
-15.3408588965
  0
LINE
  5
2DB
100
AcDbEntity
  8
0
100
AcDbLine
 62
7
  6
CONTINUOUS
 10
-1.9151974201
 20
-14.8040408358
 11
-1.9154329109
 21
-13.1510048888
  0
LINE
  5
2DC
100
AcDbEntity
  8
0
100
AcDbLine
 62
7
  6
CONTINUOUS
 10
-1.7724201064
 20
-15.3202676771
 11
-1.7723956934
 21
-15.4916359101
  0
LINE
  5
2DD
100
AcDbEntity
  8
0
100
AcDbLine
 62
7
  6
CONTINUOUS
 10
-1.7668197911
 20
-13.1454210751
 11
-1.7665303756
 21
-15.1769834249
  0
LINE
  5
2DE
100
AcDbEntity
  8
0
100
AcDbLine
 62
7
  6
CONTINUOUS
 10
-1.5510459477
 20
-12.7674535422
 11
-1.551049175
 21
-12.7447995108
  0
LINE
  5
2DF
100
AcDbEntity
  8
0
100
AcDbLine
 62
7
  6
CONTINUOUS
 10
-1.5509979901
 20
-13.0225736787
 11
-1.5510114768
 21
-12.9279035595
  0
LINE
  5
2E0
100
AcDbEntity
  8
0
100
AcDbLine
 62
7
  6
CONTINUOUS
 10
-1.5509564451
 20
-13.2274892986
 11
-1.5509652807
 21
-13.1654676203
  0
LINE
  5
2E1
100
AcDbEntity
  8
0
100
AcDbLine
 62
7
  6
CONTINUOUS
 10
-1.4226936788
 20
-12.8692941195
 11
-1.4226902961
 21
-12.8930389583
  0
LINE
  5
2E2
100
AcDbEntity
  8
0
100
AcDbLine
 62
7
  6
CONTINUOUS
 10
-1.1817353393
 20
-13.0568913047
 11
-1.1817620644
 21
-12.8692941195
  0
LINE
  5
2E3
100
AcDbEntity
  8
0
100
AcDbLine
 62
7
  6
CONTINUOUS
 10
-1.0591211399
 20
-14.4425152896
 11
-1.0592452673
 21
-13.5711983317
  0
LINE
  5
2E4
100
AcDbEntity
  8
0
100
AcDbLine
 62
7
  6
CONTINUOUS
 10
-1.0534651434
 20
-12.7447995108
 11
-1.0534189873
 21
-13.0687941252
  0
LINE
  5
2E5
100
AcDbEntity
  8
0
100
AcDbLine
 62
7
  6
CONTINUOUS
 10
-1.0533984925
 20
-13.2116873178
 11
-1.0533962414
 21
-13.2274892986
  0
LINE
  5
2E6
100
AcDbEntity
  8
0
100
AcDbLine
 62
7
  6
CONTINUOUS
 10
-0.7738209223
 20
-13.6891390057
 11
-0.7737135966
 21
-14.4425152896
  0
LINE
  5
2E7
100
AcDbEntity
  8
0
100
AcDbLine
 62
7
  6
CONTINUOUS
 10
-1.7752550159
 20
8.7734886818
 11
-1.7752550159
 21
10.8235806818
  0
LINE
  5
2E8
100
AcDbEntity
  8
0
100
AcDbLine
 62
7
  6
CONTINUOUS
 10
-1.3652400159
 20
10.1253866818
 11
-1.3652400159
 21
8.7734886818
  0
LINE
  5
2E9
100
AcDbEntity
  8
0
100
AcDbLine
 62
7
  6
CONTINUOUS
 10
-1.0931680159
 20
-6.6534233182
 11
-1.0931680159
 21
-7.4042403182
  0
LINE
  5
2EA
100
AcDbEntity
  8
0
100
AcDbLine
 62
7
  6
CONTINUOUS
 10
-1.0931680159
 20
-10.9986803182
 11
-1.0931680159
 21
-11.7494973182
  0
LINE
  5
2EB
100
AcDbEntity
  8
0
100
AcDbLine
 62
7
  6
CONTINUOUS
 10
-0.6066920159
 20
3.5641016818
 11
-0.6066920159
 21
3.8339426818
  0
LINE
  5
2EC
100
AcDbEntity
  8
0
100
AcDbLine
 62
7
  6
CONTINUOUS
 10
-0.5978800159
 20
5.7510226818
 11
-0.5978800159
 21
6.0223476818
  0
LINE
  5
2ED
100
AcDbEntity
  8
0
100
AcDbLine
 62
7
  6
CONTINUOUS
 10
-0.3675560159
 20
3.8339426818
 11
-0.3675560159
 21
4.7286166818
  0
LINE
  5
2EE
100
AcDbEntity
  8
0
100
AcDbLine
 62
7
  6
CONTINUOUS
 10
-0.3675560159
 20
5.0630186818
 11
-0.3675560159
 21
5.7510226818
  0
LINE
  5
2EF
100
AcDbEntity
  8
0
100
AcDbLine
 62
250
  6
CONTINUOUS
 10
-0.2257748271
 20
-13.2171461271
 11
-0.2256140159
 21
-14.0643866491
  0
LINE
  5
2F0
100
AcDbEntity
  8
DRAFT
100
AcDbLine
 62
250
  6
CONTINUOUS
 10
-0.2256140159
 20
-22.0157004994
 11
-0.2256140159
 21
-22.0552719774
  0
LINE
  5
2F1
100
AcDbEntity
  8
0
100
AcDbLine
 62
7
  6
CONTINUOUS
 10
-0.2256140159
 20
-22.0552719774
 11
-0.2256140159
 21
-30.3365008325
  0
LINE
  5
2F2
100
AcDbEntity
  8
DRAFT
100
AcDbLine
 62
250
  6
CONTINUOUS
 10
-0.2256140159
 20
21.612779863
 11
-0.2256140159
 21
21.652351341
  0
LINE
  5
2F3
100
AcDbEntity
  8
0
100
AcDbLine
 62
7
  6
CONTINUOUS
 10
-0.2256140159
 20
21.652351341
 11
-0.2256140159
 21
30.1985396818
  0
LINE
  5
2F4
100
AcDbEntity
  8
0
100
AcDbLine
 62
7
  6
CONTINUOUS
 10
-0.1799400159
 20
8.7734886818
 11
-0.1799450159
 21
10.1253866818
  0
LINE
  5
2F5
100
AcDbEntity
  8
0
100
AcDbLine
 62
7
  6
CONTINUOUS
 10
-0.0800910159
 20
5.7510226818
 11
-0.0800910159
 21
5.0630186818
  0
LINE
  5
2F6
100
AcDbEntity
  8
0
100
AcDbLine
 62
7
  6
CONTINUOUS
 10
-0.0800910159
 20
4.7316346818
 11
-0.0800910159
 21
3.8339426818
  0
LWPOLYLINE
  5
2F7
100
AcDbEntity
  8
0
100
AcDbPolyline
 62
250
  6
CONTINUOUS
 90
3
 70
0
 10
-0.2255698866
 20
-3.7102861368
 10
-0.2256415954
 20
3.3260089674
 10
-0.225614018
 20
3.371336975
  0
LINE
  5
2F8
100
AcDbEntity
  8
0
100
AcDbLine
 62
250
  6
CONTINUOUS
 10
-0.2255027211
 20
10.1254064564
 11
-0.2256140159
 21
15.9736748131
  0
LINE
  5
2F9
100
AcDbEntity
  8
0
100
AcDbLine
 62
250
  6
CONTINUOUS
 10
-0.2256140159
 20
3.3713426818
 11
-0.2255027211
 21
10.1254064564
  0
LINE
  5
2FA
100
AcDbEntity
  8
0
100
AcDbLine
 62
250
  6
CONTINUOUS
 10
-0.2255698866
 20
-3.7102861368
 11
-0.2256140159
 21
-13.1457011658
  0
LWPOLYLINE
  5
2FB
100
AcDbEntity
  8
0
100
AcDbPolyline
 62
250
  6
CONTINUOUS
 90
3
 70
0
 10
-0.2256140261
 20
-14.0643865152
 10
-0.2256649182
 20
-14.0916109499
 10
-0.2255488032
 20
-14.2238187961
  0
LINE
  5
2FC
100
AcDbEntity
  8
0
100
AcDbLine
 62
250
  6
CONTINUOUS
 10
-0.2255488032
 20
-14.2238187961
 11
-0.2256140159
 21
-16.3765954496
  0
LINE
  5
2FD
100
AcDbEntity
  8
0
100
AcDbLine
 62
250
  6
CONTINUOUS
 10
-0.225614022
 20
-13.1457020638
 11
-0.2257748271
 21
-13.2171461271
  0
LWPOLYLINE
  5
2FE
100
AcDbEntity
  8
0
100
AcDbPolyline
 62
7
  6
CONTINUOUS
 90
22
 70
0
 10
-2.318704505
 20
-13.7193917149
 10
-2.3144110153
 20
-13.6863991641
 10
-2.309711091
 20
-13.653557953
 10
-2.3045544786
 20
-13.6208653839
 10
-2.2988917642
 20
-13.5883205963
 10
-2.2926734432
 20
-13.5559191132
 10
-2.2858495882
 20
-13.5236528913
 10
-2.2783742535
 20
-13.4915301366
 10
-2.2701971854
 20
-13.4595374775
 10
-2.2612597648
 20
-13.4276348664
 10
-2.2515164507
 20
-13.3958344361
 10
-2.2409129923
 20
-13.3641215419
 10
-2.2293538789
 20
-13.3324887635
 10
-2.2167511479
 20
-13.301110393
 10
-2.2030082214
 20
-13.2701521706
 10
-2.1879787951
 20
-13.2396916813
 10
-2.1715454933
 20
-13.2099030483
 10
-2.1536026061
 20
-13.1809948863
 10
-2.1339971274
 20
-13.1531173814
 10
-2.1125875308
 20
-13.1264693547
 10
-2.089252739
 20
-13.1012914142
 10
-2.0638557541
 20
-13.0778152195
  0
LINE
  5
2FF
100
AcDbEntity
  8
0
100
AcDbLine
 62
7
  6
CONTINUOUS
 10
0.1124629841
 20
-0.0685283182
 11
-0.3090150159
 21
-1.5892823182
  0
LINE
  5
300
100
AcDbEntity
  8
0
100
AcDbLine
 62
7
  6
CONTINUOUS
 10
1.0428749841
 20
9.1766566818
 11
0.9134329841
 21
8.7734936818
  0
LINE
  5
301
100
AcDbEntity
  8
0
100
AcDbLine
 62
7
  6
CONTINUOUS
 10
1.3666419841
 20
10.1850876818
 11
1.1679399841
 21
9.5661716818
  0
LWPOLYLINE
  5
302
100
AcDbEntity
  8
SUPERFICI
100
AcDbPolyline
 62
250
  6
CONTINUOUS
 90
11
 70
0
 10
-8.5121425459
 20
-19.0427421637
 10
-8.6496140541
 20
-19.4277796504
 10
-8.7728752456
 20
-19.7850545597
 10
-8.8801079984
 20
-20.1127493148
 10
-8.9720270663
 20
-20.4121695464
 10
-9.0513187429
 20
-20.6868876621
 10
-9.119477961
 20
-20.9370040524
 10
-9.1777881969
 20
-21.1622106559
 10
-9.2278010211
 20
-21.3645133182
 10
-9.2703657666
 20
-21.5440184495
 10
-9.3062215883
 20
-21.7003968232
  0
LINE
  5
303
100
AcDbEntity
  8
SUPERFICI
100
AcDbLine
 62
250
  6
CONTINUOUS
 10
-8.3622236642
 20
-18.630815495
 11
-8.5121425459
 21
-19.0427421637
  0
LINE
  5
304
100
AcDbEntity
  8
0
100
AcDbLine
 62
7
  6
CONTINUOUS
 10
0.8924099841
 20
2.9069866818
 11
0.7515989841
 21
2.7073666818
  0
LINE
  5
305
100
AcDbEntity
  8
0
100
AcDbLine
 62
7
  6
CONTINUOUS
 10
-0.4498880159
 20
0.1538196818
 11
-0.1478010159
 21
0.5286306818
  0
LINE
  5
306
100
AcDbEntity
  8
0
100
AcDbLine
 62
7
  6
CONTINUOUS
 10
-3.5333090159
 20
-1.7154063182
 11
-1.6193300159
 21
0.6588236818
  0
LINE
  5
307
100
AcDbEntity
  8
0
100
AcDbLine
 62
7
  6
CONTINUOUS
 10
-1.5872900159
 20
0.5286306818
 11
-3.2950470159
 21
-1.5892823182
  0
LINE
  5
308
100
AcDbEntity
  8
0
100
AcDbLine
 62
7
  6
CONTINUOUS
 10
-2.5922120159
 20
-1.2147253182
 11
-2.1497620159
 21
-0.6659853182
  0
LINE
  5
309
100
AcDbEntity
  8
0
100
AcDbLine
 62
7
  6
CONTINUOUS
 10
0.2122619841
 20
0.5286306818
 11
-1.4952400159
 21
-1.5892823182
  0
LINE
  5
30A
100
AcDbEntity
  8
0
100
AcDbLine
 62
7
  6
CONTINUOUS
 10
-1.1135630159
 20
-1.5892823182
 11
0.1124629841
 21
-0.0685283182
  0
LINE
  5
30B
100
AcDbEntity
  8
0
100
AcDbLine
 62
7
  6
CONTINUOUS
 10
-1.1954420159
 20
-0.6659853182
 11
-0.8933550159
 21
-0.2914283182
  0
LINE
  5
30C
100
AcDbEntity
  8
0
100
AcDbLine
 62
7
  6
CONTINUOUS
 10
-1.8087700159
 20
-1.5892823182
 11
-1.5066830159
 21
-1.2147253182
  0
LINE
  5
30D
100
AcDbEntity
  8
0
100
AcDbLine
 62
7
  6
CONTINUOUS
 10
-1.8479290159
 20
-0.2914283182
 11
-1.4886290159
 21
0.1538196818
  0
LWPOLYLINE
  5
30E
100
AcDbEntity
  8
0
100
AcDbPolyline
 62
7
  6
CONTINUOUS
 90
25
 70
0
 10
1.4663803135
 20
-1.2439677328
 10
1.4494305831
 20
-1.2447212905
 10
1.4323714124
 20
-1.2479716624
 10
1.4156452046
 20
-1.2537966427
 10
1.3997308897
 20
-1.2622253617
 10
1.3850154212
 20
-1.2732398153
 10
1.371817179
 20
-1.2868001757
 10
1.3601493494
 20
-1.3026172563
 10
1.349853384
 20
-1.3200685181
 10
1.3407652248
 20
-1.3386418398
 10
1.3328573628
 20
-1.3582011429
 10
1.3260368257
 20
-1.3787305935
 10
1.320167209
 20
-1.4002270328
 10
1.3151223722
 20
-1.422603814
 10
1.3108347742
 20
-1.4457470681
 10
1.3072549533
 20
-1.4696200432
 10
1.3042806231
 20
-1.4941779558
 10
1.3017580901
 20
-1.5194012666
 10
1.299673215
 20
-1.5453032733
 10
1.2982007898
 20
-1.5718684127
 10
1.2972697877
 20
-1.5991026769
 10
1.2964976003
 20
-1.6270660072
 10
1.2959063135
 20
-1.6557847382
 10
1.2955980048
 20
-1.6852327964
 10
1.2956691801
 20
-1.7154062589
  0
LINE
  5
30F
100
AcDbEntity
  8
0
100
AcDbLine
 62
7
  6
CONTINUOUS
 10
2.1086962294
 20
-1.9620593182
 11
2.4504510305
 21
-1.9620593182
  0
LINE
  5
310
100
AcDbEntity
  8
0
100
AcDbLine
 62
7
  6
CONTINUOUS
 10
-1.8830200159
 20
-1.8453443182
 11
-3.2937760159
 21
-1.8453443182
  0
LINE
  5
311
100
AcDbEntity
  8
0
100
AcDbLine
 62
7
  6
CONTINUOUS
 10
-3.2950470159
 20
-1.5892823182
 11
-1.8087700159
 21
-1.5892823182
  0
LINE
  5
312
100
AcDbEntity
  8
0
100
AcDbLine
 62
7
  6
CONTINUOUS
 10
-1.4952400159
 20
-1.5892823182
 11
-1.1135630159
 21
-1.5892823182
  0
LINE
  5
313
100
AcDbEntity
  8
0
100
AcDbLine
 62
7
  6
CONTINUOUS
 10
-0.3090150159
 20
-1.5892823182
 11
0.0998699841
 21
-1.5892823182
  0
LINE
  5
314
100
AcDbEntity
  8
0
100
AcDbLine
 62
7
  6
CONTINUOUS
 10
2.4748620869
 20
-1.4448503182
 11
2.1468385202
 21
-1.4448503182
  0
LINE
  5
315
100
AcDbEntity
  8
0
100
AcDbLine
 62
7
  6
CONTINUOUS
 10
-1.5066830159
 20
-1.2147253182
 11
-2.5922120159
 21
-1.2147253182
  0
LINE
  5
316
100
AcDbEntity
  8
0
100
AcDbLine
 62
7
  6
CONTINUOUS
 10
-2.1497620159
 20
-0.6659853182
 11
-1.1954420159
 21
-0.6659853182
  0
LINE
  5
317
100
AcDbEntity
  8
0
100
AcDbLine
 62
7
  6
CONTINUOUS
 10
-0.8933550159
 20
-0.2914283182
 11
-1.8479290159
 21
-0.2914283182
  0
LINE
  5
318
100
AcDbEntity
  8
0
100
AcDbLine
 62
250
  6
CONTINUOUS
 10
9.7758145591
 20
-0.2014603182
 11
-10.227042591
 21
-0.2014603182
  0
LWPOLYLINE
  5
319
100
AcDbEntity
  8
0
100
AcDbPolyline
 62
7
  6
CONTINUOUS
 90
17
 70
0
 10
2.646720796
 20
-1.2828106417
 10
2.626855904
 20
-1.28250346
 10
2.6079249562
 20
-1.2842270646
 10
2.5899455941
 20
-1.2877954625
 10
2.5731677988
 20
-1.2930892686
 10
2.5579380114
 20
-1.299904785
 10
2.5442275467
 20
-1.3081172809
 10
2.5317254288
 20
-1.3177557591
 10
2.5205305899
 20
-1.3286704955
 10
2.5107367161
 20
-1.3406054589
 10
2.5021411879
 20
-1.3535954751
 10
2.49472461
 20
-1.3675870939
 10
2.4885758655
 20
-1.382325081
 10
2.4836562359
 20
-1.3975742974
 10
2.4798335582
 20
-1.413147414
 10
2.4769529351
 20
-1.428931139
 10
2.4748620869
 20
-1.4448503182
  0
LWPOLYLINE
  5
31A
100
AcDbEntity
  8
0
100
AcDbPolyline
 62
7
  6
CONTINUOUS
 90
24
 70
0
 10
2.5603009841
 20
-1.5747884205
 10
2.5877592453
 20
-1.5762246317
 10
2.6144195956
 20
-1.5756220271
 10
2.6400764182
 20
-1.5727200218
 10
2.6642585067
 20
-1.5673692
 10
2.6869461164
 20
-1.5596263332
 10
2.7081703581
 20
-1.5493409008
 10
2.7271821961
 20
-1.5361150472
 10
2.7431304208
 20
-1.5199434949
 10
2.7557723201
 20
-1.501268864
 10
2.7654454492
 20
-1.4809427132
 10
2.7720950615
 20
-1.4597191907
 10
2.7754892309
 20
-1.4380932693
 10
2.776155203
 20
-1.4164747228
 10
2.7746995921
 20
-1.3951612821
 10
2.7706773741
 20
-1.374473091
 10
2.763623644
 20
-1.3548840108
 10
2.7534915302
 20
-1.3369558094
 10
2.7403014372
 20
-1.3211330168
 10
2.7243594789
 20
-1.3079405697
 10
2.7063497711
 20
-1.2977106941
 10
2.6871446381
 20
-1.2902943188
 10
2.6671012751
 20
-1.2853834291
 10
2.646720796
 20
-1.2828106417
  0
LWPOLYLINE
  5
31B
100
AcDbEntity
  8
0
100
AcDbPolyline
 62
7
  6
CONTINUOUS
 90
33
 70
0
 10
1.4663803135
 20
-0.9062814531
 10
1.4956209761
 20
-0.9089708787
 10
1.5258375879
 20
-0.9108753428
 10
1.5569146163
 20
-0.9135197444
 10
1.5887450175
 20
-0.9185633935
 10
1.6207850124
 20
-0.9270041309
 10
1.6522698494
 20
-0.9396365572
 10
1.6838885564
 20
-0.9551006748
 10
1.7164071696
 20
-0.9708213081
 10
1.7457227388
 20
-0.9921011353
 10
1.7734981028
 20
-1.0156960901
 10
1.8004151007
 20
-1.0402711112
 10
1.8255209711
 20
-1.0658555215
 10
1.8479580271
 20
-1.0927927953
 10
1.8674913505
 20
-1.1212021003
 10
1.8841682661
 20
-1.1504948087
 10
1.8985090555
 20
-1.1802113829
 10
1.9116965611
 20
-1.2096644802
 10
1.9237483023
 20
-1.2383851343
 10
1.9343436651
 20
-1.2663331861
 10
1.9434029123
 20
-1.2936360346
 10
1.9512169839
 20
-1.3201525454
 10
1.9581209372
 20
-1.3456408569
 10
1.964428185
 20
-1.3700985499
 10
1.970202157
 20
-1.3938087718
 10
1.9752128308
 20
-1.4168131813
 10
1.9794122645
 20
-1.4391359915
 10
1.9829349452
 20
-1.4610971305
 10
1.9858356209
 20
-1.482670683
 10
1.9881648179
 20
-1.5038252139
 10
1.9900489921
 20
-1.524883443
 10
1.9917709541
 20
-1.5458746639
 10
1.9955595956
 20
-1.5876379112
  0
LWPOLYLINE
  5
31C
100
AcDbEntity
  8
0
100
AcDbPolyline
 62
7
  6
CONTINUOUS
 90
10
 70
0
 10
-0.2256035908
 20
-2.2085106525
 10
-0.1689701508
 20
-2.2288870843
 10
-0.112413993
 20
-2.2539170355
 10
-0.0561052677
 20
-2.2833915997
 10
-0.0001587351
 20
-2.3169633782
 10
0.0551989577
 20
-2.3546039549
 10
0.1099195762
 20
-2.3959390116
 10
0.1638944272
 20
-2.4408437864
 10
0.2176714436
 20
-2.4884923944
 10
0.2715096997
 20
-2.5385163182
  0
LWPOLYLINE
  5
31D
100
AcDbEntity
  8
0
100
AcDbPolyline
 62
7
  6
CONTINUOUS
 90
44
 70
0
 10
-0.2256109059
 20
-1.9031546231
 10
-0.288223748
 20
-1.878510751
 10
-0.3494935297
 20
-1.8567664814
 10
-0.4099179909
 20
-1.8396063045
 10
-0.4689727694
 20
-1.8258406455
 10
-0.5263048298
 20
-1.8141571128
 10
-0.5818696148
 20
-1.8036315107
 10
-0.6357917888
 20
-1.795624134
 10
-0.6882192771
 20
-1.7913470639
 10
-0.7393004729
 20
-1.7901601967
 10
-0.789019567
 20
-1.7914183926
 10
-0.8371666369
 20
-1.7945720499
 10
-0.8834177299
 20
-1.7997657807
 10
-0.9271767947
 20
-1.8078143425
 10
-0.968212075
 20
-1.8193886992
 10
-1.0065540781
 20
-1.835011076
 10
-1.0417161871
 20
-1.8545373049
 10
-1.0732557225
 20
-1.8777065685
 10
-1.1001613359
 20
-1.9047309637
 10
-1.1207386962
 20
-1.9354523018
 10
-1.1355518156
 20
-1.968883523
 10
-1.1464985442
 20
-2.0042757504
 10
-1.155021343
 20
-2.040510322
 10
-1.1603774863
 20
-2.0768305486
 10
-1.1603185965
 20
-2.1136870456
 10
-1.1559494183
 20
-2.150880447
 10
-1.1489528001
 20
-2.1878451973
 10
-1.1403628555
 20
-2.2240735634
 10
-1.1303187097
 20
-2.2595003076
 10
-1.1188504966
 20
-2.2942878704
 10
-1.1060295133
 20
-2.3285202645
 10
-1.0920300307
 20
-2.3621937379
 10
-1.0770241004
 20
-2.3953297037
 10
-1.0611434535
 20
-2.4280186485
 10
-1.0445791058
 20
-2.4601768815
 10
-1.0273673641
 20
-2.4919437273
 10
-1.0093710635
 20
-2.5237311835
 10
-0.9906473997
 20
-2.5555748356
 10
-0.9712586155
 20
-2.5874997766
 10
-0.9509753626
 20
-2.6198350532
 10
-0.9297162432
 20
-2.652520576
 10
-0.9074025218
 20
-2.6854724665
 10
-0.8837182542
 20
-2.7189184806
 10
-0.858540761
 20
-2.7528162008
  0
LWPOLYLINE
  5
31E
100
AcDbEntity
  8
0
100
AcDbPolyline
 62
7
  6
CONTINUOUS
 90
31
 70
0
 10
2.9732544805
 20
-1.6721783466
 10
2.9880630963
 20
-1.6802728152
 10
3.0025374728
 20
-1.6888852842
 10
3.016589986
 20
-1.6981251392
 10
3.0300593002
 20
-1.7080482434
 10
3.0428431642
 20
-1.7187554655
 10
3.0549233613
 20
-1.7304369534
 10
3.066264034
 20
-1.7429925434
 10
3.0770401179
 20
-1.7562642806
 10
3.0875436663
 20
-1.7703587302
 10
3.0975815685
 20
-1.7853726475
 10
3.1068063084
 20
-1.8014350748
 10
3.1151533254
 20
-1.8187948905
 10
3.122706059
 20
-1.8373113174
 10
3.1294932392
 20
-1.8568856943
 10
3.1355656821
 20
-1.877671154
 10
3.1407904522
 20
-1.8997100315
 10
3.1447940238
 20
-1.9229078074
 10
3.1473775062
 20
-1.9472047764
 10
3.1488758136
 20
-1.9726394953
 10
3.1496155267
 20
-1.9990502218
 10
3.1493543454
 20
-2.0260512599
 10
3.1477011946
 20
-2.0534596948
 10
3.1442216276
 20
-2.0812525329
 10
3.1393942852
 20
-2.1094405981
 10
3.1350364516
 20
-2.1382571217
 10
3.1282270293
 20
-2.1670524045
 10
3.1190635819
 20
-2.1959766039
 10
3.1100258889
 20
-2.2255953081
 10
3.0984137109
 20
-2.2550879547
 10
3.0833537422
 20
-2.283777185
  0
LWPOLYLINE
  5
31F
100
AcDbEntity
  8
0
100
AcDbPolyline
 62
7
  6
CONTINUOUS
 90
18
 70
0
 10
2.337818241
 20
-2.4558947835
 10
2.3088441864
 20
-2.4375814965
 10
2.2814086752
 20
-2.417022671
 10
2.256139753
 20
-2.3940612968
 10
2.2337339442
 20
-2.3684170248
 10
2.2130319333
 20
-2.3412999068
 10
2.1937230946
 20
-2.3131555509
 10
2.1768691108
 20
-2.2835411875
 10
2.1622073884
 20
-2.2529788815
 10
2.1488263059
 20
-2.222272987
 10
2.1374302132
 20
-2.1910787486
 10
2.1286542451
 20
-2.1590678654
 10
2.1222605049
 20
-2.1265403732
 10
2.1177280909
 20
-2.0938179535
 10
2.1141885473
 20
-2.0609777613
 10
2.1114818324
 20
-2.0280442086
 10
2.1096409301
 20
-1.9950635458
 10
2.1086962294
 20
-1.9620593182
  0
LWPOLYLINE
  5
320
100
AcDbEntity
  8
0
100
AcDbPolyline
 62
7
  6
CONTINUOUS
 90
13
 70
0
 10
0.6722579196
 20
-2.5385163182
 10
0.6004658982
 20
-2.4609336566
 10
0.5262301015
 20
-2.388537748
 10
0.4505061328
 20
-2.3206981859
 10
0.3737376433
 20
-2.2565134286
 10
0.2958638946
 20
-2.1970036402
 10
0.218079316
 20
-2.1426291017
 10
0.1424080122
 20
-2.0916551441
 10
0.0674014826
 20
-2.0456530674
 10
-0.0076254275
 20
-2.0049020343
 10
-0.0813468613
 20
-1.9669623728
 10
-0.1540026162
 20
-1.9330088381
 10
-0.2256109059
 20
-1.9031546231
  0
LWPOLYLINE
  5
321
100
AcDbEntity
  8
0
100
AcDbPolyline
 62
7
  6
CONTINUOUS
 90
46
 70
0
 10
-0.225632016
 20
-3.032880532
 10
-0.2563368456
 20
-2.9978699424
 10
-0.2858437557
 20
-2.9634967981
 10
-0.3139070923
 20
-2.9295850052
 10
-0.3403017956
 20
-2.8960166005
 10
-0.3654006277
 20
-2.863035308
 10
-0.3900268446
 20
-2.8311354044
 10
-0.4141224129
 20
-2.8002951478
 10
-0.4366924356
 20
-2.7697974855
 10
-0.4573929105
 20
-2.7392503729
 10
-0.4772910947
 20
-2.7093950094
 10
-0.4970413983
 20
-2.6807053204
 10
-0.5157244396
 20
-2.6524691354
 10
-0.5324734863
 20
-2.6241293739
 10
-0.547764179
 20
-2.5960084975
 10
-0.5622705826
 20
-2.5684298772
 10
-0.5760744693
 20
-2.5414297644
 10
-0.5891461466
 20
-2.5150000558
 10
-0.6014848054
 20
-2.4890627106
 10
-0.6126830081
 20
-2.4634236373
 10
-0.6219547427
 20
-2.437828266
 10
-0.6291047661
 20
-2.4123448925
 10
-0.6342840724
 20
-2.3872129072
 10
-0.6376598937
 20
-2.3625813987
 10
-0.6393725983
 20
-2.3385396297
 10
-0.6390993907
 20
-2.3152979458
 10
-0.6361084573
 20
-2.2929550621
 10
-0.6299090122
 20
-2.2715249498
 10
-0.6208031708
 20
-2.2517061721
 10
-0.6091508634
 20
-2.2339905806
 10
-0.5949026965
 20
-2.2185099677
 10
-0.578307619
 20
-2.205772542
 10
-0.5599837188
 20
-2.1955319028
 10
-0.5400386869
 20
-2.1871831847
 10
-0.5185951912
 20
-2.180643837
 10
-0.4960299265
 20
-2.1759709162
 10
-0.472465456
 20
-2.1731056504
 10
-0.4479943621
 20
-2.1719581488
 10
-0.422685617
 20
-2.1723832278
 10
-0.396513827
 20
-2.1741924367
 10
-0.36953492
 20
-2.177146716
 10
-0.3418935996
 20
-2.1810035868
 10
-0.3136514621
 20
-2.1858645305
 10
-0.2848352825
 20
-2.1919749791
 10
-0.2554680286
 20
-2.1995282746
 10
-0.2256035908
 20
-2.2085106525
  0
LINE
  5
322
100
AcDbEntity
  8
0
100
AcDbLine
 62
7
  6
CONTINUOUS
 10
0.1352149841
 20
-1.7154063182
 11
2.0491939841
 21
-4.0893813182
  0
LWPOLYLINE
  5
323
100
AcDbEntity
  8
0
100
AcDbPolyline
 62
7
  6
CONTINUOUS
 90
55
 70
0
 10
0.8349985007
 20
-3.2375373182
 10
0.8468686329
 20
-3.2571237954
 10
0.8583817418
 20
-3.276855288
 10
0.8694566998
 20
-3.2967719938
 10
0.8800230042
 20
-3.3169325033
 10
0.8899767682
 20
-3.3373335895
 10
0.8991945233
 20
-3.3579182892
 10
0.9075883586
 20
-3.3786863049
 10
0.9150899922
 20
-3.3996759392
 10
0.9216105843
 20
-3.4208800477
 10
0.9269000228
 20
-3.4422830369
 10
0.9305634221
 20
-3.4638291152
 10
0.9322194818
 20
-3.4854232787
 10
0.9315296214
 20
-3.5069230213
 10
0.9281917715
 20
-3.5280591548
 10
0.92184802
 20
-3.5483436026
 10
0.9121178046
 20
-3.5670991035
 10
0.8989254937
 20
-3.5836976377
 10
0.8828720081
 20
-3.5979233453
 10
0.8648926142
 20
-3.6094392643
 10
0.8455850915
 20
-3.6182400429
 10
0.8247950567
 20
-3.6249412664
 10
0.8026629363
 20
-3.6299645439
 10
0.7795130642
 20
-3.6333646333
 10
0.7553211765
 20
-3.6352409159
 10
0.7300955332
 20
-3.6357380702
 10
0.7039879608
 20
-3.6349970254
 10
0.6771009218
 20
-3.6329682195
 10
0.64947347
 20
-3.6295502291
 10
0.6212184
 20
-3.6246603355
 10
0.592522755
 20
-3.6183264146
 10
0.563547001
 20
-3.6106432265
 10
0.5342124628
 20
-3.6016586097
 10
0.5043351251
 20
-3.5913171081
 10
0.4739082621
 20
-3.5795784892
 10
0.4430291661
 20
-3.566450891
 10
0.4116676856
 20
-3.5519051656
 10
0.3798570687
 20
-3.5359513724
 10
0.3476267034
 20
-3.5186064437
 10
0.3149473649
 20
-3.4998205168
 10
0.2818750354
 20
-3.4795754881
 10
0.2484393181
 20
-3.4578588781
 10
0.2145477312
 20
-3.4346458874
 10
0.1801781036
 20
-3.4099899602
 10
0.14534978
 20
-3.3839227584
 10
0.1100701587
 20
-3.3563312441
 10
0.0744364431
 20
-3.3271532962
 10
0.0384695163
 20
-3.2963633596
 10
0.0020658907
 20
-3.2639039969
 10
-0.0347638654
 20
-3.2298198433
 10
-0.0720331203
 20
-3.194118789
 10
-0.1098670196
 20
-3.1566809688
 10
-0.1481880582
 20
-3.1173725366
 10
-0.1867732007
 20
-3.0760982964
 10
-0.225632016
 20
-3.032880532
  0
LINE
  5
324
100
AcDbEntity
  8
SUPERFICI
100
AcDbLine
 62
250
  6
CONTINUOUS
 10
-8.3622236642
 20
18.2278948585
 11
-8.5121425459
 21
18.6398215272
  0
LWPOLYLINE
  5
325
100
AcDbEntity
  8
SUPERFICI
100
AcDbPolyline
 62
250
  6
CONTINUOUS
 90
12
 70
0
 10
-8.5121425459
 20
18.6398215272
 10
-8.6496140541
 20
19.0248590139
 10
-8.7728752456
 20
19.3821339233
 10
-8.8801079984
 20
19.7098286784
 10
-8.9720270663
 20
20.00924891
 10
-9.0513187429
 20
20.2839670256
 10
-9.119477961
 20
20.5340834159
 10
-9.1777881969
 20
20.7592900195
 10
-9.2278010211
 20
20.9615926817
 10
-9.2703657666
 20
21.1410978131
 10
-9.3062215883
 20
21.2974761867
 10
-9.3613998698
 20
21.5423077039
  0
LINE
  5
326
100
AcDbEntity
  8
0
100
AcDbLine
 62
7
  6
CONTINUOUS
 10
-3.9368620159
 20
8.7734836818
 11
-4.5950760159
 21
10.8235806818
  0
LINE
  5
327
100
AcDbEntity
  8
0
100
AcDbLine
 62
7
  6
CONTINUOUS
 10
-4.1850560159
 20
10.8235806818
 11
-3.7318420159
 21
9.4119816818
  0
LWPOLYLINE
  5
328
100
AcDbEntity
  8
0
100
AcDbPolyline
 62
7
  6
CONTINUOUS
 90
7
 70
0
 10
0.9372157985
 20
-1.8433439475
 10
0.9356371861
 20
-1.8222702271
 10
0.9347326092
 20
-1.8010918257
 10
0.9343022256
 20
-1.7798002883
 10
0.9340287678
 20
-1.7584082866
 10
0.9335868583
 20
-1.7369392679
 10
0.9326427372
 20
-1.7154062589
  0
LWPOLYLINE
  5
329
100
AcDbEntity
  8
0
100
AcDbPolyline
 62
7
  6
CONTINUOUS
 90
7
 70
0
 10
1.9955595956
 20
-1.5876379112
 10
1.9971321467
 20
-1.60869022
 10
1.99803161
 20
-1.6298449744
 10
1.9984597648
 20
-1.6511098822
 10
1.998732819
 20
-1.6724721319
 10
1.9991748153
 20
-1.6939085771
 10
2.0001178897
 20
-1.7154062589
  0
LINE
  5
32A
100
AcDbEntity
  8
0
100
AcDbLine
 62
7
  6
CONTINUOUS
 10
1.4086132775
 20
-14.9047206766
 11
1.4084497221
 21
-13.7566380972
  0
LINE
  5
32B
100
AcDbEntity
  8
0
100
AcDbLine
 62
7
  6
CONTINUOUS
 10
1.5511355448
 20
-13.7121606581
 11
1.5512782807
 21
-14.7141004963
  0
LINE
  5
32C
100
AcDbEntity
  8
0
100
AcDbLine
 62
7
  6
CONTINUOUS
 10
1.7659879108
 20
-14.7141004963
 11
1.7660254643
 21
-14.9777084783
  0
LINE
  5
32D
100
AcDbEntity
  8
0
100
AcDbLine
 62
7
  6
CONTINUOUS
 10
0.1501399841
 20
6.0223476818
 11
0.1501399841
 21
5.7510226818
  0
LINE
  5
32E
100
AcDbEntity
  8
0
100
AcDbLine
 62
7
  6
CONTINUOUS
 10
0.1589529841
 20
3.8339426818
 11
0.1589529841
 21
3.5641016818
  0
LINE
  5
32F
100
AcDbEntity
  8
0
100
AcDbLine
 62
7
  6
CONTINUOUS
 10
0.2300749841
 20
10.8235806818
 11
0.2300749841
 21
8.7734886818
  0
LWPOLYLINE
  5
330
100
AcDbEntity
  8
0
100
AcDbPolyline
 62
7
  6
CONTINUOUS
 90
25
 70
0
 10
1.2956691801
 20
-1.7154062589
 10
1.2955991971
 20
-1.74584026
 10
1.295913875
 20
-1.7754967457
 10
1.2965130529
 20
-1.8043717932
 10
1.2972916268
 20
-1.8324337154
 10
1.2982333147
 20
-1.8597142032
 10
1.2997273631
 20
-1.8862899255
 10
1.3018280371
 20
-1.9121767749
 10
1.3043590862
 20
-1.9373500663
 10
1.307338443
 20
-1.9618123489
 10
1.3109134876
 20
-1.9855362073
 10
1.3151794246
 20
-2.0084871262
 10
1.320182138
 20
-2.0306457585
 10
1.3259812807
 20
-2.0518971249
 10
1.332693914
 20
-2.0721641803
 10
1.3404569066
 20
-2.0914755921
 10
1.3493457689
 20
-2.1097932732
 10
1.3593883848
 20
-2.1270218112
 10
1.3707963766
 20
-2.1427832276
 10
1.3837721761
 20
-2.1564651596
 10
1.3983647255
 20
-2.1677089969
 10
1.414330353
 20
-2.176434928
 10
1.4313085533
 20
-2.182552056
 10
1.4488129808
 20
-2.1860176958
 10
1.4663803135
 20
-2.1868447851
  0
LWPOLYLINE
  5
331
100
AcDbEntity
  8
0
100
AcDbPolyline
 62
7
  6
CONTINUOUS
 90
25
 70
0
 10
1.6370914468
 20
-1.7154062589
 10
1.6371616597
 20
-1.6850219861
 10
1.6368482153
 20
-1.6554061636
 10
1.6362505963
 20
-1.6265627142
 10
1.6354733329
 20
-1.5985222215
 10
1.6345339311
 20
-1.5712540426
 10
1.6330445616
 20
-1.5446847874
 10
1.6309477238
 20
-1.518800971
 10
1.6284194044
 20
-1.493625004
 10
1.6254425117
 20
-1.4691507789
 10
1.6218688201
 20
-1.4454057765
 10
1.6176015993
 20
-1.4224248545
 10
1.6125927931
 20
-1.4002245099
 10
1.6067794334
 20
-1.3789156833
 10
1.6000423548
 20
-1.3585815696
 10
1.5922455425
 20
-1.3392053963
 10
1.5833098067
 20
-1.3208217404
 10
1.5732066296
 20
-1.3035337718
 10
1.5617347707
 20
-1.287750539
 10
1.5486986079
 20
-1.2740863148
 10
1.5340642271
 20
-1.2628878617
 10
1.5181014024
 20
-1.2542304787
 10
1.5011817213
 20
-1.2481860044
 10
1.4837885306
 20
-1.2447755669
 10
1.4663803135
 20
-1.2439677328
  0
LWPOLYLINE
  5
332
100
AcDbEntity
  8
0
100
AcDbPolyline
 62
7
  6
CONTINUOUS
 90
8
 70
0
 10
0.9326427372
 20
-1.7154062589
 10
0.933587181
 20
-1.6938623502
 10
0.9340292294
 20
-1.6723715395
 10
0.9343031401
 20
-1.6509468707
 10
0.9347357441
 20
-1.6296126927
 10
0.935646722
 20
-1.6083810096
 10
0.9372356894
 20
-1.587240905
 10
0.9410441247
 20
-1.5452213499
  0
LWPOLYLINE
  5
333
100
AcDbEntity
  8
0
100
AcDbPolyline
 62
7
  6
CONTINUOUS
 90
8
 70
0
 10
2.0001178897
 20
-1.7154062589
 10
1.9991734137
 20
-1.7369512553
 10
1.9987313685
 20
-1.758443037
 10
1.9984574461
 20
-1.7798685582
 10
1.9980247772
 20
-1.8012034566
 10
1.9971136542
 20
-1.8224357371
 10
1.9955245231
 20
-1.8435763516
 10
1.9917160346
 20
-1.8855967855
  0
LWPOLYLINE
  5
334
100
AcDbEntity
  8
0
100
AcDbPolyline
 62
7
  6
CONTINUOUS
 90
5
 70
0
 10
2.1512796998
 20
-1.3927357985
 10
2.1520717114
 20
-1.3818859691
 10
2.1531754211
 20
-1.3708288754
 10
2.1547672248
 20
-1.3596090833
 10
2.156948925
 20
-1.3481562939
  0
LWPOLYLINE
  5
335
100
AcDbEntity
  8
0
100
AcDbPolyline
 62
7
  6
CONTINUOUS
 90
32
 70
0
 10
0.9410441247
 20
-1.5452213499
 10
0.942772589
 20
-1.5241516781
 10
0.944670037
 20
-1.5030738776
 10
0.9470125301
 20
-1.4819555781
 10
0.9499092071
 20
-1.4605306644
 10
0.9534022466
 20
-1.4388265072
 10
0.9575364388
 20
-1.4168692539
 10
0.9624214066
 20
-1.39439958
 10
0.9680012114
 20
-1.3714119356
 10
0.9740607057
 20
-1.347848193
 10
0.9806314704
 20
-1.3234196033
 10
0.9879645787
 20
-1.2981633139
 10
0.9963486868
 20
-1.2722464742
 10
1.0061324793
 20
-1.2456616887
 10
1.0173327864
 20
-1.2183126451
 10
1.0296867567
 20
-1.1902530183
 10
1.0429837546
 20
-1.1616714937
 10
1.0581196428
 20
-1.1330896342
 10
1.0759530172
 20
-1.1049991495
 10
1.0966992523
 20
-1.0778684878
 10
1.1205021489
 20
-1.0519221543
 10
1.1465733417
 20
-1.0270050065
 10
1.1740105966
 20
-1.0030112285
 10
1.2027688422
 20
-0.9797481111
 10
1.2349643172
 20
-0.9614039327
 10
1.2681226478
 20
-0.9457273102
 10
1.3006729946
 20
-0.9309764645
 10
1.3344167312
 20
-0.920698069
 10
1.3684150181
 20
-0.9144399969
 10
1.4018324698
 20
-0.9112170096
 10
1.434529054
 20
-0.9091490303
 10
1.4663803135
 20
-0.9062814531
  0
LWPOLYLINE
  5
336
100
AcDbEntity
  8
0
100
AcDbPolyline
 62
7
  6
CONTINUOUS
 90
32
 70
0
 10
1.9917160346
 20
-1.8855967855
 10
1.9899875533
 20
-1.9066666476
 10
1.9880900289
 20
-1.9277442949
 10
1.9857474469
 20
-1.9488622317
 10
1.9828506811
 20
-1.9702868521
 10
1.9793575344
 20
-1.9919908637
 10
1.975223221
 20
-2.0139480395
 10
1.9703381066
 20
-2.0364177454
 10
1.9647581488
 20
-2.0594056131
 10
1.9586985134
 20
-2.0829697026
 10
1.9521275847
 20
-2.107398573
 10
1.9447942813
 20
-2.1326550018
 10
1.9364099224
 20
-2.1585719023
 10
1.9266258505
 20
-2.1851567151
 10
1.9154252767
 20
-2.2125058795
 10
1.9030711054
 20
-2.240565624
 10
1.8897739813
 20
-2.2691469524
 10
1.8746381405
 20
-2.297727798
 10
1.8568050747
 20
-2.3258170137
 10
1.836058733
 20
-2.3529471715
 10
1.8122543455
 20
-2.3788945433
 10
1.7861809525
 20
-2.4038132664
 10
1.758742553
 20
-2.4278076212
 10
1.7299852879
 20
-2.4510691332
 10
1.697791923
 20
-2.4694105969
 10
1.664636072
 20
-2.4850861631
 10
1.6320869789
 20
-2.4998363002
 10
1.5983440947
 20
-2.5101144014
 10
1.5643463154
 20
-2.5163724265
 10
1.5309290228
 20
-2.5195954483
 10
1.4982322032
 20
-2.5216634454
 10
1.4663803135
 20
-2.5245310648
  0
LWPOLYLINE
  5
337
100
AcDbEntity
  8
0
100
AcDbPolyline
 62
7
  6
CONTINUOUS
 90
5
 70
0
 10
2.1468385202
 20
-1.4448503182
 10
2.1482228955
 20
-1.4346751842
 10
2.149239153
 20
-1.4243536258
 10
2.150004258
 20
-1.4138987248
 10
2.1512796998
 20
-1.3927357985
  0
LINE
  5
338
100
AcDbEntity
  8
0
100
AcDbLine
 62
7
  6
CONTINUOUS
 10
0.2285049841
 20
-0.9563353182
 11
0.6430159841
 21
0.5286306818
  0
LWPOLYLINE
  5
339
100
AcDbEntity
  8
SUPERFICI
100
AcDbPolyline
 62
250
  6
CONTINUOUS
 90
11
 70
0
 10
8.060914514
 20
18.6398215272
 10
8.1983860222
 20
19.0248590139
 10
8.3216472138
 20
19.3821339233
 10
8.4288799665
 20
19.7098286784
 10
8.5207990344
 20
20.00924891
 10
8.600090711
 20
20.2839670256
 10
8.6682499291
 20
20.5340834159
 10
8.726560165
 20
20.7592900195
 10
8.7765729892
 20
20.9615926817
 10
8.8191377348
 20
21.1410978131
 10
8.8549935564
 20
21.2974761867
  0
LINE
  5
33A
100
AcDbEntity
  8
SUPERFICI
100
AcDbLine
 62
250
  6
CONTINUOUS
 10
7.9109956324
 20
18.2278948585
 11
8.060914514
 21
18.6398215272
  0
LINE
  5
33B
100
AcDbEntity
  8
0
100
AcDbLine
 62
7
  6
CONTINUOUS
 10
1.4256949841
 20
0.5286306818
 11
0.2285049841
 21
-0.9563353182
  0
LINE
  5
33C
100
AcDbEntity
  8
0
100
AcDbLine
 62
7
  6
CONTINUOUS
 10
0.0998699841
 20
-1.5892823182
 11
1.8073719841
 21
0.5286306818
  0
LINE
  5
33D
100
AcDbEntity
  8
0
100
AcDbLine
 62
7
  6
CONTINUOUS
 10
2.0491939841
 20
0.6588236818
 11
0.1352149841
 21
-1.7154063182
  0
LINE
  5
33E
100
AcDbEntity
  8
0
100
AcDbLine
 62
7
  6
CONTINUOUS
 10
-1.4886290159
 20
0.1538196818
 11
-0.4498880159
 21
0.1538196818
  0
LINE
  5
33F
100
AcDbEntity
  8
0
100
AcDbLine
 62
7
  6
CONTINUOUS
 10
1.8073719841
 20
0.5286306818
 11
1.4256949841
 21
0.5286306818
  0
LINE
  5
340
100
AcDbEntity
  8
0
100
AcDbLine
 62
7
  6
CONTINUOUS
 10
0.6430159841
 20
0.5286306818
 11
0.2122619841
 21
0.5286306818
  0
LINE
  5
341
100
AcDbEntity
  8
0
100
AcDbLine
 62
7
  6
CONTINUOUS
 10
-0.1478010159
 20
0.5286306818
 11
-1.5872900159
 21
0.5286306818
  0
LINE
  5
342
100
AcDbEntity
  8
0
100
AcDbLine
 62
7
  6
CONTINUOUS
 10
-1.6193300159
 20
0.6588236818
 11
2.0491939841
 21
0.6588236818
  0
LINE
  5
343
100
AcDbEntity
  8
0
100
AcDbLine
 62
7
  6
CONTINUOUS
 10
0.3991279841
 20
3.6854506818
 11
0.2749169841
 21
3.9067546818
  0
LINE
  5
344
100
AcDbEntity
  8
SUPERFICI
100
AcDbLine
 62
250
  6
CONTINUOUS
 10
7.9109956324
 20
-18.630815495
 11
8.060914514
 21
-19.0427421637
  0
LWPOLYLINE
  5
345
100
AcDbEntity
  8
SUPERFICI
100
AcDbPolyline
 62
250
  6
CONTINUOUS
 90
12
 70
0
 10
8.060914514
 20
-19.0427421637
 10
8.1983860222
 20
-19.4277796504
 10
8.3216472138
 20
-19.7850545597
 10
8.4288799665
 20
-20.1127493148
 10
8.5207990344
 20
-20.4121695464
 10
8.600090711
 20
-20.6868876621
 10
8.6682499291
 20
-20.9370040524
 10
8.726560165
 20
-21.1622106559
 10
8.7765729892
 20
-21.3645133182
 10
8.8191377348
 20
-21.5440184495
 10
8.8549935564
 20
-21.7003968232
 10
8.9101718379
 20
-21.9452283404
  0
LINE
  5
346
100
AcDbEntity
  8
0
100
AcDbLine
 62
7
  6
CONTINUOUS
 10
-0.9775950159
 20
8.7734886818
 11
-1.3652400159
 21
10.1253866818
  0
LINE
  5
347
100
AcDbEntity
  8
0
100
AcDbLine
 62
7
  6
CONTINUOUS
 10
-1.1554220159
 20
10.8235806818
 11
-0.7725900159
 21
9.4884876818
  0
LWPOLYLINE
  5
348
100
AcDbEntity
  8
0
100
AcDbPolyline
 62
7
  6
CONTINUOUS
 90
21
 70
0
 10
2.7862996173
 20
-2.0169212876
 10
2.7857263795
 20
-1.9950156555
 10
2.7845249689
 20
-1.973769524
 10
2.7811266644
 20
-1.9534734548
 10
2.7750526725
 20
-1.9343876551
 10
2.7670677648
 20
-1.9168894196
 10
2.7575917432
 20
-1.9012696776
 10
2.7465661029
 20
-1.8876398529
 10
2.7341878929
 20
-1.8761001089
 10
2.7209049643
 20
-1.8668627158
 10
2.7071090028
 20
-1.8597090496
 10
2.6928935798
 20
-1.8541235671
 10
2.6784701856
 20
-1.8498243477
 10
2.6640420223
 20
-1.846596966
 10
2.6494525516
 20
-1.8442285887
 10
2.6347062788
 20
-1.8425823433
 10
2.6199163385
 20
-1.8415364644
 10
2.6050694869
 20
-1.8409583592
 10
2.5901811559
 20
-1.8407225967
 10
2.5752646404
 20
-1.8407023736
 10
2.5603009841
 20
-1.8407672038
  0
LWPOLYLINE
  5
349
100
AcDbEntity
  8
0
100
AcDbPolyline
 62
7
  6
CONTINUOUS
 90
26
 70
0
 10
2.4504510305
 20
-1.9620593182
 10
2.4506494263
 20
-1.9889766733
 10
2.4526702867
 20
-2.0150963327
 10
2.456774036
 20
-2.0402433732
 10
2.4629224189
 20
-2.0640828702
 10
2.4710137057
 20
-2.0865622575
 10
2.4815528843
 20
-2.1076767666
 10
2.4946569107
 20
-2.1271331682
 10
2.5101780904
 20
-2.1443520804
 10
2.5281881711
 20
-2.1588527987
 10
2.548253742
 20
-2.1704290956
 10
2.5697214363
 20
-2.1789102313
 10
2.5920332106
 20
-2.1842319762
 10
2.6146796811
 20
-2.1864164812
 10
2.6373579477
 20
-2.1859453508
 10
2.659812417
 20
-2.1831963372
 10
2.6815242479
 20
-2.1773428823
 10
2.7019889766
 20
-2.1679863619
 10
2.7208068577
 20
-2.1556624543
 10
2.7375021994
 20
-2.1407154905
 10
2.7517477774
 20
-2.1233723481
 10
2.7635684489
 20
-2.1040893275
 10
2.7731631081
 20
-2.083220054
 10
2.7804113549
 20
-2.0613747587
 10
2.7847851309
 20
-2.0391409562
 10
2.7862996173
 20
-2.0169212876
  0
LINE
  5
34A
100
AcDbEntity
  8
0
100
AcDbLine
 62
7
  6
CONTINUOUS
 10
3.2678921675
 20
-16.2622013068
 11
3.267305023
 21
-12.1407193296
  0
LINE
  5
34B
100
AcDbEntity
  8
0
100
AcDbLine
 62
7
  6
CONTINUOUS
 10
4.2740924118
 20
-12.1407193296
 11
4.2746795563
 21
-16.2622013068
  0
LINE
  5
34C
100
AcDbEntity
  8
0
100
AcDbLine
 62
7
  6
CONTINUOUS
 10
2.5032229841
 20
8.7734936818
 11
2.5032229841
 21
10.8235856818
  0
LINE
  5
34D
100
AcDbEntity
  8
0
100
AcDbLine
 62
7
  6
CONTINUOUS
 10
2.5603009841
 20
-1.8407672038
 11
2.5603009841
 21
-1.5747884205
  0
LINE
  5
34E
100
AcDbEntity
  8
0
100
AcDbLine
 62
7
  6
CONTINUOUS
 10
2.8919419841
 20
-8.8264603182
 11
2.8919419841
 21
-9.5764603182
  0
LINE
  5
34F
100
AcDbEntity
  8
0
100
AcDbLine
 62
7
  6
CONTINUOUS
 10
2.9075859841
 20
10.4443206818
 11
2.9075909841
 21
9.9454426818
  0
LINE
  5
350
100
AcDbEntity
  8
0
100
AcDbLine
 62
7
  6
CONTINUOUS
 10
3.2919419841
 20
-6.6534232005
 11
3.2919419841
 21
-7.4042403182
  0
LINE
  5
351
100
AcDbEntity
  8
0
100
AcDbLine
 62
7
  6
CONTINUOUS
 10
3.2919419841
 20
-10.9986772698
 11
3.2919419841
 21
-11.749497436
  0
LINE
  5
352
100
AcDbEntity
  8
0
100
AcDbLine
 62
7
  6
CONTINUOUS
 10
2.9132899841
 20
9.5661776818
 11
2.9132439841
 21
8.7734936818
  0
LWPOLYLINE
  5
353
100
AcDbEntity
  8
0
100
AcDbPolyline
 62
7
  6
CONTINUOUS
 90
9
 70
0
 10
3.1155493604
 20
-1.4072372983
 10
3.1111228186
 20
-1.451430956
 10
3.1027213302
 20
-1.4933282096
 10
3.0902855785
 20
-1.5322244992
 10
3.0737123226
 20
-1.5677871436
 10
3.0531771338
 20
-1.5998980221
 10
3.0290224033
 20
-1.6281817575
 10
3.0021112279
 20
-1.6523024136
 10
2.9732544805
 20
-1.6721783466
  0
LWPOLYLINE
  5
354
100
AcDbEntity
  8
0
100
AcDbPolyline
 62
7
  6
CONTINUOUS
 90
13
 70
0
 10
1.5507685592
 20
-14.9777084783
 10
1.5494007479
 20
-14.9843884807
 10
1.5471847627
 20
-14.9911229459
 10
1.5441553749
 20
-14.9978326499
 10
1.5403738986
 20
-15.0043990004
 10
1.5358720733
 20
-15.0107650364
 10
1.5306205899
 20
-15.0169182699
 10
1.5246262713
 20
-15.0227538003
 10
1.5179623062
 20
-15.0280926231
 10
1.5106901875
 20
-15.0327689674
 10
1.5028886924
 20
-15.0365949434
 10
1.4946556461
 20
-15.0393602932
 10
1.4861061335
 20
-15.040832968
  0
LWPOLYLINE
  5
355
100
AcDbEntity
  8
0
100
AcDbPolyline
 62
7
  6
CONTINUOUS
 90
49
 70
0
 10
2.156948925
 20
-1.3481562939
 10
2.1622122035
 20
-1.3244476868
 10
2.1648015032
 20
-1.311960109
 10
2.1674206168
 20
-1.2990053301
 10
2.1703572943
 20
-1.2856497394
 10
2.1739237831
 20
-1.271859805
 10
2.1782329784
 20
-1.2576690765
 10
2.1833409331
 20
-1.2431546149
 10
2.1893233732
 20
-1.2283506561
 10
2.1962445854
 20
-1.2133364058
 10
2.2040561971
 20
-1.1981130578
 10
2.212539069
 20
-1.1825140122
 10
2.2216051116
 20
-1.1665335558
 10
2.2314672799
 20
-1.1503131433
 10
2.2424448105
 20
-1.1339707138
 10
2.2547937167
 20
-1.1176730435
 10
2.2683961634
 20
-1.1013967564
 10
2.2830128607
 20
-1.0849828842
 10
2.2985799488
 20
-1.0684599144
 10
2.3158403311
 20
-1.0526503744
 10
2.3349868092
 20
-1.0378628583
 10
2.3556442439
 20
-1.0238983162
 10
2.3775582003
 20
-1.0106144973
 10
2.4008441443
 20
-0.9981897617
 10
2.4256176811
 20
-0.9868725807
 10
2.45179027
 20
-0.9767291956
 10
2.4792123988
 20
-0.9677390376
 10
2.5077556219
 20
-0.9601101739
 10
2.5374783878
 20
-0.9541507943
 10
2.56851183
 20
-0.9499153005
 10
2.600664517
 20
-0.9472835771
 10
2.6338703917
 20
-0.9460857125
 10
2.6684606844
 20
-0.9464073835
 10
2.7044740597
 20
-0.9485727094
 10
2.7417448351
 20
-0.9528088208
 10
2.7802912721
 20
-0.9593549211
 10
2.8197734824
 20
-0.9688277976
 10
2.8597244083
 20
-0.9820825039
 10
2.8997943558
 20
-0.999866149
 10
2.9395235275
 20
-1.0227019228
 10
2.9777666978
 20
-1.0508849171
 10
3.0131014718
 20
-1.084463925
 10
3.0449082729
 20
-1.1238656984
 10
3.0712022934
 20
-1.1686711008
 10
3.0906029585
 20
-1.2162331679
 10
3.1042721451
 20
-1.2645833107
 10
3.112378277
 20
-1.3134108722
 10
3.1158686481
 20
-1.3612260565
 10
3.1155493604
 20
-1.4072372983
  0
LWPOLYLINE
  5
356
100
AcDbEntity
  8
SUPERFICI
100
AcDbPolyline
 62
250
  6
CONTINUOUS
 90
4
 70
0
 10
8.8549935564
 20
21.2974761867
 10
8.9101718379
 20
21.5423077039
 10
8.9309317757
 20
21.6297394714
 10
8.9481283527
 20
21.6931265764
  0
LWPOLYLINE
  5
357
100
AcDbEntity
  8
0
100
AcDbPolyline
 62
7
  6
CONTINUOUS
 90
25
 70
0
 10
3.0833537422
 20
-2.283777185
 10
3.0463133477
 20
-2.3400538739
 10
3.0248137403
 20
-2.3665635675
 10
3.0005371678
 20
-2.3906695542
 10
2.9745749072
 20
-2.4129995781
 10
2.9472288245
 20
-2.4333980262
 10
2.9184886211
 20
-2.4515570956
 10
2.8883071862
 20
-2.4668471979
 10
2.857019392
 20
-2.4794335807
 10
2.8254300121
 20
-2.4908662348
 10
2.7934620679
 20
-2.5005906107
 10
2.7609135422
 20
-2.5080656592
 10
2.7279780306
 20
-2.5141832489
 10
2.6949429703
 20
-2.5196038455
 10
2.6616656294
 20
-2.5220553979
 10
2.6283531578
 20
-2.5234896576
 10
2.5951103211
 20
-2.5246587299
 10
2.5617938704
 20
-2.5233798758
 10
2.5285338351
 20
-2.5198131917
 10
2.4955050435
 20
-2.5142473169
 10
2.4627992938
 20
-2.5067033893
 10
2.4305510349
 20
-2.4971738403
 10
2.3988919157
 20
-2.4856166428
 10
2.3679367957
 20
-2.4719014797
 10
2.337818241
 20
-2.4558947835
  0
LWPOLYLINE
  5
358
100
AcDbEntity
  8
0
100
AcDbPolyline
 62
250
  6
CONTINUOUS
 90
6
 70
0
 10
-5.9992539891
 20
-15.455230883
 10
-6.1683767793
 20
-15.6992584254
 10
-6.3453647802
 20
-15.9355201613
 10
-6.5271159589
 20
-16.1638013512
 10
-6.7090699303
 20
-16.3817825195
 10
-6.8898126026
 20
-16.5914152337
  0
LINE
  5
359
100
AcDbEntity
  8
0
100
AcDbLine
 62
7
  6
CONTINUOUS
 10
0.1589529841
 20
3.5641016818
 11
-0.6066920159
 21
3.5641016818
  0
LINE
  5
35A
100
AcDbEntity
  8
0
100
AcDbLine
 62
7
  6
CONTINUOUS
 10
-0.6066920159
 20
3.8339426818
 11
-0.3675560159
 21
3.8339426818
  0
LINE
  5
35B
100
AcDbEntity
  8
0
100
AcDbLine
 62
7
  6
CONTINUOUS
 10
-0.0800910159
 20
3.8339426818
 11
0.1589529841
 21
3.8339426818
  0
LINE
  5
35C
100
AcDbEntity
  8
0
100
AcDbLine
 62
7
  6
CONTINUOUS
 10
-0.3675560159
 20
4.7286166818
 11
-1.0931230159
 21
5.3400566818
  0
LINE
  5
35D
100
AcDbEntity
  8
0
100
AcDbLine
 62
7
  6
CONTINUOUS
 10
-1.1266130159
 20
5.7026806818
 11
-0.3675560159
 21
5.0630186818
  0
LWPOLYLINE
  5
35E
100
AcDbEntity
  8
SUPERFICI
100
AcDbPolyline
 62
250
  6
CONTINUOUS
 90
7
 70
0
 10
-5.9992539891
 20
15.0523102466
 10
-6.1683767793
 20
15.296337789
 10
-6.3453647802
 20
15.5325995248
 10
-6.5271159589
 20
15.7608807147
 10
-6.7090699303
 20
15.9788618831
 10
-6.8898126026
 20
16.1884945973
 10
-7.2526309807
 20
16.6022278929
  0
LINE
  5
35F
100
AcDbEntity
  8
0
100
AcDbLine
 62
7
  6
CONTINUOUS
 10
1.8198609841
 20
8.7734936818
 11
1.6904239841
 21
9.1766566818
  0
LINE
  5
360
100
AcDbEntity
  8
0
100
AcDbLine
 62
7
  6
CONTINUOUS
 10
1.5653529841
 20
9.5661716818
 11
1.3666419841
 21
10.1850876818
  0
LWPOLYLINE
  5
361
100
AcDbEntity
  8
SUPERFICI
100
AcDbPolyline
 62
250
  6
CONTINUOUS
 90
3
 70
0
 10
8.9101718379
 20
-21.9452283404
 10
8.9309317757
 20
-22.0326601079
 10
8.9481283527
 20
-22.0960472128
  0
LWPOLYLINE
  5
362
100
AcDbEntity
  8
0
100
AcDbPolyline
 62
7
  6
CONTINUOUS
 90
13
 70
0
 10
6.1397291666
 20
-0.2014603182
 10
6.1522085828
 20
-1.7123822023
 10
6.1757926957
 20
-3.1882583739
 10
6.1976681104
 20
-4.6257635993
 10
6.2109908287
 20
-6.0328421519
 10
6.2098627258
 20
-7.3988321784
 10
6.1899229561
 20
-8.7062795907
 10
6.1490675631
 20
-9.9567624196
 10
6.0858969918
 20
-11.1527137288
 10
5.9962306171
 20
-12.3024533347
 10
5.8766620774
 20
-13.4112609761
 10
5.726642621
 20
-14.4703655297
 10
5.5480260115
 20
-15.4552294491
  0
LWPOLYLINE
  5
363
100
AcDbEntity
  8
0
100
AcDbPolyline
 62
7
  6
CONTINUOUS
 90
13
 70
0
 10
6.1397291666
 20
-0.2014603182
 10
6.1522085828
 20
1.3094615659
 10
6.1757926957
 20
2.7853377374
 10
6.1976681104
 20
4.2228429629
 10
6.2109908287
 20
5.6299215154
 10
6.2098627258
 20
6.995911542
 10
6.1899229561
 20
8.3033589543
 10
6.1490675631
 20
9.5538417832
 10
6.0858969918
 20
10.7497930924
 10
5.9962306171
 20
11.8995326983
 10
5.8766620774
 20
13.0083403396
 10
5.726642621
 20
14.0674448933
 10
5.5480260115
 20
15.0523088126
  0
LWPOLYLINE
  5
364
100
AcDbEntity
  8
0
100
AcDbPolyline
 62
250
  6
CONTINUOUS
 90
10
 70
0
 10
-6.8898126026
 20
-16.5914152337
 10
-7.2526309807
 20
-17.0051485293
 10
-7.4288494627
 20
-17.2086694231
 10
-7.5993827434
 20
-17.4114534549
 10
-7.7608174355
 20
-17.6126516895
 10
-7.9105408794
 20
-17.8124712644
 10
-8.0479006987
 20
-18.0143212162
 10
-8.1707836676
 20
-18.218955358
 10
-8.276265093
 20
-18.4246265951
 10
-8.3622236642
 20
-18.630815495
  0
LINE
  5
365
100
AcDbEntity
  8
0
100
AcDbLine
 62
7
  6
CONTINUOUS
 10
0.1501399841
 20
5.7510226818
 11
-0.0800910159
 21
5.7510226818
  0
LINE
  5
366
100
AcDbEntity
  8
0
100
AcDbLine
 62
7
  6
CONTINUOUS
 10
-0.3675560159
 20
5.7510226818
 11
-0.5978800159
 21
5.7510226818
  0
LINE
  5
367
100
AcDbEntity
  8
0
100
AcDbLine
 62
7
  6
CONTINUOUS
 10
-0.5978800159
 20
6.0223476818
 11
0.1501399841
 21
6.0223476818
  0
LWPOLYLINE
  5
368
100
AcDbEntity
  8
SUPERFICI
100
AcDbPolyline
 62
250
  6
CONTINUOUS
 90
9
 70
0
 10
-7.2526309807
 20
16.6022278929
 10
-7.4288494627
 20
16.8057487867
 10
-7.5993827434
 20
17.0085328185
 10
-7.7608174355
 20
17.2097310531
 10
-7.9105408794
 20
17.409550628
 10
-8.0479006987
 20
17.6114005798
 10
-8.1707836676
 20
17.8160347215
 10
-8.276265093
 20
18.0217059587
 10
-8.3622236642
 20
18.2278948585
  0
LINE
  5
369
100
AcDbEntity
  8
0
100
AcDbLine
 62
7
  6
CONTINUOUS
 10
1.5716619841
 20
10.8235856818
 11
2.2298809841
 21
8.7734886818
  0
LWPOLYLINE
  5
36A
100
AcDbEntity
  8
0
100
AcDbPolyline
 62
250
  6
CONTINUOUS
 90
13
 70
0
 10
9.1023123788
 20
-0.2014603182
 10
9.0936331903
 20
1.6510986331
 10
9.0917985428
 20
3.4451036477
 10
9.0838749604
 20
5.1808930548
 10
9.0609428903
 20
6.8582254762
 10
9.0177053526
 20
8.4776556101
 10
8.9502090357
 20
10.0406058576
 10
8.8552310084
 20
11.5468444419
 10
8.7304312269
 20
12.9962023495
 10
8.5743373371
 20
14.3900443084
 10
8.3852901578
 20
15.7279938021
 10
8.1635057673
 20
17.0077940057
 10
7.9109956324
 20
18.2278948585
  0
LWPOLYLINE
  5
36B
100
AcDbEntity
  8
0
100
AcDbPolyline
 62
250
  6
CONTINUOUS
 90
13
 70
0
 10
9.1023123788
 20
-0.2014603182
 10
9.0936331903
 20
-2.0540192695
 10
9.0917985428
 20
-3.8480242841
 10
9.0838749604
 20
-5.5838136913
 10
9.0609428903
 20
-7.2611461126
 10
9.0177053526
 20
-8.8805762466
 10
8.9502090357
 20
-10.4435264941
 10
8.8552310084
 20
-11.9497650783
 10
8.7304312269
 20
-13.3991229859
 10
8.5743373371
 20
-14.7929649448
 10
8.3852901578
 20
-16.1309144385
 10
8.1635057673
 20
-17.4107146421
 10
7.9109956324
 20
-18.630815495
  0
LWPOLYLINE
  5
36C
100
AcDbEntity
  8
0
100
AcDbPolyline
 62
7
  6
CONTINUOUS
 90
25
 70
0
 10
5.5480260115
 20
-15.4552294491
 10
5.4238976843
 20
-16.0234263905
 10
5.2875664184
 20
-16.5689935424
 10
5.1395790375
 20
-17.0881565011
 10
4.9798284976
 20
-17.580578623
 10
4.8083522251
 20
-18.0467221246
 10
4.6257190524
 20
-18.4857429445
 10
4.4314175385
 20
-18.8991480373
 10
4.2257405931
 20
-19.2864244896
 10
4.0109939588
 20
-19.6443291857
 10
3.7862743857
 20
-19.9750686433
 10
3.5508960442
 20
-20.2798730277
 10
3.3084896659
 20
-20.5557598118
 10
3.0619253144
 20
-20.8020116744
 10
2.8098319867
 20
-21.0218955876
 10
2.5501542658
 20
-21.2186234781
 10
2.285785461
 20
-21.3914954946
 10
2.0165507254
 20
-21.5420576884
 10
1.7345967948
 20
-21.6748533995
 10
1.4400752295
 20
-21.788898828
 10
1.1366972798
 20
-21.8825628033
 10
0.8194877987
 20
-21.9567644797
 10
0.4859889138
 20
-22.011033924
 10
0.1379357407
 20
-22.0441089174
 10
-0.2256140159
 20
-22.0552719774
  0
LINE
  5
36D
100
AcDbEntity
  8
0
100
AcDbLine
 62
7
  6
CONTINUOUS
 10
4.1438479841
 20
8.7734986818
 11
3.6820289841
 21
8.7734936818
  0
LINE
  5
36E
100
AcDbEntity
  8
0
100
AcDbLine
 62
7
  6
CONTINUOUS
 10
0.9134329841
 20
8.7734936818
 11
0.5034169841
 21
8.7734886818
  0
LINE
  5
36F
100
AcDbEntity
  8
0
100
AcDbLine
 62
7
  6
CONTINUOUS
 10
0.2300749841
 20
8.7734886818
 11
-0.1799400159
 21
8.7734886818
  0
LINE
  5
370
100
AcDbEntity
  8
0
100
AcDbLine
 62
7
  6
CONTINUOUS
 10
-1.3652400159
 20
8.7734886818
 11
-1.7752550159
 21
8.7734886818
  0
LINE
  5
371
100
AcDbEntity
  8
0
100
AcDbLine
 62
7
  6
CONTINUOUS
 10
2.9132439841
 20
8.7734936818
 11
2.5032229841
 21
8.7734936818
  0
LINE
  5
372
100
AcDbEntity
  8
0
100
AcDbLine
 62
7
  6
CONTINUOUS
 10
-0.5675900159
 20
8.7734936818
 11
-0.9775950159
 21
8.7734886818
  0
LINE
  5
373
100
AcDbEntity
  8
0
100
AcDbLine
 62
7
  6
CONTINUOUS
 10
-2.1852600159
 20
8.7734886818
 11
-2.5952760159
 21
8.7734836818
  0
LINE
  5
374
100
AcDbEntity
  8
0
100
AcDbLine
 62
7
  6
CONTINUOUS
 10
2.2298809841
 20
8.7734886818
 11
1.8198609841
 21
8.7734936818
  0
LINE
  5
375
100
AcDbEntity
  8
0
100
AcDbLine
 62
7
  6
CONTINUOUS
 10
-3.5268320159
 20
8.7734886818
 11
-3.9368620159
 21
8.7734836818
  0
LINE
  5
376
100
AcDbEntity
  8
0
100
AcDbLine
 62
7
  6
CONTINUOUS
 10
3.6820289841
 20
8.7734936818
 11
3.2711429841
 21
9.5661716818
  0
LINE
  5
377
100
AcDbEntity
  8
0
100
AcDbLine
 62
7
  6
CONTINUOUS
 10
3.7074073794
 20
9.6154808483
 11
4.1438479841
 21
8.7734986818
  0
LWPOLYLINE
  5
378
100
AcDbEntity
  8
0
100
AcDbPolyline
 62
7
  6
CONTINUOUS
 90
25
 70
0
 10
5.5480260115
 20
15.0523088126
 10
5.4238976843
 20
15.6205057541
 10
5.2875664184
 20
16.166072906
 10
5.1395790375
 20
16.6852358647
 10
4.9798284976
 20
17.1776579866
 10
4.8083522251
 20
17.6438014882
 10
4.6257190524
 20
18.0828223081
 10
4.4314175385
 20
18.4962274009
 10
4.2257405931
 20
18.8835038531
 10
4.0109939588
 20
19.2414085492
 10
3.7862743857
 20
19.5721480068
 10
3.5508960442
 20
19.8769523912
 10
3.3084896659
 20
20.1528391754
 10
3.0619253144
 20
20.399091038
 10
2.8098319867
 20
20.6189749511
 10
2.5501542658
 20
20.8157028416
 10
2.285785461
 20
20.9885748581
 10
2.0165507254
 20
21.1391370519
 10
1.7345967948
 20
21.2719327631
 10
1.4400752295
 20
21.3859781916
 10
1.1366972798
 20
21.4796421668
 10
0.8194877987
 20
21.5538438432
 10
0.4859889138
 20
21.6081132876
 10
0.1379357407
 20
21.641188281
 10
-0.2256140159
 20
21.652351341
  0
LWPOLYLINE
  5
379
100
AcDbEntity
  8
0
100
AcDbPolyline
 62
7
  6
CONTINUOUS
 90
28
 70
0
 10
8.9481283527
 20
21.6931265764
 10
8.8955699863
 20
22.1991559503
 10
8.8149349454
 20
22.7018746569
 10
8.7065809418
 20
23.1997754719
 10
8.57078043
 20
23.6916291067
 10
8.4079510085
 20
24.1756187933
 10
8.218811294
 20
24.6493927967
 10
8.0040857053
 20
25.1110337932
 10
7.7642424416
 20
25.5596001118
 10
7.4998640753
 20
25.9942959345
 10
7.2116954057
 20
26.4139353376
 10
6.9006917921
 20
26.8170521558
 10
6.5677854264
 20
27.2024792438
 10
6.2139050918
 20
27.5691067873
 10
5.8401346978
 20
27.9156646302
 10
5.4478042882
 20
28.2409070442
 10
5.0382821815
 20
28.5438111871
 10
4.6127196318
 20
28.8235324601
 10
4.1722725377
 20
29.079266454
 10
3.7182508149
 20
29.3103051091
 10
3.2521076013
 20
29.5158989894
 10
2.7753019494
 20
29.6953348764
 10
2.2893315541
 20
29.8480881918
 10
1.7956755766
 20
29.9737383202
 10
1.2958181637
 20
30.0718610343
 10
0.7912774509
 20
30.1421400857
 10
0.2836145839
 20
30.1844152882
 10
-0.2256140159
 20
30.1985396818
  0
LINE
  5
37A
100
AcDbEntity
  8
0
100
AcDbLine
 62
7
  6
CONTINUOUS
 10
9.1222633776
 20
19.2569649932
 11
8.9481283527
 21
21.6931265764
  0
LINE
  5
37B
100
AcDbEntity
  8
SUPERFICI
100
AcDbLine
 62
7
  6
CONTINUOUS
 10
9.254323191
 20
17.3406953295
 11
9.1517696916
 21
18.8240826239
  0
LINE
  5
37C
100
AcDbEntity
  8
SUPERFICI
100
AcDbLine
 62
7
  6
CONTINUOUS
 10
9.1601743936
 20
18.7022919755
 11
9.122241923
 21
19.2572840338
  0
LINE
  5
37D
100
AcDbEntity
  8
SUPERFICI
100
AcDbLine
 62
7
  6
CONTINUOUS
 10
9.2818690472
 20
16.932099393
 11
9.2420364113
 21
17.5205269002
  0
LINE
  5
37E
100
AcDbEntity
  8
SUPERFICI
100
AcDbLine
 62
7
  6
CONTINUOUS
 10
9.3096485697
 20
16.5102184655
 11
9.2711132683
 21
17.0926485867
  0
LINE
  5
37F
100
AcDbEntity
  8
SUPERFICI
100
AcDbLine
 62
7
  6
CONTINUOUS
 10
9.337292271
 20
16.0778477914
 11
9.300546699
 21
16.6497008719
  0
LINE
  5
380
100
AcDbEntity
  8
SUPERFICI
100
AcDbLine
 62
7
  6
CONTINUOUS
 10
9.3645982755
 20
15.6355717984
 11
9.3300567393
 21
16.1923877498
  0
LINE
  5
381
100
AcDbEntity
  8
SUPERFICI
100
AcDbLine
 62
7
  6
CONTINUOUS
 10
9.391422052
 20
15.1832347702
 11
9.3592343666
 21
15.7237914584
  0
LINE
  5
382
100
AcDbEntity
  8
SUPERFICI
100
AcDbLine
 62
7
  6
CONTINUOUS
 10
9.4175363459
 20
14.7223896033
 11
9.3878568573
 21
15.2445011655
  0
LINE
  5
383
100
AcDbEntity
  8
SUPERFICI
100
AcDbLine
 62
7
  6
CONTINUOUS
 10
9.4428425869
 20
14.252795456
 11
9.4157696279
 21
14.7542814446
  0
LINE
  5
384
100
AcDbEntity
  8
SUPERFICI
100
AcDbLine
 62
7
  6
CONTINUOUS
 10
9.468667863
 20
13.745744816
 11
9.4427368648
 21
14.2548101142
  0
LINE
  5
385
100
AcDbEntity
  8
SUPERFICI
100
AcDbLine
 62
7
  6
CONTINUOUS
 10
9.493474446
 20
13.2271886476
 11
9.4672379423
 21
13.7746418593
  0
LINE
  5
386
100
AcDbEntity
  8
SUPERFICI
100
AcDbLine
 62
7
  6
CONTINUOUS
 10
9.5170081594
 20
12.7013321475
 11
9.4905550616
 21
13.2900025205
  0
LINE
  5
387
100
AcDbEntity
  8
SUPERFICI
100
AcDbLine
 62
7
  6
CONTINUOUS
 10
9.5392847813
 20
12.1676622776
 11
9.5127801705
 21
12.7984994045
  0
LINE
  5
388
100
AcDbEntity
  8
SUPERFICI
100
AcDbLine
 62
7
  6
CONTINUOUS
 10
9.5603309998
 20
11.6259459302
 11
9.5339057748
 21
12.3000360047
  0
LWPOLYLINE
  5
389
100
AcDbEntity
  8
SUPERFICI
100
AcDbPolyline
 62
7
  6
CONTINUOUS
 90
4
 70
0
 10
9.6161449495
 20
9.967546814
 10
9.5986593594
 20
10.5263666949
 10
9.5800998249
 20
11.0787154538
 10
9.5538490215
 20
11.7970149007
  0
LWPOLYLINE
  5
38A
100
AcDbEntity
  8
SUPERFICI
100
AcDbPolyline
 62
7
  6
CONTINUOUS
 90
4
 70
0
 10
9.6229182092
 20
9.7401640533
 10
9.6071574093
 20
10.2596970285
 10
9.5904241582
 20
10.7763670744
 10
9.5726606811
 20
11.2893416611
  0
LINE
  5
38B
100
AcDbEntity
  8
SUPERFICI
100
AcDbLine
 62
7
  6
CONTINUOUS
 10
9.6378339649
 20
9.2162478202
 11
9.6161449495
 21
9.967546814
  0
LINE
  5
38C
100
AcDbEntity
  8
SUPERFICI
100
AcDbLine
 62
7
  6
CONTINUOUS
 10
9.6520209466
 20
8.6862504981
 11
9.6326428779
 21
9.4023168317
  0
LINE
  5
38D
100
AcDbEntity
  8
SUPERFICI
100
AcDbLine
 62
7
  6
CONTINUOUS
 10
9.6655291134
 20
8.1503712059
 11
9.6482207482
 21
8.8313970467
  0
LINE
  5
38E
100
AcDbEntity
  8
SUPERFICI
100
AcDbLine
 62
7
  6
CONTINUOUS
 10
9.6784134632
 20
7.6080690184
 11
9.6629941216
 21
8.2533868708
  0
LINE
  5
38F
100
AcDbEntity
  8
SUPERFICI
100
AcDbLine
 62
7
  6
CONTINUOUS
 10
9.6907501118
 20
7.0569010932
 11
9.6770826515
 21
7.6655899555
  0
LINE
  5
390
100
AcDbEntity
  8
SUPERFICI
100
AcDbLine
 62
7
  6
CONTINUOUS
 10
9.7032640559
 20
6.4608872895
 11
9.6905054103
 21
7.0681644421
  0
LINE
  5
391
100
AcDbEntity
  8
SUPERFICI
100
AcDbLine
 62
7
  6
CONTINUOUS
 10
9.7153772698
 20
5.8410204783
 11
9.7025280386
 21
6.4970953205
  0
LINE
  5
392
100
AcDbEntity
  8
SUPERFICI
100
AcDbLine
 62
7
  6
CONTINUOUS
 10
9.7267678205
 20
5.2087207774
 11
9.7137229172
 21
5.9285502864
  0
LINE
  5
393
100
AcDbEntity
  8
SUPERFICI
100
AcDbLine
 62
7
  6
CONTINUOUS
 10
9.7373293042
 20
4.5643105265
 11
9.7243321163
 21
5.3486987908
  0
LWPOLYLINE
  5
394
100
AcDbEntity
  8
SUPERFICI
100
AcDbPolyline
 62
7
  6
CONTINUOUS
 90
3
 70
0
 10
9.7555206572
 20
3.2324147144
 10
9.7469651852
 20
3.9057386892
 10
9.7342785927
 20
4.7574248365
  0
LWPOLYLINE
  5
395
100
AcDbEntity
  8
SUPERFICI
100
AcDbPolyline
 62
7
  6
CONTINUOUS
 90
3
 70
0
 10
9.7590800695
 20
2.9142573678
 10
9.7517682691
 20
3.5410073711
 10
9.7434566356
 20
4.155285681
  0
LINE
  5
396
100
AcDbEntity
  8
SUPERFICI
100
AcDbLine
 62
7
  6
CONTINUOUS
 10
9.762147553
 20
2.613466542
 11
9.7555206572
 21
3.2324147144
  0
LINE
  5
397
100
AcDbEntity
  8
0
100
AcDbLine
 62
7
  6
CONTINUOUS
 10
9.765589727
 20
2.2333024451
 11
9.761953857
 21
2.6280811865
  0
LINE
  5
398
100
AcDbEntity
  8
0
100
AcDbLine
 62
7
  6
CONTINUOUS
 10
9.765589727
 20
2.2333024451
 11
9.7758114638
 21
-0.2394970242
  0
LINE
  5
399
100
AcDbEntity
  8
0
100
AcDbLine
 62
7
  6
CONTINUOUS
 10
9.7758114638
 20
-0.2394970242
 11
9.765589727
 21
-2.6362230816
  0
LINE
  5
39A
100
AcDbEntity
  8
0
100
AcDbLine
 62
7
  6
CONTINUOUS
 10
9.765589727
 20
-2.6362230816
 11
9.7620052684
 21
-3.0310025044
  0
LINE
  5
39B
100
AcDbEntity
  8
SUPERFICI
100
AcDbLine
 62
7
  6
CONTINUOUS
 10
9.7555206572
 20
-3.6353353509
 11
9.7621568018
 21
-3.0154345233
  0
LINE
  5
39C
100
AcDbEntity
  8
SUPERFICI
100
AcDbLine
 62
7
  6
CONTINUOUS
 10
9.7522573697
 20
-3.9050167394
 11
9.7594123869
 21
-3.2859267375
  0
LINE
  5
39D
100
AcDbEntity
  8
SUPERFICI
100
AcDbLine
 62
7
  6
CONTINUOUS
 10
9.7441259577
 20
-4.5115568145
 11
9.7555206572
 21
-3.6353353509
  0
LINE
  5
39E
100
AcDbEntity
  8
SUPERFICI
100
AcDbLine
 62
7
  6
CONTINUOUS
 10
9.7351497318
 20
-5.1058385483
 11
9.7469651852
 21
-4.3086593256
  0
LINE
  5
39F
100
AcDbEntity
  8
SUPERFICI
100
AcDbLine
 62
7
  6
CONTINUOUS
 10
9.7254208779
 20
-5.6894008474
 11
9.7373293042
 21
-4.9672311629
  0
LINE
  5
3A0
100
AcDbEntity
  8
SUPERFICI
100
AcDbLine
 62
7
  6
CONTINUOUS
 10
9.7150438106
 20
-6.2616632897
 11
9.7267678205
 21
-5.6116414139
  0
LINE
  5
3A1
100
AcDbEntity
  8
SUPERFICI
100
AcDbLine
 62
7
  6
CONTINUOUS
 10
9.7032640559
 20
-6.8638079259
 11
9.7153772698
 21
-6.2439411147
  0
LINE
  5
3A2
100
AcDbEntity
  8
SUPERFICI
100
AcDbLine
 62
7
  6
CONTINUOUS
 10
9.6905054103
 20
-7.4710850786
 11
9.7040942862
 21
-6.8227792519
  0
LINE
  5
3A3
100
AcDbEntity
  8
SUPERFICI
100
AcDbLine
 62
7
  6
CONTINUOUS
 10
9.6770826515
 20
-8.0685105919
 11
9.692569032
 21
-7.3756478577
  0
LINE
  5
3A4
100
AcDbEntity
  8
SUPERFICI
100
AcDbLine
 62
7
  6
CONTINUOUS
 10
9.6629941216
 20
-8.6563075073
 11
9.6804934669
 21
-7.9203597787
  0
LINE
  5
3A5
100
AcDbEntity
  8
SUPERFICI
100
AcDbLine
 62
7
  6
CONTINUOUS
 10
9.6482207482
 20
-9.2343176832
 11
9.6678807144
 21
-8.4566763026
  0
LINE
  5
3A6
100
AcDbEntity
  8
SUPERFICI
100
AcDbLine
 62
7
  6
CONTINUOUS
 10
9.6326428779
 20
-9.8052374682
 11
9.6546501419
 21
-8.9873424423
  0
LINE
  5
3A7
100
AcDbEntity
  8
SUPERFICI
100
AcDbLine
 62
7
  6
CONTINUOUS
 10
9.6261342713
 20
-10.0328680124
 11
9.640751439
 21
-9.5127865939
  0
LINE
  5
3A8
100
AcDbEntity
  8
SUPERFICI
100
AcDbLine
 62
7
  6
CONTINUOUS
 10
9.6106661567
 20
-10.5498298463
 11
9.6326428779
 21
-9.8052374682
  0
LINE
  5
3A9
100
AcDbEntity
  8
SUPERFICI
100
AcDbLine
 62
7
  6
CONTINUOUS
 10
9.5942118233
 20
-11.0653055469
 11
9.6161449495
 21
-10.3704674505
  0
LINE
  5
3AA
100
AcDbEntity
  8
SUPERFICI
100
AcDbLine
 62
7
  6
CONTINUOUS
 10
9.5767113739
 20
-11.5783029609
 11
9.5986593594
 21
-10.9292873313
  0
LINE
  5
3AB
100
AcDbEntity
  8
SUPERFICI
100
AcDbLine
 62
7
  6
CONTINUOUS
 10
9.5581309389
 20
-12.0873698265
 11
9.5800998249
 21
-11.4816360902
  0
LINE
  5
3AC
100
AcDbEntity
  8
SUPERFICI
100
AcDbLine
 62
7
  6
CONTINUOUS
 10
9.5383641345
 20
-12.5934060593
 11
9.5603309998
 21
-12.0288665666
  0
LINE
  5
3AD
100
AcDbEntity
  8
SUPERFICI
100
AcDbLine
 62
7
  6
CONTINUOUS
 10
9.4951895999
 20
-13.5929694359
 11
9.5173535165
 21
-13.0962606786
  0
LWPOLYLINE
  5
3AE
100
AcDbEntity
  8
SUPERFICI
100
AcDbPolyline
 62
7
  6
CONTINUOUS
 90
3
 70
0
 10
9.493474446
 20
-13.6301092841
 10
9.5170081594
 20
-13.1042527839
 10
9.5392847813
 20
-12.570582914
  0
LINE
  5
3AF
100
AcDbEntity
  8
SUPERFICI
100
AcDbLine
 62
7
  6
CONTINUOUS
 10
9.468667863
 20
-14.1486654525
 11
9.4951895999
 21
-13.5929694359
  0
LINE
  5
3B0
100
AcDbEntity
  8
SUPERFICI
100
AcDbLine
 62
7
  6
CONTINUOUS
 10
9.4427368648
 20
-14.6577307507
 11
9.471866151
 21
-14.0836591205
  0
LINE
  5
3B1
100
AcDbEntity
  8
SUPERFICI
100
AcDbLine
 62
7
  6
CONTINUOUS
 10
9.4157696279
 20
-15.1572020811
 11
9.4473844932
 21
-14.5687173596
  0
LINE
  5
3B2
100
AcDbEntity
  8
SUPERFICI
100
AcDbLine
 62
7
  6
CONTINUOUS
 10
9.3878568573
 20
-15.6474218019
 11
9.4219315871
 21
-15.0454882843
  0
LINE
  5
3B3
100
AcDbEntity
  8
SUPERFICI
100
AcDbLine
 62
7
  6
CONTINUOUS
 10
9.3592343666
 20
-16.1267120948
 11
9.3956050617
 21
-15.5137918791
  0
LINE
  5
3B4
100
AcDbEntity
  8
SUPERFICI
100
AcDbLine
 62
7
  6
CONTINUOUS
 10
9.3300567393
 20
-16.5953083863
 11
9.3684992625
 21
-15.9738904697
  0
LINE
  5
3B5
100
AcDbEntity
  8
SUPERFICI
100
AcDbLine
 62
7
  6
CONTINUOUS
 10
9.300546699
 20
-17.0526215083
 11
9.3408752665
 21
-16.4236607713
  0
LINE
  5
3B6
100
AcDbEntity
  8
SUPERFICI
100
AcDbLine
 62
7
  6
CONTINUOUS
 10
9.2711132683
 20
-17.4955692232
 11
9.3129050987
 21
-16.862909877
  0
LINE
  5
3B7
100
AcDbEntity
  8
SUPERFICI
100
AcDbLine
 62
7
  6
CONTINUOUS
 10
9.2292620256
 20
-18.109197811
 11
9.28477427
 21
-17.2914077671
  0
LINE
  5
3B8
100
AcDbEntity
  8
SUPERFICI
100
AcDbLine
 62
7
  6
CONTINUOUS
 10
9.122241923
 20
-19.6602046703
 11
9.1601743936
 21
-19.105212612
  0
LINE
  5
3B9
100
AcDbEntity
  8
SUPERFICI
100
AcDbLine
 62
7
  6
CONTINUOUS
 10
9.1523853898
 20
-19.2180648584
 11
9.2420364113
 21
-17.9234475366
  0
LINE
  5
3BA
100
AcDbEntity
  8
0
100
AcDbLine
 62
7
  6
CONTINUOUS
 10
9.1222571793
 20
-19.6599778018
 11
8.9481283527
 21
-22.0960472128
  0
LWPOLYLINE
  5
3BB
100
AcDbEntity
  8
0
100
AcDbPolyline
 62
7
  6
CONTINUOUS
 90
25
 70
0
 10
8.9481283527
 20
-22.0960472128
 10
8.8995825062
 20
-22.5712981405
 10
8.8262531242
 20
-23.0437521385
 10
8.7284298447
 20
-23.5121604437
 10
8.6063269666
 20
-23.9755325059
 10
8.4602873374
 20
-24.4323342737
 10
8.2909181907
 20
-24.8805316658
 10
8.0988160548
 20
-25.3185163444
 10
7.8842865314
 20
-25.7454895512
 10
7.6477715496
 20
-26.1607339518
 10
7.3899246858
 20
-26.5632397159
 10
7.1115071581
 20
-26.9518204023
 10
6.8131805267
 20
-27.3255256764
 10
6.4956863515
 20
-27.6834463215
 10
6.1599273472
 20
-28.0245046291
 10
5.8069001504
 20
-28.3475861497
 10
5.4376330053
 20
-28.6517837285
 10
5.0531023732
 20
-28.9363699949
 10
4.6543107851
 20
-29.2005841284
 10
4.2423074837
 20
-29.4436798352
 10
3.8182353383
 20
-29.665039568
 10
3.3832322475
 20
-29.8640882977
 10
2.9384482429
 20
-30.0402457149
 10
2.4850852708
 20
-30.1930251104
 10
2.0243859841
 20
-30.322059322
  0
LINE
  5
3BC
100
AcDbEntity
  8
0
100
AcDbLine
 62
7
  6
CONTINUOUS
 10
0.8087473331
 20
-13.2417982817
 11
2.1606238892
 21
-11.9620488221
  0
LINE
  5
3BD
100
AcDbEntity
  8
0
100
AcDbLine
 62
7
  6
CONTINUOUS
 10
-2.8060943385
 20
-16.6638065768
 11
-1.3484286936
 21
-15.2839098017
  0
LINE
  5
3BE
100
AcDbEntity
  8
0
100
AcDbLine
 62
7
  6
CONTINUOUS
 10
-1.1825814437
 20
-15.1269089293
 11
-0.2282596699
 21
-14.2235035432
  0
LINE
  5
3BF
100
AcDbEntity
  8
0
100
AcDbLine
 62
7
  6
CONTINUOUS
 10
-0.1442671328
 20
-14.1439832545
 11
0.6713185731
 21
-13.3719131435
  0
LINE
  5
3C0
100
AcDbEntity
  8
0
100
AcDbLine
 62
7
  6
CONTINUOUS
 10
0.8245125767
 20
-13.3861386852
 11
-0.0622482231
 21
-14.2242379986
  0
LINE
  5
3C1
100
AcDbEntity
  8
0
100
AcDbLine
 62
7
  6
CONTINUOUS
 10
-1.1669831168
 20
-15.2683450134
 11
-2.6434709174
 21
-16.6638065768
  0
LINE
  5
3C2
100
AcDbEntity
  8
0
100
AcDbLine
 62
7
  6
CONTINUOUS
 10
-0.146348373
 20
-14.30372262
 11
-1.0008389553
 21
-15.1113202732
  0
LINE
  5
3C3
100
AcDbEntity
  8
0
100
AcDbLine
 62
7
  6
CONTINUOUS
 10
2.2414657443
 20
-12.0469504303
 11
1.2904494279
 21
-12.9457684809
  0
LWPOLYLINE
  5
3C4
100
AcDbEntity
  8
0
100
AcDbPolyline
 62
7
  6
CONTINUOUS
 90
19
 70
0
 10
-1.9154329109
 20
-13.1510048888
 10
-1.9422265075
 20
-13.1646018026
 10
-1.96693918
 20
-13.1816051891
 10
-1.9896635659
 20
-13.2016464217
 10
-2.0104016462
 20
-13.2242401796
 10
-2.0293581939
 20
-13.2490979026
 10
-2.0468577832
 20
-13.2762214039
 10
-2.0628716099
 20
-13.3051586034
 10
-2.0775131812
 20
-13.3356438519
 10
-2.0911421822
 20
-13.3680476259
 10
-2.103793332
 20
-13.4021330909
 10
-2.1153575866
 20
-13.4371702628
 10
-2.1259120488
 20
-13.4732267191
 10
-2.1355742481
 20
-13.5106246062
 10
-2.1444483283
 20
-13.549498638
 10
-2.1526647173
 20
-13.589876282
 10
-2.1602564048
 20
-13.6317063445
 10
-2.1671860398
 20
-13.674934635
 10
-2.1733964587
 20
-13.7193917149
  0
LINE
  5
3C5
100
AcDbEntity
  8
0
100
AcDbLine
 62
7
  6
CONTINUOUS
 10
1.6904239841
 20
9.1766566818
 11
1.0428749841
 21
9.1766566818
  0
LINE
  5
3C6
100
AcDbEntity
  8
0
100
AcDbLine
 62
7
  6
CONTINUOUS
 10
1.1679399841
 20
9.5661716818
 11
1.5653529841
 21
9.5661716818
  0
LINE
  5
3C7
100
AcDbEntity
  8
0
100
AcDbLine
 62
7
  6
CONTINUOUS
 10
3.2711429841
 20
9.5661716818
 11
2.9132899841
 21
9.5661776818
  0
LINE
  5
3C8
100
AcDbEntity
  8
0
100
AcDbLine
 62
7
  6
CONTINUOUS
 10
2.9075909841
 20
9.9454426818
 11
3.4064309841
 21
9.9454426818
  0
LINE
  5
3C9
100
AcDbEntity
  8
0
100
AcDbLine
 62
7
  6
CONTINUOUS
 10
3.4064309841
 20
10.4443206818
 11
2.9075859841
 21
10.4443206818
  0
LINE
  5
3CA
100
AcDbEntity
  8
0
100
AcDbLine
 62
7
  6
CONTINUOUS
 10
-4.5950760159
 20
10.8235806818
 11
-4.1850560159
 21
10.8235806818
  0
LINE
  5
3CB
100
AcDbEntity
  8
0
100
AcDbLine
 62
7
  6
CONTINUOUS
 10
-3.2786330159
 20
10.8235806818
 11
-2.8686120159
 21
10.8235806818
  0
LINE
  5
3CC
100
AcDbEntity
  8
0
100
AcDbLine
 62
7
  6
CONTINUOUS
 10
-2.5952710159
 20
10.8235806818
 11
-2.1852550159
 21
10.8235806818
  0
LINE
  5
3CD
100
AcDbEntity
  8
0
100
AcDbLine
 62
7
  6
CONTINUOUS
 10
-1.7752550159
 20
10.8235806818
 11
-1.1554220159
 21
10.8235806818
  0
LINE
  5
3CE
100
AcDbEntity
  8
0
100
AcDbLine
 62
7
  6
CONTINUOUS
 10
-0.3897580159
 20
10.8235806818
 11
0.2300749841
 21
10.8235806818
  0
LINE
  5
3CF
100
AcDbEntity
  8
0
100
AcDbLine
 62
7
  6
CONTINUOUS
 10
1.1616259841
 20
10.8235856818
 11
1.5716619841
 21
10.8235856818
  0
LINE
  5
3D0
100
AcDbEntity
  8
0
100
AcDbLine
 62
7
  6
CONTINUOUS
 10
2.5032229841
 20
10.8235856818
 11
3.4633399841
 21
10.8235856818
  0
LWPOLYLINE
  5
3D1
100
AcDbEntity
  8
0
100
AcDbPolyline
 62
250
  6
CONTINUOUS
 90
25
 70
0
 10
7.9109956324
 20
-18.630815495
 10
7.7499507968
 20
-19.2723455445
 10
7.5606836652
 20
-19.891780336
 10
7.3451075815
 20
-20.4872587977
 10
7.1048222813
 20
-21.0580235047
 10
6.8420486332
 20
-21.6020997641
 10
6.559962019
 20
-22.116227072
 10
6.2610508892
 20
-22.5990545829
 10
5.9472844009
 20
-23.0504637574
 10
5.6214650406
 20
-23.469170912
 10
5.2870891099
 20
-23.8536651528
 10
4.945503863
 20
-24.2054271254
 10
4.5960708081
 20
-24.5273311409
 10
4.2419004791
 20
-24.8184092929
 10
3.8840623946
 20
-25.0797967755
 10
3.517929754
 20
-25.3163397299
 10
3.1458297054
 20
-25.5274368038
 10
2.7691109074
 20
-25.7131612659
 10
2.3803584702
 20
-25.8772083936
 10
1.9810540782
 20
-26.018944884
 10
1.5727977254
 20
-26.1379145199
 10
1.1475363643
 20
-26.2355985939
 10
0.7033609383
 20
-26.3107744114
 10
0.2450306774
 20
-26.3616193677
 10
-0.2256140159
 20
-26.3872883196
  0
LINE
  5
3D2
100
AcDbEntity
  8
0
100
AcDbLine
 62
7
  6
CONTINUOUS
 10
2.2569757999
 20
-16.4935880486
 11
2.1746953869
 21
-16.5770671775
  0
LWPOLYLINE
  5
3D3
100
AcDbEntity
  8
0
100
AcDbPolyline
 62
250
  6
CONTINUOUS
 90
25
 70
0
 10
7.9109956324
 20
18.2278948585
 10
7.7499507968
 20
18.869424908
 10
7.5606836652
 20
19.4888596995
 10
7.3451075815
 20
20.0843381612
 10
7.1048222813
 20
20.6551028682
 10
6.8420486332
 20
21.1991791277
 10
6.559962019
 20
21.7133064355
 10
6.2610508892
 20
22.1961339464
 10
5.9472844009
 20
22.6475431209
 10
5.6214650406
 20
23.0662502756
 10
5.2870891099
 20
23.4507445164
 10
4.945503863
 20
23.802506489
 10
4.5960708081
 20
24.1244105044
 10
4.2419004791
 20
24.4154886565
 10
3.8840623946
 20
24.676876139
 10
3.517929754
 20
24.9134190935
 10
3.1458297054
 20
25.1245161673
 10
2.7691109074
 20
25.3102406294
 10
2.3803584702
 20
25.4742877572
 10
1.9810540782
 20
25.6160242475
 10
1.5727977254
 20
25.7349938835
 10
1.1475363643
 20
25.8326779575
 10
0.7033609383
 20
25.9078537749
 10
0.2450306774
 20
25.9586987312
 10
-0.2256140159
 20
25.9843676832
  0
LWPOLYLINE
  5
3D4
100
AcDbEntity
  8
DRAFT
100
AcDbPolyline
 62
7
  6
CONTINUOUS
 90
88
 70
0
 10
-0.2256140159
 20
15.9736748131
 10
-0.3976453824
 20
15.9789439801
 10
-0.5639033359
 20
15.9940675484
 10
-0.7238872781
 20
16.0180807301
 10
-0.8763677309
 20
16.0498300173
 10
-1.0219032381
 20
16.0884840724
 10
-1.1627150003
 20
16.1339837811
 10
-1.2981664754
 20
16.1856603001
 10
-1.4284299301
 20
16.2431183616
 10
-1.5566690263
 20
16.3076344257
 10
-1.6826889826
 20
16.3793330836
 10
-1.8058347959
 20
16.4580744937
 10
-1.928082189
 20
16.5456222163
 10
-2.0488418316
 20
16.6423971049
 10
-2.1671550051
 20
16.7485353943
 10
-2.2838316794
 20
16.8659997368
 10
-2.3983707619
 20
16.9960844701
 10
-2.5085927445
 20
17.1383125857
 10
-2.6125112344
 20
17.2920285168
 10
-2.7096779941
 20
17.4588967724
 10
-2.7975000505
 20
17.6371348679
 10
-2.8721263987
 20
17.8199578278
 10
-2.9331080291
 20
18.0052741887
 10
-2.9808638341
 20
18.1931591731
 10
-3.0149189878
 20
18.379292113
 10
-3.0359752952
 20
18.5619352629
 10
-3.0449977808
 20
18.7409267378
 10
-3.0428866531
 20
18.9142998351
 10
-3.0307486564
 20
19.081172996
 10
-3.0096637909
 20
19.2412752007
 10
-2.9807973305
 20
19.393746474
 10
-2.9453927913
 20
19.5378289734
 10
-2.9044318671
 20
19.6738633504
 10
-2.858556159
 20
19.8027577108
 10
-2.8085407547
 20
19.924585867
 10
-2.7552153948
 20
20.03923705
 10
-2.6990138466
 20
20.1473521838
 10
-2.6406289324
 20
20.2489058317
 10
-2.580606198
 20
20.3441121262
 10
-2.5189245523
 20
20.4339260161
 10
-2.4559248736
 20
20.5185714665
 10
-2.3921032638
 20
20.5980424857
 10
-2.3274880309
 20
20.6728797789
 10
-2.2623065469
 20
20.7433008558
 10
-2.196950693
 20
20.809330702
 10
-2.1316129533
 20
20.8711944867
 10
-2.0666086416
 20
20.9289845215
 10
-2.0021261969
 20
20.9829004944
 10
-1.938113555
 20
21.0333064518
 10
-1.8747478767
 20
21.0803464682
 10
-1.812221398
 20
21.1241465829
 10
-1.7504513532
 20
21.1650053315
 10
-1.6895493995
 20
21.2030629095
 10
-1.6296763471
 20
21.238422937
 10
-1.5707873185
 20
21.2712993241
 10
-1.5130107254
 20
21.3017933363
 10
-1.4564242271
 20
21.3300294833
 10
-1.4008799687
 20
21.356228552
 10
-1.3464436058
 20
21.3804912673
 10
-1.2931979274
 20
21.4029073349
 10
-1.2409988305
 20
21.4236515012
 10
-1.1898780743
 20
21.4428134606
 10
-1.1399113502
 20
21.4604635656
 10
-1.0910059195
 20
21.4767256832
 10
-1.0432025768
 20
21.4916703639
 10
-0.9965401658
 20
21.5053667828
 10
-0.9509132202
 20
21.5179201677
 10
-0.9063457757
 20
21.5293921652
 10
-0.8628718723
 20
21.539840142
 10
-0.8203938161
 20
21.5493483273
 10
-0.7788993918
 20
21.5579748445
 10
-0.7384428704
 20
21.5657621616
 10
-0.6990218968
 20
21.5727628384
 10
-0.6606100481
 20
21.5790309791
 10
-0.6232651811
 20
21.5846050268
 10
-0.5871095017
 20
21.5895158802
 10
-0.5522529369
 20
21.5938003531
 10
-0.5186097629
 20
21.597518816
 10
-0.4860064981
 20
21.6007330414
 10
-0.4545991704
 20
21.6034682765
 10
-0.4242472628
 20
21.605776024
 10
-0.3943287646
 20
21.6077287099
 10
-0.364537393
 20
21.6093560109
 10
-0.3351874806
 20
21.6106503597
 10
-0.3065863339
 20
21.6116171147
 10
-0.278838868
 20
21.612277434
 10
-0.25184717
 20
21.6126577303
 10
-0.2256140159
 20
21.612779863
  0
LINE
  5
3D5
100
AcDbEntity
  8
0
100
AcDbLine
 62
7
  6
CONTINUOUS
 10
2.1523986157
 20
18.2985396818
 11
-2.6036266476
 21
18.2985396818
  0
LINE
  5
3D6
100
AcDbEntity
  8
0
100
AcDbLine
 62
7
  6
CONTINUOUS
 10
2.1523986157
 20
19.2985396818
 11
-2.6036266476
 21
19.2985396818
  0
LWPOLYLINE
  5
3D7
100
AcDbEntity
  8
DRAFT
100
AcDbPolyline
 62
7
  6
CONTINUOUS
 90
88
 70
0
 10
-0.2256140159
 20
21.612779863
 10
-0.1994671718
 20
21.6126585327
 10
-0.1725658946
 20
21.6122807652
 10
-0.144912932
 20
21.6116248925
 10
-0.116411207
 20
21.610664747
 10
-0.0871647238
 20
21.6093793525
 10
-0.0574781378
 20
21.6077633419
 10
-0.0276620761
 20
21.605824046
 10
0.0025861188
 20
21.6035321161
 10
0.0338801414
 20
21.6008161938
 10
0.0663553821
 20
21.5976258323
 10
0.0998611599
 20
21.5939358042
 10
0.1345783839
 20
21.5896839873
 10
0.1705950298
 20
21.5848100337
 10
0.2077991686
 20
21.5792776127
 10
0.246069628
 20
21.5730558831
 10
0.2853501934
 20
21.5661063236
 10
0.325665949
 20
21.5583753116
 10
0.3670158532
 20
21.5498112932
 10
0.4093462776
 20
21.5403720645
 10
0.4526692672
 20
21.5300000054
 10
0.4970780283
 20
21.5186126684
 10
0.5425369556
 20
21.5061538931
 10
0.5890243863
 20
21.4925622327
 10
0.6366473318
 20
21.4777329751
 10
0.6853683994
 20
21.4615972936
 10
0.7351463872
 20
21.4440856045
 10
0.7860729201
 20
21.4250755974
 10
0.8380769756
 20
21.4044960894
 10
0.8911235623
 20
21.3822596886
 10
0.9453443654
 20
21.3581989223
 10
1.0006495916
 20
21.3322298327
 10
1.0569836739
 20
21.3042497887
 10
1.1145079803
 20
21.2740339901
 10
1.1731477477
 20
21.2414582058
 10
1.2327747476
 20
21.2064228307
 10
1.2934429128
 20
21.1687107535
 10
1.3550037195
 20
21.1282113688
 10
1.4173360652
 20
21.0847915322
 10
1.4805005932
 20
21.038172038
 10
1.5442926187
 20
20.9882418783
 10
1.6085556386
 20
20.9348471748
 10
1.6733697023
 20
20.8776058555
 10
1.7385561527
 20
20.816311575
 10
1.8037952945
 20
20.7508774452
 10
1.8688998695
 20
20.6810758257
 10
1.9335104749
 20
20.6068445355
 10
1.9973706203
 20
20.5279983909
 10
2.060376646
 20
20.4441071897
 10
2.1220072747
 20
20.3552446437
 10
2.1819855527
 20
20.2611350583
 10
2.2403977712
 20
20.1607574298
 10
2.2967138005
 20
20.0538929086
 10
2.3502523047
 20
19.9405666641
 10
2.4006246514
 20
19.8200667288
 10
2.4470163134
 20
19.6924634436
 10
2.4886452077
 20
19.5577007443
 10
2.5248771092
 20
19.4148806625
 10
2.5547330198
 20
19.2637037633
 10
2.5769883232
 20
19.1048564504
 10
2.590487152
 20
18.9390342542
 10
2.5941274846
 20
18.7663523614
 10
2.5867580038
 20
18.5878086699
 10
2.5674720064
 20
18.4056135193
 10
2.5353853463
 20
18.2201841189
 10
2.4897849983
 20
18.0329524872
 10
2.4309295801
 20
17.8476718677
 10
2.3582428377
 20
17.6641343614
 10
2.27210414
 20
17.4846261217
 10
2.1761560785
 20
17.3159333103
 10
2.0727385374
 20
17.1597250891
 10
1.9623617102
 20
17.0146395678
 10
1.8473926803
 20
16.8819121388
 10
1.730208399
 20
16.76218828
 10
1.6112168153
 20
16.6539996188
 10
1.4896471856
 20
16.5553676209
 10
1.3664720027
 20
16.4661460826
 10
1.242319823
 20
16.3859197404
 10
1.1152822754
 20
16.3129285932
 10
0.9860754749
 20
16.2473219226
 10
0.8548755587
 20
16.188938652
 10
0.7184533964
 20
16.1364486888
 10
0.5766417215
 20
16.0902476655
 10
0.4300885667
 20
16.0510086251
 10
0.2765032076
 20
16.0187737429
 10
0.115306838
 20
15.9943869844
 10
-0.0522363214
 20
15.9790267328
 10
-0.2256140159
 20
15.9736748131
  0
LINE
  5
3D8
100
AcDbEntity
  8
0
100
AcDbLine
 62
7
  6
CONTINUOUS
 10
-2.4756140159
 20
-30.322059322
 11
-2.4708728342
 21
-30.3196527666
  0
CIRCLE
  5
3D9
100
AcDbEntity
  8
DRAFT
100
AcDbCircle
 62
7
  6
CONTINUOUS
 10
-0.2256140159
 20
-19.2014603182
 40
2.75
  0
ARC
  5
3DA
100
AcDbEntity
  8
0
100
AcDbCircle
 62
7
  6
CONTINUOUS
 10
-1.1931680159
 20
-9.2014603182
 40
2.5499985399
100
AcDbArc
 50
87.7525290943
 51
272.2474709057
  0
CIRCLE
  5
3DB
100
AcDbEntity
  8
0
100
AcDbCircle
 62
7
  6
CONTINUOUS
 10
-0.2256140159
 20
-19.2014603182
 40
2.5
  0
ARC
  5
3DC
100
AcDbEntity
  8
0
100
AcDbCircle
 62
7
  6
CONTINUOUS
 10
-0.2256140159
 20
-19.2014603182
 40
2.4300090692
100
AcDbArc
 50
168.1259755238
 51
191.8740244762
  0
ARC
  5
3DD
100
AcDbEntity
  8
0
100
AcDbCircle
 62
7
  6
CONTINUOUS
 10
-0.2256140159
 20
-19.2014603182
 40
2.4300090692
100
AcDbArc
 50
348.1259755238
 51
11.8740244762
  0
ARC
  5
3DE
100
AcDbEntity
  8
0
100
AcDbCircle
 62
7
  6
CONTINUOUS
 10
-0.2256140159
 20
-19.2014603182
 40
2.3250226729
100
AcDbArc
 50
192.4185584697
 51
347.5814415303
  0
ARC
  5
3DF
100
AcDbEntity
  8
0
100
AcDbCircle
 62
7
  6
CONTINUOUS
 10
-0.2256140159
 20
-19.2014603182
 40
2.3250226729
100
AcDbArc
 50
12.4185584697
 51
167.5814415303
  0
ARC
  5
3E0
100
AcDbEntity
  8
0
100
AcDbCircle
 62
7
  6
CONTINUOUS
 10
-1.1931680159
 20
-9.2014603182
 40
1.7999999246
100
AcDbArc
 50
86.8152613297
 51
269.0975714961
  0
CIRCLE
  5
3E1
100
AcDbEntity
  8
DRAFT
100
AcDbCircle
 62
7
  6
CONTINUOUS
 10
-0.2256140159
 20
18.7985396818
 40
2.75
  0
CIRCLE
  5
3E2
100
AcDbEntity
  8
0
100
AcDbCircle
 62
7
  6
CONTINUOUS
 10
-0.2256140159
 20
18.7985396818
 40
2.5
  0
ARC
  5
3E3
100
AcDbEntity
  8
0
100
AcDbCircle
 62
7
  6
CONTINUOUS
 10
-0.2256140159
 20
18.7985396818
 40
2.4300090692
100
AcDbArc
 50
168.1259755238
 51
191.8740244762
  0
ARC
  5
3E4
100
AcDbEntity
  8
0
100
AcDbCircle
 62
7
  6
CONTINUOUS
 10
-0.2256140159
 20
18.7985396818
 40
2.4300090692
100
AcDbArc
 50
348.1259755238
 51
11.8740244762
  0
ARC
  5
3E5
100
AcDbEntity
  8
0
100
AcDbCircle
 62
7
  6
CONTINUOUS
 10
-0.2256140159
 20
18.7985396818
 40
2.3250226729
100
AcDbArc
 50
192.4185584697
 51
347.5814415303
  0
ARC
  5
3E6
100
AcDbEntity
  8
0
100
AcDbCircle
 62
7
  6
CONTINUOUS
 10
-0.2256140159
 20
18.7985396818
 40
2.3250226729
100
AcDbArc
 50
12.4185584697
 51
167.5814415303
  0
ARC
  5
3E7
100
AcDbEntity
  8
0
100
AcDbCircle
 62
7
  6
CONTINUOUS
 10
-0.2256140159
 20
4.7985396818
 40
1.6991856757
100
AcDbArc
 50
292.0885495278
 51
273.4298066134
  0
ARC
  5
3E8
100
AcDbEntity
  8
0
100
AcDbCircle
 62
7
  6
CONTINUOUS
 10
-0.2770070159
 20
1.5953556818
 40
1.5147933085
100
AcDbArc
 50
47.231290534
 51
84.2011966588
  0
ARC
  5
3E9
100
AcDbEntity
  8
0
100
AcDbCircle
 62
7
  6
CONTINUOUS
 10
-0.1577940159
 20
1.8407186818
 40
1.49661481
100
AcDbArc
 50
45.4348660075
 51
67.5658480123
  0
CIRCLE
  5
3EA
100
AcDbEntity
  8
0
100
AcDbCircle
 62
7
  6
CONTINUOUS
 10
-0.2256140159
 20
4.7985396818
 40
1.427197
  0
ARC
  5
3EB
100
AcDbEntity
  8
0
100
AcDbCircle
 62
7
  6
CONTINUOUS
 10
-0.2256140159
 20
4.7985396818
 40
1.2764286685
100
AcDbArc
 50
134.9002719139
 51
240.6958668615
  0
ARC
  5
3EC
100
AcDbEntity
  8
0
100
AcDbCircle
 62
7
  6
CONTINUOUS
 10
-0.2256140159
 20
4.7985396818
 40
1.2764284894
100
AcDbArc
 50
299.3041331385
 51
44.9957799582
  0
ARC
  5
3ED
100
AcDbEntity
  8
0
100
AcDbCircle
 62
7
  6
CONTINUOUS
 10
-0.2256140159
 20
4.7985396818
 40
1.0226497574
100
AcDbArc
 50
148.0267399114
 51
240.6958666074
  0
ARC
  5
3EE
100
AcDbEntity
  8
0
100
AcDbCircle
 62
7
  6
CONTINUOUS
 10
-0.2256140159
 20
4.7985396818
 40
1.0226493867
100
AcDbArc
 50
299.3041333926
 51
31.973257115
  0
ARC
  5
3EF
100
AcDbEntity
  8
0
100
AcDbCircle
 62
7
  6
CONTINUOUS
 10
3.1919419841
 20
-9.2014603182
 40
2.5499986575
100
AcDbArc
 50
87.752529198
 51
272.247470802
  0
ARC
  5
3F0
100
AcDbEntity
  8
0
100
AcDbCircle
 62
7
  6
CONTINUOUS
 10
3.1919419841
 20
-9.2014603182
 40
1.7999999246
100
AcDbArc
 50
86.8152613297
 51
167.9753003079
  0
ARC
  5
3F1
100
AcDbEntity
  8
0
100
AcDbCircle
 62
7
  6
CONTINUOUS
 10
3.1919419841
 20
-9.2014603182
 40
1.7999968808
100
AcDbArc
 50
192.0247203293
 51
273.1847440612
  0
CIRCLE
  5
3F2
100
AcDbEntity
  8
0
100
AcDbCircle
 62
7
  6
CONTINUOUS
 10
1.3590988519
 20
-13.3525535319
 40
0.2138345534
  0
CIRCLE
  5
3F3
100
AcDbEntity
  8
0
100
AcDbCircle
 62
7
  6
CONTINUOUS
 10
1.3590988519
 20
-13.3525535319
 40
0.1411125651
  0
ARC
  5
3F4
100
AcDbEntity
  8
0
100
AcDbCircle
 62
7
  6
CONTINUOUS
 10
3.4633399841
 20
10.1948806818
 40
0.6287074522
100
AcDbArc
 50
292.8428571402
 51
90.0
  0
ARC
  5
3F5
100
AcDbEntity
  8
0
100
AcDbCircle
 62
7
  6
CONTINUOUS
 10
3.4064309841
 20
10.1948806818
 40
0.249439
100
AcDbArc
 50
270.0
 51
90.0
  0
ENDSEC
  0
SECTION
  2
OBJECTS
  0
DICTIONARY
  5
C
100
AcDbDictionary
280
0
281
1
  3
ACAD_GROUP
350
D
  3
ACAD_MLINESTYLE
350
17
  3
ACAD_LAYOUT
350
1A
  3
ACAD_PLOTSETTINGS
350
19
  3
ACAD_PLOTSTYLENAME
350
E
  0
DICTIONARY
  5
D
102
{ACAD_REACTORS
330
C
102
}
100
AcDbDictionary
280
0
281
1
  0
ACDBDICTIONARYWDFLT
  5
E
102
{ACAD_REACTORS
330
C
102
}
100
AcDbDictionary
281
1
  3
Normal
350
F
100
AcDbDictionaryWithDefault
340
F
  0
DICTIONARY
  5
17
102
{ACAD_REACTORS
330
C
102
}
100
AcDbDictionary
280
0
281
1
  3
Standard
350
18
  0
DICTIONARY
  5
19
102
{ACAD_REACTORS
330
C
102
}
100
AcDbDictionary
281
1
  0
DICTIONARY
  5
1A
102
{ACAD_REACTORS
330
C
102
}
100
AcDbDictionary
281
1
  3
Model
350
3F6
  3
Layout1
350
3F7
  0
ACDBPLACEHOLDER
  5
F
102
{ACAD_REACTORS
330
E
102
}
  0
MLINESTYLE
  5
18
102
{ACAD_REACTORS
330
17
102
}
100
AcDbMlineStyle
  2
STANDARD
 70
0
  3

 62
256
 51
90.0
 52
90.0
 71
2
 49
0.5
 62
256
  6
BYLAYER
 49
-0.5
 62
256
  6
BYLAYER
  0
LAYOUT
  5
3F6
102
{ACAD_REACTORS
330
1A
102
}
100
AcDbPlotSettings
  1

  2
none_device
  4
ISO_A3_(420.00_x_297.00_MM)
  6

 40
0.0
 41
0.0
 42
0.0
 43
0.0
 44
420.0
 45
297.0
 46
0.0
 47
0.0
 48
0.0
 49
0.0
140
0.0
141
0.0
142
1.0
143
1.0
 70
1024
 72
1
 73
0
 74
0
  7

 75
0
147
1.0
148
0.0
149
0.0
100
AcDbLayout
  1
Model
 70
0
 71
0
 10
0.0
 20
0.0
 11
420.0
 21
297.0
 12
0.0
 22
0.0
 32
0.0
 14
0.0
 24
0.0
 34
0.0
 15
0.0
 25
0.0
 35
0.0
146
0.0
 13
0.0
 23
0.0
 33
0.0
 16
1.0
 26
0.0
 36
0.0
 17
0.0
 27
1.0
 37
0.0
 76
0
330
214
345
0
346
0
  0
LAYOUT
  5
3F7
102
{ACAD_REACTORS
330
1A
102
}
100
AcDbPlotSettings
  1

  2
none_device
  4
ISO_A3_(420.00_x_297.00_MM)
  6

 40
0.0
 41
0.0
 42
0.0
 43
0.0
 44
420.0
 45
297.0
 46
0.0
 47
0.0
 48
0.0
 49
0.0
140
0.0
141
0.0
142
1.0
143
1.0
 70
0
 72
1
 73
0
 74
0
  7

 75
0
147
1.0
148
0.0
149
0.0
100
AcDbLayout
  1
Layout1
 70
0
 71
1
 10
0.0
 20
0.0
 11
420.0
 21
297.0
 12
0.0
 22
0.0
 32
0.0
 14
0.0
 24
0.0
 34
0.0
 15
0.0
 25
0.0
 35
0.0
146
0.0
 13
0.0
 23
0.0
 33
0.0
 16
1.0
 26
0.0
 36
0.0
 17
0.0
 27
1.0
 37
0.0
 76
0
330
215
345
0
346
0
  0
ENDSEC
  0
EOF
