  0
SECTION
  2
HEADER
  9
$ACADVER
  1
AC1024
  9
$DWGCODEPAGE
  3
ANSI_1252
  9
$EXTMAX
 10
558.8
 20
431.8
 30
0.0
  9
$EXTMIN
 10
0.0
 20
0.0
 30
0.0
  9
$LIMMIN
 10
0.0
 20
0.0
  9
$LIMMAX
 10
558.8
 20
431.8
  9
$VIEWCTR
 10
279.4
 20
215.9
  9
$VIEWSIZE
 40
431.8
  9
$CLAYER
  8
0
  9
$LTSCALE
 40
30.734
  9
$CELTYPE
  6
BYLAYER
  9
$DIMSCALE
 40
1.0
  9
$DIMASZ
 40
3.0
  9
$DIMEXO
 40
0.5
  9
$DIMDLI
 40
21.2344
  9
$DIMEXE
 40
1.5
  9
$DIMCEN
 40
5.0292
  9
$DIMLFAC
 40
1.0
  9
$DIMBLK
  1
_FILLED
  9
$DIMALT
 70
0
  9
$DIMALTF
 40
0.0393700787
  9
$DIMTXT
 40
3.0
  9
$DIMTOL
 70
1
  9
$DIMLIM
 70
0
  9
$DIMTFAC
 40
1.0
  9
$DIMTP
 40
0.01
  9
$DIMTM
 40
0.01
  9
$DIMGAP
 40
0.625
  9
$DIMDSEP
 70
44
  9
$AUNITS
 70
0
  9
$PDMODE
 70
3
  9
$PDSIZE
 40
3.0
  9
$HANDSEED
  5
5C9
  9
$TILEMODE
 70
1
  9
$MEASUREMENT
 70
1
  9
$INSUNITS
 70
4
  0
ENDSEC
  0
SECTION
  2
CLASSES
  0
CLASS
  1
ACDBDICTIONARYWDFLT
  2
AcDbDictionaryWithDefault
  3
AutoCAD 2000
 90
0
 91
1
280
0
281
0
  0
CLASS
  1
ACDBPLACEHOLDER
  2
AcDbPlaceHolder
  3
AutoCAD 2000
 90
0
 91
1
280
0
281
0
  0
CLASS
  1
LAYOUT
  2
AcDbLayout
  3
AutoCAD 2000
 90
0
 91
0
280
0
281
0
  0
ENDSEC
  0
SECTION
  2
TABLES
  0
TABLE
  2
VPORT
  5
8
100
AcDbSymbolTable
 70
2
  0
VPORT
  5
1F4
100
AcDbSymbolTableRecord
100
AcDbViewportTableRecord
  2
*ACTIVE
 70
0
 10
0.0
 20
0.0
 11
1.0
 21
1.0
 12
279.4
 22
215.9
 13
0.0
 23
0.0
 14
1.0
 24
1.0
 15
0.0
 25
0.0
 16
0.0
 26
0.0
 36
1.0
 17
0.0
 27
0.0
 37
0.0
 40
431.8
 41
1.2941176471
 42
50.0
 43
0.0
 44
0.0
 50
0.0
 51
0.0
 71
0
 72
100
 73
1
 74
1
 75
0
 76
0
 77
0
 78
0
  0
ENDTAB
  0
TABLE
  2
LTYPE
  5
5
100
AcDbSymbolTable
 70
6
  0
LTYPE
  5
14
100
AcDbSymbolTableRecord
100
AcDbLinetypeTableRecord
  2
BYBLOCK
 70
0
  3

 72
65
 73
0
 40
0.0
  0
LTYPE
  5
15
100
AcDbSymbolTableRecord
100
AcDbLinetypeTableRecord
  2
BYLAYER
 70
0
  3

 72
65
 73
0
 40
0.0
  0
LTYPE
  5
16
100
AcDbSymbolTableRecord
100
AcDbLinetypeTableRecord
  2
CONTINUOUS
 70
64
  3
Solid line
 72
65
 73
0
 40
0.0
  0
LTYPE
  5
1F5
100
AcDbSymbolTableRecord
100
AcDbLinetypeTableRecord
  2
CENTER
 70
64
  3
____ _ ____ _ ____ _ ____ _ ____ _ ____ _ ____
 72
65
 73
4
 40
0.6
 49
0.375
 74
0
 49
-0.075
 74
0
 49
0.075
 74
0
 49
-0.075
 74
0
  0
LTYPE
  5
1F6
100
AcDbSymbolTableRecord
100
AcDbLinetypeTableRecord
  2
HIDDEN
 70
64
  3
- - - - - - - - - - - - - - - - - - - -
 72
65
 73
2
 40
0.2
 49
0.1
 74
0
 49
-0.1
 74
0
  0
LTYPE
  5
1F7
100
AcDbSymbolTableRecord
100
AcDbLinetypeTableRecord
  2
PHANTOM
 70
64
  3
_____ _ _ _____ _ _ _____ _ _ _____
 72
65
 73
6
 40
0.8
 49
0.45
 74
0
 49
-0.05
 74
0
 49
0.1
 74
0
 49
-0.05
 74
0
 49
0.1
 74
0
 49
-0.05
 74
0
  0
LTYPE
  5
1F8
100
AcDbSymbolTableRecord
100
AcDbLinetypeTableRecord
  2
DOT
 70
64
  3
. . . . . . . . . . . . . . . . . . . .
 72
65
 73
2
 40
0.2
 49
0.1
 74
0
 49
-0.1
 74
0
  0
LTYPE
  5
1F9
100
AcDbSymbolTableRecord
100
AcDbLinetypeTableRecord
  2
DASHED
 70
64
  3
- - - - - - - - - - - - - - - - - - - -
 72
65
 73
2
 40
0.2
 49
0.1
 74
0
 49
-0.1
 74
0
  0
ENDTAB
  0
TABLE
  2
LAYER
  5
2
100
AcDbSymbolTable
 70
36
  0
LAYER
  5
10
100
AcDbSymbolTableRecord
100
AcDbLayerTableRecord
  2
0
 70
0
 62
7
  6
CONTINUOUS
370
-3
390
F
  0
LAYER
  5
1FA
100
AcDbSymbolTableRecord
100
AcDbLayerTableRecord
  2
DEFAULT_1
 70
0
 62
7
  6
CENTER
370
-3
390
F
  0
LAYER
  5
1FB
100
AcDbSymbolTableRecord
100
AcDbLayerTableRecord
  2
DEFAULT_2
 70
0
 62
7
  6
HIDDEN
370
-3
390
F
  0
LAYER
  5
1FC
100
AcDbSymbolTableRecord
100
AcDbLayerTableRecord
  2
DEFAULT_3
 70
0
 62
7
  6
PHANTOM
370
-3
390
F
  0
LAYER
  5
1FD
100
AcDbSymbolTableRecord
100
AcDbLayerTableRecord
  2
ASSI
 70
0
 62
7
  6
CONTINUOUS
370
-3
390
F
  0
LAYER
  5
1FE
100
AcDbSymbolTableRecord
100
AcDbLayerTableRecord
  2
COLOR5
 70
0
 62
7
  6
CONTINUOUS
370
-3
390
F
  0
LAYER
  5
1FF
100
AcDbSymbolTableRecord
100
AcDbLayerTableRecord
  2
COORDINATE
 70
0
 62
7
  6
CONTINUOUS
370
-3
390
F
  0
LAYER
  5
200
100
AcDbSymbolTableRecord
100
AcDbLayerTableRecord
  2
COORD_ORIGINE
 70
0
 62
7
  6
CONTINUOUS
370
-3
390
F
  0
LAYER
  5
201
100
AcDbSymbolTableRecord
100
AcDbLayerTableRecord
  2
COPY_PUBLISH
 70
0
 62
7
  6
CONTINUOUS
370
-3
390
F
  0
LAYER
  5
202
100
AcDbSymbolTableRecord
100
AcDbLayerTableRecord
  2
COSMETICHE
 70
0
 62
7
  6
CONTINUOUS
370
-3
390
F
  0
LAYER
  5
203
100
AcDbSymbolTableRecord
100
AcDbLayerTableRecord
  2
COSMETICI
 70
0
 62
7
  6
CONTINUOUS
370
-3
390
F
  0
LAYER
  5
204
100
AcDbSymbolTableRecord
100
AcDbLayerTableRecord
  2
CURVE
 70
0
 62
7
  6
CONTINUOUS
370
-3
390
F
  0
LAYER
  5
205
100
AcDbSymbolTableRecord
100
AcDbLayerTableRecord
  2
DRAFT
 70
0
 62
7
  6
CONTINUOUS
370
-3
390
F
  0
LAYER
  5
206
100
AcDbSymbolTableRecord
100
AcDbLayerTableRecord
  2
IGES
 70
0
 62
7
  6
CONTINUOUS
370
-3
390
F
  0
LAYER
  5
207
100
AcDbSymbolTableRecord
100
AcDbLayerTableRecord
  2
IMPORT_IGES
 70
0
 62
7
  6
CONTINUOUS
370
-3
390
F
  0
LAYER
  5
208
100
AcDbSymbolTableRecord
100
AcDbLayerTableRecord
  2
INTF_1
 70
0
 62
7
  6
CONTINUOUS
370
-3
390
F
  0
LAYER
  5
209
100
AcDbSymbolTableRecord
100
AcDbLayerTableRecord
  2
INTF_11
 70
0
 62
7
  6
CONTINUOUS
370
-3
390
F
  0
LAYER
  5
20A
100
AcDbSymbolTableRecord
100
AcDbLayerTableRecord
  2
INTF_2
 70
0
 62
7
  6
CONTINUOUS
370
-3
390
F
  0
LAYER
  5
20B
100
AcDbSymbolTableRecord
100
AcDbLayerTableRecord
  2
INTF_3
 70
0
 62
7
  6
CONTINUOUS
370
-3
390
F
  0
LAYER
  5
20C
100
AcDbSymbolTableRecord
100
AcDbLayerTableRecord
  2
INTF_52
 70
0
 62
7
  6
CONTINUOUS
370
-3
390
F
  0
LAYER
  5
20D
100
AcDbSymbolTableRecord
100
AcDbLayerTableRecord
  2
INTF_GREEN
 70
0
 62
7
  6
CONTINUOUS
370
-3
390
F
  0
LAYER
  5
20E
100
AcDbSymbolTableRecord
100
AcDbLayerTableRecord
  2
INTF_MAGENTA
 70
0
 62
7
  6
CONTINUOUS
370
-3
390
F
  0
LAYER
  5
20F
100
AcDbSymbolTableRecord
100
AcDbLayerTableRecord
  2
INTF_YELLOW
 70
0
 62
7
  6
CONTINUOUS
370
-3
390
F
  0
LAYER
  5
210
100
AcDbSymbolTableRecord
100
AcDbLayerTableRecord
  2
NOTE
 70
0
 62
7
  6
CONTINUOUS
370
-3
390
F
  0
LAYER
  5
211
100
AcDbSymbolTableRecord
100
AcDbLayerTableRecord
  2
PIANI
 70
0
 62
7
  6
CONTINUOUS
370
-3
390
F
  0
LAYER
  5
212
100
AcDbSymbolTableRecord
100
AcDbLayerTableRecord
  2
PIANI_ORIGINE
 70
0
 62
7
  6
CONTINUOUS
370
-3
390
F
  0
LAYER
  5
213
100
AcDbSymbolTableRecord
100
AcDbLayerTableRecord
  2
PUNTI
 70
0
 62
7
  6
CONTINUOUS
370
-3
390
F
  0
LAYER
  5
214
100
AcDbSymbolTableRecord
100
AcDbLayerTableRecord
  2
RACCORDO
 70
0
 62
7
  6
CONTINUOUS
370
-3
390
F
  0
LAYER
  5
215
100
AcDbSymbolTableRecord
100
AcDbLayerTableRecord
  2
RGB__255__255__255__
 70
0
 62
7
  6
CONTINUOUS
370
-3
390
F
  0
LAYER
  5
216
100
AcDbSymbolTableRecord
100
AcDbLayerTableRecord
  2
RGB____0____0____0__
 70
0
 62
7
  6
CONTINUOUS
370
-3
390
F
  0
LAYER
  5
217
100
AcDbSymbolTableRecord
100
AcDbLayerTableRecord
  2
SIMBOLI
 70
0
 62
7
  6
CONTINUOUS
370
-3
390
F
  0
LAYER
  5
218
100
AcDbSymbolTableRecord
100
AcDbLayerTableRecord
  2
SMUSSO
 70
0
 62
7
  6
CONTINUOUS
370
-3
390
F
  0
LAYER
  5
219
100
AcDbSymbolTableRecord
100
AcDbLayerTableRecord
  2
SNAPLINE
 70
0
 62
7
  6
CONTINUOUS
370
-3
390
F
  0
LAYER
  5
21A
100
AcDbSymbolTableRecord
100
AcDbLayerTableRecord
  2
SUPERFICI
 70
0
 62
7
  6
CONTINUOUS
370
-3
390
F
  0
LAYER
  5
21B
100
AcDbSymbolTableRecord
100
AcDbLayerTableRecord
  2
TRASH
 70
0
 62
7
  6
CONTINUOUS
370
-3
390
F
  0
LAYER
  5
21C
100
AcDbSymbolTableRecord
100
AcDbLayerTableRecord
  2
XSEC_DATUMS
 70
0
 62
7
  6
CONTINUOUS
370
-3
390
F
  0
ENDTAB
  0
TABLE
  2
STYLE
  5
3
100
AcDbSymbolTable
 70
1
  0
STYLE
  5
11
100
AcDbSymbolTableRecord
100
AcDbTextStyleTableRecord
  2
STANDARD
 70
0
 40
0.0
 41
0.8
 50
0.0
 71
0
 42
0.2
  3
txt
  4

  0
STYLE
  5
21D
100
AcDbSymbolTableRecord
100
AcDbTextStyleTableRecord
  2
TEXTSTYLE_1
 70
0
 40
0.0
 41
0.8
 50
0.0
 71
0
 42
0.2
  3
gdt
  4

  0
ENDTAB
  0
TABLE
  2
VIEW
  5
6
100
AcDbSymbolTable
 70
0
  0
ENDTAB
  0
TABLE
  2
UCS
  5
7
100
AcDbSymbolTable
 70
0
  0
ENDTAB
  0
TABLE
  2
APPID
  5
9
100
AcDbSymbolTable
 70
1
  0
APPID
  5
21E
100
AcDbSymbolTableRecord
100
AcDbRegAppTableRecord
  2
ACAD
 70
0
  0
ENDTAB
  0
TABLE
  2
BLOCK_RECORD
  5
1
100
AcDbSymbolTable
 70
0
  0
BLOCK_RECORD
  5
21F
100
AcDbSymbolTableRecord
100
AcDbBlockTableRecord
  2
*Model_Space
  0
BLOCK_RECORD
  5
220
100
AcDbSymbolTableRecord
100
AcDbBlockTableRecord
  2
*Paper_Space
  0
BLOCK_RECORD
  5
221
100
AcDbSymbolTableRecord
100
AcDbBlockTableRecord
  2
_FILLED
  0
ENDTAB
  0
TABLE
  2
DIMSTYLE
  5
A
100
AcDbSymbolTable
 70
1
100
AcDbDimStyleTable
 71
0
  0
DIMSTYLE
105
222
100
AcDbSymbolTableRecord
100
AcDbDimStyleTableRecord
  2
STANDARD
 70
0
  3

  4

 40
1.0
 41
3.0
 42
0.5
 43
0.38
 44
1.5
 45
0.0
 46
0.0
 47
0.01
 48
0.01
140
3.0
141
0.09
142
0.0
143
25.4
144
1.0
145
0.0
146
1.0
147
0.625
 71
1
 72
0
 73
0
 74
0
 75
0
 76
0
 77
1
 78
8
 79
2
170
0
171
1
172
0
173
0
174
0
175
0
176
0
177
0
178
0
270
2
179
2
271
2
272
2
273
2
274
2
275
0
280
0
281
0
282
0
283
1
284
8
285
0
286
0
287
3
288
0
340
11
278
44
341
221
342
221
343
221
344
221
  0
ENDTAB
  0
ENDSEC
  0
SECTION
  2
BLOCKS
  0
BLOCK
  5
20
100
AcDbEntity
  8
0
100
AcDbBlockBegin
  2
*Model_Space
 70
0
 10
0.0
 20
0.0
 30
0.0
  3
*Model_Space
  1

  0
ENDBLK
  5
21
100
AcDbEntity
  8
0
100
AcDbBlockEnd
  0
BLOCK
  5
1C
100
AcDbEntity
  8
0
100
AcDbBlockBegin
  2
*Paper_Space
 70
0
 10
0.0
 20
0.0
 30
0.0
  3
*Paper_Space
  1

  0
ENDBLK
  5
1D
100
AcDbEntity
  8
0
100
AcDbBlockEnd
  0
BLOCK
  5
223
100
AcDbEntity
  8
0
100
AcDbBlockBegin
  2
_FILLED
 70
64
 10
0.0
 20
0.0
  3
_FILLED
  1

  0
SOLID
  5
224
100
AcDbEntity
  8
0
  6
BYBLOCK
 62
0
100
AcDbTrace
 10
0.0
 20
0.0
 11
-1.0
 21
0.3166666667
 12
-1.0
 22
-0.3166666667
 13
-1.0
 23
-0.3166666667
  0
ENDBLK
  5
225
100
AcDbEntity
  8
0
  6
BYBLOCK
 62
0
100
AcDbBlockEnd
  0
ENDSEC
  0
SECTION
  2
ENTITIES
  0
LINE
  5
226
100
AcDbEntity
  8
ASSI
100
AcDbLine
 62
7
  6
CONTINUOUS
 10
-15.993953636
 20
5.9096861815
 11
-16.009095051
 21
5.8127772492
  0
LINE
  5
227
100
AcDbEntity
  8
ASSI
100
AcDbLine
 62
7
  6
CONTINUOUS
 10
-15.9714331172
 20
6.0053107897
 11
-15.993953636
 21
5.9096861815
  0
LWPOLYLINE
  5
228
100
AcDbEntity
  8
ASSI
100
AcDbPolyline
 62
7
  6
CONTINUOUS
 90
6
 70
0
 10
-15.783456077
 20
6.4065996595
 10
-15.8111097385
 20
6.3648529491
 10
-15.8612914103
 20
6.2795732176
 10
-15.9049251705
 20
6.1907704477
 10
-15.9417069414
 20
6.0991534842
 10
-15.9714331172
 20
6.0053107897
  0
LWPOLYLINE
  5
229
100
AcDbEntity
  8
ASSI
100
AcDbPolyline
 62
7
  6
CONTINUOUS
 90
6
 70
0
 10
-15.783456077
 20
-6.4065996595
 10
-15.8111097385
 20
-6.3648529491
 10
-15.8612914103
 20
-6.2795732176
 10
-15.9049251705
 20
-6.1907704477
 10
-15.9417069414
 20
-6.0991534842
 10
-15.9714331172
 20
-6.0053107897
  0
LINE
  5
22A
100
AcDbEntity
  8
ASSI
100
AcDbLine
 62
7
  6
CONTINUOUS
 10
-15.9714331172
 20
-6.0053107897
 11
-15.993953636
 21
-5.9096861815
  0
LINE
  5
22B
100
AcDbEntity
  8
ASSI
100
AcDbLine
 62
7
  6
CONTINUOUS
 10
-15.993953636
 20
-5.9096861815
 11
-16.009095051
 21
-5.8127772492
  0
LINE
  5
22C
100
AcDbEntity
  8
ASSI
100
AcDbLine
 62
7
  6
CONTINUOUS
 10
-14.3905850284
 20
-4.4881755129
 11
-14.3350020699
 21
-5.0473337491
  0
LWPOLYLINE
  5
22D
100
AcDbEntity
  8
0
100
AcDbPolyline
 62
7
  6
CONTINUOUS
 90
7
 70
0
 10
-14.2899624531
 20
-5.5733039888
 10
-14.2882769115
 20
-5.607811237
 10
-14.28688578
 20
-5.643607497
 10
-14.2857890587
 20
-5.6804988619
 10
-14.2849867476
 20
-5.7182798436
 10
-14.2844788466
 20
-5.7567343425
 10
-14.2842653557
 20
-5.7956367323
  0
LWPOLYLINE
  5
22E
100
AcDbEntity
  8
ASSI
100
AcDbPolyline
 62
250
  6
CONTINUOUS
 90
10
 70
0
 10
-15.8496846492
 20
0.0
 10
-15.846305664
 20
-0.5766353047
 10
-15.8362822592
 20
-1.1524228366
 10
-15.8196144348
 20
-1.7273625957
 10
-15.7963014208
 20
-2.3013222374
 10
-15.7663439872
 20
-2.8744341064
 10
-15.7297444439
 20
-3.4470952364
 10
-15.6865035609
 20
-4.0194379719
 10
-15.6366205682
 20
-4.5913299686
 10
-15.5800954657
 20
-5.1627712262
  0
LWPOLYLINE
  5
22F
100
AcDbEntity
  8
ASSI
100
AcDbPolyline
 62
7
  6
CONTINUOUS
 90
9
 70
0
 10
-14.6
 20
0.0
 10
-14.5967220567
 20
-0.5619842246
 10
-14.5868991047
 20
-1.123737016
 10
-14.570531144
 20
-1.6852583741
 10
-14.5476135868
 20
-2.2466295092
 10
-14.518151021
 20
-2.807769211
 10
-14.4821572101
 20
-3.3684338489
 10
-14.4396367418
 20
-3.9285422128
 10
-14.3905850284
 20
-4.4881755129
  0
LINE
  5
230
100
AcDbEntity
  8
ASSI
100
AcDbLine
 62
7
  6
CONTINUOUS
 10
-13.299015927
 20
5.0180849909
 11
-13.2989527982
 21
5.0
  0
LINE
  5
231
100
AcDbEntity
  8
0
100
AcDbLine
 62
7
  6
CONTINUOUS
 10
-14.2899624531
 20
-5.0180849909
 11
-14.2899624531
 21
-5.5733039888
  0
LINE
  5
232
100
AcDbEntity
  8
0
100
AcDbLine
 62
7
  6
CONTINUOUS
 10
-14.2899624531
 20
5.0180849909
 11
-14.2899624531
 21
5.5733039888
  0
LINE
  5
233
100
AcDbEntity
  8
ASSI
100
AcDbLine
 62
7
  6
CONTINUOUS
 10
-13.299015927
 20
-5.0180849909
 11
-13.2989527982
 21
-5.0
  0
LWPOLYLINE
  5
234
100
AcDbEntity
  8
0
100
AcDbPolyline
 62
7
  6
CONTINUOUS
 90
7
 70
0
 10
-14.2842653557
 20
5.7956367323
 10
-14.2844657338
 20
5.7572562337
 10
-14.2849657671
 20
5.7191068196
 10
-14.2857654557
 20
5.6814146459
 10
-14.2868647996
 20
5.644403794
 10
-14.2882637987
 20
5.6082949318
 10
-14.2899624531
 20
5.5733039888
  0
LWPOLYLINE
  5
235
100
AcDbEntity
  8
ASSI
100
AcDbPolyline
 62
250
  6
CONTINUOUS
 90
10
 70
0
 10
-15.8496846492
 20
0.0
 10
-15.846305664
 20
0.5766353047
 10
-15.8362822592
 20
1.1524228366
 10
-15.8196144348
 20
1.7273625957
 10
-15.7963014208
 20
2.3013222374
 10
-15.7663439872
 20
2.8744341064
 10
-15.7297444439
 20
3.4470952364
 10
-15.6865035609
 20
4.0194379719
 10
-15.6366205682
 20
4.5913299686
 10
-15.5800954657
 20
5.1627712262
  0
LWPOLYLINE
  5
236
100
AcDbEntity
  8
ASSI
100
AcDbPolyline
 62
7
  6
CONTINUOUS
 90
9
 70
0
 10
-14.6
 20
0.0
 10
-14.5967220567
 20
0.5619842246
 10
-14.5868991047
 20
1.123737016
 10
-14.570531144
 20
1.6852583741
 10
-14.5476135868
 20
2.2466295092
 10
-14.518151021
 20
2.807769211
 10
-14.4821572101
 20
3.3684338489
 10
-14.4396367418
 20
3.9285422128
 10
-14.3905850284
 20
4.4881755129
  0
LINE
  5
237
100
AcDbEntity
  8
ASSI
100
AcDbLine
 62
7
  6
CONTINUOUS
 10
-14.3905850284
 20
4.4881755129
 11
-14.3350020699
 21
5.0473337491
  0
LINE
  5
238
100
AcDbEntity
  8
ASSI
100
AcDbLine
 62
250
  6
CONTINUOUS
 10
-14.9664295112
 20
-6.3622397747
 11
-14.8964378586
 21
-5.8715261152
  0
LWPOLYLINE
  5
239
100
AcDbEntity
  8
ASSI
100
AcDbPolyline
 62
250
  6
CONTINUOUS
 90
16
 70
0
 10
-15.5800954657
 20
5.1627712262
 10
-15.5685596668
 20
5.2361147572
 10
-15.5512541378
 20
5.3065744505
 10
-15.5281788787
 20
5.3741503062
 10
-15.4990237145
 20
5.4391829722
 10
-15.4640988203
 20
5.5013318005
 10
-15.4243347207
 20
5.5595748472
 10
-15.3795982336
 20
5.6139253878
 10
-15.3300225412
 20
5.6643701467
 10
-15.2769377148
 20
5.7098473531
 10
-15.2204522681
 20
5.7501787252
 10
-15.1604576875
 20
5.7855425448
 10
-15.0979585037
 20
5.8154118862
 10
-15.0332895603
 20
5.8396111074
 10
-14.9661160136
 20
5.8583158505
 10
-14.8964378638
 20
5.8715261153
  0
LWPOLYLINE
  5
23A
100
AcDbEntity
  8
ASSI
100
AcDbPolyline
 62
250
  6
CONTINUOUS
 90
6
 70
0
 10
-12.5324736718
 20
7.5408594694
 10
-12.5317520733
 20
7.543824478
 10
-12.5292106117
 20
7.5513969449
 10
-12.5269723173
 20
7.560405199
 10
-12.5238878628
 20
7.5711320692
 10
-12.5189682921
 20
7.5838332021
  0
LINE
  5
23B
100
AcDbEntity
  8
ASSI
100
AcDbLine
 62
250
  6
CONTINUOUS
 10
-12.5189682921
 20
7.5838332021
 11
-12.5121594979
 21
7.5983780862
  0
LINE
  5
23C
100
AcDbEntity
  8
ASSI
100
AcDbLine
 62
250
  6
CONTINUOUS
 10
-12.5120187501
 20
7.5984031716
 11
-12.5103711658
 21
7.601212418
  0
LINE
  5
23D
100
AcDbEntity
  8
ASSI
100
AcDbLine
 62
250
  6
CONTINUOUS
 10
-12.5103711692
 20
7.6012124127
 11
-12.4862554914
 21
7.6299659836
  0
LWPOLYLINE
  5
23E
100
AcDbEntity
  8
ASSI
100
AcDbPolyline
 62
7
  6
CONTINUOUS
 90
4
 70
0
 10
-15.5778306736
 20
6.6367777472
 10
-15.623855288
 20
6.5943459559
 10
-15.692040557
 20
6.5227940532
 10
-15.7546122744
 20
6.4460994432
  0
LINE
  5
23F
100
AcDbEntity
  8
ASSI
100
AcDbLine
 62
250
  6
CONTINUOUS
 10
-12.4862554914
 20
7.6299659836
 11
-12.4450157216
 21
7.6645951703
  0
LWPOLYLINE
  5
240
100
AcDbEntity
  8
ASSI
100
AcDbPolyline
 62
250
  6
CONTINUOUS
 90
9
 70
0
 10
-15.1837193792
 20
6.3122112784
 10
-15.1609239561
 20
6.3279136088
 10
-15.1377809334
 20
6.3427426726
 10
-15.1142903112
 20
6.3566984699
 10
-15.0904974851
 20
6.3697574722
 10
-15.0663570595
 20
6.381943208
 10
-15.0417328468
 20
6.3933262625
 10
-15.0165794512
 20
6.4039301641
 10
-14.9909422686
 20
6.4137313845
  0
LINE
  5
241
100
AcDbEntity
  8
ASSI
100
AcDbLine
 62
250
  6
CONTINUOUS
 10
-12.4450157216
 20
7.6645951703
 11
-12.3846240774
 21
7.7053085574
  0
LWPOLYLINE
  5
242
100
AcDbEntity
  8
ASSI
100
AcDbPolyline
 62
250
  6
CONTINUOUS
 90
5
 70
0
 10
-15.3036160926
 20
6.8225766405
 10
-15.3898031907
 20
6.7749123546
 10
-15.472246033
 20
6.7207676879
 10
-15.5504576978
 20
6.6604393134
 10
-15.5778306736
 20
6.6367777472
  0
LWPOLYLINE
  5
243
100
AcDbEntity
  8
ASSI
100
AcDbPolyline
 62
250
  6
CONTINUOUS
 90
5
 70
0
 10
-15.3036160926
 20
-6.8225766405
 10
-15.3898031907
 20
-6.7749123546
 10
-15.472246033
 20
-6.7207676879
 10
-15.5504576978
 20
-6.6604393134
 10
-15.5778306736
 20
-6.6367777472
  0
LINE
  5
244
100
AcDbEntity
  8
ASSI
100
AcDbLine
 62
250
  6
CONTINUOUS
 10
-12.4450157216
 20
-7.6645951703
 11
-12.3846240774
 21
-7.7053085574
  0
LWPOLYLINE
  5
245
100
AcDbEntity
  8
ASSI
100
AcDbPolyline
 62
250
  6
CONTINUOUS
 90
9
 70
0
 10
-15.1837193792
 20
-6.3122112784
 10
-15.1609239561
 20
-6.3279136088
 10
-15.1377809334
 20
-6.3427426726
 10
-15.1142903112
 20
-6.3566984699
 10
-15.0904974851
 20
-6.3697574722
 10
-15.0663570595
 20
-6.381943208
 10
-15.0417328468
 20
-6.3933262625
 10
-15.0165794512
 20
-6.4039301641
 10
-14.9909422686
 20
-6.4137313845
  0
LINE
  5
246
100
AcDbEntity
  8
ASSI
100
AcDbLine
 62
250
  6
CONTINUOUS
 10
-12.4862554914
 20
-7.6299659836
 11
-12.4450157216
 21
-7.6645951703
  0
LWPOLYLINE
  5
247
100
AcDbEntity
  8
ASSI
100
AcDbPolyline
 62
7
  6
CONTINUOUS
 90
4
 70
0
 10
-15.5778306736
 20
-6.6367777472
 10
-15.623855288
 20
-6.5943459559
 10
-15.692040557
 20
-6.5227940532
 10
-15.7546122744
 20
-6.4460994432
  0
LINE
  5
248
100
AcDbEntity
  8
ASSI
100
AcDbLine
 62
250
  6
CONTINUOUS
 10
-12.5103711692
 20
-7.6012124127
 11
-12.4862554914
 21
-7.6299659836
  0
LWPOLYLINE
  5
249
100
AcDbEntity
  8
ASSI
100
AcDbPolyline
 62
7
  6
CONTINUOUS
 90
19
 70
0
 10
-15.783456077
 20
-6.4065996595
 10
-15.7498739925
 20
-6.452357702
 10
-15.7076270597
 20
-6.5048459474
 10
-15.6653025676
 20
-6.5523032612
 10
-15.6224538089
 20
-6.5959607208
 10
-15.5789487387
 20
-6.6364060858
 10
-15.5355144832
 20
-6.6733658808
 10
-15.4928425519
 20
-6.7067088297
 10
-15.4513195415
 20
-6.7366012374
 10
-15.4110718857
 20
-6.7633785159
 10
-15.3724022642
 20
-6.7872245329
 10
-15.3361952621
 20
-6.8079949477
 10
-15.3019299382
 20
-6.8263478871
 10
-15.2676852481
 20
-6.8434870979
 10
-15.2332246977
 20
-6.8595761602
 10
-15.1988708439
 20
-6.874507931
 10
-15.1634344655
 20
-6.8887989359
 10
-15.1267039284
 20
-6.9024639108
 10
-15.101094842
 20
-6.9113166414
  0
LINE
  5
24A
100
AcDbEntity
  8
ASSI
100
AcDbLine
 62
250
  6
CONTINUOUS
 10
-12.5120187501
 20
-7.5984031716
 11
-12.5103711658
 21
-7.601212418
  0
LINE
  5
24B
100
AcDbEntity
  8
ASSI
100
AcDbLine
 62
250
  6
CONTINUOUS
 10
-12.5189682921
 20
-7.5838332021
 11
-12.5121594979
 21
-7.5983780862
  0
LWPOLYLINE
  5
24C
100
AcDbEntity
  8
ASSI
100
AcDbPolyline
 62
250
  6
CONTINUOUS
 90
6
 70
0
 10
-12.5324736718
 20
-7.5408594694
 10
-12.5317520733
 20
-7.543824478
 10
-12.5292106117
 20
-7.5513969449
 10
-12.5269723173
 20
-7.560405199
 10
-12.5238878628
 20
-7.5711320692
 10
-12.5189682921
 20
-7.5838332021
  0
LWPOLYLINE
  5
24D
100
AcDbEntity
  8
ASSI
100
AcDbPolyline
 62
250
  6
CONTINUOUS
 90
16
 70
0
 10
-15.5800954657
 20
-5.1627712262
 10
-15.5685596668
 20
-5.2361147572
 10
-15.5512541378
 20
-5.3065744505
 10
-15.5281788787
 20
-5.3741503062
 10
-15.4990237145
 20
-5.4391829722
 10
-15.4640988203
 20
-5.5013318005
 10
-15.4243347207
 20
-5.5595748472
 10
-15.3795982336
 20
-5.6139253878
 10
-15.3300225412
 20
-5.6643701467
 10
-15.2769377148
 20
-5.7098473531
 10
-15.2204522681
 20
-5.7501787252
 10
-15.1604576875
 20
-5.7855425448
 10
-15.0979585037
 20
-5.8154118862
 10
-15.0332895603
 20
-5.8396111074
 10
-14.9661160136
 20
-5.8583158505
 10
-14.8964378638
 20
-5.8715261153
  0
LINE
  5
24E
100
AcDbEntity
  8
ASSI
100
AcDbLine
 62
250
  6
CONTINUOUS
 10
-14.9664295112
 20
6.3622397747
 11
-14.8964378586
 21
5.8715261152
  0
LINE
  5
24F
100
AcDbEntity
  8
ASSI
100
AcDbLine
 62
250
  6
CONTINUOUS
 10
-12.4852740181
 20
-7.0406141043
 11
-12.5749606351
 21
-7.5325038252
  0
LINE
  5
250
100
AcDbEntity
  8
ASSI
100
AcDbLine
 62
250
  6
CONTINUOUS
 10
-15.1190875368
 20
-6.8983192327
 11
-14.964821261
 21
-6.4227298659
  0
LINE
  5
251
100
AcDbEntity
  8
ASSI
100
AcDbLine
 62
250
  6
CONTINUOUS
 10
-12.3846240774
 20
7.7053085574
 11
-12.3032591366
 21
7.7520856906
  0
LWPOLYLINE
  5
252
100
AcDbEntity
  8
ASSI
100
AcDbPolyline
 62
250
  6
CONTINUOUS
 90
6
 70
0
 10
-12.3032591366
 20
7.7520856906
 10
-12.1985130783
 20
7.8051048477
 10
-12.066922423
 20
7.8649037896
 10
-11.9045753464
 20
7.9319063336
 10
-11.7094780294
 20
8.0056286552
 10
-11.4897300497
 20
8.0821157335
  0
LWPOLYLINE
  5
253
100
AcDbEntity
  8
ASSI
100
AcDbPolyline
 62
250
  6
CONTINUOUS
 90
7
 70
0
 10
-15.101094842
 20
6.9113166414
 10
-15.1047988823
 20
6.9099407032
 10
-15.1106184062
 20
6.9073419927
 10
-15.1155605217
 20
6.9046111224
 10
-15.1193390885
 20
6.9019547622
 10
-15.1221286204
 20
6.8993582125
 10
-15.1238931857
 20
6.8967960278
  0
LWPOLYLINE
  5
254
100
AcDbEntity
  8
ASSI
100
AcDbPolyline
 62
250
  6
CONTINUOUS
 90
3
 70
0
 10
-15.1214898666
 20
6.8975590339
 10
-15.2140419769
 20
6.8635433993
 10
-15.3036160926
 20
6.8225766405
  0
LINE
  5
255
100
AcDbEntity
  8
ASSI
100
AcDbLine
 62
7
  6
CONTINUOUS
 10
-12.2014641178
 20
7.8349784401
 11
-12.7197074943
 21
7.6501891049
  0
LINE
  5
256
100
AcDbEntity
  8
ASSI
100
AcDbLine
 62
7
  6
CONTINUOUS
 10
-12.7197074943
 20
7.6501891049
 11
-12.9420557404
 21
7.571716032
  0
LINE
  5
257
100
AcDbEntity
  8
ASSI
100
AcDbLine
 62
7
  6
CONTINUOUS
 10
-12.9420557404
 20
7.571716032
 11
-13.1408971743
 21
7.5026707368
  0
LWPOLYLINE
  5
258
100
AcDbEntity
  8
ASSI
100
AcDbPolyline
 62
7
  6
CONTINUOUS
 90
19
 70
0
 10
-15.101094842
 20
6.9113166414
 10
-15.1267039284
 20
6.9024639108
 10
-15.1634344655
 20
6.8887989359
 10
-15.1988708439
 20
6.874507931
 10
-15.2332246977
 20
6.8595761602
 10
-15.2676852481
 20
6.8434870979
 10
-15.3019299382
 20
6.8263478871
 10
-15.3361952621
 20
6.8079949477
 10
-15.3724022642
 20
6.7872245329
 10
-15.4110718857
 20
6.7633785159
 10
-15.4513195415
 20
6.7366012374
 10
-15.4928425519
 20
6.7067088297
 10
-15.5355144832
 20
6.6733658808
 10
-15.5789487387
 20
6.6364060858
 10
-15.6224538089
 20
6.5959607208
 10
-15.6653025676
 20
6.5523032612
 10
-15.7076270597
 20
6.5048459474
 10
-15.7498739925
 20
6.452357702
 10
-15.7833149543
 20
6.406473848
  0
LINE
  5
259
100
AcDbEntity
  8
ASSI
100
AcDbLine
 62
250
  6
CONTINUOUS
 10
-14.9909422686
 20
6.4137313845
 11
-14.9648212989
 21
6.4227299237
  0
LINE
  5
25A
100
AcDbEntity
  8
ASSI
100
AcDbLine
 62
7
  6
CONTINUOUS
 10
-13.1408971743
 20
7.5026707368
 11
-13.320622047
 21
7.4415687465
  0
LWPOLYLINE
  5
25B
100
AcDbEntity
  8
ASSI
100
AcDbPolyline
 62
7
  6
CONTINUOUS
 90
4
 70
0
 10
-11.4896132175
 20
8.0821977085
 10
-11.5443440383
 20
8.0637358496
 10
-11.8924219933
 20
7.9439749089
 10
-12.2014641178
 20
7.8349784401
  0
LINE
  5
25C
100
AcDbEntity
  8
ASSI
100
AcDbLine
 62
7
  6
CONTINUOUS
 10
-15.100916125
 20
6.9113768071
 11
-15.101094842
 21
6.9113166414
  0
LINE
  5
25D
100
AcDbEntity
  8
ASSI
100
AcDbLine
 62
7
  6
CONTINUOUS
 10
-13.320622047
 20
7.4415687465
 11
-13.4915346081
 21
7.384935365
  0
LINE
  5
25E
100
AcDbEntity
  8
ASSI
100
AcDbLine
 62
7
  6
CONTINUOUS
 10
-15.039146845
 20
6.9318676353
 11
-15.1005715822
 21
6.9114994761
  0
LINE
  5
25F
100
AcDbEntity
  8
ASSI
100
AcDbLine
 62
7
  6
CONTINUOUS
 10
-14.9841045372
 20
6.9498353414
 11
-15.039146845
 21
6.9318676353
  0
LINE
  5
260
100
AcDbEntity
  8
ASSI
100
AcDbLine
 62
7
  6
CONTINUOUS
 10
-13.4915346081
 20
7.384935365
 11
-13.6565834875
 21
7.3318640814
  0
LINE
  5
261
100
AcDbEntity
  8
ASSI
100
AcDbLine
 62
250
  6
CONTINUOUS
 10
-15.1238931857
 20
6.8967960278
 11
-14.9889459924
 21
6.9399852796
  0
LINE
  5
262
100
AcDbEntity
  8
ASSI
100
AcDbLine
 62
7
  6
CONTINUOUS
 10
-14.9199433753
 20
6.9704482493
 11
-14.9841045372
 21
6.9498353414
  0
LINE
  5
263
100
AcDbEntity
  8
ASSI
100
AcDbLine
 62
250
  6
CONTINUOUS
 10
-14.9648212989
 20
6.4227299237
 11
-14.7108950853
 21
6.5031249661
  0
LINE
  5
264
100
AcDbEntity
  8
ASSI
100
AcDbLine
 62
7
  6
CONTINUOUS
 10
-14.8631570302
 20
6.9884012043
 11
-14.9199433753
 21
6.9704482493
  0
LWPOLYLINE
  5
265
100
AcDbEntity
  8
ASSI
100
AcDbPolyline
 62
250
  6
CONTINUOUS
 90
12
 70
0
 10
-14.9889459924
 20
6.9399852796
 10
-14.8547381329
 20
6.9817788142
 10
-14.720835656
 20
7.0223580429
 10
-14.5878361775
 20
7.0615620706
 10
-14.4549627955
 20
7.0996420976
 10
-14.3200078588
 20
7.1372183275
 10
-14.1809306404
 20
7.1747993834
 10
-14.0391373686
 20
7.2119516182
 10
-13.8974699342
 20
7.2479308164
 10
-13.7571083183
 20
7.2824638617
 10
-13.6161374694
 20
7.3160468323
 10
-13.5536157792
 20
7.3305953184
  0
LWPOLYLINE
  5
266
100
AcDbEntity
  8
ASSI
100
AcDbPolyline
 62
7
  6
CONTINUOUS
 90
3
 70
0
 10
-13.6565834875
 20
7.3318640814
 10
-13.8130612865
 20
7.2831723497
 10
-13.914729067
 20
7.2524025414
  0
LINE
  5
267
100
AcDbEntity
  8
ASSI
100
AcDbLine
 62
7
  6
CONTINUOUS
 10
-14.806185271
 20
7.0061384089
 11
-14.8631570302
 21
6.9884012043
  0
LINE
  5
268
100
AcDbEntity
  8
ASSI
100
AcDbLine
 62
7
  6
CONTINUOUS
 10
-14.7492781147
 20
7.0235808079
 11
-14.806185271
 21
7.0061384089
  0
LINE
  5
269
100
AcDbEntity
  8
ASSI
100
AcDbLine
 62
7
  6
CONTINUOUS
 10
-14.6852416348
 20
7.0428815992
 11
-14.7492781147
 21
7.0235808079
  0
LWPOLYLINE
  5
26A
100
AcDbEntity
  8
ASSI
100
AcDbPolyline
 62
250
  6
CONTINUOUS
 90
9
 70
0
 10
-14.7108950853
 20
6.5031249661
 10
-14.4515848848
 20
6.5806383931
 10
-14.1868906971
 20
6.6552702049
 10
-13.9168268863
 20
6.7270919967
 10
-13.6413790885
 20
6.7960321733
 10
-13.360504212
 20
6.8618759481
 10
-13.074187893
 20
6.9245517258
 10
-12.7824444953
 20
6.9841311017
 10
-12.4852740189
 20
7.040614076
  0
LINE
  5
26B
100
AcDbEntity
  8
ASSI
100
AcDbLine
 62
7
  6
CONTINUOUS
 10
-13.9141211536
 20
7.2525910939
 11
-13.9613794333
 21
7.2385416908
  0
LINE
  5
26C
100
AcDbEntity
  8
ASSI
100
AcDbLine
 62
7
  6
CONTINUOUS
 10
-14.6225523519
 20
7.0614443349
 11
-14.6852416348
 21
7.0428815992
  0
LINE
  5
26D
100
AcDbEntity
  8
ASSI
100
AcDbLine
 62
7
  6
CONTINUOUS
 10
-14.5614948749
 20
7.0792121633
 11
-14.6225523519
 21
7.0614443349
  0
LINE
  5
26E
100
AcDbEntity
  8
ASSI
100
AcDbLine
 62
250
  6
CONTINUOUS
 10
-13.6632776061
 20
7.3246861535
 11
-13.9141477847
 21
7.2525766226
  0
LINE
  5
26F
100
AcDbEntity
  8
ASSI
100
AcDbLine
 62
7
  6
CONTINUOUS
 10
-14.5097830065
 20
7.0940234154
 11
-14.5614948749
 21
7.0792121633
  0
LINE
  5
270
100
AcDbEntity
  8
ASSI
100
AcDbLine
 62
7
  6
CONTINUOUS
 10
13.9900306804
 20
-7.230473833
 11
14.011659609
 21
-7.2243745195
  0
LINE
  5
271
100
AcDbEntity
  8
ASSI
100
AcDbLine
 62
7
  6
CONTINUOUS
 10
14.011659609
 20
-7.2243745195
 11
14.0290610378
 21
-7.2195761702
  0
LWPOLYLINE
  5
272
100
AcDbEntity
  8
ASSI
100
AcDbPolyline
 62
7
  6
CONTINUOUS
 90
3
 70
0
 10
14.0290610378
 20
-7.2195761702
 10
14.0386081949
 20
-7.2169986107
 10
14.039357475
 20
-7.2167990211
  0
LINE
  5
273
100
AcDbEntity
  8
ASSI
100
AcDbLine
 62
250
  6
CONTINUOUS
 10
12.0795315093
 20
-7.6472317401
 11
12.2406678873
 21
-7.6040321038
  0
LINE
  5
274
100
AcDbEntity
  8
ASSI
100
AcDbLine
 62
250
  6
CONTINUOUS
 10
12.2406678873
 20
-7.6040321038
 11
12.2592278583
 21
-7.5991647213
  0
LINE
  5
275
100
AcDbEntity
  8
ASSI
100
AcDbLine
 62
250
  6
CONTINUOUS
 10
12.0126241365
 20
-7.6647410074
 11
12.0795315093
 21
-7.6472317401
  0
LWPOLYLINE
  5
276
100
AcDbEntity
  8
ASSI
100
AcDbPolyline
 62
7
  6
CONTINUOUS
 90
3
 70
0
 10
12.5589118548
 20
-7.5362556476
 10
12.5578125283
 20
-7.5365358547
 10
12.5572238313
 20
-7.5366481559
  0
LINE
  5
277
100
AcDbEntity
  8
ASSI
100
AcDbLine
 62
250
  6
CONTINUOUS
 10
11.9468230125
 20
-7.6816303772
 11
12.0126241365
 21
-7.6647410074
  0
LINE
  5
278
100
AcDbEntity
  8
ASSI
100
AcDbLine
 62
250
  6
CONTINUOUS
 10
12.2592278583
 20
-7.5991647213
 11
12.2962846455
 21
-7.58966371
  0
LINE
  5
279
100
AcDbEntity
  8
ASSI
100
AcDbLine
 62
250
  6
CONTINUOUS
 10
11.8884459854
 20
-7.6963179201
 11
11.9468230125
 21
-7.6816303772
  0
LINE
  5
27A
100
AcDbEntity
  8
ASSI
100
AcDbLine
 62
250
  6
CONTINUOUS
 10
12.2962846455
 20
-7.58966371
 11
12.3153589505
 21
-7.5849445051
  0
LINE
  5
27B
100
AcDbEntity
  8
ASSI
100
AcDbLine
 62
250
  6
CONTINUOUS
 10
11.8253088025
 20
-7.7118867574
 11
11.8884459854
 21
-7.6963179201
  0
LINE
  5
27C
100
AcDbEntity
  8
ASSI
100
AcDbLine
 62
250
  6
CONTINUOUS
 10
12.3153589505
 20
-7.5849445051
 11
12.3329543266
 21
-7.580678262
  0
LINE
  5
27D
100
AcDbEntity
  8
ASSI
100
AcDbLine
 62
250
  6
CONTINUOUS
 10
11.7563443137
 20
-7.7285585534
 11
11.8253088025
 21
-7.7118867574
  0
LINE
  5
27E
100
AcDbEntity
  8
ASSI
100
AcDbLine
 62
250
  6
CONTINUOUS
 10
12.3329543266
 20
-7.580678262
 11
12.3523784021
 21
-7.5760717692
  0
LINE
  5
27F
100
AcDbEntity
  8
ASSI
100
AcDbLine
 62
7
  6
CONTINUOUS
 10
12.5675728586
 20
-7.5342273754
 11
12.5621458142
 21
-7.5355127659
  0
LINE
  5
280
100
AcDbEntity
  8
ASSI
100
AcDbLine
 62
250
  6
CONTINUOUS
 10
11.6726058831
 20
-7.7483384962
 11
11.7563443137
 21
-7.7285585534
  0
LWPOLYLINE
  5
281
100
AcDbEntity
  8
ASSI
100
AcDbPolyline
 62
250
  6
CONTINUOUS
 90
11
 70
0
 10
13.5546840385
 20
-7.3305360641
 10
13.5782817284
 20
-7.3250673752
 10
13.7297229531
 20
-7.2892614883
 10
13.8764555958
 20
-7.2533727732
 10
14.0233136958
 20
-7.2162454769
 10
14.1732798964
 20
-7.1770626589
 10
14.3291176386
 20
-7.1349494372
 10
14.4888454555
 20
-7.0902774475
 10
14.6483488898
 20
-7.0441298558
 10
14.8066410535
 20
-6.9967726889
 10
14.9658328229
 20
-6.9475436643
  0
LINE
  5
282
100
AcDbEntity
  8
ASSI
100
AcDbLine
 62
250
  6
CONTINUOUS
 10
12.3523784021
 20
-7.5760717692
 11
12.3694683081
 21
-7.5721114166
  0
LINE
  5
283
100
AcDbEntity
  8
ASSI
100
AcDbLine
 62
7
  6
CONTINUOUS
 10
12.5621458142
 20
-7.5355127659
 11
12.5589118548
 21
-7.5362556476
  0
LINE
  5
284
100
AcDbEntity
  8
ASSI
100
AcDbLine
 62
250
  6
CONTINUOUS
 10
11.5710936422
 20
-7.7717450396
 11
11.6726058831
 21
-7.7483384962
  0
LWPOLYLINE
  5
285
100
AcDbEntity
  8
ASSI
100
AcDbPolyline
 62
7
  6
CONTINUOUS
 90
3
 70
0
 10
13.5930573311
 20
-7.3246106963
 10
13.6849865104
 20
-7.3038511262
 10
13.785747224
 20
-7.2806025996
  0
LINE
  5
286
100
AcDbEntity
  8
ASSI
100
AcDbLine
 62
250
  6
CONTINUOUS
 10
12.3694683081
 20
-7.5721114166
 11
12.3856628523
 21
-7.5684408433
  0
LINE
  5
287
100
AcDbEntity
  8
ASSI
100
AcDbLine
 62
250
  6
CONTINUOUS
 10
11.4925991069
 20
-7.7894100616
 11
11.5710936422
 21
-7.7717450396
  0
LWPOLYLINE
  5
288
100
AcDbEntity
  8
ASSI
100
AcDbPolyline
 62
7
  6
CONTINUOUS
 90
3
 70
0
 10
13.2839554943
 20
-7.3911725185
 10
13.4261592689
 20
-7.3598023804
 10
13.5546840385
 20
-7.3305360641
  0
LINE
  5
289
100
AcDbEntity
  8
ASSI
100
AcDbLine
 62
250
  6
CONTINUOUS
 10
12.3856628523
 20
-7.5684408433
 11
12.4033510342
 21
-7.5645203913
  0
LINE
  5
28A
100
AcDbEntity
  8
ASSI
100
AcDbLine
 62
250
  6
CONTINUOUS
 10
11.4098890152
 20
-7.8076292476
 11
11.4925991069
 21
-7.7894100616
  0
LINE
  5
28B
100
AcDbEntity
  8
ASSI
100
AcDbLine
 62
7
  6
CONTINUOUS
 10
13.4356267858
 20
-7.3592370353
 11
13.5930573311
 21
-7.3246106963
  0
LINE
  5
28C
100
AcDbEntity
  8
ASSI
100
AcDbLine
 62
250
  6
CONTINUOUS
 10
12.4033510342
 20
-7.5645203913
 11
12.4184481603
 21
-7.561248319
  0
LINE
  5
28D
100
AcDbEntity
  8
ASSI
100
AcDbLine
 62
250
  6
CONTINUOUS
 10
11.3197775533
 20
-7.8270159026
 11
11.4098890152
 21
-7.8076292476
  0
LINE
  5
28E
100
AcDbEntity
  8
ASSI
100
AcDbLine
 62
7
  6
CONTINUOUS
 10
13.3149197808
 20
-7.3850753849
 11
13.4356267858
 21
-7.3592370353
  0
LINE
  5
28F
100
AcDbEntity
  8
ASSI
100
AcDbLine
 62
250
  6
CONTINUOUS
 10
12.4184481603
 20
-7.561248319
 11
12.4258469972
 21
-7.5596729347
  0
LINE
  5
290
100
AcDbEntity
  8
ASSI
100
AcDbLine
 62
7
  6
CONTINUOUS
 10
13.1995992043
 20
-7.4092871841
 11
13.3149197808
 21
-7.3850753849
  0
LINE
  5
291
100
AcDbEntity
  8
ASSI
100
AcDbLine
 62
250
  6
CONTINUOUS
 10
11.2198451938
 20
-7.8479935397
 11
11.3197775533
 21
-7.8270159026
  0
LINE
  5
292
100
AcDbEntity
  8
ASSI
100
AcDbLine
 62
250
  6
CONTINUOUS
 10
12.5238472171
 20
-7.5733053398
 11
12.4813675992
 21
-7.5819306677
  0
LWPOLYLINE
  5
293
100
AcDbEntity
  8
ASSI
100
AcDbPolyline
 62
250
  6
CONTINUOUS
 90
3
 70
0
 10
11.0406490067
 20
-7.8843962175
 10
11.1043637926
 20
-7.8716459595
 10
11.2198451938
 20
-7.8479935397
  0
LWPOLYLINE
  5
294
100
AcDbEntity
  8
ASSI
100
AcDbPolyline
 62
7
  6
CONTINUOUS
 90
4
 70
0
 10
-13.0246792685
 20
-7.4455897939
 10
-12.8762589653
 20
-7.4753468563
 10
-12.7263883556
 20
-7.5042965
 10
-12.5742682738
 20
-7.5326139492
  0
LINE
  5
295
100
AcDbEntity
  8
ASSI
100
AcDbLine
 62
250
  6
CONTINUOUS
 10
-11.168290821
 20
-7.8584787785
 11
-11.0398667445
 21
-7.8843961339
  0
LINE
  5
296
100
AcDbEntity
  8
ASSI
100
AcDbLine
 62
250
  6
CONTINUOUS
 10
-11.2795695598
 20
-7.8353432847
 11
-11.168290821
 21
-7.8584787785
  0
LINE
  5
297
100
AcDbEntity
  8
ASSI
100
AcDbLine
 62
7
  6
CONTINUOUS
 10
-13.3115536761
 20
-7.3856112497
 11
-13.1969226167
 21
-7.4096744817
  0
LINE
  5
298
100
AcDbEntity
  8
ASSI
100
AcDbLine
 62
250
  6
CONTINUOUS
 10
-12.5103711658
 20
-7.601212418
 11
-12.4543224355
 21
-7.6130742505
  0
LINE
  5
299
100
AcDbEntity
  8
ASSI
100
AcDbLine
 62
7
  6
CONTINUOUS
 10
-13.1939687606
 20
-7.4103119183
 11
-13.0246792685
 21
-7.4455897939
  0
LINE
  5
29A
100
AcDbEntity
  8
ASSI
100
AcDbLine
 62
250
  6
CONTINUOUS
 10
-11.3766758411
 20
-7.8146655151
 11
-11.2795695598
 21
-7.8353432847
  0
LINE
  5
29B
100
AcDbEntity
  8
ASSI
100
AcDbLine
 62
250
  6
CONTINUOUS
 10
-12.5120644031
 20
-7.5983965949
 11
-12.8155843414
 21
-7.5328836994
  0
LINE
  5
29C
100
AcDbEntity
  8
ASSI
100
AcDbLine
 62
7
  6
CONTINUOUS
 10
-13.4696387192
 20
-7.3516742172
 11
-13.3115536761
 21
-7.3856112497
  0
LINE
  5
29D
100
AcDbEntity
  8
ASSI
100
AcDbLine
 62
250
  6
CONTINUOUS
 10
-12.4237865031
 20
-7.5599493506
 11
-12.3866881074
 21
-7.5680322747
  0
LINE
  5
29E
100
AcDbEntity
  8
ASSI
100
AcDbLine
 62
250
  6
CONTINUOUS
 10
-11.4658948366
 20
-7.7951651392
 11
-11.3766758411
 21
-7.8146655151
  0
LINE
  5
29F
100
AcDbEntity
  8
ASSI
100
AcDbLine
 62
7
  6
CONTINUOUS
 10
-13.5955600697
 20
-7.3238533468
 11
-13.4696387192
 21
-7.3516742172
  0
LINE
  5
2A0
100
AcDbEntity
  8
ASSI
100
AcDbLine
 62
250
  6
CONTINUOUS
 10
-11.548582763
 20
-7.7766683515
 11
-11.4658948366
 21
-7.7951651392
  0
LINE
  5
2A1
100
AcDbEntity
  8
ASSI
100
AcDbLine
 62
250
  6
CONTINUOUS
 10
-12.3866881074
 20
-7.5680322747
 11
-12.3676553744
 21
-7.5723285493
  0
LINE
  5
2A2
100
AcDbEntity
  8
ASSI
100
AcDbLine
 62
250
  6
CONTINUOUS
 10
-12.8155843414
 20
-7.5328836994
 11
-13.1036647756
 21
-7.4670834618
  0
LWPOLYLINE
  5
2A3
100
AcDbEntity
  8
ASSI
100
AcDbPolyline
 62
7
  6
CONTINUOUS
 90
4
 70
0
 10
-13.5536157792
 20
-7.3305953184
 10
-13.4727661651
 20
-7.3490994494
 10
-13.3249586793
 20
-7.3820445429
 10
-13.1939687606
 20
-7.4103119183
  0
LINE
  5
2A4
100
AcDbEntity
  8
ASSI
100
AcDbLine
 62
7
  6
CONTINUOUS
 10
-13.70963284
 20
-7.2980760023
 11
-13.5864857211
 21
-7.3259049946
  0
LINE
  5
2A5
100
AcDbEntity
  8
ASSI
100
AcDbLine
 62
250
  6
CONTINUOUS
 10
-11.6583511694
 20
-7.7514699419
 11
-11.548582763
 21
-7.7766683515
  0
LINE
  5
2A6
100
AcDbEntity
  8
ASSI
100
AcDbLine
 62
250
  6
CONTINUOUS
 10
-12.3676553744
 20
-7.5723285493
 11
-12.3508084706
 21
-7.5762208495
  0
LINE
  5
2A7
100
AcDbEntity
  8
ASSI
100
AcDbLine
 62
7
  6
CONTINUOUS
 10
-13.7926337309
 20
-7.2788648809
 11
-13.70963284
 21
-7.2980760023
  0
LINE
  5
2A8
100
AcDbEntity
  8
ASSI
100
AcDbLine
 62
250
  6
CONTINUOUS
 10
-12.3508084706
 20
-7.5762208495
 11
-12.335684406
 21
-7.5797873681
  0
LINE
  5
2A9
100
AcDbEntity
  8
ASSI
100
AcDbLine
 62
250
  6
CONTINUOUS
 10
-11.7475255729
 20
-7.7304701047
 11
-11.6583511694
 21
-7.7514699419
  0
LINE
  5
2AA
100
AcDbEntity
  8
ASSI
100
AcDbLine
 62
7
  6
CONTINUOUS
 10
-13.8724969623
 20
-7.2599983593
 11
-13.7926337309
 21
-7.2788648809
  0
LINE
  5
2AB
100
AcDbEntity
  8
ASSI
100
AcDbLine
 62
250
  6
CONTINUOUS
 10
-12.335684406
 20
-7.5797873681
 11
-12.3188826171
 21
-7.5838317274
  0
LINE
  5
2AC
100
AcDbEntity
  8
ASSI
100
AcDbLine
 62
7
  6
CONTINUOUS
 10
-13.947816059
 20
-7.241848037
 11
-13.8724969623
 21
-7.2599983593
  0
LINE
  5
2AD
100
AcDbEntity
  8
ASSI
100
AcDbLine
 62
250
  6
CONTINUOUS
 10
-11.8208341719
 20
-7.7127870908
 11
-11.7475255729
 21
-7.7304701047
  0
LINE
  5
2AE
100
AcDbEntity
  8
ASSI
100
AcDbLine
 62
250
  6
CONTINUOUS
 10
-13.1036647756
 20
-7.4670834618
 11
-13.3846907518
 21
-7.3983759956
  0
LINE
  5
2AF
100
AcDbEntity
  8
ASSI
100
AcDbLine
 62
250
  6
CONTINUOUS
 10
-11.8851194064
 20
-7.6969510841
 11
-11.8208341719
 21
-7.7127870908
  0
LINE
  5
2B0
100
AcDbEntity
  8
ASSI
100
AcDbLine
 62
7
  6
CONTINUOUS
 10
-14.0258322927
 20
-7.2226686419
 11
-13.947816059
 21
-7.241848037
  0
LINE
  5
2B1
100
AcDbEntity
  8
ASSI
100
AcDbLine
 62
250
  6
CONTINUOUS
 10
-12.3188826171
 20
-7.5838317274
 11
-12.3004775091
 21
-7.588362428
  0
LINE
  5
2B2
100
AcDbEntity
  8
ASSI
100
AcDbLine
 62
7
  6
CONTINUOUS
 10
-14.0985080417
 20
-7.2044419413
 11
-14.0258322927
 21
-7.2226686419
  0
LINE
  5
2B3
100
AcDbEntity
  8
ASSI
100
AcDbLine
 62
250
  6
CONTINUOUS
 10
-12.3004775091
 20
-7.588362428
 11
-12.2705728251
 21
-7.5959475925
  0
LINE
  5
2B4
100
AcDbEntity
  8
ASSI
100
AcDbLine
 62
250
  6
CONTINUOUS
 10
-11.9650455897
 20
-7.6767838668
 11
-11.8851194064
 21
-7.6969510841
  0
LINE
  5
2B5
100
AcDbEntity
  8
ASSI
100
AcDbLine
 62
7
  6
CONTINUOUS
 10
-14.1652255984
 20
-7.1873889723
 11
-14.0985080417
 21
-7.2044419413
  0
LINE
  5
2B6
100
AcDbEntity
  8
ASSI
100
AcDbLine
 62
250
  6
CONTINUOUS
 10
-12.0290307475
 20
-7.6602834097
 11
-11.9650455897
 21
-7.6767838668
  0
LINE
  5
2B7
100
AcDbEntity
  8
ASSI
100
AcDbLine
 62
7
  6
CONTINUOUS
 10
-14.2341139399
 20
-7.1694452507
 11
-14.1652255984
 21
-7.1873889723
  0
LINE
  5
2B8
100
AcDbEntity
  8
ASSI
100
AcDbLine
 62
250
  6
CONTINUOUS
 10
-12.2705728251
 20
-7.5959475925
 11
-12.2478478733
 21
-7.6018826252
  0
LINE
  5
2B9
100
AcDbEntity
  8
ASSI
100
AcDbLine
 62
250
  6
CONTINUOUS
 10
-13.3846907518
 20
-7.3983759956
 11
-13.6632776061
 21
-7.3246861535
  0
LINE
  5
2BA
100
AcDbEntity
  8
ASSI
100
AcDbLine
 62
250
  6
CONTINUOUS
 10
-12.0956926667
 20
-7.6427648622
 11
-12.0290307475
 21
-7.6602834097
  0
LINE
  5
2BB
100
AcDbEntity
  8
ASSI
100
AcDbLine
 62
7
  6
CONTINUOUS
 10
-14.2962859597
 20
-7.1529475601
 11
-14.2341139399
 21
-7.1694452507
  0
LINE
  5
2BC
100
AcDbEntity
  8
ASSI
100
AcDbLine
 62
250
  6
CONTINUOUS
 10
-12.2478478733
 20
-7.6018826252
 11
-12.2152662863
 21
-7.6105548322
  0
LINE
  5
2BD
100
AcDbEntity
  8
ASSI
100
AcDbLine
 62
250
  6
CONTINUOUS
 10
-12.1770115649
 20
-7.6209186652
 11
-12.0956926667
 21
-7.6427648622
  0
LINE
  5
2BE
100
AcDbEntity
  8
ASSI
100
AcDbLine
 62
250
  6
CONTINUOUS
 10
-12.2152662863
 20
-7.6105548322
 11
-12.1770115649
 21
-7.6209186652
  0
LINE
  5
2BF
100
AcDbEntity
  8
ASSI
100
AcDbLine
 62
7
  6
CONTINUOUS
 10
-14.361379724
 20
-7.1353572174
 11
-14.2962859597
 21
-7.1529475601
  0
LINE
  5
2C0
100
AcDbEntity
  8
ASSI
100
AcDbLine
 62
7
  6
CONTINUOUS
 10
-14.4242123549
 20
-7.1180654158
 11
-14.361379724
 21
-7.1353572174
  0
LINE
  5
2C1
100
AcDbEntity
  8
ASSI
100
AcDbLine
 62
7
  6
CONTINUOUS
 10
-14.4858437346
 20
-7.1008075078
 11
-14.4242123549
 21
-7.1180654158
  0
LINE
  5
2C2
100
AcDbEntity
  8
ASSI
100
AcDbLine
 62
7
  6
CONTINUOUS
 10
-14.5456056728
 20
-7.0837860886
 11
-14.4858437346
 21
-7.1008075078
  0
LINE
  5
2C3
100
AcDbEntity
  8
ASSI
100
AcDbLine
 62
250
  6
CONTINUOUS
 10
-13.6632776061
 20
-7.3246861535
 11
-13.9141498472
 21
-7.252576005
  0
LINE
  5
2C4
100
AcDbEntity
  8
ASSI
100
AcDbLine
 62
7
  6
CONTINUOUS
 10
-14.6091425483
 20
-7.065372814
 11
-14.5456056728
 21
-7.0837860886
  0
LINE
  5
2C5
100
AcDbEntity
  8
ASSI
100
AcDbLine
 62
7
  6
CONTINUOUS
 10
-13.9613888732
 20
-7.2385390565
 11
-13.914123215
 21
-7.2525904769
  0
LINE
  5
2C6
100
AcDbEntity
  8
ASSI
100
AcDbLine
 62
7
  6
CONTINUOUS
 10
-14.6753612534
 20
-7.0458289566
 11
-14.6091425483
 21
-7.065372814
  0
LWPOLYLINE
  5
2C7
100
AcDbEntity
  8
ASSI
100
AcDbPolyline
 62
250
  6
CONTINUOUS
 90
9
 70
0
 10
-14.7108950853
 20
-6.5031249661
 10
-14.4515848848
 20
-6.5806383931
 10
-14.1868906971
 20
-6.6552702049
 10
-13.9168268863
 20
-6.7270919967
 10
-13.6413790885
 20
-6.7960321733
 10
-13.360504212
 20
-6.8618759481
 10
-13.074187893
 20
-6.9245517258
 10
-12.7824444953
 20
-6.9841311017
 10
-12.4852740189
 20
-7.040614076
  0
LINE
  5
2C8
100
AcDbEntity
  8
ASSI
100
AcDbLine
 62
7
  6
CONTINUOUS
 10
-14.7321656638
 20
-7.0287723225
 11
-14.6753612534
 21
-7.0458289566
  0
LWPOLYLINE
  5
2C9
100
AcDbEntity
  8
ASSI
100
AcDbPolyline
 62
7
  6
CONTINUOUS
 90
3
 70
0
 10
-13.914729067
 20
-7.2524025414
 10
-13.8130612865
 20
-7.2831723497
 10
-13.6565834875
 20
-7.3318640814
  0
LINE
  5
2CA
100
AcDbEntity
  8
ASSI
100
AcDbLine
 62
7
  6
CONTINUOUS
 10
-14.7899471833
 20
-7.0111434618
 11
-14.7321656638
 21
-7.0287723225
  0
LWPOLYLINE
  5
2CB
100
AcDbEntity
  8
ASSI
100
AcDbPolyline
 62
250
  6
CONTINUOUS
 90
12
 70
0
 10
-14.9889459924
 20
-6.9399852796
 10
-14.8547381329
 20
-6.9817788142
 10
-14.720835656
 20
-7.0223580429
 10
-14.5878361775
 20
-7.0615620706
 10
-14.4549627955
 20
-7.0996420976
 10
-14.3200078588
 20
-7.1372183275
 10
-14.1809306404
 20
-7.1747993834
 10
-14.0391373686
 20
-7.2119516182
 10
-13.8974699342
 20
-7.2479308164
 10
-13.7571083183
 20
-7.2824638617
 10
-13.6161374694
 20
-7.3160468323
 10
-13.5536157792
 20
-7.3305953184
  0
LINE
  5
2CC
100
AcDbEntity
  8
ASSI
100
AcDbLine
 62
7
  6
CONTINUOUS
 10
-14.8477763528
 20
-6.9932168366
 11
-14.7899471833
 21
-7.0111434618
  0
LINE
  5
2CD
100
AcDbEntity
  8
ASSI
100
AcDbLine
 62
250
  6
CONTINUOUS
 10
-14.9648212989
 20
-6.4227299237
 11
-14.7108950853
 21
-6.5031249661
  0
LINE
  5
2CE
100
AcDbEntity
  8
ASSI
100
AcDbLine
 62
7
  6
CONTINUOUS
 10
-14.9047353245
 20
-6.9752829691
 11
-14.8477763528
 21
-6.9932168366
  0
LINE
  5
2CF
100
AcDbEntity
  8
ASSI
100
AcDbLine
 62
250
  6
CONTINUOUS
 10
-15.1238931857
 20
-6.8967960278
 11
-14.9889459924
 21
-6.9399852796
  0
LINE
  5
2D0
100
AcDbEntity
  8
ASSI
100
AcDbLine
 62
7
  6
CONTINUOUS
 10
-13.6565834875
 20
-7.3318640814
 11
-13.4915346081
 21
-7.384935365
  0
LINE
  5
2D1
100
AcDbEntity
  8
ASSI
100
AcDbLine
 62
7
  6
CONTINUOUS
 10
-14.9712306279
 20
-6.9539995934
 11
-14.9047353245
 21
-6.9752829691
  0
LINE
  5
2D2
100
AcDbEntity
  8
ASSI
100
AcDbLine
 62
7
  6
CONTINUOUS
 10
-15.0347994624
 20
-6.9332964878
 11
-14.9712306279
 21
-6.9539995934
  0
LWPOLYLINE
  5
2D3
100
AcDbEntity
  8
ASSI
100
AcDbPolyline
 62
7
  6
CONTINUOUS
 90
39
 70
0
 10
-11.4897300497
 20
-8.0821157335
 10
-11.3913052874
 20
-8.1146309499
 10
-10.9801650333
 20
-8.2412665837
 10
-10.5483222564
 20
-8.3609429036
 10
-10.0796386566
 20
-8.4780965111
 10
-9.5698863293
 20
-8.5927899783
 10
-9.0288322398
 20
-8.7021032323
 10
-8.4568207414
 20
-8.8056200879
 10
-7.8572147304
 20
-8.9024454202
 10
-7.2323681284
 20
-8.9920590242
 10
-6.5806607825
 20
-9.0744805735
 10
-5.9031503165
 20
-9.1492838536
 10
-5.2038169326
 20
-9.2159035534
 10
-4.4851576902
 20
-9.2740994526
 10
-3.7505277505
 20
-9.3234224751
 10
-3.0027986544
 20
-9.3637755815
 10
-2.2462663421
 20
-9.3949893633
 10
-1.4854861819
 20
-9.4170183449
 10
-0.7219332533
 20
-9.4299960366
 10
0.0447290712
 20
-9.4339848107
 10
0.8126193149
 20
-9.4289364695
 10
1.5778834295
 20
-9.4148516818
 10
2.3379216061
 20
-9.3917403039
 10
3.089943307
 20
-9.3596095463
 10
3.8309244662
 20
-9.3185425922
 10
4.5579475934
 20
-9.2686930378
 10
5.2666680772
 20
-9.2104530665
 10
5.9558249347
 20
-9.1439516677
 10
6.6274392799
 20
-9.0689741083
 10
7.2796310024
 20
-8.9857371284
 10
7.9078304687
 20
-8.8948276151
 10
8.5091855458
 20
-8.7967786304
 10
9.0801310126
 20
-8.6924043964
 10
9.618954525
 20
-8.5824374358
 10
10.1257599679
 20
-8.4672797087
 10
10.5922002291
 20
-8.3495431039
 10
11.0211790187
 20
-8.2294784828
 10
11.4260839895
 20
-8.1035154235
 10
11.4969916836
 20
-8.0799529708
  0
LINE
  5
2D4
100
AcDbEntity
  8
ASSI
100
AcDbLine
 62
7
  6
CONTINUOUS
 10
-13.4915346081
 20
-7.384935365
 11
-13.320622047
 21
-7.4415687465
  0
LWPOLYLINE
  5
2D5
100
AcDbEntity
  8
ASSI
100
AcDbPolyline
 62
7
  6
CONTINUOUS
 90
3
 70
0
 10
-15.1005715922
 20
-6.9114994728
 10
-15.0948960336
 20
-6.9133955627
 10
-15.0347994624
 20
-6.9332964878
  0
LINE
  5
2D6
100
AcDbEntity
  8
ASSI
100
AcDbLine
 62
7
  6
CONTINUOUS
 10
-15.1009161353
 20
-6.9113768037
 11
-15.101094842
 21
-6.9113166414
  0
LINE
  5
2D7
100
AcDbEntity
  8
ASSI
100
AcDbLine
 62
7
  6
CONTINUOUS
 10
-13.320622047
 20
-7.4415687465
 11
-13.1408971743
 21
-7.5026707368
  0
LINE
  5
2D8
100
AcDbEntity
  8
ASSI
100
AcDbLine
 62
250
  6
CONTINUOUS
 10
-14.9909422686
 20
-6.4137313845
 11
-14.9648212989
 21
-6.4227299237
  0
LINE
  5
2D9
100
AcDbEntity
  8
ASSI
100
AcDbLine
 62
7
  6
CONTINUOUS
 10
-13.1408971743
 20
-7.5026707368
 11
-12.9420557404
 21
-7.571716032
  0
LINE
  5
2DA
100
AcDbEntity
  8
ASSI
100
AcDbLine
 62
7
  6
CONTINUOUS
 10
-12.9420557404
 20
-7.571716032
 11
-12.7197074943
 21
-7.6501891049
  0
LWPOLYLINE
  5
2DB
100
AcDbEntity
  8
ASSI
100
AcDbPolyline
 62
7
  6
CONTINUOUS
 90
5
 70
0
 10
-12.7197074943
 20
-7.6501891049
 10
-12.2014641178
 20
-7.8349784401
 10
-11.8924219933
 20
-7.9439749089
 10
-11.5443440383
 20
-8.0637358496
 10
-11.4896132175
 20
-8.0821977085
  0
LWPOLYLINE
  5
2DC
100
AcDbEntity
  8
ASSI
100
AcDbPolyline
 62
250
  6
CONTINUOUS
 90
3
 70
0
 10
-15.1214898666
 20
-6.8975590339
 10
-15.2140419769
 20
-6.8635433993
 10
-15.3036160926
 20
-6.8225766405
  0
LWPOLYLINE
  5
2DD
100
AcDbEntity
  8
ASSI
100
AcDbPolyline
 62
250
  6
CONTINUOUS
 90
7
 70
0
 10
-15.101094842
 20
-6.9113166414
 10
-15.1047988823
 20
-6.9099407032
 10
-15.1106184062
 20
-6.9073419927
 10
-15.1155605217
 20
-6.9046111224
 10
-15.1193390885
 20
-6.9019547622
 10
-15.1221286204
 20
-6.8993582125
 10
-15.1238931857
 20
-6.8967960278
  0
LWPOLYLINE
  5
2DE
100
AcDbEntity
  8
ASSI
100
AcDbPolyline
 62
250
  6
CONTINUOUS
 90
6
 70
0
 10
-12.3032591366
 20
-7.7520856906
 10
-12.1985130783
 20
-7.8051048477
 10
-12.066922423
 20
-7.8649037896
 10
-11.9045753464
 20
-7.9319063336
 10
-11.7094780294
 20
-8.0056286552
 10
-11.4897300497
 20
-8.0821157335
  0
LINE
  5
2DF
100
AcDbEntity
  8
ASSI
100
AcDbLine
 62
250
  6
CONTINUOUS
 10
-12.3846240774
 20
-7.7053085574
 11
-12.3032591366
 21
-7.7520856906
  0
LINE
  5
2E0
100
AcDbEntity
  8
ASSI
100
AcDbLine
 62
250
  6
CONTINUOUS
 10
-15.1190875368
 20
6.8983192327
 11
-14.964821261
 21
6.4227298659
  0
LINE
  5
2E1
100
AcDbEntity
  8
ASSI
100
AcDbLine
 62
250
  6
CONTINUOUS
 10
-12.4852740181
 20
7.0406141043
 11
-12.5749606351
 21
7.5325038252
  0
LINE
  5
2E2
100
AcDbEntity
  8
RACCORDO
100
AcDbLine
 62
250
  6
CONTINUOUS
 10
-9.5
 20
-3.1
 11
-9.5
 21
-3.25
  0
LINE
  5
2E3
100
AcDbEntity
  8
RACCORDO
100
AcDbLine
 62
250
  6
CONTINUOUS
 10
-9.5
 20
3.1
 11
-9.5000000013
 21
3.25
  0
LINE
  5
2E4
100
AcDbEntity
  8
ASSI
100
AcDbLine
 62
7
  6
CONTINUOUS
 10
-9.3920504453
 20
7.9568066108
 11
-9.3920504453
 21
8.010066309
  0
LINE
  5
2E5
100
AcDbEntity
  8
ASSI
100
AcDbLine
 62
7
  6
CONTINUOUS
 10
-9.3178118841
 20
7.9641145691
 11
-9.3178118841
 21
8.0173664218
  0
LINE
  5
2E6
100
AcDbEntity
  8
ASSI
100
AcDbLine
 62
7
  6
CONTINUOUS
 10
-9.058641
 20
6.84343177
 11
-9.058641
 21
6.8134070838
  0
LINE
  5
2E7
100
AcDbEntity
  8
ASSI
100
AcDbLine
 62
7
  6
CONTINUOUS
 10
-9.058641
 20
-6.84343177
 11
-9.058641
 21
-6.8134070838
  0
LINE
  5
2E8
100
AcDbEntity
  8
ASSI
100
AcDbLine
 62
7
  6
CONTINUOUS
 10
-8.951248637
 20
6.8478308262
 11
-8.951248637
 21
6.8178067001
  0
LINE
  5
2E9
100
AcDbEntity
  8
ASSI
100
AcDbLine
 62
7
  6
CONTINUOUS
 10
-8.4127009235
 20
8.0450141848
 11
-8.4127009235
 21
8.0982027923
  0
LINE
  5
2EA
100
AcDbEntity
  8
ASSI
100
AcDbLine
 62
7
  6
CONTINUOUS
 10
-8.3706813095
 20
8.1021912996
 11
-8.3706813095
 21
8.0490047186
  0
LINE
  5
2EB
100
AcDbEntity
  8
ASSI
100
AcDbLine
 62
7
  6
CONTINUOUS
 10
-8.208599
 20
-6.8768139408
 11
-8.208599
 21
-6.8467931953
  0
LINE
  5
2EC
100
AcDbEntity
  8
ASSI
100
AcDbLine
 62
7
  6
CONTINUOUS
 10
-7.9227399844
 20
8.0856161016
 11
-7.9227399844
 21
8.1387831553
  0
LINE
  5
2ED
100
AcDbEntity
  8
ASSI
100
AcDbLine
 62
7
  6
CONTINUOUS
 10
-7.6452101106
 20
6.8971254735
 11
-7.6452101106
 21
6.8671070948
  0
LINE
  5
2EE
100
AcDbEntity
  8
ASSI
100
AcDbLine
 62
7
  6
CONTINUOUS
 10
-7.4250186751
 20
8.1239205472
 11
-7.4250186751
 21
8.1770671849
  0
LINE
  5
2EF
100
AcDbEntity
  8
ASSI
100
AcDbLine
 62
7
  6
CONTINUOUS
 10
-7.269009
 20
-6.9098836047
 11
-7.269009
 21
-6.8798667884
  0
LINE
  5
2F0
100
AcDbEntity
  8
ASSI
100
AcDbLine
 62
7
  6
CONTINUOUS
 10
-6.75
 20
3.275
 11
-6.75
 21
3.25
  0
LINE
  5
2F1
100
AcDbEntity
  8
ASSI
100
AcDbLine
 62
7
  6
CONTINUOUS
 10
-6.75
 20
-3.25
 11
-6.75
 21
-3.275
  0
LINE
  5
2F2
100
AcDbEntity
  8
ASSI
100
AcDbLine
 62
7
  6
CONTINUOUS
 10
-6.7151952694
 20
8.1742348487
 11
-6.7151952694
 21
8.2273546998
  0
LWPOLYLINE
  5
2F3
100
AcDbEntity
  8
ASSI
100
AcDbPolyline
 62
7
  6
CONTINUOUS
 90
5
 70
0
 10
12.5753289681
 20
-7.5325658505
 10
12.5733123095
 20
-7.5329544896
 10
12.5713531697
 20
-7.5333663981
 10
12.5694443234
 20
-7.5337929003
 10
12.5675728586
 20
-7.5342273754
  0
LWPOLYLINE
  5
2F4
100
AcDbEntity
  8
ASSI
100
AcDbPolyline
 62
250
  6
CONTINUOUS
 90
9
 70
0
 10
12.4860564358
 20
-7.040614112
 10
12.7831042777
 20
-6.9841587908
 10
13.074772211
 20
-6.9245965246
 10
13.3610602356
 20
-6.8619273134
 10
13.6419759955
 20
-6.7960747231
 10
13.9175118467
 20
-6.7271151877
 10
14.1876448573
 20
-6.6552780099
 10
14.4523673833
 20
-6.5806396237
 10
14.7116870688
 20
-6.503123595
  0
LWPOLYLINE
  5
2F5
100
AcDbEntity
  8
ASSI
100
AcDbPolyline
 62
7
  6
CONTINUOUS
 90
7
 70
0
 10
12.5753289681
 20
-7.5325658505
 10
12.695086952
 20
-7.5103561322
 10
12.8131298708
 20
-7.4878114708
 10
12.9303153379
 20
-7.4647641103
 10
13.0443638666
 20
-7.4417004714
 10
13.158915156
 20
-7.4178990096
 10
13.2839554943
 20
-7.3911725185
  0
LWPOLYLINE
  5
2F6
100
AcDbEntity
  8
ASSI
100
AcDbPolyline
 62
250
  6
CONTINUOUS
 90
16
 70
0
 10
14.8972208968
 20
-5.8715290686
 10
14.9667220339
 20
-5.8586653543
 10
15.0342397201
 20
-5.8398126758
 10
15.0997739553
 20
-5.8149710329
 10
15.1640340524
 20
-5.7837751625
 10
15.2263106986
 20
-5.7465903279
 10
15.2844759552
 20
-5.7045123184
 10
15.3381971911
 20
-5.6574230828
 10
15.3878070374
 20
-5.6054406723
 10
15.432175449
 20
-5.550015031
 10
15.4711175077
 20
-5.491084362
 10
15.5048181316
 20
-5.4287104621
 10
15.53270203
 20
-5.3645286652
 10
15.5545774391
 20
-5.2990840826
 10
15.5706361227
 20
-5.2318316029
 10
15.5808780808
 20
-5.1627712262
  0
LWPOLYLINE
  5
2F7
100
AcDbEntity
  8
ASSI
100
AcDbPolyline
 62
250
  6
CONTINUOUS
 90
4
 70
0
 10
12.4860564358
 20
-7.040614112
 10
12.3374467293
 20
-7.0674997341
 10
12.2766745404
 20
-7.0781231748
 10
12.2284994589
 20
-7.0861615387
  0
LINE
  5
2F8
100
AcDbEntity
  8
ASSI
100
AcDbLine
 62
7
  6
CONTINUOUS
 10
12.3576875808
 20
-7.5716183852
 11
12.5572238313
 21
-7.5366481559
  0
LWPOLYLINE
  5
2F9
100
AcDbEntity
  8
ASSI
100
AcDbPolyline
 62
7
  6
CONTINUOUS
 90
5
 70
0
 10
12.5565737547
 20
-7.5367633483
 10
12.5536969588
 20
-7.5372508065
 10
12.5499921266
 20
-7.537843198
 10
12.5467373971
 20
-7.5383030626
 10
12.544519772
 20
-7.5385181917
  0
LINE
  5
2FA
100
AcDbEntity
  8
ASSI
100
AcDbLine
 62
7
  6
CONTINUOUS
 10
12.1900566025
 20
-7.5986658235
 11
12.3576875808
 21
-7.5716183852
  0
LINE
  5
2FB
100
AcDbEntity
  8
ASSI
100
AcDbLine
 62
250
  6
CONTINUOUS
 10
12.4813675992
 20
-7.5819306677
 11
12.438261724
 21
-7.5887982558
  0
LINE
  5
2FC
100
AcDbEntity
  8
ASSI
100
AcDbLine
 62
250
  6
CONTINUOUS
 10
12.2284994589
 20
-7.0861615387
 11
12.0049647655
 21
-7.1214410432
  0
LINE
  5
2FD
100
AcDbEntity
  8
ASSI
100
AcDbLine
 62
250
  6
CONTINUOUS
 10
12.0049647655
 20
-7.1214410432
 11
11.8489490053
 21
-7.145559447
  0
LINE
  5
2FE
100
AcDbEntity
  8
ASSI
100
AcDbLine
 62
250
  6
CONTINUOUS
 10
11.8489490053
 20
-7.145559447
 11
11.6618978685
 21
-7.1736921329
  0
LINE
  5
2FF
100
AcDbEntity
  8
ASSI
100
AcDbLine
 62
250
  6
CONTINUOUS
 10
11.6618978685
 20
-7.1736921329
 11
11.5261792806
 21
-7.1935849572
  0
LINE
  5
300
100
AcDbEntity
  8
ASSI
100
AcDbLine
 62
250
  6
CONTINUOUS
 10
11.5261792806
 20
-7.1935849572
 11
11.3818199259
 21
-7.2142622767
  0
LINE
  5
301
100
AcDbEntity
  8
ASSI
100
AcDbLine
 62
250
  6
CONTINUOUS
 10
11.3818199259
 20
-7.2142622767
 11
11.229378313
 21
-7.2355926296
  0
LINE
  5
302
100
AcDbEntity
  8
ASSI
100
AcDbLine
 62
250
  6
CONTINUOUS
 10
11.229378313
 20
-7.2355926296
 11
11.0712508712
 21
-7.2571712174
  0
LINE
  5
303
100
AcDbEntity
  8
ASSI
100
AcDbLine
 62
250
  6
CONTINUOUS
 10
11.0712508712
 20
-7.2571712174
 11
10.9036372841
 21
-7.2794278722
  0
LINE
  5
304
100
AcDbEntity
  8
ASSI
100
AcDbLine
 62
250
  6
CONTINUOUS
 10
10.9036372841
 20
-7.2794278722
 11
10.7265899196
 21
-7.3023047565
  0
LINE
  5
305
100
AcDbEntity
  8
ASSI
100
AcDbLine
 62
250
  6
CONTINUOUS
 10
10.7265899196
 20
-7.3023047565
 11
10.5441291248
 21
-7.3251946281
  0
LINE
  5
306
100
AcDbEntity
  8
ASSI
100
AcDbLine
 62
250
  6
CONTINUOUS
 10
10.5441291248
 20
-7.3251946281
 11
10.3538711632
 21
-7.3483293156
  0
LWPOLYLINE
  5
307
100
AcDbEntity
  8
ASSI
100
AcDbPolyline
 62
7
  6
CONTINUOUS
 90
7
 70
0
 10
10.2150559375
 20
-7.8682654976
 10
10.6255656896
 20
-7.81928107
 10
11.0289324607
 20
-7.7679662468
 10
11.4255637241
 20
-7.7140287608
 10
11.8156336477
 20
-7.6572116719
 10
12.1990546868
 20
-7.5972588572
 10
12.5753289681
 20
-7.5325658505
  0
LINE
  5
308
100
AcDbEntity
  8
ASSI
100
AcDbLine
 62
250
  6
CONTINUOUS
 10
10.3538711632
 20
-7.3483293156
 11
10.1545684127
 21
-7.3717989683
  0
LINE
  5
309
100
AcDbEntity
  8
ASSI
100
AcDbLine
 62
250
  6
CONTINUOUS
 10
12.438261724
 20
-7.5887982558
 11
12.3948282508
 21
-7.5938514629
  0
LWPOLYLINE
  5
30A
100
AcDbEntity
  8
ASSI
100
AcDbPolyline
 62
7
  6
CONTINUOUS
 90
7
 70
0
 10
2.9105375357
 20
-8.3570798799
 10
2.8746122195
 20
-8.3611421587
 10
2.7943045149
 20
-8.3677794771
 10
2.6912293037
 20
-8.3743912614
 10
2.5662256205
 20
-8.380990922
 10
2.4203109177
 20
-8.3875650486
 10
2.2546813263
 20
-8.3938428242
  0
LINE
  5
30B
100
AcDbEntity
  8
ASSI
100
AcDbLine
 62
250
  6
CONTINUOUS
 10
10.1545684127
 20
-7.3717989683
 11
9.9435939747
 21
-7.3958096296
  0
LINE
  5
30C
100
AcDbEntity
  8
ASSI
100
AcDbLine
 62
7
  6
CONTINUOUS
 10
9.7428348211
 20
-7.9208603165
 11
10.2150559375
 21
-7.8682654976
  0
LINE
  5
30D
100
AcDbEntity
  8
ASSI
100
AcDbLine
 62
250
  6
CONTINUOUS
 10
9.9435939747
 20
-7.3958096296
 11
9.7207124968
 21
-7.4202464945
  0
LINE
  5
30E
100
AcDbEntity
  8
ASSI
100
AcDbLine
 62
250
  6
CONTINUOUS
 10
9.7207124968
 20
-7.4202464945
 11
9.4855142754
 21
-7.4450604113
  0
LINE
  5
30F
100
AcDbEntity
  8
ASSI
100
AcDbLine
 62
7
  6
CONTINUOUS
 10
9.2568177096
 20
-7.9701227478
 11
9.7428348211
 21
-7.9208603165
  0
LINE
  5
310
100
AcDbEntity
  8
ASSI
100
AcDbLine
 62
250
  6
CONTINUOUS
 10
9.4855142754
 20
-7.4450604113
 11
9.2373707008
 21
-7.4701728475
  0
LINE
  5
311
100
AcDbEntity
  8
ASSI
100
AcDbLine
 62
250
  6
CONTINUOUS
 10
9.2373707008
 20
-7.4701728475
 11
8.9755237349
 21
-7.4954761754
  0
LWPOLYLINE
  5
312
100
AcDbEntity
  8
ASSI
100
AcDbPolyline
 62
7
  6
CONTINUOUS
 90
3
 70
0
 10
9.0203610561
 20
-7.9923121697
 10
9.3723764063
 20
-7.9587485456
 10
9.7972770966
 20
-7.9148652005
  0
LINE
  5
313
100
AcDbEntity
  8
ASSI
100
AcDbLine
 62
7
  6
CONTINUOUS
 10
8.9403914965
 20
-7.9995824165
 11
9.0203449018
 21
-7.9921386563
  0
LINE
  5
314
100
AcDbEntity
  8
ASSI
100
AcDbLine
 62
7
  6
CONTINUOUS
 10
9.0982913258
 20
-7.9848817486
 11
9.2568177096
 21
-7.9701227478
  0
LINE
  5
315
100
AcDbEntity
  8
ASSI
100
AcDbLine
 62
250
  6
CONTINUOUS
 10
8.9755237349
 20
-7.4954761754
 11
8.6997486767
 21
-7.5209390331
  0
LWPOLYLINE
  5
316
100
AcDbEntity
  8
ASSI
100
AcDbPolyline
 62
250
  6
CONTINUOUS
 90
22
 70
0
 10
8.6997486767
 20
-7.5209390331
 10
8.0489525406
 20
-7.5777066486
 10
7.3523788744
 20
-7.6313107187
 10
6.6100276782
 20
-7.6817512433
 10
5.8228551168
 20
-7.7300239337
 10
4.9899050253
 20
-7.7751330786
 10
4.1083089095
 20
-7.8140915444
 10
3.1721933102
 20
-7.8471783906
 10
2.1874316866
 20
-7.8741145577
 10
1.1687759223
 20
-7.8910757325
 10
0.1223453262
 20
-7.8981067877
 10
-0.9579794106
 20
-7.8951628506
 10
-2.0758043314
 20
-7.8782849908
 10
-3.2503252858
 20
-7.8458357855
 10
-4.4623464242
 20
-7.7994526575
 10
-5.6578862413
 20
-7.7400889439
 10
-6.8149427673
 20
-7.6707515704
 10
-7.9555179718
 20
-7.5884336114
 10
-9.0916362589
 20
-7.4850676265
 10
-10.2273057631
 20
-7.3579644689
 10
-11.3585183498
 20
-7.2098132854
 10
-12.4852740189
 20
-7.040614076
  0
LINE
  5
317
100
AcDbEntity
  8
ASSI
100
AcDbLine
 62
250
  6
CONTINUOUS
 10
12.3948282508
 20
-7.5938514629
 11
12.3513659796
 21
-7.5970336215
  0
LWPOLYLINE
  5
318
100
AcDbEntity
  8
ASSI
100
AcDbPolyline
 62
250
  6
CONTINUOUS
 90
7
 70
0
 10
11.5034475732
 20
-6.2057307978
 10
12.1050129478
 20
-6.1661963969
 10
12.6922037274
 20
-6.1201956411
 10
13.2650199121
 20
-6.0677285304
 10
13.8234615019
 20
-6.0087950647
 10
14.3675284968
 20
-5.9433952441
 10
14.8972208968
 20
-5.8715290686
  0
LWPOLYLINE
  5
319
100
AcDbEntity
  8
ASSI
100
AcDbPolyline
 62
7
  6
CONTINUOUS
 90
19
 70
0
 10
11.5302686888
 20
-6.6975933145
 10
10.3122198402
 20
-6.7583555769
 10
9.056477395
 20
-6.8133558311
 10
7.7613381742
 20
-6.8631151005
 10
6.4329624546
 20
-6.9061576037
 10
5.0661192043
 20
-6.9419453633
 10
3.6447864028
 20
-6.9700547854
 10
2.1583693932
 20
-6.9895658661
 10
0.6174801511
 20
-6.9991726799
 10
-0.9620885224
 20
-6.9978511913
 10
-2.592918046
 20
-6.9846376851
 10
-4.2623283693
 20
-6.9586259389
 10
-5.9166226675
 20
-6.9203696202
 10
-7.554516063
 20
-6.8702323967
 10
-9.177089108
 20
-6.8085084138
 10
-10.7337102904
 20
-6.737959699
 10
-12.2117279997
 20
-6.6549902901
 10
-13.6238792082
 20
-6.5293092825
 10
-14.9664295112
 20
-6.3622397747
  0
LWPOLYLINE
  5
31A
100
AcDbEntity
  8
ASSI
100
AcDbPolyline
 62
250
  6
CONTINUOUS
 90
4
 70
0
 10
10.7394532134
 20
-7.8968954886
 10
10.0547455785
 20
-7.9269984506
 10
9.6660105645
 20
-7.942818596
 10
9.4414748218
 20
-7.9514060029
  0
LINE
  5
31B
100
AcDbEntity
  8
ASSI
100
AcDbLine
 62
250
  6
CONTINUOUS
 10
11.0406824803
 20
-7.8844231375
 11
10.7394532134
 21
-7.8968954886
  0
LINE
  5
31C
100
AcDbEntity
  8
ASSI
100
AcDbLine
 62
7
  6
CONTINUOUS
 10
8.9581172309
 20
-6.8475839409
 11
9.058641
 21
-6.8434650688
  0
LINE
  5
31D
100
AcDbEntity
  8
ASSI
100
AcDbLine
 62
7
  6
CONTINUOUS
 10
8.0702902388
 20
-6.8819720252
 11
8.951248637
 21
-6.8478686617
  0
LINE
  5
31E
100
AcDbEntity
  8
ASSI
100
AcDbLine
 62
7
  6
CONTINUOUS
 10
7.6452101106
 20
-6.8971522451
 11
8.0702902388
 21
-6.8819720252
  0
LWPOLYLINE
  5
31F
100
AcDbEntity
  8
ASSI
100
AcDbPolyline
 62
7
  6
CONTINUOUS
 90
7
 70
0
 10
7.6452101106
 20
-6.8971522451
 10
7.3198068938
 20
-6.9082414339
 10
6.992040623
 20
-6.9189025864
 10
6.6619112982
 20
-6.9291357028
 10
6.3294189194
 20
-6.9389407829
 10
5.9945634867
 20
-6.9483178268
 10
5.657345
 20
-6.9572668346
  0
LINE
  5
320
100
AcDbEntity
  8
ASSI
100
AcDbLine
 62
7
  6
CONTINUOUS
 10
2.2546813263
 20
-8.3938428242
 11
2.0706902881
 21
-8.399820188
  0
LINE
  5
321
100
AcDbEntity
  8
ASSI
100
AcDbLine
 62
250
  6
CONTINUOUS
 10
12.3513659796
 20
-7.5970336215
 11
12.3081312159
 21
-7.5982972349
  0
LINE
  5
322
100
AcDbEntity
  8
ASSI
100
AcDbLine
 62
7
  6
CONTINUOUS
 10
2.0706902881
 20
-8.399820188
 11
1.8698366589
 21
-8.4055012008
  0
LINE
  5
323
100
AcDbEntity
  8
ASSI
100
AcDbLine
 62
7
  6
CONTINUOUS
 10
1.8698366589
 20
-8.4055012008
 11
1.6537609666
 21
-8.4106272293
  0
LWPOLYLINE
  5
324
100
AcDbEntity
  8
ASSI
100
AcDbPolyline
 62
250
  6
CONTINUOUS
 90
3
 70
0
 10
-12.2828890252
 20
-7.6290928914
 10
-12.2254735976
 20
-7.6278454873
 10
-12.1682191972
 20
-7.6232982319
  0
LINE
  5
325
100
AcDbEntity
  8
ASSI
100
AcDbLine
 62
7
  6
CONTINUOUS
 10
4.635821836
 20
-6.9811651278
 11
5.090661
 21
-6.9711104336
  0
LINE
  5
326
100
AcDbEntity
  8
ASSI
100
AcDbLine
 62
7
  6
CONTINUOUS
 10
1.6537609666
 20
-8.4106272293
 11
1.4242265437
 21
-8.4151762766
  0
LINE
  5
327
100
AcDbEntity
  8
ASSI
100
AcDbLine
 62
7
  6
CONTINUOUS
 10
4.1809547726
 20
-6.9902795547
 11
4.635821836
 21
-6.9811651278
  0
LWPOLYLINE
  5
328
100
AcDbEntity
  8
ASSI
100
AcDbPolyline
 62
7
  6
CONTINUOUS
 90
3
 70
0
 10
1.4242265437
 20
-8.4151762766
 10
1.18310331
 20
-8.4191703394
 10
0.9323550757
 20
-8.4224167746
  0
LINE
  5
329
100
AcDbEntity
  8
ASSI
100
AcDbLine
 62
7
  6
CONTINUOUS
 10
4.1809547726
 20
-6.9902795547
 11
3.585565972
 21
-7.0007895849
  0
LINE
  5
32A
100
AcDbEntity
  8
ASSI
100
AcDbLine
 62
7
  6
CONTINUOUS
 10
3.585565972
 20
-7.0007895849
 11
3.1612399552
 21
-7.007292528
  0
LINE
  5
32B
100
AcDbEntity
  8
ASSI
100
AcDbLine
 62
7
  6
CONTINUOUS
 10
2.5727540264
 20
-7.0149615461
 11
3.1612399552
 21
-7.007292528
  0
LINE
  5
32C
100
AcDbEntity
  8
ASSI
100
AcDbLine
 62
7
  6
CONTINUOUS
 10
2.117897407
 20
-7.0198095885
 11
2.5727540264
 21
-7.0149615461
  0
LINE
  5
32D
100
AcDbEntity
  8
ASSI
100
AcDbLine
 62
7
  6
CONTINUOUS
 10
0.9323550757
 20
-8.4224167746
 11
0.6740273375
 21
-8.4248797104
  0
LWPOLYLINE
  5
32E
100
AcDbEntity
  8
ASSI
100
AcDbPolyline
 62
7
  6
CONTINUOUS
 90
3
 70
0
 10
1.511406
 20
-7.0248109093
 10
1.6630305473
 20
-7.0237173019
 10
2.117897407
 20
-7.0198095885
  0
LINE
  5
32F
100
AcDbEntity
  8
ASSI
100
AcDbLine
 62
7
  6
CONTINUOUS
 10
0.6740273375
 20
-8.4248797104
 11
0.4102218697
 21
-8.4265950185
  0
LINE
  5
330
100
AcDbEntity
  8
ASSI
100
AcDbLine
 62
7
  6
CONTINUOUS
 10
0.4102218697
 20
-8.4265950185
 11
0.1430777829
 21
-8.4274776714
  0
LINE
  5
331
100
AcDbEntity
  8
ASSI
100
AcDbLine
 62
7
  6
CONTINUOUS
 10
0.944722
 20
-7.0279731186
 11
0.5203007026
 21
-7.0293893553
  0
LINE
  5
332
100
AcDbEntity
  8
ASSI
100
AcDbLine
 62
7
  6
CONTINUOUS
 10
0.5203007026
 20
-7.0293893553
 11
0.0919607026
 21
-7.0299770938
  0
LWPOLYLINE
  5
333
100
AcDbEntity
  8
ASSI
100
AcDbPolyline
 62
7
  6
CONTINUOUS
 90
3
 70
0
 10
0.1430777829
 20
-8.4274776714
 10
-0.1252295988
 20
-8.4274856672
 10
-0.3925160886
 20
-8.4266610079
  0
LINE
  5
334
100
AcDbEntity
  8
ASSI
100
AcDbLine
 62
7
  6
CONTINUOUS
 10
0.0919607026
 20
-7.0299770938
 11
-0.340298
 21
-7.0297363341
  0
LINE
  5
335
100
AcDbEntity
  8
ASSI
100
AcDbLine
 62
7
  6
CONTINUOUS
 10
-1.133974
 20
-7.0270760675
 11
-0.340298
 21
-7.0297363341
  0
LINE
  5
336
100
AcDbEntity
  8
ASSI
100
AcDbLine
 62
7
  6
CONTINUOUS
 10
-0.3925160886
 20
-8.4266610079
 11
-0.6566154474
 21
-8.425044671
  0
LINE
  5
337
100
AcDbEntity
  8
ASSI
100
AcDbLine
 62
7
  6
CONTINUOUS
 10
-1.927651
 20
-7.0215527029
 11
-1.133974
 21
-7.0270760675
  0
LINE
  5
338
100
AcDbEntity
  8
ASSI
100
AcDbLine
 62
7
  6
CONTINUOUS
 10
-0.6566154474
 20
-8.425044671
 11
-0.9153799731
 21
-8.422597573
  0
LINE
  5
339
100
AcDbEntity
  8
ASSI
100
AcDbLine
 62
7
  6
CONTINUOUS
 10
-1.927651
 20
-7.0215527029
 11
-2.3561596628
 21
-7.0173802319
  0
LINE
  5
33A
100
AcDbEntity
  8
ASSI
100
AcDbLine
 62
7
  6
CONTINUOUS
 10
-2.3561596628
 20
-7.0173802319
 11
-2.7844996628
 21
-7.012375702
  0
LWPOLYLINE
  5
33B
100
AcDbEntity
  8
ASSI
100
AcDbPolyline
 62
7
  6
CONTINUOUS
 90
3
 70
0
 10
-0.9153799731
 20
-8.422597573
 10
-1.1666988074
 20
-8.4193587974
 10
-1.4085250174
 20
-8.4154865737
  0
LINE
  5
33C
100
AcDbEntity
  8
ASSI
100
AcDbLine
 62
7
  6
CONTINUOUS
 10
-2.7844996628
 20
-7.012375702
 11
-3.212671
 21
-7.0065391132
  0
LINE
  5
33D
100
AcDbEntity
  8
ASSI
100
AcDbLine
 62
250
  6
CONTINUOUS
 10
12.3081312159
 20
-7.5982972349
 11
12.2650896389
 21
-7.5976575065
  0
LINE
  5
33E
100
AcDbEntity
  8
ASSI
100
AcDbLine
 62
7
  6
CONTINUOUS
 10
-1.4085250174
 20
-8.4154865737
 11
-1.6388868664
 21
-8.4109533405
  0
LINE
  5
33F
100
AcDbEntity
  8
ASSI
100
AcDbLine
 62
7
  6
CONTINUOUS
 10
-4.062671
 20
-6.9924830141
 11
-4.4862360489
 21
-6.984252294
  0
LINE
  5
340
100
AcDbEntity
  8
ASSI
100
AcDbLine
 62
7
  6
CONTINUOUS
 10
-4.4862360489
 20
-6.984252294
 11
-4.912703
 21
-6.9751408978
  0
LINE
  5
341
100
AcDbEntity
  8
ASSI
100
AcDbLine
 62
7
  6
CONTINUOUS
 10
-1.6388868664
 20
-8.4109533405
 11
-1.8559082752
 21
-8.405786659
  0
LINE
  5
342
100
AcDbEntity
  8
ASSI
100
AcDbLine
 62
7
  6
CONTINUOUS
 10
-5.479387
 20
-6.9617538811
 11
-5.9041649631
 21
-6.9507612449
  0
LINE
  5
343
100
AcDbEntity
  8
ASSI
100
AcDbLine
 62
7
  6
CONTINUOUS
 10
-1.8559082752
 20
-8.405786659
 11
-2.0578237373
 21
-8.4002274421
  0
LINE
  5
344
100
AcDbEntity
  8
ASSI
100
AcDbLine
 62
7
  6
CONTINUOUS
 10
-5.9041649631
 20
-6.9507612449
 11
-6.329429
 21
-6.9389336503
  0
LINE
  5
345
100
AcDbEntity
  8
ASSI
100
AcDbLine
 62
7
  6
CONTINUOUS
 10
-7.0602311017
 20
-6.9166858797
 11
-6.329429
 21
-6.9389336503
  0
LINE
  5
346
100
AcDbEntity
  8
ASSI
100
AcDbLine
 62
7
  6
CONTINUOUS
 10
-2.0578237373
 20
-8.4002274421
 11
-2.2429903601
 21
-8.3942649862
  0
LINE
  5
347
100
AcDbEntity
  8
ASSI
100
AcDbLine
 62
7
  6
CONTINUOUS
 10
-7.7910250738
 20
-6.8920071413
 11
-7.0602311017
 21
-6.9166858797
  0
LINE
  5
348
100
AcDbEntity
  8
ASSI
100
AcDbLine
 62
250
  6
CONTINUOUS
 10
-12.3402845645
 20
-7.6270449332
 11
-12.2828890252
 21
-7.6290928914
  0
LINE
  5
349
100
AcDbEntity
  8
ASSI
100
AcDbLine
 62
7
  6
CONTINUOUS
 10
-7.7910250738
 20
-6.8920071413
 11
-8.3514784572
 21
-6.8714314329
  0
LWPOLYLINE
  5
34A
100
AcDbEntity
  8
ASSI
100
AcDbPolyline
 62
7
  6
CONTINUOUS
 90
7
 70
0
 10
-2.2429903601
 20
-8.3942649862
 10
-2.4098915255
 20
-8.3879099948
 10
-2.5571565545
 20
-8.3814354911
 10
-2.6835850334
 20
-8.3748491022
 10
-2.7881480406
 20
-8.368143201
 10
-2.8699911795
 20
-8.361567929
 10
-2.9180676669
 20
-8.3562861998
  0
LWPOLYLINE
  5
34B
100
AcDbEntity
  8
ASSI
100
AcDbPolyline
 62
250
  6
CONTINUOUS
 90
5
 70
0
 10
-9.4404192214
 20
-7.9514540451
 10
-9.6307746738
 20
-7.9441720828
 10
-9.9534616842
 20
-7.9310865939
 10
-10.255643305
 20
-7.9182269221
 10
-10.7984632865
 20
-7.8943951798
  0
LINE
  5
34C
100
AcDbEntity
  8
ASSI
100
AcDbLine
 62
7
  6
CONTINUOUS
 10
-8.3514784572
 20
-6.8714314329
 11
-8.7772229314
 21
-6.8548490597
  0
LINE
  5
34D
100
AcDbEntity
  8
ASSI
100
AcDbLine
 62
7
  6
CONTINUOUS
 10
-8.7772229314
 20
-6.8548490597
 11
-9.058641
 21
-6.84343177
  0
LINE
  5
34E
100
AcDbEntity
  8
ASSI
100
AcDbLine
 62
250
  6
CONTINUOUS
 10
-10.7984632865
 20
-7.8943951798
 11
-11.039845254
 21
-7.8844435973
  0
LINE
  5
34F
100
AcDbEntity
  8
ASSI
100
AcDbLine
 62
250
  6
CONTINUOUS
 10
-12.39748551
 20
-7.6217047329
 11
-12.3402845645
 21
-7.6270449332
  0
LWPOLYLINE
  5
350
100
AcDbEntity
  8
ASSI
100
AcDbPolyline
 62
7
  6
CONTINUOUS
 90
3
 70
0
 10
-9.757244937
 20
-7.9192431753
 10
-9.2712405074
 20
-7.9686540174
 10
-8.9396088811
 20
-7.9995824165
  0
LINE
  5
351
100
AcDbEntity
  8
ASSI
100
AcDbLine
 62
7
  6
CONTINUOUS
 10
-9.7788563678
 20
-7.9168422577
 11
-9.757244937
 21
-7.9192431753
  0
LWPOLYLINE
  5
352
100
AcDbEntity
  8
ASSI
100
AcDbPolyline
 62
7
  6
CONTINUOUS
 90
4
 70
0
 10
-10.2204484207
 20
-7.8678182639
 10
-9.8011683237
 20
-7.9145409454
 10
-9.3742094672
 20
-7.9585785757
 10
-8.9396080904
 20
-7.999574328
  0
LINE
  5
353
100
AcDbEntity
  8
ASSI
100
AcDbLine
 62
7
  6
CONTINUOUS
 10
-10.6861906163
 20
-7.8120485648
 11
-10.2204484207
 21
-7.8678182639
  0
LWPOLYLINE
  5
354
100
AcDbEntity
  8
ASSI
100
AcDbPolyline
 62
250
  6
CONTINUOUS
 90
22
 70
0
 10
-14.8964378638
 20
-5.8715261153
 10
-13.9242166474
 20
-5.9915901939
 10
-12.9082791033
 20
-6.0950841618
 10
-11.8486252313
 20
-6.182008019
 10
-10.7436312227
 20
-6.2486448477
 10
-9.5949208863
 20
-6.2987115657
 10
-8.4073656486
 20
-6.3433589265
 10
-7.1849938609
 20
-6.3868852996
 10
-5.9237771719
 20
-6.4249923155
 10
-4.6165019542
 20
-6.4559356187
 10
-3.252371207
 20
-6.4798625429
 10
-1.8421819312
 20
-6.4966257544
 10
-0.4111115021
 20
-6.5040388966
 10
1.0542566656
 20
-6.500948135
 10
2.5405059865
 20
-6.488507304
 10
3.9822093299
 20
-6.4679915505
 10
5.3598784682
 20
-6.4387941881
 10
6.693001629
 20
-6.4015219031
 10
7.9746163646
 20
-6.359269901
 10
9.2024018593
 20
-6.313069917
 10
10.3786789288
 20
-6.2618902159
 10
11.5034475732
 20
-6.2057307978
  0
LINE
  5
355
100
AcDbEntity
  8
ASSI
100
AcDbLine
 62
7
  6
CONTINUOUS
 10
-11.1291473977
 20
-7.7550366296
 11
-10.8134255768
 21
-7.7956724495
  0
LWPOLYLINE
  5
356
100
AcDbEntity
  8
ASSI
100
AcDbPolyline
 62
7
  6
CONTINUOUS
 90
3
 70
0
 10
-11.2228614017
 20
-7.7424182839
 10
-11.0358877167
 20
-7.7673829253
 10
-10.6320162656
 20
-7.8187414674
  0
LWPOLYLINE
  5
357
100
AcDbEntity
  8
ASSI
100
AcDbPolyline
 62
7
  6
CONTINUOUS
 90
3
 70
0
 10
-11.5467609829
 20
-7.697224303
 10
-11.4321349184
 20
-7.7135109694
 10
-11.2228614017
 20
-7.7424182839
  0
LINE
  5
358
100
AcDbEntity
  8
ASSI
100
AcDbLine
 62
250
  6
CONTINUOUS
 10
-12.4543224355
 20
-7.6130742505
 11
-12.39748551
 21
-7.6217047329
  0
LWPOLYLINE
  5
359
100
AcDbEntity
  8
ASSI
100
AcDbPolyline
 62
7
  6
CONTINUOUS
 90
4
 70
0
 10
-12.5750973612
 20
-7.5332511014
 10
-12.2019736464
 20
-7.5973482187
 10
-11.8208218196
 20
-7.6569134746
 10
-11.5467609829
 20
-7.697224303
  0
LINE
  5
35A
100
AcDbEntity
  8
ASSI
100
AcDbLine
 62
7
  6
CONTINUOUS
 10
-6.329429
 20
-6.9389336503
 11
-6.329429
 21
-6.9089206336
  0
LINE
  5
35B
100
AcDbEntity
  8
ASSI
100
AcDbLine
 62
7
  6
CONTINUOUS
 10
-6.1629823326
 20
8.2098685259
 11
-6.1629823326
 21
8.2629694226
  0
LINE
  5
35C
100
AcDbEntity
  8
ASSI
100
AcDbLine
 62
7
  6
CONTINUOUS
 10
-5.90008459
 20
8.2257552638
 11
-5.90008459
 21
8.2788477141
  0
LINE
  5
35D
100
AcDbEntity
  8
ASSI
100
AcDbLine
 62
7
  6
CONTINUOUS
 10
-5.7453421287
 20
8.2347857774
 11
-5.7453421287
 21
8.2878734322
  0
LINE
  5
35E
100
AcDbEntity
  8
ASSI
100
AcDbLine
 62
7
  6
CONTINUOUS
 10
-5.657345
 20
6.957248502
 11
-5.657345
 21
6.9272380109
  0
LINE
  5
35F
100
AcDbEntity
  8
ASSI
100
AcDbLine
 62
7
  6
CONTINUOUS
 10
-5.479387
 20
-6.9617538811
 11
-5.479387
 21
-6.9317440228
  0
LINE
  5
360
100
AcDbEntity
  8
ASSI
100
AcDbLine
 62
7
  6
CONTINUOUS
 10
-5.3472734904
 20
8.256905879
 11
-5.3472734904
 21
8.3099817861
  0
LINE
  5
361
100
AcDbEntity
  8
ASSI
100
AcDbLine
 62
7
  6
CONTINUOUS
 10
-5.090661
 20
6.9710942507
 11
-5.090661
 21
6.9410857151
  0
LINE
  5
362
100
AcDbEntity
  8
ASSI
100
AcDbLine
 62
7
  6
CONTINUOUS
 10
-4.912703
 20
-6.9751408978
 11
-4.912703
 21
-6.9451329388
  0
LINE
  5
363
100
AcDbEntity
  8
ASSI
100
AcDbLine
 62
7
  6
CONTINUOUS
 10
-4.83
 20
-3.979893645
 11
-4.83
 21
-3.7586169982
  0
LINE
  5
364
100
AcDbEntity
  8
ASSI
100
AcDbLine
 62
7
  6
CONTINUOUS
 10
-4.5856555128
 20
8.2947706232
 11
-4.5856555128
 21
8.3478264125
  0
LINE
  5
365
100
AcDbEntity
  8
ASSI
100
AcDbLine
 62
7
  6
CONTINUOUS
 10
-4.5724548562
 20
-4.8543443948
 11
-4.5724548562
 21
-3.7862765694
  0
LINE
  5
366
100
AcDbEntity
  8
ASSI
100
AcDbLine
 62
7
  6
CONTINUOUS
 10
-4.511175259
 20
8.2981622901
 11
-4.511175259
 21
8.3512162792
  0
LINE
  5
367
100
AcDbEntity
  8
ASSI
100
AcDbLine
 62
7
  6
CONTINUOUS
 10
-4.3149097125
 20
-3.565
 11
-4.3149097125
 21
-4.8543443948
  0
LINE
  5
368
100
AcDbEntity
  8
ASSI
100
AcDbLine
 62
7
  6
CONTINUOUS
 10
-4.062671
 20
-6.9924830141
 11
-4.062671
 21
-6.9624775362
  0
LINE
  5
369
100
AcDbEntity
  8
ASSI
100
AcDbLine
 62
7
  6
CONTINUOUS
 10
-3.9715162079
 20
-4.3394680703
 11
-3.9715162079
 21
-4.0905319297
  0
LINE
  5
36A
100
AcDbEntity
  8
ASSI
100
AcDbLine
 62
7
  6
CONTINUOUS
 10
-3.7568952752
 20
-4.1181915009
 11
-3.7568952752
 21
-4.3118084991
  0
LINE
  5
36B
100
AcDbEntity
  8
ASSI
100
AcDbLine
 62
7
  6
CONTINUOUS
 10
-3.72606
 20
6.9984422718
 11
-3.72606
 21
6.9684376447
  0
LINE
  5
36C
100
AcDbEntity
  8
ASSI
100
AcDbLine
 62
7
  6
CONTINUOUS
 10
-3.212671
 20
-7.0065391132
 11
-3.212671
 21
-6.9765356349
  0
LINE
  5
36D
100
AcDbEntity
  8
ASSI
100
AcDbLine
 62
7
  6
CONTINUOUS
 10
5.3430331791
 20
-4.2564893568
 11
5.1284125534
 21
-4.3118084991
  0
LINE
  5
36E
100
AcDbEntity
  8
ASSI
100
AcDbLine
 62
7
  6
CONTINUOUS
 10
1.7374011663
 20
-4.7267021248
 11
1.909097765
 21
-4.6990425536
  0
LINE
  5
36F
100
AcDbEntity
  8
ASSI
100
AcDbLine
 62
7
  6
CONTINUOUS
 10
1.4798560225
 20
-4.1735106432
 11
1.3081594237
 21
-4.2011702144
  0
LINE
  5
370
100
AcDbEntity
  8
ASSI
100
AcDbLine
 62
7
  6
CONTINUOUS
 10
3.4972926546
 20
-4.7267021248
 11
3.7119142627
 21
-4.6990425536
  0
LINE
  5
371
100
AcDbEntity
  8
ASSI
100
AcDbLine
 62
7
  6
CONTINUOUS
 10
1.9520222831
 20
-4.8373404264
 11
1.8200820468
 21
-4.8543443948
  0
LINE
  5
372
100
AcDbEntity
  8
ASSI
100
AcDbLine
 62
7
  6
CONTINUOUS
 10
-3.1988807152
 20
-4.7267021248
 11
-2.9842598439
 21
-4.6990425536
  0
LINE
  5
373
100
AcDbEntity
  8
ASSI
100
AcDbLine
 62
7
  6
CONTINUOUS
 10
1.2652349056
 20
-4.0628723586
 11
1.4798560225
 21
-4.0352127874
  0
LINE
  5
374
100
AcDbEntity
  8
ASSI
100
AcDbLine
 62
7
  6
CONTINUOUS
 10
3.4972926546
 20
-3.7032978559
 11
3.2826720289
 21
-3.730957427
  0
LINE
  5
375
100
AcDbEntity
  8
ASSI
100
AcDbLine
 62
7
  6
CONTINUOUS
 10
-0.3658840108
 20
-3.7032978559
 11
-0.5805051277
 21
-3.730957427
  0
LINE
  5
376
100
AcDbEntity
  8
ASSI
100
AcDbLine
 62
7
  6
CONTINUOUS
 10
-3.1988807152
 20
-3.7032978559
 11
-3.4135017092
 21
-3.730957427
  0
LINE
  5
377
100
AcDbEntity
  8
ASSI
100
AcDbLine
 62
250
  6
CONTINUOUS
 10
-15.8661453155
 20
-5.796047682
 11
-16.0092285984
 21
-5.8127928708
  0
LINE
  5
378
100
AcDbEntity
  8
ASSI
100
AcDbLine
 62
7
  6
CONTINUOUS
 10
3.7548377983
 20
-4.8373404264
 11
3.5965096355
 21
-4.8543443948
  0
LINE
  5
379
100
AcDbEntity
  8
ASSI
100
AcDbLine
 62
7
  6
CONTINUOUS
 10
-2.9413355714
 20
-4.8373404264
 11
-3.0996637342
 21
-4.8543443948
  0
LINE
  5
37A
100
AcDbEntity
  8
ASSI
100
AcDbLine
 62
7
  6
CONTINUOUS
 10
3.239748002
 20
-3.5926595712
 11
3.4972926546
 21
-3.565
  0
LINE
  5
37B
100
AcDbEntity
  8
ASSI
100
AcDbLine
 62
7
  6
CONTINUOUS
 10
-3.4564258589
 20
-3.5926595712
 11
-3.1988807152
 21
-3.565
  0
LINE
  5
37C
100
AcDbEntity
  8
ASSI
100
AcDbLine
 62
250
  6
CONTINUOUS
 10
-15.5800955876
 20
-5.1627806486
 11
-15.7330086009
 21
-5.1786504671
  0
LINE
  5
37D
100
AcDbEntity
  8
ASSI
100
AcDbLine
 62
250
  6
CONTINUOUS
 10
-15.7330086009
 20
-5.1786504671
 11
-15.8727647476
 21
-5.1926548987
  0
LINE
  5
37E
100
AcDbEntity
  8
ASSI
100
AcDbLine
 62
250
  6
CONTINUOUS
 10
-15.8727647476
 20
-5.1926548987
 11
-15.9840089425
 21
-5.2032350548
  0
LINE
  5
37F
100
AcDbEntity
  8
ASSI
100
AcDbLine
 62
7
  6
CONTINUOUS
 10
-0.6234291546
 20
-3.5926595712
 11
-0.3229599839
 21
-3.565
  0
LWPOLYLINE
  5
380
100
AcDbEntity
  8
ASSI
100
AcDbPolyline
 62
250
  6
CONTINUOUS
 90
6
 70
0
 10
-15.9840089425
 20
-5.2032350548
 10
-16.0357008075
 20
-5.2078375833
 10
-16.0539876042
 20
-5.209331747
 10
-16.0670430105
 20
-5.2102744332
 10
-16.0748315992
 20
-5.2106660518
 10
-16.0773641524
 20
-5.2105121473
  0
LINE
  5
381
100
AcDbEntity
  8
ASSI
100
AcDbLine
 62
250
  6
CONTINUOUS
 10
-14.2842653557
 20
-5.7956367323
 11
14.2842653557
 21
-5.7956367323
  0
LINE
  5
382
100
AcDbEntity
  8
0
100
AcDbLine
 62
7
  6
CONTINUOUS
 10
14.2899624531
 20
-5.5733039888
 11
-14.2899624531
 21
-5.5733039888
  0
LINE
  5
383
100
AcDbEntity
  8
ASSI
100
AcDbLine
 62
7
  6
CONTINUOUS
 10
-14.3350020699
 20
-5.0473337491
 11
-14.2849534837
 21
-5.0473337491
  0
LINE
  5
384
100
AcDbEntity
  8
ASSI
100
AcDbLine
 62
7
  6
CONTINUOUS
 10
14.2849534837
 20
-5.0473337491
 11
14.3350020699
 21
-5.0473337491
  0
LINE
  5
385
100
AcDbEntity
  8
0
100
AcDbLine
 62
7
  6
CONTINUOUS
 10
14.2899624531
 20
-5.0180849909
 11
-14.2899624531
 21
-5.0180849909
  0
LINE
  5
386
100
AcDbEntity
  8
0
100
AcDbLine
 62
7
  6
CONTINUOUS
 10
14.2899624531
 20
-5.0
 11
-14.2899624531
 21
-5.0
  0
LINE
  5
387
100
AcDbEntity
  8
ASSI
100
AcDbLine
 62
7
  6
CONTINUOUS
 10
-3.2980976961
 20
-4.8543443948
 11
-3.0996637342
 21
-4.8543443948
  0
LINE
  5
388
100
AcDbEntity
  8
ASSI
100
AcDbLine
 62
7
  6
CONTINUOUS
 10
0.4925994743
 20
-4.8543443948
 11
-1.0526711428
 21
-4.8543443948
  0
LINE
  5
389
100
AcDbEntity
  8
ASSI
100
AcDbLine
 62
7
  6
CONTINUOUS
 10
1.397175142
 20
-4.8543443948
 11
1.8200820468
 21
-4.8543443948
  0
LINE
  5
38A
100
AcDbEntity
  8
ASSI
100
AcDbLine
 62
7
  6
CONTINUOUS
 10
3.3980758629
 20
-4.8543443948
 11
3.5965096355
 21
-4.8543443948
  0
LINE
  5
38B
100
AcDbEntity
  8
ASSI
100
AcDbLine
 62
7
  6
CONTINUOUS
 10
-4.3149097125
 20
-4.8543443948
 11
-4.5724548562
 21
-4.8543443948
  0
LINE
  5
38C
100
AcDbEntity
  8
ASSI
100
AcDbLine
 62
7
  6
CONTINUOUS
 10
-0.7092776996
 20
-4.7267021248
 11
0.4925994743
 21
-4.7267021248
  0
LINE
  5
38D
100
AcDbEntity
  8
ASSI
100
AcDbLine
 62
7
  6
CONTINUOUS
 10
1.4798560225
 20
-4.7267021248
 11
1.7374011663
 21
-4.7267021248
  0
LINE
  5
38E
100
AcDbEntity
  8
ASSI
100
AcDbLine
 62
250
  6
CONTINUOUS
 10
14.3343510651
 20
-4.5543443948
 11
4.1873908703
 21
-4.5543443948
  0
LINE
  5
38F
100
AcDbEntity
  8
ASSI
100
AcDbLine
 62
250
  6
CONTINUOUS
 10
3.9331564981
 20
-4.5543443948
 11
3.0614295289
 21
-4.5543443948
  0
LINE
  5
390
100
AcDbEntity
  8
ASSI
100
AcDbLine
 62
250
  6
CONTINUOUS
 10
2.807194968
 20
-4.5543443948
 11
2.350897595
 21
-4.5543443948
  0
LINE
  5
391
100
AcDbEntity
  8
ASSI
100
AcDbLine
 62
250
  6
CONTINUOUS
 10
2.1270296822
 20
-4.5543443948
 11
1.1100342114
 21
-4.5543443948
  0
LINE
  5
392
100
AcDbEntity
  8
ASSI
100
AcDbLine
 62
250
  6
CONTINUOUS
 10
0.835993163
 20
-4.5543443948
 11
-0.4053259426
 21
-4.5543443948
  0
LINE
  5
393
100
AcDbEntity
  8
ASSI
100
AcDbLine
 62
250
  6
CONTINUOUS
 10
-0.7530962215
 20
-4.5543443948
 11
-1.9265937083
 21
-4.5543443948
  0
LINE
  5
394
100
AcDbEntity
  8
ASSI
100
AcDbLine
 62
250
  6
CONTINUOUS
 10
-2.0333640899
 20
-4.5543443948
 11
-2.5087828868
 21
-4.5543443948
  0
LINE
  5
395
100
AcDbEntity
  8
ASSI
100
AcDbLine
 62
250
  6
CONTINUOUS
 10
-2.7630172778
 20
-4.5543443948
 11
-3.6347442754
 21
-4.5543443948
  0
LINE
  5
396
100
AcDbEntity
  8
ASSI
100
AcDbLine
 62
250
  6
CONTINUOUS
 10
-3.8889786002
 20
-4.5543443948
 11
-4.3149097125
 21
-4.5543443948
  0
LINE
  5
397
100
AcDbEntity
  8
ASSI
100
AcDbLine
 62
250
  6
CONTINUOUS
 10
-4.5724548562
 20
-4.5543443948
 11
-14.3343510651
 21
-4.5543443948
  0
LINE
  5
398
100
AcDbEntity
  8
ASSI
100
AcDbLine
 62
7
  6
CONTINUOUS
 10
0.835993163
 20
-4.5330851072
 11
1.0935383068
 21
-4.5330851072
  0
LINE
  5
399
100
AcDbEntity
  8
ASSI
100
AcDbLine
 62
7
  6
CONTINUOUS
 10
1.1364623337
 20
-4.2841489279
 11
0.835993163
 21
-4.2841489279
  0
LINE
  5
39A
100
AcDbEntity
  8
ASSI
100
AcDbLine
 62
7
  6
CONTINUOUS
 10
1.7374011663
 20
-4.1735106432
 11
1.4798560225
 21
-4.1735106432
  0
LINE
  5
39B
100
AcDbEntity
  8
ASSI
100
AcDbLine
 62
7
  6
CONTINUOUS
 10
1.4798560225
 20
-4.0352127874
 11
1.7374011663
 21
-4.0352127874
  0
LINE
  5
39C
100
AcDbEntity
  8
ASSI
100
AcDbLine
 62
7
  6
CONTINUOUS
 10
-0.795125999
 20
-3.8692552829
 11
-1.0097471159
 21
-3.8692552829
  0
LINE
  5
39D
100
AcDbEntity
  8
ASSI
100
AcDbLine
 62
7
  6
CONTINUOUS
 10
2.2954154807
 20
-3.7032978559
 11
1.0506142799
 21
-3.7032978559
  0
LINE
  5
39E
100
AcDbEntity
  8
ASSI
100
AcDbLine
 62
7
  6
CONTINUOUS
 10
-0.1941874121
 20
-3.7032978559
 11
-0.3658840108
 21
-3.7032978559
  0
LINE
  5
39F
100
AcDbEntity
  8
ASSI
100
AcDbLine
 62
7
  6
CONTINUOUS
 10
-4.5724548562
 20
-3.565
 11
-4.3149097125
 21
-3.565
  0
LINE
  5
3A0
100
AcDbEntity
  8
ASSI
100
AcDbLine
 62
7
  6
CONTINUOUS
 10
-0.3229599839
 20
-3.565
 11
-0.1512633852
 21
-3.565
  0
LINE
  5
3A1
100
AcDbEntity
  8
ASSI
100
AcDbLine
 62
7
  6
CONTINUOUS
 10
0.835993163
 20
-3.565
 11
2.2954154807
 21
-3.565
  0
LINE
  5
3A2
100
AcDbEntity
  8
ASSI
100
AcDbLine
 62
7
  6
CONTINUOUS
 10
9.5
 20
-3.2867812715
 11
-9.5
 21
-3.2867812715
  0
LINE
  5
3A3
100
AcDbEntity
  8
ASSI
100
AcDbLine
 62
7
  6
CONTINUOUS
 10
9.5
 20
-3.275
 11
-9.5
 21
-3.275
  0
LINE
  5
3A4
100
AcDbEntity
  8
RACCORDO
100
AcDbLine
 62
7
  6
CONTINUOUS
 10
-9.5
 20
-3.25
 11
9.5
 21
-3.25
  0
LINE
  5
3A5
100
AcDbEntity
  8
RACCORDO
100
AcDbLine
 62
250
  6
CONTINUOUS
 10
-9.5
 20
-3.1
 11
9.5
 21
-3.1
  0
LWPOLYLINE
  5
3A6
100
AcDbEntity
  8
ASSI
100
AcDbPolyline
 62
250
  6
CONTINUOUS
 90
5
 70
0
 10
16.0364834213
 20
-5.2078375831
 10
16.0547702182
 20
-5.2093317469
 10
16.0678256249
 20
-5.2102744331
 10
16.0756142139
 20
-5.2106660517
 10
16.0781467674
 20
-5.2105121473
  0
LINE
  5
3A7
100
AcDbEntity
  8
ASSI
100
AcDbLine
 62
250
  6
CONTINUOUS
 10
15.9847915559
 20
-5.2032350545
 11
16.0364834213
 21
-5.2078375831
  0
LINE
  5
3A8
100
AcDbEntity
  8
ASSI
100
AcDbLine
 62
250
  6
CONTINUOUS
 10
15.873547361
 20
-5.1926548985
 11
15.9847915559
 21
-5.2032350545
  0
LINE
  5
3A9
100
AcDbEntity
  8
ASSI
100
AcDbLine
 62
250
  6
CONTINUOUS
 10
15.6835279867
 20
-5.1734897158
 11
15.873547361
 21
-5.1926548985
  0
LINE
  5
3AA
100
AcDbEntity
  8
ASSI
100
AcDbLine
 62
250
  6
CONTINUOUS
 10
15.5808782027
 20
-5.1627806486
 11
15.6835279867
 21
-5.1734897158
  0
LINE
  5
3AB
100
AcDbEntity
  8
ASSI
100
AcDbLine
 62
7
  6
CONTINUOUS
 10
-3.2980976961
 20
-4.8543443948
 11
-3.4564258589
 21
-4.8373404264
  0
LINE
  5
3AC
100
AcDbEntity
  8
ASSI
100
AcDbLine
 62
7
  6
CONTINUOUS
 10
3.3980758629
 20
-4.8543443948
 11
3.239748002
 21
-4.8373404264
  0
LINE
  5
3AD
100
AcDbEntity
  8
ASSI
100
AcDbLine
 62
7
  6
CONTINUOUS
 10
-3.1988807152
 20
-3.565
 11
-2.9413355714
 21
-3.5926595712
  0
LINE
  5
3AE
100
AcDbEntity
  8
ASSI
100
AcDbLine
 62
7
  6
CONTINUOUS
 10
-0.1512633852
 20
-3.565
 11
0.1062817586
 21
-3.5926595712
  0
LINE
  5
3AF
100
AcDbEntity
  8
ASSI
100
AcDbLine
 62
7
  6
CONTINUOUS
 10
3.4972926546
 20
-3.565
 11
3.7548377983
 21
-3.5926595712
  0
LINE
  5
3B0
100
AcDbEntity
  8
ASSI
100
AcDbLine
 62
250
  6
CONTINUOUS
 10
15.866931096
 20
-5.7960481133
 11
16.0100112134
 21
-5.812792871
  0
LINE
  5
3B1
100
AcDbEntity
  8
ASSI
100
AcDbLine
 62
7
  6
CONTINUOUS
 10
-3.4135017092
 20
-4.6990425536
 11
-3.1988807152
 21
-4.7267021248
  0
LINE
  5
3B2
100
AcDbEntity
  8
ASSI
100
AcDbLine
 62
7
  6
CONTINUOUS
 10
1.397175142
 20
-4.8543443948
 11
1.2652349056
 21
-4.8373404264
  0
LINE
  5
3B3
100
AcDbEntity
  8
ASSI
100
AcDbLine
 62
7
  6
CONTINUOUS
 10
3.2826720289
 20
-4.6990425536
 11
3.4972926546
 21
-4.7267021248
  0
LINE
  5
3B4
100
AcDbEntity
  8
ASSI
100
AcDbLine
 62
7
  6
CONTINUOUS
 10
-2.9842598439
 20
-3.730957427
 11
-3.1988807152
 21
-3.7032978559
  0
LINE
  5
3B5
100
AcDbEntity
  8
ASSI
100
AcDbLine
 62
7
  6
CONTINUOUS
 10
1.7374011663
 20
-4.0352127874
 11
1.9520222831
 21
-4.0628723586
  0
LINE
  5
3B6
100
AcDbEntity
  8
ASSI
100
AcDbLine
 62
7
  6
CONTINUOUS
 10
0.0204337048
 20
-3.730957427
 11
-0.1941874121
 21
-3.7032978559
  0
LINE
  5
3B7
100
AcDbEntity
  8
ASSI
100
AcDbLine
 62
7
  6
CONTINUOUS
 10
3.7119142627
 20
-3.730957427
 11
3.4972926546
 21
-3.7032978559
  0
LINE
  5
3B8
100
AcDbEntity
  8
ASSI
100
AcDbLine
 62
7
  6
CONTINUOUS
 10
1.3081594237
 20
-4.6990425536
 11
1.4798560225
 21
-4.7267021248
  0
LINE
  5
3B9
100
AcDbEntity
  8
ASSI
100
AcDbLine
 62
7
  6
CONTINUOUS
 10
1.909097765
 20
-4.2011702144
 11
1.7374011663
 21
-4.1735106432
  0
LINE
  5
3BA
100
AcDbEntity
  8
ASSI
100
AcDbLine
 62
7
  6
CONTINUOUS
 10
0.1062817586
 20
-3.5926595712
 11
0.2779788486
 21
-3.6479787135
  0
LINE
  5
3BB
100
AcDbEntity
  8
ASSI
100
AcDbLine
 62
7
  6
CONTINUOUS
 10
-3.4564258589
 20
-4.8373404264
 11
-3.671046853
 21
-4.7543617056
  0
LINE
  5
3BC
100
AcDbEntity
  8
ASSI
100
AcDbLine
 62
7
  6
CONTINUOUS
 10
-2.9413355714
 20
-3.5926595712
 11
-2.7267145773
 21
-3.6756382847
  0
LINE
  5
3BD
100
AcDbEntity
  8
ASSI
100
AcDbLine
 62
7
  6
CONTINUOUS
 10
1.2652349056
 20
-4.8373404264
 11
1.0506142799
 21
-4.7543617056
  0
LINE
  5
3BE
100
AcDbEntity
  8
ASSI
100
AcDbLine
 62
7
  6
CONTINUOUS
 10
3.239748002
 20
-4.8373404264
 11
3.0251268851
 21
-4.7543617056
  0
LINE
  5
3BF
100
AcDbEntity
  8
ASSI
100
AcDbLine
 62
7
  6
CONTINUOUS
 10
1.9520222831
 20
-4.0628723586
 11
2.1666429088
 21
-4.1458510721
  0
LINE
  5
3C0
100
AcDbEntity
  8
ASSI
100
AcDbLine
 62
7
  6
CONTINUOUS
 10
-3.5422742811
 20
-4.6437234113
 11
-3.4135017092
 21
-4.6990425536
  0
LINE
  5
3C1
100
AcDbEntity
  8
ASSI
100
AcDbLine
 62
7
  6
CONTINUOUS
 10
-1.954079146
 20
-4.5884042495
 11
-2.0828517179
 21
-4.5330851072
  0
LINE
  5
3C2
100
AcDbEntity
  8
ASSI
100
AcDbLine
 62
7
  6
CONTINUOUS
 10
-2.855487272
 20
-3.7862765694
 11
-2.9842598439
 21
-3.730957427
  0
LINE
  5
3C3
100
AcDbEntity
  8
ASSI
100
AcDbLine
 62
7
  6
CONTINUOUS
 10
-1.5248374034
 20
-3.8415957117
 11
-1.3960648315
 21
-3.8969149315
  0
LINE
  5
3C4
100
AcDbEntity
  8
ASSI
100
AcDbLine
 62
7
  6
CONTINUOUS
 10
1.1793868518
 20
-4.6437234113
 11
1.3081594237
 21
-4.6990425536
  0
LINE
  5
3C5
100
AcDbEntity
  8
ASSI
100
AcDbLine
 62
7
  6
CONTINUOUS
 10
0.1492062767
 20
-3.7862765694
 11
0.0204337048
 21
-3.730957427
  0
LINE
  5
3C6
100
AcDbEntity
  8
ASSI
100
AcDbLine
 62
7
  6
CONTINUOUS
 10
2.0378703369
 20
-4.2564893568
 11
1.909097765
 21
-4.2011702144
  0
LINE
  5
3C7
100
AcDbEntity
  8
ASSI
100
AcDbLine
 62
7
  6
CONTINUOUS
 10
3.153899457
 20
-4.6437234113
 11
3.2826720289
 21
-4.6990425536
  0
LINE
  5
3C8
100
AcDbEntity
  8
ASSI
100
AcDbLine
 62
7
  6
CONTINUOUS
 10
-3.671046853
 20
-4.7543617056
 11
-3.7998194249
 21
-4.6713829824
  0
LINE
  5
3C9
100
AcDbEntity
  8
ASSI
100
AcDbLine
 62
7
  6
CONTINUOUS
 10
-2.7267145773
 20
-3.6756382847
 11
-2.5979420054
 21
-3.7586169982
  0
LINE
  5
3CA
100
AcDbEntity
  8
ASSI
100
AcDbLine
 62
7
  6
CONTINUOUS
 10
-3.7139710027
 20
-4.4777659649
 11
-3.5422742811
 21
-4.6437234113
  0
LINE
  5
3CB
100
AcDbEntity
  8
ASSI
100
AcDbLine
 62
7
  6
CONTINUOUS
 10
-2.6837905504
 20
-3.9522340739
 11
-2.855487272
 21
-3.7862765694
  0
LINE
  5
3CC
100
AcDbEntity
  8
ASSI
100
AcDbLine
 62
7
  6
CONTINUOUS
 10
-3.7998194249
 20
-4.6713829824
 11
-3.8856677857
 21
-4.5607446784
  0
LINE
  5
3CD
100
AcDbEntity
  8
ASSI
100
AcDbLine
 62
7
  6
CONTINUOUS
 10
-2.5979420054
 20
-3.7586169982
 11
-2.512093706
 21
-3.8692552829
  0
LINE
  5
3CE
100
AcDbEntity
  8
ASSI
100
AcDbLine
 62
7
  6
CONTINUOUS
 10
-3.8856677857
 20
-4.5607446784
 11
-3.9285919968
 21
-4.4777659649
  0
LINE
  5
3CF
100
AcDbEntity
  8
ASSI
100
AcDbLine
 62
7
  6
CONTINUOUS
 10
-2.512093706
 20
-3.8692552829
 11
-2.4691694335
 21
-3.9522340739
  0
LINE
  5
3D0
100
AcDbEntity
  8
ASSI
100
AcDbLine
 62
7
  6
CONTINUOUS
 10
-3.9285919968
 20
-4.4777659649
 11
-3.9715162079
 21
-4.3394680703
  0
LINE
  5
3D1
100
AcDbEntity
  8
ASSI
100
AcDbLine
 62
7
  6
CONTINUOUS
 10
-2.4691694335
 20
-3.9522340739
 11
-2.4262454066
 21
-4.0905319297
  0
LINE
  5
3D2
100
AcDbEntity
  8
ASSI
100
AcDbLine
 62
7
  6
CONTINUOUS
 10
-3.7568952752
 20
-4.3118084991
 11
-3.7139710027
 21
-4.4777659649
  0
LINE
  5
3D3
100
AcDbEntity
  8
ASSI
100
AcDbLine
 62
7
  6
CONTINUOUS
 10
-2.6408662779
 20
-4.1181915009
 11
-2.6837905504
 21
-3.9522340739
  0
LINE
  5
3D4
100
AcDbEntity
  8
ASSI
100
AcDbLine
 62
7
  6
CONTINUOUS
 10
-2.875986
 20
7.0111985033
 11
-2.875986
 21
6.9811956804
  0
LINE
  5
3D5
100
AcDbEntity
  8
ASSI
100
AcDbLine
 62
7
  6
CONTINUOUS
 10
-2.75
 20
3.275
 11
-2.75
 21
3.25
  0
LINE
  5
3D6
100
AcDbEntity
  8
ASSI
100
AcDbLine
 62
7
  6
CONTINUOUS
 10
-2.75
 20
-3.25
 11
-2.75
 21
-3.275
  0
LINE
  5
3D7
100
AcDbEntity
  8
ASSI
100
AcDbLine
 62
7
  6
CONTINUOUS
 10
-2.6408662779
 20
-4.3118084991
 11
-2.6408662779
 21
-4.1181915009
  0
LINE
  5
3D8
100
AcDbEntity
  8
ASSI
100
AcDbLine
 62
7
  6
CONTINUOUS
 10
-2.4262454066
 20
-4.0905319297
 11
-2.4262454066
 21
-4.3394680703
  0
LINE
  5
3D9
100
AcDbEntity
  8
ASSI
100
AcDbLine
 62
7
  6
CONTINUOUS
 10
-1.927651
 20
-7.0215527029
 11
-1.927651
 21
-6.9915513208
  0
LINE
  5
3DA
100
AcDbEntity
  8
ASSI
100
AcDbLine
 62
7
  6
CONTINUOUS
 10
-1.511406
 20
7.0248064761
 11
-1.511406
 21
6.9948055493
  0
LINE
  5
3DB
100
AcDbEntity
  8
ASSI
100
AcDbLine
 62
7
  6
CONTINUOUS
 10
-1.133974
 20
-7.0270760675
 11
-1.133974
 21
-6.9970754697
  0
LINE
  5
3DC
100
AcDbEntity
  8
ASSI
100
AcDbLine
 62
7
  6
CONTINUOUS
 10
-1.0526711428
 20
-4.8543443948
 11
-1.0526711428
 21
-4.7267021248
  0
LINE
  5
3DD
100
AcDbEntity
  8
ASSI
100
AcDbLine
 62
7
  6
CONTINUOUS
 10
-0.944722
 20
7.0279703617
 11
-0.944722
 21
6.9979699014
  0
LINE
  5
3DE
100
AcDbEntity
  8
ASSI
100
AcDbLine
 62
7
  6
CONTINUOUS
 10
-0.340298
 20
-7.0297363341
 11
-0.340298
 21
-6.9997362062
  0
LINE
  5
3DF
100
AcDbEntity
  8
ASSI
100
AcDbLine
 62
7
  6
CONTINUOUS
 10
0.2350543305
 20
-3.9245745027
 11
0.2350543305
 21
-3.8692552829
  0
LINE
  5
3E0
100
AcDbEntity
  8
ASSI
100
AcDbLine
 62
7
  6
CONTINUOUS
 10
0.340298
 20
7.0297373243
 11
0.340298
 21
6.9997374168
  0
LINE
  5
3E1
100
AcDbEntity
  8
ASSI
100
AcDbLine
 62
7
  6
CONTINUOUS
 10
-3.7139710027
 20
-3.9522340739
 11
-3.7568952752
 21
-4.1181915009
  0
LINE
  5
3E2
100
AcDbEntity
  8
ASSI
100
AcDbLine
 62
7
  6
CONTINUOUS
 10
-2.6837905504
 20
-4.4777659649
 11
-2.6408662779
 21
-4.3118084991
  0
LINE
  5
3E3
100
AcDbEntity
  8
ASSI
100
AcDbLine
 62
7
  6
CONTINUOUS
 10
-3.9715162079
 20
-4.0905319297
 11
-3.9285919968
 21
-3.9522340739
  0
LINE
  5
3E4
100
AcDbEntity
  8
ASSI
100
AcDbLine
 62
7
  6
CONTINUOUS
 10
-2.4262454066
 20
-4.3394680703
 11
-2.4691694335
 21
-4.4777659649
  0
LINE
  5
3E5
100
AcDbEntity
  8
ASSI
100
AcDbLine
 62
7
  6
CONTINUOUS
 10
-1.0097471159
 20
-3.8692552829
 11
-0.9668228434
 21
-3.7586169982
  0
LINE
  5
3E6
100
AcDbEntity
  8
ASSI
100
AcDbLine
 62
7
  6
CONTINUOUS
 10
-3.9285919968
 20
-3.9522340739
 11
-3.8856677857
 21
-3.8692552829
  0
LINE
  5
3E7
100
AcDbEntity
  8
ASSI
100
AcDbLine
 62
7
  6
CONTINUOUS
 10
-2.4691694335
 20
-4.4777659649
 11
-2.512093706
 21
-4.5607446784
  0
LINE
  5
3E8
100
AcDbEntity
  8
ASSI
100
AcDbLine
 62
7
  6
CONTINUOUS
 10
-3.8856677857
 20
-3.8692552829
 11
-3.7998194249
 21
-3.7586169982
  0
LINE
  5
3E9
100
AcDbEntity
  8
ASSI
100
AcDbLine
 62
7
  6
CONTINUOUS
 10
-3.5422742811
 20
-3.7862765694
 11
-3.7139710027
 21
-3.9522340739
  0
LINE
  5
3EA
100
AcDbEntity
  8
ASSI
100
AcDbLine
 62
7
  6
CONTINUOUS
 10
-4.83
 20
-3.7586169982
 11
-4.5724548562
 21
-3.565
  0
LINE
  5
3EB
100
AcDbEntity
  8
ASSI
100
AcDbLine
 62
7
  6
CONTINUOUS
 10
-4.5724548562
 20
-3.7862765694
 11
-4.83
 21
-3.979893645
  0
LWPOLYLINE
  5
3EC
100
AcDbEntity
  8
ASSI
100
AcDbPolyline
 62
250
  6
CONTINUOUS
 90
3
 70
0
 10
11.0407135342
 20
7.8844438423
 10
10.98443479
 20
7.8488729935
 10
10.9409067887
 20
7.8259367491
  0
LINE
  5
3ED
100
AcDbEntity
  8
ASSI
100
AcDbLine
 62
7
  6
CONTINUOUS
 10
14.5880974296
 20
-1.07
 11
14.5354846186
 21
-1.07
  0
LINE
  5
3EE
100
AcDbEntity
  8
ASSI
100
AcDbLine
 62
7
  6
CONTINUOUS
 10
-14.5354846186
 20
-1.07
 11
-14.5880971408
 21
-1.07
  0
LINE
  5
3EF
100
AcDbEntity
  8
ASSI
100
AcDbLine
 62
7
  6
CONTINUOUS
 10
16.3503913079
 20
-0.0
 11
14.6
 21
0.0
  0
LINE
  5
3F0
100
AcDbEntity
  8
ASSI
100
AcDbLine
 62
7
  6
CONTINUOUS
 10
-14.5473199718
 20
0.0
 11
-16.3496086929
 21
0.0
  0
LINE
  5
3F1
100
AcDbEntity
  8
ASSI
100
AcDbLine
 62
7
  6
CONTINUOUS
 10
5.1284125534
 20
-4.3118084991
 11
4.7850183734
 21
-4.2011702144
  0
LINE
  5
3F2
100
AcDbEntity
  8
ASSI
100
AcDbLine
 62
7
  6
CONTINUOUS
 10
4.7850183734
 20
-4.1458510721
 11
5.1284125534
 21
-4.2564893568
  0
LINE
  5
3F3
100
AcDbEntity
  8
ASSI
100
AcDbLine
 62
7
  6
CONTINUOUS
 10
3.7548377983
 20
-3.5926595712
 11
3.9694594065
 21
-3.6756382847
  0
LINE
  5
3F4
100
AcDbEntity
  8
ASSI
100
AcDbLine
 62
7
  6
CONTINUOUS
 10
3.8406868346
 20
-3.7862765694
 11
3.7119142627
 21
-3.730957427
  0
LWPOLYLINE
  5
3F5
100
AcDbEntity
  8
ASSI
100
AcDbPolyline
 62
250
  6
CONTINUOUS
 90
5
 70
0
 10
11.0407135342
 20
-7.8844438423
 10
10.98443479
 20
-7.8488729935
 10
10.9261383217
 20
-7.818154789
 10
10.8661322038
 20
-7.7924168124
 10
10.8587351649
 20
-7.7899319264
  0
LINE
  5
3F6
100
AcDbEntity
  8
ASSI
100
AcDbLine
 62
7
  6
CONTINUOUS
 10
0.2779788486
 20
-3.6479787135
 11
0.4496754474
 21
-3.7586169982
  0
LINE
  5
3F7
100
AcDbEntity
  8
ASSI
100
AcDbLine
 62
7
  6
CONTINUOUS
 10
3.0251268851
 20
-4.7543617056
 11
2.8963543132
 21
-4.6713829824
  0
LINE
  5
3F8
100
AcDbEntity
  8
ASSI
100
AcDbLine
 62
7
  6
CONTINUOUS
 10
3.9694594065
 20
-3.6756382847
 11
4.0982319783
 21
-3.7586169982
  0
LINE
  5
3F9
100
AcDbEntity
  8
ASSI
100
AcDbLine
 62
7
  6
CONTINUOUS
 10
1.0506142799
 20
-4.7543617056
 11
0.921841708
 21
-4.6437234113
  0
LINE
  5
3FA
100
AcDbEntity
  8
ASSI
100
AcDbLine
 62
7
  6
CONTINUOUS
 10
2.1666429088
 20
-4.1458510721
 11
2.2954154807
 21
-4.2564893568
  0
LINE
  5
3FB
100
AcDbEntity
  8
ASSI
100
AcDbLine
 62
7
  6
CONTINUOUS
 10
0.2350543305
 20
-3.8692552829
 11
0.1492062767
 21
-3.7862765694
  0
LINE
  5
3FC
100
AcDbEntity
  8
ASSI
100
AcDbLine
 62
7
  6
CONTINUOUS
 10
2.1237188819
 20
-4.3394680703
 11
2.0378703369
 21
-4.2564893568
  0
LINE
  5
3FD
100
AcDbEntity
  8
ASSI
100
AcDbLine
 62
7
  6
CONTINUOUS
 10
2.9822028582
 20
-4.4777659649
 11
3.153899457
 21
-4.6437234113
  0
LINE
  5
3FE
100
AcDbEntity
  8
ASSI
100
AcDbLine
 62
7
  6
CONTINUOUS
 10
4.0123829421
 20
-3.9522340739
 11
3.8406868346
 21
-3.7862765694
  0
LINE
  5
3FF
100
AcDbEntity
  8
ASSI
100
AcDbLine
 62
7
  6
CONTINUOUS
 10
0.921841708
 20
-4.6437234113
 11
0.835993163
 21
-4.5330851072
  0
LINE
  5
400
100
AcDbEntity
  8
ASSI
100
AcDbLine
 62
7
  6
CONTINUOUS
 10
1.0935383068
 20
-4.5330851072
 11
1.1793868518
 21
-4.6437234113
  0
LINE
  5
401
100
AcDbEntity
  8
ASSI
100
AcDbLine
 62
7
  6
CONTINUOUS
 10
2.8963543132
 20
-4.6713829824
 11
2.8105057682
 21
-4.5607446784
  0
LINE
  5
402
100
AcDbEntity
  8
ASSI
100
AcDbLine
 62
7
  6
CONTINUOUS
 10
2.2954154807
 20
-4.2564893568
 11
2.3812640257
 21
-4.3947872514
  0
LINE
  5
403
100
AcDbEntity
  8
ASSI
100
AcDbLine
 62
7
  6
CONTINUOUS
 10
2.1666429088
 20
-4.4224468225
 11
2.1237188819
 21
-4.3394680703
  0
LINE
  5
404
100
AcDbEntity
  8
ASSI
100
AcDbLine
 62
7
  6
CONTINUOUS
 10
2.8105057682
 20
-4.5607446784
 11
2.7675817414
 21
-4.4777659649
  0
LINE
  5
405
100
AcDbEntity
  8
ASSI
100
AcDbLine
 62
7
  6
CONTINUOUS
 10
0.4496754474
 20
-3.7586169982
 11
0.4925994743
 21
-3.8692552829
  0
LINE
  5
406
100
AcDbEntity
  8
ASSI
100
AcDbLine
 62
7
  6
CONTINUOUS
 10
0.4925994743
 20
-3.8692552829
 11
0.4925994743
 21
-3.9245745027
  0
LINE
  5
407
100
AcDbEntity
  8
ASSI
100
AcDbLine
 62
7
  6
CONTINUOUS
 10
0.4925994743
 20
-4.7267021248
 11
0.4925994743
 21
-4.8543443948
  0
LINE
  5
408
100
AcDbEntity
  8
ASSI
100
AcDbLine
 62
7
  6
CONTINUOUS
 10
0.835993163
 20
-4.2841489279
 11
0.835993163
 21
-3.565
  0
LINE
  5
409
100
AcDbEntity
  8
ASSI
100
AcDbLine
 62
7
  6
CONTINUOUS
 10
0.944722
 20
-7.0279731186
 11
0.944722
 21
-6.9979732622
  0
LINE
  5
40A
100
AcDbEntity
  8
ASSI
100
AcDbLine
 62
7
  6
CONTINUOUS
 10
1.0506142799
 20
-3.7032978559
 11
1.0506142799
 21
-4.1458510721
  0
LINE
  5
40B
100
AcDbEntity
  8
ASSI
100
AcDbLine
 62
7
  6
CONTINUOUS
 10
1.133974
 20
7.0270793814
 11
1.133974
 21
6.9970795037
  0
LINE
  5
40C
100
AcDbEntity
  8
ASSI
100
AcDbLine
 62
7
  6
CONTINUOUS
 10
1.511406
 20
-7.0248109093
 11
1.511406
 21
-6.994810926
  0
LINE
  5
40D
100
AcDbEntity
  8
ASSI
100
AcDbLine
 62
7
  6
CONTINUOUS
 10
1.927651
 20
7.0215583865
 11
1.927651
 21
6.9915581784
  0
LINE
  5
40E
100
AcDbEntity
  8
ASSI
100
AcDbLine
 62
7
  6
CONTINUOUS
 10
2.1666429088
 20
-4.4777659649
 11
2.1666429088
 21
-4.4224468225
  0
LINE
  5
40F
100
AcDbEntity
  8
ASSI
100
AcDbLine
 62
7
  6
CONTINUOUS
 10
2.2954154807
 20
-3.565
 11
2.2954154807
 21
-3.7032978559
  0
LINE
  5
410
100
AcDbEntity
  8
ASSI
100
AcDbLine
 62
7
  6
CONTINUOUS
 10
2.3812640257
 20
-4.3947872514
 11
2.3812640257
 21
-4.505425536
  0
LINE
  5
411
100
AcDbEntity
  8
ASSI
100
AcDbLine
 62
7
  6
CONTINUOUS
 10
2.7246577145
 20
-4.3394680703
 11
2.7246577145
 21
-4.0905319297
  0
LINE
  5
412
100
AcDbEntity
  8
ASSI
100
AcDbLine
 62
7
  6
CONTINUOUS
 10
2.75
 20
3.275
 11
2.75
 21
3.25
  0
LINE
  5
413
100
AcDbEntity
  8
ASSI
100
AcDbLine
 62
7
  6
CONTINUOUS
 10
2.75
 20
-3.25
 11
2.75
 21
-3.275
  0
LINE
  5
414
100
AcDbEntity
  8
ASSI
100
AcDbLine
 62
7
  6
CONTINUOUS
 10
2.875986
 20
-7.011207122
 11
2.875986
 21
-6.9812059121
  0
LINE
  5
415
100
AcDbEntity
  8
ASSI
100
AcDbLine
 62
7
  6
CONTINUOUS
 10
2.9392783401
 20
-4.1181915009
 11
2.9392783401
 21
-4.3118084991
  0
LINE
  5
416
100
AcDbEntity
  8
ASSI
100
AcDbLine
 62
7
  6
CONTINUOUS
 10
3.212671
 20
7.00654881
 11
3.212671
 21
6.9765470647
  0
LINE
  5
417
100
AcDbEntity
  8
ASSI
100
AcDbLine
 62
7
  6
CONTINUOUS
 10
3.72606
 20
-6.9984536566
 11
3.72606
 21
-6.9684509015
  0
LINE
  5
418
100
AcDbEntity
  8
ASSI
100
AcDbLine
 62
7
  6
CONTINUOUS
 10
2.7246577145
 20
-4.0905319297
 11
2.7675817414
 21
-3.9522340739
  0
LINE
  5
419
100
AcDbEntity
  8
ASSI
100
AcDbLine
 62
7
  6
CONTINUOUS
 10
0.4925994743
 20
-3.9245745027
 11
0.4496754474
 21
-4.0352127874
  0
LINE
  5
41A
100
AcDbEntity
  8
ASSI
100
AcDbLine
 62
7
  6
CONTINUOUS
 10
-2.512093706
 20
-4.5607446784
 11
-2.5979420054
 21
-4.6713829824
  0
LINE
  5
41B
100
AcDbEntity
  8
ASSI
100
AcDbLine
 62
7
  6
CONTINUOUS
 10
0.1492062767
 20
-4.0352127874
 11
0.2350543305
 21
-3.9245745027
  0
LINE
  5
41C
100
AcDbEntity
  8
ASSI
100
AcDbLine
 62
7
  6
CONTINUOUS
 10
-2.0828517179
 20
-4.5330851072
 11
-1.5248374034
 21
-3.8415957117
  0
LINE
  5
41D
100
AcDbEntity
  8
ASSI
100
AcDbLine
 62
7
  6
CONTINUOUS
 10
-1.3960648315
 20
-3.8969149315
 11
-1.954079146
 21
-4.5884042495
  0
LINE
  5
41E
100
AcDbEntity
  8
ASSI
100
AcDbLine
 62
7
  6
CONTINUOUS
 10
-2.855487272
 20
-4.6437234113
 11
-2.6837905504
 21
-4.4777659649
  0
LINE
  5
41F
100
AcDbEntity
  8
ASSI
100
AcDbLine
 62
7
  6
CONTINUOUS
 10
-0.7092776996
 20
-3.7862765694
 11
-0.795125999
 21
-3.8692552829
  0
LINE
  5
420
100
AcDbEntity
  8
ASSI
100
AcDbLine
 62
7
  6
CONTINUOUS
 10
0.4496754474
 20
-4.0352127874
 11
0.3638269024
 21
-4.1181915009
  0
LINE
  5
421
100
AcDbEntity
  8
ASSI
100
AcDbLine
 62
7
  6
CONTINUOUS
 10
-3.7998194249
 20
-3.7586169982
 11
-3.671046853
 21
-3.6756382847
  0
LINE
  5
422
100
AcDbEntity
  8
ASSI
100
AcDbLine
 62
7
  6
CONTINUOUS
 10
-2.5979420054
 20
-4.6713829824
 11
-2.7267145773
 21
-4.7543617056
  0
LINE
  5
423
100
AcDbEntity
  8
ASSI
100
AcDbLine
 62
7
  6
CONTINUOUS
 10
-0.9668228434
 20
-3.7586169982
 11
-0.795125999
 21
-3.6479787135
  0
LWPOLYLINE
  5
424
100
AcDbEntity
  8
ASSI
100
AcDbPolyline
 62
250
  6
CONTINUOUS
 90
5
 70
0
 10
-11.0398929909
 20
-7.8844713356
 10
-10.9835728494
 20
-7.8489034589
 10
-10.9252307951
 20
-7.8181857613
 10
-10.8651711674
 20
-7.7924505488
 10
-10.8577635419
 20
-7.7899658133
  0
LINE
  5
425
100
AcDbEntity
  8
ASSI
100
AcDbLine
 62
7
  6
CONTINUOUS
 10
-1.0526711428
 20
-4.7267021248
 11
0.1492062767
 21
-4.0352127874
  0
LINE
  5
426
100
AcDbEntity
  8
ASSI
100
AcDbLine
 62
7
  6
CONTINUOUS
 10
0.3638269024
 20
-4.1181915009
 11
-0.7092776996
 21
-4.7267021248
  0
LINE
  5
427
100
AcDbEntity
  8
ASSI
100
AcDbLine
 62
7
  6
CONTINUOUS
 10
-3.4135017092
 20
-3.730957427
 11
-3.5422742811
 21
-3.7862765694
  0
LINE
  5
428
100
AcDbEntity
  8
ASSI
100
AcDbLine
 62
7
  6
CONTINUOUS
 10
-2.9842598439
 20
-4.6990425536
 11
-2.855487272
 21
-4.6437234113
  0
LINE
  5
429
100
AcDbEntity
  8
ASSI
100
AcDbLine
 62
7
  6
CONTINUOUS
 10
-0.5805051277
 20
-3.730957427
 11
-0.7092776996
 21
-3.7862765694
  0
LINE
  5
42A
100
AcDbEntity
  8
ASSI
100
AcDbLine
 62
7
  6
CONTINUOUS
 10
-3.671046853
 20
-3.6756382847
 11
-3.4564258589
 21
-3.5926595712
  0
LINE
  5
42B
100
AcDbEntity
  8
ASSI
100
AcDbLine
 62
7
  6
CONTINUOUS
 10
-2.7267145773
 20
-4.7543617056
 11
-2.9413355714
 21
-4.8373404264
  0
LINE
  5
42C
100
AcDbEntity
  8
ASSI
100
AcDbLine
 62
7
  6
CONTINUOUS
 10
-0.795125999
 20
-3.6479787135
 11
-0.6234291546
 21
-3.5926595712
  0
LINE
  5
42D
100
AcDbEntity
  8
ASSI
100
AcDbLine
 62
250
  6
CONTINUOUS
 10
16.0084255749
 20
5.8126007084
 11
16.0100112134
 21
5.812792871
  0
LINE
  5
42E
100
AcDbEntity
  8
ASSI
100
AcDbLine
 62
250
  6
CONTINUOUS
 10
15.5808782027
 20
5.1627806486
 11
15.733791215
 21
5.178650467
  0
LINE
  5
42F
100
AcDbEntity
  8
ASSI
100
AcDbLine
 62
250
  6
CONTINUOUS
 10
15.733791215
 20
5.178650467
 11
15.873547361
 21
5.1926548985
  0
LINE
  5
430
100
AcDbEntity
  8
ASSI
100
AcDbLine
 62
250
  6
CONTINUOUS
 10
15.873547361
 20
5.1926548985
 11
15.9847915559
 21
5.2032350545
  0
LWPOLYLINE
  5
431
100
AcDbEntity
  8
ASSI
100
AcDbPolyline
 62
250
  6
CONTINUOUS
 90
6
 70
0
 10
15.9847915559
 20
5.2032350545
 10
16.0364834213
 20
5.2078375831
 10
16.0547702182
 20
5.2093317469
 10
16.0678256249
 20
5.2102744331
 10
16.0756142139
 20
5.2106660517
 10
16.0781467674
 20
5.2105121473
  0
LINE
  5
432
100
AcDbEntity
  8
ASSI
100
AcDbLine
 62
7
  6
CONTINUOUS
 10
14.5880974296
 20
1.07
 11
14.5354846232
 21
1.07
  0
LINE
  5
433
100
AcDbEntity
  8
ASSI
100
AcDbLine
 62
7
  6
CONTINUOUS
 10
-14.5354846232
 20
1.07
 11
-14.5880971408
 21
1.07
  0
LINE
  5
434
100
AcDbEntity
  8
RACCORDO
100
AcDbLine
 62
250
  6
CONTINUOUS
 10
9.5
 20
3.1
 11
-9.5
 21
3.1
  0
LINE
  5
435
100
AcDbEntity
  8
RACCORDO
100
AcDbLine
 62
7
  6
CONTINUOUS
 10
9.5
 20
3.25
 11
-9.5
 21
3.25
  0
LINE
  5
436
100
AcDbEntity
  8
ASSI
100
AcDbLine
 62
7
  6
CONTINUOUS
 10
-9.5
 20
3.275
 11
9.5
 21
3.275
  0
LINE
  5
437
100
AcDbEntity
  8
ASSI
100
AcDbLine
 62
7
  6
CONTINUOUS
 10
-9.5
 20
3.2867812715
 11
9.5
 21
3.2867812715
  0
LINE
  5
438
100
AcDbEntity
  8
ASSI
100
AcDbLine
 62
250
  6
CONTINUOUS
 10
-15.9840089425
 20
5.2032350548
 11
-16.0357008075
 21
5.2078375833
  0
LINE
  5
439
100
AcDbEntity
  8
ASSI
100
AcDbLine
 62
250
  6
CONTINUOUS
 10
-15.8727647476
 20
5.1926548987
 11
-15.9840089425
 21
5.2032350548
  0
LINE
  5
43A
100
AcDbEntity
  8
ASSI
100
AcDbLine
 62
250
  6
CONTINUOUS
 10
-15.6827453723
 20
5.1734897159
 11
-15.8727647476
 21
5.1926548987
  0
LINE
  5
43B
100
AcDbEntity
  8
ASSI
100
AcDbLine
 62
250
  6
CONTINUOUS
 10
-15.5800955876
 20
5.1627806486
 11
-15.6827453723
 21
5.1734897159
  0
LINE
  5
43C
100
AcDbEntity
  8
ASSI
100
AcDbLine
 62
250
  6
CONTINUOUS
 10
-16.0076429218
 20
5.8126006875
 11
-16.0092285984
 21
5.8127928708
  0
LWPOLYLINE
  5
43D
100
AcDbEntity
  8
ASSI
100
AcDbPolyline
 62
250
  6
CONTINUOUS
 90
5
 70
0
 10
-11.0398929909
 20
7.8844713356
 10
-10.9835728494
 20
7.8489034589
 10
-10.9252307951
 20
7.8181857613
 10
-10.8651711674
 20
7.7924505488
 10
-10.8577635419
 20
7.7899658133
  0
LINE
  5
43E
100
AcDbEntity
  8
ASSI
100
AcDbLine
 62
7
  6
CONTINUOUS
 10
4.0982319783
 20
-3.7586169982
 11
4.1840800321
 21
-3.8692552829
  0
LINE
  5
43F
100
AcDbEntity
  8
ASSI
100
AcDbLine
 62
7
  6
CONTINUOUS
 10
4.6562458016
 20
-4.2564893568
 11
4.6133222659
 21
-4.2011702144
  0
LINE
  5
440
100
AcDbEntity
  8
ASSI
100
AcDbLine
 62
7
  6
CONTINUOUS
 10
5.300108661
 20
-4.2011702144
 11
5.3430331791
 21
-4.2564893568
  0
LINE
  5
441
100
AcDbEntity
  8
ASSI
100
AcDbLine
 62
7
  6
CONTINUOUS
 10
4.1840800321
 20
-3.8692552829
 11
4.2270045502
 21
-3.9522340739
  0
LINE
  5
442
100
AcDbEntity
  8
ASSI
100
AcDbLine
 62
7
  6
CONTINUOUS
 10
2.7675817414
 20
-4.4777659649
 11
2.7246577145
 21
-4.3394680703
  0
LINE
  5
443
100
AcDbEntity
  8
ASSI
100
AcDbLine
 62
7
  6
CONTINUOUS
 10
4.2270045502
 20
-3.9522340739
 11
4.2699280859
 21
-4.0905319297
  0
LINE
  5
444
100
AcDbEntity
  8
ASSI
100
AcDbLine
 62
7
  6
CONTINUOUS
 10
2.9392783401
 20
-4.3118084991
 11
2.9822028582
 21
-4.4777659649
  0
LINE
  5
445
100
AcDbEntity
  8
ASSI
100
AcDbLine
 62
7
  6
CONTINUOUS
 10
4.0553074602
 20
-4.1181915009
 11
4.0123829421
 21
-3.9522340739
  0
LINE
  5
446
100
AcDbEntity
  8
ASSI
100
AcDbLine
 62
7
  6
CONTINUOUS
 10
4.0553074602
 20
-4.3118084991
 11
4.0553074602
 21
-4.1181915009
  0
LINE
  5
447
100
AcDbEntity
  8
ASSI
100
AcDbLine
 62
7
  6
CONTINUOUS
 10
4.062671
 20
6.9924955377
 11
4.062671
 21
6.962491991
  0
LINE
  5
448
100
AcDbEntity
  8
ASSI
100
AcDbLine
 62
7
  6
CONTINUOUS
 10
4.1433050121
 20
8.3138641157
 11
4.1433050121
 21
8.3669097174
  0
LINE
  5
449
100
AcDbEntity
  8
ASSI
100
AcDbLine
 62
7
  6
CONTINUOUS
 10
4.2699280859
 20
-4.0905319297
 11
4.2699280859
 21
-4.3394680703
  0
LINE
  5
44A
100
AcDbEntity
  8
ASSI
100
AcDbLine
 62
7
  6
CONTINUOUS
 10
4.912703
 20
6.975156426
 11
4.912703
 21
6.9451504193
  0
LINE
  5
44B
100
AcDbEntity
  8
ASSI
100
AcDbLine
 62
7
  6
CONTINUOUS
 10
5.090661
 20
-6.9711104336
 11
5.090661
 21
-6.9411038292
  0
LINE
  5
44C
100
AcDbEntity
  8
ASSI
100
AcDbLine
 62
7
  6
CONTINUOUS
 10
5.479387
 20
6.9617715276
 11
5.479387
 21
6.9317635209
  0
LINE
  5
44D
100
AcDbEntity
  8
ASSI
100
AcDbLine
 62
7
  6
CONTINUOUS
 10
5.657345
 20
-6.9572668346
 11
5.657345
 21
-6.9272581426
  0
LINE
  5
44E
100
AcDbEntity
  8
ASSI
100
AcDbLine
 62
7
  6
CONTINUOUS
 10
6.329429
 20
6.9389546706
 11
6.329429
 21
6.9089431589
  0
LINE
  5
44F
100
AcDbEntity
  8
ASSI
100
AcDbLine
 62
7
  6
CONTINUOUS
 10
6.75
 20
3.275
 11
6.75
 21
3.25
  0
LINE
  5
450
100
AcDbEntity
  8
ASSI
100
AcDbLine
 62
7
  6
CONTINUOUS
 10
6.75
 20
-3.25
 11
6.75
 21
-3.275
  0
LINE
  5
451
100
AcDbEntity
  8
ASSI
100
AcDbLine
 62
7
  6
CONTINUOUS
 10
6.9368651763
 20
8.1577158681
 11
6.9368651763
 21
8.1895702664
  0
LINE
  5
452
100
AcDbEntity
  8
ASSI
100
AcDbLine
 62
7
  6
CONTINUOUS
 10
7.269009
 20
6.9099086613
 11
7.269009
 21
6.8798926609
  0
LINE
  5
453
100
AcDbEntity
  8
ASSI
100
AcDbLine
 62
7
  6
CONTINUOUS
 10
2.9822028582
 20
-3.9522340739
 11
2.9392783401
 21
-4.1181915009
  0
LINE
  5
454
100
AcDbEntity
  8
ASSI
100
AcDbLine
 62
7
  6
CONTINUOUS
 10
4.0123829421
 20
-4.4777659649
 11
4.0553074602
 21
-4.3118084991
  0
LINE
  5
455
100
AcDbEntity
  8
ASSI
100
AcDbLine
 62
7
  6
CONTINUOUS
 10
4.2699280859
 20
-4.3394680703
 11
4.2270045502
 21
-4.4777659649
  0
LINE
  5
456
100
AcDbEntity
  8
ASSI
100
AcDbLine
 62
7
  6
CONTINUOUS
 10
2.1237188819
 20
-4.5607446784
 11
2.1666429088
 21
-4.4777659649
  0
LINE
  5
457
100
AcDbEntity
  8
ASSI
100
AcDbLine
 62
7
  6
CONTINUOUS
 10
2.7675817414
 20
-3.9522340739
 11
2.8105057682
 21
-3.8692552829
  0
LINE
  5
458
100
AcDbEntity
  8
ASSI
100
AcDbLine
 62
7
  6
CONTINUOUS
 10
4.2270045502
 20
-4.4777659649
 11
4.1840800321
 21
-4.5607446784
  0
LINE
  5
459
100
AcDbEntity
  8
ASSI
100
AcDbLine
 62
7
  6
CONTINUOUS
 10
2.3812640257
 20
-4.505425536
 11
2.2954154807
 21
-4.6437234113
  0
LINE
  5
45A
100
AcDbEntity
  8
ASSI
100
AcDbLine
 62
7
  6
CONTINUOUS
 10
2.8105057682
 20
-3.8692552829
 11
2.8963543132
 21
-3.7586169982
  0
LINE
  5
45B
100
AcDbEntity
  8
ASSI
100
AcDbLine
 62
7
  6
CONTINUOUS
 10
4.1840800321
 20
-4.5607446784
 11
4.0982319783
 21
-4.6713829824
  0
LINE
  5
45C
100
AcDbEntity
  8
ASSI
100
AcDbLine
 62
7
  6
CONTINUOUS
 10
2.0378703369
 20
-4.6437234113
 11
2.1237188819
 21
-4.5607446784
  0
LINE
  5
45D
100
AcDbEntity
  8
ASSI
100
AcDbLine
 62
7
  6
CONTINUOUS
 10
3.153899457
 20
-3.7862765694
 11
2.9822028582
 21
-3.9522340739
  0
LINE
  5
45E
100
AcDbEntity
  8
ASSI
100
AcDbLine
 62
7
  6
CONTINUOUS
 10
3.8406868346
 20
-4.6437234113
 11
4.0123829421
 21
-4.4777659649
  0
LINE
  5
45F
100
AcDbEntity
  8
ASSI
100
AcDbLine
 62
7
  6
CONTINUOUS
 10
2.2954154807
 20
-4.6437234113
 11
2.1666429088
 21
-4.7543617056
  0
LINE
  5
460
100
AcDbEntity
  8
ASSI
100
AcDbLine
 62
7
  6
CONTINUOUS
 10
2.8963543132
 20
-3.7586169982
 11
3.0251268851
 21
-3.6756382847
  0
LINE
  5
461
100
AcDbEntity
  8
ASSI
100
AcDbLine
 62
7
  6
CONTINUOUS
 10
4.0982319783
 20
-4.6713829824
 11
3.9694594065
 21
-4.7543617056
  0
LINE
  5
462
100
AcDbEntity
  8
ASSI
100
AcDbLine
 62
7
  6
CONTINUOUS
 10
1.3081594237
 20
-4.2011702144
 11
1.1364623337
 21
-4.2841489279
  0
LINE
  5
463
100
AcDbEntity
  8
ASSI
100
AcDbLine
 62
7
  6
CONTINUOUS
 10
3.2826720289
 20
-3.730957427
 11
3.153899457
 21
-3.7862765694
  0
LINE
  5
464
100
AcDbEntity
  8
ASSI
100
AcDbLine
 62
7
  6
CONTINUOUS
 10
1.909097765
 20
-4.6990425536
 11
2.0378703369
 21
-4.6437234113
  0
LINE
  5
465
100
AcDbEntity
  8
ASSI
100
AcDbLine
 62
7
  6
CONTINUOUS
 10
4.7850183734
 20
-4.2011702144
 11
4.6562458016
 21
-4.2564893568
  0
LINE
  5
466
100
AcDbEntity
  8
ASSI
100
AcDbLine
 62
7
  6
CONTINUOUS
 10
3.7119142627
 20
-4.6990425536
 11
3.8406868346
 21
-4.6437234113
  0
LINE
  5
467
100
AcDbEntity
  8
ASSI
100
AcDbLine
 62
7
  6
CONTINUOUS
 10
1.0506142799
 20
-4.1458510721
 11
1.2652349056
 21
-4.0628723586
  0
LINE
  5
468
100
AcDbEntity
  8
ASSI
100
AcDbLine
 62
7
  6
CONTINUOUS
 10
3.0251268851
 20
-3.6756382847
 11
3.239748002
 21
-3.5926595712
  0
LINE
  5
469
100
AcDbEntity
  8
ASSI
100
AcDbLine
 62
7
  6
CONTINUOUS
 10
2.1666429088
 20
-4.7543617056
 11
1.9520222831
 21
-4.8373404264
  0
LINE
  5
46A
100
AcDbEntity
  8
ASSI
100
AcDbLine
 62
7
  6
CONTINUOUS
 10
3.9694594065
 20
-4.7543617056
 11
3.7548377983
 21
-4.8373404264
  0
LINE
  5
46B
100
AcDbEntity
  8
ASSI
100
AcDbLine
 62
7
  6
CONTINUOUS
 10
4.6133222659
 20
-4.2011702144
 11
4.7850183734
 21
-4.1458510721
  0
LINE
  5
46C
100
AcDbEntity
  8
ASSI
100
AcDbLine
 62
7
  6
CONTINUOUS
 10
5.1284125534
 20
-4.2564893568
 11
5.300108661
 21
-4.2011702144
  0
LINE
  5
46D
100
AcDbEntity
  8
ASSI
100
AcDbLine
 62
250
  6
CONTINUOUS
 10
15.866931096
 20
5.7960481133
 11
16.0084255749
 21
5.8126007084
  0
LINE
  5
46E
100
AcDbEntity
  8
ASSI
100
AcDbLine
 62
7
  6
CONTINUOUS
 10
-8.9581061267
 20
6.8475514961
 11
-9.058641
 21
6.84343177
  0
LINE
  5
46F
100
AcDbEntity
  8
ASSI
100
AcDbLine
 62
7
  6
CONTINUOUS
 10
-7.8608514485
 20
6.8894832453
 11
-8.951248637
 21
6.8478357946
  0
LWPOLYLINE
  5
470
100
AcDbEntity
  8
ASSI
100
AcDbPolyline
 62
7
  6
CONTINUOUS
 90
7
 70
0
 10
-7.8608514485
 20
6.8894832453
 10
-7.3150766147
 20
6.9083593508
 10
-6.9844721764
 20
6.9191078791
 10
-6.6533967958
 20
6.9293710584
 10
-6.3218504729
 20
6.9391488887
 10
-5.9898332076
 20
6.9484413699
 10
-5.657345
 20
6.957248502
  0
LINE
  5
471
100
AcDbEntity
  8
ASSI
100
AcDbLine
 62
7
  6
CONTINUOUS
 10
-4.6358230653
 20
6.9811505739
 11
-5.090661
 21
6.9710942507
  0
LINE
  5
472
100
AcDbEntity
  8
ASSI
100
AcDbLine
 62
7
  6
CONTINUOUS
 10
-4.1809560019
 20
6.990266601
 11
-4.6358230653
 21
6.9811505739
  0
LINE
  5
473
100
AcDbEntity
  8
ASSI
100
AcDbLine
 62
7
  6
CONTINUOUS
 10
-4.1809560019
 20
6.990266601
 11
-3.5846949767
 21
7.0007917429
  0
LINE
  5
474
100
AcDbEntity
  8
ASSI
100
AcDbLine
 62
7
  6
CONTINUOUS
 10
-3.5846949767
 20
7.0007917429
 11
-3.1598463627
 21
7.0073039182
  0
LINE
  5
475
100
AcDbEntity
  8
ASSI
100
AcDbLine
 62
7
  6
CONTINUOUS
 10
-2.5727550967
 20
7.0149538686
 11
-3.1598463627
 21
7.0073039182
  0
LINE
  5
476
100
AcDbEntity
  8
ASSI
100
AcDbLine
 62
7
  6
CONTINUOUS
 10
-2.1178989056
 20
7.0198033121
 11
-2.5727550967
 21
7.0149538686
  0
LWPOLYLINE
  5
477
100
AcDbEntity
  8
ASSI
100
AcDbPolyline
 62
7
  6
CONTINUOUS
 90
3
 70
0
 10
-1.511406
 20
7.0248064761
 10
-1.6630311388
 20
7.0237124107
 10
-2.1178989056
 20
7.0198033121
  0
LINE
  5
478
100
AcDbEntity
  8
ASSI
100
AcDbLine
 62
7
  6
CONTINUOUS
 10
-0.944722
 20
7.0279703617
 11
-0.5134066613
 21
7.029397336
  0
LINE
  5
479
100
AcDbEntity
  8
ASSI
100
AcDbLine
 62
7
  6
CONTINUOUS
 10
-0.5134066613
 20
7.029397336
 11
-0.0850666613
 21
7.0299863235
  0
LINE
  5
47A
100
AcDbEntity
  8
ASSI
100
AcDbLine
 62
250
  6
CONTINUOUS
 10
14.3343510651
 20
4.5543443948
 11
-14.3343510651
 21
4.5543443948
  0
LINE
  5
47B
100
AcDbEntity
  8
0
100
AcDbLine
 62
7
  6
CONTINUOUS
 10
14.2899624531
 20
5.0
 11
-14.2899624531
 21
5.0
  0
LINE
  5
47C
100
AcDbEntity
  8
0
100
AcDbLine
 62
7
  6
CONTINUOUS
 10
14.2899624531
 20
5.0180849909
 11
-14.2899624531
 21
5.0180849909
  0
LINE
  5
47D
100
AcDbEntity
  8
ASSI
100
AcDbLine
 62
7
  6
CONTINUOUS
 10
-14.3350020699
 20
5.0473337491
 11
-14.2849534837
 21
5.0473337491
  0
LINE
  5
47E
100
AcDbEntity
  8
ASSI
100
AcDbLine
 62
7
  6
CONTINUOUS
 10
14.2849534837
 20
5.0473337491
 11
14.3350020699
 21
5.0473337491
  0
LINE
  5
47F
100
AcDbEntity
  8
0
100
AcDbLine
 62
7
  6
CONTINUOUS
 10
14.2899624531
 20
5.5733039888
 11
-14.2899624531
 21
5.5733039888
  0
LINE
  5
480
100
AcDbEntity
  8
ASSI
100
AcDbLine
 62
250
  6
CONTINUOUS
 10
14.2842653557
 20
5.7956367323
 11
-14.2842653557
 21
5.7956367323
  0
LINE
  5
481
100
AcDbEntity
  8
ASSI
100
AcDbLine
 62
7
  6
CONTINUOUS
 10
-0.0850666613
 20
7.0299863235
 11
0.340298
 21
7.0297373243
  0
LINE
  5
482
100
AcDbEntity
  8
ASSI
100
AcDbLine
 62
7
  6
CONTINUOUS
 10
1.133974
 20
7.0270793814
 11
0.340298
 21
7.0297373243
  0
LINE
  5
483
100
AcDbEntity
  8
ASSI
100
AcDbLine
 62
7
  6
CONTINUOUS
 10
1.927651
 20
7.0215583865
 11
1.133974
 21
7.0270793814
  0
LINE
  5
484
100
AcDbEntity
  8
ASSI
100
AcDbLine
 62
7
  6
CONTINUOUS
 10
1.927651
 20
7.0215583865
 11
2.3603902056
 21
7.0173377605
  0
LINE
  5
485
100
AcDbEntity
  8
ASSI
100
AcDbLine
 62
7
  6
CONTINUOUS
 10
2.3603902056
 20
7.0173377605
 11
2.7887302056
 21
7.0123345684
  0
LINE
  5
486
100
AcDbEntity
  8
ASSI
100
AcDbLine
 62
7
  6
CONTINUOUS
 10
2.7887302056
 20
7.0123345684
 11
3.212671
 21
7.00654881
  0
LINE
  5
487
100
AcDbEntity
  8
ASSI
100
AcDbLine
 62
7
  6
CONTINUOUS
 10
4.062671
 20
6.9924955377
 11
4.4897491374
 21
6.9841946251
  0
LINE
  5
488
100
AcDbEntity
  8
ASSI
100
AcDbLine
 62
7
  6
CONTINUOUS
 10
4.4897491374
 20
6.9841946251
 11
4.912703
 21
6.975156426
  0
LINE
  5
489
100
AcDbEntity
  8
ASSI
100
AcDbLine
 62
7
  6
CONTINUOUS
 10
5.479387
 20
6.9617715276
 11
5.906355174
 21
6.9507217482
  0
LINE
  5
48A
100
AcDbEntity
  8
ASSI
100
AcDbLine
 62
7
  6
CONTINUOUS
 10
5.906355174
 20
6.9507217482
 11
6.329429
 21
6.9389546706
  0
LINE
  5
48B
100
AcDbEntity
  8
ASSI
100
AcDbLine
 62
7
  6
CONTINUOUS
 10
7.0602307046
 20
6.9167100224
 11
6.329429
 21
6.9389546706
  0
LINE
  5
48C
100
AcDbEntity
  8
ASSI
100
AcDbLine
 62
7
  6
CONTINUOUS
 10
7.7910316208
 20
6.8920343617
 11
7.0602307046
 21
6.9167100224
  0
LINE
  5
48D
100
AcDbEntity
  8
ASSI
100
AcDbLine
 62
7
  6
CONTINUOUS
 10
7.7910316208
 20
6.8920343617
 11
8.3515574962
 21
6.8714584811
  0
LINE
  5
48E
100
AcDbEntity
  8
ASSI
100
AcDbLine
 62
7
  6
CONTINUOUS
 10
8.3515574962
 20
6.8714584811
 11
8.7773493938
 21
6.8548762056
  0
LINE
  5
48F
100
AcDbEntity
  8
ASSI
100
AcDbLine
 62
7
  6
CONTINUOUS
 10
8.7773493938
 20
6.8548762056
 11
9.058641
 21
6.8434650688
  0
LWPOLYLINE
  5
490
100
AcDbEntity
  8
ASSI
100
AcDbPolyline
 62
7
  6
CONTINUOUS
 90
19
 70
0
 10
11.5302686888
 20
6.6975933145
 10
10.3122198402
 20
6.7583555769
 10
9.056477395
 20
6.8133558311
 10
7.7613381742
 20
6.8631151005
 10
6.4329624546
 20
6.9061576037
 10
5.0661192043
 20
6.9419453633
 10
3.6447864028
 20
6.9700547854
 10
2.1583693932
 20
6.9895658661
 10
0.6174801511
 20
6.9991726799
 10
-0.9620885224
 20
6.9978511913
 10
-2.592918046
 20
6.9846376851
 10
-4.2623283693
 20
6.9586259389
 10
-5.9166226675
 20
6.9203696202
 10
-7.554516063
 20
6.8702323967
 10
-9.177089108
 20
6.8085084138
 10
-10.7337102904
 20
6.737959699
 10
-12.2117279997
 20
6.6549902901
 10
-13.6238792082
 20
6.5293092825
 10
-14.9664295112
 20
6.3622397747
  0
LWPOLYLINE
  5
491
100
AcDbEntity
  8
ASSI
100
AcDbPolyline
 62
250
  6
CONTINUOUS
 90
7
 70
0
 10
11.5034475732
 20
6.2057307978
 10
12.1050129478
 20
6.1661963969
 10
12.6922037274
 20
6.1201956411
 10
13.2650199121
 20
6.0677285304
 10
13.8234615019
 20
6.0087950647
 10
14.3675284968
 20
5.9433952441
 10
14.8972208968
 20
5.8715290686
  0
LWPOLYLINE
  5
492
100
AcDbEntity
  8
ASSI
100
AcDbPolyline
 62
250
  6
CONTINUOUS
 90
5
 70
0
 10
-16.0357008075
 20
5.2078375833
 10
-16.0539876042
 20
5.209331747
 10
-16.0670430105
 20
5.2102744332
 10
-16.0748315992
 20
5.2106660518
 10
-16.0773641524
 20
5.2105121473
  0
LINE
  5
493
100
AcDbEntity
  8
ASSI
100
AcDbLine
 62
250
  6
CONTINUOUS
 10
-15.8661453155
 20
5.796047682
 11
-16.0076429218
 21
5.8126006875
  0
LINE
  5
494
100
AcDbEntity
  8
ASSI
100
AcDbLine
 62
250
  6
CONTINUOUS
 10
8.7432885785
 20
-8.0170695356
 11
8.6997487267
 21
-7.5209390285
  0
LINE
  5
495
100
AcDbEntity
  8
ASSI
100
AcDbLine
 62
7
  6
CONTINUOUS
 10
7.6452101106
 20
-6.8971522451
 11
7.6452101106
 21
-6.8671343021
  0
LINE
  5
496
100
AcDbEntity
  8
ASSI
100
AcDbLine
 62
7
  6
CONTINUOUS
 10
8.208599
 20
6.8768433917
 11
8.208599
 21
6.8468224164
  0
LINE
  5
497
100
AcDbEntity
  8
ASSI
100
AcDbLine
 62
7
  6
CONTINUOUS
 10
8.4654302572
 20
8.0407903023
 11
8.4654302572
 21
8.0939812025
  0
LINE
  5
498
100
AcDbEntity
  8
ASSI
100
AcDbLine
 62
7
  6
CONTINUOUS
 10
8.951248637
 20
-6.8478636931
 11
8.951248637
 21
-6.8178385687
  0
LINE
  5
499
100
AcDbEntity
  8
ASSI
100
AcDbLine
 62
7
  6
CONTINUOUS
 10
9.058641
 20
6.8434650688
 11
9.058641
 21
6.8134393353
  0
LINE
  5
49A
100
AcDbEntity
  8
ASSI
100
AcDbLine
 62
7
  6
CONTINUOUS
 10
9.058641
 20
-6.8434650688
 11
9.058641
 21
-6.8134393353
  0
LINE
  5
49B
100
AcDbEntity
  8
RACCORDO
100
AcDbLine
 62
250
  6
CONTINUOUS
 10
9.5
 20
-3.1
 11
9.5000000105
 21
-3.25
  0
LINE
  5
49C
100
AcDbEntity
  8
RACCORDO
100
AcDbLine
 62
250
  6
CONTINUOUS
 10
9.5
 20
3.1
 11
9.5
 21
3.25
  0
LINE
  5
49D
100
AcDbEntity
  8
ASSI
100
AcDbLine
 62
250
  6
CONTINUOUS
 10
8.7432885785
 20
8.0170695356
 11
8.6997487267
 21
7.5209390285
  0
LINE
  5
49E
100
AcDbEntity
  8
ASSI
100
AcDbLine
 62
7
  6
CONTINUOUS
 10
8.9403907635
 20
7.9995743228
 11
8.9403837901
 21
7.9994966497
  0
LINE
  5
49F
100
AcDbEntity
  8
ASSI
100
AcDbLine
 62
250
  6
CONTINUOUS
 10
14.7116870688
 20
-6.503123595
 11
14.9656039138
 21
-6.4227299238
  0
LINE
  5
4A0
100
AcDbEntity
  8
ASSI
100
AcDbLine
 62
7
  6
CONTINUOUS
 10
-14.3413616273
 20
7.1408017226
 11
-14.4070418658
 21
7.1228210533
  0
LINE
  5
4A1
100
AcDbEntity
  8
ASSI
100
AcDbLine
 62
7
  6
CONTINUOUS
 10
-14.2799641021
 20
7.157307025
 11
-14.3413616273
 21
7.1408017226
  0
LINE
  5
4A2
100
AcDbEntity
  8
ASSI
100
AcDbLine
 62
250
  6
CONTINUOUS
 10
-12.2417149828
 20
7.6035019554
 11
-12.0956926667
 21
7.6427648622
  0
LINE
  5
4A3
100
AcDbEntity
  8
ASSI
100
AcDbLine
 62
250
  6
CONTINUOUS
 10
-13.3846907518
 20
7.3983759956
 11
-13.6632776061
 21
7.3246861535
  0
LINE
  5
4A4
100
AcDbEntity
  8
ASSI
100
AcDbLine
 62
7
  6
CONTINUOUS
 10
-14.2157689635
 20
7.1742577361
 11
-14.2799641021
 21
7.157307025
  0
LINE
  5
4A5
100
AcDbEntity
  8
ASSI
100
AcDbLine
 62
250
  6
CONTINUOUS
 10
-12.0956926667
 20
7.6427648622
 11
-12.0290307475
 21
7.6602834097
  0
LINE
  5
4A6
100
AcDbEntity
  8
ASSI
100
AcDbLine
 62
250
  6
CONTINUOUS
 10
-12.265138715
 20
7.5973544731
 11
-12.2417149828
 21
7.6035019554
  0
LINE
  5
4A7
100
AcDbEntity
  8
ASSI
100
AcDbLine
 62
7
  6
CONTINUOUS
 10
-14.1474089783
 20
7.191973698
 11
-14.2157689635
 21
7.1742577361
  0
LINE
  5
4A8
100
AcDbEntity
  8
ASSI
100
AcDbLine
 62
250
  6
CONTINUOUS
 10
-12.0290307475
 20
7.6602834097
 11
-11.9650455897
 21
7.6767838668
  0
LINE
  5
4A9
100
AcDbEntity
  8
ASSI
100
AcDbLine
 62
250
  6
CONTINUOUS
 10
-12.2957061988
 20
7.5895541558
 11
-12.265138715
 21
7.5973544731
  0
LINE
  5
4AA
100
AcDbEntity
  8
ASSI
100
AcDbLine
 62
7
  6
CONTINUOUS
 10
-14.0747613551
 20
7.2104367492
 11
-14.1474089783
 21
7.191973698
  0
LINE
  5
4AB
100
AcDbEntity
  8
ASSI
100
AcDbLine
 62
250
  6
CONTINUOUS
 10
-11.9650455897
 20
7.6767838668
 11
-11.8851194064
 21
7.6969510841
  0
LINE
  5
4AC
100
AcDbEntity
  8
ASSI
100
AcDbLine
 62
7
  6
CONTINUOUS
 10
-14.0046420285
 20
7.2279169161
 11
-14.0747613551
 21
7.2104367492
  0
LINE
  5
4AD
100
AcDbEntity
  8
ASSI
100
AcDbLine
 62
250
  6
CONTINUOUS
 10
-12.3144198566
 20
7.5849206664
 11
-12.2957061988
 21
7.5895541558
  0
LINE
  5
4AE
100
AcDbEntity
  8
ASSI
100
AcDbLine
 62
250
  6
CONTINUOUS
 10
-13.1036647756
 20
7.4670834618
 11
-13.3846907518
 21
7.3983759956
  0
LINE
  5
4AF
100
AcDbEntity
  8
ASSI
100
AcDbLine
 62
250
  6
CONTINUOUS
 10
-11.8851194064
 20
7.6969510841
 11
-11.7981382407
 21
7.7183135872
  0
LINE
  5
4B0
100
AcDbEntity
  8
ASSI
100
AcDbLine
 62
7
  6
CONTINUOUS
 10
-13.9310002749
 20
7.2459310313
 11
-14.0046420285
 21
7.2279169161
  0
LINE
  5
4B1
100
AcDbEntity
  8
ASSI
100
AcDbLine
 62
250
  6
CONTINUOUS
 10
-12.3316513603
 20
7.5807500865
 11
-12.3144198566
 21
7.5849206664
  0
LINE
  5
4B2
100
AcDbEntity
  8
ASSI
100
AcDbLine
 62
7
  6
CONTINUOUS
 10
-13.8545755964
 20
7.2642654347
 11
-13.9310002749
 21
7.2459310313
  0
LINE
  5
4B3
100
AcDbEntity
  8
ASSI
100
AcDbLine
 62
250
  6
CONTINUOUS
 10
-11.7981382407
 20
7.7183135872
 11
-11.719679633
 21
7.7370868577
  0
LINE
  5
4B4
100
AcDbEntity
  8
ASSI
100
AcDbLine
 62
250
  6
CONTINUOUS
 10
-12.3471771841
 20
7.5770709267
 11
-12.3316513603
 21
7.5807500865
  0
LINE
  5
4B5
100
AcDbEntity
  8
ASSI
100
AcDbLine
 62
7
  6
CONTINUOUS
 10
-13.776288761
 20
7.282679445
 11
-13.8545755964
 21
7.2642654347
  0
LINE
  5
4B6
100
AcDbEntity
  8
ASSI
100
AcDbLine
 62
250
  6
CONTINUOUS
 10
-11.719679633
 20
7.7370868577
 11
-11.6244574061
 21
7.7593274248
  0
LINE
  5
4B7
100
AcDbEntity
  8
ASSI
100
AcDbLine
 62
250
  6
CONTINUOUS
 10
-12.3644150222
 20
7.5730705067
 11
-12.3471771841
 21
7.5770709267
  0
LWPOLYLINE
  5
4B8
100
AcDbEntity
  8
ASSI
100
AcDbPolyline
 62
7
  6
CONTINUOUS
 90
3
 70
0
 10
-13.5536157792
 20
7.3305953184
 10
-13.4727661651
 20
7.3490994494
 10
-13.3249586793
 20
7.3820445429
  0
LINE
  5
4B9
100
AcDbEntity
  8
ASSI
100
AcDbLine
 62
7
  6
CONTINUOUS
 10
-13.6928544048
 20
7.3019119844
 11
-13.776288761
 21
7.282679445
  0
LINE
  5
4BA
100
AcDbEntity
  8
ASSI
100
AcDbLine
 62
250
  6
CONTINUOUS
 10
-12.8155843414
 20
7.5328836994
 11
-13.1036647756
 21
7.4670834618
  0
LINE
  5
4BB
100
AcDbEntity
  8
ASSI
100
AcDbLine
 62
250
  6
CONTINUOUS
 10
-11.6244574061
 20
7.7593274248
 11
-11.548582763
 21
7.7766683515
  0
LINE
  5
4BC
100
AcDbEntity
  8
ASSI
100
AcDbLine
 62
250
  6
CONTINUOUS
 10
-12.3804565708
 20
7.5694276923
 11
-12.3644150222
 21
7.5730705067
  0
LINE
  5
4BD
100
AcDbEntity
  8
ASSI
100
AcDbLine
 62
250
  6
CONTINUOUS
 10
-12.3866881074
 20
7.5680322747
 11
-12.3804565708
 21
7.5694276923
  0
LINE
  5
4BE
100
AcDbEntity
  8
ASSI
100
AcDbLine
 62
7
  6
CONTINUOUS
 10
-13.5876651038
 20
7.3256416329
 11
-13.6928544048
 21
7.3019119844
  0
LINE
  5
4BF
100
AcDbEntity
  8
ASSI
100
AcDbLine
 62
250
  6
CONTINUOUS
 10
-11.548582763
 20
7.7766683515
 11
-11.4658948366
 21
7.7951651392
  0
LINE
  5
4C0
100
AcDbEntity
  8
ASSI
100
AcDbLine
 62
7
  6
CONTINUOUS
 10
-13.4858263852
 20
7.3481411989
 11
-13.6031339376
 21
7.3221634348
  0
LINE
  5
4C1
100
AcDbEntity
  8
ASSI
100
AcDbLine
 62
7
  6
CONTINUOUS
 10
-13.5048180116
 20
7.343872462
 11
-13.5096698002
 21
7.3428124465
  0
LINE
  5
4C2
100
AcDbEntity
  8
ASSI
100
AcDbLine
 62
250
  6
CONTINUOUS
 10
-12.4208714581
 20
7.5605690547
 11
-12.3866881074
 21
7.5680322747
  0
LINE
  5
4C3
100
AcDbEntity
  8
ASSI
100
AcDbLine
 62
250
  6
CONTINUOUS
 10
-11.4658948366
 20
7.7951651392
 11
-11.3766758411
 21
7.8146655151
  0
LINE
  5
4C4
100
AcDbEntity
  8
ASSI
100
AcDbLine
 62
250
  6
CONTINUOUS
 10
-12.5120644031
 20
7.5983965949
 11
-12.8155843414
 21
7.5328836994
  0
LINE
  5
4C5
100
AcDbEntity
  8
ASSI
100
AcDbLine
 62
7
  6
CONTINUOUS
 10
-13.373585706
 20
7.3724111292
 11
-13.4858263852
 21
7.3481411989
  0
LWPOLYLINE
  5
4C6
100
AcDbEntity
  8
ASSI
100
AcDbPolyline
 62
7
  6
CONTINUOUS
 90
6
 70
0
 10
-13.3249586793
 20
7.3820445429
 10
-13.1743357584
 20
7.414475267
 10
-13.0246792685
 20
7.4455897939
 10
-12.8762589653
 20
7.4753468563
 10
-12.7263883556
 20
7.5042965
 10
-12.5742682738
 20
7.5326139492
  0
LINE
  5
4C7
100
AcDbEntity
  8
ASSI
100
AcDbLine
 62
250
  6
CONTINUOUS
 10
-12.5103711658
 20
7.601212418
 11
-12.4543224355
 21
7.6130742505
  0
LINE
  5
4C8
100
AcDbEntity
  8
ASSI
100
AcDbLine
 62
250
  6
CONTINUOUS
 10
-11.3766758411
 20
7.8146655151
 11
-11.2795695598
 21
7.8353432847
  0
LINE
  5
4C9
100
AcDbEntity
  8
ASSI
100
AcDbLine
 62
7
  6
CONTINUOUS
 10
-13.198693175
 20
7.4093053739
 11
-13.373585706
 21
7.3724111292
  0
LINE
  5
4CA
100
AcDbEntity
  8
ASSI
100
AcDbLine
 62
250
  6
CONTINUOUS
 10
-11.2795695598
 20
7.8353432847
 11
-11.168290821
 21
7.8584787785
  0
LINE
  5
4CB
100
AcDbEntity
  8
ASSI
100
AcDbLine
 62
250
  6
CONTINUOUS
 10
-11.168290821
 20
7.8584787785
 11
-11.0398667445
 21
7.8843961339
  0
LWPOLYLINE
  5
4CC
100
AcDbEntity
  8
ASSI
100
AcDbPolyline
 62
7
  6
CONTINUOUS
 90
3
 70
0
 10
-12.5750973612
 20
7.5332511014
 10
-12.2019736464
 20
7.5973482187
 10
-11.8208218196
 20
7.6569134746
  0
LINE
  5
4CD
100
AcDbEntity
  8
ASSI
100
AcDbLine
 62
250
  6
CONTINUOUS
 10
-12.4543224355
 20
7.6130742505
 11
-12.39748551
 21
7.6217047329
  0
LINE
  5
4CE
100
AcDbEntity
  8
ASSI
100
AcDbLine
 62
7
  6
CONTINUOUS
 10
-11.8208218196
 20
7.6569134746
 11
-11.5467794899
 21
7.6972216468
  0
LWPOLYLINE
  5
4CF
100
AcDbEntity
  8
ASSI
100
AcDbPolyline
 62
7
  6
CONTINUOUS
 90
3
 70
0
 10
-11.5467794899
 20
7.6972216468
 10
-11.4321349184
 20
7.7135109694
 10
-11.2228574047
 20
7.7424188261
  0
LWPOLYLINE
  5
4D0
100
AcDbEntity
  8
ASSI
100
AcDbPolyline
 62
7
  6
CONTINUOUS
 90
3
 70
0
 10
-11.2228574047
 20
7.7424188261
 10
-11.0358877167
 20
7.7673829253
 10
-10.6320162656
 20
7.8187414674
  0
LINE
  5
4D1
100
AcDbEntity
  8
ASSI
100
AcDbLine
 62
7
  6
CONTINUOUS
 10
-10.6861906163
 20
7.8120485648
 11
-11.1291473977
 21
7.7550366296
  0
LWPOLYLINE
  5
4D2
100
AcDbEntity
  8
ASSI
100
AcDbPolyline
 62
250
  6
CONTINUOUS
 90
22
 70
0
 10
-14.8964378638
 20
5.8715261153
 10
-13.9242166474
 20
5.9915901939
 10
-12.9082791033
 20
6.0950841618
 10
-11.8486252313
 20
6.182008019
 10
-10.7436312227
 20
6.2486448477
 10
-9.5949208863
 20
6.2987115657
 10
-8.4073656486
 20
6.3433589265
 10
-7.1849938609
 20
6.3868852996
 10
-5.9237771719
 20
6.4249923155
 10
-4.6165019542
 20
6.4559356187
 10
-3.252371207
 20
6.4798625429
 10
-1.8421819312
 20
6.4966257544
 10
-0.4111115021
 20
6.5040388966
 10
1.0542566656
 20
6.500948135
 10
2.5405059865
 20
6.488507304
 10
3.9822093299
 20
6.4679915505
 10
5.3598784682
 20
6.4387941881
 10
6.693001629
 20
6.4015219031
 10
7.9746163646
 20
6.359269901
 10
9.2024018593
 20
6.313069917
 10
10.3786789288
 20
6.2618902159
 10
11.5034475732
 20
6.2057307978
  0
LWPOLYLINE
  5
4D3
100
AcDbEntity
  8
ASSI
100
AcDbPolyline
 62
7
  6
CONTINUOUS
 90
5
 70
0
 10
-10.6861906163
 20
7.8120485648
 10
-10.2204484207
 20
7.8678182639
 10
-9.8011683237
 20
7.9145409454
 10
-9.3742094672
 20
7.9585785757
 10
-8.9396080904
 20
7.999574328
  0
LINE
  5
4D4
100
AcDbEntity
  8
ASSI
100
AcDbLine
 62
7
  6
CONTINUOUS
 10
-9.7572449369
 20
7.9192431754
 11
-9.7788563678
 21
7.9168422577
  0
LINE
  5
4D5
100
AcDbEntity
  8
ASSI
100
AcDbLine
 62
7
  6
CONTINUOUS
 10
-9.3866472861
 20
7.9569209019
 11
-9.6407372074
 21
7.9310882218
  0
LINE
  5
4D6
100
AcDbEntity
  8
ASSI
100
AcDbLine
 62
7
  6
CONTINUOUS
 10
-9.3774627072
 20
7.9582430282
 11
-9.3920504453
 21
7.9568066108
  0
LINE
  5
4D7
100
AcDbEntity
  8
ASSI
100
AcDbLine
 62
7
  6
CONTINUOUS
 10
-9.3920504453
 20
8.010066309
 11
-9.1929672706
 21
8.0293895652
  0
LINE
  5
4D8
100
AcDbEntity
  8
ASSI
100
AcDbLine
 62
7
  6
CONTINUOUS
 10
-9.3755585997
 20
7.9584394227
 11
-9.1805747642
 21
7.9773219681
  0
LINE
  5
4D9
100
AcDbEntity
  8
ASSI
100
AcDbLine
 62
7
  6
CONTINUOUS
 10
-9.1805747642
 20
7.9773219681
 11
-9.1101542246
 21
7.983947241
  0
LINE
  5
4DA
100
AcDbEntity
  8
ASSI
100
AcDbLine
 62
250
  6
CONTINUOUS
 10
-12.39748551
 20
7.6217047329
 11
-12.3402845645
 21
7.6270449332
  0
LINE
  5
4DB
100
AcDbEntity
  8
ASSI
100
AcDbLine
 62
7
  6
CONTINUOUS
 10
-9.1929672706
 20
8.0293895652
 11
-8.9967207477
 21
8.047626515
  0
LINE
  5
4DC
100
AcDbEntity
  8
ASSI
100
AcDbLine
 62
7
  6
CONTINUOUS
 10
-8.9967207477
 20
8.047626515
 11
-8.7671614889
 21
8.0681126202
  0
LINE
  5
4DD
100
AcDbEntity
  8
ASSI
100
AcDbLine
 62
7
  6
CONTINUOUS
 10
-8.7671614889
 20
8.0681126202
 11
-8.5899462994
 21
8.0833924263
  0
LINE
  5
4DE
100
AcDbEntity
  8
ASSI
100
AcDbLine
 62
7
  6
CONTINUOUS
 10
-8.5899462994
 20
8.0833924263
 11
-8.4127009235
 21
8.0982027923
  0
LINE
  5
4DF
100
AcDbEntity
  8
ASSI
100
AcDbLine
 62
7
  6
CONTINUOUS
 10
-8.3706106847
 20
8.1021972293
 11
-8.1257582909
 21
8.1224440844
  0
LINE
  5
4E0
100
AcDbEntity
  8
ASSI
100
AcDbLine
 62
7
  6
CONTINUOUS
 10
-8.1257582909
 20
8.1224440844
 11
-7.7767329015
 21
8.1502669165
  0
LINE
  5
4E1
100
AcDbEntity
  8
ASSI
100
AcDbLine
 62
7
  6
CONTINUOUS
 10
-7.7767329015
 20
8.1502669165
 11
-7.4246912444
 21
8.1770925158
  0
LINE
  5
4E2
100
AcDbEntity
  8
ASSI
100
AcDbLine
 62
7
  6
CONTINUOUS
 10
-6.7149791474
 20
8.2273694415
 11
-6.5291768977
 21
8.2396947579
  0
LINE
  5
4E3
100
AcDbEntity
  8
ASSI
100
AcDbLine
 62
7
  6
CONTINUOUS
 10
-6.5291768977
 20
8.2396947579
 11
-6.1807193376
 21
8.2618676225
  0
LINE
  5
4E4
100
AcDbEntity
  8
ASSI
100
AcDbLine
 62
7
  6
CONTINUOUS
 10
-5.8997500602
 20
8.2788701511
 11
-5.7453421287
 21
8.2878734322
  0
LINE
  5
4E5
100
AcDbEntity
  8
ASSI
100
AcDbLine
 62
7
  6
CONTINUOUS
 10
-5.3469316839
 20
8.3097634629
 11
-5.13743145
 21
8.3209492029
  0
LINE
  5
4E6
100
AcDbEntity
  8
ASSI
100
AcDbLine
 62
7
  6
CONTINUOUS
 10
-5.13743145
 20
8.3209492029
 11
-4.8616247188
 21
8.3348218747
  0
LINE
  5
4E7
100
AcDbEntity
  8
ASSI
100
AcDbLine
 62
7
  6
CONTINUOUS
 10
-4.9050175638
 20
8.2796071549
 11
-4.723662598
 21
8.288376256
  0
LINE
  5
4E8
100
AcDbEntity
  8
ASSI
100
AcDbLine
 62
7
  6
CONTINUOUS
 10
-4.723662598
 20
8.288376256
 11
-4.5930321507
 21
8.2944345234
  0
LINE
  5
4E9
100
AcDbEntity
  8
ASSI
100
AcDbLine
 62
7
  6
CONTINUOUS
 10
-4.8616247188
 20
8.3348218747
 11
-4.5782725848
 21
8.3481648985
  0
LINE
  5
4EA
100
AcDbEntity
  8
ASSI
100
AcDbLine
 62
7
  6
CONTINUOUS
 10
-4.5782725848
 20
8.3481648985
 11
-4.511175259
 21
8.3512162792
  0
LWPOLYLINE
  5
4EB
100
AcDbEntity
  8
ASSI
100
AcDbPolyline
 62
250
  6
CONTINUOUS
 90
3
 70
0
 10
-10.255643305
 20
7.9182269221
 10
-10.7984632865
 20
7.8943951798
 10
-11.039845254
 20
7.8844435973
  0
LWPOLYLINE
  5
4EC
100
AcDbEntity
  8
ASSI
100
AcDbPolyline
 62
250
  6
CONTINUOUS
 90
4
 70
0
 10
-9.4404192214
 20
7.9514540451
 10
-9.6307746738
 20
7.9441720828
 10
-9.9534616842
 20
7.9310865939
 10
-10.255643305
 20
7.9182269221
  0
LINE
  5
4ED
100
AcDbEntity
  8
ASSI
100
AcDbLine
 62
250
  6
CONTINUOUS
 10
-12.3402845645
 20
7.6270449332
 11
-12.2828890252
 21
7.6290928914
  0
LINE
  5
4EE
100
AcDbEntity
  8
ASSI
100
AcDbLine
 62
250
  6
CONTINUOUS
 10
12.3081312159
 20
7.5982972349
 11
12.2650896389
 21
7.5976575065
  0
LWPOLYLINE
  5
4EF
100
AcDbEntity
  8
ASSI
100
AcDbPolyline
 62
250
  6
CONTINUOUS
 90
3
 70
0
 10
-12.2828890252
 20
7.6290928914
 10
-12.2254735976
 20
7.6278454873
 10
-12.1682191972
 20
7.6232982319
  0
LINE
  5
4F0
100
AcDbEntity
  8
ASSI
100
AcDbLine
 62
250
  6
CONTINUOUS
 10
12.3513659796
 20
7.5970336215
 11
12.3081312159
 21
7.5982972349
  0
LWPOLYLINE
  5
4F1
100
AcDbEntity
  8
ASSI
100
AcDbPolyline
 62
250
  6
CONTINUOUS
 90
3
 70
0
 10
11.0406824803
 20
7.8844231375
 10
10.7394532134
 20
7.8968954886
 10
10.4108910963
 20
7.9114279834
  0
LWPOLYLINE
  5
4F2
100
AcDbEntity
  8
ASSI
100
AcDbPolyline
 62
7
  6
CONTINUOUS
 90
4
 70
0
 10
4.1433050121
 20
8.3669097174
 10
4.3326313689
 20
8.3589042542
 10
4.5204258137
 20
8.3505849821
 10
4.7066879058
 20
8.3419600076
  0
LINE
  5
4F3
100
AcDbEntity
  8
ASSI
100
AcDbLine
 62
7
  6
CONTINUOUS
 10
4.7066879058
 20
8.3419600076
 11
4.8924467994
 21
8.3329833637
  0
LWPOLYLINE
  5
4F4
100
AcDbEntity
  8
ASSI
100
AcDbPolyline
 62
7
  6
CONTINUOUS
 90
7
 70
0
 10
4.8924467994
 20
8.3329833637
 10
5.0766718451
 20
8.3237035587
 10
5.2562735469
 20
8.3142830005
 10
5.4312351085
 20
8.3047339922
 10
5.6015727261
 20
8.2950648995
 10
5.7642480218
 20
8.2854619001
 10
5.9189682725
 20
8.2759605584
  0
LWPOLYLINE
  5
4F5
100
AcDbEntity
  8
ASSI
100
AcDbPolyline
 62
7
  6
CONTINUOUS
 90
14
 70
0
 10
5.9189682725
 20
8.2759605584
 10
6.0660265383
 20
8.2665591765
 10
6.2032646964
 20
8.2574125448
 10
6.3306888675
 20
8.2485368341
 10
6.4482936767
 20
8.2399485259
 10
6.5539053859
 20
8.231823673
 10
6.6471703288
 20
8.2242067758
 10
6.7284439761
 20
8.2170875121
 10
6.7966177999
 20
8.2105757083
 10
6.8516015641
 20
8.2046842469
 10
6.8934874143
 20
8.1994185317
 10
6.9214417959
 20
8.1948904343
 10
6.9351946896
 20
8.1911330306
 10
6.9368501102
 20
8.1895713134
  0
LINE
  5
4F6
100
AcDbEntity
  8
ASSI
100
AcDbLine
 62
250
  6
CONTINUOUS
 10
12.3948282508
 20
7.5938514629
 11
12.3513659796
 21
7.5970336215
  0
LINE
  5
4F7
100
AcDbEntity
  8
ASSI
100
AcDbLine
 62
7
  6
CONTINUOUS
 10
8.4654302572
 20
8.0939812025
 11
8.7052910359
 21
8.0733458493
  0
LWPOLYLINE
  5
4F8
100
AcDbEntity
  8
ASSI
100
AcDbPolyline
 62
250
  6
CONTINUOUS
 90
22
 70
0
 10
8.6997486767
 20
7.5209390331
 10
8.0489525406
 20
7.5777066486
 10
7.3523788744
 20
7.6313107187
 10
6.6100276782
 20
7.6817512433
 10
5.8228551168
 20
7.7300239337
 10
4.9899050253
 20
7.7751330786
 10
4.1083089095
 20
7.8140915444
 10
3.1721933102
 20
7.8471783906
 10
2.1874316866
 20
7.8741145577
 10
1.1687759223
 20
7.8910757325
 10
0.1223453262
 20
7.8981067877
 10
-0.9579794106
 20
7.8951628506
 10
-2.0758043314
 20
7.8782849908
 10
-3.2503252858
 20
7.8458357855
 10
-4.4623464242
 20
7.7994526575
 10
-5.6578862413
 20
7.7400889439
 10
-6.8149427673
 20
7.6707515704
 10
-7.9555179718
 20
7.5884336114
 10
-9.0916362589
 20
7.4850676265
 10
-10.2273057631
 20
7.3579644689
 10
-11.3585183498
 20
7.2098132854
 10
-12.4852740189
 20
7.040614076
  0
LINE
  5
4F9
100
AcDbEntity
  8
ASSI
100
AcDbLine
 62
7
  6
CONTINUOUS
 10
8.7052910359
 20
8.0733458493
 11
8.9451024441
 21
8.0520941658
  0
LINE
  5
4FA
100
AcDbEntity
  8
ASSI
100
AcDbLine
 62
7
  6
CONTINUOUS
 10
8.9451029829
 20
8.0521001689
 11
9.1736352962
 21
8.0309777038
  0
LINE
  5
4FB
100
AcDbEntity
  8
ASSI
100
AcDbLine
 62
7
  6
CONTINUOUS
 10
9.2568177001
 20
7.9701227487
 11
8.9403906417
 21
7.9995743337
  0
LINE
  5
4FC
100
AcDbEntity
  8
ASSI
100
AcDbLine
 62
250
  6
CONTINUOUS
 10
8.9755237349
 20
7.4954761754
 11
8.6997486767
 21
7.5209390331
  0
LWPOLYLINE
  5
4FD
100
AcDbEntity
  8
ASSI
100
AcDbPolyline
 62
7
  6
CONTINUOUS
 90
3
 70
0
 10
9.0181054552
 20
7.9925188643
 10
9.3723764063
 20
7.9587485456
 10
9.7972770966
 20
7.9148652005
  0
LWPOLYLINE
  5
4FE
100
AcDbEntity
  8
ASSI
100
AcDbPolyline
 62
7
  6
CONTINUOUS
 90
5
 70
0
 10
9.1736352962
 20
8.0309777038
 10
9.3956215042
 20
8.0093680164
 10
9.6110605816
 20
7.98736676
 10
9.8221496783
 20
7.9648159148
 10
10.0266872666
 20
7.9420072348
  0
LINE
  5
4FF
100
AcDbEntity
  8
ASSI
100
AcDbLine
 62
250
  6
CONTINUOUS
 10
9.2373707008
 20
7.4701728475
 11
8.9755237349
 21
7.4954761754
  0
LINE
  5
500
100
AcDbEntity
  8
ASSI
100
AcDbLine
 62
7
  6
CONTINUOUS
 10
9.7428348129
 20
7.9208603174
 11
9.2568177001
 21
7.9701227487
  0
LINE
  5
501
100
AcDbEntity
  8
ASSI
100
AcDbLine
 62
250
  6
CONTINUOUS
 10
9.4855142754
 20
7.4450604113
 11
9.2373707008
 21
7.4701728475
  0
LINE
  5
502
100
AcDbEntity
  8
ASSI
100
AcDbLine
 62
250
  6
CONTINUOUS
 10
9.7207124968
 20
7.4202464945
 11
9.4855142754
 21
7.4450604113
  0
LINE
  5
503
100
AcDbEntity
  8
ASSI
100
AcDbLine
 62
250
  6
CONTINUOUS
 10
9.9435939747
 20
7.3958096296
 11
9.7207124968
 21
7.4202464945
  0
LINE
  5
504
100
AcDbEntity
  8
ASSI
100
AcDbLine
 62
250
  6
CONTINUOUS
 10
10.1545684127
 20
7.3717989683
 11
9.9435939747
 21
7.3958096296
  0
LWPOLYLINE
  5
505
100
AcDbEntity
  8
ASSI
100
AcDbPolyline
 62
7
  6
CONTINUOUS
 90
8
 70
0
 10
9.7428348129
 20
7.9208603174
 10
10.2150559375
 20
7.8682654976
 10
10.6255656896
 20
7.81928107
 10
11.0289324607
 20
7.7679662468
 10
11.4255637241
 20
7.7140287608
 10
11.8156336477
 20
7.6572116719
 10
12.1990546868
 20
7.5972588572
 10
12.5753289681
 20
7.5325658505
  0
LWPOLYLINE
  5
506
100
AcDbEntity
  8
ASSI
100
AcDbPolyline
 62
7
  6
CONTINUOUS
 90
3
 70
0
 10
10.0266872666
 20
7.9420072348
 10
10.218085358
 20
7.9197756111
 10
10.3949821148
 20
7.8984074524
  0
LINE
  5
507
100
AcDbEntity
  8
ASSI
100
AcDbLine
 62
250
  6
CONTINUOUS
 10
12.438261724
 20
7.5887982558
 11
12.3948282508
 21
7.5938514629
  0
LINE
  5
508
100
AcDbEntity
  8
ASSI
100
AcDbLine
 62
250
  6
CONTINUOUS
 10
10.3538711632
 20
7.3483293156
 11
10.1545684127
 21
7.3717989683
  0
LINE
  5
509
100
AcDbEntity
  8
ASSI
100
AcDbLine
 62
250
  6
CONTINUOUS
 10
10.5441291248
 20
7.3251946281
 11
10.3538711632
 21
7.3483293156
  0
LWPOLYLINE
  5
50A
100
AcDbEntity
  8
ASSI
100
AcDbPolyline
 62
7
  6
CONTINUOUS
 90
11
 70
0
 10
10.3949821148
 20
7.8984074524
 10
10.5587615013
 20
7.8778487325
 10
10.7069727122
 20
7.8584930832
 10
10.8398407843
 20
7.840382555
 10
10.957170087
 20
7.8236121648
 10
11.0558855357
 20
7.8086912249
 10
11.1355630075
 20
7.7957459708
 10
11.1966415496
 20
7.7847934139
 10
11.2373455842
 20
7.7762242248
 10
11.2569843777
 20
7.7702065151
 10
11.2591612989
 20
7.7682372187
  0
LINE
  5
50B
100
AcDbEntity
  8
ASSI
100
AcDbLine
 62
250
  6
CONTINUOUS
 10
10.7265899196
 20
7.3023047565
 11
10.5441291248
 21
7.3251946281
  0
LINE
  5
50C
100
AcDbEntity
  8
ASSI
100
AcDbLine
 62
250
  6
CONTINUOUS
 10
10.9889364735
 20
7.2681772843
 11
10.7265899196
 21
7.3023047565
  0
LINE
  5
50D
100
AcDbEntity
  8
ASSI
100
AcDbLine
 62
250
  6
CONTINUOUS
 10
11.229378313
 20
7.2355926296
 11
10.9889364735
 21
7.2681772843
  0
LINE
  5
50E
100
AcDbEntity
  8
ASSI
100
AcDbLine
 62
250
  6
CONTINUOUS
 10
11.4551173996
 20
7.203824255
 11
11.229378313
 21
7.2355926296
  0
LINE
  5
50F
100
AcDbEntity
  8
ASSI
100
AcDbLine
 62
250
  6
CONTINUOUS
 10
11.6618978685
 20
7.1736921329
 11
11.4551173996
 21
7.203824255
  0
LINE
  5
510
100
AcDbEntity
  8
ASSI
100
AcDbLine
 62
250
  6
CONTINUOUS
 10
11.9037158383
 20
7.1371710183
 11
11.6618978685
 21
7.1736921329
  0
LINE
  5
511
100
AcDbEntity
  8
ASSI
100
AcDbLine
 62
250
  6
CONTINUOUS
 10
12.2284994589
 20
7.0861615387
 11
11.9037158383
 21
7.1371710183
  0
LINE
  5
512
100
AcDbEntity
  8
ASSI
100
AcDbLine
 62
250
  6
CONTINUOUS
 10
12.4813675992
 20
7.5819306677
 11
12.438261724
 21
7.5887982558
  0
LINE
  5
513
100
AcDbEntity
  8
ASSI
100
AcDbLine
 62
7
  6
CONTINUOUS
 10
12.3576875798
 20
7.5716183854
 11
12.1900566023
 21
7.5986658235
  0
LINE
  5
514
100
AcDbEntity
  8
ASSI
100
AcDbLine
 62
250
  6
CONTINUOUS
 10
12.2766745404
 20
7.0781231748
 11
12.2284994589
 21
7.0861615387
  0
LWPOLYLINE
  5
515
100
AcDbEntity
  8
ASSI
100
AcDbPolyline
 62
7
  6
CONTINUOUS
 90
5
 70
0
 10
12.5565737547
 20
7.5367633483
 10
12.5536969588
 20
7.5372508065
 10
12.5499921266
 20
7.537843198
 10
12.5467373971
 20
7.5383030626
 10
12.544519772
 20
7.5385181917
  0
LINE
  5
516
100
AcDbEntity
  8
ASSI
100
AcDbLine
 62
7
  6
CONTINUOUS
 10
12.5572238313
 20
7.5366481559
 11
12.3576875798
 21
7.5716183854
  0
LWPOLYLINE
  5
517
100
AcDbEntity
  8
ASSI
100
AcDbPolyline
 62
250
  6
CONTINUOUS
 90
3
 70
0
 10
12.4860564358
 20
7.040614112
 10
12.4072406944
 20
7.0549967131
 10
12.2766745404
 20
7.0781231748
  0
LWPOLYLINE
  5
518
100
AcDbEntity
  8
ASSI
100
AcDbPolyline
 62
250
  6
CONTINUOUS
 90
16
 70
0
 10
14.8972208968
 20
5.8715290686
 10
14.9667220339
 20
5.8586653543
 10
15.0342397201
 20
5.8398126758
 10
15.0997739553
 20
5.8149710329
 10
15.1640340524
 20
5.7837751625
 10
15.2263106986
 20
5.7465903279
 10
15.2844759552
 20
5.7045123184
 10
15.3381971911
 20
5.6574230828
 10
15.3878070374
 20
5.6054406723
 10
15.432175449
 20
5.550015031
 10
15.4711175077
 20
5.491084362
 10
15.5048181316
 20
5.4287104621
 10
15.53270203
 20
5.3645286652
 10
15.5545774391
 20
5.2990840826
 10
15.5706361227
 20
5.2318316029
 10
15.5808780808
 20
5.1627712262
  0
LWPOLYLINE
  5
519
100
AcDbEntity
  8
ASSI
100
AcDbPolyline
 62
7
  6
CONTINUOUS
 90
5
 70
0
 10
12.5753289681
 20
7.5325658505
 10
12.695086952
 20
7.5103561322
 10
12.8131298708
 20
7.4878114708
 10
12.9303153379
 20
7.4647641103
 10
13.0443638666
 20
7.4417004714
  0
LWPOLYLINE
  5
51A
100
AcDbEntity
  8
ASSI
100
AcDbPolyline
 62
250
  6
CONTINUOUS
 90
9
 70
0
 10
12.4860564358
 20
7.040614112
 10
12.7831042777
 20
6.9841587908
 10
13.074772211
 20
6.9245965246
 10
13.3610602356
 20
6.8619273134
 10
13.6419759955
 20
6.7960747231
 10
13.9175118467
 20
6.7271151877
 10
14.1876448573
 20
6.6552780099
 10
14.4523673833
 20
6.5806396237
 10
14.7116870688
 20
6.503123595
  0
LINE
  5
51B
100
AcDbEntity
  8
ASSI
100
AcDbLine
 62
7
  6
CONTINUOUS
 10
12.5578125283
 20
7.5365358547
 11
12.5572238313
 21
7.5366481559
  0
LWPOLYLINE
  5
51C
100
AcDbEntity
  8
ASSI
100
AcDbPolyline
 62
7
  6
CONTINUOUS
 90
5
 70
0
 10
12.5753289681
 20
7.5325658505
 10
12.5733123095
 20
7.5329544896
 10
12.5713531697
 20
7.5333663981
 10
12.5694443234
 20
7.5337929003
 10
12.5675728586
 20
7.5342273754
  0
LINE
  5
51D
100
AcDbEntity
  8
ASSI
100
AcDbLine
 62
250
  6
CONTINUOUS
 10
12.5238472171
 20
7.5733053398
 11
12.4813675992
 21
7.5819306677
  0
LINE
  5
51E
100
AcDbEntity
  8
ASSI
100
AcDbLine
 62
250
  6
CONTINUOUS
 10
11.0406490067
 20
7.8843962175
 11
11.1640350646
 21
7.8595094631
  0
LINE
  5
51F
100
AcDbEntity
  8
ASSI
100
AcDbLine
 62
250
  6
CONTINUOUS
 10
11.1640350646
 20
7.8595094631
 11
11.2715622469
 21
7.8371938211
  0
LINE
  5
520
100
AcDbEntity
  8
ASSI
100
AcDbLine
 62
7
  6
CONTINUOUS
 10
13.0443638666
 20
7.4417004714
 11
13.1984624504
 21
7.4095312906
  0
LINE
  5
521
100
AcDbEntity
  8
ASSI
100
AcDbLine
 62
7
  6
CONTINUOUS
 10
13.3702733512
 20
7.3732968684
 11
13.1995992043
 21
7.4092871841
  0
LINE
  5
522
100
AcDbEntity
  8
ASSI
100
AcDbLine
 62
250
  6
CONTINUOUS
 10
11.2715622469
 20
7.8371938211
 11
11.3658080238
 21
7.8171766477
  0
LWPOLYLINE
  5
523
100
AcDbEntity
  8
ASSI
100
AcDbPolyline
 62
7
  6
CONTINUOUS
 90
4
 70
0
 10
13.1984624504
 20
7.4095312906
 10
13.2839554943
 20
7.3911725185
 10
13.4261592689
 20
7.3598023804
 10
13.5546840385
 20
7.3305360641
  0
LINE
  5
524
100
AcDbEntity
  8
ASSI
100
AcDbLine
 62
250
  6
CONTINUOUS
 10
12.4111915682
 20
7.5628121215
 11
12.4258469973
 21
7.5596729346
  0
LINE
  5
525
100
AcDbEntity
  8
ASSI
100
AcDbLine
 62
250
  6
CONTINUOUS
 10
11.3658080238
 20
7.8171766477
 11
11.4519242001
 21
7.7984208511
  0
LINE
  5
526
100
AcDbEntity
  8
ASSI
100
AcDbLine
 62
250
  6
CONTINUOUS
 10
12.3948414154
 20
7.5663949745
 11
12.4111915682
 21
7.5628121215
  0
LINE
  5
527
100
AcDbEntity
  8
ASSI
100
AcDbLine
 62
250
  6
CONTINUOUS
 10
11.4519242001
 20
7.7984208511
 11
11.5325071413
 21
7.7804759167
  0
LINE
  5
528
100
AcDbEntity
  8
ASSI
100
AcDbLine
 62
250
  6
CONTINUOUS
 10
12.3792256113
 20
7.5698903427
 11
12.3948414154
 21
7.5663949745
  0
LINE
  5
529
100
AcDbEntity
  8
ASSI
100
AcDbLine
 62
7
  6
CONTINUOUS
 10
12.5621458142
 20
7.5355127659
 11
12.5589118548
 21
7.5362556476
  0
LINE
  5
52A
100
AcDbEntity
  8
ASSI
100
AcDbLine
 62
250
  6
CONTINUOUS
 10
12.3628517618
 20
7.5736341159
 11
12.3792256113
 21
7.5698903427
  0
LWPOLYLINE
  5
52B
100
AcDbEntity
  8
ASSI
100
AcDbPolyline
 62
7
  6
CONTINUOUS
 90
5
 70
0
 10
13.785747224
 20
7.2806025996
 10
13.6849865104
 20
7.3038511262
 10
13.5930573311
 20
7.3246106963
 10
13.5100104906
 20
7.3430160724
 10
13.3702733512
 20
7.3732968684
  0
LINE
  5
52C
100
AcDbEntity
  8
ASSI
100
AcDbLine
 62
250
  6
CONTINUOUS
 10
11.5325071413
 20
7.7804759167
 11
11.6410275613
 21
7.7556775597
  0
LWPOLYLINE
  5
52D
100
AcDbEntity
  8
ASSI
100
AcDbPolyline
 62
250
  6
CONTINUOUS
 90
11
 70
0
 10
13.5546840385
 20
7.3305360641
 10
13.5782817284
 20
7.3250673752
 10
13.7297229531
 20
7.2892614883
 10
13.8764555958
 20
7.2533727732
 10
14.0233136958
 20
7.2162454769
 10
14.1732798964
 20
7.1770626589
 10
14.3291176386
 20
7.1349494372
 10
14.4888454555
 20
7.0902774475
 10
14.6483488898
 20
7.0441298558
 10
14.8066410535
 20
6.9967726889
 10
14.9658328229
 20
6.9475436643
  0
LINE
  5
52E
100
AcDbEntity
  8
ASSI
100
AcDbLine
 62
250
  6
CONTINUOUS
 10
12.3449225255
 20
7.5778270445
 11
12.3628517618
 21
7.5736341159
  0
LINE
  5
52F
100
AcDbEntity
  8
ASSI
100
AcDbLine
 62
250
  6
CONTINUOUS
 10
11.6410275613
 20
7.7556775597
 11
11.730181701
 21
7.7347821647
  0
LINE
  5
530
100
AcDbEntity
  8
ASSI
100
AcDbLine
 62
7
  6
CONTINUOUS
 10
12.5675728586
 20
7.5342273754
 11
12.5621458142
 21
7.5355127659
  0
LINE
  5
531
100
AcDbEntity
  8
ASSI
100
AcDbLine
 62
250
  6
CONTINUOUS
 10
12.3287474809
 20
7.5816901562
 11
12.3449225255
 21
7.5778270445
  0
LINE
  5
532
100
AcDbEntity
  8
ASSI
100
AcDbLine
 62
250
  6
CONTINUOUS
 10
11.730181701
 20
7.7347821647
 11
11.8038364183
 21
7.7171135373
  0
LINE
  5
533
100
AcDbEntity
  8
ASSI
100
AcDbLine
 62
250
  6
CONTINUOUS
 10
12.3106922213
 20
7.5860902586
 11
12.3287474809
 21
7.5816901562
  0
LINE
  5
534
100
AcDbEntity
  8
ASSI
100
AcDbLine
 62
250
  6
CONTINUOUS
 10
11.8038364183
 20
7.7171135373
 11
11.8676239309
 21
7.7014880349
  0
LINE
  5
535
100
AcDbEntity
  8
ASSI
100
AcDbLine
 62
250
  6
CONTINUOUS
 10
12.3011641826
 20
7.5884474932
 11
12.3106922213
 21
7.5860902586
  0
LINE
  5
536
100
AcDbEntity
  8
ASSI
100
AcDbLine
 62
250
  6
CONTINUOUS
 10
11.8676239309
 20
7.7014880349
 11
11.9280236056
 21
7.6863894417
  0
LINE
  5
537
100
AcDbEntity
  8
ASSI
100
AcDbLine
 62
7
  6
CONTINUOUS
 10
12.5589118548
 20
7.5362556476
 11
12.5578125283
 21
7.5365358547
  0
LINE
  5
538
100
AcDbEntity
  8
ASSI
100
AcDbLine
 62
250
  6
CONTINUOUS
 10
12.2592278583
 20
7.5991647213
 11
12.3011641826
 21
7.5884474932
  0
LINE
  5
539
100
AcDbEntity
  8
ASSI
100
AcDbLine
 62
250
  6
CONTINUOUS
 10
11.9280236056
 20
7.6863894417
 11
11.9974715693
 21
7.6686602856
  0
LINE
  5
53A
100
AcDbEntity
  8
ASSI
100
AcDbLine
 62
250
  6
CONTINUOUS
 10
11.9974715693
 20
7.6686602856
 11
12.066676314
 21
7.6506198343
  0
LINE
  5
53B
100
AcDbEntity
  8
ASSI
100
AcDbLine
 62
250
  6
CONTINUOUS
 10
12.2406678873
 20
7.6040321038
 11
12.2592278583
 21
7.5991647213
  0
LINE
  5
53C
100
AcDbEntity
  8
ASSI
100
AcDbLine
 62
7
  6
CONTINUOUS
 10
14.0396696094
 20
7.2167156975
 11
14.0371115464
 21
7.217398916
  0
LINE
  5
53D
100
AcDbEntity
  8
ASSI
100
AcDbLine
 62
250
  6
CONTINUOUS
 10
12.066676314
 20
7.6506198343
 11
12.126046946
 21
7.6348529207
  0
LINE
  5
53E
100
AcDbEntity
  8
ASSI
100
AcDbLine
 62
7
  6
CONTINUOUS
 10
14.0396696094
 20
7.2167156975
 11
14.0395116286
 21
7.2167580736
  0
LWPOLYLINE
  5
53F
100
AcDbEntity
  8
ASSI
100
AcDbPolyline
 62
250
  6
CONTINUOUS
 90
3
 70
0
 10
12.126046946
 20
7.6348529207
 10
12.2059928704
 20
7.6133175511
 10
12.2406678873
 20
7.6040321038
  0
LWPOLYLINE
  5
540
100
AcDbEntity
  8
ASSI
100
AcDbPolyline
 62
7
  6
CONTINUOUS
 90
3
 70
0
 10
14.0371115464
 20
7.217398916
 10
14.0256709224
 20
7.2205021569
 10
14.017504399
 20
7.2227508806
  0
LINE
  5
541
100
AcDbEntity
  8
ASSI
100
AcDbLine
 62
250
  6
CONTINUOUS
 10
14.7116870688
 20
6.503123595
 11
14.9656039138
 21
6.4227299238
  0
LINE
  5
542
100
AcDbEntity
  8
ASSI
100
AcDbLine
 62
250
  6
CONTINUOUS
 10
11.5302686633
 20
-6.6975928431
 11
11.5300981767
 21
-6.6948974022
  0
LINE
  5
543
100
AcDbEntity
  8
ASSI
100
AcDbLine
 62
250
  6
CONTINUOUS
 10
11.5300981767
 20
-6.6948974022
 11
11.5032498701
 21
-6.2026858492
  0
LINE
  5
544
100
AcDbEntity
  8
ASSI
100
AcDbLine
 62
250
  6
CONTINUOUS
 10
12.5333940372
 20
7.5420908484
 11
12.5334397299
 21
7.5408164987
  0
LINE
  5
545
100
AcDbEntity
  8
ASSI
100
AcDbLine
 62
7
  6
CONTINUOUS
 10
13.2989527982
 20
-5.0
 11
13.299015927
 21
-5.0180849909
  0
LINE
  5
546
100
AcDbEntity
  8
ASSI
100
AcDbLine
 62
7
  6
CONTINUOUS
 10
11.2589904214
 20
7.7371317262
 11
11.2589904214
 21
7.7682605175
  0
LINE
  5
547
100
AcDbEntity
  8
ASSI
100
AcDbLine
 62
7
  6
CONTINUOUS
 10
13.2989527982
 20
5.0
 11
13.299015927
 21
5.0180849909
  0
LINE
  5
548
100
AcDbEntity
  8
ASSI
100
AcDbLine
 62
250
  6
CONTINUOUS
 10
12.5333940372
 20
-7.5420908484
 11
12.5334397299
 21
-7.5408164987
  0
LWPOLYLINE
  5
549
100
AcDbEntity
  8
ASSI
100
AcDbPolyline
 62
250
  6
CONTINUOUS
 90
3
 70
0
 10
11.5302686633
 20
6.6975928431
 10
11.5300981767
 20
6.6948974022
 10
11.5032498701
 20
6.2026858492
  0
LINE
  5
54A
100
AcDbEntity
  8
ASSI
100
AcDbLine
 62
250
  6
CONTINUOUS
 10
14.8972208802
 20
5.8715285237
 11
14.9577566835
 21
6.2975142153
  0
LWPOLYLINE
  5
54B
100
AcDbEntity
  8
ASSI
100
AcDbPolyline
 62
250
  6
CONTINUOUS
 90
4
 70
0
 10
14.9577566835
 20
6.2975142153
 10
14.9656142622
 20
6.3518278978
 10
14.9667816875
 20
6.3596421259
 10
14.9672121574
 20
6.3622399941
  0
LINE
  5
54C
100
AcDbEntity
  8
ASSI
100
AcDbLine
 62
250
  6
CONTINUOUS
 10
12.4860564349
 20
7.0406141403
 11
12.5753288769
 21
7.5325658672
  0
LINE
  5
54D
100
AcDbEntity
  8
ASSI
100
AcDbLine
 62
250
  6
CONTINUOUS
 10
15.0415843717
 20
6.6569702262
 11
14.965603876
 21
6.4227298661
  0
LINE
  5
54E
100
AcDbEntity
  8
ASSI
100
AcDbLine
 62
250
  6
CONTINUOUS
 10
15.1198549008
 20
6.8983459552
 11
15.0415843717
 21
6.6569702262
  0
LINE
  5
54F
100
AcDbEntity
  8
ASSI
100
AcDbLine
 62
250
  6
CONTINUOUS
 10
15.1621592196
 20
-6.3276687424
 11
15.1845113985
 21
-6.3122082436
  0
LWPOLYLINE
  5
550
100
AcDbEntity
  8
ASSI
100
AcDbPolyline
 62
250
  6
CONTINUOUS
 90
5
 70
0
 10
12.3553762374
 20
-7.7235220869
 10
12.4182374149
 20
-7.6843276018
 10
12.4650294123
 20
-7.6497636382
 10
12.4969867793
 20
-7.6196420329
 10
12.5146933309
 20
-7.5941630681
  0
LINE
  5
551
100
AcDbEntity
  8
ASSI
100
AcDbLine
 62
250
  6
CONTINUOUS
 10
15.303191279
 20
-6.8229504739
 11
15.3922139951
 21
-6.7737171981
  0
LWPOLYLINE
  5
552
100
AcDbEntity
  8
ASSI
100
AcDbPolyline
 62
250
  6
CONTINUOUS
 90
5
 70
0
 10
15.0667780239
 20
-6.3820768441
 10
15.091541201
 20
-6.3695790209
 10
15.1157291362
 20
-6.3563269265
 10
15.1392317988
 20
-6.34237497
 10
15.1621592196
 20
-6.3276687424
  0
LWPOLYLINE
  5
553
100
AcDbEntity
  8
ASSI
100
AcDbPolyline
 62
250
  6
CONTINUOUS
 90
3
 70
0
 10
15.1231107157
 20
-6.8972676773
 10
15.2143546782
 20
-6.8636769868
 10
15.303191279
 20
-6.8229504739
  0
LWPOLYLINE
  5
554
100
AcDbEntity
  8
ASSI
100
AcDbPolyline
 62
250
  6
CONTINUOUS
 90
7
 70
0
 10
15.1033075504
 20
-6.910783553
 10
15.1072072186
 20
-6.9093624826
 10
15.1126020532
 20
-6.9069190616
 10
15.1167851904
 20
-6.9044375478
 10
15.1198932145
 20
-6.9020048679
 10
15.1218767617
 20
-6.8996617917
 10
15.1231107157
 20
-6.8972676773
  0
LINE
  5
555
100
AcDbEntity
  8
ASSI
100
AcDbLine
 62
7
  6
CONTINUOUS
 10
12.2247140045
 20
-7.8269174491
 11
12.7076992298
 21
-7.6547715763
  0
LWPOLYLINE
  5
556
100
AcDbEntity
  8
ASSI
100
AcDbPolyline
 62
250
  6
CONTINUOUS
 90
46
 70
0
 10
11.0406824803
 20
-7.8844231375
 10
10.7933028398
 20
-7.9724214259
 10
10.5143917983
 20
-8.062548949
 10
10.2050430916
 20
-8.1537033647
 10
9.8664549835
 20
-8.2451053812
 10
9.4998007137
 20
-8.335862999
 10
9.1062887593
 20
-8.4248175118
 10
8.6874380287
 20
-8.5111696656
 10
8.2445556952
 20
-8.5944401591
 10
7.7786555027
 20
-8.6739885047
 10
7.291236698
 20
-8.7493068664
 10
6.7838299307
 20
-8.8200026609
 10
6.2576041279
 20
-8.8857007618
 10
5.7143658422
 20
-8.946113438
 10
5.155802959
 20
-9.0010181929
 10
4.5829228893
 20
-9.0501894633
 10
3.9973376724
 20
-9.0934491392
 10
3.4008338838
 20
-9.1306772234
 10
2.7946174351
 20
-9.1617582587
 10
2.1802659094
 20
-9.1865015632
 10
1.5597430511
 20
-9.2048918009
 10
0.9348273547
 20
-9.2170791472
 10
0.307522163
 20
-9.2231395285
 10
-0.3203604198
 20
-9.2230745679
 10
-0.9473934211
 20
-9.2168853766
 10
-1.5717218483
 20
-9.2045769357
 10
-2.1913968209
 20
-9.1860830563
 10
-2.8047897653
 20
-9.1612558831
 10
-3.4099622625
 20
-9.1301140062
 10
-4.0053389309
 20
-9.092850468
 10
-4.5898273882
 20
-9.0495752509
 10
-5.1616642993
 20
-9.0004062052
 10
-5.7192272281
 20
-8.9455221833
 10
-6.261560618
 20
-8.8851415981
 10
-6.7869571373
 20
-8.8194865966
 10
-7.2936311184
 20
-8.7488400931
 10
-7.7805084456
 20
-8.6735598274
 10
-8.2461355887
 20
-8.5940167052
 10
-8.6888878364
 20
-8.5107299904
 10
-9.1075566217
 20
-8.424374279
 10
-9.5008130916
 20
-8.3354386345
 10
-9.8671859383
 20
-8.2447147972
 10
-10.2054244282
 20
-8.1533746009
 10
-10.5143661008
 20
-8.0623135645
 10
-10.7928610115
 20
-7.9723041561
 10
-11.039845254
 20
-7.8844435973
  0
LINE
  5
557
100
AcDbEntity
  8
ASSI
100
AcDbLine
 62
7
  6
CONTINUOUS
 10
12.7076992298
 20
-7.6547715763
 11
12.9624205915
 21
-7.5648947993
  0
LWPOLYLINE
  5
558
100
AcDbEntity
  8
ASSI
100
AcDbPolyline
 62
250
  6
CONTINUOUS
 90
7
 70
0
 10
11.5025346459
 20
-8.0780907681
 10
11.7183981863
 20
-8.0026884316
 10
11.8958766274
 20
-7.9356488347
 10
12.0457655841
 20
-7.8743166619
 10
12.1711708638
 20
-7.8184312917
 10
12.2738781032
 20
-7.768095264
 10
12.3553762374
 20
-7.7235220869
  0
LINE
  5
559
100
AcDbEntity
  8
ASSI
100
AcDbLine
 62
7
  6
CONTINUOUS
 10
12.9624205915
 20
-7.5648947993
 11
13.0704065937
 21
-7.5272859505
  0
LWPOLYLINE
  5
55A
100
AcDbEntity
  8
ASSI
100
AcDbPolyline
 62
7
  6
CONTINUOUS
 90
18
 70
0
 10
15.1032966796
 20
-6.9107871921
 10
15.1327224012
 20
-6.9005776933
 10
15.1700000361
 20
-6.8865834158
 10
15.2077527872
 20
-6.8711510391
 10
15.2459208273
 20
-6.8542022406
 10
15.2845172651
 20
-6.835624782
 10
15.3230854935
 20
-6.8155488279
 10
15.3605569051
 20
-6.7945241003
 10
15.3979480252
 20
-6.7719700507
 10
15.4377846105
 20
-6.7460981655
 10
15.481072902
 20
-6.7156649053
 10
15.5261841874
 20
-6.6811480653
 10
15.5715853518
 20
-6.643214327
 10
15.6165506662
 20
-6.6020940161
 10
15.6612255781
 20
-6.5572381389
 10
15.7054177849
 20
-6.5082823646
 10
15.748840507
 20
-6.4548469057
 10
15.7712138615
 20
-6.4248757249
  0
LWPOLYLINE
  5
55B
100
AcDbEntity
  8
ASSI
100
AcDbPolyline
 62
7
  6
CONTINUOUS
 90
4
 70
0
 10
11.6220273496
 20
-8.037629503
 10
11.8370599737
 20
-7.9635302352
 10
12.0375419276
 20
-7.8932572292
 10
12.2247140045
 20
-7.8269174491
  0
LWPOLYLINE
  5
55C
100
AcDbEntity
  8
ASSI
100
AcDbPolyline
 62
250
  6
CONTINUOUS
 90
5
 70
0
 10
14.9656039138
 20
-6.4227299238
 10
14.9912376577
 20
-6.413956504
 10
15.0166262523
 20
-6.4042655857
 10
15.0417696974
 20
-6.3936571687
 10
15.0667780239
 20
-6.3820768441
  0
LINE
  5
55D
100
AcDbEntity
  8
ASSI
100
AcDbLine
 62
7
  6
CONTINUOUS
 10
13.0704065937
 20
-7.5272859505
 11
13.2559050023
 21
-7.4636630148
  0
LINE
  5
55E
100
AcDbEntity
  8
ASSI
100
AcDbLine
 62
7
  6
CONTINUOUS
 10
11.4969916836
 20
-8.0799529708
 11
11.6220273496
 21
-8.037629503
  0
LINE
  5
55F
100
AcDbEntity
  8
ASSI
100
AcDbLine
 62
7
  6
CONTINUOUS
 10
13.2559050023
 20
-7.4636630148
 11
13.4075778124
 21
-7.4127974822
  0
LINE
  5
560
100
AcDbEntity
  8
ASSI
100
AcDbLine
 62
7
  6
CONTINUOUS
 10
13.4075778124
 20
-7.4127974822
 11
13.5385028425
 21
-7.3698946993
  0
LINE
  5
561
100
AcDbEntity
  8
ASSI
100
AcDbLine
 62
250
  6
CONTINUOUS
 10
14.9658328229
 20
-6.9475436643
 11
15.1263260188
 21
-6.8962674159
  0
LINE
  5
562
100
AcDbEntity
  8
ASSI
100
AcDbLine
 62
7
  6
CONTINUOUS
 10
13.5385028425
 20
-7.3698946993
 11
13.6538607641
 21
-7.332958673
  0
LINE
  5
563
100
AcDbEntity
  8
ASSI
100
AcDbLine
 62
7
  6
CONTINUOUS
 10
13.6538607641
 20
-7.332958673
 11
13.7568840343
 21
-7.300704019
  0
LINE
  5
564
100
AcDbEntity
  8
ASSI
100
AcDbLine
 62
7
  6
CONTINUOUS
 10
13.7568840343
 20
-7.300704019
 11
13.8537247814
 21
-7.2710261912
  0
LWPOLYLINE
  5
565
100
AcDbEntity
  8
ASSI
100
AcDbPolyline
 62
7
  6
CONTINUOUS
 90
4
 70
0
 10
13.8537247814
 20
-7.2710261912
 10
13.9525095825
 20
-7.2413700279
 10
13.9737844095
 20
-7.2351452443
 10
13.9900306804
 20
-7.230473833
  0
LWPOLYLINE
  5
566
100
AcDbEntity
  8
ASSI
100
AcDbPolyline
 62
7
  6
CONTINUOUS
 90
7
 70
0
 10
14.5255563886
 20
-7.0897620712
 10
14.6292678378
 20
-7.0597318556
 10
14.7313338558
 20
-7.0293010233
 10
14.8318352985
 20
-6.9984615827
 10
14.9324865585
 20
-6.9666959384
 10
15.0316803383
 20
-6.9345334867
 10
15.1031835307
 20
-6.9108248775
  0
LINE
  5
567
100
AcDbEntity
  8
ASSI
100
AcDbLine
 62
7
  6
CONTINUOUS
 10
-14.4471811707
 20
7.1116683878
 11
-14.5097830065
 21
7.0940234154
  0
LINE
  5
568
100
AcDbEntity
  8
ASSI
100
AcDbLine
 62
7
  6
CONTINUOUS
 10
-14.4070418658
 20
7.1228210533
 11
-14.4471811707
 21
7.1116683878
  0
LINE
  5
569
100
AcDbEntity
  8
ASSI
100
AcDbLine
 62
7
  6
CONTINUOUS
 10
14.017504399
 20
7.2227508806
 11
13.9965155564
 21
7.2286312851
  0
LINE
  5
56A
100
AcDbEntity
  8
ASSI
100
AcDbLine
 62
7
  6
CONTINUOUS
 10
13.9965155564
 20
7.2286312851
 11
13.9748429566
 21
7.2348345992
  0
LWPOLYLINE
  5
56B
100
AcDbEntity
  8
ASSI
100
AcDbPolyline
 62
250
  6
CONTINUOUS
 90
44
 70
0
 10
10.5143917983
 20
8.062548949
 10
10.2050430916
 20
8.1537033647
 10
9.8664549835
 20
8.2451053812
 10
9.4998007137
 20
8.335862999
 10
9.1062887593
 20
8.4248175118
 10
8.6874380287
 20
8.5111696656
 10
8.2445556952
 20
8.5944401591
 10
7.7786555027
 20
8.6739885047
 10
7.291236698
 20
8.7493068664
 10
6.7838299307
 20
8.8200026609
 10
6.2576041279
 20
8.8857007618
 10
5.7143658422
 20
8.946113438
 10
5.155802959
 20
9.0010181929
 10
4.5829228893
 20
9.0501894633
 10
3.9973376724
 20
9.0934491392
 10
3.4008338838
 20
9.1306772234
 10
2.7946174351
 20
9.1617582587
 10
2.1802659094
 20
9.1865015632
 10
1.5597430511
 20
9.2048918009
 10
0.9348273547
 20
9.2170791472
 10
0.307522163
 20
9.2231395285
 10
-0.3203604198
 20
9.2230745679
 10
-0.9473934211
 20
9.2168853766
 10
-1.5717218483
 20
9.2045769357
 10
-2.1913968209
 20
9.1860830563
 10
-2.8047897653
 20
9.1612558831
 10
-3.4099622625
 20
9.1301140062
 10
-4.0053389309
 20
9.092850468
 10
-4.5898273882
 20
9.0495752509
 10
-5.1616642993
 20
9.0004062052
 10
-5.7192272281
 20
8.9455221833
 10
-6.261560618
 20
8.8851415981
 10
-6.7869571373
 20
8.8194865966
 10
-7.2936311184
 20
8.7488400931
 10
-7.7805084456
 20
8.6735598274
 10
-8.2461355887
 20
8.5940167052
 10
-8.6888878364
 20
8.5107299904
 10
-9.1075566217
 20
8.424374279
 10
-9.5008130916
 20
8.3354386345
 10
-9.8671859383
 20
8.2447147972
 10
-10.2054244282
 20
8.1533746009
 10
-10.5143661008
 20
8.0623135645
 10
-10.7928610115
 20
7.9723041561
 10
-11.039845254
 20
7.8844435973
  0
LINE
  5
56C
100
AcDbEntity
  8
ASSI
100
AcDbLine
 62
7
  6
CONTINUOUS
 10
13.9748429566
 20
7.2348345992
 11
13.9263547914
 21
7.2491586342
  0
LINE
  5
56D
100
AcDbEntity
  8
ASSI
100
AcDbLine
 62
7
  6
CONTINUOUS
 10
13.9263547914
 20
7.2491586342
 11
13.8486316502
 21
7.2725727476
  0
LINE
  5
56E
100
AcDbEntity
  8
ASSI
100
AcDbLine
 62
7
  6
CONTINUOUS
 10
13.8486316502
 20
7.2725727476
 11
13.7595500489
 21
7.2998786838
  0
LWPOLYLINE
  5
56F
100
AcDbEntity
  8
ASSI
100
AcDbPolyline
 62
7
  6
CONTINUOUS
 90
38
 70
0
 10
11.4260839895
 20
8.1035154235
 10
11.0211790187
 20
8.2294784828
 10
10.5922002291
 20
8.3495431039
 10
10.1257599679
 20
8.4672797087
 10
9.618954525
 20
8.5824374358
 10
9.0801310126
 20
8.6924043964
 10
8.5091855458
 20
8.7967786304
 10
7.9078304687
 20
8.8948276151
 10
7.2796310024
 20
8.9857371284
 10
6.6274392799
 20
9.0689741083
 10
5.9558249347
 20
9.1439516677
 10
5.2666680772
 20
9.2104530665
 10
4.5579475934
 20
9.2686930378
 10
3.8309244662
 20
9.3185425922
 10
3.089943307
 20
9.3596095463
 10
2.3379216061
 20
9.3917403039
 10
1.5778834295
 20
9.4148516818
 10
0.8126193149
 20
9.4289364695
 10
0.0447290712
 20
9.4339848107
 10
-0.7219332533
 20
9.4299960366
 10
-1.4854861819
 20
9.4170183449
 10
-2.2462663421
 20
9.3949893633
 10
-3.0027986544
 20
9.3637755815
 10
-3.7505277505
 20
9.3234224751
 10
-4.4851576902
 20
9.2740994526
 10
-5.2038169326
 20
9.2159035534
 10
-5.9031503165
 20
9.1492838536
 10
-6.5806607825
 20
9.0744805735
 10
-7.2323681284
 20
8.9920590242
 10
-7.8572147304
 20
8.9024454202
 10
-8.4568207414
 20
8.8056200879
 10
-9.0288322398
 20
8.7021032323
 10
-9.5698863293
 20
8.5927899783
 10
-10.0796386566
 20
8.4780965111
 10
-10.5483222564
 20
8.3609429036
 10
-10.9801650333
 20
8.2412665837
 10
-11.3913052874
 20
8.1146309499
 10
-11.4897300497
 20
8.0821157335
  0
LINE
  5
570
100
AcDbEntity
  8
ASSI
100
AcDbLine
 62
7
  6
CONTINUOUS
 10
13.7595500489
 20
7.2998786838
 11
13.6605689751
 21
7.3308371051
  0
LINE
  5
571
100
AcDbEntity
  8
ASSI
100
AcDbLine
 62
250
  6
CONTINUOUS
 10
14.9658328229
 20
6.9475436643
 11
15.1263260188
 21
6.8962674159
  0
LINE
  5
572
100
AcDbEntity
  8
ASSI
100
AcDbLine
 62
7
  6
CONTINUOUS
 10
13.6605689751
 20
7.3308371051
 11
13.5514118147
 21
7.3657197635
  0
LINE
  5
573
100
AcDbEntity
  8
ASSI
100
AcDbLine
 62
250
  6
CONTINUOUS
 10
10.7933028398
 20
7.9724214259
 11
10.5143917983
 21
8.062548949
  0
LINE
  5
574
100
AcDbEntity
  8
ASSI
100
AcDbLine
 62
7
  6
CONTINUOUS
 10
13.5514118147
 20
7.3657197635
 11
13.4289299764
 21
7.4057333907
  0
LWPOLYLINE
  5
575
100
AcDbEntity
  8
ASSI
100
AcDbPolyline
 62
7
  6
CONTINUOUS
 90
7
 70
0
 10
15.1031835307
 20
6.9108248775
 10
15.0316803383
 20
6.9345334867
 10
14.9324865585
 20
6.9666959384
 10
14.8318352985
 20
6.9984615827
 10
14.7313338558
 20
7.0293010233
 10
14.6292678378
 20
7.0597318556
 10
14.5255563886
 20
7.0897620712
  0
LINE
  5
576
100
AcDbEntity
  8
ASSI
100
AcDbLine
 62
7
  6
CONTINUOUS
 10
13.4289299764
 20
7.4057333907
 11
13.2867451997
 21
7.4532279465
  0
LINE
  5
577
100
AcDbEntity
  8
ASSI
100
AcDbLine
 62
7
  6
CONTINUOUS
 10
11.4260839895
 20
8.1035154235
 11
11.5030971611
 21
8.0779015943
  0
LWPOLYLINE
  5
578
100
AcDbEntity
  8
ASSI
100
AcDbPolyline
 62
250
  6
CONTINUOUS
 90
5
 70
0
 10
14.9656039138
 20
6.4227299238
 10
14.9912376577
 20
6.413956504
 10
15.0166262523
 20
6.4042655857
 10
15.0417696974
 20
6.3936571687
 10
15.0667780239
 20
6.3820768441
  0
LINE
  5
579
100
AcDbEntity
  8
ASSI
100
AcDbLine
 62
7
  6
CONTINUOUS
 10
13.2867451997
 20
7.4532279465
 11
13.1185961833
 21
7.5106279604
  0
LWPOLYLINE
  5
57A
100
AcDbEntity
  8
ASSI
100
AcDbPolyline
 62
250
  6
CONTINUOUS
 90
7
 70
0
 10
11.5030971611
 20
8.0779015943
 10
11.7183981863
 20
8.0026884316
 10
11.8958766274
 20
7.9356488347
 10
12.0457655841
 20
7.8743166619
 10
12.1711708638
 20
7.8184312917
 10
12.2738781032
 20
7.768095264
 10
12.3553762374
 20
7.7235220869
  0
LINE
  5
57B
100
AcDbEntity
  8
ASSI
100
AcDbLine
 62
7
  6
CONTINUOUS
 10
13.1185961833
 20
7.5106279604
 11
12.9111948754
 21
7.5828543473
  0
LWPOLYLINE
  5
57C
100
AcDbEntity
  8
ASSI
100
AcDbPolyline
 62
7
  6
CONTINUOUS
 90
5
 70
0
 10
12.1846748883
 20
7.8411508668
 10
12.0035024789
 20
7.90525603
 10
11.8098620181
 20
7.9729820047
 10
11.6025930343
 20
8.0442514994
 10
11.5028934342
 20
8.078009203
  0
LINE
  5
57D
100
AcDbEntity
  8
ASSI
100
AcDbLine
 62
7
  6
CONTINUOUS
 10
12.9111948754
 20
7.5828543473
 11
12.6576456261
 21
7.6725647001
  0
LINE
  5
57E
100
AcDbEntity
  8
ASSI
100
AcDbLine
 62
250
  6
CONTINUOUS
 10
11.0406824803
 20
7.8844231375
 11
10.7933028398
 21
7.9724214259
  0
LINE
  5
57F
100
AcDbEntity
  8
ASSI
100
AcDbLine
 62
7
  6
CONTINUOUS
 10
12.6576456261
 20
7.6725647001
 11
12.1846748883
 21
7.8411508668
  0
LWPOLYLINE
  5
580
100
AcDbEntity
  8
ASSI
100
AcDbPolyline
 62
250
  6
CONTINUOUS
 90
7
 70
0
 10
15.1033075504
 20
6.910783553
 10
15.1072072186
 20
6.9093624826
 10
15.1126020532
 20
6.9069190616
 10
15.1167851904
 20
6.9044375478
 10
15.1198932145
 20
6.9020048679
 10
15.1218767617
 20
6.8996617917
 10
15.1231107157
 20
6.8972676773
  0
LWPOLYLINE
  5
581
100
AcDbEntity
  8
ASSI
100
AcDbPolyline
 62
250
  6
CONTINUOUS
 90
3
 70
0
 10
15.1231107157
 20
6.8972676773
 10
15.2143546782
 20
6.8636769868
 10
15.303191279
 20
6.8229504739
  0
LWPOLYLINE
  5
582
100
AcDbEntity
  8
ASSI
100
AcDbPolyline
 62
250
  6
CONTINUOUS
 90
5
 70
0
 10
15.0667780239
 20
6.3820768441
 10
15.091541201
 20
6.3695790209
 10
15.1157291362
 20
6.3563269265
 10
15.1392317988
 20
6.34237497
 10
15.1621592196
 20
6.3276687424
  0
LINE
  5
583
100
AcDbEntity
  8
ASSI
100
AcDbLine
 62
250
  6
CONTINUOUS
 10
15.303191279
 20
6.8229504739
 11
15.3922139951
 21
6.7737171981
  0
LWPOLYLINE
  5
584
100
AcDbEntity
  8
ASSI
100
AcDbPolyline
 62
250
  6
CONTINUOUS
 90
5
 70
0
 10
12.3553762374
 20
7.7235220869
 10
12.4182374149
 20
7.6843276018
 10
12.4650294123
 20
7.6497636382
 10
12.4969867793
 20
7.6196420329
 10
12.5146933309
 20
7.5941630681
  0
LINE
  5
585
100
AcDbEntity
  8
ASSI
100
AcDbLine
 62
250
  6
CONTINUOUS
 10
15.1621592196
 20
6.3276687424
 11
15.1845113985
 21
6.3122082436
  0
LINE
  5
586
100
AcDbEntity
  8
ASSI
100
AcDbLine
 62
250
  6
CONTINUOUS
 10
15.1198549008
 20
-6.8983459552
 11
14.965603876
 21
-6.4227298661
  0
LINE
  5
587
100
AcDbEntity
  8
ASSI
100
AcDbLine
 62
250
  6
CONTINUOUS
 10
12.4860564349
 20
-7.0406141403
 11
12.5753288769
 21
-7.5325658672
  0
LINE
  5
588
100
AcDbEntity
  8
ASSI
100
AcDbLine
 62
250
  6
CONTINUOUS
 10
14.9667816875
 20
-6.3596421259
 11
14.9672121574
 21
-6.3622399941
  0
LINE
  5
589
100
AcDbEntity
  8
ASSI
100
AcDbLine
 62
250
  6
CONTINUOUS
 10
14.9637131183
 20
-6.3388158032
 11
14.9667816875
 21
-6.3596421259
  0
LINE
  5
58A
100
AcDbEntity
  8
ASSI
100
AcDbLine
 62
250
  6
CONTINUOUS
 10
14.9116557759
 20
-5.9735309079
 11
14.9637131183
 21
-6.3388158032
  0
LINE
  5
58B
100
AcDbEntity
  8
ASSI
100
AcDbLine
 62
250
  6
CONTINUOUS
 10
14.8972208802
 20
-5.8715285237
 11
14.9116557759
 21
-5.9735309079
  0
LINE
  5
58C
100
AcDbEntity
  8
ASSI
100
AcDbLine
 62
7
  6
CONTINUOUS
 10
14.3350020699
 20
5.0473337491
 11
14.3905846328
 21
4.4881810879
  0
LWPOLYLINE
  5
58D
100
AcDbEntity
  8
ASSI
100
AcDbPolyline
 62
250
  6
CONTINUOUS
 90
10
 70
0
 10
15.5808780808
 20
5.1627712262
 10
15.6374018795
 20
4.5914048842
 10
15.6872864364
 20
4.0194904503
 10
15.7305317517
 20
3.4470279243
 10
15.7671419863
 20
2.8740448186
 10
15.7971129791
 20
2.300513621
 10
15.8204322472
 20
1.726351794
 10
15.8370956295
 20
1.1515318253
 10
15.8471072869
 20
0.5760812273
 10
15.8504672196
 20
0.0
  0
LWPOLYLINE
  5
58E
100
AcDbEntity
  8
ASSI
100
AcDbPolyline
 62
7
  6
CONTINUOUS
 90
9
 70
0
 10
14.3905846328
 20
4.4881810879
 10
14.4396361057
 20
3.9285512197
 10
14.4821564888
 20
3.3684441445
 10
14.5181504448
 20
2.8077776529
 10
14.547613311
 20
2.2466339542
 10
14.5705310984
 20
1.6852596767
 10
14.5868991443
 20
1.1237370299
 10
14.5967221115
 20
0.5619838043
 10
14.6
 20
-0.0
  0
LWPOLYLINE
  5
58F
100
AcDbEntity
  8
0
100
AcDbPolyline
 62
7
  6
CONTINUOUS
 90
7
 70
0
 10
14.2899624531
 20
5.5733039888
 10
14.2882752784
 20
5.6078712639
 10
14.2868831671
 20
5.643706313
 10
14.2857861192
 20
5.68061251
 10
14.2849841347
 20
5.7183824791
 10
14.2844772135
 20
5.7567991194
 10
14.2842653557
 20
5.7956367323
  0
LINE
  5
590
100
AcDbEntity
  8
0
100
AcDbLine
 62
7
  6
CONTINUOUS
 10
14.2899624531
 20
-5.0180849909
 11
14.2899624531
 21
-5.5733039888
  0
LINE
  5
591
100
AcDbEntity
  8
0
100
AcDbLine
 62
7
  6
CONTINUOUS
 10
14.2899624531
 20
5.0180849909
 11
14.2899624531
 21
5.5733039888
  0
LWPOLYLINE
  5
592
100
AcDbEntity
  8
0
100
AcDbPolyline
 62
7
  6
CONTINUOUS
 90
7
 70
0
 10
14.2842653557
 20
-5.7956367323
 10
14.2844660683
 20
-5.7572428689
 10
14.2849663024
 20
-5.7190856402
 10
14.2857660579
 20
-5.6813911899
 10
14.2868653348
 20
-5.6443833975
 10
14.2882641332
 20
-5.6082825431
 10
14.2899624531
 20
-5.5733039888
  0
LWPOLYLINE
  5
593
100
AcDbEntity
  8
ASSI
100
AcDbPolyline
 62
7
  6
CONTINUOUS
 90
9
 70
0
 10
14.3905846328
 20
-4.4881810879
 10
14.4396361057
 20
-3.9285512197
 10
14.4821564888
 20
-3.3684441445
 10
14.5181504448
 20
-2.8077776529
 10
14.547613311
 20
-2.2466339542
 10
14.5705310984
 20
-1.6852596767
 10
14.5868991443
 20
-1.1237370299
 10
14.5967221115
 20
-0.5619838043
 10
14.6
 20
0.0
  0
LWPOLYLINE
  5
594
100
AcDbEntity
  8
ASSI
100
AcDbPolyline
 62
250
  6
CONTINUOUS
 90
10
 70
0
 10
15.5808780808
 20
-5.1627712262
 10
15.6374018795
 20
-4.5914048842
 10
15.6872864364
 20
-4.0194904503
 10
15.7305317517
 20
-3.4470279243
 10
15.7671419863
 20
-2.8740448186
 10
15.7971129791
 20
-2.300513621
 10
15.8204322472
 20
-1.726351794
 10
15.8370956295
 20
-1.1515318253
 10
15.8471072869
 20
-0.5760812273
 10
15.8504672196
 20
0.0
  0
LINE
  5
595
100
AcDbEntity
  8
ASSI
100
AcDbLine
 62
7
  6
CONTINUOUS
 10
14.3350020699
 20
-5.0473337491
 11
14.3905846328
 21
-4.4881810879
  0
LINE
  5
596
100
AcDbEntity
  8
ASSI
100
AcDbLine
 62
7
  6
CONTINUOUS
 10
15.9947741716
 20
-5.9096742683
 11
16.009877666
 21
-5.8127772494
  0
LINE
  5
597
100
AcDbEntity
  8
ASSI
100
AcDbLine
 62
7
  6
CONTINUOUS
 10
15.9723446744
 20
-6.0052702556
 11
15.9947741716
 21
-5.9096742683
  0
LWPOLYLINE
  5
598
100
AcDbEntity
  8
ASSI
100
AcDbPolyline
 62
250
  6
CONTINUOUS
 90
6
 70
0
 10
12.5238472155
 20
-7.5733053439
 10
12.5269495575
 20
-7.5651933322
 10
12.5294544095
 20
-7.557989138
 10
12.5313628118
 20
-7.5517190955
 10
12.5326760696
 20
-7.5464098834
 10
12.5333940372
 20
-7.5420908484
  0
LINE
  5
599
100
AcDbEntity
  8
ASSI
100
AcDbLine
 62
250
  6
CONTINUOUS
 10
12.5146933309
 20
-7.5941630681
 11
12.5238472155
 21
-7.5733053439
  0
LWPOLYLINE
  5
59A
100
AcDbEntity
  8
ASSI
100
AcDbPolyline
 62
7
  6
CONTINUOUS
 90
6
 70
0
 10
15.7711988334
 20
-6.4249171072
 10
15.8122154289
 20
-6.3647511584
 10
15.8624456821
 20
-6.2794561864
 10
15.9060391592
 20
-6.1906661606
 10
15.9427280362
 20
-6.099078474
 10
15.9723446744
 20
-6.0052702556
  0
LWPOLYLINE
  5
59B
100
AcDbEntity
  8
ASSI
100
AcDbPolyline
 62
7
  6
CONTINUOUS
 90
10
 70
0
 10
15.7937841917
 20
-5.8953651667
 10
15.8027699462
 20
-5.8842042119
 10
15.8115396615
 20
-5.8730612271
 10
15.8200932634
 20
-5.8619432792
 10
15.8284313175
 20
-5.8508575465
 10
15.8365555051
 20
-5.8398074967
 10
15.8444679095
 20
-5.8287940168
 10
15.8521697155
 20
-5.8178227074
 10
15.8596613588
 20
-5.8069040632
 10
15.8669433848
 20
-5.7960480373
  0
LWPOLYLINE
  5
59C
100
AcDbEntity
  8
ASSI
100
AcDbPolyline
 62
7
  6
CONTINUOUS
 90
6
 70
0
 10
15.3922139951
 20
-6.7737171981
 10
15.4716286876
 20
-6.7212081974
 10
15.5501635698
 20
-6.6607786753
 10
15.6240071984
 20
-6.5945448686
 10
15.6926406049
 20
-6.5228516336
 10
15.7555443241
 20
-6.4460523349
  0
LWPOLYLINE
  5
59D
100
AcDbEntity
  8
ASSI
100
AcDbPolyline
 62
7
  6
CONTINUOUS
 90
6
 70
0
 10
15.3922139951
 20
6.7737171981
 10
15.4716286876
 20
6.7212081974
 10
15.5501635698
 20
6.6607786753
 10
15.6240071984
 20
6.5945448686
 10
15.6926406049
 20
6.5228516336
 10
15.7555443241
 20
6.4460523349
  0
LWPOLYLINE
  5
59E
100
AcDbEntity
  8
ASSI
100
AcDbPolyline
 62
7
  6
CONTINUOUS
 90
10
 70
0
 10
15.7937841917
 20
5.8953651667
 10
15.8027699462
 20
5.8842042119
 10
15.8115396615
 20
5.8730612271
 10
15.8200932634
 20
5.8619432792
 10
15.8284313175
 20
5.8508575465
 10
15.8365555051
 20
5.8398074967
 10
15.8444679095
 20
5.8287940168
 10
15.8521697155
 20
5.8178227074
 10
15.8596613588
 20
5.8069040632
 10
15.8669433848
 20
5.7960480373
  0
LWPOLYLINE
  5
59F
100
AcDbEntity
  8
ASSI
100
AcDbPolyline
 62
7
  6
CONTINUOUS
 90
18
 70
0
 10
15.7712138615
 20
6.4248757249
 10
15.748840507
 20
6.4548469057
 10
15.7054177849
 20
6.5082823646
 10
15.6612255781
 20
6.5572381389
 10
15.6165506662
 20
6.6020940161
 10
15.5715853518
 20
6.643214327
 10
15.5261841874
 20
6.6811480653
 10
15.481072902
 20
6.7156649053
 10
15.4377846105
 20
6.7460981655
 10
15.3979480252
 20
6.7719700507
 10
15.3605569051
 20
6.7945241003
 10
15.3230854935
 20
6.8155488279
 10
15.2845172651
 20
6.835624782
 10
15.2459208273
 20
6.8542022406
 10
15.2077527872
 20
6.8711510391
 10
15.1700000361
 20
6.8865834158
 10
15.1327224012
 20
6.9005776933
 10
15.1032966796
 20
6.9107871921
  0
LWPOLYLINE
  5
5A0
100
AcDbEntity
  8
ASSI
100
AcDbPolyline
 62
7
  6
CONTINUOUS
 90
6
 70
0
 10
15.7711988334
 20
6.4249171072
 10
15.8122154289
 20
6.3647511584
 10
15.8624456821
 20
6.2794561864
 10
15.9060391592
 20
6.1906661606
 10
15.9427280362
 20
6.099078474
 10
15.9723446744
 20
6.0052702556
  0
LINE
  5
5A1
100
AcDbEntity
  8
ASSI
100
AcDbLine
 62
250
  6
CONTINUOUS
 10
12.5146933309
 20
7.5941630681
 11
12.5238472155
 21
7.5733053439
  0
LWPOLYLINE
  5
5A2
100
AcDbEntity
  8
ASSI
100
AcDbPolyline
 62
250
  6
CONTINUOUS
 90
6
 70
0
 10
12.5238472155
 20
7.5733053439
 10
12.5269495575
 20
7.5651933322
 10
12.5294544095
 20
7.557989138
 10
12.5313628118
 20
7.5517190955
 10
12.5326760696
 20
7.5464098834
 10
12.5333940372
 20
7.5420908484
  0
LINE
  5
5A3
100
AcDbEntity
  8
ASSI
100
AcDbLine
 62
7
  6
CONTINUOUS
 10
15.9723446744
 20
6.0052702556
 11
15.9947741716
 21
5.9096742683
  0
LINE
  5
5A4
100
AcDbEntity
  8
ASSI
100
AcDbLine
 62
7
  6
CONTINUOUS
 10
15.9947741716
 20
5.9096742683
 11
16.009877666
 21
5.8127772494
  0
ARC
  5
5A5
100
AcDbEntity
  8
ASSI
100
AcDbCircle
 62
7
  6
CONTINUOUS
 10
-33.6507493589
 20
-0.0000702805
 40
49.9998162811
100
AcDbArc
 50
6.0304067951
 51
6.6761734916
  0
ARC
  5
5A6
100
AcDbEntity
  8
ASSI
100
AcDbCircle
 62
7
  6
CONTINUOUS
 10
-14.7844512308
 20
-5.0750397545
 40
1.3000005915
100
AcDbArc
 50
185.9816678629
 51
261.9531205033
  0
ARC
  5
5A7
100
AcDbEntity
  8
ASSI
100
AcDbCircle
 62
7
  6
CONTINUOUS
 10
-33.6496083594
 20
-0.0000000375
 40
49.9999996673
100
AcDbArc
 50
354.0183317254
 51
5.9816682746
  0
ARC
  5
5A8
100
AcDbEntity
  8
ASSI
100
AcDbCircle
 62
7
  6
CONTINUOUS
 10
-33.6507493589
 20
0.0000702805
 40
49.9998162811
100
AcDbArc
 50
353.3238265084
 51
353.9695932049
  0
ARC
  5
5A9
100
AcDbEntity
  8
ASSI
100
AcDbCircle
 62
7
  6
CONTINUOUS
 10
-33.65
 20
0.0
 40
48.2
100
AcDbArc
 50
354.5781209657
 51
5.4218790343
  0
ARC
  5
5AA
100
AcDbEntity
  8
0
100
AcDbCircle
 62
7
  6
CONTINUOUS
 10
-33.65
 20
-0.0
 40
48.2
100
AcDbArc
 50
354.045742872
 51
354.5781209657
  0
ARC
  5
5AB
100
AcDbEntity
  8
0
100
AcDbCircle
 62
7
  6
CONTINUOUS
 10
-33.65
 20
-0.0
 40
48.2
100
AcDbArc
 50
5.4218790343
 51
5.954257128
  0
ARC
  5
5AC
100
AcDbEntity
  8
ASSI
100
AcDbCircle
 62
7
  6
CONTINUOUS
 10
-9.5
 20
0.0
 40
3.2867812715
100
AcDbArc
 50
90.0
 51
270.0
  0
ARC
  5
5AD
100
AcDbEntity
  8
ASSI
100
AcDbCircle
 62
7
  6
CONTINUOUS
 10
-9.5
 20
0.0
 40
3.275
100
AcDbArc
 50
90.0
 51
270.0
  0
ARC
  5
5AE
100
AcDbEntity
  8
RACCORDO
100
AcDbCircle
 62
7
  6
CONTINUOUS
 10
-9.5
 20
0.0
 40
3.25
100
AcDbArc
 50
90.0
 51
270.0
  0
ARC
  5
5AF
100
AcDbEntity
  8
RACCORDO
100
AcDbCircle
 62
250
  6
CONTINUOUS
 10
-9.5
 20
0.0
 40
3.0999177932
100
AcDbArc
 50
90.0
 51
270.0
  0
CIRCLE
  5
5B0
100
AcDbEntity
  8
0
100
AcDbCircle
 62
7
  6
CONTINUOUS
 10
-9.5
 20
0.0
 40
2.0
  0
ARC
  5
5B1
100
AcDbEntity
  8
ASSI
100
AcDbCircle
 62
7
  6
CONTINUOUS
 10
-14.7844512308
 20
5.0750397545
 40
1.3000005915
100
AcDbArc
 50
98.0468794967
 51
174.018332137
  0
ARC
  5
5B2
100
AcDbEntity
  8
ASSI
100
AcDbCircle
 62
7
  6
CONTINUOUS
 10
0.0003913075
 20
-91.5999999942
 40
100.0529958479
100
AcDbArc
 50
93.0638232379
 51
93.3011023995
  0
ARC
  5
5B3
100
AcDbEntity
  8
ASSI
100
AcDbCircle
 62
7
  6
CONTINUOUS
 10
0.0003913075
 20
-91.5999999845
 40
100.0529851945
100
AcDbArc
 50
93.8486034647
 51
94.2561066005
  0
ARC
  5
5B4
100
AcDbEntity
  8
ASSI
100
AcDbCircle
 62
7
  6
CONTINUOUS
 10
0.0003913075
 20
-91.599999986
 40
100.0529851315
100
AcDbArc
 50
93.3808949845
 51
93.5317189093
  0
ARC
  5
5B5
100
AcDbEntity
  8
ASSI
100
AcDbCircle
 62
7
  6
CONTINUOUS
 10
0.0003913075
 20
-91.600000002
 40
100.0525450016
100
AcDbArc
 50
94.799363069
 51
94.8235108522
  0
ARC
  5
5B6
100
AcDbEntity
  8
ASSI
100
AcDbCircle
 62
7
  6
CONTINUOUS
 10
0.0003913075
 20
-91.5999999706
 40
99.9999939485
100
AcDbArc
 50
84.8709095548
 51
95.1290904818
  0
ARC
  5
5B7
100
AcDbEntity
  8
ASSI
100
AcDbCircle
 62
7
  6
CONTINUOUS
 10
33.6515319639
 20
-0.0000702798
 40
49.9998163704
100
AcDbArc
 50
173.3238265086
 51
173.9829424606
  0
ARC
  5
5B8
100
AcDbEntity
  8
ASSI
100
AcDbCircle
 62
7
  6
CONTINUOUS
 10
9.3678804224
 20
-33.2439148176
 40
39.9999999698
100
AcDbArc
 50
81.9531204809
 51
86.9006295443
  0
ARC
  5
5B9
100
AcDbEntity
  8
ASSI
100
AcDbCircle
 62
7
  6
CONTINUOUS
 10
14.7852338459
 20
-5.0750397546
 40
1.3000005916
100
AcDbArc
 50
278.0468795014
 51
354.0183321407
  0
ARC
  5
5BA
100
AcDbEntity
  8
ASSI
100
AcDbCircle
 62
7
  6
CONTINUOUS
 10
0.0003913075
 20
91.5999999706
 40
99.9999939485
100
AcDbArc
 50
264.8709095182
 51
275.1290904452
  0
ARC
  5
5BB
100
AcDbEntity
  8
ASSI
100
AcDbCircle
 62
7
  6
CONTINUOUS
 10
33.6503909744
 20
-0.0000000375
 40
49.9999996673
100
AcDbArc
 50
174.0183317254
 51
185.9816682746
  0
ARC
  5
5BC
100
AcDbEntity
  8
ASSI
100
AcDbCircle
 62
7
  6
CONTINUOUS
 10
33.6515319639
 20
0.0000702798
 40
49.9998163704
100
AcDbArc
 50
186.0170575394
 51
186.6761734914
  0
ARC
  5
5BD
100
AcDbEntity
  8
ASSI
100
AcDbCircle
 62
7
  6
CONTINUOUS
 10
33.65
 20
-0.0
 40
48.2
100
AcDbArc
 50
174.5781209657
 51
185.4218790343
  0
ARC
  5
5BE
100
AcDbEntity
  8
0
100
AcDbCircle
 62
7
  6
CONTINUOUS
 10
33.65
 20
-0.0
 40
48.2
100
AcDbArc
 50
185.4218790343
 51
185.954257128
  0
ARC
  5
5BF
100
AcDbEntity
  8
0
100
AcDbCircle
 62
7
  6
CONTINUOUS
 10
33.65
 20
-0.0
 40
48.2
100
AcDbArc
 50
174.045742872
 51
174.5781209657
  0
ARC
  5
5C0
100
AcDbEntity
  8
ASSI
100
AcDbCircle
 62
7
  6
CONTINUOUS
 10
9.3678804224
 20
33.2439148176
 40
39.9999999698
100
AcDbArc
 50
273.0993704557
 51
278.0468795191
  0
ARC
  5
5C1
100
AcDbEntity
  8
ASSI
100
AcDbCircle
 62
7
  6
CONTINUOUS
 10
9.5
 20
0.0
 40
3.2867812715
100
AcDbArc
 50
270.0
 51
90.0
  0
ARC
  5
5C2
100
AcDbEntity
  8
ASSI
100
AcDbCircle
 62
7
  6
CONTINUOUS
 10
9.5
 20
0.0
 40
3.275
100
AcDbArc
 50
270.0
 51
90.0
  0
ARC
  5
5C3
100
AcDbEntity
  8
RACCORDO
100
AcDbCircle
 62
7
  6
CONTINUOUS
 10
9.5
 20
0.0
 40
3.25
100
AcDbArc
 50
270.0
 51
90.0
  0
ARC
  5
5C4
100
AcDbEntity
  8
RACCORDO
100
AcDbCircle
 62
250
  6
CONTINUOUS
 10
9.5
 20
0.0
 40
3.0999177932
100
AcDbArc
 50
270.0
 51
90.0
  0
CIRCLE
  5
5C5
100
AcDbEntity
  8
0
100
AcDbCircle
 62
7
  6
CONTINUOUS
 10
9.5
 20
0.0
 40
2.0
  0
ARC
  5
5C6
100
AcDbEntity
  8
ASSI
100
AcDbCircle
 62
7
  6
CONTINUOUS
 10
14.7852338459
 20
5.0750397546
 40
1.3000005916
100
AcDbArc
 50
5.9816678594
 51
81.9531204985
  0
ENDSEC
  0
SECTION
  2
OBJECTS
  0
DICTIONARY
  5
C
100
AcDbDictionary
280
0
281
1
  3
ACAD_GROUP
350
D
  3
ACAD_MLINESTYLE
350
17
  3
ACAD_LAYOUT
350
1A
  3
ACAD_PLOTSETTINGS
350
19
  3
ACAD_PLOTSTYLENAME
350
E
  0
DICTIONARY
  5
D
102
{ACAD_REACTORS
330
C
102
}
100
AcDbDictionary
280
0
281
1
  0
ACDBDICTIONARYWDFLT
  5
E
102
{ACAD_REACTORS
330
C
102
}
100
AcDbDictionary
281
1
  3
Normal
350
F
100
AcDbDictionaryWithDefault
340
F
  0
DICTIONARY
  5
17
102
{ACAD_REACTORS
330
C
102
}
100
AcDbDictionary
280
0
281
1
  3
Standard
350
18
  0
DICTIONARY
  5
19
102
{ACAD_REACTORS
330
C
102
}
100
AcDbDictionary
281
1
  0
DICTIONARY
  5
1A
102
{ACAD_REACTORS
330
C
102
}
100
AcDbDictionary
281
1
  3
Model
350
5C7
  3
Layout1
350
5C8
  0
ACDBPLACEHOLDER
  5
F
102
{ACAD_REACTORS
330
E
102
}
  0
MLINESTYLE
  5
18
102
{ACAD_REACTORS
330
17
102
}
100
AcDbMlineStyle
  2
STANDARD
 70
0
  3

 62
256
 51
90.0
 52
90.0
 71
2
 49
0.5
 62
256
  6
BYLAYER
 49
-0.5
 62
256
  6
BYLAYER
  0
LAYOUT
  5
5C7
102
{ACAD_REACTORS
330
1A
102
}
100
AcDbPlotSettings
  1

  2
none_device
  4
ANSI_C_(22.00_x_17.00_Inches)
  6

 40
0.0
 41
0.0
 42
0.0
 43
0.0
 44
558.8
 45
431.8
 46
0.0
 47
0.0
 48
0.0
 49
0.0
140
0.0
141
0.0
142
1.0
143
1.0
 70
1024
 72
1
 73
0
 74
0
  7

 75
0
147
1.0
148
0.0
149
0.0
100
AcDbLayout
  1
Model
 70
0
 71
0
 10
0.0
 20
0.0
 11
558.8
 21
431.8
 12
0.0
 22
0.0
 32
0.0
 14
0.0
 24
0.0
 34
0.0
 15
0.0
 25
0.0
 35
0.0
146
0.0
 13
0.0
 23
0.0
 33
0.0
 16
1.0
 26
0.0
 36
0.0
 17
0.0
 27
1.0
 37
0.0
 76
0
330
21F
345
0
346
0
  0
LAYOUT
  5
5C8
102
{ACAD_REACTORS
330
1A
102
}
100
AcDbPlotSettings
  1

  2
none_device
  4
ANSI_C_(22.00_x_17.00_Inches)
  6

 40
0.0
 41
0.0
 42
0.0
 43
0.0
 44
558.8
 45
431.8
 46
0.0
 47
0.0
 48
0.0
 49
0.0
140
0.0
141
0.0
142
1.0
143
1.0
 70
0
 72
1
 73
0
 74
0
  7

 75
0
147
1.0
148
0.0
149
0.0
100
AcDbLayout
  1
Layout1
 70
0
 71
1
 10
0.0
 20
0.0
 11
558.8
 21
431.8
 12
0.0
 22
0.0
 32
0.0
 14
0.0
 24
0.0
 34
0.0
 15
0.0
 25
0.0
 35
0.0
146
0.0
 13
0.0
 23
0.0
 33
0.0
 16
1.0
 26
0.0
 36
0.0
 17
0.0
 27
1.0
 37
0.0
 76
0
330
220
345
0
346
0
  0
ENDSEC
  0
EOF
