  0
SECTION
  2
HEADER
  9
$ACADVER
  1
AC1015
  9
$DWGCODEPAGE
  3
ANSI_1252
  9
$EXTMAX
 10
297.0
 20
210.0
 30
0.0
  9
$EXTMIN
 10
0.0
 20
0.0
 30
0.0
  9
$LIMMIN
 10
0.0
 20
0.0
  9
$LIMMAX
 10
297.0
 20
210.0
  9
$VIEWCTR
 10
148.5
 20
105.0
  9
$VIEWSIZE
 40
210.0
  9
$CLAYER
  8
0
  9
$LTSCALE
 40
16.335
  9
$CELTYPE
  6
BYLAYER
  9
$DIMSCALE
 40
1.0
  9
$DIMASZ
 40
3.0
  9
$DIMEXO
 40
0.5
  9
$DIMDLI
 40
11.286
  9
$DIMEXE
 40
1.5
  9
$DIMCEN
 40
2.673
  9
$DIMLFAC
 40
1.0
  9
$DIMBLK
  1
_FILLED
  9
$DIMTXT
 40
3.0
  9
$DIMTOL
 70
1
  9
$DIMLIM
 70
0
  9
$DIMTFAC
 40
1.0
  9
$DIMTP
 40
0.01
  9
$DIMTM
 40
0.01
  9
$DIMGAP
 40
0.625
  9
$DIMDSEP
 70
44
  9
$PDMODE
 70
3
  9
$PDSIZE
 40
3.0
  9
$HANDSEED
  5
423
  9
$TILEMODE
 70
1
  9
$MEASUREMENT
 70
1
  9
$INSUNITS
 70
4
  0
ENDSEC
  0
SECTION
  2
CLASSES
  0
CLASS
  1
ACDBDICTIONARYWDFLT
  2
AcDbDictionaryWithDefault
  3
AutoCAD 2000
 90
0
280
0
281
0
  0
CLASS
  1
ACDBPLACEHOLDER
  2
AcDbPlaceHolder
  3
AutoCAD 2000
 90
0
280
0
281
0
  0
CLASS
  1
LAYOUT
  2
AcDbLayout
  3
AutoCAD 2000
 90
0
280
0
281
0
  0
ENDSEC
  0
SECTION
  2
TABLES
  0
TABLE
  2
VPORT
  5
8
100
AcDbSymbolTable
 70
2
  0
VPORT
  5
1F4
100
AcDbSymbolTableRecord
100
AcDbViewportTableRecord
  2
*ACTIVE
 70
0
 10
0.0
 20
0.0
 11
1.0
 21
1.0
 12
148.5
 22
105.0
 13
0.0
 23
0.0
 14
1.0
 24
1.0
 15
0.0
 25
0.0
 16
0.0
 26
0.0
 36
1.0
 17
0.0
 27
0.0
 37
0.0
 40
210.0
 41
1.4142857143
 42
50.0
 43
0.0
 44
0.0
 50
0.0
 51
0.0
 71
0
 72
100
 73
1
 74
1
 75
0
 76
0
 77
0
 78
0
  0
ENDTAB
  0
TABLE
  2
LTYPE
  5
5
100
AcDbSymbolTable
 70
6
  0
LTYPE
  5
14
100
AcDbSymbolTableRecord
100
AcDbLinetypeTableRecord
  2
BYBLOCK
 70
0
  3

 72
65
 73
0
 40
0.0
  0
LTYPE
  5
15
100
AcDbSymbolTableRecord
100
AcDbLinetypeTableRecord
  2
BYLAYER
 70
0
  3

 72
65
 73
0
 40
0.0
  0
LTYPE
  5
16
100
AcDbSymbolTableRecord
100
AcDbLinetypeTableRecord
  2
CONTINUOUS
 70
64
  3
Solid line
 72
65
 73
0
 40
0.0
  0
LTYPE
  5
1F5
100
AcDbSymbolTableRecord
100
AcDbLinetypeTableRecord
  2
CENTER
 70
64
  3
____ _ ____ _ ____ _ ____ _ ____ _ ____ _ ____
 72
65
 73
4
 40
0.6
 49
0.375
 74
0
 49
-0.075
 74
0
 49
0.075
 74
0
 49
-0.075
 74
0
  0
LTYPE
  5
1F6
100
AcDbSymbolTableRecord
100
AcDbLinetypeTableRecord
  2
HIDDEN
 70
64
  3
- - - - - - - - - - - - - - - - - - - -
 72
65
 73
2
 40
0.2
 49
0.1
 74
0
 49
-0.1
 74
0
  0
LTYPE
  5
1F7
100
AcDbSymbolTableRecord
100
AcDbLinetypeTableRecord
  2
PHANTOM
 70
64
  3
_____ _ _ _____ _ _ _____ _ _ _____
 72
65
 73
6
 40
0.8
 49
0.45
 74
0
 49
-0.05
 74
0
 49
0.1
 74
0
 49
-0.05
 74
0
 49
0.1
 74
0
 49
-0.05
 74
0
  0
LTYPE
  5
1F8
100
AcDbSymbolTableRecord
100
AcDbLinetypeTableRecord
  2
DOT
 70
64
  3
. . . . . . . . . . . . . . . . . . . .
 72
65
 73
2
 40
0.2
 49
0.1
 74
0
 49
-0.1
 74
0
  0
LTYPE
  5
1F9
100
AcDbSymbolTableRecord
100
AcDbLinetypeTableRecord
  2
DASHED
 70
64
  3
- - - - - - - - - - - - - - - - - - - -
 72
65
 73
2
 40
0.2
 49
0.1
 74
0
 49
-0.1
 74
0
  0
ENDTAB
  0
TABLE
  2
LAYER
  5
2
100
AcDbSymbolTable
 70
36
  0
LAYER
  5
10
100
AcDbSymbolTableRecord
100
AcDbLayerTableRecord
  2
0
 70
0
 62
7
  6
CONTINUOUS
370
-3
390
F
  0
LAYER
  5
1FA
100
AcDbSymbolTableRecord
100
AcDbLayerTableRecord
  2
DEFAULT_1
 70
0
 62
7
  6
CENTER
370
-3
390
F
  0
LAYER
  5
1FB
100
AcDbSymbolTableRecord
100
AcDbLayerTableRecord
  2
DEFAULT_2
 70
0
 62
7
  6
HIDDEN
370
-3
390
F
  0
LAYER
  5
1FC
100
AcDbSymbolTableRecord
100
AcDbLayerTableRecord
  2
DEFAULT_3
 70
0
 62
7
  6
PHANTOM
370
-3
390
F
  0
LAYER
  5
1FD
100
AcDbSymbolTableRecord
100
AcDbLayerTableRecord
  2
ASSI
 70
0
 62
7
  6
CONTINUOUS
370
-3
390
F
  0
LAYER
  5
1FE
100
AcDbSymbolTableRecord
100
AcDbLayerTableRecord
  2
COLOR15
 70
0
 62
7
  6
CONTINUOUS
370
-3
390
F
  0
LAYER
  5
1FF
100
AcDbSymbolTableRecord
100
AcDbLayerTableRecord
  2
COLOR5
 70
0
 62
7
  6
CONTINUOUS
370
-3
390
F
  0
LAYER
  5
200
100
AcDbSymbolTableRecord
100
AcDbLayerTableRecord
  2
COORDINATE
 70
0
 62
7
  6
CONTINUOUS
370
-3
390
F
  0
LAYER
  5
201
100
AcDbSymbolTableRecord
100
AcDbLayerTableRecord
  2
COORD_ORIGINE
 70
0
 62
7
  6
CONTINUOUS
370
-3
390
F
  0
LAYER
  5
202
100
AcDbSymbolTableRecord
100
AcDbLayerTableRecord
  2
COSMETICHE
 70
0
 62
7
  6
CONTINUOUS
370
-3
390
F
  0
LAYER
  5
203
100
AcDbSymbolTableRecord
100
AcDbLayerTableRecord
  2
COSMETICI
 70
0
 62
7
  6
CONTINUOUS
370
-3
390
F
  0
LAYER
  5
204
100
AcDbSymbolTableRecord
100
AcDbLayerTableRecord
  2
CURVE
 70
0
 62
7
  6
CONTINUOUS
370
-3
390
F
  0
LAYER
  5
205
100
AcDbSymbolTableRecord
100
AcDbLayerTableRecord
  2
DRAFT
 70
0
 62
7
  6
CONTINUOUS
370
-3
390
F
  0
LAYER
  5
206
100
AcDbSymbolTableRecord
100
AcDbLayerTableRecord
  2
IMPORT_IGES
 70
0
 62
7
  6
CONTINUOUS
370
-3
390
F
  0
LAYER
  5
207
100
AcDbSymbolTableRecord
100
AcDbLayerTableRecord
  2
INTF_1
 70
0
 62
7
  6
CONTINUOUS
370
-3
390
F
  0
LAYER
  5
208
100
AcDbSymbolTableRecord
100
AcDbLayerTableRecord
  2
INTF_2
 70
0
 62
7
  6
CONTINUOUS
370
-3
390
F
  0
LAYER
  5
209
100
AcDbSymbolTableRecord
100
AcDbLayerTableRecord
  2
INTF_3
 70
0
 62
7
  6
CONTINUOUS
370
-3
390
F
  0
LAYER
  5
20A
100
AcDbSymbolTableRecord
100
AcDbLayerTableRecord
  2
INTF_5
 70
0
 62
7
  6
CONTINUOUS
370
-3
390
F
  0
LAYER
  5
20B
100
AcDbSymbolTableRecord
100
AcDbLayerTableRecord
  2
INTF_YELLOW
 70
0
 62
7
  6
CONTINUOUS
370
-3
390
F
  0
LAYER
  5
20C
100
AcDbSymbolTableRecord
100
AcDbLayerTableRecord
  2
NOTE
 70
0
 62
7
  6
CONTINUOUS
370
-3
390
F
  0
LAYER
  5
20D
100
AcDbSymbolTableRecord
100
AcDbLayerTableRecord
  2
PIANI
 70
0
 62
7
  6
CONTINUOUS
370
-3
390
F
  0
LAYER
  5
20E
100
AcDbSymbolTableRecord
100
AcDbLayerTableRecord
  2
PIANI_ORIGINE
 70
0
 62
7
  6
CONTINUOUS
370
-3
390
F
  0
LAYER
  5
20F
100
AcDbSymbolTableRecord
100
AcDbLayerTableRecord
  2
PUNTI
 70
0
 62
7
  6
CONTINUOUS
370
-3
390
F
  0
LAYER
  5
210
100
AcDbSymbolTableRecord
100
AcDbLayerTableRecord
  2
RACCORDO
 70
0
 62
7
  6
CONTINUOUS
370
-3
390
F
  0
LAYER
  5
211
100
AcDbSymbolTableRecord
100
AcDbLayerTableRecord
  2
RGB__255__255__255__
 70
0
 62
7
  6
CONTINUOUS
370
-3
390
F
  0
LAYER
  5
212
100
AcDbSymbolTableRecord
100
AcDbLayerTableRecord
  2
SIMBOLI
 70
0
 62
7
  6
CONTINUOUS
370
-3
390
F
  0
LAYER
  5
213
100
AcDbSymbolTableRecord
100
AcDbLayerTableRecord
  2
SMUSSO
 70
0
 62
7
  6
CONTINUOUS
370
-3
390
F
  0
LAYER
  5
214
100
AcDbSymbolTableRecord
100
AcDbLayerTableRecord
  2
SNAPLINE
 70
0
 62
7
  6
CONTINUOUS
370
-3
390
F
  0
LAYER
  5
215
100
AcDbSymbolTableRecord
100
AcDbLayerTableRecord
  2
SUPERFICI
 70
0
 62
7
  6
CONTINUOUS
370
-3
390
F
  0
LAYER
  5
216
100
AcDbSymbolTableRecord
100
AcDbLayerTableRecord
  2
TASSELLI
 70
0
 62
7
  6
CONTINUOUS
370
-3
390
F
  0
LAYER
  5
217
100
AcDbSymbolTableRecord
100
AcDbLayerTableRecord
  2
TRASH
 70
0
 62
7
  6
CONTINUOUS
370
-3
390
F
  0
LAYER
  5
218
100
AcDbSymbolTableRecord
100
AcDbLayerTableRecord
  2
VARIE
 70
0
 62
7
  6
CONTINUOUS
370
-3
390
F
  0
LAYER
  5
219
100
AcDbSymbolTableRecord
100
AcDbLayerTableRecord
  2
XSEC_DATUMS
 70
0
 62
7
  6
CONTINUOUS
370
-3
390
F
  0
ENDTAB
  0
TABLE
  2
STYLE
  5
3
100
AcDbSymbolTable
 70
1
  0
STYLE
  5
11
100
AcDbSymbolTableRecord
100
AcDbTextStyleTableRecord
  2
STANDARD
 70
0
 40
0.0
 41
0.8
 50
0.0
 71
0
 42
0.2
  3
txt
  4

  0
STYLE
  5
21A
100
AcDbSymbolTableRecord
100
AcDbTextStyleTableRecord
  2
TEXTSTYLE_1
 70
0
 40
0.0
 41
0.8
 50
0.0
 71
0
 42
0.2
  3
gdt
  4

  0
ENDTAB
  0
TABLE
  2
VIEW
  5
6
100
AcDbSymbolTable
 70
0
  0
ENDTAB
  0
TABLE
  2
UCS
  5
7
100
AcDbSymbolTable
 70
0
  0
ENDTAB
  0
TABLE
  2
APPID
  5
9
100
AcDbSymbolTable
 70
1
  0
APPID
  5
21B
100
AcDbSymbolTableRecord
100
AcDbRegAppTableRecord
  2
ACAD
 70
0
  0
ENDTAB
  0
TABLE
  2
BLOCK_RECORD
  5
1
100
AcDbSymbolTable
 70
0
  0
BLOCK_RECORD
  5
21C
100
AcDbSymbolTableRecord
100
AcDbBlockTableRecord
  2
*Model_Space
  0
BLOCK_RECORD
  5
21D
100
AcDbSymbolTableRecord
100
AcDbBlockTableRecord
  2
*Paper_Space
  0
ENDTAB
  0
TABLE
  2
DIMSTYLE
  5
A
100
AcDbSymbolTable
 70
1
100
AcDbDimStyleTable
 71
0
  0
DIMSTYLE
105
21E
100
AcDbSymbolTableRecord
100
AcDbDimStyleTableRecord
  2
STANDARD
 70
0
  3

  4

 40
1.0
 41
3.0
 42
0.5
 43
0.38
 44
1.5
 45
0.0
 46
0.0
 47
0.01
 48
0.01
140
3.0
141
0.09
142
0.0
143
25.4
144
1.0
145
0.0
146
1.0
147
0.625
 71
1.0
 72
0.0
 73
0
 74
0
 75
0
 76
0
 77
1
 78
8
170
0
171
2
172
0
173
0
174
0
175
0
176
0
177
0
178
0
270
2
271
2
272
2
273
2
274
2
275
0
280
0
281
0
282
0
283
1
284
8
285
0
286
0
287
3
288
0
340
11
278
44
  0
ENDTAB
  0
ENDSEC
  0
SECTION
  2
BLOCKS
  0
BLOCK
  5
20
100
AcDbEntity
  8
0
100
AcDbBlockBegin
  2
*Model_Space
 70
0
 10
0.0
 20
0.0
 30
0.0
  3
*Model_Space
  1

  0
ENDBLK
  5
21
100
AcDbEntity
  8
0
100
AcDbBlockEnd
  0
BLOCK
  5
1C
100
AcDbEntity
  8
0
100
AcDbBlockBegin
  2
*Paper_Space
 70
0
 10
0.0
 20
0.0
 30
0.0
  3
*Paper_Space
  1

  0
ENDBLK
  5
1D
100
AcDbEntity
  8
0
100
AcDbBlockEnd
  0
ENDSEC
  0
SECTION
  2
ENTITIES
  0
LINE
  5
21F
100
AcDbEntity
  8
0
100
AcDbLine
 62
7
  6
CONTINUOUS
 10
122.0542746474
 20
51.1145168935
 11
130.6542746474
 21
51.1145168935
  0
LWPOLYLINE
  5
220
100
AcDbEntity
  8
0
100
AcDbPolyline
 62
253
  6
CONTINUOUS
 90
13
 70
0
 10
132.4519698832
 20
54.2695415532
 10
132.433240009
 20
54.2673847855
 10
132.4149325552
 20
54.2628612031
 10
132.3973409894
 20
54.2560433188
 10
132.3807473038
 20
54.247040423
 10
132.3654174946
 20
54.2359968318
 10
132.3515972978
 20
54.2230895734
 10
132.3395082509
 20
54.2085255507
 10
132.3293441406
 20
54.1925382243
 10
132.3212678973
 20
54.1753838705
 10
132.3154089829
 20
54.1573374728
 10
132.3118613156
 20
54.1386883143
 10
132.3106817643
 20
54.1197353403
  0
LWPOLYLINE
  5
221
100
AcDbEntity
  8
0
100
AcDbPolyline
 62
253
  6
CONTINUOUS
 90
58
 70
0
 10
134.2758573706
 20
55.3216845256
 10
134.3087803149
 20
55.3250933044
 10
134.3426229478
 20
55.3288770233
 10
134.3773801725
 20
55.3330704967
 10
134.4130220973
 20
55.3377331632
 10
134.4495668025
 20
55.3428850877
 10
134.4870807028
 20
55.3485049402
 10
134.5255582928
 20
55.3545967492
 10
134.5649923112
 20
55.3612079635
 10
134.6054461763
 20
55.3683733804
 10
134.6468914174
 20
55.3761045821
 10
134.6893400005
 20
55.3844394751
 10
134.7329138119
 20
55.3934583325
 10
134.777605943
 20
55.4031865733
 10
134.8234003768
 20
55.4136558278
 10
134.8704019256
 20
55.4249635549
 10
134.9185868512
 20
55.4371364271
 10
134.9679476542
 20
55.4502101412
 10
135.0186088728
 20
55.4643048479
 10
135.0705487491
 20
55.4794737794
 10
135.1237458119
 20
55.4957578044
 10
135.1783190857
 20
55.5132753942
 10
135.234240034
 20
55.5320878929
 10
135.29147925
 20
55.5522530446
 10
135.3501473995
 20
55.5738975827
 10
135.4101800443
 20
55.5970785023
 10
135.4715652041
 20
55.6218806611
 10
135.5344819722
 20
55.6484909919
 10
135.5988729271
 20
55.6769777831
 10
135.6646920791
 20
55.7074326764
 10
135.7321203226
 20
55.7400987114
 10
135.8011176286
 20
55.7750780552
 10
135.8715819971
 20
55.8124570301
 10
135.9435826629
 20
55.8524773865
 10
136.0170822493
 20
55.8952685348
 10
136.0919317337
 20
55.9409132492
 10
136.1680177365
 20
55.989593381
 10
136.2451881269
 20
56.0413770926
 10
136.3233732707
 20
56.0964049185
 10
136.4025643414
 20
56.1549764726
 10
136.4824807508
 20
56.2170787206
 10
136.5631231351
 20
56.2829429074
 10
136.6448523356
 20
56.3532802085
 10
136.7274631323
 20
56.4282031273
 10
136.810746671
 20
56.5078907484
 10
136.894964665
 20
56.5932302908
 10
136.9800442057
 20
56.6845758084
 10
137.0654495693
 20
56.781923886
 10
137.1506770609
 20
56.8856482688
 10
137.236535926
 20
56.9974270479
 10
137.3214298392
 20
57.1159115459
 10
137.4016428073
 20
57.2365884412
 10
137.4774616454
 20
57.3601916515
 10
137.5487110157
 20
57.4855779547
 10
137.6118531863
 20
57.6048149097
 10
137.6662534941
 20
57.7148615474
 10
137.7136376703
 20
57.8179032732
 10
137.7545084271
 20
57.9136119245
  0
LINE
  5
222
100
AcDbEntity
  8
0
100
AcDbLine
 62
253
  6
CONTINUOUS
 10
134.1809057285
 20
55.3124601522
 11
134.2758573706
 21
55.3216845256
  0
LINE
  5
223
100
AcDbEntity
  8
0
100
AcDbLine
 62
253
  6
CONTINUOUS
 10
134.005405427
 20
55.2964761863
 11
134.1809057285
 21
55.3124601522
  0
LINE
  5
224
100
AcDbEntity
  8
0
100
AcDbLine
 62
253
  6
CONTINUOUS
 10
133.7599111113
 20
55.2757910875
 11
134.005405427
 21
55.2964761863
  0
LINE
  5
225
100
AcDbEntity
  8
0
100
AcDbLine
 62
253
  6
CONTINUOUS
 10
133.4364427069
 20
55.2499170193
 11
133.7599111113
 21
55.2757910875
  0
LINE
  5
226
100
AcDbEntity
  8
0
100
AcDbLine
 62
253
  6
CONTINUOUS
 10
132.9859345556
 20
55.2159710941
 11
133.4364427069
 21
55.2499170193
  0
LINE
  5
227
100
AcDbEntity
  8
0
100
AcDbLine
 62
253
  6
CONTINUOUS
 10
132.493746622
 20
55.1810543553
 11
132.9859345556
 21
55.2159710941
  0
LWPOLYLINE
  5
228
100
AcDbEntity
  8
0
100
AcDbPolyline
 62
253
  6
CONTINUOUS
 90
58
 70
0
 10
134.2955231768
 20
54.6417262404
 10
134.3349309959
 20
54.6444299333
 10
134.3752796949
 20
54.6475420425
 10
134.4165644319
 20
54.6510870763
 10
134.4587095579
 20
54.6550833412
 10
134.5017797017
 20
54.6595618423
 10
134.5459791113
 20
54.6645727076
 10
134.5913065428
 20
54.6701489421
 10
134.6377472993
 20
54.6763236165
 10
134.6854830166
 20
54.6831595676
 10
134.7345141669
 20
54.6906992187
 10
134.7848175127
 20
54.6989829987
 10
134.836535956
 20
54.708082978
 10
134.8896551472
 20
54.7180482661
 10
134.9441577223
 20
54.7289290568
 10
135.0001779985
 20
54.7408112511
 10
135.0576986603
 20
54.7537538115
 10
135.1166933553
 20
54.7678154856
 10
135.1772776177
 20
54.7830946466
 10
135.2394224139
 20
54.7996589449
 10
135.3030977207
 20
54.8175774477
 10
135.3684109497
 20
54.8369641199
 10
135.4353069668
 20
54.8578913536
 10
135.5037622018
 20
54.8804434216
 10
135.573922195
 20
54.904768913
 10
135.6456966902
 20
54.9309439719
 10
135.7190705292
 20
54.9590744597
 10
135.7942870913
 20
54.9893796418
 10
135.8712638287
 20
55.0219645623
 10
135.9499372959
 20
55.0569464702
 10
136.0305570965
 20
55.0945987565
 10
136.1130609643
 20
55.1350723545
 10
136.1973083359
 20
55.178486182
 10
136.2834046622
 20
55.2250993611
 10
136.3712740421
 20
55.2750933659
 10
136.4607224452
 20
55.328590547
 10
136.5516541132
 20
55.3857791151
 10
136.6438488955
 20
55.4467741503
 10
136.7371919869
 20
55.5117649735
 10
136.8317149647
 20
55.581068973
 10
136.9270258753
 20
55.6547065013
 10
137.0230893884
 20
55.7329736591
 10
137.1203914911
 20
55.8166712456
 10
137.2185926669
 20
55.9059792547
 10
137.3173982793
 20
56.0011317233
 10
137.417214151
 20
56.1031286179
 10
137.5177930718
 20
56.2124513972
 10
137.6184362733
 20
56.3291311877
 10
137.7187417193
 20
56.4535541256
 10
137.81948228
 20
56.5877922147
 10
137.9185781749
 20
56.7302852239
 10
138.0118765459
 20
56.8755316434
 10
138.0999548139
 20
57.0243833249
 10
138.1820860849
 20
57.1755332738
 10
138.2537642473
 20
57.3192935396
 10
138.3145418225
 20
57.4517917831
 10
138.366918589
 20
57.5755557451
 10
138.411743509
 20
57.690107218
  0
LINE
  5
229
100
AcDbEntity
  8
0
100
AcDbLine
 62
253
  6
CONTINUOUS
 10
132.0542207067
 20
55.1519279534
 11
132.493746622
 21
55.1810543553
  0
LINE
  5
22A
100
AcDbEntity
  8
0
100
AcDbLine
 62
253
  6
CONTINUOUS
 10
131.6549155449
 20
55.1271773843
 11
132.0542207067
 21
55.1519279534
  0
LINE
  5
22B
100
AcDbEntity
  8
0
100
AcDbLine
 62
253
  6
CONTINUOUS
 10
133.6258318296
 20
54.6002226817
 11
134.2955231768
 21
54.6417262405
  0
LINE
  5
22C
100
AcDbEntity
  8
0
100
AcDbLine
 62
253
  6
CONTINUOUS
 10
131.3012280855
 20
55.106619472
 11
131.6549155449
 21
55.1271773843
  0
LINE
  5
22D
100
AcDbEntity
  8
0
100
AcDbLine
 62
253
  6
CONTINUOUS
 10
133.0621442064
 20
54.5679994317
 11
133.6258318296
 21
54.6002226817
  0
LINE
  5
22E
100
AcDbEntity
  8
0
100
AcDbLine
 62
253
  6
CONTINUOUS
 10
131.0032052095
 20
55.0902962193
 11
131.3012280855
 21
55.106619472
  0
LINE
  5
22F
100
AcDbEntity
  8
0
100
AcDbLine
 62
253
  6
CONTINUOUS
 10
132.3106818226
 20
54.1197353403
 11
132.3542746474
 21
54.1220171279
  0
LINE
  5
230
100
AcDbEntity
  8
0
100
AcDbLine
 62
253
  6
CONTINUOUS
 10
132.5154371321
 20
54.5392770964
 11
133.0621442064
 21
54.5679994317
  0
LINE
  5
231
100
AcDbEntity
  8
0
100
AcDbLine
 62
253
  6
CONTINUOUS
 10
130.6698641253
 20
55.0731266224
 11
131.0032052095
 21
55.0902962193
  0
LINE
  5
232
100
AcDbEntity
  8
0
100
AcDbLine
 62
253
  6
CONTINUOUS
 10
130.4263845767
 20
55.0613162424
 11
130.6698641253
 21
55.0731266224
  0
LINE
  5
233
100
AcDbEntity
  8
0
100
AcDbLine
 62
253
  6
CONTINUOUS
 10
131.9961454971
 20
54.5142777969
 11
132.5154371321
 21
54.5392770964
  0
LINE
  5
234
100
AcDbEntity
  8
0
100
AcDbLine
 62
253
  6
CONTINUOUS
 10
130.1656077755
 20
55.0493537876
 11
130.4263845767
 21
55.0613162424
  0
LINE
  5
235
100
AcDbEntity
  8
0
100
AcDbLine
 62
253
  6
CONTINUOUS
 10
131.5003875421
 20
54.4924872724
 11
131.9961454971
 21
54.5142777969
  0
LINE
  5
236
100
AcDbEntity
  8
0
100
AcDbLine
 62
253
  6
CONTINUOUS
 10
129.8876179747
 20
55.0373865067
 11
130.1656077755
 21
55.0493537876
  0
LINE
  5
237
100
AcDbEntity
  8
0
100
AcDbLine
 62
253
  6
CONTINUOUS
 10
129.5923921601
 20
55.0255679661
 11
129.8876179747
 21
55.0373865067
  0
LINE
  5
238
100
AcDbEntity
  8
0
100
AcDbLine
 62
253
  6
CONTINUOUS
 10
131.1216117169
 20
54.477204398
 11
131.5003875421
 21
54.4924872724
  0
LINE
  5
239
100
AcDbEntity
  8
0
100
AcDbLine
 62
253
  6
CONTINUOUS
 10
129.2798776023
 20
55.0140591687
 11
129.5923921601
 21
55.0255679661
  0
LINE
  5
23A
100
AcDbEntity
  8
0
100
AcDbLine
 62
253
  6
CONTINUOUS
 10
130.6837256665
 20
54.4610088967
 11
131.1216117169
 21
54.477204398
  0
LINE
  5
23B
100
AcDbEntity
  8
0
100
AcDbLine
 62
253
  6
CONTINUOUS
 10
130.3106295599
 20
54.4484535822
 11
130.6837256665
 21
54.4610088967
  0
LINE
  5
23C
100
AcDbEntity
  8
0
100
AcDbLine
 62
253
  6
CONTINUOUS
 10
130.0402740583
 20
54.4400700982
 11
130.3106295599
 21
54.4484535822
  0
LINE
  5
23D
100
AcDbEntity
  8
0
100
AcDbLine
 62
253
  6
CONTINUOUS
 10
129.7526527276
 20
54.4318104113
 11
130.0402740583
 21
54.4400700982
  0
LINE
  5
23E
100
AcDbEntity
  8
0
100
AcDbLine
 62
253
  6
CONTINUOUS
 10
129.4477602483
 20
54.4237961553
 11
129.7526527276
 21
54.4318104113
  0
LWPOLYLINE
  5
23F
100
AcDbEntity
  8
0
100
AcDbPolyline
 62
7
  6
CONTINUOUS
 90
3
 70
0
 10
132.4039378054
 20
54.2679765607
 10
132.429928692
 20
54.2686418921
 10
132.4519752899
 20
54.2695418346
  0
LINE
  5
240
100
AcDbEntity
  8
0
100
AcDbLine
 62
253
  6
CONTINUOUS
 10
129.1254586347
 20
54.4161530916
 11
129.4477602483
 21
54.4237961553
  0
LINE
  5
241
100
AcDbEntity
  8
0
100
AcDbLine
 62
253
  6
CONTINUOUS
 10
122.3834517035
 20
54.1582042508
 11
122.7166537129
 21
54.1658654945
  0
LINE
  5
242
100
AcDbEntity
  8
0
100
AcDbLine
 62
253
  6
CONTINUOUS
 10
120.9130487375
 20
54.122570725
 11
122.3834517035
 21
54.1582042508
  0
LINE
  5
243
100
AcDbEntity
  8
0
100
AcDbLine
 62
7
  6
CONTINUOUS
 10
122.4539851925
 20
54.3115138078
 11
122.8188340683
 21
54.3194096903
  0
LINE
  5
244
100
AcDbEntity
  8
0
100
AcDbLine
 62
253
  6
CONTINUOUS
 10
122.7166537129
 20
54.1658654945
 11
123.0972786957
 21
54.1739493967
  0
LINE
  5
245
100
AcDbEntity
  8
0
100
AcDbLine
 62
253
  6
CONTINUOUS
 10
128.7856601608
 20
54.4090179
 11
129.1254586347
 21
54.4161530916
  0
LINE
  5
246
100
AcDbEntity
  8
0
100
AcDbLine
 62
7
  6
CONTINUOUS
 10
120.7839273893
 20
54.2723368917
 11
122.4539851925
 21
54.3115138078
  0
LINE
  5
247
100
AcDbEntity
  8
0
100
AcDbLine
 62
7
  6
CONTINUOUS
 10
122.8188340683
 20
54.3194096903
 11
123.2337407117
 21
54.3276374211
  0
LINE
  5
248
100
AcDbEntity
  8
0
100
AcDbLine
 62
253
  6
CONTINUOUS
 10
123.0972786957
 20
54.1739493967
 11
123.526859958
 21
54.182207718
  0
LINE
  5
249
100
AcDbEntity
  8
0
100
AcDbLine
 62
253
  6
CONTINUOUS
 10
128.428258748
 20
54.4025343745
 11
128.7856601608
 21
54.4090179
  0
LWPOLYLINE
  5
24A
100
AcDbEntity
  8
0
100
AcDbPolyline
 62
7
  6
CONTINUOUS
 90
20
 70
0
 10
123.2337407117
 20
54.3276374211
 10
123.6989295309
 20
54.335694668
 10
123.9504854096
 20
54.3396476015
 10
124.2113783243
 20
54.3433080697
 10
124.482649838
 20
54.3466320181
 10
124.7632617606
 20
54.3496888608
 10
125.0471232037
 20
54.3523050474
 10
125.333323655
 20
54.3543864863
 10
125.6227852856
 20
54.3559843173
 10
125.9121695001
 20
54.3570768432
 10
126.2003371549
 20
54.3576354033
 10
126.4884416645
 20
54.3576531364
 10
126.7765838625
 20
54.3571309912
 10
127.0658222564
 20
54.3560776451
 10
127.3551125922
 20
54.3545177351
 10
127.6414010283
 20
54.3524683217
 10
127.9257026689
 20
54.349882045
 10
128.2070142563
 20
54.3468524726
 10
128.4792512837
 20
54.3435449889
 10
128.7414541142
 20
54.3398898934
  0
LINE
  5
24B
100
AcDbEntity
  8
0
100
AcDbLine
 62
253
  6
CONTINUOUS
 10
120.7318948421
 20
54.1192897595
 11
120.9130487375
 21
54.122570725
  0
LWPOLYLINE
  5
24C
100
AcDbEntity
  8
0
100
AcDbPolyline
 62
253
  6
CONTINUOUS
 90
19
 70
0
 10
123.526859958
 20
54.182207718
 10
124.0060128567
 20
54.1901937494
 10
124.2611260138
 20
54.1938572636
 10
124.5260524212
 20
54.1972194326
 10
124.7998458181
 20
54.2002909669
 10
125.077475402
 20
54.2028910954
 10
125.3572209577
 20
54.2049778628
 10
125.6395396944
 20
54.2065932245
 10
125.9224336971
 20
54.2076822757
 10
126.2041258456
 20
54.2082266841
 10
126.4851072393
 20
54.208244782
 10
126.7667724868
 20
54.207736662
 10
127.0495187903
 20
54.206685404
 10
127.3316679745
 20
54.2051079281
 10
127.6115071689
 20
54.2030550881
 10
127.8895640076
 20
54.2004850775
 10
128.1640315188
 20
54.1974397029
 10
128.429913344
 20
54.1940952375
 10
128.6863176696
 20
54.1904386837
  0
LINE
  5
24D
100
AcDbEntity
  8
0
100
AcDbLine
 62
7
  6
CONTINUOUS
 10
120.5984836353
 20
54.269075366
 11
120.7839273893
 21
54.2723368917
  0
LINE
  5
24E
100
AcDbEntity
  8
0
100
AcDbLine
 62
253
  6
CONTINUOUS
 10
128.0529937998
 20
54.3968526845
 11
128.428258748
 21
54.4025343745
  0
LINE
  5
24F
100
AcDbEntity
  8
0
100
AcDbLine
 62
253
  6
CONTINUOUS
 10
120.6310361402
 20
54.1179973512
 11
120.7318948421
 21
54.1192897595
  0
LINE
  5
250
100
AcDbEntity
  8
0
100
AcDbLine
 62
7
  6
CONTINUOUS
 10
120.4951875183
 20
54.2677977481
 11
120.5984836353
 21
54.269075366
  0
LWPOLYLINE
  5
251
100
AcDbEntity
  8
0
100
AcDbPolyline
 62
253
  6
CONTINUOUS
 90
15
 70
0
 10
126.3542746474
 20
54.9568183183
 10
126.5849237986
 20
54.9579998019
 10
126.8100699931
 20
54.9597020437
 10
127.0297119712
 20
54.9618864852
 10
127.2436501559
 20
54.9645145128
 10
127.4520824662
 20
54.9675495923
 10
127.6556042614
 20
54.9709615747
 10
127.8542805242
 20
54.974720376
 10
128.0480459386
 20
54.9787949369
 10
128.2373006508
 20
54.9831610538
 10
128.4221430914
 20
54.9877945213
 10
128.6024754492
 20
54.9926674321
 10
128.7784037585
 20
54.9977540432
 10
128.9499487449
 20
55.003030789
 10
129.2798776023
 20
55.0140591687
  0
LWPOLYLINE
  5
252
100
AcDbEntity
  8
0
100
AcDbPolyline
 62
253
  6
CONTINUOUS
 90
7
 70
0
 10
126.5855718177
 20
54.3857048658
 10
126.8113565588
 20
54.3862730254
 10
127.0316281782
 20
54.3872299299
 10
127.2461868436
 20
54.3885431781
 10
127.4552313326
 20
54.3901843933
 10
127.6593589895
 20
54.3921327034
 10
128.0529937998
 20
54.3968526845
  0
LWPOLYLINE
  5
253
100
AcDbEntity
  8
0
100
AcDbPolyline
 62
7
  6
CONTINUOUS
 90
4
 70
0
 10
132.3022906343
 20
54.2672634428
 10
132.3401177391
 20
54.2672991528
 10
132.3740035875
 20
54.2675336167
 10
132.4039378054
 20
54.2679765607
  0
LWPOLYLINE
  5
254
100
AcDbEntity
  8
0
100
AcDbPolyline
 62
253
  6
CONTINUOUS
 90
6
 70
0
 10
132.1644179937
 20
54.1174602492
 10
132.2013224853
 20
54.1174876473
 10
132.2344917683
 20
54.117726971
 10
132.2638710461
 20
54.1181845018
 10
132.2893004737
 20
54.1188539583
 10
132.3106818226
 20
54.1197353403
  0
LINE
  5
255
100
AcDbEntity
  8
0
100
AcDbLine
 62
253
  6
CONTINUOUS
 10
131.4542746474
 20
51.9145168935
 11
121.2542746474
 21
51.9145168935
  0
LINE
  5
256
100
AcDbEntity
  8
0
100
AcDbLine
 62
253
  6
CONTINUOUS
 10
121.2542746474
 20
52.4645168935
 11
131.4542746474
 21
52.4645168935
  0
LINE
  5
257
100
AcDbEntity
  8
0
100
AcDbLine
 62
253
  6
CONTINUOUS
 10
121.1121693842
 20
52.6143089932
 11
131.5963799105
 21
52.6143089932
  0
LINE
  5
258
100
AcDbEntity
  8
0
100
AcDbLine
 62
253
  6
CONTINUOUS
 10
132.3542746474
 20
53.4132001916
 11
120.3542746474
 21
53.4132001916
  0
LINE
  5
259
100
AcDbEntity
  8
0
100
AcDbLine
 62
7
  6
CONTINUOUS
 10
132.2149601025
 20
54.2677820035
 11
132.3022906343
 21
54.2672634428
  0
LINE
  5
25A
100
AcDbEntity
  8
0
100
AcDbLine
 62
253
  6
CONTINUOUS
 10
132.0790830314
 20
54.1179823914
 11
132.1644179937
 21
54.1174602492
  0
LWPOLYLINE
  5
25B
100
AcDbEntity
  8
0
100
AcDbPolyline
 62
253
  6
CONTINUOUS
 90
7
 70
0
 10
125.0406559626
 20
54.3922215831
 10
125.2452981206
 20
54.3902544639
 10
125.45542462
 20
54.3885919203
 10
125.6713541467
 20
54.3872592352
 10
125.8931925856
 20
54.3862867972
 10
126.1208329882
 20
54.3857082346
 10
126.5855718177
 20
54.3857048658
  0
LINE
  5
25C
100
AcDbEntity
  8
0
100
AcDbLine
 62
253
  6
CONTINUOUS
 10
124.6481194307
 20
54.3969540783
 11
125.0406559626
 21
54.3922215831
  0
LINE
  5
25D
100
AcDbEntity
  8
0
100
AcDbLine
 62
7
  6
CONTINUOUS
 10
132.1118949729
 20
54.2690484019
 11
132.2149601025
 21
54.2677820035
  0
LINE
  5
25E
100
AcDbEntity
  8
0
100
AcDbLine
 62
253
  6
CONTINUOUS
 10
131.9784410941
 20
54.1192626205
 11
132.0790830314
 21
54.1179823914
  0
LWPOLYLINE
  5
25F
100
AcDbEntity
  8
0
100
AcDbPolyline
 62
7
  6
CONTINUOUS
 90
5
 70
0
 10
120.3051315382
 20
54.2679653783
 10
120.3353112676
 20
54.2675255179
 10
120.369440083
 20
54.2672960547
 10
120.4075001371
 20
54.2672656421
 10
120.4951875183
 20
54.2677977481
  0
LINE
  5
260
100
AcDbEntity
  8
0
100
AcDbLine
 62
253
  6
CONTINUOUS
 10
124.2751169795
 20
54.4026207816
 11
124.6481194307
 21
54.3969540783
  0
LWPOLYLINE
  5
261
100
AcDbEntity
  8
0
100
AcDbPolyline
 62
7
  6
CONTINUOUS
 90
3
 70
0
 10
128.7414541142
 20
54.3398898934
 10
129.2354421859
 20
54.3319415569
 10
129.4629848241
 20
54.327857904
  0
LINE
  5
262
100
AcDbEntity
  8
0
100
AcDbLine
 62
253
  6
CONTINUOUS
 10
128.6863176696
 20
54.1904386837
 11
129.1685753592
 21
54.1824435706
  0
LINE
  5
263
100
AcDbEntity
  8
0
100
AcDbLine
 62
253
  6
CONTINUOUS
 10
123.9205134921
 20
54.4090644987
 11
124.2751169795
 21
54.4026207816
  0
LINE
  5
264
100
AcDbEntity
  8
0
100
AcDbLine
 62
7
  6
CONTINUOUS
 10
131.9266890231
 20
54.2722960301
 11
132.1118949729
 21
54.2690484019
  0
LINE
  5
265
100
AcDbEntity
  8
0
100
AcDbLine
 62
253
  6
CONTINUOUS
 10
131.7975194244
 20
54.122529647
 11
131.9784410941
 21
54.1192626205
  0
LINE
  5
266
100
AcDbEntity
  8
0
100
AcDbLine
 62
253
  6
CONTINUOUS
 10
129.1685753592
 20
54.1824435706
 11
129.6013130306
 21
54.1741515242
  0
LINE
  5
267
100
AcDbEntity
  8
0
100
AcDbLine
 62
7
  6
CONTINUOUS
 10
129.4629848241
 20
54.327857904
 11
129.8811313917
 21
54.3195877689
  0
LINE
  5
268
100
AcDbEntity
  8
0
100
AcDbLine
 62
253
  6
CONTINUOUS
 10
129.6013130306
 20
54.1741515242
 11
129.9850529088
 21
54.1660177378
  0
LINE
  5
269
100
AcDbEntity
  8
0
100
AcDbLine
 62
253
  6
CONTINUOUS
 10
123.5831138575
 20
54.4161525766
 11
123.9205134921
 21
54.4090644987
  0
LINE
  5
26A
100
AcDbEntity
  8
0
100
AcDbLine
 62
7
  6
CONTINUOUS
 10
129.8811313917
 20
54.3195877689
 11
130.2491046921
 21
54.3116350435
  0
LINE
  5
26B
100
AcDbEntity
  8
0
100
AcDbLine
 62
253
  6
CONTINUOUS
 10
129.9850529088
 20
54.1660177378
 11
130.471874439
 21
54.1547141512
  0
LINE
  5
26C
100
AcDbEntity
  8
0
100
AcDbLine
 62
7
  6
CONTINUOUS
 10
131.4639562775
 20
54.2826794262
 11
131.9266890231
 21
54.2722960301
  0
LINE
  5
26D
100
AcDbEntity
  8
0
100
AcDbLine
 62
7
  6
CONTINUOUS
 10
130.2491046921
 20
54.3116350435
 11
130.7126491475
 21
54.3009197133
  0
LINE
  5
26E
100
AcDbEntity
  8
0
100
AcDbLine
 62
253
  6
CONTINUOUS
 10
123.2628207607
 20
54.4237453021
 11
123.5831138575
 21
54.4161525766
  0
LINE
  5
26F
100
AcDbEntity
  8
0
100
AcDbLine
 62
253
  6
CONTINUOUS
 10
131.3455075112
 20
54.1329649081
 11
131.7975194244
 21
54.122529647
  0
LINE
  5
270
100
AcDbEntity
  8
0
100
AcDbLine
 62
7
  6
CONTINUOUS
 10
130.7126491475
 20
54.3009197133
 11
131.4639562775
 21
54.2826794262
  0
LINE
  5
271
100
AcDbEntity
  8
0
100
AcDbLine
 62
253
  6
CONTINUOUS
 10
130.471874439
 20
54.1547141512
 11
131.3455075112
 21
54.1329649081
  0
LINE
  5
272
100
AcDbEntity
  8
0
100
AcDbLine
 62
253
  6
CONTINUOUS
 10
122.9595542572
 20
54.4317097438
 11
123.2628207607
 21
54.4237453021
  0
LWPOLYLINE
  5
273
100
AcDbEntity
  8
0
100
AcDbPolyline
 62
253
  6
CONTINUOUS
 90
12
 70
0
 10
124.1023186798
 20
54.9927725424
 10
124.2812254607
 20
54.9879296332
 10
124.4648517142
 20
54.9833153292
 10
124.6530706301
 20
54.9789591612
 10
124.8460098381
 20
54.974885735
 10
125.044427218
 20
54.9711140701
 10
125.2484719917
 20
54.9676752927
 10
125.4579950649
 20
54.9646075211
 10
125.6733066112
 20
54.961948245
 10
125.8945094765
 20
54.9597370689
 10
126.121499234
 20
54.9580134672
 10
126.3542746474
 20
54.9568183183
  0
LINE
  5
274
100
AcDbEntity
  8
0
100
AcDbLine
 62
253
  6
CONTINUOUS
 10
122.6734046789
 20
54.4399168498
 11
122.9595542572
 21
54.4317097438
  0
LINE
  5
275
100
AcDbEntity
  8
0
100
AcDbLine
 62
253
  6
CONTINUOUS
 10
123.7574372567
 20
55.003067651
 11
124.1023186798
 21
54.9927725424
  0
LINE
  5
276
100
AcDbEntity
  8
0
100
AcDbLine
 62
253
  6
CONTINUOUS
 10
122.2760016325
 20
54.4524303341
 11
122.6734046789
 21
54.4399168498
  0
LINE
  5
277
100
AcDbEntity
  8
0
100
AcDbLine
 62
253
  6
CONTINUOUS
 10
123.4297409531
 20
55.0140215658
 11
123.7574372567
 21
55.003067651
  0
LINE
  5
278
100
AcDbEntity
  8
0
100
AcDbLine
 62
253
  6
CONTINUOUS
 10
121.9154617835
 20
54.4649058135
 11
122.2760016325
 21
54.4524303341
  0
LINE
  5
279
100
AcDbEntity
  8
0
100
AcDbLine
 62
253
  6
CONTINUOUS
 10
123.1190013274
 20
55.0254585708
 11
123.4297409531
 21
55.0140215658
  0
LINE
  5
27A
100
AcDbEntity
  8
0
100
AcDbLine
 62
253
  6
CONTINUOUS
 10
121.4871453335
 20
54.4811161518
 11
121.9154617835
 21
54.4649058135
  0
LWPOLYLINE
  5
27B
100
AcDbEntity
  8
0
100
AcDbPolyline
 62
7
  6
CONTINUOUS
 90
3
 70
0
 10
120.2565738431
 20
54.2695418428
 10
120.2788853692
 20
54.2686326348
 10
120.3051315382
 20
54.2679653783
  0
LINE
  5
27C
100
AcDbEntity
  8
0
100
AcDbLine
 62
253
  6
CONTINUOUS
 10
122.8253194699
 20
55.037204121
 11
123.1190013274
 21
55.0254585708
  0
LWPOLYLINE
  5
27D
100
AcDbEntity
  8
0
100
AcDbPolyline
 62
253
  6
CONTINUOUS
 90
7
 70
0
 10
120.3978674722
 20
54.1197353403
 10
120.4194717797
 20
54.1188484986
 10
120.4451579304
 20
54.1181763524
 10
120.4748055932
 20
54.1177189017
 10
120.5082245238
 20
54.1174832963
 10
120.5453454953
 20
54.1174623863
 10
120.6310361402
 20
54.1179973512
  0
LINE
  5
27E
100
AcDbEntity
  8
0
100
AcDbLine
 62
253
  6
CONTINUOUS
 10
121.0235417296
 20
54.5003650533
 11
121.4871453335
 21
54.4811161518
  0
LINE
  5
27F
100
AcDbEntity
  8
0
100
AcDbLine
 62
253
  6
CONTINUOUS
 10
122.5486469076
 20
55.0491000346
 11
122.8253194699
 21
55.037204121
  0
LINE
  5
280
100
AcDbEntity
  8
0
100
AcDbLine
 62
253
  6
CONTINUOUS
 10
122.2889149524
 20
55.0609976302
 11
122.5486469076
 21
55.0491000346
  0
LINE
  5
281
100
AcDbEntity
  8
0
100
AcDbLine
 62
253
  6
CONTINUOUS
 10
120.4706348041
 20
54.5256401452
 11
121.0235417296
 21
54.5003650533
  0
LINE
  5
282
100
AcDbEntity
  8
0
100
AcDbLine
 62
253
  6
CONTINUOUS
 10
121.9297321731
 20
55.0786115095
 11
122.2889149524
 21
55.0609976302
  0
LINE
  5
283
100
AcDbEntity
  8
0
100
AcDbLine
 62
253
  6
CONTINUOUS
 10
119.9254295528
 20
54.5530321024
 11
120.4706348041
 21
54.5256401452
  0
LINE
  5
284
100
AcDbEntity
  8
0
100
AcDbLine
 62
253
  6
CONTINUOUS
 10
120.3542746474
 20
54.1220171279
 11
120.3978674722
 21
54.1197353403
  0
LINE
  5
285
100
AcDbEntity
  8
0
100
AcDbLine
 62
253
  6
CONTINUOUS
 10
121.6045918081
 20
55.0957118127
 11
121.9297321731
 21
55.0786115095
  0
LINE
  5
286
100
AcDbEntity
  8
0
100
AcDbLine
 62
253
  6
CONTINUOUS
 10
119.3834995564
 20
54.5826957391
 11
119.9254295528
 21
54.5530321024
  0
LINE
  5
287
100
AcDbEntity
  8
0
100
AcDbLine
 62
253
  6
CONTINUOUS
 10
121.2176584142
 20
55.1174838258
 11
121.6045918081
 21
55.0957118127
  0
LINE
  5
288
100
AcDbEntity
  8
0
100
AcDbLine
 62
253
  6
CONTINUOUS
 10
118.8139811407
 20
54.6165040567
 11
119.3834995564
 21
54.5826957391
  0
LINE
  5
289
100
AcDbEntity
  8
0
100
AcDbLine
 62
253
  6
CONTINUOUS
 10
120.7946276603
 20
55.1430456923
 11
121.2176584142
 21
55.1174838258
  0
LINE
  5
28A
100
AcDbEntity
  8
0
100
AcDbLine
 62
253
  6
CONTINUOUS
 10
118.4130257375
 20
54.6417262649
 11
118.8139811407
 21
54.6165040567
  0
LINE
  5
28B
100
AcDbEntity
  8
0
100
AcDbLine
 62
253
  6
CONTINUOUS
 10
120.3477972196
 20
55.172034477
 11
120.7946276603
 21
55.1430456923
  0
LINE
  5
28C
100
AcDbEntity
  8
0
100
AcDbLine
 62
253
  6
CONTINUOUS
 10
119.886544879
 20
55.2040800878
 11
120.3477972196
 21
55.172034477
  0
LINE
  5
28D
100
AcDbEntity
  8
0
100
AcDbLine
 62
253
  6
CONTINUOUS
 10
119.3650927464
 20
55.2427493773
 11
119.886544879
 21
55.2040800878
  0
LINE
  5
28E
100
AcDbEntity
  8
0
100
AcDbLine
 62
253
  6
CONTINUOUS
 10
119.0391553812
 20
55.2684063694
 11
119.3650927464
 21
55.2427493773
  0
LINE
  5
28F
100
AcDbEntity
  8
0
100
AcDbLine
 62
253
  6
CONTINUOUS
 10
118.7631748201
 20
55.2912876923
 11
119.0391553812
 21
55.2684063694
  0
LINE
  5
290
100
AcDbEntity
  8
0
100
AcDbLine
 62
253
  6
CONTINUOUS
 10
118.6431940812
 20
55.3018211053
 11
118.7631748201
 21
55.2912876923
  0
LWPOLYLINE
  5
291
100
AcDbEntity
  8
0
100
AcDbPolyline
 62
253
  6
CONTINUOUS
 90
3
 70
0
 10
118.4326919241
 20
55.3216845256
 10
118.4762235537
 20
55.3173837397
 10
118.6431940812
 20
55.3018211053
  0
LWPOLYLINE
  5
292
100
AcDbEntity
  8
0
100
AcDbPolyline
 62
253
  6
CONTINUOUS
 90
13
 70
0
 10
120.256579415
 20
54.2695416208
 10
120.2753093383
 20
54.267384905
 10
120.293616846
 20
54.2628613624
 10
120.3112084681
 20
54.2560435055
 10
120.3278022102
 20
54.247040625
 10
120.3431320741
 20
54.2359970371
 10
120.3569523216
 20
54.2230897712
 10
120.3690414135
 20
54.208525731
 10
120.3792055614
 20
54.1925383786
 10
120.3872818335
 20
54.1753839919
 10
120.3931407671
 20
54.1573375562
 10
120.3966884431
 20
54.1386883566
 10
120.3978679921
 20
54.1197353403
  0
LWPOLYLINE
  5
293
100
AcDbEntity
  8
0
100
AcDbPolyline
 62
253
  6
CONTINUOUS
 90
10
 70
0
 10
114.296843595
 20
57.6900075644
 10
114.3106659434
 20
57.6925704339
 10
114.3332102844
 20
57.698461653
 10
114.3642622643
 20
57.7076251725
 10
114.403526634
 20
57.7199738275
 10
114.4506300563
 20
57.7353901649
 10
114.5051246561
 20
57.7537275608
 10
114.5664922794
 20
57.7748116138
 10
114.6341494196
 20
57.7984418037
 10
114.7857053244
 20
57.852419585
  0
LWPOLYLINE
  5
294
100
AcDbEntity
  8
0
100
AcDbPolyline
 62
253
  6
CONTINUOUS
 90
76
 70
0
 10
126.3542637155
 20
63.2607273279
 10
126.491185773
 20
63.2621003158
 10
126.6292314598
 20
63.2652916715
 10
126.7683751268
 20
63.2703385031
 10
126.9090475081
 20
63.2773041784
 10
127.050762249
 20
63.286211052
 10
127.1921199199
 20
63.2969819877
 10
127.3326244595
 20
63.3095594571
 10
127.4727223344
 20
63.3239576366
 10
127.612432038
 20
63.3401559681
 10
127.7517642167
 20
63.3581435563
 10
127.8906594189
 20
63.3779041452
 10
128.0290319407
 20
63.3994084773
 10
128.1668449479
 20
63.422637937
 10
128.3040891518
 20
63.4475782345
 10
128.4407214124
 20
63.4742036026
 10
128.5767082696
 20
63.5024944892
 10
128.7120394791
 20
63.5324363551
 10
128.8467075018
 20
63.5640108105
 10
128.9806783364
 20
63.5971990715
 10
129.1139441287
 20
63.631987158
 10
129.2465366518
 20
63.6683664274
 10
129.3784492059
 20
63.7063266629
 10
129.5096473505
 20
63.7458501129
 10
129.6401213027
 20
63.786919238
 10
129.7699675477
 20
63.8295596074
 10
129.8990490113
 20
63.8737211859
 10
130.0270108189
 20
63.9192614427
 10
130.1534150792
 20
63.9659935878
 10
130.2786763857
 20
64.014043835
 10
130.4037099835
 20
64.0637605383
 10
130.5285234941
 20
64.1151576822
 10
130.6530539097
 20
64.1682380799
 10
130.7780839545
 20
64.2233915416
 10
130.9044882516
 20
64.281071434
 10
131.0313023571
 20
64.340904831
 10
131.1565731267
 20
64.4019966224
 10
131.2796116039
 20
64.4639677912
 10
131.4011088776
 20
64.5270977116
 10
131.5212166168
 20
64.5914146292
 10
131.6396994491
 20
64.6567519185
 10
131.7567868709
 20
64.7232029418
 10
131.873307369
 20
64.791221446
 10
131.989645839
 20
64.8610499277
 10
132.1053660526
 20
64.9324465423
 10
132.2200556934
 20
65.0051537831
 10
132.3333742808
 20
65.0789348413
 10
132.4456414477
 20
65.1539825895
 10
132.5574297598
 20
65.2306907022
 10
132.6690770542
 20
65.3093168918
 10
132.7801868881
 20
65.3896144506
 10
132.8902300113
 20
65.4712222294
 10
132.9996563692
 20
65.5544963529
 10
133.1079822751
 20
65.6390570744
 10
133.2133481585
 20
65.7233582107
 10
133.3147673926
 20
65.8064912856
 10
133.4133357677
 20
65.8891891074
 10
133.510338307
 20
65.9723492885
 10
133.6058105584
 20
66.055943298
 10
133.6997354741
 20
66.1399412661
 10
133.7932492074
 20
66.2253173489
 10
133.8868727956
 20
66.3125978345
 10
133.9800215746
 20
66.4012822722
 10
134.0721558331
 20
66.490824619
 10
134.1629194365
 20
66.5808851318
 10
134.2526592665
 20
66.6717752692
 10
134.3418908576
 20
66.7639275915
 10
134.4308193289
 20
66.8576016421
 10
134.519180465
 20
66.952552545
 10
134.6067758454
 20
67.0484703474
 10
134.6937273926
 20
67.1454476485
 10
134.7798692993
 20
67.2433968003
 10
134.8646024325
 20
67.3417135382
 10
134.9477451401
 20
67.4401823379
 10
135.0295080745
 20
67.5389997282
 10
135.1099065501
 20
67.6381633011
  0
LWPOLYLINE
  5
295
100
AcDbEntity
  8
0
100
AcDbPolyline
 62
253
  6
CONTINUOUS
 90
76
 70
0
 10
126.3542746474
 20
62.2774502156
 10
126.5049410642
 20
62.2777694492
 10
126.6568768443
 20
62.2800401061
 10
126.8100532436
 20
62.2843041399
 10
126.9649469233
 20
62.290621322
 10
127.1210194281
 20
62.2990291079
 10
127.2767198309
 20
62.3094820154
 10
127.4314917529
 20
62.3219305951
 10
127.585832522
 20
62.3363897237
 10
127.7397741926
 20
62.3528584032
 10
127.8933265477
 20
62.3713334841
 10
128.0464204725
 20
62.3918028822
 10
128.198969785
 20
62.4142527257
 10
128.3509320322
 20
62.4386733073
 10
128.5022918589
 20
62.4650551617
 10
128.6530044564
 20
62.4933824804
 10
128.8030321619
 20
62.5236443971
 10
128.9523564242
 20
62.5558327372
 10
129.1009616871
 20
62.5899357933
 10
129.2488102037
 20
62.6259404824
 10
129.3958857917
 20
62.6638380324
 10
129.5422051811
 20
62.703625256
 10
129.6877495393
 20
62.7452932149
 10
129.8324849223
 20
62.7888274868
 10
129.9764050371
 20
62.8342195276
 10
130.1196217303
 20
62.8815080839
 10
130.2619694697
 20
62.9306389297
 10
130.4030316742
 20
62.9814514087
 10
130.5423055174
 20
63.0337425024
 10
130.6802589514
 20
63.0876503779
 10
130.8179222846
 20
63.1435481434
 10
130.955261297
 20
63.2016163899
 10
131.0922367712
 20
63.2617545521
 10
131.2298456592
 20
63.3240329412
 10
131.3690911529
 20
63.3892494191
 10
131.5087758371
 20
63.4573719247
 10
131.646630937
 20
63.5270509043
 10
131.7818569451
 20
63.5975572383
 10
131.9152350172
 20
63.6693202947
 10
132.0469308454
 20
63.7424849257
 10
132.1766611828
 20
63.8168656127
 10
132.3046758348
 20
63.8925158758
 10
132.4319044437
 20
63.9700052637
 10
132.5587429978
 20
64.0496160764
 10
132.6846959298
 20
64.1310487019
 10
132.8093386446
 20
64.2140312172
 10
132.932268286
 20
64.2982883744
 10
133.053821617
 20
64.3840246768
 10
133.1746682906
 20
64.4717047895
 10
133.2951160151
 20
64.5616469991
 10
133.4147234537
 20
64.6535493705
 10
133.533023482
 20
64.7469629937
 10
133.650635596
 20
64.8422842108
 10
133.7667277853
 20
64.9391379087
 10
133.8788707783
 20
65.0357412671
 10
133.9862494432
 20
65.1307885097
 10
134.0902447404
 20
65.2251394904
 10
134.1919071582
 20
65.3201480989
 10
134.2912511434
 20
65.4157749408
 10
134.3884553925
 20
65.5118769109
 10
134.4846893009
 20
65.6097452181
 10
134.580520689
 20
65.7100187471
 10
134.6753032252
 20
65.812046149
 10
134.7683647977
 20
65.9151993487
 10
134.8593667187
 20
66.0190426359
 10
134.9486701725
 20
66.1239135068
 10
135.0366596366
 20
66.2303307814
 10
135.1235387608
 20
66.3385427168
 10
135.209072153
 20
66.4482457599
 10
135.2929776844
 20
66.5591335378
 10
135.3753006434
 20
66.6712170392
 10
135.4559882163
 20
66.7844071751
 10
135.5346387395
 20
66.8982220535
 10
135.6111353933
 20
67.0124590104
 10
135.6856276126
 20
67.1272117528
 10
135.7581298817
 20
67.2424292825
  0
LWPOLYLINE
  5
296
100
AcDbEntity
  8
0
100
AcDbPolyline
 62
253
  6
CONTINUOUS
 90
8
 70
0
 10
138.4117037338
 20
57.6900083088
 10
138.3978807472
 20
57.6925698194
 10
138.3753358251
 20
57.6984597119
 10
138.3442833454
 20
57.7076220013
 10
138.305018581
 20
57.7199695864
 10
138.257914892
 20
57.7353850781
 10
138.2034201757
 20
57.7537219154
 10
138.1420526074
 20
57.7748057595
  0
LINE
  5
297
100
AcDbEntity
  8
0
100
AcDbLine
 62
253
  6
CONTINUOUS
 10
139.4991854375
 20
62.5616350912
 11
139.2846396435
 21
62.6253164223
  0
LWPOLYLINE
  5
298
100
AcDbEntity
  8
0
100
AcDbPolyline
 62
253
  6
CONTINUOUS
 90
3
 70
0
 10
139.7404069051
 20
62.4883095831
 10
139.686157649
 20
62.5050222821
 10
139.4991854375
 20
62.5616350912
  0
LINE
  5
299
100
AcDbEntity
  8
0
100
AcDbLine
 62
253
  6
CONTINUOUS
 10
138.1420526074
 20
57.7748057595
 11
138.0010928237
 21
57.8243884159
  0
LWPOLYLINE
  5
29A
100
AcDbEntity
  8
0
100
AcDbPolyline
 62
253
  6
CONTINUOUS
 90
3
 70
0
 10
138.0010928237
 20
57.8243884159
 10
137.8403841715
 20
57.8822518295
 10
137.7545065369
 20
57.9136128139
  0
LWPOLYLINE
  5
29B
100
AcDbEntity
  8
0
100
AcDbPolyline
 62
253
  6
CONTINUOUS
 90
3
 70
0
 10
138.411743509
 20
57.690107218
 10
138.4632472087
 20
57.6705533895
 10
138.6573404835
 20
57.5969882483
  0
LWPOLYLINE
  5
29C
100
AcDbEntity
  8
0
100
AcDbPolyline
 62
253
  6
CONTINUOUS
 90
8
 70
0
 10
139.9841480167
 20
62.4074818008
 10
139.974216431
 20
62.4117772647
 10
139.9581105915
 20
62.4178386053
 10
139.935935507
 20
62.4256263032
 10
139.9078357571
 20
62.4350895831
 10
139.8739945499
 20
62.4461667453
 10
139.8346325271
 20
62.4587855677
 10
139.7404069051
 20
62.4883095831
  0
LINE
  5
29D
100
AcDbEntity
  8
0
100
AcDbLine
 62
253
  6
CONTINUOUS
 10
110.5718351166
 20
74.0275874643
 11
110.5611853325
 21
74.0264760793
  0
LINE
  5
29E
100
AcDbEntity
  8
0
100
AcDbLine
 62
253
  6
CONTINUOUS
 10
110.6129739928
 20
74.0315000787
 11
110.5718351166
 21
74.0275874643
  0
LINE
  5
29F
100
AcDbEntity
  8
0
100
AcDbLine
 62
253
  6
CONTINUOUS
 10
111.0109005415
 20
74.0669845042
 11
110.6129739928
 21
74.0315000787
  0
LINE
  5
2A0
100
AcDbEntity
  8
0
100
AcDbLine
 62
253
  6
CONTINUOUS
 10
111.5533115779
 20
74.1145168935
 11
111.0109005415
 21
74.0669845042
  0
LINE
  5
2A1
100
AcDbEntity
  8
0
100
AcDbLine
 62
7
  6
CONTINUOUS
 10
125.7658446474
 20
72.7083998935
 11
126.9480906474
 21
72.7083998935
  0
LINE
  5
2A2
100
AcDbEntity
  8
0
100
AcDbLine
 62
7
  6
CONTINUOUS
 10
126.9480906474
 20
73.1250648935
 11
126.5789786474
 21
73.1250648935
  0
LINE
  5
2A3
100
AcDbEntity
  8
0
100
AcDbLine
 62
7
  6
CONTINUOUS
 10
126.1350996474
 20
73.1250648935
 11
125.7658446474
 21
73.1250648935
  0
LINE
  5
2A4
100
AcDbEntity
  8
0
100
AcDbLine
 62
253
  6
CONTINUOUS
 10
137.5541900535
 20
74.1145168935
 11
141.1552420175
 21
74.1145838485
  0
LINE
  5
2A5
100
AcDbEntity
  8
0
100
AcDbLine
 62
253
  6
CONTINUOUS
 10
111.5533084464
 20
74.1145654838
 11
115.1543592395
 21
74.1145168935
  0
LINE
  5
2A6
100
AcDbEntity
  8
0
100
AcDbLine
 62
7
  6
CONTINUOUS
 10
125.7794516474
 20
76.0852628935
 11
126.1350996474
 21
76.0852628935
  0
LINE
  5
2A7
100
AcDbEntity
  8
0
100
AcDbLine
 62
7
  6
CONTINUOUS
 10
126.5789786474
 20
76.0852628935
 11
126.9344836474
 21
76.0852628935
  0
LINE
  5
2A8
100
AcDbEntity
  8
0
100
AcDbLine
 62
7
  6
CONTINUOUS
 10
126.9344836474
 20
76.5042198935
 11
125.7794516474
 21
76.5042198935
  0
LINE
  5
2A9
100
AcDbEntity
  8
0
100
AcDbLine
 62
253
  6
CONTINUOUS
 10
141.1552377168
 20
74.1145168935
 11
141.3984028893
 21
74.0939224535
  0
LINE
  5
2AA
100
AcDbEntity
  8
0
100
AcDbLine
 62
253
  6
CONTINUOUS
 10
141.3984028893
 20
74.0939224535
 11
141.6977632004
 21
74.0682235554
  0
LINE
  5
2AB
100
AcDbEntity
  8
0
100
AcDbLine
 62
253
  6
CONTINUOUS
 10
141.6977632004
 20
74.0682235554
 11
141.9388323861
 21
74.0467603396
  0
LINE
  5
2AC
100
AcDbEntity
  8
0
100
AcDbLine
 62
253
  6
CONTINUOUS
 10
141.9388323861
 20
74.0467603396
 11
142.0654275175
 21
74.0349939912
  0
LWPOLYLINE
  5
2AD
100
AcDbEntity
  8
0
100
AcDbPolyline
 62
253
  6
CONTINUOUS
 90
4
 70
0
 10
142.0654275175
 20
74.0349939912
 10
142.1194463936
 20
74.0296499416
 10
142.1367315683
 20
74.0277866667
 10
142.1473639623
 20
74.0264760793
  0
LWPOLYLINE
  5
2AE
100
AcDbEntity
  8
0
100
AcDbPolyline
 62
253
  6
CONTINUOUS
 90
76
 70
0
 10
117.5986373429
 20
67.6381634383
 10
117.6792927378
 20
67.5386834864
 10
117.761288184
 20
67.4395934371
 10
117.8446376738
 20
67.3408946017
 10
117.9295457993
 20
67.2423945811
 10
118.0158340293
 20
67.1443027066
 10
118.1029163251
 20
67.0472069942
 10
118.1906148895
 20
66.951207104
 10
118.2790617653
 20
66.8561971
 10
118.3681072341
 20
66.7624346217
 10
118.4575228969
 20
66.6701298998
 10
118.5474809846
 20
66.5790607841
 10
118.6384425838
 20
66.4888503384
 10
118.7307294131
 20
66.3992101383
 10
118.8240081496
 20
66.3104548832
 10
118.917755266
 20
66.2231128262
 10
119.0114131458
 20
66.13765819
 10
119.1054757555
 20
66.0535909369
 10
119.2010128095
 20
65.9699963638
 10
119.29805524
 20
65.8868603847
 10
119.3965870237
 20
65.804251871
 10
119.4976688954
 20
65.7214499872
 10
119.6021359256
 20
65.6379112058
 10
119.7092391933
 20
65.5543281987
 10
119.8176520733
 20
65.4718270649
 10
119.9270870188
 20
65.3906555829
 10
120.0378153314
 20
65.3106090755
 10
120.1492940548
 20
65.2320721142
 10
120.26122465
 20
65.1552368736
 10
120.3738603892
 20
65.0799172837
 10
120.4874779801
 20
65.00592179
 10
120.602232261
 20
64.9331571127
 10
120.7179409934
 20
64.8617516855
 10
120.8343774477
 20
64.791849368
 10
120.9513178392
 20
64.7235751901
 10
121.0689425534
 20
64.6568159957
 10
121.1876348604
 20
64.5913648617
 10
121.3074481195
 20
64.5272063545
 10
121.428306546
 20
64.464401719
 10
121.5504120335
 20
64.4028807773
 10
121.6741424371
 20
64.3424999482
 10
121.7991074205
 20
64.2834731771
 10
121.9243424757
 20
64.2262403127
 10
122.0494639917
 20
64.1709542116
 10
122.1747987078
 20
64.1174459358
 10
122.3004310242
 20
64.0656388033
 10
122.4261340147
 20
64.0155942171
 10
122.5520767925
 20
63.9672305166
 10
122.6789488006
 20
63.9202814636
 10
122.8069856056
 20
63.8746745299
 10
122.9359199773
 20
63.8305230796
 10
123.0656968583
 20
63.7878639069
 10
123.1963121201
 20
63.7467089448
 10
123.327732456
 20
63.707079527
 10
123.4598567056
 20
63.669022492
 10
123.5926124412
 20
63.6325654664
 10
123.7260301801
 20
63.5977070492
 10
123.8601622341
 20
63.5644503826
 10
123.9950137761
 20
63.5328065934
 10
124.1305378465
 20
63.5027982881
 10
124.2667084944
 20
63.4744484599
 10
124.4035041741
 20
63.4477738619
 10
124.5409022786
 20
63.4227908781
 10
124.6788744552
 20
63.3995216783
 10
124.8174071919
 20
63.3779802859
 10
124.9564677861
 20
63.3581858749
 10
125.0959980706
 20
63.3401669257
 10
125.2360352287
 20
63.3239330813
 10
125.3764934667
 20
63.3095067958
 10
125.5171282944
 20
63.296926214
 10
125.6581540046
 20
63.2861800538
 10
125.799304984
 20
63.2772994503
 10
125.9396130712
 20
63.2703418002
 10
126.0787362557
 20
63.2652906589
 10
126.2169616954
 20
63.2620956953
 10
126.3542637155
 20
63.2607273279
  0
LINE
  5
2AF
100
AcDbEntity
  8
0
100
AcDbLine
 62
253
  6
CONTINUOUS
 10
110.1042746474
 20
79.1645168935
 11
111.3392135992
 21
79.1645168935
  0
LINE
  5
2B0
100
AcDbEntity
  8
0
100
AcDbLine
 62
253
  6
CONTINUOUS
 10
141.3693356956
 20
79.1645168935
 11
142.6042746474
 21
79.1645168935
  0
LWPOLYLINE
  5
2B1
100
AcDbEntity
  8
0
100
AcDbPolyline
 62
253
  6
CONTINUOUS
 90
13
 70
0
 10
135.7581298817
 20
67.2424292825
 10
135.7036767387
 20
67.2810716771
 10
135.6483458136
 20
67.3193067731
 10
135.5924226335
 20
67.3569372642
 10
135.5361957811
 20
67.3937689638
 10
135.4799554069
 20
67.4296118074
 10
135.4239917321
 20
67.4642808327
 10
135.3685935486
 20
67.4975971353
 10
135.3140467305
 20
67.5293887914
 10
135.2606327595
 20
67.5594917446
 10
135.2086272704
 20
67.587750653
 10
135.1582986295
 20
67.614019691
 10
135.1099065501
 20
67.6381633011
  0
LWPOLYLINE
  5
2B2
100
AcDbEntity
  8
0
100
AcDbPolyline
 62
253
  6
CONTINUOUS
 90
76
 70
0
 10
116.9504174575
 20
67.2424266703
 10
117.0231573944
 20
67.1268507334
 10
117.0978670747
 20
67.0117862233
 10
117.1745596558
 20
66.8972834984
 10
117.2533798734
 20
66.7832532434
 10
117.3342128736
 20
66.6698922311
 10
117.416666108
 20
66.5576665058
 10
117.5006729379
 20
66.4466807982
 10
117.5862904079
 20
66.3369070766
 10
117.6732863778
 20
66.2285887929
 10
117.7614618701
 20
66.1219882795
 10
117.850987424
 20
66.0169016543
 10
117.9421931661
 20
65.9128754624
 10
118.0354161048
 20
65.8095983019
 10
118.1303393539
 20
65.7074779093
 10
118.226303812
 20
65.6071251218
 10
118.3226874731
 20
65.5091653927
 10
118.4200326606
 20
65.412985359
 10
118.5194460872
 20
65.3173520686
 10
118.6211691712
 20
65.2223486479
 10
118.7251537519
 20
65.1280718083
 10
118.8321924329
 20
65.033391315
 10
118.9433646083
 20
64.9376742206
 10
119.0581121317
 20
64.8419561914
 10
119.174607329
 20
64.7475173967
 10
119.2922614765
 20
64.6545786073
 10
119.4114852774
 20
64.5629309436
 10
119.5317680836
 20
64.4730643453
 10
119.6527625116
 20
64.3852278733
 10
119.7747026555
 20
64.2991811045
 10
119.8979494571
 20
64.2146793717
 10
120.0226650769
 20
64.1316251662
 10
120.1486113649
 20
64.0501737217
 10
120.2755593566
 20
63.9704708535
 10
120.4032406883
 20
63.892686112
 10
120.5318352792
 20
63.8166864561
 10
120.6617957724
 20
63.7421815599
 10
120.7931867112
 20
63.6691908727
 10
120.9258873976
 20
63.5977844457
 10
121.0600961051
 20
63.5277912881
 10
121.1962269825
 20
63.4589515625
 10
121.3338275088
 20
63.3917701449
 10
121.471761207
 20
63.3270588323
 10
121.6095035432
 20
63.2646091353
 10
121.7474266582
 20
63.2039636257
 10
121.8857136951
 20
63.1454189002
 10
122.0241236406
 20
63.0891548941
 10
122.1628204633
 20
63.034903147
 10
122.3026038173
 20
62.9823770199
 10
122.443750179
 20
62.9314975519
 10
122.5859387573
 20
62.8823872055
 10
122.7290840393
 20
62.8350874647
 10
122.8731685869
 20
62.7896093652
 10
123.0181596512
 20
62.7459671667
 10
123.1639462359
 20
62.7042027407
 10
123.3104500899
 20
62.664342073
 10
123.4576957197
 20
62.6263804035
 10
123.6057256455
 20
62.5903135459
 10
123.754540095
 20
62.5561467858
 10
123.9040850156
 20
62.5238979132
 10
124.0543216441
 20
62.4935836944
 10
124.205217233
 20
62.4652147918
 10
124.3567478037
 20
62.4387983428
 10
124.508887141
 20
62.4143457387
 10
124.6616164838
 20
62.391866408
 10
124.8148967198
 20
62.3713704648
 10
124.9686706566
 20
62.35286973
 10
125.1229757396
 20
62.336367632
 10
125.277715483
 20
62.321881026
 10
125.4326307191
 20
62.3094330502
 10
125.5879610697
 20
62.2990161615
 10
125.7434060261
 20
62.2906479608
 10
125.8978942567
 20
62.284344227
 10
126.0510479596
 20
62.2800706204
 10
126.2031842971
 20
62.2777840017
 10
126.3542746474
 20
62.2774502135
  0
LWPOLYLINE
  5
2B3
100
AcDbEntity
  8
0
100
AcDbPolyline
 62
253
  6
CONTINUOUS
 90
58
 70
0
 10
114.9540408677
 20
57.9136119245
 10
114.9935431916
 20
57.8209892744
 10
115.0397418744
 20
57.7202545302
 10
115.0931805949
 20
57.6117493208
 10
115.1556550883
 20
57.4932298721
 10
115.2265622704
 20
57.3678384367
 10
115.3023306328
 20
57.2437589924
 10
115.3828355834
 20
57.1221552665
 10
115.4683878298
 20
57.0023287769
 10
115.5551655695
 20
56.8890519084
 10
115.6416017702
 20
56.7836900477
 10
115.7285013057
 20
56.6845830105
 10
115.8151632225
 20
56.5915861602
 10
115.9010326576
 20
56.5047158181
 10
115.9860379868
 20
56.423601187
 10
116.070245997
 20
56.3475099367
 10
116.153416906
 20
56.2762617951
 10
116.2353430198
 20
56.2097145685
 10
116.3162169153
 20
56.1472474362
 10
116.3959207336
 20
56.0886766718
 10
116.4742537845
 20
56.0339166541
 10
116.5513385407
 20
55.9825392174
 10
116.6270692808
 20
55.9344050249
 10
116.7013151405
 20
55.8894176566
 10
116.774195309
 20
55.8472452005
 10
116.8456217949
 20
55.807771597
 10
116.9155007997
 20
55.7709045646
 10
116.9839667424
 20
55.7363740166
 10
117.0509523498
 20
55.7040824312
 10
117.1163888997
 20
55.6739477251
 10
117.1804277011
 20
55.6457467954
 10
117.2430239227
 20
55.6193905213
 10
117.3041216932
 20
55.5948115929
 10
117.3638696116
 20
55.5718384126
 10
117.4222476662
 20
55.5503904236
 10
117.4792004666
 20
55.5304075918
 10
117.5348330725
 20
55.5117659727
 10
117.5891133175
 20
55.4944093961
 10
117.6420161289
 20
55.4782757658
 10
117.6936641511
 20
55.4632457222
 10
117.7440365937
 20
55.4492786402
 10
117.7931116682
 20
55.4363226738
 10
117.8410164496
 20
55.4242577804
 10
117.8877435979
 20
55.4130483319
 10
117.9332697232
 20
55.4026681308
 10
117.9777024295
 20
55.3930203313
 10
118.021025733
 20
55.3840737859
 10
118.0632330865
 20
55.3758033179
 10
118.1044496402
 20
55.368129033
 10
118.1446875366
 20
55.3610135064
 10
118.1839184374
 20
55.3544455675
 10
118.2222089499
 20
55.3483908325
 10
118.2595517483
 20
55.3428026846
 10
118.2959416245
 20
55.3376771353
 10
118.3314487403
 20
55.3330352308
 10
118.3660925035
 20
55.3288574186
 10
118.3998419038
 20
55.3250852574
 10
118.4326919241
 20
55.3216845256
  0
LWPOLYLINE
  5
2B4
100
AcDbEntity
  8
0
100
AcDbPolyline
 62
253
  6
CONTINUOUS
 90
3
 70
0
 10
114.8951856245
 20
58.0551308315
 10
114.924123554
 20
57.9847854381
 10
114.9540408677
 20
57.9136119245
  0
LWPOLYLINE
  5
2B5
100
AcDbEntity
  8
0
100
AcDbPolyline
 62
253
  6
CONTINUOUS
 90
58
 70
0
 10
114.2968086649
 20
57.6900995744
 10
114.3401262202
 20
57.579260527
 10
114.3911604488
 20
57.4582737836
 10
114.4508141811
 20
57.3276311406
 10
114.5216876747
 20
57.1847419357
 10
114.6033817317
 20
57.0335964174
 10
114.6913567163
 20
56.8841711951
 10
114.7849604302
 20
56.7377967366
 10
114.8848172708
 20
56.5936794373
 10
114.9866341365
 20
56.4576343861
 10
115.088352447
 20
56.3312423189
 10
115.1907525756
 20
56.2124555923
 10
115.2932049359
 20
56.1011604774
 10
115.3949827777
 20
55.9973371755
 10
115.4958383458
 20
55.9004867349
 10
115.5959499006
 20
55.8097975741
 10
115.694979062
 20
55.7250291242
 10
115.7925797598
 20
55.6459639536
 10
115.8890432063
 20
55.5719133418
 10
115.9841881887
 20
55.5026321606
 10
116.0777123456
 20
55.4379765755
 10
116.1698089279
 20
55.3774807856
 10
116.2603209676
 20
55.3209561852
 10
116.3490498212
 20
55.2682490376
 10
116.4361788934
 20
55.2189959278
 10
116.521589541
 20
55.1730376755
 10
116.605137809
 20
55.1302354518
 10
116.6870059114
 20
55.0902969086
 10
116.7670949362
 20
55.0530916644
 10
116.8453094763
 20
55.0184927187
 10
116.9218642019
 20
54.9862484059
 10
116.996697886
 20
54.9562444848
 10
117.0697296867
 20
54.9283788899
 10
117.1411651746
 20
54.9024497336
 10
117.2109793727
 20
54.878355653
 10
117.2790933
 20
54.8560173761
 10
117.3456452965
 20
54.8352898313
 10
117.4106087207
 20
54.8160902759
 10
117.4739325049
 20
54.79834563
 10
117.5357273889
 20
54.7819418155
 10
117.595963454
 20
54.7668104208
 10
117.6546124259
 20
54.7528842827
 10
117.7117941388
 20
54.7400648633
 10
117.7674826975
 20
54.728294071
 10
117.8216610458
 20
54.7175136406
 10
117.8744674929
 20
54.7076377647
 10
117.9258850642
 20
54.6986169689
 10
117.9758995834
 20
54.6904028775
 10
118.0246576029
 20
54.682923682
 10
118.0721361253
 20
54.6761397007
 10
118.1183358046
 20
54.670009243
 10
118.1634418185
 20
54.6644698251
 10
118.2074396721
 20
54.6594891186
 10
118.2503282194
 20
54.655034838
 10
118.292315076
 20
54.6510572665
 10
118.3334660619
 20
54.6475260402
 10
118.3737045378
 20
54.6444236517
 10
118.4130257375
 20
54.641726265
  0
LWPOLYLINE
  5
2B6
100
AcDbEntity
  8
0
100
AcDbPolyline
 62
253
  6
CONTINUOUS
 90
4
 70
0
 10
114.786749038
 20
58.3270974975
 10
114.8126185176
 20
58.2608979556
 10
114.8395493179
 20
58.1932394754
 10
114.8951856245
 20
58.0551308315
  0
LINE
  5
2B7
100
AcDbEntity
  8
0
100
AcDbLine
 62
253
  6
CONTINUOUS
 10
114.7378870046
 20
58.4547934114
 11
114.786749038
 21
58.3270974975
  0
LINE
  5
2B8
100
AcDbEntity
  8
0
100
AcDbLine
 62
253
  6
CONTINUOUS
 10
114.6929342867
 20
58.5749798069
 11
114.7378870046
 21
58.4547934114
  0
LINE
  5
2B9
100
AcDbEntity
  8
0
100
AcDbLine
 62
253
  6
CONTINUOUS
 10
114.1467474365
 20
58.0920794094
 11
114.2968086577
 21
57.6900995717
  0
LINE
  5
2BA
100
AcDbEntity
  8
0
100
AcDbLine
 62
253
  6
CONTINUOUS
 10
114.0353761427
 20
58.3948624723
 11
114.1467474365
 21
58.0920794094
  0
LINE
  5
2BB
100
AcDbEntity
  8
0
100
AcDbLine
 62
253
  6
CONTINUOUS
 10
113.9387478809
 20
58.6613358383
 11
114.0353761427
 21
58.3948624723
  0
LINE
  5
2BC
100
AcDbEntity
  8
0
100
AcDbLine
 62
253
  6
CONTINUOUS
 10
113.844200221
 20
58.925896969
 11
113.9387478809
 21
58.6613358383
  0
LINE
  5
2BD
100
AcDbEntity
  8
0
100
AcDbLine
 62
253
  6
CONTINUOUS
 10
113.7874411198
 20
59.0866216509
 11
113.844200221
 21
58.925896969
  0
LINE
  5
2BE
100
AcDbEntity
  8
0
100
AcDbLine
 62
7
  6
CONTINUOUS
 10
125.0147386474
 20
75.4506838935
 11
126.1350996474
 21
74.5065478935
  0
LINE
  5
2BF
100
AcDbEntity
  8
0
100
AcDbLine
 62
7
  6
CONTINUOUS
 10
126.1350996474
 20
75.0229038935
 11
124.9630256474
 21
76.0106168935
  0
LWPOLYLINE
  5
2C0
100
AcDbEntity
  8
0
100
AcDbPolyline
 62
253
  6
CONTINUOUS
 90
175
 70
0
 10
115.786854264
 20
72.3411857454
 10
115.8274556598
 20
72.2662789258
 10
115.8677801622
 20
72.1928049117
 10
115.9078277712
 20
72.1207637033
 10
115.9475343232
 20
72.0502835921
 10
115.9869639818
 20
71.9812362864
 10
116.0263092376
 20
71.9132369118
 10
116.065567975
 20
71.8462819918
 10
116.1047423096
 20
71.7803750029
 10
116.144031079
 20
71.7151414997
 10
116.1834295279
 20
71.6505750265
 10
116.2229424116
 20
71.5866820391
 10
116.2627828337
 20
71.5231074591
 10
116.3029895727
 20
71.4597787665
 10
116.3435238501
 20
71.3967684813
 10
116.3844824332
 20
71.3339390861
 10
116.4259333227
 20
71.2711884876
 10
116.4678085178
 20
71.2086187791
 10
116.5100007836
 20
71.146398722
 10
116.552410782
 20
71.0846714396
 10
116.595137851
 20
71.0232938087
 10
116.6383727697
 20
70.9620052217
 10
116.6819789916
 20
70.9009699877
 10
116.7260930632
 20
70.8400237977
 10
116.7713154033
 20
70.7784131171
 10
116.8176189639
 20
70.7161308346
 10
116.8650307929
 20
70.6531840616
 10
116.9142324535
 20
70.5888405982
 10
116.9652289081
 20
70.5230467826
 10
117.0180151942
 20
70.4558562766
 10
117.0732579875
 20
70.3866978661
 10
117.1310824202
 20
70.3153805045
 10
117.1913633601
 20
70.2420952383
 10
117.2543920867
 20
70.166843994
 10
117.320210583
 20
70.089562437
 10
117.388776866
 20
70.0103149017
 10
117.4602562659
 20
69.9292963181
 10
117.5346030007
 20
69.846547067
 10
117.6118628524
 20
69.7620267676
 10
117.6923384969
 20
69.6758092071
 10
117.7759206564
 20
69.5879774176
 10
117.8627186087
 20
69.4984483671
 10
117.9533628633
 20
69.4070467469
 10
118.0478557273
 20
69.3137407145
 10
118.1461948937
 20
69.2185621125
 10
118.2490039507
 20
69.1214311601
 10
118.3563731018
 20
69.0222409147
 10
118.4682121435
 20
68.921098319
 10
118.5848740538
 20
68.818244419
 10
118.7060904934
 20
68.7138087766
 10
118.8321298017
 20
68.6076618301
 10
118.9641499741
 20
68.49965594
 10
119.1018100563
 20
68.3898708673
 10
119.2454510027
 20
68.278226851
 10
119.3972536718
 20
68.1643369687
 10
119.5587086983
 20
68.0471274199
 10
119.7283254474
 20
67.9276720051
 10
119.9038128737
 20
67.8088052036
 10
120.0858106893
 20
67.6904455996
 10
120.2736791821
 20
67.5726746089
 10
120.4632081701
 20
67.4585709574
 10
120.6530601205
 20
67.3491351472
 10
120.844572566
 20
67.2433666763
 10
121.0375479227
 20
67.1413427647
 10
121.231620468
 20
67.0432066137
 10
121.4271559245
 20
66.9488150219
 10
121.625053876
 20
66.8578156056
 10
121.8259268843
 20
66.7699212027
 10
122.0291623877
 20
66.6854189753
 10
122.2338222843
 20
66.6048180253
 10
122.4397739972
 20
66.5282262354
 10
122.6471501035
 20
66.4555357229
 10
122.8554102319
 20
66.3869319425
 10
123.0638107092
 20
66.322607911
 10
123.2730952086
 20
66.2623706115
 10
123.4849543789
 20
66.2058264481
 10
123.6996309481
 20
66.1527912783
 10
123.9168821882
 20
66.1034492446
 10
124.1376705634
 20
66.0579591789
 10
124.3626323067
 20
66.0161766139
 10
124.591131185
 20
65.9782460168
 10
124.8222209633
 20
65.9447596221
 10
125.0559844473
 20
65.9157712583
 10
125.2923388313
 20
65.8912270968
 10
125.5300894633
 20
65.871557886
 10
125.769245833
 20
65.8568422362
 10
126.0097984507
 20
65.847001537
 10
126.2505241955
 20
65.8422307054
 10
126.4914214229
 20
65.8426321161
 10
126.7324917774
 20
65.8481033945
 10
126.9725170708
 20
65.8585323336
 10
127.2114939845
 20
65.8740041343
 10
127.4494258372
 20
65.8944335956
 10
127.6851043958
 20
65.9194529084
 10
127.9184960963
 20
65.9491297532
 10
128.1496345029
 20
65.9833964494
 10
128.3774120747
 20
66.0216821454
 10
128.6013654937
 20
66.0639175526
 10
128.8219580781
 20
66.1101719595
 10
129.0394722415
 20
66.1600823807
 10
129.2533844225
 20
66.2134204647
 10
129.4642181825
 20
66.2704145629
 10
129.6738266202
 20
66.3313867447
 10
129.8827729341
 20
66.3964226084
 10
130.0904939256
 20
66.4654365555
 10
130.2971530968
 20
66.5384938602
 10
130.5031787638
 20
66.6157901487
 10
130.7081426104
 20
66.6971297948
 10
130.9109231903
 20
66.7819911941
 10
131.11079392
 20
66.8700498282
 10
131.308481383
 20
66.9616302155
 10
131.5050438827
 20
67.0571843069
 10
131.7004072049
 20
67.1565465864
 10
131.8946455637
 20
67.25988257
 10
132.0890399049
 20
67.3681407562
 10
132.2855044311
 20
67.4825540678
 10
132.4821249397
 20
67.601889582
 10
132.6744397688
 20
67.7233970288
 10
132.8624700526
 20
67.8475688363
 10
133.0461946569
 20
67.9739125764
 10
133.221088517
 20
68.0982006942
 10
133.3851609262
 20
68.2191799009
 10
133.5404025912
 20
68.3381034852
 10
133.6882605673
 20
68.4545037585
 10
133.8286748226
 20
68.5681413859
 10
133.9617053891
 20
68.6792557022
 10
134.0889794183
 20
68.7880970229
 10
134.2107780166
 20
68.8947476462
 10
134.3268200776
 20
68.9991252739
 10
134.437889434
 20
69.1012333273
 10
134.5439825592
 20
69.2010171957
 10
134.6451029797
 20
69.2985314899
 10
134.7420451079
 20
69.3939434634
 10
134.834830953
 20
69.4872354275
 10
134.9234385057
 20
69.578425071
 10
135.008596151
 20
69.6677327144
 10
135.0904195063
 20
69.7552402116
 10
135.1687929543
 20
69.8408657086
 10
135.244098028
 20
69.9245839637
 10
135.3163878553
 20
70.0064377366
 10
135.3856093084
 20
70.0863842675
 10
135.4519845366
 20
70.1642700352
 10
135.5154765384
 20
70.2400324705
 10
135.5761223154
 20
70.3137341426
 10
135.6342550225
 20
70.3854092386
 10
135.6897570556
 20
70.4548734221
 10
135.7427460187
 20
70.5223110294
 10
135.7939078786
 20
70.5883092564
 10
135.8432390204
 20
70.6528147034
 10
135.890743059
 20
70.7158807701
 10
135.9371168062
 20
70.778254851
 10
135.9823879156
 20
70.8399295498
 10
136.0265287336
 20
70.9009122629
 10
136.070153111
 20
70.9619725731
 10
136.1133997846
 20
71.0232771354
 10
136.1561300175
 20
71.0846592949
 10
136.1985414504
 20
71.1463886697
 10
136.2407351362
 20
71.2086105801
 10
136.2826100219
 20
71.2711797058
 10
136.3240605886
 20
71.3339297047
 10
136.3650192819
 20
71.3967590823
 10
136.4055536563
 20
71.459769333
 10
136.4457608561
 20
71.5230985985
 10
136.4856023422
 20
71.586674736
 10
136.5251166537
 20
71.6505698882
 10
136.5645165521
 20
71.7151386255
 10
136.6038067852
 20
71.7803745071
 10
136.6429826053
 20
71.8462839737
 10
136.6822425308
 20
71.9132409179
 10
136.721588666
 20
71.9812418706
 10
136.7610189067
 20
72.0502903007
 10
136.8007254587
 20
72.1207705085
 10
136.8407723906
 20
72.1928105939
 10
136.8810956337
 20
72.2662824568
 10
136.9216951882
 20
72.3411860973
  0
LWPOLYLINE
  5
2C1
100
AcDbEntity
  8
0
100
AcDbPolyline
 62
7
  6
CONTINUOUS
 90
7
 70
0
 10
115.786854264
 20
72.3411857454
 10
115.6634788598
 20
72.6249177333
 10
115.5472964306
 20
72.9126981433
 10
115.4383069764
 20
73.2045269753
 10
115.3365104972
 20
73.5004042294
 10
115.2419069929
 20
73.8003299055
 10
115.1544964637
 20
74.1043040036
  0
LINE
  5
2C2
100
AcDbEntity
  8
0
100
AcDbLine
 62
253
  6
CONTINUOUS
 10
114.6515868563
 20
58.6876216577
 11
114.6929342867
 21
58.5749798069
  0
LINE
  5
2C3
100
AcDbEntity
  8
0
100
AcDbLine
 62
253
  6
CONTINUOUS
 10
114.613432119
 20
58.7935704572
 11
114.6515868563
 21
58.6876216577
  0
LINE
  5
2C4
100
AcDbEntity
  8
0
100
AcDbLine
 62
253
  6
CONTINUOUS
 10
114.5768030628
 20
58.8973349408
 11
114.613432119
 21
58.7935704572
  0
LINE
  5
2C5
100
AcDbEntity
  8
0
100
AcDbLine
 62
253
  6
CONTINUOUS
 10
113.6946355185
 20
59.3525391254
 11
113.7874411198
 21
59.0866216509
  0
LINE
  5
2C6
100
AcDbEntity
  8
0
100
AcDbLine
 62
253
  6
CONTINUOUS
 10
114.4679417251
 20
59.2123583491
 11
114.5768030628
 21
58.8973349408
  0
LINE
  5
2C7
100
AcDbEntity
  8
0
100
AcDbLine
 62
253
  6
CONTINUOUS
 10
113.601831441
 20
59.6224239835
 11
113.6946355185
 21
59.3525391254
  0
LINE
  5
2C8
100
AcDbEntity
  8
0
100
AcDbLine
 62
253
  6
CONTINUOUS
 10
114.341648425
 20
59.5831128465
 11
114.4679417251
 21
59.2123583491
  0
LINE
  5
2C9
100
AcDbEntity
  8
0
100
AcDbLine
 62
253
  6
CONTINUOUS
 10
113.5020682642
 20
59.9171686948
 11
113.601831441
 21
59.6224239835
  0
LINE
  5
2CA
100
AcDbEntity
  8
0
100
AcDbLine
 62
253
  6
CONTINUOUS
 10
114.2701652058
 20
59.7966455788
 11
114.341648425
 21
59.5831128465
  0
LINE
  5
2CB
100
AcDbEntity
  8
0
100
AcDbLine
 62
253
  6
CONTINUOUS
 10
113.4125983795
 20
60.1857595175
 11
113.5020682642
 21
59.9171686948
  0
LINE
  5
2CC
100
AcDbEntity
  8
0
100
AcDbLine
 62
253
  6
CONTINUOUS
 10
114.1955698051
 20
60.023042476
 11
114.2701652058
 21
59.7966455788
  0
LINE
  5
2CD
100
AcDbEntity
  8
0
100
AcDbLine
 62
253
  6
CONTINUOUS
 10
113.339571896
 20
60.408098476
 11
113.4125983795
 21
60.1857595175
  0
LINE
  5
2CE
100
AcDbEntity
  8
0
100
AcDbLine
 62
253
  6
CONTINUOUS
 10
113.2619258461
 20
60.6476896283
 11
113.339571896
 21
60.408098476
  0
LINE
  5
2CF
100
AcDbEntity
  8
0
100
AcDbLine
 62
253
  6
CONTINUOUS
 10
114.1141792205
 20
60.2744244551
 11
114.1955698051
 21
60.023042476
  0
LINE
  5
2D0
100
AcDbEntity
  8
0
100
AcDbLine
 62
253
  6
CONTINUOUS
 10
113.1797501801
 20
60.9049699723
 11
113.2619258461
 21
60.6476896283
  0
LINE
  5
2D1
100
AcDbEntity
  8
0
100
AcDbLine
 62
253
  6
CONTINUOUS
 10
114.0475539742
 20
60.4838011852
 11
114.1141792205
 21
60.2744244551
  0
LINE
  5
2D2
100
AcDbEntity
  8
0
100
AcDbLine
 62
253
  6
CONTINUOUS
 10
113.0926235454
 20
61.1820908995
 11
113.1797501801
 21
60.9049699723
  0
LINE
  5
2D3
100
AcDbEntity
  8
0
100
AcDbLine
 62
253
  6
CONTINUOUS
 10
113.976485943
 20
60.7107822282
 11
114.0475539742
 21
60.4838011852
  0
LINE
  5
2D4
100
AcDbEntity
  8
0
100
AcDbLine
 62
253
  6
CONTINUOUS
 10
113.0315739571
 20
61.3790352881
 11
113.0926235454
 21
61.1820908995
  0
LINE
  5
2D5
100
AcDbEntity
  8
0
100
AcDbLine
 62
253
  6
CONTINUOUS
 10
113.9013659322
 20
60.9548947302
 11
113.976485943
 21
60.7107822282
  0
LINE
  5
2D6
100
AcDbEntity
  8
0
100
AcDbLine
 62
253
  6
CONTINUOUS
 10
112.9680106196
 20
61.5866005308
 11
113.0315739571
 21
61.3790352881
  0
LINE
  5
2D7
100
AcDbEntity
  8
0
100
AcDbLine
 62
253
  6
CONTINUOUS
 10
113.8489886323
 20
61.1277693447
 11
113.9013659322
 21
60.9548947302
  0
LINE
  5
2D8
100
AcDbEntity
  8
0
100
AcDbLine
 62
253
  6
CONTINUOUS
 10
112.9018106885
 20
61.8055920872
 11
112.9680106196
 21
61.5866005308
  0
LINE
  5
2D9
100
AcDbEntity
  8
0
100
AcDbLine
 62
253
  6
CONTINUOUS
 10
113.7946936424
 20
61.3093803873
 11
113.8489886323
 21
61.1277693447
  0
LINE
  5
2DA
100
AcDbEntity
  8
0
100
AcDbLine
 62
253
  6
CONTINUOUS
 10
112.8329410075
 20
62.0365808836
 11
112.9018106885
 21
61.8055920872
  0
LINE
  5
2DB
100
AcDbEntity
  8
0
100
AcDbLine
 62
253
  6
CONTINUOUS
 10
113.7383497633
 20
61.5005449881
 11
113.7946936424
 21
61.3093803873
  0
LWPOLYLINE
  5
2DC
100
AcDbEntity
  8
0
100
AcDbPolyline
 62
253
  6
CONTINUOUS
 90
3
 70
0
 10
112.7244012726
 20
62.4074817992
 10
112.7612415848
 20
62.2806220501
 10
112.8329410075
 20
62.0365808836
  0
LINE
  5
2DD
100
AcDbEntity
  8
0
100
AcDbLine
 62
253
  6
CONTINUOUS
 10
113.6798634937
 20
61.7020739554
 11
113.7383497633
 21
61.5005449881
  0
LINE
  5
2DE
100
AcDbEntity
  8
0
100
AcDbLine
 62
253
  6
CONTINUOUS
 10
113.6192212413
 20
61.9145057138
 11
113.6798634937
 21
61.7020739554
  0
LWPOLYLINE
  5
2DF
100
AcDbEntity
  8
0
100
AcDbPolyline
 62
253
  6
CONTINUOUS
 90
6
 70
0
 10
113.4239096479
 20
62.6253164215
 10
113.4578311144
 20
62.4987973739
 10
113.49123135
 20
62.3754926346
 10
113.5240899893
 20
62.2554068075
 10
113.556366703
 20
62.1386453567
 10
113.6192212413
 20
61.9145057138
  0
LWPOLYLINE
  5
2E0
100
AcDbEntity
  8
0
100
AcDbPolyline
 62
253
  6
CONTINUOUS
 90
175
 70
0
 10
115.786854264
 20
72.3411857454
 10
115.814210685
 20
72.2591639292
 10
115.841998834
 20
72.1786478963
 10
115.8702875702
 20
72.0997528126
 10
115.899234636
 20
72.0228520775
 10
115.9288130503
 20
71.9478044343
 10
115.9587790939
 20
71.8738976711
 10
115.9890643052
 20
71.8011001082
 10
116.0197806919
 20
71.729543756
 10
116.0509159415
 20
71.6586887562
 10
116.0824455048
 20
71.5885281514
 10
116.1144175889
 20
71.5191279869
 10
116.1469200859
 20
71.4500283557
 10
116.1799826015
 20
71.3811594833
 10
116.2135973854
 20
71.3126336494
 10
116.2477952516
 20
71.2442509767
 10
116.2826355423
 20
71.1759098607
 10
116.3180790027
 20
71.1077466611
 10
116.3540029514
 20
71.0399094164
 10
116.3903219262
 20
70.972562732
 10
116.4271275339
 20
70.9055664528
 10
116.4645616785
 20
70.8386069657
 10
116.5025174767
 20
70.7718826424
 10
116.5411147398
 20
70.7052198316
 10
116.5808547276
 20
70.6377545583
 10
116.6217491011
 20
70.5695147493
 10
116.6638322816
 20
70.5005152791
 10
116.707672121
 20
70.4298902867
 10
116.7533275652
 20
70.3576349313
 10
116.8008220185
 20
70.2838222542
 10
116.8507050227
 20
70.2077258544
 10
116.9031635629
 20
70.1292052609
 10
116.9581360626
 20
70.0485055432
 10
117.0158231142
 20
69.9654970857
 10
117.0763400881
 20
69.8801802435
 10
117.1397138739
 20
69.7926841268
 10
117.2060194192
 20
69.7030811159
 10
117.2752873045
 20
69.6114961237
 10
117.3476351239
 20
69.5179520462
 10
117.4232752589
 20
69.4223782386
 10
117.5021985307
 20
69.3249741823
 10
117.5845774977
 20
69.2257187696
 10
117.6709200774
 20
69.1242359525
 10
117.761348453
 20
69.0206118337
 10
117.8559459007
 20
68.915000063
 10
117.9551972543
 20
68.8071632859
 10
118.0593010017
 20
68.6971614452
 10
118.1683114156
 20
68.585242607
 10
118.2825217259
 20
68.4714863518
 10
118.4018190461
 20
68.3563384569
 10
118.526579614
 20
68.2397201374
 10
118.6578732272
 20
68.1209922321
 10
118.7956507442
 20
68.000649088
 10
118.9402909288
 20
67.878734723
 10
119.0936121436
 20
67.7540805473
 10
119.2573630451
 20
67.6259185069
 10
119.4303109824
 20
67.4958937457
 10
119.6097440787
 20
67.3663949108
 10
119.7962211891
 20
67.2373623526
 10
119.9893787869
 20
67.1094361457
 10
120.1848101612
 20
66.9856232215
 10
120.3809104719
 20
66.86682262
 10
120.5790567047
 20
66.7521162682
 10
120.7791386143
 20
66.6415085903
 10
120.9806925682
 20
66.5352037428
 10
121.1839917862
 20
66.4330174625
 10
121.3900670429
 20
66.334435548
 10
121.5995051982
 20
66.2392556004
 10
121.8116137588
 20
66.1478761868
 10
122.0255152508
 20
66.0607035063
 10
122.2409812356
 20
65.9778281497
 10
122.4580753143
 20
65.8992302757
 10
122.6763289187
 20
65.8250773996
 10
122.8948632397
 20
65.7556090205
 10
123.1143554571
 20
65.6905406904
 10
123.3366965937
 20
65.6293423216
 10
123.562090268
 20
65.5720602996
 10
123.7902036782
 20
65.5188748199
 10
124.0221707084
 20
65.4696517815
 10
124.2585895719
 20
65.4244625546
 10
124.4987391552
 20
65.3836424598
 10
124.7417737649
 20
65.3474835239
 10
124.9876683911
 20
65.3161282278
 10
125.2362671667
 20
65.2897384903
 10
125.4865061054
 20
65.2685278484
 10
125.7382860443
 20
65.2525886505
 10
125.9914873893
 20
65.2420178777
 10
126.2450026371
 20
65.2369095386
 10
126.4987205838
 20
65.2372872488
 10
126.7525190168
 20
65.2431655487
 10
127.0052723136
 20
65.2544832745
 10
127.2568525434
 20
65.2711587923
 10
127.5071623232
 20
65.2931182693
 10
127.7551314722
 20
65.3201829751
 10
128.0006470541
 20
65.3522149049
 10
128.2436277966
 20
65.3890811861
 10
128.4830715021
 20
65.430492173
 10
128.7184376137
 20
65.476166978
 10
128.9501275613
 20
65.5259971539
 10
129.178563704
 20
65.5799284075
 10
129.4031274781
 20
65.6376697083
 10
129.6243221147
 20
65.6991989518
 10
129.8442171402
 20
65.7650288181
 10
130.0633083048
 20
65.8353428802
 10
130.2809128267
 20
65.9099578571
 10
130.4972951573
 20
65.988972128
 10
130.7128130127
 20
66.0725430821
 10
130.9269255369
 20
66.160494646
 10
131.1385696594
 20
66.2523748087
 10
131.3469250536
 20
66.347748909
 10
131.5526984048
 20
66.4468660281
 10
131.7571053698
 20
66.5503193512
 10
131.9599182414
 20
66.6580410695
 10
132.1611620472
 20
66.7700978841
 10
132.3623354949
 20
66.8874615726
 10
132.5652964933
 20
67.0114833429
 10
132.7677917169
 20
67.1410941944
 10
132.9652672337
 20
67.2734452203
 10
133.1579961995
 20
67.4085175296
 10
133.3457051628
 20
67.5459699006
 10
133.5234375999
 20
67.6818669024
 10
133.6895614218
 20
67.8141859247
 10
133.8462778612
 20
67.943937486
 10
133.9945781847
 20
68.071491933
 10
134.134502035
 20
68.1963532005
 10
134.266468879
 20
68.3182915096
 10
134.3919479986
 20
68.4382092294
 10
134.5113415574
 20
68.5561262981
 10
134.6245891977
 20
68.6715569462
 10
134.7323898415
 20
68.7847561064
 10
134.834893986
 20
68.895532823
 10
134.9322430843
 20
69.0037245421
 10
135.0250749087
 20
69.1096890844
 10
135.1135060723
 20
69.2132800346
 10
135.1976507613
 20
69.314377082
 10
135.2780979155
 20
69.413424758
 10
135.3550313744
 20
69.5104379713
 10
135.4284481317
 20
69.605206517
 10
135.4986280116
 20
69.6978685209
 10
135.5656992352
 20
69.7884019261
 10
135.6296929458
 20
69.8766711622
 10
135.6907320716
 20
69.9626578906
 10
135.7488500602
 20
70.0462340851
 10
135.8041626376
 20
70.1273926938
 10
135.8569059915
 20
70.2063081753
 10
135.9070262907
 20
70.2827427321
 10
135.9547064717
 20
70.3568267862
 10
136.000512078
 20
70.4293070211
 10
136.0444683684
 20
70.5001105853
 10
136.0866347144
 20
70.5692405844
 10
136.127591777
 20
70.6375810089
 10
136.1673747894
 20
70.7051167408
 10
136.2059958525
 20
70.7718193351
 10
136.2439676688
 20
70.8385709893
 10
136.2814119542
 20
70.905548067
 10
136.3182203552
 20
70.9725492472
 10
136.3545406062
 20
71.039898181
 10
136.3904657299
 20
71.1077375049
 10
136.4259089128
 20
71.1759001009
 10
136.4607489195
 20
71.2442405952
 10
136.4949468486
 20
71.3126233021
 10
136.5285616806
 20
71.3811491552
 10
136.5616245456
 20
71.4500187042
 10
136.5941278778
 20
71.5191200813
 10
136.6261010734
 20
71.5885226542
 10
136.6576317481
 20
71.6586857735
 10
136.6887681017
 20
71.729543406
 10
136.7194855912
 20
71.8011024921
 10
136.7497716636
 20
71.8739022867
 10
136.7797383004
 20
71.9478108044
 10
136.809317081
 20
72.0228596954
 10
136.8382641522
 20
72.0997605004
 10
136.866552489
 20
72.1786542701
 10
136.8943398816
 20
72.2591678498
 10
136.9216951882
 20
72.3411860973
  0
LWPOLYLINE
  5
2E1
100
AcDbEntity
  8
0
100
AcDbPolyline
 62
253
  6
CONTINUOUS
 90
37
 70
0
 10
110.5611853325
 20
74.0264760793
 10
110.5944973155
 20
73.6516566763
 10
110.6290327324
 20
73.2886212694
 10
110.66458168
 20
72.9373636214
 10
110.7007402296
 20
72.5997354949
 10
110.737492797
 20
72.2738651367
 10
110.7753129182
 20
71.9541687441
 10
110.8141250994
 20
71.6404658626
 10
110.8538163505
 20
71.3329325917
 10
110.8949747969
 20
71.0265388852
 10
110.9377249348
 20
70.7203014354
 10
110.9819218113
 20
70.4152176409
 10
111.0278581004
 20
70.1092427948
 10
111.0756856231
 20
69.8015282165
 10
111.1252934278
 20
69.4929459247
 10
111.1766031493
 20
69.1840356348
 10
111.2296722481
 20
68.8745234551
 10
111.2844617623
 20
68.5647038595
 10
111.3407189674
 20
68.2559639064
 10
111.3983743604
 20
67.9486028679
 10
111.4574669318
 20
67.6423330087
 10
111.5178775793
 20
67.337655166
 10
111.5794048516
 20
67.0354454517
 10
111.6421988337
 20
66.7348338269
 10
111.7066924175
 20
66.4337067524
 10
111.7726888099
 20
66.1330104552
 10
111.8403974358
 20
65.8318176223
 10
111.9109680105
 20
65.5252283388
 10
111.9845850852
 20
65.2128669195
 10
112.0612449626
 20
64.8951692494
 10
112.141952123
 20
64.5684862164
 10
112.2270996507
 20
64.2319354214
 10
112.3166175993
 20
63.886502716
 10
112.4108971419
 20
63.5313640853
 10
112.510199055
 20
63.1662894914
 10
112.6146363958
 20
62.7916386714
 10
112.7244012726
 20
62.4074817992
  0
LWPOLYLINE
  5
2E2
100
AcDbEntity
  8
0
100
AcDbPolyline
 62
253
  6
CONTINUOUS
 90
37
 70
0
 10
111.5539361964
 20
74.1145654753
 10
111.5836572661
 20
73.7470752271
 10
111.6142518062
 20
73.3912246248
 10
111.6454699672
 20
73.0468882364
 10
111.6768070634
 20
72.7156855517
 10
111.7082589433
 20
72.3957557515
 10
111.7404452443
 20
72.0817894829
 10
111.7733140186
 20
71.7735550681
 10
111.8066768195
 20
71.471133544
 10
111.841157227
 20
71.1697252375
 10
111.8768772232
 20
70.8682973224
 10
111.9136780643
 20
70.5677541875
 10
111.9518941256
 20
70.2662179996
 10
111.9916446205
 20
69.9627942851
 10
112.0328380732
 20
69.6582599989
 10
112.0755137363
 20
69.3532661674
 10
112.1196882757
 20
69.0475135391
 10
112.1653299649
 20
68.7412146235
 10
112.2123611975
 20
68.4358259802
 10
112.2606877615
 20
68.1316450833
 10
112.3103213993
 20
67.8283356843
 10
112.3613050128
 20
67.5264444035
 10
112.4134458379
 20
67.2268444692
 10
112.4668293471
 20
66.9286620911
 10
112.5219464742
 20
66.6298439538
 10
112.5786224752
 20
66.3313009955
 10
112.6370029669
 20
66.0321247761
 10
112.6981868353
 20
65.7275235936
 10
112.7623413569
 20
65.4170503158
 10
112.8294613538
 20
65.1011260895
 10
112.9005427008
 20
64.776246141
 10
112.9759386407
 20
64.4414538183
 10
113.0556047826
 20
64.0976735896
 10
113.1400278233
 20
63.7442319099
 10
113.229492362
 20
63.3809114444
 10
113.3240614024
 20
63.0079376261
 10
113.4239096479
 20
62.6253164215
  0
LINE
  5
2E3
100
AcDbEntity
  8
0
100
AcDbLine
 62
7
  6
CONTINUOUS
 10
110.1042746474
 20
103.8645168935
 11
110.1042746474
 21
79.1645168935
  0
LWPOLYLINE
  5
2E4
100
AcDbEntity
  8
0
100
AcDbPolyline
 62
253
  6
CONTINUOUS
 90
10
 70
0
 10
139.2846396468
 20
62.6253164215
 10
138.8918726953
 20
63.1278342265
 10
138.4993113584
 20
63.6335643479
 10
138.1069556361
 20
64.1422691708
 10
137.7147688367
 20
64.6537597995
 10
137.322787652
 20
65.1677525934
 10
136.9311221566
 20
65.6838666822
 10
136.5398090423
 20
66.2018167996
 10
136.1488116173
 20
66.7214157657
 10
135.7581298817
 20
67.2424292825
  0
LINE
  5
2E5
100
AcDbEntity
  8
0
100
AcDbLine
 62
7
  6
CONTINUOUS
 10
127.1271536474
 20
73.2374948935
 11
127.3189506474
 21
72.8957758935
  0
LWPOLYLINE
  5
2E6
100
AcDbEntity
  8
0
100
AcDbPolyline
 62
253
  6
CONTINUOUS
 90
55
 70
0
 10
115.2518489009
 20
72.8688022788
 10
115.2579604549
 20
72.8263673369
 10
115.2644574861
 20
72.7826444129
 10
115.2713861425
 20
72.7374664796
 10
115.2787658865
 20
72.6908498756
 10
115.2866191235
 20
72.6427929389
 10
115.2950026861
 20
72.5931037259
 10
115.3039412199
 20
72.5418016081
 10
115.3134615632
 20
72.4888855986
 10
115.3236312765
 20
72.4341354664
 10
115.3344791483
 20
72.3775763822
 10
115.3460396251
 20
72.3192069482
 10
115.3583980958
 20
72.2587702868
 10
115.3715896901
 20
72.1962985426
 10
115.3856574799
 20
72.1317907189
 10
115.4007108608
 20
72.0649446736
 10
115.416793097
 20
71.9958023464
 10
115.4339583654
 20
71.9243631166
 10
115.4523483124
 20
71.850267279
 10
115.4720176316
 20
71.7735661995
 10
115.4930341653
 20
71.6942640704
 10
115.5155801131
 20
71.6119392796
 10
115.5397212111
 20
71.5266693397
 10
115.5655465079
 20
71.4384521559
 10
115.5933012903
 20
71.3467595273
 10
115.6230783899
 20
71.2516645155
 10
115.6549843271
 20
71.1531987106
 10
115.6893213433
 20
71.0507896076
 10
115.726172781
 20
70.9446295821
 10
115.7657072985
 20
70.8346699858
 10
115.8084097594
 20
70.7200057661
 10
115.8547923163
 20
70.5998608034
 10
115.9047090949
 20
70.4752354234
 10
115.9576335482
 20
70.3478810242
 10
116.0138284844
 20
70.2175508519
 10
116.0732781794
 20
70.0846829258
 10
116.1348692149
 20
69.9519662262
 10
116.1981929149
 20
69.8202991041
 10
116.2636561491
 20
69.6888439085
 10
116.3312605201
 20
69.557622858
 10
116.4010400861
 20
69.4266212372
 10
116.4729747463
 20
69.2959262216
 10
116.5469777423
 20
69.1657080681
 10
116.6230843712
 20
69.0359499858
 10
116.7012592915
 20
68.906734812
 10
116.781291009
 20
68.7783586562
 10
116.8629627091
 20
68.6511669287
 10
116.9464584468
 20
68.5248247004
 10
117.0321816804
 20
68.3986079955
 10
117.1201744155
 20
68.2725220704
 10
117.2104235333
 20
68.146615616
 10
117.3032990534
 20
68.020259053
 10
117.3989753463
 20
67.8932679534
 10
117.4973997968
 20
67.7658925685
 10
117.5986373429
 20
67.6381634383
  0
LINE
  5
2E7
100
AcDbEntity
  8
0
100
AcDbLine
 62
253
  6
CONTINUOUS
 10
115.2075565747
 20
73.2290422437
 11
115.2144140899
 21
73.1653309492
  0
LINE
  5
2E8
100
AcDbEntity
  8
0
100
AcDbLine
 62
253
  6
CONTINUOUS
 10
115.2211668861
 20
72.5316700314
 11
115.2328740016
 21
72.422208559
  0
LINE
  5
2E9
100
AcDbEntity
  8
0
100
AcDbLine
 62
253
  6
CONTINUOUS
 10
115.2014719009
 20
73.2890888386
 11
115.2075565747
 21
73.2290422437
  0
LINE
  5
2EA
100
AcDbEntity
  8
0
100
AcDbLine
 62
253
  6
CONTINUOUS
 10
115.2110404433
 20
72.634176796
 11
115.2211668861
 21
72.5316700314
  0
LINE
  5
2EB
100
AcDbEntity
  8
0
100
AcDbLine
 62
253
  6
CONTINUOUS
 10
115.1960648049
 20
73.3457487707
 11
115.2014719009
 21
73.2890888386
  0
LINE
  5
2EC
100
AcDbEntity
  8
0
100
AcDbLine
 62
253
  6
CONTINUOUS
 10
115.2022940395
 20
72.7301411273
 11
115.2110404433
 21
72.634176796
  0
LINE
  5
2ED
100
AcDbEntity
  8
0
100
AcDbLine
 62
253
  6
CONTINUOUS
 10
115.1912545201
 20
73.3992600379
 11
115.1960648049
 21
73.3457487707
  0
LINE
  5
2EE
100
AcDbEntity
  8
0
100
AcDbLine
 62
253
  6
CONTINUOUS
 10
115.186976808
 20
73.4497721413
 11
115.1912545201
 21
73.3992600379
  0
LINE
  5
2EF
100
AcDbEntity
  8
0
100
AcDbLine
 62
253
  6
CONTINUOUS
 10
115.1947425292
 20
72.8201305733
 11
115.2022940395
 21
72.7301411273
  0
LINE
  5
2F0
100
AcDbEntity
  8
0
100
AcDbLine
 62
253
  6
CONTINUOUS
 10
115.1831680251
 20
73.4975032246
 11
115.186976808
 21
73.4497721413
  0
LINE
  5
2F1
100
AcDbEntity
  8
0
100
AcDbLine
 62
253
  6
CONTINUOUS
 10
115.1882215278
 20
72.9046345951
 11
115.1947425292
 21
72.8201305733
  0
LINE
  5
2F2
100
AcDbEntity
  8
0
100
AcDbLine
 62
253
  6
CONTINUOUS
 10
115.1797738416
 20
73.5426406533
 11
115.1831680251
 21
73.4975032246
  0
LINE
  5
2F3
100
AcDbEntity
  8
0
100
AcDbLine
 62
253
  6
CONTINUOUS
 10
115.1825973625
 20
72.9839659226
 11
115.1882215278
 21
72.9046345951
  0
LINE
  5
2F4
100
AcDbEntity
  8
0
100
AcDbLine
 62
253
  6
CONTINUOUS
 10
115.1753637686
 20
73.605771975
 11
115.1797738416
 21
73.5426406533
  0
LINE
  5
2F5
100
AcDbEntity
  8
0
100
AcDbLine
 62
253
  6
CONTINUOUS
 10
115.1777490046
 20
73.0585565591
 11
115.1825973625
 21
72.9839659226
  0
LINE
  5
2F6
100
AcDbEntity
  8
0
100
AcDbLine
 62
253
  6
CONTINUOUS
 10
115.1716510637
 20
73.663872016
 11
115.1753637686
 21
73.605771975
  0
LINE
  5
2F7
100
AcDbEntity
  8
0
100
AcDbLine
 62
253
  6
CONTINUOUS
 10
115.1735744449
 20
73.1287691371
 11
115.1777490046
 21
73.0585565591
  0
LINE
  5
2F8
100
AcDbEntity
  8
0
100
AcDbLine
 62
253
  6
CONTINUOUS
 10
115.1685245548
 20
73.7173812502
 11
115.1716510637
 21
73.663872016
  0
LINE
  5
2F9
100
AcDbEntity
  8
0
100
AcDbLine
 62
253
  6
CONTINUOUS
 10
115.1699878346
 20
73.1948375752
 11
115.1735744449
 21
73.1287691371
  0
LINE
  5
2FA
100
AcDbEntity
  8
0
100
AcDbLine
 62
253
  6
CONTINUOUS
 10
115.1658919468
 20
73.7666955189
 11
115.1685245548
 21
73.7173812502
  0
LINE
  5
2FB
100
AcDbEntity
  8
0
100
AcDbLine
 62
253
  6
CONTINUOUS
 10
115.1669123736
 20
73.2570870286
 11
115.1699878346
 21
73.1948375752
  0
LINE
  5
2FC
100
AcDbEntity
  8
0
100
AcDbLine
 62
253
  6
CONTINUOUS
 10
115.1636758942
 20
73.8121716546
 11
115.1658919468
 21
73.7666955189
  0
LINE
  5
2FD
100
AcDbEntity
  8
0
100
AcDbLine
 62
253
  6
CONTINUOUS
 10
115.1612587079
 20
73.8673836319
 11
115.1636758942
 21
73.8121716546
  0
LINE
  5
2FE
100
AcDbEntity
  8
0
100
AcDbLine
 62
253
  6
CONTINUOUS
 10
115.1631164096
 20
73.3438589748
 11
115.1669123736
 21
73.2570870286
  0
LINE
  5
2FF
100
AcDbEntity
  8
0
100
AcDbLine
 62
253
  6
CONTINUOUS
 10
115.1593414068
 20
73.9170242609
 11
115.1612587079
 21
73.8673836319
  0
LINE
  5
300
100
AcDbEntity
  8
0
100
AcDbLine
 62
253
  6
CONTINUOUS
 10
115.1601387283
 20
73.4233807805
 11
115.1631164096
 21
73.3438589748
  0
LINE
  5
301
100
AcDbEntity
  8
0
100
AcDbLine
 62
253
  6
CONTINUOUS
 10
115.1575012071
 20
73.9720135284
 11
115.1593414068
 21
73.9170242609
  0
LINE
  5
302
100
AcDbEntity
  8
0
100
AcDbLine
 62
253
  6
CONTINUOUS
 10
115.1578278744
 20
73.4963432745
 11
115.1601387283
 21
73.4233807805
  0
LINE
  5
303
100
AcDbEntity
  8
0
100
AcDbLine
 62
253
  6
CONTINUOUS
 10
115.1561242289
 20
74.0205666259
 11
115.1575012071
 21
73.9720135284
  0
LINE
  5
304
100
AcDbEntity
  8
0
100
AcDbLine
 62
253
  6
CONTINUOUS
 10
115.1560604288
 20
73.5633571599
 11
115.1578278744
 21
73.4963432745
  0
LINE
  5
305
100
AcDbEntity
  8
0
100
AcDbLine
 62
253
  6
CONTINUOUS
 10
115.1551334643
 20
73.6050103359
 11
115.1560604288
 21
73.5633571599
  0
LWPOLYLINE
  5
306
100
AcDbEntity
  8
RACCORDO
100
AcDbPolyline
 62
253
  6
CONTINUOUS
 90
28
 70
0
 10
113.7542749237
 20
97.3645168935
 10
113.756326169
 20
97.2185297278
 10
113.7672327888
 20
97.0683543096
 10
113.7869947832
 20
96.9139906387
 10
113.8151257651
 20
96.7542646546
 10
113.8521121216
 20
96.5903504179
 10
113.8994130139
 20
96.4257701102
 10
113.9574747886
 20
96.2604717065
 10
114.0258510991
 20
96.0945072318
 10
114.1046620673
 20
95.9315549432
 10
114.1942734741
 20
95.7718145391
 10
114.2943195386
 20
95.6150863212
 10
114.4038230389
 20
95.4644494517
 10
114.5230091677
 20
95.3201754614
 10
114.6516527325
 20
95.1819928196
 10
114.7881009338
 20
95.0521660967
 10
114.9324618871
 20
94.9309497049
 10
115.0846274769
 20
94.8180892321
 10
115.2426205583
 20
94.7150860126
 10
115.4063946834
 20
94.6221635759
 10
115.5759963001
 20
94.5390983926
 10
115.7495876061
 20
94.4667212085
 10
115.9271844701
 20
94.4051370749
 10
116.1087710235
 20
94.3542409405
 10
116.2924618586
 20
94.3145483979
 10
116.4776285064
 20
94.2862313112
 10
116.664899436
 20
94.2691178163
 10
116.8542746474
 20
94.2632079132
  0
LINE
  5
307
100
AcDbEntity
  8
0
100
AcDbLine
 62
253
  6
CONTINUOUS
 10
110.3431956153
 20
103.8645168935
 11
110.3431956153
 21
79.1645168935
  0
LINE
  5
308
100
AcDbEntity
  8
0
100
AcDbLine
 62
253
  6
CONTINUOUS
 10
111.3392135992
 20
79.1645168935
 11
111.3392135992
 21
104.3645168935
  0
LWPOLYLINE
  5
309
100
AcDbEntity
  8
0
100
AcDbPolyline
 62
253
  6
CONTINUOUS
 90
19
 70
0
 10
110.3431956151
 20
103.8645168935
 10
110.3450906859
 20
103.90809472
 10
110.3507614769
 20
103.9513409029
 10
110.3601648326
 20
103.9939263127
 10
110.3732291898
 20
104.0355268475
 10
110.3898551234
 20
104.0758259029
 10
110.4099161042
 20
104.1145167811
 10
110.4332594621
 20
104.1513050237
 10
110.4597075403
 20
104.1859106433
 10
110.4890590474
 20
104.2180702594
 10
110.5210906007
 20
104.2475391176
 10
110.5555584205
 20
104.274092941
 10
110.5922001746
 20
104.2975296321
 10
110.630736991
 20
104.3176708237
 10
110.6708755835
 20
104.3343632343
 10
110.7123104735
 20
104.3474798276
 10
110.754726316
 20
104.3569207811
 10
110.7978003002
 20
104.3626142458
 10
110.8412046072
 20
104.3645168935
  0
LWPOLYLINE
  5
30A
100
AcDbEntity
  8
RACCORDO
100
AcDbPolyline
 62
253
  6
CONTINUOUS
 90
28
 70
0
 10
135.8542746474
 20
94.2632079132
 10
136.0479714143
 20
94.2694078259
 10
136.2393821749
 20
94.287292289
 10
136.4285069293
 20
94.3168613027
 10
136.6159633895
 20
94.3582786633
 10
136.8011338434
 20
94.4113805743
 10
136.9821651553
 20
94.4756756465
 10
137.1590886566
 20
94.5512663779
 10
137.3318730158
 20
94.6380502704
 10
137.4985711024
 20
94.73522844
 10
137.6593941255
 20
94.8432370636
 10
137.814130876
 20
94.9616399644
 10
137.9602005951
 20
95.088329728
 10
138.0973592602
 20
95.2237055553
 10
138.225850894
 20
95.3673682453
 10
138.3438268056
 20
95.5160127815
 10
138.4507889969
 20
95.6697239357
 10
138.5472354661
 20
95.828416936
 10
138.6328115173
 20
95.9885324504
 10
138.7070964775
 20
96.1500160779
 10
138.7705110198
 20
96.3129222196
 10
138.8239624679
 20
96.4738547467
 10
138.8671231319
 20
96.6326703144
 10
138.9003207016
 20
96.7895122675
 10
138.925445571
 20
96.9414145115
 10
138.9431278714
 20
97.087388348
 10
138.9527374714
 20
97.2284224754
 10
138.954274371
 20
97.3645168935
  0
LINE
  5
30B
100
AcDbEntity
  8
0
100
AcDbLine
 62
253
  6
CONTINUOUS
 10
135.8542746474
 20
93.9395168935
 11
116.8542746474
 21
93.9395168935
  0
LINE
  5
30C
100
AcDbEntity
  8
0
100
AcDbLine
 62
7
  6
CONTINUOUS
 10
135.8542746474
 20
94.0895168935
 11
116.8542746474
 21
94.0895168935
  0
LINE
  5
30D
100
AcDbEntity
  8
0
100
AcDbLine
 62
7
  6
CONTINUOUS
 10
136.2514956811
 20
94.1145168935
 11
135.8542746474
 21
94.1145168935
  0
LINE
  5
30E
100
AcDbEntity
  8
0
100
AcDbLine
 62
7
  6
CONTINUOUS
 10
116.8542746474
 20
94.1145168935
 11
116.4570536211
 21
94.1145168935
  0
LINE
  5
30F
100
AcDbEntity
  8
RACCORDO
100
AcDbLine
 62
7
  6
CONTINUOUS
 10
116.8542746474
 20
94.1145168935
 11
135.8542746474
 21
94.1145168935
  0
LINE
  5
310
100
AcDbEntity
  8
RACCORDO
100
AcDbLine
 62
253
  6
CONTINUOUS
 10
116.8542746474
 20
94.2632079132
 11
135.8542746474
 21
94.2632079132
  0
LINE
  5
311
100
AcDbEntity
  8
0
100
AcDbLine
 62
7
  6
CONTINUOUS
 10
113.6186862338
 20
96.8645168935
 11
113.6429665027
 21
96.8645168935
  0
LINE
  5
312
100
AcDbEntity
  8
0
100
AcDbLine
 62
7
  6
CONTINUOUS
 10
139.065582792
 20
96.8645168935
 11
139.0898630604
 21
96.8645168935
  0
LINE
  5
313
100
AcDbEntity
  8
0
100
AcDbLine
 62
253
  6
CONTINUOUS
 10
113.6048958889
 20
96.96364424
 11
113.629092309
 21
96.96364424
  0
LINE
  5
314
100
AcDbEntity
  8
0
100
AcDbLine
 62
253
  6
CONTINUOUS
 10
139.0794569857
 20
96.96364424
 11
139.1036534062
 21
96.96364424
  0
LINE
  5
315
100
AcDbEntity
  8
0
100
AcDbLine
 62
7
  6
CONTINUOUS
 10
139.1280311559
 20
97.3645168935
 11
139.1042746474
 21
97.3645168935
  0
LINE
  5
316
100
AcDbEntity
  8
RACCORDO
100
AcDbLine
 62
7
  6
CONTINUOUS
 10
138.954274371
 20
97.3645168935
 11
137.8542746474
 21
97.3645168935
  0
LINE
  5
317
100
AcDbEntity
  8
0
100
AcDbLine
 62
7
  6
CONTINUOUS
 10
133.8542746474
 20
97.3645168935
 11
128.3542746474
 21
97.3645168935
  0
LINE
  5
318
100
AcDbEntity
  8
0
100
AcDbLine
 62
7
  6
CONTINUOUS
 10
124.3542746474
 20
97.3645168935
 11
118.8542746474
 21
97.3645168935
  0
LINE
  5
319
100
AcDbEntity
  8
RACCORDO
100
AcDbLine
 62
7
  6
CONTINUOUS
 10
114.8542746474
 20
97.3645168935
 11
113.7542749237
 21
97.3645168935
  0
LINE
  5
31A
100
AcDbEntity
  8
0
100
AcDbLine
 62
7
  6
CONTINUOUS
 10
113.6042746474
 20
97.3645168935
 11
113.5805181389
 21
97.3645168935
  0
LINE
  5
31B
100
AcDbEntity
  8
RACCORDO
100
AcDbLine
 62
253
  6
CONTINUOUS
 10
113.7542749237
 20
97.3645168935
 11
113.6792758247
 21
97.3647239168
  0
LINE
  5
31C
100
AcDbEntity
  8
RACCORDO
100
AcDbLine
 62
253
  6
CONTINUOUS
 10
138.954274371
 20
97.3645168935
 11
139.0292734405
 21
97.3643098696
  0
LWPOLYLINE
  5
31D
100
AcDbEntity
  8
RACCORDO
100
AcDbPolyline
 62
253
  6
CONTINUOUS
 90
7
 70
0
 10
113.6792758247
 20
97.3647239168
 10
113.6352735933
 20
97.3650792431
 10
113.624373012
 20
97.3652262167
 10
113.6156950947
 20
97.3653834507
 10
113.6093883206
 20
97.3655482539
 10
113.6055605986
 20
97.3657178076
 10
113.6042774209
 20
97.3658892107
  0
LWPOLYLINE
  5
31E
100
AcDbEntity
  8
RACCORDO
100
AcDbPolyline
 62
253
  6
CONTINUOUS
 90
7
 70
0
 10
139.0292734405
 20
97.3643098696
 10
139.0732756496
 20
97.3639545432
 10
139.0841762248
 20
97.3638075697
 10
139.0928541372
 20
97.3636503359
 10
139.0991609078
 20
97.3634855328
 10
139.1029886276
 20
97.3633159793
 10
139.1042718045
 20
97.3631445764
  0
LINE
  5
31F
100
AcDbEntity
  8
0
100
AcDbLine
 62
253
  6
CONTINUOUS
 10
115.2407118663
 20
72.9498033831
 11
115.2518489009
 21
72.8688022788
  0
LWPOLYLINE
  5
320
100
AcDbEntity
  8
0
100
AcDbPolyline
 62
253
  6
CONTINUOUS
 90
9
 70
0
 10
118.4130257489
 20
54.6417262634
 10
118.4112576516
 20
54.6554877934
 10
118.4101179516
 20
54.6783291961
 10
118.4096172123
 20
54.7100387671
 10
118.4097600748
 20
54.7503226078
 10
118.410545215
 20
54.7988073491
 10
118.4119653558
 20
54.8550436127
 10
118.4140073348
 20
54.9185101753
 10
118.4166522259
 20
54.9886188001
  0
LINE
  5
321
100
AcDbEntity
  8
0
100
AcDbLine
 62
253
  6
CONTINUOUS
 10
115.2308581227
 20
73.0260433045
 11
115.2407118663
 21
72.9498033831
  0
LINE
  5
322
100
AcDbEntity
  8
0
100
AcDbLine
 62
253
  6
CONTINUOUS
 10
115.2221406505
 20
73.097765703
 11
115.2308581227
 21
73.0260433045
  0
LWPOLYLINE
  5
323
100
AcDbEntity
  8
0
100
AcDbPolyline
 62
253
  6
CONTINUOUS
 90
46
 70
0
 10
115.2328740016
 20
72.422208559
 10
115.2393948844
 20
72.3646348686
 10
115.2463988651
 20
72.3051534513
 10
115.2539302624
 20
72.2435167822
 10
115.2620231512
 20
72.179733976
 10
115.2707142607
 20
72.113786517
 10
115.2800625173
 20
72.0453831695
 10
115.290109856
 20
71.9745355253
 10
115.3009032697
 20
71.9012199033
 10
115.3125230998
 20
71.8250893093
 10
115.3250217011
 20
71.7461547416
 10
115.3384592986
 20
71.6643898039
 10
115.3529460556
 20
71.5793880007
 10
115.3685449601
 20
71.4911733308
 10
115.3853360722
 20
71.399702687
 10
115.403479451
 20
71.3044650853
 10
115.4230597328
 20
71.2054607139
 10
115.4441776099
 20
71.1026664269
 10
115.4670487284
 20
70.9955327572
 10
115.4917524298
 20
70.8841635343
 10
115.5184453338
 20
70.7684300404
 10
115.5475073629
 20
70.6474321466
 10
115.5793212577
 20
70.5202259546
 10
115.6138579293
 20
70.3877347798
 10
115.6508548896
 20
70.2518725244
 10
115.6905239343
 20
70.1123162473
 10
115.7329049268
 20
69.9694053981
 10
115.7773139097
 20
69.8260749429
 10
115.82346755
 20
69.6833161242
 10
115.8716693235
 20
69.5401895569
 10
115.9220115171
 20
69.3967531158
 10
115.9745438002
 20
69.2529858227
 10
116.0292652405
 20
69.1089711064
 10
116.086188208
 20
68.9649329047
 10
116.1453788761
 20
68.8208460304
 10
116.2068114175
 20
68.6768083231
 10
116.2703404837
 20
68.5332316137
 10
116.3357978239
 20
68.390544951
 10
116.4033518944
 20
68.2483891958
 10
116.4733794121
 20
68.1059950258
 10
116.5459848566
 20
67.9633082971
 10
116.621142407
 20
67.8204606826
 10
116.6990843045
 20
67.676962731
 10
116.7799355323
 20
67.5326764467
 10
116.8636931149
 20
67.3878175072
 10
116.9504174575
 20
67.2424266703
  0
LINE
  5
324
100
AcDbEntity
  8
0
100
AcDbLine
 62
253
  6
CONTINUOUS
 10
115.2144140899
 20
73.1653309492
 11
115.2221406505
 21
73.097765703
  0
LINE
  5
325
100
AcDbEntity
  8
0
100
AcDbLine
 62
253
  6
CONTINUOUS
 10
115.1540567168
 20
73.6632860493
 11
115.1551334643
 21
73.6050103359
  0
LINE
  5
326
100
AcDbEntity
  8
0
100
AcDbLine
 62
253
  6
CONTINUOUS
 10
115.1530989858
 20
73.7338517299
 11
115.1540567168
 21
73.6632860493
  0
LINE
  5
327
100
AcDbEntity
  8
0
100
AcDbLine
 62
253
  6
CONTINUOUS
 10
115.1525662101
 20
73.7971393743
 11
115.1530989858
 21
73.7338517299
  0
LWPOLYLINE
  5
328
100
AcDbEntity
  8
0
100
AcDbPolyline
 62
253
  6
CONTINUOUS
 90
8
 70
0
 10
115.1552918242
 20
74.0983140278
 10
115.1553519157
 20
74.0879566965
 10
115.1552027808
 20
74.0776797306
 10
115.155006349
 20
74.0675818226
 10
115.155015345
 20
74.0578520272
 10
115.1553139749
 20
74.0484813283
 10
115.1556560593
 20
74.039176524
 10
115.1561242289
 20
74.0205666259
  0
LINE
  5
329
100
AcDbEntity
  8
0
100
AcDbLine
 62
253
  6
CONTINUOUS
 10
115.1523531379
 20
73.8539527911
 11
115.1525662101
 21
73.7971393743
  0
LINE
  5
32A
100
AcDbEntity
  8
0
100
AcDbLine
 62
253
  6
CONTINUOUS
 10
116.8542746474
 20
104.4645168935
 11
116.8542746474
 21
104.3645168935
  0
LINE
  5
32B
100
AcDbEntity
  8
0
100
AcDbLine
 62
253
  6
CONTINUOUS
 10
116.8542746474
 20
100.7895168935
 11
116.8542746474
 21
100.6145168935
  0
LINE
  5
32C
100
AcDbEntity
  8
RACCORDO
100
AcDbLine
 62
253
  6
CONTINUOUS
 10
116.8542746474
 20
94.2632079132
 11
116.8542746474
 21
94.1145168935
  0
LINE
  5
32D
100
AcDbEntity
  8
0
100
AcDbLine
 62
253
  6
CONTINUOUS
 10
116.8542746474
 20
93.9395168935
 11
116.8542746474
 21
94.0895168935
  0
LINE
  5
32E
100
AcDbEntity
  8
RACCORDO
100
AcDbLine
 62
253
  6
CONTINUOUS
 10
116.8542746474
 20
100.4658258738
 11
116.8542746478
 21
100.6145168935
  0
LINE
  5
32F
100
AcDbEntity
  8
0
100
AcDbLine
 62
253
  6
CONTINUOUS
 10
115.1524130818
 20
73.9169253294
 11
115.1523531379
 21
73.8539527911
  0
LINE
  5
330
100
AcDbEntity
  8
0
100
AcDbLine
 62
253
  6
CONTINUOUS
 10
115.1543466589
 20
74.1083093377
 11
115.1543592395
 21
74.1145168935
  0
LINE
  5
331
100
AcDbEntity
  8
0
100
AcDbLine
 62
253
  6
CONTINUOUS
 10
115.152807197
 20
73.9820976773
 11
115.1524130818
 21
73.9169253294
  0
LINE
  5
332
100
AcDbEntity
  8
0
100
AcDbLine
 62
253
  6
CONTINUOUS
 10
115.1534337119
 20
74.0391650271
 11
115.152807197
 21
73.9820976773
  0
LWPOLYLINE
  5
333
100
AcDbEntity
  8
0
100
AcDbPolyline
 62
253
  6
CONTINUOUS
 90
3
 70
0
 10
115.1543715138
 20
74.0979958367
 10
115.1541827128
 20
74.0876339872
 10
115.1534337119
 20
74.0391650271
  0
LWPOLYLINE
  5
334
100
AcDbEntity
  8
RACCORDO
100
AcDbPolyline
 62
253
  6
CONTINUOUS
 90
28
 70
0
 10
116.8542746474
 20
100.4658258738
 10
116.660200239
 20
100.4596000616
 10
116.4684288533
 20
100.4416476697
 10
116.27896049
 20
100.4119686982
 10
116.0911789975
 20
100.370400288
 10
115.9057005275
 20
100.3171052982
 10
115.7243735355
 20
100.2525723061
 10
115.5471619856
 20
100.1766992773
 10
115.3741019136
 20
100.0895882461
 10
115.2071498835
 20
99.9920338931
 10
115.0460778393
 20
99.8835778215
 10
114.8911138369
 20
99.764678428
 10
114.7448986075
 20
99.6375055829
 10
114.6076923414
 20
99.5016489656
 10
114.4792348482
 20
99.3575188968
 10
114.3613862877
 20
99.208516208
 10
114.2546702316
 20
99.0545798619
 10
114.1585631082
 20
98.8957708959
 10
114.0733543623
 20
98.735673254
 10
113.999464227
 20
98.574361287
 10
113.9364724691
 20
98.4117606441
 10
113.8834078335
 20
98.2512322168
 10
113.8405862777
 20
98.0929253049
 10
113.8076918441
 20
97.9366906085
 10
113.7828054047
 20
97.78544112
 10
113.7652872502
 20
97.6401478367
 10
113.7557770899
 20
97.4998397612
 10
113.7542749237
 20
97.3645168935
  0
LINE
  5
335
100
AcDbEntity
  8
0
100
AcDbLine
 62
253
  6
CONTINUOUS
 10
139.1036534058
 20
97.7653895471
 11
139.0794569857
 21
97.7653895471
  0
LINE
  5
336
100
AcDbEntity
  8
0
100
AcDbLine
 62
253
  6
CONTINUOUS
 10
113.629092309
 20
97.7653895471
 11
113.6048958885
 21
97.7653895471
  0
LINE
  5
337
100
AcDbEntity
  8
0
100
AcDbLine
 62
7
  6
CONTINUOUS
 10
139.089863061
 20
97.8645168935
 11
139.065582792
 21
97.8645168935
  0
LINE
  5
338
100
AcDbEntity
  8
0
100
AcDbLine
 62
7
  6
CONTINUOUS
 10
113.6429665027
 20
97.8645168935
 11
113.6186862344
 21
97.8645168935
  0
LINE
  5
339
100
AcDbEntity
  8
RACCORDO
100
AcDbLine
 62
253
  6
CONTINUOUS
 10
135.8542746474
 20
100.4658258738
 11
116.8542746474
 21
100.4658258738
  0
LINE
  5
33A
100
AcDbEntity
  8
0
100
AcDbLine
 62
7
  6
CONTINUOUS
 10
136.2514956737
 20
100.6145168935
 11
135.8542746474
 21
100.6145168935
  0
LINE
  5
33B
100
AcDbEntity
  8
RACCORDO
100
AcDbLine
 62
7
  6
CONTINUOUS
 10
135.8542746474
 20
100.6145168935
 11
116.8542746474
 21
100.6145168935
  0
LINE
  5
33C
100
AcDbEntity
  8
0
100
AcDbLine
 62
7
  6
CONTINUOUS
 10
116.8542746474
 20
100.6145168935
 11
116.4570536136
 21
100.6145168935
  0
LINE
  5
33D
100
AcDbEntity
  8
0
100
AcDbLine
 62
7
  6
CONTINUOUS
 10
116.8542746474
 20
100.6395168935
 11
135.8542746474
 21
100.6395168935
  0
LINE
  5
33E
100
AcDbEntity
  8
0
100
AcDbLine
 62
253
  6
CONTINUOUS
 10
116.8542746474
 20
100.7895168935
 11
135.8542746474
 21
100.7895168935
  0
LINE
  5
33F
100
AcDbEntity
  8
0
100
AcDbLine
 62
7
  6
CONTINUOUS
 10
118.7145550223
 20
104.4645168935
 11
118.7145550223
 21
104.5145168935
  0
LINE
  5
340
100
AcDbEntity
  8
0
100
AcDbLine
 62
7
  6
CONTINUOUS
 10
118.9152088747
 20
104.5145168935
 11
118.9152088748
 21
104.4645168935
  0
LINE
  5
341
100
AcDbEntity
  8
0
100
AcDbLine
 62
253
  6
CONTINUOUS
 10
119.5672552187
 20
104.4645168935
 11
119.5672552187
 21
104.5145168935
  0
LINE
  5
342
100
AcDbEntity
  8
0
100
AcDbLine
 62
253
  6
CONTINUOUS
 10
119.9125322169
 20
94.1145168935
 11
119.9125322169
 21
94.0895168935
  0
LINE
  5
343
100
AcDbEntity
  8
0
100
AcDbLine
 62
7
  6
CONTINUOUS
 10
120.3542746474
 20
100.6395168935
 11
120.3542746474
 21
100.6145168935
  0
LINE
  5
344
100
AcDbEntity
  8
0
100
AcDbLine
 62
7
  6
CONTINUOUS
 10
120.3542746474
 20
94.1145168935
 11
120.3542746474
 21
94.0895168935
  0
LINE
  5
345
100
AcDbEntity
  8
0
100
AcDbLine
 62
7
  6
CONTINUOUS
 10
120.3542746474
 20
54.1220171279
 11
120.3542746474
 21
53.4132001916
  0
LINE
  5
346
100
AcDbEntity
  8
0
100
AcDbLine
 62
7
  6
CONTINUOUS
 10
121.2542746474
 20
52.4645168935
 11
121.2542746474
 21
51.9145168935
  0
LINE
  5
347
100
AcDbEntity
  8
0
100
AcDbLine
 62
7
  6
CONTINUOUS
 10
121.6275499672
 20
104.4645168935
 11
121.6275499672
 21
104.5145168935
  0
LINE
  5
348
100
AcDbEntity
  8
0
100
AcDbLine
 62
7
  6
CONTINUOUS
 10
121.8727036474
 20
104.4645168935
 11
121.8727036474
 21
104.5145168935
  0
LINE
  5
349
100
AcDbEntity
  8
0
100
AcDbLine
 62
7
  6
CONTINUOUS
 10
119.8494745045
 20
94.0895168935
 11
119.8499108811
 21
94.1145168935
  0
LINE
  5
34A
100
AcDbEntity
  8
0
100
AcDbLine
 62
7
  6
CONTINUOUS
 10
120.0615097383
 20
100.6145168935
 11
120.0619461149
 21
100.6395168935
  0
LINE
  5
34B
100
AcDbEntity
  8
0
100
AcDbLine
 62
253
  6
CONTINUOUS
 10
118.4166522259
 20
54.9886188001
 11
118.4236473275
 21
55.1461075028
  0
LINE
  5
34C
100
AcDbEntity
  8
0
100
AcDbLine
 62
253
  6
CONTINUOUS
 10
118.4236473275
 20
55.1461075028
 11
118.4326919266
 21
55.3216845426
  0
LINE
  5
34D
100
AcDbEntity
  8
0
100
AcDbLine
 62
253
  6
CONTINUOUS
 10
118.4130257375
 20
54.6417262649
 11
118.3955446368
 21
54.3787301937
  0
LINE
  5
34E
100
AcDbEntity
  8
0
100
AcDbLine
 62
253
  6
CONTINUOUS
 10
110.1042746474
 20
103.8645168935
 11
142.6042746474
 21
103.8645168935
  0
LINE
  5
34F
100
AcDbEntity
  8
0
100
AcDbLine
 62
7
  6
CONTINUOUS
 10
110.6042746474
 20
104.3645168935
 11
142.1042746474
 21
104.3645168935
  0
LINE
  5
350
100
AcDbEntity
  8
0
100
AcDbLine
 62
7
  6
CONTINUOUS
 10
114.3850564982
 20
104.4645168935
 11
138.3234927966
 21
104.4645168935
  0
LINE
  5
351
100
AcDbEntity
  8
0
100
AcDbLine
 62
7
  6
CONTINUOUS
 10
118.7145550223
 20
104.5145168935
 11
121.6275499672
 21
104.5145168935
  0
LINE
  5
352
100
AcDbEntity
  8
0
100
AcDbLine
 62
7
  6
CONTINUOUS
 10
121.8727036474
 20
104.5145168935
 11
125.1619776474
 21
104.5145168935
  0
LINE
  5
353
100
AcDbEntity
  8
0
100
AcDbLine
 62
7
  6
CONTINUOUS
 10
125.2930716474
 20
104.5145168935
 11
129.3492686474
 21
104.5145168935
  0
LINE
  5
354
100
AcDbEntity
  8
0
100
AcDbLine
 62
7
  6
CONTINUOUS
 10
129.7986976474
 20
104.5145168935
 11
130.6335526474
 21
104.5145168935
  0
LINE
  5
355
100
AcDbEntity
  8
0
100
AcDbLine
 62
7
  6
CONTINUOUS
 10
130.9433696474
 20
104.5145168935
 11
134.2326126474
 21
104.5145168935
  0
LWPOLYLINE
  5
356
100
AcDbEntity
  8
0
100
AcDbPolyline
 62
253
  6
CONTINUOUS
 90
6
 70
0
 10
126.3542637211
 20
63.2607282101
 10
126.3562020938
 20
63.2143089907
 10
126.3575893666
 20
63.1637228657
 10
126.3584176015
 20
63.1092471971
 10
126.3584865388
 20
63.0511796303
 10
126.3571298469
 20
62.8587280337
  0
LINE
  5
357
100
AcDbEntity
  8
0
100
AcDbLine
 62
7
  6
CONTINUOUS
 10
123.1470395565
 20
100.6145168935
 11
123.1466031798
 21
100.6395168935
  0
LINE
  5
358
100
AcDbEntity
  8
0
100
AcDbLine
 62
7
  6
CONTINUOUS
 10
123.3590747902
 20
94.0895168935
 11
123.3586384136
 21
94.1145168935
  0
LINE
  5
359
100
AcDbEntity
  8
0
100
AcDbLine
 62
7
  6
CONTINUOUS
 10
122.8542746474
 20
100.6395168935
 11
122.8542746474
 21
100.6145168935
  0
LINE
  5
35A
100
AcDbEntity
  8
0
100
AcDbLine
 62
7
  6
CONTINUOUS
 10
122.8542746474
 20
94.1145168935
 11
122.8542746474
 21
94.0895168935
  0
LINE
  5
35B
100
AcDbEntity
  8
0
100
AcDbLine
 62
7
  6
CONTINUOUS
 10
123.0998536474
 20
104.4645168935
 11
123.0998536474
 21
104.5145168935
  0
LINE
  5
35C
100
AcDbEntity
  8
0
100
AcDbLine
 62
253
  6
CONTINUOUS
 10
123.2960170779
 20
94.0895168935
 11
123.2960170779
 21
94.1145168935
  0
LINE
  5
35D
100
AcDbEntity
  8
0
100
AcDbLine
 62
7
  6
CONTINUOUS
 10
123.9074756474
 20
104.4645168935
 11
123.9074756474
 21
104.5145168935
  0
LINE
  5
35E
100
AcDbEntity
  8
0
100
AcDbLine
 62
7
  6
CONTINUOUS
 10
125.1619776474
 20
104.4645168935
 11
125.1619776474
 21
104.5145168935
  0
LINE
  5
35F
100
AcDbEntity
  8
0
100
AcDbLine
 62
7
  6
CONTINUOUS
 10
125.2930716474
 20
104.4645168935
 11
125.2930716474
 21
104.5145168935
  0
LINE
  5
360
100
AcDbEntity
  8
0
100
AcDbLine
 62
7
  6
CONTINUOUS
 10
125.6670716474
 20
104.4645168935
 11
125.6670716474
 21
104.5145168935
  0
LINE
  5
361
100
AcDbEntity
  8
0
100
AcDbLine
 62
7
  6
CONTINUOUS
 10
125.7658446474
 20
73.1250648935
 11
125.7658446474
 21
72.7083998935
  0
LINE
  5
362
100
AcDbEntity
  8
0
100
AcDbLine
 62
7
  6
CONTINUOUS
 10
125.7794516474
 20
76.5042198935
 11
125.7794516474
 21
76.0852628935
  0
LINE
  5
363
100
AcDbEntity
  8
0
100
AcDbLine
 62
7
  6
CONTINUOUS
 10
126.1350996474
 20
76.0852628935
 11
126.1350996474
 21
75.0229038935
  0
LINE
  5
364
100
AcDbEntity
  8
0
100
AcDbLine
 62
7
  6
CONTINUOUS
 10
126.1350996474
 20
74.5065478935
 11
126.1350996474
 21
73.1250648935
  0
LINE
  5
365
100
AcDbEntity
  8
0
100
AcDbLine
 62
7
  6
CONTINUOUS
 10
126.3542746474
 20
54.9568183183
 11
126.3542746474
 21
62.2774502135
  0
LINE
  5
366
100
AcDbEntity
  8
0
100
AcDbLine
 62
253
  6
CONTINUOUS
 10
126.3542746474
 20
54.9568183234
 11
126.3542746474
 21
54.3855566331
  0
LINE
  5
367
100
AcDbEntity
  8
0
100
AcDbLine
 62
7
  6
CONTINUOUS
 10
126.4930786474
 20
104.4645168935
 11
126.4930786474
 21
104.5145168935
  0
LINE
  5
368
100
AcDbEntity
  8
0
100
AcDbLine
 62
7
  6
CONTINUOUS
 10
126.5789786474
 20
73.1250648935
 11
126.5789786474
 21
74.5112078935
  0
LINE
  5
369
100
AcDbEntity
  8
0
100
AcDbLine
 62
7
  6
CONTINUOUS
 10
126.5789786474
 20
75.0229038935
 11
126.5789786474
 21
76.0852628935
  0
LINE
  5
36A
100
AcDbEntity
  8
0
100
AcDbLine
 62
253
  6
CONTINUOUS
 10
126.3571298469
 20
62.8587280337
 11
126.3568008509
 21
62.7896778608
  0
LINE
  5
36B
100
AcDbEntity
  8
0
100
AcDbLine
 62
253
  6
CONTINUOUS
 10
126.3549743425
 20
62.424929709
 11
126.3542745593
 21
62.2774469133
  0
LINE
  5
36C
100
AcDbEntity
  8
0
100
AcDbLine
 62
253
  6
CONTINUOUS
 10
126.3568008509
 20
62.7896778608
 11
126.3549743425
 21
62.424929709
  0
LINE
  5
36D
100
AcDbEntity
  8
0
100
AcDbLine
 62
253
  6
CONTINUOUS
 10
134.2955231768
 20
54.6417262405
 11
134.3130046579
 21
54.3787301937
  0
LINE
  5
36E
100
AcDbEntity
  8
0
100
AcDbLine
 62
7
  6
CONTINUOUS
 10
126.9344836474
 20
76.0852628935
 11
126.9344836474
 21
76.5042198935
  0
LINE
  5
36F
100
AcDbEntity
  8
0
100
AcDbLine
 62
7
  6
CONTINUOUS
 10
126.9480906474
 20
72.7083998935
 11
126.9480906474
 21
73.1250648935
  0
LINE
  5
370
100
AcDbEntity
  8
0
100
AcDbLine
 62
7
  6
CONTINUOUS
 10
127.3279336474
 20
104.4645168935
 11
127.3279336474
 21
104.5145168935
  0
LINE
  5
371
100
AcDbEntity
  8
0
100
AcDbLine
 62
7
  6
CONTINUOUS
 10
128.1539706474
 20
104.4645168935
 11
128.1539706474
 21
104.5145168935
  0
LINE
  5
372
100
AcDbEntity
  8
0
100
AcDbLine
 62
7
  6
CONTINUOUS
 10
128.9881366474
 20
104.4645168935
 11
128.9881366474
 21
104.5145168935
  0
LINE
  5
373
100
AcDbEntity
  8
0
100
AcDbLine
 62
7
  6
CONTINUOUS
 10
129.3492686474
 20
104.4645168935
 11
129.3492686474
 21
104.5145168935
  0
LINE
  5
374
100
AcDbEntity
  8
0
100
AcDbLine
 62
253
  6
CONTINUOUS
 10
129.4125322169
 20
94.1145168935
 11
129.4125322169
 21
94.0895168935
  0
LINE
  5
375
100
AcDbEntity
  8
0
100
AcDbLine
 62
7
  6
CONTINUOUS
 10
129.7986976474
 20
104.4645168935
 11
129.7986976474
 21
104.5145168935
  0
LINE
  5
376
100
AcDbEntity
  8
0
100
AcDbLine
 62
7
  6
CONTINUOUS
 10
129.8542746474
 20
100.6395168935
 11
129.8542746474
 21
100.6145168935
  0
LINE
  5
377
100
AcDbEntity
  8
0
100
AcDbLine
 62
7
  6
CONTINUOUS
 10
129.8542746474
 20
94.1145168935
 11
129.8542746474
 21
94.0895168935
  0
LINE
  5
378
100
AcDbEntity
  8
0
100
AcDbLine
 62
7
  6
CONTINUOUS
 10
130.6335526474
 20
104.4645168935
 11
130.6335526474
 21
104.5145168935
  0
LINE
  5
379
100
AcDbEntity
  8
0
100
AcDbLine
 62
7
  6
CONTINUOUS
 10
130.9433696474
 20
104.4645168935
 11
130.9433696474
 21
104.5145168935
  0
LINE
  5
37A
100
AcDbEntity
  8
0
100
AcDbLine
 62
7
  6
CONTINUOUS
 10
129.3494745045
 20
94.0895168935
 11
129.3499108811
 21
94.1145168935
  0
LINE
  5
37B
100
AcDbEntity
  8
0
100
AcDbLine
 62
7
  6
CONTINUOUS
 10
129.5615097383
 20
100.6145168935
 11
129.5619461149
 21
100.6395168935
  0
LINE
  5
37C
100
AcDbEntity
  8
0
100
AcDbLine
 62
253
  6
CONTINUOUS
 10
134.2849019291
 20
55.1461074999
 11
134.2758573685
 21
55.32168454
  0
LINE
  5
37D
100
AcDbEntity
  8
0
100
AcDbLine
 62
7
  6
CONTINUOUS
 10
132.6470395565
 20
100.6145168935
 11
132.6466031798
 21
100.6395168935
  0
LINE
  5
37E
100
AcDbEntity
  8
0
100
AcDbLine
 62
7
  6
CONTINUOUS
 10
132.8590747902
 20
94.0895168935
 11
132.8586384136
 21
94.1145168935
  0
LINE
  5
37F
100
AcDbEntity
  8
0
100
AcDbLine
 62
7
  6
CONTINUOUS
 10
131.4542746474
 20
51.9145168935
 11
131.4542746474
 21
52.4645168935
  0
LINE
  5
380
100
AcDbEntity
  8
0
100
AcDbLine
 62
7
  6
CONTINUOUS
 10
131.7776546474
 20
104.4645168935
 11
131.7776546474
 21
104.5145168935
  0
LINE
  5
381
100
AcDbEntity
  8
0
100
AcDbLine
 62
7
  6
CONTINUOUS
 10
132.3542746474
 20
100.6395168935
 11
132.3542746474
 21
100.6145168935
  0
LINE
  5
382
100
AcDbEntity
  8
0
100
AcDbLine
 62
7
  6
CONTINUOUS
 10
132.3542746474
 20
94.1145168935
 11
132.3542746474
 21
94.0895168935
  0
LINE
  5
383
100
AcDbEntity
  8
0
100
AcDbLine
 62
7
  6
CONTINUOUS
 10
132.3542746474
 20
53.4132001916
 11
132.3542746474
 21
54.1220171279
  0
LINE
  5
384
100
AcDbEntity
  8
0
100
AcDbLine
 62
7
  6
CONTINUOUS
 10
132.5633226474
 20
104.4645168935
 11
132.5633226474
 21
104.5145168935
  0
LINE
  5
385
100
AcDbEntity
  8
0
100
AcDbLine
 62
253
  6
CONTINUOUS
 10
132.7960170779
 20
94.0895168935
 11
132.7960170779
 21
94.1145168935
  0
LINE
  5
386
100
AcDbEntity
  8
0
100
AcDbLine
 62
7
  6
CONTINUOUS
 10
133.3257026474
 20
104.4645168935
 11
133.3257026474
 21
104.5145168935
  0
LINE
  5
387
100
AcDbEntity
  8
0
100
AcDbLine
 62
7
  6
CONTINUOUS
 10
134.2326126474
 20
104.4645168935
 11
134.2326126474
 21
104.5145168935
  0
LINE
  5
388
100
AcDbEntity
  8
0
100
AcDbLine
 62
253
  6
CONTINUOUS
 10
137.5549842432
 20
74.0484992273
 11
137.5541776286
 21
74.0978942009
  0
LWPOLYLINE
  5
389
100
AcDbEntity
  8
RACCORDO
100
AcDbPolyline
 62
253
  6
CONTINUOUS
 90
28
 70
0
 10
138.954274371
 20
97.3645168935
 10
138.952274033
 20
97.5096082251
 10
138.9414869939
 20
97.6589647709
 10
138.9219132537
 20
97.8125865308
 10
138.894053365
 20
97.9716332034
 10
138.8574067751
 20
98.1349450901
 10
138.8104718266
 20
98.2990430954
 10
138.7528122841
 20
98.4639866239
 10
138.6848643829
 20
98.6297162708
 10
138.6064351711
 20
98.7925747269
 10
138.5171494077
 20
98.9523878573
 10
138.4173823337
 20
99.1093297968
 10
138.308066721
 20
99.2602656403
 10
138.1889541212
 20
99.4049347157
 10
138.0602929827
 20
99.543597695
 10
137.9237614225
 20
99.6739016893
 10
137.7792435688
 20
99.7955772555
 10
137.6268552934
 20
99.9088938367
 10
137.4686223281
 20
100.0123068726
 10
137.3046058327
 20
100.1055765431
 10
137.1347446474
 20
100.1889426683
 10
136.9608810246
 20
100.2615801491
 10
136.7830015654
 20
100.3233853383
 10
136.6011196687
 20
100.374461883
 10
136.4171177837
 20
100.4142956247
 10
136.2316233933
 20
100.4427151774
 10
136.0440090145
 20
100.4598919271
 10
135.8542746474
 20
100.4658258738
  0
LINE
  5
38A
100
AcDbEntity
  8
0
100
AcDbLine
 62
253
  6
CONTINUOUS
 10
137.5556467225
 20
73.9920037076
 11
137.5549842432
 21
74.0484992273
  0
LINE
  5
38B
100
AcDbEntity
  8
0
100
AcDbLine
 62
253
  6
CONTINUOUS
 10
137.5560803271
 20
73.9291861436
 11
137.5556467225
 21
73.9920037076
  0
LWPOLYLINE
  5
38C
100
AcDbEntity
  8
0
100
AcDbPolyline
 62
253
  6
CONTINUOUS
 90
7
 70
0
 10
137.5541900535
 20
74.1145168935
 10
137.5542039381
 20
74.1110458528
 10
137.5542029273
 20
74.1082776956
 10
137.5541870212
 20
74.1062124221
 10
137.5541562198
 20
74.1048500322
 10
137.554110523
 20
74.1041905259
 10
137.554049931
 20
74.1042339032
  0
LINE
  5
38D
100
AcDbEntity
  8
0
100
AcDbLine
 62
253
  6
CONTINUOUS
 10
135.8542746474
 20
104.4645168935
 11
135.8542746474
 21
104.3645168935
  0
LINE
  5
38E
100
AcDbEntity
  8
0
100
AcDbLine
 62
253
  6
CONTINUOUS
 10
135.8542746474
 20
100.7895168935
 11
135.8542746474
 21
100.6145168935
  0
LINE
  5
38F
100
AcDbEntity
  8
RACCORDO
100
AcDbLine
 62
253
  6
CONTINUOUS
 10
135.8542746474
 20
94.2632079132
 11
135.854274647
 21
94.1145168935
  0
LINE
  5
390
100
AcDbEntity
  8
0
100
AcDbLine
 62
253
  6
CONTINUOUS
 10
135.8542746474
 20
93.9395168935
 11
135.8542746474
 21
94.0895168935
  0
LINE
  5
391
100
AcDbEntity
  8
RACCORDO
100
AcDbLine
 62
253
  6
CONTINUOUS
 10
135.8542746474
 20
100.4658258738
 11
135.8542746474
 21
100.6145168935
  0
LINE
  5
392
100
AcDbEntity
  8
0
100
AcDbLine
 62
253
  6
CONTINUOUS
 10
137.5562006339
 20
73.8684347283
 11
137.5560803271
 21
73.9291861436
  0
LINE
  5
393
100
AcDbEntity
  8
0
100
AcDbLine
 62
253
  6
CONTINUOUS
 10
137.5559822731
 20
73.7989905535
 11
137.5562006339
 21
73.8684347283
  0
LINE
  5
394
100
AcDbEntity
  8
0
100
AcDbLine
 62
253
  6
CONTINUOUS
 10
137.5554624376
 20
73.7362454328
 11
137.5559822731
 21
73.7989905535
  0
LINE
  5
395
100
AcDbEntity
  8
0
100
AcDbLine
 62
253
  6
CONTINUOUS
 10
137.5545246914
 20
73.666250389
 11
137.5554624376
 21
73.7362454328
  0
LINE
  5
396
100
AcDbEntity
  8
0
100
AcDbLine
 62
253
  6
CONTINUOUS
 10
137.5534684742
 20
73.6084219987
 11
137.5545246914
 21
73.666250389
  0
LINE
  5
397
100
AcDbEntity
  8
0
100
AcDbLine
 62
253
  6
CONTINUOUS
 10
137.5520322501
 20
73.545533982
 11
137.5534684742
 21
73.6084219987
  0
LINE
  5
398
100
AcDbEntity
  8
0
100
AcDbLine
 62
253
  6
CONTINUOUS
 10
137.5513632187
 20
73.9822612444
 11
137.5528947914
 21
74.0391075457
  0
LINE
  5
399
100
AcDbEntity
  8
0
100
AcDbLine
 62
253
  6
CONTINUOUS
 10
137.5501287807
 20
73.4770832606
 11
137.5520322501
 21
73.545533982
  0
LINE
  5
39A
100
AcDbEntity
  8
0
100
AcDbLine
 62
253
  6
CONTINUOUS
 10
137.5496498899
 20
73.9292721111
 11
137.5513632187
 21
73.9822612444
  0
LINE
  5
39B
100
AcDbEntity
  8
0
100
AcDbLine
 62
253
  6
CONTINUOUS
 10
137.5476512454
 20
73.4025057434
 11
137.5501287807
 21
73.4770832606
  0
LWPOLYLINE
  5
39C
100
AcDbEntity
  8
0
100
AcDbPolyline
 62
253
  6
CONTINUOUS
 90
7
 70
0
 10
137.5528947914
 20
74.0391075457
 10
137.5532378253
 20
74.0484478336
 10
137.5535371756
 20
74.0578583131
 10
137.5535459337
 20
74.0676039596
 10
137.553348324
 20
74.0776843116
 10
137.5531967065
 20
74.0879201828
 10
137.5532516328
 20
74.0982138808
  0
LINE
  5
39D
100
AcDbEntity
  8
0
100
AcDbLine
 62
253
  6
CONTINUOUS
 10
137.5478635745
 20
73.8813830492
 11
137.5496498899
 21
73.9292721111
  0
LINE
  5
39E
100
AcDbEntity
  8
0
100
AcDbLine
 62
253
  6
CONTINUOUS
 10
137.5444688524
 20
73.3211663005
 11
137.5476512454
 21
73.4025057434
  0
LINE
  5
39F
100
AcDbEntity
  8
0
100
AcDbLine
 62
253
  6
CONTINUOUS
 10
137.5456113782
 20
73.8281141509
 11
137.5478635745
 21
73.8813830492
  0
LINE
  5
3A0
100
AcDbEntity
  8
0
100
AcDbLine
 62
253
  6
CONTINUOUS
 10
137.5418774679
 20
73.2628118903
 11
137.5444688524
 21
73.3211663005
  0
LINE
  5
3A1
100
AcDbEntity
  8
0
100
AcDbLine
 62
253
  6
CONTINUOUS
 10
137.5388458986
 20
73.2009244435
 11
137.5418774679
 21
73.2628118903
  0
LWPOLYLINE
  5
3A2
100
AcDbEntity
  8
0
100
AcDbPolyline
 62
253
  6
CONTINUOUS
 90
3
 70
0
 10
137.5419588652
 20
73.7529456708
 10
137.5427759288
 20
73.7688095965
 10
137.5456113782
 20
73.8281141509
  0
LWPOLYLINE
  5
3A3
100
AcDbEntity
  8
0
100
AcDbPolyline
 62
253
  6
CONTINUOUS
 90
19
 70
0
 10
142.3653536795
 20
103.8645168935
 10
142.3634586049
 20
103.9080947649
 10
142.3577878039
 20
103.9513409823
 10
142.3483844346
 20
103.993926416
 10
142.3353200623
 20
104.0355269651
 10
142.3186941149
 20
104.0758260244
 10
142.2986331259
 20
104.1145168935
 10
142.2752897714
 20
104.1513051117
 10
142.2488417084
 20
104.1859106983
 10
142.2194902228
 20
104.2180702841
 10
142.1874586971
 20
104.2475391151
 10
142.1529909104
 20
104.2740929157
 10
142.1163491835
 20
104.2975295954
 10
142.077812382
 20
104.317670787
 10
142.0376737943
 20
104.3343632039
 10
141.9962388993
 20
104.3474798067
 10
141.9538230414
 20
104.35692077
 10
141.9107490311
 20
104.3626142426
 10
141.8673446875
 20
104.3645168935
  0
LINE
  5
3A4
100
AcDbEntity
  8
0
100
AcDbLine
 62
253
  6
CONTINUOUS
 10
141.3693356956
 20
79.1645168935
 11
141.3693356956
 21
104.3645168935
  0
LINE
  5
3A5
100
AcDbEntity
  8
0
100
AcDbLine
 62
253
  6
CONTINUOUS
 10
142.3653536795
 20
79.1645168935
 11
142.3653536795
 21
103.8645168935
  0
LINE
  5
3A6
100
AcDbEntity
  8
0
100
AcDbLine
 62
7
  6
CONTINUOUS
 10
142.6042746474
 20
103.8645168935
 11
142.6042746474
 21
79.1645168935
  0
LINE
  5
3A7
100
AcDbEntity
  8
0
100
AcDbLine
 62
253
  6
CONTINUOUS
 10
137.5353088049
 20
73.1352249472
 11
137.5388458986
 21
73.2009244435
  0
LINE
  5
3A8
100
AcDbEntity
  8
0
100
AcDbLine
 62
253
  6
CONTINUOUS
 10
137.5392075113
 20
73.7026918088
 11
137.5419588652
 21
73.7529456708
  0
LINE
  5
3A9
100
AcDbEntity
  8
0
100
AcDbLine
 62
253
  6
CONTINUOUS
 10
137.5311899909
 20
73.0653880412
 11
137.5353088049
 21
73.1352249472
  0
LINE
  5
3AA
100
AcDbEntity
  8
0
100
AcDbLine
 62
253
  6
CONTINUOUS
 10
137.5359398469
 20
73.6481313201
 11
137.5392075113
 21
73.7026918088
  0
LINE
  5
3AB
100
AcDbEntity
  8
0
100
AcDbLine
 62
253
  6
CONTINUOUS
 10
137.5264042303
 20
72.9911796634
 11
137.5311899909
 21
73.0653880412
  0
LINE
  5
3AC
100
AcDbEntity
  8
0
100
AcDbLine
 62
253
  6
CONTINUOUS
 10
137.5320588145
 20
73.5888543971
 11
137.5359398469
 21
73.6481313201
  0
LINE
  5
3AD
100
AcDbEntity
  8
0
100
AcDbLine
 62
253
  6
CONTINUOUS
 10
137.5208502311
 20
72.9122368443
 11
137.5264042303
 21
72.9911796634
  0
LINE
  5
3AE
100
AcDbEntity
  8
0
100
AcDbLine
 62
253
  6
CONTINUOUS
 10
137.5274470891
 20
73.5244043084
 11
137.5320588145
 21
73.5888543971
  0
LINE
  5
3AF
100
AcDbEntity
  8
0
100
AcDbLine
 62
253
  6
CONTINUOUS
 10
137.5238981411
 20
73.4783228246
 11
137.5274470891
 21
73.5244043084
  0
LINE
  5
3B0
100
AcDbEntity
  8
0
100
AcDbLine
 62
253
  6
CONTINUOUS
 10
137.5144078964
 20
72.8281281947
 11
137.5208502311
 21
72.9122368443
  0
LINE
  5
3B1
100
AcDbEntity
  8
0
100
AcDbLine
 62
253
  6
CONTINUOUS
 10
137.5199101741
 20
73.429526689
 11
137.5238981411
 21
73.4783228246
  0
LINE
  5
3B2
100
AcDbEntity
  8
0
100
AcDbLine
 62
253
  6
CONTINUOUS
 10
137.5069444183
 20
72.7385410571
 11
137.5144078964
 21
72.8281281947
  0
LINE
  5
3B3
100
AcDbEntity
  8
0
100
AcDbLine
 62
253
  6
CONTINUOUS
 10
137.515430882
 20
73.3778829411
 11
137.5199101741
 21
73.429526689
  0
LINE
  5
3B4
100
AcDbEntity
  8
0
100
AcDbLine
 62
253
  6
CONTINUOUS
 10
137.4982966051
 20
72.6429860516
 11
137.5069444183
 21
72.7385410571
  0
LINE
  5
3B5
100
AcDbEntity
  8
0
100
AcDbLine
 62
253
  6
CONTINUOUS
 10
137.5103947668
 20
73.3231811219
 11
137.515430882
 21
73.3778829411
  0
LINE
  5
3B6
100
AcDbEntity
  8
0
100
AcDbLine
 62
253
  6
CONTINUOUS
 10
137.5047247041
 20
73.2651745669
 11
137.5103947668
 21
73.3231811219
  0
LINE
  5
3B7
100
AcDbEntity
  8
0
100
AcDbLine
 62
253
  6
CONTINUOUS
 10
137.4882791863
 20
72.5408929226
 11
137.4982966051
 21
72.6429860516
  0
LINE
  5
3B8
100
AcDbEntity
  8
0
100
AcDbLine
 62
253
  6
CONTINUOUS
 10
137.4983428491
 20
73.2036948244
 11
137.5047247041
 21
73.2651745669
  0
LINE
  5
3B9
100
AcDbEntity
  8
0
100
AcDbLine
 62
253
  6
CONTINUOUS
 10
137.4911509154
 20
73.1384730115
 11
137.4983428491
 21
73.2036948244
  0
LINE
  5
3BA
100
AcDbEntity
  8
0
100
AcDbLine
 62
253
  6
CONTINUOUS
 10
137.4830323716
 20
73.0691930229
 11
137.4911509154
 21
73.1384730115
  0
LINE
  5
3BB
100
AcDbEntity
  8
0
100
AcDbLine
 62
253
  6
CONTINUOUS
 10
137.4738694522
 20
72.995640348
 11
137.4830323716
 21
73.0691930229
  0
LWPOLYLINE
  5
3BC
100
AcDbEntity
  8
0
100
AcDbPolyline
 62
253
  6
CONTINUOUS
 90
10
 70
0
 10
134.2955235444
 20
54.6417262854
 10
134.2972916299
 20
54.6554878107
 10
134.2984313184
 20
54.6783292092
 10
134.2989320471
 20
54.7100387765
 10
134.2987891755
 20
54.750322614
 10
134.2980040282
 20
54.7988073527
 10
134.2965838828
 20
54.8550436141
 10
134.2945419024
 20
54.918510175
 10
134.2918970134
 20
54.9886187985
 10
134.2849019291
 20
55.1461074999
  0
LINE
  5
3BD
100
AcDbEntity
  8
0
100
AcDbLine
 62
253
  6
CONTINUOUS
 10
137.4635122092
 20
72.9174697338
 11
137.4738694522
 21
72.995640348
  0
LINE
  5
3BE
100
AcDbEntity
  8
0
100
AcDbLine
 62
7
  6
CONTINUOUS
 10
125.3895988237
 20
72.8957762077
 11
125.5813955838
 21
73.2374947803
  0
LWPOLYLINE
  5
3BF
100
AcDbEntity
  8
0
100
AcDbPolyline
 62
7
  6
CONTINUOUS
 90
7
 70
0
 10
137.554049931
 20
74.1042339032
 10
137.466631255
 20
73.8002646057
 10
137.3720230665
 20
73.5003465068
 10
137.2702253656
 20
73.2044796065
 10
137.1612381522
 20
72.9126639049
 10
137.0450614264
 20
72.6248994018
 10
136.9216951882
 20
72.3411860973
  0
LWPOLYLINE
  5
3C0
100
AcDbEntity
  8
0
100
AcDbPolyline
 62
253
  6
CONTINUOUS
 90
10
 70
0
 10
113.4239096479
 20
62.6253164215
 10
113.8166767296
 20
63.1278343937
 10
114.2092381686
 20
63.633564648
 10
114.6015939647
 20
64.1422695688
 10
114.9937808881
 20
64.6537603619
 10
115.3857621686
 20
65.1677532847
 10
115.7774274968
 20
65.6838671559
 10
116.1687401028
 20
66.201816601
 10
116.5597367563
 20
66.7214145393
 10
116.9504174575
 20
67.2424266703
  0
LWPOLYLINE
  5
3C1
100
AcDbEntity
  8
0
100
AcDbPolyline
 62
253
  6
CONTINUOUS
 90
5
 70
0
 10
115.1544964637
 20
74.1043040036
 10
115.1544371418
 20
74.104254115
 10
115.1543924003
 20
74.1049050411
 10
115.1543622394
 20
74.106256782
 10
115.1543466589
 20
74.1083093377
  0
LWPOLYLINE
  5
3C2
100
AcDbEntity
  8
0
100
AcDbPolyline
 62
253
  6
CONTINUOUS
 90
37
 70
0
 10
139.2846396468
 20
62.6253164215
 10
139.3771458389
 20
62.979356527
 10
139.4649770359
 20
63.3245869932
 10
139.5482823251
 20
63.6610041515
 10
139.6269172002
 20
63.9875661601
 10
139.7013322755
 20
64.3053130217
 10
139.7725071544
 20
64.6173648307
 10
139.8404381122
 20
64.9232944547
 10
139.9053006676
 20
65.2235327851
 10
139.9682043678
 20
65.5224767524
 10
140.0292733394
 20
65.8207309296
 10
140.088385272
 20
66.1176732221
 10
140.1461540762
 20
66.4158489236
 10
140.2026910807
 20
66.7161356652
 10
140.2577891361
 20
67.0176310396
 10
140.3115368039
 20
67.3202209491
 10
140.3639603341
 20
67.6243521021
 10
140.4149424025
 20
67.9295775154
 10
140.4643822213
 20
68.2344770157
 10
140.5122515863
 20
68.5389618101
 10
140.5585487355
 20
68.8431644972
 10
140.6032589812
 20
69.1460384452
 10
140.6462865273
 20
69.4468683338
 10
140.6877488428
 20
69.746454596
 10
140.7279483261
 20
70.0460514781
 10
140.7667003918
 20
70.3445502786
 10
140.8041740861
 20
70.643159428
 10
140.8410846446
 20
70.9466204515
 10
140.8772233635
 20
71.2546169836
 10
140.9125844027
 20
71.5675706983
 10
140.9479687333
 20
71.891355505
 10
140.9831341936
 20
72.226669873
 10
141.0178264551
 20
72.572973966
 10
141.0526073503
 20
72.9343603617
 10
141.0873848932
 20
73.3123168072
 10
141.1215123203
 20
73.705669995
 10
141.1546144137
 20
74.1145838368
  0
LINE
  5
3C3
100
AcDbEntity
  8
0
100
AcDbLine
 62
253
  6
CONTINUOUS
 10
139.2512200615
 20
62.5006578236
 11
139.2846396468
 21
62.6253164215
  0
LINE
  5
3C4
100
AcDbEntity
  8
0
100
AcDbLine
 62
253
  6
CONTINUOUS
 10
139.1859191813
 20
62.2607144864
 11
139.2512200615
 21
62.5006578236
  0
LINE
  5
3C5
100
AcDbEntity
  8
0
100
AcDbLine
 62
253
  6
CONTINUOUS
 10
139.1228362321
 20
62.0334917046
 11
139.1859191813
 21
62.2607144864
  0
LINE
  5
3C6
100
AcDbEntity
  8
0
100
AcDbLine
 62
253
  6
CONTINUOUS
 10
139.0618965962
 20
61.817947641
 11
139.1228362321
 21
62.0334917046
  0
LWPOLYLINE
  5
3C7
100
AcDbEntity
  8
0
100
AcDbPolyline
 62
253
  6
CONTINUOUS
 90
3
 70
0
 10
138.974493323
 20
61.5152307728
 10
139.0031087544
 20
61.6135472351
 10
139.0618965962
 20
61.817947641
  0
LINE
  5
3C8
100
AcDbEntity
  8
0
100
AcDbLine
 62
7
  6
CONTINUOUS
 10
127.8632066474
 20
71.3854988935
 11
128.0806346474
 21
71.6937368935
  0
LWPOLYLINE
  5
3C9
100
AcDbEntity
  8
0
100
AcDbPolyline
 62
253
  6
CONTINUOUS
 90
37
 70
0
 10
139.9841480222
 20
62.4074817992
 10
140.0858062985
 20
62.7629407826
 10
140.1827410636
 20
63.1097070606
 10
140.2751144583
 20
63.4477221055
 10
140.3627975371
 20
63.775836398
 10
140.4462438734
 20
64.0950885099
 10
140.5264298578
 20
64.4087205862
 10
140.6033501258
 20
64.7162962454
 10
140.6772022181
 20
65.0181847944
 10
140.7491413977
 20
65.3188702433
 10
140.8193379504
 20
65.6189804142
 10
140.8876595348
 20
65.9178622353
 10
140.954698549
 20
66.2181048785
 10
141.0206307329
 20
66.5205992485
 10
141.0852366753
 20
66.8244479271
 10
141.14847778
 20
67.1295660659
 10
141.2104236861
 20
67.4363776986
 10
141.2709679277
 20
67.7444494781
 10
141.3298302061
 20
68.0524056082
 10
141.3869901234
 20
68.3600979118
 10
141.4424796576
 20
68.6676551521
 10
141.4961332026
 20
68.9741099383
 10
141.5478394022
 20
69.2786652957
 10
141.5977574483
 20
69.5820930486
 10
141.6461210902
 20
69.8857800182
 10
141.6927510348
 20
70.1885383181
 10
141.737835908
 20
70.4915379345
 10
141.7820651082
 20
70.7997171349
 10
141.8253113209
 20
71.1126960097
 10
141.8675498713
 20
71.4308584731
 10
141.9094500243
 20
71.7603116088
 10
141.9509001388
 20
72.101648078
 10
141.9916328521
 20
72.4543005841
 10
142.0319004055
 20
72.8226557557
 10
142.0715580195
 20
73.2081900385
 10
142.110149313
 20
73.6094596975
 10
142.1473639623
 20
74.0264760793
  0
LINE
  5
3CA
100
AcDbEntity
  8
0
100
AcDbLine
 62
253
  6
CONTINUOUS
 10
139.9121906137
 20
62.1606308175
 11
139.9841480222
 21
62.4074817992
  0
LINE
  5
3CB
100
AcDbEntity
  8
0
100
AcDbLine
 62
253
  6
CONTINUOUS
 10
138.9188213854
 20
61.3261166918
 11
138.974493323
 21
61.5152307728
  0
LINE
  5
3CC
100
AcDbEntity
  8
0
100
AcDbLine
 62
253
  6
CONTINUOUS
 10
139.842877132
 20
61.9263913426
 11
139.9121906137
 21
62.1606308175
  0
LINE
  5
3CD
100
AcDbEntity
  8
0
100
AcDbLine
 62
253
  6
CONTINUOUS
 10
138.8651455
 20
61.1463350878
 11
138.9188213854
 21
61.3261166918
  0
LINE
  5
3CE
100
AcDbEntity
  8
0
100
AcDbLine
 62
253
  6
CONTINUOUS
 10
139.77627675
 20
61.7044596063
 11
139.842877132
 21
61.9263913426
  0
LINE
  5
3CF
100
AcDbEntity
  8
0
100
AcDbLine
 62
253
  6
CONTINUOUS
 10
139.7122528103
 20
61.4939110894
 11
139.77627675
 21
61.7044596063
  0
LINE
  5
3D0
100
AcDbEntity
  8
0
100
AcDbLine
 62
253
  6
CONTINUOUS
 10
138.7881423007
 20
60.8926055839
 11
138.8651455
 21
61.1463350878
  0
LINE
  5
3D1
100
AcDbEntity
  8
0
100
AcDbLine
 62
253
  6
CONTINUOUS
 10
139.6506974953
 20
61.2939789935
 11
139.7122528103
 21
61.4939110894
  0
LINE
  5
3D2
100
AcDbEntity
  8
0
100
AcDbLine
 62
253
  6
CONTINUOUS
 10
138.7150702491
 20
60.6561679229
 11
138.7881423007
 21
60.8926055839
  0
LINE
  5
3D3
100
AcDbEntity
  8
0
100
AcDbLine
 62
253
  6
CONTINUOUS
 10
139.5628438111
 20
61.0127135059
 11
139.6506974953
 21
61.2939789935
  0
LINE
  5
3D4
100
AcDbEntity
  8
0
100
AcDbLine
 62
253
  6
CONTINUOUS
 10
138.6460121913
 20
60.4364322155
 11
138.7150702491
 21
60.6561679229
  0
LINE
  5
3D5
100
AcDbEntity
  8
0
100
AcDbLine
 62
253
  6
CONTINUOUS
 10
139.4799758954
 20
60.7516433446
 11
139.5628438111
 21
61.0127135059
  0
LINE
  5
3D6
100
AcDbEntity
  8
0
100
AcDbLine
 62
253
  6
CONTINUOUS
 10
138.581360903
 20
60.2339357812
 11
138.6460121913
 21
60.4364322155
  0
LINE
  5
3D7
100
AcDbEntity
  8
0
100
AcDbLine
 62
253
  6
CONTINUOUS
 10
139.4016589003
 20
60.5085365802
 11
139.4799758954
 21
60.7516433446
  0
LINE
  5
3D8
100
AcDbEntity
  8
0
100
AcDbLine
 62
253
  6
CONTINUOUS
 10
138.502337555
 20
59.990514566
 11
138.581360903
 21
60.2339357812
  0
LINE
  5
3D9
100
AcDbEntity
  8
0
100
AcDbLine
 62
253
  6
CONTINUOUS
 10
139.3040660689
 20
60.2103269037
 11
139.4016589003
 21
60.5085365802
  0
LINE
  5
3DA
100
AcDbEntity
  8
0
100
AcDbLine
 62
253
  6
CONTINUOUS
 10
138.429489682
 20
59.7698946831
 11
138.502337555
 21
59.990514566
  0
LINE
  5
3DB
100
AcDbEntity
  8
0
100
AcDbLine
 62
253
  6
CONTINUOUS
 10
139.215067618
 20
59.9427682116
 11
139.3040660689
 21
60.2103269037
  0
LINE
  5
3DC
100
AcDbEntity
  8
0
100
AcDbLine
 62
253
  6
CONTINUOUS
 10
138.3592192037
 20
59.5603624008
 11
138.429489682
 21
59.7698946831
  0
LINE
  5
3DD
100
AcDbEntity
  8
0
100
AcDbLine
 62
253
  6
CONTINUOUS
 10
139.115831465
 20
59.6491477402
 11
139.215067618
 21
59.9427682116
  0
LINE
  5
3DE
100
AcDbEntity
  8
0
100
AcDbLine
 62
253
  6
CONTINUOUS
 10
138.2346481202
 20
59.1950040856
 11
138.3592192037
 21
59.5603624008
  0
LINE
  5
3DF
100
AcDbEntity
  8
0
100
AcDbLine
 62
253
  6
CONTINUOUS
 10
139.0240708044
 20
59.3818806098
 11
139.115831465
 21
59.6491477402
  0
LINE
  5
3E0
100
AcDbEntity
  8
0
100
AcDbLine
 62
253
  6
CONTINUOUS
 10
138.1452957267
 20
58.9360982303
 11
138.2346481202
 21
59.1950040856
  0
LINE
  5
3E1
100
AcDbEntity
  8
0
100
AcDbLine
 62
253
  6
CONTINUOUS
 10
138.9328652925
 20
59.1200943686
 11
139.0240708044
 21
59.3818806098
  0
LINE
  5
3E2
100
AcDbEntity
  8
0
100
AcDbLine
 62
253
  6
CONTINUOUS
 10
138.109292124
 20
58.833478201
 11
138.1452957267
 21
58.9360982303
  0
LINE
  5
3E3
100
AcDbEntity
  8
0
100
AcDbLine
 62
253
  6
CONTINUOUS
 10
138.8396548496
 20
58.8564172641
 11
138.9328652925
 21
59.1200943686
  0
LINE
  5
3E4
100
AcDbEntity
  8
0
100
AcDbLine
 62
253
  6
CONTINUOUS
 10
138.0716707589
 20
58.7282342179
 11
138.109292124
 21
58.833478201
  0
LINE
  5
3E5
100
AcDbEntity
  8
0
100
AcDbLine
 62
253
  6
CONTINUOUS
 10
138.7465855736
 20
58.5969656969
 11
138.8396548496
 21
58.8564172641
  0
LINE
  5
3E6
100
AcDbEntity
  8
0
100
AcDbLine
 62
253
  6
CONTINUOUS
 10
138.6442779299
 20
58.3158836678
 11
138.7465855736
 21
58.5969656969
  0
LINE
  5
3E7
100
AcDbEntity
  8
0
100
AcDbLine
 62
253
  6
CONTINUOUS
 10
138.0299892243
 20
58.6139401007
 11
138.0716707589
 21
58.7282342179
  0
LINE
  5
3E8
100
AcDbEntity
  8
0
100
AcDbLine
 62
253
  6
CONTINUOUS
 10
138.5184244078
 20
57.9752545549
 11
138.6442779299
 21
58.3158836678
  0
LINE
  5
3E9
100
AcDbEntity
  8
0
100
AcDbLine
 62
253
  6
CONTINUOUS
 10
137.9833705449
 20
58.4884929172
 11
138.0299892243
 21
58.6139401007
  0
LINE
  5
3EA
100
AcDbEntity
  8
0
100
AcDbLine
 62
253
  6
CONTINUOUS
 10
138.4117435195
 20
57.690107214
 11
138.5184244078
 21
57.9752545549
  0
LWPOLYLINE
  5
3EB
100
AcDbEntity
  8
0
100
AcDbPolyline
 62
253
  6
CONTINUOUS
 90
4
 70
0
 10
137.874886132
 20
58.2079933085
 10
137.9038265258
 20
58.2809666106
 10
137.9314996166
 20
58.352143848
 10
137.9833705449
 20
58.4884929172
  0
LINE
  5
3EC
100
AcDbEntity
  8
0
100
AcDbLine
 62
7
  6
CONTINUOUS
 10
127.7480540364
 20
76.0080912214
 11
126.5789786474
 21
75.0229038935
  0
LINE
  5
3ED
100
AcDbEntity
  8
0
100
AcDbLine
 62
7
  6
CONTINUOUS
 10
126.5789786474
 20
74.5112078935
 11
127.6938105456
 21
75.4506838077
  0
LWPOLYLINE
  5
3EE
100
AcDbEntity
  8
0
100
AcDbPolyline
 62
253
  6
CONTINUOUS
 90
13
 70
0
 10
116.9504174575
 20
67.2424266703
 10
117.004868401
 20
67.2810720611
 10
117.0601974286
 20
67.3193096563
 10
117.1161190306
 20
67.356942142
 10
117.1723446399
 20
67.3937753266
 10
117.2285841204
 20
67.429619143
 10
117.2845472648
 20
67.4642886298
 10
117.3399452914
 20
67.497604885
 10
117.3944923346
 20
67.5293959897
 10
117.4479069204
 20
67.5594978953
 10
117.4999134182
 20
67.5877552695
 10
117.5502434636
 20
67.6140222983
 10
117.5986373429
 20
67.6381634383
  0
LWPOLYLINE
  5
3EF
100
AcDbEntity
  8
0
100
AcDbPolyline
 62
253
  6
CONTINUOUS
 90
4
 70
0
 10
137.7545084271
 20
57.9136119245
 10
137.7855867977
 20
57.9875616621
 10
137.8158764358
 20
58.0612399555
 10
137.874886132
 20
58.2079933085
  0
LWPOLYLINE
  5
3F0
100
AcDbEntity
  8
0
100
AcDbPolyline
 62
253
  6
CONTINUOUS
 90
47
 70
0
 10
135.7581298817
 20
67.2424292825
 10
135.8445518015
 20
67.387315294
 10
135.9282257466
 20
67.5320263608
 10
136.0091963524
 20
67.676524734
 10
136.0875163572
 20
67.8207278864
 10
136.1632208295
 20
67.9646462298
 10
136.2363248036
 20
68.1083777499
 10
136.3067337619
 20
68.2516476822
 10
136.3746282607
 20
68.3946509481
 10
136.4403999755
 20
68.5381885168
 10
136.5042197812
 20
68.6826258728
 10
136.5659171351
 20
68.8275262577
 10
136.625352719
 20
68.9724885893
 10
136.6825074755
 20
69.1174333966
 10
136.737439877
 20
69.2623662987
 10
136.7901479479
 20
69.4070174104
 10
136.8406386315
 20
69.5513228239
 10
136.888956184
 20
69.695283079
 10
136.9351642005
 20
69.8387349099
 10
136.9795613998
 20
69.9825876136
 10
137.0218803525
 20
70.1258802217
 10
137.0614439342
 20
70.2656637383
 10
137.0982855433
 20
70.4015487851
 10
137.132635507
 20
70.5339097949
 10
137.1642712528
 20
70.6609710017
 10
137.1931758726
 20
70.7818551621
 10
137.2197189905
 20
70.8974610042
 10
137.2442781011
 20
71.0086891636
 10
137.2670091888
 20
71.1156660948
 10
137.2879927709
 20
71.2182905533
 10
137.307444644
 20
71.3171195616
 10
137.3254658167
 20
71.4121786006
 10
137.3421405935
 20
71.5034652672
 10
137.3576280332
 20
71.591491163
 10
137.3720079942
 20
71.6762988932
 10
137.3853436505
 20
71.7578649984
 10
137.3977447158
 20
71.8365980984
 10
137.4092712783
 20
71.9125246034
 10
137.4199757034
 20
71.9856334827
 10
137.4299380459
 20
72.0562737547
 10
137.4392052151
 20
72.1244696208
 10
137.4478190271
 20
72.1902089234
 10
137.4558380483
 20
72.2537832812
 10
137.4632988614
 20
72.3152110811
 10
137.4702354959
 20
72.3744832889
 10
137.4766920676
 20
72.4318481262
 10
137.4882791863
 20
72.5408929226
  0
LWPOLYLINE
  5
3F1
100
AcDbEntity
  8
0
100
AcDbPolyline
 62
253
  6
CONTINUOUS
 90
55
 70
0
 10
135.1099065501
 20
67.6381633011
 10
135.2108014469
 20
67.7654561432
 10
135.3091355121
 20
67.8926947866
 10
135.4049603374
 20
68.019859531
 10
135.4982948894
 20
68.1468285617
 10
135.5892128242
 20
68.2736818054
 10
135.6778266189
 20
68.4006984206
 10
135.7640383069
 20
68.5276970723
 10
135.84798035
 20
68.6548001077
 10
135.9300745816
 20
68.7827608148
 10
136.0105079807
 20
68.9119204805
 10
136.089060205
 20
69.0419271385
 10
136.1655267443
 20
69.1724953143
 10
136.2398817478
 20
69.3035591649
 10
136.3121495167
 20
69.4351182488
 10
136.3822209766
 20
69.5669607297
 10
136.4500858134
 20
69.6990147265
 10
136.5157703655
 20
69.8312771655
 10
136.579233272
 20
69.963631019
 10
136.6408729397
 20
70.0968817123
 10
136.7003007616
 20
70.2301552386
 10
136.7564080871
 20
70.3607499385
 10
136.8091664781
 20
70.4881778288
 10
136.8588641581
 20
70.6127288881
 10
136.9050320069
 20
70.7327816968
 10
136.9475417719
 20
70.8473800783
 10
136.9868876895
 20
70.9572568636
 10
137.0235537259
 20
71.0633185791
 10
137.0577079119
 20
71.1656119293
 10
137.0894349008
 20
71.2639466109
 10
137.1190387088
 20
71.3589026371
 10
137.146626563
 20
71.4504508655
 10
137.1722906402
 20
71.5385161244
 10
137.1962757429
 20
71.6236273316
 10
137.2186707672
 20
71.7057862296
 10
137.2395416391
 20
71.7849159195
 10
137.2590705468
 20
71.8614401561
 10
137.2773252774
 20
71.9353549093
 10
137.2943604915
 20
72.0066088979
 10
137.3103177947
 20
72.0755638478
 10
137.3252513779
 20
72.1422210275
 10
137.3392043161
 20
72.2065380749
 10
137.3522856415
 20
72.2688175309
 10
137.3645383049
 20
72.3290603771
 10
137.3759973898
 20
72.3872346651
 10
137.3867480436
 20
72.4435979672
 10
137.3968245757
 20
72.4981517494
 10
137.4062557362
 20
72.5508709233
 10
137.4151089868
 20
72.60197643
 10
137.4234110329
 20
72.6514693352
 10
137.4311864709
 20
72.6993302927
 10
137.4384921403
 20
72.7457518861
 10
137.4453504135
 20
72.7907360953
 10
137.4517805431
 20
72.8342664383
 10
137.4635122092
 20
72.9174697338
  0
LWPOLYLINE
  5
3F2
100
AcDbEntity
  8
0
100
AcDbPolyline
 62
253
  6
CONTINUOUS
 90
7
 70
0
 10
112.724401271
 20
62.4074817987
 10
112.7343328561
 20
62.4117772628
 10
112.750438695
 20
62.4178386036
 10
112.7726137791
 20
62.4256263016
 10
112.8007135287
 20
62.4350895818
 10
112.8345547358
 20
62.4461667442
 10
112.8739167586
 20
62.4587855667
  0
LINE
  5
3F3
100
AcDbEntity
  8
0
100
AcDbLine
 62
253
  6
CONTINUOUS
 10
112.8739167586
 20
62.4587855667
 11
112.968142381
 21
62.4883095825
  0
LINE
  5
3F4
100
AcDbEntity
  8
0
100
AcDbLine
 62
253
  6
CONTINUOUS
 10
112.968142381
 20
62.4883095825
 11
113.0809370289
 21
62.5228929076
  0
LINE
  5
3F5
100
AcDbEntity
  8
0
100
AcDbLine
 62
253
  6
CONTINUOUS
 10
113.0809370289
 20
62.5228929076
 11
113.2093638508
 21
62.5616350908
  0
LWPOLYLINE
  5
3F6
100
AcDbEntity
  8
0
100
AcDbPolyline
 62
253
  6
CONTINUOUS
 90
3
 70
0
 10
113.2093638508
 20
62.5616350908
 10
113.3500789778
 20
62.6035273959
 10
113.4239096475
 20
62.6253164215
  0
LINE
  5
3F7
100
AcDbEntity
  8
0
100
AcDbLine
 62
253
  6
CONTINUOUS
 10
114.2968086649
 20
57.6900995744
 11
114.2453036987
 21
57.6705490916
  0
LWPOLYLINE
  5
3F8
100
AcDbEntity
  8
0
100
AcDbPolyline
 62
253
  6
CONTINUOUS
 90
3
 70
0
 10
114.2453036987
 20
57.6705490916
 10
114.0997609858
 20
57.6153703765
 10
114.0512088112
 20
57.5969882483
  0
LINE
  5
3F9
100
AcDbEntity
  8
0
100
AcDbLine
 62
253
  6
CONTINUOUS
 10
114.7857053244
 20
57.852419585
 11
114.9540418637
 21
57.9136123939
  0
ARC
  5
3FA
100
AcDbEntity
  8
0
100
AcDbCircle
 62
7
  6
CONTINUOUS
 10
81.7042746474
 20
79.1645168935
 40
60.9
100
AcDbArc
 50
339.2588487548
 51
360.0
  0
ARC
  5
3FB
100
AcDbEntity
  8
0
100
AcDbCircle
 62
253
  6
CONTINUOUS
 10
81.7042746474
 20
79.1645168935
 40
60.6610790321
100
AcDbArc
 50
355.1411811247
 51
360.0
  0
ARC
  5
3FC
100
AcDbEntity
  8
0
100
AcDbCircle
 62
253
  6
CONTINUOUS
 10
81.7042746474
 20
79.1645168935
 40
59.6650610482
100
AcDbArc
 50
355.1447895536
 51
360.0
  0
ARC
  5
3FD
100
AcDbEntity
  8
0
100
AcDbCircle
 62
7
  6
CONTINUOUS
 10
120.2042746643
 20
54.1220171237
 40
0.1499999996
100
AcDbArc
 50
0.0000016197
 51
87.0659817956
  0
ARC
  5
3FE
100
AcDbEntity
  8
0
100
AcDbCircle
 62
7
  6
CONTINUOUS
 10
118.7271583873
 20
59.3677213062
 40
5.0
100
AcDbArc
 50
200.7411512452
 51
266.1971949475
  0
ARC
  5
3FF
100
AcDbEntity
  8
0
100
AcDbCircle
 62
7
  6
CONTINUOUS
 10
121.1042746474
 20
52.4645168935
 40
0.15
100
AcDbArc
 50
0.0
 51
86.9830386902
  0
ARC
  5
400
100
AcDbEntity
  8
0
100
AcDbCircle
 62
7
  6
CONTINUOUS
 10
121.1542746474
 20
53.4132001916
 40
0.8
100
AcDbArc
 50
180.0
 51
266.9830386902
  0
ARC
  5
401
100
AcDbEntity
  8
0
100
AcDbCircle
 62
7
  6
CONTINUOUS
 10
122.0542746474
 20
51.9145168935
 40
0.8
100
AcDbArc
 50
180.0
 51
270.0
  0
ARC
  5
402
100
AcDbEntity
  8
0
100
AcDbCircle
 62
7
  6
CONTINUOUS
 10
126.2749176474
 20
69.6684238935
 40
2.3390187052
100
AcDbArc
 50
47.2312712626
 51
84.2012689375
  0
ARC
  5
403
100
AcDbEntity
  8
0
100
AcDbCircle
 62
253
  6
CONTINUOUS
 10
116.8542746474
 20
97.3645168935
 40
3.425
100
AcDbArc
 50
90.0
 51
270.0
  0
ARC
  5
404
100
AcDbEntity
  8
0
100
AcDbCircle
 62
7
  6
CONTINUOUS
 10
116.8542746474
 20
97.3645168935
 40
3.275
100
AcDbArc
 50
90.0
 51
270.0
  0
ARC
  5
405
100
AcDbEntity
  8
RACCORDO
100
AcDbCircle
 62
7
  6
CONTINUOUS
 10
116.8542746474
 20
97.3645168935
 40
3.25
100
AcDbArc
 50
90.0
 51
270.0
  0
CIRCLE
  5
406
100
AcDbEntity
  8
0
100
AcDbCircle
 62
7
  6
CONTINUOUS
 10
116.8542746474
 20
97.3645168935
 40
2.0
  0
ARC
  5
407
100
AcDbEntity
  8
0
100
AcDbCircle
 62
7
  6
CONTINUOUS
 10
114.3850564982
 20
103.9645168935
 40
0.5
100
AcDbArc
 50
90.0
 51
126.791529994
  0
ARC
  5
408
100
AcDbEntity
  8
0
100
AcDbCircle
 62
7
  6
CONTINUOUS
 10
110.6042746474
 20
103.8645168935
 40
0.5
100
AcDbArc
 50
90.0
 51
180.0
  0
ARC
  5
409
100
AcDbEntity
  8
0
100
AcDbCircle
 62
7
  6
CONTINUOUS
 10
171.0042746474
 20
79.1645168935
 40
60.9
100
AcDbArc
 50
180.0
 51
200.7411512452
  0
ARC
  5
40A
100
AcDbEntity
  8
0
100
AcDbCircle
 62
253
  6
CONTINUOUS
 10
171.0042746474
 20
79.1645168935
 40
60.6610790321
100
AcDbArc
 50
180.0
 51
184.8588188752
  0
ARC
  5
40B
100
AcDbEntity
  8
0
100
AcDbCircle
 62
253
  6
CONTINUOUS
 10
171.0042746474
 20
79.1645168935
 40
59.6650610482
100
AcDbArc
 50
180.0
 51
184.8552281136
  0
ARC
  5
40C
100
AcDbEntity
  8
0
100
AcDbCircle
 62
7
  6
CONTINUOUS
 10
133.9813909075
 20
59.3677213062
 40
5.0
100
AcDbArc
 50
273.8028050525
 51
339.2588487548
  0
ARC
  5
40D
100
AcDbEntity
  8
0
100
AcDbCircle
 62
253
  6
CONTINUOUS
 10
135.8542746474
 20
97.3645168935
 40
3.425
100
AcDbArc
 50
270.0
 51
90.0
  0
ARC
  5
40E
100
AcDbEntity
  8
0
100
AcDbCircle
 62
7
  6
CONTINUOUS
 10
135.8542746474
 20
97.3645168935
 40
3.275
100
AcDbArc
 50
270.0
 51
90.0
  0
ARC
  5
40F
100
AcDbEntity
  8
RACCORDO
100
AcDbCircle
 62
7
  6
CONTINUOUS
 10
135.8542746474
 20
97.3645168935
 40
3.25
100
AcDbArc
 50
270.0
 51
90.0
  0
ARC
  5
410
100
AcDbEntity
  8
0
100
AcDbCircle
 62
7
  6
CONTINUOUS
 10
126.3542746474
 20
74.6145168935
 40
2.6237424326
100
AcDbArc
 50
292.0885384701
 51
273.4297403372
  0
ARC
  5
411
100
AcDbEntity
  8
0
100
AcDbCircle
 62
7
  6
CONTINUOUS
 10
126.4589966474
 20
70.0472928935
 40
2.3109495123
100
AcDbArc
 50
45.4348886633
 51
67.5658624856
  0
CIRCLE
  5
412
100
AcDbEntity
  8
0
100
AcDbCircle
 62
7
  6
CONTINUOUS
 10
126.3542746474
 20
74.6145168935
 40
2.20376
  0
CIRCLE
  5
413
100
AcDbEntity
  8
0
100
AcDbCircle
 62
7
  6
CONTINUOUS
 10
135.8542746474
 20
97.3645168935
 40
2.0
  0
CIRCLE
  5
414
100
AcDbEntity
  8
0
100
AcDbCircle
 62
7
  6
CONTINUOUS
 10
126.3542746474
 20
97.3645168935
 40
2.0
  0
ARC
  5
415
100
AcDbEntity
  8
0
100
AcDbCircle
 62
7
  6
CONTINUOUS
 10
126.3542746474
 20
74.6145168935
 40
1.9709567246
100
AcDbArc
 50
299.3041457634
 51
44.9957848404
  0
ARC
  5
416
100
AcDbEntity
  8
0
100
AcDbCircle
 62
7
  6
CONTINUOUS
 10
126.3542746474
 20
74.6145168935
 40
1.9709563643
100
AcDbArc
 50
134.9002846268
 51
240.6958542366
  0
ARC
  5
417
100
AcDbEntity
  8
0
100
AcDbCircle
 62
7
  6
CONTINUOUS
 10
126.3542746474
 20
74.6145168935
 40
1.5790921275
100
AcDbArc
 50
148.0267086216
 51
240.6958772397
  0
ARC
  5
418
100
AcDbEntity
  8
0
100
AcDbCircle
 62
7
  6
CONTINUOUS
 10
126.3542746474
 20
74.6145168935
 40
1.5790919977
100
AcDbArc
 50
299.3041227603
 51
31.9732906939
  0
ARC
  5
419
100
AcDbEntity
  8
0
100
AcDbCircle
 62
7
  6
CONTINUOUS
 10
130.6542746474
 20
51.9145168935
 40
0.8
100
AcDbArc
 50
270.0
 51
360.0
  0
ARC
  5
41A
100
AcDbEntity
  8
0
100
AcDbCircle
 62
7
  6
CONTINUOUS
 10
131.5542746474
 20
53.4132001916
 40
0.8
100
AcDbArc
 50
273.0169613098
 51
360.0
  0
ARC
  5
41B
100
AcDbEntity
  8
0
100
AcDbCircle
 62
7
  6
CONTINUOUS
 10
138.3234927966
 20
103.9645168935
 40
0.5
100
AcDbArc
 50
53.208470006
 51
90.0
  0
ARC
  5
41C
100
AcDbEntity
  8
0
100
AcDbCircle
 62
7
  6
CONTINUOUS
 10
142.1042746474
 20
103.8645168935
 40
0.5
100
AcDbArc
 50
0.0
 51
90.0
  0
ARC
  5
41D
100
AcDbEntity
  8
0
100
AcDbCircle
 62
7
  6
CONTINUOUS
 10
131.6042746474
 20
52.4645168935
 40
0.15
100
AcDbArc
 50
93.0169613098
 51
180.0
  0
ARC
  5
41E
100
AcDbEntity
  8
0
100
AcDbCircle
 62
7
  6
CONTINUOUS
 10
132.5042746306
 20
54.1220171239
 40
0.1499999996
100
AcDbArc
 50
92.934018254
 51
179.9999984689
  0
ARC
  5
41F
100
AcDbEntity
  8
0
100
AcDbCircle
 62
7
  6
CONTINUOUS
 10
126.3542746474
 20
174.1145168935
 40
120.0
100
AcDbArc
 50
272.9126910838
 51
273.8028050525
  0
ARC
  5
420
100
AcDbEntity
  8
0
100
AcDbCircle
 62
7
  6
CONTINUOUS
 10
126.3542746474
 20
174.1145168935
 40
120.0
100
AcDbArc
 50
266.1971949475
 51
267.0873088832
  0
ENDSEC
  0
SECTION
  2
OBJECTS
  0
DICTIONARY
  5
C
100
AcDbDictionary
280
0
281
1
  3
ACAD_GROUP
350
D
  3
ACAD_MLINESTYLE
350
17
  3
ACAD_LAYOUT
350
1A
  3
ACAD_PLOTSETTINGS
350
19
  3
ACAD_PLOTSTYLENAME
350
E
  0
DICTIONARY
  5
D
102
{ACAD_REACTORS
330
C
102
}
100
AcDbDictionary
280
0
281
1
  0
ACDBDICTIONARYWDFLT
  5
E
102
{ACAD_REACTORS
330
C
102
}
100
AcDbDictionary
281
1
  3
Normal
350
F
100
AcDbDictionaryWithDefault
340
F
  0
DICTIONARY
  5
17
102
{ACAD_REACTORS
330
C
102
}
100
AcDbDictionary
280
0
281
1
  3
Standard
350
18
  0
DICTIONARY
  5
19
102
{ACAD_REACTORS
330
C
102
}
100
AcDbDictionary
281
1
  0
DICTIONARY
  5
1A
102
{ACAD_REACTORS
330
C
102
}
100
AcDbDictionary
281
1
  3
Model
350
421
  3
Layout1
350
422
  0
ACDBPLACEHOLDER
  5
F
102
{ACAD_REACTORS
330
E
102
}
  0
MLINESTYLE
  5
18
102
{ACAD_REACTORS
330
17
102
}
100
AcDbMlineStyle
  2
STANDARD
 70
0
  3

 62
256
 51
90.0
 52
90.0
 71
2
 49
0.5
 62
256
  6
BYLAYER
 49
-0.5
 62
256
  6
BYLAYER
  0
LAYOUT
  5
421
102
{ACAD_REACTORS
330
1A
102
}
100
AcDbPlotSettings
  1

  2
none_device
  4
ISO_A4_(297.00_x_210.00_MM)
  6

 40
0.0
 41
0.0
 42
0.0
 43
0.0
 44
297.0
 45
210.0
 46
0.0
 47
0.0
 48
0.0
 49
0.0
140
0.0
141
0.0
142
1.0
143
1.0
 70
1024
 72
1
 73
0
 74
0
  7

 75
0
147
1.0
148
0.0
149
0.0
100
AcDbLayout
  1
Model
 70
0
 71
0
 10
0.0
 20
0.0
 11
297.0
 21
210.0
 12
0.0
 22
0.0
 32
0.0
 14
0.0
 24
0.0
 34
0.0
 15
0.0
 25
0.0
 35
0.0
146
0.0
 13
0.0
 23
0.0
 33
0.0
 16
1.0
 26
0.0
 36
0.0
 17
0.0
 27
1.0
 37
0.0
 76
0
330
21C
345
0
346
0
  0
LAYOUT
  5
422
102
{ACAD_REACTORS
330
1A
102
}
100
AcDbPlotSettings
  1

  2
none_device
  4
ISO_A4_(297.00_x_210.00_MM)
  6

 40
0.0
 41
0.0
 42
0.0
 43
0.0
 44
297.0
 45
210.0
 46
0.0
 47
0.0
 48
0.0
 49
0.0
140
0.0
141
0.0
142
1.0
143
1.0
 70
0
 72
1
 73
0
 74
0
  7

 75
0
147
1.0
148
0.0
149
0.0
100
AcDbLayout
  1
Layout1
 70
0
 71
1
 10
0.0
 20
0.0
 11
297.0
 21
210.0
 12
0.0
 22
0.0
 32
0.0
 14
0.0
 24
0.0
 34
0.0
 15
0.0
 25
0.0
 35
0.0
146
0.0
 13
0.0
 23
0.0
 33
0.0
 16
1.0
 26
0.0
 36
0.0
 17
0.0
 27
1.0
 37
0.0
 76
0
330
21D
345
0
346
0
  0
ENDSEC
  0
EOF
