  0
SECTION
  2
HEADER
  9
$ACADVER
  1
AC1015
  9
$DWGCODEPAGE
  3
ANSI_1252
  9
$EXTMAX
 10
297.0
 20
210.0
 30
0.0
  9
$EXTMIN
 10
0.0
 20
0.0
 30
0.0
  9
$LIMMIN
 10
0.0
 20
0.0
  9
$LIMMAX
 10
297.0
 20
210.0
  9
$VIEWCTR
 10
148.5
 20
105.0
  9
$VIEWSIZE
 40
210.0
  9
$CLAYER
  8
0
  9
$LTSCALE
 40
16.335
  9
$CELTYPE
  6
BYLAYER
  9
$DIMSCALE
 40
1.0
  9
$DIMASZ
 40
3.0
  9
$DIMEXO
 40
0.5
  9
$DIMDLI
 40
11.286
  9
$DIMEXE
 40
1.5
  9
$DIMCEN
 40
2.673
  9
$DIMLFAC
 40
1.0
  9
$DIMBLK
  1
_FILLED
  9
$DIMTXT
 40
3.0
  9
$DIMTOL
 70
1
  9
$DIMLIM
 70
0
  9
$DIMTFAC
 40
1.0
  9
$DIMTP
 40
0.01
  9
$DIMTM
 40
0.01
  9
$DIMGAP
 40
0.625
  9
$DIMDSEP
 70
44
  9
$PDMODE
 70
3
  9
$PDSIZE
 40
3.0
  9
$HANDSEED
  5
428
  9
$TILEMODE
 70
1
  9
$MEASUREMENT
 70
1
  9
$INSUNITS
 70
4
  0
ENDSEC
  0
SECTION
  2
CLASSES
  0
CLASS
  1
ACDBDICTIONARYWDFLT
  2
AcDbDictionaryWithDefault
  3
AutoCAD 2000
 90
0
280
0
281
0
  0
CLASS
  1
ACDBPLACEHOLDER
  2
AcDbPlaceHolder
  3
AutoCAD 2000
 90
0
280
0
281
0
  0
CLASS
  1
LAYOUT
  2
AcDbLayout
  3
AutoCAD 2000
 90
0
280
0
281
0
  0
ENDSEC
  0
SECTION
  2
TABLES
  0
TABLE
  2
VPORT
  5
8
100
AcDbSymbolTable
 70
2
  0
VPORT
  5
1F4
100
AcDbSymbolTableRecord
100
AcDbViewportTableRecord
  2
*ACTIVE
 70
0
 10
0.0
 20
0.0
 11
1.0
 21
1.0
 12
148.5
 22
105.0
 13
0.0
 23
0.0
 14
1.0
 24
1.0
 15
0.0
 25
0.0
 16
0.0
 26
0.0
 36
1.0
 17
0.0
 27
0.0
 37
0.0
 40
210.0
 41
1.4142857143
 42
50.0
 43
0.0
 44
0.0
 50
0.0
 51
0.0
 71
0
 72
100
 73
1
 74
1
 75
0
 76
0
 77
0
 78
0
  0
ENDTAB
  0
TABLE
  2
LTYPE
  5
5
100
AcDbSymbolTable
 70
6
  0
LTYPE
  5
14
100
AcDbSymbolTableRecord
100
AcDbLinetypeTableRecord
  2
BYBLOCK
 70
0
  3

 72
65
 73
0
 40
0.0
  0
LTYPE
  5
15
100
AcDbSymbolTableRecord
100
AcDbLinetypeTableRecord
  2
BYLAYER
 70
0
  3

 72
65
 73
0
 40
0.0
  0
LTYPE
  5
16
100
AcDbSymbolTableRecord
100
AcDbLinetypeTableRecord
  2
CONTINUOUS
 70
64
  3
Solid line
 72
65
 73
0
 40
0.0
  0
LTYPE
  5
1F5
100
AcDbSymbolTableRecord
100
AcDbLinetypeTableRecord
  2
CENTER
 70
64
  3
____ _ ____ _ ____ _ ____ _ ____ _ ____ _ ____
 72
65
 73
4
 40
0.6
 49
0.375
 74
0
 49
-0.075
 74
0
 49
0.075
 74
0
 49
-0.075
 74
0
  0
LTYPE
  5
1F6
100
AcDbSymbolTableRecord
100
AcDbLinetypeTableRecord
  2
HIDDEN
 70
64
  3
- - - - - - - - - - - - - - - - - - - -
 72
65
 73
2
 40
0.2
 49
0.1
 74
0
 49
-0.1
 74
0
  0
LTYPE
  5
1F7
100
AcDbSymbolTableRecord
100
AcDbLinetypeTableRecord
  2
PHANTOM
 70
64
  3
_____ _ _ _____ _ _ _____ _ _ _____
 72
65
 73
6
 40
0.8
 49
0.45
 74
0
 49
-0.05
 74
0
 49
0.1
 74
0
 49
-0.05
 74
0
 49
0.1
 74
0
 49
-0.05
 74
0
  0
LTYPE
  5
1F8
100
AcDbSymbolTableRecord
100
AcDbLinetypeTableRecord
  2
DOT
 70
64
  3
. . . . . . . . . . . . . . . . . . . .
 72
65
 73
2
 40
0.2
 49
0.1
 74
0
 49
-0.1
 74
0
  0
LTYPE
  5
1F9
100
AcDbSymbolTableRecord
100
AcDbLinetypeTableRecord
  2
DASHED
 70
64
  3
- - - - - - - - - - - - - - - - - - - -
 72
65
 73
2
 40
0.2
 49
0.1
 74
0
 49
-0.1
 74
0
  0
ENDTAB
  0
TABLE
  2
LAYER
  5
2
100
AcDbSymbolTable
 70
36
  0
LAYER
  5
10
100
AcDbSymbolTableRecord
100
AcDbLayerTableRecord
  2
0
 70
0
 62
7
  6
CONTINUOUS
370
-3
390
F
  0
LAYER
  5
1FA
100
AcDbSymbolTableRecord
100
AcDbLayerTableRecord
  2
DEFAULT_1
 70
0
 62
7
  6
CENTER
370
-3
390
F
  0
LAYER
  5
1FB
100
AcDbSymbolTableRecord
100
AcDbLayerTableRecord
  2
DEFAULT_2
 70
0
 62
7
  6
HIDDEN
370
-3
390
F
  0
LAYER
  5
1FC
100
AcDbSymbolTableRecord
100
AcDbLayerTableRecord
  2
DEFAULT_3
 70
0
 62
7
  6
PHANTOM
370
-3
390
F
  0
LAYER
  5
1FD
100
AcDbSymbolTableRecord
100
AcDbLayerTableRecord
  2
ASSI
 70
0
 62
7
  6
CONTINUOUS
370
-3
390
F
  0
LAYER
  5
1FE
100
AcDbSymbolTableRecord
100
AcDbLayerTableRecord
  2
COLOR15
 70
0
 62
7
  6
CONTINUOUS
370
-3
390
F
  0
LAYER
  5
1FF
100
AcDbSymbolTableRecord
100
AcDbLayerTableRecord
  2
COLOR5
 70
0
 62
7
  6
CONTINUOUS
370
-3
390
F
  0
LAYER
  5
200
100
AcDbSymbolTableRecord
100
AcDbLayerTableRecord
  2
COORDINATE
 70
0
 62
7
  6
CONTINUOUS
370
-3
390
F
  0
LAYER
  5
201
100
AcDbSymbolTableRecord
100
AcDbLayerTableRecord
  2
COORD_ORIGINE
 70
0
 62
7
  6
CONTINUOUS
370
-3
390
F
  0
LAYER
  5
202
100
AcDbSymbolTableRecord
100
AcDbLayerTableRecord
  2
COSMETICHE
 70
0
 62
7
  6
CONTINUOUS
370
-3
390
F
  0
LAYER
  5
203
100
AcDbSymbolTableRecord
100
AcDbLayerTableRecord
  2
CURVE
 70
0
 62
7
  6
CONTINUOUS
370
-3
390
F
  0
LAYER
  5
204
100
AcDbSymbolTableRecord
100
AcDbLayerTableRecord
  2
DRAFT
 70
0
 62
7
  6
CONTINUOUS
370
-3
390
F
  0
LAYER
  5
205
100
AcDbSymbolTableRecord
100
AcDbLayerTableRecord
  2
IMPORT_IGES
 70
0
 62
7
  6
CONTINUOUS
370
-3
390
F
  0
LAYER
  5
206
100
AcDbSymbolTableRecord
100
AcDbLayerTableRecord
  2
INTF_1
 70
0
 62
7
  6
CONTINUOUS
370
-3
390
F
  0
LAYER
  5
207
100
AcDbSymbolTableRecord
100
AcDbLayerTableRecord
  2
INTF_2
 70
0
 62
7
  6
CONTINUOUS
370
-3
390
F
  0
LAYER
  5
208
100
AcDbSymbolTableRecord
100
AcDbLayerTableRecord
  2
INTF_3
 70
0
 62
7
  6
CONTINUOUS
370
-3
390
F
  0
LAYER
  5
209
100
AcDbSymbolTableRecord
100
AcDbLayerTableRecord
  2
INTF_5
 70
0
 62
7
  6
CONTINUOUS
370
-3
390
F
  0
LAYER
  5
20A
100
AcDbSymbolTableRecord
100
AcDbLayerTableRecord
  2
INTF_YELLOW
 70
0
 62
7
  6
CONTINUOUS
370
-3
390
F
  0
LAYER
  5
20B
100
AcDbSymbolTableRecord
100
AcDbLayerTableRecord
  2
NOTE
 70
0
 62
7
  6
CONTINUOUS
370
-3
390
F
  0
LAYER
  5
20C
100
AcDbSymbolTableRecord
100
AcDbLayerTableRecord
  2
PIANI
 70
0
 62
7
  6
CONTINUOUS
370
-3
390
F
  0
LAYER
  5
20D
100
AcDbSymbolTableRecord
100
AcDbLayerTableRecord
  2
PIANI_ORIGINE
 70
0
 62
7
  6
CONTINUOUS
370
-3
390
F
  0
LAYER
  5
20E
100
AcDbSymbolTableRecord
100
AcDbLayerTableRecord
  2
PUNTI
 70
0
 62
7
  6
CONTINUOUS
370
-3
390
F
  0
LAYER
  5
20F
100
AcDbSymbolTableRecord
100
AcDbLayerTableRecord
  2
RACCORDO
 70
0
 62
7
  6
CONTINUOUS
370
-3
390
F
  0
LAYER
  5
210
100
AcDbSymbolTableRecord
100
AcDbLayerTableRecord
  2
RGB__255__255__255__
 70
0
 62
7
  6
CONTINUOUS
370
-3
390
F
  0
LAYER
  5
211
100
AcDbSymbolTableRecord
100
AcDbLayerTableRecord
  2
SMUSSO
 70
0
 62
7
  6
CONTINUOUS
370
-3
390
F
  0
LAYER
  5
212
100
AcDbSymbolTableRecord
100
AcDbLayerTableRecord
  2
SNAPLINE
 70
0
 62
7
  6
CONTINUOUS
370
-3
390
F
  0
LAYER
  5
213
100
AcDbSymbolTableRecord
100
AcDbLayerTableRecord
  2
SUPERFICI
 70
0
 62
7
  6
CONTINUOUS
370
-3
390
F
  0
LAYER
  5
214
100
AcDbSymbolTableRecord
100
AcDbLayerTableRecord
  2
TASSELLI
 70
0
 62
7
  6
CONTINUOUS
370
-3
390
F
  0
LAYER
  5
215
100
AcDbSymbolTableRecord
100
AcDbLayerTableRecord
  2
TRASH
 70
0
 62
7
  6
CONTINUOUS
370
-3
390
F
  0
LAYER
  5
216
100
AcDbSymbolTableRecord
100
AcDbLayerTableRecord
  2
VARIE
 70
0
 62
7
  6
CONTINUOUS
370
-3
390
F
  0
LAYER
  5
217
100
AcDbSymbolTableRecord
100
AcDbLayerTableRecord
  2
XSEC_DATUMS
 70
0
 62
7
  6
CONTINUOUS
370
-3
390
F
  0
ENDTAB
  0
TABLE
  2
STYLE
  5
3
100
AcDbSymbolTable
 70
1
  0
STYLE
  5
11
100
AcDbSymbolTableRecord
100
AcDbTextStyleTableRecord
  2
STANDARD
 70
0
 40
0.0
 41
0.8
 50
0.0
 71
0
 42
0.2
  3
txt
  4

  0
STYLE
  5
218
100
AcDbSymbolTableRecord
100
AcDbTextStyleTableRecord
  2
TEXTSTYLE_1
 70
0
 40
0.0
 41
0.8
 50
0.0
 71
0
 42
0.2
  3
gdt
  4

  0
ENDTAB
  0
TABLE
  2
VIEW
  5
6
100
AcDbSymbolTable
 70
0
  0
ENDTAB
  0
TABLE
  2
UCS
  5
7
100
AcDbSymbolTable
 70
0
  0
ENDTAB
  0
TABLE
  2
APPID
  5
9
100
AcDbSymbolTable
 70
1
  0
APPID
  5
219
100
AcDbSymbolTableRecord
100
AcDbRegAppTableRecord
  2
ACAD
 70
0
  0
ENDTAB
  0
TABLE
  2
BLOCK_RECORD
  5
1
100
AcDbSymbolTable
 70
0
  0
BLOCK_RECORD
  5
21A
100
AcDbSymbolTableRecord
100
AcDbBlockTableRecord
  2
*Model_Space
  0
BLOCK_RECORD
  5
21B
100
AcDbSymbolTableRecord
100
AcDbBlockTableRecord
  2
*Paper_Space
  0
ENDTAB
  0
TABLE
  2
DIMSTYLE
  5
A
100
AcDbSymbolTable
 70
1
100
AcDbDimStyleTable
 71
0
  0
DIMSTYLE
105
21C
100
AcDbSymbolTableRecord
100
AcDbDimStyleTableRecord
  2
STANDARD
 70
0
  3

  4

 40
1.0
 41
3.0
 42
0.5
 43
0.38
 44
1.5
 45
0.0
 46
0.0
 47
0.01
 48
0.01
140
3.0
141
0.09
142
0.0
143
25.4
144
1.0
145
0.0
146
1.0
147
0.625
 71
1.0
 72
0.0
 73
0
 74
0
 75
0
 76
0
 77
1
 78
8
170
0
171
2
172
0
173
0
174
0
175
0
176
0
177
0
178
0
270
2
271
2
272
2
273
2
274
2
275
0
280
0
281
0
282
0
283
1
284
8
285
0
286
0
287
3
288
0
340
11
278
44
  0
ENDTAB
  0
ENDSEC
  0
SECTION
  2
BLOCKS
  0
BLOCK
  5
20
100
AcDbEntity
  8
0
100
AcDbBlockBegin
  2
*Model_Space
 70
0
 10
0.0
 20
0.0
 30
0.0
  3
*Model_Space
  1

  0
ENDBLK
  5
21
100
AcDbEntity
  8
0
100
AcDbBlockEnd
  0
BLOCK
  5
1C
100
AcDbEntity
  8
0
100
AcDbBlockBegin
  2
*Paper_Space
 70
0
 10
0.0
 20
0.0
 30
0.0
  3
*Paper_Space
  1

  0
ENDBLK
  5
1D
100
AcDbEntity
  8
0
100
AcDbBlockEnd
  0
ENDSEC
  0
SECTION
  2
ENTITIES
  0
LWPOLYLINE
  5
21D
100
AcDbEntity
  8
0
100
AcDbPolyline
 62
253
  6
CONTINUOUS
 90
11
 70
0
 10
145.9657631812
 20
58.7378255894
 10
145.8729816155
 20
58.7276299711
 10
145.7896897632
 20
58.7172121416
 10
145.7158198385
 20
58.7065732106
 10
145.6518774071
 20
58.6957853967
 10
145.5979300502
 20
58.6848356279
 10
145.5539101866
 20
58.6737369762
 10
145.5201206395
 20
58.6626008753
 10
145.4966623499
 20
58.6514644698
 10
145.4834343768
 20
58.6402906151
 10
145.48043672
 20
58.6290793112
  0
LWPOLYLINE
  5
21E
100
AcDbEntity
  8
0
100
AcDbPolyline
 62
7
  6
CONTINUOUS
 90
25
 70
0
 10
154.4800471575
 20
58.6290793112
 10
154.5322033873
 20
58.6307661786
 10
154.5838608992
 20
58.6358234986
 10
154.635019693
 20
58.6442512711
 10
154.6859798531
 20
58.6561345128
 10
154.7364412951
 20
58.671388207
 10
154.7855037666
 20
58.6897573044
 10
154.8329772313
 20
58.7112042748
 10
154.8790517254
 20
58.7357666483
 10
154.9233971055
 20
58.7633019666
 10
154.9661443353
 20
58.793933534
 10
155.0071624512
 20
58.827538046
 10
155.045728419
 20
58.8636031311
 10
155.0817727384
 20
58.9021976448
 10
155.1153649097
 20
58.9432527316
 10
155.1459903999
 20
58.986049453
 10
155.173528414
 20
59.0304652177
 10
155.1980997469
 20
59.0766226171
 10
155.219552251
 20
59.124170486
 10
155.2379176414
 20
59.1732798451
 10
155.253164203
 20
59.2237796737
 10
155.2650446428
 20
59.274805745
 10
155.2734765299
 20
59.3260699833
 10
155.2785422952
 20
59.3778604644
 10
155.2802419388
 20
59.430177188
  0
LWPOLYLINE
  5
21F
100
AcDbEntity
  8
0
100
AcDbPolyline
 62
253
  6
CONTINUOUS
 90
24
 70
0
 10
149.9802412476
 20
58.8671085669
 10
149.7640073476
 20
58.8668331242
 10
149.549242315
 20
58.8660231977
 10
149.3359461497
 20
58.8646787874
 10
149.1236376171
 20
58.8627944307
 10
148.9127979519
 20
58.8603755902
 10
148.7048708579
 20
58.8574386538
 10
148.4998760933
 20
58.8539800835
 10
148.2977938998
 20
58.8500034172
 10
148.1000087069
 20
58.8455356563
 10
147.9065492041
 20
58.8405734296
 10
147.7173867018
 20
58.8351201083
 10
147.5338195602
 20
58.8292128066
 10
147.3558847971
 20
58.82284835
 10
147.1835453948
 20
58.8160299129
 10
147.0179886601
 20
58.8088041333
 10
146.8592613148
 20
58.8011681833
 10
146.7073166372
 20
58.7931248907
 10
146.5632017699
 20
58.7847293772
 10
146.4269713623
 20
58.7759792731
 10
146.2985707649
 20
58.7668769481
 10
146.1788831721
 20
58.7574846323
 10
146.0679666744
 20
58.7478001062
 10
145.9657631812
 20
58.7378255894
  0
LWPOLYLINE
  5
220
100
AcDbEntity
  8
0
100
AcDbPolyline
 62
253
  6
CONTINUOUS
 90
34
 70
0
 10
149.9802411324
 20
59.6660121947
 10
149.7280391873
 20
59.6657400852
 10
149.4764010892
 20
59.6649397691
 10
149.2258970716
 20
59.6636112464
 10
148.977095722
 20
59.6617491831
 10
148.7305601625
 20
59.6593589132
 10
148.486846857
 20
59.6564564387
 10
148.2465087262
 20
59.6530383036
 10
148.0100907342
 20
59.649107964
 10
147.7781263576
 20
59.6446917896
 10
147.5511418549
 20
59.639786486
 10
147.3296530395
 20
59.6343953476
 10
147.1141613151
 20
59.6285546279
 10
146.9051551957
 20
59.6222612206
 10
146.703111334
 20
59.615518232
 10
146.5084914306
 20
59.6083712339
 10
146.3217381799
 20
59.6008174531
 10
146.1432764476
 20
59.5928596628
 10
145.9735141277
 20
59.5845517545
 10
145.8128387521
 20
59.5758914045
 10
145.6616146569
 20
59.5668809365
 10
145.520184312
 20
59.5575812121
 10
145.3888676983
 20
59.5479900379
 10
145.2679676215
 20
59.5381096073
 10
145.157765373
 20
59.5280073625
 10
145.0585175754
 20
59.5176824958
 10
144.9704419569
 20
59.507135815
 10
144.8937278429
 20
59.4964371859
 10
144.8284908895
 20
59.4855734913
 10
144.7749739134
 20
59.4745578483
 10
144.7334142166
 20
59.4634994748
 10
144.7038264133
 20
59.4524347765
 10
144.6861239335
 20
59.4413273476
 10
144.6802419388
 20
59.430177188
  0
LINE
  5
221
100
AcDbEntity
  8
0
100
AcDbLine
 62
7
  6
CONTINUOUS
 10
154.4800471575
 20
58.6290793112
 11
153.9802419388
 21
58.6290793112
  0
LINE
  5
222
100
AcDbEntity
  8
0
100
AcDbLine
 62
7
  6
CONTINUOUS
 10
145.9802419388
 20
58.6290793112
 11
145.48043672
 21
58.6290793112
  0
LINE
  5
223
100
AcDbEntity
  8
0
100
AcDbLine
 62
253
  6
CONTINUOUS
 10
144.6802419388
 20
59.9790793112
 11
155.2802419388
 21
59.9790793112
  0
LWPOLYLINE
  5
224
100
AcDbEntity
  8
0
100
AcDbPolyline
 62
253
  6
CONTINUOUS
 90
37
 70
0
 10
159.9749749011
 20
63.1135995032
 10
160.0317526277
 20
63.1205651379
 10
160.0906125059
 20
63.1286208904
 10
160.1515316201
 20
63.1378630113
 10
160.214496466
 20
63.1483355005
 10
160.2794692207
 20
63.1601409052
 10
160.3463866568
 20
63.1734403407
 10
160.4151883295
 20
63.188296691
 10
160.4858628616
 20
63.2047844482
 10
160.5584123355
 20
63.2231024901
 10
160.6327857786
 20
63.2433724246
 10
160.7089327627
 20
63.2656807309
 10
160.7868459257
 20
63.2901938884
 10
160.8664000491
 20
63.317006384
 10
160.9475863882
 20
63.3462519229
 10
161.0305571595
 20
63.3781767098
 10
161.1151714264
 20
63.4128851789
 10
161.2013865635
 20
63.4505449121
 10
161.289474956
 20
63.4915366246
 10
161.3793222725
 20
63.5359996566
 10
161.4707881293
 20
63.5841034104
 10
161.5640661949
 20
63.6363173897
 10
161.6589658588
 20
63.6927941784
 10
161.7553220364
 20
63.7537406487
 10
161.8533088025
 20
63.8197660404
 10
161.9526565277
 20
63.8910219119
 10
162.0531413599
 20
63.9677704488
 10
162.1549227532
 20
64.0508566997
 10
162.257726622
 20
64.1405142857
 10
162.3611436552
 20
64.2369740015
 10
162.465021656
 20
64.3411418194
 10
162.5690042827
 20
64.4532925668
 10
162.6725116326
 20
64.5736213942
 10
162.774949513
 20
64.702932678
 10
162.8757119955
 20
64.841617805
 10
162.9742024094
 20
64.9896440964
 10
163.0697766295
 20
65.1471416964
  0
LWPOLYLINE
  5
225
100
AcDbEntity
  8
0
100
AcDbPolyline
 62
253
  6
CONTINUOUS
 90
13
 70
0
 10
156.1282372486
 20
61.7866738147
 10
156.1095112267
 20
61.7845100056
 10
156.0912083362
 20
61.7799808601
 10
156.0736218089
 20
61.7731589399
 10
156.0570333994
 20
61.7641535395
 10
156.0417088717
 20
61.7531089347
 10
156.027893741
 20
61.7402020719
 10
156.0158093403
 20
61.7256397326
 10
156.0056492747
 20
61.7096552209
 10
155.9975763192
 20
61.6925046257
 10
155.991719811
 20
61.6744627177
 10
155.9881735777
 20
61.6558185474
 10
155.9869944338
 20
61.6368708142
  0
LINE
  5
226
100
AcDbEntity
  8
0
100
AcDbLine
 62
253
  6
CONTINUOUS
 10
159.8848397154
 20
63.1034126309
 11
159.9749749011
 21
63.1135995032
  0
LINE
  5
227
100
AcDbEntity
  8
0
100
AcDbLine
 62
253
  6
CONTINUOUS
 10
159.749885626
 20
63.0889804385
 11
159.8848397154
 21
63.1034126309
  0
LINE
  5
228
100
AcDbEntity
  8
0
100
AcDbLine
 62
253
  6
CONTINUOUS
 10
159.6160735036
 20
63.0755141899
 11
159.749885626
 21
63.0889804385
  0
LINE
  5
229
100
AcDbEntity
  8
0
100
AcDbLine
 62
253
  6
CONTINUOUS
 10
159.3093321868
 20
63.0461016321
 11
159.6160735036
 21
63.0755141899
  0
LWPOLYLINE
  5
22A
100
AcDbEntity
  8
0
100
AcDbPolyline
 62
253
  6
CONTINUOUS
 90
37
 70
0
 10
160.0107957075
 20
62.4161312024
 10
160.0783860939
 20
62.422169311
 10
160.1485579398
 20
62.4294998747
 10
160.2212822473
 20
62.4382435449
 10
160.2965118335
 20
62.4485216894
 10
160.3742225522
 20
62.4604655337
 10
160.4544123674
 20
62.4742183309
 10
160.5370512742
 20
62.4899219381
 10
160.6220647727
 20
62.5077141115
 10
160.7093746827
 20
62.5277381471
 10
160.7988849193
 20
62.5501333617
 10
160.8905484339
 20
62.5750541135
 10
160.984348783
 20
62.6026731676
 10
161.0801106196
 20
62.6331199471
 10
161.1778179574
 20
62.6665768312
 10
161.2776720735
 20
62.7033235641
 10
161.3794655855
 20
62.7435094046
 10
161.4831414257
 20
62.7873466458
 10
161.5890851612
 20
62.8352717298
 10
161.697118528
 20
62.8875103556
 10
161.8070384355
 20
62.944285576
 10
161.9191305441
 20
63.0061107264
 10
162.0330989223
 20
63.0732260189
 10
162.1487022051
 20
63.145914087
 10
162.2662192279
 20
63.2248423984
 10
162.3852098117
 20
63.3102610063
 10
162.5053538903
 20
63.4025199337
 10
162.6269709429
 20
63.5025553984
 10
162.7495554617
 20
63.6107424126
 10
162.8725070208
 20
63.7274003607
 10
162.9958094758
 20
63.8535045477
 10
163.1187699573
 20
63.9894728998
 10
163.2405332192
 20
64.1355851535
 10
163.3606213789
 20
64.2926816398
 10
163.478163143
 20
64.4612445225
 10
163.5919659565
 20
64.6413318271
 10
163.7009066251
 20
64.8331108678
  0
LINE
  5
22B
100
AcDbEntity
  8
0
100
AcDbLine
 62
253
  6
CONTINUOUS
 10
158.7299732582
 20
62.9934347433
 11
159.3093321868
 21
63.0461016321
  0
LINE
  5
22C
100
AcDbEntity
  8
0
100
AcDbLine
 62
253
  6
CONTINUOUS
 10
158.2424364766
 20
62.9513519945
 11
158.7299732582
 21
62.9934347433
  0
LINE
  5
22D
100
AcDbEntity
  8
0
100
AcDbLine
 62
253
  6
CONTINUOUS
 10
157.7536349479
 20
62.9114419773
 11
158.2424364766
 21
62.9513519945
  0
LINE
  5
22E
100
AcDbEntity
  8
0
100
AcDbLine
 62
253
  6
CONTINUOUS
 10
159.3085442879
 20
62.3602502824
 11
160.0107957082
 21
62.4161311946
  0
LINE
  5
22F
100
AcDbEntity
  8
0
100
AcDbLine
 62
253
  6
CONTINUOUS
 10
157.3245552515
 20
62.8782501629
 11
157.7536349479
 21
62.9114419773
  0
LINE
  5
230
100
AcDbEntity
  8
0
100
AcDbLine
 62
253
  6
CONTINUOUS
 10
158.7688845838
 20
62.3199906382
 11
159.3085442879
 21
62.3602502824
  0
LINE
  5
231
100
AcDbEntity
  8
0
100
AcDbLine
 62
253
  6
CONTINUOUS
 10
156.9248973853
 20
62.8488889903
 11
157.3245552515
 21
62.8782501629
  0
LINE
  5
232
100
AcDbEntity
  8
0
100
AcDbLine
 62
253
  6
CONTINUOUS
 10
156.5894406789
 20
62.8254153182
 11
156.9248973853
 21
62.8488889903
  0
LINE
  5
233
100
AcDbEntity
  8
0
100
AcDbLine
 62
253
  6
CONTINUOUS
 10
158.2152975449
 20
62.2812138758
 11
158.7688845838
 21
62.3199906382
  0
LINE
  5
234
100
AcDbEntity
  8
0
100
AcDbLine
 62
253
  6
CONTINUOUS
 10
156.2215459816
 20
62.8009093868
 11
156.5894406789
 21
62.8254153182
  0
LINE
  5
235
100
AcDbEntity
  8
0
100
AcDbLine
 62
253
  6
CONTINUOUS
 10
157.7063539829
 20
62.2478187789
 11
158.2152975449
 21
62.2812138758
  0
LINE
  5
236
100
AcDbEntity
  8
0
100
AcDbLine
 62
253
  6
CONTINUOUS
 10
155.9573612572
 20
62.7841121492
 11
156.2215459816
 21
62.8009093868
  0
LINE
  5
237
100
AcDbEntity
  8
0
100
AcDbLine
 62
253
  6
CONTINUOUS
 10
155.6775232898
 20
62.7670535662
 11
155.9573612572
 21
62.7841121492
  0
LINE
  5
238
100
AcDbEntity
  8
0
100
AcDbLine
 62
253
  6
CONTINUOUS
 10
157.2597736311
 20
62.2202955789
 11
157.7063539829
 21
62.2478187789
  0
LINE
  5
239
100
AcDbEntity
  8
0
100
AcDbLine
 62
253
  6
CONTINUOUS
 10
155.3814326247
 20
62.7498281959
 11
155.6775232898
 21
62.7670535662
  0
LINE
  5
23A
100
AcDbEntity
  8
0
100
AcDbLine
 62
253
  6
CONTINUOUS
 10
156.8445017008
 20
62.1961891086
 11
157.2597736311
 21
62.2202955789
  0
LINE
  5
23B
100
AcDbEntity
  8
0
100
AcDbLine
 62
253
  6
CONTINUOUS
 10
155.0684933907
 20
62.7325458832
 11
155.3814326247
 21
62.7498281959
  0
LINE
  5
23C
100
AcDbEntity
  8
0
100
AcDbLine
 62
253
  6
CONTINUOUS
 10
156.4965779664
 20
62.1770943019
 11
156.8445017008
 21
62.1961891086
  0
LINE
  5
23D
100
AcDbEntity
  8
0
100
AcDbLine
 62
253
  6
CONTINUOUS
 10
155.9869944931
 20
61.6368708142
 11
156.0302419388
 21
61.6391526507
  0
LINE
  5
23E
100
AcDbEntity
  8
0
100
AcDbLine
 62
253
  6
CONTINUOUS
 10
154.7383024262
 20
62.715345193
 11
155.0684933907
 21
62.7325458832
  0
LINE
  5
23F
100
AcDbEntity
  8
0
100
AcDbLine
 62
253
  6
CONTINUOUS
 10
156.1155111383
 20
62.1573329005
 11
156.4965779664
 21
62.1770943019
  0
LINE
  5
240
100
AcDbEntity
  8
0
100
AcDbLine
 62
253
  6
CONTINUOUS
 10
155.8422150582
 20
62.1439016694
 11
156.1155111383
 21
62.1573329005
  0
LINE
  5
241
100
AcDbEntity
  8
0
100
AcDbLine
 62
253
  6
CONTINUOUS
 10
155.5528143425
 20
62.1303531594
 11
155.8422150582
 21
62.1439016694
  0
LINE
  5
242
100
AcDbEntity
  8
0
100
AcDbLine
 62
253
  6
CONTINUOUS
 10
155.2469100118
 20
62.1167858711
 11
155.5528143425
 21
62.1303531594
  0
LINE
  5
243
100
AcDbEntity
  8
0
100
AcDbLine
 62
253
  6
CONTINUOUS
 10
154.9239073805
 20
62.103300347
 11
155.2469100118
 21
62.1167858711
  0
LINE
  5
244
100
AcDbEntity
  8
0
100
AcDbLine
 62
253
  6
CONTINUOUS
 10
154.5832218561
 20
62.0900105054
 11
154.9239073805
 21
62.103300347
  0
LINE
  5
245
100
AcDbEntity
  8
0
100
AcDbLine
 62
253
  6
CONTINUOUS
 10
154.2244002916
 20
62.0770498666
 11
154.5832218561
 21
62.0900105054
  0
LINE
  5
246
100
AcDbEntity
  8
0
100
AcDbLine
 62
7
  6
CONTINUOUS
 10
156.0884929602
 20
61.7852879458
 11
156.12826304
 21
61.7866751443
  0
LINE
  5
247
100
AcDbEntity
  8
0
100
AcDbLine
 62
253
  6
CONTINUOUS
 10
144.6330562608
 20
61.6429759203
 11
145.8109953201
 21
61.6723266699
  0
LINE
  5
248
100
AcDbEntity
  8
0
100
AcDbLine
 62
253
  6
CONTINUOUS
 10
145.8109953201
 20
61.6723266699
 11
146.2334754195
 21
61.682350213
  0
LINE
  5
249
100
AcDbEntity
  8
0
100
AcDbLine
 62
7
  6
CONTINUOUS
 10
144.5072719038
 20
61.7926930378
 11
145.7127070674
 21
61.8219337092
  0
LINE
  5
24A
100
AcDbEntity
  8
0
100
AcDbLine
 62
7
  6
CONTINUOUS
 10
145.7127070674
 20
61.8219337092
 11
146.145335164
 21
61.8318957161
  0
LWPOLYLINE
  5
24B
100
AcDbEntity
  8
0
100
AcDbPolyline
 62
253
  6
CONTINUOUS
 90
26
 70
0
 10
146.2334754195
 20
61.682350213
 10
146.686800391
 20
61.692177828
 10
146.9236755515
 20
61.6969520423
 10
147.1669220083
 20
61.7014861847
 10
147.4160301713
 20
61.7057721809
 10
147.6704555678
 20
61.7098181051
 10
147.9298523122
 20
61.7134985054
 10
148.1937051788
 20
61.7168026125
 10
148.4614336679
 20
61.7197411958
 10
148.7325947213
 20
61.7222211112
 10
149.0066860413
 20
61.7242285382
 10
149.2830669102
 20
61.7257772973
 10
149.561077232
 20
61.7268157067
 10
149.840194729
 20
61.7273265787
 10
150.1197574743
 20
61.727327101
 10
150.3988887934
 20
61.7268171549
 10
150.6769327312
 20
61.7257794628
 10
150.9533604622
 20
61.7242313023
 10
151.2274932163
 20
61.7222243873
 10
151.4986838713
 20
61.7197448868
 10
151.7664365664
 20
61.7168066318
 10
152.0303092576
 20
61.7135028299
 10
152.2897229837
 20
61.7098226972
 10
152.5441611945
 20
61.7057770175
 10
152.7932749794
 20
61.7014913505
 10
153.0365204494
 20
61.6969576337
  0
LINE
  5
24C
100
AcDbEntity
  8
0
100
AcDbLine
 62
7
  6
CONTINUOUS
 10
146.145335164
 20
61.8318957161
 11
146.6089655065
 21
61.8417180312
  0
LWPOLYLINE
  5
24D
100
AcDbEntity
  8
0
100
AcDbPolyline
 62
7
  6
CONTINUOUS
 90
23
 70
0
 10
146.6089655065
 20
61.8417180312
 10
147.100569243
 20
61.8509713787
 10
147.3553764189
 20
61.8552546597
 10
147.6161681825
 20
61.8592616713
 10
147.8814853004
 20
61.8629349454
 10
148.1513815308
 20
61.8662375891
 10
148.4258094049
 20
61.869149167
 10
148.7031597734
 20
61.8716225215
 10
148.9835284767
 20
61.8736298026
 10
149.2668305501
 20
61.8751649189
 10
149.5511870847
 20
61.8761987818
 10
149.8366861397
 20
61.876711091
 10
150.1232532183
 20
61.8767116411
 10
150.4087661387
 20
61.8762002257
 10
150.6931568629
 20
61.8751669742
 10
150.9765069975
 20
61.8736324695
 10
151.2569182693
 20
61.871625789
 10
151.5342988784
 20
61.8691528655
 10
151.8087515033
 20
61.8662415871
 10
152.0786681378
 20
61.8629392594
 10
152.3440024845
 20
61.8592662429
 10
152.604807131
 20
61.8552594352
 10
152.859620471
 20
61.8509765323
  0
LWPOLYLINE
  5
24E
100
AcDbEntity
  8
0
100
AcDbPolyline
 62
253
  6
CONTINUOUS
 90
21
 70
0
 10
149.9802419388
 20
62.5873114195
 10
150.27440467
 20
62.5886592299
 10
150.5606380881
 20
62.5908059067
 10
150.8389406334
 20
62.5936827772
 10
151.1089847329
 20
62.5972186188
 10
151.3710964121
 20
62.6013511159
 10
151.6262549568
 20
62.6060355686
 10
151.8745333064
 20
62.6112196468
 10
152.1158587887
 20
62.6168498289
 10
152.3509922369
 20
62.6228952097
 10
152.5800165481
 20
62.6293138059
 10
152.8028502495
 20
62.6360606114
 10
153.0200075
 20
62.6431110023
 10
153.2314934587
 20
62.6504275107
 10
153.4373051997
 20
62.657973529
 10
153.6379445789
 20
62.6657338151
 10
153.8334290872
 20
62.6736772822
 10
154.0237438867
 20
62.6817725702
 10
154.2093420745
 20
62.6900110269
 10
154.3902929499
 20
62.6983689815
 10
154.7383024262
 20
62.715345193
  0
LWPOLYLINE
  5
24F
100
AcDbEntity
  8
0
100
AcDbPolyline
 62
253
  6
CONTINUOUS
 90
18
 70
0
 10
149.9802362991
 20
62.0042042736
 10
150.2745433358
 20
62.0044742956
 10
150.5611416954
 20
62.0054231091
 10
150.8400299689
 20
62.0069953163
 10
151.1109595837
 20
62.0091338991
 10
151.3741770367
 20
62.0117884544
 10
151.6304238048
 20
62.0149206403
 10
151.8796914692
 20
62.0184857497
 10
152.121987424
 20
62.0224401346
 10
152.3580769678
 20
62.026758422
 10
152.5880425295
 20
62.0314057922
 10
152.8118013365
 20
62.0363449018
 10
153.0298709081
 20
62.0415555988
 10
153.2422554348
 20
62.0470070215
 10
153.4489508702
 20
62.0526686825
 10
153.6504623625
 20
62.0585277318
 10
153.8468064982
 20
62.0645586112
 10
154.2244002916
 20
62.0770498666
  0
LINE
  5
250
100
AcDbEntity
  8
0
100
AcDbLine
 62
253
  6
CONTINUOUS
 10
144.5618208861
 20
60.1257175398
 11
155.3986629914
 21
60.1257175398
  0
LINE
  5
251
100
AcDbEntity
  8
0
100
AcDbLine
 62
253
  6
CONTINUOUS
 10
156.0302419388
 20
60.9077880923
 11
143.9302419388
 21
60.9077880923
  0
LWPOLYLINE
  5
252
100
AcDbEntity
  8
0
100
AcDbPolyline
 62
7
  6
CONTINUOUS
 90
5
 70
0
 10
155.8008494726
 20
61.7860330604
 10
155.8920701969
 20
61.7849144547
 10
155.9704736475
 20
61.7844150709
 10
156.0358955141
 20
61.7845389896
 10
156.0884929602
 20
61.7852879458
  0
LWPOLYLINE
  5
253
100
AcDbEntity
  8
0
100
AcDbPolyline
 62
7
  6
CONTINUOUS
 90
7
 70
0
 10
143.8719451124
 20
61.7852892749
 10
143.9244972517
 20
61.7845399906
 10
143.9898744561
 20
61.7844146971
 10
144.0682312609
 20
61.7849125098
 10
144.1594060528
 20
61.7860297563
 10
144.2629194103
 20
61.7877216032
 10
144.5072719038
 20
61.7926930378
  0
LWPOLYLINE
  5
254
100
AcDbEntity
  8
0
100
AcDbPolyline
 62
253
  6
CONTINUOUS
 90
7
 70
0
 10
155.5657646644
 20
61.637956246
 10
155.6670853185
 20
61.6362742536
 10
155.756168603
 20
61.635134735
 10
155.8327161681
 20
61.634616728
 10
155.8966615909
 20
61.6347465785
 10
155.9480760009
 20
61.6354979405
 10
155.9869944931
 20
61.6368708142
  0
LINE
  5
255
100
AcDbEntity
  8
0
100
AcDbLine
 62
7
  6
CONTINUOUS
 10
155.5812624728
 20
61.789953446
 11
155.8008494726
 21
61.7860330604
  0
LINE
  5
256
100
AcDbEntity
  8
0
100
AcDbLine
 62
7
  6
CONTINUOUS
 10
152.859620471
 20
61.8509765323
 11
153.3512152756
 21
61.8417240394
  0
LINE
  5
257
100
AcDbEntity
  8
0
100
AcDbLine
 62
253
  6
CONTINUOUS
 10
153.0365204494
 20
61.6969576337
 11
153.5035705249
 21
61.6873199843
  0
LINE
  5
258
100
AcDbEntity
  8
0
100
AcDbLine
 62
7
  6
CONTINUOUS
 10
153.3512152756
 20
61.8417240394
 11
153.8147998478
 21
61.831903716
  0
LINE
  5
259
100
AcDbEntity
  8
0
100
AcDbLine
 62
253
  6
CONTINUOUS
 10
155.3271298304
 20
61.6429826305
 11
155.5657646644
 21
61.637956246
  0
LINE
  5
25A
100
AcDbEntity
  8
0
100
AcDbLine
 62
7
  6
CONTINUOUS
 10
155.3132164098
 20
61.795903834
 11
155.5812624728
 21
61.789953446
  0
LINE
  5
25B
100
AcDbEntity
  8
0
100
AcDbLine
 62
7
  6
CONTINUOUS
 10
153.8147998478
 20
61.831903716
 11
154.247367203
 21
61.8219434557
  0
LINE
  5
25C
100
AcDbEntity
  8
0
100
AcDbLine
 62
253
  6
CONTINUOUS
 10
153.5035705249
 20
61.6873199843
 11
153.9420491993
 21
61.6773058097
  0
LINE
  5
25D
100
AcDbEntity
  8
0
100
AcDbLine
 62
253
  6
CONTINUOUS
 10
155.042841282
 20
61.6497917186
 11
155.3271298304
 21
61.6429826305
  0
LWPOLYLINE
  5
25E
100
AcDbEntity
  8
0
100
AcDbPolyline
 62
253
  6
CONTINUOUS
 90
3
 70
0
 10
153.9420491993
 20
61.6773058097
 10
154.3473432794
 20
61.6674494134
 10
155.042841282
 20
61.6497917186
  0
LWPOLYLINE
  5
25F
100
AcDbEntity
  8
0
100
AcDbPolyline
 62
7
  6
CONTINUOUS
 90
3
 70
0
 10
154.247367203
 20
61.8219434557
 10
154.827149552
 20
61.807768184
 10
155.3132164098
 20
61.795903834
  0
LWPOLYLINE
  5
260
100
AcDbEntity
  8
0
100
AcDbPolyline
 62
253
  6
CONTINUOUS
 90
15
 70
0
 10
146.6113872939
 20
62.0498894328
 10
146.8122335335
 20
62.0445483788
 10
147.0185889757
 20
62.0394063718
 10
147.2304468219
 20
62.0344921611
 10
147.4478139971
 20
62.0298347097
 10
147.6711893961
 20
62.0254530297
 10
147.9004857988
 20
62.0213823542
 10
148.1357901049
 20
62.0176552751
 10
148.3778623686
 20
62.014295409
 10
148.6267214013
 20
62.0113437809
 10
148.8823474519
 20
62.0088427152
 10
149.145442638
 20
62.0068284926
 10
149.4162403906
 20
62.0053485434
 10
149.6945053745
 20
62.0044564392
 10
149.9802362991
 20
62.0042042736
  0
LINE
  5
261
100
AcDbEntity
  8
0
100
AcDbLine
 62
253
  6
CONTINUOUS
 10
146.2247810125
 20
62.06110702
 11
146.6113872939
 21
62.0498894328
  0
LINE
  5
262
100
AcDbEntity
  8
0
100
AcDbLine
 62
253
  6
CONTINUOUS
 10
145.8578313072
 20
62.0728937607
 11
146.2247810125
 21
62.06110702
  0
LINE
  5
263
100
AcDbEntity
  8
0
100
AcDbLine
 62
7
  6
CONTINUOUS
 10
143.8322209487
 20
61.7866751386
 11
143.8719451124
 21
61.7852892749
  0
LWPOLYLINE
  5
264
100
AcDbEntity
  8
0
100
AcDbPolyline
 62
253
  6
CONTINUOUS
 90
8
 70
0
 10
143.9734893845
 20
61.6368708142
 10
144.0123724203
 20
61.6354982581
 10
144.0637407088
 20
61.6347467677
 10
144.1276350289
 20
61.6346163431
 10
144.2041338691
 20
61.6351331178
 10
144.2931752596
 20
61.6362709583
 10
144.3944598765
 20
61.6379514636
 10
144.6330562608
 20
61.6429759203
  0
LINE
  5
265
100
AcDbEntity
  8
0
100
AcDbLine
 62
253
  6
CONTINUOUS
 10
145.5090428806
 20
62.0851270573
 11
145.8578313072
 21
62.0728937607
  0
LINE
  5
266
100
AcDbEntity
  8
0
100
AcDbLine
 62
253
  6
CONTINUOUS
 10
145.1776799074
 20
62.0976797786
 11
145.5090428806
 21
62.0851270573
  0
LINE
  5
267
100
AcDbEntity
  8
0
100
AcDbLine
 62
253
  6
CONTINUOUS
 10
144.8632777616
 20
62.1104283562
 11
145.1776799074
 21
62.0976797786
  0
LWPOLYLINE
  5
268
100
AcDbEntity
  8
0
100
AcDbPolyline
 62
253
  6
CONTINUOUS
 90
18
 70
0
 10
146.05272685
 20
62.6767963382
 10
146.2376708755
 20
62.6691360983
 10
146.4276317517
 20
62.6616194611
 10
146.6226045325
 20
62.6542756648
 10
146.8225966143
 20
62.6471343868
 10
147.0280832009
 20
62.6402103085
 10
147.2390585359
 20
62.6335379559
 10
147.4555304332
 20
62.6271524726
 10
147.6779946124
 20
62.6210769944
 10
147.9063651151
 20
62.6153540179
 10
148.1407292241
 20
62.6100227998
 10
148.381842644
 20
62.6051119046
 10
148.6296436256
 20
62.6006716549
 10
148.8841942118
 20
62.5967515595
 10
149.1464358419
 20
62.5933937059
 10
149.4166819826
 20
62.5906567449
 10
149.6946178133
 20
62.5886077608
 10
149.9802419388
 20
62.5873114195
  0
LINE
  5
269
100
AcDbEntity
  8
0
100
AcDbLine
 62
253
  6
CONTINUOUS
 10
144.5653018629
 20
62.1232652275
 11
144.8632777616
 21
62.1104283562
  0
LINE
  5
26A
100
AcDbEntity
  8
0
100
AcDbLine
 62
253
  6
CONTINUOUS
 10
145.6964578919
 20
62.6925029831
 11
146.05272685
 21
62.6767963382
  0
LINE
  5
26B
100
AcDbEntity
  8
0
100
AcDbLine
 62
253
  6
CONTINUOUS
 10
144.1480307991
 20
62.1424762249
 11
144.5653018629
 21
62.1232652275
  0
LINE
  5
26C
100
AcDbEntity
  8
0
100
AcDbLine
 62
253
  6
CONTINUOUS
 10
145.3580870695
 20
62.7085745004
 11
145.6964578919
 21
62.6925029831
  0
LINE
  5
26D
100
AcDbEntity
  8
0
100
AcDbLine
 62
253
  6
CONTINUOUS
 10
143.7649580977
 20
62.1613823916
 11
144.1480307991
 21
62.1424762249
  0
LINE
  5
26E
100
AcDbEntity
  8
0
100
AcDbLine
 62
253
  6
CONTINUOUS
 10
145.0367886452
 20
62.7248718892
 11
145.3580870695
 21
62.7085745004
  0
LINE
  5
26F
100
AcDbEntity
  8
0
100
AcDbLine
 62
253
  6
CONTINUOUS
 10
143.9302419388
 20
61.6391526507
 11
143.9734893845
 21
61.6368708142
  0
LINE
  5
270
100
AcDbEntity
  8
0
100
AcDbLine
 62
253
  6
CONTINUOUS
 10
143.41441885
 20
62.1797489597
 11
143.7649580977
 21
62.1613823916
  0
LINE
  5
271
100
AcDbEntity
  8
0
100
AcDbLine
 62
253
  6
CONTINUOUS
 10
144.7320589136
 20
62.7412596283
 11
145.0367886452
 21
62.7248718892
  0
LINE
  5
272
100
AcDbEntity
  8
0
100
AcDbLine
 62
253
  6
CONTINUOUS
 10
142.9937159656
 20
62.2031379207
 11
143.41441885
 21
62.1797489597
  0
LINE
  5
273
100
AcDbEntity
  8
0
100
AcDbLine
 62
253
  6
CONTINUOUS
 10
144.4435218471
 20
62.7576072769
 11
144.7320589136
 21
62.7412596283
  0
LINE
  5
274
100
AcDbEntity
  8
0
100
AcDbLine
 62
253
  6
CONTINUOUS
 10
144.1706229896
 20
62.7738106508
 11
144.4435218471
 21
62.7576072769
  0
LINE
  5
275
100
AcDbEntity
  8
0
100
AcDbLine
 62
253
  6
CONTINUOUS
 10
142.5339146082
 20
62.2303811402
 11
142.9937159656
 21
62.2031379207
  0
LINE
  5
276
100
AcDbEntity
  8
0
100
AcDbLine
 62
253
  6
CONTINUOUS
 10
143.7894949041
 20
62.7976425653
 11
144.1706229896
 21
62.7738106508
  0
LINE
  5
277
100
AcDbEntity
  8
0
100
AcDbLine
 62
253
  6
CONTINUOUS
 10
141.9922600589
 20
62.2647313508
 11
142.5339146082
 21
62.2303811402
  0
LINE
  5
278
100
AcDbEntity
  8
0
100
AcDbLine
 62
253
  6
CONTINUOUS
 10
143.4407802476
 20
62.8206703686
 11
143.7894949041
 21
62.7976425653
  0
LINE
  5
279
100
AcDbEntity
  8
0
100
AcDbLine
 62
253
  6
CONTINUOUS
 10
141.4383904614
 20
62.3023893501
 11
141.9922600589
 21
62.2647313508
  0
LINE
  5
27A
100
AcDbEntity
  8
0
100
AcDbLine
 62
253
  6
CONTINUOUS
 10
143.0223149208
 20
62.8498397037
 11
143.4407802476
 21
62.8206703686
  0
LINE
  5
27B
100
AcDbEntity
  8
0
100
AcDbLine
 62
253
  6
CONTINUOUS
 10
140.8672272822
 20
62.3438934468
 11
141.4383904614
 21
62.3023893501
  0
LINE
  5
27C
100
AcDbEntity
  8
0
100
AcDbLine
 62
253
  6
CONTINUOUS
 10
142.5650224851
 20
62.8836168995
 11
143.0223149208
 21
62.8498397037
  0
LINE
  5
27D
100
AcDbEntity
  8
0
100
AcDbLine
 62
253
  6
CONTINUOUS
 10
140.3424933355
 20
62.3844493729
 11
140.8672272822
 21
62.3438934468
  0
LINE
  5
27E
100
AcDbEntity
  8
0
100
AcDbLine
 62
253
  6
CONTINUOUS
 10
142.0265190502
 20
62.9259027873
 11
142.5650224851
 21
62.8836168995
  0
LINE
  5
27F
100
AcDbEntity
  8
0
100
AcDbLine
 62
253
  6
CONTINUOUS
 10
139.9496880649
 20
62.4161312032
 11
140.3424933355
 21
62.3844493729
  0
LINE
  5
280
100
AcDbEntity
  8
0
100
AcDbLine
 62
253
  6
CONTINUOUS
 10
141.5304192318
 20
62.967279403
 11
142.0265190502
 21
62.9259027873
  0
LINE
  5
281
100
AcDbEntity
  8
0
100
AcDbLine
 62
253
  6
CONTINUOUS
 10
140.9958972866
 20
63.0144614896
 11
141.5304192318
 21
62.967279403
  0
LINE
  5
282
100
AcDbEntity
  8
0
100
AcDbLine
 62
253
  6
CONTINUOUS
 10
140.56133571
 20
63.0545711468
 11
140.9958972866
 21
63.0144614896
  0
LINE
  5
283
100
AcDbEntity
  8
0
100
AcDbLine
 62
253
  6
CONTINUOUS
 10
140.2989948932
 20
63.080012672
 11
140.56133571
 21
63.0545711468
  0
LINE
  5
284
100
AcDbEntity
  8
0
100
AcDbLine
 62
253
  6
CONTINUOUS
 10
140.2102962162
 20
63.0890128993
 11
140.2989948932
 21
63.080012672
  0
LINE
  5
285
100
AcDbEntity
  8
0
100
AcDbLine
 62
253
  6
CONTINUOUS
 10
140.0758915445
 20
63.1033835047
 11
140.2102962162
 21
63.0890128993
  0
LINE
  5
286
100
AcDbEntity
  8
0
100
AcDbLine
 62
253
  6
CONTINUOUS
 10
139.9855089765
 20
63.1135995032
 11
140.0758915445
 21
63.1033835047
  0
LWPOLYLINE
  5
287
100
AcDbEntity
  8
0
100
AcDbPolyline
 62
253
  6
CONTINUOUS
 90
13
 70
0
 10
143.8322466415
 20
61.7866740577
 10
143.8509728741
 20
61.7845104783
 10
143.8692759967
 20
61.7799815106
 10
143.8868627677
 20
61.773159715
 10
143.9034514229
 20
61.764154386
 10
143.9187761891
 20
61.7531098016
 10
143.9325915423
 20
61.7402029111
 10
143.9446761416
 20
61.7256405008
 10
143.9548363749
 20
61.7096558807
 10
143.9629094612
 20
61.6925051464
 10
143.9687660587
 20
61.6744630764
 10
143.9723123364
 20
61.6558187296
 10
143.9734914781
 20
61.6368708142
  0
LWPOLYLINE
  5
288
100
AcDbEntity
  8
0
100
AcDbPolyline
 62
253
  6
CONTINUOUS
 90
97
 70
0
 10
149.9802419388
 20
70.7744396539
 10
150.1571977947
 20
70.775883011
 10
150.334231579
 20
70.7794041192
 10
150.5113181835
 20
70.7850038298
 10
150.688441163
 20
70.7926830952
 10
150.8655664809
 20
70.8024428342
 10
151.0426425398
 20
70.814282908
 10
151.219649771
 20
70.8282032745
 10
151.396556862
 20
70.8442038661
 10
151.573294621
 20
70.8622820295
 10
151.7498279028
 20
70.8824348045
 10
151.9261409124
 20
70.9046615407
 10
152.1021935355
 20
70.9289609795
 10
152.2779439088
 20
70.9553284975
 10
152.453382887
 20
70.9837638485
 10
152.6285191599
 20
71.0142730043
 10
152.8033012593
 20
71.0468495992
 10
152.9777290726
 20
71.0814971847
 10
153.1518877094
 20
71.118239649
 10
153.3258055642
 20
71.1570860858
 10
153.4994029584
 20
71.1980238514
 10
153.6726029201
 20
71.2410434009
 10
153.8453219295
 20
71.2861245998
 10
154.0175928796
 20
71.3332771818
 10
154.189512197
 20
71.3825387654
 10
154.3611374743
 20
71.4339352216
 10
154.5323559317
 20
71.4874417871
 10
154.7030081559
 20
71.5430195774
 10
154.8732661308
 20
71.6007319147
 10
155.0429035877
 20
71.6605094027
 10
155.2111742793
 20
71.7220837085
 10
155.3776860048
 20
71.7852791238
 10
155.5428017462
 20
71.8502012263
 10
155.706912133
 20
71.9169926067
 10
155.869775114
 20
71.9855301936
 10
156.0315952352
 20
72.055896227
 10
156.1934098042
 20
72.1285919433
 10
156.355603948
 20
72.203827728
 10
156.5177140893
 20
72.2814343199
 10
156.6794883868
 20
72.3613714854
 10
156.8410039281
 20
72.4437193584
 10
157.002109579
 20
72.5284135044
 10
157.1622235199
 20
72.6151688255
 10
157.3211960335
 20
72.7038993221
 10
157.4791258908
 20
72.7946607503
 10
157.6358178192
 20
72.8873547899
 10
157.7913116172
 20
72.9819964721
 10
157.9455213704
 20
73.0785320296
 10
158.0980743759
 20
73.1767410362
 10
158.2489876965
 20
73.2766252931
 10
158.3982158756
 20
73.3781183809
 10
158.5453138246
 20
73.480868413
 10
158.6897848421
 20
73.5844861345
 10
158.8321397718
 20
73.6892501559
 10
158.9734325958
 20
73.7958314718
 10
159.113866555
 20
73.9043676764
 10
159.2531904927
 20
74.0147022757
 10
159.3917406135
 20
74.1271136514
 10
159.5298855421
 20
74.2419364863
 10
159.6671831724
 20
74.3588436619
 10
159.8027685023
 20
74.4771040049
 10
159.9363039359
 20
74.5963910437
 10
160.0681191937
 20
74.7169649173
 10
160.1983708596
 20
74.838951765
 10
160.3271022742
 20
74.9623833121
 10
160.4542450958
 20
75.0871824243
 10
160.5797835955
 20
75.213317541
 10
160.7036905671
 20
75.3407483227
 10
160.8259736796
 20
75.4694638918
 10
160.9466685577
 20
75.599478495
 10
161.0658059421
 20
75.7308131457
 10
161.1833339117
 20
75.8633970711
 10
161.2991660028
 20
75.9971062155
 10
161.4133198146
 20
76.1319393457
 10
161.5257645023
 20
76.267843855
 10
161.6363509254
 20
76.4046125261
 10
161.7450917777
 20
76.5422256966
 10
161.8519826309
 20
76.6806505439
 10
161.9568644299
 20
76.81965333
 10
162.0596547213
 20
76.9590766563
 10
162.1604636224
 20
77.0990158314
 10
162.2594227704
 20
77.2396151292
 10
162.3564533237
 20
77.3807553113
 10
162.4516513709
 20
77.5225029263
 10
162.5453875236
 20
77.6652929508
 10
162.6376042991
 20
77.8090650712
 10
162.7283360017
 20
77.9538316978
 10
162.8180494066
 20
78.1001616847
 10
162.907262159
 20
78.2489790374
 10
162.9953636609
 20
78.3993580381
 10
163.0811717823
 20
78.5490783415
 10
163.1650559295
 20
78.6985115
 10
163.24669565
 20
78.8472241666
 10
163.3240682655
 20
78.9917022264
 10
163.3966553858
 20
79.1306934485
 10
163.4653061292
 20
79.2652793999
 10
163.5301642654
 20
79.395387203
  0
LWPOLYLINE
  5
289
100
AcDbEntity
  8
0
100
AcDbPolyline
 62
253
  6
CONTINUOUS
 90
97
 70
0
 10
149.9802419388
 20
69.8207268494
 10
150.1692228268
 20
69.8213943474
 10
150.3582969645
 20
69.8244129791
 10
150.5474311699
 20
69.829784563
 10
150.7365971204
 20
69.8375137738
 10
150.9257563938
 20
69.8476005442
 10
151.1148607437
 20
69.8600394936
 10
151.303883283
 20
69.8748354038
 10
151.4927839584
 20
69.8919887957
 10
151.6814953659
 20
69.9114865966
 10
151.869975285
 20
69.9333311478
 10
152.0581993752
 20
69.957524287
 10
152.2461279771
 20
69.9840510206
 10
152.4337127422
 20
70.0129102067
 10
152.6209365071
 20
70.0441041037
 10
152.8078070362
 20
70.0776239875
 10
152.9942654967
 20
70.1134679311
 10
153.1803053268
 20
70.151639153
 10
153.3660125336
 20
70.1921418495
 10
153.5514079197
 20
70.2349965661
 10
153.7364031467
 20
70.2801943894
 10
153.9209213956
 20
70.327697316
 10
154.1048699551
 20
70.3774924881
 10
154.2882761282
 20
70.4295987543
 10
154.4712438349
 20
70.4840280387
 10
154.6538267101
 20
70.5408132331
 10
154.8359032402
 20
70.5999362334
 10
155.0173162526
 20
70.6613317003
 10
155.1982513573
 20
70.7250780249
 10
155.3784578268
 20
70.7911000596
 10
155.5571381655
 20
70.8590695493
 10
155.7338614816
 20
70.9287945285
 10
155.9090239235
 20
71.0004087696
 10
156.0830748219
 20
71.0740615098
 10
156.2557223051
 20
71.1497746946
 10
156.4272093278
 20
71.2274696276
 10
156.5987757436
 20
71.3072588173
 10
156.7708227569
 20
71.3896971468
 10
156.9427612211
 20
71.475122559
 10
157.1143735856
 20
71.5629871862
 10
157.2857325446
 20
71.6530925373
 10
157.4566414627
 20
71.7455536537
 10
157.6265199814
 20
71.8401025387
 10
157.7951585811
 20
71.9366306547
 10
157.9626586221
 20
72.0351757122
 10
158.128917341
 20
72.1356649205
 10
158.2939388978
 20
72.238131537
 10
158.4576011659
 20
72.3424913459
 10
158.6196188933
 20
72.4484883206
 10
158.7800724861
 20
72.5561067362
 10
158.9387516416
 20
72.6653114749
 10
159.0949649613
 20
72.7757730777
 10
159.2483579659
 20
72.8868960962
 10
159.3995309907
 20
72.998984529
 10
159.5493630682
 20
73.1129727559
 10
159.6979060192
 20
73.2290554909
 10
159.845113168
 20
73.3469797784
 10
159.991401746
 20
73.4671913381
 10
160.1372097887
 20
73.5900993754
 10
160.282026274
 20
73.715307881
 10
160.4248832182
 20
73.8420192567
 10
160.5654121428
 20
73.9698646497
 10
160.7039749528
 20
74.0991311028
 10
160.840718438
 20
74.2299747626
 10
160.9757001096
 20
74.3624252578
 10
161.1088433478
 20
74.4963916117
 10
161.240091893
 20
74.6318505617
 10
161.3694208678
 20
74.768751661
 10
161.4968400526
 20
74.9070787333
 10
161.6223452502
 20
75.0468571344
 10
161.7459715982
 20
75.1880984942
 10
161.8676669266
 20
75.3307267423
 10
161.9873007954
 20
75.4746287061
 10
162.1048942138
 20
75.6197830614
 10
162.2204249365
 20
75.7661321834
 10
162.3337107063
 20
75.913493382
 10
162.4447678394
 20
76.0618237421
 10
162.5535941308
 20
76.2110736853
 10
162.6599944312
 20
76.3610337334
 10
162.7638945627
 20
76.5115151237
 10
162.86540264
 20
76.6625984611
 10
162.9645995079
 20
76.8144709083
 10
163.0614371178
 20
76.966996492
 10
163.1559864052
 20
77.1202107173
 10
163.2484875097
 20
77.2745660203
 10
163.3388998879
 20
77.4299594453
 10
163.4272626636
 20
77.5864083084
 10
163.5139018862
 20
77.7445618408
 10
163.5992999951
 20
77.9053573327
 10
163.6829086938
 20
78.0678045464
 10
163.7635587567
 20
78.2296317444
 10
163.8415125764
 20
78.3911646458
 10
163.9165962662
 20
78.5519449085
 10
163.9871674287
 20
78.7084323102
 10
164.0528279557
 20
78.8593491927
 10
164.1143022671
 20
79.0057426709
 10
164.1717349775
 20
79.147514925
  0
LWPOLYLINE
  5
28A
100
AcDbEntity
  8
0
100
AcDbPolyline
 62
253
  6
CONTINUOUS
 90
9
 70
0
 10
163.7008650556
 20
64.833033493
 10
163.6897521007
 20
64.8367952854
 10
163.6734160104
 20
64.8433891619
 10
163.6519555905
 20
64.8527752408
 10
163.6255006403
 20
64.8648967521
 10
163.5942111675
 20
64.8796803808
 10
163.5582764207
 20
64.897036711
 10
163.5179137444
 20
64.916860766
 10
163.4733672647
 20
64.9390326436
  0
LINE
  5
28B
100
AcDbEntity
  8
0
100
AcDbLine
 62
253
  6
CONTINUOUS
 10
163.4733672647
 20
64.9390326436
 11
163.3728242944
 21
64.9898700673
  0
LINE
  5
28C
100
AcDbEntity
  8
0
100
AcDbLine
 62
253
  6
CONTINUOUS
 10
163.3728242944
 20
64.9898700673
 11
163.259076293
 21
65.0483209185
  0
LWPOLYLINE
  5
28D
100
AcDbEntity
  8
0
100
AcDbPolyline
 62
253
  6
CONTINUOUS
 90
3
 70
0
 10
163.259076293
 20
65.0483209185
 10
163.1348710331
 20
65.1129732186
 10
163.0697766316
 20
65.1471416951
  0
LINE
  5
28E
100
AcDbEntity
  8
0
100
AcDbLine
 62
253
  6
CONTINUOUS
 10
132.3743690411
 20
76.2926537134
 11
132.5321484698
 21
76.3365990107
  0
LINE
  5
28F
100
AcDbEntity
  8
0
100
AcDbLine
 62
7
  6
CONTINUOUS
 10
149.3864259388
 20
81.2229623112
 11
150.5686719388
 21
81.2229623112
  0
LINE
  5
290
100
AcDbEntity
  8
0
100
AcDbLine
 62
7
  6
CONTINUOUS
 10
150.5686719388
 20
81.6396273112
 11
150.1994169388
 21
81.6396273112
  0
LINE
  5
291
100
AcDbEntity
  8
0
100
AcDbLine
 62
7
  6
CONTINUOUS
 10
149.7555379388
 20
81.6396273112
 11
149.3864259388
 21
81.6396273112
  0
LINE
  5
292
100
AcDbEntity
  8
0
100
AcDbLine
 62
253
  6
CONTINUOUS
 10
167.5861148381
 20
76.2926537033
 11
167.4283354166
 21
76.3365990093
  0
LINE
  5
293
100
AcDbEntity
  8
0
100
AcDbLine
 62
253
  6
CONTINUOUS
 10
163.9231075124
 20
64.71309677
 11
164.0224210834
 21
64.6595118808
  0
LWPOLYLINE
  5
294
100
AcDbEntity
  8
0
100
AcDbPolyline
 62
253
  6
CONTINUOUS
 90
3
 70
0
 10
163.7009066251
 20
64.8331108678
 10
163.7683259062
 20
64.7966858895
 10
163.9231075124
 20
64.71309677
  0
LWPOLYLINE
  5
295
100
AcDbEntity
  8
0
100
AcDbPolyline
 62
253
  6
CONTINUOUS
 90
37
 70
0
 10
136.890707248
 20
65.1471416964
 10
136.9862810611
 20
64.989644732
 10
137.0847711579
 20
64.8416188481
 10
137.1855334364
 20
64.7029339147
 10
137.2879713036
 20
64.5736225518
 10
137.3914787972
 20
64.4532934654
 10
137.4954615572
 20
64.3411425036
 10
137.5993396056
 20
64.2369745913
 10
137.7027566644
 20
64.1405148161
 10
137.805560561
 20
64.0508571748
 10
137.9073419936
 20
63.9677708631
 10
138.0078268672
 20
63.8910222698
 10
138.1071746341
 20
63.8197663472
 10
138.2051614416
 20
63.7537409097
 10
138.3015176603
 20
63.6927943982
 10
138.3964173642
 20
63.6363175731
 10
138.4896954679
 20
63.5841035622
 10
138.5811613611
 20
63.5359997811
 10
138.6710087133
 20
63.4915367246
 10
138.759097141
 20
63.4505449902
 10
138.845312312
 20
63.4128852377
 10
138.9299266114
 20
63.3781767521
 10
139.012897413
 20
63.3462519513
 10
139.0940837807
 20
63.3170064009
 10
139.1736379326
 20
63.2901938949
 10
139.2515511262
 20
63.2656807273
 10
139.3276981406
 20
63.2433724121
 10
139.402071609
 20
63.2231024717
 10
139.4746210964
 20
63.2047844296
 10
139.5452956368
 20
63.1882966744
 10
139.6140973288
 20
63.1734403217
 10
139.6810148189
 20
63.1601408725
 10
139.7459876391
 20
63.1483354515
 10
139.8089525074
 20
63.1378629582
 10
139.8698715822
 20
63.1286208478
 10
139.9287313772
 20
63.1205651137
 10
139.9855089765
 20
63.1135995032
  0
LWPOLYLINE
  5
296
100
AcDbEntity
  8
0
100
AcDbPolyline
 62
253
  6
CONTINUOUS
 90
37
 70
0
 10
136.2595764665
 20
64.8331123309
 10
136.3685174455
 20
64.6413326181
 10
136.4823205291
 20
64.4612448296
 10
136.5998624973
 20
64.2926816393
 10
136.7199507341
 20
64.135585057
 10
136.84171396
 20
63.9894728534
 10
136.9646744015
 20
63.853504548
 10
137.0879768565
 20
63.7274003611
 10
137.2109284155
 20
63.610742413
 10
137.3335129343
 20
63.5025553987
 10
137.4551299868
 20
63.402519934
 10
137.5752740654
 20
63.3102610066
 10
137.6942646492
 20
63.2248423987
 10
137.8117816719
 20
63.1459140873
 10
137.9273849547
 20
63.0732260192
 10
138.041353333
 20
63.0061107267
 10
138.1534454416
 20
62.9442855763
 10
138.2633653491
 20
62.8875103558
 10
138.3713987159
 20
62.83527173
 10
138.4773424514
 20
62.787346646
 10
138.5810182916
 20
62.7435094048
 10
138.6828118036
 20
62.7033235642
 10
138.7826659197
 20
62.6665768314
 10
138.8803732576
 20
62.6331199474
 10
138.9761350943
 20
62.6026731678
 10
139.0699354434
 20
62.5750541134
 10
139.161598958
 20
62.5501333614
 10
139.2511091947
 20
62.5277381467
 10
139.3384191047
 20
62.5077141119
 10
139.4234326033
 20
62.4899219394
 10
139.5060715101
 20
62.4742183323
 10
139.5862613292
 20
62.4604655327
 10
139.6639720519
 20
62.448521685
 10
139.7392016305
 20
62.4382435401
 10
139.8119259148
 20
62.4294998729
 10
139.8820977259
 20
62.4221693138
 10
139.9496880655
 20
62.416131211
  0
LINE
  5
297
100
AcDbEntity
  8
0
100
AcDbLine
 62
253
  6
CONTINUOUS
 10
132.2264430444
 20
76.2508172391
 11
132.3743690411
 21
76.2926537134
  0
LINE
  5
298
100
AcDbEntity
  8
0
100
AcDbLine
 62
7
  6
CONTINUOUS
 10
149.4000329388
 20
84.5998253112
 11
149.7555379388
 21
84.5998253112
  0
LINE
  5
299
100
AcDbEntity
  8
0
100
AcDbLine
 62
7
  6
CONTINUOUS
 10
150.1994169388
 20
84.5998253112
 11
150.5550649388
 21
84.5998253112
  0
LINE
  5
29A
100
AcDbEntity
  8
0
100
AcDbLine
 62
7
  6
CONTINUOUS
 10
150.5550649388
 20
85.0187823112
 11
149.4000329388
 21
85.0187823112
  0
LINE
  5
29B
100
AcDbEntity
  8
0
100
AcDbLine
 62
253
  6
CONTINUOUS
 10
165.1802063381
 20
85.6290689093
 11
168.8762136999
 21
85.6291039002
  0
LINE
  5
29C
100
AcDbEntity
  8
0
100
AcDbLine
 62
253
  6
CONTINUOUS
 10
131.0842701905
 20
85.6291037112
 11
134.7802751475
 21
85.6290793112
  0
LINE
  5
29D
100
AcDbEntity
  8
0
100
AcDbLine
 62
253
  6
CONTINUOUS
 10
169.8672764978
 20
85.5482483111
 11
168.8762120298
 21
85.6290793112
  0
LWPOLYLINE
  5
29E
100
AcDbEntity
  8
0
100
AcDbPolyline
 62
253
  6
CONTINUOUS
 90
5
 70
0
 10
130.0932073797
 20
85.5482483111
 10
130.105256709
 20
85.5471257284
 10
130.1237373242
 20
85.5471632858
 10
130.1485271871
 20
85.5483508989
 10
130.1794443874
 20
85.5508898089
  0
LINE
  5
29F
100
AcDbEntity
  8
0
100
AcDbLine
 62
253
  6
CONTINUOUS
 10
167.7340408267
 20
76.2508172247
 11
167.5861148381
 21
76.2926537033
  0
LINE
  5
2A0
100
AcDbEntity
  8
0
100
AcDbLine
 62
253
  6
CONTINUOUS
 10
167.867839878
 20
76.2122982068
 11
167.7340408267
 21
76.2508172247
  0
LWPOLYLINE
  5
2A1
100
AcDbEntity
  8
0
100
AcDbPolyline
 62
253
  6
CONTINUOUS
 90
9
 70
0
 10
168.2047499329
 20
76.1065299379
 10
168.1928179541
 20
76.1115666197
 10
168.1740283785
 20
76.1184417109
 10
168.1485171574
 20
76.127105467
 10
168.1164688761
 20
76.1374952019
 10
168.0781154186
 20
76.1495357411
 10
168.0337342898
 20
76.1631399659
 10
167.9836466073
 20
76.1782094436
 10
167.867839878
 20
76.2122982068
  0
LINE
  5
2A2
100
AcDbEntity
  8
0
100
AcDbLine
 62
253
  6
CONTINUOUS
 10
136.7346472444
 20
65.4201536117
 11
136.890707248
 21
65.1471416964
  0
LWPOLYLINE
  5
2A3
100
AcDbEntity
  8
0
100
AcDbPolyline
 62
253
  6
CONTINUOUS
 90
3
 70
0
 10
136.6770363979
 20
65.5228792583
 10
136.696060327
 20
65.4887420638
 10
136.7346472444
 20
65.4201536117
  0
LWPOLYLINE
  5
2A4
100
AcDbEntity
  8
0
100
AcDbPolyline
 62
253
  6
CONTINUOUS
 90
4
 70
0
 10
136.6031866863
 20
65.6585489181
 10
136.6213338751
 20
65.62473508
 10
136.639699138
 20
65.5908905209
 10
136.6770363979
 20
65.5228792583
  0
LINE
  5
2A5
100
AcDbEntity
  8
0
100
AcDbLine
 62
253
  6
CONTINUOUS
 10
136.0815495212
 20
65.1671465408
 11
136.259576512
 21
64.8331123555
  0
LINE
  5
2A6
100
AcDbEntity
  8
0
100
AcDbLine
 62
253
  6
CONTINUOUS
 10
136.5675077641
 20
65.7260469004
 11
136.6031866863
 21
65.6585489181
  0
LINE
  5
2A7
100
AcDbEntity
  8
0
100
AcDbLine
 62
253
  6
CONTINUOUS
 10
135.9564699574
 20
65.4044576194
 11
136.0815495212
 21
65.1671465408
  0
LINE
  5
2A8
100
AcDbEntity
  8
0
100
AcDbLine
 62
253
  6
CONTINUOUS
 10
136.5323387952
 20
65.7934484557
 11
136.5675077641
 21
65.7260469004
  0
LINE
  5
2A9
100
AcDbEntity
  8
0
100
AcDbLine
 62
253
  6
CONTINUOUS
 10
135.8495004579
 20
65.6096886176
 11
135.9564699574
 21
65.4044576194
  0
LINE
  5
2AA
100
AcDbEntity
  8
0
100
AcDbLine
 62
253
  6
CONTINUOUS
 10
135.7436828216
 20
65.8149487524
 11
135.8495004579
 21
65.6096886176
  0
LINE
  5
2AB
100
AcDbEntity
  8
0
100
AcDbLine
 62
253
  6
CONTINUOUS
 10
136.3934727236
 20
66.062847098
 11
136.5323387952
 21
65.7934484557
  0
LINE
  5
2AC
100
AcDbEntity
  8
0
100
AcDbLine
 62
253
  6
CONTINUOUS
 10
135.638686628
 20
66.0208451736
 11
135.7436828216
 21
65.8149487524
  0
LINE
  5
2AD
100
AcDbEntity
  8
0
100
AcDbLine
 62
253
  6
CONTINUOUS
 10
136.2554823236
 20
66.3336669948
 11
136.3934727236
 21
66.062847098
  0
LINE
  5
2AE
100
AcDbEntity
  8
0
100
AcDbLine
 62
253
  6
CONTINUOUS
 10
135.5270515856
 20
66.242228822
 11
135.638686628
 21
66.0208451736
  0
LINE
  5
2AF
100
AcDbEntity
  8
0
100
AcDbLine
 62
253
  6
CONTINUOUS
 10
136.1248945445
 20
66.5929383138
 11
136.2554823236
 21
66.3336669948
  0
LINE
  5
2B0
100
AcDbEntity
  8
0
100
AcDbLine
 62
253
  6
CONTINUOUS
 10
135.41684087
 20
66.4633337565
 11
135.5270515856
 21
66.242228822
  0
LINE
  5
2B1
100
AcDbEntity
  8
0
100
AcDbLine
 62
253
  6
CONTINUOUS
 10
136.0362010243
 20
66.7712262955
 11
136.1248945445
 21
66.5929383138
  0
LINE
  5
2B2
100
AcDbEntity
  8
0
100
AcDbLine
 62
253
  6
CONTINUOUS
 10
135.3120214382
 20
66.6760417703
 11
135.41684087
 21
66.4633337565
  0
LINE
  5
2B3
100
AcDbEntity
  8
0
100
AcDbLine
 62
253
  6
CONTINUOUS
 10
135.9328126321
 20
66.9815301646
 11
136.0362010243
 21
66.7712262955
  0
LINE
  5
2B4
100
AcDbEntity
  8
0
100
AcDbLine
 62
253
  6
CONTINUOUS
 10
135.1916045937
 20
66.92340942
 11
135.3120214382
 21
66.6760417703
  0
LINE
  5
2B5
100
AcDbEntity
  8
0
100
AcDbLine
 62
253
  6
CONTINUOUS
 10
135.8453178904
 20
67.1616864076
 11
135.9328126321
 21
66.9815301646
  0
LINE
  5
2B6
100
AcDbEntity
  8
0
100
AcDbLine
 62
253
  6
CONTINUOUS
 10
135.0913404652
 20
67.1319106399
 11
135.1916045937
 21
66.92340942
  0
LINE
  5
2B7
100
AcDbEntity
  8
0
100
AcDbLine
 62
253
  6
CONTINUOUS
 10
135.7494764448
 20
67.3613116653
 11
135.8453178904
 21
67.1616864076
  0
LINE
  5
2B8
100
AcDbEntity
  8
0
100
AcDbLine
 62
253
  6
CONTINUOUS
 10
134.9830924961
 20
67.3596747477
 11
135.0913404652
 21
67.1319106399
  0
LINE
  5
2B9
100
AcDbEntity
  8
0
100
AcDbLine
 62
253
  6
CONTINUOUS
 10
135.6456468291
 20
67.5802223095
 11
135.7494764448
 21
67.3613116653
  0
LINE
  5
2BA
100
AcDbEntity
  8
0
100
AcDbLine
 62
253
  6
CONTINUOUS
 10
134.9068037867
 20
67.521894849
 11
134.9830924961
 21
67.3596747477
  0
LINE
  5
2BB
100
AcDbEntity
  8
0
100
AcDbLine
 62
253
  6
CONTINUOUS
 10
135.5722903026
 20
67.7365711653
 11
135.6456468291
 21
67.5802223095
  0
LINE
  5
2BC
100
AcDbEntity
  8
0
100
AcDbLine
 62
253
  6
CONTINUOUS
 10
134.827464438
 20
67.6921292798
 11
134.9068037867
 21
67.521894849
  0
LINE
  5
2BD
100
AcDbEntity
  8
0
100
AcDbLine
 62
253
  6
CONTINUOUS
 10
135.4958343727
 20
67.901058192
 11
135.5722903026
 21
67.7365711653
  0
LINE
  5
2BE
100
AcDbEntity
  8
0
100
AcDbLine
 62
253
  6
CONTINUOUS
 10
134.7452042476
 20
67.8703129586
 11
134.827464438
 21
67.6921292798
  0
LINE
  5
2BF
100
AcDbEntity
  8
0
100
AcDbLine
 62
253
  6
CONTINUOUS
 10
135.4165082342
 20
68.0734178962
 11
135.4958343727
 21
67.901058192
  0
LINE
  5
2C0
100
AcDbEntity
  8
0
100
AcDbLine
 62
253
  6
CONTINUOUS
 10
134.6602071953
 20
68.0562669522
 11
134.7452042476
 21
67.8703129586
  0
LINE
  5
2C1
100
AcDbEntity
  8
0
100
AcDbLine
 62
253
  6
CONTINUOUS
 10
135.3344707334
 20
68.2535851975
 11
135.4165082342
 21
68.0734178962
  0
LINE
  5
2C2
100
AcDbEntity
  8
0
100
AcDbLine
 62
253
  6
CONTINUOUS
 10
134.5721232189
 20
68.2510007087
 11
134.6602071953
 21
68.0562669522
  0
LWPOLYLINE
  5
2C3
100
AcDbEntity
  8
0
100
AcDbPolyline
 62
253
  6
CONTINUOUS
 90
3
 70
0
 10
135.2061985011
 20
68.539324625
 10
135.2497012174
 20
68.4418521517
 10
135.3344707334
 20
68.2535851975
  0
LINE
  5
2C4
100
AcDbEntity
  8
0
100
AcDbLine
 62
253
  6
CONTINUOUS
 10
134.480724014
 20
68.455303796
 11
134.5721232189
 21
68.2510007087
  0
LINE
  5
2C5
100
AcDbEntity
  8
0
100
AcDbLine
 62
253
  6
CONTINUOUS
 10
134.385480972
 20
68.6706962941
 11
134.480724014
 21
68.455303796
  0
LINE
  5
2C6
100
AcDbEntity
  8
0
100
AcDbLine
 62
253
  6
CONTINUOUS
 10
130.1794443874
 20
85.5508898089
 11
130.2589081766
 21
85.5586553297
  0
LINE
  5
2C7
100
AcDbEntity
  8
0
100
AcDbLine
 62
253
  6
CONTINUOUS
 10
130.2589081766
 20
85.5586553297
 11
130.4807220533
 21
85.5782319635
  0
LINE
  5
2C8
100
AcDbEntity
  8
0
100
AcDbLine
 62
253
  6
CONTINUOUS
 10
130.4807220533
 20
85.5782319635
 11
130.7659855291
 21
85.6025595249
  0
LINE
  5
2C9
100
AcDbEntity
  8
0
100
AcDbLine
 62
253
  6
CONTINUOUS
 10
130.7659855291
 20
85.6025595249
 11
131.0847338032
 21
85.6290793143
  0
LINE
  5
2CA
100
AcDbEntity
  8
0
100
AcDbLine
 62
253
  6
CONTINUOUS
 10
129.5802419388
 20
89.8290793112
 11
130.9132801971
 21
89.8290793112
  0
LINE
  5
2CB
100
AcDbEntity
  8
0
100
AcDbLine
 62
253
  6
CONTINUOUS
 10
169.0472036805
 20
89.8290793112
 11
170.3802419388
 21
89.8290793112
  0
LWPOLYLINE
  5
2CC
100
AcDbEntity
  8
0
100
AcDbPolyline
 62
253
  6
CONTINUOUS
 90
10
 70
0
 10
164.1717352541
 20
79.1475150925
 10
164.0988150116
 20
79.180541003
 10
164.0252013365
 20
79.2126493684
 10
163.9513690099
 20
79.243633042
 10
163.8777942228
 20
79.2732921313
 10
163.8049515055
 20
79.3014352862
 10
163.7333106673
 20
79.327880934
 10
163.6633337644
 20
79.3524584507
 10
163.5954721195
 20
79.3750092617
 10
163.530163412
 20
79.3953878641
  0
LWPOLYLINE
  5
2CD
100
AcDbEntity
  8
0
100
AcDbPolyline
 62
253
  6
CONTINUOUS
 90
97
 70
0
 10
136.4303186878
 20
79.3953871428
 10
136.4952199381
 20
79.2651942343
 10
136.5639015232
 20
79.130550872
 10
136.6365065039
 20
78.9915295924
 10
136.713877445
 20
78.8470592511
 10
136.7955006821
 20
78.6983807619
 10
136.8793707152
 20
78.5489757672
 10
136.96517524
 20
78.399263783
 10
137.0532761741
 20
78.2488874074
 10
137.1424858673
 20
78.1000768577
 10
137.2321912392
 20
77.9537618274
 10
137.3229120884
 20
77.8090141556
 10
137.4151163837
 20
77.6652625337
 10
137.5088383594
 20
77.5224943409
 10
137.6040205006
 20
77.3807700048
 10
137.7010347946
 20
77.2396526538
 10
137.799977525
 20
77.0990755943
 10
137.9007696719
 20
76.9591582075
 10
138.0035437895
 20
76.819754825
 10
138.1084108442
 20
76.6807690202
 10
138.2152876521
 20
76.5423593707
 10
138.3240136829
 20
76.4047616479
 10
138.4345834843
 20
76.2680099362
 10
138.5470107156
 20
76.1321225701
 10
138.6611477422
 20
75.9973049194
 10
138.7769658128
 20
75.8636072619
 10
138.8944805818
 20
75.7310332544
 10
139.0136009151
 20
75.5997121364
 10
139.1342694723
 20
75.4697201866
 10
139.2565220263
 20
75.3410305186
 10
139.380405437
 20
75.2136172101
 10
139.5059398225
 20
75.0874792997
 10
139.6330863599
 20
74.9626697278
 10
139.761803994
 20
74.8392445809
 10
139.8920014001
 20
74.7173012083
 10
140.0237432635
 20
74.5967859826
 10
140.1572278224
 20
74.4775346358
 10
140.2927937102
 20
74.3592803015
 10
140.430096107
 20
74.2423579218
 10
140.5682893012
 20
74.1274853766
 10
140.7069627962
 20
74.0149680455
 10
140.8464565686
 20
73.9044966335
 10
140.987034217
 20
73.7958483641
 10
141.1284097023
 20
73.6892022178
 10
141.2708189566
 20
73.584395417
 10
141.4153434393
 20
73.4807395818
 10
141.5625172173
 20
73.3779423782
 10
141.7118205221
 20
73.2764073276
 10
141.8627660007
 20
73.1765104129
 10
142.0152726385
 20
73.0783368473
 10
142.1693904881
 20
72.9818621343
 10
142.3248078736
 20
72.8872691931
 10
142.4814670627
 20
72.7945967022
 10
142.6393808523
 20
72.7038465241
 10
142.7983331467
 20
72.6151288849
 10
142.9583929272
 20
72.5284033881
 10
143.1194397554
 20
72.4437396804
 10
143.2809604653
 20
72.3613888653
 10
143.4428647658
 20
72.2813892918
 10
143.6051719132
 20
72.2036928836
 10
143.7675200193
 20
72.12839165
 10
143.9293890889
 20
72.0556768802
 10
144.0912185125
 20
71.9853117138
 10
144.2541005705
 20
71.9167719752
 10
144.4182664205
 20
71.8499661035
 10
144.5834478662
 20
71.7850277985
 10
144.7500118802
 20
71.7218225592
 10
144.918320402
 20
71.6602441455
 10
145.0879818768
 20
71.6004679526
 10
145.2582283546
 20
71.5427693347
 10
145.4288020122
 20
71.4872265227
 10
145.5999053047
 20
71.4337641147
 10
145.7714507428
 20
71.38239841
 10
145.9433685032
 20
71.3331434758
 10
146.1156743436
 20
71.2859876732
 10
146.2884096543
 20
71.2409087972
 10
146.4615798672
 20
71.1979030538
 10
146.6351284142
 20
71.1569826809
 10
146.8090046052
 20
71.1181508656
 10
146.9831404279
 20
71.0814181748
 10
147.1575528176
 20
71.0467783836
 10
147.3323186333
 20
71.0142092971
 10
147.5074347574
 20
70.9837078032
 10
147.6828527228
 20
70.9552797037
 10
147.8585819247
 20
70.9289189549
 10
148.0346135405
 20
70.9046257852
 10
148.2109054025
 20
70.8824048389
 10
148.3874171632
 20
70.8622573752
 10
148.5641333248
 20
70.8441839973
 10
148.7410184627
 20
70.8281876983
 10
148.9180022844
 20
70.814271204
 10
149.0950526735
 20
70.8024345803
 10
149.2721508776
 20
70.7926777533
 10
149.449246629
 20
70.7850007718
 10
149.6263063427
 20
70.7794027056
 10
149.803313145
 20
70.7758826177
 10
149.9802419388
 20
70.7744396539
  0
LINE
  5
2CE
100
AcDbEntity
  8
0
100
AcDbLine
 62
253
  6
CONTINUOUS
 10
135.1167675879
 20
68.7415595811
 11
135.2061985011
 21
68.539324625
  0
LINE
  5
2CF
100
AcDbEntity
  8
0
100
AcDbLine
 62
253
  6
CONTINUOUS
 10
135.0236746082
 20
68.9548042865
 11
135.1167675879
 21
68.7415595811
  0
LINE
  5
2D0
100
AcDbEntity
  8
0
100
AcDbLine
 62
7
  6
CONTINUOUS
 10
148.6407060391
 20
83.9652462267
 11
149.7555379388
 21
83.0257703112
  0
LINE
  5
2D1
100
AcDbEntity
  8
0
100
AcDbLine
 62
7
  6
CONTINUOUS
 10
149.7555379388
 20
83.5374663112
 11
148.5864625463
 21
84.5226536419
  0
LWPOLYLINE
  5
2D2
100
AcDbEntity
  8
0
100
AcDbPolyline
 62
253
  6
CONTINUOUS
 90
136
 70
0
 10
135.3233698663
 20
83.55410678
 10
135.3694720919
 20
83.4440169223
 10
135.4180266727
 20
83.3301385378
 10
135.4690336089
 20
83.2124716264
 10
135.5223666916
 20
83.0908976159
 10
135.5781521297
 20
82.9655350786
 10
135.6367685488
 20
82.8367397309
 10
135.6985996567
 20
82.7038417116
 10
135.7632617457
 20
82.5675108818
 10
135.8299823186
 20
82.4301125418
 10
135.8982418169
 20
82.2927654058
 10
135.968559799
 20
82.1543507596
 10
136.0417224433
 20
82.0138777615
 10
136.1180118398
 20
81.8707967372
 10
136.1971458984
 20
81.7256573609
 10
136.279064528
 20
81.5791178133
 10
136.3641208783
 20
81.4306808881
 10
136.4519617995
 20
81.2808437915
 10
136.5414677509
 20
81.131756324
 10
136.6325634609
 20
80.9837055158
 10
136.7253242011
 20
80.8364043366
 10
136.8188562454
 20
80.6911414958
 10
136.9129610572
 20
80.5483243619
 10
137.0078371731
 20
80.4075455665
 10
137.1031864771
 20
80.2688717137
 10
137.1979539977
 20
80.1336544765
 10
137.2931947064
 20
80.0005421819
 10
137.3917754011
 20
79.8655464157
 10
137.4939016552
 20
79.7280732647
 10
137.5993678953
 20
79.588716642
 10
137.7104241994
 20
79.4452698731
 10
137.827681753
 20
79.2967542936
 10
137.9505293705
 20
79.1441485678
 10
138.079383573
 20
78.9881820142
 10
138.2139992395
 20
78.8290771194
 10
138.354621491
 20
78.6666113967
 10
138.502402211
 20
78.5008467047
 10
138.6572328609
 20
78.3317972723
 10
138.8192219792
 20
78.1594488706
 10
138.9898470656
 20
77.9838206714
 10
139.1693439828
 20
77.8045658543
 10
139.357476868
 20
77.6220312397
 10
139.5550156318
 20
77.4372764605
 10
139.7616415081
 20
77.2504654697
 10
139.9776732631
 20
77.0614343143
 10
140.2048371058
 20
76.8707507689
 10
140.4428839186
 20
76.6784006273
 10
140.6920628191
 20
76.4843980957
 10
140.9548473696
 20
76.2893535677
 10
141.2311779065
 20
76.0930081207
 10
141.5211140934
 20
75.8956206772
 10
141.8273084836
 20
75.6985783987
 10
142.1495650639
 20
75.501630583
 10
142.4880798475
 20
75.3050279323
 10
142.8460934271
 20
75.1109097155
 10
143.223441505
 20
74.9188737792
 10
143.6202883788
 20
74.7293222768
 10
144.0403675351
 20
74.5456009368
 10
144.4842302896
 20
74.3669783003
 10
144.9513253266
 20
74.1941858261
 10
145.443732185
 20
74.0327636195
 10
145.9631138106
 20
73.8820816401
 10
146.5078072576
 20
73.7427699282
 10
147.0749032268
 20
73.6222587093
 10
147.6670215563
 20
73.5208437743
 10
148.2815424081
 20
73.4382293322
 10
148.9076969686
 20
73.3809582358
 10
149.5489696663
 20
73.3510564221
 10
150.2018760726
 20
73.346497954
 10
150.8451940894
 20
73.3677478738
 10
151.4759313907
 20
73.4170308955
 10
152.0970803024
 20
73.492122305
 10
152.6963957035
 20
73.5868130019
 10
153.2709231303
 20
73.7015249474
 10
153.8236170465
 20
73.8358361803
 10
154.3510957227
 20
73.9822717165
 10
154.8517003086
 20
74.1402802004
 10
155.3270896546
 20
74.3104129876
 10
155.7788585828
 20
74.486849161
 10
156.2062964048
 20
74.6688268336
 10
156.610113809
 20
74.8571078923
 10
156.9940376835
 20
75.0481570807
 10
157.3582007851
 20
75.2415374597
 10
157.702470357
 20
75.4376859685
 10
158.0301750162
 20
75.6343781673
 10
158.3415298757
 20
75.8313646764
 10
158.6363198225
 20
76.0288948756
 10
158.9172281354
 20
76.2254924644
 10
159.1843174567
 20
76.4208923745
 10
159.4375251441
 20
76.6153596742
 10
159.6793465491
 20
76.8082132676
 10
159.9099904619
 20
76.9993933834
 10
160.1292480922
 20
77.1889597929
 10
160.3389884212
 20
77.3764107133
 10
160.5395757644
 20
77.5619402742
 10
160.7306458061
 20
77.7453543459
 10
160.9129745804
 20
77.9255687575
 10
161.0863519895
 20
78.1022667108
 10
161.2509881311
 20
78.275765004
 10
161.4082893326
 20
78.44592986
 10
161.5583039348
 20
78.6127048246
 10
161.7009835969
 20
78.7761463521
 10
161.8375896233
 20
78.9362900294
 10
161.9684071591
 20
79.0934035114
 10
162.0931510592
 20
79.2472191432
 10
162.2122271932
 20
79.3969695463
 10
162.3251228871
 20
79.5418297603
 10
162.432350815
 20
79.6826247456
 10
162.5358548682
 20
79.8210620049
 10
162.6352345057
 20
79.956283283
 10
162.7308902687
 20
80.0891468349
 10
162.8259676718
 20
80.223934929
 10
162.9215783346
 20
80.3620484361
 10
163.0166106376
 20
80.5020864853
 10
163.1108752372
 20
80.6441287315
 10
163.2045872187
 20
80.7885910944
 10
163.2975314969
 20
80.9350576542
 10
163.3888734728
 20
81.082360307
 10
163.4785826713
 20
81.2305776004
 10
163.5666895675
 20
81.3796309866
 10
163.6524509876
 20
81.5281167185
 10
163.7356315239
 20
81.675705595
 10
163.8164665841
 20
81.8227268172
 10
163.894919218
 20
81.9687642406
 10
163.970812286
 20
82.1134894812
 10
164.0443229278
 20
82.2572309232
 10
164.1159456126
 20
82.4005575742
 10
164.1864341783
 20
82.5451862609
 10
164.255034787
 20
82.6894001567
 10
164.3199803946
 20
82.8286177893
 10
164.3803949843
 20
82.9611539379
 10
164.4371545728
 20
83.0886938234
 10
164.4911201668
 20
83.2117116367
 10
164.5425787684
 20
83.3303654416
 10
164.5912433753
 20
83.4444971743
 10
164.6371139877
 20
83.5541068349
  0
LWPOLYLINE
  5
2D3
100
AcDbEntity
  8
0
100
AcDbPolyline
 62
253
  6
CONTINUOUS
 90
97
 70
0
 10
135.7887485059
 20
79.1475145784
 10
135.8462196588
 20
79.005650619
 10
135.9077217892
 20
78.8591951292
 10
135.9733987663
 20
78.708245678
 10
136.0439691083
 20
78.5517665149
 10
136.1190387236
 20
78.3910231867
 10
136.1969803525
 20
78.2295208344
 10
136.277627369
 20
78.0677028269
 10
136.3612355771
 20
77.9052586777
 10
136.4466308764
 20
77.7444706735
 10
136.533262805
 20
77.5863333041
 10
136.6216156111
 20
77.4299048392
 10
136.712016178
 20
77.2745334267
 10
136.8045034065
 20
77.1202013987
 10
136.899036848
 20
76.9670119184
 10
136.9958580817
 20
76.8145108423
 10
137.0950382015
 20
76.6626627863
 10
137.1965290023
 20
76.5116035864
 10
137.3004124168
 20
76.3611440754
 10
137.4067975477
 20
76.2112021146
 10
137.5156093772
 20
76.0619680644
 10
137.626651077
 20
75.9136540742
 10
137.73991923
 20
75.7663113743
 10
137.8554312792
 20
75.619981135
 10
137.9730067978
 20
75.4748436323
 10
138.0926259135
 20
75.330953716
 10
138.2143074425
 20
75.188335615
 10
138.3379157982
 20
75.0471084846
 10
138.4633929693
 20
74.9073544979
 10
138.590779489
 20
74.7690554549
 10
138.7200831162
 20
74.6321732286
 10
138.851326648
 20
74.4967113369
 10
138.9844731063
 20
74.3627338148
 10
139.1194400187
 20
74.2302899873
 10
139.2561274054
 20
74.0994917352
 10
139.3946143664
 20
73.9702865026
 10
139.5350893954
 20
73.8424790356
 10
139.6779205597
 20
73.7157779737
 10
139.8227348887
 20
73.5905584043
 10
139.9685923504
 20
73.4675973744
 10
140.1150226815
 20
73.3472625669
 10
140.2624270594
 20
73.2291782961
 10
140.4111322794
 20
73.1129685469
 10
140.5610462881
 20
72.9989156725
 10
140.7122634277
 20
72.886791512
 10
140.8657025984
 20
72.7756351313
 10
141.0219929408
 20
72.6651244598
 10
141.1807516024
 20
72.5558741014
 10
141.3412402111
 20
72.4482420217
 10
141.5032093359
 20
72.3422835272
 10
141.6667744499
 20
72.2379884547
 10
141.8317152445
 20
72.1355730962
 10
141.9979410893
 20
72.0351056991
 10
142.1654265063
 20
71.9365717123
 10
142.3340433011
 20
71.8400581676
 10
142.5038565182
 20
71.7455467207
 10
142.674692031
 20
71.6531246075
 10
142.8460530477
 20
71.5630159619
 10
143.0178176606
 20
71.4750733526
 10
143.1899883623
 20
71.3895381355
 10
143.3622126426
 20
71.3070232611
 10
143.5338299951
 20
71.2272169055
 10
143.7053098527
 20
71.1495304577
 10
143.877964711
 20
71.0738202789
 10
144.0520720638
 20
71.0001525502
 10
144.2273062321
 20
70.9285196243
 10
144.4040874097
 20
70.8587828441
 10
144.5828095936
 20
70.7908081652
 10
144.7630435906
 20
70.7247868387
 10
144.9439678011
 20
70.6610551894
 10
145.1252971978
 20
70.5996983516
 10
145.3072503974
 20
70.5406244524
 10
145.4897477679
 20
70.4838735503
 10
145.6727141234
 20
70.4294516996
 10
145.8561580903
 20
70.3773417975
 10
146.040124403
 20
70.3275490659
 10
146.2246107493
 20
70.2800613241
 10
146.4095534384
 20
70.234882716
 10
146.594904059
 20
70.1920442463
 10
146.7805868305
 20
70.1515525801
 10
146.966610234
 20
70.1133902513
 10
147.1530515559
 20
70.0775547301
 10
147.3399012593
 20
70.0440431572
 10
147.5271034978
 20
70.012857002
 10
147.7146661921
 20
69.9840051414
 10
147.9025721171
 20
69.9574854038
 10
148.0907729978
 20
69.933298809
 10
148.279229534
 20
69.9114602065
 10
148.4679180597
 20
69.8919676689
 10
148.6567957075
 20
69.8748189579
 10
148.8457934516
 20
69.8600272499
 10
149.0348700273
 20
69.8475920279
 10
149.2239997767
 20
69.837508369
 10
149.4131364933
 20
69.8297815521
 10
149.6022424456
 20
69.824411648
 10
149.7912886502
 20
69.8213940163
 10
149.9802419388
 20
69.8207268494
  0
LWPOLYLINE
  5
2D4
100
AcDbEntity
  8
0
100
AcDbPolyline
 62
253
  6
CONTINUOUS
 90
37
 70
0
 10
131.7557338763
 20
76.1065299195
 10
131.8461483975
 20
75.7787061373
 10
131.9360786636
 20
75.4604638518
 10
132.0253515307
 20
75.1517668013
 10
132.11371561
 20
74.8528480762
 10
132.201088851
 20
74.5633991989
 10
132.2875740349
 20
74.2825751532
 10
132.3730352143
 20
74.0103354149
 10
132.4573352646
 20
73.7466527241
 10
132.5406080982
 20
73.49071009
 10
132.6227398459
 20
73.2424782473
 10
132.7036196479
 20
73.0019260165
 10
132.7834149671
 20
72.7682414555
 10
132.8620370837
 20
72.5413874816
 10
132.939391733
 20
72.3213486002
 10
133.0156635411
 20
72.1073527927
 10
133.0908047435
 20
71.8993029118
 10
133.1647154043
 20
71.6972512804
 10
133.2375214866
 20
71.5006561692
 10
133.309172389
 20
71.3094661751
 10
133.3795952234
 20
71.1236931694
 10
133.4488963837
 20
70.9428947624
 10
133.5170568584
 20
70.766966781
 10
133.5839919246
 20
70.5959785647
 10
133.6497181451
 20
70.4297507633
 10
133.7142028701
 20
70.2682317598
 10
133.7773865691
 20
70.111440608
 10
133.8392497853
 20
69.9593051828
 10
133.8997074003
 20
69.8119141402
 10
133.9587606526
 20
69.6691477193
 10
134.0165253872
 20
69.5306231348
 10
134.0729542346
 20
69.3963558746
 10
134.1280249451
 20
69.2663037277
 10
134.1818995944
 20
69.140000632
 10
134.2345490515
 20
69.0174369507
 10
134.2859461848
 20
68.8986001061
 10
134.385480972
 20
68.6706962941
  0
LWPOLYLINE
  5
2D5
100
AcDbEntity
  8
0
100
AcDbPolyline
 62
253
  6
CONTINUOUS
 90
37
 70
0
 10
132.5321484684
 20
76.3365990105
 10
132.6131981019
 20
76.010711211
 10
132.6943582314
 20
75.6942526509
 10
132.7754251137
 20
75.3872482223
 10
132.8561336026
 20
75.0900375925
 10
132.9363623135
 20
74.8023233007
 10
133.0161519567
 20
74.5231681242
 10
133.0953515159
 20
74.2525667561
 10
133.1738056753
 20
73.9905480334
 10
133.2515887495
 20
73.7362186362
 10
133.328575652
 20
73.4895749767
 10
133.4046455333
 20
73.2506310678
 10
133.479912495
 20
73.0185146766
 10
133.5542784944
 20
72.7932077388
 10
133.6276440531
 20
72.574729697
 10
133.7001491187
 20
72.3622612428
 10
133.7717384185
 20
72.1557203663
 10
133.842310311
 20
71.9551856835
 10
133.911956582
 20
71.7600769107
 10
133.9806219881
 20
71.5703547012
 10
134.0482325811
 20
71.3860517096
 10
134.1148669972
 20
71.2066942863
 10
134.180502246
 20
71.0321886533
 10
134.2450541758
 20
70.8626199176
 10
134.3085189876
 20
70.6977814552
 10
134.3708617541
 20
70.5376302778
 10
134.4320230733
 20
70.3821984841
 10
134.4919670505
 20
70.2313906134
 10
134.5506080705
 20
70.0853012511
 10
134.6079462104
 20
69.9438228263
 10
134.6640800897
 20
69.8065561457
 10
134.7189608833
 20
69.6735214007
 10
134.7725664617
 20
69.5446858
 10
134.8250442544
 20
69.4195714778
 10
134.8763641012
 20
69.2981724198
 10
134.9264992488
 20
69.1804835164
 10
135.0236746082
 20
68.9548042865
  0
LWPOLYLINE
  5
2D6
100
AcDbEntity
  8
0
100
AcDbPolyline
 62
253
  6
CONTINUOUS
 90
13
 70
0
 10
130.0935256366
 20
85.5443479694
 10
130.1529658389
 20
84.87469159
 10
130.2234443126
 20
84.1843584359
 10
130.3057993501
 20
83.4735625771
 10
130.4007929167
 20
82.7432969299
 10
130.5093837791
 20
81.9930741941
 10
130.6328348451
 20
81.2209437318
 10
130.7720529397
 20
80.4279870325
 10
130.9281797837
 20
79.613849
 10
131.1031730048
 20
78.7745314806
 10
131.2986648571
 20
77.909077878
 10
131.5157274989
 20
77.0195350572
 10
131.7557338763
 20
76.1065299195
  0
LWPOLYLINE
  5
2D7
100
AcDbEntity
  8
0
100
AcDbPolyline
 62
253
  6
CONTINUOUS
 90
10
 70
0
 10
167.4283354092
 20
76.3365990105
 10
167.0659130738
 20
76.6429089554
 10
166.7035853766
 20
76.9510664486
 10
166.3413523176
 20
77.2609425178
 10
165.9791474667
 20
77.5724656714
 10
165.6170372539
 20
77.8854506
 10
165.2552209696
 20
78.1995954626
 10
164.8937650438
 20
78.5147119728
 10
164.5326030464
 20
78.8307281109
 10
164.1717349775
 20
79.147514925
  0
LINE
  5
2D8
100
AcDbEntity
  8
0
100
AcDbLine
 62
7
  6
CONTINUOUS
 10
148.2538819388
 20
80.2082993112
 11
148.4713099388
 21
79.9000613112
  0
LWPOLYLINE
  5
2D9
100
AcDbEntity
  8
0
100
AcDbPolyline
 62
253
  6
CONTINUOUS
 90
37
 70
0
 10
155.2802419388
 20
59.430177188
 10
155.2752021978
 20
59.4404919423
 10
155.2600845143
 20
59.4507521625
 10
155.2349056096
 20
59.4609578486
 10
155.199692845
 20
59.4711303822
 10
155.1545057362
 20
59.4812483817
 10
155.0994570906
 20
59.4912477023
 10
155.0346789288
 20
59.5011247513
 10
154.9602874371
 20
59.5108831213
 10
154.8764121881
 20
59.5204694465
 10
154.7832058991
 20
59.5298835342
 10
154.6808531773
 20
59.539125577
 10
154.5695524801
 20
59.5481427863
 10
154.449518494
 20
59.5569337657
 10
154.320979961
 20
59.5654999115
 10
154.1841816867
 20
59.5737926242
 10
154.0393843929
 20
59.5818103763
 10
153.8868654397
 20
59.5895546952
 10
153.7269172542
 20
59.5969815637
 10
153.5598457548
 20
59.6040891415
 10
153.3859696108
 20
59.6108792688
 10
153.2056207324
 20
59.6173134488
 10
153.0191441018
 20
59.6233896261
 10
152.8268946208
 20
59.6291098561
 10
152.6292361996
 20
59.634441808
 10
152.4265454474
 20
59.6393832847
 10
152.2192084529
 20
59.6439364832
 10
152.0076171787
 20
59.6480756641
 10
151.7921741336
 20
59.65179849
 10
151.5732895583
 20
59.6551072984
 10
151.3513776387
 20
59.6579833617
 10
151.1268606781
 20
59.6604242318
 10
150.9001656121
 20
59.6624323569
 10
150.6717207868
 20
59.6639963541
 10
150.4419597031
 20
59.6651124289
 10
150.211320272
 20
59.6657843758
 10
149.9802411324
 20
59.6660121947
  0
LWPOLYLINE
  5
2DA
100
AcDbEntity
  8
0
100
AcDbPolyline
 62
7
  6
CONTINUOUS
 90
7
 70
0
 10
134.7802751475
 20
85.6290793112
 10
134.8507908175
 20
85.2779257913
 10
134.9293065341
 20
84.9289021773
 10
135.0158222973
 20
84.5820084691
 10
135.110338107
 20
84.2372446668
 10
135.2128539634
 20
83.8946107705
 10
135.3233698663
 20
83.55410678
  0
LINE
  5
2DB
100
AcDbEntity
  8
0
100
AcDbLine
 62
253
  6
CONTINUOUS
 10
134.8333550301
 20
84.9492937893
 11
134.8438414497
 21
84.8513408866
  0
LINE
  5
2DC
100
AcDbEntity
  8
0
100
AcDbLine
 62
253
  6
CONTINUOUS
 10
134.8243216886
 20
85.0390787301
 11
134.8333550301
 21
84.9492937893
  0
LINE
  5
2DD
100
AcDbEntity
  8
0
100
AcDbLine
 62
253
  6
CONTINUOUS
 10
134.8165125867
 20
85.1217245433
 11
134.8243216886
 21
85.0390787301
  0
LINE
  5
2DE
100
AcDbEntity
  8
0
100
AcDbLine
 62
253
  6
CONTINUOUS
 10
134.8097637028
 20
85.1978562784
 11
134.8165125867
 21
85.1217245433
  0
LWPOLYLINE
  5
2DF
100
AcDbEntity
  8
0
100
AcDbPolyline
 62
253
  6
CONTINUOUS
 90
13
 70
0
 10
131.0847321158
 20
85.6291037081
 10
131.1393185466
 20
84.9735816688
 10
131.2020019192
 20
84.2984020321
 10
131.2739038537
 20
83.6030811609
 10
131.3562508824
 20
82.8871396814
 10
131.4500980283
 20
82.1500785689
 10
131.5563315646
 20
81.3913241142
 10
131.6755649108
 20
80.6109828816
 10
131.8094780011
 20
79.8077858103
 10
131.9606789734
 20
78.9792454183
 10
132.1309335035
 20
78.1244062697
 10
132.3210177337
 20
77.243624011
 10
132.5321484684
 20
76.3365990105
  0
LINE
  5
2E0
100
AcDbEntity
  8
0
100
AcDbLine
 62
253
  6
CONTINUOUS
 10
134.803909806
 20
85.2683967633
 11
134.8097637028
 21
85.1978562784
  0
LINE
  5
2E1
100
AcDbEntity
  8
0
100
AcDbLine
 62
253
  6
CONTINUOUS
 10
134.7988071574
 20
85.3341330799
 11
134.803909806
 21
85.2683967633
  0
LINE
  5
2E2
100
AcDbEntity
  8
0
100
AcDbLine
 62
253
  6
CONTINUOUS
 10
134.7943553612
 20
85.3955165873
 11
134.7988071574
 21
85.3341330799
  0
LINE
  5
2E3
100
AcDbEntity
  8
0
100
AcDbLine
 62
7
  6
CONTINUOUS
 10
129.5802419388
 20
116.1290793112
 11
129.5802419388
 21
89.8290793112
  0
LINE
  5
2E4
100
AcDbEntity
  8
0
100
AcDbLine
 62
253
  6
CONTINUOUS
 10
129.9189249133
 20
116.1290793112
 11
129.9189249133
 21
89.8290793112
  0
LINE
  5
2E5
100
AcDbEntity
  8
0
100
AcDbLine
 62
253
  6
CONTINUOUS
 10
130.9132801971
 20
89.8290793112
 11
130.9132801971
 21
116.6290793112
  0
LWPOLYLINE
  5
2E6
100
AcDbEntity
  8
0
100
AcDbPolyline
 62
253
  6
CONTINUOUS
 90
13
 70
0
 10
129.9189249131
 20
116.1290793112
 10
129.9208168205
 20
116.1726571391
 10
129.9264781453
 20
116.215903323
 10
129.935865804
 20
116.2584887335
 10
129.9489083526
 20
116.3000892687
 10
129.9655065322
 20
116.3403883242
 10
129.9855340245
 20
116.3790792021
 10
130.0088384141
 20
116.4158674441
 10
130.0352423408
 20
116.4504730627
 10
130.0645448494
 20
116.4826326779
 10
130.0965229301
 20
116.5121015353
 10
130.1309332101
 20
116.538655358
 10
130.1675137956
 20
116.5620920487
  0
LWPOLYLINE
  5
2E7
100
AcDbEntity
  8
RACCORDO
100
AcDbPolyline
 62
253
  6
CONTINUOUS
 90
28
 70
0
 10
162.9802419388
 20
105.0277703309
 10
163.1904334274
 20
105.0339841143
 10
163.3986137349
 20
105.0521792697
 10
163.6047828613
 20
105.0823557972
 10
163.8096246163
 20
105.1246784808
 10
164.0124551902
 20
105.1789825365
 10
164.2112231542
 20
105.2447736117
 10
164.405915656
 20
105.3221851356
 10
164.5965455478
 20
105.4110836791
 10
164.7810999584
 20
105.5105746026
 10
164.959531675
 20
105.6208072155
 10
165.1318879103
 20
105.7416322083
 10
165.2962974311
 20
105.8717070132
 10
165.4526105746
 20
106.0110849927
 10
165.6009770035
 20
106.1597127842
 10
165.7399744722
 20
106.3160877325
 10
165.8695015479
 20
106.4802386769
 10
165.9896596634
 20
106.6521367782
 10
166.0993308717
 20
106.8301928627
 10
166.1984587656
 20
107.01452304
 10
166.2870997523
 20
107.2050112007
 10
166.3643051061
 20
107.3997198432
 10
166.4299530216
 20
107.598878967
 10
166.4841653043
 20
107.8022585727
 10
166.5263586445
 20
108.00723116
 10
166.5563386057
 20
108.2129208954
 10
166.5742996245
 20
108.4202036125
 10
166.5802417008
 20
108.6290793112
  0
LINE
  5
2E8
100
AcDbEntity
  8
0
100
AcDbLine
 62
253
  6
CONTINUOUS
 10
162.9802419388
 20
104.7040793112
 11
136.9802419388
 21
104.7040793112
  0
LINE
  5
2E9
100
AcDbEntity
  8
0
100
AcDbLine
 62
7
  6
CONTINUOUS
 10
162.9802419388
 20
104.8540793112
 11
136.9802419388
 21
104.8540793112
  0
LINE
  5
2EA
100
AcDbEntity
  8
RACCORDO
100
AcDbLine
 62
7
  6
CONTINUOUS
 10
136.9802419388
 20
104.8790793112
 11
162.9802419388
 21
104.8790793112
  0
LINE
  5
2EB
100
AcDbEntity
  8
RACCORDO
100
AcDbLine
 62
253
  6
CONTINUOUS
 10
136.9802419388
 20
105.0277703309
 11
162.9802419388
 21
105.0277703309
  0
LINE
  5
2EC
100
AcDbEntity
  8
0
100
AcDbLine
 62
7
  6
CONTINUOUS
 10
135.3428475611
 20
105.2290793112
 11
135.402072485
 21
105.2290793112
  0
LINE
  5
2ED
100
AcDbEntity
  8
0
100
AcDbLine
 62
7
  6
CONTINUOUS
 10
164.5584108054
 20
105.2290793112
 11
164.6176363157
 21
105.2290793112
  0
LINE
  5
2EE
100
AcDbEntity
  8
0
100
AcDbLine
 62
7
  6
CONTINUOUS
 10
150.7531210023
 20
81.752057198
 11
150.9449177625
 21
81.4103386254
  0
LWPOLYLINE
  5
2EF
100
AcDbEntity
  8
0
100
AcDbPolyline
 62
253
  6
CONTINUOUS
 90
136
 70
0
 10
135.3233698663
 20
83.55410678
 10
135.3455377051
 20
83.4342285504
 10
135.3714996733
 20
83.3104955935
 10
135.4016243769
 20
83.183198486
 10
135.4369963441
 20
83.0530511036
 10
135.4774039983
 20
82.9201334317
 10
135.5210691206
 20
82.7835697134
 10
135.5678910655
 20
82.6424200454
 10
135.61837456
 20
82.4979339343
 10
135.6713014795
 20
82.3521535533
 10
135.7262072638
 20
82.2062690863
 10
135.7837439298
 20
82.0592981119
 10
135.8442599915
 20
81.9099108698
 10
135.9080622746
 20
81.7575817054
 10
135.9750891199
 20
81.6030382631
 10
136.0451239739
 20
81.4467914217
 10
136.1185123738
 20
81.2883562953
 10
136.1951158248
 20
81.1284034073
 10
136.2738911745
 20
80.9691166564
 10
136.3547398568
 20
80.8107862572
 10
136.4377953217
 20
80.6532263758
 10
136.5222308953
 20
80.4978291586
 10
136.6077713412
 20
80.3449916638
 10
136.6946111124
 20
80.1943414249
 10
136.7825662111
 20
80.046073076
 10
136.8706489698
 20
79.9016936365
 10
136.9597239583
 20
79.7596816352
 10
137.0525214704
 20
79.6157740363
 10
137.1494543862
 20
79.4695974145
 10
137.2503216599
 20
79.3217350384
 10
137.3571773704
 20
79.1695292819
 10
137.4709512074
 20
79.0122454374
 10
137.5911481335
 20
78.8510448093
 10
137.7177799296
 20
78.6861921519
 10
137.8508396581
 20
78.5181665992
 10
137.990732623
 20
78.3469410515
 10
138.1381077142
 20
78.1720393813
 10
138.2931043277
 20
77.9938066321
 10
138.4560419505
 20
77.8124497194
 10
138.6279077375
 20
77.6273538448
 10
138.8092313686
 20
77.438595111
 10
139.0000395829
 20
77.2468275991
 10
139.2006073749
 20
77.0523658578
 10
139.4109048388
 20
76.8559003808
 10
139.6314860934
 20
76.657583675
 10
139.8635469873
 20
76.4570104338
 10
140.1071947628
 20
76.2548880361
 10
140.3629179663
 20
76.0516142586
 10
140.6326026107
 20
75.8465123642
 10
140.916590423
 20
75.6403174762
 10
141.2152270607
 20
75.4337961443
 10
141.5305520534
 20
75.2266030763
 10
141.8628035801
 20
75.0198298577
 10
142.2124930975
 20
74.8144298383
 10
142.5822237791
 20
74.6102319365
 10
142.9722008364
 20
74.4086739559
 10
143.3829395109
 20
74.2110657621
 10
143.8176605136
 20
74.0175762928
 10
144.2771775953
 20
73.8299016969
 10
144.7613089957
 20
73.6502374593
 10
145.2718482116
 20
73.4800684317
 10
145.8102361106
 20
73.3213441916
 10
146.375128681
 20
73.1769767744
 10
146.9639289273
 20
73.0499237727
 10
147.5784022135
 20
72.9422644421
 10
148.2158564611
 20
72.856980792
 10
148.8665505115
 20
72.7971003313
 10
149.5327353413
 20
72.7638875533
 10
150.2100239057
 20
72.7591848156
 10
150.8783949806
 20
72.7832611012
 10
151.5338694713
 20
72.8345950697
 10
152.1781929791
 20
72.9120871843
 10
152.8002006937
 20
73.0127836225
 10
153.3967922951
 20
73.1337138885
 10
153.9700103966
 20
73.2728441631
 10
154.5168695203
 20
73.4271556796
 10
155.0360059228
 20
73.5937303821
 10
155.5287853125
 20
73.7705703645
 10
155.9965552286
 20
73.9559941104
 10
156.4389809813
 20
74.1476778858
 10
156.8570070449
 20
74.3439072823
 10
157.2538660975
 20
74.5444308274
 10
157.6300447434
 20
74.7478696169
 10
157.9857712862
 20
74.9527559579
 10
158.3237398404
 20
75.1592562957
 10
158.6444866938
 20
75.3663947221
 10
158.9482290189
 20
75.5730331487
 10
159.2370320914
 20
75.7794835302
 10
159.5112481741
 20
75.9849549663
 10
159.7712215576
 20
76.1886847492
 10
160.0188575915
 20
76.3913195473
 10
160.2546071759
 20
76.5924077971
 10
160.4786253366
 20
76.7912599378
 10
160.692245215
 20
76.9883757958
 10
160.8960630654
 20
77.18363141
 10
161.090006206
 20
77.3762910467
 10
161.2743526928
 20
77.566033405
 10
161.4491555483
 20
77.7522294445
 10
161.6149198836
 20
77.9347637629
 10
161.7725645825
 20
78.1141464704
 10
161.9223570369
 20
78.2900916849
 10
162.0645016988
 20
78.4623160887
 10
162.1997539459
 20
78.6314022948
 10
162.3285629023
 20
78.7974226604
 10
162.4508769139
 20
78.9598478961
 10
162.5666777252
 20
79.1183796516
 10
162.675572778
 20
79.2720025633
 10
162.7783900084
 20
79.4212976921
 10
162.876865835
 20
79.5684264791
 10
162.9706322622
 20
79.7125123608
 10
163.0603131494
 20
79.85418921
 10
163.1488930295
 20
79.9980542158
 10
163.2372844721
 20
80.145686627
 10
163.3244630849
 20
80.2955149862
 10
163.4103541856
 20
80.4475084775
 10
163.4951672294
 20
80.6020605222
 10
163.5786112915
 20
80.7587564821
 10
163.6599125696
 20
80.9163167233
 10
163.7390975302
 20
81.074711376
 10
163.8161712103
 20
81.2338695703
 10
163.8904298366
 20
81.3923860075
 10
163.9617937465
 20
81.5497913792
 10
164.0304891536
 20
81.7063959594
 10
164.0963431533
 20
81.8619141123
 10
164.1593633767
 20
82.0158494008
 10
164.2197237829
 20
82.1685139356
 10
164.2775272928
 20
82.3207824807
 10
164.333626006
 20
82.474242273
 10
164.3873267903
 20
82.6270855778
 10
164.4366074176
 20
82.774951447
 10
164.4816546061
 20
82.9154952908
 10
164.5228035284
 20
83.050714814
 10
164.558642449
 20
83.182386424
 10
164.589084714
 20
83.3107296528
 10
164.6151169045
 20
83.4347303106
 10
164.6371139877
 20
83.5541068349
  0
LWPOLYLINE
  5
2F0
100
AcDbEntity
  8
0
100
AcDbPolyline
 62
253
  6
CONTINUOUS
 90
35
 70
0
 10
134.9465241008
 20
84.0605943357
 10
134.9590811117
 20
83.9778696996
 10
134.9726937873
 20
83.8925453132
 10
134.9873201779
 20
83.8045952494
 10
135.0029182679
 20
83.7138322445
 10
135.019439086
 20
83.6204073368
 10
135.0370208514
 20
83.5241868763
 10
135.0559107613
 20
83.4245535577
 10
135.076200183
 20
83.3216231129
 10
135.0979475476
 20
83.2153323594
 10
135.1213883238
 20
83.1048081546
 10
135.1466099016
 20
82.9900334838
 10
135.1737196434
 20
82.8710905751
 10
135.2030219883
 20
82.7472659948
 10
135.2346495637
 20
82.6186332216
 10
135.268726949
 20
82.4852203725
 10
135.305592572
 20
82.3462636035
 10
135.345624054
 20
82.2010430535
 10
135.3887809753
 20
82.0504253951
 10
135.4347556109
 20
81.8960245387
 10
135.483767612
 20
81.7376210431
 10
135.535855192
 20
81.5755826819
 10
135.5903160631
 20
81.4123639885
 10
135.6470306796
 20
81.2485378076
 10
135.7062101256
 20
81.0836242808
 10
135.7675379323
 20
80.9184497196
 10
135.8308721277
 20
80.7534568631
 10
135.8963892088
 20
80.5882482669
 10
135.964228505
 20
80.4223732231
 10
136.0341979636
 20
80.2563915007
 10
136.10654274
 20
80.0897921964
 10
136.1821326744
 20
79.9205458638
 10
136.2613557521
 20
79.748020483
 10
136.3440476814
 20
79.5729516742
 10
136.4303186878
 20
79.3953871428
  0
LINE
  5
2F1
100
AcDbEntity
  8
0
100
AcDbLine
 62
253
  6
CONTINUOUS
 10
134.9238357748
 20
84.2180656897
 11
134.9465241008
 21
84.0605943357
  0
LINE
  5
2F2
100
AcDbEntity
  8
0
100
AcDbLine
 62
253
  6
CONTINUOUS
 10
134.9034795925
 20
84.3650840732
 11
134.9238357748
 21
84.2180656897
  0
LINE
  5
2F3
100
AcDbEntity
  8
0
100
AcDbLine
 62
253
  6
CONTINUOUS
 10
134.8855969422
 20
84.5016930367
 11
134.9034795925
 21
84.3650840732
  0
LINE
  5
2F4
100
AcDbEntity
  8
0
100
AcDbLine
 62
253
  6
CONTINUOUS
 10
134.8627375101
 20
84.6874349442
 11
134.8855969422
 21
84.5016930367
  0
LWPOLYLINE
  5
2F5
100
AcDbEntity
  8
0
100
AcDbPolyline
 62
253
  6
CONTINUOUS
 90
3
 70
0
 10
134.8438414497
 20
84.8513408866
 10
134.8496881227
 20
84.7990405915
 10
134.8627375101
 20
84.6874349442
  0
LWPOLYLINE
  5
2F6
100
AcDbEntity
  8
0
100
AcDbPolyline
 62
253
  6
CONTINUOUS
 90
8
 70
0
 10
139.9497229797
 20
62.4161283345
 10
139.9486088888
 20
62.4315538585
 10
139.948283326
 20
62.456082332
 10
139.9487493674
 20
62.4894847399
 10
139.9500026978
 20
62.5314492151
 10
139.952031651
 20
62.5815839503
 10
139.9548173188
 20
62.6394208558
 10
139.9583337271
 20
62.70441993
  0
LWPOLYLINE
  5
2F7
100
AcDbEntity
  8
0
100
AcDbPolyline
 62
253
  6
CONTINUOUS
 90
4
 70
0
 10
134.786067153
 20
85.5331267248
 10
134.7886924597
 20
85.4806565016
 10
134.7904536953
 20
85.4531903448
 10
134.7943553612
 20
85.3955165873
  0
LWPOLYLINE
  5
2F8
100
AcDbEntity
  8
RACCORDO
100
AcDbPolyline
 62
253
  6
CONTINUOUS
 90
28
 70
0
 10
133.3802421768
 20
108.6290793112
 10
133.3861950433
 20
108.4201620417
 10
133.4041584286
 20
108.2128657548
 10
133.4341323328
 20
108.0071904505
 10
133.4763100668
 20
107.8022724747
 10
133.5304983197
 20
107.5989754816
 10
133.5961171586
 20
107.3998904328
 10
133.6732847491
 20
107.2052394393
 10
133.7618829257
 20
107.0148003903
 10
133.8609772591
 20
106.8304979151
 10
133.9706295197
 20
106.6524383881
 10
134.0907779372
 20
106.4805154351
 10
134.2203027705
 20
106.3163345631
 10
134.3593088899
 20
106.159926051
 10
134.5076914251
 20
106.01125962
 10
134.6640160245
 20
105.8718499401
 10
134.8284290036
 20
105.7417556967
 10
135.0007840469
 20
105.6209182044
 10
135.1792078569
 20
105.5106760769
 10
135.3637436607
 20
105.4111791421
 10
135.5543482311
 20
105.322277572
 10
135.7490185889
 20
105.2448604965
 10
135.9477601992
 20
105.1790591204
 10
136.1505675968
 20
105.1247422388
 10
136.355421407
 20
105.0824053676
 10
136.5616485049
 20
105.0522136784
 10
136.7699220155
 20
105.0340019995
 10
136.9802419388
 20
105.0277703309
  0
LWPOLYLINE
  5
2F9
100
AcDbEntity
  8
0
100
AcDbPolyline
 62
253
  6
CONTINUOUS
 90
5
 70
0
 10
134.7802751475
 20
85.6290793112
 10
134.780483518
 20
85.6053568125
 10
134.7819393504
 20
85.5816508204
 10
134.7840878745
 20
85.5577323571
 10
134.786067153
 20
85.5331267248
  0
LINE
  5
2FA
100
AcDbEntity
  8
0
100
AcDbLine
 62
253
  6
CONTINUOUS
 10
136.9802419388
 20
116.7290793112
 11
136.9802419388
 21
116.6290793112
  0
LINE
  5
2FB
100
AcDbEntity
  8
0
100
AcDbLine
 62
253
  6
CONTINUOUS
 10
136.9802419388
 20
112.5540793112
 11
136.9802419388
 21
112.3790793112
  0
LINE
  5
2FC
100
AcDbEntity
  8
RACCORDO
100
AcDbLine
 62
253
  6
CONTINUOUS
 10
136.9802419388
 20
105.0277703309
 11
136.9802419388
 21
104.8790793112
  0
LINE
  5
2FD
100
AcDbEntity
  8
0
100
AcDbLine
 62
253
  6
CONTINUOUS
 10
136.9802419388
 20
104.7040793112
 11
136.9802419388
 21
104.8540793112
  0
LINE
  5
2FE
100
AcDbEntity
  8
RACCORDO
100
AcDbLine
 62
253
  6
CONTINUOUS
 10
136.9802419388
 20
112.2303882915
 11
136.9802419395
 21
112.3790793112
  0
LINE
  5
2FF
100
AcDbEntity
  8
0
100
AcDbLine
 62
253
  6
CONTINUOUS
 10
133.314589547
 20
107.7323543386
 11
133.3164042334
 21
107.8363176542
  0
LWPOLYLINE
  5
300
100
AcDbEntity
  8
0
100
AcDbPolyline
 62
253
  6
CONTINUOUS
 90
50
 70
0
 10
134.7255259275
 20
84.9957991856
 10
134.7229583581
 20
84.949655355
 10
134.7205179821
 20
84.901399878
 10
134.7182321903
 20
84.8510445078
 10
134.7161813811
 20
84.7983000786
 10
134.7143280053
 20
84.7431321553
 10
134.712759802
 20
84.6855644138
 10
134.7117509424
 20
84.6254000398
 10
134.7114313857
 20
84.5626154997
 10
134.7117308974
 20
84.4972370685
 10
134.7126283843
 20
84.4291464826
 10
134.7141598605
 20
84.3583147296
 10
134.7163602652
 20
84.2847713387
 10
134.7192112014
 20
84.2084830772
 10
134.7228049453
 20
84.1294513125
 10
134.7271292267
 20
84.047675189
 10
134.7320126408
 20
83.963110138
 10
134.7374158832
 20
83.8757889268
 10
134.7434686537
 20
83.7856636924
 10
134.7502591422
 20
83.6925625374
 10
134.7578240689
 20
83.5966321374
 10
134.7662302354
 20
83.4977135183
 10
134.7756280284
 20
83.3951765778
 10
134.7860959153
 20
83.2890952716
 10
134.7976951473
 20
83.1793837155
 10
134.8105838147
 20
83.0651689866
 10
134.8248406501
 20
82.9463842607
 10
134.8405828269
 20
82.8230781544
 10
134.8580660855
 20
82.6945488497
 10
134.8774191386
 20
82.5608018978
 10
134.8987665981
 20
82.4218181955
 10
134.922401525
 20
82.2768605717
 10
134.9486195429
 20
82.1251017731
 10
134.9774742466
 20
81.9673619311
 10
135.0088759074
 20
81.805386144
 10
135.0430284087
 20
81.6388814908
 10
135.0800009456
 20
81.4681627187
 10
135.1193712263
 20
81.2959050019
 10
135.1610703403
 20
81.1227114189
 10
135.2052648136
 20
80.948024965
 10
135.2517708442
 20
80.7727905451
 10
135.3004869686
 20
80.5974936495
 10
135.3515562629
 20
80.4216989764
 10
135.4051472283
 20
80.2449720139
 10
135.4611567925
 20
80.0678569573
 10
135.5197619823
 20
79.8898631016
 10
135.5816370347
 20
79.709004013
 10
135.6471152341
 20
79.524636798
 10
135.7161121846
 20
79.3374629622
 10
135.7887485059
 20
79.1475145784
  0
LINE
  5
301
100
AcDbEntity
  8
RACCORDO
100
AcDbLine
 62
7
  6
CONTINUOUS
 10
166.5802417008
 20
108.6290793112
 11
165.4802419388
 21
108.6290793112
  0
LINE
  5
302
100
AcDbEntity
  8
0
100
AcDbLine
 62
7
  6
CONTINUOUS
 10
160.4802419388
 20
108.6290793112
 11
152.4802419388
 21
108.6290793112
  0
LINE
  5
303
100
AcDbEntity
  8
0
100
AcDbLine
 62
7
  6
CONTINUOUS
 10
147.4802419388
 20
108.6290793112
 11
139.4802419388
 21
108.6290793112
  0
LINE
  5
304
100
AcDbEntity
  8
RACCORDO
100
AcDbLine
 62
7
  6
CONTINUOUS
 10
134.4802419388
 20
108.6290793112
 11
133.3802421768
 21
108.6290793112
  0
LINE
  5
305
100
AcDbEntity
  8
RACCORDO
100
AcDbLine
 62
253
  6
CONTINUOUS
 10
133.3802421768
 20
108.6290793112
 11
133.3052440298
 21
108.6292819396
  0
LINE
  5
306
100
AcDbEntity
  8
RACCORDO
100
AcDbLine
 62
253
  6
CONTINUOUS
 10
166.5802417008
 20
108.6290793112
 11
166.6552397447
 21
108.6288766804
  0
LWPOLYLINE
  5
307
100
AcDbEntity
  8
RACCORDO
100
AcDbPolyline
 62
253
  6
CONTINUOUS
 90
7
 70
0
 10
133.3052440298
 20
108.6292819396
 10
133.2612425138
 20
108.6296346843
 10
133.2503421217
 20
108.6297810179
 10
133.2416643565
 20
108.6299377422
 10
133.2353576921
 20
108.6301021749
 10
133.2315300334
 20
108.6302715036
 10
133.2302468704
 20
108.6304428311
  0
LWPOLYLINE
  5
308
100
AcDbEntity
  8
RACCORDO
100
AcDbPolyline
 62
253
  6
CONTINUOUS
 90
7
 70
0
 10
166.6552397447
 20
108.6288766804
 10
166.6992411822
 20
108.6285239355
 10
166.7101415534
 20
108.6283776022
 10
166.7188193014
 20
108.6282208783
 10
166.7251259531
 20
108.6280564462
 10
166.728953604
 20
108.6278871182
 10
166.7302367644
 20
108.6277157914
  0
LINE
  5
309
100
AcDbEntity
  8
0
100
AcDbLine
 62
253
  6
CONTINUOUS
 10
133.3067808853
 20
107.8831823666
 11
133.2804333977
 21
107.8836071192
  0
LINE
  5
30A
100
AcDbEntity
  8
0
100
AcDbLine
 62
253
  6
CONTINUOUS
 10
166.6537029263
 20
109.374976257
 11
166.6800504798
 21
109.3745515032
  0
LINE
  5
30B
100
AcDbEntity
  8
0
100
AcDbLine
 62
253
  6
CONTINUOUS
 10
139.9802419388
 20
104.8790793112
 11
139.9802419388
 21
104.8540793112
  0
LINE
  5
30C
100
AcDbEntity
  8
0
100
AcDbLine
 62
7
  6
CONTINUOUS
 10
140.1802419388
 20
104.8790793112
 11
140.1802419388
 21
104.8540793112
  0
LINE
  5
30D
100
AcDbEntity
  8
0
100
AcDbLine
 62
253
  6
CONTINUOUS
 10
140.5802419388
 20
104.8790793112
 11
140.5802419388
 21
104.8540793112
  0
LINE
  5
30E
100
AcDbEntity
  8
0
100
AcDbLine
 62
7
  6
CONTINUOUS
 10
141.2302419388
 20
104.8790793112
 11
141.2302419388
 21
104.8540793112
  0
LINE
  5
30F
100
AcDbEntity
  8
0
100
AcDbLine
 62
7
  6
CONTINUOUS
 10
139.9667142635
 20
104.8540793112
 11
139.9671506401
 21
104.8790793112
  0
LINE
  5
310
100
AcDbEntity
  8
0
100
AcDbLine
 62
7
  6
CONTINUOUS
 10
140.9287494972
 20
112.3790793112
 11
140.9291858739
 21
112.4040793112
  0
LINE
  5
311
100
AcDbEntity
  8
0
100
AcDbLine
 62
253
  6
CONTINUOUS
 10
141.2287038058
 20
112.3790793112
 11
141.2291401824
 21
112.4040793112
  0
LINE
  5
312
100
AcDbEntity
  8
0
100
AcDbLine
 62
253
  6
CONTINUOUS
 10
134.7309582853
 20
85.0821579648
 11
134.7255259275
 21
84.9957991856
  0
LINE
  5
313
100
AcDbEntity
  8
0
100
AcDbLine
 62
253
  6
CONTINUOUS
 10
134.7365794833
 20
85.1615572042
 11
134.7309582853
 21
85.0821579648
  0
LINE
  5
314
100
AcDbEntity
  8
0
100
AcDbLine
 62
253
  6
CONTINUOUS
 10
134.7422817124
 20
85.2349338307
 11
134.7365794833
 21
85.1615572042
  0
LINE
  5
315
100
AcDbEntity
  8
0
100
AcDbLine
 62
253
  6
CONTINUOUS
 10
134.7479816774
 20
85.3028832808
 11
134.7422817124
 21
85.2349338307
  0
LINE
  5
316
100
AcDbEntity
  8
0
100
AcDbLine
 62
253
  6
CONTINUOUS
 10
134.7536341034
 20
85.3662530998
 11
134.7479816774
 21
85.3028832808
  0
LINE
  5
317
100
AcDbEntity
  8
0
100
AcDbLine
 62
253
  6
CONTINUOUS
 10
134.759213789
 20
85.425631795
 11
134.7536341034
 21
85.3662530998
  0
LINE
  5
318
100
AcDbEntity
  8
0
100
AcDbLine
 62
253
  6
CONTINUOUS
 10
134.7673575135
 20
85.5076837742
 11
134.759213789
 21
85.425631795
  0
LINE
  5
319
100
AcDbEntity
  8
0
100
AcDbLine
 62
253
  6
CONTINUOUS
 10
134.7751852369
 20
85.5823667756
 11
134.7673575135
 21
85.5076837742
  0
LINE
  5
31A
100
AcDbEntity
  8
0
100
AcDbLine
 62
253
  6
CONTINUOUS
 10
134.7802756992
 20
85.6290793112
 11
134.7751852369
 21
85.5823667756
  0
LWPOLYLINE
  5
31B
100
AcDbEntity
  8
RACCORDO
100
AcDbPolyline
 62
253
  6
CONTINUOUS
 90
28
 70
0
 10
136.9802419388
 20
112.2303882915
 10
136.7700513688
 20
112.2241746195
 10
136.5618717676
 20
112.2059795893
 10
136.3557031349
 20
112.1758032011
 10
136.1508616645
 20
112.1334807142
 10
135.9480311628
 20
112.0791768691
 10
135.7492630491
 20
112.0133858877
 10
135.5545700418
 20
111.93597424
 10
135.3639394226
 20
111.847075456
 10
135.1793844555
 20
111.7475843465
 10
135.000952401
 20
111.6373515169
 10
134.8285959987
 20
111.516526362
 10
134.664186731
 20
111.386451877
 10
134.507874531
 20
111.24707494
 10
134.3595094656
 20
111.098448673
 10
134.220513218
 20
110.9420754365
 10
134.0909872482
 20
110.7779268504
 10
133.9708300962
 20
110.6060312948
 10
133.8611590649
 20
110.4279762706
 10
133.7620300595
 20
110.2436450689
 10
133.6733871748
 20
110.0531543985
 10
133.5961799979
 20
109.858441887
 10
133.5305303841
 20
109.6592757845
 10
133.4763164781
 20
109.4558878409
 10
133.4341223022
 20
109.2509109341
 10
133.4041425304
 20
109.0452226898
 10
133.3861824885
 20
108.8379454822
 10
133.3802421768
 20
108.6290793112
  0
LINE
  5
31C
100
AcDbEntity
  8
0
100
AcDbLine
 62
7
  6
CONTINUOUS
 10
164.6176363164
 20
112.0290793112
 11
164.5584113677
 21
112.0290793112
  0
LINE
  5
31D
100
AcDbEntity
  8
0
100
AcDbLine
 62
7
  6
CONTINUOUS
 10
135.4020730954
 20
112.0290793112
 11
135.3428475618
 21
112.0290793112
  0
LINE
  5
31E
100
AcDbEntity
  8
RACCORDO
100
AcDbLine
 62
253
  6
CONTINUOUS
 10
162.9802419388
 20
112.2303882915
 11
136.9802419388
 21
112.2303882915
  0
LINE
  5
31F
100
AcDbEntity
  8
RACCORDO
100
AcDbLine
 62
7
  6
CONTINUOUS
 10
162.9802419388
 20
112.3790793112
 11
136.9802419388
 21
112.3790793112
  0
LINE
  5
320
100
AcDbEntity
  8
0
100
AcDbLine
 62
7
  6
CONTINUOUS
 10
136.9802419388
 20
112.4040793112
 11
162.9802419388
 21
112.4040793112
  0
LINE
  5
321
100
AcDbEntity
  8
0
100
AcDbLine
 62
253
  6
CONTINUOUS
 10
136.9802419388
 20
112.5540793112
 11
162.9802419388
 21
112.5540793112
  0
LWPOLYLINE
  5
322
100
AcDbEntity
  8
0
100
AcDbPolyline
 62
253
  6
CONTINUOUS
 90
37
 70
0
 10
154.4800471575
 20
58.6290793112
 10
154.477516932
 20
58.6394512901
 10
154.4663769921
 20
58.649773292
 10
154.4466273378
 20
58.6600453168
 10
154.4181904829
 20
58.6702896487
 10
154.3811439137
 20
58.6804840035
 10
154.3357200886
 20
58.6905615289
 10
154.2818784427
 20
58.7005179997
 10
154.219659541
 20
58.7103576412
 10
154.1494175371
 20
58.7200262766
 10
154.0711032063
 20
58.7295238192
 10
153.9847657733
 20
58.7388503558
 10
153.8909070661
 20
58.7479519704
 10
153.7894847524
 20
58.7568272413
 10
153.6805411644
 20
58.7654775902
 10
153.5647051274
 20
58.7738533671
 10
153.4419364343
 20
58.7819530281
 10
153.3122752922
 20
58.7897781171
 10
153.1764711475
 20
58.797283616
 10
153.0344889388
 20
58.8044676566
 10
152.8863637275
 20
58.8113321071
 10
152.7329501442
 20
58.817837555
 10
152.5742187223
 20
58.8239819063
 10
152.4101989284
 20
58.8297672551
 10
152.2418337929
 20
58.8351604699
 10
152.0690986376
 20
58.84015931
 10
151.8920181406
 20
58.8447660163
 10
151.7116093668
 20
58.8489541798
 10
151.5278527475
 20
58.8527214169
 10
151.3407678515
 20
58.8560701113
 10
151.1514304497
 20
58.8589810051
 10
150.9598292701
 20
58.8614515853
 10
150.7659755847
 20
58.863484365
 10
150.5709789811
 20
58.865067625
 10
150.3752093216
 20
58.8661974587
 10
150.1782967437
 20
58.8668777727
 10
149.9802412476
 20
58.8671085669
  0
LWPOLYLINE
  5
323
100
AcDbEntity
  8
0
100
AcDbPolyline
 62
7
  6
CONTINUOUS
 90
25
 70
0
 10
144.6802419388
 20
59.430177188
 10
144.6819415097
 20
59.3778604601
 10
144.687007223
 20
59.326069975
 10
144.6954390786
 20
59.2748057328
 10
144.7073195145
 20
59.2237796573
 10
144.7225660928
 20
59.1732798246
 10
144.7409314995
 20
59.124170463
 10
144.7623840127
 20
59.0766225939
 10
144.7869553543
 20
59.0304651958
 10
144.8144933771
 20
58.9860494323
 10
144.8451188761
 20
58.9432527117
 10
144.8787110563
 20
58.9021976256
 10
144.9147553845
 20
58.8636031126
 10
144.953321361
 20
58.8275380282
 10
144.9943394854
 20
58.7939335169
 10
145.0370867235
 20
58.7633019504
 10
145.0814321117
 20
58.7357666331
 10
145.1275066136
 20
58.7112042608
 10
145.1749800854
 20
58.6897572918
 10
145.2240425635
 20
58.671388196
 10
145.2745040116
 20
58.6561345037
 10
145.3254641767
 20
58.6442512641
 10
145.3766229742
 20
58.6358234938
 10
145.4282804887
 20
58.6307661761
 10
145.48043672
 20
58.6290793112
  0
LINE
  5
324
100
AcDbEntity
  8
0
100
AcDbLine
 62
253
  6
CONTINUOUS
 10
145.7317763298
 20
112.3790793112
 11
145.7313399849
 21
112.4040793112
  0
LINE
  5
325
100
AcDbEntity
  8
0
100
AcDbLine
 62
7
  6
CONTINUOUS
 10
146.0317343803
 20
112.3790793112
 11
146.0312980037
 21
112.4040793112
  0
LINE
  5
326
100
AcDbEntity
  8
0
100
AcDbLine
 62
7
  6
CONTINUOUS
 10
142.3405223137
 20
116.7290793112
 11
142.3405223137
 21
116.7790793112
  0
LINE
  5
327
100
AcDbEntity
  8
0
100
AcDbLine
 62
7
  6
CONTINUOUS
 10
142.5411761661
 20
116.7790793112
 11
142.5411761661
 21
116.7290793112
  0
LINE
  5
328
100
AcDbEntity
  8
0
100
AcDbLine
 62
253
  6
CONTINUOUS
 10
143.1932225101
 20
116.7290793112
 11
143.1932225101
 21
116.7790793112
  0
LINE
  5
329
100
AcDbEntity
  8
0
100
AcDbLine
 62
7
  6
CONTINUOUS
 10
143.9302419388
 20
61.6391526507
 11
143.9302419388
 21
60.9077880923
  0
LINE
  5
32A
100
AcDbEntity
  8
0
100
AcDbLine
 62
7
  6
CONTINUOUS
 10
144.6802419388
 20
59.430177188
 11
144.6802419388
 21
59.9790793112
  0
LINE
  5
32B
100
AcDbEntity
  8
0
100
AcDbLine
 62
7
  6
CONTINUOUS
 10
145.2535172586
 20
116.7290793112
 11
145.2535172586
 21
116.7790793112
  0
LINE
  5
32C
100
AcDbEntity
  8
0
100
AcDbLine
 62
7
  6
CONTINUOUS
 10
145.4986709388
 20
116.7290793112
 11
145.4986709388
 21
116.7790793112
  0
LINE
  5
32D
100
AcDbEntity
  8
0
100
AcDbLine
 62
7
  6
CONTINUOUS
 10
145.7302419388
 20
104.8790793112
 11
145.7302419388
 21
104.8540793112
  0
LINE
  5
32E
100
AcDbEntity
  8
0
100
AcDbLine
 62
253
  6
CONTINUOUS
 10
139.9583337271
 20
62.70441993
 11
139.9674210615
 21
62.8534158939
  0
LWPOLYLINE
  5
32F
100
AcDbEntity
  8
0
100
AcDbPolyline
 62
253
  6
CONTINUOUS
 90
3
 70
0
 10
139.9674210615
 20
62.8534158939
 10
139.9789553383
 20
63.0230203595
 10
139.9855090087
 20
63.1135997017
  0
LINE
  5
330
100
AcDbEntity
  8
0
100
AcDbLine
 62
253
  6
CONTINUOUS
 10
139.9496880649
 20
62.4161312032
 11
139.9190521318
 21
62.0516045943
  0
LINE
  5
331
100
AcDbEntity
  8
0
100
AcDbLine
 62
253
  6
CONTINUOUS
 10
129.5802419388
 20
116.1290793112
 11
170.3802419388
 21
116.1290793112
  0
LINE
  5
332
100
AcDbEntity
  8
0
100
AcDbLine
 62
7
  6
CONTINUOUS
 10
130.0802419388
 20
116.6290793112
 11
169.8802419388
 21
116.6290793112
  0
LINE
  5
333
100
AcDbEntity
  8
0
100
AcDbLine
 62
7
  6
CONTINUOUS
 10
146.8096075931
 20
116.6790793112
 11
147.2884615847
 21
116.6790793112
  0
LINE
  5
334
100
AcDbEntity
  8
0
100
AcDbLine
 62
7
  6
CONTINUOUS
 10
147.6901669511
 20
116.6790793112
 11
148.5485570499
 21
116.6790793112
  0
LINE
  5
335
100
AcDbEntity
  8
0
100
AcDbLine
 62
7
  6
CONTINUOUS
 10
148.6319131204
 20
116.6790793112
 11
149.1364834496
 21
116.6790793112
  0
LINE
  5
336
100
AcDbEntity
  8
0
100
AcDbLine
 62
7
  6
CONTINUOUS
 10
149.1911647566
 20
116.6790793112
 11
150.0507398197
 21
116.6790793112
  0
LINE
  5
337
100
AcDbEntity
  8
0
100
AcDbLine
 62
7
  6
CONTINUOUS
 10
150.2218860217
 20
116.6790793112
 11
151.0838230439
 21
116.6790793112
  0
LINE
  5
338
100
AcDbEntity
  8
0
100
AcDbLine
 62
7
  6
CONTINUOUS
 10
151.2319131204
 20
116.6790793112
 11
152.0796621391
 21
116.6790793112
  0
LINE
  5
339
100
AcDbEntity
  8
0
100
AcDbLine
 62
7
  6
CONTINUOUS
 10
152.2437137195
 20
116.6790793112
 11
153.1508762428
 21
116.6790793112
  0
LINE
  5
33A
100
AcDbEntity
  8
0
100
AcDbLine
 62
7
  6
CONTINUOUS
 10
133.9129765963
 20
116.7290793112
 11
166.0475072813
 21
116.7290793112
  0
LINE
  5
33B
100
AcDbEntity
  8
0
100
AcDbLine
 62
7
  6
CONTINUOUS
 10
142.3405223137
 20
116.7790793112
 11
145.2535172586
 21
116.7790793112
  0
LINE
  5
33C
100
AcDbEntity
  8
0
100
AcDbLine
 62
7
  6
CONTINUOUS
 10
145.4986709388
 20
116.7790793112
 11
148.7879449388
 21
116.7790793112
  0
LINE
  5
33D
100
AcDbEntity
  8
0
100
AcDbLine
 62
7
  6
CONTINUOUS
 10
148.9190389388
 20
116.7790793112
 11
152.9752359388
 21
116.7790793112
  0
LINE
  5
33E
100
AcDbEntity
  8
0
100
AcDbLine
 62
7
  6
CONTINUOUS
 10
153.4246649388
 20
116.7790793112
 11
154.2595199388
 21
116.7790793112
  0
LINE
  5
33F
100
AcDbEntity
  8
0
100
AcDbLine
 62
7
  6
CONTINUOUS
 10
154.5693369388
 20
116.7790793112
 11
157.8585799388
 21
116.7790793112
  0
LINE
  5
340
100
AcDbEntity
  8
0
100
AcDbLine
 62
7
  6
CONTINUOUS
 10
149.4357900979
 20
104.8790793112
 11
149.4366504262
 21
104.8540793112
  0
LINE
  5
341
100
AcDbEntity
  8
0
100
AcDbLine
 62
7
  6
CONTINUOUS
 10
146.9937696141
 20
104.8540793112
 11
146.9933332375
 21
104.8790793112
  0
LINE
  5
342
100
AcDbEntity
  8
0
100
AcDbLine
 62
253
  6
CONTINUOUS
 10
146.3802419388
 20
104.8540793112
 11
146.3802419388
 21
104.8790793112
  0
LINE
  5
343
100
AcDbEntity
  8
0
100
AcDbLine
 62
7
  6
CONTINUOUS
 10
146.7258209388
 20
116.7290793112
 11
146.7258209388
 21
116.7790793112
  0
LINE
  5
344
100
AcDbEntity
  8
0
100
AcDbLine
 62
7
  6
CONTINUOUS
 10
146.7802419388
 20
104.8540793112
 11
146.7802419388
 21
104.8790793112
  0
LINE
  5
345
100
AcDbEntity
  8
0
100
AcDbLine
 62
7
  6
CONTINUOUS
 10
146.8096075931
 20
116.6290793112
 11
146.8096075931
 21
116.6790793112
  0
LINE
  5
346
100
AcDbEntity
  8
0
100
AcDbLine
 62
253
  6
CONTINUOUS
 10
146.9774001305
 20
116.6290793112
 11
146.9774001305
 21
116.6790793112
  0
LINE
  5
347
100
AcDbEntity
  8
0
100
AcDbLine
 62
253
  6
CONTINUOUS
 10
146.9802419388
 20
104.8540793112
 11
146.9802419388
 21
104.8790793112
  0
LINE
  5
348
100
AcDbEntity
  8
0
100
AcDbLine
 62
7
  6
CONTINUOUS
 10
147.1288436004
 20
116.6290793112
 11
147.1288436004
 21
116.6790793112
  0
LINE
  5
349
100
AcDbEntity
  8
0
100
AcDbLine
 62
7
  6
CONTINUOUS
 10
147.2884615847
 20
116.6290793112
 11
147.2884615847
 21
116.6790793112
  0
LINE
  5
34A
100
AcDbEntity
  8
0
100
AcDbLine
 62
7
  6
CONTINUOUS
 10
147.5334429388
 20
116.7290793112
 11
147.5334429388
 21
116.7790793112
  0
LINE
  5
34B
100
AcDbEntity
  8
0
100
AcDbLine
 62
7
  6
CONTINUOUS
 10
147.6901669511
 20
116.6290793112
 11
147.6901669511
 21
116.6790793112
  0
LINE
  5
34C
100
AcDbEntity
  8
0
100
AcDbLine
 62
253
  6
CONTINUOUS
 10
147.8158324212
 20
116.6290793112
 11
147.8158324212
 21
116.6790793112
  0
LINE
  5
34D
100
AcDbEntity
  8
0
100
AcDbLine
 62
253
  6
CONTINUOUS
 10
148.1415312597
 20
116.6290793112
 11
148.1415312597
 21
116.6790793112
  0
LINE
  5
34E
100
AcDbEntity
  8
0
100
AcDbLine
 62
253
  6
CONTINUOUS
 10
148.3506892465
 20
116.6290793112
 11
148.3506892465
 21
116.6790793112
  0
LINE
  5
34F
100
AcDbEntity
  8
0
100
AcDbLine
 62
253
  6
CONTINUOUS
 10
148.4953511029
 20
116.6290793112
 11
148.4953511029
 21
116.6790793112
  0
LINE
  5
350
100
AcDbEntity
  8
0
100
AcDbLine
 62
7
  6
CONTINUOUS
 10
148.5485570499
 20
116.6290793112
 11
148.5485570499
 21
116.6790793112
  0
LINE
  5
351
100
AcDbEntity
  8
0
100
AcDbLine
 62
7
  6
CONTINUOUS
 10
148.6319131204
 20
116.6290793112
 11
148.6319131204
 21
116.6790793112
  0
LINE
  5
352
100
AcDbEntity
  8
0
100
AcDbLine
 62
7
  6
CONTINUOUS
 10
148.760494382
 20
116.6290793112
 11
148.760494382
 21
116.6790793112
  0
LINE
  5
353
100
AcDbEntity
  8
0
100
AcDbLine
 62
7
  6
CONTINUOUS
 10
148.7879449388
 20
116.7290793112
 11
148.7879449388
 21
116.7790793112
  0
LINE
  5
354
100
AcDbEntity
  8
0
100
AcDbLine
 62
7
  6
CONTINUOUS
 10
148.9190389388
 20
116.7290793112
 11
148.9190389388
 21
116.7790793112
  0
LINE
  5
355
100
AcDbEntity
  8
0
100
AcDbLine
 62
7
  6
CONTINUOUS
 10
149.1364834496
 20
116.6290793112
 11
149.1364834496
 21
116.6790793112
  0
LINE
  5
356
100
AcDbEntity
  8
0
100
AcDbLine
 62
7
  6
CONTINUOUS
 10
149.1914630481
 20
116.6290793112
 11
149.1914630481
 21
116.6790793112
  0
LINE
  5
357
100
AcDbEntity
  8
0
100
AcDbLine
 62
7
  6
CONTINUOUS
 10
149.2930389388
 20
116.7290793112
 11
149.2930389388
 21
116.7790793112
  0
LINE
  5
358
100
AcDbEntity
  8
0
100
AcDbLine
 62
7
  6
CONTINUOUS
 10
149.3864259388
 20
81.6396273112
 11
149.3864259388
 21
81.2229623112
  0
LINE
  5
359
100
AcDbEntity
  8
0
100
AcDbLine
 62
7
  6
CONTINUOUS
 10
149.4000329388
 20
85.0187823112
 11
149.4000329388
 21
84.5998253112
  0
LINE
  5
35A
100
AcDbEntity
  8
0
100
AcDbLine
 62
7
  6
CONTINUOUS
 10
149.7555379388
 20
84.5998253112
 11
149.7555379388
 21
83.5374663112
  0
LINE
  5
35B
100
AcDbEntity
  8
0
100
AcDbLine
 62
7
  6
CONTINUOUS
 10
149.7555379388
 20
83.0257703112
 11
149.7555379388
 21
81.6396273112
  0
LINE
  5
35C
100
AcDbEntity
  8
0
100
AcDbLine
 62
7
  6
CONTINUOUS
 10
150.0507398197
 20
116.6290793112
 11
150.0507398197
 21
116.6790793112
  0
LINE
  5
35D
100
AcDbEntity
  8
0
100
AcDbLine
 62
7
  6
CONTINUOUS
 10
150.1190459388
 20
116.7290793112
 11
150.1190459388
 21
116.7790793112
  0
LINE
  5
35E
100
AcDbEntity
  8
0
100
AcDbLine
 62
7
  6
CONTINUOUS
 10
150.1994169388
 20
81.6396273112
 11
150.1994169388
 21
83.0211103112
  0
LINE
  5
35F
100
AcDbEntity
  8
0
100
AcDbLine
 62
7
  6
CONTINUOUS
 10
150.1994169388
 20
83.5374663112
 11
150.1994169388
 21
84.5998253112
  0
LINE
  5
360
100
AcDbEntity
  8
0
100
AcDbLine
 62
7
  6
CONTINUOUS
 10
150.2218860217
 20
116.6290793112
 11
150.2218860217
 21
116.6790793112
  0
LINE
  5
361
100
AcDbEntity
  8
0
100
AcDbLine
 62
253
  6
CONTINUOUS
 10
150.3493597751
 20
116.6290793112
 11
150.3493597751
 21
116.6790793112
  0
LINE
  5
362
100
AcDbEntity
  8
0
100
AcDbLine
 62
7
  6
CONTINUOUS
 10
150.5550649388
 20
84.5998253112
 11
150.5550649388
 21
85.0187823112
  0
LINE
  5
363
100
AcDbEntity
  8
0
100
AcDbLine
 62
7
  6
CONTINUOUS
 10
150.5686719388
 20
81.2229623112
 11
150.5686719388
 21
81.6396273112
  0
LINE
  5
364
100
AcDbEntity
  8
0
100
AcDbLine
 62
253
  6
CONTINUOUS
 10
149.9796697229
 20
62.3029597773
 11
149.9802419388
 21
70.7744404791
  0
LWPOLYLINE
  5
365
100
AcDbEntity
  8
0
100
AcDbPolyline
 62
253
  6
CONTINUOUS
 90
7
 70
0
 10
130.1675137956
 20
116.5620920487
 10
130.2059862802
 20
116.5822332403
 10
130.2460578674
 20
116.5989256511
 10
130.2874235882
 20
116.6120422447
 10
130.3297686244
 20
116.6214831985
 10
130.372770704
 20
116.6271766634
 10
130.4161025552
 20
116.6290793112
  0
LINE
  5
366
100
AcDbEntity
  8
0
100
AcDbLine
 62
253
  6
CONTINUOUS
 10
160.0107957082
 20
62.4161311946
 11
160.0414317457
 21
62.0516045943
  0
LINE
  5
367
100
AcDbEntity
  8
0
100
AcDbLine
 62
253
  6
CONTINUOUS
 10
150.6395531246
 20
116.6290793112
 11
150.6395531246
 21
116.6790793112
  0
LINE
  5
368
100
AcDbEntity
  8
0
100
AcDbLine
 62
7
  6
CONTINUOUS
 10
150.9539009388
 20
116.7290793112
 11
150.9539009388
 21
116.7790793112
  0
LINE
  5
369
100
AcDbEntity
  8
0
100
AcDbLine
 62
253
  6
CONTINUOUS
 10
150.9813087368
 20
116.6290793112
 11
150.9813087368
 21
116.6790793112
  0
LINE
  5
36A
100
AcDbEntity
  8
0
100
AcDbLine
 62
7
  6
CONTINUOUS
 10
151.0838230439
 20
116.6290793112
 11
151.0838230439
 21
116.6790793112
  0
LINE
  5
36B
100
AcDbEntity
  8
0
100
AcDbLine
 62
7
  6
CONTINUOUS
 10
151.2319131204
 20
116.6290793112
 11
151.2319131204
 21
116.6790793112
  0
LINE
  5
36C
100
AcDbEntity
  8
0
100
AcDbLine
 62
253
  6
CONTINUOUS
 10
151.3601673317
 20
116.6290793112
 11
151.3601673317
 21
116.6790793112
  0
LINE
  5
36D
100
AcDbEntity
  8
0
100
AcDbLine
 62
253
  6
CONTINUOUS
 10
151.6557877847
 20
116.6290793112
 11
151.6557877847
 21
116.6790793112
  0
LINE
  5
36E
100
AcDbEntity
  8
0
100
AcDbLine
 62
7
  6
CONTINUOUS
 10
151.7799379388
 20
116.7290793112
 11
151.7799379388
 21
116.7790793112
  0
LINE
  5
36F
100
AcDbEntity
  8
0
100
AcDbLine
 62
253
  6
CONTINUOUS
 10
151.8916674988
 20
116.6290793112
 11
151.8916674988
 21
116.6790793112
  0
LINE
  5
370
100
AcDbEntity
  8
0
100
AcDbLine
 62
253
  6
CONTINUOUS
 10
152.0322646434
 20
116.6290793112
 11
152.0322646434
 21
116.6790793112
  0
LINE
  5
371
100
AcDbEntity
  8
0
100
AcDbLine
 62
7
  6
CONTINUOUS
 10
152.0796621391
 20
116.6290793112
 11
152.0796621391
 21
116.6790793112
  0
LINE
  5
372
100
AcDbEntity
  8
0
100
AcDbLine
 62
7
  6
CONTINUOUS
 10
152.2437137195
 20
116.6290793112
 11
152.2437137195
 21
116.6790793112
  0
LINE
  5
373
100
AcDbEntity
  8
0
100
AcDbLine
 62
253
  6
CONTINUOUS
 10
152.36786123
 20
116.6290793112
 11
152.36786123
 21
116.6790793112
  0
LINE
  5
374
100
AcDbEntity
  8
0
100
AcDbLine
 62
253
  6
CONTINUOUS
 10
152.4751601764
 20
116.6290793112
 11
152.4751601764
 21
116.6790793112
  0
LINE
  5
375
100
AcDbEntity
  8
0
100
AcDbLine
 62
7
  6
CONTINUOUS
 10
152.6141039388
 20
116.7290793112
 11
152.6141039388
 21
116.7790793112
  0
LINE
  5
376
100
AcDbEntity
  8
0
100
AcDbLine
 62
253
  6
CONTINUOUS
 10
152.6496865926
 20
116.6290793112
 11
152.6496865926
 21
116.6790793112
  0
LINE
  5
377
100
AcDbEntity
  8
0
100
AcDbLine
 62
253
  6
CONTINUOUS
 10
152.8031518909
 20
116.6290793112
 11
152.8031518909
 21
116.6790793112
  0
LINE
  5
378
100
AcDbEntity
  8
0
100
AcDbLine
 62
253
  6
CONTINUOUS
 10
152.9052417823
 20
116.6290793112
 11
152.9052417823
 21
116.6790793112
  0
LINE
  5
379
100
AcDbEntity
  8
0
100
AcDbLine
 62
7
  6
CONTINUOUS
 10
152.9752359388
 20
116.7290793112
 11
152.9752359388
 21
116.7790793112
  0
LINE
  5
37A
100
AcDbEntity
  8
0
100
AcDbLine
 62
253
  6
CONTINUOUS
 10
152.9802419388
 20
104.8790793112
 11
152.9802419388
 21
104.8540793112
  0
LINE
  5
37B
100
AcDbEntity
  8
0
100
AcDbLine
 62
253
  6
CONTINUOUS
 10
153.0355968475
 20
116.6290793112
 11
153.0355968475
 21
116.6790793112
  0
LINE
  5
37C
100
AcDbEntity
  8
0
100
AcDbLine
 62
7
  6
CONTINUOUS
 10
153.1508762428
 20
116.6290793112
 11
153.1508762428
 21
116.6790793112
  0
LINE
  5
37D
100
AcDbEntity
  8
0
100
AcDbLine
 62
7
  6
CONTINUOUS
 10
153.1802419388
 20
104.8790793112
 11
153.1802419388
 21
104.8540793112
  0
LINE
  5
37E
100
AcDbEntity
  8
0
100
AcDbLine
 62
7
  6
CONTINUOUS
 10
153.4246649388
 20
116.7290793112
 11
153.4246649388
 21
116.7790793112
  0
LINE
  5
37F
100
AcDbEntity
  8
0
100
AcDbLine
 62
253
  6
CONTINUOUS
 10
153.5802419388
 20
104.8790793112
 11
153.5802419388
 21
104.8540793112
  0
LINE
  5
380
100
AcDbEntity
  8
0
100
AcDbLine
 62
7
  6
CONTINUOUS
 10
154.2302419388
 20
104.8790793112
 11
154.2302419388
 21
104.8540793112
  0
LINE
  5
381
100
AcDbEntity
  8
0
100
AcDbLine
 62
7
  6
CONTINUOUS
 10
154.2595199388
 20
116.7290793112
 11
154.2595199388
 21
116.7790793112
  0
LINE
  5
382
100
AcDbEntity
  8
0
100
AcDbLine
 62
7
  6
CONTINUOUS
 10
154.5693369388
 20
116.7290793112
 11
154.5693369388
 21
116.7790793112
  0
LWPOLYLINE
  5
383
100
AcDbEntity
  8
0
100
AcDbPolyline
 62
253
  6
CONTINUOUS
 90
5
 70
0
 10
149.9780471301
 20
62.004205055
 10
149.9782662455
 20
62.0175290904
 10
149.9784838653
 20
62.0381527232
 10
149.9786983692
 20
62.0659224032
 10
149.9796697229
 20
62.3029597773
  0
LINE
  5
384
100
AcDbEntity
  8
0
100
AcDbLine
 62
7
  6
CONTINUOUS
 10
152.9667142635
 20
104.8540793112
 11
152.9671506401
 21
104.8790793112
  0
LINE
  5
385
100
AcDbEntity
  8
0
100
AcDbLine
 62
7
  6
CONTINUOUS
 10
153.9287494972
 20
112.3790793112
 11
153.9291858739
 21
112.4040793112
  0
LINE
  5
386
100
AcDbEntity
  8
0
100
AcDbLine
 62
253
  6
CONTINUOUS
 10
154.2287038058
 20
112.3790793112
 11
154.2291401824
 21
112.4040793112
  0
LINE
  5
387
100
AcDbEntity
  8
0
100
AcDbLine
 62
7
  6
CONTINUOUS
 10
150.5238333667
 20
104.8540793112
 11
150.5246935955
 21
104.8790793112
  0
LWPOLYLINE
  5
388
100
AcDbEntity
  8
0
100
AcDbPolyline
 62
253
  6
CONTINUOUS
 90
7
 70
0
 10
169.7929701433
 20
116.5620920131
 10
169.7544976731
 20
116.5822332047
 10
169.7144260907
 20
116.5989256216
 10
169.6730603649
 20
116.6120422244
 10
169.6307153138
 20
116.6214831877
 10
169.587713209
 20
116.6271766603
 10
169.5443813223
 20
116.6290793112
  0
LINE
  5
389
100
AcDbEntity
  8
0
100
AcDbLine
 62
253
  6
CONTINUOUS
 10
159.9875744853
 20
62.9360225074
 11
159.9749747132
 21
63.1136006577
  0
LINE
  5
38A
100
AcDbEntity
  8
0
100
AcDbLine
 62
253
  6
CONTINUOUS
 10
158.7317763298
 20
112.3790793112
 11
158.7313399849
 21
112.4040793112
  0
LINE
  5
38B
100
AcDbEntity
  8
0
100
AcDbLine
 62
7
  6
CONTINUOUS
 10
159.0317343803
 20
112.3790793112
 11
159.0312980037
 21
112.4040793112
  0
LINE
  5
38C
100
AcDbEntity
  8
0
100
AcDbLine
 62
7
  6
CONTINUOUS
 10
155.2802419388
 20
59.430177188
 11
155.2802419388
 21
59.9790793112
  0
LINE
  5
38D
100
AcDbEntity
  8
0
100
AcDbLine
 62
7
  6
CONTINUOUS
 10
155.4036219388
 20
116.7290793112
 11
155.4036219388
 21
116.7790793112
  0
LINE
  5
38E
100
AcDbEntity
  8
0
100
AcDbLine
 62
7
  6
CONTINUOUS
 10
156.0302419388
 20
60.9077880923
 11
156.0302419388
 21
61.6391526507
  0
LINE
  5
38F
100
AcDbEntity
  8
0
100
AcDbLine
 62
7
  6
CONTINUOUS
 10
156.1892899388
 20
116.7290793112
 11
156.1892899388
 21
116.7790793112
  0
LINE
  5
390
100
AcDbEntity
  8
0
100
AcDbLine
 62
7
  6
CONTINUOUS
 10
156.9516699388
 20
116.7290793112
 11
156.9516699388
 21
116.7790793112
  0
LINE
  5
391
100
AcDbEntity
  8
0
100
AcDbLine
 62
7
  6
CONTINUOUS
 10
157.8585799388
 20
116.7290793112
 11
157.8585799388
 21
116.7790793112
  0
LINE
  5
392
100
AcDbEntity
  8
0
100
AcDbLine
 62
7
  6
CONTINUOUS
 10
158.7302419388
 20
104.8790793112
 11
158.7302419388
 21
104.8540793112
  0
LINE
  5
393
100
AcDbEntity
  8
0
100
AcDbLine
 62
253
  6
CONTINUOUS
 10
159.3802419388
 20
104.8540793112
 11
159.3802419388
 21
104.8790793112
  0
LINE
  5
394
100
AcDbEntity
  8
0
100
AcDbLine
 62
253
  6
CONTINUOUS
 10
165.1876158748
 20
85.5606334947
 11
165.1802093493
 21
85.6290689093
  0
LINE
  5
395
100
AcDbEntity
  8
0
100
AcDbLine
 62
253
  6
CONTINUOUS
 10
165.1954503876
 20
85.4847589558
 11
165.1876158748
 21
85.5606334947
  0
LINE
  5
396
100
AcDbEntity
  8
0
100
AcDbLine
 62
253
  6
CONTINUOUS
 10
165.2016780637
 20
85.4213793541
 11
165.1954503876
 21
85.4847589558
  0
LINE
  5
397
100
AcDbEntity
  8
0
100
AcDbLine
 62
253
  6
CONTINUOUS
 10
165.2081188229
 20
85.3523406122
 11
165.2016780637
 21
85.4213793541
  0
LINE
  5
398
100
AcDbEntity
  8
0
100
AcDbLine
 62
253
  6
CONTINUOUS
 10
165.2147847809
 20
85.2762207751
 11
165.2081188229
 21
85.3523406122
  0
LINE
  5
399
100
AcDbEntity
  8
0
100
AcDbLine
 62
253
  6
CONTINUOUS
 10
165.2193581775
 20
85.2205066951
 11
165.2147847809
 21
85.2762207751
  0
LINE
  5
39A
100
AcDbEntity
  8
0
100
AcDbLine
 62
253
  6
CONTINUOUS
 10
165.2240066244
 20
85.160190738
 11
165.2193581775
 21
85.2205066951
  0
LINE
  5
39B
100
AcDbEntity
  8
0
100
AcDbLine
 62
253
  6
CONTINUOUS
 10
165.2286932565
 20
85.0944969822
 11
165.2240066244
 21
85.160190738
  0
LINE
  5
39C
100
AcDbEntity
  8
0
100
AcDbLine
 62
7
  6
CONTINUOUS
 10
159.9937696141
 20
104.8540793112
 11
159.9933332375
 21
104.8790793112
  0
LINE
  5
39D
100
AcDbEntity
  8
0
100
AcDbLine
 62
7
  6
CONTINUOUS
 10
159.7802419388
 20
104.8540793112
 11
159.7802419388
 21
104.8790793112
  0
LINE
  5
39E
100
AcDbEntity
  8
0
100
AcDbLine
 62
253
  6
CONTINUOUS
 10
159.9802419388
 20
104.8540793112
 11
159.9802419388
 21
104.8790793112
  0
LINE
  5
39F
100
AcDbEntity
  8
0
100
AcDbLine
 62
253
  6
CONTINUOUS
 10
162.9802419388
 20
116.7290793112
 11
162.9802419388
 21
116.6290793112
  0
LINE
  5
3A0
100
AcDbEntity
  8
0
100
AcDbLine
 62
253
  6
CONTINUOUS
 10
162.9802419388
 20
112.5540793112
 11
162.9802419388
 21
112.3790793112
  0
LINE
  5
3A1
100
AcDbEntity
  8
0
100
AcDbLine
 62
253
  6
CONTINUOUS
 10
162.9802419388
 20
104.7040793112
 11
162.9802419388
 21
104.8540793112
  0
LINE
  5
3A2
100
AcDbEntity
  8
RACCORDO
100
AcDbLine
 62
253
  6
CONTINUOUS
 10
162.9802419388
 20
112.2303882915
 11
162.9802419388
 21
112.3790793112
  0
LINE
  5
3A3
100
AcDbEntity
  8
RACCORDO
100
AcDbLine
 62
253
  6
CONTINUOUS
 10
162.9802419388
 20
105.0277703309
 11
162.9802419381
 21
104.8790793112
  0
LWPOLYLINE
  5
3A4
100
AcDbEntity
  8
RACCORDO
100
AcDbPolyline
 62
253
  6
CONTINUOUS
 90
28
 70
0
 10
166.5802417008
 20
108.6290793112
 10
166.5742905247
 20
108.8379877353
 10
166.5563280166
 20
109.0452790734
 10
166.5263541766
 20
109.2509533255
 10
166.4841754299
 20
109.4558759476
 10
166.4299853513
 20
109.6591814837
 10
166.3643646649
 20
109.8582735657
 10
166.2871951847
 20
110.0529282775
 10
166.1985950968
 20
110.2433695353
 10
166.099499683
 20
110.4276727198
 10
165.9898476613
 20
110.6057309038
 10
165.8697003138
 20
110.7776510145
 10
165.7401767686
 20
110.9418292141
 10
165.6011722007
 20
111.098235633
 10
165.4527914352
 20
111.2469001407
 10
165.2964680751
 20
111.3863085087
 10
165.1320554404
 20
111.5164023826
 10
164.959700211
 20
111.6372401168
 10
164.7812760302
 20
111.7474825454
 10
164.5967396499
 20
111.8469797174
 10
164.406134318
 20
111.9358815838
 10
164.2114634224
 20
112.0132988323
 10
164.0127216492
 20
112.0791001524
 10
163.8099143123
 20
112.1334168546
 10
163.6050607399
 20
112.1757535577
 10
163.3988340416
 20
112.2059451347
 10
163.1905611079
 20
112.2241567127
 10
162.9802419388
 20
112.2303882915
  0
LINE
  5
3A5
100
AcDbEntity
  8
0
100
AcDbLine
 62
253
  6
CONTINUOUS
 10
166.6458943305
 20
109.5258042838
 11
166.6440796256
 21
109.4218399111
  0
LWPOLYLINE
  5
3A6
100
AcDbEntity
  8
0
100
AcDbPolyline
 62
253
  6
CONTINUOUS
 90
6
 70
0
 10
165.1744166764
 20
85.5235670423
 10
165.1761677842
 20
85.5605709382
 10
165.1775239697
 20
85.5780126822
 10
165.1790141178
 20
85.5950637028
 10
165.1800389098
 20
85.6120307437
 10
165.1802086781
 20
85.6290793112
  0
LINE
  5
3A7
100
AcDbEntity
  8
0
100
AcDbLine
 62
253
  6
CONTINUOUS
 10
165.1707005876
 20
85.4635313854
 11
165.1744166764
 21
85.5235670423
  0
LINE
  5
3A8
100
AcDbEntity
  8
0
100
AcDbLine
 62
253
  6
CONTINUOUS
 10
165.1663107457
 20
85.3981242698
 11
165.1707005876
 21
85.4635313854
  0
LWPOLYLINE
  5
3A9
100
AcDbEntity
  8
0
100
AcDbPolyline
 62
253
  6
CONTINUOUS
 90
10
 70
0
 10
160.0107609654
 20
62.416127531
 10
160.011874044
 20
62.43155331
 10
160.0121987221
 20
62.4560820181
 10
160.0117319469
 20
62.48948464
 10
160.0104780542
 20
62.5314493085
 10
160.0084487276
 20
62.5815842162
 10
160.0056628894
 20
62.6394212741
 10
160.0021465235
 20
62.7044204811
 10
159.997932433
 20
62.7759749665
 10
159.9875744853
 20
62.9360225074
  0
LINE
  5
3AA
100
AcDbEntity
  8
0
100
AcDbLine
 62
253
  6
CONTINUOUS
 10
165.1611244348
 20
85.3267960811
 11
165.1663107457
 21
85.3981242698
  0
LINE
  5
3AB
100
AcDbEntity
  8
0
100
AcDbLine
 62
253
  6
CONTINUOUS
 10
165.1549049342
 20
85.2478023913
 11
165.1611244348
 21
85.3267960811
  0
LINE
  5
3AC
100
AcDbEntity
  8
0
100
AcDbLine
 62
253
  6
CONTINUOUS
 10
165.150036819
 20
85.1899268137
 11
165.1549049342
 21
85.2478023913
  0
LINE
  5
3AD
100
AcDbEntity
  8
0
100
AcDbLine
 62
253
  6
CONTINUOUS
 10
165.1444553535
 20
85.1270027967
 11
165.150036819
 21
85.1899268137
  0
LINE
  5
3AE
100
AcDbEntity
  8
0
100
AcDbLine
 62
253
  6
CONTINUOUS
 10
165.1380487017
 20
85.0585487946
 11
165.1444553535
 21
85.1270027967
  0
LWPOLYLINE
  5
3AF
100
AcDbEntity
  8
0
100
AcDbPolyline
 62
253
  6
CONTINUOUS
 90
13
 70
0
 10
170.0415589642
 20
116.1290793112
 10
170.0396670532
 20
116.1726571826
 10
170.0340057187
 20
116.2159034
 10
170.0246180469
 20
116.2584888338
 10
170.0115754836
 20
116.3000893829
 10
169.9949772907
 20
116.3403884421
 10
169.9749497904
 20
116.3790793112
 10
169.9516454041
 20
116.4158675294
 10
169.9252414921
 20
116.4504731161
 10
169.8959390044
 20
116.4826327018
 10
169.8639609504
 20
116.5121015328
 10
169.8295507024
 20
116.5386553334
 10
169.7929701433
 20
116.5620920131
  0
LINE
  5
3B0
100
AcDbEntity
  8
0
100
AcDbLine
 62
253
  6
CONTINUOUS
 10
169.0472036805
 20
89.8290793112
 11
169.0472036805
 21
116.6290793112
  0
LINE
  5
3B1
100
AcDbEntity
  8
0
100
AcDbLine
 62
253
  6
CONTINUOUS
 10
170.0415589642
 20
89.8290793112
 11
170.0415589642
 21
116.1290793112
  0
LINE
  5
3B2
100
AcDbEntity
  8
0
100
AcDbLine
 62
7
  6
CONTINUOUS
 10
170.3802419388
 20
116.1290793112
 11
170.3802419388
 21
89.8290793112
  0
LINE
  5
3B3
100
AcDbEntity
  8
0
100
AcDbLine
 62
253
  6
CONTINUOUS
 10
165.1306465077
 20
84.9836876231
 11
165.1380487017
 21
85.0585487946
  0
LINE
  5
3B4
100
AcDbEntity
  8
0
100
AcDbLine
 62
253
  6
CONTINUOUS
 10
165.1222141113
 20
84.9026312468
 11
165.1306465077
 21
84.9836876231
  0
LINE
  5
3B5
100
AcDbEntity
  8
0
100
AcDbLine
 62
253
  6
CONTINUOUS
 10
165.1126680063
 20
84.8153925027
 11
165.1222141113
 21
84.9026312468
  0
LINE
  5
3B6
100
AcDbEntity
  8
0
100
AcDbLine
 62
253
  6
CONTINUOUS
 10
165.1018699029
 20
84.7222112362
 11
165.1126680063
 21
84.8153925027
  0
LINE
  5
3B7
100
AcDbEntity
  8
0
100
AcDbLine
 62
253
  6
CONTINUOUS
 10
165.0832860274
 20
84.5686600611
 11
165.1018699029
 21
84.7222112362
  0
LINE
  5
3B8
100
AcDbEntity
  8
0
100
AcDbLine
 62
253
  6
CONTINUOUS
 10
165.0689255853
 20
84.4557625447
 11
165.0832860274
 21
84.5686600611
  0
LWPOLYLINE
  5
3B9
100
AcDbEntity
  8
0
100
AcDbPolyline
 62
7
  6
CONTINUOUS
 90
7
 70
0
 10
165.1802063381
 20
85.6290689093
 10
165.1096917109
 20
85.2779200181
 10
165.0311767778
 20
84.9288998784
 10
164.9446615389
 20
84.5820084902
 10
164.8501459943
 20
84.2372458536
 10
164.7476301439
 20
83.8946119685
 10
164.6371139877
 20
83.5541068349
  0
LINE
  5
3BA
100
AcDbEntity
  8
0
100
AcDbLine
 62
7
  6
CONTINUOUS
 10
149.0155659388
 20
81.4103383112
 11
149.2073629388
 21
81.7520573112
  0
LWPOLYLINE
  5
3BB
100
AcDbEntity
  8
0
100
AcDbPolyline
 62
253
  6
CONTINUOUS
 90
13
 70
0
 10
167.4283354092
 20
76.3365990105
 10
167.6394661415
 20
77.2436240066
 10
167.8295503714
 20
78.1244062662
 10
167.9998049027
 20
78.9792454215
 10
168.1510058774
 20
79.8077858247
 10
168.284918971
 20
80.6109829128
 10
168.4041523214
 20
81.3913241713
 10
168.5103858634
 20
82.1500786698
 10
168.6042330147
 20
82.887139835
 10
168.6865800452
 20
83.6030813519
 10
168.7584819783
 20
84.2984022373
 10
168.8211653478
 20
84.9735818728
 10
168.8757517748
 20
85.6291038955
  0
LWPOLYLINE
  5
3BC
100
AcDbEntity
  8
0
100
AcDbPolyline
 62
253
  6
CONTINUOUS
 90
10
 70
0
 10
132.5321484684
 20
76.3365990105
 10
132.8945644785
 20
76.6429035923
 10
133.2568879976
 20
76.9510574888
 10
133.6191190258
 20
77.2609317656
 10
133.9813247622
 20
77.5724556272
 10
134.3434380078
 20
77.8854431356
 10
134.7052571646
 20
78.1995904654
 10
135.0667150337
 20
78.5147086536
 10
135.4278788141
 20
78.830726343
 10
135.7887485059
 20
79.1475145784
  0
LWPOLYLINE
  5
3BD
100
AcDbEntity
  8
0
100
AcDbPolyline
 62
253
  6
CONTINUOUS
 90
13
 70
0
 10
168.2047500012
 20
76.1065299195
 10
168.4447563785
 20
77.019535057
 10
168.6618190202
 20
77.9090778775
 10
168.8573108724
 20
78.7745314799
 10
169.0323040937
 20
79.6138489992
 10
169.1884309377
 20
80.4279870316
 10
169.3276490324
 20
81.2209437309
 10
169.4511000984
 20
81.9930741932
 10
169.5596909607
 20
82.7432969291
 10
169.6546845273
 20
83.4735625765
 10
169.7370395649
 20
84.1843584354
 10
169.8075180386
 20
84.8746915898
 10
169.8669582409
 20
85.5443479693
  0
LWPOLYLINE
  5
3BE
100
AcDbEntity
  8
0
100
AcDbPolyline
 62
253
  6
CONTINUOUS
 90
55
 70
0
 10
164.1717349775
 20
79.147514925
 10
164.2466206847
 20
79.3434582627
 10
164.3175658674
 20
79.5362531895
 10
164.3847101694
 20
79.7258640974
 10
164.4479326959
 20
79.91141555
 10
164.5076438026
 20
80.0937182679
 10
164.5646862088
 20
80.2752688215
 10
164.6193451486
 20
80.4569442644
 10
164.6713943004
 20
80.6378100947
 10
164.7208258656
 20
80.8176463903
 10
164.7678746576
 20
80.9971942475
 10
164.81237862
 20
81.1756585919
 10
164.8538249663
 20
81.350519581
 10
164.892297278
 20
81.5216637321
 10
164.9279627475
 20
81.6891639538
 10
164.9605830906
 20
81.8507942708
 10
164.9902068555
 20
82.0058226772
 10
165.0171551747
 20
82.1549714564
 10
165.0416574759
 20
82.2982112356
 10
165.063829336
 20
82.435215767
 10
165.0838723009
 20
82.5663193551
 10
165.1021097337
 20
82.6924892733
 10
165.1186702911
 20
82.813784789
 10
165.1336500696
 20
82.9301604116
 10
165.1472750375
 20
83.0424257911
 10
165.1596362751
 20
83.1506358501
 10
165.170809951
 20
83.2547492512
 10
165.1809642431
 20
83.3554298679
 10
165.1901864495
 20
83.4527903486
 10
165.1985143888
 20
83.5467312477
 10
165.2060196672
 20
83.6375963112
 10
165.2127366091
 20
83.7254264005
 10
165.2187333352
 20
83.8101908388
 10
165.2241197669
 20
83.8921257102
 10
165.2289833286
 20
83.9712648312
 10
165.2333223202
 20
84.0475876789
 10
165.2371047473
 20
84.1212470004
 10
165.2403761743
 20
84.1922440485
 10
165.2431640696
 20
84.2605847868
 10
165.2454027494
 20
84.3264233914
 10
165.2471184966
 20
84.3897487501
 10
165.2483462193
 20
84.450573654
 10
165.2490267749
 20
84.5090828621
 10
165.2491215608
 20
84.565227135
 10
165.2487193118
 20
84.6190533324
 10
165.2479447577
 20
84.6708895888
 10
165.2468081098
 20
84.7207211897
 10
165.2453375422
 20
84.768565295
 10
165.2436770941
 20
84.8148007121
 10
165.2418720726
 20
84.8595550744
 10
165.2399046412
 20
84.9027066646
 10
165.237820157
 20
84.9442621543
 10
165.2356277416
 20
84.9842293779
 10
165.2333437165
 20
85.0226070297
 10
165.2286932565
 20
85.0944969822
  0
LWPOLYLINE
  5
3BF
100
AcDbEntity
  8
0
100
AcDbPolyline
 62
253
  6
CONTINUOUS
 90
40
 70
0
 10
163.5301642654
 20
79.395387203
 10
163.6191229648
 20
79.5785512259
 10
163.7041894634
 20
79.7588842076
 10
163.7854913452
 20
79.9363303366
 10
163.8628114797
 20
80.1099795737
 10
163.9366269435
 20
80.2806196421
 10
164.0080190949
 20
80.4507766511
 10
164.0773777097
 20
80.6213338108
 10
164.1443509951
 20
80.7913638202
 10
164.2088362611
 20
80.960702268
 10
164.2711235931
 20
81.1300122441
 10
164.3309875618
 20
81.2985690279
 10
164.3876444093
 20
81.4640786832
 10
164.441159103
 20
81.6263508414
 10
164.4917012029
 20
81.7854215143
 10
164.5387833205
 20
81.9392738364
 10
164.5823766564
 20
82.08713534
 10
164.6228594165
 20
82.2296051081
 10
164.6604082083
 20
82.366709683
 10
164.6950944629
 20
82.4980723387
 10
164.7271536085
 20
82.6239392083
 10
164.7569738826
 20
82.745286525
 10
164.784682687
 20
82.8621296972
 10
164.8103785343
 20
82.9743664578
 10
164.8343568938
 20
83.082813689
 10
164.8567153055
 20
83.1874982246
 10
164.8775258317
 20
83.2883341455
 10
164.8970089812
 20
83.3859808679
 10
164.9152542551
 20
83.4805241124
 10
164.9322976738
 20
83.571838824
 10
164.9482573984
 20
83.6602742574
 10
164.9631843789
 20
83.7458554539
 10
164.9771324143
 20
83.8285265533
 10
164.9902098645
 20
83.9085202002
 10
165.0024798065
 20
83.9858515896
 10
165.0139597973
 20
84.0604881358
 10
165.0246834162
 20
84.1325915476
 10
165.0346370168
 20
84.2021591786
 10
165.0439154044
 20
84.2691707196
 10
165.0689255853
 20
84.4557625447
  0
LINE
  5
3C0
100
AcDbEntity
  8
0
100
AcDbLine
 62
7
  6
CONTINUOUS
 10
151.3714909388
 20
84.5251793112
 11
150.1994169388
 21
83.5374663112
  0
LINE
  5
3C1
100
AcDbEntity
  8
0
100
AcDbLine
 62
7
  6
CONTINUOUS
 10
150.1994169388
 20
83.0211103112
 11
151.3197779388
 21
83.9652463112
  0
LWPOLYLINE
  5
3C2
100
AcDbEntity
  8
0
100
AcDbPolyline
 62
253
  6
CONTINUOUS
 90
36
 70
0
 10
165.1168592027
 20
69.3755144786
 10
165.1657486875
 20
69.4917037603
 10
165.215789668
 20
69.61154291
 10
165.2669577258
 20
69.7350407467
 10
165.3192219126
 20
69.8621989261
 10
165.3727035203
 20
69.9934329122
 10
165.4273936657
 20
70.1288049442
 10
165.4832330416
 20
70.2682644321
 10
165.5402607749
 20
70.412057792
 10
165.5984654558
 20
70.5602560255
 10
165.6577799281
 20
70.7127991303
 10
165.7181559431
 20
70.869736052
 10
165.7795210629
 20
71.0309885322
 10
165.841862039
 20
71.1966438314
 10
165.905214574
 20
71.366997951
 10
165.9695129639
 20
71.542004923
 10
166.0347230044
 20
71.721718174
 10
166.1009180141
 20
71.9065818293
 10
166.1680256467
 20
72.0965546999
 10
166.2359984091
 20
72.2916835919
 10
166.3049327922
 20
72.4925434763
 10
166.3747380167
 20
72.6990715578
 10
166.4453588761
 20
72.9113332964
 10
166.5169253184
 20
73.1300943457
 10
166.5893472806
 20
73.3553433171
 10
166.6625321141
 20
73.5870897706
 10
166.7365805485
 20
73.8261278207
 10
166.8113812934
 20
74.0724446674
 10
166.886819588
 20
74.3260431384
 10
166.9629612467
 20
74.5877360574
 10
167.0396643184
 20
74.8574971467
 10
167.1167910353
 20
75.1353310636
 10
167.1943781098
 20
75.4220905961
 10
167.2723155535
 20
75.7180465703
 10
167.3503628212
 20
76.0228901493
 10
167.4283354092
 20
76.3365990105
  0
LWPOLYLINE
  5
3C3
100
AcDbEntity
  8
0
100
AcDbPolyline
 62
253
  6
CONTINUOUS
 90
34
 70
0
 10
165.8610881471
 20
69.3337925914
 10
165.9136774394
 20
69.4584435984
 10
165.9674318153
 20
69.5867818206
 10
166.0224865147
 20
69.7192108973
 10
166.0788329905
 20
69.8558022544
 10
166.1364130814
 20
69.996509788
 10
166.1952810676
 20
70.1415632653
 10
166.2554264281
 20
70.2910448923
 10
166.3167825135
 20
70.4449006721
 10
166.3793156745
 20
70.6031572211
 10
166.4429527258
 20
70.7657478742
 10
166.5076833481
 20
70.9327683508
 10
166.5735636792
 20
71.1044901789
 10
166.640528104
 20
71.2808825482
 10
166.7085457377
 20
71.4620083491
 10
166.7777157863
 20
71.6482825771
 10
166.8479669415
 20
71.83968321
 10
166.9192563728
 20
72.0362684622
 10
166.9917130001
 20
72.238577825
 10
167.0652479702
 20
72.4465730062
 10
167.1398130564
 20
72.6603336098
 10
167.2155799157
 20
72.8805816029
 10
167.2924637353
 20
73.107337841
 10
167.3703802373
 20
73.3406297756
 10
167.449479055
 20
73.5811959721
 10
167.5296584186
 20
73.8290648092
 10
167.6108139068
 20
74.0842631122
 10
167.693065523
 20
74.3475340583
 10
167.7762881128
 20
74.6189021534
 10
167.8603577992
 20
74.8984045476
 10
167.9453675057
 20
75.1868105123
 10
168.0312428995
 20
75.4844007273
 10
168.1177560102
 20
75.7909628794
 10
168.2047500012
 20
76.1065299195
  0
LINE
  5
3C4
100
AcDbEntity
  8
0
100
AcDbLine
 62
253
  6
CONTINUOUS
 10
165.0221421416
 20
69.1528034803
 11
165.1168592027
 21
69.3755144786
  0
LINE
  5
3C5
100
AcDbEntity
  8
0
100
AcDbLine
 62
253
  6
CONTINUOUS
 10
165.7595191706
 20
69.0955201759
 11
165.8610881471
 21
69.3337925914
  0
LINE
  5
3C6
100
AcDbEntity
  8
0
100
AcDbLine
 62
253
  6
CONTINUOUS
 10
164.9314860112
 20
68.9425380685
 11
165.0221421416
 21
69.1528034803
  0
LINE
  5
3C7
100
AcDbEntity
  8
0
100
AcDbLine
 62
253
  6
CONTINUOUS
 10
165.6623999747
 20
68.8706522783
 11
165.7595191706
 21
69.0955201759
  0
LINE
  5
3C8
100
AcDbEntity
  8
0
100
AcDbLine
 62
253
  6
CONTINUOUS
 10
164.8445428447
 20
68.7434415899
 11
164.9314860112
 21
68.9425380685
  0
LINE
  5
3C9
100
AcDbEntity
  8
0
100
AcDbLine
 62
253
  6
CONTINUOUS
 10
165.5695551259
 20
68.6583058321
 11
165.6623999747
 21
68.8706522783
  0
LINE
  5
3CA
100
AcDbEntity
  8
0
100
AcDbLine
 62
253
  6
CONTINUOUS
 10
164.760924285
 20
68.5542455756
 11
164.8445428447
 21
68.7434415899
  0
LINE
  5
3CB
100
AcDbEntity
  8
0
100
AcDbLine
 62
253
  6
CONTINUOUS
 10
165.4806050855
 20
68.4572039349
 11
165.5695551259
 21
68.6583058321
  0
LINE
  5
3CC
100
AcDbEntity
  8
0
100
AcDbLine
 62
253
  6
CONTINUOUS
 10
164.6803895661
 20
68.3741006918
 11
164.760924285
 21
68.5542455756
  0
LINE
  5
3CD
100
AcDbEntity
  8
0
100
AcDbLine
 62
253
  6
CONTINUOUS
 10
165.395140757
 20
68.2660772057
 11
165.4806050855
 21
68.4572039349
  0
LINE
  5
3CE
100
AcDbEntity
  8
0
100
AcDbLine
 62
253
  6
CONTINUOUS
 10
165.3129092504
 20
68.0840666635
 11
165.395140757
 21
68.2660772057
  0
LINE
  5
3CF
100
AcDbEntity
  8
0
100
AcDbLine
 62
253
  6
CONTINUOUS
 10
164.6024344175
 20
68.2016010751
 11
164.6803895661
 21
68.3741006918
  0
LINE
  5
3D0
100
AcDbEntity
  8
0
100
AcDbLine
 62
253
  6
CONTINUOUS
 10
164.526932561
 20
68.036235063
 11
164.6024344175
 21
68.2016010751
  0
LWPOLYLINE
  5
3D1
100
AcDbEntity
  8
0
100
AcDbPolyline
 62
253
  6
CONTINUOUS
 90
3
 70
0
 10
165.1946016879
 20
67.8253592678
 10
165.2333837607
 20
67.9097620765
 10
165.3129092504
 20
68.0840666635
  0
LINE
  5
3D2
100
AcDbEntity
  8
0
100
AcDbLine
 62
253
  6
CONTINUOUS
 10
164.4183591283
 20
67.8012807015
 11
164.526932561
 21
68.036235063
  0
LINE
  5
3D3
100
AcDbEntity
  8
0
100
AcDbLine
 62
253
  6
CONTINUOUS
 10
164.3159070774
 20
67.582492516
 11
164.4183591283
 21
67.8012807015
  0
LWPOLYLINE
  5
3D4
100
AcDbEntity
  8
0
100
AcDbPolyline
 62
253
  6
CONTINUOUS
 90
3
 70
0
 10
164.1898212744
 20
67.3169823028
 10
164.2201578902
 20
67.3804935828
 10
164.3159070774
 20
67.582492516
  0
LWPOLYLINE
  5
3D5
100
AcDbEntity
  8
0
100
AcDbPolyline
 62
253
  6
CONTINUOUS
 90
10
 70
0
 10
135.78874847
 20
79.1475146002
 10
135.861668278
 20
79.1805413913
 10
135.9352816213
 20
79.2126502819
 10
136.0091136988
 20
79.2436341747
 10
136.0826883019
 20
79.2732932302
 10
136.1555308793
 20
79.3014361528
 10
136.2271715986
 20
79.3278814247
 10
136.297148385
 20
79.3524584805
 10
136.3650099011
 20
79.3750088063
 10
136.4303184521
 20
79.3953869603
  0
LWPOLYLINE
  5
3D6
100
AcDbEntity
  8
0
100
AcDbPolyline
 62
253
  6
CONTINUOUS
 90
7
 70
0
 10
131.755733881
 20
76.1065299207
 10
131.7676658656
 20
76.1115666078
 10
131.786455447
 20
76.118441704
 10
131.8119666737
 20
76.1271054648
 10
131.8440149606
 20
76.137495204
 10
131.8823684235
 20
76.1495357471
 10
131.9267495576
 20
76.1631399752
  0
LINE
  5
3D7
100
AcDbEntity
  8
0
100
AcDbLine
 62
253
  6
CONTINUOUS
 10
165.0820321296
 20
67.5825477927
 11
165.1946016879
 21
67.8253592678
  0
LINE
  5
3D8
100
AcDbEntity
  8
0
100
AcDbLine
 62
253
  6
CONTINUOUS
 10
164.9755799505
 20
67.3558401775
 11
165.0820321296
 21
67.5825477927
  0
LINE
  5
3D9
100
AcDbEntity
  8
0
100
AcDbLine
 62
253
  6
CONTINUOUS
 10
164.8757966094
 20
67.1458292121
 11
164.9755799505
 21
67.3558401775
  0
LINE
  5
3DA
100
AcDbEntity
  8
0
100
AcDbLine
 62
253
  6
CONTINUOUS
 10
164.7540804382
 20
66.8928317954
 11
164.8757966094
 21
67.1458292121
  0
LINE
  5
3DB
100
AcDbEntity
  8
0
100
AcDbLine
 62
253
  6
CONTINUOUS
 10
164.0767671475
 20
67.082369816
 11
164.1898212744
 21
67.3169823028
  0
LINE
  5
3DC
100
AcDbEntity
  8
0
100
AcDbLine
 62
253
  6
CONTINUOUS
 10
164.6459025033
 20
66.6708183114
 11
164.7540804382
 21
66.8928317954
  0
LINE
  5
3DD
100
AcDbEntity
  8
0
100
AcDbLine
 62
253
  6
CONTINUOUS
 10
163.976635933
 20
66.8773782104
 11
164.0767671475
 21
67.082369816
  0
LINE
  5
3DE
100
AcDbEntity
  8
0
100
AcDbLine
 62
253
  6
CONTINUOUS
 10
164.5286639807
 20
66.4331315272
 11
164.6459025033
 21
66.6708183114
  0
LINE
  5
3DF
100
AcDbEntity
  8
0
100
AcDbLine
 62
253
  6
CONTINUOUS
 10
163.8682119934
 20
66.6582910627
 11
163.976635933
 21
66.8773782104
  0
LINE
  5
3E0
100
AcDbEntity
  8
0
100
AcDbLine
 62
253
  6
CONTINUOUS
 10
164.4101988404
 20
66.195942999
 11
164.5286639807
 21
66.4331315272
  0
LINE
  5
3E1
100
AcDbEntity
  8
0
100
AcDbLine
 62
253
  6
CONTINUOUS
 10
163.7570052392
 20
66.4365375743
 11
163.8682119934
 21
66.6582910627
  0
LINE
  5
3E2
100
AcDbEntity
  8
0
100
AcDbLine
 62
253
  6
CONTINUOUS
 10
164.2885736905
 20
65.9554520595
 11
164.4101988404
 21
66.195942999
  0
LINE
  5
3E3
100
AcDbEntity
  8
0
100
AcDbLine
 62
253
  6
CONTINUOUS
 10
163.6218096216
 20
66.1700154965
 11
163.7570052392
 21
66.4365375743
  0
LINE
  5
3E4
100
AcDbEntity
  8
0
100
AcDbLine
 62
253
  6
CONTINUOUS
 10
164.1685258274
 20
65.7210286083
 11
164.2885736905
 21
65.9554520595
  0
LINE
  5
3E5
100
AcDbEntity
  8
0
100
AcDbLine
 62
253
  6
CONTINUOUS
 10
163.4863538119
 20
65.9060177116
 11
163.6218096216
 21
66.1700154965
  0
LINE
  5
3E6
100
AcDbEntity
  8
0
100
AcDbLine
 62
253
  6
CONTINUOUS
 10
164.064586361
 20
65.5203935078
 11
164.1685258274
 21
65.7210286083
  0
LINE
  5
3E7
100
AcDbEntity
  8
0
100
AcDbLine
 62
253
  6
CONTINUOUS
 10
163.4010170721
 20
65.7413158
 11
163.4863538119
 21
65.9060177116
  0
LINE
  5
3E8
100
AcDbEntity
  8
0
100
AcDbLine
 62
253
  6
CONTINUOUS
 10
163.9419806005
 20
65.286439574
 11
164.064586361
 21
65.5203935078
  0
LINE
  5
3E9
100
AcDbEntity
  8
0
100
AcDbLine
 62
253
  6
CONTINUOUS
 10
163.3661503507
 20
65.675211197
 11
163.4010170721
 21
65.7413158
  0
LINE
  5
3EA
100
AcDbEntity
  8
0
100
AcDbLine
 62
253
  6
CONTINUOUS
 10
163.7859233388
 20
64.9921461676
 11
163.9419806005
 21
65.286439574
  0
LINE
  5
3EB
100
AcDbEntity
  8
0
100
AcDbLine
 62
253
  6
CONTINUOUS
 10
163.7009065792
 20
64.8331108926
 11
163.7859233388
 21
64.9921461676
  0
LINE
  5
3EC
100
AcDbEntity
  8
0
100
AcDbLine
 62
253
  6
CONTINUOUS
 10
163.3305769021
 20
65.6088780919
 11
163.3661503507
 21
65.675211197
  0
LINE
  5
3ED
100
AcDbEntity
  8
0
100
AcDbLine
 62
253
  6
CONTINUOUS
 10
163.2942160366
 20
65.5423751599
 11
163.3305769021
 21
65.6088780919
  0
LINE
  5
3EE
100
AcDbEntity
  8
0
100
AcDbLine
 62
253
  6
CONTINUOUS
 10
163.2571844827
 20
65.4758070281
 11
163.2942160366
 21
65.5423751599
  0
LINE
  5
3EF
100
AcDbEntity
  8
0
100
AcDbLine
 62
253
  6
CONTINUOUS
 10
163.2196981528
 20
65.4093365334
 11
163.2571844827
 21
65.4758070281
  0
LWPOLYLINE
  5
3F0
100
AcDbEntity
  8
0
100
AcDbPolyline
 62
253
  6
CONTINUOUS
 90
3
 70
0
 10
163.0697766295
 20
65.1471416964
 10
163.0882908275
 20
65.1794544838
 10
163.2196981528
 20
65.4093365334
  0
LINE
  5
3F1
100
AcDbEntity
  8
0
100
AcDbLine
 62
253
  6
CONTINUOUS
 10
131.9267495576
 20
76.1631399752
 11
132.032269079
 21
76.1946351536
  0
LWPOLYLINE
  5
3F2
100
AcDbEntity
  8
0
100
AcDbPolyline
 62
253
  6
CONTINUOUS
 90
3
 70
0
 10
132.032269079
 20
76.1946351536
 10
132.1575251209
 20
76.2310708598
 10
132.2264430444
 20
76.2508172391
  0
LINE
  5
3F3
100
AcDbEntity
  8
0
100
AcDbLine
 62
253
  6
CONTINUOUS
 10
136.2595764665
 20
64.8331123309
 11
136.1921575299
 21
64.796686717
  0
LINE
  5
3F4
100
AcDbEntity
  8
0
100
AcDbLine
 62
253
  6
CONTINUOUS
 10
136.1921575299
 20
64.796686717
 11
135.9380627941
 21
64.6595118808
  0
LINE
  5
3F5
100
AcDbEntity
  8
0
100
AcDbLine
 62
253
  6
CONTINUOUS
 10
136.7623866882
 20
65.079967146
 11
136.8907080481
 21
65.1471422155
  0
LINE
  5
3F6
100
AcDbEntity
  8
0
100
AcDbLine
 62
253
  6
CONTINUOUS
 10
136.6430495169
 20
65.0182290489
 11
136.7623866882
 21
65.079967146
  0
LWPOLYLINE
  5
3F7
100
AcDbEntity
  8
0
100
AcDbPolyline
 62
253
  6
CONTINUOUS
 90
11
 70
0
 10
136.2596206654
 20
64.8330344879
 10
136.270733739
 20
64.8367963545
 10
136.2870699174
 20
64.8433902882
 10
136.3085303947
 20
64.8527764068
 10
136.3349853718
 20
64.8648979406
 10
136.3662748416
 20
64.8796815751
 10
136.4022095564
 20
64.8970378947
 10
136.442572173
 20
64.9168619235
 10
136.4871185668
 20
64.9390337602
 10
136.5355793087
 20
64.9634193033
 10
136.6430495169
 20
65.0182290489
  0
ARC
  5
3F8
100
AcDbEntity
  8
0
100
AcDbCircle
 62
7
  6
CONTINUOUS
 10
117.3802419388
 20
89.8290793112
 40
53.0
100
AcDbArc
 50
331.6473236114
 51
360.0
  0
ARC
  5
3F9
100
AcDbEntity
  8
0
100
AcDbCircle
 62
253
  6
CONTINUOUS
 10
117.3802419388
 20
89.8290793112
 40
52.6613170254
100
AcDbArc
 50
355.3330316276
 51
360.0
  0
ARC
  5
3FA
100
AcDbEntity
  8
0
100
AcDbCircle
 62
253
  6
CONTINUOUS
 10
117.3802419388
 20
89.8290793112
 40
51.6669617417
100
AcDbArc
 50
355.3373166509
 51
360.0
  0
ARC
  5
3FB
100
AcDbEntity
  8
0
100
AcDbCircle
 62
7
  6
CONTINUOUS
 10
130.0802419388
 20
116.1290793112
 40
0.5
100
AcDbArc
 50
90.0
 51
180.0
  0
ARC
  5
3FC
100
AcDbEntity
  8
0
100
AcDbCircle
 62
7
  6
CONTINUOUS
 10
133.4671963385
 20
109.3790793112
 40
0.3
100
AcDbArc
 50
222.4947569129
 51
228.575362058
  0
ARC
  5
3FD
100
AcDbEntity
  8
0
100
AcDbCircle
 62
7
  6
CONTINUOUS
 10
133.4671963385
 20
107.8790793112
 40
0.3
100
AcDbArc
 50
131.4247275518
 51
137.5052430905
  0
ARC
  5
3FE
100
AcDbEntity
  8
0
100
AcDbCircle
 62
7
  6
CONTINUOUS
 10
140.3382683738
 20
67.0339993742
 40
5.0
100
AcDbArc
 50
208.3526763886
 51
265.1904895677
  0
ARC
  5
3FF
100
AcDbEntity
  8
0
100
AcDbCircle
 62
7
  6
CONTINUOUS
 10
143.7802419586
 20
61.6391526457
 40
0.1499999995
100
AcDbArc
 50
0.0000019194
 51
87.0421081789
  0
ARC
  5
400
100
AcDbEntity
  8
0
100
AcDbCircle
 62
7
  6
CONTINUOUS
 10
144.5302419388
 20
59.9790793112
 40
0.15
100
AcDbArc
 50
0.0
 51
77.846802531
  0
ARC
  5
401
100
AcDbEntity
  8
0
100
AcDbCircle
 62
7
  6
CONTINUOUS
 10
144.7302419388
 20
60.9077880923
 40
0.8
100
AcDbArc
 50
180.0
 51
257.846802531
  0
ARC
  5
402
100
AcDbEntity
  8
0
100
AcDbCircle
 62
7
  6
CONTINUOUS
 10
149.8755199388
 20
78.5618553112
 40
2.3109495123
100
AcDbArc
 50
112.4341386553
 51
134.5651113367
  0
ARC
  5
403
100
AcDbEntity
  8
0
100
AcDbCircle
 62
253
  6
CONTINUOUS
 10
136.9802419388
 20
108.6290793112
 40
3.925
100
AcDbArc
 50
90.0
 51
270.0
  0
ARC
  5
404
100
AcDbEntity
  8
0
100
AcDbCircle
 62
7
  6
CONTINUOUS
 10
136.9802419388
 20
108.6290793112
 40
3.775
100
AcDbArc
 50
90.0
 51
270.0
  0
ARC
  5
405
100
AcDbEntity
  8
RACCORDO
100
AcDbCircle
 62
7
  6
CONTINUOUS
 10
136.9802419388
 20
108.6290793112
 40
3.75
100
AcDbArc
 50
90.0
 51
270.0
  0
CIRCLE
  5
406
100
AcDbEntity
  8
0
100
AcDbCircle
 62
7
  6
CONTINUOUS
 10
136.9802419388
 20
108.6290793112
 40
2.5
  0
ARC
  5
407
100
AcDbEntity
  8
0
100
AcDbCircle
 62
7
  6
CONTINUOUS
 10
133.9129765963
 20
116.2290793112
 40
0.5
100
AcDbArc
 50
90.0
 51
126.8045619517
  0
ARC
  5
408
100
AcDbEntity
  8
0
100
AcDbCircle
 62
7
  6
CONTINUOUS
 10
145.4802419388
 20
112.2790793112
 40
0.25
100
AcDbArc
 50
23.5905724502
 51
30.0
  0
ARC
  5
409
100
AcDbEntity
  8
0
100
AcDbCircle
 62
7
  6
CONTINUOUS
 10
141.4802419388
 20
112.2790793112
 40
0.25
100
AcDbArc
 50
150.0
 51
156.4094275498
  0
ARC
  5
40A
100
AcDbEntity
  8
0
100
AcDbCircle
 62
7
  6
CONTINUOUS
 10
159.6222155038
 20
67.0339993742
 40
5.0
100
AcDbArc
 50
274.8095104323
 51
331.6473236114
  0
ARC
  5
40B
100
AcDbEntity
  8
0
100
AcDbCircle
 62
7
  6
CONTINUOUS
 10
149.9802419388
 20
83.1290793112
 40
2.6237424326
100
AcDbArc
 50
266.5702753277
 51
247.9114606416
  0
ARC
  5
40C
100
AcDbEntity
  8
0
100
AcDbCircle
 62
7
  6
CONTINUOUS
 10
150.0595989388
 20
78.1829863112
 40
2.3390187052
100
AcDbArc
 50
95.7987158037
 51
132.7687287374
  0
CIRCLE
  5
40D
100
AcDbEntity
  8
0
100
AcDbCircle
 62
7
  6
CONTINUOUS
 10
149.9802419388
 20
83.1290793112
 40
2.20376
  0
ARC
  5
40E
100
AcDbEntity
  8
0
100
AcDbCircle
 62
7
  6
CONTINUOUS
 10
149.9802419388
 20
83.1290793112
 40
1.9709567246
100
AcDbArc
 50
135.0042151707
 51
240.6958542366
  0
ARC
  5
40F
100
AcDbEntity
  8
0
100
AcDbCircle
 62
7
  6
CONTINUOUS
 10
149.9802419388
 20
83.1290793112
 40
1.9709563643
100
AcDbArc
 50
299.3041457634
 51
45.0997153732
  0
ARC
  5
410
100
AcDbEntity
  8
0
100
AcDbCircle
 62
7
  6
CONTINUOUS
 10
149.9802419388
 20
83.1290793112
 40
1.5790921275
100
AcDbArc
 50
299.3041227603
 51
31.9732913784
  0
ARC
  5
411
100
AcDbEntity
  8
0
100
AcDbCircle
 62
7
  6
CONTINUOUS
 10
149.9802419388
 20
83.1290793112
 40
1.5790919977
100
AcDbArc
 50
148.0267092961
 51
240.6958772397
  0
ARC
  5
412
100
AcDbEntity
  8
0
100
AcDbCircle
 62
7
  6
CONTINUOUS
 10
155.2302419388
 20
60.9077880923
 40
0.8
100
AcDbArc
 50
282.153197469
 51
360.0
  0
ARC
  5
413
100
AcDbEntity
  8
0
100
AcDbCircle
 62
7
  6
CONTINUOUS
 10
155.4302419388
 20
59.9790793112
 40
0.15
100
AcDbArc
 50
102.153197469
 51
180.0
  0
ARC
  5
414
100
AcDbEntity
  8
0
100
AcDbCircle
 62
7
  6
CONTINUOUS
 10
156.1802419178
 20
61.6391526457
 40
0.1499999995
100
AcDbArc
 50
92.9578913736
 51
179.9999980949
  0
ARC
  5
415
100
AcDbEntity
  8
0
100
AcDbCircle
 62
253
  6
CONTINUOUS
 10
162.9802419388
 20
108.6290793112
 40
3.925
100
AcDbArc
 50
270.0
 51
90.0
  0
ARC
  5
416
100
AcDbEntity
  8
0
100
AcDbCircle
 62
7
  6
CONTINUOUS
 10
162.9802419388
 20
108.6290793112
 40
3.775
100
AcDbArc
 50
270.0
 51
90.0
  0
ARC
  5
417
100
AcDbEntity
  8
RACCORDO
100
AcDbCircle
 62
7
  6
CONTINUOUS
 10
162.9802419388
 20
108.6290793112
 40
3.75
100
AcDbArc
 50
270.0
 51
90.0
  0
CIRCLE
  5
418
100
AcDbEntity
  8
0
100
AcDbCircle
 62
7
  6
CONTINUOUS
 10
162.9802419388
 20
108.6290793112
 40
2.5
  0
CIRCLE
  5
419
100
AcDbEntity
  8
0
100
AcDbCircle
 62
7
  6
CONTINUOUS
 10
149.9802419388
 20
108.6290793112
 40
2.5
  0
ARC
  5
41A
100
AcDbEntity
  8
0
100
AcDbCircle
 62
7
  6
CONTINUOUS
 10
166.0475072813
 20
116.2290793112
 40
0.5
100
AcDbArc
 50
53.1954380483
 51
90.0
  0
ARC
  5
41B
100
AcDbEntity
  8
0
100
AcDbCircle
 62
7
  6
CONTINUOUS
 10
158.4802419388
 20
112.2790793112
 40
0.25
100
AcDbArc
 50
23.5905724502
 51
30.0
  0
ARC
  5
41C
100
AcDbEntity
  8
0
100
AcDbCircle
 62
7
  6
CONTINUOUS
 10
154.4802419388
 20
112.2790793112
 40
0.25
100
AcDbArc
 50
150.0
 51
156.4094275498
  0
ARC
  5
41D
100
AcDbEntity
  8
0
100
AcDbCircle
 62
7
  6
CONTINUOUS
 10
182.5802419388
 20
89.8290793112
 40
53.0
100
AcDbArc
 50
180.0
 51
208.3526763886
  0
ARC
  5
41E
100
AcDbEntity
  8
0
100
AcDbCircle
 62
253
  6
CONTINUOUS
 10
182.5802419388
 20
89.8290793112
 40
52.6613170254
100
AcDbArc
 50
180.0
 51
184.6669683724
  0
ARC
  5
41F
100
AcDbEntity
  8
0
100
AcDbCircle
 62
253
  6
CONTINUOUS
 10
182.5802419388
 20
89.8290793112
 40
51.6669617417
100
AcDbArc
 50
180.0
 51
184.6626835591
  0
ARC
  5
420
100
AcDbEntity
  8
0
100
AcDbCircle
 62
7
  6
CONTINUOUS
 10
169.8802419388
 20
116.1290793112
 40
0.5
100
AcDbArc
 50
0.0
 51
90.0
  0
ARC
  5
421
100
AcDbEntity
  8
0
100
AcDbCircle
 62
7
  6
CONTINUOUS
 10
166.4932875391
 20
107.8790793112
 40
0.3
100
AcDbArc
 50
42.4947569129
 51
48.5753546133
  0
ARC
  5
422
100
AcDbEntity
  8
0
100
AcDbCircle
 62
7
  6
CONTINUOUS
 10
166.4932875391
 20
109.3790793112
 40
0.3
100
AcDbArc
 50
311.4247199898
 51
317.5052430905
  0
ARC
  5
423
100
AcDbEntity
  8
0
100
AcDbCircle
 62
7
  6
CONTINUOUS
 10
149.9802419388
 20
181.6290793112
 40
120.0
100
AcDbArc
 50
272.9367440317
 51
274.8095104323
  0
ARC
  5
424
100
AcDbEntity
  8
0
100
AcDbCircle
 62
7
  6
CONTINUOUS
 10
149.9802419388
 20
181.6290793112
 40
120.0
100
AcDbArc
 50
265.1904895677
 51
267.0632560508
  0
ELLIPSE
  5
425
100
AcDbEntity
  8
0
100
AcDbEllipse
 62
7
  6
CONTINUOUS
 10
149.9802419388
 20
58.6290793112
 30
0.0
 11
4.0
 21
0.0
 31
0.0
 40
0.0524077793
 41
-0.0
 42
3.1415926536
  0
ENDSEC
  0
SECTION
  2
OBJECTS
  0
DICTIONARY
  5
C
100
AcDbDictionary
280
0
281
1
  3
ACAD_GROUP
350
D
  3
ACAD_MLINESTYLE
350
17
  3
ACAD_LAYOUT
350
1A
  3
ACAD_PLOTSETTINGS
350
19
  3
ACAD_PLOTSTYLENAME
350
E
  0
DICTIONARY
  5
D
102
{ACAD_REACTORS
330
C
102
}
100
AcDbDictionary
280
0
281
1
  0
ACDBDICTIONARYWDFLT
  5
E
102
{ACAD_REACTORS
330
C
102
}
100
AcDbDictionary
281
1
  3
Normal
350
F
100
AcDbDictionaryWithDefault
340
F
  0
DICTIONARY
  5
17
102
{ACAD_REACTORS
330
C
102
}
100
AcDbDictionary
280
0
281
1
  3
Standard
350
18
  0
DICTIONARY
  5
19
102
{ACAD_REACTORS
330
C
102
}
100
AcDbDictionary
281
1
  0
DICTIONARY
  5
1A
102
{ACAD_REACTORS
330
C
102
}
100
AcDbDictionary
281
1
  3
Model
350
426
  3
Layout1
350
427
  0
ACDBPLACEHOLDER
  5
F
102
{ACAD_REACTORS
330
E
102
}
  0
MLINESTYLE
  5
18
102
{ACAD_REACTORS
330
17
102
}
100
AcDbMlineStyle
  2
STANDARD
 70
0
  3

 62
256
 51
90.0
 52
90.0
 71
2
 49
0.5
 62
256
  6
BYLAYER
 49
-0.5
 62
256
  6
BYLAYER
  0
LAYOUT
  5
426
102
{ACAD_REACTORS
330
1A
102
}
100
AcDbPlotSettings
  1

  2
none_device
  4
ISO_A4_(297.00_x_210.00_MM)
  6

 40
0.0
 41
0.0
 42
0.0
 43
0.0
 44
297.0
 45
210.0
 46
0.0
 47
0.0
 48
0.0
 49
0.0
140
0.0
141
0.0
142
1.0
143
1.0
 70
1024
 72
1
 73
0
 74
0
  7

 75
0
147
1.0
148
0.0
149
0.0
100
AcDbLayout
  1
Model
 70
0
 71
0
 10
0.0
 20
0.0
 11
297.0
 21
210.0
 12
0.0
 22
0.0
 32
0.0
 14
0.0
 24
0.0
 34
0.0
 15
0.0
 25
0.0
 35
0.0
146
0.0
 13
0.0
 23
0.0
 33
0.0
 16
1.0
 26
0.0
 36
0.0
 17
0.0
 27
1.0
 37
0.0
 76
0
330
21A
345
0
346
0
  0
LAYOUT
  5
427
102
{ACAD_REACTORS
330
1A
102
}
100
AcDbPlotSettings
  1

  2
none_device
  4
ISO_A4_(297.00_x_210.00_MM)
  6

 40
0.0
 41
0.0
 42
0.0
 43
0.0
 44
297.0
 45
210.0
 46
0.0
 47
0.0
 48
0.0
 49
0.0
140
0.0
141
0.0
142
1.0
143
1.0
 70
0
 72
1
 73
0
 74
0
  7

 75
0
147
1.0
148
0.0
149
0.0
100
AcDbLayout
  1
Layout1
 70
0
 71
1
 10
0.0
 20
0.0
 11
297.0
 21
210.0
 12
0.0
 22
0.0
 32
0.0
 14
0.0
 24
0.0
 34
0.0
 15
0.0
 25
0.0
 35
0.0
146
0.0
 13
0.0
 23
0.0
 33
0.0
 16
1.0
 26
0.0
 36
0.0
 17
0.0
 27
1.0
 37
0.0
 76
0
330
21B
345
0
346
0
  0
ENDSEC
  0
EOF
