  0
SECTION
  2
HEADER
  9
$ACADVER
  1
AC1024
  9
$DWGCODEPAGE
  3
ANSI_1252
  9
$EXTMAX
 10
297.0
 20
210.0
 30
0.0
  9
$EXTMIN
 10
0.0
 20
0.0
 30
0.0
  9
$LIMMIN
 10
0.0
 20
0.0
  9
$LIMMAX
 10
297.0
 20
210.0
  9
$VIEWCTR
 10
148.5
 20
105.0
  9
$VIEWSIZE
 40
210.0
  9
$CLAYER
  8
0
  9
$LTSCALE
 40
16.335
  9
$CELTYPE
  6
BYLAYER
  9
$DIMSCALE
 40
1.0
  9
$DIMASZ
 40
3.0
  9
$DIMEXO
 40
0.5
  9
$DIMDLI
 40
11.286
  9
$DIMEXE
 40
1.5
  9
$DIMCEN
 40
2.673
  9
$DIMLFAC
 40
1.0
  9
$DIMBLK
  1
_FILLED
  9
$DIMALT
 70
0
  9
$DIMALTF
 40
0.0393700787
  9
$DIMTXT
 40
3.0
  9
$DIMTOL
 70
1
  9
$DIMLIM
 70
0
  9
$DIMTFAC
 40
1.0
  9
$DIMTP
 40
0.01
  9
$DIMTM
 40
0.01
  9
$DIMGAP
 40
0.625
  9
$DIMDSEP
 70
44
  9
$AUNITS
 70
0
  9
$PDMODE
 70
3
  9
$PDSIZE
 40
3.0
  9
$HANDSEED
  5
4FE
  9
$TILEMODE
 70
1
  9
$MEASUREMENT
 70
1
  9
$INSUNITS
 70
4
  0
ENDSEC
  0
SECTION
  2
CLASSES
  0
CLASS
  1
ACDBDICTIONARYWDFLT
  2
AcDbDictionaryWithDefault
  3
AutoCAD 2000
 90
0
 91
1
280
0
281
0
  0
CLASS
  1
ACDBPLACEHOLDER
  2
AcDbPlaceHolder
  3
AutoCAD 2000
 90
0
 91
1
280
0
281
0
  0
CLASS
  1
LAYOUT
  2
AcDbLayout
  3
AutoCAD 2000
 90
0
 91
0
280
0
281
0
  0
ENDSEC
  0
SECTION
  2
TABLES
  0
TABLE
  2
VPORT
  5
8
100
AcDbSymbolTable
 70
2
  0
VPORT
  5
1F4
100
AcDbSymbolTableRecord
100
AcDbViewportTableRecord
  2
*ACTIVE
 70
0
 10
0.0
 20
0.0
 11
1.0
 21
1.0
 12
148.5
 22
105.0
 13
0.0
 23
0.0
 14
1.0
 24
1.0
 15
0.0
 25
0.0
 16
0.0
 26
0.0
 36
1.0
 17
0.0
 27
0.0
 37
0.0
 40
210.0
 41
1.4142857143
 42
50.0
 43
0.0
 44
0.0
 50
0.0
 51
0.0
 71
0
 72
100
 73
1
 74
1
 75
0
 76
0
 77
0
 78
0
  0
ENDTAB
  0
TABLE
  2
LTYPE
  5
5
100
AcDbSymbolTable
 70
6
  0
LTYPE
  5
14
100
AcDbSymbolTableRecord
100
AcDbLinetypeTableRecord
  2
BYBLOCK
 70
0
  3

 72
65
 73
0
 40
0.0
  0
LTYPE
  5
15
100
AcDbSymbolTableRecord
100
AcDbLinetypeTableRecord
  2
BYLAYER
 70
0
  3

 72
65
 73
0
 40
0.0
  0
LTYPE
  5
16
100
AcDbSymbolTableRecord
100
AcDbLinetypeTableRecord
  2
CONTINUOUS
 70
64
  3
Solid line
 72
65
 73
0
 40
0.0
  0
LTYPE
  5
1F5
100
AcDbSymbolTableRecord
100
AcDbLinetypeTableRecord
  2
CENTER
 70
64
  3
____ _ ____ _ ____ _ ____ _ ____ _ ____ _ ____
 72
65
 73
4
 40
0.6
 49
0.375
 74
0
 49
-0.075
 74
0
 49
0.075
 74
0
 49
-0.075
 74
0
  0
LTYPE
  5
1F6
100
AcDbSymbolTableRecord
100
AcDbLinetypeTableRecord
  2
HIDDEN
 70
64
  3
- - - - - - - - - - - - - - - - - - - -
 72
65
 73
2
 40
0.2
 49
0.1
 74
0
 49
-0.1
 74
0
  0
LTYPE
  5
1F7
100
AcDbSymbolTableRecord
100
AcDbLinetypeTableRecord
  2
PHANTOM
 70
64
  3
_____ _ _ _____ _ _ _____ _ _ _____
 72
65
 73
6
 40
0.8
 49
0.45
 74
0
 49
-0.05
 74
0
 49
0.1
 74
0
 49
-0.05
 74
0
 49
0.1
 74
0
 49
-0.05
 74
0
  0
LTYPE
  5
1F8
100
AcDbSymbolTableRecord
100
AcDbLinetypeTableRecord
  2
DOT
 70
64
  3
. . . . . . . . . . . . . . . . . . . .
 72
65
 73
2
 40
0.2
 49
0.1
 74
0
 49
-0.1
 74
0
  0
LTYPE
  5
1F9
100
AcDbSymbolTableRecord
100
AcDbLinetypeTableRecord
  2
DASHED
 70
64
  3
- - - - - - - - - - - - - - - - - - - -
 72
65
 73
2
 40
0.2
 49
0.1
 74
0
 49
-0.1
 74
0
  0
ENDTAB
  0
TABLE
  2
LAYER
  5
2
100
AcDbSymbolTable
 70
36
  0
LAYER
  5
10
100
AcDbSymbolTableRecord
100
AcDbLayerTableRecord
  2
0
 70
0
 62
7
  6
CONTINUOUS
370
-3
390
F
  0
LAYER
  5
1FA
100
AcDbSymbolTableRecord
100
AcDbLayerTableRecord
  2
DEFAULT_1
 70
0
 62
7
  6
CENTER
370
-3
390
F
  0
LAYER
  5
1FB
100
AcDbSymbolTableRecord
100
AcDbLayerTableRecord
  2
DEFAULT_2
 70
0
 62
7
  6
HIDDEN
370
-3
390
F
  0
LAYER
  5
1FC
100
AcDbSymbolTableRecord
100
AcDbLayerTableRecord
  2
DEFAULT_3
 70
0
 62
7
  6
PHANTOM
370
-3
390
F
  0
LAYER
  5
1FD
100
AcDbSymbolTableRecord
100
AcDbLayerTableRecord
  2
ASSI
 70
0
 62
7
  6
CONTINUOUS
370
-3
390
F
  0
LAYER
  5
1FE
100
AcDbSymbolTableRecord
100
AcDbLayerTableRecord
  2
COLOR5
 70
0
 62
7
  6
CONTINUOUS
370
-3
390
F
  0
LAYER
  5
1FF
100
AcDbSymbolTableRecord
100
AcDbLayerTableRecord
  2
COORDINATE
 70
0
 62
7
  6
CONTINUOUS
370
-3
390
F
  0
LAYER
  5
200
100
AcDbSymbolTableRecord
100
AcDbLayerTableRecord
  2
COORD_ORIGINE
 70
0
 62
7
  6
CONTINUOUS
370
-3
390
F
  0
LAYER
  5
201
100
AcDbSymbolTableRecord
100
AcDbLayerTableRecord
  2
COPY_PUBLISH
 70
0
 62
7
  6
CONTINUOUS
370
-3
390
F
  0
LAYER
  5
202
100
AcDbSymbolTableRecord
100
AcDbLayerTableRecord
  2
COSMETIC
 70
0
 62
7
  6
CONTINUOUS
370
-3
390
F
  0
LAYER
  5
203
100
AcDbSymbolTableRecord
100
AcDbLayerTableRecord
  2
COSMETICHE
 70
0
 62
7
  6
CONTINUOUS
370
-3
390
F
  0
LAYER
  5
204
100
AcDbSymbolTableRecord
100
AcDbLayerTableRecord
  2
COSMETICI
 70
0
 62
7
  6
CONTINUOUS
370
-3
390
F
  0
LAYER
  5
205
100
AcDbSymbolTableRecord
100
AcDbLayerTableRecord
  2
CURVE
 70
0
 62
7
  6
CONTINUOUS
370
-3
390
F
  0
LAYER
  5
206
100
AcDbSymbolTableRecord
100
AcDbLayerTableRecord
  2
DRAFT
 70
0
 62
7
  6
CONTINUOUS
370
-3
390
F
  0
LAYER
  5
207
100
AcDbSymbolTableRecord
100
AcDbLayerTableRecord
  2
IMPORT_IGES
 70
0
 62
7
  6
CONTINUOUS
370
-3
390
F
  0
LAYER
  5
208
100
AcDbSymbolTableRecord
100
AcDbLayerTableRecord
  2
INTF_1
 70
0
 62
7
  6
CONTINUOUS
370
-3
390
F
  0
LAYER
  5
209
100
AcDbSymbolTableRecord
100
AcDbLayerTableRecord
  2
INTF_11
 70
0
 62
7
  6
CONTINUOUS
370
-3
390
F
  0
LAYER
  5
20A
100
AcDbSymbolTableRecord
100
AcDbLayerTableRecord
  2
INTF_52
 70
0
 62
7
  6
CONTINUOUS
370
-3
390
F
  0
LAYER
  5
20B
100
AcDbSymbolTableRecord
100
AcDbLayerTableRecord
  2
INTF_GREEN
 70
0
 62
7
  6
CONTINUOUS
370
-3
390
F
  0
LAYER
  5
20C
100
AcDbSymbolTableRecord
100
AcDbLayerTableRecord
  2
INTF_MAGENTA
 70
0
 62
7
  6
CONTINUOUS
370
-3
390
F
  0
LAYER
  5
20D
100
AcDbSymbolTableRecord
100
AcDbLayerTableRecord
  2
INTF_YELLOW
 70
0
 62
7
  6
CONTINUOUS
370
-3
390
F
  0
LAYER
  5
20E
100
AcDbSymbolTableRecord
100
AcDbLayerTableRecord
  2
NOTE
 70
0
 62
7
  6
CONTINUOUS
370
-3
390
F
  0
LAYER
  5
20F
100
AcDbSymbolTableRecord
100
AcDbLayerTableRecord
  2
PIANI
 70
0
 62
7
  6
CONTINUOUS
370
-3
390
F
  0
LAYER
  5
210
100
AcDbSymbolTableRecord
100
AcDbLayerTableRecord
  2
PIANI_ORIGINE
 70
0
 62
7
  6
CONTINUOUS
370
-3
390
F
  0
LAYER
  5
211
100
AcDbSymbolTableRecord
100
AcDbLayerTableRecord
  2
PUNTI
 70
0
 62
7
  6
CONTINUOUS
370
-3
390
F
  0
LAYER
  5
212
100
AcDbSymbolTableRecord
100
AcDbLayerTableRecord
  2
RACCORDO
 70
0
 62
7
  6
CONTINUOUS
370
-3
390
F
  0
LAYER
  5
213
100
AcDbSymbolTableRecord
100
AcDbLayerTableRecord
  2
SIMBOLI
 70
0
 62
7
  6
CONTINUOUS
370
-3
390
F
  0
LAYER
  5
214
100
AcDbSymbolTableRecord
100
AcDbLayerTableRecord
  2
SMUSSO
 70
0
 62
7
  6
CONTINUOUS
370
-3
390
F
  0
LAYER
  5
215
100
AcDbSymbolTableRecord
100
AcDbLayerTableRecord
  2
SNAPLINE
 70
0
 62
7
  6
CONTINUOUS
370
-3
390
F
  0
LAYER
  5
216
100
AcDbSymbolTableRecord
100
AcDbLayerTableRecord
  2
SUPERFICI
 70
0
 62
7
  6
CONTINUOUS
370
-3
390
F
  0
LAYER
  5
217
100
AcDbSymbolTableRecord
100
AcDbLayerTableRecord
  2
TRASH
 70
0
 62
7
  6
CONTINUOUS
370
-3
390
F
  0
LAYER
  5
218
100
AcDbSymbolTableRecord
100
AcDbLayerTableRecord
  2
XSEC_DATUMS
 70
0
 62
7
  6
CONTINUOUS
370
-3
390
F
  0
ENDTAB
  0
TABLE
  2
STYLE
  5
3
100
AcDbSymbolTable
 70
1
  0
STYLE
  5
11
100
AcDbSymbolTableRecord
100
AcDbTextStyleTableRecord
  2
STANDARD
 70
0
 40
0.0
 41
0.8
 50
0.0
 71
0
 42
0.2
  3
txt
  4

  0
STYLE
  5
219
100
AcDbSymbolTableRecord
100
AcDbTextStyleTableRecord
  2
TEXTSTYLE_1
 70
0
 40
0.0
 41
0.8
 50
0.0
 71
0
 42
0.2
  3
gdt
  4

  0
ENDTAB
  0
TABLE
  2
VIEW
  5
6
100
AcDbSymbolTable
 70
0
  0
ENDTAB
  0
TABLE
  2
UCS
  5
7
100
AcDbSymbolTable
 70
0
  0
ENDTAB
  0
TABLE
  2
APPID
  5
9
100
AcDbSymbolTable
 70
1
  0
APPID
  5
21A
100
AcDbSymbolTableRecord
100
AcDbRegAppTableRecord
  2
ACAD
 70
0
  0
ENDTAB
  0
TABLE
  2
BLOCK_RECORD
  5
1
100
AcDbSymbolTable
 70
0
  0
BLOCK_RECORD
  5
21B
100
AcDbSymbolTableRecord
100
AcDbBlockTableRecord
  2
*Model_Space
  0
BLOCK_RECORD
  5
21C
100
AcDbSymbolTableRecord
100
AcDbBlockTableRecord
  2
*Paper_Space
  0
BLOCK_RECORD
  5
21D
100
AcDbSymbolTableRecord
100
AcDbBlockTableRecord
  2
_FILLED
  0
ENDTAB
  0
TABLE
  2
DIMSTYLE
  5
A
100
AcDbSymbolTable
 70
1
100
AcDbDimStyleTable
 71
0
  0
DIMSTYLE
105
21E
100
AcDbSymbolTableRecord
100
AcDbDimStyleTableRecord
  2
STANDARD
 70
0
  3

  4

 40
1.0
 41
3.0
 42
0.5
 43
0.38
 44
1.5
 45
0.0
 46
0.0
 47
0.01
 48
0.01
140
3.0
141
0.09
142
0.0
143
25.4
144
1.0
145
0.0
146
1.0
147
0.625
 71
1
 72
0
 73
0
 74
0
 75
0
 76
0
 77
1
 78
8
 79
2
170
0
171
1
172
0
173
0
174
0
175
0
176
0
177
0
178
0
270
2
179
2
271
2
272
2
273
2
274
2
275
0
280
0
281
0
282
0
283
1
284
8
285
0
286
0
287
3
288
0
340
11
278
44
341
21D
342
21D
343
21D
344
21D
  0
ENDTAB
  0
ENDSEC
  0
SECTION
  2
BLOCKS
  0
BLOCK
  5
20
100
AcDbEntity
  8
0
100
AcDbBlockBegin
  2
*Model_Space
 70
0
 10
0.0
 20
0.0
 30
0.0
  3
*Model_Space
  1

  0
ENDBLK
  5
21
100
AcDbEntity
  8
0
100
AcDbBlockEnd
  0
BLOCK
  5
1C
100
AcDbEntity
  8
0
100
AcDbBlockBegin
  2
*Paper_Space
 70
0
 10
0.0
 20
0.0
 30
0.0
  3
*Paper_Space
  1

  0
ENDBLK
  5
1D
100
AcDbEntity
  8
0
100
AcDbBlockEnd
  0
BLOCK
  5
21F
100
AcDbEntity
  8
0
100
AcDbBlockBegin
  2
_FILLED
 70
64
 10
0.0
 20
0.0
  3
_FILLED
  1

  0
SOLID
  5
220
100
AcDbEntity
  8
0
  6
BYBLOCK
 62
0
100
AcDbTrace
 10
0.0
 20
0.0
 11
-1.0
 21
0.3166666667
 12
-1.0
 22
-0.3166666667
 13
-1.0
 23
-0.3166666667
  0
ENDBLK
  5
221
100
AcDbEntity
  8
0
  6
BYBLOCK
 62
0
100
AcDbBlockEnd
  0
ENDSEC
  0
SECTION
  2
ENTITIES
  0
LINE
  5
222
100
AcDbEntity
  8
0
100
AcDbLine
 62
7
  6
CONTINUOUS
 10
-14.2473874317
 20
-7.6189318375
 11
-14.3683850692
 21
-6.065863116
  0
LWPOLYLINE
  5
223
100
AcDbEntity
  8
0
100
AcDbPolyline
 62
250
  6
CONTINUOUS
 90
9
 70
0
 10
-15.8916397658
 20
-0.7338687553
 10
-15.8753886089
 20
-1.4673665261
 10
-15.8482638039
 20
-2.2004933124
 10
-15.8102507925
 20
-2.9334754648
 10
-15.7613641331
 20
-3.6660866327
 10
-15.7016475001
 20
-4.3976477644
 10
-15.6311154518
 20
-5.1279325093
 10
-15.5497534301
 20
-5.857167218
 10
-15.4575614349
 20
-6.5853518905
  0
LINE
  5
224
100
AcDbEntity
  8
0
100
AcDbLine
 62
250
  6
CONTINUOUS
 10
-15.8970172745
 20
0.0
 11
-15.8916397658
 21
-0.7338687553
  0
LINE
  5
225
100
AcDbEntity
  8
0
100
AcDbLine
 62
7
  6
CONTINUOUS
 10
-14.5962804616
 20
-7.3212343582
 11
-14.5961202027
 21
-7.3726572571
  0
LWPOLYLINE
  5
226
100
AcDbEntity
  8
0
100
AcDbPolyline
 62
7
  6
CONTINUOUS
 90
3
 70
0
 10
-14.5970746782
 20
7.558261716
 10
-14.5961202026
 20
7.3726572533
 10
-14.5962804616
 20
7.3212343582
  0
LINE
  5
227
100
AcDbEntity
  8
0
100
AcDbLine
 62
7
  6
CONTINUOUS
 10
-14.5970746784
 20
-7.5582616879
 11
-14.5969960547
 21
-7.598473586
  0
LINE
  5
228
100
AcDbEntity
  8
0
100
AcDbLine
 62
7
  6
CONTINUOUS
 10
-14.5969960551
 20
7.3187190075
 11
-14.5969960551
 21
6.75
  0
LINE
  5
229
100
AcDbEntity
  8
0
100
AcDbLine
 62
7
  6
CONTINUOUS
 10
-14.5969960551
 20
-3.7936633137
 11
-14.5969960551
 21
-5.4892081584
  0
LINE
  5
22A
100
AcDbEntity
  8
0
100
AcDbLine
 62
7
  6
CONTINUOUS
 10
-14.5969960551
 20
-6.75
 11
-14.5969960551
 21
-7.3187190075
  0
LINE
  5
22B
100
AcDbEntity
  8
0
100
AcDbLine
 62
7
  6
CONTINUOUS
 10
-14.5969960551
 20
3.7936633137
 11
-14.5969960551
 21
5.4892081584
  0
LINE
  5
22C
100
AcDbEntity
  8
0
100
AcDbLine
 62
7
  6
CONTINUOUS
 10
-14.4
 20
6.065863116
 11
-14.4
 21
5.7838127614
  0
LINE
  5
22D
100
AcDbEntity
  8
0
100
AcDbLine
 62
7
  6
CONTINUOUS
 10
-14.5969960541
 20
7.5984736313
 11
-14.5970746782
 21
7.558261716
  0
LINE
  5
22E
100
AcDbEntity
  8
0
100
AcDbLine
 62
7
  6
CONTINUOUS
 10
-14.5961202027
 20
-7.3726572571
 11
-14.5970746784
 21
-7.5582616879
  0
LWPOLYLINE
  5
22F
100
AcDbEntity
  8
0
100
AcDbPolyline
 62
250
  6
CONTINUOUS
 90
10
 70
0
 10
-15.8970172745
 20
0.0
 10
-15.8916397658
 20
0.7338687553
 10
-15.8753886089
 20
1.4673665261
 10
-15.8482638039
 20
2.2004933124
 10
-15.8102507925
 20
2.9334754648
 10
-15.7613641331
 20
3.6660866327
 10
-15.7016475001
 20
4.3976477644
 10
-15.6311154518
 20
5.1279325093
 10
-15.5497534301
 20
5.857167218
 10
-15.4575614349
 20
6.5853518905
  0
LINE
  5
230
100
AcDbEntity
  8
0
100
AcDbLine
 62
7
  6
CONTINUOUS
 10
-14.3683850692
 20
6.065863116
 11
-14.2473874317
 21
7.6189318375
  0
LINE
  5
231
100
AcDbEntity
  8
0
100
AcDbLine
 62
250
  6
CONTINUOUS
 10
-12.518967297
 20
8.368585476
 11
-12.5179697821
 21
8.3738675967
  0
LWPOLYLINE
  5
232
100
AcDbEntity
  8
0
100
AcDbPolyline
 62
250
  6
CONTINUOUS
 90
10
 70
0
 10
-15.4575614349
 20
6.5853518905
 10
-15.4384702397
 20
6.6832980368
 10
-15.4077669161
 20
6.7763642914
 10
-15.3654514642
 20
6.8645506545
 10
-15.3099520725
 20
6.9497513202
 10
-15.2428405524
 20
7.0300720943
 10
-15.1688323378
 20
7.0998303938
 10
-15.0894992399
 20
7.1571320243
 10
-15.0032694475
 20
7.2038711802
 10
-14.9101429606
 20
7.2400478615
  0
LWPOLYLINE
  5
233
100
AcDbEntity
  8
0
100
AcDbPolyline
 62
7
  6
CONTINUOUS
 90
4
 70
0
 10
-15.7507513286
 20
7.1906579692
 10
-15.815177055
 20
7.0807214686
 10
-15.8682370141
 20
6.9661314078
 10
-15.8696634884
 20
6.9620860335
  0
LINE
  5
234
100
AcDbEntity
  8
0
100
AcDbLine
 62
250
  6
CONTINUOUS
 10
-12.5179697821
 20
8.3738675967
 11
-12.4625564704
 21
8.4453709147
  0
LWPOLYLINE
  5
235
100
AcDbEntity
  8
0
100
AcDbPolyline
 62
250
  6
CONTINUOUS
 90
9
 70
0
 10
-12.5305882701
 20
8.3388146003
 10
-12.5291466306
 20
8.3406732784
 10
-12.5272498541
 20
8.3437407505
 10
-12.5255123392
 20
8.3471627239
 10
-12.5239513934
 20
8.3508362131
 10
-12.522551584
 20
8.3547425843
 10
-12.5212625231
 20
8.3589891967
 10
-12.520063585
 20
8.3636226868
 10
-12.518967297
 20
8.368585476
  0
LINE
  5
236
100
AcDbEntity
  8
0
100
AcDbLine
 62
250
  6
CONTINUOUS
 10
-12.4625564704
 20
8.4453709147
 11
-12.3098179698
 21
8.5461167908
  0
LWPOLYLINE
  5
237
100
AcDbEntity
  8
0
100
AcDbPolyline
 62
7
  6
CONTINUOUS
 90
7
 70
0
 10
-15.3345000049
 20
7.5938585613
 10
-15.4007943176
 20
7.5503147907
 10
-15.4695656971
 20
7.498945183
 10
-15.5401409045
 20
7.4385881585
 10
-15.6108857815
 20
7.3686546047
 10
-15.681083491
 20
7.2873178015
 10
-15.7507513286
 20
7.1906579692
  0
LWPOLYLINE
  5
238
100
AcDbEntity
  8
0
100
AcDbPolyline
 62
250
  6
CONTINUOUS
 90
5
 70
0
 10
-15.0522990731
 20
7.7250565139
 10
-15.050235518
 20
7.7262627803
 10
-15.0478161609
 20
7.7274842768
 10
-15.0450435393
 20
7.7287123283
 10
-15.0420394965
 20
7.7298966005
  0
LINE
  5
239
100
AcDbEntity
  8
0
100
AcDbLine
 62
7
  6
CONTINUOUS
 10
-15.269141793
 20
7.6316960855
 11
-15.3345000049
 21
7.5938585613
  0
LWPOLYLINE
  5
23A
100
AcDbEntity
  8
0
100
AcDbPolyline
 62
250
  6
CONTINUOUS
 90
6
 70
0
 10
-15.0522990731
 20
-7.7250565139
 10
-15.050235518
 20
-7.7262627803
 10
-15.0478161609
 20
-7.7274842768
 10
-15.0450435393
 20
-7.7287123283
 10
-15.0420394965
 20
-7.7298966005
 10
-15.0406929677
 20
-7.7303848192
  0
LWPOLYLINE
  5
23B
100
AcDbEntity
  8
0
100
AcDbPolyline
 62
250
  6
CONTINUOUS
 90
5
 70
0
 10
-15.2428405524
 20
-7.0300720943
 10
-15.1688323378
 20
-7.0998303938
 10
-15.0894992399
 20
-7.1571320243
 10
-15.0032694475
 20
-7.2038711802
 10
-14.9101429606
 20
-7.2400478615
  0
LINE
  5
23C
100
AcDbEntity
  8
0
100
AcDbLine
 62
250
  6
CONTINUOUS
 10
-15.3099520725
 20
-6.9497513202
 11
-15.2428405524
 21
-7.0300720943
  0
LWPOLYLINE
  5
23D
100
AcDbEntity
  8
0
100
AcDbPolyline
 62
250
  6
CONTINUOUS
 90
10
 70
0
 10
-12.5312009781
 20
-8.3380246476
 10
-12.5291466306
 20
-8.3406732784
 10
-12.5272498541
 20
-8.3437407505
 10
-12.5255123392
 20
-8.3471627239
 10
-12.5239513934
 20
-8.3508362131
 10
-12.522551584
 20
-8.3547425843
 10
-12.5212625231
 20
-8.3589891967
 10
-12.520063585
 20
-8.3636226868
 10
-12.518967297
 20
-8.368585476
 10
-12.5179697821
 20
-8.3738675967
  0
LWPOLYLINE
  5
23E
100
AcDbEntity
  8
0
100
AcDbPolyline
 62
250
  6
CONTINUOUS
 90
4
 70
0
 10
-12.5179697821
 20
-8.3738675967
 10
-12.4625564704
 20
-8.4453709147
 10
-12.3098179698
 20
-8.5461167908
 10
-12.0478696485
 20
-8.6720158465
  0
LWPOLYLINE
  5
23F
100
AcDbEntity
  8
0
100
AcDbPolyline
 62
7
  6
CONTINUOUS
 90
9
 70
0
 10
-15.780163829
 20
-7.1434808354
 10
-15.6892788274
 20
-7.2768682219
 10
-15.5850388097
 20
-7.3954354883
 10
-15.4780801698
 20
-7.4921001578
 10
-15.378448377
 20
-7.5656085849
 10
-15.2843247189
 20
-7.6233297691
 10
-15.1888357459
 20
-7.6719653879
 10
-15.0894956882
 20
-7.7132574045
 10
-15.0406929677
 20
-7.7303848192
  0
LINE
  5
240
100
AcDbEntity
  8
0
100
AcDbLine
 62
250
  6
CONTINUOUS
 10
-15.3654514642
 20
-6.8645506545
 11
-15.3099520725
 21
-6.9497513202
  0
LINE
  5
241
100
AcDbEntity
  8
0
100
AcDbLine
 62
7
  6
CONTINUOUS
 10
-15.8563420401
 20
-6.9944662088
 11
-15.780163829
 21
-7.1434808354
  0
LINE
  5
242
100
AcDbEntity
  8
0
100
AcDbLine
 62
7
  6
CONTINUOUS
 10
-15.8937499894
 20
-6.8900574087
 11
-15.8563420401
 21
-6.9944662088
  0
LWPOLYLINE
  5
243
100
AcDbEntity
  8
0
100
AcDbPolyline
 62
250
  6
CONTINUOUS
 90
4
 70
0
 10
-15.4575614349
 20
-6.5853518905
 10
-15.4384702397
 20
-6.6832980368
 10
-15.4077669161
 20
-6.7763642914
 10
-15.3654514642
 20
-6.8645506545
  0
LWPOLYLINE
  5
244
100
AcDbEntity
  8
RACCORDO
100
AcDbPolyline
 62
250
  6
CONTINUOUS
 90
28
 70
0
 10
-11.5434120444
 20
0.0
 10
-11.5424218635
 20
-0.0896673162
 10
-11.5358762579
 20
-0.1828584228
 10
-11.5237752279
 20
-0.2795733197
 10
-11.5065092503
 20
-0.3806644657
 10
-11.4836878482
 20
-0.485279402
 10
-11.4541395904
 20
-0.5908607524
 10
-11.4175325
 20
-0.6974457655
 10
-11.3741985538
 20
-0.8049971925
 10
-11.3239622514
 20
-0.9108459115
 10
-11.2665230843
 20
-1.0148596794
 10
-11.2021815609
 20
-1.1171707392
 10
-11.1316637056
 20
-1.2155066981
 10
-11.0548739917
 20
-1.3095856327
 10
-10.9719079459
 20
-1.3996894664
 10
-10.8837781728
 20
-1.4843915766
 10
-10.7904151904
 20
-1.563547389
 10
-10.6918884807
 20
-1.6373014778
 10
-10.5894190941
 20
-1.7046609439
 10
-10.4829643304
 20
-1.765508067
 10
-10.3725668898
 20
-1.8199605674
 10
-10.2595759234
 20
-1.8673787063
 10
-10.1439393827
 20
-1.9076561439
 10
-10.025709316
 20
-1.9408992202
 10
-9.9063910193
 20
-1.9667872158
 10
-9.7864862578
 20
-1.9852132245
 10
-9.6654932661
 20
-1.9962841525
 10
-9.5434120444
 20
-2.0
  0
LWPOLYLINE
  5
245
100
AcDbEntity
  8
RACCORDO
100
AcDbPolyline
 62
250
  6
CONTINUOUS
 90
16
 70
0
 10
-9.5434120444
 20
-2.0
 10
-9.5431742287
 20
-2.0261321158
 10
-9.5424633871
 20
-2.0519779227
 10
-9.5412873077
 20
-2.0772542486
 10
-9.5396588759
 20
-2.1016841608
 10
-9.5375959332
 20
-2.125
 10
-9.5351210816
 20
-2.1469463131
 10
-9.5322614361
 20
-2.1672826516
 10
-9.5290483275
 20
-2.1857862064
 10
-9.5255169593
 20
-2.2022542486
 10
-9.521706022
 20
-2.2165063509
 10
-9.517657269
 20
-2.2283863644
 10
-9.5134150593
 20
-2.2377641291
 10
-9.5090258714
 20
-2.2445369002
 10
-9.5045377942
 20
-2.2486304738
 10
-9.5035074584
 20
-2.2489414337
  0
LINE
  5
246
100
AcDbEntity
  8
0
100
AcDbLine
 62
250
  6
CONTINUOUS
 10
-13.1409324815
 20
-6.2
 11
-13.1409324815
 21
-6.4110359141
  0
LINE
  5
247
100
AcDbEntity
  8
0
100
AcDbLine
 62
250
  6
CONTINUOUS
 10
-13.1409324815
 20
6.2
 11
-13.1409324815
 21
6.4110359141
  0
LINE
  5
248
100
AcDbEntity
  8
RACCORDO
100
AcDbLine
 62
250
  6
CONTINUOUS
 10
-11.5434120444
 20
0.2
 11
-11.5434120444
 21
0.0
  0
LINE
  5
249
100
AcDbEntity
  8
0
100
AcDbLine
 62
250
  6
CONTINUOUS
 10
-9.5
 20
-6.4048023205
 11
-9.5
 21
-6.4110359141
  0
LINE
  5
24A
100
AcDbEntity
  8
RACCORDO
100
AcDbLine
 62
250
  6
CONTINUOUS
 10
-9.5
 20
-3.2290539221
 11
-9.5
 21
-3.0063318721
  0
LINE
  5
24B
100
AcDbEntity
  8
RACCORDO
100
AcDbLine
 62
250
  6
CONTINUOUS
 10
-9.5
 20
3.0063318721
 11
-9.5
 21
3.2290539221
  0
LINE
  5
24C
100
AcDbEntity
  8
0
100
AcDbLine
 62
250
  6
CONTINUOUS
 10
-9.5
 20
6.4048023205
 11
-9.5
 21
6.4110051036
  0
LWPOLYLINE
  5
24D
100
AcDbEntity
  8
0
100
AcDbPolyline
 62
250
  6
CONTINUOUS
 90
10
 70
0
 10
-15.0595670394
 20
-7.7128064309
 10
-15.0598443967
 20
-7.714161612
 10
-15.059828915
 20
-7.7155173245
 10
-15.0595380903
 20
-7.7168733094
 10
-15.0589892137
 20
-7.7182293232
 10
-15.058199387
 20
-7.7195851007
 10
-15.0571811016
 20
-7.7209407286
 10
-15.0558997666
 20
-7.7223002576
 10
-15.0542930551
 20
-7.7236700768
 10
-15.0522990731
 20
-7.7250565139
  0
LINE
  5
24E
100
AcDbEntity
  8
0
100
AcDbLine
 62
250
  6
CONTINUOUS
 10
-14.9090353758
 20
-7.2404015341
 11
-14.9830787664
 21
-7.4768175558
  0
LINE
  5
24F
100
AcDbEntity
  8
0
100
AcDbLine
 62
250
  6
CONTINUOUS
 10
-14.9830787664
 20
-7.4768175558
 11
-15.0047325106
 21
-7.5446824926
  0
LINE
  5
250
100
AcDbEntity
  8
0
100
AcDbLine
 62
250
  6
CONTINUOUS
 10
-15.0047325106
 20
-7.5446824926
 11
-15.057139218
 21
-7.70576535
  0
LINE
  5
251
100
AcDbEntity
  8
0
100
AcDbLine
 62
250
  6
CONTINUOUS
 10
-15.057139218
 20
-7.70576535
 11
-15.0595796216
 21
-7.712801757
  0
LWPOLYLINE
  5
252
100
AcDbEntity
  8
RACCORDO
100
AcDbPolyline
 62
250
  6
CONTINUOUS
 90
10
 70
0
 10
-11.3320476754
 20
1.0948645593
 10
-11.3803639083
 20
0.9888078783
 10
-11.4221844213
 20
0.8838044172
 10
-11.4575092146
 20
0.7798541761
 10
-11.4859544294
 20
0.676152353
 10
-11.5079039243
 20
0.57350375
 10
-11.5245092757
 20
0.4743227725
 10
-11.5361543422
 20
0.3794142227
 10
-11.5424552651
 20
0.2879732985
 10
-11.5434120444
 20
0.2
  0
LWPOLYLINE
  5
253
100
AcDbEntity
  8
0
100
AcDbPolyline
 62
250
  6
CONTINUOUS
 90
4
 70
0
 10
-12.3098179698
 20
8.5461167908
 10
-12.0478696485
 20
8.6720158465
 10
-11.66394491
 20
8.8211238706
 10
-11.5057609685
 20
8.8758625822
  0
LINE
  5
254
100
AcDbEntity
  8
0
100
AcDbLine
 62
250
  6
CONTINUOUS
 10
-15.0420394965
 20
7.7298966005
 11
-15.0396759304
 21
7.7307365329
  0
LINE
  5
255
100
AcDbEntity
  8
0
100
AcDbLine
 62
7
  6
CONTINUOUS
 10
-12.7791883902
 20
8.4282169111
 11
-12.9945116196
 21
8.3524960853
  0
LWPOLYLINE
  5
256
100
AcDbEntity
  8
0
100
AcDbPolyline
 62
7
  6
CONTINUOUS
 90
5
 70
0
 10
-15.0396759304
 20
7.7307365329
 10
-15.0798179115
 20
7.7168225837
 10
-15.1460718529
 20
7.6908348804
 10
-15.2067668207
 20
7.6635336858
 10
-15.269141793
 20
7.6316960855
  0
LWPOLYLINE
  5
257
100
AcDbEntity
  8
0
100
AcDbPolyline
 62
7
  6
CONTINUOUS
 90
4
 70
0
 10
-11.6697606148
 20
8.8201467208
 10
-11.8600158047
 20
8.7543525958
 10
-12.0399312693
 20
8.6912156943
 10
-12.7791883902
 20
8.4282169111
  0
LINE
  5
258
100
AcDbEntity
  8
0
100
AcDbLine
 62
7
  6
CONTINUOUS
 10
-12.9945116196
 20
8.3524960853
 11
-13.1706541707
 21
8.291566875
  0
LINE
  5
259
100
AcDbEntity
  8
0
100
AcDbLine
 62
250
  6
CONTINUOUS
 10
-11.0372872228
 20
8.6844231375
 11
-10.547611591
 21
8.852586435
  0
LINE
  5
25A
100
AcDbEntity
  8
0
100
AcDbLine
 62
7
  6
CONTINUOUS
 10
-13.1706541707
 20
8.291566875
 11
-13.3201618311
 21
8.240832
  0
LINE
  5
25B
100
AcDbEntity
  8
0
100
AcDbLine
 62
7
  6
CONTINUOUS
 10
-11.6697606148
 20
8.8201467208
 11
-11.5048314749
 21
8.8761757716
  0
LINE
  5
25C
100
AcDbEntity
  8
0
100
AcDbLine
 62
7
  6
CONTINUOUS
 10
-13.3201618311
 20
8.240832
 11
-13.4491052027
 21
8.1979650342
  0
LINE
  5
25D
100
AcDbEntity
  8
0
100
AcDbLine
 62
7
  6
CONTINUOUS
 10
-14.980271815
 20
7.7502084962
 11
-15.039830821
 21
7.7307365258
  0
LINE
  5
25E
100
AcDbEntity
  8
0
100
AcDbLine
 62
7
  6
CONTINUOUS
 10
-13.4491052027
 20
8.1979650342
 11
-13.563597692
 21
8.1606943518
  0
LINE
  5
25F
100
AcDbEntity
  8
0
100
AcDbLine
 62
7
  6
CONTINUOUS
 10
-14.9233107746
 20
7.7685449291
 11
-14.980271815
 21
7.7502084962
  0
LINE
  5
260
100
AcDbEntity
  8
0
100
AcDbLine
 62
7
  6
CONTINUOUS
 10
-13.563597692
 20
8.1606943518
 11
-13.6672242365
 21
8.1276640066
  0
LINE
  5
261
100
AcDbEntity
  8
0
100
AcDbLine
 62
7
  6
CONTINUOUS
 10
-14.865180253
 20
7.7869687351
 11
-14.9233107746
 21
7.7685449291
  0
LINE
  5
262
100
AcDbEntity
  8
0
100
AcDbLine
 62
7
  6
CONTINUOUS
 10
-13.6672242365
 20
8.1276640066
 11
-13.7617801187
 21
8.0981388649
  0
LINE
  5
263
100
AcDbEntity
  8
0
100
AcDbLine
 62
7
  6
CONTINUOUS
 10
-14.8062335956
 20
7.8053514592
 11
-14.865180253
 21
7.7869687351
  0
LINE
  5
264
100
AcDbEntity
  8
0
100
AcDbLine
 62
7
  6
CONTINUOUS
 10
-14.7469741405
 20
7.8235272193
 11
-14.8062335956
 21
7.8053514592
  0
LINE
  5
265
100
AcDbEntity
  8
0
100
AcDbLine
 62
7
  6
CONTINUOUS
 10
-13.7617801187
 20
8.0981388649
 11
-13.8508782972
 21
8.0708600269
  0
LINE
  5
266
100
AcDbEntity
  8
0
100
AcDbLine
 62
7
  6
CONTINUOUS
 10
-14.6881216547
 20
7.8412779614
 11
-14.7469741405
 21
7.8235272193
  0
LWPOLYLINE
  5
267
100
AcDbEntity
  8
0
100
AcDbPolyline
 62
7
  6
CONTINUOUS
 90
3
 70
0
 10
-13.8508782972
 20
8.0708600269
 10
-13.9454518843
 20
8.042455217
 10
-13.9588579003
 20
8.0385185137
  0
LINE
  5
268
100
AcDbEntity
  8
0
100
AcDbLine
 62
7
  6
CONTINUOUS
 10
-15.0595822506
 20
7.7128009189
 11
-14.2790863247
 21
7.9444663712
  0
LINE
  5
269
100
AcDbEntity
  8
0
100
AcDbLine
 62
7
  6
CONTINUOUS
 10
-14.6299023785
 20
7.8585472229
 11
-14.6881216547
 21
7.8412779614
  0
LINE
  5
26A
100
AcDbEntity
  8
0
100
AcDbLine
 62
7
  6
CONTINUOUS
 10
-14.5537552713
 20
7.8807068584
 11
-14.6299023785
 21
7.8585472229
  0
LWPOLYLINE
  5
26B
100
AcDbEntity
  8
0
100
AcDbPolyline
 62
250
  6
CONTINUOUS
 90
12
 70
0
 10
-10.547611591
 20
8.852586435
 10
-9.9496302965
 20
9.0237504579
 10
-9.2519514367
 20
9.1920434391
 10
-8.4644650133
 20
9.3529613183
 10
-7.5956294016
 20
9.5025053391
 10
-6.651979215
 20
9.6367531935
 10
-5.6441251004
 20
9.7529329447
 10
-4.5835640334
 20
9.8497682688
 10
-3.477863293
 20
9.9260113133
 10
-2.3368102997
 20
9.9807731721
 10
-1.1732277744
 20
10.0133909441
 10
-0.0000000013
 20
10.0237539399
  0
LINE
  5
26C
100
AcDbEntity
  8
0
100
AcDbLine
 62
7
  6
CONTINUOUS
 10
-14.5165726271
 20
7.8913552786
 11
-14.5537552713
 21
7.8807068584
  0
LINE
  5
26D
100
AcDbEntity
  8
0
100
AcDbLine
 62
250
  6
CONTINUOUS
 10
12.172794545
 20
-8.4227324803
 11
12.2616978476
 21
-8.397656732
  0
LINE
  5
26E
100
AcDbEntity
  8
0
100
AcDbLine
 62
250
  6
CONTINUOUS
 10
14.5969960551
 20
-7.3319354723
 11
14.6681921682
 21
-7.3118599401
  0
LINE
  5
26F
100
AcDbEntity
  8
0
100
AcDbLine
 62
7
  6
CONTINUOUS
 10
13.9930757317
 20
-8.0286436653
 11
14.0123986313
 21
-8.0232248736
  0
LINE
  5
270
100
AcDbEntity
  8
0
100
AcDbLine
 62
7
  6
CONTINUOUS
 10
14.4040176689
 20
-7.9229257911
 11
14.5198081821
 21
-7.8904330869
  0
LWPOLYLINE
  5
271
100
AcDbEntity
  8
0
100
AcDbPolyline
 62
7
  6
CONTINUOUS
 90
3
 70
0
 10
14.0123986313
 20
-8.0232248736
 10
14.0273619668
 20
-8.0191147199
 10
14.0307104628
 20
-8.0182077625
  0
LINE
  5
272
100
AcDbEntity
  8
0
100
AcDbLine
 62
250
  6
CONTINUOUS
 10
12.0700675406
 20
-8.4499870039
 11
12.172794545
 21
-8.4227324803
  0
LINE
  5
273
100
AcDbEntity
  8
0
100
AcDbLine
 62
7
  6
CONTINUOUS
 10
14.3467740292
 20
-7.9257594476
 11
13.6390466337
 21
-8.1079649192
  0
LWPOLYLINE
  5
274
100
AcDbEntity
  8
0
100
AcDbPolyline
 62
250
  6
CONTINUOUS
 90
3
 70
0
 10
12.2614820931
 20
-8.3976264259
 10
12.2801975795
 20
-8.3928206907
 10
12.2990557659
 20
-8.3881000081
  0
LINE
  5
275
100
AcDbEntity
  8
0
100
AcDbLine
 62
250
  6
CONTINUOUS
 10
11.8303763685
 20
-8.5093268922
 11
12.0700675406
 21
-8.4499870039
  0
LINE
  5
276
100
AcDbEntity
  8
0
100
AcDbLine
 62
250
  6
CONTINUOUS
 10
11.695545429
 20
-8.5420548684
 11
11.8303763685
 21
-8.5093268922
  0
LINE
  5
277
100
AcDbEntity
  8
0
100
AcDbLine
 62
250
  6
CONTINUOUS
 10
9.9496302964
 20
-9.0237504579
 11
9.2519514365
 21
-9.1920434392
  0
LWPOLYLINE
  5
278
100
AcDbEntity
  8
0
100
AcDbPolyline
 62
250
  6
CONTINUOUS
 90
4
 70
0
 10
12.2990557659
 20
-8.3881000081
 10
12.3370915512
 20
-8.3788664368
 10
12.3562836108
 20
-8.3743358766
 10
12.3760634212
 20
-8.3698351705
  0
LWPOLYLINE
  5
279
100
AcDbEntity
  8
0
100
AcDbPolyline
 62
7
  6
CONTINUOUS
 90
8
 70
0
 10
13.8453837629
 20
-8.0658121984
 10
13.9382735156
 20
-8.0435340277
 10
14.015006531
 20
-8.0247040137
 10
14.0855742812
 20
-8.0070473709
 10
14.1535744439
 20
-7.9897086654
 10
14.220079844
 20
-7.9724315924
 10
14.2840745854
 20
-7.9554992294
 10
14.4040176689
 20
-7.9229257911
  0
LINE
  5
27A
100
AcDbEntity
  8
0
100
AcDbLine
 62
7
  6
CONTINUOUS
 10
13.7459938069
 20
-8.0890678591
 11
13.8453837629
 21
-8.0658121984
  0
LINE
  5
27B
100
AcDbEntity
  8
0
100
AcDbLine
 62
7
  6
CONTINUOUS
 10
13.6045557301
 20
-8.1212744041
 11
13.7459938069
 21
-8.0890678591
  0
LINE
  5
27C
100
AcDbEntity
  8
0
100
AcDbLine
 62
7
  6
CONTINUOUS
 10
13.5157967823
 20
-8.1409969413
 11
13.6045557301
 21
-8.1212744041
  0
LINE
  5
27D
100
AcDbEntity
  8
0
100
AcDbLine
 62
7
  6
CONTINUOUS
 10
13.6390466337
 20
-8.1079649192
 11
12.9378225951
 21
-8.2608496577
  0
LINE
  5
27E
100
AcDbEntity
  8
0
100
AcDbLine
 62
7
  6
CONTINUOUS
 10
13.3841972709
 20
-8.1695890679
 11
13.5157967823
 21
-8.1409969413
  0
LINE
  5
27F
100
AcDbEntity
  8
0
100
AcDbLine
 62
250
  6
CONTINUOUS
 10
12.3760634212
 20
-8.3698351705
 11
12.4176437853
 21
-8.3607747594
  0
LINE
  5
280
100
AcDbEntity
  8
0
100
AcDbLine
 62
7
  6
CONTINUOUS
 10
13.1722883762
 20
-8.2143867428
 11
13.1971205251
 21
-8.2090816895
  0
LWPOLYLINE
  5
281
100
AcDbEntity
  8
0
100
AcDbPolyline
 62
250
  6
CONTINUOUS
 90
4
 70
0
 10
11.2179468694
 20
-8.64708245
 10
11.3885894207
 20
-8.6110450693
 10
11.5483845384
 20
-8.5761192174
 10
11.695545429
 20
-8.5420548684
  0
LWPOLYLINE
  5
282
100
AcDbEntity
  8
0
100
AcDbPolyline
 62
7
  6
CONTINUOUS
 90
3
 70
0
 10
13.1831577712
 20
-8.2120146463
 10
13.2127074274
 20
-8.2058478641
 10
13.3841972709
 20
-8.1695890679
  0
LINE
  5
283
100
AcDbEntity
  8
0
100
AcDbLine
 62
250
  6
CONTINUOUS
 10
11.0372537492
 20
-8.6843962175
 11
11.2179468694
 21
-8.64708245
  0
LINE
  5
284
100
AcDbEntity
  8
0
100
AcDbLine
 62
250
  6
CONTINUOUS
 10
9.2519514365
 20
-9.1920434392
 11
8.464465013
 21
-9.3529613183
  0
LWPOLYLINE
  5
285
100
AcDbEntity
  8
0
100
AcDbPolyline
 62
7
  6
CONTINUOUS
 90
3
 70
0
 10
8.8480432779
 20
-9.5356166751
 10
9.7724639675
 20
-9.348079643
 10
10.6025792759
 20
-9.1458926495
  0
LWPOLYLINE
  5
286
100
AcDbEntity
  8
0
100
AcDbPolyline
 62
250
  6
CONTINUOUS
 90
3
 70
0
 10
12.1057231414
 20
-7.9059390655
 10
12.5993696476
 20
-7.8107472124
 10
13.0979512915
 20
-7.7032966628
  0
LWPOLYLINE
  5
287
100
AcDbEntity
  8
0
100
AcDbPolyline
 62
7
  6
CONTINUOUS
 90
3
 70
0
 10
12.9378225951
 20
-8.2608496577
 10
12.2455612347
 20
-8.3885895011
 10
11.5635752092
 20
-8.4954488144
  0
LINE
  5
288
100
AcDbEntity
  8
0
100
AcDbLine
 62
7
  6
CONTINUOUS
 10
12.5500219562
 20
-8.337332452
 11
12.5521843118
 21
-8.3369416903
  0
LINE
  5
289
100
AcDbEntity
  8
0
100
AcDbLine
 62
250
  6
CONTINUOUS
 10
8.464465013
 20
-9.3529613183
 11
7.5956294012
 21
-9.5025053391
  0
LINE
  5
28A
100
AcDbEntity
  8
0
100
AcDbLine
 62
7
  6
CONTINUOUS
 10
12.5476583185
 20
-8.3377316819
 11
12.5500219562
 21
-8.337332452
  0
LINE
  5
28B
100
AcDbEntity
  8
0
100
AcDbLine
 62
7
  6
CONTINUOUS
 10
7.8232389922
 20
-9.7072403102
 11
8.8480432779
 21
-9.5356166751
  0
LINE
  5
28C
100
AcDbEntity
  8
0
100
AcDbLine
 62
250
  6
CONTINUOUS
 10
7.5956294012
 20
-9.5025053391
 11
6.6519792145
 21
-9.6367531936
  0
LINE
  5
28D
100
AcDbEntity
  8
0
100
AcDbLine
 62
7
  6
CONTINUOUS
 10
6.7155816367
 20
-9.8579380389
 11
7.8232389922
 21
-9.7072403102
  0
LWPOLYLINE
  5
28E
100
AcDbEntity
  8
0
100
AcDbPolyline
 62
7
  6
CONTINUOUS
 90
5
 70
0
 10
11.5635752092
 20
-8.4954488144
 10
10.8914535026
 20
-8.586380013
 10
10.2292408407
 20
-8.6663263173
 10
9.577731542
 20
-8.737617881
 10
8.9369960501
 20
-8.7995803205
  0
LINE
  5
28F
100
AcDbEntity
  8
0
100
AcDbLine
 62
7
  6
CONTINUOUS
 10
12.0877783085
 20
-8.4055002546
 11
12.1849459156
 21
-8.3925487136
  0
LINE
  5
290
100
AcDbEntity
  8
0
100
AcDbLine
 62
250
  6
CONTINUOUS
 10
8.6952684241
 20
-8.3460960961
 11
10.1804884944
 21
-8.1641195136
  0
LINE
  5
291
100
AcDbEntity
  8
0
100
AcDbLine
 62
250
  6
CONTINUOUS
 10
6.6519792145
 20
-9.6367531936
 11
5.6441250999
 21
-9.7529329447
  0
LWPOLYLINE
  5
292
100
AcDbEntity
  8
0
100
AcDbPolyline
 62
250
  6
CONTINUOUS
 90
4
 70
0
 10
10.1804884944
 20
-8.1641195136
 10
11.1366841732
 20
-8.0552112173
 10
11.617011773
 20
-7.9888722222
 10
12.1057231414
 20
-7.9059390655
  0
LWPOLYLINE
  5
293
100
AcDbEntity
  8
0
100
AcDbPolyline
 62
7
  6
CONTINUOUS
 90
5
 70
0
 10
11.6829739492
 20
-8.451511993
 10
11.7924502803
 20
-8.4400286677
 10
11.8950836978
 20
-8.4286949954
 10
11.9917468973
 20
-8.4174503091
 10
12.0877783085
 20
-8.4055002546
  0
LINE
  5
294
100
AcDbEntity
  8
0
100
AcDbLine
 62
250
  6
CONTINUOUS
 10
5.6441250999
 20
-9.7529329447
 11
4.5835640329
 21
-9.8497682689
  0
LWPOLYLINE
  5
295
100
AcDbEntity
  8
0
100
AcDbPolyline
 62
7
  6
CONTINUOUS
 90
10
 70
0
 10
8.7106126063
 20
-8.8547684115
 10
7.7447375728
 20
-8.934509985
 10
6.7781365763
 20
-9.0048902299
 10
5.8109003462
 20
-9.0659025768
 10
4.8431478765
 20
-9.1175399673
 10
3.8749418239
 20
-9.1597995057
 10
2.9062883796
 20
-9.192679726
 10
1.9372501565
 20
-9.216175665
 10
0.9679462994
 20
-9.2302815964
 10
-0.0015322005
 20
-9.2349937696
  0
LWPOLYLINE
  5
296
100
AcDbEntity
  8
0
100
AcDbPolyline
 62
250
  6
CONTINUOUS
 90
10
 70
0
 10
8.6952684241
 20
-8.3460960961
 10
7.6968750859
 20
-8.4180674262
 10
6.706448553
 20
-8.4824596344
 10
5.7239888253
 20
-8.5392727207
 10
4.749366707
 20
-8.5891234306
 10
3.7827113941
 20
-8.6313950186
 10
2.8244104737
 20
-8.6642372477
 10
1.8745931416
 20
-8.6870333722
 10
0.9331302022
 20
-8.7004001377
 10
0.0000216553
 20
-8.7043375444
  0
LWPOLYLINE
  5
297
100
AcDbEntity
  8
0
100
AcDbPolyline
 62
250
  6
CONTINUOUS
 90
5
 70
0
 10
4.5835640329
 20
-9.8497682689
 10
3.4778632922
 20
-9.9260113133
 10
2.3368102985
 20
-9.9807731723
 10
1.1732277725
 20
-10.0133909443
 10
-0.0000000013
 20
-10.0237539403
  0
LWPOLYLINE
  5
298
100
AcDbEntity
  8
0
100
AcDbPolyline
 62
7
  6
CONTINUOUS
 90
5
 70
0
 10
12.540209159
 20
-8.338523116
 10
12.5411836867
 20
-8.338476428
 10
12.5431388081
 20
-8.3383220813
 10
12.5453640148
 20
-8.3380620356
 10
12.5476583185
 20
-8.3377316819
  0
LINE
  5
299
100
AcDbEntity
  8
0
100
AcDbLine
 62
250
  6
CONTINUOUS
 10
9.9464452034
 20
-8.7314491208
 11
10.8730391741
 21
-8.6911996913
  0
LINE
  5
29A
100
AcDbEntity
  8
0
100
AcDbLine
 62
250
  6
CONTINUOUS
 10
10.8730391741
 20
-8.6911996913
 11
11.0372872228
 21
-8.6844231375
  0
LINE
  5
29B
100
AcDbEntity
  8
0
100
AcDbLine
 62
250
  6
CONTINUOUS
 10
9.4311537067
 20
-8.7517927166
 11
9.9464452034
 21
-8.7314491208
  0
LWPOLYLINE
  5
29C
100
AcDbEntity
  8
0
100
AcDbPolyline
 62
7
  6
CONTINUOUS
 90
7
 70
0
 10
-0.0000037374
 20
-10.2339936566
 10
0.4298991539
 20
-10.2325560724
 10
1.7489245465
 20
-10.2103541428
 10
3.0519462834
 20
-10.1612915677
 10
4.3213823311
 20
-10.0857540184
 10
5.544928877
 20
-9.9844879261
 10
6.7155816367
 20
-9.8579380389
  0
LINE
  5
29D
100
AcDbEntity
  8
0
100
AcDbLine
 62
7
  6
CONTINUOUS
 10
-3.02369
 20
-9.2083223584
 11
-3.2615232128
 21
-9.2006005671
  0
LINE
  5
29E
100
AcDbEntity
  8
0
100
AcDbLine
 62
7
  6
CONTINUOUS
 10
-3.2615232128
 20
-9.2006005671
 11
-3.6363743206
 21
-9.1860900094
  0
LINE
  5
29F
100
AcDbEntity
  8
0
100
AcDbLine
 62
250
  6
CONTINUOUS
 10
-9.5544772442
 20
-8.7471128142
 11
-9.9464452034
 21
-8.7314491208
  0
LINE
  5
2A0
100
AcDbEntity
  8
0
100
AcDbLine
 62
250
  6
CONTINUOUS
 10
-9.9464452034
 20
-8.7314491208
 11
-10.337946465
 21
-8.7147385563
  0
LWPOLYLINE
  5
2A1
100
AcDbEntity
  8
0
100
AcDbPolyline
 62
250
  6
CONTINUOUS
 90
3
 70
0
 10
-10.337946465
 20
-8.7147385563
 10
-10.7016455676
 20
-8.698637278
 10
-11.0372872228
 20
-8.6844231375
  0
LINE
  5
2A2
100
AcDbEntity
  8
0
100
AcDbLine
 62
7
  6
CONTINUOUS
 10
-3.6363743206
 20
-9.1860900094
 11
-3.82369
 21
-9.1775707047
  0
LWPOLYLINE
  5
2A3
100
AcDbEntity
  8
0
100
AcDbPolyline
 62
7
  6
CONTINUOUS
 90
5
 70
0
 10
-12.5404359088
 20
-8.3385132854
 10
-12.5411836867
 20
-8.338476428
 10
-12.5431388081
 20
-8.3383220813
 10
-12.5453640148
 20
-8.3380620356
 10
-12.5476583185
 20
-8.3377316819
  0
LWPOLYLINE
  5
2A4
100
AcDbEntity
  8
0
100
AcDbPolyline
 62
250
  6
CONTINUOUS
 90
5
 70
0
 10
-4.5835640334
 20
-9.8497682688
 10
-3.477863293
 20
-9.9260113133
 10
-2.3368102997
 20
-9.9807731721
 10
-1.1732277744
 20
-10.0133909441
 10
-0.0000000013
 20
-10.0237539399
  0
LWPOLYLINE
  5
2A5
100
AcDbEntity
  8
0
100
AcDbPolyline
 62
7
  6
CONTINUOUS
 90
4
 70
0
 10
-4.62372
 20
-9.1338834375
 10
-4.8535526817
 20
-9.1169649609
 10
-5.0416430068
 20
-9.0999472382
 10
-5.1675896565
 20
-9.0846905252
  0
LWPOLYLINE
  5
2A6
100
AcDbEntity
  8
0
100
AcDbPolyline
 62
7
  6
CONTINUOUS
 90
10
 70
0
 10
-8.7166186495
 20
-8.8547685739
 10
-7.7503382721
 20
-8.934541617
 10
-6.783330067
 20
-9.0049455608
 10
-5.8156848754
 20
-9.0659737904
 10
-4.8474935379
 20
-9.1176205745
 10
-3.8788470669
 20
-9.1598810562
 10
-2.9098366383
 20
-9.1927512591
 10
-1.9405533417
 20
-9.2162280982
 10
-0.9710881718
 20
-9.2303093746
 10
-0.0015322005
 20
-9.2349937696
  0
LINE
  5
2A7
100
AcDbEntity
  8
0
100
AcDbLine
 62
250
  6
CONTINUOUS
 10
-5.6441251004
 20
-9.7529329447
 11
-4.5835640334
 21
-9.8497682688
  0
LINE
  5
2A8
100
AcDbEntity
  8
0
100
AcDbLine
 62
7
  6
CONTINUOUS
 10
-8.52578
 20
-8.8833791967
 11
-8.6473883419
 21
-8.8716511396
  0
LINE
  5
2A9
100
AcDbEntity
  8
0
100
AcDbLine
 62
7
  6
CONTINUOUS
 10
-8.6473883419
 20
-8.8716511396
 11
-8.9466496545
 21
-8.8401979505
  0
LINE
  5
2AA
100
AcDbEntity
  8
0
100
AcDbLine
 62
250
  6
CONTINUOUS
 10
-6.651979215
 20
-9.6367531935
 11
-5.6441251004
 21
-9.7529329447
  0
LINE
  5
2AB
100
AcDbEntity
  8
0
100
AcDbLine
 62
7
  6
CONTINUOUS
 10
-10.1920140798
 20
-8.1646266576
 11
-11.1093934633
 21
-8.0564195446
  0
LINE
  5
2AC
100
AcDbEntity
  8
0
100
AcDbLine
 62
7
  6
CONTINUOUS
 10
-8.9466035372
 20
-8.8396845261
 11
-9.189656405
 21
-8.8107233946
  0
LINE
  5
2AD
100
AcDbEntity
  8
0
100
AcDbLine
 62
7
  6
CONTINUOUS
 10
-9.5239877079
 20
-8.2446579058
 11
-10.1920140798
 21
-8.1646266576
  0
LINE
  5
2AE
100
AcDbEntity
  8
0
100
AcDbLine
 62
7
  6
CONTINUOUS
 10
-8.695381928
 20
-8.3447766193
 11
-9.5239877079
 21
-8.2446579058
  0
LWPOLYLINE
  5
2AF
100
AcDbEntity
  8
0
100
AcDbPolyline
 62
7
  6
CONTINUOUS
 90
7
 70
0
 10
-11.1093934633
 20
-8.0564195446
 10
-11.2826176286
 20
-8.0352166207
 10
-11.4425692422
 20
-8.014911181
 10
-11.5904101171
 20
-7.9950852504
 10
-11.7461906812
 20
-7.9715467724
 10
-11.9106362482
 20
-7.9442768716
 10
-12.0830215045
 20
-7.9132944234
  0
LWPOLYLINE
  5
2B0
100
AcDbEntity
  8
0
100
AcDbPolyline
 62
7
  6
CONTINUOUS
 90
5
 70
0
 10
-11.5683957783
 20
-8.4947505097
 10
-10.8951178614
 20
-8.585914842
 10
-10.2308951379
 20
-8.6661357421
 10
-9.5765637229
 20
-8.737738544
 10
-8.9321915665
 20
-8.8000113065
  0
LINE
  5
2B1
100
AcDbEntity
  8
0
100
AcDbLine
 62
7
  6
CONTINUOUS
 10
-9.189656405
 20
-8.8107233946
 11
-9.371598874
 21
-8.7856135141
  0
LINE
  5
2B2
100
AcDbEntity
  8
0
100
AcDbLine
 62
250
  6
CONTINUOUS
 10
-7.5956294016
 20
-9.5025053391
 11
-6.651979215
 21
-9.6367531935
  0
LWPOLYLINE
  5
2B3
100
AcDbEntity
  8
0
100
AcDbPolyline
 62
7
  6
CONTINUOUS
 90
9
 70
0
 10
-8.8480442324
 20
-9.5356164988
 10
-7.8232401033
 20
-9.707240142
 10
-6.7155829055
 20
-9.8579378845
 10
-5.5449303152
 20
-9.9844877893
 10
-4.3213839351
 20
-10.0857539047
 10
-3.051948041
 20
-10.1612914826
 10
-1.7489264397
 20
-10.2103540914
 10
-0.4299011631
 20
-10.2325560591
 10
0.000001967
 20
-10.2339936566
  0
LINE
  5
2B4
100
AcDbEntity
  8
0
100
AcDbLine
 62
7
  6
CONTINUOUS
 10
-12.5476583185
 20
-8.3377316819
 11
-12.5500219562
 21
-8.337332452
  0
LINE
  5
2B5
100
AcDbEntity
  8
0
100
AcDbLine
 62
7
  6
CONTINUOUS
 10
-9.371598874
 20
-8.7856135141
 11
-9.4925074222
 21
-8.764957812
  0
LINE
  5
2B6
100
AcDbEntity
  8
0
100
AcDbLine
 62
250
  6
CONTINUOUS
 10
-8.4644650133
 20
-9.3529613183
 11
-7.5956294016
 21
-9.5025053391
  0
LINE
  5
2B7
100
AcDbEntity
  8
0
100
AcDbLine
 62
7
  6
CONTINUOUS
 10
-12.5500219562
 20
-8.337332452
 11
-12.5521843118
 21
-8.3369416903
  0
LWPOLYLINE
  5
2B8
100
AcDbEntity
  8
0
100
AcDbPolyline
 62
7
  6
CONTINUOUS
 90
3
 70
0
 10
-12.942652523
 20
-8.2598818479
 10
-12.2507284166
 20
-8.3877123838
 10
-11.5683957783
 20
-8.4947505097
  0
LINE
  5
2B9
100
AcDbEntity
  8
0
100
AcDbLine
 62
7
  6
CONTINUOUS
 10
-12.0830215045
 20
-7.9132944234
 11
-12.2812209361
 21
-7.8744639969
  0
LINE
  5
2BA
100
AcDbEntity
  8
0
100
AcDbLine
 62
7
  6
CONTINUOUS
 10
-9.7724647424
 20
-9.3480794706
 11
-8.8480442324
 21
-9.5356164988
  0
LINE
  5
2BB
100
AcDbEntity
  8
0
100
AcDbLine
 62
250
  6
CONTINUOUS
 10
-9.2519514367
 20
-9.1920434391
 11
-8.4644650133
 21
-9.3529613183
  0
LWPOLYLINE
  5
2BC
100
AcDbEntity
  8
0
100
AcDbPolyline
 62
250
  6
CONTINUOUS
 90
5
 70
0
 10
-11.0372537492
 20
-8.6843962175
 10
-11.2179468694
 20
-8.64708245
 10
-11.3885894207
 20
-8.6110450693
 10
-11.5483845384
 20
-8.5761192174
 10
-11.695545429
 20
-8.5420548684
  0
LWPOLYLINE
  5
2BD
100
AcDbEntity
  8
0
100
AcDbPolyline
 62
7
  6
CONTINUOUS
 90
4
 70
0
 10
-12.2812209361
 20
-7.8744639969
 10
-12.5111927053
 20
-7.8264071153
 10
-12.7669786498
 20
-7.7705022556
 10
-13.0485787698
 20
-7.7067494176
  0
LINE
  5
2BE
100
AcDbEntity
  8
0
100
AcDbLine
 62
7
  6
CONTINUOUS
 10
-13.3545771239
 20
-8.1759261587
 11
-13.1845196204
 21
-8.2117287439
  0
LINE
  5
2BF
100
AcDbEntity
  8
0
100
AcDbLine
 62
7
  6
CONTINUOUS
 10
-13.1928869242
 20
-8.2099833633
 11
-13.1722115129
 21
-8.2144031981
  0
LINE
  5
2C0
100
AcDbEntity
  8
0
100
AcDbLine
 62
7
  6
CONTINUOUS
 10
-13.4724229274
 20
-8.1505029295
 11
-13.3545771239
 21
-8.1759261587
  0
LINE
  5
2C1
100
AcDbEntity
  8
0
100
AcDbLine
 62
7
  6
CONTINUOUS
 10
-13.6429073036
 20
-8.1070504706
 11
-12.942652523
 21
-8.2598818479
  0
LINE
  5
2C2
100
AcDbEntity
  8
0
100
AcDbLine
 62
7
  6
CONTINUOUS
 10
-13.5914959008
 20
-8.1241756103
 11
-13.4724229274
 21
-8.1505029295
  0
LINE
  5
2C3
100
AcDbEntity
  8
0
100
AcDbLine
 62
7
  6
CONTINUOUS
 10
-13.6990650977
 20
-8.0998948843
 11
-13.582111768
 21
-8.1262975637
  0
LINE
  5
2C4
100
AcDbEntity
  8
0
100
AcDbLine
 62
7
  6
CONTINUOUS
 10
-13.791087669
 20
-8.0786149728
 11
-13.6990650977
 21
-8.0998948843
  0
LWPOLYLINE
  5
2C5
100
AcDbEntity
  8
0
100
AcDbPolyline
 62
250
  6
CONTINUOUS
 90
4
 70
0
 10
-12.3370915512
 20
-8.3788664368
 10
-12.3562836108
 20
-8.3743358766
 10
-12.3760634212
 20
-8.3698351705
 10
-12.4176437853
 20
-8.3607747594
  0
LINE
  5
2C6
100
AcDbEntity
  8
0
100
AcDbLine
 62
7
  6
CONTINUOUS
 10
-13.8852546072
 20
-8.0563240852
 11
-13.791087669
 21
-8.0786149728
  0
LINE
  5
2C7
100
AcDbEntity
  8
0
100
AcDbLine
 62
250
  6
CONTINUOUS
 10
-9.9496302965
 20
-9.0237504579
 11
-9.2519514367
 21
-9.1920434391
  0
LINE
  5
2C8
100
AcDbEntity
  8
0
100
AcDbLine
 62
7
  6
CONTINUOUS
 10
-13.9819644457
 20
-8.0328602081
 11
-13.8852546072
 21
-8.0563240852
  0
LWPOLYLINE
  5
2C9
100
AcDbEntity
  8
0
100
AcDbPolyline
 62
250
  6
CONTINUOUS
 90
3
 70
0
 10
-11.695545429
 20
-8.5420548684
 10
-11.9551602523
 20
-8.4786415834
 10
-12.0700675406
 20
-8.4499870039
  0
LINE
  5
2CA
100
AcDbEntity
  8
0
100
AcDbLine
 62
7
  6
CONTINUOUS
 10
-14.0567762082
 20
-8.014294474
 11
-13.9819644457
 21
-8.0328602081
  0
LINE
  5
2CB
100
AcDbEntity
  8
0
100
AcDbLine
 62
7
  6
CONTINUOUS
 10
-14.1340504448
 20
-7.9947202914
 11
-14.0567762082
 21
-8.014294474
  0
LWPOLYLINE
  5
2CC
100
AcDbEntity
  8
0
100
AcDbPolyline
 62
250
  6
CONTINUOUS
 90
4
 70
0
 10
-12.2614820931
 20
-8.3976264259
 10
-12.2801975795
 20
-8.3928206907
 10
-12.2990557659
 20
-8.3881000081
 10
-12.3370915512
 20
-8.3788664368
  0
LINE
  5
2CD
100
AcDbEntity
  8
0
100
AcDbLine
 62
7
  6
CONTINUOUS
 10
-14.3490142977
 20
-7.9251357254
 11
-13.6429073036
 21
-8.1070504706
  0
LINE
  5
2CE
100
AcDbEntity
  8
0
100
AcDbLine
 62
250
  6
CONTINUOUS
 10
-14.5969960551
 20
-7.3210538936
 11
-14.9101429606
 21
-7.2400478615
  0
LINE
  5
2CF
100
AcDbEntity
  8
0
100
AcDbLine
 62
7
  6
CONTINUOUS
 10
-14.2142656406
 20
-7.9739549036
 11
-14.1340504448
 21
-7.9947202914
  0
LINE
  5
2D0
100
AcDbEntity
  8
0
100
AcDbLine
 62
250
  6
CONTINUOUS
 10
-12.0700675406
 20
-8.4499870039
 11
-12.172794545
 21
-8.4227324803
  0
LINE
  5
2D1
100
AcDbEntity
  8
0
100
AcDbLine
 62
7
  6
CONTINUOUS
 10
-14.2985579386
 20
-7.9516244625
 11
-14.2142656406
 21
-7.9739549036
  0
LINE
  5
2D2
100
AcDbEntity
  8
0
100
AcDbLine
 62
7
  6
CONTINUOUS
 10
-14.0365550642
 20
-8.0166417759
 11
-14.0324233717
 21
-8.0177461383
  0
LINE
  5
2D3
100
AcDbEntity
  8
0
100
AcDbLine
 62
7
  6
CONTINUOUS
 10
-9.4925074222
 20
-8.764957812
 11
-9.5524638483
 21
-8.7488367617
  0
LINE
  5
2D4
100
AcDbEntity
  8
0
100
AcDbLine
 62
7
  6
CONTINUOUS
 10
-14.0324233717
 20
-8.0177461383
 11
-14.0207329283
 21
-8.0209250717
  0
LINE
  5
2D5
100
AcDbEntity
  8
0
100
AcDbLine
 62
7
  6
CONTINUOUS
 10
-14.3843770847
 20
-7.9283353188
 11
-14.2985579386
 21
-7.9516244625
  0
LINE
  5
2D6
100
AcDbEntity
  8
0
100
AcDbLine
 62
7
  6
CONTINUOUS
 10
-14.0207329283
 20
-8.0209250717
 11
-14.0028216114
 21
-8.0258963561
  0
LINE
  5
2D7
100
AcDbEntity
  8
0
100
AcDbLine
 62
7
  6
CONTINUOUS
 10
-14.4676819973
 20
-7.9051891974
 11
-14.3843770847
 21
-7.9283353188
  0
LINE
  5
2D8
100
AcDbEntity
  8
0
100
AcDbLine
 62
250
  6
CONTINUOUS
 10
-12.172794545
 20
-8.4227324803
 11
-12.2616978476
 21
-8.397656732
  0
LINE
  5
2D9
100
AcDbEntity
  8
0
100
AcDbLine
 62
7
  6
CONTINUOUS
 10
-14.5270752034
 20
-7.8883588031
 11
-14.4676819973
 21
-7.9051891974
  0
LINE
  5
2DA
100
AcDbEntity
  8
0
100
AcDbLine
 62
7
  6
CONTINUOUS
 10
-14.0028216114
 20
-8.0258963561
 11
-13.9820842992
 21
-8.0317747273
  0
LINE
  5
2DB
100
AcDbEntity
  8
0
100
AcDbLine
 62
7
  6
CONTINUOUS
 10
-14.5913663205
 20
-7.8698214768
 11
-14.5270752034
 21
-7.8883588031
  0
LWPOLYLINE
  5
2DC
100
AcDbEntity
  8
0
100
AcDbPolyline
 62
7
  6
CONTINUOUS
 90
3
 70
0
 10
-11.3077859635
 20
-8.9406691318
 10
-10.6025798426
 20
-9.1458924984
 10
-9.7724647424
 20
-9.3480794706
  0
LINE
  5
2DD
100
AcDbEntity
  8
0
100
AcDbLine
 62
7
  6
CONTINUOUS
 10
-13.9820842992
 20
-8.0317747273
 11
-13.9477626354
 21
-8.0417720242
  0
LINE
  5
2DE
100
AcDbEntity
  8
0
100
AcDbLine
 62
7
  6
CONTINUOUS
 10
-14.657848693
 20
-7.8502934268
 11
-14.5913663205
 21
-7.8698214768
  0
LINE
  5
2DF
100
AcDbEntity
  8
0
100
AcDbLine
 62
7
  6
CONTINUOUS
 10
-15.0595822506
 20
-7.7128009189
 11
-14.3490142977
 21
-7.9251357254
  0
LINE
  5
2E0
100
AcDbEntity
  8
0
100
AcDbLine
 62
7
  6
CONTINUOUS
 10
-14.7254855713
 20
-7.8300429711
 11
-14.657848693
 21
-7.8502934268
  0
LINE
  5
2E1
100
AcDbEntity
  8
0
100
AcDbLine
 62
7
  6
CONTINUOUS
 10
-13.9477626354
 20
-8.0417720242
 11
-13.8592853836
 21
-8.0683125568
  0
LINE
  5
2E2
100
AcDbEntity
  8
0
100
AcDbLine
 62
7
  6
CONTINUOUS
 10
-14.7929645874
 20
-7.8094477632
 11
-14.7254855713
 21
-7.8300429711
  0
LINE
  5
2E3
100
AcDbEntity
  8
0
100
AcDbLine
 62
7
  6
CONTINUOUS
 10
-13.8592853836
 20
-8.0683125568
 11
-13.7733540089
 21
-8.0945658397
  0
LINE
  5
2E4
100
AcDbEntity
  8
0
100
AcDbLine
 62
7
  6
CONTINUOUS
 10
-14.859815567
 20
-7.7886542331
 11
-14.7929645874
 21
-7.8094477632
  0
LINE
  5
2E5
100
AcDbEntity
  8
0
100
AcDbLine
 62
7
  6
CONTINUOUS
 10
-13.7733540089
 20
-8.0945658397
 11
-13.6820727402
 21
-8.1229882761
  0
LINE
  5
2E6
100
AcDbEntity
  8
0
100
AcDbLine
 62
7
  6
CONTINUOUS
 10
-14.9257070779
 20
-7.7677791715
 11
-14.859815567
 21
-7.7886542331
  0
LINE
  5
2E7
100
AcDbEntity
  8
0
100
AcDbLine
 62
7
  6
CONTINUOUS
 10
-13.6820727402
 20
-8.1229882761
 11
-13.5824776872
 21
-8.1546252966
  0
LINE
  5
2E8
100
AcDbEntity
  8
0
100
AcDbLine
 62
7
  6
CONTINUOUS
 10
-14.9902418987
 20
-7.7469702177
 11
-14.9257070779
 21
-7.7677791715
  0
LINE
  5
2E9
100
AcDbEntity
  8
0
100
AcDbLine
 62
7
  6
CONTINUOUS
 10
-13.5824776872
 20
-8.1546252966
 11
-13.4731053634
 21
-8.1900877095
  0
LINE
  5
2EA
100
AcDbEntity
  8
0
100
AcDbLine
 62
7
  6
CONTINUOUS
 10
-15.0398310996
 20
-7.730736434
 11
-14.9902418987
 21
-7.7469702177
  0
LINE
  5
2EB
100
AcDbEntity
  8
0
100
AcDbLine
 62
7
  6
CONTINUOUS
 10
-11.5597609367
 20
-8.8574971383
 11
-11.3077859635
 21
-8.9406691318
  0
LINE
  5
2EC
100
AcDbEntity
  8
0
100
AcDbLine
 62
7
  6
CONTINUOUS
 10
-13.4731053634
 20
-8.1900877095
 11
-13.3502268875
 21
-8.2307580969
  0
LINE
  5
2ED
100
AcDbEntity
  8
0
100
AcDbLine
 62
7
  6
CONTINUOUS
 10
-13.3502268875
 20
-8.2307580969
 11
-13.2101794175
 21
-8.278056714
  0
LINE
  5
2EE
100
AcDbEntity
  8
0
100
AcDbLine
 62
7
  6
CONTINUOUS
 10
-15.0406929677
 20
-7.7303848192
 11
-15.0390711169
 21
-7.7309386378
  0
LWPOLYLINE
  5
2EF
100
AcDbEntity
  8
0
100
AcDbPolyline
 62
250
  6
CONTINUOUS
 90
3
 70
0
 10
-11.0372872228
 20
-8.6844231375
 10
-10.547611591
 20
-8.852586435
 10
-9.9496302965
 20
-9.0237504579
  0
LINE
  5
2F0
100
AcDbEntity
  8
0
100
AcDbLine
 62
7
  6
CONTINUOUS
 10
-13.2101794175
 20
-8.278056714
 11
-13.0493411054
 21
-8.3334145436
  0
LWPOLYLINE
  5
2F1
100
AcDbEntity
  8
0
100
AcDbPolyline
 62
7
  6
CONTINUOUS
 90
3
 70
0
 10
-11.884766529
 20
-8.745714842
 10
-11.7040731986
 20
-8.8083645837
 10
-11.5092794238
 20
-8.8747140178
  0
LINE
  5
2F2
100
AcDbEntity
  8
0
100
AcDbLine
 62
7
  6
CONTINUOUS
 10
-13.0493411054
 20
-8.3334145436
 11
-12.8623815126
 21
-8.3988329094
  0
LINE
  5
2F3
100
AcDbEntity
  8
0
100
AcDbLine
 62
7
  6
CONTINUOUS
 10
-12.055140105
 20
-8.6858453287
 11
-11.884766529
 21
-8.745714842
  0
LINE
  5
2F4
100
AcDbEntity
  8
0
100
AcDbLine
 62
7
  6
CONTINUOUS
 10
-12.8623815126
 20
-8.3988329094
 11
-12.055140105
 21
-8.6858453287
  0
LWPOLYLINE
  5
2F5
100
AcDbEntity
  8
0
100
AcDbPolyline
 62
250
  6
CONTINUOUS
 90
3
 70
0
 10
-12.0478696485
 20
-8.6720158465
 10
-11.66394491
 20
-8.8211238706
 10
-11.5597609367
 20
-8.8574971383
  0
LINE
  5
2F6
100
AcDbEntity
  8
0
100
AcDbLine
 62
7
  6
CONTINUOUS
 10
-9.5524638483
 20
-8.7488367617
 11
-9.5596027066
 21
-8.7427241949
  0
LWPOLYLINE
  5
2F7
100
AcDbEntity
  8
RACCORDO
100
AcDbPolyline
 62
7
  6
CONTINUOUS
 90
9
 70
0
 10
-11.418349415
 20
1.1742143677
 10
-11.4181080535
 20
1.1735355518
 10
-11.4101514102
 20
1.1574467194
 10
-11.4001034259
 20
1.142470504
 10
-11.3882686646
 20
1.1287578639
 10
-11.3754639853
 20
1.117065289
 10
-11.3619616743
 20
1.1076449423
 10
-11.3474894452
 20
1.1002446607
 10
-11.332047298
 20
1.0948644441
  0
LINE
  5
2F8
100
AcDbEntity
  8
0
100
AcDbLine
 62
250
  6
CONTINUOUS
 10
-15.057139218
 20
7.70576535
 11
-15.0595796216
 21
7.712801757
  0
LINE
  5
2F9
100
AcDbEntity
  8
0
100
AcDbLine
 62
250
  6
CONTINUOUS
 10
-15.0047325106
 20
7.5446824926
 11
-15.057139218
 21
7.70576535
  0
LINE
  5
2FA
100
AcDbEntity
  8
0
100
AcDbLine
 62
250
  6
CONTINUOUS
 10
-14.9596323391
 20
7.4023450741
 11
-15.0047325106
 21
7.5446824926
  0
LINE
  5
2FB
100
AcDbEntity
  8
0
100
AcDbLine
 62
250
  6
CONTINUOUS
 10
-14.9090353758
 20
7.2404015341
 11
-14.9596323391
 21
7.4023450741
  0
LWPOLYLINE
  5
2FC
100
AcDbEntity
  8
0
100
AcDbPolyline
 62
250
  6
CONTINUOUS
 90
10
 70
0
 10
-15.0595670394
 20
7.7128064309
 10
-15.0598443967
 20
7.714161612
 10
-15.059828915
 20
7.7155173245
 10
-15.0595380903
 20
7.7168733094
 10
-15.0589892137
 20
7.7182293232
 10
-15.058199387
 20
7.7195851007
 10
-15.0571811016
 20
7.7209407286
 10
-15.0558997666
 20
7.7223002576
 10
-15.0542930551
 20
7.7236700768
 10
-15.0522990731
 20
7.7250565139
  0
LINE
  5
2FD
100
AcDbEntity
  8
0
100
AcDbLine
 62
250
  6
CONTINUOUS
 10
-8.7386661483
 20
8.8088409054
 11
-8.7394616977
 21
8.8170768806
  0
LINE
  5
2FE
100
AcDbEntity
  8
0
100
AcDbLine
 62
250
  6
CONTINUOUS
 10
-8.696160736
 20
8.3434887558
 11
-8.7172731146
 21
8.5679768087
  0
LINE
  5
2FF
100
AcDbEntity
  8
0
100
AcDbLine
 62
250
  6
CONTINUOUS
 10
-8.7172731146
 20
8.5679768087
 11
-8.7386661483
 21
8.8088409054
  0
LINE
  5
300
100
AcDbEntity
  8
0
100
AcDbLine
 62
7
  6
CONTINUOUS
 10
-8.52578
 20
-8.8712710315
 11
-8.52578
 21
-8.9365080761
  0
LINE
  5
301
100
AcDbEntity
  8
0
100
AcDbLine
 62
7
  6
CONTINUOUS
 10
-8.52578
 20
8.8361432637
 11
-8.52578
 21
8.8712710314
  0
LINE
  5
302
100
AcDbEntity
  8
0
100
AcDbLine
 62
7
  6
CONTINUOUS
 10
-8.424705207
 20
8.8447471491
 11
-8.424705207
 21
8.8798622018
  0
LINE
  5
303
100
AcDbEntity
  8
0
100
AcDbLine
 62
7
  6
CONTINUOUS
 10
-7.72574
 20
-8.9364493479
 11
-7.72574
 21
-9.0016437877
  0
LINE
  5
304
100
AcDbEntity
  8
0
100
AcDbLine
 62
7
  6
CONTINUOUS
 10
-6.84142
 20
-9.0009821923
 11
-6.84142
 21
-9.0661345038
  0
LINE
  5
305
100
AcDbEntity
  8
0
100
AcDbLine
 62
7
  6
CONTINUOUS
 10
-5.95711
 20
-9.0576416794
 11
-5.95711
 21
-9.1227570475
  0
LINE
  5
306
100
AcDbEntity
  8
0
100
AcDbLine
 62
7
  6
CONTINUOUS
 10
-5.32456
 20
9.0582985899
 11
-5.32456
 21
9.0933482362
  0
LINE
  5
307
100
AcDbEntity
  8
0
100
AcDbLine
 62
7
  6
CONTINUOUS
 10
-5.15707
 20
-9.1021300262
 11
-5.15707
 21
-9.167216416
  0
LINE
  5
308
100
AcDbEntity
  8
0
100
AcDbLine
 62
7
  6
CONTINUOUS
 10
-4.79121
 20
9.0852934064
 11
-4.79121
 21
9.1203335835
  0
LINE
  5
309
100
AcDbEntity
  8
0
100
AcDbLine
 62
7
  6
CONTINUOUS
 10
-4.62372
 20
-9.1282190565
 11
-4.62372
 21
-9.1932884648
  0
LINE
  5
30A
100
AcDbEntity
  8
0
100
AcDbLine
 62
250
  6
CONTINUOUS
 10
-4.5
 20
-6.4048023416
 11
-4.5
 21
-6.4110359141
  0
LINE
  5
30B
100
AcDbEntity
  8
0
100
AcDbLine
 62
250
  6
CONTINUOUS
 10
-4.5
 20
6.4048023416
 11
-4.5
 21
6.4103493815
  0
LINE
  5
30C
100
AcDbEntity
  8
0
100
AcDbLine
 62
7
  6
CONTINUOUS
 10
-7.2007650421
 20
8.940618563
 11
-7.1993625214
 21
8.9758173365
  0
LWPOLYLINE
  5
30D
100
AcDbEntity
  8
0
100
AcDbPolyline
 62
250
  6
CONTINUOUS
 90
3
 70
0
 10
-8.7172722314
 20
-8.5679760461
 10
-8.7386655598
 20
-8.8088405691
 10
-8.7394616948
 20
-8.8170768808
  0
LINE
  5
30E
100
AcDbEntity
  8
0
100
AcDbLine
 62
250
  6
CONTINUOUS
 10
-8.696160736
 20
-8.3434887558
 11
-8.7172722314
 21
-8.5679760461
  0
LWPOLYLINE
  5
30F
100
AcDbEntity
  8
RACCORDO
100
AcDbPolyline
 62
7
  6
CONTINUOUS
 90
10
 70
0
 10
-8.3161664013
 20
-1.3143593539
 10
-8.3827512957
 20
-1.3663825529
 10
-8.4560923332
 20
-1.4180258246
 10
-8.5361895138
 20
-1.4688242078
 10
-8.6234145946
 20
-1.5192158355
 10
-8.7173958184
 20
-1.5680502022
 10
-8.8170179144
 20
-1.6124693769
 10
-8.9219091256
 20
-1.651338435
 10
-9.0324412089
 20
-1.6853352654
 10
-9.1486141643
 20
-1.7143593539
  0
LINE
  5
310
100
AcDbEntity
  8
0
100
AcDbLine
 62
250
  6
CONTINUOUS
 10
-15.7058130619
 20
-6.6177095318
 11
-15.4576184273
 21
-6.5849473211
  0
LINE
  5
311
100
AcDbEntity
  8
0
100
AcDbLine
 62
7
  6
CONTINUOUS
 10
1.1895251735
 20
-5.0880489868
 11
1.0103918805
 21
-5.1016780091
  0
LWPOLYLINE
  5
312
100
AcDbEntity
  8
0
100
AcDbPolyline
 62
250
  6
CONTINUOUS
 90
6
 70
0
 10
-14.3388366867
 20
-6.4451322459
 10
-14.2668014521
 20
-6.4398329211
 10
-14.1938362679
 20
-6.4349457354
 10
-14.1199411341
 20
-6.4304706888
 10
-14.0451160507
 20
-6.4264077813
 10
-13.9693610178
 20
-6.422757013
  0
LINE
  5
313
100
AcDbEntity
  8
0
100
AcDbLine
 62
7
  6
CONTINUOUS
 10
13.0979512915
 20
-7.7032966628
 11
11.0
 21
-7.85
  0
LINE
  5
314
100
AcDbEntity
  8
0
100
AcDbLine
 62
7
  6
CONTINUOUS
 10
14.3179229973
 20
-7.6179882225
 11
13.142635849
 21
-7.7001723059
  0
LINE
  5
315
100
AcDbEntity
  8
0
100
AcDbLine
 62
7
  6
CONTINUOUS
 10
11.09673859
 20
-7.8476028954
 11
14.2467118805
 21
-7.6276028954
  0
LINE
  5
316
100
AcDbEntity
  8
0
100
AcDbLine
 62
7
  6
CONTINUOUS
 10
14.3213183316
 20
-7.6176909646
 11
14.5969960543
 21
-7.5984736082
  0
LINE
  5
317
100
AcDbEntity
  8
0
100
AcDbLine
 62
250
  6
CONTINUOUS
 10
-13.5925738632
 20
-6.4099111566
 11
-13.5851578909
 21
-6.4094885041
  0
LINE
  5
318
100
AcDbEntity
  8
0
100
AcDbLine
 62
250
  6
CONTINUOUS
 10
-13.9693610178
 20
-6.422757013
 11
-13.8511795747
 21
-6.4178723176
  0
LWPOLYLINE
  5
319
100
AcDbEntity
  8
0
100
AcDbPolyline
 62
250
  6
CONTINUOUS
 90
6
 70
0
 10
-15.9531757666
 20
-6.6470354228
 10
-15.9459111336
 20
-6.6467817704
 10
-15.9237305715
 20
-6.6445218622
 10
-15.8873178301
 20
-6.6403269016
 10
-15.8377895832
 20
-6.6343426584
 10
-15.7058130619
 20
-6.6177095318
  0
LINE
  5
31A
100
AcDbEntity
  8
0
100
AcDbLine
 62
250
  6
CONTINUOUS
 10
-13.8511795747
 20
-6.4178723176
 11
-13.7673469376
 21
-6.4148589707
  0
LWPOLYLINE
  5
31B
100
AcDbEntity
  8
0
100
AcDbPolyline
 62
250
  6
CONTINUOUS
 90
3
 70
0
 10
-13.7673469376
 20
-6.4148589707
 10
-13.6823946789
 20
-6.4122173378
 10
-13.6394986915
 20
-6.4110359141
  0
LWPOLYLINE
  5
31C
100
AcDbEntity
  8
0
100
AcDbPolyline
 62
250
  6
CONTINUOUS
 90
10
 70
0
 10
-12.2616978476
 20
-8.397656732
 10
-12.2903872045
 20
-8.3982950094
 10
-12.3190662666
 20
-8.3981092624
 10
-12.3477209865
 20
-8.3971007333
 10
-12.3763439414
 20
-8.3952698726
 10
-12.404909178
 20
-8.3926176139
 10
-12.4333746551
 20
-8.3891479399
 10
-12.4617144946
 20
-8.3848649516
 10
-12.4899187944
 20
-8.3797705768
 10
-12.5179697828
 20
-8.3738675928
  0
LINE
  5
31D
100
AcDbEntity
  8
0
100
AcDbLine
 62
250
  6
CONTINUOUS
 10
-13.6368268208
 20
-6.4110359141
 11
-13.5179223823
 21
-6.4082612867
  0
LWPOLYLINE
  5
31E
100
AcDbEntity
  8
0
100
AcDbPolyline
 62
250
  6
CONTINUOUS
 90
7
 70
0
 10
14.3585300362
 20
-6.1923576816
 10
14.1641101602
 20
-6.1957542709
 10
13.9662850643
 20
-6.1983017124
 10
13.7650547485
 20
-6.2000000061
 10
13.5604192127
 20
-6.2008491519
 10
13.3523784571
 20
-6.2008491499
 10
13.1409324815
 20
-6.2
  0
LWPOLYLINE
  5
31F
100
AcDbEntity
  8
0
100
AcDbPolyline
 62
250
  6
CONTINUOUS
 90
4
 70
0
 10
-13.5179223823
 20
-6.4082612867
 10
-13.3679527601
 20
-6.4059008932
 10
-13.2925818009
 20
-6.4052029043
 10
-13.2169175185
 20
-6.4048348527
  0
LWPOLYLINE
  5
320
100
AcDbEntity
  8
0
100
AcDbPolyline
 62
250
  6
CONTINUOUS
 90
7
 70
0
 10
-13.9022902912
 20
-6.2
 10
-13.9782622929
 20
-6.2008640222
 10
-14.0542621726
 20
-6.2008640178
 10
-14.1302899304
 20
-6.1999999866
 10
-14.2063455662
 20
-6.1982719287
 10
-14.28242908
 20
-6.1956798441
 10
-14.358540472
 20
-6.1922237328
  0
LINE
  5
321
100
AcDbEntity
  8
0
100
AcDbLine
 62
7
  6
CONTINUOUS
 10
11.0
 20
-7.85
 11
-11.0
 21
-7.85
  0
LINE
  5
322
100
AcDbEntity
  8
0
100
AcDbLine
 62
7
  6
CONTINUOUS
 10
-10.97326141
 20
-7.8476028954
 11
11.09673859
 21
-7.8476028954
  0
LINE
  5
323
100
AcDbEntity
  8
0
100
AcDbLine
 62
7
  6
CONTINUOUS
 10
-14.5969960551
 20
-7.25
 11
-14.2473874317
 21
-7.25
  0
LINE
  5
324
100
AcDbEntity
  8
0
100
AcDbLine
 62
7
  6
CONTINUOUS
 10
14.5969960551
 20
-7.25
 11
14.2467118805
 21
-7.25
  0
LINE
  5
325
100
AcDbEntity
  8
0
100
AcDbLine
 62
7
  6
CONTINUOUS
 10
-14.5969960551
 20
-6.75
 11
-14.3388366867
 21
-6.75
  0
LINE
  5
326
100
AcDbEntity
  8
0
100
AcDbLine
 62
7
  6
CONTINUOUS
 10
14.5969960551
 20
-6.75
 11
14.3388366867
 21
-6.75
  0
LINE
  5
327
100
AcDbEntity
  8
0
100
AcDbLine
 62
250
  6
CONTINUOUS
 10
-13.6394986915
 20
-6.4110359141
 11
-13.6368268208
 21
-6.4110359141
  0
LINE
  5
328
100
AcDbEntity
  8
0
100
AcDbLine
 62
250
  6
CONTINUOUS
 10
13.6368268208
 20
-6.4110359141
 11
13.6394986915
 21
-6.4110359141
  0
LINE
  5
329
100
AcDbEntity
  8
0
100
AcDbLine
 62
250
  6
CONTINUOUS
 10
7.2751193016
 20
-6.4047245788
 11
-0.0
 21
-6.4061087724
  0
LINE
  5
32A
100
AcDbEntity
  8
0
100
AcDbLine
 62
250
  6
CONTINUOUS
 10
-13.9022902912
 20
-6.2
 11
-13.1409324815
 21
-6.2
  0
LINE
  5
32B
100
AcDbEntity
  8
0
100
AcDbLine
 62
7
  6
CONTINUOUS
 10
-0.695268
 20
-5.491098
 11
-0.557389
 21
-5.491098
  0
LINE
  5
32C
100
AcDbEntity
  8
0
100
AcDbLine
 62
7
  6
CONTINUOUS
 10
-2.307467
 20
-5.467733
 11
-2.136122
 21
-5.467733
  0
LINE
  5
32D
100
AcDbEntity
  8
0
100
AcDbLine
 62
7
  6
CONTINUOUS
 10
-0.0975080012
 20
-5.467733
 11
0.825417
 21
-5.467733
  0
LINE
  5
32E
100
AcDbEntity
  8
0
100
AcDbLine
 62
7
  6
CONTINUOUS
 10
0.825417
 20
-5.304177
 11
0.1409202441
 21
-5.304177
  0
LINE
  5
32F
100
AcDbEntity
  8
0
100
AcDbLine
 62
7
  6
CONTINUOUS
 10
1.312436
 20
-4.25469
 11
1.867116
 21
-4.25469
  0
LINE
  5
330
100
AcDbEntity
  8
0
100
AcDbLine
 62
7
  6
CONTINUOUS
 10
1.867116
 20
-4.091133
 11
1.175895
 21
-4.091133
  0
LINE
  5
331
100
AcDbEntity
  8
0
100
AcDbLine
 62
7
  6
CONTINUOUS
 10
-2.136122
 20
-4.067768
 11
-2.2465587232
 21
-4.067768
  0
LINE
  5
332
100
AcDbEntity
  8
0
100
AcDbLine
 62
250
  6
CONTINUOUS
 10
-9.5
 20
-6.4048023205
 11
-3.4999677239
 21
-6.4049797681
  0
LINE
  5
333
100
AcDbEntity
  8
0
100
AcDbLine
 62
250
  6
CONTINUOUS
 10
-12.3350810993
 20
-6.4056211959
 11
-9.5
 21
-6.4048023205
  0
LINE
  5
334
100
AcDbEntity
  8
0
100
AcDbLine
 62
250
  6
CONTINUOUS
 10
-3.4999677239
 20
-6.4049797681
 11
-0.0
 21
-6.4061087724
  0
LINE
  5
335
100
AcDbEntity
  8
0
100
AcDbLine
 62
250
  6
CONTINUOUS
 10
11.5273779329
 20
-6.4057312257
 11
7.2751193016
 21
-6.4047245788
  0
LINE
  5
336
100
AcDbEntity
  8
0
100
AcDbLine
 62
250
  6
CONTINUOUS
 10
-13.5480390675
 20
-6.4110924075
 11
13.5480386255
 21
-6.4110924028
  0
LINE
  5
337
100
AcDbEntity
  8
0
100
AcDbLine
 62
250
  6
CONTINUOUS
 10
-13.2169175185
 20
-6.4048348527
 11
-12.3350810993
 21
-6.4056211959
  0
LWPOLYLINE
  5
338
100
AcDbEntity
  8
0
100
AcDbPolyline
 62
250
  6
CONTINUOUS
 90
10
 70
0
 10
0.0000216553
 20
-8.7043375444
 10
-0.933085885
 20
-8.700405351
 10
-1.8745493884
 20
-8.6870407956
 10
-2.8243688551
 20
-8.6642438782
 10
-3.7826694314
 20
-8.6314444562
 10
-4.749325971
 20
-8.5892126722
 10
-5.7239630343
 20
-8.5392589537
 10
-6.7064554751
 20
-8.4821534434
 10
-7.6969284396
 20
-8.4173259986
 10
-8.695381928
 20
-8.3447766193
  0
LWPOLYLINE
  5
339
100
AcDbEntity
  8
0
100
AcDbPolyline
 62
250
  6
CONTINUOUS
 90
5
 70
0
 10
13.6074193644
 20
-6.4100313808
 10
13.5926449079
 20
-6.4099128752
 10
13.5778232993
 20
-6.4100502104
 10
13.5629545385
 20
-6.4104433862
 10
13.5480386255
 20
-6.4110924028
  0
LWPOLYLINE
  5
33A
100
AcDbEntity
  8
0
100
AcDbPolyline
 62
250
  6
CONTINUOUS
 90
5
 70
0
 10
-13.5777393212
 20
-6.4093136626
 10
-13.570318154
 20
-6.4093866322
 10
-13.5628943893
 20
-6.4097074129
 10
-13.5554680271
 20
-6.4102760047
 10
-13.5480390675
 20
-6.4110924075
  0
LWPOLYLINE
  5
33B
100
AcDbEntity
  8
0
100
AcDbPolyline
 62
250
  6
CONTINUOUS
 90
10
 70
0
 10
12.2616978476
 20
-8.397656732
 10
12.2903872045
 20
-8.3982950094
 10
12.3190662666
 20
-8.3981092624
 10
12.3477209865
 20
-8.3971007333
 10
12.3763439414
 20
-8.3952698726
 10
12.404909178
 20
-8.3926176139
 10
12.4333746551
 20
-8.3891479399
 10
12.4617144946
 20
-8.3848649516
 10
12.4899187944
 20
-8.3797705768
 10
12.5179697828
 20
-8.3738675928
  0
LWPOLYLINE
  5
33C
100
AcDbEntity
  8
0
100
AcDbPolyline
 62
250
  6
CONTINUOUS
 90
7
 70
0
 10
13.6368268208
 20
-6.4110359141
 10
13.5549003215
 20
-6.409039491
 10
13.4727314535
 20
-6.4074150424
 10
13.3902856704
 20
-6.4061708059
 10
13.3075278351
 20
-6.4053151138
 10
13.2244222157
 20
-6.4048563937
 10
11.5273779329
 20
-6.4057312257
  0
LINE
  5
33D
100
AcDbEntity
  8
0
100
AcDbLine
 62
250
  6
CONTINUOUS
 10
13.7227638486
 20
-6.4134309617
 11
13.6394986915
 21
-6.4110359141
  0
LWPOLYLINE
  5
33E
100
AcDbEntity
  8
0
100
AcDbPolyline
 62
250
  6
CONTINUOUS
 90
4
 70
0
 10
15.9531757666
 20
-6.6470354228
 10
15.9459111336
 20
-6.6467817704
 10
15.9237305715
 20
-6.6445218622
 10
15.8873178301
 20
-6.6403269016
  0
LINE
  5
33F
100
AcDbEntity
  8
0
100
AcDbLine
 62
250
  6
CONTINUOUS
 10
13.8071551656
 20
-6.4162861635
 11
13.7227638486
 21
-6.4134309617
  0
LWPOLYLINE
  5
340
100
AcDbEntity
  8
0
100
AcDbPolyline
 62
250
  6
CONTINUOUS
 90
7
 70
0
 10
13.8071551656
 20
-6.4162861635
 10
13.9668634525
 20
-6.4226621842
 10
14.0411222082
 20
-6.4262006314
 10
14.1154489094
 20
-6.4302168613
 10
14.1898435563
 20
-6.4347108736
 10
14.2643061487
 20
-6.4396826685
 10
14.3388366867
 20
-6.4451322459
  0
LINE
  5
341
100
AcDbEntity
  8
0
100
AcDbLine
 62
250
  6
CONTINUOUS
 10
13.6368268208
 20
-6.4110359141
 11
13.6221466687
 21
-6.4104057271
  0
LINE
  5
342
100
AcDbEntity
  8
0
100
AcDbLine
 62
7
  6
CONTINUOUS
 10
-14.4774519294
 20
-7.6072340227
 11
-14.318497983
 21
-7.6179373216
  0
LINE
  5
343
100
AcDbEntity
  8
0
100
AcDbLine
 62
7
  6
CONTINUOUS
 10
-11.0
 20
-7.85
 11
-14.3179229973
 21
-7.6179882225
  0
LINE
  5
344
100
AcDbEntity
  8
0
100
AcDbLine
 62
7
  6
CONTINUOUS
 10
-14.2473874317
 20
-7.6189318375
 11
-10.97326141
 21
-7.8476028954
  0
LINE
  5
345
100
AcDbEntity
  8
0
100
AcDbLine
 62
7
  6
CONTINUOUS
 10
-14.5969960547
 20
-7.598473586
 11
-14.4774519294
 21
-7.6072340227
  0
LINE
  5
346
100
AcDbEntity
  8
0
100
AcDbLine
 62
7
  6
CONTINUOUS
 10
-0.064407317
 20
-4.4708179683
 11
0.1108316968
 21
-4.4883419697
  0
LINE
  5
347
100
AcDbEntity
  8
0
100
AcDbLine
 62
250
  6
CONTINUOUS
 10
15.8873178301
 20
-6.6403269016
 11
15.7766655835
 21
-6.6267402691
  0
LINE
  5
348
100
AcDbEntity
  8
0
100
AcDbLine
 62
250
  6
CONTINUOUS
 10
15.7766655835
 20
-6.6267402691
 11
15.6273952286
 21
-6.6075133841
  0
LINE
  5
349
100
AcDbEntity
  8
0
100
AcDbLine
 62
250
  6
CONTINUOUS
 10
15.6273952286
 20
-6.6075133841
 11
15.4575941201
 21
-6.5849440602
  0
LINE
  5
34A
100
AcDbEntity
  8
0
100
AcDbLine
 62
7
  6
CONTINUOUS
 10
1.041546
 20
-4.807666
 11
1.2031549858
 21
-4.8310309979
  0
LWPOLYLINE
  5
34B
100
AcDbEntity
  8
0
100
AcDbPolyline
 62
7
  6
CONTINUOUS
 90
15
 70
0
 10
-0.7887486702
 20
-4.7749668392
 10
-0.7852689158
 20
-4.9207955281
 10
-0.8017235646
 20
-5.0536969065
 10
-0.8381126167
 20
-5.1736709744
 10
-0.8962258245
 20
-5.2871954008
 10
-0.9742734357
 20
-5.3877925168
 10
-1.0668861926
 20
-5.4560293155
 10
-1.1822151908
 20
-5.4845512738
 10
-1.3121093348
 20
-5.4807129147
 10
-1.4267460806
 20
-5.447144801
 10
-1.5176082466
 20
-5.3790479528
 10
-1.5932130144
 20
-5.28122135
 10
-1.6492893837
 20
-5.1706924945
 10
-1.6844136879
 20
-5.0531372204
 10
-1.7000095938
 20
-4.9228796936
  0
LWPOLYLINE
  5
34C
100
AcDbEntity
  8
0
100
AcDbPolyline
 62
7
  6
CONTINUOUS
 90
15
 70
0
 10
-1.6960771013
 20
-4.7799199142
 10
-1.6991229309
 20
-4.6428981503
 10
-1.6842983405
 20
-4.5165457645
 10
-1.65160333
 20
-4.4008627566
 10
-1.6010061174
 20
-4.2897232046
 10
-1.5325384847
 20
-4.1892530305
 10
-1.446295778
 20
-4.1178300014
 10
-1.331737966
 20
-4.0800887435
 10
-1.1994050801
 20
-4.0713946305
 10
-1.0810125599
 20
-4.0962215503
 10
-0.9848391568
 20
-4.1628424914
 10
-0.9026061196
 20
-4.2629844654
 10
-0.8411926337
 20
-4.3763023949
 10
-0.8028917612
 20
-4.4960145874
 10
-0.78541044
 20
-4.6289027356
  0
LINE
  5
34D
100
AcDbEntity
  8
0
100
AcDbLine
 62
7
  6
CONTINUOUS
 10
-0.9621932483
 20
-4.8690383347
 11
-0.9639675096
 21
-4.7813257294
  0
LINE
  5
34E
100
AcDbEntity
  8
0
100
AcDbLine
 62
7
  6
CONTINUOUS
 10
-3.82369
 20
-9.1620044754
 11
-3.82369
 21
-9.2270519056
  0
LINE
  5
34F
100
AcDbEntity
  8
0
100
AcDbLine
 62
7
  6
CONTINUOUS
 10
-3.50688
 20
9.138589187
 11
-3.50688
 21
9.1736106843
  0
LINE
  5
350
100
AcDbEntity
  8
0
100
AcDbLine
 62
7
  6
CONTINUOUS
 10
-3.02369
 20
-9.1893766178
 11
-3.02369
 21
-9.2544062528
  0
LINE
  5
351
100
AcDbEntity
  8
0
100
AcDbLine
 62
7
  6
CONTINUOUS
 10
-2.70681
 20
9.1634342593
 11
-2.70681
 21
9.1984470553
  0
LINE
  5
352
100
AcDbEntity
  8
0
100
AcDbLine
 62
7
  6
CONTINUOUS
 10
-2.650156
 20
-4.4177592666
 11
-2.650156
 21
-4.583232353
  0
LINE
  5
353
100
AcDbEntity
  8
0
100
AcDbLine
 62
7
  6
CONTINUOUS
 10
-2.307467
 20
-4.3768706894
 11
-2.307467
 21
-5.467733
  0
LINE
  5
354
100
AcDbEntity
  8
0
100
AcDbLine
 62
7
  6
CONTINUOUS
 10
-2.136122
 20
-5.467733
 11
-2.136122
 21
-4.067768
  0
LINE
  5
355
100
AcDbEntity
  8
0
100
AcDbLine
 62
7
  6
CONTINUOUS
 10
-1.81426
 20
-9.2185949319
 11
-1.81426
 21
-9.2836055822
  0
LINE
  5
356
100
AcDbEntity
  8
0
100
AcDbLine
 62
7
  6
CONTINUOUS
 10
-1.4225
 20
9.1899184269
 11
-1.4225
 21
9.2249219524
  0
LINE
  5
357
100
AcDbEntity
  8
0
100
AcDbLine
 62
7
  6
CONTINUOUS
 10
-1.06727
 20
-9.2293322901
 11
-1.06727
 21
-9.2943359666
  0
LINE
  5
358
100
AcDbEntity
  8
0
100
AcDbLine
 62
7
  6
CONTINUOUS
 10
-0.88915
 20
9.1960674289
 11
-0.88915
 21
9.2310688027
  0
LINE
  5
359
100
AcDbEntity
  8
0
100
AcDbLine
 62
7
  6
CONTINUOUS
 10
-0.32028
 20
-9.2344906347
 11
-0.32028
 21
-9.2994909614
  0
LINE
  5
35A
100
AcDbEntity
  8
0
100
AcDbLine
 62
250
  6
CONTINUOUS
 10
0.0000019935
 20
10.2339936913
 11
-0.0000000151
 21
9.2697258171
  0
LINE
  5
35B
100
AcDbEntity
  8
0
100
AcDbLine
 62
250
  6
CONTINUOUS
 10
0.000001967
 20
-10.2339936566
 11
-0.0000000618
 21
-9.2999445974
  0
LINE
  5
35C
100
AcDbEntity
  8
0
100
AcDbLine
 62
250
  6
CONTINUOUS
 10
0.0000000679
 20
-6.4061087653
 11
0.0000000662
 21
-6.4110359141
  0
LINE
  5
35D
100
AcDbEntity
  8
0
100
AcDbLine
 62
250
  6
CONTINUOUS
 10
0.0000000679
 20
6.4061087653
 11
0.0000000657
 21
6.4116558066
  0
LINE
  5
35E
100
AcDbEntity
  8
0
100
AcDbLine
 62
7
  6
CONTINUOUS
 10
0.32028
 20
9.1994712164
 11
0.32028
 21
9.2344713992
  0
LWPOLYLINE
  5
35F
100
AcDbEntity
  8
0
100
AcDbPolyline
 62
7
  6
CONTINUOUS
 90
3
 70
0
 10
-1.5283775642
 20
-4.6071602053
 10
-1.5290956342
 20
-4.6915987415
 10
-1.5208381013
 20
-4.7804066966
  0
LWPOLYLINE
  5
360
100
AcDbEntity
  8
0
100
AcDbPolyline
 62
7
  6
CONTINUOUS
 90
18
 70
0
 10
-1.5208381013
 20
-4.7804066966
 10
-1.5220654524
 20
-4.8704103683
 10
-1.516259686
 20
-4.9564389559
 10
-1.5034208021
 20
-5.0384924594
 10
-1.4851837294
 20
-5.120149161
 10
-1.4599135392
 20
-5.1978307786
 10
-1.4227054458
 20
-5.260802466
 10
-1.3676291358
 20
-5.307584157
 10
-1.3006149225
 20
-5.3396559178
 10
-1.234548961
 20
-5.3507231005
 10
-1.1702034177
 20
-5.3361014513
 10
-1.1068061261
 20
-5.300475224
 10
-1.0549267415
 20
-5.2516025318
 10
-1.0196699004
 20
-5.1888983427
 10
-0.9959309663
 20
-5.1129476888
 10
-0.9789656856
 20
-5.0332637795
 10
-0.9671926402
 20
-4.9530176848
 10
-0.9621932483
 20
-4.8690383347
  0
LINE
  5
361
100
AcDbEntity
  8
0
100
AcDbLine
 62
7
  6
CONTINUOUS
 10
-0.78541044
 20
-4.6289027356
 11
-0.7887486702
 21
-4.7749668392
  0
LWPOLYLINE
  5
362
100
AcDbEntity
  8
0
100
AcDbPolyline
 62
7
  6
CONTINUOUS
 90
17
 70
0
 10
-0.9639675096
 20
-4.7813257294
 10
-0.9615801412
 20
-4.6894860231
 10
-0.9669596925
 20
-4.6019906604
 10
-0.9801061634
 20
-4.5188396414
 10
-0.9996682016
 20
-4.436349861
 10
-1.0269971595
 20
-4.3582044242
 10
-1.0661470938
 20
-4.2954526463
 10
-1.1229747665
 20
-4.2499704917
 10
-1.1916234156
 20
-4.219881996
 10
-1.2585768118
 20
-4.2106085817
 10
-1.32225475
 20
-4.2267661511
 10
-1.3842374353
 20
-4.2637388019
 10
-1.4357492535
 20
-4.3131002494
 10
-1.4733665784
 20
-4.3747148581
 10
-1.5005130363
 20
-4.4487182636
 10
-1.5186838911
 20
-4.527091088
 10
-1.5283775642
 20
-4.6071602053
  0
LINE
  5
363
100
AcDbEntity
  8
0
100
AcDbLine
 62
7
  6
CONTINUOUS
 10
-1.7000095938
 20
-4.9228796936
 11
-1.6960771013
 21
-4.7799199142
  0
LWPOLYLINE
  5
364
100
AcDbEntity
  8
0
100
AcDbPolyline
 62
250
  6
CONTINUOUS
 90
5
 70
0
 10
11.0373182767
 20
8.6844438423
 10
10.9811314718
 20
8.6489262861
 10
10.9228781458
 20
8.6182200869
 10
10.8628595311
 20
8.5924660689
 10
10.8581766398
 20
8.5908926657
  0
LINE
  5
365
100
AcDbEntity
  8
0
100
AcDbLine
 62
7
  6
CONTINUOUS
 10
-0.152453
 20
-4.050244
 11
-0.290271
 21
-4.050244
  0
LINE
  5
366
100
AcDbEntity
  8
0
100
AcDbLine
 62
7
  6
CONTINUOUS
 10
-9.5
 20
-3.35
 11
9.5
 21
-3.35
  0
LINE
  5
367
100
AcDbEntity
  8
DRAFT
100
AcDbLine
 62
7
  6
CONTINUOUS
 10
-9.5
 20
-3.2290539221
 11
9.5
 21
-3.2290539221
  0
LINE
  5
368
100
AcDbEntity
  8
RACCORDO
100
AcDbLine
 62
250
  6
CONTINUOUS
 10
-9.5
 20
-3.2063014111
 11
9.5
 21
-3.2063014111
  0
LINE
  5
369
100
AcDbEntity
  8
RACCORDO
100
AcDbLine
 62
250
  6
CONTINUOUS
 10
-9.5
 20
-3.0063318721
 11
9.5
 21
-3.0063318721
  0
LINE
  5
36A
100
AcDbEntity
  8
0
100
AcDbLine
 62
7
  6
CONTINUOUS
 10
-0.2582490498
 20
-2.2
 11
0.2582488744
 21
-2.2
  0
LINE
  5
36B
100
AcDbEntity
  8
RACCORDO
100
AcDbLine
 62
250
  6
CONTINUOUS
 10
-9.543412044
 20
-2.0
 11
-8.4710529532
 21
-2.0
  0
LINE
  5
36C
100
AcDbEntity
  8
0
100
AcDbLine
 62
7
  6
CONTINUOUS
 10
-0.3840674826
 20
-2.0
 11
0.3840706351
 21
-2.0
  0
LINE
  5
36D
100
AcDbEntity
  8
RACCORDO
100
AcDbLine
 62
250
  6
CONTINUOUS
 10
-9.1486141643
 20
-1.7143593539
 11
-9.8513858357
 21
-1.7143593539
  0
LINE
  5
36E
100
AcDbEntity
  8
0
100
AcDbLine
 62
250
  6
CONTINUOUS
 10
-0.8642288413
 20
-1.5
 11
0.8642288413
 21
-1.5
  0
LINE
  5
36F
100
AcDbEntity
  8
RACCORDO
100
AcDbLine
 62
250
  6
CONTINUOUS
 10
-8.3161664013
 20
-1.3143593539
 11
-10.6838335987
 21
-1.3143593539
  0
LINE
  5
370
100
AcDbEntity
  8
RACCORDO
100
AcDbLine
 62
250
  6
CONTINUOUS
 10
11.5434120444
 20
-0.2
 11
11.7406810247
 21
-0.2
  0
LINE
  5
371
100
AcDbEntity
  8
RACCORDO
100
AcDbLine
 62
250
  6
CONTINUOUS
 10
-11.5434120444
 20
0.0
 11
-11.75
 21
0.0000000001
  0
LINE
  5
372
100
AcDbEntity
  8
0
100
AcDbLine
 62
7
  6
CONTINUOUS
 10
14.8
 20
0.0
 11
16.3969960551
 21
-0.0
  0
LINE
  5
373
100
AcDbEntity
  8
0
100
AcDbLine
 62
7
  6
CONTINUOUS
 10
-14.8
 20
0.0
 11
-16.3969960551
 21
0.0
  0
LINE
  5
374
100
AcDbEntity
  8
RACCORDO
100
AcDbLine
 62
250
  6
CONTINUOUS
 10
11.5434120444
 20
0.0
 11
11.75
 21
-0.0000000001
  0
LINE
  5
375
100
AcDbEntity
  8
RACCORDO
100
AcDbLine
 62
250
  6
CONTINUOUS
 10
-11.5434120444
 20
0.2
 11
-11.7406810247
 21
0.2
  0
LWPOLYLINE
  5
376
100
AcDbEntity
  8
RACCORDO
100
AcDbPolyline
 62
7
  6
CONTINUOUS
 90
10
 70
0
 10
-9.8513858357
 20
-1.7143593539
 10
-9.9675587911
 20
-1.6853352654
 10
-10.0780908744
 20
-1.651338435
 10
-10.1829820856
 20
-1.6124693769
 10
-10.2826041816
 20
-1.5680502022
 10
-10.3765854054
 20
-1.5192158355
 10
-10.4638104862
 20
-1.4688242078
 10
-10.5439076668
 20
-1.4180258246
 10
-10.6172487043
 20
-1.3663825529
 10
-10.6838335987
 20
-1.3143593539
  0
LINE
  5
377
100
AcDbEntity
  8
RACCORDO
100
AcDbLine
 62
7
  6
CONTINUOUS
 10
-11.3320476754
 20
1.0948645593
 11
-11.2097426556
 21
1.0575117148
  0
LINE
  5
378
100
AcDbEntity
  8
RACCORDO
100
AcDbLine
 62
7
  6
CONTINUOUS
 10
-7.2553293583
 20
-0.1501949311
 11
-7.6023136232
 21
-0.0442234073
  0
LWPOLYLINE
  5
379
100
AcDbEntity
  8
0
100
AcDbPolyline
 62
250
  6
CONTINUOUS
 90
3
 70
0
 10
10.9228781458
 20
-8.6182200869
 10
10.8628595311
 20
-8.5924660689
 10
10.8570922251
 20
-8.5905283136
  0
LWPOLYLINE
  5
37A
100
AcDbEntity
  8
0
100
AcDbPolyline
 62
250
  6
CONTINUOUS
 90
3
 70
0
 10
11.0373182767
 20
-8.6844438423
 10
10.9811314718
 20
-8.6489262861
 10
10.9228781458
 20
-8.6182200869
  0
LWPOLYLINE
  5
37B
100
AcDbEntity
  8
0
100
AcDbPolyline
 62
250
  6
CONTINUOUS
 90
4
 70
0
 10
-0.7449986085
 20
-1.9308868099
 10
-0.6250997504
 20
-2.0441791416
 10
-0.5153859313
 20
-2.167782662
 10
-0.4957052538
 20
-2.1945021222
  0
LINE
  5
37C
100
AcDbEntity
  8
0
100
AcDbLine
 62
250
  6
CONTINUOUS
 10
0.6014767294
 20
-1.7651257748
 11
0.8698317068
 21
-2.0750631802
  0
LWPOLYLINE
  5
37D
100
AcDbEntity
  8
0
100
AcDbPolyline
 62
7
  6
CONTINUOUS
 90
6
 70
0
 10
-0.2385432857
 20
-2.2367203408
 10
-0.2951008277
 20
-2.1313292375
 10
-0.3708488253
 20
-2.0165216216
 10
-0.4577866613
 20
-1.9078605077
 10
-0.5554684825
 20
-1.8066977283
 10
-0.6014901013
 20
-1.7651213229
  0
LWPOLYLINE
  5
37E
100
AcDbEntity
  8
0
100
AcDbPolyline
 62
7
  6
CONTINUOUS
 90
9
 70
0
 10
1.7362831059
 20
-4.8996111764
 10
1.7042825929
 20
-4.8246258196
 10
1.6565524711
 20
-4.7656577661
 10
1.5877012611
 20
-4.724411138
 10
1.5031204423
 20
-4.6991818134
 10
1.4205967335
 20
-4.6965691966
 10
1.3460590409
 20
-4.7187730892
 10
1.2735784584
 20
-4.7635936896
 10
1.2031549858
 20
-4.8310309979
  0
LWPOLYLINE
  5
37F
100
AcDbEntity
  8
0
100
AcDbPolyline
 62
7
  6
CONTINUOUS
 90
14
 70
0
 10
1.1895251735
 20
-5.0880489868
 10
1.207544489
 20
-5.1676771726
 10
1.237829874
 20
-5.2328957244
 10
1.2803813282
 20
-5.2837046421
 10
1.3390515749
 20
-5.3221431727
 10
1.409987891
 20
-5.3461720693
 10
1.4816321071
 20
-5.3496735906
 10
1.5557724348
 20
-5.3286999818
 10
1.6306206627
 20
-5.2871989977
 10
1.6892539865
 20
-5.2308961618
 10
1.7264071333
 20
-5.1553308535
 10
1.7473453761
 20
-5.0649636934
 10
1.7509417298
 20
-4.9789020661
 10
1.7362831059
 20
-4.8996111764
  0
LWPOLYLINE
  5
380
100
AcDbEntity
  8
0
100
AcDbPolyline
 62
7
  6
CONTINUOUS
 90
15
 70
0
 10
3.0003079298
 20
-4.7749668392
 10
3.0037876842
 20
-4.9207955281
 10
2.9873330354
 20
-5.0536969065
 10
2.9509439833
 20
-5.1736709744
 10
2.8928307755
 20
-5.2871954008
 10
2.8147831643
 20
-5.3877925168
 10
2.7221704074
 20
-5.4560293155
 10
2.6068414092
 20
-5.4845512738
 10
2.4769472652
 20
-5.4807129147
 10
2.3623105194
 20
-5.447144801
 10
2.2714483534
 20
-5.3790479528
 10
2.1958435856
 20
-5.28122135
 10
2.1397672163
 20
-5.1706924945
 10
2.1046429121
 20
-5.0531372204
 10
2.0890470062
 20
-4.9228796936
  0
LWPOLYLINE
  5
381
100
AcDbEntity
  8
0
100
AcDbPolyline
 62
7
  6
CONTINUOUS
 90
15
 70
0
 10
2.0929794987
 20
-4.7799199142
 10
2.0899336691
 20
-4.6428981503
 10
2.1047582595
 20
-4.5165457645
 10
2.13745327
 20
-4.4008627566
 10
2.1880504826
 20
-4.2897232046
 10
2.2565181153
 20
-4.1892530305
 10
2.342760822
 20
-4.1178300014
 10
2.457318634
 20
-4.0800887435
 10
2.5896515199
 20
-4.0713946305
 10
2.7080440401
 20
-4.0962215503
 10
2.8042174432
 20
-4.1628424914
 10
2.8864504804
 20
-4.2629844654
 10
2.9478639663
 20
-4.3763023949
 10
2.9861648388
 20
-4.4960145874
 10
3.00364616
 20
-4.6289027356
  0
LINE
  5
382
100
AcDbEntity
  8
0
100
AcDbLine
 62
7
  6
CONTINUOUS
 10
2.8268633517
 20
-4.8690383347
 11
2.8250890904
 21
-4.7813257294
  0
LINE
  5
383
100
AcDbEntity
  8
0
100
AcDbLine
 62
7
  6
CONTINUOUS
 10
0.825417
 20
-5.467733
 11
0.825417
 21
-5.304177
  0
LINE
  5
384
100
AcDbEntity
  8
0
100
AcDbLine
 62
7
  6
CONTINUOUS
 10
0.88915
 20
-9.2310154
 11
0.88915
 21
-9.2960179835
  0
LINE
  5
385
100
AcDbEntity
  8
0
100
AcDbLine
 62
7
  6
CONTINUOUS
 10
1.06727
 20
9.1942661843
 11
1.06727
 21
9.2292681883
  0
LINE
  5
386
100
AcDbEntity
  8
0
100
AcDbLine
 62
7
  6
CONTINUOUS
 10
1.4225
 20
-9.2248365113
 11
1.4225
 21
-9.2898431076
  0
LINE
  5
387
100
AcDbEntity
  8
0
100
AcDbLine
 62
7
  6
CONTINUOUS
 10
1.81426
 20
9.1834801745
 11
1.81426
 21
9.2184859532
  0
LINE
  5
388
100
AcDbEntity
  8
0
100
AcDbLine
 62
7
  6
CONTINUOUS
 10
1.867116
 20
-4.25469
 11
1.867116
 21
-4.091133
  0
LINE
  5
389
100
AcDbEntity
  8
0
100
AcDbLine
 62
7
  6
CONTINUOUS
 10
2.70681
 20
-9.1982844302
 11
2.70681
 21
-9.2633082762
  0
LINE
  5
38A
100
AcDbEntity
  8
0
100
AcDbLine
 62
7
  6
CONTINUOUS
 10
3.02369
 20
9.1541789011
 11
3.02369
 21
9.1891949381
  0
LINE
  5
38B
100
AcDbEntity
  8
0
100
AcDbLine
 62
7
  6
CONTINUOUS
 10
3.175567
 20
-4.7414648072
 11
3.175567
 21
-4.9361747912
  0
LINE
  5
38C
100
AcDbEntity
  8
0
100
AcDbLine
 62
7
  6
CONTINUOUS
 10
3.50688
 20
-9.1733999386
 11
3.50688
 21
-9.2384399592
  0
LINE
  5
38D
100
AcDbEntity
  8
0
100
AcDbLine
 62
7
  6
CONTINUOUS
 10
3.82369
 20
9.1267490189
 11
3.82369
 21
9.1617746643
  0
LINE
  5
38E
100
AcDbEntity
  8
0
100
AcDbLine
 62
7
  6
CONTINUOUS
 10
4.149117
 20
-4.829084288
 11
4.149117
 21
-4.6265859046
  0
LINE
  5
38F
100
AcDbEntity
  8
0
100
AcDbLine
 62
250
  6
CONTINUOUS
 10
4.5
 20
-6.4048023416
 11
4.5
 21
-6.4110359141
  0
LINE
  5
390
100
AcDbEntity
  8
0
100
AcDbLine
 62
250
  6
CONTINUOUS
 10
4.5
 20
6.4048023416
 11
4.5
 21
6.4103493815
  0
LINE
  5
391
100
AcDbEntity
  8
0
100
AcDbLine
 62
7
  6
CONTINUOUS
 10
4.62372
 20
9.0929035595
 11
4.62372
 21
9.1279410681
  0
LINE
  5
392
100
AcDbEntity
  8
0
100
AcDbLine
 62
7
  6
CONTINUOUS
 10
4.79121
 20
-9.1200455025
 11
4.79121
 21
-9.18512023
  0
LINE
  5
393
100
AcDbEntity
  8
0
100
AcDbLine
 62
7
  6
CONTINUOUS
 10
5.15707
 20
9.0667732176
 11
5.15707
 21
9.1018198906
  0
LINE
  5
394
100
AcDbEntity
  8
0
100
AcDbLine
 62
7
  6
CONTINUOUS
 10
5.32456
 20
-9.0930279999
 11
5.32456
 21
-9.1581203164
  0
LWPOLYLINE
  5
395
100
AcDbEntity
  8
0
100
AcDbPolyline
 62
7
  6
CONTINUOUS
 90
3
 70
0
 10
2.2606790358
 20
-4.6071602053
 10
2.2599609658
 20
-4.6915987415
 10
2.2682184987
 20
-4.7804066966
  0
LWPOLYLINE
  5
396
100
AcDbEntity
  8
0
100
AcDbPolyline
 62
7
  6
CONTINUOUS
 90
18
 70
0
 10
2.2682184987
 20
-4.7804066966
 10
2.2669911476
 20
-4.8704103683
 10
2.272796914
 20
-4.9564389559
 10
2.2856357979
 20
-5.0384924594
 10
2.3038728706
 20
-5.120149161
 10
2.3291430608
 20
-5.1978307786
 10
2.3663511542
 20
-5.260802466
 10
2.4214274642
 20
-5.307584157
 10
2.4884416775
 20
-5.3396559178
 10
2.554507639
 20
-5.3507231005
 10
2.6188531823
 20
-5.3361014513
 10
2.6822504739
 20
-5.300475224
 10
2.7341298585
 20
-5.2516025318
 10
2.7693866996
 20
-5.1888983427
 10
2.7931256337
 20
-5.1129476888
 10
2.8100909144
 20
-5.0332637795
 10
2.8218639598
 20
-4.9530176848
 10
2.8268633517
 20
-4.8690383347
  0
LINE
  5
397
100
AcDbEntity
  8
0
100
AcDbLine
 62
7
  6
CONTINUOUS
 10
3.00364616
 20
-4.6289027356
 11
3.0003079298
 21
-4.7749668392
  0
LWPOLYLINE
  5
398
100
AcDbEntity
  8
0
100
AcDbPolyline
 62
7
  6
CONTINUOUS
 90
17
 70
0
 10
2.8250890904
 20
-4.7813257294
 10
2.8274764588
 20
-4.6894860231
 10
2.8220969075
 20
-4.6019906604
 10
2.8089504366
 20
-4.5188396414
 10
2.7893883984
 20
-4.436349861
 10
2.7620594405
 20
-4.3582044242
 10
2.7229095062
 20
-4.2954526463
 10
2.6660818335
 20
-4.2499704917
 10
2.5974331844
 20
-4.219881996
 10
2.5304797882
 20
-4.2106085817
 10
2.46680185
 20
-4.2267661511
 10
2.4048191647
 20
-4.2637388019
 10
2.3533073465
 20
-4.3131002494
 10
2.3156900216
 20
-4.3747148581
 10
2.2885435637
 20
-4.4487182636
 10
2.2703727089
 20
-4.527091088
 10
2.2606790358
 20
-4.6071602053
  0
LINE
  5
399
100
AcDbEntity
  8
0
100
AcDbLine
 62
7
  6
CONTINUOUS
 10
2.0890470062
 20
-4.9228796936
 11
2.0929794987
 21
-4.7799199142
  0
LINE
  5
39A
100
AcDbEntity
  8
0
100
AcDbLine
 62
7
  6
CONTINUOUS
 10
1.175895
 20
-4.091133
 11
1.041546
 21
-4.807666
  0
LINE
  5
39B
100
AcDbEntity
  8
0
100
AcDbLine
 62
7
  6
CONTINUOUS
 10
1.2380809286
 20
-4.6307233611
 11
1.312436
 21
-4.25469
  0
LWPOLYLINE
  5
39C
100
AcDbEntity
  8
0
100
AcDbPolyline
 62
7
  6
CONTINUOUS
 90
14
 70
0
 10
-0.064407317
 20
-4.4708179683
 10
-0.0407877262
 20
-4.3536715214
 10
0.0015716565
 20
-4.2565416601
 10
0.0626708312
 20
-4.1794283846
 10
0.1480328558
 20
-4.1217927329
 10
0.2521346724
 20
-4.0841736669
 10
0.3584071066
 20
-4.0681880718
 10
0.4682090907
 20
-4.0741965723
 10
0.5801816925
 20
-4.1018385438
 10
0.6736789409
 20
-4.1516489969
 10
0.7456496882
 20
-4.2296560232
 10
0.7991450821
 20
-4.3298315312
 10
0.8226725955
 20
-4.4346262571
 10
0.8083032547
 20
-4.5418382908
  0
LWPOLYLINE
  5
39D
100
AcDbEntity
  8
0
100
AcDbPolyline
 62
7
  6
CONTINUOUS
 90
22
 70
0
 10
-0.0975080012
 20
-5.467733
 10
-0.0795329085
 20
-5.3797478998
 10
-0.0492054853
 20
-5.296334224
 10
-0.0065257317
 20
-5.2174919725
 10
0.0519862916
 20
-5.1440164247
 10
0.1228506454
 20
-5.0751123013
 10
0.1956275122
 20
-5.0083937647
 10
0.2689261948
 20
-4.9442584786
 10
0.3441373903
 20
-4.8823087792
 10
0.4149933725
 20
-4.8189658378
 10
0.4830624523
 20
-4.7537549565
 10
0.5467763187
 20
-4.6871508331
 10
0.5951623123
 20
-4.6169987319
 10
0.6273498572
 20
-4.5387614981
 10
0.6442095293
 20
-4.4569762866
 10
0.6373803967
 20
-4.3830998255
 10
0.5989885252
 20
-4.316234376
 10
0.536907849
 20
-4.2572776769
 10
0.4663992395
 20
-4.2203796733
 10
0.3846256176
 20
-4.2103378348
 10
0.2944240622
 20
-4.2223546918
 10
0.2195666817
 20
-4.2561877802
  0
LINE
  5
39E
100
AcDbEntity
  8
0
100
AcDbLine
 62
7
  6
CONTINUOUS
 10
-0.290271
 20
-4.050244
 11
-0.695268
 21
-5.491098
  0
LINE
  5
39F
100
AcDbEntity
  8
0
100
AcDbLine
 62
7
  6
CONTINUOUS
 10
-0.557389
 20
-5.491098
 11
-0.152453
 21
-4.050244
  0
LWPOLYLINE
  5
3A0
100
AcDbEntity
  8
0
100
AcDbPolyline
 62
7
  6
CONTINUOUS
 90
9
 70
0
 10
0.8083032547
 20
-4.5418382908
 10
0.7639660334
 20
-4.6536695424
 10
0.7019553249
 20
-4.7591764776
 10
0.6205328302
 20
-4.8522424882
 10
0.5214368483
 20
-4.9389841825
 10
0.4221766697
 20
-5.0268078517
 10
0.3285887246
 20
-5.1181822596
 10
0.2348365827
 20
-5.2106386423
 10
0.1409202441
 20
-5.304177
  0
LINE
  5
3A1
100
AcDbEntity
  8
0
100
AcDbLine
 62
250
  6
CONTINUOUS
 10
-0.6014767294
 20
-1.7651257748
 11
-0.8695103562
 21
-2.0746920354
  0
LWPOLYLINE
  5
3A2
100
AcDbEntity
  8
0
100
AcDbPolyline
 62
7
  6
CONTINUOUS
 90
4
 70
0
 10
0.2195666817
 20
-4.2561877802
 10
0.1679775119
 20
-4.3117562786
 10
0.131732517
 20
-4.3891410085
 10
0.1108316968
 20
-4.4883419697
  0
LWPOLYLINE
  5
3A3
100
AcDbEntity
  8
0
100
AcDbPolyline
 62
250
  6
CONTINUOUS
 90
4
 70
0
 10
0.7400398271
 20
-1.9251596501
 10
0.6203759151
 20
-2.0383483344
 10
0.5110144429
 20
-2.1618990159
 10
0.4855659193
 20
-2.1965931343
  0
LWPOLYLINE
  5
3A4
100
AcDbEntity
  8
0
100
AcDbPolyline
 62
7
  6
CONTINUOUS
 90
6
 70
0
 10
0.6014896272
 20
-1.7651214625
 10
0.5554355347
 20
-1.8067283989
 10
0.457738201
 20
-1.9079149035
 10
0.3707938053
 20
-2.0165961525
 10
0.2950451317
 20
-2.1314206558
 10
0.2387082074
 20
-2.236419088
  0
LWPOLYLINE
  5
3A5
100
AcDbEntity
  8
0
100
AcDbPolyline
 62
7
  6
CONTINUOUS
 90
10
 70
0
 10
-2.307467
 20
-4.3768706894
 10
-2.3400308239
 20
-4.4048875471
 10
-2.3740396454
 20
-4.4316253233
 10
-2.4094934645
 20
-4.457084018
 10
-2.4464813673
 20
-4.4812541171
 10
-2.4849142676
 20
-4.5041451348
 10
-2.524524907
 20
-4.5257856129
 10
-2.565224199
 20
-4.5461850657
 10
-2.60710123
 20
-4.5653339791
 10
-2.650156
 20
-4.583232353
  0
LWPOLYLINE
  5
3A6
100
AcDbEntity
  8
RACCORDO
100
AcDbPolyline
 62
7
  6
CONTINUOUS
 90
10
 70
0
 10
8.3161664013
 20
1.3143593539
 10
8.3827512957
 20
1.3663825529
 10
8.4560923332
 20
1.4180258246
 10
8.5361895138
 20
1.4688242078
 10
8.6234145946
 20
1.5192158355
 10
8.7173958184
 20
1.5680502022
 10
8.8170179144
 20
1.6124693769
 10
8.9219091256
 20
1.651338435
 10
9.0324412089
 20
1.6853352654
 10
9.1486141643
 20
1.7143593539
  0
LWPOLYLINE
  5
3A7
100
AcDbEntity
  8
0
100
AcDbPolyline
 62
250
  6
CONTINUOUS
 90
3
 70
0
 10
-11.0373182767
 20
-8.6844438423
 10
-10.9811314718
 20
-8.6489262861
 10
-10.9228781458
 20
-8.6182200869
  0
LWPOLYLINE
  5
3A8
100
AcDbEntity
  8
0
100
AcDbPolyline
 62
7
  6
CONTINUOUS
 90
10
 70
0
 10
-2.650156
 20
-4.4177592666
 10
-2.5925890033
 20
-4.3884199748
 10
-2.5378905044
 20
-4.3567014705
 10
-2.4860605033
 20
-4.3226037539
 10
-2.4366827119
 20
-4.2861374171
 10
-2.3901734183
 20
-4.247291868
 10
-2.3477814863
 20
-4.2060353294
 10
-2.3099232037
 20
-4.1623572091
 10
-2.2761822827
 20
-4.1162680993
 10
-2.2465587232
 20
-4.067768
  0
LWPOLYLINE
  5
3A9
100
AcDbEntity
  8
0
100
AcDbPolyline
 62
7
  6
CONTINUOUS
 90
14
 70
0
 10
1.2380809286
 20
-4.6307233611
 10
1.3548978514
 20
-4.5753822327
 10
1.4655939679
 20
-4.5478753802
 10
1.5701692781
 20
-4.5482028038
 10
1.6737215287
 20
-4.5795560203
 10
1.771152973
 20
-4.6387435129
 10
1.847170371
 20
-4.7161907307
 10
1.8985583176
 20
-4.8150881001
 10
1.928532218
 20
-4.9322451948
 10
1.9314450474
 20
-5.0485161855
 10
1.9026043132
 20
-5.1648508301
 10
1.8467025079
 20
-5.2802993706
 10
1.7721700858
 20
-5.3728667041
 10
1.674496189
 20
-5.4359142328
  0
LWPOLYLINE
  5
3AA
100
AcDbEntity
  8
0
100
AcDbPolyline
 62
250
  6
CONTINUOUS
 90
3
 70
0
 10
-10.9228781458
 20
-8.6182200869
 10
-10.8628595311
 20
-8.5924660689
 10
-10.8570463378
 20
-8.5905128959
  0
LINE
  5
3AB
100
AcDbEntity
  8
0
100
AcDbLine
 62
250
  6
CONTINUOUS
 10
15.7058130619
 20
6.6177095318
 11
15.4575941201
 21
6.5849440602
  0
LINE
  5
3AC
100
AcDbEntity
  8
RACCORDO
100
AcDbLine
 62
250
  6
CONTINUOUS
 10
8.3161664013
 20
1.3143593539
 11
10.6838335987
 21
1.3143593539
  0
LINE
  5
3AD
100
AcDbEntity
  8
RACCORDO
100
AcDbLine
 62
250
  6
CONTINUOUS
 10
9.1486141643
 20
1.7143593539
 11
9.8513858357
 21
1.7143593539
  0
LINE
  5
3AE
100
AcDbEntity
  8
RACCORDO
100
AcDbLine
 62
250
  6
CONTINUOUS
 10
9.5434120448
 20
2.0
 11
8.4710529541
 21
2.0
  0
LINE
  5
3AF
100
AcDbEntity
  8
RACCORDO
100
AcDbLine
 62
250
  6
CONTINUOUS
 10
9.5
 20
3.0063318721
 11
-9.5
 21
3.0063318721
  0
LINE
  5
3B0
100
AcDbEntity
  8
RACCORDO
100
AcDbLine
 62
250
  6
CONTINUOUS
 10
9.5
 20
3.2063014111
 11
-9.5
 21
3.2063014111
  0
LINE
  5
3B1
100
AcDbEntity
  8
DRAFT
100
AcDbLine
 62
7
  6
CONTINUOUS
 10
9.5
 20
3.2290539221
 11
-9.5
 21
3.2290539221
  0
LINE
  5
3B2
100
AcDbEntity
  8
0
100
AcDbLine
 62
7
  6
CONTINUOUS
 10
-9.5
 20
3.35
 11
9.5
 21
3.35
  0
LINE
  5
3B3
100
AcDbEntity
  8
0
100
AcDbLine
 62
250
  6
CONTINUOUS
 10
-15.8873178301
 20
6.6403269016
 11
-15.7766642059
 21
6.6267400936
  0
LINE
  5
3B4
100
AcDbEntity
  8
0
100
AcDbLine
 62
250
  6
CONTINUOUS
 10
-15.7766642059
 20
6.6267400936
 11
-15.6274003031
 21
6.60751405
  0
LINE
  5
3B5
100
AcDbEntity
  8
0
100
AcDbLine
 62
250
  6
CONTINUOUS
 10
-15.6274003031
 20
6.60751405
 11
-15.4576184273
 21
6.5849473211
  0
LWPOLYLINE
  5
3B6
100
AcDbEntity
  8
RACCORDO
100
AcDbPolyline
 62
7
  6
CONTINUOUS
 90
10
 70
0
 10
9.8513858357
 20
1.7143593539
 10
9.9675587911
 20
1.6853352654
 10
10.0780908744
 20
1.651338435
 10
10.1829820856
 20
1.6124693769
 10
10.2826041816
 20
1.5680502022
 10
10.3765854054
 20
1.5192158355
 10
10.4638104862
 20
1.4688242078
 10
10.5439076668
 20
1.4180258246
 10
10.6172487043
 20
1.3663825529
 10
10.6838335987
 20
1.3143593539
  0
LINE
  5
3B7
100
AcDbEntity
  8
RACCORDO
100
AcDbLine
 62
7
  6
CONTINUOUS
 10
11.3320476754
 20
-1.0948645593
 11
11.2097426556
 21
-1.0575117148
  0
LINE
  5
3B8
100
AcDbEntity
  8
RACCORDO
100
AcDbLine
 62
7
  6
CONTINUOUS
 10
7.2553293592
 20
0.1501949311
 11
7.6023136241
 21
0.0442234073
  0
LWPOLYLINE
  5
3B9
100
AcDbEntity
  8
0
100
AcDbPolyline
 62
250
  6
CONTINUOUS
 90
5
 70
0
 10
-11.0373182767
 20
8.6844438423
 10
-10.9811314718
 20
8.6489262861
 10
-10.9228781458
 20
8.6182200869
 10
-10.8628595311
 20
8.5924660689
 10
-10.8581766391
 20
8.5908926655
  0
LINE
  5
3BA
100
AcDbEntity
  8
0
100
AcDbLine
 62
250
  6
CONTINUOUS
 10
8.7386388645
 20
-8.8085241912
 11
8.739461735
 21
-8.8170768635
  0
LINE
  5
3BB
100
AcDbEntity
  8
0
100
AcDbLine
 62
250
  6
CONTINUOUS
 10
8.696078891
 20
-8.3434953738
 11
8.7167020332
 21
-8.5616268149
  0
LINE
  5
3BC
100
AcDbEntity
  8
0
100
AcDbLine
 62
250
  6
CONTINUOUS
 10
8.7167020332
 20
-8.5616268149
 11
8.7386388645
 21
-8.8085241912
  0
LWPOLYLINE
  5
3BD
100
AcDbEntity
  8
RACCORDO
100
AcDbPolyline
 62
250
  6
CONTINUOUS
 90
16
 70
0
 10
9.5434120444
 20
2.0
 10
9.5431742287
 20
2.0261321158
 10
9.5424633871
 20
2.0519779227
 10
9.5412873077
 20
2.0772542486
 10
9.5396588759
 20
2.1016841608
 10
9.5375959332
 20
2.125
 10
9.5351210816
 20
2.1469463131
 10
9.5322614361
 20
2.1672826516
 10
9.5290483275
 20
2.1857862064
 10
9.5255169593
 20
2.2022542486
 10
9.521706022
 20
2.2165063509
 10
9.517657269
 20
2.2283863644
 10
9.5134150593
 20
2.2377641291
 10
9.5090258714
 20
2.2445369002
 10
9.5045377942
 20
2.2486304738
 10
9.5035074584
 20
2.2489414337
  0
LINE
  5
3BE
100
AcDbEntity
  8
0
100
AcDbLine
 62
7
  6
CONTINUOUS
 10
5.95711
 20
9.0222209619
 11
5.95711
 21
9.0572832713
  0
LINE
  5
3BF
100
AcDbEntity
  8
0
100
AcDbLine
 62
7
  6
CONTINUOUS
 10
6.84142
 20
8.9654881051
 11
6.84142
 21
9.0005703461
  0
LINE
  5
3C0
100
AcDbEntity
  8
0
100
AcDbLine
 62
7
  6
CONTINUOUS
 10
7.72574
 20
8.9008789982
 11
7.72574
 21
8.9359839656
  0
LINE
  5
3C1
100
AcDbEntity
  8
0
100
AcDbLine
 62
7
  6
CONTINUOUS
 10
8.424705207
 20
-8.879354427
 11
8.424705207
 21
-8.9445861848
  0
LINE
  5
3C2
100
AcDbEntity
  8
0
100
AcDbLine
 62
7
  6
CONTINUOUS
 10
8.52578
 20
-8.8707571204
 11
8.52578
 21
-8.9359945012
  0
LINE
  5
3C3
100
AcDbEntity
  8
0
100
AcDbLine
 62
7
  6
CONTINUOUS
 10
8.52578
 20
8.8356291715
 11
8.52578
 21
8.8707571204
  0
LINE
  5
3C4
100
AcDbEntity
  8
0
100
AcDbLine
 62
250
  6
CONTINUOUS
 10
9.5
 20
-6.4048023205
 11
9.5
 21
-6.4110359141
  0
LINE
  5
3C5
100
AcDbEntity
  8
RACCORDO
100
AcDbLine
 62
250
  6
CONTINUOUS
 10
9.5
 20
-3.2290539221
 11
9.5
 21
-3.0063318721
  0
LINE
  5
3C6
100
AcDbEntity
  8
RACCORDO
100
AcDbLine
 62
250
  6
CONTINUOUS
 10
9.5
 20
3.0063318721
 11
9.5
 21
3.2290539221
  0
LINE
  5
3C7
100
AcDbEntity
  8
0
100
AcDbLine
 62
250
  6
CONTINUOUS
 10
9.5
 20
6.4048023205
 11
9.5
 21
6.4110051036
  0
LINE
  5
3C8
100
AcDbEntity
  8
0
100
AcDbLine
 62
7
  6
CONTINUOUS
 10
7.1993625208
 20
-8.9753772152
 11
7.19796
 21
-9.0406473988
  0
LWPOLYLINE
  5
3C9
100
AcDbEntity
  8
0
100
AcDbPolyline
 62
250
  6
CONTINUOUS
 90
3
 70
0
 10
8.7167028547
 20
8.5616277971
 10
8.7386383251
 20
8.8085124022
 10
8.7394616459
 20
8.8170768851
  0
LINE
  5
3CA
100
AcDbEntity
  8
0
100
AcDbLine
 62
250
  6
CONTINUOUS
 10
8.696078891
 20
8.3434953738
 11
8.7167028547
 21
8.5616277971
  0
LWPOLYLINE
  5
3CB
100
AcDbEntity
  8
0
100
AcDbPolyline
 62
7
  6
CONTINUOUS
 90
13
 70
0
 10
3.175567
 20
-4.7414648072
 10
3.2485709914
 20
-4.6857095436
 10
3.3259991422
 20
-4.6486255884
 10
3.4078514524
 20
-4.6302129415
 10
3.4963052854
 20
-4.6362945762
 10
3.5891832779
 20
-4.6610475192
 10
3.6799533399
 20
-4.6870028511
 10
3.7671094413
 20
-4.7159843123
 10
3.8521576123
 20
-4.7461681624
 10
3.9330838536
 20
-4.7546142608
 10
4.0092168321
 20
-4.7336758938
 10
4.0812278809
 20
-4.6909997751
 10
4.149117
 20
-4.6265859046
  0
LWPOLYLINE
  5
3CC
100
AcDbEntity
  8
0
100
AcDbPolyline
 62
7
  6
CONTINUOUS
 90
13
 70
0
 10
4.149117
 20
-4.829084288
 10
4.0576500967
 20
-4.8849746494
 10
3.9673672837
 20
-4.920650706
 10
3.8782685611
 20
-4.9361124579
 10
3.7900387497
 20
-4.9236697859
 10
3.7029930287
 20
-4.8910128091
 10
3.618076935
 20
-4.8612118848
 10
3.534851078
 20
-4.8364885897
 10
3.4537548484
 20
-4.8146213471
 10
3.3770519549
 20
-4.8120157834
 10
3.3054969671
 20
-4.8341404405
 10
3.2383353155
 20
-4.8755267764
 10
3.175567
 20
-4.9361747912
  0
LWPOLYLINE
  5
3CD
100
AcDbEntity
  8
0
100
AcDbPolyline
 62
7
  6
CONTINUOUS
 90
9
 70
0
 10
1.674496189
 20
-5.4359142328
 10
1.5581916752
 20
-5.4760805545
 10
1.4452195713
 20
-5.4912863593
 10
1.3381194687
 20
-5.4790797926
 10
1.2343517761
 20
-5.4419127091
 10
1.1482607457
 20
-5.3850613635
 10
1.084627795
 20
-5.3102845074
 10
1.0386715066
 20
-5.2158233893
 10
1.0103918805
 20
-5.1016780091
  0
LINE
  5
3CE
100
AcDbEntity
  8
0
100
AcDbLine
 62
7
  6
CONTINUOUS
 10
-8.695381928
 20
8.3447766193
 11
-9.8793966804
 21
8.2019462455
  0
LWPOLYLINE
  5
3CF
100
AcDbEntity
  8
0
100
AcDbPolyline
 62
7
  6
CONTINUOUS
 90
12
 70
0
 10
-9.8793966804
 20
8.2019462455
 10
-11.1093934633
 20
8.0564195446
 10
-11.2826176286
 20
8.0352166207
 10
-11.4425692422
 20
8.014911181
 10
-11.5904101171
 20
7.9950852504
 10
-11.7461906812
 20
7.9715467724
 10
-11.9106365712
 20
7.944276801
 10
-12.0830221505
 20
7.9132942822
 10
-12.2812209361
 20
7.8744639969
 10
-12.5111907671
 20
7.826407539
 10
-12.7669738045
 20
7.7705033146
 10
-13.0485700481
 20
7.7067513238
  0
LWPOLYLINE
  5
3D0
100
AcDbEntity
  8
0
100
AcDbPolyline
 62
7
  6
CONTINUOUS
 90
16
 70
0
 10
-9.9402828162
 20
8.6988955058
 10
-10.2044950851
 20
8.6694645688
 10
-10.4595206525
 20
8.6399095679
 10
-10.7199353784
 20
8.6084117677
 10
-10.9858876153
 20
8.57470805
 10
-11.2573908236
 20
8.538529623
 10
-11.534880966
 20
8.4995254255
 10
-11.8182011799
 20
8.4573994264
 10
-12.1077301044
 20
8.4117425542
 10
-12.404351513
 20
8.3617724178
 10
-12.7072892632
 20
8.3066791966
 10
-13.0164095224
 20
8.2458569315
 10
-13.3331149913
 20
8.1784988783
 10
-13.6572640739
 20
8.1040146145
 10
-13.9885253898
 20
8.0218085798
 10
-14.278923893
 20
7.94451094
  0
LWPOLYLINE
  5
3D1
100
AcDbEntity
  8
0
100
AcDbPolyline
 62
7
  6
CONTINUOUS
 90
3
 70
0
 10
-9.9402049648
 20
8.6989040829
 10
-9.5808827326
 20
8.7372921554
 10
-8.939975947
 20
8.7993127461
  0
LWPOLYLINE
  5
3D2
100
AcDbEntity
  8
0
100
AcDbPolyline
 62
7
  6
CONTINUOUS
 90
10
 70
0
 10
-8.7135699512
 20
8.8199016061
 10
-7.7587754532
 20
8.8987801554
 10
-6.7995902749
 20
8.9687584888
 10
-5.8360953957
 20
9.0297240318
 10
-4.8671859609
 20
9.0816223809
 10
-3.8941340244
 20
9.1242606319
 10
-2.92059363
 20
9.1574230687
 10
-1.9478461339
 20
9.1810799349
 10
-0.9747951291
 20
9.1952717781
 10
-0.0015327154
 20
9.1999937696
  0
LWPOLYLINE
  5
3D3
100
AcDbEntity
  8
0
100
AcDbPolyline
 62
250
  6
CONTINUOUS
 90
5
 70
0
 10
14.3388366867
 20
6.4451322459
 10
14.2906000762
 20
6.4414797634
 10
14.2420290802
 20
6.4380421166
 10
14.1931236984
 20
6.4348193055
 10
14.1438869138
 20
6.4318480586
  0
LINE
  5
3D4
100
AcDbEntity
  8
0
100
AcDbLine
 62
7
  6
CONTINUOUS
 10
-14.3553046842
 20
7.6154767216
 11
-14.5969960541
 21
7.5984736313
  0
LINE
  5
3D5
100
AcDbEntity
  8
0
100
AcDbLine
 62
7
  6
CONTINUOUS
 10
-13.0485700481
 20
7.7067513238
 11
-11.0
 21
7.85
  0
LINE
  5
3D6
100
AcDbEntity
  8
0
100
AcDbLine
 62
7
  6
CONTINUOUS
 10
-14.3179229973
 20
7.6179882225
 11
-13.0535231105
 21
7.7064036756
  0
LINE
  5
3D7
100
AcDbEntity
  8
0
100
AcDbLine
 62
7
  6
CONTINUOUS
 10
-14.2473874317
 20
7.6189318375
 11
-10.97326141
 21
7.8476028954
  0
LINE
  5
3D8
100
AcDbEntity
  8
0
100
AcDbLine
 62
7
  6
CONTINUOUS
 10
-14.3212097474
 20
7.617697632
 11
-14.3553046842
 21
7.6154767216
  0
LWPOLYLINE
  5
3D9
100
AcDbEntity
  8
0
100
AcDbPolyline
 62
250
  6
CONTINUOUS
 90
9
 70
0
 10
13.8925887758
 20
6.419002321
 10
13.8628623518
 20
6.4172723079
 10
13.8335390157
 20
6.4157669017
 10
13.8046187674
 20
6.4144861022
 10
13.7761039111
 20
6.4134475513
 10
13.7479921426
 20
6.4126336072
 10
13.7202765498
 20
6.4119913446
 10
13.6929548284
 20
6.4115031216
 10
13.6660292827
 20
6.4111865801
  0
LINE
  5
3DA
100
AcDbEntity
  8
0
100
AcDbLine
 62
250
  6
CONTINUOUS
 10
14.1438869138
 20
6.4318480586
 11
13.9941404188
 21
6.4238560475
  0
LWPOLYLINE
  5
3DB
100
AcDbEntity
  8
0
100
AcDbPolyline
 62
7
  6
CONTINUOUS
 90
5
 70
0
 10
-12.5402224754
 20
8.3385225493
 10
-12.5411836867
 20
8.338476428
 10
-12.5431388081
 20
8.3383220813
 10
-12.5453640148
 20
8.3380620356
 10
-12.5476583185
 20
8.3377316819
  0
LINE
  5
3DC
100
AcDbEntity
  8
0
100
AcDbLine
 62
250
  6
CONTINUOUS
 10
13.9941404188
 20
6.4238560475
 11
13.8925887758
 21
6.419002321
  0
LINE
  5
3DD
100
AcDbEntity
  8
0
100
AcDbLine
 62
250
  6
CONTINUOUS
 10
-9.9464452034
 20
8.7314491208
 11
-10.8730391741
 21
8.6911996913
  0
LINE
  5
3DE
100
AcDbEntity
  8
0
100
AcDbLine
 62
250
  6
CONTINUOUS
 10
-10.8730391741
 20
8.6911996913
 11
-11.0372872228
 21
8.6844231375
  0
LINE
  5
3DF
100
AcDbEntity
  8
0
100
AcDbLine
 62
250
  6
CONTINUOUS
 10
-9.4309632534
 20
8.751799873
 11
-9.9464452034
 21
8.7314491208
  0
LWPOLYLINE
  5
3E0
100
AcDbEntity
  8
0
100
AcDbPolyline
 62
250
  6
CONTINUOUS
 90
6
 70
0
 10
15.9531757666
 20
6.6470354228
 10
15.9459111336
 20
6.6467817704
 10
15.9237305715
 20
6.6445218622
 10
15.8873178301
 20
6.6403269016
 10
15.8377901606
 20
6.6343427303
 10
15.7058130619
 20
6.6177095318
  0
LWPOLYLINE
  5
3E1
100
AcDbEntity
  8
0
100
AcDbPolyline
 62
250
  6
CONTINUOUS
 90
6
 70
0
 10
13.6368268208
 20
6.4110359141
 10
13.5549003215
 20
6.409039491
 10
13.4727314535
 20
6.4074150424
 10
13.3902856704
 20
6.4061708059
 10
13.3075278351
 20
6.4053151138
 10
13.2244222157
 20
6.4048563937
  0
LWPOLYLINE
  5
3E2
100
AcDbEntity
  8
0
100
AcDbPolyline
 62
250
  6
CONTINUOUS
 90
9
 70
0
 10
12.2616978476
 20
8.397656732
 10
12.2903872045
 20
8.3982950094
 10
12.3190662666
 20
8.3981092624
 10
12.3477209865
 20
8.3971007333
 10
12.3763439414
 20
8.3952698726
 10
12.404909178
 20
8.3926176139
 10
12.4333746551
 20
8.3891479399
 10
12.4617144946
 20
8.3848649516
 10
12.4899187944
 20
8.3797705768
  0
LWPOLYLINE
  5
3E3
100
AcDbEntity
  8
0
100
AcDbPolyline
 62
250
  6
CONTINUOUS
 90
10
 70
0
 10
0.0000216553
 20
8.7043375444
 10
-0.933085885
 20
8.700405351
 10
-1.8745493884
 20
8.6870407956
 10
-2.8243688551
 20
8.6642438782
 10
-3.7826694314
 20
8.6314444562
 10
-4.749325971
 20
8.5892126722
 10
-5.7239630343
 20
8.5392589537
 10
-6.7064554751
 20
8.4821534434
 10
-7.6969284396
 20
8.4173259986
 10
-8.695381928
 20
8.3447766193
  0
LINE
  5
3E4
100
AcDbEntity
  8
0
100
AcDbLine
 62
250
  6
CONTINUOUS
 10
13.6660292827
 20
6.4111865801
 11
13.5933691395
 21
6.410851606
  0
LWPOLYLINE
  5
3E5
100
AcDbEntity
  8
0
100
AcDbPolyline
 62
250
  6
CONTINUOUS
 90
3
 70
0
 10
-13.6395007403
 20
6.4110449053
 10
-13.6590548585
 20
6.4110116702
 10
-13.6684613914
 20
6.4110475488
  0
LINE
  5
3E6
100
AcDbEntity
  8
0
100
AcDbLine
 62
250
  6
CONTINUOUS
 10
-13.9022902912
 20
6.2
 11
-13.1409324815
 21
6.2
  0
LINE
  5
3E7
100
AcDbEntity
  8
0
100
AcDbLine
 62
250
  6
CONTINUOUS
 10
-5.0544928463
 20
6.4047485883
 11
-0.0
 21
6.4061087724
  0
LINE
  5
3E8
100
AcDbEntity
  8
0
100
AcDbLine
 62
7
  6
CONTINUOUS
 10
-14.5969960551
 20
6.75
 11
-14.3150848221
 21
6.75
  0
LINE
  5
3E9
100
AcDbEntity
  8
0
100
AcDbLine
 62
7
  6
CONTINUOUS
 10
14.5969960551
 20
6.75
 11
14.3150848221
 21
6.75
  0
LINE
  5
3EA
100
AcDbEntity
  8
0
100
AcDbLine
 62
7
  6
CONTINUOUS
 10
-14.5969960551
 20
7.25
 11
-14.2761304488
 21
7.25
  0
LINE
  5
3EB
100
AcDbEntity
  8
0
100
AcDbLine
 62
7
  6
CONTINUOUS
 10
14.5969960551
 20
7.25
 11
14.2761304488
 21
7.25
  0
LINE
  5
3EC
100
AcDbEntity
  8
0
100
AcDbLine
 62
7
  6
CONTINUOUS
 10
-10.97326141
 20
7.8476028954
 11
11.09673859
 21
7.8476028954
  0
LINE
  5
3ED
100
AcDbEntity
  8
0
100
AcDbLine
 62
7
  6
CONTINUOUS
 10
-11.0
 20
7.85
 11
11.0
 21
7.85
  0
LINE
  5
3EE
100
AcDbEntity
  8
0
100
AcDbLine
 62
250
  6
CONTINUOUS
 10
8.3870273998
 20
6.4047663774
 11
3.4999677239
 21
6.4049797681
  0
LINE
  5
3EF
100
AcDbEntity
  8
0
100
AcDbLine
 62
250
  6
CONTINUOUS
 10
-11.5273779329
 20
6.4057312257
 11
-10.7178213942
 21
6.4052961412
  0
LINE
  5
3F0
100
AcDbEntity
  8
0
100
AcDbLine
 62
250
  6
CONTINUOUS
 10
-10.7178213942
 20
6.4052961412
 11
-5.0544928463
 21
6.4047485883
  0
LINE
  5
3F1
100
AcDbEntity
  8
0
100
AcDbLine
 62
250
  6
CONTINUOUS
 10
3.4999677239
 20
6.4049797681
 11
-0.0
 21
6.4061087724
  0
LINE
  5
3F2
100
AcDbEntity
  8
0
100
AcDbLine
 62
250
  6
CONTINUOUS
 10
12.3350810993
 20
6.4056211959
 11
8.3870273998
 21
6.4047663774
  0
LINE
  5
3F3
100
AcDbEntity
  8
0
100
AcDbLine
 62
250
  6
CONTINUOUS
 10
13.2244222157
 20
6.4048563937
 11
12.3350810993
 21
6.4056211959
  0
LINE
  5
3F4
100
AcDbEntity
  8
0
100
AcDbLine
 62
250
  6
CONTINUOUS
 10
13.3607293505
 20
6.4109811925
 11
-13.6368268208
 21
6.4110359141
  0
LINE
  5
3F5
100
AcDbEntity
  8
0
100
AcDbLine
 62
250
  6
CONTINUOUS
 10
13.5933691395
 20
6.410851606
 11
13.5479593943
 21
6.410904095
  0
LINE
  5
3F6
100
AcDbEntity
  8
0
100
AcDbLine
 62
250
  6
CONTINUOUS
 10
-13.6368268208
 20
6.4110359141
 11
-13.6395007403
 21
6.4110449053
  0
LWPOLYLINE
  5
3F7
100
AcDbEntity
  8
0
100
AcDbPolyline
 62
250
  6
CONTINUOUS
 90
7
 70
0
 10
-13.9022902912
 20
6.2
 10
-13.9782622929
 20
6.2008640222
 10
-14.0542621726
 20
6.2008640178
 10
-14.1302899304
 20
6.1999999866
 10
-14.2063455662
 20
6.1982719287
 10
-14.28242908
 20
6.1956798441
 10
-14.358540472
 20
6.1922237328
  0
LWPOLYLINE
  5
3F8
100
AcDbEntity
  8
0
100
AcDbPolyline
 62
250
  6
CONTINUOUS
 90
5
 70
0
 10
13.5479593943
 20
6.410904095
 10
13.5187588078
 20
6.4112657719
 10
13.488756453
 20
6.4114879178
 10
13.4579523299
 20
6.4115705329
 10
13.3607293505
 20
6.4109811925
  0
LWPOLYLINE
  5
3F9
100
AcDbEntity
  8
0
100
AcDbPolyline
 62
250
  6
CONTINUOUS
 90
6
 70
0
 10
-13.6684613914
 20
6.4110475488
 10
-13.6878554212
 20
6.4112539685
 10
-13.6978429181
 20
6.4114245095
 10
-13.7080509962
 20
6.4116543955
 10
-13.7184780668
 20
6.4119674103
 10
-13.7400229516
 20
6.4127131351
  0
LWPOLYLINE
  5
3FA
100
AcDbEntity
  8
0
100
AcDbPolyline
 62
250
  6
CONTINUOUS
 90
7
 70
0
 10
14.3585300362
 20
6.1923576816
 10
14.1641101602
 20
6.1957542709
 10
13.9662850643
 20
6.1983017124
 10
13.7650547485
 20
6.2000000061
 10
13.5604192127
 20
6.2008491519
 10
13.3523784571
 20
6.2008491499
 10
13.1409324815
 20
6.2
  0
LWPOLYLINE
  5
3FB
100
AcDbEntity
  8
0
100
AcDbPolyline
 62
250
  6
CONTINUOUS
 90
9
 70
0
 10
-12.2616978476
 20
8.397656732
 10
-12.2903872045
 20
8.3982950094
 10
-12.3190662666
 20
8.3981092624
 10
-12.3477209865
 20
8.3971007333
 10
-12.3763439414
 20
8.3952698726
 10
-12.404909178
 20
8.3926176139
 10
-12.4333746551
 20
8.3891479399
 10
-12.4617144946
 20
8.3848649516
 10
-12.4899187944
 20
8.3797705768
  0
LWPOLYLINE
  5
3FC
100
AcDbEntity
  8
0
100
AcDbPolyline
 62
250
  6
CONTINUOUS
 90
7
 70
0
 10
-13.6365741424
 20
6.4110291842
 10
-13.5547599602
 20
6.4090363918
 10
-13.4726752919
 20
6.4074140628
 10
-13.3902856704
 20
6.4061708059
 10
-13.3075559685
 20
6.4053153372
 10
-13.2244503934
 20
6.4048564808
 10
-11.5273779329
 20
6.4057312257
  0
LINE
  5
3FD
100
AcDbEntity
  8
0
100
AcDbLine
 62
250
  6
CONTINUOUS
 10
-13.7400229516
 20
6.4127131351
 11
-13.7742411374
 21
6.4137809207
  0
LWPOLYLINE
  5
3FE
100
AcDbEntity
  8
0
100
AcDbPolyline
 62
250
  6
CONTINUOUS
 90
4
 70
0
 10
-15.9531757666
 20
6.6470354228
 10
-15.9459111336
 20
6.6467817704
 10
-15.9237305715
 20
6.6445218622
 10
-15.8873178301
 20
6.6403269016
  0
LINE
  5
3FF
100
AcDbEntity
  8
0
100
AcDbLine
 62
250
  6
CONTINUOUS
 10
9.4327629647
 20
8.7517322475
 11
9.7395748946
 21
8.739862349
  0
LINE
  5
400
100
AcDbEntity
  8
0
100
AcDbLine
 62
250
  6
CONTINUOUS
 10
9.7395748946
 20
8.739862349
 11
10.1458764787
 21
8.72305855
  0
LINE
  5
401
100
AcDbEntity
  8
0
100
AcDbLine
 62
250
  6
CONTINUOUS
 10
-13.7742411374
 20
6.4137809207
 11
-13.8503447994
 21
6.4169086021
  0
LINE
  5
402
100
AcDbEntity
  8
0
100
AcDbLine
 62
250
  6
CONTINUOUS
 10
10.1458764787
 20
8.72305855
 11
11.0372872228
 21
8.6844231375
  0
LWPOLYLINE
  5
403
100
AcDbEntity
  8
0
100
AcDbPolyline
 62
250
  6
CONTINUOUS
 90
3
 70
0
 10
-13.8503447994
 20
6.4169086021
 10
-13.878194933
 20
6.4182010665
 10
-13.9941411585
 20
6.423837301
  0
LWPOLYLINE
  5
404
100
AcDbEntity
  8
0
100
AcDbPolyline
 62
7
  6
CONTINUOUS
 90
5
 70
0
 10
12.5402118344
 20
8.3385230023
 10
12.5411836867
 20
8.338476428
 10
12.5431388081
 20
8.3383220813
 10
12.5453640148
 20
8.3380620356
 10
12.5476583185
 20
8.3377316819
  0
LINE
  5
405
100
AcDbEntity
  8
0
100
AcDbLine
 62
7
  6
CONTINUOUS
 10
11.09673859
 20
7.8476028954
 11
14.2467118805
 21
7.6276028954
  0
LINE
  5
406
100
AcDbEntity
  8
0
100
AcDbLine
 62
7
  6
CONTINUOUS
 10
14.5082630761
 20
7.6050690297
 11
14.2463893394
 21
7.6229903432
  0
LWPOLYLINE
  5
407
100
AcDbEntity
  8
0
100
AcDbPolyline
 62
250
  6
CONTINUOUS
 90
10
 70
0
 10
8.6952684241
 20
8.3460960961
 10
7.6968750859
 20
8.4180674262
 10
6.706448553
 20
8.4824596344
 10
5.7239888253
 20
8.5392727207
 10
4.749366707
 20
8.5891234306
 10
3.7827113941
 20
8.6313950186
 10
2.8244104737
 20
8.6642372477
 10
1.8745931416
 20
8.6870333722
 10
0.9331302022
 20
8.7004001377
 10
0.0000216553
 20
8.7043375444
  0
LWPOLYLINE
  5
408
100
AcDbEntity
  8
0
100
AcDbPolyline
 62
250
  6
CONTINUOUS
 90
6
 70
0
 10
-14.3388366867
 20
6.4451322459
 10
-14.2906000762
 20
6.4414797634
 10
-14.2420290802
 20
6.4380421166
 10
-14.1931236984
 20
6.4348193055
 10
-14.1438867906
 20
6.431851183
 10
-13.9941411585
 20
6.423837301
  0
LWPOLYLINE
  5
409
100
AcDbEntity
  8
0
100
AcDbPolyline
 62
7
  6
CONTINUOUS
 90
3
 70
0
 10
14.5969960547
 20
7.5984735751
 10
14.5748497709
 20
7.6001773468
 10
14.5082630761
 20
7.6050690297
  0
LWPOLYLINE
  5
40A
100
AcDbEntity
  8
0
100
AcDbPolyline
 62
7
  6
CONTINUOUS
 90
10
 70
0
 10
8.7075639074
 20
8.8199014438
 10
7.7528345135
 20
8.8987749464
 10
6.7937147292
 20
8.9687494723
 10
5.8302855168
 20
9.0297124611
 10
4.8613552277
 20
9.0816137528
 10
3.8882825996
 20
9.1242545385
 10
2.9149822089
 20
9.1574114954
 10
1.9428224657
 20
9.1810607847
 10
0.9706201675
 20
9.1952539482
 10
-0.0015327154
 20
9.1999937696
  0
LINE
  5
40B
100
AcDbEntity
  8
0
100
AcDbLine
 62
7
  6
CONTINUOUS
 10
8.9978234151
 20
8.7940787337
 11
8.9052084226
 21
8.8024829207
  0
LWPOLYLINE
  5
40C
100
AcDbEntity
  8
0
100
AcDbPolyline
 62
7
  6
CONTINUOUS
 90
3
 70
0
 10
9.9402429885
 20
8.6988998937
 10
9.577731542
 20
8.737617881
 10
8.9978083043
 20
8.7940801108
  0
LINE
  5
40D
100
AcDbEntity
  8
0
100
AcDbLine
 62
250
  6
CONTINUOUS
 10
10.1804884944
 20
8.1641195136
 11
11.1370603106
 21
8.055184879
  0
LINE
  5
40E
100
AcDbEntity
  8
0
100
AcDbLine
 62
250
  6
CONTINUOUS
 10
8.6952684241
 20
8.3460960961
 11
10.1804884944
 21
8.1641195136
  0
LWPOLYLINE
  5
40F
100
AcDbEntity
  8
0
100
AcDbPolyline
 62
250
  6
CONTINUOUS
 90
5
 70
0
 10
11.1370603106
 20
8.055184879
 10
11.6170117728
 20
7.9888722205
 10
12.1045947283
 20
7.9060180749
 10
12.5965486153
 20
7.8109447388
 10
13.0618692484
 20
7.710354511
  0
LWPOLYLINE
  5
410
100
AcDbEntity
  8
RACCORDO
100
AcDbPolyline
 62
250
  6
CONTINUOUS
 90
28
 70
0
 10
11.5434120444
 20
-0.0
 10
11.5424218635
 20
0.0896673162
 10
11.5358762579
 20
0.1828584228
 10
11.5237752279
 20
0.2795733197
 10
11.5065092503
 20
0.3806644657
 10
11.4836878482
 20
0.485279402
 10
11.4541395904
 20
0.5908607524
 10
11.4175325
 20
0.6974457655
 10
11.3741985538
 20
0.8049971925
 10
11.3239622514
 20
0.9108459115
 10
11.2665230843
 20
1.0148596794
 10
11.2021815609
 20
1.1171707392
 10
11.1316637056
 20
1.2155066981
 10
11.0548739917
 20
1.3095856327
 10
10.9719079459
 20
1.3996894664
 10
10.8837781728
 20
1.4843915766
 10
10.7904151904
 20
1.563547389
 10
10.6918884807
 20
1.6373014778
 10
10.5894190941
 20
1.7046609439
 10
10.4829643304
 20
1.765508067
 10
10.3725668898
 20
1.8199605674
 10
10.2595759234
 20
1.8673787063
 10
10.1439393827
 20
1.9076561439
 10
10.025709316
 20
1.9408992202
 10
9.9063910193
 20
1.9667872158
 10
9.7864862578
 20
1.9852132245
 10
9.6654932661
 20
1.9962841525
 10
9.5434120444
 20
2.0
  0
LINE
  5
411
100
AcDbEntity
  8
0
100
AcDbLine
 62
7
  6
CONTINUOUS
 10
14.5971081339
 20
-7.5544664559
 11
14.5961347273
 21
-7.3756687424
  0
LINE
  5
412
100
AcDbEntity
  8
0
100
AcDbLine
 62
7
  6
CONTINUOUS
 10
14.5971081339
 20
7.5544664359
 11
14.5969960547
 21
7.5984735751
  0
LINE
  5
413
100
AcDbEntity
  8
0
100
AcDbLine
 62
7
  6
CONTINUOUS
 10
14.5962380061
 20
7.332132796
 11
14.5961347273
 21
7.3756687459
  0
LINE
  5
414
100
AcDbEntity
  8
RACCORDO
100
AcDbLine
 62
250
  6
CONTINUOUS
 10
11.5434120444
 20
-0.2
 11
11.5434120444
 21
-0.0
  0
LINE
  5
415
100
AcDbEntity
  8
0
100
AcDbLine
 62
250
  6
CONTINUOUS
 10
13.1409324815
 20
-6.2
 11
13.1409324815
 21
-6.4110359141
  0
LINE
  5
416
100
AcDbEntity
  8
0
100
AcDbLine
 62
250
  6
CONTINUOUS
 10
13.1409324815
 20
6.2
 11
13.1409324815
 21
6.4110359141
  0
LINE
  5
417
100
AcDbEntity
  8
0
100
AcDbLine
 62
7
  6
CONTINUOUS
 10
14.4
 20
6.065863116
 11
14.4
 21
5.7838127614
  0
LINE
  5
418
100
AcDbEntity
  8
0
100
AcDbLine
 62
7
  6
CONTINUOUS
 10
14.5969960551
 20
-3.7936633137
 11
14.5969960551
 21
-5.4892081584
  0
LINE
  5
419
100
AcDbEntity
  8
0
100
AcDbLine
 62
7
  6
CONTINUOUS
 10
14.5969960551
 20
-7.3187190075
 11
14.5969960551
 21
-6.75
  0
LINE
  5
41A
100
AcDbEntity
  8
0
100
AcDbLine
 62
7
  6
CONTINUOUS
 10
14.5969960551
 20
3.7936633137
 11
14.5969960551
 21
5.4892081584
  0
LINE
  5
41B
100
AcDbEntity
  8
0
100
AcDbLine
 62
7
  6
CONTINUOUS
 10
14.5969960551
 20
6.75
 11
14.5969960551
 21
7.3187190075
  0
LINE
  5
41C
100
AcDbEntity
  8
0
100
AcDbLine
 62
7
  6
CONTINUOUS
 10
14.5961347273
 20
-7.3756687424
 11
14.5962380061
 21
-7.332132796
  0
LINE
  5
41D
100
AcDbEntity
  8
0
100
AcDbLine
 62
7
  6
CONTINUOUS
 10
14.5969960543
 20
-7.5984736082
 11
14.5971081339
 21
-7.5544664559
  0
LINE
  5
41E
100
AcDbEntity
  8
0
100
AcDbLine
 62
7
  6
CONTINUOUS
 10
14.5961347273
 20
7.3756687459
 11
14.5971081339
 21
7.5544664359
  0
LWPOLYLINE
  5
41F
100
AcDbEntity
  8
0
100
AcDbPolyline
 62
250
  6
CONTINUOUS
 90
10
 70
0
 10
15.0595670394
 20
7.7128064309
 10
15.0598443967
 20
7.714161612
 10
15.059828915
 20
7.7155173245
 10
15.0595380903
 20
7.7168733094
 10
15.0589892137
 20
7.7182293232
 10
15.058199387
 20
7.7195851007
 10
15.0571811016
 20
7.7209407286
 10
15.0558997666
 20
7.7223002576
 10
15.0542930551
 20
7.7236700768
 10
15.0522990731
 20
7.7250565139
  0
LWPOLYLINE
  5
420
100
AcDbEntity
  8
0
100
AcDbPolyline
 62
250
  6
CONTINUOUS
 90
3
 70
0
 10
14.9090359761
 20
7.2404043977
 10
14.9830852896
 20
7.4768416088
 10
15.0047361144
 20
7.5446974187
  0
LWPOLYLINE
  5
421
100
AcDbEntity
  8
0
100
AcDbPolyline
 62
250
  6
CONTINUOUS
 90
3
 70
0
 10
15.0047361144
 20
7.5446974187
 10
15.0571385539
 20
7.7057642735
 10
15.0595796131
 20
7.7128017597
  0
LWPOLYLINE
  5
422
100
AcDbEntity
  8
RACCORDO
100
AcDbPolyline
 62
250
  6
CONTINUOUS
 90
10
 70
0
 10
11.3320476754
 20
-1.0948645593
 10
11.3803639083
 20
-0.9888078783
 10
11.4221844213
 20
-0.8838044172
 10
11.4575092146
 20
-0.7798541761
 10
11.4859544294
 20
-0.676152353
 10
11.5079039243
 20
-0.57350375
 10
11.5245092757
 20
-0.4743227725
 10
11.5361543422
 20
-0.3794142227
 10
11.5424552651
 20
-0.2879732985
 10
11.5434120444
 20
-0.2
  0
LWPOLYLINE
  5
423
100
AcDbEntity
  8
0
100
AcDbPolyline
 62
250
  6
CONTINUOUS
 90
6
 70
0
 10
15.0522990731
 20
-7.7250565139
 10
15.050235518
 20
-7.7262627803
 10
15.0478161609
 20
-7.7274842768
 10
15.0450435393
 20
-7.7287123283
 10
15.0420394965
 20
-7.7298966005
 10
15.0409184241
 20
-7.7303048614
  0
LWPOLYLINE
  5
424
100
AcDbEntity
  8
0
100
AcDbPolyline
 62
7
  6
CONTINUOUS
 90
6
 70
0
 10
15.1238292166
 20
-7.6999870967
 10
15.2423863163
 20
-7.6458423
 10
15.3571981868
 20
-7.5795644062
 10
15.4703782958
 20
-7.4982966981
 10
15.5878265902
 20
-7.3926237332
 10
15.7110720713
 20
-7.2479803463
  0
LINE
  5
425
100
AcDbEntity
  8
0
100
AcDbLine
 62
250
  6
CONTINUOUS
 10
12.0478696485
 20
-8.6720158465
 11
11.66394491
 21
-8.8211238706
  0
LINE
  5
426
100
AcDbEntity
  8
0
100
AcDbLine
 62
7
  6
CONTINUOUS
 10
12.0551401132
 20
-8.6858453258
 11
12.7555707505
 21
-8.4365823722
  0
LINE
  5
427
100
AcDbEntity
  8
0
100
AcDbLine
 62
7
  6
CONTINUOUS
 10
11.8847665369
 20
-8.7457148393
 11
12.0551401132
 21
-8.6858453258
  0
LINE
  5
428
100
AcDbEntity
  8
0
100
AcDbLine
 62
7
  6
CONTINUOUS
 10
12.7555707505
 20
-8.4365823722
 11
12.9593833233
 21
-8.3647695391
  0
LINE
  5
429
100
AcDbEntity
  8
0
100
AcDbLine
 62
250
  6
CONTINUOUS
 10
11.66394491
 20
-8.8211238706
 11
11.5597609319
 21
-8.8574971399
  0
LINE
  5
42A
100
AcDbEntity
  8
0
100
AcDbLine
 62
7
  6
CONTINUOUS
 10
11.704073206
 20
-8.8083645812
 11
11.8847665369
 21
-8.7457148393
  0
LINE
  5
42B
100
AcDbEntity
  8
0
100
AcDbLine
 62
7
  6
CONTINUOUS
 10
12.9593833233
 20
-8.3647695391
 11
13.1329385818
 21
-8.304517966
  0
LWPOLYLINE
  5
42C
100
AcDbEntity
  8
0
100
AcDbPolyline
 62
250
  6
CONTINUOUS
 90
3
 70
0
 10
11.0372872228
 20
-8.6844231375
 10
10.5476115909
 20
-8.852586435
 10
9.9496302964
 20
-9.0237504579
  0
LINE
  5
42D
100
AcDbEntity
  8
0
100
AcDbLine
 62
7
  6
CONTINUOUS
 10
15.0409184241
 20
-7.7303048614
 11
15.0390804235
 21
-7.7309355683
  0
LINE
  5
42E
100
AcDbEntity
  8
0
100
AcDbLine
 62
7
  6
CONTINUOUS
 10
11.5092794239
 20
-8.8747140178
 11
11.704073206
 21
-8.8083645812
  0
LINE
  5
42F
100
AcDbEntity
  8
0
100
AcDbLine
 62
7
  6
CONTINUOUS
 10
13.1329385818
 20
-8.304517966
 11
13.2825137274
 21
-8.2535102977
  0
LINE
  5
430
100
AcDbEntity
  8
0
100
AcDbLine
 62
7
  6
CONTINUOUS
 10
13.2825137274
 20
-8.2535102977
 11
13.4134147454
 21
-8.2097400336
  0
LINE
  5
431
100
AcDbEntity
  8
0
100
AcDbLine
 62
7
  6
CONTINUOUS
 10
11.3077855919
 20
-8.9406692501
 11
11.5597609319
 21
-8.8574971399
  0
LINE
  5
432
100
AcDbEntity
  8
0
100
AcDbLine
 62
7
  6
CONTINUOUS
 10
13.4134147454
 20
-8.2097400336
 11
13.5294184749
 21
-8.171737883
  0
LINE
  5
433
100
AcDbEntity
  8
0
100
AcDbLine
 62
7
  6
CONTINUOUS
 10
13.5294184749
 20
-8.171737883
 11
13.6332452453
 21
-8.1384182759
  0
LINE
  5
434
100
AcDbEntity
  8
0
100
AcDbLine
 62
7
  6
CONTINUOUS
 10
13.6332452453
 20
-8.1384182759
 11
13.7287434481
 21
-8.108386955
  0
LINE
  5
435
100
AcDbEntity
  8
0
100
AcDbLine
 62
7
  6
CONTINUOUS
 10
13.7287434481
 20
-8.108386955
 11
13.8172710746
 21
-8.0810887183
  0
LINE
  5
436
100
AcDbEntity
  8
0
100
AcDbLine
 62
250
  6
CONTINUOUS
 10
14.8413509407
 20
-7.2610251471
 11
14.9103306484
 21
-7.2399597615
  0
LINE
  5
437
100
AcDbEntity
  8
0
100
AcDbLine
 62
7
  6
CONTINUOUS
 10
13.8172710746
 20
-8.0810887183
 11
13.8955981863
 21
-8.0573603013
  0
LINE
  5
438
100
AcDbEntity
  8
0
100
AcDbLine
 62
7
  6
CONTINUOUS
 10
13.8955981863
 20
-8.0573603013
 11
13.9477626389
 21
-8.0417720232
  0
LINE
  5
439
100
AcDbEntity
  8
0
100
AcDbLine
 62
7
  6
CONTINUOUS
 10
15.0595822506
 20
-7.7128009189
 11
14.3467740292
 21
-7.9257594476
  0
LINE
  5
43A
100
AcDbEntity
  8
0
100
AcDbLine
 62
250
  6
CONTINUOUS
 10
14.77245042
 20
-7.2816032987
 11
14.8413509407
 21
-7.2610251471
  0
LINE
  5
43B
100
AcDbEntity
  8
0
100
AcDbLine
 62
7
  6
CONTINUOUS
 10
10.6025792759
 20
-9.1458926495
 11
11.3077855919
 21
-8.9406692501
  0
LWPOLYLINE
  5
43C
100
AcDbEntity
  8
0
100
AcDbPolyline
 62
7
  6
CONTINUOUS
 90
3
 70
0
 10
13.9477626389
 20
-8.0417720232
 10
13.9820843011
 20
-8.0317747268
 10
13.9930757317
 20
-8.0286436653
  0
LWPOLYLINE
  5
43D
100
AcDbEntity
  8
0
100
AcDbPolyline
 62
7
  6
CONTINUOUS
 90
8
 70
0
 10
14.5198081821
 20
-7.8904330869
 10
14.5866522945
 20
-7.871192174
 10
14.6574955173
 20
-7.8503981385
 10
14.7290640815
 20
-7.8289606591
 10
14.801091455
 20
-7.8069406937
 10
14.8739380599
 20
-7.7842117937
 10
14.9451927758
 20
-7.7615339715
 10
15.0398414526
 20
-7.7307330219
  0
LWPOLYLINE
  5
43E
100
AcDbEntity
  8
0
100
AcDbPolyline
 62
250
  6
CONTINUOUS
 90
3
 70
0
 10
14.6681921682
 20
-7.3118599401
 10
14.7033237524
 20
-7.3017818243
 10
14.77245042
 20
-7.2816032987
  0
LINE
  5
43F
100
AcDbEntity
  8
0
100
AcDbLine
 62
7
  6
CONTINUOUS
 10
-14.4462558851
 20
7.9111930996
 11
-14.5165726271
 21
7.8913552786
  0
LINE
  5
440
100
AcDbEntity
  8
0
100
AcDbLine
 62
7
  6
CONTINUOUS
 10
-14.3727074164
 20
7.9315355587
 11
-14.4462558851
 21
7.9111930996
  0
LINE
  5
441
100
AcDbEntity
  8
0
100
AcDbLine
 62
7
  6
CONTINUOUS
 10
-14.3043769858
 20
7.9500631666
 11
-14.3727074164
 21
7.9315355587
  0
LWPOLYLINE
  5
442
100
AcDbEntity
  8
0
100
AcDbPolyline
 62
250
  6
CONTINUOUS
 90
3
 70
0
 10
-12.0700675406
 20
8.4499870039
 10
-12.172794545
 20
8.4227324803
 10
-12.2616978476
 20
8.397656732
  0
LINE
  5
443
100
AcDbEntity
  8
0
100
AcDbLine
 62
7
  6
CONTINUOUS
 10
-14.2286478184
 20
7.9701822959
 11
-14.3043769858
 21
7.9500631666
  0
LINE
  5
444
100
AcDbEntity
  8
0
100
AcDbLine
 62
250
  6
CONTINUOUS
 10
-14.5969960551
 20
7.3210538936
 11
-14.9101429606
 21
7.2400478615
  0
LINE
  5
445
100
AcDbEntity
  8
0
100
AcDbLine
 62
7
  6
CONTINUOUS
 10
-14.1530174515
 20
7.9898520157
 11
-14.2286478184
 21
7.9701822959
  0
LWPOLYLINE
  5
446
100
AcDbEntity
  8
0
100
AcDbPolyline
 62
250
  6
CONTINUOUS
 90
3
 70
0
 10
-12.2614820931
 20
8.3976264259
 10
-12.2801975795
 20
8.3928206907
 10
-12.2990557659
 20
8.3881000081
  0
LINE
  5
447
100
AcDbEntity
  8
0
100
AcDbLine
 62
7
  6
CONTINUOUS
 10
-14.0818971905
 20
8.0079763009
 11
-14.1530174515
 21
7.9898520157
  0
LINE
  5
448
100
AcDbEntity
  8
0
100
AcDbLine
 62
7
  6
CONTINUOUS
 10
-13.9987476281
 20
8.028727253
 11
-14.0818971905
 21
8.0079763009
  0
LINE
  5
449
100
AcDbEntity
  8
0
100
AcDbLine
 62
7
  6
CONTINUOUS
 10
-13.9206116708
 20
8.0478143029
 11
-13.9987476281
 21
8.028727253
  0
LWPOLYLINE
  5
44A
100
AcDbEntity
  8
0
100
AcDbPolyline
 62
250
  6
CONTINUOUS
 90
4
 70
0
 10
-12.2990557659
 20
8.3881000081
 10
-12.3370915512
 20
8.3788664368
 10
-12.3562836108
 20
8.3743358766
 10
-12.3760634212
 20
8.3698351705
  0
LINE
  5
44B
100
AcDbEntity
  8
0
100
AcDbLine
 62
7
  6
CONTINUOUS
 10
-13.8314927783
 20
8.0691158432
 11
-13.9206116708
 21
8.0478143029
  0
LINE
  5
44C
100
AcDbEntity
  8
0
100
AcDbLine
 62
7
  6
CONTINUOUS
 10
-13.7452493543
 20
8.0892754415
 11
-13.8314927783
 21
8.0691158432
  0
LWPOLYLINE
  5
44D
100
AcDbEntity
  8
0
100
AcDbPolyline
 62
250
  6
CONTINUOUS
 90
4
 70
0
 10
-11.5483845384
 20
8.5761192174
 10
-11.695545429
 20
8.5420548684
 10
-11.8303763685
 20
8.5093268922
 10
-12.0700675406
 20
8.4499870039
  0
LINE
  5
44E
100
AcDbEntity
  8
0
100
AcDbLine
 62
7
  6
CONTINUOUS
 10
-13.6612894142
 20
8.1084926327
 11
-13.7452493543
 21
8.0892754415
  0
LINE
  5
44F
100
AcDbEntity
  8
0
100
AcDbLine
 62
7
  6
CONTINUOUS
 10
-13.5067404883
 20
8.1429888618
 11
-13.6612894142
 21
8.1084926327
  0
LINE
  5
450
100
AcDbEntity
  8
0
100
AcDbLine
 62
7
  6
CONTINUOUS
 10
-13.4064531885
 20
8.1648047286
 11
-13.523576798
 21
8.1391957876
  0
LINE
  5
451
100
AcDbEntity
  8
0
100
AcDbLine
 62
250
  6
CONTINUOUS
 10
-12.3760634212
 20
8.3698351705
 11
-12.4176437853
 21
8.3607747594
  0
LINE
  5
452
100
AcDbEntity
  8
0
100
AcDbLine
 62
7
  6
CONTINUOUS
 10
-13.1723533232
 20
8.2143728384
 11
-13.1949889338
 21
8.2095353609
  0
LINE
  5
453
100
AcDbEntity
  8
0
100
AcDbLine
 62
7
  6
CONTINUOUS
 10
-13.2633211845
 20
8.1952452784
 11
-13.4064531885
 21
8.1648047286
  0
LINE
  5
454
100
AcDbEntity
  8
0
100
AcDbLine
 62
250
  6
CONTINUOUS
 10
-12.4899187944
 20
8.3797705768
 11
-12.5179697828
 21
8.3738675928
  0
LINE
  5
455
100
AcDbEntity
  8
0
100
AcDbLine
 62
7
  6
CONTINUOUS
 10
-13.1200589196
 20
8.2250771494
 11
-13.2633211845
 21
8.1952452784
  0
LWPOLYLINE
  5
456
100
AcDbEntity
  8
0
100
AcDbPolyline
 62
250
  6
CONTINUOUS
 90
4
 70
0
 10
-11.0372537492
 20
8.6843962175
 10
-11.2179468694
 20
8.64708245
 10
-11.3885894207
 20
8.6110450693
 10
-11.5483845384
 20
8.5761192174
  0
LINE
  5
457
100
AcDbEntity
  8
0
100
AcDbLine
 62
7
  6
CONTINUOUS
 10
-12.5500219562
 20
8.337332452
 11
-12.5521843118
 21
8.3369416903
  0
LINE
  5
458
100
AcDbEntity
  8
0
100
AcDbLine
 62
7
  6
CONTINUOUS
 10
-12.5476583185
 20
8.3377316819
 11
-12.5500219562
 21
8.337332452
  0
LWPOLYLINE
  5
459
100
AcDbEntity
  8
0
100
AcDbPolyline
 62
7
  6
CONTINUOUS
 90
20
 70
0
 10
0.0000019935
 20
10.2339936913
 10
-0.499370266
 20
10.232057562
 10
-1.3542555126
 20
10.2198328916
 10
-2.2042483179
 20
10.1963532498
 10
-3.0452523298
 20
10.1616153947
 10
-3.8732376515
 20
10.1156966374
 10
-4.6843288077
 20
10.0587715059
 10
-5.4738663603
 20
9.9911951154
 10
-6.2386379445
 20
9.9132601244
 10
-6.9769927936
 20
9.8252832719
 10
-7.6996690775
 20
9.7257205819
 10
-8.386946895
 20
9.6170839523
 10
-8.998532194
 20
9.5074007908
 10
-9.5259529672
 20
9.4015651329
 10
-9.9886426602
 20
9.2988689703
 10
-10.3954032944
 20
9.1998656123
 10
-10.7496959352
 20
9.1059716874
 10
-11.0576980794
 20
9.0176731801
 10
-11.3298956591
 20
8.9336293176
 10
-11.5048314749
 20
8.8761757716
  0
LINE
  5
45A
100
AcDbEntity
  8
0
100
AcDbLine
 62
7
  6
CONTINUOUS
 10
12.5476583185
 20
8.3377316819
 11
12.5500219562
 21
8.337332452
  0
LINE
  5
45B
100
AcDbEntity
  8
0
100
AcDbLine
 62
7
  6
CONTINUOUS
 10
12.5500219562
 20
8.337332452
 11
12.5521843118
 21
8.3369416903
  0
LWPOLYLINE
  5
45C
100
AcDbEntity
  8
0
100
AcDbPolyline
 62
250
  6
CONTINUOUS
 90
4
 70
0
 10
11.0372537492
 20
8.6843962175
 10
11.2179468694
 20
8.64708245
 10
11.3885894207
 20
8.6110450693
 10
11.5483845384
 20
8.5761192174
  0
LINE
  5
45D
100
AcDbEntity
  8
0
100
AcDbLine
 62
250
  6
CONTINUOUS
 10
12.4899187944
 20
8.3797705768
 11
12.5179697828
 21
8.3738675928
  0
LINE
  5
45E
100
AcDbEntity
  8
0
100
AcDbLine
 62
7
  6
CONTINUOUS
 10
13.3230407508
 20
8.1826364775
 11
13.1833590829
 21
8.2119722589
  0
LINE
  5
45F
100
AcDbEntity
  8
0
100
AcDbLine
 62
7
  6
CONTINUOUS
 10
13.192760869
 20
8.2100102361
 11
13.1720269507
 21
8.2144427087
  0
LINE
  5
460
100
AcDbEntity
  8
0
100
AcDbLine
 62
7
  6
CONTINUOUS
 10
13.464924411
 20
8.1521378868
 11
13.3230407508
 21
8.1826364775
  0
LINE
  5
461
100
AcDbEntity
  8
0
100
AcDbLine
 62
7
  6
CONTINUOUS
 10
13.6888974187
 20
8.1022167668
 11
13.464924411
 21
8.1521378868
  0
LINE
  5
462
100
AcDbEntity
  8
0
100
AcDbLine
 62
250
  6
CONTINUOUS
 10
11.5483845384
 20
8.5761192174
 11
11.695545429
 21
8.5420548684
  0
LINE
  5
463
100
AcDbEntity
  8
0
100
AcDbLine
 62
7
  6
CONTINUOUS
 10
13.7738143854
 20
8.0826464805
 11
13.6888974187
 21
8.1022167668
  0
LWPOLYLINE
  5
464
100
AcDbEntity
  8
0
100
AcDbPolyline
 62
250
  6
CONTINUOUS
 90
4
 70
0
 10
12.3370915512
 20
8.3788664368
 10
12.3562836108
 20
8.3743358766
 10
12.3760634212
 20
8.3698351705
 10
12.4176437853
 20
8.3607747594
  0
LINE
  5
465
100
AcDbEntity
  8
0
100
AcDbLine
 62
7
  6
CONTINUOUS
 10
13.8607629843
 20
8.06217334
 11
13.7738143854
 21
8.0826464805
  0
LINE
  5
466
100
AcDbEntity
  8
0
100
AcDbLine
 62
7
  6
CONTINUOUS
 10
13.9358993265
 20
8.0441105518
 11
13.8607629843
 21
8.06217334
  0
LWPOLYLINE
  5
467
100
AcDbEntity
  8
0
100
AcDbPolyline
 62
250
  6
CONTINUOUS
 90
5
 70
0
 10
11.695545429
 20
8.5420548684
 10
11.9551602523
 20
8.4786415834
 10
12.0700675406
 20
8.4499870039
 10
12.172794545
 20
8.4227324803
 10
12.2616978476
 20
8.397656732
  0
LINE
  5
468
100
AcDbEntity
  8
0
100
AcDbLine
 62
7
  6
CONTINUOUS
 10
14.0149348558
 20
8.0247236179
 11
13.9358993265
 21
8.0441105518
  0
LINE
  5
469
100
AcDbEntity
  8
0
100
AcDbLine
 62
7
  6
CONTINUOUS
 10
14.0992614763
 20
8.0035837455
 11
14.0149348558
 21
8.0247236179
  0
LWPOLYLINE
  5
46A
100
AcDbEntity
  8
0
100
AcDbPolyline
 62
250
  6
CONTINUOUS
 90
4
 70
0
 10
12.2614820931
 20
8.3976264259
 10
12.2801975795
 20
8.3928206907
 10
12.2990557659
 20
8.3881000081
 10
12.3370915512
 20
8.3788664368
  0
LINE
  5
46B
100
AcDbEntity
  8
0
100
AcDbLine
 62
7
  6
CONTINUOUS
 10
14.1715914427
 20
7.9850597454
 11
14.0992614763
 21
8.0035837455
  0
LINE
  5
46C
100
AcDbEntity
  8
0
100
AcDbLine
 62
7
  6
CONTINUOUS
 10
14.2479591475
 20
7.9650926354
 11
14.1715914427
 21
7.9850597454
  0
LWPOLYLINE
  5
46D
100
AcDbEntity
  8
0
100
AcDbPolyline
 62
7
  6
CONTINUOUS
 90
16
 70
0
 10
14.2789238936
 20
7.9445109399
 10
13.9885245972
 20
8.0218087841
 10
13.6572628112
 20
8.1040149159
 10
13.3331132674
 20
8.1784992593
 10
13.016407348
 20
8.2458573761
 10
12.7072866487
 20
8.306679691
 10
12.4043484638
 20
8.3617729506
 10
12.1077266296
 20
8.4117431193
 10
11.818197294
 20
8.457400021
 10
11.5348766786
 20
8.4995260449
 10
11.2573861438
 20
8.538530263
 10
10.9858825509
 20
8.5747087076
 10
10.7199299353
 20
8.6084124411
 10
10.4595148372
 20
8.6399102558
 10
10.2044889031
 20
8.669465271
 10
9.9402828162
 20
8.6988955058
  0
LINE
  5
46E
100
AcDbEntity
  8
0
100
AcDbLine
 62
7
  6
CONTINUOUS
 10
14.3223734802
 20
7.9452182195
 11
14.2479591475
 21
7.9650926354
  0
LINE
  5
46F
100
AcDbEntity
  8
0
100
AcDbLine
 62
7
  6
CONTINUOUS
 10
14.387378125
 20
7.9275107438
 11
14.3223734802
 21
7.9452182195
  0
LINE
  5
470
100
AcDbEntity
  8
0
100
AcDbLine
 62
7
  6
CONTINUOUS
 10
14.4626206984
 20
7.9066106532
 11
14.387378125
 21
7.9275107438
  0
LINE
  5
471
100
AcDbEntity
  8
0
100
AcDbLine
 62
250
  6
CONTINUOUS
 10
14.5969960551
 20
7.3319354723
 11
14.6681921682
 21
7.3118599401
  0
LINE
  5
472
100
AcDbEntity
  8
0
100
AcDbLine
 62
7
  6
CONTINUOUS
 10
14.5350478437
 20
7.8860782355
 11
14.4626206984
 21
7.9066106532
  0
LWPOLYLINE
  5
473
100
AcDbEntity
  8
0
100
AcDbPolyline
 62
250
  6
CONTINUOUS
 90
12
 70
0
 10
10.5476115909
 20
8.852586435
 10
9.9496302964
 20
9.0237504579
 10
9.2519514365
 20
9.1920434392
 10
8.464465013
 20
9.3529613183
 10
7.5956294012
 20
9.5025053391
 10
6.6519792145
 20
9.6367531936
 10
5.6441250999
 20
9.7529329447
 10
4.5835640329
 20
9.8497682689
 10
3.4778632922
 20
9.9260113133
 10
2.3368102985
 20
9.9807731723
 10
1.1732277725
 20
10.0133909443
 10
-0.0000000013
 20
10.0237539403
  0
LINE
  5
474
100
AcDbEntity
  8
0
100
AcDbLine
 62
250
  6
CONTINUOUS
 10
14.6681921682
 20
7.3118599401
 11
14.738042577
 21
7.2917060114
  0
LINE
  5
475
100
AcDbEntity
  8
0
100
AcDbLine
 62
7
  6
CONTINUOUS
 10
14.6106876644
 20
7.8641841948
 11
14.5350478437
 21
7.8860782355
  0
LINE
  5
476
100
AcDbEntity
  8
0
100
AcDbLine
 62
7
  6
CONTINUOUS
 10
14.668634574
 20
7.8470902481
 11
14.6106876644
 21
7.8641841948
  0
LINE
  5
477
100
AcDbEntity
  8
0
100
AcDbLine
 62
7
  6
CONTINUOUS
 10
15.0595822506
 20
7.7128009189
 11
14.2790860107
 21
7.9444664574
  0
LINE
  5
478
100
AcDbEntity
  8
0
100
AcDbLine
 62
250
  6
CONTINUOUS
 10
14.738042577
 20
7.2917060114
 11
14.8068526153
 21
7.2713860781
  0
LINE
  5
479
100
AcDbEntity
  8
0
100
AcDbLine
 62
7
  6
CONTINUOUS
 10
13.958648869
 20
8.0385695674
 11
13.895946083
 21
8.0572542166
  0
LINE
  5
47A
100
AcDbEntity
  8
0
100
AcDbLine
 62
7
  6
CONTINUOUS
 10
14.727303313
 20
7.8294933371
 11
14.668634574
 21
7.8470902481
  0
LWPOLYLINE
  5
47B
100
AcDbEntity
  8
0
100
AcDbPolyline
 62
250
  6
CONTINUOUS
 90
3
 70
0
 10
14.8068526153
 20
7.2713860781
 10
14.8758436184
 20
7.2505497082
 10
14.9103306484
 20
7.2399597615
  0
LINE
  5
47C
100
AcDbEntity
  8
0
100
AcDbLine
 62
7
  6
CONTINUOUS
 10
13.895946083
 20
8.0572542166
 11
13.8126238579
 21
8.0825087468
  0
LINE
  5
47D
100
AcDbEntity
  8
0
100
AcDbLine
 62
7
  6
CONTINUOUS
 10
14.786488465
 20
7.8114414613
 11
14.727303313
 21
7.8294933371
  0
LINE
  5
47E
100
AcDbEntity
  8
0
100
AcDbLine
 62
7
  6
CONTINUOUS
 10
13.8126238579
 20
8.0825087468
 11
13.7134658859
 21
8.1131507296
  0
LINE
  5
47F
100
AcDbEntity
  8
0
100
AcDbLine
 62
7
  6
CONTINUOUS
 10
14.8456032825
 20
7.7931074083
 11
14.786488465
 21
7.8114414613
  0
LINE
  5
480
100
AcDbEntity
  8
0
100
AcDbLine
 62
7
  6
CONTINUOUS
 10
14.9040502964
 20
7.7746817477
 11
14.8456032825
 21
7.7931074083
  0
LINE
  5
481
100
AcDbEntity
  8
0
100
AcDbLine
 62
7
  6
CONTINUOUS
 10
13.7134658859
 20
8.1131507296
 11
13.605932637
 21
8.1471170175
  0
LINE
  5
482
100
AcDbEntity
  8
0
100
AcDbLine
 62
7
  6
CONTINUOUS
 10
14.9614405932
 20
7.7563014701
 11
14.9040502964
 21
7.7746817477
  0
LINE
  5
483
100
AcDbEntity
  8
0
100
AcDbLine
 62
7
  6
CONTINUOUS
 10
13.605932637
 20
8.1471170175
 11
13.4864359942
 21
8.1857268216
  0
LWPOLYLINE
  5
484
100
AcDbEntity
  8
0
100
AcDbPolyline
 62
7
  6
CONTINUOUS
 90
20
 70
0
 10
11.5048314731
 20
8.8761757722
 10
11.3298954055
 20
8.9336293988
 10
11.0576977657
 20
9.0176732735
 10
10.7496955517
 20
9.1059717933
 10
10.3954028269
 20
9.1998657313
 10
9.9886420874
 20
9.2988691037
 10
9.5259522719
 20
9.40156528
 10
8.9985313727
 20
9.5074009471
 10
8.3869459519
 20
9.6170841115
 10
7.6996680146
 20
9.725720739
 10
6.9769916137
 20
9.8252834231
 10
6.2386366547
 20
9.9132602668
 10
5.473864968
 20
9.9911952458
 10
4.6843273091
 20
10.0587716224
 10
3.8732360392
 20
10.1156967385
 10
3.0452506019
 20
10.1616154782
 10
2.204246481
 20
10.196353313
 10
1.3542535767
 20
10.2198329321
 10
0.4993682398
 20
10.2320575777
 10
-0.0000037622
 20
10.2339936914
  0
LWPOLYLINE
  5
485
100
AcDbEntity
  8
0
100
AcDbPolyline
 62
7
  6
CONTINUOUS
 90
3
 70
0
 10
15.039830821
 20
7.7307365258
 10
15.0357027734
 20
7.7320959766
 10
14.9614405932
 20
7.7563014701
  0
LINE
  5
486
100
AcDbEntity
  8
0
100
AcDbLine
 62
7
  6
CONTINUOUS
 10
13.4864359942
 20
8.1857268216
 11
13.3518168578
 21
8.2302266338
  0
LINE
  5
487
100
AcDbEntity
  8
0
100
AcDbLine
 62
7
  6
CONTINUOUS
 10
13.3518168578
 20
8.2302266338
 11
13.1952545087
 21
8.2831504555
  0
LINE
  5
488
100
AcDbEntity
  8
0
100
AcDbLine
 62
250
  6
CONTINUOUS
 10
11.0372872228
 20
8.6844231375
 11
10.5476115909
 21
8.852586435
  0
LINE
  5
489
100
AcDbEntity
  8
0
100
AcDbLine
 62
7
  6
CONTINUOUS
 10
13.1952545087
 20
8.2831504555
 11
13.0070144191
 21
8.3481365805
  0
LWPOLYLINE
  5
48A
100
AcDbEntity
  8
0
100
AcDbPolyline
 62
7
  6
CONTINUOUS
 90
4
 70
0
 10
11.9639117565
 20
8.7179870364
 10
11.764096122
 20
8.787662831
 10
11.5505517546
 20
8.860768594
 10
11.5048314731
 20
8.8761757722
  0
LINE
  5
48B
100
AcDbEntity
  8
0
100
AcDbLine
 62
7
  6
CONTINUOUS
 10
13.0070144191
 20
8.3481365805
 11
12.778124423
 21
8.42859357
  0
LINE
  5
48C
100
AcDbEntity
  8
0
100
AcDbLine
 62
250
  6
CONTINUOUS
 10
15.0420394965
 20
7.7298966005
 11
15.0396759304
 21
7.7307365329
  0
LINE
  5
48D
100
AcDbEntity
  8
0
100
AcDbLine
 62
7
  6
CONTINUOUS
 10
12.3270788057
 20
8.589245882
 11
11.9639117565
 21
8.7179870364
  0
LINE
  5
48E
100
AcDbEntity
  8
0
100
AcDbLine
 62
7
  6
CONTINUOUS
 10
12.778124423
 20
8.42859357
 11
12.3270788057
 21
8.589245882
  0
LWPOLYLINE
  5
48F
100
AcDbEntity
  8
0
100
AcDbPolyline
 62
250
  6
CONTINUOUS
 90
4
 70
0
 10
12.3098179698
 20
8.5461167908
 10
12.0478696485
 20
8.6720158465
 10
11.66394491
 20
8.8211238706
 10
11.5072344579
 20
8.875365896
  0
LWPOLYLINE
  5
490
100
AcDbEntity
  8
0
100
AcDbPolyline
 62
7
  6
CONTINUOUS
 90
6
 70
0
 10
15.3345000049
 20
7.5938585613
 10
15.269141793
 20
7.6316960855
 10
15.2067668207
 20
7.6635336858
 10
15.1460718529
 20
7.6908348804
 10
15.0798179115
 20
7.7168225837
 10
15.0629971517
 20
7.7226529686
  0
LWPOLYLINE
  5
491
100
AcDbEntity
  8
0
100
AcDbPolyline
 62
250
  6
CONTINUOUS
 90
5
 70
0
 10
15.0522990731
 20
7.7250565139
 10
15.050235518
 20
7.7262627803
 10
15.0478161609
 20
7.7274842768
 10
15.0450435393
 20
7.7287123283
 10
15.0420394965
 20
7.7298966005
  0
LINE
  5
492
100
AcDbEntity
  8
0
100
AcDbLine
 62
250
  6
CONTINUOUS
 10
12.4625564704
 20
8.4453709147
 11
12.3098179698
 21
8.5461167908
  0
LWPOLYLINE
  5
493
100
AcDbEntity
  8
RACCORDO
100
AcDbPolyline
 62
7
  6
CONTINUOUS
 90
9
 70
0
 10
11.418349415
 20
-1.1742143677
 10
11.4181080535
 20
-1.1735355518
 10
11.4101514102
 20
-1.1574467194
 10
11.4001034259
 20
-1.142470504
 10
11.3882686646
 20
-1.1287578639
 10
11.3754639853
 20
-1.117065289
 10
11.3619616743
 20
-1.1076449423
 10
11.3474894452
 20
-1.1002446607
 10
11.332047298
 20
-1.0948644441
  0
LINE
  5
494
100
AcDbEntity
  8
0
100
AcDbLine
 62
250
  6
CONTINUOUS
 10
15.0571385539
 20
-7.7057642735
 11
15.0595796131
 21
-7.7128017597
  0
LINE
  5
495
100
AcDbEntity
  8
0
100
AcDbLine
 62
250
  6
CONTINUOUS
 10
15.0047361144
 20
-7.5446974187
 11
15.0571385539
 21
-7.7057642735
  0
LINE
  5
496
100
AcDbEntity
  8
0
100
AcDbLine
 62
250
  6
CONTINUOUS
 10
14.9596391602
 20
-7.4023694675
 11
15.0047361144
 21
-7.5446974187
  0
LINE
  5
497
100
AcDbEntity
  8
0
100
AcDbLine
 62
250
  6
CONTINUOUS
 10
14.9090359761
 20
-7.2404043977
 11
14.9596391602
 21
-7.4023694675
  0
LWPOLYLINE
  5
498
100
AcDbEntity
  8
0
100
AcDbPolyline
 62
250
  6
CONTINUOUS
 90
10
 70
0
 10
15.0595670394
 20
-7.7128064309
 10
15.0598443967
 20
-7.714161612
 10
15.059828915
 20
-7.7155173245
 10
15.0595380903
 20
-7.7168733094
 10
15.0589892137
 20
-7.7182293232
 10
15.058199387
 20
-7.7195851007
 10
15.0571811016
 20
-7.7209407286
 10
15.0558997666
 20
-7.7223002576
 10
15.0542930551
 20
-7.7236700768
 10
15.0522990731
 20
-7.7250565139
  0
LINE
  5
499
100
AcDbEntity
  8
0
100
AcDbLine
 62
250
  6
CONTINUOUS
 10
12.518967297
 20
8.368585476
 11
12.5179697821
 21
8.3738675967
  0
LINE
  5
49A
100
AcDbEntity
  8
0
100
AcDbLine
 62
7
  6
CONTINUOUS
 10
14.3683850692
 20
6.065863116
 11
14.2467118805
 21
7.6276028954
  0
LWPOLYLINE
  5
49B
100
AcDbEntity
  8
0
100
AcDbPolyline
 62
250
  6
CONTINUOUS
 90
10
 70
0
 10
15.8970780994
 20
0.0
 10
15.8916694476
 20
0.7340541577
 10
15.8753921944
 20
1.4676895076
 10
15.8482463397
 20
2.2009060497
 10
15.8102164818
 20
2.9339308277
 10
15.7613180224
 20
3.6665367979
 10
15.7015971667
 20
4.3980428286
 10
15.6310693164
 20
5.1282218758
 10
15.5497190698
 20
5.8573009834
 10
15.4575464269
 20
6.5852801515
  0
LINE
  5
49C
100
AcDbEntity
  8
0
100
AcDbLine
 62
250
  6
CONTINUOUS
 10
15.8970780994
 20
0.0
 11
15.8916694476
 21
-0.7340541577
  0
LWPOLYLINE
  5
49D
100
AcDbEntity
  8
0
100
AcDbPolyline
 62
250
  6
CONTINUOUS
 90
9
 70
0
 10
15.8916694476
 20
-0.7340541577
 10
15.8753921944
 20
-1.4676895076
 10
15.8482463397
 20
-2.2009060497
 10
15.8102164818
 20
-2.9339308277
 10
15.7613180224
 20
-3.6665367979
 10
15.7015971667
 20
-4.3980428286
 10
15.6310693164
 20
-5.1282218758
 10
15.5497190698
 20
-5.8573009834
 10
15.4575464269
 20
-6.5852801515
  0
LINE
  5
49E
100
AcDbEntity
  8
0
100
AcDbLine
 62
7
  6
CONTINUOUS
 10
14.2467118805
 20
-7.6276028954
 11
14.3579346327
 21
-6.2
  0
LINE
  5
49F
100
AcDbEntity
  8
0
100
AcDbLine
 62
7
  6
CONTINUOUS
 10
14.3585300362
 20
-6.1923576816
 11
14.3683850692
 21
-6.065863116
  0
LWPOLYLINE
  5
4A0
100
AcDbEntity
  8
0
100
AcDbPolyline
 62
250
  6
CONTINUOUS
 90
4
 70
0
 10
15.4575464269
 20
-6.5852801515
 10
15.4384196406
 20
-6.6833556696
 10
15.4076834775
 20
-6.776514456
 10
15.3653379376
 20
-6.8647565106
  0
LWPOLYLINE
  5
4A1
100
AcDbEntity
  8
0
100
AcDbPolyline
 62
7
  6
CONTINUOUS
 90
3
 70
0
 10
15.8209410391
 20
-7.0695620059
 10
15.8986574423
 20
-6.8834100358
 10
15.9067627737
 20
-6.8509760413
  0
LINE
  5
4A2
100
AcDbEntity
  8
0
100
AcDbLine
 62
7
  6
CONTINUOUS
 10
15.7110720713
 20
-7.2479803463
 11
15.8209410391
 21
-7.0695620059
  0
LINE
  5
4A3
100
AcDbEntity
  8
0
100
AcDbLine
 62
250
  6
CONTINUOUS
 10
15.3653379376
 20
-6.8647565106
 11
15.3097955076
 21
-6.9499706375
  0
LWPOLYLINE
  5
4A4
100
AcDbEntity
  8
0
100
AcDbPolyline
 62
250
  6
CONTINUOUS
 90
4
 70
0
 10
12.5179697821
 20
-8.3738675967
 10
12.4625564704
 20
-8.4453709147
 10
12.3098179698
 20
-8.5461167908
 10
12.0478696485
 20
-8.6720158465
  0
LWPOLYLINE
  5
4A5
100
AcDbEntity
  8
0
100
AcDbPolyline
 62
250
  6
CONTINUOUS
 90
10
 70
0
 10
12.5312009781
 20
-8.3380246476
 10
12.5291466306
 20
-8.3406732784
 10
12.5272498541
 20
-8.3437407505
 10
12.5255123392
 20
-8.3471627239
 10
12.5239513934
 20
-8.3508362131
 10
12.522551584
 20
-8.3547425843
 10
12.5212625231
 20
-8.3589891967
 10
12.520063585
 20
-8.3636226868
 10
12.518967297
 20
-8.368585476
 10
12.5179697821
 20
-8.3738675967
  0
LINE
  5
4A6
100
AcDbEntity
  8
0
100
AcDbLine
 62
250
  6
CONTINUOUS
 10
15.3097955076
 20
-6.9499706375
 11
15.2426437008
 21
-7.0302680327
  0
LWPOLYLINE
  5
4A7
100
AcDbEntity
  8
0
100
AcDbPolyline
 62
250
  6
CONTINUOUS
 90
5
 70
0
 10
15.2426437008
 20
-7.0302680327
 10
15.1686450574
 20
-7.099982284
 10
15.089387091
 20
-7.1572245871
 10
15.003282288
 20
-7.2038837463
 10
14.9103306484
 20
-7.2399597615
  0
LWPOLYLINE
  5
4A8
100
AcDbEntity
  8
0
100
AcDbPolyline
 62
250
  6
CONTINUOUS
 90
9
 70
0
 10
12.5305882744
 20
8.3388145947
 10
12.5291466306
 20
8.3406732784
 10
12.5272498541
 20
8.3437407505
 10
12.5255123392
 20
8.3471627239
 10
12.5239513934
 20
8.3508362131
 10
12.522551584
 20
8.3547425843
 10
12.5212625231
 20
8.3589891967
 10
12.520063585
 20
8.3636226868
 10
12.518967297
 20
8.368585476
  0
LINE
  5
4A9
100
AcDbEntity
  8
0
100
AcDbLine
 62
250
  6
CONTINUOUS
 10
12.5179697821
 20
8.3738675967
 11
12.4625564704
 21
8.4453709147
  0
LWPOLYLINE
  5
4AA
100
AcDbEntity
  8
0
100
AcDbPolyline
 62
7
  6
CONTINUOUS
 90
8
 70
0
 10
15.815177055
 20
7.0807214686
 10
15.7507513286
 20
7.1906579692
 10
15.681083491
 20
7.2873178015
 10
15.6108857815
 20
7.3686546047
 10
15.5401409045
 20
7.4385881585
 10
15.4695656971
 20
7.498945183
 10
15.4007943176
 20
7.5503147907
 10
15.3345000049
 20
7.5938585613
  0
LWPOLYLINE
  5
4AB
100
AcDbEntity
  8
0
100
AcDbPolyline
 62
7
  6
CONTINUOUS
 90
3
 70
0
 10
15.8696634885
 20
6.9620860334
 10
15.8682370141
 20
6.9661314078
 10
15.815177055
 20
7.0807214686
  0
LWPOLYLINE
  5
4AC
100
AcDbEntity
  8
0
100
AcDbPolyline
 62
250
  6
CONTINUOUS
 90
10
 70
0
 10
15.4575464269
 20
6.5852801515
 10
15.4384196406
 20
6.6833556696
 10
15.4076834775
 20
6.776514456
 10
15.3653379376
 20
6.8647565106
 10
15.3097955076
 20
6.9499706375
 10
15.2426437008
 20
7.0302680327
 10
15.1686450574
 20
7.099982284
 10
15.089387091
 20
7.1572245871
 10
15.003282288
 20
7.2038837463
 10
14.9103306484
 20
7.2399597615
  0
ARC
  5
4AD
100
AcDbEntity
  8
0
100
AcDbCircle
 62
7
  6
CONTINUOUS
 10
-33.6030065023
 20
-0.0000001455
 40
50.0000025574
100
AcDbArc
 50
0.0000001667
 51
7.639560653
  0
ARC
  5
4AE
100
AcDbEntity
  8
0
100
AcDbCircle
 62
7
  6
CONTINUOUS
 10
-33.5559975861
 20
-2.0633704121
 40
48.4
100
AcDbArc
 50
354.9782633365
 51
2.4433524
  0
ARC
  5
4AF
100
AcDbEntity
  8
0
100
AcDbCircle
 62
7
  6
CONTINUOUS
 10
-0.00300395
 20
-90.8000000007
 40
100.0699937809
100
AcDbArc
 50
88.2955730715
 51
91.6996954389
  0
ARC
  5
4B0
100
AcDbEntity
  8
0
100
AcDbCircle
 62
7
  6
CONTINUOUS
 10
-0.00300395
 20
-90.8000000006
 40
100.0349937809
100
AcDbArc
 50
93.0493998364
 51
94.8874076607
  0
ARC
  5
4B1
100
AcDbEntity
  8
0
100
AcDbCircle
 62
7
  6
CONTINUOUS
 10
-0.00300395
 20
-90.8000000006
 40
100.0349937809
100
AcDbArc
 50
90.8130541053
 51
92.7435285752
  0
ARC
  5
4B2
100
AcDbEntity
  8
0
100
AcDbCircle
 62
7
  6
CONTINUOUS
 10
-0.00300395
 20
-90.8000000005
 40
100.0349937809
100
AcDbArc
 50
88.2661741403
 51
90.5075533154
  0
ARC
  5
4B3
100
AcDbEntity
  8
0
100
AcDbCircle
 62
7
  6
CONTINUOUS
 10
-0.00300395
 20
-90.8000000005
 40
100.0349937809
100
AcDbArc
 50
87.3490640759
 51
87.8076979537
  0
ARC
  5
4B4
100
AcDbEntity
  8
0
100
AcDbCircle
 62
7
  6
CONTINUOUS
 10
-0.00300395
 20
-90.8000000006
 40
100.0349937809
100
AcDbArc
 50
85.1091387042
 51
87.0432174263
  0
ARC
  5
4B5
100
AcDbEntity
  8
0
100
AcDbCircle
 62
7
  6
CONTINUOUS
 10
-0.00300395
 20
-90.8000000001
 40
100.0000176256
100
AcDbArc
 50
92.7435975284
 51
93.0504802232
  0
ARC
  5
4B6
100
AcDbEntity
  8
0
100
AcDbCircle
 62
7
  6
CONTINUOUS
 10
-0.00300395
 20
-90.8000000001
 40
100.0000176256
100
AcDbArc
 50
87.8078393459
 51
88.2730870688
  0
ARC
  5
4B7
100
AcDbEntity
  8
0
100
AcDbCircle
 62
7
  6
CONTINUOUS
 10
-0.00300395
 20
-90.8000000001
 40
100.0000176256
100
AcDbArc
 50
87.0430687439
 51
87.3490306861
  0
ARC
  5
4B8
100
AcDbEntity
  8
0
100
AcDbCircle
 62
7
  6
CONTINUOUS
 10
-0.00300395
 20
-90.8000000001
 40
100.0000176256
100
AcDbArc
 50
94.8876331713
 51
95.1290904793
  0
ARC
  5
4B9
100
AcDbEntity
  8
0
100
AcDbCircle
 62
7
  6
CONTINUOUS
 10
-0.00300395
 20
-90.8000000005
 40
99.9999937809
100
AcDbArc
 50
84.8709095197
 51
85.1074119397
  0
ARC
  5
4BA
100
AcDbEntity
  8
0
100
AcDbCircle
 62
7
  6
CONTINUOUS
 10
-14.6647341362
 20
-6.4742150459
 40
1.3000000008
100
AcDbArc
 50
187.6395612915
 51
252.3182669812
  0
ARC
  5
4BB
100
AcDbEntity
  8
0
100
AcDbCircle
 62
7
  6
CONTINUOUS
 10
-13.5969960551
 20
-5.4892081584
 40
1.0
100
AcDbArc
 50
180.0
 51
219.7345553655
  0
ARC
  5
4BC
100
AcDbEntity
  8
0
100
AcDbCircle
 62
7
  6
CONTINUOUS
 10
-14.2969960551
 20
-7.3187190075
 40
0.3
100
AcDbArc
 50
180.0
 51
266.0
  0
ARC
  5
4BD
100
AcDbEntity
  8
0
100
AcDbCircle
 62
7
  6
CONTINUOUS
 10
-33.6030065023
 20
0.0000001455
 40
50.0000025574
100
AcDbArc
 50
352.360439347
 51
359.9999998333
  0
ARC
  5
4BE
100
AcDbEntity
  8
0
100
AcDbCircle
 62
7
  6
CONTINUOUS
 10
-33.3300057288
 20
0.0
 40
48.4
100
AcDbArc
 50
351.9832374257
 51
352.5208561489
  0
ARC
  5
4BF
100
AcDbEntity
  8
0
100
AcDbCircle
 62
7
  6
CONTINUOUS
 10
-33.5559975861
 20
2.0633704121
 40
48.4
100
AcDbArc
 50
357.5566476
 51
5.0217366635
  0
ARC
  5
4C0
100
AcDbEntity
  8
0
100
AcDbCircle
 62
7
  6
CONTINUOUS
 10
-33.3300057288
 20
0.0
 40
48.4
100
AcDbArc
 50
7.4791438511
 51
8.0167625743
  0
ARC
  5
4C1
100
AcDbEntity
  8
0
100
AcDbCircle
 62
7
  6
CONTINUOUS
 10
-33.65
 20
0.0
 40
48.4
100
AcDbArc
 50
352.800316663
 51
7.199683337
  0
ARC
  5
4C2
100
AcDbEntity
  8
0
100
AcDbCircle
 62
7
  6
CONTINUOUS
 10
-9.5
 20
0.0
 40
3.35
100
AcDbArc
 50
90.0
 51
270.0
  0
ARC
  5
4C3
100
AcDbEntity
  8
DRAFT
100
AcDbCircle
 62
7
  6
CONTINUOUS
 10
-9.5
 20
0.0
 40
3.2290539221
100
AcDbArc
 50
90.0
 51
270.0
  0
ARC
  5
4C4
100
AcDbEntity
  8
RACCORDO
100
AcDbCircle
 62
250
  6
CONTINUOUS
 10
-9.5
 20
0.0
 40
3.2063014109
100
AcDbArc
 50
90.0
 51
270.0
  0
ARC
  5
4C5
100
AcDbEntity
  8
RACCORDO
100
AcDbCircle
 62
250
  6
CONTINUOUS
 10
-9.5
 20
0.0
 40
3.0063313038
100
AcDbArc
 50
90.0
 51
270.0
  0
ARC
  5
4C6
100
AcDbEntity
  8
0
100
AcDbCircle
 62
250
  6
CONTINUOUS
 10
-1.1
 20
0.2
 40
2.811058538
100
AcDbArc
 50
310.8871943873
 51
39.0877297931
  0
CIRCLE
  5
4C7
100
AcDbEntity
  8
RACCORDO
100
AcDbCircle
 62
250
  6
CONTINUOUS
 10
-9.5
 20
0.0
 40
2.7499986238
  0
ARC
  5
4C8
100
AcDbEntity
  8
0
100
AcDbCircle
 62
7
  6
CONTINUOUS
 10
-1.1
 20
0.2
 40
2.5993734575
100
AcDbArc
 50
310.8874738262
 51
49.261660362
  0
CIRCLE
  5
4C9
100
AcDbEntity
  8
RACCORDO
100
AcDbCircle
 62
7
  6
CONTINUOUS
 10
-9.5
 20
0.0
 40
2.25
  0
ARC
  5
4CA
100
AcDbEntity
  8
RACCORDO
100
AcDbCircle
 62
7
  6
CONTINUOUS
 10
-9.5
 20
0.0
 40
1.75
100
AcDbArc
 50
258.4167286412
 51
281.5832713588
  0
ARC
  5
4CB
100
AcDbEntity
  8
0
100
AcDbCircle
 62
7
  6
CONTINUOUS
 10
-14.6647341362
 20
6.4742150459
 40
1.3000000008
100
AcDbArc
 50
107.6817330188
 51
172.3604387086
  0
ARC
  5
4CC
100
AcDbEntity
  8
0
100
AcDbCircle
 62
7
  6
CONTINUOUS
 10
-13.5969960551
 20
5.4892081584
 40
1.0
100
AcDbArc
 50
140.2654446345
 51
180.0
  0
ARC
  5
4CD
100
AcDbEntity
  8
0
100
AcDbCircle
 62
7
  6
CONTINUOUS
 10
-14.2969960551
 20
7.3187190075
 40
0.3
100
AcDbArc
 50
94.0
 51
180.0
  0
ARC
  5
4CE
100
AcDbEntity
  8
0
100
AcDbCircle
 62
7
  6
CONTINUOUS
 10
-0.00300395
 20
90.8000000006
 40
100.0999937809
100
AcDbArc
 50
274.8327703629
 51
274.8876776828
  0
ARC
  5
4CF
100
AcDbEntity
  8
0
100
AcDbCircle
 62
7
  6
CONTINUOUS
 10
-0.00300395
 20
90.8000000006
 40
100.0999937809
100
AcDbArc
 50
273.0508615464
 51
274.8296121485
  0
ARC
  5
4D0
100
AcDbEntity
  8
0
100
AcDbCircle
 62
7
  6
CONTINUOUS
 10
-0.00300395
 20
90.8000000006
 40
100.0999937809
100
AcDbArc
 50
270.8159652944
 51
272.745188482
  0
ARC
  5
4D1
100
AcDbEntity
  8
0
100
AcDbCircle
 62
7
  6
CONTINUOUS
 10
-0.00300395
 20
90.8000000005
 40
100.0999937809
100
AcDbArc
 50
268.2707407492
 51
270.5106626968
  0
ARC
  5
4D2
100
AcDbEntity
  8
0
100
AcDbCircle
 62
7
  6
CONTINUOUS
 10
-0.00300395
 20
90.8000000005
 40
100.0999937809
100
AcDbArc
 50
267.3542292001
 51
267.8125635671
  0
ARC
  5
4D3
100
AcDbEntity
  8
0
100
AcDbCircle
 62
7
  6
CONTINUOUS
 10
-0.00300395
 20
90.8000000006
 40
100.0999937809
100
AcDbArc
 50
265.1157736932
 51
267.0485825269
  0
ARC
  5
4D4
100
AcDbEntity
  8
0
100
AcDbCircle
 62
7
  6
CONTINUOUS
 10
-0.00300395
 20
90.7999999999
 40
100.0661117499
100
AcDbArc
 50
272.7409904826
 51
273.0518960546
  0
ARC
  5
4D5
100
AcDbEntity
  8
0
100
AcDbCircle
 62
7
  6
CONTINUOUS
 10
-0.00300395
 20
90.8000000007
 40
100.0349937809
100
AcDbArc
 50
270.5567931228
 51
270.7550314894
  0
ARC
  5
4D6
100
AcDbEntity
  8
0
100
AcDbCircle
 62
7
  6
CONTINUOUS
 10
-0.00300395
 20
90.8000000007
 40
100.0349937809
100
AcDbArc
 50
267.9682229875
 51
268.3315691921
  0
ARC
  5
4D7
100
AcDbEntity
  8
0
100
AcDbCircle
 62
7
  6
CONTINUOUS
 10
-0.00300395
 20
90.8000000005
 40
100.0349937809
100
AcDbArc
 50
264.8771018624
 51
265.0028801726
  0
ARC
  5
4D8
100
AcDbEntity
  8
0
100
AcDbCircle
 62
7
  6
CONTINUOUS
 10
-0.00300395
 20
90.8000000005
 40
100.0349937809
100
AcDbArc
 50
274.997120895
 51
275.1290904803
  0
ARC
  5
4D9
100
AcDbEntity
  8
0
100
AcDbCircle
 62
7
  6
CONTINUOUS
 10
-0.00300395
 20
90.8000000001
 40
100.0000176256
100
AcDbArc
 50
264.8709140982
 51
265.1123668559
  0
ARC
  5
4DA
100
AcDbEntity
  8
0
100
AcDbCircle
 62
7
  6
CONTINUOUS
 10
-0.00300395
 20
90.8000000001
 40
100.0000176256
100
AcDbArc
 50
267.0481844541
 51
267.3541394041
  0
ARC
  5
4DB
100
AcDbEntity
  8
0
100
AcDbCircle
 62
7
  6
CONTINUOUS
 10
-0.00300395
 20
90.8000000001
 40
100.0000176256
100
AcDbArc
 50
267.8129462652
 51
267.968421468
  0
ARC
  5
4DC
100
AcDbEntity
  8
0
100
AcDbCircle
 62
7
  6
CONTINUOUS
 10
-0.00300395
 20
90.8000000001
 40
100.0000176256
100
AcDbArc
 50
272.7453755367
 51
273.0530288046
  0
ARC
  5
4DD
100
AcDbEntity
  8
0
100
AcDbCircle
 62
7
  6
CONTINUOUS
 10
-0.00300395
 20
90.8000000001
 40
100.0000176256
100
AcDbArc
 50
274.8883020377
 51
274.9973813798
  0
ARC
  5
4DE
100
AcDbEntity
  8
0
100
AcDbCircle
 62
7
  6
CONTINUOUS
 10
33.6030065023
 20
-0.0000001455
 40
50.0000025574
100
AcDbArc
 50
172.360439347
 51
179.9999998333
  0
ARC
  5
4DF
100
AcDbEntity
  8
0
100
AcDbCircle
 62
7
  6
CONTINUOUS
 10
33.5559975861
 20
-2.0633704121
 40
48.4
100
AcDbArc
 50
177.5566476
 51
185.0217366635
  0
ARC
  5
4E0
100
AcDbEntity
  8
0
100
AcDbCircle
 62
7
  6
CONTINUOUS
 10
14.6647341362
 20
-6.4742150459
 40
1.3000000008
100
AcDbArc
 50
287.6817330188
 51
352.3604387086
  0
ARC
  5
4E1
100
AcDbEntity
  8
0
100
AcDbCircle
 62
7
  6
CONTINUOUS
 10
13.5969960551
 20
-5.4892081584
 40
1.0
100
AcDbArc
 50
320.2654446345
 51
360.0
  0
ARC
  5
4E2
100
AcDbEntity
  8
0
100
AcDbCircle
 62
7
  6
CONTINUOUS
 10
14.2969960551
 20
-7.3187190075
 40
0.3
100
AcDbArc
 50
274.0
 51
360.0
  0
ARC
  5
4E3
100
AcDbEntity
  8
0
100
AcDbCircle
 62
7
  6
CONTINUOUS
 10
33.6030065023
 20
0.0000001455
 40
50.0000025574
100
AcDbArc
 50
180.0000001667
 51
187.639560653
  0
ARC
  5
4E4
100
AcDbEntity
  8
0
100
AcDbCircle
 62
7
  6
CONTINUOUS
 10
33.3300057288
 20
-0.0
 40
48.4
100
AcDbArc
 50
187.4791438511
 51
188.0167625743
  0
ARC
  5
4E5
100
AcDbEntity
  8
0
100
AcDbCircle
 62
7
  6
CONTINUOUS
 10
33.5559975861
 20
2.0633704121
 40
48.4
100
AcDbArc
 50
174.9782633365
 51
182.4433524
  0
ARC
  5
4E6
100
AcDbEntity
  8
0
100
AcDbCircle
 62
7
  6
CONTINUOUS
 10
33.3300057288
 20
-0.0
 40
48.4
100
AcDbArc
 50
171.9832374257
 51
172.5208561489
  0
ARC
  5
4E7
100
AcDbEntity
  8
0
100
AcDbCircle
 62
7
  6
CONTINUOUS
 10
33.65
 20
0.0
 40
48.4
100
AcDbArc
 50
172.800316663
 51
187.199683337
  0
ARC
  5
4E8
100
AcDbEntity
  8
0
100
AcDbCircle
 62
7
  6
CONTINUOUS
 10
9.5
 20
0.0
 40
3.35
100
AcDbArc
 50
270.0
 51
90.0
  0
ARC
  5
4E9
100
AcDbEntity
  8
DRAFT
100
AcDbCircle
 62
7
  6
CONTINUOUS
 10
9.5
 20
0.0
 40
3.2290539221
100
AcDbArc
 50
270.0
 51
90.0
  0
ARC
  5
4EA
100
AcDbEntity
  8
RACCORDO
100
AcDbCircle
 62
250
  6
CONTINUOUS
 10
9.5
 20
0.0
 40
3.2063014109
100
AcDbArc
 50
270.0
 51
90.0
  0
ARC
  5
4EB
100
AcDbEntity
  8
RACCORDO
100
AcDbCircle
 62
250
  6
CONTINUOUS
 10
9.5
 20
0.0
 40
3.0063313038
100
AcDbArc
 50
270.0
 51
90.0
  0
ARC
  5
4EC
100
AcDbEntity
  8
0
100
AcDbCircle
 62
250
  6
CONTINUOUS
 10
1.1
 20
0.2
 40
2.8186341483
100
AcDbArc
 50
141.2986353052
 51
229.1128056127
  0
CIRCLE
  5
4ED
100
AcDbEntity
  8
RACCORDO
100
AcDbCircle
 62
250
  6
CONTINUOUS
 10
9.5
 20
0.0
 40
2.7499986238
  0
CIRCLE
  5
4EE
100
AcDbEntity
  8
RACCORDO
100
AcDbCircle
 62
250
  6
CONTINUOUS
 10
-0.0
 20
0.0
 40
2.7499986238
  0
ARC
  5
4EF
100
AcDbEntity
  8
0
100
AcDbCircle
 62
7
  6
CONTINUOUS
 10
1.1
 20
0.2
 40
2.5993734575
100
AcDbArc
 50
130.7212618789
 51
229.1125157993
  0
CIRCLE
  5
4F0
100
AcDbEntity
  8
RACCORDO
100
AcDbCircle
 62
7
  6
CONTINUOUS
 10
9.5
 20
0.0
 40
2.25
  0
CIRCLE
  5
4F1
100
AcDbEntity
  8
RACCORDO
100
AcDbCircle
 62
7
  6
CONTINUOUS
 10
-0.0
 20
0.0
 40
2.25
  0
ARC
  5
4F2
100
AcDbEntity
  8
RACCORDO
100
AcDbCircle
 62
7
  6
CONTINUOUS
 10
9.5
 20
0.0
 40
1.75
100
AcDbArc
 50
78.4167286412
 51
101.5832713588
  0
ARC
  5
4F3
100
AcDbEntity
  8
0
100
AcDbCircle
 62
7
  6
CONTINUOUS
 10
14.6647341362
 20
6.4742150459
 40
1.3000000008
100
AcDbArc
 50
7.6395612915
 51
72.3182669812
  0
ARC
  5
4F4
100
AcDbEntity
  8
0
100
AcDbCircle
 62
7
  6
CONTINUOUS
 10
13.5969960551
 20
5.4892081584
 40
1.0
100
AcDbArc
 50
0.0
 51
39.7345553655
  0
ARC
  5
4F5
100
AcDbEntity
  8
0
100
AcDbCircle
 62
7
  6
CONTINUOUS
 10
14.2969960551
 20
7.3187190075
 40
0.3
100
AcDbArc
 50
0.0
 51
86.0
  0
ELLIPSE
  5
4F6
100
AcDbEntity
  8
RACCORDO
100
AcDbEllipse
 62
7
  6
CONTINUOUS
 10
9.5
 20
-0.1957283307
 30
0.0
 11
-0.0
 21
1.9226292643
 31
0.0
 40
0.9948046367
 41
-2.0355825359
 42
-0.6674083178
  0
ELLIPSE
  5
4F7
100
AcDbEntity
  8
RACCORDO
100
AcDbEllipse
 62
7
  6
CONTINUOUS
 10
-9.5
 20
0.1957283307
 30
0.0
 11
0.0
 21
1.9226292643
 31
0.0
 40
0.9948046367
 41
1.1060101177
 42
2.4741843358
  0
ELLIPSE
  5
4F8
100
AcDbEntity
  8
RACCORDO
100
AcDbEllipse
 62
7
  6
CONTINUOUS
 10
9.5
 20
-0.1957283307
 30
0.0
 11
-0.0
 21
1.9226292643
 31
0.0
 40
0.9948046367
 41
0.6674083178
 42
1.445666087
  0
ELLIPSE
  5
4F9
100
AcDbEntity
  8
RACCORDO
100
AcDbEllipse
 62
7
  6
CONTINUOUS
 10
-9.5
 20
0.1957283307
 30
0.0
 11
0.0
 21
1.9226292643
 31
0.0
 40
0.9948046367
 41
-2.4741843358
 42
-1.6959265666
  0
ELLIPSE
  5
4FA
100
AcDbEntity
  8
DRAFT
100
AcDbEllipse
 62
7
  6
CONTINUOUS
 10
9.5609106765
 20
0.0
 30
0.0
 11
1.9590967351
 21
0.0
 31
0.0
 40
0.9995165517
 41
-0.5705044146
 42
3.1190064491
  0
ELLIPSE
  5
4FB
100
AcDbEntity
  8
DRAFT
100
AcDbEllipse
 62
7
  6
CONTINUOUS
 10
-9.5609106765
 20
0.0
 30
0.0
 11
1.9590967351
 21
0.0
 31
0.0
 40
0.9995165517
 41
2.571088239
 42
6.2605991027
  0
ENDSEC
  0
SECTION
  2
OBJECTS
  0
DICTIONARY
  5
C
100
AcDbDictionary
280
0
281
1
  3
ACAD_GROUP
350
D
  3
ACAD_MLINESTYLE
350
17
  3
ACAD_LAYOUT
350
1A
  3
ACAD_PLOTSETTINGS
350
19
  3
ACAD_PLOTSTYLENAME
350
E
  0
DICTIONARY
  5
D
102
{ACAD_REACTORS
330
C
102
}
100
AcDbDictionary
280
0
281
1
  0
ACDBDICTIONARYWDFLT
  5
E
102
{ACAD_REACTORS
330
C
102
}
100
AcDbDictionary
281
1
  3
Normal
350
F
100
AcDbDictionaryWithDefault
340
F
  0
DICTIONARY
  5
17
102
{ACAD_REACTORS
330
C
102
}
100
AcDbDictionary
280
0
281
1
  3
Standard
350
18
  0
DICTIONARY
  5
19
102
{ACAD_REACTORS
330
C
102
}
100
AcDbDictionary
281
1
  0
DICTIONARY
  5
1A
102
{ACAD_REACTORS
330
C
102
}
100
AcDbDictionary
281
1
  3
Model
350
4FC
  3
Layout1
350
4FD
  0
ACDBPLACEHOLDER
  5
F
102
{ACAD_REACTORS
330
E
102
}
  0
MLINESTYLE
  5
18
102
{ACAD_REACTORS
330
17
102
}
100
AcDbMlineStyle
  2
STANDARD
 70
0
  3

 62
256
 51
90.0
 52
90.0
 71
2
 49
0.5
 62
256
  6
BYLAYER
 49
-0.5
 62
256
  6
BYLAYER
  0
LAYOUT
  5
4FC
102
{ACAD_REACTORS
330
1A
102
}
100
AcDbPlotSettings
  1

  2
none_device
  4
ISO_A4_(297.00_x_210.00_MM)
  6

 40
0.0
 41
0.0
 42
0.0
 43
0.0
 44
297.0
 45
210.0
 46
0.0
 47
0.0
 48
0.0
 49
0.0
140
0.0
141
0.0
142
1.0
143
1.0
 70
1024
 72
1
 73
0
 74
0
  7

 75
0
147
1.0
148
0.0
149
0.0
100
AcDbLayout
  1
Model
 70
0
 71
0
 10
0.0
 20
0.0
 11
297.0
 21
210.0
 12
0.0
 22
0.0
 32
0.0
 14
0.0
 24
0.0
 34
0.0
 15
0.0
 25
0.0
 35
0.0
146
0.0
 13
0.0
 23
0.0
 33
0.0
 16
1.0
 26
0.0
 36
0.0
 17
0.0
 27
1.0
 37
0.0
 76
0
330
21B
345
0
346
0
  0
LAYOUT
  5
4FD
102
{ACAD_REACTORS
330
1A
102
}
100
AcDbPlotSettings
  1

  2
none_device
  4
ISO_A4_(297.00_x_210.00_MM)
  6

 40
0.0
 41
0.0
 42
0.0
 43
0.0
 44
297.0
 45
210.0
 46
0.0
 47
0.0
 48
0.0
 49
0.0
140
0.0
141
0.0
142
1.0
143
1.0
 70
0
 72
1
 73
0
 74
0
  7

 75
0
147
1.0
148
0.0
149
0.0
100
AcDbLayout
  1
Layout1
 70
0
 71
1
 10
0.0
 20
0.0
 11
297.0
 21
210.0
 12
0.0
 22
0.0
 32
0.0
 14
0.0
 24
0.0
 34
0.0
 15
0.0
 25
0.0
 35
0.0
146
0.0
 13
0.0
 23
0.0
 33
0.0
 16
1.0
 26
0.0
 36
0.0
 17
0.0
 27
1.0
 37
0.0
 76
0
330
21C
345
0
346
0
  0
ENDSEC
  0
EOF
