  0
SECTION
  2
HEADER
  9
$ACADVER
  1
AC1024
  9
$DWGCODEPAGE
  3
ANSI_1252
  9
$EXTMAX
 10
297.0
 20
210.0
 30
0.0
  9
$EXTMIN
 10
0.0
 20
0.0
 30
0.0
  9
$LIMMIN
 10
0.0
 20
0.0
  9
$LIMMAX
 10
297.0
 20
210.0
  9
$VIEWCTR
 10
148.5
 20
105.0
  9
$VIEWSIZE
 40
210.0
  9
$CLAYER
  8
0
  9
$LTSCALE
 40
16.335
  9
$CELTYPE
  6
BYLAYER
  9
$DIMSCALE
 40
1.0
  9
$DIMASZ
 40
3.0
  9
$DIMEXO
 40
0.5
  9
$DIMDLI
 40
11.286
  9
$DIMEXE
 40
1.5
  9
$DIMCEN
 40
2.673
  9
$DIMLFAC
 40
1.0
  9
$DIMBLK
  1
_FILLED
  9
$DIMALT
 70
0
  9
$DIMALTF
 40
0.0393700787
  9
$DIMTXT
 40
3.0
  9
$DIMTOL
 70
1
  9
$DIMLIM
 70
0
  9
$DIMTFAC
 40
1.0
  9
$DIMTP
 40
0.01
  9
$DIMTM
 40
0.01
  9
$DIMGAP
 40
0.625
  9
$DIMDSEP
 70
44
  9
$AUNITS
 70
0
  9
$PDMODE
 70
3
  9
$PDSIZE
 40
3.0
  9
$HANDSEED
  5
529
  9
$TILEMODE
 70
1
  9
$MEASUREMENT
 70
1
  9
$INSUNITS
 70
4
  0
ENDSEC
  0
SECTION
  2
CLASSES
  0
CLASS
  1
ACDBDICTIONARYWDFLT
  2
AcDbDictionaryWithDefault
  3
AutoCAD 2000
 90
0
 91
1
280
0
281
0
  0
CLASS
  1
ACDBPLACEHOLDER
  2
AcDbPlaceHolder
  3
AutoCAD 2000
 90
0
 91
1
280
0
281
0
  0
CLASS
  1
LAYOUT
  2
AcDbLayout
  3
AutoCAD 2000
 90
0
 91
0
280
0
281
0
  0
ENDSEC
  0
SECTION
  2
TABLES
  0
TABLE
  2
VPORT
  5
8
100
AcDbSymbolTable
 70
2
  0
VPORT
  5
1F4
100
AcDbSymbolTableRecord
100
AcDbViewportTableRecord
  2
*ACTIVE
 70
0
 10
0.0
 20
0.0
 11
1.0
 21
1.0
 12
148.5
 22
105.0
 13
0.0
 23
0.0
 14
1.0
 24
1.0
 15
0.0
 25
0.0
 16
0.0
 26
0.0
 36
1.0
 17
0.0
 27
0.0
 37
0.0
 40
210.0
 41
1.4142857143
 42
50.0
 43
0.0
 44
0.0
 50
0.0
 51
0.0
 71
0
 72
100
 73
1
 74
1
 75
0
 76
0
 77
0
 78
0
  0
ENDTAB
  0
TABLE
  2
LTYPE
  5
5
100
AcDbSymbolTable
 70
6
  0
LTYPE
  5
14
100
AcDbSymbolTableRecord
100
AcDbLinetypeTableRecord
  2
BYBLOCK
 70
0
  3

 72
65
 73
0
 40
0.0
  0
LTYPE
  5
15
100
AcDbSymbolTableRecord
100
AcDbLinetypeTableRecord
  2
BYLAYER
 70
0
  3

 72
65
 73
0
 40
0.0
  0
LTYPE
  5
16
100
AcDbSymbolTableRecord
100
AcDbLinetypeTableRecord
  2
CONTINUOUS
 70
64
  3
Solid line
 72
65
 73
0
 40
0.0
  0
LTYPE
  5
1F5
100
AcDbSymbolTableRecord
100
AcDbLinetypeTableRecord
  2
CENTER
 70
64
  3
____ _ ____ _ ____ _ ____ _ ____ _ ____ _ ____
 72
65
 73
4
 40
0.6
 49
0.375
 74
0
 49
-0.075
 74
0
 49
0.075
 74
0
 49
-0.075
 74
0
  0
LTYPE
  5
1F6
100
AcDbSymbolTableRecord
100
AcDbLinetypeTableRecord
  2
HIDDEN
 70
64
  3
- - - - - - - - - - - - - - - - - - - -
 72
65
 73
2
 40
0.2
 49
0.1
 74
0
 49
-0.1
 74
0
  0
LTYPE
  5
1F7
100
AcDbSymbolTableRecord
100
AcDbLinetypeTableRecord
  2
PHANTOM
 70
64
  3
_____ _ _ _____ _ _ _____ _ _ _____
 72
65
 73
6
 40
0.8
 49
0.45
 74
0
 49
-0.05
 74
0
 49
0.1
 74
0
 49
-0.05
 74
0
 49
0.1
 74
0
 49
-0.05
 74
0
  0
LTYPE
  5
1F8
100
AcDbSymbolTableRecord
100
AcDbLinetypeTableRecord
  2
DOT
 70
64
  3
. . . . . . . . . . . . . . . . . . . .
 72
65
 73
2
 40
0.2
 49
0.1
 74
0
 49
-0.1
 74
0
  0
LTYPE
  5
1F9
100
AcDbSymbolTableRecord
100
AcDbLinetypeTableRecord
  2
DASHED
 70
64
  3
- - - - - - - - - - - - - - - - - - - -
 72
65
 73
2
 40
0.2
 49
0.1
 74
0
 49
-0.1
 74
0
  0
ENDTAB
  0
TABLE
  2
LAYER
  5
2
100
AcDbSymbolTable
 70
36
  0
LAYER
  5
10
100
AcDbSymbolTableRecord
100
AcDbLayerTableRecord
  2
0
 70
0
 62
7
  6
CONTINUOUS
370
-3
390
F
  0
LAYER
  5
1FA
100
AcDbSymbolTableRecord
100
AcDbLayerTableRecord
  2
DEFAULT_1
 70
0
 62
7
  6
CENTER
370
-3
390
F
  0
LAYER
  5
1FB
100
AcDbSymbolTableRecord
100
AcDbLayerTableRecord
  2
DEFAULT_2
 70
0
 62
7
  6
HIDDEN
370
-3
390
F
  0
LAYER
  5
1FC
100
AcDbSymbolTableRecord
100
AcDbLayerTableRecord
  2
DEFAULT_3
 70
0
 62
7
  6
PHANTOM
370
-3
390
F
  0
LAYER
  5
1FD
100
AcDbSymbolTableRecord
100
AcDbLayerTableRecord
  2
ASSI
 70
0
 62
7
  6
CONTINUOUS
370
-3
390
F
  0
LAYER
  5
1FE
100
AcDbSymbolTableRecord
100
AcDbLayerTableRecord
  2
COLOR5
 70
0
 62
7
  6
CONTINUOUS
370
-3
390
F
  0
LAYER
  5
1FF
100
AcDbSymbolTableRecord
100
AcDbLayerTableRecord
  2
COORDINATE
 70
0
 62
7
  6
CONTINUOUS
370
-3
390
F
  0
LAYER
  5
200
100
AcDbSymbolTableRecord
100
AcDbLayerTableRecord
  2
COORD_ORIGINE
 70
0
 62
7
  6
CONTINUOUS
370
-3
390
F
  0
LAYER
  5
201
100
AcDbSymbolTableRecord
100
AcDbLayerTableRecord
  2
COPY-PUBBLISH
 70
0
 62
7
  6
CONTINUOUS
370
-3
390
F
  0
LAYER
  5
202
100
AcDbSymbolTableRecord
100
AcDbLayerTableRecord
  2
COPY_PUBLISH
 70
0
 62
7
  6
CONTINUOUS
370
-3
390
F
  0
LAYER
  5
203
100
AcDbSymbolTableRecord
100
AcDbLayerTableRecord
  2
COSMETICHE
 70
0
 62
7
  6
CONTINUOUS
370
-3
390
F
  0
LAYER
  5
204
100
AcDbSymbolTableRecord
100
AcDbLayerTableRecord
  2
COSMETICI
 70
0
 62
7
  6
CONTINUOUS
370
-3
390
F
  0
LAYER
  5
205
100
AcDbSymbolTableRecord
100
AcDbLayerTableRecord
  2
CURVE
 70
0
 62
7
  6
CONTINUOUS
370
-3
390
F
  0
LAYER
  5
206
100
AcDbSymbolTableRecord
100
AcDbLayerTableRecord
  2
DRAFT
 70
0
 62
7
  6
CONTINUOUS
370
-3
390
F
  0
LAYER
  5
207
100
AcDbSymbolTableRecord
100
AcDbLayerTableRecord
  2
IGES
 70
0
 62
7
  6
CONTINUOUS
370
-3
390
F
  0
LAYER
  5
208
100
AcDbSymbolTableRecord
100
AcDbLayerTableRecord
  2
IMPORT_IGES
 70
0
 62
7
  6
CONTINUOUS
370
-3
390
F
  0
LAYER
  5
209
100
AcDbSymbolTableRecord
100
AcDbLayerTableRecord
  2
INTF_1
 70
0
 62
7
  6
CONTINUOUS
370
-3
390
F
  0
LAYER
  5
20A
100
AcDbSymbolTableRecord
100
AcDbLayerTableRecord
  2
INTF_11
 70
0
 62
7
  6
CONTINUOUS
370
-3
390
F
  0
LAYER
  5
20B
100
AcDbSymbolTableRecord
100
AcDbLayerTableRecord
  2
INTF_52
 70
0
 62
7
  6
CONTINUOUS
370
-3
390
F
  0
LAYER
  5
20C
100
AcDbSymbolTableRecord
100
AcDbLayerTableRecord
  2
INTF_GREEN
 70
0
 62
7
  6
CONTINUOUS
370
-3
390
F
  0
LAYER
  5
20D
100
AcDbSymbolTableRecord
100
AcDbLayerTableRecord
  2
INTF_RED
 70
0
 62
7
  6
CONTINUOUS
370
-3
390
F
  0
LAYER
  5
20E
100
AcDbSymbolTableRecord
100
AcDbLayerTableRecord
  2
INTF_YELLOW
 70
0
 62
7
  6
CONTINUOUS
370
-3
390
F
  0
LAYER
  5
20F
100
AcDbSymbolTableRecord
100
AcDbLayerTableRecord
  2
NOTE
 70
0
 62
7
  6
CONTINUOUS
370
-3
390
F
  0
LAYER
  5
210
100
AcDbSymbolTableRecord
100
AcDbLayerTableRecord
  2
PIANI
 70
0
 62
7
  6
CONTINUOUS
370
-3
390
F
  0
LAYER
  5
211
100
AcDbSymbolTableRecord
100
AcDbLayerTableRecord
  2
PIANI-RIFERIMENTO
 70
0
 62
7
  6
CONTINUOUS
370
-3
390
F
  0
LAYER
  5
212
100
AcDbSymbolTableRecord
100
AcDbLayerTableRecord
  2
PIANI_ORIGINE
 70
0
 62
7
  6
CONTINUOUS
370
-3
390
F
  0
LAYER
  5
213
100
AcDbSymbolTableRecord
100
AcDbLayerTableRecord
  2
PUNTI
 70
0
 62
7
  6
CONTINUOUS
370
-3
390
F
  0
LAYER
  5
214
100
AcDbSymbolTableRecord
100
AcDbLayerTableRecord
  2
RACCORDO
 70
0
 62
7
  6
CONTINUOUS
370
-3
390
F
  0
LAYER
  5
215
100
AcDbSymbolTableRecord
100
AcDbLayerTableRecord
  2
SIMBOLI
 70
0
 62
7
  6
CONTINUOUS
370
-3
390
F
  0
LAYER
  5
216
100
AcDbSymbolTableRecord
100
AcDbLayerTableRecord
  2
SMUSSO
 70
0
 62
7
  6
CONTINUOUS
370
-3
390
F
  0
LAYER
  5
217
100
AcDbSymbolTableRecord
100
AcDbLayerTableRecord
  2
SNAPLINE
 70
0
 62
7
  6
CONTINUOUS
370
-3
390
F
  0
LAYER
  5
218
100
AcDbSymbolTableRecord
100
AcDbLayerTableRecord
  2
SOLIDO
 70
0
 62
7
  6
CONTINUOUS
370
-3
390
F
  0
LAYER
  5
219
100
AcDbSymbolTableRecord
100
AcDbLayerTableRecord
  2
SUPERFICI
 70
0
 62
7
  6
CONTINUOUS
370
-3
390
F
  0
LAYER
  5
21A
100
AcDbSymbolTableRecord
100
AcDbLayerTableRecord
  2
TRASH
 70
0
 62
7
  6
CONTINUOUS
370
-3
390
F
  0
LAYER
  5
21B
100
AcDbSymbolTableRecord
100
AcDbLayerTableRecord
  2
XSEC_DATUMS
 70
0
 62
7
  6
CONTINUOUS
370
-3
390
F
  0
ENDTAB
  0
TABLE
  2
STYLE
  5
3
100
AcDbSymbolTable
 70
1
  0
STYLE
  5
11
100
AcDbSymbolTableRecord
100
AcDbTextStyleTableRecord
  2
STANDARD
 70
0
 40
0.0
 41
0.8
 50
0.0
 71
0
 42
0.2
  3
txt
  4

  0
STYLE
  5
21C
100
AcDbSymbolTableRecord
100
AcDbTextStyleTableRecord
  2
TEXTSTYLE_1
 70
0
 40
0.0
 41
0.8
 50
0.0
 71
0
 42
0.2
  3
gdt
  4

  0
ENDTAB
  0
TABLE
  2
VIEW
  5
6
100
AcDbSymbolTable
 70
0
  0
ENDTAB
  0
TABLE
  2
UCS
  5
7
100
AcDbSymbolTable
 70
0
  0
ENDTAB
  0
TABLE
  2
APPID
  5
9
100
AcDbSymbolTable
 70
1
  0
APPID
  5
21D
100
AcDbSymbolTableRecord
100
AcDbRegAppTableRecord
  2
ACAD
 70
0
  0
ENDTAB
  0
TABLE
  2
BLOCK_RECORD
  5
1
100
AcDbSymbolTable
 70
0
  0
BLOCK_RECORD
  5
21E
100
AcDbSymbolTableRecord
100
AcDbBlockTableRecord
  2
*Model_Space
  0
BLOCK_RECORD
  5
21F
100
AcDbSymbolTableRecord
100
AcDbBlockTableRecord
  2
*Paper_Space
  0
BLOCK_RECORD
  5
220
100
AcDbSymbolTableRecord
100
AcDbBlockTableRecord
  2
_FILLED
  0
ENDTAB
  0
TABLE
  2
DIMSTYLE
  5
A
100
AcDbSymbolTable
 70
1
100
AcDbDimStyleTable
 71
0
  0
DIMSTYLE
105
221
100
AcDbSymbolTableRecord
100
AcDbDimStyleTableRecord
  2
STANDARD
 70
0
  3

  4

 40
1.0
 41
3.0
 42
0.5
 43
0.38
 44
1.5
 45
0.0
 46
0.0
 47
0.01
 48
0.01
140
3.0
141
0.09
142
0.0
143
25.4
144
1.0
145
0.0
146
1.0
147
0.625
 71
1
 72
0
 73
0
 74
0
 75
0
 76
0
 77
1
 78
8
 79
2
170
0
171
1
172
0
173
0
174
0
175
0
176
0
177
0
178
0
270
2
179
2
271
2
272
2
273
2
274
2
275
0
280
0
281
0
282
0
283
1
284
8
285
0
286
0
287
3
288
0
340
11
278
44
341
220
342
220
343
220
344
220
  0
ENDTAB
  0
ENDSEC
  0
SECTION
  2
BLOCKS
  0
BLOCK
  5
20
100
AcDbEntity
  8
0
100
AcDbBlockBegin
  2
*Model_Space
 70
0
 10
0.0
 20
0.0
 30
0.0
  3
*Model_Space
  1

  0
ENDBLK
  5
21
100
AcDbEntity
  8
0
100
AcDbBlockEnd
  0
BLOCK
  5
1C
100
AcDbEntity
  8
0
100
AcDbBlockBegin
  2
*Paper_Space
 70
0
 10
0.0
 20
0.0
 30
0.0
  3
*Paper_Space
  1

  0
ENDBLK
  5
1D
100
AcDbEntity
  8
0
100
AcDbBlockEnd
  0
BLOCK
  5
222
100
AcDbEntity
  8
0
100
AcDbBlockBegin
  2
_FILLED
 70
64
 10
0.0
 20
0.0
  3
_FILLED
  1

  0
SOLID
  5
223
100
AcDbEntity
  8
0
  6
BYBLOCK
 62
0
100
AcDbTrace
 10
0.0
 20
0.0
 11
-1.0
 21
0.3166666667
 12
-1.0
 22
-0.3166666667
 13
-1.0
 23
-0.3166666667
  0
ENDBLK
  5
224
100
AcDbEntity
  8
0
  6
BYBLOCK
 62
0
100
AcDbBlockEnd
  0
ENDSEC
  0
SECTION
  2
ENTITIES
  0
LINE
  5
225
100
AcDbEntity
  8
0
100
AcDbLine
 62
7
  6
CONTINUOUS
 10
-18.2466123057
 20
6.4000045519
 11
-18.2244938567
 21
6.5968585365
  0
LWPOLYLINE
  5
226
100
AcDbEntity
  8
ASSI
100
AcDbPolyline
 62
250
  6
CONTINUOUS
 90
10
 70
0
 10
-19.3544899199
 20
8.0397029559
 10
-19.467046812
 20
7.1746541294
 10
-19.5666798508
 20
6.3025058352
 10
-19.6533890364
 20
5.4232580731
 10
-19.7272713965
 20
4.5368620537
 10
-19.7882299034
 20
3.6433665665
 10
-19.8359734735
 20
2.7429179806
 10
-19.870405079
 20
1.8355650857
 10
-19.8916217479
 20
0.9212590922
 10
-19.89962348
 20
-0.0
  0
LWPOLYLINE
  5
227
100
AcDbEntity
  8
ASSI
100
AcDbPolyline
 62
7
  6
CONTINUOUS
 90
6
 70
0
 10
-19.4869433969
 20
-8.8356305925
 10
-19.4592524712
 20
-8.8646117097
 10
-19.3776490603
 20
-8.9363480605
 10
-19.2970604015
 20
-8.9965689577
 10
-19.2236964919
 20
-9.0437314622
 10
-19.1641436312
 20
-9.0773302826
  0
LWPOLYLINE
  5
228
100
AcDbEntity
  8
ASSI
100
AcDbPolyline
 62
250
  6
CONTINUOUS
 90
10
 70
0
 10
-19.3544899199
 20
-8.0397029559
 10
-19.467046812
 20
-7.1746541294
 10
-19.5666798508
 20
-6.3025058352
 10
-19.6533890364
 20
-5.4232580731
 10
-19.7272713965
 20
-4.5368620537
 10
-19.7882299034
 20
-3.6433665665
 10
-19.8359734735
 20
-2.7429179806
 10
-19.870405079
 20
-1.8355650857
 10
-19.8916217479
 20
-0.9212590922
 10
-19.89962348
 20
-0.0
  0
LINE
  5
229
100
AcDbEntity
  8
0
100
AcDbLine
 62
7
  6
CONTINUOUS
 10
-18.2244938567
 20
-6.5968585365
 11
-18.2466108501
 21
-6.4000175069
  0
LINE
  5
22A
100
AcDbEntity
  8
ASSI
100
AcDbLine
 62
250
  6
CONTINUOUS
 10
-18.12
 20
-7.4560258545
 11
-18.12
 21
-7.0144419512
  0
LINE
  5
22B
100
AcDbEntity
  8
ASSI
100
AcDbLine
 62
250
  6
CONTINUOUS
 10
-18.12
 20
7.0144420852
 11
-18.12
 21
7.4560258545
  0
LINE
  5
22C
100
AcDbEntity
  8
0
100
AcDbLine
 62
7
  6
CONTINUOUS
 10
-18.1
 20
-9.0
 11
-18.1
 21
-7.6092534862
  0
LINE
  5
22D
100
AcDbEntity
  8
0
100
AcDbLine
 62
7
  6
CONTINUOUS
 10
-18.1
 20
7.6092534862
 11
-18.1
 21
9.0
  0
LINE
  5
22E
100
AcDbEntity
  8
0
100
AcDbLine
 62
7
  6
CONTINUOUS
 10
-18.05
 20
-8.9784396842
 11
-18.05
 21
-7.6124897373
  0
LINE
  5
22F
100
AcDbEntity
  8
0
100
AcDbLine
 62
7
  6
CONTINUOUS
 10
-18.05
 20
7.6124897373
 11
-18.05
 21
8.9784396842
  0
LINE
  5
230
100
AcDbEntity
  8
ASSI
100
AcDbLine
 62
250
  6
CONTINUOUS
 10
-18.8545557369
 20
-9.1443470875
 11
-18.7487216721
 21
-8.7042240014
  0
LWPOLYLINE
  5
231
100
AcDbEntity
  8
ASSI
100
AcDbPolyline
 62
250
  6
CONTINUOUS
 90
4
 70
0
 10
-18.8650632972
 20
-9.1861370032
 10
-18.8643149499
 20
-9.1834797191
 10
-18.8622808016
 20
-9.1755530792
 10
-18.8545557369
 20
-9.1443470875
  0
LINE
  5
232
100
AcDbEntity
  8
ASSI
100
AcDbLine
 62
250
  6
CONTINUOUS
 10
-15.3269772789
 20
9.8262055932
 11
-15.325230014
 21
9.8296203544
  0
LWPOLYLINE
  5
233
100
AcDbEntity
  8
ASSI
100
AcDbPolyline
 62
250
  6
CONTINUOUS
 90
4
 70
0
 10
-15.3251781756
 20
9.8296268064
 10
-15.2958195491
 20
9.8555064302
 10
-15.2363057397
 20
9.8886807004
 10
-15.1478555055
 20
9.9278811304
  0
LWPOLYLINE
  5
234
100
AcDbEntity
  8
ASSI
100
AcDbPolyline
 62
250
  6
CONTINUOUS
 90
9
 70
0
 10
-18.8660822027
 20
9.1858931756
 10
-18.8630378678
 20
9.1878634761
 10
-18.8612315738
 20
9.1894462139
 10
-18.8603000648
 20
9.1907279849
 10
-18.8598840169
 20
9.1917944521
 10
-18.8596280199
 20
9.1927303497
 10
-18.8591805596
 20
9.1936194875
 10
-18.8581940012
 20
9.1945447551
 10
-18.8563261454
 20
9.195587506
  0
LWPOLYLINE
  5
235
100
AcDbEntity
  8
ASSI
100
AcDbPolyline
 62
250
  6
CONTINUOUS
 90
9
 70
0
 10
-15.3407414759
 20
9.807751051
 10
-15.3383527008
 20
9.8092391924
 10
-15.3362048908
 20
9.8110205259
 10
-15.3342987814
 20
9.8130458066
 10
-15.3327285205
 20
9.8152281505
 10
-15.3314010592
 20
9.8175597305
 10
-15.330033703
 20
9.8201497238
 10
-15.3285291373
 20
9.8230476267
 10
-15.3269772789
 20
9.8262055932
  0
LWPOLYLINE
  5
236
100
AcDbEntity
  8
ASSI
100
AcDbPolyline
 62
7
  6
CONTINUOUS
 90
6
 70
0
 10
-19.1641436312
 20
9.0773302826
 10
-19.2236964919
 20
9.0437314622
 10
-19.2970604015
 20
8.9965689577
 10
-19.3776490603
 20
8.9363480605
 10
-19.4592524712
 20
8.8646117097
 10
-19.4869433969
 20
8.8356305925
  0
LWPOLYLINE
  5
237
100
AcDbEntity
  8
ASSI
100
AcDbPolyline
 62
7
  6
CONTINUOUS
 90
3
 70
0
 10
-19.0671802833
 20
9.1241018542
 10
-19.1150526017
 20
9.102176784
 10
-19.1641436312
 20
9.0773302826
  0
LINE
  5
238
100
AcDbEntity
  8
ASSI
100
AcDbLine
 62
250
  6
CONTINUOUS
 10
-18.8563261454
 20
9.195587506
 11
-18.8536407073
 21
9.1966709141
  0
LINE
  5
239
100
AcDbEntity
  8
ASSI
100
AcDbLine
 62
250
  6
CONTINUOUS
 10
-15.1478555055
 20
9.9278811304
 11
-15.0323994241
 21
9.9718271179
  0
LWPOLYLINE
  5
23A
100
AcDbEntity
  8
ASSI
100
AcDbPolyline
 62
250
  6
CONTINUOUS
 90
7
 70
0
 10
-15.0323994241
 20
9.9718271179
 10
-14.8906836773
 20
10.0198563741
 10
-14.7211540015
 20
10.0720382513
 10
-14.522972688
 20
10.1281237888
 10
-14.2971954489
 20
10.1874553146
 10
-14.0436962122
 20
10.249719254
 10
-13.7519085959
 20
10.3168628495
  0
LWPOLYLINE
  5
23B
100
AcDbEntity
  8
ASSI
100
AcDbPolyline
 62
7
  6
CONTINUOUS
 90
4
 70
0
 10
-18.9332382452
 20
9.1742883212
 10
-18.968968006
 20
9.162440804
 10
-19.0173226435
 20
9.1446462072
 10
-19.0671802833
 20
9.1241018542
  0
LWPOLYLINE
  5
23C
100
AcDbEntity
  8
ASSI
100
AcDbPolyline
 62
7
  6
CONTINUOUS
 90
3
 70
0
 10
-18.8536407073
 20
9.1966709141
 10
-18.8520243368
 20
9.1971941026
 10
-18.8497558976
 20
9.1978069638
  0
LINE
  5
23D
100
AcDbEntity
  8
ASSI
100
AcDbLine
 62
7
  6
CONTINUOUS
 10
-18.9332382452
 20
9.1742883212
 11
-18.937109359
 21
9.173057001
  0
LINE
  5
23E
100
AcDbEntity
  8
ASSI
100
AcDbLine
 62
7
  6
CONTINUOUS
 10
-18.9154466439
 20
9.1798091919
 11
-18.9374259899
 21
9.1729941973
  0
LINE
  5
23F
100
AcDbEntity
  8
ASSI
100
AcDbLine
 62
7
  6
CONTINUOUS
 10
18.8536320567
 20
-9.1966738892
 11
18.9332382452
 21
-9.1742883212
  0
LINE
  5
240
100
AcDbEntity
  8
ASSI
100
AcDbLine
 62
7
  6
CONTINUOUS
 10
-18.8536320567
 20
-9.1966738892
 11
-18.9332382452
 21
-9.1742883212
  0
LWPOLYLINE
  5
241
100
AcDbEntity
  8
ASSI
100
AcDbPolyline
 62
7
  6
CONTINUOUS
 90
4
 70
0
 10
-18.9374259899
 20
-9.1729941973
 10
-18.9154466439
 20
-9.1798091919
 10
-18.8922667496
 20
-9.186557554
 10
-18.8701168716
 20
-9.1926030451
  0
LINE
  5
242
100
AcDbEntity
  8
ASSI
100
AcDbLine
 62
7
  6
CONTINUOUS
 10
-18.9332382452
 20
-9.1742883212
 11
-18.937109359
 21
-9.173057001
  0
LWPOLYLINE
  5
243
100
AcDbEntity
  8
ASSI
100
AcDbPolyline
 62
7
  6
CONTINUOUS
 90
3
 70
0
 10
-18.8536407073
 20
-9.1966709141
 10
-18.8520243368
 20
-9.1971941026
 10
-18.8497558976
 20
-9.1978069638
  0
LWPOLYLINE
  5
244
100
AcDbEntity
  8
ASSI
100
AcDbPolyline
 62
250
  6
CONTINUOUS
 90
7
 70
0
 10
-15.0323994241
 20
-9.9718271179
 10
-14.8906836773
 20
-10.0198563741
 10
-14.7211540015
 20
-10.0720382513
 10
-14.522972688
 20
-10.1281237888
 10
-14.2971954489
 20
-10.1874553146
 10
-14.0436962122
 20
-10.249719254
 10
-13.7515602146
 20
-10.3169405133
  0
LINE
  5
245
100
AcDbEntity
  8
ASSI
100
AcDbLine
 62
250
  6
CONTINUOUS
 10
-15.1478555055
 20
-9.9278811304
 11
-15.0323994241
 21
-9.9718271179
  0
LINE
  5
246
100
AcDbEntity
  8
ASSI
100
AcDbLine
 62
250
  6
CONTINUOUS
 10
-18.8563261454
 20
-9.195587506
 11
-18.8536407073
 21
-9.1966709141
  0
LWPOLYLINE
  5
247
100
AcDbEntity
  8
ASSI
100
AcDbPolyline
 62
7
  6
CONTINUOUS
 90
6
 70
0
 10
-19.1641436312
 20
-9.0773302826
 10
-19.1150526017
 20
-9.102176784
 10
-19.0671802833
 20
-9.1241018542
 10
-19.0173226435
 20
-9.1446462072
 10
-18.968968006
 20
-9.162440804
 10
-18.9332382452
 20
-9.1742883212
  0
LWPOLYLINE
  5
248
100
AcDbEntity
  8
ASSI
100
AcDbPolyline
 62
250
  6
CONTINUOUS
 90
9
 70
0
 10
-15.3407414759
 20
-9.807751051
 10
-15.3383527008
 20
-9.8092391924
 10
-15.3362048908
 20
-9.8110205259
 10
-15.3342987814
 20
-9.8130458066
 10
-15.3327285205
 20
-9.8152281505
 10
-15.3314010592
 20
-9.8175597305
 10
-15.330033703
 20
-9.8201497238
 10
-15.3285291373
 20
-9.8230476267
 10
-15.3269772789
 20
-9.8262055932
  0
LWPOLYLINE
  5
249
100
AcDbEntity
  8
ASSI
100
AcDbPolyline
 62
250
  6
CONTINUOUS
 90
9
 70
0
 10
-18.8660822027
 20
-9.1858931756
 10
-18.8630378678
 20
-9.1878634761
 10
-18.8612315738
 20
-9.1894462139
 10
-18.8603000648
 20
-9.1907279849
 10
-18.8598840169
 20
-9.1917944521
 10
-18.8596280199
 20
-9.1927303497
 10
-18.8591805596
 20
-9.1936194875
 10
-18.8581940012
 20
-9.1945447551
 10
-18.8563261454
 20
-9.195587506
  0
LWPOLYLINE
  5
24A
100
AcDbEntity
  8
ASSI
100
AcDbPolyline
 62
250
  6
CONTINUOUS
 90
4
 70
0
 10
-15.3251781756
 20
-9.8296268064
 10
-15.2958195491
 20
-9.8555064302
 10
-15.2363057397
 20
-9.8886807004
 10
-15.1478555055
 20
-9.9278811304
  0
LINE
  5
24B
100
AcDbEntity
  8
ASSI
100
AcDbLine
 62
250
  6
CONTINUOUS
 10
-15.3269772789
 20
-9.8262055932
 11
-15.325230014
 21
-9.8296203544
  0
LWPOLYLINE
  5
24C
100
AcDbEntity
  8
ASSI
100
AcDbPolyline
 62
250
  6
CONTINUOUS
 90
3
 70
0
 10
-18.8650632972
 20
9.1861370032
 10
-18.8643149499
 20
9.1834797191
 10
-18.8622808016
 20
9.1755530792
  0
LINE
  5
24D
100
AcDbEntity
  8
ASSI
100
AcDbLine
 62
250
  6
CONTINUOUS
 10
-18.8622808016
 20
9.1755530792
 11
-18.8545557369
 21
9.1443470875
  0
LINE
  5
24E
100
AcDbEntity
  8
ASSI
100
AcDbLine
 62
250
  6
CONTINUOUS
 10
-18.8545557369
 20
9.1443470875
 11
-18.7487216721
 21
8.7042240014
  0
LINE
  5
24F
100
AcDbEntity
  8
DRAFT
100
AcDbLine
 62
250
  6
CONTINUOUS
 10
-13.05
 20
-2.75
 11
-13.05
 21
-2.7116244175
  0
LINE
  5
250
100
AcDbEntity
  8
0
100
AcDbLine
 62
250
  6
CONTINUOUS
 10
-13.0
 20
-2.1473460386
 11
-13.0
 21
-2.4104701077
  0
LINE
  5
251
100
AcDbEntity
  8
ASSI
100
AcDbLine
 62
7
  6
CONTINUOUS
 10
-9.058641
 20
-10.2747564323
 11
-9.058641
 21
-10.2447349474
  0
LINE
  5
252
100
AcDbEntity
  8
ASSI
100
AcDbLine
 62
7
  6
CONTINUOUS
 10
-9.058641
 20
10.244740301
 11
-9.058641
 21
10.2747711222
  0
LINE
  5
253
100
AcDbEntity
  8
DRAFT
100
AcDbLine
 62
250
  6
CONTINUOUS
 10
-12.9979830071
 20
2.7996110599
 11
-12.9987979658
 21
2.7552359213
  0
LINE
  5
254
100
AcDbEntity
  8
DRAFT
100
AcDbLine
 62
250
  6
CONTINUOUS
 10
-12.9987979658
 20
2.7552359213
 11
-13.0
 21
2.75
  0
LWPOLYLINE
  5
255
100
AcDbEntity
  8
ASSI
100
AcDbPolyline
 62
250
  6
CONTINUOUS
 90
13
 70
0
 10
-18.7521965807
 20
8.7033887851
 10
-18.8280923019
 20
8.6809320637
 10
-18.9004908629
 20
8.6514773536
 10
-18.9693922637
 20
8.6150246548
 10
-19.0356025199
 20
8.5710190228
 10
-19.0983156158
 20
8.5200154022
 10
-19.1551135051
 20
8.4636786263
 10
-19.2056477827
 20
8.4017224701
 10
-19.2502668536
 20
8.3344331587
 10
-19.287597886
 20
8.2643342007
 10
-19.3171832692
 20
8.1922667657
 10
-19.3394806138
 20
8.1173896841
 10
-19.3544899199
 20
8.0397029559
  0
LWPOLYLINE
  5
256
100
AcDbEntity
  8
ASSI
100
AcDbPolyline
 62
7
  6
CONTINUOUS
 90
4
 70
0
 10
18.8496124754
 20
-9.1978514445
 10
18.8701168716
 20
-9.1926030451
 10
18.8922667496
 20
-9.186557554
 10
18.9154466439
 20
-9.1798091919
  0
LINE
  5
257
100
AcDbEntity
  8
ASSI
100
AcDbLine
 62
7
  6
CONTINUOUS
 10
18.8497558976
 20
-9.1978069638
 11
18.8488304052
 21
-9.1980390745
  0
LINE
  5
258
100
AcDbEntity
  8
ASSI
100
AcDbLine
 62
250
  6
CONTINUOUS
 10
13.4611185322
 20
-10.1012180025
 11
13.7429595716
 21
-10.0326426202
  0
LWPOLYLINE
  5
259
100
AcDbEntity
  8
ASSI
100
AcDbPolyline
 62
7
  6
CONTINUOUS
 90
3
 70
0
 10
18.6314991824
 20
-9.2507662622
 10
18.8126572148
 20
-9.2069410557
 10
18.8461427993
 20
-9.1986708693
  0
LINE
  5
25A
100
AcDbEntity
  8
ASSI
100
AcDbLine
 62
7
  6
CONTINUOUS
 10
18.8488304052
 20
-9.1980390745
 11
18.8470221274
 21
-9.198471789
  0
LINE
  5
25B
100
AcDbEntity
  8
0
100
AcDbLine
 62
250
  6
CONTINUOUS
 10
18.7521965807
 20
-8.7033887851
 11
18.521809287
 21
-8.7575084835
  0
LWPOLYLINE
  5
25C
100
AcDbEntity
  8
ASSI
100
AcDbPolyline
 62
7
  6
CONTINUOUS
 90
3
 70
0
 10
18.4904948148
 20
-9.2731812282
 10
18.4797380761
 20
-9.275642217
 10
18.2867906129
 20
-9.3184581739
  0
LINE
  5
25D
100
AcDbEntity
  8
ASSI
100
AcDbLine
 62
7
  6
CONTINUOUS
 10
14.8896478629
 20
-10.0633049985
 11
15.8013916787
 21
-9.8546736012
  0
LINE
  5
25E
100
AcDbEntity
  8
ASSI
100
AcDbLine
 62
250
  6
CONTINUOUS
 10
13.1449366409
 20
-10.1731333101
 11
13.4611185322
 21
-10.1012180025
  0
LINE
  5
25F
100
AcDbEntity
  8
ASSI
100
AcDbLine
 62
7
  6
CONTINUOUS
 10
18.8470221274
 20
-9.198471789
 11
18.8461427993
 21
-9.1986708693
  0
LINE
  5
260
100
AcDbEntity
  8
0
100
AcDbLine
 62
250
  6
CONTINUOUS
 10
18.521809287
 20
-8.7575084835
 11
18.3044104267
 21
-8.8069462734
  0
LINE
  5
261
100
AcDbEntity
  8
ASSI
100
AcDbLine
 62
7
  6
CONTINUOUS
 10
15.8013916787
 20
-9.8546736012
 11
16.160481634
 21
-9.7739543525
  0
LWPOLYLINE
  5
262
100
AcDbEntity
  8
ASSI
100
AcDbPolyline
 62
7
  6
CONTINUOUS
 90
3
 70
0
 10
13.7434322782
 20
-10.3196363601
 10
14.3184695367
 20
-10.1929138357
 10
14.8896478629
 20
-10.0633049985
  0
LINE
  5
263
100
AcDbEntity
  8
ASSI
100
AcDbLine
 62
7
  6
CONTINUOUS
 10
16.160481634
 20
-9.7739543525
 11
16.5277408293
 21
-9.6932811436
  0
LINE
  5
264
100
AcDbEntity
  8
ASSI
100
AcDbLine
 62
7
  6
CONTINUOUS
 10
13.7515602146
 20
-10.3169405133
 11
13.4597388341
 21
-10.3801320572
  0
LINE
  5
265
100
AcDbEntity
  8
0
100
AcDbLine
 62
250
  6
CONTINUOUS
 10
18.3044104267
 20
-8.8069462734
 11
18.1
 21
-8.851702155
  0
LWPOLYLINE
  5
266
100
AcDbEntity
  8
ASSI
100
AcDbPolyline
 62
7
  6
CONTINUOUS
 90
3
 70
0
 10
18.2867906129
 20
-9.3184581739
 10
18.0935279169
 20
-9.3600087735
 10
17.8997684407
 20
-9.4003292419
  0
LWPOLYLINE
  5
267
100
AcDbEntity
  8
ASSI
100
AcDbPolyline
 62
7
  6
CONTINUOUS
 90
3
 70
0
 10
16.5277408293
 20
-9.6932811436
 10
16.9121377401
 20
-9.61141494
 10
17.2909782474
 20
-9.5333056666
  0
LWPOLYLINE
  5
268
100
AcDbEntity
  8
ASSI
100
AcDbPolyline
 62
7
  6
CONTINUOUS
 90
3
 70
0
 10
17.7241084264
 20
-9.4361834069
 10
18.5005898013
 20
-9.2711964354
 10
18.865105155
 20
-9.1863119171
  0
LINE
  5
269
100
AcDbEntity
  8
ASSI
100
AcDbLine
 62
7
  6
CONTINUOUS
 10
13.7434322782
 20
-10.3196363601
 11
13.4391461094
 21
-10.3844584779
  0
LINE
  5
26A
100
AcDbEntity
  8
ASSI
100
AcDbLine
 62
7
  6
CONTINUOUS
 10
13.2789392109
 20
-10.4175905031
 11
13.4391461094
 21
-10.3844584779
  0
LINE
  5
26B
100
AcDbEntity
  8
ASSI
100
AcDbLine
 62
7
  6
CONTINUOUS
 10
17.2909782474
 20
-9.5333056666
 11
17.564651559
 21
-9.4778364306
  0
LINE
  5
26C
100
AcDbEntity
  8
ASSI
100
AcDbLine
 62
7
  6
CONTINUOUS
 10
17.8997684407
 20
-9.4003292419
 11
17.7035841711
 21
-9.4397917201
  0
LINE
  5
26D
100
AcDbEntity
  8
ASSI
100
AcDbLine
 62
7
  6
CONTINUOUS
 10
17.564651559
 20
-9.4778364306
 11
17.6701356267
 21
-9.4567005652
  0
LWPOLYLINE
  5
26E
100
AcDbEntity
  8
ASSI
100
AcDbPolyline
 62
250
  6
CONTINUOUS
 90
4
 70
0
 10
17.5427981174
 20
-9.4822642831
 10
17.3025441057
 20
-9.5293928579
 10
16.9229623815
 20
-9.5980686184
 10
16.5385108379
 20
-9.6612832593
  0
LINE
  5
26F
100
AcDbEntity
  8
ASSI
100
AcDbLine
 62
7
  6
CONTINUOUS
 10
17.7035841711
 20
-9.4397917201
 11
17.5115417085
 21
-9.4771210289
  0
LWPOLYLINE
  5
270
100
AcDbEntity
  8
ASSI
100
AcDbPolyline
 62
7
  6
CONTINUOUS
 90
6
 70
0
 10
17.5115417085
 20
-9.4771210289
 10
17.316088621
 20
-9.5137726449
 10
17.1209209425
 20
-9.5490349861
 10
16.9249877362
 20
-9.5830980249
 10
16.7282753356
 20
-9.6159527835
 10
16.6312561561
 20
-9.6314983473
  0
LWPOLYLINE
  5
271
100
AcDbEntity
  8
0
100
AcDbPolyline
 62
250
  6
CONTINUOUS
 90
15
 70
0
 10
17.3686047846
 20
-9.0000000056
 10
17.1978659357
 20
-9.0319942441
 10
17.0165362562
 20
-9.0644443677
 10
16.8246157463
 20
-9.0973503764
 10
16.6231680312
 20
-9.1308310132
 10
16.4111294856
 20
-9.1647675352
 10
16.1853092333
 20
-9.1988037127
 10
15.9386662165
 20
-9.2337373034
 10
15.6782414929
 20
-9.2687705498
 10
15.4219673596
 20
-9.3011539489
 10
15.1750514986
 20
-9.3297198727
 10
14.932286228
 20
-9.3556359494
 10
14.6959807979
 20
-9.3796555604
 10
14.4671013026
 20
-9.4017637411
 10
14.2446816479
 20
-9.4219754561
  0
LWPOLYLINE
  5
272
100
AcDbEntity
  8
ASSI
100
AcDbPolyline
 62
250
  6
CONTINUOUS
 90
4
 70
0
 10
11.9951652811
 20
-10.4005254948
 10
12.4113414482
 20
-10.323610633
 10
12.7949205708
 20
-10.2475465111
 10
13.1449366409
 20
-10.1731333101
  0
LINE
  5
273
100
AcDbEntity
  8
ASSI
100
AcDbLine
 62
7
  6
CONTINUOUS
 10
17.113756868
 20
-9.5480358997
 11
17.7241084264
 21
-9.4361834069
  0
LINE
  5
274
100
AcDbEntity
  8
ASSI
100
AcDbLine
 62
250
  6
CONTINUOUS
 10
11.5481285265
 20
-10.4775952931
 11
11.9951652811
 21
-10.4005254948
  0
LINE
  5
275
100
AcDbEntity
  8
ASSI
100
AcDbLine
 62
250
  6
CONTINUOUS
 10
15.1526876921
 20
-9.8341479316
 11
14.9004849453
 21
-9.8756229359
  0
LINE
  5
276
100
AcDbEntity
  8
ASSI
100
AcDbLine
 62
250
  6
CONTINUOUS
 10
14.9004849453
 20
-9.8756229359
 11
14.7921418277
 21
-9.8923837656
  0
LWPOLYLINE
  5
277
100
AcDbEntity
  8
ASSI
100
AcDbPolyline
 62
7
  6
CONTINUOUS
 90
10
 70
0
 10
16.4695674374
 20
-9.6592455332
 10
16.7070394843
 20
-9.6231904557
 10
16.9419754241
 20
-9.5856904197
 10
17.1743050845
 20
-9.5467009762
 10
17.4018077746
 20
-9.5065678779
 10
17.6282336215
 20
-9.4645857198
 10
17.8624043849
 20
-9.4188993873
 10
18.1236025827
 20
-9.3650226701
 10
18.394491243
 20
-9.3057114001
 10
18.6314991824
 20
-9.2507662622
  0
LINE
  5
278
100
AcDbEntity
  8
ASSI
100
AcDbLine
 62
250
  6
CONTINUOUS
 10
16.5385108379
 20
-9.6612832593
 11
16.1486339582
 21
-9.719860745
  0
LINE
  5
279
100
AcDbEntity
  8
ASSI
100
AcDbLine
 62
7
  6
CONTINUOUS
 10
9.3167536422
 20
-11.0235738773
 11
9.2746778378
 21
-11.029668014
  0
LWPOLYLINE
  5
27A
100
AcDbEntity
  8
ASSI
100
AcDbPolyline
 62
250
  6
CONTINUOUS
 90
7
 70
0
 10
14.7921418277
 20
-9.8923837656
 10
14.5445678962
 20
-9.9284773234
 10
14.4069571866
 20
-9.9478708825
 10
14.2579923458
 20
-9.9680434945
 10
14.0969612197
 20
-9.9888836266
 10
13.9250914836
 20
-10.0104506717
 10
13.7426856728
 20
-10.0327624523
  0
LINE
  5
27B
100
AcDbEntity
  8
ASSI
100
AcDbLine
 62
7
  6
CONTINUOUS
 10
16.1697324382
 20
-9.7023337719
 11
16.4695674374
 21
-9.6592455332
  0
LINE
  5
27C
100
AcDbEntity
  8
ASSI
100
AcDbLine
 62
250
  6
CONTINUOUS
 10
16.1486339582
 20
-9.719860745
 11
15.7459694413
 21
-9.7755405208
  0
LINE
  5
27D
100
AcDbEntity
  8
ASSI
100
AcDbLine
 62
7
  6
CONTINUOUS
 10
15.9839116702
 20
-9.7276695875
 11
16.2289679819
 21
-9.6939968705
  0
LINE
  5
27E
100
AcDbEntity
  8
ASSI
100
AcDbLine
 62
250
  6
CONTINUOUS
 10
15.7459694413
 20
-9.7755405208
 11
15.3251781756
 21
-9.8296268064
  0
LWPOLYLINE
  5
27F
100
AcDbEntity
  8
ASSI
100
AcDbPolyline
 62
7
  6
CONTINUOUS
 90
4
 70
0
 10
9.2746778378
 20
-11.029668014
 10
9.2152916101
 20
-11.0372487251
 10
9.1617581923
 20
-11.0434189367
 10
9.0358911542
 20
-11.0573619998
  0
LINE
  5
280
100
AcDbEntity
  8
ASSI
100
AcDbLine
 62
250
  6
CONTINUOUS
 10
15.3048337707
 20
-9.8317862072
 11
15.325443394
 21
-9.8292470473
  0
LWPOLYLINE
  5
281
100
AcDbEntity
  8
ASSI
100
AcDbPolyline
 62
7
  6
CONTINUOUS
 90
7
 70
0
 10
9.3747606828
 20
-11.0192440588
 10
10.1294699927
 20
-10.9274805862
 10
10.8469541945
 20
-10.8307726448
 10
11.5240250951
 20
-10.7301437642
 10
12.1568424026
 20
-10.6268725369
 10
12.7426260903
 20
-10.5222349923
 10
13.2789392109
 20
-10.4175905031
  0
LWPOLYLINE
  5
282
100
AcDbEntity
  8
ASSI
100
AcDbPolyline
 62
250
  6
CONTINUOUS
 90
6
 70
0
 10
8.8933394942
 20
-10.8413175485
 10
9.474837502
 20
-10.7735252317
 10
10.0324852754
 20
-10.7027073885
 10
10.5650627229
 20
-10.629395915
 10
11.0710823724
 20
-10.5541338032
 10
11.5481285265
 20
-10.4775952931
  0
LINE
  5
283
100
AcDbEntity
  8
ASSI
100
AcDbLine
 62
7
  6
CONTINUOUS
 10
8.5857024945
 20
-11.1052058886
 11
9.3747606828
 21
-11.0192440588
  0
LINE
  5
284
100
AcDbEntity
  8
ASSI
100
AcDbLine
 62
7
  6
CONTINUOUS
 10
8.9630446419
 20
-11.0628507165
 11
8.7182770986
 21
-11.0889132758
  0
LINE
  5
285
100
AcDbEntity
  8
ASSI
100
AcDbLine
 62
250
  6
CONTINUOUS
 10
8.2903341543
 20
-10.9054955974
 11
8.8933394942
 21
-10.8413175485
  0
LWPOLYLINE
  5
286
100
AcDbEntity
  8
ASSI
100
AcDbPolyline
 62
7
  6
CONTINUOUS
 90
3
 70
0
 10
9.0358911542
 20
-11.0573619998
 10
9.0070004134
 20
-11.0602935847
 10
8.9856546741
 20
-11.0616341702
  0
LWPOLYLINE
  5
287
100
AcDbEntity
  8
ASSI
100
AcDbPolyline
 62
7
  6
CONTINUOUS
 90
7
 70
0
 10
14.2967474546
 20
-9.914759784
 10
15.0857657484
 20
-9.838316832
 10
15.8555898272
 20
-9.745640303
 10
16.6177203631
 20
-9.633839754
 10
17.3758631011
 20
-9.5026970491
 10
18.125010819
 20
-9.3533259845
 10
18.8650632972
 20
-9.1861370032
  0
LINE
  5
288
100
AcDbEntity
  8
ASSI
100
AcDbLine
 62
7
  6
CONTINUOUS
 10
7.7669989764
 20
-11.1843840168
 11
8.5857024945
 21
-11.1052058886
  0
LINE
  5
289
100
AcDbEntity
  8
ASSI
100
AcDbLine
 62
250
  6
CONTINUOUS
 10
7.6676468124
 20
-10.965702814
 11
8.2903341543
 21
-10.9054955974
  0
LWPOLYLINE
  5
28A
100
AcDbEntity
  8
ASSI
100
AcDbPolyline
 62
7
  6
CONTINUOUS
 90
4
 70
0
 10
7.8338928347
 20
-11.1754661148
 10
7.4460017393
 20
-11.2098631891
 10
7.1280451841
 20
-11.236543649
 10
6.9361457945
 20
-11.251989542
  0
LINE
  5
28B
100
AcDbEntity
  8
ASSI
100
AcDbLine
 62
250
  6
CONTINUOUS
 10
7.0268110625
 20
-11.0215908712
 11
7.6676468124
 21
-10.965702814
  0
LWPOLYLINE
  5
28C
100
AcDbEntity
  8
0
100
AcDbPolyline
 62
250
  6
CONTINUOUS
 90
3
 70
0
 10
14.2446816479
 20
-9.4219754561
 10
13.8180348481
 20
-9.4592678633
 10
13.6138077031
 20
-9.4763485554
  0
LINE
  5
28D
100
AcDbEntity
  8
ASSI
100
AcDbLine
 62
7
  6
CONTINUOUS
 10
6.923226564
 20
-11.2560688548
 11
7.7669989764
 21
-11.1843840168
  0
LWPOLYLINE
  5
28E
100
AcDbEntity
  8
ASSI
100
AcDbPolyline
 62
7
  6
CONTINUOUS
 90
3
 70
0
 10
13.3814967669
 20
-9.9926970363
 10
14.3088151151
 20
-9.915202978
 10
14.6142141585
 20
-9.8840024591
  0
LWPOLYLINE
  5
28F
100
AcDbEntity
  8
0
100
AcDbPolyline
 62
250
  6
CONTINUOUS
 90
8
 70
0
 10
13.6138077031
 20
-9.4763485554
 10
13.2211558105
 20
-9.5078289596
 10
13.032731063
 20
-9.5222286718
 10
12.8299850626
 20
-9.5370734098
 10
12.6054593218
 20
-9.5529558342
 10
12.366612328
 20
-9.5692832846
 10
12.1179567681
 20
-9.5855133608
 10
11.8512125932
 20
-9.6019183609
  0
LINE
  5
290
100
AcDbEntity
  8
ASSI
100
AcDbLine
 62
250
  6
CONTINUOUS
 10
6.3699075967
 20
-11.0727757985
 11
7.0268110625
 21
-11.0215908712
  0
LINE
  5
291
100
AcDbEntity
  8
ASSI
100
AcDbLine
 62
7
  6
CONTINUOUS
 10
13.0517107931
 20
-10.0166429512
 11
13.3814967669
 21
-9.9926970363
  0
LWPOLYLINE
  5
292
100
AcDbEntity
  8
ASSI
100
AcDbPolyline
 62
7
  6
CONTINUOUS
 90
3
 70
0
 10
11.8003411214
 20
-10.1015399486
 10
12.6522094834
 20
-10.046627522
 10
13.4843710063
 20
-9.984169639
  0
LINE
  5
293
100
AcDbEntity
  8
0
100
AcDbLine
 62
250
  6
CONTINUOUS
 10
11.8512125932
 20
-9.6019183609
 11
11.3176513789
 21
-9.6330769444
  0
LINE
  5
294
100
AcDbEntity
  8
0
100
AcDbLine
 62
250
  6
CONTINUOUS
 10
11.3176513789
 20
-9.6330769444
 11
10.8825295885
 21
-9.6573015312
  0
LINE
  5
295
100
AcDbEntity
  8
ASSI
100
AcDbLine
 62
7
  6
CONTINUOUS
 10
8.9856546741
 20
-11.0616341702
 11
8.9630446419
 21
-11.0628507165
  0
LINE
  5
296
100
AcDbEntity
  8
0
100
AcDbLine
 62
250
  6
CONTINUOUS
 10
10.8825295885
 20
-9.6573015312
 11
10.3824789345
 21
-9.6839998741
  0
LINE
  5
297
100
AcDbEntity
  8
0
100
AcDbLine
 62
250
  6
CONTINUOUS
 10
10.3824789345
 20
-9.6839998741
 11
9.9254940915
 21
-9.70728274
  0
LINE
  5
298
100
AcDbEntity
  8
0
100
AcDbLine
 62
250
  6
CONTINUOUS
 10
9.9254940915
 20
-9.70728274
 11
9.4482225717
 21
-9.7304973617
  0
LINE
  5
299
100
AcDbEntity
  8
0
100
AcDbLine
 62
250
  6
CONTINUOUS
 10
9.4482225717
 20
-9.7304973617
 11
8.9873066503
 21
-9.7518559169
  0
LWPOLYLINE
  5
29A
100
AcDbEntity
  8
ASSI
100
AcDbPolyline
 62
250
  6
CONTINUOUS
 90
9
 70
0
 10
-15.1380549281
 20
-9.8365726654
 10
-15.158965028
 20
-9.837495247
 10
-15.1798788038
 20
-9.837982
 10
-15.200787112
 20
-9.8380333755
 10
-15.2216872413
 20
-9.8376496416
 10
-15.2425637178
 20
-9.8368311694
 10
-15.2633883486
 20
-9.8355797645
 10
-15.2841458434
 20
-9.8338976647
 10
-15.3048337707
 20
-9.8317862072
  0
LINE
  5
29B
100
AcDbEntity
  8
0
100
AcDbLine
 62
250
  6
CONTINUOUS
 10
8.9873066503
 20
-9.7518559169
 11
8.4957098278
 21
-9.7734222624
  0
LINE
  5
29C
100
AcDbEntity
  8
0
100
AcDbLine
 62
250
  6
CONTINUOUS
 10
8.4957098278
 20
-9.7734222624
 11
7.9442610634
 21
-9.796175594
  0
LINE
  5
29D
100
AcDbEntity
  8
0
100
AcDbLine
 62
250
  6
CONTINUOUS
 10
7.9442610634
 20
-9.796175594
 11
7.5437872305
 21
-9.8117290152
  0
LINE
  5
29E
100
AcDbEntity
  8
0
100
AcDbLine
 62
250
  6
CONTINUOUS
 10
7.5437872305
 20
-9.8117290152
 11
7.1141959244
 21
-9.8275274381
  0
LINE
  5
29F
100
AcDbEntity
  8
0
100
AcDbLine
 62
250
  6
CONTINUOUS
 10
7.1141959244
 20
-9.8275274381
 11
6.6438217384
 21
-9.8437620297
  0
LINE
  5
2A0
100
AcDbEntity
  8
0
100
AcDbLine
 62
250
  6
CONTINUOUS
 10
6.6438217384
 20
-9.8437620297
 11
6.1471790559
 21
-9.8596890601
  0
LINE
  5
2A1
100
AcDbEntity
  8
0
100
AcDbLine
 62
250
  6
CONTINUOUS
 10
6.1471790559
 20
-9.8596890601
 11
5.624231994
 21
-9.8751232562
  0
LINE
  5
2A2
100
AcDbEntity
  8
ASSI
100
AcDbLine
 62
7
  6
CONTINUOUS
 10
5.5287184433
 20
-10.4185916175
 11
5.4834434245
 21
-10.4198830272
  0
LINE
  5
2A3
100
AcDbEntity
  8
0
100
AcDbLine
 62
250
  6
CONTINUOUS
 10
5.624231994
 20
-9.8751232562
 11
5.0474386857
 21
-9.8904857937
  0
LINE
  5
2A4
100
AcDbEntity
  8
0
100
AcDbLine
 62
250
  6
CONTINUOUS
 10
5.0474386857
 20
-9.8904857937
 11
4.5102475066
 21
-9.9034649703
  0
LINE
  5
2A5
100
AcDbEntity
  8
0
100
AcDbLine
 62
250
  6
CONTINUOUS
 10
4.5102475066
 20
-9.9034649703
 11
4.0216467323
 21
-9.9138658584
  0
LINE
  5
2A6
100
AcDbEntity
  8
0
100
AcDbLine
 62
250
  6
CONTINUOUS
 10
4.0216467323
 20
-9.9138658584
 11
3.5215149748
 21
-9.9233095846
  0
LINE
  5
2A7
100
AcDbEntity
  8
ASSI
100
AcDbLine
 62
250
  6
CONTINUOUS
 10
-13.7429595716
 20
-10.0326426202
 11
-13.4374811682
 21
-10.0273701518
  0
LINE
  5
2A8
100
AcDbEntity
  8
0
100
AcDbLine
 62
250
  6
CONTINUOUS
 10
3.5215149748
 20
-9.9233095846
 11
3.0223655651
 21
-9.9314692705
  0
LINE
  5
2A9
100
AcDbEntity
  8
0
100
AcDbLine
 62
250
  6
CONTINUOUS
 10
3.0223655651
 20
-9.9314692705
 11
2.5441288784
 21
-9.9381660437
  0
LWPOLYLINE
  5
2AA
100
AcDbEntity
  8
ASSI
100
AcDbPolyline
 62
250
  6
CONTINUOUS
 90
3
 70
0
 10
-13.4374811682
 20
-10.0273701518
 10
-13.1097348031
 20
-10.0228745748
 10
-12.9881426272
 20
-10.0214140599
  0
LINE
  5
2AB
100
AcDbEntity
  8
0
100
AcDbLine
 62
250
  6
CONTINUOUS
 10
2.5441288784
 20
-9.9381660437
 11
2.1747917834
 21
-9.9425858663
  0
LINE
  5
2AC
100
AcDbEntity
  8
0
100
AcDbLine
 62
250
  6
CONTINUOUS
 10
2.1747917834
 20
-9.9425858663
 11
1.7877970934
 21
-9.9463530477
  0
LWPOLYLINE
  5
2AD
100
AcDbEntity
  8
0
100
AcDbPolyline
 62
250
  6
CONTINUOUS
 90
7
 70
0
 10
1.7877970934
 20
-9.9463530477
 10
1.1407788325
 20
-9.9512402853
 10
0.9180032223
 20
-9.9525300649
 10
0.6924225405
 20
-9.9531671988
 10
0.4644200986
 20
-9.9530034899
 10
0.2336125851
 20
-9.9521871353
 10
0.0
 20
-9.950718135
  0
LWPOLYLINE
  5
2AE
100
AcDbEntity
  8
ASSI
100
AcDbPolyline
 62
250
  6
CONTINUOUS
 90
10
 70
0
 10
0.0
 20
-11.2930235955
 10
0.730564254
 20
-11.2907926847
 10
1.459390031
 20
-11.2830689771
 10
2.1844581666
 20
-11.2697885532
 10
2.904082944
 20
-11.2509059403
 10
3.616683714
 20
-11.2263708541
 10
4.3212123945
 20
-11.1961817938
 10
5.0159161056
 20
-11.1603511235
 10
5.6991156993
 20
-11.1190943674
 10
6.3699075967
 20
-11.0727757985
  0
LWPOLYLINE
  5
2AF
100
AcDbEntity
  8
ASSI
100
AcDbPolyline
 62
7
  6
CONTINUOUS
 90
9
 70
0
 10
0.0000000394
 20
-11.5200213758
 10
0.5374629694
 20
-11.5184868589
 10
1.4760367513
 20
-11.5084683663
 10
2.4122202904
 20
-11.4890696616
 10
3.3424931167
 20
-11.4603148955
 10
4.2627529699
 20
-11.4223340589
 10
5.1688969874
 20
-11.3753925937
 10
6.0566891419
 20
-11.3198456599
 10
6.923226564
 20
-11.2560688548
  0
LINE
  5
2B0
100
AcDbEntity
  8
ASSI
100
AcDbLine
 62
7
  6
CONTINUOUS
 10
-0.340298
 20
-10.4497168251
 11
-0.5166845192
 21
-10.449339479
  0
LWPOLYLINE
  5
2B1
100
AcDbEntity
  8
0
100
AcDbPolyline
 62
250
  6
CONTINUOUS
 90
5
 70
0
 10
-0.8859382689
 20
-9.9526748929
 10
-0.6680940509
 20
-9.9532499366
 10
-0.4479685144
 20
-9.9530424325
 10
-0.2252704974
 20
-9.9521984986
 10
0.0
 20
-9.950718135
  0
LWPOLYLINE
  5
2B2
100
AcDbEntity
  8
ASSI
100
AcDbPolyline
 62
250
  6
CONTINUOUS
 90
10
 70
0
 10
0.0
 20
-11.2930235956
 10
-0.730564254
 20
-11.2907926847
 10
-1.459390031
 20
-11.2830689771
 10
-2.1844581666
 20
-11.2697885532
 10
-2.904082944
 20
-11.2509059403
 10
-3.616683714
 20
-11.2263708541
 10
-4.3212123945
 20
-11.1961817938
 10
-5.0159161056
 20
-11.1603511235
 10
-5.6991156993
 20
-11.1190943674
 10
-6.3699075967
 20
-11.0727757985
  0
LINE
  5
2B3
100
AcDbEntity
  8
0
100
AcDbLine
 62
250
  6
CONTINUOUS
 10
-1.5231037127
 20
-9.9485571633
 11
-0.8859382689
 21
-9.9526748929
  0
LINE
  5
2B4
100
AcDbEntity
  8
0
100
AcDbLine
 62
250
  6
CONTINUOUS
 10
-2.2716926466
 20
-9.9415106678
 11
-1.5231037127
 21
-9.9485571633
  0
LINE
  5
2B5
100
AcDbEntity
  8
0
100
AcDbLine
 62
250
  6
CONTINUOUS
 10
-2.9033285512
 20
-9.9332488547
 11
-2.2716926466
 21
-9.9415106678
  0
LINE
  5
2B6
100
AcDbEntity
  8
ASSI
100
AcDbLine
 62
250
  6
CONTINUOUS
 10
13.4374811682
 20
-10.0273701518
 11
12.9843903638
 21
-10.0213689893
  0
LINE
  5
2B7
100
AcDbEntity
  8
0
100
AcDbLine
 62
250
  6
CONTINUOUS
 10
-3.3775450004
 20
-9.9257898209
 11
-2.9033285512
 21
-9.9332488547
  0
LINE
  5
2B8
100
AcDbEntity
  8
ASSI
100
AcDbLine
 62
250
  6
CONTINUOUS
 10
13.7429595716
 20
-10.0326426202
 11
13.4374811682
 21
-10.0273701518
  0
LINE
  5
2B9
100
AcDbEntity
  8
0
100
AcDbLine
 62
250
  6
CONTINUOUS
 10
-3.8609227817
 20
-9.9170400442
 11
-3.3775450004
 21
-9.9257898209
  0
LINE
  5
2BA
100
AcDbEntity
  8
ASSI
100
AcDbLine
 62
7
  6
CONTINUOUS
 10
-3.136667977
 20
-10.4649393715
 11
-3.3657118207
 21
-10.4606142558
  0
LINE
  5
2BB
100
AcDbEntity
  8
0
100
AcDbLine
 62
250
  6
CONTINUOUS
 10
-4.3283969818
 20
-9.9074865784
 11
-3.8609227817
 21
-9.9170400442
  0
LINE
  5
2BC
100
AcDbEntity
  8
ASSI
100
AcDbLine
 62
7
  6
CONTINUOUS
 10
-3.3657118207
 20
-10.4606142558
 11
-3.5910990341
 21
-10.4558180744
  0
LINE
  5
2BD
100
AcDbEntity
  8
0
100
AcDbLine
 62
250
  6
CONTINUOUS
 10
-4.8363229607
 20
-9.8957363095
 11
-4.3283969818
 21
-9.9074865784
  0
LWPOLYLINE
  5
2BE
100
AcDbEntity
  8
ASSI
100
AcDbPolyline
 62
7
  6
CONTINUOUS
 90
4
 70
0
 10
-3.5910990341
 20
-10.4558180744
 10
-3.8071952585
 20
-10.4506619982
 10
-4.0139141272
 20
-10.4451354866
 10
-4.2113395313
 20
-10.4392317473
  0
LINE
  5
2BF
100
AcDbEntity
  8
0
100
AcDbLine
 62
250
  6
CONTINUOUS
 10
-5.3818526986
 20
-9.8818106086
 11
-4.8363229607
 21
-9.8957363095
  0
LINE
  5
2C0
100
AcDbEntity
  8
0
100
AcDbLine
 62
250
  6
CONTINUOUS
 10
-5.9038048205
 20
-9.8670283105
 11
-5.3818526986
 21
-9.8818106086
  0
LINE
  5
2C1
100
AcDbEntity
  8
0
100
AcDbLine
 62
250
  6
CONTINUOUS
 10
-6.3999969215
 20
-9.8517429494
 11
-5.9038048205
 21
-9.8670283105
  0
LINE
  5
2C2
100
AcDbEntity
  8
0
100
AcDbLine
 62
250
  6
CONTINUOUS
 10
-6.8665046585
 20
-9.836213468
 11
-6.3999969215
 21
-9.8517429494
  0
LINE
  5
2C3
100
AcDbEntity
  8
0
100
AcDbLine
 62
250
  6
CONTINUOUS
 10
-7.5064456966
 20
-9.813140431
 11
-6.8665046585
 21
-9.836213468
  0
LINE
  5
2C4
100
AcDbEntity
  8
0
100
AcDbLine
 62
250
  6
CONTINUOUS
 10
-8.0805895571
 20
-9.7906851302
 11
-7.5064456966
 21
-9.813140431
  0
LINE
  5
2C5
100
AcDbEntity
  8
0
100
AcDbLine
 62
250
  6
CONTINUOUS
 10
-8.7586356459
 20
-9.7620391678
 11
-8.0805895571
 21
-9.7906851302
  0
LWPOLYLINE
  5
2C6
100
AcDbEntity
  8
ASSI
100
AcDbPolyline
 62
250
  6
CONTINUOUS
 90
9
 70
0
 10
15.1380549281
 20
-9.8365726654
 10
15.158965028
 20
-9.837495247
 10
15.1798788038
 20
-9.837982
 10
15.200787112
 20
-9.8380333755
 10
15.2216872413
 20
-9.8376496416
 10
15.2425637178
 20
-9.8368311694
 10
15.2633883486
 20
-9.8355797645
 10
15.2841458434
 20
-9.8338976647
 10
15.3048337707
 20
-9.8317862072
  0
LINE
  5
2C7
100
AcDbEntity
  8
0
100
AcDbLine
 62
250
  6
CONTINUOUS
 10
-9.5112088095
 20
-9.7275052499
 11
-8.7586356459
 21
-9.7620391678
  0
LINE
  5
2C8
100
AcDbEntity
  8
0
100
AcDbLine
 62
250
  6
CONTINUOUS
 10
-10.25861514
 20
-9.6904064692
 11
-9.5112088095
 21
-9.7275052499
  0
LINE
  5
2C9
100
AcDbEntity
  8
ASSI
100
AcDbLine
 62
7
  6
CONTINUOUS
 10
-8.9630446419
 20
-11.0628507165
 11
-8.9856546741
 21
-11.0616341702
  0
LINE
  5
2CA
100
AcDbEntity
  8
0
100
AcDbLine
 62
250
  6
CONTINUOUS
 10
-10.8969921268
 20
-9.6564952747
 11
-10.25861514
 21
-9.6904064692
  0
LINE
  5
2CB
100
AcDbEntity
  8
0
100
AcDbLine
 62
250
  6
CONTINUOUS
 10
-11.3276246696
 20
-9.6325953592
 11
-10.8969921268
 21
-9.6564952747
  0
LWPOLYLINE
  5
2CC
100
AcDbEntity
  8
ASSI
100
AcDbPolyline
 62
7
  6
CONTINUOUS
 90
6
 70
0
 10
-4.912703
 20
-10.4096986493
 10
-4.9642595578
 20
-10.4066688234
 10
-5.0610098392
 20
-10.3997885275
 10
-5.1367007363
 20
-10.3929739393
 10
-5.1907931938
 20
-10.3862339431
 10
-5.2116662754
 20
-10.3820104373
  0
LWPOLYLINE
  5
2CD
100
AcDbEntity
  8
ASSI
100
AcDbPolyline
 62
7
  6
CONTINUOUS
 90
4
 70
0
 10
-8.9856546741
 20
-11.0616341702
 10
-9.0070004134
 20
-11.0602935847
 10
-9.0358911542
 20
-11.0573619998
 10
-9.1617581923
 20
-11.0434189367
  0
LWPOLYLINE
  5
2CE
100
AcDbEntity
  8
ASSI
100
AcDbPolyline
 62
7
  6
CONTINUOUS
 90
10
 70
0
 10
-11.8003411214
 20
-10.1015399486
 10
-12.6522094834
 20
-10.046627522
 10
-13.4843710063
 20
-9.984169639
 10
-14.2967474546
 20
-9.914759784
 10
-15.0857657484
 20
-9.838316832
 10
-15.8555898272
 20
-9.745640303
 10
-16.6177203631
 20
-9.633839754
 10
-17.3758631011
 20
-9.5026970491
 10
-18.125010819
 20
-9.3533259845
 10
-18.8650632972
 20
-9.1861370032
  0
LWPOLYLINE
  5
2CF
100
AcDbEntity
  8
0
100
AcDbPolyline
 62
250
  6
CONTINUOUS
 90
6
 70
0
 10
-12.7775819659
 20
-9.5408373595
 10
-12.5596902335
 20
-9.5562548703
 10
-12.3295053833
 20
-9.5717917827
 10
-12.0788014055
 20
-9.5877857217
 10
-11.8158043097
 20
-9.6038990623
 10
-11.3276246696
 20
-9.6325953592
  0
LWPOLYLINE
  5
2D0
100
AcDbEntity
  8
ASSI
100
AcDbPolyline
 62
7
  6
CONTINUOUS
 90
3
 70
0
 10
-9.058641
 20
-10.2701831552
 10
-9.1823870592
 20
-10.2613289982
 10
-9.2976546912
 20
-10.252046295
  0
LINE
  5
2D1
100
AcDbEntity
  8
ASSI
100
AcDbLine
 62
250
  6
CONTINUOUS
 10
-6.3699075967
 20
-11.0727757985
 11
-7.0268110625
 21
-11.0215908712
  0
LWPOLYLINE
  5
2D2
100
AcDbEntity
  8
0
100
AcDbPolyline
 62
250
  6
CONTINUOUS
 90
3
 70
0
 10
-13.3562949709
 20
-9.4972347378
 10
-13.1758843346
 20
-9.5113272932
 10
-12.7775819659
 20
-9.5408373595
  0
LWPOLYLINE
  5
2D3
100
AcDbEntity
  8
ASSI
100
AcDbPolyline
 62
7
  6
CONTINUOUS
 90
3
 70
0
 10
-14.3088151151
 20
-9.915202978
 10
-13.3814967669
 20
-9.9926970363
 10
-13.0517107931
 20
-10.0166429512
  0
LWPOLYLINE
  5
2D4
100
AcDbEntity
  8
ASSI
100
AcDbPolyline
 62
7
  6
CONTINUOUS
 90
3
 70
0
 10
-7.4460017393
 20
-11.2098631891
 10
-7.1280451841
 20
-11.236543649
 10
-6.9361457945
 20
-11.251989542
  0
LWPOLYLINE
  5
2D5
100
AcDbEntity
  8
ASSI
100
AcDbPolyline
 62
7
  6
CONTINUOUS
 90
10
 70
0
 10
-7.7669989765
 20
-11.1843840168
 10
-6.9232265641
 20
-11.2560688548
 10
-6.0566891421
 20
-11.3198456599
 10
-5.1688969876
 20
-11.3753925937
 10
-4.2627529701
 20
-11.4223340589
 10
-3.3424931168
 20
-11.4603148955
 10
-2.4122202905
 20
-11.4890696616
 10
-1.4760367514
 20
-11.5084683663
 10
-0.5374629695
 20
-11.5184868589
 10
-0.0000000395
 20
-11.5200213758
  0
LWPOLYLINE
  5
2D6
100
AcDbEntity
  8
0
100
AcDbPolyline
 62
250
  6
CONTINUOUS
 90
3
 70
0
 10
-13.9365289625
 20
-9.4490987895
 10
-13.7366172849
 20
-9.466120486
 10
-13.3562949709
 20
-9.4972347378
  0
LINE
  5
2D7
100
AcDbEntity
  8
ASSI
100
AcDbLine
 62
250
  6
CONTINUOUS
 10
-7.0268110625
 20
-11.0215908712
 11
-7.6676468124
 21
-10.965702814
  0
LINE
  5
2D8
100
AcDbEntity
  8
ASSI
100
AcDbLine
 62
7
  6
CONTINUOUS
 10
-7.8338928347
 20
-11.1754661148
 11
-7.4460017393
 21
-11.2098631891
  0
LWPOLYLINE
  5
2D9
100
AcDbEntity
  8
ASSI
100
AcDbPolyline
 62
7
  6
CONTINUOUS
 90
5
 70
0
 10
-9.2976546912
 20
-10.252046295
 10
-9.3943428438
 20
-10.2430632028
 10
-9.4699669796
 20
-10.234603144
 10
-9.5239863685
 20
-10.2266871146
 10
-9.5469907946
 20
-10.221519865
  0
LINE
  5
2DA
100
AcDbEntity
  8
ASSI
100
AcDbLine
 62
7
  6
CONTINUOUS
 10
-8.5857024945
 20
-11.1052058886
 11
-7.7669989765
 21
-11.1843840168
  0
LINE
  5
2DB
100
AcDbEntity
  8
ASSI
100
AcDbLine
 62
250
  6
CONTINUOUS
 10
-7.6676468124
 20
-10.965702814
 11
-8.2903341543
 21
-10.9054955974
  0
LINE
  5
2DC
100
AcDbEntity
  8
ASSI
100
AcDbLine
 62
7
  6
CONTINUOUS
 10
-14.6142141585
 20
-9.8840024591
 11
-14.3088151151
 21
-9.915202978
  0
LINE
  5
2DD
100
AcDbEntity
  8
ASSI
100
AcDbLine
 62
7
  6
CONTINUOUS
 10
-8.9630446419
 20
-11.0628507165
 11
-8.7182770986
 21
-11.0889132758
  0
LINE
  5
2DE
100
AcDbEntity
  8
ASSI
100
AcDbLine
 62
250
  6
CONTINUOUS
 10
-8.2903341543
 20
-10.9054955974
 11
-8.8933394942
 21
-10.8413175485
  0
LINE
  5
2DF
100
AcDbEntity
  8
ASSI
100
AcDbLine
 62
7
  6
CONTINUOUS
 10
-9.3747606828
 20
-11.0192440588
 11
-8.5857024945
 21
-11.1052058886
  0
LINE
  5
2E0
100
AcDbEntity
  8
ASSI
100
AcDbLine
 62
7
  6
CONTINUOUS
 10
-9.1617581923
 20
-11.0434189367
 11
-9.2152916101
 21
-11.0372487251
  0
LWPOLYLINE
  5
2E1
100
AcDbEntity
  8
ASSI
100
AcDbPolyline
 62
250
  6
CONTINUOUS
 90
6
 70
0
 10
-8.8933394942
 20
-10.8413175485
 10
-9.474837502
 20
-10.7735252317
 10
-10.0324852754
 20
-10.7027073885
 10
-10.5650627229
 20
-10.629395915
 10
-11.0710823724
 20
-10.5541338032
 10
-11.5481285265
 20
-10.4775952931
  0
LINE
  5
2E2
100
AcDbEntity
  8
ASSI
100
AcDbLine
 62
250
  6
CONTINUOUS
 10
-15.3048337707
 20
-9.8317862072
 11
-15.325443394
 21
-9.8292470473
  0
LWPOLYLINE
  5
2E3
100
AcDbEntity
  8
ASSI
100
AcDbPolyline
 62
7
  6
CONTINUOUS
 90
3
 70
0
 10
-9.2152916101
 20
-11.0372487251
 10
-9.2746778378
 20
-11.029668014
 10
-9.3167536422
 20
-11.0235738773
  0
LINE
  5
2E4
100
AcDbEntity
  8
ASSI
100
AcDbLine
 62
250
  6
CONTINUOUS
 10
-15.7459694413
 20
-9.7755405208
 11
-15.3251781756
 21
-9.8296268064
  0
LWPOLYLINE
  5
2E5
100
AcDbEntity
  8
ASSI
100
AcDbPolyline
 62
250
  6
CONTINUOUS
 90
5
 70
0
 10
-14.4069571866
 20
-9.9478708825
 10
-14.2579923458
 20
-9.9680434945
 10
-14.0969612197
 20
-9.9888836266
 10
-13.9250914836
 20
-10.0104506717
 10
-13.7426856728
 20
-10.0327624523
  0
LINE
  5
2E6
100
AcDbEntity
  8
ASSI
100
AcDbLine
 62
250
  6
CONTINUOUS
 10
-16.1486339582
 20
-9.719860745
 11
-15.7459694413
 21
-9.7755405208
  0
LINE
  5
2E7
100
AcDbEntity
  8
ASSI
100
AcDbLine
 62
7
  6
CONTINUOUS
 10
-15.9826619593
 20
-9.7278329161
 11
-16.3366191748
 21
-9.6785754108
  0
LINE
  5
2E8
100
AcDbEntity
  8
ASSI
100
AcDbLine
 62
7
  6
CONTINUOUS
 10
-16.4695674374
 20
-9.6592455332
 11
-16.2289679819
 21
-9.6939968705
  0
LINE
  5
2E9
100
AcDbEntity
  8
ASSI
100
AcDbLine
 62
250
  6
CONTINUOUS
 10
-16.5385108379
 20
-9.6612832593
 11
-16.1486339582
 21
-9.719860745
  0
LWPOLYLINE
  5
2EA
100
AcDbEntity
  8
ASSI
100
AcDbPolyline
 62
250
  6
CONTINUOUS
 90
4
 70
0
 10
-14.9004849453
 20
-9.8756229359
 10
-14.7921418277
 20
-9.8923837656
 10
-14.6729600644
 20
-9.9099912151
 10
-14.4069571866
 20
-9.9478708825
  0
LINE
  5
2EB
100
AcDbEntity
  8
ASSI
100
AcDbLine
 62
250
  6
CONTINUOUS
 10
-15.1526876921
 20
-9.8341479316
 11
-14.9004849453
 21
-9.8756229359
  0
LINE
  5
2EC
100
AcDbEntity
  8
ASSI
100
AcDbLine
 62
250
  6
CONTINUOUS
 10
-11.5481285265
 20
-10.4775952931
 11
-11.9951652811
 21
-10.4005254948
  0
LINE
  5
2ED
100
AcDbEntity
  8
ASSI
100
AcDbLine
 62
7
  6
CONTINUOUS
 10
-17.7241084264
 20
-9.4361834069
 11
-17.113756868
 21
-9.5480358997
  0
LWPOLYLINE
  5
2EE
100
AcDbEntity
  8
ASSI
100
AcDbPolyline
 62
250
  6
CONTINUOUS
 90
4
 70
0
 10
-11.9951652811
 20
-10.4005254948
 10
-12.4113414482
 20
-10.323610633
 10
-12.7949205708
 20
-10.2475465111
 10
-13.1449366409
 20
-10.1731333101
  0
LWPOLYLINE
  5
2EF
100
AcDbEntity
  8
ASSI
100
AcDbPolyline
 62
7
  6
CONTINUOUS
 90
6
 70
0
 10
-17.5115417085
 20
-9.4771210289
 10
-17.316088621
 20
-9.5137726449
 10
-17.1209209425
 20
-9.5490349861
 10
-16.9249877362
 20
-9.5830980249
 10
-16.7282753356
 20
-9.6159527835
 10
-16.6312561561
 20
-9.6314983473
  0
LWPOLYLINE
  5
2F0
100
AcDbEntity
  8
0
100
AcDbPolyline
 62
250
  6
CONTINUOUS
 90
16
 70
0
 10
-17.3685919273
 20
-9.0
 10
-17.2059367374
 20
-9.0305013918
 10
-17.0326299653
 20
-9.0615854425
 10
-16.848671611
 20
-9.093252152
 10
-16.6548264455
 20
-9.1256472345
 10
-16.4503296977
 20
-9.1586249759
 10
-16.232887055
 20
-9.1917482334
 10
-15.9963892029
 20
-9.2257148641
 10
-15.7469454559
 20
-9.259827011
 10
-15.500589444
 20
-9.2915539599
 10
-15.2618151315
 20
-9.3198957698
 10
-15.0261285541
 20
-9.3458523818
 10
-14.7960814501
 20
-9.3698929055
 10
-14.5724415312
 20
-9.3918983603
 10
-14.3544410856
 20
-9.4119877267
 10
-13.9365289625
 20
-9.4490987895
  0
LINE
  5
2F1
100
AcDbEntity
  8
ASSI
100
AcDbLine
 62
7
  6
CONTINUOUS
 10
-17.7035841711
 20
-9.4397917201
 11
-17.5115417085
 21
-9.4771210289
  0
LWPOLYLINE
  5
2F2
100
AcDbEntity
  8
ASSI
100
AcDbPolyline
 62
7
  6
CONTINUOUS
 90
7
 70
0
 10
-13.2789392109
 20
-10.4175905031
 10
-12.7426260903
 20
-10.5222349923
 10
-12.1568424026
 20
-10.6268725369
 10
-11.5240250952
 20
-10.7301437642
 10
-10.8469541946
 20
-10.8307726448
 10
-10.1294699928
 20
-10.9274805862
 10
-9.3747606828
 20
-11.0192440588
  0
LWPOLYLINE
  5
2F3
100
AcDbEntity
  8
ASSI
100
AcDbPolyline
 62
250
  6
CONTINUOUS
 90
4
 70
0
 10
-17.5417914987
 20
-9.4824681279
 10
-17.3025441057
 20
-9.5293928579
 10
-16.9229623815
 20
-9.5980686184
 10
-16.5385108379
 20
-9.6612832593
  0
LINE
  5
2F4
100
AcDbEntity
  8
ASSI
100
AcDbLine
 62
7
  6
CONTINUOUS
 10
-17.6341023962
 20
-9.4638632369
 11
-17.2909782474
 21
-9.5333056666
  0
LWPOLYLINE
  5
2F5
100
AcDbEntity
  8
ASSI
100
AcDbPolyline
 62
7
  6
CONTINUOUS
 90
3
 70
0
 10
-17.2909782474
 20
-9.5333056666
 10
-16.9121377401
 20
-9.61141494
 10
-16.5277408293
 20
-9.6932811436
  0
LINE
  5
2F6
100
AcDbEntity
  8
ASSI
100
AcDbLine
 62
7
  6
CONTINUOUS
 10
-13.4597388341
 20
-10.3801320572
 11
-13.2789392109
 21
-10.4175905031
  0
LINE
  5
2F7
100
AcDbEntity
  8
ASSI
100
AcDbLine
 62
7
  6
CONTINUOUS
 10
-18.5005898013
 20
-9.2711964354
 11
-17.7241084264
 21
-9.4361834069
  0
LWPOLYLINE
  5
2F8
100
AcDbEntity
  8
ASSI
100
AcDbPolyline
 62
7
  6
CONTINUOUS
 90
4
 70
0
 10
-18.2867906129
 20
-9.3184581739
 10
-18.0935279169
 20
-9.3600087735
 10
-17.8997684407
 20
-9.4003292419
 10
-17.7035841711
 20
-9.4397917201
  0
LINE
  5
2F9
100
AcDbEntity
  8
ASSI
100
AcDbLine
 62
7
  6
CONTINUOUS
 10
-13.7515602146
 20
-10.3169405133
 11
-13.4597388341
 21
-10.3801320572
  0
LINE
  5
2FA
100
AcDbEntity
  8
ASSI
100
AcDbLine
 62
7
  6
CONTINUOUS
 10
-16.5277408293
 20
-9.6932811436
 11
-16.160481634
 21
-9.7739543525
  0
LINE
  5
2FB
100
AcDbEntity
  8
0
100
AcDbLine
 62
250
  6
CONTINUOUS
 10
-18.3042056416
 20
-8.8069927274
 11
-18.1
 21
-8.851702155
  0
LINE
  5
2FC
100
AcDbEntity
  8
ASSI
100
AcDbLine
 62
7
  6
CONTINUOUS
 10
-16.160481634
 20
-9.7739543525
 11
-15.8013916787
 21
-9.8546736012
  0
LINE
  5
2FD
100
AcDbEntity
  8
ASSI
100
AcDbLine
 62
7
  6
CONTINUOUS
 10
-18.8470221274
 20
-9.198471789
 11
-18.8461427993
 21
-9.1986708693
  0
LINE
  5
2FE
100
AcDbEntity
  8
ASSI
100
AcDbLine
 62
250
  6
CONTINUOUS
 10
-13.1449366409
 20
-10.1731333101
 11
-13.4611185322
 21
-10.1012180025
  0
LWPOLYLINE
  5
2FF
100
AcDbEntity
  8
ASSI
100
AcDbPolyline
 62
7
  6
CONTINUOUS
 90
3
 70
0
 10
-18.4904948148
 20
-9.2731812282
 10
-18.4797380761
 20
-9.275642217
 10
-18.2867906129
 20
-9.3184581739
  0
LWPOLYLINE
  5
300
100
AcDbEntity
  8
ASSI
100
AcDbPolyline
 62
7
  6
CONTINUOUS
 90
5
 70
0
 10
-15.8013916787
 20
-9.8546736012
 10
-14.8896478629
 20
-10.0633049985
 10
-14.3184695367
 20
-10.1929138357
 10
-13.7434322782
 20
-10.3196363601
 10
-13.4596294625
 20
-10.3801572455
  0
LINE
  5
301
100
AcDbEntity
  8
0
100
AcDbLine
 62
250
  6
CONTINUOUS
 10
-18.5216045018
 20
-8.7575549374
 11
-18.3042056416
 21
-8.8069927274
  0
LWPOLYLINE
  5
302
100
AcDbEntity
  8
ASSI
100
AcDbPolyline
 62
7
  6
CONTINUOUS
 90
10
 70
0
 10
-18.6314991824
 20
-9.2507662622
 10
-18.394491243
 20
-9.3057114001
 10
-18.1236025827
 20
-9.3650226701
 10
-17.8624043849
 20
-9.4188993873
 10
-17.6282336215
 20
-9.4645857198
 10
-17.4018077746
 20
-9.5065678779
 10
-17.1743050845
 20
-9.5467009762
 10
-16.9419754241
 20
-9.5856904197
 10
-16.7070394843
 20
-9.6231904557
 10
-16.4695674374
 20
-9.6592455332
  0
LINE
  5
303
100
AcDbEntity
  8
ASSI
100
AcDbLine
 62
7
  6
CONTINUOUS
 10
-18.865105155
 20
-9.1863119171
 11
-18.5005898013
 21
-9.2711964354
  0
LINE
  5
304
100
AcDbEntity
  8
0
100
AcDbLine
 62
250
  6
CONTINUOUS
 10
-18.7521965807
 20
-8.7033887851
 11
-18.5216045018
 21
-8.7575549374
  0
LINE
  5
305
100
AcDbEntity
  8
ASSI
100
AcDbLine
 62
7
  6
CONTINUOUS
 10
-18.8488304052
 20
-9.1980390745
 11
-18.8470221274
 21
-9.198471789
  0
LINE
  5
306
100
AcDbEntity
  8
ASSI
100
AcDbLine
 62
7
  6
CONTINUOUS
 10
-18.8126572148
 20
-9.2069410557
 11
-18.6314991824
 21
-9.2507662622
  0
LINE
  5
307
100
AcDbEntity
  8
ASSI
100
AcDbLine
 62
250
  6
CONTINUOUS
 10
-13.4611185322
 20
-10.1012180025
 11
-13.7429595716
 21
-10.0326426202
  0
LINE
  5
308
100
AcDbEntity
  8
ASSI
100
AcDbLine
 62
7
  6
CONTINUOUS
 10
-18.8461427993
 20
-9.1986708693
 11
-18.8126572148
 21
-9.2069410557
  0
LINE
  5
309
100
AcDbEntity
  8
ASSI
100
AcDbLine
 62
7
  6
CONTINUOUS
 10
-18.8497558976
 20
-9.1978069638
 11
-18.8488304052
 21
-9.1980390745
  0
LINE
  5
30A
100
AcDbEntity
  8
ASSI
100
AcDbLine
 62
7
  6
CONTINUOUS
 10
-18.8701168716
 20
-9.1926030451
 11
-18.8496124754
 21
-9.1978514445
  0
LWPOLYLINE
  5
30B
100
AcDbEntity
  8
ASSI
100
AcDbPolyline
 62
250
  6
CONTINUOUS
 90
13
 70
0
 10
-18.7521965807
 20
-8.7033887851
 10
-18.8280923019
 20
-8.6809320637
 10
-18.9004908629
 20
-8.6514773536
 10
-18.9693922637
 20
-8.6150246548
 10
-19.0356025199
 20
-8.5710190228
 10
-19.0983156158
 20
-8.5200154022
 10
-19.1551135051
 20
-8.4636786263
 10
-19.2056477827
 20
-8.4017224701
 10
-19.2502668536
 20
-8.3344331587
 10
-19.287597886
 20
-8.2643342007
 10
-19.3171832692
 20
-8.1922667657
 10
-19.3394806138
 20
-8.1173896841
 10
-19.3544899199
 20
-8.0397029559
  0
LINE
  5
30C
100
AcDbEntity
  8
ASSI
100
AcDbLine
 62
7
  6
CONTINUOUS
 10
-8.951248637
 20
10.2495773365
 11
-8.951248637
 21
10.2796074295
  0
LINE
  5
30D
100
AcDbEntity
  8
ASSI
100
AcDbLine
 62
7
  6
CONTINUOUS
 10
-8.208599
 20
-10.3114817522
 11
-8.208599
 21
-10.2814657847
  0
LINE
  5
30E
100
AcDbEntity
  8
ASSI
100
AcDbLine
 62
250
  6
CONTINUOUS
 10
-7.647832
 20
10.3037139001
 11
-7.647832
 21
10.3337358589
  0
LINE
  5
30F
100
AcDbEntity
  8
ASSI
100
AcDbLine
 62
7
  6
CONTINUOUS
 10
-7.269009
 20
-10.3478621599
 11
-7.269009
 21
-10.317855698
  0
LINE
  5
310
100
AcDbEntity
  8
ASSI
100
AcDbLine
 62
7
  6
CONTINUOUS
 10
-6.329429
 20
-10.3798199835
 11
-6.329429
 21
-10.3498142773
  0
LINE
  5
311
100
AcDbEntity
  8
ASSI
100
AcDbLine
 62
7
  6
CONTINUOUS
 10
-5.657345
 20
10.3699650883
 11
-5.657345
 21
10.3999770997
  0
LINE
  5
312
100
AcDbEntity
  8
ASSI
100
AcDbLine
 62
7
  6
CONTINUOUS
 10
-5.479387
 20
-10.4049240052
 11
-5.479387
 21
-10.3749220668
  0
LINE
  5
313
100
AcDbEntity
  8
ASSI
100
AcDbLine
 62
7
  6
CONTINUOUS
 10
-5.2901105091
 20
-4.922267437
 11
-5.2901105091
 21
-5.1272912025
  0
LINE
  5
314
100
AcDbEntity
  8
ASSI
100
AcDbLine
 62
7
  6
CONTINUOUS
 10
-5.090661
 20
10.3852039712
 11
-5.090661
 21
10.4152136975
  0
LINE
  5
315
100
AcDbEntity
  8
ASSI
100
AcDbLine
 62
7
  6
CONTINUOUS
 10
-4.912703
 20
-10.4196505695
 11
-4.912703
 21
-10.3896508408
  0
LINE
  5
316
100
AcDbEntity
  8
ASSI
100
AcDbLine
 62
7
  6
CONTINUOUS
 10
-4.7983609798
 20
-5.1272912025
 11
-4.7983609798
 21
-6.5
  0
LINE
  5
317
100
AcDbEntity
  8
ASSI
100
AcDbLine
 62
7
  6
CONTINUOUS
 10
-4.5146593786
 20
-6.5
 11
-4.5146593786
 21
-4.5678886175
  0
LINE
  5
318
100
AcDbEntity
  8
ASSI
100
AcDbLine
 62
250
  6
CONTINUOUS
 10
-19.3552504866
 20
-8.0341674081
 11
-19.5574402892
 21
-8.0613786165
  0
LINE
  5
319
100
AcDbEntity
  8
ASSI
100
AcDbLine
 62
250
  6
CONTINUOUS
 10
-19.5574402892
 20
-8.0613786165
 11
-19.6876449965
 21
-8.0783249993
  0
LWPOLYLINE
  5
31A
100
AcDbEntity
  8
ASSI
100
AcDbPolyline
 62
250
  6
CONTINUOUS
 90
7
 70
0
 10
-19.6876449965
 20
-8.0783249993
 10
-19.7851066921
 20
-8.0904666833
 10
-19.8085401358
 20
-8.0932456517
 10
-19.826989491
 20
-8.0953338246
 10
-19.8402503355
 20
-8.0967078529
 10
-19.8481706618
 20
-8.0973512585
 10
-19.8506601422
 20
-8.0972562757
  0
LWPOLYLINE
  5
31B
100
AcDbEntity
  8
ASSI
100
AcDbPolyline
 62
250
  6
CONTINUOUS
 90
4
 70
0
 10
-14.9409196623
 20
-9.8523500458
 10
-14.9442520048
 20
-9.8526502967
 10
-14.9707990746
 20
-9.8558292887
 10
-14.9972604359
 20
-9.8597867644
  0
LWPOLYLINE
  5
31C
100
AcDbEntity
  8
ASSI
100
AcDbPolyline
 62
7
  6
CONTINUOUS
 90
10
 70
0
 10
4.6088952347
 20
-5.5128988624
 10
4.5380484228
 20
-5.5171900249
 10
4.4712009611
 20
-5.5287356325
 10
4.4083528497
 20
-5.547535685
 10
4.3500805121
 20
-5.5729760845
 10
4.2958075247
 20
-5.605670929
 10
4.2438046171
 20
-5.6474625126
 10
4.1934953656
 20
-5.6989649332
 10
4.1454561938
 20
-5.7595640929
 10
4.0996871016
 20
-5.8292599916
  0
LWPOLYLINE
  5
31D
100
AcDbEntity
  8
ASSI
100
AcDbPolyline
 62
7
  6
CONTINUOUS
 90
10
 70
0
 10
-3.0554144921
 20
-4.5244399309
 10
-3.1354206607
 20
-4.5289479794
 10
-3.2101646664
 20
-4.5398432003
 10
-3.2796465093
 20
-4.5571255936
 10
-3.3431315879
 20
-4.580516622
 10
-3.4013545037
 20
-4.6102948227
 10
-3.4565190607
 20
-4.6472958076
 10
-3.5093598601
 20
-4.6917981139
 10
-3.5591423007
 20
-4.7435232044
 10
-3.6058663824
 20
-4.8024710791
  0
LWPOLYLINE
  5
31E
100
AcDbEntity
  8
ASSI
100
AcDbPolyline
 62
7
  6
CONTINUOUS
 90
10
 70
0
 10
2.7015467058
 20
-4.5244399309
 10
2.6297657356
 20
-4.5283691889
 10
2.5621277868
 20
-4.5381832721
 10
2.4986328595
 20
-4.5538821805
 10
2.4398991976
 20
-4.5751679774
 10
2.3853085571
 20
-4.6023385996
 10
2.3330062055
 20
-4.6362878571
 10
2.2823738986
 20
-4.6773136869
 10
2.2340298805
 20
-4.7251181521
 10
2.1879741513
 20
-4.7797012527
  0
LWPOLYLINE
  5
31F
100
AcDbEntity
  8
ASSI
100
AcDbPolyline
 62
7
  6
CONTINUOUS
 90
10
 70
0
 10
2.7015467058
 20
-6.542090971
 10
2.7731382254
 20
-6.5381999709
 10
2.8405978077
 20
-6.5284549315
 10
2.9039254527
 20
-6.5128558526
 10
2.9625084194
 20
-6.4917041856
 10
3.0169594488
 20
-6.4646984793
 10
3.0691167639
 20
-6.43093438
 10
3.1195931057
 20
-6.3901104367
 10
3.1677757331
 20
-6.3425281006
 10
3.2136646463
 20
-6.2881873716
  0
LWPOLYLINE
  5
320
100
AcDbEntity
  8
ASSI
100
AcDbPolyline
 62
7
  6
CONTINUOUS
 90
10
 70
0
 10
-3.0583242967
 20
-5.2427020073
 10
-3.125954974
 20
-5.2461062602
 10
-3.1901640824
 20
-5.2546738496
 10
-3.2509516218
 20
-5.2684047752
 10
-3.3077628106
 20
-5.2870710246
 10
-3.3611524305
 20
-5.3109006103
 10
-3.4127848265
 20
-5.3405775704
 10
-3.4632147803
 20
-5.3763299175
 10
-3.5118875102
 20
-5.4179296389
 10
-3.5588030161
 20
-5.4653767347
  0
LWPOLYLINE
  5
321
100
AcDbEntity
  8
ASSI
100
AcDbPolyline
 62
7
  6
CONTINUOUS
 90
10
 70
0
 10
-3.0917865381
 20
-6.542090971
 10
-3.0172945723
 20
-6.5384708841
 10
-2.9480312818
 20
-6.5302426445
 10
-2.8839966668
 20
-6.5174062523
 10
-2.8257601269
 20
-6.4998522658
 10
-2.7727522624
 20
-6.4776901266
 10
-2.7232648743
 20
-6.4512481602
 10
-2.676728563
 20
-6.4206358083
 10
-2.6337127281
 20
-6.3857436291
 10
-2.5942173697
 20
-6.3465716227
  0
LWPOLYLINE
  5
322
100
AcDbEntity
  8
ASSI
100
AcDbPolyline
 62
7
  6
CONTINUOUS
 90
10
 70
0
 10
1.024069671
 20
-6.542090971
 10
1.1031375397
 20
-6.5385088851
 10
1.1768353268
 20
-6.530379524
 10
1.2451630324
 20
-6.5177028877
 10
1.3075547587
 20
-6.5003250596
 10
1.3645764034
 20
-6.4783999563
 10
1.4179256602
 20
-6.4523893276
 10
1.4681684268
 20
-6.4224470902
 10
1.5147388055
 20
-6.3884193274
 10
1.5576367961
 20
-6.3503060393
  0
LWPOLYLINE
  5
323
100
AcDbEntity
  8
ASSI
100
AcDbPolyline
 62
7
  6
CONTINUOUS
 90
10
 70
0
 10
-0.5646596021
 20
-4.5244399309
 10
-0.6412140902
 20
-4.5278329079
 10
-0.7123578634
 20
-4.5354851776
 10
-0.7780909215
 20
-4.5473967402
 10
-0.837857585
 20
-4.563739639
 10
-0.8922135335
 20
-4.5843418307
 10
-0.9428258059
 20
-4.6086871847
 10
-0.9902500816
 20
-4.6366036577
 10
-1.0339306812
 20
-4.6682632931
 10
-1.0738676046
 20
-4.7036660909
  0
LWPOLYLINE
  5
324
100
AcDbEntity
  8
ASSI
100
AcDbPolyline
 62
7
  6
CONTINUOUS
 90
10
 70
0
 10
5.4236272259
 20
-5.913441956
 10
5.4808690271
 20
-5.9109632935
 10
5.5370243502
 20
-5.9030466408
 10
5.592093195
 20
-5.8896919981
 10
5.6457100904
 20
-5.871371433
 10
5.6982405076
 20
-5.8476128778
 10
5.7507808603
 20
-5.8170001297
 10
5.8036966196
 20
-5.7790611211
 10
5.8566223143
 20
-5.7342679197
 10
5.9095579444
 20
-5.6826205254
  0
LWPOLYLINE
  5
325
100
AcDbEntity
  8
ASSI
100
AcDbPolyline
 62
7
  6
CONTINUOUS
 90
10
 70
0
 10
1.0720806798
 20
-5.2304819822
 10
1.0218426313
 20
-5.232353069
 10
0.9734353877
 20
-5.237190847
 10
0.926858949
 20
-5.2449953163
 10
0.8824110625
 20
-5.2557192746
 10
0.8397939809
 20
-5.2694099241
 10
0.7981144619
 20
-5.2862088713
 10
0.7570747581
 20
-5.3061633183
 10
0.7169726169
 20
-5.3292260629
 10
0.6778080383
 20
-5.3553971052
  0
LINE
  5
326
100
AcDbEntity
  8
0
100
AcDbLine
 62
7
  6
CONTINUOUS
 10
18.05
 20
-8.9784396842
 11
-18.05
 21
-8.9784396842
  0
LINE
  5
327
100
AcDbEntity
  8
ASSI
100
AcDbLine
 62
7
  6
CONTINUOUS
 10
-2.2901473902
 20
-6.542090971
 11
-2.0311786168
 21
-6.542090971
  0
LINE
  5
328
100
AcDbEntity
  8
ASSI
100
AcDbLine
 62
7
  6
CONTINUOUS
 10
-4.7983609798
 20
-6.5
 11
-4.5146593786
 21
-6.5
  0
LINE
  5
329
100
AcDbEntity
  8
ASSI
100
AcDbLine
 62
7
  6
CONTINUOUS
 10
-1.313922779
 20
-6.5
 11
0.1104048359
 21
-6.5
  0
LINE
  5
32A
100
AcDbEntity
  8
ASSI
100
AcDbLine
 62
7
  6
CONTINUOUS
 10
0.1104048359
 20
-6.2556008101
 11
-1.0098530569
 21
-6.2556008101
  0
LINE
  5
32B
100
AcDbEntity
  8
ASSI
100
AcDbLine
 62
7
  6
CONTINUOUS
 10
0.6123387131
 20
-5.9813306332
 11
0.328637112
 21
-5.9813306332
  0
LINE
  5
32C
100
AcDbEntity
  8
ASSI
100
AcDbLine
 62
7
  6
CONTINUOUS
 10
-1.2600921612
 20
-5.2399864197
 11
-0.97639056
 21
-5.2399864197
  0
LINE
  5
32D
100
AcDbEntity
  8
ASSI
100
AcDbLine
 62
7
  6
CONTINUOUS
 10
-5.2901105091
 20
-5.1272912025
 11
-4.7983609798
 21
-5.1272912025
  0
LINE
  5
32E
100
AcDbEntity
  8
ASSI
100
AcDbLine
 62
7
  6
CONTINUOUS
 10
-2.735340845
 20
-5.0580447912
 11
-2.4516392438
 21
-5.0580447912
  0
LINE
  5
32F
100
AcDbEntity
  8
ASSI
100
AcDbLine
 62
7
  6
CONTINUOUS
 10
0.7694656044
 20
-4.8122878075
 11
1.646758649
 21
-4.8122878075
  0
LINE
  5
330
100
AcDbEntity
  8
ASSI
100
AcDbLine
 62
7
  6
CONTINUOUS
 10
1.646758649
 20
-4.5678886175
 11
0.5657823512
 21
-4.5678886175
  0
LINE
  5
331
100
AcDbEntity
  8
ASSI
100
AcDbLine
 62
7
  6
CONTINUOUS
 10
-4.5146593786
 20
-4.5678886175
 11
-4.7358011398
 21
-4.5678886175
  0
LINE
  5
332
100
AcDbEntity
  8
ASSI
100
AcDbLine
 62
7
  6
CONTINUOUS
 10
-1.4201291125
 20
-4.5
 11
-1.6805525327
 21
-4.5
  0
LWPOLYLINE
  5
333
100
AcDbEntity
  8
ASSI
100
AcDbPolyline
 62
7
  6
CONTINUOUS
 90
10
 70
0
 10
4.6365371007
 20
-5.7152070403
 10
4.6673628385
 20
-5.7158885504
 10
4.7002497369
 20
-5.7185443142
 10
4.7351977959
 20
-5.7231743314
 10
4.7721365536
 20
-5.7296711236
 10
4.8111364718
 20
-5.7381421694
 10
4.852408936
 20
-5.7489099046
 10
4.8960244078
 20
-5.7620818079
 10
4.9419124256
 20
-5.7775504007
 10
4.9900729893
 20
-5.7953156829
  0
LWPOLYLINE
  5
334
100
AcDbEntity
  8
ASSI
100
AcDbPolyline
 62
7
  6
CONTINUOUS
 90
10
 70
0
 10
5.4381767596
 20
-5.7111337185
 10
5.4107853269
 20
-5.7102350542
 10
5.3783869752
 20
-5.7066449538
 10
5.3409817043
 20
-5.7003634174
 10
5.2988302732
 20
-5.6915521109
 10
5.251671923
 20
-5.6800493683
 10
5.1987243771
 20
-5.6653701919
 10
5.1397268769
 20
-5.6473529158
 10
5.0749401811
 20
-5.6261592058
 10
4.9470910604
 20
-5.5821783626
  0
LWPOLYLINE
  5
335
100
AcDbEntity
  8
ASSI
100
AcDbPolyline
 62
7
  6
CONTINUOUS
 90
10
 70
0
 10
1.0226150242
 20
-5.4748811722
 10
1.0660915436
 20
-5.4766970285
 10
1.1074362466
 20
-5.4811082206
 10
1.1466491334
 20
-5.4881147486
 10
1.1835253809
 20
-5.4977593168
 10
1.218269812
 20
-5.5099992209
 10
1.2514968955
 20
-5.5247063475
 10
1.283411454
 20
-5.5418379922
 10
1.3138086648
 20
-5.5614368595
 10
1.3426885279
 20
-5.5835029492
  0
LWPOLYLINE
  5
336
100
AcDbEntity
  8
ASSI
100
AcDbPolyline
 62
7
  6
CONTINUOUS
 90
10
 70
0
 10
-0.5602946398
 20
-4.7688391209
 10
-0.519332852
 20
-4.770596346
 10
-0.4809097023
 20
-4.7746364185
 10
-0.4450251906
 20
-4.7809593383
 10
-0.4119042309
 20
-4.789661041
 10
-0.3813219093
 20
-4.8006455909
 10
-0.3526034844
 20
-4.8136251818
 10
-0.3255240425
 20
-4.8285038781
 10
-0.3003084975
 20
-4.8453776153
 10
-0.2769568492
 20
-4.8642463934
  0
LWPOLYLINE
  5
337
100
AcDbEntity
  8
ASSI
100
AcDbPolyline
 62
7
  6
CONTINUOUS
 90
10
 70
0
 10
-3.0961509895
 20
-5.4871011972
 10
-3.0555883106
 20
-5.4889960698
 10
-3.0173698247
 20
-5.4935298909
 10
-2.981495532
 20
-5.5007026605
 10
-2.9482257797
 20
-5.5105292823
 10
-2.9173002206
 20
-5.5229948527
 10
-2.8879378122
 20
-5.5380546606
 10
-2.8598782071
 20
-5.5556938025
 10
-2.8333817527
 20
-5.5759271821
 10
-2.8084484492
 20
-5.5987547993
  0
LWPOLYLINE
  5
338
100
AcDbEntity
  8
ASSI
100
AcDbPolyline
 62
7
  6
CONTINUOUS
 90
10
 70
0
 10
-3.1034255009
 20
-6.2976917922
 10
-3.1470122813
 20
-6.295643649
 10
-3.1878433004
 20
-6.2908025286
 10
-3.2259185583
 20
-6.283168431
 10
-3.2609385518
 20
-6.2727097182
 10
-3.293202784
 20
-6.2594580283
 10
-3.3236097649
 20
-6.2435082749
 10
-3.3524589977
 20
-6.2248920962
 10
-3.3794509792
 20
-6.2035778541
 10
-3.4045857093
 20
-6.1795655487
  0
LWPOLYLINE
  5
339
100
AcDbEntity
  8
ASSI
100
AcDbPolyline
 62
7
  6
CONTINUOUS
 90
13
 70
0
 10
1.0342537315
 20
-6.2976917922
 10
0.9718033322
 20
-6.2942516077
 10
0.9151512501
 20
-6.2867241269
 10
0.8642974852
 20
-6.2751093497
 10
0.8198529308
 20
-6.259317002
 10
0.7812066936
 20
-6.239437358
 10
0.7465260939
 20
-6.2157412399
 10
0.7154119724
 20
-6.1887866843
 10
0.6882634884
 20
-6.1580156545
 10
0.6644454406
 20
-6.1220248633
 10
0.6437460953
 20
-6.0803465481
 10
0.6263771861
 20
-6.0334484714
 10
0.6123387131
 20
-5.9813306332
  0
LWPOLYLINE
  5
33A
100
AcDbEntity
  8
ASSI
100
AcDbPolyline
 62
7
  6
CONTINUOUS
 90
10
 70
0
 10
2.7015467058
 20
-4.7688391209
 10
2.7459924189
 20
-4.7714547074
 10
2.7877479324
 20
-4.7784903384
 10
2.8268132461
 20
-4.7899460141
 10
2.8628315034
 20
-4.8054963983
 10
2.896159561
 20
-4.8254668271
 10
2.9278679891
 20
-4.8508333084
 10
2.9583136446
 20
-4.8819211781
 10
2.9871396706
 20
-4.9184051002
 10
3.0143460672
 20
-4.9602850748
  0
LWPOLYLINE
  5
33B
100
AcDbEntity
  8
ASSI
100
AcDbPolyline
 62
7
  6
CONTINUOUS
 90
16
 70
0
 10
2.7015467058
 20
-6.2976917922
 10
2.6512849434
 20
-6.2945417905
 10
2.6045024619
 20
-6.2860763085
 10
2.5611992613
 20
-6.2722953463
 10
2.5217548598
 20
-6.2536489729
 10
2.4857897391
 20
-6.2296871193
 10
2.4521653448
 20
-6.1990595785
 10
2.420295653
 20
-6.1620913079
 10
2.3907666875
 20
-6.11845735
 10
2.3641979646
 20
-6.0658326252
 10
2.3403722146
 20
-6.0042570998
 10
2.3195067072
 20
-5.9336908076
 10
2.3028727683
 20
-5.8516887699
 10
2.2908941729
 20
-5.7574359939
 10
2.283147146
 20
-5.6517474725
 10
2.2796316874
 20
-5.5346232057
  0
LINE
  5
33C
100
AcDbEntity
  8
ASSI
100
AcDbLine
 62
7
  6
CONTINUOUS
 10
0.3955615949
 20
-5.6350984573
 11
0.6327068341
 21
-5.6513917446
  0
LWPOLYLINE
  5
33D
100
AcDbEntity
  8
ASSI
100
AcDbPolyline
 62
7
  6
CONTINUOUS
 90
10
 70
0
 10
-3.085966929
 20
-4.7688391209
 10
-3.0261323462
 20
-4.7732043822
 10
-2.9719392995
 20
-4.7840002678
 10
-2.9233877888
 20
-4.8012267777
 10
-2.8810411526
 20
-4.8242018437
 10
-2.8443360525
 20
-4.8536075339
 10
-2.8115824732
 20
-4.8914900533
 10
-2.7822170763
 20
-4.9385314702
 10
-2.7568032002
 20
-4.9940497161
 10
-2.735340845
 20
-5.0580447912
  0
LWPOLYLINE
  5
33E
100
AcDbEntity
  8
ASSI
100
AcDbPolyline
 62
250
  6
CONTINUOUS
 90
4
 70
0
 10
14.931126248
 20
-9.8514676393
 10
14.9442520048
 20
-9.8526502967
 10
14.9707990746
 20
-9.8558292887
 10
14.9972604359
 20
-9.8597867644
  0
LWPOLYLINE
  5
33F
100
AcDbEntity
  8
ASSI
100
AcDbPolyline
 62
250
  6
CONTINUOUS
 90
5
 70
0
 10
19.8085401358
 20
-8.0932456517
 10
19.826989491
 20
-8.0953338246
 10
19.8402503355
 20
-8.0967078529
 10
19.8481706618
 20
-8.0973512585
 10
19.8506601422
 20
-8.0972562757
  0
LINE
  5
340
100
AcDbEntity
  8
ASSI
100
AcDbLine
 62
250
  6
CONTINUOUS
 10
19.7569366512
 20
-8.0870258867
 11
19.8085401358
 21
-8.0932456517
  0
LINE
  5
341
100
AcDbEntity
  8
ASSI
100
AcDbLine
 62
250
  6
CONTINUOUS
 10
19.6472976735
 20
-8.0731426224
 11
19.7569366512
 21
-8.0870258867
  0
LINE
  5
342
100
AcDbEntity
  8
ASSI
100
AcDbLine
 62
250
  6
CONTINUOUS
 10
19.4586499479
 20
-8.0481944773
 11
19.6472976735
 21
-8.0731426224
  0
LINE
  5
343
100
AcDbEntity
  8
ASSI
100
AcDbLine
 62
250
  6
CONTINUOUS
 10
19.3552504866
 20
-8.0341674081
 11
19.4586499479
 21
-8.0481944773
  0
LWPOLYLINE
  5
344
100
AcDbEntity
  8
ASSI
100
AcDbPolyline
 62
7
  6
CONTINUOUS
 90
10
 70
0
 10
-2.7629834523
 20
-4.581466388
 10
-2.7895839199
 20
-4.5701394908
 10
-2.8176124456
 20
-4.5600083528
 10
-2.8470690292
 20
-4.5510729739
 10
-2.8778937914
 20
-4.5432641585
 10
-2.9101466117
 20
-4.5366511023
 10
-2.9440071281
 20
-4.5314413927
 10
-2.97953522
 20
-4.5277042255
 10
-3.016671008
 20
-4.5253704049
 10
-3.0554144921
 20
-4.5244399309
  0
LWPOLYLINE
  5
345
100
AcDbEntity
  8
ASSI
100
AcDbPolyline
 62
7
  6
CONTINUOUS
 90
10
 70
0
 10
0.5447602967
 20
-6.398902368
 10
0.583777818
 20
-6.427018222
 10
0.626108
 20
-6.4522190149
 10
0.6717508426
 20
-6.4745047467
 10
0.7203768683
 20
-6.4940573391
 10
0.7723155547
 20
-6.5106948705
 10
0.8285553349
 20
-6.5238715758
 10
0.8894256865
 20
-6.5334055336
 10
0.9545971319
 20
-6.5394786653
 10
1.024069671
 20
-6.542090971
  0
LWPOLYLINE
  5
346
100
AcDbEntity
  8
ASSI
100
AcDbPolyline
 62
7
  6
CONTINUOUS
 90
10
 70
0
 10
-2.5902268011
 20
-5.4154790119
 10
-2.6294217028
 20
-5.3806767508
 10
-2.67146806
 20
-5.3497141353
 10
-2.7163658727
 20
-5.3225911655
 10
-2.7636451045
 20
-5.2992257635
 10
-2.8137757919
 20
-5.2797000072
 10
-2.8681680439
 20
-5.2642601301
 10
-2.9272918969
 20
-5.25298821
 10
-2.9906773145
 20
-5.2458021691
 10
-3.0583242967
 20
-5.2427020073
  0
LWPOLYLINE
  5
347
100
AcDbEntity
  8
ASSI
100
AcDbPolyline
 62
7
  6
CONTINUOUS
 90
10
 70
0
 10
-2.8084484492
 20
-5.5987547993
 10
-2.785217866
 20
-5.6240592028
 10
-2.7646834785
 20
-5.6507299574
 10
-2.7468452866
 20
-5.678767063
 10
-2.7317172626
 20
-5.7079286638
 10
-2.7192854341
 20
-5.7384566156
 10
-2.7095078848
 20
-5.7710764859
 10
-2.7023706423
 20
-5.8060301306
 10
-2.6978876788
 20
-5.8430756937
 10
-2.6960589944
 20
-5.8822131753
  0
LWPOLYLINE
  5
348
100
AcDbEntity
  8
ASSI
100
AcDbPolyline
 62
7
  6
CONTINUOUS
 90
10
 70
0
 10
-3.4045857093
 20
-6.1795655487
 10
-3.4278412617
 20
-6.1532141726
 10
-3.4483767944
 20
-6.1254810177
 10
-3.4661923073
 20
-6.0963660841
 10
-3.4812638554
 20
-6.0661556836
 10
-3.4936153837
 20
-6.0345635044
 10
-3.5033187277
 20
-6.0007306104
 10
-3.5103978324
 20
-5.9643706895
 10
-3.5148287528
 20
-5.9257700538
 10
-3.5166114888
 20
-5.8849287033
  0
LWPOLYLINE
  5
349
100
AcDbEntity
  8
ASSI
100
AcDbPolyline
 62
7
  6
CONTINUOUS
 90
10
 70
0
 10
-3.6169982527
 20
-6.3031229044
 10
-3.5753734201
 20
-6.3523167584
 10
-3.5301070061
 20
-6.3958130973
 10
-3.4811990105
 20
-6.4336119209
 10
-3.4293713328
 20
-6.4656638245
 10
-3.3739020737
 20
-6.4920182129
 10
-3.3126255345
 20
-6.5128233003
 10
-3.2448198157
 20
-6.5281284915
 10
-3.171206817
 20
-6.5378843818
 10
-3.0917865381
 20
-6.542090971
  0
LWPOLYLINE
  5
34A
100
AcDbEntity
  8
ASSI
100
AcDbPolyline
 62
7
  6
CONTINUOUS
 90
10
 70
0
 10
-2.5568766629
 20
-4.7460776856
 10
-2.5756992654
 20
-4.7224894554
 10
-2.5954832192
 20
-4.7002683753
 10
-2.6162285242
 20
-4.6794144453
 10
-2.6378575983
 20
-4.6599845036
 10
-2.6604480236
 20
-4.641921712
 10
-2.684232547
 20
-4.6250555561
 10
-2.7092887507
 20
-4.6093291978
 10
-2.7355390525
 20
-4.5947994751
 10
-2.7629834523
 20
-4.581466388
  0
LWPOLYLINE
  5
34B
100
AcDbEntity
  8
ASSI
100
AcDbPolyline
 62
7
  6
CONTINUOUS
 90
10
 70
0
 10
0.1162244451
 20
-5.1069246531
 10
0.112996719
 20
-5.0444232493
 10
0.1053834673
 20
-4.9860726343
 10
0.0933846897
 20
-4.9318728081
 10
0.0770282058
 20
-4.8823147549
 10
0.056286196
 20
-4.8369074904
 10
0.0310752025
 20
-4.7941780615
 10
0.0013674059
 20
-4.7536354837
 10
-0.0328093745
 20
-4.7157707414
 10
-0.0714551386
 20
-4.6805838346
  0
LWPOLYLINE
  5
34C
100
AcDbEntity
  8
ASSI
100
AcDbPolyline
 62
7
  6
CONTINUOUS
 90
10
 70
0
 10
-2.4123573932
 20
-5.8509843946
 10
-2.4152513784
 20
-5.7905496037
 10
-2.4223141754
 20
-5.733459225
 10
-2.4335457843
 20
-5.6797132586
 10
-2.4488815267
 20
-5.6297558195
 10
-2.468386081
 20
-5.5831427926
 10
-2.4922534821
 20
-5.5385418328
 10
-2.5205484083
 20
-5.4955088253
 10
-2.5532061813
 20
-5.454487885
 10
-2.5902268011
 20
-5.4154790119
  0
LWPOLYLINE
  5
34D
100
AcDbEntity
  8
ASSI
100
AcDbPolyline
 62
7
  6
CONTINUOUS
 90
10
 70
0
 10
-3.8003130899
 20
-5.6188051701
 10
-3.7967709212
 20
-5.7251652842
 10
-3.788732972
 20
-5.8235890051
 10
-3.7761992426
 20
-5.9140763327
 10
-3.7587840745
 20
-5.9961536793
 10
-3.736873126
 20
-6.0702946327
 10
-3.7116233721
 20
-6.1379199557
 10
-3.683420471
 20
-6.1995032357
 10
-3.6518787646
 20
-6.2545708853
 10
-3.6169982527
 20
-6.3031229044
  0
LINE
  5
34E
100
AcDbEntity
  8
ASSI
100
AcDbLine
 62
7
  6
CONTINUOUS
 10
-4.062671
 20
-10.4387277566
 11
-4.062671
 21
-10.4087308901
  0
LINE
  5
34F
100
AcDbEntity
  8
ASSI
100
AcDbLine
 62
7
  6
CONTINUOUS
 10
-3.72606
 20
10.4152872853
 11
-3.72606
 21
10.4452924955
  0
LINE
  5
350
100
AcDbEntity
  8
ASSI
100
AcDbLine
 62
7
  6
CONTINUOUS
 10
-3.212671
 20
-10.4541899464
 11
-3.212671
 21
-10.4241953993
  0
LINE
  5
351
100
AcDbEntity
  8
ASSI
100
AcDbLine
 62
7
  6
CONTINUOUS
 10
-2.875986
 20
10.4293216123
 11
-2.875986
 21
10.4593247171
  0
LINE
  5
352
100
AcDbEntity
  8
0
100
AcDbLine
 62
250
  6
CONTINUOUS
 10
-2.725
 20
-0.1535898385
 11
-2.725
 21
-0.3267949192
  0
LINE
  5
353
100
AcDbEntity
  8
0
100
AcDbLine
 62
250
  6
CONTINUOUS
 10
-2.5517949192
 20
-0.8556554668
 11
-2.5517949192
 21
-1.0204463587
  0
LINE
  5
354
100
AcDbEntity
  8
ASSI
100
AcDbLine
 62
7
  6
CONTINUOUS
 10
-1.927651
 20
-10.4707052027
 11
-1.927651
 21
-10.4407131325
  0
LINE
  5
355
100
AcDbEntity
  8
ASSI
100
AcDbLine
 62
7
  6
CONTINUOUS
 10
-1.511406
 20
10.4442982291
 11
-1.511406
 21
10.4742990895
  0
LINE
  5
356
100
AcDbEntity
  8
ASSI
100
AcDbLine
 62
7
  6
CONTINUOUS
 10
-1.133974
 20
-10.4767810288
 11
-1.133974
 21
-10.4467937248
  0
LINE
  5
357
100
AcDbEntity
  8
ASSI
100
AcDbLine
 62
7
  6
CONTINUOUS
 10
-0.944722
 20
10.4477737805
 11
-0.944722
 21
10.4777741176
  0
LINE
  5
358
100
AcDbEntity
  8
ASSI
100
AcDbLine
 62
7
  6
CONTINUOUS
 10
-0.340298
 20
-10.4797075453
 11
-0.340298
 21
-10.4497168251
  0
LINE
  5
359
100
AcDbEntity
  8
ASSI
100
AcDbLine
 62
250
  6
CONTINUOUS
 10
0.0
 20
-9.9543632692
 11
-0.0
 21
-10.4500000058
  0
LINE
  5
35A
100
AcDbEntity
  8
ASSI
100
AcDbLine
 62
250
  6
CONTINUOUS
 10
0.0
 20
9.9543632692
 11
-0.0
 21
10.4500000058
  0
LINE
  5
35B
100
AcDbEntity
  8
ASSI
100
AcDbLine
 62
250
  6
CONTINUOUS
 10
0.0000000285
 20
-10.4799699772
 11
0.0000000394
 21
-11.5200213758
  0
LINE
  5
35C
100
AcDbEntity
  8
ASSI
100
AcDbLine
 62
250
  6
CONTINUOUS
 10
0.0000000285
 20
10.4799982908
 11
0.0000000394
 21
11.5200213758
  0
LINE
  5
35D
100
AcDbEntity
  8
ASSI
100
AcDbLine
 62
7
  6
CONTINUOUS
 10
0.1104048359
 20
-6.5
 11
0.1104048359
 21
-6.2556008101
  0
LINE
  5
35E
100
AcDbEntity
  8
ASSI
100
AcDbLine
 62
7
  6
CONTINUOUS
 10
0.340298
 20
10.4497168251
 11
0.340298
 21
10.4797168708
  0
LWPOLYLINE
  5
35F
100
AcDbEntity
  8
ASSI
100
AcDbPolyline
 62
7
  6
CONTINUOUS
 90
10
 70
0
 10
-0.97639056
 20
-5.2399864197
 10
-0.9742871057
 20
-5.1836279722
 10
-0.9694000112
 20
-5.1318057579
 10
-0.9617292765
 20
-5.0845197768
 10
-0.9511178247
 20
-5.0421584181
 10
-0.9377227327
 20
-5.0043332926
 10
-0.9220152315
 20
-4.9698792319
 10
-0.9041523979
 20
-4.9384078467
 10
-0.883977155
 20
-4.9103075263
 10
-0.8614895028
 20
-4.8855782708
  0
LWPOLYLINE
  5
360
100
AcDbEntity
  8
ASSI
100
AcDbPolyline
 62
7
  6
CONTINUOUS
 90
10
 70
0
 10
-0.1674771561
 20
-5.1123557091
 10
-0.1686250982
 20
-5.1412653364
 10
-0.1717302856
 20
-5.1692038405
 10
-0.1767927183
 20
-5.1961712216
 10
-0.1837332911
 20
-5.221960247
 10
-0.1926311093
 20
-5.2467781494
 10
-0.2037234886
 20
-5.271246626
 10
-0.2170895342
 20
-5.2955729095
 10
-0.2326501408
 20
-5.3195497672
 10
-0.2504053086
 20
-5.3431771994
  0
LWPOLYLINE
  5
361
100
AcDbEntity
  8
ASSI
100
AcDbPolyline
 62
7
  6
CONTINUOUS
 90
10
 70
0
 10
-2.6960589944
 20
-5.8822131753
 10
-2.6979532535
 20
-5.9243920824
 10
-2.7025207619
 20
-5.9641115915
 10
-2.7097615195
 20
-6.0013717028
 10
-2.7196817203
 20
-6.0358782342
 10
-2.7322751703
 20
-6.0679253677
 10
-2.7475232878
 20
-6.098395649
 10
-2.7654198787
 20
-6.1275832598
 10
-2.7859711371
 20
-6.1551940184
 10
-2.8091770628
 20
-6.1812279247
  0
LWPOLYLINE
  5
362
100
AcDbEntity
  8
ASSI
100
AcDbPolyline
 62
7
  6
CONTINUOUS
 90
10
 70
0
 10
-3.5166114888
 20
-5.8849287033
 10
-3.5147801004
 20
-5.8453436338
 10
-3.5102740745
 20
-5.8079368058
 10
-3.503093411
 20
-5.7727082195
 10
-3.4932644521
 20
-5.7399276323
 10
-3.4807608555
 20
-5.7093252867
 10
-3.4655035952
 20
-5.6800919104
 10
-3.4474663291
 20
-5.651957746
 10
-3.4266753991
 20
-5.6251925508
 10
-3.4031308054
 20
-5.599796325
  0
LWPOLYLINE
  5
363
100
AcDbEntity
  8
ASSI
100
AcDbPolyline
 62
7
  6
CONTINUOUS
 90
10
 70
0
 10
-3.5588030161
 20
-5.4653767347
 10
-3.5474695828
 20
-5.3883432494
 10
-3.5359487901
 20
-5.3182395287
 10
-3.524240638
 20
-5.2550655727
 10
-3.5123155484
 20
-5.1991745606
 10
-3.5002030995
 20
-5.1502133131
 10
-3.4879920253
 20
-5.1071222928
 10
-3.4757119039
 20
-5.0695483207
 10
-3.4633331573
 20
-5.0378445757
 10
-3.4508557853
 20
-5.012011058
  0
LINE
  5
364
100
AcDbEntity
  8
ASSI
100
AcDbLine
 62
7
  6
CONTINUOUS
 10
-1.6805525327
 20
-4.5
 11
-2.2901473902
 21
-6.542090971
  0
LINE
  5
365
100
AcDbEntity
  8
ASSI
100
AcDbLine
 62
7
  6
CONTINUOUS
 10
-2.0311786168
 20
-6.542090971
 11
-1.4201291125
 21
-4.5
  0
LWPOLYLINE
  5
366
100
AcDbEntity
  8
ASSI
100
AcDbPolyline
 62
7
  6
CONTINUOUS
 90
10
 70
0
 10
-4.7358011398
 20
-4.5678886175
 10
-4.7505478113
 20
-4.6133622431
 10
-4.7661581
 20
-4.654708219
 10
-4.7826320059
 20
-4.6919265454
 10
-4.8000554024
 20
-4.7247648467
 10
-4.818342416
 20
-4.7534754984
 10
-4.837235427
 20
-4.7788156267
 10
-4.8566485619
 20
-4.8010376069
 10
-4.8766676941
 20
-4.8198890637
 10
-4.8972928236
 20
-4.835369997
  0
LWPOLYLINE
  5
367
100
AcDbEntity
  8
ASSI
100
AcDbPolyline
 62
7
  6
CONTINUOUS
 90
10
 70
0
 10
-3.4508557853
 20
-5.012011058
 10
-3.4358985251
 20
-4.9853318683
 10
-3.4203022451
 20
-4.9604177634
 10
-3.4040669452
 20
-4.9372687431
 10
-3.3872088155
 20
-4.9159997999
 10
-3.369711666
 20
-4.8964959413
 10
-3.3515269271
 20
-4.8784121907
 10
-3.332638409
 20
-4.8616335558
 10
-3.3130623014
 20
-4.8462750289
 10
-3.2927986044
 20
-4.83233661
  0
LWPOLYLINE
  5
368
100
AcDbEntity
  8
ASSI
100
AcDbPolyline
 62
7
  6
CONTINUOUS
 90
10
 70
0
 10
-3.6058663824
 20
-4.8024710791
 10
-3.6429603275
 20
-4.8585577409
 10
-3.676483454
 20
-4.9228598264
 10
-3.7064357618
 20
-4.9953773358
 10
-3.7332190778
 20
-5.0755251254
 10
-3.7564315752
 20
-5.1638883387
 10
-3.7748677732
 20
-5.2622224068
 10
-3.7881258449
 20
-5.3711124732
 10
-3.7966076171
 20
-5.4899733943
 10
-3.8003130899
 20
-5.6188051701
  0
LWPOLYLINE
  5
369
100
AcDbEntity
  8
0
100
AcDbPolyline
 62
250
  6
CONTINUOUS
 90
5
 70
0
 10
-0.3800723238
 20
2.721948258
 10
-0.4103834263
 20
2.6781805932
 10
-0.5046556424
 20
2.5626950774
 10
-0.6094282801
 20
2.4528169182
 10
-0.7218001202
 20
2.3507540035
  0
LINE
  5
36A
100
AcDbEntity
  8
0
100
AcDbLine
 62
250
  6
CONTINUOUS
 10
0.5800828445
 20
2.1834475056
 11
0.9232415411
 21
2.5885687548
  0
LWPOLYLINE
  5
36B
100
AcDbEntity
  8
0
100
AcDbPolyline
 62
7
  6
CONTINUOUS
 90
8
 70
0
 10
-0.5800976434
 20
2.1834420298
 10
-0.5380681666
 20
2.2204359914
 10
-0.4436266781
 20
2.3148936323
 10
-0.3595269562
 20
2.4153077521
 10
-0.2859451009
 20
2.5203136127
 10
-0.2228779353
 20
2.6287185249
 10
-0.1702066356
 20
2.7395557911
 10
-0.1688685956
 20
2.7430895877
  0
LWPOLYLINE
  5
36C
100
AcDbEntity
  8
ASSI
100
AcDbPolyline
 62
250
  6
CONTINUOUS
 90
3
 70
0
 10
13.6399305315
 20
9.9708785544
 10
13.6888606755
 20
9.9976965833
 10
13.742689641
 20
10.0327637004
  0
LINE
  5
36D
100
AcDbEntity
  8
0
100
AcDbLine
 62
7
  6
CONTINUOUS
 10
-13.0
 20
-2.4104701077
 11
-11.4992348503
 21
-2.363809512
  0
LINE
  5
36E
100
AcDbEntity
  8
RACCORDO
100
AcDbLine
 62
7
  6
CONTINUOUS
 10
-13.05
 20
-2.7116244175
 11
-12.2872714249
 21
-2.7069279362
  0
LINE
  5
36F
100
AcDbEntity
  8
ASSI
100
AcDbLine
 62
7
  6
CONTINUOUS
 10
-13.35
 20
-3.5
 11
13.35
 21
-3.5
  0
LINE
  5
370
100
AcDbEntity
  8
DRAFT
100
AcDbLine
 62
7
  6
CONTINUOUS
 10
-13.0
 20
-2.7552454339
 11
-12.5036108934
 21
-2.7552454339
  0
LINE
  5
371
100
AcDbEntity
  8
DRAFT
100
AcDbLine
 62
7
  6
CONTINUOUS
 10
-13.5243042929
 20
-2.75
 11
-13.169782451
 21
-2.75
  0
LINE
  5
372
100
AcDbEntity
  8
RACCORDO
100
AcDbLine
 62
7
  6
CONTINUOUS
 10
-13.05
 20
-2.75
 11
-12.4755196516
 21
-2.75
  0
LINE
  5
373
100
AcDbEntity
  8
DRAFT
100
AcDbLine
 62
7
  6
CONTINUOUS
 10
12.4756957071
 20
-2.75
 11
13.05
 21
-2.75
  0
LINE
  5
374
100
AcDbEntity
  8
ASSI
100
AcDbLine
 62
7
  6
CONTINUOUS
 10
0.2582488744
 20
-2.2
 11
-0.2582490498
 21
-2.2
  0
LINE
  5
375
100
AcDbEntity
  8
0
100
AcDbLine
 62
7
  6
CONTINUOUS
 10
-13.0
 20
-2.1473460386
 11
-11.2036944565
 21
-2.1473460386
  0
LINE
  5
376
100
AcDbEntity
  8
0
100
AcDbLine
 62
7
  6
CONTINUOUS
 10
-0.3840674826
 20
-2.0
 11
0.3840706351
 21
-2.0
  0
LINE
  5
377
100
AcDbEntity
  8
0
100
AcDbLine
 62
7
  6
CONTINUOUS
 10
-10.8183038128
 20
-1.7533320997
 11
-14.2397264044
 21
-1.7533320997
  0
LINE
  5
378
100
AcDbEntity
  8
0
100
AcDbLine
 62
250
  6
CONTINUOUS
 10
-0.8642288413
 20
-1.5
 11
0.8642288413
 21
-1.5
  0
LINE
  5
379
100
AcDbEntity
  8
0
100
AcDbLine
 62
250
  6
CONTINUOUS
 10
2.2796921487
 20
-1.5
 11
2.3033019141
 21
-1.5
  0
LINE
  5
37A
100
AcDbEntity
  8
0
100
AcDbLine
 62
250
  6
CONTINUOUS
 10
2.3785898385
 20
-1.3
 11
2.4229008221
 21
-1.3
  0
LINE
  5
37B
100
AcDbEntity
  8
0
100
AcDbLine
 62
250
  6
CONTINUOUS
 10
-2.3890557058
 20
-1.3000003995
 11
-2.4228999572
 21
-1.3000014982
  0
LINE
  5
37C
100
AcDbEntity
  8
0
100
AcDbLine
 62
250
  6
CONTINUOUS
 10
2.6191115585
 20
-0.5
 11
2.7025619866
 21
-0.5
  0
LINE
  5
37D
100
AcDbEntity
  8
0
100
AcDbLine
 62
250
  6
CONTINUOUS
 10
-2.6362454476
 20
-0.5
 11
-2.7025619866
 21
-0.5
  0
LINE
  5
37E
100
AcDbEntity
  8
0
100
AcDbLine
 62
250
  6
CONTINUOUS
 10
-2.7444962943
 20
-0.1535898385
 11
-2.725
 21
-0.1535898385
  0
LINE
  5
37F
100
AcDbEntity
  8
0
100
AcDbLine
 62
250
  6
CONTINUOUS
 10
2.725
 20
-0.1535898385
 11
2.7444962943
 21
-0.1535898385
  0
LINE
  5
380
100
AcDbEntity
  8
ASSI
100
AcDbLine
 62
7
  6
CONTINUOUS
 10
20.3995731265
 20
-0.0
 11
18.5995731265
 21
-0.0
  0
LINE
  5
381
100
AcDbEntity
  8
ASSI
100
AcDbLine
 62
7
  6
CONTINUOUS
 10
-18.5995731265
 20
-0.0
 11
-20.3995731265
 21
-0.0
  0
LINE
  5
382
100
AcDbEntity
  8
DRAFT
100
AcDbLine
 62
7
  6
CONTINUOUS
 10
-15.0072338613
 20
1.4443458682
 11
-15.3024636329
 21
1.5345111925
  0
LWPOLYLINE
  5
383
100
AcDbEntity
  8
ASSI
100
AcDbPolyline
 62
7
  6
CONTINUOUS
 90
9
 70
0
 10
4.9470910604
 20
-5.5821783626
 10
4.8932599498
 20
-5.5650809925
 10
4.8428709576
 20
-5.5504969518
 10
4.7960695011
 20
-5.5385326761
 10
4.7527101631
 20
-5.5290817297
 10
4.7123566926
 20
-5.5218248058
 10
4.6748636725
 20
-5.5166554689
 10
4.6403765199
 20
-5.5136801544
 10
4.6088952347
 20
-5.5128988624
  0
LWPOLYLINE
  5
384
100
AcDbEntity
  8
ASSI
100
AcDbPolyline
 62
7
  6
CONTINUOUS
 90
10
 70
0
 10
5.1821180462
 20
-5.8699932098
 10
5.2055956457
 20
-5.8788956631
 10
5.229877381
 20
-5.8867969875
 10
5.2549632522
 20
-5.8936971831
 10
5.2808065226
 20
-5.8996196829
 10
5.3074539288
 20
-5.9045410538
 10
5.3350456812
 20
-5.9083909965
 10
5.3636285166
 20
-5.9111460779
 10
5.3931556981
 20
-5.9128297311
 10
5.4236272259
 20
-5.913441956
  0
LINE
  5
385
100
AcDbEntity
  8
ASSI
100
AcDbLine
 62
7
  6
CONTINUOUS
 10
4.9900729893
 20
-5.7953156829
 11
5.1821180462
 21
-5.8699932098
  0
LWPOLYLINE
  5
386
100
AcDbEntity
  8
ASSI
100
AcDbPolyline
 62
250
  6
CONTINUOUS
 90
3
 70
0
 10
13.6400227769
 20
-9.970929113
 10
13.6888606755
 20
-9.9976965833
 10
13.742689641
 20
-10.0327637004
  0
LINE
  5
387
100
AcDbEntity
  8
ASSI
100
AcDbLine
 62
7
  6
CONTINUOUS
 10
4.0996871016
 20
-5.8292599916
 11
4.2771816029
 21
-5.9310930371
  0
LWPOLYLINE
  5
388
100
AcDbEntity
  8
ASSI
100
AcDbPolyline
 62
7
  6
CONTINUOUS
 90
10
 70
0
 10
-0.0714551386
 20
-4.6805838346
 10
-0.1110094448
 20
-4.6500727688
 10
-0.1540680536
 20
-4.622700746
 10
-0.200630965
 20
-4.5984677664
 10
-0.2502885194
 20
-4.577171973
 10
-0.3034503763
 20
-4.5590152228
 10
-0.3613455152
 20
-4.5446030864
 10
-0.4243835956
 20
-4.5341374207
 10
-0.492154958
 20
-4.5274163689
 10
-0.5646596021
 20
-4.5244399309
  0
LINE
  5
389
100
AcDbEntity
  8
ASSI
100
AcDbLine
 62
7
  6
CONTINUOUS
 10
5.9095579444
 20
-5.6826205254
 11
5.7538856999
 21
-5.5617786646
  0
LWPOLYLINE
  5
38A
100
AcDbEntity
  8
ASSI
100
AcDbPolyline
 62
7
  6
CONTINUOUS
 90
10
 70
0
 10
1.5591337667
 20
-5.4005422369
 10
1.515284712
 20
-5.3658264187
 10
1.4691635528
 20
-5.3350383972
 10
1.4207702891
 20
-5.3081781721
 10
1.3704980998
 20
-5.2852093942
 10
1.3179538061
 20
-5.2661684129
 10
1.2619578709
 20
-5.2511642762
 10
1.2021171153
 20
-5.2402333336
 10
1.1388247182
 20
-5.2333392356
 10
1.0720806798
 20
-5.2304819822
  0
LWPOLYLINE
  5
38B
100
AcDbEntity
  8
0
100
AcDbPolyline
 62
7
  6
CONTINUOUS
 90
4
 70
0
 10
-1.1327942771
 20
-2.3787726085
 10
-1.0221720087
 20
-2.4751506699
 10
-0.9128661359
 20
-2.5727319357
 10
-0.8781092123
 20
-2.6050363946
  0
LWPOLYLINE
  5
38C
100
AcDbEntity
  8
ASSI
100
AcDbPolyline
 62
7
  6
CONTINUOUS
 90
10
 70
0
 10
1.3426885279
 20
-5.5835029492
 10
1.3695055668
 20
-5.6078785731
 10
1.3932575993
 20
-5.6342501642
 10
1.4139446254
 20
-5.6626177225
 10
1.4315693883
 20
-5.6926541154
 10
1.4461291448
 20
-5.7246864754
 10
1.4576156649
 20
-5.759696201
 10
1.4660262053
 20
-5.7980104248
 10
1.4713635094
 20
-5.8393020142
 10
1.4736275772
 20
-5.8835709691
  0
LWPOLYLINE
  5
38D
100
AcDbEntity
  8
0
100
AcDbPolyline
 62
250
  6
CONTINUOUS
 90
8
 70
0
 10
-0.7449986085
 20
-1.9308868099
 10
-0.6250997504
 20
-2.0441791416
 10
-0.5153859313
 20
-2.167782662
 10
-0.4187373066
 20
-2.29899761
 10
-0.3376580284
 20
-2.4334625114
 10
-0.2723851225
 20
-2.5693233546
 10
-0.2212457848
 20
-2.7080087567
 10
-0.2127346963
 20
-2.7400604129
  0
LWPOLYLINE
  5
38E
100
AcDbEntity
  8
ASSI
100
AcDbPolyline
 62
7
  6
CONTINUOUS
 90
10
 70
0
 10
-0.2769568492
 20
-4.8642463934
 10
-0.2538942385
 20
-4.8863598103
 10
-0.233610925
 20
-4.9096448639
 10
-0.2161069086
 20
-4.9341015542
 10
-0.2014551855
 20
-4.9594739687
 10
-0.1895827594
 20
-4.9860180198
 10
-0.1802706423
 20
-5.0145014456
 10
-0.173445838
 20
-5.0451801588
 10
-0.1691813426
 20
-5.0777982466
 10
-0.1674771561
 20
-5.1123557091
  0
LINE
  5
38F
100
AcDbEntity
  8
0
100
AcDbLine
 62
250
  6
CONTINUOUS
 10
0.6014767294
 20
-1.7651257748
 11
1.2106784075
 21
-2.4687251241
  0
LWPOLYLINE
  5
390
100
AcDbEntity
  8
ASSI
100
AcDbPolyline
 62
7
  6
CONTINUOUS
 90
10
 70
0
 10
3.2180290948
 20
-4.786490202
 10
3.172875778
 20
-4.7306598371
 10
3.125136382
 20
-4.6817234616
 10
3.0748109067
 20
-4.6396810753
 10
3.0225291182
 20
-4.604820108
 10
2.9676612505
 20
-4.57685313
 10
2.9083180052
 20
-4.5549178522
 10
2.8438696163
 20
-4.5387268449
 10
2.7749458498
 20
-4.5285675378
 10
2.7015467058
 20
-4.5244399309
  0
LWPOLYLINE
  5
391
100
AcDbEntity
  8
ASSI
100
AcDbPolyline
 62
7
  6
CONTINUOUS
 90
10
 70
0
 10
2.1836093368
 20
-6.2813983934
 10
2.2284900848
 20
-6.3369169072
 10
2.2760452881
 20
-6.3855846185
 10
2.3262749466
 20
-6.4274015272
 10
2.3785223846
 20
-6.4620841205
 10
2.4334442779
 20
-6.4899159113
 10
2.4930106539
 20
-6.5117474379
 10
2.5578781885
 20
-6.5278622131
 10
2.6273902058
 20
-6.5379767242
 10
2.7015467058
 20
-6.542090971
  0
LWPOLYLINE
  5
392
100
AcDbEntity
  8
ASSI
100
AcDbPolyline
 62
7
  6
CONTINUOUS
 90
10
 70
0
 10
3.0143460672
 20
-4.9602850748
 10
3.0354733105
 20
-4.9999351342
 10
3.0544943682
 20
-5.0446097791
 10
3.0714092402
 20
-5.0943090094
 10
3.0864107539
 20
-5.1487332227
 10
3.099306082
 20
-5.2081820215
 10
3.1095167423
 20
-5.2735542132
 10
3.1168499076
 20
-5.3451494002
 10
3.1214984052
 20
-5.4226679801
 10
3.123462235
 20
-5.5061099529
  0
LWPOLYLINE
  5
393
100
AcDbEntity
  8
ASSI
100
AcDbPolyline
 62
7
  6
CONTINUOUS
 90
10
 70
0
 10
0.328637112
 20
-5.9813306332
 10
0.3388951589
 20
-6.0455160595
 10
0.3526276198
 20
-6.1049068734
 10
0.3698344948
 20
-6.1595030746
 10
0.3905631224
 20
-6.208841369
 10
0.414766164
 20
-6.2533850508
 10
0.4423016038
 20
-6.2945240033
 10
0.4731221032
 20
-6.3327215208
 10
0.5072750009
 20
-6.3675143091
 10
0.5447602967
 20
-6.398902368
  0
LWPOLYLINE
  5
394
100
AcDbEntity
  8
ASSI
100
AcDbPolyline
 62
7
  6
CONTINUOUS
 90
10
 70
0
 10
-2.4516392438
 20
-5.0580447912
 10
-2.4588572151
 20
-5.0100965461
 10
-2.4672534723
 20
-4.9655795142
 10
-2.4768280154
 20
-4.9244936956
 10
-2.4876602005
 20
-4.8869856301
 10
-2.4996706715
 20
-4.8529087778
 10
-2.5126213601
 20
-4.8218235191
 10
-2.5264329102
 20
-4.7935833143
 10
-2.5411846777
 20
-4.7683347031
 10
-2.5568766629
 20
-4.7460776856
  0
LWPOLYLINE
  5
395
100
AcDbEntity
  8
0
100
AcDbPolyline
 62
7
  6
CONTINUOUS
 90
10
 70
0
 10
-0.0919732345
 20
-2.7480703072
 10
-0.1084950088
 20
-2.6289410104
 10
-0.1376029334
 20
-2.5010365608
 10
-0.1783164088
 20
-2.3746577892
 10
-0.2308493648
 20
-2.2510574351
 10
-0.2951008277
 20
-2.1313292375
 10
-0.3708488253
 20
-2.0165216216
 10
-0.4577866613
 20
-1.9078605077
 10
-0.5554684825
 20
-1.8066977283
 10
-0.6014901013
 20
-1.7651213229
  0
LWPOLYLINE
  5
396
100
AcDbEntity
  8
ASSI
100
AcDbPolyline
 62
7
  6
CONTINUOUS
 90
10
 70
0
 10
1.7573291783
 20
-5.8577732444
 10
1.7539491782
 20
-5.7915835949
 10
1.7459470506
 20
-5.7296435504
 10
1.7333227954
 20
-5.6719531108
 10
1.71612748
 20
-5.6190496815
 10
1.694310037
 20
-5.5703958571
 10
1.6677172644
 20
-5.524379422
 10
1.6362980948
 20
-5.4804629709
 10
1.6001035955
 20
-5.4391839092
 10
1.5591337667
 20
-5.4005422369
  0
LWPOLYLINE
  5
397
100
AcDbEntity
  8
ASSI
100
AcDbPolyline
 62
7
  6
CONTINUOUS
 90
10
 70
0
 10
3.4071638362
 20
-5.5006788969
 10
3.4034540127
 20
-5.3922058454
 10
3.3951132821
 20
-5.291328547
 10
3.3821416442
 20
-5.1980470019
 10
3.364132939
 20
-5.1127826301
 10
3.3414933265
 20
-5.0351140115
 10
3.3154412878
 20
-4.9637768854
 10
3.2863829831
 20
-4.8983498317
 10
3.2539122521
 20
-4.8392542705
 10
3.2180290948
 20
-4.786490202
  0
LWPOLYLINE
  5
398
100
AcDbEntity
  8
ASSI
100
AcDbPolyline
 62
7
  6
CONTINUOUS
 90
10
 70
0
 10
1.9959295753
 20
-5.5332654715
 10
1.9995518261
 20
-5.649842554
 10
2.0077779876
 20
-5.7576740586
 10
2.0206080597
 20
-5.8567599852
 10
2.0384369046
 20
-5.9465899641
 10
2.0608696602
 20
-6.027674365
 10
2.0867217398
 20
-6.1015442975
 10
2.1155982814
 20
-6.1687101313
 10
2.1478941471
 20
-6.2286614966
 10
2.1836093368
 20
-6.2813983934
  0
LINE
  5
399
100
AcDbEntity
  8
ASSI
100
AcDbLine
 62
7
  6
CONTINUOUS
 10
0.944722
 20
-10.4777688243
 11
0.944722
 21
-10.4477737805
  0
LINE
  5
39A
100
AcDbEntity
  8
ASSI
100
AcDbLine
 62
7
  6
CONTINUOUS
 10
1.133974
 20
10.4467937248
 11
1.133974
 21
10.4767942104
  0
LINE
  5
39B
100
AcDbEntity
  8
ASSI
100
AcDbLine
 62
7
  6
CONTINUOUS
 10
1.511406
 20
-10.4742908654
 11
1.511406
 21
-10.4442982291
  0
LINE
  5
39C
100
AcDbEntity
  8
ASSI
100
AcDbLine
 62
7
  6
CONTINUOUS
 10
1.646758649
 20
-4.8122878075
 11
1.646758649
 21
-4.5678886175
  0
LINE
  5
39D
100
AcDbEntity
  8
ASSI
100
AcDbLine
 62
7
  6
CONTINUOUS
 10
1.927651
 20
10.4407131325
 11
1.927651
 21
10.4707145286
  0
LINE
  5
39E
100
AcDbEntity
  8
0
100
AcDbLine
 62
250
  6
CONTINUOUS
 10
2.5517949192
 20
-1.0204463587
 11
2.5517949192
 21
-0.7825263236
  0
LINE
  5
39F
100
AcDbEntity
  8
0
100
AcDbLine
 62
250
  6
CONTINUOUS
 10
2.725
 20
-0.1535898385
 11
2.725
 21
-0.3267949192
  0
LINE
  5
3A0
100
AcDbEntity
  8
ASSI
100
AcDbLine
 62
7
  6
CONTINUOUS
 10
2.875986
 20
-10.4593276671
 11
2.875986
 21
-10.4293216123
  0
LINE
  5
3A1
100
AcDbEntity
  8
ASSI
100
AcDbLine
 62
7
  6
CONTINUOUS
 10
3.212671
 20
10.4241953993
 11
3.212671
 21
10.454199273
  0
LINE
  5
3A2
100
AcDbEntity
  8
ASSI
100
AcDbLine
 62
7
  6
CONTINUOUS
 10
3.72606
 20
-10.4452990747
 11
3.72606
 21
-10.4152872853
  0
LINE
  5
3A3
100
AcDbEntity
  8
ASSI
100
AcDbLine
 62
7
  6
CONTINUOUS
 10
4.062671
 20
10.4087308901
 11
4.062671
 21
10.438737084
  0
LINE
  5
3A4
100
AcDbEntity
  8
ASSI
100
AcDbLine
 62
7
  6
CONTINUOUS
 10
4.912703
 20
10.3896508408
 11
4.912703
 21
10.4196598977
  0
LINE
  5
3A5
100
AcDbEntity
  8
ASSI
100
AcDbLine
 62
7
  6
CONTINUOUS
 10
5.090661
 20
-10.4152207528
 11
5.090661
 21
-10.3852039712
  0
LINE
  5
3A6
100
AcDbEntity
  8
ASSI
100
AcDbLine
 62
7
  6
CONTINUOUS
 10
5.479387
 20
10.3749220668
 11
5.479387
 21
10.4049333342
  0
LINE
  5
3A7
100
AcDbEntity
  8
ASSI
100
AcDbLine
 62
7
  6
CONTINUOUS
 10
5.4834550342
 20
-10.4204308186
 11
5.4834550342
 21
-10.3704106073
  0
LWPOLYLINE
  5
3A8
100
AcDbEntity
  8
ASSI
100
AcDbPolyline
 62
7
  6
CONTINUOUS
 90
16
 70
0
 10
3.123462235
 20
-5.5061099529
 10
3.11986149
 20
-5.6282321036
 10
3.1119667348
 20
-5.738389424
 10
3.0997779695
 20
-5.8365819141
 10
3.0828493771
 20
-5.921966918
 10
3.0616267745
 20
-5.9953870916
 10
3.0374476132
 20
-6.0593704027
 10
3.0105024282
 20
-6.1139513453
 10
2.9806006844
 20
-6.1590954254
 10
2.9485082282
 20
-6.197227129
 10
2.9148482499
 20
-6.2286329375
 10
2.8789975592
 20
-6.2530263695
 10
2.8398524319
 20
-6.2719724669
 10
2.7970449598
 20
-6.2859929101
 10
2.7509430511
 20
-6.2945660185
 10
2.7015467058
 20
-6.2976917922
  0
LWPOLYLINE
  5
3A9
100
AcDbEntity
  8
ASSI
100
AcDbPolyline
 62
7
  6
CONTINUOUS
 90
16
 70
0
 10
2.2796316874
 20
-5.5346232057
 10
2.2831516254
 20
-5.4170890838
 10
2.290909482
 20
-5.3110228157
 10
2.3029052572
 20
-5.2164244014
 10
2.3195642311
 20
-5.1341070363
 10
2.3404611236
 20
-5.0632575251
 10
2.3643200945
 20
-5.0014362811
 10
2.3909280682
 20
-4.9486056606
 10
2.4204981202
 20
-4.9048033073
 10
2.4523936377
 20
-4.8677025665
 10
2.4860239562
 20
-4.8369849071
 10
2.5219797402
 20
-4.8129688601
 10
2.5613963691
 20
-4.7942833641
 10
2.604652303
 20
-4.7804713987
 10
2.6513690819
 20
-4.7719899843
 10
2.7015467058
 20
-4.7688391209
  0
LWPOLYLINE
  5
3AA
100
AcDbEntity
  8
ASSI
100
AcDbPolyline
 62
7
  6
CONTINUOUS
 90
10
 70
0
 10
1.4736275772
 20
-5.8835709691
 10
1.4714997463
 20
-5.927023582
 10
1.4664392693
 20
-5.9677596824
 10
1.4584461462
 20
-6.0057792703
 10
1.4475214651
 20
-6.0407677419
 10
1.4336641378
 20
-6.0730397011
 10
1.4168708996
 20
-6.1035389593
 10
1.3971406622
 20
-6.1325801203
 10
1.3744745137
 20
-6.1598485802
 10
1.3488724544
 20
-6.1853443392
  0
LWPOLYLINE
  5
3AB
100
AcDbEntity
  8
0
100
AcDbPolyline
 62
250
  6
CONTINUOUS
 90
10
 70
0
 10
2.3746740111
 20
-1.3835371888
 10
2.375371968
 20
-1.3755616696
 10
2.3761136121
 20
-1.366117708
 10
2.3767608233
 20
-1.3566762212
 10
2.3773126798
 20
-1.3472370506
 10
2.3777701035
 20
-1.3378003549
 10
2.3781271279
 20
-1.3283590139
 10
2.3783817641
 20
-1.3189106545
 10
2.378536001
 20
-1.3094576498
 10
2.3785898385
 20
-1.3
  0
LINE
  5
3AC
100
AcDbEntity
  8
ASSI
100
AcDbLine
 62
7
  6
CONTINUOUS
 10
0.5657823512
 20
-4.5678886175
 11
0.3955615949
 21
-5.6350984573
  0
LINE
  5
3AD
100
AcDbEntity
  8
ASSI
100
AcDbLine
 62
7
  6
CONTINUOUS
 10
0.6778080383
 20
-5.3553971052
 11
0.7694656044
 21
-4.8122878075
  0
LWPOLYLINE
  5
3AE
100
AcDbEntity
  8
ASSI
100
AcDbPolyline
 62
7
  6
CONTINUOUS
 90
10
 70
0
 10
-1.0098530569
 20
-6.2556008101
 10
-1.0006075957
 20
-6.2273550497
 10
-0.9900478288
 20
-6.2002525448
 10
-0.9781737562
 20
-6.1742932954
 10
-0.9650680751
 20
-6.1496199867
 10
-0.9506480882
 20
-6.1260899334
 10
-0.934665704
 20
-6.1032750795
 10
-0.9170382251
 20
-6.0810327396
 10
-0.8978483489
 20
-6.0595055992
 10
-0.8770960753
 20
-6.0386936581
  0
LWPOLYLINE
  5
3AF
100
AcDbEntity
  8
ASSI
100
AcDbPolyline
 62
7
  6
CONTINUOUS
 90
10
 70
0
 10
-1.1622771231
 20
-5.9829013501
 10
-1.1894172968
 20
-6.0224613892
 10
-1.2141682617
 20
-6.0662956356
 10
-1.2365300177
 20
-6.1144040893
 10
-1.2567471718
 20
-6.1665205712
 10
-1.274575117
 20
-6.2229112603
 10
-1.2892800325
 20
-6.2843746941
 10
-1.3006173112
 20
-6.3511770515
 10
-1.30883156
 20
-6.4230521535
 10
-1.313922779
 20
-6.5
  0
LWPOLYLINE
  5
3B0
100
AcDbEntity
  8
ASSI
100
AcDbPolyline
 62
7
  6
CONTINUOUS
 90
10
 70
0
 10
2.1879741513
 20
-4.7797012527
 10
2.1515441311
 20
-4.8310835719
 10
2.1185746899
 20
-4.8901203376
 10
2.0890658277
 20
-4.9568115496
 10
2.062601072
 20
-5.0305807905
 10
2.0395968954
 20
-5.1120044778
 10
2.0213027156
 20
-5.2028118642
 10
2.0081350053
 20
-5.3035793674
 10
1.9996772919
 20
-5.4137305699
 10
1.9959295753
 20
-5.5332654715
  0
LWPOLYLINE
  5
3B1
100
AcDbEntity
  8
ASSI
100
AcDbPolyline
 62
7
  6
CONTINUOUS
 90
10
 70
0
 10
-0.0129063231
 20
-5.477859091
 10
0.0135686762
 20
-5.4441251365
 10
0.0370226436
 20
-5.4087500413
 10
0.0574555792
 20
-5.3717338055
 10
0.0748818192
 20
-5.3333819025
 10
0.0892870274
 20
-5.293388859
 10
0.100628195
 20
-5.2508382543
 10
0.1088909856
 20
-5.205424615
 10
0.1140897357
 20
-5.1574534146
 10
0.1162244451
 20
-5.1069246531
  0
LWPOLYLINE
  5
3B2
100
AcDbEntity
  8
ASSI
100
AcDbPolyline
 62
7
  6
CONTINUOUS
 90
10
 70
0
 10
-2.5942173697
 20
-6.3465716227
 10
-2.557005975
 20
-6.3030097746
 10
-2.5240329199
 20
-6.2569470747
 10
-2.4952982044
 20
-6.2083835228
 10
-2.4707847044
 20
-6.1578191164
 10
-2.450509544
 20
-6.104753858
 10
-2.4345240955
 20
-6.0476877559
 10
-2.4228454829
 20
-5.9861208126
 10
-2.4154565821
 20
-5.9205530255
 10
-2.4123573932
 20
-5.8509843946
  0
LINE
  5
3B3
100
AcDbEntity
  8
0
100
AcDbLine
 62
250
  6
CONTINUOUS
 10
-0.6014767294
 20
-1.7651257748
 11
-1.2106784075
 21
-2.4687251241
  0
LWPOLYLINE
  5
3B4
100
AcDbEntity
  8
ASSI
100
AcDbPolyline
 62
7
  6
CONTINUOUS
 90
10
 70
0
 10
-0.2504053086
 20
-5.3431771994
 10
-0.2688174658
 20
-5.3640767741
 10
-0.2931203101
 20
-5.3867324383
 10
-0.3233138414
 20
-5.4111441918
 10
-0.3590096711
 20
-5.4372038359
 10
-0.4005961879
 20
-5.4650195695
 10
-0.4492385577
 20
-5.4949159889
 10
-0.5053251692
 20
-5.5270012931
 10
-0.5684676337
 20
-5.5611672833
 10
-0.6386659512
 20
-5.5974139594
  0
LWPOLYLINE
  5
3B5
100
AcDbEntity
  8
ASSI
100
AcDbPolyline
 62
7
  6
CONTINUOUS
 90
10
 70
0
 10
-1.0738676046
 20
-4.7036660909
 10
-1.1099675101
 20
-4.7408740142
 10
-1.142428969
 20
-4.7832728503
 10
-1.1712519814
 20
-4.8308625993
 10
-1.1967213811
 20
-4.8831034035
 10
-1.2185523342
 20
-4.9405351207
 10
-1.2358903389
 20
-5.0047773236
 10
-1.2484505614
 20
-5.0763698698
 10
-1.2565178355
 20
-5.1547729019
 10
-1.2600921612
 20
-5.2399864197
  0
LWPOLYLINE
  5
3B6
100
AcDbEntity
  8
0
100
AcDbPolyline
 62
250
  6
CONTINUOUS
 90
8
 70
0
 10
0.7400398271
 20
-1.9251596501
 10
0.6203759151
 20
-2.0383483344
 10
0.5110144429
 20
-2.1618990159
 10
0.4147350079
 20
-2.2931573227
 10
0.3339987924
 20
-2.4278145863
 10
0.2690409035
 20
-2.5640501605
 10
0.2182263122
 20
-2.7032934822
 10
0.2085312882
 20
-2.7403506794
  0
LWPOLYLINE
  5
3B7
100
AcDbEntity
  8
ASSI
100
AcDbPolyline
 62
7
  6
CONTINUOUS
 90
10
 70
0
 10
-2.8091770628
 20
-6.1812279247
 10
-2.8346634032
 20
-6.2053166234
 10
-2.8617169928
 20
-6.2266042266
 10
-2.8903378316
 20
-6.2450907342
 10
-2.9202129419
 20
-6.2607574419
 10
-2.9516553013
 20
-6.273623054
 10
-2.9856038436
 20
-6.2837436837
 10
-3.0223715466
 20
-6.2911380356
 10
-3.0616454323
 20
-6.2957874051
 10
-3.1034255009
 20
-6.2976917922
  0
LWPOLYLINE
  5
3B8
100
AcDbEntity
  8
ASSI
100
AcDbPolyline
 62
7
  6
CONTINUOUS
 90
10
 70
0
 10
-0.8614895028
 20
-4.8855782708
 10
-0.8362917647
 20
-4.8619114737
 10
-0.8092457147
 20
-4.8408894467
 10
-0.7803513528
 20
-4.8225121899
 10
-0.7499003824
 20
-4.8067408034
 10
-0.7176011001
 20
-4.7936141869
 10
-0.6825783958
 20
-4.7832490405
 10
-0.6445405659
 20
-4.775684264
 10
-0.6037793139
 20
-4.7708809574
 10
-0.5602946398
 20
-4.7688391209
  0
LWPOLYLINE
  5
3B9
100
AcDbEntity
  8
ASSI
100
AcDbPolyline
 62
7
  6
CONTINUOUS
 90
10
 70
0
 10
-3.4031308054
 20
-5.599796325
 10
-3.3785619913
 20
-5.5773609571
 10
-3.3518458852
 20
-5.5573383559
 10
-3.3229824871
 20
-5.5397285214
 10
-3.292288759
 20
-5.5244439135
 10
-3.2594477389
 20
-5.5115720723
 10
-3.2235085405
 20
-5.501375618
 10
-3.1841542018
 20
-5.4939420908
 10
-3.1417016848
 20
-5.4891839505
 10
-3.0961509895
 20
-5.4871011972
  0
LWPOLYLINE
  5
3BA
100
AcDbEntity
  8
ASSI
100
AcDbPolyline
 62
7
  6
CONTINUOUS
 90
10
 70
0
 10
0.6327068341
 20
-5.6513917446
 10
0.6757742642
 20
-5.612063986
 10
0.7187717537
 20
-5.577905347
 10
0.7616993027
 20
-5.5489158275
 10
0.8043784228
 20
-5.5254157628
 10
0.8469876024
 20
-5.5070848178
 10
0.8900623058
 20
-5.4929619867
 10
0.9337810214
 20
-5.4827269345
 10
0.9779652608
 20
-5.4766999963
 10
1.0226150242
 20
-5.4748811722
  0
LWPOLYLINE
  5
3BB
100
AcDbEntity
  8
0
100
AcDbPolyline
 62
7
  6
CONTINUOUS
 90
10
 70
0
 10
0.6014896272
 20
-1.7651214625
 10
0.5554355347
 20
-1.8067283989
 10
0.457738201
 20
-1.9079149035
 10
0.3707938053
 20
-2.0165961525
 10
0.2950451317
 20
-2.1314206558
 10
0.2307979254
 20
-2.2511619448
 10
0.1782738426
 20
-2.374769596
 10
0.1375721659
 20
-2.5011475261
 10
0.1084764557
 20
-2.6290424807
 10
0.0919763381
 20
-2.7480703072
  0
LWPOLYLINE
  5
3BC
100
AcDbEntity
  8
ASSI
100
AcDbPolyline
 62
7
  6
CONTINUOUS
 90
10
 70
0
 10
-0.8770960753
 20
-6.0386936581
 10
-0.8556189858
 20
-6.019566161
 10
-0.8280069492
 20
-5.9982260986
 10
-0.7942599654
 20
-5.9746734711
 10
-0.7547510283
 20
-5.9490141638
 10
-0.709107144
 20
-5.9211422914
 10
-0.6562093314
 20
-5.8907401973
 10
-0.5956845968
 20
-5.8577019958
 10
-0.5279059339
 20
-5.8221335725
 10
-0.4528733427
 20
-5.7840349275
  0
LWPOLYLINE
  5
3BD
100
AcDbEntity
  8
0
100
AcDbPolyline
 62
7
  6
CONTINUOUS
 90
4
 70
0
 10
1.1191939186
 20
-2.3630648327
 10
1.0083444695
 20
-2.4601175646
 10
0.8993670406
 20
-2.5586888377
 10
0.8349971291
 20
-2.6196846401
  0
LWPOLYLINE
  5
3BE
100
AcDbEntity
  8
ASSI
100
AcDbPolyline
 62
7
  6
CONTINUOUS
 90
10
 70
0
 10
-4.8972928236
 20
-4.835369997
 10
-4.9194827799
 20
-4.849562588
 10
-4.9467814765
 20
-4.8626963959
 10
-4.9791889131
 20
-4.8747714205
 10
-5.0163645924
 20
-4.8858883909
 10
-5.0586490119
 20
-4.8959465782
 10
-5.107063664
 20
-4.9046437951
 10
-5.1619490464
 20
-4.9118793127
 10
-5.2229646614
 20
-4.91775386
 10
-5.2901105091
 20
-4.922267437
  0
LWPOLYLINE
  5
3BF
100
AcDbEntity
  8
ASSI
100
AcDbPolyline
 62
7
  6
CONTINUOUS
 90
10
 70
0
 10
-3.2927986044
 20
-4.83233661
 10
-3.2699938161
 20
-4.8186164773
 10
-3.2471772267
 20
-4.8066051942
 10
-3.2243488363
 20
-4.7963027608
 10
-3.2015517463
 20
-4.7877660243
 10
-3.1787428552
 20
-4.7809381375
 10
-3.1557928584
 20
-4.775648558
 10
-3.1326586543
 20
-4.7718404383
 10
-3.1093833445
 20
-4.769570626
 10
-3.085966929
 20
-4.7688391209
  0
LWPOLYLINE
  5
3C0
100
AcDbEntity
  8
ASSI
100
AcDbPolyline
 62
250
  6
CONTINUOUS
 90
3
 70
0
 10
-13.6399305315
 20
-9.9708785544
 10
-13.6888606755
 20
-9.9976965833
 10
-13.742689641
 20
-10.0327637004
  0
LWPOLYLINE
  5
3C1
100
AcDbEntity
  8
ASSI
100
AcDbPolyline
 62
7
  6
CONTINUOUS
 90
10
 70
0
 10
-0.6386659512
 20
-5.5974139594
 10
-0.7279652878
 20
-5.6444970972
 10
-0.8091523074
 20
-5.6905223809
 10
-0.88222701
 20
-5.7354898105
 10
-0.9467464119
 20
-5.7794059823
 10
-1.0031534968
 20
-5.8222643
 10
-1.0527772153
 20
-5.8640449746
 10
-1.0960605509
 20
-5.9047414096
 10
-1.1325605202
 20
-5.9443602014
 10
-1.1622771231
 20
-5.9829013501
  0
LWPOLYLINE
  5
3C2
100
AcDbEntity
  8
ASSI
100
AcDbPolyline
 62
7
  6
CONTINUOUS
 90
10
 70
0
 10
-0.4528733427
 20
-5.7840349275
 10
-0.3813129072
 20
-5.7470109988
 10
-0.315622304
 20
-5.7107437153
 10
-0.2558015332
 20
-5.675233077
 10
-0.2021186339
 20
-5.6404864805
 10
-0.154305567
 20
-5.6064965291
 10
-0.1115582142
 20
-5.5732410334
 10
-0.0736085363
 20
-5.5407125969
 10
-0.0407245726
 20
-5.5089186161
 10
-0.0129063231
 20
-5.477859091
  0
LINE
  5
3C3
100
AcDbEntity
  8
ASSI
100
AcDbLine
 62
250
  6
CONTINUOUS
 10
19.3552504866
 20
8.0341674081
 11
19.5574402892
 21
8.0613786165
  0
LINE
  5
3C4
100
AcDbEntity
  8
ASSI
100
AcDbLine
 62
250
  6
CONTINUOUS
 10
19.5574402892
 20
8.0613786165
 11
19.6472976735
 21
8.0731426224
  0
LINE
  5
3C5
100
AcDbEntity
  8
0
100
AcDbLine
 62
7
  6
CONTINUOUS
 10
13.0
 20
2.4104701077
 11
11.4992348503
 21
2.363809512
  0
LINE
  5
3C6
100
AcDbEntity
  8
RACCORDO
100
AcDbLine
 62
7
  6
CONTINUOUS
 10
13.05
 20
2.7116244175
 11
12.2872714249
 21
2.7069279362
  0
LINE
  5
3C7
100
AcDbEntity
  8
0
100
AcDbLine
 62
7
  6
CONTINUOUS
 10
10.8183038128
 20
1.7533320997
 11
14.2397264044
 21
1.7533320997
  0
LINE
  5
3C8
100
AcDbEntity
  8
0
100
AcDbLine
 62
7
  6
CONTINUOUS
 10
13.0
 20
2.1473460386
 11
11.2036944565
 21
2.1473460386
  0
LINE
  5
3C9
100
AcDbEntity
  8
DRAFT
100
AcDbLine
 62
7
  6
CONTINUOUS
 10
13.5243042929
 20
2.75
 11
13.169782451
 21
2.75
  0
LINE
  5
3CA
100
AcDbEntity
  8
RACCORDO
100
AcDbLine
 62
7
  6
CONTINUOUS
 10
13.05
 20
2.75
 11
12.4755196516
 21
2.75
  0
LINE
  5
3CB
100
AcDbEntity
  8
DRAFT
100
AcDbLine
 62
7
  6
CONTINUOUS
 10
-12.4756957071
 20
2.75
 11
-13.05
 21
2.75
  0
LINE
  5
3CC
100
AcDbEntity
  8
DRAFT
100
AcDbLine
 62
7
  6
CONTINUOUS
 10
13.0
 20
2.7552454339
 11
12.5036108934
 21
2.7552454339
  0
LINE
  5
3CD
100
AcDbEntity
  8
ASSI
100
AcDbLine
 62
7
  6
CONTINUOUS
 10
-13.35
 20
3.5
 11
13.35
 21
3.5
  0
LINE
  5
3CE
100
AcDbEntity
  8
ASSI
100
AcDbLine
 62
250
  6
CONTINUOUS
 10
-19.4586499479
 20
8.0481944773
 11
-19.6472976735
 21
8.0731426224
  0
LINE
  5
3CF
100
AcDbEntity
  8
ASSI
100
AcDbLine
 62
250
  6
CONTINUOUS
 10
-19.3552504866
 20
8.0341674081
 11
-19.4586499479
 21
8.0481944773
  0
LINE
  5
3D0
100
AcDbEntity
  8
DRAFT
100
AcDbLine
 62
7
  6
CONTINUOUS
 10
15.0072338613
 20
-1.4443458682
 11
15.3024636329
 21
-1.5345111925
  0
LWPOLYLINE
  5
3D1
100
AcDbEntity
  8
ASSI
100
AcDbPolyline
 62
250
  6
CONTINUOUS
 90
3
 70
0
 10
-13.6399305315
 20
9.9708785544
 10
-13.6888606755
 20
9.9976965833
 10
-13.742689641
 20
10.0327637004
  0
LWPOLYLINE
  5
3D2
100
AcDbEntity
  8
0
100
AcDbPolyline
 62
250
  6
CONTINUOUS
 90
5
 70
0
 10
0.7169036892
 20
2.344973447
 10
0.6048915671
 20
2.4468404652
 10
0.5005751789
 20
2.5566065324
 10
0.4067529665
 20
2.6721037687
 10
0.3716391532
 20
2.7231338097
  0
LINE
  5
3D3
100
AcDbEntity
  8
0
100
AcDbLine
 62
250
  6
CONTINUOUS
 10
-0.5800828445
 20
2.1834475056
 11
-0.9232415411
 21
2.5885687548
  0
LWPOLYLINE
  5
3D4
100
AcDbEntity
  8
0
100
AcDbPolyline
 62
7
  6
CONTINUOUS
 90
8
 70
0
 10
0.1688558512
 20
2.7430904677
 10
0.1700942377
 20
2.7398179675
 10
0.2227474684
 20
2.6289636497
 10
0.2858069863
 20
2.520527778
 10
0.3593938954
 20
2.4154802672
 10
0.4435140152
 20
2.3150161018
 10
0.5379956224
 20
2.2205019589
 10
0.580097117
 20
2.1834422075
  0
LINE
  5
3D5
100
AcDbEntity
  8
ASSI
100
AcDbLine
 62
7
  6
CONTINUOUS
 10
5.657345
 20
-10.3999919267
 11
5.657345
 21
-10.3699650883
  0
LINE
  5
3D6
100
AcDbEntity
  8
ASSI
100
AcDbLine
 62
7
  6
CONTINUOUS
 10
6.329429
 20
10.3498142773
 11
6.329429
 21
10.3798293136
  0
LINE
  5
3D7
100
AcDbEntity
  8
ASSI
100
AcDbLine
 62
7
  6
CONTINUOUS
 10
7.269009
 20
10.317855698
 11
7.269009
 21
10.3478755345
  0
LINE
  5
3D8
100
AcDbEntity
  8
ASSI
100
AcDbLine
 62
7
  6
CONTINUOUS
 10
7.647832
 20
-10.3337591928
 11
7.647832
 21
-10.3037139001
  0
LINE
  5
3D9
100
AcDbEntity
  8
ASSI
100
AcDbLine
 62
7
  6
CONTINUOUS
 10
8.208599
 20
10.2814657847
 11
8.208599
 21
10.3114910855
  0
LINE
  5
3DA
100
AcDbEntity
  8
ASSI
100
AcDbLine
 62
7
  6
CONTINUOUS
 10
8.951248637
 20
-10.2796343988
 11
8.951248637
 21
-10.2495773365
  0
LINE
  5
3DB
100
AcDbEntity
  8
ASSI
100
AcDbLine
 62
7
  6
CONTINUOUS
 10
9.058641
 20
-10.2747951358
 11
9.058641
 21
-10.244740301
  0
LINE
  5
3DC
100
AcDbEntity
  8
ASSI
100
AcDbLine
 62
7
  6
CONTINUOUS
 10
9.058641
 20
10.2447349474
 11
9.058641
 21
10.2747657674
  0
LWPOLYLINE
  5
3DD
100
AcDbEntity
  8
ASSI
100
AcDbPolyline
 62
7
  6
CONTINUOUS
 90
10
 70
0
 10
3.2136646463
 20
-6.2881873716
 10
3.2500828407
 20
-6.2367834534
 10
3.2831077978
 20
-6.1768621318
 10
3.3127395173
 20
-6.108423407
 10
3.3394264443
 20
-6.0321430823
 10
3.3627201338
 20
-5.9473453543
 10
3.3812752512
 20
-5.8520028127
 10
3.3946433516
 20
-5.7454396543
 10
3.40327288
 20
-5.6283316824
 10
3.4071638362
 20
-5.5006788969
  0
LWPOLYLINE
  5
3DE
100
AcDbEntity
  8
ASSI
100
AcDbPolyline
 62
7
  6
CONTINUOUS
 90
10
 70
0
 10
4.2771816029
 20
-5.9310930371
 10
4.3110634186
 20
-5.8833002761
 10
4.3461750976
 20
-5.8417799178
 10
4.38251664
 20
-5.8065319624
 10
4.4197123392
 20
-5.7779844708
 10
4.4581379019
 20
-5.7557093821
 10
4.4989204474
 20
-5.738422513
 10
4.5424356823
 20
-5.7256958025
 10
4.5883079001
 20
-5.7179573116
 10
4.6365371007
 20
-5.7152070403
  0
LWPOLYLINE
  5
3DF
100
AcDbEntity
  8
ASSI
100
AcDbPolyline
 62
7
  6
CONTINUOUS
 90
10
 70
0
 10
1.5576367961
 20
-6.3503060393
 10
1.5989459872
 20
-6.3069628722
 10
1.635442228
 20
-6.2611587843
 10
1.6671255184
 20
-6.2128937759
 10
1.6939523075
 20
-6.1626808522
 10
1.7159661462
 20
-6.1100070078
 10
1.7332976874
 20
-6.0533332265
 10
1.7459904819
 20
-5.9921465028
 10
1.7540009789
 20
-5.9269598421
 10
1.7573291783
 20
-5.8577732444
  0
LWPOLYLINE
  5
3E0
100
AcDbEntity
  8
ASSI
100
AcDbPolyline
 62
7
  6
CONTINUOUS
 90
10
 70
0
 10
5.7538856999
 20
-5.5617786646
 10
5.7134334843
 20
-5.5959313249
 10
5.6743703337
 20
-5.6254513651
 10
5.6366962482
 20
-5.6503387851
 10
5.6004721664
 20
-5.6702693094
 10
5.5656371496
 20
-5.6855672135
 10
5.5320083821
 20
-5.6972053239
 10
5.4995249253
 20
-5.7055079159
 10
5.4682477178
 20
-5.7101507141
 10
5.4381767596
 20
-5.7111337185
  0
LWPOLYLINE
  5
3E1
100
AcDbEntity
  8
ASSI
100
AcDbPolyline
 62
7
  6
CONTINUOUS
 90
10
 70
0
 10
1.3488724544
 20
-6.1853443392
 10
1.3216586086
 20
-6.208207478
 10
1.2927177038
 20
-6.2285019878
 10
1.26204974
 20
-6.2462278685
 10
1.2299332352
 20
-6.2614203109
 10
1.1960896713
 20
-6.2740441242
 10
1.1596834944
 20
-6.2839937363
 10
1.1204361864
 20
-6.2912339563
 10
1.0786262655
 20
-6.2957999749
 10
1.0342537315
 20
-6.2976917922
  0
LINE
  5
3E2
100
AcDbEntity
  8
ASSI
100
AcDbLine
 62
250
  6
CONTINUOUS
 10
19.6472976735
 20
8.0731426224
 11
19.7569366512
 21
8.0870258867
  0
LWPOLYLINE
  5
3E3
100
AcDbEntity
  8
ASSI
100
AcDbPolyline
 62
250
  6
CONTINUOUS
 90
6
 70
0
 10
19.7569366512
 20
8.0870258867
 10
19.8085401358
 20
8.0932456517
 10
19.826989491
 20
8.0953338246
 10
19.8402503355
 20
8.0967078529
 10
19.8481706618
 20
8.0973512585
 10
19.8506601422
 20
8.0972562757
  0
LWPOLYLINE
  5
3E4
100
AcDbEntity
  8
ASSI
100
AcDbPolyline
 62
250
  6
CONTINUOUS
 90
4
 70
0
 10
14.9409196623
 20
9.8523500458
 10
14.9442520048
 20
9.8526502967
 10
14.9707990746
 20
9.8558292887
 10
14.9972604359
 20
9.8597867644
  0
LINE
  5
3E5
100
AcDbEntity
  8
0
100
AcDbLine
 62
250
  6
CONTINUOUS
 10
-12.0788014055
 20
9.5877857217
 11
-11.5637965851
 21
9.6189453348
  0
LINE
  5
3E6
100
AcDbEntity
  8
0
100
AcDbLine
 62
250
  6
CONTINUOUS
 10
-11.5637965851
 20
9.6189453348
 11
-11.1024421252
 21
9.6451783155
  0
LINE
  5
3E7
100
AcDbEntity
  8
0
100
AcDbLine
 62
250
  6
CONTINUOUS
 10
-11.1024421252
 20
9.6451783155
 11
-10.5605098918
 21
9.6746300609
  0
LINE
  5
3E8
100
AcDbEntity
  8
0
100
AcDbLine
 62
250
  6
CONTINUOUS
 10
-10.5605098918
 20
9.6746300609
 11
-10.1150952327
 21
9.6977484828
  0
LINE
  5
3E9
100
AcDbEntity
  8
0
100
AcDbLine
 62
250
  6
CONTINUOUS
 10
-10.1150952327
 20
9.6977484828
 11
-9.6639851885
 21
9.7201430377
  0
LINE
  5
3EA
100
AcDbEntity
  8
0
100
AcDbLine
 62
250
  6
CONTINUOUS
 10
-9.6639851885
 20
9.7201430377
 11
-9.2125280614
 21
9.7415526482
  0
LINE
  5
3EB
100
AcDbEntity
  8
0
100
AcDbLine
 62
250
  6
CONTINUOUS
 10
-9.2125280614
 20
9.7415526482
 11
-8.7586356459
 21
9.7620391678
  0
LWPOLYLINE
  5
3EC
100
AcDbEntity
  8
ASSI
100
AcDbPolyline
 62
250
  6
CONTINUOUS
 90
9
 70
0
 10
15.1380549281
 20
9.8365726654
 10
15.158965028
 20
9.837495247
 10
15.1798788038
 20
9.837982
 10
15.200787112
 20
9.8380333755
 10
15.2216872413
 20
9.8376496416
 10
15.2425637178
 20
9.8368311694
 10
15.2633883486
 20
9.8355797645
 10
15.2841458434
 20
9.8338976647
 10
15.3048337707
 20
9.8317862072
  0
LINE
  5
3ED
100
AcDbEntity
  8
0
100
AcDbLine
 62
250
  6
CONTINUOUS
 10
-8.7586356459
 20
9.7620391678
 11
-8.2598308943
 21
9.7833407049
  0
LINE
  5
3EE
100
AcDbEntity
  8
0
100
AcDbLine
 62
250
  6
CONTINUOUS
 10
-8.2598308943
 20
9.7833407049
 11
-7.8957147414
 21
9.7980941052
  0
LINE
  5
3EF
100
AcDbEntity
  8
0
100
AcDbLine
 62
250
  6
CONTINUOUS
 10
-7.8957147414
 20
9.7980941052
 11
-7.5064456966
 21
9.813140431
  0
LINE
  5
3F0
100
AcDbEntity
  8
0
100
AcDbLine
 62
250
  6
CONTINUOUS
 10
-7.5064456966
 20
9.813140431
 11
-7.0874979864
 21
9.8284894056
  0
LINE
  5
3F1
100
AcDbEntity
  8
0
100
AcDbLine
 62
250
  6
CONTINUOUS
 10
-7.0874979864
 20
9.8284894056
 11
-6.637182827
 21
9.8439705805
  0
LINE
  5
3F2
100
AcDbEntity
  8
0
100
AcDbLine
 62
250
  6
CONTINUOUS
 10
-6.637182827
 20
9.8439705805
 11
-6.1557869547
 21
9.8594238129
  0
LINE
  5
3F3
100
AcDbEntity
  8
0
100
AcDbLine
 62
250
  6
CONTINUOUS
 10
-6.1557869547
 20
9.8594238129
 11
-5.6447986249
 21
9.8745413027
  0
LINE
  5
3F4
100
AcDbEntity
  8
0
100
AcDbLine
 62
250
  6
CONTINUOUS
 10
-5.6447986249
 20
9.8745413027
 11
-5.1110576951
 21
9.8888953022
  0
LINE
  5
3F5
100
AcDbEntity
  8
0
100
AcDbLine
 62
250
  6
CONTINUOUS
 10
-5.1110576951
 20
9.8888953022
 11
-4.5724608652
 21
9.9020042276
  0
LINE
  5
3F6
100
AcDbEntity
  8
0
100
AcDbLine
 62
250
  6
CONTINUOUS
 10
-4.5724608652
 20
9.9020042276
 11
-4.0952057373
 21
9.91239584
  0
LINE
  5
3F7
100
AcDbEntity
  8
0
100
AcDbLine
 62
250
  6
CONTINUOUS
 10
-4.0952057373
 20
9.91239584
 11
-3.6197797466
 21
9.9215474612
  0
LINE
  5
3F8
100
AcDbEntity
  8
0
100
AcDbLine
 62
250
  6
CONTINUOUS
 10
-3.6197797466
 20
9.9215474612
 11
-3.139559299
 21
9.9296903443
  0
LINE
  5
3F9
100
AcDbEntity
  8
ASSI
100
AcDbLine
 62
250
  6
CONTINUOUS
 10
13.7429595716
 20
10.0326426202
 11
13.4374811682
 21
10.0273701518
  0
LINE
  5
3FA
100
AcDbEntity
  8
0
100
AcDbLine
 62
250
  6
CONTINUOUS
 10
-3.139559299
 20
9.9296903443
 11
-2.6713468481
 21
9.9364655287
  0
LWPOLYLINE
  5
3FB
100
AcDbEntity
  8
ASSI
100
AcDbPolyline
 62
250
  6
CONTINUOUS
 90
3
 70
0
 10
13.4374811682
 20
10.0273701518
 10
13.1097348031
 20
10.0228745748
 10
12.9881426272
 20
10.0214140599
  0
LINE
  5
3FC
100
AcDbEntity
  8
0
100
AcDbLine
 62
250
  6
CONTINUOUS
 10
-2.6713468481
 20
9.9364655287
 11
-2.2716926466
 21
9.9415106678
  0
LINE
  5
3FD
100
AcDbEntity
  8
0
100
AcDbLine
 62
250
  6
CONTINUOUS
 10
-2.2716926466
 20
9.9415106678
 11
-1.7297256813
 21
9.9468623806
  0
LWPOLYLINE
  5
3FE
100
AcDbEntity
  8
0
100
AcDbPolyline
 62
250
  6
CONTINUOUS
 90
7
 70
0
 10
-1.7297256813
 20
9.9468623806
 10
-1.1012100065
 20
9.9514634195
 10
-0.8859382689
 20
9.9526748929
 10
-0.6680940509
 20
9.9532499366
 10
-0.4479685144
 20
9.9530424325
 10
-0.2252704974
 20
9.9521984986
 10
0.0
 20
9.950718135
  0
LINE
  5
3FF
100
AcDbEntity
  8
0
100
AcDbLine
 62
7
  6
CONTINUOUS
 10
18.05
 20
8.9784396842
 11
-18.05
 21
8.9784396842
  0
LWPOLYLINE
  5
400
100
AcDbEntity
  8
0
100
AcDbPolyline
 62
250
  6
CONTINUOUS
 90
5
 70
0
 10
0.9180032223
 20
9.9525300649
 10
0.6924225405
 20
9.9531671988
 10
0.4644200986
 20
9.9530034899
 10
0.2336125851
 20
9.9521871353
 10
0.0
 20
9.950718135
  0
LINE
  5
401
100
AcDbEntity
  8
0
100
AcDbLine
 62
250
  6
CONTINUOUS
 10
1.5756757681
 20
9.9481517767
 11
0.9180032223
 21
9.9525300649
  0
LINE
  5
402
100
AcDbEntity
  8
0
100
AcDbLine
 62
250
  6
CONTINUOUS
 10
2.1747917834
 20
9.9425858663
 11
1.5756757681
 21
9.9481517767
  0
LINE
  5
403
100
AcDbEntity
  8
0
100
AcDbLine
 62
250
  6
CONTINUOUS
 10
2.5441288784
 20
9.9381660437
 11
2.1747917834
 21
9.9425858663
  0
LINE
  5
404
100
AcDbEntity
  8
ASSI
100
AcDbLine
 62
250
  6
CONTINUOUS
 10
-13.4374811682
 20
10.0273701518
 11
-12.9881426272
 21
10.0214140599
  0
LINE
  5
405
100
AcDbEntity
  8
0
100
AcDbLine
 62
250
  6
CONTINUOUS
 10
3.0223655651
 20
9.9314692705
 11
2.5441288784
 21
9.9381660437
  0
LINE
  5
406
100
AcDbEntity
  8
0
100
AcDbLine
 62
250
  6
CONTINUOUS
 10
3.5215149748
 20
9.9233095846
 11
3.0223655651
 21
9.9314692705
  0
LINE
  5
407
100
AcDbEntity
  8
ASSI
100
AcDbLine
 62
250
  6
CONTINUOUS
 10
-13.7429595716
 20
10.0326426202
 11
-13.4374811682
 21
10.0273701518
  0
LINE
  5
408
100
AcDbEntity
  8
0
100
AcDbLine
 62
250
  6
CONTINUOUS
 10
4.0216467323
 20
9.9138658584
 11
3.5215149748
 21
9.9233095846
  0
LINE
  5
409
100
AcDbEntity
  8
0
100
AcDbLine
 62
250
  6
CONTINUOUS
 10
4.5102475066
 20
9.9034649703
 11
4.0216467323
 21
9.9138658584
  0
LINE
  5
40A
100
AcDbEntity
  8
0
100
AcDbLine
 62
250
  6
CONTINUOUS
 10
5.0474386857
 20
9.8904857937
 11
4.5102475066
 21
9.9034649703
  0
LINE
  5
40B
100
AcDbEntity
  8
0
100
AcDbLine
 62
250
  6
CONTINUOUS
 10
5.624231994
 20
9.8751232562
 11
5.0474386857
 21
9.8904857937
  0
LINE
  5
40C
100
AcDbEntity
  8
0
100
AcDbLine
 62
250
  6
CONTINUOUS
 10
6.1471790559
 20
9.8596890601
 11
5.624231994
 21
9.8751232562
  0
LINE
  5
40D
100
AcDbEntity
  8
0
100
AcDbLine
 62
250
  6
CONTINUOUS
 10
6.6438217384
 20
9.8437620297
 11
6.1471790559
 21
9.8596890601
  0
LINE
  5
40E
100
AcDbEntity
  8
0
100
AcDbLine
 62
250
  6
CONTINUOUS
 10
7.1141959244
 20
9.8275274381
 11
6.6438217384
 21
9.8437620297
  0
LINE
  5
40F
100
AcDbEntity
  8
0
100
AcDbLine
 62
250
  6
CONTINUOUS
 10
7.7470944181
 20
9.8039305162
 11
7.1141959244
 21
9.8275274381
  0
LINE
  5
410
100
AcDbEntity
  8
0
100
AcDbLine
 62
250
  6
CONTINUOUS
 10
8.3184125337
 20
9.7808973072
 11
7.7470944181
 21
9.8039305162
  0
LWPOLYLINE
  5
411
100
AcDbEntity
  8
ASSI
100
AcDbPolyline
 62
250
  6
CONTINUOUS
 90
9
 70
0
 10
-15.1380549281
 20
9.8365726654
 10
-15.158965028
 20
9.837495247
 10
-15.1798788038
 20
9.837982
 10
-15.200787112
 20
9.8380333755
 10
-15.2216872413
 20
9.8376496416
 10
-15.2425637178
 20
9.8368311694
 10
-15.2633883486
 20
9.8355797645
 10
-15.2841458434
 20
9.8338976647
 10
-15.3048337707
 20
9.8317862072
  0
LINE
  5
412
100
AcDbEntity
  8
0
100
AcDbLine
 62
250
  6
CONTINUOUS
 10
8.9873066503
 20
9.7518559169
 11
8.3184125337
 21
9.7808973072
  0
LINE
  5
413
100
AcDbEntity
  8
0
100
AcDbLine
 62
250
  6
CONTINUOUS
 10
9.6091448574
 20
9.7227964694
 11
8.9873066503
 21
9.7518559169
  0
LINE
  5
414
100
AcDbEntity
  8
0
100
AcDbLine
 62
250
  6
CONTINUOUS
 10
10.3824789345
 20
9.6839998741
 11
9.6091448574
 21
9.7227964694
  0
LINE
  5
415
100
AcDbEntity
  8
0
100
AcDbLine
 62
250
  6
CONTINUOUS
 10
10.8825295885
 20
9.6573015312
 11
10.3824789345
 21
9.6839998741
  0
LINE
  5
416
100
AcDbEntity
  8
0
100
AcDbLine
 62
250
  6
CONTINUOUS
 10
11.3176513789
 20
9.6330769444
 11
10.8825295885
 21
9.6573015312
  0
LWPOLYLINE
  5
417
100
AcDbEntity
  8
ASSI
100
AcDbPolyline
 62
250
  6
CONTINUOUS
 90
4
 70
0
 10
-14.9409196623
 20
9.8523500458
 10
-14.9442520048
 20
9.8526502967
 10
-14.9707990746
 20
9.8558292887
 10
-14.9972604359
 20
9.8597867644
  0
LWPOLYLINE
  5
418
100
AcDbEntity
  8
ASSI
100
AcDbPolyline
 62
250
  6
CONTINUOUS
 90
5
 70
0
 10
-19.8085401358
 20
8.0932456517
 10
-19.826989491
 20
8.0953338246
 10
-19.8402503355
 20
8.0967078529
 10
-19.8481706618
 20
8.0973512585
 10
-19.8506601422
 20
8.0972562757
  0
LINE
  5
419
100
AcDbEntity
  8
ASSI
100
AcDbLine
 62
250
  6
CONTINUOUS
 10
-19.7569366512
 20
8.0870258867
 11
-19.8085401358
 21
8.0932456517
  0
LINE
  5
41A
100
AcDbEntity
  8
ASSI
100
AcDbLine
 62
250
  6
CONTINUOUS
 10
-19.6472976735
 20
8.0731426224
 11
-19.7569366512
 21
8.0870258867
  0
LINE
  5
41B
100
AcDbEntity
  8
0
100
AcDbLine
 62
250
  6
CONTINUOUS
 10
13.0
 20
2.1473460386
 11
13.0
 21
2.4104701077
  0
LINE
  5
41C
100
AcDbEntity
  8
DRAFT
100
AcDbLine
 62
250
  6
CONTINUOUS
 10
13.05
 20
2.75
 11
13.05
 21
2.7116244175
  0
LINE
  5
41D
100
AcDbEntity
  8
DRAFT
100
AcDbLine
 62
250
  6
CONTINUOUS
 10
12.9979830071
 20
-2.7996110599
 11
12.9987979658
 21
-2.7552359213
  0
LINE
  5
41E
100
AcDbEntity
  8
DRAFT
100
AcDbLine
 62
250
  6
CONTINUOUS
 10
12.9987979658
 20
-2.7552359213
 11
13.0
 21
-2.75
  0
LINE
  5
41F
100
AcDbEntity
  8
ASSI
100
AcDbLine
 62
250
  6
CONTINUOUS
 10
15.1478555055
 20
-9.9278811304
 11
15.0323994241
 21
-9.9718271179
  0
LWPOLYLINE
  5
420
100
AcDbEntity
  8
ASSI
100
AcDbPolyline
 62
250
  6
CONTINUOUS
 90
7
 70
0
 10
15.0323994241
 20
-9.9718271179
 10
14.8906836773
 20
-10.0198563741
 10
14.7211540015
 20
-10.0720382513
 10
14.522972688
 20
-10.1281237888
 10
14.2971954489
 20
-10.1874553146
 10
14.0436962122
 20
-10.249719254
 10
13.7515602146
 20
-10.3169405133
  0
LWPOLYLINE
  5
421
100
AcDbEntity
  8
ASSI
100
AcDbPolyline
 62
7
  6
CONTINUOUS
 90
4
 70
0
 10
18.9332382452
 20
-9.1742883212
 10
18.968968006
 20
-9.162440804
 10
19.0173226435
 20
-9.1446462072
 10
19.0671802833
 20
-9.1241018542
  0
LWPOLYLINE
  5
422
100
AcDbEntity
  8
ASSI
100
AcDbPolyline
 62
7
  6
CONTINUOUS
 90
3
 70
0
 10
18.8536407073
 20
-9.1966709141
 10
18.8520243368
 20
-9.1971941026
 10
18.8497558976
 20
-9.1978069638
  0
LINE
  5
423
100
AcDbEntity
  8
ASSI
100
AcDbLine
 62
7
  6
CONTINUOUS
 10
18.9332382452
 20
-9.1742883212
 11
18.937109359
 21
-9.173057001
  0
LINE
  5
424
100
AcDbEntity
  8
ASSI
100
AcDbLine
 62
7
  6
CONTINUOUS
 10
18.9154466439
 20
-9.1798091919
 11
18.9374259899
 21
-9.1729941973
  0
LWPOLYLINE
  5
425
100
AcDbEntity
  8
ASSI
100
AcDbPolyline
 62
250
  6
CONTINUOUS
 90
13
 70
0
 10
18.7521965807
 20
-8.7033887851
 10
18.8280923019
 20
-8.6809320637
 10
18.9004908629
 20
-8.6514773536
 10
18.9693922637
 20
-8.6150246548
 10
19.0356025199
 20
-8.5710190228
 10
19.0983156158
 20
-8.5200154022
 10
19.1551135051
 20
-8.4636786263
 10
19.2056477827
 20
-8.4017224701
 10
19.2502668536
 20
-8.3344331587
 10
19.287597886
 20
-8.2643342007
 10
19.3171832692
 20
-8.1922667657
 10
19.3394806138
 20
-8.1173896841
 10
19.3544899199
 20
-8.0397029559
  0
LINE
  5
426
100
AcDbEntity
  8
ASSI
100
AcDbLine
 62
7
  6
CONTINUOUS
 10
-18.8536320567
 20
9.1966738892
 11
-18.9332382452
 21
9.1742883212
  0
LWPOLYLINE
  5
427
100
AcDbEntity
  8
ASSI
100
AcDbPolyline
 62
7
  6
CONTINUOUS
 90
4
 70
0
 10
-18.8496124754
 20
9.1978514445
 10
-18.8701168716
 20
9.1926030451
 10
-18.8922667496
 20
9.186557554
 10
-18.9154466439
 20
9.1798091919
  0
LINE
  5
428
100
AcDbEntity
  8
ASSI
100
AcDbLine
 62
7
  6
CONTINUOUS
 10
-18.8497558976
 20
9.1978069638
 11
-18.8488304052
 21
9.1980390745
  0
LINE
  5
429
100
AcDbEntity
  8
ASSI
100
AcDbLine
 62
250
  6
CONTINUOUS
 10
-13.4611185322
 20
10.1012180025
 11
-13.7429595716
 21
10.0326426202
  0
LWPOLYLINE
  5
42A
100
AcDbEntity
  8
ASSI
100
AcDbPolyline
 62
7
  6
CONTINUOUS
 90
3
 70
0
 10
-18.6314991824
 20
9.2507662622
 10
-18.8126572148
 20
9.2069410557
 10
-18.8461427993
 20
9.1986708693
  0
LINE
  5
42B
100
AcDbEntity
  8
ASSI
100
AcDbLine
 62
7
  6
CONTINUOUS
 10
-18.8488304052
 20
9.1980390745
 11
-18.8470221274
 21
9.198471789
  0
LINE
  5
42C
100
AcDbEntity
  8
0
100
AcDbLine
 62
250
  6
CONTINUOUS
 10
-18.7521965807
 20
8.7033887851
 11
-18.5216045018
 21
8.7575549374
  0
LWPOLYLINE
  5
42D
100
AcDbEntity
  8
ASSI
100
AcDbPolyline
 62
7
  6
CONTINUOUS
 90
3
 70
0
 10
-18.4904948148
 20
9.2731812282
 10
-18.4797380761
 20
9.275642217
 10
-18.2867906129
 20
9.3184581739
  0
LINE
  5
42E
100
AcDbEntity
  8
ASSI
100
AcDbLine
 62
7
  6
CONTINUOUS
 10
-14.8896478629
 20
10.0633049985
 11
-15.8013916787
 21
9.8546736012
  0
LINE
  5
42F
100
AcDbEntity
  8
ASSI
100
AcDbLine
 62
250
  6
CONTINUOUS
 10
-13.1449366409
 20
10.1731333101
 11
-13.4611185322
 21
10.1012180025
  0
LINE
  5
430
100
AcDbEntity
  8
ASSI
100
AcDbLine
 62
7
  6
CONTINUOUS
 10
-18.8470221274
 20
9.198471789
 11
-18.8461427993
 21
9.1986708693
  0
LINE
  5
431
100
AcDbEntity
  8
0
100
AcDbLine
 62
250
  6
CONTINUOUS
 10
-18.5216045018
 20
8.7575549374
 11
-18.3042056416
 21
8.8069927274
  0
LINE
  5
432
100
AcDbEntity
  8
ASSI
100
AcDbLine
 62
7
  6
CONTINUOUS
 10
-15.8013916787
 20
9.8546736012
 11
-16.160481634
 21
9.7739543525
  0
LWPOLYLINE
  5
433
100
AcDbEntity
  8
ASSI
100
AcDbPolyline
 62
7
  6
CONTINUOUS
 90
3
 70
0
 10
-13.7434322782
 20
10.3196363601
 10
-14.3184695367
 20
10.1929138357
 10
-14.8896478629
 20
10.0633049985
  0
LINE
  5
434
100
AcDbEntity
  8
ASSI
100
AcDbLine
 62
7
  6
CONTINUOUS
 10
-16.160481634
 20
9.7739543525
 11
-16.5277408293
 21
9.6932811436
  0
LINE
  5
435
100
AcDbEntity
  8
0
100
AcDbLine
 62
250
  6
CONTINUOUS
 10
-18.3042056416
 20
8.8069927274
 11
-18.1
 21
8.851702155
  0
LINE
  5
436
100
AcDbEntity
  8
ASSI
100
AcDbLine
 62
7
  6
CONTINUOUS
 10
-13.7519085959
 20
10.3168628495
 11
-13.4597388341
 21
10.3801320572
  0
LWPOLYLINE
  5
437
100
AcDbEntity
  8
ASSI
100
AcDbPolyline
 62
7
  6
CONTINUOUS
 90
3
 70
0
 10
-18.2867906129
 20
9.3184581739
 10
-18.0935279169
 20
9.3600087735
 10
-17.8997684407
 20
9.4003292419
  0
LWPOLYLINE
  5
438
100
AcDbEntity
  8
ASSI
100
AcDbPolyline
 62
7
  6
CONTINUOUS
 90
3
 70
0
 10
-16.5277408293
 20
9.6932811436
 10
-16.9121377401
 20
9.61141494
 10
-17.2909782474
 20
9.5333056666
  0
LWPOLYLINE
  5
439
100
AcDbEntity
  8
ASSI
100
AcDbPolyline
 62
7
  6
CONTINUOUS
 90
3
 70
0
 10
-17.7241084264
 20
9.4361834069
 10
-18.5005898013
 20
9.2711964354
 10
-18.865105155
 20
9.1863119171
  0
LINE
  5
43A
100
AcDbEntity
  8
ASSI
100
AcDbLine
 62
7
  6
CONTINUOUS
 10
-13.7434322782
 20
10.3196363601
 11
-13.4391211447
 21
10.3844637128
  0
LINE
  5
43B
100
AcDbEntity
  8
ASSI
100
AcDbLine
 62
7
  6
CONTINUOUS
 10
-13.2793213053
 20
10.4175125737
 11
-13.4391211447
 21
10.3844637128
  0
LINE
  5
43C
100
AcDbEntity
  8
ASSI
100
AcDbLine
 62
7
  6
CONTINUOUS
 10
-17.8997684407
 20
9.4003292419
 11
-17.7035841711
 21
9.4397917201
  0
LINE
  5
43D
100
AcDbEntity
  8
ASSI
100
AcDbLine
 62
7
  6
CONTINUOUS
 10
-17.2909782474
 20
9.5333056666
 11
-17.6701356267
 21
9.4567005652
  0
LWPOLYLINE
  5
43E
100
AcDbEntity
  8
ASSI
100
AcDbPolyline
 62
250
  6
CONTINUOUS
 90
4
 70
0
 10
-17.5427981174
 20
9.4822642831
 10
-17.3025441057
 20
9.5293928579
 10
-16.9229623815
 20
9.5980686184
 10
-16.5385108379
 20
9.6612832593
  0
LINE
  5
43F
100
AcDbEntity
  8
ASSI
100
AcDbLine
 62
7
  6
CONTINUOUS
 10
-17.7035841711
 20
9.4397917201
 11
-17.5115417085
 21
9.4771210289
  0
LWPOLYLINE
  5
440
100
AcDbEntity
  8
0
100
AcDbPolyline
 62
250
  6
CONTINUOUS
 90
15
 70
0
 10
-17.3685918958
 20
9.0000000056
 10
-17.2059367199
 20
9.030501395
 10
-17.0326299583
 20
9.0615854438
 10
-16.848671611
 20
9.093252152
 10
-16.6548264478
 20
9.1256472341
 10
-16.4503296989
 20
9.1586249757
 10
-16.232887055
 20
9.1917482334
 10
-15.9963892029
 20
9.2257148641
 10
-15.7469454559
 20
9.259827011
 10
-15.500589444
 20
9.2915539599
 10
-15.2618151315
 20
9.3198957698
 10
-15.0261285541
 20
9.3458523818
 10
-14.7960814501
 20
9.3698929055
 10
-14.5724415312
 20
9.3918983603
 10
-14.3544410856
 20
9.4119877267
  0
LWPOLYLINE
  5
441
100
AcDbEntity
  8
ASSI
100
AcDbPolyline
 62
7
  6
CONTINUOUS
 90
6
 70
0
 10
-17.5115417085
 20
9.4771210289
 10
-17.316088621
 20
9.5137726449
 10
-17.1209209425
 20
9.5490349861
 10
-16.9249877362
 20
9.5830980249
 10
-16.7282753356
 20
9.6159527835
 10
-16.6312561561
 20
9.6314983473
  0
LWPOLYLINE
  5
442
100
AcDbEntity
  8
ASSI
100
AcDbPolyline
 62
250
  6
CONTINUOUS
 90
4
 70
0
 10
-11.9951652811
 20
10.4005254948
 10
-12.4113414482
 20
10.323610633
 10
-12.7949205708
 20
10.2475465111
 10
-13.1449366409
 20
10.1731333101
  0
LINE
  5
443
100
AcDbEntity
  8
ASSI
100
AcDbLine
 62
7
  6
CONTINUOUS
 10
-17.113756868
 20
9.5480358997
 11
-17.7241084264
 21
9.4361834069
  0
LINE
  5
444
100
AcDbEntity
  8
ASSI
100
AcDbLine
 62
250
  6
CONTINUOUS
 10
-11.5481285265
 20
10.4775952931
 11
-11.9951652811
 21
10.4005254948
  0
LINE
  5
445
100
AcDbEntity
  8
ASSI
100
AcDbLine
 62
250
  6
CONTINUOUS
 10
-15.1526876921
 20
9.8341479316
 11
-15.0781298477
 21
9.8465529478
  0
LINE
  5
446
100
AcDbEntity
  8
ASSI
100
AcDbLine
 62
250
  6
CONTINUOUS
 10
-15.0781298477
 20
9.8465529478
 11
-14.9004849453
 21
9.8756229359
  0
LINE
  5
447
100
AcDbEntity
  8
ASSI
100
AcDbLine
 62
250
  6
CONTINUOUS
 10
-14.9004849453
 20
9.8756229359
 11
-14.7921418277
 21
9.8923837656
  0
LWPOLYLINE
  5
448
100
AcDbEntity
  8
ASSI
100
AcDbPolyline
 62
7
  6
CONTINUOUS
 90
10
 70
0
 10
-16.4695674374
 20
9.6592455332
 10
-16.7070394843
 20
9.6231904557
 10
-16.9419754241
 20
9.5856904197
 10
-17.1743050845
 20
9.5467009762
 10
-17.4018077746
 20
9.5065678779
 10
-17.6282336215
 20
9.4645857198
 10
-17.8624043849
 20
9.4188993873
 10
-18.1236025827
 20
9.3650226701
 10
-18.394491243
 20
9.3057114001
 10
-18.6314991824
 20
9.2507662622
  0
LINE
  5
449
100
AcDbEntity
  8
ASSI
100
AcDbLine
 62
250
  6
CONTINUOUS
 10
-16.5385108379
 20
9.6612832593
 11
-16.1486339582
 21
9.719860745
  0
LINE
  5
44A
100
AcDbEntity
  8
ASSI
100
AcDbLine
 62
7
  6
CONTINUOUS
 10
-9.3168081074
 20
11.0235676774
 11
-9.2747416708
 21
11.0296603032
  0
LWPOLYLINE
  5
44B
100
AcDbEntity
  8
ASSI
100
AcDbPolyline
 62
250
  6
CONTINUOUS
 90
7
 70
0
 10
-14.7921418277
 20
9.8923837656
 10
-14.5445678962
 20
9.9284773234
 10
-14.4069571866
 20
9.9478708825
 10
-14.2579923458
 20
9.9680434945
 10
-14.0969612197
 20
9.9888836266
 10
-13.9250914836
 20
10.0104506717
 10
-13.7426856728
 20
10.0327624523
  0
LINE
  5
44C
100
AcDbEntity
  8
ASSI
100
AcDbLine
 62
7
  6
CONTINUOUS
 10
-16.1697324382
 20
9.7023337719
 11
-16.4695674374
 21
9.6592455332
  0
LINE
  5
44D
100
AcDbEntity
  8
ASSI
100
AcDbLine
 62
250
  6
CONTINUOUS
 10
-16.1486339582
 20
9.719860745
 11
-15.7459694413
 21
9.7755405208
  0
LINE
  5
44E
100
AcDbEntity
  8
ASSI
100
AcDbLine
 62
7
  6
CONTINUOUS
 10
-15.9839116702
 20
9.7276695875
 11
-16.2289679819
 21
9.6939968705
  0
LINE
  5
44F
100
AcDbEntity
  8
ASSI
100
AcDbLine
 62
250
  6
CONTINUOUS
 10
-15.7459694413
 20
9.7755405208
 11
-15.3251781756
 21
9.8296268064
  0
LWPOLYLINE
  5
450
100
AcDbEntity
  8
ASSI
100
AcDbPolyline
 62
7
  6
CONTINUOUS
 90
4
 70
0
 10
-9.2747416708
 20
11.0296603032
 10
-9.2153290352
 20
11.0372444364
 10
-9.1617703381
 20
11.0434175791
 10
-9.0358338432
 20
11.0573682913
  0
LINE
  5
451
100
AcDbEntity
  8
ASSI
100
AcDbLine
 62
250
  6
CONTINUOUS
 10
-15.3048337707
 20
9.8317862072
 11
-15.325443394
 21
9.8292470473
  0
LWPOLYLINE
  5
452
100
AcDbEntity
  8
ASSI
100
AcDbPolyline
 62
7
  6
CONTINUOUS
 90
7
 70
0
 10
-9.3751316414
 20
11.0192013128
 10
-10.1298562727
 20
10.927431088
 10
-10.8473501238
 20
10.8307165511
 10
-11.5244251492
 20
10.7300814159
 10
-12.1572416825
 20
10.6268043137
 10
-12.7430196258
 20
10.5221614814
 10
-13.2793213053
 20
10.4175125737
  0
LWPOLYLINE
  5
453
100
AcDbEntity
  8
ASSI
100
AcDbPolyline
 62
250
  6
CONTINUOUS
 90
6
 70
0
 10
-8.8933394942
 20
10.8413175485
 10
-9.474837502
 20
10.7735252317
 10
-10.0324852754
 20
10.7027073885
 10
-10.5650627229
 20
10.629395915
 10
-11.0710823724
 20
10.5541338032
 10
-11.5481285265
 20
10.4775952931
  0
LINE
  5
454
100
AcDbEntity
  8
ASSI
100
AcDbLine
 62
7
  6
CONTINUOUS
 10
-8.5860533212
 20
11.1051698232
 11
-9.3751316414
 21
11.0192013128
  0
LINE
  5
455
100
AcDbEntity
  8
ASSI
100
AcDbLine
 62
7
  6
CONTINUOUS
 10
-8.9629557362
 20
11.062860348
 11
-8.7181960785
 21
11.0889217498
  0
LINE
  5
456
100
AcDbEntity
  8
ASSI
100
AcDbLine
 62
250
  6
CONTINUOUS
 10
-8.2903341543
 20
10.9054955974
 11
-8.8933394942
 21
10.8413175485
  0
LWPOLYLINE
  5
457
100
AcDbEntity
  8
ASSI
100
AcDbPolyline
 62
7
  6
CONTINUOUS
 90
3
 70
0
 10
-9.0358338432
 20
11.0573682913
 10
-9.0069281516
 20
11.0603014809
 10
-8.9855705043
 20
11.0616432223
  0
LWPOLYLINE
  5
458
100
AcDbEntity
  8
ASSI
100
AcDbPolyline
 62
7
  6
CONTINUOUS
 90
7
 70
0
 10
-14.2967474546
 20
9.914759784
 10
-15.0857657484
 20
9.838316832
 10
-15.8555898272
 20
9.745640303
 10
-16.6177203631
 20
9.633839754
 10
-17.3758631011
 20
9.5026970491
 10
-18.125010819
 20
9.3533259845
 10
-18.8650632972
 20
9.1861370032
  0
LINE
  5
459
100
AcDbEntity
  8
ASSI
100
AcDbLine
 62
250
  6
CONTINUOUS
 10
-7.6676468124
 20
10.965702814
 11
-8.2903341543
 21
10.9054955974
  0
LINE
  5
45A
100
AcDbEntity
  8
ASSI
100
AcDbLine
 62
7
  6
CONTINUOUS
 10
-7.767325457
 20
11.1843543766
 11
-8.5860533212
 21
11.1051698232
  0
LWPOLYLINE
  5
45B
100
AcDbEntity
  8
ASSI
100
AcDbPolyline
 62
7
  6
CONTINUOUS
 90
4
 70
0
 10
-7.8342762716
 20
11.1754310604
 10
-7.4460017393
 20
11.2098631891
 10
-7.1280451841
 20
11.236543649
 10
-6.9353840311
 20
11.2520498559
  0
LINE
  5
45C
100
AcDbEntity
  8
0
100
AcDbLine
 62
250
  6
CONTINUOUS
 10
-14.3544410856
 20
9.4119877267
 11
-13.9365289625
 21
9.4490987895
  0
LINE
  5
45D
100
AcDbEntity
  8
ASSI
100
AcDbLine
 62
250
  6
CONTINUOUS
 10
-7.0268110625
 20
11.0215908712
 11
-7.6676468124
 21
10.965702814
  0
LINE
  5
45E
100
AcDbEntity
  8
ASSI
100
AcDbLine
 62
7
  6
CONTINUOUS
 10
-6.9235255074
 20
11.2560451631
 11
-7.767325457
 21
11.1843543766
  0
LWPOLYLINE
  5
45F
100
AcDbEntity
  8
ASSI
100
AcDbPolyline
 62
7
  6
CONTINUOUS
 90
3
 70
0
 10
-13.3814967669
 20
9.9926970363
 10
-14.3088151151
 20
9.915202978
 10
-14.6142141585
 20
9.8840024591
  0
LWPOLYLINE
  5
460
100
AcDbEntity
  8
0
100
AcDbPolyline
 62
250
  6
CONTINUOUS
 90
4
 70
0
 10
-13.9365289625
 20
9.4490987895
 10
-13.5415686639
 20
9.4822708674
 10
-13.3562949709
 20
9.4972347378
 10
-13.1758843346
 20
9.5113272932
  0
LINE
  5
461
100
AcDbEntity
  8
ASSI
100
AcDbLine
 62
250
  6
CONTINUOUS
 10
-6.3699075967
 20
11.0727757985
 11
-7.0268110625
 21
11.0215908712
  0
LWPOLYLINE
  5
462
100
AcDbEntity
  8
0
100
AcDbPolyline
 62
250
  6
CONTINUOUS
 90
5
 70
0
 10
-13.1758843346
 20
9.5113272932
 10
-12.7775819659
 20
9.5408373595
 10
-12.5596902335
 20
9.5562548703
 10
-12.3295053833
 20
9.5717917827
 10
-12.0788014055
 20
9.5877857217
  0
LINE
  5
463
100
AcDbEntity
  8
ASSI
100
AcDbLine
 62
7
  6
CONTINUOUS
 10
-13.0517107931
 20
10.0166429512
 11
-13.3814967669
 21
9.9926970363
  0
LWPOLYLINE
  5
464
100
AcDbEntity
  8
ASSI
100
AcDbPolyline
 62
7
  6
CONTINUOUS
 90
3
 70
0
 10
-11.8003411214
 20
10.1015399486
 10
-12.6522094834
 20
10.046627522
 10
-13.4843710063
 20
9.984169639
  0
LINE
  5
465
100
AcDbEntity
  8
ASSI
100
AcDbLine
 62
7
  6
CONTINUOUS
 10
-8.9855705043
 20
11.0616432223
 11
-8.9629557362
 21
11.062860348
  0
LINE
  5
466
100
AcDbEntity
  8
ASSI
100
AcDbLine
 62
7
  6
CONTINUOUS
 10
-8.9581197148
 20
10.2793027646
 11
-9.058641
 21
10.2747711222
  0
LINE
  5
467
100
AcDbEntity
  8
ASSI
100
AcDbLine
 62
7
  6
CONTINUOUS
 10
-7.647832
 20
10.3337358589
 11
-8.951248637
 21
10.2796128164
  0
LINE
  5
468
100
AcDbEntity
  8
ASSI
100
AcDbLine
 62
7
  6
CONTINUOUS
 10
-4.332624196
 20
10.4330730159
 11
-5.090661
 21
10.4152136975
  0
LINE
  5
469
100
AcDbEntity
  8
ASSI
100
AcDbLine
 62
7
  6
CONTINUOUS
 10
-3.72606
 20
10.4452924955
 11
-4.332624196
 21
10.4330730159
  0
LINE
  5
46A
100
AcDbEntity
  8
ASSI
100
AcDbLine
 62
7
  6
CONTINUOUS
 10
-2.1178662899
 20
10.4687938745
 11
-2.875986
 21
10.4593247171
  0
LINE
  5
46B
100
AcDbEntity
  8
ASSI
100
AcDbLine
 62
7
  6
CONTINUOUS
 10
-1.4229249881
 20
10.474932449
 11
-2.1178662899
 21
10.4687938745
  0
LINE
  5
46C
100
AcDbEntity
  8
ASSI
100
AcDbLine
 62
7
  6
CONTINUOUS
 10
-0.9713402424
 20
10.4776385015
 11
-1.4229249881
 21
10.474932449
  0
LWPOLYLINE
  5
46D
100
AcDbEntity
  8
ASSI
100
AcDbPolyline
 62
250
  6
CONTINUOUS
 90
10
 70
0
 10
0.0
 20
11.2930235956
 10
-0.730564254
 20
11.2907926847
 10
-1.459390031
 20
11.2830689771
 10
-2.1844581666
 20
11.2697885532
 10
-2.904082944
 20
11.2509059403
 10
-3.616683714
 20
11.2263708541
 10
-4.3212123945
 20
11.1961817938
 10
-5.0159161056
 20
11.1603511235
 10
-5.6991156993
 20
11.1190943674
 10
-6.3699075967
 20
11.0727757985
  0
LWPOLYLINE
  5
46E
100
AcDbEntity
  8
ASSI
100
AcDbPolyline
 62
7
  6
CONTINUOUS
 90
9
 70
0
 10
-0.0000000395
 20
11.5200213758
 10
-0.5375040071
 20
11.5184866251
 10
-1.4761187191
 20
11.5084670815
 10
-2.4123425963
 20
11.4890665066
 10
-3.3426546273
 20
11.4603090693
 10
-4.2629521439
 20
11.4223247934
 10
-5.1691319944
 20
11.3753791603
 10
-6.0569575542
 20
11.3198273921
 10
-6.9235255074
 20
11.2560451631
  0
LINE
  5
46F
100
AcDbEntity
  8
ASSI
100
AcDbLine
 62
7
  6
CONTINUOUS
 10
0.340298
 20
10.4497168251
 11
0.5166845742
 21
10.4493394788
  0
LWPOLYLINE
  5
470
100
AcDbEntity
  8
ASSI
100
AcDbPolyline
 62
250
  6
CONTINUOUS
 90
10
 70
0
 10
0.0
 20
11.2930235955
 10
0.730564254
 20
11.2907926847
 10
1.459390031
 20
11.2830689771
 10
2.1844581666
 20
11.2697885532
 10
2.904082944
 20
11.2509059403
 10
3.616683714
 20
11.2263708541
 10
4.3212123945
 20
11.1961817938
 10
5.0159161056
 20
11.1603511235
 10
5.6991156993
 20
11.1190943674
 10
6.3699075967
 20
11.0727757985
  0
LINE
  5
471
100
AcDbEntity
  8
ASSI
100
AcDbLine
 62
7
  6
CONTINUOUS
 10
0.9576156704
 20
10.4777158733
 11
0.340298
 21
10.4797168708
  0
LINE
  5
472
100
AcDbEntity
  8
ASSI
100
AcDbLine
 62
7
  6
CONTINUOUS
 10
1.927651
 20
10.4707145286
 11
0.9576156704
 21
10.4777158733
  0
LINE
  5
473
100
AcDbEntity
  8
ASSI
100
AcDbLine
 62
7
  6
CONTINUOUS
 10
7.0602449251
 20
10.355357459
 11
6.329429
 21
10.3798293136
  0
LINE
  5
474
100
AcDbEntity
  8
ASSI
100
AcDbLine
 62
7
  6
CONTINUOUS
 10
7.9998100974
 20
10.3199585423
 11
7.0602449251
 21
10.355357459
  0
LINE
  5
475
100
AcDbEntity
  8
ASSI
100
AcDbLine
 62
7
  6
CONTINUOUS
 10
8.208599
 20
10.3114910855
 11
7.9998100974
 21
10.3199585423
  0
LINE
  5
476
100
AcDbEntity
  8
ASSI
100
AcDbLine
 62
7
  6
CONTINUOUS
 10
8.9629557363
 20
11.062860348
 11
8.9855705044
 21
11.0616432223
  0
LWPOLYLINE
  5
477
100
AcDbEntity
  8
ASSI
100
AcDbPolyline
 62
7
  6
CONTINUOUS
 90
4
 70
0
 10
8.9855705044
 20
11.0616432223
 10
9.0069281516
 20
11.0603014809
 10
9.0358338433
 20
11.0573682913
 10
9.1617703381
 20
11.0434175791
  0
LWPOLYLINE
  5
478
100
AcDbEntity
  8
ASSI
100
AcDbPolyline
 62
7
  6
CONTINUOUS
 90
10
 70
0
 10
11.8003411214
 20
10.1015399486
 10
12.6522094834
 20
10.046627522
 10
13.4843710063
 20
9.984169639
 10
14.2967474546
 20
9.914759784
 10
15.0857657484
 20
9.838316832
 10
15.8555898272
 20
9.745640303
 10
16.6177203631
 20
9.633839754
 10
17.3758631011
 20
9.5026970491
 10
18.125010819
 20
9.3533259845
 10
18.8650632972
 20
9.1861370032
  0
LWPOLYLINE
  5
479
100
AcDbEntity
  8
0
100
AcDbPolyline
 62
250
  6
CONTINUOUS
 90
8
 70
0
 10
13.2211558105
 20
9.5078289596
 10
13.032731063
 20
9.5222286718
 10
12.8299850626
 20
9.5370734098
 10
12.6054593218
 20
9.5529558342
 10
12.366612328
 20
9.5692832846
 10
12.1179567681
 20
9.5855133608
 10
11.8512125932
 20
9.6019183609
 10
11.3176513789
 20
9.6330769444
  0
LINE
  5
47A
100
AcDbEntity
  8
ASSI
100
AcDbLine
 62
250
  6
CONTINUOUS
 10
6.3699075967
 20
11.0727757985
 11
7.0268110625
 21
11.0215908712
  0
LWPOLYLINE
  5
47B
100
AcDbEntity
  8
0
100
AcDbPolyline
 62
250
  6
CONTINUOUS
 90
3
 70
0
 10
13.8180348481
 20
9.4592678633
 10
13.6138077031
 20
9.4763485554
 10
13.2211558105
 20
9.5078289596
  0
LWPOLYLINE
  5
47C
100
AcDbEntity
  8
ASSI
100
AcDbPolyline
 62
7
  6
CONTINUOUS
 90
3
 70
0
 10
14.3088151151
 20
9.915202978
 10
13.3814967669
 20
9.9926970363
 10
13.0517107931
 20
10.0166429512
  0
LWPOLYLINE
  5
47D
100
AcDbEntity
  8
ASSI
100
AcDbPolyline
 62
7
  6
CONTINUOUS
 90
3
 70
0
 10
7.4460017393
 20
11.2098631891
 10
7.1280451841
 20
11.236543649
 10
6.9353840311
 20
11.2520498559
  0
LWPOLYLINE
  5
47E
100
AcDbEntity
  8
ASSI
100
AcDbPolyline
 62
7
  6
CONTINUOUS
 90
10
 70
0
 10
7.7673254569
 20
11.1843543766
 10
6.9235255073
 20
11.2560451631
 10
6.0569575541
 20
11.3198273921
 10
5.1691319943
 20
11.3753791603
 10
4.2629521438
 20
11.4223247934
 10
3.3426546272
 20
11.4603090693
 10
2.4123425962
 20
11.4890665066
 10
1.4761187189
 20
11.5084670815
 10
0.5375040069
 20
11.5184866251
 10
0.0000000394
 20
11.5200213758
  0
LINE
  5
47F
100
AcDbEntity
  8
ASSI
100
AcDbLine
 62
250
  6
CONTINUOUS
 10
7.0268110625
 20
11.0215908712
 11
7.6676468124
 21
10.965702814
  0
LINE
  5
480
100
AcDbEntity
  8
ASSI
100
AcDbLine
 62
7
  6
CONTINUOUS
 10
7.8342762716
 20
11.1754310604
 11
7.4460017393
 21
11.2098631891
  0
LINE
  5
481
100
AcDbEntity
  8
ASSI
100
AcDbLine
 62
250
  6
CONTINUOUS
 10
7.6676468124
 20
10.965702814
 11
8.2903341543
 21
10.9054955974
  0
LINE
  5
482
100
AcDbEntity
  8
ASSI
100
AcDbLine
 62
7
  6
CONTINUOUS
 10
8.5860533212
 20
11.1051698232
 11
7.7673254569
 21
11.1843543766
  0
LINE
  5
483
100
AcDbEntity
  8
ASSI
100
AcDbLine
 62
7
  6
CONTINUOUS
 10
14.6142141585
 20
9.8840024591
 11
14.3088151151
 21
9.915202978
  0
LINE
  5
484
100
AcDbEntity
  8
ASSI
100
AcDbLine
 62
250
  6
CONTINUOUS
 10
8.2903341543
 20
10.9054955974
 11
8.8933394942
 21
10.8413175485
  0
LINE
  5
485
100
AcDbEntity
  8
ASSI
100
AcDbLine
 62
7
  6
CONTINUOUS
 10
8.9629557363
 20
11.062860348
 11
8.7181960785
 21
11.0889217498
  0
LINE
  5
486
100
AcDbEntity
  8
ASSI
100
AcDbLine
 62
7
  6
CONTINUOUS
 10
9.3751316414
 20
11.0192013128
 11
8.5860533212
 21
11.1051698232
  0
LINE
  5
487
100
AcDbEntity
  8
ASSI
100
AcDbLine
 62
7
  6
CONTINUOUS
 10
9.1617703381
 20
11.0434175791
 11
9.2153290352
 21
11.0372444364
  0
LWPOLYLINE
  5
488
100
AcDbEntity
  8
ASSI
100
AcDbPolyline
 62
250
  6
CONTINUOUS
 90
6
 70
0
 10
8.8933394942
 20
10.8413175485
 10
9.474837502
 20
10.7735252317
 10
10.0324852754
 20
10.7027073885
 10
10.5650627229
 20
10.629395915
 10
11.0710823724
 20
10.5541338032
 10
11.5481285265
 20
10.4775952931
  0
LINE
  5
489
100
AcDbEntity
  8
ASSI
100
AcDbLine
 62
250
  6
CONTINUOUS
 10
15.3048337707
 20
9.8317862072
 11
15.325443394
 21
9.8292470473
  0
LWPOLYLINE
  5
48A
100
AcDbEntity
  8
ASSI
100
AcDbPolyline
 62
7
  6
CONTINUOUS
 90
3
 70
0
 10
9.2153290352
 20
11.0372444364
 10
9.2747416708
 20
11.0296603032
 10
9.3168081074
 20
11.0235676774
  0
LINE
  5
48B
100
AcDbEntity
  8
ASSI
100
AcDbLine
 62
250
  6
CONTINUOUS
 10
15.7459694413
 20
9.7755405208
 11
15.3251781756
 21
9.8296268064
  0
LWPOLYLINE
  5
48C
100
AcDbEntity
  8
ASSI
100
AcDbPolyline
 62
250
  6
CONTINUOUS
 90
5
 70
0
 10
14.4069571866
 20
9.9478708825
 10
14.2579923458
 20
9.9680434945
 10
14.0969612197
 20
9.9888836266
 10
13.9250914836
 20
10.0104506717
 10
13.7426856728
 20
10.0327624523
  0
LINE
  5
48D
100
AcDbEntity
  8
ASSI
100
AcDbLine
 62
250
  6
CONTINUOUS
 10
16.1486339582
 20
9.719860745
 11
15.7459694413
 21
9.7755405208
  0
LINE
  5
48E
100
AcDbEntity
  8
ASSI
100
AcDbLine
 62
7
  6
CONTINUOUS
 10
16.4695674374
 20
9.6592455332
 11
16.2289679819
 21
9.6939968705
  0
LINE
  5
48F
100
AcDbEntity
  8
ASSI
100
AcDbLine
 62
7
  6
CONTINUOUS
 10
16.334124172
 20
9.6789371588
 11
15.9826619593
 21
9.7278329161
  0
LINE
  5
490
100
AcDbEntity
  8
ASSI
100
AcDbLine
 62
250
  6
CONTINUOUS
 10
16.5385108379
 20
9.6612832593
 11
16.1486339582
 21
9.719860745
  0
LWPOLYLINE
  5
491
100
AcDbEntity
  8
ASSI
100
AcDbPolyline
 62
250
  6
CONTINUOUS
 90
4
 70
0
 10
14.9004849453
 20
9.8756229359
 10
14.7921418277
 20
9.8923837656
 10
14.6729600644
 20
9.9099912151
 10
14.4069571866
 20
9.9478708825
  0
LINE
  5
492
100
AcDbEntity
  8
ASSI
100
AcDbLine
 62
250
  6
CONTINUOUS
 10
15.1526876921
 20
9.8341479316
 11
14.9004849453
 21
9.8756229359
  0
LINE
  5
493
100
AcDbEntity
  8
ASSI
100
AcDbLine
 62
250
  6
CONTINUOUS
 10
11.5481285265
 20
10.4775952931
 11
11.9951652811
 21
10.4005254948
  0
LINE
  5
494
100
AcDbEntity
  8
ASSI
100
AcDbLine
 62
7
  6
CONTINUOUS
 10
17.7241084264
 20
9.4361834069
 11
17.113756868
 21
9.5480358997
  0
LWPOLYLINE
  5
495
100
AcDbEntity
  8
ASSI
100
AcDbPolyline
 62
250
  6
CONTINUOUS
 90
4
 70
0
 10
11.9951652811
 20
10.4005254948
 10
12.4113414482
 20
10.323610633
 10
12.7949205708
 20
10.2475465111
 10
13.1449366409
 20
10.1731333101
  0
LWPOLYLINE
  5
496
100
AcDbEntity
  8
0
100
AcDbPolyline
 62
250
  6
CONTINUOUS
 90
16
 70
0
 10
17.3686048161
 20
9.0
 10
17.1978659532
 20
9.031994241
 10
17.0165362632
 20
9.0644443665
 10
16.8246157463
 20
9.0973503764
 10
16.6231680289
 20
9.1308310136
 10
16.4111294845
 20
9.1647675354
 10
16.1853092333
 20
9.1988037127
 10
15.9386662165
 20
9.2337373034
 10
15.6782414929
 20
9.2687705498
 10
15.4219673596
 20
9.3011539489
 10
15.1750514986
 20
9.3297198727
 10
14.932286228
 20
9.3556359494
 10
14.6959807979
 20
9.3796555604
 10
14.4671013026
 20
9.4017637411
 10
14.2446816479
 20
9.4219754561
 10
13.8180348481
 20
9.4592678633
  0
LWPOLYLINE
  5
497
100
AcDbEntity
  8
ASSI
100
AcDbPolyline
 62
7
  6
CONTINUOUS
 90
6
 70
0
 10
17.5115417085
 20
9.4771210289
 10
17.316088621
 20
9.5137726449
 10
17.1209209425
 20
9.5490349861
 10
16.9249877362
 20
9.5830980249
 10
16.7282753356
 20
9.6159527835
 10
16.6312561561
 20
9.6314983473
  0
LINE
  5
498
100
AcDbEntity
  8
ASSI
100
AcDbLine
 62
7
  6
CONTINUOUS
 10
17.7035841711
 20
9.4397917201
 11
17.5115417085
 21
9.4771210289
  0
LWPOLYLINE
  5
499
100
AcDbEntity
  8
ASSI
100
AcDbPolyline
 62
7
  6
CONTINUOUS
 90
7
 70
0
 10
13.2793213053
 20
10.4175125737
 10
12.7430196258
 20
10.5221614814
 10
12.1572416825
 20
10.6268043137
 10
11.5244251492
 20
10.7300814159
 10
10.8473501238
 20
10.8307165512
 10
10.1298562727
 20
10.927431088
 10
9.3751316414
 20
11.0192013128
  0
LWPOLYLINE
  5
49A
100
AcDbEntity
  8
ASSI
100
AcDbPolyline
 62
250
  6
CONTINUOUS
 90
4
 70
0
 10
17.5417914987
 20
9.4824681279
 10
17.3025441057
 20
9.5293928579
 10
16.9229623815
 20
9.5980686184
 10
16.5385108379
 20
9.6612832593
  0
LWPOLYLINE
  5
49B
100
AcDbEntity
  8
ASSI
100
AcDbPolyline
 62
7
  6
CONTINUOUS
 90
4
 70
0
 10
17.6341023962
 20
9.4638632369
 10
17.2909782474
 20
9.5333056666
 10
16.9121377401
 20
9.61141494
 10
16.5277408293
 20
9.6932811436
  0
LINE
  5
49C
100
AcDbEntity
  8
ASSI
100
AcDbLine
 62
7
  6
CONTINUOUS
 10
13.4597388341
 20
10.3801320572
 11
13.2793213053
 21
10.4175125737
  0
LINE
  5
49D
100
AcDbEntity
  8
ASSI
100
AcDbLine
 62
7
  6
CONTINUOUS
 10
18.5005898013
 20
9.2711964354
 11
17.7241084264
 21
9.4361834069
  0
LWPOLYLINE
  5
49E
100
AcDbEntity
  8
ASSI
100
AcDbPolyline
 62
7
  6
CONTINUOUS
 90
4
 70
0
 10
18.2867906129
 20
9.3184581739
 10
18.0935279169
 20
9.3600087735
 10
17.8997684407
 20
9.4003292419
 10
17.7035841711
 20
9.4397917201
  0
LINE
  5
49F
100
AcDbEntity
  8
ASSI
100
AcDbLine
 62
7
  6
CONTINUOUS
 10
13.7519085959
 20
10.3168628495
 11
13.4597388341
 21
10.3801320572
  0
LINE
  5
4A0
100
AcDbEntity
  8
ASSI
100
AcDbLine
 62
7
  6
CONTINUOUS
 10
16.5277408293
 20
9.6932811436
 11
16.160481634
 21
9.7739543525
  0
LINE
  5
4A1
100
AcDbEntity
  8
0
100
AcDbLine
 62
250
  6
CONTINUOUS
 10
18.3044104267
 20
8.8069462734
 11
18.1
 21
8.851702155
  0
LINE
  5
4A2
100
AcDbEntity
  8
ASSI
100
AcDbLine
 62
7
  6
CONTINUOUS
 10
16.160481634
 20
9.7739543525
 11
15.8013916787
 21
9.8546736012
  0
LINE
  5
4A3
100
AcDbEntity
  8
ASSI
100
AcDbLine
 62
7
  6
CONTINUOUS
 10
18.8470221274
 20
9.198471789
 11
18.8461427993
 21
9.1986708693
  0
LINE
  5
4A4
100
AcDbEntity
  8
ASSI
100
AcDbLine
 62
250
  6
CONTINUOUS
 10
13.1449366409
 20
10.1731333101
 11
13.4611185322
 21
10.1012180025
  0
LWPOLYLINE
  5
4A5
100
AcDbEntity
  8
ASSI
100
AcDbPolyline
 62
7
  6
CONTINUOUS
 90
3
 70
0
 10
18.4904948148
 20
9.2731812282
 10
18.4797380761
 20
9.275642217
 10
18.2867906129
 20
9.3184581739
  0
LINE
  5
4A6
100
AcDbEntity
  8
0
100
AcDbLine
 62
250
  6
CONTINUOUS
 10
18.521809287
 20
8.7575084835
 11
18.3044104267
 21
8.8069462734
  0
LWPOLYLINE
  5
4A7
100
AcDbEntity
  8
ASSI
100
AcDbPolyline
 62
7
  6
CONTINUOUS
 90
5
 70
0
 10
15.8013916787
 20
9.8546736012
 10
14.8896478629
 20
10.0633049985
 10
14.3184695367
 20
10.1929138357
 10
13.7434322782
 20
10.3196363601
 10
13.4596294625
 20
10.3801572455
  0
LWPOLYLINE
  5
4A8
100
AcDbEntity
  8
ASSI
100
AcDbPolyline
 62
7
  6
CONTINUOUS
 90
10
 70
0
 10
18.6314991824
 20
9.2507662622
 10
18.394491243
 20
9.3057114001
 10
18.1236025827
 20
9.3650226701
 10
17.8624043849
 20
9.4188993873
 10
17.6282336215
 20
9.4645857198
 10
17.4018077746
 20
9.5065678779
 10
17.1743050845
 20
9.5467009762
 10
16.9419754241
 20
9.5856904197
 10
16.7070394843
 20
9.6231904557
 10
16.4695674374
 20
9.6592455332
  0
LINE
  5
4A9
100
AcDbEntity
  8
ASSI
100
AcDbLine
 62
7
  6
CONTINUOUS
 10
18.865105155
 20
9.1863119171
 11
18.5005898013
 21
9.2711964354
  0
LINE
  5
4AA
100
AcDbEntity
  8
0
100
AcDbLine
 62
250
  6
CONTINUOUS
 10
18.7521965807
 20
8.7033887851
 11
18.521809287
 21
8.7575084835
  0
LINE
  5
4AB
100
AcDbEntity
  8
ASSI
100
AcDbLine
 62
7
  6
CONTINUOUS
 10
18.8488304052
 20
9.1980390745
 11
18.8470221274
 21
9.198471789
  0
LINE
  5
4AC
100
AcDbEntity
  8
ASSI
100
AcDbLine
 62
7
  6
CONTINUOUS
 10
18.8126572148
 20
9.2069410557
 11
18.6314991824
 21
9.2507662622
  0
LINE
  5
4AD
100
AcDbEntity
  8
ASSI
100
AcDbLine
 62
250
  6
CONTINUOUS
 10
13.4611185322
 20
10.1012180025
 11
13.7429595716
 21
10.0326426202
  0
LINE
  5
4AE
100
AcDbEntity
  8
ASSI
100
AcDbLine
 62
7
  6
CONTINUOUS
 10
18.8461427993
 20
9.1986708693
 11
18.8126572148
 21
9.2069410557
  0
LINE
  5
4AF
100
AcDbEntity
  8
ASSI
100
AcDbLine
 62
7
  6
CONTINUOUS
 10
18.8497558976
 20
9.1978069638
 11
18.8488304052
 21
9.1980390745
  0
LINE
  5
4B0
100
AcDbEntity
  8
ASSI
100
AcDbLine
 62
7
  6
CONTINUOUS
 10
18.8701168716
 20
9.1926030451
 11
18.8496124754
 21
9.1978514445
  0
LINE
  5
4B1
100
AcDbEntity
  8
ASSI
100
AcDbLine
 62
7
  6
CONTINUOUS
 10
18.8536320567
 20
9.1966738892
 11
18.9332382452
 21
9.1742883212
  0
LWPOLYLINE
  5
4B2
100
AcDbEntity
  8
ASSI
100
AcDbPolyline
 62
250
  6
CONTINUOUS
 90
13
 70
0
 10
18.7521965807
 20
8.7033887851
 10
18.8280923019
 20
8.6809320637
 10
18.9004908629
 20
8.6514773536
 10
18.9693922637
 20
8.6150246548
 10
19.0356025199
 20
8.5710190228
 10
19.0983156158
 20
8.5200154022
 10
19.1551135051
 20
8.4636786263
 10
19.2056477827
 20
8.4017224701
 10
19.2502668536
 20
8.3344331587
 10
19.287597886
 20
8.2643342007
 10
19.3171832692
 20
8.1922667657
 10
19.3394806138
 20
8.1173896841
 10
19.3544899199
 20
8.0397029559
  0
LWPOLYLINE
  5
4B3
100
AcDbEntity
  8
ASSI
100
AcDbPolyline
 62
7
  6
CONTINUOUS
 90
4
 70
0
 10
18.9374259899
 20
9.1729941973
 10
18.9154466439
 20
9.1798091919
 10
18.8922667496
 20
9.186557554
 10
18.8701168716
 20
9.1926030451
  0
LINE
  5
4B4
100
AcDbEntity
  8
ASSI
100
AcDbLine
 62
7
  6
CONTINUOUS
 10
18.9332382452
 20
9.1742883212
 11
18.937109359
 21
9.173057001
  0
LWPOLYLINE
  5
4B5
100
AcDbEntity
  8
ASSI
100
AcDbPolyline
 62
7
  6
CONTINUOUS
 90
3
 70
0
 10
18.8536407073
 20
9.1966709141
 10
18.8520243368
 20
9.1971941026
 10
18.8497558976
 20
9.1978069638
  0
LWPOLYLINE
  5
4B6
100
AcDbEntity
  8
ASSI
100
AcDbPolyline
 62
250
  6
CONTINUOUS
 90
7
 70
0
 10
15.0323994241
 20
9.9718271179
 10
14.8906836773
 20
10.0198563741
 10
14.7211540015
 20
10.0720382513
 10
14.522972688
 20
10.1281237888
 10
14.2971954489
 20
10.1874553146
 10
14.0436962122
 20
10.249719254
 10
13.7519085959
 20
10.3168628495
  0
LINE
  5
4B7
100
AcDbEntity
  8
ASSI
100
AcDbLine
 62
250
  6
CONTINUOUS
 10
15.1478555055
 20
9.9278811304
 11
15.0323994241
 21
9.9718271179
  0
LINE
  5
4B8
100
AcDbEntity
  8
0
100
AcDbLine
 62
7
  6
CONTINUOUS
 10
18.05
 20
8.9784396842
 11
18.05
 21
7.6124897373
  0
LINE
  5
4B9
100
AcDbEntity
  8
0
100
AcDbLine
 62
7
  6
CONTINUOUS
 10
18.05
 20
-7.6124897373
 11
18.05
 21
-8.9784396842
  0
LINE
  5
4BA
100
AcDbEntity
  8
0
100
AcDbLine
 62
7
  6
CONTINUOUS
 10
18.1
 20
9.0
 11
18.1
 21
7.6092534863
  0
LINE
  5
4BB
100
AcDbEntity
  8
0
100
AcDbLine
 62
7
  6
CONTINUOUS
 10
18.1
 20
-7.6092534863
 11
18.1
 21
-9.0
  0
LINE
  5
4BC
100
AcDbEntity
  8
ASSI
100
AcDbLine
 62
250
  6
CONTINUOUS
 10
18.12
 20
7.4560258545
 11
18.12
 21
7.0144420852
  0
LINE
  5
4BD
100
AcDbEntity
  8
ASSI
100
AcDbLine
 62
250
  6
CONTINUOUS
 10
18.12
 20
-7.0144419512
 11
18.12
 21
-7.4560258545
  0
LINE
  5
4BE
100
AcDbEntity
  8
0
100
AcDbLine
 62
7
  6
CONTINUOUS
 10
18.2466108501
 20
-6.4000175069
 11
18.2244938567
 21
-6.5968585365
  0
LINE
  5
4BF
100
AcDbEntity
  8
ASSI
100
AcDbLine
 62
250
  6
CONTINUOUS
 10
18.8545557369
 20
9.1443470875
 11
18.7487216721
 21
8.7042240014
  0
LWPOLYLINE
  5
4C0
100
AcDbEntity
  8
ASSI
100
AcDbPolyline
 62
250
  6
CONTINUOUS
 90
4
 70
0
 10
18.8650632972
 20
9.1861370032
 10
18.8643149499
 20
9.1834797191
 10
18.8622808016
 20
9.1755530792
 10
18.8545557369
 20
9.1443470875
  0
LINE
  5
4C1
100
AcDbEntity
  8
ASSI
100
AcDbLine
 62
250
  6
CONTINUOUS
 10
15.3269772789
 20
-9.8262055932
 11
15.325230014
 21
-9.8296203544
  0
LWPOLYLINE
  5
4C2
100
AcDbEntity
  8
ASSI
100
AcDbPolyline
 62
250
  6
CONTINUOUS
 90
4
 70
0
 10
15.3251781756
 20
-9.8296268064
 10
15.2958195491
 20
-9.8555064302
 10
15.2363057397
 20
-9.8886807004
 10
15.1478555055
 20
-9.9278811304
  0
LWPOLYLINE
  5
4C3
100
AcDbEntity
  8
ASSI
100
AcDbPolyline
 62
250
  6
CONTINUOUS
 90
9
 70
0
 10
18.8660822027
 20
-9.1858931756
 10
18.8630378678
 20
-9.1878634761
 10
18.8612315738
 20
-9.1894462139
 10
18.8603000648
 20
-9.1907279849
 10
18.8598840169
 20
-9.1917944521
 10
18.8596280199
 20
-9.1927303497
 10
18.8591805596
 20
-9.1936194875
 10
18.8581940012
 20
-9.1945447551
 10
18.8563261454
 20
-9.195587506
  0
LWPOLYLINE
  5
4C4
100
AcDbEntity
  8
ASSI
100
AcDbPolyline
 62
250
  6
CONTINUOUS
 90
9
 70
0
 10
15.3407414759
 20
-9.807751051
 10
15.3383527008
 20
-9.8092391924
 10
15.3362048908
 20
-9.8110205259
 10
15.3342987814
 20
-9.8130458066
 10
15.3327285205
 20
-9.8152281505
 10
15.3314010592
 20
-9.8175597305
 10
15.330033703
 20
-9.8201497238
 10
15.3285291373
 20
-9.8230476267
 10
15.3269772789
 20
-9.8262055932
  0
LWPOLYLINE
  5
4C5
100
AcDbEntity
  8
ASSI
100
AcDbPolyline
 62
7
  6
CONTINUOUS
 90
6
 70
0
 10
19.1641436312
 20
-9.0773302826
 10
19.2236964919
 20
-9.0437314622
 10
19.2970604015
 20
-8.9965689577
 10
19.3776490603
 20
-8.9363480605
 10
19.4592524712
 20
-8.8646117097
 10
19.4869433969
 20
-8.8356305925
  0
LWPOLYLINE
  5
4C6
100
AcDbEntity
  8
ASSI
100
AcDbPolyline
 62
7
  6
CONTINUOUS
 90
3
 70
0
 10
19.0671802833
 20
-9.1241018542
 10
19.1150526017
 20
-9.102176784
 10
19.1641436312
 20
-9.0773302826
  0
LINE
  5
4C7
100
AcDbEntity
  8
ASSI
100
AcDbLine
 62
250
  6
CONTINUOUS
 10
18.8563261454
 20
-9.195587506
 11
18.8536407073
 21
-9.1966709141
  0
LINE
  5
4C8
100
AcDbEntity
  8
ASSI
100
AcDbLine
 62
250
  6
CONTINUOUS
 10
18.8563261454
 20
9.195587506
 11
18.8536407073
 21
9.1966709141
  0
LWPOLYLINE
  5
4C9
100
AcDbEntity
  8
ASSI
100
AcDbPolyline
 62
7
  6
CONTINUOUS
 90
6
 70
0
 10
19.1641436312
 20
9.0773302826
 10
19.1150526017
 20
9.102176784
 10
19.0671802833
 20
9.1241018542
 10
19.0173226435
 20
9.1446462072
 10
18.968968006
 20
9.162440804
 10
18.9332382452
 20
9.1742883212
  0
LWPOLYLINE
  5
4CA
100
AcDbEntity
  8
ASSI
100
AcDbPolyline
 62
250
  6
CONTINUOUS
 90
9
 70
0
 10
15.3407414759
 20
9.807751051
 10
15.3383527008
 20
9.8092391924
 10
15.3362048908
 20
9.8110205259
 10
15.3342987814
 20
9.8130458066
 10
15.3327285205
 20
9.8152281505
 10
15.3314010592
 20
9.8175597305
 10
15.330033703
 20
9.8201497238
 10
15.3285291373
 20
9.8230476267
 10
15.3269772789
 20
9.8262055932
  0
LWPOLYLINE
  5
4CB
100
AcDbEntity
  8
ASSI
100
AcDbPolyline
 62
250
  6
CONTINUOUS
 90
9
 70
0
 10
18.8660822027
 20
9.1858931756
 10
18.8630378678
 20
9.1878634761
 10
18.8612315738
 20
9.1894462139
 10
18.8603000648
 20
9.1907279849
 10
18.8598840169
 20
9.1917944521
 10
18.8596280199
 20
9.1927303497
 10
18.8591805596
 20
9.1936194875
 10
18.8581940012
 20
9.1945447551
 10
18.8563261454
 20
9.195587506
  0
LWPOLYLINE
  5
4CC
100
AcDbEntity
  8
ASSI
100
AcDbPolyline
 62
250
  6
CONTINUOUS
 90
4
 70
0
 10
15.3251781756
 20
9.8296268064
 10
15.2958195491
 20
9.8555064302
 10
15.2363057397
 20
9.8886807004
 10
15.1478555055
 20
9.9278811304
  0
LINE
  5
4CD
100
AcDbEntity
  8
ASSI
100
AcDbLine
 62
250
  6
CONTINUOUS
 10
15.3269772789
 20
9.8262055932
 11
15.325230014
 21
9.8296203544
  0
LWPOLYLINE
  5
4CE
100
AcDbEntity
  8
ASSI
100
AcDbPolyline
 62
250
  6
CONTINUOUS
 90
3
 70
0
 10
18.8650632972
 20
-9.1861370032
 10
18.8643149499
 20
-9.1834797191
 10
18.8622808016
 20
-9.1755530792
  0
LINE
  5
4CF
100
AcDbEntity
  8
ASSI
100
AcDbLine
 62
250
  6
CONTINUOUS
 10
18.8622808016
 20
-9.1755530792
 11
18.8545557369
 21
-9.1443470875
  0
LINE
  5
4D0
100
AcDbEntity
  8
ASSI
100
AcDbLine
 62
250
  6
CONTINUOUS
 10
18.8545557369
 20
-9.1443470875
 11
18.7487216721
 21
-8.7042240014
  0
LINE
  5
4D1
100
AcDbEntity
  8
0
100
AcDbLine
 62
7
  6
CONTINUOUS
 10
18.2244938567
 20
6.5968585365
 11
18.2466108501
 21
6.4000175069
  0
LWPOLYLINE
  5
4D2
100
AcDbEntity
  8
ASSI
100
AcDbPolyline
 62
250
  6
CONTINUOUS
 90
10
 70
0
 10
19.3544899199
 20
-8.0397029559
 10
19.467046812
 20
-7.1746541294
 10
19.5666798508
 20
-6.3025058352
 10
19.6533890364
 20
-5.4232580731
 10
19.7272713965
 20
-4.5368620537
 10
19.7882299034
 20
-3.6433665665
 10
19.8359734735
 20
-2.7429179806
 10
19.870405079
 20
-1.8355650857
 10
19.8916217479
 20
-0.9212590922
 10
19.89962348
 20
-0.0
  0
LWPOLYLINE
  5
4D3
100
AcDbEntity
  8
ASSI
100
AcDbPolyline
 62
7
  6
CONTINUOUS
 90
6
 70
0
 10
19.4869433969
 20
8.8356305925
 10
19.4592524712
 20
8.8646117097
 10
19.3776490603
 20
8.9363480605
 10
19.2970604015
 20
8.9965689577
 10
19.2236964919
 20
9.0437314622
 10
19.1641436312
 20
9.0773302826
  0
LWPOLYLINE
  5
4D4
100
AcDbEntity
  8
ASSI
100
AcDbPolyline
 62
250
  6
CONTINUOUS
 90
10
 70
0
 10
19.3544899199
 20
8.0397029559
 10
19.467046812
 20
7.1746541294
 10
19.5666798508
 20
6.3025058352
 10
19.6533890364
 20
5.4232580731
 10
19.7272713965
 20
4.5368620537
 10
19.7882299034
 20
3.6433665665
 10
19.8359734735
 20
2.7429179806
 10
19.870405079
 20
1.8355650857
 10
19.8916217479
 20
0.9212590922
 10
19.89962348
 20
-0.0
  0
ARC
  5
4D5
100
AcDbEntity
  8
ASSI
100
AcDbCircle
 62
7
  6
CONTINUOUS
 10
-0.0004268801
 20
-189.5499999914
 40
200.0300070524
100
AcDbArc
 50
87.4042696926
 51
87.6479795763
  0
ARC
  5
4D6
100
AcDbEntity
  8
ASSI
100
AcDbCircle
 62
7
  6
CONTINUOUS
 10
-0.0004268801
 20
-189.5499999914
 40
200.0300070524
100
AcDbArc
 50
88.186599159
 51
88.4301880636
  0
ARC
  5
4D7
100
AcDbEntity
  8
ASSI
100
AcDbCircle
 62
7
  6
CONTINUOUS
 10
-0.0004268801
 20
-189.5499999914
 40
200.0300070524
100
AcDbArc
 50
88.5925615727
 51
88.8361027664
  0
ARC
  5
4D8
100
AcDbEntity
  8
ASSI
100
AcDbCircle
 62
7
  6
CONTINUOUS
 10
-0.0004268801
 20
-189.5499999914
 40
200.0300070524
100
AcDbArc
 50
89.079613763
 51
89.4477206824
  0
ARC
  5
4D9
100
AcDbEntity
  8
ASSI
100
AcDbCircle
 62
7
  6
CONTINUOUS
 10
-0.0004268801
 20
-189.5499999914
 40
200.0300070524
100
AcDbArc
 50
89.9024041076
 51
89.9998777892
  0
ARC
  5
4DA
100
AcDbEntity
  8
ASSI
100
AcDbCircle
 62
7
  6
CONTINUOUS
 10
-0.0004268802
 20
-189.5499999788
 40
199.9999977144
100
AcDbArc
 50
86.6173641154
 51
89.9998777078
  0
ARC
  5
4DB
100
AcDbEntity
  8
DRAFT
100
AcDbCircle
 62
250
  6
CONTINUOUS
 10
-12.9975959316
 20
-0.25
 40
3.0052361211
100
AcDbArc
 50
90.0
 51
91.0832177581
  0
ARC
  5
4DC
100
AcDbEntity
  8
DRAFT
100
AcDbCircle
 62
7
  6
CONTINUOUS
 10
-12.9975959316
 20
-0.25
 40
3.0052361207
100
AcDbArc
 50
107.9820739614
 51
124.0382468255
  0
ARC
  5
4DD
100
AcDbEntity
  8
ASSI
100
AcDbCircle
 62
7
  6
CONTINUOUS
 10
-18.5625750151
 20
-7.9218186798
 40
1.300000326
100
AcDbArc
 50
187.7559790118
 51
256.5448986759
  0
ARC
  5
4DE
100
AcDbEntity
  8
0
100
AcDbCircle
 62
250
  6
CONTINUOUS
 10
-2.725
 20
-0.5
 40
0.3464101615
100
AcDbArc
 50
83.202425214
 51
90.0
  0
ARC
  5
4DF
100
AcDbEntity
  8
0
100
AcDbCircle
 62
250
  6
CONTINUOUS
 10
-2.725
 20
-0.5
 40
0.1732050808
100
AcDbArc
 50
67.4193903505
 51
90.0
  0
ARC
  5
4E0
100
AcDbEntity
  8
ASSI
100
AcDbCircle
 62
7
  6
CONTINUOUS
 10
-0.00042688
 20
189.5500000295
 40
200.0456071055
100
AcDbArc
 50
271.436884604
 51
271.5708550413
  0
ARC
  5
4E1
100
AcDbEntity
  8
ASSI
100
AcDbCircle
 62
7
  6
CONTINUOUS
 10
-0.0004268802
 20
189.5499999788
 40
199.9999977144
100
AcDbArc
 50
270.0001222922
 51
273.3826358846
  0
ARC
  5
4E2
100
AcDbEntity
  8
ASSI
100
AcDbCircle
 62
7
  6
CONTINUOUS
 10
-39.6004299775
 20
-0.0000001712
 40
60.000003104
100
AcDbArc
 50
352.2440216871
 51
7.7559783129
  0
ARC
  5
4E3
100
AcDbEntity
  8
0
100
AcDbCircle
 62
7
  6
CONTINUOUS
 10
-39.6004268735
 20
0.0
 40
58.2
100
AcDbArc
 50
353.6866608667
 51
6.3133391333
  0
ARC
  5
4E4
100
AcDbEntity
  8
0
100
AcDbCircle
 62
7
  6
CONTINUOUS
 10
-39.65
 20
-0.0
 40
58.2
100
AcDbArc
 50
352.4842460811
 51
7.5157539189
  0
ARC
  5
4E5
100
AcDbEntity
  8
0
100
AcDbCircle
 62
7
  6
CONTINUOUS
 10
-1.1
 20
0.2
 40
3.784455822
100
AcDbArc
 50
330.5501885597
 51
8.8930612087
  0
ARC
  5
4E6
100
AcDbEntity
  8
DRAFT
100
AcDbCircle
 62
7
  6
CONTINUOUS
 10
-13.0
 20
0.0
 40
3.75
100
AcDbArc
 50
137.6553989092
 51
222.3446010908
  0
ARC
  5
4E7
100
AcDbEntity
  8
RACCORDO
100
AcDbCircle
 62
250
  6
CONTINUOUS
 10
-13.0
 20
0.0
 40
3.7185199563
100
AcDbArc
 50
131.363198069
 51
228.5373550904
  0
ARC
  5
4E8
100
AcDbEntity
  8
RACCORDO
100
AcDbCircle
 62
250
  6
CONTINUOUS
 10
-13.0
 20
0.0
 40
3.5185498121
100
AcDbArc
 50
97.1730798869
 51
262.7772008702
  0
ARC
  5
4E9
100
AcDbEntity
  8
ASSI
100
AcDbCircle
 62
7
  6
CONTINUOUS
 10
-13.35
 20
-0.0
 40
3.5
100
AcDbArc
 50
90.0
 51
270.0
  0
ARC
  5
4EA
100
AcDbEntity
  8
0
100
AcDbCircle
 62
7
  6
CONTINUOUS
 10
-1.1
 20
0.2
 40
3.3902983623
100
AcDbArc
 50
310.8871943873
 51
36.680542195
  0
CIRCLE
  5
4EB
100
AcDbEntity
  8
RACCORDO
100
AcDbCircle
 62
250
  6
CONTINUOUS
 10
-13.0
 20
0.0
 40
3.2999983416
  0
ARC
  5
4EC
100
AcDbEntity
  8
0
100
AcDbCircle
 62
250
  6
CONTINUOUS
 10
-1.1
 20
0.2
 40
2.811058538
100
AcDbArc
 50
310.8871943873
 51
49.7336715467
  0
CIRCLE
  5
4ED
100
AcDbEntity
  8
RACCORDO
100
AcDbCircle
 62
7
  6
CONTINUOUS
 10
-13.0
 20
0.0
 40
2.8
  0
ARC
  5
4EE
100
AcDbEntity
  8
DRAFT
100
AcDbCircle
 62
7
  6
CONTINUOUS
 10
-13.0
 20
0.0
 40
2.7552361207
100
AcDbArc
 50
262.4680803908
 51
266.4670959328
  0
ARC
  5
4EF
100
AcDbEntity
  8
DRAFT
100
AcDbCircle
 62
7
  6
CONTINUOUS
 10
-13.05
 20
0.0
 40
2.75
100
AcDbArc
 50
90.0
 51
270.0
  0
ARC
  5
4F0
100
AcDbEntity
  8
0
100
AcDbCircle
 62
7
  6
CONTINUOUS
 10
-1.1
 20
0.2
 40
2.5993734575
100
AcDbArc
 50
310.8874738262
 51
49.7333544901
  0
ARC
  5
4F1
100
AcDbEntity
  8
0
100
AcDbCircle
 62
7
  6
CONTINUOUS
 10
-13.0
 20
0.0
 40
2.1473460386
100
AcDbArc
 50
234.7370615396
 51
270.0
  0
ARC
  5
4F2
100
AcDbEntity
  8
ASSI
100
AcDbCircle
 62
7
  6
CONTINUOUS
 10
-18.5625750151
 20
7.9218186798
 40
1.300000326
100
AcDbArc
 50
103.455101324
 51
172.2440209882
  0
ARC
  5
4F3
100
AcDbEntity
  8
ASSI
100
AcDbCircle
 62
7
  6
CONTINUOUS
 10
0.0004268801
 20
-189.5499999914
 40
200.0300070524
100
AcDbArc
 50
90.0001223368
 51
90.2707255984
  0
ARC
  5
4F4
100
AcDbEntity
  8
ASSI
100
AcDbCircle
 62
7
  6
CONTINUOUS
 10
0.0004268801
 20
-189.5499999914
 40
200.0300070524
100
AcDbArc
 50
90.8239363731
 51
91.0674614578
  0
ARC
  5
4F5
100
AcDbEntity
  8
ASSI
100
AcDbCircle
 62
7
  6
CONTINUOUS
 10
0.0004268801
 20
-189.5499999914
 40
200.0300070524
100
AcDbArc
 50
91.620805267
 51
92.1912702301
  0
ARC
  5
4F6
100
AcDbEntity
  8
ASSI
100
AcDbCircle
 62
7
  6
CONTINUOUS
 10
0.0004268802
 20
-189.5499999788
 40
199.9999977144
100
AcDbArc
 50
90.0001222922
 51
93.3826358846
  0
ARC
  5
4F7
100
AcDbEntity
  8
ASSI
100
AcDbCircle
 62
7
  6
CONTINUOUS
 10
18.5625750151
 20
-7.9218186798
 40
1.300000326
100
AcDbArc
 50
283.455101324
 51
352.2440209882
  0
ARC
  5
4F8
100
AcDbEntity
  8
0
100
AcDbCircle
 62
250
  6
CONTINUOUS
 10
2.725
 20
-0.5
 40
0.3464101615
100
AcDbArc
 50
90.0
 51
99.742826208
  0
ARC
  5
4F9
100
AcDbEntity
  8
0
100
AcDbCircle
 62
250
  6
CONTINUOUS
 10
2.725
 20
-0.5
 40
0.1732050808
100
AcDbArc
 50
90.0
 51
119.3564211833
  0
ARC
  5
4FA
100
AcDbEntity
  8
0
100
AcDbCircle
 62
7
  6
CONTINUOUS
 10
1.1
 20
0.2
 40
3.8014455039
100
AcDbArc
 50
173.4649024952
 51
206.9491769658
  0
ARC
  5
4FB
100
AcDbEntity
  8
DRAFT
100
AcDbCircle
 62
7
  6
CONTINUOUS
 10
13.0
 20
-0.0
 40
3.75
100
AcDbArc
 50
317.6553989092
 51
42.3446010908
  0
ARC
  5
4FC
100
AcDbEntity
  8
RACCORDO
100
AcDbCircle
 62
250
  6
CONTINUOUS
 10
13.0
 20
-0.0
 40
3.7185199563
100
AcDbArc
 50
311.363198069
 51
48.5373550904
  0
ARC
  5
4FD
100
AcDbEntity
  8
RACCORDO
100
AcDbCircle
 62
250
  6
CONTINUOUS
 10
13.0
 20
-0.0
 40
3.5185498121
100
AcDbArc
 50
277.1730798869
 51
82.7772008701
  0
ARC
  5
4FE
100
AcDbEntity
  8
ASSI
100
AcDbCircle
 62
7
  6
CONTINUOUS
 10
13.35
 20
-0.0
 40
3.5
100
AcDbArc
 50
270.0
 51
90.0
  0
ARC
  5
4FF
100
AcDbEntity
  8
0
100
AcDbCircle
 62
7
  6
CONTINUOUS
 10
1.1
 20
0.2
 40
3.4110758493
100
AcDbArc
 50
144.3971930326
 51
229.1128056127
  0
CIRCLE
  5
500
100
AcDbEntity
  8
RACCORDO
100
AcDbCircle
 62
250
  6
CONTINUOUS
 10
0.0
 20
-0.0
 40
3.2999983416
  0
CIRCLE
  5
501
100
AcDbEntity
  8
RACCORDO
100
AcDbCircle
 62
250
  6
CONTINUOUS
 10
13.0
 20
-0.0
 40
3.2999983416
  0
ARC
  5
502
100
AcDbEntity
  8
DRAFT
100
AcDbCircle
 62
250
  6
CONTINUOUS
 10
12.9975959316
 20
0.25
 40
3.0052361211
100
AcDbArc
 50
270.0
 51
271.0832177656
  0
ARC
  5
503
100
AcDbEntity
  8
DRAFT
100
AcDbCircle
 62
7
  6
CONTINUOUS
 10
12.9975959316
 20
0.25
 40
3.0052361207
100
AcDbArc
 50
287.9820881735
 51
304.0382494318
  0
ARC
  5
504
100
AcDbEntity
  8
0
100
AcDbCircle
 62
250
  6
CONTINUOUS
 10
1.1
 20
0.2
 40
2.8186341483
100
AcDbArc
 50
130.2663284533
 51
229.1128056127
  0
CIRCLE
  5
505
100
AcDbEntity
  8
RACCORDO
100
AcDbCircle
 62
7
  6
CONTINUOUS
 10
13.0
 20
-0.0
 40
2.8
  0
CIRCLE
  5
506
100
AcDbEntity
  8
RACCORDO
100
AcDbCircle
 62
7
  6
CONTINUOUS
 10
0.0
 20
-0.0
 40
2.8
  0
ARC
  5
507
100
AcDbEntity
  8
DRAFT
100
AcDbCircle
 62
7
  6
CONTINUOUS
 10
13.0
 20
-0.0
 40
2.7552361207
100
AcDbArc
 50
82.4680855963
 51
86.4670959328
  0
ARC
  5
508
100
AcDbEntity
  8
DRAFT
100
AcDbCircle
 62
7
  6
CONTINUOUS
 10
13.05
 20
-0.0
 40
2.75
100
AcDbArc
 50
270.0
 51
90.0
  0
CIRCLE
  5
509
100
AcDbEntity
  8
DRAFT
100
AcDbCircle
 62
7
  6
CONTINUOUS
 10
0.0
 20
-0.0
 40
2.75
  0
ARC
  5
50A
100
AcDbEntity
  8
0
100
AcDbCircle
 62
7
  6
CONTINUOUS
 10
1.1
 20
0.2
 40
2.5993734575
100
AcDbArc
 50
130.2666574069
 51
229.1125157993
  0
ARC
  5
50B
100
AcDbEntity
  8
0
100
AcDbCircle
 62
7
  6
CONTINUOUS
 10
13.0
 20
-0.0
 40
2.1473460386
100
AcDbArc
 50
54.7370615396
 51
90.0
  0
ARC
  5
50C
100
AcDbEntity
  8
ASSI
100
AcDbCircle
 62
7
  6
CONTINUOUS
 10
18.5625750151
 20
7.9218186798
 40
1.300000326
100
AcDbArc
 50
7.7559790118
 51
76.5448986759
  0
ARC
  5
50D
100
AcDbEntity
  8
ASSI
100
AcDbCircle
 62
7
  6
CONTINUOUS
 10
0.0004268802
 20
189.5499999788
 40
200.0299977144
100
AcDbArc
 50
267.4042695714
 51
268.4301879903
  0
ARC
  5
50E
100
AcDbEntity
  8
ASSI
100
AcDbCircle
 62
7
  6
CONTINUOUS
 10
0.0004268802
 20
189.5499999788
 40
200.0299977144
100
AcDbArc
 50
268.592561507
 51
268.8361027121
  0
ARC
  5
50F
100
AcDbEntity
  8
ASSI
100
AcDbCircle
 62
7
  6
CONTINUOUS
 10
0.0004268802
 20
189.5499999788
 40
200.0299977144
100
AcDbArc
 50
269.07961372
 51
270.2704810606
  0
ARC
  5
510
100
AcDbEntity
  8
ASSI
100
AcDbCircle
 62
7
  6
CONTINUOUS
 10
0.0004268802
 20
189.5499999788
 40
200.0299977144
100
AcDbArc
 50
270.4328028336
 51
271.4581833794
  0
ARC
  5
511
100
AcDbEntity
  8
ASSI
100
AcDbCircle
 62
7
  6
CONTINUOUS
 10
0.0004268802
 20
189.5499999788
 40
200.0299977144
100
AcDbArc
 50
271.6205606972
 51
272.5954856298
  0
ARC
  5
512
100
AcDbEntity
  8
ASSI
100
AcDbCircle
 62
7
  6
CONTINUOUS
 10
0.0004268802
 20
189.5499999788
 40
199.9999977144
100
AcDbArc
 50
266.6173641154
 51
269.9998777078
  0
ARC
  5
513
100
AcDbEntity
  8
ASSI
100
AcDbCircle
 62
7
  6
CONTINUOUS
 10
39.6004299775
 20
-0.0000001712
 40
60.000003104
100
AcDbArc
 50
172.2440216871
 51
187.7559783129
  0
ARC
  5
514
100
AcDbEntity
  8
0
100
AcDbCircle
 62
7
  6
CONTINUOUS
 10
39.6004268735
 20
0.0
 40
58.2
100
AcDbArc
 50
173.6866608667
 51
186.3133391333
  0
ARC
  5
515
100
AcDbEntity
  8
0
100
AcDbCircle
 62
7
  6
CONTINUOUS
 10
39.65
 20
0.0
 40
58.2
100
AcDbArc
 50
172.4842460811
 51
187.5157539189
  0
ELLIPSE
  5
516
100
AcDbEntity
  8
DRAFT
100
AcDbEllipse
 62
7
  6
CONTINUOUS
 10
-13.05
 20
0.0543484215
 30
0.0
 11
0.0
 21
2.6956515785
 31
0.0
 40
0.999796736
 41
0.0
 42
0.9895179991
  0
ELLIPSE
  5
517
100
AcDbEntity
  8
0
100
AcDbEllipse
 62
7
  6
CONTINUOUS
 10
-13.0
 20
0.2392556956
 30
0.0
 11
0.0
 21
2.3501963177
 31
0.0
 40
0.9948046367
 41
1.0323980825
 42
2.5826925951
  0
ELLIPSE
  5
518
100
AcDbEntity
  8
DRAFT
100
AcDbEllipse
 62
7
  6
CONTINUOUS
 10
-13.0666973895
 20
0.0
 30
0.0
 11
2.7117272312
 21
-0.0
 31
0.0
 40
0.9999810426
 41
8.8232652097
 42
11.0017318003
  0
ELLIPSE
  5
519
100
AcDbEntity
  8
DRAFT
100
AcDbEllipse
 62
7
  6
CONTINUOUS
 10
13.0666973895
 20
-0.0
 30
0.0
 11
2.7117272312
 21
-0.0
 31
0.0
 40
0.9999810426
 41
5.6816725561
 42
7.8601391467
  0
ELLIPSE
  5
51A
100
AcDbEntity
  8
DRAFT
100
AcDbEllipse
 62
7
  6
CONTINUOUS
 10
13.05
 20
-0.0543484215
 30
0.0
 11
0.0
 21
2.6956515785
 31
0.0
 40
0.999796736
 41
-3.1415926536
 42
-2.1520746545
  0
ELLIPSE
  5
51B
100
AcDbEntity
  8
0
100
AcDbEllipse
 62
7
  6
CONTINUOUS
 10
13.0
 20
-0.2392556956
 30
0.0
 11
0.0
 21
2.3501963177
 31
0.0
 40
0.9948046367
 41
-2.1091945711
 42
-0.5589000584
  0
ELLIPSE
  5
51C
100
AcDbEntity
  8
0
100
AcDbEllipse
 62
7
  6
CONTINUOUS
 10
-13.0750169342
 20
0.0
 30
0.0
 11
2.4128024745
 21
-0.0
 31
0.0
 40
0.9995165517
 41
2.4994570023
 42
4.7434851958
  0
ELLIPSE
  5
51D
100
AcDbEntity
  8
0
100
AcDbEllipse
 62
7
  6
CONTINUOUS
 10
13.0750169342
 20
-0.0
 30
0.0
 11
2.4128024745
 21
-0.0
 31
0.0
 40
0.9995165517
 41
-0.6421356513
 42
1.6018925422
  0
ELLIPSE
  5
51E
100
AcDbEntity
  8
0
100
AcDbEllipse
 62
7
  6
CONTINUOUS
 10
39.6004268735
 20
0.0
 30
0.0
 11
58.2
 21
0.0
 31
0.0
 40
1.0
 41
-3.022158325
 42
-3.0104740893
  0
ELLIPSE
  5
51F
100
AcDbEntity
  8
0
100
AcDbEllipse
 62
7
  6
CONTINUOUS
 10
39.6004268735
 20
-0.0
 30
0.0
 11
0.0
 21
58.2
 31
0.0
 40
1.0
 41
-4.5949020146
 42
-4.5929546518
  0
ELLIPSE
  5
520
100
AcDbEntity
  8
0
100
AcDbEllipse
 62
7
  6
CONTINUOUS
 10
39.6004268735
 20
-0.0
 30
0.0
 11
58.2
 21
0.0
 31
0.0
 40
1.0
 41
-3.0280004427
 42
-3.0241056878
  0
ELLIPSE
  5
521
100
AcDbEntity
  8
0
100
AcDbEllipse
 62
7
  6
CONTINUOUS
 10
-39.6004268735
 20
-0.0
 30
0.0
 11
58.2
 21
-0.0
 31
0.0
 40
1.0
 41
-0.1311185643
 42
-0.1135922109
  0
ELLIPSE
  5
522
100
AcDbEntity
  8
DRAFT
100
AcDbEllipse
 62
7
  6
CONTINUOUS
 10
-13.0
 20
-0.0048832716
 30
0.0
 11
0.0
 21
2.7503621623
 31
0.0
 40
0.9999984238
 41
3.0798223389
 42
3.1415926536
  0
ELLIPSE
  5
523
100
AcDbEntity
  8
DRAFT
100
AcDbEllipse
 62
7
  6
CONTINUOUS
 10
13.0
 20
0.0048832716
 30
0.0
 11
0.0
 21
2.7503621623
 31
0.0
 40
0.9999984238
 41
6.2214149924
 42
6.2831853072
  0
ELLIPSE
  5
524
100
AcDbEntity
  8
0
100
AcDbEllipse
 62
7
  6
CONTINUOUS
 10
-39.6004268735
 20
-0.0
 30
0.0
 11
58.2
 21
-0.0
 31
0.0
 40
1.0
 41
0.1135922109
 42
0.1311185643
  0
ELLIPSE
  5
525
100
AcDbEntity
  8
0
100
AcDbEllipse
 62
7
  6
CONTINUOUS
 10
39.6004268735
 20
0.0
 30
0.0
 11
0.0
 21
58.2
 31
0.0
 40
1.0
 41
1.453309361
 42
1.4572041159
  0
ELLIPSE
  5
526
100
AcDbEntity
  8
0
100
AcDbEllipse
 62
7
  6
CONTINUOUS
 10
39.6004268735
 20
0.0
 30
0.0
 11
58.2
 21
0.0
 31
0.0
 40
1.0
 41
3.0104740893
 42
3.0241056878
  0
ENDSEC
  0
SECTION
  2
OBJECTS
  0
DICTIONARY
  5
C
100
AcDbDictionary
280
0
281
1
  3
ACAD_GROUP
350
D
  3
ACAD_MLINESTYLE
350
17
  3
ACAD_LAYOUT
350
1A
  3
ACAD_PLOTSETTINGS
350
19
  3
ACAD_PLOTSTYLENAME
350
E
  0
DICTIONARY
  5
D
102
{ACAD_REACTORS
330
C
102
}
100
AcDbDictionary
280
0
281
1
  0
ACDBDICTIONARYWDFLT
  5
E
102
{ACAD_REACTORS
330
C
102
}
100
AcDbDictionary
281
1
  3
Normal
350
F
100
AcDbDictionaryWithDefault
340
F
  0
DICTIONARY
  5
17
102
{ACAD_REACTORS
330
C
102
}
100
AcDbDictionary
280
0
281
1
  3
Standard
350
18
  0
DICTIONARY
  5
19
102
{ACAD_REACTORS
330
C
102
}
100
AcDbDictionary
281
1
  0
DICTIONARY
  5
1A
102
{ACAD_REACTORS
330
C
102
}
100
AcDbDictionary
281
1
  3
Model
350
527
  3
Layout1
350
528
  0
ACDBPLACEHOLDER
  5
F
102
{ACAD_REACTORS
330
E
102
}
  0
MLINESTYLE
  5
18
102
{ACAD_REACTORS
330
17
102
}
100
AcDbMlineStyle
  2
STANDARD
 70
0
  3

 62
256
 51
90.0
 52
90.0
 71
2
 49
0.5
 62
256
  6
BYLAYER
 49
-0.5
 62
256
  6
BYLAYER
  0
LAYOUT
  5
527
102
{ACAD_REACTORS
330
1A
102
}
100
AcDbPlotSettings
  1

  2
none_device
  4
ISO_A4_(297.00_x_210.00_MM)
  6

 40
0.0
 41
0.0
 42
0.0
 43
0.0
 44
297.0
 45
210.0
 46
0.0
 47
0.0
 48
0.0
 49
0.0
140
0.0
141
0.0
142
1.0
143
1.0
 70
1024
 72
1
 73
0
 74
0
  7

 75
0
147
1.0
148
0.0
149
0.0
100
AcDbLayout
  1
Model
 70
0
 71
0
 10
0.0
 20
0.0
 11
297.0
 21
210.0
 12
0.0
 22
0.0
 32
0.0
 14
0.0
 24
0.0
 34
0.0
 15
0.0
 25
0.0
 35
0.0
146
0.0
 13
0.0
 23
0.0
 33
0.0
 16
1.0
 26
0.0
 36
0.0
 17
0.0
 27
1.0
 37
0.0
 76
0
330
21E
345
0
346
0
  0
LAYOUT
  5
528
102
{ACAD_REACTORS
330
1A
102
}
100
AcDbPlotSettings
  1

  2
none_device
  4
ISO_A4_(297.00_x_210.00_MM)
  6

 40
0.0
 41
0.0
 42
0.0
 43
0.0
 44
297.0
 45
210.0
 46
0.0
 47
0.0
 48
0.0
 49
0.0
140
0.0
141
0.0
142
1.0
143
1.0
 70
0
 72
1
 73
0
 74
0
  7

 75
0
147
1.0
148
0.0
149
0.0
100
AcDbLayout
  1
Layout1
 70
0
 71
1
 10
0.0
 20
0.0
 11
297.0
 21
210.0
 12
0.0
 22
0.0
 32
0.0
 14
0.0
 24
0.0
 34
0.0
 15
0.0
 25
0.0
 35
0.0
146
0.0
 13
0.0
 23
0.0
 33
0.0
 16
1.0
 26
0.0
 36
0.0
 17
0.0
 27
1.0
 37
0.0
 76
0
330
21F
345
0
346
0
  0
ENDSEC
  0
EOF
