  0
SECTION
  2
HEADER
  9
$ACADVER
  1
AC1024
  9
$DWGCODEPAGE
  3
ANSI_1252
  9
$EXTMAX
 10
420.0
 20
297.0
 30
0.0
  9
$EXTMIN
 10
0.0
 20
-0.0
 30
0.0
  9
$LIMMIN
 10
0.0
 20
-0.0
  9
$LIMMAX
 10
420.0
 20
297.0
  9
$VIEWCTR
 10
210.0
 20
148.5
  9
$VIEWSIZE
 40
297.0
  9
$CLAYER
  8
0
  9
$LTSCALE
 40
23.1
  9
$CELTYPE
  6
BYLAYER
  9
$DIMSCALE
 40
1.0
  9
$DIMASZ
 40
3.0
  9
$DIMEXO
 40
0.5
  9
$DIMDLI
 40
15.96
  9
$DIMEXE
 40
1.5
  9
$DIMCEN
 40
3.78
  9
$DIMLFAC
 40
1.0
  9
$DIMBLK
  1
_FILLED
  9
$DIMALT
 70
0
  9
$DIMALTF
 40
0.0393700787
  9
$DIMTXT
 40
3.0
  9
$DIMTOL
 70
1
  9
$DIMLIM
 70
0
  9
$DIMTFAC
 40
1.0
  9
$DIMTP
 40
0.01
  9
$DIMTM
 40
0.01
  9
$DIMGAP
 40
0.625
  9
$DIMDSEP
 70
44
  9
$AUNITS
 70
0
  9
$PDMODE
 70
3
  9
$PDSIZE
 40
3.0
  9
$HANDSEED
  5
4DE
  9
$TILEMODE
 70
1
  9
$MEASUREMENT
 70
1
  9
$INSUNITS
 70
4
  0
ENDSEC
  0
SECTION
  2
CLASSES
  0
CLASS
  1
ACDBDICTIONARYWDFLT
  2
AcDbDictionaryWithDefault
  3
AutoCAD 2000
 90
0
 91
1
280
0
281
0
  0
CLASS
  1
ACDBPLACEHOLDER
  2
AcDbPlaceHolder
  3
AutoCAD 2000
 90
0
 91
1
280
0
281
0
  0
CLASS
  1
LAYOUT
  2
AcDbLayout
  3
AutoCAD 2000
 90
0
 91
0
280
0
281
0
  0
ENDSEC
  0
SECTION
  2
TABLES
  0
TABLE
  2
VPORT
  5
8
100
AcDbSymbolTable
 70
2
  0
VPORT
  5
1F4
100
AcDbSymbolTableRecord
100
AcDbViewportTableRecord
  2
*ACTIVE
 70
0
 10
0.0
 20
0.0
 11
1.0
 21
1.0
 12
210.0
 22
148.5
 13
0.0
 23
0.0
 14
1.0
 24
1.0
 15
0.0
 25
0.0
 16
0.0
 26
0.0
 36
1.0
 17
0.0
 27
0.0
 37
0.0
 40
297.0
 41
1.4141414141
 42
50.0
 43
0.0
 44
0.0
 50
0.0
 51
0.0
 71
0
 72
100
 73
1
 74
1
 75
0
 76
0
 77
0
 78
0
  0
ENDTAB
  0
TABLE
  2
LTYPE
  5
5
100
AcDbSymbolTable
 70
6
  0
LTYPE
  5
14
100
AcDbSymbolTableRecord
100
AcDbLinetypeTableRecord
  2
BYBLOCK
 70
0
  3

 72
65
 73
0
 40
0.0
  0
LTYPE
  5
15
100
AcDbSymbolTableRecord
100
AcDbLinetypeTableRecord
  2
BYLAYER
 70
0
  3

 72
65
 73
0
 40
0.0
  0
LTYPE
  5
16
100
AcDbSymbolTableRecord
100
AcDbLinetypeTableRecord
  2
CONTINUOUS
 70
64
  3
Solid line
 72
65
 73
0
 40
0.0
  0
LTYPE
  5
1F5
100
AcDbSymbolTableRecord
100
AcDbLinetypeTableRecord
  2
CENTER
 70
64
  3
____ _ ____ _ ____ _ ____ _ ____ _ ____ _ ____
 72
65
 73
4
 40
0.6
 49
0.375
 74
0
 49
-0.075
 74
0
 49
0.075
 74
0
 49
-0.075
 74
0
  0
LTYPE
  5
1F6
100
AcDbSymbolTableRecord
100
AcDbLinetypeTableRecord
  2
HIDDEN
 70
64
  3
- - - - - - - - - - - - - - - - - - - -
 72
65
 73
2
 40
0.2
 49
0.1
 74
0
 49
-0.1
 74
0
  0
LTYPE
  5
1F7
100
AcDbSymbolTableRecord
100
AcDbLinetypeTableRecord
  2
PHANTOM
 70
64
  3
_____ _ _ _____ _ _ _____ _ _ _____
 72
65
 73
6
 40
0.8
 49
0.45
 74
0
 49
-0.05
 74
0
 49
0.1
 74
0
 49
-0.05
 74
0
 49
0.1
 74
0
 49
-0.05
 74
0
  0
LTYPE
  5
1F8
100
AcDbSymbolTableRecord
100
AcDbLinetypeTableRecord
  2
DOT
 70
64
  3
. . . . . . . . . . . . . . . . . . . .
 72
65
 73
2
 40
0.2
 49
0.1
 74
0
 49
-0.1
 74
0
  0
LTYPE
  5
1F9
100
AcDbSymbolTableRecord
100
AcDbLinetypeTableRecord
  2
DASHED
 70
64
  3
- - - - - - - - - - - - - - - - - - - -
 72
65
 73
2
 40
0.2
 49
0.1
 74
0
 49
-0.1
 74
0
  0
ENDTAB
  0
TABLE
  2
LAYER
  5
2
100
AcDbSymbolTable
 70
36
  0
LAYER
  5
10
100
AcDbSymbolTableRecord
100
AcDbLayerTableRecord
  2
0
 70
0
 62
7
  6
CONTINUOUS
370
-3
390
F
  0
LAYER
  5
1FA
100
AcDbSymbolTableRecord
100
AcDbLayerTableRecord
  2
DEFAULT_1
 70
0
 62
7
  6
CENTER
370
-3
390
F
  0
LAYER
  5
1FB
100
AcDbSymbolTableRecord
100
AcDbLayerTableRecord
  2
DEFAULT_2
 70
0
 62
7
  6
HIDDEN
370
-3
390
F
  0
LAYER
  5
1FC
100
AcDbSymbolTableRecord
100
AcDbLayerTableRecord
  2
DEFAULT_3
 70
0
 62
7
  6
PHANTOM
370
-3
390
F
  0
LAYER
  5
1FD
100
AcDbSymbolTableRecord
100
AcDbLayerTableRecord
  2
ASSI
 70
0
 62
7
  6
CONTINUOUS
370
-3
390
F
  0
LAYER
  5
1FE
100
AcDbSymbolTableRecord
100
AcDbLayerTableRecord
  2
COLOR5
 70
0
 62
7
  6
CONTINUOUS
370
-3
390
F
  0
LAYER
  5
1FF
100
AcDbSymbolTableRecord
100
AcDbLayerTableRecord
  2
COORDINATE
 70
0
 62
7
  6
CONTINUOUS
370
-3
390
F
  0
LAYER
  5
200
100
AcDbSymbolTableRecord
100
AcDbLayerTableRecord
  2
COORD_ORIGINE
 70
0
 62
7
  6
CONTINUOUS
370
-3
390
F
  0
LAYER
  5
201
100
AcDbSymbolTableRecord
100
AcDbLayerTableRecord
  2
COPY-PUBBLISH
 70
0
 62
7
  6
CONTINUOUS
370
-3
390
F
  0
LAYER
  5
202
100
AcDbSymbolTableRecord
100
AcDbLayerTableRecord
  2
COSMETICI
 70
0
 62
7
  6
CONTINUOUS
370
-3
390
F
  0
LAYER
  5
203
100
AcDbSymbolTableRecord
100
AcDbLayerTableRecord
  2
CURVE
 70
0
 62
7
  6
CONTINUOUS
370
-3
390
F
  0
LAYER
  5
204
100
AcDbSymbolTableRecord
100
AcDbLayerTableRecord
  2
DRAFT
 70
0
 62
7
  6
CONTINUOUS
370
-3
390
F
  0
LAYER
  5
205
100
AcDbSymbolTableRecord
100
AcDbLayerTableRecord
  2
IGES
 70
0
 62
7
  6
CONTINUOUS
370
-3
390
F
  0
LAYER
  5
206
100
AcDbSymbolTableRecord
100
AcDbLayerTableRecord
  2
INTF_52
 70
0
 62
7
  6
CONTINUOUS
370
-3
390
F
  0
LAYER
  5
207
100
AcDbSymbolTableRecord
100
AcDbLayerTableRecord
  2
INTF_GREEN
 70
0
 62
7
  6
CONTINUOUS
370
-3
390
F
  0
LAYER
  5
208
100
AcDbSymbolTableRecord
100
AcDbLayerTableRecord
  2
INTF_RED
 70
0
 62
7
  6
CONTINUOUS
370
-3
390
F
  0
LAYER
  5
209
100
AcDbSymbolTableRecord
100
AcDbLayerTableRecord
  2
INTF_YELLOW
 70
0
 62
7
  6
CONTINUOUS
370
-3
390
F
  0
LAYER
  5
20A
100
AcDbSymbolTableRecord
100
AcDbLayerTableRecord
  2
NOTE
 70
0
 62
7
  6
CONTINUOUS
370
-3
390
F
  0
LAYER
  5
20B
100
AcDbSymbolTableRecord
100
AcDbLayerTableRecord
  2
PIANI
 70
0
 62
7
  6
CONTINUOUS
370
-3
390
F
  0
LAYER
  5
20C
100
AcDbSymbolTableRecord
100
AcDbLayerTableRecord
  2
PIANI-RIFERIMENTO
 70
0
 62
7
  6
CONTINUOUS
370
-3
390
F
  0
LAYER
  5
20D
100
AcDbSymbolTableRecord
100
AcDbLayerTableRecord
  2
PIANI_ORIGINE
 70
0
 62
7
  6
CONTINUOUS
370
-3
390
F
  0
LAYER
  5
20E
100
AcDbSymbolTableRecord
100
AcDbLayerTableRecord
  2
PUNTI
 70
0
 62
7
  6
CONTINUOUS
370
-3
390
F
  0
LAYER
  5
20F
100
AcDbSymbolTableRecord
100
AcDbLayerTableRecord
  2
RACCORDO
 70
0
 62
7
  6
CONTINUOUS
370
-3
390
F
  0
LAYER
  5
210
100
AcDbSymbolTableRecord
100
AcDbLayerTableRecord
  2
SIMBOLI
 70
0
 62
7
  6
CONTINUOUS
370
-3
390
F
  0
LAYER
  5
211
100
AcDbSymbolTableRecord
100
AcDbLayerTableRecord
  2
SMUSSO
 70
0
 62
7
  6
CONTINUOUS
370
-3
390
F
  0
LAYER
  5
212
100
AcDbSymbolTableRecord
100
AcDbLayerTableRecord
  2
SOLIDO
 70
0
 62
7
  6
CONTINUOUS
370
-3
390
F
  0
LAYER
  5
213
100
AcDbSymbolTableRecord
100
AcDbLayerTableRecord
  2
SUPERFICI
 70
0
 62
7
  6
CONTINUOUS
370
-3
390
F
  0
LAYER
  5
214
100
AcDbSymbolTableRecord
100
AcDbLayerTableRecord
  2
TRASH
 70
0
 62
7
  6
CONTINUOUS
370
-3
390
F
  0
LAYER
  5
215
100
AcDbSymbolTableRecord
100
AcDbLayerTableRecord
  2
XSEC_DATUMS
 70
0
 62
7
  6
CONTINUOUS
370
-3
390
F
  0
ENDTAB
  0
TABLE
  2
STYLE
  5
3
100
AcDbSymbolTable
 70
1
  0
STYLE
  5
11
100
AcDbSymbolTableRecord
100
AcDbTextStyleTableRecord
  2
STANDARD
 70
0
 40
0.0
 41
0.8
 50
0.0
 71
0
 42
0.2
  3
txt
  4

  0
STYLE
  5
216
100
AcDbSymbolTableRecord
100
AcDbTextStyleTableRecord
  2
TEXTSTYLE_1
 70
0
 40
0.0
 41
0.8
 50
0.0
 71
0
 42
0.2
  3
gdt
  4

  0
ENDTAB
  0
TABLE
  2
VIEW
  5
6
100
AcDbSymbolTable
 70
0
  0
ENDTAB
  0
TABLE
  2
UCS
  5
7
100
AcDbSymbolTable
 70
0
  0
ENDTAB
  0
TABLE
  2
APPID
  5
9
100
AcDbSymbolTable
 70
1
  0
APPID
  5
217
100
AcDbSymbolTableRecord
100
AcDbRegAppTableRecord
  2
ACAD
 70
0
  0
ENDTAB
  0
TABLE
  2
BLOCK_RECORD
  5
1
100
AcDbSymbolTable
 70
0
  0
BLOCK_RECORD
  5
218
100
AcDbSymbolTableRecord
100
AcDbBlockTableRecord
  2
*Model_Space
  0
BLOCK_RECORD
  5
219
100
AcDbSymbolTableRecord
100
AcDbBlockTableRecord
  2
*Paper_Space
  0
BLOCK_RECORD
  5
21A
100
AcDbSymbolTableRecord
100
AcDbBlockTableRecord
  2
_FILLED
  0
ENDTAB
  0
TABLE
  2
DIMSTYLE
  5
A
100
AcDbSymbolTable
 70
1
100
AcDbDimStyleTable
 71
0
  0
DIMSTYLE
105
21B
100
AcDbSymbolTableRecord
100
AcDbDimStyleTableRecord
  2
STANDARD
 70
0
  3

  4

 40
1.0
 41
3.0
 42
0.5
 43
0.38
 44
1.5
 45
0.0
 46
0.0
 47
0.01
 48
0.01
140
3.0
141
0.09
142
0.0
143
25.4
144
1.0
145
0.0
146
1.0
147
0.625
 71
1
 72
0
 73
0
 74
0
 75
0
 76
0
 77
1
 78
8
 79
2
170
0
171
1
172
0
173
0
174
0
175
0
176
0
177
0
178
0
270
2
179
2
271
2
272
2
273
2
274
2
275
0
280
0
281
0
282
0
283
1
284
8
285
0
286
0
287
3
288
0
340
11
278
44
341
21A
342
21A
343
21A
344
21A
  0
ENDTAB
  0
ENDSEC
  0
SECTION
  2
BLOCKS
  0
BLOCK
  5
20
100
AcDbEntity
  8
0
100
AcDbBlockBegin
  2
*Model_Space
 70
0
 10
0.0
 20
0.0
 30
0.0
  3
*Model_Space
  1

  0
ENDBLK
  5
21
100
AcDbEntity
  8
0
100
AcDbBlockEnd
  0
BLOCK
  5
1C
100
AcDbEntity
  8
0
100
AcDbBlockBegin
  2
*Paper_Space
 70
0
 10
0.0
 20
0.0
 30
0.0
  3
*Paper_Space
  1

  0
ENDBLK
  5
1D
100
AcDbEntity
  8
0
100
AcDbBlockEnd
  0
BLOCK
  5
21C
100
AcDbEntity
  8
0
100
AcDbBlockBegin
  2
_FILLED
 70
64
 10
0.0
 20
0.0
  3
_FILLED
  1

  0
SOLID
  5
21D
100
AcDbEntity
  8
0
  6
BYBLOCK
 62
0
100
AcDbTrace
 10
0.0
 20
0.0
 11
-1.0
 21
0.3166666667
 12
-1.0
 22
-0.3166666667
 13
-1.0
 23
-0.3166666667
  0
ENDBLK
  5
21E
100
AcDbEntity
  8
0
  6
BYBLOCK
 62
0
100
AcDbBlockEnd
  0
ENDSEC
  0
SECTION
  2
ENTITIES
  0
LWPOLYLINE
  5
21F
100
AcDbEntity
  8
0
100
AcDbPolyline
 62
250
  6
CONTINUOUS
 90
3
 70
0
 10
35.9146001958
 20
-57.7357038478
 10
35.8883279716
 20
-57.8363233332
 10
35.8734206712
 20
-57.9164693321
  0
LINE
  5
220
100
AcDbEntity
  8
0
100
AcDbLine
 62
250
  6
CONTINUOUS
 10
35.9488307386
 20
-57.6375082615
 11
35.9146424501
 21
-57.7355826349
  0
LINE
  5
221
100
AcDbEntity
  8
SUPERFICI
100
AcDbLine
 62
250
  6
CONTINUOUS
 10
36.8645311785
 20
-75.2316180173
 11
36.8672166166
 21
-75.2327014254
  0
LWPOLYLINE
  5
222
100
AcDbEntity
  8
SUPERFICI
100
AcDbPolyline
 62
7
  6
CONTINUOUS
 90
6
 70
0
 10
36.5569478094
 20
-75.1134852737
 10
36.6017876409
 20
-75.1362659423
 10
36.647785652
 20
-75.1575526554
 10
36.6978188877
 20
-75.1784364364
 10
36.7490416491
 20
-75.1974799972
 10
36.7877441809
 20
-75.2103584006
  0
LINE
  5
223
100
AcDbEntity
  8
SUPERFICI
100
AcDbLine
 62
250
  6
CONTINUOUS
 10
40.4250377748
 20
-75.8915369415
 11
40.4845515842
 21
-75.9247112117
  0
LWPOLYLINE
  5
224
100
AcDbEntity
  8
SUPERFICI
100
AcDbPolyline
 62
250
  6
CONTINUOUS
 90
9
 70
0
 10
36.8547751212
 20
-75.2219236869
 10
36.8578194561
 20
-75.2238939874
 10
36.8596257501
 20
-75.2254767252
 10
36.8605572591
 20
-75.2267584962
 10
36.860973307
 20
-75.2278249634
 10
36.861229304
 20
-75.228760861
 10
36.8616767643
 20
-75.2296499988
 10
36.8626633227
 20
-75.2305752664
 10
36.8645311785
 20
-75.2316180173
  0
LWPOLYLINE
  5
225
100
AcDbEntity
  8
SUPERFICI
100
AcDbPolyline
 62
250
  6
CONTINUOUS
 90
9
 70
0
 10
40.3806394984
 20
-75.8440953363
 10
40.3827978895
 20
-75.8454928725
 10
40.3847706732
 20
-75.8471588039
 10
40.3865585425
 20
-75.8490763179
 10
40.3880945882
 20
-75.8512204216
 10
40.389447858
 20
-75.8535840379
 10
40.3908236209
 20
-75.8561802351
 10
40.3922917939
 20
-75.859006374
 10
40.3937874378
 20
-75.8620425002
  0
LINE
  5
226
100
AcDbEntity
  8
SUPERFICI
100
AcDbLine
 62
250
  6
CONTINUOUS
 10
40.3956791483
 20
-75.8656573177
 11
40.4250377748
 21
-75.8915369415
  0
LINE
  5
227
100
AcDbEntity
  8
SUPERFICI
100
AcDbLine
 62
250
  6
CONTINUOUS
 10
40.3954139286
 20
-75.8652775585
 11
40.3956791483
 21
-75.8656573177
  0
LWPOLYLINE
  5
228
100
AcDbEntity
  8
SUPERFICI
100
AcDbPolyline
 62
7
  6
CONTINUOUS
 90
9
 70
0
 10
36.0525965388
 20
-74.6417220244
 10
36.1098470388
 20
-74.7271669827
 10
36.1727913045
 20
-74.806837323
 10
36.240494997
 20
-74.8800039821
 10
36.3090963589
 20
-74.9438422478
 10
36.3770938358
 20
-74.9988663424
 10
36.4436785631
 20
-75.0460534695
 10
36.505190221
 20
-75.0845253784
 10
36.5569478094
 20
-75.1134852737
  0
LINE
  5
229
100
AcDbEntity
  8
SUPERFICI
100
AcDbLine
 62
7
  6
CONTINUOUS
 10
36.0463775969
 20
-74.6306410704
 11
36.0525965388
 21
-74.6417220244
  0
LINE
  5
22A
100
AcDbEntity
  8
SUPERFICI
100
AcDbLine
 62
250
  6
CONTINUOUS
 10
40.3937874378
 20
-75.8620425002
 11
40.3954139286
 21
-75.8652775585
  0
LINE
  5
22B
100
AcDbEntity
  8
SUPERFICI
100
AcDbLine
 62
7
  6
CONTINUOUS
 10
35.9575685297
 20
-74.4555244473
 11
35.9975189342
 21
-74.5421261101
  0
LINE
  5
22C
100
AcDbEntity
  8
SUPERFICI
100
AcDbLine
 62
250
  6
CONTINUOUS
 10
35.9488307386
 20
-74.434552761
 11
35.9146424501
 21
-74.3364783877
  0
LWPOLYLINE
  5
22D
100
AcDbEntity
  8
SUPERFICI
100
AcDbPolyline
 62
250
  6
CONTINUOUS
 90
3
 70
0
 10
35.9146001958
 20
-74.3363571748
 10
35.8883279716
 20
-74.2357376894
 10
35.8734206712
 20
-74.1555916904
  0
LWPOLYLINE
  5
22E
100
AcDbEntity
  8
0
100
AcDbPolyline
 62
250
  6
CONTINUOUS
 90
10
 70
0
 10
36.366367404
 20
-74.0757334672
 10
36.2538105119
 20
-73.2106846407
 10
36.1541774731
 20
-72.3385363464
 10
36.0674682875
 20
-71.4592885844
 10
35.9935859274
 20
-70.572892565
 10
35.9326274205
 20
-69.6793970778
 10
35.8848838504
 20
-68.7789484919
 10
35.8504522448
 20
-67.871595597
 10
35.829235576
 20
-66.9572896035
 10
35.8212338439
 20
-66.0360305113
  0
LINE
  5
22F
100
AcDbEntity
  8
RACCORDO
100
AcDbLine
 62
250
  6
CONTINUOUS
 10
37.6008573239
 20
-73.4920563658
 11
37.6008573239
 21
-73.0504724624
  0
LINE
  5
230
100
AcDbEntity
  8
RACCORDO
100
AcDbLine
 62
250
  6
CONTINUOUS
 10
37.6008573239
 20
-59.0215884261
 11
37.6008573239
 21
-58.5800046567
  0
LINE
  5
231
100
AcDbEntity
  8
0
100
AcDbLine
 62
7
  6
CONTINUOUS
 10
37.6208573239
 20
-58.426777025
 11
37.6208573239
 21
-58.0359924344
  0
LINE
  5
232
100
AcDbEntity
  8
0
100
AcDbLine
 62
7
  6
CONTINUOUS
 10
37.6208573239
 20
-57.0360305113
 11
37.6208573239
 21
-57.1843283563
  0
LINE
  5
233
100
AcDbEntity
  8
0
100
AcDbLine
 62
7
  6
CONTINUOUS
 10
37.6208573239
 20
-73.6452839976
 11
37.6208573239
 21
-74.0360305113
  0
LINE
  5
234
100
AcDbEntity
  8
0
100
AcDbLine
 62
7
  6
CONTINUOUS
 10
37.6708573239
 20
-58.423540774
 11
37.6708573239
 21
-58.0860305112
  0
LINE
  5
235
100
AcDbEntity
  8
0
100
AcDbLine
 62
7
  6
CONTINUOUS
 10
37.6708573239
 20
-73.6485202486
 11
37.6708573239
 21
-73.9860305114
  0
LINE
  5
236
100
AcDbEntity
  8
0
100
AcDbLine
 62
250
  6
CONTINUOUS
 10
37.5708573239
 20
-75.0360305113
 11
37.5708675437
 21
-74.8769146322
  0
LWPOLYLINE
  5
237
100
AcDbEntity
  8
0
100
AcDbPolyline
 62
250
  6
CONTINUOUS
 90
10
 70
0
 10
36.366367404
 20
-57.9963275554
 10
36.2538105119
 20
-58.8613763819
 10
36.1541774731
 20
-59.7335246761
 10
36.0674682875
 20
-60.6127724381
 10
35.9935859274
 20
-61.4991684576
 10
35.9326274205
 20
-62.3926639448
 10
35.8848838504
 20
-63.2931125307
 10
35.8504522448
 20
-64.2004654256
 10
35.829235576
 20
-65.1147714191
 10
35.8212338439
 20
-66.0360305113
  0
LINE
  5
238
100
AcDbEntity
  8
0
100
AcDbLine
 62
7
  6
CONTINUOUS
 10
35.9975189342
 20
-57.5299349125
 11
35.9695154767
 21
-57.5906388281
  0
LINE
  5
239
100
AcDbEntity
  8
0
100
AcDbLine
 62
250
  6
CONTINUOUS
 10
40.3937874378
 20
-56.2100185224
 11
40.3954139286
 21
-56.2067834641
  0
LWPOLYLINE
  5
23A
100
AcDbEntity
  8
0
100
AcDbPolyline
 62
7
  6
CONTINUOUS
 90
3
 70
0
 10
36.1098470388
 20
-57.3448940399
 10
36.0525965388
 20
-57.4303389981
 10
36.0463775969
 20
-57.4414199522
  0
LINE
  5
23B
100
AcDbEntity
  8
0
100
AcDbLine
 62
250
  6
CONTINUOUS
 10
74.5859206475
 20
-75.2221675143
 11
74.6860404028
 21
-75.1939336481
  0
LINE
  5
23C
100
AcDbEntity
  8
0
100
AcDbLine
 62
7
  6
CONTINUOUS
 10
74.5744893806
 20
-75.2327044005
 11
74.6539704669
 21
-75.2103584006
  0
LWPOLYLINE
  5
23D
100
AcDbEntity
  8
0
100
AcDbPolyline
 62
7
  6
CONTINUOUS
 90
4
 70
0
 10
74.5705885256
 20
-75.233852308
 10
74.5934627765
 20
-75.2279738487
 10
74.6215226402
 20
-75.220191877
 10
74.6525984665
 20
-75.2108247672
  0
LINE
  5
23E
100
AcDbEntity
  8
0
100
AcDbLine
 62
7
  6
CONTINUOUS
 10
74.5706132215
 20
-75.2338374751
 11
74.5699027908
 21
-75.234016305
  0
LINE
  5
23F
100
AcDbEntity
  8
0
100
AcDbLine
 62
250
  6
CONTINUOUS
 10
69.1819758561
 20
-76.1372485138
 11
69.4638168955
 21
-76.0686731314
  0
LINE
  5
240
100
AcDbEntity
  8
0
100
AcDbLine
 62
7
  6
CONTINUOUS
 10
74.3315600524
 20
-75.2917299042
 11
74.5663464172
 21
-75.2348424101
  0
LINE
  5
241
100
AcDbEntity
  8
0
100
AcDbLine
 62
7
  6
CONTINUOUS
 10
74.5699027908
 20
-75.234016305
 11
74.5678794513
 21
-75.2345023003
  0
LWPOLYLINE
  5
242
100
AcDbEntity
  8
0
100
AcDbPolyline
 62
7
  6
CONTINUOUS
 90
4
 70
0
 10
74.5485591118
 20
-75.2309739216
 10
74.3932859501
 20
-75.2675878708
 10
74.2005954
 20
-75.3116727283
 10
74.1554654257
 20
-75.3216872835
  0
LINE
  5
243
100
AcDbEntity
  8
0
100
AcDbLine
 62
250
  6
CONTINUOUS
 10
74.2612507708
 20
-74.788763964
 11
73.8142071235
 21
-74.8948853593
  0
LINE
  5
244
100
AcDbEntity
  8
0
100
AcDbLine
 62
250
  6
CONTINUOUS
 10
74.4730539046
 20
-74.7394192964
 11
74.2612507708
 21
-74.788763964
  0
LINE
  5
245
100
AcDbEntity
  8
0
100
AcDbLine
 62
7
  6
CONTINUOUS
 10
70.3917506135
 20
-76.1492757317
 11
71.434372603
 21
-75.9106639641
  0
LWPOLYLINE
  5
246
100
AcDbEntity
  8
0
100
AcDbPolyline
 62
250
  6
CONTINUOUS
 90
4
 70
0
 10
73.8142071235
 20
-74.8948853593
 10
73.7560535464
 20
-74.9081364617
 10
73.6963965925
 20
-74.9210691439
 10
73.6352754852
 20
-74.9335220002
  0
LINE
  5
247
100
AcDbEntity
  8
0
100
AcDbLine
 62
250
  6
CONTINUOUS
 10
68.8657939648
 20
-76.2091638214
 11
69.1819758561
 21
-76.1372485138
  0
LINE
  5
248
100
AcDbEntity
  8
0
100
AcDbLine
 62
7
  6
CONTINUOUS
 10
71.434372603
 20
-75.9106639641
 11
71.7234444873
 21
-75.8452923793
  0
LINE
  5
249
100
AcDbEntity
  8
0
100
AcDbLine
 62
7
  6
CONTINUOUS
 10
71.7234444873
 20
-75.8452923793
 11
72.0045235274
 21
-75.7826834763
  0
LINE
  5
24A
100
AcDbEntity
  8
0
100
AcDbLine
 62
7
  6
CONTINUOUS
 10
74.5678794513
 20
-75.2345023003
 11
74.5663464172
 21
-75.2348424101
  0
LINE
  5
24B
100
AcDbEntity
  8
0
100
AcDbLine
 62
7
  6
CONTINUOUS
 10
74.0793801526
 20
-75.3385709664
 11
74.0076479368
 21
-75.3544886852
  0
LWPOLYLINE
  5
24C
100
AcDbEntity
  8
0
100
AcDbPolyline
 62
7
  6
CONTINUOUS
 90
3
 70
0
 10
69.4879504494
 20
-76.3505544058
 10
69.9360972815
 20
-76.2520327298
 10
70.3917506135
 20
-76.1492757317
  0
LWPOLYLINE
  5
24D
100
AcDbEntity
  8
0
100
AcDbPolyline
 62
7
  6
CONTINUOUS
 90
4
 70
0
 10
72.0045235274
 20
-75.7826834763
 10
72.2736396284
 20
-75.7238942487
 10
72.5418125329
 20
-75.6666146533
 10
72.8111153079
 20
-75.6104423331
  0
LINE
  5
24E
100
AcDbEntity
  8
0
100
AcDbLine
 62
7
  6
CONTINUOUS
 10
69.5081531357
 20
-76.3449751525
 11
69.1858945978
 21
-76.4150467039
  0
LWPOLYLINE
  5
24F
100
AcDbEntity
  8
0
100
AcDbPolyline
 62
7
  6
CONTINUOUS
 90
4
 70
0
 10
74.0076479368
 20
-75.3544886852
 10
73.8143852408
 20
-75.3960392848
 10
73.6206257646
 20
-75.4363597532
 10
73.4268606537
 20
-75.4753519942
  0
LWPOLYLINE
  5
250
100
AcDbEntity
  8
0
100
AcDbPolyline
 62
7
  6
CONTINUOUS
 90
3
 70
0
 10
73.7082533034
 20
-75.4295430873
 10
74.0423396299
 20
-75.3580904372
 10
74.3315600524
 20
-75.2917299042
  0
LINE
  5
251
100
AcDbEntity
  8
ASSI
100
AcDbLine
 62
7
  6
CONTINUOUS
 10
73.7725657702
 20
-73.8051953914
 11
73.8003253955
 21
-73.799387976
  0
LINE
  5
252
100
AcDbEntity
  8
0
100
AcDbLine
 62
7
  6
CONTINUOUS
 10
69.1146842027
 20
-76.4299560355
 11
69.4879504494
 21
-76.3505544058
  0
LWPOLYLINE
  5
253
100
AcDbEntity
  8
0
100
AcDbPolyline
 62
7
  6
CONTINUOUS
 90
3
 70
0
 10
73.3534397646
 20
-75.4902109471
 10
74.10245623
 20
-75.3339200986
 10
74.5859624791
 20
-75.2223424291
  0
LWPOLYLINE
  5
254
100
AcDbEntity
  8
0
100
AcDbPolyline
 62
7
  6
CONTINUOUS
 90
3
 70
0
 10
72.8111153079
 20
-75.6104423331
 10
73.3873783084
 20
-75.4934473085
 10
73.7082533034
 20
-75.4295430873
  0
LWPOLYLINE
  5
255
100
AcDbEntity
  8
0
100
AcDbPolyline
 62
250
  6
CONTINUOUS
 90
5
 70
0
 10
73.2629166031
 20
-75.5184444178
 10
73.0234014296
 20
-75.5654233692
 10
72.6438197054
 20
-75.6340991297
 10
72.2593681618
 20
-75.6973137706
 10
71.8694912821
 20
-75.7558912563
  0
LINE
  5
256
100
AcDbEntity
  8
0
100
AcDbLine
 62
7
  6
CONTINUOUS
 10
73.4268606537
 20
-75.4753519942
 11
73.2323990324
 21
-75.5131515402
  0
LINE
  5
257
100
AcDbEntity
  8
0
100
AcDbLine
 62
250
  6
CONTINUOUS
 10
73.6352754852
 20
-74.9335220002
 11
73.3750407809
 21
-74.983390499
  0
LWPOLYLINE
  5
258
100
AcDbEntity
  8
0
100
AcDbPolyline
 62
250
  6
CONTINUOUS
 90
14
 70
0
 10
73.0877375745
 20
-75.0360305113
 10
72.9258431298
 20
-75.0665319031
 10
72.7531069166
 20
-75.0976159538
 10
72.5695289349
 20
-75.1292826633
 10
72.3758105603
 20
-75.1616777458
 10
72.1712504171
 20
-75.1946554872
 10
71.9537443789
 20
-75.2277787447
 10
71.7172465268
 20
-75.2617453754
 10
71.4678027798
 20
-75.2958575223
 10
71.2214467679
 20
-75.3275844712
 10
70.9826724554
 20
-75.3559262811
 10
70.746985878
 20
-75.3818828931
 10
70.516938774
 20
-75.4059234167
 10
70.2932988551
 20
-75.4279288716
  0
LWPOLYLINE
  5
259
100
AcDbEntity
  8
0
100
AcDbPolyline
 62
7
  6
CONTINUOUS
 90
6
 70
0
 10
73.2323990324
 20
-75.5131515402
 10
73.0369459449
 20
-75.5498031561
 10
72.8417782664
 20
-75.5850654973
 10
72.6458450601
 20
-75.6191285362
 10
72.4491326595
 20
-75.6519832948
 10
72.35211348
 20
-75.6675288586
  0
LINE
  5
25A
100
AcDbEntity
  8
0
100
AcDbLine
 62
250
  6
CONTINUOUS
 10
73.3750407809
 20
-74.983390499
 11
73.2348521266
 21
-75.0094216951
  0
LINE
  5
25B
100
AcDbEntity
  8
0
100
AcDbLine
 62
7
  6
CONTINUOUS
 10
72.7992612444
 20
-75.5901817254
 11
73.3534397646
 21
-75.4902109471
  0
LINE
  5
25C
100
AcDbEntity
  8
0
100
AcDbLine
 62
250
  6
CONTINUOUS
 10
73.2348521266
 20
-75.0094216951
 11
73.0877375745
 21
-75.0360305113
  0
LWPOLYLINE
  5
25D
100
AcDbEntity
  8
0
100
AcDbPolyline
 62
250
  6
CONTINUOUS
 90
5
 70
0
 10
67.2689858504
 20
-76.5136258043
 10
67.716022605
 20
-76.436556006
 10
68.1321987721
 20
-76.3596411443
 10
68.5157778947
 20
-76.2835770224
 10
68.8657939648
 20
-76.2091638214
  0
LINE
  5
25E
100
AcDbEntity
  8
0
100
AcDbLine
 62
250
  6
CONTINUOUS
 10
70.8877968764
 20
-75.8678308536
 11
70.6213422692
 21
-75.9116534472
  0
LWPOLYLINE
  5
25F
100
AcDbEntity
  8
0
100
AcDbPolyline
 62
7
  6
CONTINUOUS
 90
5
 70
0
 10
72.3007880326
 20
-75.6787436218
 10
72.5796627495
 20
-75.6352116916
 10
72.8478612061
 20
-75.5908285251
 10
73.1127761116
 20
-75.5443835689
 10
73.3903716748
 20
-75.4927353004
  0
LINE
  5
260
100
AcDbEntity
  8
0
100
AcDbLine
 62
250
  6
CONTINUOUS
 10
70.6213422692
 20
-75.9116534472
 11
70.5129991516
 21
-75.9284142769
  0
LWPOLYLINE
  5
261
100
AcDbEntity
  8
0
100
AcDbPolyline
 62
250
  6
CONTINUOUS
 90
3
 70
0
 10
70.9303031915
 20
-75.8612030416
 10
70.9160680502
 20
-75.8633740655
 10
70.8877968764
 20
-75.8678308536
  0
LINE
  5
262
100
AcDbEntity
  8
0
100
AcDbLine
 62
250
  6
CONTINUOUS
 10
70.9449000134
 20
-75.8590647288
 11
70.9303031915
 21
-75.8612030416
  0
LWPOLYLINE
  5
263
100
AcDbEntity
  8
0
100
AcDbPolyline
 62
250
  6
CONTINUOUS
 90
5
 70
0
 10
70.5129991516
 20
-75.9284142769
 10
70.2654252201
 20
-75.9645078347
 10
70.1278145105
 20
-75.9839013938
 10
69.9788496697
 20
-76.0040740058
 10
69.8178185436
 20
-76.0249141378
  0
LINE
  5
264
100
AcDbEntity
  8
0
100
AcDbLine
 62
7
  6
CONTINUOUS
 10
72.0038074913
 20
-75.7223324159
 11
72.3007880326
 21
-75.6787436218
  0
LINE
  5
265
100
AcDbEntity
  8
0
100
AcDbLine
 62
250
  6
CONTINUOUS
 10
71.8694912821
 20
-75.7558912563
 11
71.4668267652
 21
-75.8115710321
  0
LINE
  5
266
100
AcDbEntity
  8
0
100
AcDbLine
 62
7
  6
CONTINUOUS
 10
71.8192833346
 20
-75.7482849175
 11
72.0157645999
 21
-75.7206745616
  0
LINE
  5
267
100
AcDbEntity
  8
0
100
AcDbLine
 62
7
  6
CONTINUOUS
 10
71.7923599391
 20
-75.7519987498
 11
71.8192833346
 21
-75.7482849175
  0
LINE
  5
268
100
AcDbEntity
  8
0
100
AcDbLine
 62
250
  6
CONTINUOUS
 10
71.4668267652
 20
-75.8115710321
 11
71.0460354995
 21
-75.8656573177
  0
LINE
  5
269
100
AcDbEntity
  8
0
100
AcDbLine
 62
250
  6
CONTINUOUS
 10
71.0256910946
 20
-75.8678167185
 11
71.0463007179
 21
-75.8652775586
  0
LINE
  5
26A
100
AcDbEntity
  8
0
100
AcDbLine
 62
250
  6
CONTINUOUS
 10
69.8178185436
 20
-76.0249141378
 11
69.4635429967
 21
-76.0687929636
  0
LWPOLYLINE
  5
26B
100
AcDbEntity
  8
0
100
AcDbPolyline
 62
7
  6
CONTINUOUS
 90
9
 70
0
 10
64.6246643742
 20
-77.1077558707
 10
65.2883869368
 20
-77.0327555415
 10
65.9275809008
 20
-76.953558402
 10
66.5390852397
 20
-76.8708646964
 10
67.1208319934
 20
-76.7853373493
 10
67.6711288183
 20
-76.6976658662
 10
68.1879499347
 20
-76.6086460289
 10
68.6696518912
 20
-76.5191180598
 10
69.1146842027
 20
-76.4299560355
  0
LINE
  5
26C
100
AcDbEntity
  8
0
100
AcDbLine
 62
7
  6
CONTINUOUS
 10
65.060012583
 20
-77.0570502902
 11
64.6940443833
 21
-77.0977735802
  0
LINE
  5
26D
100
AcDbEntity
  8
0
100
AcDbLine
 62
7
  6
CONTINUOUS
 10
64.6940443833
 20
-77.0977735802
 11
64.4318873913
 21
-77.1257013569
  0
LINE
  5
26E
100
AcDbEntity
  8
0
100
AcDbLine
 62
7
  6
CONTINUOUS
 10
63.9392375281
 20
-77.1779781863
 11
64.6246643742
 21
-77.1077558707
  0
LINE
  5
26F
100
AcDbEntity
  8
0
100
AcDbLine
 62
7
  6
CONTINUOUS
 10
63.2338201785
 20
-77.2430246359
 11
63.9392375281
 21
-77.1779781863
  0
LWPOLYLINE
  5
270
100
AcDbEntity
  8
0
100
AcDbPolyline
 62
7
  6
CONTINUOUS
 90
4
 70
0
 10
63.5866910645
 20
-77.2085694438
 10
63.1668590632
 20
-77.2458937004
 10
62.848902508
 20
-77.2725741603
 10
62.589762224
 20
-77.2933143761
  0
LINE
  5
271
100
AcDbEntity
  8
0
100
AcDbLine
 62
7
  6
CONTINUOUS
 10
62.5095286131
 20
-77.3026430459
 11
63.2338201785
 21
-77.2430246359
  0
LWPOLYLINE
  5
272
100
AcDbEntity
  8
0
100
AcDbPolyline
 62
250
  6
CONTINUOUS
 90
10
 70
0
 10
62.0907649206
 20
-77.1088063098
 10
62.7476683864
 20
-77.0576213825
 10
63.3885041363
 20
-77.0017333253
 10
64.0111914782
 20
-76.9415261087
 10
64.6141968181
 20
-76.8773480598
 10
65.1956948259
 20
-76.809555743
 10
65.7533425993
 20
-76.7387378998
 10
66.2859200468
 20
-76.6654264262
 10
66.7919396963
 20
-76.5901643145
 10
67.2689858504
 20
-76.5136258043
  0
LWPOLYLINE
  5
273
100
AcDbEntity
  8
0
100
AcDbPolyline
 62
7
  6
CONTINUOUS
 90
10
 70
0
 10
55.7208573634
 20
-77.5560518896
 10
56.2732098105
 20
-77.5544313994
 10
57.074091639
 20
-77.5463430392
 10
57.873877468
 20
-77.5314205451
 10
58.6706587542
 20
-77.509650036
 10
59.4615522409
 20
-77.4810896712
 10
60.243055203
 20
-77.4459066108
 10
61.0124514935
 20
-77.4043192182
 10
61.7683988644
 20
-77.3564982064
 10
62.5095286131
 20
-77.3026430459
  0
LWPOLYLINE
  5
274
100
AcDbEntity
  8
0
100
AcDbPolyline
 62
250
  6
CONTINUOUS
 90
10
 70
0
 10
55.7208573239
 20
-77.3290541069
 10
56.4514215779
 20
-77.326823196
 10
57.1802473549
 20
-77.3190994884
 10
57.9053154905
 20
-77.3058190645
 10
58.6249402679
 20
-77.2869364516
 10
59.3375410379
 20
-77.2624013654
 10
60.0420697184
 20
-77.2322123051
 10
60.7367734295
 20
-77.1963816348
 10
61.4199730232
 20
-77.1551248786
 10
62.0907649206
 20
-77.1088063098
  0
LWPOLYLINE
  5
275
100
AcDbEntity
  8
0
100
AcDbPolyline
 62
250
  6
CONTINUOUS
 90
10
 70
0
 10
55.7208573239
 20
-77.3290541068
 10
54.9902930699
 20
-77.326823196
 10
54.2614672929
 20
-77.3190994884
 10
53.5363991573
 20
-77.3058190645
 10
52.8167743799
 20
-77.2869364516
 10
52.1041736099
 20
-77.2624013654
 10
51.3996449294
 20
-77.2322123051
 10
50.7049412183
 20
-77.1963816348
 10
50.0217416246
 20
-77.1551248786
 10
49.3509497272
 20
-77.1088063098
  0
LWPOLYLINE
  5
276
100
AcDbEntity
  8
SUPERFICI
100
AcDbPolyline
 62
7
  6
CONTINUOUS
 90
10
 70
0
 10
48.9321860348
 20
-77.3026430459
 10
49.6733157836
 20
-77.3564982064
 10
50.4292631544
 20
-77.4043192182
 10
51.1986594449
 20
-77.4459066108
 10
51.980162407
 20
-77.4810896712
 10
52.7710558938
 20
-77.509650036
 10
53.5678371799
 20
-77.5314205451
 10
54.367623009
 20
-77.5463430392
 10
55.1685048375
 20
-77.5544313994
 10
55.7208572845
 20
-77.5560518896
  0
LWPOLYLINE
  5
277
100
AcDbEntity
  8
0
100
AcDbPolyline
 62
250
  6
CONTINUOUS
 90
10
 70
0
 10
49.3509497272
 20
-77.1088063098
 10
48.6940462614
 20
-77.0576213825
 10
48.0532105115
 20
-77.0017333253
 10
47.4305231696
 20
-76.9415261087
 10
46.8275178297
 20
-76.8773480598
 10
46.2460198219
 20
-76.809555743
 10
45.6883720485
 20
-76.7387378998
 10
45.155794601
 20
-76.6654264262
 10
44.6497749515
 20
-76.5901643145
 10
44.1727287974
 20
-76.5136258043
  0
LINE
  5
278
100
AcDbEntity
  8
SUPERFICI
100
AcDbLine
 62
7
  6
CONTINUOUS
 10
48.2078944694
 20
-77.2430246359
 11
48.9321860348
 21
-77.3026430459
  0
LWPOLYLINE
  5
279
100
AcDbEntity
  8
SUPERFICI
100
AcDbPolyline
 62
7
  6
CONTINUOUS
 90
3
 70
0
 10
48.2748555846
 20
-77.2458937004
 10
48.5928121398
 20
-77.2725741603
 10
48.8519524238
 20
-77.2933143761
  0
LINE
  5
27A
100
AcDbEntity
  8
SUPERFICI
100
AcDbLine
 62
7
  6
CONTINUOUS
 10
47.8550235833
 20
-77.2085694438
 11
48.2748555846
 21
-77.2458937004
  0
LINE
  5
27B
100
AcDbEntity
  8
SUPERFICI
100
AcDbLine
 62
7
  6
CONTINUOUS
 10
47.5024771198
 20
-77.1779781864
 11
48.2078944694
 21
-77.2430246359
  0
LINE
  5
27C
100
AcDbEntity
  8
SUPERFICI
100
AcDbLine
 62
7
  6
CONTINUOUS
 10
46.8170502737
 20
-77.1077558707
 11
47.5024771198
 21
-77.1779781864
  0
LWPOLYLINE
  5
27D
100
AcDbEntity
  8
SUPERFICI
100
AcDbPolyline
 62
7
  6
CONTINUOUS
 90
4
 70
0
 10
41.0658467946
 20
-75.9160804701
 10
41.3797955587
 20
-75.9482731382
 10
42.2732946235
 20
-76.0235977018
 10
42.6754637899
 20
-76.0531476044
  0
LINE
  5
27E
100
AcDbEntity
  8
SUPERFICI
100
AcDbLine
 62
7
  6
CONTINUOUS
 10
46.7476702644
 20
-77.0977735802
 11
47.0098272565
 21
-77.1257013569
  0
LINE
  5
27F
100
AcDbEntity
  8
SUPERFICI
100
AcDbLine
 62
7
  6
CONTINUOUS
 10
46.3817020648
 20
-77.0570502902
 11
46.7476702644
 21
-77.0977735802
  0
LINE
  5
280
100
AcDbEntity
  8
SUPERFICI
100
AcDbLine
 62
7
  6
CONTINUOUS
 10
46.1533277111
 20
-77.0327555415
 11
46.8170502737
 21
-77.1077558707
  0
LINE
  5
281
100
AcDbEntity
  8
SUPERFICI
100
AcDbLine
 62
250
  6
CONTINUOUS
 10
40.4160235532
 20
-75.8678167185
 11
40.3954139299
 21
-75.8652775586
  0
LINE
  5
282
100
AcDbEntity
  8
SUPERFICI
100
AcDbLine
 62
250
  6
CONTINUOUS
 10
39.9748878826
 20
-75.8115710321
 11
40.3956791483
 21
-75.8656573177
  0
LWPOLYLINE
  5
283
100
AcDbEntity
  8
SUPERFICI
100
AcDbPolyline
 62
250
  6
CONTINUOUS
 90
4
 70
0
 10
41.3139001373
 20
-75.9839013938
 10
41.4628649781
 20
-76.0040740058
 10
41.6238961042
 20
-76.0249141378
 10
41.9781716511
 20
-76.0687929636
  0
LINE
  5
284
100
AcDbEntity
  8
SUPERFICI
100
AcDbLine
 62
250
  6
CONTINUOUS
 10
39.5722233657
 20
-75.7558912563
 11
39.9748878826
 21
-75.8115710321
  0
LINE
  5
285
100
AcDbEntity
  8
SUPERFICI
100
AcDbLine
 62
7
  6
CONTINUOUS
 10
39.4259500479
 20
-75.7206745616
 11
39.6496891075
 21
-75.7520447851
  0
LINE
  5
286
100
AcDbEntity
  8
SUPERFICI
100
AcDbLine
 62
250
  6
CONTINUOUS
 10
41.0478972595
 20
-75.9460217264
 11
41.3139001373
 21
-75.9839013938
  0
LINE
  5
287
100
AcDbEntity
  8
SUPERFICI
100
AcDbLine
 62
7
  6
CONTINUOUS
 10
39.377102577
 20
-75.7135737818
 11
39.4791046378
 21
-75.7282079451
  0
LINE
  5
288
100
AcDbEntity
  8
SUPERFICI
100
AcDbLine
 62
250
  6
CONTINUOUS
 10
40.4968146344
 20
-75.8590647288
 11
40.5114114563
 21
-75.8612030416
  0
LWPOLYLINE
  5
289
100
AcDbEntity
  8
SUPERFICI
100
AcDbPolyline
 62
250
  6
CONTINUOUS
 90
3
 70
0
 10
40.8203723786
 20
-75.9116534472
 10
40.9287154962
 20
-75.9284142769
 10
41.0478972595
 20
-75.9460217264
  0
LWPOLYLINE
  5
28A
100
AcDbEntity
  8
SUPERFICI
100
AcDbPolyline
 62
250
  6
CONTINUOUS
 90
3
 70
0
 10
40.5114114563
 20
-75.8612030416
 10
40.5397793536
 20
-75.8655778104
 10
40.5539177714
 20
-75.8678308536
  0
LINE
  5
28B
100
AcDbEntity
  8
SUPERFICI
100
AcDbLine
 62
250
  6
CONTINUOUS
 10
40.5539177714
 20
-75.8678308536
 11
40.8203723786
 21
-75.9116534472
  0
LWPOLYLINE
  5
28C
100
AcDbEntity
  8
0
100
AcDbPolyline
 62
250
  6
CONTINUOUS
 90
5
 70
0
 10
44.1727287974
 20
-76.5136258043
 10
43.7256920428
 20
-76.436556006
 10
43.3095158757
 20
-76.3596411443
 10
42.9259367531
 20
-76.2835770224
 10
42.575920683
 20
-76.2091638214
  0
LINE
  5
28D
100
AcDbEntity
  8
SUPERFICI
100
AcDbLine
 62
7
  6
CONTINUOUS
 10
38.0882748832
 20
-75.4902109471
 11
38.6424534034
 21
-75.5901817254
  0
LINE
  5
28E
100
AcDbEntity
  8
0
100
AcDbLine
 62
250
  6
CONTINUOUS
 10
38.3539770733
 20
-75.0360305113
 11
38.2342160103
 21
-75.0145052363
  0
LINE
  5
28F
100
AcDbEntity
  8
0
100
AcDbLine
 62
250
  6
CONTINUOUS
 10
38.2342160103
 20
-75.0145052363
 11
38.1194351227
 21
-74.9933263805
  0
LWPOLYLINE
  5
290
100
AcDbEntity
  8
SUPERFICI
100
AcDbPolyline
 62
7
  6
CONTINUOUS
 90
6
 70
0
 10
38.051342973
 20
-75.4927353004
 10
38.3289385362
 20
-75.5443835689
 10
38.5938534417
 20
-75.5908285251
 10
38.8620518983
 20
-75.6352116916
 10
39.1409266152
 20
-75.6787436218
 10
39.4259500479
 20
-75.7206745616
  0
LWPOLYLINE
  5
291
100
AcDbEntity
  8
SUPERFICI
100
AcDbPolyline
 62
7
  6
CONTINUOUS
 90
6
 70
0
 10
38.2093156154
 20
-75.5131515402
 10
38.4047687029
 20
-75.5498031561
 10
38.5999363814
 20
-75.5850654973
 10
38.7958695877
 20
-75.6191285362
 10
38.9925819883
 20
-75.6519832948
 10
39.0896011678
 20
-75.6675288586
  0
LWPOLYLINE
  5
292
100
AcDbEntity
  8
0
100
AcDbPolyline
 62
250
  6
CONTINUOUS
 90
16
 70
0
 10
38.3539770733
 20
-75.0360305113
 10
38.5239494626
 20
-75.0680247523
 10
38.7047042974
 20
-75.1004748778
 10
38.8962415776
 20
-75.1333808876
 10
39.0975615494
 20
-75.1668615249
 10
39.3096639666
 20
-75.2007980467
 10
39.5355480906
 20
-75.234834224
 10
39.7821911074
 20
-75.2697678147
 10
40.042615831
 20
-75.3048010611
 10
40.2988899643
 20
-75.3371844602
 10
40.5458058253
 20
-75.365750384
 10
40.7885710959
 20
-75.3916664607
 10
41.024876526
 20
-75.4156860717
 10
41.2537560213
 20
-75.4377942524
 10
41.476175676
 20
-75.4580059674
 10
41.9028224758
 20
-75.4952983746
  0
LINE
  5
293
100
AcDbEntity
  8
0
100
AcDbLine
 62
250
  6
CONTINUOUS
 10
38.1194351227
 20
-74.9933263805
 11
37.9044711383
 21
-74.9523536727
  0
LINE
  5
294
100
AcDbEntity
  8
SUPERFICI
100
AcDbLine
 62
7
  6
CONTINUOUS
 10
38.0148539941
 20
-75.4753519942
 11
38.2093156154
 21
-75.5131515402
  0
LWPOLYLINE
  5
295
100
AcDbEntity
  8
0
100
AcDbPolyline
 62
250
  6
CONTINUOUS
 90
6
 70
0
 10
37.9044711383
 20
-74.9523536727
 10
37.7552150298
 20
-74.923386428
 10
37.7075983227
 20
-74.9135465194
 10
37.6609873758
 20
-74.9031716502
 10
37.6154070429
 20
-74.8924280892
 10
37.5708573239
 20
-74.8813158366
  0
LWPOLYLINE
  5
296
100
AcDbEntity
  8
SUPERFICI
100
AcDbPolyline
 62
250
  6
CONTINUOUS
 90
5
 70
0
 10
38.1790050887
 20
-75.5184863414
 10
38.4183132182
 20
-75.5654233692
 10
38.7978949424
 20
-75.6340991297
 10
39.182346486
 20
-75.6973137706
 10
39.5722233657
 20
-75.7558912563
  0
LINE
  5
297
100
AcDbEntity
  8
SUPERFICI
100
AcDbLine
 62
7
  6
CONTINUOUS
 10
37.7334613444
 20
-75.4295430873
 11
38.0906239461
 21
-75.500666043
  0
LWPOLYLINE
  5
298
100
AcDbEntity
  8
SUPERFICI
100
AcDbPolyline
 62
7
  6
CONTINUOUS
 90
8
 70
0
 10
42.3270304451
 20
-76.4299560355
 10
42.7720627566
 20
-76.5191180598
 10
43.2537647131
 20
-76.6086460289
 10
43.7705858296
 20
-76.6976658662
 10
44.3208826545
 20
-76.7853373493
 10
44.9026294081
 20
-76.8708646964
 10
45.5141337471
 20
-76.953558402
 10
46.1533277111
 20
-77.0327555415
  0
LWPOLYLINE
  5
299
100
AcDbEntity
  8
SUPERFICI
100
AcDbPolyline
 62
7
  6
CONTINUOUS
 90
5
 70
0
 10
38.0906239461
 20
-75.500666043
 10
38.6305993399
 20
-75.6104423331
 10
38.8999021149
 20
-75.6666146533
 10
39.1680750194
 20
-75.7238942487
 10
39.4371911204
 20
-75.7826834763
  0
LINE
  5
29A
100
AcDbEntity
  8
SUPERFICI
100
AcDbLine
 62
7
  6
CONTINUOUS
 10
37.3392584178
 20
-75.3339200986
 11
38.0882748832
 21
-75.4902109471
  0
LINE
  5
29B
100
AcDbEntity
  8
ASSI
100
AcDbLine
 62
7
  6
CONTINUOUS
 10
37.6413892523
 20
-73.799387976
 11
37.6708573239
 21
-73.8055816569
  0
LWPOLYLINE
  5
29C
100
AcDbEntity
  8
SUPERFICI
100
AcDbPolyline
 62
7
  6
CONTINUOUS
 90
4
 70
0
 10
37.434066711
 20
-75.3544886852
 10
37.627329407
 20
-75.3960392848
 10
37.8210888832
 20
-75.4363597532
 10
38.0148539941
 20
-75.4753519942
  0
LINE
  5
29D
100
AcDbEntity
  8
SUPERFICI
100
AcDbLine
 62
7
  6
CONTINUOUS
 10
41.9335615121
 20
-76.3449751525
 11
42.25582005
 21
-76.4150467039
  0
LINE
  5
29E
100
AcDbEntity
  8
SUPERFICI
100
AcDbLine
 62
7
  6
CONTINUOUS
 10
36.8738351965
 20
-75.2345023003
 11
36.8753682306
 21
-75.2348424101
  0
LINE
  5
29F
100
AcDbEntity
  8
SUPERFICI
100
AcDbLine
 62
7
  6
CONTINUOUS
 10
37.3623344952
 20
-75.3385709664
 11
37.434066711
 21
-75.3544886852
  0
LINE
  5
2A0
100
AcDbEntity
  8
SUPERFICI
100
AcDbLine
 62
7
  6
CONTINUOUS
 10
39.4371911204
 20
-75.7826834763
 11
39.7182701605
 21
-75.8452923793
  0
LWPOLYLINE
  5
2A1
100
AcDbEntity
  8
SUPERFICI
100
AcDbPolyline
 62
7
  6
CONTINUOUS
 90
4
 70
0
 10
41.0499640343
 20
-76.1492757317
 10
41.5056173663
 20
-76.2520327298
 10
41.9537641984
 20
-76.3505544058
 10
42.3270304451
 20
-76.4299560355
  0
LINE
  5
2A2
100
AcDbEntity
  8
SUPERFICI
100
AcDbLine
 62
7
  6
CONTINUOUS
 10
39.7182701605
 20
-75.8452923793
 11
40.0073420448
 21
-75.9106639641
  0
LINE
  5
2A3
100
AcDbEntity
  8
0
100
AcDbLine
 62
250
  6
CONTINUOUS
 10
42.575920683
 20
-76.2091638214
 11
42.2597387917
 21
-76.1372485138
  0
LWPOLYLINE
  5
2A4
100
AcDbEntity
  8
SUPERFICI
100
AcDbPolyline
 62
7
  6
CONTINUOUS
 90
3
 70
0
 10
37.1101545954
 20
-75.2917299042
 10
37.3993750179
 20
-75.3580904372
 10
37.7334613444
 20
-75.4295430873
  0
LINE
  5
2A5
100
AcDbEntity
  8
SUPERFICI
100
AcDbLine
 62
7
  6
CONTINUOUS
 10
40.0073420448
 20
-75.9106639641
 11
41.0499640343
 21
-76.1492757317
  0
LINE
  5
2A6
100
AcDbEntity
  8
SUPERFICI
100
AcDbLine
 62
7
  6
CONTINUOUS
 10
36.8557521687
 20
-75.2223424291
 11
37.3392584178
 21
-75.3339200986
  0
LINE
  5
2A7
100
AcDbEntity
  8
0
100
AcDbLine
 62
250
  6
CONTINUOUS
 10
36.9686607432
 20
-74.7394192964
 11
37.2820236617
 21
-74.8126257837
  0
LWPOLYLINE
  5
2A8
100
AcDbEntity
  8
SUPERFICI
100
AcDbPolyline
 62
7
  6
CONTINUOUS
 90
4
 70
0
 10
36.893155536
 20
-75.2309739216
 10
37.0484286977
 20
-75.2675878708
 10
37.2411192478
 20
-75.3116727283
 10
37.2862492221
 20
-75.3216872835
  0
LINE
  5
2A9
100
AcDbEntity
  8
0
100
AcDbLine
 62
250
  6
CONTINUOUS
 10
37.2820236617
 20
-74.8126257837
 11
37.5708573239
 21
-74.8813158366
  0
LINE
  5
2AA
100
AcDbEntity
  8
SUPERFICI
100
AcDbLine
 62
7
  6
CONTINUOUS
 10
36.871811857
 20
-75.234016305
 11
36.8738351965
 21
-75.2345023003
  0
LINE
  5
2AB
100
AcDbEntity
  8
SUPERFICI
100
AcDbLine
 62
7
  6
CONTINUOUS
 10
36.8753682306
 20
-75.2348424101
 11
37.1101545954
 21
-75.2917299042
  0
LINE
  5
2AC
100
AcDbEntity
  8
0
100
AcDbLine
 62
250
  6
CONTINUOUS
 10
42.2597387917
 20
-76.1372485138
 11
41.9778977523
 21
-76.0686731314
  0
LINE
  5
2AD
100
AcDbEntity
  8
SUPERFICI
100
AcDbLine
 62
7
  6
CONTINUOUS
 10
36.8711014263
 20
-75.2338374751
 11
36.871811857
 21
-75.234016305
  0
LINE
  5
2AE
100
AcDbEntity
  8
SUPERFICI
100
AcDbLine
 62
7
  6
CONTINUOUS
 10
36.8482518713
 20
-75.2279738487
 11
36.8711261222
 21
-75.233852308
  0
LINE
  5
2AF
100
AcDbEntity
  8
SUPERFICI
100
AcDbLine
 62
7
  6
CONTINUOUS
 10
36.8672252672
 20
-75.2327044005
 11
36.7877441809
 21
-75.2103584006
  0
LINE
  5
2B0
100
AcDbEntity
  8
SUPERFICI
100
AcDbLine
 62
250
  6
CONTINUOUS
 10
36.8557940003
 20
-75.2221675143
 11
36.755674245
 21
-75.1939336481
  0
LWPOLYLINE
  5
2B1
100
AcDbEntity
  8
SUPERFICI
100
AcDbPolyline
 62
250
  6
CONTINUOUS
 90
13
 70
0
 10
36.9686607432
 20
-74.7394192964
 10
36.892765022
 20
-74.716962575
 10
36.820366461
 20
-74.6875078649
 10
36.7514650602
 20
-74.6510551661
 10
36.685254804
 20
-74.6070495341
 10
36.6225417081
 20
-74.5560459135
 10
36.5657438188
 20
-74.4997091376
 10
36.5152095412
 20
-74.4377529814
 10
36.4705904703
 20
-74.37046367
 10
36.4332594379
 20
-74.300364712
 10
36.4036740547
 20
-74.228297277
 10
36.3813767101
 20
-74.1534201954
 10
36.366367404
 20
-74.0757334672
  0
LWPOLYLINE
  5
2B2
100
AcDbEntity
  8
SUPERFICI
100
AcDbPolyline
 62
7
  6
CONTINUOUS
 90
4
 70
0
 10
36.7757929973
 20
-75.2065565739
 10
36.7891161813
 20
-75.2108247672
 10
36.8201920076
 20
-75.220191877
 10
36.8482518713
 20
-75.2279738487
  0
LWPOLYLINE
  5
2B3
100
AcDbEntity
  8
SUPERFICI
100
AcDbPolyline
 62
7
  6
CONTINUOUS
 90
3
 70
0
 10
36.8672166166
 20
-75.2327014254
 10
36.8688329871
 20
-75.2332246139
 10
36.8711014263
 20
-75.2338374751
  0
LWPOLYLINE
  5
2B4
100
AcDbEntity
  8
SUPERFICI
100
AcDbPolyline
 62
250
  6
CONTINUOUS
 90
12
 70
0
 10
36.7556118665
 20
-75.1939160573
 10
36.6580235031
 20
-75.1577452891
 10
36.5636533099
 20
-75.1138900276
 10
36.4731063548
 20
-75.0626352282
 10
36.3869593021
 20
-75.0043112293
 10
36.3057576175
 20
-74.9392902787
 10
36.2300185262
 20
-74.8679884192
 10
36.1602277002
 20
-74.7908648842
 10
36.0968313379
 20
-74.7084155518
 10
36.0402356252
 20
-74.6211727958
 10
35.9907985365
 20
-74.529693041
 10
35.9488307386
 20
-74.434552761
  0
LWPOLYLINE
  5
2B5
100
AcDbEntity
  8
SUPERFICI
100
AcDbPolyline
 62
250
  6
CONTINUOUS
 90
8
 70
0
 10
40.5730018184
 20
-75.9639116417
 10
40.6884578998
 20
-76.0078576292
 10
40.8301736466
 20
-76.0558868854
 10
40.9997033224
 20
-76.1080687625
 10
41.1978846359
 20
-76.1641543001
 10
41.423661875
 20
-76.2234858259
 10
41.6771611117
 20
-76.2857497653
 10
41.9335615121
 20
-76.3449751525
  0
LINE
  5
2B6
100
AcDbEntity
  8
SUPERFICI
100
AcDbLine
 62
250
  6
CONTINUOUS
 10
40.4845515842
 20
-75.9247112117
 11
40.5730018184
 21
-75.9639116417
  0
LWPOLYLINE
  5
2B7
100
AcDbEntity
  8
0
100
AcDbPolyline
 62
250
  6
CONTINUOUS
 90
3
 70
0
 10
36.8557940267
 20
-56.8498935081
 10
36.856542374
 20
-56.8525507922
 10
36.8585765223
 20
-56.8604774321
  0
LINE
  5
2B8
100
AcDbEntity
  8
0
100
AcDbLine
 62
250
  6
CONTINUOUS
 10
36.8585765223
 20
-56.8604774321
 11
36.866301587
 21
-56.8916834238
  0
LINE
  5
2B9
100
AcDbEntity
  8
0
100
AcDbLine
 62
250
  6
CONTINUOUS
 10
36.866301587
 20
-56.8916834238
 11
36.9721356518
 21
-57.3318065099
  0
LINE
  5
2BA
100
AcDbEntity
  8
DRAFT
100
AcDbLine
 62
250
  6
CONTINUOUS
 10
42.6708573239
 20
-68.7860305113
 11
42.6708573239
 21
-68.7476549287
  0
LINE
  5
2BB
100
AcDbEntity
  8
RACCORDO
100
AcDbLine
 62
250
  6
CONTINUOUS
 10
42.7208573239
 20
-62.6157498201
 11
42.7208573239
 21
-62.5360305113
  0
LINE
  5
2BC
100
AcDbEntity
  8
0
100
AcDbLine
 62
250
  6
CONTINUOUS
 10
42.7208573239
 20
-68.1833765499
 11
42.7208573239
 21
-68.4465006189
  0
LINE
  5
2BD
100
AcDbEntity
  8
RACCORDO
100
AcDbLine
 62
250
  6
CONTINUOUS
 10
42.7208573239
 20
-69.4563112025
 11
42.7208573239
 21
-69.756265511
  0
LINE
  5
2BE
100
AcDbEntity
  8
SUPERFICI
100
AcDbLine
 62
250
  6
CONTINUOUS
 10
36.866301587
 20
-75.1803775988
 11
36.9721356518
 21
-74.7402545126
  0
LWPOLYLINE
  5
2BF
100
AcDbEntity
  8
SUPERFICI
100
AcDbPolyline
 62
250
  6
CONTINUOUS
 90
4
 70
0
 10
36.8557940267
 20
-75.2221675145
 10
36.856542374
 20
-75.2195102304
 10
36.8585765223
 20
-75.2115835905
 10
36.866301587
 20
-75.1803775988
  0
LINE
  5
2C0
100
AcDbEntity
  8
0
100
AcDbLine
 62
250
  6
CONTINUOUS
 10
40.3954139286
 20
-56.2067834641
 11
40.3956791483
 21
-56.2064037049
  0
LINE
  5
2C1
100
AcDbEntity
  8
0
100
AcDbLine
 62
250
  6
CONTINUOUS
 10
40.3956791483
 20
-56.2064037049
 11
40.4250377748
 21
-56.1805240811
  0
LWPOLYLINE
  5
2C2
100
AcDbEntity
  8
0
100
AcDbPolyline
 62
250
  6
CONTINUOUS
 90
9
 70
0
 10
40.3806394984
 20
-56.2279656863
 10
40.3827978895
 20
-56.22656815
 10
40.3847706732
 20
-56.2249022186
 10
40.3865585425
 20
-56.2229847047
 10
40.3880945882
 20
-56.2208406009
 10
40.389447858
 20
-56.2184769847
 10
40.3908236209
 20
-56.2158807875
 10
40.3922917939
 20
-56.2130546486
 10
40.3937874378
 20
-56.2100185224
  0
LWPOLYLINE
  5
2C3
100
AcDbEntity
  8
0
100
AcDbPolyline
 62
250
  6
CONTINUOUS
 90
9
 70
0
 10
36.8547751212
 20
-56.8501373357
 10
36.8578194561
 20
-56.8481670352
 10
36.8596257501
 20
-56.8465842974
 10
36.8605572591
 20
-56.8453025264
 10
36.860973307
 20
-56.8442360592
 10
36.861229304
 20
-56.8433001616
 10
36.8616767643
 20
-56.8424110238
 10
36.8626633227
 20
-56.8414857561
 10
36.8645311785
 20
-56.8404430052
  0
LWPOLYLINE
  5
2C4
100
AcDbEntity
  8
0
100
AcDbPolyline
 62
7
  6
CONTINUOUS
 90
8
 70
0
 10
36.5569478094
 20
-56.9585757489
 10
36.505190221
 20
-56.9875356442
 10
36.4436785631
 20
-57.026007553
 10
36.3770938358
 20
-57.0731946802
 10
36.3090963589
 20
-57.1282187748
 10
36.240494997
 20
-57.1920570405
 10
36.1727913045
 20
-57.2652236996
 10
36.1098470388
 20
-57.3448940399
  0
LINE
  5
2C5
100
AcDbEntity
  8
0
100
AcDbLine
 62
250
  6
CONTINUOUS
 10
40.4250377748
 20
-56.1805240811
 11
40.4845515842
 21
-56.1473498109
  0
LWPOLYLINE
  5
2C6
100
AcDbEntity
  8
0
100
AcDbPolyline
 62
7
  6
CONTINUOUS
 90
3
 70
0
 10
36.647785652
 20
-56.9145083671
 10
36.6017876409
 20
-56.9357950803
 10
36.5569478094
 20
-56.9585757489
  0
LINE
  5
2C7
100
AcDbEntity
  8
ASSI
100
AcDbLine
 62
7
  6
CONTINUOUS
 10
72.6848078043
 20
-74.0118333862
 11
72.7944130112
 21
-73.9933103934
  0
LWPOLYLINE
  5
2C8
100
AcDbEntity
  8
SUPERFICI
100
AcDbPolyline
 62
250
  6
CONTINUOUS
 90
4
 70
0
 10
40.7799376616
 20
-75.8883805571
 10
40.7766053191
 20
-75.888680808
 10
40.7500582493
 20
-75.8918598
 10
40.723596888
 20
-75.8958172757
  0
LWPOLYLINE
  5
2C9
100
AcDbEntity
  8
0
100
AcDbPolyline
 62
250
  6
CONTINUOUS
 90
3
 70
0
 10
70.2932988551
 20
-75.4279288716
 10
69.8631860397
 20
-75.4670175668
 10
69.6573862864
 20
-75.4851293008
  0
LINE
  5
2CA
100
AcDbEntity
  8
0
100
AcDbLine
 62
250
  6
CONTINUOUS
 10
69.6573862864
 20
-75.4851293008
 11
69.2624259878
 21
-75.5183013787
  0
LINE
  5
2CB
100
AcDbEntity
  8
0
100
AcDbLine
 62
250
  6
CONTINUOUS
 10
69.2624259878
 20
-75.5183013787
 11
68.8967416585
 21
-75.5473578045
  0
LINE
  5
2CC
100
AcDbEntity
  8
0
100
AcDbLine
 62
7
  6
CONTINUOUS
 10
68.2475672031
 20
-76.0912585605
 11
68.3042137836
 21
-76.0870963794
  0
LWPOLYLINE
  5
2CD
100
AcDbEntity
  8
0
100
AcDbPolyline
 62
7
  6
CONTINUOUS
 90
4
 70
0
 10
68.7662508579
 20
-76.0531476044
 10
69.1684200243
 20
-76.0235977018
 10
70.0619190891
 20
-75.9482731382
 10
70.3758678532
 20
-75.9160804701
  0
LWPOLYLINE
  5
2CE
100
AcDbEntity
  8
0
100
AcDbPolyline
 62
250
  6
CONTINUOUS
 90
5
 70
0
 10
68.8967416585
 20
-75.5473578045
 10
68.4984392898
 20
-75.5768678707
 10
68.2805475574
 20
-75.5922853816
 10
68.0503627072
 20
-75.607822294
 10
67.7996587293
 20
-75.623816233
  0
LWPOLYLINE
  5
2CF
100
AcDbEntity
  8
0
100
AcDbPolyline
 62
7
  6
CONTINUOUS
 90
10
 70
0
 10
67.5211984453
 20
-76.1375704599
 10
68.3730668073
 20
-76.0826580333
 10
69.2052283302
 20
-76.0202001502
 10
70.0176047785
 20
-75.9507902953
 10
70.8066230723
 20
-75.8743473433
 10
71.5764471511
 20
-75.7816708143
 10
72.338577687
 20
-75.6698702653
 10
73.096720425
 20
-75.5387275603
 10
73.8458681429
 20
-75.3893564957
 10
74.5859206211
 20
-75.2221675145
  0
LINE
  5
2D0
100
AcDbEntity
  8
0
100
AcDbLine
 62
250
  6
CONTINUOUS
 10
67.7996587293
 20
-75.623816233
 11
67.284653909
 21
-75.6549758461
  0
LINE
  5
2D1
100
AcDbEntity
  8
0
100
AcDbLine
 62
250
  6
CONTINUOUS
 10
67.284653909
 20
-75.6549758461
 11
66.8232994491
 21
-75.6812088268
  0
LINE
  5
2D2
100
AcDbEntity
  8
0
100
AcDbLine
 62
250
  6
CONTINUOUS
 10
66.8232994491
 20
-75.6812088268
 11
66.2813672157
 21
-75.7106605722
  0
LINE
  5
2D3
100
AcDbEntity
  8
0
100
AcDbLine
 62
250
  6
CONTINUOUS
 10
66.2813672157
 20
-75.7106605722
 11
65.8359525566
 21
-75.7337789941
  0
LINE
  5
2D4
100
AcDbEntity
  8
0
100
AcDbLine
 62
250
  6
CONTINUOUS
 10
65.8359525566
 20
-75.7337789941
 11
65.3848425124
 21
-75.756173549
  0
LINE
  5
2D5
100
AcDbEntity
  8
0
100
AcDbLine
 62
250
  6
CONTINUOUS
 10
65.3848425124
 20
-75.756173549
 11
64.9333853853
 21
-75.7775831595
  0
LINE
  5
2D6
100
AcDbEntity
  8
0
100
AcDbLine
 62
7
  6
CONTINUOUS
 10
64.6789770387
 20
-76.3153332758
 11
64.7794983239
 21
-76.3108016335
  0
LINE
  5
2D7
100
AcDbEntity
  8
0
100
AcDbLine
 62
250
  6
CONTINUOUS
 10
64.9333853853
 20
-75.7775831595
 11
64.4794929698
 21
-75.7980696791
  0
LWPOLYLINE
  5
2D8
100
AcDbEntity
  8
SUPERFICI
100
AcDbPolyline
 62
250
  6
CONTINUOUS
 90
9
 70
0
 10
40.5828023958
 20
-75.8726031767
 10
40.5618922959
 20
-75.8735257583
 10
40.5409785201
 20
-75.8740125113
 10
40.5200702119
 20
-75.8740638868
 10
40.4991700826
 20
-75.8736801529
 10
40.4782936061
 20
-75.8728616807
 10
40.4574689753
 20
-75.8716102758
 10
40.4367114805
 20
-75.869928176
 10
40.4160235532
 20
-75.8678167185
  0
LINE
  5
2D9
100
AcDbEntity
  8
0
100
AcDbLine
 62
250
  6
CONTINUOUS
 10
64.4794929698
 20
-75.7980696791
 11
63.9806882182
 21
-75.8193712162
  0
LINE
  5
2DA
100
AcDbEntity
  8
0
100
AcDbLine
 62
7
  6
CONTINUOUS
 10
63.6896430772
 20
-76.3572275345
 11
64.6721059609
 21
-76.3156433277
  0
LINE
  5
2DB
100
AcDbEntity
  8
0
100
AcDbLine
 62
250
  6
CONTINUOUS
 10
63.9806882182
 20
-75.8193712162
 11
63.4255929417
 21
-75.8416134607
  0
LINE
  5
2DC
100
AcDbEntity
  8
0
100
AcDbLine
 62
7
  6
CONTINUOUS
 10
63.3686893239
 20
-76.3697663702
 11
63.6896430772
 21
-76.3572275345
  0
LINE
  5
2DD
100
AcDbEntity
  8
0
100
AcDbLine
 62
250
  6
CONTINUOUS
 10
63.4255929417
 20
-75.8416134607
 11
63.0214845642
 21
-75.8568111109
  0
LINE
  5
2DE
100
AcDbEntity
  8
0
100
AcDbLine
 62
250
  6
CONTINUOUS
 10
63.0214845642
 20
-75.8568111109
 11
62.5873619824
 21
-75.8722439793
  0
LINE
  5
2DF
100
AcDbEntity
  8
0
100
AcDbLine
 62
250
  6
CONTINUOUS
 10
62.5873619824
 20
-75.8722439793
 11
62.1208542454
 21
-75.8877734607
  0
LINE
  5
2E0
100
AcDbEntity
  8
0
100
AcDbLine
 62
250
  6
CONTINUOUS
 10
62.1208542454
 20
-75.8877734607
 11
61.6246621444
 21
-75.9030588218
  0
LINE
  5
2E1
100
AcDbEntity
  8
0
100
AcDbLine
 62
250
  6
CONTINUOUS
 10
61.6246621444
 20
-75.9030588218
 11
61.1027100225
 21
-75.9178411199
  0
LINE
  5
2E2
100
AcDbEntity
  8
0
100
AcDbLine
 62
250
  6
CONTINUOUS
 10
61.1027100225
 20
-75.9178411199
 11
60.5571802846
 21
-75.9317668208
  0
LINE
  5
2E3
100
AcDbEntity
  8
0
100
AcDbLine
 62
250
  6
CONTINUOUS
 10
60.5571802846
 20
-75.9317668208
 11
60.0492543057
 21
-75.9435170897
  0
LINE
  5
2E4
100
AcDbEntity
  8
0
100
AcDbLine
 62
7
  6
CONTINUOUS
 10
60.0534815199
 20
-76.4691035272
 11
60.8115183239
 21
-76.4512442088
  0
LINE
  5
2E5
100
AcDbEntity
  8
0
100
AcDbLine
 62
250
  6
CONTINUOUS
 10
60.0492543057
 20
-75.9435170897
 11
59.5817801056
 21
-75.9530705555
  0
LINE
  5
2E6
100
AcDbEntity
  8
0
100
AcDbLine
 62
7
  6
CONTINUOUS
 10
59.4469173239
 20
-76.4813230068
 11
60.0534815199
 21
-76.4691035272
  0
LINE
  5
2E7
100
AcDbEntity
  8
0
100
AcDbLine
 62
250
  6
CONTINUOUS
 10
59.5817801056
 20
-75.9530705555
 11
59.0984023243
 21
-75.9618203322
  0
LINE
  5
2E8
100
AcDbEntity
  8
SUPERFICI
100
AcDbLine
 62
250
  6
CONTINUOUS
 10
41.9778977523
 20
-76.0686731314
 11
42.2833761557
 21
-76.0634006631
  0
LINE
  5
2E9
100
AcDbEntity
  8
0
100
AcDbLine
 62
250
  6
CONTINUOUS
 10
59.0984023243
 20
-75.9618203322
 11
58.6241858751
 21
-75.9692793659
  0
LINE
  5
2EA
100
AcDbEntity
  8
0
100
AcDbLine
 62
250
  6
CONTINUOUS
 10
58.6241858751
 20
-75.9692793659
 11
57.9925499705
 21
-75.9775411791
  0
LINE
  5
2EB
100
AcDbEntity
  8
SUPERFICI
100
AcDbLine
 62
250
  6
CONTINUOUS
 10
42.2833761557
 20
-76.0634006631
 11
42.7327146967
 21
-76.0574445712
  0
LINE
  5
2EC
100
AcDbEntity
  8
0
100
AcDbLine
 62
7
  6
CONTINUOUS
 10
57.8387236138
 20
-76.5048243858
 11
58.5968433239
 21
-76.4953552283
  0
LINE
  5
2ED
100
AcDbEntity
  8
0
100
AcDbLine
 62
250
  6
CONTINUOUS
 10
57.9925499705
 20
-75.9775411791
 11
57.4505830052
 21
-75.9828928919
  0
LINE
  5
2EE
100
AcDbEntity
  8
0
100
AcDbLine
 62
7
  6
CONTINUOUS
 10
57.143782312
 20
-76.5109629602
 11
57.8387236138
 21
-76.5048243858
  0
LWPOLYLINE
  5
2EF
100
AcDbEntity
  8
0
100
AcDbPolyline
 62
250
  6
CONTINUOUS
 90
7
 70
0
 10
57.4505830052
 20
-75.9828928919
 10
56.8220673304
 20
-75.9874939307
 10
56.6067955928
 20
-75.9887054042
 10
56.3889513748
 20
-75.9892804479
 10
56.1688258383
 20
-75.9890729438
 10
55.9461278213
 20
-75.9882290099
 10
55.7208573239
 20
-75.9867486463
  0
LINE
  5
2F0
100
AcDbEntity
  8
0
100
AcDbLine
 62
7
  6
CONTINUOUS
 10
56.6655793239
 20
-76.5137824558
 11
57.143782312
 21
-76.5109629602
  0
LINE
  5
2F1
100
AcDbEntity
  8
0
100
AcDbLine
 62
250
  6
CONTINUOUS
 10
73.3539003518
 20
-75.0355362122
 11
73.0877375745
 21
-75.0360305113
  0
LINE
  5
2F2
100
AcDbEntity
  8
0
100
AcDbLine
 62
7
  6
CONTINUOUS
 10
37.6208573239
 20
-74.0360305113
 11
73.8208573239
 21
-74.0360305113
  0
LINE
  5
2F3
100
AcDbEntity
  8
0
100
AcDbLine
 62
7
  6
CONTINUOUS
 10
37.6708573239
 20
-73.9860305114
 11
73.7708573239
 21
-73.9860305114
  0
LINE
  5
2F4
100
AcDbEntity
  8
0
100
AcDbLine
 62
250
  6
CONTINUOUS
 10
37.6555228733
 20
-75.0360726195
 11
37.5708573239
 21
-75.0360305113
  0
LINE
  5
2F5
100
AcDbEntity
  8
0
100
AcDbLine
 62
250
  6
CONTINUOUS
 10
73.8708573239
 20
-75.0360305112
 11
73.6150148878
 21
-75.0363274547
  0
LINE
  5
2F6
100
AcDbEntity
  8
0
100
AcDbLine
 62
250
  6
CONTINUOUS
 10
38.1759415985
 20
-75.0354660729
 11
37.6555228733
 21
-75.0360726195
  0
LINE
  5
2F7
100
AcDbEntity
  8
0
100
AcDbLine
 62
7
  6
CONTINUOUS
 10
55.3805593239
 20
-76.4857473364
 11
55.2923650282
 21
-76.4855781088
  0
LWPOLYLINE
  5
2F8
100
AcDbEntity
  8
0
100
AcDbPolyline
 62
250
  6
CONTINUOUS
 90
5
 70
0
 10
54.8028541016
 20
-75.9885605762
 10
55.0284347834
 20
-75.9891977101
 10
55.2564372253
 20
-75.9890340011
 10
55.4872447388
 20
-75.9882176466
 10
55.7208573239
 20
-75.9867486463
  0
LINE
  5
2F9
100
AcDbEntity
  8
0
100
AcDbLine
 62
250
  6
CONTINUOUS
 10
38.3539770733
 20
-75.0360305113
 11
38.1759415985
 21
-75.0354660729
  0
LINE
  5
2FA
100
AcDbEntity
  8
0
100
AcDbLine
 62
250
  6
CONTINUOUS
 10
73.6150148878
 20
-75.0363274547
 11
73.3539003518
 21
-75.0355362122
  0
LINE
  5
2FB
100
AcDbEntity
  8
0
100
AcDbLine
 62
7
  6
CONTINUOUS
 10
54.4987024837
 20
-76.5123048176
 11
55.3805593239
 21
-76.515747382
  0
LINE
  5
2FC
100
AcDbEntity
  8
0
100
AcDbLine
 62
250
  6
CONTINUOUS
 10
54.1451815558
 20
-75.984182288
 11
54.8028541016
 21
-75.9885605762
  0
LINE
  5
2FD
100
AcDbEntity
  8
0
100
AcDbLine
 62
7
  6
CONTINUOUS
 10
53.7932063239
 20
-76.5067450399
 11
54.4987024837
 21
-76.5123048176
  0
LINE
  5
2FE
100
AcDbEntity
  8
0
100
AcDbLine
 62
250
  6
CONTINUOUS
 10
53.3711921757
 20
-75.9766479252
 11
54.1451815558
 21
-75.984182288
  0
LINE
  5
2FF
100
AcDbEntity
  8
0
100
AcDbLine
 62
250
  6
CONTINUOUS
 10
52.6984917588
 20
-75.9674997818
 11
53.3711921757
 21
-75.9766479252
  0
LINE
  5
300
100
AcDbEntity
  8
0
100
AcDbLine
 62
250
  6
CONTINUOUS
 10
52.1993423491
 20
-75.9593400959
 11
52.6984917588
 21
-75.9674997818
  0
LWPOLYLINE
  5
301
100
AcDbEntity
  8
0
100
AcDbPolyline
 62
250
  6
CONTINUOUS
 90
3
 70
0
 10
69.4638168955
 20
-76.0686731314
 10
69.3139219446
 20
-76.0659156782
 10
68.7089999511
 20
-76.0574445712
  0
LINE
  5
302
100
AcDbEntity
  8
0
100
AcDbLine
 62
250
  6
CONTINUOUS
 10
51.6992105916
 20
-75.9498963696
 11
52.1993423491
 21
-75.9593400959
  0
LINE
  5
303
100
AcDbEntity
  8
0
100
AcDbLine
 62
250
  6
CONTINUOUS
 10
51.2106098173
 20
-75.9394954816
 11
51.6992105916
 21
-75.9498963696
  0
LINE
  5
304
100
AcDbEntity
  8
0
100
AcDbLine
 62
250
  6
CONTINUOUS
 10
50.6734186382
 20
-75.926516305
 11
51.2106098173
 21
-75.9394954816
  0
LINE
  5
305
100
AcDbEntity
  8
0
100
AcDbLine
 62
250
  6
CONTINUOUS
 10
50.0966253299
 20
-75.9111537675
 11
50.6734186382
 21
-75.926516305
  0
LINE
  5
306
100
AcDbEntity
  8
0
100
AcDbLine
 62
250
  6
CONTINUOUS
 10
49.573678268
 20
-75.8957195714
 11
50.0966253299
 21
-75.9111537675
  0
LINE
  5
307
100
AcDbEntity
  8
0
100
AcDbLine
 62
250
  6
CONTINUOUS
 10
49.0770355855
 20
-75.879792541
 11
49.573678268
 21
-75.8957195714
  0
LINE
  5
308
100
AcDbEntity
  8
0
100
AcDbLine
 62
7
  6
CONTINUOUS
 10
48.4518483239
 20
-76.3839060458
 11
49.3914283239
 21
-76.4158598249
  0
LINE
  5
309
100
AcDbEntity
  8
0
100
AcDbLine
 62
250
  6
CONTINUOUS
 10
48.3872195454
 20
-75.8556206604
 11
49.0770355855
 21
-75.879792541
  0
LINE
  5
30A
100
AcDbEntity
  8
0
100
AcDbLine
 62
250
  6
CONTINUOUS
 10
47.7765962605
 20
-75.8322061053
 11
48.3872195454
 21
-75.8556206604
  0
LINE
  5
30B
100
AcDbEntity
  8
0
100
AcDbLine
 62
7
  6
CONTINUOUS
 10
47.5122583239
 20
-76.3475215968
 11
48.4518483239
 21
-76.3839060458
  0
LINE
  5
30C
100
AcDbEntity
  8
0
100
AcDbLine
 62
250
  6
CONTINUOUS
 10
47.0543474937
 20
-75.8020840167
 11
47.7765962605
 21
-75.8322061053
  0
LWPOLYLINE
  5
30D
100
AcDbEntity
  8
0
100
AcDbPolyline
 62
250
  6
CONTINUOUS
 90
9
 70
0
 10
70.858912252
 20
-75.8726031767
 10
70.8798223519
 20
-75.8735257583
 10
70.9007361277
 20
-75.8740125113
 10
70.9216444359
 20
-75.8740638868
 10
70.9425445652
 20
-75.8736801529
 10
70.9634210417
 20
-75.8728616807
 10
70.9842456725
 20
-75.8716102758
 10
71.0050031673
 20
-75.869928176
 10
71.0256910946
 20
-75.8678167185
  0
LINE
  5
30E
100
AcDbEntity
  8
0
100
AcDbLine
 62
250
  6
CONTINUOUS
 10
46.2726347522
 20
-75.766527873
 11
47.0543474937
 21
-75.8020840167
  0
LINE
  5
30F
100
AcDbEntity
  8
0
100
AcDbLine
 62
250
  6
CONTINUOUS
 10
45.3383783894
 20
-75.7200303854
 11
46.2726347522
 21
-75.766527873
  0
LINE
  5
310
100
AcDbEntity
  8
0
100
AcDbLine
 62
250
  6
CONTINUOUS
 10
44.630538974
 20
-75.6819480833
 11
45.3383783894
 21
-75.7200303854
  0
LWPOLYLINE
  5
311
100
AcDbEntity
  8
SUPERFICI
100
AcDbPolyline
 62
7
  6
CONTINUOUS
 90
10
 70
0
 10
43.9205049616
 20
-76.1377604182
 10
43.0686478405
 20
-76.0826580333
 10
42.2364863176
 20
-76.0202001502
 10
41.4241098693
 20
-75.9507902953
 10
40.6350915755
 20
-75.8743473433
 10
39.8652674967
 20
-75.7816708143
 10
39.1031369608
 20
-75.6698702653
 10
38.3449942228
 20
-75.5387275603
 10
37.5958465049
 20
-75.3893564957
 10
36.8557940267
 20
-75.2221675145
  0
LWPOLYLINE
  5
312
100
AcDbEntity
  8
0
100
AcDbPolyline
 62
250
  6
CONTINUOUS
 90
5
 70
0
 10
43.3542449959
 20
-75.6053137959
 10
43.6029005558
 20
-75.6215438721
 10
43.8696447307
 20
-75.6379488722
 10
44.1461974717
 20
-75.6542564981
 10
44.630538974
 20
-75.6819480833
  0
LWPOLYLINE
  5
313
100
AcDbEntity
  8
0
100
AcDbPolyline
 62
250
  6
CONTINUOUS
 90
3
 70
0
 10
42.6881262609
 20
-75.558259183
 10
42.8908722613
 20
-75.5731039211
 10
43.3542449959
 20
-75.6053137959
  0
LINE
  5
314
100
AcDbEntity
  8
SUPERFICI
100
AcDbLine
 62
7
  6
CONTINUOUS
 10
43.1375008642
 20
-76.0870963794
 11
43.1941474447
 21
-76.0912585605
  0
LINE
  5
315
100
AcDbEntity
  8
0
100
AcDbLine
 62
250
  6
CONTINUOUS
 10
42.3077352434
 20
-75.5286692039
 11
42.6881262609
 21
-75.558259183
  0
LINE
  5
316
100
AcDbEntity
  8
0
100
AcDbLine
 62
250
  6
CONTINUOUS
 10
41.9028224758
 20
-75.4952983746
 11
42.3077352434
 21
-75.5286692039
  0
LWPOLYLINE
  5
317
100
AcDbEntity
  8
0
100
AcDbPolyline
 62
250
  6
CONTINUOUS
 90
4
 70
0
 10
70.6617769862
 20
-75.8883805571
 10
70.6651093287
 20
-75.888680808
 10
70.6916563985
 20
-75.8918598
 10
70.7181177598
 20
-75.8958172757
  0
LINE
  5
318
100
AcDbEntity
  8
ASSI
100
AcDbLine
 62
7
  6
CONTINUOUS
 10
38.6473016366
 20
-73.9933103934
 11
38.7569085696
 21
-74.0118335221
  0
LINE
  5
319
100
AcDbEntity
  8
RACCORDO
100
AcDbLine
 62
250
  6
CONTINUOUS
 10
44.9508356789
 20
-68.4002844182
 11
44.6077620858
 21
-68.0365530479
  0
LINE
  5
31A
100
AcDbEntity
  8
0
100
AcDbLine
 62
250
  6
CONTINUOUS
 10
46.2208573239
 20
-68.1833765499
 11
46.2208573239
 21
-68.1846840824
  0
LINE
  5
31B
100
AcDbEntity
  8
0
100
AcDbLine
 62
7
  6
CONTINUOUS
 10
46.6622163239
 20
-55.7612353755
 11
46.6622163239
 21
-55.7912902103
  0
LINE
  5
31C
100
AcDbEntity
  8
0
100
AcDbLine
 62
7
  6
CONTINUOUS
 10
46.6622163239
 20
-76.2807654587
 11
46.6622163239
 21
-76.3107962786
  0
LINE
  5
31D
100
AcDbEntity
  8
ASSI
100
AcDbLine
 62
7
  6
CONTINUOUS
 10
46.7696086869
 20
-55.7563961125
 11
46.7696086869
 21
-55.7864531748
  0
LINE
  5
31E
100
AcDbEntity
  8
0
100
AcDbLine
 62
7
  6
CONTINUOUS
 10
47.5122583239
 20
-76.317496296
 11
47.5122583239
 21
-76.3475215968
  0
LINE
  5
31F
100
AcDbEntity
  8
0
100
AcDbLine
 62
7
  6
CONTINUOUS
 10
48.0730253239
 20
-55.7022713185
 11
48.0730253239
 21
-55.7323166112
  0
LINE
  5
320
100
AcDbEntity
  8
0
100
AcDbLine
 62
250
  6
CONTINUOUS
 10
40.4845515842
 20
-56.1473498109
 11
40.5730018184
 21
-56.1081493809
  0
LINE
  5
321
100
AcDbEntity
  8
0
100
AcDbLine
 62
250
  6
CONTINUOUS
 10
36.8645311785
 20
-56.8404430052
 11
36.8672166166
 21
-56.8393595972
  0
LWPOLYLINE
  5
322
100
AcDbEntity
  8
0
100
AcDbPolyline
 62
250
  6
CONTINUOUS
 90
8
 70
0
 10
40.5730018184
 20
-56.1081493809
 10
40.6884578998
 20
-56.0642033933
 10
40.8301736466
 20
-56.0161741372
 10
40.9997033224
 20
-55.96399226
 10
41.1978846359
 20
-55.9079067225
 10
41.423661875
 20
-55.8485751967
 10
41.6771611117
 20
-55.7863112573
 10
41.9381571458
 20
-55.7260542421
  0
LWPOLYLINE
  5
323
100
AcDbEntity
  8
0
100
AcDbPolyline
 62
7
  6
CONTINUOUS
 90
3
 70
0
 10
36.7490416491
 20
-56.8745810254
 10
36.6978188877
 20
-56.8936245861
 10
36.647785652
 20
-56.9145083671
  0
LWPOLYLINE
  5
324
100
AcDbEntity
  8
0
100
AcDbPolyline
 62
250
  6
CONTINUOUS
 90
12
 70
0
 10
36.7556118665
 20
-56.8781449653
 10
36.6580235031
 20
-56.9143157335
 10
36.5636533099
 20
-56.958170995
 10
36.4731063548
 20
-57.0094257944
 10
36.3869593021
 20
-57.0677497933
 10
36.3057576175
 20
-57.1327707439
 10
36.2300185262
 20
-57.2040726034
 10
36.1602277002
 20
-57.2811961384
 10
36.0968313379
 20
-57.3636454708
 10
36.0402356252
 20
-57.4508882268
 10
35.9907985365
 20
-57.5423679816
 10
35.9488307386
 20
-57.6375082615
  0
LINE
  5
325
100
AcDbEntity
  8
0
100
AcDbLine
 62
7
  6
CONTINUOUS
 10
36.7877441809
 20
-56.861702622
 11
36.7490416491
 21
-56.8745810254
  0
LWPOLYLINE
  5
326
100
AcDbEntity
  8
0
100
AcDbPolyline
 62
7
  6
CONTINUOUS
 90
3
 70
0
 10
36.8672166166
 20
-56.8393595972
 10
36.8688329871
 20
-56.8388364087
 10
36.8711014263
 20
-56.8382235475
  0
LINE
  5
327
100
AcDbEntity
  8
0
100
AcDbLine
 62
7
  6
CONTINUOUS
 10
36.7891161813
 20
-56.8612362554
 11
36.7757929973
 21
-56.8655044487
  0
LWPOLYLINE
  5
328
100
AcDbEntity
  8
0
100
AcDbPolyline
 62
250
  6
CONTINUOUS
 90
13
 70
0
 10
36.9686607432
 20
-57.3326417262
 10
36.892765022
 20
-57.3550984476
 10
36.820366461
 20
-57.3845531577
 10
36.7514650602
 20
-57.4210058565
 10
36.685254804
 20
-57.4650114885
 10
36.6225417081
 20
-57.5160151091
 10
36.5657438188
 20
-57.572351885
 10
36.5152095412
 20
-57.6343080412
 10
36.4705904703
 20
-57.7015973526
 10
36.4332594379
 20
-57.7716963106
 10
36.4036740547
 20
-57.8437637456
 10
36.3813767101
 20
-57.9186408272
 10
36.366367404
 20
-57.9963275554
  0
LINE
  5
329
100
AcDbEntity
  8
SUPERFICI
100
AcDbLine
 62
250
  6
CONTINUOUS
 10
36.3656068373
 20
-74.0701979194
 11
36.1634170347
 21
-74.0974091278
  0
LINE
  5
32A
100
AcDbEntity
  8
SUPERFICI
100
AcDbLine
 62
250
  6
CONTINUOUS
 10
36.1634170347
 20
-74.0974091278
 11
36.0332123274
 21
-74.1143555106
  0
LWPOLYLINE
  5
32B
100
AcDbEntity
  8
SUPERFICI
100
AcDbPolyline
 62
250
  6
CONTINUOUS
 90
7
 70
0
 10
36.0332123274
 20
-74.1143555106
 10
35.9357506318
 20
-74.1264971946
 10
35.9123171881
 20
-74.129276163
 10
35.8938678329
 20
-74.1313643359
 10
35.8806069884
 20
-74.1327383642
 10
35.8726866621
 20
-74.1333817698
 10
35.8701971817
 20
-74.1332867869
  0
LINE
  5
32C
100
AcDbEntity
  8
RACCORDO
100
AcDbLine
 62
250
  6
CONTINUOUS
 10
42.7208573239
 20
-69.4563112025
 11
68.7208573239
 21
-69.4563112025
  0
LWPOLYLINE
  5
32D
100
AcDbEntity
  8
0
100
AcDbPolyline
 62
250
  6
CONTINUOUS
 90
5
 70
0
 10
75.5293974597
 20
-74.129276163
 10
75.5478468149
 20
-74.1313643359
 10
75.5611076594
 20
-74.1327383642
 10
75.5690279857
 20
-74.1333817698
 10
75.5715174661
 20
-74.1332867869
  0
LINE
  5
32E
100
AcDbEntity
  8
0
100
AcDbLine
 62
250
  6
CONTINUOUS
 10
75.4777939751
 20
-74.123056398
 11
75.5293974597
 21
-74.129276163
  0
LINE
  5
32F
100
AcDbEntity
  8
0
100
AcDbLine
 62
250
  6
CONTINUOUS
 10
75.3681549974
 20
-74.1091731337
 11
75.4777939751
 21
-74.123056398
  0
LINE
  5
330
100
AcDbEntity
  8
0
100
AcDbLine
 62
250
  6
CONTINUOUS
 10
75.1795072718
 20
-74.0842249886
 11
75.3681549974
 21
-74.1091731337
  0
LINE
  5
331
100
AcDbEntity
  8
0
100
AcDbLine
 62
250
  6
CONTINUOUS
 10
75.0761078105
 20
-74.0701979194
 11
75.1795072718
 21
-74.0842249886
  0
LINE
  5
332
100
AcDbEntity
  8
RACCORDO
100
AcDbLine
 62
250
  6
CONTINUOUS
 10
45.0080266361
 20
-63.6798595237
 11
45.2368626149
 21
-64.1244200874
  0
LINE
  5
333
100
AcDbEntity
  8
0
100
AcDbLine
 62
7
  6
CONTINUOUS
 10
48.4518483239
 20
-76.3538862093
 11
48.4518483239
 21
-76.3839060458
  0
LINE
  5
334
100
AcDbEntity
  8
RACCORDO
100
AcDbLine
 62
7
  6
CONTINUOUS
 10
48.7208573239
 20
-74.0360305113
 11
48.7208573239
 21
-73.9860305114
  0
LINE
  5
335
100
AcDbEntity
  8
RACCORDO
100
AcDbLine
 62
7
  6
CONTINUOUS
 10
48.7208573239
 20
-58.0860305112
 11
48.7208573239
 21
-58.0440333734
  0
LINE
  5
336
100
AcDbEntity
  8
0
100
AcDbLine
 62
7
  6
CONTINUOUS
 10
49.3914283239
 20
-76.3858447886
 11
49.3914283239
 21
-76.4158598249
  0
LINE
  5
337
100
AcDbEntity
  8
RACCORDO
100
AcDbLine
 62
7
  6
CONTINUOUS
 10
49.7208573239
 20
-74.0360305113
 11
49.7208573239
 21
-73.9860305114
  0
LINE
  5
338
100
AcDbEntity
  8
RACCORDO
100
AcDbLine
 62
7
  6
CONTINUOUS
 10
49.7208573239
 20
-58.0860305112
 11
49.7208573239
 21
-58.0440333734
  0
LINE
  5
339
100
AcDbEntity
  8
0
100
AcDbLine
 62
7
  6
CONTINUOUS
 10
50.0635123239
 20
-55.6360385846
 11
50.0635123239
 21
-55.666065423
  0
LINE
  5
33A
100
AcDbEntity
  8
RACCORDO
100
AcDbLine
 62
250
  6
CONTINUOUS
 10
50.0708573239
 20
-74.0360305113
 11
50.0708573239
 21
-73.9860305114
  0
LINE
  5
33B
100
AcDbEntity
  8
RACCORDO
100
AcDbLine
 62
250
  6
CONTINUOUS
 10
50.0708573239
 20
-58.0860305112
 11
50.0708573239
 21
-58.0440333734
  0
LINE
  5
33C
100
AcDbEntity
  8
0
100
AcDbLine
 62
7
  6
CONTINUOUS
 10
50.2414703239
 20
-76.4109525781
 11
50.2414703239
 21
-76.4409638455
  0
LINE
  5
33D
100
AcDbEntity
  8
0
100
AcDbLine
 62
7
  6
CONTINUOUS
 10
50.6301963239
 20
-55.6208097585
 11
50.6301963239
 21
-55.6508265401
  0
LINE
  5
33E
100
AcDbEntity
  8
0
100
AcDbLine
 62
7
  6
CONTINUOUS
 10
50.8081543239
 20
-76.4256813521
 11
50.8081543239
 21
-76.455690409
  0
LINE
  5
33F
100
AcDbEntity
  8
0
100
AcDbLine
 62
7
  6
CONTINUOUS
 10
51.6581863239
 20
-76.4447614014
 11
51.6581863239
 21
-76.4747675953
  0
LINE
  5
340
100
AcDbEntity
  8
0
100
AcDbLine
 62
7
  6
CONTINUOUS
 10
51.9947973239
 20
-55.5907314366
 11
51.9947973239
 21
-55.620743226
  0
LINE
  5
341
100
AcDbEntity
  8
RACCORDO
100
AcDbLine
 62
250
  6
CONTINUOUS
 10
45.0080266361
 20
-68.3922014989
 11
45.2368626195
 21
-67.9476409375
  0
LINE
  5
342
100
AcDbEntity
  8
RACCORDO
100
AcDbLine
 62
250
  6
CONTINUOUS
 10
44.9508356789
 20
-63.6717766044
 11
44.6077620821
 21
-64.0355079712
  0
LINE
  5
343
100
AcDbEntity
  8
0
100
AcDbLine
 62
7
  6
CONTINUOUS
 10
42.7208573239
 20
-68.4465006189
 11
44.1180782322
 21
-68.4030593385
  0
LINE
  5
344
100
AcDbEntity
  8
RACCORDO
100
AcDbLine
 62
7
  6
CONTINUOUS
 10
42.6708573239
 20
-68.7476549287
 11
43.1891152858
 21
-68.7444637689
  0
LINE
  5
345
100
AcDbEntity
  8
0
100
AcDbLine
 62
7
  6
CONTINUOUS
 10
42.7208573239
 20
-68.1833765499
 11
44.4369839361
 21
-68.1833765499
  0
LINE
  5
346
100
AcDbEntity
  8
0
100
AcDbLine
 62
7
  6
CONTINUOUS
 10
46.1183763686
 20
-68.1833765499
 11
46.2208573239
 21
-68.1833765499
  0
LINE
  5
347
100
AcDbEntity
  8
0
100
AcDbLine
 62
7
  6
CONTINUOUS
 10
47.4605837283
 20
-67.789362611
 11
41.4811309195
 21
-67.789362611
  0
LINE
  5
348
100
AcDbEntity
  8
0
100
AcDbLine
 62
7
  6
CONTINUOUS
 10
35.3212841974
 20
-66.0360305113
 11
37.1212841974
 21
-66.0360305113
  0
LINE
  5
349
100
AcDbEntity
  8
0
100
AcDbLine
 62
7
  6
CONTINUOUS
 10
37.1495022204
 20
-66.0360305113
 11
37.1719565721
 21
-66.0360305113
  0
LINE
  5
34A
100
AcDbEntity
  8
0
100
AcDbLine
 62
7
  6
CONTINUOUS
 10
74.2697580798
 20
-66.0360305113
 11
74.2922124303
 21
-66.0360305113
  0
LINE
  5
34B
100
AcDbEntity
  8
0
100
AcDbLine
 62
7
  6
CONTINUOUS
 10
74.3204304504
 20
-66.0360305113
 11
76.1204304504
 21
-66.0360305113
  0
LINE
  5
34C
100
AcDbEntity
  8
DRAFT
100
AcDbLine
 62
7
  6
CONTINUOUS
 10
40.7136234626
 20
-64.5916846431
 11
40.4365750719
 21
-64.507072045
  0
LWPOLYLINE
  5
34D
100
AcDbEntity
  8
0
100
AcDbPolyline
 62
250
  6
CONTINUOUS
 90
3
 70
0
 10
69.3607878554
 20
-76.0069090657
 10
69.4097179994
 20
-76.0337270946
 10
69.4635469649
 20
-76.0687942117
  0
LINE
  5
34E
100
AcDbEntity
  8
0
100
AcDbLine
 62
7
  6
CONTINUOUS
 10
52.5081863239
 20
-76.4602259106
 11
52.5081863239
 21
-76.4902297843
  0
LINE
  5
34F
100
AcDbEntity
  8
0
100
AcDbLine
 62
7
  6
CONTINUOUS
 10
52.8448713239
 20
-55.5767028442
 11
52.8448713239
 21
-55.606708899
  0
LINE
  5
350
100
AcDbEntity
  8
RACCORDO
100
AcDbLine
 62
7
  6
CONTINUOUS
 10
53.6708573239
 20
-64.2057948573
 11
53.6708573239
 21
-64.5360305113
  0
LINE
  5
351
100
AcDbEntity
  8
0
100
AcDbLine
 62
7
  6
CONTINUOUS
 10
53.7932063239
 20
-76.4767436438
 11
53.7932063239
 21
-76.5067450399
  0
LINE
  5
352
100
AcDbEntity
  8
0
100
AcDbLine
 62
7
  6
CONTINUOUS
 10
54.2094513239
 20
-55.5617396459
 11
54.2094513239
 21
-55.5917322822
  0
LINE
  5
353
100
AcDbEntity
  8
0
100
AcDbLine
 62
7
  6
CONTINUOUS
 10
54.5868833239
 20
-76.4828242361
 11
54.5868833239
 21
-76.5128247217
  0
LINE
  5
354
100
AcDbEntity
  8
0
100
AcDbLine
 62
7
  6
CONTINUOUS
 10
54.7761353239
 20
-55.558261687
 11
54.7761353239
 21
-55.5882567308
  0
LINE
  5
355
100
AcDbEntity
  8
0
100
AcDbLine
 62
7
  6
CONTINUOUS
 10
55.3805593239
 20
-76.4857473364
 11
55.3805593239
 21
-76.515747382
  0
LINE
  5
356
100
AcDbEntity
  8
0
100
AcDbLine
 62
250
  6
CONTINUOUS
 10
55.7208573239
 20
-56.0816672421
 11
55.7208573239
 21
-55.5860305055
  0
LINE
  5
357
100
AcDbEntity
  8
0
100
AcDbLine
 62
250
  6
CONTINUOUS
 10
55.7208573239
 20
-75.9903937805
 11
55.7208573239
 21
-76.4860305171
  0
LINE
  5
358
100
AcDbEntity
  8
0
100
AcDbLine
 62
250
  6
CONTINUOUS
 10
55.7208572954
 20
-55.5560605341
 11
55.7208572845
 21
-54.516009133
  0
LINE
  5
359
100
AcDbEntity
  8
0
100
AcDbLine
 62
250
  6
CONTINUOUS
 10
55.7208572954
 20
-76.5160288021
 11
55.7208572845
 21
-77.5560518896
  0
LINE
  5
35A
100
AcDbEntity
  8
0
100
AcDbLine
 62
7
  6
CONTINUOUS
 10
56.0611553239
 20
-55.556322966
 11
56.0611553239
 21
-55.5863136862
  0
LINE
  5
35B
100
AcDbEntity
  8
0
100
AcDbLine
 62
7
  6
CONTINUOUS
 10
68.7208573239
 20
-63.6255604036
 11
67.3236364156
 21
-63.6690016841
  0
LINE
  5
35C
100
AcDbEntity
  8
RACCORDO
100
AcDbLine
 62
7
  6
CONTINUOUS
 10
68.7708573239
 20
-63.3244060938
 11
68.252599362
 21
-63.3275972537
  0
LINE
  5
35D
100
AcDbEntity
  8
DRAFT
100
AcDbLine
 62
7
  6
CONTINUOUS
 10
53.4175554098
 20
-64.5360305113
 11
58.024159238
 21
-64.5360305113
  0
LINE
  5
35E
100
AcDbEntity
  8
0
100
AcDbLine
 62
7
  6
CONTINUOUS
 10
63.9811309195
 20
-64.2826984116
 11
69.9605837283
 21
-64.2826984116
  0
LINE
  5
35F
100
AcDbEntity
  8
0
100
AcDbLine
 62
7
  6
CONTINUOUS
 10
68.7208573239
 20
-63.8886844727
 11
67.0047307117
 21
-63.8886844727
  0
LINE
  5
360
100
AcDbEntity
  8
0
100
AcDbLine
 62
7
  6
CONTINUOUS
 10
65.3233382792
 20
-63.8886844727
 11
65.2208573239
 21
-63.8886844727
  0
LINE
  5
361
100
AcDbEntity
  8
DRAFT
100
AcDbLine
 62
7
  6
CONTINUOUS
 10
54.0731444408
 20
-63.8360305113
 11
57.368570207
 21
-63.8360305113
  0
LINE
  5
362
100
AcDbEntity
  8
RACCORDO
100
AcDbLine
 62
250
  6
CONTINUOUS
 10
68.7208573239
 20
-62.6157498201
 11
42.7208573239
 21
-62.6157498201
  0
LINE
  5
363
100
AcDbEntity
  8
DRAFT
100
AcDbLine
 62
7
  6
CONTINUOUS
 10
70.7280911852
 20
-67.4803763795
 11
71.0051395759
 21
-67.5649889775
  0
LWPOLYLINE
  5
364
100
AcDbEntity
  8
0
100
AcDbPolyline
 62
250
  6
CONTINUOUS
 90
3
 70
0
 10
42.0804402433
 20
-56.0648852851
 10
42.0319966484
 20
-56.038333928
 10
41.9781676829
 20
-56.0032668109
  0
LINE
  5
365
100
AcDbEntity
  8
0
100
AcDbLine
 62
7
  6
CONTINUOUS
 10
56.6655793239
 20
-76.4838042918
 11
56.6655793239
 21
-76.5138046289
  0
LINE
  5
366
100
AcDbEntity
  8
0
100
AcDbLine
 62
7
  6
CONTINUOUS
 10
56.8548313239
 20
-55.5592494825
 11
56.8548313239
 21
-55.5892367865
  0
LINE
  5
367
100
AcDbEntity
  8
0
100
AcDbLine
 62
7
  6
CONTINUOUS
 10
57.2322633239
 20
-76.4803287403
 11
57.2322633239
 21
-76.5103296008
  0
LINE
  5
368
100
AcDbEntity
  8
0
100
AcDbLine
 62
7
  6
CONTINUOUS
 10
57.6485083239
 20
-55.5653253086
 11
57.6485083239
 21
-55.5953173788
  0
LINE
  5
369
100
AcDbEntity
  8
RACCORDO
100
AcDbLine
 62
7
  6
CONTINUOUS
 10
57.7708573239
 20
-64.2057948573
 11
57.7708573239
 21
-64.5360305113
  0
LINE
  5
36A
100
AcDbEntity
  8
0
100
AcDbLine
 62
7
  6
CONTINUOUS
 10
58.5968433239
 20
-76.4653521236
 11
58.5968433239
 21
-76.4953552283
  0
LINE
  5
36B
100
AcDbEntity
  8
0
100
AcDbLine
 62
7
  6
CONTINUOUS
 10
58.9335283239
 20
-55.5818405649
 11
58.9335283239
 21
-55.611835112
  0
LINE
  5
36C
100
AcDbEntity
  8
0
100
AcDbLine
 62
7
  6
CONTINUOUS
 10
59.4469173239
 20
-76.4513177966
 11
59.4469173239
 21
-76.4813230068
  0
LINE
  5
36D
100
AcDbEntity
  8
0
100
AcDbLine
 62
7
  6
CONTINUOUS
 10
59.7835283239
 20
-55.5973027547
 11
59.7835283239
 21
-55.6272996212
  0
LWPOLYLINE
  5
36E
100
AcDbEntity
  8
0
100
AcDbPolyline
 62
250
  6
CONTINUOUS
 90
3
 70
0
 10
69.3607878554
 20
-56.0651519569
 10
69.4097179994
 20
-56.038333928
 10
69.4635469649
 20
-56.0032668109
  0
LINE
  5
36F
100
AcDbEntity
  8
0
100
AcDbLine
 62
250
  6
CONTINUOUS
 10
75.0761078105
 20
-58.0018631032
 11
75.2782976131
 21
-57.9746518948
  0
LINE
  5
370
100
AcDbEntity
  8
0
100
AcDbLine
 62
250
  6
CONTINUOUS
 10
75.2782976131
 20
-57.9746518948
 11
75.4085023204
 21
-57.957705512
  0
LWPOLYLINE
  5
371
100
AcDbEntity
  8
0
100
AcDbPolyline
 62
250
  6
CONTINUOUS
 90
7
 70
0
 10
75.4085023204
 20
-57.957705512
 10
75.505964016
 20
-57.945563828
 10
75.5293974597
 20
-57.9427848596
 10
75.5478468149
 20
-57.9406966867
 10
75.5611076594
 20
-57.9393226584
 10
75.5690279857
 20
-57.9386792528
 10
75.5715174661
 20
-57.9387742356
  0
LWPOLYLINE
  5
372
100
AcDbEntity
  8
0
100
AcDbPolyline
 62
250
  6
CONTINUOUS
 90
4
 70
0
 10
70.6617769862
 20
-56.1836804655
 10
70.6651093287
 20
-56.1833802146
 10
70.6916563985
 20
-56.1802012226
 10
70.7181177598
 20
-56.1762437468
  0
LWPOLYLINE
  5
373
100
AcDbEntity
  8
0
100
AcDbPolyline
 62
250
  6
CONTINUOUS
 90
9
 70
0
 10
70.858912252
 20
-56.1994578459
 10
70.8798223519
 20
-56.1985352643
 10
70.9007361277
 20
-56.1980485113
 10
70.9216444359
 20
-56.1979971358
 10
70.9425445652
 20
-56.1983808696
 10
70.9634210417
 20
-56.1991993419
 10
70.9842456725
 20
-56.2004507468
 10
71.0050031673
 20
-56.2021328466
 10
71.0256910946
 20
-56.2042443041
  0
LINE
  5
374
100
AcDbEntity
  8
0
100
AcDbLine
 62
7
  6
CONTINUOUS
 10
37.6708573239
 20
-58.0860305112
 11
73.7708573239
 21
-58.0860305112
  0
LINE
  5
375
100
AcDbEntity
  8
0
100
AcDbLine
 62
7
  6
CONTINUOUS
 10
37.6208573239
 20
-58.0359924344
 11
73.8208573239
 21
-58.0359924344
  0
LINE
  5
376
100
AcDbEntity
  8
0
100
AcDbLine
 62
7
  6
CONTINUOUS
 10
37.6208573239
 20
-57.0360305113
 11
38.3539770733
 21
-57.0360305113
  0
LINE
  5
377
100
AcDbEntity
  8
0
100
AcDbLine
 62
7
  6
CONTINUOUS
 10
73.0877375745
 20
-57.0360305113
 11
73.8208573239
 21
-57.0360305113
  0
LWPOLYLINE
  5
378
100
AcDbEntity
  8
0
100
AcDbPolyline
 62
250
  6
CONTINUOUS
 90
9
 70
0
 10
40.5828023958
 20
-56.1994578459
 10
40.5618922959
 20
-56.1985352643
 10
40.5409785201
 20
-56.1980485113
 10
40.5200702119
 20
-56.1979971358
 10
40.4991700826
 20
-56.1983808696
 10
40.4782936061
 20
-56.1991993419
 10
40.4574689753
 20
-56.2004507468
 10
40.4367114805
 20
-56.2021328466
 10
40.4160235532
 20
-56.2042443041
  0
LWPOLYLINE
  5
379
100
AcDbEntity
  8
0
100
AcDbPolyline
 62
250
  6
CONTINUOUS
 90
4
 70
0
 10
40.7891668391
 20
-56.1845120332
 10
40.7766053191
 20
-56.1833802146
 10
40.7500582493
 20
-56.1802012226
 10
40.723596888
 20
-56.1762437468
  0
LWPOLYLINE
  5
37A
100
AcDbEntity
  8
0
100
AcDbPolyline
 62
250
  6
CONTINUOUS
 90
5
 70
0
 10
35.9123171881
 20
-57.9427848596
 10
35.8938678329
 20
-57.9406966867
 10
35.8806069884
 20
-57.9393226584
 10
35.8726866621
 20
-57.9386792528
 10
35.8701971817
 20
-57.9387742356
  0
LINE
  5
37B
100
AcDbEntity
  8
0
100
AcDbLine
 62
250
  6
CONTINUOUS
 10
35.9639206727
 20
-57.9490046246
 11
35.9123171881
 21
-57.9427848596
  0
LINE
  5
37C
100
AcDbEntity
  8
0
100
AcDbLine
 62
250
  6
CONTINUOUS
 10
36.0735596504
 20
-57.9628878889
 11
35.9639206727
 21
-57.9490046246
  0
LINE
  5
37D
100
AcDbEntity
  8
0
100
AcDbLine
 62
250
  6
CONTINUOUS
 10
36.262207376
 20
-57.987836034
 11
36.0735596504
 21
-57.9628878889
  0
LINE
  5
37E
100
AcDbEntity
  8
0
100
AcDbLine
 62
250
  6
CONTINUOUS
 10
36.3656068373
 20
-58.0018631032
 11
36.262207376
 21
-57.987836034
  0
LINE
  5
37F
100
AcDbEntity
  8
0
100
AcDbLine
 62
7
  6
CONTINUOUS
 10
60.6335603239
 20
-55.6163799418
 11
60.6335603239
 21
-55.6463796705
  0
LINE
  5
380
100
AcDbEntity
  8
0
100
AcDbLine
 62
7
  6
CONTINUOUS
 10
60.8115183239
 20
-76.4212344824
 11
60.8115183239
 21
-76.4512442088
  0
LINE
  5
381
100
AcDbEntity
  8
0
100
AcDbLine
 62
7
  6
CONTINUOUS
 10
61.2002443239
 20
-55.6311065061
 11
61.2002443239
 21
-55.6611084445
  0
LINE
  5
382
100
AcDbEntity
  8
RACCORDO
100
AcDbLine
 62
250
  6
CONTINUOUS
 10
61.3708573239
 20
-58.0440333734
 11
61.3708573239
 21
-58.0860305112
  0
LINE
  5
383
100
AcDbEntity
  8
RACCORDO
100
AcDbLine
 62
250
  6
CONTINUOUS
 10
61.3708573239
 20
-73.9860305114
 11
61.3708573239
 21
-74.0360305113
  0
LINE
  5
384
100
AcDbEntity
  8
0
100
AcDbLine
 62
7
  6
CONTINUOUS
 10
61.3782023239
 20
-76.4059955996
 11
61.3782023239
 21
-76.436007611
  0
LINE
  5
385
100
AcDbEntity
  8
RACCORDO
100
AcDbLine
 62
7
  6
CONTINUOUS
 10
61.7208573239
 20
-58.0440333734
 11
61.7208573239
 21
-58.0860305112
  0
LINE
  5
386
100
AcDbEntity
  8
RACCORDO
100
AcDbLine
 62
7
  6
CONTINUOUS
 10
61.7208573239
 20
-73.9860305114
 11
61.7208573239
 21
-74.0360305113
  0
LINE
  5
387
100
AcDbEntity
  8
0
100
AcDbLine
 62
7
  6
CONTINUOUS
 10
62.0502863239
 20
-55.6562105278
 11
62.0502863239
 21
-55.686216234
  0
LINE
  5
388
100
AcDbEntity
  8
RACCORDO
100
AcDbLine
 62
7
  6
CONTINUOUS
 10
62.7208573239
 20
-58.0440333734
 11
62.7208573239
 21
-58.0860305112
  0
LINE
  5
389
100
AcDbEntity
  8
RACCORDO
100
AcDbLine
 62
7
  6
CONTINUOUS
 10
62.7208573239
 20
-73.9860305114
 11
62.7208573239
 21
-74.0360305113
  0
LINE
  5
38A
100
AcDbEntity
  8
0
100
AcDbLine
 62
7
  6
CONTINUOUS
 10
62.9898663239
 20
-55.6881683514
 11
62.9898663239
 21
-55.7181748133
  0
LINE
  5
38B
100
AcDbEntity
  8
0
100
AcDbLine
 62
250
  6
CONTINUOUS
 10
63.3686893239
 20
-76.3397444114
 11
63.3686893239
 21
-76.3697663702
  0
LINE
  5
38C
100
AcDbEntity
  8
0
100
AcDbLine
 62
7
  6
CONTINUOUS
 10
63.9294563239
 20
-55.7245487591
 11
63.9294563239
 21
-55.7545647266
  0
LWPOLYLINE
  5
38D
100
AcDbEntity
  8
SUPERFICI
100
AcDbPolyline
 62
250
  6
CONTINUOUS
 90
3
 70
0
 10
42.0809267924
 20
-76.0069090657
 10
42.0319966484
 20
-76.0337270946
 10
41.9781676829
 20
-76.0687942117
  0
LINE
  5
38E
100
AcDbEntity
  8
0
100
AcDbLine
 62
250
  6
CONTINUOUS
 10
42.2597387917
 20
-55.9348125087
 11
41.9778977523
 21
-56.0033878911
  0
LINE
  5
38F
100
AcDbEntity
  8
0
100
AcDbLine
 62
250
  6
CONTINUOUS
 10
36.9686607432
 20
-57.3326417262
 11
37.1990480369
 21
-57.2785220278
  0
LWPOLYLINE
  5
390
100
AcDbEntity
  8
0
100
AcDbPolyline
 62
7
  6
CONTINUOUS
 90
3
 70
0
 10
41.0499640343
 20
-55.9227852909
 10
40.0073420448
 20
-56.1613970585
 10
39.7182701605
 20
-56.2267686432
  0
LINE
  5
391
100
AcDbEntity
  8
0
100
AcDbLine
 62
250
  6
CONTINUOUS
 10
42.575920683
 20
-55.8628972012
 11
42.2597387917
 21
-55.9348125087
  0
LINE
  5
392
100
AcDbEntity
  8
0
100
AcDbLine
 62
250
  6
CONTINUOUS
 10
37.1990480369
 20
-57.2785220278
 11
37.4164468972
 21
-57.2290842378
  0
LINE
  5
393
100
AcDbEntity
  8
0
100
AcDbLine
 62
7
  6
CONTINUOUS
 10
39.7182701605
 20
-56.2267686432
 11
39.4371911204
 21
-56.2893775463
  0
LINE
  5
394
100
AcDbEntity
  8
0
100
AcDbLine
 62
7
  6
CONTINUOUS
 10
37.3053580149
 20
-56.7461334073
 11
37.434066711
 21
-56.7175723374
  0
LINE
  5
395
100
AcDbEntity
  8
0
100
AcDbLine
 62
7
  6
CONTINUOUS
 10
36.8738351965
 20
-56.8375587223
 11
36.8753682306
 21
-56.8372186125
  0
LWPOLYLINE
  5
396
100
AcDbEntity
  8
0
100
AcDbPolyline
 62
7
  6
CONTINUOUS
 90
3
 70
0
 10
41.9537641984
 20
-55.7215066168
 10
41.5056173663
 20
-55.8200282928
 10
41.0499640343
 20
-55.9227852909
  0
LWPOLYLINE
  5
397
100
AcDbEntity
  8
0
100
AcDbPolyline
 62
7
  6
CONTINUOUS
 90
4
 70
0
 10
39.4371911204
 20
-56.2893775463
 10
39.1680750194
 20
-56.3481667739
 10
38.8999021149
 20
-56.4054463692
 10
38.6305993399
 20
-56.4616186894
  0
LINE
  5
398
100
AcDbEntity
  8
0
100
AcDbLine
 62
7
  6
CONTINUOUS
 10
41.9381571458
 20
-55.7260542421
 11
42.25582005
 21
-55.6570143187
  0
LINE
  5
399
100
AcDbEntity
  8
0
100
AcDbLine
 62
250
  6
CONTINUOUS
 10
37.4164468972
 20
-57.2290842378
 11
37.6208573239
 21
-57.1843283563
  0
LWPOLYLINE
  5
39A
100
AcDbEntity
  8
0
100
AcDbPolyline
 62
7
  6
CONTINUOUS
 90
4
 70
0
 10
37.434066711
 20
-56.7175723374
 10
37.627329407
 20
-56.6760217378
 10
37.8210888832
 20
-56.6357012694
 10
38.0148539941
 20
-56.5967090284
  0
LWPOLYLINE
  5
39B
100
AcDbEntity
  8
0
100
AcDbPolyline
 62
7
  6
CONTINUOUS
 90
3
 70
0
 10
37.7334613444
 20
-56.6425179353
 10
37.3993750179
 20
-56.7139705854
 10
37.1101545954
 20
-56.7803311184
  0
LINE
  5
39C
100
AcDbEntity
  8
0
100
AcDbLine
 62
7
  6
CONTINUOUS
 10
37.6413892523
 20
-58.2726730466
 11
37.6708573239
 21
-58.2664793657
  0
LINE
  5
39D
100
AcDbEntity
  8
0
100
AcDbLine
 62
7
  6
CONTINUOUS
 10
41.9537641984
 20
-55.7215066168
 11
42.276249358
 21
-55.6527179244
  0
LINE
  5
39E
100
AcDbEntity
  8
0
100
AcDbLine
 62
7
  6
CONTINUOUS
 10
42.332041324
 20
-55.641062887
 11
42.276249358
 21
-55.6527179244
  0
LWPOLYLINE
  5
39F
100
AcDbEntity
  8
0
100
AcDbPolyline
 62
7
  6
CONTINUOUS
 90
3
 70
0
 10
38.0882748832
 20
-56.5818500755
 10
37.3392584178
 20
-56.738140924
 10
36.8557521687
 20
-56.8497185934
  0
LINE
  5
3A0
100
AcDbEntity
  8
0
100
AcDbLine
 62
7
  6
CONTINUOUS
 10
38.6305993399
 20
-56.4616186894
 11
38.0965013243
 21
-56.5702204991
  0
LINE
  5
3A1
100
AcDbEntity
  8
0
100
AcDbLine
 62
7
  6
CONTINUOUS
 10
38.0965013243
 20
-56.5702204991
 11
37.7334613444
 21
-56.6425179353
  0
LWPOLYLINE
  5
3A2
100
AcDbEntity
  8
0
100
AcDbPolyline
 62
250
  6
CONTINUOUS
 90
5
 70
0
 10
38.1787076122
 20
-56.5536349168
 10
38.4183132182
 20
-56.5066376534
 10
38.7978949424
 20
-56.4379618929
 10
39.182346486
 20
-56.374747252
 10
39.5722233657
 20
-56.3161697663
  0
LINE
  5
3A3
100
AcDbEntity
  8
0
100
AcDbLine
 62
7
  6
CONTINUOUS
 10
38.0148539941
 20
-56.5967090284
 11
38.2093156154
 21
-56.5589094824
  0
LWPOLYLINE
  5
3A4
100
AcDbEntity
  8
0
100
AcDbPolyline
 62
250
  6
CONTINUOUS
 90
15
 70
0
 10
38.3539770733
 20
-57.0360305113
 10
38.5239494626
 20
-57.0040362703
 10
38.7047042974
 20
-56.9715861448
 10
38.8962415776
 20
-56.9386801349
 10
39.0975615494
 20
-56.9051994976
 10
39.3096639666
 20
-56.8712629759
 10
39.5355480906
 20
-56.8372267986
 10
39.7821911074
 20
-56.8022932079
 10
40.042615831
 20
-56.7672599615
 10
40.2988899643
 20
-56.7348765624
 10
40.5458058253
 20
-56.7063106385
 10
40.7885710959
 20
-56.6803945619
 10
41.024876526
 20
-56.6563749509
 10
41.2537560213
 20
-56.6342667702
 10
41.476175676
 20
-56.6140550551
  0
LWPOLYLINE
  5
3A5
100
AcDbEntity
  8
0
100
AcDbPolyline
 62
7
  6
CONTINUOUS
 90
6
 70
0
 10
38.2093156154
 20
-56.5589094824
 10
38.4047687029
 20
-56.5222578664
 10
38.5999363814
 20
-56.4869955252
 10
38.7958695877
 20
-56.4529324864
 10
38.9925819883
 20
-56.4200777278
 10
39.0896011678
 20
-56.404532164
  0
LINE
  5
3A6
100
AcDbEntity
  8
0
100
AcDbLine
 62
7
  6
CONTINUOUS
 10
38.6424534034
 20
-56.4818792972
 11
38.0882748832
 21
-56.5818500755
  0
LWPOLYLINE
  5
3A7
100
AcDbEntity
  8
0
100
AcDbPolyline
 62
250
  6
CONTINUOUS
 90
5
 70
0
 10
44.1727287974
 20
-55.5584352182
 10
43.7256920428
 20
-55.6355050165
 10
43.3095158757
 20
-55.7124198783
 10
42.9259367531
 20
-55.7884840002
 10
42.575920683
 20
-55.8628972012
  0
LINE
  5
3A8
100
AcDbEntity
  8
0
100
AcDbLine
 62
7
  6
CONTINUOUS
 10
38.6473016366
 20
-58.0787506292
 11
38.7569066702
 21
-58.0602278215
  0
LINE
  5
3A9
100
AcDbEntity
  8
0
100
AcDbLine
 62
250
  6
CONTINUOUS
 10
40.5539177714
 20
-56.204230169
 11
40.8203723786
 21
-56.1604075754
  0
LWPOLYLINE
  5
3AA
100
AcDbEntity
  8
0
100
AcDbPolyline
 62
7
  6
CONTINUOUS
 90
5
 70
0
 10
39.1409266152
 20
-56.3933174007
 10
38.8620518983
 20
-56.4368493309
 10
38.5938534417
 20
-56.4812324975
 10
38.3289385362
 20
-56.5276774537
 10
38.051342973
 20
-56.5793257222
  0
LINE
  5
3AB
100
AcDbEntity
  8
0
100
AcDbLine
 62
250
  6
CONTINUOUS
 10
40.8203723786
 20
-56.1604075754
 11
40.9287154962
 21
-56.1436467457
  0
LWPOLYLINE
  5
3AC
100
AcDbEntity
  8
0
100
AcDbPolyline
 62
250
  6
CONTINUOUS
 90
3
 70
0
 10
40.5114114563
 20
-56.210857981
 10
40.5256465976
 20
-56.2086869571
 10
40.5539177714
 20
-56.204230169
  0
LINE
  5
3AD
100
AcDbEntity
  8
0
100
AcDbLine
 62
250
  6
CONTINUOUS
 10
40.4968146344
 20
-56.2129962937
 11
40.5114114563
 21
-56.210857981
  0
LWPOLYLINE
  5
3AE
100
AcDbEntity
  8
0
100
AcDbPolyline
 62
250
  6
CONTINUOUS
 90
5
 70
0
 10
40.9287154962
 20
-56.1436467457
 10
41.1762894277
 20
-56.1075531879
 10
41.3139001373
 20
-56.0881596288
 10
41.4628649781
 20
-56.0679870168
 10
41.6238961042
 20
-56.0471468847
  0
LINE
  5
3AF
100
AcDbEntity
  8
0
100
AcDbLine
 62
7
  6
CONTINUOUS
 10
39.437970031
 20
-56.3497198891
 11
39.1409266152
 21
-56.3933174007
  0
LINE
  5
3B0
100
AcDbEntity
  8
0
100
AcDbLine
 62
250
  6
CONTINUOUS
 10
39.5722233657
 20
-56.3161697663
 11
39.9748878826
 21
-56.2604899905
  0
LINE
  5
3B1
100
AcDbEntity
  8
0
100
AcDbLine
 62
7
  6
CONTINUOUS
 10
39.6491800799
 20
-56.3200863145
 11
39.4259500479
 21
-56.351386461
  0
LINE
  5
3B2
100
AcDbEntity
  8
0
100
AcDbLine
 62
250
  6
CONTINUOUS
 10
39.9748878826
 20
-56.2604899905
 11
40.3956791483
 21
-56.2064037049
  0
LINE
  5
3B3
100
AcDbEntity
  8
0
100
AcDbLine
 62
250
  6
CONTINUOUS
 10
40.4160235532
 20
-56.2042443041
 11
40.3954139299
 21
-56.206783464
  0
LINE
  5
3B4
100
AcDbEntity
  8
0
100
AcDbLine
 62
250
  6
CONTINUOUS
 10
41.6238961042
 20
-56.0471468847
 11
41.9781716511
 21
-56.003268059
  0
LWPOLYLINE
  5
3B5
100
AcDbEntity
  8
0
100
AcDbPolyline
 62
7
  6
CONTINUOUS
 90
9
 70
0
 10
46.821779842
 20
-54.9637958886
 10
46.1582691416
 20
-55.0387205188
 10
45.5192427471
 20
-55.1178410976
 10
44.9078543134
 20
-55.2004593444
 10
44.3261628364
 20
-55.2859154709
 10
43.7758649053
 20
-55.3735205031
 10
43.2590001084
 20
-55.4624782242
 10
42.7772117072
 20
-55.551949436
 10
42.332041324
 20
-55.641062887
  0
LINE
  5
3B6
100
AcDbEntity
  8
0
100
AcDbLine
 62
7
  6
CONTINUOUS
 10
46.3824868181
 20
-55.0149211213
 11
46.7476702644
 21
-54.9742874424
  0
LINE
  5
3B7
100
AcDbEntity
  8
0
100
AcDbLine
 62
7
  6
CONTINUOUS
 10
46.7476702644
 20
-54.9742874424
 11
47.0090023974
 21
-54.9464458509
  0
LINE
  5
3B8
100
AcDbEntity
  8
0
100
AcDbLine
 62
7
  6
CONTINUOUS
 10
47.5069496664
 20
-54.8936478537
 11
46.821779842
 21
-54.9637958886
  0
LINE
  5
3B9
100
AcDbEntity
  8
0
100
AcDbLine
 62
7
  6
CONTINUOUS
 10
48.2120711088
 20
-54.8286721595
 11
47.5069496664
 21
-54.8936478537
  0
LWPOLYLINE
  5
3BA
100
AcDbEntity
  8
0
100
AcDbPolyline
 62
7
  6
CONTINUOUS
 90
4
 70
0
 10
47.8584316337
 20
-54.8631785673
 10
48.2748555846
 20
-54.8261673222
 10
48.5928121398
 20
-54.7994868623
 10
48.8443687099
 20
-54.7793407712
  0
LINE
  5
3BB
100
AcDbEntity
  8
0
100
AcDbLine
 62
250
  6
CONTINUOUS
 10
41.476175676
 20
-56.6140550551
 11
41.9028224758
 21
-56.576762648
  0
LINE
  5
3BC
100
AcDbEntity
  8
0
100
AcDbLine
 62
7
  6
CONTINUOUS
 10
48.936035292
 20
-54.7691198668
 11
48.2120711088
 21
-54.8286721595
  0
LINE
  5
3BD
100
AcDbEntity
  8
0
100
AcDbLine
 62
250
  6
CONTINUOUS
 10
41.9028224758
 20
-56.576762648
 11
42.3077352434
 21
-56.5433918187
  0
LWPOLYLINE
  5
3BE
100
AcDbEntity
  8
0
100
AcDbPolyline
 62
250
  6
CONTINUOUS
 90
10
 70
0
 10
49.3509497272
 20
-54.9632547128
 10
48.6940462614
 20
-55.01443964
 10
48.0532105115
 20
-55.0703276973
 10
47.4305231696
 20
-55.1305349139
 10
46.8275178297
 20
-55.1947129628
 10
46.2460198219
 20
-55.2625052796
 10
45.6883720485
 20
-55.3333231228
 10
45.155794601
 20
-55.4066345963
 10
44.6497749515
 20
-55.4818967081
 10
44.1727287974
 20
-55.5584352182
  0
LINE
  5
3BF
100
AcDbEntity
  8
0
100
AcDbLine
 62
250
  6
CONTINUOUS
 10
42.3077352434
 20
-56.5433918187
 11
42.6881262609
 21
-56.5138018395
  0
LINE
  5
3C0
100
AcDbEntity
  8
0
100
AcDbLine
 62
7
  6
CONTINUOUS
 10
43.1941474447
 20
-55.980802462
 11
43.1375008642
 21
-55.9849646432
  0
LWPOLYLINE
  5
3C1
100
AcDbEntity
  8
0
100
AcDbPolyline
 62
7
  6
CONTINUOUS
 90
4
 70
0
 10
42.6754637899
 20
-56.0189134182
 10
42.2732946235
 20
-56.0484633208
 10
41.3797955587
 20
-56.1237878844
 10
41.0658467946
 20
-56.1559805524
  0
LWPOLYLINE
  5
3C2
100
AcDbEntity
  8
0
100
AcDbPolyline
 62
250
  6
CONTINUOUS
 90
5
 70
0
 10
42.6881262609
 20
-56.5138018395
 10
43.1153980021
 20
-56.4830746771
 10
43.3542449959
 20
-56.4667472267
 10
43.6029005558
 20
-56.4505171505
 10
43.8696447307
 20
-56.4341121504
  0
LWPOLYLINE
  5
3C3
100
AcDbEntity
  8
0
100
AcDbPolyline
 62
7
  6
CONTINUOUS
 90
10
 70
0
 10
43.9205162025
 20
-55.9344905627
 10
43.0686478405
 20
-55.9894029893
 10
42.2364863176
 20
-56.0518608723
 10
41.4241098693
 20
-56.1212707273
 10
40.6350915755
 20
-56.1977136792
 10
39.8652674967
 20
-56.2903902083
 10
39.1031369608
 20
-56.4021907573
 10
38.3449942228
 20
-56.5333334622
 10
37.5958465049
 20
-56.6827045268
 10
36.8557940267
 20
-56.8498935081
  0
LINE
  5
3C4
100
AcDbEntity
  8
0
100
AcDbLine
 62
250
  6
CONTINUOUS
 10
43.8696447307
 20
-56.4341121504
 11
44.403205945
 21
-56.4029535669
  0
LINE
  5
3C5
100
AcDbEntity
  8
0
100
AcDbLine
 62
250
  6
CONTINUOUS
 10
44.403205945
 20
-56.4029535669
 11
44.8383277354
 21
-56.3787289801
  0
LINE
  5
3C6
100
AcDbEntity
  8
0
100
AcDbLine
 62
250
  6
CONTINUOUS
 10
44.8383277354
 20
-56.3787289801
 11
45.3383783894
 21
-56.3520306372
  0
LINE
  5
3C7
100
AcDbEntity
  8
0
100
AcDbLine
 62
250
  6
CONTINUOUS
 10
45.3383783894
 20
-56.3520306372
 11
45.7953632324
 21
-56.3287477713
  0
LINE
  5
3C8
100
AcDbEntity
  8
0
100
AcDbLine
 62
250
  6
CONTINUOUS
 10
45.7953632324
 20
-56.3287477713
 11
46.2726347522
 21
-56.3055331496
  0
LINE
  5
3C9
100
AcDbEntity
  8
0
100
AcDbLine
 62
250
  6
CONTINUOUS
 10
46.2726347522
 20
-56.3055331496
 11
46.7335506736
 21
-56.2841745944
  0
LINE
  5
3CA
100
AcDbEntity
  8
0
100
AcDbLine
 62
250
  6
CONTINUOUS
 10
46.7335506736
 20
-56.2841745944
 11
47.2251474961
 21
-56.2626082489
  0
LINE
  5
3CB
100
AcDbEntity
  8
0
100
AcDbLine
 62
250
  6
CONTINUOUS
 10
47.2251474961
 20
-56.2626082489
 11
47.7765962605
 21
-56.2398549172
  0
LINE
  5
3CC
100
AcDbEntity
  8
0
100
AcDbLine
 62
250
  6
CONTINUOUS
 10
47.7765962605
 20
-56.2398549172
 11
48.1770700934
 21
-56.2243014961
  0
LINE
  5
3CD
100
AcDbEntity
  8
0
100
AcDbLine
 62
250
  6
CONTINUOUS
 10
48.1770700934
 20
-56.2243014961
 11
48.6066613995
 21
-56.2085030732
  0
LINE
  5
3CE
100
AcDbEntity
  8
0
100
AcDbLine
 62
250
  6
CONTINUOUS
 10
48.6066613995
 20
-56.2085030732
 11
49.0770355855
 21
-56.1922684816
  0
LINE
  5
3CF
100
AcDbEntity
  8
0
100
AcDbLine
 62
250
  6
CONTINUOUS
 10
49.0770355855
 20
-56.1922684816
 11
49.573678268
 21
-56.1763414512
  0
LINE
  5
3D0
100
AcDbEntity
  8
0
100
AcDbLine
 62
250
  6
CONTINUOUS
 10
49.573678268
 20
-56.1763414512
 11
50.0966253299
 21
-56.1609072551
  0
LINE
  5
3D1
100
AcDbEntity
  8
0
100
AcDbLine
 62
250
  6
CONTINUOUS
 10
50.0966253299
 20
-56.1609072551
 11
50.6734186382
 21
-56.1455447176
  0
LINE
  5
3D2
100
AcDbEntity
  8
0
100
AcDbLine
 62
250
  6
CONTINUOUS
 10
50.6734186382
 20
-56.1455447176
 11
51.2106098173
 21
-56.132565541
  0
LINE
  5
3D3
100
AcDbEntity
  8
0
100
AcDbLine
 62
250
  6
CONTINUOUS
 10
51.2106098173
 20
-56.132565541
 11
51.6992105916
 21
-56.1221646529
  0
LINE
  5
3D4
100
AcDbEntity
  8
0
100
AcDbLine
 62
250
  6
CONTINUOUS
 10
51.6992105916
 20
-56.1221646529
 11
52.1993423491
 21
-56.1127209267
  0
LINE
  5
3D5
100
AcDbEntity
  8
0
100
AcDbLine
 62
250
  6
CONTINUOUS
 10
69.4638168955
 20
-56.0033878911
 11
69.1583384921
 21
-56.0086603595
  0
LINE
  5
3D6
100
AcDbEntity
  8
0
100
AcDbLine
 62
250
  6
CONTINUOUS
 10
52.1993423491
 20
-56.1127209267
 11
52.6984917588
 21
-56.1045612408
  0
LINE
  5
3D7
100
AcDbEntity
  8
0
100
AcDbLine
 62
250
  6
CONTINUOUS
 10
52.6984917588
 20
-56.1045612408
 11
53.3711921757
 21
-56.0954130973
  0
LINE
  5
3D8
100
AcDbEntity
  8
0
100
AcDbLine
 62
250
  6
CONTINUOUS
 10
69.1583384921
 20
-56.0086603595
 11
68.7089999511
 21
-56.0146164514
  0
LINE
  5
3D9
100
AcDbEntity
  8
0
100
AcDbLine
 62
250
  6
CONTINUOUS
 10
53.3711921757
 20
-56.0954130973
 11
53.9330602305
 21
-56.0896774636
  0
LWPOLYLINE
  5
3DA
100
AcDbEntity
  8
0
100
AcDbPolyline
 62
250
  6
CONTINUOUS
 90
7
 70
0
 10
53.9330602305
 20
-56.0896774636
 10
54.5800784914
 20
-56.0847902259
 10
54.8028541016
 20
-56.0835004464
 10
55.0284347834
 20
-56.0828633125
 10
55.2564372253
 20
-56.0830270214
 10
55.4872447388
 20
-56.083843376
 10
55.7208573239
 20
-56.0853123763
  0
LWPOLYLINE
  5
3DB
100
AcDbEntity
  8
0
100
AcDbPolyline
 62
250
  6
CONTINUOUS
 90
10
 70
0
 10
55.7208573239
 20
-54.7430069157
 10
54.9902930699
 20
-54.7452378266
 10
54.2614672929
 20
-54.7529615342
 10
53.5363991573
 20
-54.766241958
 10
52.8167743799
 20
-54.785124571
 10
52.1041736099
 20
-54.8096596572
 10
51.3996449294
 20
-54.8398487175
 10
50.7049412183
 20
-54.8756793878
 10
50.0217416246
 20
-54.9169361439
 10
49.3509497272
 20
-54.9632547128
  0
LWPOLYLINE
  5
3DC
100
AcDbEntity
  8
0
100
AcDbPolyline
 62
7
  6
CONTINUOUS
 90
10
 70
0
 10
55.7208572845
 20
-54.516009133
 10
55.1689726472
 20
-54.5176268862
 10
54.3685580365
 20
-54.5257045606
 10
53.5692348206
 20
-54.540608376
 10
52.7729076191
 20
-54.562352308
 10
51.9824551516
 20
-54.5908783915
 10
51.2013764954
 20
-54.6260199004
 10
50.4323827806
 20
-54.6675589395
 10
49.6768128448
 20
-54.7153252947
 10
48.936035292
 20
-54.7691198668
  0
LINE
  5
3DD
100
AcDbEntity
  8
ASSI
100
AcDbLine
 62
7
  6
CONTINUOUS
 10
56.0611553239
 20
-55.5863136862
 11
56.1493495882
 21
-55.5864829137
  0
LWPOLYLINE
  5
3DE
100
AcDbEntity
  8
0
100
AcDbPolyline
 62
250
  6
CONTINUOUS
 90
5
 70
0
 10
56.6067955928
 20
-56.0833556184
 10
56.3889513748
 20
-56.0827805747
 10
56.1688258383
 20
-56.0829880788
 10
55.9461278213
 20
-56.0838320127
 10
55.7208573239
 20
-56.0853123763
  0
LWPOLYLINE
  5
3DF
100
AcDbEntity
  8
0
100
AcDbPolyline
 62
250
  6
CONTINUOUS
 90
10
 70
0
 10
55.7208573239
 20
-54.7430069157
 10
56.4514215779
 20
-54.7452378266
 10
57.1802473549
 20
-54.7529615342
 10
57.9053154905
 20
-54.766241958
 10
58.6249402679
 20
-54.785124571
 10
59.3375410379
 20
-54.8096596572
 10
60.0420697184
 20
-54.8398487175
 10
60.7367734295
 20
-54.8756793878
 10
61.4199730232
 20
-54.9169361439
 10
62.0907649206
 20
-54.9632547128
  0
LINE
  5
3E0
100
AcDbEntity
  8
0
100
AcDbLine
 62
250
  6
CONTINUOUS
 10
57.4505830052
 20
-56.0891681307
 11
56.6067955928
 21
-56.0833556184
  0
LINE
  5
3E1
100
AcDbEntity
  8
0
100
AcDbLine
 62
250
  6
CONTINUOUS
 10
57.9925499705
 20
-56.0945198435
 11
57.4505830052
 21
-56.0891681307
  0
LINE
  5
3E2
100
AcDbEntity
  8
0
100
AcDbLine
 62
250
  6
CONTINUOUS
 10
58.6241858751
 20
-56.1027816566
 11
57.9925499705
 21
-56.0945198435
  0
LINE
  5
3E3
100
AcDbEntity
  8
0
100
AcDbLine
 62
250
  6
CONTINUOUS
 10
59.0984023243
 20
-56.1102406904
 11
58.6241858751
 21
-56.1027816566
  0
LWPOLYLINE
  5
3E4
100
AcDbEntity
  8
0
100
AcDbPolyline
 62
250
  6
CONTINUOUS
 90
3
 70
0
 10
41.9778977523
 20
-56.0033878911
 10
42.1277927032
 20
-56.0061453444
 10
42.735673195
 20
-56.0146519876
  0
LINE
  5
3E5
100
AcDbEntity
  8
0
100
AcDbLine
 62
250
  6
CONTINUOUS
 10
59.8160630612
 20
-56.1236346713
 11
59.0984023243
 21
-56.1102406904
  0
LINE
  5
3E6
100
AcDbEntity
  8
0
100
AcDbLine
 62
250
  6
CONTINUOUS
 10
60.2933181891
 20
-56.1340262837
 11
59.8160630612
 21
-56.1236346713
  0
LINE
  5
3E7
100
AcDbEntity
  8
0
100
AcDbLine
 62
250
  6
CONTINUOUS
 10
60.831915019
 20
-56.1471352091
 11
60.2933181891
 21
-56.1340262837
  0
LINE
  5
3E8
100
AcDbEntity
  8
0
100
AcDbLine
 62
250
  6
CONTINUOUS
 10
61.3656559488
 20
-56.1614892086
 11
60.831915019
 21
-56.1471352091
  0
LINE
  5
3E9
100
AcDbEntity
  8
0
100
AcDbLine
 62
250
  6
CONTINUOUS
 10
61.8766442786
 20
-56.1766066984
 11
61.3656559488
 21
-56.1614892086
  0
LINE
  5
3EA
100
AcDbEntity
  8
0
100
AcDbLine
 62
250
  6
CONTINUOUS
 10
62.5873619824
 20
-56.1998170433
 11
61.8766442786
 21
-56.1766066984
  0
LINE
  5
3EB
100
AcDbEntity
  8
0
100
AcDbLine
 62
250
  6
CONTINUOUS
 10
63.2273030205
 20
-56.2228900803
 11
62.5873619824
 21
-56.1998170433
  0
LINE
  5
3EC
100
AcDbEntity
  8
0
100
AcDbLine
 62
250
  6
CONTINUOUS
 10
63.9806882182
 20
-56.2526898064
 11
63.2273030205
 21
-56.2228900803
  0
LINE
  5
3ED
100
AcDbEntity
  8
0
100
AcDbLine
 62
250
  6
CONTINUOUS
 10
64.7830643007
 20
-56.2875848054
 11
63.9806882182
 21
-56.2526898064
  0
LINE
  5
3EE
100
AcDbEntity
  8
0
100
AcDbLine
 62
250
  6
CONTINUOUS
 10
65.5386375808
 20
-56.3234137442
 11
64.7830643007
 21
-56.2875848054
  0
LINE
  5
3EF
100
AcDbEntity
  8
0
100
AcDbLine
 62
250
  6
CONTINUOUS
 10
66.2813672157
 20
-56.3614004504
 11
65.5386375808
 21
-56.3234137442
  0
LINE
  5
3F0
100
AcDbEntity
  8
0
100
AcDbLine
 62
250
  6
CONTINUOUS
 10
66.8232994491
 20
-56.3908521958
 11
66.2813672157
 21
-56.3614004504
  0
LINE
  5
3F1
100
AcDbEntity
  8
0
100
AcDbLine
 62
250
  6
CONTINUOUS
 10
67.284653909
 20
-56.4170851765
 11
66.8232994491
 21
-56.3908521958
  0
LWPOLYLINE
  5
3F2
100
AcDbEntity
  8
0
100
AcDbPolyline
 62
7
  6
CONTINUOUS
 90
10
 70
0
 10
67.5212096862
 20
-55.9343006044
 10
68.3730668073
 20
-55.9894029893
 10
69.2052283302
 20
-56.0518608723
 10
70.0176047785
 20
-56.1212707273
 10
70.8066230723
 20
-56.1977136792
 10
71.5764471511
 20
-56.2903902083
 10
72.338577687
 20
-56.4021907573
 10
73.096720425
 20
-56.5333334622
 10
73.8458681429
 20
-56.6827045268
 10
74.5859206211
 20
-56.8498935081
  0
LWPOLYLINE
  5
3F3
100
AcDbEntity
  8
0
100
AcDbPolyline
 62
250
  6
CONTINUOUS
 90
4
 70
0
 10
68.2805475574
 20
-56.479775641
 10
68.0503627072
 20
-56.4642387286
 10
67.7996587293
 20
-56.4482447895
 10
67.284653909
 20
-56.4170851765
  0
LWPOLYLINE
  5
3F4
100
AcDbEntity
  8
0
100
AcDbPolyline
 62
7
  6
CONTINUOUS
 90
10
 70
0
 10
62.5056793559
 20
-54.7691198668
 10
61.7649018031
 20
-54.7153252947
 10
61.0093318673
 20
-54.6675589395
 10
60.2403381525
 20
-54.6260199004
 10
59.4592594964
 20
-54.5908783915
 10
58.6688070288
 20
-54.562352308
 10
57.8724798273
 20
-54.540608376
 10
57.0731566115
 20
-54.5257045606
 10
56.2727420008
 20
-54.5176268862
 10
55.7208573634
 20
-54.516009133
  0
LINE
  5
3F5
100
AcDbEntity
  8
0
100
AcDbLine
 62
250
  6
CONTINUOUS
 10
68.7054334449
 20
-56.510317667
 11
68.2805475574
 21
-56.479775641
  0
LINE
  5
3F6
100
AcDbEntity
  8
0
100
AcDbLine
 62
7
  6
CONTINUOUS
 10
68.3042137836
 20
-55.9849646432
 11
68.2475672031
 21
-55.980802462
  0
LWPOLYLINE
  5
3F7
100
AcDbEntity
  8
0
100
AcDbPolyline
 62
250
  6
CONTINUOUS
 90
10
 70
0
 10
62.0907649206
 20
-54.9632547128
 10
62.7476683864
 20
-55.01443964
 10
63.3885041363
 20
-55.0703276973
 10
64.0111914782
 20
-55.1305349139
 10
64.6141968181
 20
-55.1947129628
 10
65.1956948259
 20
-55.2625052796
 10
65.7533425993
 20
-55.3333231228
 10
66.2859200468
 20
-55.4066345963
 10
66.7919396963
 20
-55.4818967081
 10
67.2689858504
 20
-55.5584352182
  0
LINE
  5
3F8
100
AcDbEntity
  8
0
100
AcDbLine
 62
250
  6
CONTINUOUS
 10
69.0771522948
 20
-56.5387957735
 11
68.7054334449
 21
-56.510317667
  0
LINE
  5
3F9
100
AcDbEntity
  8
0
100
AcDbLine
 62
7
  6
CONTINUOUS
 10
63.2296435391
 20
-54.8286721595
 11
62.5056793559
 21
-54.7691198668
  0
LWPOLYLINE
  5
3FA
100
AcDbEntity
  8
0
100
AcDbPolyline
 62
7
  6
CONTINUOUS
 90
3
 70
0
 10
63.1668590632
 20
-54.8261673222
 10
62.848902508
 20
-54.7994868623
 10
62.5973459379
 20
-54.7793407712
  0
LWPOLYLINE
  5
3FB
100
AcDbEntity
  8
0
100
AcDbPolyline
 62
250
  6
CONTINUOUS
 90
3
 70
0
 10
69.6573862864
 20
-56.5869317217
 10
69.4574746088
 20
-56.5699100253
 10
69.0771522948
 20
-56.5387957735
  0
LINE
  5
3FC
100
AcDbEntity
  8
0
100
AcDbLine
 62
7
  6
CONTINUOUS
 10
63.5832830141
 20
-54.8631785673
 11
63.1668590632
 21
-54.8261673222
  0
LINE
  5
3FD
100
AcDbEntity
  8
0
100
AcDbLine
 62
7
  6
CONTINUOUS
 10
63.9347649814
 20
-54.8936478537
 11
63.2296435391
 21
-54.8286721595
  0
LINE
  5
3FE
100
AcDbEntity
  8
0
100
AcDbLine
 62
7
  6
CONTINUOUS
 10
64.6199348058
 20
-54.9637958886
 11
63.9347649814
 21
-54.8936478537
  0
LWPOLYLINE
  5
3FF
100
AcDbEntity
  8
0
100
AcDbPolyline
 62
7
  6
CONTINUOUS
 90
4
 70
0
 10
70.3758678532
 20
-56.1559805524
 10
70.0619190891
 20
-56.1237878844
 10
69.1684200243
 20
-56.0484633208
 10
68.7662508579
 20
-56.0189134182
  0
LINE
  5
400
100
AcDbEntity
  8
0
100
AcDbLine
 62
7
  6
CONTINUOUS
 10
64.6940443833
 20
-54.9742874424
 11
64.4327122504
 21
-54.9464458509
  0
LINE
  5
401
100
AcDbEntity
  8
0
100
AcDbLine
 62
7
  6
CONTINUOUS
 10
65.0592278297
 20
-55.0149211213
 11
64.6940443833
 21
-54.9742874424
  0
LINE
  5
402
100
AcDbEntity
  8
0
100
AcDbLine
 62
7
  6
CONTINUOUS
 10
65.2834455062
 20
-55.0387205188
 11
64.6199348058
 21
-54.9637958886
  0
LINE
  5
403
100
AcDbEntity
  8
0
100
AcDbLine
 62
250
  6
CONTINUOUS
 10
71.0256910946
 20
-56.2042443041
 11
71.0463007179
 21
-56.206783464
  0
LINE
  5
404
100
AcDbEntity
  8
0
100
AcDbLine
 62
250
  6
CONTINUOUS
 10
71.4668267652
 20
-56.2604899905
 11
71.0460354995
 21
-56.2064037049
  0
LWPOLYLINE
  5
405
100
AcDbEntity
  8
0
100
AcDbPolyline
 62
250
  6
CONTINUOUS
 90
4
 70
0
 10
70.1278145105
 20
-56.0881596288
 10
69.9788496697
 20
-56.0679870168
 10
69.8178185436
 20
-56.0471468847
 10
69.4635429967
 20
-56.003268059
  0
LINE
  5
406
100
AcDbEntity
  8
0
100
AcDbLine
 62
250
  6
CONTINUOUS
 10
71.8694912821
 20
-56.3161697663
 11
71.4668267652
 21
-56.2604899905
  0
LINE
  5
407
100
AcDbEntity
  8
0
100
AcDbLine
 62
7
  6
CONTINUOUS
 10
72.0157645999
 20
-56.351386461
 11
71.8011648391
 21
-56.3212750805
  0
LINE
  5
408
100
AcDbEntity
  8
0
100
AcDbLine
 62
250
  6
CONTINUOUS
 10
70.3938173883
 20
-56.1260392962
 11
70.1278145105
 21
-56.0881596288
  0
LINE
  5
409
100
AcDbEntity
  8
0
100
AcDbLine
 62
7
  6
CONTINUOUS
 10
72.0653037399
 20
-56.3585873989
 11
71.9679825915
 21
-56.3446165686
  0
LINE
  5
40A
100
AcDbEntity
  8
0
100
AcDbLine
 62
250
  6
CONTINUOUS
 10
70.9449000134
 20
-56.2129962937
 11
70.9303031915
 21
-56.210857981
  0
LINE
  5
40B
100
AcDbEntity
  8
0
100
AcDbLine
 62
7
  6
CONTINUOUS
 10
72.3007880326
 20
-56.3933174007
 11
72.0157645999
 21
-56.351386461
  0
LWPOLYLINE
  5
40C
100
AcDbEntity
  8
0
100
AcDbPolyline
 62
250
  6
CONTINUOUS
 90
3
 70
0
 10
70.6213422692
 20
-56.1604075754
 10
70.5129991516
 20
-56.1436467457
 10
70.3938173883
 20
-56.1260392962
  0
LWPOLYLINE
  5
40D
100
AcDbEntity
  8
0
100
AcDbPolyline
 62
250
  6
CONTINUOUS
 90
3
 70
0
 10
70.9303031915
 20
-56.210857981
 10
70.9019352942
 20
-56.2064832122
 10
70.8877968764
 20
-56.204230169
  0
LINE
  5
40E
100
AcDbEntity
  8
0
100
AcDbLine
 62
250
  6
CONTINUOUS
 10
70.8877968764
 20
-56.204230169
 11
70.6213422692
 21
-56.1604075754
  0
LINE
  5
40F
100
AcDbEntity
  8
0
100
AcDbLine
 62
7
  6
CONTINUOUS
 10
72.6848059049
 20
-58.0602273154
 11
72.7944130112
 21
-58.0787506292
  0
LWPOLYLINE
  5
410
100
AcDbEntity
  8
0
100
AcDbPolyline
 62
250
  6
CONTINUOUS
 90
5
 70
0
 10
67.2689858504
 20
-55.5584352182
 10
67.716022605
 20
-55.6355050165
 10
68.1321987721
 20
-55.7124198783
 10
68.5157778947
 20
-55.7884840002
 10
68.8657939648
 20
-55.8628972012
  0
LINE
  5
411
100
AcDbEntity
  8
0
100
AcDbLine
 62
7
  6
CONTINUOUS
 10
73.3534397646
 20
-56.5818500755
 11
72.7992612444
 21
-56.4818792972
  0
LWPOLYLINE
  5
412
100
AcDbEntity
  8
0
100
AcDbPolyline
 62
7
  6
CONTINUOUS
 90
5
 70
0
 10
73.3903716748
 20
-56.5793257222
 10
73.1127761116
 20
-56.5276774537
 10
72.8478612061
 20
-56.4812324975
 10
72.5796627495
 20
-56.4368493309
 10
72.3007880326
 20
-56.3933174007
  0
LWPOLYLINE
  5
413
100
AcDbEntity
  8
0
100
AcDbPolyline
 62
7
  6
CONTINUOUS
 90
6
 70
0
 10
73.2323990324
 20
-56.5589094824
 10
73.0369459449
 20
-56.5222578664
 10
72.8417782664
 20
-56.4869955252
 10
72.6458450601
 20
-56.4529324864
 10
72.4491326595
 20
-56.4200777278
 10
72.35211348
 20
-56.404532164
  0
LWPOLYLINE
  5
414
100
AcDbEntity
  8
0
100
AcDbPolyline
 62
250
  6
CONTINUOUS
 90
16
 70
0
 10
73.0877375745
 20
-57.0360305113
 10
72.9258431298
 20
-57.0055291195
 10
72.7531069166
 20
-56.9744450688
 10
72.5695289349
 20
-56.9427783593
 10
72.3758105603
 20
-56.9103832767
 10
72.1712504171
 20
-56.8774055354
 10
71.9537443789
 20
-56.8442822779
 10
71.7172465268
 20
-56.8103156472
 10
71.4678027798
 20
-56.7762035003
 10
71.2214467679
 20
-56.7444765514
 10
70.9826724554
 20
-56.7161347415
 10
70.746985878
 20
-56.6901781295
 10
70.516938774
 20
-56.6661376058
 10
70.2932988551
 20
-56.644132151
 10
70.0752984095
 20
-56.6240427846
 10
69.6573862864
 20
-56.5869317217
  0
LINE
  5
415
100
AcDbEntity
  8
0
100
AcDbLine
 62
7
  6
CONTINUOUS
 10
73.4268606537
 20
-56.5967090284
 11
73.2323990324
 21
-56.5589094824
  0
LWPOLYLINE
  5
416
100
AcDbEntity
  8
0
100
AcDbPolyline
 62
250
  6
CONTINUOUS
 90
5
 70
0
 10
73.2627481659
 20
-56.5535824984
 10
73.0234014296
 20
-56.5066376534
 10
72.6438197054
 20
-56.4379618929
 10
72.2593681618
 20
-56.374747252
 10
71.8694912821
 20
-56.3161697663
  0
LWPOLYLINE
  5
417
100
AcDbEntity
  8
0
100
AcDbPolyline
 62
7
  6
CONTINUOUS
 90
8
 70
0
 10
69.1096733238
 20
-55.641062887
 10
68.6645029406
 20
-55.551949436
 10
68.1827145394
 20
-55.4624782242
 10
67.6658497426
 20
-55.3735205031
 10
67.1155518114
 20
-55.2859154709
 10
66.5338603344
 20
-55.2004593444
 10
65.9224719007
 20
-55.1178410976
 10
65.2834455062
 20
-55.0387205188
  0
LINE
  5
418
100
AcDbEntity
  8
0
100
AcDbLine
 62
7
  6
CONTINUOUS
 10
73.7082533034
 20
-56.6425179353
 11
73.326837795
 21
-56.5665379397
  0
LWPOLYLINE
  5
419
100
AcDbEntity
  8
0
100
AcDbPolyline
 62
7
  6
CONTINUOUS
 90
5
 70
0
 10
73.326837795
 20
-56.5665379397
 10
72.8111153079
 20
-56.4616186894
 10
72.5418125329
 20
-56.4054463692
 10
72.2736396284
 20
-56.3481667739
 10
72.0045235274
 20
-56.2893775463
  0
LINE
  5
41A
100
AcDbEntity
  8
0
100
AcDbLine
 62
7
  6
CONTINUOUS
 10
74.10245623
 20
-56.738140924
 11
73.3534397646
 21
-56.5818500755
  0
LINE
  5
41B
100
AcDbEntity
  8
0
100
AcDbLine
 62
7
  6
CONTINUOUS
 10
73.7708573239
 20
-58.2665082179
 11
73.8003253955
 21
-58.2726730466
  0
LINE
  5
41C
100
AcDbEntity
  8
0
100
AcDbLine
 62
7
  6
CONTINUOUS
 10
69.1858945978
 20
-55.6570143187
 11
69.1096733238
 21
-55.641062887
  0
LWPOLYLINE
  5
41D
100
AcDbEntity
  8
0
100
AcDbPolyline
 62
7
  6
CONTINUOUS
 90
4
 70
0
 10
74.0076479368
 20
-56.7175723374
 10
73.8143852408
 20
-56.6760217378
 10
73.6206257646
 20
-56.6357012694
 10
73.4268606537
 20
-56.5967090284
  0
LINE
  5
41E
100
AcDbEntity
  8
0
100
AcDbLine
 62
7
  6
CONTINUOUS
 10
69.503557502
 20
-55.7260542421
 11
69.1858945978
 21
-55.6570143187
  0
LINE
  5
41F
100
AcDbEntity
  8
0
100
AcDbLine
 62
250
  6
CONTINUOUS
 10
74.0250629655
 20
-57.2290377839
 11
73.8208573239
 21
-57.1843283563
  0
LINE
  5
420
100
AcDbEntity
  8
0
100
AcDbLine
 62
7
  6
CONTINUOUS
 10
74.1363566329
 20
-56.7461334073
 11
74.0076479368
 21
-56.7175723374
  0
LINE
  5
421
100
AcDbEntity
  8
0
100
AcDbLine
 62
7
  6
CONTINUOUS
 10
74.5678794513
 20
-56.8375587223
 11
74.5663464172
 21
-56.8372186125
  0
LINE
  5
422
100
AcDbEntity
  8
0
100
AcDbLine
 62
7
  6
CONTINUOUS
 10
72.0045235274
 20
-56.2893775463
 11
71.7234444873
 21
-56.2267686432
  0
LWPOLYLINE
  5
423
100
AcDbEntity
  8
0
100
AcDbPolyline
 62
7
  6
CONTINUOUS
 90
4
 70
0
 10
70.3917506135
 20
-55.9227852909
 10
69.9360972815
 20
-55.8200282928
 10
69.4879504494
 20
-55.7215066168
 10
69.1857887444
 20
-55.6569898254
  0
LINE
  5
424
100
AcDbEntity
  8
0
100
AcDbLine
 62
7
  6
CONTINUOUS
 10
71.7234444873
 20
-56.2267686432
 11
71.434372603
 21
-56.1613970585
  0
LINE
  5
425
100
AcDbEntity
  8
0
100
AcDbLine
 62
250
  6
CONTINUOUS
 10
68.8657939648
 20
-55.8628972012
 11
69.1819758561
 21
-55.9348125087
  0
LINE
  5
426
100
AcDbEntity
  8
0
100
AcDbLine
 62
250
  6
CONTINUOUS
 10
74.2424618257
 20
-57.2784755739
 11
74.0250629655
 21
-57.2290377839
  0
LINE
  5
427
100
AcDbEntity
  8
0
100
AcDbLine
 62
7
  6
CONTINUOUS
 10
71.434372603
 20
-56.1613970585
 11
70.3917506135
 21
-55.9227852909
  0
LINE
  5
428
100
AcDbEntity
  8
0
100
AcDbLine
 62
250
  6
CONTINUOUS
 10
74.4730539046
 20
-57.3326417262
 11
74.2424618257
 21
-57.2784755739
  0
LINE
  5
429
100
AcDbEntity
  8
0
100
AcDbLine
 62
250
  6
CONTINUOUS
 10
69.1819758561
 20
-55.9348125087
 11
69.4638168955
 21
-56.0033878911
  0
LINE
  5
42A
100
AcDbEntity
  8
RACCORDO
100
AcDbLine
 62
250
  6
CONTINUOUS
 10
66.4908789689
 20
-63.6717766044
 11
66.833952562
 21
-64.0355079747
  0
LINE
  5
42B
100
AcDbEntity
  8
RACCORDO
100
AcDbLine
 62
250
  6
CONTINUOUS
 10
66.4336880117
 20
-68.3922014989
 11
66.2048520329
 21
-67.9476409352
  0
LINE
  5
42C
100
AcDbEntity
  8
0
100
AcDbLine
 62
7
  6
CONTINUOUS
 10
64.6721059609
 20
-76.2856078478
 11
64.6721059609
 21
-76.3156379407
  0
LINE
  5
42D
100
AcDbEntity
  8
0
100
AcDbLine
 62
7
  6
CONTINUOUS
 10
64.7794983239
 20
-55.761274079
 11
64.7794983239
 21
-55.7912955639
  0
LINE
  5
42E
100
AcDbEntity
  8
0
100
AcDbLine
 62
7
  6
CONTINUOUS
 10
64.7794983239
 20
-76.2807708122
 11
64.7794983239
 21
-76.3108016335
  0
LINE
  5
42F
100
AcDbEntity
  8
0
100
AcDbLine
 62
250
  6
CONTINUOUS
 10
65.2208573239
 20
-63.8886844727
 11
65.2208573239
 21
-63.8873769402
  0
LINE
  5
430
100
AcDbEntity
  8
RACCORDO
100
AcDbLine
 62
250
  6
CONTINUOUS
 10
66.4336880117
 20
-63.6798595237
 11
66.2048520283
 21
-64.1244200851
  0
LINE
  5
431
100
AcDbEntity
  8
RACCORDO
100
AcDbLine
 62
250
  6
CONTINUOUS
 10
66.4908789689
 20
-68.4002844182
 11
66.8339525657
 21
-68.0365530514
  0
LINE
  5
432
100
AcDbEntity
  8
0
100
AcDbLine
 62
250
  6
CONTINUOUS
 10
36.8557940003
 20
-56.8498935083
 11
36.755674245
 21
-56.8781273745
  0
LINE
  5
433
100
AcDbEntity
  8
0
100
AcDbLine
 62
7
  6
CONTINUOUS
 10
36.8672252672
 20
-56.839356622
 11
36.7877441809
 21
-56.861702622
  0
LWPOLYLINE
  5
434
100
AcDbEntity
  8
0
100
AcDbPolyline
 62
7
  6
CONTINUOUS
 90
4
 70
0
 10
36.8711261222
 20
-56.8382087146
 10
36.8482518713
 20
-56.8440871738
 10
36.8201920076
 20
-56.8518691455
 10
36.7891161813
 20
-56.8612362554
  0
LINE
  5
435
100
AcDbEntity
  8
0
100
AcDbLine
 62
7
  6
CONTINUOUS
 10
36.8711014263
 20
-56.8382235475
 11
36.871811857
 21
-56.8380447176
  0
LINE
  5
436
100
AcDbEntity
  8
0
100
AcDbLine
 62
7
  6
CONTINUOUS
 10
37.1101545954
 20
-56.7803311184
 11
36.8753682306
 21
-56.8372186125
  0
LINE
  5
437
100
AcDbEntity
  8
0
100
AcDbLine
 62
7
  6
CONTINUOUS
 10
36.871811857
 20
-56.8380447176
 11
36.8738351965
 21
-56.8375587223
  0
LWPOLYLINE
  5
438
100
AcDbEntity
  8
0
100
AcDbPolyline
 62
7
  6
CONTINUOUS
 90
4
 70
0
 10
36.893155536
 20
-56.841087101
 10
37.0484286977
 20
-56.8044731518
 10
37.2411192478
 20
-56.7603882943
 10
37.2862492221
 20
-56.750373739
  0
LWPOLYLINE
  5
439
100
AcDbEntity
  8
0
100
AcDbPolyline
 62
7
  6
CONTINUOUS
 90
3
 70
0
 10
74.3315600524
 20
-56.7803311184
 10
74.0423396299
 20
-56.7139705854
 10
73.7082533034
 20
-56.6425179353
  0
LINE
  5
43A
100
AcDbEntity
  8
0
100
AcDbLine
 62
7
  6
CONTINUOUS
 10
74.5859624791
 20
-56.8497185934
 11
74.10245623
 21
-56.738140924
  0
LWPOLYLINE
  5
43B
100
AcDbEntity
  8
0
100
AcDbPolyline
 62
7
  6
CONTINUOUS
 90
4
 70
0
 10
74.5485591118
 20
-56.841087101
 10
74.3932859501
 20
-56.8044731518
 10
74.2005954
 20
-56.7603882943
 10
74.1554654257
 20
-56.750373739
  0
LINE
  5
43C
100
AcDbEntity
  8
0
100
AcDbLine
 62
7
  6
CONTINUOUS
 10
74.5699027908
 20
-56.8380447176
 11
74.5678794513
 21
-56.8375587223
  0
LINE
  5
43D
100
AcDbEntity
  8
0
100
AcDbLine
 62
7
  6
CONTINUOUS
 10
74.5663464172
 20
-56.8372186125
 11
74.3315600524
 21
-56.7803311184
  0
LINE
  5
43E
100
AcDbEntity
  8
0
100
AcDbLine
 62
7
  6
CONTINUOUS
 10
74.5706132215
 20
-56.8382235475
 11
74.5699027908
 21
-56.8380447176
  0
LINE
  5
43F
100
AcDbEntity
  8
0
100
AcDbLine
 62
7
  6
CONTINUOUS
 10
74.5744893806
 20
-56.839356622
 11
74.6539704669
 21
-56.861702622
  0
LINE
  5
440
100
AcDbEntity
  8
0
100
AcDbLine
 62
250
  6
CONTINUOUS
 10
74.5859206475
 20
-56.8498935083
 11
74.6860404028
 21
-56.8781273745
  0
LWPOLYLINE
  5
441
100
AcDbEntity
  8
0
100
AcDbPolyline
 62
250
  6
CONTINUOUS
 90
13
 70
0
 10
74.4730539046
 20
-57.3326417262
 10
74.5489496258
 20
-57.3550984476
 10
74.6213481868
 20
-57.3845531577
 10
74.6902495876
 20
-57.4210058565
 10
74.7564598438
 20
-57.4650114885
 10
74.8191729397
 20
-57.5160151091
 10
74.875970829
 20
-57.572351885
 10
74.9265051066
 20
-57.6343080412
 10
74.9711241775
 20
-57.7015973526
 10
75.0084552099
 20
-57.7716963106
 10
75.0380405931
 20
-57.8437637456
 10
75.0603379377
 20
-57.9186408272
 10
75.0753472438
 20
-57.9963275554
  0
LWPOLYLINE
  5
442
100
AcDbEntity
  8
0
100
AcDbPolyline
 62
7
  6
CONTINUOUS
 90
4
 70
0
 10
74.6659216505
 20
-56.8655044487
 10
74.6525984665
 20
-56.8612362554
 10
74.6215226402
 20
-56.8518691455
 10
74.5934627765
 20
-56.8440871738
  0
LWPOLYLINE
  5
443
100
AcDbEntity
  8
0
100
AcDbPolyline
 62
7
  6
CONTINUOUS
 90
3
 70
0
 10
74.5744980312
 20
-56.8393595972
 10
74.5728816607
 20
-56.8388364087
 10
74.5706132215
 20
-56.8382235475
  0
LINE
  5
444
100
AcDbEntity
  8
0
100
AcDbLine
 62
7
  6
CONTINUOUS
 10
74.6926729987
 20
-56.8745810254
 11
74.6539704669
 21
-56.861702622
  0
LWPOLYLINE
  5
445
100
AcDbEntity
  8
0
100
AcDbPolyline
 62
250
  6
CONTINUOUS
 90
12
 70
0
 10
74.6861027813
 20
-56.8781449653
 10
74.7836911447
 20
-56.9143157335
 10
74.8780613379
 20
-56.958170995
 10
74.968608293
 20
-57.0094257944
 10
75.0547553457
 20
-57.0677497933
 10
75.1359570303
 20
-57.1327707439
 10
75.2116961216
 20
-57.2040726034
 10
75.2814869476
 20
-57.2811961384
 10
75.3448833099
 20
-57.3636454708
 10
75.4014790226
 20
-57.4508882268
 10
75.4509161113
 20
-57.5423679816
 10
75.4928839092
 20
-57.6375082615
  0
LWPOLYLINE
  5
446
100
AcDbEntity
  8
0
100
AcDbPolyline
 62
250
  6
CONTINUOUS
 90
8
 70
0
 10
70.8687128294
 20
-56.1081493809
 10
70.753256748
 20
-56.0642033933
 10
70.6115410012
 20
-56.0161741372
 10
70.4420113254
 20
-55.96399226
 10
70.2438300119
 20
-55.9079067225
 10
70.0180527728
 20
-55.8485751967
 10
69.7645535361
 20
-55.7863112573
 10
69.503557502
 20
-55.7260542421
  0
LINE
  5
447
100
AcDbEntity
  8
0
100
AcDbLine
 62
250
  6
CONTINUOUS
 10
74.5771834693
 20
-56.8404430052
 11
74.5744980312
 21
-56.8393595972
  0
LINE
  5
448
100
AcDbEntity
  8
0
100
AcDbLine
 62
250
  6
CONTINUOUS
 10
70.9571630636
 20
-56.1473498109
 11
70.8687128294
 21
-56.1081493809
  0
LWPOLYLINE
  5
449
100
AcDbEntity
  8
0
100
AcDbPolyline
 62
7
  6
CONTINUOUS
 90
5
 70
0
 10
74.8847668384
 20
-56.9585757489
 10
74.8399270069
 20
-56.9357950803
 10
74.7939289958
 20
-56.9145083671
 10
74.7438957601
 20
-56.8936245861
 10
74.6926729987
 20
-56.8745810254
  0
LINE
  5
44A
100
AcDbEntity
  8
0
100
AcDbLine
 62
250
  6
CONTINUOUS
 10
71.016676873
 20
-56.1805240811
 11
70.9571630636
 21
-56.1473498109
  0
LWPOLYLINE
  5
44B
100
AcDbEntity
  8
0
100
AcDbPolyline
 62
250
  6
CONTINUOUS
 90
9
 70
0
 10
71.0610751494
 20
-56.2279656863
 10
71.0589167583
 20
-56.22656815
 10
71.0569439746
 20
-56.2249022186
 10
71.0551561053
 20
-56.2229847047
 10
71.0536200596
 20
-56.2208406009
 10
71.0522667898
 20
-56.2184769847
 10
71.0508910269
 20
-56.2158807875
 10
71.0494228539
 20
-56.2130546486
 10
71.04792721
 20
-56.2100185224
  0
LINE
  5
44C
100
AcDbEntity
  8
0
100
AcDbLine
 62
250
  6
CONTINUOUS
 10
68.7208573239
 20
-63.8886844727
 11
68.7208573239
 21
-63.6255604036
  0
LINE
  5
44D
100
AcDbEntity
  8
RACCORDO
100
AcDbLine
 62
250
  6
CONTINUOUS
 10
68.7208573239
 20
-62.6157498201
 11
68.7208573239
 21
-62.3157955115
  0
LINE
  5
44E
100
AcDbEntity
  8
RACCORDO
100
AcDbLine
 62
250
  6
CONTINUOUS
 10
68.7208573239
 20
-69.4563112025
 11
68.7208573239
 21
-69.5360305113
  0
LINE
  5
44F
100
AcDbEntity
  8
DRAFT
100
AcDbLine
 62
250
  6
CONTINUOUS
 10
68.7708573239
 20
-63.2860305113
 11
68.7708573239
 21
-63.3244060938
  0
LWPOLYLINE
  5
450
100
AcDbEntity
  8
0
100
AcDbPolyline
 62
250
  6
CONTINUOUS
 90
9
 70
0
 10
74.5869395266
 20
-56.8501373357
 10
74.5838951917
 20
-56.8481670352
 10
74.5820888977
 20
-56.8465842974
 10
74.5811573887
 20
-56.8453025264
 10
74.5807413408
 20
-56.8442360592
 10
74.5804853438
 20
-56.8433001616
 10
74.5800378835
 20
-56.8424110238
 10
74.5790513251
 20
-56.8414857561
 10
74.5771834693
 20
-56.8404430052
  0
LINE
  5
451
100
AcDbEntity
  8
0
100
AcDbLine
 62
250
  6
CONTINUOUS
 10
71.0460354995
 20
-56.2064037049
 11
71.016676873
 21
-56.1805240811
  0
LINE
  5
452
100
AcDbEntity
  8
0
100
AcDbLine
 62
250
  6
CONTINUOUS
 10
71.0463007192
 20
-56.2067834641
 11
71.0460354995
 21
-56.2064037049
  0
LINE
  5
453
100
AcDbEntity
  8
0
100
AcDbLine
 62
250
  6
CONTINUOUS
 10
71.04792721
 20
-56.2100185224
 11
71.0463007192
 21
-56.2067834641
  0
LWPOLYLINE
  5
454
100
AcDbEntity
  8
0
100
AcDbPolyline
 62
250
  6
CONTINUOUS
 90
3
 70
0
 10
74.5859206211
 20
-75.2221675145
 10
74.5851722738
 20
-75.2195102304
 10
74.5831381255
 20
-75.2115835905
  0
LINE
  5
455
100
AcDbEntity
  8
0
100
AcDbLine
 62
250
  6
CONTINUOUS
 10
74.5831381255
 20
-75.2115835905
 11
74.5754130608
 21
-75.1803775988
  0
LINE
  5
456
100
AcDbEntity
  8
0
100
AcDbLine
 62
250
  6
CONTINUOUS
 10
74.5754130608
 20
-75.1803775988
 11
74.469578996
 21
-74.7402545126
  0
LINE
  5
457
100
AcDbEntity
  8
0
100
AcDbLine
 62
7
  6
CONTINUOUS
 10
73.7708573239
 20
-58.423540774
 11
73.7708573239
 21
-58.0860305112
  0
LINE
  5
458
100
AcDbEntity
  8
0
100
AcDbLine
 62
7
  6
CONTINUOUS
 10
73.7708573239
 20
-73.6485202486
 11
73.7708573239
 21
-73.9860305114
  0
LINE
  5
459
100
AcDbEntity
  8
0
100
AcDbLine
 62
7
  6
CONTINUOUS
 10
73.8208573239
 20
-74.0360305113
 11
73.8208573239
 21
-73.6452839975
  0
LINE
  5
45A
100
AcDbEntity
  8
0
100
AcDbLine
 62
7
  6
CONTINUOUS
 10
73.8208573239
 20
-57.0360305113
 11
73.8208573239
 21
-57.1843283563
  0
LINE
  5
45B
100
AcDbEntity
  8
0
100
AcDbLine
 62
7
  6
CONTINUOUS
 10
73.8208573239
 20
-58.0359924344
 11
73.8208573239
 21
-58.4267770251
  0
LINE
  5
45C
100
AcDbEntity
  8
RACCORDO
100
AcDbLine
 62
250
  6
CONTINUOUS
 10
73.8408573239
 20
-58.5800046568
 11
73.8408573239
 21
-59.0215884261
  0
LINE
  5
45D
100
AcDbEntity
  8
RACCORDO
100
AcDbLine
 62
250
  6
CONTINUOUS
 10
73.8408573239
 20
-73.0504724624
 11
73.8408573239
 21
-73.4920563658
  0
LINE
  5
45E
100
AcDbEntity
  8
0
100
AcDbLine
 62
250
  6
CONTINUOUS
 10
73.8708467266
 20
-74.8769147142
 11
73.8708573239
 21
-75.0360305112
  0
LWPOLYLINE
  5
45F
100
AcDbEntity
  8
0
100
AcDbPolyline
 62
250
  6
CONTINUOUS
 90
10
 70
0
 10
75.0753472438
 20
-74.0757334672
 10
75.1879041359
 20
-73.2106846407
 10
75.2875371747
 20
-72.3385363464
 10
75.3742463603
 20
-71.4592885844
 10
75.4481287204
 20
-70.572892565
 10
75.5090872273
 20
-69.6793970778
 10
75.5568307974
 20
-68.7789484919
 10
75.5912624029
 20
-67.871595597
 10
75.6124790718
 20
-66.9572896035
 10
75.6204808039
 20
-66.0360305113
  0
LINE
  5
460
100
AcDbEntity
  8
0
100
AcDbLine
 62
250
  6
CONTINUOUS
 10
74.5754130608
 20
-56.8916834238
 11
74.469578996
 21
-57.3318065099
  0
LWPOLYLINE
  5
461
100
AcDbEntity
  8
0
100
AcDbPolyline
 62
250
  6
CONTINUOUS
 90
4
 70
0
 10
74.5859206211
 20
-56.8498935081
 10
74.5851722738
 20
-56.8525507922
 10
74.5831381255
 20
-56.8604774321
 10
74.5754130608
 20
-56.8916834238
  0
LINE
  5
462
100
AcDbEntity
  8
0
100
AcDbLine
 62
250
  6
CONTINUOUS
 10
71.04792721
 20
-75.8620425002
 11
71.0463007192
 21
-75.8652775585
  0
LINE
  5
463
100
AcDbEntity
  8
0
100
AcDbLine
 62
250
  6
CONTINUOUS
 10
71.0463007192
 20
-75.8652775585
 11
71.0460354995
 21
-75.8656573177
  0
LWPOLYLINE
  5
464
100
AcDbEntity
  8
0
100
AcDbPolyline
 62
250
  6
CONTINUOUS
 90
9
 70
0
 10
71.0610751494
 20
-75.8440953363
 10
71.0589167583
 20
-75.8454928725
 10
71.0569439746
 20
-75.8471588039
 10
71.0551561053
 20
-75.8490763179
 10
71.0536200596
 20
-75.8512204216
 10
71.0522667898
 20
-75.8535840379
 10
71.0508910269
 20
-75.8561802351
 10
71.0494228539
 20
-75.859006374
 10
71.04792721
 20
-75.8620425002
  0
LINE
  5
465
100
AcDbEntity
  8
0
100
AcDbLine
 62
250
  6
CONTINUOUS
 10
71.016676873
 20
-75.8915369415
 11
70.9571630636
 21
-75.9247112117
  0
LWPOLYLINE
  5
466
100
AcDbEntity
  8
0
100
AcDbPolyline
 62
7
  6
CONTINUOUS
 90
3
 70
0
 10
74.7939289958
 20
-75.1575526554
 10
74.8399270069
 20
-75.1362659423
 10
74.8847668384
 20
-75.1134852737
  0
LINE
  5
467
100
AcDbEntity
  8
0
100
AcDbLine
 62
250
  6
CONTINUOUS
 10
70.9571630636
 20
-75.9247112117
 11
70.8687128294
 21
-75.9639116417
  0
LINE
  5
468
100
AcDbEntity
  8
0
100
AcDbLine
 62
250
  6
CONTINUOUS
 10
74.5771834693
 20
-75.2316180173
 11
74.5744980312
 21
-75.2327014254
  0
LWPOLYLINE
  5
469
100
AcDbEntity
  8
0
100
AcDbPolyline
 62
250
  6
CONTINUOUS
 90
8
 70
0
 10
70.8687128294
 20
-75.9639116417
 10
70.753256748
 20
-76.0078576292
 10
70.6115410012
 20
-76.0558868854
 10
70.4420113254
 20
-76.1080687625
 10
70.2438300119
 20
-76.1641543001
 10
70.0180527728
 20
-76.2234858259
 10
69.7645535361
 20
-76.2857497653
 10
69.5081531357
 20
-76.3449751525
  0
LWPOLYLINE
  5
46A
100
AcDbEntity
  8
0
100
AcDbPolyline
 62
7
  6
CONTINUOUS
 90
3
 70
0
 10
74.6926729987
 20
-75.1974799972
 10
74.7438957601
 20
-75.1784364364
 10
74.7939289958
 20
-75.1575526554
  0
LWPOLYLINE
  5
46B
100
AcDbEntity
  8
0
100
AcDbPolyline
 62
250
  6
CONTINUOUS
 90
12
 70
0
 10
74.6861027813
 20
-75.1939160573
 10
74.7836911447
 20
-75.1577452891
 10
74.8780613379
 20
-75.1138900276
 10
74.968608293
 20
-75.0626352282
 10
75.0547553457
 20
-75.0043112293
 10
75.1359570303
 20
-74.9392902787
 10
75.2116961216
 20
-74.8679884192
 10
75.2814869476
 20
-74.7908648842
 10
75.3448833099
 20
-74.7084155518
 10
75.4014790226
 20
-74.6211727958
 10
75.4509161113
 20
-74.529693041
 10
75.4928839092
 20
-74.434552761
  0
LINE
  5
46C
100
AcDbEntity
  8
0
100
AcDbLine
 62
7
  6
CONTINUOUS
 10
74.6539704669
 20
-75.2103584006
 11
74.6926729987
 21
-75.1974799972
  0
LWPOLYLINE
  5
46D
100
AcDbEntity
  8
0
100
AcDbPolyline
 62
7
  6
CONTINUOUS
 90
3
 70
0
 10
74.5744980312
 20
-75.2327014254
 10
74.5728816607
 20
-75.2332246139
 10
74.5706132215
 20
-75.2338374751
  0
LINE
  5
46E
100
AcDbEntity
  8
0
100
AcDbLine
 62
7
  6
CONTINUOUS
 10
74.6525984665
 20
-75.2108247672
 11
74.6659216505
 21
-75.2065565739
  0
LWPOLYLINE
  5
46F
100
AcDbEntity
  8
0
100
AcDbPolyline
 62
250
  6
CONTINUOUS
 90
13
 70
0
 10
74.4730539046
 20
-74.7394192964
 10
74.5489496258
 20
-74.716962575
 10
74.6213481868
 20
-74.6875078649
 10
74.6902495876
 20
-74.6510551661
 10
74.7564598438
 20
-74.6070495341
 10
74.8191729397
 20
-74.5560459135
 10
74.875970829
 20
-74.4997091376
 10
74.9265051066
 20
-74.4377529814
 10
74.9711241775
 20
-74.37046367
 10
75.0084552099
 20
-74.300364712
 10
75.0380405931
 20
-74.228297277
 10
75.0603379377
 20
-74.1534201954
 10
75.0753472438
 20
-74.0757334672
  0
LWPOLYLINE
  5
470
100
AcDbEntity
  8
0
100
AcDbPolyline
 62
7
  6
CONTINUOUS
 90
9
 70
0
 10
75.389118109
 20
-57.4303389981
 10
75.331867609
 20
-57.3448940399
 10
75.2689233433
 20
-57.2652236996
 10
75.2012196508
 20
-57.1920570405
 10
75.1326182889
 20
-57.1282187748
 10
75.064620812
 20
-57.0731946802
 10
74.9980360847
 20
-57.026007553
 10
74.9365244268
 20
-56.9875356442
 10
74.8847668384
 20
-56.9585757489
  0
LINE
  5
471
100
AcDbEntity
  8
0
100
AcDbLine
 62
7
  6
CONTINUOUS
 10
75.3953370509
 20
-57.4414199522
 11
75.389118109
 21
-57.4303389981
  0
LINE
  5
472
100
AcDbEntity
  8
0
100
AcDbLine
 62
7
  6
CONTINUOUS
 10
75.4721991711
 20
-57.5906388281
 11
75.4441957136
 21
-57.5299349125
  0
LINE
  5
473
100
AcDbEntity
  8
0
100
AcDbLine
 62
250
  6
CONTINUOUS
 10
75.4928839092
 20
-57.6375082615
 11
75.5270721977
 21
-57.7355826349
  0
LWPOLYLINE
  5
474
100
AcDbEntity
  8
0
100
AcDbPolyline
 62
250
  6
CONTINUOUS
 90
3
 70
0
 10
75.527114452
 20
-57.7357038478
 10
75.5533866762
 20
-57.8363233332
 10
75.5682939766
 20
-57.9164693321
  0
LWPOLYLINE
  5
475
100
AcDbEntity
  8
0
100
AcDbPolyline
 62
250
  6
CONTINUOUS
 90
10
 70
0
 10
75.0753472438
 20
-57.9963275554
 10
75.1879041359
 20
-58.8613763819
 10
75.2875371747
 20
-59.7335246761
 10
75.3742463603
 20
-60.6127724381
 10
75.4481287204
 20
-61.4991684576
 10
75.5090872273
 20
-62.3926639448
 10
75.5568307974
 20
-63.2931125307
 10
75.5912624029
 20
-64.2004654256
 10
75.6124790718
 20
-65.1147714191
 10
75.6204808039
 20
-66.0360305113
  0
LWPOLYLINE
  5
476
100
AcDbEntity
  8
0
100
AcDbPolyline
 62
250
  6
CONTINUOUS
 90
3
 70
0
 10
75.527114452
 20
-74.3363571748
 10
75.5533866762
 20
-74.2357376894
 10
75.5682939766
 20
-74.1555916904
  0
LINE
  5
477
100
AcDbEntity
  8
0
100
AcDbLine
 62
250
  6
CONTINUOUS
 10
75.4928839092
 20
-74.434552761
 11
75.5270721977
 21
-74.3364783877
  0
LINE
  5
478
100
AcDbEntity
  8
0
100
AcDbLine
 62
7
  6
CONTINUOUS
 10
75.4441957136
 20
-74.5421261101
 11
75.4841461181
 21
-74.4555244473
  0
LWPOLYLINE
  5
479
100
AcDbEntity
  8
0
100
AcDbPolyline
 62
7
  6
CONTINUOUS
 90
3
 70
0
 10
75.331867609
 20
-74.7271669827
 10
75.389118109
 20
-74.6417220244
 10
75.3953370509
 20
-74.6306410704
  0
LINE
  5
47A
100
AcDbEntity
  8
0
100
AcDbLine
 62
250
  6
CONTINUOUS
 10
71.0460354995
 20
-75.8656573177
 11
71.016676873
 21
-75.8915369415
  0
LWPOLYLINE
  5
47B
100
AcDbEntity
  8
0
100
AcDbPolyline
 62
250
  6
CONTINUOUS
 90
9
 70
0
 10
74.5869395266
 20
-75.2219236869
 10
74.5838951917
 20
-75.2238939874
 10
74.5820888977
 20
-75.2254767252
 10
74.5811573887
 20
-75.2267584962
 10
74.5807413408
 20
-75.2278249634
 10
74.5804853438
 20
-75.228760861
 10
74.5800378835
 20
-75.2296499988
 10
74.5790513251
 20
-75.2305752664
 10
74.5771834693
 20
-75.2316180173
  0
LWPOLYLINE
  5
47C
100
AcDbEntity
  8
0
100
AcDbPolyline
 62
7
  6
CONTINUOUS
 90
8
 70
0
 10
74.8847668384
 20
-75.1134852737
 10
74.9365244268
 20
-75.0845253784
 10
74.9980360847
 20
-75.0460534695
 10
75.064620812
 20
-74.9988663424
 10
75.1326182889
 20
-74.9438422478
 10
75.2012196508
 20
-74.8800039821
 10
75.2689233433
 20
-74.806837323
 10
75.331867609
 20
-74.7271669827
  0
ARC
  5
47D
100
AcDbEntity
  8
0
100
AcDbCircle
 62
7
  6
CONTINUOUS
 10
40.9208573239
 20
-72.0360305113
 40
3.0
100
AcDbArc
 50
220.7234289353
 51
221.8293921139
  0
ARC
  5
47E
100
AcDbEntity
  8
RACCORDO
100
AcDbCircle
 62
7
  6
CONTINUOUS
 10
40.9208573239
 20
-71.9360305113
 40
3.0
100
AcDbArc
 50
223.1334396017
 51
224.4420305655
  0
ARC
  5
47F
100
AcDbEntity
  8
RACCORDO
100
AcDbCircle
 62
250
  6
CONTINUOUS
 10
40.9208573239
 20
-71.9360305113
 40
2.5000000925
100
AcDbArc
 50
235.1260841475
 51
237.1727641449
  0
ARC
  5
480
100
AcDbEntity
  8
SUPERFICI
100
AcDbCircle
 62
7
  6
CONTINUOUS
 10
37.1582823088
 20
-73.9578491911
 40
1.300000326
100
AcDbArc
 50
187.7559790118
 51
256.5448986759
  0
ARC
  5
481
100
AcDbEntity
  8
RACCORDO
100
AcDbCircle
 62
7
  6
CONTINUOUS
 10
36.9208573239
 20
-68.0139421822
 40
1.0
100
AcDbArc
 50
75.8113278128
 51
77.9351556795
  0
ARC
  5
482
100
AcDbEntity
  8
RACCORDO
100
AcDbCircle
 62
250
  6
CONTINUOUS
 10
36.9208573239
 20
-68.0139421822
 40
0.68
100
AcDbArc
 50
66.5200424744
 51
71.5047597736
  0
ARC
  5
483
100
AcDbEntity
  8
RACCORDO
100
AcDbCircle
 62
7
  6
CONTINUOUS
 10
44.9851430382
 20
-68.4366575552
 40
0.55
100
AcDbArc
 50
62.7630150837
 51
133.3258937545
  0
ARC
  5
484
100
AcDbEntity
  8
RACCORDO
100
AcDbCircle
 62
250
  6
CONTINUOUS
 10
44.9851430382
 20
-68.4366575552
 40
0.0499998836
100
AcDbArc
 50
62.7630150837
 51
133.3258937545
  0
ARC
  5
485
100
AcDbEntity
  8
0
100
AcDbCircle
 62
7
  6
CONTINUOUS
 10
55.7204304437
 20
-255.5860304901
 40
200.0299977144
100
AcDbArc
 50
87.4042695714
 51
88.4301879903
  0
ARC
  5
486
100
AcDbEntity
  8
0
100
AcDbCircle
 62
7
  6
CONTINUOUS
 10
55.7204304437
 20
-255.5860304901
 40
200.0299977144
100
AcDbArc
 50
88.592561507
 51
88.8361027121
  0
ARC
  5
487
100
AcDbEntity
  8
0
100
AcDbCircle
 62
7
  6
CONTINUOUS
 10
55.7204304437
 20
-255.5860304901
 40
200.0299977144
100
AcDbArc
 50
89.07961372
 51
90.2704810606
  0
ARC
  5
488
100
AcDbEntity
  8
0
100
AcDbCircle
 62
7
  6
CONTINUOUS
 10
55.7204304437
 20
-255.5860304901
 40
200.0299977144
100
AcDbArc
 50
90.4328028336
 51
91.4581833794
  0
ARC
  5
489
100
AcDbEntity
  8
0
100
AcDbCircle
 62
7
  6
CONTINUOUS
 10
55.7204304437
 20
-255.5860304901
 40
200.0299977144
100
AcDbArc
 50
91.6205606972
 51
92.5954856298
  0
ARC
  5
48A
100
AcDbEntity
  8
ASSI
100
AcDbCircle
 62
7
  6
CONTINUOUS
 10
55.7204304438
 20
-255.5860305027
 40
200.0000070503
100
AcDbArc
 50
89.9023894682
 51
89.9998776474
  0
ARC
  5
48B
100
AcDbEntity
  8
0
100
AcDbCircle
 62
7
  6
CONTINUOUS
 10
55.7204304437
 20
-255.5860304901
 40
199.9999977144
100
AcDbArc
 50
86.6173641154
 51
89.9998777078
  0
ARC
  5
48C
100
AcDbEntity
  8
0
100
AcDbCircle
 62
7
  6
CONTINUOUS
 10
16.1204273464
 20
-66.03603034
 40
60.000003104
100
AcDbArc
 50
352.2440216871
 51
7.7559783129
  0
ARC
  5
48D
100
AcDbEntity
  8
0
100
AcDbCircle
 62
7
  6
CONTINUOUS
 10
16.1204304504
 20
-66.0360305113
 40
58.2
100
AcDbArc
 50
7.6601184029
 51
7.8927756867
  0
ARC
  5
48E
100
AcDbEntity
  8
0
100
AcDbCircle
 62
7
  6
CONTINUOUS
 10
16.0708573239
 20
-66.0360305113
 40
58.2
100
AcDbArc
 50
352.4842460811
 51
7.5157539189
  0
ARC
  5
48F
100
AcDbEntity
  8
0
100
AcDbCircle
 62
7
  6
CONTINUOUS
 10
16.1204304504
 20
-66.0360305113
 40
58.2
100
AcDbArc
 50
352.4874596485
 51
7.5125403515
  0
ARC
  5
490
100
AcDbEntity
  8
0
100
AcDbCircle
 62
7
  6
CONTINUOUS
 10
16.1204304504
 20
-66.0360305113
 40
58.2
100
AcDbArc
 50
352.2286689817
 51
352.4227609329
  0
ARC
  5
491
100
AcDbEntity
  8
0
100
AcDbCircle
 62
7
  6
CONTINUOUS
 10
16.1204304504
 20
-66.0360305113
 40
58.2
100
AcDbArc
 50
352.0992770188
 51
352.1484244796
  0
ARC
  5
492
100
AcDbEntity
  8
DRAFT
100
AcDbCircle
 62
7
  6
CONTINUOUS
 10
42.7208573239
 20
-66.0360305113
 40
3.75
100
AcDbArc
 50
137.6553989092
 51
222.3446010908
  0
ARC
  5
493
100
AcDbEntity
  8
RACCORDO
100
AcDbCircle
 62
250
  6
CONTINUOUS
 10
42.7208573239
 20
-66.0360305113
 40
3.7202349995
100
AcDbArc
 50
131.5884307488
 51
228.4374116424
  0
ARC
  5
494
100
AcDbEntity
  8
DRAFT
100
AcDbCircle
 62
7
  6
CONTINUOUS
 10
42.3708573239
 20
-66.0360305113
 40
3.5
100
AcDbArc
 50
90.0
 51
270.0
  0
ARC
  5
495
100
AcDbEntity
  8
RACCORDO
100
AcDbCircle
 62
250
  6
CONTINUOUS
 10
42.7208573239
 20
-66.0360305113
 40
3.420279877
100
AcDbArc
 50
90.0
 51
270.0
  0
ARC
  5
496
100
AcDbEntity
  8
RACCORDO
100
AcDbCircle
 62
250
  6
CONTINUOUS
 10
42.7208573239
 20
-66.0360305113
 40
3.2499984102
100
AcDbArc
 50
46.6741062455
 51
313.3258937545
  0
ARC
  5
497
100
AcDbEntity
  8
0
100
AcDbCircle
 62
7
  6
CONTINUOUS
 10
40.9208573239
 20
-60.0360305113
 40
3.0
100
AcDbArc
 50
138.3771125483
 51
139.2765710647
  0
ARC
  5
498
100
AcDbEntity
  8
RACCORDO
100
AcDbCircle
 62
7
  6
CONTINUOUS
 10
40.9208573239
 20
-60.1360305113
 40
3.0
100
AcDbArc
 50
135.7674527713
 51
136.8665585223
  0
ARC
  5
499
100
AcDbEntity
  8
RACCORDO
100
AcDbCircle
 62
7
  6
CONTINUOUS
 10
42.7208573239
 20
-66.0360305113
 40
2.75
100
AcDbArc
 50
46.6741062455
 51
313.3258937545
  0
ARC
  5
49A
100
AcDbEntity
  8
RACCORDO
100
AcDbCircle
 62
250
  6
CONTINUOUS
 10
46.2208573239
 20
-66.0360305113
 40
2.6499977804
100
AcDbArc
 50
242.7630150837
 51
117.2369849163
  0
ARC
  5
49B
100
AcDbEntity
  8
RACCORDO
100
AcDbCircle
 62
250
  6
CONTINUOUS
 10
40.9208573239
 20
-60.1360305113
 40
2.5000000925
100
AcDbArc
 50
123.1742530433
 51
124.8738175524
  0
ARC
  5
49C
100
AcDbEntity
  8
RACCORDO
100
AcDbCircle
 62
7
  6
CONTINUOUS
 10
46.2208573239
 20
-66.0360305113
 40
2.15
100
AcDbArc
 50
242.7630150837
 51
117.2369849163
  0
ARC
  5
49D
100
AcDbEntity
  8
0
100
AcDbCircle
 62
7
  6
CONTINUOUS
 10
46.2208573239
 20
-66.0360305113
 40
2.1473460386
100
AcDbArc
 50
270.0
 51
305.2629384604
  0
ARC
  5
49E
100
AcDbEntity
  8
0
100
AcDbCircle
 62
7
  6
CONTINUOUS
 10
42.7208573239
 20
-66.0360305113
 40
2.1473460386
100
AcDbArc
 50
234.7370615396
 51
270.0
  0
ARC
  5
49F
100
AcDbEntity
  8
0
100
AcDbCircle
 62
7
  6
CONTINUOUS
 10
37.1582823088
 20
-58.1142118315
 40
1.300000326
100
AcDbArc
 50
103.455101324
 51
172.2440209882
  0
ARC
  5
4A0
100
AcDbEntity
  8
RACCORDO
100
AcDbCircle
 62
250
  6
CONTINUOUS
 10
36.9208573239
 20
-64.0581188403
 40
0.68
100
AcDbArc
 50
288.4952174905
 51
293.4799410628
  0
ARC
  5
4A1
100
AcDbEntity
  8
RACCORDO
100
AcDbCircle
 62
7
  6
CONTINUOUS
 10
44.9851430382
 20
-63.6354034674
 40
0.55
100
AcDbArc
 50
226.6741062455
 51
297.2369849163
  0
ARC
  5
4A2
100
AcDbEntity
  8
RACCORDO
100
AcDbCircle
 62
250
  6
CONTINUOUS
 10
44.9851430382
 20
-63.6354034674
 40
0.0499998836
100
AcDbArc
 50
226.6741062455
 51
297.2369849163
  0
ARC
  5
4A3
100
AcDbEntity
  8
0
100
AcDbCircle
 62
7
  6
CONTINUOUS
 10
55.7204304438
 20
123.5139694801
 40
200.0300070524
100
AcDbArc
 50
270.0001223368
 51
270.2707255984
  0
ARC
  5
4A4
100
AcDbEntity
  8
0
100
AcDbCircle
 62
7
  6
CONTINUOUS
 10
55.7204304438
 20
123.5139694801
 40
200.0300070524
100
AcDbArc
 50
270.8239363731
 51
271.0674614578
  0
ARC
  5
4A5
100
AcDbEntity
  8
0
100
AcDbCircle
 62
7
  6
CONTINUOUS
 10
55.7204304438
 20
123.5139694801
 40
200.0300070524
100
AcDbArc
 50
271.620805267
 51
272.1912702301
  0
ARC
  5
4A6
100
AcDbEntity
  8
0
100
AcDbCircle
 62
7
  6
CONTINUOUS
 10
55.7204304437
 20
123.5139694676
 40
199.9999977144
100
AcDbArc
 50
270.0001222922
 51
273.3826358846
  0
ARC
  5
4A7
100
AcDbEntity
  8
0
100
AcDbCircle
 62
7
  6
CONTINUOUS
 10
55.7212842041
 20
-255.5860304901
 40
199.9999977144
100
AcDbArc
 50
90.0001222922
 51
93.3826358846
  0
ARC
  5
4A8
100
AcDbEntity
  8
DRAFT
100
AcDbCircle
 62
7
  6
CONTINUOUS
 10
55.7208573239
 20
-69.0360305113
 40
5.0
100
AcDbArc
 50
114.2119515405
 51
115.8350502415
  0
ARC
  5
4A9
100
AcDbEntity
  8
DRAFT
100
AcDbCircle
 62
7
  6
CONTINUOUS
 10
55.7208573239
 20
-69.0360305113
 40
5.0
100
AcDbArc
 50
64.1649497585
 51
65.7880484595
  0
ARC
  5
4AA
100
AcDbEntity
  8
SUPERFICI
100
AcDbCircle
 62
7
  6
CONTINUOUS
 10
55.7208573239
 20
-69.0360305113
 40
5.0
100
AcDbArc
 50
53.1301023542
 51
126.8698976458
  0
ARC
  5
4AB
100
AcDbEntity
  8
0
100
AcDbCircle
 62
7
  6
CONTINUOUS
 10
70.5208573239
 20
-72.0360305113
 40
3.0
100
AcDbArc
 50
318.1706078861
 51
319.2765710647
  0
ARC
  5
4AC
100
AcDbEntity
  8
RACCORDO
100
AcDbCircle
 62
7
  6
CONTINUOUS
 10
70.5208573239
 20
-71.9360305113
 40
3.0
100
AcDbArc
 50
315.5580088713
 51
316.8665585223
  0
ARC
  5
4AD
100
AcDbEntity
  8
RACCORDO
100
AcDbCircle
 62
250
  6
CONTINUOUS
 10
70.5208573239
 20
-71.9360305113
 40
2.5000000925
100
AcDbArc
 50
302.8273612174
 51
304.8738175524
  0
ARC
  5
4AE
100
AcDbEntity
  8
0
100
AcDbCircle
 62
7
  6
CONTINUOUS
 10
74.283432339
 20
-73.9578491911
 40
1.300000326
100
AcDbArc
 50
283.455101324
 51
352.2440209882
  0
ARC
  5
4AF
100
AcDbEntity
  8
RACCORDO
100
AcDbCircle
 62
7
  6
CONTINUOUS
 10
74.5208573239
 20
-68.0139421822
 40
1.0
100
AcDbArc
 50
102.064844321
 51
104.2671698256
  0
ARC
  5
4B0
100
AcDbEntity
  8
RACCORDO
100
AcDbCircle
 62
250
  6
CONTINUOUS
 10
74.5208573239
 20
-68.0139421822
 40
0.68
100
AcDbArc
 50
108.4955100368
 51
113.4799197838
  0
ARC
  5
4B1
100
AcDbEntity
  8
RACCORDO
100
AcDbCircle
 62
7
  6
CONTINUOUS
 10
66.4565716096
 20
-68.4366575552
 40
0.55
100
AcDbArc
 50
46.6741062455
 51
117.2369849163
  0
ARC
  5
4B2
100
AcDbEntity
  8
RACCORDO
100
AcDbCircle
 62
250
  6
CONTINUOUS
 10
66.4565716096
 20
-68.4366575552
 40
0.0499998836
100
AcDbArc
 50
46.6741062455
 51
117.2369849163
  0
ARC
  5
4B3
100
AcDbEntity
  8
DRAFT
100
AcDbCircle
 62
7
  6
CONTINUOUS
 10
68.7208573239
 20
-66.0360305113
 40
3.75
100
AcDbArc
 50
317.6553989092
 51
42.3446010908
  0
ARC
  5
4B4
100
AcDbEntity
  8
RACCORDO
100
AcDbCircle
 62
250
  6
CONTINUOUS
 10
68.7208573239
 20
-66.0360305113
 40
3.7202349995
100
AcDbArc
 50
311.5884307488
 51
48.4374116424
  0
ARC
  5
4B5
100
AcDbEntity
  8
DRAFT
100
AcDbCircle
 62
7
  6
CONTINUOUS
 10
69.0708573239
 20
-66.0360305113
 40
3.5
100
AcDbArc
 50
270.0
 51
90.0
  0
ARC
  5
4B6
100
AcDbEntity
  8
RACCORDO
100
AcDbCircle
 62
250
  6
CONTINUOUS
 10
68.7208573239
 20
-66.0360305113
 40
3.420279877
100
AcDbArc
 50
270.0
 51
90.0
  0
CIRCLE
  5
4B7
100
AcDbEntity
  8
RACCORDO
100
AcDbCircle
 62
250
  6
CONTINUOUS
 10
55.7208573239
 20
-66.0360305113
 40
3.2999985345
  0
ARC
  5
4B8
100
AcDbEntity
  8
RACCORDO
100
AcDbCircle
 62
250
  6
CONTINUOUS
 10
68.7208573239
 20
-66.0360305113
 40
3.2499984102
100
AcDbArc
 50
226.6741062455
 51
133.3258937545
  0
ARC
  5
4B9
100
AcDbEntity
  8
0
100
AcDbCircle
 62
7
  6
CONTINUOUS
 10
70.5208573239
 20
-60.0360305113
 40
3.0
100
AcDbArc
 50
40.7234289353
 51
41.6228874517
  0
ARC
  5
4BA
100
AcDbEntity
  8
RACCORDO
100
AcDbCircle
 62
7
  6
CONTINUOUS
 10
70.5208573239
 20
-60.1360305113
 40
3.0
100
AcDbArc
 50
43.1334396017
 51
44.2325798273
  0
CIRCLE
  5
4BB
100
AcDbEntity
  8
RACCORDO
100
AcDbCircle
 62
7
  6
CONTINUOUS
 10
55.7208573239
 20
-66.0360305113
 40
2.8
  0
CIRCLE
  5
4BC
100
AcDbEntity
  8
DRAFT
100
AcDbCircle
 62
7
  6
CONTINUOUS
 10
55.7208573239
 20
-66.0360305113
 40
2.75
  0
ARC
  5
4BD
100
AcDbEntity
  8
RACCORDO
100
AcDbCircle
 62
7
  6
CONTINUOUS
 10
68.7208573239
 20
-66.0360305113
 40
2.75
100
AcDbArc
 50
226.6741062455
 51
133.3258937545
  0
ARC
  5
4BE
100
AcDbEntity
  8
RACCORDO
100
AcDbCircle
 62
250
  6
CONTINUOUS
 10
65.2208573239
 20
-66.0360305113
 40
2.6499977804
100
AcDbArc
 50
62.7630150837
 51
297.2369849163
  0
ARC
  5
4BF
100
AcDbEntity
  8
RACCORDO
100
AcDbCircle
 62
250
  6
CONTINUOUS
 10
70.5208573239
 20
-60.1360305113
 40
2.5000000925
100
AcDbArc
 50
55.1260841475
 51
56.825918897
  0
ARC
  5
4C0
100
AcDbEntity
  8
RACCORDO
100
AcDbCircle
 62
7
  6
CONTINUOUS
 10
65.2208573239
 20
-66.0360305113
 40
2.15
100
AcDbArc
 50
62.7630150837
 51
297.2369849163
  0
ARC
  5
4C1
100
AcDbEntity
  8
0
100
AcDbCircle
 62
7
  6
CONTINUOUS
 10
65.2208573239
 20
-66.0360305113
 40
2.1473460386
100
AcDbArc
 50
90.0
 51
125.2629384604
  0
ARC
  5
4C2
100
AcDbEntity
  8
0
100
AcDbCircle
 62
7
  6
CONTINUOUS
 10
68.7208573239
 20
-66.0360305113
 40
2.1473460386
100
AcDbArc
 50
54.7370615396
 51
90.0
  0
ARC
  5
4C3
100
AcDbEntity
  8
0
100
AcDbCircle
 62
7
  6
CONTINUOUS
 10
74.283432339
 20
-58.1142118315
 40
1.300000326
100
AcDbArc
 50
7.7559790118
 51
76.5448986759
  0
ARC
  5
4C4
100
AcDbEntity
  8
RACCORDO
100
AcDbCircle
 62
250
  6
CONTINUOUS
 10
74.5208573239
 20
-64.0581188403
 40
0.68
100
AcDbArc
 50
246.5201008901
 51
251.5045404269
  0
ARC
  5
4C5
100
AcDbEntity
  8
RACCORDO
100
AcDbCircle
 62
7
  6
CONTINUOUS
 10
66.4565716096
 20
-63.6354034674
 40
0.55
100
AcDbArc
 50
242.7630150837
 51
313.3258937545
  0
ARC
  5
4C6
100
AcDbEntity
  8
RACCORDO
100
AcDbCircle
 62
250
  6
CONTINUOUS
 10
66.4565716096
 20
-63.6354034674
 40
0.0499998836
100
AcDbArc
 50
242.7630150837
 51
313.3258937545
  0
ARC
  5
4C7
100
AcDbEntity
  8
0
100
AcDbCircle
 62
7
  6
CONTINUOUS
 10
55.721284204
 20
123.5139694801
 40
200.0300070524
100
AcDbArc
 50
267.4042696926
 51
267.6479795763
  0
ARC
  5
4C8
100
AcDbEntity
  8
0
100
AcDbCircle
 62
7
  6
CONTINUOUS
 10
55.721284204
 20
123.5139694801
 40
200.0300070524
100
AcDbArc
 50
268.186599159
 51
268.4301880636
  0
ARC
  5
4C9
100
AcDbEntity
  8
0
100
AcDbCircle
 62
7
  6
CONTINUOUS
 10
55.721284204
 20
123.5139694801
 40
200.0300070524
100
AcDbArc
 50
268.5925615727
 51
268.8361027664
  0
ARC
  5
4CA
100
AcDbEntity
  8
0
100
AcDbCircle
 62
7
  6
CONTINUOUS
 10
55.721284204
 20
123.5139694801
 40
200.0300070524
100
AcDbArc
 50
269.079613763
 51
269.4477206824
  0
ARC
  5
4CB
100
AcDbEntity
  8
0
100
AcDbCircle
 62
7
  6
CONTINUOUS
 10
55.721284204
 20
123.5139694801
 40
200.0300070524
100
AcDbArc
 50
269.9024041076
 51
269.9998777892
  0
ARC
  5
4CC
100
AcDbEntity
  8
SUPERFICI
100
AcDbCircle
 62
7
  6
CONTINUOUS
 10
55.7212842039
 20
123.5139695138
 40
200.0000142744
100
AcDbArc
 50
266.6173641125
 51
266.955047722
  0
ARC
  5
4CD
100
AcDbEntity
  8
0
100
AcDbCircle
 62
7
  6
CONTINUOUS
 10
55.7212842041
 20
123.5139694676
 40
199.9999977144
100
AcDbArc
 50
266.6173641154
 51
269.9998777078
  0
ARC
  5
4CE
100
AcDbEntity
  8
0
100
AcDbCircle
 62
7
  6
CONTINUOUS
 10
95.3212873014
 20
-66.03603034
 40
60.000003104
100
AcDbArc
 50
172.2440216871
 51
187.7559783129
  0
ARC
  5
4CF
100
AcDbEntity
  8
0
100
AcDbCircle
 62
7
  6
CONTINUOUS
 10
95.3212841974
 20
-66.0360305113
 40
58.2
100
AcDbArc
 50
172.1072243133
 51
172.3398815971
  0
ARC
  5
4D0
100
AcDbEntity
  8
0
100
AcDbCircle
 62
7
  6
CONTINUOUS
 10
95.3708573239
 20
-66.0360305113
 40
58.2
100
AcDbArc
 50
172.4842460811
 51
187.5157539189
  0
ARC
  5
4D1
100
AcDbEntity
  8
0
100
AcDbCircle
 62
7
  6
CONTINUOUS
 10
95.3212841974
 20
-66.0360305113
 40
58.2
100
AcDbArc
 50
187.5772390671
 51
187.7713310184
  0
ARC
  5
4D2
100
AcDbEntity
  8
0
100
AcDbCircle
 62
7
  6
CONTINUOUS
 10
95.3212841974
 20
-66.0360305113
 40
58.2
100
AcDbArc
 50
187.8515755204
 51
187.9007229812
  0
ARC
  5
4D3
100
AcDbEntity
  8
0
100
AcDbCircle
 62
7
  6
CONTINUOUS
 10
95.3212841974
 20
-66.0360305113
 40
58.2
100
AcDbArc
 50
172.4874596484
 51
187.5125403516
  0
ELLIPSE
  5
4D4
100
AcDbEntity
  8
0
100
AcDbEllipse
 62
7
  6
CONTINUOUS
 10
68.7208573239
 20
-66.2752862069
 30
0.0
 11
-0.0
 21
2.3501963177
 31
0.0
 40
0.9948046367
 41
-2.1091945711
 42
-0.5589000584
  0
ELLIPSE
  5
4D5
100
AcDbEntity
  8
0
100
AcDbEllipse
 62
7
  6
CONTINUOUS
 10
65.2208573239
 20
-66.2752862069
 30
0.0
 11
-0.0
 21
2.3501963177
 31
0.0
 40
0.9948046367
 41
0.5589000584
 42
0.5737211258
  0
ELLIPSE
  5
4D6
100
AcDbEntity
  8
DRAFT
100
AcDbEllipse
 62
7
  6
CONTINUOUS
 10
68.7875547134
 20
-66.0360305113
 30
0.0
 11
2.7117272312
 21
0.0
 31
0.0
 40
0.9999810426
 41
0.9829976384
 42
1.5769538396
  0
ELLIPSE
  5
4D7
100
AcDbEntity
  8
DRAFT
100
AcDbEllipse
 62
7
  6
CONTINUOUS
 10
42.6541599344
 20
-66.0360305113
 30
0.0
 11
2.7117272312
 21
0.0
 31
0.0
 40
0.9999810426
 41
-2.1585950152
 42
-1.564638814
  0
ELLIPSE
  5
4D8
100
AcDbEntity
  8
0
100
AcDbEllipse
 62
7
  6
CONTINUOUS
 10
42.7208573239
 20
-65.7967748157
 30
0.0
 11
0.0
 21
2.3501963177
 31
0.0
 40
0.9948046367
 41
1.0323980825
 42
2.5826925951
  0
ELLIPSE
  5
4D9
100
AcDbEntity
  8
0
100
AcDbEllipse
 62
7
  6
CONTINUOUS
 10
46.2208573239
 20
-65.7967748157
 30
0.0
 11
0.0
 21
2.3501963177
 31
0.0
 40
0.9948046367
 41
-2.5826925951
 42
-2.5678715278
  0
ELLIPSE
  5
4DA
100
AcDbEntity
  8
0
100
AcDbEllipse
 62
7
  6
CONTINUOUS
 10
68.7958742581
 20
-66.0360305113
 30
0.0
 11
2.4128024745
 21
0.0
 31
0.0
 40
0.9995165517
 41
-0.6421356513
 42
1.6018925422
  0
ELLIPSE
  5
4DB
100
AcDbEntity
  8
0
100
AcDbEllipse
 62
7
  6
CONTINUOUS
 10
42.6458403896
 20
-66.0360305113
 30
0.0
 11
2.4128024745
 21
0.0
 31
0.0
 40
0.9995165517
 41
2.4994570023
 42
4.7434851958
  0
ENDSEC
  0
SECTION
  2
OBJECTS
  0
DICTIONARY
  5
C
100
AcDbDictionary
280
0
281
1
  3
ACAD_GROUP
350
D
  3
ACAD_MLINESTYLE
350
17
  3
ACAD_LAYOUT
350
1A
  3
ACAD_PLOTSETTINGS
350
19
  3
ACAD_PLOTSTYLENAME
350
E
  0
DICTIONARY
  5
D
102
{ACAD_REACTORS
330
C
102
}
100
AcDbDictionary
280
0
281
1
  0
ACDBDICTIONARYWDFLT
  5
E
102
{ACAD_REACTORS
330
C
102
}
100
AcDbDictionary
281
1
  3
Normal
350
F
100
AcDbDictionaryWithDefault
340
F
  0
DICTIONARY
  5
17
102
{ACAD_REACTORS
330
C
102
}
100
AcDbDictionary
280
0
281
1
  3
Standard
350
18
  0
DICTIONARY
  5
19
102
{ACAD_REACTORS
330
C
102
}
100
AcDbDictionary
281
1
  0
DICTIONARY
  5
1A
102
{ACAD_REACTORS
330
C
102
}
100
AcDbDictionary
281
1
  3
Model
350
4DC
  3
Layout1
350
4DD
  0
ACDBPLACEHOLDER
  5
F
102
{ACAD_REACTORS
330
E
102
}
  0
MLINESTYLE
  5
18
102
{ACAD_REACTORS
330
17
102
}
100
AcDbMlineStyle
  2
STANDARD
 70
0
  3

 62
256
 51
90.0
 52
90.0
 71
2
 49
0.5
 62
256
  6
BYLAYER
 49
-0.5
 62
256
  6
BYLAYER
  0
LAYOUT
  5
4DC
102
{ACAD_REACTORS
330
1A
102
}
100
AcDbPlotSettings
  1

  2
none_device
  4
ISO_A3_(420.00_x_297.00_MM)
  6

 40
0.0
 41
0.0
 42
0.0
 43
0.0
 44
420.0
 45
297.0
 46
0.0
 47
0.0
 48
0.0
 49
0.0
140
0.0
141
0.0
142
1.0
143
1.0
 70
1024
 72
1
 73
0
 74
0
  7

 75
0
147
1.0
148
0.0
149
0.0
100
AcDbLayout
  1
Model
 70
0
 71
0
 10
0.0
 20
0.0
 11
420.0
 21
297.0
 12
0.0
 22
0.0
 32
0.0
 14
0.0
 24
0.0
 34
0.0
 15
0.0
 25
0.0
 35
0.0
146
0.0
 13
0.0
 23
0.0
 33
0.0
 16
1.0
 26
0.0
 36
0.0
 17
0.0
 27
1.0
 37
0.0
 76
0
330
218
345
0
346
0
  0
LAYOUT
  5
4DD
102
{ACAD_REACTORS
330
1A
102
}
100
AcDbPlotSettings
  1

  2
none_device
  4
ISO_A3_(420.00_x_297.00_MM)
  6

 40
0.0
 41
0.0
 42
0.0
 43
0.0
 44
420.0
 45
297.0
 46
0.0
 47
0.0
 48
0.0
 49
0.0
140
0.0
141
0.0
142
1.0
143
1.0
 70
0
 72
1
 73
0
 74
0
  7

 75
0
147
1.0
148
0.0
149
0.0
100
AcDbLayout
  1
Layout1
 70
0
 71
1
 10
0.0
 20
0.0
 11
420.0
 21
297.0
 12
0.0
 22
0.0
 32
0.0
 14
0.0
 24
0.0
 34
0.0
 15
0.0
 25
0.0
 35
0.0
146
0.0
 13
0.0
 23
0.0
 33
0.0
 16
1.0
 26
0.0
 36
0.0
 17
0.0
 27
1.0
 37
0.0
 76
0
330
219
345
0
346
0
  0
ENDSEC
  0
EOF
