  0
SECTION
  2
HEADER
  9
$ACADVER
  1
AC1015
  9
$DWGCODEPAGE
  3
ANSI_1252
  9
$EXTMAX
 10
297.0
 20
210.0
 30
0.0
  9
$EXTMIN
 10
0.0
 20
0.0
 30
0.0
  9
$LIMMIN
 10
0.0
 20
0.0
  9
$LIMMAX
 10
297.0
 20
210.0
  9
$VIEWCTR
 10
148.5
 20
105.0
  9
$VIEWSIZE
 40
210.0
  9
$CLAYER
  8
0
  9
$LTSCALE
 40
16.335
  9
$CELTYPE
  6
BYLAYER
  9
$DIMSCALE
 40
1.0
  9
$DIMASZ
 40
3.0
  9
$DIMEXO
 40
0.5
  9
$DIMDLI
 40
11.286
  9
$DIMEXE
 40
1.5
  9
$DIMCEN
 40
2.673
  9
$DIMLFAC
 40
1.0
  9
$DIMBLK
  1
_FILLED
  9
$DIMTXT
 40
3.0
  9
$DIMTOL
 70
1
  9
$DIMLIM
 70
0
  9
$DIMTFAC
 40
1.0
  9
$DIMTP
 40
0.01
  9
$DIMTM
 40
0.01
  9
$DIMGAP
 40
0.625
  9
$DIMDSEP
 70
44
  9
$PDMODE
 70
3
  9
$PDSIZE
 40
3.0
  9
$HANDSEED
  5
452
  9
$TILEMODE
 70
1
  9
$MEASUREMENT
 70
1
  9
$INSUNITS
 70
4
  0
ENDSEC
  0
SECTION
  2
CLASSES
  0
CLASS
  1
ACDBDICTIONARYWDFLT
  2
AcDbDictionaryWithDefault
  3
AutoCAD 2000
 90
0
280
0
281
0
  0
CLASS
  1
ACDBPLACEHOLDER
  2
AcDbPlaceHolder
  3
AutoCAD 2000
 90
0
280
0
281
0
  0
CLASS
  1
LAYOUT
  2
AcDbLayout
  3
AutoCAD 2000
 90
0
280
0
281
0
  0
ENDSEC
  0
SECTION
  2
TABLES
  0
TABLE
  2
VPORT
  5
8
100
AcDbSymbolTable
 70
2
  0
VPORT
  5
1F4
100
AcDbSymbolTableRecord
100
AcDbViewportTableRecord
  2
*ACTIVE
 70
0
 10
0.0
 20
0.0
 11
1.0
 21
1.0
 12
148.5
 22
105.0
 13
0.0
 23
0.0
 14
1.0
 24
1.0
 15
0.0
 25
0.0
 16
0.0
 26
0.0
 36
1.0
 17
0.0
 27
0.0
 37
0.0
 40
210.0
 41
1.4142857143
 42
50.0
 43
0.0
 44
0.0
 50
0.0
 51
0.0
 71
0
 72
100
 73
1
 74
1
 75
0
 76
0
 77
0
 78
0
  0
ENDTAB
  0
TABLE
  2
LTYPE
  5
5
100
AcDbSymbolTable
 70
6
  0
LTYPE
  5
14
100
AcDbSymbolTableRecord
100
AcDbLinetypeTableRecord
  2
BYBLOCK
 70
0
  3

 72
65
 73
0
 40
0.0
  0
LTYPE
  5
15
100
AcDbSymbolTableRecord
100
AcDbLinetypeTableRecord
  2
BYLAYER
 70
0
  3

 72
65
 73
0
 40
0.0
  0
LTYPE
  5
16
100
AcDbSymbolTableRecord
100
AcDbLinetypeTableRecord
  2
CONTINUOUS
 70
64
  3
Solid line
 72
65
 73
0
 40
0.0
  0
LTYPE
  5
1F5
100
AcDbSymbolTableRecord
100
AcDbLinetypeTableRecord
  2
CENTER
 70
64
  3
____ _ ____ _ ____ _ ____ _ ____ _ ____ _ ____
 72
65
 73
4
 40
0.6
 49
0.375
 74
0
 49
-0.075
 74
0
 49
0.075
 74
0
 49
-0.075
 74
0
  0
LTYPE
  5
1F6
100
AcDbSymbolTableRecord
100
AcDbLinetypeTableRecord
  2
HIDDEN
 70
64
  3
- - - - - - - - - - - - - - - - - - - -
 72
65
 73
2
 40
0.2
 49
0.1
 74
0
 49
-0.1
 74
0
  0
LTYPE
  5
1F7
100
AcDbSymbolTableRecord
100
AcDbLinetypeTableRecord
  2
PHANTOM
 70
64
  3
_____ _ _ _____ _ _ _____ _ _ _____
 72
65
 73
6
 40
0.8
 49
0.45
 74
0
 49
-0.05
 74
0
 49
0.1
 74
0
 49
-0.05
 74
0
 49
0.1
 74
0
 49
-0.05
 74
0
  0
LTYPE
  5
1F8
100
AcDbSymbolTableRecord
100
AcDbLinetypeTableRecord
  2
DOT
 70
64
  3
. . . . . . . . . . . . . . . . . . . .
 72
65
 73
2
 40
0.2
 49
0.1
 74
0
 49
-0.1
 74
0
  0
LTYPE
  5
1F9
100
AcDbSymbolTableRecord
100
AcDbLinetypeTableRecord
  2
DASHED
 70
64
  3
- - - - - - - - - - - - - - - - - - - -
 72
65
 73
2
 40
0.2
 49
0.1
 74
0
 49
-0.1
 74
0
  0
ENDTAB
  0
TABLE
  2
LAYER
  5
2
100
AcDbSymbolTable
 70
36
  0
LAYER
  5
10
100
AcDbSymbolTableRecord
100
AcDbLayerTableRecord
  2
0
 70
0
 62
7
  6
CONTINUOUS
370
-3
390
F
  0
LAYER
  5
1FA
100
AcDbSymbolTableRecord
100
AcDbLayerTableRecord
  2
DEFAULT_1
 70
0
 62
7
  6
CENTER
370
-3
390
F
  0
LAYER
  5
1FB
100
AcDbSymbolTableRecord
100
AcDbLayerTableRecord
  2
DEFAULT_2
 70
0
 62
7
  6
HIDDEN
370
-3
390
F
  0
LAYER
  5
1FC
100
AcDbSymbolTableRecord
100
AcDbLayerTableRecord
  2
DEFAULT_3
 70
0
 62
7
  6
PHANTOM
370
-3
390
F
  0
LAYER
  5
1FD
100
AcDbSymbolTableRecord
100
AcDbLayerTableRecord
  2
ASSI
 70
0
 62
7
  6
CONTINUOUS
370
-3
390
F
  0
LAYER
  5
1FE
100
AcDbSymbolTableRecord
100
AcDbLayerTableRecord
  2
COLOR5
 70
0
 62
7
  6
CONTINUOUS
370
-3
390
F
  0
LAYER
  5
1FF
100
AcDbSymbolTableRecord
100
AcDbLayerTableRecord
  2
COORDINATE
 70
0
 62
7
  6
CONTINUOUS
370
-3
390
F
  0
LAYER
  5
200
100
AcDbSymbolTableRecord
100
AcDbLayerTableRecord
  2
COORD_ORIGINE
 70
0
 62
7
  6
CONTINUOUS
370
-3
390
F
  0
LAYER
  5
201
100
AcDbSymbolTableRecord
100
AcDbLayerTableRecord
  2
COSMETICHE
 70
0
 62
7
  6
CONTINUOUS
370
-3
390
F
  0
LAYER
  5
202
100
AcDbSymbolTableRecord
100
AcDbLayerTableRecord
  2
CURVE
 70
0
 62
7
  6
CONTINUOUS
370
-3
390
F
  0
LAYER
  5
203
100
AcDbSymbolTableRecord
100
AcDbLayerTableRecord
  2
DRAFT
 70
0
 62
7
  6
CONTINUOUS
370
-3
390
F
  0
LAYER
  5
204
100
AcDbSymbolTableRecord
100
AcDbLayerTableRecord
  2
IGES
 70
0
 62
7
  6
CONTINUOUS
370
-3
390
F
  0
LAYER
  5
205
100
AcDbSymbolTableRecord
100
AcDbLayerTableRecord
  2
INTF_1
 70
0
 62
7
  6
CONTINUOUS
370
-3
390
F
  0
LAYER
  5
206
100
AcDbSymbolTableRecord
100
AcDbLayerTableRecord
  2
INTF_2
 70
0
 62
7
  6
CONTINUOUS
370
-3
390
F
  0
LAYER
  5
207
100
AcDbSymbolTableRecord
100
AcDbLayerTableRecord
  2
INTF_YELLOW
 70
0
 62
7
  6
CONTINUOUS
370
-3
390
F
  0
LAYER
  5
208
100
AcDbSymbolTableRecord
100
AcDbLayerTableRecord
  2
NOTE
 70
0
 62
7
  6
CONTINUOUS
370
-3
390
F
  0
LAYER
  5
209
100
AcDbSymbolTableRecord
100
AcDbLayerTableRecord
  2
PIANI
 70
0
 62
7
  6
CONTINUOUS
370
-3
390
F
  0
LAYER
  5
20A
100
AcDbSymbolTableRecord
100
AcDbLayerTableRecord
  2
PIANI_ORIGINE
 70
0
 62
7
  6
CONTINUOUS
370
-3
390
F
  0
LAYER
  5
20B
100
AcDbSymbolTableRecord
100
AcDbLayerTableRecord
  2
PUNTI
 70
0
 62
7
  6
CONTINUOUS
370
-3
390
F
  0
LAYER
  5
20C
100
AcDbSymbolTableRecord
100
AcDbLayerTableRecord
  2
RACCORDO
 70
0
 62
7
  6
CONTINUOUS
370
-3
390
F
  0
LAYER
  5
20D
100
AcDbSymbolTableRecord
100
AcDbLayerTableRecord
  2
RGB__255__255__255__
 70
0
 62
7
  6
CONTINUOUS
370
-3
390
F
  0
LAYER
  5
20E
100
AcDbSymbolTableRecord
100
AcDbLayerTableRecord
  2
RGB____0____0____0__
 70
0
 62
7
  6
CONTINUOUS
370
-3
390
F
  0
LAYER
  5
20F
100
AcDbSymbolTableRecord
100
AcDbLayerTableRecord
  2
SMUSSO
 70
0
 62
7
  6
CONTINUOUS
370
-3
390
F
  0
LAYER
  5
210
100
AcDbSymbolTableRecord
100
AcDbLayerTableRecord
  2
SNAPLINE
 70
0
 62
7
  6
CONTINUOUS
370
-3
390
F
  0
LAYER
  5
211
100
AcDbSymbolTableRecord
100
AcDbLayerTableRecord
  2
SUPERFICI
 70
0
 62
7
  6
CONTINUOUS
370
-3
390
F
  0
LAYER
  5
212
100
AcDbSymbolTableRecord
100
AcDbLayerTableRecord
  2
TRASH
 70
0
 62
7
  6
CONTINUOUS
370
-3
390
F
  0
LAYER
  5
213
100
AcDbSymbolTableRecord
100
AcDbLayerTableRecord
  2
XSEC_DATUMS
 70
0
 62
7
  6
CONTINUOUS
370
-3
390
F
  0
ENDTAB
  0
TABLE
  2
STYLE
  5
3
100
AcDbSymbolTable
 70
1
  0
STYLE
  5
11
100
AcDbSymbolTableRecord
100
AcDbTextStyleTableRecord
  2
STANDARD
 70
0
 40
0.0
 41
0.8
 50
0.0
 71
0
 42
0.2
  3
txt
  4

  0
STYLE
  5
214
100
AcDbSymbolTableRecord
100
AcDbTextStyleTableRecord
  2
TEXTSTYLE_1
 70
0
 40
0.0
 41
0.8
 50
0.0
 71
0
 42
0.2
  3
gdt
  4

  0
ENDTAB
  0
TABLE
  2
VIEW
  5
6
100
AcDbSymbolTable
 70
0
  0
ENDTAB
  0
TABLE
  2
UCS
  5
7
100
AcDbSymbolTable
 70
0
  0
ENDTAB
  0
TABLE
  2
APPID
  5
9
100
AcDbSymbolTable
 70
1
  0
APPID
  5
215
100
AcDbSymbolTableRecord
100
AcDbRegAppTableRecord
  2
ACAD
 70
0
  0
ENDTAB
  0
TABLE
  2
BLOCK_RECORD
  5
1
100
AcDbSymbolTable
 70
0
  0
BLOCK_RECORD
  5
216
100
AcDbSymbolTableRecord
100
AcDbBlockTableRecord
  2
*Model_Space
  0
BLOCK_RECORD
  5
217
100
AcDbSymbolTableRecord
100
AcDbBlockTableRecord
  2
*Paper_Space
  0
ENDTAB
  0
TABLE
  2
DIMSTYLE
  5
A
100
AcDbSymbolTable
 70
1
100
AcDbDimStyleTable
 71
0
  0
DIMSTYLE
105
218
100
AcDbSymbolTableRecord
100
AcDbDimStyleTableRecord
  2
STANDARD
 70
0
  3

  4

 40
1.0
 41
3.0
 42
0.5
 43
0.38
 44
1.5
 45
0.0
 46
0.0
 47
0.01
 48
0.01
140
3.0
141
0.09
142
0.0
143
25.4
144
1.0
145
0.0
146
1.0
147
0.625
 71
1.0
 72
0.0
 73
0
 74
0
 75
0
 76
0
 77
1
 78
8
170
0
171
2
172
0
173
0
174
0
175
0
176
0
177
0
178
0
270
2
271
2
272
2
273
2
274
2
275
0
280
0
281
0
282
0
283
1
284
8
285
0
286
0
287
3
288
0
340
11
278
44
  0
ENDTAB
  0
ENDSEC
  0
SECTION
  2
BLOCKS
  0
BLOCK
  5
20
100
AcDbEntity
  8
0
100
AcDbBlockBegin
  2
*Model_Space
 70
0
 10
0.0
 20
0.0
 30
0.0
  3
*Model_Space
  1

  0
ENDBLK
  5
21
100
AcDbEntity
  8
0
100
AcDbBlockEnd
  0
BLOCK
  5
1C
100
AcDbEntity
  8
0
100
AcDbBlockBegin
  2
*Paper_Space
 70
0
 10
0.0
 20
0.0
 30
0.0
  3
*Paper_Space
  1

  0
ENDBLK
  5
1D
100
AcDbEntity
  8
0
100
AcDbBlockEnd
  0
ENDSEC
  0
SECTION
  2
ENTITIES
  0
LWPOLYLINE
  5
219
100
AcDbEntity
  8
RACCORDO
100
AcDbPolyline
 62
253
  6
CONTINUOUS
 90
7
 70
0
 10
132.4643291778
 20
100.2330152342
 10
132.4676560071
 20
100.1592905162
 10
132.476985544
 20
100.0871748117
 10
132.4923177887
 20
100.0166681209
 10
132.513652741
 20
99.9477704437
 10
132.5409904011
 20
99.8804817801
 10
132.5743307688
 20
99.8148021301
  0
LINE
  5
21A
100
AcDbEntity
  8
RACCORDO
100
AcDbLine
 62
253
  6
CONTINUOUS
 10
130.3407543588
 20
106.4971582741
 11
130.3407543588
 21
106.9471582741
  0
LINE
  5
21B
100
AcDbEntity
  8
RACCORDO
100
AcDbLine
 62
253
  6
CONTINUOUS
 10
130.3407543588
 20
110.2471582741
 11
130.3407543588
 21
110.6971581984
  0
LINE
  5
21C
100
AcDbEntity
  8
RACCORDO
100
AcDbLine
 62
7
  6
CONTINUOUS
 10
132.0143291614
 20
116.9613013143
 11
132.0143291614
 21
110.6970766193
  0
LINE
  5
21D
100
AcDbEntity
  8
RACCORDO
100
AcDbLine
 62
7
  6
CONTINUOUS
 10
132.0143291614
 20
106.4972399288
 11
132.0143291614
 21
100.2330152322
  0
LWPOLYLINE
  5
21E
100
AcDbEntity
  8
RACCORDO
100
AcDbPolyline
 62
253
  6
CONTINUOUS
 90
7
 70
0
 10
132.5743307686
 20
117.3795144183
 10
132.5409904007
 20
117.3138347683
 10
132.5136527406
 20
117.2465461048
 10
132.4923177882
 20
117.1776484276
 10
132.4769855436
 20
117.1071417368
 10
132.4676560067
 20
117.0350260323
 10
132.4643291776
 20
116.9613013143
  0
LINE
  5
21F
100
AcDbEntity
  8
0
100
AcDbLine
 62
7
  6
CONTINUOUS
 10
134.4279089718
 20
117.0237523413
 11
134.380101155
 21
116.9501614059
  0
LINE
  5
220
100
AcDbEntity
  8
0
100
AcDbLine
 62
7
  6
CONTINUOUS
 10
134.4433949708
 20
117.0471582741
 11
134.4279089718
 21
117.0237523413
  0
LINE
  5
221
100
AcDbEntity
  8
0
100
AcDbLine
 62
7
  6
CONTINUOUS
 10
134.8252847632
 20
117.5986830004
 11
134.7806874306
 21
117.5369344447
  0
LINE
  5
222
100
AcDbEntity
  8
0
100
AcDbLine
 62
7
  6
CONTINUOUS
 10
134.9140757513
 20
117.7155986403
 11
134.8252847632
 21
117.5986830004
  0
LINE
  5
223
100
AcDbEntity
  8
RACCORDO
100
AcDbLine
 62
7
  6
CONTINUOUS
 10
142.3684187228
 20
91.2229882867
 11
142.3680072647
 21
91.2229414067
  0
LINE
  5
224
100
AcDbEntity
  8
0
100
AcDbLine
 62
7
  6
CONTINUOUS
 10
149.7640757513
 20
91.8471582741
 11
146.4640757513
 21
91.8471582741
  0
LINE
  5
225
100
AcDbEntity
  8
DRAFT
100
AcDbLine
 62
7
  6
CONTINUOUS
 10
149.8157189988
 20
92.34069146
 11
149.7640757513
 21
92.34069146
  0
LINE
  5
226
100
AcDbEntity
  8
DRAFT
100
AcDbLine
 62
7
  6
CONTINUOUS
 10
146.4640757513
 20
92.34069146
 11
146.4124325037
 21
92.34069146
  0
LINE
  5
227
100
AcDbEntity
  8
0
100
AcDbLine
 62
253
  6
CONTINUOUS
 10
149.7640757513
 20
92.4325136131
 11
146.4640757513
 21
92.4325136131
  0
LINE
  5
228
100
AcDbEntity
  8
0
100
AcDbLine
 62
7
  6
CONTINUOUS
 10
149.9488037326
 20
92.4471582741
 11
149.7640757513
 21
92.4471582741
  0
LINE
  5
229
100
AcDbEntity
  8
RACCORDO
100
AcDbLine
 62
7
  6
CONTINUOUS
 10
149.7640757513
 20
92.4471582741
 11
146.4640757513
 21
92.4471582741
  0
LINE
  5
22A
100
AcDbEntity
  8
0
100
AcDbLine
 62
7
  6
CONTINUOUS
 10
146.4640757513
 20
92.4471582741
 11
146.2793477699
 21
92.4471582741
  0
LINE
  5
22B
100
AcDbEntity
  8
RACCORDO
100
AcDbLine
 62
253
  6
CONTINUOUS
 10
149.7640757513
 20
92.4710101957
 11
146.4640757513
 21
92.4710101957
  0
LINE
  5
22C
100
AcDbEntity
  8
RACCORDO
100
AcDbLine
 62
7
  6
CONTINUOUS
 10
153.8601442378
 20
91.2229414067
 11
153.8597327797
 21
91.2229882867
  0
LWPOLYLINE
  5
22D
100
AcDbEntity
  8
RACCORDO
100
AcDbPolyline
 62
7
  6
CONTINUOUS
 90
10
 70
0
 10
149.9597068563
 20
90.3907808263
 10
149.9437093515
 20
90.3956927012
 10
149.9277112087
 20
90.4090624341
 10
149.9117124278
 20
90.4308900248
 10
149.8957125404
 20
90.4611757787
 10
149.8797120149
 20
90.4999193905
 10
149.8637122574
 20
90.5471199444
 10
149.8477137365
 20
90.6027771352
 10
149.8317159837
 20
90.666891268
 10
149.8157189988
 20
90.7394623429
  0
LINE
  5
22E
100
AcDbEntity
  8
0
100
AcDbLine
 62
7
  6
CONTINUOUS
 10
134.8252844003
 20
99.595633968
 11
134.9140757513
 21
99.478717881
  0
LINE
  5
22F
100
AcDbEntity
  8
0
100
AcDbLine
 62
7
  6
CONTINUOUS
 10
134.7806874129
 20
99.6573820977
 11
134.8252844003
 21
99.595633968
  0
LINE
  5
230
100
AcDbEntity
  8
0
100
AcDbLine
 62
7
  6
CONTINUOUS
 10
134.4279083662
 20
100.1705651304
 11
134.4433949721
 21
100.1471582741
  0
LINE
  5
231
100
AcDbEntity
  8
0
100
AcDbLine
 62
7
  6
CONTINUOUS
 10
134.380101155
 20
100.2441551438
 11
134.4279083662
 21
100.1705651304
  0
LINE
  5
232
100
AcDbEntity
  8
RACCORDO
100
AcDbLine
 62
253
  6
CONTINUOUS
 10
132.4643291776
 20
116.9613013143
 11
132.4643291734
 21
110.2471582741
  0
LINE
  5
233
100
AcDbEntity
  8
RACCORDO
100
AcDbLine
 62
253
  6
CONTINUOUS
 10
132.4643291736
 20
106.9471582741
 11
132.4643291778
 21
100.2330152342
  0
LINE
  5
234
100
AcDbEntity
  8
0
100
AcDbLine
 62
7
  6
CONTINUOUS
 10
134.380101155
 20
99.4471582741
 11
134.380101155
 21
99.6471582741
  0
LINE
  5
235
100
AcDbEntity
  8
0
100
AcDbLine
 62
7
  6
CONTINUOUS
 10
134.380101155
 20
100.1471582741
 11
134.380101155
 21
117.0471582741
  0
LINE
  5
236
100
AcDbEntity
  8
0
100
AcDbLine
 62
7
  6
CONTINUOUS
 10
134.380101155
 20
117.5471582741
 11
134.380101155
 21
117.7471582741
  0
LINE
  5
237
100
AcDbEntity
  8
0
100
AcDbLine
 62
7
  6
CONTINUOUS
 10
134.9140757513
 20
98.7807179824
 11
134.9140757513
 21
118.4135985657
  0
LINE
  5
238
100
AcDbEntity
  8
0
100
AcDbLine
 62
7
  6
CONTINUOUS
 10
134.9282893136
 20
117.3471582741
 11
134.9282893136
 21
117.2471582741
  0
LINE
  5
239
100
AcDbEntity
  8
0
100
AcDbLine
 62
7
  6
CONTINUOUS
 10
134.9282893136
 20
99.8471582741
 11
134.9282893136
 21
99.9471582741
  0
LWPOLYLINE
  5
23A
100
AcDbEntity
  8
0
100
AcDbPolyline
 62
7
  6
CONTINUOUS
 90
3
 70
0
 10
134.9282893136
 20
117.2471582741
 10
134.9265244996
 20
117.2213099837
 10
134.9214396122
 20
117.1964932909
  0
LWPOLYLINE
  5
23B
100
AcDbEntity
  8
0
100
AcDbPolyline
 62
7
  6
CONTINUOUS
 90
3
 70
0
 10
134.9282893136
 20
99.8471582741
 10
134.9265167339
 20
99.8213019674
 10
134.9214316122
 20
99.7964847245
  0
LWPOLYLINE
  5
23C
100
AcDbEntity
  8
0
100
AcDbPolyline
 62
7
  6
CONTINUOUS
 90
11
 70
0
 10
134.9214396122
 20
117.1964932909
 10
134.9130346514
 20
117.1727081959
 10
134.9011219824
 20
117.1495380545
 10
134.88588924
 20
117.1273995109
 10
134.867899329
 20
117.1075424964
 10
134.8469365276
 20
117.0900745479
 10
134.8232165575
 20
117.0748881286
 10
134.7979494879
 20
117.0629105595
 10
134.7715386752
 20
117.0544509475
 10
134.743580763
 20
117.0492001857
 10
134.7140757513
 20
117.0471582741
  0
LINE
  5
23D
100
AcDbEntity
  8
0
100
AcDbLine
 62
7
  6
CONTINUOUS
 10
146.4640757513
 20
124.7471582741
 11
146.2793477699
 21
124.5624302927
  0
LINE
  5
23E
100
AcDbEntity
  8
0
100
AcDbLine
 62
7
  6
CONTINUOUS
 10
146.4640757513
 20
124.4792090816
 11
146.2793477699
 21
124.3007755536
  0
LINE
  5
23F
100
AcDbEntity
  8
DRAFT
100
AcDbLine
 62
7
  6
CONTINUOUS
 10
146.2793477699
 20
124.7471582741
 11
146.4124325037
 21
124.8536250881
  0
LINE
  5
240
100
AcDbEntity
  8
DRAFT
100
AcDbLine
 62
7
  6
CONTINUOUS
 10
157.5762111351
 20
95.0798362768
 11
152.3140757513
 21
95.0335135928
  0
LINE
  5
241
100
AcDbEntity
  8
0
100
AcDbLine
 62
7
  6
CONTINUOUS
 10
146.4640757513
 20
92.7151074665
 11
146.5140757513
 21
92.7151074665
  0
LINE
  5
242
100
AcDbEntity
  8
0
100
AcDbLine
 62
7
  6
CONTINUOUS
 10
149.7140757513
 20
92.7151074665
 11
149.7640757513
 21
92.7151074665
  0
LINE
  5
243
100
AcDbEntity
  8
0
100
AcDbLine
 62
7
  6
CONTINUOUS
 10
146.5140757513
 20
93.2510058514
 11
149.7140757513
 21
93.2510058514
  0
LINE
  5
244
100
AcDbEntity
  8
DRAFT
100
AcDbLine
 62
7
  6
CONTINUOUS
 10
142.3640757513
 20
93.5971582741
 11
143.9640757513
 21
93.5971582741
  0
LINE
  5
245
100
AcDbEntity
  8
DRAFT
100
AcDbLine
 62
7
  6
CONTINUOUS
 10
152.2640757513
 20
93.5971582741
 11
153.8640757513
 21
93.5971582741
  0
LINE
  5
246
100
AcDbEntity
  8
DRAFT
100
AcDbLine
 62
7
  6
CONTINUOUS
 10
143.9140757513
 20
93.6471582741
 11
142.3640757513
 21
93.6471582741
  0
LINE
  5
247
100
AcDbEntity
  8
DRAFT
100
AcDbLine
 62
7
  6
CONTINUOUS
 10
152.3140757513
 20
93.6471582741
 11
153.8640757513
 21
93.6471582741
  0
LINE
  5
248
100
AcDbEntity
  8
0
100
AcDbLine
 62
7
  6
CONTINUOUS
 10
146.5140757513
 20
93.9271539298
 11
149.7140757513
 21
93.9271539298
  0
LINE
  5
249
100
AcDbEntity
  8
DRAFT
100
AcDbLine
 62
7
  6
CONTINUOUS
 10
149.9640757513
 20
94.0971582741
 11
146.2640757513
 21
94.0971582741
  0
LINE
  5
24A
100
AcDbEntity
  8
DRAFT
100
AcDbLine
 62
7
  6
CONTINUOUS
 10
138.7144746959
 20
95.0971582741
 11
143.9640757513
 21
95.0971582741
  0
LINE
  5
24B
100
AcDbEntity
  8
DRAFT
100
AcDbLine
 62
7
  6
CONTINUOUS
 10
152.2640757513
 20
95.0971582741
 11
157.5136768066
 21
95.0971582741
  0
LINE
  5
24C
100
AcDbEntity
  8
DRAFT
100
AcDbLine
 62
7
  6
CONTINUOUS
 10
143.9140757513
 20
95.0335135928
 11
138.6519403674
 21
95.0798362768
  0
LINE
  5
24D
100
AcDbEntity
  8
DRAFT
100
AcDbLine
 62
7
  6
CONTINUOUS
 10
146.4124325037
 20
92.34069146
 11
146.2793477699
 21
92.4471582741
  0
LINE
  5
24E
100
AcDbEntity
  8
0
100
AcDbLine
 62
7
  6
CONTINUOUS
 10
146.4640757513
 20
92.7151074665
 11
146.2793477699
 21
92.8935409945
  0
LINE
  5
24F
100
AcDbEntity
  8
0
100
AcDbLine
 62
7
  6
CONTINUOUS
 10
146.4640757513
 20
92.4471582741
 11
146.2793477699
 21
92.6318862554
  0
LWPOLYLINE
  5
250
100
AcDbEntity
  8
0
100
AcDbPolyline
 62
7
  6
CONTINUOUS
 90
4
 70
0
 10
134.9130346514
 20
100.0216083523
 10
134.9214396122
 20
99.9978232572
 10
134.9265244996
 20
99.9730065644
 10
134.9282893136
 20
99.9471582741
  0
LINE
  5
251
100
AcDbEntity
  8
0
100
AcDbLine
 62
7
  6
CONTINUOUS
 10
138.6847937504
 20
100.3021753246
 11
138.6847057986
 21
100.7973555869
  0
LINE
  5
252
100
AcDbEntity
  8
0
100
AcDbLine
 62
7
  6
CONTINUOUS
 10
136.9047167513
 20
99.4861462741
 11
136.9047167513
 21
98.5969862741
  0
LINE
  5
253
100
AcDbEntity
  8
0
100
AcDbLine
 62
7
  6
CONTINUOUS
 10
137.0617257513
 20
98.7749942741
 11
137.0617257513
 21
99.4764812741
  0
LINE
  5
254
100
AcDbEntity
  8
0
100
AcDbLine
 62
7
  6
CONTINUOUS
 10
137.8830557513
 20
101.0942782741
 11
137.8830557513
 21
100.0053212741
  0
LINE
  5
255
100
AcDbEntity
  8
0
100
AcDbLine
 62
7
  6
CONTINUOUS
 10
138.0671257513
 20
100.1780572741
 11
138.0671257513
 21
100.9265502741
  0
LINE
  5
256
100
AcDbEntity
  8
0
100
AcDbLine
 62
7
  6
CONTINUOUS
 10
138.5216347513
 20
100.7570362741
 11
138.5216347513
 21
100.3475740061
  0
LINE
  5
257
100
AcDbEntity
  8
0
100
AcDbLine
 62
7
  6
CONTINUOUS
 10
139.5014677513
 20
101.0942782741
 11
139.5014677513
 21
100.0105042741
  0
LINE
  5
258
100
AcDbEntity
  8
0
100
AcDbLine
 62
7
  6
CONTINUOUS
 10
139.6690197513
 20
100.1780572741
 11
139.6690197513
 21
100.4817062741
  0
LINE
  5
259
100
AcDbEntity
  8
0
100
AcDbLine
 62
7
  6
CONTINUOUS
 10
139.6690197513
 20
100.6492592741
 11
139.6690197513
 21
100.9267262741
  0
LINE
  5
25A
100
AcDbEntity
  8
0
100
AcDbLine
 62
7
  6
CONTINUOUS
 10
140.1244937513
 20
100.4817062741
 11
140.1244937513
 21
100.6492592741
  0
LINE
  5
25B
100
AcDbEntity
  8
0
100
AcDbLine
 62
7
  6
CONTINUOUS
 10
140.3025017513
 20
100.0105042741
 11
140.3025017513
 21
100.1780572741
  0
LINE
  5
25C
100
AcDbEntity
  8
0
100
AcDbLine
 62
7
  6
CONTINUOUS
 10
140.3025017513
 20
100.9267262741
 11
140.3025017513
 21
101.0942782741
  0
LWPOLYLINE
  5
25D
100
AcDbEntity
  8
RACCORDO
100
AcDbPolyline
 62
7
  6
CONTINUOUS
 90
7
 70
0
 10
142.3680027288
 20
125.9713720499
 10
142.3675983245
 20
125.968688744
 10
142.3672005193
 20
125.9611412909
 10
142.3668138492
 20
125.9487327821
 10
142.3664339334
 20
125.9312425406
 10
142.3660651526
 20
125.9088912434
 10
142.3655507347
 20
125.8384977142
  0
LWPOLYLINE
  5
25E
100
AcDbEntity
  8
0
100
AcDbPolyline
 62
7
  6
CONTINUOUS
 90
11
 70
0
 10
134.9214316122
 20
99.7964847245
 10
134.9130339484
 20
99.7727065453
 10
134.9011414715
 20
99.7495572464
 10
134.8859364526
 20
99.7274470112
 10
134.8679657047
 20
99.7076063904
 10
134.8470070097
 20
99.6901317675
 10
134.8232825858
 20
99.6749267589
 10
134.7980059012
 20
99.6629327653
 10
134.7715814452
 20
99.6544635867
 10
134.7436047286
 20
99.6492054229
 10
134.7140757513
 20
99.6471582741
  0
LWPOLYLINE
  5
25F
100
AcDbEntity
  8
0
100
AcDbPolyline
 62
7
  6
CONTINUOUS
 90
10
 70
0
 10
146.16223903
 20
120.4325730809
 10
146.1375212203
 20
120.3972065478
 10
146.1118767831
 20
120.3628731891
 10
146.0853171869
 20
120.3294862259
 10
146.0578333123
 20
120.2969198424
 10
146.0294918898
 20
120.2651221978
 10
146.0004498704
 20
120.2341105725
 10
145.9708154318
 20
120.2038282057
 10
145.9406311177
 20
120.1741512502
 10
145.9099805242
 20
120.1449970905
  0
LWPOLYLINE
  5
260
100
AcDbEntity
  8
0
100
AcDbPolyline
 62
7
  6
CONTINUOUS
 90
10
 70
0
 10
146.7423283127
 20
120.0407868842
 10
146.7216877831
 20
120.0153046791
 10
146.6962776748
 20
119.9928484081
 10
146.6660454246
 20
119.9731788918
 10
146.630958082
 20
119.9560354405
 10
146.5910536555
 20
119.9411544239
 10
146.5464698018
 20
119.9282589462
 10
146.4973605215
 20
119.9170495585
 10
146.4438658266
 20
119.907220344
 10
146.3861815385
 20
119.8984683953
  0
LWPOLYLINE
  5
261
100
AcDbEntity
  8
RACCORDO
100
AcDbPolyline
 62
7
  6
CONTINUOUS
 90
6
 70
0
 10
132.0742030649
 20
106.5570824335
 10
132.0545775023
 20
106.5370515449
 10
132.0380618061
 20
106.5208909187
 10
132.0253186472
 20
106.5091097743
 10
132.0171657273
 20
106.5011988922
 10
132.0143291624
 20
106.4971802116
  0
LWPOLYLINE
  5
262
100
AcDbEntity
  8
RACCORDO
100
AcDbPolyline
 62
7
  6
CONTINUOUS
 90
3
 70
0
 10
132.1479777115
 20
106.6308529239
 10
132.1213895852
 20
106.603983123
 10
132.0742030649
 20
106.5570824335
  0
LINE
  5
263
100
AcDbEntity
  8
RACCORDO
100
AcDbLine
 62
7
  6
CONTINUOUS
 10
132.4643291736
 20
106.9471582861
 11
132.4320810247
 21
106.9145657531
  0
LINE
  5
264
100
AcDbEntity
  8
RACCORDO
100
AcDbLine
 62
7
  6
CONTINUOUS
 10
132.2683585458
 20
106.7511876585
 11
132.2059792652
 21
106.6886544931
  0
LINE
  5
265
100
AcDbEntity
  8
RACCORDO
100
AcDbLine
 62
7
  6
CONTINUOUS
 10
132.2059792652
 20
106.6886544931
 11
132.1479777115
 21
106.6308529239
  0
LINE
  5
266
100
AcDbEntity
  8
RACCORDO
100
AcDbLine
 62
7
  6
CONTINUOUS
 10
132.4320810247
 20
106.9145657531
 11
132.2683585458
 21
106.7511876585
  0
LINE
  5
267
100
AcDbEntity
  8
0
100
AcDbLine
 62
7
  6
CONTINUOUS
 10
149.8331901587
 20
120.7362784884
 11
149.3040088821
 21
120.2780567337
  0
LINE
  5
268
100
AcDbEntity
  8
0
100
AcDbLine
 62
7
  6
CONTINUOUS
 10
146.0752659752
 20
116.6815491313
 11
146.3470397692
 21
116.8760412804
  0
LINE
  5
269
100
AcDbEntity
  8
0
100
AcDbLine
 62
7
  6
CONTINUOUS
 10
150.0659124726
 20
120.4325730809
 11
149.4858231898
 21
120.0407868842
  0
LWPOLYLINE
  5
26A
100
AcDbEntity
  8
0
100
AcDbPolyline
 62
7
  6
CONTINUOUS
 90
6
 70
0
 10
145.9099805242
 20
120.1449970905
 10
145.8556916874
 20
120.1116398497
 10
145.8017196253
 20
120.0768952523
 10
145.7480954221
 20
120.0407647761
 10
145.6948365922
 20
120.0032407725
 10
145.6915277887
 20
120.0008049174
  0
LINE
  5
26B
100
AcDbEntity
  8
0
100
AcDbLine
 62
7
  6
CONTINUOUS
 10
146.3999364786
 20
120.7949007409
 11
146.9987696432
 21
121.1573905214
  0
LINE
  5
26C
100
AcDbEntity
  8
0
100
AcDbLine
 62
7
  6
CONTINUOUS
 10
150.3181709783
 20
120.1449970905
 11
149.8419699641
 21
119.8984683953
  0
LWPOLYLINE
  5
26D
100
AcDbEntity
  8
0
100
AcDbPolyline
 62
7
  6
CONTINUOUS
 90
10
 70
0
 10
146.3861815385
 20
119.8984683953
 10
146.3359550623
 20
119.8730406545
 10
146.2858991266
 20
119.8462855734
 10
146.2360438606
 20
119.8182012913
 10
146.1864051829
 20
119.7887778916
 10
146.1370279631
 20
119.7580226966
 10
146.0879851676
 20
119.7259640983
 10
146.0393205167
 20
119.6926160444
 10
145.991049314
 20
119.6579742092
 10
145.9432010183
 20
119.6220439614
  0
LINE
  5
26E
100
AcDbEntity
  8
0
100
AcDbLine
 62
7
  6
CONTINUOUS
 10
150.6637764749
 20
119.7514248832
 11
150.2849504842
 21
119.6220439614
  0
LWPOLYLINE
  5
26F
100
AcDbEntity
  8
0
100
AcDbPolyline
 62
7
  6
CONTINUOUS
 90
22
 70
0
 10
151.2211979377
 20
99.8149027452
 10
151.2735166793
 20
99.8183142169
 10
151.3227191258
 20
99.8262667584
 10
151.3688052772
 20
99.8387603697
 10
151.4117868851
 20
99.8558965566
 10
151.4516521979
 20
99.8775738133
 10
151.4883659604
 20
99.903487622
 10
151.5217892967
 20
99.9335709981
 10
151.5520610827
 20
99.9678909261
 10
151.5795626909
 20
100.0063438423
 10
151.6044174211
 20
100.0492278468
 10
151.6265019736
 20
100.0962448395
 10
151.6458278222
 20
100.1463969553
 10
151.66213684
 20
100.1996061768
 10
151.6756871538
 20
100.2559505215
 10
151.6872646183
 20
100.3146661767
 10
151.6970575667
 20
100.3755176458
 10
151.7048776658
 20
100.4387404255
 10
151.71094577
 20
100.5042771932
 10
151.7153354974
 20
100.5721088415
 10
151.7179732299
 20
100.6422544777
 10
151.7188589674
 20
100.714714102
  0
LWPOLYLINE
  5
270
100
AcDbEntity
  8
0
100
AcDbPolyline
 62
7
  6
CONTINUOUS
 90
13
 70
0
 10
152.1998222488
 20
100.7018006095
 10
152.1740621018
 20
100.7004367015
 10
152.1493273046
 20
100.6960909865
 10
152.1256178573
 20
100.6887634644
 10
152.1029051292
 20
100.6783409971
 10
152.081217751
 20
100.6649367227
 10
152.0606416143
 20
100.6488900561
 10
152.0411480154
 20
100.6301451038
 10
152.022765658
 20
100.6087577592
 10
152.0056665449
 20
100.5852351176
 10
151.9899080105
 20
100.5597462107
 10
151.9754327205
 20
100.5321220068
 10
151.9622406749
 20
100.5023625059
  0
LWPOLYLINE
  5
271
100
AcDbEntity
  8
0
100
AcDbPolyline
 62
7
  6
CONTINUOUS
 90
19
 70
0
 10
145.1121616546
 20
99.7958057558
 10
145.1529926245
 20
99.7977601389
 10
145.1929256068
 20
99.8038003382
 10
145.2319606014
 20
99.8139263535
 10
145.270328431
 20
99.8281123698
 10
145.3077982729
 20
99.8463842022
 10
145.3436776593
 20
99.8688192959
 10
145.3780305905
 20
99.8954939911
 10
145.4107930662
 20
99.9263319476
 10
145.4410806174
 20
99.9611815907
 10
145.4687651083
 20
100.0001745207
 10
145.4939746747
 20
100.0431791373
 10
145.5162092554
 20
100.0896490648
 10
145.535484896
 20
100.1396217338
 10
145.5517855509
 20
100.1930597138
 10
145.5645630227
 20
100.2493043372
 10
145.5736345789
 20
100.3081360481
 10
145.5791829519
 20
100.3697744024
 10
145.5812081418
 20
100.4342194
  0
LWPOLYLINE
  5
272
100
AcDbEntity
  8
0
100
AcDbPolyline
 62
7
  6
CONTINUOUS
 90
13
 70
0
 10
152.6026931838
 20
100.3032889631
 10
152.6251874311
 20
100.304230508
 10
152.6474501218
 20
100.3083668813
 10
152.6694812558
 20
100.3156980831
 10
152.6915253395
 20
100.3263871757
 10
152.7133378665
 20
100.3402710967
 10
152.7341853182
 20
100.3568606592
 10
152.7537217795
 20
100.3763585392
 10
152.7722931655
 20
100.3985620606
 10
152.7902037028
 20
100.4223740084
 10
152.8075548004
 20
100.4474286443
 10
152.8242450493
 20
100.4740917067
 10
152.8402744495
 20
100.5023631955
  0
LWPOLYLINE
  5
273
100
AcDbEntity
  8
0
100
AcDbPolyline
 62
7
  6
CONTINUOUS
 90
19
 70
0
 10
149.7610023865
 20
99.8149234182
 10
149.813215125
 20
99.8167120448
 10
149.8628241426
 20
99.8228051138
 10
149.9098294394
 20
99.8332026253
 10
149.9540731751
 20
99.8479807704
 10
149.9957131898
 20
99.867063358
 10
150.0352230047
 20
99.8902218144
 10
150.0732080666
 20
99.9175900912
 10
150.1090629285
 20
99.9490342368
 10
150.1414447708
 20
99.9839238225
 10
150.1697741997
 20
100.0220897364
 10
150.194630609
 20
100.0637010905
 10
150.2164093599
 20
100.1086347922
 10
150.2352646096
 20
100.1570012969
 10
150.251042201
 20
100.2086901492
 10
150.263675023
 20
100.2632468903
 10
150.2731407055
 20
100.3205200339
 10
150.2794616187
 20
100.3806610662
 10
150.2826377627
 20
100.4436699873
  0
LINE
  5
274
100
AcDbEntity
  8
0
100
AcDbLine
 62
7
  6
CONTINUOUS
 10
136.9047167513
 20
98.5969862741
 11
141.3233657513
 21
98.5969862741
  0
LINE
  5
275
100
AcDbEntity
  8
0
100
AcDbLine
 62
7
  6
CONTINUOUS
 10
141.1768127513
 20
98.7749942741
 11
137.0617257513
 21
98.7749942741
  0
LINE
  5
276
100
AcDbEntity
  8
RACCORDO
100
AcDbLine
 62
7
  6
CONTINUOUS
 10
134.5882670878
 20
99.1471582741
 11
133.6640757513
 21
99.1471582741
  0
LINE
  5
277
100
AcDbEntity
  8
RACCORDO
100
AcDbLine
 62
7
  6
CONTINUOUS
 10
161.6398844147
 20
99.1471582741
 11
162.5640757513
 21
99.1471582741
  0
LINE
  5
278
100
AcDbEntity
  8
0
100
AcDbLine
 62
7
  6
CONTINUOUS
 10
156.3559887513
 20
99.3267252741
 11
157.2680077513
 21
99.3267252741
  0
LINE
  5
279
100
AcDbEntity
  8
0
100
AcDbLine
 62
7
  6
CONTINUOUS
 10
162.5640757513
 20
99.4471582741
 11
161.8480503475
 21
99.4471582741
  0
LINE
  5
27A
100
AcDbEntity
  8
0
100
AcDbLine
 62
7
  6
CONTINUOUS
 10
133.6640757513
 20
99.4471582741
 11
134.380101155
 21
99.4471582741
  0
LINE
  5
27B
100
AcDbEntity
  8
0
100
AcDbLine
 62
7
  6
CONTINUOUS
 10
137.0617257513
 20
99.4764812741
 11
141.1768127513
 21
99.4764812741
  0
LINE
  5
27C
100
AcDbEntity
  8
0
100
AcDbLine
 62
7
  6
CONTINUOUS
 10
136.8419331779
 20
99.4861462741
 11
136.9047167513
 21
99.4861462741
  0
LINE
  5
27D
100
AcDbEntity
  8
0
100
AcDbLine
 62
7
  6
CONTINUOUS
 10
141.3233657513
 20
99.4861462741
 11
141.3862007513
 21
99.4861462741
  0
LINE
  5
27E
100
AcDbEntity
  8
0
100
AcDbLine
 62
7
  6
CONTINUOUS
 10
141.3757347513
 20
99.6342812741
 11
136.8522685119
 21
99.6342812741
  0
LINE
  5
27F
100
AcDbEntity
  8
0
100
AcDbLine
 62
7
  6
CONTINUOUS
 10
161.8480503475
 20
99.6471582741
 11
161.5140757513
 21
99.6471582741
  0
LINE
  5
280
100
AcDbEntity
  8
0
100
AcDbLine
 62
7
  6
CONTINUOUS
 10
134.380101155
 20
99.6471582741
 11
134.7140757513
 21
99.6471582741
  0
LINE
  5
281
100
AcDbEntity
  8
0
100
AcDbLine
 62
7
  6
CONTINUOUS
 10
157.2680077513
 20
99.6481522741
 11
156.9831537513
 21
99.6481522741
  0
LINE
  5
282
100
AcDbEntity
  8
0
100
AcDbLine
 62
7
  6
CONTINUOUS
 10
156.6407327513
 20
99.6481522741
 11
156.3559887513
 21
99.6481522741
  0
LINE
  5
283
100
AcDbEntity
  8
0
100
AcDbLine
 62
7
  6
CONTINUOUS
 10
143.7634727513
 20
99.7995942741
 11
144.0464627513
 21
99.7995942741
  0
LINE
  5
284
100
AcDbEntity
  8
0
100
AcDbLine
 62
7
  6
CONTINUOUS
 10
146.2833627513
 20
99.8125992741
 11
146.5143747513
 21
99.8125992741
  0
LINE
  5
285
100
AcDbEntity
  8
0
100
AcDbLine
 62
7
  6
CONTINUOUS
 10
147.8716065143
 20
99.8312712741
 11
148.8524047513
 21
99.8312712741
  0
LINE
  5
286
100
AcDbEntity
  8
0
100
AcDbLine
 62
7
  6
CONTINUOUS
 10
137.8830557513
 20
100.0053212741
 11
138.3879967513
 21
100.0053212741
  0
LINE
  5
287
100
AcDbEntity
  8
0
100
AcDbLine
 62
7
  6
CONTINUOUS
 10
139.5014677513
 20
100.0105042741
 11
140.3025017513
 21
100.0105042741
  0
LINE
  5
288
100
AcDbEntity
  8
0
100
AcDbLine
 62
7
  6
CONTINUOUS
 10
148.8524047513
 20
100.1370712741
 11
148.2267745509
 21
100.1370712741
  0
LINE
  5
289
100
AcDbEntity
  8
0
100
AcDbLine
 62
7
  6
CONTINUOUS
 10
161.8480503475
 20
100.1471582741
 11
161.5140757513
 21
100.1471582741
  0
LINE
  5
28A
100
AcDbEntity
  8
0
100
AcDbLine
 62
7
  6
CONTINUOUS
 10
134.380101155
 20
100.1471582741
 11
134.7140757513
 21
100.1471582741
  0
LINE
  5
28B
100
AcDbEntity
  8
0
100
AcDbLine
 62
7
  6
CONTINUOUS
 10
140.3025017513
 20
100.1780572741
 11
139.6690197513
 21
100.1780572741
  0
LINE
  5
28C
100
AcDbEntity
  8
0
100
AcDbLine
 62
7
  6
CONTINUOUS
 10
138.3521207513
 20
100.1780572741
 11
138.0671257513
 21
100.1780572741
  0
LINE
  5
28D
100
AcDbEntity
  8
RACCORDO
100
AcDbLine
 62
253
  6
CONTINUOUS
 10
132.4643291778
 20
100.2330152342
 11
132.0143291614
 21
100.2330152322
  0
LINE
  5
28E
100
AcDbEntity
  8
RACCORDO
100
AcDbLine
 62
253
  6
CONTINUOUS
 10
163.7638223228
 20
100.2330152199
 11
164.2138223411
 21
100.2330152198
  0
LINE
  5
28F
100
AcDbEntity
  8
0
100
AcDbLine
 62
7
  6
CONTINUOUS
 10
149.5769340844
 20
100.3300492741
 11
149.2938834201
 21
100.3300492741
  0
LINE
  5
290
100
AcDbEntity
  8
0
100
AcDbLine
 62
7
  6
CONTINUOUS
 10
139.6690197513
 20
100.4817062741
 11
140.1244937513
 21
100.4817062741
  0
LINE
  5
291
100
AcDbEntity
  8
0
100
AcDbLine
 62
7
  6
CONTINUOUS
 10
140.1244937513
 20
100.6492592741
 11
139.6690197513
 21
100.6492592741
  0
LINE
  5
292
100
AcDbEntity
  8
0
100
AcDbLine
 62
7
  6
CONTINUOUS
 10
138.9974927513
 20
100.8010832741
 11
139.1949177513
 21
100.8010832741
  0
LWPOLYLINE
  5
293
100
AcDbEntity
  8
0
100
AcDbPolyline
 62
7
  6
CONTINUOUS
 90
16
 70
0
 10
149.7756963408
 20
100.7321355103
 10
149.7994587184
 20
100.7315475808
 10
149.82238451
 20
100.7278160209
 10
149.8444737154
 20
100.7209408305
 10
149.865953892
 20
100.7109395717
 10
149.8865974825
 20
100.6977946825
 10
149.9057218147
 20
100.6814534771
 10
149.9233107942
 20
100.6616231693
 10
149.9393805154
 20
100.6385965454
 10
149.9532965895
 20
100.6131992782
 10
149.9648043021
 20
100.5854755267
 10
149.9741583676
 20
100.555381132
 10
149.9814885405
 20
100.5236092898
 10
149.9868380724
 20
100.4903910656
 10
149.9901637118
 20
100.4554953939
 10
149.9914654586
 20
100.4189222748
  0
LWPOLYLINE
  5
294
100
AcDbEntity
  8
0
100
AcDbPolyline
 62
7
  6
CONTINUOUS
 90
16
 70
0
 10
152.1903771231
 20
100.4631295505
 10
152.2155118941
 20
100.4621428861
 10
152.2410255708
 20
100.4585451343
 10
152.2669181533
 20
100.4523362949
 10
152.2932178575
 20
100.4432872697
 10
152.3198964674
 20
100.431627157
 10
152.3468693359
 20
100.4180432523
 10
152.3741023503
 20
100.4019065789
 10
152.4016296232
 20
100.3838461136
 10
152.4294688451
 20
100.3664360819
 10
152.4576406277
 20
100.3497010216
 10
152.4861243592
 20
100.3336163949
 10
152.514875895
 20
100.3206828145
 10
152.5438805203
 20
100.3117338178
 10
152.5731529499
 20
100.3059358673
 10
152.6026931838
 20
100.3032889631
  0
LWPOLYLINE
  5
295
100
AcDbEntity
  8
0
100
AcDbPolyline
 62
7
  6
CONTINUOUS
 90
16
 70
0
 10
149.7772430728
 20
100.0910150851
 10
149.7543718639
 20
100.0921999924
 10
149.732697404
 20
100.0956891281
 10
149.7122196932
 20
100.1014824921
 10
149.6928517489
 20
100.1096322267
 10
149.6746805537
 20
100.1200861897
 10
149.6579670548
 20
100.1326879545
 10
149.6427271638
 20
100.1474700991
 10
149.6289449692
 20
100.1644000455
 10
149.6168336836
 20
100.183223634
 10
149.6065661335
 20
100.2040551836
 10
149.5979694923
 20
100.2267803752
 10
149.5907384934
 20
100.2508020918
 10
149.5847713814
 20
100.2759212943
 10
149.5801699117
 20
100.3023370217
 10
149.5769340844
 20
100.3300492741
  0
LWPOLYLINE
  5
296
100
AcDbEntity
  8
0
100
AcDbPolyline
 62
7
  6
CONTINUOUS
 90
28
 70
0
 10
151.2211979377
 20
100.0909944121
 10
151.1983827974
 20
100.0921877113
 10
151.1771216118
 20
100.0960300986
 10
151.157414381
 20
100.1025215739
 10
151.1391693562
 20
100.1118561304
 10
151.1224782862
 20
100.123839775
 10
151.1076164167
 20
100.137890528
 10
151.0949197165
 20
100.154048501
 10
151.0840522169
 20
100.1722735824
 10
151.074281257
 20
100.1918634573
 10
151.0654497447
 20
100.212704518
 10
151.0577147721
 20
100.2349103722
 10
151.0508149548
 20
100.2581195281
 10
151.0447089241
 20
100.2822337459
 10
151.0394380487
 20
100.3073512655
 10
151.0348650511
 20
100.3334053149
 10
151.0310429512
 20
100.3604064431
 10
151.027918729
 20
100.3883441011
 10
151.0251960474
 20
100.4171198697
 10
151.0228043747
 20
100.4466903079
 10
151.0208142426
 20
100.4770988568
 10
151.0191409083
 20
100.5083774203
 10
151.0177742085
 20
100.5405243667
 10
151.0167243066
 20
100.5735413277
 10
151.0159369495
 20
100.6074651019
 10
151.0153940531
 20
100.6423079554
 10
151.0151137016
 20
100.6780576221
 10
151.0150619813
 20
100.7489821
  0
LINE
  5
297
100
AcDbEntity
  8
0
100
AcDbLine
 62
7
  6
CONTINUOUS
 10
149.3383577513
 20
100.6211572741
 11
149.5906783161
 21
100.6061112404
  0
LWPOLYLINE
  5
298
100
AcDbEntity
  8
0
100
AcDbPolyline
 62
7
  6
CONTINUOUS
 90
16
 70
0
 10
145.0920541383
 20
100.6983238937
 10
145.1145277134
 20
100.6968584065
 10
145.1363625203
 20
100.6925312979
 10
145.1575585589
 20
100.6853425678
 10
145.1784611091
 20
100.6752341902
 10
145.1987248911
 20
100.6622641912
 10
145.2173140657
 20
100.6466066487
 10
145.2339675568
 20
100.6281539266
 10
145.2489464406
 20
100.6070136609
 10
145.2619981068
 20
100.5836828389
 10
145.2730818751
 20
100.5580996674
 10
145.2822384258
 20
100.5303259394
 10
145.2893371887
 20
100.5010440212
 10
145.2943346405
 20
100.4704813682
 10
145.2972743046
 20
100.438410525
 10
145.2981561809
 20
100.4048314915
  0
LWPOLYLINE
  5
299
100
AcDbEntity
  8
0
100
AcDbPolyline
 62
7
  6
CONTINUOUS
 90
10
 70
0
 10
134.7140757513
 20
100.1471582741
 10
134.743580763
 20
100.1451163624
 10
134.7715386753
 20
100.1398656006
 10
134.797949488
 20
100.1314059886
 10
134.8232165576
 20
100.1194284194
 10
134.8469365277
 20
100.1042420001
 10
134.867899329
 20
100.0867740517
 10
134.8858892401
 20
100.0669170372
 10
134.9011219824
 20
100.0447784935
 10
134.9130346514
 20
100.0216083523
  0
LWPOLYLINE
  5
29A
100
AcDbEntity
  8
0
100
AcDbPolyline
 62
7
  6
CONTINUOUS
 90
10
 70
0
 10
161.5140757513
 20
99.6471582741
 10
161.484546774
 20
99.6492054229
 10
161.4565700574
 20
99.6544635867
 10
161.4301456015
 20
99.6629327653
 10
161.4048689169
 20
99.6749267589
 10
161.3811444929
 20
99.6901317674
 10
161.3601857978
 20
99.7076063903
 10
161.34221505
 20
99.7274470111
 10
161.327010031
 20
99.7495572464
 10
161.3151175541
 20
99.7727065454
  0
LWPOLYLINE
  5
29B
100
AcDbEntity
  8
0
100
AcDbPolyline
 62
7
  6
CONTINUOUS
 90
16
 70
0
 10
145.0997877984
 20
100.0718974227
 10
145.0731253955
 20
100.0739214366
 10
145.0480120067
 20
100.0790978696
 10
145.0244476321
 20
100.0874267216
 10
145.0024461593
 20
100.0990012405
 10
144.9819937007
 20
100.1137281785
 10
144.9630485929
 20
100.1313277919
 10
144.9454354741
 20
100.1518860604
 10
144.9293297061
 20
100.1753170044
 10
144.9152157119
 20
100.2010829415
 10
144.9031740839
 20
100.2292325535
 10
144.8931242296
 20
100.2597171587
 10
144.885308795
 20
100.29185303
 10
144.8798086619
 20
100.3254122586
 10
144.8765429484
 20
100.3606227534
 10
144.8755116545
 20
100.3974845144
  0
LWPOLYLINE
  5
29C
100
AcDbEntity
  8
RACCORDO
100
AcDbPolyline
 62
7
  6
CONTINUOUS
 90
7
 70
0
 10
132.1213895852
 20
110.5903334252
 10
132.0742030649
 20
110.6372341146
 10
132.0545775023
 20
110.6572650032
 10
132.0380618061
 20
110.6734256294
 10
132.0253186472
 20
110.6852067738
 10
132.0171657273
 20
110.6931176559
 10
132.0143291624
 20
110.6971363365
  0
LWPOLYLINE
  5
29D
100
AcDbEntity
  8
RACCORDO
100
AcDbPolyline
 62
7
  6
CONTINUOUS
 90
3
 70
0
 10
132.4320810246
 20
110.2797507951
 10
132.3335088737
 20
110.3779270072
 10
132.2367054914
 20
110.4747302866
  0
LWPOLYLINE
  5
29E
100
AcDbEntity
  8
RACCORDO
100
AcDbPolyline
 62
7
  6
CONTINUOUS
 90
3
 70
0
 10
132.2059792652
 20
110.505662055
 10
132.1479777115
 20
110.5634636242
 10
132.1213895852
 20
110.5903334252
  0
LINE
  5
29F
100
AcDbEntity
  8
RACCORDO
100
AcDbLine
 62
7
  6
CONTINUOUS
 10
132.2367054914
 20
110.4747302866
 11
132.2059792652
 21
110.505662055
  0
LINE
  5
2A0
100
AcDbEntity
  8
RACCORDO
100
AcDbLine
 62
7
  6
CONTINUOUS
 10
132.4643291734
 20
110.2471582622
 11
132.4320810246
 21
110.2797507951
  0
LINE
  5
2A1
100
AcDbEntity
  8
0
100
AcDbLine
 62
7
  6
CONTINUOUS
 10
139.3755927513
 20
102.6865632741
 11
141.6371705997
 21
100.2303782666
  0
LINE
  5
2A2
100
AcDbEntity
  8
0
100
AcDbLine
 62
7
  6
CONTINUOUS
 10
141.7579233914
 20
100.329202384
 11
139.4596957513
 21
102.8449442741
  0
LINE
  5
2A3
100
AcDbEntity
  8
0
100
AcDbLine
 62
7
  6
CONTINUOUS
 10
138.5211067513
 20
101.8952242741
 11
138.9974927513
 21
100.8010832741
  0
LINE
  5
2A4
100
AcDbEntity
  8
0
100
AcDbLine
 62
7
  6
CONTINUOUS
 10
139.0961617513
 20
101.0072072741
 11
138.7095707513
 21
101.8952242741
  0
LWPOLYLINE
  5
2A5
100
AcDbEntity
  8
0
100
AcDbPolyline
 62
7
  6
CONTINUOUS
 90
4
 70
0
 10
134.9130339484
 20
117.4216100028
 10
134.9214316122
 20
117.3978318236
 10
134.926516734
 20
117.3730145807
 10
134.9282893136
 20
117.3471582741
  0
LWPOLYLINE
  5
2A6
100
AcDbEntity
  8
RACCORDO
100
AcDbPolyline
 62
7
  6
CONTINUOUS
 90
5
 70
0
 10
142.3664339334
 20
91.2630740075
 10
142.3668138492
 20
91.245583766
 10
142.3672005193
 20
91.2331752572
 10
142.3675983245
 20
91.2256278041
 10
142.3680027288
 20
91.2229444982
  0
LWPOLYLINE
  5
2A7
100
AcDbEntity
  8
0
100
AcDbPolyline
 62
7
  6
CONTINUOUS
 90
28
 70
0
 10
144.5924596935
 20
100.6758962793
 10
144.5933245031
 20
100.6121441703
 10
144.5955900614
 20
100.5502888316
 10
144.5992563684
 20
100.4903302632
 10
144.6042711214
 20
100.4322546698
 10
144.6106866231
 20
100.3760758468
 10
144.6186597814
 20
100.3218351795
 10
144.6280597459
 20
100.2693823972
 10
144.639017367
 20
100.2188677707
 10
144.652082104
 20
100.1707834975
 10
144.6674428316
 20
100.1251209414
 10
144.6849106752
 20
100.0818887387
 10
144.7044684699
 20
100.0416049952
 10
144.7263241834
 20
100.0043078742
 10
144.7502698479
 20
99.9699592124
 10
144.7756643962
 20
99.9389626269
 10
144.8026093864
 20
99.9114875404
 10
144.8310032603
 20
99.88736453
 10
144.8599002756
 20
99.8664889444
 10
144.8892783595
 20
99.8490166732
 10
144.9191595847
 20
99.8347918267
 10
144.9486644267
 20
99.823242084
 10
144.9776429969
 20
99.8146644644
 10
145.006245184
 20
99.8087619487
 10
145.0340411292
 20
99.8040711578
 10
145.0608875462
 20
99.8001042989
 10
145.0869277214
 20
99.7973491649
 10
145.1121616546
 20
99.7958057558
  0
LINE
  5
2A8
100
AcDbEntity
  8
RACCORDO
100
AcDbLine
 62
7
  6
CONTINUOUS
 10
142.3657206497
 20
91.3119756262
 11
142.3664339334
 21
91.2630740075
  0
LINE
  5
2A9
100
AcDbEntity
  8
RACCORDO
100
AcDbLine
 62
7
  6
CONTINUOUS
 10
142.3648459512
 20
91.4161587048
 11
142.3657206497
 21
91.3119756262
  0
LINE
  5
2AA
100
AcDbEntity
  8
RACCORDO
100
AcDbLine
 62
7
  6
CONTINUOUS
 10
142.3641010657
 20
91.6472018192
 11
142.3648459512
 21
91.4161587048
  0
LINE
  5
2AB
100
AcDbEntity
  8
0
100
AcDbLine
 62
7
  6
CONTINUOUS
 10
141.1768127513
 20
99.4764812741
 11
141.1768127513
 21
98.7749942741
  0
LINE
  5
2AC
100
AcDbEntity
  8
0
100
AcDbLine
 62
7
  6
CONTINUOUS
 10
141.3233657513
 20
98.5969862741
 11
141.3233657513
 21
99.4861462741
  0
LINE
  5
2AD
100
AcDbEntity
  8
RACCORDO
100
AcDbLine
 62
7
  6
CONTINUOUS
 10
142.3640757513
 20
93.6471582741
 11
142.3641010657
 21
91.6472018192
  0
LINE
  5
2AE
100
AcDbEntity
  8
DRAFT
100
AcDbLine
 62
7
  6
CONTINUOUS
 10
142.3802204567
 20
123.5971582741
 11
142.3802204567
 21
123.5471582741
  0
LINE
  5
2AF
100
AcDbEntity
  8
DRAFT
100
AcDbLine
 62
7
  6
CONTINUOUS
 10
142.3802204567
 20
93.5971582741
 11
142.3802204567
 21
93.6471582741
  0
LINE
  5
2B0
100
AcDbEntity
  8
DRAFT
100
AcDbLine
 62
7
  6
CONTINUOUS
 10
142.5041419793
 20
93.6471582741
 11
142.5041419793
 21
93.5971582741
  0
LINE
  5
2B1
100
AcDbEntity
  8
DRAFT
100
AcDbLine
 62
7
  6
CONTINUOUS
 10
142.5041419793
 20
123.5471582741
 11
142.5041419793
 21
123.5971582741
  0
LINE
  5
2B2
100
AcDbEntity
  8
DRAFT
100
AcDbLine
 62
7
  6
CONTINUOUS
 10
142.5198003832
 20
95.0971582741
 11
142.5198003832
 21
95.045787427
  0
LINE
  5
2B3
100
AcDbEntity
  8
DRAFT
100
AcDbLine
 62
7
  6
CONTINUOUS
 10
142.5198003832
 20
93.6471582741
 11
142.5198003832
 21
93.5971582741
  0
LINE
  5
2B4
100
AcDbEntity
  8
DRAFT
100
AcDbLine
 62
7
  6
CONTINUOUS
 10
142.5198003832
 20
122.0971582741
 11
142.5198003832
 21
122.1485291211
  0
LINE
  5
2B5
100
AcDbEntity
  8
DRAFT
100
AcDbLine
 62
7
  6
CONTINUOUS
 10
142.5198003832
 20
123.5471582741
 11
142.5198003832
 21
123.5971582741
  0
LINE
  5
2B6
100
AcDbEntity
  8
0
100
AcDbLine
 62
7
  6
CONTINUOUS
 10
142.8640757513
 20
123.5971582741
 11
142.8640757513
 21
123.5471582741
  0
LINE
  5
2B7
100
AcDbEntity
  8
0
100
AcDbLine
 62
7
  6
CONTINUOUS
 10
142.8640757513
 20
122.1515597842
 11
142.8640757513
 21
122.0971582741
  0
LINE
  5
2B8
100
AcDbEntity
  8
0
100
AcDbLine
 62
7
  6
CONTINUOUS
 10
142.8640757513
 20
93.5971582741
 11
142.8640757513
 21
93.6471582741
  0
LINE
  5
2B9
100
AcDbEntity
  8
0
100
AcDbLine
 62
7
  6
CONTINUOUS
 10
142.8640757513
 20
95.042756764
 11
142.8640757513
 21
95.0971582741
  0
LINE
  5
2BA
100
AcDbEntity
  8
0
100
AcDbLine
 62
7
  6
CONTINUOUS
 10
143.4217227513
 20
101.2473361053
 11
143.4217227513
 21
101.0053922741
  0
LINE
  5
2BB
100
AcDbEntity
  8
0
100
AcDbLine
 62
7
  6
CONTINUOUS
 10
143.7634727513
 20
101.0053922741
 11
143.7634727513
 21
99.7995942741
  0
LINE
  5
2BC
100
AcDbEntity
  8
DRAFT
100
AcDbLine
 62
7
  6
CONTINUOUS
 10
143.8113555649
 20
93.5971582741
 11
143.8113555649
 21
93.6471582741
  0
LINE
  5
2BD
100
AcDbEntity
  8
DRAFT
100
AcDbLine
 62
7
  6
CONTINUOUS
 10
143.8113555649
 20
95.0335135928
 11
143.8113555649
 21
95.0971582741
  0
LINE
  5
2BE
100
AcDbEntity
  8
DRAFT
100
AcDbLine
 62
7
  6
CONTINUOUS
 10
143.8113555649
 20
122.0971582741
 11
143.8113555649
 21
122.1608029554
  0
LINE
  5
2BF
100
AcDbEntity
  8
DRAFT
100
AcDbLine
 62
7
  6
CONTINUOUS
 10
143.8113555649
 20
123.5471582741
 11
143.8113555649
 21
123.5971582741
  0
LINE
  5
2C0
100
AcDbEntity
  8
DRAFT
100
AcDbLine
 62
7
  6
CONTINUOUS
 10
143.9140757513
 20
93.6471582741
 11
143.9140757513
 21
95.0335135928
  0
LINE
  5
2C1
100
AcDbEntity
  8
DRAFT
100
AcDbLine
 62
7
  6
CONTINUOUS
 10
143.9140757513
 20
122.1608029554
 11
143.9140757513
 21
123.5471582741
  0
LINE
  5
2C2
100
AcDbEntity
  8
DRAFT
100
AcDbLine
 62
7
  6
CONTINUOUS
 10
143.9640757513
 20
93.5971582741
 11
143.9640757513
 21
95.0971582741
  0
LINE
  5
2C3
100
AcDbEntity
  8
DRAFT
100
AcDbLine
 62
7
  6
CONTINUOUS
 10
143.9640757513
 20
122.0971582741
 11
143.9640757513
 21
123.5971582741
  0
LINE
  5
2C4
100
AcDbEntity
  8
0
100
AcDbLine
 62
7
  6
CONTINUOUS
 10
144.0464627513
 20
99.7995942741
 11
144.0464627513
 21
101.5504962741
  0
LINE
  5
2C5
100
AcDbEntity
  8
RACCORDO
100
AcDbLine
 62
7
  6
CONTINUOUS
 10
142.3646194867
 20
125.7365356736
 11
142.3640757513
 21
123.5471582741
  0
LINE
  5
2C6
100
AcDbEntity
  8
RACCORDO
100
AcDbLine
 62
7
  6
CONTINUOUS
 10
142.3654016352
 20
125.8514847239
 11
142.3646805334
 21
125.7104863884
  0
LWPOLYLINE
  5
2C7
100
AcDbEntity
  8
RACCORDO
100
AcDbPolyline
 62
7
  6
CONTINUOUS
 90
6
 70
0
 10
142.3662910246
 20
125.9022845264
 10
142.3667040755
 20
125.927207298
 10
142.3671276816
 20
125.9466685545
 10
142.3675561146
 20
125.9603928936
 10
142.3679951028
 20
125.9686557177
 10
142.3684390761
 20
125.971455753
  0
LWPOLYLINE
  5
2C8
100
AcDbEntity
  8
RACCORDO
100
AcDbPolyline
 62
7
  6
CONTINUOUS
 90
7
 70
0
 10
146.2684390451
 20
126.8035334092
 10
146.2679854532
 20
126.8007391913
 10
146.2675388946
 20
126.7926704896
 10
146.2671049706
 20
126.7793296168
 10
146.2666782402
 20
126.7604146662
 10
146.2662641444
 20
126.7362275445
 10
146.2655253405
 20
126.6747283482
  0
LINE
  5
2C9
100
AcDbEntity
  8
0
100
AcDbLine
 62
7
  6
CONTINUOUS
 10
139.4828407513
 20
101.8952242741
 11
139.0961617513
 21
101.0072072741
  0
LINE
  5
2CA
100
AcDbEntity
  8
0
100
AcDbLine
 62
7
  6
CONTINUOUS
 10
139.1949177513
 20
100.8010832741
 11
139.6713037513
 21
101.8952242741
  0
LINE
  5
2CB
100
AcDbEntity
  8
0
100
AcDbLine
 62
7
  6
CONTINUOUS
 10
149.2293818593
 20
121.1573905214
 11
149.2330864171
 21
121.1635104515
  0
LINE
  5
2CC
100
AcDbEntity
  8
0
100
AcDbLine
 62
7
  6
CONTINUOUS
 10
149.8282150239
 20
120.7949007409
 11
149.8335536298
 21
120.8037201186
  0
LINE
  5
2CD
100
AcDbEntity
  8
0
100
AcDbLine
 62
7
  6
CONTINUOUS
 10
147.1781210761
 20
115.9591764079
 11
147.5123479555
 21
116.507187624
  0
LINE
  5
2CE
100
AcDbEntity
  8
0
100
AcDbLine
 62
7
  6
CONTINUOUS
 10
146.7457822383
 20
116.1997966006
 11
147.1982214443
 21
116.7339302589
  0
LINE
  5
2CF
100
AcDbEntity
  8
0
100
AcDbLine
 62
7
  6
CONTINUOUS
 10
146.4428799271
 20
116.3895399872
 11
146.8316983949
 21
116.7588149561
  0
LWPOLYLINE
  5
2D0
100
AcDbEntity
  8
0
100
AcDbPolyline
 62
7
  6
CONTINUOUS
 90
10
 70
0
 10
149.4823692642
 20
116.1997966006
 10
149.5132017128
 20
116.2249789991
 10
149.5447816754
 20
116.248959055
 10
149.5771252764
 20
116.2718126709
 10
149.6102868805
 20
116.2936522478
 10
149.6442154935
 20
116.3145332081
 10
149.6787388369
 20
116.3344656658
 10
149.7137636384
 20
116.3535278426
 10
149.7492928932
 20
116.3718519914
 10
149.7852715754
 20
116.3895399872
  0
LWPOLYLINE
  5
2D1
100
AcDbEntity
  8
0
100
AcDbPolyline
 62
7
  6
CONTINUOUS
 90
10
 70
0
 10
149.0299300583
 20
116.7339302589
 10
149.0549826266
 20
116.7513985922
 10
149.0838347892
 20
116.764627107
 10
149.1165938622
 20
116.7738177912
 10
149.1533518505
 20
116.7791977966
 10
149.1941406243
 20
116.7810186558
 10
149.238910198
 20
116.7795721176
 10
149.2875972002
 20
116.7751742513
 10
149.3401465029
 20
116.7681440605
 10
149.3964531076
 20
116.7588149561
  0
LWPOLYLINE
  5
2D2
100
AcDbEntity
  8
0
100
AcDbPolyline
 62
7
  6
CONTINUOUS
 90
19
 70
0
 10
148.3568938107
 20
101.5821729687
 10
148.3080727212
 20
101.5792161869
 10
148.2618505833
 20
101.5723902831
 10
148.2182273972
 20
101.5616952574
 10
148.1772628317
 20
101.5470731727
 10
148.1388972179
 20
101.5285819661
 10
148.1029515487
 20
101.5063954485
 10
148.0692684463
 20
101.4806478924
 10
148.0380052886
 20
101.4512050253
 10
148.009455202
 20
101.4178378411
 10
147.9835546735
 20
101.3802808989
 10
147.9603672162
 20
101.3387996396
 10
147.9403764963
 20
101.2939613802
 10
147.923783111
 20
101.2456714922
 10
147.910386463
 20
101.1940246041
 10
147.9000684265
 20
101.139871918
 10
147.8927896262
 20
101.083497168
 10
147.8885894374
 20
101.02461662
 10
147.8874678599
 20
100.9632302741
  0
LWPOLYLINE
  5
2D3
100
AcDbEntity
  8
0
100
AcDbPolyline
 62
7
  6
CONTINUOUS
 90
10
 70
0
 10
145.1423229291
 20
100.9744155605
 10
145.1010572418
 20
100.9725668022
 10
145.0625094805
 20
100.9668298248
 10
145.0266796451
 20
100.9572046282
 10
144.9935764161
 20
100.9435656995
 10
144.9631911132
 20
100.9260385517
 10
144.9354976946
 20
100.9049997234
 10
144.9104874798
 20
100.8805747274
 10
144.8881691493
 20
100.8526380508
 10
144.8685427033
 20
100.8211896937
  0
LWPOLYLINE
  5
2D4
100
AcDbEntity
  8
0
100
AcDbPolyline
 62
7
  6
CONTINUOUS
 90
25
 70
0
 10
151.2211979377
 20
101.6125920438
 10
151.1926524135
 20
101.6114712985
 10
151.1631306469
 20
101.6083525143
 10
151.1326326381
 20
101.6032356911
 10
151.1007899605
 20
101.5968071647
 10
151.0679710407
 20
101.5883805993
 10
151.0352811577
 20
101.5758969876
 10
151.0026135865
 20
101.558791909
 10
150.9700750523
 20
101.537629784
 10
150.9390910089
 20
101.5120448672
 10
150.9099272789
 20
101.4816842687
 10
150.8823180398
 20
101.4469008784
 10
150.8568912782
 20
101.40838762
 10
150.8338032599
 20
101.366098082
 10
150.8128977191
 20
101.320078676
 10
150.7943338449
 20
101.2711615598
 10
150.7782312294
 20
101.2195012613
 10
150.7644702804
 20
101.1649432527
 10
150.7528514112
 20
101.1078561086
 10
150.7434488002
 20
101.0482976665
 10
150.7361882688
 20
100.986210089
 10
150.7306476945
 20
100.9217884376
 10
150.7266863697
 20
100.8550977329
 10
150.7244450018
 20
100.7860729544
 10
150.7239235909
 20
100.714714102
  0
LWPOLYLINE
  5
2D5
100
AcDbEntity
  8
0
100
AcDbPolyline
 62
7
  6
CONTINUOUS
 90
22
 70
0
 10
145.1267428871
 20
101.5934950544
 10
145.0778344529
 20
101.5919639994
 10
145.0309229278
 20
101.5860407452
 10
144.9860083116
 20
101.5757252918
 10
144.9431147818
 20
101.5612165163
 10
144.9022181609
 20
101.5423155416
 10
144.8632459168
 20
101.5184257365
 10
144.8258824738
 20
101.4892149857
 10
144.7904434075
 20
101.4550154045
 10
144.7578029123
 20
101.416226707
 10
144.7280752304
 20
101.3726302628
 10
144.7011461196
 20
101.3244447024
 10
144.677547048
 20
101.2727256303
 10
144.6576977056
 20
101.2175611861
 10
144.6411784025
 20
101.1588632302
 10
144.6272615367
 20
101.0974229493
 10
144.615871116
 20
101.0333884624
 10
144.6070831327
 20
100.9666116504
 10
144.6003979613
 20
100.8974393431
 10
144.5956490601
 20
100.8259871504
 10
144.5930029708
 20
100.7521394625
 10
144.5924596935
 20
100.6758962793
  0
LWPOLYLINE
  5
2D6
100
AcDbEntity
  8
0
100
AcDbPolyline
 62
7
  6
CONTINUOUS
 90
10
 70
0
 10
149.848006063
 20
101.0086138602
 10
149.8156432659
 20
101.0078877703
 10
149.7843461404
 20
101.0047690292
 10
149.7541146866
 20
100.9992576371
 10
149.7250897635
 20
100.9914739412
 10
149.697130512
 20
100.9812975942
 10
149.6698143556
 20
100.9683675542
 10
149.6430004352
 20
100.9525634739
 10
149.6168296098
 20
100.9340057006
 10
149.5913018794
 20
100.9126942342
  0
LWPOLYLINE
  5
2D7
100
AcDbEntity
  8
0
100
AcDbPolyline
 62
7
  6
CONTINUOUS
 90
16
 70
0
 10
148.3688809839
 20
101.2913873476
 10
148.3870822627
 20
101.2913960137
 10
148.4052834234
 20
101.2888845194
 10
148.423484466
 20
101.2838528647
 10
148.4419671428
 20
101.2763011883
 10
148.4604497016
 20
101.2662293516
 10
148.478086885
 20
101.2536369386
 10
148.4949040754
 20
101.2383938217
 10
148.5108758906
 20
101.2206301286
 10
148.5250809262
 20
101.2007358256
 10
148.5373645143
 20
101.1786716544
 10
148.5478813229
 20
101.1544768734
 10
148.5561739523
 20
101.1286592241
 10
148.5620899361
 20
101.1013879537
 10
148.5657817408
 20
101.0724938151
 10
148.5672493664
 20
101.0419768082
  0
LINE
  5
2D8
100
AcDbEntity
  8
0
100
AcDbLine
 62
7
  6
CONTINUOUS
 10
138.0671257513
 20
100.9265502741
 11
138.3521207513
 21
100.9265502741
  0
LINE
  5
2D9
100
AcDbEntity
  8
0
100
AcDbLine
 62
7
  6
CONTINUOUS
 10
139.6690197513
 20
100.9267262741
 11
140.3025017513
 21
100.9267262741
  0
LINE
  5
2DA
100
AcDbEntity
  8
0
100
AcDbLine
 62
7
  6
CONTINUOUS
 10
147.8874678599
 20
100.9632302741
 11
148.1623968876
 21
100.9632302741
  0
LINE
  5
2DB
100
AcDbEntity
  8
0
100
AcDbLine
 62
7
  6
CONTINUOUS
 10
143.4217227513
 20
101.0053922741
 11
143.7634727513
 21
101.0053922741
  0
LINE
  5
2DC
100
AcDbEntity
  8
0
100
AcDbLine
 62
7
  6
CONTINUOUS
 10
140.3025017513
 20
101.0942782741
 11
139.5014677513
 21
101.0942782741
  0
LINE
  5
2DD
100
AcDbEntity
  8
0
100
AcDbLine
 62
7
  6
CONTINUOUS
 10
138.3879967513
 20
101.0942782741
 11
137.8830557513
 21
101.0942782741
  0
LINE
  5
2DE
100
AcDbEntity
  8
0
100
AcDbLine
 62
7
  6
CONTINUOUS
 10
145.2718492236
 20
101.1496802741
 11
145.5529656651
 21
101.1496802741
  0
LINE
  5
2DF
100
AcDbEntity
  8
0
100
AcDbLine
 62
7
  6
CONTINUOUS
 10
149.6419087513
 20
101.2920522741
 11
150.2261817513
 21
101.2920522741
  0
LINE
  5
2E0
100
AcDbEntity
  8
0
100
AcDbLine
 62
7
  6
CONTINUOUS
 10
144.0464627513
 20
101.5504962741
 11
143.8140669779
 21
101.5504962741
  0
LINE
  5
2E1
100
AcDbEntity
  8
0
100
AcDbLine
 62
7
  6
CONTINUOUS
 10
150.2261817513
 20
101.5828382741
 11
149.4373477513
 21
101.5828382741
  0
LINE
  5
2E2
100
AcDbEntity
  8
0
100
AcDbLine
 62
7
  6
CONTINUOUS
 10
146.9628117513
 20
101.6323912741
 11
146.7314217513
 21
101.6323912741
  0
LINE
  5
2E3
100
AcDbEntity
  8
0
100
AcDbLine
 62
7
  6
CONTINUOUS
 10
139.6713037513
 20
101.8952242741
 11
139.4828407513
 21
101.8952242741
  0
LINE
  5
2E4
100
AcDbEntity
  8
0
100
AcDbLine
 62
7
  6
CONTINUOUS
 10
138.7095707513
 20
101.8952242741
 11
138.5211067513
 21
101.8952242741
  0
LINE
  5
2E5
100
AcDbEntity
  8
0
100
AcDbLine
 62
7
  6
CONTINUOUS
 10
156.3664857513
 20
101.9317342741
 11
156.6407327513
 21
101.9317342741
  0
LINE
  5
2E6
100
AcDbEntity
  8
0
100
AcDbLine
 62
7
  6
CONTINUOUS
 10
156.9831537513
 20
101.9317342741
 11
157.2575107513
 21
101.9317342741
  0
LINE
  5
2E7
100
AcDbEntity
  8
0
100
AcDbLine
 62
7
  6
CONTINUOUS
 10
157.2575107513
 20
102.2549292741
 11
156.3664857513
 21
102.2549292741
  0
LWPOLYLINE
  5
2E8
100
AcDbEntity
  8
0
100
AcDbPolyline
 62
7
  6
CONTINUOUS
 90
28
 70
0
 10
151.2211979377
 20
101.3365003769
 10
151.2416418098
 20
101.3357422131
 10
151.2609989796
 20
101.3326615023
 10
151.279269447
 20
101.3272582445
 10
151.29650654
 20
101.3195345436
 10
151.3126569306
 20
101.3094882956
 10
151.3275606352
 20
101.297113189
 10
151.3411923629
 20
101.282193917
 10
151.3535774045
 20
101.2649457862
 10
151.3646316495
 20
101.2460084046
 10
151.3742110812
 20
101.2254030846
 10
151.3824597161
 20
101.2031085138
 10
151.3897254942
 20
101.1797003624
 10
151.3960272822
 20
101.1553225236
 10
151.4013462133
 20
101.1298311043
 10
151.4059736264
 20
101.1033700951
 10
151.4099050247
 20
101.0759530775
 10
151.413144905
 20
101.04756647
 10
151.4159980964
 20
101.0183135184
 10
151.4185385161
 20
100.988241858
 10
151.4206922469
 20
100.9573038533
 10
151.4225423664
 20
100.9254598443
 10
151.4241071871
 20
100.892717954
 10
151.4253683966
 20
100.8590700593
 10
151.4263541349
 20
100.8244521298
 10
151.4270737822
 20
100.788842822
 10
151.4275179583
 20
100.7522634794
 10
151.4276866633
 20
100.714714102
  0
LWPOLYLINE
  5
2E9
100
AcDbEntity
  8
0
100
AcDbPolyline
 62
7
  6
CONTINUOUS
 90
16
 70
0
 10
145.1063614095
 20
101.3174033875
 10
145.1262800568
 20
101.3162500838
 10
145.1450337183
 20
101.3134527398
 10
145.162622394
 20
101.3090113556
 10
145.1791653797
 20
101.3028071517
 10
145.1945433796
 20
101.2949589076
 10
145.2083985065
 20
101.2858229616
 10
145.2205131986
 20
101.2755151983
 10
145.2311050175
 20
101.2639197331
 10
145.2404687619
 20
101.2510452506
 10
145.2486879582
 20
101.2367937601
 10
145.2556790799
 20
101.2212632523
 10
145.2614863454
 20
101.2047563842
 10
145.2661244943
 20
101.1873740412
 10
145.269578787
 20
101.1690153378
 10
145.2718492236
 20
101.1496802741
  0
LWPOLYLINE
  5
2EA
100
AcDbEntity
  8
0
100
AcDbPolyline
 62
7
  6
CONTINUOUS
 90
8
 70
0
 10
152.6045095541
 20
100.541960022
 10
152.5896669972
 20
100.5436576842
 10
152.5746300411
 20
100.5466710295
 10
152.5593986857
 20
100.5510000581
 10
152.5440116611
 20
100.5568565601
 10
152.5284302372
 20
100.5640287454
 10
152.5125382243
 20
100.5718812436
 10
152.4964052651
 20
100.5802914681
  0
LWPOLYLINE
  5
2EB
100
AcDbEntity
  8
0
100
AcDbPolyline
 62
7
  6
CONTINUOUS
 90
13
 70
0
 10
152.4964052651
 20
100.5802914681
 10
152.4451497945
 20
100.6087867493
 10
152.4267814203
 20
100.6191009558
 10
152.4075053371
 20
100.6296035649
 10
152.3872587862
 20
100.6404516039
 10
152.3661045262
 20
100.6514880454
 10
152.3439588308
 20
100.6620175083
 10
152.3204335986
 20
100.6722288049
 10
152.295916931
 20
100.6819331228
 10
152.2714894045
 20
100.689868644
 10
152.2475112114
 20
100.6956147625
 10
152.2236221595
 20
100.6995920843
 10
152.1998222488
 20
100.7018006095
  0
LWPOLYLINE
  5
2EC
100
AcDbEntity
  8
0
100
AcDbPolyline
 62
7
  6
CONTINUOUS
 90
16
 70
0
 10
148.8503013274
 20
101.029989635
 10
148.846695147
 20
101.0978736803
 10
148.8381840184
 20
101.161669023
 10
148.8247679415
 20
101.2213756632
 10
148.8059979802
 20
101.2772580516
 10
148.7823230706
 20
101.3290517375
 10
148.7550900216
 20
101.3759633688
 10
148.7246719466
 20
101.4176181744
 10
148.6906957322
 20
101.4543909253
 10
148.6533888462
 20
101.4866125827
 10
148.6129443171
 20
101.5144993377
 10
148.5691691165
 20
101.5378349992
 10
148.5217116272
 20
101.5563019543
 10
148.4704546436
 20
101.5697943321
 10
148.4155153715
 20
101.5784180036
 10
148.3568938107
 20
101.5821729687
  0
LWPOLYLINE
  5
2ED
100
AcDbEntity
  8
0
100
AcDbPolyline
 62
7
  6
CONTINUOUS
 90
16
 70
0
 10
145.5812081418
 20
100.4342194
 10
145.5779106864
 20
100.4991570948
 10
145.5699430358
 20
100.560716942
 10
145.55730519
 20
100.6188989415
 10
145.5394938332
 20
100.6741891871
 10
145.5170122812
 20
100.7261015851
 10
145.4913704815
 20
100.7731778539
 10
145.4628842211
 20
100.8149527499
 10
145.431237713
 20
100.8518915168
 10
145.3969935445
 20
100.8839316043
 10
145.3601829447
 20
100.9110062068
 10
145.3207746844
 20
100.93318213
 10
145.2792376628
 20
100.9505972403
 10
145.2357281796
 20
100.9632974932
 10
145.190089935
 20
100.9712369333
 10
145.1423229291
 20
100.9744155605
  0
LWPOLYLINE
  5
2EE
100
AcDbEntity
  8
RACCORDO
100
AcDbPolyline
 62
7
  6
CONTINUOUS
 90
5
 70
0
 10
146.2666783197
 20
90.4339067465
 10
146.2671053265
 20
90.4149737321
 10
146.2675392829
 20
90.4016283186
 10
146.2679857228
 20
90.3935640167
 10
146.2684390477
 20
90.3907829259
  0
LINE
  5
2EF
100
AcDbEntity
  8
RACCORDO
100
AcDbLine
 62
7
  6
CONTINUOUS
 10
146.2946197885
 20
123.5930130856
 11
146.2895235194
 21
123.930170976
  0
LINE
  5
2F0
100
AcDbEntity
  8
RACCORDO
100
AcDbLine
 62
7
  6
CONTINUOUS
 10
146.265878359
 20
90.4866966419
 11
146.2666783197
 21
90.4339067465
  0
LINE
  5
2F1
100
AcDbEntity
  8
RACCORDO
100
AcDbLine
 62
7
  6
CONTINUOUS
 10
146.264913164
 20
90.5976743435
 11
146.265878359
 21
90.4866966419
  0
LINE
  5
2F2
100
AcDbEntity
  8
RACCORDO
100
AcDbLine
 62
7
  6
CONTINUOUS
 10
146.2641006276
 20
90.8407255225
 11
146.264913164
 21
90.5976743435
  0
LINE
  5
2F3
100
AcDbEntity
  8
RACCORDO
100
AcDbLine
 62
7
  6
CONTINUOUS
 10
146.2641006276
 20
90.8407255225
 11
146.2640757513
 21
94.0971582741
  0
LINE
  5
2F4
100
AcDbEntity
  8
DRAFT
100
AcDbLine
 62
7
  6
CONTINUOUS
 10
146.2793477699
 20
93.1971582741
 11
146.2793477699
 21
92.4471582741
  0
LINE
  5
2F5
100
AcDbEntity
  8
DRAFT
100
AcDbLine
 62
7
  6
CONTINUOUS
 10
146.2793477699
 20
123.9971582741
 11
146.2793477699
 21
124.7471582741
  0
LINE
  5
2F6
100
AcDbEntity
  8
RACCORDO
100
AcDbLine
 62
7
  6
CONTINUOUS
 10
146.2968015055
 20
94.0343161644
 11
146.2968015055
 21
94.0471582741
  0
LINE
  5
2F7
100
AcDbEntity
  8
RACCORDO
100
AcDbLine
 62
7
  6
CONTINUOUS
 10
146.2968015055
 20
123.1471582741
 11
146.2968015055
 21
123.1600003837
  0
LINE
  5
2F8
100
AcDbEntity
  8
DRAFT
100
AcDbLine
 62
7
  6
CONTINUOUS
 10
146.4124325037
 20
126.4548542052
 11
146.4124325037
 21
124.8536250881
  0
LINE
  5
2F9
100
AcDbEntity
  8
DRAFT
100
AcDbLine
 62
7
  6
CONTINUOUS
 10
146.4124325037
 20
92.34069146
 11
146.4124325037
 21
90.7394623429
  0
LINE
  5
2FA
100
AcDbEntity
  8
0
100
AcDbLine
 62
7
  6
CONTINUOUS
 10
146.4640757513
 20
124.7471582741
 11
146.4640757513
 21
124.4792090816
  0
LINE
  5
2FB
100
AcDbEntity
  8
0
100
AcDbLine
 62
7
  6
CONTINUOUS
 10
146.4640757513
 20
125.3471582741
 11
146.4640757513
 21
124.761802935
  0
LINE
  5
2FC
100
AcDbEntity
  8
0
100
AcDbLine
 62
7
  6
CONTINUOUS
 10
146.4640757513
 20
91.8471582741
 11
146.4640757513
 21
92.4325136131
  0
LINE
  5
2FD
100
AcDbEntity
  8
0
100
AcDbLine
 62
7
  6
CONTINUOUS
 10
146.4640757513
 20
92.4471582741
 11
146.4640757513
 21
92.7151074665
  0
LINE
  5
2FE
100
AcDbEntity
  8
0
100
AcDbLine
 62
7
  6
CONTINUOUS
 10
146.5140757513
 20
124.4792090816
 11
146.5140757513
 21
123.9433106968
  0
LINE
  5
2FF
100
AcDbEntity
  8
0
100
AcDbLine
 62
7
  6
CONTINUOUS
 10
146.5140757513
 20
123.9433106968
 11
146.5140757513
 21
123.2671626184
  0
LINE
  5
300
100
AcDbEntity
  8
0
100
AcDbLine
 62
7
  6
CONTINUOUS
 10
146.5140757513
 20
92.7151074665
 11
146.5140757513
 21
93.2510058514
  0
LINE
  5
301
100
AcDbEntity
  8
0
100
AcDbLine
 62
7
  6
CONTINUOUS
 10
146.5140757513
 20
93.2510058514
 11
146.5140757513
 21
93.9271539298
  0
LINE
  5
302
100
AcDbEntity
  8
RACCORDO
100
AcDbLine
 62
7
  6
CONTINUOUS
 10
148.1140757513
 20
123.2671626184
 11
148.1140757513
 21
123.0971582741
  0
LINE
  5
303
100
AcDbEntity
  8
RACCORDO
100
AcDbLine
 62
7
  6
CONTINUOUS
 10
148.1140757513
 20
121.3971582741
 11
148.1140757513
 21
119.7271856979
  0
LINE
  5
304
100
AcDbEntity
  8
RACCORDO
100
AcDbLine
 62
7
  6
CONTINUOUS
 10
148.1140757513
 20
94.0971582741
 11
148.1140757513
 21
93.9271539298
  0
LINE
  5
305
100
AcDbEntity
  8
RACCORDO
100
AcDbLine
 62
253
  6
CONTINUOUS
 10
148.1228019549
 20
119.7271856979
 11
148.1228019545
 21
115.7975392683
  0
LINE
  5
306
100
AcDbEntity
  8
RACCORDO
100
AcDbLine
 62
7
  6
CONTINUOUS
 10
148.6140757513
 20
119.2272618446
 11
148.6140757513
 21
115.8427526493
  0
LINE
  5
307
100
AcDbEntity
  8
RACCORDO
100
AcDbLine
 62
7
  6
CONTINUOUS
 10
146.2644532785
 20
126.504572353
 11
146.2640757513
 21
123.0971582741
  0
LINE
  5
308
100
AcDbEntity
  8
RACCORDO
100
AcDbLine
 62
7
  6
CONTINUOUS
 10
146.2655253405
 20
126.6747283482
 11
146.2644532785
 21
126.504572353
  0
LWPOLYLINE
  5
309
100
AcDbEntity
  8
0
100
AcDbPolyline
 62
7
  6
CONTINUOUS
 90
19
 70
0
 10
148.1623968876
 20
100.9632302741
 10
148.1627860661
 20
100.9931856396
 10
148.1640780938
 20
101.0222648681
 10
148.1662729708
 20
101.0504679596
 10
148.1691595141
 20
101.0778886843
 10
148.1729489066
 20
101.1044332719
 10
148.1782746973
 20
101.1298204121
 10
148.185330445
 20
101.154240205
 10
148.1939225909
 20
101.1775025504
 10
148.204104008
 20
101.1987558378
 10
148.2158334183
 20
101.2177753004
 10
148.2291520997
 20
101.2347857049
 10
148.2442367589
 20
101.2496097407
 10
148.2612686195
 20
101.2622215729
 10
148.280066458
 20
101.2726470365
 10
148.3002633101
 20
101.2807863262
 10
148.3217368544
 20
101.2866061738
 10
148.3446094123
 20
101.2901398476
 10
148.3688809839
 20
101.2913873476
  0
LWPOLYLINE
  5
30A
100
AcDbEntity
  8
0
100
AcDbPolyline
 62
7
  6
CONTINUOUS
 90
16
 70
0
 10
145.2981561809
 20
100.4048314915
 10
145.2973870145
 20
100.3681177862
 10
145.2948518687
 20
100.332856817
 10
145.2905507435
 20
100.2990485838
 10
145.2845785083
 20
100.2664681113
 10
145.2768402938
 20
100.2353403749
 10
145.2670514919
 20
100.2063403009
 10
145.2550240649
 20
100.1793795034
 10
145.2409460506
 20
100.1545463683
 10
145.225096954
 20
100.1327809795
 10
145.2073321973
 20
100.1142705526
 10
145.1877963584
 20
100.098827872
 10
145.1672026752
 20
100.086831375
 10
145.1457888938
 20
100.0784072073
 10
145.1233172682
 20
100.0734292232
 10
145.0997877984
 20
100.0718974227
  0
LWPOLYLINE
  5
30B
100
AcDbEntity
  8
0
100
AcDbPolyline
 62
7
  6
CONTINUOUS
 90
16
 70
0
 10
144.8755116545
 20
100.3974845144
 10
144.876654966
 20
100.4313091425
 10
144.8797553186
 20
100.4638564832
 10
144.8848127124
 20
100.4951265365
 10
144.8917205896
 20
100.525478281
 10
144.9005855079
 20
100.5545527381
 10
144.9117271399
 20
100.581272972
 10
144.9255093744
 20
100.6054608175
 10
144.9415683226
 20
100.6272944398
 10
144.9591319905
 20
100.6462313984
 10
144.9780361945
 20
100.6620766
 10
144.9984451182
 20
100.6750251379
 10
145.0200793188
 20
100.6851198522
 10
145.0428456484
 20
100.692375023
 10
145.0668372549
 20
100.6967763701
 10
145.0920541383
 20
100.6983238937
  0
LWPOLYLINE
  5
30C
100
AcDbEntity
  8
0
100
AcDbPolyline
 62
7
  6
CONTINUOUS
 90
22
 70
0
 10
144.8685427033
 20
100.8211896937
 10
144.8705726457
 20
100.8590115427
 10
144.8731798296
 20
100.8958004944
 10
144.876364255
 20
100.9315565489
 10
144.8800496011
 20
100.966316725
 10
144.8843121887
 20
101.0000440038
 10
144.8893809798
 20
101.0326273287
 10
144.8951980061
 20
101.0640925785
 10
144.9018212359
 20
101.0944138745
 10
144.9096535358
 20
101.1234025243
 10
144.9187620052
 20
101.1511323355
 10
144.9290795446
 20
101.1775295004
 10
144.9408077233
 20
101.2021839046
 10
144.9540670982
 20
101.225274698
 10
144.9687371123
 20
101.2466227305
 10
144.9846576633
 20
101.265280438
 10
145.0017665183
 20
101.2809849784
 10
145.0201259101
 20
101.2939991937
 10
145.0397624355
 20
101.304164046
 10
145.06068496
 20
101.3114265228
 10
145.082884618
 20
101.3158396366
 10
145.1063614095
 20
101.3174033875
  0
LWPOLYLINE
  5
30D
100
AcDbEntity
  8
0
100
AcDbPolyline
 62
7
  6
CONTINUOUS
 90
16
 70
0
 10
143.8140669779
 20
101.5504962741
 10
143.8097854637
 20
101.5102260305
 10
143.8020711004
 20
101.4726488268
 10
143.7909238882
 20
101.4377646631
 10
143.7762134622
 20
101.4055025035
 10
143.7580701871
 20
101.3759333838
 10
143.7368851575
 20
101.349270411
 10
143.7127639827
 20
101.3254806198
 10
143.6856010533
 20
101.3045969756
 10
143.6554706362
 20
101.2869314811
 10
143.6220566229
 20
101.2726550841
 10
143.585675122
 20
101.2615968368
 10
143.5473487251
 20
101.2535558993
 10
143.5074182964
 20
101.2484653248
 10
143.4655429718
 20
101.2463920602
 10
143.4217227513
 20
101.2473361053
  0
LWPOLYLINE
  5
30E
100
AcDbEntity
  8
RACCORDO
100
AcDbPolyline
 62
7
  6
CONTINUOUS
 90
10
 70
0
 10
149.8157189988
 20
126.4548542052
 10
149.8317159837
 20
126.5274252801
 10
149.8477137365
 20
126.591539413
 10
149.8637122574
 20
126.6471966037
 10
149.8797120149
 20
126.6943971576
 10
149.8957125404
 20
126.7331407694
 10
149.9117124278
 20
126.7634265233
 10
149.9277112087
 20
126.7852541141
 10
149.9437093515
 20
126.7986238469
 10
149.9597068563
 20
126.8035357218
  0
LINE
  5
30F
100
AcDbEntity
  8
0
100
AcDbLine
 62
7
  6
CONTINUOUS
 10
146.7314217513
 20
101.6323912741
 11
146.2833627513
 21
99.8125992741
  0
LINE
  5
310
100
AcDbEntity
  8
0
100
AcDbLine
 62
7
  6
CONTINUOUS
 10
146.5143747513
 20
99.8125992741
 11
146.9628117513
 21
101.6323912741
  0
LINE
  5
311
100
AcDbEntity
  8
0
100
AcDbLine
 62
7
  6
CONTINUOUS
 10
138.7684723876
 20
102.8449416867
 11
136.4702267513
 21
100.3291802741
  0
LINE
  5
312
100
AcDbEntity
  8
0
100
AcDbLine
 62
7
  6
CONTINUOUS
 10
136.5908867513
 20
100.2302542741
 11
138.8525753744
 21
102.6865606927
  0
LINE
  5
313
100
AcDbEntity
  8
RACCORDO
100
AcDbLine
 62
253
  6
CONTINUOUS
 10
132.5743307688
 20
99.8148021301
 11
132.1825669362
 21
99.5933950538
  0
LINE
  5
314
100
AcDbEntity
  8
RACCORDO
100
AcDbLine
 62
253
  6
CONTINUOUS
 10
164.0455845585
 20
117.6009215082
 11
163.6538207274
 21
117.3795144322
  0
LINE
  5
315
100
AcDbEntity
  8
DRAFT
100
AcDbLine
 62
7
  6
CONTINUOUS
 10
134.9140757513
 20
103.5877970696
 11
134.380101155
 21
103.4447190078
  0
LINE
  5
316
100
AcDbEntity
  8
RACCORDO
100
AcDbLine
 62
253
  6
CONTINUOUS
 10
130.3407543588
 20
106.9471582741
 11
129.8926810718
 21
106.9055610449
  0
LINE
  5
317
100
AcDbEntity
  8
RACCORDO
100
AcDbLine
 62
253
  6
CONTINUOUS
 10
165.8873971438
 20
110.2471582741
 11
166.3354704307
 21
110.2887555033
  0
LWPOLYLINE
  5
318
100
AcDbEntity
  8
RACCORDO
100
AcDbPolyline
 62
7
  6
CONTINUOUS
 90
13
 70
0
 10
165.8873971438
 20
106.4971582741
 10
165.9424567655
 20
106.5005418045
 10
165.9973628006
 20
106.5108030793
 10
166.0510323817
 20
106.5279644776
 10
166.1024937726
 20
106.551894515
 10
166.1505258905
 20
106.5821061591
 10
166.1939835685
 20
106.6177577504
 10
166.2324856309
 20
106.658343583
 10
166.2653386791
 20
106.7029042462
 10
166.2919262668
 20
106.750039243
 10
166.3124168289
 20
106.7993128607
 10
166.3270152377
 20
106.8510548083
 10
166.3354701466
 20
106.9055610712
  0
LINE
  5
319
100
AcDbEntity
  8
RACCORDO
100
AcDbLine
 62
7
  6
CONTINUOUS
 10
165.8873971438
 20
106.4971582741
 11
164.2138226262
 21
106.4971582741
  0
LINE
  5
31A
100
AcDbEntity
  8
RACCORDO
100
AcDbLine
 62
7
  6
CONTINUOUS
 10
132.0143288763
 20
106.4971582741
 11
130.3407543588
 21
106.4971582741
  0
LINE
  5
31B
100
AcDbEntity
  8
RACCORDO
100
AcDbLine
 62
253
  6
CONTINUOUS
 10
165.8873691627
 20
106.9471582741
 11
163.7638223275
 21
106.9471582741
  0
LINE
  5
31C
100
AcDbEntity
  8
RACCORDO
100
AcDbLine
 62
253
  6
CONTINUOUS
 10
132.4643291736
 20
106.9471582741
 11
130.3407797759
 21
106.9471582741
  0
LINE
  5
31D
100
AcDbEntity
  8
RACCORDO
100
AcDbLine
 62
7
  6
CONTINUOUS
 10
164.2138226262
 20
106.4971582741
 11
164.2137921553
 21
106.4971585972
  0
LINE
  5
31E
100
AcDbEntity
  8
RACCORDO
100
AcDbLine
 62
253
  6
CONTINUOUS
 10
130.3407543588
 20
110.2471582741
 11
129.8926810718
 21
110.2887555033
  0
LINE
  5
31F
100
AcDbEntity
  8
RACCORDO
100
AcDbLine
 62
253
  6
CONTINUOUS
 10
165.8873971438
 20
106.9471582741
 11
166.3354704308
 21
106.9055610449
  0
LINE
  5
320
100
AcDbEntity
  8
DRAFT
100
AcDbLine
 62
7
  6
CONTINUOUS
 10
161.3140757513
 20
103.5877970696
 11
161.8480503475
 21
103.4447190078
  0
LINE
  5
321
100
AcDbEntity
  8
RACCORDO
100
AcDbLine
 62
253
  6
CONTINUOUS
 10
132.5743307686
 20
117.3795144183
 11
132.1825669383
 21
117.6009214981
  0
LINE
  5
322
100
AcDbEntity
  8
RACCORDO
100
AcDbLine
 62
253
  6
CONTINUOUS
 10
163.6538207279
 20
99.814802116
 11
164.0455845588
 21
99.5933950404
  0
LINE
  5
323
100
AcDbEntity
  8
0
100
AcDbLine
 62
7
  6
CONTINUOUS
 10
155.7807196093
 20
101.4422013937
 11
156.6407327513
 21
100.7174622741
  0
LINE
  5
324
100
AcDbEntity
  8
0
100
AcDbLine
 62
7
  6
CONTINUOUS
 10
156.6407327513
 20
101.1121992741
 11
155.7388742301
 21
101.8722007133
  0
LINE
  5
325
100
AcDbEntity
  8
0
100
AcDbLine
 62
7
  6
CONTINUOUS
 10
155.4823127513
 20
98.5439852741
 11
155.6500427513
 21
98.3062022741
  0
LWPOLYLINE
  5
326
100
AcDbEntity
  8
0
100
AcDbPolyline
 62
7
  6
CONTINUOUS
 90
19
 70
0
 10
145.5529656651
 20
101.1496802741
 10
145.5467238905
 20
101.1962717141
 10
145.538189449
 20
101.240872919
 10
145.5273623406
 20
101.2834838886
 10
145.5142738266
 20
101.3244555798
 10
145.4988926457
 20
101.3634370358
 10
145.4811250137
 20
101.3993753865
 10
145.4609191483
 20
101.4319544544
 10
145.4383268318
 20
101.461490417
 10
145.413409628
 20
101.4878789375
 10
145.385932014
 20
101.5110345529
 10
145.3561295125
 20
101.5310427262
 10
145.3247702556
 20
101.5480555093
 10
145.2913219993
 20
101.5619027738
 10
145.2563169876
 20
101.5727546481
 10
145.2221200841
 20
101.5812735696
 10
145.1895195768
 20
101.5876803507
 10
145.1577271778
 20
101.591754179
 10
145.1267428871
 20
101.5934950544
  0
LWPOLYLINE
  5
327
100
AcDbEntity
  8
0
100
AcDbPolyline
 62
7
  6
CONTINUOUS
 90
16
 70
0
 10
149.2938834201
 20
100.3300492741
 10
149.2982259497
 20
100.2696970485
 10
149.3071037695
 20
100.21233839
 10
149.3205168795
 20
100.1579732985
 10
149.3387633638
 20
100.1061799989
 10
149.3615451384
 20
100.0573802664
 10
149.3879679507
 20
100.0128394262
 10
149.4179558257
 20
99.9729453342
 10
149.4515847384
 20
99.9373101345
 10
149.4881883616
 20
99.9060355847
 10
149.5278388077
 20
99.8789793831
 10
149.5704639643
 20
99.8562838315
 10
149.6151811669
 20
99.838477593
 10
149.6616961941
 20
99.8257368884
 10
149.7103032673
 20
99.8178854968
 10
149.7610023865
 20
99.8149234182
  0
LWPOLYLINE
  5
328
100
AcDbEntity
  8
RACCORDO
100
AcDbPolyline
 62
7
  6
CONTINUOUS
 90
5
 70
0
 10
149.9614732623
 20
126.7604146662
 10
149.9610465319
 20
126.7793296168
 10
149.9606126079
 20
126.7926704896
 10
149.9601660494
 20
126.8007391913
 10
149.9597124574
 20
126.8035334092
  0
LWPOLYLINE
  5
329
100
AcDbEntity
  8
0
100
AcDbPolyline
 62
7
  6
CONTINUOUS
 90
22
 70
0
 10
151.7188589674
 20
100.714714102
 10
151.7178778674
 20
100.7870128871
 10
151.7152538804
 20
100.8570629997
 10
151.7109870063
 20
100.9248644398
 10
151.7052426679
 20
100.9905026476
 10
151.6978554425
 20
101.0538921828
 10
151.6883290619
 20
101.1147767247
 10
151.6766947197
 20
101.1732724204
 10
151.6629212222
 20
101.2292631227
 10
151.6464187201
 20
101.2821440696
 10
151.6269901541
 20
101.3320434321
 10
151.6048325834
 20
101.3788330392
 10
151.5799473359
 20
101.421523616
 10
151.5524939514
 20
101.4598192074
 10
151.5223128901
 20
101.4940157685
 10
151.4889268603
 20
101.5240118893
 10
151.4521454247
 20
101.5498843039
 10
151.4121590206
 20
101.5715562783
 10
151.3690616678
 20
101.5886962007
 10
151.3228847064
 20
101.6011935337
 10
151.2735967964
 20
101.6091588148
 10
151.2211979377
 20
101.6125920438
  0
LINE
  5
32A
100
AcDbEntity
  8
RACCORDO
100
AcDbLine
 62
7
  6
CONTINUOUS
 10
149.9622724966
 20
126.7076739719
 11
149.9614732623
 21
126.7604146662
  0
LWPOLYLINE
  5
32B
100
AcDbEntity
  8
0
100
AcDbPolyline
 62
7
  6
CONTINUOUS
 90
19
 70
0
 10
150.2826377627
 20
100.4436699873
 10
150.2820942431
 20
100.485684595
 10
150.2785962666
 20
100.5292196852
 10
150.272143833
 20
100.5742752578
 10
150.2630965543
 20
100.6219194821
 10
150.2510948186
 20
100.6710841889
 10
150.2350597903
 20
100.7185648706
 10
150.2142362111
 20
100.7641115633
 10
150.1893793394
 20
100.8079742309
 10
150.1616761149
 20
100.847698258
 10
150.1309527808
 20
100.8825407993
 10
150.0973830939
 20
100.9132447001
 10
150.0626752643
 20
100.9395838807
 10
150.0268778671
 20
100.9613679375
 10
149.9899423272
 20
100.9787872742
 10
149.9534311285
 20
100.9921870216
 10
149.9178650988
 20
101.0016822236
 10
149.8827234104
 20
101.0071578365
 10
149.848006063
 20
101.0086138602
  0
LWPOLYLINE
  5
32C
100
AcDbEntity
  8
0
100
AcDbPolyline
 62
7
  6
CONTINUOUS
 90
22
 70
0
 10
150.7239235909
 20
100.714714102
 10
150.7248387885
 20
100.641438715
 10
150.7275406853
 20
100.5704807533
 10
150.7320292813
 20
100.5018402169
 10
150.7381684451
 20
100.4354691668
 10
150.7460943081
 20
100.3714155421
 10
150.7562152645
 20
100.3098231592
 10
150.7685143588
 20
100.2505416751
 10
150.7830085464
 20
100.1937214328
 10
150.8001570878
 20
100.1399572785
 10
150.8199008363
 20
100.0889815681
 10
150.8422989386
 20
100.0410619456
 10
150.8679880942
 20
99.9975961898
 10
150.8974938649
 20
99.9590093442
 10
150.930290689
 20
99.9248763653
 10
150.9654385811
 20
99.8953199008
 10
151.0027212669
 20
99.8703597395
 10
151.0423550207
 20
99.8499760927
 10
151.0840486809
 20
99.8342322418
 10
151.1277051935
 20
99.8231492804
 10
151.1734216124
 20
99.8167061149
 10
151.2211979377
 20
99.8149027452
  0
LINE
  5
32D
100
AcDbEntity
  8
RACCORDO
100
AcDbLine
 62
7
  6
CONTINUOUS
 10
149.9632378447
 20
126.5967202689
 11
149.9622724966
 21
126.7076739719
  0
LINE
  5
32E
100
AcDbEntity
  8
RACCORDO
100
AcDbLine
 62
7
  6
CONTINUOUS
 10
149.9640509861
 20
126.353562305
 11
149.9632378447
 21
126.5967202689
  0
LINE
  5
32F
100
AcDbEntity
  8
0
100
AcDbLine
 62
7
  6
CONTINUOUS
 10
148.8524047513
 20
99.8312712741
 11
148.8524047513
 21
100.1370712741
  0
LINE
  5
330
100
AcDbEntity
  8
DRAFT
100
AcDbLine
 62
7
  6
CONTINUOUS
 10
149.1140757513
 20
121.2107583194
 11
149.1140757513
 21
118.8312577725
  0
LINE
  5
331
100
AcDbEntity
  8
DRAFT
100
AcDbLine
 62
7
  6
CONTINUOUS
 10
149.6140757513
 20
123.2671626184
 11
149.6140757513
 21
123.0971582741
  0
LINE
  5
332
100
AcDbEntity
  8
DRAFT
100
AcDbLine
 62
7
  6
CONTINUOUS
 10
149.6140757513
 20
94.0971582741
 11
149.6140757513
 21
93.9271539298
  0
LINE
  5
333
100
AcDbEntity
  8
0
100
AcDbLine
 62
7
  6
CONTINUOUS
 10
149.7140757513
 20
123.9433106968
 11
149.7140757513
 21
123.2671626184
  0
LINE
  5
334
100
AcDbEntity
  8
0
100
AcDbLine
 62
7
  6
CONTINUOUS
 10
149.7140757513
 20
93.2510058514
 11
149.7140757513
 21
92.7151074665
  0
LINE
  5
335
100
AcDbEntity
  8
0
100
AcDbLine
 62
7
  6
CONTINUOUS
 10
149.7140757513
 20
93.2510058514
 11
149.7140757513
 21
93.9271539298
  0
LINE
  5
336
100
AcDbEntity
  8
0
100
AcDbLine
 62
7
  6
CONTINUOUS
 10
149.7140757513
 20
123.9433106968
 11
149.7140757513
 21
124.4792090816
  0
LINE
  5
337
100
AcDbEntity
  8
0
100
AcDbLine
 62
7
  6
CONTINUOUS
 10
149.7640757513
 20
124.7471582741
 11
149.7640757513
 21
124.4792090816
  0
LINE
  5
338
100
AcDbEntity
  8
0
100
AcDbLine
 62
7
  6
CONTINUOUS
 10
149.7640757513
 20
125.3471582741
 11
149.7640757513
 21
124.761802935
  0
LINE
  5
339
100
AcDbEntity
  8
0
100
AcDbLine
 62
7
  6
CONTINUOUS
 10
149.7640757513
 20
91.8471582741
 11
149.7640757513
 21
92.4325136131
  0
LINE
  5
33A
100
AcDbEntity
  8
0
100
AcDbLine
 62
7
  6
CONTINUOUS
 10
149.7640757513
 20
92.4471582741
 11
149.7640757513
 21
92.7151074665
  0
LINE
  5
33B
100
AcDbEntity
  8
DRAFT
100
AcDbLine
 62
7
  6
CONTINUOUS
 10
149.8157189988
 20
90.7394623429
 11
149.8157189988
 21
92.34069146
  0
LINE
  5
33C
100
AcDbEntity
  8
DRAFT
100
AcDbLine
 62
7
  6
CONTINUOUS
 10
149.8157189988
 20
124.8536250881
 11
149.8157189988
 21
126.4548542052
  0
LINE
  5
33D
100
AcDbEntity
  8
RACCORDO
100
AcDbLine
 62
7
  6
CONTINUOUS
 10
149.9313499971
 20
123.1600003837
 11
149.9313499971
 21
123.1471582741
  0
LINE
  5
33E
100
AcDbEntity
  8
RACCORDO
100
AcDbLine
 62
7
  6
CONTINUOUS
 10
149.9313499971
 20
94.0471582741
 11
149.9313499971
 21
94.0343161644
  0
LINE
  5
33F
100
AcDbEntity
  8
DRAFT
100
AcDbLine
 62
7
  6
CONTINUOUS
 10
149.9488037326
 20
93.1971582741
 11
149.9488037326
 21
92.4471582741
  0
LINE
  5
340
100
AcDbEntity
  8
DRAFT
100
AcDbLine
 62
7
  6
CONTINUOUS
 10
149.9488037326
 20
123.9971582741
 11
149.9488037326
 21
124.7471582741
  0
LINE
  5
341
100
AcDbEntity
  8
RACCORDO
100
AcDbLine
 62
7
  6
CONTINUOUS
 10
149.9640509861
 20
126.353562305
 11
149.9640757513
 21
123.0971582741
  0
LINE
  5
342
100
AcDbEntity
  8
0
100
AcDbLine
 62
7
  6
CONTINUOUS
 10
150.2261817513
 20
101.2920522741
 11
150.2261817513
 21
101.5828382741
  0
LINE
  5
343
100
AcDbEntity
  8
0
100
AcDbLine
 62
7
  6
CONTINUOUS
 10
150.5140757513
 20
120.0167959009
 11
150.5140757513
 21
120.036198129
  0
LINE
  5
344
100
AcDbEntity
  8
DRAFT
100
AcDbLine
 62
7
  6
CONTINUOUS
 10
152.2640757513
 20
123.5971582741
 11
152.2640757513
 21
122.0971582741
  0
LINE
  5
345
100
AcDbEntity
  8
DRAFT
100
AcDbLine
 62
7
  6
CONTINUOUS
 10
152.2640757513
 20
95.0971582741
 11
152.2640757513
 21
93.5971582741
  0
LINE
  5
346
100
AcDbEntity
  8
DRAFT
100
AcDbLine
 62
7
  6
CONTINUOUS
 10
152.3140757513
 20
93.6471582741
 11
152.3140757513
 21
95.0335135928
  0
LINE
  5
347
100
AcDbEntity
  8
DRAFT
100
AcDbLine
 62
7
  6
CONTINUOUS
 10
152.3140757513
 20
122.1608029554
 11
152.3140757513
 21
123.5471582741
  0
LINE
  5
348
100
AcDbEntity
  8
DRAFT
100
AcDbLine
 62
7
  6
CONTINUOUS
 10
152.4167959376
 20
123.5971582741
 11
152.4167959376
 21
123.5471582741
  0
LINE
  5
349
100
AcDbEntity
  8
DRAFT
100
AcDbLine
 62
7
  6
CONTINUOUS
 10
152.4167959376
 20
122.1608029554
 11
152.4167959376
 21
122.0971582741
  0
LINE
  5
34A
100
AcDbEntity
  8
DRAFT
100
AcDbLine
 62
7
  6
CONTINUOUS
 10
152.4167959376
 20
95.0971582741
 11
152.4167959376
 21
95.0335135928
  0
LINE
  5
34B
100
AcDbEntity
  8
DRAFT
100
AcDbLine
 62
7
  6
CONTINUOUS
 10
152.4167959376
 20
93.6471582741
 11
152.4167959376
 21
93.5971582741
  0
LINE
  5
34C
100
AcDbEntity
  8
RACCORDO
100
AcDbLine
 62
7
  6
CONTINUOUS
 10
149.9636982858
 20
90.6897401486
 11
149.9640757513
 21
94.0971582741
  0
LWPOLYLINE
  5
34D
100
AcDbEntity
  8
0
100
AcDbPolyline
 62
7
  6
CONTINUOUS
 90
30
 70
0
 10
151.0150619813
 20
100.7489821
 10
151.0152677465
 20
100.7824312765
 10
151.0157131907
 20
100.8150616315
 10
151.0163720125
 20
100.8468691696
 10
151.0172705133
 20
100.8778578863
 10
151.0184875972
 20
100.9080397671
 10
151.0200664036
 20
100.9373988956
 10
151.0219637931
 20
100.9659511884
 10
151.0241292515
 20
100.9937563801
 10
151.0264921852
 20
101.0208395689
 10
151.0291231878
 20
101.0471756567
 10
151.032183526
 20
101.0727490839
 10
151.0356251468
 20
101.0975861433
 10
151.0394961031
 20
101.121660542
 10
151.0441018212
 20
101.1448778423
 10
151.0494834368
 20
101.1672750918
 10
151.0555998141
 20
101.1888152428
 10
151.0626329723
 20
101.2092927142
 10
151.0706339439
 20
101.2287930112
 10
151.0795516963
 20
101.2472306285
 10
151.0894151505
 20
101.2641434701
 10
151.1002172326
 20
101.2795082667
 10
151.1119650165
 20
101.2933482875
 10
151.1247086453
 20
101.305271244
 10
151.1385013336
 20
101.3151191764
 10
151.1532898668
 20
101.3230500445
 10
151.1689647439
 20
101.3291454394
 10
151.1854894646
 20
101.3334325584
 10
151.2029005292
 20
101.3358842042
 10
151.2211979377
 20
101.3365003769
  0
LWPOLYLINE
  5
34E
100
AcDbEntity
  8
0
100
AcDbPolyline
 62
7
  6
CONTINUOUS
 90
28
 70
0
 10
151.4276866633
 20
100.714714102
 10
151.4274420387
 20
100.6779725328
 10
151.4269847999
 20
100.6421353908
 10
151.426314947
 20
100.607202676
 10
151.4254603726
 20
100.5731897737
 10
151.4243931841
 20
100.5400812987
 10
151.4230297034
 20
100.5078310942
 10
151.4214076192
 20
100.476419871
 10
151.4194892429
 20
100.4458669185
 10
151.4170778303
 20
100.4161839483
 10
151.4141445724
 20
100.3873877115
 10
151.4107182783
 20
100.3594614571
 10
151.4066886303
 20
100.3323666434
 10
151.4020908696
 20
100.3060423311
 10
151.396889755
 20
100.2805494595
 10
151.3908692454
 20
100.2560323059
 10
151.384127103
 20
100.2323168992
 10
151.3765655656
 20
100.2095772104
 10
151.3676753061
 20
100.1884794299
 10
151.3573638064
 20
100.1691030011
 10
151.3457235845
 20
100.1513684806
 10
151.332522867
 20
100.1357037283
 10
151.3176431618
 20
100.1220677222
 10
151.301202961
 20
100.1105014844
 10
151.2833259679
 20
100.1015559418
 10
151.2640534168
 20
100.0954147367
 10
151.2433440734
 20
100.0918942268
 10
151.2211979377
 20
100.0909944121
  0
LINE
  5
34F
100
AcDbEntity
  8
RACCORDO
100
AcDbLine
 62
7
  6
CONTINUOUS
 10
149.9626268599
 20
90.5196585866
 11
149.9636982858
 21
90.6897401486
  0
LINE
  5
350
100
AcDbEntity
  8
RACCORDO
100
AcDbLine
 62
7
  6
CONTINUOUS
 10
149.933531714
 20
123.5930130856
 11
149.9386279831
 21
123.930170976
  0
LWPOLYLINE
  5
351
100
AcDbEntity
  8
0
100
AcDbPolyline
 62
7
  6
CONTINUOUS
 90
16
 70
0
 10
149.9914654586
 20
100.4189222748
 10
149.9901499114
 20
100.3816382562
 10
149.9868314654
 20
100.3460215311
 10
149.9815101206
 20
100.3120720993
 10
149.9742025261
 20
100.279576111
 10
149.9648920327
 20
100.2487474161
 10
149.9535286934
 20
100.2202275648
 10
149.9399009704
 20
100.1939883671
 10
149.9242204014
 20
100.170058013
 10
149.9070716532
 20
100.1491626221
 10
149.8885486389
 20
100.13146874
 10
149.8685574454
 20
100.1168098211
 10
149.8474009994
 20
100.1054123479
 10
149.8251802764
 20
100.0973518146
 10
149.8017943009
 20
100.092552727
 10
149.7772430728
 20
100.0910150851
  0
LWPOLYLINE
  5
352
100
AcDbEntity
  8
0
100
AcDbPolyline
 62
7
  6
CONTINUOUS
 90
25
 70
0
 10
148.5672493664
 20
101.0419768082
 10
148.563977512
 20
100.9924118451
 10
148.5558703363
 20
100.945364686
 10
148.5429278394
 20
100.9008353309
 10
148.5248855986
 20
100.8592901094
 10
148.5020080364
 20
100.820262692
 10
148.4750884212
 20
100.7823540903
 10
148.4439171666
 20
100.7455992776
 10
148.4087038589
 20
100.7099632806
 10
148.3708705248
 20
100.6739421905
 10
148.3303215029
 20
100.6375854345
 10
148.2871524547
 20
100.6008435854
 10
148.243072391
 20
100.5620644533
 10
148.197970494
 20
100.5213712272
 10
148.1519575815
 20
100.4786407181
 10
148.1070751175
 20
100.4318511692
 10
148.0627581749
 20
100.3802076755
 10
148.0195716809
 20
100.3245051421
 10
147.981251881
 20
100.2651065272
 10
147.9486515845
 20
100.2021532529
 10
147.9209179821
 20
100.1355038972
 10
147.8992288921
 20
100.0650971522
 10
147.8839769205
 20
99.990912582
 10
147.8747694612
 20
99.9129706227
 10
147.8716065143
 20
99.8312712741
  0
LINE
  5
353
100
AcDbEntity
  8
0
100
AcDbLine
 62
7
  6
CONTINUOUS
 10
149.4373477513
 20
101.5828382741
 11
149.3383577513
 21
100.6211572741
  0
LINE
  5
354
100
AcDbEntity
  8
0
100
AcDbLine
 62
7
  6
CONTINUOUS
 10
149.5913018794
 20
100.9126942342
 11
149.6419087513
 21
101.2920522741
  0
LWPOLYLINE
  5
355
100
AcDbEntity
  8
RACCORDO
100
AcDbPolyline
 62
7
  6
CONTINUOUS
 90
10
 70
0
 10
146.4124325037
 20
90.7394623429
 10
146.3964355189
 20
90.666891268
 10
146.380437766
 20
90.6027771352
 10
146.3644392452
 20
90.5471199444
 10
146.3484394877
 20
90.4999193905
 10
146.3324389622
 20
90.4611757787
 10
146.3164390747
 20
90.4308900248
 10
146.3004402939
 20
90.4090624341
 10
146.2844421511
 20
90.3956927012
 10
146.2684446463
 20
90.3907808263
  0
LINE
  5
356
100
AcDbEntity
  8
DRAFT
100
AcDbLine
 62
7
  6
CONTINUOUS
 10
161.8480503475
 20
113.7495975403
 11
161.3140757513
 21
113.6065194785
  0
LINE
  5
357
100
AcDbEntity
  8
RACCORDO
100
AcDbLine
 62
7
  6
CONTINUOUS
 10
164.2137921553
 20
110.6971579509
 11
164.2138226262
 21
110.6971582741
  0
LINE
  5
358
100
AcDbEntity
  8
RACCORDO
100
AcDbLine
 62
253
  6
CONTINUOUS
 10
165.8873804443
 20
110.2471582741
 11
163.7638223272
 21
110.2471582741
  0
LINE
  5
359
100
AcDbEntity
  8
RACCORDO
100
AcDbLine
 62
253
  6
CONTINUOUS
 10
132.4643291734
 20
110.2471582741
 11
130.3407708397
 21
110.2471582741
  0
LINE
  5
35A
100
AcDbEntity
  8
RACCORDO
100
AcDbLine
 62
7
  6
CONTINUOUS
 10
165.8873971471
 20
110.6971582741
 11
164.2138232175
 21
110.6971582741
  0
LINE
  5
35B
100
AcDbEntity
  8
RACCORDO
100
AcDbLine
 62
7
  6
CONTINUOUS
 10
132.0143282851
 20
110.6971582741
 11
130.3407543553
 21
110.6971582741
  0
LINE
  5
35C
100
AcDbEntity
  8
DRAFT
100
AcDbLine
 62
7
  6
CONTINUOUS
 10
134.380101155
 20
113.7495975403
 11
134.9140757513
 21
113.6065194785
  0
LINE
  5
35D
100
AcDbEntity
  8
0
100
AcDbLine
 62
7
  6
CONTINUOUS
 10
149.0500304264
 20
115.9591764079
 11
148.7158035471
 21
116.507187624
  0
LINE
  5
35E
100
AcDbEntity
  8
0
100
AcDbLine
 62
7
  6
CONTINUOUS
 10
157.4102966634
 20
99.7348844306
 11
157.5582538484
 21
99.471272101
  0
LINE
  5
35F
100
AcDbEntity
  8
0
100
AcDbLine
 62
7
  6
CONTINUOUS
 10
151.9622406749
 20
100.5023625059
 11
152.0309002396
 21
100.2938448279
  0
LINE
  5
360
100
AcDbEntity
  8
0
100
AcDbLine
 62
7
  6
CONTINUOUS
 10
152.8402744495
 20
100.5023631955
 11
152.7719796034
 21
100.7108837256
  0
LWPOLYLINE
  5
361
100
AcDbEntity
  8
RACCORDO
100
AcDbPolyline
 62
7
  6
CONTINUOUS
 90
4
 70
0
 10
153.8616188055
 20
125.9364178121
 10
153.8611489647
 20
125.9554720956
 10
153.8606574421
 20
125.9671245387
 10
153.8601488381
 20
125.97137003
  0
LINE
  5
362
100
AcDbEntity
  8
RACCORDO
100
AcDbLine
 62
7
  6
CONTINUOUS
 10
153.8625094961
 20
125.875077871
 11
153.8616188055
 21
125.9364178121
  0
LINE
  5
363
100
AcDbEntity
  8
RACCORDO
100
AcDbLine
 62
7
  6
CONTINUOUS
 10
153.8635331723
 20
125.7361817411
 11
153.8625094961
 21
125.875077871
  0
LINE
  5
364
100
AcDbEntity
  8
RACCORDO
100
AcDbLine
 62
7
  6
CONTINUOUS
 10
153.8640757513
 20
125.4954112406
 11
153.8635331723
 21
125.7361817411
  0
LINE
  5
365
100
AcDbEntity
  8
0
100
AcDbLine
 62
7
  6
CONTINUOUS
 10
153.3640757513
 20
123.5971582741
 11
153.3640757513
 21
123.5471582741
  0
LINE
  5
366
100
AcDbEntity
  8
0
100
AcDbLine
 62
7
  6
CONTINUOUS
 10
153.3640757513
 20
122.1515597842
 11
153.3640757513
 21
122.0971582741
  0
LINE
  5
367
100
AcDbEntity
  8
0
100
AcDbLine
 62
7
  6
CONTINUOUS
 10
153.3640757513
 20
93.5971582741
 11
153.3640757513
 21
93.6471582741
  0
LINE
  5
368
100
AcDbEntity
  8
0
100
AcDbLine
 62
7
  6
CONTINUOUS
 10
153.3640757513
 20
95.042756764
 11
153.3640757513
 21
95.0971582741
  0
LINE
  5
369
100
AcDbEntity
  8
DRAFT
100
AcDbLine
 62
7
  6
CONTINUOUS
 10
153.7083511193
 20
95.0971582741
 11
153.7083511193
 21
95.045787427
  0
LINE
  5
36A
100
AcDbEntity
  8
DRAFT
100
AcDbLine
 62
7
  6
CONTINUOUS
 10
153.7083511193
 20
93.6471582741
 11
153.7083511193
 21
93.5971582741
  0
LINE
  5
36B
100
AcDbEntity
  8
DRAFT
100
AcDbLine
 62
7
  6
CONTINUOUS
 10
153.7083511193
 20
122.0971582741
 11
153.7083511193
 21
122.1485291211
  0
LINE
  5
36C
100
AcDbEntity
  8
DRAFT
100
AcDbLine
 62
7
  6
CONTINUOUS
 10
153.7083511193
 20
123.5471582741
 11
153.7083511193
 21
123.5971582741
  0
LINE
  5
36D
100
AcDbEntity
  8
DRAFT
100
AcDbLine
 62
7
  6
CONTINUOUS
 10
153.7240095232
 20
93.6471582741
 11
153.7240095232
 21
93.5971582741
  0
LINE
  5
36E
100
AcDbEntity
  8
DRAFT
100
AcDbLine
 62
7
  6
CONTINUOUS
 10
153.7240095232
 20
123.5471582741
 11
153.7240095232
 21
123.5971582741
  0
LINE
  5
36F
100
AcDbEntity
  8
DRAFT
100
AcDbLine
 62
7
  6
CONTINUOUS
 10
153.8479310459
 20
123.5971582741
 11
153.8479310459
 21
123.5471582741
  0
LINE
  5
370
100
AcDbEntity
  8
DRAFT
100
AcDbLine
 62
7
  6
CONTINUOUS
 10
153.8479310459
 20
93.5971582741
 11
153.8479310459
 21
93.6471582741
  0
LINE
  5
371
100
AcDbEntity
  8
RACCORDO
100
AcDbLine
 62
7
  6
CONTINUOUS
 10
153.8640757513
 20
123.5471582741
 11
153.8640757513
 21
125.4950757027
  0
LINE
  5
372
100
AcDbEntity
  8
0
100
AcDbLine
 62
7
  6
CONTINUOUS
 10
156.3559887513
 20
99.6481522741
 11
156.3559887513
 21
99.3267252741
  0
LINE
  5
373
100
AcDbEntity
  8
0
100
AcDbLine
 62
7
  6
CONTINUOUS
 10
156.3664857513
 20
102.2549292741
 11
156.3664857513
 21
101.9317342741
  0
LINE
  5
374
100
AcDbEntity
  8
0
100
AcDbLine
 62
7
  6
CONTINUOUS
 10
156.6407327513
 20
101.9317342741
 11
156.6407327513
 21
101.1121992741
  0
LINE
  5
375
100
AcDbEntity
  8
0
100
AcDbLine
 62
7
  6
CONTINUOUS
 10
156.6407327513
 20
100.7174622741
 11
156.6407327513
 21
99.6481522741
  0
LINE
  5
376
100
AcDbEntity
  8
RACCORDO
100
AcDbLine
 62
7
  6
CONTINUOUS
 10
153.8635331723
 20
91.4581348071
 11
153.8640757513
 21
93.6471582741
  0
LINE
  5
377
100
AcDbEntity
  8
RACCORDO
100
AcDbLine
 62
7
  6
CONTINUOUS
 10
153.8625094961
 20
91.3192386771
 11
153.8634713744
 21
91.4838964073
  0
LWPOLYLINE
  5
378
100
AcDbEntity
  8
RACCORDO
100
AcDbPolyline
 62
7
  6
CONTINUOUS
 90
6
 70
0
 10
153.8626013744
 20
91.3558847054
 10
153.8614471337
 20
91.2671029158
 10
153.8610232678
 20
91.247626777
 10
153.8605948435
 20
91.2339002287
 10
153.8601560397
 20
91.2256444768
 10
153.8597124234
 20
91.2228605393
  0
LWPOLYLINE
  5
379
100
AcDbEntity
  8
RACCORDO
100
AcDbPolyline
 62
7
  6
CONTINUOUS
 90
5
 70
0
 10
153.8601488381
 20
91.2229465182
 10
153.8606574421
 20
91.2271920094
 10
153.8611489647
 20
91.2388444525
 10
153.8616188055
 20
91.257898736
 10
153.8620749916
 20
91.2848677864
  0
LWPOLYLINE
  5
37A
100
AcDbEntity
  8
RACCORDO
100
AcDbPolyline
 62
7
  6
CONTINUOUS
 90
7
 70
0
 10
149.9597124548
 20
90.3907829259
 10
149.9601657797
 20
90.3935640167
 10
149.9606122197
 20
90.4016283186
 10
149.961046176
 20
90.4149737321
 10
149.9614731828
 20
90.4339067465
 10
149.9618877061
 20
90.4581208724
 10
149.9626268599
 20
90.5196585866
  0
LWPOLYLINE
  5
37B
100
AcDbEntity
  8
0
100
AcDbPolyline
 62
7
  6
CONTINUOUS
 90
6
 70
0
 10
152.0309002396
 20
100.2938448279
 10
152.0397110283
 20
100.3172614843
 10
152.0493108828
 20
100.3393807477
 10
152.0596998031
 20
100.3602026181
 10
152.0707920746
 20
100.3799802245
 10
152.082673412
 20
100.398460438
  0
LWPOLYLINE
  5
37C
100
AcDbEntity
  8
0
100
AcDbPolyline
 62
7
  6
CONTINUOUS
 90
10
 70
0
 10
149.5906783161
 20
100.6061112404
 10
149.6040847279
 20
100.6324854391
 10
149.6193637062
 20
100.6558035472
 10
149.6365152511
 20
100.6760655645
 10
149.6556524025
 20
100.6933205375
 10
149.6766621205
 20
100.7075194197
 10
149.6992052853
 20
100.718515072
 10
149.723168857
 20
100.7262584481
 10
149.7486658755
 20
100.7307985942
 10
149.7756963408
 20
100.7321355103
  0
LWPOLYLINE
  5
37D
100
AcDbEntity
  8
0
100
AcDbPolyline
 62
7
  6
CONTINUOUS
 90
7
 70
0
 10
152.7719796034
 20
100.7108837256
 10
152.7623957183
 20
100.6929805509
 10
152.7527480819
 20
100.6757121008
 10
152.743036694
 20
100.6590783753
 10
152.7333629755
 20
100.6429915652
 10
152.7236255056
 20
100.6275394798
 10
152.7135200216
 20
100.6129855468
  0
LWPOLYLINE
  5
37E
100
AcDbEntity
  8
0
100
AcDbPolyline
 62
7
  6
CONTINUOUS
 90
10
 70
0
 10
152.7135200216
 20
100.6129855468
 10
152.702988572
 20
100.5992175672
 10
152.6920891083
 20
100.58634774
 10
152.6806912228
 20
100.57497609
 10
152.6686428048
 20
100.5652081044
 10
152.6560959651
 20
100.5569382959
 10
152.6433766277
 20
100.5504502271
 10
152.6305934341
 20
100.545838419
 10
152.617637743
 20
100.5430083506
 10
152.6045095541
 20
100.541960022
  0
LWPOLYLINE
  5
37F
100
AcDbEntity
  8
0
100
AcDbPolyline
 62
7
  6
CONTINUOUS
 90
8
 70
0
 10
152.082673412
 20
100.398460438
 10
152.0956009594
 20
100.4148838713
 10
152.1098557585
 20
100.4292042016
 10
152.1251567676
 20
100.4414677519
 10
152.1409180067
 20
100.4510541037
 10
152.1569441489
 20
100.4577564511
 10
152.1734305211
 20
100.4617816
 10
152.1903771231
 20
100.4631295505
  0
LWPOLYLINE
  5
380
100
AcDbEntity
  8
0
100
AcDbPolyline
 62
7
  6
CONTINUOUS
 90
16
 70
0
 10
148.2267745509
 20
100.1370712741
 10
148.2857370322
 20
100.2083466869
 10
148.3453286789
 20
100.2747677729
 10
148.4055494911
 20
100.3363345322
 10
148.4680231483
 20
100.3912680854
 10
148.531125971
 20
100.4413473117
 10
148.5899869197
 20
100.4919088498
 10
148.6438099999
 20
100.5442495878
 10
148.6933912062
 20
100.5970726375
 10
148.7362474834
 20
100.6518239723
 10
148.7714361167
 20
100.7087532976
 10
148.7998998208
 20
100.767610908
 10
148.821983685
 20
100.8290936612
 10
148.8378027391
 20
100.893433843
 10
148.8472419532
 20
100.9603991676
 10
148.8503013274
 20
101.029989635
  0
LWPOLYLINE
  5
381
100
AcDbEntity
  8
0
100
AcDbPolyline
 62
7
  6
CONTINUOUS
 90
3
 70
0
 10
149.7852715754
 20
116.3895399872
 10
149.8441577409
 20
116.4037357946
 10
149.85406417
 20
116.4063347205
  0
LWPOLYLINE
  5
382
100
AcDbEntity
  8
0
100
AcDbPolyline
 62
7
  6
CONTINUOUS
 90
10
 70
0
 10
149.3964531076
 20
116.7588149561
 10
149.4496478707
 20
116.7669739795
 10
149.5030744184
 20
116.7763321587
 10
149.556708677
 20
116.7868991823
 10
149.610540458
 20
116.7986875264
 10
149.664531099
 20
116.8117033877
 10
149.7186131385
 20
116.8259434598
 10
149.7727470867
 20
116.8414084788
 10
149.8269217685
 20
116.8581064395
 10
149.8811117334
 20
116.8760412804
  0
LINE
  5
383
100
AcDbEntity
  8
DRAFT
100
AcDbLine
 62
253
  6
CONTINUOUS
 10
146.8583969666
 20
116.0971582741
 11
146.8536096006
 21
116.0971582741
  0
LINE
  5
384
100
AcDbEntity
  8
RACCORDO
100
AcDbLine
 62
253
  6
CONTINUOUS
 10
164.2138223411
 20
116.9613013282
 11
163.7638223224
 21
116.9613013282
  0
LINE
  5
385
100
AcDbEntity
  8
RACCORDO
100
AcDbLine
 62
253
  6
CONTINUOUS
 10
132.4643291776
 20
116.9613013143
 11
132.0143291614
 21
116.9613013143
  0
LINE
  5
386
100
AcDbEntity
  8
0
100
AcDbLine
 62
7
  6
CONTINUOUS
 10
161.8480503475
 20
117.0471582741
 11
161.5140757513
 21
117.0471582741
  0
LINE
  5
387
100
AcDbEntity
  8
0
100
AcDbLine
 62
7
  6
CONTINUOUS
 10
134.380101155
 20
117.0471582741
 11
134.7140757513
 21
117.0471582741
  0
LWPOLYLINE
  5
388
100
AcDbEntity
  8
0
100
AcDbPolyline
 62
7
  6
CONTINUOUS
 90
10
 70
0
 10
134.7140757513
 20
117.5471582741
 10
134.7436047285
 20
117.5451111252
 10
134.7715814451
 20
117.5398529615
 10
134.7980059011
 20
117.5313837829
 10
134.8232825857
 20
117.5193897892
 10
134.8470070096
 20
117.5041847807
 10
134.8679657047
 20
117.4867101578
 10
134.8859364525
 20
117.466869537
 10
134.9011414715
 20
117.4447593017
 10
134.9130339484
 20
117.4216100028
  0
LWPOLYLINE
  5
389
100
AcDbEntity
  8
0
100
AcDbPolyline
 62
7
  6
CONTINUOUS
 90
10
 70
0
 10
146.8316983949
 20
116.7588149561
 10
146.7785036318
 20
116.7669739795
 10
146.7250770842
 20
116.7763321587
 10
146.6714428255
 20
116.7868991823
 10
146.6176110446
 20
116.7986875264
 10
146.5636204035
 20
116.8117033877
 10
146.509538364
 20
116.8259434598
 10
146.4554044158
 20
116.8414084788
 10
146.4012297341
 20
116.8581064395
 10
146.3470397692
 20
116.8760412804
  0
LWPOLYLINE
  5
38A
100
AcDbEntity
  8
0
100
AcDbPolyline
 62
7
  6
CONTINUOUS
 90
3
 70
0
 10
146.4428799271
 20
116.3895399872
 10
146.3839937616
 20
116.4037357946
 10
146.3740873325
 20
116.4063347205
  0
LINE
  5
38B
100
AcDbEntity
  8
0
100
AcDbLine
 62
7
  6
CONTINUOUS
 10
146.16223903
 20
120.4325730809
 11
146.7423283127
 21
120.0407868842
  0
LWPOLYLINE
  5
38C
100
AcDbEntity
  8
RACCORDO
100
AcDbPolyline
 62
7
  6
CONTINUOUS
 90
9
 70
0
 10
164.2137921553
 20
106.4971585972
 10
164.2078048803
 20
106.5012409304
 10
164.1967086758
 20
106.5127282515
 10
164.1805340126
 20
106.5304466025
 10
164.1585099061
 20
106.5530619636
 10
164.131407341
 20
106.5795315029
 10
164.1015392715
 20
106.6094413437
 10
164.0692090564
 20
106.642128935
 10
164.034113337
 20
106.6768067007
  0
LWPOLYLINE
  5
38D
100
AcDbEntity
  8
0
100
AcDbPolyline
 62
7
  6
CONTINUOUS
 90
10
 70
0
 10
147.1982214443
 20
116.7339302589
 10
147.173168876
 20
116.7513985922
 10
147.1443167133
 20
116.764627107
 10
147.1115576403
 20
116.7738177912
 10
147.074799652
 20
116.7791977966
 10
147.0340108782
 20
116.7810186558
 10
146.9892413046
 20
116.7795721176
 10
146.9405543023
 20
116.7751742513
 10
146.8880049996
 20
116.7681440605
 10
146.8316983949
 20
116.7588149561
  0
LINE
  5
38E
100
AcDbEntity
  8
0
100
AcDbLine
 62
7
  6
CONTINUOUS
 10
150.1528855274
 20
116.6815491313
 11
149.8811117334
 21
116.8760412804
  0
LWPOLYLINE
  5
38F
100
AcDbEntity
  8
0
100
AcDbPolyline
 62
7
  6
CONTINUOUS
 90
10
 70
0
 10
146.7457822383
 20
116.1997966006
 10
146.7149497898
 20
116.2249789991
 10
146.6833698272
 20
116.248959055
 10
146.6510262261
 20
116.2718126709
 10
146.617864622
 20
116.2936522478
 10
146.583936009
 20
116.3145332081
 10
146.5494126656
 20
116.3344656658
 10
146.5143878641
 20
116.3535278426
 10
146.4788586094
 20
116.3718519914
 10
146.4428799271
 20
116.3895399872
  0
LINE
  5
390
100
AcDbEntity
  8
0
100
AcDbLine
 62
7
  6
CONTINUOUS
 10
146.3949613438
 20
120.7362784884
 11
146.9241426204
 21
120.2780567337
  0
LINE
  5
391
100
AcDbEntity
  8
0
100
AcDbLine
 62
7
  6
CONTINUOUS
 10
149.7852715754
 20
116.3895399872
 11
149.3964531076
 21
116.7588149561
  0
LINE
  5
392
100
AcDbEntity
  8
0
100
AcDbLine
 62
7
  6
CONTINUOUS
 10
149.4823692642
 20
116.1997966006
 11
149.0299300583
 21
116.7339302589
  0
LWPOLYLINE
  5
393
100
AcDbEntity
  8
0
100
AcDbPolyline
 62
7
  6
CONTINUOUS
 90
10
 70
0
 10
149.4858231898
 20
120.0407868842
 10
149.5064637195
 20
120.0153046791
 10
149.5318738278
 20
119.9928484081
 10
149.5621060779
 20
119.9731788918
 10
149.5971934206
 20
119.9560354405
 10
149.637097847
 20
119.9411544239
 10
149.6816817008
 20
119.9282589462
 10
149.730790981
 20
119.9170495585
 10
149.7842856759
 20
119.907220344
 10
149.8419699641
 20
119.8984683953
  0
LWPOLYLINE
  5
394
100
AcDbEntity
  8
0
100
AcDbPolyline
 62
7
  6
CONTINUOUS
 90
10
 70
0
 10
150.0659124726
 20
120.4325730809
 10
150.0906302823
 20
120.3972065478
 10
150.1162747195
 20
120.3628731891
 10
150.1428343156
 20
120.3294862259
 10
150.1703181902
 20
120.2969198424
 10
150.1986596128
 20
120.2651221978
 10
150.2277016321
 20
120.2341105725
 10
150.2573360708
 20
120.2038282057
 10
150.2875203848
 20
120.1741512502
 10
150.3181709783
 20
120.1449970905
  0
LINE
  5
395
100
AcDbEntity
  8
0
100
AcDbLine
 62
7
  6
CONTINUOUS
 10
146.3999364786
 20
120.7949007409
 11
146.3945978727
 21
120.8037201186
  0
LINE
  5
396
100
AcDbEntity
  8
0
100
AcDbLine
 62
7
  6
CONTINUOUS
 10
146.9987696432
 20
121.1573905214
 11
146.9951982333
 21
121.163290491
  0
LINE
  5
397
100
AcDbEntity
  8
0
100
AcDbLine
 62
7
  6
CONTINUOUS
 10
156.9831537513
 20
99.6481522741
 11
156.9831537513
 21
100.7138682741
  0
LINE
  5
398
100
AcDbEntity
  8
0
100
AcDbLine
 62
7
  6
CONTINUOUS
 10
156.9831537513
 20
101.1121992741
 11
156.9831537513
 21
101.9317342741
  0
LINE
  5
399
100
AcDbEntity
  8
0
100
AcDbLine
 62
7
  6
CONTINUOUS
 10
157.2575107513
 20
101.9317342741
 11
157.2575107513
 21
102.2549292741
  0
LINE
  5
39A
100
AcDbEntity
  8
0
100
AcDbLine
 62
7
  6
CONTINUOUS
 10
157.2680077513
 20
99.3267252741
 11
157.2680077513
 21
99.6481522741
  0
LWPOLYLINE
  5
39B
100
AcDbEntity
  8
0
100
AcDbPolyline
 62
7
  6
CONTINUOUS
 90
3
 70
0
 10
161.2998621889
 20
117.3471582741
 10
161.3016347686
 20
117.3730145807
 10
161.3067198903
 20
117.3978318236
  0
LWPOLYLINE
  5
39C
100
AcDbEntity
  8
0
100
AcDbPolyline
 62
7
  6
CONTINUOUS
 90
11
 70
0
 10
161.3067198903
 20
117.3978318236
 10
161.3151175541
 20
117.4216100028
 10
161.327010031
 20
117.4447593017
 10
161.34221505
 20
117.4668695369
 10
161.3601857978
 20
117.4867101577
 10
161.3811444928
 20
117.5041847807
 10
161.4048689167
 20
117.5193897892
 10
161.4301456014
 20
117.5313837828
 10
161.4565700573
 20
117.5398529614
 10
161.4845467739
 20
117.5451111252
 10
161.5140757513
 20
117.5471582741
  0
LINE
  5
39D
100
AcDbEntity
  8
0
100
AcDbLine
 62
7
  6
CONTINUOUS
 10
156.0698977513
 20
99.4712722741
 11
156.2178547513
 21
99.7348842741
  0
LWPOLYLINE
  5
39E
100
AcDbEntity
  8
RACCORDO
100
AcDbPolyline
 62
7
  6
CONTINUOUS
 90
10
 70
0
 10
163.9599043513
 20
110.4430207794
 10
164.034113337
 20
110.5175098474
 10
164.0692090564
 20
110.5521876131
 10
164.1015392715
 20
110.5848752044
 10
164.131407341
 20
110.6147850452
 10
164.1585099061
 20
110.6412545845
 10
164.1805340126
 20
110.6638699456
 10
164.1967086758
 20
110.6815882966
 10
164.2078048803
 20
110.6930756177
 10
164.2137921553
 20
110.6971579509
  0
LINE
  5
39F
100
AcDbEntity
  8
0
100
AcDbLine
 62
7
  6
CONTINUOUS
 10
149.7640757513
 20
92.4471582741
 11
149.9488037326
 21
92.6318862554
  0
LWPOLYLINE
  5
3A0
100
AcDbEntity
  8
RACCORDO
100
AcDbPolyline
 62
7
  6
CONTINUOUS
 90
6
 70
0
 10
163.7638223411
 20
110.2471582741
 10
163.8032213371
 20
110.2859389132
 10
163.842449578
 20
110.3252790146
 10
163.8815070638
 20
110.3648429967
 10
163.9207910851
 20
110.4042069002
 10
163.9599043513
 20
110.4430207794
  0
LINE
  5
3A1
100
AcDbEntity
  8
0
100
AcDbLine
 62
7
  6
CONTINUOUS
 10
149.7640757513
 20
92.7151074665
 11
149.9488037326
 21
92.8935409945
  0
LINE
  5
3A2
100
AcDbEntity
  8
0
100
AcDbLine
 62
7
  6
CONTINUOUS
 10
157.8873247513
 20
101.8741502741
 11
156.9831537513
 21
101.1121992741
  0
LINE
  5
3A3
100
AcDbEntity
  8
0
100
AcDbLine
 62
7
  6
CONTINUOUS
 10
156.9831537513
 20
100.7138682741
 11
157.8474317513
 21
101.4422012741
  0
LINE
  5
3A4
100
AcDbEntity
  8
DRAFT
100
AcDbLine
 62
7
  6
CONTINUOUS
 10
148.6140757513
 20
118.8602485757
 11
149.1140757513
 21
118.8646120096
  0
LINE
  5
3A5
100
AcDbEntity
  8
DRAFT
100
AcDbLine
 62
7
  6
CONTINUOUS
 10
149.1140757513
 20
118.8312577725
 11
149.9039625275
 21
118.8370904448
  0
LINE
  5
3A6
100
AcDbEntity
  8
0
100
AcDbLine
 62
7
  6
CONTINUOUS
 10
161.8480503475
 20
117.5471582741
 11
161.5140757513
 21
117.5471582741
  0
LINE
  5
3A7
100
AcDbEntity
  8
0
100
AcDbLine
 62
7
  6
CONTINUOUS
 10
134.380101155
 20
117.5471582741
 11
134.7140757513
 21
117.5471582741
  0
LINE
  5
3A8
100
AcDbEntity
  8
0
100
AcDbLine
 62
7
  6
CONTINUOUS
 10
162.5640757513
 20
117.7471582741
 11
161.8480503475
 21
117.7471582741
  0
LINE
  5
3A9
100
AcDbEntity
  8
0
100
AcDbLine
 62
7
  6
CONTINUOUS
 10
133.6640757513
 20
117.7471582741
 11
134.380101155
 21
117.7471582741
  0
LINE
  5
3AA
100
AcDbEntity
  8
RACCORDO
100
AcDbLine
 62
7
  6
CONTINUOUS
 10
134.5882670878
 20
118.0471582741
 11
133.6640757513
 21
118.0471582741
  0
LINE
  5
3AB
100
AcDbEntity
  8
RACCORDO
100
AcDbLine
 62
7
  6
CONTINUOUS
 10
161.6398844147
 20
118.0471582741
 11
162.5640757513
 21
118.0471582741
  0
LINE
  5
3AC
100
AcDbEntity
  8
DRAFT
100
AcDbLine
 62
7
  6
CONTINUOUS
 10
148.122801955
 20
119.7271856979
 11
146.5783398284
 21
119.7541443846
  0
LWPOLYLINE
  5
3AD
100
AcDbEntity
  8
0
100
AcDbPolyline
 62
7
  6
CONTINUOUS
 90
10
 70
0
 10
161.5140757513
 20
117.0471582741
 10
161.4845707395
 20
117.0492001857
 10
161.4566128272
 20
117.0544509475
 10
161.4302020145
 20
117.0629105595
 10
161.4049349449
 20
117.0748881287
 10
161.3812149748
 20
117.090074548
 10
161.3602521735
 20
117.1075424965
 10
161.3422622624
 20
117.1273995109
 10
161.3270295201
 20
117.1495380546
 10
161.3151168511
 20
117.1727081959
  0
LINE
  5
3AE
100
AcDbEntity
  8
0
100
AcDbLine
 62
7
  6
CONTINUOUS
 10
145.5643750277
 20
119.7514248832
 11
145.9432010183
 21
119.6220439614
  0
LWPOLYLINE
  5
3AF
100
AcDbEntity
  8
0
100
AcDbPolyline
 62
7
  6
CONTINUOUS
 90
10
 70
0
 10
149.8419699641
 20
119.8984683953
 10
149.8921964402
 20
119.8730406545
 10
149.9422523759
 20
119.8462855734
 10
149.9921076419
 20
119.8182012913
 10
150.0417463197
 20
119.7887778916
 10
150.0911235394
 20
119.7580226966
 10
150.1401663349
 20
119.7259640983
 10
150.1888309858
 20
119.6926160444
 10
150.2371021886
 20
119.6579742092
 10
150.2849504842
 20
119.6220439614
  0
LINE
  5
3B0
100
AcDbEntity
  8
0
100
AcDbLine
 62
7
  6
CONTINUOUS
 10
145.9099805242
 20
120.1449970905
 11
146.3861815385
 21
119.8984683953
  0
LINE
  5
3B1
100
AcDbEntity
  8
0
100
AcDbLine
 62
7
  6
CONTINUOUS
 10
149.8282150239
 20
120.7949007409
 11
149.2293818593
 21
121.1573905214
  0
LWPOLYLINE
  5
3B2
100
AcDbEntity
  8
0
100
AcDbPolyline
 62
7
  6
CONTINUOUS
 90
6
 70
0
 10
150.3181709783
 20
120.1449970905
 10
150.3724598151
 20
120.1116398497
 10
150.4264318773
 20
120.0768952523
 10
150.4800560804
 20
120.0407647761
 10
150.5333149103
 20
120.0032407725
 10
150.5366237138
 20
120.0008049174
  0
LINE
  5
3B3
100
AcDbEntity
  8
0
100
AcDbLine
 62
7
  6
CONTINUOUS
 10
149.7640757513
 20
124.4792090816
 11
149.9488037326
 21
124.3007755536
  0
LINE
  5
3B4
100
AcDbEntity
  8
0
100
AcDbLine
 62
7
  6
CONTINUOUS
 10
149.7640757513
 20
124.7471582741
 11
149.9488037326
 21
124.5624302927
  0
LWPOLYLINE
  5
3B5
100
AcDbEntity
  8
RACCORDO
100
AcDbPolyline
 62
7
  6
CONTINUOUS
 90
7
 70
0
 10
164.034113337
 20
106.6768067007
 10
163.9599043513
 20
106.7512957687
 10
163.9207910851
 20
106.7901096479
 10
163.8815070638
 20
106.8294735514
 10
163.842449578
 20
106.8690375336
 10
163.8032213371
 20
106.908377635
 10
163.7638223411
 20
106.9471582741
  0
LWPOLYLINE
  5
3B6
100
AcDbEntity
  8
0
100
AcDbPolyline
 62
7
  6
CONTINUOUS
 90
4
 70
0
 10
161.3151175541
 20
99.7727065454
 10
161.3067198903
 20
99.7964847245
 10
161.3016347686
 20
99.8213019674
 10
161.2998621889
 20
99.8471582741
  0
LINE
  5
3B7
100
AcDbEntity
  8
0
100
AcDbLine
 62
7
  6
CONTINUOUS
 10
161.2998621889
 20
117.3471582741
 11
161.2998621889
 21
117.2471582741
  0
LINE
  5
3B8
100
AcDbEntity
  8
0
100
AcDbLine
 62
7
  6
CONTINUOUS
 10
161.2998621889
 20
99.8471582741
 11
161.2998621889
 21
99.9471582741
  0
LINE
  5
3B9
100
AcDbEntity
  8
0
100
AcDbLine
 62
7
  6
CONTINUOUS
 10
161.3140757513
 20
98.7807179824
 11
161.3140757513
 21
118.4135985657
  0
LINE
  5
3BA
100
AcDbEntity
  8
0
100
AcDbLine
 62
7
  6
CONTINUOUS
 10
161.8480503475
 20
99.4471582741
 11
161.8480503475
 21
99.6471582741
  0
LINE
  5
3BB
100
AcDbEntity
  8
0
100
AcDbLine
 62
7
  6
CONTINUOUS
 10
161.8480503475
 20
100.1471582741
 11
161.8480503475
 21
117.0471582741
  0
LINE
  5
3BC
100
AcDbEntity
  8
0
100
AcDbLine
 62
7
  6
CONTINUOUS
 10
161.8480503475
 20
117.5471582741
 11
161.8480503475
 21
117.7471582741
  0
LINE
  5
3BD
100
AcDbEntity
  8
RACCORDO
100
AcDbLine
 62
253
  6
CONTINUOUS
 10
163.7638223224
 20
116.9613013282
 11
163.7638223272
 21
110.2471582741
  0
LINE
  5
3BE
100
AcDbEntity
  8
RACCORDO
100
AcDbLine
 62
253
  6
CONTINUOUS
 10
163.7638223228
 20
100.2330152199
 11
163.7638223275
 21
106.9471582741
  0
LINE
  5
3BF
100
AcDbEntity
  8
RACCORDO
100
AcDbLine
 62
7
  6
CONTINUOUS
 10
164.2138223411
 20
116.9613013282
 11
164.2138223411
 21
110.6970616906
  0
LINE
  5
3C0
100
AcDbEntity
  8
RACCORDO
100
AcDbLine
 62
7
  6
CONTINUOUS
 10
164.2138223411
 20
100.2330152199
 11
164.2138223411
 21
106.4972548575
  0
LWPOLYLINE
  5
3C1
100
AcDbEntity
  8
0
100
AcDbPolyline
 62
7
  6
CONTINUOUS
 90
3
 70
0
 10
161.2998621889
 20
99.9471582741
 10
161.3016270029
 20
99.9730065644
 10
161.3067118904
 20
99.9978232572
  0
LWPOLYLINE
  5
3C2
100
AcDbEntity
  8
0
100
AcDbPolyline
 62
7
  6
CONTINUOUS
 90
11
 70
0
 10
161.3067118904
 20
99.9978232572
 10
161.3151168511
 20
100.0216083523
 10
161.3270295201
 20
100.0447784936
 10
161.3422622625
 20
100.0669170372
 10
161.3602521736
 20
100.0867740517
 10
161.3812149749
 20
100.1042420002
 10
161.404934945
 20
100.1194284195
 10
161.4302020146
 20
100.1314059886
 10
161.4566128273
 20
100.1398656006
 10
161.4845707395
 20
100.1451163624
 10
161.5140757513
 20
100.1471582741
  0
LINE
  5
3C3
100
AcDbEntity
  8
0
100
AcDbLine
 62
7
  6
CONTINUOUS
 10
161.8002594703
 20
100.1705900405
 11
161.8480503475
 21
100.2441547876
  0
LINE
  5
3C4
100
AcDbEntity
  8
0
100
AcDbLine
 62
7
  6
CONTINUOUS
 10
161.7847563586
 20
100.1471582741
 11
161.8002594703
 21
100.1705900405
  0
LINE
  5
3C5
100
AcDbEntity
  8
0
100
AcDbLine
 62
7
  6
CONTINUOUS
 10
161.4028671023
 20
99.595633968
 11
161.4474642683
 21
99.6573820405
  0
LINE
  5
3C6
100
AcDbEntity
  8
DRAFT
100
AcDbLine
 62
7
  6
CONTINUOUS
 10
161.3140757513
 20
99.4790737346
 11
161.4028671023
 21
99.595633968
  0
LINE
  5
3C7
100
AcDbEntity
  8
DRAFT
100
AcDbLine
 62
7
  6
CONTINUOUS
 10
149.9488037326
 20
92.4471582741
 11
149.8157189988
 21
92.34069146
  0
LINE
  5
3C8
100
AcDbEntity
  8
RACCORDO
100
AcDbLine
 62
7
  6
CONTINUOUS
 10
153.8597326439
 20
125.971328246
 11
153.8601442378
 21
125.9713751414
  0
LINE
  5
3C9
100
AcDbEntity
  8
DRAFT
100
AcDbLine
 62
7
  6
CONTINUOUS
 10
138.6519403674
 20
122.1144802713
 11
143.9140757513
 21
122.1608029554
  0
LINE
  5
3CA
100
AcDbEntity
  8
DRAFT
100
AcDbLine
 62
7
  6
CONTINUOUS
 10
157.5136768066
 20
122.0971582741
 11
152.2640757513
 21
122.0971582741
  0
LINE
  5
3CB
100
AcDbEntity
  8
DRAFT
100
AcDbLine
 62
7
  6
CONTINUOUS
 10
143.9640757513
 20
122.0971582741
 11
138.7144746959
 21
122.0971582741
  0
LINE
  5
3CC
100
AcDbEntity
  8
DRAFT
100
AcDbLine
 62
7
  6
CONTINUOUS
 10
146.2640757513
 20
123.0971582741
 11
149.9640757513
 21
123.0971582741
  0
LINE
  5
3CD
100
AcDbEntity
  8
0
100
AcDbLine
 62
7
  6
CONTINUOUS
 10
146.5140757513
 20
123.2671626184
 11
149.7140757513
 21
123.2671626184
  0
LINE
  5
3CE
100
AcDbEntity
  8
DRAFT
100
AcDbLine
 62
7
  6
CONTINUOUS
 10
143.9140757513
 20
123.5471582741
 11
142.3640757513
 21
123.5471582741
  0
LINE
  5
3CF
100
AcDbEntity
  8
DRAFT
100
AcDbLine
 62
7
  6
CONTINUOUS
 10
152.3140757513
 20
123.5471582741
 11
153.8640757513
 21
123.5471582741
  0
LINE
  5
3D0
100
AcDbEntity
  8
DRAFT
100
AcDbLine
 62
7
  6
CONTINUOUS
 10
153.8640757513
 20
123.5971582741
 11
152.2640757513
 21
123.5971582741
  0
LINE
  5
3D1
100
AcDbEntity
  8
DRAFT
100
AcDbLine
 62
7
  6
CONTINUOUS
 10
143.9640757513
 20
123.5971582741
 11
142.3640757513
 21
123.5971582741
  0
LINE
  5
3D2
100
AcDbEntity
  8
0
100
AcDbLine
 62
7
  6
CONTINUOUS
 10
146.5140757513
 20
123.9433106968
 11
149.7140757513
 21
123.9433106968
  0
LINE
  5
3D3
100
AcDbEntity
  8
0
100
AcDbLine
 62
7
  6
CONTINUOUS
 10
146.4640757513
 20
124.4792090816
 11
146.5140757513
 21
124.4792090816
  0
LINE
  5
3D4
100
AcDbEntity
  8
0
100
AcDbLine
 62
7
  6
CONTINUOUS
 10
149.7140757513
 20
124.4792090816
 11
149.7640757513
 21
124.4792090816
  0
LINE
  5
3D5
100
AcDbEntity
  8
RACCORDO
100
AcDbLine
 62
253
  6
CONTINUOUS
 10
146.4640757513
 20
124.7233063525
 11
149.7640757513
 21
124.7233063525
  0
LINE
  5
3D6
100
AcDbEntity
  8
0
100
AcDbLine
 62
7
  6
CONTINUOUS
 10
146.2793477699
 20
124.7471582741
 11
146.4640757513
 21
124.7471582741
  0
LINE
  5
3D7
100
AcDbEntity
  8
RACCORDO
100
AcDbLine
 62
7
  6
CONTINUOUS
 10
146.4640757513
 20
124.7471582741
 11
149.7640757513
 21
124.7471582741
  0
LINE
  5
3D8
100
AcDbEntity
  8
0
100
AcDbLine
 62
7
  6
CONTINUOUS
 10
149.7640757513
 20
124.7471582741
 11
149.9488037326
 21
124.7471582741
  0
LINE
  5
3D9
100
AcDbEntity
  8
0
100
AcDbLine
 62
253
  6
CONTINUOUS
 10
146.4640757513
 20
124.761802935
 11
149.7640757513
 21
124.761802935
  0
LINE
  5
3DA
100
AcDbEntity
  8
DRAFT
100
AcDbLine
 62
7
  6
CONTINUOUS
 10
149.8157189988
 20
124.8536250881
 11
149.7640757513
 21
124.8536250881
  0
LINE
  5
3DB
100
AcDbEntity
  8
DRAFT
100
AcDbLine
 62
7
  6
CONTINUOUS
 10
146.4640757513
 20
124.8536250881
 11
146.4124325037
 21
124.8536250881
  0
LINE
  5
3DC
100
AcDbEntity
  8
0
100
AcDbLine
 62
7
  6
CONTINUOUS
 10
146.4640757513
 20
125.3471582741
 11
149.7640757513
 21
125.3471582741
  0
LINE
  5
3DD
100
AcDbEntity
  8
DRAFT
100
AcDbLine
 62
7
  6
CONTINUOUS
 10
152.3140757513
 20
122.1608029554
 11
157.5762111351
 21
122.1144802713
  0
LINE
  5
3DE
100
AcDbEntity
  8
RACCORDO
100
AcDbLine
 62
7
  6
CONTINUOUS
 10
142.3680072647
 20
125.9713751414
 11
142.3684188586
 21
125.971328246
  0
LWPOLYLINE
  5
3DF
100
AcDbEntity
  8
RACCORDO
100
AcDbPolyline
 62
7
  6
CONTINUOUS
 90
10
 70
0
 10
146.2684446463
 20
126.8035357218
 10
146.2844421511
 20
126.7986238469
 10
146.3004402939
 20
126.7852541141
 10
146.3164390747
 20
126.7634265233
 10
146.3324389622
 20
126.7331407694
 10
146.3484394877
 20
126.6943971576
 10
146.3644392452
 20
126.6471966037
 10
146.380437766
 20
126.591539413
 10
146.3964355189
 20
126.5274252801
 10
146.4124325037
 20
126.4548542052
  0
LINE
  5
3E0
100
AcDbEntity
  8
DRAFT
100
AcDbLine
 62
7
  6
CONTINUOUS
 10
149.8157189988
 20
124.8536250881
 11
149.9488037326
 21
124.7471582741
  0
LINE
  5
3E1
100
AcDbEntity
  8
DRAFT
100
AcDbLine
 62
7
  6
CONTINUOUS
 10
161.4028671023
 20
117.5986825801
 11
161.3140757513
 21
117.7152291555
  0
LINE
  5
3E2
100
AcDbEntity
  8
0
100
AcDbLine
 62
7
  6
CONTINUOUS
 10
161.4474642683
 20
117.5369345076
 11
161.4028671023
 21
117.5986825801
  0
LINE
  5
3E3
100
AcDbEntity
  8
0
100
AcDbLine
 62
7
  6
CONTINUOUS
 10
161.8002594703
 20
117.0237265076
 11
161.7847563586
 21
117.0471582741
  0
LINE
  5
3E4
100
AcDbEntity
  8
0
100
AcDbLine
 62
7
  6
CONTINUOUS
 10
161.8480503475
 20
116.9501617606
 11
161.8002594703
 21
117.0237265076
  0
LWPOLYLINE
  5
3E5
100
AcDbEntity
  8
0
100
AcDbPolyline
 62
7
  6
CONTINUOUS
 90
4
 70
0
 10
161.3151168511
 20
117.1727081959
 10
161.3067118904
 20
117.1964932909
 10
161.301627003
 20
117.2213099837
 10
161.2998621889
 20
117.2471582741
  0
LINE
  5
3E6
100
AcDbEntity
  8
RACCORDO
100
AcDbLine
 62
253
  6
CONTINUOUS
 10
165.8873971438
 20
106.4971582741
 11
165.8873971438
 21
106.9471582741
  0
LINE
  5
3E7
100
AcDbEntity
  8
RACCORDO
100
AcDbLine
 62
253
  6
CONTINUOUS
 10
165.8873971438
 20
110.2471582741
 11
165.8873971438
 21
110.6971581984
  0
LWPOLYLINE
  5
3E8
100
AcDbEntity
  8
RACCORDO
100
AcDbPolyline
 62
253
  6
CONTINUOUS
 90
7
 70
0
 10
163.6538207279
 20
99.814802116
 10
163.6871274446
 20
99.8803463372
 10
163.7144449142
 20
99.9475537435
 10
163.7357731369
 20
100.0164243349
 10
163.7511121125
 20
100.0869581114
 10
163.7604618411
 20
100.1591550731
 10
163.7638223228
 20
100.2330152199
  0
LWPOLYLINE
  5
3E9
100
AcDbEntity
  8
RACCORDO
100
AcDbPolyline
 62
253
  6
CONTINUOUS
 90
7
 70
0
 10
163.6538207274
 20
117.3795144322
 10
163.6871939777
 20
117.3137127822
 10
163.7145513675
 20
117.2463509185
 10
163.7358928969
 20
117.1774288413
 10
163.7512185658
 20
117.1069465505
 10
163.7605283743
 20
117.0349040461
 10
163.7638223224
 20
116.9613013282
  0
CIRCLE
  5
3EA
100
AcDbEntity
  8
RACCORDO
100
AcDbCircle
 62
253
  6
CONTINUOUS
 10
138.6140757513
 20
108.5971582741
 40
2.5749990092
  0
CIRCLE
  5
3EB
100
AcDbEntity
  8
RACCORDO
100
AcDbCircle
 62
7
  6
CONTINUOUS
 10
138.6140757513
 20
108.5971582741
 40
2.425
  0
CIRCLE
  5
3EC
100
AcDbEntity
  8
0
100
AcDbCircle
 62
7
  6
CONTINUOUS
 10
138.6140757513
 20
108.5971582741
 40
2.4
  0
ARC
  5
3ED
100
AcDbEntity
  8
RACCORDO
100
AcDbCircle
 62
7
  6
CONTINUOUS
 10
133.3143286184
 20
100.2330152246
 40
1.2999999999
100
AcDbArc
 50
180.000000086
 51
209.4731372113
  0
ARC
  5
3EE
100
AcDbEntity
  8
0
100
AcDbCircle
 62
7
  6
CONTINUOUS
 10
141.3862007513
 20
99.9896252741
 40
0.503479
100
AcDbArc
 50
270.0
 51
42.4124117733
  0
ARC
  5
3EF
100
AcDbEntity
  8
0
100
AcDbCircle
 62
7
  6
CONTINUOUS
 10
136.8419347513
 20
99.9896092741
 40
0.5034633068
100
AcDbArc
 50
137.586977878
 51
269.9998209465
  0
ARC
  5
3F0
100
AcDbEntity
  8
0
100
AcDbCircle
 62
7
  6
CONTINUOUS
 10
139.1140857513
 20
102.5292152741
 40
0.4681143808
100
AcDbArc
 50
42.4129885295
 51
137.5875229606
  0
ARC
  5
3F1
100
AcDbEntity
  8
RACCORDO
100
AcDbCircle
 62
7
  6
CONTINUOUS
 10
130.3407543619
 20
106.9471582741
 40
0.45
100
AcDbArc
 50
185.303892186
 51
269.9999998703
  0
ARC
  5
3F2
100
AcDbEntity
  8
0
100
AcDbCircle
 62
7
  6
CONTINUOUS
 10
139.1140857513
 20
102.4457752741
 40
0.35547823
100
AcDbArc
 50
42.6379644014
 51
137.3627103468
  0
ARC
  5
3F3
100
AcDbEntity
  8
0
100
AcDbCircle
 62
7
  6
CONTINUOUS
 10
141.3757347513
 20
99.9896602741
 40
0.355379
100
AcDbArc
 50
270.0
 51
42.6374314818
  0
ARC
  5
3F4
100
AcDbEntity
  8
0
100
AcDbCircle
 62
7
  6
CONTINUOUS
 10
136.8522657513
 20
99.9895852741
 40
0.3553034607
100
AcDbArc
 50
137.3621709958
 51
270.0004451802
  0
ARC
  5
3F5
100
AcDbEntity
  8
0
100
AcDbCircle
 62
7
  6
CONTINUOUS
 10
138.3879967513
 20
100.3021172741
 40
0.296796
100
AcDbArc
 50
270.0
 51
0.0112064891
  0
ARC
  5
3F6
100
AcDbEntity
  8
0
100
AcDbCircle
 62
7
  6
CONTINUOUS
 10
138.3879967513
 20
100.7976222741
 40
0.296656
100
AcDbArc
 50
359.9485015949
 51
90.0
  0
ARC
  5
3F7
100
AcDbEntity
  8
0
100
AcDbCircle
 62
7
  6
CONTINUOUS
 10
138.3521207513
 20
100.7570362741
 40
0.169514
100
AcDbArc
 50
0.0
 51
90.0
  0
ARC
  5
3F8
100
AcDbEntity
  8
0
100
AcDbCircle
 62
7
  6
CONTINUOUS
 10
138.3521207513
 20
100.3475702741
 40
0.169513
100
AcDbArc
 50
270.0
 51
0.0012614342
  0
ARC
  5
3F9
100
AcDbEntity
  8
0
100
AcDbCircle
 62
7
  6
CONTINUOUS
 10
133.6640757513
 20
99.2971582741
 40
0.15
100
AcDbArc
 50
90.0
 51
270.0
  0
ARC
  5
3FA
100
AcDbEntity
  8
0
100
AcDbCircle
 62
7
  6
CONTINUOUS
 10
147.4140757513
 20
118.641550467
 40
3.2
100
AcDbArc
 50
306.5659896117
 51
310.2663479298
  0
ARC
  5
3FB
100
AcDbEntity
  8
0
100
AcDbCircle
 62
7
  6
CONTINUOUS
 10
147.4140757513
 20
118.641550467
 40
3.2
100
AcDbArc
 50
34.0346776373
 51
40.8895167753
  0
ARC
  5
3FC
100
AcDbEntity
  8
0
100
AcDbCircle
 62
7
  6
CONTINUOUS
 10
147.4140757513
 20
118.641550467
 40
3.0336923418
100
AcDbArc
 50
324.4109815479
 51
18.8566405585
  0
ARC
  5
3FD
100
AcDbEntity
  8
0
100
AcDbCircle
 62
253
  6
CONTINUOUS
 10
147.4140757513
 20
118.641550467
 40
2.7339555569
100
AcDbArc
 50
316.4767467765
 51
27.3705485751
  0
ARC
  5
3FE
100
AcDbEntity
  8
0
100
AcDbCircle
 62
7
  6
CONTINUOUS
 10
147.4140757513
 20
118.641550467
 40
2.5
100
AcDbArc
 50
301.3786217726
 51
40.8895167753
  0
ARC
  5
3FF
100
AcDbEntity
  8
RACCORDO
100
AcDbCircle
 62
7
  6
CONTINUOUS
 10
133.314328618
 20
116.9613013239
 40
1.2999999999
100
AcDbArc
 50
150.5268436636
 51
179.9999808
  0
ARC
  5
400
100
AcDbEntity
  8
0
100
AcDbCircle
 62
7
  6
CONTINUOUS
 10
146.3571626812
 20
120.7690086137
 40
0.75
100
AcDbArc
 50
319.1104832247
 51
31.187644539
  0
ARC
  5
401
100
AcDbEntity
  8
RACCORDO
100
AcDbCircle
 62
7
  6
CONTINUOUS
 10
130.3407543604
 20
110.2471582741
 40
0.45
100
AcDbArc
 50
90.0000001303
 51
174.6961034463
  0
ARC
  5
402
100
AcDbEntity
  8
0
100
AcDbCircle
 62
7
  6
CONTINUOUS
 10
133.6640757513
 20
117.8971582741
 40
0.15
100
AcDbArc
 50
90.0
 51
270.0
  0
ARC
  5
403
100
AcDbEntity
  8
0
100
AcDbCircle
 62
7
  6
CONTINUOUS
 10
146.3571626812
 20
120.7690086137
 40
0.05
100
AcDbArc
 50
319.1104832247
 51
31.187644539
  0
ARC
  5
404
100
AcDbEntity
  8
RACCORDO
100
AcDbCircle
 62
7
  6
CONTINUOUS
 10
148.1140757513
 20
108.5971582741
 40
18.2997465898
100
AcDbArc
 50
209.4731561323
 51
251.6996214724
  0
ARC
  5
405
100
AcDbEntity
  8
RACCORDO
100
AcDbCircle
 62
7
  6
CONTINUOUS
 10
148.1140757513
 20
108.5971582741
 40
18.2997465898
100
AcDbArc
 50
174.6961044284
 51
185.3038955716
  0
ARC
  5
406
100
AcDbEntity
  8
RACCORDO
100
AcDbCircle
 62
7
  6
CONTINUOUS
 10
148.1140757513
 20
108.5971582741
 40
18.2997465898
100
AcDbArc
 50
108.3003785276
 51
150.5268438542
  0
ARC
  5
407
100
AcDbEntity
  8
RACCORDO
100
AcDbCircle
 62
7
  6
CONTINUOUS
 10
148.1140757513
 20
108.5971582741
 40
18.2997465898
100
AcDbArc
 50
354.6961044284
 51
5.3038955716
  0
ARC
  5
408
100
AcDbEntity
  8
RACCORDO
100
AcDbCircle
 62
7
  6
CONTINUOUS
 10
148.1140757513
 20
108.5971582741
 40
18.2997465898
100
AcDbArc
 50
29.4731561823
 51
71.6996021202
  0
ARC
  5
409
100
AcDbEntity
  8
RACCORDO
100
AcDbCircle
 62
7
  6
CONTINUOUS
 10
148.1140757513
 20
108.5971582741
 40
18.2997465898
100
AcDbArc
 50
288.3003978798
 51
330.5268438196
  0
ARC
  5
40A
100
AcDbEntity
  8
RACCORDO
100
AcDbCircle
 62
7
  6
CONTINUOUS
 10
148.1140757513
 20
108.5971582741
 40
18.2996871088
100
AcDbArc
 50
251.7009808222
 51
264.2114942656
  0
ARC
  5
40B
100
AcDbEntity
  8
RACCORDO
100
AcDbCircle
 62
7
  6
CONTINUOUS
 10
148.1140757513
 20
108.5971582741
 40
18.2996871088
100
AcDbArc
 50
275.7885057344
 51
288.2990191778
  0
ARC
  5
40C
100
AcDbEntity
  8
RACCORDO
100
AcDbCircle
 62
7
  6
CONTINUOUS
 10
148.1140757513
 20
108.5971582741
 40
18.2996871088
100
AcDbArc
 50
95.7885057426
 51
108.2990192198
  0
ARC
  5
40D
100
AcDbEntity
  8
RACCORDO
100
AcDbCircle
 62
7
  6
CONTINUOUS
 10
148.1140757513
 20
108.5971582741
 40
18.2996871088
100
AcDbArc
 50
71.7009807802
 51
84.2114942574
  0
ARC
  5
40E
100
AcDbEntity
  8
DRAFT
100
AcDbCircle
 62
7
  6
CONTINUOUS
 10
148.1140757513
 20
108.5971582741
 40
17.9385867256
100
AcDbArc
 50
264.5567735655
 51
275.4432264345
  0
ARC
  5
40F
100
AcDbEntity
  8
DRAFT
100
AcDbCircle
 62
7
  6
CONTINUOUS
 10
148.1140757513
 20
108.5971582741
 40
17.9385867256
100
AcDbArc
 50
84.5567735655
 51
95.4432264345
  0
ARC
  5
410
100
AcDbEntity
  8
RACCORDO
100
AcDbCircle
 62
253
  6
CONTINUOUS
 10
148.1140757513
 20
108.5971582741
 40
17.8497465898
100
AcDbArc
 50
108.7921579178
 51
150.5268438675
  0
ARC
  5
411
100
AcDbEntity
  8
RACCORDO
100
AcDbCircle
 62
253
  6
CONTINUOUS
 10
148.1140757513
 20
108.5971582741
 40
17.8497465898
100
AcDbArc
 50
174.6960995382
 51
185.3039031133
  0
ARC
  5
412
100
AcDbEntity
  8
RACCORDO
100
AcDbCircle
 62
253
  6
CONTINUOUS
 10
148.1140757513
 20
108.5971582741
 40
17.8497465898
100
AcDbArc
 50
209.4731561322
 51
251.2077997334
  0
ARC
  5
413
100
AcDbEntity
  8
RACCORDO
100
AcDbCircle
 62
253
  6
CONTINUOUS
 10
148.1140757513
 20
108.5971582741
 40
17.8497465898
100
AcDbArc
 50
288.7923641589
 51
330.5268438193
  0
ARC
  5
414
100
AcDbEntity
  8
RACCORDO
100
AcDbCircle
 62
253
  6
CONTINUOUS
 10
148.1140757513
 20
108.5971582741
 40
17.8497465898
100
AcDbArc
 50
29.4731561819
 51
71.2076584998
  0
ARC
  5
415
100
AcDbEntity
  8
RACCORDO
100
AcDbCircle
 62
253
  6
CONTINUOUS
 10
148.1140757513
 20
108.5971582741
 40
17.8497465898
100
AcDbArc
 50
354.6960961259
 51
5.3039005266
  0
ARC
  5
416
100
AcDbEntity
  8
RACCORDO
100
AcDbCircle
 62
253
  6
CONTINUOUS
 10
148.1140757513
 20
108.5971582741
 40
17.7996871088
100
AcDbArc
 50
251.1530764041
 51
264.0342137571
  0
ARC
  5
417
100
AcDbEntity
  8
RACCORDO
100
AcDbCircle
 62
253
  6
CONTINUOUS
 10
148.1140757513
 20
108.5971582741
 40
17.7996871088
100
AcDbArc
 50
275.9657942348
 51
288.8468346543
  0
ARC
  5
418
100
AcDbEntity
  8
RACCORDO
100
AcDbCircle
 62
253
  6
CONTINUOUS
 10
148.1140757513
 20
108.5971582741
 40
17.7996871088
100
AcDbArc
 50
95.9657930193
 51
108.8468345003
  0
ARC
  5
419
100
AcDbEntity
  8
RACCORDO
100
AcDbCircle
 62
253
  6
CONTINUOUS
 10
148.1140757513
 20
108.5971582741
 40
17.7996871088
100
AcDbArc
 50
71.1530755828
 51
84.0342139751
  0
ARC
  5
41A
100
AcDbEntity
  8
DRAFT
100
AcDbCircle
 62
7
  6
CONTINUOUS
 10
148.1140757513
 20
108.5971582741
 40
16.5
100
AcDbArc
 50
214.9406265836
 51
235.0079513944
  0
ARC
  5
41B
100
AcDbEntity
  8
DRAFT
100
AcDbCircle
 62
7
  6
CONTINUOUS
 10
148.1140757513
 20
108.5971582741
 40
16.5
100
AcDbArc
 50
124.9920486056
 51
145.0593734164
  0
ARC
  5
41C
100
AcDbEntity
  8
DRAFT
100
AcDbCircle
 62
7
  6
CONTINUOUS
 10
148.1140757513
 20
108.5971582741
 40
16.5
100
AcDbArc
 50
34.9406265836
 51
55.0079513944
  0
ARC
  5
41D
100
AcDbEntity
  8
DRAFT
100
AcDbCircle
 62
7
  6
CONTINUOUS
 10
148.1140757513
 20
108.5971582741
 40
16.5
100
AcDbArc
 50
304.9920486056
 51
325.0593734164
  0
ARC
  5
41E
100
AcDbEntity
  8
0
100
AcDbCircle
 62
7
  6
CONTINUOUS
 10
148.1140757513
 20
108.5971582741
 40
16.4980380414
100
AcDbArc
 50
145.0546128201
 51
146.2617690353
  0
ARC
  5
41F
100
AcDbEntity
  8
0
100
AcDbCircle
 62
7
  6
CONTINUOUS
 10
148.1140757513
 20
108.5971582741
 40
16.4980380414
100
AcDbArc
 50
213.7382309647
 51
214.9453871799
  0
ARC
  5
420
100
AcDbEntity
  8
0
100
AcDbCircle
 62
7
  6
CONTINUOUS
 10
148.1140757513
 20
108.5971582741
 40
16.4980380414
100
AcDbArc
 50
33.7382628151
 51
34.9453871799
  0
ARC
  5
421
100
AcDbEntity
  8
0
100
AcDbCircle
 62
7
  6
CONTINUOUS
 10
148.1140757513
 20
108.5971582741
 40
16.4980380414
100
AcDbArc
 50
325.0546128201
 51
326.2617371849
  0
ARC
  5
422
100
AcDbEntity
  8
0
100
AcDbCircle
 62
7
  6
CONTINUOUS
 10
148.1140757513
 20
108.5971582741
 40
16.45
100
AcDbArc
 50
124.848211388
 51
143.3629355117
  0
ARC
  5
423
100
AcDbEntity
  8
0
100
AcDbCircle
 62
7
  6
CONTINUOUS
 10
148.1140757513
 20
108.5971582741
 40
16.45
100
AcDbArc
 50
36.6370644883
 51
55.151788612
  0
ARC
  5
424
100
AcDbEntity
  8
0
100
AcDbCircle
 62
7
  6
CONTINUOUS
 10
148.1140757513
 20
108.5971582741
 40
16.45
100
AcDbArc
 50
304.848211388
 51
323.3629355117
  0
ARC
  5
425
100
AcDbEntity
  8
0
100
AcDbCircle
 62
7
  6
CONTINUOUS
 10
148.1140757513
 20
108.5971582741
 40
16.45
100
AcDbArc
 50
216.6370644883
 51
235.151788612
  0
ARC
  5
426
100
AcDbEntity
  8
RACCORDO
100
AcDbCircle
 62
253
  6
CONTINUOUS
 10
148.1140757513
 20
108.5971582741
 40
16.0505269509
100
AcDbArc
 50
145.3425682981
 51
145.8871772037
  0
ARC
  5
427
100
AcDbEntity
  8
RACCORDO
100
AcDbCircle
 62
253
  6
CONTINUOUS
 10
148.1140757513
 20
108.5971582741
 40
16.0505269509
100
AcDbArc
 50
214.1128174376
 51
214.6574318318
  0
ARC
  5
428
100
AcDbEntity
  8
DRAFT
100
AcDbCircle
 62
253
  6
CONTINUOUS
 10
148.1140757513
 20
108.5971582741
 40
16.0505269509
100
AcDbArc
 50
34.1128174376
 51
34.6697067079
  0
ARC
  5
429
100
AcDbEntity
  8
DRAFT
100
AcDbCircle
 62
253
  6
CONTINUOUS
 10
148.1140757513
 20
108.5971582741
 40
16.0505269509
100
AcDbArc
 50
325.3300776106
 51
325.8871825624
  0
ARC
  5
42A
100
AcDbEntity
  8
DRAFT
100
AcDbCircle
 62
253
  6
CONTINUOUS
 10
148.1140757513
 20
108.5971582741
 40
16.0505269509
100
AcDbArc
 50
302.5731550904
 51
302.731160528
  0
ARC
  5
42B
100
AcDbEntity
  8
DRAFT
100
AcDbCircle
 62
253
  6
CONTINUOUS
 10
148.1140757513
 20
108.5971582741
 40
16.0505269509
100
AcDbArc
 50
57.2679279827
 51
57.425973118
  0
ARC
  5
42C
100
AcDbEntity
  8
RACCORDO
100
AcDbCircle
 62
253
  6
CONTINUOUS
 10
148.1140757513
 20
108.5971582741
 40
12.203643875
100
AcDbArc
 50
98.3572754922
 51
98.9458702488
  0
ARC
  5
42D
100
AcDbEntity
  8
RACCORDO
100
AcDbCircle
 62
253
  6
CONTINUOUS
 10
148.1140757513
 20
108.5971582741
 40
12.203643875
100
AcDbArc
 50
85.2976118402
 51
94.7331180544
  0
ARC
  5
42E
100
AcDbEntity
  8
0
100
AcDbCircle
 62
7
  6
CONTINUOUS
 10
156.8140757513
 20
100.7971582741
 40
2.0240299518
100
AcDbArc
 50
266.5700959352
 51
247.9114702303
  0
ARC
  5
42F
100
AcDbEntity
  8
0
100
AcDbCircle
 62
7
  6
CONTINUOUS
 10
156.8752947513
 20
96.9816012741
 40
1.8043863978
100
AcDbArc
 50
95.798940615
 51
132.768733899
  0
ARC
  5
430
100
AcDbEntity
  8
0
100
AcDbCircle
 62
7
  6
CONTINUOUS
 10
156.7332897513
 20
97.2738712741
 40
1.7827319001
100
AcDbArc
 50
112.4341208305
 51
134.5650897671
  0
CIRCLE
  5
431
100
AcDbEntity
  8
0
100
AcDbCircle
 62
7
  6
CONTINUOUS
 10
156.8140757513
 20
100.7971582741
 40
1.700044
  0
ARC
  5
432
100
AcDbEntity
  8
0
100
AcDbCircle
 62
7
  6
CONTINUOUS
 10
156.8140757513
 20
100.7971582741
 40
1.5204522959
100
AcDbArc
 50
299.3041235269
 51
45.0997366742
  0
ARC
  5
433
100
AcDbEntity
  8
0
100
AcDbCircle
 62
7
  6
CONTINUOUS
 10
156.8140757513
 20
100.7971582741
 40
1.5204520975
100
AcDbArc
 50
135.0042389265
 51
240.6958764731
  0
ARC
  5
434
100
AcDbEntity
  8
RACCORDO
100
AcDbCircle
 62
7
  6
CONTINUOUS
 10
162.9138228802
 20
100.2330152103
 40
1.2999999999
100
AcDbArc
 50
330.526843805
 51
359.9999801729
  0
ARC
  5
435
100
AcDbEntity
  8
0
100
AcDbCircle
 62
7
  6
CONTINUOUS
 10
156.8140757513
 20
100.7971582741
 40
1.2181566122
100
AcDbArc
 50
148.0267034046
 51
240.6958722649
  0
ARC
  5
436
100
AcDbEntity
  8
0
100
AcDbCircle
 62
7
  6
CONTINUOUS
 10
156.8140757513
 20
100.7971582741
 40
1.2181564327
100
AcDbArc
 50
299.3041277351
 51
31.9732953577
  0
ARC
  5
437
100
AcDbEntity
  8
0
100
AcDbCircle
 62
7
  6
CONTINUOUS
 10
162.5640757513
 20
99.2971582741
 40
0.15
100
AcDbArc
 50
270.0
 51
90.0
  0
CIRCLE
  5
438
100
AcDbEntity
  8
RACCORDO
100
AcDbCircle
 62
253
  6
CONTINUOUS
 10
157.6140757513
 20
108.5971582741
 40
2.5749990092
  0
CIRCLE
  5
439
100
AcDbEntity
  8
RACCORDO
100
AcDbCircle
 62
7
  6
CONTINUOUS
 10
157.6140757513
 20
108.5971582741
 40
2.425
  0
CIRCLE
  5
43A
100
AcDbEntity
  8
0
100
AcDbCircle
 62
7
  6
CONTINUOUS
 10
157.6140757513
 20
108.5971582741
 40
2.4
  0
CIRCLE
  5
43B
100
AcDbEntity
  8
RACCORDO
100
AcDbCircle
 62
253
  6
CONTINUOUS
 10
148.1140757513
 20
118.5971582741
 40
3.2999980649
  0
ARC
  5
43C
100
AcDbEntity
  8
0
100
AcDbCircle
 62
7
  6
CONTINUOUS
 10
148.8140757513
 20
118.641550467
 40
3.2
100
AcDbArc
 50
139.1104832247
 51
145.9653223627
  0
ARC
  5
43D
100
AcDbEntity
  8
0
100
AcDbCircle
 62
7
  6
CONTINUOUS
 10
148.8140757513
 20
118.641550467
 40
3.2
100
AcDbArc
 50
229.7336520702
 51
233.4340103883
  0
ARC
  5
43E
100
AcDbEntity
  8
0
100
AcDbCircle
 62
7
  6
CONTINUOUS
 10
148.8140757513
 20
118.641550467
 40
3.0336923418
100
AcDbArc
 50
161.1433594415
 51
215.5890184521
  0
CIRCLE
  5
43F
100
AcDbEntity
  8
RACCORDO
100
AcDbCircle
 62
7
  6
CONTINUOUS
 10
148.1140757513
 20
118.5971582741
 40
2.8
  0
ARC
  5
440
100
AcDbEntity
  8
0
100
AcDbCircle
 62
253
  6
CONTINUOUS
 10
148.8140757513
 20
118.641550467
 40
2.7339555569
100
AcDbArc
 50
152.6294514249
 51
223.5232532235
  0
ARC
  5
441
100
AcDbEntity
  8
0
100
AcDbCircle
 62
7
  6
CONTINUOUS
 10
148.8140757513
 20
118.641550467
 40
2.5
100
AcDbArc
 50
139.1104832247
 51
238.6213782274
  0
ARC
  5
442
100
AcDbEntity
  8
RACCORDO
100
AcDbCircle
 62
7
  6
CONTINUOUS
 10
162.9138228794
 20
116.9613013378
 40
1.2999999999
100
AcDbArc
 50
0.0000191003
 51
29.4731559829
  0
ARC
  5
443
100
AcDbEntity
  8
0
100
AcDbCircle
 62
7
  6
CONTINUOUS
 10
149.8709888214
 20
120.7690086137
 40
0.75
100
AcDbArc
 50
148.812355461
 51
220.8895167753
  0
ARC
  5
444
100
AcDbEntity
  8
RACCORDO
100
AcDbCircle
 62
7
  6
CONTINUOUS
 10
148.1140757513
 20
119.2272618503
 40
0.5
100
AcDbArc
 50
0.0
 51
88.9999999442
  0
ARC
  5
445
100
AcDbEntity
  8
RACCORDO
100
AcDbCircle
 62
7
  6
CONTINUOUS
 10
165.8873971419
 20
110.2471582741
 40
0.45
100
AcDbArc
 50
5.3039008526
 51
89.9999998427
  0
ARC
  5
446
100
AcDbEntity
  8
0
100
AcDbCircle
 62
7
  6
CONTINUOUS
 10
162.5640757513
 20
117.8971582741
 40
0.15
100
AcDbArc
 50
270.0
 51
90.0
  0
ARC
  5
447
100
AcDbEntity
  8
0
100
AcDbCircle
 62
7
  6
CONTINUOUS
 10
149.8709888214
 20
120.7690086137
 40
0.05
100
AcDbArc
 50
148.812355461
 51
220.8895167753
  0
ELLIPSE
  5
448
100
AcDbEntity
  8
RACCORDO
100
AcDbEllipse
 62
7
  6
CONTINUOUS
 10
146.2946197885
 20
94.0471582741
 30
0.0
 11
-0.0
 21
0.25
 31
0.0
 40
0.0087268678
 41
-1.5707963268
 42
-1.3693119734
  0
ELLIPSE
  5
449
100
AcDbEntity
  8
RACCORDO
100
AcDbEllipse
 62
7
  6
CONTINUOUS
 10
149.933531714
 20
94.0471582741
 30
0.0
 11
0.0
 21
0.25
 31
0.0
 40
0.0087268678
 41
1.4640479223
 42
1.5707963268
  0
ELLIPSE
  5
44A
100
AcDbEntity
  8
RACCORDO
100
AcDbEllipse
 62
7
  6
CONTINUOUS
 10
146.2946197885
 20
123.1471582741
 30
0.0
 11
0.0
 21
0.25
 31
0.0
 40
0.0087268678
 41
-1.6775447313
 42
-1.5707963268
  0
ELLIPSE
  5
44B
100
AcDbEntity
  8
RACCORDO
100
AcDbEllipse
 62
7
  6
CONTINUOUS
 10
149.933531714
 20
123.1471582741
 30
0.0
 11
-0.0
 21
0.25
 31
0.0
 40
0.0087268678
 41
-4.7123889804
 42
-4.510904627
  0
ELLIPSE
  5
44C
100
AcDbEntity
  8
RACCORDO
100
AcDbEllipse
 62
7
  6
CONTINUOUS
 10
146.2924380716
 20
94.0343161644
 30
0.0
 11
-0.0
 21
0.5
 31
0.0
 40
0.0087268678
 41
-2.617993878
 42
-1.5707963268
  0
ELLIPSE
  5
44D
100
AcDbEntity
  8
RACCORDO
100
AcDbEllipse
 62
7
  6
CONTINUOUS
 10
149.9357134309
 20
94.0343161644
 30
0.0
 11
-0.0
 21
0.5
 31
0.0
 40
0.0087268678
 41
1.5707963268
 42
2.617993878
  0
ELLIPSE
  5
44E
100
AcDbEntity
  8
RACCORDO
100
AcDbEllipse
 62
7
  6
CONTINUOUS
 10
146.2924380716
 20
123.1600003837
 30
0.0
 11
0.0
 21
0.5
 31
0.0
 40
0.0087268678
 41
4.7123889804
 42
5.7595865316
  0
ELLIPSE
  5
44F
100
AcDbEntity
  8
RACCORDO
100
AcDbEllipse
 62
7
  6
CONTINUOUS
 10
149.9357134309
 20
123.1600003837
 30
0.0
 11
-0.0
 21
0.5
 31
0.0
 40
0.0087268678
 41
0.5235987756
 42
1.5707963268
  0
ENDSEC
  0
SECTION
  2
OBJECTS
  0
DICTIONARY
  5
C
100
AcDbDictionary
280
0
281
1
  3
ACAD_GROUP
350
D
  3
ACAD_MLINESTYLE
350
17
  3
ACAD_LAYOUT
350
1A
  3
ACAD_PLOTSETTINGS
350
19
  3
ACAD_PLOTSTYLENAME
350
E
  0
DICTIONARY
  5
D
102
{ACAD_REACTORS
330
C
102
}
100
AcDbDictionary
280
0
281
1
  0
ACDBDICTIONARYWDFLT
  5
E
102
{ACAD_REACTORS
330
C
102
}
100
AcDbDictionary
281
1
  3
Normal
350
F
100
AcDbDictionaryWithDefault
340
F
  0
DICTIONARY
  5
17
102
{ACAD_REACTORS
330
C
102
}
100
AcDbDictionary
280
0
281
1
  3
Standard
350
18
  0
DICTIONARY
  5
19
102
{ACAD_REACTORS
330
C
102
}
100
AcDbDictionary
281
1
  0
DICTIONARY
  5
1A
102
{ACAD_REACTORS
330
C
102
}
100
AcDbDictionary
281
1
  3
Model
350
450
  3
Layout1
350
451
  0
ACDBPLACEHOLDER
  5
F
102
{ACAD_REACTORS
330
E
102
}
  0
MLINESTYLE
  5
18
102
{ACAD_REACTORS
330
17
102
}
100
AcDbMlineStyle
  2
STANDARD
 70
0
  3

 62
256
 51
90.0
 52
90.0
 71
2
 49
0.5
 62
256
  6
BYLAYER
 49
-0.5
 62
256
  6
BYLAYER
  0
LAYOUT
  5
450
102
{ACAD_REACTORS
330
1A
102
}
100
AcDbPlotSettings
  1

  2
none_device
  4
ISO_A4_(297.00_x_210.00_MM)
  6

 40
0.0
 41
0.0
 42
0.0
 43
0.0
 44
297.0
 45
210.0
 46
0.0
 47
0.0
 48
0.0
 49
0.0
140
0.0
141
0.0
142
1.0
143
1.0
 70
1024
 72
1
 73
0
 74
0
  7

 75
0
147
1.0
148
0.0
149
0.0
100
AcDbLayout
  1
Model
 70
0
 71
0
 10
0.0
 20
0.0
 11
297.0
 21
210.0
 12
0.0
 22
0.0
 32
0.0
 14
0.0
 24
0.0
 34
0.0
 15
0.0
 25
0.0
 35
0.0
146
0.0
 13
0.0
 23
0.0
 33
0.0
 16
1.0
 26
0.0
 36
0.0
 17
0.0
 27
1.0
 37
0.0
 76
0
330
216
345
0
346
0
  0
LAYOUT
  5
451
102
{ACAD_REACTORS
330
1A
102
}
100
AcDbPlotSettings
  1

  2
none_device
  4
ISO_A4_(297.00_x_210.00_MM)
  6

 40
0.0
 41
0.0
 42
0.0
 43
0.0
 44
297.0
 45
210.0
 46
0.0
 47
0.0
 48
0.0
 49
0.0
140
0.0
141
0.0
142
1.0
143
1.0
 70
0
 72
1
 73
0
 74
0
  7

 75
0
147
1.0
148
0.0
149
0.0
100
AcDbLayout
  1
Layout1
 70
0
 71
1
 10
0.0
 20
0.0
 11
297.0
 21
210.0
 12
0.0
 22
0.0
 32
0.0
 14
0.0
 24
0.0
 34
0.0
 15
0.0
 25
0.0
 35
0.0
146
0.0
 13
0.0
 23
0.0
 33
0.0
 16
1.0
 26
0.0
 36
0.0
 17
0.0
 27
1.0
 37
0.0
 76
0
330
217
345
0
346
0
  0
ENDSEC
  0
EOF
