  0
SECTION
  2
HEADER
  9
$ACADVER
  1
AC1024
  9
$DWGCODEPAGE
  3
ANSI_1252
  9
$EXTMAX
 10
558.8
 20
431.8
 30
0.0
  9
$EXTMIN
 10
0.0
 20
0.0
 30
0.0
  9
$LIMMIN
 10
0.0
 20
0.0
  9
$LIMMAX
 10
558.8
 20
431.8
  9
$VIEWCTR
 10
279.4
 20
215.9
  9
$VIEWSIZE
 40
431.8
  9
$CLAYER
  8
0
  9
$LTSCALE
 40
30.734
  9
$CELTYPE
  6
BYLAYER
  9
$DIMSCALE
 40
1.0
  9
$DIMASZ
 40
3.0
  9
$DIMEXO
 40
0.5
  9
$DIMDLI
 40
21.2344
  9
$DIMEXE
 40
1.5
  9
$DIMCEN
 40
5.0292
  9
$DIMLFAC
 40
1.0
  9
$DIMBLK
  1
_FILLED
  9
$DIMALT
 70
0
  9
$DIMALTF
 40
0.0393700787
  9
$DIMTXT
 40
3.0
  9
$DIMTOL
 70
1
  9
$DIMLIM
 70
0
  9
$DIMTFAC
 40
1.0
  9
$DIMTP
 40
0.01
  9
$DIMTM
 40
0.01
  9
$DIMGAP
 40
0.625
  9
$DIMDSEP
 70
44
  9
$AUNITS
 70
0
  9
$PDMODE
 70
3
  9
$PDSIZE
 40
3.0
  9
$HANDSEED
  5
462
  9
$TILEMODE
 70
1
  9
$MEASUREMENT
 70
1
  9
$INSUNITS
 70
4
  0
ENDSEC
  0
SECTION
  2
CLASSES
  0
CLASS
  1
ACDBDICTIONARYWDFLT
  2
AcDbDictionaryWithDefault
  3
AutoCAD 2000
 90
0
 91
1
280
0
281
0
  0
CLASS
  1
ACDBPLACEHOLDER
  2
AcDbPlaceHolder
  3
AutoCAD 2000
 90
0
 91
1
280
0
281
0
  0
CLASS
  1
LAYOUT
  2
AcDbLayout
  3
AutoCAD 2000
 90
0
 91
0
280
0
281
0
  0
ENDSEC
  0
SECTION
  2
TABLES
  0
TABLE
  2
VPORT
  5
8
100
AcDbSymbolTable
 70
2
  0
VPORT
  5
1F4
100
AcDbSymbolTableRecord
100
AcDbViewportTableRecord
  2
*ACTIVE
 70
0
 10
0.0
 20
0.0
 11
1.0
 21
1.0
 12
279.4
 22
215.9
 13
0.0
 23
0.0
 14
1.0
 24
1.0
 15
0.0
 25
0.0
 16
0.0
 26
0.0
 36
1.0
 17
0.0
 27
0.0
 37
0.0
 40
431.8
 41
1.2941176471
 42
50.0
 43
0.0
 44
0.0
 50
0.0
 51
0.0
 71
0
 72
100
 73
1
 74
1
 75
0
 76
0
 77
0
 78
0
  0
ENDTAB
  0
TABLE
  2
LTYPE
  5
5
100
AcDbSymbolTable
 70
6
  0
LTYPE
  5
14
100
AcDbSymbolTableRecord
100
AcDbLinetypeTableRecord
  2
BYBLOCK
 70
0
  3

 72
65
 73
0
 40
0.0
  0
LTYPE
  5
15
100
AcDbSymbolTableRecord
100
AcDbLinetypeTableRecord
  2
BYLAYER
 70
0
  3

 72
65
 73
0
 40
0.0
  0
LTYPE
  5
16
100
AcDbSymbolTableRecord
100
AcDbLinetypeTableRecord
  2
CONTINUOUS
 70
64
  3
Solid line
 72
65
 73
0
 40
0.0
  0
LTYPE
  5
1F5
100
AcDbSymbolTableRecord
100
AcDbLinetypeTableRecord
  2
CENTER
 70
64
  3
____ _ ____ _ ____ _ ____ _ ____ _ ____ _ ____
 72
65
 73
4
 40
0.6
 49
0.375
 74
0
 49
-0.075
 74
0
 49
0.075
 74
0
 49
-0.075
 74
0
  0
LTYPE
  5
1F6
100
AcDbSymbolTableRecord
100
AcDbLinetypeTableRecord
  2
HIDDEN
 70
64
  3
- - - - - - - - - - - - - - - - - - - -
 72
65
 73
2
 40
0.2
 49
0.1
 74
0
 49
-0.1
 74
0
  0
LTYPE
  5
1F7
100
AcDbSymbolTableRecord
100
AcDbLinetypeTableRecord
  2
PHANTOM
 70
64
  3
_____ _ _ _____ _ _ _____ _ _ _____
 72
65
 73
6
 40
0.8
 49
0.45
 74
0
 49
-0.05
 74
0
 49
0.1
 74
0
 49
-0.05
 74
0
 49
0.1
 74
0
 49
-0.05
 74
0
  0
LTYPE
  5
1F8
100
AcDbSymbolTableRecord
100
AcDbLinetypeTableRecord
  2
DOT
 70
64
  3
. . . . . . . . . . . . . . . . . . . .
 72
65
 73
2
 40
0.2
 49
0.1
 74
0
 49
-0.1
 74
0
  0
LTYPE
  5
1F9
100
AcDbSymbolTableRecord
100
AcDbLinetypeTableRecord
  2
DASHED
 70
64
  3
- - - - - - - - - - - - - - - - - - - -
 72
65
 73
2
 40
0.2
 49
0.1
 74
0
 49
-0.1
 74
0
  0
ENDTAB
  0
TABLE
  2
LAYER
  5
2
100
AcDbSymbolTable
 70
36
  0
LAYER
  5
10
100
AcDbSymbolTableRecord
100
AcDbLayerTableRecord
  2
0
 70
0
 62
7
  6
CONTINUOUS
370
-3
390
F
  0
LAYER
  5
1FA
100
AcDbSymbolTableRecord
100
AcDbLayerTableRecord
  2
DEFAULT_1
 70
0
 62
7
  6
CENTER
370
-3
390
F
  0
LAYER
  5
1FB
100
AcDbSymbolTableRecord
100
AcDbLayerTableRecord
  2
DEFAULT_2
 70
0
 62
7
  6
HIDDEN
370
-3
390
F
  0
LAYER
  5
1FC
100
AcDbSymbolTableRecord
100
AcDbLayerTableRecord
  2
DEFAULT_3
 70
0
 62
7
  6
PHANTOM
370
-3
390
F
  0
LAYER
  5
1FD
100
AcDbSymbolTableRecord
100
AcDbLayerTableRecord
  2
ASSI
 70
0
 62
7
  6
CONTINUOUS
370
-3
390
F
  0
LAYER
  5
1FE
100
AcDbSymbolTableRecord
100
AcDbLayerTableRecord
  2
COLOR5
 70
0
 62
7
  6
CONTINUOUS
370
-3
390
F
  0
LAYER
  5
1FF
100
AcDbSymbolTableRecord
100
AcDbLayerTableRecord
  2
COORDINATE
 70
0
 62
7
  6
CONTINUOUS
370
-3
390
F
  0
LAYER
  5
200
100
AcDbSymbolTableRecord
100
AcDbLayerTableRecord
  2
COORD_ORIGINE
 70
0
 62
7
  6
CONTINUOUS
370
-3
390
F
  0
LAYER
  5
201
100
AcDbSymbolTableRecord
100
AcDbLayerTableRecord
  2
COSMETICHE
 70
0
 62
7
  6
CONTINUOUS
370
-3
390
F
  0
LAYER
  5
202
100
AcDbSymbolTableRecord
100
AcDbLayerTableRecord
  2
CURVE
 70
0
 62
7
  6
CONTINUOUS
370
-3
390
F
  0
LAYER
  5
203
100
AcDbSymbolTableRecord
100
AcDbLayerTableRecord
  2
DRAFT
 70
0
 62
7
  6
CONTINUOUS
370
-3
390
F
  0
LAYER
  5
204
100
AcDbSymbolTableRecord
100
AcDbLayerTableRecord
  2
INTF_1
 70
0
 62
7
  6
CONTINUOUS
370
-3
390
F
  0
LAYER
  5
205
100
AcDbSymbolTableRecord
100
AcDbLayerTableRecord
  2
INTF_10
 70
0
 62
7
  6
CONTINUOUS
370
-3
390
F
  0
LAYER
  5
206
100
AcDbSymbolTableRecord
100
AcDbLayerTableRecord
  2
INTF_11
 70
0
 62
7
  6
CONTINUOUS
370
-3
390
F
  0
LAYER
  5
207
100
AcDbSymbolTableRecord
100
AcDbLayerTableRecord
  2
INTF_12
 70
0
 62
7
  6
CONTINUOUS
370
-3
390
F
  0
LAYER
  5
208
100
AcDbSymbolTableRecord
100
AcDbLayerTableRecord
  2
INTF_2
 70
0
 62
7
  6
CONTINUOUS
370
-3
390
F
  0
LAYER
  5
209
100
AcDbSymbolTableRecord
100
AcDbLayerTableRecord
  2
INTF_8
 70
0
 62
7
  6
CONTINUOUS
370
-3
390
F
  0
LAYER
  5
20A
100
AcDbSymbolTableRecord
100
AcDbLayerTableRecord
  2
INTF_9
 70
0
 62
7
  6
CONTINUOUS
370
-3
390
F
  0
LAYER
  5
20B
100
AcDbSymbolTableRecord
100
AcDbLayerTableRecord
  2
INTF_YELLOW
 70
0
 62
7
  6
CONTINUOUS
370
-3
390
F
  0
LAYER
  5
20C
100
AcDbSymbolTableRecord
100
AcDbLayerTableRecord
  2
NOTE
 70
0
 62
7
  6
CONTINUOUS
370
-3
390
F
  0
LAYER
  5
20D
100
AcDbSymbolTableRecord
100
AcDbLayerTableRecord
  2
PIANI
 70
0
 62
7
  6
CONTINUOUS
370
-3
390
F
  0
LAYER
  5
20E
100
AcDbSymbolTableRecord
100
AcDbLayerTableRecord
  2
PIANI_ORIGINE
 70
0
 62
7
  6
CONTINUOUS
370
-3
390
F
  0
LAYER
  5
20F
100
AcDbSymbolTableRecord
100
AcDbLayerTableRecord
  2
PUNTI
 70
0
 62
7
  6
CONTINUOUS
370
-3
390
F
  0
LAYER
  5
210
100
AcDbSymbolTableRecord
100
AcDbLayerTableRecord
  2
RACCORDO
 70
0
 62
7
  6
CONTINUOUS
370
-3
390
F
  0
LAYER
  5
211
100
AcDbSymbolTableRecord
100
AcDbLayerTableRecord
  2
RGB__255__255__255__
 70
0
 62
7
  6
CONTINUOUS
370
-3
390
F
  0
LAYER
  5
212
100
AcDbSymbolTableRecord
100
AcDbLayerTableRecord
  2
RGB____0____0____0__
 70
0
 62
7
  6
CONTINUOUS
370
-3
390
F
  0
LAYER
  5
213
100
AcDbSymbolTableRecord
100
AcDbLayerTableRecord
  2
SMUSSO
 70
0
 62
7
  6
CONTINUOUS
370
-3
390
F
  0
LAYER
  5
214
100
AcDbSymbolTableRecord
100
AcDbLayerTableRecord
  2
SNAPLINE
 70
0
 62
7
  6
CONTINUOUS
370
-3
390
F
  0
LAYER
  5
215
100
AcDbSymbolTableRecord
100
AcDbLayerTableRecord
  2
SUPERFICI
 70
0
 62
7
  6
CONTINUOUS
370
-3
390
F
  0
LAYER
  5
216
100
AcDbSymbolTableRecord
100
AcDbLayerTableRecord
  2
TRASH
 70
0
 62
7
  6
CONTINUOUS
370
-3
390
F
  0
LAYER
  5
217
100
AcDbSymbolTableRecord
100
AcDbLayerTableRecord
  2
XSEC_DATUMS
 70
0
 62
7
  6
CONTINUOUS
370
-3
390
F
  0
ENDTAB
  0
TABLE
  2
STYLE
  5
3
100
AcDbSymbolTable
 70
1
  0
STYLE
  5
11
100
AcDbSymbolTableRecord
100
AcDbTextStyleTableRecord
  2
STANDARD
 70
0
 40
0.0
 41
0.8
 50
0.0
 71
0
 42
0.2
  3
txt
  4

  0
STYLE
  5
218
100
AcDbSymbolTableRecord
100
AcDbTextStyleTableRecord
  2
TEXTSTYLE_1
 70
0
 40
0.0
 41
0.8
 50
0.0
 71
0
 42
0.2
  3
gdt
  4

  0
ENDTAB
  0
TABLE
  2
VIEW
  5
6
100
AcDbSymbolTable
 70
0
  0
ENDTAB
  0
TABLE
  2
UCS
  5
7
100
AcDbSymbolTable
 70
0
  0
ENDTAB
  0
TABLE
  2
APPID
  5
9
100
AcDbSymbolTable
 70
1
  0
APPID
  5
219
100
AcDbSymbolTableRecord
100
AcDbRegAppTableRecord
  2
ACAD
 70
0
  0
ENDTAB
  0
TABLE
  2
BLOCK_RECORD
  5
1
100
AcDbSymbolTable
 70
0
  0
BLOCK_RECORD
  5
21A
100
AcDbSymbolTableRecord
100
AcDbBlockTableRecord
  2
*Model_Space
  0
BLOCK_RECORD
  5
21B
100
AcDbSymbolTableRecord
100
AcDbBlockTableRecord
  2
*Paper_Space
  0
BLOCK_RECORD
  5
21C
100
AcDbSymbolTableRecord
100
AcDbBlockTableRecord
  2
_FILLED
  0
ENDTAB
  0
TABLE
  2
DIMSTYLE
  5
A
100
AcDbSymbolTable
 70
1
100
AcDbDimStyleTable
 71
0
  0
DIMSTYLE
105
21D
100
AcDbSymbolTableRecord
100
AcDbDimStyleTableRecord
  2
STANDARD
 70
0
  3

  4

 40
1.0
 41
3.0
 42
0.5
 43
0.38
 44
1.5
 45
0.0
 46
0.0
 47
0.01
 48
0.01
140
3.0
141
0.09
142
0.0
143
25.4
144
1.0
145
0.0
146
1.0
147
0.625
 71
1
 72
0
 73
0
 74
0
 75
0
 76
0
 77
1
 78
8
 79
2
170
0
171
1
172
0
173
0
174
0
175
0
176
0
177
0
178
0
270
2
179
2
271
2
272
2
273
2
274
2
275
0
280
0
281
0
282
0
283
1
284
8
285
0
286
0
287
3
288
0
340
11
278
44
341
21C
342
21C
343
21C
344
21C
  0
ENDTAB
  0
ENDSEC
  0
SECTION
  2
BLOCKS
  0
BLOCK
  5
20
100
AcDbEntity
  8
0
100
AcDbBlockBegin
  2
*Model_Space
 70
0
 10
0.0
 20
0.0
 30
0.0
  3
*Model_Space
  1

  0
ENDBLK
  5
21
100
AcDbEntity
  8
0
100
AcDbBlockEnd
  0
BLOCK
  5
1C
100
AcDbEntity
  8
0
100
AcDbBlockBegin
  2
*Paper_Space
 70
0
 10
0.0
 20
0.0
 30
0.0
  3
*Paper_Space
  1

  0
ENDBLK
  5
1D
100
AcDbEntity
  8
0
100
AcDbBlockEnd
  0
BLOCK
  5
21E
100
AcDbEntity
  8
0
100
AcDbBlockBegin
  2
_FILLED
 70
64
 10
0.0
 20
0.0
  3
_FILLED
  1

  0
SOLID
  5
21F
100
AcDbEntity
  8
0
  6
BYBLOCK
 62
0
100
AcDbTrace
 10
0.0
 20
0.0
 11
-1.0
 21
0.3166666667
 12
-1.0
 22
-0.3166666667
 13
-1.0
 23
-0.3166666667
  0
ENDBLK
  5
220
100
AcDbEntity
  8
0
  6
BYBLOCK
 62
0
100
AcDbBlockEnd
  0
ENDSEC
  0
SECTION
  2
ENTITIES
  0
LINE
  5
221
100
AcDbEntity
  8
RACCORDO
100
AcDbLine
 62
250
  6
CONTINUOUS
 10
-17.7459213181
 20
0.741945052
 11
-17.7459213181
 21
1.221945052
  0
LINE
  5
222
100
AcDbEntity
  8
RACCORDO
100
AcDbLine
 62
250
  6
CONTINUOUS
 10
-17.7459213181
 20
4.461945052
 11
-17.7459213181
 21
4.941945052
  0
LINE
  5
223
100
AcDbEntity
  8
RACCORDO
100
AcDbLine
 62
7
  6
CONTINUOUS
 10
-16.0997113074
 20
11.2060789145
 11
-16.0997113074
 21
4.9419450533
  0
LINE
  5
224
100
AcDbEntity
  8
RACCORDO
100
AcDbLine
 62
7
  6
CONTINUOUS
 10
-16.0997113074
 20
-5.5221888104
 11
-16.0997113074
 21
0.7419450508
  0
LINE
  5
225
100
AcDbEntity
  8
RACCORDO
100
AcDbLine
 62
250
  6
CONTINUOUS
 10
-15.619711641
 20
11.2060789145
 11
-15.6197116444
 21
4.461945052
  0
LINE
  5
226
100
AcDbEntity
  8
RACCORDO
100
AcDbLine
 62
250
  6
CONTINUOUS
 10
-15.619711641
 20
-5.5221888104
 11
-15.6197116444
 21
1.221945052
  0
LINE
  5
227
100
AcDbEntity
  8
RACCORDO
100
AcDbLine
 62
7
  6
CONTINUOUS
 10
-16.2498238571
 20
5.0872437029
 11
-16.2659912532
 21
4.941945052
  0
LWPOLYLINE
  5
228
100
AcDbEntity
  8
RACCORDO
100
AcDbPolyline
 62
7
  6
CONTINUOUS
 90
6
 70
0
 10
-16.0997113074
 20
6.0889223008
 10
-16.1139435656
 20
6.0099903955
 10
-16.1596087116
 20
5.7332626781
 10
-16.2016029434
 20
5.4525801412
 10
-16.2397494446
 20
5.1680923409
 10
-16.2497836768
 20
5.0872284636
  0
LINE
  5
229
100
AcDbEntity
  8
0
100
AcDbLine
 62
7
  6
CONTINUOUS
 10
-1.65
 20
18.941945052
 11
-1.8347279814
 21
18.7572170707
  0
LINE
  5
22A
100
AcDbEntity
  8
0
100
AcDbLine
 62
7
  6
CONTINUOUS
 10
-1.65
 20
18.6739958596
 11
-1.8347279814
 21
18.4955623316
  0
LINE
  5
22B
100
AcDbEntity
  8
DRAFT
100
AcDbLine
 62
7
  6
CONTINUOUS
 10
-1.8347279814
 20
18.991945052
 11
-1.7016432476
 21
19.0984118661
  0
LINE
  5
22C
100
AcDbEntity
  8
RACCORDO
100
AcDbLine
 62
7
  6
CONTINUOUS
 10
5.7458060707
 20
-14.5323217392
 11
5.7456396023
 21
-14.5323521731
  0
LINE
  5
22D
100
AcDbEntity
  8
RACCORDO
100
AcDbLine
 62
7
  6
CONTINUOUS
 10
-5.7456395366
 20
-14.5323521849
 11
-5.7458060707
 21
-14.5323217392
  0
LWPOLYLINE
  5
22E
100
AcDbEntity
  8
RACCORDO
100
AcDbPolyline
 62
7
  6
CONTINUOUS
 90
6
 70
0
 10
-16.2497837161
 20
0.5966620066
 10
-16.2376057467
 20
0.498886541
 10
-16.1992310854
 20
0.2146479063
 10
-16.1570173218
 20
-0.0657933783
 10
-16.1111404714
 20
-0.342288863
 10
-16.0997113074
 20
-0.4053608004
  0
LINE
  5
22F
100
AcDbEntity
  8
RACCORDO
100
AcDbLine
 62
7
  6
CONTINUOUS
 10
-16.2660685889
 20
0.741945052
 11
-16.2498236214
 21
0.5966454452
  0
LINE
  5
230
100
AcDbEntity
  8
0
100
AcDbLine
 62
7
  6
CONTINUOUS
 10
-13.85
 20
11.991945052
 11
-13.85
 21
-6.308054948
  0
LINE
  5
231
100
AcDbEntity
  8
0
100
AcDbLine
 62
7
  6
CONTINUOUS
 10
-13.7339745962
 20
-6.308054948
 11
-13.7339745962
 21
-6.108054948
  0
LINE
  5
232
100
AcDbEntity
  8
0
100
AcDbLine
 62
7
  6
CONTINUOUS
 10
-13.7339745962
 20
-5.608054948
 11
-13.7339745962
 21
11.291945052
  0
LINE
  5
233
100
AcDbEntity
  8
0
100
AcDbLine
 62
7
  6
CONTINUOUS
 10
-13.7339745962
 20
11.791945052
 11
-13.7339745962
 21
11.991945052
  0
LINE
  5
234
100
AcDbEntity
  8
0
100
AcDbLine
 62
7
  6
CONTINUOUS
 10
-13.1857864376
 20
-5.908054948
 11
-13.1857864376
 21
-5.808054948
  0
LINE
  5
235
100
AcDbEntity
  8
0
100
AcDbLine
 62
7
  6
CONTINUOUS
 10
-13.1857864376
 20
11.491945052
 11
-13.1857864376
 21
11.591945052
  0
LINE
  5
236
100
AcDbEntity
  8
RACCORDO
100
AcDbLine
 62
7
  6
CONTINUOUS
 10
-16.0997119999
 20
0.741945052
 11
-15.6197116539
 21
1.221945052
  0
LINE
  5
237
100
AcDbEntity
  8
RACCORDO
100
AcDbLine
 62
7
  6
CONTINUOUS
 10
-15.9857409238
 20
0.8561680788
 11
-15.9570955923
 21
0.884512889
  0
LINE
  5
238
100
AcDbEntity
  8
RACCORDO
100
AcDbLine
 62
7
  6
CONTINUOUS
 10
-15.6545124821
 20
1.1875114073
 11
-15.6197116539
 21
1.221945052
  0
LINE
  5
239
100
AcDbEntity
  8
0
100
AcDbLine
 62
7
  6
CONTINUOUS
 10
1.8418246733
 20
14.6729728073
 11
1.3403262016
 21
14.3435805141
  0
LINE
  5
23A
100
AcDbEntity
  8
0
100
AcDbLine
 62
7
  6
CONTINUOUS
 10
-1.6626480082
 20
14.9743136993
 11
-1.1542079813
 21
15.2928866721
  0
LINE
  5
23B
100
AcDbEntity
  8
0
100
AcDbLine
 62
7
  6
CONTINUOUS
 10
2.129485698
 20
14.3592963885
 11
1.7177607162
 21
14.1549946232
  0
LINE
  5
23C
100
AcDbEntity
  8
0
100
AcDbLine
 62
7
  6
CONTINUOUS
 10
2.5481673775
 20
13.9994890011
 11
2.1598421723
 21
13.868914515
  0
LINE
  5
23D
100
AcDbEntity
  8
RACCORDO
100
AcDbLine
 62
7
  6
CONTINUOUS
 10
-5.7456395359
 20
-14.5323013362
 11
-5.7458060707
 21
-14.5323217392
  0
LINE
  5
23E
100
AcDbEntity
  8
RACCORDO
100
AcDbLine
 62
7
  6
CONTINUOUS
 10
4.35
 20
-10.7202730281
 11
9.4617282171
 21
-10.6756619531
  0
LINE
  5
23F
100
AcDbEntity
  8
0
100
AcDbLine
 62
7
  6
CONTINUOUS
 10
1.65
 20
-13.958054948
 11
-1.65
 21
-13.958054948
  0
LINE
  5
240
100
AcDbEntity
  8
DRAFT
100
AcDbLine
 62
7
  6
CONTINUOUS
 10
1.7016432476
 20
-13.414521762
 11
1.65
 21
-13.414521762
  0
LINE
  5
241
100
AcDbEntity
  8
DRAFT
100
AcDbLine
 62
7
  6
CONTINUOUS
 10
-1.65
 20
-13.414521762
 11
-1.7016432476
 21
-13.414521762
  0
LINE
  5
242
100
AcDbEntity
  8
0
100
AcDbLine
 62
250
  6
CONTINUOUS
 10
1.65
 20
-13.3726996089
 11
-1.65
 21
-13.3726996089
  0
LINE
  5
243
100
AcDbEntity
  8
0
100
AcDbLine
 62
7
  6
CONTINUOUS
 10
1.8347279814
 20
-13.358054948
 11
1.65
 21
-13.358054948
  0
LINE
  5
244
100
AcDbEntity
  8
RACCORDO
100
AcDbLine
 62
7
  6
CONTINUOUS
 10
1.65
 20
-13.358054948
 11
-1.65
 21
-13.358054948
  0
LINE
  5
245
100
AcDbEntity
  8
0
100
AcDbLine
 62
7
  6
CONTINUOUS
 10
-1.65
 20
-13.358054948
 11
-1.8347279814
 21
-13.358054948
  0
LINE
  5
246
100
AcDbEntity
  8
RACCORDO
100
AcDbLine
 62
250
  6
CONTINUOUS
 10
1.65
 20
-13.3342030264
 11
-1.65
 21
-13.3342030264
  0
LINE
  5
247
100
AcDbEntity
  8
0
100
AcDbLine
 62
7
  6
CONTINUOUS
 10
-1.65
 20
-13.0901057555
 11
-1.6
 21
-13.0901057555
  0
LINE
  5
248
100
AcDbEntity
  8
0
100
AcDbLine
 62
7
  6
CONTINUOUS
 10
1.6
 20
-13.0901057555
 11
1.65
 21
-13.0901057555
  0
LINE
  5
249
100
AcDbEntity
  8
0
100
AcDbLine
 62
7
  6
CONTINUOUS
 10
-1.6
 20
-12.5542073707
 11
1.6
 21
-12.5542073707
  0
LINE
  5
24A
100
AcDbEntity
  8
0
100
AcDbLine
 62
7
  6
CONTINUOUS
 10
-1.8347279814
 20
-12.5105502598
 11
-1.6
 21
-12.5105502598
  0
LINE
  5
24B
100
AcDbEntity
  8
0
100
AcDbLine
 62
7
  6
CONTINUOUS
 10
1.6
 20
-12.5105502598
 11
1.8347279814
 21
-12.5105502598
  0
LINE
  5
24C
100
AcDbEntity
  8
DRAFT
100
AcDbLine
 62
7
  6
CONTINUOUS
 10
-5.75
 20
-12.158054948
 11
-4.15
 21
-12.158054948
  0
LINE
  5
24D
100
AcDbEntity
  8
DRAFT
100
AcDbLine
 62
7
  6
CONTINUOUS
 10
4.15
 20
-12.158054948
 11
5.75
 21
-12.158054948
  0
LINE
  5
24E
100
AcDbEntity
  8
RACCORDO
100
AcDbLine
 62
7
  6
CONTINUOUS
 10
4.2
 20
-12.108054948
 11
5.75
 21
-12.108054948
  0
LINE
  5
24F
100
AcDbEntity
  8
RACCORDO
100
AcDbLine
 62
7
  6
CONTINUOUS
 10
-4.2
 20
-12.108054948
 11
-5.75
 21
-12.108054948
  0
LINE
  5
250
100
AcDbEntity
  8
0
100
AcDbLine
 62
7
  6
CONTINUOUS
 10
-1.6
 20
-11.9746518749
 11
1.6
 21
-11.9746518749
  0
LINE
  5
251
100
AcDbEntity
  8
DRAFT
100
AcDbLine
 62
7
  6
CONTINUOUS
 10
1.85
 20
-11.658054948
 11
-1.85
 21
-11.658054948
  0
LINE
  5
252
100
AcDbEntity
  8
RACCORDO
100
AcDbLine
 62
7
  6
CONTINUOUS
 10
-9.4621353838
 20
-10.6753769453
 11
-4.35
 21
-10.7203791762
  0
LINE
  5
253
100
AcDbEntity
  8
RACCORDO
100
AcDbLine
 62
7
  6
CONTINUOUS
 10
5.7458060707
 20
-14.5323217392
 11
5.7456396016
 21
-14.5323009282
  0
LINE
  5
254
100
AcDbEntity
  8
DRAFT
100
AcDbLine
 62
7
  6
CONTINUOUS
 10
-1.7016432476
 20
-13.414521762
 11
-1.7722274102
 21
-13.358054948
  0
LINE
  5
255
100
AcDbEntity
  8
0
100
AcDbLine
 62
7
  6
CONTINUOUS
 10
-8.237598426
 20
-8.008054948
 11
-8.237598426
 21
-6.9913879167
  0
LINE
  5
256
100
AcDbEntity
  8
0
100
AcDbLine
 62
7
  6
CONTINUOUS
 10
-8.237598426
 20
-2.9247208862
 11
-8.237598426
 21
-1.9080549495
  0
LINE
  5
257
100
AcDbEntity
  8
0
100
AcDbLine
 62
7
  6
CONTINUOUS
 10
-10.7144995977
 20
-6.7381813402
 11
-11.2875984252
 21
-8.008054948
  0
LINE
  5
258
100
AcDbEntity
  8
0
100
AcDbLine
 62
7
  6
CONTINUOUS
 10
-9.6280252765
 20
-4.3307700431
 11
-10.1812747013
 21
-5.5566608332
  0
LINE
  5
259
100
AcDbEntity
  8
0
100
AcDbLine
 62
7
  6
CONTINUOUS
 10
1.1542079813
 20
15.2928866721
 11
1.2024124745
 21
15.3698206744
  0
LINE
  5
25A
100
AcDbEntity
  8
0
100
AcDbLine
 62
7
  6
CONTINUOUS
 10
-1.3905680392
 20
10.412278282
 11
-0.9784211145
 21
10.8250407213
  0
LINE
  5
25B
100
AcDbEntity
  8
0
100
AcDbLine
 62
7
  6
CONTINUOUS
 10
-1.7210136609
 20
10.6337570773
 11
-1.3708847858
 21
10.9133259759
  0
LINE
  5
25C
100
AcDbEntity
  8
0
100
AcDbLine
 62
7
  6
CONTINUOUS
 10
1.6658148509
 20
14.9167319013
 11
1.195376936
 21
14.5443232974
  0
LWPOLYLINE
  5
25D
100
AcDbEntity
  8
RACCORDO
100
AcDbPolyline
 62
7
  6
CONTINUOUS
 90
7
 70
0
 10
-16.0997119999
 20
0.741945052
 10
-16.0953904673
 20
0.7450090881
 10
-16.0869429517
 20
0.7537088141
 10
-16.074369453
 20
0.7672872529
 10
-16.0571257092
 20
0.7848959301
 10
-16.0357559822
 20
0.8058383352
 10
-15.9857409238
 20
0.8561680788
  0
LINE
  5
25E
100
AcDbEntity
  8
0
100
AcDbLine
 62
7
  6
CONTINUOUS
 10
-2.0579878426
 20
10.9447813134
 11
-1.8475312635
 21
11.0729026104
  0
LINE
  5
25F
100
AcDbEntity
  8
DRAFT
100
AcDbLine
 62
7
  6
CONTINUOUS
 10
-9.3996010554
 20
-10.658054948
 11
-4.15
 21
-10.658054948
  0
LINE
  5
260
100
AcDbEntity
  8
DRAFT
100
AcDbLine
 62
7
  6
CONTINUOUS
 10
4.15
 20
-10.658054948
 11
9.3996010554
 21
-10.658054948
  0
LINE
  5
261
100
AcDbEntity
  8
0
100
AcDbLine
 62
7
  6
CONTINUOUS
 10
-11.2875984252
 20
-8.008054948
 11
-10.2709324885
 21
-8.008054948
  0
LINE
  5
262
100
AcDbEntity
  8
0
100
AcDbLine
 62
7
  6
CONTINUOUS
 10
-1.65
 20
-13.0901057555
 11
-1.8347279814
 21
-12.9116722275
  0
LWPOLYLINE
  5
263
100
AcDbEntity
  8
RACCORDO
100
AcDbPolyline
 62
7
  6
CONTINUOUS
 90
6
 70
0
 10
-16.0357559822
 20
4.8780517688
 10
-16.0571257092
 20
4.8989941739
 10
-16.074369453
 20
4.9166028512
 10
-16.0869429517
 20
4.93018129
 10
-16.0953904673
 20
4.9388810159
 10
-16.0997119999
 20
4.941945052
  0
LINE
  5
264
100
AcDbEntity
  8
RACCORDO
100
AcDbLine
 62
7
  6
CONTINUOUS
 10
-15.6197116539
 20
4.461945052
 11
-15.6545124821
 21
4.4963786968
  0
LWPOLYLINE
  5
265
100
AcDbEntity
  8
RACCORDO
100
AcDbPolyline
 62
7
  6
CONTINUOUS
 90
3
 70
0
 10
-15.9570955923
 20
4.799377215
 10
-15.9857409238
 20
4.8277220253
 10
-16.0118930586
 20
4.8541264567
  0
LINE
  5
266
100
AcDbEntity
  8
0
100
AcDbLine
 62
7
  6
CONTINUOUS
 10
-1.65
 20
-13.358054948
 11
-1.8347279814
 21
-13.1733269666
  0
LINE
  5
267
100
AcDbEntity
  8
RACCORDO
100
AcDbLine
 62
7
  6
CONTINUOUS
 10
-15.6197116539
 20
4.461945052
 11
-16.0997122422
 21
4.9419449716
  0
LINE
  5
268
100
AcDbEntity
  8
ASSI
100
AcDbLine
 62
7
  6
CONTINUOUS
 10
-6.7
 20
-14.1833509349
 11
-6.7
 21
-16.2004985996
  0
LINE
  5
269
100
AcDbEntity
  8
ASSI
100
AcDbLine
 62
7
  6
CONTINUOUS
 10
-6.05
 20
-17.3419759575
 11
-6.05
 21
-17.6371932053
  0
LINE
  5
26A
100
AcDbEntity
  8
RACCORDO
100
AcDbLine
 62
7
  6
CONTINUOUS
 10
-5.75
 20
19.7083123063
 11
-5.75
 21
17.791945052
  0
LINE
  5
26B
100
AcDbEntity
  8
RACCORDO
100
AcDbLine
 62
7
  6
CONTINUOUS
 10
-5.75
 20
-12.108054948
 11
-5.75
 21
-14.0244241246
  0
LINE
  5
26C
100
AcDbEntity
  8
DRAFT
100
AcDbLine
 62
7
  6
CONTINUOUS
 10
-5.7338552946
 20
-12.158054948
 11
-5.7338552946
 21
-12.108054948
  0
LINE
  5
26D
100
AcDbEntity
  8
DRAFT
100
AcDbLine
 62
7
  6
CONTINUOUS
 10
-5.7338552946
 20
17.791945052
 11
-5.7338552946
 21
17.841945052
  0
LINE
  5
26E
100
AcDbEntity
  8
DRAFT
100
AcDbLine
 62
7
  6
CONTINUOUS
 10
-5.609933772
 20
17.841945052
 11
-5.609933772
 21
17.791945052
  0
LINE
  5
26F
100
AcDbEntity
  8
DRAFT
100
AcDbLine
 62
7
  6
CONTINUOUS
 10
-5.609933772
 20
-12.108054948
 11
-5.609933772
 21
-12.158054948
  0
LINE
  5
270
100
AcDbEntity
  8
DRAFT
100
AcDbLine
 62
7
  6
CONTINUOUS
 10
-5.594275368
 20
-10.658054948
 11
-5.594275368
 21
-10.7094257951
  0
LINE
  5
271
100
AcDbEntity
  8
DRAFT
100
AcDbLine
 62
7
  6
CONTINUOUS
 10
-5.594275368
 20
-12.108054948
 11
-5.594275368
 21
-12.158054948
  0
LINE
  5
272
100
AcDbEntity
  8
DRAFT
100
AcDbLine
 62
7
  6
CONTINUOUS
 10
-5.594275368
 20
16.341945052
 11
-5.594275368
 21
16.3933158991
  0
LINE
  5
273
100
AcDbEntity
  8
DRAFT
100
AcDbLine
 62
7
  6
CONTINUOUS
 10
-5.594275368
 20
17.791945052
 11
-5.594275368
 21
17.841945052
  0
LINE
  5
274
100
AcDbEntity
  8
ASSI
100
AcDbLine
 62
7
  6
CONTINUOUS
 10
-5.3
 20
-18.8175808726
 11
-5.3
 21
-19.0845712047
  0
LINE
  5
275
100
AcDbEntity
  8
0
100
AcDbLine
 62
7
  6
CONTINUOUS
 10
-5.25
 20
17.841945052
 11
-5.25
 21
17.791945052
  0
LINE
  5
276
100
AcDbEntity
  8
0
100
AcDbLine
 62
7
  6
CONTINUOUS
 10
-5.25
 20
16.3963465621
 11
-5.25
 21
16.341945052
  0
LINE
  5
277
100
AcDbEntity
  8
0
100
AcDbLine
 62
7
  6
CONTINUOUS
 10
-5.25
 20
-12.158054948
 11
-5.25
 21
-12.108054948
  0
LINE
  5
278
100
AcDbEntity
  8
0
100
AcDbLine
 62
7
  6
CONTINUOUS
 10
-5.25
 20
-10.7124564581
 11
-5.25
 21
-10.658054948
  0
LINE
  5
279
100
AcDbEntity
  8
0
100
AcDbLine
 62
7
  6
CONTINUOUS
 10
-4.692353
 20
-4.5078771169
 11
-4.692353
 21
-4.749820948
  0
LINE
  5
27A
100
AcDbEntity
  8
0
100
AcDbLine
 62
7
  6
CONTINUOUS
 10
-4.350603
 20
-4.749820948
 11
-4.350603
 21
-5.955618948
  0
LINE
  5
27B
100
AcDbEntity
  8
RACCORDO
100
AcDbLine
 62
250
  6
CONTINUOUS
 10
-4.35
 20
17.791945052
 11
-4.35
 21
16.4042692803
  0
LINE
  5
27C
100
AcDbEntity
  8
RACCORDO
100
AcDbLine
 62
250
  6
CONTINUOUS
 10
-4.35
 20
-10.7203791762
 11
-4.35
 21
-12.108054948
  0
LINE
  5
27D
100
AcDbEntity
  8
DRAFT
100
AcDbLine
 62
7
  6
CONTINUOUS
 10
-4.3027201863
 20
-12.158054948
 11
-4.3027201863
 21
-12.108054948
  0
LINE
  5
27E
100
AcDbEntity
  8
DRAFT
100
AcDbLine
 62
7
  6
CONTINUOUS
 10
-4.3027201863
 20
-10.7203791762
 11
-4.3027201863
 21
-10.658054948
  0
LINE
  5
27F
100
AcDbEntity
  8
DRAFT
100
AcDbLine
 62
7
  6
CONTINUOUS
 10
-4.3027201863
 20
16.341945052
 11
-4.3027201863
 21
16.4042809034
  0
LINE
  5
280
100
AcDbEntity
  8
DRAFT
100
AcDbLine
 62
7
  6
CONTINUOUS
 10
-4.3027201863
 20
17.791945052
 11
-4.3027201863
 21
17.841945052
  0
LINE
  5
281
100
AcDbEntity
  8
RACCORDO
100
AcDbLine
 62
7
  6
CONTINUOUS
 10
-4.2
 20
17.791945052
 11
-4.2
 21
16.5555782103
  0
LINE
  5
282
100
AcDbEntity
  8
RACCORDO
100
AcDbLine
 62
7
  6
CONTINUOUS
 10
-4.2
 20
-10.8716881063
 11
-4.2
 21
-12.108054948
  0
LINE
  5
283
100
AcDbEntity
  8
DRAFT
100
AcDbLine
 62
7
  6
CONTINUOUS
 10
-4.15
 20
-12.158054948
 11
-4.15
 21
-10.658054948
  0
LINE
  5
284
100
AcDbEntity
  8
DRAFT
100
AcDbLine
 62
7
  6
CONTINUOUS
 10
-4.15
 20
16.341945052
 11
-4.15
 21
17.841945052
  0
LINE
  5
285
100
AcDbEntity
  8
0
100
AcDbLine
 62
7
  6
CONTINUOUS
 10
-4.067613
 20
-5.955618948
 11
-4.067613
 21
-4.204716948
  0
LINE
  5
286
100
AcDbEntity
  8
0
100
AcDbLine
 62
7
  6
CONTINUOUS
 10
-10.2709324885
 20
-8.008054948
 11
-10.0005449871
 21
-7.4472357152
  0
LINE
  5
287
100
AcDbEntity
  8
0
100
AcDbLine
 62
7
  6
CONTINUOUS
 10
-9.549466843
 20
-6.5116393153
 11
-9.3189546988
 21
-6.0335280929
  0
LINE
  5
288
100
AcDbEntity
  8
0
100
AcDbLine
 62
7
  6
CONTINUOUS
 10
1.6626480082
 20
14.9743136993
 11
1.7136094092
 21
15.0556477054
  0
LINE
  5
289
100
AcDbEntity
  8
0
100
AcDbLine
 62
7
  6
CONTINUOUS
 10
-0.6993026897
 20
10.1310644455
 11
-0.5012423921
 21
10.4428870674
  0
LINE
  5
28A
100
AcDbEntity
  8
RACCORDO
100
AcDbLine
 62
7
  6
CONTINUOUS
 10
13.5258086634
 20
-6.608054948
 11
14.45
 21
-6.608054948
  0
LINE
  5
28B
100
AcDbEntity
  8
RACCORDO
100
AcDbLine
 62
7
  6
CONTINUOUS
 10
-13.5258086634
 20
-6.608054948
 11
-14.45
 21
-6.608054948
  0
LINE
  5
28C
100
AcDbEntity
  8
0
100
AcDbLine
 62
7
  6
CONTINUOUS
 10
8.246068
 20
-6.428487948
 11
9.158087
 21
-6.428487948
  0
LINE
  5
28D
100
AcDbEntity
  8
0
100
AcDbLine
 62
7
  6
CONTINUOUS
 10
-14.45
 20
-6.308054948
 11
-13.7339745962
 21
-6.308054948
  0
LINE
  5
28E
100
AcDbEntity
  8
0
100
AcDbLine
 62
7
  6
CONTINUOUS
 10
14.45
 20
-6.308054948
 11
13.7339745962
 21
-6.308054948
  0
LINE
  5
28F
100
AcDbEntity
  8
0
100
AcDbLine
 62
7
  6
CONTINUOUS
 10
-13.7339745962
 20
-6.108054948
 11
-13.4
 21
-6.108054948
  0
LINE
  5
290
100
AcDbEntity
  8
0
100
AcDbLine
 62
7
  6
CONTINUOUS
 10
13.7339745962
 20
-6.108054948
 11
13.4
 21
-6.108054948
  0
LINE
  5
291
100
AcDbEntity
  8
0
100
AcDbLine
 62
7
  6
CONTINUOUS
 10
9.158087
 20
-6.107060948
 11
8.873343
 21
-6.107060948
  0
LINE
  5
292
100
AcDbEntity
  8
0
100
AcDbLine
 62
7
  6
CONTINUOUS
 10
8.530922
 20
-6.107060948
 11
8.246068
 21
-6.107060948
  0
LINE
  5
293
100
AcDbEntity
  8
0
100
AcDbLine
 62
7
  6
CONTINUOUS
 10
-4.350603
 20
-5.955618948
 11
-4.067613
 21
-5.955618948
  0
LINE
  5
294
100
AcDbEntity
  8
0
100
AcDbLine
 62
7
  6
CONTINUOUS
 10
-1.830713
 20
-5.942613948
 11
-1.599701
 21
-5.942613948
  0
LINE
  5
295
100
AcDbEntity
  8
0
100
AcDbLine
 62
7
  6
CONTINUOUS
 10
-0.242469237
 20
-5.923941948
 11
0.738329
 21
-5.923941948
  0
LINE
  5
296
100
AcDbEntity
  8
0
100
AcDbLine
 62
7
  6
CONTINUOUS
 10
0.738329
 20
-5.618141948
 11
0.1126987996
 21
-5.618141948
  0
LINE
  5
297
100
AcDbEntity
  8
0
100
AcDbLine
 62
7
  6
CONTINUOUS
 10
-13.7339745962
 20
-5.608054948
 11
-13.4
 21
-5.608054948
  0
LINE
  5
298
100
AcDbEntity
  8
0
100
AcDbLine
 62
7
  6
CONTINUOUS
 10
13.7339745962
 20
-5.608054948
 11
13.4
 21
-5.608054948
  0
LINE
  5
299
100
AcDbEntity
  8
RACCORDO
100
AcDbLine
 62
250
  6
CONTINUOUS
 10
-16.0997113074
 20
-5.5221888104
 11
-15.619711641
 21
-5.5221888104
  0
LINE
  5
29A
100
AcDbEntity
  8
RACCORDO
100
AcDbLine
 62
250
  6
CONTINUOUS
 10
15.6197116387
 20
-5.5221888128
 11
16.0997113074
 21
-5.5221888128
  0
LINE
  5
29B
100
AcDbEntity
  8
0
100
AcDbLine
 62
7
  6
CONTINUOUS
 10
1.4628583331
 20
-5.425163948
 11
1.1798076688
 21
-5.425163948
  0
LINE
  5
29C
100
AcDbEntity
  8
0
100
AcDbLine
 62
7
  6
CONTINUOUS
 10
-0.2266078913
 20
-4.791982948
 11
0.0483211363
 21
-4.791982948
  0
LINE
  5
29D
100
AcDbEntity
  8
0
100
AcDbLine
 62
7
  6
CONTINUOUS
 10
-4.692353
 20
-4.749820948
 11
-4.350603
 21
-4.749820948
  0
LINE
  5
29E
100
AcDbEntity
  8
0
100
AcDbLine
 62
7
  6
CONTINUOUS
 10
-2.8422265116
 20
-4.605532948
 11
-2.5611100862
 21
-4.605532948
  0
LINE
  5
29F
100
AcDbEntity
  8
0
100
AcDbLine
 62
7
  6
CONTINUOUS
 10
1.527833
 20
-4.463160948
 11
2.112106
 21
-4.463160948
  0
LINE
  5
2A0
100
AcDbEntity
  8
0
100
AcDbLine
 62
7
  6
CONTINUOUS
 10
-4.067613
 20
-4.204716948
 11
-4.3000087734
 21
-4.204716948
  0
LINE
  5
2A1
100
AcDbEntity
  8
0
100
AcDbLine
 62
7
  6
CONTINUOUS
 10
2.112106
 20
-4.172374948
 11
1.323272
 21
-4.172374948
  0
LINE
  5
2A2
100
AcDbEntity
  8
0
100
AcDbLine
 62
7
  6
CONTINUOUS
 10
-1.151264
 20
-4.122821948
 11
-1.382654
 21
-4.122821948
  0
LINE
  5
2A3
100
AcDbEntity
  8
0
100
AcDbLine
 62
7
  6
CONTINUOUS
 10
8.256565
 20
-3.823478948
 11
8.530922
 21
-3.823478948
  0
LINE
  5
2A4
100
AcDbEntity
  8
0
100
AcDbLine
 62
7
  6
CONTINUOUS
 10
8.873343
 20
-3.823478948
 11
9.14759
 21
-3.823478948
  0
LINE
  5
2A5
100
AcDbEntity
  8
0
100
AcDbLine
 62
7
  6
CONTINUOUS
 10
9.14759
 20
-3.500283948
 11
8.256565
 21
-3.500283948
  0
LINE
  5
2A6
100
AcDbEntity
  8
0
100
AcDbLine
 62
7
  6
CONTINUOUS
 10
1.224282
 20
-5.134055948
 11
1.4766025649
 21
-5.1491019817
  0
LINE
  5
2A7
100
AcDbEntity
  8
RACCORDO
100
AcDbLine
 62
7
  6
CONTINUOUS
 10
-1.8194559627
 20
17.8377998636
 11
-1.823335181
 21
18.0944403638
  0
LINE
  5
2A8
100
AcDbEntity
  8
RACCORDO
100
AcDbLine
 62
7
  6
CONTINUOUS
 10
-1.85
 20
20.5451375305
 11
-1.85
 21
17.341945052
  0
LINE
  5
2A9
100
AcDbEntity
  8
RACCORDO
100
AcDbLine
 62
7
  6
CONTINUOUS
 10
-1.85
 20
-14.8612124186
 11
-1.85
 21
-11.658054948
  0
LINE
  5
2AA
100
AcDbEntity
  8
DRAFT
100
AcDbLine
 62
7
  6
CONTINUOUS
 10
-1.8347279814
 20
-12.558054948
 11
-1.8347279814
 21
-13.308054948
  0
LINE
  5
2AB
100
AcDbEntity
  8
DRAFT
100
AcDbLine
 62
7
  6
CONTINUOUS
 10
-1.8347279814
 20
18.241945052
 11
-1.8347279814
 21
18.991945052
  0
LINE
  5
2AC
100
AcDbEntity
  8
RACCORDO
100
AcDbLine
 62
7
  6
CONTINUOUS
 10
-1.8172742458
 20
-11.7208970577
 11
-1.8172742458
 21
-11.708054948
  0
LINE
  5
2AD
100
AcDbEntity
  8
RACCORDO
100
AcDbLine
 62
7
  6
CONTINUOUS
 10
-1.8172742458
 20
17.391945052
 11
-1.8172742458
 21
17.4047871617
  0
LINE
  5
2AE
100
AcDbEntity
  8
DRAFT
100
AcDbLine
 62
7
  6
CONTINUOUS
 10
-1.7016432476
 20
20.6996409831
 11
-1.7016432476
 21
19.0984118661
  0
LINE
  5
2AF
100
AcDbEntity
  8
DRAFT
100
AcDbLine
 62
7
  6
CONTINUOUS
 10
-1.7016432476
 20
-13.414521762
 11
-1.7016432476
 21
-15.0157508791
  0
LINE
  5
2B0
100
AcDbEntity
  8
0
100
AcDbLine
 62
7
  6
CONTINUOUS
 10
-1.65
 20
18.941945052
 11
-1.65
 21
18.6739958596
  0
LINE
  5
2B1
100
AcDbEntity
  8
0
100
AcDbLine
 62
7
  6
CONTINUOUS
 10
-1.65
 20
19.541945052
 11
-1.65
 21
18.956589713
  0
LINE
  5
2B2
100
AcDbEntity
  8
0
100
AcDbLine
 62
7
  6
CONTINUOUS
 10
-1.65
 20
-13.958054948
 11
-1.65
 21
-13.3726996089
  0
LINE
  5
2B3
100
AcDbEntity
  8
0
100
AcDbLine
 62
7
  6
CONTINUOUS
 10
-1.65
 20
-13.358054948
 11
-1.65
 21
-13.0901057555
  0
LINE
  5
2B4
100
AcDbEntity
  8
0
100
AcDbLine
 62
7
  6
CONTINUOUS
 10
-1.6
 20
18.6739958596
 11
-1.6
 21
18.1380974747
  0
LINE
  5
2B5
100
AcDbEntity
  8
0
100
AcDbLine
 62
7
  6
CONTINUOUS
 10
-1.6
 20
18.1380974747
 11
-1.6
 21
17.558541979
  0
LINE
  5
2B6
100
AcDbEntity
  8
0
100
AcDbLine
 62
7
  6
CONTINUOUS
 10
-1.6
 20
-13.0901057555
 11
-1.6
 21
-12.5542073707
  0
LINE
  5
2B7
100
AcDbEntity
  8
0
100
AcDbLine
 62
7
  6
CONTINUOUS
 10
-1.6
 20
-12.5542073707
 11
-1.6
 21
-11.9746518749
  0
LINE
  5
2B8
100
AcDbEntity
  8
RACCORDO
100
AcDbLine
 62
7
  6
CONTINUOUS
 10
0.0
 20
17.558541979
 11
0.0
 21
17.341945052
  0
LINE
  5
2B9
100
AcDbEntity
  8
RACCORDO
100
AcDbLine
 62
7
  6
CONTINUOUS
 10
0.0
 20
15.641945052
 11
0.0
 21
10.041945052
  0
LINE
  5
2BA
100
AcDbEntity
  8
RACCORDO
100
AcDbLine
 62
7
  6
CONTINUOUS
 10
-0.0
 20
-11.658054948
 11
-0.0
 21
-11.9746518749
  0
LINE
  5
2BB
100
AcDbEntity
  8
RACCORDO
100
AcDbLine
 62
7
  6
CONTINUOUS
 10
-0.0
 20
-21.0492566731
 11
-0.0
 21
-15.095636335
  0
LINE
  5
2BC
100
AcDbEntity
  8
RACCORDO
100
AcDbLine
 62
7
  6
CONTINUOUS
 10
-1.8245522318
 20
-12.4910676499
 11
-1.8194559627
 21
-12.1539097595
  0
LINE
  5
2BD
100
AcDbEntity
  8
0
100
AcDbLine
 62
7
  6
CONTINUOUS
 10
-1.382654
 20
-4.122821948
 11
-1.830713
 21
-5.942613948
  0
LINE
  5
2BE
100
AcDbEntity
  8
0
100
AcDbLine
 62
7
  6
CONTINUOUS
 10
-1.599701
 20
-5.942613948
 11
-1.151264
 21
-4.122821948
  0
LINE
  5
2BF
100
AcDbEntity
  8
RACCORDO
100
AcDbLine
 62
250
  6
CONTINUOUS
 10
15.9314732395
 20
11.8456995109
 11
15.5135922476
 21
11.6095319077
  0
LINE
  5
2C0
100
AcDbEntity
  8
RACCORDO
100
AcDbLine
 62
250
  6
CONTINUOUS
 10
-15.931473242
 20
-6.1618094024
 11
-15.5135922513
 21
-5.9256418005
  0
LINE
  5
2C1
100
AcDbEntity
  8
RACCORDO
100
AcDbLine
 62
7
  6
CONTINUOUS
 10
1.8245522318
 20
-12.4910676499
 11
1.8194559627
 21
-12.1539097595
  0
LINE
  5
2C2
100
AcDbEntity
  8
0
100
AcDbLine
 62
7
  6
CONTINUOUS
 10
0.738329
 20
-5.923941948
 11
0.738329
 21
-5.618141948
  0
LINE
  5
2C3
100
AcDbEntity
  8
DRAFT
100
AcDbLine
 62
7
  6
CONTINUOUS
 10
1.5
 20
17.558541979
 11
1.5
 21
17.341945052
  0
LINE
  5
2C4
100
AcDbEntity
  8
DRAFT
100
AcDbLine
 62
7
  6
CONTINUOUS
 10
1.5
 20
-11.658054948
 11
1.5
 21
-11.9746518749
  0
LINE
  5
2C5
100
AcDbEntity
  8
0
100
AcDbLine
 62
7
  6
CONTINUOUS
 10
1.6
 20
18.1380974747
 11
1.6
 21
17.558541979
  0
LINE
  5
2C6
100
AcDbEntity
  8
0
100
AcDbLine
 62
7
  6
CONTINUOUS
 10
1.6
 20
-12.5542073707
 11
1.6
 21
-13.0901057555
  0
LINE
  5
2C7
100
AcDbEntity
  8
0
100
AcDbLine
 62
7
  6
CONTINUOUS
 10
1.6
 20
-12.5542073707
 11
1.6
 21
-11.9746518749
  0
LINE
  5
2C8
100
AcDbEntity
  8
0
100
AcDbLine
 62
7
  6
CONTINUOUS
 10
1.6
 20
18.1380974747
 11
1.6
 21
18.6739958596
  0
LINE
  5
2C9
100
AcDbEntity
  8
0
100
AcDbLine
 62
7
  6
CONTINUOUS
 10
1.65
 20
18.941945052
 11
1.65
 21
18.6739958596
  0
LINE
  5
2CA
100
AcDbEntity
  8
0
100
AcDbLine
 62
7
  6
CONTINUOUS
 10
1.65
 20
19.541945052
 11
1.65
 21
18.956589713
  0
LINE
  5
2CB
100
AcDbEntity
  8
0
100
AcDbLine
 62
7
  6
CONTINUOUS
 10
1.65
 20
-13.958054948
 11
1.65
 21
-13.3726996089
  0
LINE
  5
2CC
100
AcDbEntity
  8
0
100
AcDbLine
 62
7
  6
CONTINUOUS
 10
1.65
 20
-13.358054948
 11
1.65
 21
-13.0901057555
  0
LINE
  5
2CD
100
AcDbEntity
  8
DRAFT
100
AcDbLine
 62
7
  6
CONTINUOUS
 10
1.7016432476
 20
-15.0157508791
 11
1.7016432476
 21
-13.414521762
  0
LINE
  5
2CE
100
AcDbEntity
  8
DRAFT
100
AcDbLine
 62
7
  6
CONTINUOUS
 10
1.7016432476
 20
19.0984118661
 11
1.7016432476
 21
20.6996409831
  0
LINE
  5
2CF
100
AcDbEntity
  8
RACCORDO
100
AcDbLine
 62
7
  6
CONTINUOUS
 10
1.8172742458
 20
17.4047871617
 11
1.8172742458
 21
17.391945052
  0
LINE
  5
2D0
100
AcDbEntity
  8
RACCORDO
100
AcDbLine
 62
7
  6
CONTINUOUS
 10
1.8172742458
 20
-11.708054948
 11
1.8172742458
 21
-11.7208970577
  0
LINE
  5
2D1
100
AcDbEntity
  8
DRAFT
100
AcDbLine
 62
7
  6
CONTINUOUS
 10
1.8347279814
 20
-12.558054948
 11
1.8347279814
 21
-13.308054948
  0
LINE
  5
2D2
100
AcDbEntity
  8
DRAFT
100
AcDbLine
 62
7
  6
CONTINUOUS
 10
1.8347279814
 20
18.241945052
 11
1.8347279814
 21
18.991945052
  0
LINE
  5
2D3
100
AcDbEntity
  8
RACCORDO
100
AcDbLine
 62
7
  6
CONTINUOUS
 10
1.85
 20
20.5451037338
 11
1.85
 21
17.341945052
  0
LINE
  5
2D4
100
AcDbEntity
  8
RACCORDO
100
AcDbLine
 62
7
  6
CONTINUOUS
 10
1.85
 20
-14.8612519712
 11
1.85
 21
-11.658054948
  0
LINE
  5
2D5
100
AcDbEntity
  8
0
100
AcDbLine
 62
7
  6
CONTINUOUS
 10
2.112106
 20
-4.463160948
 11
2.112106
 21
-4.172374948
  0
LINE
  5
2D6
100
AcDbEntity
  8
DRAFT
100
AcDbLine
 62
7
  6
CONTINUOUS
 10
4.15
 20
17.841945052
 11
4.15
 21
16.341945052
  0
LINE
  5
2D7
100
AcDbEntity
  8
DRAFT
100
AcDbLine
 62
7
  6
CONTINUOUS
 10
4.15
 20
-10.658054948
 11
4.15
 21
-12.158054948
  0
LINE
  5
2D8
100
AcDbEntity
  8
RACCORDO
100
AcDbLine
 62
7
  6
CONTINUOUS
 10
4.2
 20
-12.108054948
 11
4.2
 21
-10.871593482
  0
LINE
  5
2D9
100
AcDbEntity
  8
RACCORDO
100
AcDbLine
 62
7
  6
CONTINUOUS
 10
4.2
 20
16.5554835861
 11
4.2
 21
17.791945052
  0
LINE
  5
2DA
100
AcDbEntity
  8
RACCORDO
100
AcDbLine
 62
7
  6
CONTINUOUS
 10
1.8194559627
 20
17.8377998636
 11
1.823335181
 21
18.0944403638
  0
LINE
  5
2DB
100
AcDbEntity
  8
0
100
AcDbLine
 62
7
  6
CONTINUOUS
 10
1.323272
 20
-4.172374948
 11
1.224282
 21
-5.134055948
  0
LINE
  5
2DC
100
AcDbEntity
  8
0
100
AcDbLine
 62
7
  6
CONTINUOUS
 10
1.4772261281
 20
-4.8425189878
 11
1.527833
 21
-4.463160948
  0
LINE
  5
2DD
100
AcDbEntity
  8
RACCORDO
100
AcDbLine
 62
250
  6
CONTINUOUS
 10
-17.7459213181
 20
1.221945052
 11
-18.2239333224
 21
1.1783080138
  0
LINE
  5
2DE
100
AcDbEntity
  8
RACCORDO
100
AcDbLine
 62
250
  6
CONTINUOUS
 10
17.7459213181
 20
4.461945052
 11
18.2239333224
 21
4.5055820903
  0
LINE
  5
2DF
100
AcDbEntity
  8
RACCORDO
100
AcDbLine
 62
7
  6
CONTINUOUS
 10
17.7459213205
 20
0.741945052
 11
16.0997126655
 21
0.741945052
  0
LINE
  5
2E0
100
AcDbEntity
  8
RACCORDO
100
AcDbLine
 62
7
  6
CONTINUOUS
 10
-16.0997126655
 20
0.741945052
 11
-17.7459213207
 21
0.741945052
  0
LINE
  5
2E1
100
AcDbEntity
  8
RACCORDO
100
AcDbLine
 62
250
  6
CONTINUOUS
 10
17.7458946699
 20
1.221945052
 11
15.6197116426
 21
1.221945052
  0
LINE
  5
2E2
100
AcDbEntity
  8
RACCORDO
100
AcDbLine
 62
250
  6
CONTINUOUS
 10
-15.6197116444
 20
1.221945052
 11
-17.7458966272
 21
1.221945052
  0
LINE
  5
2E3
100
AcDbEntity
  8
RACCORDO
100
AcDbLine
 62
250
  6
CONTINUOUS
 10
17.7459213181
 20
1.221945052
 11
18.2239333224
 21
1.1783080138
  0
LINE
  5
2E4
100
AcDbEntity
  8
RACCORDO
100
AcDbLine
 62
250
  6
CONTINUOUS
 10
-17.7459213181
 20
4.461945052
 11
-18.2239333224
 21
4.5055820903
  0
LINE
  5
2E5
100
AcDbEntity
  8
RACCORDO
100
AcDbLine
 62
250
  6
CONTINUOUS
 10
-15.5135922513
 20
11.6095319045
 11
-15.9314732399
 21
11.8456995101
  0
LINE
  5
2E6
100
AcDbEntity
  8
RACCORDO
100
AcDbLine
 62
250
  6
CONTINUOUS
 10
15.5135922478
 20
-5.9256418037
 11
15.9314732385
 21
-6.1618094086
  0
LINE
  5
2E7
100
AcDbEntity
  8
0
100
AcDbLine
 62
7
  6
CONTINUOUS
 10
7.666644
 20
-4.313011948
 11
8.530922
 21
-5.041344948
  0
LINE
  5
2E8
100
AcDbEntity
  8
0
100
AcDbLine
 62
7
  6
CONTINUOUS
 10
8.530922
 20
-4.643013948
 11
7.626751
 21
-3.881062948
  0
LINE
  5
2E9
100
AcDbEntity
  8
0
100
AcDbLine
 62
7
  6
CONTINUOUS
 10
3.8481649237
 20
-5.2528507162
 11
3.9168244883
 21
-5.461368394
  0
LINE
  5
2EA
100
AcDbEntity
  8
0
100
AcDbLine
 62
7
  6
CONTINUOUS
 10
4.7261986982
 20
-5.2528500266
 11
4.6579038521
 21
-5.0443294964
  0
LINE
  5
2EB
100
AcDbEntity
  8
DRAFT
100
AcDbLine
 62
7
  6
CONTINUOUS
 10
4.3027201863
 20
17.841945052
 11
4.3027201863
 21
17.791945052
  0
LINE
  5
2EC
100
AcDbEntity
  8
DRAFT
100
AcDbLine
 62
7
  6
CONTINUOUS
 10
4.3027201863
 20
16.4041745559
 11
4.3027201863
 21
16.341945052
  0
LINE
  5
2ED
100
AcDbEntity
  8
DRAFT
100
AcDbLine
 62
7
  6
CONTINUOUS
 10
4.3027201863
 20
-10.658054948
 11
4.3027201863
 21
-10.7202730281
  0
LINE
  5
2EE
100
AcDbEntity
  8
DRAFT
100
AcDbLine
 62
7
  6
CONTINUOUS
 10
4.3027201863
 20
-12.108054948
 11
4.3027201863
 21
-12.158054948
  0
LINE
  5
2EF
100
AcDbEntity
  8
RACCORDO
100
AcDbLine
 62
250
  6
CONTINUOUS
 10
4.35
 20
-12.108054948
 11
4.35
 21
-10.7202730281
  0
LINE
  5
2F0
100
AcDbEntity
  8
RACCORDO
100
AcDbLine
 62
250
  6
CONTINUOUS
 10
4.35
 20
16.4041631322
 11
4.35
 21
17.791945052
  0
LINE
  5
2F1
100
AcDbEntity
  8
0
100
AcDbLine
 62
7
  6
CONTINUOUS
 10
5.25
 20
17.841945052
 11
5.25
 21
17.791945052
  0
LINE
  5
2F2
100
AcDbEntity
  8
0
100
AcDbLine
 62
7
  6
CONTINUOUS
 10
5.25
 20
16.3963086521
 11
5.25
 21
16.341945052
  0
LINE
  5
2F3
100
AcDbEntity
  8
0
100
AcDbLine
 62
7
  6
CONTINUOUS
 10
5.25
 20
-12.158054948
 11
5.25
 21
-12.108054948
  0
LINE
  5
2F4
100
AcDbEntity
  8
0
100
AcDbLine
 62
7
  6
CONTINUOUS
 10
5.25
 20
-10.712418548
 11
5.25
 21
-10.658054948
  0
LINE
  5
2F5
100
AcDbEntity
  8
ASSI
100
AcDbLine
 62
7
  6
CONTINUOUS
 10
5.3
 20
-19.0845712047
 11
5.3
 21
-18.8175647142
  0
LINE
  5
2F6
100
AcDbEntity
  8
DRAFT
100
AcDbLine
 62
7
  6
CONTINUOUS
 10
5.594275368
 20
-10.658054948
 11
5.594275368
 21
-10.709413988
  0
LINE
  5
2F7
100
AcDbEntity
  8
DRAFT
100
AcDbLine
 62
7
  6
CONTINUOUS
 10
5.594275368
 20
-12.108054948
 11
5.594275368
 21
-12.158054948
  0
LINE
  5
2F8
100
AcDbEntity
  8
DRAFT
100
AcDbLine
 62
7
  6
CONTINUOUS
 10
5.594275368
 20
16.341945052
 11
5.594275368
 21
16.393304092
  0
LINE
  5
2F9
100
AcDbEntity
  8
DRAFT
100
AcDbLine
 62
7
  6
CONTINUOUS
 10
5.594275368
 20
17.791945052
 11
5.594275368
 21
17.841945052
  0
LINE
  5
2FA
100
AcDbEntity
  8
DRAFT
100
AcDbLine
 62
7
  6
CONTINUOUS
 10
5.609933772
 20
17.841945052
 11
5.609933772
 21
17.791945052
  0
LINE
  5
2FB
100
AcDbEntity
  8
DRAFT
100
AcDbLine
 62
7
  6
CONTINUOUS
 10
5.609933772
 20
-12.158054948
 11
5.609933772
 21
-12.108054948
  0
LINE
  5
2FC
100
AcDbEntity
  8
DRAFT
100
AcDbLine
 62
7
  6
CONTINUOUS
 10
5.7338552946
 20
-12.108054948
 11
5.7338552946
 21
-12.158054948
  0
LINE
  5
2FD
100
AcDbEntity
  8
DRAFT
100
AcDbLine
 62
7
  6
CONTINUOUS
 10
5.7338552946
 20
17.791945052
 11
5.7338552946
 21
17.841945052
  0
LINE
  5
2FE
100
AcDbEntity
  8
RACCORDO
100
AcDbLine
 62
7
  6
CONTINUOUS
 10
5.75
 20
-14.0242766514
 11
5.75
 21
-12.108054948
  0
LINE
  5
2FF
100
AcDbEntity
  8
RACCORDO
100
AcDbLine
 62
7
  6
CONTINUOUS
 10
5.75
 20
17.791945052
 11
5.75
 21
19.7081945257
  0
LINE
  5
300
100
AcDbEntity
  8
ASSI
100
AcDbLine
 62
7
  6
CONTINUOUS
 10
6.05
 20
-17.6371932083
 11
6.05
 21
-17.3419247912
  0
LINE
  5
301
100
AcDbEntity
  8
ASSI
100
AcDbLine
 62
7
  6
CONTINUOUS
 10
6.7
 20
-16.2004986082
 11
6.7
 21
-14.1844468581
  0
LWPOLYLINE
  5
302
100
AcDbEntity
  8
RACCORDO
100
AcDbPolyline
 62
7
  6
CONTINUOUS
 90
7
 70
0
 10
15.9857409238
 20
4.8277220253
 10
16.0357559822
 20
4.8780517688
 10
16.0571257092
 20
4.8989941739
 10
16.074369453
 20
4.9166028512
 10
16.0869429517
 20
4.93018129
 10
16.0953904673
 20
4.9388810159
 10
16.0997119999
 20
4.941945052
  0
LINE
  5
303
100
AcDbEntity
  8
RACCORDO
100
AcDbLine
 62
7
  6
CONTINUOUS
 10
15.6197116539
 20
4.461945052
 11
16.0997122422
 21
4.9419449716
  0
LINE
  5
304
100
AcDbEntity
  8
RACCORDO
100
AcDbLine
 62
7
  6
CONTINUOUS
 10
15.9570955923
 20
4.799377215
 11
15.9857409238
 21
4.8277220253
  0
LINE
  5
305
100
AcDbEntity
  8
RACCORDO
100
AcDbLine
 62
7
  6
CONTINUOUS
 10
15.6197116539
 20
4.461945052
 11
15.6545124821
 21
4.4963786968
  0
LINE
  5
306
100
AcDbEntity
  8
RACCORDO
100
AcDbLine
 62
250
  6
CONTINUOUS
 10
17.7459055926
 20
4.461945052
 11
15.6197116425
 21
4.461945052
  0
LINE
  5
307
100
AcDbEntity
  8
RACCORDO
100
AcDbLine
 62
250
  6
CONTINUOUS
 10
-15.6197116444
 20
4.461945052
 11
-17.7459056873
 21
4.461945052
  0
LINE
  5
308
100
AcDbEntity
  8
RACCORDO
100
AcDbLine
 62
7
  6
CONTINUOUS
 10
17.7459213206
 20
4.941945052
 11
16.0997126655
 21
4.941945052
  0
LINE
  5
309
100
AcDbEntity
  8
RACCORDO
100
AcDbLine
 62
7
  6
CONTINUOUS
 10
-16.0997126655
 20
4.941945052
 11
-17.7459213207
 21
4.941945052
  0
LINE
  5
30A
100
AcDbEntity
  8
0
100
AcDbLine
 62
7
  6
CONTINUOUS
 10
0.699375866
 20
10.1309492379
 11
0.5012423921
 21
10.4428870674
  0
LINE
  5
30B
100
AcDbEntity
  8
0
100
AcDbLine
 62
7
  6
CONTINUOUS
 10
-1.6626480082
 20
14.9743136993
 11
-1.7133990821
 21
15.055312025
  0
LINE
  5
30C
100
AcDbEntity
  8
0
100
AcDbLine
 62
7
  6
CONTINUOUS
 10
-1.1542079813
 20
15.2928866721
 11
-1.202376397
 21
15.369763095
  0
LINE
  5
30D
100
AcDbEntity
  8
0
100
AcDbLine
 62
7
  6
CONTINUOUS
 10
9.296221
 20
-6.020328948
 11
9.444178
 21
-6.283940948
  0
LINE
  5
30E
100
AcDbEntity
  8
0
100
AcDbLine
 62
7
  6
CONTINUOUS
 10
8.246068
 20
-6.107060948
 11
8.246068
 21
-6.428487948
  0
LINE
  5
30F
100
AcDbEntity
  8
0
100
AcDbLine
 62
7
  6
CONTINUOUS
 10
8.256565
 20
-3.500283948
 11
8.256565
 21
-3.823478948
  0
LINE
  5
310
100
AcDbEntity
  8
0
100
AcDbLine
 62
7
  6
CONTINUOUS
 10
8.530922
 20
-3.823478948
 11
8.530922
 21
-4.643013948
  0
LINE
  5
311
100
AcDbEntity
  8
0
100
AcDbLine
 62
7
  6
CONTINUOUS
 10
8.530922
 20
-5.041344948
 11
8.530922
 21
-6.107060948
  0
LINE
  5
312
100
AcDbEntity
  8
0
100
AcDbLine
 62
7
  6
CONTINUOUS
 10
8.873343
 20
-6.107060948
 11
8.873343
 21
-5.037750948
  0
LINE
  5
313
100
AcDbEntity
  8
0
100
AcDbLine
 62
7
  6
CONTINUOUS
 10
8.873343
 20
-4.643013948
 11
8.873343
 21
-3.823478948
  0
LINE
  5
314
100
AcDbEntity
  8
0
100
AcDbLine
 62
7
  6
CONTINUOUS
 10
9.14759
 20
-3.823478948
 11
9.14759
 21
-3.500283948
  0
LINE
  5
315
100
AcDbEntity
  8
0
100
AcDbLine
 62
7
  6
CONTINUOUS
 10
9.158087
 20
-6.428487948
 11
9.158087
 21
-6.107060948
  0
LINE
  5
316
100
AcDbEntity
  8
0
100
AcDbLine
 62
7
  6
CONTINUOUS
 10
7.9558219029
 20
-6.283941121
 11
8.1037790879
 21
-6.0203287914
  0
LINE
  5
317
100
AcDbEntity
  8
0
100
AcDbLine
 62
7
  6
CONTINUOUS
 10
1.65
 20
-13.358054948
 11
1.8347279814
 21
-13.1733269666
  0
LINE
  5
318
100
AcDbEntity
  8
0
100
AcDbLine
 62
7
  6
CONTINUOUS
 10
1.65
 20
-13.0901057555
 11
1.8347279814
 21
-12.9116722275
  0
LINE
  5
319
100
AcDbEntity
  8
0
100
AcDbLine
 62
7
  6
CONTINUOUS
 10
9.7752015212
 20
-3.8830125088
 11
8.873343
 21
-4.643013948
  0
LINE
  5
31A
100
AcDbEntity
  8
0
100
AcDbLine
 62
7
  6
CONTINUOUS
 10
8.873343
 20
-5.037750948
 11
9.733356142
 21
-4.3130118283
  0
LINE
  5
31B
100
AcDbEntity
  8
DRAFT
100
AcDbLine
 62
7
  6
CONTINUOUS
 10
1.7722274102
 20
-13.358054948
 11
1.7016432476
 21
-13.414521762
  0
LINE
  5
31C
100
AcDbEntity
  8
RACCORDO
100
AcDbLine
 62
250
  6
CONTINUOUS
 10
16.0997113074
 20
11.2060789166
 11
15.6197116385
 21
11.2060789166
  0
LINE
  5
31D
100
AcDbEntity
  8
RACCORDO
100
AcDbLine
 62
250
  6
CONTINUOUS
 10
-15.619711641
 20
11.2060789145
 11
-16.0997113074
 21
11.2060789145
  0
LINE
  5
31E
100
AcDbEntity
  8
0
100
AcDbLine
 62
7
  6
CONTINUOUS
 10
-13.7339745962
 20
11.291945052
 11
-13.4
 21
11.291945052
  0
LINE
  5
31F
100
AcDbEntity
  8
0
100
AcDbLine
 62
7
  6
CONTINUOUS
 10
13.7339745962
 20
11.291945052
 11
13.4
 21
11.291945052
  0
LINE
  5
320
100
AcDbEntity
  8
0
100
AcDbLine
 62
7
  6
CONTINUOUS
 10
2.0577185131
 20
10.9449452753
 11
1.8475312635
 21
11.0729026104
  0
LINE
  5
321
100
AcDbEntity
  8
0
100
AcDbLine
 62
7
  6
CONTINUOUS
 10
-1.8418246733
 20
14.6729728073
 11
-1.3403262016
 21
14.3435805141
  0
LINE
  5
322
100
AcDbEntity
  8
0
100
AcDbLine
 62
7
  6
CONTINUOUS
 10
-1.6658148509
 20
14.9167319013
 11
-1.195376936
 21
14.5443232974
  0
LINE
  5
323
100
AcDbEntity
  8
0
100
AcDbLine
 62
7
  6
CONTINUOUS
 10
1.7206259869
 20
10.634066625
 11
1.3708847858
 21
10.9133259759
  0
LINE
  5
324
100
AcDbEntity
  8
0
100
AcDbLine
 62
7
  6
CONTINUOUS
 10
1.3908632585
 20
10.4119826218
 11
0.9784211145
 21
10.8250407213
  0
LINE
  5
325
100
AcDbEntity
  8
0
100
AcDbLine
 62
7
  6
CONTINUOUS
 10
13.1857864376
 20
-5.908054948
 11
13.1857864376
 21
-5.808054948
  0
LINE
  5
326
100
AcDbEntity
  8
0
100
AcDbLine
 62
7
  6
CONTINUOUS
 10
13.1857864376
 20
11.491945052
 11
13.1857864376
 21
11.591945052
  0
LINE
  5
327
100
AcDbEntity
  8
0
100
AcDbLine
 62
7
  6
CONTINUOUS
 10
13.7339745962
 20
-6.308054948
 11
13.7339745962
 21
-6.108054948
  0
LINE
  5
328
100
AcDbEntity
  8
0
100
AcDbLine
 62
7
  6
CONTINUOUS
 10
13.7339745962
 20
-5.608054948
 11
13.7339745962
 21
11.291945052
  0
LINE
  5
329
100
AcDbEntity
  8
0
100
AcDbLine
 62
7
  6
CONTINUOUS
 10
13.7339745962
 20
11.791945052
 11
13.7339745962
 21
11.991945052
  0
LINE
  5
32A
100
AcDbEntity
  8
0
100
AcDbLine
 62
7
  6
CONTINUOUS
 10
13.85
 20
11.991945052
 11
13.85
 21
-6.308054948
  0
LINE
  5
32B
100
AcDbEntity
  8
0
100
AcDbLine
 62
7
  6
CONTINUOUS
 10
9.864033
 20
-7.449010948
 11
10.031763
 21
-7.211227948
  0
LINE
  5
32C
100
AcDbEntity
  8
0
100
AcDbLine
 62
7
  6
CONTINUOUS
 10
-13.7339745962
 20
11.791945052
 11
-13.4
 21
11.791945052
  0
LINE
  5
32D
100
AcDbEntity
  8
0
100
AcDbLine
 62
7
  6
CONTINUOUS
 10
13.7339745962
 20
11.791945052
 11
13.4
 21
11.791945052
  0
LINE
  5
32E
100
AcDbEntity
  8
0
100
AcDbLine
 62
7
  6
CONTINUOUS
 10
-14.45
 20
11.991945052
 11
-13.7339745962
 21
11.991945052
  0
LINE
  5
32F
100
AcDbEntity
  8
0
100
AcDbLine
 62
7
  6
CONTINUOUS
 10
14.45
 20
11.991945052
 11
13.7339745962
 21
11.991945052
  0
LINE
  5
330
100
AcDbEntity
  8
RACCORDO
100
AcDbLine
 62
7
  6
CONTINUOUS
 10
13.5258086634
 20
12.291945052
 11
14.45
 21
12.291945052
  0
LINE
  5
331
100
AcDbEntity
  8
RACCORDO
100
AcDbLine
 62
7
  6
CONTINUOUS
 10
-13.5258086634
 20
12.291945052
 11
-14.45
 21
12.291945052
  0
LINE
  5
332
100
AcDbEntity
  8
0
100
AcDbLine
 62
7
  6
CONTINUOUS
 10
-2.5478852836
 20
13.999394147
 11
-2.1598421723
 21
13.868914515
  0
LINE
  5
333
100
AcDbEntity
  8
0
100
AcDbLine
 62
7
  6
CONTINUOUS
 10
-2.129485698
 20
14.3592963885
 11
-1.7177607162
 21
14.1549946232
  0
LINE
  5
334
100
AcDbEntity
  8
0
100
AcDbLine
 62
7
  6
CONTINUOUS
 10
1.6626480082
 20
14.9743136993
 11
1.1542079813
 21
15.2928866721
  0
LINE
  5
335
100
AcDbEntity
  8
0
100
AcDbLine
 62
7
  6
CONTINUOUS
 10
1.65
 20
18.6739958596
 11
1.8347279814
 21
18.4955623316
  0
LWPOLYLINE
  5
336
100
AcDbEntity
  8
RACCORDO
100
AcDbPolyline
 62
7
  6
CONTINUOUS
 90
7
 70
0
 10
15.9855205077
 20
0.8558849322
 10
16.0358527049
 20
0.8058573332
 10
16.0567859301
 20
0.7844915703
 10
16.0744021986
 20
0.7672545073
 10
16.0879942714
 20
0.7546893218
 10
16.0966891227
 20
0.7462528362
 10
16.0997113074
 20
0.7419450506
  0
LINE
  5
337
100
AcDbEntity
  8
RACCORDO
100
AcDbLine
 62
7
  6
CONTINUOUS
 10
15.6197116426
 20
1.2219450632
 11
16.0997115525
 21
0.741945132
  0
LINE
  5
338
100
AcDbEntity
  8
0
100
AcDbLine
 62
7
  6
CONTINUOUS
 10
1.65
 20
18.941945052
 11
1.8347279814
 21
18.7572170707
  0
LINE
  5
339
100
AcDbEntity
  8
RACCORDO
100
AcDbLine
 62
7
  6
CONTINUOUS
 10
15.9571591448
 20
0.8845467682
 11
15.9855205077
 21
0.8558849322
  0
LINE
  5
33A
100
AcDbEntity
  8
RACCORDO
100
AcDbLine
 62
7
  6
CONTINUOUS
 10
15.6197116426
 20
1.2219450632
 11
15.6541090539
 21
1.1871802801
  0
LINE
  5
33B
100
AcDbEntity
  8
RACCORDO
100
AcDbLine
 62
250
  6
CONTINUOUS
 10
15.6197116385
 20
11.2060789166
 11
15.6197116425
 21
4.461945052
  0
LINE
  5
33C
100
AcDbEntity
  8
RACCORDO
100
AcDbLine
 62
250
  6
CONTINUOUS
 10
15.6197116387
 20
-5.5221888128
 11
15.6197116426
 21
1.221945052
  0
LINE
  5
33D
100
AcDbEntity
  8
RACCORDO
100
AcDbLine
 62
7
  6
CONTINUOUS
 10
16.0997113074
 20
11.2060789166
 11
16.0997113074
 21
4.9419450534
  0
LINE
  5
33E
100
AcDbEntity
  8
RACCORDO
100
AcDbLine
 62
7
  6
CONTINUOUS
 10
16.0997113074
 20
-5.5221888128
 11
16.0997113074
 21
0.7419450506
  0
LINE
  5
33F
100
AcDbEntity
  8
RACCORDO
100
AcDbLine
 62
250
  6
CONTINUOUS
 10
17.7459213181
 20
0.741945052
 11
17.7459213181
 21
1.221945052
  0
LINE
  5
340
100
AcDbEntity
  8
RACCORDO
100
AcDbLine
 62
250
  6
CONTINUOUS
 10
17.7459213181
 20
4.461945052
 11
17.7459213181
 21
4.941945052
  0
LINE
  5
341
100
AcDbEntity
  8
RACCORDO
100
AcDbLine
 62
7
  6
CONTINUOUS
 10
16.2499362744
 20
0.5966087685
 11
16.2660915496
 21
0.741945052
  0
LWPOLYLINE
  5
342
100
AcDbEntity
  8
RACCORDO
100
AcDbPolyline
 62
7
  6
CONTINUOUS
 90
5
 70
0
 10
16.1138853772
 20
-0.3261752563
 10
16.159577221
 20
-0.0494386731
 10
16.2016090097
 20
0.231263678
 10
16.2397827249
 20
0.5157682252
 10
16.2498234299
 20
0.5966645939
  0
LINE
  5
343
100
AcDbEntity
  8
RACCORDO
100
AcDbLine
 62
7
  6
CONTINUOUS
 10
-9.4621353838
 20
16.3592670493
 11
-4.3486796475
 21
16.4042809034
  0
LINE
  5
344
100
AcDbEntity
  8
DRAFT
100
AcDbLine
 62
7
  6
CONTINUOUS
 10
9.3996010554
 20
16.341945052
 11
4.15
 21
16.341945052
  0
LINE
  5
345
100
AcDbEntity
  8
DRAFT
100
AcDbLine
 62
7
  6
CONTINUOUS
 10
-4.15
 20
16.341945052
 11
-9.3996010554
 21
16.341945052
  0
LINE
  5
346
100
AcDbEntity
  8
DRAFT
100
AcDbLine
 62
7
  6
CONTINUOUS
 10
-1.85
 20
17.341945052
 11
1.85
 21
17.341945052
  0
LINE
  5
347
100
AcDbEntity
  8
0
100
AcDbLine
 62
7
  6
CONTINUOUS
 10
-1.6
 20
17.558541979
 11
1.6
 21
17.558541979
  0
LINE
  5
348
100
AcDbEntity
  8
RACCORDO
100
AcDbLine
 62
7
  6
CONTINUOUS
 10
4.2
 20
17.791945052
 11
5.75
 21
17.791945052
  0
LINE
  5
349
100
AcDbEntity
  8
RACCORDO
100
AcDbLine
 62
7
  6
CONTINUOUS
 10
-4.2
 20
17.791945052
 11
-5.75
 21
17.791945052
  0
LINE
  5
34A
100
AcDbEntity
  8
DRAFT
100
AcDbLine
 62
7
  6
CONTINUOUS
 10
5.75
 20
17.841945052
 11
4.15
 21
17.841945052
  0
LINE
  5
34B
100
AcDbEntity
  8
DRAFT
100
AcDbLine
 62
7
  6
CONTINUOUS
 10
-4.15
 20
17.841945052
 11
-5.75
 21
17.841945052
  0
LINE
  5
34C
100
AcDbEntity
  8
0
100
AcDbLine
 62
7
  6
CONTINUOUS
 10
-1.6
 20
18.1380974747
 11
1.6
 21
18.1380974747
  0
LINE
  5
34D
100
AcDbEntity
  8
0
100
AcDbLine
 62
7
  6
CONTINUOUS
 10
-1.65
 20
18.6739958596
 11
-1.6
 21
18.6739958596
  0
LINE
  5
34E
100
AcDbEntity
  8
0
100
AcDbLine
 62
7
  6
CONTINUOUS
 10
1.6
 20
18.6739958596
 11
1.65
 21
18.6739958596
  0
LINE
  5
34F
100
AcDbEntity
  8
RACCORDO
100
AcDbLine
 62
250
  6
CONTINUOUS
 10
-1.65
 20
18.9180931304
 11
1.65
 21
18.9180931304
  0
LINE
  5
350
100
AcDbEntity
  8
0
100
AcDbLine
 62
7
  6
CONTINUOUS
 10
-1.8347279814
 20
18.941945052
 11
-1.65
 21
18.941945052
  0
LINE
  5
351
100
AcDbEntity
  8
RACCORDO
100
AcDbLine
 62
7
  6
CONTINUOUS
 10
-1.65
 20
18.941945052
 11
1.65
 21
18.941945052
  0
LINE
  5
352
100
AcDbEntity
  8
0
100
AcDbLine
 62
7
  6
CONTINUOUS
 10
1.65
 20
18.941945052
 11
1.8347279814
 21
18.941945052
  0
LINE
  5
353
100
AcDbEntity
  8
0
100
AcDbLine
 62
250
  6
CONTINUOUS
 10
-1.65
 20
18.956589713
 11
1.65
 21
18.956589713
  0
LINE
  5
354
100
AcDbEntity
  8
DRAFT
100
AcDbLine
 62
7
  6
CONTINUOUS
 10
1.7016432476
 20
19.0984118661
 11
1.65
 21
19.0984118661
  0
LINE
  5
355
100
AcDbEntity
  8
DRAFT
100
AcDbLine
 62
7
  6
CONTINUOUS
 10
-1.65
 20
19.0984118661
 11
-1.7016432476
 21
19.0984118661
  0
LINE
  5
356
100
AcDbEntity
  8
RACCORDO
100
AcDbLine
 62
7
  6
CONTINUOUS
 10
4.3486910197
 20
16.4041745559
 11
9.4617282171
 21
16.3595520572
  0
LINE
  5
357
100
AcDbEntity
  8
DRAFT
100
AcDbLine
 62
7
  6
CONTINUOUS
 10
1.7016432476
 20
19.0984118661
 11
1.8347279814
 21
18.991945052
  0
LWPOLYLINE
  5
358
100
AcDbEntity
  8
RACCORDO
100
AcDbPolyline
 62
7
  6
CONTINUOUS
 90
6
 70
0
 10
16.2498241971
 20
5.0872195883
 10
16.2376398307
 20
5.185022442
 10
16.1992370036
 20
5.4692803411
 10
16.1569854555
 20
5.7497436552
 10
16.1110824747
 20
6.0262499019
 10
16.0997113074
 20
6.0890051615
  0
LINE
  5
359
100
AcDbEntity
  8
RACCORDO
100
AcDbLine
 62
7
  6
CONTINUOUS
 10
16.2661686097
 20
4.941945052
 11
16.2499364679
 21
5.087276597
  0
LINE
  5
35A
100
AcDbEntity
  8
RACCORDO
100
AcDbLine
 62
7
  6
CONTINUOUS
 10
-5.7458060707
 20
20.2162118433
 11
-5.7456394938
 21
20.2162422966
  0
LINE
  5
35B
100
AcDbEntity
  8
RACCORDO
100
AcDbLine
 62
7
  6
CONTINUOUS
 10
5.7456395585
 20
20.2161910268
 11
5.7458060707
 21
20.2162118433
  0
LINE
  5
35C
100
AcDbEntity
  8
0
100
AcDbLine
 62
7
  6
CONTINUOUS
 10
-1.65
 20
19.541945052
 11
1.65
 21
19.541945052
  0
LINE
  5
35D
100
AcDbEntity
  8
RACCORDO
100
AcDbLine
 62
7
  6
CONTINUOUS
 10
-5.7458060707
 20
20.2162118433
 11
-5.7456394931
 21
20.216191435
  0
LINE
  5
35E
100
AcDbEntity
  8
RACCORDO
100
AcDbLine
 62
7
  6
CONTINUOUS
 10
5.7456395592
 20
20.2162422849
 11
5.7458060707
 21
20.2162118433
  0
ARC
  5
35F
100
AcDbEntity
  8
RACCORDO
100
AcDbCircle
 62
7
  6
CONTINUOUS
 10
-49.4416921221
 20
-14.0307601208
 40
55.1916924682
100
AcDbArc
 50
359.7886248502
 51
0.0064170783
  0
ARC
  5
360
100
AcDbEntity
  8
RACCORDO
100
AcDbCircle
 62
250
  6
CONTINUOUS
 10
0.000012218
 20
0.5464524289
 40
20.45245037
100
AcDbArc
 50
269.4429960763
 51
269.9999657724
  0
ARC
  5
361
100
AcDbEntity
  8
RACCORDO
100
AcDbCircle
 62
250
  6
CONTINUOUS
 10
0.0006655449
 20
0.0807926334
 40
15.3044049667
100
AcDbArc
 50
263.7781022
 51
269.9975083699
  0
ARC
  5
362
100
AcDbEntity
  8
RACCORDO
100
AcDbCircle
 62
250
  6
CONTINUOUS
 10
-0.018575613
 20
-0.171993828
 40
15.0510244431
100
AcDbArc
 50
263.5253438836
 51
263.7466240224
  0
ARC
  5
363
100
AcDbEntity
  8
RACCORDO
100
AcDbCircle
 62
7
  6
CONTINUOUS
 10
-3.6392959267
 20
-16.2009691475
 40
3.1007990452
100
AcDbArc
 50
239.3714658307
 51
242.8417298524
  0
ARC
  5
364
100
AcDbEntity
  8
RACCORDO
100
AcDbCircle
 62
7
  6
CONTINUOUS
 10
-4.2929291709
 20
-14.9321735166
 40
2.9847056308
100
AcDbArc
 50
236.1163022322
 51
239.845926797
  0
ARC
  5
365
100
AcDbEntity
  8
RACCORDO
100
AcDbCircle
 62
7
  6
CONTINUOUS
 10
-3.8516204854
 20
-16.5606208017
 40
2.683150021
100
AcDbArc
 50
235.5874720357
 51
239.3601714885
  0
ARC
  5
366
100
AcDbEntity
  8
RACCORDO
100
AcDbCircle
 62
7
  6
CONTINUOUS
 10
-14.7997122558
 20
-5.5221888198
 40
1.2999999999
100
AcDbArc
 50
179.9999994446
 51
209.4731875503
  0
ARC
  5
367
100
AcDbEntity
  8
RACCORDO
100
AcDbCircle
 62
250
  6
CONTINUOUS
 10
-4.9934884133
 20
-16.5918381015
 40
1.2270737573
100
AcDbArc
 50
227.3837796624
 51
229.449021065
  0
CIRCLE
  5
368
100
AcDbEntity
  8
0
100
AcDbCircle
 62
7
  6
CONTINUOUS
 10
-8.237599
 20
-4.958053948
 40
0.508333
  0
ARC
  5
369
100
AcDbEntity
  8
RACCORDO
100
AcDbCircle
 62
7
  6
CONTINUOUS
 10
-17.7459213146
 20
1.221945052
 40
0.48
100
AcDbArc
 50
185.2159931666
 51
269.9999995822
  0
ARC
  5
36A
100
AcDbEntity
  8
RACCORDO
100
AcDbCircle
 62
250
  6
CONTINUOUS
 10
-6.2483379106
 20
-16.200426381
 40
0.4516560118
100
AcDbArc
 50
180.0091614365
 51
185.9205165961
  0
ARC
  5
36B
100
AcDbEntity
  8
0
100
AcDbCircle
 62
7
  6
CONTINUOUS
 10
-13.829678232
 20
-6.608054948
 40
0.3
100
AcDbArc
 50
34.3453062604
 51
90.0
  0
ARC
  5
36C
100
AcDbEntity
  8
0
100
AcDbCircle
 62
7
  6
CONTINUOUS
 10
-14.45
 20
-6.458054948
 40
0.15
100
AcDbArc
 50
90.0
 51
270.0
  0
ARC
  5
36D
100
AcDbEntity
  8
RACCORDO
100
AcDbCircle
 62
7
  6
CONTINUOUS
 10
-50.182760601
 20
19.7142655053
 40
55.9327573728
100
AcDbArc
 50
0.0508035539
 51
0.2089686808
  0
CIRCLE
  5
36E
100
AcDbEntity
  8
RACCORDO
100
AcDbCircle
 62
250
  6
CONTINUOUS
 10
-9.5
 20
2.841945052
 40
2.5749989405
  0
CIRCLE
  5
36F
100
AcDbEntity
  8
RACCORDO
100
AcDbCircle
 62
7
  6
CONTINUOUS
 10
-9.5
 20
2.841945052
 40
2.425
  0
CIRCLE
  5
370
100
AcDbEntity
  8
0
100
AcDbCircle
 62
7
  6
CONTINUOUS
 10
-9.5
 20
2.841945052
 40
2.4
  0
ARC
  5
371
100
AcDbEntity
  8
RACCORDO
100
AcDbCircle
 62
7
  6
CONTINUOUS
 10
-17.7459213146
 20
4.461945052
 40
0.48
100
AcDbArc
 50
90.0000004193
 51
174.7840068336
  0
ARC
  5
372
100
AcDbEntity
  8
RACCORDO
100
AcDbCircle
 62
7
  6
CONTINUOUS
 10
-14.7997122558
 20
11.2060789238
 40
1.2999999999
100
AcDbArc
 50
150.5268123449
 51
180.0000003568
  0
ARC
  5
373
100
AcDbEntity
  8
RACCORDO
100
AcDbCircle
 62
7
  6
CONTINUOUS
 10
0.0
 20
2.841945052
 40
18.2997113074
100
AcDbArc
 50
174.7840067954
 51
185.2159932046
  0
ARC
  5
374
100
AcDbEntity
  8
RACCORDO
100
AcDbCircle
 62
7
  6
CONTINUOUS
 10
0.0
 20
2.841945052
 40
18.2997113074
100
AcDbArc
 50
354.7840067954
 51
5.2159932046
  0
ARC
  5
375
100
AcDbEntity
  8
RACCORDO
100
AcDbCircle
 62
7
  6
CONTINUOUS
 10
0.0
 20
2.841945052
 40
18.2996867172
100
AcDbArc
 50
209.4731870383
 51
264.2115417218
  0
ARC
  5
376
100
AcDbEntity
  8
RACCORDO
100
AcDbCircle
 62
7
  6
CONTINUOUS
 10
0.0
 20
2.841945052
 40
18.2996867172
100
AcDbArc
 50
275.7884582782
 51
330.5268129392
  0
ARC
  5
377
100
AcDbEntity
  8
RACCORDO
100
AcDbCircle
 62
7
  6
CONTINUOUS
 10
0.0
 20
2.841945052
 40
18.2996867172
100
AcDbArc
 50
95.7884582782
 51
150.5268129485
  0
ARC
  5
378
100
AcDbEntity
  8
RACCORDO
100
AcDbCircle
 62
7
  6
CONTINUOUS
 10
0.0
 20
2.841945052
 40
18.2996867172
100
AcDbArc
 50
29.4731870542
 51
84.2115417218
  0
ARC
  5
379
100
AcDbEntity
  8
DRAFT
100
AcDbCircle
 62
7
  6
CONTINUOUS
 10
0.0
 20
2.841945052
 40
17.9385867256
100
AcDbArc
 50
264.5567735655
 51
275.4432264345
  0
ARC
  5
37A
100
AcDbEntity
  8
DRAFT
100
AcDbCircle
 62
7
  6
CONTINUOUS
 10
0.0
 20
2.841945052
 40
17.9385867256
100
AcDbArc
 50
84.5567735655
 51
95.4432264345
  0
ARC
  5
37B
100
AcDbEntity
  8
RACCORDO
100
AcDbCircle
 62
250
  6
CONTINUOUS
 10
0.0
 20
2.841945052
 40
17.8197116539
100
AcDbArc
 50
174.7840022265
 51
185.2160004218
  0
ARC
  5
37C
100
AcDbEntity
  8
0
100
AcDbCircle
 62
250
  6
CONTINUOUS
 10
0.0
 20
2.841945052
 40
17.8197116539
100
AcDbArc
 50
209.4731870383
 51
251.174981335
  0
ARC
  5
37D
100
AcDbEntity
  8
0
100
AcDbCircle
 62
250
  6
CONTINUOUS
 10
0.0
 20
2.841945052
 40
17.8197116539
100
AcDbArc
 50
108.8250206596
 51
150.5268129617
  0
ARC
  5
37E
100
AcDbEntity
  8
0
100
AcDbCircle
 62
250
  6
CONTINUOUS
 10
0.0
 20
2.841945052
 40
17.8197116539
100
AcDbArc
 50
29.473187053
 51
71.1748571399
  0
ARC
  5
37F
100
AcDbEntity
  8
0
100
AcDbCircle
 62
250
  6
CONTINUOUS
 10
0.0
 20
2.841945052
 40
17.8197116539
100
AcDbArc
 50
288.8251716725
 51
330.5268129469
  0
ARC
  5
380
100
AcDbEntity
  8
RACCORDO
100
AcDbCircle
 62
250
  6
CONTINUOUS
 10
0.0
 20
2.841945052
 40
17.8197116539
100
AcDbArc
 50
354.783999006
 51
5.2159978012
  0
ARC
  5
381
100
AcDbEntity
  8
RACCORDO
100
AcDbCircle
 62
250
  6
CONTINUOUS
 10
0.0
 20
2.841945052
 40
17.7996871088
100
AcDbArc
 50
275.9658069284
 51
288.8469132551
  0
ARC
  5
382
100
AcDbEntity
  8
RACCORDO
100
AcDbCircle
 62
250
  6
CONTINUOUS
 10
0.0
 20
2.841945052
 40
17.7996871088
100
AcDbArc
 50
95.9658084488
 51
108.8469116183
  0
ARC
  5
383
100
AcDbEntity
  8
RACCORDO
100
AcDbCircle
 62
250
  6
CONTINUOUS
 10
0.0
 20
2.841945052
 40
17.7996871088
100
AcDbArc
 50
71.1531374872
 51
84.0341802441
  0
ARC
  5
384
100
AcDbEntity
  8
RACCORDO
100
AcDbCircle
 62
250
  6
CONTINUOUS
 10
0.0
 20
2.841945052
 40
17.7996871088
100
AcDbArc
 50
251.1531408681
 51
264.0341798389
  0
ARC
  5
385
100
AcDbEntity
  8
DRAFT
100
AcDbCircle
 62
7
  6
CONTINUOUS
 10
0.0
 20
2.841945052
 40
16.5
100
AcDbArc
 50
214.9406265836
 51
235.0079513944
  0
ARC
  5
386
100
AcDbEntity
  8
DRAFT
100
AcDbCircle
 62
7
  6
CONTINUOUS
 10
0.0
 20
2.841945052
 40
16.5
100
AcDbArc
 50
124.9920486056
 51
145.0593734164
  0
ARC
  5
387
100
AcDbEntity
  8
DRAFT
100
AcDbCircle
 62
7
  6
CONTINUOUS
 10
0.0
 20
2.841945052
 40
16.5
100
AcDbArc
 50
34.9406265836
 51
55.009677231
  0
ARC
  5
388
100
AcDbEntity
  8
DRAFT
100
AcDbCircle
 62
7
  6
CONTINUOUS
 10
0.0
 20
2.841945052
 40
16.5
100
AcDbArc
 50
304.990322769
 51
325.0593734164
  0
ARC
  5
389
100
AcDbEntity
  8
0
100
AcDbCircle
 62
7
  6
CONTINUOUS
 10
0.0
 20
2.841945052
 40
16.4980380414
100
AcDbArc
 50
145.0546128201
 51
146.211501533
  0
ARC
  5
38A
100
AcDbEntity
  8
0
100
AcDbCircle
 62
7
  6
CONTINUOUS
 10
0.0
 20
2.841945052
 40
16.4980380414
100
AcDbArc
 50
213.788498467
 51
214.9453871799
  0
ARC
  5
38B
100
AcDbEntity
  8
0
100
AcDbCircle
 62
7
  6
CONTINUOUS
 10
0.0
 20
2.841945052
 40
16.4980380414
100
AcDbArc
 50
325.0546128201
 51
326.2114986961
  0
ARC
  5
38C
100
AcDbEntity
  8
0
100
AcDbCircle
 62
7
  6
CONTINUOUS
 10
0.0
 20
2.841945052
 40
16.4980380414
100
AcDbArc
 50
33.7885013039
 51
34.9453871799
  0
ARC
  5
38D
100
AcDbEntity
  8
0
100
AcDbCircle
 62
7
  6
CONTINUOUS
 10
0.0
 20
2.841945052
 40
16.45
100
AcDbArc
 50
214.3453062604
 51
235.151788612
  0
ARC
  5
38E
100
AcDbEntity
  8
0
100
AcDbCircle
 62
7
  6
CONTINUOUS
 10
0.0
 20
2.841945052
 40
16.45
100
AcDbArc
 50
124.848211388
 51
145.6546937396
  0
ARC
  5
38F
100
AcDbEntity
  8
0
100
AcDbCircle
 62
7
  6
CONTINUOUS
 10
0.0
 20
2.841945052
 40
16.45
100
AcDbArc
 50
34.3453062604
 51
55.151788612
  0
ARC
  5
390
100
AcDbEntity
  8
0
100
AcDbCircle
 62
7
  6
CONTINUOUS
 10
0.0
 20
2.841945052
 40
16.45
100
AcDbArc
 50
304.848211388
 51
325.6546937396
  0
ARC
  5
391
100
AcDbEntity
  8
DRAFT
100
AcDbCircle
 62
250
  6
CONTINUOUS
 10
0.0
 20
2.841945052
 40
16.0505269509
100
AcDbArc
 50
57.2596643529
 51
57.4207127305
  0
ARC
  5
392
100
AcDbEntity
  8
DRAFT
100
AcDbCircle
 62
250
  6
CONTINUOUS
 10
0.0
 20
2.841945052
 40
16.0505269509
100
AcDbArc
 50
302.5792872695
 51
302.7403356471
  0
ARC
  5
393
100
AcDbEntity
  8
DRAFT
100
AcDbCircle
 62
7
  6
CONTINUOUS
 10
0.0
 20
2.841945052
 40
16.0464371714
100
AcDbArc
 50
57.2825932258
 51
57.4441108068
  0
ARC
  5
394
100
AcDbEntity
  8
DRAFT
100
AcDbCircle
 62
7
  6
CONTINUOUS
 10
0.0
 20
2.841945052
 40
16.0464371714
100
AcDbArc
 50
302.5558891932
 51
302.7174067742
  0
ARC
  5
395
100
AcDbEntity
  8
RACCORDO
100
AcDbCircle
 62
250
  6
CONTINUOUS
 10
0.0
 20
2.841945052
 40
14.5377637276
100
AcDbArc
 50
265.9300398726
 51
274.1002616344
  0
ARC
  5
396
100
AcDbEntity
  8
RACCORDO
100
AcDbCircle
 62
250
  6
CONTINUOUS
 10
0.0
 20
2.841945052
 40
14.5377637276
100
AcDbArc
 50
86.0826556485
 51
94.0676943918
  0
ARC
  5
397
100
AcDbEntity
  8
0
100
AcDbCircle
 62
7
  6
CONTINUOUS
 10
-1.0
 20
12.8064164791
 40
3.7933190077
100
AcDbArc
 50
356.5514214935
 51
7.4474382955
  0
ARC
  5
398
100
AcDbEntity
  8
0
100
AcDbCircle
 62
7
  6
CONTINUOUS
 10
-1.0
 20
12.8064164791
 40
3.4
100
AcDbArc
 50
33.2975553079
 51
38.3658822481
  0
ARC
  5
399
100
AcDbEntity
  8
0
100
AcDbCircle
 62
7
  6
CONTINUOUS
 10
-1.0
 20
12.8064164791
 40
3.3336923418
100
AcDbArc
 50
328.6678722278
 51
18.5852364224
  0
ARC
  5
39A
100
AcDbEntity
  8
0
100
AcDbCircle
 62
7
  6
CONTINUOUS
 10
-0.4021136611
 20
11.5330632599
 40
3.3123115571
100
AcDbArc
 50
121.4329540421
 51
129.4176232413
  0
CIRCLE
  5
39B
100
AcDbEntity
  8
RACCORDO
100
AcDbCircle
 62
250
  6
CONTINUOUS
 10
0.0
 20
12.841945052
 40
3.2999979987
  0
ARC
  5
39C
100
AcDbEntity
  8
0
100
AcDbCircle
 62
250
  6
CONTINUOUS
 10
-1.0
 20
12.8064164791
 40
3.0339555569
100
AcDbArc
 50
321.3935349549
 51
26.3910349912
  0
ARC
  5
39D
100
AcDbEntity
  8
0
100
AcDbCircle
 62
7
  6
CONTINUOUS
 10
-1.0
 20
12.8064164791
 40
2.8
100
AcDbArc
 50
302.4224780561
 51
38.3658822481
  0
CIRCLE
  5
39E
100
AcDbEntity
  8
RACCORDO
100
AcDbCircle
 62
7
  6
CONTINUOUS
 10
0.0
 20
12.841945052
 40
2.8
  0
ARC
  5
39F
100
AcDbEntity
  8
0
100
AcDbCircle
 62
7
  6
CONTINUOUS
 10
-1.7050180104
 20
14.9477659516
 40
0.65
100
AcDbArc
 50
321.6341177519
 51
32.07
  0
ARC
  5
3A0
100
AcDbEntity
  8
0
100
AcDbCircle
 62
7
  6
CONTINUOUS
 10
-13.829678232
 20
12.291945052
 40
0.3
100
AcDbArc
 50
270.0
 51
325.6546937396
  0
ARC
  5
3A1
100
AcDbEntity
  8
0
100
AcDbCircle
 62
7
  6
CONTINUOUS
 10
-14.45
 20
12.141945052
 40
0.15
100
AcDbArc
 50
90.0
 51
270.0
  0
ARC
  5
3A2
100
AcDbEntity
  8
0
100
AcDbCircle
 62
7
  6
CONTINUOUS
 10
-1.7050180104
 20
14.9477659516
 40
0.05
100
AcDbArc
 50
321.6341177519
 51
32.07
  0
ARC
  5
3A3
100
AcDbEntity
  8
RACCORDO
100
AcDbCircle
 62
7
  6
CONTINUOUS
 10
50.2102767412
 20
-14.0303253346
 40
55.9602735563
100
AcDbArc
 50
180.0505352482
 51
180.2084546205
  0
ARC
  5
3A4
100
AcDbEntity
  8
RACCORDO
100
AcDbCircle
 62
250
  6
CONTINUOUS
 10
1.612085019
 20
-8.3473165791
 40
10.7336392067
100
AcDbArc
 50
282.2467797167
 51
283.4850915922
  0
ARC
  5
3A5
100
AcDbEntity
  8
RACCORDO
100
AcDbCircle
 62
7
  6
CONTINUOUS
 10
3.6416703552
 20
-16.2052853085
 40
3.0958759039
100
AcDbArc
 50
297.1758008802
 51
300.662502208
  0
ARC
  5
3A6
100
AcDbEntity
  8
RACCORDO
100
AcDbCircle
 62
7
  6
CONTINUOUS
 10
4.3780922742
 20
-15.0631130207
 40
2.8285174594
100
AcDbArc
 50
303.0890357268
 51
304.0169940624
  0
ARC
  5
3A7
100
AcDbEntity
  8
RACCORDO
100
AcDbCircle
 62
7
  6
CONTINUOUS
 10
3.8542823113
 20
-16.5649563265
 40
2.6780640455
100
AcDbArc
 50
300.6740376075
 51
304.4626072299
  0
ARC
  5
3A8
100
AcDbEntity
  8
0
100
AcDbCircle
 62
7
  6
CONTINUOUS
 10
8.7
 20
-4.958054948
 40
2.0240299518
100
AcDbArc
 50
292.0885298025
 51
273.4299054158
  0
ARC
  5
3A9
100
AcDbEntity
  8
0
100
AcDbCircle
 62
7
  6
CONTINUOUS
 10
8.638781
 20
-8.773611948
 40
1.8043863978
100
AcDbArc
 50
47.231266101
 51
84.2010578223
  0
ARC
  5
3AA
100
AcDbEntity
  8
0
100
AcDbCircle
 62
7
  6
CONTINUOUS
 10
8.780786
 20
-8.481341948
 40
1.7827319001
100
AcDbArc
 50
45.4349102329
 51
67.5658791137
  0
CIRCLE
  5
3AB
100
AcDbEntity
  8
0
100
AcDbCircle
 62
7
  6
CONTINUOUS
 10
8.7
 20
-4.958054948
 40
1.700044
  0
ARC
  5
3AC
100
AcDbEntity
  8
0
100
AcDbCircle
 62
7
  6
CONTINUOUS
 10
8.7
 20
-4.958054948
 40
1.5204522959
100
AcDbArc
 50
134.9002633258
 51
240.6958764731
  0
ARC
  5
3AD
100
AcDbEntity
  8
0
100
AcDbCircle
 62
7
  6
CONTINUOUS
 10
8.7
 20
-4.958054948
 40
1.5204520975
100
AcDbArc
 50
299.3041235269
 51
44.9957610735
  0
ARC
  5
3AE
100
AcDbEntity
  8
RACCORDO
100
AcDbCircle
 62
7
  6
CONTINUOUS
 10
14.7997122555
 20
-5.5221888233
 40
1.2999999999
100
AcDbArc
 50
330.5268123605
 51
359.9999999283
  0
ARC
  5
3AF
100
AcDbEntity
  8
0
100
AcDbCircle
 62
7
  6
CONTINUOUS
 10
8.7
 20
-4.958054948
 40
1.2181566122
100
AcDbArc
 50
299.3041277351
 51
31.9732965954
  0
ARC
  5
3B0
100
AcDbEntity
  8
0
100
AcDbCircle
 62
7
  6
CONTINUOUS
 10
8.7
 20
-4.958054948
 40
1.2181564327
100
AcDbArc
 50
148.0267046423
 51
240.6958722649
  0
ARC
  5
3B1
100
AcDbEntity
  8
RACCORDO
100
AcDbCircle
 62
7
  6
CONTINUOUS
 10
17.7459213144
 20
1.221945052
 40
0.48
100
AcDbArc
 50
270.0000004446
 51
354.7840068358
  0
ARC
  5
3B2
100
AcDbEntity
  8
0
100
AcDbCircle
 62
7
  6
CONTINUOUS
 10
13.829678232
 20
-6.608054948
 40
0.3
100
AcDbArc
 50
90.0
 51
145.6546937396
  0
ARC
  5
3B3
100
AcDbEntity
  8
0
100
AcDbCircle
 62
7
  6
CONTINUOUS
 10
14.45
 20
-6.458054948
 40
0.15
100
AcDbArc
 50
270.0
 51
90.0
  0
ARC
  5
3B4
100
AcDbEntity
  8
RACCORDO
100
AcDbCircle
 62
7
  6
CONTINUOUS
 10
49.4663862025
 20
19.7146125895
 40
55.2163865443
100
AcDbArc
 50
179.7891491315
 51
180.0063751557
  0
ARC
  5
3B5
100
AcDbEntity
  8
RACCORDO
100
AcDbCircle
 62
250
  6
CONTINUOUS
 10
0.047977436
 20
11.5919546839
 40
23.6008015917
100
AcDbArc
 50
265.464908508
 51
265.9981626511
  0
ARC
  5
3B6
100
AcDbEntity
  8
RACCORDO
100
AcDbCircle
 62
250
  6
CONTINUOUS
 10
0.0329526782
 20
11.3790751933
 40
23.3873925868
100
AcDbArc
 50
265.9984850332
 51
266.2718653189
  0
ARC
  5
3B7
100
AcDbEntity
  8
RACCORDO
100
AcDbCircle
 62
250
  6
CONTINUOUS
 10
0.0472784775
 20
8.384632421
 40
20.7430393656
100
AcDbArc
 50
264.8676867749
 51
265.4426640949
  0
ARC
  5
3B8
100
AcDbEntity
  8
0
100
AcDbCircle
 62
7
  6
CONTINUOUS
 10
1.0
 20
12.8064164791
 40
3.7933190077
100
AcDbArc
 50
172.5818016642
 51
183.4883606208
  0
ARC
  5
3B9
100
AcDbEntity
  8
0
100
AcDbCircle
 62
7
  6
CONTINUOUS
 10
1.0
 20
12.8064164791
 40
3.4
100
AcDbArc
 50
141.6341177519
 51
146.7024446921
  0
ARC
  5
3BA
100
AcDbEntity
  8
0
100
AcDbCircle
 62
7
  6
CONTINUOUS
 10
1.0
 20
12.8064164791
 40
3.3336923418
100
AcDbArc
 50
161.4147635776
 51
211.3321277722
  0
ARC
  5
3BB
100
AcDbEntity
  8
0
100
AcDbCircle
 62
7
  6
CONTINUOUS
 10
0.4022765316
 20
11.5333137377
 40
3.3120128996
100
AcDbArc
 50
50.6066560352
 51
58.5671903244
  0
ARC
  5
3BC
100
AcDbEntity
  8
0
100
AcDbCircle
 62
250
  6
CONTINUOUS
 10
1.0
 20
12.8064164791
 40
3.0339555569
100
AcDbArc
 50
153.6089650088
 51
218.6064650451
  0
ARC
  5
3BD
100
AcDbEntity
  8
0
100
AcDbCircle
 62
7
  6
CONTINUOUS
 10
1.0
 20
12.8064164791
 40
2.8
100
AcDbArc
 50
141.6341177519
 51
237.5775219439
  0
CIRCLE
  5
3BE
100
AcDbEntity
  8
RACCORDO
100
AcDbCircle
 62
250
  6
CONTINUOUS
 10
9.5
 20
2.841945052
 40
2.5749989405
  0
CIRCLE
  5
3BF
100
AcDbEntity
  8
RACCORDO
100
AcDbCircle
 62
7
  6
CONTINUOUS
 10
9.5
 20
2.841945052
 40
2.425
  0
CIRCLE
  5
3C0
100
AcDbEntity
  8
0
100
AcDbCircle
 62
7
  6
CONTINUOUS
 10
9.5
 20
2.841945052
 40
2.4
  0
ARC
  5
3C1
100
AcDbEntity
  8
RACCORDO
100
AcDbCircle
 62
7
  6
CONTINUOUS
 10
14.7997122552
 20
11.2060789272
 40
1.2999999999
100
AcDbArc
 50
359.9999994538
 51
29.4731874322
  0
ARC
  5
3C2
100
AcDbEntity
  8
0
100
AcDbCircle
 62
7
  6
CONTINUOUS
 10
1.7050180104
 20
14.9477659516
 40
0.65
100
AcDbArc
 50
147.93
 51
218.3658822481
  0
ARC
  5
3C3
100
AcDbEntity
  8
RACCORDO
100
AcDbCircle
 62
7
  6
CONTINUOUS
 10
17.7459213144
 20
4.461945052
 40
0.48
100
AcDbArc
 50
5.2159931646
 51
89.9999995598
  0
ARC
  5
3C4
100
AcDbEntity
  8
0
100
AcDbCircle
 62
7
  6
CONTINUOUS
 10
13.829678232
 20
12.291945052
 40
0.3
100
AcDbArc
 50
214.3453062604
 51
270.0
  0
ARC
  5
3C5
100
AcDbEntity
  8
0
100
AcDbCircle
 62
7
  6
CONTINUOUS
 10
14.45
 20
12.141945052
 40
0.15
100
AcDbArc
 50
270.0
 51
90.0
  0
ARC
  5
3C6
100
AcDbEntity
  8
0
100
AcDbCircle
 62
7
  6
CONTINUOUS
 10
1.7050180104
 20
14.9477659516
 40
0.05
100
AcDbArc
 50
147.93
 51
218.3658822481
  0
SPLINE
  5
3C7
100
AcDbEntity
  8
0
100
AcDbSpline
 62
7
  6
CONTINUOUS
 70
0
 71
3
 72
10
 73
6
 74
0
 42
0.0000001
 43
0.0000001
 44
0.0000000001
 40
0.0
 40
0.0
 40
0.0
 40
0.0
 40
0.4163551391
 40
0.6839471873
 40
1.0
 40
1.0
 40
1.0
 40
1.0
 10
-0.9784211145
 20
10.8250407213
 30
0.0
 10
-1.0187054834
 20
10.8652650178
 30
0.0
 10
-1.112280271
 20
10.9015873666
 30
0.0
 10
-1.2475580821
 20
10.9142767295
 30
0.0
 10
-1.3276836089
 20
10.9143746017
 30
0.0
 10
-1.3708847858
 20
10.9133259759
 30
0.0
  0
SPLINE
  5
3C8
100
AcDbEntity
  8
0
100
AcDbSpline
 62
7
  6
CONTINUOUS
 70
0
 71
3
 72
9
 73
5
 74
0
 42
0.0000001
 43
0.0000001
 44
0.0000000001
 40
0.0
 40
0.0
 40
0.0
 40
0.0
 40
0.2441714314
 40
1.0
 40
1.0
 40
1.0
 40
1.0
 10
1.7177607162
 20
14.1549946232
 30
0.0
 10
1.7557494082
 20
14.13508334
 30
0.0
 10
1.9094307612
 20
14.0499496915
 30
0.0
 10
2.0552081016
 20
13.9506383657
 30
0.0
 10
2.1598421723
 20
13.868914515
 30
0.0
  0
SPLINE
  5
3C9
100
AcDbEntity
  8
0
100
AcDbSpline
 62
7
  6
CONTINUOUS
 70
0
 71
3
 72
9
 73
5
 74
0
 42
0.0000001
 43
0.0000001
 44
0.0000000001
 40
0.0
 40
0.0
 40
0.0
 40
0.0
 40
0.2444390415
 40
1.0
 40
1.0
 40
1.0
 40
1.0
 10
1.3708847858
 20
10.9133259759
 30
0.0
 10
1.4107356006
 20
10.9228973384
 30
0.0
 10
1.5728866473
 20
10.9656442776
 30
0.0
 10
1.7312354577
 20
11.0226672525
 30
0.0
 10
1.8475312635
 20
11.0729026104
 30
0.0
  0
SPLINE
  5
3CA
100
AcDbEntity
  8
0
100
AcDbSpline
 62
7
  6
CONTINUOUS
 70
0
 71
3
 72
10
 73
6
 74
0
 42
0.0000001
 43
0.0000001
 44
0.0000000001
 40
0.0
 40
0.0
 40
0.0
 40
0.0
 40
0.4232424082
 40
0.6891510444
 40
1.0
 40
1.0
 40
1.0
 40
1.0
 10
1.3403262016
 20
14.3435805141
 30
0.0
 10
1.373597545
 20
14.2929250244
 30
0.0
 10
1.4596914266
 20
14.2327790083
 30
0.0
 10
1.5940184454
 20
14.1852048611
 30
0.0
 10
1.6743536626
 20
14.164846846
 30
0.0
 10
1.7177607162
 20
14.1549946232
 30
0.0
  0
SPLINE
  5
3CB
100
AcDbEntity
  8
0
100
AcDbSpline
 62
7
  6
CONTINUOUS
 70
0
 71
3
 72
10
 73
6
 74
0
 42
0.0000001
 43
0.0000001
 44
0.0000000001
 40
0.0
 40
0.0
 40
0.0
 40
0.0
 40
0.4163551391
 40
0.6839471873
 40
1.0
 40
1.0
 40
1.0
 40
1.0
 10
0.9784211145
 20
10.8250407213
 30
0.0
 10
1.0187054834
 20
10.8652650179
 30
0.0
 10
1.112280271
 20
10.9015873666
 30
0.0
 10
1.2475580821
 20
10.9142767295
 30
0.0
 10
1.3276836089
 20
10.9143746017
 30
0.0
 10
1.3708847858
 20
10.9133259759
 30
0.0
  0
SPLINE
  5
3CC
100
AcDbEntity
  8
0
100
AcDbSpline
 62
7
  6
CONTINUOUS
 70
0
 71
3
 72
9
 73
5
 74
0
 42
0.0000001
 43
0.0000001
 44
0.0000000001
 40
0.0
 40
0.0
 40
0.0
 40
0.0
 40
0.2441714314
 40
1.0
 40
1.0
 40
1.0
 40
1.0
 10
-1.7177607162
 20
14.1549946232
 30
0.0
 10
-1.7557494082
 20
14.13508334
 30
0.0
 10
-1.9094307612
 20
14.0499496915
 30
0.0
 10
-2.0552081016
 20
13.9506383657
 30
0.0
 10
-2.1598421723
 20
13.868914515
 30
0.0
  0
SPLINE
  5
3CD
100
AcDbEntity
  8
0
100
AcDbSpline
 62
7
  6
CONTINUOUS
 70
0
 71
3
 72
9
 73
5
 74
0
 42
0.0000001
 43
0.0000001
 44
0.0000000001
 40
0.0
 40
0.0
 40
0.0
 40
0.0
 40
0.2444390415
 40
1.0
 40
1.0
 40
1.0
 40
1.0
 10
-1.3708847858
 20
10.9133259759
 30
0.0
 10
-1.4107356006
 20
10.9228973384
 30
0.0
 10
-1.5728866473
 20
10.9656442776
 30
0.0
 10
-1.7312354577
 20
11.0226672525
 30
0.0
 10
-1.8475312635
 20
11.0729026104
 30
0.0
  0
SPLINE
  5
3CE
100
AcDbEntity
  8
0
100
AcDbSpline
 62
7
  6
CONTINUOUS
 70
0
 71
3
 72
10
 73
6
 74
0
 42
0.0000001
 43
0.0000001
 44
0.0000000001
 40
0.0
 40
0.0
 40
0.0
 40
0.0
 40
0.4232424082
 40
0.6891510444
 40
1.0
 40
1.0
 40
1.0
 40
1.0
 10
-1.3403262016
 20
14.3435805141
 30
0.0
 10
-1.373597545
 20
14.2929250244
 30
0.0
 10
-1.4596914266
 20
14.2327790083
 30
0.0
 10
-1.5940184454
 20
14.1852048611
 30
0.0
 10
-1.6743536626
 20
14.164846846
 30
0.0
 10
-1.7177607162
 20
14.1549946232
 30
0.0
  0
SPLINE
  5
3CF
100
AcDbEntity
  8
RACCORDO
100
AcDbSpline
 62
7
  6
CONTINUOUS
 70
0
 71
3
 72
9
 73
5
 74
0
 42
0.0000001
 43
0.0000001
 44
0.0000000001
 40
0.0
 40
0.0
 40
0.0
 40
0.0
 40
0.5320477076
 40
1.0
 40
1.0
 40
1.0
 40
1.0
 10
-3.6494738502
 20
-18.215732985
 30
0.0
 10
-3.9369246855
 20
-18.1609196447
 30
0.0
 10
-4.4740478849
 20
-18.0403749705
 30
0.0
 10
-4.9992995016
 20
-17.8728042855
 30
0.0
 10
-5.2384698921
 20
-17.7777221645
 30
0.0
  0
SPLINE
  5
3D0
100
AcDbEntity
  8
RACCORDO
100
AcDbSpline
 62
7
  6
CONTINUOUS
 70
0
 71
3
 72
9
 73
5
 74
0
 42
0.0000001
 43
0.0000001
 44
0.0000000001
 40
0.0
 40
0.0
 40
0.0
 40
0.0
 40
0.2610165364
 40
1.0
 40
1.0
 40
1.0
 40
1.0
 10
-5.2384698921
 20
-17.7777221645
 30
0.0
 10
-5.2881188724
 20
-17.7579842265
 30
0.0
 10
-5.4771683903
 20
-17.6795559596
 30
0.0
 10
-5.6614861559
 20
-17.5890607625
 30
0.0
 10
-5.7922274114
 20
-17.5129820117
 30
0.0
  0
SPLINE
  5
3D1
100
AcDbEntity
  8
RACCORDO
100
AcDbSpline
 62
7
  6
CONTINUOUS
 70
0
 71
3
 72
8
 73
4
 74
0
 42
0.0000001
 43
0.0000001
 44
0.0000000001
 40
0.0
 40
0.0
 40
0.0
 40
0.0
 40
1.0
 40
1.0
 40
1.0
 40
1.0
 10
-5.9569291985
 20
-17.4099894118
 30
0.0
 10
-6.0077124306
 20
-17.3758311969
 30
0.0
 10
-6.0574174048
 20
-17.3399711136
 30
0.0
 10
-6.1054707766
 20
-17.3020686895
 30
0.0
  0
SPLINE
  5
3D2
100
AcDbEntity
  8
RACCORDO
100
AcDbSpline
 62
7
  6
CONTINUOUS
 70
0
 71
3
 72
10
 73
6
 74
0
 42
0.0000001
 43
0.0000001
 44
0.0000000001
 40
0.0
 40
0.0
 40
0.0
 40
0.0
 40
0.4806695491
 40
0.7336659897
 40
1.0
 40
1.0
 40
1.0
 40
1.0
 10
-6.1054707766
 20
-17.3020686895
 30
0.0
 10
-6.2678856938
 20
-17.173962818
 30
0.0
 10
-6.4899460075
 20
-16.9363184614
 30
0.0
 10
-6.6676811613
 20
-16.540143902
 30
0.0
 10
-6.7
 20
-16.3151157848
 30
0.0
 10
-6.7
 20
-16.2004985996
 30
0.0
  0
SPLINE
  5
3D3
100
AcDbEntity
  8
RACCORDO
100
AcDbSpline
 62
7
  6
CONTINUOUS
 70
0
 71
3
 72
11
 73
7
 74
0
 42
0.0000001
 43
0.0000001
 44
0.0000000001
 40
0.0
 40
0.0
 40
0.0
 40
0.0
 40
0.2919921654
 40
0.5648484381
 40
0.8030375114
 40
1.0
 40
1.0
 40
1.0
 40
1.0
 10
-0.0
 20
-19.7959931921
 30
0.0
 10
-0.502107042
 20
-19.7959931921
 30
0.0
 10
-1.4737188253
 20
-19.7618708041
 30
0.0
 10
-2.8480798005
 20
-19.6097303439
 30
0.0
 10
-4.0417248426
 20
-19.3641871943
 30
0.0
 10
-4.753432592
 20
-19.1147532167
 30
0.0
 10
-5.0546557227
 20
-18.9599021597
 30
0.0
  0
SPLINE
  5
3D4
100
AcDbEntity
  8
RACCORDO
100
AcDbSpline
 62
7
  6
CONTINUOUS
 70
0
 71
3
 72
11
 73
7
 74
0
 42
0.0000001
 43
0.0000001
 44
0.0000000001
 40
0.0
 40
0.0
 40
0.0
 40
0.0
 40
0.2359873959
 40
0.4786212541
 40
0.7323625352
 40
1.0
 40
1.0
 40
1.0
 40
1.0
 10
-5.3679957556
 20
-18.774192593
 30
0.0
 10
-5.4573673615
 20
-18.7128809387
 30
0.0
 10
-5.6310187557
 20
-18.5762277339
 30
0.0
 10
-5.8508161805
 20
-18.3182422897
 30
0.0
 10
-6.0111899399
 20
-18.0014945244
 30
0.0
 10
-6.05
 20
-17.7601098073
 30
0.0
 10
-6.05
 20
-17.6371932053
 30
0.0
  0
SPLINE
  5
3D5
100
AcDbEntity
  8
RACCORDO
100
AcDbSpline
 62
7
  6
CONTINUOUS
 70
0
 71
3
 72
17
 73
13
 74
0
 42
0.0000001
 43
0.0000001
 44
0.0000000001
 40
0.0
 40
0.0
 40
0.0
 40
0.0
 40
0.1591868782
 40
0.3126413187
 40
0.4551737961
 40
0.5829077028
 40
0.6944573055
 40
0.7933546708
 40
0.8415180402
 40
0.8916811181
 40
0.9444609087
 40
1.0
 40
1.0
 40
1.0
 40
1.0
 10
-0.0
 20
-21.0492569077
 30
0.0
 10
-0.3234120087
 20
-21.0492569077
 30
0.0
 10
-0.958727406
 20
-21.0324654288
 30
0.0
 10
-1.8809176497
 20
-20.957293666
 30
0.0
 10
-2.7336102656
 20
-20.8345833031
 30
0.0
 10
-3.4918796387
 20
-20.6661426997
 30
0.0
 10
-4.1453814549
 20
-20.4497968041
 30
0.0
 10
-4.6156491555
 20
-20.2058326982
 30
0.0
 10
-4.9276096809
 20
-19.951435403
 30
0.0
 10
-5.1236745376
 20
-19.7120565642
 30
0.0
 10
-5.2658785606
 20
-19.4191393481
 30
0.0
 10
-5.3
 20
-19.1974071953
 30
0.0
 10
-5.3
 20
-19.0845712047
 30
0.0
  0
SPLINE
  5
3D6
100
AcDbEntity
  8
0
100
AcDbSpline
 62
7
  6
CONTINUOUS
 70
0
 71
3
 72
9
 73
5
 74
0
 42
0.0000001
 43
0.0000001
 44
0.0000000001
 40
0.0
 40
0.0
 40
0.0
 40
0.0
 40
0.4983944433
 40
1.0
 40
1.0
 40
1.0
 40
1.0
 10
-13.1857864376
 20
-5.908054948
 30
0.0
 10
-13.1857864376
 20
-5.9607712419
 30
0.0
 10
-13.2361030788
 20
-6.0703467674
 30
0.0
 10
-13.3469440594
 20
-6.108054948
 30
0.0
 10
-13.4
 20
-6.108054948
 30
0.0
  0
SPLINE
  5
3D7
100
AcDbEntity
  8
0
100
AcDbSpline
 62
7
  6
CONTINUOUS
 70
0
 71
3
 72
9
 73
5
 74
0
 42
0.0000001
 43
0.0000001
 44
0.0000000001
 40
0.0
 40
0.0
 40
0.0
 40
0.0
 40
0.5016016996
 40
1.0
 40
1.0
 40
1.0
 40
1.0
 10
-13.4
 20
-5.608054948
 30
0.0
 10
-13.3469444639
 20
-5.608054948
 30
0.0
 10
-13.2361035335
 20
-5.6457626222
 30
0.0
 10
-13.1857864376
 20
-5.7553382426
 30
0.0
 10
-13.1857864376
 20
-5.808054948
 30
0.0
  0
SPLINE
  5
3D8
100
AcDbEntity
  8
0
100
AcDbSpline
 62
7
  6
CONTINUOUS
 70
0
 71
3
 72
9
 73
5
 74
0
 42
0.0000001
 43
0.0000001
 44
0.0000000001
 40
0.0
 40
0.0
 40
0.0
 40
0.0
 40
0.4983944433
 40
1.0
 40
1.0
 40
1.0
 40
1.0
 10
-13.1857864376
 20
11.491945052
 30
0.0
 10
-13.1857864376
 20
11.4392287581
 30
0.0
 10
-13.2361030788
 20
11.3296532326
 30
0.0
 10
-13.3469440594
 20
11.291945052
 30
0.0
 10
-13.4
 20
11.291945052
 30
0.0
  0
SPLINE
  5
3D9
100
AcDbEntity
  8
0
100
AcDbSpline
 62
7
  6
CONTINUOUS
 70
0
 71
3
 72
9
 73
5
 74
0
 42
0.0000001
 43
0.0000001
 44
0.0000000001
 40
0.0
 40
0.0
 40
0.0
 40
0.0
 40
0.5016016996
 40
1.0
 40
1.0
 40
1.0
 40
1.0
 10
-13.4
 20
11.791945052
 30
0.0
 10
-13.3469444639
 20
11.791945052
 30
0.0
 10
-13.2361035335
 20
11.7542373778
 30
0.0
 10
-13.1857864376
 20
11.6446617574
 30
0.0
 10
-13.1857864376
 20
11.591945052
 30
0.0
  0
SPLINE
  5
3DA
100
AcDbEntity
  8
RACCORDO
100
AcDbSpline
 62
7
  6
CONTINUOUS
 70
0
 71
3
 72
9
 73
5
 74
0
 42
0.0000001
 43
0.0000001
 44
0.0000000001
 40
0.0
 40
0.0
 40
0.0
 40
0.0
 40
0.4543266188
 40
1.0
 40
1.0
 40
1.0
 40
1.0
 10
-4.2
 20
-10.8716881063
 30
0.0
 10
-4.2
 20
-10.8404992836
 30
0.0
 10
-4.2217405239
 20
-10.7699848201
 30
0.0
 10
-4.2870342378
 20
-10.7296053883
 30
0.0
 10
-4.3238738228
 20
-10.7228179441
 30
0.0
  0
SPLINE
  5
3DB
100
AcDbEntity
  8
RACCORDO
100
AcDbSpline
 62
7
  6
CONTINUOUS
 70
0
 71
3
 72
8
 73
4
 74
0
 42
0.0000001
 43
0.0000001
 44
0.0000000001
 40
0.0
 40
0.0
 40
0.0
 40
0.0
 40
1.0
 40
1.0
 40
1.0
 40
1.0
 10
-4.3238738228
 20
-10.7228179441
 30
0.0
 10
-4.3320443976
 20
-10.721312571
 30
0.0
 10
-4.3403718745
 20
-10.7204639328
 30
0.0
 10
-4.3486796475
 20
-10.7203907993
 30
0.0
  0
SPLINE
  5
3DC
100
AcDbEntity
  8
RACCORDO
100
AcDbSpline
 62
7
  6
CONTINUOUS
 70
0
 71
3
 72
9
 73
5
 74
0
 42
0.0000001
 43
0.0000001
 44
0.0000000001
 40
0.0
 40
0.0
 40
0.0
 40
0.0
 40
0.4543266188
 40
1.0
 40
1.0
 40
1.0
 40
1.0
 10
-4.2
 20
16.5555782103
 30
0.0
 10
-4.2
 20
16.5243893877
 30
0.0
 10
-4.2217405239
 20
16.4538749242
 30
0.0
 10
-4.2870342378
 20
16.4134954924
 30
0.0
 10
-4.3238738228
 20
16.4067080482
 30
0.0
  0
SPLINE
  5
3DD
100
AcDbEntity
  8
RACCORDO
100
AcDbSpline
 62
7
  6
CONTINUOUS
 70
0
 71
3
 72
8
 73
4
 74
0
 42
0.0000001
 43
0.0000001
 44
0.0000000001
 40
0.0
 40
0.0
 40
0.0
 40
0.0
 40
1.0
 40
1.0
 40
1.0
 40
1.0
 10
-4.3238738228
 20
16.4067080482
 30
0.0
 10
-4.3320443976
 20
16.4052026751
 30
0.0
 10
-4.3403718745
 20
16.4043540369
 30
0.0
 10
-4.3486796475
 20
16.4042809034
 30
0.0
  0
SPLINE
  5
3DE
100
AcDbEntity
  8
RACCORDO
100
AcDbSpline
 62
250
  6
CONTINUOUS
 70
0
 71
3
 72
11
 73
7
 74
0
 42
0.0000001
 43
0.0000001
 44
0.0000000001
 40
0.0
 40
0.0
 40
0.0
 40
0.0
 40
0.1862690045
 40
0.4062068813
 40
0.6752265248
 40
1.0
 40
1.0
 40
1.0
 40
1.0
 10
-6.6975847645
 20
-16.2470141185
 30
0.0
 10
-6.6905530213
 20
-16.3148817092
 30
0.0
 10
-6.6399994695
 20
-16.4597995638
 30
0.0
 10
-6.4816588947
 20
-16.6536483036
 30
0.0
 10
-6.2456005934
 20
-16.8381951503
 30
0.0
 10
-6.0553935401
 20
-16.9450580696
 30
0.0
 10
-5.9489685219
 20
-16.9982229637
 30
0.0
  0
SPLINE
  5
3DF
100
AcDbEntity
  8
RACCORDO
100
AcDbSpline
 62
250
  6
CONTINUOUS
 70
0
 71
3
 72
9
 73
5
 74
0
 42
0.0000001
 43
0.0000001
 44
0.0000000001
 40
0.0
 40
0.0
 40
0.0
 40
0.0
 40
0.4602316582
 40
1.0
 40
1.0
 40
1.0
 40
1.0
 10
-5.9489685219
 20
-16.9982229637
 30
0.0
 10
-5.7949697715
 20
-17.0751534392
 30
0.0
 10
-5.4485617031
 20
-17.218676723
 30
0.0
 10
-5.0911694252
 20
-17.3301850835
 30
0.0
 10
-4.8966074973
 20
-17.3841037316
 30
0.0
  0
SPLINE
  5
3E0
100
AcDbEntity
  8
RACCORDO
100
AcDbSpline
 62
250
  6
CONTINUOUS
 70
0
 71
3
 72
10
 73
6
 74
0
 42
0.0000001
 43
0.0000001
 44
0.0000000001
 40
0.0
 40
0.0
 40
0.0
 40
0.0
 40
0.2143789155
 40
0.4587695441
 40
1.0
 40
1.0
 40
1.0
 40
1.0
 10
-4.8966074973
 20
-17.3841037316
 30
0.0
 10
-4.5564858589
 20
-17.4783611185
 30
0.0
 10
-3.8173879326
 20
-17.6398570976
 30
0.0
 10
-2.1865985332
 20
-17.8711030262
 30
0.0
 10
-0.8910498073
 20
-17.934586202
 30
0.0
 10
-0.0
 20
-17.934586202
 30
0.0
  0
SPLINE
  5
3E1
100
AcDbEntity
  8
RACCORDO
100
AcDbSpline
 62
250
  6
CONTINUOUS
 70
0
 71
3
 72
10
 73
6
 74
0
 42
0.0000001
 43
0.0000001
 44
0.0000000001
 40
0.0
 40
0.0
 40
0.0
 40
0.0
 40
0.1194508666
 40
0.3160065296
 40
1.0
 40
1.0
 40
1.0
 40
1.0
 10
-16.2497005638
 20
5.0872183353
 30
0.0
 10
-16.250559685
 20
5.0800442551
 30
0.0
 10
-16.2402383233
 20
5.0611727413
 30
0.0
 10
-16.1900240508
 20
5.0278663848
 30
0.0
 10
-16.1395621852
 20
5.0084044586
 30
0.0
 10
-16.1004702923
 20
4.9948553172
 30
0.0
  0
SPLINE
  5
3E2
100
AcDbEntity
  8
RACCORDO
100
AcDbSpline
 62
250
  6
CONTINUOUS
 70
0
 71
3
 72
11
 73
7
 74
0
 42
0.0000001
 43
0.0000001
 44
0.0000000001
 40
0.0
 40
0.0
 40
0.0
 40
0.0
 40
0.1787738818
 40
0.3936025375
 40
0.6648333368
 40
1.0
 40
1.0
 40
1.0
 40
1.0
 10
-6.05
 20
-17.6371932053
 30
0.0
 10
-6.0500000018
 20
-17.7074671679
 30
0.0
 10
-6.0059638463
 20
-17.8630289984
 30
0.0
 10
-5.83537882
 20
-18.0667153307
 30
0.0
 10
-5.5729991968
 20
-18.2578088785
 30
0.0
 10
-5.3597772289
 20
-18.366171885
 30
0.0
 10
-5.2395569973
 20
-18.4200718253
 30
0.0
  0
SPLINE
  5
3E3
100
AcDbEntity
  8
RACCORDO
100
AcDbSpline
 62
250
  6
CONTINUOUS
 70
0
 71
3
 72
9
 73
5
 74
0
 42
0.0000001
 43
0.0000001
 44
0.0000000001
 40
0.0
 40
0.0
 40
0.0
 40
0.0
 40
0.4529293579
 40
1.0
 40
1.0
 40
1.0
 40
1.0
 10
-5.2395569973
 20
-18.4200718253
 30
0.0
 10
-5.0236444492
 20
-18.5168747785
 30
0.0
 10
-4.5285461563
 20
-18.6891205306
 30
0.0
 10
-4.0200342502
 20
-18.8110104863
 30
0.0
 10
-3.739975129
 20
-18.8680136921
 30
0.0
  0
SPLINE
  5
3E4
100
AcDbEntity
  8
RACCORDO
100
AcDbSpline
 62
250
  6
CONTINUOUS
 70
0
 71
3
 72
9
 73
5
 74
0
 42
0.0000001
 43
0.0000001
 44
0.0000000001
 40
0.0
 40
0.0
 40
0.0
 40
0.0
 40
0.4731288066
 40
1.0
 40
1.0
 40
1.0
 40
1.0
 10
-3.739975129
 20
-18.8680136921
 30
0.0
 10
-3.1590017117
 20
-18.9862649639
 30
0.0
 10
-1.9137458895
 20
-19.1509968551
 30
0.0
 10
-0.660231213
 20
-19.2030484283
 30
0.0
 10
-0.0
 20
-19.2030484283
 30
0.0
  0
LINE
  5
3E5
100
AcDbEntity
  8
RACCORDO
100
AcDbLine
 62
7
  6
CONTINUOUS
 10
-5.75
 20
-14.0245786985
 11
-5.7499750484
 21
-14.0796826514
  0
SPLINE
  5
3E6
100
AcDbEntity
  8
RACCORDO
100
AcDbSpline
 62
7
  6
CONTINUOUS
 70
0
 71
3
 72
16
 73
12
 74
0
 42
0.0000001
 43
0.0000001
 44
0.0000000001
 40
0.0
 40
0.0
 40
0.0
 40
0.0
 40
0.4013323039
 40
0.5731969643
 40
0.7205380844
 40
0.8396729931
 40
0.9274938057
 40
0.9587804134
 40
0.981381229
 40
0.9951529871
 40
1.0
 40
1.0
 40
1.0
 40
1.0
 10
-5.7496264525
 20
-14.2339206421
 30
0.0
 10
-5.7494769636
 20
-14.2738492048
 30
0.0
 10
-5.7492000461
 20
-14.3308827058
 30
0.0
 10
-5.7486177605
 20
-14.4025527065
 30
0.0
 10
-5.7481842429
 20
-14.4461942628
 30
0.0
 10
-5.7476116618
 20
-14.4813500621
 30
0.0
 10
-5.7472867989
 20
-14.5052422787
 30
0.0
 10
-5.7466584839
 20
-14.5190682484
 30
0.0
 10
-5.7467142274
 20
-14.5262416117
 30
0.0
 10
-5.7458479963
 20
-14.5295275771
 30
0.0
 10
-5.7462801976
 20
-14.5322336924
 30
0.0
 10
-5.7458060707
 20
-14.5323217392
 30
0.0
  0
SPLINE
  5
3E7
100
AcDbEntity
  8
RACCORDO
100
AcDbSpline
 62
250
  6
CONTINUOUS
 70
0
 71
3
 72
8
 73
4
 74
0
 42
0.0000001
 43
0.0000001
 44
0.0000000001
 40
0.0
 40
0.0
 40
0.0
 40
0.0
 40
1.0
 40
1.0
 40
1.0
 40
1.0
 10
-15.5135922513
 20
-5.9256418005
 30
0.0
 10
-15.5820019656
 20
-5.8045740329
 30
0.0
 10
-15.6196921271
 20
-5.6612474058
 30
0.0
 10
-15.619711641
 20
-5.5221888104
 30
0.0
  0
SPLINE
  5
3E8
100
AcDbEntity
  8
RACCORDO
100
AcDbSpline
 62
250
  6
CONTINUOUS
 70
0
 71
3
 72
13
 73
9
 74
0
 42
0.0000001
 43
0.0000001
 44
0.0000000001
 40
0.0
 40
0.0
 40
0.0
 40
0.0
 40
0.0767100874
 40
0.1606130462
 40
0.2571528816
 40
0.3696511821
 40
0.6481241496
 40
1.0
 40
1.0
 40
1.0
 40
1.0
 10
-5.2999999911
 20
-19.0845712047
 30
0.0
 10
-5.2999994776
 20
-19.1240545285
 30
0.0
 10
-5.2855529862
 20
-19.2072003097
 30
0.0
 10
-5.2238705084
 20
-19.326023229
 30
0.0
 10
-5.1246947311
 20
-19.4409281031
 30
0.0
 10
-4.9300382522
 20
-19.6006381608
 30
0.0
 10
-4.590548928
 20
-19.782654242
 30
0.0
 10
-4.2855793768
 20
-19.8947465212
 30
0.0
 10
-4.1130044369
 20
-19.9497007724
 30
0.0
  0
SPLINE
  5
3E9
100
AcDbEntity
  8
RACCORDO
100
AcDbSpline
 62
250
  6
CONTINUOUS
 70
0
 71
3
 72
10
 73
6
 74
0
 42
0.0000001
 43
0.0000001
 44
0.0000000001
 40
0.0
 40
0.0
 40
0.0
 40
0.0
 40
0.2079824506
 40
0.4512751829
 40
1.0
 40
1.0
 40
1.0
 40
1.0
 10
-4.1130044369
 20
-19.9497007724
 30
0.0
 10
-3.8384364124
 20
-20.0371333986
 30
0.0
 10
-3.2296252447
 20
-20.1858194002
 30
0.0
 10
-1.859857001
 20
-20.3988465094
 30
0.0
 10
-0.7602401968
 20
-20.4563121438
 30
0.0
 10
-0.0
 20
-20.4563121438
 30
0.0
  0
SPLINE
  5
3EA
100
AcDbEntity
  8
RACCORDO
100
AcDbSpline
 62
7
  6
CONTINUOUS
 70
0
 71
3
 72
16
 73
12
 74
0
 42
0.0000001
 43
0.0000001
 44
0.0000000001
 40
0.0
 40
0.0
 40
0.0
 40
0.0
 40
0.0048470129
 40
0.018618771
 40
0.0412195866
 40
0.0725061943
 40
0.1603270069
 40
0.2794619156
 40
0.4268030357
 40
0.5986676961
 40
1.0
 40
1.0
 40
1.0
 40
1.0
 10
-5.7458060707
 20
20.2162118433
 30
0.0
 10
-5.7462801976
 20
20.2161237965
 30
0.0
 10
-5.7458479963
 20
20.2134176811
 30
0.0
 10
-5.7467142274
 20
20.2101317157
 30
0.0
 10
-5.7466584839
 20
20.2029583524
 30
0.0
 10
-5.7472867989
 20
20.1891323827
 30
0.0
 10
-5.7476116618
 20
20.1652401662
 30
0.0
 10
-5.7481842429
 20
20.1300843669
 30
0.0
 10
-5.7486177605
 20
20.0864428105
 30
0.0
 10
-5.7492000461
 20
20.0147728098
 30
0.0
 10
-5.7494769636
 20
19.9577393088
 30
0.0
 10
-5.7496264525
 20
19.9178107461
 30
0.0
  0
SPLINE
  5
3EB
100
AcDbEntity
  8
RACCORDO
100
AcDbSpline
 62
250
  6
CONTINUOUS
 70
0
 71
3
 72
8
 73
4
 74
0
 42
0.0000001
 43
0.0000001
 44
0.0000000001
 40
0.0
 40
0.0
 40
0.0
 40
0.0
 40
1.0
 40
1.0
 40
1.0
 40
1.0
 10
-15.5135922513
 20
11.6095319045
 30
0.0
 10
-15.5819933961
 20
11.4884592952
 30
0.0
 10
-15.6197184897
 20
11.3451375111
 30
0.0
 10
-15.619711641
 20
11.2060789145
 30
0.0
  0
SPLINE
  5
3EC
100
AcDbEntity
  8
RACCORDO
100
AcDbSpline
 62
250
  6
CONTINUOUS
 70
0
 71
3
 72
13
 73
9
 74
0
 42
0.0000001
 43
0.0000001
 44
0.0000000001
 40
0.0
 40
0.0
 40
0.0
 40
0.0
 40
0.3145235561
 40
0.5998592185
 40
0.7243465721
 40
0.8334985958
 40
0.9256293156
 40
1.0
 40
1.0
 40
1.0
 40
1.0
 10
-0.1988142185
 20
-19.9050314826
 30
0.0
 10
-0.717415997
 20
-19.8999899895
 30
0.0
 10
-1.7064612796
 20
-19.8532983371
 30
0.0
 10
-2.8930241104
 20
-19.6993185152
 30
0.0
 10
-3.729418715
 20
-19.516007847
 30
0.0
 10
-4.245287469
 20
-19.3637893401
 30
0.0
 10
-4.6677370523
 20
-19.1943928535
 30
0.0
 10
-4.9079965157
 20
-19.0577608849
 30
0.0
 10
-5.0063436012
 20
-18.9845050966
 30
0.0
  0
SPLINE
  5
3ED
100
AcDbEntity
  8
RACCORDO
100
AcDbSpline
 62
250
  6
CONTINUOUS
 70
0
 71
3
 72
9
 73
5
 74
0
 42
0.0000001
 43
0.0000001
 44
0.0000000001
 40
0.0
 40
0.0
 40
0.0
 40
0.0
 40
0.5241940792
 40
1.0
 40
1.0
 40
1.0
 40
1.0
 10
-0.0
 20
-18.5261157971
 30
0.0
 10
-0.6406436671
 20
-18.5261157971
 30
0.0
 10
-1.8631789317
 20
-18.4776181105
 30
0.0
 10
-3.078249528
 20
-18.324656359
 30
0.0
 10
-3.6494624106
 20
-18.2157289665
 30
0.0
  0
SPLINE
  5
3EE
100
AcDbEntity
  8
RACCORDO
100
AcDbSpline
 62
250
  6
CONTINUOUS
 70
0
 71
3
 72
9
 73
5
 74
0
 42
0.0000001
 43
0.0000001
 44
0.0000000001
 40
0.0
 40
0.0
 40
0.0
 40
0.0
 40
0.5279165314
 40
1.0
 40
1.0
 40
1.0
 40
1.0
 10
-0.0
 20
-18.6370275962
 30
0.0
 10
-0.6733077681
 20
-18.6370275962
 30
0.0
 10
-1.9491139375
 20
-18.5830297923
 30
0.0
 10
-3.2162577847
 20
-18.4118510652
 30
0.0
 10
-3.8055735378
 20
-18.2884456501
 30
0.0
  0
SPLINE
  5
3EF
100
AcDbEntity
  8
RACCORDO
100
AcDbSpline
 62
250
  6
CONTINUOUS
 70
0
 71
3
 72
11
 73
7
 74
0
 42
0.0000001
 43
0.0000001
 44
0.0000000001
 40
0.0
 40
0.0
 40
0.0
 40
0.0
 40
0.3152978938
 40
0.5891304979
 40
0.8177006636
 40
1.0
 40
1.0
 40
1.0
 40
1.0
 10
-3.8055735378
 20
-18.2884456501
 30
0.0
 10
-4.0261803176
 20
-18.242249581
 30
0.0
 10
-4.4360933378
 20
-18.1442402168
 30
0.0
 10
-4.9934456927
 20
-17.9651974372
 30
0.0
 10
-5.4422535916
 20
-17.7679471498
 30
0.0
 10
-5.6922470278
 20
-17.6089565738
 30
0.0
 10
-5.7912389576
 20
-17.5242028772
 30
0.0
  0
SPLINE
  5
3F0
100
AcDbEntity
  8
RACCORDO
100
AcDbSpline
 62
250
  6
CONTINUOUS
 70
0
 71
3
 72
10
 73
6
 74
0
 42
0.0000001
 43
0.0000001
 44
0.0000000001
 40
0.0
 40
0.0
 40
0.0
 40
0.0
 40
0.1194319865
 40
0.3159745148
 40
1.0
 40
1.0
 40
1.0
 40
1.0
 10
-16.2497419078
 20
0.5966671294
 30
0.0
 10
-16.2506043352
 20
0.6038415898
 30
0.0
 10
-16.2402847095
 20
0.6227201602
 30
0.0
 10
-16.1900549691
 20
0.6560329619
 30
0.0
 10
-16.1395786293
 20
0.6754993329
 30
0.0
 10
-16.1004740659
 20
0.689051293
 30
0.0
  0
LINE
  5
3F1
100
AcDbEntity
  8
RACCORDO
100
AcDbLine
 62
250
  6
CONTINUOUS
 10
-1.8313153768
 20
-12.2731645461
 11
-1.8083113112
 21
-12.2752433932
  0
SPLINE
  5
3F2
100
AcDbEntity
  8
RACCORDO
100
AcDbSpline
 62
7
  6
CONTINUOUS
 70
0
 71
3
 72
10
 73
6
 74
0
 42
0.0000001
 43
0.0000001
 44
0.0000000001
 40
0.0
 40
0.0
 40
0.0
 40
0.0
 40
0.5513235825
 40
0.7867591962
 40
1.0
 40
1.0
 40
1.0
 40
1.0
 10
3.6494738502
 20
-18.2157329936
 30
0.0
 10
4.085614831
 20
-18.1325662705
 30
0.0
 10
4.7048243911
 20
-17.9852619043
 30
0.0
 10
5.4577393822
 20
-17.6966444451
 30
0.0
 10
5.7784219079
 20
-17.5266707001
 30
0.0
 10
5.922297743
 20
-17.4329105833
 30
0.0
  0
SPLINE
  5
3F3
100
AcDbEntity
  8
RACCORDO
100
AcDbSpline
 62
7
  6
CONTINUOUS
 70
0
 71
3
 72
8
 73
4
 74
0
 42
0.0000001
 43
0.0000001
 44
0.0000000001
 40
0.0
 40
0.0
 40
0.0
 40
0.0
 40
1.0
 40
1.0
 40
1.0
 40
1.0
 10
5.9604746121
 20
-17.4075910339
 30
0.0
 10
6.0111956578
 20
-17.3733545104
 30
0.0
 10
6.0608317802
 20
-17.3374113755
 30
0.0
 10
6.1088062485
 20
-17.2994217136
 30
0.0
  0
SPLINE
  5
3F4
100
AcDbEntity
  8
RACCORDO
100
AcDbSpline
 62
7
  6
CONTINUOUS
 70
0
 71
3
 72
10
 73
6
 74
0
 42
0.0000001
 43
0.0000001
 44
0.0000000001
 40
0.0
 40
0.0
 40
0.0
 40
0.0
 40
0.4806865056
 40
0.7337108412
 40
1.0
 40
1.0
 40
1.0
 40
1.0
 10
6.1088062485
 20
-17.2994217136
 30
0.0
 10
6.2704505985
 20
-17.1714199989
 30
0.0
 10
6.491285161
 20
-16.9340895316
 30
0.0
 10
6.6679102638
 20
-16.5389996217
 30
0.0
 10
6.7
 20
-16.3147217606
 30
0.0
 10
6.7
 20
-16.2004986082
 30
0.0
  0
SPLINE
  5
3F5
100
AcDbEntity
  8
RACCORDO
100
AcDbSpline
 62
7
  6
CONTINUOUS
 70
0
 71
3
 72
11
 73
7
 74
0
 42
0.0000001
 43
0.0000001
 44
0.0000000001
 40
0.0
 40
0.0
 40
0.0
 40
0.0
 40
0.2920119421
 40
0.5648763382
 40
0.8030582773
 40
1.0
 40
1.0
 40
1.0
 40
1.0
 10
-0.0
 20
-19.7959931951
 30
0.0
 10
0.5022466651
 20
-19.7959931951
 30
0.0
 10
1.4741108103
 20
-19.7618525016
 30
0.0
 10
2.8487934493
 20
-19.6096319907
 30
0.0
 10
4.0426381861
 20
-19.3639582234
 30
0.0
 10
4.7544194773
 20
-19.1143670185
 30
0.0
 10
5.0556257249
 20
-18.9594054628
 30
0.0
  0
SPLINE
  5
3F6
100
AcDbEntity
  8
RACCORDO
100
AcDbSpline
 62
7
  6
CONTINUOUS
 70
0
 71
3
 72
11
 73
7
 74
0
 42
0.0000001
 43
0.0000001
 44
0.0000000001
 40
0.0
 40
0.0
 40
0.0
 40
0.0
 40
0.2359703077
 40
0.4786178061
 40
0.7323875982
 40
1.0
 40
1.0
 40
1.0
 40
1.0
 10
5.369713778
 20
-18.7730085227
 30
0.0
 10
5.458890723
 20
-18.7117152992
 30
0.0
 10
5.6321606191
 20
-18.5751158713
 30
0.0
 10
5.8513942302
 20
-18.3173079282
 30
0.0
 10
6.0113155373
 20
-18.0009319459
 30
0.0
 10
6.05
 20
-17.7599133795
 30
0.0
 10
6.05
 20
-17.6371932083
 30
0.0
  0
SPLINE
  5
3F7
100
AcDbEntity
  8
RACCORDO
100
AcDbSpline
 62
7
  6
CONTINUOUS
 70
0
 71
3
 72
17
 73
13
 74
0
 42
0.0000001
 43
0.0000001
 44
0.0000000001
 40
0.0
 40
0.0
 40
0.0
 40
0.0
 40
0.1591855753
 40
0.3126380126
 40
0.4551696839
 40
0.582906009
 40
0.6944575395
 40
0.7933553619
 40
0.8415204805
 40
0.8916796486
 40
0.9444653468
 40
1.0
 40
1.0
 40
1.0
 40
1.0
 10
-0.0
 20
-21.0492569077
 30
0.0
 10
0.3234093624
 20
-21.0492569077
 30
0.0
 10
0.9587180875
 20
-21.0324661629
 30
0.0
 10
1.8808998772
 20
-20.9572949938
 30
0.0
 10
2.7335923746
 20
-20.8345877572
 30
0.0
 10
3.4918678802
 20
-20.6661441041
 30
0.0
 10
4.1453821597
 20
-20.4498007308
 30
0.0
 10
4.6156504752
 20
-20.2058224799
 30
0.0
 10
4.9276157546
 20
-19.9514363217
 30
0.0
 10
5.12368311
 20
-19.7120489337
 30
0.0
 10
5.2658773759
 20
-19.419132167
 30
0.0
 10
5.3
 20
-19.197398179
 30
0.0
 10
5.3
 20
-19.0845712047
 30
0.0
  0
SPLINE
  5
3F8
100
AcDbEntity
  8
0
100
AcDbSpline
 62
7
  6
CONTINUOUS
 70
0
 71
3
 72
9
 73
5
 74
0
 42
0.0000001
 43
0.0000001
 44
0.0000000001
 40
0.0
 40
0.0
 40
0.0
 40
0.0
 40
0.5016055567
 40
1.0
 40
1.0
 40
1.0
 40
1.0
 10
13.4
 20
-6.108054948
 30
0.0
 10
13.3469440594
 20
-6.108054948
 30
0.0
 10
13.2361030788
 20
-6.0703467674
 30
0.0
 10
13.1857864376
 20
-5.9607712419
 30
0.0
 10
13.1857864376
 20
-5.908054948
 30
0.0
  0
SPLINE
  5
3F9
100
AcDbEntity
  8
0
100
AcDbSpline
 62
7
  6
CONTINUOUS
 70
0
 71
3
 72
9
 73
5
 74
0
 42
0.0000001
 43
0.0000001
 44
0.0000000001
 40
0.0
 40
0.0
 40
0.0
 40
0.0
 40
0.4983983004
 40
1.0
 40
1.0
 40
1.0
 40
1.0
 10
13.1857864376
 20
-5.808054948
 30
0.0
 10
13.1857864376
 20
-5.7553382426
 30
0.0
 10
13.2361035335
 20
-5.6457626222
 30
0.0
 10
13.3469444639
 20
-5.608054948
 30
0.0
 10
13.4
 20
-5.608054948
 30
0.0
  0
SPLINE
  5
3FA
100
AcDbEntity
  8
0
100
AcDbSpline
 62
7
  6
CONTINUOUS
 70
0
 71
3
 72
9
 73
5
 74
0
 42
0.0000001
 43
0.0000001
 44
0.0000000001
 40
0.0
 40
0.0
 40
0.0
 40
0.0
 40
0.5016055567
 40
1.0
 40
1.0
 40
1.0
 40
1.0
 10
13.4
 20
11.291945052
 30
0.0
 10
13.3469440594
 20
11.291945052
 30
0.0
 10
13.2361030788
 20
11.3296532326
 30
0.0
 10
13.1857864376
 20
11.4392287581
 30
0.0
 10
13.1857864376
 20
11.491945052
 30
0.0
  0
SPLINE
  5
3FB
100
AcDbEntity
  8
0
100
AcDbSpline
 62
7
  6
CONTINUOUS
 70
0
 71
3
 72
9
 73
5
 74
0
 42
0.0000001
 43
0.0000001
 44
0.0000000001
 40
0.0
 40
0.0
 40
0.0
 40
0.0
 40
0.4983983004
 40
1.0
 40
1.0
 40
1.0
 40
1.0
 10
13.1857864376
 20
11.591945052
 30
0.0
 10
13.1857864376
 20
11.6446617574
 30
0.0
 10
13.2361035335
 20
11.7542373778
 30
0.0
 10
13.3469444639
 20
11.791945052
 30
0.0
 10
13.4
 20
11.791945052
 30
0.0
  0
SPLINE
  5
3FC
100
AcDbEntity
  8
RACCORDO
100
AcDbSpline
 62
7
  6
CONTINUOUS
 70
0
 71
3
 72
9
 73
5
 74
0
 42
0.0000001
 43
0.0000001
 44
0.0000000001
 40
0.0
 40
0.0
 40
0.0
 40
0.0
 40
0.4542706861
 40
1.0
 40
1.0
 40
1.0
 40
1.0
 10
4.2
 20
16.5554835861
 30
0.0
 10
4.2
 20
16.5254028479
 30
0.0
 10
4.2196464195
 20
16.4572139199
 30
0.0
 10
4.2810927194
 20
16.4169472149
 30
0.0
 10
4.316193382
 20
16.408355357
 30
0.0
  0
SPLINE
  5
3FD
100
AcDbEntity
  8
RACCORDO
100
AcDbSpline
 62
7
  6
CONTINUOUS
 70
0
 71
3
 72
8
 73
4
 74
0
 42
0.0000001
 43
0.0000001
 44
0.0000000001
 40
0.0
 40
0.0
 40
0.0
 40
0.0
 40
1.0
 40
1.0
 40
1.0
 40
1.0
 10
4.316193382
 20
16.408355357
 30
0.0
 10
4.3268020121
 20
16.4057586013
 30
0.0
 10
4.3377696146
 20
16.4042698692
 30
0.0
 10
4.3486910197
 20
16.4041745559
 30
0.0
  0
SPLINE
  5
3FE
100
AcDbEntity
  8
RACCORDO
100
AcDbSpline
 62
7
  6
CONTINUOUS
 70
0
 71
3
 72
9
 73
5
 74
0
 42
0.0000001
 43
0.0000001
 44
0.0000000001
 40
0.0
 40
0.0
 40
0.0
 40
0.0
 40
0.45414166
 40
1.0
 40
1.0
 40
1.0
 40
1.0
 10
4.2
 20
-10.871593482
 30
0.0
 10
4.2
 20
-10.8414043871
 30
0.0
 10
4.2197165962
 20
-10.772852824
 30
0.0
 10
4.281776086
 20
-10.7328745425
 30
0.0
 10
4.3170636125
 20
-10.7244210301
 30
0.0
  0
SPLINE
  5
3FF
100
AcDbEntity
  8
RACCORDO
100
AcDbSpline
 62
7
  6
CONTINUOUS
 70
0
 71
3
 72
8
 73
4
 74
0
 42
0.0000001
 43
0.0000001
 44
0.0000000001
 40
0.0
 40
0.0
 40
0.0
 40
0.0
 40
1.0
 40
1.0
 40
1.0
 40
1.0
 10
4.3170636125
 20
-10.7244210301
 30
0.0
 10
4.3278246547
 20
-10.7218431049
 30
0.0
 10
4.3389349016
 20
-10.7203695954
 30
0.0
 10
4.35
 20
-10.7202730281
 30
0.0
  0
SPLINE
  5
400
100
AcDbEntity
  8
RACCORDO
100
AcDbSpline
 62
250
  6
CONTINUOUS
 70
0
 71
3
 72
10
 73
6
 74
0
 42
0.0000001
 43
0.0000001
 44
0.0000000001
 40
0.0
 40
0.0
 40
0.0
 40
0.0
 40
0.5463251316
 40
0.7899485979
 40
1.0
 40
1.0
 40
1.0
 40
1.0
 10
-0.0
 20
-20.4563121438
 30
0.0
 10
0.7425386375
 20
-20.4563121438
 30
0.0
 10
1.8182891239
 20
-20.4011951201
 30
0.0
 10
3.1629026334
 20
-20.1980921344
 30
0.0
 10
3.7643294543
 20
-20.0563373654
 30
0.0
 10
4.0374554514
 20
-19.9732248429
 30
0.0
  0
SPLINE
  5
401
100
AcDbEntity
  8
RACCORDO
100
AcDbSpline
 62
250
  6
CONTINUOUS
 70
0
 71
3
 72
13
 73
9
 74
0
 42
0.0000001
 43
0.0000001
 44
0.0000000001
 40
0.0
 40
0.0
 40
0.0
 40
0.0
 40
0.3537063769
 40
0.6331673734
 40
0.7456201419
 40
0.8416421936
 40
0.9245740388
 40
1.0
 40
1.0
 40
1.0
 40
1.0
 10
4.0374554514
 20
-19.9732248429
 30
0.0
 10
4.2205346153
 20
-19.9175136645
 30
0.0
 10
4.5440752306
 20
-19.8034986049
 30
0.0
 10
4.9051501267
 20
-19.6170875386
 30
0.0
 10
5.1127978628
 20
-19.4526160315
 30
0.0
 10
5.2185256677
 20
-19.3342329061
 30
0.0
 10
5.2844710558
 20
-19.2115671704
 30
0.0
 10
5.2999999987
 20
-19.1253793923
 30
0.0
 10
5.3
 20
-19.0845712047
 30
0.0
  0
SPLINE
  5
402
100
AcDbEntity
  8
RACCORDO
100
AcDbSpline
 62
250
  6
CONTINUOUS
 70
0
 71
3
 72
9
 73
5
 74
0
 42
0.0000001
 43
0.0000001
 44
0.0000000001
 40
0.0
 40
0.0
 40
0.0
 40
0.0
 40
0.5295965763
 40
1.0
 40
1.0
 40
1.0
 40
1.0
 10
-0.0
 20
-19.2030484312
 30
0.0
 10
0.6904690557
 20
-19.2030484312
 30
0.0
 10
1.9946321325
 20
-19.1464694671
 30
0.0
 10
3.2896093089
 20
-18.9668474482
 30
0.0
 10
3.8889340527
 20
-18.8366906832
 30
0.0
  0
SPLINE
  5
403
100
AcDbEntity
  8
RACCORDO
100
AcDbSpline
 62
250
  6
CONTINUOUS
 70
0
 71
3
 72
9
 73
5
 74
0
 42
0.0000001
 43
0.0000001
 44
0.0000000001
 40
0.0
 40
0.0
 40
0.0
 40
0.0
 40
0.539870468
 40
1.0
 40
1.0
 40
1.0
 40
1.0
 10
4.1150875109
 20
-18.7850361167
 30
0.0
 10
4.3231702983
 20
-18.7350643902
 30
0.0
 10
4.7058483195
 20
-18.6304131945
 30
0.0
 10
5.0784868875
 20
-18.4925818119
 30
0.0
 10
5.2448047019
 20
-18.4177171066
 30
0.0
  0
SPLINE
  5
404
100
AcDbEntity
  8
RACCORDO
100
AcDbSpline
 62
250
  6
CONTINUOUS
 70
0
 71
3
 72
11
 73
7
 74
0
 42
0.0000001
 43
0.0000001
 44
0.0000000001
 40
0.0
 40
0.0
 40
0.0
 40
0.0
 40
0.3349294027
 40
0.60606649
 40
0.8209824767
 40
1.0
 40
1.0
 40
1.0
 40
1.0
 10
5.2448047019
 20
-18.4177171066
 30
0.0
 10
5.3642766343
 20
-18.3639391573
 30
0.0
 10
5.5761762608
 20
-18.2558223787
 30
0.0
 10
5.8368766731
 20
-18.0652533958
 30
0.0
 10
6.0063056698
 20
-17.8621664985
 30
0.0
 10
6.0499920726
 20
-17.7072212362
 30
0.0
 10
6.0499920741
 20
-17.6371932083
 30
0.0
  0
SPLINE
  5
405
100
AcDbEntity
  8
RACCORDO
100
AcDbSpline
 62
250
  6
CONTINUOUS
 70
0
 71
3
 72
10
 73
6
 74
0
 42
0.0000001
 43
0.0000001
 44
0.0000000001
 40
0.0
 40
0.0
 40
0.0
 40
0.0
 40
0.5442712557
 40
0.7882088626
 40
1.0
 40
1.0
 40
1.0
 40
1.0
 10
-0.0
 20
-17.9345862103
 30
0.0
 10
0.9199229312
 20
-17.9345862103
 30
0.0
 10
2.2545841113
 20
-17.867361823
 30
0.0
 10
3.9275542142
 20
-17.6208192177
 30
0.0
 10
4.6798534056
 20
-17.4486989554
 30
0.0
 10
5.0233565182
 20
-17.3479692263
 30
0.0
  0
SPLINE
  5
406
100
AcDbEntity
  8
RACCORDO
100
AcDbSpline
 62
250
  6
CONTINUOUS
 70
0
 71
3
 72
9
 73
5
 74
0
 42
0.0000001
 43
0.0000001
 44
0.0000000001
 40
0.0
 40
0.0
 40
0.0
 40
0.0
 40
0.2778188803
 40
1.0
 40
1.0
 40
1.0
 40
1.0
 10
5.0233565182
 20
-17.3479692263
 30
0.0
 10
5.1126594103
 20
-17.3217818184
 30
0.0
 10
5.432356261
 20
-17.222146419
 30
0.0
 10
5.7462726899
 20
-17.1005973623
 30
0.0
 10
5.9622226753
 20
-16.9915627859
 30
0.0
  0
SPLINE
  5
407
100
AcDbEntity
  8
RACCORDO
100
AcDbSpline
 62
250
  6
CONTINUOUS
 70
0
 71
3
 72
11
 73
7
 74
0
 42
0.0000001
 43
0.0000001
 44
0.0000000001
 40
0.0
 40
0.0
 40
0.0
 40
0.0
 40
0.3278970403
 40
0.5964200008
 40
0.8139912092
 40
1.0
 40
1.0
 40
1.0
 40
1.0
 10
5.9622226753
 20
-16.9915627859
 30
0.0
 10
6.0724721066
 20
-16.9358971186
 30
0.0
 10
6.2682617319
 20
-16.8241334263
 30
0.0
 10
6.5076143723
 20
-16.6295828609
 30
0.0
 10
6.6615146339
 20
-16.4235710585
 30
0.0
 10
6.6999913049
 20
-16.2705605551
 30
0.0
 10
6.6999913058
 20
-16.2004986082
 30
0.0
  0
SPLINE
  5
408
100
AcDbEntity
  8
RACCORDO
100
AcDbSpline
 62
250
  6
CONTINUOUS
 70
0
 71
3
 72
10
 73
6
 74
0
 42
0.0000001
 43
0.0000001
 44
0.0000000001
 40
0.0
 40
0.0
 40
0.0
 40
0.0
 40
0.1194676475
 40
0.316054185
 40
1.0
 40
1.0
 40
1.0
 40
1.0
 10
16.2498585234
 20
5.0872236526
 30
0.0
 10
16.2507094304
 20
5.0800419071
 30
0.0
 10
16.2403607177
 20
5.0611661439
 30
0.0
 10
16.1901022082
 20
5.027847923
 30
0.0
 10
16.1395973069
 20
5.0083796582
 30
0.0
 10
16.1004757773
 20
4.9948264944
 30
0.0
  0
SPLINE
  5
409
100
AcDbEntity
  8
RACCORDO
100
AcDbSpline
 62
250
  6
CONTINUOUS
 70
0
 71
3
 72
9
 73
5
 74
0
 42
0.0000001
 43
0.0000001
 44
0.0000000001
 40
0.0
 40
0.0
 40
0.0
 40
0.0
 40
0.4757878797
 40
1.0
 40
1.0
 40
1.0
 40
1.0
 10
3.6494731048
 20
-18.2157327317
 30
0.0
 10
3.078278462
 20
-18.3246467633
 30
0.0
 10
1.8632071868
 20
-18.4776221537
 30
0.0
 10
0.6406675114
 20
-18.5261158057
 30
0.0
 10
-0.0
 20
-18.5261158057
 30
0.0
  0
SPLINE
  5
40A
100
AcDbEntity
  8
RACCORDO
100
AcDbSpline
 62
250
  6
CONTINUOUS
 70
0
 71
3
 72
9
 73
5
 74
0
 42
0.0000001
 43
0.0000001
 44
0.0000000001
 40
0.0
 40
0.0
 40
0.0
 40
0.0
 40
0.2469984083
 40
1.0
 40
1.0
 40
1.0
 40
1.0
 10
1.713361231
 20
-15.1273122083
 30
0.0
 10
1.5729299022
 20
-15.1432247326
 30
0.0
 10
1.0034891342
 20
-15.1995692143
 30
0.0
 10
0.4308598944
 20
-15.2234603172
 30
0.0
 10
-0.0
 20
-15.2235020593
 30
0.0
  0
SPLINE
  5
40B
100
AcDbEntity
  8
RACCORDO
100
AcDbSpline
 62
250
  6
CONTINUOUS
 70
0
 71
3
 72
11
 73
7
 74
0
 42
0.0000001
 43
0.0000001
 44
0.0000000001
 40
0.0
 40
0.0
 40
0.0
 40
0.0
 40
0.1778219039
 40
0.4050428125
 40
0.6805889463
 40
1.0
 40
1.0
 40
1.0
 40
1.0
 10
5.8234141659
 20
-17.4956799582
 30
0.0
 10
5.7228033329
 20
-17.5881604399
 30
0.0
 10
5.4595504525
 20
-17.7606326532
 30
0.0
 10
4.9800510382
 20
-17.9716199368
 30
0.0
 10
4.3763568777
 20
-18.1617720793
 30
0.0
 10
3.9303712273
 20
-18.2641827117
 30
0.0
 10
3.6896305709
 20
-18.312131468
 30
0.0
  0
SPLINE
  5
40C
100
AcDbEntity
  8
RACCORDO
100
AcDbSpline
 62
250
  6
CONTINUOUS
 70
0
 71
3
 72
9
 73
5
 74
0
 42
0.0000001
 43
0.0000001
 44
0.0000000001
 40
0.0
 40
0.0
 40
0.0
 40
0.0
 40
0.4741068071
 40
1.0
 40
1.0
 40
1.0
 40
1.0
 10
3.6896305709
 20
-18.312131468
 30
0.0
 10
3.1149105431
 20
-18.4265995058
 30
0.0
 10
1.8864363988
 20
-18.5864590937
 30
0.0
 10
0.6500179122
 20
-18.6370276048
 30
0.0
 10
-0.0
 20
-18.6370276048
 30
0.0
  0
SPLINE
  5
40D
100
AcDbEntity
  8
RACCORDO
100
AcDbSpline
 62
250
  6
CONTINUOUS
 70
0
 71
3
 72
13
 73
9
 74
0
 42
0.0000001
 43
0.0000001
 44
0.0000000001
 40
0.0
 40
0.0
 40
0.0
 40
0.0
 40
0.0738231253
 40
0.165810129
 40
0.2751309301
 40
0.3999920798
 40
0.686075461
 40
1.0
 40
1.0
 40
1.0
 40
1.0
 10
5.0098730442
 20
-18.9818809107
 30
0.0
 10
4.908482647
 20
-19.0579030856
 30
0.0
 10
4.6590305616
 20
-19.1991592733
 30
0.0
 10
4.2192737012
 20
-19.373156866
 30
0.0
 10
3.6806433984
 20
-19.5287206956
 30
0.0
 10
2.8065336227
 20
-19.7144077797
 30
0.0
 10
1.5692136731
 20
-19.8659807758
 30
0.0
 10
0.538886465
 20
-19.9059979441
 30
0.0
 10
-0.0
 20
-19.9059979441
 30
0.0
  0
LINE
  5
40E
100
AcDbEntity
  8
RACCORDO
100
AcDbLine
 62
7
  6
CONTINUOUS
 10
5.75
 20
19.7084688026
 11
5.7499747841
 21
19.7638604756
  0
SPLINE
  5
40F
100
AcDbEntity
  8
RACCORDO
100
AcDbSpline
 62
7
  6
CONTINUOUS
 70
0
 71
3
 72
16
 73
12
 74
0
 42
0.0000001
 43
0.0000001
 44
0.0000000001
 40
0.0
 40
0.0
 40
0.0
 40
0.0
 40
0.4013816457
 40
0.5732483417
 40
0.7205804473
 40
0.8396999012
 40
0.9275037059
 40
0.9587844925
 40
0.9813822835
 40
0.9951529499
 40
1.0
 40
1.0
 40
1.0
 40
1.0
 10
5.7496247633
 20
19.9182625311
 30
0.0
 10
5.749475096
 20
19.9581355563
 30
0.0
 10
5.7491980143
 20
20.0150878303
 30
0.0
 10
5.7486158028
 20
20.0866535504
 30
0.0
 10
5.7481824215
 20
20.1302268097
 30
0.0
 10
5.7476103117
 20
20.1653252917
 30
0.0
 10
5.7472854551
 20
20.1891774698
 30
0.0
 10
5.7466579009
 20
20.2029800222
 30
0.0
 10
5.7467131562
 20
20.2101414094
 30
0.0
 10
5.7458483919
 20
20.2134221497
 30
0.0
 10
5.7462794836
 20
20.2161239291
 30
0.0
 10
5.7458060707
 20
20.2162118433
 30
0.0
  0
SPLINE
  5
410
100
AcDbEntity
  8
RACCORDO
100
AcDbSpline
 62
250
  6
CONTINUOUS
 70
0
 71
3
 72
8
 73
4
 74
0
 42
0.0000001
 43
0.0000001
 44
0.0000000001
 40
0.0
 40
0.0
 40
0.0
 40
0.0
 40
1.0
 40
1.0
 40
1.0
 40
1.0
 10
15.5135922476
 20
11.6095319077
 30
0.0
 10
15.5820194444
 20
11.4884740198
 30
0.0
 10
15.6197061399
 20
11.3451375137
 30
0.0
 10
15.6197116385
 20
11.2060789166
 30
0.0
  0
SPLINE
  5
411
100
AcDbEntity
  8
RACCORDO
100
AcDbSpline
 62
7
  6
CONTINUOUS
 70
0
 71
3
 72
16
 73
12
 74
0
 42
0.0000001
 43
0.0000001
 44
0.0000000001
 40
0.0
 40
0.0
 40
0.0
 40
0.0
 40
0.0048470501
 40
0.0186177165
 40
0.0412155075
 40
0.0724962941
 40
0.1603000988
 40
0.2794195527
 40
0.4267516583
 40
0.5986183543
 40
1.0
 40
1.0
 40
1.0
 40
1.0
 10
5.7458060707
 20
-14.5323217392
 30
0.0
 10
5.7462794836
 20
-14.532233825
 30
0.0
 10
5.7458483919
 20
-14.5295320456
 30
0.0
 10
5.7467131562
 20
-14.5262513054
 30
0.0
 10
5.7466579009
 20
-14.5190899181
 30
0.0
 10
5.7472854551
 20
-14.5052873657
 30
0.0
 10
5.7476103117
 20
-14.4814351877
 30
0.0
 10
5.7481824215
 20
-14.4463367056
 30
0.0
 10
5.7486158028
 20
-14.4027634464
 30
0.0
 10
5.7491980143
 20
-14.3311977262
 30
0.0
 10
5.749475096
 20
-14.2742454522
 30
0.0
 10
5.7496247633
 20
-14.234372427
 30
0.0
  0
SPLINE
  5
412
100
AcDbEntity
  8
RACCORDO
100
AcDbSpline
 62
250
  6
CONTINUOUS
 70
0
 71
3
 72
8
 73
4
 74
0
 42
0.0000001
 43
0.0000001
 44
0.0000000001
 40
0.0
 40
0.0
 40
0.0
 40
0.0
 40
1.0
 40
1.0
 40
1.0
 40
1.0
 10
15.5135922478
 20
-5.9256418037
 30
0.0
 10
15.5820064935
 20
-5.8045765964
 30
0.0
 10
15.6197542231
 20
-5.6612474034
 30
0.0
 10
15.6197116387
 20
-5.5221888128
 30
0.0
  0
SPLINE
  5
413
100
AcDbEntity
  8
RACCORDO
100
AcDbSpline
 62
250
  6
CONTINUOUS
 70
0
 71
3
 72
10
 73
6
 74
0
 42
0.0000001
 43
0.0000001
 44
0.0000000001
 40
0.0
 40
0.0
 40
0.0
 40
0.0
 40
0.1194417945
 40
0.3159944103
 40
1.0
 40
1.0
 40
1.0
 40
1.0
 10
16.2497402869
 20
0.5966747254
 30
0.0
 10
16.2506000034
 20
0.6038497452
 30
0.0
 10
16.2402760857
 20
0.62272483
 30
0.0
 10
16.1900492637
 20
0.6560351619
 30
0.0
 10
16.1395754671
 20
0.6755000132
 30
0.0
 10
16.1004740258
 20
0.6890509938
 30
0.0
  0
SPLINE
  5
414
100
AcDbEntity
  8
0
100
AcDbSpline
 62
7
  6
CONTINUOUS
 70
0
 71
3
 72
15
 73
11
 74
0
 42
0.0000001
 43
0.0000001
 44
0.0000000001
 40
0.0
 40
0.0
 40
0.0
 40
0.0
 40
0.0791654732
 40
0.1194853435
 40
0.160415553
 40
0.2692267831
 40
0.3748093685
 40
0.5807459632
 40
0.786682558
 40
1.0
 40
1.0
 40
1.0
 40
1.0
 10
-10.1812747013
 20
-5.5566608332
 30
0.0
 10
-10.2106430808
 20
-5.4611920673
 30
0.0
 10
-10.2443324645
 20
-5.3135082617
 30
0.0
 10
-10.2670868272
 20
-5.1122469768
 30
0.0
 10
-10.2760976241
 20
-4.8724516916
 30
0.0
 10
-10.2437711856
 20
-4.5493938232
 30
0.0
 10
-10.0859745354
 20
-4.0400742205
 30
0.0
 10
-9.7108838348
 20
-3.4841411692
 30
0.0
 10
-9.042147187
 20
-3.0318291705
 30
0.0
 10
-8.5067431712
 20
-2.9247208862
 30
0.0
 10
-8.237598426
 20
-2.9247208862
 30
0.0
  0
SPLINE
  5
415
100
AcDbEntity
  8
0
100
AcDbSpline
 62
7
  6
CONTINUOUS
 70
0
 71
3
 72
19
 73
15
 74
0
 42
0.0000001
 43
0.0000001
 44
0.0000000001
 40
0.0
 40
0.0
 40
0.0
 40
0.0
 40
0.1815123459
 40
0.3567442887
 40
0.4444469834
 40
0.5327915734
 40
0.6226320824
 40
0.6685430334
 40
0.7153380486
 40
0.7523395529
 40
0.7887619738
 40
0.8602220603
 40
0.9304650535
 40
1.0
 40
1.0
 40
1.0
 40
1.0
 10
-8.237598426
 20
-1.9080549495
 30
0.0
 10
-8.6413153961
 20
-1.9080549495
 30
0.0
 10
-9.4440708004
 20
-2.0680056169
 30
0.0
 10
-10.28340764
 20
-2.6374387525
 30
0.0
 10
-10.7830666035
 20
-3.2433051563
 30
0.0
 10
-11.0672593136
 20
-3.7662328638
 30
0.0
 10
-11.2159908339
 20
-4.2456772556
 30
0.0
 10
-11.2772350411
 20
-4.6476202684
 30
0.0
 10
-11.2917325292
 20
-4.9362784878
 30
0.0
 10
-11.281114997
 20
-5.2037350051
 30
0.0
 10
-11.2426929457
 20
-5.5239693771
 30
0.0
 10
-11.1488811503
 20
-5.9107509845
 30
0.0
 10
-10.9676186141
 20
-6.3461075061
 30
0.0
 10
-10.8048641244
 20
-6.6126683039
 30
0.0
 10
-10.7144995977
 20
-6.7381813402
 30
0.0
  0
SPLINE
  5
416
100
AcDbEntity
  8
0
100
AcDbSpline
 62
7
  6
CONTINUOUS
 70
0
 71
3
 72
9
 73
5
 74
0
 42
0.0000001
 43
0.0000001
 44
0.0000000001
 40
0.0
 40
0.0
 40
0.0
 40
0.0
 40
0.4911977691
 40
1.0
 40
1.0
 40
1.0
 40
1.0
 10
-10.0005449871
 20
-7.4472357152
 30
0.0
 10
-9.7505176606
 20
-7.624637381
 30
0.0
 10
-9.1835487886
 20
-7.9106211606
 30
0.0
 10
-8.5551556002
 20
-8.008054948
 30
0.0
 10
-8.237598426
 20
-8.008054948
 30
0.0
  0
SPLINE
  5
417
100
AcDbEntity
  8
0
100
AcDbSpline
 62
7
  6
CONTINUOUS
 70
0
 71
3
 72
9
 73
5
 74
0
 42
0.0000001
 43
0.0000001
 44
0.0000000001
 40
0.0
 40
0.0
 40
0.0
 40
0.0
 40
0.5089223582
 40
1.0
 40
1.0
 40
1.0
 40
1.0
 10
-8.237598426
 20
-6.9913879167
 30
0.0
 10
-8.4782777577
 20
-6.9913879167
 30
0.0
 10
-8.955398267
 20
-6.9069197218
 30
0.0
 10
-9.3721002129
 20
-6.6615618686
 30
0.0
 10
-9.549466843
 20
-6.5116393153
 30
0.0
  0
SPLINE
  5
418
100
AcDbEntity
  8
0
100
AcDbSpline
 62
7
  6
CONTINUOUS
 70
0
 71
3
 72
21
 73
17
 74
0
 42
0.0000001
 43
0.0000001
 44
0.0000000001
 40
0.0
 40
0.0
 40
0.0
 40
0.0
 40
0.1197353251
 40
0.1811702111
 40
0.2125102657
 40
0.2444009651
 40
0.3074445176
 40
0.3686174419
 40
0.4879339321
 40
0.6072504223
 40
0.6684233466
 40
0.7314668991
 40
0.7945104516
 40
0.8556833759
 40
0.9749998661
 40
1.0
 40
1.0
 40
1.0
 40
1.0
 10
-9.3189546988
 20
-6.0335280929
 30
0.0
 10
-9.1806741803
 20
-6.1718086114
 30
0.0
 10
-8.9276066744
 20
-6.3427555655
 30
0.0
 10
-8.5946064171
 20
-6.4466353686
 30
0.0
 10
-8.3930134006
 20
-6.47778362
 30
0.0
 10
-8.1867597425
 20
-6.488298992
 30
0.0
 10
-7.9311118337
 20
-6.4626856248
 30
0.0
 10
-7.5491074798
 20
-6.3442838034
 30
0.0
 10
-7.1321701062
 20
-6.0634737717
 30
0.0
 10
-6.8513730525
 20
-5.6465711452
 30
0.0
 10
-6.7329632539
 20
-5.2644962499
 30
0.0
 10
-6.7022598977
 20
-4.9580549892
 30
0.0
 10
-6.7329741836
 20
-4.6516134882
 30
0.0
 10
-6.8513141768
 20
-4.2695395121
 30
0.0
 10
-7.0441343394
 20
-3.9837862827
 30
0.0
 10
-7.2185043564
 20
-3.8227269925
 30
0.0
 10
-7.2497793789
 20
-3.7960931467
 30
0.0
  0
SPLINE
  5
419
100
AcDbEntity
  8
0
100
AcDbSpline
 62
7
  6
CONTINUOUS
 70
0
 71
3
 72
11
 73
7
 74
0
 42
0.0000001
 43
0.0000001
 44
0.0000000001
 40
0.0
 40
0.0
 40
0.0
 40
0.0
 40
0.2578827675
 40
0.5069400573
 40
0.753099973
 40
1.0
 40
1.0
 40
1.0
 40
1.0
 10
-8.237598426
 20
-3.4330549491
 30
0.0
 10
-8.3875211537
 20
-3.4330549491
 30
0.0
 10
-8.6842124588
 20
-3.4765108765
 30
0.0
 10
-9.0855430698
 20
-3.6656896798
 30
0.0
 10
-9.4131202875
 20
-3.9547977033
 30
0.0
 10
-9.5692665571
 20
-4.20057401
 30
0.0
 10
-9.6283121059
 20
-4.3314072134
 30
0.0
  0
SPLINE
  5
41A
100
AcDbEntity
  8
0
100
AcDbSpline
 62
7
  6
CONTINUOUS
 70
0
 71
3
 72
14
 73
10
 74
0
 42
0.0000001
 43
0.0000001
 44
0.0000000001
 40
0.0
 40
0.0
 40
0.0
 40
0.0
 40
0.0714327663
 40
0.1403990094
 40
0.2953599924
 40
0.5296764681
 40
0.7323168775
 40
0.9228551289
 40
1.0
 40
1.0
 40
1.0
 40
1.0
 10
4.0763013719
 20
-5.2920836715
 30
0.0
 10
4.086982151
 20
-5.2920836715
 30
0.0
 10
4.1079564551
 20
-5.2938365167
 30
0.0
 10
4.1516299244
 20
-5.3007422742
 30
0.0
 10
4.2165882945
 20
-5.324778441
 30
0.0
 10
4.291055691
 20
-5.3731083353
 30
0.0
 10
4.3697572307
 20
-5.4240536048
 30
0.0
 10
4.436947404
 20
-5.4491770186
 30
0.0
 10
4.4770825674
 20
-5.4519242589
 30
0.0
 10
4.4886174326
 20
-5.4519242589
 30
0.0
  0
SPLINE
  5
41B
100
AcDbEntity
  8
0
100
AcDbSpline
 62
7
  6
CONTINUOUS
 70
0
 71
3
 72
13
 73
9
 74
0
 42
0.0000001
 43
0.0000001
 44
0.0000000001
 40
0.0
 40
0.0
 40
0.0
 40
0.0
 40
0.1280421218
 40
0.24919987
 40
0.4072933501
 40
0.6543072319
 40
0.826307814
 40
1.0
 40
1.0
 40
1.0
 40
1.0
 10
4.4886174326
 20
-5.4519242589
 30
0.0
 10
4.5025183034
 20
-5.4519242589
 30
0.0
 10
4.5295767107
 20
-5.4483923932
 30
0.0
 10
4.5719837798
 20
-5.4347280453
 30
0.0
 10
4.6198686314
 20
-5.402254298
 30
0.0
 10
4.6620879031
 20
-5.3551730839
 30
0.0
 10
4.6971297669
 20
-5.3011664845
 30
0.0
 10
4.7165324829
 20
-5.2690409354
 30
0.0
 10
4.7261986972
 20
-5.252850026
 30
0.0
  0
SPLINE
  5
41C
100
AcDbEntity
  8
0
100
AcDbSpline
 62
7
  6
CONTINUOUS
 70
0
 71
3
 72
10
 73
6
 74
0
 42
0.0000001
 43
0.0000001
 44
0.0000000001
 40
0.0
 40
0.0
 40
0.0
 40
0.0
 40
0.3058731042
 40
0.6105200327
 40
1.0
 40
1.0
 40
1.0
 40
1.0
 10
4.6579038472
 20
-5.0443294937
 30
0.0
 10
4.652272863
 20
-5.0545015888
 30
0.0
 10
4.6410896411
 20
-5.0748303202
 30
0.0
 10
4.6224048555
 20
-5.1079621932
 30
0.0
 10
4.6082175552
 20
-5.1301605136
 30
0.0
 10
4.5995001057
 20
-5.1421508973
 30
0.0
  0
SPLINE
  5
41D
100
AcDbEntity
  8
0
100
AcDbSpline
 62
7
  6
CONTINUOUS
 70
0
 71
3
 72
11
 73
7
 74
0
 42
0.0000001
 43
0.0000001
 44
0.0000000001
 40
0.0
 40
0.0
 40
0.0
 40
0.0
 40
0.1587168225
 40
0.595949377
 40
0.7952407139
 40
1.0
 40
1.0
 40
1.0
 40
1.0
 10
4.5995001057
 20
-5.1421508973
 30
0.0
 10
4.5953021974
 20
-5.1479248948
 30
0.0
 10
4.5788809126
 20
-5.1691999695
 30
0.0
 10
4.552881753
 20
-5.1951111575
 30
0.0
 10
4.5177564614
 20
-5.2099035127
 30
0.0
 10
4.4996311675
 20
-5.2132532
 30
0.0
 10
4.4904338029
 20
-5.2132532
 30
0.0
  0
SPLINE
  5
41E
100
AcDbEntity
  8
0
100
AcDbSpline
 62
7
  6
CONTINUOUS
 70
0
 71
3
 72
13
 73
9
 74
0
 42
0.0000001
 43
0.0000001
 44
0.0000000001
 40
0.0
 40
0.0
 40
0.0
 40
0.0
 40
0.1345694109
 40
0.3030713837
 40
0.463210334
 40
0.7157783978
 40
0.8649137229
 40
1.0
 40
1.0
 40
1.0
 40
1.0
 10
4.4904338029
 20
-5.2132532
 30
0.0
 10
4.4707558058
 20
-5.2132532
 30
0.0
 10
4.4272293895
 20
-5.1992564001
 30
0.0
 10
4.3679432415
 20
-5.1672065725
 30
0.0
 10
4.2938757865
 20
-5.1253973969
 30
0.0
 10
4.2211247878
 20
-5.086760939
 30
0.0
 10
4.1469592104
 20
-5.0606292931
 30
0.0
 10
4.1055000756
 20
-5.0534126126
 30
0.0
 10
4.0857464975
 20
-5.0534126126
 30
0.0
  0
SPLINE
  5
41F
100
AcDbEntity
  8
0
100
AcDbSpline
 62
7
  6
CONTINUOUS
 70
0
 71
3
 72
13
 73
9
 74
0
 42
0.0000001
 43
0.0000001
 44
0.0000000001
 40
0.0
 40
0.0
 40
0.0
 40
0.0
 40
0.0927729079
 40
0.2643731927
 40
0.4670990472
 40
0.6707029982
 40
0.8364062762
 40
1.0
 40
1.0
 40
1.0
 40
1.0
 10
4.0857464975
 20
-5.0534126126
 30
0.0
 10
4.0755489086
 20
-5.0534126126
 30
0.0
 10
4.0465068329
 20
-5.0555618858
 30
0.0
 10
3.9961310359
 20
-5.0689896695
 30
0.0
 10
3.9430039461
 20
-5.1058426091
 30
0.0
 10
3.9011258149
 20
-5.153265827
 30
0.0
 10
3.8704790637
 20
-5.2034474055
 30
0.0
 10
3.8557159957
 20
-5.2365307582
 30
0.0
 10
3.8481649561
 20
-5.2528507312
 30
0.0
  0
SPLINE
  5
420
100
AcDbEntity
  8
0
100
AcDbSpline
 62
7
  6
CONTINUOUS
 70
0
 71
3
 72
11
 73
7
 74
0
 42
0.0000001
 43
0.0000001
 44
0.0000000001
 40
0.0
 40
0.0
 40
0.0
 40
0.0
 40
0.1761588349
 40
0.3534179492
 40
0.7082866537
 40
1.0
 40
1.0
 40
1.0
 40
1.0
 10
3.9168244531
 20
-5.4613683802
 30
0.0
 10
3.9194883299
 20
-5.4545875987
 30
0.0
 10
3.9248039973
 20
-5.4409758887
 30
0.0
 10
3.935688176
 20
-5.4137592839
 30
0.0
 10
3.951313277
 20
-5.3834778484
 30
0.0
 10
3.9657023648
 20
-5.3606832133
 30
0.0
 10
3.972956075
 20
-5.3510113447
 30
0.0
  0
SPLINE
  5
421
100
AcDbEntity
  8
0
100
AcDbSpline
 62
7
  6
CONTINUOUS
 70
0
 71
3
 72
10
 73
6
 74
0
 42
0.0000001
 43
0.0000001
 44
0.0000000001
 40
0.0
 40
0.0
 40
0.0
 40
0.0
 40
0.2112400531
 40
0.6034106389
 40
1.0
 40
1.0
 40
1.0
 40
1.0
 10
3.972956075
 20
-5.3510113447
 30
0.0
 10
3.9781532807
 20
-5.3440815543
 30
0.0
 10
3.9941164404
 20
-5.325184245
 30
0.0
 10
4.0274976229
 20
-5.3001782145
 30
0.0
 10
4.0600730973
 20
-5.2920836715
 30
0.0
 10
4.0763013719
 20
-5.2920836715
 30
0.0
  0
SPLINE
  5
422
100
AcDbEntity
  8
0
100
AcDbSpline
 62
7
  6
CONTINUOUS
 70
0
 71
3
 72
13
 73
9
 74
0
 42
0.0000001
 43
0.0000001
 44
0.0000000001
 40
0.0
 40
0.0
 40
0.0
 40
0.0
 40
0.1856479259
 40
0.4427973682
 40
0.6049969334
 40
0.7707561477
 40
0.8970169567
 40
1.0
 40
1.0
 40
1.0
 40
1.0
 10
3.6047832162
 20
-5.04049912
 30
0.0
 10
3.6047832162
 20
-4.9692979777
 30
0.0
 10
3.5982842541
 20
-4.799618764
 30
0.0
 10
3.5686449611
 20
-4.5680342548
 30
0.0
 10
3.4918947129
 20
-4.3553021879
 30
0.0
 10
3.3769922735
 20
-4.215642048
 30
0.0
 10
3.2347477669
 20
-4.1535525143
 30
0.0
 10
3.1466190474
 20
-4.1426211782
 30
0.0
 10
3.1071221864
 20
-4.1426211782
 30
0.0
  0
SPLINE
  5
423
100
AcDbEntity
  8
0
100
AcDbSpline
 62
7
  6
CONTINUOUS
 70
0
 71
3
 72
14
 73
10
 74
0
 42
0.0000001
 43
0.0000001
 44
0.0000000001
 40
0.0
 40
0.0
 40
0.0
 40
0.0
 40
0.0352191342
 40
0.1029219007
 40
0.1983527216
 40
0.2939909865
 40
0.5145961338
 40
0.7563515445
 40
1.0
 40
1.0
 40
1.0
 40
1.0
 10
3.1071221864
 20
-4.1426211782
 30
0.0
 10
3.0936180824
 20
-4.1426211782
 30
0.0
 10
3.0542628193
 20
-4.1466653159
 30
0.0
 10
2.9789089337
 20
-4.1566378936
 30
0.0
 10
2.8835593128
 20
-4.1905051358
 30
0.0
 10
2.7617869357
 20
-4.2952745385
 30
0.0
 10
2.6636920828
 20
-4.4930147325
 30
0.0
 10
2.6164485857
 20
-4.7606641967
 30
0.0
 10
2.6098478397
 20
-4.9470767759
 30
0.0
 10
2.6098478397
 20
-5.04049912
 30
0.0
  0
SPLINE
  5
424
100
AcDbEntity
  8
0
100
AcDbSpline
 62
7
  6
CONTINUOUS
 70
0
 71
3
 72
14
 73
10
 74
0
 42
0.0000001
 43
0.0000001
 44
0.0000000001
 40
0.0
 40
0.0
 40
0.0
 40
0.0
 40
0.1850879033
 40
0.2954786164
 40
0.4852756959
 40
0.6744966508
 40
0.8331073612
 40
0.9296647263
 40
1.0
 40
1.0
 40
1.0
 40
1.0
 10
2.6098478397
 20
-5.04049912
 30
0.0
 10
2.6098478397
 20
-5.1115714613
 30
0.0
 10
2.6140069271
 20
-5.2250662472
 30
0.0
 10
2.6330169843
 20
-5.4106411882
 30
0.0
 10
2.6714271167
 20
-5.5945597509
 30
0.0
 10
2.7554723654
 20
-5.7891299453
 30
0.0
 10
2.8950979496
 20
-5.8987385378
 30
0.0
 10
3.0157465674
 20
-5.9368021765
 30
0.0
 10
3.0801139785
 20
-5.9403104768
 30
0.0
 10
3.1071221864
 20
-5.9403104768
 30
0.0
  0
SPLINE
  5
425
100
AcDbEntity
  8
0
100
AcDbSpline
 62
7
  6
CONTINUOUS
 70
0
 71
3
 72
13
 73
9
 74
0
 42
0.0000001
 43
0.0000001
 44
0.0000000001
 40
0.0
 40
0.0
 40
0.0
 40
0.0
 40
0.1028854479
 40
0.2291659425
 40
0.3952737717
 40
0.6046312464
 40
0.8148635236
 40
1.0
 40
1.0
 40
1.0
 40
1.0
 10
3.1071221864
 20
-5.9403104768
 30
0.0
 10
3.1466190474
 20
-5.9403104768
 30
0.0
 10
3.2348343247
 20
-5.9294535516
 30
0.0
 10
3.3771091969
 20
-5.8667531304
 30
0.0
 10
3.5038498039
 20
-5.7120625649
 30
0.0
 10
3.5694369585
 20
-5.4938537046
 30
0.0
 10
3.5994631631
 20
-5.2634917997
 30
0.0
 10
3.6047832162
 20
-5.1115714613
 30
0.0
 10
3.6047832162
 20
-5.04049912
 30
0.0
  0
SPLINE
  5
426
100
AcDbEntity
  8
0
100
AcDbSpline
 62
7
  6
CONTINUOUS
 70
0
 71
3
 72
14
 73
10
 74
0
 42
0.0000001
 43
0.0000001
 44
0.0000000001
 40
0.0
 40
0.0
 40
0.0
 40
0.0
 40
0.2834028275
 40
0.4539271409
 40
0.6746867381
 40
0.8239194675
 40
0.8975057799
 40
0.9468330802
 40
1.0
 40
1.0
 40
1.0
 40
1.0
 10
2.9010201438
 20
-5.04049912
 30
0.0
 10
2.9010201438
 20
-4.9728173193
 30
0.0
 10
2.9016723728
 20
-4.8642852654
 30
0.0
 10
2.9142809965
 20
-4.7037104631
 30
0.0
 10
2.9317901383
 20
-4.5752060729
 30
0.0
 10
2.9779769639
 20
-4.4766106625
 30
0.0
 10
3.029069369
 20
-4.4332331465
 30
0.0
 10
3.0699687321
 20
-4.4213160761
 30
0.0
 10
3.0944249494
 20
-4.4187128451
 30
0.0
 10
3.1071221864
 20
-4.4187128451
 30
0.0
  0
SPLINE
  5
427
100
AcDbEntity
  8
0
100
AcDbSpline
 62
7
  6
CONTINUOUS
 70
0
 71
3
 72
14
 73
10
 74
0
 42
0.0000001
 43
0.0000001
 44
0.0000000001
 40
0.0
 40
0.0
 40
0.0
 40
0.0
 40
0.0531286742
 40
0.1024204909
 40
0.2014589346
 40
0.3259305922
 40
0.546432472
 40
0.783696216
 40
1.0
 40
1.0
 40
1.0
 40
1.0
 10
3.1071221864
 20
-4.4187128451
 30
0.0
 10
3.1198194234
 20
-4.4187128451
 30
0.0
 10
3.1443031201
 20
-4.4212730396
 30
0.0
 10
3.1909766272
 20
-4.4351592553
 30
0.0
 10
3.2409733181
 20
-4.481883909
 30
0.0
 10
3.2828413952
 20
-4.5810112031
 30
0.0
 10
3.3026046562
 20
-4.7196412711
 30
0.0
 10
3.3118275126
 20
-4.8803592576
 30
0.0
 10
3.313610912
 20
-4.9888046169
 30
0.0
 10
3.313610912
 20
-5.04049912
 30
0.0
  0
SPLINE
  5
428
100
AcDbEntity
  8
0
100
AcDbSpline
 62
7
  6
CONTINUOUS
 70
0
 71
3
 72
13
 73
9
 74
0
 42
0.0000001
 43
0.0000001
 44
0.0000000001
 40
0.0
 40
0.0
 40
0.0
 40
0.0
 40
0.2157397901
 40
0.4010006197
 40
0.6351243765
 40
0.7990235885
 40
0.8982798778
 40
1.0
 40
1.0
 40
1.0
 40
1.0
 10
3.313610912
 20
-5.04049912
 30
0.0
 10
3.313610912
 20
-5.0921291857
 30
0.0
 10
3.3116515475
 20
-5.1880492935
 30
0.0
 10
3.3052732906
 20
-5.3401131265
 30
0.0
 10
3.286442805
 20
-5.4781763763
 30
0.0
 10
3.2482191576
 20
-5.5939797827
 30
0.0
 10
3.1814160235
 20
-5.6564409984
 30
0.0
 10
3.1314654779
 20
-5.66421881
 30
0.0
 10
3.1071221864
 20
-5.66421881
 30
0.0
  0
SPLINE
  5
429
100
AcDbEntity
  8
0
100
AcDbSpline
 62
7
  6
CONTINUOUS
 70
0
 71
3
 72
14
 73
10
 74
0
 42
0.0000001
 43
0.0000001
 44
0.0000000001
 40
0.0
 40
0.0
 40
0.0
 40
0.0
 40
0.0529996926
 40
0.15006521
 40
0.2917823737
 40
0.4038991228
 40
0.59903006
 40
0.7177500359
 40
1.0
 40
1.0
 40
1.0
 40
1.0
 10
3.1071221864
 20
-5.66421881
 30
0.0
 10
3.0944373858
 20
-5.66421881
 30
0.0
 10
3.0584284847
 20
-5.661755382
 30
0.0
 10
2.9919203898
 20
-5.6298409006
 30
0.0
 10
2.9518358682
 20
-5.5511380051
 30
0.0
 10
2.922118007
 20
-5.448481206
 30
0.0
 10
2.9109469065
 20
-5.3463755448
 30
0.0
 10
2.9019842192
 20
-5.2041353653
 30
0.0
 10
2.9010201438
 20
-5.1080520498
 30
0.0
 10
2.9010201438
 20
-5.04049912
 30
0.0
  0
SPLINE
  5
42A
100
AcDbEntity
  8
0
100
AcDbSpline
 62
7
  6
CONTINUOUS
 70
0
 71
3
 72
13
 73
9
 74
0
 42
0.0000001
 43
0.0000001
 44
0.0000000001
 40
0.0
 40
0.0
 40
0.0
 40
0.0
 40
0.0016705069
 40
0.1354965557
 40
0.3641314264
 40
0.6397559973
 40
0.7940224071
 40
1.0
 40
1.0
 40
1.0
 40
1.0
 10
1.4766025259
 20
-5.1491019613
 30
0.0
 10
1.4766637775
 20
-5.1489845665
 30
0.0
 10
1.4816273404
 20
-5.1394601595
 30
0.0
 10
1.4940010586
 20
-5.1133518775
 30
0.0
 10
1.5247335834
 20
-5.0724068911
 30
0.0
 10
1.5683788209
 20
-5.0415286967
 30
0.0
 10
1.6165493098
 20
-5.0256267557
 30
0.0
 10
1.645293691
 20
-5.0230777117
 30
0.0
 10
1.6616205895
 20
-5.0230777117
 30
0.0
  0
SPLINE
  5
42B
100
AcDbEntity
  8
0
100
AcDbSpline
 62
7
  6
CONTINUOUS
 70
0
 71
3
 72
14
 73
10
 74
0
 42
0.0000001
 43
0.0000001
 44
0.0000000001
 40
0.0
 40
0.0
 40
0.0
 40
0.0
 40
0.0966121779
 40
0.2120371391
 40
0.3982235185
 40
0.5578504468
 40
0.7291778851
 40
0.8177850235
 40
1.0
 40
1.0
 40
1.0
 40
1.0
 10
1.6616205895
 20
-5.0230777117
 30
0.0
 10
1.6753222453
 20
-5.0230777117
 30
0.0
 10
1.7056641028
 20
-5.0243047298
 30
0.0
 10
1.7593642409
 20
-5.044478606
 30
0.0
 10
1.8110730218
 20
-5.0877330956
 30
0.0
 10
1.8467090613
 20
-5.152894267
 30
0.0
 10
1.8638801527
 20
-5.210173493
 30
0.0
 10
1.8746810374
 20
-5.2719702007
 30
0.0
 10
1.8773897073
 20
-5.310448999
 30
0.0
 10
1.8773897073
 20
-5.3362909472
 30
0.0
  0
SPLINE
  5
42C
100
AcDbEntity
  8
0
100
AcDbSpline
 62
7
  6
CONTINUOUS
 70
0
 71
3
 72
14
 73
10
 74
0
 42
0.0000001
 43
0.0000001
 44
0.0000000001
 40
0.0
 40
0.0
 40
0.0
 40
0.0
 40
0.1555851968
 40
0.347323569
 40
0.5981461645
 40
0.7460489305
 40
0.8528530836
 40
0.9249812045
 40
1.0
 40
1.0
 40
1.0
 40
1.0
 10
1.8773897073
 20
-5.3362909472
 30
0.0
 10
1.8773897073
 20
-5.35882369
 30
0.0
 10
1.8741319429
 20
-5.4091548453
 30
0.0
 10
1.8587247423
 20
-5.4945568262
 30
0.0
 10
1.8238182947
 20
-5.5748080544
 30
0.0
 10
1.7725932145
 20
-5.6286449518
 30
0.0
 10
1.7310635143
 20
-5.6525990967
 30
0.0
 10
1.6954193364
 20
-5.6626222445
 30
0.0
 10
1.6740319749
 20
-5.664198137
 30
0.0
 10
1.6631673215
 20
-5.664198137
 30
0.0
  0
SPLINE
  5
42D
100
AcDbEntity
  8
0
100
AcDbSpline
 62
7
  6
CONTINUOUS
 70
0
 71
3
 72
14
 73
10
 74
0
 42
0.0000001
 43
0.0000001
 44
0.0000000001
 40
0.0
 40
0.0
 40
0.0
 40
0.0
 40
0.0871461816
 40
0.2803676719
 40
0.4669712016
 40
0.6274068661
 40
0.7582200174
 40
0.8999572595
 40
1.0
 40
1.0
 40
1.0
 40
1.0
 10
1.6631673215
 20
-5.664198137
 30
0.0
 10
1.6530929284
 20
-5.664198137
 30
0.0
 10
1.6206416666
 20
-5.6624766746
 30
0.0
 10
1.5680857662
 20
-5.6447274608
 30
0.0
 10
1.519643264
 20
-5.6029466559
 30
0.0
 10
1.4919620903
 20
-5.5542719592
 30
0.0
 10
1.4767144773
 20
-5.5065358466
 30
0.0
 10
1.4663252723
 20
-5.4645755607
 30
0.0
 10
1.4641511265
 20
-5.4366567443
 30
0.0
 10
1.4628583189
 20
-5.4251639496
 30
0.0
  0
SPLINE
  5
42E
100
AcDbEntity
  8
0
100
AcDbSpline
 62
7
  6
CONTINUOUS
 70
0
 71
3
 72
14
 73
10
 74
0
 42
0.0000001
 43
0.0000001
 44
0.0000000001
 40
0.0
 40
0.0
 40
0.0
 40
0.0
 40
0.1090541263
 40
0.3038686281
 40
0.4748077129
 40
0.6318156585
 40
0.7808752173
 40
0.9273823816
 40
1.0
 40
1.0
 40
1.0
 40
1.0
 10
1.1798076543
 20
-5.4251639493
 30
0.0
 10
1.1823891548
 20
-5.4531552318
 30
0.0
 10
1.1865796154
 20
-5.5314641533
 30
0.0
 10
1.2192137463
 20
-5.6510968368
 30
0.0
 10
1.2860470763
 20
-5.7698069797
 30
0.0
 10
1.3753168048
 20
-5.856812866
 30
0.0
 10
1.4786192128
 20
-5.9135717606
 30
0.0
 10
1.5716603685
 20
-5.9375271192
 30
0.0
 10
1.6282085326
 20
-5.9402898038
 30
0.0
 10
1.6469266352
 20
-5.9402898038
 30
0.0
  0
SPLINE
  5
42F
100
AcDbEntity
  8
0
100
AcDbSpline
 62
7
  6
CONTINUOUS
 70
0
 71
3
 72
15
 73
11
 74
0
 42
0.0000001
 43
0.0000001
 44
0.0000000001
 40
0.0
 40
0.0
 40
0.0
 40
0.0
 40
0.108062554
 40
0.2049264
 40
0.3364521058
 40
0.4602456247
 40
0.6223569364
 40
0.742136643
 40
0.8952441235
 40
1.0
 40
1.0
 40
1.0
 40
1.0
 10
1.6469266352
 20
-5.9402898038
 30
0.0
 10
1.6800241307
 20
-5.9402898038
 30
0.0
 10
1.7428812787
 20
-5.9356563235
 30
0.0
 10
1.8437268394
 20
-5.9112395218
 30
0.0
 10
1.9390878919
 20
-5.857907297
 30
0.0
 10
2.0355066798
 20
-5.7722464566
 30
0.0
 10
2.099895818
 20
-5.6633631266
 30
0.0
 10
2.1422384661
 20
-5.5367635907
 30
0.0
 10
2.1636243327
 20
-5.422618687
 30
0.0
 10
2.1685620114
 20
-5.3436279581
 30
0.0
 10
2.1685620114
 20
-5.3115432348
 30
0.0
  0
SPLINE
  5
430
100
AcDbEntity
  8
0
100
AcDbSpline
 62
7
  6
CONTINUOUS
 70
0
 71
3
 72
16
 73
12
 74
0
 42
0.0000001
 43
0.0000001
 44
0.0000000001
 40
0.0
 40
0.0
 40
0.0
 40
0.0
 40
0.0603102014
 40
0.1752889121
 40
0.3305005989
 40
0.4654288584
 40
0.5887925441
 40
0.7012171469
 40
0.8072151964
 40
0.9061924244
 40
1.0
 40
1.0
 40
1.0
 40
1.0
 10
2.1685620114
 20
-5.3115432348
 30
0.0
 10
2.1685620114
 20
-5.2956060092
 30
0.0
 10
2.1653070393
 20
-5.2493448078
 30
0.0
 10
2.1578913311
 20
-5.1623645898
 30
0.0
 10
2.1336283027
 20
-5.0570525425
 30
0.0
 10
2.0847599451
 20
-4.9587534389
 30
0.0
 10
2.0282468733
 20
-4.8776594659
 30
0.0
 10
1.9580860791
 20
-4.8197955123
 30
0.0
 10
1.8859806814
 20
-4.7756497469
 30
0.0
 10
1.8094789422
 20
-4.75390224
 30
0.0
 10
1.7587193601
 20
-4.7465993618
 30
0.0
 10
1.7339303118
 20
-4.7465993618
 30
0.0
  0
SPLINE
  5
431
100
AcDbEntity
  8
0
100
AcDbSpline
 62
7
  6
CONTINUOUS
 70
0
 71
3
 72
12
 73
8
 74
0
 42
0.0000001
 43
0.0000001
 44
0.0000000001
 40
0.0
 40
0.0
 40
0.0
 40
0.0
 40
0.1731224322
 40
0.3282667852
 40
0.5074297011
 40
0.7384134229
 40
1.0
 40
1.0
 40
1.0
 40
1.0
 10
1.7339303118
 20
-4.7465993618
 30
0.0
 10
1.7177289296
 20
-4.7465993618
 30
0.0
 10
1.6870309847
 20
-4.7486705219
 30
0.0
 10
1.6398666564
 20
-4.7547742738
 30
0.0
 10
1.5887949626
 20
-4.769485945
 30
0.0
 10
1.5321776307
 20
-4.7979226827
 30
0.0
 10
1.4960799668
 20
-4.8269045434
 30
0.0
 10
1.4772261003
 20
-4.8425189542
 30
0.0
  0
SPLINE
  5
432
100
AcDbEntity
  8
0
100
AcDbSpline
 62
7
  6
CONTINUOUS
 70
0
 71
3
 72
14
 73
10
 74
0
 42
0.0000001
 43
0.0000001
 44
0.0000000001
 40
0.0
 40
0.0
 40
0.0
 40
0.0
 40
0.0652551126
 40
0.1182318952
 40
0.3304958223
 40
0.5788356246
 40
0.7944476956
 40
0.9357562146
 40
1.0
 40
1.0
 40
1.0
 40
1.0
 10
0.1126987408
 20
-5.6181419125
 30
0.0
 10
0.1253690037
 20
-5.5971596751
 30
0.0
 10
0.1473913304
 20
-5.5582365818
 30
0.0
 10
0.2333222757
 20
-5.4678872229
 30
0.0
 10
0.3792793758
 20
-5.3422641144
 30
0.0
 10
0.5797750982
 20
-5.1834160218
 30
0.0
 10
0.700253178
 20
-4.9830484622
 30
0.0
 10
0.7325460416
 20
-4.8265596465
 30
0.0
 10
0.7362255761
 20
-4.7493547272
 30
0.0
 10
0.7362255761
 20
-4.725223587
 30
0.0
  0
SPLINE
  5
433
100
AcDbEntity
  8
0
100
AcDbSpline
 62
7
  6
CONTINUOUS
 70
0
 71
3
 72
13
 73
9
 74
0
 42
0.0000001
 43
0.0000001
 44
0.0000000001
 40
0.0
 40
0.0
 40
0.0
 40
0.0
 40
0.1032302293
 40
0.2441442576
 40
0.4936344215
 40
0.6857525144
 40
0.8397495956
 40
1.0
 40
1.0
 40
1.0
 40
1.0
 10
0.7362255761
 20
-4.725223587
 30
0.0
 10
0.7363380605
 20
-4.6966961988
 30
0.0
 10
0.7327820388
 20
-4.6291185469
 30
0.0
 10
0.7058512672
 20
-4.4949427302
 30
0.0
 10
0.633027068
 20
-4.3463804692
 30
0.0
 10
0.5061657278
 20
-4.2354361267
 30
0.0
 10
0.3743603535
 20
-4.1833487201
 30
0.0
 10
0.287103159
 20
-4.1730472563
 30
0.0
 10
0.2428180594
 20
-4.1730402533
 30
0.0
  0
SPLINE
  5
434
100
AcDbEntity
  8
0
100
AcDbSpline
 62
7
  6
CONTINUOUS
 70
0
 71
3
 72
14
 73
10
 74
0
 42
0.0000001
 43
0.0000001
 44
0.0000000001
 40
0.0
 40
0.0
 40
0.0
 40
0.0
 40
0.0904463275
 40
0.1776035502
 40
0.3108354686
 40
0.5103583985
 40
0.7196593011
 40
0.8492223841
 40
1.0
 40
1.0
 40
1.0
 40
1.0
 10
0.2428180594
 20
-4.1730402533
 30
0.0
 10
0.2164428641
 20
-4.1730402533
 30
0.0
 10
0.1644755679
 20
-4.1767290956
 30
0.0
 10
0.0763690879
 20
-4.1995822243
 30
0.0
 10
-0.0347451801
 20
-4.2545754051
 30
0.0
 10
-0.1450110832
 20
-4.3750491448
 30
0.0
 10
-0.199328171
 20
-4.5250780144
 30
0.0
 10
-0.2234814809
 20
-4.666111629
 30
0.0
 10
-0.2242941173
 20
-4.7480753724
 30
0.0
 10
-0.2266078958
 20
-4.7919829477
 30
0.0
  0
SPLINE
  5
435
100
AcDbEntity
  8
0
100
AcDbSpline
 62
7
  6
CONTINUOUS
 70
0
 71
3
 72
12
 73
8
 74
0
 42
0.0000001
 43
0.0000001
 44
0.0000000001
 40
0.0
 40
0.0
 40
0.0
 40
0.0
 40
0.1987967626
 40
0.4492218425
 40
0.684998795
 40
0.8954609423
 40
1.0
 40
1.0
 40
1.0
 40
1.0
 10
0.0483211338
 20
-4.7919829479
 30
0.0
 10
0.0493024588
 20
-4.7629509131
 30
0.0
 10
0.0507008128
 20
-4.6972658237
 30
0.0
 10
0.065627848
 20
-4.5979450758
 30
0.0
 10
0.1161170543
 20
-4.5035060146
 30
0.0
 10
0.1935023386
 20
-4.4677501467
 30
0.0
 10
0.2395345741
 20
-4.4634423362
 30
0.0
 10
0.2548052327
 20
-4.4638258744
 30
0.0
  0
SPLINE
  5
436
100
AcDbEntity
  8
0
100
AcDbSpline
 62
7
  6
CONTINUOUS
 70
0
 71
3
 72
11
 73
7
 74
0
 42
0.0000001
 43
0.0000001
 44
0.0000000001
 40
0.0
 40
0.0
 40
0.0
 40
0.0
 40
0.1802594941
 40
0.5400380017
 40
0.8325598106
 40
1.0
 40
1.0
 40
1.0
 40
1.0
 10
0.2548052327
 20
-4.4638258744
 30
0.0
 10
0.2759368665
 20
-4.4625701979
 30
0.0
 10
0.3405765116
 20
-4.4742137354
 30
0.0
 10
0.4175204788
 20
-4.5464485609
 30
0.0
 10
0.4487573484
 20
-4.639517401
 30
0.0
 10
0.4529903382
 20
-4.6935738044
 30
0.0
 10
0.4531736151
 20
-4.7132364138
 30
0.0
  0
SPLINE
  5
437
100
AcDbEntity
  8
0
100
AcDbSpline
 62
7
  6
CONTINUOUS
 70
0
 71
3
 72
14
 73
10
 74
0
 42
0.0000001
 43
0.0000001
 44
0.0000000001
 40
0.0
 40
0.0
 40
0.0
 40
0.0
 40
0.0326556104
 40
0.1208667669
 40
0.341658968
 40
0.579163491
 40
0.7948114948
 40
0.9100659169
 40
1.0
 40
1.0
 40
1.0
 40
1.0
 10
0.4531736151
 20
-4.7132364138
 30
0.0
 10
0.4531736151
 20
-4.7289805285
 30
0.0
 10
0.4507190044
 20
-4.7872280469
 30
0.0
 10
0.4052988488
 20
-4.9502038148
 30
0.0
 10
0.2002867574
 20
-5.1331129812
 30
0.0
 10
-0.045727206
 20
-5.3406009905
 30
0.0
 10
-0.1952322116
 20
-5.581231571
 30
0.0
 10
-0.2351399972
 20
-5.7818165068
 30
0.0
 10
-0.2401902407
 20
-5.8806423337
 30
0.0
 10
-0.242469169
 20
-5.9239419516
 30
0.0
  0
SPLINE
  5
438
100
AcDbEntity
  8
0
100
AcDbSpline
 62
7
  6
CONTINUOUS
 70
0
 71
3
 72
12
 73
8
 74
0
 42
0.0000001
 43
0.0000001
 44
0.0000000001
 40
0.0
 40
0.0
 40
0.0
 40
0.0
 40
0.1256213689
 40
0.1823918692
 40
0.5178944537
 40
0.8039625183
 40
1.0
 40
1.0
 40
1.0
 40
1.0
 10
-3.2385640968
 20
-5.3577287077
 30
0.0
 10
-3.2385640968
 20
-5.3404448471
 30
0.0
 10
-3.238412869
 20
-5.3152243435
 30
0.0
 10
-3.2276574172
 20
-5.2448645256
 30
0.0
 10
-3.2051357837
 20
-5.151043131
 30
0.0
 10
-3.1163514053
 20
-5.069717855
 30
0.0
 10
-3.0489938114
 20
-5.0568893284
 30
0.0
 10
-3.022021613
 20
-5.0568893284
 30
0.0
  0
SPLINE
  5
439
100
AcDbEntity
  8
0
100
AcDbSpline
 62
7
  6
CONTINUOUS
 70
0
 71
3
 72
12
 73
8
 74
0
 42
0.0000001
 43
0.0000001
 44
0.0000000001
 40
0.0
 40
0.0
 40
0.0
 40
0.0
 40
0.1785070189
 40
0.3861756488
 40
0.5984366329
 40
0.8688776476
 40
1.0
 40
1.0
 40
1.0
 40
1.0
 10
-3.022021613
 20
-5.0568893284
 30
0.0
 10
-2.9983092587
 20
-5.0568893284
 30
0.0
 10
-2.9466066757
 20
-5.0681138492
 30
0.0
 10
-2.8803218271
 20
-5.1168175894
 30
0.0
 10
-2.8353951627
 20
-5.1989614875
 30
0.0
 10
-2.8179369173
 20
-5.2796008152
 30
0.0
 10
-2.8159195704
 20
-5.3329638178
 30
0.0
 10
-2.8159195704
 20
-5.3503817305
 30
0.0
  0
SPLINE
  5
43A
100
AcDbEntity
  8
0
100
AcDbSpline
 62
7
  6
CONTINUOUS
 70
0
 71
3
 72
12
 73
8
 74
0
 42
0.0000001
 43
0.0000001
 44
0.0000000001
 40
0.0
 40
0.0
 40
0.0
 40
0.0
 40
0.1318074585
 40
0.3034329874
 40
0.6181924422
 40
0.8205587368
 40
1.0
 40
1.0
 40
1.0
 40
1.0
 10
-2.8159195704
 20
-5.3503817305
 30
0.0
 10
-2.8159195704
 20
-5.3692113358
 30
0.0
 10
-2.8171713226
 20
-5.4126321653
 30
0.0
 10
-2.828855069
 20
-5.5000493981
 30
0.0
 10
-2.8596546988
 20
-5.5965121945
 30
0.0
 10
-2.9328389727
 20
-5.6698519797
 30
0.0
 10
-2.9886535298
 20
-5.6833157994
 30
0.0
 10
-3.0142879529
 20
-5.6833157994
 30
0.0
  0
SPLINE
  5
43B
100
AcDbEntity
  8
0
100
AcDbSpline
 62
7
  6
CONTINUOUS
 70
0
 71
3
 72
12
 73
8
 74
0
 42
0.0000001
 43
0.0000001
 44
0.0000000001
 40
0.0
 40
0.0
 40
0.0
 40
0.0
 40
0.0753026129
 40
0.218853156
 40
0.4424161071
 40
0.793665707
 40
1.0
 40
1.0
 40
1.0
 40
1.0
 10
-3.0142879529
 20
-5.6833157994
 30
0.0
 10
-3.0252810605
 20
-5.6833157994
 30
0.0
 10
-3.0572754157
 20
-5.6808595709
 30
0.0
 10
-3.1195249824
 20
-5.6585372052
 30
0.0
 10
-3.1956656552
 20
-5.5809187781
 30
0.0
 10
-3.2330891512
 20
-5.4691765652
 30
0.0
 10
-3.2385640968
 20
-5.3878505721
 30
0.0
 10
-3.2385640968
 20
-5.3577287077
 30
0.0
  0
SPLINE
  5
43C
100
AcDbEntity
  8
0
100
AcDbSpline
 62
7
  6
CONTINUOUS
 70
0
 71
3
 72
12
 73
8
 74
0
 42
0.0000001
 43
0.0000001
 44
0.0000000001
 40
0.0
 40
0.0
 40
0.0
 40
0.0
 40
0.186655837
 40
0.4080174125
 40
0.6556453203
 40
0.8943305364
 40
1.0
 40
1.0
 40
1.0
 40
1.0
 10
-3.0019140967
 20
-5.9594074662
 30
0.0
 10
-2.9472233552
 20
-5.9594074662
 30
0.0
 10
-2.8261123624
 20
-5.9347799748
 30
0.0
 10
-2.6686100286
 20
-5.8128789342
 30
0.0
 10
-2.5709975308
 20
-5.624490587
 30
0.0
 10
-2.5366935846
 20
-5.4528928817
 30
0.0
 10
-2.5328676094
 20
-5.3519553039
 30
0.0
 10
-2.5328676094
 20
-5.320993822
 30
0.0
  0
SPLINE
  5
43D
100
AcDbEntity
  8
0
100
AcDbSpline
 62
7
  6
CONTINUOUS
 70
0
 71
3
 72
14
 73
10
 74
0
 42
0.0000001
 43
0.0000001
 44
0.0000000001
 40
0.0
 40
0.0
 40
0.0
 40
0.0
 40
0.1270925824
 40
0.2543731419
 40
0.4608291989
 40
0.541698735
 40
0.7010184163
 40
0.8653682949
 40
1.0
 40
1.0
 40
1.0
 40
1.0
 10
-2.5328676094
 20
-5.320993822
 30
0.0
 10
-2.5328676094
 20
-5.2881679369
 30
0.0
 10
-2.5383165039
 20
-5.2224735477
 30
0.0
 10
-2.5605887866
 20
-5.1053049363
 30
0.0
 10
-2.6044275496
 20
-5.005609674
 30
0.0
 10
-2.6709780401
 20
-4.9112611074
 30
0.0
 10
-2.7488472836
 20
-4.8387497822
 30
0.0
 10
-2.8595715457
 20
-4.7911732528
 30
0.0
 10
-2.9369797079
 20
-4.7807976615
 30
0.0
 10
-2.9717528221
 20
-4.7807976615
 30
0.0
  0
SPLINE
  5
43E
100
AcDbEntity
  8
0
100
AcDbSpline
 62
7
  6
CONTINUOUS
 70
0
 71
3
 72
12
 73
8
 74
0
 42
0.0000001
 43
0.0000001
 44
0.0000000001
 40
0.0
 40
0.0
 40
0.0
 40
0.0
 40
0.1149232047
 40
0.3185514617
 40
0.5717520337
 40
0.85187164
 40
1.0
 40
1.0
 40
1.0
 40
1.0
 10
-2.9717528221
 20
-4.7807976615
 30
0.0
 10
-2.9843949846
 20
-4.7807976615
 30
0.0
 10
-3.0194410059
 20
-4.7821138111
 30
0.0
 10
-3.0818717154
 20
-4.7927100135
 30
0.0
 10
-3.1567523408
 20
-4.8269928008
 30
0.0
 10
-3.2120670972
 20
-4.8801172439
 30
0.0
 10
-3.236721454
 20
-4.9203166043
 30
0.0
 10
-3.245533048
 20
-4.9340235284
 30
0.0
  0
SPLINE
  5
43F
100
AcDbEntity
  8
0
100
AcDbSpline
 62
7
  6
CONTINUOUS
 70
0
 71
3
 72
12
 73
8
 74
0
 42
0.0000001
 43
0.0000001
 44
0.0000000001
 40
0.0
 40
0.0
 40
0.0
 40
0.0
 40
0.1647259497
 40
0.4005949281
 40
0.6534590834
 40
0.8613396785
 40
1.0
 40
1.0
 40
1.0
 40
1.0
 10
-3.245533048
 20
-4.9340235284
 30
0.0
 10
-3.2435312894
 20
-4.9011057202
 30
0.0
 10
-3.2388235664
 20
-4.8210543903
 30
0.0
 10
-3.2224406613
 20
-4.6909454983
 30
0.0
 10
-3.1850864373
 20
-4.556066842
 30
0.0
 10
-3.1070759446
 20
-4.4545403784
 30
0.0
 10
-3.0354745432
 20
-4.4378098345
 30
0.0
 10
-3.0077143418
 20
-4.4378098345
 30
0.0
  0
SPLINE
  5
440
100
AcDbEntity
  8
0
100
AcDbSpline
 62
7
  6
CONTINUOUS
 70
0
 71
3
 72
13
 73
9
 74
0
 42
0.0000001
 43
0.0000001
 44
0.0000000001
 40
0.0
 40
0.0
 40
0.0
 40
0.0
 40
0.0960549297
 40
0.2261229797
 40
0.4987157018
 40
0.6953281022
 40
0.9081674687
 40
1.0
 40
1.0
 40
1.0
 40
1.0
 10
-3.0077143418
 20
-4.4378098345
 30
0.0
 10
-2.999320361
 20
-4.4378098345
 30
0.0
 10
-2.9795136216
 20
-4.4389591906
 30
0.0
 10
-2.9368933402
 20
-4.448464087
 30
0.0
 10
-2.8892694819
 20
-4.476276118
 30
0.0
 10
-2.8582578272
 20
-4.528585195
 30
0.0
 10
-2.8459383349
 20
-4.5710643755
 30
0.0
 10
-2.8432517589
 20
-4.5975737119
 30
0.0
 10
-2.8422265594
 20
-4.6055329541
 30
0.0
  0
SPLINE
  5
441
100
AcDbEntity
  8
0
100
AcDbSpline
 62
7
  6
CONTINUOUS
 70
0
 71
3
 72
13
 73
9
 74
0
 42
0.0000001
 43
0.0000001
 44
0.0000000001
 40
0.0
 40
0.0
 40
0.0
 40
0.0
 40
0.0934850481
 40
0.3373815394
 40
0.6340371963
 40
0.8101904438
 40
0.9115548005
 40
1.0
 40
1.0
 40
1.0
 40
1.0
 10
-2.5611101081
 20
-4.6055329513
 30
0.0
 10
-2.5642702813
 20
-4.5845267535
 30
0.0
 10
-2.5756143153
 20
-4.5087349306
 30
0.0
 10
-2.6114307626
 20
-4.3681723864
 30
0.0
 10
-2.7187436329
 20
-4.2315482249
 30
0.0
 10
-2.8430594007
 20
-4.1845014706
 30
0.0
 10
-2.9241146008
 20
-4.1664472563
 30
0.0
 10
-2.9672354914
 20
-4.1617181677
 30
0.0
 10
-2.9873328642
 20
-4.1617181677
 30
0.0
  0
SPLINE
  5
442
100
AcDbEntity
  8
0
100
AcDbSpline
 62
7
  6
CONTINUOUS
 70
0
 71
3
 72
14
 73
10
 74
0
 42
0.0000001
 43
0.0000001
 44
0.0000000001
 40
0.0
 40
0.0
 40
0.0
 40
0.0
 40
0.0974209039
 40
0.1835207442
 40
0.4205557156
 40
0.588396897
 40
0.761472812
 40
0.8859059353
 40
1.0
 40
1.0
 40
1.0
 40
1.0
 10
-2.9873328642
 20
-4.1617181677
 30
0.0
 10
-3.0260283869
 20
-4.1617181677
 30
0.0
 10
-3.099259918
 20
-4.1682127676
 30
0.0
 10
-3.259440424
 20
-4.2213594904
 30
0.0
 10
-3.4024259517
 20
-4.3751734109
 30
0.0
 10
-3.4775363378
 20
-4.5931540959
 30
0.0
 10
-3.5091675192
 20
-4.7760053395
 30
0.0
 10
-3.519192079
 20
-4.9392621545
 30
0.0
 10
-3.5216160578
 20
-5.033998851
 30
0.0
 10
-3.5216160578
 20
-5.0793169428
 30
0.0
  0
SPLINE
  5
443
100
AcDbEntity
  8
0
100
AcDbSpline
 62
7
  6
CONTINUOUS
 70
0
 71
3
 72
14
 73
10
 74
0
 42
0.0000001
 43
0.0000001
 44
0.0000000001
 40
0.0
 40
0.0
 40
0.0
 40
0.0
 40
0.1419026395
 40
0.325351858
 40
0.5355361309
 40
0.7223169155
 40
0.8717797923
 40
0.955697981
 40
1.0
 40
1.0
 40
1.0
 40
1.0
 10
-3.5216160578
 20
-5.0793169428
 30
0.0
 10
-3.5216160578
 20
-5.1336093499
 30
0.0
 10
-3.5176631794
 20
-5.2581580835
 30
0.0
 10
-3.4958227482
 20
-5.4619301877
 30
0.0
 10
-3.4416592895
 20
-5.6797134729
 30
0.0
 10
-3.3193245448
 20
-5.8574159931
 30
0.0
 10
-3.1731953677
 20
-5.9382707346
 30
0.0
 10
-3.0676478823
 20
-5.9530540288
 30
0.0
 10
-3.0188641919
 20
-5.9594074662
 30
0.0
 10
-3.0019140967
 20
-5.9594074662
 30
0.0
  0
SPLINE
  5
444
100
AcDbEntity
  8
0
100
AcDbSpline
 62
7
  6
CONTINUOUS
 70
0
 71
3
 72
12
 73
8
 74
0
 42
0.0000001
 43
0.0000001
 44
0.0000000001
 40
0.0
 40
0.0
 40
0.0
 40
0.0
 40
0.1543906217
 40
0.2524812674
 40
0.5370586886
 40
0.8132916503
 40
1.0
 40
1.0
 40
1.0
 40
1.0
 10
-4.30000888
 20
-4.2047169381
 30
0.0
 10
-4.3026722624
 20
-4.2333485722
 30
0.0
 10
-4.3093911937
 20
-4.2802426982
 30
0.0
 10
-4.34317702
 20
-4.3748070111
 30
0.0
 10
-4.4322784447
 20
-4.4710673567
 30
0.0
 10
-4.5714352093
 20
-4.5082963714
 30
0.0
 10
-4.6575785765
 20
-4.5078776305
 30
0.0
 10
-4.692353
 20
-4.507877174
 30
0.0
  0
SPLINE
  5
445
100
AcDbEntity
  8
RACCORDO
100
AcDbSpline
 62
7
  6
CONTINUOUS
 70
0
 71
3
 72
18
 73
14
 74
0
 42
0.0000001
 43
0.0000001
 44
0.0000000001
 40
0.0
 40
0.0
 40
0.0
 40
0.0
 40
0.0053192572
 40
0.0206503031
 40
0.0457946404
 40
0.0804712674
 40
0.1241553185
 40
0.1762535651
 40
0.3031342892
 40
0.4552069307
 40
0.6262860587
 40
0.8101925493
 40
1.0
 40
1.0
 40
1.0
 40
1.0
 10
-5.745631105
 20
-14.5323537008
 30
0.0
 10
-5.746554293
 20
-14.5321878562
 30
0.0
 10
-5.7453567081
 20
-14.5267917435
 30
0.0
 10
-5.7471472633
 20
-14.5203861263
 30
0.0
 10
-5.7467506783
 20
-14.5062124371
 30
0.0
 10
-5.747486463
 20
-14.4883663263
 30
0.0
 10
-5.7477382829
 20
-14.4652139103
 30
0.0
 10
-5.7483136772
 20
-14.4260228476
 30
0.0
 10
-5.7488220218
 20
-14.367607025
 30
0.0
 10
-5.7493468921
 20
-14.2882695898
 30
0.0
 10
-5.7497177078
 20
-14.1988531855
 30
0.0
 10
-5.7499487411
 20
-14.1027895258
 30
0.0
 10
-5.75
 20
-14.036890628
 30
0.0
 10
-5.75
 20
-14.0034211111
 30
0.0
  0
SPLINE
  5
446
100
AcDbEntity
  8
RACCORDO
100
AcDbSpline
 62
7
  6
CONTINUOUS
 70
0
 71
3
 72
18
 73
14
 74
0
 42
0.0000001
 43
0.0000001
 44
0.0000000001
 40
0.0
 40
0.0
 40
0.0
 40
0.0
 40
0.1898074507
 40
0.3737139413
 40
0.5447930693
 40
0.6968657108
 40
0.8237464349
 40
0.8758446815
 40
0.9195287326
 40
0.9542053596
 40
0.9793496969
 40
0.9946807428
 40
1.0
 40
1.0
 40
1.0
 40
1.0
 10
5.75
 20
-14.0034211111
 30
0.0
 10
5.75
 20
-14.036890628
 30
0.0
 10
5.7499487411
 20
-14.1027895258
 30
0.0
 10
5.7497177078
 20
-14.1988531855
 30
0.0
 10
5.7493468921
 20
-14.2882695898
 30
0.0
 10
5.7488220218
 20
-14.367607025
 30
0.0
 10
5.7483136772
 20
-14.4260228476
 30
0.0
 10
5.7477382829
 20
-14.4652139103
 30
0.0
 10
5.747486463
 20
-14.4883663263
 30
0.0
 10
5.7467506783
 20
-14.5062124371
 30
0.0
 10
5.7471472633
 20
-14.5203861263
 30
0.0
 10
5.7453567081
 20
-14.5267917435
 30
0.0
 10
5.746554293
 20
-14.5321878562
 30
0.0
 10
5.745631105
 20
-14.5323537008
 30
0.0
  0
SPLINE
  5
447
100
AcDbEntity
  8
RACCORDO
100
AcDbSpline
 62
7
  6
CONTINUOUS
 70
0
 71
3
 72
18
 73
14
 74
0
 42
0.0000001
 43
0.0000001
 44
0.0000000001
 40
0.0
 40
0.0
 40
0.0
 40
0.0
 40
0.1898071867
 40
0.3737140382
 40
0.54479443
 40
0.696867136
 40
0.8237470631
 40
0.8758449498
 40
0.919528651
 40
0.9542049805
 40
0.9793493103
 40
0.9946805926
 40
1.0
 40
1.0
 40
1.0
 40
1.0
 10
-5.75
 20
19.6873112152
 30
0.0
 10
-5.75
 20
19.7207806855
 30
0.0
 10
-5.7499487423
 20
19.7866796003
 30
0.0
 10
-5.7497177065
 20
19.8827434997
 30
0.0
 10
-5.7493468891
 20
19.9721602018
 30
0.0
 10
-5.7488220181
 20
20.0514977306
 30
0.0
 10
-5.7483136711
 20
20.1099133598
 30
0.0
 10
-5.7477382831
 20
20.1491041579
 30
0.0
 10
-5.7474864664
 20
20.1722563936
 30
0.0
 10
-5.7467506829
 20
20.1901023953
 30
0.0
 10
-5.7471472688
 20
20.2042760668
 30
0.0
 10
-5.7453566822
 20
20.210681734
 30
0.0
 10
-5.7465543191
 20
20.2160779555
 30
0.0
 10
-5.745631105
 20
20.2162438048
 30
0.0
  0
SPLINE
  5
448
100
AcDbEntity
  8
RACCORDO
100
AcDbSpline
 62
7
  6
CONTINUOUS
 70
0
 71
3
 72
18
 73
14
 74
0
 42
0.0000001
 43
0.0000001
 44
0.0000000001
 40
0.0
 40
0.0
 40
0.0
 40
0.0
 40
0.0053194074
 40
0.0206506897
 40
0.0457950195
 40
0.080471349
 40
0.1241550502
 40
0.1762529369
 40
0.303132864
 40
0.45520557
 40
0.6262859618
 40
0.8101928133
 40
1.0
 40
1.0
 40
1.0
 40
1.0
 10
5.745631105
 20
20.2162438048
 30
0.0
 10
5.7465543191
 20
20.2160779555
 30
0.0
 10
5.7453566822
 20
20.210681734
 30
0.0
 10
5.7471472688
 20
20.2042760668
 30
0.0
 10
5.7467506829
 20
20.1901023953
 30
0.0
 10
5.7474864664
 20
20.1722563936
 30
0.0
 10
5.7477382831
 20
20.1491041579
 30
0.0
 10
5.7483136711
 20
20.1099133598
 30
0.0
 10
5.7488220181
 20
20.0514977306
 30
0.0
 10
5.7493468891
 20
19.9721602018
 30
0.0
 10
5.7497177065
 20
19.8827434997
 30
0.0
 10
5.7499487423
 20
19.7866796003
 30
0.0
 10
5.75
 20
19.7207806855
 30
0.0
 10
5.75
 20
19.6873112152
 30
0.0
  0
SPLINE
  5
449
100
AcDbEntity
  8
RACCORDO
100
AcDbSpline
 62
7
  6
CONTINUOUS
 70
0
 71
3
 72
10
 73
6
 74
0
 42
0.0000001
 43
0.0000001
 44
0.0000000001
 40
0.0
 40
0.0
 40
0.0
 40
0.0
 40
0.110229903
 40
0.3038010542
 40
1.0
 40
1.0
 40
1.0
 40
1.0
 10
1.845631105
 20
-15.3644323957
 30
0.0
 10
1.8314092225
 20
-15.3638240202
 30
0.0
 10
1.7981777323
 20
-15.3340252807
 30
0.0
 10
1.7470536731
 20
-15.2177298373
 30
0.0
 10
1.7199754922
 20
-15.1037678838
 30
0.0
 10
1.7016432476
 20
-15.0157508791
 30
0.0
  0
SPLINE
  5
44A
100
AcDbEntity
  8
RACCORDO
100
AcDbSpline
 62
7
  6
CONTINUOUS
 70
0
 71
3
 72
10
 73
6
 74
0
 42
0.0000001
 43
0.0000001
 44
0.0000000001
 40
0.0
 40
0.0
 40
0.0
 40
0.0
 40
0.6961989458
 40
0.889770097
 40
1.0
 40
1.0
 40
1.0
 40
1.0
 10
-1.7016432476
 20
-15.0157508791
 30
0.0
 10
-1.7199754922
 20
-15.1037678838
 30
0.0
 10
-1.7470536731
 20
-15.2177298373
 30
0.0
 10
-1.7981777323
 20
-15.3340252807
 30
0.0
 10
-1.8314092225
 20
-15.3638240202
 30
0.0
 10
-1.845631105
 20
-15.3644323957
 30
0.0
  0
SPLINE
  5
44B
100
AcDbEntity
  8
RACCORDO
100
AcDbSpline
 62
7
  6
CONTINUOUS
 70
0
 71
3
 72
10
 73
6
 74
0
 42
0.0000001
 43
0.0000001
 44
0.0000000001
 40
0.0
 40
0.0
 40
0.0
 40
0.0
 40
0.110229903
 40
0.3038010542
 40
1.0
 40
1.0
 40
1.0
 40
1.0
 10
-1.845631105
 20
21.0483224998
 30
0.0
 10
-1.8314092225
 20
21.0477141242
 30
0.0
 10
-1.7981777323
 20
21.0179153848
 30
0.0
 10
-1.7470536731
 20
20.9016199414
 30
0.0
 10
-1.7199754922
 20
20.7876579878
 30
0.0
 10
-1.7016432476
 20
20.6996409831
 30
0.0
  0
SPLINE
  5
44C
100
AcDbEntity
  8
RACCORDO
100
AcDbSpline
 62
7
  6
CONTINUOUS
 70
0
 71
3
 72
10
 73
6
 74
0
 42
0.0000001
 43
0.0000001
 44
0.0000000001
 40
0.0
 40
0.0
 40
0.0
 40
0.0
 40
0.6961989458
 40
0.889770097
 40
1.0
 40
1.0
 40
1.0
 40
1.0
 10
1.7016432476
 20
20.6996409831
 30
0.0
 10
1.7199754922
 20
20.7876579878
 30
0.0
 10
1.7470536731
 20
20.9016199414
 30
0.0
 10
1.7981777323
 20
21.0179153848
 30
0.0
 10
1.8314092225
 20
21.0477141242
 30
0.0
 10
1.845631105
 20
21.0483224998
 30
0.0
  0
SPLINE
  5
44D
100
AcDbEntity
  8
0
100
AcDbSpline
 62
7
  6
CONTINUOUS
 70
0
 71
3
 72
9
 73
5
 74
0
 42
0.0000001
 43
0.0000001
 44
0.0000000001
 40
0.0
 40
0.0
 40
0.0
 40
0.0
 40
0.4328241156
 40
1.0
 40
1.0
 40
1.0
 40
1.0
 10
-7.2497793789
 20
-3.7960931467
 30
0.0
 10
-7.367768594
 20
-3.6956133931
 30
0.0
 10
-7.6755144906
 20
-3.5051157565
 30
0.0
 10
-8.0357399358
 20
-3.4330549491
 30
0.0
 10
-8.237598426
 20
-3.4330549491
 30
0.0
  0
SPLINE
  5
44E
100
AcDbEntity
  8
RACCORDO
100
AcDbSpline
 62
7
  6
CONTINUOUS
 70
0
 71
3
 72
18
 73
14
 74
0
 42
0.0000001
 43
0.0000001
 44
0.0000000001
 40
0.0
 40
0.0
 40
0.0
 40
0.0
 40
0.0049013999
 40
0.0193761172
 40
0.0433083397
 40
0.0765204533
 40
0.1186447618
 40
0.1692364377
 40
0.2938667675
 40
0.4454274844
 40
0.6181340014
 40
0.8055669984
 40
1.0
 40
1.0
 40
1.0
 40
1.0
 10
1.845631105
 20
-15.3644323957
 30
0.0
 10
1.8464524259
 20
-15.3644675297
 30
0.0
 10
1.8454595465
 20
-15.3592391048
 30
0.0
 10
1.8470592616
 20
-15.3538858239
 30
0.0
 10
1.8467484548
 20
-15.3408064289
 30
0.0
 10
1.8474406013
 20
-15.3246297172
 30
0.0
 10
1.8477017809
 20
-15.3033339897
 30
0.0
 10
1.8482721208
 20
-15.2669658961
 30
0.0
 10
1.848788586
 20
-15.2121083518
 30
0.0
 10
1.8493228963
 20
-15.1368411314
 30
0.0
 10
1.8497059552
 20
-15.0510117141
 30
0.0
 10
1.8499463453
 20
-14.9580001566
 30
0.0
 10
1.85
 20
-14.8939523525
 30
0.0
 10
1.85
 20
-14.8613416815
 30
0.0
  0
SPLINE
  5
44F
100
AcDbEntity
  8
RACCORDO
100
AcDbSpline
 62
7
  6
CONTINUOUS
 70
0
 71
3
 72
18
 73
14
 74
0
 42
0.0000001
 43
0.0000001
 44
0.0000000001
 40
0.0
 40
0.0
 40
0.0
 40
0.0
 40
0.0049015083
 40
0.0193763943
 40
0.0433086043
 40
0.0765204108
 40
0.1186443163
 40
0.1692356212
 40
0.293865326
 40
0.4454263265
 40
0.6181342557
 40
0.8055674163
 40
1.0
 40
1.0
 40
1.0
 40
1.0
 10
-1.845631105
 20
21.0483224998
 30
0.0
 10
-1.8464524441
 20
21.0483576346
 30
0.0
 10
-1.8454595278
 20
21.0431291279
 30
0.0
 10
-1.847059266
 20
21.0377758169
 30
0.0
 10
-1.8467484571
 20
21.0246964534
 30
0.0
 10
-1.8474406024
 20
21.0085198557
 30
0.0
 10
-1.8477017796
 20
20.9872243126
 30
0.0
 10
-1.8482721145
 20
20.9508564525
 30
0.0
 10
-1.8487885817
 20
20.8959990283
 30
0.0
 10
-1.8493228942
 20
20.8207316283
 30
0.0
 10
-1.8497059537
 20
20.7349018993
 30
0.0
 10
-1.8499463472
 20
20.6418901477
 30
0.0
 10
-1.85
 20
20.5778423864
 30
0.0
 10
-1.85
 20
20.5452317856
 30
0.0
  0
SPLINE
  5
450
100
AcDbEntity
  8
RACCORDO
100
AcDbSpline
 62
7
  6
CONTINUOUS
 70
0
 71
3
 72
18
 73
14
 74
0
 42
0.0000001
 43
0.0000001
 44
0.0000000001
 40
0.0
 40
0.0
 40
0.0
 40
0.0
 40
0.1944325837
 40
0.3818657443
 40
0.5545736735
 40
0.706134674
 40
0.8307643788
 40
0.8813556837
 40
0.9234795892
 40
0.9566913957
 40
0.9806236057
 40
0.9950984917
 40
1.0
 40
1.0
 40
1.0
 40
1.0
 10
1.85
 20
20.5452317856
 30
0.0
 10
1.85
 20
20.5778423864
 30
0.0
 10
1.8499463472
 20
20.6418901477
 30
0.0
 10
1.8497059537
 20
20.7349018993
 30
0.0
 10
1.8493228942
 20
20.8207316283
 30
0.0
 10
1.8487885817
 20
20.8959990283
 30
0.0
 10
1.8482721145
 20
20.9508564525
 30
0.0
 10
1.8477017796
 20
20.9872243126
 30
0.0
 10
1.8474406024
 20
21.0085198557
 30
0.0
 10
1.8467484571
 20
21.0246964534
 30
0.0
 10
1.847059266
 20
21.0377758169
 30
0.0
 10
1.8454595278
 20
21.0431291279
 30
0.0
 10
1.8464524441
 20
21.0483576346
 30
0.0
 10
1.845631105
 20
21.0483224998
 30
0.0
  0
SPLINE
  5
451
100
AcDbEntity
  8
RACCORDO
100
AcDbSpline
 62
7
  6
CONTINUOUS
 70
0
 71
3
 72
18
 73
14
 74
0
 42
0.0000001
 43
0.0000001
 44
0.0000000001
 40
0.0
 40
0.0
 40
0.0
 40
0.0
 40
0.1944330016
 40
0.3818659986
 40
0.5545725156
 40
0.7061332325
 40
0.8307635623
 40
0.8813552382
 40
0.9234795467
 40
0.9566916603
 40
0.9806238828
 40
0.9950986001
 40
1.0
 40
1.0
 40
1.0
 40
1.0
 10
-1.85
 20
-14.8613416815
 30
0.0
 10
-1.85
 20
-14.8939523525
 30
0.0
 10
-1.8499463453
 20
-14.9580001566
 30
0.0
 10
-1.8497059552
 20
-15.0510117141
 30
0.0
 10
-1.8493228963
 20
-15.1368411314
 30
0.0
 10
-1.848788586
 20
-15.2121083518
 30
0.0
 10
-1.8482721208
 20
-15.2669658961
 30
0.0
 10
-1.8477017809
 20
-15.3033339897
 30
0.0
 10
-1.8474406013
 20
-15.3246297172
 30
0.0
 10
-1.8467484548
 20
-15.3408064289
 30
0.0
 10
-1.8470592616
 20
-15.3538858239
 30
0.0
 10
-1.8454595465
 20
-15.3592391048
 30
0.0
 10
-1.8464524259
 20
-15.3644675297
 30
0.0
 10
-1.845631105
 20
-15.3644323957
 30
0.0
  0
SPLINE
  5
452
100
AcDbEntity
  8
0
100
AcDbSpline
 62
7
  6
CONTINUOUS
 70
0
 71
3
 72
9
 73
5
 74
0
 42
0.0000001
 43
0.0000001
 44
0.0000000001
 40
0.0
 40
0.0
 40
0.0
 40
0.0
 40
0.2429235675
 40
1.0
 40
1.0
 40
1.0
 40
1.0
 10
1.4614257452
 20
10.4548547343
 30
0.0
 10
1.4767192313
 20
10.4677348532
 30
0.0
 10
1.5412695907
 20
10.518868651
 30
0.0
 10
1.6113836535
 20
10.5626839176
 30
0.0
 10
1.6659151162
 20
10.5928392464
 30
0.0
  0
SPLINE
  5
453
100
AcDbEntity
  8
0
100
AcDbSpline
 62
7
  6
CONTINUOUS
 70
0
 71
3
 72
9
 73
5
 74
0
 42
0.0000001
 43
0.0000001
 44
0.0000000001
 40
0.0
 40
0.0
 40
0.0
 40
0.0
 40
0.2409546799
 40
1.0
 40
1.0
 40
1.0
 40
1.0
 10
1.8416398207
 20
14.672851393
 30
0.0
 10
1.8604456766
 20
14.6442195512
 30
0.0
 10
1.9441579218
 20
14.5290577957
 30
0.0
 10
2.0472913827
 20
14.4293186704
 30
0.0
 10
2.1293339359
 20
14.3592210827
 30
0.0
  0
SPLINE
  5
454
100
AcDbEntity
  8
0
100
AcDbSpline
 62
7
  6
CONTINUOUS
 70
0
 71
3
 72
9
 73
5
 74
0
 42
0.0000001
 43
0.0000001
 44
0.0000000001
 40
0.0
 40
0.0
 40
0.0
 40
0.0
 40
0.2429533016
 40
1.0
 40
1.0
 40
1.0
 40
1.0
 10
-1.4603924134
 20
10.4539832707
 30
0.0
 10
-1.4756819525
 20
10.4668954689
 30
0.0
 10
-1.5402167712
 20
10.518150068
 30
0.0
 10
-1.6103472544
 20
10.562062785
 30
0.0
 10
-1.6648979109
 20
10.5922762993
 30
0.0
  0
SPLINE
  5
455
100
AcDbEntity
  8
0
100
AcDbSpline
 62
7
  6
CONTINUOUS
 70
0
 71
3
 72
9
 73
5
 74
0
 42
0.0000001
 43
0.0000001
 44
0.0000000001
 40
0.0
 40
0.0
 40
0.0
 40
0.0
 40
0.2409546799
 40
1.0
 40
1.0
 40
1.0
 40
1.0
 10
-1.8416398207
 20
14.672851393
 30
0.0
 10
-1.8604456766
 20
14.6442195512
 30
0.0
 10
-1.9441579218
 20
14.5290577957
 30
0.0
 10
-2.0472913827
 20
14.4293186704
 30
0.0
 10
-2.1293339359
 20
14.3592210827
 30
0.0
  0
ELLIPSE
  5
456
100
AcDbEntity
  8
RACCORDO
100
AcDbEllipse
 62
7
  6
CONTINUOUS
 10
-1.8194559627
 20
-11.708054948
 30
0.0
 11
0.0
 21
0.25
 31
0.0
 40
0.0087268678
 41
-1.5707963268
 42
-1.369310037
  0
ELLIPSE
  5
457
100
AcDbEntity
  8
RACCORDO
100
AcDbEllipse
 62
7
  6
CONTINUOUS
 10
1.8194559627
 20
-11.708054948
 30
0.0
 11
0.0
 21
0.25
 31
0.0
 40
0.0087268678
 41
1.4640096145
 42
1.5707963268
  0
ELLIPSE
  5
458
100
AcDbEntity
  8
RACCORDO
100
AcDbEllipse
 62
7
  6
CONTINUOUS
 10
-1.8194559627
 20
17.391945052
 30
0.0
 11
0.0
 21
0.25
 31
0.0
 40
0.0087268678
 41
-1.677583039
 42
-1.5707963268
  0
ELLIPSE
  5
459
100
AcDbEntity
  8
RACCORDO
100
AcDbEllipse
 62
7
  6
CONTINUOUS
 10
1.8194559627
 20
17.391945052
 30
0.0
 11
-0.0
 21
0.25
 31
0.0
 40
0.0087268678
 41
-4.7123889804
 42
-4.5109026906
  0
ELLIPSE
  5
45A
100
AcDbEntity
  8
RACCORDO
100
AcDbEllipse
 62
7
  6
CONTINUOUS
 10
-1.8267339488
 20
-12.058054948
 30
0.0
 11
0.0
 21
0.5
 31
0.0
 40
0.0087268678
 41
-2.7027504368
 42
-2.617993878
  0
ELLIPSE
  5
45B
100
AcDbEntity
  8
RACCORDO
100
AcDbEllipse
 62
7
  6
CONTINUOUS
 10
-1.8216376797
 20
-11.7208970577
 30
0.0
 11
0.0
 21
0.5
 31
0.0
 40
0.0087268678
 41
-2.617993878
 42
-1.5707963268
  0
ELLIPSE
  5
45C
100
AcDbEntity
  8
RACCORDO
100
AcDbEllipse
 62
7
  6
CONTINUOUS
 10
1.8216376797
 20
-11.7208970577
 30
0.0
 11
0.0
 21
0.5
 31
0.0
 40
0.0087268678
 41
1.5707963268
 42
2.617993878
  0
ELLIPSE
  5
45D
100
AcDbEntity
  8
RACCORDO
100
AcDbEllipse
 62
7
  6
CONTINUOUS
 10
1.8267339488
 20
-12.058054948
 30
0.0
 11
0.0
 21
0.5
 31
0.0
 40
0.0087268678
 41
-3.6651914292
 42
-3.5804348704
  0
ELLIPSE
  5
45E
100
AcDbEntity
  8
RACCORDO
100
AcDbEllipse
 62
7
  6
CONTINUOUS
 10
-1.8216376797
 20
17.4047871617
 30
0.0
 11
0.0
 21
0.5
 31
0.0
 40
0.0087268678
 41
4.7123889804
 42
5.7595865316
  0
ELLIPSE
  5
45F
100
AcDbEntity
  8
RACCORDO
100
AcDbEllipse
 62
7
  6
CONTINUOUS
 10
1.8216376797
 20
17.4047871617
 30
0.0
 11
0.0
 21
0.5
 31
0.0
 40
0.0087268678
 41
0.5235987756
 42
1.5707963268
  0
ENDSEC
  0
SECTION
  2
OBJECTS
  0
DICTIONARY
  5
C
100
AcDbDictionary
280
0
281
1
  3
ACAD_GROUP
350
D
  3
ACAD_MLINESTYLE
350
17
  3
ACAD_LAYOUT
350
1A
  3
ACAD_PLOTSETTINGS
350
19
  3
ACAD_PLOTSTYLENAME
350
E
  0
DICTIONARY
  5
D
102
{ACAD_REACTORS
330
C
102
}
100
AcDbDictionary
280
0
281
1
  0
ACDBDICTIONARYWDFLT
  5
E
102
{ACAD_REACTORS
330
C
102
}
100
AcDbDictionary
281
1
  3
Normal
350
F
100
AcDbDictionaryWithDefault
340
F
  0
DICTIONARY
  5
17
102
{ACAD_REACTORS
330
C
102
}
100
AcDbDictionary
280
0
281
1
  3
Standard
350
18
  0
DICTIONARY
  5
19
102
{ACAD_REACTORS
330
C
102
}
100
AcDbDictionary
281
1
  0
DICTIONARY
  5
1A
102
{ACAD_REACTORS
330
C
102
}
100
AcDbDictionary
281
1
  3
Model
350
460
  3
Layout1
350
461
  0
ACDBPLACEHOLDER
  5
F
102
{ACAD_REACTORS
330
E
102
}
  0
MLINESTYLE
  5
18
102
{ACAD_REACTORS
330
17
102
}
100
AcDbMlineStyle
  2
STANDARD
 70
0
  3

 62
256
 51
90.0
 52
90.0
 71
2
 49
0.5
 62
256
  6
BYLAYER
 49
-0.5
 62
256
  6
BYLAYER
  0
LAYOUT
  5
460
102
{ACAD_REACTORS
330
1A
102
}
100
AcDbPlotSettings
  1

  2
none_device
  4
ANSI_C_(22.00_x_17.00_Inches)
  6

 40
0.0
 41
0.0
 42
0.0
 43
0.0
 44
558.8
 45
431.8
 46
0.0
 47
0.0
 48
0.0
 49
0.0
140
0.0
141
0.0
142
1.0
143
1.0
 70
1024
 72
1
 73
0
 74
0
  7

 75
0
147
1.0
148
0.0
149
0.0
100
AcDbLayout
  1
Model
 70
0
 71
0
 10
0.0
 20
0.0
 11
558.8
 21
431.8
 12
0.0
 22
0.0
 32
0.0
 14
0.0
 24
0.0
 34
0.0
 15
0.0
 25
0.0
 35
0.0
146
0.0
 13
0.0
 23
0.0
 33
0.0
 16
1.0
 26
0.0
 36
0.0
 17
0.0
 27
1.0
 37
0.0
 76
0
330
21A
345
0
346
0
  0
LAYOUT
  5
461
102
{ACAD_REACTORS
330
1A
102
}
100
AcDbPlotSettings
  1

  2
none_device
  4
ANSI_C_(22.00_x_17.00_Inches)
  6

 40
0.0
 41
0.0
 42
0.0
 43
0.0
 44
558.8
 45
431.8
 46
0.0
 47
0.0
 48
0.0
 49
0.0
140
0.0
141
0.0
142
1.0
143
1.0
 70
0
 72
1
 73
0
 74
0
  7

 75
0
147
1.0
148
0.0
149
0.0
100
AcDbLayout
  1
Layout1
 70
0
 71
1
 10
0.0
 20
0.0
 11
558.8
 21
431.8
 12
0.0
 22
0.0
 32
0.0
 14
0.0
 24
0.0
 34
0.0
 15
0.0
 25
0.0
 35
0.0
146
0.0
 13
0.0
 23
0.0
 33
0.0
 16
1.0
 26
0.0
 36
0.0
 17
0.0
 27
1.0
 37
0.0
 76
0
330
21B
345
0
346
0
  0
ENDSEC
  0
EOF
