  0
SECTION
  2
HEADER
  9
$ACADVER
  1
AC1024
  9
$DWGCODEPAGE
  3
ANSI_1252
  9
$EXTMAX
 10
297.0
 20
210.0
 30
0.0
  9
$EXTMIN
 10
0.0
 20
0.0
 30
0.0
  9
$LIMMIN
 10
0.0
 20
0.0
  9
$LIMMAX
 10
297.0
 20
210.0
  9
$VIEWCTR
 10
148.5
 20
105.0
  9
$VIEWSIZE
 40
210.0
  9
$CLAYER
  8
0
  9
$LTSCALE
 40
16.335
  9
$CELTYPE
  6
BYLAYER
  9
$DIMSCALE
 40
1.0
  9
$DIMASZ
 40
3.0
  9
$DIMEXO
 40
0.5
  9
$DIMDLI
 40
11.286
  9
$DIMEXE
 40
1.5
  9
$DIMCEN
 40
2.673
  9
$DIMLFAC
 40
1.0
  9
$DIMBLK
  1
_FILLED
  9
$DIMALT
 70
0
  9
$DIMALTF
 40
0.0393700787
  9
$DIMTXT
 40
3.0
  9
$DIMTOL
 70
1
  9
$DIMLIM
 70
0
  9
$DIMTFAC
 40
1.0
  9
$DIMTP
 40
0.01
  9
$DIMTM
 40
0.01
  9
$DIMGAP
 40
0.625
  9
$DIMDSEP
 70
44
  9
$AUNITS
 70
0
  9
$PDMODE
 70
3
  9
$PDSIZE
 40
3.0
  9
$HANDSEED
  5
410
  9
$TILEMODE
 70
1
  9
$MEASUREMENT
 70
1
  9
$INSUNITS
 70
4
  0
ENDSEC
  0
SECTION
  2
CLASSES
  0
CLASS
  1
ACDBDICTIONARYWDFLT
  2
AcDbDictionaryWithDefault
  3
AutoCAD 2000
 90
0
 91
1
280
0
281
0
  0
CLASS
  1
ACDBPLACEHOLDER
  2
AcDbPlaceHolder
  3
AutoCAD 2000
 90
0
 91
1
280
0
281
0
  0
CLASS
  1
LAYOUT
  2
AcDbLayout
  3
AutoCAD 2000
 90
0
 91
0
280
0
281
0
  0
ENDSEC
  0
SECTION
  2
TABLES
  0
TABLE
  2
VPORT
  5
8
100
AcDbSymbolTable
 70
2
  0
VPORT
  5
1F4
100
AcDbSymbolTableRecord
100
AcDbViewportTableRecord
  2
*ACTIVE
 70
0
 10
0.0
 20
0.0
 11
1.0
 21
1.0
 12
148.5
 22
105.0
 13
0.0
 23
0.0
 14
1.0
 24
1.0
 15
0.0
 25
0.0
 16
0.0
 26
0.0
 36
1.0
 17
0.0
 27
0.0
 37
0.0
 40
210.0
 41
1.4142857143
 42
50.0
 43
0.0
 44
0.0
 50
0.0
 51
0.0
 71
0
 72
100
 73
1
 74
1
 75
0
 76
0
 77
0
 78
0
  0
ENDTAB
  0
TABLE
  2
LTYPE
  5
5
100
AcDbSymbolTable
 70
6
  0
LTYPE
  5
14
100
AcDbSymbolTableRecord
100
AcDbLinetypeTableRecord
  2
BYBLOCK
 70
0
  3

 72
65
 73
0
 40
0.0
  0
LTYPE
  5
15
100
AcDbSymbolTableRecord
100
AcDbLinetypeTableRecord
  2
BYLAYER
 70
0
  3

 72
65
 73
0
 40
0.0
  0
LTYPE
  5
16
100
AcDbSymbolTableRecord
100
AcDbLinetypeTableRecord
  2
CONTINUOUS
 70
64
  3
Solid line
 72
65
 73
0
 40
0.0
  0
LTYPE
  5
1F5
100
AcDbSymbolTableRecord
100
AcDbLinetypeTableRecord
  2
CENTER
 70
64
  3
____ _ ____ _ ____ _ ____ _ ____ _ ____ _ ____
 72
65
 73
4
 40
0.6
 49
0.375
 74
0
 49
-0.075
 74
0
 49
0.075
 74
0
 49
-0.075
 74
0
  0
LTYPE
  5
1F6
100
AcDbSymbolTableRecord
100
AcDbLinetypeTableRecord
  2
HIDDEN
 70
64
  3
- - - - - - - - - - - - - - - - - - - -
 72
65
 73
2
 40
0.2
 49
0.1
 74
0
 49
-0.1
 74
0
  0
LTYPE
  5
1F7
100
AcDbSymbolTableRecord
100
AcDbLinetypeTableRecord
  2
PHANTOM
 70
64
  3
_____ _ _ _____ _ _ _____ _ _ _____
 72
65
 73
6
 40
0.8
 49
0.45
 74
0
 49
-0.05
 74
0
 49
0.1
 74
0
 49
-0.05
 74
0
 49
0.1
 74
0
 49
-0.05
 74
0
  0
LTYPE
  5
1F8
100
AcDbSymbolTableRecord
100
AcDbLinetypeTableRecord
  2
DOT
 70
64
  3
. . . . . . . . . . . . . . . . . . . .
 72
65
 73
2
 40
0.2
 49
0.1
 74
0
 49
-0.1
 74
0
  0
LTYPE
  5
1F9
100
AcDbSymbolTableRecord
100
AcDbLinetypeTableRecord
  2
DASHED
 70
64
  3
- - - - - - - - - - - - - - - - - - - -
 72
65
 73
2
 40
0.2
 49
0.1
 74
0
 49
-0.1
 74
0
  0
ENDTAB
  0
TABLE
  2
LAYER
  5
2
100
AcDbSymbolTable
 70
36
  0
LAYER
  5
10
100
AcDbSymbolTableRecord
100
AcDbLayerTableRecord
  2
0
 70
0
 62
7
  6
CONTINUOUS
370
-3
390
F
  0
LAYER
  5
1FA
100
AcDbSymbolTableRecord
100
AcDbLayerTableRecord
  2
DEFAULT_1
 70
0
 62
7
  6
CENTER
370
-3
390
F
  0
LAYER
  5
1FB
100
AcDbSymbolTableRecord
100
AcDbLayerTableRecord
  2
DEFAULT_2
 70
0
 62
7
  6
HIDDEN
370
-3
390
F
  0
LAYER
  5
1FC
100
AcDbSymbolTableRecord
100
AcDbLayerTableRecord
  2
DEFAULT_3
 70
0
 62
7
  6
PHANTOM
370
-3
390
F
  0
LAYER
  5
1FD
100
AcDbSymbolTableRecord
100
AcDbLayerTableRecord
  2
255013570
 70
0
 62
7
  6
CONTINUOUS
370
-3
390
F
  0
LAYER
  5
1FE
100
AcDbSymbolTableRecord
100
AcDbLayerTableRecord
  2
261013570
 70
0
 62
7
  6
CONTINUOUS
370
-3
390
F
  0
LAYER
  5
1FF
100
AcDbSymbolTableRecord
100
AcDbLayerTableRecord
  2
280013570
 70
0
 62
7
  6
CONTINUOUS
370
-3
390
F
  0
LAYER
  5
200
100
AcDbSymbolTableRecord
100
AcDbLayerTableRecord
  2
ASSI
 70
0
 62
7
  6
CONTINUOUS
370
-3
390
F
  0
LAYER
  5
201
100
AcDbSymbolTableRecord
100
AcDbLayerTableRecord
  2
COLOR5
 70
0
 62
7
  6
CONTINUOUS
370
-3
390
F
  0
LAYER
  5
202
100
AcDbSymbolTableRecord
100
AcDbLayerTableRecord
  2
COORDINATE
 70
0
 62
7
  6
CONTINUOUS
370
-3
390
F
  0
LAYER
  5
203
100
AcDbSymbolTableRecord
100
AcDbLayerTableRecord
  2
COORD_ORIGINE
 70
0
 62
7
  6
CONTINUOUS
370
-3
390
F
  0
LAYER
  5
204
100
AcDbSymbolTableRecord
100
AcDbLayerTableRecord
  2
COPY-PUBBLISH
 70
0
 62
7
  6
CONTINUOUS
370
-3
390
F
  0
LAYER
  5
205
100
AcDbSymbolTableRecord
100
AcDbLayerTableRecord
  2
COPY_PUBLISH
 70
0
 62
7
  6
CONTINUOUS
370
-3
390
F
  0
LAYER
  5
206
100
AcDbSymbolTableRecord
100
AcDbLayerTableRecord
  2
COSMETICHE
 70
0
 62
7
  6
CONTINUOUS
370
-3
390
F
  0
LAYER
  5
207
100
AcDbSymbolTableRecord
100
AcDbLayerTableRecord
  2
COSMETICI
 70
0
 62
7
  6
CONTINUOUS
370
-3
390
F
  0
LAYER
  5
208
100
AcDbSymbolTableRecord
100
AcDbLayerTableRecord
  2
CURVE
 70
0
 62
7
  6
CONTINUOUS
370
-3
390
F
  0
LAYER
  5
209
100
AcDbSymbolTableRecord
100
AcDbLayerTableRecord
  2
DRAFT
 70
0
 62
7
  6
CONTINUOUS
370
-3
390
F
  0
LAYER
  5
20A
100
AcDbSymbolTableRecord
100
AcDbLayerTableRecord
  2
IGES
 70
0
 62
7
  6
CONTINUOUS
370
-3
390
F
  0
LAYER
  5
20B
100
AcDbSymbolTableRecord
100
AcDbLayerTableRecord
  2
IMPORT_IGES
 70
0
 62
7
  6
CONTINUOUS
370
-3
390
F
  0
LAYER
  5
20C
100
AcDbSymbolTableRecord
100
AcDbLayerTableRecord
  2
INTF_1
 70
0
 62
7
  6
CONTINUOUS
370
-3
390
F
  0
LAYER
  5
20D
100
AcDbSymbolTableRecord
100
AcDbLayerTableRecord
  2
INTF_11
 70
0
 62
7
  6
CONTINUOUS
370
-3
390
F
  0
LAYER
  5
20E
100
AcDbSymbolTableRecord
100
AcDbLayerTableRecord
  2
INTF_2
 70
0
 62
7
  6
CONTINUOUS
370
-3
390
F
  0
LAYER
  5
20F
100
AcDbSymbolTableRecord
100
AcDbLayerTableRecord
  2
INTF_3
 70
0
 62
7
  6
CONTINUOUS
370
-3
390
F
  0
LAYER
  5
210
100
AcDbSymbolTableRecord
100
AcDbLayerTableRecord
  2
INTF_4
 70
0
 62
7
  6
CONTINUOUS
370
-3
390
F
  0
LAYER
  5
211
100
AcDbSymbolTableRecord
100
AcDbLayerTableRecord
  2
INTF_MAGENTA
 70
0
 62
7
  6
CONTINUOUS
370
-3
390
F
  0
LAYER
  5
212
100
AcDbSymbolTableRecord
100
AcDbLayerTableRecord
  2
LAY0001
 70
0
 62
7
  6
CONTINUOUS
370
-3
390
F
  0
LAYER
  5
213
100
AcDbSymbolTableRecord
100
AcDbLayerTableRecord
  2
NOTE
 70
0
 62
7
  6
CONTINUOUS
370
-3
390
F
  0
LAYER
  5
214
100
AcDbSymbolTableRecord
100
AcDbLayerTableRecord
  2
PIANI
 70
0
 62
7
  6
CONTINUOUS
370
-3
390
F
  0
LAYER
  5
215
100
AcDbSymbolTableRecord
100
AcDbLayerTableRecord
  2
PIANI_ORIGINE
 70
0
 62
7
  6
CONTINUOUS
370
-3
390
F
  0
LAYER
  5
216
100
AcDbSymbolTableRecord
100
AcDbLayerTableRecord
  2
PIANI_SFORMI
 70
0
 62
7
  6
CONTINUOUS
370
-3
390
F
  0
LAYER
  5
217
100
AcDbSymbolTableRecord
100
AcDbLayerTableRecord
  2
PUNTI
 70
0
 62
7
  6
CONTINUOUS
370
-3
390
F
  0
LAYER
  5
218
100
AcDbSymbolTableRecord
100
AcDbLayerTableRecord
  2
PUNZ
 70
0
 62
7
  6
CONTINUOUS
370
-3
390
F
  0
LAYER
  5
219
100
AcDbSymbolTableRecord
100
AcDbLayerTableRecord
  2
RACCORDO
 70
0
 62
7
  6
CONTINUOUS
370
-3
390
F
  0
LAYER
  5
21A
100
AcDbSymbolTableRecord
100
AcDbLayerTableRecord
  2
RGB__255__255__255__
 70
0
 62
7
  6
CONTINUOUS
370
-3
390
F
  0
LAYER
  5
21B
100
AcDbSymbolTableRecord
100
AcDbLayerTableRecord
  2
SIMBOLI
 70
0
 62
7
  6
CONTINUOUS
370
-3
390
F
  0
LAYER
  5
21C
100
AcDbSymbolTableRecord
100
AcDbLayerTableRecord
  2
SMUSSO
 70
0
 62
7
  6
CONTINUOUS
370
-3
390
F
  0
LAYER
  5
21D
100
AcDbSymbolTableRecord
100
AcDbLayerTableRecord
  2
SNAPLINE
 70
0
 62
7
  6
CONTINUOUS
370
-3
390
F
  0
LAYER
  5
21E
100
AcDbSymbolTableRecord
100
AcDbLayerTableRecord
  2
SUP-SCAVI-INCLINATI
 70
0
 62
7
  6
CONTINUOUS
370
-3
390
F
  0
LAYER
  5
21F
100
AcDbSymbolTableRecord
100
AcDbLayerTableRecord
  2
SUP-SCAVI-INCLINATI-SUP
 70
0
 62
7
  6
CONTINUOUS
370
-3
390
F
  0
LAYER
  5
220
100
AcDbSymbolTableRecord
100
AcDbLayerTableRecord
  2
SUPERFICI
 70
0
 62
7
  6
CONTINUOUS
370
-3
390
F
  0
LAYER
  5
221
100
AcDbSymbolTableRecord
100
AcDbLayerTableRecord
  2
SUP_COLORE
 70
0
 62
7
  6
CONTINUOUS
370
-3
390
F
  0
LAYER
  5
222
100
AcDbSymbolTableRecord
100
AcDbLayerTableRecord
  2
TRASH
 70
0
 62
7
  6
CONTINUOUS
370
-3
390
F
  0
LAYER
  5
223
100
AcDbSymbolTableRecord
100
AcDbLayerTableRecord
  2
XSEC_DATUMS
 70
0
 62
7
  6
CONTINUOUS
370
-3
390
F
  0
ENDTAB
  0
TABLE
  2
STYLE
  5
3
100
AcDbSymbolTable
 70
1
  0
STYLE
  5
11
100
AcDbSymbolTableRecord
100
AcDbTextStyleTableRecord
  2
STANDARD
 70
0
 40
0.0
 41
0.8
 50
0.0
 71
0
 42
0.2
  3
txt
  4

  0
STYLE
  5
224
100
AcDbSymbolTableRecord
100
AcDbTextStyleTableRecord
  2
TEXTSTYLE_1
 70
0
 40
0.0
 41
0.8
 50
0.0
 71
0
 42
0.2
  3
gdt
  4

  0
ENDTAB
  0
TABLE
  2
VIEW
  5
6
100
AcDbSymbolTable
 70
0
  0
ENDTAB
  0
TABLE
  2
UCS
  5
7
100
AcDbSymbolTable
 70
0
  0
ENDTAB
  0
TABLE
  2
APPID
  5
9
100
AcDbSymbolTable
 70
1
  0
APPID
  5
225
100
AcDbSymbolTableRecord
100
AcDbRegAppTableRecord
  2
ACAD
 70
0
  0
ENDTAB
  0
TABLE
  2
BLOCK_RECORD
  5
1
100
AcDbSymbolTable
 70
0
  0
BLOCK_RECORD
  5
226
100
AcDbSymbolTableRecord
100
AcDbBlockTableRecord
  2
*Model_Space
  0
BLOCK_RECORD
  5
227
100
AcDbSymbolTableRecord
100
AcDbBlockTableRecord
  2
*Paper_Space
  0
BLOCK_RECORD
  5
228
100
AcDbSymbolTableRecord
100
AcDbBlockTableRecord
  2
_FILLED
  0
ENDTAB
  0
TABLE
  2
DIMSTYLE
  5
A
100
AcDbSymbolTable
 70
1
100
AcDbDimStyleTable
 71
0
  0
DIMSTYLE
105
229
100
AcDbSymbolTableRecord
100
AcDbDimStyleTableRecord
  2
STANDARD
 70
0
  3

  4

 40
1.0
 41
3.0
 42
0.5
 43
0.38
 44
1.5
 45
0.0
 46
0.0
 47
0.01
 48
0.01
140
3.0
141
0.09
142
0.0
143
25.4
144
1.0
145
0.0
146
1.0
147
0.625
 71
1
 72
0
 73
0
 74
0
 75
0
 76
0
 77
1
 78
8
 79
2
170
0
171
1
172
0
173
0
174
0
175
0
176
0
177
0
178
0
270
2
179
2
271
2
272
2
273
2
274
2
275
0
280
0
281
0
282
0
283
1
284
8
285
0
286
0
287
3
288
0
340
11
278
44
341
228
342
228
343
228
344
228
  0
ENDTAB
  0
ENDSEC
  0
SECTION
  2
BLOCKS
  0
BLOCK
  5
20
100
AcDbEntity
  8
0
100
AcDbBlockBegin
  2
*Model_Space
 70
0
 10
0.0
 20
0.0
 30
0.0
  3
*Model_Space
  1

  0
ENDBLK
  5
21
100
AcDbEntity
  8
0
100
AcDbBlockEnd
  0
BLOCK
  5
1C
100
AcDbEntity
  8
0
100
AcDbBlockBegin
  2
*Paper_Space
 70
0
 10
0.0
 20
0.0
 30
0.0
  3
*Paper_Space
  1

  0
ENDBLK
  5
1D
100
AcDbEntity
  8
0
100
AcDbBlockEnd
  0
BLOCK
  5
22A
100
AcDbEntity
  8
0
100
AcDbBlockBegin
  2
_FILLED
 70
64
 10
0.0
 20
0.0
  3
_FILLED
  1

  0
SOLID
  5
22B
100
AcDbEntity
  8
0
  6
BYBLOCK
 62
0
100
AcDbTrace
 10
0.0
 20
0.0
 11
-1.0
 21
0.3166666667
 12
-1.0
 22
-0.3166666667
 13
-1.0
 23
-0.3166666667
  0
ENDBLK
  5
22C
100
AcDbEntity
  8
0
  6
BYBLOCK
 62
0
100
AcDbBlockEnd
  0
ENDSEC
  0
SECTION
  2
ENTITIES
  0
LWPOLYLINE
  5
22D
100
AcDbEntity
  8
ASSI
100
AcDbPolyline
 62
7
  6
CONTINUOUS
 90
18
 70
0
 10
-21.9959362365
 20
-7.1782358527
 10
-21.9927717373
 20
-7.2123590589
 10
-21.9887044137
 20
-7.2464258576
 10
-21.9837470533
 20
-7.2803311126
 10
-21.9779014623
 20
-7.3140516673
 10
-21.9711658345
 20
-7.3476106783
 10
-21.9635475393
 20
-7.3809724793
 10
-21.9550416554
 20
-7.4141535088
 10
-21.945653104
 20
-7.4471373281
 10
-21.9354040176
 20
-7.4798389557
 10
-21.9242909023
 20
-7.5122573602
 10
-21.9123172521
 20
-7.5443935728
 10
-21.8995156815
 20
-7.5761657057
 10
-21.8858918908
 20
-7.6075576509
 10
-21.8714401797
 20
-7.6385855164
 10
-21.8561760625
 20
-7.669215738
 10
-21.8400874831
 20
-7.6994676629
 10
-21.8231864976
 20
-7.729321944
  0
LINE
  5
22E
100
AcDbEntity
  8
ASSI
100
AcDbLine
 62
7
  6
CONTINUOUS
 10
-21.9981936488
 20
-7.1440912843
 11
-21.9959362365
 21
-7.1782358527
  0
LINE
  5
22F
100
AcDbEntity
  8
ASSI
100
AcDbLine
 62
7
  6
CONTINUOUS
 10
-21.9995482366
 20
-7.1098903084
 11
-21.9981936488
 21
-7.1440912843
  0
LWPOLYLINE
  5
230
100
AcDbEntity
  8
ASSI
100
AcDbPolyline
 62
250
  6
CONTINUOUS
 90
25
 70
0
 10
-21.6682014499
 20
-6.9657271901
 10
-21.6677456531
 20
-7.0000986534
 10
-21.6663812478
 20
-7.0344455004
 10
-21.6641092312
 20
-7.0687437196
 10
-21.6609312605
 20
-7.1029691021
 10
-21.6568495868
 20
-7.1370979596
 10
-21.651866992
 20
-7.1711071332
 10
-21.6459868837
 20
-7.2049731796
 10
-21.6392134047
 20
-7.2386720843
 10
-21.6315513495
 20
-7.2721799803
 10
-21.6230061242
 20
-7.3054733013
 10
-21.613583683
 20
-7.3385289203
 10
-21.6032905822
 20
-7.3713238558
 10
-21.592134021
 20
-7.4038351722
 10
-21.580121797
 20
-7.436040151
 10
-21.5672622464
 20
-7.4679164269
 10
-21.5535642755
 20
-7.49944187
 10
-21.5390375126
 20
-7.530594273
 10
-21.5236922706
 20
-7.5613515282
 10
-21.5075394865
 20
-7.5916917848
 10
-21.4905902905
 20
-7.6215942058
 10
-21.472856098
 20
-7.6510386204
 10
-21.454349107
 20
-7.6800046554
 10
-21.4350823549
 20
-7.7084717862
 10
-21.4150692686
 20
-7.7364200808
  0
LWPOLYLINE
  5
231
100
AcDbEntity
  8
ASSI
100
AcDbPolyline
 62
250
  6
CONTINUOUS
 90
25
 70
0
 10
-21.1682776023
 20
-6.9657271901
 10
-21.1679968737
 20
-6.986894367
 10
-21.1671586718
 20
-7.0080198347
 10
-21.1657629966
 20
-7.0291035933
 10
-21.163808101
 20
-7.0501611536
 10
-21.1612957322
 20
-7.0711770047
 10
-21.1582311314
 20
-7.0921046139
 10
-21.1546131279
 20
-7.1129430229
 10
-21.1504428925
 20
-7.13369319
 10
-21.1457291782
 20
-7.1543114575
 10
-21.140470841
 20
-7.1747975036
 10
-21.1346690249
 20
-7.1951516501
 10
-21.1283359149
 20
-7.2153312055
 10
-21.1214704137
 20
-7.2353357633
 10
-21.1140736187
 20
-7.2551657298
 10
-21.1061610066
 20
-7.2747796322
 10
-21.0977314621
 20
-7.2941770779
 10
-21.0887861006
 20
-7.3133584594
 10
-21.0793437454
 20
-7.3322834814
 10
-21.0694027613
 20
-7.350952406
 10
-21.0589647835
 20
-7.3693649712
 10
-21.0480535408
 20
-7.3874800951
 10
-21.0366769428
 20
-7.405284084
 10
-21.02482708
 20
-7.4227906317
 10
-21.0125039523
 20
-7.4399997382
  0
LINE
  5
232
100
AcDbEntity
  8
ASSI
100
AcDbLine
 62
7
  6
CONTINUOUS
 10
-22.0
 20
-7.0756329249
 11
-21.9995482366
 21
-7.1098903084
  0
LINE
  5
233
100
AcDbEntity
  8
0
100
AcDbLine
 62
7
  6
CONTINUOUS
 10
-22.0
 20
-7.0756329295
 11
-22.0
 21
-7.05
  0
LINE
  5
234
100
AcDbEntity
  8
0
100
AcDbLine
 62
7
  6
CONTINUOUS
 10
-22.0
 20
7.05
 11
-22.0
 21
7.0756329295
  0
LINE
  5
235
100
AcDbEntity
  8
0
100
AcDbLine
 62
7
  6
CONTINUOUS
 10
-21.9755620937
 20
-7.0666211814
 11
-21.9755620937
 21
7.0666211814
  0
LINE
  5
236
100
AcDbEntity
  8
0
100
AcDbLine
 62
7
  6
CONTINUOUS
 10
-21.9728859769
 20
-7.15
 11
-21.9728859769
 21
-7.066621447
  0
LINE
  5
237
100
AcDbEntity
  8
0
100
AcDbLine
 62
7
  6
CONTINUOUS
 10
-21.9728859769
 20
7.066621447
 11
-21.9728859769
 21
7.15
  0
LINE
  5
238
100
AcDbEntity
  8
ASSI
100
AcDbLine
 62
250
  6
CONTINUOUS
 10
-21.6682014499
 20
6.9657271901
 11
-21.6682014499
 21
-6.9657271901
  0
LINE
  5
239
100
AcDbEntity
  8
ASSI
100
AcDbLine
 62
250
  6
CONTINUOUS
 10
-21.1682776023
 20
6.9657271901
 11
-21.1682776023
 21
-6.9657271901
  0
LINE
  5
23A
100
AcDbEntity
  8
ASSI
100
AcDbLine
 62
7
  6
CONTINUOUS
 10
-21.9995482366
 20
7.1098903084
 11
-22.0
 21
7.0756329249
  0
LWPOLYLINE
  5
23B
100
AcDbEntity
  8
ASSI
100
AcDbPolyline
 62
7
  6
CONTINUOUS
 90
3
 70
0
 10
-21.9959362365
 20
7.1782358527
 10
-21.9981936488
 20
7.1440912843
 10
-21.9995482366
 20
7.1098903084
  0
LINE
  5
23C
100
AcDbEntity
  8
ASSI
100
AcDbLine
 62
7
  6
CONTINUOUS
 10
-21.9978135022
 20
7.15
 11
-21.9952541836
 21
7.18558392
  0
LWPOLYLINE
  5
23D
100
AcDbEntity
  8
ASSI
100
AcDbPolyline
 62
7
  6
CONTINUOUS
 90
17
 70
0
 10
-21.9952541836
 20
7.18558392
 10
-21.991729209
 20
7.2210277513
 10
-21.9872385785
 20
7.2563314938
 10
-21.9817793757
 20
7.2915143775
 10
-21.9753545168
 20
7.3265571725
 10
-21.9679727515
 20
7.361402189
 10
-21.9596295937
 20
7.3960610611
 10
-21.9503295294
 20
7.4305221547
 10
-21.940094766
 20
7.4646928777
 10
-21.928920719
 20
7.4985739444
 10
-21.9168119729
 20
7.5321646405
 10
-21.9038044896
 20
7.5653702312
 10
-21.8899036325
 20
7.598173483
 10
-21.8751040382
 20
7.6305916293
 10
-21.8594255781
 20
7.6625816354
 10
-21.8428565702
 20
7.6941617951
 10
-21.8254086965
 20
7.7253138146
  0
LWPOLYLINE
  5
23E
100
AcDbEntity
  8
ASSI
100
AcDbPolyline
 62
7
  6
CONTINUOUS
 90
18
 70
0
 10
-21.8231864976
 20
7.729321944
 10
-21.8400874831
 20
7.6994676629
 10
-21.8561760625
 20
7.669215738
 10
-21.8714401797
 20
7.6385855164
 10
-21.8858918908
 20
7.6075576509
 10
-21.8995156815
 20
7.5761657057
 10
-21.9123172521
 20
7.5443935728
 10
-21.9242909023
 20
7.5122573602
 10
-21.9354040176
 20
7.4798389557
 10
-21.945653104
 20
7.4471373281
 10
-21.9550416554
 20
7.4141535088
 10
-21.9635475393
 20
7.3809724793
 10
-21.9711658345
 20
7.3476106783
 10
-21.9779014623
 20
7.3140516673
 10
-21.9837470533
 20
7.2803311126
 10
-21.9887044137
 20
7.2464258576
 10
-21.9927717373
 20
7.2123590589
 10
-21.9959362365
 20
7.1782358527
  0
LINE
  5
23F
100
AcDbEntity
  8
ASSI
100
AcDbLine
 62
7
  6
CONTINUOUS
 10
-21.8055247886
 20
7.7586869758
 11
-21.8254086965
 21
7.7253138146
  0
LINE
  5
240
100
AcDbEntity
  8
ASSI
100
AcDbLine
 62
7
  6
CONTINUOUS
 10
-21.7871195834
 20
7.787532223
 11
-21.8071368747
 21
7.7559397779
  0
LINE
  5
241
100
AcDbEntity
  8
ASSI
100
AcDbLine
 62
7
  6
CONTINUOUS
 10
-21.7679536547
 20
7.8158882209
 11
-21.7880594108
 21
7.7860070463
  0
LINE
  5
242
100
AcDbEntity
  8
ASSI
100
AcDbLine
 62
7
  6
CONTINUOUS
 10
-21.7681579989
 20
7.8155482586
 11
-21.7474326389
 21
7.8445634147
  0
LWPOLYLINE
  5
243
100
AcDbEntity
  8
ASSI
100
AcDbPolyline
 62
250
  6
CONTINUOUS
 90
25
 70
0
 10
-21.4150692686
 20
7.7364200808
 10
-21.4350821434
 20
7.7084720899
 10
-21.4543487622
 20
7.6800051797
 10
-21.4728556908
 20
7.6510392767
 10
-21.4905899093
 20
7.621594858
 10
-21.5075391851
 20
7.5916923334
 10
-21.5236920271
 20
7.5613520004
 10
-21.539037279
 20
7.5305947572
 10
-21.5535640378
 20
7.4994423979
 10
-21.5672620128
 20
7.4679169848
 10
-21.5801215839
 20
7.4360407001
 10
-21.592133833
 20
7.4038356974
 10
-21.6032904134
 20
7.3713243697
 10
-21.613583523
 20
7.3385294547
 10
-21.6230059702
 20
7.30547387
 10
-21.6315512068
 20
7.2721805684
 10
-21.639213283
 20
7.2386726506
 10
-21.6459867847
 20
7.2049737083
 10
-21.651866908
 20
7.1711076582
 10
-21.6568495042
 20
7.1370985805
 10
-21.6609311806
 20
7.1029698541
 10
-21.6641091698
 20
7.0687444904
 10
-21.6663812145
 20
7.0344461278
 10
-21.6677456432
 20
7.0000990238
 10
-21.6682014499
 20
6.9657271901
  0
LWPOLYLINE
  5
244
100
AcDbEntity
  8
ASSI
100
AcDbPolyline
 62
250
  6
CONTINUOUS
 90
25
 70
0
 10
-21.0125039523
 20
7.4399997382
 10
-21.0248285631
 20
7.4227883573
 10
-21.0366795378
 20
7.4052800174
 10
-21.0480568763
 20
7.3874747185
 10
-21.0589683694
 20
7.3693589336
 10
-21.0694062263
 20
7.3509461898
 10
-21.0793470753
 20
7.3322770676
 10
-21.0887894048
 20
7.3133516458
 10
-21.0977347265
 20
7.2941698457
 10
-21.1061642029
 20
7.2747720119
 10
-21.1140767222
 20
7.2551577252
 10
-21.1214733962
 20
7.235327405
 10
-21.1283387236
 20
7.2153226539
 10
-21.1346715798
 20
7.1951431487
 10
-21.1404730894
 20
7.1747892127
 10
-21.1457311244
 20
7.1543034193
 10
-21.1504445538
 20
7.1336854231
 10
-21.1546145086
 20
7.1129355694
 10
-21.1582322541
 20
7.0920974672
 10
-21.1612966288
 20
7.0711699363
 10
-21.1638087942
 20
7.0501541568
 10
-21.1657634993
 20
7.0290972775
 10
-21.1671589939
 20
7.0080150148
 10
-21.1679970282
 20
6.9868916523
 10
-21.1682776023
 20
6.9657271901
  0
LINE
  5
245
100
AcDbEntity
  8
ASSI
100
AcDbLine
 62
7
  6
CONTINUOUS
 10
-21.7474326167
 20
7.8445634449
 11
-21.7480270024
 21
7.8437549695
  0
LINE
  5
246
100
AcDbEntity
  8
ASSI
100
AcDbLine
 62
7
  6
CONTINUOUS
 10
-1.8
 20
-19.65
 11
1.8
 21
-19.65
  0
LINE
  5
247
100
AcDbEntity
  8
0
100
AcDbLine
 62
7
  6
CONTINUOUS
 10
-1.8
 20
-19.5511295404
 11
1.8
 21
-19.5511295404
  0
LINE
  5
248
100
AcDbEntity
  8
ASSI
100
AcDbLine
 62
7
  6
CONTINUOUS
 10
-17.0337991956
 20
-13.9229912362
 11
-17.0413417386
 21
-13.9137627179
  0
LINE
  5
249
100
AcDbEntity
  8
ASSI
100
AcDbLine
 62
7
  6
CONTINUOUS
 10
-21.7474326167
 20
-7.8445634449
 11
-21.7480270024
 21
-7.8437549695
  0
LINE
  5
24A
100
AcDbEntity
  8
ASSI
100
AcDbLine
 62
7
  6
CONTINUOUS
 10
-21.7474326389
 20
-7.8445634147
 11
-21.7681584919
 21
-7.8155475572
  0
LINE
  5
24B
100
AcDbEntity
  8
ASSI
100
AcDbLine
 62
7
  6
CONTINUOUS
 10
-21.7679536547
 20
-7.8158882209
 11
-21.7880603716
 21
-7.7860055848
  0
LINE
  5
24C
100
AcDbEntity
  8
ASSI
100
AcDbLine
 62
7
  6
CONTINUOUS
 10
-21.7871195834
 20
-7.787532223
 11
-21.8071382782
 21
-7.7559374975
  0
LWPOLYLINE
  5
24D
100
AcDbEntity
  8
ASSI
100
AcDbPolyline
 62
7
  6
CONTINUOUS
 90
19
 70
0
 10
-21.8055247886
 20
-7.7586869758
 10
-21.8254105944
 20
-7.7253104772
 10
-21.8428589374
 20
-7.6941573421
 10
-21.8594281591
 20
-7.6625765466
 10
-21.8751064032
 20
-7.6305867262
 10
-21.889905526
 20
-7.5981692455
 10
-21.9038059484
 20
-7.5653666532
 10
-21.9168131117
 20
-7.5321616473
 10
-21.9289215746
 20
-7.4985715298
 10
-21.9400954337
 20
-7.4646907554
 10
-21.9503301772
 20
-7.4305197439
 10
-21.959630317
 20
-7.3960580755
 10
-21.9679734851
 20
-7.3613989458
 10
-21.975355109
 20
-7.3265543039
 10
-21.9817797613
 20
-7.2915122006
 10
-21.9872387917
 20
-7.2563299838
 10
-21.991729317
 20
-7.2210267694
 10
-21.9952542205
 20
-7.1855834414
 10
-21.9978135022
 20
-7.15
  0
LINE
  5
24E
100
AcDbEntity
  8
ASSI
100
AcDbLine
 62
7
  6
CONTINUOUS
 10
-16.6977995296
 20
10.711579355
 11
-16.6977995296
 21
2.6977995296
  0
LINE
  5
24F
100
AcDbEntity
  8
ASSI
100
AcDbLine
 62
7
  6
CONTINUOUS
 10
-16.6977995296
 20
-2.6977995296
 11
-16.6977995296
 21
-10.711579355
  0
LINE
  5
250
100
AcDbEntity
  8
ASSI
100
AcDbLine
 62
7
  6
CONTINUOUS
 10
-16.55
 20
10.3831872032
 11
-16.55
 21
2.55
  0
LINE
  5
251
100
AcDbEntity
  8
ASSI
100
AcDbLine
 62
7
  6
CONTINUOUS
 10
-16.55
 20
-2.55
 11
-16.55
 21
-10.3831872032
  0
LWPOLYLINE
  5
252
100
AcDbEntity
  8
0
100
AcDbPolyline
 62
250
  6
CONTINUOUS
 90
10
 70
0
 10
-0.95
 20
-16.4700733605
 10
-0.9280837431
 20
-16.4648723218
 10
-0.9047682559
 20
-16.4602576832
 10
-0.8802075178
 20
-16.4562599204
 10
-0.8545637325
 20
-16.4529054363
 10
-0.8280062557
 20
-16.4502163843
 10
-0.8007104769
 20
-16.4482105223
 10
-0.7728566619
 20
-16.4469010979
 10
-0.7446287623
 20
-16.44629676
 10
-0.7162132005
 20
-16.4464015011
  0
LWPOLYLINE
  5
253
100
AcDbEntity
  8
COPY-PUBBLISH
100
AcDbPolyline
 62
7
  6
CONTINUOUS
 90
6
 70
0
 10
-1.4281804872
 20
-17.2328917472
 10
-1.4501745661
 20
-17.2370607104
 10
-1.4734633135
 20
-17.2403429995
 10
-1.4976808738
 20
-17.242669267
 10
-1.5231931027
 20
-17.2441088605
 10
-1.55
 20
-17.2446617801
  0
LWPOLYLINE
  5
254
100
AcDbEntity
  8
COPY-PUBBLISH
100
AcDbPolyline
 62
7
  6
CONTINUOUS
 90
6
 70
0
 10
-1.1781804872
 20
-16.5299653029
 10
-1.2001745661
 20
-16.534134266
 10
-1.2234633135
 20
-16.5374165552
 10
-1.2476808738
 20
-16.5397428227
 10
-1.2731931027
 20
-16.5411824162
 10
-1.3
 20
-16.5417353357
  0
LWPOLYLINE
  5
255
100
AcDbEntity
  8
0
100
AcDbPolyline
 62
250
  6
CONTINUOUS
 90
12
 70
0
 10
-0.95
 20
-18.9668759592
 10
-0.9043158327
 20
-18.96400467
 10
-0.8594133342
 20
-18.955439931
 10
-0.8160607987
 20
-18.9413282872
 10
-0.775
 20
-18.9219111928
 10
-0.7369334998
 20
-18.8975208796
 10
-0.7025126266
 20
-18.8685746727
 10
-0.6723263309
 20
-18.8355678496
 10
-0.6468911087
 20
-18.7990651663
 10
-0.6266421636
 20
-18.7596911939
 10
-0.6119259608
 20
-18.7181196318
 10
-0.6029942985
 20
-18.6750617811
  0
LINE
  5
256
100
AcDbEntity
  8
0
100
AcDbLine
 62
7
  6
CONTINUOUS
 10
-1.8
 20
-19.1068326776
 11
-0.95
 21
-19.1068326776
  0
LINE
  5
257
100
AcDbEntity
  8
0
100
AcDbLine
 62
7
  6
CONTINUOUS
 10
0.95
 20
-19.1068326776
 11
1.8
 21
-19.1068326776
  0
LINE
  5
258
100
AcDbEntity
  8
0
100
AcDbLine
 62
250
  6
CONTINUOUS
 10
-1.8
 20
-18.9668759592
 11
-0.95
 21
-18.9668759592
  0
LINE
  5
259
100
AcDbEntity
  8
0
100
AcDbLine
 62
250
  6
CONTINUOUS
 10
0.95
 20
-18.9668759592
 11
1.8
 21
-18.9668759592
  0
LINE
  5
25A
100
AcDbEntity
  8
0
100
AcDbLine
 62
7
  6
CONTINUOUS
 10
-0.6248605126
 20
-18.8855233043
 11
0.6248605126
 21
-18.8855233043
  0
LINE
  5
25B
100
AcDbEntity
  8
DRAFT
100
AcDbLine
 62
7
  6
CONTINUOUS
 10
-0.6
 20
-18.8
 11
0.6
 21
-18.8
  0
LINE
  5
25C
100
AcDbEntity
  8
0
100
AcDbLine
 62
7
  6
CONTINUOUS
 10
-0.6
 20
-18.7568326776
 11
0.6
 21
-18.7568326776
  0
LINE
  5
25D
100
AcDbEntity
  8
0
100
AcDbLine
 62
250
  6
CONTINUOUS
 10
0.6
 20
-18.6312543735
 11
-0.6
 21
-18.6312543735
  0
LINE
  5
25E
100
AcDbEntity
  8
0
100
AcDbLine
 62
7
  6
CONTINUOUS
 10
0.6
 20
-18.1673041954
 11
-0.6
 21
-18.1673041954
  0
LINE
  5
25F
100
AcDbEntity
  8
COPY-PUBBLISH
100
AcDbLine
 62
7
  6
CONTINUOUS
 10
-1.6
 20
-18.0117968333
 11
-1.55
 21
-18.0117968333
  0
LINE
  5
260
100
AcDbEntity
  8
COPY-PUBBLISH
100
AcDbLine
 62
7
  6
CONTINUOUS
 10
1.55
 20
-18.0117968333
 11
1.6
 21
-18.0117968333
  0
LINE
  5
261
100
AcDbEntity
  8
0
100
AcDbLine
 62
250
  6
CONTINUOUS
 10
-0.6874517351
 20
-17.59
 11
0.6874517351
 21
-17.59
  0
LINE
  5
262
100
AcDbEntity
  8
COPY-PUBBLISH
100
AcDbLine
 62
7
  6
CONTINUOUS
 10
-1.35
 20
-17.3088703889
 11
-1.3
 21
-17.3088703889
  0
LINE
  5
263
100
AcDbEntity
  8
COPY-PUBBLISH
100
AcDbLine
 62
7
  6
CONTINUOUS
 10
1.3
 20
-17.2458591156
 11
1.35
 21
-17.2458591156
  0
LINE
  5
264
100
AcDbEntity
  8
COPY-PUBBLISH
100
AcDbLine
 62
7
  6
CONTINUOUS
 10
-1.6
 20
-17.2446617801
 11
-1.55
 21
-17.2446617801
  0
LINE
  5
265
100
AcDbEntity
  8
COPY-PUBBLISH
100
AcDbLine
 62
7
  6
CONTINUOUS
 10
1.55
 20
-17.2446617801
 11
1.6
 21
-17.2446617801
  0
LINE
  5
266
100
AcDbEntity
  8
COPY-PUBBLISH
100
AcDbLine
 62
7
  6
CONTINUOUS
 10
-1.35
 20
-16.5417353357
 11
-1.3
 21
-16.5417353357
  0
LINE
  5
267
100
AcDbEntity
  8
COPY-PUBBLISH
100
AcDbLine
 62
7
  6
CONTINUOUS
 10
1.3
 20
-16.4787240624
 11
1.35
 21
-16.4787240624
  0
LINE
  5
268
100
AcDbEntity
  8
0
100
AcDbLine
 62
250
  6
CONTINUOUS
 10
-1.8
 20
-15.7
 11
-1.1
 21
-15.7
  0
LINE
  5
269
100
AcDbEntity
  8
0
100
AcDbLine
 62
250
  6
CONTINUOUS
 10
1.1
 20
-15.7
 11
1.8
 21
-15.7
  0
LINE
  5
26A
100
AcDbEntity
  8
ASSI
100
AcDbLine
 62
7
  6
CONTINUOUS
 10
-1.8
 20
-14.6
 11
-1.1
 21
-14.6
  0
LINE
  5
26B
100
AcDbEntity
  8
ASSI
100
AcDbLine
 62
7
  6
CONTINUOUS
 10
1.1
 20
-14.6
 11
1.8
 21
-14.6
  0
LINE
  5
26C
100
AcDbEntity
  8
COPY-PUBBLISH
100
AcDbLine
 62
7
  6
CONTINUOUS
 10
1.55
 20
-18.0117968333
 11
1.5231931027
 21
-18.0112439137
  0
LINE
  5
26D
100
AcDbEntity
  8
COPY-PUBBLISH
100
AcDbLine
 62
7
  6
CONTINUOUS
 10
1.3
 20
-17.2458591156
 11
1.2731931027
 21
-17.2453061961
  0
LINE
  5
26E
100
AcDbEntity
  8
COPY-PUBBLISH
100
AcDbLine
 62
7
  6
CONTINUOUS
 10
1.55
 20
-17.2446617801
 11
1.5231931027
 21
-17.2441088605
  0
LINE
  5
26F
100
AcDbEntity
  8
COPY-PUBBLISH
100
AcDbLine
 62
7
  6
CONTINUOUS
 10
1.3
 20
-16.4787240624
 11
1.2731931027
 21
-16.4781711428
  0
LWPOLYLINE
  5
270
100
AcDbEntity
  8
COPY-PUBBLISH
100
AcDbPolyline
 62
7
  6
CONTINUOUS
 90
12
 70
0
 10
1.5231931027
 20
-18.0112439137
 10
1.4976808738
 20
-18.0098043202
 10
1.4734633135
 20
-18.0074780527
 10
1.4501745661
 20
-18.0041957636
 10
1.4281804872
 20
-18.0000268004
 10
1.4085786438
 20
-17.9951792063
 10
1.3914904346
 20
-17.9896185429
 10
1.3767944609
 20
-17.9833792486
 10
1.3652240935
 20
-17.9767726819
 10
1.3570237894
 20
-17.969902629
 10
1.3519490915
 20
-17.9626653037
 10
1.35
 20
-17.955060706
  0
LWPOLYLINE
  5
271
100
AcDbEntity
  8
COPY-PUBBLISH
100
AcDbPolyline
 62
7
  6
CONTINUOUS
 90
12
 70
0
 10
1.2731931027
 20
-17.2453061961
 10
1.2476808738
 20
-17.2438666025
 10
1.2234633135
 20
-17.241540335
 10
1.2001745661
 20
-17.2382580459
 10
1.1781804872
 20
-17.2340890827
 10
1.1585786438
 20
-17.2292414886
 10
1.1414904346
 20
-17.2236808252
 10
1.1267944609
 20
-17.2174415309
 10
1.1152240935
 20
-17.2108349643
 10
1.1070237894
 20
-17.2039649113
 10
1.1019490915
 20
-17.196727586
 10
1.1
 20
-17.1891229883
  0
LWPOLYLINE
  5
272
100
AcDbEntity
  8
COPY-PUBBLISH
100
AcDbPolyline
 62
7
  6
CONTINUOUS
 90
11
 70
0
 10
1.5231931027
 20
-17.2441088605
 10
1.4976808738
 20
-17.242669267
 10
1.4734633135
 20
-17.2403429995
 10
1.4501745661
 20
-17.2370607104
 10
1.4281804872
 20
-17.2328917472
 10
1.4085786438
 20
-17.2280441531
 10
1.3914904346
 20
-17.2224834897
 10
1.3767944609
 20
-17.2162441954
 10
1.3652240935
 20
-17.2096376287
 10
1.3570237894
 20
-17.2027675758
 10
1.3519490915
 20
-17.1955302505
  0
LWPOLYLINE
  5
273
100
AcDbEntity
  8
COPY-PUBBLISH
100
AcDbPolyline
 62
7
  6
CONTINUOUS
 90
12
 70
0
 10
1.2731931027
 20
-16.4781711428
 10
1.2476808738
 20
-16.4767315493
 10
1.2234633135
 20
-16.4744052818
 10
1.2001745661
 20
-16.4711229927
 10
1.1781804872
 20
-16.4669540295
 10
1.1585786438
 20
-16.4621064354
 10
1.1414904346
 20
-16.456545772
 10
1.1267944609
 20
-16.4503064777
 10
1.1152240935
 20
-16.443699911
 10
1.1070237894
 20
-16.4368298581
 10
1.1019490915
 20
-16.4295925328
 10
1.1
 20
-16.4219879351
  0
LWPOLYLINE
  5
274
100
AcDbEntity
  8
0
100
AcDbPolyline
 62
250
  6
CONTINUOUS
 90
12
 70
0
 10
0.95
 20
-18.9668759592
 10
0.9043158327
 20
-18.96400467
 10
0.8594133342
 20
-18.955439931
 10
0.8160607987
 20
-18.9413282872
 10
0.775
 20
-18.9219111928
 10
0.7369334998
 20
-18.8975208796
 10
0.7025126266
 20
-18.8685746727
 10
0.6723263309
 20
-18.8355678496
 10
0.6468911087
 20
-18.7990651663
 10
0.6266421636
 20
-18.7596911939
 10
0.6119259608
 20
-18.7181196318
 10
0.6029942985
 20
-18.6750617811
  0
LWPOLYLINE
  5
275
100
AcDbEntity
  8
COPY-PUBBLISH
100
AcDbPolyline
 62
7
  6
CONTINUOUS
 90
9
 70
0
 10
1.8
 20
-18.5000288832
 10
1.7756990592
 20
-18.4948576441
 10
1.7313613316
 20
-18.4827894357
 10
1.6928459719
 20
-18.4692077294
 10
1.6599005075
 20
-18.4541781544
 10
1.6339960654
 20
-18.4383718323
 10
1.6156230213
 20
-18.4220124705
 10
1.6042909995
 20
-18.4048763616
 10
1.6
 20
-18.3869635057
  0
LWPOLYLINE
  5
276
100
AcDbEntity
  8
COPY-PUBBLISH
100
AcDbPolyline
 62
7
  6
CONTINUOUS
 90
9
 70
0
 10
1.8
 20
-17.73289383
 10
1.7756990592
 20
-17.7277225909
 10
1.7313613316
 20
-17.7156543824
 10
1.6928459719
 20
-17.7020726762
 10
1.6599005075
 20
-17.6870431012
 10
1.6339960654
 20
-17.6712367791
 10
1.6156230213
 20
-17.6548774173
 10
1.6042909995
 20
-17.6377413084
 10
1.6
 20
-17.6198284525
  0
LWPOLYLINE
  5
277
100
AcDbEntity
  8
0
100
AcDbPolyline
 62
250
  6
CONTINUOUS
 90
10
 70
0
 10
0.95
 20
-16.4700733606
 10
0.928083695
 20
-16.4648707356
 10
0.9047681702
 20
-16.4602549403
 10
0.8802074061
 20
-16.4562564334
 10
0.8545636076
 20
-16.4529015636
 10
0.8280061303
 20
-16.4502124921
 10
0.8007103614
 20
-16.4482070394
 10
0.7728565652
 20
-16.4468984438
 10
0.7446286936
 20
-16.4462952815
 10
0.716213168
 20
-16.4464015016
  0
LWPOLYLINE
  5
278
100
AcDbEntity
  8
RACCORDO
100
AcDbPolyline
 62
7
  6
CONTINUOUS
 90
21
 70
0
 10
-12.2116882891
 20
0.6940108704
 10
-12.2171693586
 20
0.6639701376
 10
-12.2209607316
 20
0.6347384549
 10
-12.2229508373
 20
0.6064022614
 10
-12.2232300044
 20
0.5789915411
 10
-12.2220692194
 20
0.5525962461
 10
-12.219506825
 20
0.5272264933
 10
-12.2155044784
 20
0.5028721657
 10
-12.2102181384
 20
0.4795928643
 10
-12.2036632847
 20
0.4573379771
 10
-12.1958244376
 20
0.4361581161
 10
-12.1868111171
 20
0.4162647191
 10
-12.1766816038
 20
0.3976650228
 10
-12.165377617
 20
0.3803517905
 10
-12.1528338353
 20
0.3645147493
 10
-12.138800033
 20
0.3499884922
 10
-12.1235264358
 20
0.3369384263
 10
-12.1076983984
 20
0.3260505003
 10
-12.0915443727
 20
0.3175533636
 10
-12.0748359069
 20
0.3112183667
 10
-12.057573001
 20
0.3070455097
  0
LINE
  5
279
100
AcDbEntity
  8
RACCORDO
100
AcDbLine
 62
7
  6
CONTINUOUS
 10
-12.2044537971
 20
0.7252099226
 11
-12.2116882891
 21
0.6940108704
  0
LINE
  5
27A
100
AcDbEntity
  8
ASSI
100
AcDbLine
 62
7
  6
CONTINUOUS
 10
-16.6977995296
 20
-10.711579355
 11
-16.55
 21
-10.3831872032
  0
LINE
  5
27B
100
AcDbEntity
  8
ASSI
100
AcDbLine
 62
7
  6
CONTINUOUS
 10
-16.6977995296
 20
-2.6977995296
 11
-16.55
 21
-2.55
  0
LWPOLYLINE
  5
27C
100
AcDbEntity
  8
0
100
AcDbPolyline
 62
7
  6
CONTINUOUS
 90
10
 70
0
 10
-0.6638481745
 20
-13.9518585447
 10
-0.6919916912
 20
-13.9529912991
 10
-0.736665841
 20
-13.9595112922
 10
-0.7790790976
 20
-13.9713541073
 10
-0.8187151966
 20
-13.9879499709
 10
-0.855091355
 20
-14.0086633299
 10
-0.8877818242
 20
-14.0327666128
 10
-0.9168172202
 20
-14.0598088078
 10
-0.9418624221
 20
-14.0889719605
 10
-0.9499937145
 20
-14.1000001322
  0
LINE
  5
27D
100
AcDbEntity
  8
0
100
AcDbLine
 62
7
  6
CONTINUOUS
 10
-1.1
 20
-14.1
 11
-0.9499936953
 21
-14.1
  0
LINE
  5
27E
100
AcDbEntity
  8
0
100
AcDbLine
 62
7
  6
CONTINUOUS
 10
0.9499934176
 20
-14.1
 11
1.1
 21
-14.1
  0
LINE
  5
27F
100
AcDbEntity
  8
0
100
AcDbLine
 62
7
  6
CONTINUOUS
 10
0.6638481374
 20
-13.9519235587
 11
-0.6638387641
 21
-13.9519235587
  0
LWPOLYLINE
  5
280
100
AcDbEntity
  8
ASSI
100
AcDbPolyline
 62
7
  6
CONTINUOUS
 90
7
 70
0
 10
-3.0019140967
 20
-9.2463525183
 10
-3.0104991272
 20
-9.2461003469
 10
-3.0196000186
 20
-9.245575509
 10
-3.0292167706
 20
-9.2447780045
 10
-3.0393728304
 20
-9.2436658571
 10
-3.0500447509
 20
-9.2422810431
 10
-3.0727367172
 20
-9.2391605996
  0
LWPOLYLINE
  5
281
100
AcDbEntity
  8
ASSI
100
AcDbPolyline
 62
7
  6
CONTINUOUS
 90
48
 70
0
 10
-3.0727367172
 20
-9.2391605996
 10
-3.084756763
 20
-9.23742497
 10
-3.0971172878
 20
-9.2354003479
 10
-3.1098260143
 20
-9.2331182265
 10
-3.1228752199
 20
-9.2305471125
 10
-3.1361366956
 20
-9.22745027
 10
-3.1496157288
 20
-9.2237863615
 10
-3.1633070322
 20
-9.2195967244
 10
-3.177066535
 20
-9.2147686358
 10
-3.1909025393
 20
-9.2092590441
 10
-3.2048067429
 20
-9.2031110009
 10
-3.2186101693
 20
-9.1963409383
 10
-3.2322819941
 20
-9.1889587652
 10
-3.2458530415
 20
-9.1809545728
 10
-3.2592468079
 20
-9.1723150662
 10
-3.2724644227
 20
-9.1630421325
 10
-3.2855047563
 20
-9.1531338846
 10
-3.2982879159
 20
-9.1425713671
 10
-3.3107890949
 20
-9.131368521
 10
-3.3230330998
 20
-9.1195114052
 10
-3.3350144576
 20
-9.1069392412
 10
-3.3467270502
 20
-9.0936751952
 10
-3.3581769956
 20
-9.0796961009
 10
-3.3693771753
 20
-9.064871681
 10
-3.3803492233
 20
-9.0492025095
 10
-3.3910715055
 20
-9.0326880123
 10
-3.4014920017
 20
-9.01519619
 10
-3.4116275214
 20
-8.9967169908
 10
-3.4214612551
 20
-8.9772604664
 10
-3.4308907537
 20
-8.9567247728
 10
-3.4398996236
 20
-8.9351266446
 10
-3.4485042585
 20
-8.9124493471
 10
-3.4566513903
 20
-8.8885408317
 10
-3.4643249467
 20
-8.8633814348
 10
-3.4715409999
 20
-8.8369908201
 10
-3.4782944994
 20
-8.80927593
 10
-3.4845764122
 20
-8.7802216895
 10
-3.4903957713
 20
-8.7498431737
 10
-3.4957746246
 20
-8.7180925499
 10
-3.5007430532
 20
-8.6849947877
 10
-3.505270976
 20
-8.6505249175
 10
-3.5092901979
 20
-8.6145601976
 10
-3.5128139266
 20
-8.5770920309
 10
-3.5158289544
 20
-8.5381290145
 10
-3.5182274632
 20
-8.4975741978
 10
-3.5199735137
 20
-8.4553952638
 10
-3.5211030452
 20
-8.4116245295
 10
-3.5216160578
 20
-8.3662619948
  0
LWPOLYLINE
  5
282
100
AcDbEntity
  8
0
100
AcDbPolyline
 62
7
  6
CONTINUOUS
 90
10
 70
0
 10
-0.6874517351
 20
-17.59
 10
-0.7744653609
 20
-17.52037272
 10
-0.8511924951
 20
-17.4465199161
 10
-0.9176331375
 20
-17.3685115887
 10
-0.9737969426
 20
-17.2854780993
 10
-1.019674256
 20
-17.1985045261
 10
-1.0552361147
 20
-17.1105930781
 10
-1.0804728645
 20
-17.0228078926
 10
-1.0953941596
 20
-16.9343158669
 10
-1.1
 20
-16.8452497106
  0
LINE
  5
283
100
AcDbEntity
  8
ASSI
100
AcDbLine
 62
7
  6
CONTINUOUS
 10
-16.6977995296
 20
2.6977995296
 11
-16.55
 21
2.55
  0
LWPOLYLINE
  5
284
100
AcDbEntity
  8
0
100
AcDbPolyline
 62
7
  6
CONTINUOUS
 90
10
 70
0
 10
-0.6874517351
 20
-17.59
 10
-0.768448443
 20
-17.5086604736
 10
-0.8412340976
 20
-17.4194760588
 10
-0.905808699
 20
-17.3225276153
 10
-0.9629435133
 20
-17.2165541727
 10
-1.0118672744
 20
-17.1031059038
 10
-1.0502661835
 20
-16.9864963651
 10
-1.0773689743
 20
-16.8682745792
 10
-1.0939469131
 20
-16.7472824196
 10
-1.1
 20
-16.6237626357
  0
LINE
  5
285
100
AcDbEntity
  8
ASSI
100
AcDbLine
 62
7
  6
CONTINUOUS
 10
-16.6977995296
 20
10.711579355
 11
-16.5986103571
 21
10.4916062316
  0
LINE
  5
286
100
AcDbEntity
  8
ASSI
100
AcDbLine
 62
7
  6
CONTINUOUS
 10
-16.5986103571
 20
10.4916062316
 11
-16.55
 21
10.3831872032
  0
LINE
  5
287
100
AcDbEntity
  8
ASSI
100
AcDbLine
 62
7
  6
CONTINUOUS
 10
-4.692353
 20
-7.794822226
 11
-4.692353
 21
-8.036766
  0
LINE
  5
288
100
AcDbEntity
  8
ASSI
100
AcDbLine
 62
7
  6
CONTINUOUS
 10
-4.350603
 20
-8.036766
 11
-4.350603
 21
-9.242564
  0
LWPOLYLINE
  5
289
100
AcDbEntity
  8
RACCORDO
100
AcDbPolyline
 62
250
  6
CONTINUOUS
 90
7
 70
0
 10
-7.0267969232
 20
1.3127011642
 10
-7.074329903
 20
1.0885698734
 10
-7.1274260559
 20
0.768753547
 10
-7.166095322
 20
0.4479222371
 10
-7.190162177
 20
0.1270406996
 10
-7.1998021453
 20
-0.1948558215
 10
-7.1950152268
 20
-0.517767326
  0
LWPOLYLINE
  5
28A
100
AcDbEntity
  8
RACCORDO
100
AcDbPolyline
 62
250
  6
CONTINUOUS
 90
6
 70
0
 10
-6.7683793622
 20
0.0406627141
 10
-6.7570896463
 20
0.0882398362
 10
-6.7461937304
 20
0.1376327402
 10
-6.7357003785
 20
0.188830766
 10
-6.7256129974
 20
0.2418061423
 10
-6.715935385
 20
0.2965670007
  0
LINE
  5
28B
100
AcDbEntity
  8
RACCORDO
100
AcDbLine
 62
250
  6
CONTINUOUS
 10
-6.7800905238
 20
-0.0052103669
 11
-6.7683793622
 21
0.0406627141
  0
LWPOLYLINE
  5
28C
100
AcDbEntity
  8
COPY-PUBBLISH
100
AcDbPolyline
 62
7
  6
CONTINUOUS
 90
25
 70
0
 10
-7.4087905944
 20
-1.0660254038
 10
-7.439867544
 20
-1.1149144802
 10
-7.4722810272
 20
-1.1637876536
 10
-7.506031044
 20
-1.2125750399
 10
-7.5411306338
 20
-1.2612573714
 10
-7.5775667572
 20
-1.3097253964
 10
-7.6153002959
 20
-1.357774544
 10
-7.6543430804
 20
-1.405335313
 10
-7.6946832802
 20
-1.4523597298
 10
-7.7362462858
 20
-1.4986736338
 10
-7.7790424779
 20
-1.544219638
 10
-7.8230614758
 20
-1.5889559943
 10
-7.8681975274
 20
-1.6327332714
 10
-7.9144421932
 20
-1.6754941696
 10
-7.9618039127
 20
-1.7172173913
 10
-8.0102022531
 20
-1.757810888
 10
-8.0596381761
 20
-1.7972444049
 10
-8.1101107199
 20
-1.8354908716
 10
-8.161536566
 20
-1.8724671457
 10
-8.2139122562
 20
-1.9081521161
 10
-8.2672412488
 20
-1.9425281252
 10
-8.3214505998
 20
-1.9755210049
 10
-8.3765159946
 20
-2.0070982842
 10
-8.4324617478
 20
-2.0372691846
 10
-8.4892878595
 20
-2.0660254038
  0
LINE
  5
28D
100
AcDbEntity
  8
ASSI
100
AcDbLine
 62
250
  6
CONTINUOUS
 10
-21.0125039523
 20
-7.4399997382
 11
-21.4150692686
 21
-7.7364200808
  0
LINE
  5
28E
100
AcDbEntity
  8
ASSI
100
AcDbLine
 62
7
  6
CONTINUOUS
 10
-19.6539135825
 20
-2.6977995296
 11
-19.3703530298
 21
-2.55
  0
LWPOLYLINE
  5
28F
100
AcDbEntity
  8
ASSI
100
AcDbPolyline
 62
7
  6
CONTINUOUS
 90
40
 70
0
 10
-3.0142879529
 20
-8.9702608514
 10
-3.0063787887
 20
-8.970029988
 10
-2.9986252455
 20
-8.9694575208
 10
-2.9910273232
 20
-8.9685434499
 10
-2.9835931455
 20
-8.9672808139
 10
-2.9763145887
 20
-8.9656765742
 10
-2.9691672819
 20
-8.9637516148
 10
-2.9621486037
 20
-8.9615211157
 10
-2.9552611755
 20
-8.958969897
 10
-2.9484884912
 20
-8.9560733029
 10
-2.9418309039
 20
-8.9528359808
 10
-2.9352880605
 20
-8.9492532834
 10
-2.9288423961
 20
-8.9452866128
 10
-2.9224962016
 20
-8.9409410981
 10
-2.916247186
 20
-8.9362116103
 10
-2.9100709118
 20
-8.9310441645
 10
-2.9039523692
 20
-8.9254396808
 10
-2.8979065679
 20
-8.9193972391
 10
-2.8919540993
 20
-8.9128600944
 10
-2.8860823971
 20
-8.9058260243
 10
-2.8803040277
 20
-8.8982972512
 10
-2.874677282
 20
-8.8902236976
 10
-2.8692026697
 20
-8.8816118027
 10
-2.8638796811
 20
-8.8724551273
 10
-2.8587650775
 20
-8.8626842767
 10
-2.8538600474
 20
-8.8522896476
 10
-2.8491634023
 20
-8.8412808433
 10
-2.8447283377
 20
-8.8296172793
 10
-2.8405634041
 20
-8.8172829093
 10
-2.836660051
 20
-8.8042937796
 10
-2.8330458221
 20
-8.7906574438
 10
-2.8297129958
 20
-8.7763865743
 10
-2.8266692937
 20
-8.7614684987
 10
-2.8239654237
 20
-8.7458727532
 10
-2.8215834933
 20
-8.7296143502
 10
-2.8195413951
 20
-8.7126782774
 10
-2.8179435151
 20
-8.6949890342
 10
-2.8168246486
 20
-8.6765214539
 10
-2.8161500004
 20
-8.6573007034
 10
-2.8159195704
 20
-8.6373267826
  0
LWPOLYLINE
  5
290
100
AcDbEntity
  8
ASSI
100
AcDbPolyline
 62
7
  6
CONTINUOUS
 90
31
 70
0
 10
4.4904338029
 20
-8.500198252
 10
4.4947506699
 20
-8.5000743943
 10
4.4991578792
 20
-8.4997092445
 10
4.5036554307
 20
-8.4991028027
 10
4.5082458052
 20
-8.4982571128
 10
4.5129265219
 20
-8.4971701309
 10
4.5176901386
 20
-8.4958357249
 10
4.5225453544
 20
-8.4942725304
 10
4.5274834702
 20
-8.4924619119
 10
4.5324709457
 20
-8.490341831
 10
4.537507239
 20
-8.4879149285
 10
4.542592892
 20
-8.4851785636
 10
4.5476959897
 20
-8.4820627758
 10
4.5528079916
 20
-8.47855196
 10
4.5579374383
 20
-8.4746617213
 10
4.5630780369
 20
-8.4703689136
 10
4.5682320176
 20
-8.4656541262
 10
4.5733971503
 20
-8.4605367699
 10
4.5785604513
 20
-8.4550519306
 10
4.5837166741
 20
-8.4492044741
 10
4.5888710652
 20
-8.4429895347
 10
4.594026381
 20
-8.4364276015
 10
4.5991793013
 20
-8.4295302375
 10
4.6043331463
 20
-8.4222858796
 10
4.6095006327
 20
-8.4146803273
 10
4.6146776779
 20
-8.4066976905
 10
4.6198683644
 20
-8.3983538592
 10
4.6250976569
 20
-8.3896823038
 10
4.6303527739
 20
-8.3806780015
 10
4.635646497
 20
-8.3713459749
 10
4.6465607915
 20
-8.3518605414
  0
LWPOLYLINE
  5
291
100
AcDbEntity
  8
ASSI
100
AcDbPolyline
 62
7
  6
CONTINUOUS
 90
31
 70
0
 10
4.0763013719
 20
-8.5790287235
 10
4.0708639829
 20
-8.5791759136
 10
4.0653915009
 20
-8.5796250968
 10
4.0598839257
 20
-8.5803762731
 10
4.0543376311
 20
-8.5814220081
 10
4.0487562434
 20
-8.5827697362
 10
4.0431506415
 20
-8.5844417603
 10
4.0375159466
 20
-8.5864322051
 10
4.0318570376
 20
-8.588746946
 10
4.02619943
 20
-8.5914259116
 10
4.020544607
 20
-8.5944677649
 10
4.0148910855
 20
-8.597873843
 10
4.0092599317
 20
-8.6016880857
 10
4.00364526
 20
-8.6059126485
 10
3.998052956
 20
-8.6105453759
 10
3.9925217428
 20
-8.6156237412
 10
3.9870637272
 20
-8.6211488843
 10
3.9816668024
 20
-8.6271196652
 10
3.9763333704
 20
-8.6335701378
 10
3.9710742294
 20
-8.6405130897
 10
3.9658785812
 20
-8.6479357333
 10
3.9607164339
 20
-8.6558337596
 10
3.9555631065
 20
-8.66420525
 10
3.9504432799
 20
-8.6730521231
 10
3.9454010045
 20
-8.6823758262
 10
3.9404524285
 20
-8.6921776187
 10
3.9355814037
 20
-8.7024562413
 10
3.9307835349
 20
-8.7132093628
 10
3.9260573572
 20
-8.7244362062
 10
3.9214043355
 20
-8.7361375485
 10
3.9168244698
 20
-8.7483133897
  0
LWPOLYLINE
  5
292
100
AcDbEntity
  8
ASSI
100
AcDbPolyline
 62
7
  6
CONTINUOUS
 90
46
 70
0
 10
-3.0077143418
 20
-7.7247548865
 10
-3.0162564387
 20
-7.7249825256
 10
-3.0246770852
 20
-7.7255937467
 10
-3.0329762811
 20
-7.7265885497
 10
-3.0411547341
 20
-7.7279666724
 10
-3.0492117366
 20
-7.7297283771
 10
-3.0571451658
 20
-7.7318744509
 10
-3.064962928
 20
-7.7343927999
 10
-3.0726571169
 20
-7.737295518
 10
-3.0802018912
 20
-7.7406196741
 10
-3.0875905787
 20
-7.7443691731
 10
-3.0948298515
 20
-7.7485401102
 10
-3.1019138845
 20
-7.7531578394
 10
-3.1088358027
 20
-7.7582272498
 10
-3.115602481
 20
-7.7637434525
 10
-3.1222287193
 20
-7.7697171345
 10
-3.128708416
 20
-7.7761315738
 10
-3.1350476727
 20
-7.7830034926
 10
-3.1412795937
 20
-7.7903937443
 10
-3.1474211755
 20
-7.7983142843
 10
-3.1534554216
 20
-7.8067531574
 10
-3.1593644468
 20
-7.8157353508
 10
-3.165152938
 20
-7.8252564304
 10
-3.1708162085
 20
-7.8353208304
 10
-3.1763223123
 20
-7.845966841
 10
-3.1816748299
 20
-7.8571804685
 10
-3.1868701809
 20
-7.8689757066
 10
-3.1918656787
 20
-7.8814328271
 10
-3.1966586971
 20
-7.8945771931
 10
-3.2012518621
 20
-7.9083834415
 10
-3.205610366
 20
-7.9228557536
 10
-3.2097134125
 20
-7.9379956502
 10
-3.2135817977
 20
-7.9538016106
 10
-3.2172431018
 20
-7.9702732537
 10
-3.2207062324
 20
-7.9874064127
 10
-3.2239622817
 20
-8.0052052545
 10
-3.2270121073
 20
-8.0236818987
 10
-3.229859779
 20
-8.0428357793
 10
-3.232501227
 20
-8.0626674623
 10
-3.2349250983
 20
-8.0831907662
 10
-3.2371032924
 20
-8.1044071005
 10
-3.2390639098
 20
-8.1263150557
 10
-3.2408798992
 20
-8.1489242223
 10
-3.2425755769
 20
-8.172237797
 10
-3.2441266264
 20
-8.196252583
 10
-3.245533048
 20
-8.2209685804
  0
LWPOLYLINE
  5
293
100
AcDbEntity
  8
ASSI
100
AcDbPolyline
 62
7
  6
CONTINUOUS
 90
22
 70
0
 10
1.7339303118
 20
-8.0335444139
 10
1.7199597394
 20
-8.033897111
 10
1.7061591775
 20
-8.0345737189
 10
1.6925286258
 20
-8.0355742374
 10
1.6790132868
 20
-8.0368751463
 10
1.665667958
 20
-8.038499966
 10
1.6526570331
 20
-8.0405192573
 10
1.6400343467
 20
-8.0429523494
 10
1.6277460641
 20
-8.0457799131
 10
1.6157950747
 20
-8.0490145223
 10
1.6042901364
 20
-8.0526254024
 10
1.5931224913
 20
-8.0566433278
 10
1.5819687555
 20
-8.0611731965
 10
1.5707621667
 20
-8.0661984742
 10
1.5595694872
 20
-8.0717356951
 10
1.5482676207
 20
-8.0779393587
 10
1.5368411336
 20
-8.0848610264
 10
1.5253054595
 20
-8.0924491368
 10
1.5135838024
 20
-8.1007035054
 10
1.5016505635
 20
-8.1096240707
 10
1.4895313416
 20
-8.1192108944
 10
1.4772261366
 20
-8.1294639762
  0
LWPOLYLINE
  5
294
100
AcDbEntity
  8
ASSI
100
AcDbPolyline
 62
7
  6
CONTINUOUS
 90
40
 70
0
 10
-3.022021613
 20
-8.3438343804
 10
-3.0311180543
 20
-8.3440532736
 10
-3.0400406182
 20
-8.3446298633
 10
-3.0487893047
 20
-8.3455641493
 10
-3.0573612723
 20
-8.3468615405
 10
-3.0657593625
 20
-8.3485166282
 10
-3.0739920999
 20
-8.3505131856
 10
-3.0820631922
 20
-8.352845275
 10
-3.0899689318
 20
-8.3555188342
 10
-3.0977067204
 20
-8.3585354499
 10
-3.1052655386
 20
-8.3618931615
 10
-3.112656406
 20
-8.3655939294
 10
-3.1199097827
 20
-8.3696452224
 10
-3.1270327685
 20
-8.374043117
 10
-3.1340182636
 20
-8.3787915365
 10
-3.1408754296
 20
-8.3839097198
 10
-3.1476134347
 20
-8.3893904716
 10
-3.1542231106
 20
-8.3952409871
 10
-3.1606861136
 20
-8.4015020916
 10
-3.1670179925
 20
-8.40817263
 10
-3.1732031986
 20
-8.4152537574
 10
-3.1791767414
 20
-8.4227897631
 10
-3.1849390127
 20
-8.4307800433
 10
-3.1904896207
 20
-8.4392252019
 10
-3.1957624001
 20
-8.4481713395
 10
-3.2007403688
 20
-8.457623556
 10
-3.2054405089
 20
-8.4675767516
 10
-3.2098476022
 20
-8.4780617271
 10
-3.213950985
 20
-8.4890895615
 10
-3.2177613209
 20
-8.5006491759
 10
-3.2212953824
 20
-8.5127381342
 10
-3.2245505341
 20
-8.525367
 10
-3.2275294113
 20
-8.5385252097
 10
-3.2302566923
 20
-8.5521786372
 10
-3.232845126
 20
-8.5663068982
 10
-3.2351819636
 20
-8.580930377
 10
-3.2369536363
 20
-8.5960760999
 10
-3.2380556213
 20
-8.6117530757
 10
-3.2385924414
 20
-8.6279522957
 10
-3.2385640968
 20
-8.6446737597
  0
LWPOLYLINE
  5
295
100
AcDbEntity
  8
ASSI
100
AcDbPolyline
 62
7
  6
CONTINUOUS
 90
46
 70
0
 10
1.6469266352
 20
-9.2272348558
 10
1.6674961884
 20
-9.2268702887
 10
1.6875186148
 20
-9.2259448818
 10
1.7069939144
 20
-9.2244586353
 10
1.7259007258
 20
-9.2224032017
 10
1.7442604104
 20
-9.2197869284
 10
1.7621370524
 20
-9.2166348572
 10
1.7795386921
 20
-9.2129718302
 10
1.7964572892
 20
-9.2087730053
 10
1.8129328071
 20
-9.2039888983
 10
1.8289504731
 20
-9.1985946936
 10
1.8445250599
 20
-9.1926152068
 10
1.8597408476
 20
-9.1860754003
 10
1.8745930923
 20
-9.1789647436
 10
1.8890865379
 20
-9.1712937671
 10
1.9033196973
 20
-9.1631190248
 10
1.9173067713
 20
-9.1544648761
 10
1.931033559
 20
-9.1453069615
 10
1.9445559699
 20
-9.1356287561
 10
1.9579011102
 20
-9.1254689772
 10
1.9710418737
 20
-9.1147889076
 10
1.9839528508
 20
-9.1034558699
 10
1.9966544039
 20
-9.0914794427
 10
2.0091261707
 20
-9.0788500474
 10
2.0212816548
 20
-9.0654062709
 10
2.0331106136
 20
-9.0511246738
 10
2.0446232897
 20
-9.0360286955
 10
2.0557639148
 20
-9.0200272417
 10
2.0665421534
 20
-9.0030917812
 10
2.0769483409
 20
-8.9852508452
 10
2.0868977153
 20
-8.9664989326
 10
2.0963906375
 20
-8.9468003541
 10
2.1054267465
 20
-8.926190799
 10
2.1139201971
 20
-8.9047718348
 10
2.1218492345
 20
-8.8825278958
 10
2.1292356135
 20
-8.8594745477
 10
2.1360587531
 20
-8.8357600553
 10
2.1423400286
 20
-8.8113840069
 10
2.1480580648
 20
-8.7863468142
 10
2.1531281549
 20
-8.7607979771
 10
2.1575668932
 20
-8.7347344078
 10
2.1613576856
 20
-8.7081591941
 10
2.1643660425
 20
-8.6812310988
 10
2.1665471342
 20
-8.654003043
 10
2.1679457905
 20
-8.6264221057
 10
2.1685620114
 20
-8.5984882868
  0
LWPOLYLINE
  5
296
100
AcDbEntity
  8
ASSI
100
AcDbPolyline
 62
7
  6
CONTINUOUS
 90
43
 70
0
 10
0.2548052327
 20
-7.7507709264
 10
0.2459073781
 20
-7.7507775041
 10
0.2371352306
 20
-7.7511544614
 10
0.2284887899
 20
-7.7519017983
 10
0.2199675692
 20
-7.7530296428
 10
0.2115720554
 20
-7.7545278669
 10
0.2033037096
 20
-7.7563660867
 10
0.1951546864
 20
-7.7585358456
 10
0.1871328313
 20
-7.7610456002
 10
0.1792631419
 20
-7.763890336
 10
0.1715391835
 20
-7.7670645925
 10
0.1639673907
 20
-7.7705738302
 10
0.1565920653
 20
-7.7744294165
 10
0.1494083003
 20
-7.7786276711
 10
0.1424210026
 20
-7.7831722743
 10
0.1356891944
 20
-7.788085634
 10
0.1292257786
 20
-7.7933741007
 10
0.1230178522
 20
-7.7990313239
 10
0.1170857291
 20
-7.8050606599
 10
0.1114384813
 20
-7.8114774128
 10
0.1060670368
 20
-7.8182662785
 10
0.1009644923
 20
-7.8253847017
 10
0.0961477017
 20
-7.8327916683
 10
0.0915998111
 20
-7.8405281924
 10
0.0872633562
 20
-7.848674761
 10
0.0831178474
 20
-7.8572401767
 10
0.0791837742
 20
-7.8662156369
 10
0.0754651412
 20
-7.8756552214
 10
0.07195396
 20
-7.88554431
 10
0.068658219
 20
-7.8958975229
 10
0.0656058873
 20
-7.9068127996
 10
0.0627922376
 20
-7.9183335124
 10
0.0602219972
 20
-7.9304162891
 10
0.0579373171
 20
-7.9430289518
 10
0.0559633138
 20
-7.9561739245
 10
0.0542748707
 20
-7.9698487832
 10
0.0528387886
 20
-7.9840140784
 10
0.0516860138
 20
-7.9986677015
 10
0.0507855999
 20
-8.013811761
 10
0.0500115088
 20
-8.029413133
 10
0.0493217277
 20
-8.0454607761
 10
0.0487582693
 20
-8.0619657318
 10
0.0483211337
 20
-8.078928
  0
LINE
  5
297
100
AcDbEntity
  8
ASSI
100
AcDbLine
 62
7
  6
CONTINUOUS
 10
-4.350603
 20
-9.242564
 11
-4.067613
 21
-9.242564
  0
LINE
  5
298
100
AcDbEntity
  8
ASSI
100
AcDbLine
 62
7
  6
CONTINUOUS
 10
-1.830713
 20
-9.229559
 11
-1.599701
 21
-9.229559
  0
LINE
  5
299
100
AcDbEntity
  8
ASSI
100
AcDbLine
 62
7
  6
CONTINUOUS
 10
-0.2424691688
 20
-9.210887
 11
0.738329
 21
-9.210887
  0
LINE
  5
29A
100
AcDbEntity
  8
ASSI
100
AcDbLine
 62
7
  6
CONTINUOUS
 10
0.738329
 20
-8.905087
 11
0.1126987194
 21
-8.905087
  0
LINE
  5
29B
100
AcDbEntity
  8
ASSI
100
AcDbLine
 62
7
  6
CONTINUOUS
 10
1.4628583187
 20
-8.712109
 11
1.1798076542
 21
-8.712109
  0
LINE
  5
29C
100
AcDbEntity
  8
ASSI
100
AcDbLine
 62
7
  6
CONTINUOUS
 10
-0.2266078958
 20
-8.078928
 11
0.0483211337
 21
-8.078928
  0
LINE
  5
29D
100
AcDbEntity
  8
ASSI
100
AcDbLine
 62
7
  6
CONTINUOUS
 10
-4.692353
 20
-8.036766
 11
-4.350603
 21
-8.036766
  0
LINE
  5
29E
100
AcDbEntity
  8
ASSI
100
AcDbLine
 62
7
  6
CONTINUOUS
 10
-2.8422265601
 20
-7.892478
 11
-2.5611101086
 21
-7.892478
  0
LINE
  5
29F
100
AcDbEntity
  8
ASSI
100
AcDbLine
 62
7
  6
CONTINUOUS
 10
1.527833
 20
-7.750106
 11
2.112106
 21
-7.750106
  0
LINE
  5
2A0
100
AcDbEntity
  8
ASSI
100
AcDbLine
 62
7
  6
CONTINUOUS
 10
-4.067613
 20
-7.491662
 11
-4.3000088809
 21
-7.491662
  0
LINE
  5
2A1
100
AcDbEntity
  8
ASSI
100
AcDbLine
 62
7
  6
CONTINUOUS
 10
2.112106
 20
-7.45932
 11
1.323272
 21
-7.45932
  0
LINE
  5
2A2
100
AcDbEntity
  8
ASSI
100
AcDbLine
 62
7
  6
CONTINUOUS
 10
-1.151264
 20
-7.409767
 11
-1.382654
 21
-7.409767
  0
LINE
  5
2A3
100
AcDbEntity
  8
0
100
AcDbLine
 62
7
  6
CONTINUOUS
 10
-21.9978135022
 20
-7.15
 11
-21.9728859769
 21
-7.15
  0
LINE
  5
2A4
100
AcDbEntity
  8
0
100
AcDbLine
 62
7
  6
CONTINUOUS
 10
21.9728859769
 20
-7.15
 11
21.9978135022
 21
-7.15
  0
LINE
  5
2A5
100
AcDbEntity
  8
0
100
AcDbLine
 62
7
  6
CONTINUOUS
 10
-22.0
 20
-7.05
 11
-21.9755620937
 21
-7.05
  0
LINE
  5
2A6
100
AcDbEntity
  8
0
100
AcDbLine
 62
7
  6
CONTINUOUS
 10
21.9728859769
 20
-7.05
 11
22.0
 21
-7.05
  0
LINE
  5
2A7
100
AcDbEntity
  8
ASSI
100
AcDbLine
 62
250
  6
CONTINUOUS
 10
21.1682776023
 20
-6.9657271901
 11
21.6682014499
 21
-6.9657271901
  0
LINE
  5
2A8
100
AcDbEntity
  8
ASSI
100
AcDbLine
 62
250
  6
CONTINUOUS
 10
-21.1682776023
 20
-6.9657271901
 11
-21.6682014499
 21
-6.9657271901
  0
LWPOLYLINE
  5
2A9
100
AcDbEntity
  8
ASSI
100
AcDbPolyline
 62
7
  6
CONTINUOUS
 90
40
 70
0
 10
1.6616205895
 20
-8.3100227637
 10
1.6722577141
 20
-8.3100464769
 10
1.6825289259
 20
-8.3105593986
 10
1.6924342248
 20
-8.3115615289
 10
1.7019634431
 20
-8.3130659572
 10
1.7111267486
 20
-8.3150595941
 10
1.7199546445
 20
-8.3175031709
 10
1.7284436655
 20
-8.320429743
 10
1.7365972769
 20
-8.323806255
 10
1.7444563787
 20
-8.3274942717
 10
1.7520113552
 20
-8.3314562075
 10
1.759271822
 20
-8.3357296481
 10
1.766307526
 20
-8.3402889154
 10
1.7731320828
 20
-8.3451178953
 10
1.7797318768
 20
-8.3502327019
 10
1.7861358087
 20
-8.3556559987
 10
1.7923541694
 20
-8.3613780319
 10
1.798376668
 20
-8.3674085553
 10
1.8042013325
 20
-8.3737994943
 10
1.8098240246
 20
-8.3805458424
 10
1.8152488825
 20
-8.3876526061
 10
1.8204863489
 20
-8.3951867304
 10
1.8255346525
 20
-8.4031490655
 10
1.8303955647
 20
-8.4115387612
 10
1.8350848419
 20
-8.4204202119
 10
1.8396134272
 20
-8.4297933765
 10
1.8439703775
 20
-8.439658296
 10
1.8481386204
 20
-8.450079488
 10
1.8521322856
 20
-8.4610589053
 10
1.8559372434
 20
-8.472594595
 10
1.8594940322
 20
-8.4847452166
 10
1.8628044168
 20
-8.497518096
 10
1.8658666324
 20
-8.5109059073
 10
1.8686159239
 20
-8.5249453312
 10
1.8710685228
 20
-8.5396375984
 10
1.8732081975
 20
-8.5549814782
 10
1.8749214983
 20
-8.5710099594
 10
1.8761706085
 20
-8.5877340381
 10
1.8769933449
 20
-8.605142718
 10
1.8773897073
 20
-8.6232359992
  0
LWPOLYLINE
  5
2AA
100
AcDbEntity
  8
ASSI
100
AcDbPolyline
 62
7
  6
CONTINUOUS
 90
40
 70
0
 10
-4.692353
 20
-7.794822226
 10
-4.6713218322
 20
-7.794996021
 10
-4.6510855781
 20
-7.7947911588
 10
-4.6316442377
 20
-7.7942076392
 10
-4.6130277807
 20
-7.7932898205
 10
-4.5952062374
 20
-7.7919933445
 10
-4.5780896986
 20
-7.7901851365
 10
-4.5616735086
 20
-7.7878043939
 10
-4.5459623231
 20
-7.7849119194
 10
-4.5308802005
 20
-7.7815570468
 10
-4.5164283784
 20
-7.7777438069
 10
-4.5026056192
 20
-7.7734681689
 10
-4.4893322687
 20
-7.7687673743
 10
-4.4766065457
 20
-7.7636513779
 10
-4.4644302314
 20
-7.7581102249
 10
-4.4527290148
 20
-7.752151293
 10
-4.4414947549
 20
-7.745765251
 10
-4.4307355927
 20
-7.7389614301
 10
-4.4204016406
 20
-7.7317752007
 10
-4.4104878459
 20
-7.7242104649
 10
-4.4009992613
 20
-7.7162633206
 10
-4.3919011566
 20
-7.7079574329
 10
-4.383180005
 20
-7.6993025296
 10
-4.3748493334
 20
-7.690288883
 10
-4.3669149926
 20
-7.6809109738
 10
-4.359362305
 20
-7.6711742583
 10
-4.3522059481
 20
-7.6610732804
 10
-4.3454958062
 20
-7.6505861526
 10
-4.3392383435
 20
-7.6397191832
 10
-4.3334270958
 20
-7.628466064
 10
-4.3280925541
 20
-7.6167859833
 10
-4.3232572067
 20
-7.6046717204
 10
-4.3188985653
 20
-7.592130496
 10
-4.3149796564
 20
-7.5791431609
 10
-4.3115110351
 20
-7.5657089071
 10
-4.3084821462
 20
-7.5518285427
 10
-4.3058243503
 20
-7.5374853423
 10
-4.3035147675
 20
-7.5226737309
 10
-4.3015762777
 20
-7.5073992834
 10
-4.3000088809
 20
-7.491662
  0
LWPOLYLINE
  5
2AB
100
AcDbEntity
  8
ASSI
100
AcDbPolyline
 62
7
  6
CONTINUOUS
 90
20
 70
0
 10
4.0857464975
 20
-8.3403576646
 10
4.0925069469
 20
-8.3404148859
 10
4.0998703214
 20
-8.340859769
 10
4.1078366211
 20
-8.3416923139
 10
4.1164695792
 20
-8.3429026125
 10
4.1257054624
 20
-8.3445005729
 10
4.1353530707
 20
-8.3465159197
 10
4.1454071874
 20
-8.3489689206
 10
4.1558730293
 20
-8.3518393079
 10
4.166575046
 20
-8.3550960028
 10
4.1775009155
 20
-8.3587491582
 10
4.1886629597
 20
-8.3627886212
 10
4.1999225942
 20
-8.3671528541
 10
4.2112732155
 20
-8.3718570207
 10
4.222721427
 20
-8.3768859571
 10
4.2341484544
 20
-8.3821326344
 10
4.2455554382
 20
-8.3876100436
 10
4.2569412379
 20
-8.3933051936
 10
4.2681836572
 20
-8.3990720823
 10
4.2792879746
 20
-8.4049166496
  0
LWPOLYLINE
  5
2AC
100
AcDbEntity
  8
ASSI
100
AcDbPolyline
 62
7
  6
CONTINUOUS
 90
53
 70
0
 10
3.1071221864
 20
-8.951163862
 10
3.0977649989
 20
-8.9510331073
 10
3.0887053311
 20
-8.9504816875
 10
3.0799431832
 20
-8.9495096028
 10
3.0714883065
 20
-8.9481106479
 10
3.0633309497
 20
-8.9462910281
 10
3.0554418582
 20
-8.9440693585
 10
3.0478170625
 20
-8.9414384516
 10
3.0404605322
 20
-8.9384054949
 10
3.0333549213
 20
-8.9350106667
 10
3.0264901342
 20
-8.9312702873
 10
3.0198762666
 20
-8.9271680364
 10
3.0135262589
 20
-8.9226951308
 10
3.0074543203
 20
-8.9178594639
 10
3.0016462417
 20
-8.9126531423
 10
2.996072336
 20
-8.9070437035
 10
2.9907358112
 20
-8.901024242
 10
2.9856334593
 20
-8.8946016632
 10
2.9807259696
 20
-8.8877642207
 10
2.9760132297
 20
-8.8805115037
 10
2.9714953521
 20
-8.872843923
 10
2.9671333628
 20
-8.8647509646
 10
2.9629241365
 20
-8.8562139152
 10
2.9588707987
 20
-8.8472514882
 10
2.9549437515
 20
-8.8379093105
 10
2.9511324344
 20
-8.8282097372
 10
2.9474474079
 20
-8.8181304133
 10
2.9438907568
 20
-8.8076499003
 10
2.9404560732
 20
-8.7967886509
 10
2.937149765
 20
-8.7855262125
 10
2.9339931393
 20
-8.7737797885
 10
2.9309870109
 20
-8.7615388992
 10
2.9281305652
 20
-8.7488140243
 10
2.9254426649
 20
-8.7355538062
 10
2.9229296438
 20
-8.7217422057
 10
2.9205851682
 20
-8.707395262
 10
2.9184090999
 20
-8.6925097349
 10
2.9164141958
 20
-8.6770809966
 10
2.9145876991
 20
-8.6611136749
 10
2.9128912005
 20
-8.6446184127
 10
2.911321797
 20
-8.6276034282
 10
2.9098823917
 20
-8.6100605032
 10
2.9085432847
 20
-8.5919756256
 10
2.9072890175
 20
-8.5733650533
 10
2.9061350486
 20
-8.5542125285
 10
2.9050980547
 20
-8.5344552661
 10
2.9041825653
 20
-8.5140890374
 10
2.9033840507
 20
-8.493118071
 10
2.9027055985
 20
-8.4714922676
 10
2.9021535054
 20
-8.449211279
 10
2.9017214746
 20
-8.4262754533
 10
2.9013937034
 20
-8.4026357352
 10
2.901164924
 20
-8.3782757732
  0
LWPOLYLINE
  5
2AD
100
AcDbEntity
  8
ASSI
100
AcDbPolyline
 62
7
  6
CONTINUOUS
 90
37
 70
0
 10
4.4886174326
 20
-8.7388693109
 10
4.4779720218
 20
-8.7387189379
 10
4.4671860521
 20
-8.7379775869
 10
4.4562595233
 20
-8.7366452579
 10
4.4451849338
 20
-8.7347278133
 10
4.4339697854
 20
-8.7322193908
 10
4.422636583
 20
-8.7291024035
 10
4.4111855819
 20
-8.725352265
 10
4.3996165268
 20
-8.7209935617
 10
4.387951157
 20
-8.7160824661
 10
4.3762162491
 20
-8.7106142957
 10
4.3643850266
 20
-8.7045937331
 10
4.3523988984
 20
-8.698090999
 10
4.3402513655
 20
-8.6910657362
 10
4.3279489271
 20
-8.6835583019
 10
4.3154524894
 20
-8.6757599884
 10
4.3026852973
 20
-8.6675919839
 10
4.289724106
 20
-8.6591331002
 10
4.2767600872
 20
-8.6508110646
 10
4.263801223
 20
-8.6426538181
 10
4.2508395313
 20
-8.6346334196
 10
4.2380422375
 20
-8.6270937729
 10
4.2254558331
 20
-8.6201131977
 10
4.2130338265
 20
-8.6136133742
 10
4.2008039688
 20
-8.6077032477
 10
4.1887511947
 20
-8.6024163473
 10
4.1768905695
 20
-8.5977191439
 10
4.1652950401
 20
-8.5936199942
 10
4.1539570881
 20
-8.5901613782
 10
4.1428842318
 20
-8.5873008161
 10
4.132171973
 20
-8.5849192247
 10
4.1218284642
 20
-8.5830295456
 10
4.1118455529
 20
-8.5816188373
 10
4.1022942836
 20
-8.5805291918
 10
4.0931983377
 20
-8.5797079729
 10
4.0845340338
 20
-8.5792078169
 10
4.0763013719
 20
-8.5790287235
  0
LWPOLYLINE
  5
2AE
100
AcDbEntity
  8
ASSI
100
AcDbPolyline
 62
7
  6
CONTINUOUS
 90
49
 70
0
 10
3.1071221864
 20
-9.2272555288
 10
3.0829958676
 20
-9.2268459018
 10
3.0599190649
 20
-9.2254787031
 10
3.0378917784
 20
-9.2231539326
 10
3.0169620613
 20
-9.2197961461
 10
2.9970818603
 20
-9.215480788
 10
2.9781070157
 20
-9.2104341908
 10
2.9600490281
 20
-9.2046622525
 10
2.9428963969
 20
-9.1981590751
 10
2.9264704601
 20
-9.1911332978
 10
2.9107535951
 20
-9.1836164917
 10
2.8957634245
 20
-9.1755770856
 10
2.8813741549
 20
-9.1671290058
 10
2.8676126749
 20
-9.1583339039
 10
2.8544520959
 20
-9.1491301282
 10
2.8416859583
 20
-9.1394466502
 10
2.8292733007
 20
-9.1293060564
 10
2.8172550846
 20
-9.1186857604
 10
2.8055477348
 20
-9.1074469735
 10
2.7941166165
 20
-9.0955887945
 10
2.7829963645
 20
-9.0831121247
 10
2.7722073087
 20
-9.0698808796
 10
2.7617589066
 20
-9.0558863549
 10
2.7516417007
 20
-9.0411372549
 10
2.7418476481
 20
-9.0255236075
 10
2.7323787117
 20
-9.0090406432
 10
2.7232329286
 20
-8.9916931314
 10
2.7143963676
 20
-8.9733854081
 10
2.7058717115
 20
-8.9540973929
 10
2.6976562776
 20
-8.933849166
 10
2.6897280869
 20
-8.9126053042
 10
2.6820739975
 20
-8.8903767758
 10
2.6747071512
 20
-8.8671526124
 10
2.6676449951
 20
-8.8428644856
 10
2.6608679093
 20
-8.8175445301
 10
2.6543955136
 20
-8.7911606112
 10
2.648304115
 20
-8.7635479955
 10
2.6425966709
 20
-8.7346843744
 10
2.6372702238
 20
-8.7045920566
 10
2.6323922085
 20
-8.6731732345
 10
2.6279822421
 20
-8.6404208129
 10
2.6240207074
 20
-8.6063418871
 10
2.6205161885
 20
-8.5708599358
 10
2.6174439809
 20
-8.5339830625
 10
2.6148287891
 20
-8.4957031637
 10
2.6127533093
 20
-8.4559194084
 10
2.6112451073
 20
-8.4145981862
 10
2.6102766174
 20
-8.3717731074
 10
2.6098478397
 20
-8.327444172
  0
LWPOLYLINE
  5
2AF
100
AcDbEntity
  8
ASSI
100
AcDbPolyline
 62
7
  6
CONTINUOUS
 90
37
 70
0
 10
1.6631673215
 20
-8.951143189
 10
1.6531344122
 20
-8.9509596434
 10
1.6434389707
 20
-8.9503641579
 10
1.6340809968
 20
-8.9493567325
 10
1.6250718813
 20
-8.9479144592
 10
1.6164002335
 20
-8.9460602461
 10
1.6080318816
 20
-8.9438628171
 10
1.5999700857
 20
-8.9413296027
 10
1.5922115858
 20
-8.9384531725
 10
1.5847124292
 20
-8.9352799591
 10
1.5774734218
 20
-8.9318248322
 10
1.5704937577
 20
-8.9280729221
 10
1.5637270675
 20
-8.924026052
 10
1.557168338
 20
-8.9196934333
 10
1.5508225824
 20
-8.9150658546
 10
1.5446584709
 20
-8.9101175056
 10
1.5386619352
 20
-8.9048553021
 10
1.5328470437
 20
-8.8992723283
 10
1.5272246712
 20
-8.8933220264
 10
1.5217905666
 20
-8.887002446
 10
1.5165489809
 20
-8.8803155376
 10
1.5115235427
 20
-8.8732205947
 10
1.5067146609
 20
-8.8657114287
 10
1.5021219266
 20
-8.8577942282
 10
1.4977677415
 20
-8.849446852
 10
1.4936745021
 20
-8.8406713617
 10
1.4898198119
 20
-8.8314656957
 10
1.4861588834
 20
-8.8218015289
 10
1.4826874981
 20
-8.8116843497
 10
1.4794098744
 20
-8.8011086696
 10
1.4762938809
 20
-8.7900296974
 10
1.4732573096
 20
-8.7784616935
 10
1.4703823684
 20
-8.7663903975
 10
1.4678835495
 20
-8.7537282374
 10
1.4658323502
 20
-8.7404460224
 10
1.4641572733
 20
-8.7265729433
 10
1.4628583187
 20
-8.712109
  0
LWPOLYLINE
  5
2B0
100
AcDbEntity
  8
ASSI
100
AcDbPolyline
 62
7
  6
CONTINUOUS
 90
43
 70
0
 10
0.2428180594
 20
-7.4599853053
 10
0.2633480203
 20
-7.4604077474
 10
0.2834848955
 20
-7.4615115346
 10
0.3032286851
 20
-7.4632966671
 10
0.3225804751
 20
-7.4657820014
 10
0.3415391794
 20
-7.4689486809
 10
0.3601015403
 20
-7.4727401357
 10
0.378266921
 20
-7.47714597
 10
0.3960359582
 20
-7.4821765796
 10
0.4134073046
 20
-7.4878065826
 10
0.4303854965
 20
-7.4940277263
 10
0.4469659976
 20
-7.5008482634
 10
0.4631338523
 20
-7.5082675704
 10
0.4788844769
 20
-7.5162872609
 10
0.4942224551
 20
-7.5249057213
 10
0.5091465833
 20
-7.534117488
 10
0.5236585669
 20
-7.5439328945
 10
0.5377567005
 20
-7.5543416073
 10
0.5514346631
 20
-7.5653071626
 10
0.5646862266
 20
-7.5768076888
 10
0.5775176192
 20
-7.5888650575
 10
0.5899412051
 20
-7.60150842
 10
0.6019660741
 20
-7.6147318868
 10
0.6135831363
 20
-7.6285413474
 10
0.6247774866
 20
-7.6429836222
 10
0.6355528472
 20
-7.6580625788
 10
0.6459054958
 20
-7.6737743495
 10
0.655809361
 20
-7.6901541519
 10
0.6652781257
 20
-7.7072167649
 10
0.6742981069
 20
-7.7249474096
 10
0.6828021838
 20
-7.7433369669
 10
0.6907976727
 20
-7.7623975526
 10
0.6982772573
 20
-7.7821170508
 10
0.7051518686
 20
-7.8024499942
 10
0.7114220194
 20
-7.8233846777
 10
0.7170871969
 20
-7.8449328064
 10
0.722056793
 20
-7.8670840281
 10
0.7263324708
 20
-7.8898521873
 10
0.7299125672
 20
-7.9132234395
 10
0.7327014856
 20
-7.9371458993
 10
0.7346673604
 20
-7.9616022716
 10
0.7358420573
 20
-7.9866098515
 10
0.7362255761
 20
-8.012168639
  0
LWPOLYLINE
  5
2B1
100
AcDbEntity
  8
ASSI
100
AcDbPolyline
 62
7
  6
CONTINUOUS
 90
52
 70
0
 10
3.1071221864
 20
-7.4295662303
 10
3.12508827
 20
-7.4299485953
 10
3.1427316638
 20
-7.430935085
 10
3.160052368
 20
-7.4325256996
 10
3.1770590342
 20
-7.4347434907
 10
3.1937430107
 20
-7.4375654066
 10
3.2100783422
 20
-7.4409222917
 10
3.2260628569
 20
-7.4448052394
 10
3.2416987265
 20
-7.4492231564
 10
3.2569665114
 20
-7.4541336066
 10
3.2718679856
 20
-7.4595289059
 10
3.286401375
 20
-7.4654167385
 10
3.3005419168
 20
-7.4717777208
 10
3.3142733505
 20
-7.4785943297
 10
3.3276119365
 20
-7.4858840884
 10
3.3405816941
 20
-7.4936801827
 10
3.3531574535
 20
-7.5019653566
 10
3.3653643844
 20
-7.5107568662
 10
3.3773020141
 20
-7.520139666
 10
3.3889829571
 20
-7.53011518
 10
3.4003945989
 20
-7.5406819842
 10
3.4115986235
 20
-7.5519207607
 10
3.4226156963
 20
-7.5638277937
 10
3.4334251517
 20
-7.576406799
 10
3.4440266779
 20
-7.589749606
 10
3.4544399652
 20
-7.6038599791
 10
3.4646453232
 20
-7.6187341539
 10
3.474583368
 20
-7.634452666
 10
3.4842562187
 20
-7.651015892
 10
3.4936617562
 20
-7.6684234552
 10
3.5027342396
 20
-7.6867547616
 10
3.5114609107
 20
-7.7060073397
 10
3.5198545279
 20
-7.7261836609
 10
3.5278876245
 20
-7.7473705459
 10
3.5355512808
 20
-7.7695735601
 10
3.5428544165
 20
-7.792787138
 10
3.5497963246
 20
-7.8170814042
 10
3.556391462
 20
-7.8424483968
 10
3.5626253717
 20
-7.8688960777
 10
3.5684539759
 20
-7.8965184578
 10
3.5738723288
 20
-7.9253151499
 10
3.5788853763
 20
-7.9552865412
 10
3.5834638782
 20
-7.9865278042
 10
3.5875909309
 20
-8.0190506653
 10
3.5912834381
 20
-8.0528433981
 10
3.5945628706
 20
-8.0879659957
 10
3.597466927
 20
-8.1244126983
 10
3.5999579087
 20
-8.1621892657
 10
3.601944191
 20
-8.2013729696
 10
3.6033952322
 20
-8.2419895673
 10
3.6043415739
 20
-8.2840133014
 10
3.6047832162
 20
-8.327444172
  0
LWPOLYLINE
  5
2B2
100
AcDbEntity
  8
ASSI
100
AcDbPolyline
 62
7
  6
CONTINUOUS
 90
43
 70
0
 10
-2.9717528221
 20
-8.0677427136
 10
-2.9558741119
 20
-8.0680904926
 10
-2.9401037319
 20
-8.069038618
 10
-2.924441682
 20
-8.0705870899
 10
-2.9088786178
 20
-8.0727458109
 10
-2.8934238837
 20
-8.0755048783
 10
-2.8781055133
 20
-8.0788345837
 10
-2.862919823
 20
-8.0827218524
 10
-2.8478704964
 20
-8.0871797591
 10
-2.8329966177
 20
-8.0922178193
 10
-2.8182920531
 20
-8.0978273154
 10
-2.8037629364
 20
-8.1040169649
 10
-2.7894667535
 20
-8.1108224361
 10
-2.7754026189
 20
-8.1182452264
 10
-2.7615714183
 20
-8.1262838383
 10
-2.7480332943
 20
-8.1349694469
 10
-2.7347957635
 20
-8.1443211029
 10
-2.7218513093
 20
-8.1543197555
 10
-2.7092375251
 20
-8.1649394272
 10
-2.6969642387
 20
-8.1761666052
 10
-2.6850216222
 20
-8.1880148022
 10
-2.673417785
 20
-8.2004985794
 10
-2.6621702455
 20
-8.213587845
 10
-2.6512614852
 20
-8.2273126909
 10
-2.640647058
 20
-8.2417779535
 10
-2.6303028907
 20
-8.2569787107
 10
-2.6202530565
 20
-8.2729198847
 10
-2.6105253285
 20
-8.2897210782
 10
-2.6010533192
 20
-8.3074557054
 10
-2.5919034161
 20
-8.3260503523
 10
-2.5833025562
 20
-8.3454043793
 10
-2.5752573159
 20
-8.3655860047
 10
-2.5677611186
 20
-8.3865270104
 10
-2.5610211718
 20
-8.4079221019
 10
-2.5551311354
 20
-8.4297812614
 10
-2.5499973495
 20
-8.4520945068
 10
-2.5455460416
 20
-8.4745265971
 10
-2.5417583643
 20
-8.4970771011
 10
-2.5386531649
 20
-8.5197464502
 10
-2.5362132128
 20
-8.5422006967
 10
-2.5344327644
 20
-8.564328525
 10
-2.5333175633
 20
-8.5862412507
 10
-2.5328676094
 20
-8.607938874
  0
LWPOLYLINE
  5
2B3
100
AcDbEntity
  8
ASSI
100
AcDbPolyline
 62
7
  6
CONTINUOUS
 90
58
 70
0
 10
3.1071221864
 20
-7.7056578971
 10
3.1149338197
 20
-7.7058728798
 10
3.1225114631
 20
-7.7063392203
 10
3.1298551167
 20
-7.7070569184
 10
3.1369466309
 20
-7.7080332542
 10
3.1438041553
 20
-7.7092609478
 10
3.1504821382
 20
-7.7107181593
 10
3.1569918632
 20
-7.7123765
 10
3.1633220467
 20
-7.7142643587
 10
3.1694932864
 20
-7.7164450618
 10
3.1754996482
 20
-7.7189233759
 10
3.1813470662
 20
-7.7216945345
 10
3.1870739401
 20
-7.7248075645
 10
3.1926798723
 20
-7.728269729
 10
3.1981652604
 20
-7.7320737649
 10
3.2035696975
 20
-7.7362469097
 10
3.2089063853
 20
-7.7407845566
 10
3.214162122
 20
-7.7456913124
 10
3.219336896
 20
-7.7510082346
 10
3.2244434432
 20
-7.7567361605
 10
3.2294690276
 20
-7.7628742527
 10
3.2343754297
 20
-7.7694610561
 10
3.2391638918
 20
-7.7765026824
 10
3.2438331716
 20
-7.7839930198
 10
3.2483413225
 20
-7.7919522786
 10
3.252677641
 20
-7.8003871663
 10
3.2568528306
 20
-7.8092909753
 10
3.2608570557
 20
-7.8186637927
 10
3.2646828765
 20
-7.8285128108
 10
3.2683377328
 20
-7.8388308374
 10
3.2718341084
 20
-7.8495963821
 10
3.2751810393
 20
-7.8608022964
 10
3.2783694896
 20
-7.8724557289
 10
3.2813848352
 20
-7.8845566355
 10
3.2842215475
 20
-7.8970974092
 10
3.286885155
 20
-7.910085657
 10
3.2893776197
 20
-7.9235441552
 10
3.2916885917
 20
-7.9374749404
 10
3.2938284209
 20
-7.951875976
 10
3.2958301182
 20
-7.9667639289
 10
3.2976911943
 20
-7.9821406716
 10
3.2994141386
 20
-7.9980043316
 10
3.3010394304
 20
-8.0143659586
 10
3.3025810489
 20
-8.0312164936
 10
3.3040250148
 20
-8.0485649955
 10
3.3053698701
 20
-8.0664496912
 10
3.3066151234
 20
-8.0848672174
 10
3.3077612661
 20
-8.1038209372
 10
3.3088083139
 20
-8.1233591675
 10
3.3097561612
 20
-8.1434813628
 10
3.3106049136
 20
-8.1641880685
 10
3.3113549035
 20
-8.1855292373
 10
3.3120125594
 20
-8.207505065
 10
3.3125714527
 20
-8.2301153559
 10
3.31301263
 20
-8.2534094754
 10
3.3133297734
 20
-8.2774038789
 10
3.3135292007
 20
-8.3020821111
 10
3.313610912
 20
-8.327444172
  0
LWPOLYLINE
  5
2B4
100
AcDbEntity
  8
ASSI
100
AcDbPolyline
 62
7
  6
CONTINUOUS
 90
43
 70
0
 10
-2.9873328642
 20
-7.4486632197
 10
-2.9744456094
 20
-7.4490320549
 10
-2.9613314503
 20
-7.4498622071
 10
-2.947990387
 20
-7.4511536764
 10
-2.9343834656
 20
-7.4529376673
 10
-2.9205496399
 20
-7.4551829752
 10
-2.9066057718
 20
-7.4577959869
 10
-2.8925590625
 20
-7.4607460001
 10
-2.8784023106
 20
-7.464063717
 10
-2.8642307737
 20
-7.4677476313
 10
-2.8500136938
 20
-7.4717753396
 10
-2.8357818287
 20
-7.4761692452
 10
-2.82172271
 20
-7.4809950516
 10
-2.8078304989
 20
-7.4862546252
 10
-2.7941110342
 20
-7.4919460995
 10
-2.7807693628
 20
-7.4981295782
 10
-2.7678224926
 20
-7.5048426295
 10
-2.7552534159
 20
-7.5120476851
 10
-2.7432161563
 20
-7.5196921437
 10
-2.7318007923
 20
-7.5277693663
 10
-2.7209172454
 20
-7.5362859917
 10
-2.7104493044
 20
-7.5452093359
 10
-2.7004162774
 20
-7.5544818938
 10
-2.6907988563
 20
-7.5641611703
 10
-2.6814229049
 20
-7.5743869966
 10
-2.6722513124
 20
-7.585138024
 10
-2.6633211896
 20
-7.5964356011
 10
-2.6545697335
 20
-7.608483605
 10
-2.645941608
 20
-7.6213073483
 10
-2.6374921491
 20
-7.6348815183
 10
-2.6293245625
 20
-7.6493340545
 10
-2.6214240825
 20
-7.6647060105
 10
-2.6138054748
 20
-7.6809563328
 10
-2.6066162423
 20
-7.6980898001
 10
-2.5999002173
 20
-7.7160953615
 10
-2.5936135674
 20
-7.7349840679
 10
-2.5877722983
 20
-7.7547938514
 10
-2.5824187671
 20
-7.7755593205
 10
-2.5775106168
 20
-7.7972458667
 10
-2.5729367822
 20
-7.819787597
 10
-2.5686602419
 20
-7.8431625472
 10
-2.5647180173
 20
-7.8673926815
 10
-2.5611101086
 20
-7.892478
  0
LINE
  5
2B5
100
AcDbEntity
  8
ASSI
100
AcDbLine
 62
7
  6
CONTINUOUS
 10
1.224282
 20
-8.421001
 11
1.4766025168
 21
-8.4360470308
  0
LWPOLYLINE
  5
2B6
100
AcDbEntity
  8
RACCORDO
100
AcDbPolyline
 62
250
  6
CONTINUOUS
 90
16
 70
0
 10
-8.7753066737
 20
-2.7045923136
 10
-8.778266694
 20
-2.7039183906
 10
-8.7819266868
 20
-2.7005145401
 10
-8.7862451602
 20
-2.6944193502
 10
-8.7911731578
 20
-2.6857019197
 10
-8.7966548128
 20
-2.6744610744
 10
-8.8026279821
 20
-2.6608242474
 10
-8.8090249503
 20
-2.6449460337
 10
-8.8157731979
 20
-2.6270064379
 10
-8.8227962228
 20
-2.6072088339
 10
-8.8300144081
 20
-2.5857776585
 10
-8.8373459245
 20
-2.5629558677
 10
-8.8447076578
 20
-2.5390021823
 10
-8.8520161514
 20
-2.5141881545
 10
-8.8591885525
 20
-2.4887950896
 10
-8.8661435508
 20
-2.463110857
  0
LWPOLYLINE
  5
2B7
100
AcDbEntity
  8
COPY-PUBBLISH
100
AcDbPolyline
 62
7
  6
CONTINUOUS
 90
25
 70
0
 10
-10.5107121405
 20
-2.0660254038
 10
-10.5675546897
 20
-2.037262311
 10
-10.6235256193
 20
-2.0070765222
 10
-10.6786249293
 20
-1.9754763594
 10
-10.7328805048
 20
-1.9424508801
 10
-10.7862644606
 20
-1.9080343677
 10
-10.8386931416
 20
-1.8723063177
 10
-10.8901694213
 20
-1.835283358
 10
-10.9406904262
 20
-1.7969877833
 10
-10.990163881
 20
-1.7575113197
 10
-11.0385868925
 20
-1.7168813199
 10
-11.085962354
 20
-1.675127792
 10
-11.1322066695
 20
-1.6323504011
 10
-11.1773246222
 20
-1.5885737337
 10
-11.221311429
 20
-1.5438514371
 10
-11.2640691451
 20
-1.4983300274
 10
-11.3055870265
 20
-1.4520528976
 10
-11.3458758171
 20
-1.4050752168
 10
-11.3848698038
 20
-1.3575626167
 10
-11.4225582675
 20
-1.3095634556
 10
-11.4589519273
 20
-1.2611464982
 10
-11.4940172266
 20
-1.2125066172
 10
-11.52774298
 20
-1.1637501064
 10
-11.560140373
 20
-1.1148996555
 10
-11.5912094056
 20
-1.0660254038
  0
LINE
  5
2B8
100
AcDbEntity
  8
ASSI
100
AcDbLine
 62
7
  6
CONTINUOUS
 10
-19.6539135825
 20
2.6977995296
 11
-19.3703530298
 21
2.55
  0
LWPOLYLINE
  5
2B9
100
AcDbEntity
  8
ASSI
100
AcDbPolyline
 62
7
  6
CONTINUOUS
 90
20
 70
0
 10
4.3739046537
 20
-8.4571927877
 10
4.3814508201
 20
-8.4612978094
 10
4.3887197448
 20
-8.465185394
 10
4.3957107394
 20
-8.4688581173
 10
4.402500318
 20
-8.4723265466
 10
4.4090933255
 20
-8.4755868484
 10
4.4154849168
 20
-8.4786428562
 10
4.4217370712
 20
-8.4815166385
 10
4.4278538359
 20
-8.4842169759
 10
4.4338311637
 20
-8.4867350879
 10
4.4397188923
 20
-8.4890667015
 10
4.4455193563
 20
-8.4912231745
 10
4.4512302211
 20
-8.4931931491
 10
4.4568943208
 20
-8.4949382791
 10
4.462509219
 20
-8.4964610559
 10
4.4680773519
 20
-8.4977589882
 10
4.4736488625
 20
-8.498786256
 10
4.479240465
 20
-8.4995275859
 10
4.4848354451
 20
-8.4999982512
 10
4.4904338029
 20
-8.500198252
  0
LWPOLYLINE
  5
2BA
100
AcDbEntity
  8
ASSI
100
AcDbPolyline
 62
7
  6
CONTINUOUS
 90
3
 70
0
 10
4.2792879746
 20
-8.4049166496
 10
4.3009284373
 20
-8.4166571784
 10
4.3113146124
 20
-8.4223719624
  0
LWPOLYLINE
  5
2BB
100
AcDbEntity
  8
ASSI
100
AcDbPolyline
 62
7
  6
CONTINUOUS
 90
3
 70
0
 10
4.3113146124
 20
-8.4223719624
 10
4.3493456872
 20
-8.443574469
 10
4.3739046537
 20
-8.4571927877
  0
LWPOLYLINE
  5
2BC
100
AcDbEntity
  8
RACCORDO
100
AcDbPolyline
 62
7
  6
CONTINUOUS
 90
10
 70
0
 10
-7.1621932605
 20
-0.5443781667
 10
-7.1660191211
 20
-0.5415655196
 10
-7.1697990417
 20
-0.5387150889
 10
-7.1735330223
 20
-0.5358268744
 10
-7.177219468
 20
-0.5328985355
 10
-7.1808599738
 20
-0.529932413
 10
-7.1844593241
 20
-0.5269355286
 10
-7.1880191138
 20
-0.5239102229
 10
-7.191537748
 20
-0.5208541554
 10
-7.1950152268
 20
-0.517767326
  0
LINE
  5
2BD
100
AcDbEntity
  8
ASSI
100
AcDbLine
 62
250
  6
CONTINUOUS
 10
-21.0125039523
 20
7.4399997382
 11
-21.4150692686
 21
7.7364200808
  0
LWPOLYLINE
  5
2BE
100
AcDbEntity
  8
0
100
AcDbPolyline
 62
250
  6
CONTINUOUS
 90
7
 70
0
 10
0.663824622
 20
-13.9519235848
 10
0.6644870155
 20
-13.9527133176
 10
0.6663769668
 20
-13.9631851958
 10
0.6682816787
 20
-13.9850613217
 10
0.6701917717
 20
-14.0175404777
 10
0.6720920313
 20
-14.0592083604
 10
0.6739994549
 20
-14.1084309114
  0
LWPOLYLINE
  5
2BF
100
AcDbEntity
  8
0
100
AcDbPolyline
 62
7
  6
CONTINUOUS
 90
10
 70
0
 10
0.9499934339
 20
-14.1000001271
 10
0.9418111868
 20
-14.0889064628
 10
0.9167637264
 20
-14.0597561599
 10
0.8877276954
 20
-14.0327263875
 10
0.8550375742
 20
-14.0086344384
 10
0.8186630755
 20
-13.9879316962
 10
0.7790303642
 20
-13.9713457266
 10
0.7366221421
 20
-13.9595117273
 10
0.6919544475
 20
-13.9529991157
 10
0.6638551627
 20
-13.9518700252
  0
LWPOLYLINE
  5
2C0
100
AcDbEntity
  8
ASSI
100
AcDbPolyline
 62
7
  6
CONTINUOUS
 90
34
 70
0
 10
-2.8422265601
 20
-7.892478
 10
-2.8433869697
 20
-7.8815985277
 10
-2.8448425874
 20
-7.8711858152
 10
-2.8465934132
 20
-7.8612398625
 10
-2.8486571211
 20
-7.8517759236
 10
-2.851016037
 20
-7.8427787445
 10
-2.8536171395
 20
-7.8342025636
 10
-2.8564617011
 20
-7.8260512292
 10
-2.8595484492
 20
-7.8183208931
 10
-2.8628205444
 20
-7.8109542487
 10
-2.8662546351
 20
-7.8039409397
 10
-2.8698740728
 20
-7.7972913226
 10
-2.8736920721
 20
-7.7909791604
 10
-2.877703677
 20
-7.7850030164
 10
-2.8819138435
 20
-7.7793643274
 10
-2.8863506552
 20
-7.7740411668
 10
-2.8910237279
 20
-7.7690423316
 10
-2.8959234458
 20
-7.7643590247
 10
-2.9010490451
 20
-7.7599429287
 10
-2.9063985415
 20
-7.7557883417
 10
-2.9119739194
 20
-7.7519009655
 10
-2.9177803674
 20
-7.7482495873
 10
-2.9238148422
 20
-7.7448210509
 10
-2.9300803871
 20
-7.7416285126
 10
-2.9365913204
 20
-7.7386802291
 10
-2.9433374052
 20
-7.735966358
 10
-2.9503288783
 20
-7.7334967417
 10
-2.9576107693
 20
-7.7313091643
 10
-2.965189814
 20
-7.7293950053
 10
-2.9730592766
 20
-7.7277628852
 10
-2.9812439786
 20
-7.7264764488
 10
-2.9897521937
 20
-7.725556911
 10
-2.998575648
 20
-7.7249830569
 10
-3.0077143418
 20
-7.7247548865
  0
LINE
  5
2C1
100
AcDbEntity
  8
0
100
AcDbLine
 62
250
  6
CONTINUOUS
 10
0.6029942985
 20
-18.6750617811
 11
0.6
 21
-18.6312543735
  0
LWPOLYLINE
  5
2C2
100
AcDbEntity
  8
ASSI
100
AcDbPolyline
 62
7
  6
CONTINUOUS
 90
43
 70
0
 10
1.1798076542
 20
-8.712109
 10
1.1813515346
 20
-8.7363822232
 10
1.1834004479
 20
-8.7599359669
 10
1.1859543943
 20
-8.7827702312
 10
1.1889671346
 20
-8.8048708386
 10
1.1924849079
 20
-8.8262519665
 10
1.196646431
 20
-8.8469561473
 10
1.2015450745
 20
-8.8669703584
 10
1.2070874678
 20
-8.8863076224
 10
1.2131322157
 20
-8.905049539
 10
1.2196512121
 20
-8.923197672
 10
1.226672563
 20
-8.9407504576
 10
1.234139192
 20
-8.9577848039
 10
1.2420251083
 20
-8.9743089368
 10
1.2503563026
 20
-8.9903146304
 10
1.2591536706
 20
-9.0058541159
 10
1.2684287989
 20
-9.0209576751
 10
1.2781701009
 20
-9.0355950262
 10
1.2883637131
 20
-9.0497275548
 10
1.2990259439
 20
-9.0633517266
 10
1.3101404848
 20
-9.0764710759
 10
1.3216445466
 20
-9.0890575917
 10
1.3335379116
 20
-9.1011065058
 10
1.3458207975
 20
-9.1126225865
 10
1.3584310678
 20
-9.1235921279
 10
1.3713487955
 20
-9.1340026609
 10
1.3845939076
 20
-9.1438666547
 10
1.3981640492
 20
-9.1532078116
 10
1.4120487499
 20
-9.1620282428
 10
1.4262584803
 20
-9.170325837
 10
1.4408222965
 20
-9.1781179635
 10
1.4557344724
 20
-9.1854192569
 10
1.4710007343
 20
-9.1922150824
 10
1.4866673177
 20
-9.1984789051
 10
1.5027384799
 20
-9.2042337466
 10
1.5192099638
 20
-9.2094565852
 10
1.5361152336
 20
-9.2140518208
 10
1.5534579127
 20
-9.2180252723
 10
1.5712343778
 20
-9.2213711209
 10
1.5894672232
 20
-9.2239763092
 10
1.6081639803
 20
-9.2258031516
 10
1.6273171176
 20
-9.2268893338
 10
1.6469266352
 20
-9.2272348558
  0
LWPOLYLINE
  5
2C3
100
AcDbEntity
  8
ASSI
100
AcDbPolyline
 62
7
  6
CONTINUOUS
 90
37
 70
0
 10
0.4531736151
 20
-8.0001814658
 10
0.45268613
 20
-7.9847633112
 10
0.4517210879
 20
-7.9699875669
 10
0.4502784888
 20
-7.9558542331
 10
0.4483294349
 20
-7.9423944315
 10
0.445902824
 20
-7.9295770402
 10
0.4430853498
 20
-7.9173086941
 10
0.4398907665
 20
-7.9055915188
 10
0.4363053199
 20
-7.8944233886
 10
0.4323744409
 20
-7.8837045606
 10
0.4281040487
 20
-7.8734195115
 10
0.423488224
 20
-7.8635837645
 10
0.4185546397
 20
-7.8541441466
 10
0.4132924129
 20
-7.8450821013
 10
0.4077124265
 20
-7.836416185
 10
0.4018750017
 20
-7.8281488938
 10
0.3957746782
 20
-7.8202734712
 10
0.3894169163
 20
-7.8127966738
 10
0.382878419
 20
-7.8057412677
 10
0.3761587341
 20
-7.799108463
 10
0.3692583138
 20
-7.7928970496
 10
0.3622552176
 20
-7.7871261641
 10
0.3551584909
 20
-7.7818053094
 10
0.3479590882
 20
-7.7769249825
 10
0.3407079336
 20
-7.7724758108
 10
0.3334096335
 20
-7.7684613658
 10
0.3260595815
 20
-7.7648780759
 10
0.3186948812
 20
-7.7617058537
 10
0.3112979546
 20
-7.7589441724
 10
0.3038863798
 20
-7.7565935589
 10
0.2965499941
 20
-7.7546355059
 10
0.2892996731
 20
-7.7530758077
 10
0.2821245413
 20
-7.75190867
 10
0.2750818102
 20
-7.7510982021
 10
0.2681905503
 20
-7.7506324404
 10
0.2614316911
 20
-7.7505233486
 10
0.2548052327
 20
-7.7507709264
  0
LINE
  5
2C4
100
AcDbEntity
  8
0
100
AcDbLine
 62
250
  6
CONTINUOUS
 10
0.6739994549
 20
-14.1084309114
 11
0.6777185959
 21
-14.2254506067
  0
LINE
  5
2C5
100
AcDbEntity
  8
0
100
AcDbLine
 62
250
  6
CONTINUOUS
 10
-0.6754263627
 20
14.1415553419
 11
-0.6798030057
 21
14.2920929174
  0
LINE
  5
2C6
100
AcDbEntity
  8
0
100
AcDbLine
 62
250
  6
CONTINUOUS
 10
0.6777185959
 20
-14.2254506067
 11
0.6810680163
 21
-14.3608616276
  0
LINE
  5
2C7
100
AcDbEntity
  8
0
100
AcDbLine
 62
250
  6
CONTINUOUS
 10
-0.6798030057
 20
14.2920929174
 11
-0.6838432497
 21
14.4681021021
  0
LWPOLYLINE
  5
2C8
100
AcDbEntity
  8
ASSI
100
AcDbPolyline
 62
7
  6
CONTINUOUS
 90
37
 70
0
 10
-3.2385640968
 20
-8.6446737597
 10
-3.2381606492
 20
-8.6656120291
 10
-3.2371735673
 20
-8.6856578525
 10
-3.2356028512
 20
-8.7048112298
 10
-3.2334087529
 20
-8.7230423464
 10
-3.2306310203
 20
-8.7403810169
 10
-3.2273888972
 20
-8.7569166858
 10
-3.2236917497
 20
-8.7726480166
 10
-3.2195302116
 20
-8.7875763458
 10
-3.2149954285
 20
-8.8017951277
 10
-3.2100896008
 20
-8.8153164353
 10
-3.2048105282
 20
-8.8281281955
 10
-3.1992427549
 20
-8.8402876436
 10
-3.1933850133
 20
-8.8517991714
 10
-3.187238571
 20
-8.8626583869
 10
-3.1808917765
 20
-8.8729093493
 10
-3.1743495148
 20
-8.8825537189
 10
-3.1676069008
 20
-8.8915898352
 10
-3.1607376272
 20
-8.9000567759
 10
-3.1537562866
 20
-8.9079499826
 10
-3.1466482863
 20
-8.9152740136
 10
-3.1394435416
 20
-8.9220816215
 10
-3.1321614653
 20
-8.9283701423
 10
-3.1247826445
 20
-8.9341422399
 10
-3.1172787559
 20
-8.9394586586
 10
-3.1096539572
 20
-8.9443243152
 10
-3.1019040907
 20
-8.9487342928
 10
-3.0939883595
 20
-8.9527345851
 10
-3.0858992769
 20
-8.956339577
 10
-3.0776443296
 20
-8.9595348836
 10
-3.0692051816
 20
-8.9623233432
 10
-3.0605897005
 20
-8.9647153517
 10
-3.0517900185
 20
-8.9667005134
 10
-3.0427641967
 20
-8.9682504791
 10
-3.0334982553
 20
-8.9693557991
 10
-3.024006174
 20
-8.9700259232
 10
-3.0142879529
 20
-8.9702608514
  0
LWPOLYLINE
  5
2C9
100
AcDbEntity
  8
0
100
AcDbPolyline
 62
250
  6
CONTINUOUS
 90
3
 70
0
 10
0.6810680163
 20
-14.3608616276
 10
0.685704588
 20
-14.5869729496
 10
0.6887381013
 20
-14.7469022103
  0
LINE
  5
2CA
100
AcDbEntity
  8
0
100
AcDbLine
 62
250
  6
CONTINUOUS
 10
0.6887381013
 20
-14.7469022103
 11
0.6961831693
 21
-15.1549970744
  0
LINE
  5
2CB
100
AcDbEntity
  8
0
100
AcDbLine
 62
250
  6
CONTINUOUS
 10
-0.6838432497
 20
14.4681021021
 11
-0.7008014181
 21
15.3754938532
  0
LWPOLYLINE
  5
2CC
100
AcDbEntity
  8
ASSI
100
AcDbPolyline
 62
7
  6
CONTINUOUS
 90
37
 70
0
 10
-2.8159195704
 20
-8.6373267826
 10
-2.816213189
 20
-8.6184883459
 10
-2.8170527623
 20
-8.6004118246
 10
-2.8184382903
 20
-8.5830972188
 10
-2.8204123165
 20
-8.5665434128
 10
-2.8229322973
 20
-8.5507515222
 10
-2.8258706025
 20
-8.5357248939
 10
-2.8292321201
 20
-8.5214792086
 10
-2.833011962
 20
-8.5079987857
 10
-2.8370678336
 20
-8.4952399297
 10
-2.841376817
 20
-8.483216096
 10
-2.8459618301
 20
-8.4719138294
 10
-2.8507493315
 20
-8.4612490685
 10
-2.8557108354
 20
-8.4512351564
 10
-2.8608748276
 20
-8.44185875
 10
-2.8662532238
 20
-8.4329957588
 10
-2.8718360667
 20
-8.4246373426
 10
-2.8776333136
 20
-8.4167923414
 10
-2.883686751
 20
-8.4093631849
 10
-2.8900257236
 20
-8.4023224414
 10
-2.8966208867
 20
-8.3956975426
 10
-2.9034259929
 20
-8.3894732131
 10
-2.9104436851
 20
-8.3836458487
 10
-2.9176713204
 20
-8.3782190537
 10
-2.9250547232
 20
-8.3731883655
 10
-2.9325881676
 20
-8.3685525166
 10
-2.9402773795
 20
-8.3643127746
 10
-2.9480853602
 20
-8.3604684803
 10
-2.9560147559
 20
-8.3570184007
 10
-2.9640629204
 20
-8.3539637689
 10
-2.9721849164
 20
-8.3513076249
 10
-2.9803789451
 20
-8.3490476748
 10
-2.9886468053
 20
-8.3471862124
 10
-2.9969489563
 20
-8.3457331596
 10
-3.0052722178
 20
-8.3446918236
 10
-3.01362977
 20
-8.3440588972
 10
-3.022021613
 20
-8.3438343804
  0
LINE
  5
2CD
100
AcDbEntity
  8
0
100
AcDbLine
 62
250
  6
CONTINUOUS
 10
-0.7008014181
 20
15.3754938532
 11
-0.7160076235
 21
16.3230154476
  0
LINE
  5
2CE
100
AcDbEntity
  8
0
100
AcDbLine
 62
250
  6
CONTINUOUS
 10
0.6961831693
 20
-15.1549970744
 11
0.7012860509
 21
-15.4743603118
  0
LWPOLYLINE
  5
2CF
100
AcDbEntity
  8
0
100
AcDbPolyline
 62
250
  6
CONTINUOUS
 90
3
 70
0
 10
0.7012860509
 20
-15.4743603118
 10
0.7046600078
 20
-15.7035964599
 10
0.7162132013
 20
-16.4464011933
  0
LINE
  5
2D0
100
AcDbEntity
  8
ASSI
100
AcDbLine
 62
7
  6
CONTINUOUS
 10
-4.067613
 20
-9.242564
 11
-4.067613
 21
-7.491662
  0
LINE
  5
2D1
100
AcDbEntity
  8
ASSI
100
AcDbLine
 62
7
  6
CONTINUOUS
 10
-1.8
 20
19.7770602568
 11
-1.8
 21
14.6
  0
LINE
  5
2D2
100
AcDbEntity
  8
ASSI
100
AcDbLine
 62
7
  6
CONTINUOUS
 10
-1.8
 20
-19.7770602568
 11
-1.8
 21
-14.6
  0
LINE
  5
2D3
100
AcDbEntity
  8
COPY-PUBBLISH
100
AcDbLine
 62
7
  6
CONTINUOUS
 10
-1.6
 20
18.0761093534
 11
-1.6
 21
17.3089743002
  0
LINE
  5
2D4
100
AcDbEntity
  8
COPY-PUBBLISH
100
AcDbLine
 62
7
  6
CONTINUOUS
 10
-1.6
 20
-18.3869635057
 11
-1.6
 21
-18.0117968333
  0
LINE
  5
2D5
100
AcDbEntity
  8
COPY-PUBBLISH
100
AcDbLine
 62
7
  6
CONTINUOUS
 10
-1.6
 20
-18.0117968333
 11
-1.6
 21
-17.2446617801
  0
LINE
  5
2D6
100
AcDbEntity
  8
COPY-PUBBLISH
100
AcDbLine
 62
7
  6
CONTINUOUS
 10
-1.6
 20
18.0761093534
 11
-1.6
 21
18.4512760258
  0
LINE
  5
2D7
100
AcDbEntity
  8
COPY-PUBBLISH
100
AcDbLine
 62
250
  6
CONTINUOUS
 10
-1.55
 20
18.0761093534
 11
-1.55
 21
17.3089743002
  0
LINE
  5
2D8
100
AcDbEntity
  8
COPY-PUBBLISH
100
AcDbLine
 62
250
  6
CONTINUOUS
 10
-1.55
 20
-18.0117968333
 11
-1.55
 21
-17.2446617801
  0
LINE
  5
2D9
100
AcDbEntity
  8
COPY-PUBBLISH
100
AcDbLine
 62
7
  6
CONTINUOUS
 10
-1.35
 20
17.3731829091
 11
-1.35
 21
16.6060478558
  0
LINE
  5
2DA
100
AcDbEntity
  8
COPY-PUBBLISH
100
AcDbLine
 62
7
  6
CONTINUOUS
 10
-1.35
 20
-17.955060706
 11
-1.35
 21
-17.3088703889
  0
LINE
  5
2DB
100
AcDbEntity
  8
COPY-PUBBLISH
100
AcDbLine
 62
7
  6
CONTINUOUS
 10
-1.35
 20
-17.3088703889
 11
-1.35
 21
-16.5417353357
  0
LINE
  5
2DC
100
AcDbEntity
  8
COPY-PUBBLISH
100
AcDbLine
 62
7
  6
CONTINUOUS
 10
-1.35
 20
17.3731829091
 11
-1.35
 21
18.0193732261
  0
LINE
  5
2DD
100
AcDbEntity
  8
COPY-PUBBLISH
100
AcDbLine
 62
250
  6
CONTINUOUS
 10
-1.3
 20
17.3731829091
 11
-1.3
 21
16.6060478558
  0
LINE
  5
2DE
100
AcDbEntity
  8
COPY-PUBBLISH
100
AcDbLine
 62
250
  6
CONTINUOUS
 10
-1.3
 20
-17.3088703889
 11
-1.3
 21
-16.5417353357
  0
LINE
  5
2DF
100
AcDbEntity
  8
0
100
AcDbLine
 62
7
  6
CONTINUOUS
 10
-1.1
 20
-14.1000000023
 11
-1.1
 21
-16.6237626357
  0
LINE
  5
2E0
100
AcDbEntity
  8
0
100
AcDbLine
 62
7
  6
CONTINUOUS
 10
-1.1
 20
-16.8452497106
 11
-1.1
 21
-17.2521342617
  0
LINE
  5
2E1
100
AcDbEntity
  8
0
100
AcDbLine
 62
7
  6
CONTINUOUS
 10
-1.1
 20
14.1000000703
 11
-1.1
 21
16.5221636524
  0
LINE
  5
2E2
100
AcDbEntity
  8
0
100
AcDbLine
 62
7
  6
CONTINUOUS
 10
-1.1
 20
16.738399556
 11
-1.1
 21
17.3164467818
  0
LINE
  5
2E3
100
AcDbEntity
  8
0
100
AcDbLine
 62
250
  6
CONTINUOUS
 10
-0.95
 20
-19.1068326776
 11
-0.95
 21
-17.3206598891
  0
LINE
  5
2E4
100
AcDbEntity
  8
0
100
AcDbLine
 62
250
  6
CONTINUOUS
 10
-0.95
 20
17.2130715558
 11
-0.95
 21
19.15
  0
LINE
  5
2E5
100
AcDbEntity
  8
0
100
AcDbLine
 62
7
  6
CONTINUOUS
 10
-0.9499994025
 20
14.1
 11
-0.95
 21
16.3466533108
  0
LINE
  5
2E6
100
AcDbEntity
  8
0
100
AcDbLine
 62
7
  6
CONTINUOUS
 10
-0.95
 20
-16.4700733606
 11
-0.9499972677
 21
-14.1
  0
LINE
  5
2E7
100
AcDbEntity
  8
0
100
AcDbLine
 62
7
  6
CONTINUOUS
 10
-0.6
 20
-18.7568326776
 11
-0.6
 21
-18.1673041954
  0
LINE
  5
2E8
100
AcDbEntity
  8
0
100
AcDbLine
 62
7
  6
CONTINUOUS
 10
-0.6
 20
17.9674322765
 11
-0.6
 21
18.8
  0
LINE
  5
2E9
100
AcDbEntity
  8
ASSI
100
AcDbLine
 62
250
  6
CONTINUOUS
 10
-0.5
 20
19.8522563958
 11
-0.5
 21
19.65
  0
LINE
  5
2EA
100
AcDbEntity
  8
ASSI
100
AcDbLine
 62
250
  6
CONTINUOUS
 10
-0.5
 20
-19.65
 11
-0.5
 21
-19.8522563958
  0
LINE
  5
2EB
100
AcDbEntity
  8
ASSI
100
AcDbLine
 62
7
  6
CONTINUOUS
 10
-0.0
 20
19.8588044051
 11
-0.0
 21
19.5511295404
  0
LINE
  5
2EC
100
AcDbEntity
  8
ASSI
100
AcDbLine
 62
7
  6
CONTINUOUS
 10
-0.0
 20
-19.5511295404
 11
-0.0
 21
-19.8588044051
  0
LINE
  5
2ED
100
AcDbEntity
  8
ASSI
100
AcDbLine
 62
7
  6
CONTINUOUS
 10
-0.0
 20
-18.8663241952
 11
-0.0
 21
-18.8
  0
LINE
  5
2EE
100
AcDbEntity
  8
ASSI
100
AcDbLine
 62
250
  6
CONTINUOUS
 10
0.5
 20
-19.8522563958
 11
0.5
 21
-19.65
  0
LINE
  5
2EF
100
AcDbEntity
  8
ASSI
100
AcDbLine
 62
250
  6
CONTINUOUS
 10
0.5
 20
19.65
 11
0.5
 21
19.8522563958
  0
LINE
  5
2F0
100
AcDbEntity
  8
0
100
AcDbLine
 62
7
  6
CONTINUOUS
 10
0.6
 20
18.8
 11
0.6
 21
17.9674322765
  0
LINE
  5
2F1
100
AcDbEntity
  8
0
100
AcDbLine
 62
7
  6
CONTINUOUS
 10
0.6
 20
-18.1673041954
 11
0.6
 21
-18.7568326776
  0
LWPOLYLINE
  5
2F2
100
AcDbEntity
  8
ASSI
100
AcDbPolyline
 62
7
  6
CONTINUOUS
 90
52
 70
0
 10
-3.5216160578
 20
-8.3662619948
 10
-3.5211365111
 20
-8.3214032662
 10
-3.5201879757
 20
-8.2780660722
 10
-3.5187704514
 20
-8.2362504126
 10
-3.5169154136
 20
-8.195983154
 10
-3.514591387
 20
-8.1572374299
 10
-3.5117039461
 20
-8.1199326413
 10
-3.5082071111
 20
-8.084065358
 10
-3.5041468619
 20
-8.0496390101
 10
-3.4995667122
 20
-8.0165832892
 10
-3.4944318061
 20
-7.9849056804
 10
-3.4887769996
 20
-7.9545986986
 10
-3.4827503745
 20
-7.9255695791
 10
-3.4763894226
 20
-7.8978343562
 10
-3.4696566522
 20
-7.8713769957
 10
-3.4625876698
 20
-7.8460566305
 10
-3.4552127497
 20
-7.8218845821
 10
-3.4475016176
 20
-7.7988495291
 10
-3.4393990578
 20
-7.7767766401
 10
-3.430898974
 20
-7.7556647828
 10
-3.4220074623
 20
-7.7355150894
 10
-3.4126875953
 20
-7.7161561253
 10
-3.4028991071
 20
-7.6975413234
 10
-3.3926822635
 20
-7.6797172507
 10
-3.3821209339
 20
-7.6626521748
 10
-3.3712147595
 20
-7.6463507286
 10
-3.3599640992
 20
-7.630808279
 10
-3.3484538993
 20
-7.6159791946
 10
-3.3366909456
 20
-7.6018568402
 10
-3.3246684524
 20
-7.5884478509
 10
-3.3124510087
 20
-7.5757265003
 10
-3.300041122
 20
-7.563689009
 10
-3.2874362848
 20
-7.5523391563
 10
-3.2746935639
 20
-7.5416625548
 10
-3.2618543417
 20
-7.5316779644
 10
-3.2488772358
 20
-7.5223666251
 10
-3.2356951659
 20
-7.5136578687
 10
-3.2223268628
 20
-7.5055456397
 10
-3.2087535955
 20
-7.4980359937
 10
-3.1948520908
 20
-7.491076429
 10
-3.1806315302
 20
-7.4846671805
 10
-3.166082732
 20
-7.4788080133
 10
-3.1510548779
 20
-7.4734457214
 10
-3.1355559875
 20
-7.4685563785
 10
-3.1195780411
 20
-7.4641639109
 10
-3.1029461612
 20
-7.4602868908
 10
-3.0856664873
 20
-7.4569027349
 10
-3.0677328799
 20
-7.4540340265
 10
-3.0489520435
 20
-7.4517670885
 10
-3.0292595461
 20
-7.4501306952
 10
-3.0087198197
 20
-7.4490960722
 10
-2.9873328642
 20
-7.4486632197
  0
LWPOLYLINE
  5
2F3
100
AcDbEntity
  8
ASSI
100
AcDbPolyline
 62
7
  6
CONTINUOUS
 90
46
 70
0
 10
-2.5328676094
 20
-8.607938874
 10
-2.5333643475
 20
-8.6405353982
 10
-2.5347068042
 20
-8.6720767147
 10
-2.5368949797
 20
-8.7025628235
 10
-2.5399824999
 20
-8.7319885225
 10
-2.5439157387
 20
-8.7603590139
 10
-2.5485338187
 20
-8.787689904
 10
-2.5538332491
 20
-8.8139552862
 10
-2.5598175206
 20
-8.8391810672
 10
-2.5663362276
 20
-8.8634605734
 10
-2.5733762016
 20
-8.8868048829
 10
-2.5809506109
 20
-8.9092029176
 10
-2.5889485556
 20
-8.9307147694
 10
-2.5973574735
 20
-8.9513475571
 10
-2.6061899267
 20
-8.971094162
 10
-2.6153727009
 20
-8.9899933198
 10
-2.6248976567
 20
-9.0080350712
 10
-2.6347729336
 20
-9.0252293755
 10
-2.6449497358
 20
-9.0416448464
 10
-2.6554209668
 20
-9.0572778009
 10
-2.6661937232
 20
-9.0721319221
 10
-2.6772404989
 20
-9.086286872
 10
-2.6885692108
 20
-9.099749524
 10
-2.700171942
 20
-9.1125130049
 10
-2.7119974356
 20
-9.1246363564
 10
-2.7240436752
 20
-9.1361252851
 10
-2.7363126773
 20
-9.1469740845
 10
-2.7487592349
 20
-9.1572246773
 10
-2.7613732725
 20
-9.1668805841
 10
-2.7741648656
 20
-9.1759382843
 10
-2.7871190336
 20
-9.1844291387
 10
-2.8002246129
 20
-9.192356769
 10
-2.8134927671
 20
-9.1997175535
 10
-2.8269420059
 20
-9.2065319872
 10
-2.8405813685
 20
-9.2128029273
 10
-2.8544018156
 20
-9.2185275166
 10
-2.8683947394
 20
-9.2237176795
 10
-2.8825588997
 20
-9.2283754135
 10
-2.8968955365
 20
-9.232498721
 10
-2.9113997626
 20
-9.2360935346
 10
-2.9260707125
 20
-9.2391701052
 10
-2.9409092516
 20
-9.2417181818
 10
-2.9559130888
 20
-9.2437129434
 10
-2.9710814601
 20
-9.2451461166
 10
-2.9864151294
 20
-9.2460259749
 10
-3.0019140967
 20
-9.2463525183
  0
LINE
  5
2F4
100
AcDbEntity
  8
0
100
AcDbLine
 62
250
  6
CONTINUOUS
 10
-0.7162131964
 20
-16.4464012295
 11
-0.6995441597
 21
-15.3624370163
  0
LINE
  5
2F5
100
AcDbEntity
  8
0
100
AcDbLine
 62
250
  6
CONTINUOUS
 10
0.7160076232
 20
16.3230154734
 11
0.700079355
 21
15.3312531432
  0
LINE
  5
2F6
100
AcDbEntity
  8
0
100
AcDbLine
 62
250
  6
CONTINUOUS
 10
-0.6995441597
 20
-15.3624370163
 11
-0.6917823794
 21
-14.9114120621
  0
LINE
  5
2F7
100
AcDbEntity
  8
0
100
AcDbLine
 62
250
  6
CONTINUOUS
 10
0.700079355
 20
15.3312531432
 11
0.6945619596
 21
15.0140580227
  0
LINE
  5
2F8
100
AcDbEntity
  8
0
100
AcDbLine
 62
250
  6
CONTINUOUS
 10
-0.6917823794
 20
-14.9114120621
 11
-0.6848647999
 21
-14.5404422719
  0
LINE
  5
2F9
100
AcDbEntity
  8
0
100
AcDbLine
 62
250
  6
CONTINUOUS
 10
0.6945619596
 20
15.0140580227
 11
0.6845670492
 21
14.5026698905
  0
LINE
  5
2FA
100
AcDbEntity
  8
0
100
AcDbLine
 62
250
  6
CONTINUOUS
 10
-0.6848647999
 20
-14.5404422719
 11
-0.6804998831
 21
-14.3381221827
  0
LINE
  5
2FB
100
AcDbEntity
  8
0
100
AcDbLine
 62
250
  6
CONTINUOUS
 10
0.6845670492
 20
14.5026698905
 11
0.680531416
 21
14.3217415643
  0
LWPOLYLINE
  5
2FC
100
AcDbEntity
  8
0
100
AcDbPolyline
 62
250
  6
CONTINUOUS
 90
19
 70
0
 10
-0.7160076235
 20
16.3230154476
 10
-0.7138236879
 20
16.4021623386
 10
-0.7056998728
 20
16.4796932995
 10
-0.6916361782
 20
16.5555223904
 10
-0.6713049077
 20
16.6301977615
 10
-0.6450337578
 20
16.703029235
 10
-0.6138058179
 20
16.7720608063
 10
-0.5773862802
 20
16.8370952249
 10
-0.5360099525
 20
16.8981931949
 10
-0.4913643478
 20
16.9537684716
 10
-0.4435172555
 20
17.0033591575
 10
-0.3924008861
 20
17.0473409489
 10
-0.3394993848
 20
17.0853888671
 10
-0.2848471294
 20
17.117327257
 10
-0.2284097421
 20
17.1432970093
 10
-0.1715682344
 20
17.1634565698
 10
-0.1147829436
 20
17.1778558715
 10
-0.0575935325
 20
17.1864352024
 10
-0.000000001
 20
17.1891925914
  0
LWPOLYLINE
  5
2FD
100
AcDbEntity
  8
0
100
AcDbPolyline
 62
250
  6
CONTINUOUS
 90
9
 70
0
 10
-0.6804998831
 20
-14.3381221827
 10
-0.6761829615
 20
-14.1747054263
 10
-0.6740261573
 20
-14.1086202995
 10
-0.6719202412
 20
-14.0538480503
 10
-0.6698774537
 20
-14.0107361718
 10
-0.6678855542
 20
-13.979398394
 10
-0.665949118
 20
-13.9598485737
 10
-0.6640892446
 20
-13.9520736678
 10
-0.6638041533
 20
-13.9519236039
  0
LWPOLYLINE
  5
2FE
100
AcDbEntity
  8
ASSI
100
AcDbPolyline
 62
7
  6
CONTINUOUS
 90
46
 70
0
 10
-0.2266078958
 20
-8.078928
 10
-0.2257289402
 20
-8.0482736122
 10
-0.2244475791
 20
-8.0186800662
 10
-0.2227638124
 20
-7.990147362
 10
-0.2207623503
 20
-7.9627012087
 10
-0.2183584826
 20
-7.9363158973
 10
-0.215298079
 20
-7.9109143003
 10
-0.2114334724
 20
-7.8865116314
 10
-0.2069123299
 20
-7.863092677
 10
-0.2019235219
 20
-7.8405346689
 10
-0.1965131931
 20
-7.8188173022
 10
-0.1906351989
 20
-7.7979608818
 10
-0.1843399766
 20
-7.7779035553
 10
-0.177642123
 20
-7.7586499426
 10
-0.1705270414
 20
-7.7401954239
 10
-0.1630013793
 20
-7.7224642865
 10
-0.1550660555
 20
-7.7054578595
 10
-0.1467201512
 20
-7.689174814
 10
-0.1379675572
 20
-7.6735354503
 10
-0.1287986478
 20
-7.6585372634
 10
-0.1192230487
 20
-7.6441827584
 10
-0.1092735266
 20
-7.6303997519
 10
-0.0989607855
 20
-7.6171834424
 10
-0.0882741214
 20
-7.6045386314
 10
-0.0772141894
 20
-7.5924075407
 10
-0.065780615
 20
-7.5807681329
 10
-0.0539737726
 20
-7.5696424453
 10
-0.0417954412
 20
-7.5590388124
 10
-0.0292483073
 20
-7.5489587162
 10
-0.0163296844
 20
-7.5394006746
 10
-0.0030332913
 20
-7.5303685752
 10
0.0106433789
 20
-7.5218707175
 10
0.0246978192
 20
-7.5138988019
 10
0.0391287893
 20
-7.5064318169
 10
0.0539331939
 20
-7.499458773
 10
0.0691141283
 20
-7.4929906595
 10
0.0846796387
 20
-7.4870394334
 10
0.1006246692
 20
-7.4815776686
 10
0.1169542758
 20
-7.4766327911
 10
0.1336916721
 20
-7.4722990355
 10
0.1508411888
 20
-7.4685831178
 10
0.1683984952
 20
-7.465478322
 10
0.1863738133
 20
-7.4630587342
 10
0.2047705504
 20
-7.4613490499
 10
0.2235852991
 20
-7.4603245736
 10
0.2428180594
 20
-7.4599853053
  0
LWPOLYLINE
  5
2FF
100
AcDbEntity
  8
0
100
AcDbPolyline
 62
250
  6
CONTINUOUS
 90
9
 70
0
 10
0.680531416
 20
14.3217415643
 10
0.6763236453
 20
14.1688116191
 10
0.6741405368
 20
14.1052751744
 10
0.6720106891
 20
14.0522329615
 10
0.6699659716
 20
14.0102243711
 10
0.6679745149
 20
13.9794257719
 10
0.6660335865
 20
13.9600744375
 10
0.6641591408
 20
13.9521425374
 10
0.6638004547
 20
13.9519205338
  0
LWPOLYLINE
  5
300
100
AcDbEntity
  8
0
100
AcDbPolyline
 62
7
  6
CONTINUOUS
 90
10
 70
0
 10
-1.1
 20
16.5221636524
 10
-1.0952713405
 20
16.6331195032
 10
-1.0820406531
 20
16.7424094168
 10
-1.0603079377
 20
16.8498493933
 10
-1.0295828247
 20
16.9563044791
 10
-0.9903556838
 20
17.060602582
 10
-0.9440976241
 20
17.1594930058
 10
-0.8912990152
 20
17.2517982932
 10
-0.8314694875
 20
17.3384505377
 10
-0.7646090409
 20
17.4193732436
  0
LWPOLYLINE
  5
301
100
AcDbEntity
  8
ASSI
100
AcDbPolyline
 62
7
  6
CONTINUOUS
 90
32
 70
0
 10
-0.2424691688
 20
-9.210887
 10
-0.241166097
 20
-9.1825071735
 10
-0.2394863759
 20
-9.1548020769
 10
-0.2374300054
 20
-9.1277717101
 10
-0.2350743822
 20
-9.1014780746
 10
-0.2323421096
 20
-9.0758591689
 10
-0.2290009981
 20
-9.0507289886
 10
-0.2250110796
 20
-9.0260736351
 10
-0.2204123223
 20
-9.001907007
 10
-0.2150924406
 20
-8.9780847953
 10
-0.2090533408
 20
-8.9546059461
 10
-0.2022931166
 20
-8.9314715133
 10
-0.1946937636
 20
-8.908540349
 10
-0.1862383984
 20
-8.8858237193
 10
-0.1769439044
 20
-8.8633103581
 10
-0.166742927
 20
-8.8408253188
 10
-0.1556476079
 20
-8.818348238
 10
-0.1436458054
 20
-8.7958994791
 10
-0.1306337399
 20
-8.7733651857
 10
-0.1166225173
 20
-8.7507222676
 10
-0.1016010316
 20
-8.727993815
 10
-0.0854321856
 20
-8.7051352425
 10
-0.0680222387
 20
-8.6820485011
 10
-0.0494649314
 20
-8.6588316398
 10
-0.0299043882
 20
-8.6357342208
 10
-0.0092255006
 20
-8.6127525598
 10
0.0124566229
 20
-8.5898903411
 10
0.0346525331
 20
-8.5674081805
 10
0.0574091765
 20
-8.5453361581
 10
0.0806796066
 20
-8.5236441936
 10
0.1038335338
 20
-8.5025026624
 10
0.1268060888
 20
-8.481967854
  0
LWPOLYLINE
  5
302
100
AcDbEntity
  8
0
100
AcDbPolyline
 62
7
  6
CONTINUOUS
 90
10
 70
0
 10
-1.1
 20
16.738399556
 10
-1.0962632565
 20
16.8178970532
 10
-1.084187382
 20
16.8971482545
 10
-1.0637723764
 20
16.9760510552
 10
-1.0350757046
 20
17.0551572509
 10
-0.9980399017
 20
17.1337315026
 10
-0.9524925734
 20
17.2097247791
 10
-0.8983762547
 20
17.2823867277
 10
-0.8357484106
 20
17.3522907942
 10
-0.7646090409
 20
17.4193732436
  0
LWPOLYLINE
  5
303
100
AcDbEntity
  8
0
100
AcDbPolyline
 62
7
  6
CONTINUOUS
 90
16
 70
0
 10
-0.95
 20
16.3466533108
 10
-0.9433722336
 20
16.4633900692
 10
-0.9262492093
 20
16.5769126261
 10
-0.898630927
 20
16.6869425213
 10
-0.8596469739
 20
16.7944853183
 10
-0.8101677629
 20
16.8980995979
 10
-0.7528045327
 20
16.9938250676
 10
-0.6873953095
 20
17.080801592
 10
-0.6141020671
 20
17.1595579363
 10
-0.5360219657
 20
17.228213729
 10
-0.4531952101
 20
17.2862114657
 10
-0.3655815954
 20
17.3339888107
 10
-0.2761576668
 20
17.3711895213
 10
-0.185915606
 20
17.3976908266
 10
-0.0938632312
 20
17.4135982869
 10
-0.0000005425
 20
17.4189106638
  0
LINE
  5
304
100
AcDbEntity
  8
0
100
AcDbLine
 62
250
  6
CONTINUOUS
 10
0.6029942985
 20
18.7164557388
 11
0.6
 21
18.6726483312
  0
LWPOLYLINE
  5
305
100
AcDbEntity
  8
COPY-PUBBLISH
100
AcDbPolyline
 62
7
  6
CONTINUOUS
 90
9
 70
0
 10
1.6
 20
18.4512760258
 10
1.6042909995
 20
18.4691888817
 10
1.6156230213
 20
18.4863249906
 10
1.6339960654
 20
18.5026843524
 10
1.6599005075
 20
18.5184906745
 10
1.6928459719
 20
18.5335202495
 10
1.7313613316
 20
18.5471019558
 10
1.7756990592
 20
18.5591701642
 10
1.8
 20
18.5643414033
  0
LWPOLYLINE
  5
306
100
AcDbEntity
  8
COPY-PUBBLISH
100
AcDbPolyline
 62
7
  6
CONTINUOUS
 90
9
 70
0
 10
1.6
 20
17.6841409726
 10
1.6042909995
 20
17.7020538285
 10
1.6156230213
 20
17.7191899374
 10
1.6339960654
 20
17.7355492992
 10
1.6599005075
 20
17.7513556213
 10
1.6928459719
 20
17.7663851963
 10
1.7313613316
 20
17.7799669025
 10
1.7756990592
 20
17.792035111
 10
1.8
 20
17.7972063501
  0
LINE
  5
307
100
AcDbEntity
  8
ASSI
100
AcDbLine
 62
7
  6
CONTINUOUS
 10
-1.382654
 20
-7.409767
 11
-1.830713
 21
-9.229559
  0
LINE
  5
308
100
AcDbEntity
  8
ASSI
100
AcDbLine
 62
7
  6
CONTINUOUS
 10
-1.599701
 20
-9.229559
 11
-1.151264
 21
-7.409767
  0
LWPOLYLINE
  5
309
100
AcDbEntity
  8
COPY-PUBBLISH
100
AcDbPolyline
 62
7
  6
CONTINUOUS
 90
13
 70
0
 10
1.1
 20
17.2534355084
 10
1.1019490915
 20
17.2610401061
 10
1.1070237894
 20
17.2682774314
 10
1.1152240935
 20
17.2751474844
 10
1.1267944609
 20
17.281754051
 10
1.1414904346
 20
17.2879933453
 10
1.1585786438
 20
17.2935540088
 10
1.1781804872
 20
17.2984016028
 10
1.2001745661
 20
17.302570566
 10
1.2234633135
 20
17.3058528552
 10
1.2476808738
 20
17.3081791226
 10
1.2731931027
 20
17.3096187162
 10
1.3
 20
17.3101716357
  0
LWPOLYLINE
  5
30A
100
AcDbEntity
  8
COPY-PUBBLISH
100
AcDbPolyline
 62
7
  6
CONTINUOUS
 90
13
 70
0
 10
1.35
 20
18.0193732261
 10
1.3519490915
 20
18.0269778238
 10
1.3570237894
 20
18.0342151491
 10
1.3652240935
 20
18.041085202
 10
1.3767944609
 20
18.0476917687
 10
1.3914904346
 20
18.053931063
 10
1.4085786438
 20
18.0594917264
 10
1.4281804872
 20
18.0643393205
 10
1.4501745661
 20
18.0685082837
 10
1.4734633135
 20
18.0717905728
 10
1.4976808738
 20
18.0741168403
 10
1.5231931027
 20
18.0755564338
 10
1.55
 20
18.0761093534
  0
LWPOLYLINE
  5
30B
100
AcDbEntity
  8
COPY-PUBBLISH
100
AcDbPolyline
 62
7
  6
CONTINUOUS
 90
8
 70
0
 10
1.1
 20
16.4863004552
 10
1.1019490915
 20
16.4939050529
 10
1.1070237894
 20
16.5011423782
 10
1.1152240935
 20
16.5080124311
 10
1.1267944609
 20
16.5146189978
 10
1.1414904346
 20
16.5208582921
 10
1.1585786438
 20
16.5264189555
 10
1.1781804872
 20
16.5312665496
  0
LWPOLYLINE
  5
30C
100
AcDbEntity
  8
COPY-PUBBLISH
100
AcDbPolyline
 62
7
  6
CONTINUOUS
 90
8
 70
0
 10
1.35
 20
17.2522381729
 10
1.3519490915
 20
17.2598427706
 10
1.3570237894
 20
17.2670800959
 10
1.3652240935
 20
17.2739501488
 10
1.3767944609
 20
17.2805567155
 10
1.3914904346
 20
17.2867960098
 10
1.4085786438
 20
17.2923566732
 10
1.4281804872
 20
17.2972042673
  0
LINE
  5
30D
100
AcDbEntity
  8
ASSI
100
AcDbLine
 62
250
  6
CONTINUOUS
 10
-16.3898267467
 20
-13.3966247937
 11
-17.0337991215
 21
-13.9229913268
  0
LINE
  5
30E
100
AcDbEntity
  8
ASSI
100
AcDbLine
 62
250
  6
CONTINUOUS
 10
16.3898267467
 20
13.3966247937
 11
17.0337991215
 21
13.9229913268
  0
LINE
  5
30F
100
AcDbEntity
  8
0
100
AcDbLine
 62
250
  6
CONTINUOUS
 10
-21.9755620937
 20
-7.0666211814
 11
-21.6682014499
 21
-6.9657271901
  0
LINE
  5
310
100
AcDbEntity
  8
0
100
AcDbLine
 62
250
  6
CONTINUOUS
 10
21.9755620937
 20
7.0666211814
 11
21.6682014499
 21
6.9657271901
  0
LINE
  5
311
100
AcDbEntity
  8
ASSI
100
AcDbLine
 62
250
  6
CONTINUOUS
 10
21.747432639
 20
7.8445634146
 11
21.4150692686
 21
7.7364200808
  0
LINE
  5
312
100
AcDbEntity
  8
RACCORDO
100
AcDbLine
 62
250
  6
CONTINUOUS
 10
-7.7107271768
 20
-2.1535179727
 11
-8.8661435508
 21
-2.463110857
  0
LINE
  5
313
100
AcDbEntity
  8
RACCORDO
100
AcDbLine
 62
250
  6
CONTINUOUS
 10
7.7107271768
 20
2.1535179727
 11
8.8661435508
 21
2.463110857
  0
LWPOLYLINE
  5
314
100
AcDbEntity
  8
RACCORDO
100
AcDbPolyline
 62
250
  6
CONTINUOUS
 90
46
 70
0
 10
-8.8661435508
 20
-2.463110857
 10
-8.9208558684
 20
-2.4772699776
 10
-8.9770586714
 20
-2.4903024082
 10
-9.0347519598
 20
-2.5022081488
 10
-9.0937903406
 20
-2.5130744421
 10
-9.1543192069
 20
-2.5228140454
 10
-9.2167747377
 20
-2.5311652305
 10
-9.2811816492
 20
-2.538187581
 10
-9.3475152252
 20
-2.5438215134
 10
-9.416137496
 20
-2.5476265488
 10
-9.4870768936
 20
-2.5496678082
 10
-9.5603049861
 20
-2.5498801705
 10
-9.6360985077
 20
-2.5476277938
 10
-9.7145082945
 20
-2.5429828644
 10
-9.7954835105
 20
-2.5358731959
 10
-9.8791483815
 20
-2.5254463873
 10
-9.9655832934
 20
-2.511776936
 10
-10.0547078603
 20
-2.4947903446
 10
-10.1464051514
 20
-2.4734107192
 10
-10.2407800582
 20
-2.4477131276
 10
-10.337727689
 20
-2.417622502
 10
-10.4368164387
 20
-2.3818377459
 10
-10.5382739144
 20
-2.3403678771
 10
-10.6418725089
 20
-2.2932038776
 10
-10.7464977949
 20
-2.2390175965
 10
-10.8525345568
 20
-2.1775761709
 10
-10.9595980102
 20
-2.1091124636
 10
-11.0654193741
 20
-2.0329969123
 10
-11.1701170459
 20
-1.9489183167
 10
-11.2735726282
 20
-1.8571878771
 10
-11.3731621488
 20
-1.7581096322
 10
-11.4688110186
 20
-1.6513638961
 10
-11.5605938265
 20
-1.5372703548
 10
-11.6461103673
 20
-1.4170921043
 10
-11.7251471613
 20
-1.2905457659
 10
-11.7979176881
 20
-1.1579147183
 10
-11.8626621806
 20
-1.0213121943
 10
-11.9190498997
 20
-0.8807126192
 10
-11.9674115845
 20
-0.7361415678
 10
-12.006979686
 20
-0.5897889963
 10
-12.0375211305
 20
-0.4418547816
 10
-12.0592689918
 20
-0.2921390469
 10
-12.0721549422
 20
-0.1422321179
 10
-12.0761562059
 20
0.007335897
 10
-12.0712955589
 20
0.1570951062
 10
-12.057573001
 20
0.3070455097
  0
LWPOLYLINE
  5
315
100
AcDbEntity
  8
RACCORDO
100
AcDbPolyline
 62
250
  6
CONTINUOUS
 90
46
 70
0
 10
8.8661435508
 20
2.463110857
 10
8.9208539886
 20
2.4772696507
 10
8.9770560056
 20
2.490301927
 10
9.0347496018
 20
2.5022076857
 10
9.0937894439
 20
2.5130742575
 10
9.1543208651
 20
2.5228143118
 10
9.2167798657
 20
2.5311658572
 10
9.2811911689
 20
2.5381884715
 10
9.3475300515
 20
2.543822577
 10
9.4161583439
 20
2.5476274488
 10
9.4871044943
 20
2.549668202
 10
9.5603400545
 20
2.5498797215
 10
9.6361415094
 20
2.5476259373
 10
9.7145597151
 20
2.5429790242
 10
9.7955438155
 20
2.5358668075
 10
9.8792177271
 20
2.5254366929
 10
9.9656618565
 20
2.5117631569
 10
10.054795797
 20
2.4947717231
 10
10.146502245
 20
2.4733863683
 10
10.2408860957
 20
2.4476821351
 10
10.3378424539
 20
2.417583981
 10
10.4369393296
 20
2.3817907552
 10
10.5384044864
 20
2.3403113224
 10
10.6420101607
 20
2.293136818
 10
10.7466410722
 20
2.2389394974
 10
10.8526820259
 20
2.1774862155
 10
10.9597482169
 20
2.1090101175
 10
11.0655699498
 20
2.0328828937
 10
11.1702653399
 20
1.9487931701
 10
11.273716272
 20
1.8570523206
 10
11.3732987048
 20
1.7579661577
 10
11.4689375266
 20
1.6512153443
 10
11.5607078491
 20
1.5371192174
 10
11.6462109659
 20
1.4169416007
 10
11.7252332479
 20
1.2903997339
 10
11.7979883241
 20
1.1577763772
 10
11.8627183754
 20
1.021183635
 10
11.9190930242
 20
0.8805961024
 10
11.9674426481
 20
0.7360391842
 10
12.0070005607
 20
0.5897011998
 10
12.0375340042
 20
0.4417817022
 10
12.0592757365
 20
0.2920811384
 10
12.0721573438
 20
0.1421891692
 10
12.0761560218
 20
-0.0073643185
 10
12.0712945749
 20
-0.1571092116
 10
12.0575730032
 20
-0.3070455101
  0
LINE
  5
316
100
AcDbEntity
  8
ASSI
100
AcDbLine
 62
7
  6
CONTINUOUS
 10
-19.6539135825
 20
-2.6977995296
 11
-16.6977995296
 21
-2.6977995296
  0
LINE
  5
317
100
AcDbEntity
  8
ASSI
100
AcDbLine
 62
7
  6
CONTINUOUS
 10
16.6977995296
 20
-2.6977995296
 11
19.6539135825
 21
-2.6977995296
  0
LINE
  5
318
100
AcDbEntity
  8
ASSI
100
AcDbLine
 62
7
  6
CONTINUOUS
 10
-19.3703530298
 20
-2.55
 11
-16.55
 21
-2.55
  0
LINE
  5
319
100
AcDbEntity
  8
ASSI
100
AcDbLine
 62
7
  6
CONTINUOUS
 10
16.55
 20
-2.55
 11
19.3703530298
 21
-2.55
  0
LINE
  5
31A
100
AcDbEntity
  8
COPY-PUBBLISH
100
AcDbLine
 62
250
  6
CONTINUOUS
 10
-8.4892878595
 20
-2.0660254038
 11
-10.5107121405
 21
-2.0660254038
  0
LINE
  5
31B
100
AcDbEntity
  8
COPY-PUBBLISH
100
AcDbLine
 62
250
  6
CONTINUOUS
 10
-7.4087905944
 20
-1.0660254038
 11
-11.5912094056
 21
-1.0660254038
  0
LWPOLYLINE
  5
31C
100
AcDbEntity
  8
RACCORDO
100
AcDbPolyline
 62
250
  6
CONTINUOUS
 90
19
 70
0
 10
-7.1920995094
 20
-0.6469347617
 10
-7.1612953006
 20
-0.6488322256
 10
-7.1309410966
 20
-0.6483132371
 10
-7.1010368974
 20
-0.6453777963
 10
-7.0716469488
 20
-0.6400369965
 10
-7.0427070051
 20
-0.6322797443
 10
-7.0140243285
 20
-0.6220727597
 10
-6.9855003397
 20
-0.6094227967
 10
-6.9572336181
 20
-0.5943231012
 10
-6.929327164
 20
-0.5767201313
 10
-6.9016861693
 20
-0.5564825524
 10
-6.8744054421
 20
-0.5337416992
 10
-6.8478724081
 20
-0.5088380332
 10
-6.8221909319
 20
-0.4817889718
 10
-6.7972571487
 20
-0.4525770978
 10
-6.7731468895
 20
-0.421490621
 10
-6.7499033389
 20
-0.3885868586
 10
-6.7274833121
 20
-0.3538084935
 10
-6.7212946427
 20
-0.3433645554
  0
LINE
  5
31D
100
AcDbEntity
  8
RACCORDO
100
AcDbLine
 62
7
  6
CONTINUOUS
 10
-11.9683038008
 20
0.29079442
 11
-12.057573001
 21
0.3070455097
  0
LWPOLYLINE
  5
31E
100
AcDbEntity
  8
RACCORDO
100
AcDbPolyline
 62
250
  6
CONTINUOUS
 90
25
 70
0
 10
-7.195015147
 20
-0.5177676117
 10
-7.1739148203
 20
-0.5225959676
 10
-7.1528118765
 20
-0.5250133298
 10
-7.1318887743
 20
-0.5250016282
 10
-7.111518795
 20
-0.5225874867
 10
-7.0916470152
 20
-0.5178691814
 10
-7.0718262461
 20
-0.5107929218
 10
-7.052182155
 20
-0.5013306407
 10
-7.0329167023
 20
-0.4895435495
 10
-7.0137483811
 20
-0.4752464572
 10
-6.994709006
 20
-0.4583756395
 10
-6.9760489221
 20
-0.439089603
 10
-6.9578229745
 20
-0.4174423777
 10
-6.9400804666
 20
-0.3935330493
 10
-6.9228735712
 20
-0.3674993836
 10
-6.90623198
 20
-0.3394325207
 10
-6.8901765099
 20
-0.3094596528
 10
-6.8746821633
 20
-0.2776588841
 10
-6.8597095636
 20
-0.2440048356
 10
-6.8452559715
 20
-0.2085589697
 10
-6.8313059135
 20
-0.1713911366
 10
-6.8178217887
 20
-0.1324438809
 10
-6.8048010701
 20
-0.0917500583
 10
-6.7922330418
 20
-0.0493600265
 10
-6.7800905238
 20
-0.0052103669
  0
LINE
  5
31F
100
AcDbEntity
  8
ASSI
100
AcDbLine
 62
250
  6
CONTINUOUS
 10
21.747432639
 20
-7.8445634146
 11
21.4150692686
 21
-7.7364200808
  0
LINE
  5
320
100
AcDbEntity
  8
0
100
AcDbLine
 62
250
  6
CONTINUOUS
 10
-21.9755620937
 20
7.0666211814
 11
-21.6682014499
 21
6.9657271901
  0
LINE
  5
321
100
AcDbEntity
  8
0
100
AcDbLine
 62
250
  6
CONTINUOUS
 10
21.9755620937
 20
-7.0666211814
 11
21.6682014499
 21
-6.9657271901
  0
LINE
  5
322
100
AcDbEntity
  8
ASSI
100
AcDbLine
 62
250
  6
CONTINUOUS
 10
16.3898267467
 20
-13.3966247937
 11
17.0337991215
 21
-13.9229913268
  0
LINE
  5
323
100
AcDbEntity
  8
ASSI
100
AcDbLine
 62
250
  6
CONTINUOUS
 10
-16.3898267467
 20
13.3966247937
 11
-17.0337991215
 21
13.9229913268
  0
LINE
  5
324
100
AcDbEntity
  8
0
100
AcDbLine
 62
250
  6
CONTINUOUS
 10
-0.6029942985
 20
18.7164557388
 11
-0.6
 21
18.6726483312
  0
LWPOLYLINE
  5
325
100
AcDbEntity
  8
ASSI
100
AcDbPolyline
 62
7
  6
CONTINUOUS
 90
52
 70
0
 10
2.1685620114
 20
-8.5984882868
 10
2.1682751282
 20
-8.5868192635
 10
2.167730652
 20
-8.574008882
 10
2.1669285829
 20
-8.5600571425
 10
2.1658838593
 20
-8.5448426243
 10
2.1645815427
 20
-8.5284867479
 10
2.1629768175
 20
-8.5113537753
 10
2.1611410699
 20
-8.493437173
 10
2.1590029136
 20
-8.4747434743
 10
2.1563033735
 20
-8.4556565412
 10
2.1530015395
 20
-8.4361478464
 10
2.1491383217
 20
-8.4162459171
 10
2.1445774753
 20
-8.3964201972
 10
2.1392542655
 20
-8.3766842506
 10
2.1332334271
 20
-8.3570245134
 10
2.1265729203
 20
-8.3378697377
 10
2.1191885444
 20
-8.3192952547
 10
2.1111645001
 20
-8.3012257333
 10
2.1028113492
 20
-8.2838639323
 10
2.0941783695
 20
-8.2672830121
 10
2.0852162833
 20
-8.2514098122
 10
2.076087819
 20
-8.2362276097
 10
2.0668529709
 20
-8.221717226
 10
2.0574517447
 20
-8.2078978395
 10
2.0478668863
 20
-8.1948102627
 10
2.0380850367
 20
-8.1824867223
 10
2.0281195548
 20
-8.1708949916
 10
2.0179932634
 20
-8.1599792022
 10
2.0076891785
 20
-8.1497883881
 10
1.9972242842
 20
-8.1402735154
 10
1.9866723545
 20
-8.1312316145
 10
1.9760618379
 20
-8.1226429338
 10
1.9653642859
 20
-8.1145272248
 10
1.9545681283
 20
-8.1067407734
 10
1.9437128286
 20
-8.0992265703
 10
1.9327589231
 20
-8.0920416247
 10
1.9215764502
 20
-8.0852132499
 10
1.910154757
 20
-8.0787172611
 10
1.8985044962
 20
-8.072577843
 10
1.886527665
 20
-8.0668948628
 10
1.8741390175
 20
-8.0617042986
 10
1.8614237995
 20
-8.0569701723
 10
1.8485397456
 20
-8.052684417
 10
1.8354571967
 20
-8.0488629515
 10
1.8222058119
 20
-8.0454898569
 10
1.8090323031
 20
-8.0425093093
 10
1.7959518618
 20
-8.0398735692
 10
1.7829492966
 20
-8.0376303761
 10
1.7702257452
 20
-8.0358671246
 10
1.7578482535
 20
-8.0346129461
 10
1.7457497757
 20
-8.0338387092
 10
1.7339303118
 20
-8.0335444139
  0
LINE
  5
326
100
AcDbEntity
  8
ASSI
100
AcDbLine
 62
7
  6
CONTINUOUS
 10
2.901164924
 20
-8.3782757732
 11
2.9010201438
 21
-8.327444172
  0
LINE
  5
327
100
AcDbEntity
  8
ASSI
100
AcDbLine
 62
7
  6
CONTINUOUS
 10
0.738329
 20
-9.210887
 11
0.738329
 21
-8.905087
  0
LINE
  5
328
100
AcDbEntity
  8
0
100
AcDbLine
 62
7
  6
CONTINUOUS
 10
0.95
 20
16.3466533108
 11
0.9499967745
 21
14.1
  0
LINE
  5
329
100
AcDbEntity
  8
0
100
AcDbLine
 62
7
  6
CONTINUOUS
 10
0.9499967396
 20
-14.1
 11
0.95
 21
-16.4700733606
  0
LINE
  5
32A
100
AcDbEntity
  8
0
100
AcDbLine
 62
250
  6
CONTINUOUS
 10
0.95
 20
19.15
 11
0.95
 21
17.2130715559
  0
LINE
  5
32B
100
AcDbEntity
  8
0
100
AcDbLine
 62
250
  6
CONTINUOUS
 10
0.95
 20
-17.320659889
 11
0.95
 21
-19.1068326776
  0
LINE
  5
32C
100
AcDbEntity
  8
0
100
AcDbLine
 62
7
  6
CONTINUOUS
 10
1.1
 20
-14.1000000023
 11
1.1
 21
-16.6237626414
  0
LINE
  5
32D
100
AcDbEntity
  8
0
100
AcDbLine
 62
7
  6
CONTINUOUS
 10
1.1
 20
-16.845249715
 11
1.1
 21
-17.1891229883
  0
LINE
  5
32E
100
AcDbEntity
  8
0
100
AcDbLine
 62
7
  6
CONTINUOUS
 10
1.1
 20
14.1000000703
 11
1.1
 21
16.5221636525
  0
LINE
  5
32F
100
AcDbEntity
  8
0
100
AcDbLine
 62
7
  6
CONTINUOUS
 10
1.1
 20
16.7383995561
 11
1.1
 21
17.2534355084
  0
LINE
  5
330
100
AcDbEntity
  8
COPY-PUBBLISH
100
AcDbLine
 62
250
  6
CONTINUOUS
 10
1.3
 20
17.3101716357
 11
1.3
 21
16.5430365825
  0
LINE
  5
331
100
AcDbEntity
  8
COPY-PUBBLISH
100
AcDbLine
 62
250
  6
CONTINUOUS
 10
1.3
 20
-17.2458591156
 11
1.3
 21
-16.4787240624
  0
LINE
  5
332
100
AcDbEntity
  8
COPY-PUBBLISH
100
AcDbLine
 62
7
  6
CONTINUOUS
 10
1.35
 20
18.0193732261
 11
1.35
 21
17.3101716357
  0
LINE
  5
333
100
AcDbEntity
  8
COPY-PUBBLISH
100
AcDbLine
 62
7
  6
CONTINUOUS
 10
1.35
 20
17.3101716357
 11
1.35
 21
16.5430365825
  0
LINE
  5
334
100
AcDbEntity
  8
COPY-PUBBLISH
100
AcDbLine
 62
7
  6
CONTINUOUS
 10
1.35
 20
-17.2458591156
 11
1.35
 21
-17.955060706
  0
LINE
  5
335
100
AcDbEntity
  8
COPY-PUBBLISH
100
AcDbLine
 62
7
  6
CONTINUOUS
 10
1.35
 20
-17.2458591156
 11
1.35
 21
-16.4787240624
  0
LINE
  5
336
100
AcDbEntity
  8
COPY-PUBBLISH
100
AcDbLine
 62
250
  6
CONTINUOUS
 10
1.55
 20
18.0761093534
 11
1.55
 21
17.3089743002
  0
LINE
  5
337
100
AcDbEntity
  8
COPY-PUBBLISH
100
AcDbLine
 62
250
  6
CONTINUOUS
 10
1.55
 20
-18.0117968333
 11
1.55
 21
-17.2446617801
  0
LINE
  5
338
100
AcDbEntity
  8
COPY-PUBBLISH
100
AcDbLine
 62
7
  6
CONTINUOUS
 10
1.6
 20
18.4512760258
 11
1.6
 21
18.0761093534
  0
LINE
  5
339
100
AcDbEntity
  8
COPY-PUBBLISH
100
AcDbLine
 62
7
  6
CONTINUOUS
 10
1.6
 20
18.0761093534
 11
1.6
 21
17.3089743002
  0
LINE
  5
33A
100
AcDbEntity
  8
COPY-PUBBLISH
100
AcDbLine
 62
7
  6
CONTINUOUS
 10
1.6
 20
-18.0117968333
 11
1.6
 21
-18.3869635057
  0
LINE
  5
33B
100
AcDbEntity
  8
COPY-PUBBLISH
100
AcDbLine
 62
7
  6
CONTINUOUS
 10
1.6
 20
-18.0117968333
 11
1.6
 21
-17.2446617801
  0
LINE
  5
33C
100
AcDbEntity
  8
ASSI
100
AcDbLine
 62
7
  6
CONTINUOUS
 10
1.8
 20
19.7770602568
 11
1.8
 21
14.6
  0
LINE
  5
33D
100
AcDbEntity
  8
ASSI
100
AcDbLine
 62
7
  6
CONTINUOUS
 10
1.8
 20
-19.7770602568
 11
1.8
 21
-14.6
  0
LINE
  5
33E
100
AcDbEntity
  8
ASSI
100
AcDbLine
 62
7
  6
CONTINUOUS
 10
2.112106
 20
-7.750106
 11
2.112106
 21
-7.45932
  0
LINE
  5
33F
100
AcDbEntity
  8
ASSI
100
AcDbLine
 62
7
  6
CONTINUOUS
 10
2.9010201438
 20
-8.327444172
 11
2.901113642
 21
-8.2768688016
  0
LWPOLYLINE
  5
340
100
AcDbEntity
  8
ASSI
100
AcDbPolyline
 62
7
  6
CONTINUOUS
 90
5
 70
0
 10
3.313610912
 20
-8.327444172
 10
3.3134938051
 20
-8.3527478792
 10
3.3132704185
 20
-8.3773729004
 10
3.3129407522
 20
-8.4013192357
 10
3.3124913629
 20
-8.4245718283
  0
LWPOLYLINE
  5
341
100
AcDbEntity
  8
ASSI
100
AcDbPolyline
 62
7
  6
CONTINUOUS
 90
55
 70
0
 10
2.6098478397
 20
-8.327444172
 10
2.6101357728
 20
-8.2805923425
 10
2.6110358321
 20
-8.2353063511
 10
2.6125480174
 20
-8.1915861981
 10
2.6146829389
 20
-8.1494511472
 10
2.6174299864
 20
-8.1088819345
 10
2.6207573302
 20
-8.0698207687
 10
2.6246581543
 20
-8.0322612573
 10
2.6291392745
 20
-7.9962097926
 10
2.6341893089
 20
-7.9616277602
 10
2.6398291341
 20
-7.9285190454
 10
2.6460378734
 20
-7.8968797628
 10
2.652741514
 20
-7.8666596413
 10
2.6599424295
 20
-7.8379114815
 10
2.6676382462
 20
-7.8105824827
 10
2.6757478307
 20
-7.7844639714
 10
2.6842651544
 20
-7.7595184992
 10
2.6931962458
 20
-7.7357835145
 10
2.702478057
 20
-7.7131626896
 10
2.7121072622
 20
-7.69165425
 10
2.7220871872
 20
-7.6712599701
 10
2.732364761
 20
-7.6518888456
 10
2.7429793091
 20
-7.6334986461
 10
2.7538915061
 20
-7.6161316019
 10
2.7649303038
 20
-7.5998233993
 10
2.7760945403
 20
-7.5846065116
 10
2.7873853776
 20
-7.5704484655
 10
2.798635254
 20
-7.5572875273
 10
2.8097804847
 20
-7.5451699483
 10
2.8208847545
 20
-7.5340494772
 10
2.8319715562
 20
-7.5237256263
 10
2.8429924107
 20
-7.5141945404
 10
2.8539957971
 20
-7.5054600747
 10
2.8651506454
 20
-7.4973333072
 10
2.8764889799
 20
-7.4897783042
 10
2.8879787763
 20
-7.4828309994
 10
2.8996928912
 20
-7.4764102721
 10
2.911703364
 20
-7.4705032204
 10
2.9239381552
 20
-7.4651227461
 10
2.9362540033
 20
-7.4602264339
 10
2.948654353
 20
-7.4558212278
 10
2.9611357594
 20
-7.4519001837
 10
2.9735446264
 20
-7.4484000543
 10
2.9858677412
 20
-7.4453388503
 10
2.9981183165
 20
-7.442698561
 10
3.010182394
 20
-7.4403619068
 10
3.02204966
 20
-7.4383342053
 10
3.0337304283
 20
-7.436610139
 10
3.0451416818
 20
-7.435056475
 10
3.0562802359
 20
-7.4336095522
 10
3.0671492754
 20
-7.4323330318
 10
3.0776753365
 20
-7.4312846643
 10
3.0878339314
 20
-7.4304837
 10
3.0976495481
 20
-7.4299108887
 10
3.1071221864
 20
-7.4295662303
  0
LWPOLYLINE
  5
342
100
AcDbEntity
  8
ASSI
100
AcDbPolyline
 62
7
  6
CONTINUOUS
 90
52
 70
0
 10
3.6047832162
 20
-8.327444172
 10
3.6044068575
 20
-8.3708381994
 10
3.6034946894
 20
-8.4127856392
 10
3.602046712
 20
-8.4532864914
 10
3.6000335301
 20
-8.4923104084
 10
3.5974845389
 20
-8.5298877378
 10
3.5944879232
 20
-8.5661095221
 10
3.5910542022
 20
-8.6009687849
 10
3.5871728568
 20
-8.6344725026
 10
3.5829005147
 20
-8.6667326467
 10
3.5782347737
 20
-8.697749767
 10
3.5731780359
 20
-8.7275233137
 10
3.5677941355
 20
-8.7561636085
 10
3.562110812
 20
-8.7836866443
 10
3.5561003259
 20
-8.8100764282
 10
3.5497432926
 20
-8.8353953036
 10
3.5430415698
 20
-8.8596368125
 10
3.5359932999
 20
-8.8828074129
 10
3.5285735247
 20
-8.9049888223
 10
3.5207699792
 20
-8.9261723833
 10
3.5125949284
 20
-8.9463667533
 10
3.504060209
 20
-8.965679622
 10
3.4951519679
 20
-8.98412183
 10
3.4858840581
 20
-9.0016825366
 10
3.4763098754
 20
-9.0184369096
 10
3.4664237458
 20
-9.0343933184
 10
3.4562313433
 20
-9.0495433936
 10
3.445803086
 20
-9.0639371949
 10
3.4351567446
 20
-9.077567666
 10
3.4242745484
 20
-9.0904418632
 10
3.4131736032
 20
-9.1026310155
 10
3.4018750977
 20
-9.1141345341
 10
3.3903578432
 20
-9.1249530077
 10
3.3785753797
 20
-9.1351594318
 10
3.3665422516
 20
-9.144749808
 10
3.3542439146
 20
-9.1537281347
 10
3.3415902754
 20
-9.1621794023
 10
3.328560269
 20
-9.170118448
 10
3.3151749604
 20
-9.1775304346
 10
3.301407452
 20
-9.1844558413
 10
3.2872449682
 20
-9.1909129395
 10
3.2727002847
 20
-9.1968834576
 10
3.2577848303
 20
-9.2023530605
 10
3.2425009906
 20
-9.2073307522
 10
3.2268463801
 20
-9.2118075285
 10
3.2108252715
 20
-9.2157420418
 10
3.1944349602
 20
-9.2191435973
 10
3.1776781508
 20
-9.2220028896
 10
3.1605672301
 20
-9.2242506554
 10
3.1431063269
 20
-9.2258638065
 10
3.1252913123
 20
-9.226865431
 10
3.1071221864
 20
-9.2272555288
  0
LWPOLYLINE
  5
343
100
AcDbEntity
  8
ASSI
100
AcDbPolyline
 62
7
  6
CONTINUOUS
 90
55
 70
0
 10
2.901113642
 20
-8.2768688016
 10
2.9016170589
 20
-8.229035473
 10
2.9020210608
 20
-8.2061487738
 10
2.9025646205
 20
-8.1839033997
 10
2.9032590201
 20
-8.1622980448
 10
2.9040929775
 20
-8.1413340149
 10
2.9050668731
 20
-8.1209744407
 10
2.906193674
 20
-8.1012215287
 10
2.907460413
 20
-8.0820730724
 10
2.9088285696
 20
-8.0634855832
 10
2.9102930039
 20
-8.0454576711
 10
2.9118588559
 20
-8.027990726
 10
2.9135030241
 20
-8.0110454295
 10
2.9151984275
 20
-7.9946139358
 10
2.9169721473
 20
-7.9787040908
 10
2.9188823252
 20
-7.9633001135
 10
2.9209323004
 20
-7.9484038142
 10
2.9231187339
 20
-7.9340133827
 10
2.9254897502
 20
-7.9201076076
 10
2.9280592441
 20
-7.9066869606
 10
2.930813321
 20
-7.89375097
 10
2.9337584215
 20
-7.8812770089
 10
2.9369027889
 20
-7.8692589412
 10
2.9402381799
 20
-7.857702903
 10
2.9437463056
 20
-7.8466046759
 10
2.9474275894
 20
-7.8359540354
 10
2.9512816078
 20
-7.8257612062
 10
2.955288801
 20
-7.8160526433
 10
2.9594547761
 20
-7.806837844
 10
2.9637739261
 20
-7.7981073111
 10
2.9682098692
 20
-7.7898590089
 10
2.9727631816
 20
-7.7821065208
 10
2.9774332871
 20
-7.7748362634
 10
2.9821820766
 20
-7.7680054509
 10
2.9870011809
 20
-7.7616194856
 10
2.9918989691
 20
-7.7556729652
 10
2.9968624392
 20
-7.7501068976
 10
3.0018821233
 20
-7.7449098696
 10
3.0069674894
 20
-7.7400932944
 10
3.0121339391
 20
-7.7356324201
 10
3.0173704825
 20
-7.7315226256
 10
3.0226881096
 20
-7.727768532
 10
3.028135192
 20
-7.7243592517
 10
3.0337144867
 20
-7.7213086322
 10
3.0394232368
 20
-7.7186028259
 10
3.0453015435
 20
-7.7161894017
 10
3.051355071
 20
-7.7140760873
 10
3.057578155
 20
-7.712255155
 10
3.0639939039
 20
-7.7106509914
 10
3.0705899607
 20
-7.7092298374
 10
3.0773786823
 20
-7.708025452
 10
3.0844202477
 20
-7.707063499
 10
3.0917347168
 20
-7.7063525327
 10
3.0993020296
 20
-7.7058839988
 10
3.1071221864
 20
-7.7056578971
  0
LWPOLYLINE
  5
344
100
AcDbEntity
  8
ASSI
100
AcDbPolyline
 62
7
  6
CONTINUOUS
 90
31
 70
0
 10
0.7362255761
 20
-8.012168639
 10
0.7358099981
 20
-8.0358518857
 10
0.7347327043
 20
-8.0590849886
 10
0.7329936947
 20
-8.0818679476
 10
0.7305850212
 20
-8.1041755415
 10
0.7275146318
 20
-8.1260329915
 10
0.7238063709
 20
-8.1475159617
 10
0.7194761693
 20
-8.1686298341
 10
0.7145080962
 20
-8.1893692267
 10
0.7088782031
 20
-8.2097936572
 10
0.702586845
 20
-8.2298955529
 10
0.6956336668
 20
-8.2496824867
 10
0.6879936557
 20
-8.2692366942
 10
0.6796670124
 20
-8.2885603596
 10
0.6706535362
 20
-8.3076512988
 10
0.6609276114
 20
-8.3265851959
 10
0.6505013525
 20
-8.345376629
 10
0.6393626451
 20
-8.36401102
 10
0.6274495306
 20
-8.3825203192
 10
0.6147782719
 20
-8.4009068655
 10
0.6013326061
 20
-8.41916832
 10
0.5870017854
 20
-8.4373296161
 10
0.5717927965
 20
-8.455344183
 10
0.5556986526
 20
-8.4732585915
 10
0.5385876459
 20
-8.4912374875
 10
0.5204463287
 20
-8.5092444132
 10
0.5012881486
 20
-8.5273158264
 10
0.4810217406
 20
-8.5457257466
 10
0.459557258
 20
-8.564476057
 10
0.4369845476
 20
-8.5835648744
 10
0.4134817846
 20
-8.6032605692
  0
LWPOLYLINE
  5
345
100
AcDbEntity
  8
ASSI
100
AcDbPolyline
 62
7
  6
CONTINUOUS
 90
37
 70
0
 10
1.8773897073
 20
-8.6232359992
 10
1.8769362065
 20
-8.642541114
 10
1.8759762946
 20
-8.6613753607
 10
1.8745099715
 20
-8.6797387394
 10
1.872516615
 20
-8.697680102
 10
1.8700168473
 20
-8.7151505965
 10
1.8670725353
 20
-8.7320036676
 10
1.8636780897
 20
-8.7482341447
 10
1.8598390998
 20
-8.7638471983
 10
1.8556342
 20
-8.778711785
 10
1.8510508427
 20
-8.7927933576
 10
1.8461015756
 20
-8.8061264632
 10
1.8409026766
 20
-8.8186837
 10
1.835469924
 20
-8.8304192649
 10
1.8297875394
 20
-8.8413789609
 10
1.8239244662
 20
-8.8516727952
 10
1.8178911078
 20
-8.8612996181
 10
1.8116770608
 20
-8.8702605792
 10
1.8053200576
 20
-8.8786691341
 10
1.7988243387
 20
-8.886538679
 10
1.7921856636
 20
-8.8938558176
 10
1.7854290432
 20
-8.9006938175
 10
1.7785714754
 20
-8.9070560836
 10
1.7715959623
 20
-8.912939211
 10
1.7644765211
 20
-8.9184062523
 10
1.7572231064
 20
-8.9234743036
 10
1.7498257637
 20
-8.9281262688
 10
1.7422286455
 20
-8.9323739117
 10
1.7344277749
 20
-8.9362338343
 10
1.726427129
 20
-8.9396894346
 10
1.7181827917
 20
-8.9427026707
 10
1.7096928689
 20
-8.9452709791
 10
1.7009592547
 20
-8.9473969233
 10
1.6919437162
 20
-8.9490501515
 10
1.682633509
 20
-8.9502205466
 10
1.6730413775
 20
-8.9509182258
 10
1.6631673215
 20
-8.951143189
  0
LWPOLYLINE
  5
346
100
AcDbEntity
  8
0
100
AcDbPolyline
 62
250
  6
CONTINUOUS
 90
37
 70
0
 10
0.7162132013
 20
-16.4464011933
 10
0.7139884845
 20
-16.5247006326
 10
0.7057760054
 20
-16.6014495957
 10
0.6915757639
 20
-16.6765717045
 10
0.6710343038
 20
-16.7506822789
 10
0.6445050813
 20
-16.8230397397
 10
0.6130484647
 20
-16.8915165389
 10
0.57646536
 20
-16.9558169876
 10
0.5349548612
 20
-17.0161060551
 10
0.4901746183
 20
-17.070928176
 10
0.4421390744
 20
-17.1198805482
 10
0.3908337866
 20
-17.1632824562
 10
0.337873076
 20
-17.2007655959
 10
0.2834319808
 20
-17.2321199873
 10
0.227335463
 20
-17.2575193123
 10
0.170672729
 20
-17.2771789025
 10
0.1136145126
 20
-17.2911144385
 10
0.0559900801
 20
-17.2992991151
 10
-0.001623563
 20
-17.3018889543
 10
-0.0592216239
 20
-17.2989910749
 10
-0.1168088953
 20
-17.2904984401
 10
-0.1738227506
 20
-17.2762483993
 10
-0.2304431272
 20
-17.256265444
 10
-0.2864900877
 20
-17.2305365048
 10
-0.3408611925
 20
-17.1988470826
 10
-0.3937505366
 20
-17.1609817509
 10
-0.4449640251
 20
-17.1171930446
 10
-0.4928169335
 20
-17.0679762019
 10
-0.5372722784
 20
-17.0130292813
 10
-0.5783670433
 20
-16.9527372639
 10
-0.6145274538
 20
-16.888628454
 10
-0.6455440196
 20
-16.8206493722
 10
-0.671626231
 20
-16.7489788997
 10
-0.6918287847
 20
-16.6754766591
 10
-0.7058365796
 20
-16.6007966553
 10
-0.7139647169
 20
-16.5244125137
 10
-0.7162131964
 20
-16.4464012295
  0
LINE
  5
347
100
AcDbEntity
  8
ASSI
100
AcDbLine
 62
7
  6
CONTINUOUS
 10
3.3124913629
 20
-8.4245718283
 11
3.3113140748
 21
-8.4690861262
  0
LWPOLYLINE
  5
348
100
AcDbEntity
  8
ASSI
100
AcDbPolyline
 62
7
  6
CONTINUOUS
 90
51
 70
0
 10
3.3113140748
 20
-8.4690861262
 10
3.3099207018
 20
-8.5110727672
 10
3.3090938458
 20
-8.5311513785
 10
3.3081709427
 20
-8.5506312873
 10
3.3071508452
 20
-8.5695132445
 10
3.3059988678
 20
-8.5878350668
 10
3.304707646
 20
-8.6055961004
 10
3.3032845443
 20
-8.6227969991
 10
3.3017169704
 20
-8.6394775405
 10
3.2999997877
 20
-8.655637938
 10
3.2981381328
 20
-8.6712779783
 10
3.296134823
 20
-8.6864367986
 10
3.2939859849
 20
-8.7011135539
 10
3.291695492
 20
-8.7153090891
 10
3.289277782
 20
-8.7290650767
 10
3.2867321067
 20
-8.7423846654
 10
3.2840592143
 20
-8.7552647065
 10
3.2812757881
 20
-8.7677374261
 10
3.2783982659
 20
-8.7798221795
 10
3.2754102099
 20
-8.7914996114
 10
3.2722789891
 20
-8.8027438817
 10
3.2690052378
 20
-8.8135559947
 10
3.2655883217
 20
-8.8239349461
 10
3.2619937064
 20
-8.8338518837
 10
3.2582084226
 20
-8.8432950159
 10
3.2542454397
 20
-8.8522761342
 10
3.250109132
 20
-8.8608017616
 10
3.2457910169
 20
-8.8688648897
 10
3.2412995771
 20
-8.876472527
 10
3.2366646347
 20
-8.8836522214
 10
3.2318835074
 20
-8.890401728
 10
3.2269588775
 20
-8.8967232918
 10
3.2219286135
 20
-8.9026511964
 10
3.2168043008
 20
-8.9081844783
 10
3.2115743539
 20
-8.913324101
 10
3.2062418852
 20
-8.9181072394
 10
3.2008195889
 20
-8.9225394099
 10
3.1952947706
 20
-8.926615096
 10
3.1896324602
 20
-8.9303549234
 10
3.1838362182
 20
-8.9337585027
 10
3.177902484
 20
-8.9368262233
 10
3.1717856052
 20
-8.9395798796
 10
3.1654827361
 20
-8.9420159998
 10
3.1589967224
 20
-8.9441380557
 10
3.1522904491
 20
-8.9459782571
 10
3.1453600981
 20
-8.9475473804
 10
3.1382094875
 20
-8.948834649
 10
3.130812957
 20
-8.9498399435
 10
3.1231619533
 20
-8.9505632239
 10
3.1152650298
 20
-8.95100453
 10
3.1071221864
 20
-8.951163862
  0
LWPOLYLINE
  5
349
100
AcDbEntity
  8
0
100
AcDbPolyline
 62
7
  6
CONTINUOUS
 90
10
 70
0
 10
1.1
 20
-16.6237626414
 10
1.0939469127
 20
-16.7472824246
 10
1.0773689735
 20
-16.8682745836
 10
1.0502661824
 20
-16.9864963688
 10
1.0118672732
 20
-17.1031059067
 10
0.9629435122
 20
-17.2165541749
 10
0.905808698
 20
-17.3225276169
 10
0.8412340969
 20
-17.4194760597
 10
0.7684484426
 20
-17.508660474
 10
0.6874517351
 20
-17.59
  0
LWPOLYLINE
  5
34A
100
AcDbEntity
  8
0
100
AcDbPolyline
 62
7
  6
CONTINUOUS
 90
10
 70
0
 10
1.1
 20
-16.845249715
 10
1.0953941591
 20
-16.9343158708
 10
1.0804728637
 20
-17.022807896
 10
1.0552361137
 20
-17.110593081
 10
1.0196742548
 20
-17.1985045285
 10
0.9737969415
 20
-17.2854781012
 10
0.9176331365
 20
-17.36851159
 10
0.8511924943
 20
-17.4465199169
 10
0.7744653605
 20
-17.5203727204
 10
0.6874517351
 20
-17.59
  0
LWPOLYLINE
  5
34B
100
AcDbEntity
  8
0
100
AcDbPolyline
 62
7
  6
CONTINUOUS
 90
28
 70
0
 10
0.95
 20
-16.4700733606
 10
0.941561327
 20
-16.5994157711
 10
0.9204982302
 20
-16.7241399936
 10
0.8868107097
 20
-16.8438873412
 10
0.8392527449
 20
-16.9598945702
 10
0.7790703563
 20
-17.0703840184
 10
0.7100016055
 20
-17.1704762078
 10
0.6318689531
 20
-17.2590055105
 10
0.5448499384
 20
-17.3367677092
 10
0.4532152405
 20
-17.4018328106
 10
0.3572726216
 20
-17.453563399
 10
0.2567143194
 20
-17.492487273
 10
0.1548877265
 20
-17.5184585827
 10
0.052063665
 20
-17.5314272154
 10
-0.0520286874
 20
-17.5314311407
 10
-0.1548544049
 20
-17.5184679134
 10
-0.2566853639
 20
-17.492496102
 10
-0.357249688
 20
-17.453569282
 10
-0.4531968229
 20
-17.4018387964
 10
-0.5448325949
 20
-17.3367811319
 10
-0.6318511775
 20
-17.2590293763
 10
-0.7099845374
 20
-17.1705061143
 10
-0.7790566246
 20
-17.0704116844
 10
-0.8392434891
 20
-16.9599156834
 10
-0.8868052472
 20
-16.843901969
 10
-0.9204952711
 20
-16.7241496451
 10
-0.9415601887
 20
-16.5994205383
 10
-0.95
 20
-16.4700733606
  0
LINE
  5
34C
100
AcDbEntity
  8
0
100
AcDbLine
 62
250
  6
CONTINUOUS
 10
-0.6029942985
 20
-18.6750617811
 11
-0.6
 21
-18.6312543735
  0
LINE
  5
34D
100
AcDbEntity
  8
ASSI
100
AcDbLine
 62
7
  6
CONTINUOUS
 10
1.323272
 20
-7.45932
 11
1.224282
 21
-8.421001
  0
LINE
  5
34E
100
AcDbEntity
  8
ASSI
100
AcDbLine
 62
7
  6
CONTINUOUS
 10
1.4772261366
 20
-8.1294639762
 11
1.527833
 21
-7.750106
  0
LWPOLYLINE
  5
34F
100
AcDbEntity
  8
COPY-PUBBLISH
100
AcDbPolyline
 62
7
  6
CONTINUOUS
 90
9
 70
0
 10
-1.6
 20
-17.6198284525
 10
-1.6042909995
 20
-17.6377413084
 10
-1.6156230213
 20
-17.6548774173
 10
-1.6339960654
 20
-17.6712367791
 10
-1.6599005075
 20
-17.6870431012
 10
-1.6928459719
 20
-17.7020726762
 10
-1.7313613316
 20
-17.7156543824
 10
-1.7756990592
 20
-17.7277225909
 10
-1.8
 20
-17.73289383
  0
LWPOLYLINE
  5
350
100
AcDbEntity
  8
COPY-PUBBLISH
100
AcDbPolyline
 62
7
  6
CONTINUOUS
 90
9
 70
0
 10
-1.6
 20
-18.3869635057
 10
-1.6042909995
 20
-18.4048763616
 10
-1.6156230213
 20
-18.4220124705
 10
-1.6339960654
 20
-18.4383718323
 10
-1.6599005075
 20
-18.4541781544
 10
-1.6928459719
 20
-18.4692077294
 10
-1.7313613316
 20
-18.4827894357
 10
-1.7756990592
 20
-18.4948576441
 10
-1.8
 20
-18.5000288832
  0
LWPOLYLINE
  5
351
100
AcDbEntity
  8
COPY-PUBBLISH
100
AcDbPolyline
 62
7
  6
CONTINUOUS
 90
8
 70
0
 10
-1.35
 20
-17.1879256528
 10
-1.3519490915
 20
-17.1955302505
 10
-1.3570237894
 20
-17.2027675758
 10
-1.3652240935
 20
-17.2096376287
 10
-1.3767944609
 20
-17.2162441954
 10
-1.3914904346
 20
-17.2224834897
 10
-1.4085786438
 20
-17.2280441531
 10
-1.4281804872
 20
-17.2328917472
  0
LWPOLYLINE
  5
352
100
AcDbEntity
  8
COPY-PUBBLISH
100
AcDbPolyline
 62
7
  6
CONTINUOUS
 90
8
 70
0
 10
-1.1
 20
-16.4849992085
 10
-1.1019490915
 20
-16.4926038062
 10
-1.1070237894
 20
-16.4998411315
 10
-1.1152240935
 20
-16.5067111844
 10
-1.1267944609
 20
-16.5133177511
 10
-1.1414904346
 20
-16.5195570454
 10
-1.1585786438
 20
-16.5251177088
 10
-1.1781804872
 20
-16.5299653029
  0
LWPOLYLINE
  5
353
100
AcDbEntity
  8
COPY-PUBBLISH
100
AcDbPolyline
 62
7
  6
CONTINUOUS
 90
13
 70
0
 10
-1.35
 20
-17.955060706
 10
-1.3519490915
 20
-17.9626653037
 10
-1.3570237894
 20
-17.969902629
 10
-1.3652240935
 20
-17.9767726819
 10
-1.3767944609
 20
-17.9833792486
 10
-1.3914904346
 20
-17.9896185429
 10
-1.4085786438
 20
-17.9951792063
 10
-1.4281804872
 20
-18.0000268004
 10
-1.4501745661
 20
-18.0041957636
 10
-1.4734633135
 20
-18.0074780527
 10
-1.4976808738
 20
-18.0098043202
 10
-1.5231931027
 20
-18.0112439137
 10
-1.55
 20
-18.0117968333
  0
LWPOLYLINE
  5
354
100
AcDbEntity
  8
COPY-PUBBLISH
100
AcDbPolyline
 62
7
  6
CONTINUOUS
 90
13
 70
0
 10
-1.1
 20
-17.2521342617
 10
-1.1019490915
 20
-17.2597388594
 10
-1.1070237894
 20
-17.2669761847
 10
-1.1152240935
 20
-17.2738462376
 10
-1.1267944609
 20
-17.2804528043
 10
-1.1414904346
 20
-17.2866920986
 10
-1.1585786438
 20
-17.292252762
 10
-1.1781804872
 20
-17.2971003561
 10
-1.2001745661
 20
-17.3012693192
 10
-1.2234633135
 20
-17.3045516084
 10
-1.2476808738
 20
-17.3068778759
 10
-1.2731931027
 20
-17.3083174694
 10
-1.3
 20
-17.3088703889
  0
LWPOLYLINE
  5
355
100
AcDbEntity
  8
ASSI
100
AcDbPolyline
 62
7
  6
CONTINUOUS
 90
28
 70
0
 10
1.4766025168
 20
-8.4360470308
 10
1.4811251593
 20
-8.4266598514
 10
1.4857858967
 20
-8.4176627219
 10
1.4905847288
 20
-8.4090556422
 10
1.495497841
 20
-8.400838774
 10
1.5005490479
 20
-8.3930119556
 10
1.505809794
 20
-8.3855747029
 10
1.5113084488
 20
-8.3785416898
 10
1.5170166427
 20
-8.3718982425
 10
1.5229207122
 20
-8.3655998542
 10
1.5290246485
 20
-8.3596347848
 10
1.5353244603
 20
-8.3540147745
 10
1.54179451
 20
-8.3487305382
 10
1.5484340723
 20
-8.3437762596
 10
1.5552438725
 20
-8.3391577551
 10
1.5622004486
 20
-8.334883188
 10
1.5692849607
 20
-8.3309580235
 10
1.5765162486
 20
-8.3273767964
 10
1.5839273703
 20
-8.3241312748
 10
1.5915039469
 20
-8.3212200267
 10
1.5992603572
 20
-8.3186444842
 10
1.6072727962
 20
-8.3164007119
 10
1.6155391003
 20
-8.3144827545
 10
1.6240614331
 20
-8.3128965674
 10
1.6329224799
 20
-8.3116560816
 10
1.6421498025
 20
-8.3107659409
 10
1.651715839
 20
-8.3102215016
 10
1.6616205895
 20
-8.3100227637
  0
LWPOLYLINE
  5
356
100
AcDbEntity
  8
ASSI
100
AcDbPolyline
 62
7
  6
CONTINUOUS
 90
28
 70
0
 10
-3.245533048
 20
-8.2209685804
 10
-3.2387501315
 20
-8.2099233818
 10
-3.2318511961
 20
-8.1993262647
 10
-3.224836242
 20
-8.1891772292
 10
-3.2177459202
 20
-8.1794755064
 10
-3.2105395795
 20
-8.1702218652
 10
-3.2030952672
 20
-8.1614186118
 10
-3.1953778611
 20
-8.1530887878
 10
-3.1874224833
 20
-8.1452093517
 10
-3.179212547
 20
-8.1377134856
 10
-3.170756603
 20
-8.1305866773
 10
-3.1620461004
 20
-8.123843439
 10
-3.1530387996
 20
-8.1174604889
 10
-3.1437318479
 20
-8.1114295035
 10
-3.1341280979
 20
-8.1057588063
 10
-3.1241938682
 20
-8.1004500856
 10
-3.1139393015
 20
-8.0954951504
 10
-3.1033542551
 20
-8.0909021917
 10
-3.0923746191
 20
-8.0866974705
 10
-3.0810148199
 20
-8.0828778564
 10
-3.0692604313
 20
-8.0794464798
 10
-3.0570040647
 20
-8.0764389932
 10
-3.0442453584
 20
-8.0738533679
 10
-3.0309846742
 20
-8.0716916325
 10
-3.0171157088
 20
-8.0699955256
 10
-3.0026030278
 20
-8.0687789598
 10
-2.9874820656
 20
-8.0680280225
 10
-2.9717528221
 20
-8.0677427136
  0
LINE
  5
357
100
AcDbEntity
  8
ASSI
100
AcDbLine
 62
250
  6
CONTINUOUS
 10
-21.747432639
 20
-7.8445634146
 11
-21.4150692686
 21
-7.7364200808
  0
LINE
  5
358
100
AcDbEntity
  8
COPY-PUBBLISH
100
AcDbLine
 62
250
  6
CONTINUOUS
 10
7.4087905944
 20
1.0660254038
 11
11.5912094056
 21
1.0660254038
  0
LINE
  5
359
100
AcDbEntity
  8
COPY-PUBBLISH
100
AcDbLine
 62
250
  6
CONTINUOUS
 10
8.4892878595
 20
2.0660254038
 11
10.5107121405
 21
2.0660254038
  0
LINE
  5
35A
100
AcDbEntity
  8
ASSI
100
AcDbLine
 62
7
  6
CONTINUOUS
 10
19.3703530298
 20
2.55
 11
16.55
 21
2.55
  0
LINE
  5
35B
100
AcDbEntity
  8
ASSI
100
AcDbLine
 62
7
  6
CONTINUOUS
 10
-16.55
 20
2.55
 11
-19.3703530298
 21
2.55
  0
LINE
  5
35C
100
AcDbEntity
  8
ASSI
100
AcDbLine
 62
7
  6
CONTINUOUS
 10
19.6539135825
 20
2.6977995296
 11
16.6977995296
 21
2.6977995296
  0
LINE
  5
35D
100
AcDbEntity
  8
ASSI
100
AcDbLine
 62
7
  6
CONTINUOUS
 10
-16.6977995296
 20
2.6977995296
 11
-19.6539135825
 21
2.6977995296
  0
LWPOLYLINE
  5
35E
100
AcDbEntity
  8
RACCORDO
100
AcDbPolyline
 62
250
  6
CONTINUOUS
 90
19
 70
0
 10
7.1920994876
 20
0.6469346824
 10
7.1612931247
 20
0.6488320388
 10
7.1309369868
 20
0.6483126721
 10
7.101031074
 20
0.6453765822
 10
7.0716396417
 20
0.6400348384
 10
7.0426984344
 20
0.6322763715
 10
7.014014686
 20
0.6220679741
 10
6.9854897932
 20
0.6094163866
 10
6.9572223593
 20
0.5943148686
 10
6.9293154278
 20
0.5767099917
 10
6.901674203
 20
0.5564703983
 10
6.8743934806
 20
0.533727446
 10
6.8478606917
 20
0.5088217785
 10
6.8221797426
 20
0.4817708572
 10
6.797246727
 20
0.4525572207
 10
6.7731373569
 20
0.4214691281
 10
6.749894802
 20
0.3885638911
 10
6.7274758927
 20
0.353784198
 10
6.7212925724
 20
0.3433484069
  0
LINE
  5
35F
100
AcDbEntity
  8
RACCORDO
100
AcDbLine
 62
7
  6
CONTINUOUS
 10
11.9683038008
 20
-0.29079442
 11
12.0575730032
 21
-0.3070455101
  0
LWPOLYLINE
  5
360
100
AcDbEntity
  8
RACCORDO
100
AcDbPolyline
 62
250
  6
CONTINUOUS
 90
16
 70
0
 10
8.7753066737
 20
2.7045923136
 10
8.778266694
 20
2.7039183906
 10
8.7819266868
 20
2.7005145401
 10
8.7862451602
 20
2.6944193502
 10
8.7911731578
 20
2.6857019197
 10
8.7966548128
 20
2.6744610744
 10
8.8026279821
 20
2.6608242474
 10
8.8090249503
 20
2.6449460337
 10
8.8157731979
 20
2.6270064379
 10
8.8227962228
 20
2.6072088339
 10
8.8300144081
 20
2.5857776585
 10
8.8373459245
 20
2.5629558677
 10
8.8447076578
 20
2.5390021823
 10
8.8520161514
 20
2.5141881545
 10
8.8591885525
 20
2.4887950896
 10
8.8661435508
 20
2.463110857
  0
LWPOLYLINE
  5
361
100
AcDbEntity
  8
RACCORDO
100
AcDbPolyline
 62
250
  6
CONTINUOUS
 90
25
 70
0
 10
7.1950168077
 20
0.517767633
 10
7.1739149807
 20
0.522596474
 10
7.1528106167
 20
0.5250139929
 10
7.1318862146
 20
0.5250021346
 10
7.1115151103
 20
0.5225875486
 10
7.0916423834
 20
0.5178685388
 10
7.0718208047
 20
0.5107913344
 10
7.0521760479
 20
0.5013278938
 10
7.03291011
 20
0.4895394668
 10
7.0137414845
 20
0.4752408769
 10
6.9947019692
 20
0.4583684155
 10
6.9760419254
 20
0.4390806516
 10
6.9578162305
 20
0.4174316934
 10
6.9400741749
 20
0.3935206747
 10
6.92286789
 20
0.3674853777
 10
6.9062270439
 20
0.3394169634
 10
6.8901724253
 20
0.3094426294
 10
6.8746790117
 20
0.2776404918
 10
6.8597074081
 20
0.2439851915
 10
6.8452548436
 20
0.2085381832
 10
6.8313058184
 20
0.1713693256
 10
6.8178227172
 20
0.132421212
 10
6.8048029811
 20
0.0917267149
 10
6.7922358583
 20
0.0493362029
 10
6.7800941478
 20
0.0051862955
  0
LINE
  5
362
100
AcDbEntity
  8
ASSI
100
AcDbLine
 62
250
  6
CONTINUOUS
 10
-21.747432639
 20
7.8445634146
 11
-21.4150692686
 21
7.7364200808
  0
LWPOLYLINE
  5
363
100
AcDbEntity
  8
RACCORDO
100
AcDbPolyline
 62
7
  6
CONTINUOUS
 90
10
 70
0
 10
7.1621934313
 20
0.544378673
 10
7.1660194264
 20
0.541565946
 10
7.1697994746
 20
0.538715429
 10
7.1735335761
 20
0.5358271218
 10
7.1772201169
 20
0.5328986666
 10
7.1808607109
 20
0.5299324213
 10
7.1844601998
 20
0.5269354599
 10
7.1880201974
 20
0.5239101402
 10
7.19153909
 20
0.5208541044
 10
7.1950168774
 20
0.5177673525
  0
LINE
  5
364
100
AcDbEntity
  8
ASSI
100
AcDbLine
 62
7
  6
CONTINUOUS
 10
3.8481649401
 20
-8.5397958179
 11
3.9168244698
 21
-8.7483133897
  0
LINE
  5
365
100
AcDbEntity
  8
ASSI
100
AcDbLine
 62
7
  6
CONTINUOUS
 10
4.7261986978
 20
-8.5397950772
 11
4.6579038497
 21
-8.3312745411
  0
LWPOLYLINE
  5
366
100
AcDbEntity
  8
RACCORDO
100
AcDbPolyline
 62
250
  6
CONTINUOUS
 90
9
 70
0
 10
7.0274427316
 20
-1.3139456049
 10
7.0719097299
 20
-1.1005699555
 10
7.1145217334
 20
-0.8561517941
 10
7.1479303614
 20
-0.6143399113
 10
7.1724652096
 20
-0.3751652763
 10
7.1893217391
 20
-0.1420272921
 10
7.1988984372
 20
0.0839409069
 10
7.2007968166
 20
0.3038724551
 10
7.1950168774
 20
0.5177673525
  0
LWPOLYLINE
  5
367
100
AcDbEntity
  8
RACCORDO
100
AcDbPolyline
 62
250
  6
CONTINUOUS
 90
6
 70
0
 10
6.7683836658
 20
-0.0406868081
 10
6.7570944771
 20
-0.0882637202
 10
6.7461989228
 20
-0.137656122
 10
6.7357057474
 20
-0.1888533219
 10
6.7256183309
 20
-0.2418275667
 10
6.7159385849
 20
-0.2965975773
  0
LINE
  5
368
100
AcDbEntity
  8
RACCORDO
100
AcDbLine
 62
250
  6
CONTINUOUS
 10
6.7800941478
 20
0.0051862955
 11
6.7683836658
 21
-0.0406868081
  0
LWPOLYLINE
  5
369
100
AcDbEntity
  8
ASSI
100
AcDbPolyline
 62
7
  6
CONTINUOUS
 90
31
 70
0
 10
3.8481649401
 20
-8.5397958179
 10
3.8548096566
 20
-8.5248312085
 10
3.8615921354
 20
-8.510478934
 10
3.8685123763
 20
-8.4967389944
 10
3.8755618625
 20
-8.4835892551
 10
3.8827491108
 20
-8.4710518508
 10
3.8900996722
 20
-8.4591931852
 10
3.8976565634
 20
-8.4480413194
 10
3.9053767677
 20
-8.4375681924
 10
3.9131567852
 20
-8.4277560246
 10
3.9209748229
 20
-8.4186305464
 10
3.9288526738
 20
-8.4101660273
 10
3.9367522171
 20
-8.402267497
 10
3.9446593954
 20
-8.3949251259
 10
3.9525882661
 20
-8.3881487436
 10
3.9605428797
 20
-8.3818728674
 10
3.9685209291
 20
-8.3760833318
 10
3.9765247214
 20
-8.3707943023
 10
3.984565228
 20
-8.3659827942
 10
3.9926391786
 20
-8.3616586859
 10
4.0007498436
 20
-8.357812099
 10
4.0089180046
 20
-8.3543904126
 10
4.0171462668
 20
-8.3514011141
 10
4.0254320251
 20
-8.3488367162
 10
4.0337882463
 20
-8.3466221365
 10
4.0422075763
 20
-8.3447387552
 10
4.0506973692
 20
-8.343205192
 10
4.0592926548
 20
-8.3420022237
 10
4.0680051097
 20
-8.3411234425
 10
4.0768230572
 20
-8.3405752561
 10
4.0857464975
 20
-8.3403576646
  0
LINE
  5
36A
100
AcDbEntity
  8
ASSI
100
AcDbLine
 62
7
  6
CONTINUOUS
 10
4.6465607915
 20
-8.3518605414
 11
4.6579038497
 21
-8.3312745411
  0
LWPOLYLINE
  5
36B
100
AcDbEntity
  8
ASSI
100
AcDbPolyline
 62
7
  6
CONTINUOUS
 90
31
 70
0
 10
4.7261986978
 20
-8.5397950772
 10
4.7176846158
 20
-8.5540984682
 10
4.709273521
 20
-8.5679616171
 10
4.7009654132
 20
-8.5813845238
 10
4.6928002159
 20
-8.5944075042
 10
4.6847380057
 20
-8.6069902424
 10
4.6766590122
 20
-8.6190117914
 10
4.6685280946
 20
-8.6304579571
 10
4.6603803936
 20
-8.6413429336
 10
4.6522015609
 20
-8.6515883558
 10
4.6439669692
 20
-8.6611641335
 10
4.6357012456
 20
-8.6701003569
 10
4.6274639229
 20
-8.6784089328
 10
4.6192603495
 20
-8.6860823415
 10
4.6110851769
 20
-8.6931281026
 10
4.6029818921
 20
-8.6995806814
 10
4.5949648793
 20
-8.7054388529
 10
4.5870197543
 20
-8.7107038422
 10
4.5791468519
 20
-8.7154137897
 10
4.5713494868
 20
-8.7195409237
 10
4.5636243444
 20
-8.7231130158
 10
4.5559618155
 20
-8.7262515214
 10
4.5483662767
 20
-8.7289543866
 10
4.5408333513
 20
-8.7312236654
 10
4.5333403011
 20
-8.7331869748
 10
4.5259001561
 20
-8.734884165
 10
4.5184998863
 20
-8.7362753859
 10
4.511077662
 20
-8.7373687042
 10
4.5036128733
 20
-8.7381668089
 10
4.4961261302
 20
-8.7386670112
 10
4.4886174326
 20
-8.7388693109
  0
LWPOLYLINE
  5
36C
100
AcDbEntity
  8
COPY-PUBBLISH
100
AcDbPolyline
 62
7
  6
CONTINUOUS
 90
25
 70
0
 10
7.4087905944
 20
1.0660254038
 10
7.439867544
 20
1.1149144802
 10
7.4722810272
 20
1.1637876536
 10
7.506031044
 20
1.2125750399
 10
7.5411306338
 20
1.2612573714
 10
7.5775667572
 20
1.3097253964
 10
7.6153002959
 20
1.357774544
 10
7.6543430804
 20
1.405335313
 10
7.6946832802
 20
1.4523597298
 10
7.7362462858
 20
1.4986736338
 10
7.7790424779
 20
1.544219638
 10
7.8230614758
 20
1.5889559943
 10
7.8681975274
 20
1.6327332714
 10
7.9144421932
 20
1.6754941696
 10
7.9618039127
 20
1.7172173913
 10
8.0102022531
 20
1.757810888
 10
8.0596381761
 20
1.7972444049
 10
8.1101107199
 20
1.8354908716
 10
8.161536566
 20
1.8724671457
 10
8.2139122562
 20
1.9081521161
 10
8.2672412488
 20
1.9425281252
 10
8.3214505998
 20
1.9755210049
 10
8.3765159946
 20
2.0070982842
 10
8.4324617478
 20
2.0372691846
 10
8.4892878595
 20
2.0660254038
  0
LINE
  5
36D
100
AcDbEntity
  8
ASSI
100
AcDbLine
 62
7
  6
CONTINUOUS
 10
16.6977995296
 20
2.6977995296
 11
16.55
 21
2.55
  0
LWPOLYLINE
  5
36E
100
AcDbEntity
  8
ASSI
100
AcDbPolyline
 62
7
  6
CONTINUOUS
 90
28
 70
0
 10
0.1268060888
 20
-8.481967854
 10
0.1936438158
 20
-8.4237325905
 10
0.2147694383
 20
-8.4054660775
 10
0.2351288271
 20
-8.3875668776
 10
0.2547391278
 20
-8.3699948729
 10
0.2735831947
 20
-8.3527901814
 10
0.2913955413
 20
-8.3358885312
 10
0.3081026221
 20
-8.3192843739
 10
0.3237779826
 20
-8.3029832579
 10
0.3383767725
 20
-8.2869375568
 10
0.3518521393
 20
-8.2711531281
 10
0.3642509355
 20
-8.2556241143
 10
0.3756688677
 20
-8.2402853171
 10
0.386080955
 20
-8.2251716226
 10
0.3955121784
 20
-8.2102481447
 10
0.4041331873
 20
-8.1953450263
 10
0.4119546913
 20
-8.1804654259
 10
0.4189659808
 20
-8.165606185
 10
0.4253055763
 20
-8.150587972
 10
0.4310024543
 20
-8.1354202835
 10
0.4360276382
 20
-8.1200936228
 10
0.4404327188
 20
-8.1044001685
 10
0.4442634334
 20
-8.0883424864
 10
0.4474740446
 20
-8.0719180106
 10
0.4499789305
 20
-8.0549112226
 10
0.4517495506
 20
-8.0372502827
 10
0.4528144455
 20
-8.0190070304
 10
0.4531736151
 20
-8.0001814658
  0
LWPOLYLINE
  5
36F
100
AcDbEntity
  8
ASSI
100
AcDbPolyline
 62
7
  6
CONTINUOUS
 90
12
 70
0
 10
0.4134817846
 20
-8.6032605692
 10
0.3634724703
 20
-8.6445634474
 10
0.3375713549
 20
-8.6662572881
 10
0.3112633973
 20
-8.6886909831
 10
0.2845240077
 20
-8.711863641
 10
0.2577780376
 20
-8.7359046728
 10
0.2306232154
 20
-8.7606186427
 10
0.2034618127
 20
-8.7862009866
 10
0.1779254951
 20
-8.8133674224
 10
0.1545581514
 20
-8.8423565229
 10
0.1328158928
 20
-8.8729297155
 10
0.1126987194
 20
-8.905087
  0
LINE
  5
370
100
AcDbEntity
  8
ASSI
100
AcDbLine
 62
250
  6
CONTINUOUS
 10
21.0125039523
 20
7.4399997382
 11
21.4150692686
 21
7.7364200808
  0
LINE
  5
371
100
AcDbEntity
  8
ASSI
100
AcDbLine
 62
7
  6
CONTINUOUS
 10
19.6539135825
 20
2.6977995296
 11
19.3703530298
 21
2.55
  0
LINE
  5
372
100
AcDbEntity
  8
ASSI
100
AcDbLine
 62
250
  6
CONTINUOUS
 10
21.1682776023
 20
6.9657271901
 11
21.6682014499
 21
6.9657271901
  0
LINE
  5
373
100
AcDbEntity
  8
ASSI
100
AcDbLine
 62
250
  6
CONTINUOUS
 10
-21.1682776023
 20
6.9657271901
 11
-21.6682014499
 21
6.9657271901
  0
LINE
  5
374
100
AcDbEntity
  8
0
100
AcDbLine
 62
7
  6
CONTINUOUS
 10
22.0
 20
7.05
 11
21.9728859769
 21
7.05
  0
LINE
  5
375
100
AcDbEntity
  8
0
100
AcDbLine
 62
7
  6
CONTINUOUS
 10
-21.9755620937
 20
7.05
 11
-22.0
 21
7.05
  0
LINE
  5
376
100
AcDbEntity
  8
0
100
AcDbLine
 62
7
  6
CONTINUOUS
 10
21.9978135022
 20
7.15
 11
21.9728859769
 21
7.15
  0
LINE
  5
377
100
AcDbEntity
  8
0
100
AcDbLine
 62
7
  6
CONTINUOUS
 10
-21.9728859769
 20
7.15
 11
-21.9978135022
 21
7.15
  0
LWPOLYLINE
  5
378
100
AcDbEntity
  8
COPY-PUBBLISH
100
AcDbPolyline
 62
7
  6
CONTINUOUS
 90
25
 70
0
 10
10.5107121405
 20
2.0660254038
 10
10.5675546897
 20
2.037262311
 10
10.6235256193
 20
2.0070765222
 10
10.6786249293
 20
1.9754763594
 10
10.7328805048
 20
1.9424508801
 10
10.7862644606
 20
1.9080343677
 10
10.8386931416
 20
1.8723063177
 10
10.8901694213
 20
1.835283358
 10
10.9406904262
 20
1.7969877833
 10
10.990163881
 20
1.7575113197
 10
11.0385868925
 20
1.7168813199
 10
11.085962354
 20
1.675127792
 10
11.1322066695
 20
1.6323504011
 10
11.1773246222
 20
1.5885737337
 10
11.221311429
 20
1.5438514371
 10
11.2640691451
 20
1.4983300274
 10
11.3055870265
 20
1.4520528976
 10
11.3458758171
 20
1.4050752168
 10
11.3848698038
 20
1.3575626167
 10
11.4225582675
 20
1.3095634556
 10
11.4589519273
 20
1.2611464982
 10
11.4940172266
 20
1.2125066172
 10
11.52774298
 20
1.1637501064
 10
11.560140373
 20
1.1148996555
 10
11.5912094056
 20
1.0660254038
  0
LINE
  5
379
100
AcDbEntity
  8
ASSI
100
AcDbLine
 62
7
  6
CONTINUOUS
 10
19.6539135825
 20
-2.6977995296
 11
19.3703530298
 21
-2.55
  0
LINE
  5
37A
100
AcDbEntity
  8
ASSI
100
AcDbLine
 62
250
  6
CONTINUOUS
 10
21.0125039523
 20
-7.4399997382
 11
21.4150692686
 21
-7.7364200808
  0
LINE
  5
37B
100
AcDbEntity
  8
ASSI
100
AcDbLine
 62
7
  6
CONTINUOUS
 10
16.6977995296
 20
-2.6977995296
 11
16.55
 21
-2.55
  0
LWPOLYLINE
  5
37C
100
AcDbEntity
  8
0
100
AcDbPolyline
 62
7
  6
CONTINUOUS
 90
10
 70
0
 10
-0.9499963908
 20
14.1000001443
 10
-0.9416199205
 20
14.0886540004
 10
-0.9165589492
 20
14.059539396
 10
-0.8875182294
 20
14.032548641
 10
-0.8548297474
 20
14.0084944364
 10
-0.8184665137
 20
13.987829052
 10
-0.7788528509
 20
13.9712767768
 10
-0.7364701157
 20
13.9594707863
 10
-0.691834036
 20
13.9529790648
 10
-0.6638431494
 20
13.9518584937
  0
LWPOLYLINE
  5
37D
100
AcDbEntity
  8
0
100
AcDbPolyline
 62
250
  6
CONTINUOUS
 90
7
 70
0
 10
-0.66379385
 20
13.9519205809
 10
-0.6647020681
 20
13.9533600677
 10
-0.6666979197
 20
13.9658488898
 10
-0.6688171946
 20
13.9913454579
 10
-0.6710115155
 20
14.029844638
 10
-0.6732139504
 20
14.0802493637
 10
-0.6754263627
 20
14.1415553419
  0
LWPOLYLINE
  5
37E
100
AcDbEntity
  8
RACCORDO
100
AcDbPolyline
 62
7
  6
CONTINUOUS
 90
21
 70
0
 10
12.2116882383
 20
-0.6940110879
 10
12.2171696477
 20
-0.6639680348
 10
12.2209610148
 20
-0.6347355346
 10
12.2229509953
 20
-0.6063986776
 10
12.2232299387
 20
-0.5789874427
 10
12.2220688943
 20
-0.5525917664
 10
12.2195062102
 20
-0.5272217688
 10
12.2155035381
 20
-0.5028673299
 10
12.2102168824
 20
-0.4795880255
 10
12.2036617246
 20
-0.4573332454
 10
12.1958225832
 20
-0.4361535999
 10
12.186809017
 20
-0.416260496
 10
12.1766792983
 20
-0.3976611694
 10
12.1653751548
 20
-0.3803483845
 10
12.152831328
 20
-0.3645118411
 10
12.1387976021
 20
-0.3499861634
 10
12.123524193
 20
-0.3369367273
 10
12.1076964896
 20
-0.3260493611
 10
12.0915429551
 20
-0.3175526742
 10
12.0748351262
 20
-0.3112180572
 10
12.0575730032
 20
-0.3070455101
  0
LINE
  5
37F
100
AcDbEntity
  8
RACCORDO
100
AcDbLine
 62
7
  6
CONTINUOUS
 10
12.2044538027
 20
-0.7252099012
 11
12.2116882383
 21
-0.6940110879
  0
LINE
  5
380
100
AcDbEntity
  8
ASSI
100
AcDbLine
 62
7
  6
CONTINUOUS
 10
16.6977995296
 20
10.711579355
 11
16.55
 21
10.3831872032
  0
LWPOLYLINE
  5
381
100
AcDbEntity
  8
0
100
AcDbPolyline
 62
7
  6
CONTINUOUS
 90
10
 70
0
 10
0.6638359102
 20
13.9518613338
 10
0.6920192813
 20
13.9529971807
 10
0.736690603
 20
13.95952136
 10
0.7791002921
 20
13.9713671245
 10
0.8187328142
 20
13.9879647743
 10
0.8551053127
 20
14.0086786048
 10
0.8877909891
 20
14.0327798784
 10
0.916821999
 20
14.059817994
 10
0.9418633828
 20
14.0889744392
 10
0.9499940277
 20
14.1000001246
  0
LINE
  5
382
100
AcDbEntity
  8
0
100
AcDbLine
 62
7
  6
CONTINUOUS
 10
-0.6638303235
 20
13.9519205028
 11
0.6638280202
 21
13.9519205028
  0
LINE
  5
383
100
AcDbEntity
  8
0
100
AcDbLine
 62
7
  6
CONTINUOUS
 10
-1.1
 20
14.1
 11
-0.9499963642
 21
14.1
  0
LINE
  5
384
100
AcDbEntity
  8
0
100
AcDbLine
 62
7
  6
CONTINUOUS
 10
0.9499940179
 20
14.1
 11
1.1
 21
14.1
  0
LINE
  5
385
100
AcDbEntity
  8
ASSI
100
AcDbLine
 62
7
  6
CONTINUOUS
 10
1.8
 20
14.6
 11
1.1
 21
14.6
  0
LINE
  5
386
100
AcDbEntity
  8
ASSI
100
AcDbLine
 62
7
  6
CONTINUOUS
 10
-1.1
 20
14.6
 11
-1.8
 21
14.6
  0
LWPOLYLINE
  5
387
100
AcDbEntity
  8
0
100
AcDbPolyline
 62
7
  6
CONTINUOUS
 90
10
 70
0
 10
0.7646090409
 20
17.4193732436
 10
0.8357484106
 20
17.3522907942
 10
0.8983762547
 20
17.2823867277
 10
0.9524925734
 20
17.2097247791
 10
0.9980399017
 20
17.1337315027
 10
1.0350757046
 20
17.055157251
 10
1.0637723764
 20
16.9760510553
 10
1.084187382
 20
16.8971482546
 10
1.0962632565
 20
16.8178970533
 10
1.1
 20
16.7383995561
  0
LWPOLYLINE
  5
388
100
AcDbEntity
  8
0
100
AcDbPolyline
 62
7
  6
CONTINUOUS
 90
10
 70
0
 10
0.7646090409
 20
17.4193732436
 10
0.8314694875
 20
17.3384505377
 10
0.8912990152
 20
17.2517982932
 10
0.9440976241
 20
17.1594930058
 10
0.9903556838
 20
17.0606025821
 10
1.0295828248
 20
16.9563044792
 10
1.0603079378
 20
16.8498493933
 10
1.0820406531
 20
16.7424094168
 10
1.0952713405
 20
16.6331195033
 10
1.1
 20
16.5221636525
  0
LINE
  5
389
100
AcDbEntity
  8
ASSI
100
AcDbLine
 62
7
  6
CONTINUOUS
 10
16.6977995296
 20
-10.711579355
 11
16.5986103571
 21
-10.4916062316
  0
LINE
  5
38A
100
AcDbEntity
  8
ASSI
100
AcDbLine
 62
7
  6
CONTINUOUS
 10
16.5986103571
 20
-10.4916062316
 11
16.55
 21
-10.3831872032
  0
LINE
  5
38B
100
AcDbEntity
  8
ASSI
100
AcDbLine
 62
7
  6
CONTINUOUS
 10
16.55
 20
-10.3831872032
 11
16.55
 21
-2.55
  0
LINE
  5
38C
100
AcDbEntity
  8
ASSI
100
AcDbLine
 62
7
  6
CONTINUOUS
 10
16.55
 20
2.55
 11
16.55
 21
10.3831872032
  0
LINE
  5
38D
100
AcDbEntity
  8
ASSI
100
AcDbLine
 62
7
  6
CONTINUOUS
 10
16.6977995296
 20
-10.711579355
 11
16.6977995296
 21
-2.6977995296
  0
LINE
  5
38E
100
AcDbEntity
  8
ASSI
100
AcDbLine
 62
7
  6
CONTINUOUS
 10
16.6977995296
 20
2.6977995296
 11
16.6977995296
 21
10.711579355
  0
LWPOLYLINE
  5
38F
100
AcDbEntity
  8
0
100
AcDbPolyline
 62
250
  6
CONTINUOUS
 90
10
 70
0
 10
0.95
 20
16.3466533107
 10
0.9280738052
 20
16.3414356163
 10
0.9047440064
 20
16.3368092602
 10
0.8801650171
 20
16.3328048628
 10
0.8544995182
 20
16.3294489287
 10
0.827917383
 20
16.3267636699
 10
0.8005945537
 20
16.3247668581
 10
0.7727118734
 20
16.3234717095
 10
0.7444538889
 20
16.3228867977
 10
0.7160076319
 20
16.3230159949
  0
LWPOLYLINE
  5
390
100
AcDbEntity
  8
COPY-PUBBLISH
100
AcDbPolyline
 62
7
  6
CONTINUOUS
 90
6
 70
0
 10
1.1781804872
 20
16.5312665496
 10
1.2001745661
 20
16.5354355128
 10
1.2234633135
 20
16.5387178019
 10
1.2476808738
 20
16.5410440694
 10
1.2731931027
 20
16.5424836629
 10
1.3
 20
16.5430365825
  0
LWPOLYLINE
  5
391
100
AcDbEntity
  8
COPY-PUBBLISH
100
AcDbPolyline
 62
7
  6
CONTINUOUS
 90
6
 70
0
 10
1.4281804872
 20
17.2972042673
 10
1.4501745661
 20
17.3013732305
 10
1.4734633135
 20
17.3046555196
 10
1.4976808738
 20
17.3069817871
 10
1.5231931027
 20
17.3084213806
 10
1.55
 20
17.3089743002
  0
LWPOLYLINE
  5
392
100
AcDbEntity
  8
0
100
AcDbPolyline
 62
250
  6
CONTINUOUS
 90
12
 70
0
 10
0.95
 20
19.008269917
 10
0.9043158327
 20
19.0053986278
 10
0.8594133342
 20
18.9968338887
 10
0.8160607987
 20
18.9827222449
 10
0.775
 20
18.9633051505
 10
0.7369334998
 20
18.9389148373
 10
0.7025126266
 20
18.9099686304
 10
0.6723263309
 20
18.8769618073
 10
0.6468911087
 20
18.8404591241
 10
0.6266421636
 20
18.8010851516
 10
0.6119259608
 20
18.7595135895
 10
0.6029942985
 20
18.7164557388
  0
LINE
  5
393
100
AcDbEntity
  8
0
100
AcDbLine
 62
250
  6
CONTINUOUS
 10
-1.8
 20
15.7
 11
-1.1
 21
15.7
  0
LINE
  5
394
100
AcDbEntity
  8
0
100
AcDbLine
 62
250
  6
CONTINUOUS
 10
1.1
 20
15.7
 11
1.8
 21
15.7
  0
LINE
  5
395
100
AcDbEntity
  8
COPY-PUBBLISH
100
AcDbLine
 62
7
  6
CONTINUOUS
 10
1.35
 20
16.5430365825
 11
1.3
 21
16.5430365825
  0
LINE
  5
396
100
AcDbEntity
  8
COPY-PUBBLISH
100
AcDbLine
 62
7
  6
CONTINUOUS
 10
-1.3
 20
16.6060478558
 11
-1.35
 21
16.6060478558
  0
LINE
  5
397
100
AcDbEntity
  8
COPY-PUBBLISH
100
AcDbLine
 62
7
  6
CONTINUOUS
 10
1.6
 20
17.3089743002
 11
1.55
 21
17.3089743002
  0
LINE
  5
398
100
AcDbEntity
  8
COPY-PUBBLISH
100
AcDbLine
 62
7
  6
CONTINUOUS
 10
-1.55
 20
17.3089743002
 11
-1.6
 21
17.3089743002
  0
LINE
  5
399
100
AcDbEntity
  8
COPY-PUBBLISH
100
AcDbLine
 62
7
  6
CONTINUOUS
 10
1.35
 20
17.3101716357
 11
1.3
 21
17.3101716357
  0
LINE
  5
39A
100
AcDbEntity
  8
COPY-PUBBLISH
100
AcDbLine
 62
7
  6
CONTINUOUS
 10
-1.3
 20
17.3731829091
 11
-1.35
 21
17.3731829091
  0
LINE
  5
39B
100
AcDbEntity
  8
0
100
AcDbLine
 62
250
  6
CONTINUOUS
 10
-0.7646090409
 20
17.4193732436
 11
0.7646090409
 21
17.4193732436
  0
LINE
  5
39C
100
AcDbEntity
  8
0
100
AcDbLine
 62
7
  6
CONTINUOUS
 10
-0.6
 20
17.9674322765
 11
0.6
 21
17.9674322765
  0
LINE
  5
39D
100
AcDbEntity
  8
COPY-PUBBLISH
100
AcDbLine
 62
7
  6
CONTINUOUS
 10
1.6
 20
18.0761093534
 11
1.55
 21
18.0761093534
  0
LINE
  5
39E
100
AcDbEntity
  8
COPY-PUBBLISH
100
AcDbLine
 62
7
  6
CONTINUOUS
 10
-1.55
 20
18.0761093534
 11
-1.6
 21
18.0761093534
  0
LINE
  5
39F
100
AcDbEntity
  8
0
100
AcDbLine
 62
250
  6
CONTINUOUS
 10
-0.6
 20
18.6726483312
 11
0.6
 21
18.6726483312
  0
LINE
  5
3A0
100
AcDbEntity
  8
0
100
AcDbLine
 62
7
  6
CONTINUOUS
 10
-0.6
 20
18.8
 11
0.6
 21
18.8
  0
LINE
  5
3A1
100
AcDbEntity
  8
DRAFT
100
AcDbLine
 62
7
  6
CONTINUOUS
 10
0.6093565018
 20
18.8776691233
 11
-0.6093565018
 21
18.8776691233
  0
LINE
  5
3A2
100
AcDbEntity
  8
0
100
AcDbLine
 62
7
  6
CONTINUOUS
 10
0.6109187956
 20
18.8855233043
 11
-0.6109187956
 21
18.8855233043
  0
LINE
  5
3A3
100
AcDbEntity
  8
0
100
AcDbLine
 62
250
  6
CONTINUOUS
 10
-1.8
 20
19.008269917
 11
-0.95
 21
19.008269917
  0
LINE
  5
3A4
100
AcDbEntity
  8
0
100
AcDbLine
 62
250
  6
CONTINUOUS
 10
0.95
 20
19.008269917
 11
1.8
 21
19.008269917
  0
LINE
  5
3A5
100
AcDbEntity
  8
0
100
AcDbLine
 62
7
  6
CONTINUOUS
 10
-1.8
 20
19.15
 11
-0.95
 21
19.15
  0
LINE
  5
3A6
100
AcDbEntity
  8
0
100
AcDbLine
 62
7
  6
CONTINUOUS
 10
0.95
 20
19.15
 11
1.8
 21
19.15
  0
LINE
  5
3A7
100
AcDbEntity
  8
0
100
AcDbLine
 62
7
  6
CONTINUOUS
 10
1.8
 20
19.5511295404
 11
-1.8
 21
19.5511295404
  0
LINE
  5
3A8
100
AcDbEntity
  8
ASSI
100
AcDbLine
 62
7
  6
CONTINUOUS
 10
1.8
 20
19.65
 11
-1.8
 21
19.65
  0
LINE
  5
3A9
100
AcDbEntity
  8
COPY-PUBBLISH
100
AcDbLine
 62
7
  6
CONTINUOUS
 10
-1.3
 20
16.6060478558
 11
-1.2731931027
 21
16.6054949363
  0
LINE
  5
3AA
100
AcDbEntity
  8
COPY-PUBBLISH
100
AcDbLine
 62
7
  6
CONTINUOUS
 10
-1.55
 20
17.3089743002
 11
-1.5231931027
 21
17.3084213806
  0
LINE
  5
3AB
100
AcDbEntity
  8
COPY-PUBBLISH
100
AcDbLine
 62
7
  6
CONTINUOUS
 10
-1.3
 20
17.3731829091
 11
-1.2731931027
 21
17.3726299895
  0
LINE
  5
3AC
100
AcDbEntity
  8
COPY-PUBBLISH
100
AcDbLine
 62
7
  6
CONTINUOUS
 10
-1.55
 20
18.0761093534
 11
-1.5231931027
 21
18.0755564338
  0
LWPOLYLINE
  5
3AD
100
AcDbEntity
  8
0
100
AcDbPolyline
 62
250
  6
CONTINUOUS
 90
19
 70
0
 10
-0.000000001
 20
17.1891925914
 10
0.0575156986
 20
17.1864402691
 10
0.1146276794
 20
17.1778839576
 10
0.1713359415
 20
17.1635256162
 10
0.228099327
 20
17.1434234432
 10
0.2844589937
 20
17.117528955
 10
0.3390384151
 20
17.0856881036
 10
0.391858704
 20
17.0477832063
 10
0.4428987476
 20
17.0039663659
 10
0.490718681
 20
16.9544969512
 10
0.5354143342
 20
16.8989856831
 10
0.5768898773
 20
16.8379081882
 10
0.6134179552
 20
16.7728266274
 10
0.6447645358
 20
16.7036374253
 10
0.6711636513
 20
16.6305826036
 10
0.6915900436
 20
16.5557247303
 10
0.70570196
 20
16.4797886257
 10
0.7138411532
 20
16.4021904262
 10
0.7160076232
 20
16.3230154734
  0
LWPOLYLINE
  5
3AE
100
AcDbEntity
  8
COPY-PUBBLISH
100
AcDbPolyline
 62
7
  6
CONTINUOUS
 90
12
 70
0
 10
-1.2731931027
 20
16.6054949363
 10
-1.2476808738
 20
16.6040553428
 10
-1.2234633135
 20
16.6017290753
 10
-1.2001745661
 20
16.5984467861
 10
-1.1781804872
 20
16.594277823
 10
-1.1585786438
 20
16.5894302289
 10
-1.1414904346
 20
16.5838695655
 10
-1.1267944609
 20
16.5776302712
 10
-1.1152240935
 20
16.5710237045
 10
-1.1070237894
 20
16.5641536516
 10
-1.1019490915
 20
16.5569163263
 10
-1.1
 20
16.5493117286
  0
LWPOLYLINE
  5
3AF
100
AcDbEntity
  8
COPY-PUBBLISH
100
AcDbPolyline
 62
7
  6
CONTINUOUS
 90
9
 70
0
 10
-1.5231931027
 20
17.3084213806
 10
-1.4976808738
 20
17.3069817871
 10
-1.4734633135
 20
17.3046555196
 10
-1.4501745661
 20
17.3013732305
 10
-1.4281804872
 20
17.2972042673
 10
-1.4085786438
 20
17.2923566732
 10
-1.3914904346
 20
17.2867960098
 10
-1.3767944609
 20
17.2805567155
 10
-1.3652240935
 20
17.2739501488
  0
LWPOLYLINE
  5
3B0
100
AcDbEntity
  8
COPY-PUBBLISH
100
AcDbPolyline
 62
7
  6
CONTINUOUS
 90
12
 70
0
 10
-1.2731931027
 20
17.3726299895
 10
-1.2476808738
 20
17.371190396
 10
-1.2234633135
 20
17.3688641285
 10
-1.2001745661
 20
17.3655818393
 10
-1.1781804872
 20
17.3614128762
 10
-1.1585786438
 20
17.3565652821
 10
-1.1414904346
 20
17.3510046187
 10
-1.1267944609
 20
17.3447653244
 10
-1.1152240935
 20
17.3381587577
 10
-1.1070237894
 20
17.3312887048
 10
-1.1019490915
 20
17.3240513795
 10
-1.1
 20
17.3164467818
  0
LWPOLYLINE
  5
3B1
100
AcDbEntity
  8
COPY-PUBBLISH
100
AcDbPolyline
 62
7
  6
CONTINUOUS
 90
12
 70
0
 10
-1.5231931027
 20
18.0755564338
 10
-1.4976808738
 20
18.0741168403
 10
-1.4734633135
 20
18.0717905728
 10
-1.4501745661
 20
18.0685082837
 10
-1.4281804872
 20
18.0643393205
 10
-1.4085786438
 20
18.0594917264
 10
-1.3914904346
 20
18.053931063
 10
-1.3767944609
 20
18.0476917687
 10
-1.3652240935
 20
18.041085202
 10
-1.3570237894
 20
18.0342151491
 10
-1.3519490915
 20
18.0269778238
 10
-1.35
 20
18.0193732261
  0
LWPOLYLINE
  5
3B2
100
AcDbEntity
  8
0
100
AcDbPolyline
 62
7
  6
CONTINUOUS
 90
16
 70
0
 10
0.0000005312
 20
17.4189106638
 10
0.0938472882
 20
17.4136028696
 10
0.1858894804
 20
17.3976987068
 10
0.2761271079
 20
17.3711994133
 10
0.3655547704
 20
17.3339992163
 10
0.453177868
 20
17.2862210979
 10
0.5360126017
 20
17.2282219369
 10
0.6140964304
 20
17.1595639673
 10
0.6873918951
 20
17.0808048035
 10
0.7528028193
 20
16.9938257671
 10
0.8101675389
 20
16.8980981796
 10
0.8596477179
 20
16.7944820976
 10
0.898632172
 20
16.686938496
 10
0.9262505063
 20
16.5769090019
 10
0.9433731157
 20
16.4633877985
 10
0.95
 20
16.3466533108
  0
LWPOLYLINE
  5
3B3
100
AcDbEntity
  8
0
100
AcDbPolyline
 62
250
  6
CONTINUOUS
 90
12
 70
0
 10
-0.95
 20
19.008269917
 10
-0.9043158327
 20
19.0053986278
 10
-0.8594133342
 20
18.9968338887
 10
-0.8160607987
 20
18.9827222449
 10
-0.775
 20
18.9633051505
 10
-0.7369334998
 20
18.9389148373
 10
-0.7025126266
 20
18.9099686304
 10
-0.6723263309
 20
18.8769618073
 10
-0.6468911087
 20
18.8404591241
 10
-0.6266421636
 20
18.8010851516
 10
-0.6119259608
 20
18.7595135895
 10
-0.6029942985
 20
18.7164557388
  0
LWPOLYLINE
  5
3B4
100
AcDbEntity
  8
COPY-PUBBLISH
100
AcDbPolyline
 62
7
  6
CONTINUOUS
 90
9
 70
0
 10
-1.8
 20
17.7972063501
 10
-1.7756990592
 20
17.792035111
 10
-1.7313613316
 20
17.7799669025
 10
-1.6928459719
 20
17.7663851963
 10
-1.6599005075
 20
17.7513556213
 10
-1.6339960654
 20
17.7355492992
 10
-1.6156230213
 20
17.7191899374
 10
-1.6042909995
 20
17.7020538285
 10
-1.6
 20
17.6841409726
  0
LWPOLYLINE
  5
3B5
100
AcDbEntity
  8
COPY-PUBBLISH
100
AcDbPolyline
 62
7
  6
CONTINUOUS
 90
9
 70
0
 10
-1.8
 20
18.5643414033
 10
-1.7756990592
 20
18.5591701642
 10
-1.7313613316
 20
18.5471019558
 10
-1.6928459719
 20
18.5335202495
 10
-1.6599005075
 20
18.5184906745
 10
-1.6339960654
 20
18.5026843524
 10
-1.6156230213
 20
18.4863249906
 10
-1.6042909995
 20
18.4691888817
 10
-1.6
 20
18.4512760258
  0
LWPOLYLINE
  5
3B6
100
AcDbEntity
  8
0
100
AcDbPolyline
 62
250
  6
CONTINUOUS
 90
10
 70
0
 10
-0.95
 20
16.3466533108
 10
-0.9280737909
 20
16.3414353655
 10
-0.9047439806
 20
16.3368088322
 10
-0.8801649831
 20
16.3328043253
 10
-0.854499482
 20
16.3294483331
 10
-0.8279173488
 20
16.3267630689
 10
-0.8005945186
 20
16.3247663227
 10
-0.7727118317
 20
16.3234713086
 10
-0.7444538368
 20
16.3228865796
 10
-0.7160075655
 20
16.323015996
  0
LWPOLYLINE
  5
3B7
100
AcDbEntity
  8
ASSI
100
AcDbPolyline
 62
7
  6
CONTINUOUS
 90
3
 70
0
 10
21.9959362365
 20
7.1782358527
 10
21.9927717373
 20
7.2123590589
 10
21.9887044137
 20
7.2464258576
  0
LINE
  5
3B8
100
AcDbEntity
  8
ASSI
100
AcDbLine
 62
7
  6
CONTINUOUS
 10
21.9981936488
 20
7.1440912843
 11
21.9959362365
 21
7.1782358527
  0
LINE
  5
3B9
100
AcDbEntity
  8
ASSI
100
AcDbLine
 62
7
  6
CONTINUOUS
 10
21.9995482366
 20
7.1098903084
 11
21.9981936488
 21
7.1440912843
  0
LWPOLYLINE
  5
3BA
100
AcDbEntity
  8
ASSI
100
AcDbPolyline
 62
250
  6
CONTINUOUS
 90
25
 70
0
 10
21.1682776023
 20
6.9657271901
 10
21.1679968737
 20
6.986894367
 10
21.1671586718
 20
7.0080198347
 10
21.1657629966
 20
7.0291035933
 10
21.163808101
 20
7.0501611536
 10
21.1612957322
 20
7.0711770047
 10
21.1582311314
 20
7.0921046139
 10
21.1546131279
 20
7.1129430229
 10
21.1504428925
 20
7.13369319
 10
21.1457291782
 20
7.1543114575
 10
21.140470841
 20
7.1747975036
 10
21.1346690249
 20
7.1951516501
 10
21.1283359149
 20
7.2153312055
 10
21.1214704137
 20
7.2353357633
 10
21.1140736187
 20
7.2551657298
 10
21.1061610066
 20
7.2747796322
 10
21.0977314621
 20
7.2941770779
 10
21.0887861006
 20
7.3133584594
 10
21.0793437454
 20
7.3322834814
 10
21.0694027613
 20
7.350952406
 10
21.0589647835
 20
7.3693649711
 10
21.0480535408
 20
7.3874800951
 10
21.0366769428
 20
7.405284084
 10
21.02482708
 20
7.4227906317
 10
21.0125039523
 20
7.4399997382
  0
LWPOLYLINE
  5
3BB
100
AcDbEntity
  8
ASSI
100
AcDbPolyline
 62
250
  6
CONTINUOUS
 90
25
 70
0
 10
21.6682014499
 20
6.9657271901
 10
21.6677456531
 20
7.0000986534
 10
21.6663812478
 20
7.0344455004
 10
21.6641092312
 20
7.0687437196
 10
21.6609312605
 20
7.1029691021
 10
21.6568495868
 20
7.1370979596
 10
21.651866992
 20
7.1711071332
 10
21.6459868837
 20
7.2049731796
 10
21.6392134047
 20
7.2386720843
 10
21.6315513495
 20
7.2721799803
 10
21.6230061242
 20
7.3054733013
 10
21.613583683
 20
7.3385289203
 10
21.6032905822
 20
7.3713238558
 10
21.592134021
 20
7.4038351722
 10
21.580121797
 20
7.436040151
 10
21.5672622464
 20
7.4679164269
 10
21.5535642755
 20
7.49944187
 10
21.5390375126
 20
7.530594273
 10
21.5236922706
 20
7.5613515282
 10
21.5075394865
 20
7.5916917848
 10
21.4905902905
 20
7.6215942058
 10
21.472856098
 20
7.6510386204
 10
21.454349107
 20
7.6800046554
 10
21.4350823549
 20
7.7084717862
 10
21.4150692686
 20
7.7364200808
  0
LINE
  5
3BC
100
AcDbEntity
  8
ASSI
100
AcDbLine
 62
7
  6
CONTINUOUS
 10
22.0
 20
7.0756329249
 11
21.9995482366
 21
7.1098903084
  0
LINE
  5
3BD
100
AcDbEntity
  8
ASSI
100
AcDbLine
 62
250
  6
CONTINUOUS
 10
21.1682776023
 20
-6.9657271901
 11
21.1682776023
 21
6.9657271901
  0
LINE
  5
3BE
100
AcDbEntity
  8
ASSI
100
AcDbLine
 62
250
  6
CONTINUOUS
 10
21.6682014499
 20
-6.9657271901
 11
21.6682014499
 21
6.9657271901
  0
LINE
  5
3BF
100
AcDbEntity
  8
0
100
AcDbLine
 62
7
  6
CONTINUOUS
 10
21.9728859769
 20
-7.15
 11
21.9728859769
 21
-7.066621447
  0
LINE
  5
3C0
100
AcDbEntity
  8
0
100
AcDbLine
 62
7
  6
CONTINUOUS
 10
21.9728859769
 20
7.066621447
 11
21.9728859769
 21
7.15
  0
LINE
  5
3C1
100
AcDbEntity
  8
0
100
AcDbLine
 62
7
  6
CONTINUOUS
 10
21.9755620937
 20
-7.0666211814
 11
21.9755620937
 21
7.0666211814
  0
LINE
  5
3C2
100
AcDbEntity
  8
0
100
AcDbLine
 62
7
  6
CONTINUOUS
 10
22.0
 20
-7.0756329295
 11
22.0
 21
-7.05
  0
LINE
  5
3C3
100
AcDbEntity
  8
0
100
AcDbLine
 62
7
  6
CONTINUOUS
 10
22.0
 20
7.05
 11
22.0
 21
7.0756329295
  0
LINE
  5
3C4
100
AcDbEntity
  8
ASSI
100
AcDbLine
 62
7
  6
CONTINUOUS
 10
21.9995482366
 20
-7.1098903084
 11
22.0
 21
-7.0756329249
  0
LINE
  5
3C5
100
AcDbEntity
  8
ASSI
100
AcDbLine
 62
7
  6
CONTINUOUS
 10
21.9981936488
 20
-7.1440912843
 11
21.9995482366
 21
-7.1098903084
  0
LINE
  5
3C6
100
AcDbEntity
  8
ASSI
100
AcDbLine
 62
7
  6
CONTINUOUS
 10
21.9959362365
 20
-7.1782358527
 11
21.9981936488
 21
-7.1440912843
  0
LINE
  5
3C7
100
AcDbEntity
  8
ASSI
100
AcDbLine
 62
7
  6
CONTINUOUS
 10
21.9978135022
 20
-7.15
 11
21.9952541836
 21
-7.18558392
  0
LWPOLYLINE
  5
3C8
100
AcDbEntity
  8
ASSI
100
AcDbPolyline
 62
7
  6
CONTINUOUS
 90
17
 70
0
 10
21.9952541836
 20
-7.18558392
 10
21.991729209
 20
-7.2210277513
 10
21.9872385785
 20
-7.2563314938
 10
21.9817793757
 20
-7.2915143775
 10
21.9753545168
 20
-7.3265571725
 10
21.9679727515
 20
-7.361402189
 10
21.9596295937
 20
-7.3960610611
 10
21.9503295294
 20
-7.4305221547
 10
21.940094766
 20
-7.4646928777
 10
21.928920719
 20
-7.4985739444
 10
21.9168119729
 20
-7.5321646405
 10
21.9038044896
 20
-7.5653702312
 10
21.8899036325
 20
-7.598173483
 10
21.8751040382
 20
-7.6305916293
 10
21.8594255781
 20
-7.6625816354
 10
21.8428565702
 20
-7.6941617951
 10
21.8254086965
 20
-7.7253138146
  0
LWPOLYLINE
  5
3C9
100
AcDbEntity
  8
ASSI
100
AcDbPolyline
 62
7
  6
CONTINUOUS
 90
3
 70
0
 10
21.9887044137
 20
-7.2464258576
 10
21.9927717373
 20
-7.2123590589
 10
21.9959362365
 20
-7.1782358527
  0
LWPOLYLINE
  5
3CA
100
AcDbEntity
  8
ASSI
100
AcDbPolyline
 62
7
  6
CONTINUOUS
 90
16
 70
0
 10
21.8231864976
 20
-7.729321944
 10
21.8400874831
 20
-7.6994676629
 10
21.8561760625
 20
-7.669215738
 10
21.8714401797
 20
-7.6385855164
 10
21.8858918908
 20
-7.6075576509
 10
21.8995156815
 20
-7.5761657057
 10
21.9123172521
 20
-7.5443935728
 10
21.9242909023
 20
-7.5122573602
 10
21.9354040176
 20
-7.4798389557
 10
21.945653104
 20
-7.4471373281
 10
21.9550416554
 20
-7.4141535088
 10
21.9635475393
 20
-7.3809724793
 10
21.9711658345
 20
-7.3476106783
 10
21.9779014623
 20
-7.3140516673
 10
21.9837470533
 20
-7.2803311126
 10
21.9887044137
 20
-7.2464258576
  0
LINE
  5
3CB
100
AcDbEntity
  8
ASSI
100
AcDbLine
 62
7
  6
CONTINUOUS
 10
21.8055247886
 20
-7.7586869758
 11
21.8254086965
 21
-7.7253138146
  0
LINE
  5
3CC
100
AcDbEntity
  8
ASSI
100
AcDbLine
 62
7
  6
CONTINUOUS
 10
21.7871195834
 20
-7.787532223
 11
21.8071368747
 21
-7.7559397779
  0
LINE
  5
3CD
100
AcDbEntity
  8
ASSI
100
AcDbLine
 62
7
  6
CONTINUOUS
 10
21.7679536547
 20
-7.8158882209
 11
21.7880594108
 21
-7.7860070463
  0
LINE
  5
3CE
100
AcDbEntity
  8
ASSI
100
AcDbLine
 62
7
  6
CONTINUOUS
 10
21.7681579989
 20
-7.8155482586
 11
21.7474326389
 21
-7.8445634147
  0
LWPOLYLINE
  5
3CF
100
AcDbEntity
  8
ASSI
100
AcDbPolyline
 62
250
  6
CONTINUOUS
 90
25
 70
0
 10
21.0125039523
 20
-7.4399997382
 10
21.0248285631
 20
-7.4227883573
 10
21.0366795378
 20
-7.4052800174
 10
21.0480568763
 20
-7.3874747185
 10
21.0589683694
 20
-7.3693589336
 10
21.0694062263
 20
-7.3509461898
 10
21.0793470753
 20
-7.3322770676
 10
21.0887894049
 20
-7.3133516458
 10
21.0977347265
 20
-7.2941698457
 10
21.1061642029
 20
-7.2747720119
 10
21.1140767222
 20
-7.2551577252
 10
21.1214733962
 20
-7.235327405
 10
21.1283387236
 20
-7.2153226539
 10
21.1346715798
 20
-7.1951431487
 10
21.1404730894
 20
-7.1747892127
 10
21.1457311244
 20
-7.1543034193
 10
21.1504445538
 20
-7.1336854231
 10
21.1546145086
 20
-7.1129355694
 10
21.1582322541
 20
-7.0920974672
 10
21.1612966288
 20
-7.0711699363
 10
21.1638087942
 20
-7.0501541568
 10
21.1657634993
 20
-7.0290972775
 10
21.1671589939
 20
-7.0080150148
 10
21.1679970282
 20
-6.9868916523
 10
21.1682776023
 20
-6.9657271901
  0
LWPOLYLINE
  5
3D0
100
AcDbEntity
  8
ASSI
100
AcDbPolyline
 62
250
  6
CONTINUOUS
 90
25
 70
0
 10
21.4150692686
 20
-7.7364200808
 10
21.4350821434
 20
-7.7084720899
 10
21.4543487622
 20
-7.6800051797
 10
21.4728556908
 20
-7.6510392767
 10
21.4905899093
 20
-7.621594858
 10
21.5075391851
 20
-7.5916923334
 10
21.5236920271
 20
-7.5613520004
 10
21.539037279
 20
-7.5305947572
 10
21.5535640378
 20
-7.4994423979
 10
21.5672620128
 20
-7.4679169848
 10
21.5801215839
 20
-7.4360407001
 10
21.592133833
 20
-7.4038356974
 10
21.6032904134
 20
-7.3713243697
 10
21.613583523
 20
-7.3385294547
 10
21.6230059702
 20
-7.30547387
 10
21.6315512068
 20
-7.2721805684
 10
21.639213283
 20
-7.2386726506
 10
21.6459867847
 20
-7.2049737083
 10
21.651866908
 20
-7.1711076582
 10
21.6568495042
 20
-7.1370985805
 10
21.6609311806
 20
-7.1029698541
 10
21.6641091698
 20
-7.0687444904
 10
21.6663812145
 20
-7.0344461278
 10
21.6677456432
 20
-7.0000990238
 10
21.6682014499
 20
-6.9657271901
  0
LINE
  5
3D1
100
AcDbEntity
  8
ASSI
100
AcDbLine
 62
7
  6
CONTINUOUS
 10
17.0413417438
 20
-13.9137627116
 11
17.0337991213
 21
-13.9229913271
  0
LINE
  5
3D2
100
AcDbEntity
  8
ASSI
100
AcDbLine
 62
7
  6
CONTINUOUS
 10
21.7474326389
 20
7.8445634147
 11
21.7681584919
 21
7.8155475572
  0
LINE
  5
3D3
100
AcDbEntity
  8
ASSI
100
AcDbLine
 62
7
  6
CONTINUOUS
 10
21.7679536504
 20
7.8158882273
 11
21.7880603716
 21
7.7860055848
  0
LINE
  5
3D4
100
AcDbEntity
  8
ASSI
100
AcDbLine
 62
7
  6
CONTINUOUS
 10
21.7871195817
 20
7.7875322256
 11
21.8071382782
 21
7.7559374975
  0
LWPOLYLINE
  5
3D5
100
AcDbEntity
  8
ASSI
100
AcDbPolyline
 62
7
  6
CONTINUOUS
 90
19
 70
0
 10
21.8055247886
 20
7.7586869758
 10
21.8254105944
 20
7.7253104772
 10
21.8428589374
 20
7.6941573421
 10
21.8594281591
 20
7.6625765466
 10
21.8751064032
 20
7.6305867262
 10
21.889905526
 20
7.5981692455
 10
21.9038059484
 20
7.5653666532
 10
21.9168131117
 20
7.5321616473
 10
21.9289215746
 20
7.4985715298
 10
21.9400954337
 20
7.4646907554
 10
21.9503301772
 20
7.4305197439
 10
21.959630317
 20
7.3960580755
 10
21.9679734851
 20
7.3613989458
 10
21.975355109
 20
7.3265543039
 10
21.9817797613
 20
7.2915122006
 10
21.9872387917
 20
7.2563299838
 10
21.991729317
 20
7.2210267694
 10
21.9952542205
 20
7.1855834414
 10
21.9978135022
 20
7.15
  0
LWPOLYLINE
  5
3D6
100
AcDbEntity
  8
ASSI
100
AcDbPolyline
 62
7
  6
CONTINUOUS
 90
16
 70
0
 10
21.9887044137
 20
7.2464258576
 10
21.9837470533
 20
7.2803311126
 10
21.9779014623
 20
7.3140516673
 10
21.9711658345
 20
7.3476106783
 10
21.9635475393
 20
7.3809724793
 10
21.9550416554
 20
7.4141535088
 10
21.945653104
 20
7.4471373281
 10
21.9354040176
 20
7.4798389557
 10
21.9242909023
 20
7.5122573602
 10
21.9123172521
 20
7.5443935728
 10
21.8995156815
 20
7.5761657057
 10
21.8858918908
 20
7.6075576509
 10
21.8714401797
 20
7.6385855164
 10
21.8561760625
 20
7.669215738
 10
21.8400874834
 20
7.6994676625
 10
21.8231864982
 20
7.7293219432
  0
ARC
  5
3D7
100
AcDbEntity
  8
ASSI
100
AcDbCircle
 62
7
  6
CONTINUOUS
 10
-99.1057403435
 20
-81.0064949925
 40
150.0
100
AcDbArc
 50
36.3228825472
 51
39.2616846859
  0
ARC
  5
3D8
100
AcDbEntity
  8
ASSI
100
AcDbCircle
 62
250
  6
CONTINUOUS
 10
-99.1057403435
 20
-81.0064949925
 40
149.6682014499
100
AcDbArc
 50
36.3652772929
 51
39.2616846859
  0
ARC
  5
3D9
100
AcDbEntity
  8
ASSI
100
AcDbCircle
 62
250
  6
CONTINUOUS
 10
-99.1057403435
 20
-81.0064949925
 40
149.1682776037
100
AcDbArc
 50
36.3652772929
 51
39.2616846859
  0
ARC
  5
3DA
100
AcDbEntity
  8
0
100
AcDbCircle
 62
7
  6
CONTINUOUS
 10
-0.95
 20
-18.7568326776
 40
0.35
100
AcDbArc
 50
270.0
 51
360.0
  0
ARC
  5
3DB
100
AcDbEntity
  8
ASSI
100
AcDbCircle
 62
7
  6
CONTINUOUS
 10
-99.1057403435
 20
81.0064949925
 40
150.0
100
AcDbArc
 50
320.7428679715
 51
323.6771174581
  0
ARC
  5
3DC
100
AcDbEntity
  8
ASSI
100
AcDbCircle
 62
250
  6
CONTINUOUS
 10
-99.1057403435
 20
81.0064949925
 40
149.6682014499
100
AcDbArc
 50
320.7383153141
 51
323.6347227071
  0
ARC
  5
3DD
100
AcDbEntity
  8
ASSI
100
AcDbCircle
 62
250
  6
CONTINUOUS
 10
-99.1057403435
 20
81.0064949925
 40
149.1682776037
100
AcDbArc
 50
320.7383153141
 51
323.6347227071
  0
CIRCLE
  5
3DE
100
AcDbEntity
  8
ASSI
100
AcDbCircle
 62
250
  6
CONTINUOUS
 10
-9.5
 20
0.0
 40
3.2999999929
  0
CIRCLE
  5
3DF
100
AcDbEntity
  8
ASSI
100
AcDbCircle
 62
7
  6
CONTINUOUS
 10
-9.5
 20
0.0
 40
2.8
  0
ARC
  5
3E0
100
AcDbEntity
  8
COPY-PUBBLISH
100
AcDbCircle
 62
7
  6
CONTINUOUS
 10
-9.5
 20
0.0
 40
2.3
100
AcDbArc
 50
243.9318397081
 51
296.0681602919
  0
ARC
  5
3E1
100
AcDbEntity
  8
0
100
AcDbCircle
 62
7
  6
CONTINUOUS
 10
-0.95
 20
18.8
 40
0.35
100
AcDbArc
 50
0.0
 51
90.0
  0
ARC
  5
3E2
100
AcDbEntity
  8
ASSI
100
AcDbCircle
 62
7
  6
CONTINUOUS
 10
99.1057403435
 20
-81.0064949925
 40
150.0
100
AcDbArc
 50
140.7383153141
 51
143.6767341799
  0
ARC
  5
3E3
100
AcDbEntity
  8
ASSI
100
AcDbCircle
 62
250
  6
CONTINUOUS
 10
99.1057403435
 20
-81.0064949925
 40
149.6682014499
100
AcDbArc
 50
140.7383153141
 51
143.6347227071
  0
ARC
  5
3E4
100
AcDbEntity
  8
ASSI
100
AcDbCircle
 62
250
  6
CONTINUOUS
 10
99.1057403435
 20
-81.0064949925
 40
149.1682776037
100
AcDbArc
 50
140.7383153141
 51
143.6347227071
  0
ARC
  5
3E5
100
AcDbEntity
  8
ASSI
100
AcDbCircle
 62
7
  6
CONTINUOUS
 10
0.0
 20
-16.7312741346
 40
1.1
100
AcDbArc
 50
231.3210329455
 51
308.6789670545
  0
ARC
  5
3E6
100
AcDbEntity
  8
0
100
AcDbCircle
 62
7
  6
CONTINUOUS
 10
0.95
 20
-18.7568326776
 40
0.35
100
AcDbArc
 50
180.0
 51
270.0
  0
ARC
  5
3E7
100
AcDbEntity
  8
ASSI
100
AcDbCircle
 62
7
  6
CONTINUOUS
 10
-0.0
 20
0.0
 40
22.0
100
AcDbArc
 50
219.2616846859
 51
320.7383153141
  0
ARC
  5
3E8
100
AcDbEntity
  8
ASSI
100
AcDbCircle
 62
7
  6
CONTINUOUS
 10
-0.0
 20
0.0
 40
22.0
100
AcDbArc
 50
39.2616846859
 51
140.7383153141
  0
ARC
  5
3E9
100
AcDbEntity
  8
ASSI
100
AcDbCircle
 62
250
  6
CONTINUOUS
 10
-0.0
 20
0.0
 40
21.6682014499
100
AcDbArc
 50
219.2616846859
 51
320.7383153141
  0
ARC
  5
3EA
100
AcDbEntity
  8
ASSI
100
AcDbCircle
 62
250
  6
CONTINUOUS
 10
-0.0
 20
0.0
 40
21.6682014499
100
AcDbArc
 50
39.2616846859
 51
140.7383153141
  0
ARC
  5
3EB
100
AcDbEntity
  8
ASSI
100
AcDbCircle
 62
250
  6
CONTINUOUS
 10
-0.0
 20
0.0
 40
21.1682776024
100
AcDbArc
 50
39.2616846859
 51
140.7383153141
  0
ARC
  5
3EC
100
AcDbEntity
  8
ASSI
100
AcDbCircle
 62
250
  6
CONTINUOUS
 10
-0.0
 20
0.0
 40
21.1682776024
100
AcDbArc
 50
219.2616846859
 51
320.7383153141
  0
CIRCLE
  5
3ED
100
AcDbEntity
  8
ASSI
100
AcDbCircle
 62
250
  6
CONTINUOUS
 10
-0.0
 20
0.0
 40
20.3898071571
  0
CIRCLE
  5
3EE
100
AcDbEntity
  8
ASSI
100
AcDbCircle
 62
250
  6
CONTINUOUS
 10
-0.0
 20
0.0
 40
19.8899131909
  0
ARC
  5
3EF
100
AcDbEntity
  8
ASSI
100
AcDbCircle
 62
7
  6
CONTINUOUS
 10
-0.0
 20
0.0
 40
19.8588044051
100
AcDbArc
 50
84.7995790044
 51
95.2004209956
  0
ARC
  5
3F0
100
AcDbEntity
  8
ASSI
100
AcDbCircle
 62
7
  6
CONTINUOUS
 10
-0.0
 20
0.0
 40
19.8588044051
100
AcDbArc
 50
264.7995790044
 51
275.2004209956
  0
ARC
  5
3F1
100
AcDbEntity
  8
ASSI
100
AcDbCircle
 62
7
  6
CONTINUOUS
 10
-0.0
 20
0.0
 40
19.8382066077
100
AcDbArc
 50
187.8158759632
 51
212.6800282753
  0
ARC
  5
3F2
100
AcDbEntity
  8
ASSI
100
AcDbCircle
 62
7
  6
CONTINUOUS
 10
-0.0
 20
0.0
 40
19.8382066077
100
AcDbArc
 50
147.3199717247
 51
172.1841240368
  0
ARC
  5
3F3
100
AcDbEntity
  8
ASSI
100
AcDbCircle
 62
7
  6
CONTINUOUS
 10
-0.0
 20
0.0
 40
19.8382066077
100
AcDbArc
 50
7.8158759632
 51
32.6800282753
  0
ARC
  5
3F4
100
AcDbEntity
  8
ASSI
100
AcDbCircle
 62
7
  6
CONTINUOUS
 10
-0.0
 20
0.0
 40
19.8382066077
100
AcDbArc
 50
327.3199717247
 51
352.1841240368
  0
ARC
  5
3F5
100
AcDbEntity
  8
ASSI
100
AcDbCircle
 62
7
  6
CONTINUOUS
 10
-0.0
 20
0.0
 40
19.5374787651
100
AcDbArc
 50
95.2861919044
 51
147.8965424466
  0
ARC
  5
3F6
100
AcDbEntity
  8
ASSI
100
AcDbCircle
 62
7
  6
CONTINUOUS
 10
-0.0
 20
0.0
 40
19.5374787651
100
AcDbArc
 50
32.1034575534
 51
84.7138080956
  0
ARC
  5
3F7
100
AcDbEntity
  8
ASSI
100
AcDbCircle
 62
7
  6
CONTINUOUS
 10
-0.0
 20
0.0
 40
19.5374787651
100
AcDbArc
 50
352.5004516992
 51
7.4995483008
  0
ARC
  5
3F8
100
AcDbEntity
  8
ASSI
100
AcDbCircle
 62
7
  6
CONTINUOUS
 10
-0.0
 20
0.0
 40
19.5374787651
100
AcDbArc
 50
275.2861919044
 51
327.8965424466
  0
ARC
  5
3F9
100
AcDbEntity
  8
ASSI
100
AcDbCircle
 62
7
  6
CONTINUOUS
 10
-0.0
 20
0.0
 40
19.5374787651
100
AcDbArc
 50
212.1034575534
 51
264.7138080956
  0
ARC
  5
3FA
100
AcDbEntity
  8
ASSI
100
AcDbCircle
 62
7
  6
CONTINUOUS
 10
-0.0
 20
0.0
 40
19.5374787651
100
AcDbArc
 50
172.5004516992
 51
187.4995483008
  0
ARC
  5
3FB
100
AcDbEntity
  8
ASSI
100
AcDbCircle
 62
7
  6
CONTINUOUS
 10
0.0
 20
16.6285679486
 40
1.1
100
AcDbArc
 50
45.9648830359
 51
134.0351169641
  0
ARC
  5
3FC
100
AcDbEntity
  8
0
100
AcDbCircle
 62
7
  6
CONTINUOUS
 10
0.95
 20
18.8
 40
0.35
100
AcDbArc
 50
90.0
 51
180.0
  0
CIRCLE
  5
3FD
100
AcDbEntity
  8
ASSI
100
AcDbCircle
 62
250
  6
CONTINUOUS
 10
9.5
 20
0.0
 40
3.2999999929
  0
CIRCLE
  5
3FE
100
AcDbEntity
  8
ASSI
100
AcDbCircle
 62
7
  6
CONTINUOUS
 10
9.5
 20
0.0
 40
2.8
  0
ARC
  5
3FF
100
AcDbEntity
  8
COPY-PUBBLISH
100
AcDbCircle
 62
7
  6
CONTINUOUS
 10
9.5
 20
0.0
 40
2.3
100
AcDbArc
 50
63.9318397081
 51
116.0681602919
  0
ARC
  5
400
100
AcDbEntity
  8
ASSI
100
AcDbCircle
 62
7
  6
CONTINUOUS
 10
99.1057403435
 20
81.0064949925
 40
150.0
100
AcDbArc
 50
216.3232658201
 51
219.2571320262
  0
ARC
  5
401
100
AcDbEntity
  8
ASSI
100
AcDbCircle
 62
250
  6
CONTINUOUS
 10
99.1057403435
 20
81.0064949925
 40
149.6682014499
100
AcDbArc
 50
216.3652772929
 51
219.2616846859
  0
ARC
  5
402
100
AcDbEntity
  8
ASSI
100
AcDbCircle
 62
250
  6
CONTINUOUS
 10
99.1057403435
 20
81.0064949925
 40
149.1682776037
100
AcDbArc
 50
216.3652772929
 51
219.2616846859
  0
ELLIPSE
  5
403
100
AcDbEntity
  8
RACCORDO
100
AcDbEllipse
 62
7
  6
CONTINUOUS
 10
9.545228493
 20
0.0
 30
0.0
 11
2.440468069
 21
-0.0
 31
0.0
 40
0.9998282545
 41
-0.1194595749
 42
2.8732519919
  0
ELLIPSE
  5
404
100
AcDbEntity
  8
COPY-PUBBLISH
100
AcDbEllipse
 62
7
  6
CONTINUOUS
 10
9.5
 20
-0.2526215214
 30
0.0
 11
-0.0
 21
2.4814881331
 31
0.0
 40
0.9948046367
 41
-1.5861800007
 42
-1.010551509
  0
ELLIPSE
  5
405
100
AcDbEntity
  8
RACCORDO
100
AcDbEllipse
 62
7
  6
CONTINUOUS
 10
-9.545228493
 20
0.0
 30
0.0
 11
2.440468069
 21
-0.0
 31
0.0
 40
0.9998282545
 41
3.0221330787
 42
6.0148446118
  0
ELLIPSE
  5
406
100
AcDbEntity
  8
COPY-PUBBLISH
100
AcDbEllipse
 62
7
  6
CONTINUOUS
 10
-9.5
 20
0.2526215214
 30
0.0
 11
0.0
 21
2.4814881331
 31
0.0
 40
0.9948046367
 41
1.5554126529
 42
2.1310411446
  0
ELLIPSE
  5
407
100
AcDbEntity
  8
RACCORDO
100
AcDbEllipse
 62
7
  6
CONTINUOUS
 10
9.5
 20
-0.2526215214
 30
0.0
 11
-0.0
 21
2.4814881331
 31
0.0
 40
0.9948046367
 41
1.010551509
 42
1.2438228581
  0
ELLIPSE
  5
408
100
AcDbEntity
  8
RACCORDO
100
AcDbEllipse
 62
7
  6
CONTINUOUS
 10
-9.5
 20
0.2526215214
 30
0.0
 11
-0.0
 21
2.4814881331
 31
0.0
 40
0.9948046367
 41
-2.1310411446
 42
-1.8977695801
  0
ELLIPSE
  5
409
100
AcDbEntity
  8
DRAFT
100
AcDbEllipse
 62
7
  6
CONTINUOUS
 10
-0.0
 20
-18.8423253088
 30
0.0
 11
2.75
 21
0.0
 31
0.0
 40
0.0087268678
 41
-1.7975293613
 42
-1.3440632923
  0
ELLIPSE
  5
40A
100
AcDbEntity
  8
0
100
AcDbEllipse
 62
7
  6
CONTINUOUS
 10
0.95
 20
17.9674322765
 30
0.0
 11
-0.0
 21
5.7918801557
 31
0.0
 40
0.0604294272
 41
1.5707963268
 42
1.6431425961
  0
ELLIPSE
  5
40B
100
AcDbEntity
  8
0
100
AcDbEllipse
 62
7
  6
CONTINUOUS
 10
-0.95
 20
17.9674322765
 30
0.0
 11
-0.0
 21
5.7918801557
 31
0.0
 40
0.0604294272
 41
-1.6431425961
 42
-1.5707963268
  0
ELLIPSE
  5
40C
100
AcDbEntity
  8
0
100
AcDbEllipse
 62
7
  6
CONTINUOUS
 10
-0.95
 20
-18.1673041954
 30
0.0
 11
0.0
 21
6.1512089616
 31
0.0
 40
0.0568993839
 41
-1.5707963268
 42
-1.4868977864
  0
ELLIPSE
  5
40D
100
AcDbEntity
  8
0
100
AcDbEllipse
 62
7
  6
CONTINUOUS
 10
0.95
 20
-18.1673041954
 30
0.0
 11
0.0
 21
6.1512089616
 31
0.0
 40
0.0568993839
 41
1.4868977864
 42
1.5707963268
  0
ENDSEC
  0
SECTION
  2
OBJECTS
  0
DICTIONARY
  5
C
100
AcDbDictionary
280
0
281
1
  3
ACAD_GROUP
350
D
  3
ACAD_MLINESTYLE
350
17
  3
ACAD_LAYOUT
350
1A
  3
ACAD_PLOTSETTINGS
350
19
  3
ACAD_PLOTSTYLENAME
350
E
  0
DICTIONARY
  5
D
102
{ACAD_REACTORS
330
C
102
}
100
AcDbDictionary
280
0
281
1
  0
ACDBDICTIONARYWDFLT
  5
E
102
{ACAD_REACTORS
330
C
102
}
100
AcDbDictionary
281
1
  3
Normal
350
F
100
AcDbDictionaryWithDefault
340
F
  0
DICTIONARY
  5
17
102
{ACAD_REACTORS
330
C
102
}
100
AcDbDictionary
280
0
281
1
  3
Standard
350
18
  0
DICTIONARY
  5
19
102
{ACAD_REACTORS
330
C
102
}
100
AcDbDictionary
281
1
  0
DICTIONARY
  5
1A
102
{ACAD_REACTORS
330
C
102
}
100
AcDbDictionary
281
1
  3
Model
350
40E
  3
Layout1
350
40F
  0
ACDBPLACEHOLDER
  5
F
102
{ACAD_REACTORS
330
E
102
}
  0
MLINESTYLE
  5
18
102
{ACAD_REACTORS
330
17
102
}
100
AcDbMlineStyle
  2
STANDARD
 70
0
  3

 62
256
 51
90.0
 52
90.0
 71
2
 49
0.5
 62
256
  6
BYLAYER
 49
-0.5
 62
256
  6
BYLAYER
  0
LAYOUT
  5
40E
102
{ACAD_REACTORS
330
1A
102
}
100
AcDbPlotSettings
  1

  2
none_device
  4
ISO_A4_(297.00_x_210.00_MM)
  6

 40
0.0
 41
0.0
 42
0.0
 43
0.0
 44
297.0
 45
210.0
 46
0.0
 47
0.0
 48
0.0
 49
0.0
140
0.0
141
0.0
142
1.0
143
1.0
 70
1024
 72
1
 73
0
 74
0
  7

 75
0
147
1.0
148
0.0
149
0.0
100
AcDbLayout
  1
Model
 70
0
 71
0
 10
0.0
 20
0.0
 11
297.0
 21
210.0
 12
0.0
 22
0.0
 32
0.0
 14
0.0
 24
0.0
 34
0.0
 15
0.0
 25
0.0
 35
0.0
146
0.0
 13
0.0
 23
0.0
 33
0.0
 16
1.0
 26
0.0
 36
0.0
 17
0.0
 27
1.0
 37
0.0
 76
0
330
226
345
0
346
0
  0
LAYOUT
  5
40F
102
{ACAD_REACTORS
330
1A
102
}
100
AcDbPlotSettings
  1

  2
none_device
  4
ISO_A4_(297.00_x_210.00_MM)
  6

 40
0.0
 41
0.0
 42
0.0
 43
0.0
 44
297.0
 45
210.0
 46
0.0
 47
0.0
 48
0.0
 49
0.0
140
0.0
141
0.0
142
1.0
143
1.0
 70
0
 72
1
 73
0
 74
0
  7

 75
0
147
1.0
148
0.0
149
0.0
100
AcDbLayout
  1
Layout1
 70
0
 71
1
 10
0.0
 20
0.0
 11
297.0
 21
210.0
 12
0.0
 22
0.0
 32
0.0
 14
0.0
 24
0.0
 34
0.0
 15
0.0
 25
0.0
 35
0.0
146
0.0
 13
0.0
 23
0.0
 33
0.0
 16
1.0
 26
0.0
 36
0.0
 17
0.0
 27
1.0
 37
0.0
 76
0
330
227
345
0
346
0
  0
ENDSEC
  0
EOF
