  0
SECTION
  2
HEADER
  9
$ACADVER
  1
AC1021
  9
$DWGCODEPAGE
  3
ANSI_1252
  9
$EXTMAX
 10
297.0
 20
210.0
 30
0.0
  9
$EXTMIN
 10
0.0
 20
0.0
 30
0.0
  9
$LIMMIN
 10
0.0
 20
0.0
  9
$LIMMAX
 10
297.0
 20
210.0
  9
$VIEWCTR
 10
148.5
 20
105.0
  9
$VIEWSIZE
 40
210.0
  9
$CLAYER
  8
0
  9
$LTSCALE
 40
16.335
  9
$CELTYPE
  6
BYLAYER
  9
$DIMSCALE
 40
1.0
  9
$DIMASZ
 40
3.0
  9
$DIMEXO
 40
0.5
  9
$DIMDLI
 40
11.286
  9
$DIMEXE
 40
1.5
  9
$DIMCEN
 40
2.673
  9
$DIMLFAC
 40
1.0
  9
$DIMBLK
  1
_FILLED
  9
$DIMALT
 70
0
  9
$DIMALTF
 40
25.4
  9
$DIMTXT
 40
3.0
  9
$DIMTOL
 70
1
  9
$DIMLIM
 70
0
  9
$DIMTFAC
 40
1.0
  9
$DIMTP
 40
0.01
  9
$DIMTM
 40
0.01
  9
$DIMGAP
 40
0.625
  9
$DIMDSEP
 70
44
  9
$AUNITS
 70
0
  9
$PDMODE
 70
3
  9
$PDSIZE
 40
3.0
  9
$HANDSEED
  5
833
  9
$TILEMODE
 70
1
  9
$MEASUREMENT
 70
1
  9
$INSUNITS
 70
4
  0
ENDSEC
  0
SECTION
  2
CLASSES
  0
CLASS
  1
ACDBDICTIONARYWDFLT
  2
AcDbDictionaryWithDefault
  3
AutoCAD 2000
 90
0
 91
1
280
0
281
0
  0
CLASS
  1
ACDBPLACEHOLDER
  2
AcDbPlaceHolder
  3
AutoCAD 2000
 90
0
 91
1
280
0
281
0
  0
CLASS
  1
LAYOUT
  2
AcDbLayout
  3
AutoCAD 2000
 90
0
 91
0
280
0
281
0
  0
ENDSEC
  0
SECTION
  2
TABLES
  0
TABLE
  2
VPORT
  5
8
100
AcDbSymbolTable
 70
2
  0
VPORT
  5
1F4
100
AcDbSymbolTableRecord
100
AcDbViewportTableRecord
  2
*ACTIVE
 70
0
 10
0.0
 20
0.0
 11
1.0
 21
1.0
 12
148.5
 22
105.0
 13
0.0
 23
0.0
 14
1.0
 24
1.0
 15
0.0
 25
0.0
 16
0.0
 26
0.0
 36
1.0
 17
0.0
 27
0.0
 37
0.0
 40
210.0
 41
1.4142857143
 42
50.0
 43
0.0
 44
0.0
 50
0.0
 51
0.0
 71
0
 72
100
 73
1
 74
1
 75
0
 76
0
 77
0
 78
0
  0
ENDTAB
  0
TABLE
  2
LTYPE
  5
5
100
AcDbSymbolTable
 70
6
  0
LTYPE
  5
14
100
AcDbSymbolTableRecord
100
AcDbLinetypeTableRecord
  2
BYBLOCK
 70
0
  3

 72
65
 73
0
 40
0.0
  0
LTYPE
  5
15
100
AcDbSymbolTableRecord
100
AcDbLinetypeTableRecord
  2
BYLAYER
 70
0
  3

 72
65
 73
0
 40
0.0
  0
LTYPE
  5
16
100
AcDbSymbolTableRecord
100
AcDbLinetypeTableRecord
  2
CONTINUOUS
 70
64
  3
Solid line
 72
65
 73
0
 40
0.0
  0
LTYPE
  5
1F5
100
AcDbSymbolTableRecord
100
AcDbLinetypeTableRecord
  2
CENTER
 70
64
  3
____ _ ____ _ ____ _ ____ _ ____ _ ____ _ ____
 72
65
 73
4
 40
0.6
 49
0.375
 74
0
 49
-0.075
 74
0
 49
0.075
 74
0
 49
-0.075
 74
0
  0
LTYPE
  5
1F6
100
AcDbSymbolTableRecord
100
AcDbLinetypeTableRecord
  2
HIDDEN
 70
64
  3
- - - - - - - - - - - - - - - - - - - -
 72
65
 73
2
 40
0.2
 49
0.1
 74
0
 49
-0.1
 74
0
  0
LTYPE
  5
1F7
100
AcDbSymbolTableRecord
100
AcDbLinetypeTableRecord
  2
PHANTOM
 70
64
  3
_____ _ _ _____ _ _ _____ _ _ _____
 72
65
 73
6
 40
0.8
 49
0.45
 74
0
 49
-0.05
 74
0
 49
0.1
 74
0
 49
-0.05
 74
0
 49
0.1
 74
0
 49
-0.05
 74
0
  0
LTYPE
  5
1F8
100
AcDbSymbolTableRecord
100
AcDbLinetypeTableRecord
  2
DOT
 70
64
  3
. . . . . . . . . . . . . . . . . . . .
 72
65
 73
2
 40
0.2
 49
0.1
 74
0
 49
-0.1
 74
0
  0
LTYPE
  5
1F9
100
AcDbSymbolTableRecord
100
AcDbLinetypeTableRecord
  2
DASHED
 70
64
  3
- - - - - - - - - - - - - - - - - - - -
 72
65
 73
2
 40
0.2
 49
0.1
 74
0
 49
-0.1
 74
0
  0
ENDTAB
  0
TABLE
  2
LAYER
  5
2
100
AcDbSymbolTable
 70
36
  0
LAYER
  5
10
100
AcDbSymbolTableRecord
100
AcDbLayerTableRecord
  2
0
 70
0
 62
7
  6
CONTINUOUS
370
-3
390
F
  0
LAYER
  5
1FA
100
AcDbSymbolTableRecord
100
AcDbLayerTableRecord
  2
DEFAULT_1
 70
0
 62
7
  6
CENTER
370
-3
390
F
  0
LAYER
  5
1FB
100
AcDbSymbolTableRecord
100
AcDbLayerTableRecord
  2
DEFAULT_2
 70
0
 62
7
  6
HIDDEN
370
-3
390
F
  0
LAYER
  5
1FC
100
AcDbSymbolTableRecord
100
AcDbLayerTableRecord
  2
DEFAULT_3
 70
0
 62
7
  6
PHANTOM
370
-3
390
F
  0
LAYER
  5
1FD
100
AcDbSymbolTableRecord
100
AcDbLayerTableRecord
  2
ASSI
 70
0
 62
7
  6
CONTINUOUS
370
-3
390
F
  0
LAYER
  5
1FE
100
AcDbSymbolTableRecord
100
AcDbLayerTableRecord
  2
COORDINATE
 70
0
 62
7
  6
CONTINUOUS
370
-3
390
F
  0
LAYER
  5
1FF
100
AcDbSymbolTableRecord
100
AcDbLayerTableRecord
  2
COPY_PUBLISH
 70
0
 62
7
  6
CONTINUOUS
370
-3
390
F
  0
LAYER
  5
200
100
AcDbSymbolTableRecord
100
AcDbLayerTableRecord
  2
COSMETICI
 70
0
 62
7
  6
CONTINUOUS
370
-3
390
F
  0
LAYER
  5
201
100
AcDbSymbolTableRecord
100
AcDbLayerTableRecord
  2
CURVE
 70
0
 62
7
  6
CONTINUOUS
370
-3
390
F
  0
LAYER
  5
202
100
AcDbSymbolTableRecord
100
AcDbLayerTableRecord
  2
DRAFT
 70
0
 62
7
  6
CONTINUOUS
370
-3
390
F
  0
LAYER
  5
203
100
AcDbSymbolTableRecord
100
AcDbLayerTableRecord
  2
IMPORT_IGES
 70
0
 62
7
  6
CONTINUOUS
370
-3
390
F
  0
LAYER
  5
204
100
AcDbSymbolTableRecord
100
AcDbLayerTableRecord
  2
NOTE
 70
0
 62
7
  6
CONTINUOUS
370
-3
390
F
  0
LAYER
  5
205
100
AcDbSymbolTableRecord
100
AcDbLayerTableRecord
  2
PIANI
 70
0
 62
7
  6
CONTINUOUS
370
-3
390
F
  0
LAYER
  5
206
100
AcDbSymbolTableRecord
100
AcDbLayerTableRecord
  2
PUNTI
 70
0
 62
7
  6
CONTINUOUS
370
-3
390
F
  0
LAYER
  5
207
100
AcDbSymbolTableRecord
100
AcDbLayerTableRecord
  2
RACCORDO
 70
0
 62
7
  6
CONTINUOUS
370
-3
390
F
  0
LAYER
  5
208
100
AcDbSymbolTableRecord
100
AcDbLayerTableRecord
  2
SIMBOLI
 70
0
 62
7
  6
CONTINUOUS
370
-3
390
F
  0
LAYER
  5
209
100
AcDbSymbolTableRecord
100
AcDbLayerTableRecord
  2
SMUSSO
 70
0
 62
7
  6
CONTINUOUS
370
-3
390
F
  0
LAYER
  5
20A
100
AcDbSymbolTableRecord
100
AcDbLayerTableRecord
  2
SNAPLINE
 70
0
 62
7
  6
CONTINUOUS
370
-3
390
F
  0
LAYER
  5
20B
100
AcDbSymbolTableRecord
100
AcDbLayerTableRecord
  2
SUPERFICI
 70
0
 62
7
  6
CONTINUOUS
370
-3
390
F
  0
LAYER
  5
20C
100
AcDbSymbolTableRecord
100
AcDbLayerTableRecord
  2
TRASH
 70
0
 62
7
  6
CONTINUOUS
370
-3
390
F
  0
ENDTAB
  0
TABLE
  2
STYLE
  5
3
100
AcDbSymbolTable
 70
1
  0
STYLE
  5
11
100
AcDbSymbolTableRecord
100
AcDbTextStyleTableRecord
  2
STANDARD
 70
0
 40
0.0
 41
0.8
 50
0.0
 71
0
 42
0.2
  3
txt
  4

  0
STYLE
  5
20D
100
AcDbSymbolTableRecord
100
AcDbTextStyleTableRecord
  2
TEXTSTYLE_1
 70
0
 40
0.0
 41
0.8
 50
0.0
 71
0
 42
0.2
  3
gdt
  4

  0
ENDTAB
  0
TABLE
  2
VIEW
  5
6
100
AcDbSymbolTable
 70
0
  0
ENDTAB
  0
TABLE
  2
UCS
  5
7
100
AcDbSymbolTable
 70
0
  0
ENDTAB
  0
TABLE
  2
APPID
  5
9
100
AcDbSymbolTable
 70
1
  0
APPID
  5
20E
100
AcDbSymbolTableRecord
100
AcDbRegAppTableRecord
  2
ACAD
 70
0
  0
ENDTAB
  0
TABLE
  2
BLOCK_RECORD
  5
1
100
AcDbSymbolTable
 70
0
  0
BLOCK_RECORD
  5
20F
100
AcDbSymbolTableRecord
100
AcDbBlockTableRecord
  2
*Model_Space
  0
BLOCK_RECORD
  5
210
100
AcDbSymbolTableRecord
100
AcDbBlockTableRecord
  2
*Paper_Space
  0
ENDTAB
  0
TABLE
  2
DIMSTYLE
  5
A
100
AcDbSymbolTable
 70
1
100
AcDbDimStyleTable
 71
0
  0
DIMSTYLE
105
211
100
AcDbSymbolTableRecord
100
AcDbDimStyleTableRecord
  2
STANDARD
 70
0
  3

  4

 40
1.0
 41
3.0
 42
0.5
 43
0.38
 44
1.5
 45
0.0
 46
0.0
 47
0.01
 48
0.01
140
3.0
141
0.09
142
0.0
143
25.4
144
1.0
145
0.0
146
1.0
147
0.625
 71
1.0
 72
0.0
 73
0
 74
0
 75
0
 76
0
 77
1
 78
8
170
0
171
1
172
0
173
0
174
0
175
0
176
0
177
0
178
0
270
2
271
2
272
2
273
2
274
2
275
0
280
0
281
0
282
0
283
1
284
8
285
0
286
0
287
3
288
0
340
11
278
44
  0
ENDTAB
  0
ENDSEC
  0
SECTION
  2
BLOCKS
  0
BLOCK
  5
20
100
AcDbEntity
  8
0
100
AcDbBlockBegin
  2
*Model_Space
 70
0
 10
0.0
 20
0.0
 30
0.0
  3
*Model_Space
  1

  0
ENDBLK
  5
21
100
AcDbEntity
  8
0
100
AcDbBlockEnd
  0
BLOCK
  5
1C
100
AcDbEntity
  8
0
100
AcDbBlockBegin
  2
*Paper_Space
 70
0
 10
0.0
 20
0.0
 30
0.0
  3
*Paper_Space
  1

  0
ENDBLK
  5
1D
100
AcDbEntity
  8
0
100
AcDbBlockEnd
  0
ENDSEC
  0
SECTION
  2
ENTITIES
  0
LWPOLYLINE
  5
212
100
AcDbEntity
  8
IMPORT_IGES
100
AcDbPolyline
 62
7
  6
CONTINUOUS
 90
12
 70
0
 10
-24.5234796725
 20
20.6210884127
 10
-24.5495216173
 20
20.606383511
 10
-24.5753833969
 20
20.5889279937
 10
-24.6001053171
 20
20.5688871553
 10
-24.6232536513
 20
20.5462431349
 10
-24.6445816343
 20
20.520833245
 10
-24.6634121217
 20
20.4930870483
 10
-24.6792459683
 20
20.4635593973
 10
-24.6919288411
 20
20.4324396953
 10
-24.7013158611
 20
20.3998451571
 10
-24.7071764706
 20
20.3662053251
 10
-24.7075634298
 20
20.3596588634
  0
LWPOLYLINE
  5
213
100
AcDbEntity
  8
IMPORT_IGES
100
AcDbPolyline
 62
7
  6
CONTINUOUS
 90
8
 70
0
 10
-24.6634121177
 20
-20.2651731159
 10
-24.6445816294
 20
-20.2929193125
 10
-24.6232536456
 20
-20.3183292021
 10
-24.6001053106
 20
-20.340973222
 10
-24.5753833896
 20
-20.36101406
 10
-24.5495216094
 20
-20.3784695767
 10
-24.5234796644
 20
-20.3931744776
 10
-24.4959722597
 20
-20.4061905919
  0
LWPOLYLINE
  5
214
100
AcDbEntity
  8
IMPORT_IGES
100
AcDbPolyline
 62
253
  6
CONTINUOUS
 90
15
 70
0
 10
-24.4096477018
 20
20.6253324913
 10
-24.4067327737
 20
20.6345384019
 10
-24.3987363885
 20
20.6433402547
 10
-24.3856585464
 20
20.6517503166
 10
-24.3673220413
 20
20.6598224532
 10
-24.3439040793
 20
20.6675250023
 10
-24.3159362782
 20
20.6747471334
 10
-24.2833229247
 20
20.6815078177
 10
-24.2461597321
 20
20.68781959
 10
-24.2052654587
 20
20.6935717092
 10
-24.1606403823
 20
20.6987713677
 10
-24.112284225
 20
20.7034467515
 10
-24.061014912
 20
20.7075245248
 10
-24.0071050848
 20
20.7109914573
 10
-23.9502821018
 20
20.7138911524
  0
LWPOLYLINE
  5
215
100
AcDbEntity
  8
IMPORT_IGES
100
AcDbPolyline
 62
253
  6
CONTINUOUS
 90
6
 70
0
 10
-19.9268490562
 20
20.9039801172
 10
-19.924614107
 20
20.9071374031
 10
-19.9223793026
 20
20.9096959224
 10
-19.920144691
 20
20.9116556203
 10
-19.9179102241
 20
20.9130164552
 10
-19.9156759019
 20
20.913778398
  0
LWPOLYLINE
  5
216
100
AcDbEntity
  8
IMPORT_IGES
100
AcDbPolyline
 62
7
  6
CONTINUOUS
 90
4
 70
0
 10
-20.0957352724
 20
20.854378936
 10
-20.0854873916
 20
20.8620244506
 10
-20.0534115983
 20
20.8806854693
 10
-20.0168017827
 20
20.8963165151
  0
LWPOLYLINE
  5
217
100
AcDbEntity
  8
IMPORT_IGES
100
AcDbPolyline
 62
7
  6
CONTINUOUS
 90
7
 70
0
 10
-24.5218607377
 20
20.6219208249
 10
-24.5479932769
 20
20.6073236579
 10
-24.5739685428
 20
20.5899757618
 10
-24.5988262332
 20
20.5700291415
 10
-24.6221400775
 20
20.5474479583
 10
-24.6436545883
 20
20.5220639099
 10
-24.662669145
 20
20.4943193991
  0
LINE
  5
218
100
AcDbEntity
  8
IMPORT_IGES
100
AcDbLine
 62
7
  6
CONTINUOUS
 10
-24.49597227
 20
20.6341045268
 11
-24.5234796725
 21
20.6210884127
  0
LINE
  5
219
100
AcDbEntity
  8
IMPORT_IGES
100
AcDbLine
 62
7
  6
CONTINUOUS
 10
-24.4699205071
 20
20.6445062811
 11
-24.497653545
 21
20.6333738807
  0
LINE
  5
21A
100
AcDbEntity
  8
IMPORT_IGES
100
AcDbLine
 62
7
  6
CONTINUOUS
 10
-24.4976535377
 20
-20.4054599445
 11
-24.4699204974
 21
-20.4165923453
  0
LWPOLYLINE
  5
21B
100
AcDbEntity
  8
IMPORT_IGES
100
AcDbPolyline
 62
253
  6
CONTINUOUS
 90
7
 70
0
 10
-19.9357890265
 20
-20.6574507434
 10
-19.9408959352
 20
-20.652973279
 10
-19.9525597594
 20
-20.6482555405
 10
-19.9707804989
 20
-20.6433140243
 10
-19.995737328
 20
-20.6381424714
 10
-20.0272510724
 20
-20.6327768238
 10
-20.0647842101
 20
-20.6273074366
  0
LWPOLYLINE
  5
21C
100
AcDbEntity
  8
IMPORT_IGES
100
AcDbPolyline
 62
7
  6
CONTINUOUS
 90
12
 70
0
 10
-24.7075634349
 20
-20.1317448366
 10
-24.7070519887
 20
-20.1393323894
 10
-24.7010584084
 20
-20.1730468949
 10
-24.6915218029
 20
-20.2057009407
 10
-24.678675828
 20
-20.2368611481
 10
-24.6626691337
 20
-20.2664054779
 10
-24.6436545762
 20
-20.2941499861
 10
-24.622140065
 20
-20.319534032
 10
-24.5988262207
 20
-20.3421152129
 10
-24.5739685307
 20
-20.3620618312
 10
-24.5479932653
 20
-20.3794097256
 10
-24.5218607267
 20
-20.3940068911
  0
LINE
  5
21D
100
AcDbEntity
  8
IMPORT_IGES
100
AcDbLine
 62
7
  6
CONTINUOUS
 10
-24.7093730315
 20
-20.1011306238
 11
-24.7071764702
 21
-20.138291389
  0
LINE
  5
21E
100
AcDbEntity
  8
IMPORT_IGES
100
AcDbLine
 62
253
  6
CONTINUOUS
 10
-24.7076608556
 20
-20.1312772731
 11
-24.7093350418
 21
-20.1003198567
  0
LINE
  5
21F
100
AcDbEntity
  8
IMPORT_IGES
100
AcDbLine
 62
253
  6
CONTINUOUS
 10
-24.7093353352
 20
20.3282333725
 11
-24.7077206838
 21
20.3586290138
  0
LWPOLYLINE
  5
220
100
AcDbEntity
  8
IMPORT_IGES
100
AcDbPolyline
 62
7
  6
CONTINUOUS
 90
3
 70
0
 10
-24.7070519922
 20
20.3672463008
 10
-24.7093464526
 20
20.3332068151
 10
-24.709373223
 20
20.3290516631
  0
LWPOLYLINE
  5
221
100
AcDbEntity
  8
IMPORT_IGES
100
AcDbPolyline
 62
253
  6
CONTINUOUS
 90
15
 70
0
 10
-24.7077206838
 20
20.3586290138
 10
-24.7029474227
 20
20.3888151759
 10
-24.6950316681
 20
20.4184670229
 10
-24.6839765417
 20
20.44736701
 10
-24.6698929666
 20
20.475075239
 10
-24.6531095697
 20
20.50098777
 10
-24.6341061556
 20
20.5245999094
 10
-24.6129590094
 20
20.5460214137
 10
-24.5893615967
 20
20.5655149185
 10
-24.5631499663
 20
20.582954093
 10
-24.5348029207
 20
20.5977729667
 10
-24.5049468688
 20
20.6095464636
 10
-24.4740427796
 20
20.6180878001
 10
-24.4423174934
 20
20.6233283214
 10
-24.4101312457
 20
20.6251822073
  0
LWPOLYLINE
  5
222
100
AcDbEntity
  8
IMPORT_IGES
100
AcDbPolyline
 62
253
  6
CONTINUOUS
 90
5
 70
0
 10
-19.9357887126
 20
20.8853648502
 10
-19.9335538099
 20
20.8909163993
 10
-19.9313189076
 20
20.8958695286
 10
-19.9290840057
 20
20.9002241323
 10
-19.9268490562
 20
20.9039801172
  0
LWPOLYLINE
  5
223
100
AcDbEntity
  8
IMPORT_IGES
100
AcDbPolyline
 62
253
  6
CONTINUOUS
 90
5
 70
0
 10
-20.0537836825
 20
20.8609301266
 10
-20.0319337387
 20
20.8696280301
 10
-20.0007762542
 20
20.87829757
 10
-19.9686057446
 20
20.8835916426
 10
-19.9357887126
 20
20.8853648304
  0
LINE
  5
224
100
AcDbEntity
  8
IMPORT_IGES
100
AcDbLine
 62
7
  6
CONTINUOUS
 10
-24.443386747
 20
20.6535439929
 11
-24.4716550544
 21
20.6438642962
  0
LINE
  5
225
100
AcDbEntity
  8
IMPORT_IGES
100
AcDbLine
 62
7
  6
CONTINUOUS
 10
-24.4162735568
 20
20.6614668733
 11
-24.4451965395
 21
20.6529709559
  0
LINE
  5
226
100
AcDbEntity
  8
IMPORT_IGES
100
AcDbLine
 62
7
  6
CONTINUOUS
 10
-24.4181887475
 20
-20.4330323018
 11
-24.3882110937
 21
-20.4406305889
  0
LINE
  5
227
100
AcDbEntity
  8
IMPORT_IGES
100
AcDbLine
 62
7
  6
CONTINUOUS
 10
-24.4451965347
 20
-20.425057018
 11
-24.4162735481
 21
-20.4335529362
  0
LWPOLYLINE
  5
228
100
AcDbEntity
  8
IMPORT_IGES
100
AcDbPolyline
 62
253
  6
CONTINUOUS
 90
9
 70
0
 10
-19.9156719863
 20
-20.6858644583
 10
-19.9179077423
 20
-20.6851025158
 10
-19.9201433998
 20
-20.6837416822
 10
-19.9223789588
 20
-20.6817819865
 10
-19.9246144643
 20
-20.6792234747
 10
-19.9268498712
 20
-20.6760661993
 10
-19.9290850444
 20
-20.6723102113
 10
-19.9313199388
 20
-20.6679555776
 10
-19.9335545995
 20
-20.6630023888
  0
LINE
  5
229
100
AcDbEntity
  8
IMPORT_IGES
100
AcDbLine
 62
7
  6
CONTINUOUS
 10
-24.4716550485
 20
-20.415950359
 11
-24.443386738
 21
-20.4256300564
  0
LWPOLYLINE
  5
22A
100
AcDbEntity
  8
IMPORT_IGES
100
AcDbPolyline
 62
7
  6
CONTINUOUS
 90
4
 70
0
 10
-20.0168115657
 20
-20.6683991243
 10
-20.0534299799
 20
-20.6527622532
 10
-20.0855128423
 20
-20.6340936177
 10
-20.0957324874
 20
-20.6264673395
  0
LINE
  5
22B
100
AcDbEntity
  8
IMPORT_IGES
100
AcDbLine
 62
253
  6
CONTINUOUS
 10
-19.9335545995
 20
-20.6630023888
 11
-19.9357890265
 21
-20.6574507434
  0
LWPOLYLINE
  5
22C
100
AcDbEntity
  8
IMPORT_IGES
100
AcDbPolyline
 62
253
  6
CONTINUOUS
 90
16
 70
0
 10
-24.5534420661
 20
-9.7347266228
 10
-24.5516103524
 20
-9.7538770961
 10
-24.5465552638
 20
-9.7728425123
 10
-24.5383205052
 20
-9.7914167915
 10
-24.5269797074
 20
-9.8094036211
 10
-24.512648295
 20
-9.826597922
 10
-24.4954935601
 20
-9.8427915029
 10
-24.4757103512
 20
-9.857802516
 10
-24.4535080088
 20
-9.8714739247
 10
-24.429128192
 20
-9.8836569239
 10
-24.4028494837
 20
-9.8942141794
 10
-24.3749462709
 20
-9.9030372001
 10
-24.3456784402
 20
-9.9100388877
 10
-24.3153451628
 20
-9.915136695
 10
-24.2842887912
 20
-9.9182624573
 10
-24.2528481063
 20
-9.919373151
  0
LINE
  5
22D
100
AcDbEntity
  8
IMPORT_IGES
100
AcDbLine
 62
7
  6
CONTINUOUS
 10
-24.7088501347
 20
19.3001510583
 11
-24.7088188335
 21
19.2996164396
  0
LWPOLYLINE
  5
22E
100
AcDbEntity
  8
IMPORT_IGES
100
AcDbPolyline
 62
253
  6
CONTINUOUS
 90
4
 70
0
 10
-24.7093355329
 20
20.3282299614
 10
-24.7006374368
 20
20.1652323322
 10
-24.6920192651
 20
19.9667668812
 10
-24.6834810178
 20
19.7328336084
  0
LWPOLYLINE
  5
22F
100
AcDbEntity
  8
IMPORT_IGES
100
AcDbPolyline
 62
7
  6
CONTINUOUS
 90
4
 70
0
 10
-24.7088382915
 20
19.2999467911
 10
-24.7013869339
 20
19.1570545299
 10
-24.6932889712
 20
18.9686263212
 10
-24.6851985954
 20
18.7454069949
  0
LINE
  5
230
100
AcDbEntity
  8
IMPORT_IGES
100
AcDbLine
 62
253
  6
CONTINUOUS
 10
-24.7084190142
 20
19.3001733167
 11
-24.7093355329
 21
19.3179253094
  0
LINE
  5
231
100
AcDbEntity
  8
IMPORT_IGES
100
AcDbLine
 62
253
  6
CONTINUOUS
 10
-24.7093357515
 20
20.3282325216
 11
-24.7093736919
 21
20.3290700132
  0
LINE
  5
232
100
AcDbEntity
  8
IMPORT_IGES
100
AcDbLine
 62
253
  6
CONTINUOUS
 10
-24.6927784729
 20
18.9620715787
 11
-24.6932889712
 21
18.9686263212
  0
LINE
  5
233
100
AcDbEntity
  8
IMPORT_IGES
100
AcDbLine
 62
253
  6
CONTINUOUS
 10
-24.7093738284
 20
19.3187463641
 11
-24.7093357515
 21
19.3178336625
  0
LWPOLYLINE
  5
234
100
AcDbEntity
  8
IMPORT_IGES
100
AcDbPolyline
 62
7
  6
CONTINUOUS
 90
4
 70
0
 10
-24.3836285225
 20
20.0233232071
 10
-24.3922185842
 20
20.2602787772
 10
-24.4008916439
 20
20.4610413813
 10
-24.4096477018
 20
20.6253324913
  0
LINE
  5
235
100
AcDbEntity
  8
IMPORT_IGES
100
AcDbLine
 62
253
  6
CONTINUOUS
 10
-24.6846160032
 20
18.733651027
 11
-24.6851985954
 21
18.7454069949
  0
LINE
  5
236
100
AcDbEntity
  8
IMPORT_IGES
100
AcDbLine
 62
7
  6
CONTINUOUS
 10
-24.70937281
 20
19.3187478703
 11
-24.7088501347
 21
19.3001510583
  0
LINE
  5
237
100
AcDbEntity
  8
IMPORT_IGES
100
AcDbLine
 62
7
  6
CONTINUOUS
 10
-24.6851985954
 20
18.7454069949
 11
-24.6691174587
 21
18.1945719095
  0
LINE
  5
238
100
AcDbEntity
  8
IMPORT_IGES
100
AcDbLine
 62
253
  6
CONTINUOUS
 10
-24.6834810178
 20
19.7328336084
 11
-24.6666221165
 21
19.1577575755
  0
LINE
  5
239
100
AcDbEntity
  8
IMPORT_IGES
100
AcDbLine
 62
7
  6
CONTINUOUS
 10
-24.3666757566
 20
19.4422104547
 11
-24.3836285225
 21
20.0233232071
  0
LINE
  5
23A
100
AcDbEntity
  8
IMPORT_IGES
100
AcDbLine
 62
7
  6
CONTINUOUS
 10
-24.6691174587
 20
18.1945719095
 11
-24.6533297729
 21
17.5074935522
  0
LINE
  5
23B
100
AcDbEntity
  8
IMPORT_IGES
100
AcDbLine
 62
253
  6
CONTINUOUS
 10
-24.6666221165
 20
19.1577575755
 11
-24.6501831735
 21
18.4443011895
  0
LINE
  5
23C
100
AcDbEntity
  8
IMPORT_IGES
100
AcDbLine
 62
7
  6
CONTINUOUS
 10
-24.3501524801
 20
18.7207130868
 11
-24.3666757566
 21
19.4422104547
  0
LINE
  5
23D
100
AcDbEntity
  8
IMPORT_IGES
100
AcDbLine
 62
253
  6
CONTINUOUS
 10
-24.637547806
 20
16.6666143874
 11
-24.6379543149
 21
16.687195564
  0
LINE
  5
23E
100
AcDbEntity
  8
IMPORT_IGES
100
AcDbLine
 62
7
  6
CONTINUOUS
 10
-24.6533297729
 20
17.5074935522
 11
-24.6379543149
 21
16.687195564
  0
LINE
  5
23F
100
AcDbEntity
  8
IMPORT_IGES
100
AcDbLine
 62
253
  6
CONTINUOUS
 10
-24.6501831735
 20
18.4443011895
 11
-24.6342293713
 21
17.5952910162
  0
LINE
  5
240
100
AcDbEntity
  8
IMPORT_IGES
100
AcDbLine
 62
7
  6
CONTINUOUS
 10
-24.3263304481
 20
17.3837350206
 11
-24.3501524801
 21
18.7207130868
  0
LINE
  5
241
100
AcDbEntity
  8
IMPORT_IGES
100
AcDbLine
 62
7
  6
CONTINUOUS
 10
-24.6379543149
 20
16.687195564
 11
-24.623101127
 21
15.7380149741
  0
LINE
  5
242
100
AcDbEntity
  8
IMPORT_IGES
100
AcDbLine
 62
253
  6
CONTINUOUS
 10
-24.6342293713
 20
17.5952910162
 11
-24.6188571498
 21
16.615456249
  0
LINE
  5
243
100
AcDbEntity
  8
IMPORT_IGES
100
AcDbLine
 62
7
  6
CONTINUOUS
 10
-24.3039288917
 20
15.7555154684
 11
-24.3263304481
 21
17.3837350206
  0
LINE
  5
244
100
AcDbEntity
  8
IMPORT_IGES
100
AcDbLine
 62
253
  6
CONTINUOUS
 10
-24.6188571498
 20
16.615456249
 11
-24.597069608
 21
14.9126924277
  0
LINE
  5
245
100
AcDbEntity
  8
IMPORT_IGES
100
AcDbLine
 62
7
  6
CONTINUOUS
 10
-24.623101127
 20
15.7380149741
 11
-24.6020151541
 21
14.0844867249
  0
LINE
  5
246
100
AcDbEntity
  8
IMPORT_IGES
100
AcDbLine
 62
253
  6
CONTINUOUS
 10
-24.6020151541
 20
14.0844867249
 11
-24.6088702362
 21
14.6653451038
  0
LINE
  5
247
100
AcDbEntity
  8
IMPORT_IGES
100
AcDbLine
 62
7
  6
CONTINUOUS
 10
-24.6020151541
 20
14.0844867249
 11
-24.582631086
 21
12.1756133774
  0
LINE
  5
248
100
AcDbEntity
  8
IMPORT_IGES
100
AcDbLine
 62
253
  6
CONTINUOUS
 10
-24.597069608
 20
14.9126924277
 11
-24.5770292342
 21
12.947935742
  0
LINE
  5
249
100
AcDbEntity
  8
IMPORT_IGES
100
AcDbLine
 62
7
  6
CONTINUOUS
 10
-24.27672233
 20
13.1654838117
 11
-24.3039288917
 21
15.7555154684
  0
LINE
  5
24A
100
AcDbEntity
  8
IMPORT_IGES
100
AcDbLine
 62
253
  6
CONTINUOUS
 10
-24.582631086
 20
12.1756133774
 11
-24.582884296
 21
12.2054543816
  0
LINE
  5
24B
100
AcDbEntity
  8
IMPORT_IGES
100
AcDbLine
 62
253
  6
CONTINUOUS
 10
-24.5770292342
 20
12.947935742
 11
-24.5590035369
 21
10.7483900596
  0
LINE
  5
24C
100
AcDbEntity
  8
IMPORT_IGES
100
AcDbLine
 62
7
  6
CONTINUOUS
 10
-24.582631086
 20
12.1756133774
 11
-24.5646959991
 21
9.9648644564
  0
LINE
  5
24D
100
AcDbEntity
  8
IMPORT_IGES
100
AcDbLine
 62
253
  6
CONTINUOUS
 10
-24.5646959991
 20
9.9648644564
 11
-24.5647580452
 21
9.9736619481
  0
LINE
  5
24E
100
AcDbEntity
  8
IMPORT_IGES
100
AcDbLine
 62
7
  6
CONTINUOUS
 10
-24.2523621557
 20
9.9909299967
 11
-24.27672233
 21
13.1654838117
  0
LINE
  5
24F
100
AcDbEntity
  8
IMPORT_IGES
100
AcDbLine
 62
253
  6
CONTINUOUS
 10
-24.5590035369
 20
10.7483900596
 11
-24.5503694221
 21
9.3681640285
  0
LINE
  5
250
100
AcDbEntity
  8
IMPORT_IGES
100
AcDbLine
 62
7
  6
CONTINUOUS
 10
-24.5646959991
 20
9.9648644564
 11
-24.5577438078
 21
8.7660187903
  0
LINE
  5
251
100
AcDbEntity
  8
IMPORT_IGES
100
AcDbLine
 62
7
  6
CONTINUOUS
 10
-24.2467657136
 20
8.5540592844
 11
-24.2523621557
 21
9.9909299967
  0
LINE
  5
252
100
AcDbEntity
  8
IMPORT_IGES
100
AcDbLine
 62
253
  6
CONTINUOUS
 10
-24.5603222663
 20
-9.1188007635
 11
-24.5603251477
 21
-9.1172436611
  0
LINE
  5
253
100
AcDbEntity
  8
IMPORT_IGES
100
AcDbLine
 62
253
  6
CONTINUOUS
 10
-24.5503694221
 20
9.3681640285
 11
-24.5473077479
 21
6.6589605465
  0
LINE
  5
254
100
AcDbEntity
  8
IMPORT_IGES
100
AcDbLine
 62
7
  6
CONTINUOUS
 10
-24.5545012032
 20
2.8937492939
 11
-24.5577438078
 21
8.7660187903
  0
LINE
  5
255
100
AcDbEntity
  8
IMPORT_IGES
100
AcDbLine
 62
253
  6
CONTINUOUS
 10
-24.5473077479
 20
6.6589605465
 11
-24.5454694717
 21
1.0536345803
  0
LINE
  5
256
100
AcDbEntity
  8
IMPORT_IGES
100
AcDbLine
 62
7
  6
CONTINUOUS
 10
-24.7093738284
 20
20.3291231605
 11
-24.7093738284
 21
19.3187463641
  0
LINE
  5
257
100
AcDbEntity
  8
IMPORT_IGES
100
AcDbLine
 62
7
  6
CONTINUOUS
 10
-24.7093738284
 20
-19.090830294
 11
-24.7093738284
 21
-20.1011969388
  0
LINE
  5
258
100
AcDbEntity
  8
IMPORT_IGES
100
AcDbLine
 62
7
  6
CONTINUOUS
 10
-24.2461797761
 20
-8.3261458382
 11
-24.2461797761
 21
8.5540592844
  0
LINE
  5
259
100
AcDbEntity
  8
IMPORT_IGES
100
AcDbLine
 62
253
  6
CONTINUOUS
 10
-24.5603234058
 20
9.3464359523
 11
-24.5603234939
 21
9.3448890325
  0
LINE
  5
25A
100
AcDbEntity
  8
IMPORT_IGES
100
AcDbLine
 62
253
  6
CONTINUOUS
 10
-24.5454694717
 20
1.0536345803
 11
-24.546386227
 21
-4.557792299
  0
LINE
  5
25B
100
AcDbEntity
  8
IMPORT_IGES
100
AcDbLine
 62
7
  6
CONTINUOUS
 10
-24.5545012032
 20
2.8937492939
 11
-24.5573429391
 21
-8.3254587615
  0
LINE
  5
25C
100
AcDbEntity
  8
IMPORT_IGES
100
AcDbLine
 62
253
  6
CONTINUOUS
 10
-24.546386227
 20
-4.557792299
 11
-24.5498090016
 21
-8.9766234935
  0
LINE
  5
25D
100
AcDbEntity
  8
IMPORT_IGES
100
AcDbLine
 62
7
  6
CONTINUOUS
 10
-24.2530360249
 20
-9.919371942
 11
-24.2467714568
 21
-8.3261454907
  0
LINE
  5
25E
100
AcDbEntity
  8
IMPORT_IGES
100
AcDbLine
 62
7
  6
CONTINUOUS
 10
-24.5573429391
 20
-8.3254587615
 11
-24.5597542176
 21
-9.0297014234
  0
LINE
  5
25F
100
AcDbEntity
  8
IMPORT_IGES
100
AcDbLine
 62
253
  6
CONTINUOUS
 10
-24.5498090016
 20
-8.9766234935
 11
-24.553462482
 21
-9.7374715978
  0
LINE
  5
260
100
AcDbEntity
  8
IMPORT_IGES
100
AcDbLine
 62
7
  6
CONTINUOUS
 10
-24.5597542176
 20
-9.0297014234
 11
-24.5766356924
 21
-11.264028075
  0
LINE
  5
261
100
AcDbEntity
  8
IMPORT_IGES
100
AcDbLine
 62
253
  6
CONTINUOUS
 10
-24.553462482
 20
-9.7374715978
 11
-24.5707910729
 21
-12.0123625468
  0
LINE
  5
262
100
AcDbEntity
  8
IMPORT_IGES
100
AcDbLine
 62
7
  6
CONTINUOUS
 10
-24.2835105867
 20
-13.6274717145
 11
-24.2533232759
 21
-9.919371942
  0
LINE
  5
263
100
AcDbEntity
  8
IMPORT_IGES
100
AcDbLine
 62
7
  6
CONTINUOUS
 10
-24.5766356924
 20
-11.264028075
 11
-24.5953936967
 21
-13.2514809647
  0
LINE
  5
264
100
AcDbEntity
  8
IMPORT_IGES
100
AcDbLine
 62
253
  6
CONTINUOUS
 10
-24.5707910729
 20
-12.0123625468
 11
-24.590192954
 21
-14.058907548
  0
LINE
  5
265
100
AcDbEntity
  8
IMPORT_IGES
100
AcDbLine
 62
7
  6
CONTINUOUS
 10
-24.5953936967
 20
-13.2514809647
 11
-24.6159477429
 21
-14.992273786
  0
LINE
  5
266
100
AcDbEntity
  8
IMPORT_IGES
100
AcDbLine
 62
7
  6
CONTINUOUS
 10
-24.3115404736
 20
-16.1014993231
 11
-24.2835105867
 21
-13.6274717145
  0
LINE
  5
267
100
AcDbEntity
  8
IMPORT_IGES
100
AcDbLine
 62
253
  6
CONTINUOUS
 10
-24.590192954
 20
-14.058907548
 11
-24.6114249276
 21
-15.8511204922
  0
LINE
  5
268
100
AcDbEntity
  8
IMPORT_IGES
100
AcDbLine
 62
253
  6
CONTINUOUS
 10
-24.6159477429
 20
-14.992273786
 11
-24.615751876
 21
-14.9802139063
  0
LINE
  5
269
100
AcDbEntity
  8
IMPORT_IGES
100
AcDbLine
 62
7
  6
CONTINUOUS
 10
-24.6159477429
 20
-14.992273786
 11
-24.6305046666
 21
-16.0035992474
  0
LINE
  5
26A
100
AcDbEntity
  8
IMPORT_IGES
100
AcDbLine
 62
253
  6
CONTINUOUS
 10
-24.6114249276
 20
-15.8511204922
 11
-24.6264759811
 21
-16.894112857
  0
LINE
  5
26B
100
AcDbEntity
  8
IMPORT_IGES
100
AcDbLine
 62
7
  6
CONTINUOUS
 10
-24.3344487162
 20
-17.6346172569
 11
-24.3115404736
 21
-16.1014993231
  0
LINE
  5
26C
100
AcDbEntity
  8
IMPORT_IGES
100
AcDbLine
 62
7
  6
CONTINUOUS
 10
-24.6305046666
 20
-16.0035992474
 11
-24.6456319874
 21
-16.8884307215
  0
LINE
  5
26D
100
AcDbEntity
  8
IMPORT_IGES
100
AcDbLine
 62
253
  6
CONTINUOUS
 10
-24.6264759811
 20
-16.894112857
 11
-24.6421381101
 21
-17.8084332395
  0
LINE
  5
26E
100
AcDbEntity
  8
IMPORT_IGES
100
AcDbLine
 62
253
  6
CONTINUOUS
 10
-24.6456319874
 20
-16.8884307215
 11
-24.6451010296
 21
-16.8634689232
  0
LINE
  5
26F
100
AcDbEntity
  8
IMPORT_IGES
100
AcDbLine
 62
7
  6
CONTINUOUS
 10
-24.7090765439
 20
-19.0767191828
 11
-24.7093730103
 21
-19.0908378032
  0
LINE
  5
270
100
AcDbEntity
  8
IMPORT_IGES
100
AcDbLine
 62
7
  6
CONTINUOUS
 10
-24.3586698629
 20
-18.8708029889
 11
-24.3344487162
 21
-17.6346172569
  0
LINE
  5
271
100
AcDbEntity
  8
IMPORT_IGES
100
AcDbLine
 62
7
  6
CONTINUOUS
 10
-24.6456319874
 20
-16.8884307215
 11
-24.6612301531
 21
-17.6422052104
  0
LINE
  5
272
100
AcDbEntity
  8
IMPORT_IGES
100
AcDbLine
 62
253
  6
CONTINUOUS
 10
-24.6421381101
 20
-17.8084332395
 11
-24.6583492313
 21
-18.590458126
  0
LINE
  5
273
100
AcDbEntity
  8
IMPORT_IGES
100
AcDbLine
 62
253
  6
CONTINUOUS
 10
-24.6612301531
 20
-17.6422052104
 11
-24.6605930466
 21
-17.6185156912
  0
LINE
  5
274
100
AcDbEntity
  8
IMPORT_IGES
100
AcDbLine
 62
253
  6
CONTINUOUS
 10
-24.7093334691
 20
-19.0903703219
 11
-24.7088694364
 21
-19.0725754142
  0
LWPOLYLINE
  5
275
100
AcDbEntity
  8
IMPORT_IGES
100
AcDbPolyline
 62
7
  6
CONTINUOUS
 90
6
 70
0
 10
-24.6612301531
 20
-17.6422052104
 10
-24.6771877211
 20
-18.2612498285
 10
-24.6852538338
 20
-18.5191363931
 10
-24.6933445976
 20
-18.7421285902
 10
-24.7014428111
 20
-18.9303232659
 10
-24.7090765439
 20
-19.0767191828
  0
LWPOLYLINE
  5
276
100
AcDbEntity
  8
IMPORT_IGES
100
AcDbPolyline
 62
253
  6
CONTINUOUS
 90
6
 70
0
 10
-24.6583492313
 20
-18.590458126
 10
-24.6750139548
 20
-19.2351936673
 10
-24.6834828114
 20
-19.5049711921
 10
-24.6920204871
 20
-19.7388826735
 10
-24.7006380706
 20
-19.9373310513
 10
-24.709335562
 20
-20.1003163254
  0
LINE
  5
277
100
AcDbEntity
  8
IMPORT_IGES
100
AcDbLine
 62
253
  6
CONTINUOUS
 10
-24.6771877211
 20
-18.2612498285
 11
-24.6765206176
 21
-18.2432790124
  0
LINE
  5
278
100
AcDbEntity
  8
IMPORT_IGES
100
AcDbLine
 62
253
  6
CONTINUOUS
 10
-24.6852538338
 20
-18.5191363931
 11
-24.6846161185
 21
-18.5057448384
  0
LINE
  5
279
100
AcDbEntity
  8
IMPORT_IGES
100
AcDbLine
 62
253
  6
CONTINUOUS
 10
-24.7093357515
 20
-19.0899214555
 11
-24.7093738284
 21
-19.090830294
  0
LINE
  5
27A
100
AcDbEntity
  8
IMPORT_IGES
100
AcDbLine
 62
253
  6
CONTINUOUS
 10
-24.6933445976
 20
-18.7421285902
 11
-24.6927785584
 21
-18.7341632291
  0
LINE
  5
27B
100
AcDbEntity
  8
IMPORT_IGES
100
AcDbLine
 62
253
  6
CONTINUOUS
 10
-24.7093736777
 20
-20.1011131074
 11
-24.7093357515
 21
-20.1002718037
  0
LINE
  5
27C
100
AcDbEntity
  8
IMPORT_IGES
100
AcDbLine
 62
253
  6
CONTINUOUS
 10
-24.709335562
 20
-19.0900130231
 11
-24.7090765439
 21
-19.0767191828
  0
LINE
  5
27D
100
AcDbEntity
  8
IMPORT_IGES
100
AcDbLine
 62
7
  6
CONTINUOUS
 10
-24.7088694364
 20
-19.0725754142
 11
-24.7088378931
 21
-19.0720260238
  0
LWPOLYLINE
  5
27E
100
AcDbEntity
  8
IMPORT_IGES
100
AcDbPolyline
 62
253
  6
CONTINUOUS
 90
16
 70
0
 10
-24.5534444855
 20
9.9624441342
 10
-24.5516121399
 20
9.9817835177
 10
-24.5465080147
 20
10.0008909656
 10
-24.5381990979
 20
10.0195578576
 10
-24.5267919599
 20
10.037574909
 10
-24.5124189246
 20
10.0547550117
 10
-24.4952253532
 20
10.0709318466
 10
-24.475390544
 20
10.085934648
 10
-24.4531366697
 20
10.0995935717
 10
-24.428706293
 20
10.1117597382
 10
-24.4023499491
 20
10.1223061484
 10
-24.3743687898
 20
10.1311102247
 10
-24.3451199864
 20
10.1380654402
 10
-24.3149453877
 20
10.1431035335
 10
-24.2841593348
 20
10.1461845962
 10
-24.253096506
 20
10.1472856599
  0
LWPOLYLINE
  5
27F
100
AcDbEntity
  8
IMPORT_IGES
100
AcDbPolyline
 62
253
  6
CONTINUOUS
 90
16
 70
0
 10
-24.548534972
 20
8.5287391241
 10
-24.546666476
 20
8.5313504158
 10
-24.5415983229
 20
8.5339418429
 10
-24.533355379
 20
8.5364852088
 10
-24.5219844548
 20
8.5389548917
 10
-24.5075881527
 20
8.5413204427
 10
-24.4903544989
 20
8.543548187
 10
-24.4704939268
 20
8.545611697
 10
-24.4482072835
 20
8.5474907755
 10
-24.4237381806
 20
8.5491648827
 10
-24.3973918347
 20
8.5506138711
 10
-24.3694229856
 20
8.5518244117
 10
-24.3400123001
 20
8.5527867586
 10
-24.309425997
 20
8.5534878949
 10
-24.2780333353
 20
8.5539151737
 10
-24.2461798515
 20
8.5540603692
  0
LINE
  5
280
100
AcDbEntity
  8
IMPORT_IGES
100
AcDbLine
 62
7
  6
CONTINUOUS
 10
-24.2965829786
 20
-20.4581535225
 11
-24.2585040761
 21
-20.4636663655
  0
LINE
  5
281
100
AcDbEntity
  8
IMPORT_IGES
100
AcDbLine
 62
7
  6
CONTINUOUS
 10
-24.3296287427
 20
-20.4526310798
 11
-24.293963018
 21
-20.4585606035
  0
LINE
  5
282
100
AcDbEntity
  8
IMPORT_IGES
100
AcDbLine
 62
7
  6
CONTINUOUS
 10
-24.3607982191
 20
-20.4466512114
 11
-24.3272444242
 21
-20.453059046
  0
LINE
  5
283
100
AcDbEntity
  8
IMPORT_IGES
100
AcDbLine
 62
7
  6
CONTINUOUS
 10
-24.3902515017
 20
-20.4401501175
 11
-24.3586079199
 21
-20.4471021511
  0
LINE
  5
284
100
AcDbEntity
  8
IMPORT_IGES
100
AcDbLine
 62
7
  6
CONTINUOUS
 10
-19.9765015085
 20
-20.6796343241
 11
-20.0168115657
 21
-20.6683991243
  0
LWPOLYLINE
  5
285
100
AcDbEntity
  8
IMPORT_IGES
100
AcDbPolyline
 62
253
  6
CONTINUOUS
 90
16
 70
0
 10
-24.5485377007
 20
-8.3007962672
 10
-24.5466419885
 20
-8.303454552
 10
-24.5414603882
 20
-8.3060806684
 10
-24.5330616944
 20
-8.3086458218
 10
-24.5215548749
 20
-8.3111210906
 10
-24.5070743382
 20
-8.3134807342
 10
-24.4897664857
 20
-8.3157019744
 10
-24.4698121114
 20
-8.3177613079
 10
-24.4474359921
 20
-8.3196352765
 10
-24.4228830334
 20
-8.3213033695
 10
-24.3964029007
 20
-8.3227482555
 10
-24.3683022265
 20
-8.3239528598
 10
-24.3389516847
 20
-8.3249022623
 10
-24.3087002906
 20
-8.3255873314
 10
-24.277861435
 20
-8.3260030531
 10
-24.2467714778
 20
-8.3261466369
  0
LWPOLYLINE
  5
286
100
AcDbEntity
  8
IMPORT_IGES
100
AcDbPolyline
 62
7
  6
CONTINUOUS
 90
6
 70
0
 10
-24.409884881
 20
-20.3972232534
 10
-24.4011479887
 20
-20.2329690488
 10
-24.3924915188
 20
-20.0322529534
 10
-24.3839154713
 20
-19.7953408305
 10
-24.3754087106
 20
-19.5225464822
 10
-24.3586698629
 20
-18.8708029889
  0
LWPOLYLINE
  5
287
100
AcDbEntity
  8
IMPORT_IGES
100
AcDbPolyline
 62
253
  6
CONTINUOUS
 90
22
 70
0
 10
23.1517217
 20
-20.6799013399
 10
23.2457383783
 20
-20.6764066661
 10
23.338906271
 20
-20.6661730989
 10
23.4307493337
 20
-20.6493302012
 10
23.5207023425
 20
-20.6260713767
 10
23.6084332802
 20
-20.5965732701
 10
23.6938203953
 20
-20.5609198992
 10
23.7765241275
 20
-20.5192472776
 10
23.8560303161
 20
-20.4718085175
 10
23.9319529863
 20
-20.418838357
 10
24.0039082509
 20
-20.3606069366
 10
24.0715324432
 20
-20.2974109967
 10
24.1344957066
 20
-20.2295587924
 10
24.1924773943
 20
-20.1573930818
 10
24.2451820243
 20
-20.0812786043
 10
24.2923492922
 20
-20.0015845877
 10
24.3337342581
 20
-19.9187139649
 10
24.369122486
 20
-19.833083679
 10
24.3983352225
 20
-19.7451049635
 10
24.4212154696
 20
-19.6552146219
 10
24.4376338613
 20
-19.5638748532
 10
24.4474963057
 20
-19.471549423
  0
LINE
  5
288
100
AcDbEntity
  8
IMPORT_IGES
100
AcDbLine
 62
253
  6
CONTINUOUS
 10
-20.7253275768
 20
-20.5785610286
 11
-20.7340877133
 21
-20.5796235003
  0
LINE
  5
289
100
AcDbEntity
  8
IMPORT_IGES
100
AcDbLine
 62
253
  6
CONTINUOUS
 10
-20.8066983565
 20
-20.5770997738
 11
-20.8109431242
 21
-20.5756139723
  0
LINE
  5
28A
100
AcDbEntity
  8
IMPORT_IGES
100
AcDbLine
 62
7
  6
CONTINUOUS
 10
-20.8066983565
 20
-20.5770997738
 11
-20.7340877133
 21
-20.5796235003
  0
LINE
  5
28B
100
AcDbEntity
  8
IMPORT_IGES
100
AcDbLine
 62
7
  6
CONTINUOUS
 10
-23.950226692
 20
-20.4884478274
 11
-23.8999965728
 21
-20.4902908538
  0
LINE
  5
28C
100
AcDbEntity
  8
IMPORT_IGES
100
AcDbLine
 62
253
  6
CONTINUOUS
 10
-23.8905474231
 20
-20.4883212108
 11
-23.9497834002
 21
-20.4860046235
  0
LINE
  5
28D
100
AcDbEntity
  8
IMPORT_IGES
100
AcDbLine
 62
7
  6
CONTINUOUS
 10
-20.7340877133
 20
-20.5796235003
 11
-20.6641032551
 21
-20.582463844
  0
LINE
  5
28E
100
AcDbEntity
  8
IMPORT_IGES
100
AcDbLine
 62
7
  6
CONTINUOUS
 10
-24.0013482964
 20
-20.4860652329
 11
-23.947844895
 21
-20.4885352195
  0
LINE
  5
28F
100
AcDbEntity
  8
IMPORT_IGES
100
AcDbLine
 62
7
  6
CONTINUOUS
 10
-20.6641032551
 20
-20.582463844
 11
-20.5970436684
 21
-20.585583286
  0
LWPOLYLINE
  5
290
100
AcDbEntity
  8
IMPORT_IGES
100
AcDbPolyline
 62
253
  6
CONTINUOUS
 90
15
 70
0
 10
-23.9497834002
 20
-20.4860046235
 10
-24.0061888785
 20
-20.4831359522
 10
-24.0597638579
 20
-20.4797037692
 10
-24.1107817404
 20
-20.4756660896
 10
-24.1589691241
 20
-20.4710350156
 10
-24.2035058031
 20
-20.4658798286
 10
-24.2443895047
 20
-20.4601771799
 10
-24.2816225015
 20
-20.4539153655
 10
-24.314391406
 20
-20.4471860797
 10
-24.3426379498
 20
-20.4399782349
 10
-24.3664204013
 20
-20.4322698059
 10
-24.3851001783
 20
-20.4241436964
 10
-24.3984644203
 20
-20.4156201284
 10
-24.4067259878
 20
-20.4066516106
 10
-24.409884881
 20
-20.3972232534
  0
LWPOLYLINE
  5
291
100
AcDbEntity
  8
IMPORT_IGES
100
AcDbPolyline
 62
253
  6
CONTINUOUS
 90
5
 70
0
 10
-19.9357889619
 20
-20.6574509046
 10
-19.9673309957
 20
-20.6558141448
 10
-19.9982083955
 20
-20.6509392294
 10
-20.02810139
 20
-20.642978122
 10
-20.0548650073
 20
-20.6328246707
  0
LINE
  5
292
100
AcDbEntity
  8
IMPORT_IGES
100
AcDbLine
 62
7
  6
CONTINUOUS
 10
-20.5970436684
 20
-20.585583286
 11
-20.53314528
 21
-20.5889413721
  0
LWPOLYLINE
  5
293
100
AcDbEntity
  8
IMPORT_IGES
100
AcDbPolyline
 62
253
  6
CONTINUOUS
 90
3
 70
0
 10
-20.53314528
 20
-20.5889413721
 10
-20.561243185
 20
-20.5859535472
 10
-20.5646885744
 20
-20.5872352083
  0
LWPOLYLINE
  5
294
100
AcDbEntity
  8
IMPORT_IGES
100
AcDbPolyline
 62
7
  6
CONTINUOUS
 90
3
 70
0
 10
-19.9156728787
 20
-20.6858642943
 10
-19.9475908006
 20
-20.684072466
 10
-19.9764935193
 20
-20.6795953269
  0
LWPOLYLINE
  5
295
100
AcDbEntity
  8
IMPORT_IGES
100
AcDbPolyline
 62
253
  6
CONTINUOUS
 90
15
 70
0
 10
-24.4104293563
 20
-20.397222654
 10
-24.4414826599
 20
-20.3954776537
 10
-24.4722497061
 20
-20.3905475708
 10
-24.5023955318
 20
-20.3824672494
 10
-24.5316071108
 20
-20.3712980804
 10
-24.5595398867
 20
-20.3571484639
 10
-24.5858310361
 20
-20.3401916937
 10
-24.6101782147
 20
-20.3206264895
 10
-24.6323331038
 20
-20.2986564113
 10
-24.6520538593
 20
-20.2745212856
 10
-24.6691260947
 20
-20.2484830529
 10
-24.6833622422
 20
-20.2208272849
 10
-24.6946052365
 20
-20.1918609125
 10
-24.702733556
 20
-20.1619023656
 10
-24.7075505457
 20
-20.1319628922
  0
LINE
  5
296
100
AcDbEntity
  8
IMPORT_IGES
100
AcDbLine
 62
7
  6
CONTINUOUS
 10
-24.0504920664
 20
-20.483248418
 11
-23.9968358893
 21
-20.4862992024
  0
LINE
  5
297
100
AcDbEntity
  8
IMPORT_IGES
100
AcDbLine
 62
7
  6
CONTINUOUS
 10
-20.53314528
 20
-20.5889413721
 11
-20.4725801891
 21
-20.5924945168
  0
LINE
  5
298
100
AcDbEntity
  8
IMPORT_IGES
100
AcDbLine
 62
253
  6
CONTINUOUS
 10
-20.4085447172
 20
-20.59504155
 11
-20.4155135594
 21
-20.5961993509
  0
LINE
  5
299
100
AcDbEntity
  8
IMPORT_IGES
100
AcDbLine
 62
253
  6
CONTINUOUS
 10
-20.4725801891
 20
-20.5924945168
 11
-20.4827743406
 21
-20.5903406575
  0
LINE
  5
29A
100
AcDbEntity
  8
IMPORT_IGES
100
AcDbLine
 62
7
  6
CONTINUOUS
 10
-20.4725801891
 20
-20.5924945168
 11
-20.4155135594
 21
-20.5961993509
  0
LINE
  5
29B
100
AcDbEntity
  8
IMPORT_IGES
100
AcDbLine
 62
7
  6
CONTINUOUS
 10
-24.0974506064
 20
-20.4800172797
 11
-24.0462398212
 21
-20.4835162834
  0
LINE
  5
29C
100
AcDbEntity
  8
IMPORT_IGES
100
AcDbLine
 62
7
  6
CONTINUOUS
 10
-20.4155135594
 20
-20.5961993509
 11
-20.3620916282
 21
-20.6000135289
  0
LINE
  5
29D
100
AcDbEntity
  8
IMPORT_IGES
100
AcDbLine
 62
7
  6
CONTINUOUS
 10
-20.3620916282
 20
-20.6000135289
 11
-20.3124208491
 21
-20.6038955384
  0
LINE
  5
29E
100
AcDbEntity
  8
IMPORT_IGES
100
AcDbLine
 62
7
  6
CONTINUOUS
 10
-24.1420325599
 20
-20.4763924451
 11
-24.0934596995
 21
-20.4803146317
  0
LINE
  5
29F
100
AcDbEntity
  8
IMPORT_IGES
100
AcDbLine
 62
7
  6
CONTINUOUS
 10
-20.3124208491
 20
-20.6038955384
 11
-20.2665923538
 21
-20.6078029505
  0
LINE
  5
2A0
100
AcDbEntity
  8
IMPORT_IGES
100
AcDbLine
 62
7
  6
CONTINUOUS
 10
-20.2665923538
 20
-20.6078029505
 11
-20.2247171453
 21
-20.6116907724
  0
LINE
  5
2A1
100
AcDbEntity
  8
IMPORT_IGES
100
AcDbLine
 62
7
  6
CONTINUOUS
 10
-24.1841865051
 20
-20.4723908832
 11
-24.1383175108
 21
-20.4767164339
  0
LWPOLYLINE
  5
2A2
100
AcDbEntity
  8
IMPORT_IGES
100
AcDbPolyline
 62
7
  6
CONTINUOUS
 90
15
 70
0
 10
-20.2247171453
 20
-20.6116907724
 10
-20.1868491913
 20
-20.6155177915
 10
-20.1694332534
 20
-20.6173951013
 10
-20.1530231691
 20
-20.6192422614
 10
-20.1376467737
 20
-20.6210508068
 10
-20.1232875649
 20
-20.6228170642
 10
-20.1099449196
 20
-20.6245353806
 10
-20.0976704543
 20
-20.6261925921
 10
-20.0864370946
 20
-20.6277851566
 10
-20.0762489033
 20
-20.6293049605
 10
-20.0672043311
 20
-20.6307277935
 10
-20.059248247
 20
-20.6320511482
 10
-20.052405854
 20
-20.6332586443
 10
-20.0468907108
 20
-20.6342946826
 10
-20.0426143822
 20
-20.6351528586
  0
LINE
  5
2A3
100
AcDbEntity
  8
IMPORT_IGES
100
AcDbLine
 62
7
  6
CONTINUOUS
 10
-24.2239380819
 20
-20.4680215012
 11
-24.1807591008
 21
-20.4727388559
  0
LWPOLYLINE
  5
2A4
100
AcDbEntity
  8
IMPORT_IGES
100
AcDbPolyline
 62
253
  6
CONTINUOUS
 90
6
 70
0
 10
-20.1084083275
 20
-20.621750453
 10
-20.1580518381
 20
-20.6161398043
 10
-20.2129624606
 20
-20.6106159453
 10
-20.2732320646
 20
-20.6052362942
 10
-20.3387687805
 20
-20.6000145633
 10
-20.3620916282
 20
-20.6000135289
  0
LINE
  5
2A5
100
AcDbEntity
  8
IMPORT_IGES
100
AcDbLine
 62
7
  6
CONTINUOUS
 10
-24.2613800438
 20
-20.463279125
 11
-24.2207952426
 21
-20.4683901023
  0
LINE
  5
2A6
100
AcDbEntity
  8
IMPORT_IGES
100
AcDbLine
 62
253
  6
CONTINUOUS
 10
-20.0647842101
 20
-20.6273074366
 11
-20.1084083275
 21
-20.621750453
  0
LINE
  5
2A7
100
AcDbEntity
  8
IMPORT_IGES
100
AcDbLine
 62
253
  6
CONTINUOUS
 10
8.8110644411
 20
-19.0177435303
 11
8.8163490156
 21
-19.0172773127
  0
LINE
  5
2A8
100
AcDbEntity
  8
IMPORT_IGES
100
AcDbLine
 62
253
  6
CONTINUOUS
 10
8.8163490156
 20
-19.0172773127
 11
8.8485866561
 21
-19.0149064362
  0
LINE
  5
2A9
100
AcDbEntity
  8
IMPORT_IGES
100
AcDbLine
 62
253
  6
CONTINUOUS
 10
8.8485866561
 20
-19.0149064362
 11
9.8084674957
 21
-18.9478651457
  0
LWPOLYLINE
  5
2AA
100
AcDbEntity
  8
IMPORT_IGES
100
AcDbPolyline
 62
253
  6
CONTINUOUS
 90
10
 70
0
 10
-20.9058780908
 20
-20.5743156365
 10
-20.9051306527
 20
-20.574301756
 10
-20.9043822039
 20
-20.5742600742
 10
-20.9036328127
 20
-20.5741905439
 10
-20.9028823636
 20
-20.5740930932
 10
-20.9021311098
 20
-20.573967694
 10
-20.9013796736
 20
-20.5738144305
 10
-20.9006283095
 20
-20.5736333759
 10
-20.8998769031
 20
-20.5734245235
 10
-20.8991255244
 20
-20.5731879035
  0
LINE
  5
2AB
100
AcDbEntity
  8
IMPORT_IGES
100
AcDbLine
 62
7
  6
CONTINUOUS
 10
23.156314879
 20
-20.6858642943
 11
-19.9156728787
 21
-20.6858642943
  0
LINE
  5
2AC
100
AcDbEntity
  8
IMPORT_IGES
100
AcDbLine
 62
253
  6
CONTINUOUS
 10
9.7610963144
 20
-20.6799017679
 11
23.1524085064
 21
-20.6799017679
  0
LINE
  5
2AD
100
AcDbEntity
  8
IMPORT_IGES
100
AcDbLine
 62
253
  6
CONTINUOUS
 10
22.8044639937
 20
-20.2267228349
 11
10.1076766366
 21
-20.2267228349
  0
LINE
  5
2AE
100
AcDbEntity
  8
IMPORT_IGES
100
AcDbLine
 62
253
  6
CONTINUOUS
 10
10.1076807063
 20
-19.2269421434
 11
22.804352376
 21
-19.2269421434
  0
LINE
  5
2AF
100
AcDbEntity
  8
IMPORT_IGES
100
AcDbLine
 62
253
  6
CONTINUOUS
 10
-20.9063626058
 20
-20.5743097917
 11
-20.9058780908
 21
-20.5743156365
  0
LINE
  5
2B0
100
AcDbEntity
  8
IMPORT_IGES
100
AcDbLine
 62
253
  6
CONTINUOUS
 10
-23.8995027892
 20
-20.4902972067
 11
-23.9001328908
 21
-20.4902873207
  0
LINE
  5
2B1
100
AcDbEntity
  8
IMPORT_IGES
100
AcDbLine
 62
7
  6
CONTINUOUS
 10
-20.8066983565
 20
-20.5770997738
 11
-23.5675343868
 21
-20.5007866531
  0
LWPOLYLINE
  5
2B2
100
AcDbEntity
  8
IMPORT_IGES
100
AcDbPolyline
 62
7
  6
CONTINUOUS
 90
3
 70
0
 10
-22.8947448296
 20
-20.5192195742
 10
-23.5587620966
 20
-20.4989102286
 10
-23.8905474231
 20
-20.4883212108
  0
LINE
  5
2B3
100
AcDbEntity
  8
IMPORT_IGES
100
AcDbLine
 62
7
  6
CONTINUOUS
 10
-23.5675343868
 20
-20.5007866531
 11
-23.9000090039
 21
-20.4902912896
  0
LWPOLYLINE
  5
2B4
100
AcDbEntity
  8
IMPORT_IGES
100
AcDbPolyline
 62
253
  6
CONTINUOUS
 90
22
 70
0
 10
10.1076711697
 20
-20.2267055568
 10
10.014688405
 20
-20.2233537385
 10
9.9222260748
 20
-20.2133659507
 10
9.8307564051
 20
-20.1968027356
 10
9.7407510631
 20
-20.1737597869
 10
9.6526616386
 20
-20.1443631138
 10
9.566918666
 20
-20.1087642984
 10
9.483957288
 20
-20.0671501273
 10
9.4041978515
 20
-20.0197378025
 10
9.3280297111
 20
-19.9667631353
 10
9.25583974
 20
-19.9084974667
 10
9.1879944154
 20
-19.8452390149
 10
9.1248264251
 20
-19.7772980083
 10
9.0666588792
 20
-19.7050192064
 10
9.0137894633
 20
-19.6287695477
 10
8.9664805429
 20
-19.5489209039
 10
8.9249729462
 20
-19.4658659478
 10
8.8894902891
 20
-19.3800364352
 10
8.8602244936
 20
-19.2918875656
 10
8.8373276947
 20
-19.2018754355
 10
8.820915853
 20
-19.1104529332
 10
8.8110741577
 20
-19.0180865766
  0
LWPOLYLINE
  5
2B5
100
AcDbEntity
  8
IMPORT_IGES
100
AcDbPolyline
 62
253
  6
CONTINUOUS
 90
19
 70
0
 10
7.6414892161
 20
-18.3958885114
 10
7.7242319871
 20
-18.398662044
 10
7.8070551078
 20
-18.4078081061
 10
7.8890295977
 20
-18.4233365034
 10
7.9689178336
 20
-18.4450067229
 10
8.0461606206
 20
-18.4725749869
 10
8.120858439
 20
-18.5060619451
 10
8.1922454236
 20
-18.5451620558
 10
8.2595527248
 20
-18.5894132224
 10
8.3228135543
 20
-18.638831976
 10
8.3813488031
 20
-18.6929308562
 10
8.4345772394
 20
-18.7511257059
 10
8.4825194609
 20
-18.8134460752
 10
8.524615851
 20
-18.8792256936
 10
8.5604744921
 20
-18.9477853086
 10
8.59012348
 20
-19.0192097744
 10
8.6132565315
 20
-19.0930042243
 10
8.6295201592
 20
-19.1680568996
 10
8.6388552021
 20
-19.2435178785
  0
LINE
  5
2B6
100
AcDbEntity
  8
IMPORT_IGES
100
AcDbLine
 62
253
  6
CONTINUOUS
 10
23.1035530564
 20
-18.9479016436
 11
24.1009725785
 21
-19.017526283
  0
LWPOLYLINE
  5
2B7
100
AcDbEntity
  8
IMPORT_IGES
100
AcDbPolyline
 62
253
  6
CONTINUOUS
 90
13
 70
0
 10
9.7611015706
 20
-20.679884731
 10
9.6068848163
 20
-20.6457929226
 10
9.4577879898
 20
-20.5905325616
 10
9.3164171369
 20
-20.515702545
 10
9.1855929415
 20
-20.4234903635
 10
9.0665517434
 20
-20.315765527
 10
8.9593831984
 20
-20.1933414532
 10
8.8656335963
 20
-20.0578042798
 10
8.7868683889
 20
-19.9112378457
 10
8.7236231682
 20
-19.7545564867
 10
8.6770734869
 20
-19.5893362565
 10
8.6485670289
 20
-19.4181070167
 10
8.6389308639
 20
-19.2431835151
  0
LINE
  5
2B8
100
AcDbEntity
  8
IMPORT_IGES
100
AcDbLine
 62
7
  6
CONTINUOUS
 10
15.8344511403
 20
-7.1656928445
 11
15.8927832172
 21
-7.1498969802
  0
LINE
  5
2B9
100
AcDbEntity
  8
IMPORT_IGES
100
AcDbLine
 62
7
  6
CONTINUOUS
 10
20.002313909
 20
-6.7623007563
 11
20.0020129475
 21
-6.7623628884
  0
LWPOLYLINE
  5
2BA
100
AcDbEntity
  8
IMPORT_IGES
100
AcDbPolyline
 62
253
  6
CONTINUOUS
 90
19
 70
0
 10
7.3805341818
 20
-10.661471139
 10
7.464988725
 20
-10.6624367305
 10
7.549531978
 20
-10.6680493776
 10
7.6331721127
 20
-10.6783288903
 10
7.7145874021
 20
-10.693107752
 10
7.7931840344
 20
-10.7122070619
 10
7.8690750475
 20
-10.7356421411
 10
7.9414503669
 20
-10.7631919544
 10
8.00949556
 20
-10.7945152107
 10
8.0732469259
 20
-10.8296242998
 10
8.1319898222
 20
-10.868158968
 10
8.1851176433
 20
-10.909685061
 10
8.2326521703
 20
-10.9542249301
 10
8.2740102592
 20
-11.0012798183
 10
8.3087953478
 20
-11.0503451447
 10
8.3370381217
 20
-11.101490819
 10
8.3584225147
 20
-11.1543479106
 10
8.3726035424
 20
-11.2080820164
 10
8.3795486314
 20
-11.2620573982
  0
LWPOLYLINE
  5
2BB
100
AcDbEntity
  8
IMPORT_IGES
100
AcDbPolyline
 62
253
  6
CONTINUOUS
 90
10
 70
0
 10
24.4554328497
 20
-19.4785633239
 10
24.4545159389
 20
-19.4782823123
 10
24.4536067535
 20
-19.4778934159
 10
24.4527052929
 20
-19.477396636
 10
24.4518115529
 20
-19.4767919707
 10
24.4509255364
 20
-19.476079424
 10
24.4500472537
 20
-19.4752590052
 10
24.4491767075
 20
-19.474330718
 10
24.448313893
 20
-19.4732945609
 10
24.4474588089
 20
-19.4721505346
  0
LINE
  5
2BC
100
AcDbEntity
  8
IMPORT_IGES
100
AcDbLine
 62
7
  6
CONTINUOUS
 10
15.5994760395
 20
-6.1686526709
 11
15.5515153506
 21
-6.1820767142
  0
LINE
  5
2BD
100
AcDbEntity
  8
IMPORT_IGES
100
AcDbLine
 62
7
  6
CONTINUOUS
 10
15.567451844
 20
-6.3463268732
 11
15.6126896196
 21
-6.3350433718
  0
LINE
  5
2BE
100
AcDbEntity
  8
IMPORT_IGES
100
AcDbLine
 62
7
  6
CONTINUOUS
 10
15.745773287
 20
-7.0103550006
 11
15.7915040352
 21
-7.000790256
  0
LINE
  5
2BF
100
AcDbEntity
  8
IMPORT_IGES
100
AcDbLine
 62
7
  6
CONTINUOUS
 10
19.2491657403
 20
-6.4153497333
 11
19.2494666915
 21
-6.4152868687
  0
LINE
  5
2C0
100
AcDbEntity
  8
IMPORT_IGES
100
AcDbLine
 62
7
  6
CONTINUOUS
 10
19.9848159285
 20
-6.5761570874
 11
19.959403212
 21
-6.5813234902
  0
LINE
  5
2C1
100
AcDbEntity
  8
IMPORT_IGES
100
AcDbLine
 62
7
  6
CONTINUOUS
 10
16.9461123694
 20
-7.008546139
 11
16.984091985
 21
-7.0009119214
  0
LINE
  5
2C2
100
AcDbEntity
  8
IMPORT_IGES
100
AcDbLine
 62
7
  6
CONTINUOUS
 10
14.3758069218
 20
-5.6229570031
 11
14.3684442962
 21
-5.6244111223
  0
LINE
  5
2C3
100
AcDbEntity
  8
IMPORT_IGES
100
AcDbLine
 62
7
  6
CONTINUOUS
 10
16.9731407182
 20
-7.1824580839
 11
17.0349262654
 21
-7.1712599643
  0
LINE
  5
2C4
100
AcDbEntity
  8
IMPORT_IGES
100
AcDbLine
 62
7
  6
CONTINUOUS
 10
15.7712351412
 20
-7.1771489445
 11
15.8344511403
 21
-7.1656928445
  0
LINE
  5
2C5
100
AcDbEntity
  8
IMPORT_IGES
100
AcDbLine
 62
7
  6
CONTINUOUS
 10
19.9659968496
 20
-6.7696435479
 11
20.0021794674
 21
-6.7631694935
  0
LINE
  5
2C6
100
AcDbEntity
  8
IMPORT_IGES
100
AcDbLine
 62
7
  6
CONTINUOUS
 10
19.2771280733
 20
-6.4098180099
 11
19.249314646
 21
-6.4145589831
  0
LINE
  5
2C7
100
AcDbEntity
  8
IMPORT_IGES
100
AcDbLine
 62
7
  6
CONTINUOUS
 10
16.8851603237
 20
-5.7917063368
 11
16.8486368602
 21
-5.7978296062
  0
LINE
  5
2C8
100
AcDbEntity
  8
IMPORT_IGES
100
AcDbLine
 62
7
  6
CONTINUOUS
 10
15.5994760395
 20
-6.1686526709
 11
15.6549436233
 21
-6.1594922281
  0
LINE
  5
2C9
100
AcDbEntity
  8
IMPORT_IGES
100
AcDbLine
 62
7
  6
CONTINUOUS
 10
19.2670449207
 20
-6.6024142127
 11
19.2940629374
 21
-6.5979737231
  0
LINE
  5
2CA
100
AcDbEntity
  8
IMPORT_IGES
100
AcDbLine
 62
7
  6
CONTINUOUS
 10
19.9382531948
 20
-6.5829051717
 11
19.964368391
 21
-6.5805113884
  0
LINE
  5
2CB
100
AcDbEntity
  8
IMPORT_IGES
100
AcDbLine
 62
7
  6
CONTINUOUS
 10
19.9709471688
 20
-6.7687835071
 11
19.9329168523
 21
-6.7718844307
  0
LINE
  5
2CC
100
AcDbEntity
  8
IMPORT_IGES
100
AcDbLine
 62
7
  6
CONTINUOUS
 10
15.7095192045
 20
-7.1815526899
 11
15.7712351412
 21
-7.1771489445
  0
LINE
  5
2CD
100
AcDbEntity
  8
IMPORT_IGES
100
AcDbLine
 62
253
  6
CONTINUOUS
 10
7.4603643561
 20
-9.919371942
 11
-24.2530360249
 21
-9.919371942
  0
LINE
  5
2CE
100
AcDbEntity
  8
IMPORT_IGES
100
AcDbLine
 62
253
  6
CONTINUOUS
 10
-24.2467714568
 20
-8.3261454907
 11
7.9412890925
 21
-8.3261454907
  0
LWPOLYLINE
  5
2CF
100
AcDbEntity
  8
IMPORT_IGES
100
AcDbPolyline
 62
253
  6
CONTINUOUS
 90
16
 70
0
 10
7.4603635505
 20
-9.9193706161
 10
7.5441222636
 20
-9.9337252523
 10
7.6278826924
 20
-9.952600989
 10
7.7106933338
 20
-9.9758574332
 10
7.7913034808
 20
-10.0031377565
 10
7.8691400757
 20
-10.0341862606
 10
7.9442530903
 20
-10.0690164463
 10
8.0158016986
 20
-10.1072642144
 10
8.0830220889
 20
-10.1484900006
 10
8.1459525324
 20
-10.1927200101
 10
8.2038298741
 20
-10.2394529958
 10
8.2560684159
 20
-10.2881785817
 10
8.3027256467
 20
-10.3389674871
 10
8.3433490741
 20
-10.3914476843
 10
8.3772803674
 20
-10.4447780201
 10
8.4042457948
 20
-10.4983183828
  0
LINE
  5
2D0
100
AcDbEntity
  8
IMPORT_IGES
100
AcDbLine
 62
7
  6
CONTINUOUS
 10
14.3684442962
 20
-5.6244111223
 11
14.3410094778
 21
-5.6295417115
  0
LINE
  5
2D1
100
AcDbEntity
  8
IMPORT_IGES
100
AcDbLine
 62
7
  6
CONTINUOUS
 10
16.8523881099
 20
-5.6197214676
 11
16.7906385512
 21
-5.6298059785
  0
LINE
  5
2D2
100
AcDbEntity
  8
IMPORT_IGES
100
AcDbLine
 62
7
  6
CONTINUOUS
 10
14.3757816649
 20
-5.6227891605
 11
14.4149283522
 21
-5.616898393
  0
LINE
  5
2D3
100
AcDbEntity
  8
IMPORT_IGES
100
AcDbLine
 62
7
  6
CONTINUOUS
 10
14.4227135745
 20
-5.7939764752
 11
14.4632752852
 21
-5.7883514512
  0
LINE
  5
2D4
100
AcDbEntity
  8
IMPORT_IGES
100
AcDbLine
 62
7
  6
CONTINUOUS
 10
15.6126896196
 20
-6.3350433718
 11
15.6566868079
 21
-6.3305505855
  0
LINE
  5
2D5
100
AcDbEntity
  8
IMPORT_IGES
100
AcDbLine
 62
7
  6
CONTINUOUS
 10
14.4149419744
 20
-5.6168946291
 11
14.4559886484
 21
-5.6131561143
  0
LINE
  5
2D6
100
AcDbEntity
  8
IMPORT_IGES
100
AcDbLine
 62
7
  6
CONTINUOUS
 10
19.2771016693
 20
-6.4095078405
 11
19.3121637203
 21
-6.4065230886
  0
LINE
  5
2D7
100
AcDbEntity
  8
IMPORT_IGES
100
AcDbLine
 62
7
  6
CONTINUOUS
 10
15.7457694509
 20
-7.0103366596
 11
15.7079691029
 21
-7.0133310182
  0
LINE
  5
2D8
100
AcDbEntity
  8
IMPORT_IGES
100
AcDbLine
 62
7
  6
CONTINUOUS
 10
16.9057681956
 20
-7.011115169
 11
16.9461123694
 21
-7.008546139
  0
LINE
  5
2D9
100
AcDbEntity
  8
IMPORT_IGES
100
AcDbLine
 62
7
  6
CONTINUOUS
 10
19.317321254
 20
-6.5968075792
 11
19.2890890593
 21
-6.5985194436
  0
LINE
  5
2DA
100
AcDbEntity
  8
IMPORT_IGES
100
AcDbLine
 62
7
  6
CONTINUOUS
 10
14.5013367555
 20
-5.78644884
 11
14.4583021578
 21
-5.7889389525
  0
LINE
  5
2DB
100
AcDbEntity
  8
IMPORT_IGES
100
AcDbLine
 62
7
  6
CONTINUOUS
 10
16.9170594523
 20
-7.1853794879
 11
16.9731407182
 21
-7.1824580839
  0
LINE
  5
2DC
100
AcDbEntity
  8
IMPORT_IGES
100
AcDbLine
 62
7
  6
CONTINUOUS
 10
16.9243813975
 20
-5.789847583
 11
16.8851603237
 21
-5.7917063368
  0
LINE
  5
2DD
100
AcDbEntity
  8
IMPORT_IGES
100
AcDbLine
 62
7
  6
CONTINUOUS
 10
16.9084509927
 20
-5.6176030547
 11
16.8523881099
 21
-5.6197214676
  0
LINE
  5
2DE
100
AcDbEntity
  8
IMPORT_IGES
100
AcDbLine
 62
7
  6
CONTINUOUS
 10
15.7031841578
 20
-6.157754177
 11
15.6549508631
 21
-6.1595360658
  0
LINE
  5
2DF
100
AcDbEntity
  8
IMPORT_IGES
100
AcDbLine
 62
7
  6
CONTINUOUS
 10
15.6993998052
 20
-6.3295977139
 11
15.6523530785
 21
-6.3305796273
  0
LINE
  5
2E0
100
AcDbEntity
  8
IMPORT_IGES
100
AcDbLine
 62
7
  6
CONTINUOUS
 10
15.7095147463
 20
-7.1819463958
 11
15.6428896166
 21
-7.1824042256
  0
LINE
  5
2E1
100
AcDbEntity
  8
IMPORT_IGES
100
AcDbLine
 62
7
  6
CONTINUOUS
 10
15.664490649
 20
-7.0137666207
 11
15.7085178077
 21
-7.0136772246
  0
LINE
  5
2E2
100
AcDbEntity
  8
IMPORT_IGES
100
AcDbLine
 62
7
  6
CONTINUOUS
 10
15.0045114606
 20
-7.1444440303
 11
13.9572943993
 21
-7.1444440303
  0
LINE
  5
2E3
100
AcDbEntity
  8
IMPORT_IGES
100
AcDbLine
 62
7
  6
CONTINUOUS
 10
14.1704036658
 20
-6.9631170303
 11
15.0045114606
 21
-6.9631170303
  0
LINE
  5
2E4
100
AcDbEntity
  8
IMPORT_IGES
100
AcDbLine
 62
7
  6
CONTINUOUS
 10
19.1163822564
 20
-6.8031220303
 11
18.9933062661
 21
-6.8031220303
  0
LINE
  5
2E5
100
AcDbEntity
  8
IMPORT_IGES
100
AcDbLine
 62
7
  6
CONTINUOUS
 10
15.1747592819
 20
-6.7551230303
 11
15.3741286965
 21
-6.7551230303
  0
LINE
  5
2E6
100
AcDbEntity
  8
IMPORT_IGES
100
AcDbLine
 62
7
  6
CONTINUOUS
 10
20.1392837392
 20
-6.3711350303
 11
20.263013196
 21
-6.3711350303
  0
LINE
  5
2E7
100
AcDbEntity
  8
IMPORT_IGES
100
AcDbLine
 62
7
  6
CONTINUOUS
 10
14.1890309919
 20
-6.1588750303
 11
13.99363376
 21
-6.1588750303
  0
LINE
  5
2E8
100
AcDbEntity
  8
IMPORT_IGES
100
AcDbLine
 62
7
  6
CONTINUOUS
 10
18.3837007835
 20
-7.144444727
 11
18.15884612
 21
-7.1436225491
  0
LINE
  5
2E9
100
AcDbEntity
  8
IMPORT_IGES
100
AcDbLine
 62
7
  6
CONTINUOUS
 10
19.9111193343
 20
-6.5824278013
 11
19.9382207566
 21
-6.5829081486
  0
LINE
  5
2EA
100
AcDbEntity
  8
IMPORT_IGES
100
AcDbLine
 62
7
  6
CONTINUOUS
 10
19.9328744448
 20
-6.7718876345
 11
19.8944612215
 21
-6.7709480916
  0
LINE
  5
2EB
100
AcDbEntity
  8
IMPORT_IGES
100
AcDbLine
 62
7
  6
CONTINUOUS
 10
16.9170407952
 20
-7.185968691
 11
16.859283901
 21
-7.1836628711
  0
LINE
  5
2EC
100
AcDbEntity
  8
IMPORT_IGES
100
AcDbLine
 62
7
  6
CONTINUOUS
 10
15.5843875709
 20
-7.1782391218
 11
15.6428813962
 21
-7.1817666669
  0
LWPOLYLINE
  5
2ED
100
AcDbEntity
  8
IMPORT_IGES
100
AcDbPolyline
 62
253
  6
CONTINUOUS
 90
10
 70
0
 10
7.9412890938
 20
-8.3261454422
 10
8.0218145139
 20
-8.3315032764
 10
8.1023471542
 20
-8.3374174994
 10
8.1820482594
 20
-8.3438345818
 10
8.2597209139
 20
-8.3506559303
 10
8.3349506877
 20
-8.3578362509
 10
8.4080623072
 20
-8.3654078943
 10
8.478629747
 20
-8.3733397052
 10
8.545573568
 20
-8.3815175546
 10
8.6082464768
 20
-8.3898581309
  0
LINE
  5
2EE
100
AcDbEntity
  8
IMPORT_IGES
100
AcDbLine
 62
7
  6
CONTINUOUS
 10
14.4560072968
 20
-5.6131539422
 11
14.4986743042
 21
-5.6117356867
  0
LINE
  5
2EF
100
AcDbEntity
  8
IMPORT_IGES
100
AcDbLine
 62
7
  6
CONTINUOUS
 10
16.1383424606
 20
-5.8282190303
 11
15.4887624606
 21
-5.8282190303
  0
LINE
  5
2F0
100
AcDbEntity
  8
IMPORT_IGES
100
AcDbLine
 62
7
  6
CONTINUOUS
 10
15.3448174606
 20
-5.6426250303
 11
16.1383424606
 21
-5.6426250303
  0
LINE
  5
2F1
100
AcDbEntity
  8
IMPORT_IGES
100
AcDbLine
 62
7
  6
CONTINUOUS
 10
18.7170606384
 20
-5.5803624388
 11
18.9548315541
 21
-5.5803624388
  0
LINE
  5
2F2
100
AcDbEntity
  8
IMPORT_IGES
100
AcDbLine
 62
7
  6
CONTINUOUS
 10
17.5943911179
 20
-5.5675184108
 11
17.8197021655
 21
-5.5675184108
  0
LINE
  5
2F3
100
AcDbEntity
  8
IMPORT_IGES
100
AcDbLine
 62
7
  6
CONTINUOUS
 10
14.498678673
 20
-5.6117355541
 11
14.5431234296
 21
-5.6121260669
  0
LINE
  5
2F4
100
AcDbEntity
  8
IMPORT_IGES
100
AcDbLine
 62
7
  6
CONTINUOUS
 10
19.3122034799
 20
-6.4065198307
 11
19.3492597995
 21
-6.4073173655
  0
LINE
  5
2F5
100
AcDbEntity
  8
IMPORT_IGES
100
AcDbLine
 62
7
  6
CONTINUOUS
 10
15.7031888732
 20
-6.1570051062
 11
15.7600490398
 21
-6.158238403
  0
LINE
  5
2F6
100
AcDbEntity
  8
IMPORT_IGES
100
AcDbLine
 62
7
  6
CONTINUOUS
 10
16.967662537
 20
-5.6196406615
 11
16.9084509927
 21
-5.6176030547
  0
LINE
  5
2F7
100
AcDbEntity
  8
IMPORT_IGES
100
AcDbLine
 62
7
  6
CONTINUOUS
 10
19.3466289222
 20
-6.5979298507
 11
19.317337077
 21
-6.5968071411
  0
LINE
  5
2F8
100
AcDbEntity
  8
IMPORT_IGES
100
AcDbLine
 62
7
  6
CONTINUOUS
 10
14.5430469547
 20
-5.7881901962
 11
14.501373639
 21
-5.7864475902
  0
LINE
  5
2F9
100
AcDbEntity
  8
IMPORT_IGES
100
AcDbLine
 62
7
  6
CONTINUOUS
 10
15.3948984802
 20
-6.4745990314
 11
15.2285044606
 21
-6.4649990303
  0
LINE
  5
2FA
100
AcDbEntity
  8
IMPORT_IGES
100
AcDbLine
 62
7
  6
CONTINUOUS
 10
14.5431300615
 20
-5.6121266245
 11
14.5892202029
 21
-5.6148391001
  0
LINE
  5
2FB
100
AcDbEntity
  8
IMPORT_IGES
100
AcDbLine
 62
7
  6
CONTINUOUS
 10
15.6994117194
 20
-6.3303193877
 11
15.7401779647
 21
-6.3328291625
  0
LINE
  5
2FC
100
AcDbEntity
  8
IMPORT_IGES
100
AcDbLine
 62
7
  6
CONTINUOUS
 10
16.8691976976
 20
-7.0088372986
 11
16.9057681956
 21
-7.011115169
  0
LINE
  5
2FD
100
AcDbEntity
  8
IMPORT_IGES
100
AcDbLine
 62
7
  6
CONTINUOUS
 10
16.9639202921
 20
-5.7925043898
 11
16.9243813975
 21
-5.789847583
  0
LINE
  5
2FE
100
AcDbEntity
  8
IMPORT_IGES
100
AcDbLine
 62
7
  6
CONTINUOUS
 10
15.6644898578
 20
-7.0133539947
 11
15.6241234026
 21
-7.0106071526
  0
LINE
  5
2FF
100
AcDbEntity
  8
IMPORT_IGES
100
AcDbLine
 62
7
  6
CONTINUOUS
 10
15.8145403841
 20
-6.1633093418
 11
15.7550539203
 21
-6.1581611548
  0
LINE
  5
300
100
AcDbEntity
  8
IMPORT_IGES
100
AcDbLine
 62
7
  6
CONTINUOUS
 10
15.6238703546
 20
-7.0100576305
 11
15.6241710609
 21
-7.0100850811
  0
LINE
  5
301
100
AcDbEntity
  8
IMPORT_IGES
100
AcDbLine
 62
7
  6
CONTINUOUS
 10
15.7404206856
 20
-6.3334477999
 11
15.7401225281
 21
-6.333419816
  0
LINE
  5
302
100
AcDbEntity
  8
IMPORT_IGES
100
AcDbLine
 62
7
  6
CONTINUOUS
 10
19.3492954934
 20
-6.4073220565
 11
19.3874912915
 21
-6.411430123
  0
LINE
  5
303
100
AcDbEntity
  8
IMPORT_IGES
100
AcDbLine
 62
7
  6
CONTINUOUS
 10
19.8612270203
 20
-6.7666552465
 11
19.8981441351
 21
-6.7709835005
  0
LINE
  5
304
100
AcDbEntity
  8
IMPORT_IGES
100
AcDbLine
 62
7
  6
CONTINUOUS
 10
14.549276117
 20
-5.7893847705
 11
14.5777739487
 21
-5.7928606284
  0
LINE
  5
305
100
AcDbEntity
  8
IMPORT_IGES
100
AcDbLine
 62
7
  6
CONTINUOUS
 10
19.8830257562
 20
-6.5789597533
 11
19.911082198
 21
-6.5824222991
  0
LINE
  5
306
100
AcDbEntity
  8
IMPORT_IGES
100
AcDbLine
 62
7
  6
CONTINUOUS
 10
19.3767680791
 20
-6.6019005321
 11
19.3466576383
 21
-6.5979358574
  0
LINE
  5
307
100
AcDbEntity
  8
IMPORT_IGES
100
AcDbLine
 62
7
  6
CONTINUOUS
 10
16.8592587736
 20
-7.1840994392
 11
16.7971704496
 21
-7.1750963184
  0
LINE
  5
308
100
AcDbEntity
  8
IMPORT_IGES
100
AcDbLine
 62
7
  6
CONTINUOUS
 10
15.5209596006
 20
-7.1656257834
 11
15.5843875709
 21
-7.1782391218
  0
LINE
  5
309
100
AcDbEntity
  8
IMPORT_IGES
100
AcDbLine
 62
7
  6
CONTINUOUS
 10
13.628211535
 20
7.4262819083
 11
13.5752783183
 21
7.405934861
  0
LINE
  5
30A
100
AcDbEntity
  8
IMPORT_IGES
100
AcDbLine
 62
7
  6
CONTINUOUS
 10
16.3216359389
 20
7.2657427742
 11
16.3651272034
 21
7.2793847293
  0
LINE
  5
30B
100
AcDbEntity
  8
IMPORT_IGES
100
AcDbLine
 62
7
  6
CONTINUOUS
 10
15.0185082925
 20
7.4339987148
 11
14.9838468777
 21
7.4232655006
  0
LINE
  5
30C
100
AcDbEntity
  8
IMPORT_IGES
100
AcDbLine
 62
7
  6
CONTINUOUS
 10
13.7033041946
 20
7.2299074278
 11
13.7427321523
 21
7.2419475278
  0
LINE
  5
30D
100
AcDbEntity
  8
IMPORT_IGES
100
AcDbLine
 62
7
  6
CONTINUOUS
 10
15.0675278879
 20
7.2299074278
 11
15.1069558456
 21
7.2419475278
  0
LINE
  5
30E
100
AcDbEntity
  8
IMPORT_IGES
100
AcDbLine
 62
7
  6
CONTINUOUS
 10
14.6336269897
 20
-5.6205950334
 11
14.5842582882
 21
-5.6141862103
  0
LINE
  5
30F
100
AcDbEntity
  8
IMPORT_IGES
100
AcDbLine
 62
7
  6
CONTINUOUS
 10
14.5380579102
 20
-5.7878457933
 11
14.549276117
 21
-5.7893847705
  0
LINE
  5
310
100
AcDbEntity
  8
IMPORT_IGES
100
AcDbLine
 62
7
  6
CONTINUOUS
 10
16.9676685607
 20
-5.6196007338
 11
17.0322141743
 21
-5.6293383174
  0
LINE
  5
311
100
AcDbEntity
  8
IMPORT_IGES
100
AcDbLine
 62
7
  6
CONTINUOUS
 10
14.5779713423
 20
-5.7935783412
 11
14.5776704553
 21
-5.7935319557
  0
LINE
  5
312
100
AcDbEntity
  8
IMPORT_IGES
100
AcDbLine
 62
7
  6
CONTINUOUS
 10
19.3767358899
 20
-6.602144999
 11
19.3962349848
 21
-6.6057560342
  0
LINE
  5
313
100
AcDbEntity
  8
IMPORT_IGES
100
AcDbLine
 62
7
  6
CONTINUOUS
 10
19.4244087854
 20
-6.4180793126
 11
19.3825794936
 21
-6.4103100975
  0
LINE
  5
314
100
AcDbEntity
  8
IMPORT_IGES
100
AcDbLine
 62
7
  6
CONTINUOUS
 10
17.0003729749
 20
-5.7992836987
 11
16.9639202921
 21
-5.7925043898
  0
LINE
  5
315
100
AcDbEntity
  8
IMPORT_IGES
100
AcDbLine
 62
7
  6
CONTINUOUS
 10
19.3962349848
 20
-6.6057560342
 11
19.4054284322
 21
-6.6075362524
  0
LINE
  5
316
100
AcDbEntity
  8
IMPORT_IGES
100
AcDbLine
 62
7
  6
CONTINUOUS
 10
16.834912131
 20
-7.0021796426
 11
16.8691976976
 21
-7.0088372986
  0
LINE
  5
317
100
AcDbEntity
  8
IMPORT_IGES
100
AcDbLine
 62
7
  6
CONTINUOUS
 10
15.5770653624
 20
-7.0012411902
 11
15.6241243055
 21
-7.010602614
  0
LINE
  5
318
100
AcDbEntity
  8
IMPORT_IGES
100
AcDbLine
 62
7
  6
CONTINUOUS
 10
19.8879515304
 20
-6.580119414
 11
19.8540204058
 21
-6.5724906281
  0
LINE
  5
319
100
AcDbEntity
  8
IMPORT_IGES
100
AcDbLine
 62
7
  6
CONTINUOUS
 10
15.8772544846
 20
-6.1775559372
 11
15.8145403841
 21
-6.1633093418
  0
LINE
  5
31A
100
AcDbEntity
  8
IMPORT_IGES
100
AcDbLine
 62
7
  6
CONTINUOUS
 10
15.7401779647
 20
-6.3328291625
 11
15.7886377527
 21
-6.3440953192
  0
LINE
  5
31B
100
AcDbEntity
  8
IMPORT_IGES
100
AcDbLine
 62
7
  6
CONTINUOUS
 10
14.6851784367
 20
-5.6327143126
 11
14.6336269897
 21
-5.6205950334
  0
LINE
  5
31C
100
AcDbEntity
  8
IMPORT_IGES
100
AcDbLine
 62
7
  6
CONTINUOUS
 10
19.8540204058
 20
-6.5724906281
 11
19.8354530741
 21
-6.5680702376
  0
LINE
  5
31D
100
AcDbEntity
  8
IMPORT_IGES
100
AcDbLine
 62
7
  6
CONTINUOUS
 10
19.8179542566
 20
-6.7558391658
 11
19.8612270203
 21
-6.7666552465
  0
LINE
  5
31E
100
AcDbEntity
  8
IMPORT_IGES
100
AcDbLine
 62
7
  6
CONTINUOUS
 10
16.7432767515
 20
-7.160771115
 11
16.7971704496
 21
-7.1750963184
  0
LINE
  5
31F
100
AcDbEntity
  8
IMPORT_IGES
100
AcDbLine
 62
7
  6
CONTINUOUS
 10
14.5777739487
 20
-5.7928606284
 11
14.6207483543
 21
-5.8046160206
  0
LINE
  5
320
100
AcDbEntity
  8
IMPORT_IGES
100
AcDbLine
 62
7
  6
CONTINUOUS
 10
15.465638256
 20
-7.1483896244
 11
15.5209596006
 21
-7.1656257834
  0
LINE
  5
321
100
AcDbEntity
  8
IMPORT_IGES
100
AcDbLine
 62
7
  6
CONTINUOUS
 10
13.5752783183
 20
7.405934861
 11
13.5263977747
 21
7.3798940336
  0
LINE
  5
322
100
AcDbEntity
  8
IMPORT_IGES
100
AcDbLine
 62
7
  6
CONTINUOUS
 10
14.9513328996
 20
7.4108441548
 11
14.9210650316
 21
7.3966855061
  0
LINE
  5
323
100
AcDbEntity
  8
IMPORT_IGES
100
AcDbLine
 62
7
  6
CONTINUOUS
 10
13.6670904194
 20
7.2129879344
 11
13.7033041946
 21
7.2299074278
  0
LINE
  5
324
100
AcDbEntity
  8
IMPORT_IGES
100
AcDbLine
 62
7
  6
CONTINUOUS
 10
15.0313141127
 20
7.2129879344
 11
15.0675278879
 21
7.2299074278
  0
LINE
  5
325
100
AcDbEntity
  8
IMPORT_IGES
100
AcDbLine
 62
7
  6
CONTINUOUS
 10
16.5721802328
 20
6.7525767774
 11
16.5350539214
 21
6.7373818183
  0
LINE
  5
326
100
AcDbEntity
  8
IMPORT_IGES
100
AcDbLine
 62
7
  6
CONTINUOUS
 10
14.0000614216
 20
5.6436467159
 11
14.0539057036
 21
5.664455012
  0
LINE
  5
327
100
AcDbEntity
  8
IMPORT_IGES
100
AcDbLine
 62
7
  6
CONTINUOUS
 10
14.9838468777
 20
7.4232655006
 11
14.9513328996
 21
7.4108441548
  0
LINE
  5
328
100
AcDbEntity
  8
IMPORT_IGES
100
AcDbLine
 62
7
  6
CONTINUOUS
 10
17.6699498188
 20
7.4232655006
 11
17.6374358407
 21
7.4108441548
  0
LINE
  5
329
100
AcDbEntity
  8
IMPORT_IGES
100
AcDbLine
 62
7
  6
CONTINUOUS
 10
19.1806273741
 20
6.7921226159
 11
19.1195559248
 21
6.7696833812
  0
LINE
  5
32A
100
AcDbEntity
  8
IMPORT_IGES
100
AcDbLine
 62
7
  6
CONTINUOUS
 10
16.6421267471
 20
5.6651575372
 11
16.7045593855
 21
5.6870653215
  0
LINE
  5
32B
100
AcDbEntity
  8
IMPORT_IGES
100
AcDbLine
 62
7
  6
CONTINUOUS
 10
16.2676509841
 20
7.4453796539
 11
16.2112027184
 21
7.4256330917
  0
LINE
  5
32C
100
AcDbEntity
  8
IMPORT_IGES
100
AcDbLine
 62
7
  6
CONTINUOUS
 10
13.9316955822
 20
5.8425157437
 11
13.8932355636
 21
5.8302641662
  0
LINE
  5
32D
100
AcDbEntity
  8
IMPORT_IGES
100
AcDbLine
 62
7
  6
CONTINUOUS
 10
15.2959192755
 20
5.8425157437
 11
15.2574592569
 21
5.8302641662
  0
LINE
  5
32E
100
AcDbEntity
  8
IMPORT_IGES
100
AcDbLine
 62
7
  6
CONTINUOUS
 10
17.9820222167
 20
5.8425157437
 11
17.9435621981
 21
5.8302641662
  0
LINE
  5
32F
100
AcDbEntity
  8
IMPORT_IGES
100
AcDbLine
 62
7
  6
CONTINUOUS
 10
16.5350539214
 20
6.7373818183
 11
16.494951419
 21
6.724710411
  0
LINE
  5
330
100
AcDbEntity
  8
IMPORT_IGES
100
AcDbLine
 62
7
  6
CONTINUOUS
 10
17.7046112336
 20
7.4339987148
 11
17.6699498188
 21
7.4232655006
  0
LINE
  5
331
100
AcDbEntity
  8
IMPORT_IGES
100
AcDbLine
 62
7
  6
CONTINUOUS
 10
19.1380763034
 20
6.5955475427
 11
19.1903415334
 21
6.6116071819
  0
LINE
  5
332
100
AcDbEntity
  8
IMPORT_IGES
100
AcDbLine
 62
7
  6
CONTINUOUS
 10
16.5809239588
 20
5.8436329113
 11
16.5347805249
 21
5.8295169997
  0
LINE
  5
333
100
AcDbEntity
  8
IMPORT_IGES
100
AcDbLine
 62
7
  6
CONTINUOUS
 10
17.7536308291
 20
7.2299074278
 11
17.7930587868
 21
7.2419475278
  0
LINE
  5
334
100
AcDbEntity
  8
IMPORT_IGES
100
AcDbLine
 62
7
  6
CONTINUOUS
 10
19.8354530741
 20
-6.5680702376
 11
19.8267254564
 21
-6.5659138961
  0
LINE
  5
335
100
AcDbEntity
  8
IMPORT_IGES
100
AcDbLine
 62
7
  6
CONTINUOUS
 10
17.0875035455
 20
-5.6440378906
 11
17.0322141743
 21
-5.6293383174
  0
LINE
  5
336
100
AcDbEntity
  8
IMPORT_IGES
100
AcDbLine
 62
7
  6
CONTINUOUS
 10
19.826753005
 20
-6.5651757096
 11
19.8269150971
 21
-6.5652200097
  0
LINE
  5
337
100
AcDbEntity
  8
IMPORT_IGES
100
AcDbLine
 62
7
  6
CONTINUOUS
 10
19.4674671582
 20
-6.4303634373
 11
19.4244087854
 21
-6.4180793126
  0
LINE
  5
338
100
AcDbEntity
  8
IMPORT_IGES
100
AcDbLine
 62
7
  6
CONTINUOUS
 10
19.4054284322
 20
-6.6075362524
 11
19.4399177478
 21
-6.6174841975
  0
LINE
  5
339
100
AcDbEntity
  8
IMPORT_IGES
100
AcDbLine
 62
7
  6
CONTINUOUS
 10
19.7787107544
 20
-6.7442009895
 11
19.8179542566
 21
-6.7558391658
  0
LINE
  5
33A
100
AcDbEntity
  8
IMPORT_IGES
100
AcDbLine
 62
7
  6
CONTINUOUS
 10
14.7351168931
 20
-5.6478811906
 11
14.6851784367
 21
-5.6327143126
  0
LINE
  5
33B
100
AcDbEntity
  8
IMPORT_IGES
100
AcDbLine
 62
7
  6
CONTINUOUS
 10
19.5078499625
 20
-6.4431197024
 11
19.4674671582
 21
-6.4303634373
  0
LINE
  5
33C
100
AcDbEntity
  8
IMPORT_IGES
100
AcDbLine
 62
7
  6
CONTINUOUS
 10
17.0003729749
 20
-5.7992836987
 11
17.0337394459
 21
-5.8101855099
  0
LINE
  5
33D
100
AcDbEntity
  8
IMPORT_IGES
100
AcDbLine
 62
7
  6
CONTINUOUS
 10
19.4399177478
 20
-6.6174841975
 11
19.4725073422
 21
-6.6284356201
  0
LINE
  5
33E
100
AcDbEntity
  8
IMPORT_IGES
100
AcDbLine
 62
7
  6
CONTINUOUS
 10
19.7379820057
 20
-6.7304135782
 11
19.7787107544
 21
-6.7442009895
  0
LINE
  5
33F
100
AcDbEntity
  8
IMPORT_IGES
100
AcDbLine
 62
7
  6
CONTINUOUS
 10
15.5770653624
 20
-7.0012411902
 11
15.5389132327
 21
-6.9882747258
  0
LINE
  5
340
100
AcDbEntity
  8
IMPORT_IGES
100
AcDbLine
 62
7
  6
CONTINUOUS
 10
19.8053145889
 20
-6.5584261805
 11
19.7940452821
 21
-6.5545648461
  0
LINE
  5
341
100
AcDbEntity
  8
IMPORT_IGES
100
AcDbLine
 62
7
  6
CONTINUOUS
 10
16.834912131
 20
-7.0021796426
 11
16.8029114958
 21
-6.9911422012
  0
LINE
  5
342
100
AcDbEntity
  8
IMPORT_IGES
100
AcDbLine
 62
7
  6
CONTINUOUS
 10
19.8267254564
 20
-6.5659138961
 11
19.8053145889
 21
-6.5584261805
  0
LINE
  5
343
100
AcDbEntity
  8
IMPORT_IGES
100
AcDbLine
 62
7
  6
CONTINUOUS
 10
15.7886377527
 20
-6.3440953192
 11
15.8308562603
 21
-6.3595742683
  0
LINE
  5
344
100
AcDbEntity
  8
IMPORT_IGES
100
AcDbLine
 62
7
  6
CONTINUOUS
 10
15.9335312714
 20
-6.1983065665
 11
15.8772544846
 21
-6.1775559372
  0
LINE
  5
345
100
AcDbEntity
  8
IMPORT_IGES
100
AcDbLine
 62
7
  6
CONTINUOUS
 10
16.6936931826
 20
-7.1406930205
 11
16.7432767515
 21
-7.160771115
  0
LINE
  5
346
100
AcDbEntity
  8
IMPORT_IGES
100
AcDbLine
 62
7
  6
CONTINUOUS
 10
14.6207483543
 20
-5.8046160206
 11
14.6557066475
 21
-5.8190458754
  0
LINE
  5
347
100
AcDbEntity
  8
IMPORT_IGES
100
AcDbLine
 62
7
  6
CONTINUOUS
 10
15.4148660249
 20
-7.1271899337
 11
15.465638256
 21
-7.1483896244
  0
LINE
  5
348
100
AcDbEntity
  8
IMPORT_IGES
100
AcDbLine
 62
7
  6
CONTINUOUS
 10
13.5263977747
 20
7.3798940336
 11
13.4805333673
 21
7.3476637204
  0
LINE
  5
349
100
AcDbEntity
  8
IMPORT_IGES
100
AcDbLine
 62
7
  6
CONTINUOUS
 10
13.6339702232
 20
7.191117454
 11
13.6670904194
 21
7.2129879344
  0
LINE
  5
34A
100
AcDbEntity
  8
IMPORT_IGES
100
AcDbLine
 62
7
  6
CONTINUOUS
 10
14.9981939165
 20
7.191117454
 11
15.0313141127
 21
7.2129879344
  0
LINE
  5
34B
100
AcDbEntity
  8
IMPORT_IGES
100
AcDbLine
 62
7
  6
CONTINUOUS
 10
14.8929446003
 20
7.3808387258
 11
14.866861119
 21
7.3640326164
  0
LINE
  5
34C
100
AcDbEntity
  8
IMPORT_IGES
100
AcDbLine
 62
7
  6
CONTINUOUS
 10
14.9210650316
 20
7.3966855061
 11
14.8929446003
 21
7.3808387258
  0
LINE
  5
34D
100
AcDbEntity
  8
IMPORT_IGES
100
AcDbLine
 62
7
  6
CONTINUOUS
 10
17.6071679727
 20
7.3966855061
 11
17.5790475414
 21
7.3808387258
  0
LINE
  5
34E
100
AcDbEntity
  8
IMPORT_IGES
100
AcDbLine
 62
7
  6
CONTINUOUS
 10
14.0539057036
 20
5.664455012
 11
14.103577217
 21
5.691037102
  0
LINE
  5
34F
100
AcDbEntity
  8
IMPORT_IGES
100
AcDbLine
 62
7
  6
CONTINUOUS
 10
16.7164793342
 20
6.6405112732
 11
16.7645721622
 21
6.6656200338
  0
LINE
  5
350
100
AcDbEntity
  8
IMPORT_IGES
100
AcDbLine
 62
7
  6
CONTINUOUS
 10
16.6056947943
 20
6.7699239039
 11
16.5721802328
 21
6.7525767774
  0
LINE
  5
351
100
AcDbEntity
  8
IMPORT_IGES
100
AcDbLine
 62
7
  6
CONTINUOUS
 10
19.1195559248
 20
6.7696833812
 11
19.0588555662
 21
6.7397715624
  0
LINE
  5
352
100
AcDbEntity
  8
IMPORT_IGES
100
AcDbLine
 62
7
  6
CONTINUOUS
 10
16.2112027184
 20
7.4256330917
 11
16.1592215926
 21
7.400168301
  0
LINE
  5
353
100
AcDbEntity
  8
IMPORT_IGES
100
AcDbLine
 62
7
  6
CONTINUOUS
 10
16.7045593855
 20
5.6870653215
 11
16.7631839261
 21
5.7153843729
  0
LINE
  5
354
100
AcDbEntity
  8
IMPORT_IGES
100
AcDbLine
 62
7
  6
CONTINUOUS
 10
16.2864136177
 20
7.2489007439
 11
16.3216359389
 21
7.2657427742
  0
LINE
  5
355
100
AcDbEntity
  8
IMPORT_IGES
100
AcDbLine
 62
7
  6
CONTINUOUS
 10
13.967871781
 20
5.8597619886
 11
13.9316955822
 21
5.8425157437
  0
LINE
  5
356
100
AcDbEntity
  8
IMPORT_IGES
100
AcDbLine
 62
7
  6
CONTINUOUS
 10
15.3320954742
 20
5.8597619886
 11
15.2959192755
 21
5.8425157437
  0
LINE
  5
357
100
AcDbEntity
  8
IMPORT_IGES
100
AcDbLine
 62
7
  6
CONTINUOUS
 10
17.6374358407
 20
7.4108441548
 11
17.6071679727
 21
7.3966855061
  0
LINE
  5
358
100
AcDbEntity
  8
IMPORT_IGES
100
AcDbLine
 62
7
  6
CONTINUOUS
 10
17.7174170539
 20
7.2129879344
 11
17.7536308291
 21
7.2299074278
  0
LINE
  5
359
100
AcDbEntity
  8
IMPORT_IGES
100
AcDbLine
 62
7
  6
CONTINUOUS
 10
19.0931028018
 20
6.5751179082
 11
19.1380763034
 21
6.5955475427
  0
LINE
  5
35A
100
AcDbEntity
  8
IMPORT_IGES
100
AcDbLine
 62
7
  6
CONTINUOUS
 10
16.6205014247
 20
5.8611579313
 11
16.5809239588
 21
5.8436329113
  0
LINE
  5
35B
100
AcDbEntity
  8
IMPORT_IGES
100
AcDbLine
 62
7
  6
CONTINUOUS
 10
15.3713900179
 20
5.6460317348
 11
15.4244317063
 21
5.66741999
  0
LINE
  5
35C
100
AcDbEntity
  8
IMPORT_IGES
100
AcDbLine
 62
7
  6
CONTINUOUS
 10
18.0574929591
 20
5.6460317348
 11
18.1105346475
 21
5.66741999
  0
LINE
  5
35D
100
AcDbEntity
  8
IMPORT_IGES
100
AcDbLine
 62
7
  6
CONTINUOUS
 10
19.4328542135
 20
5.8055062803
 11
19.3889199696
 21
5.7892980564
  0
LINE
  5
35E
100
AcDbEntity
  8
IMPORT_IGES
100
AcDbLine
 62
7
  6
CONTINUOUS
 10
19.453501301
 20
5.6131222205
 11
19.5146908695
 21
5.6324059975
  0
LINE
  5
35F
100
AcDbEntity
  8
IMPORT_IGES
100
AcDbLine
 62
7
  6
CONTINUOUS
 10
17.9999976165
 20
5.6301415116
 11
18.0574929591
 21
5.6460317348
  0
LINE
  5
360
100
AcDbEntity
  8
IMPORT_IGES
100
AcDbLine
 62
7
  6
CONTINUOUS
 10
15.3138946754
 20
5.6301415116
 11
15.3713900179
 21
5.6460317348
  0
LINE
  5
361
100
AcDbEntity
  8
IMPORT_IGES
100
AcDbLine
 62
7
  6
CONTINUOUS
 10
16.3122202973
 20
6.5183786796
 11
16.3660504391
 21
6.5326488786
  0
LINE
  5
362
100
AcDbEntity
  8
IMPORT_IGES
100
AcDbLine
 62
7
  6
CONTINUOUS
 10
13.9416683034
 20
5.6284417508
 11
14.0000614216
 21
5.6436467159
  0
LINE
  5
363
100
AcDbEntity
  8
IMPORT_IGES
100
AcDbLine
 62
7
  6
CONTINUOUS
 10
19.2470700698
 20
6.8082196755
 11
19.1806273741
 21
6.7921226159
  0
LINE
  5
364
100
AcDbEntity
  8
IMPORT_IGES
100
AcDbLine
 62
7
  6
CONTINUOUS
 10
16.5765983689
 20
5.6498730175
 11
16.6421267471
 21
5.6651575372
  0
LINE
  5
365
100
AcDbEntity
  8
IMPORT_IGES
100
AcDbLine
 62
7
  6
CONTINUOUS
 10
19.3889199696
 20
5.7892980564
 11
19.337846223
 21
5.777970872
  0
LINE
  5
366
100
AcDbEntity
  8
IMPORT_IGES
100
AcDbLine
 62
7
  6
CONTINUOUS
 10
19.384254692
 20
5.5989952076
 11
19.453501301
 21
5.6131222205
  0
LINE
  5
367
100
AcDbEntity
  8
IMPORT_IGES
100
AcDbLine
 62
7
  6
CONTINUOUS
 10
19.5480444852
 20
-6.4576978685
 11
19.5078499625
 21
-6.4431197024
  0
LINE
  5
368
100
AcDbEntity
  8
IMPORT_IGES
100
AcDbLine
 62
7
  6
CONTINUOUS
 10
19.7940452821
 20
-6.5545648461
 11
19.7630888255
 21
-6.5428282445
  0
LINE
  5
369
100
AcDbEntity
  8
IMPORT_IGES
100
AcDbLine
 62
7
  6
CONTINUOUS
 10
19.5409411463
 20
-6.6550363335
 11
19.7379820057
 21
-6.7304135782
  0
LINE
  5
36A
100
AcDbEntity
  8
IMPORT_IGES
100
AcDbLine
 62
7
  6
CONTINUOUS
 10
19.7630888255
 20
-6.5428282445
 11
19.697431407
 21
-6.5174336932
  0
LINE
  5
36B
100
AcDbEntity
  8
IMPORT_IGES
100
AcDbLine
 62
7
  6
CONTINUOUS
 10
19.4725073422
 20
-6.6284356201
 11
19.5409411463
 21
-6.6550363335
  0
LINE
  5
36C
100
AcDbEntity
  8
IMPORT_IGES
100
AcDbLine
 62
7
  6
CONTINUOUS
 10
19.697431407
 20
-6.5174336932
 11
19.6264561387
 21
-6.4895025171
  0
LINE
  5
36D
100
AcDbEntity
  8
IMPORT_IGES
100
AcDbLine
 62
7
  6
CONTINUOUS
 10
17.1381374982
 20
-5.6643020718
 11
17.0875035455
 21
-5.6440378906
  0
LINE
  5
36E
100
AcDbEntity
  8
IMPORT_IGES
100
AcDbLine
 62
7
  6
CONTINUOUS
 10
19.6264561387
 20
-6.4895025171
 11
19.5480444852
 21
-6.4576978685
  0
LINE
  5
36F
100
AcDbEntity
  8
IMPORT_IGES
100
AcDbLine
 62
7
  6
CONTINUOUS
 10
14.7812270337
 20
-5.6676100073
 11
14.7351168931
 21
-5.6478811906
  0
LINE
  5
370
100
AcDbEntity
  8
IMPORT_IGES
100
AcDbLine
 62
7
  6
CONTINUOUS
 10
15.5389132327
 20
-6.9882747258
 11
15.5037731156
 21
-6.9710394558
  0
LINE
  5
371
100
AcDbEntity
  8
IMPORT_IGES
100
AcDbLine
 62
7
  6
CONTINUOUS
 10
17.0337394459
 20
-5.8101855099
 11
17.0639649752
 21
-5.825174585
  0
LINE
  5
372
100
AcDbEntity
  8
IMPORT_IGES
100
AcDbLine
 62
7
  6
CONTINUOUS
 10
15.9883906053
 20
-6.2257714097
 11
15.9335312714
 21
-6.1983065665
  0
LINE
  5
373
100
AcDbEntity
  8
IMPORT_IGES
100
AcDbLine
 62
7
  6
CONTINUOUS
 10
15.8308562603
 20
-6.3595742683
 11
15.8690800631
 21
-6.3787937076
  0
LINE
  5
374
100
AcDbEntity
  8
IMPORT_IGES
100
AcDbLine
 62
7
  6
CONTINUOUS
 10
16.8029114958
 20
-6.9911422012
 11
16.7732079051
 21
-6.9756924095
  0
LINE
  5
375
100
AcDbEntity
  8
IMPORT_IGES
100
AcDbLine
 62
7
  6
CONTINUOUS
 10
15.3690037975
 20
-7.1026332159
 11
15.4148660249
 21
-7.1271899337
  0
LINE
  5
376
100
AcDbEntity
  8
IMPORT_IGES
100
AcDbLine
 62
7
  6
CONTINUOUS
 10
16.6481401543
 20
-7.1146890299
 11
16.6936931826
 21
-7.1406930205
  0
LINE
  5
377
100
AcDbEntity
  8
IMPORT_IGES
100
AcDbLine
 62
7
  6
CONTINUOUS
 10
14.6557066475
 20
-5.8190458754
 11
14.6870519757
 21
-5.8378389642
  0
LINE
  5
378
100
AcDbEntity
  8
IMPORT_IGES
100
AcDbLine
 62
7
  6
CONTINUOUS
 10
13.4805333673
 20
7.3476637204
 11
13.4371427577
 21
7.3089523097
  0
LINE
  5
379
100
AcDbEntity
  8
IMPORT_IGES
100
AcDbLine
 62
7
  6
CONTINUOUS
 10
13.6035817953
 20
7.1640812058
 11
13.6339702232
 21
7.191117454
  0
LINE
  5
37A
100
AcDbEntity
  8
IMPORT_IGES
100
AcDbLine
 62
7
  6
CONTINUOUS
 10
14.9678054886
 20
7.1640812058
 11
14.9981939165
 21
7.191117454
  0
LINE
  5
37B
100
AcDbEntity
  8
IMPORT_IGES
100
AcDbLine
 62
7
  6
CONTINUOUS
 10
14.8428908578
 20
7.3463065955
 11
14.8209575467
 21
7.3276212456
  0
LINE
  5
37C
100
AcDbEntity
  8
IMPORT_IGES
100
AcDbLine
 62
7
  6
CONTINUOUS
 10
14.0328845892
 20
5.9083532979
 11
14.0016828049
 21
5.8818553703
  0
LINE
  5
37D
100
AcDbEntity
  8
IMPORT_IGES
100
AcDbLine
 62
7
  6
CONTINUOUS
 10
16.1112273838
 20
7.3689479922
 11
16.0675240047
 21
7.3325411427
  0
LINE
  5
37E
100
AcDbEntity
  8
IMPORT_IGES
100
AcDbLine
 62
7
  6
CONTINUOUS
 10
14.866861119
 20
7.3640326164
 11
14.8428908578
 21
7.3463065955
  0
LINE
  5
37F
100
AcDbEntity
  8
IMPORT_IGES
100
AcDbLine
 62
7
  6
CONTINUOUS
 10
17.5529640601
 20
7.3640326164
 11
17.528993799
 21
7.3463065955
  0
LINE
  5
380
100
AcDbEntity
  8
IMPORT_IGES
100
AcDbLine
 62
7
  6
CONTINUOUS
 10
15.4733911819
 20
5.6945008196
 11
15.5193827685
 21
5.7278578513
  0
LINE
  5
381
100
AcDbEntity
  8
IMPORT_IGES
100
AcDbLine
 62
7
  6
CONTINUOUS
 10
14.103577217
 20
5.691037102
 11
14.150204164
 21
5.723904375
  0
LINE
  5
382
100
AcDbEntity
  8
IMPORT_IGES
100
AcDbLine
 62
7
  6
CONTINUOUS
 10
16.2539252423
 20
7.2273937973
 11
16.2864136177
 21
7.2489007439
  0
LINE
  5
383
100
AcDbEntity
  8
IMPORT_IGES
100
AcDbLine
 62
7
  6
CONTINUOUS
 10
17.6842968577
 20
7.191117454
 11
17.7174170539
 21
7.2129879344
  0
LINE
  5
384
100
AcDbEntity
  8
IMPORT_IGES
100
AcDbLine
 62
7
  6
CONTINUOUS
 10
16.7645721622
 20
6.6656200338
 11
16.8074983485
 21
6.6939562411
  0
LINE
  5
385
100
AcDbEntity
  8
IMPORT_IGES
100
AcDbLine
 62
7
  6
CONTINUOUS
 10
14.0016828049
 20
5.8818553703
 11
13.967871781
 21
5.8597619886
  0
LINE
  5
386
100
AcDbEntity
  8
IMPORT_IGES
100
AcDbLine
 62
7
  6
CONTINUOUS
 10
15.3659064982
 20
5.8818553703
 11
15.3320954742
 21
5.8597619886
  0
LINE
  5
387
100
AcDbEntity
  8
IMPORT_IGES
100
AcDbLine
 62
7
  6
CONTINUOUS
 10
16.6362331647
 20
6.7897945823
 11
16.6056947943
 21
6.7699239039
  0
LINE
  5
388
100
AcDbEntity
  8
IMPORT_IGES
100
AcDbLine
 62
7
  6
CONTINUOUS
 10
16.1592215926
 20
7.400168301
 11
16.1112273838
 21
7.3689479922
  0
LINE
  5
389
100
AcDbEntity
  8
IMPORT_IGES
100
AcDbLine
 62
7
  6
CONTINUOUS
 10
17.5790475414
 20
7.3808387258
 11
17.5529640601
 21
7.3640326164
  0
LINE
  5
38A
100
AcDbEntity
  8
IMPORT_IGES
100
AcDbLine
 62
7
  6
CONTINUOUS
 10
16.7631839261
 20
5.7153843729
 11
16.8185328152
 21
5.7510083502
  0
LINE
  5
38B
100
AcDbEntity
  8
IMPORT_IGES
100
AcDbLine
 62
7
  6
CONTINUOUS
 10
19.0588555662
 20
6.7397715624
 11
18.9985262981
 21
6.7023871595
  0
LINE
  5
38C
100
AcDbEntity
  8
IMPORT_IGES
100
AcDbLine
 62
7
  6
CONTINUOUS
 10
19.0518809723
 20
6.5498474415
 11
19.0931028018
 21
6.5751179082
  0
LINE
  5
38D
100
AcDbEntity
  8
IMPORT_IGES
100
AcDbLine
 62
7
  6
CONTINUOUS
 10
16.6577126576
 20
5.8836380235
 11
16.6205014247
 21
5.8611579313
  0
LINE
  5
38E
100
AcDbEntity
  8
IMPORT_IGES
100
AcDbLine
 62
7
  6
CONTINUOUS
 10
15.4244317063
 20
5.66741999
 11
15.4733911819
 21
5.6945008196
  0
LINE
  5
38F
100
AcDbEntity
  8
IMPORT_IGES
100
AcDbLine
 62
7
  6
CONTINUOUS
 10
18.1105346475
 20
5.66741999
 11
18.1594941231
 21
5.6945008196
  0
LINE
  5
390
100
AcDbEntity
  8
IMPORT_IGES
100
AcDbLine
 62
7
  6
CONTINUOUS
 10
19.4741769894
 20
5.8279916069
 11
19.4328542135
 21
5.8055062803
  0
LINE
  5
391
100
AcDbEntity
  8
IMPORT_IGES
100
AcDbLine
 62
7
  6
CONTINUOUS
 10
18.0181984154
 20
5.8597619886
 11
17.9820222167
 21
5.8425157437
  0
LINE
  5
392
100
AcDbEntity
  8
IMPORT_IGES
100
AcDbLine
 62
7
  6
CONTINUOUS
 10
19.5146908695
 20
5.6324059975
 11
19.5720308955
 21
5.6578351916
  0
LINE
  5
393
100
AcDbEntity
  8
IMPORT_IGES
100
AcDbLine
 62
7
  6
CONTINUOUS
 10
13.6855429372
 20
7.4411004109
 11
13.628211535
 21
7.4262819083
  0
LINE
  5
394
100
AcDbEntity
  8
IMPORT_IGES
100
AcDbLine
 62
7
  6
CONTINUOUS
 10
17.7436933526
 20
7.4434492542
 11
17.7046112336
 21
7.4339987148
  0
LINE
  5
395
100
AcDbEntity
  8
IMPORT_IGES
100
AcDbLine
 62
7
  6
CONTINUOUS
 10
15.0575904115
 20
7.4434492542
 11
15.0185082925
 21
7.4339987148
  0
LINE
  5
396
100
AcDbEntity
  8
IMPORT_IGES
100
AcDbLine
 62
7
  6
CONTINUOUS
 10
16.3328592467
 20
7.4607894651
 11
16.2676509841
 21
7.4453796539
  0
LINE
  5
397
100
AcDbEntity
  8
IMPORT_IGES
100
AcDbLine
 62
7
  6
CONTINUOUS
 10
16.494951419
 20
6.724710411
 11
16.449939542
 21
6.71452947
  0
LINE
  5
398
100
AcDbEntity
  8
IMPORT_IGES
100
AcDbLine
 62
7
  6
CONTINUOUS
 10
17.9027370047
 20
5.8228597255
 11
17.9435621981
 21
5.8302641662
  0
LINE
  5
399
100
AcDbEntity
  8
IMPORT_IGES
100
AcDbLine
 62
7
  6
CONTINUOUS
 10
15.2166340635
 20
5.8228597255
 11
15.2574592569
 21
5.8302641662
  0
LINE
  5
39A
100
AcDbEntity
  8
IMPORT_IGES
100
AcDbLine
 62
7
  6
CONTINUOUS
 10
13.8524103702
 20
5.8228597255
 11
13.8932355636
 21
5.8302641662
  0
LINE
  5
39B
100
AcDbEntity
  8
IMPORT_IGES
100
AcDbLine
 62
7
  6
CONTINUOUS
 10
17.9335692385
 20
5.6190704656
 11
17.9999976165
 21
5.6301415116
  0
LINE
  5
39C
100
AcDbEntity
  8
IMPORT_IGES
100
AcDbLine
 62
7
  6
CONTINUOUS
 10
15.2474662973
 20
5.6190704656
 11
15.3138946754
 21
5.6301415116
  0
LINE
  5
39D
100
AcDbEntity
  8
IMPORT_IGES
100
AcDbLine
 62
7
  6
CONTINUOUS
 10
17.8355803234
 20
7.2490366408
 11
17.7930587868
 21
7.2419475278
  0
LINE
  5
39E
100
AcDbEntity
  8
IMPORT_IGES
100
AcDbLine
 62
7
  6
CONTINUOUS
 10
15.1494773823
 20
7.2490366408
 11
15.1069558456
 21
7.2419475278
  0
LINE
  5
39F
100
AcDbEntity
  8
IMPORT_IGES
100
AcDbLine
 62
7
  6
CONTINUOUS
 10
17.7797502557
 20
7.4491821668
 11
17.7436933526
 21
7.4434492542
  0
LINE
  5
3A0
100
AcDbEntity
  8
IMPORT_IGES
100
AcDbLine
 62
7
  6
CONTINUOUS
 10
13.8742382809
 20
5.6182782808
 11
13.9416683034
 21
5.6284417508
  0
LINE
  5
3A1
100
AcDbEntity
  8
IMPORT_IGES
100
AcDbLine
 62
7
  6
CONTINUOUS
 10
16.3660504391
 20
6.5326488786
 11
16.418120961
 21
6.5402210963
  0
LINE
  5
3A2
100
AcDbEntity
  8
IMPORT_IGES
100
AcDbLine
 62
7
  6
CONTINUOUS
 10
16.5347805249
 20
5.8295169997
 11
16.4903216344
 21
5.8231032608
  0
LINE
  5
3A3
100
AcDbEntity
  8
IMPORT_IGES
100
AcDbLine
 62
7
  6
CONTINUOUS
 10
16.0984899294
 20
6.1727448989
 11
15.8786518612
 21
6.1434330231
  0
LINE
  5
3A4
100
AcDbEntity
  8
IMPORT_IGES
100
AcDbLine
 62
7
  6
CONTINUOUS
 10
19.1903415334
 20
6.6116071819
 11
19.241758154
 21
6.6182521254
  0
LINE
  5
3A5
100
AcDbEntity
  8
IMPORT_IGES
100
AcDbLine
 62
7
  6
CONTINUOUS
 10
16.5765983689
 20
5.6498730175
 11
16.5022093886
 21
5.6408493836
  0
LINE
  5
3A6
100
AcDbEntity
  8
IMPORT_IGES
100
AcDbLine
 62
7
  6
CONTINUOUS
 10
18.9372223067
 20
6.1138599567
 11
18.7054895241
 21
6.0942439751
  0
LINE
  5
3A7
100
AcDbEntity
  8
IMPORT_IGES
100
AcDbLine
 62
7
  6
CONTINUOUS
 10
19.3194303482
 20
5.5943238347
 11
19.384254692
 21
5.5989952076
  0
LINE
  5
3A8
100
AcDbEntity
  8
IMPORT_IGES
100
AcDbLine
 62
7
  6
CONTINUOUS
 10
19.337846223
 20
5.777970872
 11
19.296586794
 21
5.7753245184
  0
LINE
  5
3A9
100
AcDbEntity
  8
IMPORT_IGES
100
AcDbLine
 62
7
  6
CONTINUOUS
 10
17.184376786
 20
-5.6902616776
 11
17.1381374982
 21
-5.6643020718
  0
LINE
  5
3AA
100
AcDbEntity
  8
IMPORT_IGES
100
AcDbLine
 62
7
  6
CONTINUOUS
 10
14.8217745055
 20
-5.692120217
 11
14.7812270337
 21
-5.6676100073
  0
LINE
  5
3AB
100
AcDbEntity
  8
IMPORT_IGES
100
AcDbLine
 62
7
  6
CONTINUOUS
 10
16.0385652211
 20
-6.2585347416
 11
15.9883906053
 21
-6.2257714097
  0
LINE
  5
3AC
100
AcDbEntity
  8
IMPORT_IGES
100
AcDbLine
 62
7
  6
CONTINUOUS
 10
15.5037731156
 20
-6.9710394558
 11
15.4727340785
 21
-6.9503858783
  0
LINE
  5
3AD
100
AcDbEntity
  8
IMPORT_IGES
100
AcDbLine
 62
7
  6
CONTINUOUS
 10
15.8690800631
 20
-6.3787937076
 11
15.9025480627
 21
-6.4013783102
  0
LINE
  5
3AE
100
AcDbEntity
  8
IMPORT_IGES
100
AcDbLine
 62
7
  6
CONTINUOUS
 10
15.3276906836
 20
-7.0741129663
 11
15.3690037975
 21
-7.1026332159
  0
LINE
  5
3AF
100
AcDbEntity
  8
IMPORT_IGES
100
AcDbLine
 62
7
  6
CONTINUOUS
 10
16.7732079051
 20
-6.9756924095
 11
16.7457892457
 21
-6.9558628322
  0
LINE
  5
3B0
100
AcDbEntity
  8
IMPORT_IGES
100
AcDbLine
 62
7
  6
CONTINUOUS
 10
16.6057789007
 20
-7.0822401287
 11
16.6481401543
 21
-7.1146890299
  0
LINE
  5
3B1
100
AcDbEntity
  8
IMPORT_IGES
100
AcDbLine
 62
7
  6
CONTINUOUS
 10
14.8584936615
 20
-5.7211923654
 11
14.8217745055
 21
-5.692120217
  0
LINE
  5
3B2
100
AcDbEntity
  8
IMPORT_IGES
100
AcDbLine
 62
7
  6
CONTINUOUS
 10
14.6870519757
 20
-5.8378389642
 11
14.7151749123
 21
-5.8607328091
  0
LWPOLYLINE
  5
3B3
100
AcDbEntity
  8
IMPORT_IGES
100
AcDbPolyline
 62
253
  6
CONTINUOUS
 90
28
 70
0
 10
7.6414895263
 20
-18.3959117735
 10
7.6469510993
 20
-18.5045349852
 10
7.6579765205
 20
-18.6147119332
 10
7.6745657898
 20
-18.7261219694
 10
7.6965615237
 20
-18.8384664491
 10
7.7241211057
 20
-18.9513584048
 10
7.7577166869
 20
-19.0643332437
 10
7.7974209088
 20
-19.1770227684
 10
7.8431611299
 20
-19.2890474877
 10
7.895191577
 20
-19.3999255333
 10
7.9536005701
 20
-19.509271713
 10
8.0182997891
 20
-19.6166628788
 10
8.0892785008
 20
-19.7215674778
 10
8.166697832
 20
-19.8236403555
 10
8.2503966559
 20
-19.9223683391
 10
8.3398808587
 20
-20.0170227706
 10
8.4352986104
 20
-20.1072344301
 10
8.536501741
 20
-20.192569077
 10
8.6425516261
 20
-20.2723224225
 10
8.753582777
 20
-20.3461727684
 10
8.8694606823
 20
-20.4137547921
 10
8.9888431843
 20
-20.4744691906
 10
9.1118365204
 20
-20.5280738067
 10
9.2383344531
 20
-20.5743049092
 10
9.3666761123
 20
-20.6127437312
 10
9.4963078745
 20
-20.6432116783
 10
9.6277833631
 20
-20.6656421108
 10
9.7611025781
 20
-20.6799017679
  0
LINE
  5
3B4
100
AcDbEntity
  8
IMPORT_IGES
100
AcDbLine
 62
253
  6
CONTINUOUS
 10
7.6028008775
 20
-17.2514544076
 11
7.6168725186
 21
-17.6572298717
  0
LINE
  5
3B5
100
AcDbEntity
  8
IMPORT_IGES
100
AcDbLine
 62
253
  6
CONTINUOUS
 10
7.4580071497
 20
-13.1868509411
 11
7.6028008775
 21
-17.2514544076
  0
LINE
  5
3B6
100
AcDbEntity
  8
IMPORT_IGES
100
AcDbLine
 62
253
  6
CONTINUOUS
 10
7.6168767976
 20
17.8852546616
 11
7.4580021243
 21
13.4144961523
  0
LWPOLYLINE
  5
3B7
100
AcDbEntity
  8
IMPORT_IGES
100
AcDbPolyline
 62
253
  6
CONTINUOUS
 90
28
 70
0
 10
7.641491076
 20
18.6238265275
 10
7.6469544402
 20
18.7324957615
 10
7.6579825698
 20
18.8427039545
 10
7.674575465
 20
18.9541313018
 10
7.696577452
 20
19.0664764382
 10
7.7241442045
 20
19.1793572586
 10
7.7577427436
 20
19.2923205232
 10
7.7974403835
 20
19.4049990762
 10
7.84316981
 20
19.5170125566
 10
7.8951961016
 20
19.6278858185
 10
7.9536138057
 20
19.7372378383
 10
8.0183283748
 20
19.8446393889
 10
8.0893212453
 20
19.9495505534
 10
8.1667524652
 20
20.0516239781
 10
8.2504619866
 20
20.1503496948
 10
8.3399511017
 20
20.244999883
 10
8.4353629285
 20
20.3352052309
 10
8.536554349
 20
20.4205323397
 10
8.6425973011
 20
20.500278717
 10
8.7536335482
 20
20.5741236909
 10
8.8695213268
 20
20.6417006621
 10
8.988907284
 20
20.7024088608
 10
9.1118922912
 20
20.7560059989
 10
9.238375477
 20
20.8022298443
 10
9.366700874
 20
20.8406627974
 10
9.4963164933
 20
20.8711266005
 10
9.627774324
 20
20.8935545701
 10
9.7610743659
 20
20.9078136388
  0
LWPOLYLINE
  5
3B8
100
AcDbEntity
  8
IMPORT_IGES
100
AcDbPolyline
 62
253
  6
CONTINUOUS
 90
22
 70
0
 10
8.8110747359
 20
19.2459393667
 10
8.8209112813
 20
19.3383006502
 10
8.8373177337
 20
19.4297208588
 10
8.8602094391
 20
19.5197334288
 10
8.8894712363
 20
19.6078860986
 10
8.9249513185
 20
19.6937217912
 10
8.9664570879
 20
19.7767829402
 10
9.0137644794
 20
19.8566370356
 10
9.0666329856
 20
19.9328920781
 10
9.124800245
 20
20.0051761646
 10
9.1879685497
 20
20.0731222906
 10
9.2558147689
 20
20.1363856407
 10
9.328006226
 20
20.1946559607
 10
9.4041764158
 20
20.2476349691
 10
9.4839384299
 20
20.2950512639
 10
9.5669029186
 20
20.3366689975
 10
9.6526505421
 20
20.3722712965
 10
9.7407451092
 20
20.4016707703
 10
9.8307527783
 20
20.4247150706
 10
9.9222206619
 20
20.4412786754
 10
10.0146780566
 20
20.4512668736
 10
10.1076527385
 20
20.4546198032
  0
LINE
  5
3B9
100
AcDbEntity
  8
IMPORT_IGES
100
AcDbLine
 62
7
  6
CONTINUOUS
 10
13.3967682843
 20
7.264051413
 11
13.360000425
 21
7.2133401597
  0
LINE
  5
3BA
100
AcDbEntity
  8
IMPORT_IGES
100
AcDbLine
 62
253
  6
CONTINUOUS
 10
23.152395133
 20
20.9078136391
 11
22.8044608671
 21
20.4546367775
  0
LINE
  5
3BB
100
AcDbEntity
  8
IMPORT_IGES
100
AcDbLine
 62
7
  6
CONTINUOUS
 10
13.5757341884
 20
7.1313442548
 11
13.6035817953
 21
7.1640812058
  0
LINE
  5
3BC
100
AcDbEntity
  8
IMPORT_IGES
100
AcDbLine
 62
7
  6
CONTINUOUS
 10
14.9399578817
 20
7.1313442549
 11
14.9678054886
 21
7.1640812058
  0
LINE
  5
3BD
100
AcDbEntity
  8
IMPORT_IGES
100
AcDbLine
 62
7
  6
CONTINUOUS
 10
14.7821998621
 20
7.2892795795
 11
14.7653754886
 21
7.2696232633
  0
LINE
  5
3BE
100
AcDbEntity
  8
IMPORT_IGES
100
AcDbLine
 62
7
  6
CONTINUOUS
 10
13.4371427577
 20
7.3089523097
 11
13.3967682843
 21
7.264051413
  0
LINE
  5
3BF
100
AcDbEntity
  8
IMPORT_IGES
100
AcDbLine
 62
7
  6
CONTINUOUS
 10
14.1943732894
 20
5.7633536662
 11
14.2354978484
 21
5.8090881404
  0
LINE
  5
3C0
100
AcDbEntity
  8
IMPORT_IGES
100
AcDbLine
 62
7
  6
CONTINUOUS
 10
14.0617271899
 20
5.9395781547
 11
14.0328845892
 21
5.9083532979
  0
LINE
  5
3C1
100
AcDbEntity
  8
IMPORT_IGES
100
AcDbLine
 62
7
  6
CONTINUOUS
 10
16.0675240047
 20
7.3325411427
 11
16.0280417672
 21
7.2912061051
  0
LINE
  5
3C2
100
AcDbEntity
  8
IMPORT_IGES
100
AcDbLine
 62
7
  6
CONTINUOUS
 10
14.8007218885
 20
7.3085871164
 11
14.7821998621
 21
7.2892795795
  0
LINE
  5
3C3
100
AcDbEntity
  8
IMPORT_IGES
100
AcDbLine
 62
7
  6
CONTINUOUS
 10
14.8209575467
 20
7.3276212456
 11
14.8007218885
 21
7.3085871164
  0
LINE
  5
3C4
100
AcDbEntity
  8
IMPORT_IGES
100
AcDbLine
 62
7
  6
CONTINUOUS
 10
17.5070604879
 20
7.3276212456
 11
17.4868248297
 21
7.3085871164
  0
LINE
  5
3C5
100
AcDbEntity
  8
IMPORT_IGES
100
AcDbLine
 62
7
  6
CONTINUOUS
 10
15.5193827685
 20
5.7278578513
 11
15.5630103102
 21
5.7678286976
  0
LINE
  5
3C6
100
AcDbEntity
  8
IMPORT_IGES
100
AcDbLine
 62
7
  6
CONTINUOUS
 10
14.150204164
 20
5.723904375
 11
14.1943732894
 21
5.7633536662
  0
LINE
  5
3C7
100
AcDbEntity
  8
IMPORT_IGES
100
AcDbLine
 62
7
  6
CONTINUOUS
 10
17.6539084297
 20
7.1640812058
 11
17.6842968577
 21
7.191117454
  0
LINE
  5
3C8
100
AcDbEntity
  8
IMPORT_IGES
100
AcDbLine
 62
7
  6
CONTINUOUS
 10
16.2247106993
 20
7.2016900527
 11
16.2539252423
 21
7.2273937973
  0
LINE
  5
3C9
100
AcDbEntity
  8
IMPORT_IGES
100
AcDbLine
 62
7
  6
CONTINUOUS
 10
17.528993799
 20
7.3463065955
 11
17.5070604879
 21
7.3276212456
  0
LINE
  5
3CA
100
AcDbEntity
  8
IMPORT_IGES
100
AcDbLine
 62
7
  6
CONTINUOUS
 10
15.3971082824
 20
5.9083532979
 11
15.3659064982
 21
5.8818553703
  0
LINE
  5
3CB
100
AcDbEntity
  8
IMPORT_IGES
100
AcDbLine
 62
7
  6
CONTINUOUS
 10
16.6628049322
 20
6.8122040796
 11
16.6362331647
 21
6.7897945823
  0
LINE
  5
3CC
100
AcDbEntity
  8
IMPORT_IGES
100
AcDbLine
 62
7
  6
CONTINUOUS
 10
16.8074983485
 20
6.6939562411
 11
16.845257893
 21
6.725519895
  0
LINE
  5
3CD
100
AcDbEntity
  8
IMPORT_IGES
100
AcDbLine
 62
7
  6
CONTINUOUS
 10
16.8185328152
 20
5.7510083502
 11
16.8700736065
 21
5.7930435945
  0
LINE
  5
3CE
100
AcDbEntity
  8
IMPORT_IGES
100
AcDbLine
 62
7
  6
CONTINUOUS
 10
19.0148140447
 20
6.5201167507
 11
19.0518809723
 21
6.5498474415
  0
LINE
  5
3CF
100
AcDbEntity
  8
IMPORT_IGES
100
AcDbLine
 62
7
  6
CONTINUOUS
 10
16.6932112347
 20
5.9118705648
 11
16.6577126576
 21
5.8836380235
  0
LINE
  5
3D0
100
AcDbEntity
  8
IMPORT_IGES
100
AcDbLine
 62
7
  6
CONTINUOUS
 10
19.5131995222
 20
5.8563903899
 11
19.4741769894
 21
5.8279916069
  0
LINE
  5
3D1
100
AcDbEntity
  8
IMPORT_IGES
100
AcDbLine
 62
7
  6
CONTINUOUS
 10
18.1594941231
 20
5.6945008196
 11
18.2054857097
 21
5.7278578514
  0
LINE
  5
3D2
100
AcDbEntity
  8
IMPORT_IGES
100
AcDbLine
 62
7
  6
CONTINUOUS
 10
18.0520094394
 20
5.8818553703
 11
18.0181984154
 21
5.8597619886
  0
LINE
  5
3D3
100
AcDbEntity
  8
IMPORT_IGES
100
AcDbLine
 62
7
  6
CONTINUOUS
 10
19.5720308955
 20
5.6578351916
 11
19.625257256
 21
5.6892824492
  0
LINE
  5
3D4
100
AcDbEntity
  8
IMPORT_IGES
100
AcDbLine
 62
7
  6
CONTINUOUS
 10
13.785253689
 20
7.2490366408
 11
13.7427321523
 21
7.2419475278
  0
LINE
  5
3D5
100
AcDbEntity
  8
IMPORT_IGES
100
AcDbLine
 62
7
  6
CONTINUOUS
 10
15.0936473145
 20
7.4491821668
 11
15.0575904115
 21
7.4434492542
  0
LINE
  5
3D6
100
AcDbEntity
  8
IMPORT_IGES
100
AcDbLine
 62
7
  6
CONTINUOUS
 10
16.3651272034
 20
7.2793847293
 11
16.4067464863
 21
7.2857592427
  0
LINE
  5
3D7
100
AcDbEntity
  8
IMPORT_IGES
100
AcDbLine
 62
7
  6
CONTINUOUS
 10
13.6855429372
 20
7.4411004109
 11
13.751790698
 21
7.4509481187
  0
LINE
  5
3D8
100
AcDbEntity
  8
IMPORT_IGES
100
AcDbLine
 62
7
  6
CONTINUOUS
 10
16.449939542
 20
6.71452947
 11
16.4105093082
 21
6.7102971592
  0
LINE
  5
3D9
100
AcDbEntity
  8
IMPORT_IGES
100
AcDbLine
 62
7
  6
CONTINUOUS
 10
16.3949174811
 20
7.4667196787
 11
16.3328592467
 21
7.4607894651
  0
LINE
  5
3DA
100
AcDbEntity
  8
IMPORT_IGES
100
AcDbLine
 62
7
  6
CONTINUOUS
 10
17.779741356
 20
7.4484615908
 11
17.8202146543
 21
7.4521916757
  0
LINE
  5
3DB
100
AcDbEntity
  8
IMPORT_IGES
100
AcDbLine
 62
7
  6
CONTINUOUS
 10
15.0936384148
 20
7.4484615908
 11
15.1341117131
 21
7.4521916757
  0
LINE
  5
3DC
100
AcDbEntity
  8
IMPORT_IGES
100
AcDbLine
 62
7
  6
CONTINUOUS
 10
19.307217265
 20
6.8137171991
 11
19.2470700698
 21
6.8082196755
  0
LINE
  5
3DD
100
AcDbEntity
  8
IMPORT_IGES
100
AcDbLine
 62
7
  6
CONTINUOUS
 10
16.4610817428
 20
6.542743626
 11
16.4131630517
 21
6.5395552311
  0
LINE
  5
3DE
100
AcDbEntity
  8
IMPORT_IGES
100
AcDbLine
 62
7
  6
CONTINUOUS
 10
16.443131754
 20
7.2878090156
 11
16.4017743272
 21
7.2851650326
  0
LINE
  5
3DF
100
AcDbEntity
  8
IMPORT_IGES
100
AcDbLine
 62
7
  6
CONTINUOUS
 10
17.8595466364
 20
5.8203024218
 11
17.9027370047
 21
5.8228597255
  0
LINE
  5
3E0
100
AcDbEntity
  8
IMPORT_IGES
100
AcDbLine
 62
7
  6
CONTINUOUS
 10
15.1734436952
 20
5.8203024218
 11
15.2166340635
 21
5.8228597255
  0
LINE
  5
3E1
100
AcDbEntity
  8
IMPORT_IGES
100
AcDbLine
 62
7
  6
CONTINUOUS
 10
13.809220002
 20
5.8203024218
 11
13.8524103702
 21
5.8228597255
  0
LINE
  5
3E2
100
AcDbEntity
  8
IMPORT_IGES
100
AcDbLine
 62
7
  6
CONTINUOUS
 10
16.4491752652
 20
5.8211292018
 11
16.4952965128
 21
5.8236204714
  0
LINE
  5
3E3
100
AcDbEntity
  8
IMPORT_IGES
100
AcDbLine
 62
7
  6
CONTINUOUS
 10
17.872770104
 20
5.6160587099
 11
17.9335692385
 21
5.6190704656
  0
LINE
  5
3E4
100
AcDbEntity
  8
IMPORT_IGES
100
AcDbLine
 62
7
  6
CONTINUOUS
 10
15.1866671629
 20
5.6160587099
 11
15.2474662973
 21
5.6190704656
  0
LINE
  5
3E5
100
AcDbEntity
  8
IMPORT_IGES
100
AcDbLine
 62
7
  6
CONTINUOUS
 10
17.8811954391
 20
7.2511747668
 11
17.8355803234
 21
7.2490366408
  0
LINE
  5
3E6
100
AcDbEntity
  8
IMPORT_IGES
100
AcDbLine
 62
7
  6
CONTINUOUS
 10
15.1950924979
 20
7.2511747668
 11
15.1494773823
 21
7.2490366408
  0
LINE
  5
3E7
100
AcDbEntity
  8
IMPORT_IGES
100
AcDbLine
 62
7
  6
CONTINUOUS
 10
13.8308688046
 20
7.2511747668
 11
13.785253689
 21
7.2490366408
  0
LINE
  5
3E8
100
AcDbEntity
  8
IMPORT_IGES
100
AcDbLine
 62
7
  6
CONTINUOUS
 10
13.8123641714
 20
5.6159557723
 11
13.8742382809
 21
5.6182782808
  0
LINE
  5
3E9
100
AcDbEntity
  8
IMPORT_IGES
100
AcDbLine
 62
7
  6
CONTINUOUS
 10
19.2905865433
 20
6.6199613072
 11
19.2367736344
 21
6.617967592
  0
LINE
  5
3EA
100
AcDbEntity
  8
IMPORT_IGES
100
AcDbLine
 62
7
  6
CONTINUOUS
 10
16.3761060818
 20
6.7091636053
 11
16.4155010857
 21
6.7106021658
  0
LINE
  5
3EB
100
AcDbEntity
  8
IMPORT_IGES
100
AcDbLine
 62
7
  6
CONTINUOUS
 10
17.8202346113
 20
7.4521940114
 11
17.8626834539
 21
7.453655837
  0
LINE
  5
3EC
100
AcDbEntity
  8
IMPORT_IGES
100
AcDbLine
 62
7
  6
CONTINUOUS
 10
16.5021926503
 20
5.6412135005
 11
16.4324010047
 21
5.6393798139
  0
LINE
  5
3ED
100
AcDbEntity
  8
IMPORT_IGES
100
AcDbLine
 62
7
  6
CONTINUOUS
 10
19.3042951568
 20
6.8140565785
 11
19.3660733098
 21
6.8146048595
  0
LINE
  5
3EE
100
AcDbEntity
  8
IMPORT_IGES
100
AcDbLine
 62
7
  6
CONTINUOUS
 10
19.319431053
 20
5.5937522038
 11
19.2465020953
 21
5.5936659071
  0
LINE
  5
3EF
100
AcDbEntity
  8
IMPORT_IGES
100
AcDbLine
 62
7
  6
CONTINUOUS
 10
16.3760997451
 20
6.7098636403
 11
16.3673165219
 21
6.7099500496
  0
LINE
  5
3F0
100
AcDbEntity
  8
IMPORT_IGES
100
AcDbLine
 62
7
  6
CONTINUOUS
 10
19.2504048819
 20
5.7757513008
 11
19.2965710331
 21
5.7744526446
  0
LINE
  5
3F1
100
AcDbEntity
  8
IMPORT_IGES
100
AcDbLine
 62
7
  6
CONTINUOUS
 10
13.7510677706
 20
5.6180142594
 11
13.8123641714
 21
5.6159557723
  0
LINE
  5
3F2
100
AcDbEntity
  8
IMPORT_IGES
100
AcDbLine
 62
7
  6
CONTINUOUS
 10
15.1866483935
 20
5.6154391339
 11
15.1211989766
 21
5.6179622427
  0
LINE
  5
3F3
100
AcDbEntity
  8
IMPORT_IGES
100
AcDbLine
 62
7
  6
CONTINUOUS
 10
17.8727513346
 20
5.6154391339
 11
17.8073019174
 21
5.6179622427
  0
LINE
  5
3F4
100
AcDbEntity
  8
IMPORT_IGES
100
AcDbLine
 62
7
  6
CONTINUOUS
 10
16.3669991932
 20
5.6430800488
 11
16.432387734
 21
5.6401869438
  0
LINE
  5
3F5
100
AcDbEntity
  8
IMPORT_IGES
100
AcDbLine
 62
7
  6
CONTINUOUS
 10
16.4050908491
 20
5.8234553149
 11
16.4491179681
 21
5.821129126
  0
LINE
  5
3F6
100
AcDbEntity
  8
IMPORT_IGES
100
AcDbLine
 62
7
  6
CONTINUOUS
 10
13.7668756912
 20
5.8228791487
 11
13.809220002
 21
5.8203024218
  0
LINE
  5
3F7
100
AcDbEntity
  8
IMPORT_IGES
100
AcDbLine
 62
7
  6
CONTINUOUS
 10
15.1310993845
 20
5.8228791487
 11
15.1734436952
 21
5.8203024218
  0
LINE
  5
3F8
100
AcDbEntity
  8
IMPORT_IGES
100
AcDbLine
 62
7
  6
CONTINUOUS
 10
17.8172023256
 20
5.8228791487
 11
17.8595466364
 21
5.8203024218
  0
LINE
  5
3F9
100
AcDbEntity
  8
IMPORT_IGES
100
AcDbLine
 62
7
  6
CONTINUOUS
 10
19.1816506527
 20
5.598658372
 11
19.246501402
 21
5.5942758287
  0
LINE
  5
3FA
100
AcDbEntity
  8
IMPORT_IGES
100
AcDbLine
 62
7
  6
CONTINUOUS
 10
17.0639649752
 20
-5.825174585
 11
17.0911042927
 21
-5.8442861624
  0
LINE
  5
3FB
100
AcDbEntity
  8
IMPORT_IGES
100
AcDbLine
 62
7
  6
CONTINUOUS
 10
17.227003669
 20
-5.7223091575
 11
17.184376786
 21
-5.6902616776
  0
LINE
  5
3FC
100
AcDbEntity
  8
IMPORT_IGES
100
AcDbLine
 62
7
  6
CONTINUOUS
 10
16.0836321115
 20
-6.2969168524
 11
16.0385652211
 21
-6.2585347416
  0
LINE
  5
3FD
100
AcDbEntity
  8
IMPORT_IGES
100
AcDbLine
 62
7
  6
CONTINUOUS
 10
15.2911202027
 20
-7.0414993405
 11
15.3276906836
 21
-7.0741129663
  0
LINE
  5
3FE
100
AcDbEntity
  8
IMPORT_IGES
100
AcDbLine
 62
7
  6
CONTINUOUS
 10
15.9025480627
 20
-6.4013783102
 11
15.9320213575
 21
-6.4277034029
  0
LINE
  5
3FF
100
AcDbEntity
  8
IMPORT_IGES
100
AcDbLine
 62
7
  6
CONTINUOUS
 10
15.4727340785
 20
-6.9503858783
 11
15.4462443736
 21
-6.9266440826
  0
LINE
  5
400
100
AcDbEntity
  8
IMPORT_IGES
100
AcDbLine
 62
7
  6
CONTINUOUS
 10
16.7457892457
 20
-6.9558628322
 11
16.7206191789
 21
-6.9317511635
  0
LINE
  5
401
100
AcDbEntity
  8
IMPORT_IGES
100
AcDbLine
 62
7
  6
CONTINUOUS
 10
16.5660621823
 20
-7.0429097759
 11
16.6057789007
 21
-7.0822401287
  0
LINE
  5
402
100
AcDbEntity
  8
IMPORT_IGES
100
AcDbLine
 62
7
  6
CONTINUOUS
 10
14.8919023865
 20
-5.7547072379
 11
14.8584936615
 21
-5.7211923654
  0
LINE
  5
403
100
AcDbEntity
  8
IMPORT_IGES
100
AcDbLine
 62
7
  6
CONTINUOUS
 10
14.7151749123
 20
-5.8607328091
 11
14.739401476
 21
-5.8868098911
  0
LINE
  5
404
100
AcDbEntity
  8
IMPORT_IGES
100
AcDbLine
 62
7
  6
CONTINUOUS
 10
15.2593065131
 20
-7.0049147592
 11
15.2911202027
 21
-7.0414993405
  0
LINE
  5
405
100
AcDbEntity
  8
IMPORT_IGES
100
AcDbLine
 62
253
  6
CONTINUOUS
 10
22.8044639937
 20
-20.2267228349
 11
23.1524085064
 21
-20.6799017679
  0
LINE
  5
406
100
AcDbEntity
  8
IMPORT_IGES
100
AcDbLine
 62
253
  6
CONTINUOUS
 10
7.9412897588
 20
8.5540592844
 11
8.1812172561
 21
5.0410927565
  0
LWPOLYLINE
  5
407
100
AcDbEntity
  8
IMPORT_IGES
100
AcDbPolyline
 62
253
  6
CONTINUOUS
 90
16
 70
0
 10
8.1812172561
 20
5.0410927565
 10
8.226559293
 20
4.337930822
 10
8.2688901846
 20
3.6345125485
 10
8.3078950337
 20
2.9308947823
 10
8.3392952114
 20
2.2270061269
 10
8.3624102803
 20
1.52280239
 10
8.3779206776
 20
0.8183974517
 10
8.383589086
 20
0.113957048
 10
8.3779244456
 20
-0.5904843011
 10
8.3624178162
 20
-1.2948912008
 10
8.3393050596
 20
-1.9990966034
 10
8.3079050638
 20
-2.702986159
 10
8.2688989407
 20
-3.4066045299
 10
8.2265658881
 20
-4.1100232111
 10
8.1812201342
 20
-4.8131855514
 10
7.9412890667
 20
-8.3261458382
  0
LINE
  5
408
100
AcDbEntity
  8
IMPORT_IGES
100
AcDbLine
 62
253
  6
CONTINUOUS
 10
7.6168725186
 20
-17.6572298717
 11
7.6414895263
 21
-18.3959117735
  0
LINE
  5
409
100
AcDbEntity
  8
IMPORT_IGES
100
AcDbLine
 62
253
  6
CONTINUOUS
 10
8.4957107327
 20
-15.0507613175
 11
8.4567278956
 21
-13.8715401524
  0
LINE
  5
40A
100
AcDbEntity
  8
IMPORT_IGES
100
AcDbLine
 62
253
  6
CONTINUOUS
 10
7.4189078834
 20
-11.9615345044
 11
7.4580071497
 21
-13.1868509411
  0
LINE
  5
40B
100
AcDbEntity
  8
IMPORT_IGES
100
AcDbLine
 62
253
  6
CONTINUOUS
 10
8.6388588427
 20
-19.2435644816
 11
8.4957107327
 21
-15.0507613175
  0
LINE
  5
40C
100
AcDbEntity
  8
IMPORT_IGES
100
AcDbLine
 62
253
  6
CONTINUOUS
 10
8.4567278956
 20
-13.8715401524
 11
8.4176207663
 21
-12.6085513096
  0
LINE
  5
40D
100
AcDbEntity
  8
IMPORT_IGES
100
AcDbLine
 62
253
  6
CONTINUOUS
 10
7.3805523662
 20
-10.6614585424
 11
7.4189078834
 21
-11.9615345044
  0
LWPOLYLINE
  5
40E
100
AcDbEntity
  8
IMPORT_IGES
100
AcDbPolyline
 62
253
  6
CONTINUOUS
 90
10
 70
0
 10
8.4176207663
 20
-12.6085513096
 10
8.3773017276
 20
-11.1776546531
 10
8.3763163488
 20
-11.0931241941
 10
8.3765846651
 20
-11.0084661649
 10
8.3780908762
 20
-10.9236671527
 10
8.3808281681
 20
-10.8387437668
 10
8.3848116396
 20
-10.7537421352
 10
8.3900495184
 20
-10.6686782748
 10
8.396530243
 20
-10.5835385902
 10
8.4042484473
 20
-10.4983244307
  0
LWPOLYLINE
  5
40F
100
AcDbEntity
  8
IMPORT_IGES
100
AcDbPolyline
 62
253
  6
CONTINUOUS
 90
11
 70
0
 10
8.7041925528
 20
4.2708912253
 10
8.7220693394
 20
3.4747356495
 10
8.7374465981
 20
2.70407526
 10
8.7499634256
 20
1.9557958906
 10
8.7586007919
 20
1.2180019224
 10
8.7629608887
 20
0.4934976611
 10
8.763093894
 20
-0.2206097748
 10
8.7589830217
 20
-0.944765635
 10
8.7505973892
 20
-1.6808475318
 10
8.738297299
 20
-2.4270663372
 10
8.7230110687
 20
-3.1983648512
  0
LWPOLYLINE
  5
410
100
AcDbEntity
  8
IMPORT_IGES
100
AcDbPolyline
 62
253
  6
CONTINUOUS
 90
4
 70
0
 10
8.6082464611
 20
8.6177706764
 10
8.6254066778
 20
7.6977828828
 10
8.6443039169
 20
6.8029329553
 10
8.7041925528
 20
4.2708912253
  0
LWPOLYLINE
  5
411
100
AcDbEntity
  8
IMPORT_IGES
100
AcDbPolyline
 62
253
  6
CONTINUOUS
 90
10
 70
0
 10
7.3805572591
 20
10.8894470198
 10
7.379570789
 20
10.8075253174
 10
7.3810511282
 20
10.7254305046
 10
7.3849982768
 20
10.643164588
 10
7.3914163965
 20
10.5606858778
 10
7.4003013256
 20
10.4780397938
 10
7.4116405785
 20
10.3953602084
 10
7.4254299935
 20
10.3126943957
 10
7.4416737323
 20
10.2300016894
 10
7.460371795
 20
10.1472852283
  0
LINE
  5
412
100
AcDbEntity
  8
IMPORT_IGES
100
AcDbLine
 62
253
  6
CONTINUOUS
 10
8.6256381561
 20
-7.4600944205
 11
8.6082464767
 21
-8.3898581272
  0
LINE
  5
413
100
AcDbEntity
  8
IMPORT_IGES
100
AcDbLine
 62
253
  6
CONTINUOUS
 10
8.6647818088
 20
-5.6780203609
 11
8.6256381561
 21
-7.4600944205
  0
LINE
  5
414
100
AcDbEntity
  8
IMPORT_IGES
100
AcDbLine
 62
253
  6
CONTINUOUS
 10
8.7230110687
 20
-3.1983648512
 11
8.6647818088
 21
-5.6780203609
  0
LWPOLYLINE
  5
415
100
AcDbEntity
  8
IMPORT_IGES
100
AcDbPolyline
 62
253
  6
CONTINUOUS
 90
6
 70
0
 10
8.6082464767
 20
-8.3898581272
 10
8.6026606072
 20
-8.6052805458
 10
8.5898230001
 20
-8.8296970196
 10
8.5704045237
 20
-9.0631057772
 10
8.5446042241
 20
-9.3111393253
 10
8.5146841919
 20
-9.5681222009
  0
LINE
  5
416
100
AcDbEntity
  8
IMPORT_IGES
100
AcDbLine
 62
253
  6
CONTINUOUS
 10
8.41815734
 20
12.8544391634
 11
8.3773017999
 21
11.4055719107
  0
LWPOLYLINE
  5
417
100
AcDbEntity
  8
IMPORT_IGES
100
AcDbPolyline
 62
253
  6
CONTINUOUS
 90
3
 70
0
 10
7.4580021243
 20
13.4144961523
 10
7.438300963
 20
12.8114947971
 10
7.3805572591
 20
10.8894470198
  0
LINE
  5
418
100
AcDbEntity
  8
IMPORT_IGES
100
AcDbLine
 62
253
  6
CONTINUOUS
 10
8.4773840006
 20
14.7328578709
 11
8.41815734
 21
12.8544391634
  0
LINE
  5
419
100
AcDbEntity
  8
IMPORT_IGES
100
AcDbLine
 62
253
  6
CONTINUOUS
 10
8.6388570834
 20
19.4714376805
 11
8.5999837496
 21
18.2750934818
  0
LINE
  5
41A
100
AcDbEntity
  8
IMPORT_IGES
100
AcDbLine
 62
253
  6
CONTINUOUS
 10
7.641491076
 20
18.6238265275
 11
7.6168767976
 21
17.8852546616
  0
LINE
  5
41B
100
AcDbEntity
  8
IMPORT_IGES
100
AcDbLine
 62
253
  6
CONTINUOUS
 10
8.5999837496
 20
18.2750934818
 11
8.4773840006
 21
14.7328578709
  0
LWPOLYLINE
  5
41C
100
AcDbEntity
  8
IMPORT_IGES
100
AcDbPolyline
 62
253
  6
CONTINUOUS
 90
13
 70
0
 10
8.6389296346
 20
19.4710327965
 10
8.648546867
 20
19.6458793475
 10
8.6770218977
 20
19.8170556885
 10
8.7235353059
 20
19.9822477064
 10
8.7867559243
 20
20.1389393031
 10
8.8655092569
 20
20.2855342645
 10
8.9592279089
 20
20.4210767881
 10
9.0662922118
 20
20.5434553224
 10
9.1851881442
 20
20.6511427396
 10
9.3159370464
 20
20.7433902544
 10
9.4573592985
 20
20.8183104944
 10
9.606607371
 20
20.8736589677
 10
9.7610742259
 20
20.9077988104
  0
LWPOLYLINE
  5
41D
100
AcDbEntity
  8
IMPORT_IGES
100
AcDbPolyline
 62
253
  6
CONTINUOUS
 90
12
 70
0
 10
7.9412890925
 20
-8.3261454907
 10
7.9252436078
 20
-8.4545765658
 10
7.9028463015
 20
-8.5852753688
 10
7.8740971737
 20
-8.7179285642
 10
7.8377773452
 20
-8.8526106572
 10
7.7951056951
 20
-8.9885030104
 10
7.7497388606
 20
-9.1239514358
 10
7.701706384
 20
-9.2574268799
 10
7.6509787231
 20
-9.38971221
 10
7.6011238887
 20
-9.5225009902
 10
7.5533312179
 20
-9.6558605296
 10
7.4603643561
 20
-9.919371942
  0
LINE
  5
41E
100
AcDbEntity
  8
IMPORT_IGES
100
AcDbLine
 62
7
  6
CONTINUOUS
 10
13.3269467005
 20
7.1565139527
 11
13.2974995901
 21
7.0938773891
  0
LINE
  5
41F
100
AcDbEntity
  8
IMPORT_IGES
100
AcDbLine
 62
7
  6
CONTINUOUS
 10
13.5284453107
 20
7.0517630734
 11
13.5506183498
 21
7.0934415361
  0
LINE
  5
420
100
AcDbEntity
  8
IMPORT_IGES
100
AcDbLine
 62
7
  6
CONTINUOUS
 10
13.360000425
 20
7.2133401597
 11
13.3269467005
 21
7.1565139527
  0
LINE
  5
421
100
AcDbEntity
  8
IMPORT_IGES
100
AcDbLine
 62
7
  6
CONTINUOUS
 10
14.7227266218
 20
7.2109890773
 11
14.7107949505
 21
7.1917389991
  0
LINE
  5
422
100
AcDbEntity
  8
IMPORT_IGES
100
AcDbLine
 62
7
  6
CONTINUOUS
 10
13.5506183498
 20
7.0934415361
 11
13.5757341884
 21
7.1313442548
  0
LINE
  5
423
100
AcDbEntity
  8
IMPORT_IGES
100
AcDbLine
 62
7
  6
CONTINUOUS
 10
14.7356388684
 20
7.2304780122
 11
14.7227266218
 21
7.2109890773
  0
LINE
  5
424
100
AcDbEntity
  8
IMPORT_IGES
100
AcDbLine
 62
7
  6
CONTINUOUS
 10
14.9148420431
 20
7.0934415361
 11
14.9399578817
 21
7.1313442549
  0
LINE
  5
425
100
AcDbEntity
  8
IMPORT_IGES
100
AcDbLine
 62
7
  6
CONTINUOUS
 10
14.2354978484
 20
5.8090881404
 11
14.2729458093
 21
5.8607286815
  0
LINE
  5
426
100
AcDbEntity
  8
IMPORT_IGES
100
AcDbLine
 62
7
  6
CONTINUOUS
 10
14.749861534
 20
7.2500026036
 11
14.7356388684
 21
7.2304780122
  0
LINE
  5
427
100
AcDbEntity
  8
IMPORT_IGES
100
AcDbLine
 62
7
  6
CONTINUOUS
 10
14.087960551
 20
5.9752075574
 11
14.0617271899
 21
5.9395781547
  0
LINE
  5
428
100
AcDbEntity
  8
IMPORT_IGES
100
AcDbLine
 62
7
  6
CONTINUOUS
 10
15.4521842443
 20
5.9752075574
 11
15.4259508832
 21
5.9395781547
  0
LINE
  5
429
100
AcDbEntity
  8
IMPORT_IGES
100
AcDbLine
 62
7
  6
CONTINUOUS
 10
16.0280417672
 20
7.2912061051
 11
15.9928503592
 21
7.2446845268
  0
LINE
  5
42A
100
AcDbEntity
  8
IMPORT_IGES
100
AcDbLine
 62
7
  6
CONTINUOUS
 10
24.1008968174
 20
19.2464261892
 11
24.4474846344
 21
19.6996280398
  0
LWPOLYLINE
  5
42B
100
AcDbEntity
  8
IMPORT_IGES
100
AcDbPolyline
 62
253
  6
CONTINUOUS
 90
10
 70
0
 10
24.4474384324
 20
19.7003483261
 10
24.4482956817
 20
19.7014622425
 10
24.4491606609
 20
19.7024682881
 10
24.4500333712
 20
19.7033664617
 10
24.4509138173
 20
19.7041567651
 10
24.4518019964
 20
19.7048391946
 10
24.4526978983
 20
19.7054137411
 10
24.4536015199
 20
19.7058804008
 10
24.4545128654
 20
19.7062391755
 10
24.4554319354
 20
19.706490064
  0
LINE
  5
42C
100
AcDbEntity
  8
IMPORT_IGES
100
AcDbLine
 62
7
  6
CONTINUOUS
 10
14.7653754886
 20
7.2696232633
 11
14.749861534
 21
7.2500026036
  0
LINE
  5
42D
100
AcDbEntity
  8
IMPORT_IGES
100
AcDbLine
 62
7
  6
CONTINUOUS
 10
17.6260608229
 20
7.1313442548
 11
17.6539084297
 21
7.1640812058
  0
LINE
  5
42E
100
AcDbEntity
  8
IMPORT_IGES
100
AcDbLine
 62
7
  6
CONTINUOUS
 10
17.4683028033
 20
7.2892795795
 11
17.4514784298
 21
7.2696232633
  0
LINE
  5
42F
100
AcDbEntity
  8
IMPORT_IGES
100
AcDbLine
 62
7
  6
CONTINUOUS
 10
16.1989047631
 20
7.1717562213
 11
16.2247106993
 21
7.2016900527
  0
LINE
  5
430
100
AcDbEntity
  8
IMPORT_IGES
100
AcDbLine
 62
7
  6
CONTINUOUS
 10
15.5630103102
 20
5.7678286976
 11
15.603669963
 21
5.814075746
  0
LINE
  5
431
100
AcDbEntity
  8
IMPORT_IGES
100
AcDbLine
 62
7
  6
CONTINUOUS
 10
16.6850703388
 20
6.8370280354
 11
16.6628049322
 21
6.8122040796
  0
LINE
  5
432
100
AcDbEntity
  8
IMPORT_IGES
100
AcDbLine
 62
7
  6
CONTINUOUS
 10
15.4259508832
 20
5.9395781547
 11
15.3971082824
 21
5.9083532979
  0
LINE
  5
433
100
AcDbEntity
  8
IMPORT_IGES
100
AcDbLine
 62
7
  6
CONTINUOUS
 10
16.845257893
 20
6.725519895
 11
16.8778887933
 21
6.7605694765
  0
LINE
  5
434
100
AcDbEntity
  8
IMPORT_IGES
100
AcDbLine
 62
7
  6
CONTINUOUS
 10
17.4868248297
 20
7.3085871164
 11
17.4683028033
 21
7.2892795795
  0
LINE
  5
435
100
AcDbEntity
  8
IMPORT_IGES
100
AcDbLine
 62
7
  6
CONTINUOUS
 10
16.8700736065
 20
5.7930435945
 11
16.9154966034
 21
5.8385971314
  0
LINE
  5
436
100
AcDbEntity
  8
IMPORT_IGES
100
AcDbLine
 62
7
  6
CONTINUOUS
 10
16.7263435787
 20
5.9450581783
 11
16.6932112347
 21
5.9118705648
  0
LINE
  5
437
100
AcDbEntity
  8
IMPORT_IGES
100
AcDbLine
 62
7
  6
CONTINUOUS
 10
18.2054857097
 20
5.7278578514
 11
18.2491132514
 21
5.7678286976
  0
LINE
  5
438
100
AcDbEntity
  8
IMPORT_IGES
100
AcDbLine
 62
7
  6
CONTINUOUS
 10
18.0832112236
 20
5.9083532979
 11
18.0520094394
 21
5.8818553703
  0
LINE
  5
439
100
AcDbEntity
  8
IMPORT_IGES
100
AcDbLine
 62
7
  6
CONTINUOUS
 10
19.625257256
 20
5.6892824492
 11
19.674634074
 21
5.7268751238
  0
LWPOLYLINE
  5
43A
100
AcDbEntity
  8
IMPORT_IGES
100
AcDbPolyline
 62
253
  6
CONTINUOUS
 90
16
 70
0
 10
7.4603710634
 20
10.1472852362
 10
7.5444635484
 20
10.161705046
 10
7.6280525845
 20
10.1805549509
 10
7.7101549234
 20
10.2036011084
 10
7.7891934718
 20
10.2302719409
 10
7.8649810749
 20
10.2603118178
 10
7.9386082434
 20
10.2941280996
 10
8.0095468176
 20
10.3316123794
 10
8.0766688987
 20
10.3722569847
 10
8.1399598009
 20
10.4161489756
 10
8.1986039676
 20
10.4628639389
 10
8.2518827948
 20
10.5119088732
 10
8.2996925614
 20
10.5633164677
 10
8.3414655976
 20
10.6167041995
 10
8.3764464465
 20
10.67123835
 10
8.4042480742
 20
10.7262482492
  0
LWPOLYLINE
  5
43B
100
AcDbEntity
  8
IMPORT_IGES
100
AcDbPolyline
 62
253
  6
CONTINUOUS
 90
10
 70
0
 10
7.9412879901
 20
8.5540579708
 10
8.0215225894
 20
8.5593954537
 10
8.1018309838
 20
8.5652903906
 10
8.1814120717
 20
8.5716936682
 10
8.2591674965
 20
8.5785178545
 10
8.33464181
 20
8.5857181432
 10
8.4079568178
 20
8.5933091111
 10
8.4786089324
 20
8.6012498608
 10
8.5455868993
 20
8.6094318468
 10
8.6082464602
 20
8.6177707201
  0
LINE
  5
43C
100
AcDbEntity
  8
IMPORT_IGES
100
AcDbLine
 62
7
  6
CONTINUOUS
 10
13.8123632974
 20
7.453064531
 11
13.7517938096
 21
7.4509271864
  0
LINE
  5
43D
100
AcDbEntity
  8
IMPORT_IGES
100
AcDbLine
 62
7
  6
CONTINUOUS
 10
15.1341316701
 20
7.4521940114
 11
15.1765805127
 21
7.453655837
  0
LINE
  5
43E
100
AcDbEntity
  8
IMPORT_IGES
100
AcDbLine
 62
7
  6
CONTINUOUS
 10
16.390732688
 20
7.4669250017
 11
16.4570787048
 21
7.4677302872
  0
LINE
  5
43F
100
AcDbEntity
  8
IMPORT_IGES
100
AcDbLine
 62
7
  6
CONTINUOUS
 10
19.8126574606
 20
7.1854699697
 11
19.0953884606
 21
7.1854699697
  0
LINE
  5
440
100
AcDbEntity
  8
IMPORT_IGES
100
AcDbLine
 62
7
  6
CONTINUOUS
 10
18.9188314606
 20
7.3963599697
 11
19.8126574606
 21
7.3963599697
  0
LINE
  5
441
100
AcDbEntity
  8
IMPORT_IGES
100
AcDbLine
 62
253
  6
CONTINUOUS
 10
-24.2461797761
 20
8.5540592844
 11
7.9412897588
 21
8.5540592844
  0
LINE
  5
442
100
AcDbEntity
  8
IMPORT_IGES
100
AcDbLine
 62
7
  6
CONTINUOUS
 10
16.3673165219
 20
6.7099500496
 11
16.3365804134
 21
6.7108525641
  0
LINE
  5
443
100
AcDbEntity
  8
IMPORT_IGES
100
AcDbLine
 62
7
  6
CONTINUOUS
 10
13.8791837712
 20
7.4508419263
 11
13.8123632974
 21
7.453064531
  0
LINE
  5
444
100
AcDbEntity
  8
IMPORT_IGES
100
AcDbLine
 62
7
  6
CONTINUOUS
 10
19.2906022113
 20
6.6189185898
 11
19.3374607032
 21
6.6171435778
  0
LINE
  5
445
100
AcDbEntity
  8
IMPORT_IGES
100
AcDbLine
 62
7
  6
CONTINUOUS
 10
16.507720967
 20
6.5409070885
 11
16.4611406342
 21
6.5427454142
  0
LINE
  5
446
100
AcDbEntity
  8
IMPORT_IGES
100
AcDbLine
 62
7
  6
CONTINUOUS
 10
15.1765989441
 20
7.4536555333
 11
15.2430414584
 21
7.450516461
  0
LINE
  5
447
100
AcDbEntity
  8
IMPORT_IGES
100
AcDbLine
 62
7
  6
CONTINUOUS
 10
17.8627018853
 20
7.4536555333
 11
17.9291443996
 21
7.450516461
  0
LINE
  5
448
100
AcDbEntity
  8
IMPORT_IGES
100
AcDbLine
 62
7
  6
CONTINUOUS
 10
16.4844197337
 20
7.2855998651
 11
16.4431947594
 21
7.2878097445
  0
LINE
  5
449
100
AcDbEntity
  8
IMPORT_IGES
100
AcDbLine
 62
7
  6
CONTINUOUS
 10
16.520802139
 20
7.4631332566
 11
16.4570897414
 21
7.4669102677
  0
LINE
  5
44A
100
AcDbEntity
  8
IMPORT_IGES
100
AcDbLine
 62
7
  6
CONTINUOUS
 10
13.873275511
 20
7.2485255651
 11
13.8308688046
 21
7.2511747668
  0
LINE
  5
44B
100
AcDbEntity
  8
IMPORT_IGES
100
AcDbLine
 62
7
  6
CONTINUOUS
 10
15.2374992043
 20
7.2485255651
 11
15.1950924979
 21
7.2511747668
  0
LINE
  5
44C
100
AcDbEntity
  8
IMPORT_IGES
100
AcDbLine
 62
7
  6
CONTINUOUS
 10
17.9236021454
 20
7.2485255651
 11
17.8811954391
 21
7.2511747668
  0
LINE
  5
44D
100
AcDbEntity
  8
IMPORT_IGES
100
AcDbLine
 62
7
  6
CONTINUOUS
 10
19.4234187677
 20
6.8097720205
 11
19.3660846547
 21
6.813848059
  0
LINE
  5
44E
100
AcDbEntity
  8
IMPORT_IGES
100
AcDbLine
 62
7
  6
CONTINUOUS
 10
19.2553983521
 20
5.7756219732
 11
19.2092116693
 21
5.7812525917
  0
LINE
  5
44F
100
AcDbEntity
  8
IMPORT_IGES
100
AcDbLine
 62
7
  6
CONTINUOUS
 10
16.5027310881
 20
6.5411965644
 11
16.5477283702
 21
6.5356276776
  0
LINE
  5
450
100
AcDbEntity
  8
IMPORT_IGES
100
AcDbLine
 62
7
  6
CONTINUOUS
 10
18.7447244606
 20
6.4731079697
 11
18.9519352056
 21
6.4461328727
  0
LINE
  5
451
100
AcDbEntity
  8
IMPORT_IGES
100
AcDbLine
 62
7
  6
CONTINUOUS
 10
15.1211758916
 20
5.6175172984
 11
15.0512156424
 21
5.6271916532
  0
LINE
  5
452
100
AcDbEntity
  8
IMPORT_IGES
100
AcDbLine
 62
7
  6
CONTINUOUS
 10
17.8072788324
 20
5.6175172984
 11
17.737318583
 21
5.6271916533
  0
LINE
  5
453
100
AcDbEntity
  8
IMPORT_IGES
100
AcDbLine
 62
7
  6
CONTINUOUS
 10
13.7510638632
 20
5.6179874934
 11
13.6841466947
 21
5.627756408
  0
LINE
  5
454
100
AcDbEntity
  8
IMPORT_IGES
100
AcDbLine
 62
7
  6
CONTINUOUS
 10
16.4100688335
 20
5.8229609273
 11
16.3690251525
 21
5.829087815
  0
LINE
  5
455
100
AcDbEntity
  8
IMPORT_IGES
100
AcDbLine
 62
7
  6
CONTINUOUS
 10
16.5479153361
 20
6.5348297503
 11
16.547614677
 21
6.534875176
  0
LINE
  5
456
100
AcDbEntity
  8
IMPORT_IGES
100
AcDbLine
 62
7
  6
CONTINUOUS
 10
19.2090320525
 20
5.7820889627
 11
19.209332643
 21
5.782042954
  0
LINE
  5
457
100
AcDbEntity
  8
IMPORT_IGES
100
AcDbLine
 62
7
  6
CONTINUOUS
 10
16.2972953531
 20
5.655185743
 11
16.3669991932
 21
5.6430800488
  0
LINE
  5
458
100
AcDbEntity
  8
IMPORT_IGES
100
AcDbLine
 62
7
  6
CONTINUOUS
 10
16.3688668519
 20
5.8299386327
 11
16.369167664
 21
5.8298848466
  0
LINE
  5
459
100
AcDbEntity
  8
IMPORT_IGES
100
AcDbLine
 62
7
  6
CONTINUOUS
 10
13.7271185136
 20
5.8305036312
 11
13.7668756912
 21
5.8228791487
  0
LINE
  5
45A
100
AcDbEntity
  8
IMPORT_IGES
100
AcDbLine
 62
7
  6
CONTINUOUS
 10
15.0913422069
 20
5.8305036312
 11
15.1310993845
 21
5.8228791487
  0
LINE
  5
45B
100
AcDbEntity
  8
IMPORT_IGES
100
AcDbLine
 62
7
  6
CONTINUOUS
 10
17.7774451481
 20
5.8305036312
 11
17.8172023256
 21
5.8228791487
  0
LINE
  5
45C
100
AcDbEntity
  8
IMPORT_IGES
100
AcDbLine
 62
7
  6
CONTINUOUS
 10
13.6262050703
 20
5.6425296116
 11
13.6841466947
 21
5.627756408
  0
LINE
  5
45D
100
AcDbEntity
  8
IMPORT_IGES
100
AcDbLine
 62
7
  6
CONTINUOUS
 10
17.0911042927
 20
-5.8442861624
 11
17.1153215876
 21
-5.8676259565
  0
LINE
  5
45E
100
AcDbEntity
  8
IMPORT_IGES
100
AcDbLine
 62
7
  6
CONTINUOUS
 10
17.2664474443
 20
-5.7607210402
 11
17.227003669
 21
-5.7223091575
  0
LINE
  5
45F
100
AcDbEntity
  8
IMPORT_IGES
100
AcDbLine
 62
7
  6
CONTINUOUS
 10
16.1240142838
 20
-6.3405974517
 11
16.0836321115
 21
-6.2969168524
  0
LINE
  5
460
100
AcDbEntity
  8
IMPORT_IGES
100
AcDbLine
 62
7
  6
CONTINUOUS
 10
15.9320213575
 20
-6.4277034029
 11
15.957232467
 21
-6.4573765454
  0
LINE
  5
461
100
AcDbEntity
  8
IMPORT_IGES
100
AcDbLine
 62
7
  6
CONTINUOUS
 10
15.4462443736
 20
-6.9266440826
 11
15.4238557486
 21
-6.8994839794
  0
LINE
  5
462
100
AcDbEntity
  8
IMPORT_IGES
100
AcDbLine
 62
7
  6
CONTINUOUS
 10
14.9226350739
 20
-5.7927495539
 11
14.8919023865
 21
-5.7547072379
  0
LINE
  5
463
100
AcDbEntity
  8
IMPORT_IGES
100
AcDbLine
 62
7
  6
CONTINUOUS
 10
16.7206191789
 20
-6.9317511635
 11
16.697606682
 21
-6.9029771629
  0
LINE
  5
464
100
AcDbEntity
  8
IMPORT_IGES
100
AcDbLine
 62
7
  6
CONTINUOUS
 10
16.5295372386
 20
-6.9971345123
 11
16.5660621823
 21
-7.0429097759
  0
LINE
  5
465
100
AcDbEntity
  8
IMPORT_IGES
100
AcDbLine
 62
7
  6
CONTINUOUS
 10
24.4474963057
 20
-19.471549423
 11
24.1009084775
 21
-19.0183475577
  0
LINE
  5
466
100
AcDbEntity
  8
IMPORT_IGES
100
AcDbLine
 62
7
  6
CONTINUOUS
 10
14.739401476
 20
-5.8868098911
 11
14.7596130511
 21
-5.9160204974
  0
LINE
  5
467
100
AcDbEntity
  8
IMPORT_IGES
100
AcDbLine
 62
7
  6
CONTINUOUS
 10
15.2322354565
 20
-6.9642368016
 11
15.2593065131
 21
-7.0049147592
  0
LWPOLYLINE
  5
468
100
AcDbEntity
  8
IMPORT_IGES
100
AcDbPolyline
 62
253
  6
CONTINUOUS
 90
3
 70
0
 10
8.4042479392
 20
10.7262495408
 10
8.4279745832
 20
10.5063649223
 10
8.5150624604
 20
9.7931190034
  0
LWPOLYLINE
  5
469
100
AcDbEntity
  8
IMPORT_IGES
100
AcDbPolyline
 62
253
  6
CONTINUOUS
 90
9
 70
0
 10
8.4042479392
 20
10.7262495408
 10
8.396529818
 20
10.811463244
 10
8.3900491772
 20
10.8966024483
 10
8.3848113824
 20
10.9816658043
 10
8.3808279848
 20
11.0666671437
 10
8.3780907724
 20
11.151590213
 10
8.3765846532
 20
11.2363881775
 10
8.3763164084
 20
11.3210441935
 10
8.3773017999
 20
11.4055719107
  0
LINE
  5
46A
100
AcDbEntity
  8
IMPORT_IGES
100
AcDbLine
 62
253
  6
CONTINUOUS
 10
10.1076756115
 20
20.4546367775
 11
10.1076756115
 21
19.4548561061
  0
LINE
  5
46B
100
AcDbEntity
  8
IMPORT_IGES
100
AcDbLine
 62
253
  6
CONTINUOUS
 10
10.107675723
 20
-19.2269421667
 11
10.107675723
 21
-20.2267228349
  0
LINE
  5
46C
100
AcDbEntity
  8
IMPORT_IGES
100
AcDbLine
 62
253
  6
CONTINUOUS
 10
8.4278673727
 20
-10.2794211519
 11
8.4042484473
 21
-10.4983244307
  0
LINE
  5
46D
100
AcDbEntity
  8
IMPORT_IGES
100
AcDbLine
 62
253
  6
CONTINUOUS
 10
8.5146841919
 20
-9.5681222009
 11
8.4278673727
 21
-10.2794211519
  0
LWPOLYLINE
  5
46E
100
AcDbEntity
  8
IMPORT_IGES
100
AcDbPolyline
 62
253
  6
CONTINUOUS
 90
10
 70
0
 10
7.4603632395
 20
-9.919371942
 10
7.4416745403
 20
-10.0020843381
 10
7.4254379165
 20
-10.0847727238
 10
7.411653368
 20
-10.1674339629
 10
7.4003167208
 20
-10.2501098396
 10
7.3914321489
 20
-10.3327519609
 10
7.3850121752
 20
-10.4152231327
 10
7.381060974
 20
-10.4974768644
 10
7.379574371
 20
-10.5795559915
 10
7.3805523662
 20
-10.6614585424
  0
LINE
  5
46F
100
AcDbEntity
  8
IMPORT_IGES
100
AcDbLine
 62
7
  6
CONTINUOUS
 10
13.4797940211
 20
6.9054632461
 11
13.4934488546
 21
6.9572917385
  0
LINE
  5
470
100
AcDbEntity
  8
IMPORT_IGES
100
AcDbLine
 62
7
  6
CONTINUOUS
 10
13.2719270099
 20
7.0267233887
 11
13.2503311463
 21
6.9553555369
  0
LINE
  5
471
100
AcDbEntity
  8
IMPORT_IGES
100
AcDbLine
 62
7
  6
CONTINUOUS
 10
13.4934488546
 20
6.9572917385
 11
13.5094756829
 21
7.0064152779
  0
LINE
  5
472
100
AcDbEntity
  8
IMPORT_IGES
100
AcDbLine
 62
7
  6
CONTINUOUS
 10
14.650243372
 20
7.0656867653
 11
14.6440436569
 21
7.049189222
  0
LINE
  5
473
100
AcDbEntity
  8
IMPORT_IGES
100
AcDbLine
 62
7
  6
CONTINUOUS
 10
14.3366025986
 20
5.9823228395
 11
14.3625980716
 21
6.0507075894
  0
LINE
  5
474
100
AcDbEntity
  8
IMPORT_IGES
100
AcDbLine
 62
7
  6
CONTINUOUS
 10
13.2974995901
 20
7.0938773891
 11
13.2719270099
 21
7.0267233887
  0
LINE
  5
475
100
AcDbEntity
  8
IMPORT_IGES
100
AcDbLine
 62
7
  6
CONTINUOUS
 10
14.6501934509
 20
7.0657066615
 11
14.6568996503
 21
7.0825330344
  0
LINE
  5
476
100
AcDbEntity
  8
IMPORT_IGES
100
AcDbLine
 62
7
  6
CONTINUOUS
 10
14.6705146488
 20
7.1150916156
 11
14.6569548683
 21
7.0825110272
  0
LINE
  5
477
100
AcDbEntity
  8
IMPORT_IGES
100
AcDbLine
 62
7
  6
CONTINUOUS
 10
13.5094756829
 20
7.0064152779
 11
13.5284453107
 21
7.0517630734
  0
LINE
  5
478
100
AcDbEntity
  8
IMPORT_IGES
100
AcDbLine
 62
7
  6
CONTINUOUS
 10
14.8736993762
 20
7.006415278
 11
14.892669004
 21
7.0517630735
  0
LINE
  5
479
100
AcDbEntity
  8
IMPORT_IGES
100
AcDbLine
 62
7
  6
CONTINUOUS
 10
14.1288409001
 20
6.0551683322
 11
14.1105904393
 21
6.0138317646
  0
LINE
  5
47A
100
AcDbEntity
  8
IMPORT_IGES
100
AcDbLine
 62
7
  6
CONTINUOUS
 10
14.306612503
 20
5.918572727
 11
14.3366025986
 21
5.9823228395
  0
LINE
  5
47B
100
AcDbEntity
  8
IMPORT_IGES
100
AcDbLine
 62
7
  6
CONTINUOUS
 10
14.6805535454
 20
7.1356251044
 11
14.6705146488
 21
7.1150916156
  0
LINE
  5
47C
100
AcDbEntity
  8
IMPORT_IGES
100
AcDbLine
 62
7
  6
CONTINUOUS
 10
14.6805535454
 20
7.1356251044
 11
14.6898200081
 21
7.1540283269
  0
LINE
  5
47D
100
AcDbEntity
  8
IMPORT_IGES
100
AcDbLine
 62
7
  6
CONTINUOUS
 10
16.1572499507
 20
7.0998661483
 11
16.1763726592
 21
7.1376255919
  0
LINE
  5
47E
100
AcDbEntity
  8
IMPORT_IGES
100
AcDbLine
 62
7
  6
CONTINUOUS
 10
14.892669004
 20
7.0517630735
 11
14.9148420431
 21
7.0934415361
  0
LINE
  5
47F
100
AcDbEntity
  8
IMPORT_IGES
100
AcDbLine
 62
7
  6
CONTINUOUS
 10
14.6898200081
 20
7.1540283269
 11
14.6998171916
 21
7.1727642346
  0
LINE
  5
480
100
AcDbEntity
  8
IMPORT_IGES
100
AcDbLine
 62
7
  6
CONTINUOUS
 10
15.6406645184
 20
5.866169787
 11
15.6738637703
 21
5.9243839614
  0
LINE
  5
481
100
AcDbEntity
  8
IMPORT_IGES
100
AcDbLine
 62
7
  6
CONTINUOUS
 10
14.7107949505
 20
7.1917389991
 11
14.6998171916
 21
7.1727642346
  0
LINE
  5
482
100
AcDbEntity
  8
IMPORT_IGES
100
AcDbLine
 62
7
  6
CONTINUOUS
 10
14.2729458093
 20
5.8607286815
 11
14.306612503
 21
5.918572727
  0
LINE
  5
483
100
AcDbEntity
  8
IMPORT_IGES
100
AcDbLine
 62
7
  6
CONTINUOUS
 10
15.9928503592
 20
7.2446845268
 11
15.9624627574
 21
7.1927703268
  0
LINE
  5
484
100
AcDbEntity
  8
IMPORT_IGES
100
AcDbLine
 62
7
  6
CONTINUOUS
 10
14.1105904393
 20
6.0138317646
 11
14.087960551
 21
5.9752075574
  0
LINE
  5
485
100
AcDbEntity
  8
IMPORT_IGES
100
AcDbLine
 62
7
  6
CONTINUOUS
 10
15.4748141325
 20
6.0138317646
 11
15.4521842443
 21
5.9752075574
  0
LINE
  5
486
100
AcDbEntity
  8
IMPORT_IGES
100
AcDbLine
 62
7
  6
CONTINUOUS
 10
17.408829563
 20
7.2109890774
 11
17.3968978917
 21
7.1917389992
  0
LINE
  5
487
100
AcDbEntity
  8
IMPORT_IGES
100
AcDbLine
 62
7
  6
CONTINUOUS
 10
16.9541954279
 20
5.8869945509
 11
16.9867764581
 21
5.9389102631
  0
LINE
  5
488
100
AcDbEntity
  8
IMPORT_IGES
100
AcDbLine
 62
7
  6
CONTINUOUS
 10
16.1763726592
 20
7.1376255919
 11
16.1989047631
 21
7.1717562213
  0
LINE
  5
489
100
AcDbEntity
  8
IMPORT_IGES
100
AcDbLine
 62
7
  6
CONTINUOUS
 10
17.4217418096
 20
7.2304780123
 11
17.408829563
 21
7.2109890774
  0
LINE
  5
48A
100
AcDbEntity
  8
IMPORT_IGES
100
AcDbLine
 62
7
  6
CONTINUOUS
 10
17.6009449843
 20
7.0934415361
 11
17.6260608229
 21
7.1313442548
  0
LINE
  5
48B
100
AcDbEntity
  8
IMPORT_IGES
100
AcDbLine
 62
7
  6
CONTINUOUS
 10
16.7033691424
 20
6.8643908101
 11
16.6850703388
 21
6.8370280354
  0
LINE
  5
48C
100
AcDbEntity
  8
IMPORT_IGES
100
AcDbLine
 62
7
  6
CONTINUOUS
 10
15.603669963
 20
5.814075746
 11
15.6406645184
 21
5.866169787
  0
LINE
  5
48D
100
AcDbEntity
  8
IMPORT_IGES
100
AcDbLine
 62
7
  6
CONTINUOUS
 10
16.8778887933
 20
6.7605694765
 11
16.9053530518
 21
6.7988465047
  0
LINE
  5
48E
100
AcDbEntity
  8
IMPORT_IGES
100
AcDbLine
 62
7
  6
CONTINUOUS
 10
17.4359644752
 20
7.2500026037
 11
17.4217418096
 21
7.2304780123
  0
LINE
  5
48F
100
AcDbEntity
  8
IMPORT_IGES
100
AcDbLine
 62
7
  6
CONTINUOUS
 10
18.1382871855
 20
5.9752075574
 11
18.1120538244
 21
5.9395781547
  0
LINE
  5
490
100
AcDbEntity
  8
IMPORT_IGES
100
AcDbLine
 62
7
  6
CONTINUOUS
 10
17.4514784298
 20
7.2696232633
 11
17.4359644752
 21
7.2500026037
  0
LINE
  5
491
100
AcDbEntity
  8
IMPORT_IGES
100
AcDbLine
 62
7
  6
CONTINUOUS
 10
16.7545862687
 20
5.9807751796
 11
16.7263435787
 21
5.9450581783
  0
LINE
  5
492
100
AcDbEntity
  8
IMPORT_IGES
100
AcDbLine
 62
7
  6
CONTINUOUS
 10
16.9154966034
 20
5.8385971314
 11
16.9541954279
 21
5.8869945509
  0
LINE
  5
493
100
AcDbEntity
  8
IMPORT_IGES
100
AcDbLine
 62
7
  6
CONTINUOUS
 10
18.2491132514
 20
5.7678286976
 11
18.2897729042
 21
5.8140757461
  0
LINE
  5
494
100
AcDbEntity
  8
IMPORT_IGES
100
AcDbLine
 62
7
  6
CONTINUOUS
 10
18.1120538244
 20
5.9395781547
 11
18.0832112236
 21
5.9083532979
  0
LINE
  5
495
100
AcDbEntity
  8
IMPORT_IGES
100
AcDbLine
 62
7
  6
CONTINUOUS
 10
18.9814987892
 20
6.4855452278
 11
19.0148140447
 21
6.5201167507
  0
LINE
  5
496
100
AcDbEntity
  8
IMPORT_IGES
100
AcDbLine
 62
7
  6
CONTINUOUS
 10
19.674634074
 20
5.7268751238
 11
19.7203550164
 21
5.770783529
  0
LINE
  5
497
100
AcDbEntity
  8
IMPORT_IGES
100
AcDbLine
 62
7
  6
CONTINUOUS
 10
19.5484330393
 20
5.8897810848
 11
19.5131995222
 21
5.8563903899
  0
LINE
  5
498
100
AcDbEntity
  8
IMPORT_IGES
100
AcDbLine
 62
7
  6
CONTINUOUS
 10
14.270049972
 20
-5.6532021626
 11
14.2392299814
 21
-5.6673031971
  0
LINE
  5
499
100
AcDbEntity
  8
IMPORT_IGES
100
AcDbLine
 62
7
  6
CONTINUOUS
 10
14.3470882712
 20
-5.8201974923
 11
14.3812043014
 21
-5.8058117519
  0
LWPOLYLINE
  5
49A
100
AcDbEntity
  8
IMPORT_IGES
100
AcDbPolyline
 62
253
  6
CONTINUOUS
 90
10
 70
0
 10
-23.890546495
 20
-20.4883220611
 10
-23.8915457652
 20
-20.4887370054
 10
-23.8925441179
 20
-20.489102932
 10
-23.8935413909
 20
-20.4894198917
 10
-23.8945370714
 20
-20.4896878565
 10
-23.8955313503
 20
-20.4899070148
 10
-23.8965251191
 20
-20.4900775982
 10
-23.8975185657
 20
-20.4901995683
 10
-23.8985111766
 20
-20.4902727903
 10
-23.8995027892
 20
-20.4902972067
  0
LINE
  5
49B
100
AcDbEntity
  8
IMPORT_IGES
100
AcDbLine
 62
7
  6
CONTINUOUS
 10
14.303184104
 20
-5.6410961046
 11
14.270049972
 21
-5.6532021626
  0
LINE
  5
49C
100
AcDbEntity
  8
IMPORT_IGES
100
AcDbLine
 62
7
  6
CONTINUOUS
 10
14.3280252337
 20
-5.6334565977
 11
14.303184104
 21
-5.6410961046
  0
LINE
  5
49D
100
AcDbEntity
  8
IMPORT_IGES
100
AcDbLine
 62
7
  6
CONTINUOUS
 10
16.8148110069
 20
-5.8082173911
 11
16.8486368602
 21
-5.7978296062
  0
LINE
  5
49E
100
AcDbEntity
  8
IMPORT_IGES
100
AcDbLine
 62
7
  6
CONTINUOUS
 10
14.3410094778
 20
-5.6295417115
 11
14.3280252337
 21
-5.6334565977
  0
LINE
  5
49F
100
AcDbEntity
  8
IMPORT_IGES
100
AcDbLine
 62
7
  6
CONTINUOUS
 10
16.7906385512
 20
-5.6298059785
 11
16.7377291943
 21
-5.6450580333
  0
LINE
  5
4A0
100
AcDbEntity
  8
IMPORT_IGES
100
AcDbLine
 62
7
  6
CONTINUOUS
 10
14.3812043014
 20
-5.8058117519
 11
14.4227135745
 21
-5.7939764752
  0
LWPOLYLINE
  5
4A1
100
AcDbEntity
  8
IMPORT_IGES
100
AcDbPolyline
 62
253
  6
CONTINUOUS
 90
19
 70
0
 10
7.3805575759
 20
10.8894196185
 10
7.4655082321
 20
10.8904010173
 10
7.5497755398
 20
10.896012086
 10
7.6323368858
 20
10.9061378753
 10
7.7114806187
 20
10.9203851271
 10
7.787116366
 20
10.9384813225
 10
7.8606848054
 20
10.9607163824
 10
7.931771993
 20
10.9871079776
 10
7.9991875655
 20
11.0173133869
 10
8.0630194907
 20
11.0514823363
 10
8.1225567066
 20
11.0894207822
 10
8.1769548812
 20
11.1307245954
 10
8.2259304468
 20
11.1753129533
 10
8.2687141513
 20
11.222603765
 10
8.3049180607
 20
11.2721909847
 10
8.334552085
 20
11.3242783014
 10
8.3571563967
 20
11.3785219989
 10
8.3722053199
 20
11.4339894981
 10
8.3795484748
 20
11.4899724891
  0
LINE
  5
4A2
100
AcDbEntity
  8
IMPORT_IGES
100
AcDbLine
 62
253
  6
CONTINUOUS
 10
7.460371795
 20
10.1472852283
 11
-24.2530965024
 21
10.1472852283
  0
LINE
  5
4A3
100
AcDbEntity
  8
IMPORT_IGES
100
AcDbLine
 62
7
  6
CONTINUOUS
 10
16.4909877205
 20
7.2842573299
 11
16.5206880494
 21
7.2802516045
  0
LINE
  5
4A4
100
AcDbEntity
  8
IMPORT_IGES
100
AcDbLine
 62
7
  6
CONTINUOUS
 10
13.8791658139
 20
7.4507115238
 11
13.946506152
 21
7.4414383117
  0
LINE
  5
4A5
100
AcDbEntity
  8
IMPORT_IGES
100
AcDbLine
 62
7
  6
CONTINUOUS
 10
15.3100650141
 20
7.4415625393
 11
15.2430586616
 21
7.4508805887
  0
LINE
  5
4A6
100
AcDbEntity
  8
IMPORT_IGES
100
AcDbLine
 62
7
  6
CONTINUOUS
 10
17.9961679553
 20
7.4415625393
 11
17.9291616028
 21
7.4508805887
  0
LINE
  5
4A7
100
AcDbEntity
  8
IMPORT_IGES
100
AcDbLine
 62
7
  6
CONTINUOUS
 10
16.4794370044
 20
7.2860556591
 11
16.4909877205
 21
7.2842573299
  0
LINE
  5
4A8
100
AcDbEntity
  8
IMPORT_IGES
100
AcDbLine
 62
7
  6
CONTINUOUS
 10
13.9126331141
 20
7.2418993116
 11
13.873275511
 21
7.2485255651
  0
LINE
  5
4A9
100
AcDbEntity
  8
IMPORT_IGES
100
AcDbLine
 62
7
  6
CONTINUOUS
 10
15.2768568074
 20
7.2418993116
 11
15.2374992043
 21
7.2485255651
  0
LINE
  5
4AA
100
AcDbEntity
  8
IMPORT_IGES
100
AcDbLine
 62
7
  6
CONTINUOUS
 10
17.9629597485
 20
7.2418993116
 11
17.9236021454
 21
7.2485255651
  0
LINE
  5
4AB
100
AcDbEntity
  8
IMPORT_IGES
100
AcDbLine
 62
7
  6
CONTINUOUS
 10
16.5208590579
 20
7.2794329954
 11
16.5205582341
 21
7.2794838608
  0
LINE
  5
4AC
100
AcDbEntity
  8
IMPORT_IGES
100
AcDbLine
 62
7
  6
CONTINUOUS
 10
15.900635766
 20
7.0044659154
 11
16.12047376
 21
6.9653829165
  0
LINE
  5
4AD
100
AcDbEntity
  8
IMPORT_IGES
100
AcDbLine
 62
7
  6
CONTINUOUS
 10
16.5905056824
 20
7.4502903869
 11
16.520802139
 21
7.4631332566
  0
LINE
  5
4AE
100
AcDbEntity
  8
IMPORT_IGES
100
AcDbLine
 62
7
  6
CONTINUOUS
 10
19.3374607032
 20
6.6171435778
 11
19.3904785725
 21
6.6069306594
  0
LINE
  5
4AF
100
AcDbEntity
  8
IMPORT_IGES
100
AcDbLine
 62
7
  6
CONTINUOUS
 10
19.1121097424
 20
5.6121891519
 11
19.1816506527
 21
5.598658372
  0
LINE
  5
4B0
100
AcDbEntity
  8
IMPORT_IGES
100
AcDbLine
 62
7
  6
CONTINUOUS
 10
19.4901201767
 20
6.7959950624
 11
19.4234187677
 21
6.8097720205
  0
LINE
  5
4B1
100
AcDbEntity
  8
IMPORT_IGES
100
AcDbLine
 62
7
  6
CONTINUOUS
 10
15.3702392678
 20
7.4271448141
 11
15.3100650141
 21
7.4415625393
  0
LINE
  5
4B2
100
AcDbEntity
  8
IMPORT_IGES
100
AcDbLine
 62
7
  6
CONTINUOUS
 10
14.0069597842
 20
7.42685891
 11
13.946506152
 21
7.4414383117
  0
LINE
  5
4B3
100
AcDbEntity
  8
IMPORT_IGES
100
AcDbLine
 62
7
  6
CONTINUOUS
 10
14.9901874292
 20
5.6426073561
 11
15.0512156424
 21
5.6271916532
  0
LINE
  5
4B4
100
AcDbEntity
  8
IMPORT_IGES
100
AcDbLine
 62
7
  6
CONTINUOUS
 10
17.6762903695
 20
5.6426073564
 11
17.737318583
 21
5.6271916533
  0
LINE
  5
4B5
100
AcDbEntity
  8
IMPORT_IGES
100
AcDbLine
 62
7
  6
CONTINUOUS
 10
16.5477283702
 20
6.5356276776
 11
16.594425985
 21
6.5226959083
  0
LINE
  5
4B6
100
AcDbEntity
  8
IMPORT_IGES
100
AcDbLine
 62
7
  6
CONTINUOUS
 10
16.2358420315
 20
5.6729267934
 11
16.2972953531
 21
5.655185743
  0
LINE
  5
4B7
100
AcDbEntity
  8
IMPORT_IGES
100
AcDbLine
 62
7
  6
CONTINUOUS
 10
19.2092116693
 20
5.7812525917
 11
19.1613920217
 21
5.7950954492
  0
LINE
  5
4B8
100
AcDbEntity
  8
IMPORT_IGES
100
AcDbLine
 62
7
  6
CONTINUOUS
 10
16.7697302938
 20
6.6250850847
 11
16.7164793342
 21
6.6405112732
  0
LINE
  5
4B9
100
AcDbEntity
  8
IMPORT_IGES
100
AcDbLine
 62
7
  6
CONTINUOUS
 10
13.9126331141
 20
7.2418993116
 11
13.9489416139
 21
7.2312960064
  0
LINE
  5
4BA
100
AcDbEntity
  8
IMPORT_IGES
100
AcDbLine
 62
7
  6
CONTINUOUS
 10
15.2768568074
 20
7.2418993116
 11
15.3131653072
 21
7.2312960064
  0
LINE
  5
4BB
100
AcDbEntity
  8
IMPORT_IGES
100
AcDbLine
 62
7
  6
CONTINUOUS
 10
19.0506011274
 20
5.63079864
 11
19.1121097424
 21
5.6121891519
  0
LINE
  5
4BC
100
AcDbEntity
  8
IMPORT_IGES
100
AcDbLine
 62
7
  6
CONTINUOUS
 10
16.3690251525
 20
5.829087815
 11
16.3254972482
 21
5.8428830258
  0
LINE
  5
4BD
100
AcDbEntity
  8
IMPORT_IGES
100
AcDbLine
 62
7
  6
CONTINUOUS
 10
13.7271185136
 20
5.8305036312
 11
13.6899484693
 21
5.8431758693
  0
LINE
  5
4BE
100
AcDbEntity
  8
IMPORT_IGES
100
AcDbLine
 62
7
  6
CONTINUOUS
 10
15.0913422069
 20
5.8305036312
 11
15.0541721626
 21
5.8431758693
  0
LINE
  5
4BF
100
AcDbEntity
  8
IMPORT_IGES
100
AcDbLine
 62
7
  6
CONTINUOUS
 10
17.7774451481
 20
5.8305036312
 11
17.7402751038
 21
5.8431758693
  0
LINE
  5
4C0
100
AcDbEntity
  8
IMPORT_IGES
100
AcDbLine
 62
7
  6
CONTINUOUS
 10
13.572729213
 20
5.662854419
 11
13.6262050703
 21
5.6425296116
  0
LINE
  5
4C1
100
AcDbEntity
  8
IMPORT_IGES
100
AcDbLine
 62
7
  6
CONTINUOUS
 10
14.9338420489
 20
5.6644149618
 11
14.9901874292
 21
5.6426073561
  0
LINE
  5
4C2
100
AcDbEntity
  8
IMPORT_IGES
100
AcDbLine
 62
7
  6
CONTINUOUS
 10
17.3022788149
 20
-5.805220797
 11
17.2664474443
 21
-5.7607210402
  0
LINE
  5
4C3
100
AcDbEntity
  8
IMPORT_IGES
100
AcDbLine
 62
7
  6
CONTINUOUS
 10
17.1153215876
 20
-5.8676259565
 11
17.136468659
 21
-5.8956956712
  0
LINE
  5
4C4
100
AcDbEntity
  8
IMPORT_IGES
100
AcDbLine
 62
7
  6
CONTINUOUS
 10
16.1577134949
 20
-6.3871999431
 11
16.1240142838
 21
-6.3405974517
  0
LINE
  5
4C5
100
AcDbEntity
  8
IMPORT_IGES
100
AcDbLine
 62
7
  6
CONTINUOUS
 10
14.9500573302
 20
-5.835234594
 11
14.9226350739
 21
-5.7927495539
  0
LINE
  5
4C6
100
AcDbEntity
  8
IMPORT_IGES
100
AcDbLine
 62
7
  6
CONTINUOUS
 10
15.957232467
 20
-6.4573765454
 11
15.9781816372
 21
-6.4903473285
  0
LINE
  5
4C7
100
AcDbEntity
  8
IMPORT_IGES
100
AcDbLine
 62
7
  6
CONTINUOUS
 10
16.4970070218
 20
-6.9457049463
 11
16.5295372386
 21
-6.9971345123
  0
LINE
  5
4C8
100
AcDbEntity
  8
IMPORT_IGES
100
AcDbLine
 62
7
  6
CONTINUOUS
 10
16.697606682
 20
-6.9029771629
 11
16.6768427777
 21
-6.8699210709
  0
LINE
  5
4C9
100
AcDbEntity
  8
IMPORT_IGES
100
AcDbLine
 62
7
  6
CONTINUOUS
 10
15.4238557486
 20
-6.8994839794
 11
15.4053125144
 21
-6.8687657995
  0
LINE
  5
4CA
100
AcDbEntity
  8
IMPORT_IGES
100
AcDbLine
 62
7
  6
CONTINUOUS
 10
16.1839739799
 20
-6.4356770468
 11
16.1577134949
 21
-6.3871999431
  0
LINE
  5
4CB
100
AcDbEntity
  8
IMPORT_IGES
100
AcDbLine
 62
7
  6
CONTINUOUS
 10
14.7596130511
 20
-5.9160204974
 11
14.7759282533
 21
-5.9484143408
  0
LINE
  5
4CC
100
AcDbEntity
  8
IMPORT_IGES
100
AcDbLine
 62
7
  6
CONTINUOUS
 10
15.210058077
 20
-6.9189683607
 11
15.2322354565
 21
-6.9642368016
  0
LINE
  5
4CD
100
AcDbEntity
  8
IMPORT_IGES
100
AcDbLine
 62
7
  6
CONTINUOUS
 10
14.9727838608
 20
-5.8817889855
 11
14.9500573302
 21
-5.835234594
  0
LWPOLYLINE
  5
4CE
100
AcDbEntity
  8
IMPORT_IGES
100
AcDbPolyline
 62
253
  6
CONTINUOUS
 90
10
 70
0
 10
7.6011064518
 20
9.7504663806
 10
7.6509565578
 20
9.6176883073
 10
7.7016812303
 20
9.4854095674
 10
7.7497128032
 20
9.3519372187
 10
7.7950813927
 20
9.2164888881
 10
7.8377568825
 20
9.0805927779
 10
7.8740812583
 20
8.9459017764
 10
7.9028351819
 20
8.8132340346
 10
7.9252379913
 20
8.6825154149
 10
7.9412896867
 20
8.5540592844
  0
LWPOLYLINE
  5
4CF
100
AcDbEntity
  8
IMPORT_IGES
100
AcDbPolyline
 62
253
  6
CONTINUOUS
 90
3
 70
0
 10
7.4603711989
 20
10.1472842827
 10
7.5064083833
 20
10.0163269123
 10
7.6011064518
 20
9.7504663806
  0
LWPOLYLINE
  5
4D0
100
AcDbEntity
  8
IMPORT_IGES
100
AcDbPolyline
 62
253
  6
CONTINUOUS
 90
6
 70
0
 10
8.5150624604
 20
9.7931190034
 10
8.5449731666
 20
9.5357934777
 10
8.5707288606
 20
9.2878548352
 10
8.5900772057
 20
9.0550634876
 10
8.6028062786
 20
8.8317015658
 10
8.6082464611
 20
8.6177706764
  0
LINE
  5
4D1
100
AcDbEntity
  8
IMPORT_IGES
100
AcDbLine
 62
7
  6
CONTINUOUS
 10
13.2012955012
 20
6.4460062644
 11
13.2000447338
 21
6.5349563181
  0
LINE
  5
4D2
100
AcDbEntity
  8
IMPORT_IGES
100
AcDbLine
 62
7
  6
CONTINUOUS
 10
13.4426069291
 20
6.5432878472
 11
13.4428120048
 21
6.4766639259
  0
LINE
  5
4D3
100
AcDbEntity
  8
IMPORT_IGES
100
AcDbLine
 62
7
  6
CONTINUOUS
 10
13.4440593755
 20
6.6084285386
 11
13.4426069416
 21
6.543288353
  0
LINE
  5
4D4
100
AcDbEntity
  8
IMPORT_IGES
100
AcDbLine
 62
7
  6
CONTINUOUS
 10
13.2000448725
 20
6.5349647804
 11
13.2024762947
 21
6.6243791069
  0
LINE
  5
4D5
100
AcDbEntity
  8
IMPORT_IGES
100
AcDbLine
 62
7
  6
CONTINUOUS
 10
13.4473072754
 20
6.6727840591
 11
13.4440593755
 21
6.6084285386
  0
LINE
  5
4D6
100
AcDbEntity
  8
IMPORT_IGES
100
AcDbLine
 62
7
  6
CONTINUOUS
 10
13.2079091455
 20
6.7115318067
 11
13.2022329905
 21
6.6243743572
  0
LINE
  5
4D7
100
AcDbEntity
  8
IMPORT_IGES
100
AcDbLine
 62
7
  6
CONTINUOUS
 10
13.4524906844
 20
6.7348188419
 11
13.4473072754
 21
6.6727840591
  0
LINE
  5
4D8
100
AcDbEntity
  8
IMPORT_IGES
100
AcDbLine
 62
7
  6
CONTINUOUS
 10
13.4595107923
 20
6.7941491194
 11
13.4524906844
 21
6.7348188419
  0
LINE
  5
4D9
100
AcDbEntity
  8
IMPORT_IGES
100
AcDbLine
 62
7
  6
CONTINUOUS
 10
14.1742433573
 20
6.2470262761
 11
14.1807110507
 21
6.3005867429
  0
LINE
  5
4DA
100
AcDbEntity
  8
IMPORT_IGES
100
AcDbLine
 62
7
  6
CONTINUOUS
 10
13.2187243662
 20
6.7994496873
 11
13.2079091455
 21
6.7115318067
  0
LINE
  5
4DB
100
AcDbEntity
  8
IMPORT_IGES
100
AcDbLine
 62
7
  6
CONTINUOUS
 10
14.5806408305
 20
6.7830441099
 11
14.5841865454
 21
6.8078279775
  0
LINE
  5
4DC
100
AcDbEntity
  8
IMPORT_IGES
100
AcDbLine
 62
7
  6
CONTINUOUS
 10
14.1661891166
 20
6.1954286763
 11
14.1742433573
 21
6.2470262761
  0
LINE
  5
4DD
100
AcDbEntity
  8
IMPORT_IGES
100
AcDbLine
 62
7
  6
CONTINUOUS
 10
13.4684664093
 20
6.8511586592
 11
13.4595107923
 21
6.7941491194
  0
LINE
  5
4DE
100
AcDbEntity
  8
IMPORT_IGES
100
AcDbLine
 62
7
  6
CONTINUOUS
 10
14.584186647
 20
6.8078282355
 11
14.588027265
 21
6.8317837648
  0
LINE
  5
4DF
100
AcDbEntity
  8
IMPORT_IGES
100
AcDbLine
 62
7
  6
CONTINUOUS
 10
14.4023456646
 20
6.2009239108
 11
14.4162987305
 21
6.2823982352
  0
LINE
  5
4E0
100
AcDbEntity
  8
IMPORT_IGES
100
AcDbLine
 62
7
  6
CONTINUOUS
 10
13.2326098129
 20
6.8794702484
 11
13.2187243662
 21
6.7994496873
  0
LINE
  5
4E1
100
AcDbEntity
  8
IMPORT_IGES
100
AcDbLine
 62
7
  6
CONTINUOUS
 10
14.5880273508
 20
6.8317839606
 11
14.5921122724
 21
6.8549859495
  0
LINE
  5
4E2
100
AcDbEntity
  8
IMPORT_IGES
100
AcDbLine
 62
7
  6
CONTINUOUS
 10
14.5921123696
 20
6.8549861497
 11
14.5964400797
 21
6.8774370527
  0
LINE
  5
4E3
100
AcDbEntity
  8
IMPORT_IGES
100
AcDbLine
 62
7
  6
CONTINUOUS
 10
13.4684664093
 20
6.8511586592
 11
13.4797940211
 21
6.9054632461
  0
LINE
  5
4E4
100
AcDbEntity
  8
IMPORT_IGES
100
AcDbLine
 62
7
  6
CONTINUOUS
 10
14.8326901026
 20
6.8511586593
 11
14.8440177144
 21
6.9054632462
  0
LINE
  5
4E5
100
AcDbEntity
  8
IMPORT_IGES
100
AcDbLine
 62
7
  6
CONTINUOUS
 10
14.1661891166
 20
6.1954286763
 11
14.1558650339
 21
6.1462634724
  0
LINE
  5
4E6
100
AcDbEntity
  8
IMPORT_IGES
100
AcDbLine
 62
7
  6
CONTINUOUS
 10
14.596440192
 20
6.8774372613
 11
14.6010119681
 21
6.8991333634
  0
LINE
  5
4E7
100
AcDbEntity
  8
IMPORT_IGES
100
AcDbLine
 62
7
  6
CONTINUOUS
 10
14.6010120585
 20
6.8991335172
 11
14.6057817128
 21
6.920140965
  0
LINE
  5
4E8
100
AcDbEntity
  8
IMPORT_IGES
100
AcDbLine
 62
7
  6
CONTINUOUS
 10
14.3844691794
 20
6.1234984313
 11
14.4023456646
 21
6.2009239108
  0
LINE
  5
4E9
100
AcDbEntity
  8
IMPORT_IGES
100
AcDbLine
 62
7
  6
CONTINUOUS
 10
13.2503311463
 20
6.9553555369
 11
13.2326098129
 21
6.8794702484
  0
LINE
  5
4EA
100
AcDbEntity
  8
IMPORT_IGES
100
AcDbLine
 62
7
  6
CONTINUOUS
 10
14.6057818131
 20
6.9201411211
 11
14.6107481083
 21
6.940461934
  0
LINE
  5
4EB
100
AcDbEntity
  8
IMPORT_IGES
100
AcDbLine
 62
7
  6
CONTINUOUS
 10
14.6107482217
 20
6.9404620951
 11
14.6159120391
 21
6.9600927677
  0
LINE
  5
4EC
100
AcDbEntity
  8
IMPORT_IGES
100
AcDbLine
 62
7
  6
CONTINUOUS
 10
14.8440177144
 20
6.9054632462
 11
14.8576725479
 21
6.9572917386
  0
LINE
  5
4ED
100
AcDbEntity
  8
IMPORT_IGES
100
AcDbLine
 62
7
  6
CONTINUOUS
 10
14.1558650339
 20
6.1462634724
 11
14.143487888
 21
6.0994997044
  0
LINE
  5
4EE
100
AcDbEntity
  8
IMPORT_IGES
100
AcDbLine
 62
7
  6
CONTINUOUS
 10
15.5200887272
 20
6.1462634723
 11
15.5077115813
 21
6.0994997043
  0
LINE
  5
4EF
100
AcDbEntity
  8
IMPORT_IGES
100
AcDbLine
 62
7
  6
CONTINUOUS
 10
14.6159121247
 20
6.96009288
 11
14.6212305518
 21
6.979091239
  0
LINE
  5
4F0
100
AcDbEntity
  8
IMPORT_IGES
100
AcDbLine
 62
7
  6
CONTINUOUS
 10
15.7289603928
 20
6.0571046558
 11
15.7504261277
 21
6.1301505541
  0
LINE
  5
4F1
100
AcDbEntity
  8
IMPORT_IGES
100
AcDbLine
 62
7
  6
CONTINUOUS
 10
14.6212306241
 20
6.9790913275
 11
14.626667964
 21
6.9973818409
  0
LINE
  5
4F2
100
AcDbEntity
  8
IMPORT_IGES
100
AcDbLine
 62
7
  6
CONTINUOUS
 10
14.3625980716
 20
6.0507075894
 11
14.3844691794
 21
6.1234984313
  0
LINE
  5
4F3
100
AcDbEntity
  8
IMPORT_IGES
100
AcDbLine
 62
7
  6
CONTINUOUS
 10
14.6266680718
 20
6.9973819619
 11
14.6322602221
 21
7.0150406917
  0
LINE
  5
4F4
100
AcDbEntity
  8
IMPORT_IGES
100
AcDbLine
 62
7
  6
CONTINUOUS
 10
14.8576725479
 20
6.9572917386
 11
14.8736993762
 21
7.006415278
  0
LINE
  5
4F5
100
AcDbEntity
  8
IMPORT_IGES
100
AcDbLine
 62
7
  6
CONTINUOUS
 10
15.9370499541
 20
7.1353948114
 11
15.916440957
 21
7.0726266743
  0
LINE
  5
4F6
100
AcDbEntity
  8
IMPORT_IGES
100
AcDbLine
 62
7
  6
CONTINUOUS
 10
14.143487888
 20
6.0994997044
 11
14.1288409001
 21
6.0551683322
  0
LINE
  5
4F7
100
AcDbEntity
  8
IMPORT_IGES
100
AcDbLine
 62
7
  6
CONTINUOUS
 10
15.5077115813
 20
6.0994997043
 11
15.4930645933
 21
6.0551683322
  0
LINE
  5
4F8
100
AcDbEntity
  8
IMPORT_IGES
100
AcDbLine
 62
7
  6
CONTINUOUS
 10
14.6322603714
 20
7.0150408438
 11
14.6380712896
 21
7.0323516982
  0
LINE
  5
4F9
100
AcDbEntity
  8
IMPORT_IGES
100
AcDbLine
 62
7
  6
CONTINUOUS
 10
14.6380713856
 20
7.0323517917
 11
14.6440190332
 21
7.0491933182
  0
LINE
  5
4FA
100
AcDbEntity
  8
IMPORT_IGES
100
AcDbLine
 62
7
  6
CONTINUOUS
 10
15.7033979249
 20
5.9884451284
 11
15.7289603928
 21
6.0571046558
  0
LINE
  5
4FB
100
AcDbEntity
  8
IMPORT_IGES
100
AcDbLine
 62
7
  6
CONTINUOUS
 10
16.1415818251
 20
7.0586672185
 11
16.1572499507
 21
7.0998661483
  0
LINE
  5
4FC
100
AcDbEntity
  8
IMPORT_IGES
100
AcDbLine
 62
7
  6
CONTINUOUS
 10
16.927536676
 20
6.8395755366
 11
16.944564905
 21
6.8827163239
  0
LINE
  5
4FD
100
AcDbEntity
  8
IMPORT_IGES
100
AcDbLine
 62
7
  6
CONTINUOUS
 10
17.3566175901
 20
7.1150916159
 11
17.3430578096
 21
7.0825110275
  0
LINE
  5
4FE
100
AcDbEntity
  8
IMPORT_IGES
100
AcDbLine
 62
7
  6
CONTINUOUS
 10
16.7947842704
 20
6.058383237
 11
16.7771300965
 21
6.0183145144
  0
LINE
  5
4FF
100
AcDbEntity
  8
IMPORT_IGES
100
AcDbLine
 62
7
  6
CONTINUOUS
 10
15.4930645933
 20
6.0551683322
 11
15.4748141325
 21
6.0138317646
  0
LINE
  5
500
100
AcDbEntity
  8
IMPORT_IGES
100
AcDbLine
 62
7
  6
CONTINUOUS
 10
15.9624627574
 20
7.1927703268
 11
15.9370499541
 21
7.1353948114
  0
LINE
  5
501
100
AcDbEntity
  8
IMPORT_IGES
100
AcDbLine
 62
7
  6
CONTINUOUS
 10
15.6738637703
 20
5.9243839614
 11
15.7033979249
 21
5.9884451284
  0
LINE
  5
502
100
AcDbEntity
  8
IMPORT_IGES
100
AcDbLine
 62
7
  6
CONTINUOUS
 10
16.717730205
 20
6.8946807524
 11
16.7033691424
 21
6.8643908101
  0
LINE
  5
503
100
AcDbEntity
  8
IMPORT_IGES
100
AcDbLine
 62
7
  6
CONTINUOUS
 10
16.9867764581
 20
5.9389102631
 11
17.0127491311
 21
5.9934745233
  0
LINE
  5
504
100
AcDbEntity
  8
IMPORT_IGES
100
AcDbLine
 62
7
  6
CONTINUOUS
 10
17.3666564867
 20
7.1356251046
 11
17.3566175901
 21
7.1150916159
  0
LINE
  5
505
100
AcDbEntity
  8
IMPORT_IGES
100
AcDbLine
 62
7
  6
CONTINUOUS
 10
17.3666564867
 20
7.1356251046
 11
17.3759229493
 21
7.154028327
  0
LINE
  5
506
100
AcDbEntity
  8
IMPORT_IGES
100
AcDbLine
 62
7
  6
CONTINUOUS
 10
17.5787719452
 20
7.0517630735
 11
17.6009449843
 21
7.0934415361
  0
LINE
  5
507
100
AcDbEntity
  8
IMPORT_IGES
100
AcDbLine
 62
7
  6
CONTINUOUS
 10
17.3759229493
 20
7.154028327
 11
17.3859201329
 21
7.1727642348
  0
LINE
  5
508
100
AcDbEntity
  8
IMPORT_IGES
100
AcDbLine
 62
7
  6
CONTINUOUS
 10
16.9053530518
 20
6.7988465047
 11
16.927536676
 21
6.8395755366
  0
LINE
  5
509
100
AcDbEntity
  8
IMPORT_IGES
100
AcDbLine
 62
7
  6
CONTINUOUS
 10
18.3267674596
 20
5.866169787
 11
18.3599667115
 21
5.9243839615
  0
LINE
  5
50A
100
AcDbEntity
  8
IMPORT_IGES
100
AcDbLine
 62
7
  6
CONTINUOUS
 10
17.3968978917
 20
7.1917389992
 11
17.3859201329
 21
7.1727642348
  0
LINE
  5
50B
100
AcDbEntity
  8
IMPORT_IGES
100
AcDbLine
 62
7
  6
CONTINUOUS
 10
18.1609170737
 20
6.0138317646
 11
18.1382871855
 21
5.9752075574
  0
LINE
  5
50C
100
AcDbEntity
  8
IMPORT_IGES
100
AcDbLine
 62
7
  6
CONTINUOUS
 10
16.7771300965
 20
6.0183145144
 11
16.7545862687
 21
5.9807751796
  0
LINE
  5
50D
100
AcDbEntity
  8
IMPORT_IGES
100
AcDbLine
 62
7
  6
CONTINUOUS
 10
19.607629517
 20
5.9713665576
 11
19.579925786
 21
5.9280778653
  0
LINE
  5
50E
100
AcDbEntity
  8
IMPORT_IGES
100
AcDbLine
 62
7
  6
CONTINUOUS
 10
19.7634421828
 20
5.8218781581
 11
19.8028734735
 21
5.8792885179
  0
LINE
  5
50F
100
AcDbEntity
  8
IMPORT_IGES
100
AcDbLine
 62
7
  6
CONTINUOUS
 10
18.2897729042
 20
5.8140757461
 11
18.3267674596
 21
5.866169787
  0
LINE
  5
510
100
AcDbEntity
  8
IMPORT_IGES
100
AcDbLine
 62
7
  6
CONTINUOUS
 10
18.9519352056
 20
6.4461328727
 11
18.9814987892
 21
6.4855452278
  0
LINE
  5
511
100
AcDbEntity
  8
IMPORT_IGES
100
AcDbLine
 62
7
  6
CONTINUOUS
 10
19.579925786
 20
5.9280778653
 11
19.5484330393
 21
5.8897810848
  0
LINE
  5
512
100
AcDbEntity
  8
IMPORT_IGES
100
AcDbLine
 62
7
  6
CONTINUOUS
 10
19.7203550164
 20
5.770783529
 11
19.7634421828
 21
5.8218781581
  0
LINE
  5
513
100
AcDbEntity
  8
IMPORT_IGES
100
AcDbLine
 62
7
  6
CONTINUOUS
 10
14.1844080805
 20
-5.7004800801
 11
14.1606407314
 21
-5.7189442075
  0
LINE
  5
514
100
AcDbEntity
  8
IMPORT_IGES
100
AcDbLine
 62
7
  6
CONTINUOUS
 10
14.2106468939
 20
-5.6832774033
 11
14.1844080805
 21
-5.7004800801
  0
LINE
  5
515
100
AcDbEntity
  8
IMPORT_IGES
100
AcDbLine
 62
7
  6
CONTINUOUS
 10
14.6148654936
 20
-6.3576279055
 11
14.5737945043
 21
-6.3841606275
  0
LINE
  5
516
100
AcDbEntity
  8
IMPORT_IGES
100
AcDbLine
 62
7
  6
CONTINUOUS
 10
14.3335207546
 20
-6.522788756
 11
14.2815249984
 21
-6.5551807017
  0
LINE
  5
517
100
AcDbEntity
  8
IMPORT_IGES
100
AcDbLine
 62
7
  6
CONTINUOUS
 10
14.5737945043
 20
-6.3841606275
 11
14.5306448205
 21
-6.4105854347
  0
LINE
  5
518
100
AcDbEntity
  8
IMPORT_IGES
100
AcDbLine
 62
7
  6
CONTINUOUS
 10
14.6608988205
 20
-6.5403073898
 11
14.7102812401
 21
-6.5108307459
  0
LINE
  5
519
100
AcDbEntity
  8
IMPORT_IGES
100
AcDbLine
 62
7
  6
CONTINUOUS
 10
14.3162678174
 20
-5.8384763691
 11
14.3470882712
 21
-5.8201974923
  0
LINE
  5
51A
100
AcDbEntity
  8
IMPORT_IGES
100
AcDbLine
 62
7
  6
CONTINUOUS
 10
14.3938838439
 20
-6.691851976
 11
14.4474764353
 21
-6.6602830408
  0
LINE
  5
51B
100
AcDbEntity
  8
IMPORT_IGES
100
AcDbLine
 62
7
  6
CONTINUOUS
 10
14.5306448205
 20
-6.4105854347
 11
14.4372753181
 21
-6.4643589898
  0
LINE
  5
51C
100
AcDbEntity
  8
IMPORT_IGES
100
AcDbLine
 62
7
  6
CONTINUOUS
 10
14.4474764353
 20
-6.6602830408
 11
14.5014052265
 21
-6.6294504742
  0
LINE
  5
51D
100
AcDbEntity
  8
IMPORT_IGES
100
AcDbLine
 62
7
  6
CONTINUOUS
 10
14.6090076245
 20
-6.5698316254
 11
14.6608988205
 21
-6.5403073898
  0
LINE
  5
51E
100
AcDbEntity
  8
IMPORT_IGES
100
AcDbLine
 62
7
  6
CONTINUOUS
 10
14.4372753181
 20
-6.4643589898
 11
14.3335207546
 21
-6.522788756
  0
LINE
  5
51F
100
AcDbEntity
  8
IMPORT_IGES
100
AcDbLine
 62
7
  6
CONTINUOUS
 10
14.5014052265
 20
-6.6294504742
 11
14.5550383255
 21
-6.5992728655
  0
LINE
  5
520
100
AcDbEntity
  8
IMPORT_IGES
100
AcDbLine
 62
7
  6
CONTINUOUS
 10
14.2392299814
 20
-5.6673031971
 11
14.2106468939
 21
-5.6832774033
  0
LINE
  5
521
100
AcDbEntity
  8
IMPORT_IGES
100
AcDbLine
 62
7
  6
CONTINUOUS
 10
15.4934077339
 20
-6.3812385686
 11
15.5295432214
 21
-6.3610933351
  0
LINE
  5
522
100
AcDbEntity
  8
IMPORT_IGES
100
AcDbLine
 62
7
  6
CONTINUOUS
 10
15.506258999
 20
-6.2005652366
 11
15.4636530251
 21
-6.2241194108
  0
LINE
  5
523
100
AcDbEntity
  8
IMPORT_IGES
100
AcDbLine
 62
7
  6
CONTINUOUS
 10
14.5550383255
 20
-6.5992728655
 11
14.6090076245
 21
-6.5698316254
  0
LINE
  5
524
100
AcDbEntity
  8
IMPORT_IGES
100
AcDbLine
 62
7
  6
CONTINUOUS
 10
16.7837946522
 20
-5.8228210952
 11
16.8148110069
 21
-5.8082173911
  0
LINE
  5
525
100
AcDbEntity
  8
IMPORT_IGES
100
AcDbLine
 62
7
  6
CONTINUOUS
 10
16.7377291943
 20
-5.6450580333
 11
16.6890925284
 21
-5.6660383989
  0
LINE
  5
526
100
AcDbEntity
  8
IMPORT_IGES
100
AcDbLine
 62
7
  6
CONTINUOUS
 10
15.5515153506
 20
-6.1820767142
 11
15.506258999
 21
-6.2005652366
  0
LINE
  5
527
100
AcDbEntity
  8
IMPORT_IGES
100
AcDbLine
 62
7
  6
CONTINUOUS
 10
15.5295432214
 20
-6.3610933351
 11
15.567451844
 21
-6.3463268732
  0
LINE
  5
528
100
AcDbEntity
  8
IMPORT_IGES
100
AcDbLine
 62
7
  6
CONTINUOUS
 10
15.8927832172
 20
-7.1498969802
 11
15.9460529116
 21
-7.1292290179
  0
LINE
  5
529
100
AcDbEntity
  8
IMPORT_IGES
100
AcDbLine
 62
7
  6
CONTINUOUS
 10
19.2390501891
 20
-6.6131256562
 11
19.2670449207
 21
-6.6024142127
  0
LINE
  5
52A
100
AcDbEntity
  8
IMPORT_IGES
100
AcDbLine
 62
7
  6
CONTINUOUS
 10
17.0197070423
 20
-6.9882125162
 11
16.984091985
 21
-7.0009119214
  0
LINE
  5
52B
100
AcDbEntity
  8
IMPORT_IGES
100
AcDbLine
 62
7
  6
CONTINUOUS
 10
20.0021794674
 20
-6.7631694935
 11
20.0406396053
 21
-6.7495005189
  0
LINE
  5
52C
100
AcDbEntity
  8
IMPORT_IGES
100
AcDbLine
 62
7
  6
CONTINUOUS
 10
19.249314646
 20
-6.4145589831
 11
19.2139821795
 21
-6.42689764
  0
LINE
  5
52D
100
AcDbEntity
  8
IMPORT_IGES
100
AcDbLine
 62
7
  6
CONTINUOUS
 10
15.8289740156
 20
-6.9881544363
 11
15.7915040352
 21
-7.000790256
  0
LINE
  5
52E
100
AcDbEntity
  8
IMPORT_IGES
100
AcDbLine
 62
7
  6
CONTINUOUS
 10
17.0349262654
 20
-7.1712599643
 11
17.0878585896
 21
-7.1550922089
  0
LINE
  5
52F
100
AcDbEntity
  8
IMPORT_IGES
100
AcDbLine
 62
7
  6
CONTINUOUS
 10
18.056342209
 20
7.4271448141
 11
17.9961679553
 21
7.4415625393
  0
LINE
  5
530
100
AcDbEntity
  8
IMPORT_IGES
100
AcDbLine
 62
7
  6
CONTINUOUS
 10
17.9629597485
 20
7.2418993116
 11
17.9992682484
 21
7.2312960064
  0
LINE
  5
531
100
AcDbEntity
  8
IMPORT_IGES
100
AcDbLine
 62
7
  6
CONTINUOUS
 10
16.5206880494
 20
7.2802516045
 11
16.5635831723
 21
7.2672416006
  0
LINE
  5
532
100
AcDbEntity
  8
IMPORT_IGES
100
AcDbLine
 62
7
  6
CONTINUOUS
 10
16.6503346338
 20
7.4316819357
 11
16.5905056824
 21
7.4502903869
  0
LINE
  5
533
100
AcDbEntity
  8
IMPORT_IGES
100
AcDbLine
 62
7
  6
CONTINUOUS
 10
19.5489185392
 20
6.7769416184
 11
19.4901201767
 21
6.7959950624
  0
LINE
  5
534
100
AcDbEntity
  8
IMPORT_IGES
100
AcDbLine
 62
7
  6
CONTINUOUS
 10
19.3904785725
 20
6.6069306594
 11
19.4365910251
 21
6.5919075316
  0
LINE
  5
535
100
AcDbEntity
  8
IMPORT_IGES
100
AcDbLine
 62
7
  6
CONTINUOUS
 10
15.4257869906
 20
7.4072103411
 11
15.3702392678
 21
7.4271448141
  0
LINE
  5
536
100
AcDbEntity
  8
IMPORT_IGES
100
AcDbLine
 62
7
  6
CONTINUOUS
 10
18.1118899318
 20
7.4072103411
 11
18.056342209
 21
7.4271448141
  0
LINE
  5
537
100
AcDbEntity
  8
IMPORT_IGES
100
AcDbLine
 62
7
  6
CONTINUOUS
 10
14.0627527579
 20
7.4066999114
 11
14.0069597842
 21
7.42685891
  0
LINE
  5
538
100
AcDbEntity
  8
IMPORT_IGES
100
AcDbLine
 62
7
  6
CONTINUOUS
 10
17.6199449891
 20
5.6644149623
 11
17.6762903695
 21
5.6426073564
  0
LINE
  5
539
100
AcDbEntity
  8
IMPORT_IGES
100
AcDbLine
 62
7
  6
CONTINUOUS
 10
16.8184742296
 20
6.6052275978
 11
16.7697302938
 21
6.6250850847
  0
LINE
  5
53A
100
AcDbEntity
  8
IMPORT_IGES
100
AcDbLine
 62
7
  6
CONTINUOUS
 10
16.1783262373
 20
5.6968062383
 11
16.2358420315
 21
5.6729267934
  0
LINE
  5
53B
100
AcDbEntity
  8
IMPORT_IGES
100
AcDbLine
 62
7
  6
CONTINUOUS
 10
16.594425985
 20
6.5226959083
 11
16.6331459499
 21
6.5064630435
  0
LINE
  5
53C
100
AcDbEntity
  8
IMPORT_IGES
100
AcDbLine
 62
7
  6
CONTINUOUS
 10
18.9935404261
 20
5.6550629617
 11
19.0506011274
 21
5.63079864
  0
LINE
  5
53D
100
AcDbEntity
  8
IMPORT_IGES
100
AcDbLine
 62
7
  6
CONTINUOUS
 10
13.9489416139
 20
7.2312960064
 11
13.9821129599
 21
7.216769172
  0
LINE
  5
53E
100
AcDbEntity
  8
IMPORT_IGES
100
AcDbLine
 62
7
  6
CONTINUOUS
 10
15.3131653072
 20
7.2312960064
 11
15.3463366532
 21
7.216769172
  0
LINE
  5
53F
100
AcDbEntity
  8
IMPORT_IGES
100
AcDbLine
 62
7
  6
CONTINUOUS
 10
19.1613920217
 20
5.7950954492
 11
19.1219808462
 21
5.8128182465
  0
LINE
  5
540
100
AcDbEntity
  8
IMPORT_IGES
100
AcDbLine
 62
7
  6
CONTINUOUS
 10
16.3254972482
 20
5.8428830258
 11
16.2895970458
 21
5.8591450622
  0
LINE
  5
541
100
AcDbEntity
  8
IMPORT_IGES
100
AcDbLine
 62
7
  6
CONTINUOUS
 10
14.1141340227
 20
7.3808938997
 11
14.0627527579
 21
7.4066999114
  0
LINE
  5
542
100
AcDbEntity
  8
IMPORT_IGES
100
AcDbLine
 62
7
  6
CONTINUOUS
 10
13.6899484693
 20
5.8431758693
 11
13.6553793247
 21
5.8608987343
  0
LINE
  5
543
100
AcDbEntity
  8
IMPORT_IGES
100
AcDbLine
 62
7
  6
CONTINUOUS
 10
15.0541721626
 20
5.8431758693
 11
15.019603018
 21
5.8608987343
  0
LINE
  5
544
100
AcDbEntity
  8
IMPORT_IGES
100
AcDbLine
 62
7
  6
CONTINUOUS
 10
17.7402751038
 20
5.8431758693
 11
17.7057059591
 21
5.8608987343
  0
LINE
  5
545
100
AcDbEntity
  8
IMPORT_IGES
100
AcDbLine
 62
7
  6
CONTINUOUS
 10
13.5233646282
 20
5.6888936268
 11
13.572729213
 21
5.662854419
  0
LINE
  5
546
100
AcDbEntity
  8
IMPORT_IGES
100
AcDbLine
 62
7
  6
CONTINUOUS
 10
14.8819584296
 20
5.6925820813
 11
14.9338420489
 21
5.6644149618
  0
LINE
  5
547
100
AcDbEntity
  8
IMPORT_IGES
100
AcDbLine
 62
7
  6
CONTINUOUS
 10
17.5680613696
 20
5.6925820821
 11
17.6199449891
 21
5.6644149623
  0
LINE
  5
548
100
AcDbEntity
  8
IMPORT_IGES
100
AcDbLine
 62
7
  6
CONTINUOUS
 10
16.1245375716
 20
5.7271951908
 11
16.1783262373
 21
5.6968062383
  0
LINE
  5
549
100
AcDbEntity
  8
IMPORT_IGES
100
AcDbLine
 62
7
  6
CONTINUOUS
 10
13.9821129599
 20
7.216769172
 11
14.0122352027
 21
7.1982652858
  0
LINE
  5
54A
100
AcDbEntity
  8
IMPORT_IGES
100
AcDbLine
 62
7
  6
CONTINUOUS
 10
13.4770478321
 20
5.7211356245
 11
13.5233646282
 21
5.6888936268
  0
LINE
  5
54B
100
AcDbEntity
  8
IMPORT_IGES
100
AcDbLine
 62
7
  6
CONTINUOUS
 10
13.6553793247
 20
5.8608987343
 11
13.6233973132
 21
5.8836693549
  0
LINE
  5
54C
100
AcDbEntity
  8
IMPORT_IGES
100
AcDbLine
 62
7
  6
CONTINUOUS
 10
15.019603018
 20
5.8608987343
 11
14.9876210065
 21
5.8836693549
  0
LINE
  5
54D
100
AcDbEntity
  8
IMPORT_IGES
100
AcDbLine
 62
7
  6
CONTINUOUS
 10
14.8338733549
 20
5.7270115473
 11
14.8819584296
 21
5.6925820813
  0
LINE
  5
54E
100
AcDbEntity
  8
IMPORT_IGES
100
AcDbLine
 62
7
  6
CONTINUOUS
 10
13.4332190552
 20
5.75984557
 11
13.4770478321
 21
5.7211356245
  0
LINE
  5
54F
100
AcDbEntity
  8
IMPORT_IGES
100
AcDbLine
 62
7
  6
CONTINUOUS
 10
17.3339921492
 20
-5.8553712917
 11
17.3022788149
 21
-5.805220797
  0
LINE
  5
550
100
AcDbEntity
  8
IMPORT_IGES
100
AcDbLine
 62
7
  6
CONTINUOUS
 10
17.136468659
 20
-5.8956956712
 11
17.1546937078
 21
-5.9279936025
  0
LINE
  5
551
100
AcDbEntity
  8
IMPORT_IGES
100
AcDbLine
 62
7
  6
CONTINUOUS
 10
16.6768427777
 20
-6.8699210709
 11
16.6585641949
 21
-6.8338213026
  0
LINE
  5
552
100
AcDbEntity
  8
IMPORT_IGES
100
AcDbLine
 62
7
  6
CONTINUOUS
 10
16.4686509358
 20
-6.8884261914
 11
16.4970070218
 21
-6.9457049463
  0
LINE
  5
553
100
AcDbEntity
  8
IMPORT_IGES
100
AcDbLine
 62
7
  6
CONTINUOUS
 10
17.3614462428
 20
-5.9115307133
 11
17.3339921492
 21
-5.8553712917
  0
LINE
  5
554
100
AcDbEntity
  8
IMPORT_IGES
100
AcDbLine
 62
7
  6
CONTINUOUS
 10
15.9781816372
 20
-6.4903473285
 11
15.9948686221
 21
-6.5266661613
  0
LINE
  5
555
100
AcDbEntity
  8
IMPORT_IGES
100
AcDbLine
 62
7
  6
CONTINUOUS
 10
17.1546937078
 20
-5.9279936025
 11
17.170605526
 21
-5.9631203532
  0
LINE
  5
556
100
AcDbEntity
  8
IMPORT_IGES
100
AcDbLine
 62
7
  6
CONTINUOUS
 10
15.4053125144
 20
-6.8687657995
 11
15.3905294412
 21
-6.8344429532
  0
LINE
  5
557
100
AcDbEntity
  8
IMPORT_IGES
100
AcDbLine
 62
7
  6
CONTINUOUS
 10
16.6585641949
 20
-6.8338213026
 11
16.6429805847
 21
-6.7948889242
  0
LINE
  5
558
100
AcDbEntity
  8
IMPORT_IGES
100
AcDbLine
 62
7
  6
CONTINUOUS
 10
16.4442895767
 20
-6.825493134
 11
16.4686509358
 21
-6.8884261914
  0
LINE
  5
559
100
AcDbEntity
  8
IMPORT_IGES
100
AcDbLine
 62
7
  6
CONTINUOUS
 10
16.2035515038
 20
-6.4870760425
 11
16.1839739799
 21
-6.4356770468
  0
LINE
  5
55A
100
AcDbEntity
  8
IMPORT_IGES
100
AcDbLine
 62
7
  6
CONTINUOUS
 10
14.9910123923
 20
-5.9335507108
 11
14.9727838608
 21
-5.8817889855
  0
LINE
  5
55B
100
AcDbEntity
  8
IMPORT_IGES
100
AcDbLine
 62
7
  6
CONTINUOUS
 10
14.7759282533
 20
-5.9484143408
 11
14.7897930589
 21
-5.9879585958
  0
LINE
  5
55C
100
AcDbEntity
  8
IMPORT_IGES
100
AcDbLine
 62
7
  6
CONTINUOUS
 10
15.1928247226
 20
-6.868943734
 11
15.210058077
 21
-6.9189683607
  0
LINE
  5
55D
100
AcDbEntity
  8
IMPORT_IGES
100
AcDbLine
 62
7
  6
CONTINUOUS
 10
15.9948686221
 20
-6.5266661613
 11
16.0086399722
 21
-6.5708481886
  0
LINE
  5
55E
100
AcDbEntity
  8
IMPORT_IGES
100
AcDbLine
 62
7
  6
CONTINUOUS
 10
15.3905294412
 20
-6.8344429532
 11
15.3781429801
 21
-6.7917741946
  0
LINE
  5
55F
100
AcDbEntity
  8
IMPORT_IGES
100
AcDbLine
 62
7
  6
CONTINUOUS
 10
15.0059042088
 20
-5.9941729904
 11
14.9910123923
 21
-5.9335507108
  0
LINE
  5
560
100
AcDbEntity
  8
IMPORT_IGES
100
AcDbLine
 62
7
  6
CONTINUOUS
 10
15.1791843283
 20
-6.8095360286
 11
15.1928247226
 21
-6.868943734
  0
LINE
  5
561
100
AcDbEntity
  8
IMPORT_IGES
100
AcDbLine
 62
7
  6
CONTINUOUS
 10
15.3781429801
 20
-6.7917741946
 11
15.3741278252
 21
-6.7551813961
  0
LINE
  5
562
100
AcDbEntity
  8
IMPORT_IGES
100
AcDbLine
 62
7
  6
CONTINUOUS
 10
14.5768419431
 20
6.2939728166
 11
14.5724310079
 21
6.3347722212
  0
LINE
  5
563
100
AcDbEntity
  8
IMPORT_IGES
100
AcDbLine
 62
7
  6
CONTINUOUS
 10
14.4294681133
 20
6.7230511883
 11
14.4202615221
 21
6.8088297098
  0
LINE
  5
564
100
AcDbEntity
  8
IMPORT_IGES
100
AcDbLine
 62
7
  6
CONTINUOUS
 10
13.4488822579
 20
6.344689786
 11
13.4549796331
 21
6.2841492237
  0
LINE
  5
565
100
AcDbEntity
  8
IMPORT_IGES
100
AcDbLine
 62
7
  6
CONTINUOUS
 10
14.8131059511
 20
6.3446897861
 11
14.8192033264
 21
6.2841492238
  0
LINE
  5
566
100
AcDbEntity
  8
IMPORT_IGES
100
AcDbLine
 62
7
  6
CONTINUOUS
 10
15.0104014286
 20
-6.0424986246
 11
15.0059042088
 21
-5.9941729904
  0
LINE
  5
567
100
AcDbEntity
  8
IMPORT_IGES
100
AcDbLine
 62
7
  6
CONTINUOUS
 10
14.1866017332
 20
6.711638613
 11
14.1816918469
 21
6.7660561464
  0
LINE
  5
568
100
AcDbEntity
  8
IMPORT_IGES
100
AcDbLine
 62
7
  6
CONTINUOUS
 10
14.7956236706
 20
-6.0213887831
 11
14.7987527234
 21
-6.057037116
  0
LINE
  5
569
100
AcDbEntity
  8
IMPORT_IGES
100
AcDbLine
 62
7
  6
CONTINUOUS
 10
16.2230840665
 20
-6.6049154092
 11
16.2180605164
 21
-6.5469532536
  0
LINE
  5
56A
100
AcDbEntity
  8
IMPORT_IGES
100
AcDbLine
 62
7
  6
CONTINUOUS
 10
15.1747599292
 20
-6.7551813961
 11
15.1791843283
 21
-6.8095360286
  0
LINE
  5
56B
100
AcDbEntity
  8
IMPORT_IGES
100
AcDbLine
 62
7
  6
CONTINUOUS
 10
14.5724305469
 20
6.3347741513
 11
14.5693028045
 21
6.3741957317
  0
LINE
  5
56C
100
AcDbEntity
  8
IMPORT_IGES
100
AcDbLine
 62
7
  6
CONTINUOUS
 10
16.0177565233
 20
-6.656872622
 11
16.0146539111
 21
-6.6098961924
  0
LINE
  5
56D
100
AcDbEntity
  8
IMPORT_IGES
100
AcDbLine
 62
7
  6
CONTINUOUS
 10
13.4448125356
 20
6.4092543381
 11
13.4488822579
 21
6.344689786
  0
LINE
  5
56E
100
AcDbEntity
  8
IMPORT_IGES
100
AcDbLine
 62
7
  6
CONTINUOUS
 10
14.8090362289
 20
6.4092543383
 11
14.8131059511
 21
6.3446897861
  0
LINE
  5
56F
100
AcDbEntity
  8
IMPORT_IGES
100
AcDbLine
 62
7
  6
CONTINUOUS
 10
14.5693026616
 20
6.3741965447
 11
14.5669687303
 21
6.4123470314
  0
LINE
  5
570
100
AcDbEntity
  8
IMPORT_IGES
100
AcDbLine
 62
7
  6
CONTINUOUS
 10
14.1900158544
 20
6.6550652845
 11
14.1866017332
 21
6.711638613
  0
LINE
  5
571
100
AcDbEntity
  8
IMPORT_IGES
100
AcDbLine
 62
7
  6
CONTINUOUS
 10
13.2013536343
 20
6.4460087794
 11
13.2056681159
 21
6.3597065563
  0
LINE
  5
572
100
AcDbEntity
  8
IMPORT_IGES
100
AcDbLine
 62
7
  6
CONTINUOUS
 10
14.4335091955
 20
6.6385613663
 11
14.4294681133
 21
6.7230511883
  0
LINE
  5
573
100
AcDbEntity
  8
IMPORT_IGES
100
AcDbLine
 62
7
  6
CONTINUOUS
 10
14.566968638
 20
6.4123477343
 11
14.5653569722
 21
6.449222702
  0
LINE
  5
574
100
AcDbEntity
  8
IMPORT_IGES
100
AcDbLine
 62
7
  6
CONTINUOUS
 10
14.1918719416
 20
6.5952830274
 11
14.1900158544
 21
6.6550652845
  0
LINE
  5
575
100
AcDbEntity
  8
IMPORT_IGES
100
AcDbLine
 62
7
  6
CONTINUOUS
 10
13.4428119825
 20
6.4766644557
 11
13.4448125356
 21
6.4092543381
  0
LINE
  5
576
100
AcDbEntity
  8
IMPORT_IGES
100
AcDbLine
 62
7
  6
CONTINUOUS
 10
14.8070356758
 20
6.4766644559
 11
14.8090362289
 21
6.4092543383
  0
LINE
  5
577
100
AcDbEntity
  8
IMPORT_IGES
100
AcDbLine
 62
7
  6
CONTINUOUS
 10
14.5653568979
 20
6.4492235874
 11
14.5645387833
 21
6.4848313588
  0
LINE
  5
578
100
AcDbEntity
  8
IMPORT_IGES
100
AcDbLine
 62
7
  6
CONTINUOUS
 10
14.4335917435
 20
6.6385635208
 11
14.4346885938
 21
6.5505302312
  0
LINE
  5
579
100
AcDbEntity
  8
IMPORT_IGES
100
AcDbLine
 62
7
  6
CONTINUOUS
 10
14.564538775
 20
6.4848315792
 11
14.5642383998
 21
6.5193027704
  0
LINE
  5
57A
100
AcDbEntity
  8
IMPORT_IGES
100
AcDbLine
 62
7
  6
CONTINUOUS
 10
14.1922322183
 20
6.5333464829
 11
14.1918719207
 21
6.5952834688
  0
LINE
  5
57B
100
AcDbEntity
  8
IMPORT_IGES
100
AcDbLine
 62
7
  6
CONTINUOUS
 10
15.5564559115
 20
6.5333464829
 11
15.556095614
 21
6.5952834688
  0
LINE
  5
57C
100
AcDbEntity
  8
IMPORT_IGES
100
AcDbLine
 62
7
  6
CONTINUOUS
 10
14.8068306224
 20
6.5432878474
 11
14.8070356981
 21
6.4766639261
  0
LINE
  5
57D
100
AcDbEntity
  8
IMPORT_IGES
100
AcDbLine
 62
7
  6
CONTINUOUS
 10
15.0045114606
 20
-6.9631170303
 11
15.0045114606
 21
-7.1444440303
  0
LINE
  5
57E
100
AcDbEntity
  8
IMPORT_IGES
100
AcDbLine
 62
7
  6
CONTINUOUS
 10
14.5642383967
 20
6.5193034019
 11
14.5643983018
 21
6.5526438735
  0
LINE
  5
57F
100
AcDbEntity
  8
IMPORT_IGES
100
AcDbLine
 62
7
  6
CONTINUOUS
 10
15.0114038878
 20
-6.0454877502
 11
15.0107343902
 21
-6.1018317269
  0
LINE
  5
580
100
AcDbEntity
  8
IMPORT_IGES
100
AcDbLine
 62
7
  6
CONTINUOUS
 10
14.1912781425
 20
6.4725758163
 11
14.1922322135
 21
6.533346106
  0
LINE
  5
581
100
AcDbEntity
  8
IMPORT_IGES
100
AcDbLine
 62
7
  6
CONTINUOUS
 10
15.5555018358
 20
6.4725758163
 11
15.5564559067
 21
6.533346106
  0
LINE
  5
582
100
AcDbEntity
  8
IMPORT_IGES
100
AcDbLine
 62
7
  6
CONTINUOUS
 10
14.5643983129
 20
6.5526442221
 11
14.5650759309
 21
6.5848497836
  0
LINE
  5
583
100
AcDbEntity
  8
IMPORT_IGES
100
AcDbLine
 62
7
  6
CONTINUOUS
 10
14.8082830688
 20
6.6084285388
 11
14.8068306349
 21
6.5432883532
  0
LINE
  5
584
100
AcDbEntity
  8
IMPORT_IGES
100
AcDbLine
 62
7
  6
CONTINUOUS
 10
15.7989334381
 20
6.5576112838
 11
15.7968433074
 21
6.4677083273
  0
LINE
  5
585
100
AcDbEntity
  8
IMPORT_IGES
100
AcDbLine
 62
7
  6
CONTINUOUS
 10
14.798725035
 20
-6.1014025163
 11
14.7997230963
 21
-6.0620397915
  0
LINE
  5
586
100
AcDbEntity
  8
IMPORT_IGES
100
AcDbLine
 62
7
  6
CONTINUOUS
 10
14.4346884599
 20
6.5505226278
 11
14.4322971042
 21
6.4605210374
  0
LINE
  5
587
100
AcDbEntity
  8
IMPORT_IGES
100
AcDbLine
 62
7
  6
CONTINUOUS
 10
13.9933428053
 20
-6.1588694448
 11
13.9944487456
 21
-6.1240018836
  0
LINE
  5
588
100
AcDbEntity
  8
IMPORT_IGES
100
AcDbLine
 62
7
  6
CONTINUOUS
 10
14.5650759536
 20
6.5848501083
 11
14.566167696
 21
6.6160413816
  0
LINE
  5
589
100
AcDbEntity
  8
IMPORT_IGES
100
AcDbLine
 62
7
  6
CONTINUOUS
 10
14.189160878
 20
6.4138140291
 11
14.1912781425
 21
6.4725758163
  0
LINE
  5
58A
100
AcDbEntity
  8
IMPORT_IGES
100
AcDbLine
 62
7
  6
CONTINUOUS
 10
15.5533845713
 20
6.4138140291
 11
15.5555018358
 21
6.4725758163
  0
LINE
  5
58B
100
AcDbEntity
  8
IMPORT_IGES
100
AcDbLine
 62
7
  6
CONTINUOUS
 10
14.1903484094
 20
-6.112473968
 11
14.188536977
 21
-6.1588634306
  0
LINE
  5
58C
100
AcDbEntity
  8
IMPORT_IGES
100
AcDbLine
 62
7
  6
CONTINUOUS
 10
14.5661677299
 20
6.6160417023
 11
14.5676600836
 21
6.6462255275
  0
LINE
  5
58D
100
AcDbEntity
  8
IMPORT_IGES
100
AcDbLine
 62
7
  6
CONTINUOUS
 10
14.8115309687
 20
6.6727840592
 11
14.8082830688
 21
6.6084285388
  0
LINE
  5
58E
100
AcDbEntity
  8
IMPORT_IGES
100
AcDbLine
 62
7
  6
CONTINUOUS
 10
13.9607672839
 20
-7.0817424861
 11
13.9572936343
 21
-7.144431544
  0
LINE
  5
58F
100
AcDbEntity
  8
IMPORT_IGES
100
AcDbLine
 62
7
  6
CONTINUOUS
 10
15.7918420971
 20
6.3790244801
 11
15.797016689
 21
6.4677122406
  0
LINE
  5
590
100
AcDbEntity
  8
IMPORT_IGES
100
AcDbLine
 62
7
  6
CONTINUOUS
 10
14.185729238
 20
6.3562189525
 11
14.189160878
 21
6.4138140291
  0
LINE
  5
591
100
AcDbEntity
  8
IMPORT_IGES
100
AcDbLine
 62
7
  6
CONTINUOUS
 10
15.5499529312
 20
6.3562189525
 11
15.5533845713
 21
6.4138140291
  0
LINE
  5
592
100
AcDbEntity
  8
IMPORT_IGES
100
AcDbLine
 62
7
  6
CONTINUOUS
 10
14.4270119967
 20
6.3718853783
 11
14.4325450558
 21
6.4605255098
  0
LINE
  5
593
100
AcDbEntity
  8
IMPORT_IGES
100
AcDbLine
 62
7
  6
CONTINUOUS
 10
13.994448983
 20
-6.1239998813
 11
13.9966061206
 21
-6.0903233462
  0
LINE
  5
594
100
AcDbEntity
  8
IMPORT_IGES
100
AcDbLine
 62
7
  6
CONTINUOUS
 10
14.5676601353
 20
6.6462258853
 11
14.5695665942
 21
6.6753951831
  0
LINE
  5
595
100
AcDbEntity
  8
IMPORT_IGES
100
AcDbLine
 62
7
  6
CONTINUOUS
 10
14.5695666456
 20
6.6753954645
 11
14.5718242264
 21
6.7036518969
  0
LINE
  5
596
100
AcDbEntity
  8
IMPORT_IGES
100
AcDbLine
 62
7
  6
CONTINUOUS
 10
14.8167143777
 20
6.7348188421
 11
14.8115309687
 21
6.6727840592
  0
LINE
  5
597
100
AcDbEntity
  8
IMPORT_IGES
100
AcDbLine
 62
7
  6
CONTINUOUS
 10
14.1807110507
 20
6.3005867429
 11
14.185729238
 21
6.3562189525
  0
LINE
  5
598
100
AcDbEntity
  8
IMPORT_IGES
100
AcDbLine
 62
7
  6
CONTINUOUS
 10
15.544934744
 20
6.3005867429
 11
15.5499529312
 21
6.3562189525
  0
LINE
  5
599
100
AcDbEntity
  8
IMPORT_IGES
100
AcDbLine
 62
7
  6
CONTINUOUS
 10
14.5718242908
 20
6.7036521878
 11
14.5744306743
 21
6.7310007423
  0
LINE
  5
59A
100
AcDbEntity
  8
IMPORT_IGES
100
AcDbLine
 62
7
  6
CONTINUOUS
 10
13.9966065278
 20
-6.0903213642
 11
13.9998148141
 21
-6.0578383526
  0
LINE
  5
59B
100
AcDbEntity
  8
IMPORT_IGES
100
AcDbLine
 62
7
  6
CONTINUOUS
 10
15.004798902
 20
-6.1536067599
 11
15.0104014286
 21
-6.0990928021
  0
LINE
  5
59C
100
AcDbEntity
  8
IMPORT_IGES
100
AcDbLine
 62
7
  6
CONTINUOUS
 10
14.1951556205
 20
-6.0684534108
 11
14.1903525461
 21
-6.112444224
  0
LINE
  5
59D
100
AcDbEntity
  8
IMPORT_IGES
100
AcDbLine
 62
7
  6
CONTINUOUS
 10
14.5744307556
 20
6.7310010504
 11
14.5773881906
 21
6.7574359928
  0
LINE
  5
59E
100
AcDbEntity
  8
IMPORT_IGES
100
AcDbLine
 62
7
  6
CONTINUOUS
 10
15.7815110874
 20
6.2894247677
 11
15.7918420971
 21
6.3790244801
  0
LINE
  5
59F
100
AcDbEntity
  8
IMPORT_IGES
100
AcDbLine
 62
7
  6
CONTINUOUS
 10
14.8237344856
 20
6.7941491195
 11
14.8167143777
 21
6.7348188421
  0
LINE
  5
5A0
100
AcDbEntity
  8
IMPORT_IGES
100
AcDbLine
 62
7
  6
CONTINUOUS
 10
14.7969783947
 20
-6.1116918693
 11
14.7944068499
 21
-6.1334037373
  0
LINE
  5
5A1
100
AcDbEntity
  8
IMPORT_IGES
100
AcDbLine
 62
7
  6
CONTINUOUS
 10
14.4162987305
 20
6.2823982352
 11
14.4270119967
 21
6.3718853783
  0
LINE
  5
5A2
100
AcDbEntity
  8
IMPORT_IGES
100
AcDbLine
 62
7
  6
CONTINUOUS
 10
15.5384670505
 20
6.2470262761
 11
15.544934744
 21
6.3005867429
  0
LINE
  5
5A3
100
AcDbEntity
  8
IMPORT_IGES
100
AcDbLine
 62
7
  6
CONTINUOUS
 10
16.3365804134
 20
6.7108525641
 11
16.3122202973
 21
6.5183786796
  0
LINE
  5
5A4
100
AcDbEntity
  8
IMPORT_IGES
100
AcDbLine
 62
7
  6
CONTINUOUS
 10
14.5773882633
 20
6.7574362315
 11
14.5806407453
 21
6.7830438644
  0
LINE
  5
5A5
100
AcDbEntity
  8
IMPORT_IGES
100
AcDbLine
 62
7
  6
CONTINUOUS
 10
14.7987501127
 20
-6.097890487
 11
14.7969783947
 21
-6.1116918693
  0
LINE
  5
5A6
100
AcDbEntity
  8
IMPORT_IGES
100
AcDbLine
 62
7
  6
CONTINUOUS
 10
13.9998154519
 20
-6.0578362286
 11
14.0040893856
 21
-6.0265246318
  0
LINE
  5
5A7
100
AcDbEntity
  8
IMPORT_IGES
100
AcDbLine
 62
7
  6
CONTINUOUS
 10
16.7329701248
 20
6.9555617533
 11
16.7298877321
 21
6.9336401599
  0
LINE
  5
5A8
100
AcDbEntity
  8
IMPORT_IGES
100
AcDbLine
 62
7
  6
CONTINUOUS
 10
13.9701301779
 20
-7.017304228
 11
13.9607672839
 21
-7.0817424861
  0
LINE
  5
5A9
100
AcDbEntity
  8
IMPORT_IGES
100
AcDbLine
 62
7
  6
CONTINUOUS
 10
15.5304128099
 20
6.1954286763
 11
15.5384670505
 21
6.2470262761
  0
LINE
  5
5AA
100
AcDbEntity
  8
IMPORT_IGES
100
AcDbLine
 62
7
  6
CONTINUOUS
 10
14.7936877556
 20
-6.1335996023
 11
14.793734795
 21
-6.1332986825
  0
LINE
  5
5AB
100
AcDbEntity
  8
IMPORT_IGES
100
AcDbLine
 62
7
  6
CONTINUOUS
 10
14.8326901026
 20
6.8511586593
 11
14.8237344856
 21
6.7941491195
  0
LINE
  5
5AC
100
AcDbEntity
  8
IMPORT_IGES
100
AcDbLine
 62
7
  6
CONTINUOUS
 10
16.7354624251
 20
6.9709203506
 11
16.7329701248
 21
6.9555617533
  0
LINE
  5
5AD
100
AcDbEntity
  8
IMPORT_IGES
100
AcDbLine
 62
7
  6
CONTINUOUS
 10
16.8082153552
 20
6.1052673768
 11
16.8082652613
 21
6.1055678857
  0
LINE
  5
5AE
100
AcDbEntity
  8
IMPORT_IGES
100
AcDbLine
 62
7
  6
CONTINUOUS
 10
15.7679201759
 20
6.2077948128
 11
15.7815110874
 21
6.2894247677
  0
LINE
  5
5AF
100
AcDbEntity
  8
IMPORT_IGES
100
AcDbLine
 62
7
  6
CONTINUOUS
 10
14.0040902619
 20
-6.0265224759
 11
14.0094152444
 21
-5.996405232
  0
LINE
  5
5B0
100
AcDbEntity
  8
IMPORT_IGES
100
AcDbLine
 62
7
  6
CONTINUOUS
 10
16.7291074471
 20
6.9334687909
 11
16.7291611192
 21
6.9337697443
  0
LINE
  5
5B1
100
AcDbEntity
  8
IMPORT_IGES
100
AcDbLine
 62
7
  6
CONTINUOUS
 10
16.1293230949
 20
7.0138394746
 11
16.12047376
 21
6.9653829165
  0
LINE
  5
5B2
100
AcDbEntity
  8
IMPORT_IGES
100
AcDbLine
 62
7
  6
CONTINUOUS
 10
14.1942290322
 20
-6.0684812185
 11
14.2017080393
 21
-6.0293764638
  0
LINE
  5
5B3
100
AcDbEntity
  8
IMPORT_IGES
100
AcDbLine
 62
7
  6
CONTINUOUS
 10
13.9820767257
 20
-6.9585172311
 11
13.9701301779
 21
-7.017304228
  0
LINE
  5
5B4
100
AcDbEntity
  8
IMPORT_IGES
100
AcDbLine
 62
7
  6
CONTINUOUS
 10
17.0317846044
 20
6.0515346305
 11
17.0453893551
 21
6.1170552404
  0
LINE
  5
5B5
100
AcDbEntity
  8
IMPORT_IGES
100
AcDbLine
 62
7
  6
CONTINUOUS
 10
15.5304128099
 20
6.1954286763
 11
15.5200887272
 21
6.1462634723
  0
LINE
  5
5B6
100
AcDbEntity
  8
IMPORT_IGES
100
AcDbLine
 62
7
  6
CONTINUOUS
 10
17.2825431333
 20
6.8774372622
 11
17.2871149095
 21
6.8991333643
  0
LINE
  5
5B7
100
AcDbEntity
  8
IMPORT_IGES
100
AcDbLine
 62
7
  6
CONTINUOUS
 10
15.7504261277
 20
6.1301505541
 11
15.7679201759
 21
6.2077948128
  0
LINE
  5
5B8
100
AcDbEntity
  8
IMPORT_IGES
100
AcDbLine
 62
7
  6
CONTINUOUS
 10
17.2871149999
 20
6.8991335181
 11
17.2918846541
 21
6.9201409658
  0
LINE
  5
5B9
100
AcDbEntity
  8
IMPORT_IGES
100
AcDbLine
 62
7
  6
CONTINUOUS
 10
15.916440957
 20
7.0726266743
 11
15.900635766
 21
7.0044659154
  0
LINE
  5
5BA
100
AcDbEntity
  8
IMPORT_IGES
100
AcDbLine
 62
7
  6
CONTINUOUS
 10
14.0219049113
 20
-5.9424525395
 11
14.0158013806
 21
-5.9675591797
  0
LINE
  5
5BB
100
AcDbEntity
  8
IMPORT_IGES
100
AcDbLine
 62
7
  6
CONTINUOUS
 10
17.2918847543
 20
6.9201411219
 11
17.2968510496
 21
6.9404619347
  0
LINE
  5
5BC
100
AcDbEntity
  8
IMPORT_IGES
100
AcDbLine
 62
7
  6
CONTINUOUS
 10
16.944564905
 20
6.8827163239
 11
16.9575949366
 21
6.9331171119
  0
LINE
  5
5BD
100
AcDbEntity
  8
IMPORT_IGES
100
AcDbLine
 62
7
  6
CONTINUOUS
 10
17.296851163
 20
6.9404620958
 11
17.3020149804
 21
6.9600927684
  0
LINE
  5
5BE
100
AcDbEntity
  8
IMPORT_IGES
100
AcDbLine
 62
7
  6
CONTINUOUS
 10
17.5301206556
 20
6.9054632462
 11
17.5437754891
 21
6.9572917386
  0
LINE
  5
5BF
100
AcDbEntity
  8
IMPORT_IGES
100
AcDbLine
 62
7
  6
CONTINUOUS
 10
14.0158013806
 20
-5.9675591797
 11
14.0081957667
 21
-5.9964148853
  0
LINE
  5
5C0
100
AcDbEntity
  8
IMPORT_IGES
100
AcDbLine
 62
7
  6
CONTINUOUS
 10
13.9968309161
 20
-6.9030474152
 11
13.9820767257
 21
-6.9585172311
  0
LINE
  5
5C1
100
AcDbEntity
  8
IMPORT_IGES
100
AcDbLine
 62
7
  6
CONTINUOUS
 10
16.1293230949
 20
7.0138394746
 11
16.1415818251
 21
7.0586672185
  0
LINE
  5
5C2
100
AcDbEntity
  8
IMPORT_IGES
100
AcDbLine
 62
7
  6
CONTINUOUS
 10
14.2017080393
 20
-6.0293764638
 11
14.20440665
 21
-6.0196615039
  0
LINE
  5
5C3
100
AcDbEntity
  8
IMPORT_IGES
100
AcDbLine
 62
7
  6
CONTINUOUS
 10
17.302015066
 20
6.9600928807
 11
17.3073334932
 21
6.9790912396
  0
LINE
  5
5C4
100
AcDbEntity
  8
IMPORT_IGES
100
AcDbLine
 62
7
  6
CONTINUOUS
 10
14.20440665
 20
-6.0196615039
 11
14.2135901782
 21
-5.9873435172
  0
LINE
  5
5C5
100
AcDbEntity
  8
IMPORT_IGES
100
AcDbLine
 62
7
  6
CONTINUOUS
 10
17.3073335655
 20
6.9790913281
 11
17.3127709053
 21
6.9973818414
  0
LINE
  5
5C6
100
AcDbEntity
  8
IMPORT_IGES
100
AcDbLine
 62
7
  6
CONTINUOUS
 10
16.8091127724
 20
6.1054271379
 11
16.7947842704
 21
6.058383237
  0
LINE
  5
5C7
100
AcDbEntity
  8
IMPORT_IGES
100
AcDbLine
 62
7
  6
CONTINUOUS
 10
16.7298877321
 20
6.9336401599
 11
16.717730205
 21
6.8946807524
  0
LINE
  5
5C8
100
AcDbEntity
  8
IMPORT_IGES
100
AcDbLine
 62
7
  6
CONTINUOUS
 10
17.3127710131
 20
6.9973819624
 11
17.3183631635
 21
7.0150406922
  0
LINE
  5
5C9
100
AcDbEntity
  8
IMPORT_IGES
100
AcDbLine
 62
7
  6
CONTINUOUS
 10
14.1704036658
 20
-6.9631170303
 11
14.1842785789
 21
-6.919591003
  0
LINE
  5
5CA
100
AcDbEntity
  8
IMPORT_IGES
100
AcDbLine
 62
7
  6
CONTINUOUS
 10
17.5437754891
 20
6.9572917386
 11
17.5598023174
 21
7.006415278
  0
LINE
  5
5CB
100
AcDbEntity
  8
IMPORT_IGES
100
AcDbLine
 62
7
  6
CONTINUOUS
 10
17.0127491311
 20
5.9934745233
 11
17.0317846044
 21
6.0515346305
  0
LINE
  5
5CC
100
AcDbEntity
  8
IMPORT_IGES
100
AcDbLine
 62
7
  6
CONTINUOUS
 10
18.1938145224
 20
6.0994997043
 11
18.1791675345
 21
6.0551683322
  0
LINE
  5
5CD
100
AcDbEntity
  8
IMPORT_IGES
100
AcDbLine
 62
7
  6
CONTINUOUS
 10
14.0314661053
 20
-5.9136568329
 11
14.0219049113
 21
-5.9424525395
  0
LINE
  5
5CE
100
AcDbEntity
  8
IMPORT_IGES
100
AcDbLine
 62
7
  6
CONTINUOUS
 10
17.3183633128
 20
7.0150408443
 11
17.3241742309
 21
7.0323516986
  0
LINE
  5
5CF
100
AcDbEntity
  8
IMPORT_IGES
100
AcDbLine
 62
7
  6
CONTINUOUS
 10
14.0148429047
 20
-6.8507662021
 11
13.9968309161
 21
-6.9030474152
  0
LINE
  5
5D0
100
AcDbEntity
  8
IMPORT_IGES
100
AcDbLine
 62
7
  6
CONTINUOUS
 10
17.3241743269
 20
7.0323517921
 11
17.3301219746
 21
7.0491933186
  0
LINE
  5
5D1
100
AcDbEntity
  8
IMPORT_IGES
100
AcDbLine
 62
7
  6
CONTINUOUS
 10
14.2135901782
 20
-5.9873435172
 11
14.2272273659
 21
-5.9501721913
  0
LINE
  5
5D2
100
AcDbEntity
  8
IMPORT_IGES
100
AcDbLine
 62
7
  6
CONTINUOUS
 10
14.0314661053
 20
-5.9136568329
 11
14.040742779
 21
-5.8886435446
  0
LINE
  5
5D3
100
AcDbEntity
  8
IMPORT_IGES
100
AcDbLine
 62
7
  6
CONTINUOUS
 10
18.389500866
 20
5.9884451284
 11
18.415063334
 21
6.0571046558
  0
LINE
  5
5D4
100
AcDbEntity
  8
IMPORT_IGES
100
AcDbLine
 62
7
  6
CONTINUOUS
 10
17.3363463134
 20
7.0656867656
 11
17.3301465983
 21
7.0491892224
  0
LINE
  5
5D5
100
AcDbEntity
  8
IMPORT_IGES
100
AcDbLine
 62
7
  6
CONTINUOUS
 10
17.3362963922
 20
7.0657066618
 11
17.3430025916
 21
7.0825330347
  0
LINE
  5
5D6
100
AcDbEntity
  8
IMPORT_IGES
100
AcDbLine
 62
7
  6
CONTINUOUS
 10
17.5598023174
 20
7.006415278
 11
17.5787719452
 21
7.0517630735
  0
LINE
  5
5D7
100
AcDbEntity
  8
IMPORT_IGES
100
AcDbLine
 62
7
  6
CONTINUOUS
 10
14.040742779
 20
-5.8886435446
 11
14.0507337417
 21
-5.8652287199
  0
LINE
  5
5D8
100
AcDbEntity
  8
IMPORT_IGES
100
AcDbLine
 62
7
  6
CONTINUOUS
 10
18.1791675345
 20
6.0551683322
 11
18.1609170737
 21
6.0138317646
  0
LINE
  5
5D9
100
AcDbEntity
  8
IMPORT_IGES
100
AcDbLine
 62
7
  6
CONTINUOUS
 10
14.0374631582
 20
-6.8012878577
 11
14.0148429047
 21
-6.8507662021
  0
LINE
  5
5DA
100
AcDbEntity
  8
IMPORT_IGES
100
AcDbLine
 62
7
  6
CONTINUOUS
 10
18.3599667115
 20
5.9243839615
 11
18.389500866
 21
5.9884451284
  0
LINE
  5
5DB
100
AcDbEntity
  8
IMPORT_IGES
100
AcDbLine
 62
7
  6
CONTINUOUS
 10
19.6299107233
 20
6.0189830959
 11
19.607629517
 21
5.9713665576
  0
LINE
  5
5DC
100
AcDbEntity
  8
IMPORT_IGES
100
AcDbLine
 62
7
  6
CONTINUOUS
 10
14.0616370665
 20
-5.8431239466
 11
14.0507337417
 21
-5.8652287199
  0
LINE
  5
5DD
100
AcDbEntity
  8
IMPORT_IGES
100
AcDbLine
 62
7
  6
CONTINUOUS
 10
14.2272273659
 20
-5.9501721913
 11
14.2442720852
 21
-5.916581953
  0
LINE
  5
5DE
100
AcDbEntity
  8
IMPORT_IGES
100
AcDbLine
 62
7
  6
CONTINUOUS
 10
19.8028734735
 20
5.8792885179
 11
19.8357762562
 21
5.940573442
  0
LINE
  5
5DF
100
AcDbEntity
  8
IMPORT_IGES
100
AcDbLine
 62
7
  6
CONTINUOUS
 10
14.0739519051
 20
-5.8215118488
 11
14.0616370665
 21
-5.8431239466
  0
LINE
  5
5E0
100
AcDbEntity
  8
IMPORT_IGES
100
AcDbLine
 62
7
  6
CONTINUOUS
 10
14.0648134686
 20
-6.7547551321
 11
14.0374631582
 21
-6.8012878577
  0
LINE
  5
5E1
100
AcDbEntity
  8
IMPORT_IGES
100
AcDbLine
 62
7
  6
CONTINUOUS
 10
14.0876251213
 20
-5.8001225834
 11
14.0739519051
 21
-5.8215118488
  0
LINE
  5
5E2
100
AcDbEntity
  8
IMPORT_IGES
100
AcDbLine
 62
7
  6
CONTINUOUS
 10
14.2442720852
 20
-5.916581953
 11
14.2649004493
 21
-5.8868616546
  0
LINE
  5
5E3
100
AcDbEntity
  8
IMPORT_IGES
100
AcDbLine
 62
7
  6
CONTINUOUS
 10
14.1027098513
 20
-5.7792259935
 11
14.0876251213
 21
-5.8001225834
  0
LINE
  5
5E4
100
AcDbEntity
  8
IMPORT_IGES
100
AcDbLine
 62
7
  6
CONTINUOUS
 10
14.096772044
 20
-6.7110252752
 11
14.0648134686
 21
-6.7547551321
  0
LINE
  5
5E5
100
AcDbEntity
  8
IMPORT_IGES
100
AcDbLine
 62
7
  6
CONTINUOUS
 10
14.2302852628
 20
-6.8371909501
 11
14.2628968466
 21
-6.7982338256
  0
LINE
  5
5E6
100
AcDbEntity
  8
IMPORT_IGES
100
AcDbLine
 62
7
  6
CONTINUOUS
 10
14.1198646562
 20
-5.7588142328
 11
14.1027098513
 21
-5.7792259935
  0
LINE
  5
5E7
100
AcDbEntity
  8
IMPORT_IGES
100
AcDbLine
 62
7
  6
CONTINUOUS
 10
14.7453457411
 20
-6.2409586822
 11
14.7187099355
 21
-6.272632356
  0
LINE
  5
5E8
100
AcDbEntity
  8
IMPORT_IGES
100
AcDbLine
 62
7
  6
CONTINUOUS
 10
14.1343239755
 20
-6.6692843021
 11
14.096772044
 21
-6.7110252752
  0
LINE
  5
5E9
100
AcDbEntity
  8
IMPORT_IGES
100
AcDbLine
 62
7
  6
CONTINUOUS
 10
14.8800594542
 20
-6.3857946385
 11
14.9136766933
 21
-6.348880224
  0
LINE
  5
5EA
100
AcDbEntity
  8
IMPORT_IGES
100
AcDbLine
 62
7
  6
CONTINUOUS
 10
14.2649004493
 20
-5.8868616546
 11
14.2889363452
 21
-5.8607224436
  0
LINE
  5
5EB
100
AcDbEntity
  8
IMPORT_IGES
100
AcDbLine
 62
7
  6
CONTINUOUS
 10
14.1392176564
 20
-5.7386368056
 11
14.1198646562
 21
-5.7588142328
  0
LINE
  5
5EC
100
AcDbEntity
  8
IMPORT_IGES
100
AcDbLine
 62
7
  6
CONTINUOUS
 10
14.7187099355
 20
-6.272632356
 11
14.6881136516
 21
-6.3028083236
  0
LINE
  5
5ED
100
AcDbEntity
  8
IMPORT_IGES
100
AcDbLine
 62
7
  6
CONTINUOUS
 10
14.2628968466
 20
-6.7982338256
 11
14.3015940496
 21
-6.7608273684
  0
LINE
  5
5EE
100
AcDbEntity
  8
IMPORT_IGES
100
AcDbLine
 62
7
  6
CONTINUOUS
 10
15.4259617629
 20
-6.4381001056
 11
15.4587981808
 21
-6.4069799513
  0
LINE
  5
5EF
100
AcDbEntity
  8
IMPORT_IGES
100
AcDbLine
 62
7
  6
CONTINUOUS
 10
14.1606407314
 20
-5.7189442075
 11
14.1392176564
 21
-5.7386368056
  0
LINE
  5
5F0
100
AcDbEntity
  8
IMPORT_IGES
100
AcDbLine
 62
7
  6
CONTINUOUS
 10
14.1793454384
 20
-6.6290615539
 11
14.1343239755
 21
-6.6692843021
  0
LINE
  5
5F1
100
AcDbEntity
  8
IMPORT_IGES
100
AcDbLine
 62
7
  6
CONTINUOUS
 10
14.8424746639
 20
-6.4187530529
 11
14.8800594542
 21
-6.3857946385
  0
LINE
  5
5F2
100
AcDbEntity
  8
IMPORT_IGES
100
AcDbLine
 62
7
  6
CONTINUOUS
 10
14.3015940496
 20
-6.7608273684
 11
14.344937433
 21
-6.7252208749
  0
LINE
  5
5F3
100
AcDbEntity
  8
IMPORT_IGES
100
AcDbLine
 62
7
  6
CONTINUOUS
 10
14.2889363452
 20
-5.8607224436
 11
14.3162678174
 21
-5.8384763691
  0
LINE
  5
5F4
100
AcDbEntity
  8
IMPORT_IGES
100
AcDbLine
 62
7
  6
CONTINUOUS
 10
14.6881136516
 20
-6.3028083236
 11
14.6534698118
 21
-6.3309669676
  0
LINE
  5
5F5
100
AcDbEntity
  8
IMPORT_IGES
100
AcDbLine
 62
7
  6
CONTINUOUS
 10
16.64445392
 20
-5.6929266231
 11
16.6029894683
 21
-5.7262613497
  0
LINE
  5
5F6
100
AcDbEntity
  8
IMPORT_IGES
100
AcDbLine
 62
7
  6
CONTINUOUS
 10
14.8016894887
 20
-6.4504173472
 11
14.8424746639
 21
-6.4187530529
  0
LINE
  5
5F7
100
AcDbEntity
  8
IMPORT_IGES
100
AcDbLine
 62
7
  6
CONTINUOUS
 10
14.2299602574
 20
-6.5908276895
 11
14.1793454384
 21
-6.6290615539
  0
LINE
  5
5F8
100
AcDbEntity
  8
IMPORT_IGES
100
AcDbLine
 62
7
  6
CONTINUOUS
 10
15.4587981808
 20
-6.4069799513
 11
15.4934077339
 21
-6.3812385686
  0
LINE
  5
5F9
100
AcDbEntity
  8
IMPORT_IGES
100
AcDbLine
 62
7
  6
CONTINUOUS
 10
15.9930410612
 20
-7.1036947713
 11
16.0349668283
 21
-7.0732884267
  0
LINE
  5
5FA
100
AcDbEntity
  8
IMPORT_IGES
100
AcDbLine
 62
7
  6
CONTINUOUS
 10
15.4636530251
 20
-6.2241194108
 11
15.4236974289
 21
-6.2527392368
  0
LINE
  5
5FB
100
AcDbEntity
  8
IMPORT_IGES
100
AcDbLine
 62
7
  6
CONTINUOUS
 10
15.8918784858
 20
-6.950524873
 11
15.862136353
 21
-6.9713814025
  0
LINE
  5
5FC
100
AcDbEntity
  8
IMPORT_IGES
100
AcDbLine
 62
7
  6
CONTINUOUS
 10
14.7575855569
 20
-6.4812711066
 11
14.8016894887
 21
-6.4504173472
  0
LINE
  5
5FD
100
AcDbEntity
  8
IMPORT_IGES
100
AcDbLine
 62
7
  6
CONTINUOUS
 10
14.2815249984
 20
-6.5551807017
 11
14.2299602574
 21
-6.5908276895
  0
LINE
  5
5FE
100
AcDbEntity
  8
IMPORT_IGES
100
AcDbLine
 62
7
  6
CONTINUOUS
 10
14.6534698118
 20
-6.3309669676
 11
14.6148654936
 21
-6.3576279055
  0
LINE
  5
5FF
100
AcDbEntity
  8
IMPORT_IGES
100
AcDbLine
 62
7
  6
CONTINUOUS
 10
14.344937433
 20
-6.7252208749
 11
14.3938838439
 21
-6.691851976
  0
LINE
  5
600
100
AcDbEntity
  8
IMPORT_IGES
100
AcDbLine
 62
7
  6
CONTINUOUS
 10
16.7554759077
 20
-5.841689315
 11
16.7837946522
 21
-5.8228210952
  0
LINE
  5
601
100
AcDbEntity
  8
IMPORT_IGES
100
AcDbLine
 62
7
  6
CONTINUOUS
 10
14.7102812401
 20
-6.5108307459
 11
14.7575855569
 21
-6.4812711066
  0
LINE
  5
602
100
AcDbEntity
  8
IMPORT_IGES
100
AcDbLine
 62
7
  6
CONTINUOUS
 10
17.1364977588
 20
-7.1332397274
 11
17.1811328781
 21
-7.1055117665
  0
LINE
  5
603
100
AcDbEntity
  8
IMPORT_IGES
100
AcDbLine
 62
7
  6
CONTINUOUS
 10
16.6890925284
 20
-5.6660383989
 11
16.64445392
 21
-5.6929266231
  0
LINE
  5
604
100
AcDbEntity
  8
IMPORT_IGES
100
AcDbLine
 62
7
  6
CONTINUOUS
 10
17.0532796934
 20
-6.969950488
 11
17.0197070423
 21
-6.9882125162
  0
LINE
  5
605
100
AcDbEntity
  8
IMPORT_IGES
100
AcDbLine
 62
7
  6
CONTINUOUS
 10
15.9460529116
 20
-7.1292290179
 11
15.9930410612
 21
-7.1036947713
  0
LINE
  5
606
100
AcDbEntity
  8
IMPORT_IGES
100
AcDbLine
 62
7
  6
CONTINUOUS
 10
20.0406396053
 20
-6.7495005189
 11
20.0723775166
 21
-6.7333122741
  0
LINE
  5
607
100
AcDbEntity
  8
IMPORT_IGES
100
AcDbLine
 62
7
  6
CONTINUOUS
 10
15.862136353
 20
-6.9713814025
 11
15.8289740156
 21
-6.9881544363
  0
LINE
  5
608
100
AcDbEntity
  8
IMPORT_IGES
100
AcDbLine
 62
7
  6
CONTINUOUS
 10
19.2139821795
 20
-6.42689764
 11
19.1848742289
 21
-6.4416122393
  0
LINE
  5
609
100
AcDbEntity
  8
IMPORT_IGES
100
AcDbLine
 62
7
  6
CONTINUOUS
 10
17.0878585896
 20
-7.1550922089
 11
17.1364977588
 21
-7.1332397274
  0
LINE
  5
60A
100
AcDbEntity
  8
IMPORT_IGES
100
AcDbLine
 62
7
  6
CONTINUOUS
 10
20.0121109172
 20
-6.5645300793
 11
19.9848159285
 21
-6.5761570874
  0
LWPOLYLINE
  5
60B
100
AcDbEntity
  8
IMPORT_IGES
100
AcDbPolyline
 62
253
  6
CONTINUOUS
 90
10
 70
0
 10
-20.8991253544
 20
20.801100058
 10
-20.8998776947
 20
20.8013369597
 10
-20.9006295274
 20
20.8015458837
 10
-20.9013807825
 20
20.8017268592
 10
-20.9021311918
 20
20.8018798807
 10
-20.9028808849
 20
20.8020050349
 10
-20.9036303886
 20
20.8021024261
 10
-20.9043798315
 20
20.8021720419
 10
-20.9051289451
 20
20.8022138275
 10
-20.9058776595
 20
20.8022277605
  0
LINE
  5
60C
100
AcDbEntity
  8
IMPORT_IGES
100
AcDbLine
 62
7
  6
CONTINUOUS
 10
17.9992682484
 20
7.2312960064
 11
18.0324395944
 21
7.216769172
  0
LINE
  5
60D
100
AcDbEntity
  8
IMPORT_IGES
100
AcDbLine
 62
7
  6
CONTINUOUS
 10
16.7064832532
 20
7.4068965837
 11
16.6503346338
 21
7.4316819357
  0
LINE
  5
60E
100
AcDbEntity
  8
IMPORT_IGES
100
AcDbLine
 62
7
  6
CONTINUOUS
 10
19.6040145406
 20
6.7512491586
 11
19.5489185392
 21
6.7769416184
  0
LINE
  5
60F
100
AcDbEntity
  8
IMPORT_IGES
100
AcDbLine
 62
7
  6
CONTINUOUS
 10
16.5635831723
 20
7.2672416006
 11
16.598066581
 21
7.2510636285
  0
LINE
  5
610
100
AcDbEntity
  8
IMPORT_IGES
100
AcDbLine
 62
7
  6
CONTINUOUS
 10
19.4365910251
 20
6.5919075316
 11
19.4790979749
 21
6.5716960068
  0
LINE
  5
611
100
AcDbEntity
  8
IMPORT_IGES
100
AcDbLine
 62
7
  6
CONTINUOUS
 10
15.4769583626
 20
7.3816952303
 11
15.4257869906
 21
7.4072103411
  0
LINE
  5
612
100
AcDbEntity
  8
IMPORT_IGES
100
AcDbLine
 62
7
  6
CONTINUOUS
 10
18.1630613038
 20
7.3816952303
 11
18.1118899318
 21
7.4072103411
  0
LINE
  5
613
100
AcDbEntity
  8
IMPORT_IGES
100
AcDbLine
 62
7
  6
CONTINUOUS
 10
16.8627111418
 20
6.5809388126
 11
16.8184742296
 21
6.6052275978
  0
LINE
  5
614
100
AcDbEntity
  8
IMPORT_IGES
100
AcDbLine
 62
7
  6
CONTINUOUS
 10
16.7571246897
 20
7.3780632891
 11
16.7064832532
 21
7.4068965837
  0
LINE
  5
615
100
AcDbEntity
  8
IMPORT_IGES
100
AcDbLine
 62
7
  6
CONTINUOUS
 10
18.9411297507
 20
5.6852111339
 11
18.9935404261
 21
5.6550629617
  0
LINE
  5
616
100
AcDbEntity
  8
IMPORT_IGES
100
AcDbLine
 62
7
  6
CONTINUOUS
 10
16.6331459499
 20
6.5064630435
 11
16.6689562747
 21
6.4855631012
  0
LINE
  5
617
100
AcDbEntity
  8
IMPORT_IGES
100
AcDbLine
 62
7
  6
CONTINUOUS
 10
15.3463366532
 20
7.216769172
 11
15.3764588959
 21
7.1982652858
  0
LINE
  5
618
100
AcDbEntity
  8
IMPORT_IGES
100
AcDbLine
 62
7
  6
CONTINUOUS
 10
18.0324395944
 20
7.216769172
 11
18.0625618371
 21
7.1982652858
  0
LINE
  5
619
100
AcDbEntity
  8
IMPORT_IGES
100
AcDbLine
 62
7
  6
CONTINUOUS
 10
16.2895970458
 20
5.8591450622
 11
16.2567727665
 21
5.8794434868
  0
LINE
  5
61A
100
AcDbEntity
  8
IMPORT_IGES
100
AcDbLine
 62
7
  6
CONTINUOUS
 10
19.1219808462
 20
5.8128182465
 11
19.0855268062
 21
5.8358030713
  0
LINE
  5
61B
100
AcDbEntity
  8
IMPORT_IGES
100
AcDbLine
 62
7
  6
CONTINUOUS
 10
16.598066581
 20
7.2510636285
 11
16.6295967831
 21
7.2304176959
  0
LINE
  5
61C
100
AcDbEntity
  8
IMPORT_IGES
100
AcDbLine
 62
7
  6
CONTINUOUS
 10
15.5245039247
 20
7.3504078118
 11
15.4769583626
 21
7.3816952303
  0
LINE
  5
61D
100
AcDbEntity
  8
IMPORT_IGES
100
AcDbLine
 62
7
  6
CONTINUOUS
 10
14.1618504286
 20
7.3492386275
 11
14.1141340227
 21
7.3808938997
  0
LINE
  5
61E
100
AcDbEntity
  8
IMPORT_IGES
100
AcDbLine
 62
7
  6
CONTINUOUS
 10
17.7057059591
 20
5.8608987343
 11
17.6737239477
 21
5.8836693549
  0
LINE
  5
61F
100
AcDbEntity
  8
IMPORT_IGES
100
AcDbLine
 62
7
  6
CONTINUOUS
 10
17.5199762948
 20
5.7270115483
 11
17.5680613696
 21
5.6925820821
  0
LINE
  5
620
100
AcDbEntity
  8
IMPORT_IGES
100
AcDbLine
 62
7
  6
CONTINUOUS
 10
16.9024481744
 20
6.5521488589
 11
16.8627111418
 21
6.5809388126
  0
LINE
  5
621
100
AcDbEntity
  8
IMPORT_IGES
100
AcDbLine
 62
7
  6
CONTINUOUS
 10
16.0746864334
 20
5.7637225379
 11
16.1245375716
 21
5.7271951908
  0
LINE
  5
622
100
AcDbEntity
  8
IMPORT_IGES
100
AcDbLine
 62
7
  6
CONTINUOUS
 10
16.6689562747
 20
6.4855631012
 11
16.701544671
 21
6.460641911
  0
LINE
  5
623
100
AcDbEntity
  8
IMPORT_IGES
100
AcDbLine
 62
7
  6
CONTINUOUS
 10
16.2567727665
 20
5.8794434868
 11
16.2268227055
 21
5.903881187
  0
LINE
  5
624
100
AcDbEntity
  8
IMPORT_IGES
100
AcDbLine
 62
7
  6
CONTINUOUS
 10
14.0122352027
 20
7.1982652858
 11
14.039572494
 21
7.1756237801
  0
LINE
  5
625
100
AcDbEntity
  8
IMPORT_IGES
100
AcDbLine
 62
7
  6
CONTINUOUS
 10
15.3764588959
 20
7.1982652858
 11
15.4037961872
 21
7.1756237802
  0
LINE
  5
626
100
AcDbEntity
  8
IMPORT_IGES
100
AcDbLine
 62
7
  6
CONTINUOUS
 10
15.568715629
 20
7.313357781
 11
15.5245039247
 21
7.3504078118
  0
LINE
  5
627
100
AcDbEntity
  8
IMPORT_IGES
100
AcDbLine
 62
7
  6
CONTINUOUS
 10
14.2062043437
 20
7.3117172119
 11
14.1618504286
 21
7.3492386275
  0
LINE
  5
628
100
AcDbEntity
  8
IMPORT_IGES
100
AcDbLine
 62
7
  6
CONTINUOUS
 10
16.0299390687
 20
5.8048869829
 11
16.0746864334
 21
5.7637225379
  0
LINE
  5
629
100
AcDbEntity
  8
IMPORT_IGES
100
AcDbLine
 62
7
  6
CONTINUOUS
 10
14.7888090497
 20
5.7693363458
 11
14.8338733549
 21
5.7270115473
  0
LINE
  5
62A
100
AcDbEntity
  8
IMPORT_IGES
100
AcDbLine
 62
7
  6
CONTINUOUS
 10
13.6233973132
 20
5.8836693549
 11
13.5939611359
 21
5.9114791177
  0
LINE
  5
62B
100
AcDbEntity
  8
IMPORT_IGES
100
AcDbLine
 62
7
  6
CONTINUOUS
 10
14.9876210065
 20
5.8836693549
 11
14.9581848292
 21
5.9114791176
  0
LINE
  5
62C
100
AcDbEntity
  8
IMPORT_IGES
100
AcDbLine
 62
7
  6
CONTINUOUS
 10
14.2468933998
 20
7.2683465358
 11
14.2062043437
 21
7.3117172119
  0
LINE
  5
62D
100
AcDbEntity
  8
IMPORT_IGES
100
AcDbLine
 62
7
  6
CONTINUOUS
 10
13.3924380669
 20
5.8047583054
 11
13.4332190552
 21
5.75984557
  0
LINE
  5
62E
100
AcDbEntity
  8
IMPORT_IGES
100
AcDbLine
 62
7
  6
CONTINUOUS
 10
14.039572494
 20
7.1756237801
 11
14.0641567952
 21
7.1485027415
  0
LINE
  5
62F
100
AcDbEntity
  8
IMPORT_IGES
100
AcDbLine
 62
7
  6
CONTINUOUS
 10
14.747543289
 20
5.8179234908
 11
14.7888090497
 21
5.7693363458
  0
LINE
  5
630
100
AcDbEntity
  8
IMPORT_IGES
100
AcDbLine
 62
7
  6
CONTINUOUS
 10
13.5939611359
 20
5.9114791177
 11
13.566943829
 21
5.944786173
  0
LINE
  5
631
100
AcDbEntity
  8
IMPORT_IGES
100
AcDbLine
 62
7
  6
CONTINUOUS
 10
14.9581848292
 20
5.9114791176
 11
14.9311675223
 21
5.944786173
  0
LINE
  5
632
100
AcDbEntity
  8
IMPORT_IGES
100
AcDbLine
 62
7
  6
CONTINUOUS
 10
13.3553206914
 20
5.8555667459
 11
13.3924380669
 21
5.8047583054
  0
LINE
  5
633
100
AcDbEntity
  8
IMPORT_IGES
100
AcDbLine
 62
7
  6
CONTINUOUS
 10
14.7117461822
 20
5.8677768572
 11
14.747543289
 21
5.8179234908
  0
LINE
  5
634
100
AcDbEntity
  8
IMPORT_IGES
100
AcDbLine
 62
7
  6
CONTINUOUS
 10
14.0641567952
 20
7.1485027415
 11
14.085956145
 21
7.1172440834
  0
LINE
  5
635
100
AcDbEntity
  8
IMPORT_IGES
100
AcDbLine
 62
7
  6
CONTINUOUS
 10
13.566943829
 20
5.944786173
 11
13.5424723561
 21
5.9831323705
  0
LINE
  5
636
100
AcDbEntity
  8
IMPORT_IGES
100
AcDbLine
 62
7
  6
CONTINUOUS
 10
13.3219034929
 20
5.9125897274
 11
13.3553206914
 21
5.8555667459
  0
LINE
  5
637
100
AcDbEntity
  8
IMPORT_IGES
100
AcDbLine
 62
7
  6
CONTINUOUS
 10
14.6825996643
 20
5.9179833139
 11
14.7117461822
 21
5.8677768572
  0
LINE
  5
638
100
AcDbEntity
  8
IMPORT_IGES
100
AcDbLine
 62
7
  6
CONTINUOUS
 10
13.5424723561
 20
5.9831323705
 11
13.5208863093
 21
6.0251346448
  0
LINE
  5
639
100
AcDbEntity
  8
IMPORT_IGES
100
AcDbLine
 62
7
  6
CONTINUOUS
 10
13.2921499072
 20
5.9755084141
 11
13.3219034929
 21
5.9125897274
  0
LINE
  5
63A
100
AcDbEntity
  8
IMPORT_IGES
100
AcDbLine
 62
7
  6
CONTINUOUS
 10
13.5208863093
 20
6.0251346448
 11
13.5024381783
 21
6.0705716036
  0
LINE
  5
63B
100
AcDbEntity
  8
IMPORT_IGES
100
AcDbLine
 62
7
  6
CONTINUOUS
 10
13.2665660654
 20
6.0430592133
 11
13.2921499072
 21
5.9755084141
  0
LINE
  5
63C
100
AcDbEntity
  8
IMPORT_IGES
100
AcDbLine
 62
7
  6
CONTINUOUS
 10
17.3847823002
 20
-5.9733408728
 11
17.3614462428
 21
-5.9115307133
  0
LINE
  5
63D
100
AcDbEntity
  8
IMPORT_IGES
100
AcDbLine
 62
7
  6
CONTINUOUS
 10
17.170605526
 20
-5.9631203532
 11
17.184144822
 21
-6.0008089521
  0
LINE
  5
63E
100
AcDbEntity
  8
IMPORT_IGES
100
AcDbLine
 62
7
  6
CONTINUOUS
 10
17.5943911179
 20
-5.5675184108
 11
18.1589354976
 21
-7.1440334267
  0
LINE
  5
63F
100
AcDbEntity
  8
IMPORT_IGES
100
AcDbLine
 62
7
  6
CONTINUOUS
 10
18.2731814928
 20
-6.9118580641
 11
17.8197021655
 21
-5.5675184108
  0
LINE
  5
640
100
AcDbEntity
  8
IMPORT_IGES
100
AcDbLine
 62
7
  6
CONTINUOUS
 10
14.1214027098
 20
7.0448416225
 11
14.1350499247
 21
7.0036978196
  0
LINE
  5
641
100
AcDbEntity
  8
IMPORT_IGES
100
AcDbLine
 62
7
  6
CONTINUOUS
 10
13.5024381783
 20
6.0705716036
 11
13.4868754732
 21
6.1196646392
  0
LINE
  5
642
100
AcDbEntity
  8
IMPORT_IGES
100
AcDbLine
 62
7
  6
CONTINUOUS
 10
16.6429805847
 20
-6.7948889242
 11
16.629882296
 21
-6.7529128695
  0
LINE
  5
643
100
AcDbEntity
  8
IMPORT_IGES
100
AcDbLine
 62
7
  6
CONTINUOUS
 10
16.4241876855
 20
-6.7582810416
 11
16.4442895767
 21
-6.825493134
  0
LINE
  5
644
100
AcDbEntity
  8
IMPORT_IGES
100
AcDbLine
 62
7
  6
CONTINUOUS
 10
13.2453797595
 20
6.1151228776
 11
13.2665660654
 21
6.0430592133
  0
LINE
  5
645
100
AcDbEntity
  8
IMPORT_IGES
100
AcDbLine
 62
7
  6
CONTINUOUS
 10
17.4039183031
 20
-6.039290067
 11
17.3847823002
 21
-5.9733408728
  0
LINE
  5
646
100
AcDbEntity
  8
IMPORT_IGES
100
AcDbLine
 62
7
  6
CONTINUOUS
 10
14.1350499247
 20
7.0036978196
 11
14.1471549771
 21
6.9603501569
  0
LINE
  5
647
100
AcDbEntity
  8
IMPORT_IGES
100
AcDbLine
 62
7
  6
CONTINUOUS
 10
17.184144822
 20
-6.0008089521
 11
17.1953708875
 21
-6.0413263702
  0
LINE
  5
648
100
AcDbEntity
  8
IMPORT_IGES
100
AcDbLine
 62
7
  6
CONTINUOUS
 10
13.4868754732
 20
6.1196646392
 11
13.4737803164
 21
6.171694864
  0
LINE
  5
649
100
AcDbEntity
  8
IMPORT_IGES
100
AcDbLine
 62
7
  6
CONTINUOUS
 10
16.629882296
 20
-6.7529128695
 11
16.6188771047
 21
-6.708498356
  0
LINE
  5
64A
100
AcDbEntity
  8
IMPORT_IGES
100
AcDbLine
 62
7
  6
CONTINUOUS
 10
16.2180605164
 20
-6.5469532536
 11
16.2035515038
 21
-6.4870760425
  0
LINE
  5
64B
100
AcDbEntity
  8
IMPORT_IGES
100
AcDbLine
 62
7
  6
CONTINUOUS
 10
14.1471549771
 20
6.9603501569
 11
14.1580587466
 21
6.9151939045
  0
LINE
  5
64C
100
AcDbEntity
  8
IMPORT_IGES
100
AcDbLine
 62
7
  6
CONTINUOUS
 10
14.5982642217
 20
6.1631848659
 11
14.6091723324
 21
6.1166882016
  0
LINE
  5
64D
100
AcDbEntity
  8
IMPORT_IGES
100
AcDbLine
 62
7
  6
CONTINUOUS
 10
17.2050703892
 20
-6.0840741231
 11
17.1953708875
 21
-6.0413263702
  0
LINE
  5
64E
100
AcDbEntity
  8
IMPORT_IGES
100
AcDbLine
 62
7
  6
CONTINUOUS
 10
13.2283631975
 20
6.1918186545
 11
13.2453797595
 21
6.1151228776
  0
LINE
  5
64F
100
AcDbEntity
  8
IMPORT_IGES
100
AcDbLine
 62
7
  6
CONTINUOUS
 10
16.4085503085
 20
-6.6867809419
 11
16.4241876855
 21
-6.7582810416
  0
LINE
  5
650
100
AcDbEntity
  8
IMPORT_IGES
100
AcDbLine
 62
7
  6
CONTINUOUS
 10
14.40790746
 20
6.8880638769
 11
14.3917093753
 21
6.9636950113
  0
LINE
  5
651
100
AcDbEntity
  8
IMPORT_IGES
100
AcDbLine
 62
7
  6
CONTINUOUS
 10
14.5882251384
 20
6.2106133832
 11
14.5982642217
 21
6.1631848659
  0
LINE
  5
652
100
AcDbEntity
  8
IMPORT_IGES
100
AcDbLine
 62
7
  6
CONTINUOUS
 10
14.1674203536
 20
6.8678337922
 11
14.1580587466
 21
6.9151939045
  0
LINE
  5
653
100
AcDbEntity
  8
IMPORT_IGES
100
AcDbLine
 62
7
  6
CONTINUOUS
 10
13.4737803164
 20
6.171694864
 11
13.4631462006
 21
6.2264534492
  0
LINE
  5
654
100
AcDbEntity
  8
IMPORT_IGES
100
AcDbLine
 62
7
  6
CONTINUOUS
 10
16.6099508182
 20
-6.6618094538
 11
16.6188771047
 21
-6.708498356
  0
LINE
  5
655
100
AcDbEntity
  8
IMPORT_IGES
100
AcDbLine
 62
7
  6
CONTINUOUS
 10
14.7897930589
 20
-5.9879585958
 11
14.7956236706
 21
-6.0213887831
  0
LINE
  5
656
100
AcDbEntity
  8
IMPORT_IGES
100
AcDbLine
 62
7
  6
CONTINUOUS
 10
14.5811201008
 20
6.2517609252
 11
14.5882251384
 21
6.2106133832
  0
LINE
  5
657
100
AcDbEntity
  8
IMPORT_IGES
100
AcDbLine
 62
7
  6
CONTINUOUS
 10
13.2153391352
 20
6.2722406936
 11
13.2283631975
 21
6.1918186545
  0
LINE
  5
658
100
AcDbEntity
  8
IMPORT_IGES
100
AcDbLine
 62
7
  6
CONTINUOUS
 10
14.1752916797
 20
6.8181525964
 11
14.1674203536
 21
6.8678337922
  0
LINE
  5
659
100
AcDbEntity
  8
IMPORT_IGES
100
AcDbLine
 62
7
  6
CONTINUOUS
 10
16.3961855282
 20
-6.6085600658
 11
16.4085503085
 21
-6.6867809419
  0
LINE
  5
65A
100
AcDbEntity
  8
IMPORT_IGES
100
AcDbLine
 62
7
  6
CONTINUOUS
 10
14.4202615221
 20
6.8088297098
 11
14.40790746
 21
6.8880638769
  0
LINE
  5
65B
100
AcDbEntity
  8
IMPORT_IGES
100
AcDbLine
 62
7
  6
CONTINUOUS
 10
16.0086399722
 20
-6.5708481886
 11
16.0153716586
 21
-6.6148532075
  0
LINE
  5
65C
100
AcDbEntity
  8
IMPORT_IGES
100
AcDbLine
 62
7
  6
CONTINUOUS
 10
13.4549796331
 20
6.2841492237
 11
13.4631462006
 21
6.2264534492
  0
LINE
  5
65D
100
AcDbEntity
  8
IMPORT_IGES
100
AcDbLine
 62
7
  6
CONTINUOUS
 10
14.8192033264
 20
6.2841492238
 11
14.8273698939
 21
6.2264534493
  0
LINE
  5
65E
100
AcDbEntity
  8
IMPORT_IGES
100
AcDbLine
 62
7
  6
CONTINUOUS
 10
16.6031176291
 20
-6.6126820927
 11
16.6099508182
 21
-6.6618094538
  0
LINE
  5
65F
100
AcDbEntity
  8
IMPORT_IGES
100
AcDbLine
 62
7
  6
CONTINUOUS
 10
14.5824184429
 20
6.2517554056
 11
14.5768424003
 21
6.2939713223
  0
LINE
  5
660
100
AcDbEntity
  8
IMPORT_IGES
100
AcDbLine
 62
7
  6
CONTINUOUS
 10
14.1816918469
 20
6.7660561464
 11
14.1752916797
 21
6.8181525964
  0
LINE
  5
661
100
AcDbEntity
  8
IMPORT_IGES
100
AcDbLine
 62
7
  6
CONTINUOUS
 10
13.2056681159
 20
6.3597065563
 11
13.2153391352
 21
6.2722406936
  0
LINE
  5
662
100
AcDbEntity
  8
IMPORT_IGES
100
AcDbLine
 62
7
  6
CONTINUOUS
 10
17.2257961786
 20
-6.2251009059
 11
17.2204197364
 21
-6.1757399368
  0
LINE
  5
663
100
AcDbEntity
  8
IMPORT_IGES
100
AcDbLine
 62
7
  6
CONTINUOUS
 10
17.262944884
 20
6.2939728185
 11
17.2585339489
 21
6.3347722231
  0
LINE
  5
664
100
AcDbEntity
  8
IMPORT_IGES
100
AcDbLine
 62
7
  6
CONTINUOUS
 10
16.5980278912
 20
-6.5612292794
 11
16.6031176291
 21
-6.6126820927
  0
LINE
  5
665
100
AcDbEntity
  8
IMPORT_IGES
100
AcDbLine
 62
7
  6
CONTINUOUS
 10
16.3891563053
 20
-6.532353129
 11
16.3961855282
 21
-6.6085600658
  0
LINE
  5
666
100
AcDbEntity
  8
IMPORT_IGES
100
AcDbLine
 62
7
  6
CONTINUOUS
 10
15.5508254265
 20
6.7116386131
 11
15.5459155402
 21
6.7660561465
  0
LINE
  5
667
100
AcDbEntity
  8
IMPORT_IGES
100
AcDbLine
 62
7
  6
CONTINUOUS
 10
17.4365678729
 20
-6.2604539386
 11
17.4300892126
 21
-6.1857633408
  0
LINE
  5
668
100
AcDbEntity
  8
IMPORT_IGES
100
AcDbLine
 62
7
  6
CONTINUOUS
 10
16.9618028545
 20
7.0263540065
 11
16.9579498931
 21
7.0726230264
  0
LINE
  5
669
100
AcDbEntity
  8
IMPORT_IGES
100
AcDbLine
 62
7
  6
CONTINUOUS
 10
17.049994891
 20
6.231901308
 11
17.0457919307
 21
6.2847403828
  0
LINE
  5
66A
100
AcDbEntity
  8
IMPORT_IGES
100
AcDbLine
 62
7
  6
CONTINUOUS
 10
17.2585334879
 20
6.3347741532
 11
17.2554057455
 21
6.3741957336
  0
LINE
  5
66B
100
AcDbEntity
  8
IMPORT_IGES
100
AcDbLine
 62
7
  6
CONTINUOUS
 10
17.2295753123
 20
-6.2778121161
 11
17.2257961786
 21
-6.2251009059
  0
LINE
  5
66C
100
AcDbEntity
  8
IMPORT_IGES
100
AcDbLine
 62
7
  6
CONTINUOUS
 10
16.5946450389
 20
-6.5064820325
 11
16.5980278912
 21
-6.5612292794
  0
LINE
  5
66D
100
AcDbEntity
  8
IMPORT_IGES
100
AcDbLine
 62
7
  6
CONTINUOUS
 10
17.2554056026
 20
6.3741965466
 11
17.2530716714
 21
6.4123470333
  0
LINE
  5
66E
100
AcDbEntity
  8
IMPORT_IGES
100
AcDbLine
 62
7
  6
CONTINUOUS
 10
15.5542395477
 20
6.6550652845
 11
15.5508254265
 21
6.7116386131
  0
LINE
  5
66F
100
AcDbEntity
  8
IMPORT_IGES
100
AcDbLine
 62
7
  6
CONTINUOUS
 10
16.7372144468
 20
7.0035273024
 11
16.7351745633
 21
7.0415464497
  0
LINE
  5
670
100
AcDbEntity
  8
IMPORT_IGES
100
AcDbLine
 62
7
  6
CONTINUOUS
 10
15.7975521868
 20
6.6453329905
 11
15.793219294
 21
6.7293602513
  0
LINE
  5
671
100
AcDbEntity
  8
IMPORT_IGES
100
AcDbLine
 62
7
  6
CONTINUOUS
 10
16.8176884667
 20
6.1945877575
 11
16.8154484166
 21
6.2406484561
  0
LINE
  5
672
100
AcDbEntity
  8
IMPORT_IGES
100
AcDbLine
 62
7
  6
CONTINUOUS
 10
16.3897042188
 20
-6.5323607417
 11
16.3860441965
 21
-6.4494051562
  0
LINE
  5
673
100
AcDbEntity
  8
IMPORT_IGES
100
AcDbLine
 62
7
  6
CONTINUOUS
 10
17.2530715791
 20
6.4123477362
 11
17.2514599133
 21
6.4492227038
  0
LINE
  5
674
100
AcDbEntity
  8
IMPORT_IGES
100
AcDbLine
 62
7
  6
CONTINUOUS
 10
17.4360434285
 20
-6.2604473871
 11
17.439480002
 21
-6.3420085803
  0
LINE
  5
675
100
AcDbEntity
  8
IMPORT_IGES
100
AcDbLine
 62
7
  6
CONTINUOUS
 10
17.2318194964
 20
-6.3329362211
 11
17.2295753123
 21
-6.2778121161
  0
LINE
  5
676
100
AcDbEntity
  8
IMPORT_IGES
100
AcDbLine
 62
7
  6
CONTINUOUS
 10
15.5560956349
 20
6.5952830274
 11
15.5542395477
 21
6.6550652845
  0
LINE
  5
677
100
AcDbEntity
  8
IMPORT_IGES
100
AcDbLine
 62
7
  6
CONTINUOUS
 10
17.4931386169
 20
6.4766644558
 11
17.4951391701
 21
6.4092543382
  0
LINE
  5
678
100
AcDbEntity
  8
IMPORT_IGES
100
AcDbLine
 62
7
  6
CONTINUOUS
 10
16.5930056235
 20
-6.4494088367
 11
16.5946450389
 21
-6.5064820325
  0
LINE
  5
679
100
AcDbEntity
  8
IMPORT_IGES
100
AcDbLine
 62
7
  6
CONTINUOUS
 10
17.251459839
 20
6.4492235892
 11
17.2506417244
 21
6.4848313606
  0
LINE
  5
67A
100
AcDbEntity
  8
IMPORT_IGES
100
AcDbLine
 62
7
  6
CONTINUOUS
 10
17.2327074222
 20
-6.3878437422
 11
17.2318194964
 21
-6.3329362211
  0
LINE
  5
67B
100
AcDbEntity
  8
IMPORT_IGES
100
AcDbLine
 62
7
  6
CONTINUOUS
 10
15.7975623685
 20
6.6453356616
 11
15.7989335095
 21
6.5576188022
  0
LINE
  5
67C
100
AcDbEntity
  8
IMPORT_IGES
100
AcDbLine
 62
7
  6
CONTINUOUS
 10
17.2506417161
 20
6.484831581
 11
17.250341341
 21
6.5193027721
  0
LINE
  5
67D
100
AcDbEntity
  8
IMPORT_IGES
100
AcDbLine
 62
7
  6
CONTINUOUS
 10
16.2234921231
 20
-6.6028680939
 11
16.2238555549
 21
-6.6673208092
  0
LINE
  5
67E
100
AcDbEntity
  8
IMPORT_IGES
100
AcDbLine
 62
7
  6
CONTINUOUS
 10
17.4929335636
 20
6.5432878473
 11
17.4931386392
 21
6.476663926
  0
LINE
  5
67F
100
AcDbEntity
  8
IMPORT_IGES
100
AcDbLine
 62
7
  6
CONTINUOUS
 10
16.5928697385
 20
-6.3930310883
 11
16.5930056374
 21
-6.449409184
  0
LINE
  5
680
100
AcDbEntity
  8
IMPORT_IGES
100
AcDbLine
 62
7
  6
CONTINUOUS
 10
16.1383424606
 20
-5.6426250303
 11
16.1383424606
 21
-5.8282190303
  0
LINE
  5
681
100
AcDbEntity
  8
IMPORT_IGES
100
AcDbLine
 62
7
  6
CONTINUOUS
 10
16.4560103218
 20
17.2639569697
 11
16.4560103218
 21
17.1138542077
  0
LINE
  5
682
100
AcDbEntity
  8
IMPORT_IGES
100
AcDbLine
 62
7
  6
CONTINUOUS
 10
16.4560104606
 20
9.1140596822
 11
16.4560104606
 21
8.9639569697
  0
LINE
  5
683
100
AcDbEntity
  8
IMPORT_IGES
100
AcDbLine
 62
7
  6
CONTINUOUS
 10
16.4560104606
 20
4.2639569697
 11
16.4560104606
 21
4.1138542213
  0
LINE
  5
684
100
AcDbEntity
  8
IMPORT_IGES
100
AcDbLine
 62
7
  6
CONTINUOUS
 10
16.4560104606
 20
-3.8859403178
 11
16.4560104606
 21
-4.0360430303
  0
LINE
  5
685
100
AcDbEntity
  8
IMPORT_IGES
100
AcDbLine
 62
7
  6
CONTINUOUS
 10
16.4560104606
 20
-8.7360430303
 11
16.4560104606
 21
-8.8861457786
  0
LINE
  5
686
100
AcDbEntity
  8
IMPORT_IGES
100
AcDbLine
 62
7
  6
CONTINUOUS
 10
16.4560105984
 20
-16.8859403314
 11
16.4560105984
 21
-17.0360430303
  0
LINE
  5
687
100
AcDbEntity
  8
IMPORT_IGES
100
AcDbLine
 62
7
  6
CONTINUOUS
 10
17.050622522
 20
6.2312698309
 11
17.0505264133
 21
6.1721696182
  0
LINE
  5
688
100
AcDbEntity
  8
IMPORT_IGES
100
AcDbLine
 62
7
  6
CONTINUOUS
 10
16.9624007748
 20
7.0256867021
 11
16.9622897024
 21
6.9756774058
  0
LINE
  5
689
100
AcDbEntity
  8
IMPORT_IGES
100
AcDbLine
 62
7
  6
CONTINUOUS
 10
17.4394804747
 20
-6.3420181385
 11
17.4392575044
 21
-6.4266387503
  0
LINE
  5
68A
100
AcDbEntity
  8
IMPORT_IGES
100
AcDbLine
 62
7
  6
CONTINUOUS
 10
16.3860436423
 20
-6.4493944181
 11
16.3862928136
 21
-6.363559534
  0
LINE
  5
68B
100
AcDbEntity
  8
IMPORT_IGES
100
AcDbLine
 62
7
  6
CONTINUOUS
 10
17.2503413379
 20
6.5193034036
 11
17.250501243
 21
6.5526438751
  0
LINE
  5
68C
100
AcDbEntity
  8
IMPORT_IGES
100
AcDbLine
 62
7
  6
CONTINUOUS
 10
17.2323007854
 20
-6.4421838808
 11
17.2327074222
 21
-6.3878437422
  0
LINE
  5
68D
100
AcDbEntity
  8
IMPORT_IGES
100
AcDbLine
 62
7
  6
CONTINUOUS
 10
17.2505012541
 20
6.5526442237
 11
17.2511788722
 21
6.5848497852
  0
LINE
  5
68E
100
AcDbEntity
  8
IMPORT_IGES
100
AcDbLine
 62
7
  6
CONTINUOUS
 10
17.4943860099
 20
6.6084285387
 11
17.4929335761
 21
6.5432883531
  0
LINE
  5
68F
100
AcDbEntity
  8
IMPORT_IGES
100
AcDbLine
 62
7
  6
CONTINUOUS
 10
16.5941148877
 20
-6.3379527808
 11
16.592869747
 21
-6.3930307579
  0
LINE
  5
690
100
AcDbEntity
  8
IMPORT_IGES
100
AcDbLine
 62
7
  6
CONTINUOUS
 10
17.2305378901
 20
-6.4963074355
 11
17.2323007854
 21
-6.4421838808
  0
LINE
  5
691
100
AcDbEntity
  8
IMPORT_IGES
100
AcDbLine
 62
7
  6
CONTINUOUS
 10
17.2511788949
 20
6.5848501099
 11
17.2522706372
 21
6.6160413831
  0
LINE
  5
692
100
AcDbEntity
  8
IMPORT_IGES
100
AcDbLine
 62
7
  6
CONTINUOUS
 10
16.01604263
 20
-6.702813557
 11
16.0177586801
 21
-6.6569180437
  0
LINE
  5
693
100
AcDbEntity
  8
IMPORT_IGES
100
AcDbLine
 62
7
  6
CONTINUOUS
 10
17.4392569145
 20
-6.4266479391
 11
17.4352336944
 21
-6.5091540365
  0
LINE
  5
694
100
AcDbEntity
  8
IMPORT_IGES
100
AcDbLine
 62
7
  6
CONTINUOUS
 10
16.3862934277
 20
-6.3635501387
 11
16.3904018744
 21
-6.2805026082
  0
LINE
  5
695
100
AcDbEntity
  8
IMPORT_IGES
100
AcDbLine
 62
7
  6
CONTINUOUS
 10
17.2522706711
 20
6.6160417038
 11
17.2537630249
 21
6.646225529
  0
LINE
  5
696
100
AcDbEntity
  8
IMPORT_IGES
100
AcDbLine
 62
7
  6
CONTINUOUS
 10
17.4976339098
 20
6.6727840592
 11
17.4943860099
 21
6.6084285387
  0
LINE
  5
697
100
AcDbEntity
  8
IMPORT_IGES
100
AcDbLine
 62
7
  6
CONTINUOUS
 10
16.5968635386
 20
-6.2835689274
 11
16.5941148877
 21
-6.3379527808
  0
LINE
  5
698
100
AcDbEntity
  8
IMPORT_IGES
100
AcDbLine
 62
7
  6
CONTINUOUS
 10
16.8150613651
 20
6.1464571385
 11
16.8176880909
 21
6.1945319545
  0
LINE
  5
699
100
AcDbEntity
  8
IMPORT_IGES
100
AcDbLine
 62
7
  6
CONTINUOUS
 10
17.2274123399
 20
-6.5486373236
 11
17.2305378901
 21
-6.4963074355
  0
LINE
  5
69A
100
AcDbEntity
  8
IMPORT_IGES
100
AcDbLine
 62
7
  6
CONTINUOUS
 10
16.7349042713
 20
6.9659422786
 11
16.7372139566
 21
7.0034718539
  0
LINE
  5
69B
100
AcDbEntity
  8
IMPORT_IGES
100
AcDbLine
 62
7
  6
CONTINUOUS
 10
17.2537630766
 20
6.6462258868
 11
17.2556695354
 21
6.6753951845
  0
LINE
  5
69C
100
AcDbEntity
  8
IMPORT_IGES
100
AcDbLine
 62
7
  6
CONTINUOUS
 10
16.2191234941
 20
-6.7254887619
 11
16.2231733658
 21
-6.6673241359
  0
LINE
  5
69D
100
AcDbEntity
  8
IMPORT_IGES
100
AcDbLine
 62
7
  6
CONTINUOUS
 10
17.2556695868
 20
6.6753954659
 11
17.2579271677
 21
6.7036518983
  0
LINE
  5
69E
100
AcDbEntity
  8
IMPORT_IGES
100
AcDbLine
 62
7
  6
CONTINUOUS
 10
17.0453893551
 20
6.1170552404
 11
17.049994891
 21
6.1727806587
  0
LINE
  5
69F
100
AcDbEntity
  8
IMPORT_IGES
100
AcDbLine
 62
7
  6
CONTINUOUS
 10
16.6012431024
 20
-6.2310834719
 11
16.5968635386
 21
-6.2835689274
  0
LINE
  5
6A0
100
AcDbEntity
  8
IMPORT_IGES
100
AcDbLine
 62
7
  6
CONTINUOUS
 10
17.5028173188
 20
6.734818842
 11
17.4976339098
 21
6.6727840592
  0
LINE
  5
6A1
100
AcDbEntity
  8
IMPORT_IGES
100
AcDbLine
 62
7
  6
CONTINUOUS
 10
17.2231067037
 20
-6.5987485022
 11
17.2274123399
 21
-6.5486373236
  0
LINE
  5
6A2
100
AcDbEntity
  8
IMPORT_IGES
100
AcDbLine
 62
7
  6
CONTINUOUS
 10
18.2310376851
 20
6.3005867427
 11
18.2360558724
 21
6.3562189523
  0
LINE
  5
6A3
100
AcDbEntity
  8
IMPORT_IGES
100
AcDbLine
 62
7
  6
CONTINUOUS
 10
17.2579272321
 20
6.7036521892
 11
17.2605336156
 21
6.7310007436
  0
LINE
  5
6A4
100
AcDbEntity
  8
IMPORT_IGES
100
AcDbLine
 62
7
  6
CONTINUOUS
 10
16.3973189677
 20
-6.2040953323
 11
16.3895202754
 21
-6.285404061
  0
LINE
  5
6A5
100
AcDbEntity
  8
IMPORT_IGES
100
AcDbLine
 62
7
  6
CONTINUOUS
 10
16.9575949366
 20
6.9331171119
 11
16.9618028545
 21
6.9762504326
  0
LINE
  5
6A6
100
AcDbEntity
  8
IMPORT_IGES
100
AcDbLine
 62
7
  6
CONTINUOUS
 10
17.2605336969
 20
6.7310010517
 11
17.2634911319
 21
6.757435994
  0
LINE
  5
6A7
100
AcDbEntity
  8
IMPORT_IGES
100
AcDbLine
 62
7
  6
CONTINUOUS
 10
18.4676140285
 20
6.2894247677
 11
18.4779450383
 21
6.3790244802
  0
LINE
  5
6A8
100
AcDbEntity
  8
IMPORT_IGES
100
AcDbLine
 62
7
  6
CONTINUOUS
 10
16.6071678926
 20
-6.1807878572
 11
16.6012431024
 21
-6.2310834719
  0
LINE
  5
6A9
100
AcDbEntity
  8
IMPORT_IGES
100
AcDbLine
 62
7
  6
CONTINUOUS
 10
17.5098374268
 20
6.7941491195
 11
17.5028173188
 21
6.734818842
  0
LINE
  5
6AA
100
AcDbEntity
  8
IMPORT_IGES
100
AcDbLine
 62
7
  6
CONTINUOUS
 10
18.2245699917
 20
6.247026276
 11
18.2310376851
 21
6.3005867427
  0
LINE
  5
6AB
100
AcDbEntity
  8
IMPORT_IGES
100
AcDbLine
 62
7
  6
CONTINUOUS
 10
17.2634912046
 20
6.7574362327
 11
17.2667436866
 21
6.7830438656
  0
LINE
  5
6AC
100
AcDbEntity
  8
IMPORT_IGES
100
AcDbLine
 62
7
  6
CONTINUOUS
 10
16.0162968121
 20
-6.6978232173
 11
16.0104306643
 21
-6.742107563
  0
LINE
  5
6AD
100
AcDbEntity
  8
IMPORT_IGES
100
AcDbLine
 62
7
  6
CONTINUOUS
 10
16.815611834
 20
6.1514283634
 11
16.8091127724
 21
6.1054271379
  0
LINE
  5
6AE
100
AcDbEntity
  8
IMPORT_IGES
100
AcDbLine
 62
7
  6
CONTINUOUS
 10
15.3448174606
 20
-5.6426250303
 11
15.2285044606
 21
-6.4649990303
  0
LINE
  5
6AF
100
AcDbEntity
  8
IMPORT_IGES
100
AcDbLine
 62
7
  6
CONTINUOUS
 10
17.2667437718
 20
6.7830441111
 11
17.2702894867
 21
6.8078279786
  0
LINE
  5
6B0
100
AcDbEntity
  8
IMPORT_IGES
100
AcDbLine
 62
7
  6
CONTINUOUS
 10
15.4236974289
 20
-6.2527392368
 11
15.4887624606
 21
-5.8282190303
  0
LINE
  5
6B1
100
AcDbEntity
  8
IMPORT_IGES
100
AcDbLine
 62
7
  6
CONTINUOUS
 10
18.216515751
 20
6.1954286762
 11
18.2245699917
 21
6.247026276
  0
LINE
  5
6B2
100
AcDbEntity
  8
IMPORT_IGES
100
AcDbLine
 62
7
  6
CONTINUOUS
 10
16.6147235956
 20
-6.1323906403
 11
16.6071678926
 21
-6.1807878572
  0
LINE
  5
6B3
100
AcDbEntity
  8
IMPORT_IGES
100
AcDbLine
 62
7
  6
CONTINUOUS
 10
17.5187930438
 20
6.8511586593
 11
17.5098374268
 21
6.7941491195
  0
LINE
  5
6B4
100
AcDbEntity
  8
IMPORT_IGES
100
AcDbLine
 62
7
  6
CONTINUOUS
 10
17.2702895883
 20
6.8078282366
 11
17.2741302064
 21
6.8317837659
  0
LINE
  5
6B5
100
AcDbEntity
  8
IMPORT_IGES
100
AcDbLine
 62
7
  6
CONTINUOUS
 10
16.0096227388
 20
-6.7422848456
 11
16.0096715935
 21
-6.7419842104
  0
LINE
  5
6B6
100
AcDbEntity
  8
IMPORT_IGES
100
AcDbLine
 62
7
  6
CONTINUOUS
 10
16.4101004696
 20
-6.1255731828
 11
16.3973189677
 21
-6.2040953323
  0
LINE
  5
6B7
100
AcDbEntity
  8
IMPORT_IGES
100
AcDbLine
 62
7
  6
CONTINUOUS
 10
18.4540231171
 20
6.2077948129
 11
18.4676140285
 21
6.2894247677
  0
LINE
  5
6B8
100
AcDbEntity
  8
IMPORT_IGES
100
AcDbLine
 62
7
  6
CONTINUOUS
 10
17.2741302922
 20
6.8317839617
 11
17.2782152137
 21
6.8549859505
  0
LINE
  5
6B9
100
AcDbEntity
  8
IMPORT_IGES
100
AcDbLine
 62
7
  6
CONTINUOUS
 10
18.9188314606
 20
7.3963599697
 11
18.7447244606
 21
6.4731079697
  0
LINE
  5
6BA
100
AcDbEntity
  8
IMPORT_IGES
100
AcDbLine
 62
7
  6
CONTINUOUS
 10
17.2782153109
 20
6.8549861507
 11
17.282543021
 21
6.8774370536
  0
LINE
  5
6BB
100
AcDbEntity
  8
IMPORT_IGES
100
AcDbLine
 62
7
  6
CONTINUOUS
 10
18.9985262981
 20
6.7023871595
 11
19.0953884606
 21
7.1854699697
  0
LINE
  5
6BC
100
AcDbEntity
  8
IMPORT_IGES
100
AcDbLine
 62
7
  6
CONTINUOUS
 10
16.6242946823
 20
-6.0862213923
 11
16.6147235956
 21
-6.1323906403
  0
LINE
  5
6BD
100
AcDbEntity
  8
IMPORT_IGES
100
AcDbLine
 62
7
  6
CONTINUOUS
 10
17.5187930438
 20
6.8511586593
 11
17.5301206556
 21
6.9054632462
  0
LINE
  5
6BE
100
AcDbEntity
  8
IMPORT_IGES
100
AcDbLine
 62
7
  6
CONTINUOUS
 10
18.216515751
 20
6.1954286762
 11
18.2061916684
 21
6.1462634723
  0
LINE
  5
6BF
100
AcDbEntity
  8
IMPORT_IGES
100
AcDbLine
 62
7
  6
CONTINUOUS
 10
16.2052058656
 20
-6.7913024997
 11
16.2191234941
 21
-6.7254887619
  0
LINE
  5
6C0
100
AcDbEntity
  8
IMPORT_IGES
100
AcDbLine
 62
7
  6
CONTINUOUS
 10
16.4258305212
 20
-6.0537675091
 11
16.4101004696
 21
-6.1255731828
  0
LINE
  5
6C1
100
AcDbEntity
  8
IMPORT_IGES
100
AcDbLine
 62
7
  6
CONTINUOUS
 10
18.4365290688
 20
6.1301505541
 11
18.4540231171
 21
6.2077948129
  0
LINE
  5
6C2
100
AcDbEntity
  8
IMPORT_IGES
100
AcDbLine
 62
7
  6
CONTINUOUS
 10
14.9899559368
 20
-6.2117390992
 11
15.004798902
 21
-6.1536067599
  0
LINE
  5
6C3
100
AcDbEntity
  8
IMPORT_IGES
100
AcDbLine
 62
7
  6
CONTINUOUS
 10
16.6242946823
 20
-6.0862213923
 11
16.6358350168
 21
-6.0420819907
  0
LINE
  5
6C4
100
AcDbEntity
  8
IMPORT_IGES
100
AcDbLine
 62
7
  6
CONTINUOUS
 10
18.2061916684
 20
6.1462634723
 11
18.1938145224
 21
6.0994997043
  0
LINE
  5
6C5
100
AcDbEntity
  8
IMPORT_IGES
100
AcDbLine
 62
7
  6
CONTINUOUS
 10
19.8613442309
 20
6.0058354923
 11
19.8803836977
 21
6.0749721069
  0
LINE
  5
6C6
100
AcDbEntity
  8
IMPORT_IGES
100
AcDbLine
 62
7
  6
CONTINUOUS
 10
16.0104306643
 20
-6.742107563
 11
15.9968922039
 21
-6.789882312
  0
LINE
  5
6C7
100
AcDbEntity
  8
IMPORT_IGES
100
AcDbLine
 62
7
  6
CONTINUOUS
 10
16.4455556935
 20
-5.9863395238
 11
16.4258305212
 21
-6.0537675091
  0
LINE
  5
6C8
100
AcDbEntity
  8
IMPORT_IGES
100
AcDbLine
 62
7
  6
CONTINUOUS
 10
18.415063334
 20
6.0571046558
 11
18.4365290688
 21
6.1301505541
  0
LINE
  5
6C9
100
AcDbEntity
  8
IMPORT_IGES
100
AcDbLine
 62
7
  6
CONTINUOUS
 10
14.7944068499
 20
-6.1334037373
 11
14.7824753659
 21
-6.1737407196
  0
LINE
  5
6CA
100
AcDbEntity
  8
IMPORT_IGES
100
AcDbLine
 62
7
  6
CONTINUOUS
 10
19.6462358234
 20
6.0722980652
 11
19.6299107233
 21
6.0189830959
  0
LINE
  5
6CB
100
AcDbEntity
  8
IMPORT_IGES
100
AcDbLine
 62
7
  6
CONTINUOUS
 10
16.1861930112
 20
-6.8508787951
 11
16.2052058656
 21
-6.7913024997
  0
LINE
  5
6CC
100
AcDbEntity
  8
IMPORT_IGES
100
AcDbLine
 62
7
  6
CONTINUOUS
 10
16.6358350168
 20
-6.0420819907
 11
16.6493907349
 21
-6.0001705579
  0
LINE
  5
6CD
100
AcDbEntity
  8
IMPORT_IGES
100
AcDbLine
 62
7
  6
CONTINUOUS
 10
16.4692316633
 20
-5.9231856614
 11
16.4455556935
 21
-5.9863395238
  0
LINE
  5
6CE
100
AcDbEntity
  8
IMPORT_IGES
100
AcDbLine
 62
7
  6
CONTINUOUS
 10
15.9968922039
 20
-6.789882312
 11
15.9817161325
 21
-6.8295122261
  0
LINE
  5
6CF
100
AcDbEntity
  8
IMPORT_IGES
100
AcDbLine
 62
7
  6
CONTINUOUS
 10
19.8357762562
 20
5.940573442
 11
19.8613442309
 21
6.0058354923
  0
LINE
  5
6D0
100
AcDbEntity
  8
IMPORT_IGES
100
AcDbLine
 62
7
  6
CONTINUOUS
 10
14.9699136229
 20
-6.2609272578
 11
14.9899559368
 21
-6.2117390992
  0
LINE
  5
6D1
100
AcDbEntity
  8
IMPORT_IGES
100
AcDbLine
 62
7
  6
CONTINUOUS
 10
16.6493907349
 20
-6.0001705579
 11
16.6654847153
 21
-5.9614110326
  0
LINE
  5
6D2
100
AcDbEntity
  8
IMPORT_IGES
100
AcDbLine
 62
7
  6
CONTINUOUS
 10
16.1632235747
 20
-6.9056968044
 11
16.1861930112
 21
-6.8508787951
  0
LINE
  5
6D3
100
AcDbEntity
  8
IMPORT_IGES
100
AcDbLine
 62
7
  6
CONTINUOUS
 10
14.7824753659
 20
-6.1737407196
 11
14.766788494
 21
-6.2079766643
  0
LINE
  5
6D4
100
AcDbEntity
  8
IMPORT_IGES
100
AcDbLine
 62
7
  6
CONTINUOUS
 10
14.1842785789
 20
-6.919591003
 11
14.2042391113
 21
-6.8776156429
  0
LINE
  5
6D5
100
AcDbEntity
  8
IMPORT_IGES
100
AcDbLine
 62
7
  6
CONTINUOUS
 10
16.4968171534
 20
-5.8654831863
 11
16.4692316633
 21
-5.9231856614
  0
LINE
  5
6D6
100
AcDbEntity
  8
IMPORT_IGES
100
AcDbLine
 62
7
  6
CONTINUOUS
 10
15.9817161325
 20
-6.8295122261
 11
15.9638121854
 21
-6.8651476463
  0
LINE
  5
6D7
100
AcDbEntity
  8
IMPORT_IGES
100
AcDbLine
 62
7
  6
CONTINUOUS
 10
16.6654847153
 20
-5.9614110326
 11
16.6843500231
 21
-5.9256919283
  0
LINE
  5
6D8
100
AcDbEntity
  8
IMPORT_IGES
100
AcDbLine
 62
7
  6
CONTINUOUS
 10
16.137084303
 20
-6.954597421
 11
16.1632235747
 21
-6.9056968044
  0
LINE
  5
6D9
100
AcDbEntity
  8
IMPORT_IGES
100
AcDbLine
 62
7
  6
CONTINUOUS
 10
14.9437789337
 20
-6.306881741
 11
14.9699136229
 21
-6.2609272578
  0
LINE
  5
6DA
100
AcDbEntity
  8
IMPORT_IGES
100
AcDbLine
 62
7
  6
CONTINUOUS
 10
16.5285435259
 20
-5.8132928151
 11
16.4968171534
 21
-5.8654831863
  0
LINE
  5
6DB
100
AcDbEntity
  8
IMPORT_IGES
100
AcDbLine
 62
7
  6
CONTINUOUS
 10
14.2042391113
 20
-6.8776156429
 11
14.2302852628
 21
-6.8371909501
  0
LINE
  5
6DC
100
AcDbEntity
  8
IMPORT_IGES
100
AcDbLine
 62
7
  6
CONTINUOUS
 10
14.766788494
 20
-6.2079766643
 11
14.7453457411
 21
-6.2409586822
  0
LINE
  5
6DD
100
AcDbEntity
  8
IMPORT_IGES
100
AcDbLine
 62
7
  6
CONTINUOUS
 10
15.9638121854
 20
-6.8651476463
 11
15.942716402
 21
-6.8974079949
  0
LINE
  5
6DE
100
AcDbEntity
  8
IMPORT_IGES
100
AcDbLine
 62
7
  6
CONTINUOUS
 10
16.6843500231
 20
-5.9256919283
 11
16.7057535931
 21
-5.8931247315
  0
LINE
  5
6DF
100
AcDbEntity
  8
IMPORT_IGES
100
AcDbLine
 62
7
  6
CONTINUOUS
 10
16.1069884492
 20
-6.9987397516
 11
16.137084303
 21
-6.954597421
  0
LINE
  5
6E0
100
AcDbEntity
  8
IMPORT_IGES
100
AcDbLine
 62
7
  6
CONTINUOUS
 10
14.9136766933
 20
-6.348880224
 11
14.9437789337
 21
-6.306881741
  0
LINE
  5
6E1
100
AcDbEntity
  8
IMPORT_IGES
100
AcDbLine
 62
7
  6
CONTINUOUS
 10
16.5641794187
 20
-5.7665538313
 11
16.5285435259
 21
-5.8132928151
  0
LINE
  5
6E2
100
AcDbEntity
  8
IMPORT_IGES
100
AcDbLine
 62
7
  6
CONTINUOUS
 10
17.1365106218
 20
-6.8894879573
 11
17.1123648652
 21
-6.919723175
  0
LINE
  5
6E3
100
AcDbEntity
  8
IMPORT_IGES
100
AcDbLine
 62
7
  6
CONTINUOUS
 10
16.7057535931
 20
-5.8931247315
 11
16.7295191082
 21
-5.8649678396
  0
LINE
  5
6E4
100
AcDbEntity
  8
IMPORT_IGES
100
AcDbLine
 62
7
  6
CONTINUOUS
 10
15.942716402
 20
-6.8974079949
 11
15.9186614286
 21
-6.9258801594
  0
LINE
  5
6E5
100
AcDbEntity
  8
IMPORT_IGES
100
AcDbLine
 62
7
  6
CONTINUOUS
 10
15.3948984802
 20
-6.4745990314
 11
15.4259617629
 21
-6.4381001056
  0
LINE
  5
6E6
100
AcDbEntity
  8
IMPORT_IGES
100
AcDbLine
 62
7
  6
CONTINUOUS
 10
16.0728463495
 20
-7.0382604147
 11
16.1069884492
 21
-6.9987397516
  0
LINE
  5
6E7
100
AcDbEntity
  8
IMPORT_IGES
100
AcDbLine
 62
7
  6
CONTINUOUS
 10
17.2226312633
 20
-7.071336067
 11
17.2615509292
 21
-7.0301863433
  0
LINE
  5
6E8
100
AcDbEntity
  8
IMPORT_IGES
100
AcDbLine
 62
7
  6
CONTINUOUS
 10
16.6029894683
 20
-5.7262613497
 11
16.5641794187
 21
-5.7665538313
  0
LINE
  5
6E9
100
AcDbEntity
  8
IMPORT_IGES
100
AcDbLine
 62
7
  6
CONTINUOUS
 10
17.1123648652
 20
-6.919723175
 11
17.0844877863
 21
-6.9466232722
  0
LINE
  5
6EA
100
AcDbEntity
  8
IMPORT_IGES
100
AcDbLine
 62
7
  6
CONTINUOUS
 10
16.0349668283
 20
-7.0732884267
 11
16.0728463495
 21
-7.0382604147
  0
LINE
  5
6EB
100
AcDbEntity
  8
IMPORT_IGES
100
AcDbLine
 62
7
  6
CONTINUOUS
 10
15.9186614286
 20
-6.9258801594
 11
15.8918784858
 21
-6.950524873
  0
LINE
  5
6EC
100
AcDbEntity
  8
IMPORT_IGES
100
AcDbLine
 62
7
  6
CONTINUOUS
 10
16.7295191082
 20
-5.8649678396
 11
16.7554759077
 21
-5.841689315
  0
LINE
  5
6ED
100
AcDbEntity
  8
IMPORT_IGES
100
AcDbLine
 62
7
  6
CONTINUOUS
 10
19.1570709721
 20
-6.4605692017
 11
19.1307460182
 21
-6.4836531722
  0
LINE
  5
6EE
100
AcDbEntity
  8
IMPORT_IGES
100
AcDbLine
 62
7
  6
CONTINUOUS
 10
19.1973412753
 20
-6.6425080359
 11
19.2171719633
 21
-6.6260243429
  0
LINE
  5
6EF
100
AcDbEntity
  8
IMPORT_IGES
100
AcDbLine
 62
7
  6
CONTINUOUS
 10
17.1811328781
 20
-7.1055117665
 11
17.2226312633
 21
-7.071336067
  0
LINE
  5
6F0
100
AcDbEntity
  8
IMPORT_IGES
100
AcDbLine
 62
7
  6
CONTINUOUS
 10
17.0844877863
 20
-6.9466232722
 11
17.0532796934
 21
-6.969950488
  0
LINE
  5
6F1
100
AcDbEntity
  8
IMPORT_IGES
100
AcDbLine
 62
7
  6
CONTINUOUS
 10
20.0723775166
 20
-6.7333122741
 11
20.1014187766
 21
-6.7127202475
  0
LINE
  5
6F2
100
AcDbEntity
  8
IMPORT_IGES
100
AcDbLine
 62
7
  6
CONTINUOUS
 10
19.1848742289
 20
-6.4416122393
 11
19.1570709721
 21
-6.4605692017
  0
LINE
  5
6F3
100
AcDbEntity
  8
IMPORT_IGES
100
AcDbLine
 62
7
  6
CONTINUOUS
 10
20.0338140734
 20
-6.5509356032
 11
20.0121109172
 21
-6.5645300793
  0
LINE
  5
6F4
100
AcDbEntity
  8
IMPORT_IGES
100
AcDbLine
 62
7
  6
CONTINUOUS
 10
19.2171719633
 20
-6.6260243429
 11
19.2390501891
 21
-6.6131256562
  0
LINE
  5
6F5
100
AcDbEntity
  8
IMPORT_IGES
100
AcDbLine
 62
253
  6
CONTINUOUS
 10
24.1009530222
 20
19.245706598
 11
24.0956700246
 21
19.2452184405
  0
LINE
  5
6F6
100
AcDbEntity
  8
IMPORT_IGES
100
AcDbLine
 62
253
  6
CONTINUOUS
 10
24.0956700246
 20
19.2452184405
 11
24.0634347089
 21
19.2428204146
  0
LINE
  5
6F7
100
AcDbEntity
  8
IMPORT_IGES
100
AcDbLine
 62
253
  6
CONTINUOUS
 10
24.0634347089
 20
19.2428204146
 11
23.1035534438
 21
19.1757794121
  0
LINE
  5
6F8
100
AcDbEntity
  8
IMPORT_IGES
100
AcDbLine
 62
7
  6
CONTINUOUS
 10
19.6560268724
 20
6.7191495416
 11
19.6040145406
 21
6.7512491586
  0
LINE
  5
6F9
100
AcDbEntity
  8
IMPORT_IGES
100
AcDbLine
 62
7
  6
CONTINUOUS
 10
18.2106068659
 20
7.3504078117
 11
18.1630613038
 21
7.3816952303
  0
LINE
  5
6FA
100
AcDbEntity
  8
IMPORT_IGES
100
AcDbLine
 62
7
  6
CONTINUOUS
 10
19.4790979749
 20
6.5716960068
 11
19.5178750889
 21
6.5461241823
  0
LINE
  5
6FB
100
AcDbEntity
  8
IMPORT_IGES
100
AcDbLine
 62
7
  6
CONTINUOUS
 10
16.8015225498
 20
7.3457552608
 11
16.7571246897
 21
7.3780632891
  0
LINE
  5
6FC
100
AcDbEntity
  8
IMPORT_IGES
100
AcDbLine
 62
7
  6
CONTINUOUS
 10
18.893166989
 20
5.7210141397
 11
18.9411297507
 21
5.6852111339
  0
LINE
  5
6FD
100
AcDbEntity
  8
IMPORT_IGES
100
AcDbLine
 62
7
  6
CONTINUOUS
 10
19.7040157855
 20
6.681614008
 11
19.6560268724
 21
6.7191495416
  0
LINE
  5
6FE
100
AcDbEntity
  8
IMPORT_IGES
100
AcDbLine
 62
7
  6
CONTINUOUS
 10
18.0625618371
 20
7.1982652858
 11
18.0898991284
 21
7.1756237801
  0
LINE
  5
6FF
100
AcDbEntity
  8
IMPORT_IGES
100
AcDbLine
 62
7
  6
CONTINUOUS
 10
19.0855268062
 20
5.8358030713
 11
19.0528250632
 21
5.8630965622
  0
LINE
  5
700
100
AcDbEntity
  8
IMPORT_IGES
100
AcDbLine
 62
7
  6
CONTINUOUS
 10
18.2548185701
 20
7.313357781
 11
18.2106068659
 21
7.3504078117
  0
LINE
  5
701
100
AcDbEntity
  8
IMPORT_IGES
100
AcDbLine
 62
7
  6
CONTINUOUS
 10
16.6295967831
 20
7.2304176959
 11
16.6574207941
 21
7.2064603063
  0
LINE
  5
702
100
AcDbEntity
  8
IMPORT_IGES
100
AcDbLine
 62
7
  6
CONTINUOUS
 10
19.5178750889
 20
6.5461241823
 11
19.5530467001
 21
6.5153639608
  0
LINE
  5
703
100
AcDbEntity
  8
IMPORT_IGES
100
AcDbLine
 62
7
  6
CONTINUOUS
 10
16.8404132271
 20
7.3093992898
 11
16.8015225498
 21
7.3457552608
  0
LINE
  5
704
100
AcDbEntity
  8
IMPORT_IGES
100
AcDbLine
 62
7
  6
CONTINUOUS
 10
18.8502787536
 20
5.7612489208
 11
18.893166989
 21
5.7210141397
  0
LINE
  5
705
100
AcDbEntity
  8
IMPORT_IGES
100
AcDbLine
 62
7
  6
CONTINUOUS
 10
17.4749119896
 20
5.7693363471
 11
17.5199762948
 21
5.7270115483
  0
LINE
  5
706
100
AcDbEntity
  8
IMPORT_IGES
100
AcDbLine
 62
7
  6
CONTINUOUS
 10
16.9376781833
 20
6.5189276069
 11
16.9024481744
 21
6.5521488589
  0
LINE
  5
707
100
AcDbEntity
  8
IMPORT_IGES
100
AcDbLine
 62
7
  6
CONTINUOUS
 10
17.6737239477
 20
5.8836693549
 11
17.6442877703
 21
5.9114791176
  0
LINE
  5
708
100
AcDbEntity
  8
IMPORT_IGES
100
AcDbLine
 62
7
  6
CONTINUOUS
 10
16.701544671
 20
6.460641911
 11
16.7313010915
 21
6.4314465259
  0
LINE
  5
709
100
AcDbEntity
  8
IMPORT_IGES
100
AcDbLine
 62
7
  6
CONTINUOUS
 10
16.2268227055
 20
5.903881187
 11
16.1999207105
 21
5.9320909573
  0
LINE
  5
70A
100
AcDbEntity
  8
IMPORT_IGES
100
AcDbLine
 62
7
  6
CONTINUOUS
 10
15.6093015233
 20
7.2705354426
 11
15.568715629
 21
7.313357781
  0
LINE
  5
70B
100
AcDbEntity
  8
IMPORT_IGES
100
AcDbLine
 62
7
  6
CONTINUOUS
 10
15.4037961872
 20
7.1756237802
 11
15.4283804885
 21
7.1485027415
  0
LINE
  5
70C
100
AcDbEntity
  8
IMPORT_IGES
100
AcDbLine
 62
7
  6
CONTINUOUS
 10
16.6574207941
 20
7.2064603063
 11
16.6815769924
 21
7.1792801628
  0
LINE
  5
70D
100
AcDbEntity
  8
IMPORT_IGES
100
AcDbLine
 62
7
  6
CONTINUOUS
 10
15.9903995871
 20
5.8502924302
 11
16.0299390687
 21
5.8048869829
  0
LINE
  5
70E
100
AcDbEntity
  8
IMPORT_IGES
100
AcDbLine
 62
7
  6
CONTINUOUS
 10
17.433646229
 20
5.8179234925
 11
17.4749119896
 21
5.7693363471
  0
LINE
  5
70F
100
AcDbEntity
  8
IMPORT_IGES
100
AcDbLine
 62
7
  6
CONTINUOUS
 10
16.8741790512
 20
7.2694047085
 11
16.8404132271
 21
7.3093992898
  0
LINE
  5
710
100
AcDbEntity
  8
IMPORT_IGES
100
AcDbLine
 62
7
  6
CONTINUOUS
 10
16.9683797363
 20
6.4814846668
 11
16.9376781833
 21
6.5189276069
  0
LINE
  5
711
100
AcDbEntity
  8
IMPORT_IGES
100
AcDbLine
 62
7
  6
CONTINUOUS
 10
17.6442877703
 20
5.9114791176
 11
17.6172704634
 21
5.944786173
  0
LINE
  5
712
100
AcDbEntity
  8
IMPORT_IGES
100
AcDbLine
 62
7
  6
CONTINUOUS
 10
16.7313010915
 20
6.4314465259
 11
16.7578355835
 21
6.3982298929
  0
LINE
  5
713
100
AcDbEntity
  8
IMPORT_IGES
100
AcDbLine
 62
7
  6
CONTINUOUS
 10
15.6461362919
 20
7.2217200396
 11
15.6093015233
 21
7.2705354426
  0
LINE
  5
714
100
AcDbEntity
  8
IMPORT_IGES
100
AcDbLine
 62
7
  6
CONTINUOUS
 10
14.2837573415
 20
7.2189750003
 11
14.2468933998
 21
7.2683465358
  0
LINE
  5
715
100
AcDbEntity
  8
IMPORT_IGES
100
AcDbLine
 62
7
  6
CONTINUOUS
 10
16.1999207105
 20
5.9320909573
 11
16.1762868013
 21
5.9642127572
  0
LINE
  5
716
100
AcDbEntity
  8
IMPORT_IGES
100
AcDbLine
 62
7
  6
CONTINUOUS
 10
17.3978491222
 20
5.8677768591
 11
17.433646229
 21
5.8179234925
  0
LINE
  5
717
100
AcDbEntity
  8
IMPORT_IGES
100
AcDbLine
 62
7
  6
CONTINUOUS
 10
15.4283804885
 20
7.1485027415
 11
15.4501798383
 21
7.1172440835
  0
LINE
  5
718
100
AcDbEntity
  8
IMPORT_IGES
100
AcDbLine
 62
7
  6
CONTINUOUS
 10
15.955963879
 20
5.9003349754
 11
15.9903995871
 21
5.8502924302
  0
LINE
  5
719
100
AcDbEntity
  8
IMPORT_IGES
100
AcDbLine
 62
7
  6
CONTINUOUS
 10
16.6815769924
 20
7.1792801628
 11
16.7020269995
 21
7.1487885623
  0
LINE
  5
71A
100
AcDbEntity
  8
IMPORT_IGES
100
AcDbLine
 62
7
  6
CONTINUOUS
 10
14.9311675223
 20
5.944786173
 11
14.9066960494
 21
5.9831323705
  0
LINE
  5
71B
100
AcDbEntity
  8
IMPORT_IGES
100
AcDbLine
 62
7
  6
CONTINUOUS
 10
16.994802066
 20
6.4397566475
 11
16.9683797363
 21
6.4814846668
  0
LINE
  5
71C
100
AcDbEntity
  8
IMPORT_IGES
100
AcDbLine
 62
7
  6
CONTINUOUS
 10
16.7578355835
 20
6.3982298929
 11
16.7796660013
 21
6.3623966835
  0
LINE
  5
71D
100
AcDbEntity
  8
IMPORT_IGES
100
AcDbLine
 62
7
  6
CONTINUOUS
 10
15.6793406028
 20
7.1663889717
 11
15.6461362919
 21
7.2217200396
  0
LINE
  5
71E
100
AcDbEntity
  8
IMPORT_IGES
100
AcDbLine
 62
7
  6
CONTINUOUS
 10
14.3168920674
 20
7.1630926217
 11
14.2837573415
 21
7.2189750003
  0
LINE
  5
71F
100
AcDbEntity
  8
IMPORT_IGES
100
AcDbLine
 62
7
  6
CONTINUOUS
 10
16.1762868013
 20
5.9642127572
 11
16.1557009582
 21
6.0001066273
  0
LINE
  5
720
100
AcDbEntity
  8
IMPORT_IGES
100
AcDbLine
 62
7
  6
CONTINUOUS
 10
14.085956145
 20
7.1172440834
 11
14.1051388113
 21
7.0827129787
  0
LINE
  5
721
100
AcDbEntity
  8
IMPORT_IGES
100
AcDbLine
 62
7
  6
CONTINUOUS
 10
15.4501798383
 20
7.1172440835
 11
15.4693625046
 21
7.0827129787
  0
LINE
  5
722
100
AcDbEntity
  8
IMPORT_IGES
100
AcDbLine
 62
7
  6
CONTINUOUS
 10
15.9274858607
 20
5.9547016083
 11
15.955963879
 21
5.9003349754
  0
LINE
  5
723
100
AcDbEntity
  8
IMPORT_IGES
100
AcDbLine
 62
7
  6
CONTINUOUS
 10
14.9066960494
 20
5.9831323705
 11
14.8851100026
 21
6.0251346448
  0
LINE
  5
724
100
AcDbEntity
  8
IMPORT_IGES
100
AcDbLine
 62
7
  6
CONTINUOUS
 10
15.708793788
 20
7.1050648392
 11
15.6793406028
 21
7.1663889717
  0
LINE
  5
725
100
AcDbEntity
  8
IMPORT_IGES
100
AcDbLine
 62
7
  6
CONTINUOUS
 10
14.346201679
 20
7.1012093836
 11
14.3168920674
 21
7.1630926217
  0
LINE
  5
726
100
AcDbEntity
  8
IMPORT_IGES
100
AcDbLine
 62
7
  6
CONTINUOUS
 10
16.1557009582
 20
6.0001066273
 11
16.1376769705
 21
6.0389854848
  0
LINE
  5
727
100
AcDbEntity
  8
IMPORT_IGES
100
AcDbLine
 62
7
  6
CONTINUOUS
 10
14.6589218002
 20
5.969455992
 11
14.6825996643
 21
5.9179833139
  0
LINE
  5
728
100
AcDbEntity
  8
IMPORT_IGES
100
AcDbLine
 62
7
  6
CONTINUOUS
 10
14.1051388113
 20
7.0827129787
 11
14.1214027098
 21
7.0448416225
  0
LINE
  5
729
100
AcDbEntity
  8
IMPORT_IGES
100
AcDbLine
 62
7
  6
CONTINUOUS
 10
15.4693625046
 20
7.0827129787
 11
15.4856264031
 21
7.0448416225
  0
LINE
  5
72A
100
AcDbEntity
  8
IMPORT_IGES
100
AcDbLine
 62
7
  6
CONTINUOUS
 10
14.8851100026
 20
6.0251346448
 11
14.8666618715
 21
6.0705716036
  0
LINE
  5
72B
100
AcDbEntity
  8
IMPORT_IGES
100
AcDbLine
 62
7
  6
CONTINUOUS
 10
14.6388368935
 20
6.0199381594
 11
14.6589218002
 21
5.969455992
  0
LINE
  5
72C
100
AcDbEntity
  8
IMPORT_IGES
100
AcDbLine
 62
7
  6
CONTINUOUS
 10
15.7340085274
 20
7.0390946872
 11
15.708793788
 21
7.1050648392
  0
LINE
  5
72D
100
AcDbEntity
  8
IMPORT_IGES
100
AcDbLine
 62
7
  6
CONTINUOUS
 10
15.9052501711
 20
6.0132879922
 11
15.9274858607
 21
5.9547016083
  0
LINE
  5
72E
100
AcDbEntity
  8
IMPORT_IGES
100
AcDbLine
 62
7
  6
CONTINUOUS
 10
14.3712382253
 20
7.0347036382
 11
14.346201679
 21
7.1012093836
  0
LINE
  5
72F
100
AcDbEntity
  8
IMPORT_IGES
100
AcDbLine
 62
7
  6
CONTINUOUS
 10
16.1376769705
 20
6.0389854848
 11
16.1220527681
 21
6.0805869687
  0
LINE
  5
730
100
AcDbEntity
  8
IMPORT_IGES
100
AcDbLine
 62
7
  6
CONTINUOUS
 10
14.6222081342
 20
6.0688084358
 11
14.6388368935
 21
6.0199381594
  0
LINE
  5
731
100
AcDbEntity
  8
IMPORT_IGES
100
AcDbLine
 62
7
  6
CONTINUOUS
 10
15.4856264031
 20
7.0448416225
 11
15.499273618
 21
7.0036978197
  0
LINE
  5
732
100
AcDbEntity
  8
IMPORT_IGES
100
AcDbLine
 62
7
  6
CONTINUOUS
 10
14.8666618715
 20
6.0705716036
 11
14.8510991665
 21
6.1196646392
  0
LINE
  5
733
100
AcDbEntity
  8
IMPORT_IGES
100
AcDbLine
 62
7
  6
CONTINUOUS
 10
15.7546883593
 20
6.9685862458
 11
15.7340085274
 21
7.0390946872
  0
LINE
  5
734
100
AcDbEntity
  8
IMPORT_IGES
100
AcDbLine
 62
7
  6
CONTINUOUS
 10
16.1220527681
 20
6.0805869687
 11
16.108990421
 21
6.1251734401
  0
LINE
  5
735
100
AcDbEntity
  8
IMPORT_IGES
100
AcDbLine
 62
7
  6
CONTINUOUS
 10
14.3917093753
 20
6.9636950113
 11
14.3712382253
 21
7.0347036382
  0
LINE
  5
736
100
AcDbEntity
  8
IMPORT_IGES
100
AcDbLine
 62
7
  6
CONTINUOUS
 10
15.499273618
 20
7.0036978197
 11
15.5113786703
 21
6.9603501569
  0
LINE
  5
737
100
AcDbEntity
  8
IMPORT_IGES
100
AcDbLine
 62
7
  6
CONTINUOUS
 10
14.6091723324
 20
6.1166882016
 11
14.6222081342
 21
6.0688084358
  0
LINE
  5
738
100
AcDbEntity
  8
IMPORT_IGES
100
AcDbLine
 62
7
  6
CONTINUOUS
 10
15.8889721712
 20
6.0761984638
 11
15.9052501711
 21
6.0132879922
  0
LINE
  5
739
100
AcDbEntity
  8
IMPORT_IGES
100
AcDbLine
 62
7
  6
CONTINUOUS
 10
14.8510991665
 20
6.1196646392
 11
14.8380040096
 21
6.171694864
  0
LINE
  5
73A
100
AcDbEntity
  8
IMPORT_IGES
100
AcDbLine
 62
7
  6
CONTINUOUS
 10
15.5113786703
 20
6.9603501569
 11
15.5222824399
 21
6.9151939045
  0
LINE
  5
73B
100
AcDbEntity
  8
IMPORT_IGES
100
AcDbLine
 62
7
  6
CONTINUOUS
 10
16.108990421
 20
6.1251734401
 11
16.0984899294
 21
6.1727448989
  0
LINE
  5
73C
100
AcDbEntity
  8
IMPORT_IGES
100
AcDbLine
 62
7
  6
CONTINUOUS
 10
15.7711297456
 20
6.8934317847
 11
15.7546883593
 21
6.9685862458
  0
LINE
  5
73D
100
AcDbEntity
  8
IMPORT_IGES
100
AcDbLine
 62
7
  6
CONTINUOUS
 10
17.4186467146
 20
-6.1092352633
 11
17.4039183031
 21
-6.039290067
  0
LINE
  5
73E
100
AcDbEntity
  8
IMPORT_IGES
100
AcDbLine
 62
7
  6
CONTINUOUS
 10
15.5316440468
 20
6.8678337922
 11
15.5222824399
 21
6.9151939045
  0
LINE
  5
73F
100
AcDbEntity
  8
IMPORT_IGES
100
AcDbLine
 62
7
  6
CONTINUOUS
 10
14.8380040096
 20
6.171694864
 11
14.8273698939
 21
6.2264534493
  0
LINE
  5
740
100
AcDbEntity
  8
IMPORT_IGES
100
AcDbLine
 62
7
  6
CONTINUOUS
 10
17.2135083447
 20
-6.1287918626
 11
17.2050703892
 21
-6.0840741231
  0
LINE
  5
741
100
AcDbEntity
  8
IMPORT_IGES
100
AcDbLine
 62
7
  6
CONTINUOUS
 10
15.7837347513
 20
6.8146551586
 11
15.7711297456
 21
6.8934317847
  0
LINE
  5
742
100
AcDbEntity
  8
IMPORT_IGES
100
AcDbLine
 62
7
  6
CONTINUOUS
 10
15.5395153729
 20
6.8181525964
 11
15.5316440468
 21
6.8678337922
  0
LINE
  5
743
100
AcDbEntity
  8
IMPORT_IGES
100
AcDbLine
 62
7
  6
CONTINUOUS
 10
15.8786518612
 20
6.1434330231
 11
15.8889721712
 21
6.0761984638
  0
LINE
  5
744
100
AcDbEntity
  8
IMPORT_IGES
100
AcDbLine
 62
7
  6
CONTINUOUS
 10
17.4300892126
 20
-6.1857633408
 11
17.4186467146
 21
-6.1092352633
  0
LINE
  5
745
100
AcDbEntity
  8
IMPORT_IGES
100
AcDbLine
 62
7
  6
CONTINUOUS
 10
17.2204197364
 20
-6.1757399368
 11
17.2135083447
 21
-6.1287918626
  0
LINE
  5
746
100
AcDbEntity
  8
IMPORT_IGES
100
AcDbLine
 62
7
  6
CONTINUOUS
 10
16.8098541718
 20
6.2786418186
 11
16.8159014594
 21
6.2356683942
  0
LINE
  5
747
100
AcDbEntity
  8
IMPORT_IGES
100
AcDbLine
 62
7
  6
CONTINUOUS
 10
16.7302935507
 20
7.0751139122
 11
16.7356299035
 21
7.0365618902
  0
LINE
  5
748
100
AcDbEntity
  8
IMPORT_IGES
100
AcDbLine
 62
7
  6
CONTINUOUS
 10
15.5459155402
 20
6.7660561465
 11
15.5395153729
 21
6.8181525964
  0
LINE
  5
749
100
AcDbEntity
  8
IMPORT_IGES
100
AcDbLine
 62
7
  6
CONTINUOUS
 10
15.793219294
 20
6.7293602513
 11
15.7837347513
 21
6.8146551586
  0
LINE
  5
74A
100
AcDbEntity
  8
IMPORT_IGES
100
AcDbLine
 62
7
  6
CONTINUOUS
 10
17.4992088923
 20
6.3446897861
 11
17.5053062676
 21
6.2841492237
  0
LINE
  5
74B
100
AcDbEntity
  8
IMPORT_IGES
100
AcDbLine
 62
7
  6
CONTINUOUS
 10
18.2369283677
 20
6.7116386129
 11
18.2320184814
 21
6.7660561463
  0
LINE
  5
74C
100
AcDbEntity
  8
IMPORT_IGES
100
AcDbLine
 62
7
  6
CONTINUOUS
 10
17.4951391701
 20
6.4092543382
 11
17.4992088923
 21
6.3446897861
  0
LINE
  5
74D
100
AcDbEntity
  8
IMPORT_IGES
100
AcDbLine
 62
7
  6
CONTINUOUS
 10
18.2403424889
 20
6.6550652843
 11
18.2369283677
 21
6.7116386129
  0
LINE
  5
74E
100
AcDbEntity
  8
IMPORT_IGES
100
AcDbLine
 62
7
  6
CONTINUOUS
 10
18.483655128
 20
6.6453329906
 11
18.4793222351
 21
6.7293602514
  0
LINE
  5
74F
100
AcDbEntity
  8
IMPORT_IGES
100
AcDbLine
 62
7
  6
CONTINUOUS
 10
18.242198576
 20
6.5952830272
 11
18.2403424889
 21
6.6550652843
  0
LINE
  5
750
100
AcDbEntity
  8
IMPORT_IGES
100
AcDbLine
 62
7
  6
CONTINUOUS
 10
18.4836653097
 20
6.6453356617
 11
18.4850364507
 21
6.5576188022
  0
LINE
  5
751
100
AcDbEntity
  8
IMPORT_IGES
100
AcDbLine
 62
7
  6
CONTINUOUS
 10
18.2425588527
 20
6.5333464827
 11
18.2421985551
 21
6.5952834686
  0
LINE
  5
752
100
AcDbEntity
  8
IMPORT_IGES
100
AcDbLine
 62
7
  6
CONTINUOUS
 10
19.6625857148
 20
6.1871226356
 11
19.6624584584
 21
6.2434533219
  0
LINE
  5
753
100
AcDbEntity
  8
IMPORT_IGES
100
AcDbLine
 62
7
  6
CONTINUOUS
 10
19.8126574606
 20
7.3963599697
 11
19.8126574606
 21
7.1854699697
  0
LINE
  5
754
100
AcDbEntity
  8
IMPORT_IGES
100
AcDbLine
 62
7
  6
CONTINUOUS
 10
18.2416047769
 20
6.4725758161
 11
18.2425588479
 21
6.5333461058
  0
LINE
  5
755
100
AcDbEntity
  8
IMPORT_IGES
100
AcDbLine
 62
7
  6
CONTINUOUS
 10
18.4850363793
 20
6.5576112838
 11
18.4829462486
 21
6.4677083274
  0
LINE
  5
756
100
AcDbEntity
  8
IMPORT_IGES
100
AcDbLine
 62
7
  6
CONTINUOUS
 10
18.2394875124
 20
6.4138140289
 11
18.2416047769
 21
6.4725758161
  0
LINE
  5
757
100
AcDbEntity
  8
IMPORT_IGES
100
AcDbLine
 62
7
  6
CONTINUOUS
 10
19.8933383152
 20
6.1500811237
 11
19.8965530652
 21
6.217459082
  0
LINE
  5
758
100
AcDbEntity
  8
IMPORT_IGES
100
AcDbLine
 62
7
  6
CONTINUOUS
 10
18.4779450383
 20
6.3790244802
 11
18.4831196302
 21
6.4677122407
  0
LINE
  5
759
100
AcDbEntity
  8
IMPORT_IGES
100
AcDbLine
 62
7
  6
CONTINUOUS
 10
18.2360558724
 20
6.3562189523
 11
18.2394875124
 21
6.4138140289
  0
LINE
  5
75A
100
AcDbEntity
  8
IMPORT_IGES
100
AcDbLine
 62
7
  6
CONTINUOUS
 10
19.6620343778
 20
6.1871214558
 11
19.6582172885
 21
6.1347702976
  0
LINE
  5
75B
100
AcDbEntity
  8
IMPORT_IGES
100
AcDbLine
 62
7
  6
CONTINUOUS
 10
17.4284163569
 20
-6.5860982308
 11
17.4360934651
 21
-6.5042484898
  0
LINE
  5
75C
100
AcDbEntity
  8
IMPORT_IGES
100
AcDbLine
 62
7
  6
CONTINUOUS
 10
17.2174384124
 20
-6.6470660142
 11
17.2231067037
 21
-6.5987485022
  0
LINE
  5
75D
100
AcDbEntity
  8
IMPORT_IGES
100
AcDbLine
 62
7
  6
CONTINUOUS
 10
18.9978268566
 20
-6.7700204344
 11
18.9933004128
 21
-6.8030829345
  0
LINE
  5
75E
100
AcDbEntity
  8
IMPORT_IGES
100
AcDbLine
 62
7
  6
CONTINUOUS
 10
17.4158306784
 20
-6.6658281742
 11
17.4284163569
 21
-6.5860982308
  0
LINE
  5
75F
100
AcDbEntity
  8
IMPORT_IGES
100
AcDbLine
 62
7
  6
CONTINUOUS
 10
17.2098533631
 20
-6.6932879055
 11
17.2174384124
 21
-6.6470660142
  0
LINE
  5
760
100
AcDbEntity
  8
IMPORT_IGES
100
AcDbLine
 62
7
  6
CONTINUOUS
 10
19.8803836977
 20
6.0749721069
 11
19.8933383152
 21
6.1500811237
  0
LINE
  5
761
100
AcDbEntity
  8
IMPORT_IGES
100
AcDbLine
 62
7
  6
CONTINUOUS
 10
19.6582172885
 20
6.1347702976
 11
19.6462358234
 21
6.0722980652
  0
LINE
  5
762
100
AcDbEntity
  8
IMPORT_IGES
100
AcDbLine
 62
7
  6
CONTINUOUS
 10
17.2005601165
 20
-6.7375462705
 11
17.2098533631
 21
-6.6932879055
  0
LINE
  5
763
100
AcDbEntity
  8
IMPORT_IGES
100
AcDbLine
 62
7
  6
CONTINUOUS
 10
17.4002242239
 20
-6.73879421
 11
17.4158306784
 21
-6.6658281742
  0
LINE
  5
764
100
AcDbEntity
  8
IMPORT_IGES
100
AcDbLine
 62
7
  6
CONTINUOUS
 10
17.2005601165
 20
-6.7375462705
 11
17.1893501118
 21
-6.7797090148
  0
LINE
  5
765
100
AcDbEntity
  8
IMPORT_IGES
100
AcDbLine
 62
7
  6
CONTINUOUS
 10
17.3805247578
 20
-6.8070747633
 11
17.4002242239
 21
-6.73879421
  0
LINE
  5
766
100
AcDbEntity
  8
IMPORT_IGES
100
AcDbLine
 62
7
  6
CONTINUOUS
 10
18.7170606384
 20
-5.5803624388
 11
18.2731814928
 21
-6.9118580641
  0
LINE
  5
767
100
AcDbEntity
  8
IMPORT_IGES
100
AcDbLine
 62
7
  6
CONTINUOUS
 10
17.1893501118
 20
-6.7797090148
 11
17.1750435629
 21
-6.8190779012
  0
LINE
  5
768
100
AcDbEntity
  8
IMPORT_IGES
100
AcDbLine
 62
7
  6
CONTINUOUS
 10
18.3837931125
 20
-7.1440334267
 11
18.9548315541
 21
-5.5803624388
  0
LINE
  5
769
100
AcDbEntity
  8
IMPORT_IGES
100
AcDbLine
 62
7
  6
CONTINUOUS
 10
17.3568207751
 20
-6.8710330909
 11
17.3805247578
 21
-6.8070747633
  0
LINE
  5
76A
100
AcDbEntity
  8
IMPORT_IGES
100
AcDbLine
 62
7
  6
CONTINUOUS
 10
17.3291733291
 20
-6.9295502767
 11
17.3568207751
 21
-6.8710330909
  0
LINE
  5
76B
100
AcDbEntity
  8
IMPORT_IGES
100
AcDbLine
 62
7
  6
CONTINUOUS
 10
17.1750435629
 20
-6.8190779012
 11
17.1573253644
 21
-6.8556798582
  0
LINE
  5
76C
100
AcDbEntity
  8
IMPORT_IGES
100
AcDbLine
 62
7
  6
CONTINUOUS
 10
19.0854267329
 20
-6.5417062666
 11
19.0671832216
 21
-6.5727714268
  0
LINE
  5
76D
100
AcDbEntity
  8
IMPORT_IGES
100
AcDbLine
 62
7
  6
CONTINUOUS
 10
17.2973338609
 20
-6.9825888809
 11
17.3291733291
 21
-6.9295502767
  0
LINE
  5
76E
100
AcDbEntity
  8
IMPORT_IGES
100
AcDbLine
 62
7
  6
CONTINUOUS
 10
17.1573253644
 20
-6.8556798582
 11
17.1365106218
 21
-6.8894879573
  0
LINE
  5
76F
100
AcDbEntity
  8
IMPORT_IGES
100
AcDbLine
 62
7
  6
CONTINUOUS
 10
19.164223
 20
-6.6871952812
 11
19.1797583688
 21
-6.6630591553
  0
LINE
  5
770
100
AcDbEntity
  8
IMPORT_IGES
100
AcDbLine
 62
7
  6
CONTINUOUS
 10
19.1058993672
 20
-6.5108641509
 11
19.0854267329
 21
-6.5417062666
  0
LINE
  5
771
100
AcDbEntity
  8
IMPORT_IGES
100
AcDbLine
 62
7
  6
CONTINUOUS
 10
17.2615509292
 20
-7.0301863433
 11
17.2973338609
 21
-6.9825888809
  0
LINE
  5
772
100
AcDbEntity
  8
IMPORT_IGES
100
AcDbLine
 62
253
  6
CONTINUOUS
 10
8.8110741577
 20
-19.0180865766
 11
8.6389308639
 21
-19.2431835151
  0
LINE
  5
773
100
AcDbEntity
  8
IMPORT_IGES
100
AcDbLine
 62
7
  6
CONTINUOUS
 10
19.1797583688
 20
-6.6630591553
 11
19.1973412753
 21
-6.6425080359
  0
LINE
  5
774
100
AcDbEntity
  8
IMPORT_IGES
100
AcDbLine
 62
7
  6
CONTINUOUS
 10
19.1307460182
 20
-6.4836531722
 11
19.1058993672
 21
-6.5108641509
  0
LINE
  5
775
100
AcDbEntity
  8
IMPORT_IGES
100
AcDbLine
 62
7
  6
CONTINUOUS
 10
20.0730190432
 20
-6.5137286852
 11
20.0540545495
 21
-6.5340503342
  0
LINE
  5
776
100
AcDbEntity
  8
IMPORT_IGES
100
AcDbLine
 62
7
  6
CONTINUOUS
 10
20.1014187766
 20
-6.7127202475
 11
20.1272200253
 21
-6.6872391893
  0
LINE
  5
777
100
AcDbEntity
  8
IMPORT_IGES
100
AcDbLine
 62
7
  6
CONTINUOUS
 10
20.0540545495
 20
-6.5340503342
 11
20.0338140734
 21
-6.5509356032
  0
LWPOLYLINE
  5
778
100
AcDbEntity
  8
IMPORT_IGES
100
AcDbPolyline
 62
253
  6
CONTINUOUS
 90
19
 70
0
 10
7.6414724625
 20
18.6238000037
 10
7.7242184575
 20
18.6265745614
 10
7.8070501386
 20
18.6357225659
 10
7.8890347129
 20
18.6512541984
 10
7.9689272096
 20
18.6729270017
 10
8.0461675977
 20
18.7004954521
 10
8.1208640263
 20
18.7339823045
 10
8.1922519359
 20
18.7730830299
 10
8.2595580011
 20
18.8173330538
 10
8.3228172473
 20
18.8667497615
 10
8.381352222
 20
18.9208471411
 10
8.4345798786
 20
18.9790394747
 10
8.4825201307
 20
19.0413550943
 10
8.5246148599
 20
19.1071291958
 10
8.5604726649
 20
19.1756834958
 10
8.5901217075
 20
19.2471037368
 10
8.6132560889
 20
19.3208982553
 10
8.6295215859
 20
19.3959587063
 10
8.6388570802
 20
19.4714376794
  0
LINE
  5
779
100
AcDbEntity
  8
IMPORT_IGES
100
AcDbLine
 62
253
  6
CONTINUOUS
 10
22.8043402472
 20
19.4548560972
 11
10.107670672
 21
19.4548560972
  0
LINE
  5
77A
100
AcDbEntity
  8
IMPORT_IGES
100
AcDbLine
 62
253
  6
CONTINUOUS
 10
9.8084670446
 20
19.1757815875
 11
8.8110483449
 21
19.245440275
  0
LINE
  5
77B
100
AcDbEntity
  8
IMPORT_IGES
100
AcDbLine
 62
7
  6
CONTINUOUS
 10
19.74838331
 20
6.6383797194
 11
19.7040157855
 21
6.681614008
  0
LINE
  5
77C
100
AcDbEntity
  8
IMPORT_IGES
100
AcDbLine
 62
7
  6
CONTINUOUS
 10
18.2954044645
 20
7.2705354426
 11
18.2548185701
 21
7.313357781
  0
LINE
  5
77D
100
AcDbEntity
  8
IMPORT_IGES
100
AcDbLine
 62
7
  6
CONTINUOUS
 10
19.0528250632
 20
5.8630965622
 11
19.0241325547
 21
5.8944391842
  0
LINE
  5
77E
100
AcDbEntity
  8
IMPORT_IGES
100
AcDbLine
 62
7
  6
CONTINUOUS
 10
18.0898991284
 20
7.1756237801
 11
18.1144834297
 21
7.1485027415
  0
LINE
  5
77F
100
AcDbEntity
  8
IMPORT_IGES
100
AcDbLine
 62
7
  6
CONTINUOUS
 10
19.5530467001
 20
6.5153639608
 11
19.583565984
 21
6.4803987486
  0
LINE
  5
780
100
AcDbEntity
  8
IMPORT_IGES
100
AcDbLine
 62
7
  6
CONTINUOUS
 10
18.8124990301
 20
5.805472043
 11
18.8502787536
 21
5.7612489208
  0
LINE
  5
781
100
AcDbEntity
  8
IMPORT_IGES
100
AcDbLine
 62
7
  6
CONTINUOUS
 10
19.7887274159
 20
6.5897095142
 11
19.74838331
 21
6.6383797194
  0
LINE
  5
782
100
AcDbEntity
  8
IMPORT_IGES
100
AcDbLine
 62
253
  6
CONTINUOUS
 10
8.6389296346
 20
19.4710327965
 11
8.8110747359
 21
19.2459393667
  0
LINE
  5
783
100
AcDbEntity
  8
IMPORT_IGES
100
AcDbLine
 62
7
  6
CONTINUOUS
 10
18.3322392331
 20
7.2217200396
 11
18.2954044645
 21
7.2705354426
  0
LINE
  5
784
100
AcDbEntity
  8
IMPORT_IGES
100
AcDbLine
 62
7
  6
CONTINUOUS
 10
19.0241325547
 20
5.8944391842
 11
18.9991923434
 21
5.9300904722
  0
LINE
  5
785
100
AcDbEntity
  8
IMPORT_IGES
100
AcDbLine
 62
7
  6
CONTINUOUS
 10
18.1144834297
 20
7.1485027415
 11
18.1362827795
 21
7.1172440834
  0
LINE
  5
786
100
AcDbEntity
  8
IMPORT_IGES
100
AcDbLine
 62
7
  6
CONTINUOUS
 10
18.7797938329
 20
5.8541269405
 11
18.8124990301
 21
5.805472043
  0
LINE
  5
787
100
AcDbEntity
  8
IMPORT_IGES
100
AcDbLine
 62
7
  6
CONTINUOUS
 10
19.583565984
 20
6.4803987486
 11
19.6092433871
 21
6.4414501909
  0
LINE
  5
788
100
AcDbEntity
  8
IMPORT_IGES
100
AcDbLine
 62
7
  6
CONTINUOUS
 10
16.9032299465
 20
7.2250985481
 11
16.8741790512
 21
7.2694047085
  0
LINE
  5
789
100
AcDbEntity
  8
IMPORT_IGES
100
AcDbLine
 62
7
  6
CONTINUOUS
 10
17.6172704634
 20
5.944786173
 11
17.5927989906
 21
5.9831323705
  0
LINE
  5
78A
100
AcDbEntity
  8
IMPORT_IGES
100
AcDbLine
 62
7
  6
CONTINUOUS
 10
18.365443544
 20
7.1663889717
 11
18.3322392331
 21
7.2217200396
  0
LINE
  5
78B
100
AcDbEntity
  8
IMPORT_IGES
100
AcDbLine
 62
7
  6
CONTINUOUS
 10
17.3687026044
 20
5.9179833159
 11
17.3978491222
 21
5.8677768591
  0
LINE
  5
78C
100
AcDbEntity
  8
IMPORT_IGES
100
AcDbLine
 62
7
  6
CONTINUOUS
 10
18.1362827795
 20
7.1172440834
 11
18.1554654458
 21
7.0827129786
  0
LINE
  5
78D
100
AcDbEntity
  8
IMPORT_IGES
100
AcDbLine
 62
7
  6
CONTINUOUS
 10
18.9991923434
 20
5.9300904722
 11
18.978028778
 21
5.9698756692
  0
LINE
  5
78E
100
AcDbEntity
  8
IMPORT_IGES
100
AcDbLine
 62
7
  6
CONTINUOUS
 10
17.5927989906
 20
5.9831323705
 11
17.5712129438
 21
6.0251346448
  0
LINE
  5
78F
100
AcDbEntity
  8
IMPORT_IGES
100
AcDbLine
 62
7
  6
CONTINUOUS
 10
18.7526878181
 20
5.907320858
 11
18.7797938329
 21
5.8541269405
  0
LINE
  5
790
100
AcDbEntity
  8
IMPORT_IGES
100
AcDbLine
 62
7
  6
CONTINUOUS
 10
16.9271559886
 20
7.1771537773
 11
16.9032299465
 21
7.2250985481
  0
LINE
  5
791
100
AcDbEntity
  8
IMPORT_IGES
100
AcDbLine
 62
7
  6
CONTINUOUS
 10
16.7020269995
 20
7.1487885623
 11
16.7179026966
 21
7.1158758998
  0
LINE
  5
792
100
AcDbEntity
  8
IMPORT_IGES
100
AcDbLine
 62
7
  6
CONTINUOUS
 10
18.3948967291
 20
7.1050648392
 11
18.365443544
 21
7.1663889717
  0
LINE
  5
793
100
AcDbEntity
  8
IMPORT_IGES
100
AcDbLine
 62
7
  6
CONTINUOUS
 10
17.0166959397
 20
6.39380694
 11
16.994802066
 21
6.4397566475
  0
LINE
  5
794
100
AcDbEntity
  8
IMPORT_IGES
100
AcDbLine
 62
7
  6
CONTINUOUS
 10
17.3450247405
 20
5.969455994
 11
17.3687026044
 21
5.9179833159
  0
LINE
  5
795
100
AcDbEntity
  8
IMPORT_IGES
100
AcDbLine
 62
7
  6
CONTINUOUS
 10
16.7796660013
 20
6.3623966835
 11
16.7963518392
 21
6.3242144491
  0
LINE
  5
796
100
AcDbEntity
  8
IMPORT_IGES
100
AcDbLine
 62
7
  6
CONTINUOUS
 10
18.1554654458
 20
7.0827129786
 11
18.1717293442
 21
7.0448416225
  0
LINE
  5
797
100
AcDbEntity
  8
IMPORT_IGES
100
AcDbLine
 62
7
  6
CONTINUOUS
 10
17.5712129438
 20
6.0251346448
 11
17.5527648127
 21
6.0705716035
  0
LINE
  5
798
100
AcDbEntity
  8
IMPORT_IGES
100
AcDbLine
 62
7
  6
CONTINUOUS
 10
17.3249398339
 20
6.0199381614
 11
17.3450247405
 21
5.969455994
  0
LINE
  5
799
100
AcDbEntity
  8
IMPORT_IGES
100
AcDbLine
 62
7
  6
CONTINUOUS
 10
18.978028778
 20
5.9698756692
 11
18.9606499749
 21
6.0137365227
  0
LINE
  5
79A
100
AcDbEntity
  8
IMPORT_IGES
100
AcDbLine
 62
7
  6
CONTINUOUS
 10
18.4201114686
 20
7.0390946872
 11
18.3948967291
 21
7.1050648392
  0
LINE
  5
79B
100
AcDbEntity
  8
IMPORT_IGES
100
AcDbLine
 62
7
  6
CONTINUOUS
 10
18.731355871
 20
5.9650895437
 11
18.7526878181
 21
5.907320858
  0
LINE
  5
79C
100
AcDbEntity
  8
IMPORT_IGES
100
AcDbLine
 62
7
  6
CONTINUOUS
 10
16.9451097345
 20
7.1279986344
 11
16.9271559886
 21
7.1771537773
  0
LINE
  5
79D
100
AcDbEntity
  8
IMPORT_IGES
100
AcDbLine
 62
7
  6
CONTINUOUS
 10
17.3083110748
 20
6.0688084379
 11
17.3249398339
 21
6.0199381614
  0
LINE
  5
79E
100
AcDbEntity
  8
IMPORT_IGES
100
AcDbLine
 62
7
  6
CONTINUOUS
 10
17.0332922275
 20
6.3440353279
 11
17.0166959397
 21
6.39380694
  0
LINE
  5
79F
100
AcDbEntity
  8
IMPORT_IGES
100
AcDbLine
 62
7
  6
CONTINUOUS
 10
18.1717293442
 20
7.0448416225
 11
18.1853765592
 21
7.0036978196
  0
LINE
  5
7A0
100
AcDbEntity
  8
IMPORT_IGES
100
AcDbLine
 62
7
  6
CONTINUOUS
 10
17.5527648127
 20
6.0705716035
 11
17.5372021077
 21
6.1196646391
  0
LINE
  5
7A1
100
AcDbEntity
  8
IMPORT_IGES
100
AcDbLine
 62
7
  6
CONTINUOUS
 10
16.7179026966
 20
7.1158758998
 11
16.7302935507
 21
7.0751139122
  0
LINE
  5
7A2
100
AcDbEntity
  8
IMPORT_IGES
100
AcDbLine
 62
7
  6
CONTINUOUS
 10
16.7963518392
 20
6.3242144491
 11
16.8098541718
 21
6.2786418186
  0
LINE
  5
7A3
100
AcDbEntity
  8
IMPORT_IGES
100
AcDbLine
 62
7
  6
CONTINUOUS
 10
18.4407913005
 20
6.9685862458
 11
18.4201114686
 21
7.0390946872
  0
LINE
  5
7A4
100
AcDbEntity
  8
IMPORT_IGES
100
AcDbLine
 62
7
  6
CONTINUOUS
 10
18.9606499749
 20
6.0137365227
 11
18.9470478178
 21
6.0617312852
  0
LINE
  5
7A5
100
AcDbEntity
  8
IMPORT_IGES
100
AcDbLine
 62
7
  6
CONTINUOUS
 10
18.1853765592
 20
7.0036978196
 11
18.1974816115
 21
6.9603501569
  0
LINE
  5
7A6
100
AcDbEntity
  8
IMPORT_IGES
100
AcDbLine
 62
7
  6
CONTINUOUS
 10
17.295275273
 20
6.1166882036
 11
17.3083110748
 21
6.0688084379
  0
LINE
  5
7A7
100
AcDbEntity
  8
IMPORT_IGES
100
AcDbLine
 62
7
  6
CONTINUOUS
 10
18.7156231064
 20
6.0273972494
 11
18.731355871
 21
5.9650895437
  0
LINE
  5
7A8
100
AcDbEntity
  8
IMPORT_IGES
100
AcDbLine
 62
7
  6
CONTINUOUS
 10
17.5372021077
 20
6.1196646391
 11
17.5241069508
 21
6.171694864
  0
LINE
  5
7A9
100
AcDbEntity
  8
IMPORT_IGES
100
AcDbLine
 62
7
  6
CONTINUOUS
 10
18.1974816115
 20
6.9603501569
 11
18.2083853811
 21
6.9151939044
  0
LINE
  5
7AA
100
AcDbEntity
  8
IMPORT_IGES
100
AcDbLine
 62
7
  6
CONTINUOUS
 10
17.2843671625
 20
6.1631848679
 11
17.295275273
 21
6.1166882036
  0
LINE
  5
7AB
100
AcDbEntity
  8
IMPORT_IGES
100
AcDbLine
 62
7
  6
CONTINUOUS
 10
16.9579498931
 20
7.0726230264
 11
16.9451097345
 21
7.1279986344
  0
LINE
  5
7AC
100
AcDbEntity
  8
IMPORT_IGES
100
AcDbLine
 62
7
  6
CONTINUOUS
 10
18.4572326868
 20
6.8934317847
 11
18.4407913005
 21
6.9685862458
  0
LINE
  5
7AD
100
AcDbEntity
  8
IMPORT_IGES
100
AcDbLine
 62
7
  6
CONTINUOUS
 10
17.2743280792
 20
6.2106133852
 11
17.2843671625
 21
6.1631848679
  0
LINE
  5
7AE
100
AcDbEntity
  8
IMPORT_IGES
100
AcDbLine
 62
7
  6
CONTINUOUS
 10
17.0457919307
 20
6.2847403828
 11
17.0332922275
 21
6.3440353279
  0
LINE
  5
7AF
100
AcDbEntity
  8
IMPORT_IGES
100
AcDbLine
 62
7
  6
CONTINUOUS
 10
18.217746988
 20
6.8678337921
 11
18.2083853811
 21
6.9151939044
  0
LINE
  5
7B0
100
AcDbEntity
  8
IMPORT_IGES
100
AcDbLine
 62
7
  6
CONTINUOUS
 10
17.5241069508
 20
6.171694864
 11
17.5134728351
 21
6.2264534492
  0
LINE
  5
7B1
100
AcDbEntity
  8
IMPORT_IGES
100
AcDbLine
 62
7
  6
CONTINUOUS
 10
18.9372223067
 20
6.1138599567
 11
18.9470478178
 21
6.0617312852
  0
LINE
  5
7B2
100
AcDbEntity
  8
IMPORT_IGES
100
AcDbLine
 62
7
  6
CONTINUOUS
 10
17.2672230416
 20
6.2517609272
 11
17.2743280792
 21
6.2106133852
  0
LINE
  5
7B3
100
AcDbEntity
  8
IMPORT_IGES
100
AcDbLine
 62
7
  6
CONTINUOUS
 10
18.4698376925
 20
6.8146551586
 11
18.4572326868
 21
6.8934317847
  0
LINE
  5
7B4
100
AcDbEntity
  8
IMPORT_IGES
100
AcDbLine
 62
7
  6
CONTINUOUS
 10
18.2256183141
 20
6.8181525963
 11
18.217746988
 21
6.8678337921
  0
LINE
  5
7B5
100
AcDbEntity
  8
IMPORT_IGES
100
AcDbLine
 62
7
  6
CONTINUOUS
 10
18.7054895241
 20
6.0942439751
 11
18.7156231064
 21
6.0273972494
  0
LINE
  5
7B6
100
AcDbEntity
  8
IMPORT_IGES
100
AcDbLine
 62
7
  6
CONTINUOUS
 10
17.5053062676
 20
6.2841492237
 11
17.5134728351
 21
6.2264534492
  0
LINE
  5
7B7
100
AcDbEntity
  8
IMPORT_IGES
100
AcDbLine
 62
7
  6
CONTINUOUS
 10
17.2685213838
 20
6.2517554076
 11
17.2629453412
 21
6.2939713242
  0
LINE
  5
7B8
100
AcDbEntity
  8
IMPORT_IGES
100
AcDbLine
 62
7
  6
CONTINUOUS
 10
18.2320184814
 20
6.7660561463
 11
18.2256183141
 21
6.8181525963
  0
LINE
  5
7B9
100
AcDbEntity
  8
IMPORT_IGES
100
AcDbLine
 62
7
  6
CONTINUOUS
 10
18.4793222351
 20
6.7293602514
 11
18.4698376925
 21
6.8146551586
  0
LINE
  5
7BA
100
AcDbEntity
  8
IMPORT_IGES
100
AcDbLine
 62
7
  6
CONTINUOUS
 10
19.6579824515
 20
6.2944640387
 11
19.66200532
 21
6.2427458391
  0
LINE
  5
7BB
100
AcDbEntity
  8
IMPORT_IGES
100
AcDbLine
 62
7
  6
CONTINUOUS
 10
19.8950158313
 20
6.2866763294
 11
19.8971551299
 21
6.217474689
  0
LINE
  5
7BC
100
AcDbEntity
  8
IMPORT_IGES
100
AcDbLine
 62
7
  6
CONTINUOUS
 10
20.25256649
 20
-6.4196118519
 11
20.263013196
 21
-6.3711350303
  0
LINE
  5
7BD
100
AcDbEntity
  8
IMPORT_IGES
100
AcDbLine
 62
7
  6
CONTINUOUS
 10
19.0071118673
 20
-6.7329205045
 11
18.9978268566
 21
-6.7700204344
  0
LINE
  5
7BE
100
AcDbEntity
  8
IMPORT_IGES
100
AcDbLine
 62
7
  6
CONTINUOUS
 10
20.240208008
 20
-6.4655859312
 11
20.25256649
 21
-6.4196118519
  0
LINE
  5
7BF
100
AcDbEntity
  8
IMPORT_IGES
100
AcDbLine
 62
7
  6
CONTINUOUS
 10
20.1302395679
 20
-6.404610817
 11
20.1392837392
 21
-6.3711350303
  0
LINE
  5
7C0
100
AcDbEntity
  8
IMPORT_IGES
100
AcDbLine
 62
7
  6
CONTINUOUS
 10
19.0071118673
 20
-6.7329205045
 11
19.0165004047
 21
-6.699262514
  0
LINE
  5
7C1
100
AcDbEntity
  8
IMPORT_IGES
100
AcDbLine
 62
7
  6
CONTINUOUS
 10
19.1261599105
 20
-6.7711332012
 11
19.1163822564
 21
-6.8031220303
  0
LINE
  5
7C2
100
AcDbEntity
  8
IMPORT_IGES
100
AcDbLine
 62
7
  6
CONTINUOUS
 10
19.0265909714
 20
-6.6668126396
 11
19.0165004047
 21
-6.699262514
  0
LINE
  5
7C3
100
AcDbEntity
  8
IMPORT_IGES
100
AcDbLine
 62
7
  6
CONTINUOUS
 10
20.2259377498
 20
-6.5090572685
 11
20.240208008
 21
-6.4655859312
  0
LINE
  5
7C4
100
AcDbEntity
  8
IMPORT_IGES
100
AcDbLine
 62
7
  6
CONTINUOUS
 10
19.0377653408
 20
-6.6353246133
 11
19.0265909714
 21
-6.6668126396
  0
LINE
  5
7C5
100
AcDbEntity
  8
IMPORT_IGES
100
AcDbLine
 62
7
  6
CONTINUOUS
 10
20.1302395679
 20
-6.404610817
 11
20.1191311191
 21
-6.4355573093
  0
LINE
  5
7C6
100
AcDbEntity
  8
IMPORT_IGES
100
AcDbLine
 62
7
  6
CONTINUOUS
 10
19.1261599105
 20
-6.7711332012
 11
19.1374237709
 21
-6.7412323041
  0
LINE
  5
7C7
100
AcDbEntity
  8
IMPORT_IGES
100
AcDbLine
 62
7
  6
CONTINUOUS
 10
20.2097094239
 20
-6.5501965102
 11
20.2259377498
 21
-6.5090572685
  0
LINE
  5
7C8
100
AcDbEntity
  8
IMPORT_IGES
100
AcDbLine
 62
7
  6
CONTINUOUS
 10
19.051168833
 20
-6.6040596317
 11
19.0377653408
 21
-6.6353246133
  0
LINE
  5
7C9
100
AcDbEntity
  8
IMPORT_IGES
100
AcDbLine
 62
7
  6
CONTINUOUS
 10
19.1374237709
 20
-6.7412323041
 11
19.1501738375
 21
-6.713419339
  0
LINE
  5
7CA
100
AcDbEntity
  8
IMPORT_IGES
100
AcDbLine
 62
7
  6
CONTINUOUS
 10
20.1191311191
 20
-6.4355573093
 11
20.1059583929
 21
-6.4639745072
  0
LINE
  5
7CB
100
AcDbEntity
  8
IMPORT_IGES
100
AcDbLine
 62
7
  6
CONTINUOUS
 10
20.191569322
 20
-6.5888330097
 11
20.2097094239
 21
-6.5501965102
  0
LINE
  5
7CC
100
AcDbEntity
  8
IMPORT_IGES
100
AcDbLine
 62
7
  6
CONTINUOUS
 10
19.0671832216
 20
-6.5727714268
 11
19.051168833
 21
-6.6040596317
  0
LINE
  5
7CD
100
AcDbEntity
  8
IMPORT_IGES
100
AcDbLine
 62
7
  6
CONTINUOUS
 10
19.1501738375
 20
-6.713419339
 11
19.164223
 21
-6.6871952812
  0
LINE
  5
7CE
100
AcDbEntity
  8
IMPORT_IGES
100
AcDbLine
 62
7
  6
CONTINUOUS
 10
20.1716563187
 20
-6.6244548272
 11
20.191569322
 21
-6.5888330097
  0
LINE
  5
7CF
100
AcDbEntity
  8
IMPORT_IGES
100
AcDbLine
 62
7
  6
CONTINUOUS
 10
20.1059583929
 20
-6.4639745072
 11
20.0905208568
 21
-6.4901162434
  0
LINE
  5
7D0
100
AcDbEntity
  8
IMPORT_IGES
100
AcDbLine
 62
7
  6
CONTINUOUS
 10
20.1503246226
 20
-6.6573543493
 11
20.1716563187
 21
-6.6244548272
  0
LINE
  5
7D1
100
AcDbEntity
  8
IMPORT_IGES
100
AcDbLine
 62
7
  6
CONTINUOUS
 10
20.0905208568
 20
-6.4901162434
 11
20.0730190432
 21
-6.5137286852
  0
LINE
  5
7D2
100
AcDbEntity
  8
IMPORT_IGES
100
AcDbLine
 62
253
  6
CONTINUOUS
 10
9.7610963144
 20
-20.6799017679
 11
10.1076766366
 21
-20.2267228349
  0
LINE
  5
7D3
100
AcDbEntity
  8
IMPORT_IGES
100
AcDbLine
 62
7
  6
CONTINUOUS
 10
20.1272200253
 20
-6.6872391893
 11
20.1503246226
 21
-6.6573543493
  0
LINE
  5
7D4
100
AcDbEntity
  8
IMPORT_IGES
100
AcDbLine
 62
7
  6
CONTINUOUS
 10
-20.4786399337
 20
20.8200350839
 11
-20.5402317566
 21
20.816462981
  0
LWPOLYLINE
  5
7D5
100
AcDbEntity
  8
IMPORT_IGES
100
AcDbPolyline
 62
7
  6
CONTINUOUS
 90
3
 70
0
 10
-23.9968358937
 20
20.7142131415
 10
-24.046239827
 20
20.7114302224
 10
-24.0974506117
 20
20.7079312187
  0
LINE
  5
7D6
100
AcDbEntity
  8
IMPORT_IGES
100
AcDbLine
 62
7
  6
CONTINUOUS
 10
-20.5342525629
 20
20.8167928873
 11
-20.5988430684
 21
20.8134082739
  0
LINE
  5
7D7
100
AcDbEntity
  8
IMPORT_IGES
100
AcDbLine
 62
253
  6
CONTINUOUS
 10
-20.5925925877
 20
20.813719422
 11
-20.5630049501
 21
20.8137722754
  0
LINE
  5
7D8
100
AcDbEntity
  8
IMPORT_IGES
100
AcDbLine
 62
7
  6
CONTINUOUS
 10
-23.9454605769
 20
20.7165579825
 11
-24.0013483003
 21
20.7139791721
  0
LINE
  5
7D9
100
AcDbEntity
  8
IMPORT_IGES
100
AcDbLine
 62
7
  6
CONTINUOUS
 10
-20.5925925877
 20
20.813719422
 11
-20.6600318268
 21
20.8105570664
  0
LINE
  5
7DA
100
AcDbEntity
  8
IMPORT_IGES
100
AcDbLine
 62
253
  6
CONTINUOUS
 10
-20.6535260825
 20
20.810846504
 11
-20.6440829748
 21
20.8098323579
  0
LINE
  5
7DB
100
AcDbEntity
  8
IMPORT_IGES
100
AcDbLine
 62
7
  6
CONTINUOUS
 10
-20.6535260825
 20
20.810846504
 11
-20.7236194683
 21
20.807937996
  0
LINE
  5
7DC
100
AcDbEntity
  8
IMPORT_IGES
100
AcDbLine
 62
253
  6
CONTINUOUS
 10
-23.9502821018
 20
20.7138911524
 11
-23.8905459631
 21
20.7162352271
  0
LINE
  5
7DD
100
AcDbEntity
  8
IMPORT_IGES
100
AcDbLine
 62
7
  6
CONTINUOUS
 10
-23.9478448942
 20
20.7164491589
 11
-23.9502266946
 21
20.7163617667
  0
LINE
  5
7DE
100
AcDbEntity
  8
IMPORT_IGES
100
AcDbLine
 62
7
  6
CONTINUOUS
 10
-23.9000429019
 20
20.71820331
 11
-23.9454605769
 21
20.7165579825
  0
LINE
  5
7DF
100
AcDbEntity
  8
IMPORT_IGES
100
AcDbLine
 62
7
  6
CONTINUOUS
 10
-20.7168669537
 20
20.8082021328
 11
-20.789398316
 21
20.805578268
  0
LINE
  5
7E0
100
AcDbEntity
  8
IMPORT_IGES
100
AcDbLine
 62
7
  6
CONTINUOUS
 10
-23.900054999
 20
20.7182019323
 11
-22.9022875096
 21
20.7488278511
  0
LINE
  5
7E1
100
AcDbEntity
  8
IMPORT_IGES
100
AcDbLine
 62
7
  6
CONTINUOUS
 10
-20.7824101748
 20
20.80581381
 11
-20.857138081
 21
20.8035058809
  0
LINE
  5
7E2
100
AcDbEntity
  8
IMPORT_IGES
100
AcDbLine
 62
7
  6
CONTINUOUS
 10
-23.8905459631
 20
20.7162352271
 11
-22.2370084309
 21
20.7677908925
  0
LINE
  5
7E3
100
AcDbEntity
  8
IMPORT_IGES
100
AcDbLine
 62
253
  6
CONTINUOUS
 10
-20.849929431
 20
20.8037098462
 11
-20.8118095816
 21
20.8034889614
  0
LINE
  5
7E4
100
AcDbEntity
  8
IMPORT_IGES
100
AcDbLine
 62
7
  6
CONTINUOUS
 10
-22.8947428086
 20
20.7471335725
 11
-21.2390340996
 21
20.7940510606
  0
LINE
  5
7E5
100
AcDbEntity
  8
IMPORT_IGES
100
AcDbLine
 62
7
  6
CONTINUOUS
 10
-21.8976002609
 20
20.7754230657
 11
-20.849929431
 21
20.8037098462
  0
LINE
  5
7E6
100
AcDbEntity
  8
IMPORT_IGES
100
AcDbLine
 62
253
  6
CONTINUOUS
 10
-23.9001335592
 20
20.718199414
 11
-23.8995030535
 21
20.7182093104
  0
LINE
  5
7E7
100
AcDbEntity
  8
IMPORT_IGES
100
AcDbLine
 62
253
  6
CONTINUOUS
 10
-20.9058776595
 20
20.8022277605
 11
-20.9063621847
 21
20.8022219172
  0
LINE
  5
7E8
100
AcDbEntity
  8
IMPORT_IGES
100
AcDbLine
 62
253
  6
CONTINUOUS
 10
10.1076880133
 20
20.4546367775
 11
22.8044608671
 21
20.4546367775
  0
LINE
  5
7E9
100
AcDbEntity
  8
IMPORT_IGES
100
AcDbLine
 62
253
  6
CONTINUOUS
 10
23.152395133
 20
20.9078136391
 11
9.7610406019
 21
20.9078136391
  0
LINE
  5
7EA
100
AcDbEntity
  8
IMPORT_IGES
100
AcDbLine
 62
7
  6
CONTINUOUS
 10
-19.9156771101
 20
20.9137782364
 11
23.1563258437
 21
20.9137782364
  0
LWPOLYLINE
  5
7EB
100
AcDbEntity
  8
IMPORT_IGES
100
AcDbPolyline
 62
253
  6
CONTINUOUS
 90
10
 70
0
 10
-23.8995030535
 20
20.7182093104
 10
-23.8985138461
 20
20.7181850118
 10
-23.8975225435
 20
20.7181120386
 10
-23.8965293037
 20
20.7179902843
 10
-23.895533964
 20
20.7178195872
 10
-23.8945370055
 20
20.7175998881
 10
-23.8935395551
 20
20.717331388
 10
-23.892542098
 20
20.7170142644
 10
-23.8915444753
 20
20.7166485135
 10
-23.8905468495
 20
20.7162342183
  0
LWPOLYLINE
  5
7EC
100
AcDbEntity
  8
IMPORT_IGES
100
AcDbPolyline
 62
7
  6
CONTINUOUS
 90
22
 70
0
 10
23.1563258437
 20
20.9137782364
 10
23.2501750646
 20
20.9104499228
 10
23.3425741397
 20
20.9006533672
 10
23.4335230689
 20
20.8843885697
 10
23.5234607457
 20
20.8615013574
 10
23.6119482767
 20
20.8321459032
 10
23.6976689813
 20
20.7967847258
 10
23.7805821978
 20
20.7553316328
 10
23.8607285879
 20
20.7078728167
 10
23.9369134567
 20
20.6551293738
 10
24.0090789879
 20
20.5970251488
 10
24.0772829978
 20
20.533636297
 10
24.1405042402
 20
20.4659123809
 10
24.1986709791
 20
20.3937900561
 10
24.2518549505
 20
20.3173326669
 10
24.2992501161
 20
20.2376798086
 10
24.3407735324
 20
20.1547821437
 10
24.3765081428
 20
20.0686890097
 10
24.4058967399
 20
19.980688014
 10
24.4287535878
 20
19.8912083593
 10
24.4452644223
 20
19.7998208429
 10
24.4554292434
 20
19.7065254649
  0
LWPOLYLINE
  5
7ED
100
AcDbEntity
  8
IMPORT_IGES
100
AcDbPolyline
 62
253
  6
CONTINUOUS
 90
22
 70
0
 10
22.8051434961
 20
20.4546357549
 10
22.8978171008
 20
20.4512468439
 10
22.9900451179
 20
20.441255344
 10
23.0813571661
 20
20.4247055778
 10
23.1713052179
 20
20.4016699686
 10
23.2594097051
 20
20.3722623656
 10
23.3451662333
 20
20.3366505907
 10
23.4281173883
 20
20.2950336884
 10
23.5078665478
 20
20.2476200699
 10
23.5840245968
 20
20.1946454925
 10
23.6562048174
 20
20.1363812659
 10
23.7240408759
 20
20.0731255689
 10
23.7872002796
 20
20.0051885129
 10
23.8453600585
 20
19.9329147565
 10
23.8982226277
 20
19.8566711615
 10
23.9455257338
 20
19.7768294875
 10
23.9870344574
 20
19.6937695412
 10
24.0225176063
 20
19.6079349391
 10
24.0517714481
 20
19.5198212828
 10
24.0746496114
 20
19.4299006439
 10
24.0910500772
 20
19.3386135974
 10
24.1008968174
 20
19.2464261892
  0
LWPOLYLINE
  5
7EE
100
AcDbEntity
  8
IMPORT_IGES
100
AcDbPolyline
 62
253
  6
CONTINUOUS
 90
22
 70
0
 10
23.1517142445
 20
20.9078152864
 10
23.2455460572
 20
20.9043347225
 10
23.3385760161
 20
20.8941353741
 10
23.4303291794
 20
20.8773368268
 10
23.5202456262
 20
20.8541208987
 10
23.6079857731
 20
20.8246555363
 10
23.6934088497
 20
20.7890230583
 10
23.7761727923
 20
20.7473541602
 10
23.8557599616
 20
20.699897063
 10
23.9317659992
 20
20.646892882
 10
24.0038047414
 20
20.5886109154
 10
24.0715101809
 20
20.5253472762
 10
24.134538327
 20
20.457423388
 10
24.1925689526
 20
20.3851843515
 10
24.2453072216
 20
20.3089971915
 10
24.2924851868
 20
20.229248992
 10
24.3338625286
 20
20.1463462967
 10
24.3692298386
 20
20.0607090307
 10
24.398408698
 20
19.9727679511
 10
24.4212502533
 20
19.882968118
 10
24.4376369746
 20
19.7917670374
 10
24.4474846344
 20
19.6996280398
  0
LINE
  5
7EF
100
AcDbEntity
  8
IMPORT_IGES
100
AcDbLine
 62
253
  6
CONTINUOUS
 10
10.1076880133
 20
20.4546367775
 11
9.7610406019
 21
20.9078136391
  0
LINE
  5
7F0
100
AcDbEntity
  8
IMPORT_IGES
100
AcDbLine
 62
7
  6
CONTINUOUS
 10
19.8229022648
 20
6.5373631483
 11
19.7887274159
 21
6.5897095142
  0
LINE
  5
7F1
100
AcDbEntity
  8
IMPORT_IGES
100
AcDbLine
 62
7
  6
CONTINUOUS
 10
19.8502542202
 20
6.4820890832
 11
19.8229022648
 21
6.5373631483
  0
LINE
  5
7F2
100
AcDbEntity
  8
IMPORT_IGES
100
AcDbLine
 62
7
  6
CONTINUOUS
 10
19.6092433871
 20
6.4414501909
 11
19.630268463
 21
6.3982966425
  0
LINE
  5
7F3
100
AcDbEntity
  8
IMPORT_IGES
100
AcDbLine
 62
7
  6
CONTINUOUS
 10
19.8714369186
 20
6.4231388575
 11
19.8502542202
 21
6.4820890832
  0
LINE
  5
7F4
100
AcDbEntity
  8
IMPORT_IGES
100
AcDbLine
 62
7
  6
CONTINUOUS
 10
19.630268463
 20
6.3982966425
 11
19.6461630471
 21
6.3512565743
  0
LINE
  5
7F5
100
AcDbEntity
  8
IMPORT_IGES
100
AcDbLine
 62
7
  6
CONTINUOUS
 10
19.8862654311
 20
6.3600268427
 11
19.8714369186
 21
6.4231388575
  0
LINE
  5
7F6
100
AcDbEntity
  8
IMPORT_IGES
100
AcDbLine
 62
7
  6
CONTINUOUS
 10
19.6461630471
 20
6.3512565743
 11
19.6579824515
 21
6.2944640387
  0
LINE
  5
7F7
100
AcDbEntity
  8
IMPORT_IGES
100
AcDbLine
 62
7
  6
CONTINUOUS
 10
19.8862654311
 20
6.3600268427
 11
19.8954025876
 21
6.2866944329
  0
LINE
  5
7F8
100
AcDbEntity
  8
IMPORT_IGES
100
AcDbLine
 62
253
  6
CONTINUOUS
 10
22.8043453036
 20
-20.2267228349
 11
22.8043453036
 21
-19.2269421667
  0
LINE
  5
7F9
100
AcDbEntity
  8
IMPORT_IGES
100
AcDbLine
 62
253
  6
CONTINUOUS
 10
22.8043451983
 20
19.4548561061
 11
22.8043451983
 21
20.4546367775
  0
LINE
  5
7FA
100
AcDbEntity
  8
IMPORT_IGES
100
AcDbLine
 62
253
  6
CONTINUOUS
 10
23.1545173243
 20
-20.6858644583
 11
23.1545173243
 21
-20.6799017679
  0
LINE
  5
7FB
100
AcDbEntity
  8
IMPORT_IGES
100
AcDbLine
 62
253
  6
CONTINUOUS
 10
23.1545165954
 20
20.9078136388
 11
23.1545165954
 21
20.913778398
  0
LWPOLYLINE
  5
7FC
100
AcDbEntity
  8
IMPORT_IGES
100
AcDbPolyline
 62
7
  6
CONTINUOUS
 90
3
 70
0
 10
-19.9764936685
 20
20.9075082981
 10
-19.947604272
 20
20.9119838911
 10
-19.9156771101
 20
20.9137782364
  0
LWPOLYLINE
  5
7FD
100
AcDbEntity
  8
IMPORT_IGES
100
AcDbPolyline
 62
253
  6
CONTINUOUS
 90
7
 70
0
 10
-20.0665003344
 20
20.8549331557
 10
-20.0289316999
 20
20.8603745806
 10
-19.9972745249
 20
20.865735029
 10
-19.972076836
 20
20.870940664
 10
-19.9535213088
 20
20.875955114
 10
-19.9414252676
 20
20.8807710292
 10
-19.9357887126
 20
20.8853648502
  0
LINE
  5
7FE
100
AcDbEntity
  8
IMPORT_IGES
100
AcDbLine
 62
7
  6
CONTINUOUS
 10
-24.2585040837
 20
20.6915803039
 11
-24.2965829831
 21
20.6860674612
  0
LINE
  5
7FF
100
AcDbEntity
  8
IMPORT_IGES
100
AcDbLine
 62
7
  6
CONTINUOUS
 10
-20.0957429891
 20
20.8543731788
 11
-20.0960092542
 21
20.8543352083
  0
LINE
  5
800
100
AcDbEntity
  8
IMPORT_IGES
100
AcDbLine
 62
7
  6
CONTINUOUS
 10
-20.0937354473
 20
20.854653781
 11
-20.1073957375
 21
20.8527850664
  0
LINE
  5
801
100
AcDbEntity
  8
IMPORT_IGES
100
AcDbLine
 62
7
  6
CONTINUOUS
 10
-20.1049290159
 20
20.8531153984
 11
-20.1196992592
 21
20.8511835032
  0
LINE
  5
802
100
AcDbEntity
  8
IMPORT_IGES
100
AcDbLine
 62
253
  6
CONTINUOUS
 10
-20.1099905228
 20
20.8494377674
 11
-20.0665003344
 21
20.8549331557
  0
LINE
  5
803
100
AcDbEntity
  8
IMPORT_IGES
100
AcDbLine
 62
7
  6
CONTINUOUS
 10
-24.2207952503
 20
20.6963040408
 11
-24.2613800486
 21
20.6911930637
  0
LINE
  5
804
100
AcDbEntity
  8
IMPORT_IGES
100
AcDbLine
 62
7
  6
CONTINUOUS
 10
-20.1170447721
 20
20.8515237585
 11
-20.1328744822
 21
20.8495414675
  0
LINE
  5
805
100
AcDbEntity
  8
IMPORT_IGES
100
AcDbLine
 62
7
  6
CONTINUOUS
 10
-20.130036228
 20
20.849890136
 11
-20.1469194046
 21
20.8478636131
  0
LINE
  5
806
100
AcDbEntity
  8
IMPORT_IGES
100
AcDbLine
 62
7
  6
CONTINUOUS
 10
-20.1439022468
 20
20.8482191605
 11
-20.1618448062
 21
20.8461529383
  0
LINE
  5
807
100
AcDbEntity
  8
IMPORT_IGES
100
AcDbLine
 62
7
  6
CONTINUOUS
 10
-24.1807591085
 20
20.7006527945
 11
-24.2239380869
 21
20.69593544
  0
LINE
  5
808
100
AcDbEntity
  8
IMPORT_IGES
100
AcDbLine
 62
7
  6
CONTINUOUS
 10
-20.1586533542
 20
20.8465138978
 11
-20.1907201849
 21
20.8430267341
  0
LINE
  5
809
100
AcDbEntity
  8
IMPORT_IGES
100
AcDbLine
 62
7
  6
CONTINUOUS
 10
-20.1776258986
 20
20.8444163156
 11
-20.2117533489
 21
20.8408801131
  0
LINE
  5
80A
100
AcDbEntity
  8
IMPORT_IGES
100
AcDbLine
 62
7
  6
CONTINUOUS
 10
-20.2080365295
 20
20.8412521803
 11
-20.2451733379
 21
20.8376652643
  0
LINE
  5
80B
100
AcDbEntity
  8
IMPORT_IGES
100
AcDbLine
 62
7
  6
CONTINUOUS
 10
-24.1383175184
 20
20.7046303726
 11
-24.1841865102
 21
20.7003048221
  0
LINE
  5
80C
100
AcDbEntity
  8
IMPORT_IGES
100
AcDbLine
 62
7
  6
CONTINUOUS
 10
-20.230080699
 20
20.8390895709
 11
-20.2692363389
 21
20.8354833422
  0
LINE
  5
80D
100
AcDbEntity
  8
IMPORT_IGES
100
AcDbLine
 62
7
  6
CONTINUOUS
 10
-20.2649912505
 20
20.8358600557
 11
-20.3116287667
 21
20.8318746712
  0
LINE
  5
80E
100
AcDbEntity
  8
IMPORT_IGES
100
AcDbLine
 62
7
  6
CONTINUOUS
 10
-24.0934597066
 20
20.7082285706
 11
-24.1420325651
 21
20.7043063841
  0
LINE
  5
80F
100
AcDbEntity
  8
IMPORT_IGES
100
AcDbLine
 62
7
  6
CONTINUOUS
 10
-20.3070389228
 20
20.8322508653
 11
-20.3571838333
 21
20.8282958974
  0
LWPOLYLINE
  5
810
100
AcDbEntity
  8
IMPORT_IGES
100
AcDbPolyline
 62
253
  6
CONTINUOUS
 90
6
 70
0
 10
-20.381118351
 20
20.8265281326
 10
-20.3398987847
 20
20.8278548746
 10
-20.2743463016
 20
20.8330947657
 10
-20.2141269674
 20
20.8384614877
 10
-20.1593921706
 20
20.8439172299
 10
-20.1099905228
 20
20.8494377674
  0
LINE
  5
811
100
AcDbEntity
  8
IMPORT_IGES
100
AcDbLine
 62
7
  6
CONTINUOUS
 10
-20.3522632996
 20
20.8286684014
 11
-20.4058145991
 21
20.8247796114
  0
LINE
  5
812
100
AcDbEntity
  8
IMPORT_IGES
100
AcDbLine
 62
7
  6
CONTINUOUS
 10
-20.4005783649
 20
20.8251443357
 11
-20.4574318251
 21
20.8213563089
  0
LINE
  5
813
100
AcDbEntity
  8
IMPORT_IGES
100
AcDbLine
 62
253
  6
CONTINUOUS
 10
-20.4518896316
 20
20.8217094729
 11
-20.4097519412
 21
20.8228654759
  0
LINE
  5
814
100
AcDbEntity
  8
IMPORT_IGES
100
AcDbLine
 62
7
  6
CONTINUOUS
 10
-20.4518896316
 20
20.8217094729
 11
-20.4843312161
 21
20.8196889372
  0
LINE
  5
815
100
AcDbEntity
  8
IMPORT_IGES
100
AcDbLine
 62
7
  6
CONTINUOUS
 10
-24.0013483003
 20
20.7139791721
 11
-24.0504920713
 21
20.7111623571
  0
LWPOLYLINE
  5
816
100
AcDbEntity
  8
IMPORT_IGES
100
AcDbPolyline
 62
253
  6
CONTINUOUS
 90
22
 70
0
 10
24.1009084775
 20
-19.0183475577
 10
24.0910657072
 20
-19.1105903619
 10
24.0746642178
 20
-19.201919311
 10
24.0517829014
 20
-19.2918682302
 10
24.0225281522
 20
-19.3799926678
 10
23.9870481296
 20
-19.4658256165
 10
23.9455427961
 20
-19.5488842592
 10
23.8982409148
 20
-19.6287287324
 10
23.8453792377
 20
-19.7049751666
 10
23.7872200124
 20
-19.7772517736
 10
23.7240608248
 20
-19.8451916561
 10
23.6562246496
 20
-19.908450119
 10
23.5840439821
 20
-19.9667170204
 10
23.5078851673
 20
-20.0196941452
 10
23.4281349373
 20
-20.0671101492
 10
23.345182418
 20
-20.1087292447
 10
23.2594241035
 20
-20.1443430434
 10
23.1713175741
 20
-20.1737523913
 10
23.081367714
 20
-20.1967893356
 10
22.9900542981
 20
-20.2133400769
 10
22.8978252412
 20
-20.2233323146
 10
22.8051509506
 20
-20.2267218072
  0
LWPOLYLINE
  5
817
100
AcDbEntity
  8
IMPORT_IGES
100
AcDbPolyline
 62
7
  6
CONTINUOUS
 90
22
 70
0
 10
24.4554302589
 20
-19.4785992558
 10
24.4452657671
 20
-19.5718972383
 10
24.4287551367
 20
-19.6632869999
 10
24.4058983676
 20
-19.7527685404
 10
24.376509679
 20
-19.8407710261
 10
24.3407748517
 20
-19.9268652909
 10
24.299251228
 20
-20.0097638362
 10
24.2518559072
 20
-20.0894173056
 10
24.19867179
 20
-20.1658750555
 10
24.1405049205
 20
-20.2379976574
 10
24.0772836001
 20
-20.30572179
 10
24.0090795273
 20
-20.3691107745
 10
23.9369138425
 20
-20.4272151459
 10
23.8607287492
 20
-20.479958788
 10
23.7805820437
 20
-20.5274178169
 10
23.6976682554
 20
-20.5688711169
 10
23.6119467076
 20
-20.6042325412
 10
23.5234580769
 20
-20.6335882365
 10
23.4335189228
 20
-20.656475527
 10
23.3425680983
 20
-20.6727401875
 10
23.2501667504
 20
-20.6825364433
 10
23.156314879
 20
-20.6858642943
  0
LINE
  5
818
100
AcDbEntity
  8
IMPORT_IGES
100
AcDbLine
 62
7
  6
CONTINUOUS
 10
-20.0168017827
 20
20.8963165151
 11
-19.9765018408
 21
20.9075481923
  0
LWPOLYLINE
  5
819
100
AcDbEntity
  8
IMPORT_IGES
100
AcDbPolyline
 62
7
  6
CONTINUOUS
 90
11
 70
0
 10
-20.0384218963
 20
20.8639888415
 10
-20.0383195784
 20
20.8640170217
 10
-20.0395960381
 20
20.8637198939
 10
-20.0425220919
 20
20.8630871357
 10
-20.0466359172
 20
20.862258522
 10
-20.051856637
 20
20.861272665
 10
-20.0582754032
 20
20.8601317091
 10
-20.0656879028
 20
20.8588871813
 10
-20.0740641294
 20
20.8575542765
 10
-20.0834442724
 20
20.8561358563
 10
-20.0937354473
 20
20.854653781
  0
LINE
  5
81A
100
AcDbEntity
  8
IMPORT_IGES
100
AcDbLine
 62
7
  6
CONTINUOUS
 10
-24.3882111022
 20
20.6685445263
 11
-24.4181887519
 21
20.66094624
  0
LINE
  5
81B
100
AcDbEntity
  8
IMPORT_IGES
100
AcDbLine
 62
7
  6
CONTINUOUS
 10
-24.3586079281
 20
20.6750160888
 11
-24.3902515062
 21
20.6680640559
  0
LINE
  5
81C
100
AcDbEntity
  8
IMPORT_IGES
100
AcDbLine
 62
7
  6
CONTINUOUS
 10
-24.327244432
 20
20.680972984
 11
-24.3607982237
 21
20.6745651499
  0
LINE
  5
81D
100
AcDbEntity
  8
IMPORT_IGES
100
AcDbLine
 62
7
  6
CONTINUOUS
 10
-24.2939630256
 20
20.6864745417
 11
-24.3296287471
 21
20.6805450184
  0
ARC
  5
81E
100
AcDbEntity
  8
IMPORT_IGES
100
AcDbCircle
 62
7
  6
CONTINUOUS
 10
-249.8439895394
 20
0.1139569697
 40
274.9982544935
100
AcDbArc
 50
355.914437144
 51
4.0855654209
  0
ARC
  5
81F
100
AcDbEntity
  8
IMPORT_IGES
100
AcDbCircle
 62
253
  6
CONTINUOUS
 10
282.7560104606
 20
0.1139569697
 40
274.6121929257
100
AcDbArc
 50
176.0050949454
 51
177.6257997545
  0
ARC
  5
820
100
AcDbEntity
  8
IMPORT_IGES
100
AcDbCircle
 62
253
  6
CONTINUOUS
 10
282.7560104606
 20
0.1139569697
 40
274.6121929257
100
AcDbArc
 50
182.3741995498
 51
183.9949223216
  0
ARC
  5
821
100
AcDbEntity
  8
IMPORT_IGES
100
AcDbCircle
 62
253
  6
CONTINUOUS
 10
-249.8439895394
 20
0.1139569697
 40
274.6121929257
100
AcDbArc
 50
356.0050769139
 51
3.9949326016
  0
ARC
  5
822
100
AcDbEntity
  8
IMPORT_IGES
100
AcDbCircle
 62
253
  6
CONTINUOUS
 10
-249.8439895394
 20
0.1139569697
 40
273.6123452305
100
AcDbArc
 50
356.0051251545
 51
3.9948733616
  0
ARC
  5
823
100
AcDbEntity
  8
IMPORT_IGES
100
AcDbCircle
 62
253
  6
CONTINUOUS
 10
282.7560104606
 20
0.1139569697
 40
273.6123452305
100
AcDbArc
 50
176.0051247347
 51
183.9948732426
  0
CIRCLE
  5
824
100
AcDbEntity
  8
IMPORT_IGES
100
AcDbCircle
 62
7
  6
CONTINUOUS
 10
16.4560104606
 20
13.1139569697
 40
4.15
  0
CIRCLE
  5
825
100
AcDbEntity
  8
IMPORT_IGES
100
AcDbCircle
 62
7
  6
CONTINUOUS
 10
16.4560104606
 20
0.1139569697
 40
4.15
  0
CIRCLE
  5
826
100
AcDbEntity
  8
IMPORT_IGES
100
AcDbCircle
 62
7
  6
CONTINUOUS
 10
16.4560104606
 20
-12.8860430303
 40
4.15
  0
CIRCLE
  5
827
100
AcDbEntity
  8
IMPORT_IGES
100
AcDbCircle
 62
7
  6
CONTINUOUS
 10
16.4560104606
 20
0.1139569697
 40
4.0
  0
CIRCLE
  5
828
100
AcDbEntity
  8
IMPORT_IGES
100
AcDbCircle
 62
7
  6
CONTINUOUS
 10
16.4560104606
 20
13.1139569697
 40
4.0
  0
CIRCLE
  5
829
100
AcDbEntity
  8
IMPORT_IGES
100
AcDbCircle
 62
7
  6
CONTINUOUS
 10
16.4560104606
 20
-12.8860430303
 40
4.0
  0
CIRCLE
  5
82A
100
AcDbEntity
  8
IMPORT_IGES
100
AcDbCircle
 62
7
  6
CONTINUOUS
 10
16.4560104606
 20
13.1139569697
 40
2.5
  0
CIRCLE
  5
82B
100
AcDbEntity
  8
IMPORT_IGES
100
AcDbCircle
 62
7
  6
CONTINUOUS
 10
16.4560104606
 20
-12.8860430303
 40
2.5
  0
CIRCLE
  5
82C
100
AcDbEntity
  8
IMPORT_IGES
100
AcDbCircle
 62
7
  6
CONTINUOUS
 10
16.4560104606
 20
0.1139569697
 40
2.5
  0
ARC
  5
82D
100
AcDbEntity
  8
IMPORT_IGES
100
AcDbCircle
 62
253
  6
CONTINUOUS
 10
22.8043531203
 20
-18.9270159366
 40
0.2999265674
100
AcDbArc
 50
269.9998578165
 51
356.0148902012
  0
ARC
  5
82E
100
AcDbEntity
  8
IMPORT_IGES
100
AcDbCircle
 62
253
  6
CONTINUOUS
 10
10.1076678597
 20
19.1549298137
 40
0.2999265314
100
AcDbArc
 50
89.9994627578
 51
176.0144961043
  0
ARC
  5
82F
100
AcDbEntity
  8
IMPORT_IGES
100
AcDbCircle
 62
253
  6
CONTINUOUS
 10
22.8043541376
 20
19.1549308094
 40
0.2999248057
100
AcDbArc
 50
3.9835917774
 51
90.0026535342
  0
ARC
  5
830
100
AcDbEntity
  8
IMPORT_IGES
100
AcDbCircle
 62
253
  6
CONTINUOUS
 10
10.1076667815
 20
-18.9270168812
 40
0.2999247618
100
AcDbArc
 50
183.9834810378
 51
270.002660109
  0
ENDSEC
  0
SECTION
  2
OBJECTS
  0
DICTIONARY
  5
C
100
AcDbDictionary
280
0
281
1
  3
ACAD_GROUP
350
D
  3
ACAD_MLINESTYLE
350
17
  3
ACAD_LAYOUT
350
1A
  3
ACAD_PLOTSETTINGS
350
19
  3
ACAD_PLOTSTYLENAME
350
E
  0
DICTIONARY
  5
D
102
{ACAD_REACTORS
330
C
102
}
100
AcDbDictionary
280
0
281
1
  0
ACDBDICTIONARYWDFLT
  5
E
102
{ACAD_REACTORS
330
C
102
}
100
AcDbDictionary
281
1
  3
Normal
350
F
100
AcDbDictionaryWithDefault
340
F
  0
DICTIONARY
  5
17
102
{ACAD_REACTORS
330
C
102
}
100
AcDbDictionary
280
0
281
1
  3
Standard
350
18
  0
DICTIONARY
  5
19
102
{ACAD_REACTORS
330
C
102
}
100
AcDbDictionary
281
1
  0
DICTIONARY
  5
1A
102
{ACAD_REACTORS
330
C
102
}
100
AcDbDictionary
281
1
  3
Model
350
831
  3
Layout1
350
832
  0
ACDBPLACEHOLDER
  5
F
102
{ACAD_REACTORS
330
E
102
}
  0
MLINESTYLE
  5
18
102
{ACAD_REACTORS
330
17
102
}
100
AcDbMlineStyle
  2
STANDARD
 70
0
  3

 62
256
 51
90.0
 52
90.0
 71
2
 49
0.5
 62
256
  6
BYLAYER
 49
-0.5
 62
256
  6
BYLAYER
  0
LAYOUT
  5
831
102
{ACAD_REACTORS
330
1A
102
}
100
AcDbPlotSettings
  1

  2
none_device
  4
ISO_A4_(297.00_x_210.00_MM)
  6

 40
0.0
 41
0.0
 42
0.0
 43
0.0
 44
297.0
 45
210.0
 46
0.0
 47
0.0
 48
0.0
 49
0.0
140
0.0
141
0.0
142
1.0
143
1.0
 70
1024
 72
1
 73
0
 74
0
  7

 75
0
147
1.0
148
0.0
149
0.0
100
AcDbLayout
  1
Model
 70
0
 71
0
 10
0.0
 20
0.0
 11
297.0
 21
210.0
 12
0.0
 22
0.0
 32
0.0
 14
0.0
 24
0.0
 34
0.0
 15
0.0
 25
0.0
 35
0.0
146
0.0
 13
0.0
 23
0.0
 33
0.0
 16
1.0
 26
0.0
 36
0.0
 17
0.0
 27
1.0
 37
0.0
 76
0
330
20F
345
0
346
0
  0
LAYOUT
  5
832
102
{ACAD_REACTORS
330
1A
102
}
100
AcDbPlotSettings
  1

  2
none_device
  4
ISO_A4_(297.00_x_210.00_MM)
  6

 40
0.0
 41
0.0
 42
0.0
 43
0.0
 44
297.0
 45
210.0
 46
0.0
 47
0.0
 48
0.0
 49
0.0
140
0.0
141
0.0
142
1.0
143
1.0
 70
0
 72
1
 73
0
 74
0
  7

 75
0
147
1.0
148
0.0
149
0.0
100
AcDbLayout
  1
Layout1
 70
0
 71
1
 10
0.0
 20
0.0
 11
297.0
 21
210.0
 12
0.0
 22
0.0
 32
0.0
 14
0.0
 24
0.0
 34
0.0
 15
0.0
 25
0.0
 35
0.0
146
0.0
 13
0.0
 23
0.0
 33
0.0
 16
1.0
 26
0.0
 36
0.0
 17
0.0
 27
1.0
 37
0.0
 76
0
330
210
345
0
346
0
  0
ENDSEC
  0
EOF
