  0
SECTION
  2
HEADER
  9
$ACADVER
  1
AC1021
  9
$DWGCODEPAGE
  3
ANSI_1252
  9
$EXTMAX
 10
297.0
 20
210.0
 30
0.0
  9
$EXTMIN
 10
0.0
 20
0.0
 30
0.0
  9
$LIMMIN
 10
0.0
 20
0.0
  9
$LIMMAX
 10
297.0
 20
210.0
  9
$VIEWCTR
 10
148.5
 20
105.0
  9
$VIEWSIZE
 40
210.0
  9
$CLAYER
  8
0
  9
$LTSCALE
 40
16.335
  9
$CELTYPE
  6
BYLAYER
  9
$DIMSCALE
 40
1.0
  9
$DIMASZ
 40
3.0
  9
$DIMEXO
 40
0.5
  9
$DIMDLI
 40
11.286
  9
$DIMEXE
 40
1.5
  9
$DIMCEN
 40
2.673
  9
$DIMLFAC
 40
1.0
  9
$DIMBLK
  1
_FILLED
  9
$DIMALT
 70
0
  9
$DIMALTF
 40
25.4
  9
$DIMTXT
 40
3.0
  9
$DIMTOL
 70
1
  9
$DIMLIM
 70
0
  9
$DIMTFAC
 40
1.0
  9
$DIMTP
 40
0.01
  9
$DIMTM
 40
0.01
  9
$DIMGAP
 40
0.625
  9
$DIMDSEP
 70
44
  9
$AUNITS
 70
0
  9
$PDMODE
 70
3
  9
$PDSIZE
 40
3.0
  9
$HANDSEED
  5
7F0
  9
$TILEMODE
 70
1
  9
$MEASUREMENT
 70
1
  9
$INSUNITS
 70
4
  0
ENDSEC
  0
SECTION
  2
CLASSES
  0
CLASS
  1
ACDBDICTIONARYWDFLT
  2
AcDbDictionaryWithDefault
  3
AutoCAD 2000
 90
0
 91
1
280
0
281
0
  0
CLASS
  1
ACDBPLACEHOLDER
  2
AcDbPlaceHolder
  3
AutoCAD 2000
 90
0
 91
1
280
0
281
0
  0
CLASS
  1
LAYOUT
  2
AcDbLayout
  3
AutoCAD 2000
 90
0
 91
0
280
0
281
0
  0
ENDSEC
  0
SECTION
  2
TABLES
  0
TABLE
  2
VPORT
  5
8
100
AcDbSymbolTable
 70
2
  0
VPORT
  5
1F4
100
AcDbSymbolTableRecord
100
AcDbViewportTableRecord
  2
*ACTIVE
 70
0
 10
0.0
 20
0.0
 11
1.0
 21
1.0
 12
148.5
 22
105.0
 13
0.0
 23
0.0
 14
1.0
 24
1.0
 15
0.0
 25
0.0
 16
0.0
 26
0.0
 36
1.0
 17
0.0
 27
0.0
 37
0.0
 40
210.0
 41
1.4142857143
 42
50.0
 43
0.0
 44
0.0
 50
0.0
 51
0.0
 71
0
 72
100
 73
1
 74
1
 75
0
 76
0
 77
0
 78
0
  0
ENDTAB
  0
TABLE
  2
LTYPE
  5
5
100
AcDbSymbolTable
 70
6
  0
LTYPE
  5
14
100
AcDbSymbolTableRecord
100
AcDbLinetypeTableRecord
  2
BYBLOCK
 70
0
  3

 72
65
 73
0
 40
0.0
  0
LTYPE
  5
15
100
AcDbSymbolTableRecord
100
AcDbLinetypeTableRecord
  2
BYLAYER
 70
0
  3

 72
65
 73
0
 40
0.0
  0
LTYPE
  5
16
100
AcDbSymbolTableRecord
100
AcDbLinetypeTableRecord
  2
CONTINUOUS
 70
64
  3
Solid line
 72
65
 73
0
 40
0.0
  0
LTYPE
  5
1F5
100
AcDbSymbolTableRecord
100
AcDbLinetypeTableRecord
  2
CENTER
 70
64
  3
____ _ ____ _ ____ _ ____ _ ____ _ ____ _ ____
 72
65
 73
4
 40
0.6
 49
0.375
 74
0
 49
-0.075
 74
0
 49
0.075
 74
0
 49
-0.075
 74
0
  0
LTYPE
  5
1F6
100
AcDbSymbolTableRecord
100
AcDbLinetypeTableRecord
  2
HIDDEN
 70
64
  3
- - - - - - - - - - - - - - - - - - - -
 72
65
 73
2
 40
0.2
 49
0.1
 74
0
 49
-0.1
 74
0
  0
LTYPE
  5
1F7
100
AcDbSymbolTableRecord
100
AcDbLinetypeTableRecord
  2
PHANTOM
 70
64
  3
_____ _ _ _____ _ _ _____ _ _ _____
 72
65
 73
6
 40
0.8
 49
0.45
 74
0
 49
-0.05
 74
0
 49
0.1
 74
0
 49
-0.05
 74
0
 49
0.1
 74
0
 49
-0.05
 74
0
  0
LTYPE
  5
1F8
100
AcDbSymbolTableRecord
100
AcDbLinetypeTableRecord
  2
DOT
 70
64
  3
. . . . . . . . . . . . . . . . . . . .
 72
65
 73
2
 40
0.2
 49
0.1
 74
0
 49
-0.1
 74
0
  0
LTYPE
  5
1F9
100
AcDbSymbolTableRecord
100
AcDbLinetypeTableRecord
  2
DASHED
 70
64
  3
- - - - - - - - - - - - - - - - - - - -
 72
65
 73
2
 40
0.2
 49
0.1
 74
0
 49
-0.1
 74
0
  0
ENDTAB
  0
TABLE
  2
LAYER
  5
2
100
AcDbSymbolTable
 70
36
  0
LAYER
  5
10
100
AcDbSymbolTableRecord
100
AcDbLayerTableRecord
  2
0
 70
0
 62
7
  6
CONTINUOUS
370
-3
390
F
  0
LAYER
  5
1FA
100
AcDbSymbolTableRecord
100
AcDbLayerTableRecord
  2
DEFAULT_1
 70
0
 62
7
  6
CENTER
370
-3
390
F
  0
LAYER
  5
1FB
100
AcDbSymbolTableRecord
100
AcDbLayerTableRecord
  2
DEFAULT_2
 70
0
 62
7
  6
HIDDEN
370
-3
390
F
  0
LAYER
  5
1FC
100
AcDbSymbolTableRecord
100
AcDbLayerTableRecord
  2
DEFAULT_3
 70
0
 62
7
  6
PHANTOM
370
-3
390
F
  0
LAYER
  5
1FD
100
AcDbSymbolTableRecord
100
AcDbLayerTableRecord
  2
ASSI
 70
0
 62
7
  6
CONTINUOUS
370
-3
390
F
  0
LAYER
  5
1FE
100
AcDbSymbolTableRecord
100
AcDbLayerTableRecord
  2
COORDINATE
 70
0
 62
7
  6
CONTINUOUS
370
-3
390
F
  0
LAYER
  5
1FF
100
AcDbSymbolTableRecord
100
AcDbLayerTableRecord
  2
COPY_PUBLISH
 70
0
 62
7
  6
CONTINUOUS
370
-3
390
F
  0
LAYER
  5
200
100
AcDbSymbolTableRecord
100
AcDbLayerTableRecord
  2
COSMETICI
 70
0
 62
7
  6
CONTINUOUS
370
-3
390
F
  0
LAYER
  5
201
100
AcDbSymbolTableRecord
100
AcDbLayerTableRecord
  2
CURVE
 70
0
 62
7
  6
CONTINUOUS
370
-3
390
F
  0
LAYER
  5
202
100
AcDbSymbolTableRecord
100
AcDbLayerTableRecord
  2
DRAFT
 70
0
 62
7
  6
CONTINUOUS
370
-3
390
F
  0
LAYER
  5
203
100
AcDbSymbolTableRecord
100
AcDbLayerTableRecord
  2
IMPORT_IGES
 70
0
 62
7
  6
CONTINUOUS
370
-3
390
F
  0
LAYER
  5
204
100
AcDbSymbolTableRecord
100
AcDbLayerTableRecord
  2
NOTE
 70
0
 62
7
  6
CONTINUOUS
370
-3
390
F
  0
LAYER
  5
205
100
AcDbSymbolTableRecord
100
AcDbLayerTableRecord
  2
PIANI
 70
0
 62
7
  6
CONTINUOUS
370
-3
390
F
  0
LAYER
  5
206
100
AcDbSymbolTableRecord
100
AcDbLayerTableRecord
  2
PUNTI
 70
0
 62
7
  6
CONTINUOUS
370
-3
390
F
  0
LAYER
  5
207
100
AcDbSymbolTableRecord
100
AcDbLayerTableRecord
  2
RACCORDO
 70
0
 62
7
  6
CONTINUOUS
370
-3
390
F
  0
LAYER
  5
208
100
AcDbSymbolTableRecord
100
AcDbLayerTableRecord
  2
SIMBOLI
 70
0
 62
7
  6
CONTINUOUS
370
-3
390
F
  0
LAYER
  5
209
100
AcDbSymbolTableRecord
100
AcDbLayerTableRecord
  2
SMUSSO
 70
0
 62
7
  6
CONTINUOUS
370
-3
390
F
  0
LAYER
  5
20A
100
AcDbSymbolTableRecord
100
AcDbLayerTableRecord
  2
SNAPLINE
 70
0
 62
7
  6
CONTINUOUS
370
-3
390
F
  0
LAYER
  5
20B
100
AcDbSymbolTableRecord
100
AcDbLayerTableRecord
  2
SUPERFICI
 70
0
 62
7
  6
CONTINUOUS
370
-3
390
F
  0
LAYER
  5
20C
100
AcDbSymbolTableRecord
100
AcDbLayerTableRecord
  2
TRASH
 70
0
 62
7
  6
CONTINUOUS
370
-3
390
F
  0
ENDTAB
  0
TABLE
  2
STYLE
  5
3
100
AcDbSymbolTable
 70
1
  0
STYLE
  5
11
100
AcDbSymbolTableRecord
100
AcDbTextStyleTableRecord
  2
STANDARD
 70
0
 40
0.0
 41
0.8
 50
0.0
 71
0
 42
0.2
  3
txt
  4

  0
STYLE
  5
20D
100
AcDbSymbolTableRecord
100
AcDbTextStyleTableRecord
  2
TEXTSTYLE_1
 70
0
 40
0.0
 41
0.8
 50
0.0
 71
0
 42
0.2
  3
gdt
  4

  0
ENDTAB
  0
TABLE
  2
VIEW
  5
6
100
AcDbSymbolTable
 70
0
  0
ENDTAB
  0
TABLE
  2
UCS
  5
7
100
AcDbSymbolTable
 70
0
  0
ENDTAB
  0
TABLE
  2
APPID
  5
9
100
AcDbSymbolTable
 70
1
  0
APPID
  5
20E
100
AcDbSymbolTableRecord
100
AcDbRegAppTableRecord
  2
ACAD
 70
0
  0
ENDTAB
  0
TABLE
  2
BLOCK_RECORD
  5
1
100
AcDbSymbolTable
 70
0
  0
BLOCK_RECORD
  5
20F
100
AcDbSymbolTableRecord
100
AcDbBlockTableRecord
  2
*Model_Space
  0
BLOCK_RECORD
  5
210
100
AcDbSymbolTableRecord
100
AcDbBlockTableRecord
  2
*Paper_Space
  0
ENDTAB
  0
TABLE
  2
DIMSTYLE
  5
A
100
AcDbSymbolTable
 70
1
100
AcDbDimStyleTable
 71
0
  0
DIMSTYLE
105
211
100
AcDbSymbolTableRecord
100
AcDbDimStyleTableRecord
  2
STANDARD
 70
0
  3

  4

 40
1.0
 41
3.0
 42
0.5
 43
0.38
 44
1.5
 45
0.0
 46
0.0
 47
0.01
 48
0.01
140
3.0
141
0.09
142
0.0
143
25.4
144
1.0
145
0.0
146
1.0
147
0.625
 71
1.0
 72
0.0
 73
0
 74
0
 75
0
 76
0
 77
1
 78
8
170
0
171
1
172
0
173
0
174
0
175
0
176
0
177
0
178
0
270
2
271
2
272
2
273
2
274
2
275
0
280
0
281
0
282
0
283
1
284
8
285
0
286
0
287
3
288
0
340
11
278
44
  0
ENDTAB
  0
ENDSEC
  0
SECTION
  2
BLOCKS
  0
BLOCK
  5
20
100
AcDbEntity
  8
0
100
AcDbBlockBegin
  2
*Model_Space
 70
0
 10
0.0
 20
0.0
 30
0.0
  3
*Model_Space
  1

  0
ENDBLK
  5
21
100
AcDbEntity
  8
0
100
AcDbBlockEnd
  0
BLOCK
  5
1C
100
AcDbEntity
  8
0
100
AcDbBlockBegin
  2
*Paper_Space
 70
0
 10
0.0
 20
0.0
 30
0.0
  3
*Paper_Space
  1

  0
ENDBLK
  5
1D
100
AcDbEntity
  8
0
100
AcDbBlockEnd
  0
ENDSEC
  0
SECTION
  2
ENTITIES
  0
LWPOLYLINE
  5
212
100
AcDbEntity
  8
IMPORT_IGES
100
AcDbPolyline
 62
253
  6
CONTINUOUS
 90
19
 70
0
 10
-26.1943952269
 20
-13.6986569718
 10
-26.1895582615
 20
-13.7057448519
 10
-26.1780947346
 20
-13.7127154967
 10
-26.1602780942
 20
-13.7195244798
 10
-26.1365527484
 20
-13.7260977533
 10
-26.107181368
 20
-13.732432568
 10
-26.0719436029
 20
-13.738587781
 10
-26.0307880029
 20
-13.7445461563
 10
-25.9840359699
 20
-13.7502383538
 10
-25.9317868216
 20
-13.7556347747
 10
-25.874162635
 20
-13.7607014625
 10
-25.8115409959
 20
-13.7653855322
 10
-25.7444826578
 20
-13.7696326317
 10
-25.6735152559
 20
-13.773402973
 10
-25.5989830328
 20
-13.7766722154
 10
-25.5212566754
 20
-13.7794153499
 10
-25.4408018876
 20
-13.7816056765
 10
-25.3581909676
 20
-13.7832175913
 10
-25.2739904606
 20
-13.7842306083
  0
LINE
  5
213
100
AcDbEntity
  8
IMPORT_IGES
100
AcDbLine
 62
7
  6
CONTINUOUS
 10
-26.3199005093
 20
13.875946374
 11
-26.313758322
 21
13.6639909792
  0
LINE
  5
214
100
AcDbEntity
  8
IMPORT_IGES
100
AcDbLine
 62
7
  6
CONTINUOUS
 10
-26.313758322
 20
13.6639909792
 11
-26.3080681314
 21
13.4129327661
  0
LINE
  5
215
100
AcDbEntity
  8
IMPORT_IGES
100
AcDbLine
 62
7
  6
CONTINUOUS
 10
-26.3080681314
 20
13.4129327661
 11
-26.3005662651
 21
12.9710280595
  0
LINE
  5
216
100
AcDbEntity
  8
IMPORT_IGES
100
AcDbLine
 62
253
  6
CONTINUOUS
 10
-26.1962431148
 20
16.3011415217
 11
-26.1954579744
 21
16.2502720753
  0
LINE
  5
217
100
AcDbEntity
  8
IMPORT_IGES
100
AcDbLine
 62
7
  6
CONTINUOUS
 10
-26.3005662651
 20
12.9710280595
 11
-26.2928167031
 21
12.2805594513
  0
LINE
  5
218
100
AcDbEntity
  8
IMPORT_IGES
100
AcDbLine
 62
253
  6
CONTINUOUS
 10
-26.1954579744
 20
16.2502720753
 11
-26.194856391
 21
16.1882143973
  0
LINE
  5
219
100
AcDbEntity
  8
IMPORT_IGES
100
AcDbLine
 62
7
  6
CONTINUOUS
 10
-26.2928167031
 20
12.2805594513
 11
-26.287995438
 21
11.5068442862
  0
LINE
  5
21A
100
AcDbEntity
  8
IMPORT_IGES
100
AcDbLine
 62
253
  6
CONTINUOUS
 10
-26.194856391
 20
16.1882143973
 11
-26.1943952132
 21
16.0811709221
  0
LINE
  5
21B
100
AcDbEntity
  8
IMPORT_IGES
100
AcDbLine
 62
253
  6
CONTINUOUS
 10
-26.1943952132
 20
16.0811709221
 11
-26.1881786292
 21
11.124017583
  0
LINE
  5
21C
100
AcDbEntity
  8
IMPORT_IGES
100
AcDbLine
 62
253
  6
CONTINUOUS
 10
-25.2655493969
 20
8.6859323444
 11
-25.2738974115
 21
16.166744624
  0
LINE
  5
21D
100
AcDbEntity
  8
IMPORT_IGES
100
AcDbLine
 62
253
  6
CONTINUOUS
 10
-26.1881786292
 20
11.124017583
 11
-26.1844477872
 21
6.1602004208
  0
LINE
  5
21E
100
AcDbEntity
  8
IMPORT_IGES
100
AcDbLine
 62
7
  6
CONTINUOUS
 10
-26.3491987413
 20
-11.508729053
 11
-26.3491987413
 21
13.8912443892
  0
LINE
  5
21F
100
AcDbEntity
  8
IMPORT_IGES
100
AcDbLine
 62
7
  6
CONTINUOUS
 10
-26.3474513999
 20
-11.9073461835
 11
-26.3474513999
 21
-14.6642259482
  0
LINE
  5
220
100
AcDbEntity
  8
IMPORT_IGES
100
AcDbLine
 62
7
  6
CONTINUOUS
 10
-26.3474304693
 20
17.0465891939
 11
-26.3474304693
 21
14.2898589978
  0
LINE
  5
221
100
AcDbEntity
  8
IMPORT_IGES
100
AcDbLine
 62
7
  6
CONTINUOUS
 10
-26.287995438
 20
11.5068442862
 11
-26.2863602656
 21
-8.3088474925
  0
LINE
  5
222
100
AcDbEntity
  8
IMPORT_IGES
100
AcDbLine
 62
253
  6
CONTINUOUS
 10
-26.1844477872
 20
6.1602004208
 11
-26.1832032688
 21
1.191257241
  0
LINE
  5
223
100
AcDbEntity
  8
IMPORT_IGES
100
AcDbLine
 62
253
  6
CONTINUOUS
 10
-25.2627342374
 20
1.1912573964
 11
-25.2655493969
 21
8.6859323444
  0
LINE
  5
224
100
AcDbEntity
  8
IMPORT_IGES
100
AcDbLine
 62
253
  6
CONTINUOUS
 10
-26.1832032688
 20
1.191257241
 11
-26.184447788
 21
-3.7776859886
  0
LINE
  5
225
100
AcDbEntity
  8
IMPORT_IGES
100
AcDbLine
 62
253
  6
CONTINUOUS
 10
-25.2655494308
 20
-6.3034183851
 11
-25.2627342374
 21
1.1912573964
  0
LINE
  5
226
100
AcDbEntity
  8
IMPORT_IGES
100
AcDbLine
 62
253
  6
CONTINUOUS
 10
-26.184447788
 20
-3.7776859886
 11
-26.1881786304
 21
-8.7415029474
  0
LINE
  5
227
100
AcDbEntity
  8
IMPORT_IGES
100
AcDbLine
 62
253
  6
CONTINUOUS
 10
-25.2739199409
 20
-13.7842277101
 11
-25.2655494308
 21
-6.3034183851
  0
LINE
  5
228
100
AcDbEntity
  8
IMPORT_IGES
100
AcDbLine
 62
7
  6
CONTINUOUS
 10
-26.2863605074
 20
-8.3090278539
 11
-26.2879955207
 21
-9.1243514078
  0
LINE
  5
229
100
AcDbEntity
  8
IMPORT_IGES
100
AcDbLine
 62
253
  6
CONTINUOUS
 10
-26.1947218473
 20
-13.7858453922
 11
-26.1881786304
 21
-8.7415029474
  0
LINE
  5
22A
100
AcDbEntity
  8
IMPORT_IGES
100
AcDbLine
 62
7
  6
CONTINUOUS
 10
-26.2879955207
 20
-9.1243514078
 11
-26.2928168332
 21
-9.8980593208
  0
LINE
  5
22B
100
AcDbEntity
  8
IMPORT_IGES
100
AcDbLine
 62
253
  6
CONTINUOUS
 10
-26.1953806724
 20
-13.8614711268
 11
-26.1947218473
 21
-13.7858453922
  0
LINE
  5
22C
100
AcDbEntity
  8
IMPORT_IGES
100
AcDbLine
 62
7
  6
CONTINUOUS
 10
-26.2928168332
 20
-9.8980593208
 11
-26.3005664137
 21
-10.5885231506
  0
LINE
  5
22D
100
AcDbEntity
  8
IMPORT_IGES
100
AcDbLine
 62
253
  6
CONTINUOUS
 10
-26.1959881168
 20
-13.9044265282
 11
-26.1953806724
 21
-13.8614711268
  0
LINE
  5
22E
100
AcDbEntity
  8
IMPORT_IGES
100
AcDbLine
 62
7
  6
CONTINUOUS
 10
-26.3005664137
 20
-10.5885231506
 11
-26.3080682765
 21
-11.0304246405
  0
LINE
  5
22F
100
AcDbEntity
  8
IMPORT_IGES
100
AcDbLine
 62
7
  6
CONTINUOUS
 10
-26.3080682765
 20
-11.0304246405
 11
-26.3137584569
 21
-11.2814809256
  0
LINE
  5
230
100
AcDbEntity
  8
IMPORT_IGES
100
AcDbLine
 62
7
  6
CONTINUOUS
 10
-26.3137584569
 20
-11.2814809256
 11
-26.3199006285
 21
-11.4934346332
  0
LWPOLYLINE
  5
231
100
AcDbEntity
  8
IMPORT_IGES
100
AcDbPolyline
 62
7
  6
CONTINUOUS
 90
9
 70
0
 10
-26.3199006285
 20
-11.4934346332
 10
-26.3231307064
 20
-11.5842933249
 10
-26.326434981
 20
-11.6642202433
 10
-26.3298141756
 20
-11.7331094595
 10
-26.3332675669
 20
-11.7910669023
 10
-26.3367615308
 20
-11.8375246761
 10
-26.3402848594
 20
-11.8722934823
 10
-26.3438487606
 20
-11.8955626194
 10
-26.3474532345
 20
-11.9073320875
  0
LWPOLYLINE
  5
232
100
AcDbEntity
  8
IMPORT_IGES
100
AcDbPolyline
 62
7
  6
CONTINUOUS
 90
16
 70
0
 10
-26.3474304693
 20
17.0465891939
 10
-26.3444604985
 20
17.122190211
 10
-26.3360485311
 20
17.196532338
 10
-26.3221945673
 20
17.2696155748
 10
-26.3027634379
 20
17.3418297117
 10
-26.277890312
 20
17.4127849585
 10
-26.247980697
 20
17.4813119441
 10
-26.2129469976
 20
17.5473748976
 10
-26.1728768091
 20
17.61100959
 10
-26.1284384254
 20
17.6711539629
 10
-26.0795625861
 20
17.7277453739
 10
-26.0263185514
 20
17.7808464655
 10
-25.9695823965
 20
17.8295831071
 10
-25.9096461463
 20
17.8736639219
 10
-25.8462177758
 20
17.9133802868
 10
-25.779297285
 20
17.9487322018
  0
LWPOLYLINE
  5
233
100
AcDbEntity
  8
IMPORT_IGES
100
AcDbPolyline
 62
253
  6
CONTINUOUS
 90
22
 70
0
 10
-20.6352745861
 20
17.7484795261
 10
-20.630386212
 20
17.757139342
 10
-20.6189553436
 20
17.7657553931
 10
-20.6010397529
 20
17.7742841472
 10
-20.5767299838
 20
17.782682511
 10
-20.5461488727
 20
17.7909080554
 10
-20.5094509089
 20
17.7989192292
 10
-20.4668214924
 20
17.8066755589
 10
-20.4184760154
 20
17.8141378537
 10
-20.3646587402
 20
17.8212684109
 10
-20.3056415748
 20
17.8280312039
 10
-20.2417226992
 20
17.834392064
 10
-20.173225059
 20
17.8403188535
 10
-20.1004947338
 20
17.8457816278
 10
-20.0238991884
 20
17.8507527864
 10
-19.9438254163
 20
17.8552072131
 10
-19.8606729373
 20
17.8591226194
 10
-19.7748666042
 20
17.8624789389
 10
-19.6868559363
 20
17.8652587667
 10
-19.5970919726
 20
17.8674482612
 10
-19.5060235524
 20
17.869036871
 10
-19.4141108843
 20
17.8700169031
  0
LWPOLYLINE
  5
234
100
AcDbEntity
  8
IMPORT_IGES
100
AcDbPolyline
 62
253
  6
CONTINUOUS
 90
16
 70
0
 10
-25.6284299118
 20
17.2599670787
 10
-25.6947653038
 20
17.2255925674
 10
-25.758337553
 20
17.1864166822
 10
-25.818788194
 20
17.1426556877
 10
-25.8757802187
 20
17.0945478563
 10
-25.9289862902
 20
17.0423634573
 10
-25.9780937159
 20
16.9864064046
 10
-26.0228234223
 20
16.9269956994
 10
-26.0629283722
 20
16.8644605606
 10
-26.0981834343
 20
16.7991520324
 10
-26.1283907026
 20
16.7314367277
 10
-26.1533806069
 20
16.6616947697
 10
-26.1730128652
 20
16.5903176586
 10
-26.1871772707
 20
16.5177060734
 10
-26.1957943109
 20
16.444267623
 10
-26.1988156135
 20
16.370414558
  0
LWPOLYLINE
  5
235
100
AcDbEntity
  8
IMPORT_IGES
100
AcDbPolyline
 62
253
  6
CONTINUOUS
 90
10
 70
0
 10
-25.6283246837
 20
-14.8774591702
 10
-25.2283939276
 20
-15.065977112
 10
-24.8270877039
 20
-15.2515492776
 10
-24.4244274513
 20
-15.4341658757
 10
-24.0204368442
 20
-15.6138161829
 10
-23.615135292
 20
-15.7904918235
 10
-23.2085378589
 20
-15.9641866095
 10
-22.8006639691
 20
-16.1348922404
 10
-22.3915374848
 20
-16.302598465
 10
-21.9811801495
 20
-16.4672962493
  0
LWPOLYLINE
  5
236
100
AcDbEntity
  8
IMPORT_IGES
100
AcDbPolyline
 62
253
  6
CONTINUOUS
 90
16
 70
0
 10
-25.6283249357
 20
-14.8774598843
 10
-25.694767176
 20
-14.8430246408
 10
-25.758402559
 20
-14.8037953442
 10
-25.8188763423
 20
-14.7599967334
 10
-25.8758481238
 20
-14.7118824474
 10
-25.9290061178
 20
-14.6597233291
 10
-25.978066052
 20
-14.6038030282
 10
-26.0227537346
 20
-14.544436585
 10
-26.0628204568
 20
-14.4819571543
 10
-26.0980509915
 20
-14.4166995366
 10
-26.1282458788
 20
-14.3490278688
 10
-26.1532332886
 20
-14.2793210374
 10
-26.1728744857
 20
-14.2079532418
 10
-26.1870540931
 20
-14.135318061
 10
-26.1956847215
 20
-14.0618275859
 10
-26.1987116907
 20
-13.9878942645
  0
LWPOLYLINE
  5
237
100
AcDbEntity
  8
IMPORT_IGES
100
AcDbPolyline
 62
7
  6
CONTINUOUS
 90
16
 70
0
 10
-25.7794854923
 20
-15.5661314024
 10
-25.846359704
 20
-15.5308276478
 10
-25.9097535581
 20
-15.4911475299
 10
-25.9696670547
 20
-15.4470910488
 10
-26.0263961837
 20
-15.3983627766
 10
-26.0796449553
 20
-15.3452581411
 10
-26.1285253992
 20
-15.288663426
 10
-26.1729641879
 20
-15.2285201697
 10
-26.2130346489
 20
-15.1648868338
 10
-26.2480687956
 20
-15.0988250867
 10
-26.2779818805
 20
-15.030294572
 10
-26.3028586511
 20
-14.9593356461
 10
-26.3222853628
 20
-14.8871310469
 10
-26.3361241007
 20
-14.8140750206
 10
-26.3445127797
 20
-14.739773321
 10
-26.3474513999
 20
-14.6642259482
  0
LWPOLYLINE
  5
238
100
AcDbEntity
  8
IMPORT_IGES
100
AcDbPolyline
 62
253
  6
CONTINUOUS
 90
25
 70
0
 10
-21.5901842515
 20
-15.3996209184
 10
-21.512213818
 20
-15.4685868042
 10
-21.4389903671
 20
-15.5296339734
 10
-21.3709622543
 20
-15.5829902817
 10
-21.3099848195
 20
-15.6279105387
 10
-21.2546003253
 20
-15.6661836597
 10
-21.2002875091
 20
-15.7012073916
 10
-21.1458003582
 20
-15.7336146518
 10
-21.0929876512
 20
-15.7621538195
 10
-21.0421843414
 20
-15.7866191913
 10
-20.9935177482
 20
-15.8068992402
 10
-20.9474350152
 20
-15.8227606791
 10
-20.9046502092
 20
-15.8339939213
 10
-20.8650997588
 20
-15.8406630123
 10
-20.8291247175
 20
-15.8428612097
 10
-20.797640008
 20
-15.8409852234
 10
-20.7712432219
 20
-15.8358867264
 10
-20.7486137994
 20
-15.8280053449
 10
-20.7280222039
 20
-15.8168073831
 10
-20.7094734048
 20
-15.8018874504
 10
-20.6934726062
 20
-15.7833295129
 10
-20.6798811986
 20
-15.7603872614
 10
-20.6691082302
 20
-15.7324599378
 10
-20.6617894082
 20
-15.6994403091
 10
-20.6584103485
 20
-15.6610907369
  0
LWPOLYLINE
  5
239
100
AcDbEntity
  8
IMPORT_IGES
100
AcDbPolyline
 62
253
  6
CONTINUOUS
 90
6
 70
0
 10
-26.1987127816
 20
16.3704133419
 10
-26.1981794881
 20
16.3635131122
 10
-26.1976672476
 20
16.3531655086
 10
-26.19717606
 20
16.339370531
 10
-26.1966990609
 20
16.3219797133
 10
-26.1962431148
 20
16.3011415217
  0
LWPOLYLINE
  5
23A
100
AcDbEntity
  8
IMPORT_IGES
100
AcDbPolyline
 62
253
  6
CONTINUOUS
 90
7
 70
0
 10
-26.1987125184
 20
-13.9878924722
 10
-26.198291494
 20
-13.9828057699
 10
-26.197880049
 20
-13.9754296463
 10
-26.1974781833
 20
-13.9657641014
 10
-26.1970817298
 20
-13.9537432781
 10
-26.1966948556
 20
-13.9394330334
 10
-26.1959881168
 20
-13.9044265282
  0
LWPOLYLINE
  5
23B
100
AcDbEntity
  8
IMPORT_IGES
100
AcDbPolyline
 62
253
  6
CONTINUOUS
 90
10
 70
0
 10
-26.1987125184
 20
-13.9878924722
 10
-26.2151209308
 20
-14.1352927062
 10
-26.2315634695
 20
-14.2646506875
 10
-26.2480401345
 20
-14.3759664162
 10
-26.264556983
 20
-14.4692674242
 10
-26.2811079579
 20
-14.5445261796
 10
-26.2976748876
 20
-14.6016600866
 10
-26.314251715
 20
-14.6406416132
 10
-26.3308444973
 20
-14.6614982915
 10
-26.3474532345
 20
-14.6642301214
  0
LWPOLYLINE
  5
23C
100
AcDbEntity
  8
IMPORT_IGES
100
AcDbPolyline
 62
253
  6
CONTINUOUS
 90
22
 70
0
 10
-15.924341403
 20
18.2877145378
 10
-15.9306516968
 20
18.283334468
 10
-15.9428205815
 20
18.2813901836
 10
-15.9607053961
 20
18.2818802212
 10
-15.9839104674
 20
18.2847352272
 10
-16.0121772556
 20
18.2898618578
 10
-16.0457285522
 20
18.2972850029
 10
-16.0844643626
 20
18.3069944976
 10
-16.128027252
 20
18.3189038872
 10
-16.176600396
 20
18.3330701228
 10
-16.2299074429
 20
18.3494254812
 10
-16.2876158457
 20
18.3678745564
 10
-16.3500147201
 20
18.3885224742
 10
-16.4169141697
 20
18.4113265592
 10
-16.4877304176
 20
18.4361021488
 10
-16.5622127882
 20
18.4627713749
 10
-16.639687473
 20
18.4910991906
 10
-16.7196694227
 20
18.5209094805
 10
-16.8021641434
 20
18.5522086004
 10
-16.8867143981
 20
18.5848307294
 10
-16.9723906336
 20
18.6184194937
 10
-17.0584645331
 20
18.6526844695
  0
LWPOLYLINE
  5
23D
100
AcDbEntity
  8
IMPORT_IGES
100
AcDbPolyline
 62
253
  6
CONTINUOUS
 90
10
 70
0
 10
-25.2738974115
 20
16.166744624
 10
-24.8704235758
 20
16.3584638234
 10
-24.4654737419
 20
16.5471328408
 10
-24.0590488898
 20
16.732752317
 10
-23.6511273323
 20
16.9153352058
 10
-23.2417325633
 20
17.0948698528
 10
-22.8309332632
 20
17.2713200053
 10
-22.4187528328
 20
17.4446740348
 10
-22.0051693893
 20
17.614944924
 10
-21.5901836177
 20
17.7821333535
  0
LWPOLYLINE
  5
23E
100
AcDbEntity
  8
IMPORT_IGES
100
AcDbPolyline
 62
253
  6
CONTINUOUS
 90
10
 70
0
 10
-21.9811810004
 20
18.8498113853
 10
-22.3915398037
 20
18.6851128784
 10
-22.8006677461
 20
18.5174059071
 10
-23.2085430839
 20
18.3466995057
 10
-23.6151446075
 20
18.1730027897
 10
-24.0204502227
 20
17.9963251558
 10
-24.4244369568
 20
17.8166763179
 10
-24.8270828517
 20
17.634066024
 10
-25.2283669583
 20
17.4485040186
 10
-25.6282679216
 20
17.2600002677
  0
LWPOLYLINE
  5
23F
100
AcDbEntity
  8
IMPORT_IGES
100
AcDbPolyline
 62
253
  6
CONTINUOUS
 90
19
 70
0
 10
-19.7900578814
 20
19.2424846078
 10
-19.872937279
 20
19.2104823313
 10
-19.9529317882
 20
19.1732518315
 10
-20.0297173509
 20
19.1310616315
 10
-20.1027713574
 20
19.0843508911
 10
-20.1720668962
 20
19.0332940049
 10
-20.237963918
 20
18.9776560532
 10
-20.3002859408
 20
18.9174830034
 10
-20.3585354501
 20
18.8531451709
 10
-20.4124888084
 20
18.7847829109
 10
-20.4618885988
 20
18.7125644396
 10
-20.5063602809
 20
18.6368628184
 10
-20.5455398528
 20
18.558163446
 10
-20.5791693679
 20
18.4768949928
 10
-20.6070839983
 20
18.3933511301
 10
-20.6291171484
 20
18.3078562722
 10
-20.6451061154
 20
18.2207858162
 10
-20.6549069156
 20
18.1325687195
 10
-20.6584099796
 20
18.0436272619
  0
LWPOLYLINE
  5
240
100
AcDbEntity
  8
IMPORT_IGES
100
AcDbPolyline
 62
253
  6
CONTINUOUS
 90
25
 70
0
 10
-21.9811810004
 20
18.8498113853
 10
-21.8131569707
 20
18.9146195297
 10
-21.6534759953
 20
18.9741441032
 10
-21.5021754215
 20
19.0284496726
 10
-21.3605854158
 20
19.0771152841
 10
-21.2274390519
 20
19.120676347
 10
-21.0988622478
 20
19.1605919676
 10
-20.973984708
 20
19.19718784
 10
-20.8536968972
 20
19.2301467917
 10
-20.7367504981
 20
19.2599183911
 10
-20.6212398594
 20
19.287015181
 10
-20.5090709888
 20
19.3108814486
 10
-20.4047158989
 20
19.3303909643
 10
-20.3094910868
 20
19.3450954228
 10
-20.222085277
 20
19.3554715814
 10
-20.1430368869
 20
19.3618333
 10
-20.0727554923
 20
19.3642658844
 10
-20.0108293444
 20
19.3627211233
 10
-19.9565642073
 20
19.3573175496
 10
-19.9097123944
 20
19.3481328984
 10
-19.8705021705
 20
19.3350826262
 10
-19.8389472864
 20
19.3180253034
 10
-19.8150395868
 20
19.2968993261
 10
-19.7987504783
 20
19.2717274015
 10
-19.790057916
 20
19.2424844585
  0
LWPOLYLINE
  5
241
100
AcDbEntity
  8
IMPORT_IGES
100
AcDbPolyline
 62
253
  6
CONTINUOUS
 90
28
 70
0
 10
-19.7663299453
 20
18.9403556753
 10
-18.3432873172
 20
19.4256396777
 10
-16.9083258988
 20
19.8748393678
 10
-15.4623449436
 20
20.287663223
 10
-14.0062230389
 20
20.66384409
 10
-12.540900146
 20
21.0031297249
 10
-11.0673777171
 20
21.3052900983
 10
-9.586578314
 20
21.5701291817
 10
-8.0994321931
 20
21.7974698238
 10
-6.6069602089
 20
21.9871568195
 10
-5.1100985106
 20
22.1390676106
 10
-3.6097868116
 20
22.2530991323
 10
-2.107056131
 20
22.3291727621
 10
-0.6028501425
 20
22.3672400627
 10
0.9018872202
 20
22.3672727374
 10
2.4061228938
 20
22.3292699232
 10
3.9089125787
 20
22.2532579228
 10
5.4093126838
 20
22.139282782
 10
6.9062927227
 20
21.9874207459
 10
8.3989131609
 20
21.7977725018
 10
9.8862366776
 20
21.5704585018
 10
11.3672407607
 20
21.3056320236
 10
12.840992665
 20
21.0034683837
 10
14.3065707257
 20
20.6641614016
 10
15.762976733
 20
20.2879384194
 10
17.2092710051
 20
19.875049124
 10
18.6445723164
 20
19.4257586104
 10
20.0679800637
 20
18.9403562086
  0
LWPOLYLINE
  5
242
100
AcDbEntity
  8
IMPORT_IGES
100
AcDbPolyline
 62
253
  6
CONTINUOUS
 90
19
 70
0
 10
-19.7663511124
 20
-16.5578496076
 10
-19.8490154846
 20
-16.5261327028
 10
-19.929283787
 20
-16.4890103523
 10
-20.0067822351
 20
-16.4466561074
 10
-20.0811491669
 20
-16.3992684492
 10
-20.1520393531
 20
-16.3470682242
 10
-20.2191251805
 20
-16.2902970584
 10
-20.2820948083
 20
-16.22921871
 10
-20.3406540488
 20
-16.1641183852
 10
-20.3945300697
 20
-16.095299392
 10
-20.4434718578
 20
-16.0230823642
 10
-20.4872513891
 20
-15.9478037671
 10
-20.5256646909
 20
-15.8698143302
 10
-20.5585327924
 20
-15.789477413
 10
-20.5857025583
 20
-15.7071673122
 10
-20.6070474021
 20
-15.6232675178
 10
-20.6224678766
 20
-15.538168926
 10
-20.6318921363
 20
-15.4522680187
 10
-20.6352762727
 20
-15.3659650155
  0
LWPOLYLINE
  5
243
100
AcDbEntity
  8
IMPORT_IGES
100
AcDbPolyline
 62
253
  6
CONTINUOUS
 90
10
 70
0
 10
-21.5901843406
 20
-15.3996210429
 10
-22.0051723752
 20
-15.2324317413
 10
-22.4187581207
 20
-15.0621600705
 10
-22.830940892
 20
-14.8888053502
 10
-23.2417425704
 20
-14.7123545981
 10
-23.6511397565
 20
-14.5328194422
 10
-24.0590637744
 20
-14.3502361332
 10
-24.4654911316
 20
-14.1646163249
 10
-24.8704435138
 20
-13.9759470641
 10
-25.2739199409
 20
-13.7842277101
  0
LWPOLYLINE
  5
244
100
AcDbEntity
  8
IMPORT_IGES
100
AcDbPolyline
 62
253
  6
CONTINUOUS
 90
10
 70
0
 10
-25.6282679216
 20
17.2600002677
 10
-25.6450886529
 20
17.4097749811
 10
-25.6618125513
 20
17.541339674
 10
-25.6785056779
 20
17.6546339772
 10
-25.6952587673
 20
17.7495939907
 10
-25.712078734
 20
17.8261827329
 10
-25.7288929923
 20
17.8844003215
 10
-25.7456921224
 20
17.9242386058
 10
-25.7625254615
 20
17.9456709527
 10
-25.7793957336
 20
17.9486898496
  0
LWPOLYLINE
  5
245
100
AcDbEntity
  8
IMPORT_IGES
100
AcDbPolyline
 62
253
  6
CONTINUOUS
 90
19
 70
0
 10
-20.6584100803
 20
-15.6611089799
 10
-20.6550156533
 20
-15.7485967099
 10
-20.6455808504
 20
-15.8350165661
 10
-20.6302867548
 20
-15.9199795562
 10
-20.6094261652
 20
-16.0028140097
 10
-20.5831787646
 20
-16.0834924763
 10
-20.55140401
 20
-16.1625693682
 10
-20.5140661577
 20
-16.2399051244
 10
-20.4713696255
 20
-16.3148797577
 10
-20.423360945
 20
-16.3872586778
 10
-20.3701017615
 20
-16.4567580413
 10
-20.3118304009
 20
-16.5228926293
 10
-20.2489069622
 20
-16.5851457663
 10
-20.1816593954
 20
-16.6431356669
 10
-20.1103146938
 20
-16.6966127209
 10
-20.0351471328
 20
-16.7453041555
 10
-19.9564724086
 20
-16.7889346647
 10
-19.8746521958
 20
-16.8272355835
 10
-19.7900582692
 20
-16.8599685349
  0
LINE
  5
246
100
AcDbEntity
  8
IMPORT_IGES
100
AcDbLine
 62
253
  6
CONTINUOUS
 10
-21.5901836177
 20
17.7821333535
 11
-21.5824566527
 21
12.2611375929
  0
LINE
  5
247
100
AcDbEntity
  8
IMPORT_IGES
100
AcDbLine
 62
253
  6
CONTINUOUS
 10
-20.635276311
 20
17.7484803326
 11
-20.6277342631
 21
12.2375485788
  0
LINE
  5
248
100
AcDbEntity
  8
IMPORT_IGES
100
AcDbLine
 62
253
  6
CONTINUOUS
 10
-20.6473403827
 20
9.0653642199
 11
-20.6584127224
 21
18.0436562761
  0
LINE
  5
249
100
AcDbEntity
  8
IMPORT_IGES
100
AcDbLine
 62
253
  6
CONTINUOUS
 10
-21.5824566527
 20
12.2611375929
 11
-21.5777981097
 21
6.7289941517
  0
LINE
  5
24A
100
AcDbEntity
  8
IMPORT_IGES
100
AcDbLine
 62
253
  6
CONTINUOUS
 10
-20.6277342631
 20
12.2375485788
 11
-20.6232077438
 21
6.7177958315
  0
LINE
  5
24B
100
AcDbEntity
  8
IMPORT_IGES
100
AcDbLine
 62
253
  6
CONTINUOUS
 10
-21.5777981097
 20
6.7289941517
 11
-21.5762542607
 21
1.1912573964
  0
LINE
  5
24C
100
AcDbEntity
  8
IMPORT_IGES
100
AcDbLine
 62
253
  6
CONTINUOUS
 10
-20.6232077438
 20
6.7177958315
 11
-20.6216975932
 21
1.1912577019
  0
LINE
  5
24D
100
AcDbEntity
  8
IMPORT_IGES
100
AcDbLine
 62
253
  6
CONTINUOUS
 10
-20.6443181526
 20
0.0659111945
 11
-20.6473403827
 21
9.0653642199
  0
LINE
  5
24E
100
AcDbEntity
  8
IMPORT_IGES
100
AcDbLine
 62
253
  6
CONTINUOUS
 10
-21.5762542607
 20
1.1912573964
 11
-21.5777983527
 21
-4.3464810185
  0
LINE
  5
24F
100
AcDbEntity
  8
IMPORT_IGES
100
AcDbLine
 62
253
  6
CONTINUOUS
 10
-20.6216975932
 20
1.1912577019
 11
-20.6232077313
 21
-4.3352806489
  0
LINE
  5
250
100
AcDbEntity
  8
IMPORT_IGES
100
AcDbLine
 62
253
  6
CONTINUOUS
 10
-20.649354332
 20
-8.9302033881
 11
-20.6443181526
 21
0.0659111945
  0
LINE
  5
251
100
AcDbEntity
  8
IMPORT_IGES
100
AcDbLine
 62
253
  6
CONTINUOUS
 10
-21.5777983527
 20
-4.3464810185
 11
-21.5824571338
 21
-9.8786255628
  0
LINE
  5
252
100
AcDbEntity
  8
IMPORT_IGES
100
AcDbLine
 62
253
  6
CONTINUOUS
 10
-20.6232077313
 20
-4.3352806489
 11
-20.6277342367
 21
-9.8550325921
  0
LINE
  5
253
100
AcDbEntity
  8
IMPORT_IGES
100
AcDbLine
 62
253
  6
CONTINUOUS
 10
-21.5824571338
 20
-9.8786255628
 11
-21.5901843406
 21
-15.3996210429
  0
LINE
  5
254
100
AcDbEntity
  8
IMPORT_IGES
100
AcDbLine
 62
253
  6
CONTINUOUS
 10
-20.6584126784
 20
-15.6611381996
 11
-20.649354332
 21
-8.9302033881
  0
LINE
  5
255
100
AcDbEntity
  8
IMPORT_IGES
100
AcDbLine
 62
253
  6
CONTINUOUS
 10
-20.6277342367
 20
-9.8550325921
 11
-20.6352762692
 21
-15.3659622022
  0
LWPOLYLINE
  5
256
100
AcDbEntity
  8
IMPORT_IGES
100
AcDbPolyline
 62
253
  6
CONTINUOUS
 90
19
 70
0
 10
-20.635276295
 20
17.7484792927
 10
-20.6318911468
 20
17.8346956205
 10
-20.6224684781
 20
17.9206203626
 10
-20.607044991
 20
18.0057960741
 10
-20.5856922397
 20
18.0897341412
 10
-20.5585156959
 20
18.1720312072
 10
-20.5256424496
 20
18.2523807171
 10
-20.4872126098
 20
18.3304052016
 10
-20.4434132374
 20
18.4056852441
 10
-20.3944689221
 20
18.4778993666
 10
-20.3405756567
 20
18.5467387535
 10
-20.2819823094
 20
18.6118475051
 10
-20.2190236143
 20
18.6729046789
 10
-20.1519345399
 20
18.7296761222
 10
-20.0810020335
 20
18.7818843997
 10
-20.0066710381
 20
18.8292375787
 10
-19.929284723
 20
18.8715405871
 10
-19.8490693682
 20
18.9086439031
 10
-19.7663097128
 20
18.940380012
  0
LWPOLYLINE
  5
257
100
AcDbEntity
  8
IMPORT_IGES
100
AcDbPolyline
 62
253
  6
CONTINUOUS
 90
22
 70
0
 10
-16.0197610341
 20
17.8376504543
 10
-16.0241618093
 20
17.8293698547
 10
-16.0352527256
 20
17.8213016897
 10
-16.053027469
 20
17.8135173115
 10
-16.0772760972
 20
17.8061061831
 10
-16.1077959979
 20
17.799104787
 10
-16.1446070537
 20
17.7925037255
 10
-16.1874561821
 20
17.7863539141
 10
-16.2359599493
 20
17.7807048878
 10
-16.2901358613
 20
17.7755533513
 10
-16.3495937738
 20
17.7709398945
 10
-16.4138473084
 20
17.7668984465
 10
-16.4829147419
 20
17.7634284134
 10
-16.5562730806
 20
17.7605589616
 10
-16.6333515946
 20
17.7583091701
 10
-16.7141909901
 20
17.7566794302
 10
-16.7981347525
 20
17.7556858635
 10
-16.884543642
 20
17.7553329921
 10
-16.973516565
 20
17.755622656
 10
-17.0645919603
 20
17.7565604544
 10
-17.1567356062
 20
17.7581355714
 10
-17.2491710403
 20
17.7603263079
  0
LWPOLYLINE
  5
258
100
AcDbEntity
  8
IMPORT_IGES
100
AcDbPolyline
 62
253
  6
CONTINUOUS
 90
16
 70
0
 10
-14.7936878102
 20
19.0954337854
 10
-14.7823946462
 20
19.1002713082
 10
-14.7714737892
 20
19.1119567882
 10
-14.7610173237
 20
19.1304738593
 10
-14.7511370481
 20
19.155618038
 10
-14.7418797711
 20
19.1871974014
 10
-14.7332420472
 20
19.2252173451
 10
-14.725295447
 20
19.2693962541
 10
-14.7180990798
 20
19.3193629178
 10
-14.7116498543
 20
19.3751427653
 10
-14.7060054746
 20
19.4362893944
 10
-14.7012061287
 20
19.5023097654
 10
-14.6972485208
 20
19.5732746089
 10
-14.6941637601
 20
19.648836693
 10
-14.6919879224
 20
19.7281278801
 10
-14.6907270878
 20
19.8104310327
  0
LWPOLYLINE
  5
259
100
AcDbEntity
  8
IMPORT_IGES
100
AcDbPolyline
 62
253
  6
CONTINUOUS
 90
10
 70
0
 10
-19.4141113082
 20
17.870018286
 10
-19.1540986352
 20
17.9618775092
 10
-18.8936521622
 20
18.0525139074
 10
-18.6327719752
 20
18.1419276339
 10
-18.3714551573
 20
18.2301211133
 10
-18.1097047784
 20
18.3170922251
 10
-17.8475298951
 20
18.402834304
 10
-17.5849335643
 20
18.4873452296
 10
-17.3219128433
 20
18.570627425
 10
-17.05846778
 20
18.65268104
  0
LWPOLYLINE
  5
25A
100
AcDbEntity
  8
IMPORT_IGES
100
AcDbPolyline
 62
7
  6
CONTINUOUS
 90
9
 70
0
 10
-26.3474532331
 20
14.2898481806
 10
-26.3438487395
 20
14.2780782615
 10
-26.3402848201
 20
14.254808658
 10
-26.3367614747
 20
14.2200393701
 10
-26.3332674953
 20
14.1735811196
 10
-26.32981409
 20
14.1156231846
 10
-26.3264348828
 20
14.0467333998
 10
-26.323130597
 20
13.9668058118
 10
-26.3199005093
 20
13.875946374
  0
LWPOLYLINE
  5
25B
100
AcDbEntity
  8
IMPORT_IGES
100
AcDbPolyline
 62
253
  6
CONTINUOUS
 90
7
 70
0
 10
-25.6282675328
 20
17.2599994506
 10
-25.6242753361
 20
17.2428515669
 10
-25.6182293477
 20
17.2197191431
 10
-25.6101298933
 20
17.1906241375
 10
-25.5999659974
 20
17.1557094724
 10
-25.5877402278
 20
17.115018489
 10
-25.5570884325
 20
17.0156310496
  0
LWPOLYLINE
  5
25C
100
AcDbEntity
  8
IMPORT_IGES
100
AcDbPolyline
 62
253
  6
CONTINUOUS
 90
25
 70
0
 10
-20.6584104186
 20
18.0436099135
 10
-20.6623667447
 20
18.0856695696
 10
-20.6710687895
 20
18.1212601149
 10
-20.6838841444
 20
18.1507002516
 10
-20.6998963738
 20
18.1740794185
 10
-20.7185800308
 20
18.1923370184
 10
-20.7404330018
 20
18.2065867861
 10
-20.7654791288
 20
18.2168843883
 10
-20.7933827812
 20
18.2231881576
 10
-20.8248887423
 20
18.2255865154
 10
-20.8603735341
 20
18.2237452865
 10
-20.8995407067
 20
18.2174310807
 10
-20.9423648166
 20
18.2065591279
 10
-20.990081596
 20
18.1905011333
 10
-21.0413687104
 20
18.1693440778
 10
-21.0916943771
 20
18.1452706363
 10
-21.1370050092
 20
18.1212150054
 10
-21.1799434688
 20
18.0965151604
 10
-21.2259890284
 20
18.0679552234
 10
-21.2765364482
 20
18.034228078
 10
-21.330108799
 20
17.9960905882
 10
-21.3882793709
 20
17.9522446339
 10
-21.4514799321
 20
17.9019392188
 10
-21.5189028654
 20
17.845282992
 10
-21.5901834075
 20
17.7821330597
  0
LINE
  5
25D
100
AcDbEntity
  8
IMPORT_IGES
100
AcDbLine
 62
253
  6
CONTINUOUS
 10
-20.6584127224
 20
18.0436562761
 11
-20.6481120821
 21
17.9167457075
  0
LINE
  5
25E
100
AcDbEntity
  8
IMPORT_IGES
100
AcDbLine
 62
253
  6
CONTINUOUS
 10
-19.7795186981
 20
19.1126010046
 11
-19.790057916
 21
19.2424844585
  0
LINE
  5
25F
100
AcDbEntity
  8
IMPORT_IGES
100
AcDbLine
 62
253
  6
CONTINUOUS
 10
-19.7663299453
 20
18.9403556753
 11
-19.7795186981
 21
19.1126010046
  0
LINE
  5
260
100
AcDbEntity
  8
IMPORT_IGES
100
AcDbLine
 62
253
  6
CONTINUOUS
 10
-20.6481120821
 20
17.9167457075
 11
-20.635276311
 21
17.7484803326
  0
LINE
  5
261
100
AcDbEntity
  8
IMPORT_IGES
100
AcDbLine
 62
253
  6
CONTINUOUS
 10
-19.4038562611
 20
9.5398787797
 11
-19.4141113082
 21
17.870018286
  0
LINE
  5
262
100
AcDbEntity
  8
IMPORT_IGES
100
AcDbLine
 62
253
  6
CONTINUOUS
 10
-19.4004359928
 20
1.1913601325
 11
-19.4038562611
 21
9.5398787797
  0
LINE
  5
263
100
AcDbEntity
  8
IMPORT_IGES
100
AcDbLine
 62
253
  6
CONTINUOUS
 10
-19.4038572287
 20
-7.1571585638
 11
-19.4004359928
 21
1.1913601325
  0
LINE
  5
264
100
AcDbEntity
  8
IMPORT_IGES
100
AcDbLine
 62
253
  6
CONTINUOUS
 10
-19.414036766
 20
-15.4875483077
 11
-19.4038572287
 21
-7.1571585638
  0
LINE
  5
265
100
AcDbEntity
  8
IMPORT_IGES
100
AcDbLine
 62
253
  6
CONTINUOUS
 10
-20.6352762692
 20
-15.3659622022
 11
-20.6481120526
 21
-15.5342277226
  0
LINE
  5
266
100
AcDbEntity
  8
IMPORT_IGES
100
AcDbLine
 62
253
  6
CONTINUOUS
 10
-19.7795160918
 20
-16.7300987361
 11
-19.7663775391
 21
-16.5578407763
  0
LINE
  5
267
100
AcDbEntity
  8
IMPORT_IGES
100
AcDbLine
 62
253
  6
CONTINUOUS
 10
-20.6481120526
 20
-15.5342277226
 11
-20.6584126784
 21
-15.6611381996
  0
LINE
  5
268
100
AcDbEntity
  8
IMPORT_IGES
100
AcDbLine
 62
253
  6
CONTINUOUS
 10
-19.7900831628
 20
-16.8599599583
 11
-19.7795160918
 21
-16.7300987361
  0
LWPOLYLINE
  5
269
100
AcDbEntity
  8
IMPORT_IGES
100
AcDbPolyline
 62
253
  6
CONTINUOUS
 90
5
 70
0
 10
-25.5990675011
 20
-14.7695557678
 10
-25.6096779594
 20
-14.8058628401
 10
-25.6180373456
 20
-14.8359569068
 10
-25.6242298116
 20
-14.8598538351
 10
-25.6282544202
 20
-14.8774929649
  0
LWPOLYLINE
  5
26A
100
AcDbEntity
  8
IMPORT_IGES
100
AcDbPolyline
 62
253
  6
CONTINUOUS
 90
3
 70
0
 10
-25.554908509
 20
-14.6257384455
 10
-25.5715654867
 20
-14.6790732843
 10
-25.5990675011
 20
-14.7695557678
  0
LINE
  5
26B
100
AcDbEntity
  8
IMPORT_IGES
100
AcDbLine
 62
253
  6
CONTINUOUS
 10
-25.5160238406
 20
-14.5041152574
 11
-25.554908509
 21
-14.6257384455
  0
LINE
  5
26C
100
AcDbEntity
  8
IMPORT_IGES
100
AcDbLine
 62
253
  6
CONTINUOUS
 10
-25.470329436
 20
-14.3643553048
 11
-25.5160238406
 21
-14.5041152574
  0
LINE
  5
26D
100
AcDbEntity
  8
IMPORT_IGES
100
AcDbLine
 62
253
  6
CONTINUOUS
 10
-25.4193232747
 20
-14.2108757954
 11
-25.470329436
 21
-14.3643553048
  0
LWPOLYLINE
  5
26E
100
AcDbEntity
  8
IMPORT_IGES
100
AcDbPolyline
 62
253
  6
CONTINUOUS
 90
3
 70
0
 10
-25.2739210401
 20
-13.7842310117
 10
-25.3047134738
 20
-13.8732083982
 10
-25.4193232747
 20
-14.2108757954
  0
LINE
  5
26F
100
AcDbEntity
  8
IMPORT_IGES
100
AcDbLine
 62
7
  6
CONTINUOUS
 10
-7.3644290745
 20
17.9805560635
 11
-7.4134248484
 21
17.9543827788
  0
LINE
  5
270
100
AcDbEntity
  8
IMPORT_IGES
100
AcDbLine
 62
7
  6
CONTINUOUS
 10
-7.3113827047
 20
18.0010034465
 11
-7.3644290745
 21
17.9805560635
  0
LINE
  5
271
100
AcDbEntity
  8
IMPORT_IGES
100
AcDbLine
 62
253
  6
CONTINUOUS
 10
-25.3370772479
 20
16.3504519786
 11
-25.2738984629
 21
16.1667477836
  0
LINE
  5
272
100
AcDbEntity
  8
IMPORT_IGES
100
AcDbLine
 62
253
  6
CONTINUOUS
 10
-25.4213535633
 20
16.599503553
 11
-25.3370772479
 21
16.3504519786
  0
LWPOLYLINE
  5
273
100
AcDbEntity
  8
IMPORT_IGES
100
AcDbPolyline
 62
253
  6
CONTINUOUS
 90
3
 70
0
 10
-25.5183979011
 20
16.8935308271
 10
-25.4961344422
 20
16.8251504867
 10
-25.4213535633
 20
16.599503553
  0
LINE
  5
274
100
AcDbEntity
  8
IMPORT_IGES
100
AcDbLine
 62
253
  6
CONTINUOUS
 10
-25.5570884325
 20
17.0156310496
 11
-25.5183979011
 21
16.8935308271
  0
LWPOLYLINE
  5
275
100
AcDbEntity
  8
IMPORT_IGES
100
AcDbPolyline
 62
253
  6
CONTINUOUS
 90
10
 70
0
 10
-16.0140570443
 20
7.350291976
 10
-16.0487927031
 20
8.5154793225
 10
-16.075002065
 20
9.6808634085
 10
-16.0926843373
 20
10.8463823121
 10
-16.1018393423
 20
12.0120200793
 10
-16.1024663327
 20
13.1776688256
 10
-16.0945673796
 20
14.3431287378
 10
-16.0781473699
 20
15.5082919906
 10
-16.0532106179
 20
16.6731427513
 10
-16.0197620514
 20
17.8376192812
  0
LWPOLYLINE
  5
276
100
AcDbEntity
  8
IMPORT_IGES
100
AcDbPolyline
 62
253
  6
CONTINUOUS
 90
10
 70
0
 10
-17.2491710403
 20
17.7603263079
 10
-17.2827687027
 20
16.5959583318
 10
-17.3078182178
 20
15.4309263903
 10
-17.3243106747
 20
14.2652805099
 10
-17.3322317025
 20
13.0990137256
 10
-17.3315812297
 20
11.9322330856
 10
-17.3223737033
 20
10.7651598866
 10
-17.3046116417
 20
9.5979015085
 10
-17.2782854167
 20
8.4304511744
 10
-17.2433931637
 20
7.2628591212
  0
LWPOLYLINE
  5
277
100
AcDbEntity
  8
IMPORT_IGES
100
AcDbPolyline
 62
253
  6
CONTINUOUS
 90
10
 70
0
 10
-16.0197702673
 20
17.8372774107
 10
-16.0171401625
 20
17.8889588958
 10
-16.0124690353
 20
17.9404051874
 10
-16.0057744321
 20
17.9915363392
 10
-15.9970795734
 20
18.0422607241
 10
-15.9864065377
 20
18.0925138683
 10
-15.9737711101
 20
18.1422574752
 10
-15.9591941716
 20
18.1914280613
 10
-15.942706721
 20
18.2399381568
 10
-15.9243395114
 20
18.2877143725
  0
LWPOLYLINE
  5
278
100
AcDbEntity
  8
IMPORT_IGES
100
AcDbPolyline
 62
253
  6
CONTINUOUS
 90
10
 70
0
 10
-17.2491710403
 20
17.7603263079
 10
-17.2437980636
 20
17.8625483377
 10
-17.2344399271
 20
17.9641176655
 10
-17.2210970271
 20
18.0650343626
 10
-17.2037294997
 20
18.1654523322
 10
-17.1823779703
 20
18.2652177989
 10
-17.1571635794
 20
18.3638693924
 10
-17.1281269679
 20
18.4612534539
 10
-17.0952282497
 20
18.557523954
 10
-17.05846778
 20
18.65268104
  0
LWPOLYLINE
  5
279
100
AcDbEntity
  8
IMPORT_IGES
100
AcDbPolyline
 62
253
  6
CONTINUOUS
 90
22
 70
0
 10
-15.8753726898
 20
17.6959266607
 10
-15.8691228529
 20
17.7876098109
 10
-15.8564125636
 20
17.878616872
 10
-15.8373065524
 20
17.968493301
 10
-15.8118993988
 20
18.056796732
 10
-15.7803203813
 20
18.1430797297
 10
-15.7427372792
 20
18.2268936175
 10
-15.699349028
 20
18.3078114036
 10
-15.6503721998
 20
18.385443611
 10
-15.596044858
 20
18.4594197269
 10
-15.5366392383
 20
18.5293721198
 10
-15.4724528159
 20
18.5949533107
 10
-15.4037934557
 20
18.6558487473
 10
-15.3310021637
 20
18.7117535577
 10
-15.2544406376
 20
18.7623876695
 10
-15.1744741917
 20
18.8075051125
 10
-15.0914904176
 20
18.8468797625
 10
-15.0059092347
 20
18.8803052011
 10
-14.9181665561
 20
18.9076065214
 10
-14.8287033823
 20
18.9286435503
 10
-14.7379627011
 20
18.9433092111
 10
-14.6463976584
 20
18.9515270144
  0
LWPOLYLINE
  5
27A
100
AcDbEntity
  8
IMPORT_IGES
100
AcDbPolyline
 62
253
  6
CONTINUOUS
 90
9
 70
0
 10
-21.9811814673
 20
-16.4672950253
 10
-21.9769160031
 20
-16.4495515542
 10
-21.9701535747
 20
-16.4255979451
 10
-21.960918535
 20
-16.3955538283
 10
-21.9493152937
 20
-16.3597575601
 10
-21.9354301303
 20
-16.3184599575
 10
-21.9192562581
 20
-16.2716389437
 10
-21.900908021
 20
-16.2196299255
 10
-21.8805441042
 20
-16.1628786876
  0
LWPOLYLINE
  5
27B
100
AcDbEntity
  8
IMPORT_IGES
100
AcDbPolyline
 62
253
  6
CONTINUOUS
 90
11
 70
0
 10
-9.1806767564
 20
19.3400884109
 10
-9.178530705
 20
19.3440349458
 10
-9.1765971026
 20
19.3542105168
 10
-9.174893371
 20
19.3706101535
 10
-9.1734370708
 20
19.393054376
 10
-9.1722330722
 20
19.4213692919
 10
-9.1712798181
 20
19.455570771
 10
-9.1705848597
 20
19.4954392934
 10
-9.1701524155
 20
19.540643931
 10
-9.1699820069
 20
19.5911990744
 10
-9.1704322116
 20
19.7069196858
  0
LINE
  5
27C
100
AcDbEntity
  8
IMPORT_IGES
100
AcDbLine
 62
7
  6
CONTINUOUS
 10
-7.5432221323
 20
17.8379848739
 11
-7.5799805781
 21
17.7871008502
  0
LINE
  5
27D
100
AcDbEntity
  8
IMPORT_IGES
100
AcDbLine
 62
7
  6
CONTINUOUS
 10
-7.3640615737
 20
17.7055076899
 11
-7.33620568
 21
17.7384014871
  0
LINE
  5
27E
100
AcDbEntity
  8
IMPORT_IGES
100
AcDbLine
 62
7
  6
CONTINUOUS
 10
-7.5028213773
 20
17.883097184
 11
-7.5432221323
 21
17.8379848739
  0
LINE
  5
27F
100
AcDbEntity
  8
IMPORT_IGES
100
AcDbLine
 62
7
  6
CONTINUOUS
 10
-6.1378204375
 20
17.8841566116
 11
-6.1564005016
 21
17.8648634278
  0
LINE
  5
280
100
AcDbEntity
  8
IMPORT_IGES
100
AcDbLine
 62
7
  6
CONTINUOUS
 10
-6.1175311401
 20
17.9031599385
 11
-6.1378204375
 21
17.8841566116
  0
LINE
  5
281
100
AcDbEntity
  8
IMPORT_IGES
100
AcDbLine
 62
7
  6
CONTINUOUS
 10
-7.4593771712
 20
17.9219990676
 11
-7.5028213773
 21
17.883097184
  0
LINE
  5
282
100
AcDbEntity
  8
IMPORT_IGES
100
AcDbLine
 62
7
  6
CONTINUOUS
 10
-7.33620568
 20
17.7384014871
 11
-7.3057566315
 21
17.7655869621
  0
LINE
  5
283
100
AcDbEntity
  8
IMPORT_IGES
100
AcDbLine
 62
7
  6
CONTINUOUS
 10
-5.9719819867
 20
17.7384014872
 11
-5.9415329381
 21
17.7655869621
  0
LINE
  5
284
100
AcDbEntity
  8
IMPORT_IGES
100
AcDbLine
 62
7
  6
CONTINUOUS
 10
-6.9059912577
 20
16.483577228
 11
-6.9372403146
 21
16.4569618943
  0
LINE
  5
285
100
AcDbEntity
  8
IMPORT_IGES
100
AcDbLine
 62
7
  6
CONTINUOUS
 10
-6.0955501719
 20
17.9217996175
 11
-6.1175311401
 21
17.9031599385
  0
LINE
  5
286
100
AcDbEntity
  8
IMPORT_IGES
100
AcDbLine
 62
7
  6
CONTINUOUS
 10
-4.8281823854
 20
17.9436775569
 11
-4.8719112259
 21
17.9072308491
  0
LINE
  5
287
100
AcDbEntity
  8
IMPORT_IGES
100
AcDbLine
 62
7
  6
CONTINUOUS
 10
-6.0715488759
 20
17.9394676116
 11
-6.0955501719
 21
17.9217996175
  0
LINE
  5
288
100
AcDbEntity
  8
IMPORT_IGES
100
AcDbLine
 62
7
  6
CONTINUOUS
 10
-6.8352598255
 20
16.2661499597
 11
-6.7885376738
 21
16.2991605341
  0
LINE
  5
289
100
AcDbEntity
  8
IMPORT_IGES
100
AcDbLine
 62
7
  6
CONTINUOUS
 10
-7.4134248484
 20
17.9543827788
 11
-7.4593771712
 21
17.9219990676
  0
LINE
  5
28A
100
AcDbEntity
  8
IMPORT_IGES
100
AcDbLine
 62
7
  6
CONTINUOUS
 10
-7.3057566315
 20
17.7655869621
 11
-7.2725417125
 21
17.7876024424
  0
LINE
  5
28B
100
AcDbEntity
  8
IMPORT_IGES
100
AcDbLine
 62
7
  6
CONTINUOUS
 10
-5.9415329381
 20
17.7655869621
 11
-5.9083180192
 21
17.7876024424
  0
LINE
  5
28C
100
AcDbEntity
  8
IMPORT_IGES
100
AcDbLine
 62
7
  6
CONTINUOUS
 10
-4.6854843788
 20
17.8021179284
 11
-4.6529603773
 21
17.8236677273
  0
LINE
  5
28D
100
AcDbEntity
  8
IMPORT_IGES
100
AcDbLine
 62
7
  6
CONTINUOUS
 10
-6.9372403146
 20
16.4569618943
 11
-6.9711250229
 21
16.4347561357
  0
LINE
  5
28E
100
AcDbEntity
  8
IMPORT_IGES
100
AcDbLine
 62
7
  6
CONTINUOUS
 10
-4.7801530384
 20
17.974935077
 11
-4.8281823854
 21
17.9436775569
  0
LINE
  5
28F
100
AcDbEntity
  8
IMPORT_IGES
100
AcDbLine
 62
7
  6
CONTINUOUS
 10
-4.3032165951
 20
17.3644956416
 11
-4.3337665382
 21
17.3446464172
  0
LINE
  5
290
100
AcDbEntity
  8
IMPORT_IGES
100
AcDbLine
 62
7
  6
CONTINUOUS
 10
-6.0454504932
 20
17.9562004147
 11
-6.0715488759
 21
17.9394676116
  0
LINE
  5
291
100
AcDbEntity
  8
IMPORT_IGES
100
AcDbLine
 62
7
  6
CONTINUOUS
 10
-6.0173317828
 20
17.971961533
 11
-6.0454504932
 21
17.9562004147
  0
LINE
  5
292
100
AcDbEntity
  8
IMPORT_IGES
100
AcDbLine
 62
7
  6
CONTINUOUS
 10
-3.561635757
 20
17.6250581145
 11
-3.6196596536
 21
17.5928273445
  0
LINE
  5
293
100
AcDbEntity
  8
IMPORT_IGES
100
AcDbLine
 62
7
  6
CONTINUOUS
 10
-3.5138657896
 20
17.4268027712
 11
-3.4623879114
 21
17.4551500616
  0
LINE
  5
294
100
AcDbEntity
  8
IMPORT_IGES
100
AcDbLine
 62
7
  6
CONTINUOUS
 10
-6.8850570164
 20
16.2394407887
 11
-6.8352598255
 21
16.2661499597
  0
LINE
  5
295
100
AcDbEntity
  8
IMPORT_IGES
100
AcDbLine
 62
7
  6
CONTINUOUS
 10
-4.2228173016
 20
17.2153299077
 11
-4.1747580222
 21
17.2404055346
  0
LINE
  5
296
100
AcDbEntity
  8
IMPORT_IGES
100
AcDbLine
 62
7
  6
CONTINUOUS
 10
-4.3337665382
 20
17.3446464172
 11
-4.3672670891
 21
17.3273236915
  0
LINE
  5
297
100
AcDbEntity
  8
IMPORT_IGES
100
AcDbLine
 62
7
  6
CONTINUOUS
 10
-3.5674002092
 20
17.3997755704
 11
-3.5138657896
 21
17.4268027712
  0
LINE
  5
298
100
AcDbEntity
  8
IMPORT_IGES
100
AcDbLine
 62
7
  6
CONTINUOUS
 10
-3.6196596536
 20
17.5928273445
 11
-3.6809797413
 21
17.5620597291
  0
LINE
  5
299
100
AcDbEntity
  8
IMPORT_IGES
100
AcDbLine
 62
7
  6
CONTINUOUS
 10
-4.7281517302
 20
18.000427319
 11
-4.7801530384
 21
17.974935077
  0
LINE
  5
29A
100
AcDbEntity
  8
IMPORT_IGES
100
AcDbLine
 62
7
  6
CONTINUOUS
 10
-2.3252696309
 20
17.9456285582
 11
-2.3772709392
 21
17.9201363161
  0
LINE
  5
29B
100
AcDbEntity
  8
IMPORT_IGES
100
AcDbLine
 62
7
  6
CONTINUOUS
 10
-4.6529603773
 20
17.8236677273
 11
-4.6177095362
 21
17.8405419315
  0
LINE
  5
29C
100
AcDbEntity
  8
IMPORT_IGES
100
AcDbLine
 62
7
  6
CONTINUOUS
 10
-2.2500782781
 20
17.7688689665
 11
-2.2148274369
 21
17.7857431707
  0
LINE
  5
29D
100
AcDbEntity
  8
IMPORT_IGES
100
AcDbLine
 62
7
  6
CONTINUOUS
 10
-6.9711250229
 20
16.4347561357
 11
-7.0073777702
 21
16.4174228799
  0
LINE
  5
29E
100
AcDbEntity
  8
IMPORT_IGES
100
AcDbLine
 62
7
  6
CONTINUOUS
 10
-5.6069013296
 20
16.4347561357
 11
-5.6431540769
 21
16.4174228799
  0
LINE
  5
29F
100
AcDbEntity
  8
IMPORT_IGES
100
AcDbLine
 62
7
  6
CONTINUOUS
 10
-7.2725417125
 20
17.7876024424
 11
-7.2362340594
 21
17.8046323811
  0
LINE
  5
2A0
100
AcDbEntity
  8
IMPORT_IGES
100
AcDbLine
 62
7
  6
CONTINUOUS
 10
-5.9083180192
 20
17.7876024424
 11
-5.8720103661
 21
17.8046323811
  0
LINE
  5
2A1
100
AcDbEntity
  8
IMPORT_IGES
100
AcDbLine
 62
7
  6
CONTINUOUS
 10
-5.9870943647
 20
17.9860334475
 11
-6.0173317828
 21
17.971961533
  0
LINE
  5
2A2
100
AcDbEntity
  8
IMPORT_IGES
100
AcDbLine
 62
7
  6
CONTINUOUS
 10
-3.6231048598
 20
17.3740244771
 11
-3.5674002092
 21
17.3997755704
  0
LINE
  5
2A3
100
AcDbEntity
  8
IMPORT_IGES
100
AcDbLine
 62
7
  6
CONTINUOUS
 10
-3.6809797413
 20
17.3495494913
 11
-3.6231048598
 21
17.3740244771
  0
LINE
  5
2A4
100
AcDbEntity
  8
IMPORT_IGES
100
AcDbLine
 62
7
  6
CONTINUOUS
 10
-4.3672670891
 20
17.3273236915
 11
-4.4043297625
 21
17.312157534
  0
LINE
  5
2A5
100
AcDbEntity
  8
IMPORT_IGES
100
AcDbLine
 62
7
  6
CONTINUOUS
 10
-5.567672926
 20
16.2209309249
 11
-5.5145182212
 21
16.2424166755
  0
LINE
  5
2A6
100
AcDbEntity
  8
IMPORT_IGES
100
AcDbLine
 62
7
  6
CONTINUOUS
 10
-6.9390144013
 20
16.2185379027
 11
-6.8850570164
 21
16.2394407887
  0
LINE
  5
2A7
100
AcDbEntity
  8
IMPORT_IGES
100
AcDbLine
 62
7
  6
CONTINUOUS
 10
-5.9546414103
 20
17.9983652038
 11
-5.9870943647
 21
17.9860334475
  0
LINE
  5
2A8
100
AcDbEntity
  8
IMPORT_IGES
100
AcDbLine
 62
7
  6
CONTINUOUS
 10
-4.6717097756
 20
18.0201843122
 11
-4.7281517302
 21
18.000427319
  0
LINE
  5
2A9
100
AcDbEntity
  8
IMPORT_IGES
100
AcDbLine
 62
7
  6
CONTINUOUS
 10
-2.2688276763
 20
17.9653855514
 11
-2.3252696309
 21
17.9456285582
  0
LINE
  5
2AA
100
AcDbEntity
  8
IMPORT_IGES
100
AcDbLine
 62
7
  6
CONTINUOUS
 10
-7.0073777702
 20
16.4174228799
 11
-7.0459093524
 21
16.405116436
  0
LINE
  5
2AB
100
AcDbEntity
  8
IMPORT_IGES
100
AcDbLine
 62
7
  6
CONTINUOUS
 10
-5.6431540769
 20
16.4174228799
 11
-5.6816856591
 21
16.405116436
  0
LINE
  5
2AC
100
AcDbEntity
  8
IMPORT_IGES
100
AcDbLine
 62
7
  6
CONTINUOUS
 10
-4.4043297625
 20
17.312157534
 11
-4.4443430437
 21
17.2995178751
  0
LINE
  5
2AD
100
AcDbEntity
  8
IMPORT_IGES
100
AcDbLine
 62
7
  6
CONTINUOUS
 10
-2.0014476607
 20
17.2573587729
 11
-2.0414609394
 21
17.2447191137
  0
LINE
  5
2AE
100
AcDbEntity
  8
IMPORT_IGES
100
AcDbLine
 62
7
  6
CONTINUOUS
 10
-4.6177095362
 20
17.8405419315
 11
-4.5789667047
 21
17.8526007835
  0
LINE
  5
2AF
100
AcDbEntity
  8
IMPORT_IGES
100
AcDbLine
 62
7
  6
CONTINUOUS
 10
-2.2148274369
 20
17.7857431707
 11
-2.1760846054
 21
17.7978020227
  0
LINE
  5
2B0
100
AcDbEntity
  8
IMPORT_IGES
100
AcDbLine
 62
7
  6
CONTINUOUS
 10
-5.920069748
 20
18.0090077564
 11
-5.9546414103
 21
17.9983652038
  0
LINE
  5
2B1
100
AcDbEntity
  8
IMPORT_IGES
100
AcDbLine
 62
7
  6
CONTINUOUS
 10
-7.2362340594
 20
17.8046323811
 11
-7.1967247175
 21
17.8167382627
  0
LINE
  5
2B2
100
AcDbEntity
  8
IMPORT_IGES
100
AcDbLine
 62
7
  6
CONTINUOUS
 10
-5.8720103661
 20
17.8046323811
 11
-5.8325010242
 21
17.8167382627
  0
LWPOLYLINE
  5
2B3
100
AcDbEntity
  8
IMPORT_IGES
100
AcDbPolyline
 62
253
  6
CONTINUOUS
 90
22
 70
0
 10
-19.4141132957
 20
-15.487500493
 10
-19.5060543067
 20
-15.486520051
 10
-19.5971425624
 20
-15.4849308214
 10
-19.6869178321
 20
-15.4827406608
 10
-19.774928989
 20
-15.4799603698
 10
-19.8607281012
 20
-15.4766038894
 10
-19.9438734402
 20
-15.4726884083
 10
-20.0239425049
 20
-15.4682338545
 10
-20.1005333914
 20
-15.4632626202
 10
-20.1732591578
 20
-15.4577998206
 10
-20.2417523894
 20
-15.4518730539
 10
-20.3056670543
 20
-15.4455122626
 10
-20.3646802517
 20
-15.4387495817
 10
-20.4184938436
 20
-15.4316191767
 10
-20.4668359605
 20
-15.4241570709
 10
-20.5094623752
 20
-15.4164009631
 10
-20.5461577364
 20
-15.4083900379
 10
-20.5767366571
 20
-15.4001647667
 10
-20.6010446508
 20
-15.3917667042
 10
-20.6189589119
 20
-15.3832382779
 10
-20.6303889367
 20
-15.3746225739
 10
-20.63527698
 20
-15.3659631193
  0
LWPOLYLINE
  5
2B4
100
AcDbEntity
  8
IMPORT_IGES
100
AcDbPolyline
 62
253
  6
CONTINUOUS
 90
11
 70
0
 10
-21.9811831189
 20
18.8498121902
 10
-21.9769175924
 20
18.8320685767
 10
-21.9701550925
 20
18.8081149424
 10
-21.9609200037
 20
18.7780709226
 10
-21.9493167175
 20
18.7422746729
 10
-21.9354314637
 20
18.7009768915
 10
-21.9192574841
 20
18.6541557264
 10
-21.9009091808
 20
18.6021466492
 10
-21.8805451749
 20
18.5453952112
 10
-21.8581606255
 20
18.4838875647
 10
-21.8080264911
 20
18.3485176515
  0
LINE
  5
2B5
100
AcDbEntity
  8
IMPORT_IGES
100
AcDbLine
 62
253
  6
CONTINUOUS
 10
-14.6459178884
 20
18.9481073055
 11
-14.5922507407
 21
17.9530327501
  0
LINE
  5
2B6
100
AcDbEntity
  8
IMPORT_IGES
100
AcDbLine
 62
253
  6
CONTINUOUS
 10
-14.7666642032
 20
5.4289057585
 11
-14.7723377429
 21
5.2516235631
  0
LINE
  5
2B7
100
AcDbEntity
  8
IMPORT_IGES
100
AcDbLine
 62
253
  6
CONTINUOUS
 10
-14.7723377429
 20
5.2516235631
 11
-14.7798564726
 21
5.0642115688
  0
LWPOLYLINE
  5
2B8
100
AcDbEntity
  8
IMPORT_IGES
100
AcDbPolyline
 62
253
  6
CONTINUOUS
 90
3
 70
0
 10
-14.7798564726
 20
5.0642115688
 10
-14.7890990595
 20
4.8699181881
 10
-14.7942472293
 20
4.7726778933
  0
LINE
  5
2B9
100
AcDbEntity
  8
IMPORT_IGES
100
AcDbLine
 62
253
  6
CONTINUOUS
 10
-14.5922507419
 20
7.2294825859
 11
-14.6460562441
 21
6.2309706852
  0
LWPOLYLINE
  5
2BA
100
AcDbEntity
  8
IMPORT_IGES
100
AcDbPolyline
 62
253
  6
CONTINUOUS
 90
5
 70
0
 10
-19.7322295835
 20
-16.4360624819
 10
-19.7436886764
 20
-16.4745047094
 10
-19.7531544872
 20
-16.507706836
 10
-19.7607070977
 20
-16.5355351712
 10
-19.7663511124
 20
-16.5578496076
  0
LINE
  5
2BB
100
AcDbEntity
  8
IMPORT_IGES
100
AcDbLine
 62
253
  6
CONTINUOUS
 10
-21.8805441042
 20
-16.1628786876
 11
-21.8339216662
 21
-16.0355694857
  0
LINE
  5
2BC
100
AcDbEntity
  8
IMPORT_IGES
100
AcDbLine
 62
253
  6
CONTINUOUS
 10
-21.8339216662
 20
-16.0355694857
 11
-21.7804640126
 21
-15.892647085
  0
LINE
  5
2BD
100
AcDbEntity
  8
IMPORT_IGES
100
AcDbLine
 62
253
  6
CONTINUOUS
 10
-21.7804640126
 20
-15.892647085
 11
-21.7212251767
 21
-15.7369250901
  0
LINE
  5
2BE
100
AcDbEntity
  8
IMPORT_IGES
100
AcDbLine
 62
253
  6
CONTINUOUS
 10
-21.7212251767
 20
-15.7369250901
 11
-21.6571917378
 21
-15.5710109486
  0
LINE
  5
2BF
100
AcDbEntity
  8
IMPORT_IGES
100
AcDbLine
 62
253
  6
CONTINUOUS
 10
-21.6571917378
 20
-15.5710109486
 11
-21.5901842515
 21
-15.3996209184
  0
LINE
  5
2C0
100
AcDbEntity
  8
IMPORT_IGES
100
AcDbLine
 62
7
  6
CONTINUOUS
 10
-7.6129758473
 20
17.7301545084
 11
-7.6423288073
 21
17.667436453
  0
LINE
  5
2C1
100
AcDbEntity
  8
IMPORT_IGES
100
AcDbLine
 62
7
  6
CONTINUOUS
 10
-7.4112844671
 20
17.6256406408
 11
-7.389151597
 21
17.6674438979
  0
LINE
  5
2C2
100
AcDbEntity
  8
IMPORT_IGES
100
AcDbLine
 62
7
  6
CONTINUOUS
 10
-7.5799805781
 20
17.7871008502
 11
-7.6129758473
 21
17.7301545084
  0
LINE
  5
2C3
100
AcDbEntity
  8
IMPORT_IGES
100
AcDbLine
 62
7
  6
CONTINUOUS
 10
-6.2281205442
 20
17.7671960878
 11
-6.2391563639
 21
17.7481637182
  0
LINE
  5
2C4
100
AcDbEntity
  8
IMPORT_IGES
100
AcDbLine
 62
7
  6
CONTINUOUS
 10
-6.8283256072
 20
16.589417752
 11
-6.8509269375
 21
16.5506736394
  0
LINE
  5
2C5
100
AcDbEntity
  8
IMPORT_IGES
100
AcDbLine
 62
7
  6
CONTINUOUS
 10
-6.2161279999
 20
17.7864944193
 11
-6.2281205442
 21
17.7671960878
  0
LINE
  5
2C6
100
AcDbEntity
  8
IMPORT_IGES
100
AcDbLine
 62
7
  6
CONTINUOUS
 10
-7.389151597
 20
17.6674438979
 11
-7.3640615737
 21
17.7055076899
  0
LINE
  5
2C7
100
AcDbEntity
  8
IMPORT_IGES
100
AcDbLine
 62
7
  6
CONTINUOUS
 10
-6.0249279036
 20
17.667443898
 11
-5.9998378804
 21
17.7055076899
  0
LINE
  5
2C8
100
AcDbEntity
  8
IMPORT_IGES
100
AcDbLine
 62
7
  6
CONTINUOUS
 10
-6.2031526439
 20
17.8060220918
 11
-6.2161279999
 21
17.7864944193
  0
LINE
  5
2C9
100
AcDbEntity
  8
IMPORT_IGES
100
AcDbLine
 62
7
  6
CONTINUOUS
 10
-6.7031713358
 20
16.3847067729
 11
-6.6657362991
 21
16.4364957969
  0
LINE
  5
2CA
100
AcDbEntity
  8
IMPORT_IGES
100
AcDbLine
 62
7
  6
CONTINUOUS
 10
-6.1888669611
 20
17.8255727797
 11
-6.2031526439
 21
17.8060220918
  0
LINE
  5
2CB
100
AcDbEntity
  8
IMPORT_IGES
100
AcDbLine
 62
7
  6
CONTINUOUS
 10
-6.8509269375
 20
16.5506736394
 11
-6.8771412719
 21
16.5149206462
  0
LINE
  5
2CC
100
AcDbEntity
  8
IMPORT_IGES
100
AcDbLine
 62
7
  6
CONTINUOUS
 10
-5.4867032442
 20
16.5506736394
 11
-5.5129175786
 21
16.5149206461
  0
LINE
  5
2CD
100
AcDbEntity
  8
IMPORT_IGES
100
AcDbLine
 62
7
  6
CONTINUOUS
 10
-4.9114024782
 20
17.8658405078
 11
-4.9465932241
 21
17.8192609787
  0
LINE
  5
2CE
100
AcDbEntity
  8
IMPORT_IGES
100
AcDbLine
 62
7
  6
CONTINUOUS
 10
-6.1732888947
 20
17.845206596
 11
-6.1888669611
 21
17.8255727797
  0
LINE
  5
2CF
100
AcDbEntity
  8
IMPORT_IGES
100
AcDbLine
 62
7
  6
CONTINUOUS
 10
-5.9998378804
 20
17.7055076899
 11
-5.9719819867
 21
17.7384014872
  0
LINE
  5
2D0
100
AcDbEntity
  8
IMPORT_IGES
100
AcDbLine
 62
7
  6
CONTINUOUS
 10
-6.1564005016
 20
17.8648634278
 11
-6.1732888947
 21
17.845206596
  0
LINE
  5
2D1
100
AcDbEntity
  8
IMPORT_IGES
100
AcDbLine
 62
7
  6
CONTINUOUS
 10
-4.7405263907
 20
17.7463948735
 11
-4.7147209925
 21
17.7763736917
  0
LINE
  5
2D2
100
AcDbEntity
  8
IMPORT_IGES
100
AcDbLine
 62
7
  6
CONTINUOUS
 10
-5.375665159
 20
16.3432890225
 11
-5.3349789644
 21
16.3897387155
  0
LINE
  5
2D3
100
AcDbEntity
  8
IMPORT_IGES
100
AcDbLine
 62
7
  6
CONTINUOUS
 10
-6.7443169852
 20
16.3387829518
 11
-6.7031713358
 21
16.3847067729
  0
LINE
  5
2D4
100
AcDbEntity
  8
IMPORT_IGES
100
AcDbLine
 62
7
  6
CONTINUOUS
 10
-4.2543279086
 20
17.4117344498
 11
-4.2766239444
 21
17.3868954814
  0
LINE
  5
2D5
100
AcDbEntity
  8
IMPORT_IGES
100
AcDbLine
 62
7
  6
CONTINUOUS
 10
-6.8771412719
 20
16.5149206462
 11
-6.9059912577
 21
16.483577228
  0
LINE
  5
2D6
100
AcDbEntity
  8
IMPORT_IGES
100
AcDbLine
 62
7
  6
CONTINUOUS
 10
-5.5129175786
 20
16.5149206461
 11
-5.5417675644
 21
16.483577228
  0
LINE
  5
2D7
100
AcDbEntity
  8
IMPORT_IGES
100
AcDbLine
 62
7
  6
CONTINUOUS
 10
-4.0940970888
 20
17.3002832348
 11
-4.0614501236
 21
17.3353477301
  0
LINE
  5
2D8
100
AcDbEntity
  8
IMPORT_IGES
100
AcDbLine
 62
7
  6
CONTINUOUS
 10
-4.8719112259
 20
17.9072308491
 11
-4.9114024782
 21
17.8658405078
  0
LINE
  5
2D9
100
AcDbEntity
  8
IMPORT_IGES
100
AcDbLine
 62
7
  6
CONTINUOUS
 10
-3.2817487155
 20
17.8464070788
 11
-3.3205437423
 21
17.807062033
  0
LINE
  5
2DA
100
AcDbEntity
  8
IMPORT_IGES
100
AcDbLine
 62
7
  6
CONTINUOUS
 10
-4.0691348568
 20
16.3679378886
 11
-4.0237143801
 21
16.4135118895
  0
LINE
  5
2DB
100
AcDbEntity
  8
IMPORT_IGES
100
AcDbLine
 62
7
  6
CONTINUOUS
 10
-15.8753672057
 20
7.4864193592
 11
-16.0140675377
 21
7.3506469794
  0
LINE
  5
2DC
100
AcDbEntity
  8
IMPORT_IGES
100
AcDbLine
 62
253
  6
CONTINUOUS
 10
-14.7834495592
 20
6.096797133
 11
-14.6463666473
 21
6.2309862363
  0
LINE
  5
2DD
100
AcDbEntity
  8
IMPORT_IGES
100
AcDbLine
 62
7
  6
CONTINUOUS
 10
-5.419348007
 20
16.3031346142
 11
-5.375665159
 21
16.3432890225
  0
LINE
  5
2DE
100
AcDbEntity
  8
IMPORT_IGES
100
AcDbLine
 62
7
  6
CONTINUOUS
 10
-3.3205437423
 20
17.807062033
 11
-3.3625020808
 21
17.7686127413
  0
LINE
  5
2DF
100
AcDbEntity
  8
IMPORT_IGES
100
AcDbLine
 62
7
  6
CONTINUOUS
 10
-6.7885376738
 20
16.2991605341
 11
-6.7443169852
 21
16.3387829518
  0
LINE
  5
2E0
100
AcDbEntity
  8
IMPORT_IGES
100
AcDbLine
 62
7
  6
CONTINUOUS
 10
-4.7147209925
 20
17.7763736917
 11
-4.6854843788
 21
17.8021179284
  0
LINE
  5
2E1
100
AcDbEntity
  8
IMPORT_IGES
100
AcDbLine
 62
7
  6
CONTINUOUS
 10
-2.3118388933
 20
17.7215749308
 11
-2.2826022796
 21
17.7473191675
  0
LINE
  5
2E2
100
AcDbEntity
  8
IMPORT_IGES
100
AcDbLine
 62
7
  6
CONTINUOUS
 10
-3.2804524999
 20
17.580420657
 11
-3.2413037413
 21
17.614576718
  0
LWPOLYLINE
  5
2E3
100
AcDbEntity
  8
IMPORT_IGES
100
AcDbPolyline
 62
253
  6
CONTINUOUS
 90
13
 70
0
 10
-16.014056608
 20
7.3502755573
 10
-16.0180902227
 20
7.3467878558
 10
-16.0288499686
 20
7.3430755087
 10
-16.0463330773
 20
7.3391667528
 10
-16.0703320143
 20
7.335106278
 10
-16.1006440314
 20
7.3309179981
 10
-16.1372886716
 20
7.3265978603
 10
-16.1800127329
 20
7.3221779309
 10
-16.2284315132
 20
7.3176954512
 10
-16.2825626315
 20
7.3131484535
 10
-16.3420143253
 20
7.3085713575
 10
-16.4062973818
 20
7.3040002264
 10
-16.4754302651
 20
7.2994338248
  0
LINE
  5
2E4
100
AcDbEntity
  8
IMPORT_IGES
100
AcDbLine
 62
7
  6
CONTINUOUS
 10
-4.2328817802
 20
16.498774683
 11
-4.2690213476
 21
16.4678080791
  0
LINE
  5
2E5
100
AcDbEntity
  8
IMPORT_IGES
100
AcDbLine
 62
7
  6
CONTINUOUS
 10
-5.5417675644
 20
16.483577228
 11
-5.5730166213
 21
16.4569618943
  0
LINE
  5
2E6
100
AcDbEntity
  8
IMPORT_IGES
100
AcDbLine
 62
7
  6
CONTINUOUS
 10
-4.2766239444
 20
17.3868954814
 11
-4.3032165951
 21
17.3644956416
  0
LINE
  5
2E7
100
AcDbEntity
  8
IMPORT_IGES
100
AcDbLine
 62
7
  6
CONTINUOUS
 10
-1.8737418451
 20
17.3320967205
 11
-1.9003344959
 21
17.3096968807
  0
LINE
  5
2E8
100
AcDbEntity
  8
IMPORT_IGES
100
AcDbLine
 62
7
  6
CONTINUOUS
 10
-3.3625020808
 20
17.7686127413
 11
-3.4074297996
 21
17.7309076197
  0
LINE
  5
2E9
100
AcDbEntity
  8
IMPORT_IGES
100
AcDbLine
 62
7
  6
CONTINUOUS
 10
-4.1318512846
 20
17.2687233104
 11
-4.0940970888
 21
17.3002832348
  0
LINE
  5
2EA
100
AcDbEntity
  8
IMPORT_IGES
100
AcDbLine
 62
7
  6
CONTINUOUS
 10
-2.4253002861
 20
17.8888787961
 11
-2.4690291266
 21
17.8524320883
  0
LINE
  5
2EB
100
AcDbEntity
  8
IMPORT_IGES
100
AcDbLine
 62
7
  6
CONTINUOUS
 10
-4.1206742299
 20
16.3258876604
 11
-4.0691348568
 21
16.3679378886
  0
LINE
  5
2EC
100
AcDbEntity
  8
IMPORT_IGES
100
AcDbLine
 62
7
  6
CONTINUOUS
 10
-3.3221125583
 20
17.5474087572
 11
-3.2804524999
 21
17.580420657
  0
LINE
  5
2ED
100
AcDbEntity
  8
IMPORT_IGES
100
AcDbLine
 62
7
  6
CONTINUOUS
 10
-3.4074297996
 20
17.7309076197
 11
-3.45552083
 21
17.6940982521
  0
LINE
  5
2EE
100
AcDbEntity
  8
IMPORT_IGES
100
AcDbLine
 62
7
  6
CONTINUOUS
 10
-5.4654347874
 20
16.2696280025
 11
-5.419348007
 21
16.3031346142
  0
LINE
  5
2EF
100
AcDbEntity
  8
IMPORT_IGES
100
AcDbLine
 62
7
  6
CONTINUOUS
 10
-3.3662839165
 20
17.5155410188
 11
-3.3221125583
 21
17.5474087572
  0
LINE
  5
2F0
100
AcDbEntity
  8
IMPORT_IGES
100
AcDbLine
 62
7
  6
CONTINUOUS
 10
-3.45552083
 20
17.6940982521
 11
-3.5069080514
 21
17.6587520392
  0
LINE
  5
2F1
100
AcDbEntity
  8
IMPORT_IGES
100
AcDbLine
 62
7
  6
CONTINUOUS
 10
-2.2826022796
 20
17.7473191675
 11
-2.2500782781
 21
17.7688689665
  0
LINE
  5
2F2
100
AcDbEntity
  8
IMPORT_IGES
100
AcDbLine
 62
7
  6
CONTINUOUS
 10
-4.1747580222
 20
17.2404055346
 11
-4.1318512846
 21
17.2687233104
  0
LINE
  5
2F3
100
AcDbEntity
  8
IMPORT_IGES
100
AcDbLine
 62
7
  6
CONTINUOUS
 10
-1.7718759229
 20
17.1856067738
 11
-1.7289691854
 21
17.2139245495
  0
LINE
  5
2F4
100
AcDbEntity
  8
IMPORT_IGES
100
AcDbLine
 62
7
  6
CONTINUOUS
 10
-4.2690213476
 20
16.4678080791
 11
-4.3092863754
 21
16.4413282218
  0
LINE
  5
2F5
100
AcDbEntity
  8
IMPORT_IGES
100
AcDbLine
 62
7
  6
CONTINUOUS
 10
-1.8661392483
 20
16.4130093183
 11
-1.9064042761
 21
16.386529461
  0
LINE
  5
2F6
100
AcDbEntity
  8
IMPORT_IGES
100
AcDbLine
 62
7
  6
CONTINUOUS
 10
-3.4130802641
 20
17.4847734596
 11
-3.3662839165
 21
17.5155410188
  0
LINE
  5
2F7
100
AcDbEntity
  8
IMPORT_IGES
100
AcDbLine
 62
7
  6
CONTINUOUS
 10
-5.5730166213
 20
16.4569618943
 11
-5.6069013296
 21
16.4347561357
  0
LINE
  5
2F8
100
AcDbEntity
  8
IMPORT_IGES
100
AcDbLine
 62
7
  6
CONTINUOUS
 10
-2.3772709392
 20
17.9201363161
 11
-2.4253002861
 21
17.8888787961
  0
LINE
  5
2F9
100
AcDbEntity
  8
IMPORT_IGES
100
AcDbLine
 62
7
  6
CONTINUOUS
 10
-1.9003344959
 20
17.3096968807
 11
-1.9308844389
 21
17.2898476564
  0
LINE
  5
2FA
100
AcDbEntity
  8
IMPORT_IGES
100
AcDbLine
 62
7
  6
CONTINUOUS
 10
-4.1760301563
 20
16.2902491839
 11
-4.1206742299
 21
16.3258876604
  0
LINE
  5
2FB
100
AcDbEntity
  8
IMPORT_IGES
100
AcDbLine
 62
7
  6
CONTINUOUS
 10
-1.773148057
 20
16.2354504231
 11
-1.7177921306
 21
16.2710888995
  0
LINE
  5
2FC
100
AcDbEntity
  8
IMPORT_IGES
100
AcDbLine
 62
7
  6
CONTINUOUS
 10
-3.5069080514
 20
17.6587520392
 11
-3.561635757
 21
17.6250581145
  0
LINE
  5
2FD
100
AcDbEntity
  8
IMPORT_IGES
100
AcDbLine
 62
7
  6
CONTINUOUS
 10
-3.4623879114
 20
17.4551500616
 11
-3.4130802641
 21
17.4847734596
  0
LINE
  5
2FE
100
AcDbEntity
  8
IMPORT_IGES
100
AcDbLine
 62
7
  6
CONTINUOUS
 10
-5.5145182212
 20
16.2424166755
 11
-5.4654347874
 21
16.2696280025
  0
LINE
  5
2FF
100
AcDbEntity
  8
IMPORT_IGES
100
AcDbLine
 62
7
  6
CONTINUOUS
 10
-1.8199352023
 20
17.1605311469
 11
-1.7718759229
 21
17.1856067738
  0
LINE
  5
300
100
AcDbEntity
  8
IMPORT_IGES
100
AcDbLine
 62
7
  6
CONTINUOUS
 10
-1.9308844389
 20
17.2898476564
 11
-1.9643849899
 21
17.2725249306
  0
LINE
  5
301
100
AcDbEntity
  8
IMPORT_IGES
100
AcDbLine
 62
7
  6
CONTINUOUS
 10
-4.2346869596
 20
16.2619139844
 11
-4.1760301563
 21
16.2902491839
  0
LINE
  5
302
100
AcDbEntity
  8
IMPORT_IGES
100
AcDbLine
 62
7
  6
CONTINUOUS
 10
-1.8318048603
 20
16.2071152236
 11
-1.773148057
 21
16.2354504231
  0
LINE
  5
303
100
AcDbEntity
  8
IMPORT_IGES
100
AcDbLine
 62
7
  6
CONTINUOUS
 10
-4.3092863754
 20
16.4413282218
 11
-4.352077482
 21
16.4207499125
  0
LINE
  5
304
100
AcDbEntity
  8
IMPORT_IGES
100
AcDbLine
 62
7
  6
CONTINUOUS
 10
-1.9064042761
 20
16.386529461
 11
-1.9491953827
 21
16.3659511517
  0
LINE
  5
305
100
AcDbEntity
  8
IMPORT_IGES
100
AcDbLine
 62
7
  6
CONTINUOUS
 10
-1.9643849899
 20
17.2725249306
 11
-2.0014476607
 21
17.2573587729
  0
LINE
  5
306
100
AcDbEntity
  8
IMPORT_IGES
100
AcDbLine
 62
7
  6
CONTINUOUS
 10
-4.2971603163
 20
16.2399905368
 11
-4.2346869596
 21
16.2619139844
  0
LINE
  5
307
100
AcDbEntity
  8
IMPORT_IGES
100
AcDbLine
 62
7
  6
CONTINUOUS
 10
-1.894278217
 20
16.185191776
 11
-1.8318048603
 21
16.2071152236
  0
LINE
  5
308
100
AcDbEntity
  8
IMPORT_IGES
100
AcDbLine
 62
7
  6
CONTINUOUS
 10
-4.352077482
 20
16.4207499125
 11
-4.398092339
 21
16.4066127632
  0
LINE
  5
309
100
AcDbEntity
  8
IMPORT_IGES
100
AcDbLine
 62
7
  6
CONTINUOUS
 10
-1.9491953827
 20
16.3659511517
 11
-1.9952102397
 21
16.3518140024
  0
LWPOLYLINE
  5
30A
100
AcDbEntity
  8
IMPORT_IGES
100
AcDbPolyline
 62
253
  6
CONTINUOUS
 90
19
 70
0
 10
25.5755929186
 20
-13.7842310828
 10
25.6574961615
 20
-13.7832540227
 10
25.737512262
 20
-13.7817191882
 10
25.8151472066
 20
-13.7796535028
 10
25.8895767625
 20
-13.7771008698
 10
25.9607897708
 20
-13.7740839821
 10
26.0294517437
 20
-13.7705793163
 10
26.095358445
 20
-13.7665838435
 10
26.1577305217
 20
-13.7621305723
 10
26.2162322488
 20
-13.7572303544
 10
26.2704791254
 20
-13.7518963357
 10
26.3198872398
 20
-13.7461650272
 10
26.3638701993
 20
-13.740088728
 10
26.4020069061
 20
-13.7337159545
 10
26.4340436355
 20
-13.7270779064
 10
26.4597216309
 20
-13.72020763
 10
26.4787664836
 20
-13.7131468342
 10
26.4909234679
 20
-13.7059467311
 10
26.495997683
 20
-13.6986574505
  0
LINE
  5
30B
100
AcDbEntity
  8
IMPORT_IGES
100
AcDbLine
 62
253
  6
CONTINUOUS
 10
-21.6897507231
 20
18.0376055961
 11
-21.590187598
 21
17.782143472
  0
LINE
  5
30C
100
AcDbEntity
  8
IMPORT_IGES
100
AcDbLine
 62
253
  6
CONTINUOUS
 10
-21.7514554211
 20
18.1986049123
 11
-21.6897507231
 21
18.0376055961
  0
LINE
  5
30D
100
AcDbEntity
  8
IMPORT_IGES
100
AcDbLine
 62
253
  6
CONTINUOUS
 10
-21.8080264911
 20
18.3485176515
 11
-21.7514554211
 21
18.1986049123
  0
LWPOLYLINE
  5
30E
100
AcDbEntity
  8
IMPORT_IGES
100
AcDbPolyline
 62
253
  6
CONTINUOUS
 90
8
 70
0
 10
-19.7663097128
 20
18.940380012
 10
-19.7607567076
 20
18.9180663431
 10
-19.7531930212
 20
18.8902240806
 10
-19.7436544228
 20
18.8569842915
 10
-19.7321862574
 20
18.8185030619
 10
-19.7188425152
 20
18.7749622029
 10
-19.703685918
 20
18.7265688099
 10
-19.6682317246
 20
18.616160491
  0
LINE
  5
30F
100
AcDbEntity
  8
IMPORT_IGES
100
AcDbLine
 62
253
  6
CONTINUOUS
 10
-14.6461405278
 20
18.9515401053
 11
-14.6459178884
 21
18.9481073055
  0
LINE
  5
310
100
AcDbEntity
  8
IMPORT_IGES
100
AcDbLine
 62
7
  6
CONTINUOUS
 10
-7.6893008138
 20
17.5289235602
 11
-7.7069198602
 21
17.4531287228
  0
LINE
  5
311
100
AcDbEntity
  8
IMPORT_IGES
100
AcDbLine
 62
7
  6
CONTINUOUS
 10
-7.4597488757
 20
17.4792246082
 11
-7.4461595706
 21
17.5310527128
  0
LINE
  5
312
100
AcDbEntity
  8
IMPORT_IGES
100
AcDbLine
 62
7
  6
CONTINUOUS
 10
-7.6678032016
 20
17.6002572102
 11
-7.6893008138
 21
17.5289235602
  0
LWPOLYLINE
  5
313
100
AcDbEntity
  8
IMPORT_IGES
100
AcDbPolyline
 62
253
  6
CONTINUOUS
 90
25
 70
0
 10
-19.7900831628
 20
-16.8599599583
 10
-19.799839299
 20
-16.8907031417
 10
-19.8175656509
 20
-16.9168665141
 10
-19.8432901602
 20
-16.9384878873
 10
-19.8771475105
 20
-16.9554598295
 10
-19.9190497302
 20
-16.9679520789
 10
-19.9686822785
 20
-16.9764008626
 10
-20.0258640139
 20
-16.9809428492
 10
-20.0907970003
 20
-16.9814530909
 10
-20.1637331495
 20
-16.9779549176
 10
-20.2448568283
 20
-16.9705345525
 10
-20.3339875891
 20
-16.9590803602
 10
-20.4308283647
 20
-16.9433208097
 10
-20.5371739322
 20
-16.9226730926
 10
-20.6512225661
 20
-16.8976879546
 10
-20.7672915753
 20
-16.8698518004
 10
-20.8825963936
 20
-16.8399610886
 10
-20.9999262913
 20
-16.80728733
 10
-21.1219617986
 20
-16.771052965
 10
-21.2487094468
 20
-16.7313109122
 10
-21.3801404866
 20
-16.6879884309
 10
-21.5188675486
 20
-16.6400718352
 10
-21.6657410543
 20
-16.5871850192
 10
-21.8198559907
 20
-16.5296109076
 10
-21.9811801495
 20
-16.4672962493
  0
LWPOLYLINE
  5
314
100
AcDbEntity
  8
IMPORT_IGES
100
AcDbPolyline
 62
253
  6
CONTINUOUS
 90
3
 70
0
 10
-19.6868537657
 20
-16.2911632542
 10
-19.7037262002
 20
-16.3441477584
 10
-19.7322295835
 20
-16.4360624819
  0
LINE
  5
315
100
AcDbEntity
  8
IMPORT_IGES
100
AcDbLine
 62
7
  6
CONTINUOUS
 10
-7.4461595706
 20
17.5310527128
 11
-7.4302005954
 21
17.5802164094
  0
LINE
  5
316
100
AcDbEntity
  8
IMPORT_IGES
100
AcDbLine
 62
253
  6
CONTINUOUS
 10
-19.6481491674
 20
-16.1722884604
 11
-19.6868537657
 21
-16.2911632542
  0
LINE
  5
317
100
AcDbEntity
  8
IMPORT_IGES
100
AcDbLine
 62
7
  6
CONTINUOUS
 10
-6.7955080788
 20
16.6753284398
 11
-6.8101103409
 21
16.6308775362
  0
LINE
  5
318
100
AcDbEntity
  8
IMPORT_IGES
100
AcDbLine
 62
253
  6
CONTINUOUS
 10
-19.6035195795
 20
-16.0382225868
 11
-19.6481491674
 21
-16.1722884604
  0
LINE
  5
319
100
AcDbEntity
  8
IMPORT_IGES
100
AcDbLine
 62
7
  6
CONTINUOUS
 10
-6.3012527475
 20
17.6070422799
 11
-6.3070881475
 21
17.5896272404
  0
LINE
  5
31A
100
AcDbEntity
  8
IMPORT_IGES
100
AcDbLine
 62
253
  6
CONTINUOUS
 10
-19.5539567402
 20
-15.8913999035
 11
-19.6035195795
 21
-16.0382225868
  0
LINE
  5
31B
100
AcDbEntity
  8
IMPORT_IGES
100
AcDbLine
 62
7
  6
CONTINUOUS
 10
-6.2962594199
 20
17.6213792434
 11
-6.3012527475
 21
17.6070422799
  0
LWPOLYLINE
  5
31C
100
AcDbEntity
  8
IMPORT_IGES
100
AcDbPolyline
 62
253
  6
CONTINUOUS
 90
3
 70
0
 10
-19.414020411
 20
-15.4875002104
 10
-19.4434937501
 20
-15.5708814515
 10
-19.5539567402
 20
-15.8913999035
  0
LINE
  5
31D
100
AcDbEntity
  8
IMPORT_IGES
100
AcDbLine
 62
7
  6
CONTINUOUS
 10
-6.2900974971
 20
17.6379801453
 11
-6.2962594199
 21
17.6213792434
  0
LINE
  5
31E
100
AcDbEntity
  8
IMPORT_IGES
100
AcDbLine
 62
7
  6
CONTINUOUS
 10
-6.6022308931
 20
16.5582381661
 11
-6.5763304388
 21
16.6266178847
  0
LINE
  5
31F
100
AcDbEntity
  8
IMPORT_IGES
100
AcDbLine
 62
7
  6
CONTINUOUS
 10
-7.6423288073
 20
17.667436453
 11
-7.6678032016
 21
17.6002572102
  0
LINE
  5
320
100
AcDbEntity
  8
IMPORT_IGES
100
AcDbLine
 62
7
  6
CONTINUOUS
 10
-6.282335078
 20
17.6575030724
 11
-6.2900974971
 21
17.6379801453
  0
LINE
  5
321
100
AcDbEntity
  8
IMPORT_IGES
100
AcDbLine
 62
7
  6
CONTINUOUS
 10
-7.4302005954
 20
17.5802164094
 11
-7.4112844671
 21
17.6256406408
  0
LINE
  5
322
100
AcDbEntity
  8
IMPORT_IGES
100
AcDbLine
 62
7
  6
CONTINUOUS
 10
-6.0659769021
 20
17.5802164095
 11
-6.0470607738
 21
17.6256406409
  0
LINE
  5
323
100
AcDbEntity
  8
IMPORT_IGES
100
AcDbLine
 62
7
  6
CONTINUOUS
 10
-6.2750050324
 20
17.6749717568
 11
-6.282335078
 21
17.6575030724
  0
LINE
  5
324
100
AcDbEntity
  8
IMPORT_IGES
100
AcDbLine
 62
7
  6
CONTINUOUS
 10
-6.8101103409
 20
16.6308775362
 11
-6.8283256072
 21
16.589417752
  0
LINE
  5
325
100
AcDbEntity
  8
IMPORT_IGES
100
AcDbLine
 62
7
  6
CONTINUOUS
 10
-5.4458866476
 20
16.6308775362
 11
-5.464101914
 21
16.589417752
  0
LINE
  5
326
100
AcDbEntity
  8
IMPORT_IGES
100
AcDbLine
 62
7
  6
CONTINUOUS
 10
-6.2671337062
 20
17.6927647088
 11
-6.2750050324
 21
17.6749717568
  0
LINE
  5
327
100
AcDbEntity
  8
IMPORT_IGES
100
AcDbLine
 62
7
  6
CONTINUOUS
 10
-4.9769661637
 20
17.7673316893
 11
-5.0023488637
 21
17.7099991154
  0
LINE
  5
328
100
AcDbEntity
  8
IMPORT_IGES
100
AcDbLine
 62
7
  6
CONTINUOUS
 10
-5.264849968
 20
16.5003201212
 11
-5.2354071663
 21
16.5644518339
  0
LINE
  5
329
100
AcDbEntity
  8
IMPORT_IGES
100
AcDbLine
 62
7
  6
CONTINUOUS
 10
-6.6321282897
 20
16.4944343801
 11
-6.6022308931
 21
16.5582381661
  0
LINE
  5
32A
100
AcDbEntity
  8
IMPORT_IGES
100
AcDbLine
 62
7
  6
CONTINUOUS
 10
-6.258528822
 20
17.7108834643
 11
-6.2671337062
 21
17.6927647088
  0
LINE
  5
32B
100
AcDbEntity
  8
IMPORT_IGES
100
AcDbLine
 62
7
  6
CONTINUOUS
 10
-6.2492093719
 20
17.7293606895
 11
-6.258528822
 21
17.7108834643
  0
LINE
  5
32C
100
AcDbEntity
  8
IMPORT_IGES
100
AcDbLine
 62
7
  6
CONTINUOUS
 10
-4.7821459591
 20
17.6744555122
 11
-4.763044401
 21
17.7122216175
  0
LINE
  5
32D
100
AcDbEntity
  8
IMPORT_IGES
100
AcDbLine
 62
7
  6
CONTINUOUS
 10
-6.0470607738
 20
17.6256406409
 11
-6.0249279036
 21
17.667443898
  0
LINE
  5
32E
100
AcDbEntity
  8
IMPORT_IGES
100
AcDbLine
 62
7
  6
CONTINUOUS
 10
-6.2391563639
 20
17.7481637182
 11
-6.2492093719
 21
17.7293606895
  0
LINE
  5
32F
100
AcDbEntity
  8
IMPORT_IGES
100
AcDbLine
 62
7
  6
CONTINUOUS
 10
-4.0339557001
 20
17.3736543741
 11
-4.0117497524
 21
17.4144159005
  0
LINE
  5
330
100
AcDbEntity
  8
IMPORT_IGES
100
AcDbLine
 62
7
  6
CONTINUOUS
 10
-5.297992968
 20
16.4419958657
 11
-5.264849968
 21
16.5003201212
  0
LINE
  5
331
100
AcDbEntity
  8
IMPORT_IGES
100
AcDbLine
 62
7
  6
CONTINUOUS
 10
-6.6657362991
 20
16.4364957969
 11
-6.6321282897
 21
16.4944343801
  0
LINE
  5
332
100
AcDbEntity
  8
IMPORT_IGES
100
AcDbLine
 62
7
  6
CONTINUOUS
 10
-5.464101914
 20
16.589417752
 11
-5.4867032442
 21
16.5506736394
  0
LINE
  5
333
100
AcDbEntity
  8
IMPORT_IGES
100
AcDbLine
 62
7
  6
CONTINUOUS
 10
-4.9465932241
 20
17.8192609787
 11
-4.9769661637
 21
17.7673316893
  0
LINE
  5
334
100
AcDbEntity
  8
IMPORT_IGES
100
AcDbLine
 62
7
  6
CONTINUOUS
 10
-3.9850147993
 20
16.4619411154
 11
-3.9524341149
 21
16.5138941139
  0
LINE
  5
335
100
AcDbEntity
  8
IMPORT_IGES
100
AcDbLine
 62
7
  6
CONTINUOUS
 10
-4.763044401
 20
17.7122216175
 11
-4.7405263907
 21
17.7463948735
  0
LINE
  5
336
100
AcDbEntity
  8
IMPORT_IGES
100
AcDbLine
 62
7
  6
CONTINUOUS
 10
-3.1873362709
 20
17.96906575
 11
-3.2151449798
 21
17.9274089373
  0
LINE
  5
337
100
AcDbEntity
  8
IMPORT_IGES
100
AcDbLine
 62
7
  6
CONTINUOUS
 10
-4.2359891651
 20
17.4391240337
 11
-4.2543279086
 21
17.4117344498
  0
LINE
  5
338
100
AcDbEntity
  8
IMPORT_IGES
100
AcDbLine
 62
7
  6
CONTINUOUS
 10
-4.1728871109
 20
16.5742808576
 11
-4.2008217153
 21
16.534284397
  0
LINE
  5
339
100
AcDbEntity
  8
IMPORT_IGES
100
AcDbLine
 62
7
  6
CONTINUOUS
 10
-5.3349789644
 20
16.3897387155
 11
-5.297992968
 21
16.4419958657
  0
LINE
  5
33A
100
AcDbEntity
  8
IMPORT_IGES
100
AcDbLine
 62
7
  6
CONTINUOUS
 10
-4.0614501236
 20
17.3353477301
 11
-4.0339557001
 21
17.3736543741
  0
LINE
  5
33B
100
AcDbEntity
  8
IMPORT_IGES
100
AcDbLine
 62
7
  6
CONTINUOUS
 10
-2.5085203772
 20
17.8110417562
 11
-2.5437111215
 21
17.7644622363
  0
LINE
  5
33C
100
AcDbEntity
  8
IMPORT_IGES
100
AcDbLine
 62
7
  6
CONTINUOUS
 10
-3.2151449798
 20
17.9274089373
 11
-3.2465659152
 21
17.8865352301
  0
LINE
  5
33D
100
AcDbEntity
  8
IMPORT_IGES
100
AcDbLine
 62
7
  6
CONTINUOUS
 10
-4.0237143801
 20
16.4135118895
 11
-3.9850147993
 21
16.4619411154
  0
LINE
  5
33E
100
AcDbEntity
  8
IMPORT_IGES
100
AcDbLine
 62
7
  6
CONTINUOUS
 10
-2.33764429
 20
17.6915961219
 11
-2.3118388933
 21
17.7215749308
  0
LINE
  5
33F
100
AcDbEntity
  8
IMPORT_IGES
100
AcDbLine
 62
7
  6
CONTINUOUS
 10
-3.2465659152
 20
17.8865352301
 11
-3.2817487155
 21
17.8464070788
  0
LINE
  5
340
100
AcDbEntity
  8
IMPORT_IGES
100
AcDbLine
 62
7
  6
CONTINUOUS
 10
-1.8514458093
 20
17.3569356889
 11
-1.8737418451
 21
17.3320967205
  0
LINE
  5
341
100
AcDbEntity
  8
IMPORT_IGES
100
AcDbLine
 62
7
  6
CONTINUOUS
 10
-4.2008217153
 20
16.534284397
 11
-4.2328817802
 21
16.498774683
  0
LINE
  5
342
100
AcDbEntity
  8
IMPORT_IGES
100
AcDbLine
 62
7
  6
CONTINUOUS
 10
-1.797939616
 20
16.4794856362
 11
-1.8299996809
 21
16.4439759222
  0
LINE
  5
343
100
AcDbEntity
  8
IMPORT_IGES
100
AcDbLine
 62
7
  6
CONTINUOUS
 10
-1.6912149896
 20
17.245484474
 11
-1.6585680243
 21
17.2805489693
  0
LINE
  5
344
100
AcDbEntity
  8
IMPORT_IGES
100
AcDbLine
 62
7
  6
CONTINUOUS
 10
-2.4690291266
 20
17.8524320883
 11
-2.5085203772
 21
17.8110417562
  0
LINE
  5
345
100
AcDbEntity
  8
IMPORT_IGES
100
AcDbLine
 62
7
  6
CONTINUOUS
 10
-1.6662527575
 20
16.3131391278
 11
-1.6208322809
 21
16.3587131287
  0
LINE
  5
346
100
AcDbEntity
  8
IMPORT_IGES
100
AcDbLine
 62
7
  6
CONTINUOUS
 10
-1.8299996809
 20
16.4439759222
 11
-1.8661392483
 21
16.4130093183
  0
LINE
  5
347
100
AcDbEntity
  8
IMPORT_IGES
100
AcDbLine
 62
7
  6
CONTINUOUS
 10
-1.7289691854
 20
17.2139245495
 11
-1.6912149896
 21
17.245484474
  0
LINE
  5
348
100
AcDbEntity
  8
IMPORT_IGES
100
AcDbLine
 62
7
  6
CONTINUOUS
 10
-1.7177921306
 20
16.2710888995
 11
-1.6662527575
 21
16.3131391278
  0
LWPOLYLINE
  5
349
100
AcDbEntity
  8
IMPORT_IGES
100
AcDbPolyline
 62
253
  6
CONTINUOUS
 90
10
 70
0
 10
-25.7794874349
 20
-15.5661305668
 10
-25.76259748
 20
-15.5631211211
 10
-25.7457448934
 20
-15.5416979885
 10
-25.7289269674
 20
-15.5018686764
 10
-25.7120897119
 20
-15.4436620067
 10
-25.6952472346
 20
-15.3670839113
 10
-25.6784861249
 20
-15.2721277443
 10
-25.6618040905
 20
-15.1588284066
 10
-25.6451056627
 20
-15.0272520646
 10
-25.6283246837
 20
-14.8774591702
  0
LWPOLYLINE
  5
34A
100
AcDbEntity
  8
IMPORT_IGES
100
AcDbPolyline
 62
253
  6
CONTINUOUS
 90
10
 70
0
 10
26.649055752
 20
-14.6642254676
 10
26.6324470046
 20
-14.6615031633
 10
26.6158542125
 20
-14.6406538717
 10
26.5992773756
 20
-14.6016775929
 10
26.582710424
 20
-14.5445466987
 10
26.5661594276
 20
-14.4692888172
 10
26.5496425967
 20
-14.3759868333
 10
26.5331660014
 20
-14.2646683752
 10
26.5167235716
 20
-14.1353058148
 10
26.5003153072
 20
-13.987899152
  0
LINE
  5
34B
100
AcDbEntity
  8
IMPORT_IGES
100
AcDbLine
 62
253
  6
CONTINUOUS
 10
-19.5001015009
 20
18.1171123894
 11
-19.4141111284
 21
17.8700180069
  0
LINE
  5
34C
100
AcDbEntity
  8
IMPORT_IGES
100
AcDbLine
 62
253
  6
CONTINUOUS
 10
-19.5792621616
 20
18.3485960424
 11
-19.5001015009
 21
18.1171123894
  0
LINE
  5
34D
100
AcDbEntity
  8
IMPORT_IGES
100
AcDbLine
 62
253
  6
CONTINUOUS
 10
-19.6264942884
 20
18.4893692078
 11
-19.5792621616
 21
18.3485960424
  0
LINE
  5
34E
100
AcDbEntity
  8
IMPORT_IGES
100
AcDbLine
 62
253
  6
CONTINUOUS
 10
-19.6682317246
 20
18.616160491
 11
-19.6264942884
 21
18.4893692078
  0
LINE
  5
34F
100
AcDbEntity
  8
IMPORT_IGES
100
AcDbLine
 62
253
  6
CONTINUOUS
 10
-9.1719291299
 20
19.8405828068
 11
-9.1744419189
 21
19.9893699027
  0
LINE
  5
350
100
AcDbEntity
  8
IMPORT_IGES
100
AcDbLine
 62
253
  6
CONTINUOUS
 10
-9.1704322116
 20
19.7069196858
 11
-9.1719291299
 21
19.8405828068
  0
LINE
  5
351
100
AcDbEntity
  8
IMPORT_IGES
100
AcDbLine
 62
7
  6
CONTINUOUS
 10
-7.4868862536
 20
17.3088289028
 11
-7.4799142059
 21
17.3680345699
  0
LINE
  5
352
100
AcDbEntity
  8
IMPORT_IGES
100
AcDbLine
 62
7
  6
CONTINUOUS
 10
-7.7207187334
 20
17.373262884
 11
-7.7308678984
 21
17.2879852402
  0
LINE
  5
353
100
AcDbEntity
  8
IMPORT_IGES
100
AcDbLine
 62
7
  6
CONTINUOUS
 10
-6.7648934216
 20
16.8229936005
 11
-6.7728996191
 21
16.771386472
  0
LINE
  5
354
100
AcDbEntity
  8
IMPORT_IGES
100
AcDbLine
 62
7
  6
CONTINUOUS
 10
-7.4799142059
 20
17.3680345699
 11
-7.4710163759
 21
17.4249617931
  0
LINE
  5
355
100
AcDbEntity
  8
IMPORT_IGES
100
AcDbLine
 62
7
  6
CONTINUOUS
 10
-6.5367725005
 20
16.776640205
 11
-6.5228970605
 21
16.8579233654
  0
LINE
  5
356
100
AcDbEntity
  8
IMPORT_IGES
100
AcDbLine
 62
7
  6
CONTINUOUS
 10
-7.7069198602
 20
17.4531287228
 11
-7.7207187334
 21
17.373262884
  0
LINE
  5
357
100
AcDbEntity
  8
IMPORT_IGES
100
AcDbLine
 62
7
  6
CONTINUOUS
 10
-7.8011532728
 20
8.7505535796
 11
-7.7958440324
 21
8.7806457064
  0
LINE
  5
358
100
AcDbEntity
  8
IMPORT_IGES
100
AcDbLine
 62
7
  6
CONTINUOUS
 10
-7.6108709117
 20
8.7060122331
 11
-7.6022823756
 21
8.7503016032
  0
LINE
  5
359
100
AcDbEntity
  8
IMPORT_IGES
100
AcDbLine
 62
7
  6
CONTINUOUS
 10
-6.3430093275
 20
17.4513608132
 11
-6.3528035933
 21
17.4006626666
  0
LINE
  5
35A
100
AcDbEntity
  8
IMPORT_IGES
100
AcDbLine
 62
7
  6
CONTINUOUS
 10
-7.7905723745
 20
8.8067746768
 11
-7.7957835706
 21
8.7806404435
  0
LINE
  5
35B
100
AcDbEntity
  8
IMPORT_IGES
100
AcDbLine
 62
7
  6
CONTINUOUS
 10
-7.8231785076
 20
7.8185910123
 11
-7.8351179737
 21
7.7598294489
  0
LINE
  5
35C
100
AcDbEntity
  8
IMPORT_IGES
100
AcDbLine
 62
7
  6
CONTINUOUS
 10
-7.4710163759
 20
17.4249617931
 11
-7.4597488757
 21
17.4792246082
  0
LINE
  5
35D
100
AcDbEntity
  8
IMPORT_IGES
100
AcDbLine
 62
7
  6
CONTINUOUS
 10
-6.1067926826
 20
17.4249617932
 11
-6.0955251824
 21
17.4792246083
  0
LINE
  5
35E
100
AcDbEntity
  8
IMPORT_IGES
100
AcDbLine
 62
7
  6
CONTINUOUS
 10
-6.7728996191
 20
16.771386472
 11
-6.7831769946
 21
16.7221783502
  0
LINE
  5
35F
100
AcDbEntity
  8
IMPORT_IGES
100
AcDbLine
 62
7
  6
CONTINUOUS
 10
-6.3384387061
 20
17.473142809
 11
-6.3430093275
 21
17.4513608132
  0
LINE
  5
360
100
AcDbEntity
  8
IMPORT_IGES
100
AcDbLine
 62
7
  6
CONTINUOUS
 10
-6.3336624614
 20
17.4942390975
 11
-6.3384387061
 21
17.473142809
  0
LINE
  5
361
100
AcDbEntity
  8
IMPORT_IGES
100
AcDbLine
 62
7
  6
CONTINUOUS
 10
-6.5545529985
 20
16.6993410786
 11
-6.5367725005
 21
16.776640205
  0
LINE
  5
362
100
AcDbEntity
  8
IMPORT_IGES
100
AcDbLine
 62
7
  6
CONTINUOUS
 10
-6.3286855556
 20
17.5146518858
 11
-6.3336624614
 21
17.4942390975
  0
LINE
  5
363
100
AcDbEntity
  8
IMPORT_IGES
100
AcDbLine
 62
7
  6
CONTINUOUS
 10
-6.0955251824
 20
17.4792246083
 11
-6.0819358773
 21
17.5310527129
  0
LINE
  5
364
100
AcDbEntity
  8
IMPORT_IGES
100
AcDbLine
 62
7
  6
CONTINUOUS
 10
-6.3235114056
 20
17.5343784209
 11
-6.3286855556
 21
17.5146518858
  0
LINE
  5
365
100
AcDbEntity
  8
IMPORT_IGES
100
AcDbLine
 62
7
  6
CONTINUOUS
 10
-6.7831769946
 20
16.7221783502
 11
-6.7955080788
 21
16.6753284398
  0
LINE
  5
366
100
AcDbEntity
  8
IMPORT_IGES
100
AcDbLine
 62
7
  6
CONTINUOUS
 10
-5.4189533013
 20
16.7221783501
 11
-5.4312843855
 21
16.6753284398
  0
LINE
  5
367
100
AcDbEntity
  8
IMPORT_IGES
100
AcDbLine
 62
7
  6
CONTINUOUS
 10
-7.808424041
 20
7.8740874234
 11
-7.8231785076
 21
7.8185910123
  0
LINE
  5
368
100
AcDbEntity
  8
IMPORT_IGES
100
AcDbLine
 62
7
  6
CONTINUOUS
 10
-7.6022823756
 20
8.7503016032
 11
-7.5916302194
 21
8.7899034026
  0
LINE
  5
369
100
AcDbEntity
  8
IMPORT_IGES
100
AcDbLine
 62
7
  6
CONTINUOUS
 10
-4.8100136753
 20
17.5885458123
 11
-4.7977880433
 21
17.633297087
  0
LINE
  5
36A
100
AcDbEntity
  8
IMPORT_IGES
100
AcDbLine
 62
7
  6
CONTINUOUS
 10
-7.7821710687
 20
8.8370991161
 11
-7.7905723745
 21
8.8067746768
  0
LINE
  5
36B
100
AcDbEntity
  8
IMPORT_IGES
100
AcDbLine
 62
7
  6
CONTINUOUS
 10
-6.3181775986
 20
17.5534750442
 11
-6.3235114056
 21
17.5343784209
  0
LINE
  5
36C
100
AcDbEntity
  8
IMPORT_IGES
100
AcDbLine
 62
7
  6
CONTINUOUS
 10
-5.2099397134
 20
16.6331242319
 11
-5.18856912
 21
16.7061229338
  0
LINE
  5
36D
100
AcDbEntity
  8
IMPORT_IGES
100
AcDbLine
 62
7
  6
CONTINUOUS
 10
-6.3127134622
 20
17.5718659716
 11
-6.3181775986
 21
17.5534750442
  0
LINE
  5
36E
100
AcDbEntity
  8
IMPORT_IGES
100
AcDbLine
 62
7
  6
CONTINUOUS
 10
-7.0108968212
 20
8.6434699125
 11
-7.0231059078
 21
8.6026014636
  0
LINE
  5
36F
100
AcDbEntity
  8
IMPORT_IGES
100
AcDbLine
 62
7
  6
CONTINUOUS
 10
-6.5763304388
 20
16.6266178847
 11
-6.5545529985
 21
16.6993410786
  0
LINE
  5
370
100
AcDbEntity
  8
IMPORT_IGES
100
AcDbLine
 62
7
  6
CONTINUOUS
 10
-4.2110255358
 20
17.5035829592
 11
-4.2215964299
 21
17.4694228109
  0
LINE
  5
371
100
AcDbEntity
  8
IMPORT_IGES
100
AcDbLine
 62
7
  6
CONTINUOUS
 10
-6.3070881475
 20
17.5896272404
 11
-6.3127134622
 21
17.5718659716
  0
LINE
  5
372
100
AcDbEntity
  8
IMPORT_IGES
100
AcDbLine
 62
7
  6
CONTINUOUS
 10
-7.7821710687
 20
8.8370991161
 11
-7.7738079023
 21
8.8634572435
  0
LINE
  5
373
100
AcDbEntity
  8
IMPORT_IGES
100
AcDbLine
 62
7
  6
CONTINUOUS
 10
-7.6348055361
 20
7.8141836681
 11
-7.6208461155
 21
7.8578554128
  0
LINE
  5
374
100
AcDbEntity
  8
IMPORT_IGES
100
AcDbLine
 62
7
  6
CONTINUOUS
 10
-6.0819358773
 20
17.5310527129
 11
-6.0659769021
 21
17.5802164095
  0
LINE
  5
375
100
AcDbEntity
  8
IMPORT_IGES
100
AcDbLine
 62
7
  6
CONTINUOUS
 10
-5.0023488637
 20
17.7099991154
 11
-5.0229137574
 21
17.6473167811
  0
LINE
  5
376
100
AcDbEntity
  8
IMPORT_IGES
100
AcDbLine
 62
7
  6
CONTINUOUS
 10
-5.4312843855
 20
16.6753284398
 11
-5.4458866476
 21
16.6308775362
  0
LINE
  5
377
100
AcDbEntity
  8
IMPORT_IGES
100
AcDbLine
 62
7
  6
CONTINUOUS
 10
-4.1352131499
 20
16.6635555632
 11
-4.1508152218
 21
16.6171801718
  0
LINE
  5
378
100
AcDbEntity
  8
IMPORT_IGES
100
AcDbLine
 62
7
  6
CONTINUOUS
 10
-7.7904035141
 20
7.92643395
 11
-7.808424041
 21
7.8740874234
  0
LINE
  5
379
100
AcDbEntity
  8
IMPORT_IGES
100
AcDbLine
 62
7
  6
CONTINUOUS
 10
-7.5916302194
 20
8.7899034026
 11
-7.5779802079
 21
8.8271256378
  0
LINE
  5
37A
100
AcDbEntity
  8
IMPORT_IGES
100
AcDbLine
 62
7
  6
CONTINUOUS
 10
-7.7738079023
 20
8.8634572435
 11
-7.7645235202
 21
8.8885146186
  0
LINE
  5
37B
100
AcDbEntity
  8
IMPORT_IGES
100
AcDbLine
 62
7
  6
CONTINUOUS
 10
-5.2354071663
 20
16.5644518339
 11
-5.2099397134
 21
16.6331242319
  0
LINE
  5
37C
100
AcDbEntity
  8
IMPORT_IGES
100
AcDbLine
 62
7
  6
CONTINUOUS
 10
-4.7977880433
 20
17.633297087
 11
-4.7821459591
 21
17.6744555122
  0
LINE
  5
37D
100
AcDbEntity
  8
IMPORT_IGES
100
AcDbLine
 62
7
  6
CONTINUOUS
 10
-4.0117497524
 20
17.4144159005
 11
-3.9947148929
 21
17.4575913253
  0
LINE
  5
37E
100
AcDbEntity
  8
IMPORT_IGES
100
AcDbLine
 62
7
  6
CONTINUOUS
 10
-6.8348390461
 20
8.5173357342
 11
-6.8148687416
 21
8.5667316298
  0
LINE
  5
37F
100
AcDbEntity
  8
IMPORT_IGES
100
AcDbLine
 62
7
  6
CONTINUOUS
 10
-7.754512743
 20
8.9119863881
 11
-7.7645235202
 21
8.8885146186
  0
LINE
  5
380
100
AcDbEntity
  8
IMPORT_IGES
100
AcDbLine
 62
7
  6
CONTINUOUS
 10
-2.5740840644
 20
17.7125329285
 11
-2.5994667745
 21
17.6552002993
  0
LINE
  5
381
100
AcDbEntity
  8
IMPORT_IGES
100
AcDbLine
 62
7
  6
CONTINUOUS
 10
-7.7677637472
 20
7.9759763947
 11
-7.7904035141
 21
7.92643395
  0
LINE
  5
382
100
AcDbEntity
  8
IMPORT_IGES
100
AcDbLine
 62
7
  6
CONTINUOUS
 10
-7.0231059078
 20
8.6026014636
 11
-7.0389532343
 21
8.5683500808
  0
LINE
  5
383
100
AcDbEntity
  8
IMPORT_IGES
100
AcDbLine
 62
7
  6
CONTINUOUS
 10
-4.2215964299
 20
17.4694228109
 11
-4.2359891651
 21
17.4391240337
  0
LINE
  5
384
100
AcDbEntity
  8
IMPORT_IGES
100
AcDbLine
 62
7
  6
CONTINUOUS
 10
-3.9524341149
 20
16.5138941139
 11
-3.9264686712
 21
16.5684885486
  0
LINE
  5
385
100
AcDbEntity
  8
IMPORT_IGES
100
AcDbLine
 62
7
  6
CONTINUOUS
 10
-7.6208461155
 20
7.8578554128
 11
-7.6008057179
 21
7.8999396336
  0
LINE
  5
386
100
AcDbEntity
  8
IMPORT_IGES
100
AcDbLine
 62
7
  6
CONTINUOUS
 10
-7.7435807502
 20
8.9341574054
 11
-7.754512743
 21
8.9119863881
  0
LINE
  5
387
100
AcDbEntity
  8
IMPORT_IGES
100
AcDbLine
 62
7
  6
CONTINUOUS
 10
-2.3792638598
 20
17.6196567514
 11
-2.3601622989
 21
17.6574228752
  0
LINE
  5
388
100
AcDbEntity
  8
IMPORT_IGES
100
AcDbLine
 62
7
  6
CONTINUOUS
 10
-7.5779802079
 20
8.8271256378
 11
-7.5609113764
 21
8.8607614602
  0
LINE
  5
389
100
AcDbEntity
  8
IMPORT_IGES
100
AcDbLine
 62
7
  6
CONTINUOUS
 10
-4.1508152218
 20
16.6171801718
 11
-4.1728871109
 21
16.5742808576
  0
LINE
  5
38A
100
AcDbEntity
  8
IMPORT_IGES
100
AcDbLine
 62
7
  6
CONTINUOUS
 10
-1.6310736008
 20
17.3188556133
 11
-1.6088676531
 21
17.3596171397
  0
LINE
  5
38B
100
AcDbEntity
  8
IMPORT_IGES
100
AcDbLine
 62
7
  6
CONTINUOUS
 10
-6.86094351
 20
8.4711844161
 11
-6.8348390461
 21
8.5173357342
  0
LINE
  5
38C
100
AcDbEntity
  8
IMPORT_IGES
100
AcDbLine
 62
7
  6
CONTINUOUS
 10
-7.7312332852
 20
8.955828681
 11
-7.7435807502
 21
8.9341574054
  0
LINE
  5
38D
100
AcDbEntity
  8
IMPORT_IGES
100
AcDbLine
 62
7
  6
CONTINUOUS
 10
-3.1631397886
 20
18.0115056681
 11
-3.1873362709
 21
17.96906575
  0
LINE
  5
38E
100
AcDbEntity
  8
IMPORT_IGES
100
AcDbLine
 62
7
  6
CONTINUOUS
 10
-2.5437111215
 20
17.7644622363
 11
-2.5740840644
 21
17.7125329285
  0
LINE
  5
38F
100
AcDbEntity
  8
IMPORT_IGES
100
AcDbLine
 62
7
  6
CONTINUOUS
 10
-7.7403663198
 20
8.0225697557
 11
-7.7677637472
 21
7.9759763947
  0
LINE
  5
390
100
AcDbEntity
  8
IMPORT_IGES
100
AcDbLine
 62
7
  6
CONTINUOUS
 10
-1.5821327001
 20
16.4071423546
 11
-1.5495520156
 21
16.459095353
  0
LINE
  5
391
100
AcDbEntity
  8
IMPORT_IGES
100
AcDbLine
 62
7
  6
CONTINUOUS
 10
-7.7175216098
 20
8.9772672331
 11
-7.7312332852
 21
8.955828681
  0
LINE
  5
392
100
AcDbEntity
  8
IMPORT_IGES
100
AcDbLine
 62
7
  6
CONTINUOUS
 10
-7.6008057179
 20
7.8999396336
 11
-7.5746843432
 21
7.9404363306
  0
LINE
  5
393
100
AcDbEntity
  8
IMPORT_IGES
100
AcDbLine
 62
7
  6
CONTINUOUS
 10
-7.0389532343
 20
8.5683500808
 11
-7.0605684835
 21
8.5353865206
  0
LINE
  5
394
100
AcDbEntity
  8
IMPORT_IGES
100
AcDbLine
 62
7
  6
CONTINUOUS
 10
-2.3601622989
 20
17.6574228752
 11
-2.33764429
 21
17.6915961219
  0
LINE
  5
395
100
AcDbEntity
  8
IMPORT_IGES
100
AcDbLine
 62
7
  6
CONTINUOUS
 10
-1.8331070658
 20
17.3843252728
 11
-1.8514458093
 21
17.3569356889
  0
LINE
  5
396
100
AcDbEntity
  8
IMPORT_IGES
100
AcDbLine
 62
7
  6
CONTINUOUS
 10
-7.5609113764
 20
8.8607614602
 11
-7.5402445429
 21
8.8905150875
  0
LINE
  5
397
100
AcDbEntity
  8
IMPORT_IGES
100
AcDbLine
 62
7
  6
CONTINUOUS
 10
-1.7700050116
 20
16.5194820968
 11
-1.797939616
 21
16.4794856362
  0
LINE
  5
398
100
AcDbEntity
  8
IMPORT_IGES
100
AcDbLine
 62
7
  6
CONTINUOUS
 10
-6.8910463205
 20
8.4290124498
 11
-6.86094351
 21
8.4711844161
  0
LINE
  5
399
100
AcDbEntity
  8
IMPORT_IGES
100
AcDbLine
 62
7
  6
CONTINUOUS
 10
-1.6585680243
 20
17.2805489693
 11
-1.6310736008
 21
17.3188556133
  0
LINE
  5
39A
100
AcDbEntity
  8
IMPORT_IGES
100
AcDbLine
 62
7
  6
CONTINUOUS
 10
-7.7023944622
 20
8.9982060437
 11
-7.7175216098
 21
8.9772672331
  0
LINE
  5
39B
100
AcDbEntity
  8
IMPORT_IGES
100
AcDbLine
 62
7
  6
CONTINUOUS
 10
-7.7083496524
 20
8.066359035
 11
-7.7403663198
 21
8.0225697557
  0
LINE
  5
39C
100
AcDbEntity
  8
IMPORT_IGES
100
AcDbLine
 62
7
  6
CONTINUOUS
 10
-5.2416183716
 20
9.0100610234
 11
-5.2772373215
 21
8.9631454264
  0
LINE
  5
39D
100
AcDbEntity
  8
IMPORT_IGES
100
AcDbLine
 62
7
  6
CONTINUOUS
 10
-1.6208322809
 20
16.3587131287
 11
-1.5821327001
 21
16.4071423546
  0
LINE
  5
39E
100
AcDbEntity
  8
IMPORT_IGES
100
AcDbLine
 62
7
  6
CONTINUOUS
 10
-7.5746843432
 20
7.9404363306
 11
-7.5419919296
 21
7.9794215253
  0
LINE
  5
39F
100
AcDbEntity
  8
IMPORT_IGES
100
AcDbLine
 62
7
  6
CONTINUOUS
 10
-7.6852038004
 20
9.0186450689
 11
-7.7023944622
 21
8.9982060437
  0
LINE
  5
3A0
100
AcDbEntity
  8
IMPORT_IGES
100
AcDbLine
 62
7
  6
CONTINUOUS
 10
-7.0605684835
 20
8.5353865206
 11
-7.0873787233
 21
8.5037541076
  0
LINE
  5
3A1
100
AcDbEntity
  8
IMPORT_IGES
100
AcDbLine
 62
7
  6
CONTINUOUS
 10
-6.4103107216
 20
8.302701667
 11
-6.3792959597
 21
8.3391698478
  0
LINE
  5
3A2
100
AcDbEntity
  8
IMPORT_IGES
100
AcDbLine
 62
7
  6
CONTINUOUS
 10
-7.6707758268
 20
8.1081250415
 11
-7.7083496524
 21
8.066359035
  0
LINE
  5
3A3
100
AcDbEntity
  8
IMPORT_IGES
100
AcDbLine
 62
7
  6
CONTINUOUS
 10
-6.924704743
 20
8.3919497295
 11
-6.8910463205
 21
8.4290124498
  0
LINE
  5
3A4
100
AcDbEntity
  8
IMPORT_IGES
100
AcDbLine
 62
7
  6
CONTINUOUS
 10
-7.5402445429
 20
8.8905150875
 11
-7.5161588893
 21
8.916682302
  0
LINE
  5
3A5
100
AcDbEntity
  8
IMPORT_IGES
100
AcDbLine
 62
7
  6
CONTINUOUS
 10
-5.2027891679
 20
9.0505232016
 11
-5.2416183716
 21
9.0100610234
  0
LINE
  5
3A6
100
AcDbEntity
  8
IMPORT_IGES
100
AcDbLine
 62
7
  6
CONTINUOUS
 10
-7.6658209421
 20
9.0388305613
 11
-7.6852038004
 21
9.0186450689
  0
LINE
  5
3A7
100
AcDbEntity
  8
IMPORT_IGES
100
AcDbLine
 62
7
  6
CONTINUOUS
 10
-7.0873787233
 20
8.5037541076
 11
-7.1181032873
 21
8.4736290341
  0
LINE
  5
3A8
100
AcDbEntity
  8
IMPORT_IGES
100
AcDbLine
 62
7
  6
CONTINUOUS
 10
-7.5419919296
 20
7.9794215253
 11
-7.5032185389
 21
8.0168191961
  0
LINE
  5
3A9
100
AcDbEntity
  8
IMPORT_IGES
100
AcDbLine
 62
7
  6
CONTINUOUS
 10
-6.3792959597
 20
8.3391698478
 11
-6.3464881929
 21
8.3702716401
  0
LINE
  5
3AA
100
AcDbEntity
  8
IMPORT_IGES
100
AcDbLine
 62
7
  6
CONTINUOUS
 10
-5.8865615964
 20
7.8514056218
 11
-5.9133928044
 21
7.8267380696
  0
LINE
  5
3AB
100
AcDbEntity
  8
IMPORT_IGES
100
AcDbLine
 62
7
  6
CONTINUOUS
 10
-7.6443745695
 20
9.0585162684
 11
-7.6658209421
 21
9.0388305613
  0
LINE
  5
3AC
100
AcDbEntity
  8
IMPORT_IGES
100
AcDbLine
 62
7
  6
CONTINUOUS
 10
-5.0760713479
 20
8.9119437496
 11
-5.0500669365
 21
8.9353365515
  0
LINE
  5
3AD
100
AcDbEntity
  8
IMPORT_IGES
100
AcDbLine
 62
7
  6
CONTINUOUS
 10
-7.6257783804
 20
8.1483243753
 11
-7.6707758268
 21
8.1081250415
  0
LINE
  5
3AE
100
AcDbEntity
  8
IMPORT_IGES
100
AcDbLine
 62
7
  6
CONTINUOUS
 10
-6.9623615121
 20
8.358866361
 11
-6.924704743
 21
8.3919497295
  0
LINE
  5
3AF
100
AcDbEntity
  8
IMPORT_IGES
100
AcDbLine
 62
7
  6
CONTINUOUS
 10
-7.5032185389
 20
8.0168191961
 11
-7.4598343564
 21
8.0524012784
  0
LINE
  5
3B0
100
AcDbEntity
  8
IMPORT_IGES
100
AcDbLine
 62
7
  6
CONTINUOUS
 10
-7.5161588893
 20
8.916682302
 11
-7.4887709964
 21
8.938943602
  0
LINE
  5
3B1
100
AcDbEntity
  8
IMPORT_IGES
100
AcDbLine
 62
7
  6
CONTINUOUS
 10
-7.1181032873
 20
8.4736290341
 11
-7.1528108494
 21
8.445528996
  0
LINE
  5
3B2
100
AcDbEntity
  8
IMPORT_IGES
100
AcDbLine
 62
7
  6
CONTINUOUS
 10
-5.1612537822
 20
9.0840115187
 11
-5.2027891679
 21
9.0505232016
  0
LINE
  5
3B3
100
AcDbEntity
  8
IMPORT_IGES
100
AcDbLine
 62
7
  6
CONTINUOUS
 10
-7.0032090192
 20
8.3271074372
 11
-6.9623615121
 21
8.358866361
  0
LINE
  5
3B4
100
AcDbEntity
  8
IMPORT_IGES
100
AcDbLine
 62
7
  6
CONTINUOUS
 10
-7.6206026878
 20
9.0769633892
 11
-7.6443745695
 21
9.0585162684
  0
LINE
  5
3B5
100
AcDbEntity
  8
IMPORT_IGES
100
AcDbLine
 62
7
  6
CONTINUOUS
 10
-7.5752237758
 20
8.1865004365
 11
-7.6257783804
 21
8.1483243753
  0
LINE
  5
3B6
100
AcDbEntity
  8
IMPORT_IGES
100
AcDbLine
 62
7
  6
CONTINUOUS
 10
-6.3464881929
 20
8.3702716401
 11
-6.3118874213
 21
8.3960070439
  0
LINE
  5
3B7
100
AcDbEntity
  8
IMPORT_IGES
100
AcDbLine
 62
7
  6
CONTINUOUS
 10
-6.3415073696
 20
8.5532022053
 11
-6.3815117729
 21
8.5245614616
  0
LINE
  5
3B8
100
AcDbEntity
  8
IMPORT_IGES
100
AcDbLine
 62
7
  6
CONTINUOUS
 10
-7.0473557317
 20
8.2961965626
 11
-7.0032090192
 21
8.3271074372
  0
LINE
  5
3B9
100
AcDbEntity
  8
IMPORT_IGES
100
AcDbLine
 62
7
  6
CONTINUOUS
 10
-7.5237734831
 20
8.2220642334
 11
-7.5752237758
 21
8.1865004365
  0
LINE
  5
3BA
100
AcDbEntity
  8
IMPORT_IGES
100
AcDbLine
 62
7
  6
CONTINUOUS
 10
-7.1528108494
 20
8.445528996
 11
-7.1914327357
 21
8.4189362974
  0
LINE
  5
3BB
100
AcDbEntity
  8
IMPORT_IGES
100
AcDbLine
 62
7
  6
CONTINUOUS
 10
-7.4598343564
 20
8.0524012784
 11
-7.4109055415
 21
8.0857283381
  0
LINE
  5
3BC
100
AcDbEntity
  8
IMPORT_IGES
100
AcDbLine
 62
7
  6
CONTINUOUS
 10
-5.0500669365
 20
8.9353365515
 11
-5.0216713872
 21
8.9543204037
  0
LINE
  5
3BD
100
AcDbEntity
  8
IMPORT_IGES
100
AcDbLine
 62
7
  6
CONTINUOUS
 10
-7.5943786547
 20
9.0941364964
 11
-7.6206026878
 21
9.0769633892
  0
LINE
  5
3BE
100
AcDbEntity
  8
IMPORT_IGES
100
AcDbLine
 62
7
  6
CONTINUOUS
 10
-7.1914327357
 20
8.4189362974
 11
-7.2324822575
 21
8.3924740428
  0
LINE
  5
3BF
100
AcDbEntity
  8
IMPORT_IGES
100
AcDbLine
 62
7
  6
CONTINUOUS
 10
-7.0946931822
 20
8.2666101326
 11
-7.0473557317
 21
8.2961965626
  0
LINE
  5
3C0
100
AcDbEntity
  8
IMPORT_IGES
100
AcDbLine
 62
7
  6
CONTINUOUS
 10
-7.4719851391
 20
8.254335637
 11
-7.5237734831
 21
8.2220642334
  0
LINE
  5
3C1
100
AcDbEntity
  8
IMPORT_IGES
100
AcDbLine
 62
7
  6
CONTINUOUS
 10
-7.2324822575
 20
8.3924740428
 11
-7.2755754397
 21
8.3661137045
  0
LINE
  5
3C2
100
AcDbEntity
  8
IMPORT_IGES
100
AcDbLine
 62
7
  6
CONTINUOUS
 10
-5.1165081427
 20
9.111046417
 11
-5.1612537822
 21
9.0840115187
  0
LINE
  5
3C3
100
AcDbEntity
  8
IMPORT_IGES
100
AcDbLine
 62
7
  6
CONTINUOUS
 10
-7.1440883596
 20
8.2371224265
 11
-7.0946931822
 21
8.2666101326
  0
LINE
  5
3C4
100
AcDbEntity
  8
IMPORT_IGES
100
AcDbLine
 62
7
  6
CONTINUOUS
 10
-7.4887709964
 20
8.938943602
 11
-7.4578771473
 21
8.9572208014
  0
LINE
  5
3C5
100
AcDbEntity
  8
IMPORT_IGES
100
AcDbLine
 62
7
  6
CONTINUOUS
 10
-7.4109055415
 20
8.0857283381
 11
-7.3573659348
 21
8.1172398093
  0
LINE
  5
3C6
100
AcDbEntity
  8
IMPORT_IGES
100
AcDbLine
 62
7
  6
CONTINUOUS
 10
-7.2755754397
 20
8.3661137045
 11
-7.3687099468
 21
8.3124930472
  0
LINE
  5
3C7
100
AcDbEntity
  8
IMPORT_IGES
100
AcDbLine
 62
7
  6
CONTINUOUS
 10
-7.3573659348
 20
8.1172398093
 11
-7.3034872426
 21
8.1480259299
  0
LINE
  5
3C8
100
AcDbEntity
  8
IMPORT_IGES
100
AcDbLine
 62
7
  6
CONTINUOUS
 10
-7.195962531
 20
8.2075995619
 11
-7.1440883596
 21
8.2371224265
  0
LINE
  5
3C9
100
AcDbEntity
  8
IMPORT_IGES
100
AcDbLine
 62
7
  6
CONTINUOUS
 10
-7.3687099468
 20
8.3124930472
 11
-7.4719851391
 21
8.254335637
  0
LINE
  5
3CA
100
AcDbEntity
  8
IMPORT_IGES
100
AcDbLine
 62
7
  6
CONTINUOUS
 10
-7.3034872426
 20
8.1480259299
 11
-7.2498944295
 21
8.1781754212
  0
LINE
  5
3CB
100
AcDbEntity
  8
IMPORT_IGES
100
AcDbLine
 62
7
  6
CONTINUOUS
 10
-7.5658291124
 20
9.1100710173
 11
-7.5943786547
 21
9.0941364964
  0
LINE
  5
3CC
100
AcDbEntity
  8
IMPORT_IGES
100
AcDbLine
 62
7
  6
CONTINUOUS
 10
-6.3118874213
 20
8.3960070439
 11
-6.2757281837
 21
8.4161645872
  0
LINE
  5
3CD
100
AcDbEntity
  8
IMPORT_IGES
100
AcDbLine
 62
7
  6
CONTINUOUS
 10
-6.2988630672
 20
8.5767691801
 11
-6.3415073696
 21
8.5532022053
  0
LINE
  5
3CE
100
AcDbEntity
  8
IMPORT_IGES
100
AcDbLine
 62
7
  6
CONTINUOUS
 10
-7.2498944295
 20
8.1781754212
 11
-7.195962531
 21
8.2075995619
  0
LINE
  5
3CF
100
AcDbEntity
  8
IMPORT_IGES
100
AcDbLine
 62
7
  6
CONTINUOUS
 10
-5.0216713872
 20
8.9543204037
 11
-4.9905801539
 21
8.969012288
  0
LINE
  5
3D0
100
AcDbEntity
  8
IMPORT_IGES
100
AcDbLine
 62
7
  6
CONTINUOUS
 10
-7.5350719929
 20
9.1241344333
 11
-7.5658291124
 21
9.1100710173
  0
LINE
  5
3D1
100
AcDbEntity
  8
IMPORT_IGES
100
AcDbLine
 62
7
  6
CONTINUOUS
 10
-5.0677644966
 20
9.1321391175
 11
-5.1165081427
 21
9.111046417
  0
LINE
  5
3D2
100
AcDbEntity
  8
IMPORT_IGES
100
AcDbLine
 62
7
  6
CONTINUOUS
 10
-7.4578771473
 20
8.9572208014
 11
-7.4236810589
 21
8.9715920863
  0
LINE
  5
3D3
100
AcDbEntity
  8
IMPORT_IGES
100
AcDbLine
 62
7
  6
CONTINUOUS
 10
-6.2535788655
 20
8.595262386
 11
-6.2988630672
 21
8.5767691801
  0
LINE
  5
3D4
100
AcDbEntity
  8
IMPORT_IGES
100
AcDbLine
 62
7
  6
CONTINUOUS
 10
-6.2757281837
 20
8.4161645872
 11
-6.2377759413
 21
8.4309557419
  0
LINE
  5
3D5
100
AcDbEntity
  8
IMPORT_IGES
100
AcDbLine
 62
7
  6
CONTINUOUS
 10
-7.5020321621
 20
9.1362048539
 11
-7.5350719929
 21
9.1241344333
  0
LINE
  5
3D6
100
AcDbEntity
  8
IMPORT_IGES
100
AcDbLine
 62
7
  6
CONTINUOUS
 10
-7.466784754
 20
9.1464041695
 11
-7.5020321621
 21
9.1362048539
  0
LINE
  5
3D7
100
AcDbEntity
  8
IMPORT_IGES
100
AcDbLine
 62
7
  6
CONTINUOUS
 10
-5.0147602592
 20
9.1474600273
 11
-5.0677644966
 21
9.1321391175
  0
LINE
  5
3D8
100
AcDbEntity
  8
IMPORT_IGES
100
AcDbLine
 62
253
  6
CONTINUOUS
 10
-26.3491987413
 20
-8.3087423319
 11
-26.2863602656
 21
-8.3087423319
  0
LINE
  5
3D9
100
AcDbEntity
  8
IMPORT_IGES
100
AcDbLine
 62
253
  6
CONTINUOUS
 10
26.587963025
 20
-8.3087423319
 11
26.6508012587
 21
-8.3087423319
  0
LINE
  5
3DA
100
AcDbEntity
  8
IMPORT_IGES
100
AcDbLine
 62
7
  6
CONTINUOUS
 10
-7.7382210927
 20
17.0210214836
 11
-7.7331683327
 21
16.9326640812
  0
LINE
  5
3DB
100
AcDbEntity
  8
IMPORT_IGES
100
AcDbLine
 62
7
  6
CONTINUOUS
 10
-7.0081944781
 20
8.7502277047
 11
-7.0061685034
 21
8.7144236535
  0
LINE
  5
3DC
100
AcDbEntity
  8
IMPORT_IGES
100
AcDbLine
 62
7
  6
CONTINUOUS
 10
-7.4945029976
 20
16.9844147229
 11
-7.4965489546
 21
17.0515575436
  0
LINE
  5
3DD
100
AcDbEntity
  8
IMPORT_IGES
100
AcDbLine
 62
253
  6
CONTINUOUS
 10
-9.1800144877
 20
20.2351142118
 11
-9.187537957
 21
20.4985250509
  0
LINE
  5
3DE
100
AcDbEntity
  8
IMPORT_IGES
100
AcDbLine
 62
253
  6
CONTINUOUS
 10
-9.1744419189
 20
19.9893699027
 11
-9.1800144877
 21
20.2351142118
  0
LINE
  5
3DF
100
AcDbEntity
  8
IMPORT_IGES
100
AcDbLine
 62
7
  6
CONTINUOUS
 10
-6.7474312142
 20
17.1704957932
 11
-6.7470604884
 21
17.1088102805
  0
LINE
  5
3E0
100
AcDbEntity
  8
IMPORT_IGES
100
AcDbLine
 62
7
  6
CONTINUOUS
 10
-7.4965489546
 20
17.0515575436
 11
-7.4966308617
 21
17.1179273099
  0
LINE
  5
3E1
100
AcDbEntity
  8
IMPORT_IGES
100
AcDbLine
 62
7
  6
CONTINUOUS
 10
-6.8006977413
 20
7.8141836681
 11
-6.8006977413
 21
7.6328566681
  0
LINE
  5
3E2
100
AcDbEntity
  8
IMPORT_IGES
100
AcDbLine
 62
7
  6
CONTINUOUS
 10
-7.7381619138
 20
17.1096302035
 11
-7.7382210927
 21
17.0210214836
  0
LINE
  5
3E3
100
AcDbEntity
  8
IMPORT_IGES
100
AcDbLine
 62
7
  6
CONTINUOUS
 10
-6.5056440852
 20
17.1250844659
 11
-6.5055193416
 21
17.2128182348
  0
LINE
  5
3E4
100
AcDbEntity
  8
IMPORT_IGES
100
AcDbLine
 62
7
  6
CONTINUOUS
 10
-7.737418557
 20
17.1987286315
 11
-7.7381619138
 21
17.1096302035
  0
LINE
  5
3E5
100
AcDbEntity
  8
IMPORT_IGES
100
AcDbLine
 62
7
  6
CONTINUOUS
 10
-6.793889773
 20
8.734698464
 11
-6.7943660867
 21
8.6782148591
  0
LINE
  5
3E6
100
AcDbEntity
  8
IMPORT_IGES
100
AcDbLine
 62
7
  6
CONTINUOUS
 10
-6.5064174224
 20
17.0354138356
 11
-6.5056440852
 21
17.1250844659
  0
LINE
  5
3E7
100
AcDbEntity
  8
IMPORT_IGES
100
AcDbLine
 62
7
  6
CONTINUOUS
 10
-6.7470604884
 20
17.1088102805
 11
-6.7479968082
 21
17.0482451926
  0
LINE
  5
3E8
100
AcDbEntity
  8
IMPORT_IGES
100
AcDbLine
 62
7
  6
CONTINUOUS
 10
-6.3741074044
 20
17.1582533671
 11
-6.3747343137
 21
17.1260553632
  0
LINE
  5
3E9
100
AcDbEntity
  8
IMPORT_IGES
100
AcDbLine
 62
7
  6
CONTINUOUS
 10
-7.4966308617
 20
17.1179273099
 11
-7.4952529796
 21
17.1828357795
  0
LINE
  5
3EA
100
AcDbEntity
  8
IMPORT_IGES
100
AcDbLine
 62
7
  6
CONTINUOUS
 10
-7.006559069
 20
8.6750169574
 11
-7.0054490715
 21
8.7144114527
  0
LINE
  5
3EB
100
AcDbEntity
  8
IMPORT_IGES
100
AcDbLine
 62
7
  6
CONTINUOUS
 10
-7.8118663987
 20
8.6184311997
 11
-7.810767301
 21
8.6532117136
  0
LINE
  5
3EC
100
AcDbEntity
  8
IMPORT_IGES
100
AcDbLine
 62
7
  6
CONTINUOUS
 10
-6.3730425684
 20
17.1894483041
 11
-6.3741074044
 21
17.1582533671
  0
LINE
  5
3ED
100
AcDbEntity
  8
IMPORT_IGES
100
AcDbLine
 62
7
  6
CONTINUOUS
 10
-6.7479968082
 20
17.0482451926
 11
-6.7500889111
 21
16.9896166921
  0
LINE
  5
3EE
100
AcDbEntity
  8
IMPORT_IGES
100
AcDbLine
 62
7
  6
CONTINUOUS
 10
-7.6148733154
 20
8.6647754739
 11
-7.6166722328
 21
8.6184371285
  0
LINE
  5
3EF
100
AcDbEntity
  8
IMPORT_IGES
100
AcDbLine
 62
7
  6
CONTINUOUS
 10
-6.3715684102
 20
17.219646643
 11
-6.3730425684
 21
17.1894483041
  0
LINE
  5
3F0
100
AcDbEntity
  8
IMPORT_IGES
100
AcDbLine
 62
7
  6
CONTINUOUS
 10
-7.4952529796
 20
17.1828357795
 11
-7.4920325078
 21
17.2469715631
  0
LINE
  5
3F1
100
AcDbEntity
  8
IMPORT_IGES
100
AcDbLine
 62
7
  6
CONTINUOUS
 10
-6.1310292863
 20
17.1828357797
 11
-6.1278088145
 21
17.2469715633
  0
LINE
  5
3F2
100
AcDbEntity
  8
IMPORT_IGES
100
AcDbLine
 62
7
  6
CONTINUOUS
 10
-7.8444817278
 20
7.6952042351
 11
-7.847921151
 21
7.6328690661
  0
LINE
  5
3F3
100
AcDbEntity
  8
IMPORT_IGES
100
AcDbLine
 62
7
  6
CONTINUOUS
 10
-6.7500889111
 20
16.9896166921
 11
-6.7534880676
 21
16.9321087106
  0
LINE
  5
3F4
100
AcDbEntity
  8
IMPORT_IGES
100
AcDbLine
 62
7
  6
CONTINUOUS
 10
-7.8107670645
 20
8.6532137131
 11
-7.8086179347
 21
8.6868219177
  0
LINE
  5
3F5
100
AcDbEntity
  8
IMPORT_IGES
100
AcDbLine
 62
7
  6
CONTINUOUS
 10
-6.3696999375
 20
17.2488418155
 11
-6.3715684102
 21
17.219646643
  0
LINE
  5
3F6
100
AcDbEntity
  8
IMPORT_IGES
100
AcDbLine
 62
7
  6
CONTINUOUS
 10
-7.736845684
 20
17.1987252946
 11
-7.7306961666
 21
17.2879734073
  0
LINE
  5
3F7
100
AcDbEntity
  8
IMPORT_IGES
100
AcDbLine
 62
7
  6
CONTINUOUS
 10
-6.5128200893
 20
16.9447204485
 11
-6.5064174224
 21
17.0354138356
  0
LINE
  5
3F8
100
AcDbEntity
  8
IMPORT_IGES
100
AcDbLine
 62
7
  6
CONTINUOUS
 10
-6.3674627343
 20
17.2771325747
 11
-6.3696999375
 21
17.2488418155
  0
LINE
  5
3F9
100
AcDbEntity
  8
IMPORT_IGES
100
AcDbLine
 62
7
  6
CONTINUOUS
 10
-7.4920325078
 20
17.2469715631
 11
-7.4868862536
 21
17.3088289028
  0
LINE
  5
3FA
100
AcDbEntity
  8
IMPORT_IGES
100
AcDbLine
 62
7
  6
CONTINUOUS
 10
-6.1278088145
 20
17.2469715633
 11
-6.1226625603
 21
17.3088289029
  0
LINE
  5
3FB
100
AcDbEntity
  8
IMPORT_IGES
100
AcDbLine
 62
7
  6
CONTINUOUS
 10
-6.7534880676
 20
16.9321087106
 11
-6.7584689836
 21
16.8765300095
  0
LINE
  5
3FC
100
AcDbEntity
  8
IMPORT_IGES
100
AcDbLine
 62
7
  6
CONTINUOUS
 10
-5.3892643743
 20
16.9321087105
 11
-5.3942452903
 21
16.8765300095
  0
LINE
  5
3FD
100
AcDbEntity
  8
IMPORT_IGES
100
AcDbLine
 62
7
  6
CONTINUOUS
 10
-7.6145904503
 20
8.6647699813
 11
-7.6108709117
 21
8.7060122331
  0
LINE
  5
3FE
100
AcDbEntity
  8
IMPORT_IGES
100
AcDbLine
 62
7
  6
CONTINUOUS
 10
-6.3648736312
 20
17.3045239119
 11
-6.3674627343
 21
17.2771325747
  0
LINE
  5
3FF
100
AcDbEntity
  8
IMPORT_IGES
100
AcDbLine
 62
7
  6
CONTINUOUS
 10
-7.8086175289
 20
8.6868238961
 11
-7.8054184162
 21
8.7192573128
  0
LINE
  5
400
100
AcDbEntity
  8
IMPORT_IGES
100
AcDbLine
 62
7
  6
CONTINUOUS
 10
-6.3619473939
 20
17.3310105603
 11
-6.3648736312
 21
17.3045239119
  0
LINE
  5
401
100
AcDbEntity
  8
IMPORT_IGES
100
AcDbLine
 62
7
  6
CONTINUOUS
 10
-5.1576645982
 20
16.8651187653
 11
-5.1479463382
 21
16.9520382996
  0
LINE
  5
402
100
AcDbEntity
  8
IMPORT_IGES
100
AcDbLine
 62
7
  6
CONTINUOUS
 10
-6.5228970605
 20
16.8579233654
 11
-6.5128200893
 21
16.9447204485
  0
LINE
  5
403
100
AcDbEntity
  8
IMPORT_IGES
100
AcDbLine
 62
7
  6
CONTINUOUS
 10
-6.1226625603
 20
17.3088289029
 11
-6.1156905126
 21
17.36803457
  0
LINE
  5
404
100
AcDbEntity
  8
IMPORT_IGES
100
AcDbLine
 62
7
  6
CONTINUOUS
 10
-6.7584689836
 20
16.8765300095
 11
-6.7648934216
 21
16.8229936005
  0
LINE
  5
405
100
AcDbEntity
  8
IMPORT_IGES
100
AcDbLine
 62
7
  6
CONTINUOUS
 10
-5.3942452903
 20
16.8765300095
 11
-5.4006697283
 21
16.8229936005
  0
LINE
  5
406
100
AcDbEntity
  8
IMPORT_IGES
100
AcDbLine
 62
7
  6
CONTINUOUS
 10
-7.0083049736
 20
8.6649167164
 11
-7.0108968212
 21
8.6434699125
  0
LINE
  5
407
100
AcDbEntity
  8
IMPORT_IGES
100
AcDbLine
 62
7
  6
CONTINUOUS
 10
-6.3528035933
 20
17.4006626666
 11
-6.3551736373
 21
17.3815245094
  0
LINE
  5
408
100
AcDbEntity
  8
IMPORT_IGES
100
AcDbLine
 62
7
  6
CONTINUOUS
 10
-6.3587089906
 20
17.3566761983
 11
-6.3619473939
 21
17.3310105603
  0
LINE
  5
409
100
AcDbEntity
  8
IMPORT_IGES
100
AcDbLine
 62
7
  6
CONTINUOUS
 10
-6.7942429764
 20
8.6782109525
 11
-6.8015547554
 21
8.6203266974
  0
LINE
  5
40A
100
AcDbEntity
  8
IMPORT_IGES
100
AcDbLine
 62
7
  6
CONTINUOUS
 10
-4.6027959864
 20
17.285071635
 11
-4.627075898
 21
17.0931974301
  0
LINE
  5
40B
100
AcDbEntity
  8
IMPORT_IGES
100
AcDbLine
 62
7
  6
CONTINUOUS
 10
-7.0064093507
 20
8.6793964879
 11
-7.0083049736
 21
8.6649167164
  0
LINE
  5
40C
100
AcDbEntity
  8
IMPORT_IGES
100
AcDbLine
 62
7
  6
CONTINUOUS
 10
-7.8054177832
 20
8.7192594248
 11
-7.8011559023
 21
8.7505414661
  0
LINE
  5
40D
100
AcDbEntity
  8
IMPORT_IGES
100
AcDbLine
 62
7
  6
CONTINUOUS
 10
-6.4603917413
 20
9.1346756681
 11
-6.5767047413
 21
8.3123016681
  0
LINE
  5
40E
100
AcDbEntity
  8
IMPORT_IGES
100
AcDbLine
 62
7
  6
CONTINUOUS
 10
-6.3551736373
 20
17.3815245094
 11
-6.3587089906
 21
17.3566761983
  0
LINE
  5
40F
100
AcDbEntity
  8
IMPORT_IGES
100
AcDbLine
 62
7
  6
CONTINUOUS
 10
-7.8351179737
 20
7.7598294489
 11
-7.8444817278
 21
7.6952042351
  0
LINE
  5
410
100
AcDbEntity
  8
IMPORT_IGES
100
AcDbLine
 62
7
  6
CONTINUOUS
 10
-6.3815117729
 20
8.5245614616
 11
-6.3164467413
 21
8.9490816681
  0
LINE
  5
411
100
AcDbEntity
  8
IMPORT_IGES
100
AcDbLine
 62
7
  6
CONTINUOUS
 10
-5.4006697283
 20
16.8229936005
 11
-5.4086759258
 21
16.7713864719
  0
LINE
  5
412
100
AcDbEntity
  8
IMPORT_IGES
100
AcDbLine
 62
7
  6
CONTINUOUS
 10
-6.1156905126
 20
17.36803457
 11
-6.1067926826
 21
17.4249617932
  0
LINE
  5
413
100
AcDbEntity
  8
IMPORT_IGES
100
AcDbLine
 62
7
  6
CONTINUOUS
 10
-7.0116435847
 20
8.6432492632
 11
-7.0115905609
 21
8.6435808484
  0
LINE
  5
414
100
AcDbEntity
  8
IMPORT_IGES
100
AcDbLine
 62
7
  6
CONTINUOUS
 10
-5.7963430307
 20
8.0303287317
 11
-5.7887350459
 21
8.0771020723
  0
LINE
  5
415
100
AcDbEntity
  8
IMPORT_IGES
100
AcDbLine
 62
7
  6
CONTINUOUS
 10
-5.1711738754
 20
16.7836623209
 11
-5.1576645982
 21
16.8651187653
  0
LINE
  5
416
100
AcDbEntity
  8
IMPORT_IGES
100
AcDbLine
 62
7
  6
CONTINUOUS
 10
-4.2032261176
 20
17.5477644591
 11
-4.2110255358
 21
17.5035829592
  0
LINE
  5
417
100
AcDbEntity
  8
IMPORT_IGES
100
AcDbLine
 62
7
  6
CONTINUOUS
 10
-4.818822855
 20
17.5402016883
 11
-4.8100136753
 21
17.5885458123
  0
LINE
  5
418
100
AcDbEntity
  8
IMPORT_IGES
100
AcDbLine
 62
7
  6
CONTINUOUS
 10
-4.1236805937
 20
16.7204151254
 11
-4.1352131499
 21
16.6635555632
  0
LINE
  5
419
100
AcDbEntity
  8
IMPORT_IGES
100
AcDbLine
 62
7
  6
CONTINUOUS
 10
-3.9074543305
 20
16.6265773197
 11
-3.8945142957
 21
16.6899736954
  0
LINE
  5
41A
100
AcDbEntity
  8
IMPORT_IGES
100
AcDbLine
 62
7
  6
CONTINUOUS
 10
-5.1810810765
 20
8.6903595158
 11
-5.1906062047
 21
8.6442492665
  0
LINE
  5
41B
100
AcDbEntity
  8
IMPORT_IGES
100
AcDbLine
 62
7
  6
CONTINUOUS
 10
-5.4086759258
 20
16.7713864719
 11
-5.4189533013
 21
16.7221783501
  0
LINE
  5
41C
100
AcDbEntity
  8
IMPORT_IGES
100
AcDbLine
 62
7
  6
CONTINUOUS
 10
-5.600086526
 20
7.9856041297
 11
-5.5860949462
 21
8.0518053412
  0
LINE
  5
41D
100
AcDbEntity
  8
IMPORT_IGES
100
AcDbLine
 62
7
  6
CONTINUOUS
 10
-5.379641499
 20
8.7225000224
 11
-5.3952867634
 21
8.6507925722
  0
LINE
  5
41E
100
AcDbEntity
  8
IMPORT_IGES
100
AcDbLine
 62
7
  6
CONTINUOUS
 10
-5.18856912
 20
16.7061229338
 11
-5.1711738754
 21
16.7836623209
  0
LINE
  5
41F
100
AcDbEntity
  8
IMPORT_IGES
100
AcDbLine
 62
7
  6
CONTINUOUS
 10
-5.0229137574
 20
17.6473167811
 11
-5.0386608449
 21
17.5792846865
  0
LINE
  5
420
100
AcDbEntity
  8
IMPORT_IGES
100
AcDbLine
 62
7
  6
CONTINUOUS
 10
-6.8148687416
 20
8.5667316298
 11
-6.8015547554
 21
8.6203266974
  0
LINE
  5
421
100
AcDbEntity
  8
IMPORT_IGES
100
AcDbLine
 62
7
  6
CONTINUOUS
 10
-3.9947148929
 20
17.4575913253
 11
-3.9823480912
 21
17.5058840659
  0
LINE
  5
422
100
AcDbEntity
  8
IMPORT_IGES
100
AcDbLine
 62
7
  6
CONTINUOUS
 10
-5.1810810765
 20
8.6903595158
 11
-5.1695923174
 21
8.7344742238
  0
LINE
  5
423
100
AcDbEntity
  8
IMPORT_IGES
100
AcDbLine
 62
7
  6
CONTINUOUS
 10
-2.4071315971
 20
17.5337469126
 11
-2.3949059525
 21
17.5784982706
  0
LINE
  5
424
100
AcDbEntity
  8
IMPORT_IGES
100
AcDbLine
 62
7
  6
CONTINUOUS
 10
-5.7963430307
 20
8.0303287317
 11
-5.8083073185
 21
7.9874096182
  0
LINE
  5
425
100
AcDbEntity
  8
IMPORT_IGES
100
AcDbLine
 62
7
  6
CONTINUOUS
 10
-5.3600102615
 20
8.7898886166
 11
-5.379641499
 21
8.7225000224
  0
LINE
  5
426
100
AcDbEntity
  8
IMPORT_IGES
100
AcDbLine
 62
7
  6
CONTINUOUS
 10
-1.8081434366
 20
17.4487841984
 11
-1.8187143306
 21
17.41462405
  0
LINE
  5
427
100
AcDbEntity
  8
IMPORT_IGES
100
AcDbLine
 62
7
  6
CONTINUOUS
 10
-5.6190878473
 20
7.9261764206
 11
-5.600086526
 21
7.9856041297
  0
LINE
  5
428
100
AcDbEntity
  8
IMPORT_IGES
100
AcDbLine
 62
7
  6
CONTINUOUS
 10
-5.1695923174
 20
8.7344742238
 11
-5.156091319
 21
8.7763947809
  0
LINE
  5
429
100
AcDbEntity
  8
IMPORT_IGES
100
AcDbLine
 62
7
  6
CONTINUOUS
 10
-3.9264686712
 20
16.5684885486
 11
-3.9074543305
 21
16.6265773197
  0
LINE
  5
42A
100
AcDbEntity
  8
IMPORT_IGES
100
AcDbLine
 62
7
  6
CONTINUOUS
 10
-2.5994667745
 20
17.6552002993
 11
-2.6200316834
 21
17.5925178821
  0
LINE
  5
42B
100
AcDbEntity
  8
IMPORT_IGES
100
AcDbLine
 62
7
  6
CONTINUOUS
 10
-1.7323310506
 20
16.6087568025
 11
-1.7479331226
 21
16.562381411
  0
LINE
  5
42C
100
AcDbEntity
  8
IMPORT_IGES
100
AcDbLine
 62
7
  6
CONTINUOUS
 10
-4.6156103882
 20
7.9983802413
 11
-4.6298800241
 21
7.9589294191
  0
LINE
  5
42D
100
AcDbEntity
  8
IMPORT_IGES
100
AcDbLine
 62
7
  6
CONTINUOUS
 10
-5.3364332665
 20
8.853059223
 11
-5.3600102615
 21
8.7898886166
  0
LINE
  5
42E
100
AcDbEntity
  8
IMPORT_IGES
100
AcDbLine
 62
7
  6
CONTINUOUS
 10
-2.3949059525
 20
17.5784982706
 11
-2.3792638598
 21
17.6196567514
  0
LINE
  5
42F
100
AcDbEntity
  8
IMPORT_IGES
100
AcDbLine
 62
7
  6
CONTINUOUS
 10
-5.8083073185
 20
7.9874096182
 11
-5.8234715482
 21
7.9478346076
  0
LINE
  5
430
100
AcDbEntity
  8
IMPORT_IGES
100
AcDbLine
 62
7
  6
CONTINUOUS
 10
-1.6088676531
 20
17.3596171397
 11
-1.5918327936
 21
17.4027925645
  0
LINE
  5
431
100
AcDbEntity
  8
IMPORT_IGES
100
AcDbLine
 62
7
  6
CONTINUOUS
 10
-5.156091319
 20
8.7763947809
 11
-5.1400423009
 21
8.8151946643
  0
LINE
  5
432
100
AcDbEntity
  8
IMPORT_IGES
100
AcDbLine
 62
7
  6
CONTINUOUS
 10
-5.6420559379
 20
7.87146307
 11
-5.6190878473
 21
7.9261764206
  0
LINE
  5
433
100
AcDbEntity
  8
IMPORT_IGES
100
AcDbLine
 62
7
  6
CONTINUOUS
 10
-4.4755523654
 20
7.8486639719
 11
-4.4479765265
 21
7.9072302707
  0
LINE
  5
434
100
AcDbEntity
  8
IMPORT_IGES
100
AcDbLine
 62
7
  6
CONTINUOUS
 10
-1.8187143306
 20
17.41462405
 11
-1.8331070658
 21
17.3843252728
  0
LINE
  5
435
100
AcDbEntity
  8
IMPORT_IGES
100
AcDbLine
 62
7
  6
CONTINUOUS
 10
-1.5495520156
 20
16.459095353
 11
-1.5235865719
 21
16.5136897878
  0
LINE
  5
436
100
AcDbEntity
  8
IMPORT_IGES
100
AcDbLine
 62
7
  6
CONTINUOUS
 10
-5.3089215554
 20
8.9108265171
 11
-5.3364332665
 21
8.853059223
  0
LINE
  5
437
100
AcDbEntity
  8
IMPORT_IGES
100
AcDbLine
 62
7
  6
CONTINUOUS
 10
-4.6298800241
 20
7.9589294191
 11
-4.6475650447
 21
7.9222305506
  0
LINE
  5
438
100
AcDbEntity
  8
IMPORT_IGES
100
AcDbLine
 62
7
  6
CONTINUOUS
 10
-5.8234715482
 20
7.9478346076
 11
-5.8413775944
 21
7.9121992239
  0
LINE
  5
439
100
AcDbEntity
  8
IMPORT_IGES
100
AcDbLine
 62
7
  6
CONTINUOUS
 10
-1.7479331226
 20
16.562381411
 11
-1.7700050116
 21
16.5194820968
  0
LINE
  5
43A
100
AcDbEntity
  8
IMPORT_IGES
100
AcDbLine
 62
7
  6
CONTINUOUS
 10
-5.1400423009
 20
8.8151946643
 11
-5.1212143757
 21
8.8509944584
  0
LINE
  5
43B
100
AcDbEntity
  8
IMPORT_IGES
100
AcDbLine
 62
7
  6
CONTINUOUS
 10
-5.6682103329
 20
7.8225826643
 11
-5.6420559379
 21
7.87146307
  0
LINE
  5
43C
100
AcDbEntity
  8
IMPORT_IGES
100
AcDbLine
 62
7
  6
CONTINUOUS
 10
-4.5073503674
 20
7.795513361
 11
-4.4755523654
 21
7.8486639719
  0
LINE
  5
43D
100
AcDbEntity
  8
IMPORT_IGES
100
AcDbLine
 62
7
  6
CONTINUOUS
 10
-5.2772373215
 20
8.9631454264
 11
-5.3089215554
 21
8.9108265171
  0
LINE
  5
43E
100
AcDbEntity
  8
IMPORT_IGES
100
AcDbLine
 62
7
  6
CONTINUOUS
 10
-4.6475650447
 20
7.9222305506
 11
-4.6683531244
 21
7.8883106991
  0
LINE
  5
43F
100
AcDbEntity
  8
IMPORT_IGES
100
AcDbLine
 62
7
  6
CONTINUOUS
 10
-5.8413775944
 20
7.9121992239
 11
-5.8624835824
 21
7.8799079432
  0
LINE
  5
440
100
AcDbEntity
  8
IMPORT_IGES
100
AcDbLine
 62
7
  6
CONTINUOUS
 10
-5.1212143757
 20
8.8509944584
 11
-5.0998384307
 21
8.8836735788
  0
LINE
  5
441
100
AcDbEntity
  8
IMPORT_IGES
100
AcDbLine
 62
7
  6
CONTINUOUS
 10
-5.6983314973
 20
7.7784166172
 11
-5.6682103329
 21
7.8225826643
  0
LINE
  5
442
100
AcDbEntity
  8
IMPORT_IGES
100
AcDbLine
 62
7
  6
CONTINUOUS
 10
-4.5431159126
 20
7.7477554426
 11
-4.5073503674
 21
7.795513361
  0
LINE
  5
443
100
AcDbEntity
  8
IMPORT_IGES
100
AcDbLine
 62
7
  6
CONTINUOUS
 10
-4.6683531244
 20
7.8883106991
 11
-4.6924952263
 21
7.857966037
  0
LINE
  5
444
100
AcDbEntity
  8
IMPORT_IGES
100
AcDbLine
 62
7
  6
CONTINUOUS
 10
-5.0998384307
 20
8.8836735788
 11
-5.0760713479
 21
8.9119437496
  0
LINE
  5
445
100
AcDbEntity
  8
IMPORT_IGES
100
AcDbLine
 62
7
  6
CONTINUOUS
 10
-5.8624835824
 20
7.8799079432
 11
-5.8865615964
 21
7.8514056218
  0
LINE
  5
446
100
AcDbEntity
  8
IMPORT_IGES
100
AcDbLine
 62
7
  6
CONTINUOUS
 10
-5.7325204494
 20
7.7388714726
 11
-5.6983314973
 21
7.7784166172
  0
LINE
  5
447
100
AcDbEntity
  8
IMPORT_IGES
100
AcDbLine
 62
7
  6
CONTINUOUS
 10
-2.6744520307
 20
8.2936732271
 11
-2.6993098347
 21
8.2664365475
  0
LINE
  5
448
100
AcDbEntity
  8
IMPORT_IGES
100
AcDbLine
 62
7
  6
CONTINUOUS
 10
-4.5820544637
 20
7.7064491454
 11
-4.5431159126
 21
7.7477554426
  0
LINE
  5
449
100
AcDbEntity
  8
IMPORT_IGES
100
AcDbLine
 62
7
  6
CONTINUOUS
 10
-4.6924952263
 20
7.857966037
 11
-4.7204025314
 21
7.8309576538
  0
LINE
  5
44A
100
AcDbEntity
  8
IMPORT_IGES
100
AcDbLine
 62
7
  6
CONTINUOUS
 10
-5.7704907301
 20
7.7038254186
 11
-5.7325204494
 21
7.7388714726
  0
LINE
  5
44B
100
AcDbEntity
  8
IMPORT_IGES
100
AcDbLine
 62
7
  6
CONTINUOUS
 10
-2.6480955202
 20
8.3167761433
 11
-2.6744520307
 21
8.2936732271
  0
LINE
  5
44C
100
AcDbEntity
  8
IMPORT_IGES
100
AcDbLine
 62
7
  6
CONTINUOUS
 10
-2.6078664876
 20
8.1347940604
 11
-2.5879801319
 21
8.1513037562
  0
LINE
  5
44D
100
AcDbEntity
  8
IMPORT_IGES
100
AcDbLine
 62
7
  6
CONTINUOUS
 10
-4.623625993
 20
7.6721282457
 11
-4.5820544637
 21
7.7064491454
  0
LINE
  5
44E
100
AcDbEntity
  8
IMPORT_IGES
100
AcDbLine
 62
7
  6
CONTINUOUS
 10
-4.7204025314
 20
7.8309576538
 11
-4.7516638586
 21
7.80752446
  0
LINE
  5
44F
100
AcDbEntity
  8
IMPORT_IGES
100
AcDbLine
 62
7
  6
CONTINUOUS
 10
-5.8125287984
 20
7.6734002671
 11
-5.7704907301
 21
7.7038254186
  0
LINE
  5
450
100
AcDbEntity
  8
IMPORT_IGES
100
AcDbLine
 62
7
  6
CONTINUOUS
 10
-1.7328721886
 20
8.0439731124
 11
-1.7037532291
 21
8.0646114074
  0
LINE
  5
451
100
AcDbEntity
  8
IMPORT_IGES
100
AcDbLine
 62
7
  6
CONTINUOUS
 10
-5.9133928044
 20
7.8267380696
 11
-5.9431960383
 21
7.8058594768
  0
LINE
  5
452
100
AcDbEntity
  8
IMPORT_IGES
100
AcDbLine
 62
7
  6
CONTINUOUS
 10
-2.6202403032
 20
8.3357452959
 11
-2.6480955202
 21
8.3167761433
  0
LINE
  5
453
100
AcDbEntity
  8
IMPORT_IGES
100
AcDbLine
 62
7
  6
CONTINUOUS
 10
-1.7713810011
 20
8.2263850889
 11
-1.7931446643
 21
8.2127527883
  0
LINE
  5
454
100
AcDbEntity
  8
IMPORT_IGES
100
AcDbLine
 62
7
  6
CONTINUOUS
 10
-4.6683705283
 20
7.6442589671
 11
-4.623625993
 21
7.6721282457
  0
LINE
  5
455
100
AcDbEntity
  8
IMPORT_IGES
100
AcDbLine
 62
7
  6
CONTINUOUS
 10
-2.5879801319
 20
8.1513037562
 11
-2.5660286837
 21
8.1642262995
  0
LINE
  5
456
100
AcDbEntity
  8
IMPORT_IGES
100
AcDbLine
 62
7
  6
CONTINUOUS
 10
-4.7516638586
 20
7.80752446
 11
-4.7852966277
 21
7.7891793602
  0
LINE
  5
457
100
AcDbEntity
  8
IMPORT_IGES
100
AcDbLine
 62
7
  6
CONTINUOUS
 10
-5.8595950499
 20
7.6478679989
 11
-5.8125287984
 21
7.6734002671
  0
LINE
  5
458
100
AcDbEntity
  8
IMPORT_IGES
100
AcDbLine
 62
7
  6
CONTINUOUS
 10
-1.7647066959
 20
8.0277504238
 11
-1.7328721886
 21
8.0439731124
  0
LINE
  5
459
100
AcDbEntity
  8
IMPORT_IGES
100
AcDbLine
 62
7
  6
CONTINUOUS
 10
-5.9431960383
 20
7.8058594768
 11
-5.9763998784
 21
7.7890772701
  0
LINE
  5
45A
100
AcDbEntity
  8
IMPORT_IGES
100
AcDbLine
 62
7
  6
CONTINUOUS
 10
-2.5910472708
 20
8.3504676795
 11
-2.6202403032
 21
8.3357452959
  0
LINE
  5
45B
100
AcDbEntity
  8
IMPORT_IGES
100
AcDbLine
 62
7
  6
CONTINUOUS
 10
-4.7171136154
 20
7.6222989094
 11
-4.6683705283
 21
7.6442589671
  0
LINE
  5
45C
100
AcDbEntity
  8
IMPORT_IGES
100
AcDbLine
 62
7
  6
CONTINUOUS
 10
-1.7931446643
 20
8.2127527883
 11
-1.8205021192
 21
8.2011092248
  0
LINE
  5
45D
100
AcDbEntity
  8
IMPORT_IGES
100
AcDbLine
 62
7
  6
CONTINUOUS
 10
-5.9128961979
 20
7.6272410903
 11
-5.8595950499
 21
7.6478679989
  0
LINE
  5
45E
100
AcDbEntity
  8
IMPORT_IGES
100
AcDbLine
 62
7
  6
CONTINUOUS
 10
-2.5660286837
 20
8.1642262995
 11
-2.5379789225
 21
8.1749378275
  0
LINE
  5
45F
100
AcDbEntity
  8
IMPORT_IGES
100
AcDbLine
 62
7
  6
CONTINUOUS
 10
-4.7852966277
 20
7.7891793602
 11
-4.820973312
 21
7.7764266559
  0
LINE
  5
460
100
AcDbEntity
  8
IMPORT_IGES
100
AcDbLine
 62
7
  6
CONTINUOUS
 10
-1.7985272142
 20
8.01588687
 11
-1.7647066959
 21
8.0277504238
  0
LINE
  5
461
100
AcDbEntity
  8
IMPORT_IGES
100
AcDbLine
 62
7
  6
CONTINUOUS
 10
-2.5603555318
 20
8.3610562996
 11
-2.5910472708
 21
8.3504676795
  0
LINE
  5
462
100
AcDbEntity
  8
IMPORT_IGES
100
AcDbLine
 62
7
  6
CONTINUOUS
 10
-5.9763998784
 20
7.7890772701
 11
-6.0138827431
 21
7.776456643
  0
LINE
  5
463
100
AcDbEntity
  8
IMPORT_IGES
100
AcDbLine
 62
7
  6
CONTINUOUS
 10
-4.9905801539
 20
8.969012288
 11
-4.9566917214
 21
8.9794511984
  0
LINE
  5
464
100
AcDbEntity
  8
IMPORT_IGES
100
AcDbLine
 62
7
  6
CONTINUOUS
 10
-4.7701304364
 20
7.6060672725
 11
-4.7171136154
 21
7.6222989094
  0
LWPOLYLINE
  5
465
100
AcDbEntity
  8
IMPORT_IGES
100
AcDbPolyline
 62
253
  6
CONTINUOUS
 90
15
 70
0
 10
-14.7836925085
 20
6.0968070943
 10
-14.7793574069
 20
6.0920684138
 10
-14.7754173115
 20
6.0799670109
 10
-14.7719149425
 20
6.0605083026
 10
-14.7688943893
 20
6.0339478086
 10
-14.7663680647
 20
6.0005329981
 10
-14.764331187
 20
5.9602370719
 10
-14.7628025361
 20
5.9133635121
 10
-14.7617937763
 20
5.8603774481
 10
-14.7613036961
 20
5.8012561408
 10
-14.7613384131
 20
5.736467746
 10
-14.7618953096
 20
5.6665962964
 10
-14.7629747233
 20
5.5916188664
 10
-14.7645695136
 20
5.5121624471
 10
-14.7666642032
 20
5.4289057585
  0
LINE
  5
466
100
AcDbEntity
  8
IMPORT_IGES
100
AcDbLine
 62
7
  6
CONTINUOUS
 10
-7.7331683327
 20
16.9326640812
 11
-7.7240678507
 21
16.8478952053
  0
LINE
  5
467
100
AcDbEntity
  8
IMPORT_IGES
100
AcDbLine
 62
7
  6
CONTINUOUS
 10
-6.5102455683
 20
17.2994421581
 11
-6.5189012642
 21
17.3825908102
  0
LINE
  5
468
100
AcDbEntity
  8
IMPORT_IGES
100
AcDbLine
 62
7
  6
CONTINUOUS
 10
-7.4844026089
 20
16.8596807617
 11
-7.4904601712
 21
16.9200703565
  0
LINE
  5
469
100
AcDbEntity
  8
IMPORT_IGES
100
AcDbLine
 62
7
  6
CONTINUOUS
 10
-6.1201789156
 20
16.8596807618
 11
-6.1262364779
 21
16.9200703566
  0
LINE
  5
46A
100
AcDbEntity
  8
IMPORT_IGES
100
AcDbLine
 62
7
  6
CONTINUOUS
 10
-5.2072383859
 20
8.2167866315
 11
-5.2021868409
 21
8.1654299717
  0
LINE
  5
46B
100
AcDbEntity
  8
IMPORT_IGES
100
AcDbLine
 62
7
  6
CONTINUOUS
 10
-5.4160293825
 20
8.2480519401
 11
-5.4081158005
 21
8.1669292266
  0
LINE
  5
46C
100
AcDbEntity
  8
IMPORT_IGES
100
AcDbLine
 62
7
  6
CONTINUOUS
 10
-6.7575798207
 20
17.3406611036
 11
-6.7526908863
 21
17.2864213719
  0
LINE
  5
46D
100
AcDbEntity
  8
IMPORT_IGES
100
AcDbLine
 62
7
  6
CONTINUOUS
 10
-6.3696141439
 20
16.9478752289
 11
-6.366441263
 21
16.9085616444
  0
LINE
  5
46E
100
AcDbEntity
  8
IMPORT_IGES
100
AcDbLine
 62
7
  6
CONTINUOUS
 10
-6.366441263
 20
16.9085616444
 11
-6.3641113322
 21
16.8727740466
  0
LINE
  5
46F
100
AcDbEntity
  8
IMPORT_IGES
100
AcDbLine
 62
7
  6
CONTINUOUS
 10
-7.4904601712
 20
16.9200703565
 11
-7.4945029976
 21
16.9844147229
  0
LINE
  5
470
100
AcDbEntity
  8
IMPORT_IGES
100
AcDbLine
 62
7
  6
CONTINUOUS
 10
-6.1262364779
 20
16.9200703566
 11
-6.1302793043
 21
16.9844147231
  0
LINE
  5
471
100
AcDbEntity
  8
IMPORT_IGES
100
AcDbLine
 62
7
  6
CONTINUOUS
 10
-6.3719996541
 20
16.9859380538
 11
-6.3696141439
 21
16.9478752289
  0
LINE
  5
472
100
AcDbEntity
  8
IMPORT_IGES
100
AcDbLine
 62
7
  6
CONTINUOUS
 10
-5.2105921645
 20
8.2713767035
 11
-5.2072383859
 21
8.2167866315
  0
LINE
  5
473
100
AcDbEntity
  8
IMPORT_IGES
100
AcDbLine
 62
7
  6
CONTINUOUS
 10
-6.7526908863
 20
17.2864213719
 11
-6.749288116
 21
17.2300450469
  0
LINE
  5
474
100
AcDbEntity
  8
IMPORT_IGES
100
AcDbLine
 62
7
  6
CONTINUOUS
 10
-5.388467193
 20
17.2864213718
 11
-5.3850644227
 21
17.2300450469
  0
LINE
  5
475
100
AcDbEntity
  8
IMPORT_IGES
100
AcDbLine
 62
7
  6
CONTINUOUS
 10
-5.1414642016
 20
17.2197664691
 11
-5.1465285042
 21
17.3058958385
  0
LINE
  5
476
100
AcDbEntity
  8
IMPORT_IGES
100
AcDbLine
 62
7
  6
CONTINUOUS
 10
-6.5055193416
 20
17.2128182348
 11
-6.5102455683
 21
17.2994421581
  0
LINE
  5
477
100
AcDbEntity
  8
IMPORT_IGES
100
AcDbLine
 62
7
  6
CONTINUOUS
 10
-5.7897691491
 20
8.1622951469
 11
-5.7878469073
 21
8.1201577256
  0
LINE
  5
478
100
AcDbEntity
  8
IMPORT_IGES
100
AcDbLine
 62
7
  6
CONTINUOUS
 10
-6.3736197666
 20
17.0227441299
 11
-6.3719996541
 21
16.9859380538
  0
LINE
  5
479
100
AcDbEntity
  8
IMPORT_IGES
100
AcDbLine
 62
7
  6
CONTINUOUS
 10
-5.4156520079
 20
8.2480685631
 11
-5.4191722548
 21
8.3279851959
  0
LINE
  5
47A
100
AcDbEntity
  8
IMPORT_IGES
100
AcDbLine
 62
7
  6
CONTINUOUS
 10
-4.5733909699
 20
8.4445638206
 11
-4.5756282598
 21
8.4994617678
  0
LINE
  5
47B
100
AcDbEntity
  8
IMPORT_IGES
100
AcDbLine
 62
7
  6
CONTINUOUS
 10
-6.749288116
 20
17.2300450469
 11
-6.7474312142
 21
17.1704957932
  0
LINE
  5
47C
100
AcDbEntity
  8
IMPORT_IGES
100
AcDbLine
 62
7
  6
CONTINUOUS
 10
-5.3850644227
 20
17.2300450469
 11
-5.383207521
 21
17.1704957931
  0
LINE
  5
47D
100
AcDbEntity
  8
IMPORT_IGES
100
AcDbLine
 62
7
  6
CONTINUOUS
 10
-6.1302793043
 20
16.9844147231
 11
-6.1323252613
 21
17.0515575438
  0
LINE
  5
47E
100
AcDbEntity
  8
IMPORT_IGES
100
AcDbLine
 62
7
  6
CONTINUOUS
 10
-5.2122109498
 20
8.3282495683
 11
-5.2105921645
 21
8.2713767035
  0
LINE
  5
47F
100
AcDbEntity
  8
IMPORT_IGES
100
AcDbLine
 62
7
  6
CONTINUOUS
 10
-6.3745412187
 20
17.0583010561
 11
-6.3736197666
 21
17.0227441299
  0
LINE
  5
480
100
AcDbEntity
  8
IMPORT_IGES
100
AcDbLine
 62
7
  6
CONTINUOUS
 10
-4.5725015643
 20
8.3898574636
 11
-4.5733909699
 21
8.4445638206
  0
LINE
  5
481
100
AcDbEntity
  8
IMPORT_IGES
100
AcDbLine
 62
7
  6
CONTINUOUS
 10
-6.3748858737
 20
17.0927366342
 11
-6.3745412187
 21
17.0583010561
  0
LINE
  5
482
100
AcDbEntity
  8
IMPORT_IGES
100
AcDbLine
 62
7
  6
CONTINUOUS
 10
-5.383207521
 20
17.1704957931
 11
-5.3828367951
 21
17.1088102804
  0
LINE
  5
483
100
AcDbEntity
  8
IMPORT_IGES
100
AcDbLine
 62
7
  6
CONTINUOUS
 10
-5.5816719931
 20
8.1737938462
 11
-5.5813786071
 21
8.1094146591
  0
LINE
  5
484
100
AcDbEntity
  8
IMPORT_IGES
100
AcDbLine
 62
7
  6
CONTINUOUS
 10
-5.2123377699
 20
8.3844234328
 11
-5.2122109371
 21
8.3282492455
  0
LINE
  5
485
100
AcDbEntity
  8
IMPORT_IGES
100
AcDbLine
 62
7
  6
CONTINUOUS
 10
-6.1323252613
 20
17.0515575438
 11
-6.1324071684
 21
17.11792731
  0
LINE
  5
486
100
AcDbEntity
  8
IMPORT_IGES
100
AcDbLine
 62
7
  6
CONTINUOUS
 10
-5.1413897868
 20
17.1323664503
 11
-5.1414642016
 21
17.2197664691
  0
LINE
  5
487
100
AcDbEntity
  8
IMPORT_IGES
100
AcDbLine
 62
7
  6
CONTINUOUS
 10
-5.6668667413
 20
9.1346756681
 11
-5.6668667413
 21
8.9490816681
  0
LINE
  5
488
100
AcDbEntity
  8
IMPORT_IGES
100
AcDbLine
 62
7
  6
CONTINUOUS
 10
-4.2031299692
 20
17.6088866925
 11
-4.2031816467
 21
17.5781323601
  0
LINE
  5
489
100
AcDbEntity
  8
IMPORT_IGES
100
AcDbLine
 62
7
  6
CONTINUOUS
 10
-4.3657188699
 20
8.435011478
 11
-4.3659449863
 21
8.3507413397
  0
LINE
  5
48A
100
AcDbEntity
  8
IMPORT_IGES
100
AcDbLine
 62
7
  6
CONTINUOUS
 10
-5.4191727535
 20
8.3279946185
 11
-5.418929254
 21
8.4134721411
  0
LINE
  5
48B
100
AcDbEntity
  8
IMPORT_IGES
100
AcDbLine
 62
7
  6
CONTINUOUS
 10
-6.3747343137
 20
17.1260553632
 11
-6.3748858737
 21
17.0927366342
  0
LINE
  5
48C
100
AcDbEntity
  8
IMPORT_IGES
100
AcDbLine
 62
7
  6
CONTINUOUS
 10
-5.141958724
 20
17.0427947213
 11
-5.1413897868
 21
17.1323664503
  0
LINE
  5
48D
100
AcDbEntity
  8
IMPORT_IGES
100
AcDbLine
 62
7
  6
CONTINUOUS
 10
-4.5728970622
 20
8.3356750805
 11
-4.5725015643
 21
8.3898574636
  0
LINE
  5
48E
100
AcDbEntity
  8
IMPORT_IGES
100
AcDbLine
 62
7
  6
CONTINUOUS
 10
-4.1224273124
 20
16.8033120452
 11
-4.1228885059
 21
16.7617014337
  0
LINE
  5
48F
100
AcDbEntity
  8
IMPORT_IGES
100
AcDbLine
 62
7
  6
CONTINUOUS
 10
-5.3828367951
 20
17.1088102804
 11
-5.383773115
 21
17.0482451925
  0
LINE
  5
490
100
AcDbEntity
  8
IMPORT_IGES
100
AcDbLine
 62
7
  6
CONTINUOUS
 10
-6.1324071684
 20
17.11792731
 11
-6.1310292863
 21
17.1828357797
  0
LINE
  5
491
100
AcDbEntity
  8
IMPORT_IGES
100
AcDbLine
 62
7
  6
CONTINUOUS
 10
-5.2110971336
 20
8.439294499
 11
-5.2123377618
 21
8.3844237393
  0
LINE
  5
492
100
AcDbEntity
  8
IMPORT_IGES
100
AcDbLine
 62
7
  6
CONTINUOUS
 10
-4.5746404444
 20
8.2816842875
 11
-4.5728970622
 21
8.3356750805
  0
LINE
  5
493
100
AcDbEntity
  8
IMPORT_IGES
100
AcDbLine
 62
7
  6
CONTINUOUS
 10
-5.383773115
 20
17.0482451925
 11
-5.3858652178
 21
16.989616692
  0
LINE
  5
494
100
AcDbEntity
  8
IMPORT_IGES
100
AcDbLine
 62
7
  6
CONTINUOUS
 10
-5.7890825763
 20
8.0769538955
 11
-5.7874435795
 21
8.1201500709
  0
LINE
  5
495
100
AcDbEntity
  8
IMPORT_IGES
100
AcDbLine
 62
7
  6
CONTINUOUS
 10
-5.4153895339
 20
8.4935125478
 11
-5.4186166776
 21
8.4134716453
  0
LINE
  5
496
100
AcDbEntity
  8
IMPORT_IGES
100
AcDbLine
 62
7
  6
CONTINUOUS
 10
-4.3659455066
 20
8.3507334783
 11
-4.3698155601
 21
8.271263386
  0
LINE
  5
497
100
AcDbEntity
  8
IMPORT_IGES
100
AcDbLine
 62
7
  6
CONTINUOUS
 10
-5.2083645581
 20
8.4934674827
 11
-5.2110971336
 21
8.439294499
  0
LINE
  5
498
100
AcDbEntity
  8
IMPORT_IGES
100
AcDbLine
 62
7
  6
CONTINUOUS
 10
-5.3858652178
 20
16.989616692
 11
-5.3892643743
 21
16.9321087105
  0
LINE
  5
499
100
AcDbEntity
  8
IMPORT_IGES
100
AcDbLine
 62
7
  6
CONTINUOUS
 10
-4.5777407597
 20
8.2294548064
 11
-4.5746404444
 21
8.2816842875
  0
LINE
  5
49A
100
AcDbEntity
  8
IMPORT_IGES
100
AcDbLine
 62
7
  6
CONTINUOUS
 10
-4.2042728773
 20
17.5427186081
 11
-4.2020841223
 21
17.5781145707
  0
LINE
  5
49B
100
AcDbEntity
  8
IMPORT_IGES
100
AcDbLine
 62
7
  6
CONTINUOUS
 10
-5.1479463382
 20
16.9520382996
 11
-5.141958724
 21
17.0427947213
  0
LINE
  5
49C
100
AcDbEntity
  8
IMPORT_IGES
100
AcDbLine
 62
7
  6
CONTINUOUS
 10
-5.5860949462
 20
8.0518053412
 11
-5.5818575535
 21
8.1094122097
  0
LINE
  5
49D
100
AcDbEntity
  8
IMPORT_IGES
100
AcDbLine
 62
7
  6
CONTINUOUS
 10
-4.1252552793
 20
16.7155304152
 11
-4.12151497
 21
16.7616882929
  0
LINE
  5
49E
100
AcDbEntity
  8
IMPORT_IGES
100
AcDbLine
 62
7
  6
CONTINUOUS
 10
-5.2040096991
 20
8.5457770092
 11
-5.2083645581
 21
8.4934674827
  0
LINE
  5
49F
100
AcDbEntity
  8
IMPORT_IGES
100
AcDbLine
 62
7
  6
CONTINUOUS
 10
-4.5820149626
 20
8.1794089697
 11
-4.5777407597
 21
8.2294548064
  0
LINE
  5
4A0
100
AcDbEntity
  8
IMPORT_IGES
100
AcDbLine
 62
7
  6
CONTINUOUS
 10
-4.3777007
 20
8.1893686003
 11
-4.3694185778
 21
8.2712440536
  0
LINE
  5
4A1
100
AcDbEntity
  8
IMPORT_IGES
100
AcDbLine
 62
7
  6
CONTINUOUS
 10
-5.4069862703
 20
8.5748671341
 11
-5.4153895339
 21
8.4935125478
  0
LINE
  5
4A2
100
AcDbEntity
  8
IMPORT_IGES
100
AcDbLine
 62
7
  6
CONTINUOUS
 10
-3.8887443196
 20
16.7473886438
 11
-3.8947723296
 21
16.6900007992
  0
LINE
  5
4A3
100
AcDbEntity
  8
IMPORT_IGES
100
AcDbLine
 62
7
  6
CONTINUOUS
 10
-4.5876460986
 20
8.1311244448
 11
-4.5820149626
 21
8.1794089697
  0
LINE
  5
4A4
100
AcDbEntity
  8
IMPORT_IGES
100
AcDbLine
 62
7
  6
CONTINUOUS
 10
-5.1981190937
 20
8.5959448664
 11
-5.2040096991
 21
8.5457770092
  0
LINE
  5
4A5
100
AcDbEntity
  8
IMPORT_IGES
100
AcDbLine
 62
7
  6
CONTINUOUS
 10
-3.9769834954
 20
17.5507632665
 11
-3.9826288854
 21
17.5059194151
  0
LINE
  5
4A6
100
AcDbEntity
  8
IMPORT_IGES
100
AcDbLine
 62
7
  6
CONTINUOUS
 10
-2.1999139554
 20
17.2302728797
 11
-2.2241938701
 21
17.0383986505
  0
LINE
  5
4A7
100
AcDbEntity
  8
IMPORT_IGES
100
AcDbLine
 62
7
  6
CONTINUOUS
 10
-4.3892303176
 20
8.1122584269
 11
-4.3777007
 21
8.1893686003
  0
LINE
  5
4A8
100
AcDbEntity
  8
IMPORT_IGES
100
AcDbLine
 62
7
  6
CONTINUOUS
 10
-5.3952867634
 20
8.6507925722
 11
-5.4069862703
 21
8.5748671341
  0
LINE
  5
4A9
100
AcDbEntity
  8
IMPORT_IGES
100
AcDbLine
 62
7
  6
CONTINUOUS
 10
-5.1906062047
 20
8.6442492665
 11
-5.1981190937
 21
8.5959448664
  0
LINE
  5
4AA
100
AcDbEntity
  8
IMPORT_IGES
100
AcDbLine
 62
7
  6
CONTINUOUS
 10
-4.5951923542
 20
8.084903955
 11
-4.5876460986
 21
8.1311244448
  0
LINE
  5
4AB
100
AcDbEntity
  8
IMPORT_IGES
100
AcDbLine
 62
7
  6
CONTINUOUS
 10
-1.8003440184
 20
17.4929656979
 11
-1.8081434366
 21
17.4487841984
  0
LINE
  5
4AC
100
AcDbEntity
  8
IMPORT_IGES
100
AcDbLine
 62
7
  6
CONTINUOUS
 10
-2.4159407936
 20
17.4854026774
 11
-2.4071315971
 21
17.5337469126
  0
LINE
  5
4AD
100
AcDbEntity
  8
IMPORT_IGES
100
AcDbLine
 62
7
  6
CONTINUOUS
 10
-1.7207984944
 20
16.6656163646
 11
-1.7323310506
 21
16.6087568025
  0
LINE
  5
4AE
100
AcDbEntity
  8
IMPORT_IGES
100
AcDbLine
 62
7
  6
CONTINUOUS
 10
-1.5045722312
 20
16.5717785589
 11
-1.4916321964
 21
16.6351749346
  0
LINE
  5
4AF
100
AcDbEntity
  8
IMPORT_IGES
100
AcDbLine
 62
7
  6
CONTINUOUS
 10
-4.6044438115
 20
8.0406100806
 11
-4.5951923542
 21
8.084903955
  0
LINE
  5
4B0
100
AcDbEntity
  8
IMPORT_IGES
100
AcDbLine
 62
7
  6
CONTINUOUS
 10
-4.4047581563
 20
8.0394130312
 11
-4.3892303176
 21
8.1122584269
  0
LINE
  5
4B1
100
AcDbEntity
  8
IMPORT_IGES
100
AcDbLine
 62
7
  6
CONTINUOUS
 10
-2.6200316834
 20
17.5925178821
 11
-2.6357787909
 21
17.5244856769
  0
LINE
  5
4B2
100
AcDbEntity
  8
IMPORT_IGES
100
AcDbLine
 62
7
  6
CONTINUOUS
 10
-2.8064078313
 20
8.0097432071
 11
-2.7981052374
 21
8.044355476
  0
LINE
  5
4B3
100
AcDbEntity
  8
IMPORT_IGES
100
AcDbLine
 62
7
  6
CONTINUOUS
 10
-1.5918327936
 20
17.4027925645
 11
-1.5794659919
 21
17.4510853051
  0
LINE
  5
4B4
100
AcDbEntity
  8
IMPORT_IGES
100
AcDbLine
 62
7
  6
CONTINUOUS
 10
-4.6044438115
 20
8.0406100806
 11
-4.6156103882
 21
7.9983802413
  0
LINE
  5
4B5
100
AcDbEntity
  8
IMPORT_IGES
100
AcDbLine
 62
7
  6
CONTINUOUS
 10
-2.7981052374
 20
8.044355476
 11
-2.7887152194
 21
8.0780154745
  0
LINE
  5
4B6
100
AcDbEntity
  8
IMPORT_IGES
100
AcDbLine
 62
7
  6
CONTINUOUS
 10
-4.4243682309
 20
7.9711892621
 11
-4.4047581563
 21
8.0394130312
  0
LINE
  5
4B7
100
AcDbEntity
  8
IMPORT_IGES
100
AcDbLine
 62
7
  6
CONTINUOUS
 10
-2.679068639
 20
8.0061257244
 11
-2.6888269455
 21
7.9741786681
  0
LINE
  5
4B8
100
AcDbEntity
  8
IMPORT_IGES
100
AcDbLine
 62
7
  6
CONTINUOUS
 10
-2.7786166431
 20
8.1104839897
 11
-2.7887152194
 21
8.0780154745
  0
LINE
  5
4B9
100
AcDbEntity
  8
IMPORT_IGES
100
AcDbLine
 62
7
  6
CONTINUOUS
 10
-1.5235865719
 20
16.5136897878
 11
-1.5045722312
 21
16.5717785589
  0
LINE
  5
4BA
100
AcDbEntity
  8
IMPORT_IGES
100
AcDbLine
 62
7
  6
CONTINUOUS
 10
-3.0871635898
 20
9.1997439363
 11
-3.5320141848
 21
7.8654231478
  0
LINE
  5
4BB
100
AcDbEntity
  8
IMPORT_IGES
100
AcDbLine
 62
7
  6
CONTINUOUS
 10
-2.7674306427
 20
8.1420002346
 11
-2.7786166431
 21
8.1104839897
  0
LINE
  5
4BC
100
AcDbEntity
  8
IMPORT_IGES
100
AcDbLine
 62
7
  6
CONTINUOUS
 10
-3.420619111
 20
7.6340981681
 11
-2.850475788
 21
9.1997439363
  0
LINE
  5
4BD
100
AcDbEntity
  8
IMPORT_IGES
100
AcDbLine
 62
7
  6
CONTINUOUS
 10
-4.4479765265
 20
7.9072302707
 11
-4.4243682309
 21
7.9711892621
  0
LINE
  5
4BE
100
AcDbEntity
  8
IMPORT_IGES
100
AcDbLine
 62
7
  6
CONTINUOUS
 10
-2.679068639
 20
8.0061257244
 11
-2.6678162913
 21
8.036001651
  0
LINE
  5
4BF
100
AcDbEntity
  8
IMPORT_IGES
100
AcDbLine
 62
7
  6
CONTINUOUS
 10
-2.7540206213
 20
8.1732818489
 11
-2.7674306427
 21
8.1420002346
  0
LINE
  5
4C0
100
AcDbEntity
  8
IMPORT_IGES
100
AcDbLine
 62
7
  6
CONTINUOUS
 10
-2.6678162913
 20
8.036001651
 11
-2.6550699023
 21
8.0638064479
  0
LINE
  5
4C1
100
AcDbEntity
  8
IMPORT_IGES
100
AcDbLine
 62
7
  6
CONTINUOUS
 10
-1.6860274823
 20
8.3418437549
 11
-1.6991868015
 21
8.3134459453
  0
LINE
  5
4C2
100
AcDbEntity
  8
IMPORT_IGES
100
AcDbLine
 62
7
  6
CONTINUOUS
 10
-1.6135076881
 20
8.188728439
 11
-1.5953843667
 21
8.2273752822
  0
LINE
  5
4C3
100
AcDbEntity
  8
IMPORT_IGES
100
AcDbLine
 62
7
  6
CONTINUOUS
 10
-2.7380077134
 20
8.2045680458
 11
-2.7540206213
 21
8.1732818489
  0
LINE
  5
4C4
100
AcDbEntity
  8
IMPORT_IGES
100
AcDbLine
 62
7
  6
CONTINUOUS
 10
-2.6550699023
 20
8.0638064479
 11
-2.6410198224
 21
8.090045456
  0
LINE
  5
4C5
100
AcDbEntity
  8
IMPORT_IGES
100
AcDbLine
 62
7
  6
CONTINUOUS
 10
-1.6334191739
 20
8.1530764022
 11
-1.6135076881
 21
8.188728439
  0
LINE
  5
4C6
100
AcDbEntity
  8
IMPORT_IGES
100
AcDbLine
 62
7
  6
CONTINUOUS
 10
-2.7197707845
 20
8.235619612
 11
-2.7380077134
 21
8.2045680458
  0
LINE
  5
4C7
100
AcDbEntity
  8
IMPORT_IGES
100
AcDbLine
 62
7
  6
CONTINUOUS
 10
-1.6991868015
 20
8.3134459453
 11
-1.7146155094
 21
8.2872972502
  0
LINE
  5
4C8
100
AcDbEntity
  8
IMPORT_IGES
100
AcDbLine
 62
7
  6
CONTINUOUS
 10
-2.6410198224
 20
8.090045456
 11
-2.6254757012
 21
8.1142133344
  0
LINE
  5
4C9
100
AcDbEntity
  8
IMPORT_IGES
100
AcDbLine
 62
7
  6
CONTINUOUS
 10
-1.6547665667
 20
8.1201196642
 11
-1.6334191739
 21
8.1530764022
  0
LINE
  5
4CA
100
AcDbEntity
  8
IMPORT_IGES
100
AcDbLine
 62
7
  6
CONTINUOUS
 10
-2.6993098347
 20
8.2664365475
 11
-2.7197707845
 21
8.235619612
  0
LINE
  5
4CB
100
AcDbEntity
  8
IMPORT_IGES
100
AcDbLine
 62
7
  6
CONTINUOUS
 10
-1.7146155094
 20
8.2872972502
 11
-1.7321164236
 21
8.2636573199
  0
LINE
  5
4CC
100
AcDbEntity
  8
IMPORT_IGES
100
AcDbLine
 62
7
  6
CONTINUOUS
 10
-1.677902124
 20
8.0901577326
 11
-1.6547665667
 21
8.1201196642
  0
LINE
  5
4CD
100
AcDbEntity
  8
IMPORT_IGES
100
AcDbLine
 62
7
  6
CONTINUOUS
 10
-2.6254757012
 20
8.1142133344
 11
-2.6078664876
 21
8.1347940604
  0
LINE
  5
4CE
100
AcDbEntity
  8
IMPORT_IGES
100
AcDbLine
 62
7
  6
CONTINUOUS
 10
-1.7321164236
 20
8.2636573199
 11
-1.751097996
 21
8.2433051049
  0
LINE
  5
4CF
100
AcDbEntity
  8
IMPORT_IGES
100
AcDbLine
 62
7
  6
CONTINUOUS
 10
-1.7037532291
 20
8.0646114074
 11
-1.677902124
 21
8.0901577326
  0
LINE
  5
4D0
100
AcDbEntity
  8
IMPORT_IGES
100
AcDbLine
 62
7
  6
CONTINUOUS
 10
-1.751097996
 20
8.2433051049
 11
-1.7713810011
 21
8.2263850889
  0
LINE
  5
4D1
100
AcDbEntity
  8
IMPORT_IGES
100
AcDbLine
 62
7
  6
CONTINUOUS
 10
-6.4147068161
 20
7.9428992826
 11
-6.4256378873
 21
7.9807673871
  0
LINE
  5
4D2
100
AcDbEntity
  8
IMPORT_IGES
100
AcDbLine
 62
7
  6
CONTINUOUS
 10
-6.8009944491
 20
8.789836086
 11
-6.8147937962
 21
8.8456661844
  0
LINE
  5
4D3
100
AcDbEntity
  8
IMPORT_IGES
100
AcDbLine
 62
7
  6
CONTINUOUS
 10
-6.6247546755
 20
7.9630340125
 11
-6.6124283361
 21
7.9084511073
  0
LINE
  5
4D4
100
AcDbEntity
  8
IMPORT_IGES
100
AcDbLine
 62
7
  6
CONTINUOUS
 10
-7.0081052661
 20
8.7502460758
 11
-7.0169747086
 21
8.7933171823
  0
LINE
  5
4D5
100
AcDbEntity
  8
IMPORT_IGES
100
AcDbLine
 62
7
  6
CONTINUOUS
 10
-7.4657103573
 20
16.7473979416
 11
-7.4762874471
 21
16.802089437
  0
LINE
  5
4D6
100
AcDbEntity
  8
IMPORT_IGES
100
AcDbLine
 62
7
  6
CONTINUOUS
 10
-5.789683493
 20
8.1623100021
 11
-5.7981105139
 21
8.210900504
  0
LINE
  5
4D7
100
AcDbEntity
  8
IMPORT_IGES
100
AcDbLine
 62
7
  6
CONTINUOUS
 10
-6.4327097349
 20
8.0221776681
 11
-6.4256378873
 21
7.9807673871
  0
LINE
  5
4D8
100
AcDbEntity
  8
IMPORT_IGES
100
AcDbLine
 62
7
  6
CONTINUOUS
 10
-7.7240678507
 20
16.8478952053
 11
-7.7111280039
 21
16.7676599186
  0
LINE
  5
4D9
100
AcDbEntity
  8
IMPORT_IGES
100
AcDbLine
 62
7
  6
CONTINUOUS
 10
-5.4081158005
 20
8.1669292266
 11
-5.3968153669
 21
8.0913346987
  0
LINE
  5
4DA
100
AcDbEntity
  8
IMPORT_IGES
100
AcDbLine
 62
7
  6
CONTINUOUS
 10
-7.4762874471
 20
16.802089437
 11
-7.4844026089
 21
16.8596807617
  0
LINE
  5
4DB
100
AcDbEntity
  8
IMPORT_IGES
100
AcDbLine
 62
7
  6
CONTINUOUS
 10
-5.2021868409
 20
8.1654299717
 11
-5.1954002897
 21
8.1163556458
  0
LINE
  5
4DC
100
AcDbEntity
  8
IMPORT_IGES
100
AcDbLine
 62
7
  6
CONTINUOUS
 10
-6.3567781097
 20
16.8259032076
 11
-6.3623537857
 21
16.8679359924
  0
LINE
  5
4DD
100
AcDbEntity
  8
IMPORT_IGES
100
AcDbLine
 62
7
  6
CONTINUOUS
 10
-6.8009944491
 20
8.789836086
 11
-6.794030439
 21
8.7346959108
  0
LINE
  5
4DE
100
AcDbEntity
  8
IMPORT_IGES
100
AcDbLine
 62
7
  6
CONTINUOUS
 10
-6.6247546755
 20
7.9630340125
 11
-6.6321701566
 21
8.0221776681
  0
LINE
  5
4DF
100
AcDbEntity
  8
IMPORT_IGES
100
AcDbLine
 62
7
  6
CONTINUOUS
 10
-6.7639549011
 20
17.3926155623
 11
-6.7575798207
 21
17.3406611036
  0
LINE
  5
4E0
100
AcDbEntity
  8
IMPORT_IGES
100
AcDbLine
 62
7
  6
CONTINUOUS
 10
-5.5883930747
 20
8.2345732112
 11
-5.5816690404
 21
8.1737952285
  0
LINE
  5
4E1
100
AcDbEntity
  8
IMPORT_IGES
100
AcDbLine
 62
7
  6
CONTINUOUS
 10
-3.9822853831
 20
17.6497175406
 11
-3.9769260021
 21
17.6008551526
  0
LINE
  5
4E2
100
AcDbEntity
  8
IMPORT_IGES
100
AcDbLine
 62
7
  6
CONTINUOUS
 10
-4.5793933264
 20
8.5519844324
 11
-4.5847465975
 21
8.6012182344
  0
LINE
  5
4E3
100
AcDbEntity
  8
IMPORT_IGES
100
AcDbLine
 62
7
  6
CONTINUOUS
 10
-5.1465285042
 20
17.3058958385
 11
-5.1554397674
 21
17.3885375676
  0
LINE
  5
4E4
100
AcDbEntity
  8
IMPORT_IGES
100
AcDbLine
 62
7
  6
CONTINUOUS
 10
-3.894398545
 20
16.861699716
 11
-3.8886899083
 21
16.8064423447
  0
LINE
  5
4E5
100
AcDbEntity
  8
IMPORT_IGES
100
AcDbLine
 62
7
  6
CONTINUOUS
 10
-5.3933561274
 20
17.3406611035
 11
-5.388467193
 21
17.2864213718
  0
LINE
  5
4E6
100
AcDbEntity
  8
IMPORT_IGES
100
AcDbLine
 62
7
  6
CONTINUOUS
 10
-4.3759435463
 20
8.5932057444
 11
-4.3688890921
 21
8.5135608881
  0
LINE
  5
4E7
100
AcDbEntity
  8
IMPORT_IGES
100
AcDbLine
 62
7
  6
CONTINUOUS
 10
-4.5756282598
 20
8.4994617678
 11
-4.5793933264
 21
8.5519844324
  0
LINE
  5
4E8
100
AcDbEntity
  8
IMPORT_IGES
100
AcDbLine
 62
7
  6
CONTINUOUS
 10
-4.3690157337
 20
8.5135655616
 11
-4.3657192948
 21
8.4350199042
  0
LINE
  5
4E9
100
AcDbEntity
  8
IMPORT_IGES
100
AcDbLine
 62
7
  6
CONTINUOUS
 10
-3.9771142215
 20
17.5510657068
 11
-3.9771142215
 21
17.6011623684
  0
LINE
  5
4EA
100
AcDbEntity
  8
IMPORT_IGES
100
AcDbLine
 62
7
  6
CONTINUOUS
 10
-3.8888860943
 20
16.7477273007
 11
-3.8888860943
 21
16.8067527776
  0
LINE
  5
4EB
100
AcDbEntity
  8
IMPORT_IGES
100
AcDbLine
 62
7
  6
CONTINUOUS
 10
-3.6809797413
 20
17.5620597291
 11
-3.6809797413
 21
17.3495494913
  0
LINE
  5
4EC
100
AcDbEntity
  8
IMPORT_IGES
100
AcDbLine
 62
7
  6
CONTINUOUS
 10
-3.2413037413
 20
17.614576718
 11
-3.2413037413
 21
16.2137196681
  0
LINE
  5
4ED
100
AcDbEntity
  8
IMPORT_IGES
100
AcDbLine
 62
7
  6
CONTINUOUS
 10
-3.0214657413
 20
16.2137196681
 11
-3.0214657413
 21
18.0115056681
  0
LINE
  5
4EE
100
AcDbEntity
  8
IMPORT_IGES
100
AcDbLine
 62
7
  6
CONTINUOUS
 10
-1.7195452131
 20
16.7485132844
 11
-1.7200064066
 21
16.7069026729
  0
LINE
  5
4EF
100
AcDbEntity
  8
IMPORT_IGES
100
AcDbLine
 62
7
  6
CONTINUOUS
 10
-1.801390778
 20
17.4879198472
 11
-1.7992020231
 21
17.5233158099
  0
LINE
  5
4F0
100
AcDbEntity
  8
IMPORT_IGES
100
AcDbLine
 62
7
  6
CONTINUOUS
 10
-1.72237318
 20
16.6607316544
 11
-1.7186328707
 21
16.7068895321
  0
LINE
  5
4F1
100
AcDbEntity
  8
IMPORT_IGES
100
AcDbLine
 62
7
  6
CONTINUOUS
 10
-1.4858622203
 20
16.6925898829
 11
-1.4918902303
 21
16.6352020384
  0
LINE
  5
4F2
100
AcDbEntity
  8
IMPORT_IGES
100
AcDbLine
 62
7
  6
CONTINUOUS
 10
-1.5741013961
 20
17.4959645057
 11
-1.5797467861
 21
17.4511206543
  0
LINE
  5
4F3
100
AcDbEntity
  8
IMPORT_IGES
100
AcDbLine
 62
7
  6
CONTINUOUS
 10
-2.8136230011
 20
7.9741786681
 11
-2.8064078313
 21
8.0097432071
  0
LINE
  5
4F4
100
AcDbEntity
  8
IMPORT_IGES
100
AcDbLine
 62
7
  6
CONTINUOUS
 10
-1.5526059833
 20
8.3578028012
 11
-1.5421960059
 21
8.4061656681
  0
LINE
  5
4F5
100
AcDbEntity
  8
IMPORT_IGES
100
AcDbLine
 62
7
  6
CONTINUOUS
 10
-1.5649335143
 20
8.3119124634
 11
-1.5526059833
 21
8.3578028012
  0
LINE
  5
4F6
100
AcDbEntity
  8
IMPORT_IGES
100
AcDbLine
 62
7
  6
CONTINUOUS
 10
-1.6749403694
 20
8.3727503291
 11
-1.6659254627
 21
8.4061656681
  0
LINE
  5
4F7
100
AcDbEntity
  8
IMPORT_IGES
100
AcDbLine
 62
7
  6
CONTINUOUS
 10
-1.5791785989
 20
8.2684946545
 11
-1.5649335143
 21
8.3119124634
  0
LINE
  5
4F8
100
AcDbEntity
  8
IMPORT_IGES
100
AcDbLine
 62
7
  6
CONTINUOUS
 10
-1.6749403694
 20
8.3727503291
 11
-1.6860274823
 21
8.3418437549
  0
LINE
  5
4F9
100
AcDbEntity
  8
IMPORT_IGES
100
AcDbLine
 62
7
  6
CONTINUOUS
 10
-1.5953843667
 20
8.2273752822
 11
-1.5791785989
 21
8.2684946545
  0
LINE
  5
4FA
100
AcDbEntity
  8
IMPORT_IGES
100
AcDbLine
 62
253
  6
CONTINUOUS
 10
15.095009807
 20
19.0954455437
 11
14.9479896829
 21
18.9515275838
  0
LINE
  5
4FB
100
AcDbEntity
  8
IMPORT_IGES
100
AcDbLine
 62
7
  6
CONTINUOUS
 10
-6.381344719
 20
7.877825673
 11
-6.3999165214
 21
7.9085733547
  0
LINE
  5
4FC
100
AcDbEntity
  8
IMPORT_IGES
100
AcDbLine
 62
7
  6
CONTINUOUS
 10
-7.0452795637
 20
8.8607388358
 11
-7.0290120559
 21
8.8282235196
  0
LINE
  5
4FD
100
AcDbEntity
  8
IMPORT_IGES
100
AcDbLine
 62
7
  6
CONTINUOUS
 10
-6.8332599148
 20
8.8973865554
 11
-6.8561471148
 21
8.9438574682
  0
LINE
  5
4FE
100
AcDbEntity
  8
IMPORT_IGES
100
AcDbLine
 62
7
  6
CONTINUOUS
 10
-6.5951911382
 20
7.8584289525
 11
-6.5729892564
 21
7.8131188094
  0
LINE
  5
4FF
100
AcDbEntity
  8
IMPORT_IGES
100
AcDbLine
 62
7
  6
CONTINUOUS
 10
-5.8269320356
 20
8.2867599795
 11
-5.8102523118
 21
8.2503660151
  0
LINE
  5
500
100
AcDbEntity
  8
IMPORT_IGES
100
AcDbLine
 62
7
  6
CONTINUOUS
 10
-6.3999165214
 20
7.9085733547
 11
-6.4147068161
 21
7.9428992826
  0
LINE
  5
501
100
AcDbEntity
  8
IMPORT_IGES
100
AcDbLine
 62
7
  6
CONTINUOUS
 10
-5.1470013696
 20
7.9442811631
 11
-5.1625364998
 21
7.9832709647
  0
LINE
  5
502
100
AcDbEntity
  8
IMPORT_IGES
100
AcDbLine
 62
7
  6
CONTINUOUS
 10
-5.3612503551
 20
7.9527859324
 11
-5.336985777
 21
7.889831694
  0
LINE
  5
503
100
AcDbEntity
  8
IMPORT_IGES
100
AcDbLine
 62
7
  6
CONTINUOUS
 10
-5.6015264085
 20
8.2897431444
 11
-5.6210872294
 21
8.3412675216
  0
LINE
  5
504
100
AcDbEntity
  8
IMPORT_IGES
100
AcDbLine
 62
7
  6
CONTINUOUS
 10
-6.8147937962
 20
8.8456661844
 11
-6.8332599148
 21
8.8973865554
  0
LINE
  5
505
100
AcDbEntity
  8
IMPORT_IGES
100
AcDbLine
 62
7
  6
CONTINUOUS
 10
-7.0290120559
 20
8.8282235196
 11
-7.0169747086
 21
8.7933171823
  0
LINE
  5
506
100
AcDbEntity
  8
IMPORT_IGES
100
AcDbLine
 62
7
  6
CONTINUOUS
 10
-6.6124283361
 20
7.9084511073
 11
-6.5951911382
 21
7.8584289525
  0
LINE
  5
507
100
AcDbEntity
  8
IMPORT_IGES
100
AcDbLine
 62
7
  6
CONTINUOUS
 10
-7.4371908608
 20
16.6463024634
 11
-7.4526815731
 21
16.6954002878
  0
LINE
  5
508
100
AcDbEntity
  8
IMPORT_IGES
100
AcDbLine
 62
7
  6
CONTINUOUS
 10
-5.1625364998
 20
7.9832709647
 11
-5.1755751191
 21
8.0252761423
  0
LINE
  5
509
100
AcDbEntity
  8
IMPORT_IGES
100
AcDbLine
 62
7
  6
CONTINUOUS
 10
-5.8102523118
 20
8.2503660151
 11
-5.7981105139
 21
8.210900504
  0
LINE
  5
50A
100
AcDbEntity
  8
IMPORT_IGES
100
AcDbLine
 62
7
  6
CONTINUOUS
 10
-5.3812604246
 20
8.0199545239
 11
-5.3612503551
 21
7.9527859324
  0
LINE
  5
50B
100
AcDbEntity
  8
IMPORT_IGES
100
AcDbLine
 62
7
  6
CONTINUOUS
 10
-7.6942154831
 20
16.6910815142
 11
-7.6731289292
 21
16.619072806
  0
LINE
  5
50C
100
AcDbEntity
  8
IMPORT_IGES
100
AcDbLine
 62
7
  6
CONTINUOUS
 10
-4.4010405588
 20
8.7369899131
 11
-4.420084094
 21
8.8029193345
  0
LINE
  5
50D
100
AcDbEntity
  8
IMPORT_IGES
100
AcDbLine
 62
7
  6
CONTINUOUS
 10
-6.8040675014
 20
17.5779548772
 11
-6.7919970003
 21
17.5346186207
  0
LINE
  5
50E
100
AcDbEntity
  8
IMPORT_IGES
100
AcDbLine
 62
7
  6
CONTINUOUS
 10
-4.620901444
 20
8.7759592776
 11
-4.6097050687
 21
8.7354472755
  0
LINE
  5
50F
100
AcDbEntity
  8
IMPORT_IGES
100
AcDbLine
 62
7
  6
CONTINUOUS
 10
-6.3300910648
 20
16.6913844934
 11
-6.3171232135
 21
16.6437755924
  0
LINE
  5
510
100
AcDbEntity
  8
IMPORT_IGES
100
AcDbLine
 62
7
  6
CONTINUOUS
 10
-7.4526815731
 20
16.6954002878
 11
-7.4657103573
 21
16.7473979416
  0
LINE
  5
511
100
AcDbEntity
  8
IMPORT_IGES
100
AcDbLine
 62
7
  6
CONTINUOUS
 10
-6.0884578798
 20
16.6954002878
 11
-6.101486664
 21
16.7473979416
  0
LINE
  5
512
100
AcDbEntity
  8
IMPORT_IGES
100
AcDbLine
 62
7
  6
CONTINUOUS
 10
-5.1755751191
 20
8.0252761423
 11
-5.1865239456
 21
8.0696908794
  0
LINE
  5
513
100
AcDbEntity
  8
IMPORT_IGES
100
AcDbLine
 62
7
  6
CONTINUOUS
 10
-6.7919970003
 20
17.5346186207
 11
-6.7811259696
 21
17.4894974657
  0
LINE
  5
514
100
AcDbEntity
  8
IMPORT_IGES
100
AcDbLine
 62
7
  6
CONTINUOUS
 10
-5.5883930747
 20
8.2345732112
 11
-5.6015264085
 21
8.2897431444
  0
LINE
  5
515
100
AcDbEntity
  8
IMPORT_IGES
100
AcDbLine
 62
7
  6
CONTINUOUS
 10
-6.3409545491
 20
16.7376399685
 11
-6.3300910648
 21
16.6913844934
  0
LINE
  5
516
100
AcDbEntity
  8
IMPORT_IGES
100
AcDbLine
 62
7
  6
CONTINUOUS
 10
-4.6000350796
 20
8.6927338588
 11
-4.6097050687
 21
8.7354472755
  0
LINE
  5
517
100
AcDbEntity
  8
IMPORT_IGES
100
AcDbLine
 62
7
  6
CONTINUOUS
 10
-7.7111280039
 20
16.7676599186
 11
-7.6942154831
 21
16.6910815142
  0
LINE
  5
518
100
AcDbEntity
  8
IMPORT_IGES
100
AcDbLine
 62
7
  6
CONTINUOUS
 10
-5.3968153669
 20
8.0913346987
 11
-5.3812604246
 21
8.0199545239
  0
LINE
  5
519
100
AcDbEntity
  8
IMPORT_IGES
100
AcDbLine
 62
7
  6
CONTINUOUS
 10
-6.531170042
 20
17.461692297
 11
-6.5472666531
 21
17.5372559942
  0
LINE
  5
51A
100
AcDbEntity
  8
IMPORT_IGES
100
AcDbLine
 62
7
  6
CONTINUOUS
 10
-4.3863943225
 20
8.667136053
 11
-4.4010405588
 21
8.7369899131
  0
LINE
  5
51B
100
AcDbEntity
  8
IMPORT_IGES
100
AcDbLine
 62
7
  6
CONTINUOUS
 10
-6.3499138708
 20
16.782413306
 11
-6.3409545491
 21
16.7376399685
  0
LINE
  5
51C
100
AcDbEntity
  8
IMPORT_IGES
100
AcDbLine
 62
7
  6
CONTINUOUS
 10
-6.7811259696
 20
17.4894974657
 11
-6.7717973623
 21
17.4421991505
  0
LINE
  5
51D
100
AcDbEntity
  8
IMPORT_IGES
100
AcDbLine
 62
7
  6
CONTINUOUS
 10
-5.4169022763
 20
17.4894974656
 11
-5.407573669
 21
17.4421991504
  0
LINE
  5
51E
100
AcDbEntity
  8
IMPORT_IGES
100
AcDbLine
 62
7
  6
CONTINUOUS
 10
-6.101486664
 20
16.7473979416
 11
-6.1120637538
 21
16.8020894371
  0
LINE
  5
51F
100
AcDbEntity
  8
IMPORT_IGES
100
AcDbLine
 62
7
  6
CONTINUOUS
 10
-5.1954002897
 20
8.1163556458
 11
-5.1865239456
 21
8.0696908794
  0
LINE
  5
520
100
AcDbEntity
  8
IMPORT_IGES
100
AcDbLine
 62
7
  6
CONTINUOUS
 10
-4.5916276454
 20
8.6480767539
 11
-4.6000350796
 21
8.6927338588
  0
LINE
  5
521
100
AcDbEntity
  8
IMPORT_IGES
100
AcDbLine
 62
7
  6
CONTINUOUS
 10
-6.3569313546
 20
16.8258828795
 11
-6.3499138708
 21
16.782413306
  0
LINE
  5
522
100
AcDbEntity
  8
IMPORT_IGES
100
AcDbLine
 62
7
  6
CONTINUOUS
 10
-5.1554397674
 20
17.3885375676
 11
-5.1679612421
 21
17.4671596304
  0
LINE
  5
523
100
AcDbEntity
  8
IMPORT_IGES
100
AcDbLine
 62
7
  6
CONTINUOUS
 10
-6.7717973623
 20
17.4421991505
 11
-6.7639549011
 21
17.3926155623
  0
LINE
  5
524
100
AcDbEntity
  8
IMPORT_IGES
100
AcDbLine
 62
7
  6
CONTINUOUS
 10
-5.407573669
 20
17.4421991504
 11
-5.3997312078
 21
17.3926155623
  0
LINE
  5
525
100
AcDbEntity
  8
IMPORT_IGES
100
AcDbLine
 62
7
  6
CONTINUOUS
 10
-6.5189012642
 20
17.3825908102
 11
-6.531170042
 21
17.461692297
  0
LINE
  5
526
100
AcDbEntity
  8
IMPORT_IGES
100
AcDbLine
 62
7
  6
CONTINUOUS
 10
-5.0606447753
 20
16.7182516636
 11
-5.0503391997
 21
16.6510421657
  0
LINE
  5
527
100
AcDbEntity
  8
IMPORT_IGES
100
AcDbLine
 62
7
  6
CONTINUOUS
 10
-4.5847465975
 20
8.6012182344
 11
-4.5916276454
 21
8.6480767539
  0
LINE
  5
528
100
AcDbEntity
  8
IMPORT_IGES
100
AcDbLine
 62
7
  6
CONTINUOUS
 10
-4.3759435463
 20
8.5932057444
 11
-4.3863943225
 21
8.667136053
  0
LINE
  5
529
100
AcDbEntity
  8
IMPORT_IGES
100
AcDbLine
 62
7
  6
CONTINUOUS
 10
-6.1120637538
 20
16.8020894371
 11
-6.1201789156
 21
16.8596807618
  0
LINE
  5
52A
100
AcDbEntity
  8
IMPORT_IGES
100
AcDbLine
 62
7
  6
CONTINUOUS
 10
-5.3997312078
 20
17.3926155623
 11
-5.3933561274
 21
17.3406611035
  0
LINE
  5
52B
100
AcDbEntity
  8
IMPORT_IGES
100
AcDbLine
 62
7
  6
CONTINUOUS
 10
-1.5794032838
 20
17.5949187797
 11
-1.5740439028
 21
17.5460563917
  0
LINE
  5
52C
100
AcDbEntity
  8
IMPORT_IGES
100
AcDbLine
 62
7
  6
CONTINUOUS
 10
-1.4915164458
 20
16.8069009552
 11
-1.485807809
 21
16.7516435839
  0
LINE
  5
52D
100
AcDbEntity
  8
IMPORT_IGES
100
AcDbLine
 62
7
  6
CONTINUOUS
 10
-1.5742321222
 20
17.496266946
 11
-1.5742321222
 21
17.5463636075
  0
LINE
  5
52E
100
AcDbEntity
  8
IMPORT_IGES
100
AcDbLine
 62
7
  6
CONTINUOUS
 10
-1.486003995
 20
16.6929285398
 11
-1.486003995
 21
16.7519540167
  0
LINE
  5
52F
100
AcDbEntity
  8
IMPORT_IGES
100
AcDbLine
 62
7
  6
CONTINUOUS
 10
-1.80024787
 20
17.554087932
 11
-1.8002995474
 21
17.5233335993
  0
LINE
  5
530
100
AcDbEntity
  8
IMPORT_IGES
100
AcDbLine
 62
7
  6
CONTINUOUS
 10
16.1769688152
 20
17.6961216172
 11
16.3213662976
 21
17.8374722738
  0
LINE
  5
531
100
AcDbEntity
  8
IMPORT_IGES
100
AcDbLine
 62
7
  6
CONTINUOUS
 10
-7.0896895484
 20
8.9162402867
 11
-7.0654627646
 21
8.890063723
  0
LINE
  5
532
100
AcDbEntity
  8
IMPORT_IGES
100
AcDbLine
 62
7
  6
CONTINUOUS
 10
-6.5458765162
 20
7.7723694168
 11
-6.5140143943
 21
7.7357269901
  0
LINE
  5
533
100
AcDbEntity
  8
IMPORT_IGES
100
AcDbLine
 62
7
  6
CONTINUOUS
 10
-5.8731000293
 20
8.3495102989
 11
-5.8478813841
 21
8.3197965677
  0
LINE
  5
534
100
AcDbEntity
  8
IMPORT_IGES
100
AcDbLine
 62
7
  6
CONTINUOUS
 10
-6.358913693
 20
7.8506201679
 11
-6.381344719
 21
7.877825673
  0
LINE
  5
535
100
AcDbEntity
  8
IMPORT_IGES
100
AcDbLine
 62
7
  6
CONTINUOUS
 10
-6.8837010862
 20
8.9862186535
 11
-6.914622175
 21
9.0241335574
  0
LINE
  5
536
100
AcDbEntity
  8
IMPORT_IGES
100
AcDbLine
 62
7
  6
CONTINUOUS
 10
-5.0850101963
 20
7.8460098303
 11
-5.1080237371
 21
7.8749084473
  0
LINE
  5
537
100
AcDbEntity
  8
IMPORT_IGES
100
AcDbLine
 62
7
  6
CONTINUOUS
 10
-5.2761980488
 20
7.7809294169
 11
-5.2396748986
 21
7.7349813782
  0
LINE
  5
538
100
AcDbEntity
  8
IMPORT_IGES
100
AcDbLine
 62
7
  6
CONTINUOUS
 10
-5.6473411836
 20
8.3898525257
 11
-5.6810377988
 21
8.4365209601
  0
LINE
  5
539
100
AcDbEntity
  8
IMPORT_IGES
100
AcDbLine
 62
7
  6
CONTINUOUS
 10
-7.0654627646
 20
8.890063723
 11
-7.0452795637
 21
8.8607388358
  0
LINE
  5
53A
100
AcDbEntity
  8
IMPORT_IGES
100
AcDbLine
 62
7
  6
CONTINUOUS
 10
-6.5729892564
 20
7.8131188094
 11
-6.5458765162
 21
7.7723694168
  0
LINE
  5
53B
100
AcDbEntity
  8
IMPORT_IGES
100
AcDbLine
 62
7
  6
CONTINUOUS
 10
-6.8561471148
 20
8.9438574682
 11
-6.8837010862
 21
8.9862186535
  0
LINE
  5
53C
100
AcDbEntity
  8
IMPORT_IGES
100
AcDbLine
 62
7
  6
CONTINUOUS
 10
-5.8478813841
 20
8.3197965677
 11
-5.8269320356
 21
8.2867599795
  0
LINE
  5
53D
100
AcDbEntity
  8
IMPORT_IGES
100
AcDbLine
 62
7
  6
CONTINUOUS
 10
-5.3086978936
 20
7.8324855037
 11
-5.2761980488
 21
7.7809294169
  0
LINE
  5
53E
100
AcDbEntity
  8
IMPORT_IGES
100
AcDbLine
 62
7
  6
CONTINUOUS
 10
-4.4707108565
 20
8.9210177966
 11
-4.5024007037
 21
8.9713111918
  0
LINE
  5
53F
100
AcDbEntity
  8
IMPORT_IGES
100
AcDbLine
 62
7
  6
CONTINUOUS
 10
-5.1080237371
 20
7.8749084473
 11
-5.1287608088
 21
7.9080871172
  0
LINE
  5
540
100
AcDbEntity
  8
IMPORT_IGES
100
AcDbLine
 62
7
  6
CONTINUOUS
 10
-4.6684975553
 20
8.8812432384
 11
-4.6502976874
 21
8.8488572591
  0
LINE
  5
541
100
AcDbEntity
  8
IMPORT_IGES
100
AcDbLine
 62
7
  6
CONTINUOUS
 10
-5.6210872294
 20
8.3412675216
 11
-5.6473411836
 21
8.3898525257
  0
LINE
  5
542
100
AcDbEntity
  8
IMPORT_IGES
100
AcDbLine
 62
7
  6
CONTINUOUS
 10
-7.3972679372
 20
16.5587338712
 11
-7.4188031907
 21
16.6008239903
  0
LINE
  5
543
100
AcDbEntity
  8
IMPORT_IGES
100
AcDbLine
 62
7
  6
CONTINUOUS
 10
-5.1287608088
 20
7.9080871172
 11
-5.1470013696
 21
7.9442811631
  0
LINE
  5
544
100
AcDbEntity
  8
IMPORT_IGES
100
AcDbLine
 62
7
  6
CONTINUOUS
 10
-5.336985777
 20
7.889831694
 11
-5.3086978936
 21
7.8324855037
  0
LINE
  5
545
100
AcDbEntity
  8
IMPORT_IGES
100
AcDbLine
 62
7
  6
CONTINUOUS
 10
-4.4433230894
 20
8.8647723075
 11
-4.4707108565
 21
8.9210177966
  0
LINE
  5
546
100
AcDbEntity
  8
IMPORT_IGES
100
AcDbLine
 62
7
  6
CONTINUOUS
 10
-7.6476431747
 20
16.5515088266
 11
-7.6179833873
 21
16.4885145434
  0
LINE
  5
547
100
AcDbEntity
  8
IMPORT_IGES
100
AcDbLine
 62
7
  6
CONTINUOUS
 10
-4.6502976874
 20
8.8488572591
 11
-4.63441431
 21
8.8136705547
  0
LINE
  5
548
100
AcDbEntity
  8
IMPORT_IGES
100
AcDbLine
 62
7
  6
CONTINUOUS
 10
-6.8339209102
 20
17.657027238
 11
-6.8176804259
 21
17.6191139735
  0
LINE
  5
549
100
AcDbEntity
  8
IMPORT_IGES
100
AcDbLine
 62
7
  6
CONTINUOUS
 10
-7.4188031907
 20
16.6008239903
 11
-7.4371908608
 21
16.6463024634
  0
LINE
  5
54A
100
AcDbEntity
  8
IMPORT_IGES
100
AcDbLine
 62
7
  6
CONTINUOUS
 10
-6.0545794974
 20
16.6008239903
 11
-6.0729671675
 21
16.6463024633
  0
LINE
  5
54B
100
AcDbEntity
  8
IMPORT_IGES
100
AcDbLine
 62
7
  6
CONTINUOUS
 10
-6.3006212991
 20
16.5952029905
 11
-6.2807590044
 21
16.5451008126
  0
LINE
  5
54C
100
AcDbEntity
  8
IMPORT_IGES
100
AcDbLine
 62
7
  6
CONTINUOUS
 10
-7.6731289292
 20
16.619072806
 11
-7.6476431747
 21
16.5515088266
  0
LINE
  5
54D
100
AcDbEntity
  8
IMPORT_IGES
100
AcDbLine
 62
7
  6
CONTINUOUS
 10
-4.420084094
 20
8.8029193345
 11
-4.4433230894
 21
8.8647723075
  0
LINE
  5
54E
100
AcDbEntity
  8
IMPORT_IGES
100
AcDbLine
 62
7
  6
CONTINUOUS
 10
-6.5676438257
 20
17.6082563631
 11
-6.5925911229
 21
17.6748213366
  0
LINE
  5
54F
100
AcDbEntity
  8
IMPORT_IGES
100
AcDbLine
 62
7
  6
CONTINUOUS
 10
-4.2167325711
 20
9.1995972329
 11
-3.6465819057
 21
7.6340981681
  0
LINE
  5
550
100
AcDbEntity
  8
IMPORT_IGES
100
AcDbLine
 62
7
  6
CONTINUOUS
 10
-4.63441431
 20
8.8136705547
 11
-4.620901444
 21
8.7759592776
  0
LINE
  5
551
100
AcDbEntity
  8
IMPORT_IGES
100
AcDbLine
 62
7
  6
CONTINUOUS
 10
-6.3171232135
 20
16.6437755924
 11
-6.3006212991
 21
16.5952029905
  0
LINE
  5
552
100
AcDbEntity
  8
IMPORT_IGES
100
AcDbLine
 62
7
  6
CONTINUOUS
 10
-3.5320141848
 20
7.8654231478
 11
-3.982065951
 21
9.1995972329
  0
LINE
  5
553
100
AcDbEntity
  8
IMPORT_IGES
100
AcDbLine
 62
7
  6
CONTINUOUS
 10
-6.8176804259
 20
17.6191139735
 11
-6.8040675014
 21
17.5779548772
  0
LINE
  5
554
100
AcDbEntity
  8
IMPORT_IGES
100
AcDbLine
 62
7
  6
CONTINUOUS
 10
-5.4534567326
 20
17.6191139735
 11
-5.4398438081
 21
17.5779548771
  0
LINE
  5
555
100
AcDbEntity
  8
IMPORT_IGES
100
AcDbLine
 62
7
  6
CONTINUOUS
 10
-6.0729671675
 20
16.6463024633
 11
-6.0884578798
 21
16.6954002878
  0
LINE
  5
556
100
AcDbEntity
  8
IMPORT_IGES
100
AcDbLine
 62
7
  6
CONTINUOUS
 10
-4.8151634489
 20
16.6488536535
 11
-4.8294867516
 21
16.696440162
  0
LINE
  5
557
100
AcDbEntity
  8
IMPORT_IGES
100
AcDbLine
 62
7
  6
CONTINUOUS
 10
-4.1442189705
 20
16.9026361207
 11
-4.131095288
 21
16.8579255067
  0
LINE
  5
558
100
AcDbEntity
  8
IMPORT_IGES
100
AcDbLine
 62
7
  6
CONTINUOUS
 10
-5.1843016236
 20
17.5422260113
 11
-5.2048865075
 21
17.6127071843
  0
LINE
  5
559
100
AcDbEntity
  8
IMPORT_IGES
100
AcDbLine
 62
7
  6
CONTINUOUS
 10
-6.5472666531
 20
17.5372559942
 11
-6.5676438257
 21
17.6082563631
  0
LINE
  5
55A
100
AcDbEntity
  8
IMPORT_IGES
100
AcDbLine
 62
7
  6
CONTINUOUS
 10
-5.4398438081
 20
17.5779548771
 11
-5.427773307
 21
17.5346186206
  0
LINE
  5
55B
100
AcDbEntity
  8
IMPORT_IGES
100
AcDbLine
 62
7
  6
CONTINUOUS
 10
-5.0503391997
 20
16.6510421657
 11
-5.0340662342
 21
16.5881428232
  0
LINE
  5
55C
100
AcDbEntity
  8
IMPORT_IGES
100
AcDbLine
 62
7
  6
CONTINUOUS
 10
-5.427773307
 20
17.5346186206
 11
-5.4169022763
 21
17.4894974656
  0
LINE
  5
55D
100
AcDbEntity
  8
IMPORT_IGES
100
AcDbLine
 62
7
  6
CONTINUOUS
 10
-3.9820064225
 20
17.6497481379
 11
-3.9942367946
 21
17.7029842165
  0
LINE
  5
55E
100
AcDbEntity
  8
IMPORT_IGES
100
AcDbLine
 62
7
  6
CONTINUOUS
 10
-4.8294867516
 20
16.696440162
 11
-4.8408067076
 21
16.7475635393
  0
LINE
  5
55F
100
AcDbEntity
  8
IMPORT_IGES
100
AcDbLine
 62
7
  6
CONTINUOUS
 10
-5.1679612421
 20
17.4671596304
 11
-5.1843016236
 21
17.5422260113
  0
LINE
  5
560
100
AcDbEntity
  8
IMPORT_IGES
100
AcDbLine
 62
7
  6
CONTINUOUS
 10
-3.8941291394
 20
16.8617275483
 11
-3.9059875739
 21
16.9187913175
  0
LINE
  5
561
100
AcDbEntity
  8
IMPORT_IGES
100
AcDbLine
 62
7
  6
CONTINUOUS
 10
-4.2037289151
 20
17.6138733215
 11
-4.209981981
 21
17.6518462937
  0
LINE
  5
562
100
AcDbEntity
  8
IMPORT_IGES
100
AcDbLine
 62
7
  6
CONTINUOUS
 10
-4.131095288
 20
16.8579255067
 11
-4.1224273124
 21
16.8033120452
  0
LINE
  5
563
100
AcDbEntity
  8
IMPORT_IGES
100
AcDbLine
 62
7
  6
CONTINUOUS
 10
-2.657762654
 20
16.6634526797
 11
-2.6474570882
 21
16.596243281
  0
LWPOLYLINE
  5
564
100
AcDbEntity
  8
IMPORT_IGES
100
AcDbPolyline
 62
253
  6
CONTINUOUS
 90
25
 70
0
 10
-14.7942472293
 20
4.7726778933
 10
-14.9580054129
 20
4.7870744222
 10
-15.1186182006
 20
4.8109715857
 10
-15.2760853153
 20
4.8443693059
 10
-15.4306760525
 20
4.8873959077
 10
-15.5821203328
 20
4.9399228106
 10
-15.7296088005
 20
5.0015645352
 10
-15.8734822585
 20
5.0725649174
 10
-16.013398848
 20
5.1526796631
 10
-16.1475254568
 20
5.2407910819
 10
-16.2758299363
 20
5.3370988415
 10
-16.3983435054
 20
5.4414026554
 10
-16.5133286102
 20
5.5519849492
 10
-16.6203950016
 20
5.6685562692
 10
-16.7199324326
 20
5.7914053982
 10
-16.8113737855
 20
5.9196821843
 10
-16.8947614244
 20
6.0536290905
 10
-16.9700525139
 20
6.1930028666
 10
-17.0365525222
 20
6.3362248925
 10
-17.0942582154
 20
6.483151548
 10
-17.1431727965
 20
6.6339257251
 10
-17.1826118535
 20
6.7873987282
 10
-17.2123474401
 20
6.9431874735
 10
-17.2326078363
 20
7.1016743915
 10
-17.2433931637
 20
7.2628591212
  0
LINE
  5
565
100
AcDbEntity
  8
IMPORT_IGES
100
AcDbLine
 62
7
  6
CONTINUOUS
 10
-6.4359911458
 20
7.6745443101
 11
-6.3900932153
 21
7.6499877213
  0
LINE
  5
566
100
AcDbEntity
  8
IMPORT_IGES
100
AcDbLine
 62
7
  6
CONTINUOUS
 10
-6.3013264495
 20
7.8061972084
 11
-6.332390296
 21
7.8268486301
  0
LINE
  5
567
100
AcDbEntity
  8
IMPORT_IGES
100
AcDbLine
 62
7
  6
CONTINUOUS
 10
-5.9360788766
 20
8.3984762453
 11
-5.9025882991
 21
8.375866654
  0
LINE
  5
568
100
AcDbEntity
  8
IMPORT_IGES
100
AcDbLine
 62
7
  6
CONTINUOUS
 10
-6.4773774609
 20
7.7030821671
 11
-6.4359911458
 21
7.6745443101
  0
LINE
  5
569
100
AcDbEntity
  8
IMPORT_IGES
100
AcDbLine
 62
7
  6
CONTINUOUS
 10
-5.0323094518
 20
7.8018101737
 11
-5.0597980586
 21
7.8217699755
  0
LINE
  5
56A
100
AcDbEntity
  8
IMPORT_IGES
100
AcDbLine
 62
7
  6
CONTINUOUS
 10
-5.1999256151
 20
7.6954889163
 11
-5.1574794673
 21
7.6628998984
  0
LINE
  5
56B
100
AcDbEntity
  8
IMPORT_IGES
100
AcDbLine
 62
7
  6
CONTINUOUS
 10
-6.9483727667
 20
9.057546433
 11
-6.9854904757
 21
9.0865130273
  0
LINE
  5
56C
100
AcDbEntity
  8
IMPORT_IGES
100
AcDbLine
 62
7
  6
CONTINUOUS
 10
-7.1178320253
 20
8.9392264214
 11
-7.0896895484
 21
8.9162402867
  0
LINE
  5
56D
100
AcDbEntity
  8
IMPORT_IGES
100
AcDbLine
 62
7
  6
CONTINUOUS
 10
-5.7214275472
 20
8.4802500213
 11
-5.7665274921
 21
8.5186774812
  0
LINE
  5
56E
100
AcDbEntity
  8
IMPORT_IGES
100
AcDbLine
 62
7
  6
CONTINUOUS
 10
-6.5140143943
 20
7.7357269901
 11
-6.4773774609
 21
7.7030821671
  0
LINE
  5
56F
100
AcDbEntity
  8
IMPORT_IGES
100
AcDbLine
 62
7
  6
CONTINUOUS
 10
-5.9025882991
 20
8.375866654
 11
-5.8731000293
 21
8.3495102989
  0
LINE
  5
570
100
AcDbEntity
  8
IMPORT_IGES
100
AcDbLine
 62
7
  6
CONTINUOUS
 10
-6.332390296
 20
7.8268486301
 11
-6.358913693
 21
7.8506201679
  0
LINE
  5
571
100
AcDbEntity
  8
IMPORT_IGES
100
AcDbLine
 62
7
  6
CONTINUOUS
 10
-5.0597980586
 20
7.8217699755
 11
-5.0850101963
 21
7.8460098303
  0
LINE
  5
572
100
AcDbEntity
  8
IMPORT_IGES
100
AcDbLine
 62
7
  6
CONTINUOUS
 10
-4.7138947467
 20
8.9328255983
 11
-4.6896419555
 21
8.909400725
  0
LINE
  5
573
100
AcDbEntity
  8
IMPORT_IGES
100
AcDbLine
 62
7
  6
CONTINUOUS
 10
-4.5382393226
 20
9.0159971032
 11
-4.5777201
 21
9.0545783257
  0
LINE
  5
574
100
AcDbEntity
  8
IMPORT_IGES
100
AcDbLine
 62
7
  6
CONTINUOUS
 10
-16.0197702673
 20
17.8372774107
 11
-15.8753726898
 21
17.6959266607
  0
LINE
  5
575
100
AcDbEntity
  8
IMPORT_IGES
100
AcDbLine
 62
253
  6
CONTINUOUS
 10
-14.6463976584
 20
18.9515270144
 11
-14.7934178696
 21
19.0954450599
  0
LINE
  5
576
100
AcDbEntity
  8
IMPORT_IGES
100
AcDbLine
 62
7
  6
CONTINUOUS
 10
-6.914622175
 20
9.0241335574
 11
-6.9483727667
 21
9.057546433
  0
LINE
  5
577
100
AcDbEntity
  8
IMPORT_IGES
100
AcDbLine
 62
7
  6
CONTINUOUS
 10
-5.2396748986
 20
7.7349813782
 11
-5.1999256151
 21
7.6954889163
  0
LINE
  5
578
100
AcDbEntity
  8
IMPORT_IGES
100
AcDbLine
 62
7
  6
CONTINUOUS
 10
-5.6810377988
 20
8.4365209601
 11
-5.7214275472
 21
8.4802500213
  0
LINE
  5
579
100
AcDbEntity
  8
IMPORT_IGES
100
AcDbLine
 62
7
  6
CONTINUOUS
 10
-4.5024007037
 20
8.9713111918
 11
-4.5382393226
 21
9.0159971032
  0
LINE
  5
57A
100
AcDbEntity
  8
IMPORT_IGES
100
AcDbLine
 62
7
  6
CONTINUOUS
 10
-4.6896419555
 20
8.909400725
 11
-4.6684975553
 21
8.8812432384
  0
LINE
  5
57B
100
AcDbEntity
  8
IMPORT_IGES
100
AcDbLine
 62
7
  6
CONTINUOUS
 10
-7.372835726
 20
16.5202631035
 11
-7.3972679372
 21
16.5587338712
  0
LINE
  5
57C
100
AcDbEntity
  8
IMPORT_IGES
100
AcDbLine
 62
7
  6
CONTINUOUS
 10
-6.6218189817
 20
17.7368229818
 11
-6.6549114407
 21
17.7928519608
  0
LINE
  5
57D
100
AcDbEntity
  8
IMPORT_IGES
100
AcDbLine
 62
7
  6
CONTINUOUS
 10
-7.6179833873
 20
16.4885145434
 11
-7.5846237103
 21
16.4313776734
  0
LINE
  5
57E
100
AcDbEntity
  8
IMPORT_IGES
100
AcDbLine
 62
7
  6
CONTINUOUS
 10
-6.2573626465
 20
16.4940349339
 11
-6.2284814819
 21
16.4440927048
  0
LINE
  5
57F
100
AcDbEntity
  8
IMPORT_IGES
100
AcDbLine
 62
7
  6
CONTINUOUS
 10
-6.8530919331
 20
17.6916389264
 11
-6.8339209102
 21
17.657027238
  0
LINE
  5
580
100
AcDbEntity
  8
IMPORT_IGES
100
AcDbLine
 62
7
  6
CONTINUOUS
 10
-5.0118258788
 20
16.529553636
 11
-4.9833310846
 21
16.4751627855
  0
LINE
  5
581
100
AcDbEntity
  8
IMPORT_IGES
100
AcDbLine
 62
7
  6
CONTINUOUS
 10
-6.0330442439
 20
16.5587338712
 11
-6.0545794974
 21
16.6008239903
  0
LINE
  5
582
100
AcDbEntity
  8
IMPORT_IGES
100
AcDbLine
 62
7
  6
CONTINUOUS
 10
-4.7777055139
 20
16.5640162261
 11
-4.7978367996
 21
16.6048040137
  0
LINE
  5
583
100
AcDbEntity
  8
IMPORT_IGES
100
AcDbLine
 62
7
  6
CONTINUOUS
 10
-5.2300092397
 20
17.678718916
 11
-5.2593764741
 21
17.7401454397
  0
LINE
  5
584
100
AcDbEntity
  8
IMPORT_IGES
100
AcDbLine
 62
7
  6
CONTINUOUS
 10
-6.5925911229
 20
17.6748213366
 11
-6.6218189817
 21
17.7368229818
  0
LINE
  5
585
100
AcDbEntity
  8
IMPORT_IGES
100
AcDbLine
 62
7
  6
CONTINUOUS
 10
-6.2807590044
 20
16.5451008126
 11
-6.2573626465
 21
16.4940349339
  0
LINE
  5
586
100
AcDbEntity
  8
IMPORT_IGES
100
AcDbLine
 62
7
  6
CONTINUOUS
 10
-5.4696972169
 20
17.657027238
 11
-5.4534567326
 21
17.6191139735
  0
LINE
  5
587
100
AcDbEntity
  8
IMPORT_IGES
100
AcDbLine
 62
7
  6
CONTINUOUS
 10
-4.7978367996
 20
16.6048040137
 11
-4.8151634489
 21
16.6488536535
  0
LINE
  5
588
100
AcDbEntity
  8
IMPORT_IGES
100
AcDbLine
 62
7
  6
CONTINUOUS
 10
-5.2048865075
 20
17.6127071843
 11
-5.2300092397
 21
17.678718916
  0
LINE
  5
589
100
AcDbEntity
  8
IMPORT_IGES
100
AcDbLine
 62
7
  6
CONTINUOUS
 10
-5.0340662342
 20
16.5881428232
 11
-5.0118258788
 21
16.529553636
  0
LINE
  5
58A
100
AcDbEntity
  8
IMPORT_IGES
100
AcDbLine
 62
7
  6
CONTINUOUS
 10
-3.9942367946
 20
17.7029842165
 11
-4.0122158687
 21
17.7521488946
  0
LINE
  5
58B
100
AcDbEntity
  8
IMPORT_IGES
100
AcDbLine
 62
7
  6
CONTINUOUS
 10
-3.9059875739
 20
16.9187913175
 11
-3.9225850146
 21
16.9685574704
  0
LINE
  5
58C
100
AcDbEntity
  8
IMPORT_IGES
100
AcDbLine
 62
7
  6
CONTINUOUS
 10
-4.2213345824
 20
17.6905440916
 11
-4.2097030541
 21
17.651892225
  0
LINE
  5
58D
100
AcDbEntity
  8
IMPORT_IGES
100
AcDbLine
 62
7
  6
CONTINUOUS
 10
-2.4122813397
 20
16.5940548438
 11
-2.4266046276
 21
16.641641279
  0
LINE
  5
58E
100
AcDbEntity
  8
IMPORT_IGES
100
AcDbLine
 62
7
  6
CONTINUOUS
 10
-1.7413368712
 20
16.8478373599
 11
-1.7282131888
 21
16.803126746
  0
LINE
  5
58F
100
AcDbEntity
  8
IMPORT_IGES
100
AcDbLine
 62
7
  6
CONTINUOUS
 10
-2.6474570882
 20
16.596243281
 11
-2.63118413
 21
16.5333440128
  0
LINE
  5
590
100
AcDbEntity
  8
IMPORT_IGES
100
AcDbLine
 62
7
  6
CONTINUOUS
 10
-1.5791243232
 20
17.594949377
 11
-1.5913546953
 21
17.6481854556
  0
LINE
  5
591
100
AcDbEntity
  8
IMPORT_IGES
100
AcDbLine
 62
7
  6
CONTINUOUS
 10
-2.4266046276
 20
16.641641279
 11
-2.4379245637
 21
16.6927645584
  0
LINE
  5
592
100
AcDbEntity
  8
IMPORT_IGES
100
AcDbLine
 62
7
  6
CONTINUOUS
 10
-1.4912470402
 20
16.8069287875
 11
-1.5031054747
 21
16.8639925567
  0
LINE
  5
593
100
AcDbEntity
  8
IMPORT_IGES
100
AcDbLine
 62
7
  6
CONTINUOUS
 10
-1.8008468158
 20
17.5590745608
 11
-1.8070998817
 21
17.5970475329
  0
LINE
  5
594
100
AcDbEntity
  8
IMPORT_IGES
100
AcDbLine
 62
7
  6
CONTINUOUS
 10
-1.7282131888
 20
16.803126746
 11
-1.7195452131
 21
16.7485132844
  0
LWPOLYLINE
  5
595
100
AcDbEntity
  8
IMPORT_IGES
100
AcDbPolyline
 62
253
  6
CONTINUOUS
 90
10
 70
0
 10
15.085283991
 20
6.0968065023
 10
13.4275700413
 20
6.0123615401
 10
11.7692650946
 20
5.9378371391
 10
10.1104280316
 20
5.873238059
 10
8.4510708336
 20
5.8185672962
 10
6.7912993837
 20
5.7738309008
 10
5.1313135406
 20
5.7390351425
 10
3.4712193337
 20
5.7141814102
 10
1.8110288839
 20
5.6992690444
 10
0.1508012587
 20
5.694298171
  0
LWPOLYLINE
  5
596
100
AcDbEntity
  8
IMPORT_IGES
100
AcDbPolyline
 62
253
  6
CONTINUOUS
 90
10
 70
0
 10
0.1508012587
 20
5.694298171
 10
-1.509426418
 20
5.6992690556
 10
-3.1696169181
 20
5.7141814307
 10
-4.8297111743
 20
5.7390351704
 10
-6.4896970679
 20
5.7738309342
 10
-8.1494685674
 20
5.8185673332
 10
-9.8088258069
 20
5.8732380972
 10
-11.4676629012
 20
5.9378371762
 10
-13.1259678713
 20
6.0123615736
 10
-14.7836818366
 20
6.0968065294
  0
LWPOLYLINE
  5
597
100
AcDbEntity
  8
IMPORT_IGES
100
AcDbPolyline
 62
253
  6
CONTINUOUS
 90
13
 70
0
 10
-14.7942472293
 20
4.7726778933
 10
-12.3063236576
 20
4.6502574646
 10
-9.8170209621
 20
4.5500902717
 10
-7.326498809
 20
4.4721770653
 10
-4.834719875
 20
4.416513759
 10
-2.342038011
 20
4.3831053852
 10
0.1508012634
 20
4.3719661081
 10
2.6436405385
 20
4.3831052941
 10
5.1363224044
 20
4.4165135768
 10
7.6281013417
 20
4.4721767921
 10
10.1186234993
 20
4.5500899076
 10
12.6079262006
 20
4.6502570097
 10
15.0958497794
 20
4.7726773476
  0
LWPOLYLINE
  5
598
100
AcDbEntity
  8
IMPORT_IGES
100
AcDbPolyline
 62
253
  6
CONTINUOUS
 90
22
 70
0
 10
-14.7834495592
 20
6.096797133
 10
-14.8752325663
 20
6.104944821
 10
-14.966181041
 20
6.1195565856
 10
-15.0558402848
 20
6.1405538594
 10
-15.1437669267
 20
6.1678271503
 10
-15.2295180684
 20
6.2012342949
 10
-15.3126545227
 20
6.2405985106
 10
-15.3927590867
 20
6.2857125988
 10
-15.4694410274
 20
6.3363463811
 10
-15.5423249913
 20
6.3922447169
 10
-15.6110474784
 20
6.4531192493
 10
-15.6752751603
 20
6.5186644713
 10
-15.7347058101
 20
6.5885673347
 10
-15.7890459626
 20
6.6624794869
 10
-15.8380255913
 20
6.7400300611
 10
-15.8814092628
 20
6.8208478772
 10
-15.9189865859
 20
6.9045483948
 10
-15.9505593759
 20
6.9906985192
 10
-15.9759583884
 20
7.0788317008
 10
-15.9950609788
 20
7.1684941179
 10
-16.0077829291
 20
7.2592500718
 10
-16.0140675377
 20
7.3506469794
  0
LWPOLYLINE
  5
599
100
AcDbEntity
  8
IMPORT_IGES
100
AcDbPolyline
 62
253
  6
CONTINUOUS
 90
22
 70
0
 10
-14.6463666473
 20
6.2309862363
 10
-14.7379358753
 20
6.2392024029
 10
-14.8286780679
 20
6.2538664621
 10
-14.9181401542
 20
6.2749013479
 10
-15.0058784235
 20
6.3021991155
 10
-15.091453037
 20
6.3356192433
 10
-15.1744308838
 20
6.3749876171
 10
-15.2543929419
 20
6.420098373
 10
-15.3309508467
 20
6.4707250868
 10
-15.4037393585
 20
6.5266218629
 10
-15.4723968493
 20
6.5875087128
 10
-15.5365823754
 20
6.6530808553
 10
-15.5959881256
 20
6.7230238326
 10
-15.6503166705
 20
6.7969902675
 10
-15.6992958101
 20
6.874612634
 10
-15.7426875074
 20
6.9555205245
 10
-15.7802754036
 20
7.0393250527
 10
-15.8118603064
 20
7.1255988881
 10
-15.8372740523
 20
7.213891955
 10
-15.8563875788
 20
7.3037563475
 10
-15.8691067739
 20
7.3947502843
 10
-15.8753672057
 20
7.4864193592
  0
LINE
  5
59A
100
AcDbEntity
  8
IMPORT_IGES
100
AcDbLine
 62
7
  6
CONTINUOUS
 10
-5.0621181357
 20
7.6165925203
 11
-5.0081487711
 21
7.6022127298
  0
LINE
  5
59B
100
AcDbEntity
  8
IMPORT_IGES
100
AcDbLine
 62
7
  6
CONTINUOUS
 10
-6.3393375153
 20
7.628818759
 11
-6.2840701999
 21
7.6116310649
  0
LINE
  5
59C
100
AcDbEntity
  8
IMPORT_IGES
100
AcDbLine
 62
7
  6
CONTINUOUS
 10
-6.228032731
 20
7.7760296109
 11
-6.2661702319
 21
7.788979754
  0
LINE
  5
59D
100
AcDbEntity
  8
IMPORT_IGES
100
AcDbLine
 62
7
  6
CONTINUOUS
 10
-4.9704575801
 20
7.7751592239
 11
-5.0025308006
 21
7.7862589733
  0
LINE
  5
59E
100
AcDbEntity
  8
IMPORT_IGES
100
AcDbLine
 62
7
  6
CONTINUOUS
 10
-6.0166079355
 20
8.4332072526
 11
-5.9743422522
 21
8.4177151308
  0
LINE
  5
59F
100
AcDbEntity
  8
IMPORT_IGES
100
AcDbLine
 62
7
  6
CONTINUOUS
 10
-5.8717722026
 20
8.5790072056
 11
-5.9281055693
 21
8.5997880251
  0
LINE
  5
5A0
100
AcDbEntity
  8
IMPORT_IGES
100
AcDbLine
 62
7
  6
CONTINUOUS
 10
-5.1118071861
 20
7.6367664573
 11
-5.0621181357
 21
7.6165925203
  0
LINE
  5
5A1
100
AcDbEntity
  8
IMPORT_IGES
100
AcDbLine
 62
7
  6
CONTINUOUS
 10
-7.1841522756
 20
8.9725806608
 11
-7.1491920583
 21
8.9580964029
  0
LINE
  5
5A2
100
AcDbEntity
  8
IMPORT_IGES
100
AcDbLine
 62
7
  6
CONTINUOUS
 10
-6.3900932153
 20
7.6499877213
 11
-6.3393375153
 21
7.628818759
  0
LINE
  5
5A3
100
AcDbEntity
  8
IMPORT_IGES
100
AcDbLine
 62
7
  6
CONTINUOUS
 10
-7.0262884909
 20
9.1108640268
 11
-7.0724079992
 21
9.1303262848
  0
LINE
  5
5A4
100
AcDbEntity
  8
IMPORT_IGES
100
AcDbLine
 62
7
  6
CONTINUOUS
 10
-6.2661702319
 20
7.788979754
 11
-6.3013264495
 21
7.8061972084
  0
LINE
  5
5A5
100
AcDbEntity
  8
IMPORT_IGES
100
AcDbLine
 62
7
  6
CONTINUOUS
 10
-4.771370391
 20
8.9670744614
 11
-4.7410920701
 21
8.9520219788
  0
LINE
  5
5A6
100
AcDbEntity
  8
IMPORT_IGES
100
AcDbLine
 62
7
  6
CONTINUOUS
 10
-5.8167947491
 20
8.5514931441
 11
-5.8717722026
 21
8.5790072056
  0
LINE
  5
5A7
100
AcDbEntity
  8
IMPORT_IGES
100
AcDbLine
 62
7
  6
CONTINUOUS
 10
-5.9743422522
 20
8.4177151308
 11
-5.9360788766
 21
8.3984762453
  0
LINE
  5
5A8
100
AcDbEntity
  8
IMPORT_IGES
100
AcDbLine
 62
7
  6
CONTINUOUS
 10
-5.0025308006
 20
7.7862589733
 11
-5.0323094518
 21
7.8018101737
  0
LINE
  5
5A9
100
AcDbEntity
  8
IMPORT_IGES
100
AcDbLine
 62
7
  6
CONTINUOUS
 10
-4.6204267243
 20
9.0867631068
 11
-4.6667755072
 21
9.1128431991
  0
LINE
  5
5AA
100
AcDbEntity
  8
IMPORT_IGES
100
AcDbLine
 62
7
  6
CONTINUOUS
 10
-5.1574794673
 20
7.6628998984
 11
-5.1118071861
 21
7.6367664573
  0
LINE
  5
5AB
100
AcDbEntity
  8
IMPORT_IGES
100
AcDbLine
 62
7
  6
CONTINUOUS
 10
-6.9854904757
 20
9.0865130273
 11
-7.0262884909
 21
9.1108640268
  0
LINE
  5
5AC
100
AcDbEntity
  8
IMPORT_IGES
100
AcDbLine
 62
7
  6
CONTINUOUS
 10
-7.1491920583
 20
8.9580964029
 11
-7.1178320253
 21
8.9392264214
  0
LINE
  5
5AD
100
AcDbEntity
  8
IMPORT_IGES
100
AcDbLine
 62
7
  6
CONTINUOUS
 10
-5.7665274921
 20
8.5186774812
 11
-5.8167947491
 21
8.5514931441
  0
LINE
  5
5AE
100
AcDbEntity
  8
IMPORT_IGES
100
AcDbLine
 62
7
  6
CONTINUOUS
 10
-4.7410920701
 20
8.9520219788
 11
-4.7138947467
 21
8.9328255983
  0
LINE
  5
5AF
100
AcDbEntity
  8
IMPORT_IGES
100
AcDbLine
 62
7
  6
CONTINUOUS
 10
-4.5777201
 20
9.0545783257
 11
-4.6204267243
 21
9.0867631068
  0
LINE
  5
5B0
100
AcDbEntity
  8
IMPORT_IGES
100
AcDbLine
 62
7
  6
CONTINUOUS
 10
-7.5475141967
 20
16.3804056716
 11
-7.5067047936
 21
16.3352910829
  0
LINE
  5
5B1
100
AcDbEntity
  8
IMPORT_IGES
100
AcDbLine
 62
7
  6
CONTINUOUS
 10
-6.1929531863
 20
16.3942853425
 11
-6.1519400839
 21
16.3456016298
  0
LINE
  5
5B2
100
AcDbEntity
  8
IMPORT_IGES
100
AcDbLine
 62
7
  6
CONTINUOUS
 10
-7.3458234034
 20
16.4868242019
 11
-7.372835726
 21
16.5202631035
  0
LINE
  5
5B3
100
AcDbEntity
  8
IMPORT_IGES
100
AcDbLine
 62
7
  6
CONTINUOUS
 10
-5.9815997101
 20
16.4868242019
 11
-6.0086120327
 21
16.5202631035
  0
LINE
  5
5B4
100
AcDbEntity
  8
IMPORT_IGES
100
AcDbLine
 62
7
  6
CONTINUOUS
 10
-6.6549114407
 20
17.7928519608
 11
-6.691789438
 21
17.8424070379
  0
LINE
  5
5B5
100
AcDbEntity
  8
IMPORT_IGES
100
AcDbLine
 62
7
  6
CONTINUOUS
 10
-7.5846237103
 20
16.4313776734
 11
-7.5475141967
 21
16.3804056716
  0
LINE
  5
5B6
100
AcDbEntity
  8
IMPORT_IGES
100
AcDbLine
 62
7
  6
CONTINUOUS
 10
-6.2284814819
 20
16.4440927048
 11
-6.1929531863
 21
16.3942853425
  0
LINE
  5
5B7
100
AcDbEntity
  8
IMPORT_IGES
100
AcDbLine
 62
7
  6
CONTINUOUS
 10
-6.8748905159
 20
17.7230047829
 11
-6.8530919331
 21
17.6916389264
  0
LINE
  5
5B8
100
AcDbEntity
  8
IMPORT_IGES
100
AcDbLine
 62
7
  6
CONTINUOUS
 10
-5.5106668225
 20
17.7230047829
 11
-5.4888682398
 21
17.6916389264
  0
LINE
  5
5B9
100
AcDbEntity
  8
IMPORT_IGES
100
AcDbLine
 62
7
  6
CONTINUOUS
 10
-4.9833310846
 20
16.4751627855
 11
-4.9488689005
 21
16.4250820904
  0
LINE
  5
5BA
100
AcDbEntity
  8
IMPORT_IGES
100
AcDbLine
 62
7
  6
CONTINUOUS
 10
-4.1872929452
 20
16.9811611546
 11
-4.1630343294
 21
16.943496694
  0
LINE
  5
5BB
100
AcDbEntity
  8
IMPORT_IGES
100
AcDbLine
 62
7
  6
CONTINUOUS
 10
-6.0086120327
 20
16.5202631035
 11
-6.0330442439
 21
16.5587338712
  0
LINE
  5
5BC
100
AcDbEntity
  8
IMPORT_IGES
100
AcDbLine
 62
7
  6
CONTINUOUS
 10
-4.7545708815
 20
16.5267653071
 11
-4.7777055139
 21
16.5640162261
  0
LINE
  5
5BD
100
AcDbEntity
  8
IMPORT_IGES
100
AcDbLine
 62
7
  6
CONTINUOUS
 10
-5.2593764741
 20
17.7401454397
 11
-5.2925337685
 21
17.7956099286
  0
LINE
  5
5BE
100
AcDbEntity
  8
IMPORT_IGES
100
AcDbLine
 62
7
  6
CONTINUOUS
 10
-5.4888682398
 20
17.6916389264
 11
-5.4696972169
 21
17.657027238
  0
LINE
  5
5BF
100
AcDbEntity
  8
IMPORT_IGES
100
AcDbLine
 62
7
  6
CONTINUOUS
 10
-2.6089437795
 20
16.4747548752
 11
-2.5804489869
 21
16.4203640412
  0
LINE
  5
5C0
100
AcDbEntity
  8
IMPORT_IGES
100
AcDbLine
 62
7
  6
CONTINUOUS
 10
-4.0122158687
 20
17.7521488946
 11
-4.0361708963
 21
17.8001009826
  0
LINE
  5
5C1
100
AcDbEntity
  8
IMPORT_IGES
100
AcDbLine
 62
7
  6
CONTINUOUS
 10
-2.3748234179
 20
16.5092174815
 11
-2.3949547003
 21
16.5500052529
  0
LINE
  5
5C2
100
AcDbEntity
  8
IMPORT_IGES
100
AcDbLine
 62
7
  6
CONTINUOUS
 10
-4.2372064148
 20
17.7234885587
 11
-4.2213345824
 21
17.6905440916
  0
LINE
  5
5C3
100
AcDbEntity
  8
IMPORT_IGES
100
AcDbLine
 62
7
  6
CONTINUOUS
 10
-3.9225850146
 20
16.9685574704
 11
-3.9444825872
 21
17.0145411622
  0
LINE
  5
5C4
100
AcDbEntity
  8
IMPORT_IGES
100
AcDbLine
 62
7
  6
CONTINUOUS
 10
-4.1630343294
 20
16.943496694
 11
-4.1442189705
 21
16.9026361207
  0
LINE
  5
5C5
100
AcDbEntity
  8
IMPORT_IGES
100
AcDbLine
 62
7
  6
CONTINUOUS
 10
-1.7601522302
 20
16.8886979333
 11
-1.7413368712
 21
16.8478373599
  0
LINE
  5
5C6
100
AcDbEntity
  8
IMPORT_IGES
100
AcDbLine
 62
7
  6
CONTINUOUS
 10
-2.3949547003
 20
16.5500052529
 11
-2.4122813397
 21
16.5940548438
  0
LINE
  5
5C7
100
AcDbEntity
  8
IMPORT_IGES
100
AcDbLine
 62
7
  6
CONTINUOUS
 10
-2.63118413
 20
16.5333440128
 11
-2.6089437795
 21
16.4747548752
  0
LINE
  5
5C8
100
AcDbEntity
  8
IMPORT_IGES
100
AcDbLine
 62
7
  6
CONTINUOUS
 10
-1.5913546953
 20
17.6481854556
 11
-1.6093337694
 21
17.6973501337
  0
LINE
  5
5C9
100
AcDbEntity
  8
IMPORT_IGES
100
AcDbLine
 62
7
  6
CONTINUOUS
 10
-1.5031054747
 20
16.8639925567
 11
-1.5197029153
 21
16.9137587097
  0
LINE
  5
5CA
100
AcDbEntity
  8
IMPORT_IGES
100
AcDbLine
 62
7
  6
CONTINUOUS
 10
-1.8184524832
 20
17.6357453308
 11
-1.8068209548
 21
17.5970934642
  0
LINE
  5
5CB
100
AcDbEntity
  8
IMPORT_IGES
100
AcDbLine
 62
7
  6
CONTINUOUS
 10
-1.7985272142
 20
8.01588687
 11
-1.8391119714
 21
8.0075471906
  0
LINE
  5
5CC
100
AcDbEntity
  8
IMPORT_IGES
100
AcDbLine
 62
7
  6
CONTINUOUS
 10
-1.8205021192
 20
8.2011092248
 11
-1.8459948264
 21
8.1959593225
  0
LINE
  5
5CD
100
AcDbEntity
  8
IMPORT_IGES
100
AcDbLine
 62
7
  6
CONTINUOUS
 10
-4.8324950015
 20
7.5947883982
 11
-4.7701304364
 21
7.6060672725
  0
LINE
  5
5CE
100
AcDbEntity
  8
IMPORT_IGES
100
AcDbLine
 62
7
  6
CONTINUOUS
 10
-1.8672251454
 20
8.1943935823
 11
-1.8410288199
 21
8.1967604608
  0
LINE
  5
5CF
100
AcDbEntity
  8
IMPORT_IGES
100
AcDbLine
 62
7
  6
CONTINUOUS
 10
-1.8388911728
 20
8.0081258587
 11
-1.8391701027
 21
8.0081034529
  0
LINE
  5
5D0
100
AcDbEntity
  8
IMPORT_IGES
100
AcDbLine
 62
7
  6
CONTINUOUS
 10
-6.0600778248
 20
7.7668875807
 11
-6.0973850074
 21
7.7639585792
  0
LINE
  5
5D1
100
AcDbEntity
  8
IMPORT_IGES
100
AcDbLine
 62
7
  6
CONTINUOUS
 10
-6.095958098
 20
7.595725412
 11
-6.0346373412
 21
7.600078605
  0
LINE
  5
5D2
100
AcDbEntity
  8
IMPORT_IGES
100
AcDbLine
 62
7
  6
CONTINUOUS
 10
-4.8994410062
 20
7.7661855294
 11
-4.8590214382
 21
7.7687620457
  0
LINE
  5
5D3
100
AcDbEntity
  8
IMPORT_IGES
100
AcDbLine
 62
7
  6
CONTINUOUS
 10
-2.4876046894
 20
8.180490497
 11
-2.5158717924
 21
8.1788178457
  0
LINE
  5
5D4
100
AcDbEntity
  8
IMPORT_IGES
100
AcDbLine
 62
253
  6
CONTINUOUS
 10
-16.4754302651
 20
7.2994338248
 11
-16.6260919292
 21
7.2904576505
  0
LINE
  5
5D5
100
AcDbEntity
  8
IMPORT_IGES
100
AcDbLine
 62
7
  6
CONTINUOUS
 10
-1.861800562
 20
8.006449951
 11
-1.8391340503
 21
8.0076546365
  0
LINE
  5
5D6
100
AcDbEntity
  8
IMPORT_IGES
100
AcDbLine
 62
7
  6
CONTINUOUS
 10
-4.8881497781
 20
7.5919161957
 11
-4.8324950015
 21
7.5947883982
  0
LINE
  5
5D7
100
AcDbEntity
  8
IMPORT_IGES
100
AcDbLine
 62
253
  6
CONTINUOUS
 10
-16.6260919292
 20
7.2904576505
 11
-16.7912109404
 21
7.2818124757
  0
LINE
  5
5D8
100
AcDbEntity
  8
IMPORT_IGES
100
AcDbLine
 62
253
  6
CONTINUOUS
 10
-16.7912109404
 20
7.2818124757
 11
-16.9670117246
 21
7.273698198
  0
LWPOLYLINE
  5
5D9
100
AcDbEntity
  8
IMPORT_IGES
100
AcDbPolyline
 62
253
  6
CONTINUOUS
 90
3
 70
0
 10
-16.9670117246
 20
7.273698198
 10
-17.1507119559
 20
7.2662486023
 10
-17.2433931637
 20
7.2628591212
  0
LINE
  5
5DA
100
AcDbEntity
  8
IMPORT_IGES
100
AcDbLine
 62
7
  6
CONTINUOUS
 10
-1.8727162758
 20
8.0060433304
 11
-1.861800562
 21
8.006449951
  0
LINE
  5
5DB
100
AcDbEntity
  8
IMPORT_IGES
100
AcDbLine
 62
253
  6
CONTINUOUS
 10
-15.8630486705
 20
7.4873840039
 11
-15.8297300251
 21
7.48853963
  0
LINE
  5
5DC
100
AcDbEntity
  8
IMPORT_IGES
100
AcDbLine
 62
253
  6
CONTINUOUS
 10
-15.8297300251
 20
7.48853963
 11
-14.8759454326
 21
7.5193497774
  0
LINE
  5
5DD
100
AcDbEntity
  8
IMPORT_IGES
100
AcDbLine
 62
7
  6
CONTINUOUS
 10
-6.0959625789
 20
7.5953298718
 11
-6.1623909876
 21
7.5948865663
  0
LINE
  5
5DE
100
AcDbEntity
  8
IMPORT_IGES
100
AcDbLine
 62
7
  6
CONTINUOUS
 10
-6.1407806752
 20
7.7635261875
 11
-6.0968306627
 21
7.7636164201
  0
LINE
  5
5DF
100
AcDbEntity
  8
IMPORT_IGES
100
AcDbLine
 62
7
  6
CONTINUOUS
 10
-6.8006977413
 20
7.6328566681
 11
-7.847920395
 21
7.6328566681
  0
LINE
  5
5E0
100
AcDbEntity
  8
IMPORT_IGES
100
AcDbLine
 62
7
  6
CONTINUOUS
 10
-3.420619111
 20
7.6340981681
 11
-3.6465819057
 21
7.6340981681
  0
LINE
  5
5E1
100
AcDbEntity
  8
IMPORT_IGES
100
AcDbLine
 62
7
  6
CONTINUOUS
 10
-7.6348055361
 20
7.8141836681
 11
-6.8006977413
 21
7.8141836681
  0
LINE
  5
5E2
100
AcDbEntity
  8
IMPORT_IGES
100
AcDbLine
 62
7
  6
CONTINUOUS
 10
-2.6888269455
 20
7.9741786681
 11
-2.8136230011
 21
7.9741786681
  0
LINE
  5
5E3
100
AcDbEntity
  8
IMPORT_IGES
100
AcDbLine
 62
7
  6
CONTINUOUS
 10
-6.6321701566
 20
8.0221776681
 11
-6.4327097349
 21
8.0221776681
  0
LINE
  5
5E4
100
AcDbEntity
  8
IMPORT_IGES
100
AcDbLine
 62
7
  6
CONTINUOUS
 10
-1.6659254627
 20
8.4061656681
 11
-1.5421960059
 21
8.4061656681
  0
LINE
  5
5E5
100
AcDbEntity
  8
IMPORT_IGES
100
AcDbLine
 62
7
  6
CONTINUOUS
 10
-1.8944222833
 20
8.1949014041
 11
-1.8672573911
 21
8.1943906948
  0
LINE
  5
5E6
100
AcDbEntity
  8
IMPORT_IGES
100
AcDbLine
 62
7
  6
CONTINUOUS
 10
-2.4925724347
 20
8.3707978571
 11
-2.4554730436
 21
8.3699506109
  0
LINE
  5
5E7
100
AcDbEntity
  8
IMPORT_IGES
100
AcDbLine
 62
7
  6
CONTINUOUS
 10
-4.9457703655
 20
7.5932456362
 11
-4.8881497781
 21
7.5919161957
  0
LINE
  5
5E8
100
AcDbEntity
  8
IMPORT_IGES
100
AcDbLine
 62
7
  6
CONTINUOUS
 10
-1.8727211541
 20
8.0054085677
 11
-1.9112058736
 21
8.0063953287
  0
LINE
  5
5E9
100
AcDbEntity
  8
IMPORT_IGES
100
AcDbLine
 62
253
  6
CONTINUOUS
 10
15.1775479499
 20
7.5193497786
 11
16.1769865107
 21
7.4870449527
  0
LINE
  5
5EA
100
AcDbEntity
  8
IMPORT_IGES
100
AcDbLine
 62
253
  6
CONTINUOUS
 10
17.3599227957
 20
7.2698673176
 11
17.5449959219
 21
7.262859056
  0
LINE
  5
5EB
100
AcDbEntity
  8
IMPORT_IGES
100
AcDbLine
 62
7
  6
CONTINUOUS
 10
-2.4582657116
 20
8.179335785
 11
-2.4875795191
 21
8.1804914408
  0
LINE
  5
5EC
100
AcDbEntity
  8
IMPORT_IGES
100
AcDbLine
 62
253
  6
CONTINUOUS
 10
17.1794362597
 20
7.2776802916
 11
17.3599227957
 21
7.2698673176
  0
LINE
  5
5ED
100
AcDbEntity
  8
IMPORT_IGES
100
AcDbLine
 62
253
  6
CONTINUOUS
 10
17.0087022058
 20
7.2860727377
 11
17.1794362597
 21
7.2776802916
  0
LINE
  5
5EE
100
AcDbEntity
  8
IMPORT_IGES
100
AcDbLine
 62
7
  6
CONTINUOUS
 10
-6.4103107216
 20
8.302701667
 11
-6.5767047413
 21
8.3123016681
  0
LINE
  5
5EF
100
AcDbEntity
  8
IMPORT_IGES
100
AcDbLine
 62
7
  6
CONTINUOUS
 10
-6.2202323252
 20
7.5989959653
 11
-6.1623991371
 21
7.5955173979
  0
LINE
  5
5F0
100
AcDbEntity
  8
IMPORT_IGES
100
AcDbLine
 62
7
  6
CONTINUOUS
 10
-6.105844892
 20
8.446994936
 11
-6.0653254028
 21
8.4445133441
  0
LINE
  5
5F1
100
AcDbEntity
  8
IMPORT_IGES
100
AcDbLine
 62
7
  6
CONTINUOUS
 10
-4.9360943153
 20
7.7684680759
 11
-4.8994410062
 21
7.7661855294
  0
LINE
  5
5F2
100
AcDbEntity
  8
IMPORT_IGES
100
AcDbLine
 62
7
  6
CONTINUOUS
 10
-6.1407814684
 20
7.7639355599
 11
-6.1805470548
 21
7.7666187365
  0
LINE
  5
5F3
100
AcDbEntity
  8
IMPORT_IGES
100
AcDbLine
 62
7
  6
CONTINUOUS
 10
-5.9912574737
 20
8.6140923249
 11
-6.0501132001
 21
8.6191560726
  0
LINE
  5
5F4
100
AcDbEntity
  8
IMPORT_IGES
100
AcDbLine
 62
7
  6
CONTINUOUS
 10
-2.4200076452
 20
8.3664970404
 11
-2.4599042448
 21
8.3700409329
  0
LINE
  5
5F5
100
AcDbEntity
  8
IMPORT_IGES
100
AcDbLine
 62
7
  6
CONTINUOUS
 10
-6.1808298116
 20
7.7671821963
 11
-6.1804983908
 21
7.7671519489
  0
LINE
  5
5F6
100
AcDbEntity
  8
IMPORT_IGES
100
AcDbLine
 62
7
  6
CONTINUOUS
 10
-6.065069422
 20
8.4438833861
 11
-6.0653818276
 21
8.4439127354
  0
LINE
  5
5F7
100
AcDbEntity
  8
IMPORT_IGES
100
AcDbLine
 62
7
  6
CONTINUOUS
 10
-2.4629799074
 20
8.1795978512
 11
-2.4396185452
 21
8.1770929649
  0
LINE
  5
5F8
100
AcDbEntity
  8
IMPORT_IGES
100
AcDbLine
 62
7
  6
CONTINUOUS
 10
-2.4396185452
 20
8.1770929649
 11
-2.4308939781
 21
8.1761109676
  0
LINE
  5
5F9
100
AcDbEntity
  8
IMPORT_IGES
100
AcDbLine
 62
7
  6
CONTINUOUS
 10
-1.9440125321
 20
8.0106657236
 11
-1.9070610406
 21
8.0062979218
  0
LINE
  5
5FA
100
AcDbEntity
  8
IMPORT_IGES
100
AcDbLine
 62
7
  6
CONTINUOUS
 10
-7.2557618067
 20
8.9879224958
 11
-7.227622074
 21
8.9844674247
  0
LINE
  5
5FB
100
AcDbEntity
  8
IMPORT_IGES
100
AcDbLine
 62
7
  6
CONTINUOUS
 10
-1.9225464204
 20
8.1984024338
 11
-1.8944646898
 21
8.1949076293
  0
LINE
  5
5FC
100
AcDbEntity
  8
IMPORT_IGES
100
AcDbLine
 62
7
  6
CONTINUOUS
 10
-7.2668270155
 20
8.9894924855
 11
-7.2557618067
 21
8.9879224958
  0
LINE
  5
5FD
100
AcDbEntity
  8
IMPORT_IGES
100
AcDbLine
 62
7
  6
CONTINUOUS
 10
-7.1710775617
 20
9.1560541447
 11
-7.220232278
 21
9.163068768
  0
LINE
  5
5FE
100
AcDbEntity
  8
IMPORT_IGES
100
AcDbLine
 62
7
  6
CONTINUOUS
 10
-4.9457833074
 20
7.593156512
 11
-5.0081487711
 21
7.6022127298
  0
LINE
  5
5FF
100
AcDbEntity
  8
IMPORT_IGES
100
AcDbLine
 62
7
  6
CONTINUOUS
 10
-4.8377744547
 20
9.1577538116
 11
-4.7728739547
 21
9.147949491
  0
LINE
  5
600
100
AcDbEntity
  8
IMPORT_IGES
100
AcDbLine
 62
7
  6
CONTINUOUS
 10
-7.2273961289
 20
8.9837346223
 11
-7.2277277672
 21
8.9837860664
  0
LINE
  5
601
100
AcDbEntity
  8
IMPORT_IGES
100
AcDbLine
 62
7
  6
CONTINUOUS
 10
-4.8047751979
 20
8.9780112441
 11
-4.8412610024
 21
8.9848041287
  0
LINE
  5
602
100
AcDbEntity
  8
IMPORT_IGES
100
AcDbLine
 62
7
  6
CONTINUOUS
 10
-1.9225149128
 20
8.1986556063
 11
-1.9488484617
 21
8.2036146308
  0
LINE
  5
603
100
AcDbEntity
  8
IMPORT_IGES
100
AcDbLine
 62
7
  6
CONTINUOUS
 10
-4.9704575801
 20
7.7751592239
 11
-4.9360943153
 21
7.7684680759
  0
LINE
  5
604
100
AcDbEntity
  8
IMPORT_IGES
100
AcDbLine
 62
7
  6
CONTINUOUS
 10
-6.2840701999
 20
7.6116310649
 11
-6.2202323252
 21
7.5989959653
  0
LINE
  5
605
100
AcDbEntity
  8
IMPORT_IGES
100
AcDbLine
 62
7
  6
CONTINUOUS
 10
-6.228032731
 20
7.7760296109
 11
-6.1805543615
 21
7.7665820173
  0
LINE
  5
606
100
AcDbEntity
  8
IMPORT_IGES
100
AcDbLine
 62
7
  6
CONTINUOUS
 10
-2.3778499541
 20
8.3579514343
 11
-2.4200076452
 21
8.3664970404
  0
LINE
  5
607
100
AcDbEntity
  8
IMPORT_IGES
100
AcDbLine
 62
7
  6
CONTINUOUS
 10
-7.1222078137
 20
9.1451729481
 11
-7.1710775617
 21
9.1560541447
  0
LINE
  5
608
100
AcDbEntity
  8
IMPORT_IGES
100
AcDbLine
 62
7
  6
CONTINUOUS
 10
-2.4308939781
 20
8.1761109676
 11
-2.397031236
 21
8.1685376292
  0
LINE
  5
609
100
AcDbEntity
  8
IMPORT_IGES
100
AcDbLine
 62
7
  6
CONTINUOUS
 10
-5.9281055693
 20
8.5997880251
 11
-5.9912574737
 21
8.6140923249
  0
LINE
  5
60A
100
AcDbEntity
  8
IMPORT_IGES
100
AcDbLine
 62
7
  6
CONTINUOUS
 10
-6.0653254028
 20
8.4445133441
 11
-6.0166079355
 21
8.4332072526
  0
LINE
  5
60B
100
AcDbEntity
  8
IMPORT_IGES
100
AcDbLine
 62
7
  6
CONTINUOUS
 10
-1.9878490812
 20
8.0216295331
 11
-1.9440125321
 21
8.0106657236
  0
LINE
  5
60C
100
AcDbEntity
  8
IMPORT_IGES
100
AcDbLine
 62
7
  6
CONTINUOUS
 10
-4.7175087704
 20
9.1331966547
 11
-4.7728739547
 21
9.147949491
  0
LINE
  5
60D
100
AcDbEntity
  8
IMPORT_IGES
100
AcDbLine
 62
7
  6
CONTINUOUS
 10
-7.227622074
 20
8.9844674247
 11
-7.1841522756
 21
8.9725806608
  0
LINE
  5
60E
100
AcDbEntity
  8
IMPORT_IGES
100
AcDbLine
 62
7
  6
CONTINUOUS
 10
-2.3650404906
 20
8.159738412
 11
-2.397031236
 21
8.1685376292
  0
LINE
  5
60F
100
AcDbEntity
  8
IMPORT_IGES
100
AcDbLine
 62
7
  6
CONTINUOUS
 10
-2.3373078246
 20
8.3467990829
 11
-2.3778499541
 21
8.3579514343
  0
LINE
  5
610
100
AcDbEntity
  8
IMPORT_IGES
100
AcDbLine
 62
7
  6
CONTINUOUS
 10
-1.9700955658
 20
8.2097425563
 11
-1.9813272379
 21
8.2129277629
  0
LINE
  5
611
100
AcDbEntity
  8
IMPORT_IGES
100
AcDbLine
 62
7
  6
CONTINUOUS
 10
-1.9488484617
 20
8.2036146308
 11
-1.9700955658
 21
8.2097425563
  0
LINE
  5
612
100
AcDbEntity
  8
IMPORT_IGES
100
AcDbLine
 62
7
  6
CONTINUOUS
 10
-2.0271256536
 20
8.0333129009
 11
-1.9878490812
 21
8.0216295331
  0
LINE
  5
613
100
AcDbEntity
  8
IMPORT_IGES
100
AcDbLine
 62
7
  6
CONTINUOUS
 10
-7.0724079992
 20
9.1303262848
 11
-7.1222078137
 21
9.1451729481
  0
LINE
  5
614
100
AcDbEntity
  8
IMPORT_IGES
100
AcDbLine
 62
7
  6
CONTINUOUS
 10
-2.2970020178
 20
8.3340413301
 11
-2.3373078246
 21
8.3467990829
  0
LINE
  5
615
100
AcDbEntity
  8
IMPORT_IGES
100
AcDbLine
 62
7
  6
CONTINUOUS
 10
-4.8047751979
 20
8.9780112441
 11
-4.771370391
 21
8.9670744614
  0
LINE
  5
616
100
AcDbEntity
  8
IMPORT_IGES
100
AcDbLine
 62
7
  6
CONTINUOUS
 10
-2.0115526606
 20
8.2228733001
 11
-1.9813272379
 21
8.2129277629
  0
LINE
  5
617
100
AcDbEntity
  8
IMPORT_IGES
100
AcDbLine
 62
7
  6
CONTINUOUS
 10
-2.3650404906
 20
8.159738412
 11
-2.332508935
 21
8.1487988742
  0
LINE
  5
618
100
AcDbEntity
  8
IMPORT_IGES
100
AcDbLine
 62
7
  6
CONTINUOUS
 10
-2.067850561
 20
8.0471144136
 11
-2.0271256536
 21
8.0333129009
  0
LINE
  5
619
100
AcDbEntity
  8
IMPORT_IGES
100
AcDbLine
 62
7
  6
CONTINUOUS
 10
-2.2569397269
 20
8.3195062093
 11
-2.2970020178
 21
8.3340413301
  0
LINE
  5
61A
100
AcDbEntity
  8
IMPORT_IGES
100
AcDbLine
 62
7
  6
CONTINUOUS
 10
-2.0115526606
 20
8.2228733001
 11
-2.0424885133
 21
8.2346107096
  0
LINE
  5
61B
100
AcDbEntity
  8
IMPORT_IGES
100
AcDbLine
 62
7
  6
CONTINUOUS
 10
-2.264261002
 20
8.1222616736
 11
-2.067850561
 21
8.0471144136
  0
LINE
  5
61C
100
AcDbEntity
  8
IMPORT_IGES
100
AcDbLine
 62
7
  6
CONTINUOUS
 10
-2.0424885133
 20
8.2346107096
 11
-2.1080455076
 21
8.2599738011
  0
LINE
  5
61D
100
AcDbEntity
  8
IMPORT_IGES
100
AcDbLine
 62
7
  6
CONTINUOUS
 10
-2.332508935
 20
8.1487988742
 11
-2.264261002
 21
8.1222616736
  0
LINE
  5
61E
100
AcDbEntity
  8
IMPORT_IGES
100
AcDbLine
 62
7
  6
CONTINUOUS
 10
-2.1080455076
 20
8.2599738011
 11
-2.1788388335
 21
8.2878317233
  0
LINE
  5
61F
100
AcDbEntity
  8
IMPORT_IGES
100
AcDbLine
 62
7
  6
CONTINUOUS
 10
-4.6667755072
 20
9.1128431991
 11
-4.7175087704
 21
9.1331966547
  0
LINE
  5
620
100
AcDbEntity
  8
IMPORT_IGES
100
AcDbLine
 62
7
  6
CONTINUOUS
 10
-2.1788388335
 20
8.2878317233
 11
-2.2569397269
 21
8.3195062093
  0
LINE
  5
621
100
AcDbEntity
  8
IMPORT_IGES
100
AcDbLine
 62
7
  6
CONTINUOUS
 10
-7.5067047936
 20
16.3352910829
 11
-7.4628194861
 21
16.2963992593
  0
LINE
  5
622
100
AcDbEntity
  8
IMPORT_IGES
100
AcDbLine
 62
7
  6
CONTINUOUS
 10
-6.1519400839
 20
16.3456016298
 11
-6.1069784029
 21
16.3030952653
  0
LINE
  5
623
100
AcDbEntity
  8
IMPORT_IGES
100
AcDbLine
 62
7
  6
CONTINUOUS
 10
-7.3163411845
 20
16.4588718546
 11
-7.3458234034
 21
16.4868242019
  0
LINE
  5
624
100
AcDbEntity
  8
IMPORT_IGES
100
AcDbLine
 62
7
  6
CONTINUOUS
 10
-5.9521174912
 20
16.4588718546
 11
-5.9815997101
 21
16.4868242019
  0
LINE
  5
625
100
AcDbEntity
  8
IMPORT_IGES
100
AcDbLine
 62
7
  6
CONTINUOUS
 10
-6.691789438
 20
17.8424070379
 11
-6.7325320355
 21
17.8859894488
  0
LINE
  5
626
100
AcDbEntity
  8
IMPORT_IGES
100
AcDbLine
 62
7
  6
CONTINUOUS
 10
-6.8994928582
 20
17.7502233687
 11
-6.8748905159
 21
17.7230047829
  0
LINE
  5
627
100
AcDbEntity
  8
IMPORT_IGES
100
AcDbLine
 62
7
  6
CONTINUOUS
 10
-5.5352691648
 20
17.7502233687
 11
-5.5106668225
 21
17.7230047829
  0
LINE
  5
628
100
AcDbEntity
  8
IMPORT_IGES
100
AcDbLine
 62
7
  6
CONTINUOUS
 10
-4.9488689005
 20
16.4250820904
 11
-4.9093004729
 21
16.3796470069
  0
LINE
  5
629
100
AcDbEntity
  8
IMPORT_IGES
100
AcDbLine
 62
7
  6
CONTINUOUS
 10
-4.2159141507
 20
17.0147958838
 11
-4.1872929452
 21
16.9811611546
  0
LINE
  5
62A
100
AcDbEntity
  8
IMPORT_IGES
100
AcDbLine
 62
7
  6
CONTINUOUS
 10
-3.9709162063
 20
17.0563023493
 11
-4.0016470816
 21
17.0937679388
  0
LINE
  5
62B
100
AcDbEntity
  8
IMPORT_IGES
100
AcDbLine
 62
7
  6
CONTINUOUS
 10
-4.7278367715
 20
16.493876307
 11
-4.7545708815
 21
16.5267653071
  0
LINE
  5
62C
100
AcDbEntity
  8
IMPORT_IGES
100
AcDbLine
 62
7
  6
CONTINUOUS
 10
-5.2925337685
 20
17.7956099286
 11
-5.3293767674
 21
17.8445989322
  0
LINE
  5
62D
100
AcDbEntity
  8
IMPORT_IGES
100
AcDbLine
 62
7
  6
CONTINUOUS
 10
-2.5804489869
 20
16.4203640412
 11
-2.545986802
 21
16.3702833378
  0
LINE
  5
62E
100
AcDbEntity
  8
IMPORT_IGES
100
AcDbLine
 62
7
  6
CONTINUOUS
 10
-4.2576610043
 20
17.7540196134
 11
-4.2372064148
 21
17.7234885587
  0
LINE
  5
62F
100
AcDbEntity
  8
IMPORT_IGES
100
AcDbLine
 62
7
  6
CONTINUOUS
 10
-4.0361708963
 20
17.8001009826
 11
-4.0652584734
 21
17.8444126147
  0
LINE
  5
630
100
AcDbEntity
  8
IMPORT_IGES
100
AcDbLine
 62
7
  6
CONTINUOUS
 10
-1.784410846
 20
16.9263623939
 11
-1.7601522302
 21
16.8886979333
  0
LINE
  5
631
100
AcDbEntity
  8
IMPORT_IGES
100
AcDbLine
 62
7
  6
CONTINUOUS
 10
-3.9444825872
 20
17.0145411622
 11
-3.9709162063
 21
17.0563023493
  0
LINE
  5
632
100
AcDbEntity
  8
IMPORT_IGES
100
AcDbLine
 62
7
  6
CONTINUOUS
 10
-1.5416004879
 20
16.9597424014
 11
-1.5680341071
 21
17.0015035885
  0
LINE
  5
633
100
AcDbEntity
  8
IMPORT_IGES
100
AcDbLine
 62
7
  6
CONTINUOUS
 10
-2.3516887838
 20
16.4719665545
 11
-2.3748234179
 21
16.5092174815
  0
LINE
  5
634
100
AcDbEntity
  8
IMPORT_IGES
100
AcDbLine
 62
7
  6
CONTINUOUS
 10
-1.6093337694
 20
17.6973501337
 11
-1.633288797
 21
17.7453022217
  0
LINE
  5
635
100
AcDbEntity
  8
IMPORT_IGES
100
AcDbLine
 62
7
  6
CONTINUOUS
 10
-1.8343243155
 20
17.668689798
 11
-1.8184524832
 21
17.6357453308
  0
LINE
  5
636
100
AcDbEntity
  8
IMPORT_IGES
100
AcDbLine
 62
7
  6
CONTINUOUS
 10
-1.5197029153
 20
16.9137587097
 11
-1.5416004879
 21
16.9597424014
  0
LINE
  5
637
100
AcDbEntity
  8
IMPORT_IGES
100
AcDbLine
 62
253
  6
CONTINUOUS
 10
9.4716219051
 20
19.5911984212
 11
9.4720711485
 21
19.7069190518
  0
LINE
  5
638
100
AcDbEntity
  8
IMPORT_IGES
100
AcDbLine
 62
253
  6
CONTINUOUS
 10
9.4720711485
 20
19.7069190518
 11
9.4735673281
 21
19.8405821655
  0
LINE
  5
639
100
AcDbEntity
  8
IMPORT_IGES
100
AcDbLine
 62
253
  6
CONTINUOUS
 10
9.4735673281
 20
19.8405821655
 11
9.4760796074
 21
19.989369199
  0
LINE
  5
63A
100
AcDbEntity
  8
IMPORT_IGES
100
AcDbLine
 62
253
  6
CONTINUOUS
 10
9.4760796074
 20
19.989369199
 11
9.4816518716
 21
20.2351132828
  0
LINE
  5
63B
100
AcDbEntity
  8
IMPORT_IGES
100
AcDbLine
 62
253
  6
CONTINUOUS
 10
9.4816518716
 20
20.2351132828
 11
9.4891763015
 21
20.4985463892
  0
LWPOLYLINE
  5
63C
100
AcDbEntity
  8
IMPORT_IGES
100
AcDbPolyline
 62
253
  6
CONTINUOUS
 90
17
 70
0
 10
15.0852946446
 20
6.0968070608
 10
15.080959396
 20
6.092068264
 10
15.0770194211
 20
6.0799668182
 10
15.073517284
 20
6.0605080934
 10
15.0704968658
 20
6.0339475657
 10
15.0679705328
 20
6.0005326893
 10
15.0659336448
 20
5.9602366856
 10
15.0644050681
 20
5.9133630658
 10
15.063396363
 20
5.8603769615
 10
15.0629062429
 20
5.8012556116
 10
15.0629409646
 20
5.7364671704
 10
15.0634979529
 20
5.6665956936
 10
15.0645773296
 20
5.5916182445
 10
15.066172078
 20
5.5121617985
 10
15.0682668584
 20
5.4289050937
 10
15.0708634282
 20
5.3417966217
 10
15.0774711731
 20
5.1591141411
  0
LINE
  5
63D
100
AcDbEntity
  8
IMPORT_IGES
100
AcDbLine
 62
7
  6
CONTINUOUS
 10
-7.4236810589
 20
8.9715920863
 11
-7.3869104625
 21
8.9819725134
  0
LINE
  5
63E
100
AcDbEntity
  8
IMPORT_IGES
100
AcDbLine
 62
7
  6
CONTINUOUS
 10
-6.2055929203
 20
8.6086775434
 11
-6.2535788655
 21
8.595262386
  0
LINE
  5
63F
100
AcDbEntity
  8
IMPORT_IGES
100
AcDbLine
 62
7
  6
CONTINUOUS
 10
-5.9712255291
 20
7.6115070648
 11
-5.9128961979
 21
7.6272410903
  0
LINE
  5
640
100
AcDbEntity
  8
IMPORT_IGES
100
AcDbLine
 62
7
  6
CONTINUOUS
 10
-6.2377759413
 20
8.4309557419
 11
-6.1920124387
 21
8.4423299635
  0
LINE
  5
641
100
AcDbEntity
  8
IMPORT_IGES
100
AcDbLine
 62
7
  6
CONTINUOUS
 10
-7.4269656777
 20
9.1554571522
 11
-7.466784754
 21
9.1464041695
  0
LINE
  5
642
100
AcDbEntity
  8
IMPORT_IGES
100
AcDbLine
 62
7
  6
CONTINUOUS
 10
-2.5603555318
 20
8.3610562996
 11
-2.5233794082
 21
8.3687449164
  0
LINE
  5
643
100
AcDbEntity
  8
IMPORT_IGES
100
AcDbLine
 62
7
  6
CONTINUOUS
 10
-6.0138827431
 20
7.776456643
 11
-6.0600778248
 21
7.7668875807
  0
LINE
  5
644
100
AcDbEntity
  8
IMPORT_IGES
100
AcDbLine
 62
7
  6
CONTINUOUS
 10
-4.8590214382
 20
7.7687620457
 11
-4.820973312
 21
7.7764266559
  0
LINE
  5
645
100
AcDbEntity
  8
IMPORT_IGES
100
AcDbLine
 62
7
  6
CONTINUOUS
 10
-6.0346373412
 20
7.600078605
 11
-5.9712255291
 21
7.6115070648
  0
LINE
  5
646
100
AcDbEntity
  8
IMPORT_IGES
100
AcDbLine
 62
7
  6
CONTINUOUS
 10
-4.9201076049
 20
8.9855981408
 11
-4.9566917214
 21
8.9794511984
  0
LINE
  5
647
100
AcDbEntity
  8
IMPORT_IGES
100
AcDbLine
 62
7
  6
CONTINUOUS
 10
-6.2055929204
 20
8.6086775434
 11
-6.1498016869
 21
8.6178700095
  0
LINE
  5
648
100
AcDbEntity
  8
IMPORT_IGES
100
AcDbLine
 62
7
  6
CONTINUOUS
 10
-4.9526861396
 20
9.1576012432
 11
-5.0147602592
 21
9.1474600273
  0
LINE
  5
649
100
AcDbEntity
  8
IMPORT_IGES
100
AcDbLine
 62
7
  6
CONTINUOUS
 10
-2.5379789225
 20
8.1749378275
 11
-2.5109696719
 21
8.179343505
  0
LINE
  5
64A
100
AcDbEntity
  8
IMPORT_IGES
100
AcDbLine
 62
7
  6
CONTINUOUS
 10
-7.342171077
 20
8.9891033239
 11
-7.3869104625
 21
8.9819725134
  0
LINE
  5
64B
100
AcDbEntity
  8
IMPORT_IGES
100
AcDbLine
 62
7
  6
CONTINUOUS
 10
-7.3907247897
 20
9.1601666272
 11
-7.4269656777
 21
9.1554571522
  0
LINE
  5
64C
100
AcDbEntity
  8
IMPORT_IGES
100
AcDbLine
 62
7
  6
CONTINUOUS
 10
-6.1920124387
 20
8.4423299635
 11
-6.1485127277
 21
8.4467630476
  0
LINE
  5
64D
100
AcDbEntity
  8
IMPORT_IGES
100
AcDbLine
 62
7
  6
CONTINUOUS
 10
-7.3907331145
 20
9.1603485384
 11
-7.3499247552
 21
9.1640939707
  0
LINE
  5
64E
100
AcDbEntity
  8
IMPORT_IGES
100
AcDbLine
 62
7
  6
CONTINUOUS
 10
-2.5235902708
 20
8.3681937413
 11
-2.523322389
 21
8.3682162322
  0
LWPOLYLINE
  5
64F
100
AcDbEntity
  8
IMPORT_IGES
100
AcDbPolyline
 62
253
  6
CONTINUOUS
 90
3
 70
0
 10
-15.8753752256
 20
7.4867746333
 10
-15.871941036
 20
7.4870062699
 10
-15.8630486705
 20
7.4873840039
  0
LINE
  5
650
100
AcDbEntity
  8
IMPORT_IGES
100
AcDbLine
 62
7
  6
CONTINUOUS
 10
-2.5025687614
 20
8.3698124133
 11
-2.5233582219
 21
8.3686430271
  0
LINE
  5
651
100
AcDbEntity
  8
IMPORT_IGES
100
AcDbLine
 62
7
  6
CONTINUOUS
 10
-4.8808278044
 20
8.9874531154
 11
-4.9201076049
 21
8.9855981408
  0
LINE
  5
652
100
AcDbEntity
  8
IMPORT_IGES
100
AcDbLine
 62
7
  6
CONTINUOUS
 10
-2.4925764141
 20
8.3702453324
 11
-2.5025687614
 21
8.3698124133
  0
LINE
  5
653
100
AcDbEntity
  8
IMPORT_IGES
100
AcDbLine
 62
7
  6
CONTINUOUS
 10
-4.896758218
 20
9.1597018138
 11
-4.9526861396
 21
9.1576012432
  0
LINE
  5
654
100
AcDbEntity
  8
IMPORT_IGES
100
AcDbLine
 62
7
  6
CONTINUOUS
 10
-6.101889371
 20
8.6195575776
 11
-6.1497908909
 21
8.6178044862
  0
LINE
  5
655
100
AcDbEntity
  8
IMPORT_IGES
100
AcDbLine
 62
7
  6
CONTINUOUS
 10
-7.3499063356
 20
9.1640961362
 11
-7.3075008763
 21
9.1655548951
  0
LINE
  5
656
100
AcDbEntity
  8
IMPORT_IGES
100
AcDbLine
 62
7
  6
CONTINUOUS
 10
-7.3421574027
 20
8.9890175302
 11
-7.3035010336
 21
8.9900196949
  0
LINE
  5
657
100
AcDbEntity
  8
IMPORT_IGES
100
AcDbLine
 62
7
  6
CONTINUOUS
 10
-6.1058568164
 20
8.4477152186
 11
-6.1528673625
 21
8.4467304898
  0
LINE
  5
658
100
AcDbEntity
  8
IMPORT_IGES
100
AcDbLine
 62
7
  6
CONTINUOUS
 10
-4.2167034655
 20
9.1994537453
 11
-3.9820929148
 21
9.1997407185
  0
LINE
  5
659
100
AcDbEntity
  8
IMPORT_IGES
100
AcDbLine
 62
7
  6
CONTINUOUS
 10
-7.6161812376
 20
8.6184256681
 11
-7.8115771693
 21
8.6184256681
  0
LINE
  5
65A
100
AcDbEntity
  8
IMPORT_IGES
100
AcDbLine
 62
7
  6
CONTINUOUS
 10
-5.6668667413
 20
8.9490816681
 11
-6.3164467413
 21
8.9490816681
  0
LINE
  5
65B
100
AcDbEntity
  8
IMPORT_IGES
100
AcDbLine
 62
7
  6
CONTINUOUS
 10
-6.4603917413
 20
9.1346756681
 11
-5.6668667413
 21
9.1346756681
  0
LINE
  5
65C
100
AcDbEntity
  8
IMPORT_IGES
100
AcDbLine
 62
7
  6
CONTINUOUS
 10
-3.0871629907
 20
9.1997471708
 11
-2.8504764424
 21
9.1997407018
  0
LINE
  5
65D
100
AcDbEntity
  8
IMPORT_IGES
100
AcDbLine
 62
253
  6
CONTINUOUS
 10
26.6508012587
 20
10.6912576681
 11
26.587963025
 21
10.6912576681
  0
LINE
  5
65E
100
AcDbEntity
  8
IMPORT_IGES
100
AcDbLine
 62
253
  6
CONTINUOUS
 10
-26.2863602656
 20
10.6912576681
 11
-26.3491987413
 21
10.6912576681
  0
LINE
  5
65F
100
AcDbEntity
  8
IMPORT_IGES
100
AcDbLine
 62
7
  6
CONTINUOUS
 10
-7.3074959697
 20
9.1655550611
 11
-7.2633857255
 21
9.1652351122
  0
LINE
  5
660
100
AcDbEntity
  8
IMPORT_IGES
100
AcDbLine
 62
7
  6
CONTINUOUS
 10
-6.1018847446
 20
8.6202993449
 11
-6.0451179881
 21
8.6190800765
  0
LINE
  5
661
100
AcDbEntity
  8
IMPORT_IGES
100
AcDbLine
 62
7
  6
CONTINUOUS
 10
-4.8377836435
 20
9.1576929856
 11
-4.896758218
 21
9.1597018138
  0
LINE
  5
662
100
AcDbEntity
  8
IMPORT_IGES
100
AcDbLine
 62
7
  6
CONTINUOUS
 10
-7.2618423445
 20
8.9890821196
 11
-7.3034923066
 21
8.9908653657
  0
LINE
  5
663
100
AcDbEntity
  8
IMPORT_IGES
100
AcDbLine
 62
7
  6
CONTINUOUS
 10
-7.220232278
 20
9.163068768
 11
-7.2633863985
 21
9.1651014713
  0
LINE
  5
664
100
AcDbEntity
  8
IMPORT_IGES
100
AcDbLine
 62
7
  6
CONTINUOUS
 10
-4.8412610024
 20
8.9848041287
 11
-4.8808278044
 21
8.9874531154
  0
LINE
  5
665
100
AcDbEntity
  8
IMPORT_IGES
100
AcDbLine
 62
7
  6
CONTINUOUS
 10
-7.4628194861
 20
16.2963992593
 11
-7.4164080749
 21
16.2640106975
  0
LINE
  5
666
100
AcDbEntity
  8
IMPORT_IGES
100
AcDbLine
 62
7
  6
CONTINUOUS
 10
-7.2842788544
 20
16.4359513734
 11
-7.3163411845
 21
16.4588718546
  0
LINE
  5
667
100
AcDbEntity
  8
IMPORT_IGES
100
AcDbLine
 62
7
  6
CONTINUOUS
 10
-5.9200551611
 20
16.4359513734
 11
-5.9521174912
 21
16.4588718546
  0
LINE
  5
668
100
AcDbEntity
  8
IMPORT_IGES
100
AcDbLine
 62
7
  6
CONTINUOUS
 10
-6.1069784029
 20
16.3030952653
 11
-6.0587550837
 21
16.2683630879
  0
LINE
  5
669
100
AcDbEntity
  8
IMPORT_IGES
100
AcDbLine
 62
7
  6
CONTINUOUS
 10
-4.8645228602
 20
16.3384694856
 11
-4.8146390041
 21
16.301937576
  0
LINE
  5
66A
100
AcDbEntity
  8
IMPORT_IGES
100
AcDbLine
 62
7
  6
CONTINUOUS
 10
-6.9268803019
 20
17.7729440529
 11
-6.8994928582
 21
17.7502233687
  0
LINE
  5
66B
100
AcDbEntity
  8
IMPORT_IGES
100
AcDbLine
 62
7
  6
CONTINUOUS
 10
-5.5626566086
 20
17.7729440529
 11
-5.5352691648
 21
17.7502233687
  0
LINE
  5
66C
100
AcDbEntity
  8
IMPORT_IGES
100
AcDbLine
 62
7
  6
CONTINUOUS
 10
-5.3700098262
 20
17.8876259009
 11
-5.4142915685
 21
17.9248543598
  0
LINE
  5
66D
100
AcDbEntity
  8
IMPORT_IGES
100
AcDbLine
 62
7
  6
CONTINUOUS
 10
-6.7325320355
 20
17.8859894488
 11
-6.7769604582
 21
17.9236935628
  0
LINE
  5
66E
100
AcDbEntity
  8
IMPORT_IGES
100
AcDbLine
 62
7
  6
CONTINUOUS
 10
-4.2489044974
 20
17.0445938517
 11
-4.2159141507
 21
17.0147958838
  0
LINE
  5
66F
100
AcDbEntity
  8
IMPORT_IGES
100
AcDbLine
 62
7
  6
CONTINUOUS
 10
-4.9093004729
 20
16.3796470069
 11
-4.8645228602
 21
16.3384694856
  0
LINE
  5
670
100
AcDbEntity
  8
IMPORT_IGES
100
AcDbLine
 62
7
  6
CONTINUOUS
 10
-2.5064183736
 20
16.3248482461
 11
-2.461640761
 21
16.2836707248
  0
LINE
  5
671
100
AcDbEntity
  8
IMPORT_IGES
100
AcDbLine
 62
7
  6
CONTINUOUS
 10
-4.6971801378
 20
16.4654003027
 11
-4.7278367715
 21
16.493876307
  0
LINE
  5
672
100
AcDbEntity
  8
IMPORT_IGES
100
AcDbLine
 62
7
  6
CONTINUOUS
 10
-2.2942980386
 20
16.4106015419
 11
-2.3249546723
 21
16.4390775462
  0
LINE
  5
673
100
AcDbEntity
  8
IMPORT_IGES
100
AcDbLine
 62
7
  6
CONTINUOUS
 10
-4.0990818903
 20
17.8844157968
 11
-4.1380378567
 21
17.920778523
  0
LINE
  5
674
100
AcDbEntity
  8
IMPORT_IGES
100
AcDbLine
 62
7
  6
CONTINUOUS
 10
-4.0016470816
 20
17.0937679388
 11
-4.0369140033
 21
17.1270110238
  0
LINE
  5
675
100
AcDbEntity
  8
IMPORT_IGES
100
AcDbLine
 62
7
  6
CONTINUOUS
 10
-5.3293767674
 20
17.8445989322
 11
-5.3700098262
 21
17.8876259009
  0
LINE
  5
676
100
AcDbEntity
  8
IMPORT_IGES
100
AcDbLine
 62
7
  6
CONTINUOUS
 10
-4.2818309894
 20
17.7812345904
 11
-4.2576610043
 21
17.7540196134
  0
LINE
  5
677
100
AcDbEntity
  8
IMPORT_IGES
100
AcDbLine
 62
7
  6
CONTINUOUS
 10
-1.8789488902
 20
17.7264358296
 11
-1.854778905
 21
17.6992208526
  0
LINE
  5
678
100
AcDbEntity
  8
IMPORT_IGES
100
AcDbLine
 62
7
  6
CONTINUOUS
 10
-2.545986802
 20
16.3702833378
 11
-2.5064183736
 21
16.3248482461
  0
LINE
  5
679
100
AcDbEntity
  8
IMPORT_IGES
100
AcDbLine
 62
7
  6
CONTINUOUS
 10
-1.8130320515
 20
16.959997123
 11
-1.784410846
 21
16.9263623939
  0
LINE
  5
67A
100
AcDbEntity
  8
IMPORT_IGES
100
AcDbLine
 62
7
  6
CONTINUOUS
 10
-4.0652584734
 20
17.8444126147
 11
-4.0990818903
 21
17.8844157968
  0
LINE
  5
67B
100
AcDbEntity
  8
IMPORT_IGES
100
AcDbLine
 62
7
  6
CONTINUOUS
 10
-1.6623763741
 20
17.7896138538
 11
-1.696199791
 21
17.8296170359
  0
LINE
  5
67C
100
AcDbEntity
  8
IMPORT_IGES
100
AcDbLine
 62
7
  6
CONTINUOUS
 10
-1.5680341071
 20
17.0015035885
 11
-1.5987649823
 21
17.038969178
  0
LINE
  5
67D
100
AcDbEntity
  8
IMPORT_IGES
100
AcDbLine
 62
7
  6
CONTINUOUS
 10
-2.3249546723
 20
16.4390775462
 11
-2.3516887838
 21
16.4719665545
  0
LINE
  5
67E
100
AcDbEntity
  8
IMPORT_IGES
100
AcDbLine
 62
7
  6
CONTINUOUS
 10
-1.854778905
 20
17.6992208526
 11
-1.8343243155
 21
17.668689798
  0
LINE
  5
67F
100
AcDbEntity
  8
IMPORT_IGES
100
AcDbLine
 62
7
  6
CONTINUOUS
 10
-1.633288797
 20
17.7453022217
 11
-1.6623763741
 21
17.7896138538
  0
LINE
  5
680
100
AcDbEntity
  8
IMPORT_IGES
100
AcDbLine
 62
7
  6
CONTINUOUS
 10
12.7508012587
 20
12.5912577914
 11
12.6507411004
 21
12.5912577914
  0
LINE
  5
681
100
AcDbEntity
  8
IMPORT_IGES
100
AcDbLine
 62
7
  6
CONTINUOUS
 10
6.6508614274
 20
12.5912576681
 11
6.5508012587
 21
12.5912576681
  0
LINE
  5
682
100
AcDbEntity
  8
IMPORT_IGES
100
AcDbLine
 62
7
  6
CONTINUOUS
 10
3.2508012587
 20
12.5912576681
 11
3.1507411134
 21
12.5912576681
  0
LINE
  5
683
100
AcDbEntity
  8
IMPORT_IGES
100
AcDbLine
 62
7
  6
CONTINUOUS
 10
-2.8491385726
 20
12.5912576681
 11
-2.9491987413
 21
12.5912576681
  0
LINE
  5
684
100
AcDbEntity
  8
IMPORT_IGES
100
AcDbLine
 62
7
  6
CONTINUOUS
 10
-6.2491987413
 20
12.5912576681
 11
-6.3492588867
 21
12.5912576681
  0
LINE
  5
685
100
AcDbEntity
  8
IMPORT_IGES
100
AcDbLine
 62
7
  6
CONTINUOUS
 10
-12.3491385853
 20
12.5912575456
 11
-12.4491987413
 21
12.5912575456
  0
LWPOLYLINE
  5
686
100
AcDbEntity
  8
IMPORT_IGES
100
AcDbPolyline
 62
253
  6
CONTINUOUS
 90
10
 70
0
 10
-26.3474532331
 20
17.046742067
 10
-26.330844507
 20
17.0440194935
 10
-26.314251736
 20
17.0231699757
 10
-26.2976749202
 20
16.9841935136
 10
-26.2811079967
 20
16.9270625356
 10
-26.2645570283
 20
16.8518046134
 10
-26.2480402038
 20
16.7585024614
 10
-26.2315635859
 20
16.6471836513
 10
-26.2151211118
 20
16.5178206114
 10
-26.1987127816
 20
16.3704133419
  0
LINE
  5
687
100
AcDbEntity
  8
IMPORT_IGES
100
AcDbLine
 62
7
  6
CONTINUOUS
 10
-7.3669207593
 20
16.2378449008
 11
-7.3133321232
 21
16.2174257302
  0
LINE
  5
688
100
AcDbEntity
  8
IMPORT_IGES
100
AcDbLine
 62
7
  6
CONTINUOUS
 10
-6.0065831858
 20
16.2398082586
 11
-5.9499381162
 21
16.2176939594
  0
LINE
  5
689
100
AcDbEntity
  8
IMPORT_IGES
100
AcDbLine
 62
7
  6
CONTINUOUS
 10
-6.824779666
 20
17.9554837269
 11
-6.8762846988
 21
17.9813955941
  0
LINE
  5
68A
100
AcDbEntity
  8
IMPORT_IGES
100
AcDbLine
 62
7
  6
CONTINUOUS
 10
-4.6254414457
 20
16.4222058699
 11
-4.6629240266
 21
16.4412862173
  0
LINE
  5
68B
100
AcDbEntity
  8
IMPORT_IGES
100
AcDbLine
 62
7
  6
CONTINUOUS
 10
-7.2496226141
 20
16.4181112079
 11
-7.2842788544
 21
16.4359513734
  0
LINE
  5
68C
100
AcDbEntity
  8
IMPORT_IGES
100
AcDbLine
 62
7
  6
CONTINUOUS
 10
-5.8853989208
 20
16.4181112079
 11
-5.9200551611
 21
16.4359513734
  0
LINE
  5
68D
100
AcDbEntity
  8
IMPORT_IGES
100
AcDbLine
 62
7
  6
CONTINUOUS
 10
-7.4164080749
 20
16.2640106975
 11
-7.3669207593
 21
16.2378449008
  0
LINE
  5
68E
100
AcDbEntity
  8
IMPORT_IGES
100
AcDbLine
 62
7
  6
CONTINUOUS
 10
-6.0587550837
 20
16.2683630879
 11
-6.0065831858
 21
16.2398082586
  0
LINE
  5
68F
100
AcDbEntity
  8
IMPORT_IGES
100
AcDbLine
 62
7
  6
CONTINUOUS
 10
-4.8146390041
 20
16.301937576
 11
-4.760818876
 21
16.2715508825
  0
LINE
  5
690
100
AcDbEntity
  8
IMPORT_IGES
100
AcDbLine
 62
7
  6
CONTINUOUS
 10
-2.4117569049
 20
16.2471388152
 11
-2.3579367767
 21
16.2167521217
  0
LINE
  5
691
100
AcDbEntity
  8
IMPORT_IGES
100
AcDbLine
 62
7
  6
CONTINUOUS
 10
-6.9570715052
 20
17.7915174663
 11
-6.9268803019
 21
17.7729440529
  0
LINE
  5
692
100
AcDbEntity
  8
IMPORT_IGES
100
AcDbLine
 62
7
  6
CONTINUOUS
 10
-5.5928478119
 20
17.7915174663
 11
-5.5626566086
 21
17.7729440529
  0
LINE
  5
693
100
AcDbEntity
  8
IMPORT_IGES
100
AcDbLine
 62
7
  6
CONTINUOUS
 10
-4.3412561618
 20
17.8258887326
 11
-4.3096858778
 21
17.8052197004
  0
LINE
  5
694
100
AcDbEntity
  8
IMPORT_IGES
100
AcDbLine
 62
7
  6
CONTINUOUS
 10
-5.4142915685
 20
17.9248543598
 11
-5.4619382929
 21
17.9562761779
  0
LINE
  5
695
100
AcDbEntity
  8
IMPORT_IGES
100
AcDbLine
 62
7
  6
CONTINUOUS
 10
-6.7769604582
 20
17.9236935628
 11
-6.824779666
 21
17.9554837269
  0
LINE
  5
696
100
AcDbEntity
  8
IMPORT_IGES
100
AcDbLine
 62
7
  6
CONTINUOUS
 10
-4.2862574337
 20
17.0703620882
 11
-4.2489044974
 21
17.0445938517
  0
LINE
  5
697
100
AcDbEntity
  8
IMPORT_IGES
100
AcDbLine
 62
7
  6
CONTINUOUS
 10
-1.8833753345
 20
17.0155633274
 11
-1.8460223982
 21
16.9897950909
  0
LINE
  5
698
100
AcDbEntity
  8
IMPORT_IGES
100
AcDbLine
 62
7
  6
CONTINUOUS
 10
-4.6629240266
 20
16.4412862173
 11
-4.6971801378
 21
16.4654003027
  0
LINE
  5
699
100
AcDbEntity
  8
IMPORT_IGES
100
AcDbLine
 62
7
  6
CONTINUOUS
 10
-2.2600419273
 20
16.3864874565
 11
-2.2942980386
 21
16.4106015419
  0
LINE
  5
69A
100
AcDbEntity
  8
IMPORT_IGES
100
AcDbLine
 62
7
  6
CONTINUOUS
 10
-4.0369140033
 20
17.1270110238
 11
-4.0766692576
 21
17.1558108396
  0
LINE
  5
69B
100
AcDbEntity
  8
IMPORT_IGES
100
AcDbLine
 62
7
  6
CONTINUOUS
 10
-1.6340319041
 20
17.072212263
 11
-1.6737871584
 21
17.1010120788
  0
LINE
  5
69C
100
AcDbEntity
  8
IMPORT_IGES
100
AcDbLine
 62
7
  6
CONTINUOUS
 10
-4.1380378567
 20
17.920778523
 11
-4.182473097
 21
17.9530769103
  0
LINE
  5
69D
100
AcDbEntity
  8
IMPORT_IGES
100
AcDbLine
 62
7
  6
CONTINUOUS
 10
-2.461640761
 20
16.2836707248
 11
-2.4117569049
 21
16.2471388152
  0
LINE
  5
69E
100
AcDbEntity
  8
IMPORT_IGES
100
AcDbLine
 62
7
  6
CONTINUOUS
 10
-4.3096858778
 20
17.8052197004
 11
-4.2818309894
 21
17.7812345904
  0
LINE
  5
69F
100
AcDbEntity
  8
IMPORT_IGES
100
AcDbLine
 62
7
  6
CONTINUOUS
 10
-1.9068037785
 20
17.7504209396
 11
-1.8789488902
 21
17.7264358296
  0
LINE
  5
6A0
100
AcDbEntity
  8
IMPORT_IGES
100
AcDbLine
 62
7
  6
CONTINUOUS
 10
-1.8460223982
 20
16.9897950909
 11
-1.8130320515
 21
16.959997123
  0
LINE
  5
6A1
100
AcDbEntity
  8
IMPORT_IGES
100
AcDbLine
 62
7
  6
CONTINUOUS
 10
-1.696199791
 20
17.8296170359
 11
-1.7351557574
 21
17.8659797621
  0
LINE
  5
6A2
100
AcDbEntity
  8
IMPORT_IGES
100
AcDbLine
 62
7
  6
CONTINUOUS
 10
-1.5987649823
 20
17.038969178
 11
-1.6340319041
 21
17.072212263
  0
LINE
  5
6A3
100
AcDbEntity
  8
IMPORT_IGES
100
AcDbLine
 62
253
  6
CONTINUOUS
 10
14.8938532594
 20
17.9530327503
 11
14.9476587616
 21
18.9515446507
  0
LWPOLYLINE
  5
6A4
100
AcDbEntity
  8
IMPORT_IGES
100
AcDbPolyline
 62
253
  6
CONTINUOUS
 90
5
 70
0
 10
20.0338264988
 20
18.8185739525
 10
20.0452862386
 20
18.8570180831
 10
20.0547524319
 20
18.8902218493
 10
20.062305169
 20
18.9180515173
 10
20.0679490549
 20
18.9403669447
  0
LWPOLYLINE
  5
6A5
100
AcDbEntity
  8
IMPORT_IGES
100
AcDbPolyline
 62
253
  6
CONTINUOUS
 90
25
 70
0
 10
20.0916856803
 20
19.2424752945
 10
20.1014418165
 20
19.2732184778
 10
20.1191681683
 20
19.2993818503
 10
20.1448926776
 20
19.3210032235
 10
20.1787500277
 20
19.3379751656
 10
20.2206522474
 20
19.350467415
 10
20.2702847956
 20
19.3589161988
 10
20.3274665308
 20
19.3634581854
 10
20.3923995171
 20
19.3639684271
 10
20.4653356661
 20
19.3604702539
 10
20.5464593448
 20
19.3530498888
 10
20.6355901054
 20
19.3415956966
 10
20.732430881
 20
19.3258361462
 10
20.8387764483
 20
19.3051884291
 10
20.9528250822
 20
19.2802032911
 10
21.0688940915
 20
19.252367137
 10
21.1841989097
 20
19.2224764252
 10
21.3015288073
 20
19.1898026667
 10
21.4235643147
 20
19.1535683016
 10
21.550311963
 20
19.1138262488
 10
21.6817430031
 20
19.0705037674
 10
21.8204700655
 20
19.0225871716
 10
21.9673435717
 20
18.9697003555
 10
22.1214585087
 20
18.9121262436
 10
22.2827826683
 20
18.849811585
  0
LWPOLYLINE
  5
6A6
100
AcDbEntity
  8
IMPORT_IGES
100
AcDbPolyline
 62
253
  6
CONTINUOUS
 90
3
 70
0
 10
19.9884472416
 20
18.6736675697
 10
20.0053210667
 20
18.7266546964
 10
20.0338264988
 20
18.8185739525
  0
LINE
  5
6A7
100
AcDbEntity
  8
IMPORT_IGES
100
AcDbLine
 62
253
  6
CONTINUOUS
 10
19.9497391807
 20
18.5547869711
 11
19.9884472416
 21
18.6736675697
  0
LINE
  5
6A8
100
AcDbEntity
  8
IMPORT_IGES
100
AcDbLine
 62
253
  6
CONTINUOUS
 10
19.9051053309
 20
18.420714803
 11
19.9497391807
 21
18.5547869711
  0
LINE
  5
6A9
100
AcDbEntity
  8
IMPORT_IGES
100
AcDbLine
 62
253
  6
CONTINUOUS
 10
19.8555370211
 20
18.2738841325
 11
19.9051053309
 21
18.420714803
  0
LWPOLYLINE
  5
6AA
100
AcDbEntity
  8
IMPORT_IGES
100
AcDbPolyline
 62
253
  6
CONTINUOUS
 90
3
 70
0
 10
19.7156026242
 20
17.8700163567
 10
19.7450720804
 20
17.9533797373
 10
19.8555370211
 20
18.2738841325
  0
LINE
  5
6AB
100
AcDbEntity
  8
IMPORT_IGES
100
AcDbLine
 62
253
  6
CONTINUOUS
 10
21.9587942765
 20
17.953526292
 11
21.8917867985
 21
17.782136261
  0
LWPOLYLINE
  5
6AC
100
AcDbEntity
  8
IMPORT_IGES
100
AcDbPolyline
 62
253
  6
CONTINUOUS
 90
10
 70
0
 10
26.0810900313
 20
17.9486458651
 10
26.064200024
 20
17.945636448
 10
26.0473473996
 20
17.9242133432
 10
26.0305294506
 20
17.884384058
 10
26.0136921913
 20
17.8261774123
 10
25.9968497251
 20
17.74959934
 10
25.9800886273
 20
17.654643202
 10
25.9634066011
 20
17.5413439012
 10
25.9467081826
 20
17.4097676018
 10
25.9299272138
 20
17.2599747557
  0
LINE
  5
6AD
100
AcDbEntity
  8
IMPORT_IGES
100
AcDbLine
 62
7
  6
CONTINUOUS
 10
-5.8886450105
 20
16.2021079173
 11
-5.8152344975
 21
16.1917722825
  0
LINE
  5
6AE
100
AcDbEntity
  8
IMPORT_IGES
100
AcDbLine
 62
7
  6
CONTINUOUS
 10
-7.2553003609
 20
16.2025944729
 11
-7.1855450084
 21
16.1921148229
  0
LINE
  5
6AF
100
AcDbEntity
  8
IMPORT_IGES
100
AcDbLine
 62
7
  6
CONTINUOUS
 10
-4.6417706307
 20
16.2299600822
 11
-4.5693467113
 21
16.2169520049
  0
LINE
  5
6B0
100
AcDbEntity
  8
IMPORT_IGES
100
AcDbLine
 62
7
  6
CONTINUOUS
 10
-7.172519204
 20
16.3977041244
 11
-7.2123678641
 21
16.4053675083
  0
LINE
  5
6B1
100
AcDbEntity
  8
IMPORT_IGES
100
AcDbLine
 62
7
  6
CONTINUOUS
 10
-5.8082955107
 20
16.3977041244
 11
-5.8481441708
 21
16.4053675083
  0
LINE
  5
6B2
100
AcDbEntity
  8
IMPORT_IGES
100
AcDbLine
 62
7
  6
CONTINUOUS
 10
-4.5320663943
 20
16.3975398612
 11
-4.5841700138
 21
16.4081619414
  0
LINE
  5
6B3
100
AcDbEntity
  8
IMPORT_IGES
100
AcDbLine
 62
7
  6
CONTINUOUS
 10
-5.9499381162
 20
16.2176939594
 11
-5.8886450105
 21
16.2021079173
  0
LINE
  5
6B4
100
AcDbEntity
  8
IMPORT_IGES
100
AcDbLine
 62
7
  6
CONTINUOUS
 10
-7.3133321232
 20
16.2174257302
 11
-7.2553003609
 21
16.2025944729
  0
LINE
  5
6B5
100
AcDbEntity
  8
IMPORT_IGES
100
AcDbLine
 62
7
  6
CONTINUOUS
 10
-4.7032628893
 20
16.2476828743
 11
-4.6417706307
 21
16.2299600822
  0
LINE
  5
6B6
100
AcDbEntity
  8
IMPORT_IGES
100
AcDbLine
 62
7
  6
CONTINUOUS
 10
-2.3003807901
 20
16.1928841135
 11
-2.2388885314
 21
16.1751613214
  0
LINE
  5
6B7
100
AcDbEntity
  8
IMPORT_IGES
100
AcDbLine
 62
7
  6
CONTINUOUS
 10
-4.1696129544
 20
17.1999334874
 11
-4.2228173016
 21
17.2153299077
  0
LINE
  5
6B8
100
AcDbEntity
  8
IMPORT_IGES
100
AcDbLine
 62
7
  6
CONTINUOUS
 10
-7.0266391048
 20
17.8167239927
 11
-6.9902986424
 21
17.8060940625
  0
LINE
  5
6B9
100
AcDbEntity
  8
IMPORT_IGES
100
AcDbLine
 62
7
  6
CONTINUOUS
 10
-4.3707461106
 20
17.1051873782
 11
-4.3268726376
 21
17.0906880638
  0
LINE
  5
6BA
100
AcDbEntity
  8
IMPORT_IGES
100
AcDbLine
 62
7
  6
CONTINUOUS
 10
-4.5841700138
 20
16.4081619414
 11
-4.6254414457
 21
16.4222058699
  0
LINE
  5
6BB
100
AcDbEntity
  8
IMPORT_IGES
100
AcDbLine
 62
7
  6
CONTINUOUS
 10
-2.1812879145
 20
16.3533631806
 11
-2.2225593465
 21
16.3674071091
  0
LINE
  5
6BC
100
AcDbEntity
  8
IMPORT_IGES
100
AcDbLine
 62
7
  6
CONTINUOUS
 10
-7.2123678641
 20
16.4053675083
 11
-7.2496226141
 21
16.4181112079
  0
LINE
  5
6BD
100
AcDbEntity
  8
IMPORT_IGES
100
AcDbLine
 62
7
  6
CONTINUOUS
 10
-5.8481441708
 20
16.4053675083
 11
-5.8853989208
 21
16.4181112079
  0
LINE
  5
6BE
100
AcDbEntity
  8
IMPORT_IGES
100
AcDbLine
 62
7
  6
CONTINUOUS
 10
-5.5132337007
 20
17.9818994862
 11
-5.5688875207
 21
18.0019122019
  0
LINE
  5
6BF
100
AcDbEntity
  8
IMPORT_IGES
100
AcDbLine
 62
7
  6
CONTINUOUS
 10
-6.8762846988
 20
17.9813955941
 11
-6.9321819017
 21
18.0016304933
  0
LINE
  5
6C0
100
AcDbEntity
  8
IMPORT_IGES
100
AcDbLine
 62
7
  6
CONTINUOUS
 10
-4.1208969398
 20
17.1800937981
 11
-4.1696129544
 21
17.1999334874
  0
LINE
  5
6C1
100
AcDbEntity
  8
IMPORT_IGES
100
AcDbLine
 62
7
  6
CONTINUOUS
 10
-1.7180148405
 20
17.1252950373
 11
-1.7667308552
 21
17.1451347266
  0
LINE
  5
6C2
100
AcDbEntity
  8
IMPORT_IGES
100
AcDbLine
 62
7
  6
CONTINUOUS
 10
-4.760818876
 20
16.2715508825
 11
-4.7032628893
 21
16.2476828743
  0
LINE
  5
6C3
100
AcDbEntity
  8
IMPORT_IGES
100
AcDbLine
 62
7
  6
CONTINUOUS
 10
-2.3579367767
 20
16.2167521217
 11
-2.3003807901
 21
16.1928841135
  0
LINE
  5
6C4
100
AcDbEntity
  8
IMPORT_IGES
100
AcDbLine
 62
7
  6
CONTINUOUS
 10
-6.9902986424
 20
17.8060940625
 11
-6.9570715052
 21
17.7915174663
  0
LINE
  5
6C5
100
AcDbEntity
  8
IMPORT_IGES
100
AcDbLine
 62
7
  6
CONTINUOUS
 10
-5.6260749491
 20
17.8060940625
 11
-5.5928478119
 21
17.7915174663
  0
LINE
  5
6C6
100
AcDbEntity
  8
IMPORT_IGES
100
AcDbLine
 62
7
  6
CONTINUOUS
 10
-4.2331031177
 20
17.9818708519
 11
-4.2892124124
 21
18.0066004546
  0
LINE
  5
6C7
100
AcDbEntity
  8
IMPORT_IGES
100
AcDbLine
 62
7
  6
CONTINUOUS
 10
-4.3757659568
 20
17.8420803903
 11
-4.3412561618
 21
17.8258887326
  0
LINE
  5
6C8
100
AcDbEntity
  8
IMPORT_IGES
100
AcDbLine
 62
7
  6
CONTINUOUS
 10
-1.9728838575
 20
17.7872816295
 11
-1.9383740625
 21
17.7710899718
  0
LINE
  5
6C9
100
AcDbEntity
  8
IMPORT_IGES
100
AcDbLine
 62
7
  6
CONTINUOUS
 10
-5.4619382929
 20
17.9562761779
 11
-5.5132337007
 21
17.9818994862
  0
LINE
  5
6CA
100
AcDbEntity
  8
IMPORT_IGES
100
AcDbLine
 62
7
  6
CONTINUOUS
 10
-4.3268726376
 20
17.0906880638
 11
-4.2862574337
 21
17.0703620882
  0
LINE
  5
6CB
100
AcDbEntity
  8
IMPORT_IGES
100
AcDbLine
 62
7
  6
CONTINUOUS
 10
-1.9239905384
 20
17.035889303
 11
-1.8833753345
 21
17.0155633274
  0
LINE
  5
6CC
100
AcDbEntity
  8
IMPORT_IGES
100
AcDbLine
 62
7
  6
CONTINUOUS
 10
-2.2225593465
 20
16.3674071091
 11
-2.2600419273
 21
16.3864874565
  0
LINE
  5
6CD
100
AcDbEntity
  8
IMPORT_IGES
100
AcDbLine
 62
7
  6
CONTINUOUS
 10
-4.0766692576
 20
17.1558108396
 11
-4.1208969398
 21
17.1800937981
  0
LINE
  5
6CE
100
AcDbEntity
  8
IMPORT_IGES
100
AcDbLine
 62
7
  6
CONTINUOUS
 10
-1.6737871584
 20
17.1010120788
 11
-1.7180148405
 21
17.1252950373
  0
LINE
  5
6CF
100
AcDbEntity
  8
IMPORT_IGES
100
AcDbLine
 62
7
  6
CONTINUOUS
 10
-4.182473097
 20
17.9530769103
 11
-4.2331031177
 21
17.9818708519
  0
LINE
  5
6D0
100
AcDbEntity
  8
IMPORT_IGES
100
AcDbLine
 62
7
  6
CONTINUOUS
 10
-1.7795909977
 20
17.8982781495
 11
-1.8302210184
 21
17.9270720911
  0
LINE
  5
6D1
100
AcDbEntity
  8
IMPORT_IGES
100
AcDbLine
 62
7
  6
CONTINUOUS
 10
-1.9383740625
 20
17.7710899718
 11
-1.9068037785
 21
17.7504209396
  0
LINE
  5
6D2
100
AcDbEntity
  8
IMPORT_IGES
100
AcDbLine
 62
7
  6
CONTINUOUS
 10
-1.7351557574
 20
17.8659797621
 11
-1.7795909977
 21
17.8982781495
  0
LINE
  5
6D3
100
AcDbEntity
  8
IMPORT_IGES
100
AcDbLine
 62
253
  6
CONTINUOUS
 10
14.9479682479
 20
6.2309862168
 11
15.0850512556
 21
6.0967970596
  0
LINE
  5
6D4
100
AcDbEntity
  8
IMPORT_IGES
100
AcDbLine
 62
253
  6
CONTINUOUS
 10
21.9587952824
 20
-15.571012299
 11
21.8917923628
 21
-15.399633817
  0
LINE
  5
6D5
100
AcDbEntity
  8
IMPORT_IGES
100
AcDbLine
 62
253
  6
CONTINUOUS
 10
19.7451082342
 20
-15.5709016404
 11
19.7156315489
 21
-15.4874999541
  0
LINE
  5
6D6
100
AcDbEntity
  8
IMPORT_IGES
100
AcDbLine
 62
253
  6
CONTINUOUS
 10
19.8555640082
 20
-15.8914313297
 11
19.7451082342
 21
-15.5709016404
  0
LINE
  5
6D7
100
AcDbEntity
  8
IMPORT_IGES
100
AcDbLine
 62
253
  6
CONTINUOUS
 10
19.928171083
 20
-16.1070161032
 11
19.8555640082
 21
-15.8914313297
  0
LWPOLYLINE
  5
6D8
100
AcDbEntity
  8
IMPORT_IGES
100
AcDbPolyline
 62
253
  6
CONTINUOUS
 90
4
 70
0
 10
20.0053123384
 20
-16.3441464569
 10
19.9884415305
 20
-16.2911650834
 10
19.969823913
 20
-16.2337950097
 10
19.928171083
 20
-16.1070161032
  0
LINE
  5
6D9
100
AcDbEntity
  8
IMPORT_IGES
100
AcDbLine
 62
253
  6
CONTINUOUS
 10
14.947735826
 20
6.2309748411
 11
14.9475164059
 21
6.234407813
  0
LINE
  5
6DA
100
AcDbEntity
  8
IMPORT_IGES
100
AcDbLine
 62
253
  6
CONTINUOUS
 10
14.9475164059
 20
6.234407813
 11
14.8938532581
 21
7.2294825861
  0
LINE
  5
6DB
100
AcDbEntity
  8
IMPORT_IGES
100
AcDbLine
 62
253
  6
CONTINUOUS
 10
15.0858848584
 20
4.9674631136
 11
15.0958342566
 21
4.7729610187
  0
LINE
  5
6DC
100
AcDbEntity
  8
IMPORT_IGES
100
AcDbLine
 62
253
  6
CONTINUOUS
 10
15.0774711731
 20
5.1591141411
 11
15.0858848584
 21
4.9674631136
  0
LWPOLYLINE
  5
6DD
100
AcDbEntity
  8
IMPORT_IGES
100
AcDbPolyline
 62
253
  6
CONTINUOUS
 90
22
 70
0
 10
16.1769722999
 20
7.486499216
 10
16.1707192818
 20
7.3948469046
 10
16.1580088491
 20
7.3038631824
 10
16.1389041365
 20
7.2140024651
 10
16.113497368
 20
7.1257048508
 10
16.0819167174
 20
7.0394205765
 10
16.0443317864
 20
6.9556055792
 10
16.0009427786
 20
6.8746890205
 10
15.9519653292
 20
6.7970580605
 10
15.8976374998
 20
6.7230831991
 10
15.8382315238
 20
6.6531320556
 10
15.774044873
 20
6.5875520968
 10
15.7053854068
 20
6.5266578629
 10
15.6325941258
 20
6.470754215
 10
15.5560327212
 20
6.4201212153
 10
15.4760664993
 20
6.3750048242
 10
15.3930838851
 20
6.3356315211
 10
15.3075039949
 20
6.3022072323
 10
15.2197600659
 20
6.2749061297
 10
15.1302920425
 20
6.2538687666
 10
15.0395437149
 20
6.2392031032
 10
14.9479682479
 20
6.2309862168
  0
LWPOLYLINE
  5
6DE
100
AcDbEntity
  8
IMPORT_IGES
100
AcDbPolyline
 62
253
  6
CONTINUOUS
 90
22
 70
0
 10
16.3156726962
 20
7.3507268137
 10
16.3093867092
 20
7.2592623762
 10
16.2966571794
 20
7.16845838
 10
16.2775448578
 20
7.0787675766
 10
16.2521391324
 20
6.9906288229
 10
16.2205658836
 20
6.904491255
 10
16.1829931113
 20
6.8208098162
 10
16.1396193606
 20
6.7400149389
 10
16.0906570368
 20
6.662491925
 10
16.0363394582
 20
6.5886065985
 10
15.9769370152
 20
6.5187293954
 10
15.9127429599
 20
6.4532075958
 10
15.8440545203
 20
6.3923494197
 10
15.7712046479
 20
6.336461108
 10
15.6945553557
 20
6.2858309066
 10
15.614473453
 20
6.2407104965
 10
15.5313475892
 20
6.2013321004
 10
15.4455942166
 20
6.1679056718
 10
15.357644925
 20
6.1406087812
 10
15.2679394888
 20
6.1195873036
 10
15.1769232429
 20
6.1049557709
 10
15.0850512556
 20
6.0967970596
  0
LINE
  5
6DF
100
AcDbEntity
  8
IMPORT_IGES
100
AcDbLine
 62
253
  6
CONTINUOUS
 10
22.1821466222
 20
18.545394029
 11
22.1355241873
 21
18.4180848282
  0
LINE
  5
6E0
100
AcDbEntity
  8
IMPORT_IGES
100
AcDbLine
 62
253
  6
CONTINUOUS
 10
22.1355241873
 20
18.4180848282
 11
22.0820665383
 21
18.2751624283
  0
LINE
  5
6E1
100
AcDbEntity
  8
IMPORT_IGES
100
AcDbLine
 62
253
  6
CONTINUOUS
 10
22.0820665383
 20
18.2751624283
 11
22.0228277083
 21
18.1194404336
  0
LINE
  5
6E2
100
AcDbEntity
  8
IMPORT_IGES
100
AcDbLine
 62
253
  6
CONTINUOUS
 10
22.0228277083
 20
18.1194404336
 11
21.9587942765
 21
17.953526292
  0
LINE
  5
6E3
100
AcDbEntity
  8
IMPORT_IGES
100
AcDbLine
 62
7
  6
CONTINUOUS
 10
-5.6252571077
 20
16.2049808479
 11
-5.567672926
 21
16.2209309249
  0
LINE
  5
6E4
100
AcDbEntity
  8
IMPORT_IGES
100
AcDbLine
 62
7
  6
CONTINUOUS
 10
-6.9974936985
 20
16.2032762623
 11
-6.9390144013
 21
16.2185379027
  0
LINE
  5
6E5
100
AcDbEntity
  8
IMPORT_IGES
100
AcDbLine
 62
7
  6
CONTINUOUS
 10
-2.2241938701
 20
17.0383986505
 11
-2.1687251088
 21
17.0522344031
  0
LINE
  5
6E6
100
AcDbEntity
  8
IMPORT_IGES
100
AcDbLine
 62
7
  6
CONTINUOUS
 10
-1.9598128138
 20
16.1698934837
 11
-1.894278217
 21
16.185191776
  0
LINE
  5
6E7
100
AcDbEntity
  8
IMPORT_IGES
100
AcDbLine
 62
7
  6
CONTINUOUS
 10
-4.362694913
 20
16.2246922445
 11
-4.2971603163
 21
16.2399905368
  0
LINE
  5
6E8
100
AcDbEntity
  8
IMPORT_IGES
100
AcDbLine
 62
7
  6
CONTINUOUS
 10
-2.084245599
 20
17.2350926868
 11
-2.0414609394
 21
17.2447191137
  0
LINE
  5
6E9
100
AcDbEntity
  8
IMPORT_IGES
100
AcDbLine
 62
7
  6
CONTINUOUS
 10
-5.6816856591
 20
16.405116436
 11
-5.7225852803
 21
16.3976824948
  0
LINE
  5
6EA
100
AcDbEntity
  8
IMPORT_IGES
100
AcDbLine
 62
7
  6
CONTINUOUS
 10
-7.0459093524
 20
16.405116436
 11
-7.0868089736
 21
16.3976824948
  0
LINE
  5
6EB
100
AcDbEntity
  8
IMPORT_IGES
100
AcDbLine
 62
7
  6
CONTINUOUS
 10
-5.6944782631
 20
16.1929531369
 11
-5.6252571077
 21
16.2049808479
  0
LINE
  5
6EC
100
AcDbEntity
  8
IMPORT_IGES
100
AcDbLine
 62
7
  6
CONTINUOUS
 10
-1.9952102397
 20
16.3518140024
 11
-2.0512059175
 21
16.3423239914
  0
LINE
  5
6ED
100
AcDbEntity
  8
IMPORT_IGES
100
AcDbLine
 62
7
  6
CONTINUOUS
 10
-4.398092339
 20
16.4066127632
 11
-4.454088017
 21
16.3971227523
  0
LINE
  5
6EE
100
AcDbEntity
  8
IMPORT_IGES
100
AcDbLine
 62
7
  6
CONTINUOUS
 10
-7.0677421659
 20
16.1923198411
 11
-6.9974936985
 21
16.2032762623
  0
LINE
  5
6EF
100
AcDbEntity
  8
IMPORT_IGES
100
AcDbLine
 62
7
  6
CONTINUOUS
 10
-2.1687251088
 20
17.0522344031
 11
-2.1078076624
 21
17.0615452641
  0
LINE
  5
6F0
100
AcDbEntity
  8
IMPORT_IGES
100
AcDbLine
 62
7
  6
CONTINUOUS
 10
-4.5716071685
 20
17.1070331743
 11
-4.5106897494
 21
17.1163440276
  0
LINE
  5
6F1
100
AcDbEntity
  8
IMPORT_IGES
100
AcDbLine
 62
7
  6
CONTINUOUS
 10
-2.4379245637
 20
16.6927645584
 11
-2.657762654
 21
16.6634526797
  0
LINE
  5
6F2
100
AcDbEntity
  8
IMPORT_IGES
100
AcDbLine
 62
7
  6
CONTINUOUS
 10
-4.8408067076
 20
16.7475635393
 11
-5.0606447753
 21
16.7182516636
  0
LINE
  5
6F3
100
AcDbEntity
  8
IMPORT_IGES
100
AcDbLine
 62
7
  6
CONTINUOUS
 10
-2.1229497597
 20
17.2303704949
 11
-2.0842821593
 21
17.2353444995
  0
LINE
  5
6F4
100
AcDbEntity
  8
IMPORT_IGES
100
AcDbLine
 62
7
  6
CONTINUOUS
 10
-4.5258318458
 20
17.2851692536
 11
-4.4871642585
 21
17.29014326
  0
LINE
  5
6F5
100
AcDbEntity
  8
IMPORT_IGES
100
AcDbLine
 62
7
  6
CONTINUOUS
 10
-2.0391764025
 20
16.160330029
 11
-1.9598128138
 21
16.1698934837
  0
LINE
  5
6F6
100
AcDbEntity
  8
IMPORT_IGES
100
AcDbLine
 62
7
  6
CONTINUOUS
 10
-4.4420585013
 20
16.2151287899
 11
-4.362694913
 21
16.2246922445
  0
LWPOLYLINE
  5
6F7
100
AcDbEntity
  8
IMPORT_IGES
100
AcDbPolyline
 62
253
  6
CONTINUOUS
 90
3
 70
0
 10
16.176977383
 20
17.695751757
 10
16.1735433498
 20
17.695515191
 10
16.1646511
 20
17.6951337651
  0
LINE
  5
6F8
100
AcDbEntity
  8
IMPORT_IGES
100
AcDbLine
 62
7
  6
CONTINUOUS
 10
-5.6896071381
 20
16.1945719063
 11
-5.7526158369
 21
16.1902590281
  0
LINE
  5
6F9
100
AcDbEntity
  8
IMPORT_IGES
100
AcDbLine
 62
7
  6
CONTINUOUS
 10
-5.7225852803
 20
16.3976824948
 11
-5.7658529406
 21
16.3951210563
  0
LINE
  5
6FA
100
AcDbEntity
  8
IMPORT_IGES
100
AcDbLine
 62
7
  6
CONTINUOUS
 10
-7.0868089736
 20
16.3976824948
 11
-7.1300766339
 21
16.3951210563
  0
LWPOLYLINE
  5
6FB
100
AcDbEntity
  8
IMPORT_IGES
100
AcDbPolyline
 62
253
  6
CONTINUOUS
 90
3
 70
0
 10
16.1646511
 20
17.6951337651
 10
16.1313325521
 20
17.6939749156
 10
15.1775479501
 20
17.6631655589
  0
LWPOLYLINE
  5
6FC
100
AcDbEntity
  8
IMPORT_IGES
100
AcDbPolyline
 62
253
  6
CONTINUOUS
 90
19
 70
0
 10
-25.2739903988
 20
16.1667464425
 10
-25.3558936418
 20
16.1657693824
 10
-25.4359097424
 20
16.1642345479
 10
-25.5135446872
 20
16.1621688625
 10
-25.5879742432
 20
16.1596162294
 10
-25.6591872517
 20
16.1565993418
 10
-25.7278492247
 20
16.153094676
 10
-25.7937559261
 20
16.1490992032
 10
-25.856128003
 20
16.1446459319
 10
-25.9146297303
 20
16.139745714
 10
-25.968876607
 20
16.1344116954
 10
-26.0182847216
 20
16.1286803868
 10
-26.0622676812
 20
16.1226040876
 10
-26.1004043882
 20
16.1162313141
 10
-26.1324411177
 20
16.109593266
 10
-26.1581191132
 20
16.1027229895
 10
-26.177163966
 20
16.0956621937
 10
-26.1893209504
 20
16.0884620907
 10
-26.1943951655
 20
16.0811728099
  0
LINE
  5
6FD
100
AcDbEntity
  8
IMPORT_IGES
100
AcDbLine
 62
7
  6
CONTINUOUS
 10
-7.1269320604
 20
16.1918443282
 11
-7.0677421659
 21
16.1923198411
  0
LINE
  5
6FE
100
AcDbEntity
  8
IMPORT_IGES
100
AcDbLine
 62
7
  6
CONTINUOUS
 10
-5.8152344975
 20
16.1917722825
 11
-5.7526294983
 21
16.1919820499
  0
LINE
  5
6FF
100
AcDbEntity
  8
IMPORT_IGES
100
AcDbLine
 62
7
  6
CONTINUOUS
 10
-3.2413037413
 20
16.2137196681
 11
-3.0214657413
 21
16.2137196681
  0
LINE
  5
700
100
AcDbEntity
  8
IMPORT_IGES
100
AcDbLine
 62
7
  6
CONTINUOUS
 10
-2.0512059175
 20
16.3423239914
 11
-2.0911288401
 21
16.3423958813
  0
LINE
  5
701
100
AcDbEntity
  8
IMPORT_IGES
100
AcDbLine
 62
7
  6
CONTINUOUS
 10
-4.454088017
 20
16.3971227523
 11
-4.4940109394
 21
16.3971946421
  0
LINE
  5
702
100
AcDbEntity
  8
IMPORT_IGES
100
AcDbLine
 62
7
  6
CONTINUOUS
 10
-2.1078076624
 20
17.0615452641
 11
-2.0643023599
 21
17.0614547318
  0
LINE
  5
703
100
AcDbEntity
  8
IMPORT_IGES
100
AcDbLine
 62
7
  6
CONTINUOUS
 10
-4.5106897494
 20
17.1163440276
 11
-4.4671844591
 21
17.1162534932
  0
LINE
  5
704
100
AcDbEntity
  8
IMPORT_IGES
100
AcDbLine
 62
7
  6
CONTINUOUS
 10
-7.1855450084
 20
16.1921148229
 11
-7.1269320604
 21
16.1918443282
  0
LINE
  5
705
100
AcDbEntity
  8
IMPORT_IGES
100
AcDbLine
 62
7
  6
CONTINUOUS
 10
-2.1274856676
 20
17.2299588277
 11
-2.1602638724
 21
17.2301156393
  0
LINE
  5
706
100
AcDbEntity
  8
IMPORT_IGES
100
AcDbLine
 62
7
  6
CONTINUOUS
 10
-4.5303677579
 20
17.2847575854
 11
-4.5631459339
 21
17.2849143958
  0
LINE
  5
707
100
AcDbEntity
  8
IMPORT_IGES
100
AcDbLine
 62
7
  6
CONTINUOUS
 10
-2.1038574272
 20
16.1609424777
 11
-2.0391764025
 21
16.160330029
  0
LINE
  5
708
100
AcDbEntity
  8
IMPORT_IGES
100
AcDbLine
 62
7
  6
CONTINUOUS
 10
-4.5067395265
 20
16.2157412385
 11
-4.4420585013
 21
16.2151287899
  0
LINE
  5
709
100
AcDbEntity
  8
IMPORT_IGES
100
AcDbLine
 62
253
  6
CONTINUOUS
 10
-14.8759454324
 20
17.6631655576
 11
-15.8753839944
 21
17.6954703835
  0
LINE
  5
70A
100
AcDbEntity
  8
IMPORT_IGES
100
AcDbLine
 62
7
  6
CONTINUOUS
 10
-4.4569770872
 20
17.8605384373
 11
-4.4571091052
 21
17.8605454844
  0
LINE
  5
70B
100
AcDbEntity
  8
IMPORT_IGES
100
AcDbLine
 62
7
  6
CONTINUOUS
 10
-2.0540949878
 20
17.8057396765
 11
-2.0542270058
 21
17.8057467236
  0
LINE
  5
70C
100
AcDbEntity
  8
IMPORT_IGES
100
AcDbLine
 62
7
  6
CONTINUOUS
 10
-4.6026745696
 20
17.2861680558
 11
-4.563151982
 21
17.2839960976
  0
LINE
  5
70D
100
AcDbEntity
  8
IMPORT_IGES
100
AcDbLine
 62
7
  6
CONTINUOUS
 10
-2.1997925384
 20
17.2313693025
 11
-2.1602699205
 21
17.2291973409
  0
LINE
  5
70E
100
AcDbEntity
  8
IMPORT_IGES
100
AcDbLine
 62
7
  6
CONTINUOUS
 10
-7.1300766339
 20
16.3951210563
 11
-7.172519204
 21
16.3977041244
  0
LINE
  5
70F
100
AcDbEntity
  8
IMPORT_IGES
100
AcDbLine
 62
7
  6
CONTINUOUS
 10
-5.7658529406
 20
16.3951210563
 11
-5.8082955107
 21
16.3977041244
  0
LINE
  5
710
100
AcDbEntity
  8
IMPORT_IGES
100
AcDbLine
 62
7
  6
CONTINUOUS
 10
-7.1084278312
 20
17.8259934013
 11
-7.0660155011
 21
17.8233571056
  0
LINE
  5
711
100
AcDbEntity
  8
IMPORT_IGES
100
AcDbLine
 62
7
  6
CONTINUOUS
 10
-5.7442041379
 20
17.8259934013
 11
-5.7017918078
 21
17.8233571056
  0
LINE
  5
712
100
AcDbEntity
  8
IMPORT_IGES
100
AcDbLine
 62
7
  6
CONTINUOUS
 10
-4.5067572679
 20
16.2141823274
 11
-4.5742174212
 21
16.2185858873
  0
LINE
  5
713
100
AcDbEntity
  8
IMPORT_IGES
100
AcDbLine
 62
7
  6
CONTINUOUS
 10
-2.1038751686
 20
16.1593835665
 11
-2.171335322
 21
16.1637871264
  0
LINE
  5
714
100
AcDbEntity
  8
IMPORT_IGES
100
AcDbLine
 62
7
  6
CONTINUOUS
 10
-4.4204111825
 20
17.1144165497
 11
-4.4671735389
 21
17.117598672
  0
LINE
  5
715
100
AcDbEntity
  8
IMPORT_IGES
100
AcDbLine
 62
7
  6
CONTINUOUS
 10
-2.017529078
 20
17.0596177902
 11
-2.0642914397
 21
17.0627999112
  0
LINE
  5
716
100
AcDbEntity
  8
IMPORT_IGES
100
AcDbLine
 62
7
  6
CONTINUOUS
 10
-4.5371429835
 20
16.3989682774
 11
-4.49401532
 21
16.3958396142
  0
LINE
  5
717
100
AcDbEntity
  8
IMPORT_IGES
100
AcDbLine
 62
7
  6
CONTINUOUS
 10
-2.1342608843
 20
16.3441695166
 11
-2.0911332207
 21
16.3410408534
  0
LINE
  5
718
100
AcDbEntity
  8
IMPORT_IGES
100
AcDbLine
 62
7
  6
CONTINUOUS
 10
-4.482332774
 20
18.0425527979
 11
-4.4165340175
 21
18.037163143
  0
LINE
  5
719
100
AcDbEntity
  8
IMPORT_IGES
100
AcDbLine
 62
7
  6
CONTINUOUS
 10
-2.0794506747
 20
17.9877540371
 11
-2.0136519182
 21
17.9823643821
  0
LINE
  5
71A
100
AcDbEntity
  8
IMPORT_IGES
100
AcDbLine
 62
7
  6
CONTINUOUS
 10
-6.9927067226
 20
18.0162555338
 11
-7.0652498213
 21
18.0265519219
  0
LINE
  5
71B
100
AcDbEntity
  8
IMPORT_IGES
100
AcDbLine
 62
7
  6
CONTINUOUS
 10
-5.6291363288
 20
18.016376964
 11
-5.6987024119
 21
18.0263951921
  0
LINE
  5
71C
100
AcDbEntity
  8
IMPORT_IGES
100
AcDbLine
 62
7
  6
CONTINUOUS
 10
-4.4620636219
 20
17.8615641533
 11
-4.4138934179
 21
17.8534942759
  0
LINE
  5
71D
100
AcDbEntity
  8
IMPORT_IGES
100
AcDbLine
 62
7
  6
CONTINUOUS
 10
-2.0591815225
 20
17.8067653925
 11
-2.0110113186
 21
17.7986955151
  0
LINE
  5
71E
100
AcDbEntity
  8
IMPORT_IGES
100
AcDbLine
 62
7
  6
CONTINUOUS
 10
-7.0660155011
 20
17.8233571056
 11
-7.0266391048
 21
17.8167239927
  0
LINE
  5
71F
100
AcDbEntity
  8
IMPORT_IGES
100
AcDbLine
 62
7
  6
CONTINUOUS
 10
-5.7017918078
 20
17.8233571056
 11
-5.6624154115
 21
17.8167239926
  0
LINE
  5
720
100
AcDbEntity
  8
IMPORT_IGES
100
AcDbLine
 62
7
  6
CONTINUOUS
 10
-5.0386608449
 20
17.5792846865
 11
-4.818822855
 21
17.5402016883
  0
LINE
  5
721
100
AcDbEntity
  8
IMPORT_IGES
100
AcDbLine
 62
7
  6
CONTINUOUS
 10
-2.6357787909
 20
17.5244856769
 11
-2.4159407936
 21
17.4854026774
  0
LINE
  5
722
100
AcDbEntity
  8
IMPORT_IGES
100
AcDbLine
 62
7
  6
CONTINUOUS
 10
-2.2388885314
 20
16.1751613214
 11
-2.1664646121
 21
16.162153244
  0
LINE
  5
723
100
AcDbEntity
  8
IMPORT_IGES
100
AcDbLine
 62
7
  6
CONTINUOUS
 10
-4.3490011857
 20
18.0251621557
 11
-4.4165134261
 21
18.0374145301
  0
LINE
  5
724
100
AcDbEntity
  8
IMPORT_IGES
100
AcDbLine
 62
7
  6
CONTINUOUS
 10
-1.9461190864
 20
17.9703633949
 11
-2.0136313268
 21
17.9826157692
  0
LINE
  5
725
100
AcDbEntity
  8
IMPORT_IGES
100
AcDbLine
 62
7
  6
CONTINUOUS
 10
-4.4254893089
 20
17.1158320763
 11
-4.3707461106
 21
17.1051873782
  0
LINE
  5
726
100
AcDbEntity
  8
IMPORT_IGES
100
AcDbLine
 62
7
  6
CONTINUOUS
 10
-2.0226072045
 20
17.0610333165
 11
-1.9678640088
 21
17.0503886181
  0
LINE
  5
727
100
AcDbEntity
  8
IMPORT_IGES
100
AcDbLine
 62
7
  6
CONTINUOUS
 10
-2.1291842951
 20
16.3427411004
 11
-2.1812879145
 21
16.3533631806
  0
LINE
  5
728
100
AcDbEntity
  8
IMPORT_IGES
100
AcDbLine
 62
7
  6
CONTINUOUS
 10
-5.5688875207
 20
18.0019122019
 11
-5.6291363288
 21
18.016376964
  0
LINE
  5
729
100
AcDbEntity
  8
IMPORT_IGES
100
AcDbLine
 62
7
  6
CONTINUOUS
 10
-6.9321819017
 20
18.0016304933
 11
-6.9927067226
 21
18.0162555338
  0
LINE
  5
72A
100
AcDbEntity
  8
IMPORT_IGES
100
AcDbLine
 62
7
  6
CONTINUOUS
 10
-1.7667308552
 20
17.1451347266
 11
-1.8199352023
 21
17.1605311469
  0
LINE
  5
72B
100
AcDbEntity
  8
IMPORT_IGES
100
AcDbLine
 62
7
  6
CONTINUOUS
 10
-5.6624154115
 20
17.8167239926
 11
-5.6260749491
 21
17.8060940625
  0
LINE
  5
72C
100
AcDbEntity
  8
IMPORT_IGES
100
AcDbLine
 62
7
  6
CONTINUOUS
 10
-4.4138934179
 20
17.8534942759
 11
-4.3757659568
 21
17.8420803903
  0
LINE
  5
72D
100
AcDbEntity
  8
IMPORT_IGES
100
AcDbLine
 62
7
  6
CONTINUOUS
 10
-2.0110113186
 20
17.7986955151
 11
-1.9728838575
 21
17.7872816295
  0
LINE
  5
72E
100
AcDbEntity
  8
IMPORT_IGES
100
AcDbLine
 62
7
  6
CONTINUOUS
 10
-4.2892124124
 20
18.0066004546
 11
-4.3490011857
 21
18.0251621557
  0
LINE
  5
72F
100
AcDbEntity
  8
IMPORT_IGES
100
AcDbLine
 62
7
  6
CONTINUOUS
 10
-1.886330313
 20
17.9518016938
 11
-1.9461190864
 21
17.9703633949
  0
LINE
  5
730
100
AcDbEntity
  8
IMPORT_IGES
100
AcDbLine
 62
7
  6
CONTINUOUS
 10
-1.9678640088
 20
17.0503886181
 11
-1.9239905384
 21
17.035889303
  0
LINE
  5
731
100
AcDbEntity
  8
IMPORT_IGES
100
AcDbLine
 62
7
  6
CONTINUOUS
 10
-1.8302210184
 20
17.9270720911
 11
-1.886330313
 21
17.9518016938
  0
LWPOLYLINE
  5
732
100
AcDbEntity
  8
IMPORT_IGES
100
AcDbPolyline
 62
253
  6
CONTINUOUS
 90
15
 70
0
 10
16.3156597067
 20
7.3502994025
 10
16.3196912619
 20
7.3468077847
 10
16.3304508492
 20
7.3430915987
 10
16.3479369301
 20
7.3391790807
 10
16.3719387612
 20
7.3351152667
 10
16.4022506797
 20
7.3309241791
 10
16.4388962918
 20
7.3266013154
 10
16.4816234746
 20
7.3221788553
 10
16.5300427755
 20
7.3176943839
 10
16.5841746458
 20
7.3131454944
 10
16.6436289972
 20
7.3085667245
 10
16.7079130594
 20
7.3039945071
 10
16.7770452404
 20
7.2994272271
 10
16.8505030802
 20
7.294900911
 10
17.0087022058
 20
7.2860727377
  0
LINE
  5
733
100
AcDbEntity
  8
IMPORT_IGES
100
AcDbLine
 62
253
  6
CONTINUOUS
 10
16.3156726962
 20
7.3507268137
 11
16.1769722999
 21
7.486499216
  0
LINE
  5
734
100
AcDbEntity
  8
IMPORT_IGES
100
AcDbLine
 62
253
  6
CONTINUOUS
 10
22.0228275102
 20
-15.7369233322
 11
21.9587952824
 21
-15.571012299
  0
LINE
  5
735
100
AcDbEntity
  8
IMPORT_IGES
100
AcDbLine
 62
253
  6
CONTINUOUS
 10
22.082067079
 20
-15.8926471615
 11
22.0228275102
 21
-15.7369233322
  0
LINE
  5
736
100
AcDbEntity
  8
IMPORT_IGES
100
AcDbLine
 62
253
  6
CONTINUOUS
 10
22.1355250172
 20
-16.0355702437
 11
22.082067079
 21
-15.8926471615
  0
LWPOLYLINE
  5
737
100
AcDbEntity
  8
IMPORT_IGES
100
AcDbPolyline
 62
253
  6
CONTINUOUS
 90
6
 70
0
 10
20.0679428375
 20
-16.5578542823
 10
20.062295316
 20
-16.5355360908
 10
20.0547402305
 20
-16.5077034586
 10
20.0452729751
 20
-16.4744977595
 10
20.0338136479
 20
-16.4360548597
 10
20.0053123384
 20
-16.3441464569
  0
LINE
  5
738
100
AcDbEntity
  8
IMPORT_IGES
100
AcDbLine
 62
253
  6
CONTINUOUS
 10
20.0811210603
 20
-16.7300858578
 11
20.0916604336
 21
-16.8599691223
  0
LINE
  5
739
100
AcDbEntity
  8
IMPORT_IGES
100
AcDbLine
 62
253
  6
CONTINUOUS
 10
20.0679369246
 20
-16.5578388846
 11
20.0811210603
 21
-16.7300858578
  0
LWPOLYLINE
  5
73A
100
AcDbEntity
  8
IMPORT_IGES
100
AcDbPolyline
 62
253
  6
CONTINUOUS
 90
10
 70
0
 10
16.3213570926
 20
17.8378426802
 10
16.3548078586
 20
16.6733443503
 10
16.3797464915
 20
15.5084717644
 10
16.3961680631
 20
14.3432866649
 10
16.4040682589
 20
13.1778048851
 10
16.4034421916
 20
12.0121342566
 10
16.3942877899
 20
10.8464746043
 10
16.376605801
 20
9.6809338186
 10
16.3503964027
 20
8.5155278545
 10
16.3156603879
 20
7.3503186373
  0
LWPOLYLINE
  5
73B
100
AcDbEntity
  8
IMPORT_IGES
100
AcDbPolyline
 62
253
  6
CONTINUOUS
 90
10
 70
0
 10
17.5449959219
 20
7.262859056
 10
17.5798688496
 20
8.4304533193
 10
17.6061805302
 20
9.5979057057
 10
17.623932827
 20
10.7651659783
 10
17.633135361
 20
11.9322408456
 10
17.6337856167
 20
13.099022996
 10
17.6258691605
 20
14.2652913369
 10
17.6093860651
 20
15.430938888
 10
17.5843506915
 20
16.5959725457
 10
17.5507719453
 20
17.7603422834
  0
LWPOLYLINE
  5
73C
100
AcDbEntity
  8
IMPORT_IGES
100
AcDbPolyline
 62
253
  6
CONTINUOUS
 90
25
 70
0
 10
17.5449959219
 20
7.262859056
 10
17.5345865405
 20
7.1029743385
 10
17.5145899257
 20
6.9453400934
 10
17.4850058835
 20
6.7899566396
 10
17.4456618943
 20
6.6363818291
 10
17.3967299929
 20
6.4850583859
 10
17.338727026
 20
6.3373140193
 10
17.2714831782
 20
6.1928959263
 10
17.1951681603
 20
6.0520576025
 10
17.110808689
 20
5.9168864124
 10
17.0184075302
 20
5.787712279
 10
16.9179624756
 20
5.6642061065
 10
16.810493332
 20
5.5474668757
 10
16.6958267924
 20
5.4374309973
 10
16.5741368884
 20
5.3341627822
 10
16.4469648637
 20
5.2389531192
 10
16.3144494927
 20
5.1520043588
 10
16.1764529869
 20
5.0731147645
 10
16.034102082
 20
5.0029691109
 10
15.8875868344
 20
4.9415891619
 10
15.736718088
 20
4.8889535863
 10
15.5820539023
 20
4.8456824952
 10
15.4237805529
 20
4.8119826809
 10
15.2617124366
 20
4.7876476056
 10
15.0958497794
 20
4.7726773476
  0
LINE
  5
73D
100
AcDbEntity
  8
IMPORT_IGES
100
AcDbLine
 62
253
  6
CONTINUOUS
 10
20.0811186125
 20
19.1126141123
 11
20.0679800637
 21
18.9403562086
  0
LINE
  5
73E
100
AcDbEntity
  8
IMPORT_IGES
100
AcDbLine
 62
253
  6
CONTINUOUS
 10
20.0916856803
 20
19.2424752945
 11
20.0811186125
 21
19.1126141123
  0
LWPOLYLINE
  5
73F
100
AcDbEntity
  8
IMPORT_IGES
100
AcDbPolyline
 62
253
  6
CONTINUOUS
 90
9
 70
0
 10
22.2827839889
 20
18.8498103598
 10
22.2785185228
 20
18.8320668897
 10
22.271756093
 20
18.8081132816
 10
22.2625210522
 20
18.7780691657
 10
22.2509178103
 20
18.7422728984
 10
22.2370326466
 20
18.7009752967
 10
22.2208587746
 20
18.6541542836
 10
22.2025105381
 20
18.6021452662
 10
22.1821466222
 20
18.545394029
  0
LINE
  5
740
100
AcDbEntity
  8
IMPORT_IGES
100
AcDbLine
 62
7
  6
CONTINUOUS
 10
-7.253950024
 20
18.0158864362
 11
-7.3113827047
 21
18.0010034465
  0
LINE
  5
741
100
AcDbEntity
  8
IMPORT_IGES
100
AcDbLine
 62
7
  6
CONTINUOUS
 10
-4.627075898
 20
17.0931974301
 11
-4.5716071685
 21
17.1070331743
  0
LINE
  5
742
100
AcDbEntity
  8
IMPORT_IGES
100
AcDbLine
 62
7
  6
CONTINUOUS
 10
-5.8834934265
 20
18.0175782088
 11
-5.920069748
 21
18.0090077564
  0
LINE
  5
743
100
AcDbEntity
  8
IMPORT_IGES
100
AcDbLine
 62
7
  6
CONTINUOUS
 10
-2.2084137603
 20
17.9793772666
 11
-2.2688276763
 21
17.9653855514
  0
LINE
  5
744
100
AcDbEntity
  8
IMPORT_IGES
100
AcDbLine
 62
7
  6
CONTINUOUS
 10
-4.6112958596
 20
18.0341760274
 11
-4.6717097756
 21
18.0201843122
  0
LINE
  5
745
100
AcDbEntity
  8
IMPORT_IGES
100
AcDbLine
 62
7
  6
CONTINUOUS
 10
-4.4871276982
 20
17.2898914475
 11
-4.4443430437
 21
17.2995178751
  0
LINE
  5
746
100
AcDbEntity
  8
IMPORT_IGES
100
AcDbLine
 62
7
  6
CONTINUOUS
 10
-2.1760846054
 20
17.7978020227
 11
-2.1271806129
 21
17.8065087377
  0
LINE
  5
747
100
AcDbEntity
  8
IMPORT_IGES
100
AcDbLine
 62
7
  6
CONTINUOUS
 10
-4.5789667047
 20
17.8526007835
 11
-4.5300627121
 21
17.8613074986
  0
LINE
  5
748
100
AcDbEntity
  8
IMPORT_IGES
100
AcDbLine
 62
7
  6
CONTINUOUS
 10
-5.8325010242
 20
17.8167382627
 11
-5.7898989482
 21
17.8238586027
  0
LINE
  5
749
100
AcDbEntity
  8
IMPORT_IGES
100
AcDbLine
 62
7
  6
CONTINUOUS
 10
-7.1967247175
 20
17.8167382627
 11
-7.1541226415
 21
17.8238586027
  0
LINE
  5
74A
100
AcDbEntity
  8
IMPORT_IGES
100
AcDbLine
 62
7
  6
CONTINUOUS
 10
-5.8834677434
 20
18.0174125305
 11
-5.8451858408
 21
18.023346909
  0
LINE
  5
74B
100
AcDbEntity
  8
IMPORT_IGES
100
AcDbLine
 62
7
  6
CONTINUOUS
 10
-7.1848489071
 20
18.0264778621
 11
-7.253950024
 21
18.0158864362
  0
LINE
  5
74C
100
AcDbEntity
  8
IMPORT_IGES
100
AcDbLine
 62
7
  6
CONTINUOUS
 10
-2.1423722255
 20
17.9873098602
 11
-2.2084137603
 21
17.9793772666
  0
LINE
  5
74D
100
AcDbEntity
  8
IMPORT_IGES
100
AcDbLine
 62
7
  6
CONTINUOUS
 10
-4.5452543249
 20
18.042108621
 11
-4.6112958596
 21
18.0341760274
  0
LINE
  5
74E
100
AcDbEntity
  8
IMPORT_IGES
100
AcDbLine
 62
7
  6
CONTINUOUS
 10
-2.0932880245
 20
17.8078301872
 11
-2.1321201667
 21
17.8053449441
  0
LINE
  5
74F
100
AcDbEntity
  8
IMPORT_IGES
100
AcDbLine
 62
7
  6
CONTINUOUS
 10
-4.4961701237
 20
17.8626289481
 11
-4.5350022659
 21
17.8601437049
  0
LINE
  5
750
100
AcDbEntity
  8
IMPORT_IGES
100
AcDbLine
 62
253
  6
CONTINUOUS
 10
-14.7936754986
 20
19.0954344422
 11
-13.7163291853
 21
19.1508859012
  0
LINE
  5
751
100
AcDbEntity
  8
IMPORT_IGES
100
AcDbLine
 62
7
  6
CONTINUOUS
 10
-5.7898989482
 20
17.8238586027
 11
-5.7442041379
 21
17.8259934013
  0
LINE
  5
752
100
AcDbEntity
  8
IMPORT_IGES
100
AcDbLine
 62
7
  6
CONTINUOUS
 10
-7.1541226415
 20
17.8238586027
 11
-7.1084278312
 21
17.8259934013
  0
LINE
  5
753
100
AcDbEntity
  8
IMPORT_IGES
100
AcDbLine
 62
253
  6
CONTINUOUS
 10
-13.7163291853
 20
19.1508859012
 11
-12.5441336107
 21
19.2066863024
  0
LINE
  5
754
100
AcDbEntity
  8
IMPORT_IGES
100
AcDbLine
 62
7
  6
CONTINUOUS
 10
-5.804927129
 20
18.0263410716
 11
-5.8403078342
 21
18.0248386962
  0
LINE
  5
755
100
AcDbEntity
  8
IMPORT_IGES
100
AcDbLine
 62
253
  6
CONTINUOUS
 10
-12.5441336107
 20
19.2066863024
 11
-11.2755200499
 21
19.2616844252
  0
LWPOLYLINE
  5
756
100
AcDbEntity
  8
IMPORT_IGES
100
AcDbPolyline
 62
253
  6
CONTINUOUS
 90
3
 70
0
 10
-11.2755200499
 20
19.2616844252
 10
-9.9043334183
 20
19.3147595271
 10
-9.1806488627
 20
19.3400893614
  0
LWPOLYLINE
  5
757
100
AcDbEntity
  8
IMPORT_IGES
100
AcDbPolyline
 62
253
  6
CONTINUOUS
 90
10
 70
0
 10
-9.1806488627
 20
19.3400893614
 10
-8.144193548
 20
19.3730866332
 10
-7.1076051271
 20
19.4022035881
 10
-6.0708980291
 20
19.4274396272
 10
-5.0340782737
 20
19.4487943631
 10
-3.9971687062
 20
19.4662670816
 10
-2.960209003
 20
19.4798570588
 10
-1.9232220196
 20
19.489564131
 10
-0.8862137852
 20
19.4953883777
 10
0.1508012587
 20
19.4973298054
  0
LINE
  5
758
100
AcDbEntity
  8
IMPORT_IGES
100
AcDbLine
 62
7
  6
CONTINUOUS
 10
-5.7627083436
 20
18.0271438371
 11
-5.804927129
 21
18.0263410716
  0
LINE
  5
759
100
AcDbEntity
  8
IMPORT_IGES
100
AcDbLine
 62
7
  6
CONTINUOUS
 10
-7.1269382121
 20
18.0268708344
 11
-7.1848489071
 21
18.0264778621
  0
LINE
  5
75A
100
AcDbEntity
  8
IMPORT_IGES
100
AcDbLine
 62
7
  6
CONTINUOUS
 10
-2.0794663328
 20
17.9874342159
 11
-2.1423722255
 21
17.9873098602
  0
LINE
  5
75B
100
AcDbEntity
  8
IMPORT_IGES
100
AcDbLine
 62
7
  6
CONTINUOUS
 10
-4.4823484321
 20
18.0422329767
 11
-4.5452543249
 21
18.042108621
  0
LINE
  5
75C
100
AcDbEntity
  8
IMPORT_IGES
100
AcDbLine
 62
7
  6
CONTINUOUS
 10
-2.0932794199
 20
17.8067086727
 11
-2.0591815225
 21
17.8067653925
  0
LINE
  5
75D
100
AcDbEntity
  8
IMPORT_IGES
100
AcDbLine
 62
7
  6
CONTINUOUS
 10
-4.4961615191
 20
17.8615074336
 11
-4.4620636219
 21
17.8615641533
  0
LINE
  5
75E
100
AcDbEntity
  8
IMPORT_IGES
100
AcDbLine
 62
7
  6
CONTINUOUS
 10
-3.0214657413
 20
18.0115056681
 11
-3.1631397886
 21
18.0115056681
  0
LWPOLYLINE
  5
75F
100
AcDbEntity
  8
IMPORT_IGES
100
AcDbPolyline
 62
253
  6
CONTINUOUS
 90
10
 70
0
 10
0.1508012587
 20
19.4973298054
 10
1.1878213021
 20
19.4953883631
 10
2.224834536
 20
19.489564064
 10
3.2618265184
 20
19.4798569016
 10
4.2987912201
 20
19.4662667965
 10
5.3357057854
 20
19.4487939122
 10
6.3725305375
 20
19.4274389729
 10
7.4092426311
 20
19.4022026925
 10
8.4458360459
 20
19.3730854586
 10
9.482296353
 20
19.3400878701
  0
LINE
  5
760
100
AcDbEntity
  8
IMPORT_IGES
100
AcDbLine
 62
7
  6
CONTINUOUS
 10
-7.0652498213
 20
18.0265519219
 11
-7.1269382121
 21
18.0268708344
  0
LWPOLYLINE
  5
761
100
AcDbEntity
  8
IMPORT_IGES
100
AcDbPolyline
 62
253
  6
CONTINUOUS
 90
22
 70
0
 10
19.7157158118
 20
17.8700146679
 10
19.8076427439
 20
17.8690344236
 10
19.8987211434
 20
17.8674454966
 10
19.9884907907
 20
17.8652556622
 10
20.0765016943
 20
17.8624755976
 10
20.1623043807
 20
17.8591191943
 10
20.2454532545
 20
17.8552037483
 10
20.3255246477
 20
17.8507492564
 10
20.4021178399
 20
17.8457780592
 10
20.4748458636
 20
17.8403152725
 10
20.5433412794
 20
17.8343884957
 10
20.6072580319
 20
17.8280276721
 10
20.6662731981
 20
17.8212649382
 10
20.7200886192
 20
17.814134461
 10
20.7684324067
 20
17.8066722654
 10
20.811060316
 20
17.7989160523
 10
20.8477569722
 20
17.7909050098
 10
20.8783369865
 20
17.7826796098
 10
20.9026458773
 20
17.7742814026
 10
20.9205608193
 20
17.7657528155
 10
20.9319912804
 20
17.7571369389
 10
20.9368794959
 20
17.7484773025
  0
LINE
  5
762
100
AcDbEntity
  8
IMPORT_IGES
100
AcDbLine
 62
7
  6
CONTINUOUS
 10
-5.6987024119
 20
18.0263951921
 11
-5.7627083436
 21
18.0271438371
  0
LINE
  5
763
100
AcDbEntity
  8
IMPORT_IGES
100
AcDbLine
 62
253
  6
CONTINUOUS
 10
9.482296353
 20
19.3400878701
 11
10.207113511
 21
19.3147169386
  0
LINE
  5
764
100
AcDbEntity
  8
IMPORT_IGES
100
AcDbLine
 62
253
  6
CONTINUOUS
 10
10.207113511
 20
19.3147169386
 11
11.5795061613
 21
19.2615863856
  0
LINE
  5
765
100
AcDbEntity
  8
IMPORT_IGES
100
AcDbLine
 62
253
  6
CONTINUOUS
 10
11.5795061613
 20
19.2615863856
 11
12.8477330368
 21
19.2065952643
  0
LINE
  5
766
100
AcDbEntity
  8
IMPORT_IGES
100
AcDbLine
 62
253
  6
CONTINUOUS
 10
12.8477330368
 20
19.2065952643
 11
14.0190366626
 21
19.1508309713
  0
LINE
  5
767
100
AcDbEntity
  8
IMPORT_IGES
100
AcDbLine
 62
253
  6
CONTINUOUS
 10
14.0190366626
 20
19.1508309713
 11
15.0952576371
 21
19.0954354509
  0
LWPOLYLINE
  5
768
100
AcDbEntity
  8
IMPORT_IGES
100
AcDbPolyline
 62
253
  6
CONTINUOUS
 90
10
 70
0
 10
9.4823230992
 20
19.3400874214
 10
9.4801761989
 20
19.3440340755
 10
9.4782417841
 20
19.3542096976
 10
9.4765372723
 20
19.3706093411
 10
9.4750802107
 20
19.3930535753
 10
9.4738754749
 20
19.4213685374
 10
9.47292153
 20
19.4555700609
 10
9.4722259243
 20
19.4954386029
 10
9.4717928702
 20
19.5406432608
 10
9.4716219051
 20
19.5911984212
  0
LWPOLYLINE
  5
769
100
AcDbEntity
  8
IMPORT_IGES
100
AcDbPolyline
 62
253
  6
CONTINUOUS
 90
10
 70
0
 10
22.2827856378
 20
-16.4672968534
 10
22.2785201106
 20
-16.4495532402
 10
22.27175761
 20
-16.425599606
 10
22.2625225207
 20
-16.3955555863
 10
22.2509192341
 20
-16.3597593365
 10
22.2370339801
 20
-16.318461555
 10
22.2208600004
 20
-16.2716403897
 10
22.2025116972
 20
-16.2196313122
 10
22.1821476915
 20
-16.1628798738
 10
22.1355250172
 20
-16.0355702437
  0
LWPOLYLINE
  5
76A
100
AcDbEntity
  8
IMPORT_IGES
100
AcDbPolyline
 62
253
  6
CONTINUOUS
 90
25
 70
0
 10
20.9600129361
 20
-15.6610945774
 10
20.9639692621
 20
-15.703154233
 10
20.9726713067
 20
-15.7387447779
 10
20.9854866614
 20
-15.7681849145
 10
21.0014988904
 20
-15.7915640813
 10
21.0201825471
 20
-15.8098216813
 10
21.0420355179
 20
-15.8240714492
 10
21.0670816445
 20
-15.8343690516
 10
21.0949852966
 20
-15.8406728213
 10
21.1264912573
 20
-15.8430711794
 10
21.1619760489
 20
-15.8412299507
 10
21.2011432213
 20
-15.8349157452
 10
21.2439673312
 20
-15.8240437924
 10
21.2916841109
 20
-15.8079857976
 10
21.3429712257
 20
-15.7868287417
 10
21.3932968928
 20
-15.7627553
 10
21.4386075254
 20
-15.7386996694
 10
21.4815459855
 20
-15.713999825
 10
21.5275915452
 20
-15.6854398886
 10
21.5781389639
 20
-15.6517127442
 10
21.6317113132
 20
-15.6135752557
 10
21.6898818852
 20
-15.5697293013
 10
21.7530824489
 20
-15.5194238841
 10
21.8205053863
 20
-15.4627676532
 10
21.891785934
 20
-15.3996177147
  0
LINE
  5
76B
100
AcDbEntity
  8
IMPORT_IGES
100
AcDbLine
 62
253
  6
CONTINUOUS
 10
20.9600152399
 20
-15.6611409399
 11
20.9497146081
 21
-15.5342304795
  0
LINE
  5
76C
100
AcDbEntity
  8
IMPORT_IGES
100
AcDbLine
 62
253
  6
CONTINUOUS
 10
20.9497146081
 20
-15.5342304795
 11
20.9368788285
 21
-15.3659650011
  0
LINE
  5
76D
100
AcDbEntity
  8
IMPORT_IGES
100
AcDbLine
 62
253
  6
CONTINUOUS
 10
20.9368788285
 20
-15.3659650011
 11
20.9293367811
 21
-9.8550337188
  0
LINE
  5
76E
100
AcDbEntity
  8
IMPORT_IGES
100
AcDbLine
 62
253
  6
CONTINUOUS
 10
19.705458798
 20
-7.1573870646
 11
19.7157139874
 21
-15.4876010326
  0
LINE
  5
76F
100
AcDbEntity
  8
IMPORT_IGES
100
AcDbLine
 62
253
  6
CONTINUOUS
 10
20.9489429002
 20
-6.6828488838
 11
20.9600152399
 21
-15.6611409399
  0
LINE
  5
770
100
AcDbEntity
  8
IMPORT_IGES
100
AcDbLine
 62
253
  6
CONTINUOUS
 10
20.9293367811
 20
-9.8550337188
 11
20.9248102618
 21
-4.3352814441
  0
LINE
  5
771
100
AcDbEntity
  8
IMPORT_IGES
100
AcDbLine
 62
253
  6
CONTINUOUS
 10
19.7020385102
 20
1.1912069144
 11
19.705458798
 21
-7.1573870646
  0
LINE
  5
772
100
AcDbEntity
  8
IMPORT_IGES
100
AcDbLine
 62
253
  6
CONTINUOUS
 10
20.9248102618
 20
-4.3352814441
 11
20.9233001107
 21
1.1912562125
  0
LINE
  5
773
100
AcDbEntity
  8
IMPORT_IGES
100
AcDbLine
 62
253
  6
CONTINUOUS
 10
20.9459206701
 20
2.3166041416
 11
20.9489429002
 21
-6.6828488838
  0
LINE
  5
774
100
AcDbEntity
  8
IMPORT_IGES
100
AcDbLine
 62
253
  6
CONTINUOUS
 10
20.9233001107
 20
1.1912562125
 11
20.9248102475
 21
6.7177938834
  0
LINE
  5
775
100
AcDbEntity
  8
IMPORT_IGES
100
AcDbLine
 62
253
  6
CONTINUOUS
 10
19.7054598508
 20
9.5398012624
 11
19.7020385102
 21
1.1912069144
  0
LINE
  5
776
100
AcDbEntity
  8
IMPORT_IGES
100
AcDbLine
 62
253
  6
CONTINUOUS
 10
20.9509568495
 20
11.3127187241
 11
20.9459206701
 21
2.3166041416
  0
LINE
  5
777
100
AcDbEntity
  8
IMPORT_IGES
100
AcDbLine
 62
253
  6
CONTINUOUS
 10
20.9248102475
 20
6.7177938834
 11
20.9293367524
 21
12.237546191
  0
LINE
  5
778
100
AcDbEntity
  8
IMPORT_IGES
100
AcDbLine
 62
253
  6
CONTINUOUS
 10
19.7156035627
 20
17.8700190234
 11
19.7054598508
 21
9.5398012624
  0
LINE
  5
779
100
AcDbEntity
  8
IMPORT_IGES
100
AcDbLine
 62
253
  6
CONTINUOUS
 10
20.9293367524
 20
12.237546191
 11
20.9368787855
 21
17.7484775224
  0
LINE
  5
77A
100
AcDbEntity
  8
IMPORT_IGES
100
AcDbLine
 62
253
  6
CONTINUOUS
 10
20.9600151952
 20
18.0436530125
 11
20.9509568495
 21
11.3127187241
  0
LINE
  5
77B
100
AcDbEntity
  8
IMPORT_IGES
100
AcDbLine
 62
253
  6
CONTINUOUS
 10
20.9368787855
 20
17.7484775224
 11
20.9497158052
 21
17.9167586454
  0
LINE
  5
77C
100
AcDbEntity
  8
IMPORT_IGES
100
AcDbLine
 62
253
  6
CONTINUOUS
 10
20.9497158052
 20
17.9167586454
 11
20.9600151952
 21
18.0436530125
  0
LWPOLYLINE
  5
77D
100
AcDbEntity
  8
IMPORT_IGES
100
AcDbPolyline
 62
253
  6
CONTINUOUS
 90
5
 70
0
 10
25.9006701249
 20
17.1520709849
 10
25.9112805793
 20
17.1883780756
 10
25.9196399518
 20
17.218472168
 10
25.9258323963
 20
17.2423691247
 10
25.9298569754
 20
17.2600082823
  0
LWPOLYLINE
  5
77E
100
AcDbEntity
  8
IMPORT_IGES
100
AcDbPolyline
 62
253
  6
CONTINUOUS
 90
3
 70
0
 10
25.8565111114
 20
17.0082536431
 10
25.8731680994
 20
17.061588485
 10
25.9006701249
 20
17.1520709849
  0
LINE
  5
77F
100
AcDbEntity
  8
IMPORT_IGES
100
AcDbLine
 62
253
  6
CONTINUOUS
 10
25.8176264188
 20
16.8866304612
 11
25.8565111114
 21
17.0082536431
  0
LINE
  5
780
100
AcDbEntity
  8
IMPORT_IGES
100
AcDbLine
 62
253
  6
CONTINUOUS
 10
25.771932006
 20
16.7468705301
 11
25.8176264188
 21
16.8866304612
  0
LINE
  5
781
100
AcDbEntity
  8
IMPORT_IGES
100
AcDbLine
 62
253
  6
CONTINUOUS
 10
25.7209258343
 20
16.5933910469
 11
25.771932006
 21
16.7468705301
  0
LWPOLYLINE
  5
782
100
AcDbEntity
  8
IMPORT_IGES
100
AcDbPolyline
 62
253
  6
CONTINUOUS
 90
3
 70
0
 10
25.575523563
 20
16.1667463301
 10
25.6063160039
 20
16.2557237028
 10
25.7209258343
 20
16.5933910469
  0
LWPOLYLINE
  5
783
100
AcDbEntity
  8
IMPORT_IGES
100
AcDbPolyline
 62
253
  6
CONTINUOUS
 90
13
 70
0
 10
-14.6907268673
 20
19.8104535608
 10
-14.9269239423
 20
19.767698416
 10
-15.1573420547
 20
19.7147433233
 10
-15.3819002021
 20
19.651748861
 10
-15.600193551
 20
19.5788852559
 10
-15.8123665787
 20
19.4959620114
 10
-16.0191102535
 20
19.40243873
 10
-16.2234749689
 20
19.2965591787
 10
-16.4219746424
 20
19.1796529861
 10
-16.605586696
 20
19.0559959852
 10
-16.7713416645
 20
18.9272944444
 10
-16.9222450726
 20
18.792597782
 10
-17.0584541789
 20
18.6526929167
  0
LWPOLYLINE
  5
784
100
AcDbEntity
  8
IMPORT_IGES
100
AcDbPolyline
 62
253
  6
CONTINUOUS
 90
13
 70
0
 10
-9.1875391993
 20
20.4985669185
 10
-7.6395995476
 20
20.7287275478
 10
-6.0883148326
 20
20.9170561653
 10
-4.5336596379
 20
21.0635672895
 10
-2.9744418093
 20
21.1683210778
 10
-1.4117953638
 20
21.2312771053
 10
0.1508189083
 20
21.2522942965
 10
1.7134331742
 20
21.2312769432
 10
3.2760796045
 20
21.1683207536
 10
4.835297413
 20
21.0635668034
 10
6.3899525844
 20
20.9170555179
 10
7.9412372714
 20
20.7287267393
 10
9.4891768902
 20
20.4985659491
  0
LWPOLYLINE
  5
785
100
AcDbEntity
  8
IMPORT_IGES
100
AcDbPolyline
 62
253
  6
CONTINUOUS
 90
10
 70
0
 10
-9.1887699278
 20
20.4984560575
 10
-9.8449103485
 20
20.4327292821
 10
-10.4899777344
 20
20.3637045002
 10
-11.1239832805
 20
20.2916823106
 10
-11.7471057712
 20
20.2168741759
 10
-12.3591695044
 20
20.1395604689
 10
-12.9596458082
 20
20.0601053604
 10
-13.5483412468
 20
19.9787287047
 10
-14.1253889918
 20
19.8954879266
 10
-14.6907268673
 20
19.8104535608
  0
LWPOLYLINE
  5
786
100
AcDbEntity
  8
IMPORT_IGES
100
AcDbPolyline
 62
253
  6
CONTINUOUS
 90
19
 70
0
 10
-14.7934178696
 20
19.0954450599
 10
-14.8671990718
 20
19.0895034192
 10
-14.9423405325
 20
19.0790312873
 10
-15.018540962
 20
19.0637372716
 10
-15.0959877132
 20
19.0431872768
 10
-15.1737553432
 20
19.0172137507
 10
-15.2499145166
 20
18.9862475825
 10
-15.3235026954
 20
18.9506953406
 10
-15.3948847496
 20
18.9104119973
 10
-15.4641786719
 20
18.8652439788
 10
-15.5315613781
 20
18.8148197998
 10
-15.5960760986
 20
18.7595951506
 10
-15.6562875397
 20
18.7008493868
 10
-15.7114590595
 20
18.6396439872
 10
-15.7621626223
 20
18.5757090637
 10
-15.8089922577
 20
18.5084203663
 10
-15.8519076281
 20
18.4376676633
 10
-15.8904299814
 20
18.3640098452
 10
-15.9243395114
 20
18.2877143725
  0
LWPOLYLINE
  5
787
100
AcDbEntity
  8
IMPORT_IGES
100
AcDbPolyline
 62
253
  6
CONTINUOUS
 90
10
 70
0
 10
9.4891768902
 20
20.4985659491
 10
7.4146202144
 20
20.5604928228
 10
5.3396840405
 20
20.6069364556
 10
3.2644221079
 20
20.6378981738
 10
1.1887596221
 20
20.6533788645
 10
-0.8871218732
 20
20.6533789723
 10
-2.9627843647
 20
20.637898497
 10
-5.038046309
 20
20.6069369942
 10
-7.1129825003
 20
20.5604935768
 10
-9.1875391993
 20
20.4985669185
  0
LWPOLYLINE
  5
788
100
AcDbEntity
  8
IMPORT_IGES
100
AcDbPolyline
 62
253
  6
CONTINUOUS
 90
19
 70
0
 10
15.095009807
 20
19.0954455437
 10
15.1675041966
 20
19.0896454652
 10
15.241403616
 20
19.0794600829
 10
15.3164200199
 20
19.0645973176
 10
15.3929572916
 20
19.0445627678
 10
15.4698939121
 20
19.0192193658
 10
15.5447297983
 20
18.9892396857
 10
15.616026779
 20
18.9553977429
 10
15.6847894561
 20
18.9174301172
 10
15.7521905503
 20
18.8746100314
 10
15.8186801592
 20
18.826244125
 10
15.8829388322
 20
18.7728672684
 10
15.9434991618
 20
18.7155979614
 10
15.9992494609
 20
18.6557119944
 10
16.0510059247
 20
18.5925806195
 10
16.1000357502
 20
18.5244013867
 10
16.1462014494
 20
18.450471804
 10
16.188374905
 20
18.3715346582
 10
16.22593326
 20
18.2877359994
  0
LWPOLYLINE
  5
789
100
AcDbEntity
  8
IMPORT_IGES
100
AcDbPolyline
 62
253
  6
CONTINUOUS
 90
22
 70
0
 10
14.9479896829
 20
18.9515275838
 10
15.0395511879
 20
18.943310973
 10
15.1302874162
 20
18.9286472131
 10
15.2197453266
 20
18.9076129998
 10
15.3074817259
 20
18.880315722
 10
15.3930561337
 20
18.8468956572
 10
15.4760337878
 20
18.8075273687
 10
15.5559951808
 20
18.7624170169
 10
15.6325524816
 20
18.7117907933
 10
15.7053404577
 20
18.6558945875
 10
15.773997489
 20
18.5950083806
 10
15.8381826393
 20
18.5294369454
 10
15.8975881029
 20
18.4594947323
 10
15.9519164563
 20
18.3855291092
 10
16.0008955047
 20
18.3079075924
 10
16.0442872147
 20
18.2270005801
 10
16.0818754348
 20
18.1431964475
 10
16.1134606997
 20
18.0569229887
 10
16.1388744509
 20
17.9686318512
 10
16.1579878675
 20
17.8787715421
 10
16.1707073506
 20
17.7877833408
 10
16.1769688152
 20
17.6961216172
  0
LWPOLYLINE
  5
78A
100
AcDbEntity
  8
IMPORT_IGES
100
AcDbPolyline
 62
253
  6
CONTINUOUS
 90
10
 70
0
 10
14.9922911206
 20
19.8104660242
 10
14.4270219023
 20
19.8954902872
 10
13.8500338443
 20
19.9787194918
 10
13.2613836712
 20
20.0600880371
 10
12.660933233
 20
20.1395394684
 10
12.0488764417
 20
20.2168529581
 10
11.4257458598
 20
20.2916641559
 10
10.79171738
 20
20.3636918141
 10
10.1466087335
 20
20.4327226949
 10
9.4904068654
 20
20.4984546768
  0
LWPOLYLINE
  5
78B
100
AcDbEntity
  8
IMPORT_IGES
100
AcDbPolyline
 62
253
  6
CONTINUOUS
 90
16
 70
0
 10
14.9922911229
 20
19.8104660318
 10
15.1801286433
 20
19.7778220017
 10
15.3648999249
 20
19.7380036931
 10
15.5454068041
 20
19.6914184307
 10
15.7185616861
 20
19.639847527
 10
15.886864348
 20
19.583932286
 10
16.0565688291
 20
19.5200958432
 10
16.2287537084
 20
19.4460945679
 10
16.3996708291
 20
19.3633050966
 10
16.5663864505
 20
19.2725206532
 10
16.732381271
 20
19.1738639155
 10
16.8932740199
 20
19.0680533962
 10
17.0356486928
 20
18.960150486
 10
17.1571110142
 20
18.8544587543
 10
17.2645939093
 20
18.751521377
 10
17.3600567494
 20
18.6527048349
  0
LWPOLYLINE
  5
78C
100
AcDbEntity
  8
IMPORT_IGES
100
AcDbPolyline
 62
253
  6
CONTINUOUS
 90
10
 70
0
 10
16.22593326
 20
18.2877359994
 10
16.2442937257
 20
18.2399809154
 10
16.2607760967
 20
18.1914924919
 10
16.275349653
 20
18.1423440204
 10
16.287983188
 20
18.09262388
 10
16.2986561589
 20
18.0423944606
 10
16.3073532683
 20
17.9916908779
 10
16.3140522031
 20
17.9405764178
 10
16.318729185
 20
17.8891435999
 10
16.3213662976
 20
17.8374722738
  0
LINE
  5
78D
100
AcDbEntity
  8
IMPORT_IGES
100
AcDbLine
 62
253
  6
CONTINUOUS
 10
25.6386907158
 20
-13.967935212
 11
25.5755318308
 21
-13.7842321653
  0
LINE
  5
78E
100
AcDbEntity
  8
IMPORT_IGES
100
AcDbLine
 62
253
  6
CONTINUOUS
 10
25.7229555413
 20
-14.2169908475
 11
25.6386907158
 21
-13.967935212
  0
LWPOLYLINE
  5
78F
100
AcDbEntity
  8
IMPORT_IGES
100
AcDbPolyline
 62
253
  6
CONTINUOUS
 90
3
 70
0
 10
25.8200028861
 20
-14.5110224935
 10
25.7977381741
 20
-14.4426417816
 10
25.7229555413
 20
-14.2169908475
  0
LINE
  5
790
100
AcDbEntity
  8
IMPORT_IGES
100
AcDbLine
 62
253
  6
CONTINUOUS
 10
25.8586947111
 20
-14.6331219706
 11
25.8200028861
 21
-14.5110224935
  0
LWPOLYLINE
  5
791
100
AcDbEntity
  8
IMPORT_IGES
100
AcDbPolyline
 62
253
  6
CONTINUOUS
 90
19
 70
0
 10
20.9368790757
 20
17.748477628
 10
20.9334948512
 20
17.8347843883
 10
20.9240699852
 20
17.9206889958
 10
20.9086483964
 20
18.0057911795
 10
20.8873019472
 20
18.0896944018
 10
20.8601301037
 20
18.172007724
 10
20.8272594688
 20
18.2523476269
 10
20.7888431996
 20
18.330339774
 10
20.745060298
 20
18.4056207563
 10
20.6961147697
 20
18.4778398037
 10
20.6422346755
 20
18.5466604129
 10
20.5836710686
 20
18.6117619154
 10
20.520696825
 20
18.6728409722
 10
20.4536035047
 20
18.7296144612
 10
20.3827053895
 20
18.7818161255
 10
20.3083390106
 20
18.8291990765
 10
20.230853777
 20
18.8715426805
 10
20.1506093633
 20
18.9086522982
 10
20.0679801123
 20
18.9403563956
  0
LWPOLYLINE
  5
792
100
AcDbEntity
  8
IMPORT_IGES
100
AcDbPolyline
 62
253
  6
CONTINUOUS
 90
19
 70
0
 10
20.9600125978
 20
18.0436243161
 10
20.9566180672
 20
18.1311134454
 10
20.9471829679
 20
18.217534669
 10
20.9318883908
 20
18.3024989761
 10
20.9110271471
 20
18.3853346705
 10
20.8847789285
 20
18.4660142951
 10
20.8530031868
 20
18.5450922693
 10
20.8156641785
 20
18.6224290204
 10
20.7729663326
 20
18.6974045367
 10
20.7249561865
 20
18.7697842125
 10
20.671695392
 20
18.8392841889
 10
20.61342229
 20
18.9054192268
 10
20.5504970011
 20
18.9676726306
 10
20.4832467418
 20
19.025663207
 10
20.4118991934
 20
19.0791406243
 10
20.3367311555
 20
19.1278305932
 10
20.25805952
 20
19.1714578675
 10
20.1762454155
 20
19.2097548896
 10
20.0916607867
 20
19.2424838711
  0
LINE
  5
793
100
AcDbEntity
  8
IMPORT_IGES
100
AcDbLine
 62
253
  6
CONTINUOUS
 10
21.8917861443
 20
-15.3996180085
 11
21.8840591828
 21
-9.8786222015
  0
LINE
  5
794
100
AcDbEntity
  8
IMPORT_IGES
100
AcDbLine
 62
253
  6
CONTINUOUS
 10
21.8840591828
 20
-9.8786222015
 11
21.8794006427
 21
-4.3464789479
  0
LINE
  5
795
100
AcDbEntity
  8
IMPORT_IGES
100
AcDbLine
 62
253
  6
CONTINUOUS
 10
21.8794006427
 20
-4.3464789479
 11
21.8778567974
 21
1.191257526
  0
LINE
  5
796
100
AcDbEntity
  8
IMPORT_IGES
100
AcDbLine
 62
253
  6
CONTINUOUS
 10
21.8778567974
 20
1.191257526
 11
21.8794008931
 21
6.7289962215
  0
LINE
  5
797
100
AcDbEntity
  8
IMPORT_IGES
100
AcDbLine
 62
253
  6
CONTINUOUS
 10
21.8794008931
 20
6.7289962215
 11
21.8840596771
 21
12.2611409525
  0
LINE
  5
798
100
AcDbEntity
  8
IMPORT_IGES
100
AcDbLine
 62
253
  6
CONTINUOUS
 10
21.8840596771
 20
12.2611409525
 11
21.8917868875
 21
17.7821363855
  0
LWPOLYLINE
  5
799
100
AcDbEntity
  8
IMPORT_IGES
100
AcDbPolyline
 62
253
  6
CONTINUOUS
 90
19
 70
0
 10
20.9368788268
 20
-15.3659649903
 10
20.93349473
 20
-15.4522679164
 10
20.9240705149
 20
-15.5381687039
 10
20.9086500918
 20
-15.623267173
 10
20.8873053129
 20
-15.707166889
 10
20.8601356245
 20
-15.7894769966
 10
20.8272675909
 20
-15.8698139876
 10
20.7888543233
 20
-15.9478035349
 10
20.7450747943
 20
-16.0230822725
 10
20.696132989
 20
-16.0952994485
 10
20.6422569335
 20
-16.1641185937
 10
20.5836976365
 20
-16.2292190695
 10
20.5207279435
 20
-16.2902975556
 10
20.4536423727
 20
-16.3470685858
 10
20.3827524729
 20
-16.3992687043
 10
20.3083847849
 20
-16.4466569215
 10
20.2308840401
 20
-16.4890123639
 10
20.1506121492
 20
-16.5261360829
 10
20.0679428375
 20
-16.5578542823
  0
LWPOLYLINE
  5
79A
100
AcDbEntity
  8
IMPORT_IGES
100
AcDbPolyline
 62
7
  6
CONTINUOUS
 90
9
 70
0
 10
26.649055752
 20
14.289843992
 10
26.6454449413
 20
14.2780261508
 10
26.6418761054
 20
14.254704631
 10
26.6383492441
 20
14.2198794327
 10
26.6348533119
 20
14.17335289
 10
26.6313993544
 20
14.1153226688
 10
26.6280205085
 20
14.0463817661
 10
26.6247175106
 20
13.9664287983
 10
26.6214896244
 20
13.8755651492
  0
LWPOLYLINE
  5
79B
100
AcDbEntity
  8
IMPORT_IGES
100
AcDbPolyline
 62
253
  6
CONTINUOUS
 90
28
 70
0
 10
19.7157139874
 20
-15.4876010326
 10
18.3136114655
 20
-15.966727093
 10
16.90204963
 20
-16.4096468656
 10
15.4810354831
 20
-16.8163840015
 10
14.0496396416
 20
-17.1872153473
 10
12.608790672
 20
-17.5219081943
 10
11.1612752329
 20
-17.8197205485
 10
9.7071374291
 20
-18.0805477135
 10
8.2463069269
 20
-18.3045302287
 10
6.7813929644
 20
-18.4912917328
 10
5.3122967789
 20
-18.6407905855
 10
3.8390732344
 20
-18.7530915681
 10
2.3645583964
 20
-18.8279745971
 10
0.8887653169
 20
-18.8653677623
 10
-0.588372188
 20
-18.8653509765
 10
-2.0641381719
 20
-18.8279279931
 10
-3.5385872887
 20
-18.7530217372
 10
-5.0117180049
 20
-18.6407012784
 10
-6.4807288177
 20
-18.4911856885
 10
-7.9455889721
 20
-18.3044082212
 10
-9.4063731132
 20
-18.0804124813
 10
-10.8604342221
 20
-17.8195797152
 10
-12.3078175708
 20
-17.5217728064
 10
-13.7485041123
 20
-17.1870930376
 10
-15.1797445874
 20
-16.8162770326
 10
-16.6006228958
 20
-16.4095557105
 10
-18.0120559555
 20
-15.9666540184
 10
-19.414036766
 20
-15.4875483077
  0
LWPOLYLINE
  5
79C
100
AcDbEntity
  8
IMPORT_IGES
100
AcDbPolyline
 62
253
  6
CONTINUOUS
 90
28
 70
0
 10
20.0679369246
 20
-16.5578388846
 10
18.6448940131
 20
-17.0431231209
 10
17.2099322696
 20
-17.4923230374
 10
15.7639509476
 20
-17.9051471086
 10
14.3078286288
 20
-18.2813281799
 10
12.8425052805
 20
-18.6206140027
 10
11.3689823728
 20
-18.9227745416
 10
9.8881824679
 20
-19.1876137666
 10
8.4010358235
 20
-19.4149545247
 10
6.908563314
 20
-19.6046416076
 10
5.4117010901
 20
-19.7565524571
 10
3.911388866
 20
-19.8705840085
 10
2.4086576791
 20
-19.9466576385
 10
0.9044512038
 20
-19.9847249116
 10
-0.6002866245
 20
-19.9847575325
 10
-2.1045227229
 20
-19.9467546403
 10
-3.6073127908
 20
-19.8707425406
 10
-5.1077132365
 20
-19.7567672826
 10
-6.6046935546
 20
-19.6049051164
 10
-8.0973142104
 20
-19.4152567343
 10
-9.5846378832
 20
-19.1879425926
 10
-11.0656420428
 20
-18.9231159769
 10
-12.5393940395
 20
-18.620952186
 10
-14.0049721136
 20
-18.2816450642
 10
-15.4613777575
 20
-17.9054220489
 10
-16.9076711993
 20
-17.4925328883
 10
-18.3429713237
 20
-17.0432426782
 10
-19.7663775391
 20
-16.5578407763
  0
LWPOLYLINE
  5
79D
100
AcDbEntity
  8
IMPORT_IGES
100
AcDbPolyline
 62
253
  6
CONTINUOUS
 90
10
 70
0
 10
17.36005679
 20
18.6527049097
 10
17.6234993898
 20
18.5706482541
 10
17.8865176535
 20
18.4873630964
 10
18.1491115333
 20
18.4028492865
 10
18.4112867425
 20
18.317104349
 10
18.6730374534
 20
18.2301304568
 10
18.9343462971
 20
18.1419344327
 10
19.1952074332
 20
18.05251845
 10
19.4556265503
 20
17.9618800312
 10
19.7156035627
 20
17.8700190234
  0
LWPOLYLINE
  5
79E
100
AcDbEntity
  8
IMPORT_IGES
100
AcDbPolyline
 62
253
  6
CONTINUOUS
 90
10
 70
0
 10
21.8917868875
 20
17.7821363855
 10
22.3067749334
 20
17.6149471142
 10
22.7203606866
 20
17.4446754651
 10
23.1325434621
 20
17.2713207577
 10
23.5433451413
 20
17.0948700098
 10
23.9527423247
 20
16.9153348494
 10
24.360666336
 20
16.7327515274
 10
24.7670936826
 20
16.5471316976
 10
25.1720460502
 20
16.3584624067
 10
25.5755224589
 20
16.1667430141
  0
LWPOLYLINE
  5
79F
100
AcDbEntity
  8
IMPORT_IGES
100
AcDbPolyline
 62
253
  6
CONTINUOUS
 90
16
 70
0
 10
15.0952680185
 20
19.0954349123
 10
15.0839786051
 20
19.1002682337
 10
15.0730508177
 20
19.1119573119
 10
15.0625831742
 20
19.1304950899
 10
15.0526963134
 20
19.1556619478
 10
15.0434391584
 20
19.1872477804
 10
15.0348015659
 20
19.2252746938
 10
15.0268525311
 20
19.2694762377
 10
15.0196560455
 20
19.3194526841
 10
15.0132089486
 20
19.3752251343
 10
15.007564721
 20
19.4363824915
 10
15.0027652734
 20
19.5024159177
 10
14.9988103217
 20
19.5733483497
 10
14.9957285843
 20
19.6488480717
 10
14.9935532479
 20
19.7281108744
 10
14.9922911229
 20
19.8104660318
  0
LWPOLYLINE
  5
7A0
100
AcDbEntity
  8
IMPORT_IGES
100
AcDbPolyline
 62
253
  6
CONTINUOUS
 90
22
 70
0
 10
16.225935629
 20
18.2877349896
 10
16.2322322389
 20
18.283361698
 10
16.2444669847
 20
18.2814124663
 10
16.262615438
 20
18.2819331923
 10
16.2864728254
 20
18.2849153909
 10
16.3158548781
 20
18.290317717
 10
16.3507815929
 20
18.298141077
 10
16.391021228
 20
18.3083377278
 10
16.4362295766
 20
18.3208158674
 10
16.4864231406
 20
18.3355792365
 10
16.5412549745
 20
18.3525286822
 10
16.6002950739
 20
18.3715283263
 10
16.66355914
 20
18.3925832946
 10
16.7305892968
 20
18.4155436893
 10
16.8008852546
 20
18.440235908
 10
16.8744795485
 20
18.4666720016
 10
16.9508037144
 20
18.494650223
 10
17.0293003891
 20
18.5239643252
 10
17.1100479792
 20
18.5546446656
 10
17.192646673
 20
18.5865446479
 10
17.2762062434
 20
18.6193209763
 10
17.3600568549
 20
18.6527048772
  0
LWPOLYLINE
  5
7A1
100
AcDbEntity
  8
IMPORT_IGES
100
AcDbPolyline
 62
253
  6
CONTINUOUS
 90
22
 70
0
 10
16.3213568089
 20
17.8378572424
 10
16.3257572447
 20
17.8295489452
 10
16.336847128
 20
17.821455276
 10
16.3546206862
 20
17.8136470699
 10
16.3788685284
 20
17.8062129984
 10
16.4093882645
 20
17.7991895579
 10
16.446199488
 20
17.7925682364
 10
16.4890487629
 20
17.7864003618
 10
16.537552653
 20
17.780735092
 10
16.5917288456
 20
17.7755690391
 10
16.6511872756
 20
17.7709433197
 10
16.7154413269
 20
17.7668920246
 10
16.7845092891
 20
17.7634139157
 10
16.857868377
 20
17.7605386346
 10
16.9349477123
 20
17.7582857332
 10
17.0157877256
 20
17.7566547476
 10
17.0997323355
 20
17.7556621353
 10
17.1861422554
 20
17.7553129716
 10
17.2751156832
 20
17.755608271
 10
17.3661911816
 20
17.7565535119
 10
17.4583352869
 20
17.7581386368
 10
17.5507719453
 20
17.7603422835
  0
LWPOLYLINE
  5
7A2
100
AcDbEntity
  8
IMPORT_IGES
100
AcDbPolyline
 62
253
  6
CONTINUOUS
 90
10
 70
0
 10
17.36005679
 20
18.6527049097
 10
17.3968281221
 20
18.5575332988
 10
17.4297349579
 20
18.4612518448
 10
17.4587769422
 20
18.3638604005
 10
17.4839934813
 20
18.2652052098
 10
17.5053444142
 20
18.1654397183
 10
17.5227100386
 20
18.0650246564
 10
17.5360502091
 20
17.9641135863
 10
17.5454043101
 20
17.8625528189
 10
17.5507719453
 20
17.7603422834
  0
LWPOLYLINE
  5
7A3
100
AcDbEntity
  8
IMPORT_IGES
100
AcDbPolyline
 62
253
  6
CONTINUOUS
 90
7
 70
0
 10
25.929849957
 20
-14.8774951654
 10
25.9258649895
 20
-14.860344623
 10
25.9198249132
 20
-14.8372103153
 10
25.9117300569
 20
-14.8081141832
 10
25.9015692515
 20
-14.7731991614
 10
25.8893452468
 20
-14.7325084003
 10
25.8586947111
 20
-14.6331219706
  0
LWPOLYLINE
  5
7A4
100
AcDbEntity
  8
IMPORT_IGES
100
AcDbPolyline
 62
253
  6
CONTINUOUS
 90
6
 70
0
 10
26.5003153072
 20
-13.987899152
 10
26.4997819724
 20
-13.9809976067
 10
26.4992696991
 20
-13.9706486495
 10
26.4987784873
 20
-13.9568522804
 10
26.4983014723
 20
-13.9394598793
 10
26.4978455187
 20
-13.9186200662
  0
LINE
  5
7A5
100
AcDbEntity
  8
IMPORT_IGES
100
AcDbLine
 62
253
  6
CONTINUOUS
 10
25.5671519182
 20
-6.3034190267
 11
25.5755930183
 21
-13.7842311904
  0
LINE
  5
7A6
100
AcDbEntity
  8
IMPORT_IGES
100
AcDbLine
 62
253
  6
CONTINUOUS
 10
25.5643367571
 20
1.191257526
 11
25.5671519182
 21
-6.3034190267
  0
LINE
  5
7A7
100
AcDbEntity
  8
IMPORT_IGES
100
AcDbLine
 62
253
  6
CONTINUOUS
 10
25.5671519499
 20
8.6859330375
 11
25.5643367571
 21
1.191257526
  0
LINE
  5
7A8
100
AcDbEntity
  8
IMPORT_IGES
100
AcDbLine
 62
253
  6
CONTINUOUS
 10
25.5755224589
 20
16.1667430141
 11
25.5671519499
 21
8.6859330375
  0
LWPOLYLINE
  5
7A9
100
AcDbEntity
  8
IMPORT_IGES
100
AcDbPolyline
 62
253
  6
CONTINUOUS
 90
7
 70
0
 10
26.5003150419
 20
16.370407957
 10
26.4998940161
 20
16.3653212313
 10
26.4994825701
 20
16.357945093
 10
26.4990807037
 20
16.3482795418
 10
26.49868425
 20
16.3362587276
 10
26.4982973761
 20
16.3219485007
 10
26.4975906365
 20
16.2869419865
  0
LWPOLYLINE
  5
7AA
100
AcDbEntity
  8
IMPORT_IGES
100
AcDbPolyline
 62
253
  6
CONTINUOUS
 90
10
 70
0
 10
26.5003150419
 20
16.370407957
 10
26.5167234538
 20
16.5178081615
 10
26.5331659919
 20
16.647166118
 10
26.5496426563
 20
16.7584818265
 10
26.5661595041
 20
16.8517828188
 10
26.5827104782
 20
16.927041563
 10
26.5992774072
 20
16.9841754639
 10
26.6158542339
 20
17.0231569894
 10
26.6324470155
 20
17.0440136715
 10
26.649055752
 20
17.0467455101
  0
LWPOLYLINE
  5
7AB
100
AcDbEntity
  8
IMPORT_IGES
100
AcDbPolyline
 62
253
  6
CONTINUOUS
 90
10
 70
0
 10
25.5755930183
 20
-13.7842311904
 10
25.1720880568
 20
-13.9759494398
 10
24.7671140211
 20
-14.1646177552
 10
24.3606718924
 20
-14.3502367772
 10
23.9527422915
 20
-14.5328195442
 10
23.5433464064
 20
-14.712354317
 10
23.1325459972
 20
-14.8888045895
 10
22.7203621575
 20
-15.0621586485
 10
22.3067753115
 20
-15.2324295613
 10
21.8917861443
 20
-15.3996180085
  0
LWPOLYLINE
  5
7AC
100
AcDbEntity
  8
IMPORT_IGES
100
AcDbPolyline
 62
253
  6
CONTINUOUS
 90
10
 70
0
 10
22.2827835179
 20
-16.4672960491
 10
22.693140003
 20
-16.3025985612
 10
23.1022656392
 20
-16.1348926437
 10
23.510138683
 20
-15.9641873309
 10
23.9167379249
 20
-15.7904917383
 10
24.3220412714
 20
-15.6138152624
 10
24.7260257511
 20
-15.4341676165
 10
25.1286694065
 20
-15.2515585484
 10
25.5299512885
 20
-15.0659978027
 10
25.9298500425
 20
-14.8774953451
  0
LWPOLYLINE
  5
7AD
100
AcDbEntity
  8
IMPORT_IGES
100
AcDbPolyline
 62
253
  6
CONTINUOUS
 90
19
 70
0
 10
20.091660399
 20
-16.8599692716
 10
20.1745382087
 20
-16.8279676704
 10
20.2545312388
 20
-16.7907380497
 10
20.3313154505
 20
-16.7485489183
 10
20.4043682578
 20
-16.7018394145
 10
20.4736627573
 20
-16.6507839207
 10
20.5395588993
 20
-16.5951475211
 10
20.6018802165
 20
-16.5349761763
 10
20.6601292171
 20
-16.4706401801
 10
20.7140822794
 20
-16.4022798742
 10
20.7634820022
 20
-16.3300634598
 10
20.8079538614
 20
-16.254363974
 10
20.8471338686
 20
-16.1756667854
 10
20.880763678
 20
-16.0944016288
 10
20.9086790318
 20
-16.0108611103
 10
20.9307140967
 20
-15.9253661958
 10
20.9467056166
 20
-15.8382909632
 10
20.9565085269
 20
-15.7500654309
 10
20.9600124971
 20
-15.6611119257
  0
LWPOLYLINE
  5
7AE
100
AcDbEntity
  8
IMPORT_IGES
100
AcDbPolyline
 62
253
  6
CONTINUOUS
 90
25
 70
0
 10
22.2827835179
 20
-16.4672960491
 10
22.1147594881
 20
-16.5321041935
 10
21.9550785128
 20
-16.591628767
 10
21.8037779389
 20
-16.6459343365
 10
21.6621879333
 20
-16.694599948
 10
21.5290415693
 20
-16.7381610108
 10
21.4004647652
 20
-16.7780766314
 10
21.2755872254
 20
-16.8146725038
 10
21.1552994146
 20
-16.8476314555
 10
21.0383530155
 20
-16.8774030549
 10
20.9228423768
 20
-16.9044998448
 10
20.8106735062
 20
-16.9283661125
 10
20.7063184164
 20
-16.9478756281
 10
20.6110936042
 20
-16.9625800866
 10
20.5236877945
 20
-16.9729562452
 10
20.4446394044
 20
-16.9793179638
 10
20.3743580097
 20
-16.9817505482
 10
20.3124318619
 20
-16.9802057871
 10
20.2581667248
 20
-16.9748022134
 10
20.2113149119
 20
-16.9656175622
 10
20.172104688
 20
-16.95256729
 10
20.1405498039
 20
-16.9355099672
 10
20.1166421043
 20
-16.9143839899
 10
20.1003529958
 20
-16.8892120653
 10
20.0916604336
 20
-16.8599691223
  0
LWPOLYLINE
  5
7AF
100
AcDbEntity
  8
IMPORT_IGES
100
AcDbPolyline
 62
253
  6
CONTINUOUS
 90
10
 70
0
 10
25.9299272138
 20
17.2599747557
 10
25.529996457
 20
17.4484925677
 10
25.1286902334
 20
17.6340646372
 10
24.7260299811
 20
17.8166811735
 10
24.3220393735
 20
17.9963314645
 10
23.9167378194
 20
18.1730071232
 10
23.510140384
 20
18.3467019272
 10
23.1022664922
 20
18.5174075643
 10
22.6931400058
 20
18.6851137949
 10
22.2827826683
 20
18.849811585
  0
LWPOLYLINE
  5
7B0
100
AcDbEntity
  8
IMPORT_IGES
100
AcDbPolyline
 62
253
  6
CONTINUOUS
 90
10
 70
0
 10
25.9298500425
 20
-14.8774953451
 10
25.9466615779
 20
-15.0272739699
 10
25.9633831124
 20
-15.1588394971
 10
25.9800807403
 20
-15.272131513
 10
25.9968480815
 20
-15.3670847282
 10
26.0136891942
 20
-15.4436634499
 10
26.0305228759
 20
-15.5018718186
 10
26.0473368146
 20
-15.5417030496
 10
26.0641831974
 20
-15.5631291636
 10
26.0810647341
 20
-15.5661426523
  0
LWPOLYLINE
  5
7B1
100
AcDbEntity
  8
IMPORT_IGES
100
AcDbPolyline
 62
7
  6
CONTINUOUS
 90
9
 70
0
 10
26.6214889952
 20
-11.4930342221
 10
26.6247169234
 20
-11.5839005911
 10
26.6280199745
 20
-11.6638559078
 10
26.6313988855
 20
-11.7327987876
 10
26.6348529196
 20
-11.7908306151
 10
26.6383489372
 20
-11.8373581267
 10
26.6418758919
 20
-11.8721835681
 10
26.6454448302
 20
-11.8955046936
 10
26.649055752
 20
-11.9073215033
  0
LINE
  5
7B2
100
AcDbEntity
  8
IMPORT_IGES
100
AcDbLine
 62
7
  6
CONTINUOUS
 10
26.6153523324
 20
-11.2811690191
 11
26.6214889952
 21
-11.4930342221
  0
LINE
  5
7B3
100
AcDbEntity
  8
IMPORT_IGES
100
AcDbLine
 62
7
  6
CONTINUOUS
 10
26.6096687223
 20
-11.0303298193
 11
26.6153523324
 21
-11.2811690191
  0
LINE
  5
7B4
100
AcDbEntity
  8
IMPORT_IGES
100
AcDbLine
 62
253
  6
CONTINUOUS
 10
26.4978455187
 20
-13.9186200662
 11
26.4970603915
 21
-13.8677486324
  0
LINE
  5
7B5
100
AcDbEntity
  8
IMPORT_IGES
100
AcDbLine
 62
7
  6
CONTINUOUS
 10
26.5999865062
 20
-10.4264119702
 11
26.6096687223
 21
-11.0303298193
  0
LINE
  5
7B6
100
AcDbEntity
  8
IMPORT_IGES
100
AcDbLine
 62
253
  6
CONTINUOUS
 10
26.4970603915
 20
-13.8677486324
 11
26.4964588499
 21
-13.8056911625
  0
LINE
  5
7B7
100
AcDbEntity
  8
IMPORT_IGES
100
AcDbLine
 62
7
  6
CONTINUOUS
 10
26.5929330652
 20
-9.7117445759
 11
26.5999865062
 21
-10.4264119702
  0
LINE
  5
7B8
100
AcDbEntity
  8
IMPORT_IGES
100
AcDbLine
 62
253
  6
CONTINUOUS
 10
26.4964588499
 20
-13.8056911625
 11
26.4959977306
 21
-13.6986555667
  0
LINE
  5
7B9
100
AcDbEntity
  8
IMPORT_IGES
100
AcDbLine
 62
7
  6
CONTINUOUS
 10
26.5883775237
 20
-8.7210633029
 11
26.5929330652
 21
-9.7117445759
  0
LINE
  5
7BA
100
AcDbEntity
  8
IMPORT_IGES
100
AcDbLine
 62
253
  6
CONTINUOUS
 10
26.4959977306
 20
-13.6986555667
 11
26.4897811467
 21
-8.741502235
  0
LINE
  5
7BB
100
AcDbEntity
  8
IMPORT_IGES
100
AcDbLine
 62
253
  6
CONTINUOUS
 10
26.4897811467
 20
-8.741502235
 11
26.4860503047
 21
-3.7776850779
  0
LINE
  5
7BC
100
AcDbEntity
  8
IMPORT_IGES
100
AcDbLine
 62
253
  6
CONTINUOUS
 10
26.4860503047
 20
-3.7776850779
 11
26.4848057863
 21
1.1912580987
  0
LINE
  5
7BD
100
AcDbEntity
  8
IMPORT_IGES
100
AcDbLine
 62
7
  6
CONTINUOUS
 10
26.6490539179
 20
14.2898589978
 11
26.6490539179
 21
17.0467413438
  0
LINE
  5
7BE
100
AcDbEntity
  8
IMPORT_IGES
100
AcDbLine
 62
7
  6
CONTINUOUS
 10
26.6490549318
 20
-14.6642274362
 11
26.6490549318
 21
-11.9073461835
  0
LINE
  5
7BF
100
AcDbEntity
  8
IMPORT_IGES
100
AcDbLine
 62
7
  6
CONTINUOUS
 10
26.6508012587
 20
-11.5087423319
 11
26.6508012587
 21
13.8912576681
  0
LINE
  5
7C0
100
AcDbEntity
  8
IMPORT_IGES
100
AcDbLine
 62
253
  6
CONTINUOUS
 10
26.4848057863
 20
1.1912580987
 11
26.4860503055
 21
6.1602013251
  0
LINE
  5
7C1
100
AcDbEntity
  8
IMPORT_IGES
100
AcDbLine
 62
253
  6
CONTINUOUS
 10
26.4860503055
 20
6.1602013251
 11
26.4897811479
 21
11.1240182791
  0
LINE
  5
7C2
100
AcDbEntity
  8
IMPORT_IGES
100
AcDbLine
 62
7
  6
CONTINUOUS
 10
26.5888876666
 20
11.3065109001
 11
26.5883775237
 21
-8.7210633029
  0
LINE
  5
7C3
100
AcDbEntity
  8
IMPORT_IGES
100
AcDbLine
 62
253
  6
CONTINUOUS
 10
26.4963243645
 20
16.168360692
 11
26.4897811479
 21
11.1240182791
  0
LINE
  5
7C4
100
AcDbEntity
  8
IMPORT_IGES
100
AcDbLine
 62
7
  6
CONTINUOUS
 10
26.5929333825
 20
12.0942987764
 11
26.5888876666
 21
11.3065109001
  0
LINE
  5
7C5
100
AcDbEntity
  8
IMPORT_IGES
100
AcDbLine
 62
253
  6
CONTINUOUS
 10
26.4969831905
 20
16.2439865283
 11
26.4963243645
 21
16.168360692
  0
LINE
  5
7C6
100
AcDbEntity
  8
IMPORT_IGES
100
AcDbLine
 62
7
  6
CONTINUOUS
 10
26.5999870643
 20
12.8089637327
 11
26.5929333825
 21
12.0942987764
  0
LINE
  5
7C7
100
AcDbEntity
  8
IMPORT_IGES
100
AcDbLine
 62
253
  6
CONTINUOUS
 10
26.4975906365
 20
16.2869419865
 11
26.4969831905
 21
16.2439865283
  0
LINE
  5
7C8
100
AcDbEntity
  8
IMPORT_IGES
100
AcDbLine
 62
7
  6
CONTINUOUS
 10
26.60702961
 20
13.2741108928
 11
26.5999870643
 21
12.8089637327
  0
LINE
  5
7C9
100
AcDbEntity
  8
IMPORT_IGES
100
AcDbLine
 62
7
  6
CONTINUOUS
 10
26.6124442812
 20
13.5427098676
 11
26.60702961
 21
13.2741108928
  0
LINE
  5
7CA
100
AcDbEntity
  8
IMPORT_IGES
100
AcDbLine
 62
7
  6
CONTINUOUS
 10
26.6183677776
 20
13.7746879666
 11
26.6124442812
 21
13.5427098676
  0
LINE
  5
7CB
100
AcDbEntity
  8
IMPORT_IGES
100
AcDbLine
 62
7
  6
CONTINUOUS
 10
26.6214896244
 20
13.8755651492
 11
26.6183677776
 21
13.7746879666
  0
LWPOLYLINE
  5
7CC
100
AcDbEntity
  8
IMPORT_IGES
100
AcDbPolyline
 62
7
  6
CONTINUOUS
 90
16
 70
0
 10
26.6490549318
 20
-14.6642274362
 10
26.6461170892
 20
-14.7397723653
 10
26.6377287094
 20
-14.8140723148
 10
26.6238897924
 20
-14.8871272847
 10
26.6044622893
 20
-14.9593317818
 10
26.579584249
 20
-15.0302912992
 10
26.5496698184
 20
-15.0988223171
 10
26.5146343771
 20
-15.1648842299
 10
26.4745625454
 20
-15.2285176431
 10
26.4301223323
 20
-15.2886608527
 10
26.3812412636
 20
-15.3452545282
 10
26.3279918134
 20
-15.3983579999
 10
26.271259413
 20
-15.4470875559
 10
26.2113392061
 20
-15.4911486251
 10
26.147936049
 20
-15.5308357785
 10
26.0810499416
 20
-15.566149016
  0
LWPOLYLINE
  5
7CD
100
AcDbEntity
  8
IMPORT_IGES
100
AcDbPolyline
 62
253
  6
CONTINUOUS
 90
22
 70
0
 10
20.9368771048
 20
-15.365964777
 10
20.9319887681
 20
-15.3746245537
 10
20.9205579841
 20
-15.3832405734
 10
20.902642507
 20
-15.3917693046
 10
20.8783328549
 20
-15.4001676564
 10
20.8477518509
 20
-15.4083931969
 10
20.8110540021
 20
-15.4164043677
 10
20.7684247205
 20
-15.4241606932
 10
20.7200793876
 20
-15.4316229851
 10
20.6662622643
 20
-15.4387535407
 10
20.6072452572
 20
-15.4455163334
 10
20.543326545
 20
-15.4518771948
 10
20.4748290717
 20
-15.4578039872
 10
20.4020989151
 20
-15.463266766
 10
20.3255035385
 20
-15.4682379308
 10
20.2454299338
 20
-15.4726923654
 10
20.1622777164
 20
-15.476607777
 10
20.0764716454
 20
-15.4799641049
 10
19.9884609291
 20
-15.4827439526
 10
19.8986964827
 20
-15.4849334748
 10
19.8076272374
 20
-15.4865221099
 10
19.7157134032
 20
-15.4875021584
  0
LWPOLYLINE
  5
7CE
100
AcDbEntity
  8
IMPORT_IGES
100
AcDbPolyline
 62
253
  6
CONTINUOUS
 90
16
 70
0
 10
25.9299314314
 20
-14.8774533117
 10
25.9962893331
 20
-14.8430659266
 10
26.0598757375
 20
-14.8038781556
 10
26.120332828
 20
-14.7601078656
 10
26.177322602
 20
-14.7119965104
 10
26.2305209462
 20
-14.6598142548
 10
26.2796212482
 20
-14.6038602679
 10
26.3243459667
 20
-14.5444514049
 10
26.3644463871
 20
-14.4819186679
 10
26.3996974315
 20
-14.4166130448
 10
26.4299012404
 20
-14.3489010869
 10
26.454888284
 20
-14.2791628523
 10
26.4745183135
 20
-14.207789772
 10
26.4886811482
 20
-14.1351824535
 10
26.497297294
 20
-14.0617484316
 10
26.5003183898
 20
-13.9878998814
  0
LWPOLYLINE
  5
7CF
100
AcDbEntity
  8
IMPORT_IGES
100
AcDbPolyline
 62
253
  6
CONTINUOUS
 90
16
 70
0
 10
25.9299274745
 20
17.259975296
 10
25.9963697171
 20
17.2255400541
 10
26.0600051025
 20
17.1863107587
 10
26.1204788881
 20
17.142512149
 10
26.177450672
 20
17.0943978638
 10
26.2306086682
 20
17.0422387461
 10
26.2796686046
 20
16.9863184457
 10
26.3243562893
 20
16.9269520027
 10
26.3644230135
 20
16.8644725721
 10
26.39965355
 20
16.7992149546
 10
26.429848439
 20
16.7315432872
 10
26.4548358503
 20
16.6618364563
 10
26.474477049
 20
16.5904686613
 10
26.488656658
 20
16.5178334811
 10
26.4972872881
 20
16.4443430067
 10
26.5003142591
 20
16.3704096861
  0
LWPOLYLINE
  5
7D0
100
AcDbEntity
  8
IMPORT_IGES
100
AcDbPolyline
 62
7
  6
CONTINUOUS
 90
16
 70
0
 10
26.0810880698
 20
17.948646709
 10
26.1479622425
 20
17.9133429858
 10
26.2113560675
 20
17.8736628923
 10
26.2712695447
 20
17.8296064286
 10
26.3279986672
 20
17.7808781644
 10
26.381247442
 20
17.7277735298
 10
26.4301278896
 20
17.6711788157
 10
26.4745666792
 20
17.6110355627
 10
26.5146371416
 20
17.5474022301
 10
26.54967129
 20
17.4813404863
 10
26.5795843768
 20
17.4128099756
 10
26.6044611496
 20
17.3418510537
 10
26.6238878645
 20
17.269646456
 10
26.6377266069
 20
17.1965904277
 10
26.6461152914
 20
17.1222887237
 10
26.6490539179
 20
17.0467413438
  0
LWPOLYLINE
  5
7D1
100
AcDbEntity
  8
IMPORT_IGES
100
AcDbPolyline
 62
253
  6
CONTINUOUS
 90
25
 70
0
 10
21.8917867985
 20
17.782136261
 10
21.8138163513
 20
17.8511021602
 10
21.7405928849
 20
17.9121493403
 10
21.6725647552
 20
17.9655056563
 10
21.611587301
 20
18.0104259168
 10
21.556202787
 20
18.0486990378
 10
21.5018899554
 20
18.0837227686
 10
21.4474027948
 20
18.116130029
 10
21.3945900818
 20
18.1446691966
 10
21.3437867702
 20
18.1691345654
 10
21.2951201798
 20
18.1894146078
 10
21.2490374529
 20
18.205276039
 10
21.2062526548
 20
18.2165092732
 10
21.1667022143
 20
18.223178356
 10
21.1307271837
 20
18.2253765461
 10
21.0992424837
 20
18.2235005542
 10
21.0728457055
 20
18.2184020533
 10
21.05021629
 20
18.2105206692
 10
21.0296247008
 20
18.1993227057
 10
21.0110759075
 20
18.1844027724
 10
20.9950751139
 20
18.1658448355
 10
20.9814837103
 20
18.1429025855
 10
20.970710745
 20
18.1149752647
 10
20.9633919249
 20
18.0819556399
 10
20.960012866
 20
18.0436060729
  0
LWPOLYLINE
  5
7D2
100
AcDbEntity
  8
IMPORT_IGES
100
AcDbPolyline
 62
253
  6
CONTINUOUS
 90
19
 70
0
 10
26.4959977442
 20
16.0811722921
 10
26.491161156
 20
16.0882598482
 10
26.4796986114
 20
16.0952301787
 10
26.4618835272
 20
16.1020388631
 10
26.4381602582
 20
16.1086118614
 10
26.4087914405
 20
16.1149464269
 10
26.3735567427
 20
16.1211014153
 10
26.3324047112
 20
16.1270595949
 10
26.2856566972
 20
16.132751633
 10
26.2334119862
 20
16.1381479365
 10
26.175792618
 20
16.143214554
 10
26.1131761115
 20
16.1478986064
 10
26.0461231295
 20
16.1521457466
 10
25.9751635087
 20
16.1559160794
 10
25.9006393238
 20
16.1591854106
 10
25.8229137426
 20
16.1619289672
 10
25.742449236
 20
16.1641199502
 10
25.6598201379
 20
16.1657324914
 10
25.5755929802
 20
16.1667459283
  0
ARC
  5
7D3
100
AcDbEntity
  8
IMPORT_IGES
100
AcDbCircle
 62
253
  6
CONTINUOUS
 10
0.1508012587
 20
-255.6587423319
 40
275.0086507125
100
AcDbArc
 50
86.9156901802
 51
93.0843099668
  0
ARC
  5
7D4
100
AcDbEntity
  8
IMPORT_IGES
100
AcDbCircle
 62
253
  6
CONTINUOUS
 10
0.1508012588
 20
280.8412576681
 40
275.0086507125
100
AcDbArc
 50
266.915691253
 51
273.0843084604
  0
ARC
  5
7D5
100
AcDbEntity
  8
IMPORT_IGES
100
AcDbCircle
 62
253
  6
CONTINUOUS
 10
0.1508012587
 20
-255.6587423319
 40
274.0086887894
100
AcDbArc
 50
86.9157092608
 51
93.0842907385
  0
ARC
  5
7D6
100
AcDbEntity
  8
IMPORT_IGES
100
AcDbCircle
 62
253
  6
CONTINUOUS
 10
0.1508012588
 20
280.8412576681
 40
274.0086887894
100
AcDbArc
 50
266.9157092608
 51
273.0842907385
  0
ARC
  5
7D7
100
AcDbEntity
  8
IMPORT_IGES
100
AcDbCircle
 62
253
  6
CONTINUOUS
 10
-141.7491987413
 20
12.5912576681
 40
158.0086507125
100
AcDbArc
 50
358.1487810677
 51
1.8512712195
  0
ARC
  5
7D8
100
AcDbEntity
  8
IMPORT_IGES
100
AcDbCircle
 62
253
  6
CONTINUOUS
 10
142.0508012587
 20
12.5912576681
 40
158.0086507125
100
AcDbArc
 50
178.1487891766
 51
181.8512672089
  0
ARC
  5
7D9
100
AcDbEntity
  8
IMPORT_IGES
100
AcDbCircle
 62
253
  6
CONTINUOUS
 10
-141.7491987413
 20
12.5912576681
 40
157.0086887894
100
AcDbArc
 50
358.1488338775
 51
1.8511661234
  0
ARC
  5
7DA
100
AcDbEntity
  8
IMPORT_IGES
100
AcDbCircle
 62
253
  6
CONTINUOUS
 10
142.0508012587
 20
12.5912576681
 40
157.0086887894
100
AcDbArc
 50
178.1488338775
 51
181.8511661233
  0
ARC
  5
7DB
100
AcDbEntity
  8
IMPORT_IGES
100
AcDbCircle
 62
7
  6
CONTINUOUS
 10
0.1508012587
 20
38.5412576681
 40
59.999911111
100
AcDbArc
 50
244.3945146001
 51
295.6054453486
  0
ARC
  5
7DC
100
AcDbEntity
  8
IMPORT_IGES
100
AcDbCircle
 62
7
  6
CONTINUOUS
 10
0.1508012588
 20
-36.1587423319
 40
59.9999111111
100
AcDbArc
 50
64.3945145362
 51
115.6052880553
  0
CIRCLE
  5
7DD
100
AcDbEntity
  8
IMPORT_IGES
100
AcDbCircle
 62
7
  6
CONTINUOUS
 10
9.6508012587
 20
12.5912576681
 40
3.1
  0
CIRCLE
  5
7DE
100
AcDbEntity
  8
IMPORT_IGES
100
AcDbCircle
 62
7
  6
CONTINUOUS
 10
-9.3491987413
 20
12.5912576681
 40
3.1
  0
CIRCLE
  5
7DF
100
AcDbEntity
  8
IMPORT_IGES
100
AcDbCircle
 62
7
  6
CONTINUOUS
 10
0.1508012587
 20
12.5912576681
 40
3.1
  0
CIRCLE
  5
7E0
100
AcDbEntity
  8
IMPORT_IGES
100
AcDbCircle
 62
7
  6
CONTINUOUS
 10
-9.3491987413
 20
12.5912576681
 40
3.0
  0
CIRCLE
  5
7E1
100
AcDbEntity
  8
IMPORT_IGES
100
AcDbCircle
 62
7
  6
CONTINUOUS
 10
9.6508012587
 20
12.5912576681
 40
3.0
  0
CIRCLE
  5
7E2
100
AcDbEntity
  8
IMPORT_IGES
100
AcDbCircle
 62
7
  6
CONTINUOUS
 10
0.1508012587
 20
12.5912576681
 40
3.0
  0
CIRCLE
  5
7E3
100
AcDbEntity
  8
IMPORT_IGES
100
AcDbCircle
 62
7
  6
CONTINUOUS
 10
9.6508012587
 20
12.5912576681
 40
2.0
  0
CIRCLE
  5
7E4
100
AcDbEntity
  8
IMPORT_IGES
100
AcDbCircle
 62
7
  6
CONTINUOUS
 10
-9.3491987413
 20
12.5912576681
 40
2.0
  0
CIRCLE
  5
7E5
100
AcDbEntity
  8
IMPORT_IGES
100
AcDbCircle
 62
7
  6
CONTINUOUS
 10
0.1508012587
 20
12.5912576681
 40
2.0
  0
ARC
  5
7E6
100
AcDbEntity
  8
IMPORT_IGES
100
AcDbCircle
 62
7
  6
CONTINUOUS
 10
-26.0491987413
 20
-11.5087423319
 40
0.3
100
AcDbArc
 50
180.0
 51
203.1415389047
  0
ARC
  5
7E7
100
AcDbEntity
  8
IMPORT_IGES
100
AcDbCircle
 62
7
  6
CONTINUOUS
 10
-26.0491987413
 20
13.8912576681
 40
0.3
100
AcDbArc
 50
156.8584609828
 51
180.0
  0
ARC
  5
7E8
100
AcDbEntity
  8
IMPORT_IGES
100
AcDbCircle
 62
7
  6
CONTINUOUS
 10
26.3508012587
 20
13.8912576681
 40
0.3
100
AcDbArc
 50
0.0
 51
23.142043132
  0
ARC
  5
7E9
100
AcDbEntity
  8
IMPORT_IGES
100
AcDbCircle
 62
7
  6
CONTINUOUS
 10
26.3508012587
 20
-11.5087423319
 40
0.3
100
AcDbArc
 50
336.8579254059
 51
360.0
  0
ARC
  5
7EA
100
AcDbEntity
  8
IMPORT_IGES
100
AcDbCircle
 62
253
  6
CONTINUOUS
 10
-14.5761180781
 20
17.6534832092
 40
0.29998365
100
AcDbArc
 50
93.0817574671
 51
178.1514398444
  0
ARC
  5
7EB
100
AcDbEntity
  8
IMPORT_IGES
100
AcDbCircle
 62
253
  6
CONTINUOUS
 10
14.8777205956
 20
17.6534832092
 40
0.2999836502
100
AcDbArc
 50
1.8485605996
 51
86.918241941
  0
ARC
  5
7EC
100
AcDbEntity
  8
IMPORT_IGES
100
AcDbCircle
 62
253
  6
CONTINUOUS
 10
14.8777205956
 20
7.529032127
 40
0.29998365
100
AcDbArc
 50
273.0817574515
 51
358.1514398576
  0
ARC
  5
7ED
100
AcDbEntity
  8
IMPORT_IGES
100
AcDbCircle
 62
253
  6
CONTINUOUS
 10
-14.5761180781
 20
7.529032127
 40
0.2999836502
100
AcDbArc
 50
181.8485605773
 51
266.9182419423
  0
ENDSEC
  0
SECTION
  2
OBJECTS
  0
DICTIONARY
  5
C
100
AcDbDictionary
280
0
281
1
  3
ACAD_GROUP
350
D
  3
ACAD_MLINESTYLE
350
17
  3
ACAD_LAYOUT
350
1A
  3
ACAD_PLOTSETTINGS
350
19
  3
ACAD_PLOTSTYLENAME
350
E
  0
DICTIONARY
  5
D
102
{ACAD_REACTORS
330
C
102
}
100
AcDbDictionary
280
0
281
1
  0
ACDBDICTIONARYWDFLT
  5
E
102
{ACAD_REACTORS
330
C
102
}
100
AcDbDictionary
281
1
  3
Normal
350
F
100
AcDbDictionaryWithDefault
340
F
  0
DICTIONARY
  5
17
102
{ACAD_REACTORS
330
C
102
}
100
AcDbDictionary
280
0
281
1
  3
Standard
350
18
  0
DICTIONARY
  5
19
102
{ACAD_REACTORS
330
C
102
}
100
AcDbDictionary
281
1
  0
DICTIONARY
  5
1A
102
{ACAD_REACTORS
330
C
102
}
100
AcDbDictionary
281
1
  3
Model
350
7EE
  3
Layout1
350
7EF
  0
ACDBPLACEHOLDER
  5
F
102
{ACAD_REACTORS
330
E
102
}
  0
MLINESTYLE
  5
18
102
{ACAD_REACTORS
330
17
102
}
100
AcDbMlineStyle
  2
STANDARD
 70
0
  3

 62
256
 51
90.0
 52
90.0
 71
2
 49
0.5
 62
256
  6
BYLAYER
 49
-0.5
 62
256
  6
BYLAYER
  0
LAYOUT
  5
7EE
102
{ACAD_REACTORS
330
1A
102
}
100
AcDbPlotSettings
  1

  2
none_device
  4
ISO_A4_(297.00_x_210.00_MM)
  6

 40
0.0
 41
0.0
 42
0.0
 43
0.0
 44
297.0
 45
210.0
 46
0.0
 47
0.0
 48
0.0
 49
0.0
140
0.0
141
0.0
142
1.0
143
1.0
 70
1024
 72
1
 73
0
 74
0
  7

 75
0
147
1.0
148
0.0
149
0.0
100
AcDbLayout
  1
Model
 70
0
 71
0
 10
0.0
 20
0.0
 11
297.0
 21
210.0
 12
0.0
 22
0.0
 32
0.0
 14
0.0
 24
0.0
 34
0.0
 15
0.0
 25
0.0
 35
0.0
146
0.0
 13
0.0
 23
0.0
 33
0.0
 16
1.0
 26
0.0
 36
0.0
 17
0.0
 27
1.0
 37
0.0
 76
0
330
20F
345
0
346
0
  0
LAYOUT
  5
7EF
102
{ACAD_REACTORS
330
1A
102
}
100
AcDbPlotSettings
  1

  2
none_device
  4
ISO_A4_(297.00_x_210.00_MM)
  6

 40
0.0
 41
0.0
 42
0.0
 43
0.0
 44
297.0
 45
210.0
 46
0.0
 47
0.0
 48
0.0
 49
0.0
140
0.0
141
0.0
142
1.0
143
1.0
 70
0
 72
1
 73
0
 74
0
  7

 75
0
147
1.0
148
0.0
149
0.0
100
AcDbLayout
  1
Layout1
 70
0
 71
1
 10
0.0
 20
0.0
 11
297.0
 21
210.0
 12
0.0
 22
0.0
 32
0.0
 14
0.0
 24
0.0
 34
0.0
 15
0.0
 25
0.0
 35
0.0
146
0.0
 13
0.0
 23
0.0
 33
0.0
 16
1.0
 26
0.0
 36
0.0
 17
0.0
 27
1.0
 37
0.0
 76
0
330
210
345
0
346
0
  0
ENDSEC
  0
EOF
