  0
SECTION
  2
HEADER
  9
$ACADVER
  1
AC1024
  9
$DWGCODEPAGE
  3
ANSI_1252
  9
$EXTMAX
 10
420.0
 20
297.0
 30
0.0
  9
$EXTMIN
 10
0.0
 20
-0.0
 30
0.0
  9
$LIMMIN
 10
0.0
 20
-0.0
  9
$LIMMAX
 10
420.0
 20
297.0
  9
$VIEWCTR
 10
210.0
 20
148.5
  9
$VIEWSIZE
 40
297.0
  9
$CLAYER
  8
0
  9
$LTSCALE
 40
23.1
  9
$CELTYPE
  6
BYLAYER
  9
$DIMSCALE
 40
1.0
  9
$DIMASZ
 40
3.0
  9
$DIMEXO
 40
0.5
  9
$DIMDLI
 40
15.96
  9
$DIMEXE
 40
1.5
  9
$DIMCEN
 40
3.78
  9
$DIMLFAC
 40
1.0
  9
$DIMBLK
  1
_FILLED
  9
$DIMALT
 70
0
  9
$DIMALTF
 40
0.0393700787
  9
$DIMTXT
 40
3.0
  9
$DIMTOL
 70
1
  9
$DIMLIM
 70
0
  9
$DIMTFAC
 40
1.0
  9
$DIMTP
 40
0.01
  9
$DIMTM
 40
0.01
  9
$DIMGAP
 40
0.625
  9
$DIMDSEP
 70
44
  9
$AUNITS
 70
0
  9
$PDMODE
 70
3
  9
$PDSIZE
 40
3.0
  9
$HANDSEED
  5
4AA
  9
$TILEMODE
 70
1
  9
$MEASUREMENT
 70
1
  9
$INSUNITS
 70
4
  0
ENDSEC
  0
SECTION
  2
CLASSES
  0
CLASS
  1
ACDBDICTIONARYWDFLT
  2
AcDbDictionaryWithDefault
  3
AutoCAD 2000
 90
0
 91
1
280
0
281
0
  0
CLASS
  1
ACDBPLACEHOLDER
  2
AcDbPlaceHolder
  3
AutoCAD 2000
 90
0
 91
1
280
0
281
0
  0
CLASS
  1
LAYOUT
  2
AcDbLayout
  3
AutoCAD 2000
 90
0
 91
0
280
0
281
0
  0
ENDSEC
  0
SECTION
  2
TABLES
  0
TABLE
  2
VPORT
  5
8
100
AcDbSymbolTable
 70
2
  0
VPORT
  5
1F4
100
AcDbSymbolTableRecord
100
AcDbViewportTableRecord
  2
*ACTIVE
 70
0
 10
0.0
 20
0.0
 11
1.0
 21
1.0
 12
210.0
 22
148.5
 13
0.0
 23
0.0
 14
1.0
 24
1.0
 15
0.0
 25
0.0
 16
0.0
 26
0.0
 36
1.0
 17
0.0
 27
0.0
 37
0.0
 40
297.0
 41
1.4141414141
 42
50.0
 43
0.0
 44
0.0
 50
0.0
 51
0.0
 71
0
 72
100
 73
1
 74
1
 75
0
 76
0
 77
0
 78
0
  0
ENDTAB
  0
TABLE
  2
LTYPE
  5
5
100
AcDbSymbolTable
 70
6
  0
LTYPE
  5
14
100
AcDbSymbolTableRecord
100
AcDbLinetypeTableRecord
  2
BYBLOCK
 70
0
  3

 72
65
 73
0
 40
0.0
  0
LTYPE
  5
15
100
AcDbSymbolTableRecord
100
AcDbLinetypeTableRecord
  2
BYLAYER
 70
0
  3

 72
65
 73
0
 40
0.0
  0
LTYPE
  5
16
100
AcDbSymbolTableRecord
100
AcDbLinetypeTableRecord
  2
CONTINUOUS
 70
64
  3
Solid line
 72
65
 73
0
 40
0.0
  0
LTYPE
  5
1F5
100
AcDbSymbolTableRecord
100
AcDbLinetypeTableRecord
  2
CENTER
 70
64
  3
____ _ ____ _ ____ _ ____ _ ____ _ ____ _ ____
 72
65
 73
4
 40
0.6
 49
0.375
 74
0
 49
-0.075
 74
0
 49
0.075
 74
0
 49
-0.075
 74
0
  0
LTYPE
  5
1F6
100
AcDbSymbolTableRecord
100
AcDbLinetypeTableRecord
  2
HIDDEN
 70
64
  3
- - - - - - - - - - - - - - - - - - - -
 72
65
 73
2
 40
0.2
 49
0.1
 74
0
 49
-0.1
 74
0
  0
LTYPE
  5
1F7
100
AcDbSymbolTableRecord
100
AcDbLinetypeTableRecord
  2
PHANTOM
 70
64
  3
_____ _ _ _____ _ _ _____ _ _ _____
 72
65
 73
6
 40
0.8
 49
0.45
 74
0
 49
-0.05
 74
0
 49
0.1
 74
0
 49
-0.05
 74
0
 49
0.1
 74
0
 49
-0.05
 74
0
  0
LTYPE
  5
1F8
100
AcDbSymbolTableRecord
100
AcDbLinetypeTableRecord
  2
DOT
 70
64
  3
. . . . . . . . . . . . . . . . . . . .
 72
65
 73
2
 40
0.2
 49
0.1
 74
0
 49
-0.1
 74
0
  0
LTYPE
  5
1F9
100
AcDbSymbolTableRecord
100
AcDbLinetypeTableRecord
  2
DASHED
 70
64
  3
- - - - - - - - - - - - - - - - - - - -
 72
65
 73
2
 40
0.2
 49
0.1
 74
0
 49
-0.1
 74
0
  0
ENDTAB
  0
TABLE
  2
LAYER
  5
2
100
AcDbSymbolTable
 70
36
  0
LAYER
  5
10
100
AcDbSymbolTableRecord
100
AcDbLayerTableRecord
  2
0
 70
0
 62
7
  6
CONTINUOUS
370
-3
390
F
  0
LAYER
  5
1FA
100
AcDbSymbolTableRecord
100
AcDbLayerTableRecord
  2
DEFAULT_1
 70
0
 62
7
  6
CENTER
370
-3
390
F
  0
LAYER
  5
1FB
100
AcDbSymbolTableRecord
100
AcDbLayerTableRecord
  2
DEFAULT_2
 70
0
 62
7
  6
HIDDEN
370
-3
390
F
  0
LAYER
  5
1FC
100
AcDbSymbolTableRecord
100
AcDbLayerTableRecord
  2
DEFAULT_3
 70
0
 62
7
  6
PHANTOM
370
-3
390
F
  0
LAYER
  5
1FD
100
AcDbSymbolTableRecord
100
AcDbLayerTableRecord
  2
1
 70
0
 62
7
  6
CONTINUOUS
370
-3
390
F
  0
LAYER
  5
1FE
100
AcDbSymbolTableRecord
100
AcDbLayerTableRecord
  2
10
 70
0
 62
7
  6
CONTINUOUS
370
-3
390
F
  0
LAYER
  5
1FF
100
AcDbSymbolTableRecord
100
AcDbLayerTableRecord
  2
11
 70
0
 62
7
  6
CONTINUOUS
370
-3
390
F
  0
LAYER
  5
200
100
AcDbSymbolTableRecord
100
AcDbLayerTableRecord
  2
12
 70
0
 62
7
  6
CONTINUOUS
370
-3
390
F
  0
LAYER
  5
201
100
AcDbSymbolTableRecord
100
AcDbLayerTableRecord
  2
13
 70
0
 62
7
  6
CONTINUOUS
370
-3
390
F
  0
LAYER
  5
202
100
AcDbSymbolTableRecord
100
AcDbLayerTableRecord
  2
14
 70
0
 62
7
  6
CONTINUOUS
370
-3
390
F
  0
LAYER
  5
203
100
AcDbSymbolTableRecord
100
AcDbLayerTableRecord
  2
14_1
 70
0
 62
7
  6
CONTINUOUS
370
-3
390
F
  0
LAYER
  5
204
100
AcDbSymbolTableRecord
100
AcDbLayerTableRecord
  2
14_2
 70
0
 62
7
  6
CONTINUOUS
370
-3
390
F
  0
LAYER
  5
205
100
AcDbSymbolTableRecord
100
AcDbLayerTableRecord
  2
14_3
 70
0
 62
7
  6
CONTINUOUS
370
-3
390
F
  0
LAYER
  5
206
100
AcDbSymbolTableRecord
100
AcDbLayerTableRecord
  2
14_4
 70
0
 62
7
  6
CONTINUOUS
370
-3
390
F
  0
LAYER
  5
207
100
AcDbSymbolTableRecord
100
AcDbLayerTableRecord
  2
14_5
 70
0
 62
7
  6
CONTINUOUS
370
-3
390
F
  0
LAYER
  5
208
100
AcDbSymbolTableRecord
100
AcDbLayerTableRecord
  2
14_6
 70
0
 62
7
  6
CONTINUOUS
370
-3
390
F
  0
LAYER
  5
209
100
AcDbSymbolTableRecord
100
AcDbLayerTableRecord
  2
15
 70
0
 62
7
  6
CONTINUOUS
370
-3
390
F
  0
LAYER
  5
20A
100
AcDbSymbolTableRecord
100
AcDbLayerTableRecord
  2
15_1
 70
0
 62
7
  6
CONTINUOUS
370
-3
390
F
  0
LAYER
  5
20B
100
AcDbSymbolTableRecord
100
AcDbLayerTableRecord
  2
15_2
 70
0
 62
7
  6
CONTINUOUS
370
-3
390
F
  0
LAYER
  5
20C
100
AcDbSymbolTableRecord
100
AcDbLayerTableRecord
  2
15_3
 70
0
 62
7
  6
CONTINUOUS
370
-3
390
F
  0
LAYER
  5
20D
100
AcDbSymbolTableRecord
100
AcDbLayerTableRecord
  2
15_4
 70
0
 62
7
  6
CONTINUOUS
370
-3
390
F
  0
LAYER
  5
20E
100
AcDbSymbolTableRecord
100
AcDbLayerTableRecord
  2
15_5
 70
0
 62
7
  6
CONTINUOUS
370
-3
390
F
  0
LAYER
  5
20F
100
AcDbSymbolTableRecord
100
AcDbLayerTableRecord
  2
2
 70
0
 62
7
  6
CONTINUOUS
370
-3
390
F
  0
LAYER
  5
210
100
AcDbSymbolTableRecord
100
AcDbLayerTableRecord
  2
3
 70
0
 62
7
  6
CONTINUOUS
370
-3
390
F
  0
LAYER
  5
211
100
AcDbSymbolTableRecord
100
AcDbLayerTableRecord
  2
4
 70
0
 62
7
  6
CONTINUOUS
370
-3
390
F
  0
LAYER
  5
212
100
AcDbSymbolTableRecord
100
AcDbLayerTableRecord
  2
5
 70
0
 62
7
  6
CONTINUOUS
370
-3
390
F
  0
LAYER
  5
213
100
AcDbSymbolTableRecord
100
AcDbLayerTableRecord
  2
6
 70
0
 62
7
  6
CONTINUOUS
370
-3
390
F
  0
LAYER
  5
214
100
AcDbSymbolTableRecord
100
AcDbLayerTableRecord
  2
7
 70
0
 62
7
  6
CONTINUOUS
370
-3
390
F
  0
LAYER
  5
215
100
AcDbSymbolTableRecord
100
AcDbLayerTableRecord
  2
8
 70
0
 62
7
  6
CONTINUOUS
370
-3
390
F
  0
LAYER
  5
216
100
AcDbSymbolTableRecord
100
AcDbLayerTableRecord
  2
9
 70
0
 62
7
  6
CONTINUOUS
370
-3
390
F
  0
LAYER
  5
217
100
AcDbSymbolTableRecord
100
AcDbLayerTableRecord
  2
ASSI
 70
0
 62
7
  6
CONTINUOUS
370
-3
390
F
  0
LAYER
  5
218
100
AcDbSymbolTableRecord
100
AcDbLayerTableRecord
  2
COLOR1
 70
0
 62
7
  6
CONTINUOUS
370
-3
390
F
  0
LAYER
  5
219
100
AcDbSymbolTableRecord
100
AcDbLayerTableRecord
  2
COLOR13
 70
0
 62
7
  6
CONTINUOUS
370
-3
390
F
  0
LAYER
  5
21A
100
AcDbSymbolTableRecord
100
AcDbLayerTableRecord
  2
COLOR16
 70
0
 62
7
  6
CONTINUOUS
370
-3
390
F
  0
LAYER
  5
21B
100
AcDbSymbolTableRecord
100
AcDbLayerTableRecord
  2
COLOR18
 70
0
 62
7
  6
CONTINUOUS
370
-3
390
F
  0
LAYER
  5
21C
100
AcDbSymbolTableRecord
100
AcDbLayerTableRecord
  2
COORDINATE
 70
0
 62
7
  6
CONTINUOUS
370
-3
390
F
  0
LAYER
  5
21D
100
AcDbSymbolTableRecord
100
AcDbLayerTableRecord
  2
COPY_PUBLISH
 70
0
 62
7
  6
CONTINUOUS
370
-3
390
F
  0
LAYER
  5
21E
100
AcDbSymbolTableRecord
100
AcDbLayerTableRecord
  2
COSMETICI
 70
0
 62
7
  6
CONTINUOUS
370
-3
390
F
  0
LAYER
  5
21F
100
AcDbSymbolTableRecord
100
AcDbLayerTableRecord
  2
CURVE
 70
0
 62
7
  6
CONTINUOUS
370
-3
390
F
  0
LAYER
  5
220
100
AcDbSymbolTableRecord
100
AcDbLayerTableRecord
  2
DRAFT
 70
0
 62
7
  6
CONTINUOUS
370
-3
390
F
  0
LAYER
  5
221
100
AcDbSymbolTableRecord
100
AcDbLayerTableRecord
  2
IMPORT_IGES
 70
0
 62
7
  6
CONTINUOUS
370
-3
390
F
  0
LAYER
  5
222
100
AcDbSymbolTableRecord
100
AcDbLayerTableRecord
  2
INTF_1
 70
0
 62
7
  6
CONTINUOUS
370
-3
390
F
  0
LAYER
  5
223
100
AcDbSymbolTableRecord
100
AcDbLayerTableRecord
  2
INTF_10
 70
0
 62
7
  6
CONTINUOUS
370
-3
390
F
  0
LAYER
  5
224
100
AcDbSymbolTableRecord
100
AcDbLayerTableRecord
  2
INTF_11
 70
0
 62
7
  6
CONTINUOUS
370
-3
390
F
  0
LAYER
  5
225
100
AcDbSymbolTableRecord
100
AcDbLayerTableRecord
  2
INTF_12
 70
0
 62
7
  6
CONTINUOUS
370
-3
390
F
  0
LAYER
  5
226
100
AcDbSymbolTableRecord
100
AcDbLayerTableRecord
  2
INTF_13
 70
0
 62
7
  6
CONTINUOUS
370
-3
390
F
  0
LAYER
  5
227
100
AcDbSymbolTableRecord
100
AcDbLayerTableRecord
  2
INTF_14
 70
0
 62
7
  6
CONTINUOUS
370
-3
390
F
  0
LAYER
  5
228
100
AcDbSymbolTableRecord
100
AcDbLayerTableRecord
  2
INTF_15
 70
0
 62
7
  6
CONTINUOUS
370
-3
390
F
  0
LAYER
  5
229
100
AcDbSymbolTableRecord
100
AcDbLayerTableRecord
  2
INTF_2
 70
0
 62
7
  6
CONTINUOUS
370
-3
390
F
  0
LAYER
  5
22A
100
AcDbSymbolTableRecord
100
AcDbLayerTableRecord
  2
INTF_3
 70
0
 62
7
  6
CONTINUOUS
370
-3
390
F
  0
LAYER
  5
22B
100
AcDbSymbolTableRecord
100
AcDbLayerTableRecord
  2
INTF_4
 70
0
 62
7
  6
CONTINUOUS
370
-3
390
F
  0
LAYER
  5
22C
100
AcDbSymbolTableRecord
100
AcDbLayerTableRecord
  2
INTF_5
 70
0
 62
7
  6
CONTINUOUS
370
-3
390
F
  0
LAYER
  5
22D
100
AcDbSymbolTableRecord
100
AcDbLayerTableRecord
  2
INTF_6
 70
0
 62
7
  6
CONTINUOUS
370
-3
390
F
  0
LAYER
  5
22E
100
AcDbSymbolTableRecord
100
AcDbLayerTableRecord
  2
INTF_7
 70
0
 62
7
  6
CONTINUOUS
370
-3
390
F
  0
LAYER
  5
22F
100
AcDbSymbolTableRecord
100
AcDbLayerTableRecord
  2
INTF_8
 70
0
 62
7
  6
CONTINUOUS
370
-3
390
F
  0
LAYER
  5
230
100
AcDbSymbolTableRecord
100
AcDbLayerTableRecord
  2
INTF_9
 70
0
 62
7
  6
CONTINUOUS
370
-3
390
F
  0
LAYER
  5
231
100
AcDbSymbolTableRecord
100
AcDbLayerTableRecord
  2
NOTE
 70
0
 62
7
  6
CONTINUOUS
370
-3
390
F
  0
LAYER
  5
232
100
AcDbSymbolTableRecord
100
AcDbLayerTableRecord
  2
PALE_STEEL
 70
0
 62
7
  6
CONTINUOUS
370
-3
390
F
  0
LAYER
  5
233
100
AcDbSymbolTableRecord
100
AcDbLayerTableRecord
  2
PIANI
 70
0
 62
7
  6
CONTINUOUS
370
-3
390
F
  0
LAYER
  5
234
100
AcDbSymbolTableRecord
100
AcDbLayerTableRecord
  2
PUNTI
 70
0
 62
7
  6
CONTINUOUS
370
-3
390
F
  0
LAYER
  5
235
100
AcDbSymbolTableRecord
100
AcDbLayerTableRecord
  2
RACCORDO
 70
0
 62
7
  6
CONTINUOUS
370
-3
390
F
  0
LAYER
  5
236
100
AcDbSymbolTableRecord
100
AcDbLayerTableRecord
  2
SIMBOLI
 70
0
 62
7
  6
CONTINUOUS
370
-3
390
F
  0
LAYER
  5
237
100
AcDbSymbolTableRecord
100
AcDbLayerTableRecord
  2
SMUSSO
 70
0
 62
7
  6
CONTINUOUS
370
-3
390
F
  0
LAYER
  5
238
100
AcDbSymbolTableRecord
100
AcDbLayerTableRecord
  2
SNAPLINE
 70
0
 62
7
  6
CONTINUOUS
370
-3
390
F
  0
LAYER
  5
239
100
AcDbSymbolTableRecord
100
AcDbLayerTableRecord
  2
SUPERFICI
 70
0
 62
7
  6
CONTINUOUS
370
-3
390
F
  0
LAYER
  5
23A
100
AcDbSymbolTableRecord
100
AcDbLayerTableRecord
  2
TRASH
 70
0
 62
7
  6
CONTINUOUS
370
-3
390
F
  0
LAYER
  5
23B
100
AcDbSymbolTableRecord
100
AcDbLayerTableRecord
  2
VIMAR-IS-01_2KU3_1_1
 70
0
 62
7
  6
CONTINUOUS
370
-3
390
F
  0
LAYER
  5
23C
100
AcDbSymbolTableRecord
100
AcDbLayerTableRecord
  2
VIMAR-IS-01_2KU3_1_1_52
 70
0
 62
7
  6
CONTINUOUS
370
-3
390
F
  0
LAYER
  5
23D
100
AcDbSymbolTableRecord
100
AcDbLayerTableRecord
  2
VIMAR-IS-01_2KU3_1_1_53
 70
0
 62
7
  6
CONTINUOUS
370
-3
390
F
  0
LAYER
  5
23E
100
AcDbSymbolTableRecord
100
AcDbLayerTableRecord
  2
VIMAR-IS-01_2KU3_1_1_54
 70
0
 62
7
  6
CONTINUOUS
370
-3
390
F
  0
LAYER
  5
23F
100
AcDbSymbolTableRecord
100
AcDbLayerTableRecord
  2
VIMAR-IS-01_2KU3_1_1_62
 70
0
 62
7
  6
CONTINUOUS
370
-3
390
F
  0
LAYER
  5
240
100
AcDbSymbolTableRecord
100
AcDbLayerTableRecord
  2
VIMAR-IS-01_2KU3_1_1_63
 70
0
 62
7
  6
CONTINUOUS
370
-3
390
F
  0
LAYER
  5
241
100
AcDbSymbolTableRecord
100
AcDbLayerTableRecord
  2
VIMAR-IS-01_2KU3_1_1_88
 70
0
 62
7
  6
CONTINUOUS
370
-3
390
F
  0
LAYER
  5
242
100
AcDbSymbolTableRecord
100
AcDbLayerTableRecord
  2
VIMAR-IS-01_2KU3_1_1_89
 70
0
 62
7
  6
CONTINUOUS
370
-3
390
F
  0
LAYER
  5
243
100
AcDbSymbolTableRecord
100
AcDbLayerTableRecord
  2
VIMAR-IS-01_2KU3_1_1_9
 70
0
 62
7
  6
CONTINUOUS
370
-3
390
F
  0
LAYER
  5
244
100
AcDbSymbolTableRecord
100
AcDbLayerTableRecord
  2
VIMAR-IS-01_2KU3_1_1_90
 70
0
 62
7
  6
CONTINUOUS
370
-3
390
F
  0
LAYER
  5
245
100
AcDbSymbolTableRecord
100
AcDbLayerTableRecord
  2
VIMAR-IS-01_2KU3_1_1_91
 70
0
 62
7
  6
CONTINUOUS
370
-3
390
F
  0
LAYER
  5
246
100
AcDbSymbolTableRecord
100
AcDbLayerTableRecord
  2
VIMAR-IS-01_2KU3_1_1_92
 70
0
 62
7
  6
CONTINUOUS
370
-3
390
F
  0
LAYER
  5
247
100
AcDbSymbolTableRecord
100
AcDbLayerTableRecord
  2
___SHELL
 70
0
 62
7
  6
CONTINUOUS
370
-3
390
F
  0
ENDTAB
  0
TABLE
  2
STYLE
  5
3
100
AcDbSymbolTable
 70
1
  0
STYLE
  5
11
100
AcDbSymbolTableRecord
100
AcDbTextStyleTableRecord
  2
STANDARD
 70
0
 40
0.0
 41
0.8
 50
0.0
 71
0
 42
0.2
  3
txt
  4

  0
STYLE
  5
248
100
AcDbSymbolTableRecord
100
AcDbTextStyleTableRecord
  2
TEXTSTYLE_1
 70
0
 40
0.0
 41
0.8
 50
0.0
 71
0
 42
0.2
  3
gdt
  4

  0
ENDTAB
  0
TABLE
  2
VIEW
  5
6
100
AcDbSymbolTable
 70
0
  0
ENDTAB
  0
TABLE
  2
UCS
  5
7
100
AcDbSymbolTable
 70
0
  0
ENDTAB
  0
TABLE
  2
APPID
  5
9
100
AcDbSymbolTable
 70
1
  0
APPID
  5
249
100
AcDbSymbolTableRecord
100
AcDbRegAppTableRecord
  2
ACAD
 70
0
  0
ENDTAB
  0
TABLE
  2
BLOCK_RECORD
  5
1
100
AcDbSymbolTable
 70
0
  0
BLOCK_RECORD
  5
24A
100
AcDbSymbolTableRecord
100
AcDbBlockTableRecord
  2
*Model_Space
  0
BLOCK_RECORD
  5
24B
100
AcDbSymbolTableRecord
100
AcDbBlockTableRecord
  2
*Paper_Space
  0
BLOCK_RECORD
  5
24C
100
AcDbSymbolTableRecord
100
AcDbBlockTableRecord
  2
_FILLED
  0
ENDTAB
  0
TABLE
  2
DIMSTYLE
  5
A
100
AcDbSymbolTable
 70
1
100
AcDbDimStyleTable
 71
0
  0
DIMSTYLE
105
24D
100
AcDbSymbolTableRecord
100
AcDbDimStyleTableRecord
  2
STANDARD
 70
0
  3

  4

 40
1.0
 41
3.0
 42
0.5
 43
0.38
 44
1.5
 45
0.0
 46
0.0
 47
0.01
 48
0.01
140
3.0
141
0.09
142
0.0
143
25.4
144
1.0
145
0.0
146
1.0
147
0.625
 71
1
 72
0
 73
0
 74
0
 75
0
 76
0
 77
1
 78
8
 79
2
170
0
171
1
172
0
173
0
174
0
175
0
176
0
177
0
178
0
270
2
179
2
271
2
272
2
273
2
274
2
275
0
280
0
281
0
282
0
283
1
284
8
285
0
286
0
287
3
288
0
340
11
278
44
341
24C
342
24C
343
24C
344
24C
  0
ENDTAB
  0
ENDSEC
  0
SECTION
  2
BLOCKS
  0
BLOCK
  5
20
100
AcDbEntity
  8
0
100
AcDbBlockBegin
  2
*Model_Space
 70
0
 10
0.0
 20
0.0
 30
0.0
  3
*Model_Space
  1

  0
ENDBLK
  5
21
100
AcDbEntity
  8
0
100
AcDbBlockEnd
  0
BLOCK
  5
1C
100
AcDbEntity
  8
0
100
AcDbBlockBegin
  2
*Paper_Space
 70
0
 10
0.0
 20
0.0
 30
0.0
  3
*Paper_Space
  1

  0
ENDBLK
  5
1D
100
AcDbEntity
  8
0
100
AcDbBlockEnd
  0
BLOCK
  5
24E
100
AcDbEntity
  8
0
100
AcDbBlockBegin
  2
_FILLED
 70
64
 10
0.0
 20
0.0
  3
_FILLED
  1

  0
SOLID
  5
24F
100
AcDbEntity
  8
0
  6
BYBLOCK
 62
0
100
AcDbTrace
 10
0.0
 20
0.0
 11
-1.0
 21
0.3166666667
 12
-1.0
 22
-0.3166666667
 13
-1.0
 23
-0.3166666667
  0
ENDBLK
  5
250
100
AcDbEntity
  8
0
  6
BYBLOCK
 62
0
100
AcDbBlockEnd
  0
ENDSEC
  0
SECTION
  2
ENTITIES
  0
LINE
  5
251
100
AcDbEntity
  8
IMPORT_IGES
100
AcDbLine
 62
7
  6
CONTINUOUS
 10
45.6432842634
 20
110.5178737717
 11
45.6477598549
 21
110.4749757906
  0
LINE
  5
252
100
AcDbEntity
  8
IMPORT_IGES
100
AcDbLine
 62
7
  6
CONTINUOUS
 10
45.6389147572
 20
110.5629235861
 11
45.6432842634
 21
110.5178737717
  0
LINE
  5
253
100
AcDbEntity
  8
IMPORT_IGES
100
AcDbLine
 62
7
  6
CONTINUOUS
 10
45.6346258026
 20
110.6103243926
 11
45.6389147572
 21
110.5629235861
  0
LINE
  5
254
100
AcDbEntity
  8
IMPORT_IGES
100
AcDbLine
 62
7
  6
CONTINUOUS
 10
45.6303962965
 20
110.6602778006
 11
45.6346258026
 21
110.6103243926
  0
LWPOLYLINE
  5
255
100
AcDbEntity
  8
IMPORT_IGES
100
AcDbPolyline
 62
250
  6
CONTINUOUS
 90
17
 70
0
 10
46.6287404107
 20
109.796874567
 10
46.6327750964
 20
109.7453602308
 10
46.6368307838
 20
109.6969161915
 10
46.6409074591
 20
109.6515579941
 10
46.6450011619
 20
109.609300159
 10
46.6491118085
 20
109.5701562585
 10
46.6532394827
 20
109.5341388704
 10
46.6573804756
 20
109.5012595456
 10
46.6615347603
 20
109.4715288687
 10
46.6657023638
 20
109.4449564129
 10
46.6698796574
 20
109.4215507213
 10
46.6740655641
 20
109.4013193608
 10
46.6782611609
 20
109.3842688753
 10
46.6824660501
 20
109.3704047759
 10
46.6866800993
 20
109.3597315858
 10
46.690903441
 20
109.3522528213
 10
46.6951360751
 20
109.3479709684
  0
LINE
  5
256
100
AcDbEntity
  8
IMPORT_IGES
100
AcDbLine
 62
7
  6
CONTINUOUS
 10
45.6262126676
 20
110.712938317
 11
45.6303962965
 21
110.6602778006
  0
LINE
  5
257
100
AcDbEntity
  8
IMPORT_IGES
100
AcDbLine
 62
7
  6
CONTINUOUS
 10
45.6220621813
 20
110.7684819514
 11
45.6262126676
 21
110.712938317
  0
LINE
  5
258
100
AcDbEntity
  8
IMPORT_IGES
100
AcDbLine
 62
250
  6
CONTINUOUS
 10
46.6207379221
 20
109.9090471263
 11
46.6287404107
 21
109.796874567
  0
LINE
  5
259
100
AcDbEntity
  8
IMPORT_IGES
100
AcDbLine
 62
7
  6
CONTINUOUS
 10
45.6158817457
 20
110.857509952
 11
45.6220621813
 21
110.7684819514
  0
LINE
  5
25A
100
AcDbEntity
  8
IMPORT_IGES
100
AcDbLine
 62
7
  6
CONTINUOUS
 10
45.6097403239
 20
110.953773743
 11
45.6158817457
 21
110.857509952
  0
LINE
  5
25B
100
AcDbEntity
  8
IMPORT_IGES
100
AcDbLine
 62
250
  6
CONTINUOUS
 10
46.6128351654
 20
110.0332902217
 11
46.6207379221
 21
109.9090471263
  0
LINE
  5
25C
100
AcDbEntity
  8
IMPORT_IGES
100
AcDbLine
 62
7
  6
CONTINUOUS
 10
45.60362772
 20
111.057659756
 11
45.6097403239
 21
110.953773743
  0
LINE
  5
25D
100
AcDbEntity
  8
IMPORT_IGES
100
AcDbLine
 62
250
  6
CONTINUOUS
 10
46.6050433504
 20
110.1694448249
 11
46.6128351654
 21
110.0332902217
  0
LINE
  5
25E
100
AcDbEntity
  8
IMPORT_IGES
100
AcDbLine
 62
7
  6
CONTINUOUS
 10
45.5955152112
 20
111.2086241414
 11
45.60362772
 21
111.057659756
  0
LINE
  5
25F
100
AcDbEntity
  8
IMPORT_IGES
100
AcDbLine
 62
250
  6
CONTINUOUS
 10
46.5973699264
 20
110.3173366662
 11
46.6050433504
 21
110.1694448249
  0
LINE
  5
260
100
AcDbEntity
  8
IMPORT_IGES
100
AcDbLine
 62
7
  6
CONTINUOUS
 10
45.5874464812
 20
111.3744750322
 11
45.5955152112
 21
111.2086241414
  0
LINE
  5
261
100
AcDbEntity
  8
IMPORT_IGES
100
AcDbLine
 62
250
  6
CONTINUOUS
 10
46.5861061491
 20
110.5607639027
 11
46.5973699264
 21
110.3173366662
  0
LINE
  5
262
100
AcDbEntity
  8
IMPORT_IGES
100
AcDbLine
 62
7
  6
CONTINUOUS
 10
45.5774362286
 20
111.6036729602
 11
45.5874464812
 21
111.3744750322
  0
LINE
  5
263
100
AcDbEntity
  8
IMPORT_IGES
100
AcDbLine
 62
250
  6
CONTINUOUS
 10
46.5751660469
 20
110.8294704624
 11
46.5861061491
 21
110.5607639027
  0
LINE
  5
264
100
AcDbEntity
  8
IMPORT_IGES
100
AcDbLine
 62
7
  6
CONTINUOUS
 10
45.567529592
 20
111.8583988769
 11
45.5774362286
 21
111.6036729602
  0
LINE
  5
265
100
AcDbEntity
  8
IMPORT_IGES
100
AcDbLine
 62
250
  6
CONTINUOUS
 10
46.561137532
 20
111.2257232162
 11
46.5751660469
 21
110.8294704624
  0
LINE
  5
266
100
AcDbEntity
  8
IMPORT_IGES
100
AcDbLine
 62
7
  6
CONTINUOUS
 10
45.5558039402
 20
112.2000508072
 11
45.567529592
 21
111.8583988769
  0
LWPOLYLINE
  5
267
100
AcDbEntity
  8
IMPORT_IGES
100
AcDbPolyline
 62
7
  6
CONTINUOUS
 90
16
 70
0
 10
45.7022270736
 20
110.3476722717
 10
45.7039763968
 20
110.2891627161
 10
45.7090499824
 20
110.2312519006
 10
45.7174478305
 20
110.1739398251
 10
45.7292217984
 20
110.1170385605
 10
45.7443200289
 20
110.0607360359
 10
45.76258695
 20
110.0055960392
 10
45.7840539358
 20
109.9516305173
 10
45.8086896123
 20
109.8988275234
 10
45.8362442859
 20
109.8477150047
 10
45.8667469086
 20
109.7983096055
 10
45.9001685284
 20
109.7505946815
 10
45.9361725957
 20
109.7050482478
 10
45.974784538
 20
109.6616919891
 10
46.0159789277
 20
109.6205042207
 10
46.059342933
 20
109.5818979032
  0
LINE
  5
268
100
AcDbEntity
  8
IMPORT_IGES
100
AcDbLine
 62
250
  6
CONTINUOUS
 10
46.5478111317
 20
111.6635092452
 11
46.561137532
 21
111.2257232162
  0
LINE
  5
269
100
AcDbEntity
  8
IMPORT_IGES
100
AcDbLine
 62
7
  6
CONTINUOUS
 10
45.5424142976
 20
112.651862469
 11
45.5558039402
 21
112.2000508072
  0
LINE
  5
26A
100
AcDbEntity
  8
IMPORT_IGES
100
AcDbLine
 62
250
  6
CONTINUOUS
 10
46.5322471398
 20
112.2657196858
 11
46.5478111317
 21
111.6635092452
  0
LINE
  5
26B
100
AcDbEntity
  8
IMPORT_IGES
100
AcDbLine
 62
7
  6
CONTINUOUS
 10
45.5276443558
 20
113.2438550935
 11
45.5424142976
 21
112.651862469
  0
LINE
  5
26C
100
AcDbEntity
  8
IMPORT_IGES
100
AcDbLine
 62
250
  6
CONTINUOUS
 10
46.51533474
 20
113.0625970902
 11
46.5322471398
 21
112.2657196858
  0
LINE
  5
26D
100
AcDbEntity
  8
IMPORT_IGES
100
AcDbLine
 62
7
  6
CONTINUOUS
 10
45.511999947
 20
114.0140014536
 11
45.5276443558
 21
113.2438550935
  0
LINE
  5
26E
100
AcDbEntity
  8
IMPORT_IGES
100
AcDbLine
 62
250
  6
CONTINUOUS
 10
46.498280561
 20
114.0829561121
 11
46.51533474
 21
113.0625970902
  0
LINE
  5
26F
100
AcDbEntity
  8
IMPORT_IGES
100
AcDbLine
 62
7
  6
CONTINUOUS
 10
45.4963628682
 20
115.0086549372
 11
45.511999947
 21
114.0140014536
  0
LINE
  5
270
100
AcDbEntity
  8
IMPORT_IGES
100
AcDbLine
 62
250
  6
CONTINUOUS
 10
46.4809945596
 20
115.5135096952
 11
46.498280561
 21
114.0829561121
  0
LINE
  5
271
100
AcDbEntity
  8
IMPORT_IGES
100
AcDbLine
 62
7
  6
CONTINUOUS
 10
45.4822146041
 20
116.2825233927
 11
45.4963628682
 21
115.0086549372
  0
LINE
  5
272
100
AcDbEntity
  8
IMPORT_IGES
100
AcDbLine
 62
250
  6
CONTINUOUS
 10
46.4684018469
 20
117.2174673725
 11
46.4809945596
 21
115.5135096952
  0
LINE
  5
273
100
AcDbEntity
  8
IMPORT_IGES
100
AcDbLine
 62
7
  6
CONTINUOUS
 10
45.4725906872
 20
117.7547441433
 11
45.4822146041
 21
116.2825233927
  0
LINE
  5
274
100
AcDbEntity
  8
IMPORT_IGES
100
AcDbLine
 62
250
  6
CONTINUOUS
 10
46.4630368406
 20
119.1680397618
 11
46.4684018469
 21
117.2174673725
  0
LINE
  5
275
100
AcDbEntity
  8
IMPORT_IGES
100
AcDbLine
 62
7
  6
CONTINUOUS
 10
45.4692959177
 20
119.34684495
 11
45.4725906872
 21
117.7547441433
  0
LINE
  5
276
100
AcDbEntity
  8
IMPORT_IGES
100
AcDbLine
 62
7
  6
CONTINUOUS
 10
45.4661198635
 20
194.7866637691
 11
45.4629745576
 21
119.3467488578
  0
LINE
  5
277
100
AcDbEntity
  8
IMPORT_IGES
100
AcDbLine
 62
250
  6
CONTINUOUS
 10
46.466192296
 20
194.7515333078
 11
46.4630368406
 21
119.1680397618
  0
LINE
  5
278
100
AcDbEntity
  8
IMPORT_IGES
100
AcDbLine
 62
7
  6
CONTINUOUS
 10
45.4759854795
 20
196.2697348315
 11
45.4661198635
 21
194.7866637691
  0
LINE
  5
279
100
AcDbEntity
  8
IMPORT_IGES
100
AcDbLine
 62
250
  6
CONTINUOUS
 10
46.4782270257
 20
196.5018332492
 11
46.466192296
 21
194.7515333078
  0
LINE
  5
27A
100
AcDbEntity
  8
IMPORT_IGES
100
AcDbLine
 62
250
  6
CONTINUOUS
 10
46.4948873102
 20
197.9928305493
 11
46.4782270257
 21
196.5018332492
  0
LINE
  5
27B
100
AcDbEntity
  8
IMPORT_IGES
100
AcDbLine
 62
7
  6
CONTINUOUS
 10
45.4905423221
 20
197.5573724873
 11
45.4759854795
 21
196.2697348315
  0
LINE
  5
27C
100
AcDbEntity
  8
IMPORT_IGES
100
AcDbLine
 62
7
  6
CONTINUOUS
 10
45.5066522469
 20
198.5667001371
 11
45.4905423221
 21
197.5573724873
  0
LINE
  5
27D
100
AcDbEntity
  8
IMPORT_IGES
100
AcDbLine
 62
250
  6
CONTINUOUS
 10
46.5166910095
 20
199.3608661976
 11
46.4948873102
 21
197.9928305493
  0
LINE
  5
27E
100
AcDbEntity
  8
IMPORT_IGES
100
AcDbLine
 62
7
  6
CONTINUOUS
 10
45.5228574954
 20
199.351193114
 11
45.5066522469
 21
198.5667001371
  0
LINE
  5
27F
100
AcDbEntity
  8
IMPORT_IGES
100
AcDbLine
 62
250
  6
CONTINUOUS
 10
46.5386279538
 20
200.4251626355
 11
46.5166910095
 21
199.3608661976
  0
LINE
  5
280
100
AcDbEntity
  8
IMPORT_IGES
100
AcDbLine
 62
250
  6
CONTINUOUS
 10
46.5566191536
 20
201.1297174644
 11
46.5386279538
 21
200.4251626355
  0
LINE
  5
281
100
AcDbEntity
  8
IMPORT_IGES
100
AcDbLine
 62
7
  6
CONTINUOUS
 10
45.5382903249
 20
199.9555596818
 11
45.5228574954
 21
199.351193114
  0
LINE
  5
282
100
AcDbEntity
  8
IMPORT_IGES
100
AcDbLine
 62
7
  6
CONTINUOUS
 10
45.5523596104
 20
200.4165169707
 11
45.5382903249
 21
199.9555596818
  0
LINE
  5
283
100
AcDbEntity
  8
IMPORT_IGES
100
AcDbLine
 62
250
  6
CONTINUOUS
 10
46.5728354723
 20
201.6606801124
 11
46.5566191536
 21
201.1297174644
  0
LINE
  5
284
100
AcDbEntity
  8
IMPORT_IGES
100
AcDbLine
 62
250
  6
CONTINUOUS
 10
46.5830310893
 20
201.948964212
 11
46.5728354723
 21
201.6606801124
  0
LINE
  5
285
100
AcDbEntity
  8
IMPORT_IGES
100
AcDbLine
 62
7
  6
CONTINUOUS
 10
45.5646704018
 20
200.7642631476
 11
45.5523596104
 21
200.4165169707
  0
LINE
  5
286
100
AcDbEntity
  8
IMPORT_IGES
100
AcDbLine
 62
7
  6
CONTINUOUS
 10
45.575021359
 20
201.0226813319
 11
45.5646704018
 21
200.7642631476
  0
LINE
  5
287
100
AcDbEntity
  8
IMPORT_IGES
100
AcDbLine
 62
250
  6
CONTINUOUS
 10
46.5935614044
 20
202.2120050562
 11
46.5830310893
 21
201.948964212
  0
LINE
  5
288
100
AcDbEntity
  8
IMPORT_IGES
100
AcDbLine
 62
7
  6
CONTINUOUS
 10
45.5854009373
 20
201.2543023451
 11
45.575021359
 21
201.0226813319
  0
LINE
  5
289
100
AcDbEntity
  8
IMPORT_IGES
100
AcDbLine
 62
250
  6
CONTINUOUS
 10
46.6044025607
 20
202.4491334728
 11
46.5935614044
 21
202.2120050562
  0
LINE
  5
28A
100
AcDbEntity
  8
IMPORT_IGES
100
AcDbLine
 62
7
  6
CONTINUOUS
 10
45.5936984788
 20
201.4214220867
 11
45.5854009373
 21
201.2543023451
  0
LINE
  5
28B
100
AcDbEntity
  8
IMPORT_IGES
100
AcDbLine
 62
250
  6
CONTINUOUS
 10
46.6117827749
 20
202.5924768573
 11
46.6044025607
 21
202.4491334728
  0
LINE
  5
28C
100
AcDbEntity
  8
IMPORT_IGES
100
AcDbLine
 62
7
  6
CONTINUOUS
 10
45.6019739042
 20
201.5733086008
 11
45.5936984788
 21
201.4214220867
  0
LINE
  5
28D
100
AcDbEntity
  8
IMPORT_IGES
100
AcDbLine
 62
250
  6
CONTINUOUS
 10
46.6192763586
 20
202.7238057161
 11
46.6117827749
 21
202.5924768573
  0
LINE
  5
28E
100
AcDbEntity
  8
IMPORT_IGES
100
AcDbLine
 62
7
  6
CONTINUOUS
 10
45.6102188709
 20
201.7108493808
 11
45.6019739042
 21
201.5733086008
  0
LINE
  5
28F
100
AcDbEntity
  8
IMPORT_IGES
100
AcDbLine
 62
7
  6
CONTINUOUS
 10
45.6163826925
 20
201.8051515187
 11
45.6102188709
 21
201.7108493808
  0
LINE
  5
290
100
AcDbEntity
  8
IMPORT_IGES
100
AcDbLine
 62
7
  6
CONTINUOUS
 10
45.6225359824
 20
201.8923471195
 11
45.6163826925
 21
201.8051515187
  0
LINE
  5
291
100
AcDbEntity
  8
IMPORT_IGES
100
AcDbLine
 62
7
  6
CONTINUOUS
 10
45.6286948511
 20
201.9729473259
 11
45.6225359824
 21
201.8923471195
  0
LINE
  5
292
100
AcDbEntity
  8
IMPORT_IGES
100
AcDbLine
 62
7
  6
CONTINUOUS
 10
45.6328161344
 20
202.0232851202
 11
45.6286948511
 21
201.9729473259
  0
LINE
  5
293
100
AcDbEntity
  8
IMPORT_IGES
100
AcDbLine
 62
7
  6
CONTINUOUS
 10
45.6369613891
 20
202.0711002768
 11
45.6328161344
 21
202.0232851202
  0
LINE
  5
294
100
AcDbEntity
  8
IMPORT_IGES
100
AcDbLine
 62
7
  6
CONTINUOUS
 10
45.6411456744
 20
202.1165859934
 11
45.6369613891
 21
202.0711002768
  0
LINE
  5
295
100
AcDbEntity
  8
IMPORT_IGES
100
AcDbLine
 62
7
  6
CONTINUOUS
 10
45.6453843623
 20
202.1599057724
 11
45.6411456744
 21
202.1165859934
  0
LINE
  5
296
100
AcDbEntity
  8
IMPORT_IGES
100
AcDbLine
 62
7
  6
CONTINUOUS
 10
45.6497007499
 20
202.2012673113
 11
45.6453843623
 21
202.1599057724
  0
LINE
  5
297
100
AcDbEntity
  8
IMPORT_IGES
100
AcDbLine
 62
7
  6
CONTINUOUS
 10
45.6541286563
 20
202.2409253745
 11
45.6497007499
 21
202.2012673113
  0
LWPOLYLINE
  5
298
100
AcDbEntity
  8
IMPORT_IGES
100
AcDbPolyline
 62
7
  6
CONTINUOUS
 90
38
 70
0
 10
45.6477598549
 20
110.4749757906
 10
45.6500452292
 20
110.4542863125
 10
45.652373312
 20
110.4340243832
 10
45.6547471358
 20
110.4141846767
 10
45.6571726496
 20
110.3947400203
 10
45.659667312
 20
110.3755812017
 10
45.6622362194
 20
110.3567067663
 10
45.6648895293
 20
110.3380820864
 10
45.6676582657
 20
110.3195433099
 10
45.6705513798
 20
110.3010962723
 10
45.6735868997
 20
110.2826956387
 10
45.6768209106
 20
110.2640949954
 10
45.6802759784
 20
110.2452813846
 10
45.6839801189
 20
110.2262259969
 10
45.6880183084
 20
110.206646536
 10
45.692430594
 20
110.1865351163
 10
45.6972704173
 20
110.1658459079
 10
45.702678432
 20
110.1442224896
 10
45.708738509
 20
110.1216248596
 10
45.7155386726
 20
110.0980384231
 10
45.7232798872
 20
110.0731322804
 10
45.7320758977
 20
110.046955528
 10
45.7421001132
 20
110.0194309518
 10
45.7537367051
 20
109.9900416611
 10
45.7673058023
 20
109.9586129671
 10
45.7829639906
 20
109.9254029008
 10
45.8009123985
 20
109.8905790121
 10
45.8215110381
 20
109.8540665446
 10
45.8449065915
 20
109.816243436
 10
45.8708870203
 20
109.7779821877
 10
45.8994775231
 20
109.7396693094
 10
45.9309408321
 20
109.70138818
 10
45.9652988403
 20
109.6635663104
 10
46.0024597325
 20
109.6267195294
 10
46.0426466331
 20
109.5909492209
 10
46.0863377443
 20
109.5561566083
 10
46.1334697537
 20
109.5227825009
 10
46.1464375224
 20
109.5142902242
  0
LWPOLYLINE
  5
299
100
AcDbEntity
  8
IMPORT_IGES
100
AcDbPolyline
 62
250
  6
CONTINUOUS
 90
19
 70
0
 10
46.6951486163
 20
203.345720815
 10
46.6910409811
 20
203.3415799251
 10
46.6869378341
 20
203.3343587045
 10
46.6828391753
 20
203.3240218303
 10
46.6787436034
 20
203.3105330189
 10
46.6746525198
 20
203.2938597793
 10
46.6705701278
 20
203.2739772367
 10
46.666494359
 20
203.2508441643
 10
46.6624272819
 20
203.224443036
 10
46.6583793052
 20
203.1948079249
 10
46.6543510701
 20
203.1619349227
 10
46.6503419354
 20
203.1258163657
 10
46.646360387
 20
203.0865169389
 10
46.6424093607
 20
203.0440743207
 10
46.6384859207
 20
202.9984810506
 10
46.6345897454
 20
202.949751745
 10
46.6307207954
 20
202.8979021008
 10
46.6268791101
 20
202.8429490675
 10
46.6192763586
 20
202.7238057161
  0
LWPOLYLINE
  5
29A
100
AcDbEntity
  8
IMPORT_IGES
100
AcDbPolyline
 62
250
  6
CONTINUOUS
 90
88
 70
0
 10
51.9939968377
 20
119.3468460658
 10
52.0443995742
 20
119.2767424244
 10
52.0970037861
 20
119.2069453028
 10
52.1518094737
 20
119.137458035
 10
52.2091124795
 20
119.0679179983
 10
52.2686169608
 20
118.9986943783
 10
52.3294353896
 20
118.9308873786
 10
52.3914598753
 20
118.8646775559
 10
52.4547983084
 20
118.7998879475
 10
52.518886833
 20
118.7370806744
 10
52.5833679402
 20
118.6766121528
 10
52.6485991389
 20
118.6181259847
 10
52.7150890995
 20
118.5611145652
 10
52.7829947586
 20
118.5054129717
 10
52.8521591796
 20
118.4511860083
 10
52.9226202234
 20
118.3984209592
 10
52.9945210061
 20
118.3470230742
 10
53.0677184115
 20
118.2970857633
 10
53.1418209525
 20
118.2488778841
 10
53.2168100335
 20
118.2024305994
 10
53.2927042502
 20
118.1577094943
 10
53.3691679019
 20
118.1148841653
 10
53.4460884031
 20
118.0740220477
 10
53.5235783393
 20
118.0350512546
 10
53.6016397666
 20
117.9979320808
 10
53.6802938178
 20
117.9626499914
 10
53.75951936
 20
117.929215044
 10
53.8392550507
 20
117.8976244667
 10
53.919531618
 20
117.8678651371
 10
54.0003183338
 20
117.839945804
 10
54.0814616717
 20
117.8138965245
 10
54.1629402727
 20
117.7897246273
 10
54.2447754959
 20
117.7674187126
 10
54.3268778917
 20
117.7469808338
 10
54.4091957712
 20
117.728416922
 10
54.4917808234
 20
117.7117176253
 10
54.574698665
 20
117.6968622733
 10
54.6580028352
 20
117.683839469
 10
54.7416397948
 20
117.6726580643
 10
54.8255145435
 20
117.6633279962
 10
54.9096699939
 20
117.6558458115
 10
54.9940632333
 20
117.6502133628
 10
55.0784705235
 20
117.6464487868
 10
55.1628149695
 20
117.6445569981
 10
55.2471734663
 20
117.644532528
 10
55.3315529609
 20
117.6463782055
 10
55.4160088203
 20
117.650097838
 10
55.5004856776
 20
117.655688164
 10
55.5848243792
 20
117.6631416792
 10
55.6690332441
 20
117.6724623494
 10
55.7531039534
 20
117.6836478197
 10
55.8368523967
 20
117.6966813487
 10
55.9202283684
 20
117.7115596295
 10
56.003282074
 20
117.7282885294
 10
56.08598002
 20
117.7468652802
 10
56.1683358616
 20
117.7672929987
 10
56.2503359436
 20
117.7895719532
 10
56.3319058072
 20
117.8136952738
 10
56.4130516327
 20
117.8396675469
 10
56.4937672398
 20
117.8674881931
 10
56.5739596289
 20
117.8971426943
 10
56.6536180496
 20
117.9286283557
 10
56.7327532524
 20
117.9619522254
 10
56.8113044887
 20
117.9971144398
 10
56.8892559649
 20
118.0341073991
 10
56.9666234746
 20
118.0729431516
 10
57.0433936505
 20
118.1136513311
 10
57.1196607646
 20
118.1562930195
 10
57.1953305449
 20
118.2008115169
 10
57.2701068072
 20
118.2470594878
 10
57.3440169997
 20
118.2950751823
 10
57.4170336742
 20
118.3448236305
 10
57.4887783015
 20
118.39604683
 10
57.5591110287
 20
118.4486525835
 10
57.6281717087
 20
118.5027344965
 10
57.6960013702
 20
118.5583126326
 10
57.7624027844
 20
118.6151810571
 10
57.8275731801
 20
118.6735458744
 10
57.8921452719
 20
118.7340456777
 10
57.9565523818
 20
118.7971119352
 10
58.0203611878
 20
118.8623135626
 10
58.0829044386
 20
118.9289948441
 10
58.1443188237
 20
118.997375367
 10
58.2044676536
 20
119.067231961
 10
58.2622736087
 20
119.1372426868
 10
58.3173775826
 20
119.2069643004
 10
58.3701386818
 20
119.2768332166
 10
58.4205569063
 20
119.346846055
  0
LWPOLYLINE
  5
29B
100
AcDbEntity
  8
IMPORT_IGES
100
AcDbPolyline
 62
7
  6
CONTINUOUS
 90
4
 70
0
 10
46.059342933
 20
109.5818979032
 10
46.1048981429
 20
109.5458984835
 10
46.1526229683
 20
109.5124805147
 10
46.2020398095
 20
109.4819806176
  0
LWPOLYLINE
  5
29C
100
AcDbEntity
  8
IMPORT_IGES
100
AcDbPolyline
 62
7
  6
CONTINUOUS
 90
37
 70
0
 10
46.1440007086
 20
203.180259517
 10
46.1316171246
 20
203.1719610973
 10
46.0845999488
 20
203.137936292
 10
46.0410614294
 20
203.102522194
 10
46.001069209
 20
203.0661725026
 10
45.9641986241
 20
203.028852947
 10
45.9301902969
 20
202.990668149
 10
45.8991309789
 20
202.9521455334
 10
45.871061958
 20
202.9138189642
 10
45.8457316606
 20
202.875831255
 10
45.8230459068
 20
202.8385148154
 10
45.8031551035
 20
202.8026794685
 10
45.7859153721
 20
202.7687308685
 10
45.7709381296
 20
202.7365524835
 10
45.7579456143
 20
202.7061389684
 10
45.7467675325
 20
202.6776797253
 10
45.7371232788
 20
202.6510618074
 10
45.7286500592
 20
202.6257964804
 10
45.7211950743
 20
202.6018505093
 10
45.7146414824
 20
202.579246695
 10
45.7087736877
 20
202.5575794053
 10
45.7035099967
 20
202.5368253817
 10
45.6987803838
 20
202.5169707949
 10
45.6944419034
 20
202.4976299043
 10
45.6904439492
 20
202.4787437091
 10
45.686756375
 20
202.4603271515
 10
45.6832995183
 20
202.4421142037
 10
45.6800444129
 20
202.4240551982
 10
45.6769753459
 20
202.406160346
 10
45.6740498219
 20
202.388265516
 10
45.6712518505
 20
202.3703406439
 10
45.668571691
 20
202.3523875721
 10
45.6659856091
 20
202.3343032998
 10
45.6634873492
 20
202.3160922293
 10
45.661067942
 20
202.2977348705
 10
45.6587051872
 20
202.2790984774
 10
45.6541286563
 20
202.2409253745
  0
LWPOLYLINE
  5
29D
100
AcDbEntity
  8
IMPORT_IGES
100
AcDbPolyline
 62
7
  6
CONTINUOUS
 90
12
 70
0
 10
46.1440135754
 20
203.1802400006
 10
46.1493858285
 20
203.1837575512
 10
46.1993249036
 20
203.2142219654
 10
46.2508438024
 20
203.2416313413
 10
46.3039362982
 20
203.2660198672
 10
46.357980838
 20
203.2871749124
 10
46.4129868771
 20
203.305027945
 10
46.46894496
 20
203.3196474968
 10
46.5252051674
 20
203.3310265321
 10
46.5815508593
 20
203.339162706
 10
46.6381986756
 20
203.3440583634
 10
46.6951486163
 20
203.3457135044
  0
LWPOLYLINE
  5
29E
100
AcDbEntity
  8
IMPORT_IGES
100
AcDbPolyline
 62
7
  6
CONTINUOUS
 90
4
 70
0
 10
46.2020355314
 20
203.2117088473
 10
46.1526173406
 20
203.181207567
 10
46.1048908473
 20
203.1477878406
 10
46.059334252
 20
203.1117866084
  0
LWPOLYLINE
  5
29F
100
AcDbEntity
  8
IMPORT_IGES
100
AcDbPolyline
 62
250
  6
CONTINUOUS
 90
29
 70
0
 10
51.9345350261
 20
124.0288016548
 10
51.8353689049
 20
123.8808321213
 10
51.7429780477
 20
123.7286789187
 10
51.6572900359
 20
123.5722891788
 10
51.5787387999
 20
123.4123964877
 10
51.5073156195
 20
123.2488994985
 10
51.4430292148
 20
123.0818995582
 10
51.3863396759
 20
122.9124342942
 10
51.3373021105
 20
122.7404576146
 10
51.295861411
 20
122.5660156113
 10
51.2623123452
 20
122.3902841874
 10
51.2367222519
 20
122.2132996204
 10
51.2190237924
 20
122.0350256329
 10
51.2093097179
 20
121.8565292953
 10
51.2076547018
 20
121.6776982113
 10
51.2139840709
 20
121.4986447773
 10
51.2281665561
 20
121.3207732535
 10
51.2501920468
 20
121.1444078995
 10
51.2800706536
 20
120.9692244557
 10
51.3177014395
 20
120.7956544042
 10
51.3631387461
 20
120.6234698324
 10
51.4163282318
 20
120.452898653
 10
51.4770059352
 20
120.2850560862
 10
51.5452246084
 20
120.1199689067
 10
51.6209314992
 20
119.95761034
 10
51.7037043894
 20
119.7990152828
 10
51.7934025395
 20
119.6445287008
 10
51.8901666889
 20
119.4938056285
 10
51.9939968377
 20
119.3468460658
  0
LWPOLYLINE
  5
2A0
100
AcDbEntity
  8
IMPORT_IGES
100
AcDbPolyline
 62
7
  6
CONTINUOUS
 90
3
 70
0
 10
46.2020398095
 20
109.4819806176
 10
46.2531652823
 20
109.4544276382
 10
46.3059827708
 20
109.4297927306
  0
LINE
  5
2A1
100
AcDbEntity
  8
IMPORT_IGES
100
AcDbLine
 62
250
  6
CONTINUOUS
 10
58.0189699446
 20
119.6447177595
 11
58.4206553323
 21
119.3469469451
  0
LWPOLYLINE
  5
2A2
100
AcDbEntity
  8
IMPORT_IGES
100
AcDbPolyline
 62
250
  6
CONTINUOUS
 90
72
 70
0
 10
58.4205569063
 20
119.346846055
 10
58.5238410312
 20
119.4929151179
 10
58.6201992934
 20
119.6429019233
 10
58.7096316928
 20
119.796806471
 10
58.7923079353
 20
119.9549829243
 10
58.868058315
 20
120.1170771199
 10
58.936373715
 20
120.2820265682
 10
58.9971921548
 20
120.4498682219
 10
59.0505756148
 20
120.6205651283
 10
59.0962009191
 20
120.7929439391
 10
59.1340016505
 20
120.96677914
 10
59.1640442261
 20
121.1422962454
 10
59.1862047218
 20
121.3189984509
 10
59.2004831624
 20
121.4972035738
 10
59.206879523
 20
121.6765937968
 10
59.2052698042
 20
121.8557188628
 10
59.1955721479
 20
122.0344635188
 10
59.1778684121
 20
122.2129430178
 10
59.1522801711
 20
122.390052862
 10
59.1187348131
 20
122.5658235836
 10
59.0773049498
 20
122.7402246503
 10
59.0283299907
 20
122.9120599674
 10
58.9717683586
 20
123.0812508369
 10
58.9076616306
 20
123.2478759569
 10
58.8364739486
 20
123.4109753273
 10
58.7582472378
 20
123.5704254228
 10
58.6729395729
 20
123.7263497687
 10
58.5808893196
 20
123.8781589416
 10
58.4820064516
 20
124.0259618689
 10
58.3763809952
 20
124.1696496231
 10
58.2646213954
 20
124.3083059981
 10
58.1466659227
 20
124.4419107181
 10
58.0225763067
 20
124.5704840589
 10
57.8931461813
 20
124.693170641
 10
57.7583517021
 20
124.8099111834
 10
57.6182167135
 20
124.9207649671
 10
57.473606383
 20
125.0250544562
 10
57.3245198666
 20
125.1227247088
 10
57.1709580081
 20
125.2138306667
 10
57.0137885068
 20
125.297859619
 10
56.8529935427
 20
125.3747783106
 10
56.6885909357
 20
125.4446199966
 10
56.5215018442
 20
125.5069717313
 10
56.351657169
 20
125.5618022541
 10
56.1791260093
 20
125.6091428255
 10
56.005036821
 20
125.6486742816
 10
55.8294101059
 20
125.6803332975
 10
55.6522253622
 20
125.7041831979
 10
55.47454954
 20
125.7200947932
 10
55.2963879762
 20
125.7280203875
 10
55.117735334
 20
125.7280076765
 10
54.9396425529
 20
125.7200705583
 10
54.7621205795
 20
125.7041664156
 10
54.5851584671
 20
125.6803378655
 10
54.4097743148
 20
125.6487266582
 10
54.2359464101
 20
125.6092772502
 10
54.0636964654
 20
125.5620451848
 10
53.8941077176
 20
125.5073388423
 10
53.7272333919
 20
125.445125269
 10
53.563020263
 20
125.3754374186
 10
53.4023918917
 20
125.2986825319
 10
53.2453599617
 20
125.2148212736
 10
53.0919127892
 20
125.123892979
 10
52.9429388837
 20
125.0264228952
 10
52.7984561358
 20
124.9223689338
 10
52.6584466548
 20
124.8117731833
 10
52.5237452789
 20
124.6952871553
 10
52.3943824357
 20
124.5728741708
 10
52.2703276977
 20
124.444570909
 10
52.15232462
 20
124.3111389182
 10
52.0404039928
 20
124.1725346509
 10
51.9345350261
 20
124.0288016548
  0
LWPOLYLINE
  5
2A3
100
AcDbEntity
  8
IMPORT_IGES
100
AcDbPolyline
 62
7
  6
CONTINUOUS
 90
8
 70
0
 10
46.3599648279
 20
109.4083259775
 10
46.3023955606
 20
109.4323622988
 10
46.2745010707
 20
109.4444944113
 10
46.2469249992
 20
109.4575195157
 10
46.2196022207
 20
109.47146719
 10
46.1925978606
 20
109.4863078562
 10
46.1660752743
 20
109.5019659865
 10
46.1464402667
 20
109.5142944838
  0
LWPOLYLINE
  5
2A4
100
AcDbEntity
  8
IMPORT_IGES
100
AcDbPolyline
 62
7
  6
CONTINUOUS
 90
6
 70
0
 10
46.3599648279
 20
109.4083259775
 10
46.4151233571
 20
109.390058376
 10
46.4714464549
 20
109.3749589292
 10
46.5283709628
 20
109.3631847289
 10
46.5857091613
 20
109.3547881391
 10
46.64364877
 20
109.3497167959
  0
LINE
  5
2A5
100
AcDbEntity
  8
IMPORT_IGES
100
AcDbLine
 62
7
  6
CONTINUOUS
 10
123.5703982161
 20
149.5761376646
 11
123.5703982161
 21
148.6515064646
  0
LINE
  5
2A6
100
AcDbEntity
  8
IMPORT_IGES
100
AcDbLine
 62
7
  6
CONTINUOUS
 10
123.5703982161
 20
144.4114456646
 11
123.5703982161
 21
143.4868144646
  0
LINE
  5
2A7
100
AcDbEntity
  8
IMPORT_IGES
100
AcDbLine
 62
7
  6
CONTINUOUS
 10
128.1603982161
 20
146.9904760646
 11
128.1603982161
 21
146.0724760646
  0
LINE
  5
2A8
100
AcDbEntity
  8
IMPORT_IGES
100
AcDbLine
 62
7
  6
CONTINUOUS
 10
128.7723982161
 20
149.5761376646
 11
128.7723982161
 21
148.6515064646
  0
LINE
  5
2A9
100
AcDbEntity
  8
IMPORT_IGES
100
AcDbLine
 62
7
  6
CONTINUOUS
 10
128.7723982161
 20
144.4114461742
 11
128.7723982161
 21
143.4868144646
  0
LWPOLYLINE
  5
2AA
100
AcDbEntity
  8
IMPORT_IGES
100
AcDbPolyline
 62
7
  6
CONTINUOUS
 90
28
 70
0
 10
144.4996131201
 20
148.0077187259
 10
144.5000495999
 20
148.0036619228
 10
144.5007602857
 20
147.9994921724
 10
144.5017451774
 20
147.9952094747
 10
144.5029903113
 20
147.9908051744
 10
144.5045096511
 20
147.9862879269
 10
144.5063450884
 20
147.9816836975
 10
144.5085050793
 20
147.9769774436
 10
144.5109811677
 20
147.9721842078
 10
144.513789877
 20
147.9673750835
 10
144.5169509163
 20
147.9625344413
 10
144.5204445765
 20
147.9576779106
 10
144.5242282525
 20
147.952923473
 10
144.5283240726
 20
147.9482679376
 10
144.5327099085
 20
147.9437144954
 10
144.5372767713
 20
147.9393907007
 10
144.5420365457
 20
147.9353098035
 10
144.5469773468
 20
147.9314585539
 10
144.5519545311
 20
147.9279247565
 10
144.5569560246
 20
147.9247334463
 10
144.5619939012
 20
147.9218595885
 10
144.566959739
 20
147.9193158827
 10
144.5718331166
 20
147.9171181833
 10
144.5766344554
 20
147.9152506359
 10
144.5813165978
 20
147.9136783774
 10
144.5858638244
 20
147.9123897864
 10
144.5902918545
 20
147.9113964842
 10
144.5946006881
 20
147.9106984707
  0
LINE
  5
2AB
100
AcDbEntity
  8
IMPORT_IGES
100
AcDbLine
 62
7
  6
CONTINUOUS
 10
144.4177788352
 20
148.9588988241
 11
144.4996131201
 21
148.0077187259
  0
LINE
  5
2AC
100
AcDbEntity
  8
IMPORT_IGES
100
AcDbLine
 62
7
  6
CONTINUOUS
 10
144.0791353991
 20
152.8955626478
 11
144.1338448415
 21
152.2595667414
  0
LINE
  5
2AD
100
AcDbEntity
  8
IMPORT_IGES
100
AcDbLine
 62
7
  6
CONTINUOUS
 10
144.1613288492
 20
151.9401621579
 11
144.3952068179
 21
149.2212743219
  0
LINE
  5
2AE
100
AcDbEntity
  8
IMPORT_IGES
100
AcDbLine
 62
7
  6
CONTINUOUS
 10
144.7044289411
 20
148.1239161378
 11
144.615315549
 21
149.159912582
  0
LINE
  5
2AF
100
AcDbEntity
  8
IMPORT_IGES
100
AcDbLine
 62
7
  6
CONTINUOUS
 10
144.3700915993
 20
152.010761919
 11
144.2947420993
 21
152.886697419
  0
LINE
  5
2B0
100
AcDbEntity
  8
IMPORT_IGES
100
AcDbLine
 62
7
  6
CONTINUOUS
 10
144.5927620993
 20
149.422307919
 11
144.3975731365
 21
151.6913595865
  0
LINE
  5
2B1
100
AcDbEntity
  8
IMPORT_IGES
100
AcDbLine
 62
7
  6
CONTINUOUS
 10
142.0574478493
 20
154.1559042977
 11
142.0574478493
 21
154.4463635777
  0
LINE
  5
2B2
100
AcDbEntity
  8
IMPORT_IGES
100
AcDbLine
 62
7
  6
CONTINUOUS
 10
142.6617625993
 20
143.825099919
 11
142.6617625993
 21
145.335283419
  0
LINE
  5
2B3
100
AcDbEntity
  8
IMPORT_IGES
100
AcDbLine
 62
7
  6
CONTINUOUS
 10
143.8212693833
 20
152.8955626478
 11
143.8212693833
 21
153.1096186487
  0
LINE
  5
2B4
100
AcDbEntity
  8
IMPORT_IGES
100
AcDbLine
 62
7
  6
CONTINUOUS
 10
144.4901584574
 20
153.5390872268
 11
144.4901584574
 21
153.6805598566
  0
LINE
  5
2B5
100
AcDbEntity
  8
IMPORT_IGES
100
AcDbLine
 62
7
  6
CONTINUOUS
 10
144.5946006881
 20
147.5878125962
 11
144.5946006881
 21
147.9106984707
  0
LINE
  5
2B6
100
AcDbEntity
  8
IMPORT_IGES
100
AcDbLine
 62
7
  6
CONTINUOUS
 10
144.8559267359
 20
153.1096186487
 11
144.8559267359
 21
153.4351980786
  0
LINE
  5
2B7
100
AcDbEntity
  8
IMPORT_IGES
100
AcDbLine
 62
7
  6
CONTINUOUS
 10
144.9912642871
 20
147.9098775568
 11
144.9912642871
 21
147.5878125962
  0
LINE
  5
2B8
100
AcDbEntity
  8
IMPORT_IGES
100
AcDbLine
 62
7
  6
CONTINUOUS
 10
145.3999315993
 20
151.397312919
 11
145.3999315993
 21
151.825424919
  0
LINE
  5
2B9
100
AcDbEntity
  8
IMPORT_IGES
100
AcDbLine
 62
7
  6
CONTINUOUS
 10
145.4356443184
 20
153.5191969422
 11
145.4356443184
 21
153.2969002295
  0
LINE
  5
2BA
100
AcDbEntity
  8
IMPORT_IGES
100
AcDbLine
 62
7
  6
CONTINUOUS
 10
145.4356443184
 20
153.7383733113
 11
145.4356443184
 21
153.8231386515
  0
LINE
  5
2BB
100
AcDbEntity
  8
IMPORT_IGES
100
AcDbLine
 62
7
  6
CONTINUOUS
 10
146.4880678137
 20
153.2969002295
 11
146.4880591038
 21
153.496686048
  0
LINE
  5
2BC
100
AcDbEntity
  8
IMPORT_IGES
100
AcDbLine
 62
7
  6
CONTINUOUS
 10
146.7110440993
 20
151.5779169009
 11
146.7110440993
 21
151.825424919
  0
LINE
  5
2BD
100
AcDbEntity
  8
IMPORT_IGES
100
AcDbLine
 62
7
  6
CONTINUOUS
 10
147.2282395993
 20
152.562919419
 11
147.2282395993
 21
152.104216419
  0
LINE
  5
2BE
100
AcDbEntity
  8
IMPORT_IGES
100
AcDbLine
 62
7
  6
CONTINUOUS
 10
147.7672330993
 20
152.3673389399
 11
147.7672330993
 21
152.009050419
  0
LINE
  5
2BF
100
AcDbEntity
  8
IMPORT_IGES
100
AcDbLine
 62
7
  6
CONTINUOUS
 10
147.95456612
 20
152.5579726402
 11
147.95456612
 21
151.8165781264
  0
LINE
  5
2C0
100
AcDbEntity
  8
IMPORT_IGES
100
AcDbLine
 62
7
  6
CONTINUOUS
 10
148.8635545993
 20
145.335283419
 11
148.8635545993
 21
143.825099919
  0
LINE
  5
2C1
100
AcDbEntity
  8
IMPORT_IGES
100
AcDbLine
 62
7
  6
CONTINUOUS
 10
149.5580949761
 20
154.4750999164
 11
149.5580949761
 21
154.1897545768
  0
LINE
  5
2C2
100
AcDbEntity
  8
IMPORT_IGES
100
AcDbLine
 62
7
  6
CONTINUOUS
 10
146.4880678137
 20
153.8231386515
 11
146.4880503938
 21
153.7146484664
  0
LINE
  5
2C3
100
AcDbEntity
  8
IMPORT_IGES
100
AcDbLine
 62
7
  6
CONTINUOUS
 10
147.3517315993
 20
152.886697419
 11
147.3215665993
 21
152.562919419
  0
LINE
  5
2C4
100
AcDbEntity
  8
IMPORT_IGES
100
AcDbLine
 62
7
  6
CONTINUOUS
 10
147.2547452009
 20
151.8458456257
 11
147.0109180993
 21
149.229532419
  0
LINE
  5
2C5
100
AcDbEntity
  8
IMPORT_IGES
100
AcDbLine
 62
7
  6
CONTINUOUS
 10
146.9862760573
 20
148.9650249208
 11
146.9718527972
 21
148.8102861035
  0
LINE
  5
2C6
100
AcDbEntity
  8
IMPORT_IGES
100
AcDbLine
 62
7
  6
CONTINUOUS
 10
147.2067081848
 20
149.023361145
 11
147.4670358533
 21
151.8165781264
  0
LINE
  5
2C7
100
AcDbEntity
  8
IMPORT_IGES
100
AcDbLine
 62
7
  6
CONTINUOUS
 10
147.5365859804
 20
152.5629379483
 11
147.5673620361
 21
152.8929600937
  0
LINE
  5
2C8
100
AcDbEntity
  8
IMPORT_IGES
100
AcDbLine
 62
7
  6
CONTINUOUS
 10
147.4849465993
 20
152.009050419
 11
147.4922655179
 21
152.0875266181
  0
LINE
  5
2C9
100
AcDbEntity
  8
IMPORT_IGES
100
AcDbLine
 62
250
  6
CONTINUOUS
 10
51.9938984117
 20
119.3469469451
 11
52.3955837994
 21
119.6447177595
  0
LINE
  5
2CA
100
AcDbEntity
  8
IMPORT_IGES
100
AcDbLine
 62
250
  6
CONTINUOUS
 10
161.8621678872
 20
119.3469212694
 11
161.5054192367
 21
119.6973084701
  0
LINE
  5
2CB
100
AcDbEntity
  8
IMPORT_IGES
100
AcDbLine
 62
7
  6
CONTINUOUS
 10
142.187968792
 20
146.9751484977
 11
142.330620538
 21
146.8349683302
  0
LINE
  5
2CC
100
AcDbEntity
  8
IMPORT_IGES
100
AcDbLine
 62
7
  6
CONTINUOUS
 10
158.8920195404
 20
119.2893591247
 11
158.8920195404
 21
121.1793884636
  0
LINE
  5
2CD
100
AcDbEntity
  8
IMPORT_IGES
100
AcDbLine
 62
7
  6
CONTINUOUS
 10
158.8920195404
 20
122.2793884636
 11
158.8920195404
 21
124.1694177917
  0
LINE
  5
2CE
100
AcDbEntity
  8
IMPORT_IGES
100
AcDbLine
 62
7
  6
CONTINUOUS
 10
159.9808721475
 20
119.2893591354
 11
159.9808721475
 21
121.1793884636
  0
LINE
  5
2CF
100
AcDbEntity
  8
IMPORT_IGES
100
AcDbLine
 62
7
  6
CONTINUOUS
 10
159.9808721475
 20
122.2793884636
 11
159.9808721475
 21
124.1694178024
  0
LINE
  5
2D0
100
AcDbEntity
  8
IMPORT_IGES
100
AcDbLine
 62
7
  6
CONTINUOUS
 10
160.6656148159
 20
131.2248441584
 11
160.6656148159
 21
156.6248441584
  0
LINE
  5
2D1
100
AcDbEntity
  8
IMPORT_IGES
100
AcDbLine
 62
7
  6
CONTINUOUS
 10
162.7920195404
 20
168.5573591247
 11
162.7920195404
 21
170.4473884636
  0
LINE
  5
2D2
100
AcDbEntity
  8
IMPORT_IGES
100
AcDbLine
 62
7
  6
CONTINUOUS
 10
162.7920195404
 20
171.5473884636
 11
162.7920195404
 21
173.4374177917
  0
LINE
  5
2D3
100
AcDbEntity
  8
IMPORT_IGES
100
AcDbLine
 62
7
  6
CONTINUOUS
 10
163.8808721475
 20
168.5573591354
 11
163.8808721475
 21
170.4473884636
  0
LINE
  5
2D4
100
AcDbEntity
  8
IMPORT_IGES
100
AcDbLine
 62
7
  6
CONTINUOUS
 10
163.8808721475
 20
171.5473884636
 11
163.8808721475
 21
173.4374178024
  0
LWPOLYLINE
  5
2D5
100
AcDbEntity
  8
IMPORT_IGES
100
AcDbPolyline
 62
7
  6
CONTINUOUS
 90
7
 70
0
 10
254.2292256259
 20
109.3498541147
 10
254.2871685077
 20
109.3548416447
 10
254.3445096663
 20
109.3631824202
 10
254.4014368184
 20
109.3749380956
 10
254.4577622472
 20
109.3900470165
 10
254.5129228026
 20
109.4083242198
 10
254.5697970404
 20
109.4320714487
  0
LINE
  5
2D6
100
AcDbEntity
  8
IMPORT_IGES
100
AcDbLine
 62
7
  6
CONTINUOUS
 10
254.1778023846
 20
109.3484186244
 11
254.2292256259
 21
109.3498541147
  0
LINE
  5
2D7
100
AcDbEntity
  8
IMPORT_IGES
100
AcDbLine
 62
7
  6
CONTINUOUS
 10
254.1777437759
 20
109.3505181513
 11
46.6951090662
 21
109.3556127446
  0
LWPOLYLINE
  5
2D8
100
AcDbEntity
  8
IMPORT_IGES
100
AcDbPolyline
 62
7
  6
CONTINUOUS
 90
13
 70
0
 10
46.6951090662
 20
109.3556127446
 10
46.663974656
 20
109.3559277622
 10
46.6328459093
 20
109.3572009073
 10
46.6017228262
 20
109.3594321797
 10
46.5705162709
 20
109.3626335051
 10
46.5393153792
 20
109.3667929578
 10
46.5083875583
 20
109.3718747609
 10
46.4777645162
 20
109.3778874853
 10
46.4474145448
 20
109.38482256
 10
46.4175099281
 20
109.392618495
 10
46.3881397325
 20
109.4012484852
 10
46.3592148915
 20
109.4107393357
 10
46.3306404893
 20
109.4211099716
  0
LINE
  5
2D9
100
AcDbEntity
  8
IMPORT_IGES
100
AcDbLine
 62
7
  6
CONTINUOUS
 10
46.64364877
 20
109.3497167959
 11
46.6948876241
 21
109.3481885002
  0
LINE
  5
2DA
100
AcDbEntity
  8
IMPORT_IGES
100
AcDbLine
 62
7
  6
CONTINUOUS
 10
145.7270329873
 20
150.2912253439
 11
146.9862760573
 21
148.9650249208
  0
LINE
  5
2DB
100
AcDbEntity
  8
IMPORT_IGES
100
AcDbLine
 62
7
  6
CONTINUOUS
 10
144.3975731365
 20
151.6913595865
 11
145.5892306868
 21
150.4363404341
  0
LINE
  5
2DC
100
AcDbEntity
  8
IMPORT_IGES
100
AcDbLine
 62
7
  6
CONTINUOUS
 10
147.7243056174
 20
148.1877830949
 11
148.9873391286
 21
146.8575930828
  0
LINE
  5
2DD
100
AcDbEntity
  8
IMPORT_IGES
100
AcDbLine
 62
7
  6
CONTINUOUS
 10
142.0574478493
 20
154.1559042977
 11
144.1613288492
 21
151.9401621579
  0
LINE
  5
2DE
100
AcDbEntity
  8
IMPORT_IGES
100
AcDbLine
 62
7
  6
CONTINUOUS
 10
147.0109180993
 20
149.229532419
 11
145.8672913487
 21
150.4339688909
  0
LINE
  5
2DF
100
AcDbEntity
  8
IMPORT_IGES
100
AcDbLine
 62
7
  6
CONTINUOUS
 10
145.7294890993
 20
150.579083919
 11
144.3700915993
 21
152.010761919
  0
LINE
  5
2E0
100
AcDbEntity
  8
IMPORT_IGES
100
AcDbLine
 62
7
  6
CONTINUOUS
 10
149.1324086985
 20
146.9952695964
 11
147.2067081848
 21
149.023361145
  0
LINE
  5
2E1
100
AcDbEntity
  8
IMPORT_IGES
100
AcDbLine
 62
7
  6
CONTINUOUS
 10
144.1338448415
 20
152.2595667414
 11
142.0574478493
 21
154.4463635777
  0
LWPOLYLINE
  5
2E2
100
AcDbEntity
  8
IMPORT_IGES
100
AcDbPolyline
 62
7
  6
CONTINUOUS
 90
19
 70
0
 10
147.4534441677
 20
153.3322506118
 10
147.4252573233
 20
153.3634404089
 10
147.3936455453
 20
153.3937264407
 10
147.3586088335
 20
153.4231087072
 10
147.3200728706
 20
153.4517068175
 10
147.2781119739
 20
153.4794011626
 10
147.2329490958
 20
153.505832915
 10
147.1844267032
 20
153.5309310227
 10
147.1327023292
 20
153.5547665376
 10
147.0784715254
 20
153.5771937882
 10
147.0218611707
 20
153.5981828106
 10
146.9627443861
 20
153.6177635685
 10
146.9014360866
 20
153.6358802812
 10
146.8380465742
 20
153.652480117
 10
146.772465547
 20
153.6676159076
 10
146.7046770144
 20
153.6813903665
 10
146.6346756462
 20
153.6938377315
 10
146.5624667727
 20
153.7049237648
 10
146.4880503938
 20
153.7146484664
  0
LINE
  5
2E3
100
AcDbEntity
  8
IMPORT_IGES
100
AcDbLine
 62
7
  6
CONTINUOUS
 10
176.3514268159
 20
159.4248436593
 11
176.3514268159
 21
163.9245656593
  0
LINE
  5
2E4
100
AcDbEntity
  8
IMPORT_IGES
100
AcDbLine
 62
7
  6
CONTINUOUS
 10
177.2906388159
 20
163.9245656593
 11
177.2906388159
 21
159.4248436593
  0
LINE
  5
2E5
100
AcDbEntity
  8
IMPORT_IGES
100
AcDbLine
 62
7
  6
CONTINUOUS
 10
178.6947668159
 20
159.4248436593
 11
178.8974478159
 21
162.3629006593
  0
LINE
  5
2E6
100
AcDbEntity
  8
IMPORT_IGES
100
AcDbLine
 62
7
  6
CONTINUOUS
 10
178.2025208159
 20
163.9242956593
 11
177.7962458159
 21
159.4248436593
  0
LINE
  5
2E7
100
AcDbEntity
  8
IMPORT_IGES
100
AcDbLine
 62
7
  6
CONTINUOUS
 10
175.0643128159
 20
163.9242956593
 11
174.1804358159
 21
160.8271836593
  0
LINE
  5
2E8
100
AcDbEntity
  8
IMPORT_IGES
100
AcDbLine
 62
7
  6
CONTINUOUS
 10
174.5565788159
 20
159.4248436593
 11
176.0028828159
 21
163.9242956593
  0
LINE
  5
2E9
100
AcDbEntity
  8
IMPORT_IGES
100
AcDbLine
 62
7
  6
CONTINUOUS
 10
181.0094598159
 20
163.9242956593
 11
180.0702488159
 21
161.4261856593
  0
LINE
  5
2EA
100
AcDbEntity
  8
IMPORT_IGES
100
AcDbLine
 62
7
  6
CONTINUOUS
 10
145.5892306868
 20
150.4363404341
 11
144.5927620993
 21
149.422307919
  0
LINE
  5
2EB
100
AcDbEntity
  8
IMPORT_IGES
100
AcDbLine
 62
7
  6
CONTINUOUS
 10
149.5580949761
 20
154.4750999164
 11
147.6790406584
 21
152.5629379483
  0
LINE
  5
2EC
100
AcDbEntity
  8
IMPORT_IGES
100
AcDbLine
 62
7
  6
CONTINUOUS
 10
144.3952068179
 20
149.2212743219
 11
142.187968792
 21
146.9751484977
  0
LINE
  5
2ED
100
AcDbEntity
  8
IMPORT_IGES
100
AcDbLine
 62
7
  6
CONTINUOUS
 10
147.2282395993
 20
152.104216419
 11
146.7110440993
 21
151.5779169009
  0
LINE
  5
2EE
100
AcDbEntity
  8
IMPORT_IGES
100
AcDbLine
 62
7
  6
CONTINUOUS
 10
146.5335642356
 20
151.397312919
 11
145.7294890993
 21
150.579083919
  0
LINE
  5
2EF
100
AcDbEntity
  8
IMPORT_IGES
100
AcDbLine
 62
7
  6
CONTINUOUS
 10
144.615315549
 20
149.159912582
 11
145.7270329873
 21
150.2912253439
  0
LINE
  5
2F0
100
AcDbEntity
  8
IMPORT_IGES
100
AcDbLine
 62
7
  6
CONTINUOUS
 10
147.4922655179
 20
152.0875266181
 11
147.7672330993
 21
152.3673389399
  0
LINE
  5
2F1
100
AcDbEntity
  8
IMPORT_IGES
100
AcDbLine
 62
7
  6
CONTINUOUS
 10
147.95456612
 20
152.5579726402
 11
149.5580949761
 21
154.1897545768
  0
LINE
  5
2F2
100
AcDbEntity
  8
IMPORT_IGES
100
AcDbLine
 62
7
  6
CONTINUOUS
 10
142.330620538
 20
146.8349683302
 11
144.4177788352
 21
148.9588988241
  0
LINE
  5
2F3
100
AcDbEntity
  8
IMPORT_IGES
100
AcDbLine
 62
7
  6
CONTINUOUS
 10
145.8672913487
 20
150.4339688909
 11
147.2547452009
 21
151.8458456257
  0
LINE
  5
2F4
100
AcDbEntity
  8
IMPORT_IGES
100
AcDbLine
 62
7
  6
CONTINUOUS
 10
148.9873391286
 20
146.8575930828
 11
149.1324086985
 21
146.9952695964
  0
LINE
  5
2F5
100
AcDbEntity
  8
IMPORT_IGES
100
AcDbLine
 62
7
  6
CONTINUOUS
 10
147.657110837
 20
148.1321066175
 11
147.7243056174
 21
148.1877830949
  0
LINE
  5
2F6
100
AcDbEntity
  8
IMPORT_IGES
100
AcDbLine
 62
250
  6
CONTINUOUS
 10
58.4205569063
 20
119.346846055
 11
157.0108550185
 21
119.3468458831
  0
LINE
  5
2F7
100
AcDbEntity
  8
IMPORT_IGES
100
AcDbLine
 62
250
  6
CONTINUOUS
 10
161.8620365775
 20
119.3468460562
 11
242.4523344398
 21
119.3468458831
  0
LINE
  5
2F8
100
AcDbEntity
  8
IMPORT_IGES
100
AcDbLine
 62
7
  6
CONTINUOUS
 10
158.8920195404
 20
121.1793884636
 11
159.9808721475
 21
121.1793884636
  0
LINE
  5
2F9
100
AcDbEntity
  8
IMPORT_IGES
100
AcDbLine
 62
7
  6
CONTINUOUS
 10
158.8920195404
 20
122.2793884636
 11
159.9808721475
 21
122.2793884636
  0
LWPOLYLINE
  5
2FA
100
AcDbEntity
  8
IMPORT_IGES
100
AcDbPolyline
 62
250
  6
CONTINUOUS
 90
3
 70
0
 10
46.1591813662
 20
119.3468076633
 10
46.218350234
 20
119.3467780336
 10
51.9939968377
 20
119.3468460658
  0
LWPOLYLINE
  5
2FB
100
AcDbEntity
  8
IMPORT_IGES
100
AcDbPolyline
 62
250
  6
CONTINUOUS
 90
4
 70
0
 10
45.4634494171
 20
119.3468449089
 10
46.1014343706
 20
119.3468372912
 10
46.1301492266
 20
119.3468234206
 10
46.1591813662
 20
119.3468076633
  0
LINE
  5
2FC
100
AcDbEntity
  8
IMPORT_IGES
100
AcDbLine
 62
250
  6
CONTINUOUS
 10
255.40991713
 20
119.3468458831
 11
248.8788948468
 21
119.3468460671
  0
LINE
  5
2FD
100
AcDbEntity
  8
IMPORT_IGES
100
AcDbLine
 62
7
  6
CONTINUOUS
 10
172.3024838159
 20
163.9242956593
 11
173.7288978159
 21
159.4248436593
  0
LINE
  5
2FE
100
AcDbEntity
  8
IMPORT_IGES
100
AcDbLine
 62
7
  6
CONTINUOUS
 10
174.1804358159
 20
160.8271836593
 11
173.3227588159
 21
163.9242956593
  0
LINE
  5
2FF
100
AcDbEntity
  8
IMPORT_IGES
100
AcDbLine
 62
7
  6
CONTINUOUS
 10
182.3594678159
 20
159.4248436593
 11
181.9387188159
 21
163.9242956593
  0
LINE
  5
300
100
AcDbEntity
  8
IMPORT_IGES
100
AcDbLine
 62
7
  6
CONTINUOUS
 10
181.2477048159
 20
162.3506536593
 11
181.4406688159
 21
159.4248436593
  0
LINE
  5
301
100
AcDbEntity
  8
IMPORT_IGES
100
AcDbLine
 62
7
  6
CONTINUOUS
 10
186.4831800811
 20
159.4248441584
 11
186.4831800811
 21
163.8717269689
  0
LINE
  5
302
100
AcDbEntity
  8
IMPORT_IGES
100
AcDbLine
 62
7
  6
CONTINUOUS
 10
187.387470124
 20
161.9225822654
 11
187.387470124
 21
163.1577693812
  0
LINE
  5
303
100
AcDbEntity
  8
IMPORT_IGES
100
AcDbLine
 62
7
  6
CONTINUOUS
 10
187.418612981
 20
161.1856808611
 11
187.418612981
 21
159.4248441584
  0
LINE
  5
304
100
AcDbEntity
  8
IMPORT_IGES
100
AcDbLine
 62
7
  6
CONTINUOUS
 10
188.9299866354
 20
161.5622720324
 11
188.9299866354
 21
161.5110878229
  0
LWPOLYLINE
  5
305
100
AcDbEntity
  8
IMPORT_IGES
100
AcDbPolyline
 62
7
  6
CONTINUOUS
 90
28
 70
0
 10
188.6538000968
 20
162.6217950769
 10
188.6536116924
 20
162.5729925814
 10
188.6512611166
 20
162.525854557
 10
188.6467483693
 20
162.4803810036
 10
188.6401076585
 20
162.4365590174
 10
188.6313047763
 20
162.3944015023
 10
188.6202370984
 20
162.3539471698
 10
188.6068482155
 20
162.3152292538
 10
188.5911945369
 20
162.2782145204
 10
188.5733426657
 20
162.2428419795
 10
188.5532280015
 20
162.2090089143
 10
188.5309151447
 20
162.1768180415
 10
188.5066645
 20
162.1465165208
 10
188.4805587941
 20
162.1181454591
 10
188.4525153001
 20
162.0916637495
 10
188.4225462427
 20
162.0671952309
 10
188.3905598178
 20
162.0448017795
 10
188.3566478294
 20
162.0244215193
 10
188.3210979133
 20
162.0059926606
 10
188.2840708823
 20
161.9895644122
 10
188.2454059236
 20
161.9750875655
 10
188.204908234
 20
161.9623527046
 10
188.1624693484
 20
161.9512724003
 10
188.1181977318
 20
161.9419340819
 10
188.0722239764
 20
161.934390622
 10
188.0245916129
 20
161.9286596446
 10
187.9752571105
 20
161.9247235258
 10
187.9242204692
 20
161.9225822654
  0
LINE
  5
306
100
AcDbEntity
  8
IMPORT_IGES
100
AcDbLine
 62
7
  6
CONTINUOUS
 10
183.8872558159
 20
161.0181576593
 11
184.3549048159
 21
162.6879606593
  0
LINE
  5
307
100
AcDbEntity
  8
IMPORT_IGES
100
AcDbLine
 62
7
  6
CONTINUOUS
 10
183.4359718159
 20
159.4248436593
 11
183.6951348159
 21
160.3230946593
  0
LINE
  5
308
100
AcDbEntity
  8
IMPORT_IGES
100
AcDbLine
 62
7
  6
CONTINUOUS
 10
183.9182638159
 20
163.9242956593
 11
182.5069488159
 21
159.4248436593
  0
LINE
  5
309
100
AcDbEntity
  8
IMPORT_IGES
100
AcDbLine
 62
7
  6
CONTINUOUS
 10
180.1309818159
 20
159.4248436593
 11
181.2477048159
 21
162.3506536593
  0
LWPOLYLINE
  5
30A
100
AcDbEntity
  8
IMPORT_IGES
100
AcDbPolyline
 62
250
  6
CONTINUOUS
 90
34
 70
0
 10
156.9335804978
 20
124.0306176389
 10
156.8305809051
 20
123.913255337
 10
156.7328299708
 20
123.7910102845
 10
156.6409730742
 20
123.6646722726
 10
156.5550511816
 20
123.5342091191
 10
156.4750233267
 20
123.3996530063
 10
156.4014119899
 20
123.2618902723
 10
156.3342840384
 20
123.1209974969
 10
156.273572605
 20
122.9768981004
 10
156.2195995698
 20
122.8302486819
 10
156.1723512583
 20
122.6808764151
 10
156.1318413449
 20
122.5289541263
 10
156.0984327325
 20
122.3756568941
 10
156.0722067252
 20
122.2210342372
 10
156.0530820189
 20
122.0650366369
 10
156.0411776045
 20
121.9086906156
 10
156.0365434286
 20
121.7520043549
 10
156.0391295446
 20
121.5949696732
 10
156.0489051035
 20
121.4385885483
 10
156.0659532103
 20
121.2827691199
 10
156.09019076
 20
121.1276032484
 10
156.1213375888
 20
120.9743684921
 10
156.1593437267
 20
120.8233699696
 10
156.2042591436
 20
120.6743025624
 10
156.2559535854
 20
120.5275284729
 10
156.3145108137
 20
120.3828254332
 10
156.379847067
 20
120.2404157111
 10
156.4515808058
 20
120.1013283134
 10
156.5297593812
 20
119.9656019781
 10
156.6143354422
 20
119.8331979672
 10
156.7047853957
 20
119.7050290729
 10
156.8009347107
 20
119.5813995596
 10
156.9029579184
 20
119.462005163
 10
157.0108550185
 20
119.3468458831
  0
LWPOLYLINE
  5
30B
100
AcDbEntity
  8
IMPORT_IGES
100
AcDbPolyline
 62
7
  6
CONTINUOUS
 90
16
 70
0
 10
144.4901584574
 20
153.5390872268
 10
144.4426540133
 20
153.51639367
 10
144.3976049826
 20
153.4925555618
 10
144.3550113651
 20
153.4675729022
 10
144.3148127001
 20
153.4413793306
 10
144.2770694485
 20
153.4140412077
 10
144.2419629923
 20
153.385757615
 10
144.2094967163
 20
153.3564147859
 10
144.1796672357
 20
153.3261264871
 10
144.152645779
 20
153.2954330999
 10
144.1285515406
 20
153.2643009745
 10
144.1072653259
 20
153.2327637607
 10
144.0886007802
 20
153.2014627882
 10
144.0724957851
 20
153.1706118337
 10
144.0590124589
 20
153.1399971205
 10
144.0481508017
 20
153.1096186487
  0
LINE
  5
30C
100
AcDbEntity
  8
IMPORT_IGES
100
AcDbLine
 62
7
  6
CONTINUOUS
 10
346.136445844
 20
142.3767035879
 11
344.636445844
 21
142.2579834202
  0
LINE
  5
30D
100
AcDbEntity
  8
IMPORT_IGES
100
AcDbLine
 62
7
  6
CONTINUOUS
 10
201.3656148159
 20
130.9248441584
 11
160.9656148159
 21
130.9248441584
  0
LINE
  5
30E
100
AcDbEntity
  8
IMPORT_IGES
100
AcDbLine
 62
7
  6
CONTINUOUS
 10
178.8974478159
 20
162.3629006593
 11
179.9992578159
 21
159.4248436593
  0
LINE
  5
30F
100
AcDbEntity
  8
IMPORT_IGES
100
AcDbLine
 62
7
  6
CONTINUOUS
 10
180.0702488159
 20
161.4261856593
 11
179.1409558159
 21
163.9242956593
  0
LWPOLYLINE
  5
310
100
AcDbEntity
  8
IMPORT_IGES
100
AcDbPolyline
 62
7
  6
CONTINUOUS
 90
5
 70
0
 10
188.4461922973
 20
160.7892252063
 10
188.4904345664
 20
160.6521728889
 10
188.5349276577
 20
160.5114568618
 10
188.5796715712
 20
160.367077125
 10
188.6245372589
 20
160.2189972579
  0
LINE
  5
311
100
AcDbEntity
  8
IMPORT_IGES
100
AcDbLine
 62
7
  6
CONTINUOUS
 10
186.2073818159
 20
159.4248436593
 11
184.8268388159
 21
163.9242956593
  0
LINE
  5
312
100
AcDbEntity
  8
IMPORT_IGES
100
AcDbLine
 62
7
  6
CONTINUOUS
 10
188.6245372589
 20
160.2189972579
 11
188.7619297353
 21
159.7531396049
  0
LINE
  5
313
100
AcDbEntity
  8
IMPORT_IGES
100
AcDbLine
 62
7
  6
CONTINUOUS
 10
188.7619297353
 20
159.7531396049
 11
188.8568866148
 21
159.4248441584
  0
LINE
  5
314
100
AcDbEntity
  8
IMPORT_IGES
100
AcDbLine
 62
7
  6
CONTINUOUS
 10
184.9741858159
 20
160.3230946593
 11
185.2174908159
 21
159.4248436593
  0
LINE
  5
315
100
AcDbEntity
  8
IMPORT_IGES
100
AcDbLine
 62
7
  6
CONTINUOUS
 10
189.5492999371
 20
160.2300708716
 11
189.4392209251
 21
160.6426547072
  0
LWPOLYLINE
  5
316
100
AcDbEntity
  8
IMPORT_IGES
100
AcDbPolyline
 62
7
  6
CONTINUOUS
 90
19
 70
0
 10
189.4392209251
 20
160.6426547072
 10
189.4208525664
 20
160.7123996505
 10
189.4018073409
 20
160.7801391306
 10
189.3820852487
 20
160.8458731473
 10
189.3619224302
 20
160.9097274483
 10
189.341082745
 20
160.9715762861
 10
189.3188577714
 20
161.0310424176
 10
189.2951297687
 20
161.0881638258
 10
189.2700164777
 20
161.1429025278
 10
189.2431626993
 20
161.1947673321
 10
189.2144535073
 20
161.2438016048
 10
189.1840038279
 20
161.28996198
 10
189.1518032413
 20
161.3326271675
 10
189.1175454294
 20
161.3716970688
 10
189.0815367102
 20
161.4072717825
 10
189.0446856178
 20
161.4390303142
 10
189.0072949969
 20
161.4668656658
 10
188.9690620027
 20
161.4908848354
 10
188.9299866354
 20
161.5110878229
  0
LINE
  5
317
100
AcDbEntity
  8
IMPORT_IGES
100
AcDbLine
 62
7
  6
CONTINUOUS
 10
189.7602993941
 20
159.4248441584
 11
189.5492999371
 21
160.2300708716
  0
LINE
  5
318
100
AcDbEntity
  8
IMPORT_IGES
100
AcDbLine
 62
7
  6
CONTINUOUS
 10
184.3549048159
 20
162.6879606593
 11
184.7864848159
 21
161.0181576593
  0
LINE
  5
319
100
AcDbEntity
  8
IMPORT_IGES
100
AcDbLine
 62
7
  6
CONTINUOUS
 10
201.6656148159
 20
156.6248441584
 11
201.6656148159
 21
131.2248441584
  0
LWPOLYLINE
  5
31A
100
AcDbEntity
  8
IMPORT_IGES
100
AcDbPolyline
 62
250
  6
CONTINUOUS
 90
70
 70
0
 10
161.8620365775
 20
119.3468460562
 10
161.9692581381
 20
119.4611774711
 10
162.070772762
 20
119.5798860183
 10
162.166580449
 20
119.702971698
 10
162.2568878996
 20
119.8307440224
 10
162.3414884133
 20
119.9628934792
 10
162.4197618891
 20
120.098491532
 10
162.4916525113
 20
120.2375892851
 10
162.5572160955
 20
120.3801356343
 10
162.6159999871
 20
120.5250487299
 10
162.6679077502
 20
120.6721106215
 10
162.7130358209
 20
120.8215392595
 10
162.7512208517
 20
120.9729066463
 10
162.7825011576
 20
121.1265121152
 10
162.8068384238
 20
121.2820563328
 10
162.8239543589
 20
121.4382133016
 10
162.8337581248
 20
121.594888272
 10
162.8363405597
 20
121.7521759936
 10
162.8316958863
 20
121.9090347179
 10
162.8197679831
 20
122.0654684418
 10
162.8006129716
 20
122.2214731685
 10
162.7743934387
 20
122.3759951587
 10
162.7410326683
 20
122.5290600162
 10
162.7006073766
 20
122.6806421372
 10
162.6535102986
 20
122.8296109716
 10
162.5997864326
 20
122.9757568366
 10
162.5393907804
 20
123.119289415
 10
162.4725810827
 20
123.2597072046
 10
162.3992950315
 20
123.3971250749
 10
162.3195949348
 20
123.5314281564
 10
162.2339254569
 20
123.6617703387
 10
162.1422125509
 20
123.7881645807
 10
162.0445302636
 20
123.9105979236
 10
161.9415454001
 20
124.0281853808
 10
161.833225675
 20
124.1408709231
 10
161.7196033736
 20
124.2487105798
 10
161.6014421566
 20
124.3509874516
 10
161.4787317556
 20
124.4476467535
 10
161.351482439
 20
124.5387432706
 10
161.2204886733
 20
124.6237244589
 10
161.08577433
 20
124.7025418155
 10
160.9473155376
 20
124.7752438434
 10
160.8058351486
 20
124.8414235071
 10
160.6612248142
 20
124.9010816009
 10
160.5135928831
 20
124.9542173305
 10
160.3639872541
 20
125.0004212777
 10
160.2124214186
 20
125.0396263016
 10
160.0588818851
 20
125.071899543
 10
159.9043760786
 20
125.0970330067
 10
159.7489044731
 20
125.1149760525
 10
159.5924665945
 20
125.1257793205
 10
159.4360684462
 20
125.1293867359
 10
159.2797207646
 20
125.1257527763
 10
159.1234128132
 20
125.1149229641
 10
158.9681183855
 20
125.0969777905
 10
158.8138426434
 20
125.0718742768
 10
158.6605804249
 20
125.0396554018
 10
158.5092900375
 20
125.0005305929
 10
158.3599513739
 20
124.9544379147
 10
158.2125845413
 20
124.9014393027
 10
158.0682081688
 20
124.8419299904
 10
157.9269159106
 20
124.7759054864
 10
157.7886141125
 20
124.7033702821
 10
157.6540404404
 20
124.6247330856
 10
157.5231735196
 20
124.5399437565
 10
157.3960347248
 20
124.4490524351
 10
157.2734258463
 20
124.3526182498
 10
157.1553745665
 20
124.250607539
 10
157.041853203
 20
124.1430539643
 10
156.9335804978
 20
124.0306176389
  0
LWPOLYLINE
  5
31B
100
AcDbEntity
  8
IMPORT_IGES
100
AcDbPolyline
 62
250
  6
CONTINUOUS
 90
37
 70
0
 10
161.8620365775
 20
119.3468459734
 10
161.7526560802
 20
119.2348642903
 10
161.6398191969
 20
119.1289566914
 10
161.5235259275
 20
119.0291319404
 10
161.4037597746
 20
118.9354771205
 10
161.2805372356
 20
118.8479123101
 10
161.1539078029
 20
118.7661914279
 10
161.0236219857
 20
118.690090569
 10
160.8899292748
 20
118.6198278817
 10
160.7536276358
 20
118.555817626
 10
160.6148861718
 20
118.4980573637
 10
160.4735357796
 20
118.4465361727
 10
160.3298671145
 20
118.4016536784
 10
160.1834820253
 20
118.3634007019
 10
160.0347786632
 20
118.331772277
 10
159.8852421369
 20
118.3071741911
 10
159.7350869491
 20
118.2897280505
 10
159.5840985971
 20
118.2793031542
 10
159.433118682
 20
118.2759284089
 10
159.2821401698
 20
118.2796289463
 10
159.1311700945
 20
118.2903797089
 10
158.9810711593
 20
118.3081366493
 10
158.8316280489
 20
118.3330349077
 10
158.6830560786
 20
118.3649485382
 10
158.5368638976
 20
118.4034433902
 10
158.3934613832
 20
118.4485190608
 10
158.2524386581
 20
118.5001900202
 10
158.1140747392
 20
118.5580441939
 10
157.9781981438
 20
118.6220915294
 10
157.8449803546
 20
118.6923352325
 10
157.7152148369
 20
118.7683511654
 10
157.5891605704
 20
118.8499267218
 10
157.4665585754
 20
118.937280055
 10
157.3474253792
 20
119.0306304079
 10
157.2317664909
 20
119.1300487173
 10
157.1195764013
 20
119.2354568242
 10
157.0108551104
 20
119.346846055
  0
LINE
  5
31C
100
AcDbEntity
  8
IMPORT_IGES
100
AcDbLine
 62
250
  6
CONTINUOUS
 10
157.3674724512
 20
119.6973084701
 11
157.0107238007
 21
119.3469212694
  0
LWPOLYLINE
  5
31D
100
AcDbEntity
  8
IMPORT_IGES
100
AcDbPolyline
 62
7
  6
CONTINUOUS
 90
94
 70
0
 10
188.9299866354
 20
161.5622720324
 10
188.938075553
 20
161.5665827199
 10
188.9463771537
 20
161.5711467792
 10
188.9548914374
 20
161.5759642104
 10
188.9636064772
 20
161.5810250895
 10
188.9725341999
 20
161.5863393404
 10
188.9817103865
 20
161.5919367352
 10
188.9911427658
 20
161.597799536
 10
189.0008236088
 20
161.6039454806
 10
189.01076551
 20
161.6104575542
 10
189.0209718859
 20
161.6173347819
 10
189.0314393199
 20
161.6245781386
 10
189.0421701569
 20
161.6322735336
 10
189.0531631793
 20
161.6404280586
 10
189.0644196047
 20
161.6490346218
 10
189.0759454306
 20
161.6581578572
 10
189.0877392708
 20
161.6677975826
 10
189.0998025116
 20
161.6779539802
 10
189.1121453089
 20
161.6886922304
 10
189.1247667522
 20
161.7000049006
 10
189.1376677522
 20
161.7118994233
 10
189.1508611968
 20
161.7244632767
 10
189.1643538161
 20
161.7376792738
 10
189.1781388801
 20
161.7515646015
 10
189.1922090868
 20
161.7662582989
 10
189.2065715911
 20
161.781746467
 10
189.2212192381
 20
161.7980430049
 10
189.2361232609
 20
161.8153286492
 10
189.2512953568
 20
161.8335923649
 10
189.2667238286
 20
161.8528451871
 10
189.2823448173
 20
161.8733009576
 10
189.2981668821
 20
161.8949320079
 10
189.3141814639
 20
161.9177660066
 10
189.3302990266
 20
161.942099801
 10
189.3465868477
 20
161.9679979243
 10
189.3629776497
 20
161.9953958433
 10
189.3791800631
 20
162.0243968061
 10
189.395280265
 20
162.0552267826
 10
189.4111920783
 20
162.0876598028
 10
189.4263656032
 20
162.1211212055
 10
189.4407068458
 20
162.1555496348
 10
189.4543098
 20
162.1910064465
 10
189.4669065476
 20
162.2271010469
 10
189.4784231687
 20
162.2637023114
 10
189.4889335832
 20
162.3009413646
 10
189.498391632
 20
162.3388209866
 10
189.5068007633
 20
162.3772977614
 10
189.5141575289
 20
162.416415105
 10
189.5204054251
 20
162.4563060456
 10
189.5255545685
 20
162.496997078
 10
189.5295948424
 20
162.5384617073
 10
189.5324393942
 20
162.5807534773
 10
189.5340695721
 20
162.6242432567
 10
189.5345040278
 20
162.6685601768
 10
189.5337118639
 20
162.712645176
 10
189.5316418722
 20
162.7564162382
 10
189.5283452609
 20
162.7999553794
 10
189.5239447573
 20
162.8424495856
 10
189.5184588758
 20
162.8835618662
 10
189.511869102
 20
162.9236292117
 10
189.5042426194
 20
162.9628495798
 10
189.4955807252
 20
163.0012550127
 10
189.4858821223
 20
163.0388134681
 10
189.4752101025
 20
163.0756267764
 10
189.4635765213
 20
163.1117065695
 10
189.4509695232
 20
163.1470412155
 10
189.4374168338
 20
163.1816976488
 10
189.4229294568
 20
163.2156703724
 10
189.4074963883
 20
163.2489648834
 10
189.3911123433
 20
163.2816646075
 10
189.3737649195
 20
163.3138097804
 10
189.355466519
 20
163.3453601665
 10
189.3362490627
 20
163.3762784847
 10
189.3161169314
 20
163.4065610916
 10
189.2950657443
 20
163.4362116307
 10
189.2731142797
 20
163.4652037521
 10
189.2502581182
 20
163.4935458272
 10
189.2265016792
 20
163.5212294847
 10
189.2018770001
 20
163.5482032603
 10
189.1763557258
 20
163.5744878968
 10
189.1499662113
 20
163.6000626514
 10
189.1228255586
 20
163.6248138314
 10
189.0946984987
 20
163.6488777456
 10
189.0658203005
 20
163.6721180852
 10
189.0370138723
 20
163.6940122318
 10
189.0083316876
 20
163.7144670061
 10
188.9797212729
 20
163.7335755875
 10
188.9518481158
 20
163.7510948957
 10
188.9249492637
 20
163.7668696488
 10
188.8987876692
 20
163.7810551286
 10
188.8733176784
 20
163.7938741007
 10
188.848524073
 20
163.8054008202
 10
188.8244220713
 20
163.8155610319
 10
188.8010116731
 20
163.8243547358
  0
LINE
  5
31E
100
AcDbEntity
  8
IMPORT_IGES
100
AcDbLine
 62
7
  6
CONTINUOUS
 10
364.136445844
 20
135.9973884636
 11
352.136445844
 21
135.9973884636
  0
LINE
  5
31F
100
AcDbEntity
  8
IMPORT_IGES
100
AcDbLine
 62
7
  6
CONTINUOUS
 10
374.8435526251
 20
140.9973884637
 11
380.636445844
 21
140.9973884637
  0
LINE
  5
320
100
AcDbEntity
  8
ASSI
100
AcDbLine
 62
7
  6
CONTINUOUS
 10
364.136445844
 20
141.0973884646
 11
374.5435526252
 21
141.0973884677
  0
LINE
  5
321
100
AcDbEntity
  8
IMPORT_IGES
100
AcDbLine
 62
7
  6
CONTINUOUS
 10
347.0215144675
 20
141.9973884636
 11
364.136445844
 21
141.9973884636
  0
LINE
  5
322
100
AcDbEntity
  8
IMPORT_IGES
100
AcDbLine
 62
7
  6
CONTINUOUS
 10
148.8635545993
 20
143.825099919
 11
142.6617625993
 21
143.825099919
  0
LINE
  5
323
100
AcDbEntity
  8
IMPORT_IGES
100
AcDbLine
 62
7
  6
CONTINUOUS
 10
142.6617625993
 20
145.335283419
 11
148.8635545993
 21
145.335283419
  0
LINE
  5
324
100
AcDbEntity
  8
ASSI
100
AcDbLine
 62
7
  6
CONTINUOUS
 10
374.5435526252
 20
145.8973884594
 11
364.136445844
 21
145.8973884625
  0
LINE
  5
325
100
AcDbEntity
  8
IMPORT_IGES
100
AcDbLine
 62
7
  6
CONTINUOUS
 10
380.636445844
 20
145.9973884635
 11
374.8435526251
 21
145.9973884635
  0
LINE
  5
326
100
AcDbEntity
  8
IMPORT_IGES
100
AcDbLine
 62
7
  6
CONTINUOUS
 10
128.1603982161
 20
146.0724760646
 11
126.3741550161
 21
146.0724760646
  0
LWPOLYLINE
  5
327
100
AcDbEntity
  8
IMPORT_IGES
100
AcDbPolyline
 62
7
  6
CONTINUOUS
 90
37
 70
0
 10
146.4880591038
 20
153.496686048
 10
146.5371415086
 20
153.4899144839
 10
146.584419388
 20
153.4827818998
 10
146.6298927421
 20
153.4752882955
 10
146.6735062535
 20
153.4674133226
 10
146.7153152395
 20
153.4591773296
 10
146.7554856525
 20
153.4506413623
 10
146.7940455238
 20
153.4418357246
 10
146.8309668221
 20
153.4327301125
 10
146.8663314054
 20
153.4232946601
 10
146.9001338635
 20
153.4134957636
 10
146.9323796066
 20
153.4033670267
 10
146.9631667235
 20
153.3929793948
 10
146.9924849016
 20
153.3823275732
 10
147.0203444535
 20
153.3714168565
 10
147.0468744055
 20
153.3603340742
 10
147.0720873211
 20
153.3490991266
 10
147.0959706368
 20
153.3376921135
 10
147.1186156884
 20
153.3261401632
 10
147.140030181
 20
153.3144347794
 10
147.1602064094
 20
153.3025844584
 10
147.1792125944
 20
153.2906418173
 10
147.1970506229
 20
153.2785948953
 10
147.2137186078
 20
153.2664556531
 10
147.2292791091
 20
153.2543125904
 10
147.2437047419
 20
153.2421828539
 10
147.257022891
 20
153.2300492969
 10
147.2693782709
 20
153.2179489791
 10
147.2807639884
 20
153.205901287
 10
147.2911869366
 20
153.1938868341
 10
147.3008125089
 20
153.1818845203
 10
147.3096522242
 20
153.1699045235
 10
147.3176945637
 20
153.1579366658
 10
147.325070364
 20
153.1459293129
 10
147.3318232373
 20
153.1338652534
 10
147.3379095714
 20
153.1217616986
 10
147.3433293664
 20
153.1096186487
  0
LINE
  5
328
100
AcDbEntity
  8
IMPORT_IGES
100
AcDbLine
 62
7
  6
CONTINUOUS
 10
364.336445844
 20
146.5780335852
 11
364.136445844
 21
146.5780335852
  0
LINE
  5
329
100
AcDbEntity
  8
IMPORT_IGES
100
AcDbLine
 62
7
  6
CONTINUOUS
 10
364.336445844
 20
146.8602916785
 11
364.136445844
 21
146.8602916785
  0
LINE
  5
32A
100
AcDbEntity
  8
IMPORT_IGES
100
AcDbLine
 62
7
  6
CONTINUOUS
 10
364.336445844
 20
146.9812594541
 11
364.136445844
 21
146.9812594541
  0
LINE
  5
32B
100
AcDbEntity
  8
IMPORT_IGES
100
AcDbLine
 62
7
  6
CONTINUOUS
 10
126.3741545006
 20
146.9904760646
 11
128.1603982161
 21
146.9904760646
  0
LINE
  5
32C
100
AcDbEntity
  8
IMPORT_IGES
100
AcDbLine
 62
7
  6
CONTINUOUS
 10
364.336445844
 20
147.1425497719
 11
364.136445844
 21
147.1425497719
  0
LINE
  5
32D
100
AcDbEntity
  8
IMPORT_IGES
100
AcDbLine
 62
7
  6
CONTINUOUS
 10
364.336445844
 20
147.2635175475
 11
364.136445844
 21
147.2635175475
  0
LINE
  5
32E
100
AcDbEntity
  8
IMPORT_IGES
100
AcDbLine
 62
7
  6
CONTINUOUS
 10
364.336445844
 20
147.4248078653
 11
364.136445844
 21
147.4248078653
  0
LINE
  5
32F
100
AcDbEntity
  8
IMPORT_IGES
100
AcDbLine
 62
7
  6
CONTINUOUS
 10
364.336445844
 20
147.5457754918
 11
364.136445844
 21
147.5457754918
  0
LINE
  5
330
100
AcDbEntity
  8
IMPORT_IGES
100
AcDbLine
 62
7
  6
CONTINUOUS
 10
144.9912642871
 20
147.5878125962
 11
144.5946006881
 21
147.5878125962
  0
LINE
  5
331
100
AcDbEntity
  8
IMPORT_IGES
100
AcDbLine
 62
7
  6
CONTINUOUS
 10
146.499106751
 20
147.9098775568
 11
144.9912642871
 21
147.9098775568
  0
LINE
  5
332
100
AcDbEntity
  8
IMPORT_IGES
100
AcDbLine
 62
7
  6
CONTINUOUS
 10
146.4320039736
 20
148.1239161379
 11
144.7044289411
 21
148.1239161378
  0
LINE
  5
333
100
AcDbEntity
  8
IMPORT_IGES
100
AcDbLine
 62
7
  6
CONTINUOUS
 10
364.336445844
 20
148.2312594541
 11
364.136445844
 21
148.2312594541
  0
LINE
  5
334
100
AcDbEntity
  8
IMPORT_IGES
100
AcDbLine
 62
7
  6
CONTINUOUS
 10
364.336445844
 20
148.3522271552
 11
364.136445844
 21
148.3522271552
  0
LINE
  5
335
100
AcDbEntity
  8
IMPORT_IGES
100
AcDbLine
 62
7
  6
CONTINUOUS
 10
364.336445844
 20
148.5135175102
 11
364.136445844
 21
148.5135175102
  0
LINE
  5
336
100
AcDbEntity
  8
IMPORT_IGES
100
AcDbLine
 62
7
  6
CONTINUOUS
 10
364.136445844
 20
148.6344850742
 11
364.336445844
 21
148.6344850742
  0
LINE
  5
337
100
AcDbEntity
  8
IMPORT_IGES
100
AcDbLine
 62
7
  6
CONTINUOUS
 10
364.136445844
 20
148.8360981458
 11
364.336445844
 21
148.8360981458
  0
LINE
  5
338
100
AcDbEntity
  8
IMPORT_IGES
100
AcDbLine
 62
7
  6
CONTINUOUS
 10
364.136445844
 20
148.9167433047
 11
364.336445844
 21
148.9167433047
  0
LINE
  5
339
100
AcDbEntity
  8
IMPORT_IGES
100
AcDbLine
 62
7
  6
CONTINUOUS
 10
364.336445844
 20
148.9570658841
 11
364.136445844
 21
148.9570658841
  0
LINE
  5
33A
100
AcDbEntity
  8
IMPORT_IGES
100
AcDbLine
 62
7
  6
CONTINUOUS
 10
364.336445844
 20
148.9973884636
 11
364.136445844
 21
148.9973884636
  0
LINE
  5
33B
100
AcDbEntity
  8
IMPORT_IGES
100
AcDbLine
 62
7
  6
CONTINUOUS
 10
298.136445844
 20
148.9973884636
 11
324.136445844
 21
148.9973884636
  0
LINE
  5
33C
100
AcDbEntity
  8
IMPORT_IGES
100
AcDbLine
 62
7
  6
CONTINUOUS
 10
364.136445844
 20
149.5935679787
 11
364.336445844
 21
149.5935679787
  0
LINE
  5
33D
100
AcDbEntity
  8
IMPORT_IGES
100
AcDbLine
 62
7
  6
CONTINUOUS
 10
322.136445844
 20
149.9073884636
 11
319.936445844
 21
149.9073884636
  0
LINE
  5
33E
100
AcDbEntity
  8
IMPORT_IGES
100
AcDbLine
 62
7
  6
CONTINUOUS
 10
317.436445844
 20
149.9073884636
 11
315.236445844
 21
149.9073884636
  0
LINE
  5
33F
100
AcDbEntity
  8
IMPORT_IGES
100
AcDbLine
 62
7
  6
CONTINUOUS
 10
312.736445844
 20
149.9073884636
 11
310.536445844
 21
149.9073884636
  0
LINE
  5
340
100
AcDbEntity
  8
IMPORT_IGES
100
AcDbLine
 62
7
  6
CONTINUOUS
 10
308.036445844
 20
149.9073884636
 11
305.836445844
 21
149.9073884636
  0
LINE
  5
341
100
AcDbEntity
  8
IMPORT_IGES
100
AcDbLine
 62
7
  6
CONTINUOUS
 10
303.336445844
 20
149.9073884636
 11
301.136445844
 21
149.9073884636
  0
LINE
  5
342
100
AcDbEntity
  8
IMPORT_IGES
100
AcDbLine
 62
7
  6
CONTINUOUS
 10
364.136445844
 20
150.5724228733
 11
364.336445844
 21
150.5724228733
  0
LINE
  5
343
100
AcDbEntity
  8
IMPORT_IGES
100
AcDbLine
 62
7
  6
CONTINUOUS
 10
364.136445844
 20
150.9117819183
 11
364.336445844
 21
150.9117819183
  0
LINE
  5
344
100
AcDbEntity
  8
IMPORT_IGES
100
AcDbLine
 62
7
  6
CONTINUOUS
 10
146.5335642356
 20
151.397312919
 11
145.3999315993
 21
151.397312919
  0
LINE
  5
345
100
AcDbEntity
  8
IMPORT_IGES
100
AcDbLine
 62
7
  6
CONTINUOUS
 10
255.4099171301
 20
151.4973884636
 11
269.836445844
 21
151.4973884636
  0
LINE
  5
346
100
AcDbEntity
  8
IMPORT_IGES
100
AcDbLine
 62
7
  6
CONTINUOUS
 10
147.95456612
 20
151.8165781264
 11
147.4670358533
 21
151.8165781264
  0
LINE
  5
347
100
AcDbEntity
  8
IMPORT_IGES
100
AcDbLine
 62
7
  6
CONTINUOUS
 10
145.3999315993
 20
151.825424919
 11
146.7110440993
 21
151.825424919
  0
LINE
  5
348
100
AcDbEntity
  8
IMPORT_IGES
100
AcDbLine
 62
7
  6
CONTINUOUS
 10
364.336445844
 20
151.8804038876
 11
364.136445844
 21
151.8804038876
  0
LINE
  5
349
100
AcDbEntity
  8
IMPORT_IGES
100
AcDbLine
 62
7
  6
CONTINUOUS
 10
147.7672330993
 20
152.009050419
 11
147.4849465993
 21
152.009050419
  0
LINE
  5
34A
100
AcDbEntity
  8
IMPORT_IGES
100
AcDbLine
 62
7
  6
CONTINUOUS
 10
364.136445844
 20
152.0628727787
 11
364.336445844
 21
152.0628727787
  0
LINE
  5
34B
100
AcDbEntity
  8
IMPORT_IGES
100
AcDbLine
 62
250
  6
CONTINUOUS
 10
364.136445844
 20
152.1540218089
 11
364.336445844
 21
152.1540218089
  0
LINE
  5
34C
100
AcDbEntity
  8
IMPORT_IGES
100
AcDbLine
 62
7
  6
CONTINUOUS
 10
298.136445844
 20
152.2473884636
 11
301.136445844
 21
152.2473884636
  0
LINE
  5
34D
100
AcDbEntity
  8
IMPORT_IGES
100
AcDbLine
 62
7
  6
CONTINUOUS
 10
303.336445844
 20
152.2473884636
 11
305.836445844
 21
152.2473884636
  0
LINE
  5
34E
100
AcDbEntity
  8
IMPORT_IGES
100
AcDbLine
 62
7
  6
CONTINUOUS
 10
308.036445844
 20
152.2473884636
 11
310.536445844
 21
152.2473884636
  0
LINE
  5
34F
100
AcDbEntity
  8
IMPORT_IGES
100
AcDbLine
 62
7
  6
CONTINUOUS
 10
312.736445844
 20
152.2473884636
 11
315.236445844
 21
152.2473884636
  0
LINE
  5
350
100
AcDbEntity
  8
IMPORT_IGES
100
AcDbLine
 62
7
  6
CONTINUOUS
 10
317.436445844
 20
152.2473884636
 11
319.936445844
 21
152.2473884636
  0
LINE
  5
351
100
AcDbEntity
  8
IMPORT_IGES
100
AcDbLine
 62
7
  6
CONTINUOUS
 10
322.136445844
 20
152.2473884636
 11
324.136445844
 21
152.2473884636
  0
LINE
  5
352
100
AcDbEntity
  8
IMPORT_IGES
100
AcDbLine
 62
250
  6
CONTINUOUS
 10
364.136445844
 20
152.4244009331
 11
364.336445844
 21
152.4244009331
  0
LINE
  5
353
100
AcDbEntity
  8
IMPORT_IGES
100
AcDbLine
 62
7
  6
CONTINUOUS
 10
147.3215665993
 20
152.562919419
 11
147.2282395993
 21
152.562919419
  0
LINE
  5
354
100
AcDbEntity
  8
IMPORT_IGES
100
AcDbLine
 62
7
  6
CONTINUOUS
 10
147.5365859804
 20
152.5629379483
 11
147.6790406584
 21
152.5629379483
  0
LINE
  5
355
100
AcDbEntity
  8
IMPORT_IGES
100
AcDbLine
 62
7
  6
CONTINUOUS
 10
301.136445844
 20
152.6244051173
 11
303.336445844
 21
152.6244051173
  0
LINE
  5
356
100
AcDbEntity
  8
IMPORT_IGES
100
AcDbLine
 62
7
  6
CONTINUOUS
 10
305.836445844
 20
152.6244051173
 11
308.036445844
 21
152.6244051173
  0
LINE
  5
357
100
AcDbEntity
  8
IMPORT_IGES
100
AcDbLine
 62
7
  6
CONTINUOUS
 10
310.536445844
 20
152.6244051173
 11
312.736445844
 21
152.6244051173
  0
LINE
  5
358
100
AcDbEntity
  8
IMPORT_IGES
100
AcDbLine
 62
7
  6
CONTINUOUS
 10
315.236445844
 20
152.6244051173
 11
317.436445844
 21
152.6244051173
  0
LINE
  5
359
100
AcDbEntity
  8
IMPORT_IGES
100
AcDbLine
 62
7
  6
CONTINUOUS
 10
319.936445844
 20
152.6244051173
 11
322.136445844
 21
152.6244051173
  0
LINE
  5
35A
100
AcDbEntity
  8
IMPORT_IGES
100
AcDbLine
 62
7
  6
CONTINUOUS
 10
269.836445844
 20
152.8473884636
 11
298.136445844
 21
152.8473884636
  0
LINE
  5
35B
100
AcDbEntity
  8
IMPORT_IGES
100
AcDbLine
 62
7
  6
CONTINUOUS
 10
301.136445844
 20
152.8473884636
 11
303.336445844
 21
152.8473884636
  0
LINE
  5
35C
100
AcDbEntity
  8
IMPORT_IGES
100
AcDbLine
 62
7
  6
CONTINUOUS
 10
305.836445844
 20
152.8473884636
 11
308.036445844
 21
152.8473884636
  0
LINE
  5
35D
100
AcDbEntity
  8
IMPORT_IGES
100
AcDbLine
 62
7
  6
CONTINUOUS
 10
310.536445844
 20
152.8473884636
 11
312.736445844
 21
152.8473884636
  0
LINE
  5
35E
100
AcDbEntity
  8
IMPORT_IGES
100
AcDbLine
 62
7
  6
CONTINUOUS
 10
315.236445844
 20
152.8473884636
 11
317.436445844
 21
152.8473884636
  0
LINE
  5
35F
100
AcDbEntity
  8
IMPORT_IGES
100
AcDbLine
 62
7
  6
CONTINUOUS
 10
319.936445844
 20
152.8473884636
 11
322.136445844
 21
152.8473884636
  0
LINE
  5
360
100
AcDbEntity
  8
IMPORT_IGES
100
AcDbLine
 62
250
  6
CONTINUOUS
 10
364.136445844
 20
152.8780163639
 11
364.336445844
 21
152.8780163639
  0
LINE
  5
361
100
AcDbEntity
  8
IMPORT_IGES
100
AcDbLine
 62
7
  6
CONTINUOUS
 10
144.2947420993
 20
152.886697419
 11
147.3517315993
 21
152.886697419
  0
LINE
  5
362
100
AcDbEntity
  8
IMPORT_IGES
100
AcDbLine
 62
7
  6
CONTINUOUS
 10
144.0791353991
 20
152.8955626478
 11
143.8212693833
 21
152.8955626478
  0
LINE
  5
363
100
AcDbEntity
  8
IMPORT_IGES
100
AcDbLine
 62
7
  6
CONTINUOUS
 10
147.3433293664
 20
153.1096186487
 11
144.8559267359
 21
153.1096186487
  0
LINE
  5
364
100
AcDbEntity
  8
IMPORT_IGES
100
AcDbLine
 62
7
  6
CONTINUOUS
 10
143.8212693833
 20
153.1096186487
 11
144.0481508017
 21
153.1096186487
  0
LINE
  5
365
100
AcDbEntity
  8
IMPORT_IGES
100
AcDbLine
 62
7
  6
CONTINUOUS
 10
145.4356443184
 20
153.2969002295
 11
146.4880678137
 21
153.2969002295
  0
LINE
  5
366
100
AcDbEntity
  8
IMPORT_IGES
100
AcDbLine
 62
250
  6
CONTINUOUS
 10
364.136445844
 20
153.446516639
 11
364.336445844
 21
153.446516639
  0
LINE
  5
367
100
AcDbEntity
  8
IMPORT_IGES
100
AcDbLine
 62
7
  6
CONTINUOUS
 10
144.4901584574
 20
153.6805598566
 11
144.9602334647
 21
153.6805598566
  0
LINE
  5
368
100
AcDbEntity
  8
IMPORT_IGES
100
AcDbLine
 62
7
  6
CONTINUOUS
 10
364.136445844
 20
153.693158757
 11
364.336445844
 21
153.693158757
  0
LINE
  5
369
100
AcDbEntity
  8
IMPORT_IGES
100
AcDbLine
 62
7
  6
CONTINUOUS
 10
145.4356443184
 20
153.8231386515
 11
146.4880678137
 21
153.8231386515
  0
LINE
  5
36A
100
AcDbEntity
  8
IMPORT_IGES
100
AcDbLine
 62
7
  6
CONTINUOUS
 10
364.136445844
 20
153.9779473656
 11
364.336445844
 21
153.9779473656
  0
LINE
  5
36B
100
AcDbEntity
  8
IMPORT_IGES
100
AcDbLine
 62
7
  6
CONTINUOUS
 10
364.336445844
 20
153.9973884636
 11
381.136445844
 21
153.9973884636
  0
LINE
  5
36C
100
AcDbEntity
  8
IMPORT_IGES
100
AcDbLine
 62
250
  6
CONTINUOUS
 10
364.136445844
 20
154.1750906278
 11
364.336445844
 21
154.1750906278
  0
LINE
  5
36D
100
AcDbEntity
  8
IMPORT_IGES
100
AcDbLine
 62
7
  6
CONTINUOUS
 10
301.136445844
 20
154.7473884636
 11
303.336445844
 21
154.7473884636
  0
LINE
  5
36E
100
AcDbEntity
  8
IMPORT_IGES
100
AcDbLine
 62
7
  6
CONTINUOUS
 10
305.836445844
 20
154.7473884636
 11
308.036445844
 21
154.7473884636
  0
LINE
  5
36F
100
AcDbEntity
  8
IMPORT_IGES
100
AcDbLine
 62
7
  6
CONTINUOUS
 10
310.536445844
 20
154.7473884636
 11
312.736445844
 21
154.7473884636
  0
LINE
  5
370
100
AcDbEntity
  8
IMPORT_IGES
100
AcDbLine
 62
7
  6
CONTINUOUS
 10
315.236445844
 20
154.7473884636
 11
317.436445844
 21
154.7473884636
  0
LINE
  5
371
100
AcDbEntity
  8
IMPORT_IGES
100
AcDbLine
 62
7
  6
CONTINUOUS
 10
319.936445844
 20
154.7473884636
 11
322.136445844
 21
154.7473884636
  0
LINE
  5
372
100
AcDbEntity
  8
IMPORT_IGES
100
AcDbLine
 62
250
  6
CONTINUOUS
 10
364.136445844
 20
154.8323131912
 11
364.336445844
 21
154.8323131912
  0
LINE
  5
373
100
AcDbEntity
  8
IMPORT_IGES
100
AcDbLine
 62
250
  6
CONTINUOUS
 10
364.136445844
 20
155.3903771237
 11
364.336445844
 21
155.3903771237
  0
LINE
  5
374
100
AcDbEntity
  8
ASSI
100
AcDbLine
 62
7
  6
CONTINUOUS
 10
352.259895844
 20
155.3962706593
 11
352.997987844
 21
155.3962706593
  0
LINE
  5
375
100
AcDbEntity
  8
ASSI
100
AcDbLine
 62
7
  6
CONTINUOUS
 10
358.241767844
 20
155.4203746593
 11
358.983919844
 21
155.4203746593
  0
LINE
  5
376
100
AcDbEntity
  8
IMPORT_IGES
100
AcDbLine
 62
7
  6
CONTINUOUS
 10
364.136445844
 20
155.6355191582
 11
364.336445844
 21
155.6355191582
  0
LINE
  5
377
100
AcDbEntity
  8
IMPORT_IGES
100
AcDbLine
 62
7
  6
CONTINUOUS
 10
364.336445844
 20
155.9646464699
 11
364.136445844
 21
155.9646464699
  0
LINE
  5
378
100
AcDbEntity
  8
ASSI
100
AcDbLine
 62
7
  6
CONTINUOUS
 10
352.997987844
 20
156.0501246593
 11
355.453440844
 21
156.0501246593
  0
LINE
  5
379
100
AcDbEntity
  8
ASSI
100
AcDbLine
 62
7
  6
CONTINUOUS
 10
356.359873844
 20
156.0501246593
 11
358.241767844
 21
156.0501246593
  0
LINE
  5
37A
100
AcDbEntity
  8
ASSI
100
AcDbLine
 62
7
  6
CONTINUOUS
 10
358.241767844
 20
156.8364256593
 11
356.359873844
 21
156.8364256593
  0
LINE
  5
37B
100
AcDbEntity
  8
ASSI
100
AcDbLine
 62
7
  6
CONTINUOUS
 10
355.445186844
 20
156.8364256593
 11
352.997987844
 21
156.8364256593
  0
LINE
  5
37C
100
AcDbEntity
  8
IMPORT_IGES
100
AcDbLine
 62
7
  6
CONTINUOUS
 10
160.9656148159
 20
156.9248441584
 11
201.3656148159
 21
156.9248441584
  0
LINE
  5
37D
100
AcDbEntity
  8
ASSI
100
AcDbLine
 62
7
  6
CONTINUOUS
 10
358.983919844
 20
157.4664306593
 11
358.241767844
 21
157.4664306593
  0
LINE
  5
37E
100
AcDbEntity
  8
ASSI
100
AcDbLine
 62
7
  6
CONTINUOUS
 10
352.997987844
 20
157.4905346593
 11
352.259895844
 21
157.4905346593
  0
LINE
  5
37F
100
AcDbEntity
  8
IMPORT_IGES
100
AcDbLine
 62
7
  6
CONTINUOUS
 10
364.136445844
 20
157.6171017998
 11
364.336445844
 21
157.6171017998
  0
LWPOLYLINE
  5
380
100
AcDbEntity
  8
IMPORT_IGES
100
AcDbPolyline
 62
7
  6
CONTINUOUS
 90
19
 70
0
 10
188.8010116731
 20
163.8243547358
 10
188.7106544524
 20
163.8546232469
 10
188.6152141768
 20
163.88147011
 10
188.5146908463
 20
163.9048953253
 10
188.4088515936
 20
163.9248623905
 10
188.2979292861
 20
163.9414078079
 10
188.1826225257
 20
163.9546410836
 10
188.063035202
 20
163.9645424189
 10
187.9390634256
 20
163.9711316126
 10
187.8110941303
 20
163.9745775669
 10
187.6792358001
 20
163.9748521102
 10
187.5433799511
 20
163.9719834142
 10
187.4035880655
 20
163.9662248963
 10
187.2598481509
 20
163.9576524141
 10
187.1121721997
 20
163.9461901101
 10
186.9606576712
 20
163.9318638291
 10
186.8053370518
 20
163.914682186
 10
186.6461778551
 20
163.894636566
 10
186.4831800811
 20
163.8717269689
  0
LINE
  5
381
100
AcDbEntity
  8
IMPORT_IGES
100
AcDbLine
 62
250
  6
CONTINUOUS
 10
248.4773078885
 20
119.6447177595
 11
248.8789936177
 21
119.3469466919
  0
LWPOLYLINE
  5
382
100
AcDbEntity
  8
IMPORT_IGES
100
AcDbPolyline
 62
7
  6
CONTINUOUS
 90
10
 70
0
 10
144.8559267359
 20
153.4351980786
 10
144.9147269544
 20
153.4484361401
 10
144.9749580965
 20
153.4606694747
 10
145.0366201623
 20
153.4718980823
 10
145.0997501011
 20
153.482083945
 10
145.1643109635
 20
153.4912650807
 10
145.2301919013
 20
153.4995555429
 10
145.297355965
 20
153.5069933495
 10
145.365840104
 20
153.5135404826
 10
145.4356443184
 20
153.5191969422
  0
LINE
  5
383
100
AcDbEntity
  8
IMPORT_IGES
100
AcDbLine
 62
7
  6
CONTINUOUS
 10
187.5108266104
 20
163.173846061
 11
187.5931521281
 21
163.1864437287
  0
LWPOLYLINE
  5
384
100
AcDbEntity
  8
IMPORT_IGES
100
AcDbPolyline
 62
7
  6
CONTINUOUS
 90
3
 70
0
 10
187.387470124
 20
163.1577693812
 10
187.4285774066
 20
163.1629892228
 10
187.5108266104
 20
163.173846061
  0
LWPOLYLINE
  5
385
100
AcDbEntity
  8
IMPORT_IGES
100
AcDbPolyline
 62
7
  6
CONTINUOUS
 90
10
 70
0
 10
187.5931521281
 20
163.1864437287
 10
187.6342870129
 20
163.191174206
 10
187.6753728307
 20
163.1929640186
 10
187.7164250013
 20
163.1931159487
 10
187.7574445905
 20
163.1937614093
 10
187.7984661397
 20
163.1963418024
 10
187.8394551076
 20
163.1994157259
 10
187.8803089358
 20
163.2007903867
 10
187.9209612449
 20
163.1991686412
 10
188.0019570243
 20
163.1925260003
  0
LWPOLYLINE
  5
386
100
AcDbEntity
  8
IMPORT_IGES
100
AcDbPolyline
 62
7
  6
CONTINUOUS
 90
10
 70
0
 10
145.4356443184
 20
153.7383733113
 10
145.3793919333
 20
153.7344234419
 10
145.3239835658
 20
153.7298634149
 10
145.2694192159
 20
153.7246932302
 10
145.2156812548
 20
153.7189239604
 10
145.1627873113
 20
153.7125445329
 10
145.1107902718
 20
153.7055217305
 10
145.0597077654
 20
153.6978444808
 10
145.009522163
 20
153.6895238562
 10
144.9602334647
 20
153.6805598566
  0
LINE
  5
387
100
AcDbEntity
  8
IMPORT_IGES
100
AcDbLine
 62
7
  6
CONTINUOUS
 10
322.136445844
 20
158.2473884636
 11
319.936445844
 21
158.2473884636
  0
LINE
  5
388
100
AcDbEntity
  8
IMPORT_IGES
100
AcDbLine
 62
7
  6
CONTINUOUS
 10
317.436445844
 20
158.2473884636
 11
315.236445844
 21
158.2473884636
  0
LINE
  5
389
100
AcDbEntity
  8
IMPORT_IGES
100
AcDbLine
 62
7
  6
CONTINUOUS
 10
312.736445844
 20
158.2473884636
 11
310.536445844
 21
158.2473884636
  0
LINE
  5
38A
100
AcDbEntity
  8
IMPORT_IGES
100
AcDbLine
 62
7
  6
CONTINUOUS
 10
308.036445844
 20
158.2473884636
 11
305.836445844
 21
158.2473884636
  0
LINE
  5
38B
100
AcDbEntity
  8
IMPORT_IGES
100
AcDbLine
 62
7
  6
CONTINUOUS
 10
301.136445844
 20
158.2473884636
 11
303.336445844
 21
158.2473884636
  0
LINE
  5
38C
100
AcDbEntity
  8
IMPORT_IGES
100
AcDbLine
 62
7
  6
CONTINUOUS
 10
364.136445844
 20
158.9973884636
 11
381.136445844
 21
158.9973884636
  0
LINE
  5
38D
100
AcDbEntity
  8
IMPORT_IGES
100
AcDbLine
 62
7
  6
CONTINUOUS
 10
186.2073818159
 20
159.4248436593
 11
185.2174908159
 21
159.4248436593
  0
LINE
  5
38E
100
AcDbEntity
  8
IMPORT_IGES
100
AcDbLine
 62
7
  6
CONTINUOUS
 10
183.4359718159
 20
159.4248436593
 11
182.5069488159
 21
159.4248436593
  0
LINE
  5
38F
100
AcDbEntity
  8
IMPORT_IGES
100
AcDbLine
 62
7
  6
CONTINUOUS
 10
182.3594678159
 20
159.4248436593
 11
181.4406688159
 21
159.4248436593
  0
LINE
  5
390
100
AcDbEntity
  8
IMPORT_IGES
100
AcDbLine
 62
7
  6
CONTINUOUS
 10
180.1309818159
 20
159.4248436593
 11
179.9992578159
 21
159.4248436593
  0
LINE
  5
391
100
AcDbEntity
  8
IMPORT_IGES
100
AcDbLine
 62
7
  6
CONTINUOUS
 10
178.6947668159
 20
159.4248436593
 11
177.7962458159
 21
159.4248436593
  0
LINE
  5
392
100
AcDbEntity
  8
IMPORT_IGES
100
AcDbLine
 62
7
  6
CONTINUOUS
 10
177.2906388159
 20
159.4248436593
 11
176.3514268159
 21
159.4248436593
  0
LINE
  5
393
100
AcDbEntity
  8
IMPORT_IGES
100
AcDbLine
 62
7
  6
CONTINUOUS
 10
174.5565788159
 20
159.4248436593
 11
173.7288978159
 21
159.4248436593
  0
LINE
  5
394
100
AcDbEntity
  8
IMPORT_IGES
100
AcDbLine
 62
7
  6
CONTINUOUS
 10
189.7602993941
 20
159.4248441584
 11
188.8568866148
 21
159.4248441584
  0
LINE
  5
395
100
AcDbEntity
  8
IMPORT_IGES
100
AcDbLine
 62
7
  6
CONTINUOUS
 10
187.418612981
 20
159.4248441584
 11
186.4831800811
 21
159.4248441584
  0
LINE
  5
396
100
AcDbEntity
  8
IMPORT_IGES
100
AcDbLine
 62
7
  6
CONTINUOUS
 10
364.136445844
 20
159.6583707445
 11
364.336445844
 21
159.6583707445
  0
LINE
  5
397
100
AcDbEntity
  8
IMPORT_IGES
100
AcDbLine
 62
7
  6
CONTINUOUS
 10
364.136445844
 20
160.0352467411
 11
364.336445844
 21
160.0352467411
  0
LINE
  5
398
100
AcDbEntity
  8
IMPORT_IGES
100
AcDbLine
 62
7
  6
CONTINUOUS
 10
269.836445844
 20
160.1473884636
 11
298.136445844
 21
160.1473884636
  0
LINE
  5
399
100
AcDbEntity
  8
IMPORT_IGES
100
AcDbLine
 62
7
  6
CONTINUOUS
 10
301.136445844
 20
160.1473884636
 11
303.336445844
 21
160.1473884636
  0
LINE
  5
39A
100
AcDbEntity
  8
IMPORT_IGES
100
AcDbLine
 62
7
  6
CONTINUOUS
 10
305.836445844
 20
160.1473884636
 11
308.036445844
 21
160.1473884636
  0
LINE
  5
39B
100
AcDbEntity
  8
IMPORT_IGES
100
AcDbLine
 62
7
  6
CONTINUOUS
 10
310.536445844
 20
160.1473884636
 11
312.736445844
 21
160.1473884636
  0
LINE
  5
39C
100
AcDbEntity
  8
IMPORT_IGES
100
AcDbLine
 62
7
  6
CONTINUOUS
 10
315.236445844
 20
160.1473884636
 11
317.436445844
 21
160.1473884636
  0
LINE
  5
39D
100
AcDbEntity
  8
IMPORT_IGES
100
AcDbLine
 62
7
  6
CONTINUOUS
 10
319.936445844
 20
160.1473884636
 11
322.136445844
 21
160.1473884636
  0
LINE
  5
39E
100
AcDbEntity
  8
IMPORT_IGES
100
AcDbLine
 62
7
  6
CONTINUOUS
 10
184.9741858159
 20
160.3230946593
 11
183.6951348159
 21
160.3230946593
  0
LINE
  5
39F
100
AcDbEntity
  8
IMPORT_IGES
100
AcDbLine
 62
7
  6
CONTINUOUS
 10
364.136445844
 20
160.3268565052
 11
364.336445844
 21
160.3268565052
  0
LINE
  5
3A0
100
AcDbEntity
  8
IMPORT_IGES
100
AcDbLine
 62
7
  6
CONTINUOUS
 10
322.136445844
 20
160.3703718098
 11
319.936445844
 21
160.3703718098
  0
LINE
  5
3A1
100
AcDbEntity
  8
IMPORT_IGES
100
AcDbLine
 62
7
  6
CONTINUOUS
 10
317.436445844
 20
160.3703718098
 11
315.236445844
 21
160.3703718098
  0
LINE
  5
3A2
100
AcDbEntity
  8
IMPORT_IGES
100
AcDbLine
 62
7
  6
CONTINUOUS
 10
312.736445844
 20
160.3703718098
 11
310.536445844
 21
160.3703718098
  0
LINE
  5
3A3
100
AcDbEntity
  8
IMPORT_IGES
100
AcDbLine
 62
7
  6
CONTINUOUS
 10
308.036445844
 20
160.3703718098
 11
305.836445844
 21
160.3703718098
  0
LINE
  5
3A4
100
AcDbEntity
  8
IMPORT_IGES
100
AcDbLine
 62
7
  6
CONTINUOUS
 10
303.336445844
 20
160.3703718098
 11
301.136445844
 21
160.3703718098
  0
LINE
  5
3A5
100
AcDbEntity
  8
IMPORT_IGES
100
AcDbLine
 62
7
  6
CONTINUOUS
 10
298.136445844
 20
160.7473884636
 11
301.136445844
 21
160.7473884636
  0
LINE
  5
3A6
100
AcDbEntity
  8
IMPORT_IGES
100
AcDbLine
 62
7
  6
CONTINUOUS
 10
303.336445844
 20
160.7473884636
 11
305.836445844
 21
160.7473884636
  0
LINE
  5
3A7
100
AcDbEntity
  8
IMPORT_IGES
100
AcDbLine
 62
7
  6
CONTINUOUS
 10
308.036445844
 20
160.7473884636
 11
310.536445844
 21
160.7473884636
  0
LINE
  5
3A8
100
AcDbEntity
  8
IMPORT_IGES
100
AcDbLine
 62
7
  6
CONTINUOUS
 10
312.736445844
 20
160.7473884636
 11
315.236445844
 21
160.7473884636
  0
LINE
  5
3A9
100
AcDbEntity
  8
IMPORT_IGES
100
AcDbLine
 62
7
  6
CONTINUOUS
 10
317.436445844
 20
160.7473884636
 11
319.936445844
 21
160.7473884636
  0
LINE
  5
3AA
100
AcDbEntity
  8
IMPORT_IGES
100
AcDbLine
 62
7
  6
CONTINUOUS
 10
322.136445844
 20
160.7473884636
 11
324.136445844
 21
160.7473884636
  0
LINE
  5
3AB
100
AcDbEntity
  8
IMPORT_IGES
100
AcDbLine
 62
7
  6
CONTINUOUS
 10
184.7864848159
 20
161.0181576593
 11
183.8872558159
 21
161.0181576593
  0
LINE
  5
3AC
100
AcDbEntity
  8
IMPORT_IGES
100
AcDbLine
 62
7
  6
CONTINUOUS
 10
187.9221960148
 20
161.1856808611
 11
187.418612981
 21
161.1856808611
  0
LINE
  5
3AD
100
AcDbEntity
  8
IMPORT_IGES
100
AcDbLine
 62
7
  6
CONTINUOUS
 10
364.136445844
 20
161.3722179645
 11
364.336445844
 21
161.3722179645
  0
LINE
  5
3AE
100
AcDbEntity
  8
IMPORT_IGES
100
AcDbLine
 62
7
  6
CONTINUOUS
 10
255.4099171301
 20
161.4973884636
 11
269.836445844
 21
161.4973884636
  0
LINE
  5
3AF
100
AcDbEntity
  8
IMPORT_IGES
100
AcDbLine
 62
7
  6
CONTINUOUS
 10
364.136445844
 20
161.6467745417
 11
364.336445844
 21
161.6467745417
  0
LINE
  5
3B0
100
AcDbEntity
  8
IMPORT_IGES
100
AcDbLine
 62
7
  6
CONTINUOUS
 10
187.9242204692
 20
161.9225822654
 11
187.387470124
 21
161.9225822654
  0
LINE
  5
3B1
100
AcDbEntity
  8
IMPORT_IGES
100
AcDbLine
 62
7
  6
CONTINUOUS
 10
364.136445844
 20
161.9980706089
 11
364.336445844
 21
161.9980706089
  0
LINE
  5
3B2
100
AcDbEntity
  8
IMPORT_IGES
100
AcDbLine
 62
7
  6
CONTINUOUS
 10
364.136445844
 20
162.1532548779
 11
364.336445844
 21
162.1532548779
  0
LINE
  5
3B3
100
AcDbEntity
  8
IMPORT_IGES
100
AcDbLine
 62
250
  6
CONTINUOUS
 10
364.136445844
 20
162.2555740067
 11
364.336445844
 21
162.2555740067
  0
LINE
  5
3B4
100
AcDbEntity
  8
IMPORT_IGES
100
AcDbLine
 62
250
  6
CONTINUOUS
 10
364.136445844
 20
162.5337698844
 11
364.336445844
 21
162.5337698844
  0
LINE
  5
3B5
100
AcDbEntity
  8
IMPORT_IGES
100
AcDbLine
 62
250
  6
CONTINUOUS
 10
364.136445844
 20
162.9359967821
 11
364.336445844
 21
162.9359967821
  0
LINE
  5
3B6
100
AcDbEntity
  8
IMPORT_IGES
100
AcDbLine
 62
7
  6
CONTINUOUS
 10
301.136445844
 20
163.0873884636
 11
303.336445844
 21
163.0873884636
  0
LINE
  5
3B7
100
AcDbEntity
  8
IMPORT_IGES
100
AcDbLine
 62
7
  6
CONTINUOUS
 10
305.836445844
 20
163.0873884636
 11
308.036445844
 21
163.0873884636
  0
LINE
  5
3B8
100
AcDbEntity
  8
IMPORT_IGES
100
AcDbLine
 62
7
  6
CONTINUOUS
 10
310.536445844
 20
163.0873884636
 11
312.736445844
 21
163.0873884636
  0
LINE
  5
3B9
100
AcDbEntity
  8
IMPORT_IGES
100
AcDbLine
 62
7
  6
CONTINUOUS
 10
315.236445844
 20
163.0873884636
 11
317.436445844
 21
163.0873884636
  0
LINE
  5
3BA
100
AcDbEntity
  8
IMPORT_IGES
100
AcDbLine
 62
7
  6
CONTINUOUS
 10
319.936445844
 20
163.0873884636
 11
322.136445844
 21
163.0873884636
  0
LINE
  5
3BB
100
AcDbEntity
  8
IMPORT_IGES
100
AcDbLine
 62
250
  6
CONTINUOUS
 10
364.136445844
 20
163.5623407023
 11
364.336445844
 21
163.5623407023
  0
LINE
  5
3BC
100
AcDbEntity
  8
IMPORT_IGES
100
AcDbLine
 62
7
  6
CONTINUOUS
 10
364.136445844
 20
163.8040050679
 11
364.336445844
 21
163.8040050679
  0
LINE
  5
3BD
100
AcDbEntity
  8
IMPORT_IGES
100
AcDbLine
 62
7
  6
CONTINUOUS
 10
172.3024838159
 20
163.9242956593
 11
173.3227588159
 21
163.9242956593
  0
LINE
  5
3BE
100
AcDbEntity
  8
IMPORT_IGES
100
AcDbLine
 62
7
  6
CONTINUOUS
 10
175.0643128159
 20
163.9242956593
 11
176.0028828159
 21
163.9242956593
  0
LINE
  5
3BF
100
AcDbEntity
  8
IMPORT_IGES
100
AcDbLine
 62
7
  6
CONTINUOUS
 10
178.2025208159
 20
163.9242956593
 11
179.1409558159
 21
163.9242956593
  0
LINE
  5
3C0
100
AcDbEntity
  8
IMPORT_IGES
100
AcDbLine
 62
7
  6
CONTINUOUS
 10
181.0094598159
 20
163.9242956593
 11
181.9387188159
 21
163.9242956593
  0
LINE
  5
3C1
100
AcDbEntity
  8
IMPORT_IGES
100
AcDbLine
 62
7
  6
CONTINUOUS
 10
183.9182638159
 20
163.9242956593
 11
184.8268388159
 21
163.9242956593
  0
LINE
  5
3C2
100
AcDbEntity
  8
IMPORT_IGES
100
AcDbLine
 62
7
  6
CONTINUOUS
 10
176.3514268159
 20
163.9245656593
 11
177.2906388159
 21
163.9245656593
  0
LINE
  5
3C3
100
AcDbEntity
  8
IMPORT_IGES
100
AcDbLine
 62
7
  6
CONTINUOUS
 10
298.136445844
 20
163.9973884636
 11
324.136445844
 21
163.9973884636
  0
LINE
  5
3C4
100
AcDbEntity
  8
IMPORT_IGES
100
AcDbLine
 62
7
  6
CONTINUOUS
 10
364.136445844
 20
164.5765153878
 11
364.336445844
 21
164.5765153878
  0
LINE
  5
3C5
100
AcDbEntity
  8
IMPORT_IGES
100
AcDbLine
 62
7
  6
CONTINUOUS
 10
364.336445844
 20
164.8834730499
 11
364.136445844
 21
164.8834730499
  0
LINE
  5
3C6
100
AcDbEntity
  8
IMPORT_IGES
100
AcDbLine
 62
250
  6
CONTINUOUS
 10
364.136445844
 20
165.1747104921
 11
364.336445844
 21
165.1747104921
  0
LINE
  5
3C7
100
AcDbEntity
  8
IMPORT_IGES
100
AcDbLine
 62
7
  6
CONTINUOUS
 10
364.136445844
 20
165.4973884487
 11
364.336445844
 21
165.4973884487
  0
LINE
  5
3C8
100
AcDbEntity
  8
IMPORT_IGES
100
AcDbLine
 62
7
  6
CONTINUOUS
 10
374.8435526251
 20
166.9973884637
 11
380.636445844
 21
166.9973884637
  0
LINE
  5
3C9
100
AcDbEntity
  8
ASSI
100
AcDbLine
 62
7
  6
CONTINUOUS
 10
364.136445844
 20
167.0973884646
 11
374.5435526252
 21
167.0973884677
  0
LWPOLYLINE
  5
3CA
100
AcDbEntity
  8
IMPORT_IGES
100
AcDbPolyline
 62
7
  6
CONTINUOUS
 90
19
 70
0
 10
187.9221960148
 20
161.1856808611
 10
187.9616555746
 20
161.1840695437
 10
188.0000101493
 20
161.180012262
 10
188.0372597389
 20
161.173509016
 10
188.073438303
 20
161.1645306703
 10
188.108511882
 20
161.1531063603
 10
188.1423785969
 20
161.139323492
 10
188.1750243002
 20
161.1232046207
 10
188.2064631393
 20
161.1047271912
 10
188.2366356776
 20
161.0839109436
 10
188.265572755
 20
161.0607793974
 10
188.2932435316
 20
161.0353090332
 10
188.3194960507
 20
161.0074490329
 10
188.3443067545
 20
160.9772113398
 10
188.367699201
 20
160.9445840107
 10
188.3895921068
 20
160.9094803975
 10
188.4099583776
 20
160.8718716177
 10
188.4288251078
 20
160.831786554
 10
188.4461922973
 20
160.7892252063
  0
LINE
  5
3CB
100
AcDbEntity
  8
IMPORT_IGES
100
AcDbLine
 62
7
  6
CONTINUOUS
 10
188.0019570243
 20
163.1925260003
 11
188.1232580784
 21
163.1842559931
  0
LWPOLYLINE
  5
3CC
100
AcDbEntity
  8
IMPORT_IGES
100
AcDbPolyline
 62
7
  6
CONTINUOUS
 90
22
 70
0
 10
188.1232580784
 20
163.1842559931
 10
188.1667958894
 20
163.1775927279
 10
188.2091363195
 20
163.1683900861
 10
188.2502793687
 20
163.1566480679
 10
188.2904277639
 20
163.1422665575
 10
188.3293787783
 20
163.1253456706
 10
188.3665242308
 20
163.1061857538
 10
188.4018097069
 20
163.0848110597
 10
188.435289621
 20
163.0611973358
 10
188.466519036
 20
163.0355721711
 10
188.4954033587
 20
163.0078455798
 10
188.5220371823
 20
162.9781075476
 10
188.5462593494
 20
162.9468556207
 10
188.5680254269
 20
162.9140394502
 10
188.5873798478
 20
162.8797093849
 10
188.604294755
 20
162.8445140176
 10
188.6187867363
 20
162.8084722342
 10
188.6308392038
 20
162.7715651488
 10
188.6403745357
 20
162.7343846968
 10
188.6473668583
 20
162.6971281901
 10
188.6518420453
 20
162.6595983168
 10
188.6538000968
 20
162.6217950769
  0
LINE
  5
3CD
100
AcDbEntity
  8
IMPORT_IGES
100
AcDbLine
 62
7
  6
CONTINUOUS
 10
162.7920195404
 20
170.4473884636
 11
163.8808721475
 21
170.4473884636
  0
LINE
  5
3CE
100
AcDbEntity
  8
IMPORT_IGES
100
AcDbLine
 62
7
  6
CONTINUOUS
 10
364.136445844
 20
170.9973884636
 11
347.0215144675
 21
170.9973884636
  0
LINE
  5
3CF
100
AcDbEntity
  8
IMPORT_IGES
100
AcDbLine
 62
7
  6
CONTINUOUS
 10
162.7920195404
 20
171.5473884636
 11
163.8808721475
 21
171.5473884636
  0
LINE
  5
3D0
100
AcDbEntity
  8
ASSI
100
AcDbLine
 62
7
  6
CONTINUOUS
 10
374.5435526252
 20
171.8973884594
 11
364.136445844
 21
171.8973884625
  0
LINE
  5
3D1
100
AcDbEntity
  8
IMPORT_IGES
100
AcDbLine
 62
7
  6
CONTINUOUS
 10
380.636445844
 20
171.9973884635
 11
374.8435526251
 21
171.9973884635
  0
LINE
  5
3D2
100
AcDbEntity
  8
IMPORT_IGES
100
AcDbLine
 62
7
  6
CONTINUOUS
 10
364.136445844
 20
176.9973884636
 11
352.136445844
 21
176.9973884636
  0
LINE
  5
3D3
100
AcDbEntity
  8
IMPORT_IGES
100
AcDbLine
 62
7
  6
CONTINUOUS
 10
344.636445844
 20
170.7367935069
 11
346.136445844
 21
170.6180733392
  0
LINE
  5
3D4
100
AcDbEntity
  8
IMPORT_IGES
100
AcDbLine
 62
7
  6
CONTINUOUS
 10
352.136445844
 20
176.9973884636
 11
324.136445844
 21
164.9973884636
  0
LINE
  5
3D5
100
AcDbEntity
  8
IMPORT_IGES
100
AcDbLine
 62
7
  6
CONTINUOUS
 10
352.136445844
 20
135.9973884636
 11
324.136445844
 21
147.9973884636
  0
LINE
  5
3D6
100
AcDbEntity
  8
IMPORT_IGES
100
AcDbLine
 62
7
  6
CONTINUOUS
 10
255.2258292822
 20
202.1763097598
 11
255.2211513168
 21
202.219876382
  0
LINE
  5
3D7
100
AcDbEntity
  8
IMPORT_IGES
100
AcDbLine
 62
7
  6
CONTINUOUS
 10
255.2304029725
 20
202.130607914
 11
255.2258292822
 21
202.1763097598
  0
LINE
  5
3D8
100
AcDbEntity
  8
IMPORT_IGES
100
AcDbLine
 62
7
  6
CONTINUOUS
 10
255.2348973962
 20
202.0825848429
 11
255.2304029725
 21
202.130607914
  0
LINE
  5
3D9
100
AcDbEntity
  8
IMPORT_IGES
100
AcDbLine
 62
7
  6
CONTINUOUS
 10
255.2393336138
 20
202.0320484499
 11
255.2348973962
 21
202.0825848429
  0
LINE
  5
3DA
100
AcDbEntity
  8
IMPORT_IGES
100
AcDbLine
 62
7
  6
CONTINUOUS
 10
255.243725092
 20
201.9788532756
 11
255.2393336138
 21
202.0320484499
  0
LINE
  5
3DB
100
AcDbEntity
  8
IMPORT_IGES
100
AcDbLine
 62
7
  6
CONTINUOUS
 10
255.2480845448
 20
201.9228324282
 11
255.243725092
 21
201.9788532756
  0
LINE
  5
3DC
100
AcDbEntity
  8
IMPORT_IGES
100
AcDbLine
 62
7
  6
CONTINUOUS
 10
255.2545805699
 20
201.8332118417
 11
255.2480845448
 21
201.9228324282
  0
LINE
  5
3DD
100
AcDbEntity
  8
IMPORT_IGES
100
AcDbLine
 62
250
  6
CONTINUOUS
 10
254.2421570351
 20
202.8979032438
 11
254.2498048832
 21
202.7849123297
  0
LINE
  5
3DE
100
AcDbEntity
  8
IMPORT_IGES
100
AcDbLine
 62
7
  6
CONTINUOUS
 10
255.2610402369
 20
201.7365206819
 11
255.2545805699
 21
201.8332118417
  0
LINE
  5
3DF
100
AcDbEntity
  8
IMPORT_IGES
100
AcDbLine
 62
7
  6
CONTINUOUS
 10
255.2674738458
 20
201.6323862283
 11
255.2610402369
 21
201.7365206819
  0
LINE
  5
3E0
100
AcDbEntity
  8
IMPORT_IGES
100
AcDbLine
 62
250
  6
CONTINUOUS
 10
254.2498048832
 20
202.7849123297
 11
254.257341362
 21
202.6596563315
  0
LINE
  5
3E1
100
AcDbEntity
  8
IMPORT_IGES
100
AcDbLine
 62
7
  6
CONTINUOUS
 10
255.2760187326
 20
201.481379557
 11
255.2674738458
 21
201.6323862283
  0
LINE
  5
3E2
100
AcDbEntity
  8
IMPORT_IGES
100
AcDbLine
 62
250
  6
CONTINUOUS
 10
254.257341362
 20
202.6596563315
 11
254.264765557
 21
202.522298189
  0
LINE
  5
3E3
100
AcDbEntity
  8
IMPORT_IGES
100
AcDbLine
 62
7
  6
CONTINUOUS
 10
255.2845246784
 20
201.3158103174
 11
255.2760187326
 21
201.481379557
  0
LINE
  5
3E4
100
AcDbEntity
  8
IMPORT_IGES
100
AcDbLine
 62
250
  6
CONTINUOUS
 10
254.264765557
 20
202.522298189
 11
254.2720755482
 21
202.3730168113
  0
LINE
  5
3E5
100
AcDbEntity
  8
IMPORT_IGES
100
AcDbLine
 62
7
  6
CONTINUOUS
 10
255.295087454
 20
201.0873643994
 11
255.2845246784
 21
201.3158103174
  0
LINE
  5
3E6
100
AcDbEntity
  8
IMPORT_IGES
100
AcDbLine
 62
250
  6
CONTINUOUS
 10
254.2720755482
 20
202.3730168113
 11
254.282814904
 21
202.1271694597
  0
LINE
  5
3E7
100
AcDbEntity
  8
IMPORT_IGES
100
AcDbLine
 62
7
  6
CONTINUOUS
 10
255.3055524394
 20
200.8336849767
 11
255.295087454
 21
201.0873643994
  0
LINE
  5
3E8
100
AcDbEntity
  8
IMPORT_IGES
100
AcDbLine
 62
250
  6
CONTINUOUS
 10
254.282814904
 20
202.1271694597
 11
254.2932472331
 21
201.8556577173
  0
LINE
  5
3E9
100
AcDbEntity
  8
IMPORT_IGES
100
AcDbLine
 62
7
  6
CONTINUOUS
 10
255.3179496128
 20
200.4934192432
 11
255.3055524394
 21
200.8336849767
  0
LINE
  5
3EA
100
AcDbEntity
  8
IMPORT_IGES
100
AcDbLine
 62
250
  6
CONTINUOUS
 10
254.2932472331
 20
201.8556577173
 11
254.30664418
 21
201.4553502967
  0
LINE
  5
3EB
100
AcDbEntity
  8
IMPORT_IGES
100
AcDbLine
 62
7
  6
CONTINUOUS
 10
255.332107976
 20
200.0428335146
 11
255.3179496128
 21
200.4934192432
  0
LINE
  5
3EC
100
AcDbEntity
  8
IMPORT_IGES
100
AcDbLine
 62
250
  6
CONTINUOUS
 10
254.30664418
 20
201.4553502967
 11
254.3224601205
 21
200.9023096846
  0
LINE
  5
3ED
100
AcDbEntity
  8
IMPORT_IGES
100
AcDbLine
 62
7
  6
CONTINUOUS
 10
255.3457929518
 20
199.5292819791
 11
255.332107976
 21
200.0428335146
  0
LINE
  5
3EE
100
AcDbEntity
  8
IMPORT_IGES
100
AcDbLine
 62
250
  6
CONTINUOUS
 10
254.3224601205
 20
200.9023096846
 11
254.3399293801
 21
200.1743785824
  0
LINE
  5
3EF
100
AcDbEntity
  8
IMPORT_IGES
100
AcDbLine
 62
7
  6
CONTINUOUS
 10
255.360618725
 20
198.8596893948
 11
255.3457929518
 21
199.5292819791
  0
LINE
  5
3F0
100
AcDbEntity
  8
IMPORT_IGES
100
AcDbLine
 62
250
  6
CONTINUOUS
 10
254.3399293801
 20
200.1743785824
 11
254.3587762898
 21
199.2165845984
  0
LINE
  5
3F1
100
AcDbEntity
  8
IMPORT_IGES
100
AcDbLine
 62
7
  6
CONTINUOUS
 10
255.3759236201
 20
197.9957351269
 11
255.360618725
 21
198.8596893948
  0
LINE
  5
3F2
100
AcDbEntity
  8
IMPORT_IGES
100
AcDbLine
 62
250
  6
CONTINUOUS
 10
254.3587762898
 20
199.2165845984
 11
254.3734663364
 21
198.308928971
  0
LINE
  5
3F3
100
AcDbEntity
  8
IMPORT_IGES
100
AcDbLine
 62
250
  6
CONTINUOUS
 10
254.3734663364
 20
198.308928971
 11
254.3859893846
 21
197.3429663743
  0
LINE
  5
3F4
100
AcDbEntity
  8
IMPORT_IGES
100
AcDbLine
 62
7
  6
CONTINUOUS
 10
255.3906202482
 20
196.8924423104
 11
255.3759236201
 21
197.9957351269
  0
LINE
  5
3F5
100
AcDbEntity
  8
IMPORT_IGES
100
AcDbLine
 62
250
  6
CONTINUOUS
 10
254.3859893846
 20
197.3429663743
 11
254.3976766694
 21
196.1578364947
  0
LINE
  5
3F6
100
AcDbEntity
  8
IMPORT_IGES
100
AcDbLine
 62
7
  6
CONTINUOUS
 10
255.4029251715
 20
195.494511653
 11
255.3906202482
 21
196.8924423104
  0
LINE
  5
3F7
100
AcDbEntity
  8
IMPORT_IGES
100
AcDbLine
 62
250
  6
CONTINUOUS
 10
254.3976766694
 20
196.1578364947
 11
254.404952818
 21
195.1059483571
  0
LINE
  5
3F8
100
AcDbEntity
  8
IMPORT_IGES
100
AcDbLine
 62
250
  6
CONTINUOUS
 10
254.404952818
 20
195.1059483571
 11
254.4090242943
 21
194.0448063036
  0
LINE
  5
3F9
100
AcDbEntity
  8
IMPORT_IGES
100
AcDbLine
 62
7
  6
CONTINUOUS
 10
255.4091552883
 20
194.0516871571
 11
255.4029251715
 21
195.494511653
  0
LINE
  5
3FA
100
AcDbEntity
  8
IMPORT_IGES
100
AcDbLine
 62
7
  6
CONTINUOUS
 10
255.40991713
 20
119.3467451176
 11
255.4091552883
 21
194.0516871571
  0
LINE
  5
3FB
100
AcDbEntity
  8
IMPORT_IGES
100
AcDbLine
 62
250
  6
CONTINUOUS
 10
254.4089396845
 20
118.4539429624
 11
254.4090242943
 21
194.0448063036
  0
LINE
  5
3FC
100
AcDbEntity
  8
IMPORT_IGES
100
AcDbLine
 62
7
  6
CONTINUOUS
 10
255.4003422399
 20
117.764316627
 11
255.4035957697
 21
119.3468446977
  0
LINE
  5
3FD
100
AcDbEntity
  8
IMPORT_IGES
100
AcDbLine
 62
250
  6
CONTINUOUS
 10
254.401458671
 20
116.6966145401
 11
254.4089396845
 21
118.4539429624
  0
LINE
  5
3FE
100
AcDbEntity
  8
IMPORT_IGES
100
AcDbLine
 62
7
  6
CONTINUOUS
 10
255.3908214249
 20
116.2988743605
 11
255.4003422399
 21
117.764316627
  0
LINE
  5
3FF
100
AcDbEntity
  8
IMPORT_IGES
100
AcDbLine
 62
250
  6
CONTINUOUS
 10
254.3867296041
 20
115.0237549355
 11
254.401458671
 21
116.6966145401
  0
LINE
  5
400
100
AcDbEntity
  8
IMPORT_IGES
100
AcDbLine
 62
7
  6
CONTINUOUS
 10
255.3768145464
 20
115.0298544577
 11
255.3908214249
 21
116.2988743605
  0
LINE
  5
401
100
AcDbEntity
  8
IMPORT_IGES
100
AcDbLine
 62
250
  6
CONTINUOUS
 10
254.3700352229
 20
113.7822858639
 11
254.3867296041
 21
115.0237549355
  0
LINE
  5
402
100
AcDbEntity
  8
IMPORT_IGES
100
AcDbLine
 62
7
  6
CONTINUOUS
 10
255.3613316424
 20
114.0383763185
 11
255.3768145464
 21
115.0298544577
  0
LINE
  5
403
100
AcDbEntity
  8
IMPORT_IGES
100
AcDbLine
 62
250
  6
CONTINUOUS
 10
254.3521319689
 20
112.7884629298
 11
254.3700352229
 21
113.7822858639
  0
LINE
  5
404
100
AcDbEntity
  8
IMPORT_IGES
100
AcDbLine
 62
7
  6
CONTINUOUS
 10
255.3458194946
 20
113.2691308162
 11
255.3613316424
 21
114.0383763185
  0
LINE
  5
405
100
AcDbEntity
  8
IMPORT_IGES
100
AcDbLine
 62
250
  6
CONTINUOUS
 10
254.334558105
 20
112.0177614947
 11
254.3521319689
 21
112.7884629298
  0
LINE
  5
406
100
AcDbEntity
  8
IMPORT_IGES
100
AcDbLine
 62
7
  6
CONTINUOUS
 10
255.3311310764
 20
112.6758214941
 11
255.3458194946
 21
113.2691308162
  0
LINE
  5
407
100
AcDbEntity
  8
IMPORT_IGES
100
AcDbLine
 62
250
  6
CONTINUOUS
 10
254.318494933
 20
111.4395554191
 11
254.334558105
 21
112.0177614947
  0
LINE
  5
408
100
AcDbEntity
  8
IMPORT_IGES
100
AcDbLine
 62
7
  6
CONTINUOUS
 10
255.3177989273
 20
112.222301573
 11
255.3311310764
 21
112.6758214941
  0
LINE
  5
409
100
AcDbEntity
  8
IMPORT_IGES
100
AcDbLine
 62
250
  6
CONTINUOUS
 10
254.3048086576
 20
111.0222699836
 11
254.318494933
 21
111.4395554191
  0
LINE
  5
40A
100
AcDbEntity
  8
IMPORT_IGES
100
AcDbLine
 62
7
  6
CONTINUOUS
 10
255.3061515473
 20
111.8799788053
 11
255.3177989273
 21
112.222301573
  0
LINE
  5
40B
100
AcDbEntity
  8
IMPORT_IGES
100
AcDbLine
 62
250
  6
CONTINUOUS
 10
254.2941015332
 20
110.737136015
 11
254.3048086576
 21
111.0222699836
  0
LINE
  5
40C
100
AcDbEntity
  8
IMPORT_IGES
100
AcDbLine
 62
7
  6
CONTINUOUS
 10
255.2963600701
 20
111.6257396719
 11
255.3061515473
 21
111.8799788053
  0
LINE
  5
40D
100
AcDbEntity
  8
IMPORT_IGES
100
AcDbLine
 62
250
  6
CONTINUOUS
 10
254.2830495702
 20
110.4767740077
 11
254.2941015332
 21
110.737136015
  0
LINE
  5
40E
100
AcDbEntity
  8
IMPORT_IGES
100
AcDbLine
 62
7
  6
CONTINUOUS
 10
255.286536442
 20
111.3981655854
 11
255.2963600701
 21
111.6257396719
  0
LINE
  5
40F
100
AcDbEntity
  8
IMPORT_IGES
100
AcDbLine
 62
250
  6
CONTINUOUS
 10
254.2755053219
 20
110.3173343885
 11
254.2830495702
 21
110.4767740077
  0
LINE
  5
410
100
AcDbEntity
  8
IMPORT_IGES
100
AcDbLine
 62
7
  6
CONTINUOUS
 10
255.278677379
 20
111.2342780621
 11
255.286536442
 21
111.3981655854
  0
LINE
  5
411
100
AcDbEntity
  8
IMPORT_IGES
100
AcDbLine
 62
250
  6
CONTINUOUS
 10
254.2678315521
 20
110.1694428207
 11
254.2755053219
 21
110.3173343885
  0
LINE
  5
412
100
AcDbEntity
  8
IMPORT_IGES
100
AcDbLine
 62
7
  6
CONTINUOUS
 10
255.2708317195
 20
111.0856472216
 11
255.278677379
 21
111.2342780621
  0
LINE
  5
413
100
AcDbEntity
  8
IMPORT_IGES
100
AcDbLine
 62
250
  6
CONTINUOUS
 10
254.260039408
 20
110.033288471
 11
254.2678315521
 21
110.1694428207
  0
LINE
  5
414
100
AcDbEntity
  8
IMPORT_IGES
100
AcDbLine
 62
7
  6
CONTINUOUS
 10
255.264959578
 20
110.9836496101
 11
255.2708317195
 21
111.0856472216
  0
LINE
  5
415
100
AcDbEntity
  8
IMPORT_IGES
100
AcDbLine
 62
7
  6
CONTINUOUS
 10
255.2590966342
 20
110.8893283572
 11
255.264959578
 21
110.9836496101
  0
LINE
  5
416
100
AcDbEntity
  8
IMPORT_IGES
100
AcDbLine
 62
250
  6
CONTINUOUS
 10
254.2521363708
 20
109.9090456113
 11
254.260039408
 21
110.033288471
  0
LINE
  5
417
100
AcDbEntity
  8
IMPORT_IGES
100
AcDbLine
 62
7
  6
CONTINUOUS
 10
255.2532365681
 20
110.802241764
 11
255.2590966342
 21
110.8893283572
  0
LINE
  5
418
100
AcDbEntity
  8
IMPORT_IGES
100
AcDbLine
 62
7
  6
CONTINUOUS
 10
255.2473643465
 20
110.7218802478
 11
255.2532365681
 21
110.802241764
  0
LINE
  5
419
100
AcDbEntity
  8
IMPORT_IGES
100
AcDbLine
 62
7
  6
CONTINUOUS
 10
255.2434311868
 20
110.6717724641
 11
255.2473643465
 21
110.7218802478
  0
LINE
  5
41A
100
AcDbEntity
  8
IMPORT_IGES
100
AcDbLine
 62
7
  6
CONTINUOUS
 10
255.23947222
 20
110.6242419986
 11
255.2434311868
 21
110.6717724641
  0
LINE
  5
41B
100
AcDbEntity
  8
IMPORT_IGES
100
AcDbLine
 62
7
  6
CONTINUOUS
 10
255.2354729057
 20
110.5790922709
 11
255.23947222
 21
110.6242419986
  0
LINE
  5
41C
100
AcDbEntity
  8
IMPORT_IGES
100
AcDbLine
 62
7
  6
CONTINUOUS
 10
255.2314181349
 20
110.5361540411
 11
255.2354729057
 21
110.5790922709
  0
LINE
  5
41D
100
AcDbEntity
  8
IMPORT_IGES
100
AcDbLine
 62
7
  6
CONTINUOUS
 10
255.2272850298
 20
110.4952137241
 11
255.2314181349
 21
110.5361540411
  0
LINE
  5
41E
100
AcDbEntity
  8
IMPORT_IGES
100
AcDbLine
 62
7
  6
CONTINUOUS
 10
255.2230399797
 20
110.4560072398
 11
255.2272850298
 21
110.4952137241
  0
LWPOLYLINE
  5
41F
100
AcDbEntity
  8
IMPORT_IGES
100
AcDbPolyline
 62
250
  6
CONTINUOUS
 90
29
 70
0
 10
242.39287297
 20
124.0288016548
 10
242.2937068488
 20
123.8808321213
 10
242.2013159915
 20
123.7286789187
 10
242.1156279798
 20
123.5722891788
 10
242.0370767437
 20
123.4123964877
 10
241.9656535633
 20
123.2488994985
 10
241.9013671586
 20
123.0818995582
 10
241.8446776198
 20
122.9124342942
 10
241.7956400544
 20
122.7404576146
 10
241.7541993549
 20
122.5660156113
 10
241.7206502891
 20
122.3902841874
 10
241.6950601958
 20
122.2132996204
 10
241.6773617362
 20
122.0350256329
 10
241.6676476617
 20
121.8565292953
 10
241.6659926457
 20
121.6776982113
 10
241.6723220147
 20
121.4986447773
 10
241.6865044999
 20
121.3207732535
 10
241.7085299906
 20
121.1444078995
 10
241.7384085974
 20
120.9692244557
 10
241.7760393834
 20
120.7956544042
 10
241.82147669
 20
120.6234698324
 10
241.8746661757
 20
120.452898653
 10
241.935343879
 20
120.2850560862
 10
242.0035625649
 20
120.1199689135
 10
242.0792694684
 20
119.9576103535
 10
242.1620423333
 20
119.7990152828
 10
242.2517404074
 20
119.6445286603
 10
242.3485044429
 20
119.493805527
 10
242.4523344398
 20
119.3468458831
  0
LINE
  5
420
100
AcDbEntity
  8
IMPORT_IGES
100
AcDbLine
 62
250
  6
CONTINUOUS
 10
242.452236359
 20
119.3469469476
 11
242.8539217433
 21
119.6447177595
  0
LINE
  5
421
100
AcDbEntity
  8
IMPORT_IGES
100
AcDbLine
 62
7
  6
CONTINUOUS
 10
331.136445844
 20
164.9510792212
 11
344.636445844
 21
170.7367935069
  0
LINE
  5
422
100
AcDbEntity
  8
IMPORT_IGES
100
AcDbLine
 62
7
  6
CONTINUOUS
 10
324.136445844
 20
161.1895019106
 11
329.636445844
 21
163.5466447678
  0
LINE
  5
423
100
AcDbEntity
  8
IMPORT_IGES
100
AcDbLine
 62
7
  6
CONTINUOUS
 10
346.136445844
 20
170.6180733392
 11
347.0215144675
 21
170.9973884636
  0
LINE
  5
424
100
AcDbEntity
  8
IMPORT_IGES
100
AcDbLine
 62
250
  6
CONTINUOUS
 10
45.4629745578
 20
193.3468458832
 11
255.4099171302
 21
193.3468458831
  0
LINE
  5
425
100
AcDbEntity
  8
IMPORT_IGES
100
AcDbLine
 62
7
  6
CONTINUOUS
 10
46.6951486163
 20
203.3457135044
 11
254.1777306686
 21
203.3454597008
  0
LWPOLYLINE
  5
426
100
AcDbEntity
  8
IMPORT_IGES
100
AcDbPolyline
 62
7
  6
CONTINUOUS
 90
12
 70
0
 10
254.1777306686
 20
203.3454597008
 10
254.2346830088
 20
203.3439177696
 10
254.29133341
 20
203.3391068253
 10
254.3476818722
 20
203.3310268678
 10
254.4039451131
 20
203.3196661864
 10
254.459906415
 20
203.3050364919
 10
254.5149156243
 20
203.2871729166
 10
254.5689632201
 20
203.2660163192
 10
254.6220587232
 20
203.2416258409
 10
254.673580543
 20
203.214214038
 10
254.7235225889
 20
203.1837465962
 10
254.7288738427
 20
203.1802427411
  0
LINE
  5
427
100
AcDbEntity
  8
IMPORT_IGES
100
AcDbLine
 62
7
  6
CONTINUOUS
 10
344.636445844
 20
142.2579834202
 11
331.136445844
 21
148.0436977059
  0
LINE
  5
428
100
AcDbEntity
  8
IMPORT_IGES
100
AcDbLine
 62
7
  6
CONTINUOUS
 10
347.0215144675
 20
141.9973884636
 11
346.136445844
 21
142.3767035879
  0
LINE
  5
429
100
AcDbEntity
  8
IMPORT_IGES
100
AcDbLine
 62
7
  6
CONTINUOUS
 10
329.636445844
 20
149.4481321593
 11
324.136445844
 21
151.8052750165
  0
LWPOLYLINE
  5
42A
100
AcDbEntity
  8
IMPORT_IGES
100
AcDbPolyline
 62
7
  6
CONTINUOUS
 90
36
 70
0
 10
255.2163380968
 20
202.2614992412
 10
255.213865778
 20
202.2816701239
 10
255.2113429296
 20
202.3014408031
 10
255.2087525004
 20
202.3209156497
 10
255.2060896515
 20
202.3400953152
 10
255.2033446054
 20
202.3590123256
 10
255.2004872209
 20
202.3778235293
 10
255.19750904
 20
202.3965226814
 10
255.1943928244
 20
202.4151524958
 10
255.1910844511
 20
202.4339487281
 10
255.1875626768
 20
202.4529226266
 10
255.1838009234
 20
202.472101492
 10
255.1797175482
 20
202.4917565536
 10
255.1752746678
 20
202.5118956136
 10
255.1704221377
 20
202.5325606743
 10
255.1650265413
 20
202.5540909274
 10
255.1590107981
 20
202.5765185742
 10
255.1522912139
 20
202.5998631518
 10
255.1446730505
 20
202.6244571905
 10
255.1360524056
 20
202.6502452432
 10
255.1262634989
 20
202.6773096363
 10
255.1149267327
 20
202.7061862339
 10
255.101742611
 20
202.7370256851
 10
255.0865522433
 20
202.7696029645
 10
255.0691113065
 20
202.8038567287
 10
255.0490451237
 20
202.8398921161
 10
255.0262116111
 20
202.8773191516
 10
255.000789898
 20
202.9153053105
 10
254.972725323
 20
202.9534919414
 10
254.9417579702
 20
202.9917809441
 10
254.9078804137
 20
203.0297191441
 10
254.8711760945
 20
203.0667923354
 10
254.8313962307
 20
203.1028955651
 10
254.7880685915
 20
203.1381076784
 10
254.7412545646
 20
203.171974713
 10
254.7288867438
 20
203.1802623098
  0
LINE
  5
42B
100
AcDbEntity
  8
IMPORT_IGES
100
AcDbLine
 62
7
  6
CONTINUOUS
 10
255.2211513168
 20
202.219876382
 11
255.2163380968
 21
202.2614992412
  0
LINE
  5
42C
100
AcDbEntity
  8
IMPORT_IGES
100
AcDbLine
 62
7
  6
CONTINUOUS
 10
269.836445844
 20
151.4973887588
 11
269.836445844
 21
161.4973881683
  0
LWPOLYLINE
  5
42D
100
AcDbEntity
  8
IMPORT_IGES
100
AcDbPolyline
 62
250
  6
CONTINUOUS
 90
72
 70
0
 10
248.8788948468
 20
119.3468460671
 10
248.9821789732
 20
119.4929151247
 10
249.0785372365
 20
119.642901926
 10
249.1679696367
 20
119.796806471
 10
249.2506458794
 20
119.9549829234
 10
249.326396259
 20
120.1170771195
 10
249.3947116589
 20
120.2820265682
 10
249.4555300987
 20
120.4498682219
 10
249.5089135587
 20
120.6205651283
 10
249.554538863
 20
120.7929439391
 10
249.5923395944
 20
120.96677914
 10
249.62238217
 20
121.1422962454
 10
249.6445426656
 20
121.3189984509
 10
249.6588211063
 20
121.4972035738
 10
249.6652174669
 20
121.6765937968
 10
249.663607748
 20
121.8557188628
 10
249.6539100918
 20
122.0344635188
 10
249.636206356
 20
122.2129430178
 10
249.610618115
 20
122.390052862
 10
249.5770727569
 20
122.5658235836
 10
249.5356428937
 20
122.7402246503
 10
249.4866679346
 20
122.9120599674
 10
249.4301063024
 20
123.0812508369
 10
249.3659995745
 20
123.2478759569
 10
249.2948118924
 20
123.4109753273
 10
249.2165851816
 20
123.5704254228
 10
249.1312775167
 20
123.7263497687
 10
249.0392272635
 20
123.8781589416
 10
248.9403443954
 20
124.0259618689
 10
248.834718939
 20
124.1696496231
 10
248.7229593393
 20
124.3083059981
 10
248.6050038666
 20
124.4419107181
 10
248.4809142506
 20
124.5704840589
 10
248.3514841252
 20
124.693170641
 10
248.216689646
 20
124.8099111834
 10
248.0765546574
 20
124.9207649671
 10
247.9319443269
 20
125.0250544562
 10
247.7828578104
 20
125.1227247088
 10
247.629295952
 20
125.2138306667
 10
247.4721264506
 20
125.297859619
 10
247.3113314866
 20
125.3747783106
 10
247.1469288795
 20
125.4446199966
 10
246.979839788
 20
125.5069717313
 10
246.8099951129
 20
125.5618022541
 10
246.6374639532
 20
125.6091428255
 10
246.4633747649
 20
125.6486742816
 10
246.2877480498
 20
125.6803332975
 10
246.110563306
 20
125.7041831979
 10
245.9328874838
 20
125.7200947932
 10
245.7547259201
 20
125.7280203874
 10
245.5760732779
 20
125.7280076765
 10
245.3979804967
 20
125.7200705583
 10
245.2204585233
 20
125.7041664156
 10
245.043496411
 20
125.6803378655
 10
244.8681122587
 20
125.6487266582
 10
244.6942843539
 20
125.6092772502
 10
244.5220344093
 20
125.5620451848
 10
244.3524456615
 20
125.5073388423
 10
244.1855713358
 20
125.445125269
 10
244.0213582069
 20
125.3754374186
 10
243.8607298356
 20
125.2986825319
 10
243.7036979055
 20
125.2148212736
 10
243.5502507331
 20
125.123892979
 10
243.4012768276
 20
125.0264228952
 10
243.2567940796
 20
124.9223689339
 10
243.1167845987
 20
124.8117731833
 10
242.9820832228
 20
124.6952871553
 10
242.8527203796
 20
124.5728741708
 10
242.7286656415
 20
124.444570909
 10
242.6106625639
 20
124.3111389182
 10
242.4987419367
 20
124.1725346509
 10
242.39287297
 20
124.0288016548
  0
LWPOLYLINE
  5
42E
100
AcDbEntity
  8
IMPORT_IGES
100
AcDbPolyline
 62
250
  6
CONTINUOUS
 90
88
 70
0
 10
248.8788948468
 20
119.346846139
 10
248.8282683316
 20
119.2765588039
 10
248.7753646354
 20
119.2064974106
 10
248.7201837583
 20
119.1366653493
 10
248.6623790266
 20
119.0666436266
 10
248.602297114
 20
118.9968580055
 10
248.5409780409
 20
118.92857808
 10
248.4785589402
 20
118.8620240423
 10
248.414902679
 20
118.7969792059
 10
248.3506378803
 20
118.7340558295
 10
248.2861862484
 20
118.6736704907
 10
248.2211260789
 20
118.6154062514
 10
248.154820881
 20
118.5586246658
 10
248.08708055
 20
118.503124885
 10
248.0180951907
 20
118.4491076112
 10
247.9477986265
 20
118.3965372211
 10
247.8760419065
 20
118.345312556
 10
247.8029739817
 20
118.2955334614
 10
247.7289755291
 20
118.2474651964
 10
247.6540654344
 20
118.2011387268
 10
247.5782248118
 20
118.1565198829
 10
247.5017776812
 20
118.1137753406
 10
247.4248210382
 20
118.0729648428
 10
247.3472578872
 20
118.0340242666
 10
247.2691212609
 20
117.996934145
 10
247.1903951866
 20
117.9616840159
 10
247.1110956369
 20
117.9282798616
 10
247.0313035623
 20
117.896726883
 10
246.9510020071
 20
117.8670173319
 10
246.870207927
 20
117.8391545609
 10
246.7890531395
 20
117.8131604461
 10
246.7075523471
 20
117.789039679
 10
246.6256908473
 20
117.7667835073
 10
246.5435563493
 20
117.7463937429
 10
246.4611896894
 20
117.7278745019
 10
246.3785500314
 20
117.7112182577
 10
246.295602576
 20
117.6964095537
 10
246.2123038484
 20
117.683439448
 10
246.1286973234
 20
117.6723143392
 10
246.0448786271
 20
117.6630420132
 10
245.9608236465
 20
117.6556193618
 10
245.8765564945
 20
117.6500479017
 10
245.7922451358
 20
117.646342601
 10
245.7079493942
 20
117.6445063913
 10
245.6236094458
 20
117.6445357986
 10
245.5392137839
 20
117.6464364491
 10
245.4546871189
 20
117.6502140013
 10
245.3701047402
 20
117.6558633543
 10
245.2856810094
 20
117.6633742653
 10
245.2014254422
 20
117.6727504509
 10
245.1173285228
 20
117.6839898142
 10
245.0335760655
 20
117.6970736343
 10
244.95022776
 20
117.7119965179
 10
244.8672239166
 20
117.7287664202
 10
244.7845712807
 20
117.7473848563
 10
244.7022463364
 20
117.7678565762
 10
244.6202725994
 20
117.7901802229
 10
244.5387273627
 20
117.8143483254
 10
244.4575957761
 20
117.8403691621
 10
244.3768926897
 20
117.8682384689
 10
244.2967399464
 20
117.8979300459
 10
244.2171644465
 20
117.9294349178
 10
244.1381392898
 20
117.9627663763
 10
244.0597056177
 20
117.9979316542
 10
243.9818903093
 20
118.0349158824
 10
243.9046664855
 20
118.0737383544
 10
243.8279946512
 20
118.1144576268
 10
243.7517642778
 20
118.1571415391
 10
243.6760858939
 20
118.2017267139
 10
243.6012515904
 20
118.2480746442
 10
243.5272233717
 20
118.2962310089
 10
243.4540392334
 20
118.3461535139
 10
243.3821052528
 20
118.3975708448
 10
243.3115520931
 20
118.4504012345
 10
243.2422490912
 20
118.5047279041
 10
243.174210335
 20
118.560526292
 10
243.1076044227
 20
118.6176248692
 10
243.0422627562
 20
118.6761952604
 10
242.9776936288
 20
118.7367278598
 10
242.9135528729
 20
118.7995660354
 10
242.8501846561
 20
118.8643663413
 10
242.7881297745
 20
118.9305884516
 10
242.7272769134
 20
118.9984111206
 10
242.6677373876
 20
119.0676520021
 10
242.6103859377
 20
119.1372273469
 10
242.5555141441
 20
119.2067734593
 10
242.5028304266
 20
119.2766474761
 10
242.452334785
 20
119.3468460562
  0
LINE
  5
42F
100
AcDbEntity
  8
IMPORT_IGES
100
AcDbLine
 62
7
  6
CONTINUOUS
 10
254.5669063858
 20
109.4297912983
 11
254.6251899818
 21
109.457138565
  0
LINE
  5
430
100
AcDbEntity
  8
IMPORT_IGES
100
AcDbLine
 62
7
  6
CONTINUOUS
 10
254.5976499616
 20
109.4441588314
 11
254.5697970404
 21
109.4320714487
  0
LWPOLYLINE
  5
431
100
AcDbEntity
  8
IMPORT_IGES
100
AcDbPolyline
 62
7
  6
CONTINUOUS
 90
13
 70
0
 10
254.5415973084
 20
109.4208614069
 10
254.5130723107
 20
109.4105304562
 10
254.4842005023
 20
109.4010768465
 10
254.454883339
 20
109.3924803173
 10
254.425030286
 20
109.3847134782
 10
254.3947318782
 20
109.3778037196
 10
254.3641611752
 20
109.3718129529
 10
254.3332877563
 20
109.3669385874
 10
254.3021420423
 20
109.3629832137
 10
254.270988355
 20
109.3594165149
 10
254.2399148018
 20
109.3560617188
 10
254.2088332755
 20
109.3530955976
 10
254.1777437759
 20
109.3505181513
  0
LWPOLYLINE
  5
432
100
AcDbEntity
  8
IMPORT_IGES
100
AcDbPolyline
 62
250
  6
CONTINUOUS
 90
18
 70
0
 10
254.1777738588
 20
109.3479710038
 10
254.1819925821
 20
109.3522528267
 10
254.1862050679
 20
109.3597315073
 10
254.1904113163
 20
109.3704045857
 10
254.1946122959
 20
109.3842685828
 10
254.1988070381
 20
109.4013189952
 10
254.202992636
 20
109.4215502912
 10
254.2071694559
 20
109.444955924
 10
254.2113371315
 20
109.4715283387
 10
254.2154916576
 20
109.5012589663
 10
254.2196330212
 20
109.5341382127
 10
254.2237612353
 20
109.5701555031
 10
254.2278723342
 20
109.6092993001
 10
254.2319663
 20
109.6515570323
 10
254.2360431506
 20
109.6969151223
 10
254.2400989741
 20
109.7453590517
 10
254.2441337519
 20
109.7968732777
 10
254.2521363708
 20
109.9090456113
  0
LWPOLYLINE
  5
433
100
AcDbEntity
  8
IMPORT_IGES
100
AcDbPolyline
 62
7
  6
CONTINUOUS
 90
16
 70
0
 10
254.8135557965
 20
109.58190378
 10
254.8569213879
 20
109.6205123636
 10
254.8981170226
 20
109.6617025328
 10
254.9367299051
 20
109.7050612688
 10
254.9727347114
 20
109.7506105203
 10
255.0061567656
 20
109.7983283386
 10
255.036659245
 20
109.8477358579
 10
255.0642129079
 20
109.8988491993
 10
255.0888469961
 20
109.9516522417
 10
255.1103124121
 20
110.0056177566
 10
255.1285803082
 20
110.0607579132
 10
255.1436795323
 20
110.1170605422
 10
255.1554475297
 20
110.1739619071
 10
255.1638301158
 20
110.2312740958
 10
255.1688814753
 20
110.2891850205
 10
255.1706016082
 20
110.347694681
  0
LINE
  5
434
100
AcDbEntity
  8
IMPORT_IGES
100
AcDbLine
 62
7
  6
CONTINUOUS
 10
347.0215144675
 20
170.9973884636
 11
355.0981353851
 21
176.9973884636
  0
LWPOLYLINE
  5
435
100
AcDbEntity
  8
IMPORT_IGES
100
AcDbPolyline
 62
7
  6
CONTINUOUS
 90
37
 70
0
 10
254.7264521715
 20
109.5142889402
 10
254.74084203
 20
109.523729939
 10
254.788179471
 20
109.5573815291
 10
254.8320344063
 20
109.5924609094
 10
254.8723406965
 20
109.6285184935
 10
254.9095528251
 20
109.6656219965
 10
254.9439129581
 20
109.7036679794
 10
254.9753285399
 20
109.7421234594
 10
255.0037861882
 20
109.7804941777
 10
255.0295380078
 20
109.8186480677
 10
255.0526544668
 20
109.8562306364
 10
255.0729713608
 20
109.8924249268
 10
255.0906373054
 20
109.9268463187
 10
255.1060201956
 20
109.9595777211
 10
255.1193587562
 20
109.9905354247
 10
255.130824184
 20
110.0195169518
 10
255.1407069058
 20
110.046644101
 10
255.1493591445
 20
110.0723506337
 10
255.1569374899
 20
110.0966518048
 10
255.1635736017
 20
110.1195454349
 10
255.1694899865
 20
110.1414393865
 10
255.1747732347
 20
110.1623558991
 10
255.1794991563
 20
110.1823141554
 10
255.1838160883
 20
110.2017107934
 10
255.1877776244
 20
110.2206073947
 10
255.1914164184
 20
110.2389904868
 10
255.1948147632
 20
110.2571338212
 10
255.1980032111
 20
110.2750892617
 10
255.2009987199
 20
110.2928471059
 10
255.2038448092
 20
110.310574746
 10
255.2065573113
 20
110.3282966199
 10
255.209147617
 20
110.3460168028
 10
255.211642501
 20
110.3638585617
 10
255.2140490044
 20
110.3818220726
 10
255.2163758275
 20
110.399924472
 10
255.2186462063
 20
110.4183096658
 10
255.2230399797
 20
110.4560072398
  0
LWPOLYLINE
  5
436
100
AcDbEntity
  8
IMPORT_IGES
100
AcDbPolyline
 62
7
  6
CONTINUOUS
 90
5
 70
0
 10
254.7264495017
 20
109.5142930845
 10
254.7059665451
 20
109.5014468814
 10
254.6794663313
 20
109.4858371963
 10
254.6524846071
 20
109.4710417052
 10
254.6251899818
 20
109.457138565
  0
LWPOLYLINE
  5
437
100
AcDbEntity
  8
IMPORT_IGES
100
AcDbPolyline
 62
7
  6
CONTINUOUS
 90
4
 70
0
 10
254.670852077
 20
109.4819805619
 10
254.7202711213
 20
109.5124820782
 10
254.7679984373
 20
109.5459021363
 10
254.8135557965
 20
109.58190378
  0
LINE
  5
438
100
AcDbEntity
  8
ASSI
100
AcDbLine
 62
7
  6
CONTINUOUS
 10
353.197149844
 20
155.0790716593
 11
352.591819844
 21
154.7393186593
  0
LINE
  5
439
100
AcDbEntity
  8
IMPORT_IGES
100
AcDbLine
 62
7
  6
CONTINUOUS
 10
254.6197250956
 20
109.4544266592
 11
254.670852077
 21
109.4819805619
  0
LINE
  5
43A
100
AcDbEntity
  8
ASSI
100
AcDbLine
 62
7
  6
CONTINUOUS
 10
352.5918198402
 20
158.1570266615
 11
353.1971507758
 21
157.8172731363
  0
LINE
  5
43B
100
AcDbEntity
  8
IMPORT_IGES
100
AcDbLine
 62
7
  6
CONTINUOUS
 10
355.0981353851
 20
135.9973884636
 11
347.0215144675
 21
141.9973884636
  0
LWPOLYLINE
  5
43C
100
AcDbEntity
  8
IMPORT_IGES
100
AcDbPolyline
 62
250
  6
CONTINUOUS
 90
17
 70
0
 10
254.1777306415
 20
203.345720815
 10
254.1818345178
 20
203.3415799208
 10
254.1859349626
 20
203.3343586929
 10
254.1900319758
 20
203.3240218102
 10
254.1941271513
 20
203.3105329894
 10
254.1982188952
 20
203.2938597421
 10
254.2023024258
 20
203.2739772013
 10
254.2063798258
 20
203.2508441479
 10
254.2104490126
 20
203.2244430578
 10
254.2144989565
 20
203.1948080041
 10
254.2185290031
 20
203.1619350817
 10
254.2225398068
 20
203.1258166296
 10
254.2265223006
 20
203.0865173292
 10
254.2304734525
 20
203.0440748562
 10
254.2343962945
 20
202.9984817549
 10
254.2382908557
 20
202.9497526466
 10
254.2421570351
 20
202.8979032438
  0
LINE
  5
43D
100
AcDbEntity
  8
IMPORT_IGES
100
AcDbLine
 62
7
  6
CONTINUOUS
 10
329.636445844
 20
163.5466447678
 11
331.136445844
 21
164.9510792212
  0
LINE
  5
43E
100
AcDbEntity
  8
ASSI
100
AcDbLine
 62
7
  6
CONTINUOUS
 10
349.916471844
 20
153.7752076593
 11
350.462492844
 21
153.3900496593
  0
LINE
  5
43F
100
AcDbEntity
  8
IMPORT_IGES
100
AcDbLine
 62
7
  6
CONTINUOUS
 10
331.136445844
 20
148.0436977059
 11
329.636445844
 21
149.4481321593
  0
LINE
  5
440
100
AcDbEntity
  8
IMPORT_IGES
100
AcDbLine
 62
7
  6
CONTINUOUS
 10
298.136445844
 20
148.9973884636
 11
298.136445844
 21
163.9973884636
  0
LINE
  5
441
100
AcDbEntity
  8
IMPORT_IGES
100
AcDbLine
 62
7
  6
CONTINUOUS
 10
301.136445844
 20
149.9073884636
 11
301.136445844
 21
154.7473884636
  0
LINE
  5
442
100
AcDbEntity
  8
IMPORT_IGES
100
AcDbLine
 62
7
  6
CONTINUOUS
 10
301.136445844
 20
158.2473884636
 11
301.136445844
 21
163.0873884636
  0
LINE
  5
443
100
AcDbEntity
  8
IMPORT_IGES
100
AcDbLine
 62
7
  6
CONTINUOUS
 10
303.336445844
 20
154.7473884636
 11
303.336445844
 21
149.9073884636
  0
LINE
  5
444
100
AcDbEntity
  8
IMPORT_IGES
100
AcDbLine
 62
7
  6
CONTINUOUS
 10
303.336445844
 20
158.2473884636
 11
303.336445844
 21
163.0873884636
  0
LINE
  5
445
100
AcDbEntity
  8
IMPORT_IGES
100
AcDbLine
 62
7
  6
CONTINUOUS
 10
305.836445844
 20
149.9073884636
 11
305.836445844
 21
154.7473884636
  0
LINE
  5
446
100
AcDbEntity
  8
IMPORT_IGES
100
AcDbLine
 62
7
  6
CONTINUOUS
 10
305.836445844
 20
158.2473884636
 11
305.836445844
 21
163.0873884636
  0
LINE
  5
447
100
AcDbEntity
  8
IMPORT_IGES
100
AcDbLine
 62
7
  6
CONTINUOUS
 10
308.036445844
 20
163.0873884636
 11
308.036445844
 21
158.2473884636
  0
LINE
  5
448
100
AcDbEntity
  8
IMPORT_IGES
100
AcDbLine
 62
7
  6
CONTINUOUS
 10
308.036445844
 20
154.7473884636
 11
308.036445844
 21
149.9073884636
  0
LINE
  5
449
100
AcDbEntity
  8
IMPORT_IGES
100
AcDbLine
 62
7
  6
CONTINUOUS
 10
310.536445844
 20
149.9073884636
 11
310.536445844
 21
154.7473884636
  0
LINE
  5
44A
100
AcDbEntity
  8
IMPORT_IGES
100
AcDbLine
 62
7
  6
CONTINUOUS
 10
310.536445844
 20
158.2473884636
 11
310.536445844
 21
163.0873884636
  0
LINE
  5
44B
100
AcDbEntity
  8
IMPORT_IGES
100
AcDbLine
 62
7
  6
CONTINUOUS
 10
312.736445844
 20
163.0873884636
 11
312.736445844
 21
158.2473884636
  0
LINE
  5
44C
100
AcDbEntity
  8
IMPORT_IGES
100
AcDbLine
 62
7
  6
CONTINUOUS
 10
312.736445844
 20
154.7473884636
 11
312.736445844
 21
149.9073884636
  0
LINE
  5
44D
100
AcDbEntity
  8
IMPORT_IGES
100
AcDbLine
 62
7
  6
CONTINUOUS
 10
315.236445844
 20
149.9073884636
 11
315.236445844
 21
154.7473884636
  0
LINE
  5
44E
100
AcDbEntity
  8
IMPORT_IGES
100
AcDbLine
 62
7
  6
CONTINUOUS
 10
315.236445844
 20
158.2473884636
 11
315.236445844
 21
163.0873884636
  0
LINE
  5
44F
100
AcDbEntity
  8
IMPORT_IGES
100
AcDbLine
 62
7
  6
CONTINUOUS
 10
317.436445844
 20
163.0873884636
 11
317.436445844
 21
158.2473884636
  0
LINE
  5
450
100
AcDbEntity
  8
IMPORT_IGES
100
AcDbLine
 62
7
  6
CONTINUOUS
 10
317.436445844
 20
154.7473884636
 11
317.436445844
 21
149.9073884636
  0
LINE
  5
451
100
AcDbEntity
  8
IMPORT_IGES
100
AcDbLine
 62
7
  6
CONTINUOUS
 10
319.936445844
 20
149.9073884636
 11
319.936445844
 21
154.7473884636
  0
LINE
  5
452
100
AcDbEntity
  8
IMPORT_IGES
100
AcDbLine
 62
7
  6
CONTINUOUS
 10
319.936445844
 20
158.2473884636
 11
319.936445844
 21
163.0873884636
  0
LINE
  5
453
100
AcDbEntity
  8
IMPORT_IGES
100
AcDbLine
 62
7
  6
CONTINUOUS
 10
322.136445844
 20
163.0873884636
 11
322.136445844
 21
158.2473884636
  0
LINE
  5
454
100
AcDbEntity
  8
IMPORT_IGES
100
AcDbLine
 62
7
  6
CONTINUOUS
 10
322.136445844
 20
154.7473884636
 11
322.136445844
 21
149.9073884636
  0
LINE
  5
455
100
AcDbEntity
  8
IMPORT_IGES
100
AcDbLine
 62
7
  6
CONTINUOUS
 10
324.136445844
 20
164.9973884636
 11
324.136445844
 21
147.9973884636
  0
LINE
  5
456
100
AcDbEntity
  8
IMPORT_IGES
100
AcDbLine
 62
7
  6
CONTINUOUS
 10
329.636445844
 20
149.4481321593
 11
329.636445844
 21
163.5466447678
  0
LINE
  5
457
100
AcDbEntity
  8
IMPORT_IGES
100
AcDbLine
 62
7
  6
CONTINUOUS
 10
331.136445844
 20
164.9510792212
 11
331.136445844
 21
148.0436977059
  0
LINE
  5
458
100
AcDbEntity
  8
ASSI
100
AcDbLine
 62
7
  6
CONTINUOUS
 10
357.117654844
 20
158.8210646593
 11
355.445186844
 21
156.8364256593
  0
LINE
  5
459
100
AcDbEntity
  8
ASSI
100
AcDbLine
 62
7
  6
CONTINUOUS
 10
356.359873844
 20
156.8364256593
 11
358.109537844
 21
158.9126696593
  0
LINE
  5
45A
100
AcDbEntity
  8
ASSI
100
AcDbLine
 62
7
  6
CONTINUOUS
 10
355.453440844
 20
156.0501246593
 11
357.1176555478
 21
154.0752798242
  0
LINE
  5
45B
100
AcDbEntity
  8
ASSI
100
AcDbLine
 62
7
  6
CONTINUOUS
 10
358.105061599
 20
153.97919195
 11
356.359873844
 21
156.0501246593
  0
LINE
  5
45C
100
AcDbEntity
  8
IMPORT_IGES
100
AcDbLine
 62
7
  6
CONTINUOUS
 10
344.636445844
 20
142.2579834202
 11
344.636445844
 21
170.7367935069
  0
LINE
  5
45D
100
AcDbEntity
  8
IMPORT_IGES
100
AcDbLine
 62
7
  6
CONTINUOUS
 10
346.136445844
 20
142.3767035879
 11
346.136445844
 21
170.6180733392
  0
LINE
  5
45E
100
AcDbEntity
  8
ASSI
100
AcDbLine
 62
7
  6
CONTINUOUS
 10
352.259895844
 20
157.4905346593
 11
352.259895844
 21
155.3962706593
  0
LINE
  5
45F
100
AcDbEntity
  8
ASSI
100
AcDbLine
 62
7
  6
CONTINUOUS
 10
352.997987844
 20
155.3962706593
 11
352.997987844
 21
156.0501246593
  0
LINE
  5
460
100
AcDbEntity
  8
ASSI
100
AcDbLine
 62
7
  6
CONTINUOUS
 10
352.997987844
 20
156.8364256593
 11
352.997987844
 21
157.4905346593
  0
LINE
  5
461
100
AcDbEntity
  8
ASSI
100
AcDbLine
 62
7
  6
CONTINUOUS
 10
358.241767844
 20
157.4664306593
 11
358.241767844
 21
156.8364256593
  0
LINE
  5
462
100
AcDbEntity
  8
ASSI
100
AcDbLine
 62
7
  6
CONTINUOUS
 10
358.241767844
 20
156.0501246593
 11
358.241767844
 21
155.4203746593
  0
LINE
  5
463
100
AcDbEntity
  8
ASSI
100
AcDbLine
 62
7
  6
CONTINUOUS
 10
358.983919844
 20
155.4203746593
 11
358.983919844
 21
157.4664306593
  0
LINE
  5
464
100
AcDbEntity
  8
IMPORT_IGES
100
AcDbLine
 62
7
  6
CONTINUOUS
 10
364.136445844
 20
135.9973884636
 11
364.136445844
 21
176.9973884636
  0
LINE
  5
465
100
AcDbEntity
  8
IMPORT_IGES
100
AcDbLine
 62
7
  6
CONTINUOUS
 10
364.336445844
 20
146.5780335852
 11
364.336445844
 21
148.9973884636
  0
LINE
  5
466
100
AcDbEntity
  8
IMPORT_IGES
100
AcDbLine
 62
7
  6
CONTINUOUS
 10
364.336445844
 20
149.5935679787
 11
364.336445844
 21
151.8804038876
  0
LINE
  5
467
100
AcDbEntity
  8
IMPORT_IGES
100
AcDbLine
 62
7
  6
CONTINUOUS
 10
364.336445844
 20
152.0628727787
 11
364.336445844
 21
153.693158757
  0
LINE
  5
468
100
AcDbEntity
  8
IMPORT_IGES
100
AcDbLine
 62
7
  6
CONTINUOUS
 10
364.336445844
 20
153.9779473656
 11
364.336445844
 21
155.6355191582
  0
LINE
  5
469
100
AcDbEntity
  8
IMPORT_IGES
100
AcDbLine
 62
7
  6
CONTINUOUS
 10
364.336445844
 20
155.9646464699
 11
364.336445844
 21
157.6171017998
  0
LINE
  5
46A
100
AcDbEntity
  8
IMPORT_IGES
100
AcDbLine
 62
7
  6
CONTINUOUS
 10
364.336445844
 20
159.6583707445
 11
364.336445844
 21
161.9980706089
  0
LINE
  5
46B
100
AcDbEntity
  8
IMPORT_IGES
100
AcDbLine
 62
7
  6
CONTINUOUS
 10
364.336445844
 20
162.1532548779
 11
364.336445844
 21
163.8040050679
  0
LINE
  5
46C
100
AcDbEntity
  8
IMPORT_IGES
100
AcDbLine
 62
7
  6
CONTINUOUS
 10
364.336445844
 20
164.5765153878
 11
364.336445844
 21
165.4973884487
  0
LINE
  5
46D
100
AcDbEntity
  8
IMPORT_IGES
100
AcDbLine
 62
7
  6
CONTINUOUS
 10
374.5435526252
 20
141.0973884677
 11
374.5435526252
 21
145.8973884594
  0
LINE
  5
46E
100
AcDbEntity
  8
IMPORT_IGES
100
AcDbLine
 62
7
  6
CONTINUOUS
 10
374.5435526252
 20
167.0973884677
 11
374.5435526252
 21
171.8973884594
  0
LINE
  5
46F
100
AcDbEntity
  8
IMPORT_IGES
100
AcDbLine
 62
250
  6
CONTINUOUS
 10
374.8435526251
 20
140.9973884637
 11
374.8435526251
 21
145.9973884635
  0
LINE
  5
470
100
AcDbEntity
  8
IMPORT_IGES
100
AcDbLine
 62
250
  6
CONTINUOUS
 10
374.8435526251
 20
166.9973884637
 11
374.8435526251
 21
171.9973884635
  0
LINE
  5
471
100
AcDbEntity
  8
IMPORT_IGES
100
AcDbLine
 62
250
  6
CONTINUOUS
 10
380.636445844
 20
140.9973884637
 11
380.636445844
 21
145.9973884635
  0
LINE
  5
472
100
AcDbEntity
  8
IMPORT_IGES
100
AcDbLine
 62
250
  6
CONTINUOUS
 10
380.636445844
 20
166.9973884637
 11
380.636445844
 21
171.9973884635
  0
LINE
  5
473
100
AcDbEntity
  8
IMPORT_IGES
100
AcDbLine
 62
250
  6
CONTINUOUS
 10
381.136445844
 20
153.9973884636
 11
381.136445844
 21
158.9973884635
  0
CIRCLE
  5
474
100
AcDbEntity
  8
IMPORT_IGES
100
AcDbCircle
 62
7
  6
CONTINUOUS
 10
55.207276872
 20
121.7290358891
 40
3.5
  0
CIRCLE
  5
475
100
AcDbEntity
  8
IMPORT_IGES
100
AcDbCircle
 62
7
  6
CONTINUOUS
 10
55.207276872
 20
121.7290358891
 40
3.45
  0
CIRCLE
  5
476
100
AcDbEntity
  8
IMPORT_IGES
100
AcDbCircle
 62
250
  6
CONTINUOUS
 10
55.207276872
 20
121.7290358891
 40
3.1499854475
  0
ARC
  5
477
100
AcDbEntity
  8
IMPORT_IGES
100
AcDbCircle
 62
7
  6
CONTINUOUS
 10
123.2643982161
 20
146.5314760646
 40
3.0600000422
100
AcDbArc
 50
84.2608296023
 51
275.7391703977
  0
ARC
  5
478
100
AcDbEntity
  8
IMPORT_IGES
100
AcDbCircle
 62
7
  6
CONTINUOUS
 10
123.2643982161
 20
146.5314760646
 40
2.1420002094
100
AcDbArc
 50
81.7867901066
 51
278.2132098934
  0
CIRCLE
  5
479
100
AcDbEntity
  8
IMPORT_IGES
100
AcDbCircle
 62
7
  6
CONTINUOUS
 10
159.436445844
 20
121.7293884636
 40
2.9
  0
CIRCLE
  5
47A
100
AcDbEntity
  8
IMPORT_IGES
100
AcDbCircle
 62
7
  6
CONTINUOUS
 10
159.436445844
 20
121.7293884636
 40
2.4999993374
  0
ARC
  5
47B
100
AcDbEntity
  8
IMPORT_IGES
100
AcDbCircle
 62
250
  6
CONTINUOUS
 10
159.436445844
 20
121.7293884636
 40
2.2222222222
100
AcDbArc
 50
284.1813512976
 51
75.8186487024
  0
ARC
  5
47C
100
AcDbEntity
  8
IMPORT_IGES
100
AcDbCircle
 62
250
  6
CONTINUOUS
 10
159.436445844
 20
121.7293884636
 40
2.222209717
100
AcDbArc
 50
104.1819873104
 51
255.8180126897
  0
ARC
  5
47D
100
AcDbEntity
  8
IMPORT_IGES
100
AcDbCircle
 62
7
  6
CONTINUOUS
 10
160.9656148159
 20
131.2248441584
 40
0.3
100
AcDbArc
 50
180.0000000005
 51
269.9999999996
  0
ARC
  5
47E
100
AcDbEntity
  8
IMPORT_IGES
100
AcDbCircle
 62
7
  6
CONTINUOUS
 10
201.3656148159
 20
131.2248441584
 40
0.3
100
AcDbArc
 50
270.0000000004
 51
359.9999999995
  0
ARC
  5
47F
100
AcDbEntity
  8
IMPORT_IGES
100
AcDbCircle
 62
7
  6
CONTINUOUS
 10
128.4663982161
 20
146.5314760646
 40
3.0600000422
100
AcDbArc
 50
84.2608296023
 51
275.739170325
  0
ARC
  5
480
100
AcDbEntity
  8
IMPORT_IGES
100
AcDbCircle
 62
7
  6
CONTINUOUS
 10
128.4663982161
 20
146.5314760646
 40
2.1420002094
100
AcDbArc
 50
81.7867901067
 51
167.6263759501
  0
ARC
  5
481
100
AcDbEntity
  8
IMPORT_IGES
100
AcDbCircle
 62
7
  6
CONTINUOUS
 10
128.4663982161
 20
146.5314760646
 40
2.1419996751
100
AcDbArc
 50
192.3736270231
 51
278.2132118486
  0
ARC
  5
482
100
AcDbEntity
  8
IMPORT_IGES
100
AcDbCircle
 62
7
  6
CONTINUOUS
 10
147.0532613751
 20
148.1978918426
 40
0.6256461971
100
AcDbArc
 50
179.9952981584
 51
186.7904741417
  0
ARC
  5
483
100
AcDbEntity
  8
IMPORT_IGES
100
AcDbCircle
 62
7
  6
CONTINUOUS
 10
147.0441505993
 20
148.197943419
 40
0.6164857967
100
AcDbArc
 50
207.8572889376
 51
353.8694806319
  0
ARC
  5
484
100
AcDbEntity
  8
IMPORT_IGES
100
AcDbCircle
 62
7
  6
CONTINUOUS
 10
147.044234049
 20
148.1979265179
 40
0.6162244003
100
AcDbArc
 50
96.7411156741
 51
179.9984513195
  0
CIRCLE
  5
485
100
AcDbEntity
  8
IMPORT_IGES
100
AcDbCircle
 62
250
  6
CONTINUOUS
 10
55.207276872
 20
178.6743326256
 40
3.9999752971
  0
CIRCLE
  5
486
100
AcDbEntity
  8
IMPORT_IGES
100
AcDbCircle
 62
7
  6
CONTINUOUS
 10
55.207276872
 20
178.6743326256
 40
3.5
  0
CIRCLE
  5
487
100
AcDbEntity
  8
IMPORT_IGES
100
AcDbCircle
 62
7
  6
CONTINUOUS
 10
55.207276872
 20
178.6743326256
 40
3.45
  0
CIRCLE
  5
488
100
AcDbEntity
  8
IMPORT_IGES
100
AcDbCircle
 62
250
  6
CONTINUOUS
 10
163.336445844
 20
170.9973884636
 40
3.3999784116
  0
CIRCLE
  5
489
100
AcDbEntity
  8
IMPORT_IGES
100
AcDbCircle
 62
250
  6
CONTINUOUS
 10
55.207276872
 20
178.6743326256
 40
3.1499854475
  0
CIRCLE
  5
48A
100
AcDbEntity
  8
IMPORT_IGES
100
AcDbCircle
 62
7
  6
CONTINUOUS
 10
163.336445844
 20
170.9973884636
 40
2.9
  0
CIRCLE
  5
48B
100
AcDbEntity
  8
IMPORT_IGES
100
AcDbCircle
 62
7
  6
CONTINUOUS
 10
163.336445844
 20
170.9973884636
 40
2.4999993374
  0
ARC
  5
48C
100
AcDbEntity
  8
IMPORT_IGES
100
AcDbCircle
 62
250
  6
CONTINUOUS
 10
163.336445844
 20
170.9973884636
 40
2.2222222222
100
AcDbArc
 50
284.1813512976
 51
75.8186487024
  0
ARC
  5
48D
100
AcDbEntity
  8
IMPORT_IGES
100
AcDbCircle
 62
250
  6
CONTINUOUS
 10
163.336445844
 20
170.9973884636
 40
2.222209717
100
AcDbArc
 50
104.1819873104
 51
255.8180126897
  0
ARC
  5
48E
100
AcDbEntity
  8
IMPORT_IGES
100
AcDbCircle
 62
7
  6
CONTINUOUS
 10
160.9656148159
 20
156.6248441584
 40
0.3
100
AcDbArc
 50
89.999999998
 51
180.0
  0
ARC
  5
48F
100
AcDbEntity
  8
IMPORT_IGES
100
AcDbCircle
 62
7
  6
CONTINUOUS
 10
201.3656148159
 20
156.6248441584
 40
0.3
100
AcDbArc
 50
0.0
 51
90.000000002
  0
ARC
  5
490
100
AcDbEntity
  8
IMPORT_IGES
100
AcDbCircle
 62
7
  6
CONTINUOUS
 10
147.6780427707
 20
153.1560852388
 40
0.2854448654
100
AcDbArc
 50
247.1864725133
 51
141.890905943
  0
CIRCLE
  5
491
100
AcDbEntity
  8
IMPORT_IGES
100
AcDbCircle
 62
7
  6
CONTINUOUS
 10
245.6656148159
 20
121.7290358891
 40
3.5
  0
CIRCLE
  5
492
100
AcDbEntity
  8
IMPORT_IGES
100
AcDbCircle
 62
7
  6
CONTINUOUS
 10
245.6656148159
 20
121.7290358891
 40
3.45
  0
CIRCLE
  5
493
100
AcDbEntity
  8
IMPORT_IGES
100
AcDbCircle
 62
250
  6
CONTINUOUS
 10
245.6656148159
 20
121.7290358891
 40
3.1499854475
  0
ARC
  5
494
100
AcDbEntity
  8
IMPORT_IGES
100
AcDbCircle
 62
7
  6
CONTINUOUS
 10
380.636445844
 20
143.4973884636
 40
2.5
100
AcDbArc
 50
270.00019031
 51
90.0
  0
ARC
  5
495
100
AcDbEntity
  8
IMPORT_IGES
100
AcDbCircle
 62
7
  6
CONTINUOUS
 10
374.8435526252
 20
145.4973884636
 40
0.4999999999
100
AcDbArc
 50
90.0006776679
 51
126.8698976446
  0
ARC
  5
496
100
AcDbEntity
  8
IMPORT_IGES
100
AcDbCircle
 62
7
  6
CONTINUOUS
 10
374.8435526251
 20
141.4973884635
 40
0.4999999999
100
AcDbArc
 50
233.1301023532
 51
270.0000000005
  0
CIRCLE
  5
497
100
AcDbEntity
  8
IMPORT_IGES
100
AcDbCircle
 62
7
  6
CONTINUOUS
 10
355.136445844
 20
156.4973884636
 40
6.0
  0
ARC
  5
498
100
AcDbEntity
  8
ASSI
100
AcDbCircle
 62
7
  6
CONTINUOUS
 10
355.636445844
 20
156.4481726593
 40
4.6477727604
100
AcDbArc
 50
202.0885400684
 51
183.4298331581
  0
ARC
  5
499
100
AcDbEntity
  8
ASSI
100
AcDbCircle
 62
7
  6
CONTINUOUS
 10
346.874795844
 20
156.5887486593
 40
4.143405103
100
AcDbArc
 50
317.2312690148
 51
354.2011526168
  0
ARC
  5
49A
100
AcDbEntity
  8
ASSI
100
AcDbCircle
 62
7
  6
CONTINUOUS
 10
347.545934844
 20
156.2626646593
 40
4.0936814123
100
AcDbArc
 50
315.4348980565
 51
337.5658614676
  0
CIRCLE
  5
49B
100
AcDbEntity
  8
IMPORT_IGES
100
AcDbCircle
 62
250
  6
CONTINUOUS
 10
245.6656148159
 20
178.6743326256
 40
3.9999752971
  0
CIRCLE
  5
49C
100
AcDbEntity
  8
ASSI
100
AcDbCircle
 62
7
  6
CONTINUOUS
 10
355.636445844
 20
156.4481726593
 40
3.903804
  0
CIRCLE
  5
49D
100
AcDbEntity
  8
IMPORT_IGES
100
AcDbCircle
 62
7
  6
CONTINUOUS
 10
245.6656148159
 20
178.6743326256
 40
3.5
  0
ARC
  5
49E
100
AcDbEntity
  8
ASSI
100
AcDbCircle
 62
7
  6
CONTINUOUS
 10
355.636445844
 20
156.4481726593
 40
3.4914079543
100
AcDbArc
 50
44.9002637264
 51
150.6958558882
  0
ARC
  5
49F
100
AcDbEntity
  8
ASSI
100
AcDbCircle
 62
7
  6
CONTINUOUS
 10
355.636445844
 20
156.4481726593
 40
3.49140795
100
AcDbArc
 50
209.3041441118
 51
314.9957650772
  0
CIRCLE
  5
4A0
100
AcDbEntity
  8
IMPORT_IGES
100
AcDbCircle
 62
7
  6
CONTINUOUS
 10
245.6656148159
 20
178.6743326256
 40
3.45
  0
CIRCLE
  5
4A1
100
AcDbEntity
  8
IMPORT_IGES
100
AcDbCircle
 62
250
  6
CONTINUOUS
 10
245.6656148159
 20
178.6743326256
 40
3.1499854475
  0
ARC
  5
4A2
100
AcDbEntity
  8
ASSI
100
AcDbCircle
 62
7
  6
CONTINUOUS
 10
355.636445844
 20
156.4481726593
 40
2.7972490994
100
AcDbArc
 50
209.3041427885
 51
301.9732789064
  0
ARC
  5
4A3
100
AcDbEntity
  8
ASSI
100
AcDbCircle
 62
7
  6
CONTINUOUS
 10
355.636445844
 20
156.4481726593
 40
2.7972480307
100
AcDbArc
 50
58.0267242642
 51
150.6958572115
  0
ARC
  5
4A4
100
AcDbEntity
  8
IMPORT_IGES
100
AcDbCircle
 62
7
  6
CONTINUOUS
 10
380.636445844
 20
169.4973884636
 40
2.5
100
AcDbArc
 50
270.00019031
 51
90.0
  0
ARC
  5
4A5
100
AcDbEntity
  8
IMPORT_IGES
100
AcDbCircle
 62
7
  6
CONTINUOUS
 10
381.136445844
 20
156.4973884636
 40
2.5
100
AcDbArc
 50
270.0
 51
90.0
  0
ARC
  5
4A6
100
AcDbEntity
  8
IMPORT_IGES
100
AcDbCircle
 62
7
  6
CONTINUOUS
 10
374.8435526252
 20
171.4973884636
 40
0.4999999999
100
AcDbArc
 50
90.0006776679
 51
126.8698976446
  0
ARC
  5
4A7
100
AcDbEntity
  8
IMPORT_IGES
100
AcDbCircle
 62
7
  6
CONTINUOUS
 10
374.8435526251
 20
167.4973884635
 40
0.4999999999
100
AcDbArc
 50
233.1301023532
 51
270.0000000005
  0
ENDSEC
  0
SECTION
  2
OBJECTS
  0
DICTIONARY
  5
C
100
AcDbDictionary
280
0
281
1
  3
ACAD_GROUP
350
D
  3
ACAD_MLINESTYLE
350
17
  3
ACAD_LAYOUT
350
1A
  3
ACAD_PLOTSETTINGS
350
19
  3
ACAD_PLOTSTYLENAME
350
E
  0
DICTIONARY
  5
D
102
{ACAD_REACTORS
330
C
102
}
100
AcDbDictionary
280
0
281
1
  0
ACDBDICTIONARYWDFLT
  5
E
102
{ACAD_REACTORS
330
C
102
}
100
AcDbDictionary
281
1
  3
Normal
350
F
100
AcDbDictionaryWithDefault
340
F
  0
DICTIONARY
  5
17
102
{ACAD_REACTORS
330
C
102
}
100
AcDbDictionary
280
0
281
1
  3
Standard
350
18
  0
DICTIONARY
  5
19
102
{ACAD_REACTORS
330
C
102
}
100
AcDbDictionary
281
1
  0
DICTIONARY
  5
1A
102
{ACAD_REACTORS
330
C
102
}
100
AcDbDictionary
281
1
  3
Model
350
4A8
  3
Layout1
350
4A9
  0
ACDBPLACEHOLDER
  5
F
102
{ACAD_REACTORS
330
E
102
}
  0
MLINESTYLE
  5
18
102
{ACAD_REACTORS
330
17
102
}
100
AcDbMlineStyle
  2
STANDARD
 70
0
  3

 62
256
 51
90.0
 52
90.0
 71
2
 49
0.5
 62
256
  6
BYLAYER
 49
-0.5
 62
256
  6
BYLAYER
  0
LAYOUT
  5
4A8
102
{ACAD_REACTORS
330
1A
102
}
100
AcDbPlotSettings
  1

  2
none_device
  4
ISO_A3_(420.00_x_297.00_MM)
  6

 40
0.0
 41
0.0
 42
0.0
 43
0.0
 44
420.0
 45
297.0
 46
0.0
 47
0.0
 48
0.0
 49
0.0
140
0.0
141
0.0
142
1.0
143
1.0
 70
1024
 72
1
 73
0
 74
0
  7

 75
0
147
1.0
148
0.0
149
0.0
100
AcDbLayout
  1
Model
 70
0
 71
0
 10
0.0
 20
0.0
 11
420.0
 21
297.0
 12
0.0
 22
0.0
 32
0.0
 14
0.0
 24
0.0
 34
0.0
 15
0.0
 25
0.0
 35
0.0
146
0.0
 13
0.0
 23
0.0
 33
0.0
 16
1.0
 26
0.0
 36
0.0
 17
0.0
 27
1.0
 37
0.0
 76
0
330
24A
345
0
346
0
  0
LAYOUT
  5
4A9
102
{ACAD_REACTORS
330
1A
102
}
100
AcDbPlotSettings
  1

  2
none_device
  4
ISO_A3_(420.00_x_297.00_MM)
  6

 40
0.0
 41
0.0
 42
0.0
 43
0.0
 44
420.0
 45
297.0
 46
0.0
 47
0.0
 48
0.0
 49
0.0
140
0.0
141
0.0
142
1.0
143
1.0
 70
0
 72
1
 73
0
 74
0
  7

 75
0
147
1.0
148
0.0
149
0.0
100
AcDbLayout
  1
Layout1
 70
0
 71
1
 10
0.0
 20
0.0
 11
420.0
 21
297.0
 12
0.0
 22
0.0
 32
0.0
 14
0.0
 24
0.0
 34
0.0
 15
0.0
 25
0.0
 35
0.0
146
0.0
 13
0.0
 23
0.0
 33
0.0
 16
1.0
 26
0.0
 36
0.0
 17
0.0
 27
1.0
 37
0.0
 76
0
330
24B
345
0
346
0
  0
ENDSEC
  0
EOF
