  0
SECTION
  2
HEADER
  9
$ACADVER
  1
AC1024
  9
$DWGCODEPAGE
  3
ANSI_1252
  9
$EXTMAX
 10
420.0
 20
297.0
 30
0.0
  9
$EXTMIN
 10
0.0
 20
-0.0
 30
0.0
  9
$LIMMIN
 10
0.0
 20
-0.0
  9
$LIMMAX
 10
420.0
 20
297.0
  9
$VIEWCTR
 10
210.0
 20
148.5
  9
$VIEWSIZE
 40
297.0
  9
$CLAYER
  8
0
  9
$LTSCALE
 40
23.1
  9
$CELTYPE
  6
BYLAYER
  9
$DIMSCALE
 40
1.0
  9
$DIMASZ
 40
3.0
  9
$DIMEXO
 40
0.5
  9
$DIMDLI
 40
15.96
  9
$DIMEXE
 40
1.5
  9
$DIMCEN
 40
3.78
  9
$DIMLFAC
 40
1.0
  9
$DIMBLK
  1
_FILLED
  9
$DIMALT
 70
0
  9
$DIMALTF
 40
0.0393700787
  9
$DIMTXT
 40
3.0
  9
$DIMTOL
 70
1
  9
$DIMLIM
 70
0
  9
$DIMTFAC
 40
1.0
  9
$DIMTP
 40
0.01
  9
$DIMTM
 40
0.01
  9
$DIMGAP
 40
0.625
  9
$DIMDSEP
 70
44
  9
$AUNITS
 70
0
  9
$PDMODE
 70
3
  9
$PDSIZE
 40
3.0
  9
$HANDSEED
  5
503
  9
$TILEMODE
 70
1
  9
$MEASUREMENT
 70
1
  9
$INSUNITS
 70
4
  0
ENDSEC
  0
SECTION
  2
CLASSES
  0
CLASS
  1
ACDBDICTIONARYWDFLT
  2
AcDbDictionaryWithDefault
  3
AutoCAD 2000
 90
0
 91
1
280
0
281
0
  0
CLASS
  1
ACDBPLACEHOLDER
  2
AcDbPlaceHolder
  3
AutoCAD 2000
 90
0
 91
1
280
0
281
0
  0
CLASS
  1
LAYOUT
  2
AcDbLayout
  3
AutoCAD 2000
 90
0
 91
0
280
0
281
0
  0
ENDSEC
  0
SECTION
  2
TABLES
  0
TABLE
  2
VPORT
  5
8
100
AcDbSymbolTable
 70
2
  0
VPORT
  5
1F4
100
AcDbSymbolTableRecord
100
AcDbViewportTableRecord
  2
*ACTIVE
 70
0
 10
0.0
 20
0.0
 11
1.0
 21
1.0
 12
210.0
 22
148.5
 13
0.0
 23
0.0
 14
1.0
 24
1.0
 15
0.0
 25
0.0
 16
0.0
 26
0.0
 36
1.0
 17
0.0
 27
0.0
 37
0.0
 40
297.0
 41
1.4141414141
 42
50.0
 43
0.0
 44
0.0
 50
0.0
 51
0.0
 71
0
 72
100
 73
1
 74
1
 75
0
 76
0
 77
0
 78
0
  0
ENDTAB
  0
TABLE
  2
LTYPE
  5
5
100
AcDbSymbolTable
 70
6
  0
LTYPE
  5
14
100
AcDbSymbolTableRecord
100
AcDbLinetypeTableRecord
  2
BYBLOCK
 70
0
  3

 72
65
 73
0
 40
0.0
  0
LTYPE
  5
15
100
AcDbSymbolTableRecord
100
AcDbLinetypeTableRecord
  2
BYLAYER
 70
0
  3

 72
65
 73
0
 40
0.0
  0
LTYPE
  5
16
100
AcDbSymbolTableRecord
100
AcDbLinetypeTableRecord
  2
CONTINUOUS
 70
64
  3
Solid line
 72
65
 73
0
 40
0.0
  0
LTYPE
  5
1F5
100
AcDbSymbolTableRecord
100
AcDbLinetypeTableRecord
  2
CENTER
 70
64
  3
____ _ ____ _ ____ _ ____ _ ____ _ ____ _ ____
 72
65
 73
4
 40
0.6
 49
0.375
 74
0
 49
-0.075
 74
0
 49
0.075
 74
0
 49
-0.075
 74
0
  0
LTYPE
  5
1F6
100
AcDbSymbolTableRecord
100
AcDbLinetypeTableRecord
  2
HIDDEN
 70
64
  3
- - - - - - - - - - - - - - - - - - - -
 72
65
 73
2
 40
0.2
 49
0.1
 74
0
 49
-0.1
 74
0
  0
LTYPE
  5
1F7
100
AcDbSymbolTableRecord
100
AcDbLinetypeTableRecord
  2
PHANTOM
 70
64
  3
_____ _ _ _____ _ _ _____ _ _ _____
 72
65
 73
6
 40
0.8
 49
0.45
 74
0
 49
-0.05
 74
0
 49
0.1
 74
0
 49
-0.05
 74
0
 49
0.1
 74
0
 49
-0.05
 74
0
  0
LTYPE
  5
1F8
100
AcDbSymbolTableRecord
100
AcDbLinetypeTableRecord
  2
DOT
 70
64
  3
. . . . . . . . . . . . . . . . . . . .
 72
65
 73
2
 40
0.2
 49
0.1
 74
0
 49
-0.1
 74
0
  0
LTYPE
  5
1F9
100
AcDbSymbolTableRecord
100
AcDbLinetypeTableRecord
  2
DASHED
 70
64
  3
- - - - - - - - - - - - - - - - - - - -
 72
65
 73
2
 40
0.2
 49
0.1
 74
0
 49
-0.1
 74
0
  0
ENDTAB
  0
TABLE
  2
LAYER
  5
2
100
AcDbSymbolTable
 70
36
  0
LAYER
  5
10
100
AcDbSymbolTableRecord
100
AcDbLayerTableRecord
  2
0
 70
0
 62
7
  6
CONTINUOUS
370
-3
390
F
  0
LAYER
  5
1FA
100
AcDbSymbolTableRecord
100
AcDbLayerTableRecord
  2
DEFAULT_1
 70
0
 62
7
  6
CENTER
370
-3
390
F
  0
LAYER
  5
1FB
100
AcDbSymbolTableRecord
100
AcDbLayerTableRecord
  2
DEFAULT_2
 70
0
 62
7
  6
HIDDEN
370
-3
390
F
  0
LAYER
  5
1FC
100
AcDbSymbolTableRecord
100
AcDbLayerTableRecord
  2
DEFAULT_3
 70
0
 62
7
  6
PHANTOM
370
-3
390
F
  0
LAYER
  5
1FD
100
AcDbSymbolTableRecord
100
AcDbLayerTableRecord
  2
1
 70
0
 62
7
  6
CONTINUOUS
370
-3
390
F
  0
LAYER
  5
1FE
100
AcDbSymbolTableRecord
100
AcDbLayerTableRecord
  2
10
 70
0
 62
7
  6
CONTINUOUS
370
-3
390
F
  0
LAYER
  5
1FF
100
AcDbSymbolTableRecord
100
AcDbLayerTableRecord
  2
11
 70
0
 62
7
  6
CONTINUOUS
370
-3
390
F
  0
LAYER
  5
200
100
AcDbSymbolTableRecord
100
AcDbLayerTableRecord
  2
12
 70
0
 62
7
  6
CONTINUOUS
370
-3
390
F
  0
LAYER
  5
201
100
AcDbSymbolTableRecord
100
AcDbLayerTableRecord
  2
13
 70
0
 62
7
  6
CONTINUOUS
370
-3
390
F
  0
LAYER
  5
202
100
AcDbSymbolTableRecord
100
AcDbLayerTableRecord
  2
14
 70
0
 62
7
  6
CONTINUOUS
370
-3
390
F
  0
LAYER
  5
203
100
AcDbSymbolTableRecord
100
AcDbLayerTableRecord
  2
14_1
 70
0
 62
7
  6
CONTINUOUS
370
-3
390
F
  0
LAYER
  5
204
100
AcDbSymbolTableRecord
100
AcDbLayerTableRecord
  2
14_2
 70
0
 62
7
  6
CONTINUOUS
370
-3
390
F
  0
LAYER
  5
205
100
AcDbSymbolTableRecord
100
AcDbLayerTableRecord
  2
14_3
 70
0
 62
7
  6
CONTINUOUS
370
-3
390
F
  0
LAYER
  5
206
100
AcDbSymbolTableRecord
100
AcDbLayerTableRecord
  2
14_4
 70
0
 62
7
  6
CONTINUOUS
370
-3
390
F
  0
LAYER
  5
207
100
AcDbSymbolTableRecord
100
AcDbLayerTableRecord
  2
14_5
 70
0
 62
7
  6
CONTINUOUS
370
-3
390
F
  0
LAYER
  5
208
100
AcDbSymbolTableRecord
100
AcDbLayerTableRecord
  2
14_6
 70
0
 62
7
  6
CONTINUOUS
370
-3
390
F
  0
LAYER
  5
209
100
AcDbSymbolTableRecord
100
AcDbLayerTableRecord
  2
15
 70
0
 62
7
  6
CONTINUOUS
370
-3
390
F
  0
LAYER
  5
20A
100
AcDbSymbolTableRecord
100
AcDbLayerTableRecord
  2
15_1
 70
0
 62
7
  6
CONTINUOUS
370
-3
390
F
  0
LAYER
  5
20B
100
AcDbSymbolTableRecord
100
AcDbLayerTableRecord
  2
15_2
 70
0
 62
7
  6
CONTINUOUS
370
-3
390
F
  0
LAYER
  5
20C
100
AcDbSymbolTableRecord
100
AcDbLayerTableRecord
  2
15_3
 70
0
 62
7
  6
CONTINUOUS
370
-3
390
F
  0
LAYER
  5
20D
100
AcDbSymbolTableRecord
100
AcDbLayerTableRecord
  2
15_4
 70
0
 62
7
  6
CONTINUOUS
370
-3
390
F
  0
LAYER
  5
20E
100
AcDbSymbolTableRecord
100
AcDbLayerTableRecord
  2
15_5
 70
0
 62
7
  6
CONTINUOUS
370
-3
390
F
  0
LAYER
  5
20F
100
AcDbSymbolTableRecord
100
AcDbLayerTableRecord
  2
2
 70
0
 62
7
  6
CONTINUOUS
370
-3
390
F
  0
LAYER
  5
210
100
AcDbSymbolTableRecord
100
AcDbLayerTableRecord
  2
3
 70
0
 62
7
  6
CONTINUOUS
370
-3
390
F
  0
LAYER
  5
211
100
AcDbSymbolTableRecord
100
AcDbLayerTableRecord
  2
4
 70
0
 62
7
  6
CONTINUOUS
370
-3
390
F
  0
LAYER
  5
212
100
AcDbSymbolTableRecord
100
AcDbLayerTableRecord
  2
5
 70
0
 62
7
  6
CONTINUOUS
370
-3
390
F
  0
LAYER
  5
213
100
AcDbSymbolTableRecord
100
AcDbLayerTableRecord
  2
6
 70
0
 62
7
  6
CONTINUOUS
370
-3
390
F
  0
LAYER
  5
214
100
AcDbSymbolTableRecord
100
AcDbLayerTableRecord
  2
7
 70
0
 62
7
  6
CONTINUOUS
370
-3
390
F
  0
LAYER
  5
215
100
AcDbSymbolTableRecord
100
AcDbLayerTableRecord
  2
8
 70
0
 62
7
  6
CONTINUOUS
370
-3
390
F
  0
LAYER
  5
216
100
AcDbSymbolTableRecord
100
AcDbLayerTableRecord
  2
9
 70
0
 62
7
  6
CONTINUOUS
370
-3
390
F
  0
LAYER
  5
217
100
AcDbSymbolTableRecord
100
AcDbLayerTableRecord
  2
ASSI
 70
0
 62
7
  6
CONTINUOUS
370
-3
390
F
  0
LAYER
  5
218
100
AcDbSymbolTableRecord
100
AcDbLayerTableRecord
  2
COLOR1
 70
0
 62
7
  6
CONTINUOUS
370
-3
390
F
  0
LAYER
  5
219
100
AcDbSymbolTableRecord
100
AcDbLayerTableRecord
  2
COLOR10
 70
0
 62
7
  6
CONTINUOUS
370
-3
390
F
  0
LAYER
  5
21A
100
AcDbSymbolTableRecord
100
AcDbLayerTableRecord
  2
COLOR13
 70
0
 62
7
  6
CONTINUOUS
370
-3
390
F
  0
LAYER
  5
21B
100
AcDbSymbolTableRecord
100
AcDbLayerTableRecord
  2
COLOR15
 70
0
 62
7
  6
CONTINUOUS
370
-3
390
F
  0
LAYER
  5
21C
100
AcDbSymbolTableRecord
100
AcDbLayerTableRecord
  2
COLOR16
 70
0
 62
7
  6
CONTINUOUS
370
-3
390
F
  0
LAYER
  5
21D
100
AcDbSymbolTableRecord
100
AcDbLayerTableRecord
  2
COORDINATE
 70
0
 62
7
  6
CONTINUOUS
370
-3
390
F
  0
LAYER
  5
21E
100
AcDbSymbolTableRecord
100
AcDbLayerTableRecord
  2
COPY_PUBLISH
 70
0
 62
7
  6
CONTINUOUS
370
-3
390
F
  0
LAYER
  5
21F
100
AcDbSymbolTableRecord
100
AcDbLayerTableRecord
  2
COSMETICI
 70
0
 62
7
  6
CONTINUOUS
370
-3
390
F
  0
LAYER
  5
220
100
AcDbSymbolTableRecord
100
AcDbLayerTableRecord
  2
CURVE
 70
0
 62
7
  6
CONTINUOUS
370
-3
390
F
  0
LAYER
  5
221
100
AcDbSymbolTableRecord
100
AcDbLayerTableRecord
  2
DRAFT
 70
0
 62
7
  6
CONTINUOUS
370
-3
390
F
  0
LAYER
  5
222
100
AcDbSymbolTableRecord
100
AcDbLayerTableRecord
  2
IMPORT_IGES
 70
0
 62
7
  6
CONTINUOUS
370
-3
390
F
  0
LAYER
  5
223
100
AcDbSymbolTableRecord
100
AcDbLayerTableRecord
  2
INTF_1
 70
0
 62
7
  6
CONTINUOUS
370
-3
390
F
  0
LAYER
  5
224
100
AcDbSymbolTableRecord
100
AcDbLayerTableRecord
  2
INTF_10
 70
0
 62
7
  6
CONTINUOUS
370
-3
390
F
  0
LAYER
  5
225
100
AcDbSymbolTableRecord
100
AcDbLayerTableRecord
  2
INTF_11
 70
0
 62
7
  6
CONTINUOUS
370
-3
390
F
  0
LAYER
  5
226
100
AcDbSymbolTableRecord
100
AcDbLayerTableRecord
  2
INTF_12
 70
0
 62
7
  6
CONTINUOUS
370
-3
390
F
  0
LAYER
  5
227
100
AcDbSymbolTableRecord
100
AcDbLayerTableRecord
  2
INTF_13
 70
0
 62
7
  6
CONTINUOUS
370
-3
390
F
  0
LAYER
  5
228
100
AcDbSymbolTableRecord
100
AcDbLayerTableRecord
  2
INTF_14
 70
0
 62
7
  6
CONTINUOUS
370
-3
390
F
  0
LAYER
  5
229
100
AcDbSymbolTableRecord
100
AcDbLayerTableRecord
  2
INTF_15
 70
0
 62
7
  6
CONTINUOUS
370
-3
390
F
  0
LAYER
  5
22A
100
AcDbSymbolTableRecord
100
AcDbLayerTableRecord
  2
INTF_2
 70
0
 62
7
  6
CONTINUOUS
370
-3
390
F
  0
LAYER
  5
22B
100
AcDbSymbolTableRecord
100
AcDbLayerTableRecord
  2
INTF_3
 70
0
 62
7
  6
CONTINUOUS
370
-3
390
F
  0
LAYER
  5
22C
100
AcDbSymbolTableRecord
100
AcDbLayerTableRecord
  2
INTF_4
 70
0
 62
7
  6
CONTINUOUS
370
-3
390
F
  0
LAYER
  5
22D
100
AcDbSymbolTableRecord
100
AcDbLayerTableRecord
  2
INTF_5
 70
0
 62
7
  6
CONTINUOUS
370
-3
390
F
  0
LAYER
  5
22E
100
AcDbSymbolTableRecord
100
AcDbLayerTableRecord
  2
INTF_6
 70
0
 62
7
  6
CONTINUOUS
370
-3
390
F
  0
LAYER
  5
22F
100
AcDbSymbolTableRecord
100
AcDbLayerTableRecord
  2
INTF_7
 70
0
 62
7
  6
CONTINUOUS
370
-3
390
F
  0
LAYER
  5
230
100
AcDbSymbolTableRecord
100
AcDbLayerTableRecord
  2
INTF_8
 70
0
 62
7
  6
CONTINUOUS
370
-3
390
F
  0
LAYER
  5
231
100
AcDbSymbolTableRecord
100
AcDbLayerTableRecord
  2
INTF_9
 70
0
 62
7
  6
CONTINUOUS
370
-3
390
F
  0
LAYER
  5
232
100
AcDbSymbolTableRecord
100
AcDbLayerTableRecord
  2
NOTE
 70
0
 62
7
  6
CONTINUOUS
370
-3
390
F
  0
LAYER
  5
233
100
AcDbSymbolTableRecord
100
AcDbLayerTableRecord
  2
PALE_STEEL
 70
0
 62
7
  6
CONTINUOUS
370
-3
390
F
  0
LAYER
  5
234
100
AcDbSymbolTableRecord
100
AcDbLayerTableRecord
  2
PIANI
 70
0
 62
7
  6
CONTINUOUS
370
-3
390
F
  0
LAYER
  5
235
100
AcDbSymbolTableRecord
100
AcDbLayerTableRecord
  2
PUNTI
 70
0
 62
7
  6
CONTINUOUS
370
-3
390
F
  0
LAYER
  5
236
100
AcDbSymbolTableRecord
100
AcDbLayerTableRecord
  2
RACCORDO
 70
0
 62
7
  6
CONTINUOUS
370
-3
390
F
  0
LAYER
  5
237
100
AcDbSymbolTableRecord
100
AcDbLayerTableRecord
  2
SIMBOLI
 70
0
 62
7
  6
CONTINUOUS
370
-3
390
F
  0
LAYER
  5
238
100
AcDbSymbolTableRecord
100
AcDbLayerTableRecord
  2
SMUSSO
 70
0
 62
7
  6
CONTINUOUS
370
-3
390
F
  0
LAYER
  5
239
100
AcDbSymbolTableRecord
100
AcDbLayerTableRecord
  2
SNAPLINE
 70
0
 62
7
  6
CONTINUOUS
370
-3
390
F
  0
LAYER
  5
23A
100
AcDbSymbolTableRecord
100
AcDbLayerTableRecord
  2
SUPERFICI
 70
0
 62
7
  6
CONTINUOUS
370
-3
390
F
  0
LAYER
  5
23B
100
AcDbSymbolTableRecord
100
AcDbLayerTableRecord
  2
TRASH
 70
0
 62
7
  6
CONTINUOUS
370
-3
390
F
  0
LAYER
  5
23C
100
AcDbSymbolTableRecord
100
AcDbLayerTableRecord
  2
VIMAR-IS-01_2KU3_1_1
 70
0
 62
7
  6
CONTINUOUS
370
-3
390
F
  0
LAYER
  5
23D
100
AcDbSymbolTableRecord
100
AcDbLayerTableRecord
  2
VIMAR-IS-01_2KU3_1_1_52
 70
0
 62
7
  6
CONTINUOUS
370
-3
390
F
  0
LAYER
  5
23E
100
AcDbSymbolTableRecord
100
AcDbLayerTableRecord
  2
VIMAR-IS-01_2KU3_1_1_53
 70
0
 62
7
  6
CONTINUOUS
370
-3
390
F
  0
LAYER
  5
23F
100
AcDbSymbolTableRecord
100
AcDbLayerTableRecord
  2
VIMAR-IS-01_2KU3_1_1_54
 70
0
 62
7
  6
CONTINUOUS
370
-3
390
F
  0
LAYER
  5
240
100
AcDbSymbolTableRecord
100
AcDbLayerTableRecord
  2
VIMAR-IS-01_2KU3_1_1_62
 70
0
 62
7
  6
CONTINUOUS
370
-3
390
F
  0
LAYER
  5
241
100
AcDbSymbolTableRecord
100
AcDbLayerTableRecord
  2
VIMAR-IS-01_2KU3_1_1_63
 70
0
 62
7
  6
CONTINUOUS
370
-3
390
F
  0
LAYER
  5
242
100
AcDbSymbolTableRecord
100
AcDbLayerTableRecord
  2
VIMAR-IS-01_2KU3_1_1_88
 70
0
 62
7
  6
CONTINUOUS
370
-3
390
F
  0
LAYER
  5
243
100
AcDbSymbolTableRecord
100
AcDbLayerTableRecord
  2
VIMAR-IS-01_2KU3_1_1_89
 70
0
 62
7
  6
CONTINUOUS
370
-3
390
F
  0
LAYER
  5
244
100
AcDbSymbolTableRecord
100
AcDbLayerTableRecord
  2
VIMAR-IS-01_2KU3_1_1_9
 70
0
 62
7
  6
CONTINUOUS
370
-3
390
F
  0
LAYER
  5
245
100
AcDbSymbolTableRecord
100
AcDbLayerTableRecord
  2
VIMAR-IS-01_2KU3_1_1_90
 70
0
 62
7
  6
CONTINUOUS
370
-3
390
F
  0
LAYER
  5
246
100
AcDbSymbolTableRecord
100
AcDbLayerTableRecord
  2
VIMAR-IS-01_2KU3_1_1_91
 70
0
 62
7
  6
CONTINUOUS
370
-3
390
F
  0
LAYER
  5
247
100
AcDbSymbolTableRecord
100
AcDbLayerTableRecord
  2
VIMAR-IS-01_2KU3_1_1_92
 70
0
 62
7
  6
CONTINUOUS
370
-3
390
F
  0
LAYER
  5
248
100
AcDbSymbolTableRecord
100
AcDbLayerTableRecord
  2
___SHELL
 70
0
 62
7
  6
CONTINUOUS
370
-3
390
F
  0
ENDTAB
  0
TABLE
  2
STYLE
  5
3
100
AcDbSymbolTable
 70
1
  0
STYLE
  5
11
100
AcDbSymbolTableRecord
100
AcDbTextStyleTableRecord
  2
STANDARD
 70
0
 40
0.0
 41
0.8
 50
0.0
 71
0
 42
0.2
  3
txt
  4

  0
STYLE
  5
249
100
AcDbSymbolTableRecord
100
AcDbTextStyleTableRecord
  2
TEXTSTYLE_1
 70
0
 40
0.0
 41
0.8
 50
0.0
 71
0
 42
0.2
  3
gdt
  4

  0
ENDTAB
  0
TABLE
  2
VIEW
  5
6
100
AcDbSymbolTable
 70
0
  0
ENDTAB
  0
TABLE
  2
UCS
  5
7
100
AcDbSymbolTable
 70
0
  0
ENDTAB
  0
TABLE
  2
APPID
  5
9
100
AcDbSymbolTable
 70
1
  0
APPID
  5
24A
100
AcDbSymbolTableRecord
100
AcDbRegAppTableRecord
  2
ACAD
 70
0
  0
ENDTAB
  0
TABLE
  2
BLOCK_RECORD
  5
1
100
AcDbSymbolTable
 70
0
  0
BLOCK_RECORD
  5
24B
100
AcDbSymbolTableRecord
100
AcDbBlockTableRecord
  2
*Model_Space
  0
BLOCK_RECORD
  5
24C
100
AcDbSymbolTableRecord
100
AcDbBlockTableRecord
  2
*Paper_Space
  0
BLOCK_RECORD
  5
24D
100
AcDbSymbolTableRecord
100
AcDbBlockTableRecord
  2
_FILLED
  0
ENDTAB
  0
TABLE
  2
DIMSTYLE
  5
A
100
AcDbSymbolTable
 70
1
100
AcDbDimStyleTable
 71
0
  0
DIMSTYLE
105
24E
100
AcDbSymbolTableRecord
100
AcDbDimStyleTableRecord
  2
STANDARD
 70
0
  3

  4

 40
1.0
 41
3.0
 42
0.5
 43
0.38
 44
1.5
 45
0.0
 46
0.0
 47
0.01
 48
0.01
140
3.0
141
0.09
142
0.0
143
25.4
144
1.0
145
0.0
146
1.0
147
0.625
 71
1
 72
0
 73
0
 74
0
 75
0
 76
0
 77
1
 78
8
 79
2
170
0
171
1
172
0
173
0
174
0
175
0
176
0
177
0
178
0
270
2
179
2
271
2
272
2
273
2
274
2
275
0
280
0
281
0
282
0
283
1
284
8
285
0
286
0
287
3
288
0
340
11
278
44
341
24D
342
24D
343
24D
344
24D
  0
ENDTAB
  0
ENDSEC
  0
SECTION
  2
BLOCKS
  0
BLOCK
  5
20
100
AcDbEntity
  8
0
100
AcDbBlockBegin
  2
*Model_Space
 70
0
 10
0.0
 20
0.0
 30
0.0
  3
*Model_Space
  1

  0
ENDBLK
  5
21
100
AcDbEntity
  8
0
100
AcDbBlockEnd
  0
BLOCK
  5
1C
100
AcDbEntity
  8
0
100
AcDbBlockBegin
  2
*Paper_Space
 70
0
 10
0.0
 20
0.0
 30
0.0
  3
*Paper_Space
  1

  0
ENDBLK
  5
1D
100
AcDbEntity
  8
0
100
AcDbBlockEnd
  0
BLOCK
  5
24F
100
AcDbEntity
  8
0
100
AcDbBlockBegin
  2
_FILLED
 70
64
 10
0.0
 20
0.0
  3
_FILLED
  1

  0
SOLID
  5
250
100
AcDbEntity
  8
0
  6
BYBLOCK
 62
0
100
AcDbTrace
 10
0.0
 20
0.0
 11
-1.0
 21
0.3166666667
 12
-1.0
 22
-0.3166666667
 13
-1.0
 23
-0.3166666667
  0
ENDBLK
  5
251
100
AcDbEntity
  8
0
  6
BYBLOCK
 62
0
100
AcDbBlockEnd
  0
ENDSEC
  0
SECTION
  2
ENTITIES
  0
LWPOLYLINE
  5
252
100
AcDbEntity
  8
IMPORT_IGES
100
AcDbPolyline
 62
7
  6
CONTINUOUS
 90
31
 70
0
 10
44.5247283166
 20
91.0062523656
 10
44.5266705684
 20
90.9869725777
 10
44.5286631567
 20
90.9681193433
 10
44.5307258103
 20
90.9495475785
 10
44.5328669605
 20
90.9312354963
 10
44.5350958506
 20
90.913161789
 10
44.5374409692
 20
90.8951680916
 10
44.5399145567
 20
90.8772474124
 10
44.5425370346
 20
90.8593446315
 10
44.5453630831
 20
90.8412079546
 10
44.548416039
 20
90.8228345103
 10
44.5517344607
 20
90.8041488305
 10
44.5554225521
 20
90.7847701589
 10
44.5595289979
 20
90.7646942052
 10
44.5641250277
 20
90.7438402443
 10
44.5693987625
 20
90.7216985489
 10
44.5754657078
 20
90.6982090828
 10
44.582444759
 20
90.6733628186
 10
44.5906073245
 20
90.6467230472
 10
44.6001673826
 20
90.6182156848
 10
44.6113241582
 20
90.5879063203
 10
44.6244190965
 20
90.5555823167
 10
44.6398544859
 20
90.5210160574
 10
44.6577919616
 20
90.4845917956
 10
44.678171498
 20
90.4470513683
 10
44.7011686871
 20
90.4086008225
 10
44.7270065643
 20
90.3694026705
 10
44.7555458533
 20
90.3301503403
 10
44.7868095292
 20
90.2912196645
 10
44.821000333
 20
90.2527776325
 10
44.8428074346
 20
90.2302409659
  0
LINE
  5
253
100
AcDbEntity
  8
IMPORT_IGES
100
AcDbLine
 62
7
  6
CONTINUOUS
 10
44.5209729175
 20
91.0461966291
 11
44.5247283166
 21
91.0062523656
  0
LINE
  5
254
100
AcDbEntity
  8
IMPORT_IGES
100
AcDbLine
 62
7
  6
CONTINUOUS
 10
44.5173450665
 20
91.0883240206
 11
44.5209729175
 21
91.0461966291
  0
LINE
  5
255
100
AcDbEntity
  8
IMPORT_IGES
100
AcDbLine
 62
7
  6
CONTINUOUS
 10
44.5138125119
 20
91.1329023609
 11
44.5173450665
 21
91.0883240206
  0
LINE
  5
256
100
AcDbEntity
  8
IMPORT_IGES
100
AcDbLine
 62
7
  6
CONTINUOUS
 10
44.5103493184
 20
91.1802074358
 11
44.5138125119
 21
91.1329023609
  0
LWPOLYLINE
  5
257
100
AcDbEntity
  8
IMPORT_IGES
100
AcDbPolyline
 62
250
  6
CONTINUOUS
 90
28
 70
0
 10
44.3610735539
 20
103.7193845954
 10
44.3616343676
 20
103.7109802381
 10
44.3653247471
 20
103.6953493405
 10
44.372434439
 20
103.6798467294
 10
44.3829635272
 20
103.6644776871
 10
44.3968455328
 20
103.6493429471
 10
44.4138438191
 20
103.6346310648
 10
44.4336011934
 20
103.6205109304
 10
44.4560929031
 20
103.6068835825
 10
44.4816384154
 20
103.5935426949
 10
44.5104280993
 20
103.5804494749
 10
44.5422550622
 20
103.5677530824
 10
44.5769560613
 20
103.5555444931
 10
44.6143562458
 20
103.5438968104
 10
44.6544336414
 20
103.5328276759
 10
44.6972372725
 20
103.5223454146
 10
44.7428093448
 20
103.5124730168
 10
44.7909129441
 20
103.5032936889
 10
44.8411499637
 20
103.4948993229
 10
44.8931399193
 20
103.4873529081
 10
44.9469023965
 20
103.4806510348
 10
45.0026241312
 20
103.4747869104
 10
45.0605249952
 20
103.4697747111
 10
45.1200477235
 20
103.4656995157
 10
45.1801810865
 20
103.4626354316
 10
45.2404130099
 20
103.4605857471
 10
45.3007772738
 20
103.4595269133
 10
45.3610468889
 20
103.4594475066
  0
LINE
  5
258
100
AcDbEntity
  8
IMPORT_IGES
100
AcDbLine
 62
7
  6
CONTINUOUS
 10
44.5069407684
 20
91.2304324049
 11
44.5103493184
 21
91.1802074358
  0
LWPOLYLINE
  5
259
100
AcDbEntity
  8
IMPORT_IGES
100
AcDbPolyline
 62
250
  6
CONTINUOUS
 90
28
 70
0
 10
44.427356422
 20
94.5920243067
 10
44.4278850518
 20
94.5838426728
 10
44.4314416734
 20
94.5684334066
 10
44.4383420339
 20
94.5531101661
 10
44.4486097618
 20
94.537879771
 10
44.4622057498
 20
94.5228403244
 10
44.4789302849
 20
94.5081740994
 10
44.4984579976
 20
94.4940523363
 10
44.520790746
 20
94.4803786817
 10
44.5462853498
 20
94.4669430655
 10
44.5751890568
 20
94.4536997709
 10
44.6073028699
 20
94.4408169635
 10
44.6424108181
 20
94.42841923
 10
44.6803438677
 20
94.4165837556
 10
44.7210845233
 20
94.4053322999
 10
44.7645896629
 20
94.3946995933
 10
44.8108943447
 20
94.3847075175
 10
44.8597433955
 20
94.3754402199
 10
44.910597728
 20
94.3670082992
 10
44.9630040405
 20
94.3594730788
 10
45.017003843
 20
94.3528152916
 10
45.0727745181
 20
94.3470188698
 10
45.1305164307
 20
94.3420897994
 10
45.1896678872
 20
94.3381024211
 10
45.2492395719
 20
94.33511906
 10
45.3087292357
 20
94.3331342254
 10
45.3681658495
 20
94.3321169256
 10
45.4273300547
 20
94.3320477379
  0
LINE
  5
25A
100
AcDbEntity
  8
IMPORT_IGES
100
AcDbLine
 62
7
  6
CONTINUOUS
 10
44.5035778471
 20
91.2837292702
 11
44.5069407684
 21
91.2304324049
  0
LINE
  5
25B
100
AcDbEntity
  8
IMPORT_IGES
100
AcDbLine
 62
7
  6
CONTINUOUS
 10
44.4986066388
 20
91.3697194418
 11
44.5035778471
 21
91.2837292702
  0
LINE
  5
25C
100
AcDbEntity
  8
IMPORT_IGES
100
AcDbLine
 62
7
  6
CONTINUOUS
 10
44.4937159793
 20
91.463258817
 11
44.4986066388
 21
91.3697194418
  0
LINE
  5
25D
100
AcDbEntity
  8
IMPORT_IGES
100
AcDbLine
 62
7
  6
CONTINUOUS
 10
44.4888978426
 20
91.5647520036
 11
44.4937159793
 21
91.463258817
  0
LINE
  5
25E
100
AcDbEntity
  8
IMPORT_IGES
100
AcDbLine
 62
250
  6
CONTINUOUS
 10
45.5027513225
 20
90.4383692108
 11
45.4938225155
 21
90.6402137027
  0
LINE
  5
25F
100
AcDbEntity
  8
IMPORT_IGES
100
AcDbLine
 62
7
  6
CONTINUOUS
 10
44.4825839531
 20
91.7130650402
 11
44.4888978426
 21
91.5647520036
  0
LINE
  5
260
100
AcDbEntity
  8
IMPORT_IGES
100
AcDbLine
 62
7
  6
CONTINUOUS
 10
44.4764072737
 20
91.8768534151
 11
44.4825839531
 21
91.7130650402
  0
LINE
  5
261
100
AcDbEntity
  8
IMPORT_IGES
100
AcDbLine
 62
250
  6
CONTINUOUS
 10
45.4938225155
 20
90.6402137027
 11
45.4852002436
 21
90.8735953137
  0
LINE
  5
262
100
AcDbEntity
  8
IMPORT_IGES
100
AcDbLine
 62
7
  6
CONTINUOUS
 10
44.4689143512
 20
92.1042424148
 11
44.4764072737
 21
91.8768534151
  0
LINE
  5
263
100
AcDbEntity
  8
IMPORT_IGES
100
AcDbLine
 62
250
  6
CONTINUOUS
 10
45.4852002436
 20
90.8735953137
 11
45.4769411721
 21
91.1371252975
  0
LINE
  5
264
100
AcDbEntity
  8
IMPORT_IGES
100
AcDbLine
 62
7
  6
CONTINUOUS
 10
44.4603299088
 20
92.4109721997
 11
44.4689143512
 21
92.1042424148
  0
LINE
  5
265
100
AcDbEntity
  8
IMPORT_IGES
100
AcDbLine
 62
250
  6
CONTINUOUS
 10
45.4769411721
 20
91.1371252975
 11
45.4653226296
 21
91.585472727
  0
LINE
  5
266
100
AcDbEntity
  8
IMPORT_IGES
100
AcDbLine
 62
7
  6
CONTINUOUS
 10
44.4510117252
 20
92.815713324
 11
44.4603299088
 21
92.4109721997
  0
LINE
  5
267
100
AcDbEntity
  8
IMPORT_IGES
100
AcDbLine
 62
250
  6
CONTINUOUS
 10
45.4653226296
 20
91.585472727
 11
45.4547726472
 21
92.0920998751
  0
LINE
  5
268
100
AcDbEntity
  8
IMPORT_IGES
100
AcDbLine
 62
7
  6
CONTINUOUS
 10
44.4415160098
 20
93.3396307611
 11
44.4510117252
 21
92.815713324
  0
LINE
  5
269
100
AcDbEntity
  8
IMPORT_IGES
100
AcDbLine
 62
250
  6
CONTINUOUS
 10
45.4547726472
 20
92.0920998751
 11
45.4426068207
 21
92.846474467
  0
LINE
  5
26A
100
AcDbEntity
  8
IMPORT_IGES
100
AcDbLine
 62
7
  6
CONTINUOUS
 10
44.4326952167
 20
94.0040341483
 11
44.4415160098
 21
93.3396307611
  0
LINE
  5
26B
100
AcDbEntity
  8
IMPORT_IGES
100
AcDbLine
 62
250
  6
CONTINUOUS
 10
45.4426068207
 20
92.846474467
 11
45.4328825649
 21
93.6744798066
  0
LINE
  5
26C
100
AcDbEntity
  8
IMPORT_IGES
100
AcDbLine
 62
250
  6
CONTINUOUS
 10
45.4328825649
 20
93.6744798066
 11
45.3610511059
 21
103.459447535
  0
LINE
  5
26D
100
AcDbEntity
  8
IMPORT_IGES
100
AcDbLine
 62
250
  6
CONTINUOUS
 10
45.3610511059
 20
103.459447535
 11
45.351009106
 21
105.2167511412
  0
LINE
  5
26E
100
AcDbEntity
  8
IMPORT_IGES
100
AcDbLine
 62
7
  6
CONTINUOUS
 10
44.3474949581
 20
106.2353079162
 11
44.4326952167
 21
94.0040341483
  0
LINE
  5
26F
100
AcDbEntity
  8
IMPORT_IGES
100
AcDbLine
 62
250
  6
CONTINUOUS
 10
45.351009106
 20
105.2167511412
 11
45.3449608627
 21
107.0031479563
  0
LINE
  5
270
100
AcDbEntity
  8
IMPORT_IGES
100
AcDbLine
 62
250
  6
CONTINUOUS
 10
45.3449608627
 20
107.0031479563
 11
45.3429560761
 21
108.8042150281
  0
LINE
  5
271
100
AcDbEntity
  8
IMPORT_IGES
100
AcDbLine
 62
7
  6
CONTINUOUS
 10
44.342951857
 20
108.8042150281
 11
44.3474949581
 21
106.2353079162
  0
LINE
  5
272
100
AcDbEntity
  8
IMPORT_IGES
100
AcDbLine
 62
250
  6
CONTINUOUS
 10
47.6054966577
 20
89.8300789282
 11
47.6054966577
 21
89.8304216032
  0
LINE
  5
273
100
AcDbEntity
  8
IMPORT_IGES
100
AcDbLine
 62
250
  6
CONTINUOUS
 10
45.3429560761
 20
108.8042150281
 11
45.3441818755
 21
190.5551741915
  0
LINE
  5
274
100
AcDbEntity
  8
IMPORT_IGES
100
AcDbLine
 62
7
  6
CONTINUOUS
 10
44.3459800974
 20
191.1231818159
 11
44.342951857
 21
108.8042150281
  0
LINE
  5
275
100
AcDbEntity
  8
IMPORT_IGES
100
AcDbLine
 62
250
  6
CONTINUOUS
 10
45.3441818755
 20
190.5551741915
 11
45.3485365363
 21
191.5818286135
  0
LINE
  5
276
100
AcDbEntity
  8
IMPORT_IGES
100
AcDbLine
 62
7
  6
CONTINUOUS
 10
44.3555156234
 20
192.5834157653
 11
44.3459800974
 21
191.1231818159
  0
LINE
  5
277
100
AcDbEntity
  8
IMPORT_IGES
100
AcDbLine
 62
250
  6
CONTINUOUS
 10
45.3485365363
 20
191.5818286135
 11
45.3572710255
 21
192.762809015
  0
LINE
  5
278
100
AcDbEntity
  8
IMPORT_IGES
100
AcDbLine
 62
250
  6
CONTINUOUS
 10
45.3572710255
 20
192.762809015
 11
45.3690794476
 21
193.8986361483
  0
LINE
  5
279
100
AcDbEntity
  8
IMPORT_IGES
100
AcDbLine
 62
7
  6
CONTINUOUS
 10
44.3696251758
 20
193.8552963759
 11
44.3555156234
 21
192.5834157653
  0
LINE
  5
27A
100
AcDbEntity
  8
IMPORT_IGES
100
AcDbLine
 62
250
  6
CONTINUOUS
 10
45.3690794476
 20
193.8986361483
 11
45.383883596
 21
194.9722600488
  0
LINE
  5
27B
100
AcDbEntity
  8
IMPORT_IGES
100
AcDbLine
 62
7
  6
CONTINUOUS
 10
44.3852725796
 20
194.8557745894
 11
44.3696251758
 21
193.8552963759
  0
LINE
  5
27C
100
AcDbEntity
  8
IMPORT_IGES
100
AcDbLine
 62
250
  6
CONTINUOUS
 10
45.383883596
 20
194.9722600488
 11
45.4011931562
 21
195.9652095026
  0
LINE
  5
27D
100
AcDbEntity
  8
IMPORT_IGES
100
AcDbLine
 62
7
  6
CONTINUOUS
 10
44.4010384908
 20
195.6363886216
 11
44.3852725796
 21
194.8557745894
  0
LINE
  5
27E
100
AcDbEntity
  8
IMPORT_IGES
100
AcDbLine
 62
250
  6
CONTINUOUS
 10
45.4011931562
 20
195.9652095026
 11
45.419949544
 21
196.8463043222
  0
LINE
  5
27F
100
AcDbEntity
  8
IMPORT_IGES
100
AcDbLine
 62
7
  6
CONTINUOUS
 10
44.4160720173
 20
196.2401938672
 11
44.4010384908
 21
195.6363886216
  0
LINE
  5
280
100
AcDbEntity
  8
IMPORT_IGES
100
AcDbLine
 62
250
  6
CONTINUOUS
 10
45.419949544
 20
196.8463043222
 11
45.4374298205
 21
197.5230636027
  0
LINE
  5
281
100
AcDbEntity
  8
IMPORT_IGES
100
AcDbLine
 62
7
  6
CONTINUOUS
 10
44.4298060133
 20
196.7026417249
 11
44.4160720173
 21
196.2401938672
  0
LINE
  5
282
100
AcDbEntity
  8
IMPORT_IGES
100
AcDbLine
 62
250
  6
CONTINUOUS
 10
45.4374298205
 20
197.5230636027
 11
45.4531593865
 21
198.0342980585
  0
LINE
  5
283
100
AcDbEntity
  8
IMPORT_IGES
100
AcDbLine
 62
7
  6
CONTINUOUS
 10
44.4418467077
 20
197.0528819498
 11
44.4298060133
 21
196.7026417249
  0
LINE
  5
284
100
AcDbEntity
  8
IMPORT_IGES
100
AcDbLine
 62
250
  6
CONTINUOUS
 10
45.4531593865
 20
198.0342980585
 11
45.4663854782
 21
198.4000611122
  0
LINE
  5
285
100
AcDbEntity
  8
IMPORT_IGES
100
AcDbLine
 62
7
  6
CONTINUOUS
 10
44.4540202751
 20
197.3631467002
 11
44.4418467077
 21
197.0528819498
  0
LINE
  5
286
100
AcDbEntity
  8
IMPORT_IGES
100
AcDbLine
 62
250
  6
CONTINUOUS
 10
45.4663854782
 20
198.4000611122
 11
45.4766588771
 21
198.6467837183
  0
LINE
  5
287
100
AcDbEntity
  8
IMPORT_IGES
100
AcDbLine
 62
7
  6
CONTINUOUS
 10
44.4642030795
 20
197.5930464531
 11
44.4540202751
 21
197.3631467002
  0
LINE
  5
288
100
AcDbEntity
  8
IMPORT_IGES
100
AcDbLine
 62
250
  6
CONTINUOUS
 10
45.4766588771
 20
198.6467837183
 11
45.4872090326
 21
198.8690944065
  0
LINE
  5
289
100
AcDbEntity
  8
IMPORT_IGES
100
AcDbLine
 62
7
  6
CONTINUOUS
 10
44.4723462552
 20
197.7593417934
 11
44.4642030795
 21
197.5930464531
  0
LINE
  5
28A
100
AcDbEntity
  8
IMPORT_IGES
100
AcDbLine
 62
250
  6
CONTINUOUS
 10
45.4872090326
 20
198.8690944065
 11
45.4943794092
 21
199.0034355426
  0
LINE
  5
28B
100
AcDbEntity
  8
IMPORT_IGES
100
AcDbLine
 62
7
  6
CONTINUOUS
 10
44.4804700287
 20
197.9108388623
 11
44.4723462552
 21
197.7593417934
  0
LINE
  5
28C
100
AcDbEntity
  8
IMPORT_IGES
100
AcDbLine
 62
250
  6
CONTINUOUS
 10
45.4943794092
 20
199.0034355426
 11
45.5016540108
 21
199.1264905326
  0
LINE
  5
28D
100
AcDbEntity
  8
IMPORT_IGES
100
AcDbLine
 62
7
  6
CONTINUOUS
 10
44.4885652034
 20
198.0483681568
 11
44.4804700287
 21
197.9108388623
  0
LINE
  5
28E
100
AcDbEntity
  8
IMPORT_IGES
100
AcDbLine
 62
7
  6
CONTINUOUS
 10
44.4946169229
 20
198.1428750069
 11
44.4885652034
 21
198.0483681568
  0
LWPOLYLINE
  5
28F
100
AcDbEntity
  8
IMPORT_IGES
100
AcDbPolyline
 62
250
  6
CONTINUOUS
 90
19
 70
0
 10
45.5016540108
 20
199.1264905326
 10
45.509032027
 20
199.2381097932
 10
45.5127596142
 20
199.2895880733
 10
45.5165129887
 20
199.3381575696
 10
45.5202923647
 20
199.3838051742
 10
45.524097528
 20
199.4265151741
 10
45.527927849
 20
199.4662702926
 10
45.5317858682
 20
199.5030781039
 10
45.535669045
 20
199.5369066586
 10
45.5395691287
 20
199.5676969086
 10
45.5434864313
 20
199.5954561818
 10
45.5474206407
 20
199.6201917667
 10
45.5513625697
 20
199.6418768366
 10
45.5553103398
 20
199.6605282967
 10
45.5592658296
 20
199.6761838297
 10
45.5632254872
 20
199.6888673204
 10
45.5671881287
 20
199.6986084566
 10
45.5711549381
 20
199.7054398796
 10
45.5751259153
 20
199.709393615
  0
LINE
  5
290
100
AcDbEntity
  8
IMPORT_IGES
100
AcDbLine
 62
7
  6
CONTINUOUS
 10
44.5006557255
 20
198.2304119503
 11
44.4946169229
 21
198.1428750069
  0
LINE
  5
291
100
AcDbEntity
  8
IMPORT_IGES
100
AcDbLine
 62
7
  6
CONTINUOUS
 10
44.5066942539
 20
198.3114472667
 11
44.5006557255
 21
198.2304119503
  0
LINE
  5
292
100
AcDbEntity
  8
IMPORT_IGES
100
AcDbLine
 62
7
  6
CONTINUOUS
 10
44.5107305821
 20
198.3621159325
 11
44.5066942539
 21
198.3114472667
  0
LINE
  5
293
100
AcDbEntity
  8
IMPORT_IGES
100
AcDbLine
 62
7
  6
CONTINUOUS
 10
44.5147843177
 20
198.4102699828
 11
44.5107305821
 21
198.3621159325
  0
LINE
  5
294
100
AcDbEntity
  8
IMPORT_IGES
100
AcDbLine
 62
7
  6
CONTINUOUS
 10
44.5188669324
 20
198.4560759934
 11
44.5147843177
 21
198.4102699828
  0
LINE
  5
295
100
AcDbEntity
  8
IMPORT_IGES
100
AcDbLine
 62
7
  6
CONTINUOUS
 10
44.5229944774
 20
198.4997223406
 11
44.5188669324
 21
198.4560759934
  0
LINE
  5
296
100
AcDbEntity
  8
IMPORT_IGES
100
AcDbLine
 62
7
  6
CONTINUOUS
 10
44.527183393
 20
198.5413678885
 11
44.5229944774
 21
198.4997223406
  0
LINE
  5
297
100
AcDbEntity
  8
IMPORT_IGES
100
AcDbLine
 62
7
  6
CONTINUOUS
 10
44.53145848
 20
198.5812170253
 11
44.527183393
 21
198.5413678885
  0
LWPOLYLINE
  5
298
100
AcDbEntity
  8
IMPORT_IGES
100
AcDbPolyline
 62
250
  6
CONTINUOUS
 90
11
 70
0
 10
45.550070454
 20
89.9375340446
 10
45.545240375
 20
89.9480737327
 10
45.5404247229
 20
89.967544442
 10
45.5356234979
 20
89.995915186
 10
45.5308296147
 20
90.033141491
 10
45.5260501586
 20
90.0791660486
 10
45.5213063845
 20
90.1339192808
 10
45.5165984539
 20
90.1973181132
 10
45.5119262054
 20
90.2692665598
 10
45.5073104102
 20
90.3496572056
 10
45.5027513225
 20
90.4383692108
  0
LWPOLYLINE
  5
299
100
AcDbEntity
  8
IMPORT_IGES
100
AcDbPolyline
 62
7
  6
CONTINUOUS
 90
34
 70
0
 10
44.899144524
 20
90.1739037708
 10
44.9214237269
 20
90.1523125853
 10
44.9517844476
 20
90.1249321265
 10
44.9827958238
 20
90.0991516038
 10
45.0142491781
 20
90.0750420879
 10
45.0460292562
 20
90.0525912748
 10
45.0780278168
 20
90.0317828556
 10
45.1100439185
 20
90.0126354287
 10
45.1419965207
 20
89.9950739134
 10
45.1737745917
 20
89.9790459239
 10
45.2051407259
 20
89.9645557717
 10
45.2361384428
 20
89.9514742396
 10
45.2666045172
 20
89.9397681348
 10
45.296014992
 20
89.9295020209
 10
45.3243655155
 20
89.9205252169
 10
45.3516386499
 20
89.9127062452
 10
45.3773227202
 20
89.906046298
 10
45.4013019126
 20
89.9004201473
 10
45.4237826314
 20
89.8956431772
 10
45.4447468819
 20
89.8916027744
 10
45.4640485899
 20
89.8882181389
 10
45.481954973
 20
89.8853480908
 10
45.4990367814
 20
89.8828357618
 10
45.5153680203
 20
89.8806242534
 10
45.5309745035
 20
89.8786705606
 10
45.5463177606
 20
89.8768885422
 10
45.5614812909
 20
89.8752498964
 10
45.5764606998
 20
89.8737389787
 10
45.5915602685
 20
89.8723133764
 10
45.6068474135
 20
89.8709593176
 10
45.6223204843
 20
89.8696705203
 10
45.6381630352
 20
89.868427002
 10
45.6544266057
 20
89.8672218715
 10
45.6883266823
 20
89.8649099601
  0
LWPOLYLINE
  5
29A
100
AcDbEntity
  8
IMPORT_IGES
100
AcDbPolyline
 62
250
  6
CONTINUOUS
 90
15
 70
0
 10
44.8429636932
 20
90.2300845885
 10
44.8526283115
 20
90.2205504717
 10
44.8952465782
 20
90.1814145001
 10
44.9405176026
 20
90.1444604643
 10
44.9882101865
 20
90.1099884086
 10
45.0379368837
 20
90.0783335515
 10
45.089328024
 20
90.0497278299
 10
45.1424063181
 20
90.0241553316
 10
45.1973591187
 20
90.0015836956
 10
45.2544027467
 20
89.9820566226
 10
45.312997588
 20
89.9658897738
 10
45.3721673571
 20
89.9533696815
 10
45.431420406
 20
89.9445190455
 10
45.4907934469
 20
89.9392524581
 10
45.5500704745
 20
89.9375340446
  0
LWPOLYLINE
  5
29B
100
AcDbEntity
  8
IMPORT_IGES
100
AcDbPolyline
 62
250
  6
CONTINUOUS
 90
15
 70
0
 10
44.89916075
 20
90.173887542
 10
44.9087652556
 20
90.1644142102
 10
44.9513673851
 20
90.1252949336
 10
44.996637868
 20
90.0883422191
 10
45.0443405255
 20
90.0538641091
 10
45.0940911421
 20
90.0221965617
 10
45.1455297803
 20
89.9935695068
 10
45.1986720461
 20
89.9679750517
 10
45.2536810586
 20
89.9453929926
 10
45.310773052
 20
89.9258651836
 10
45.3694060978
 20
89.9097059948
 10
45.4285731507
 20
89.8972051781
 10
45.4877710568
 20
89.8883791222
 10
45.5470458735
 20
89.883132662
 10
45.6061820078
 20
89.8814225113
  0
LINE
  5
29C
100
AcDbEntity
  8
IMPORT_IGES
100
AcDbLine
 62
7
  6
CONTINUOUS
 10
44.8990752265
 20
90.1739730552
 11
44.8429636932
 21
90.2300845885
  0
LINE
  5
29D
100
AcDbEntity
  8
IMPORT_IGES
100
AcDbLine
 62
250
  6
CONTINUOUS
 10
45.6061919837
 20
89.8814245625
 11
45.550070454
 21
89.9375340445
  0
LWPOLYLINE
  5
29E
100
AcDbEntity
  8
IMPORT_IGES
100
AcDbPolyline
 62
7
  6
CONTINUOUS
 90
39
 70
0
 10
45.0239908039
 20
199.5439407556
 10
45.0162137768
 20
199.5387604063
 10
44.9697204955
 20
199.5055344004
 10
44.9265949661
 20
199.4709424346
 10
44.8868998925
 20
199.4354176102
 10
44.8502212347
 20
199.3989204139
 10
44.8163343906
 20
199.3615573046
 10
44.7853159045
 20
199.323823547
 10
44.7571742085
 20
199.2861836799
 10
44.7316651706
 20
199.2487595661
 10
44.708721624
 20
199.2118891871
 10
44.6885036649
 20
199.1763522193
 10
44.6708655416
 20
199.1425068954
 10
44.655460037
 20
199.1102871408
 10
44.6420724094
 20
199.0798098897
 10
44.6305522558
 20
199.0513128056
 10
44.6206045742
 20
199.0246496197
 10
44.6118579533
 20
198.9993297218
 10
44.6041533823
 20
198.9753089049
 10
44.5973774443
 20
198.952626315
 10
44.5913187907
 20
198.9309129489
 10
44.5858953263
 20
198.9101582456
 10
44.5810314368
 20
198.8903402549
 10
44.5765799454
 20
198.8710779486
 10
44.5724885732
 20
198.8523164018
 10
44.5687249438
 20
198.8340690473
 10
44.5652052241
 20
198.8160649538
 10
44.5618991438
 20
198.7982553569
 10
44.5587899397
 20
198.7806503749
 10
44.5558320612
 20
198.763078058
 10
44.5530081592
 20
198.7455045082
 10
44.5503084241
 20
198.7279342862
 10
44.547708396
 20
198.7102658226
 10
44.5452009211
 20
198.692500128
 10
44.5427769227
 20
198.6746201882
 10
44.5404148529
 20
198.6565049091
 10
44.5381089301
 20
198.6381390915
 10
44.5358555742
 20
198.6195220019
 10
44.53145848
 20
198.5812170253
  0
LWPOLYLINE
  5
29F
100
AcDbEntity
  8
IMPORT_IGES
100
AcDbPolyline
 62
7
  6
CONTINUOUS
 90
12
 70
0
 10
45.0240036715
 20
199.5439212373
 10
45.0293631272
 20
199.547430351
 10
45.0793022023
 20
199.5778947653
 10
45.1308211012
 20
199.6053041411
 10
45.183913597
 20
199.6296926671
 10
45.2379581368
 20
199.6508477123
 10
45.2929641759
 20
199.6687007449
 10
45.3489222589
 20
199.6833202967
 10
45.4051824663
 20
199.6946993321
 10
45.4615281582
 20
199.7028355059
 10
45.5181759746
 20
199.7077311633
 10
45.5751259153
 20
199.7093863044
  0
LWPOLYLINE
  5
2A0
100
AcDbEntity
  8
IMPORT_IGES
100
AcDbPolyline
 62
7
  6
CONTINUOUS
 90
4
 70
0
 10
45.0820128545
 20
199.5753816612
 10
45.0325946654
 20
199.544880384
 10
44.9848681736
 20
199.5114606609
 10
44.9393115794
 20
199.4754594322
  0
LINE
  5
2A1
100
AcDbEntity
  8
IMPORT_IGES
100
AcDbLine
 62
250
  6
CONTINUOUS
 10
107.8424895867
 20
89.830421519
 11
107.8424895867
 21
89.8300789282
  0
LINE
  5
2A2
100
AcDbEntity
  8
IMPORT_IGES
100
AcDbLine
 62
7
  6
CONTINUOUS
 10
108.5428278675
 20
115.6526793503
 11
108.5428278675
 21
117.5427086891
  0
LINE
  5
2A3
100
AcDbEntity
  8
IMPORT_IGES
100
AcDbLine
 62
7
  6
CONTINUOUS
 10
108.5428278675
 20
118.6427086891
 11
108.5428278675
 21
120.5327380173
  0
LINE
  5
2A4
100
AcDbEntity
  8
IMPORT_IGES
100
AcDbLine
 62
7
  6
CONTINUOUS
 10
109.6316804746
 20
115.652679361
 11
109.6316804746
 21
117.5427086891
  0
LINE
  5
2A5
100
AcDbEntity
  8
IMPORT_IGES
100
AcDbLine
 62
7
  6
CONTINUOUS
 10
109.6316804746
 20
118.6427086891
 11
109.6316804746
 21
120.532738028
  0
LINE
  5
2A6
100
AcDbEntity
  8
IMPORT_IGES
100
AcDbLine
 62
250
  6
CONTINUOUS
 10
114.7215494629
 20
90.0214089144
 11
114.7215494629
 21
90.0385950984
  0
LINE
  5
2A7
100
AcDbEntity
  8
IMPORT_IGES
100
AcDbLine
 62
7
  6
CONTINUOUS
 10
122.4503755152
 20
145.9398104646
 11
122.4503755152
 21
145.0151792646
  0
LINE
  5
2A8
100
AcDbEntity
  8
IMPORT_IGES
100
AcDbLine
 62
7
  6
CONTINUOUS
 10
122.4503755152
 20
140.7751184646
 11
122.4503755152
 21
139.8504872646
  0
LINE
  5
2A9
100
AcDbEntity
  8
IMPORT_IGES
100
AcDbLine
 62
7
  6
CONTINUOUS
 10
127.0403755152
 20
143.3541488646
 11
127.0403755152
 21
142.4361488646
  0
LINE
  5
2AA
100
AcDbEntity
  8
IMPORT_IGES
100
AcDbLine
 62
7
  6
CONTINUOUS
 10
127.6523755152
 20
145.9398104646
 11
127.6523755152
 21
145.0151792646
  0
LINE
  5
2AB
100
AcDbEntity
  8
IMPORT_IGES
100
AcDbLine
 62
7
  6
CONTINUOUS
 10
127.6523755152
 20
140.7751189742
 11
127.6523755152
 21
139.8504872646
  0
LWPOLYLINE
  5
2AC
100
AcDbEntity
  8
IMPORT_IGES
100
AcDbPolyline
 62
7
  6
CONTINUOUS
 90
28
 70
0
 10
143.3795904191
 20
144.3713915259
 10
143.3800264997
 20
144.3673367145
 10
143.3807367913
 20
144.3631685216
 10
143.3817212939
 20
144.3588869471
 10
143.3829660392
 20
144.3544832228
 10
143.3844849955
 20
144.3499661169
 10
143.3863200676
 20
144.3453619338
 10
143.3884798799
 20
144.3406555288
 10
143.3909558081
 20
144.3358620466
 10
143.3937638839
 20
144.3310532259
 10
143.396923544
 20
144.3262138901
 10
143.4004153518
 20
144.3213592158
 10
143.4041970294
 20
144.3166064707
 10
143.4082907651
 20
144.3119522613
 10
143.4126743706
 20
144.3073999811
 10
143.4172390025
 20
144.3030770785
 10
143.4219960602
 20
144.2989970071
 10
143.4269341444
 20
144.2951463133
 10
143.4319102136
 20
144.2916120843
 10
143.4369130702
 20
144.2884187293
 10
143.4419539118
 20
144.2855418391
 10
143.4469232907
 20
144.2829952741
 10
143.4518010932
 20
144.2807951046
 10
143.4566074329
 20
144.2789252603
 10
143.4612932028
 20
144.2773513898
 10
143.465842034
 20
144.2760620429
 10
143.4702702954
 20
144.2750686698
 10
143.4745779871
 20
144.2743712706
  0
LINE
  5
2AD
100
AcDbEntity
  8
IMPORT_IGES
100
AcDbLine
 62
7
  6
CONTINUOUS
 10
143.0413061483
 20
148.3038349579
 11
143.2751841169
 21
145.5849471218
  0
LINE
  5
2AE
100
AcDbEntity
  8
IMPORT_IGES
100
AcDbLine
 62
7
  6
CONTINUOUS
 10
142.9591126981
 20
149.2592354478
 11
143.0138221405
 21
148.6232395414
  0
LINE
  5
2AF
100
AcDbEntity
  8
IMPORT_IGES
100
AcDbLine
 62
7
  6
CONTINUOUS
 10
143.2977561342
 20
145.322571624
 11
143.3795904191
 21
144.3713915259
  0
LINE
  5
2B0
100
AcDbEntity
  8
IMPORT_IGES
100
AcDbLine
 62
7
  6
CONTINUOUS
 10
143.5844062401
 20
144.4875889377
 11
143.4952928481
 21
145.523585382
  0
LINE
  5
2B1
100
AcDbEntity
  8
IMPORT_IGES
100
AcDbLine
 62
7
  6
CONTINUOUS
 10
143.2500688983
 20
148.374434719
 11
143.1747193983
 21
149.250370219
  0
LINE
  5
2B2
100
AcDbEntity
  8
IMPORT_IGES
100
AcDbLine
 62
7
  6
CONTINUOUS
 10
143.4727393983
 20
145.785980719
 11
143.2775504355
 21
148.0550323865
  0
LINE
  5
2B3
100
AcDbEntity
  8
IMPORT_IGES
100
AcDbLine
 62
7
  6
CONTINUOUS
 10
140.9374251483
 20
150.5195770977
 11
140.9374251483
 21
150.8100363777
  0
LINE
  5
2B4
100
AcDbEntity
  8
IMPORT_IGES
100
AcDbLine
 62
7
  6
CONTINUOUS
 10
141.5417398983
 20
140.188772719
 11
141.5417398983
 21
141.698956219
  0
LINE
  5
2B5
100
AcDbEntity
  8
IMPORT_IGES
100
AcDbLine
 62
7
  6
CONTINUOUS
 10
142.7012466823
 20
149.2592354478
 11
142.7012466823
 21
149.4732914487
  0
LINE
  5
2B6
100
AcDbEntity
  8
IMPORT_IGES
100
AcDbLine
 62
7
  6
CONTINUOUS
 10
143.3701357564
 20
149.9027600268
 11
143.3701357564
 21
150.0442326566
  0
LINE
  5
2B7
100
AcDbEntity
  8
IMPORT_IGES
100
AcDbLine
 62
7
  6
CONTINUOUS
 10
143.4745779871
 20
143.9514853962
 11
143.4745779871
 21
144.2743712706
  0
LINE
  5
2B8
100
AcDbEntity
  8
IMPORT_IGES
100
AcDbLine
 62
7
  6
CONTINUOUS
 10
143.7359040349
 20
149.4732914487
 11
143.7359040349
 21
149.7988708785
  0
LINE
  5
2B9
100
AcDbEntity
  8
IMPORT_IGES
100
AcDbLine
 62
7
  6
CONTINUOUS
 10
143.8712415861
 20
144.2735503568
 11
143.8712415861
 21
143.9514853962
  0
LINE
  5
2BA
100
AcDbEntity
  8
IMPORT_IGES
100
AcDbLine
 62
7
  6
CONTINUOUS
 10
144.2799088983
 20
147.760985719
 11
144.2799088983
 21
148.189097719
  0
LINE
  5
2BB
100
AcDbEntity
  8
IMPORT_IGES
100
AcDbLine
 62
7
  6
CONTINUOUS
 10
144.3156216174
 20
149.8828697421
 11
144.3156216174
 21
149.6605730295
  0
LINE
  5
2BC
100
AcDbEntity
  8
IMPORT_IGES
100
AcDbLine
 62
7
  6
CONTINUOUS
 10
144.3156216174
 20
150.1020461113
 11
144.3156216174
 21
150.1868114515
  0
LINE
  5
2BD
100
AcDbEntity
  8
IMPORT_IGES
100
AcDbLine
 62
7
  6
CONTINUOUS
 10
145.3680451128
 20
149.6605730295
 11
145.3680364028
 21
149.860358848
  0
LINE
  5
2BE
100
AcDbEntity
  8
IMPORT_IGES
100
AcDbLine
 62
7
  6
CONTINUOUS
 10
145.5910213983
 20
147.9415897009
 11
145.5910213983
 21
148.189097719
  0
LINE
  5
2BF
100
AcDbEntity
  8
IMPORT_IGES
100
AcDbLine
 62
7
  6
CONTINUOUS
 10
146.1082168983
 20
148.926592219
 11
146.1082168983
 21
148.467889219
  0
LINE
  5
2C0
100
AcDbEntity
  8
IMPORT_IGES
100
AcDbLine
 62
7
  6
CONTINUOUS
 10
146.6472103983
 20
148.7310117399
 11
146.6472103983
 21
148.372723219
  0
LINE
  5
2C1
100
AcDbEntity
  8
IMPORT_IGES
100
AcDbLine
 62
7
  6
CONTINUOUS
 10
146.834543419
 20
148.9216454402
 11
146.834543419
 21
148.1802509264
  0
LINE
  5
2C2
100
AcDbEntity
  8
IMPORT_IGES
100
AcDbLine
 62
7
  6
CONTINUOUS
 10
147.7435318983
 20
141.698956219
 11
147.7435318983
 21
140.188772719
  0
LINE
  5
2C3
100
AcDbEntity
  8
IMPORT_IGES
100
AcDbLine
 62
7
  6
CONTINUOUS
 10
148.4380722751
 20
150.8387727164
 11
148.4380722751
 21
150.5534273768
  0
LINE
  5
2C4
100
AcDbEntity
  8
IMPORT_IGES
100
AcDbLine
 62
7
  6
CONTINUOUS
 10
145.3680451128
 20
150.1868114515
 11
145.3680276928
 21
150.0783212663
  0
LINE
  5
2C5
100
AcDbEntity
  8
IMPORT_IGES
100
AcDbLine
 62
7
  6
CONTINUOUS
 10
146.2317088983
 20
149.250370219
 11
146.2015438983
 21
148.926592219
  0
LINE
  5
2C6
100
AcDbEntity
  8
IMPORT_IGES
100
AcDbLine
 62
7
  6
CONTINUOUS
 10
146.1347224999
 20
148.2095184257
 11
145.8908953983
 21
145.593205219
  0
LINE
  5
2C7
100
AcDbEntity
  8
IMPORT_IGES
100
AcDbLine
 62
7
  6
CONTINUOUS
 10
145.8662533564
 20
145.3286977208
 11
145.8518300962
 21
145.1739589035
  0
LINE
  5
2C8
100
AcDbEntity
  8
IMPORT_IGES
100
AcDbLine
 62
7
  6
CONTINUOUS
 10
146.0866854839
 20
145.387033945
 11
146.3470131523
 21
148.1802509264
  0
LINE
  5
2C9
100
AcDbEntity
  8
IMPORT_IGES
100
AcDbLine
 62
7
  6
CONTINUOUS
 10
146.4165632794
 20
148.9266107483
 11
146.4473393351
 21
149.2566328937
  0
LINE
  5
2CA
100
AcDbEntity
  8
IMPORT_IGES
100
AcDbLine
 62
7
  6
CONTINUOUS
 10
146.3649238983
 20
148.372723219
 11
146.3722428169
 21
148.451199418
  0
LINE
  5
2CB
100
AcDbEntity
  8
IMPORT_IGES
100
AcDbLine
 62
250
  6
CONTINUOUS
 10
46.4531694866
 20
89.8399888369
 11
46.4472979767
 21
89.8396198701
  0
LINE
  5
2CC
100
AcDbEntity
  8
IMPORT_IGES
100
AcDbLine
 62
250
  6
CONTINUOUS
 10
46.3730562957
 20
89.8410234083
 11
46.3705193837
 21
89.8415986458
  0
LINE
  5
2CD
100
AcDbEntity
  8
IMPORT_IGES
100
AcDbLine
 62
7
  6
CONTINUOUS
 10
46.2676483953
 20
89.8432610144
 11
46.4472979767
 21
89.8396198701
  0
LINE
  5
2CE
100
AcDbEntity
  8
IMPORT_IGES
100
AcDbLine
 62
250
  6
CONTINUOUS
 10
46.2909498668
 20
89.8433236268
 11
46.2676483953
 21
89.8432610144
  0
LINE
  5
2CF
100
AcDbEntity
  8
IMPORT_IGES
100
AcDbLine
 62
250
  6
CONTINUOUS
 10
46.234122645
 20
89.8440404464
 11
46.2150141134
 21
89.845150347
  0
LINE
  5
2D0
100
AcDbEntity
  8
IMPORT_IGES
100
AcDbLine
 62
7
  6
CONTINUOUS
 10
46.1384160877
 20
89.8464745357
 11
46.2676483953
 21
89.8432610144
  0
LINE
  5
2D1
100
AcDbEntity
  8
IMPORT_IGES
100
AcDbLine
 62
7
  6
CONTINUOUS
 10
46.022056943
 20
89.8499265617
 11
46.1384160877
 21
89.8464745357
  0
LINE
  5
2D2
100
AcDbEntity
  8
IMPORT_IGES
100
AcDbLine
 62
250
  6
CONTINUOUS
 10
46.0739884265
 20
89.8491099891
 11
46.022056943
 21
89.8499265617
  0
LINE
  5
2D3
100
AcDbEntity
  8
IMPORT_IGES
100
AcDbLine
 62
7
  6
CONTINUOUS
 10
45.9429142222
 20
89.8526579855
 11
46.022056943
 21
89.8499265617
  0
LINE
  5
2D4
100
AcDbEntity
  8
IMPORT_IGES
100
AcDbLine
 62
7
  6
CONTINUOUS
 10
45.8703868019
 20
89.8555084237
 11
45.9429142222
 21
89.8526579855
  0
LINE
  5
2D5
100
AcDbEntity
  8
IMPORT_IGES
100
AcDbLine
 62
250
  6
CONTINUOUS
 10
45.9495196852
 20
89.8534324216
 11
45.9429142222
 21
89.8526579855
  0
LINE
  5
2D6
100
AcDbEntity
  8
IMPORT_IGES
100
AcDbLine
 62
250
  6
CONTINUOUS
 10
45.8937469055
 20
89.8557241635
 11
45.8703868019
 21
89.8555084237
  0
LINE
  5
2D7
100
AcDbEntity
  8
IMPORT_IGES
100
AcDbLine
 62
7
  6
CONTINUOUS
 10
45.8040037101
 20
89.8584888866
 11
45.8703868019
 21
89.8555084237
  0
LINE
  5
2D8
100
AcDbEntity
  8
IMPORT_IGES
100
AcDbLine
 62
7
  6
CONTINUOUS
 10
45.7629518781
 20
89.8605574288
 11
45.8040037101
 21
89.8584888866
  0
LINE
  5
2D9
100
AcDbEntity
  8
IMPORT_IGES
100
AcDbLine
 62
250
  6
CONTINUOUS
 10
45.8425424284
 20
89.8580861406
 11
45.8040037101
 21
89.8584888866
  0
LINE
  5
2DA
100
AcDbEntity
  8
IMPORT_IGES
100
AcDbLine
 62
7
  6
CONTINUOUS
 10
45.7244351521
 20
89.8626944689
 11
45.7629518781
 21
89.8605574288
  0
LWPOLYLINE
  5
2DB
100
AcDbEntity
  8
IMPORT_IGES
100
AcDbPolyline
 62
250
  6
CONTINUOUS
 90
9
 70
0
 10
45.7957820765
 20
89.8605251157
 10
45.7535900273
 20
89.8630343261
 10
45.716636969
 20
89.8655768892
 10
45.6851496803
 20
89.868141783
 10
45.6589013825
 20
89.8707400295
 10
45.6378824287
 20
89.8733678124
 10
45.6220896031
 20
89.8760238594
 10
45.6115261214
 20
89.8787094428
 10
45.6061919837
 20
89.8814245625
  0
LINE
  5
2DC
100
AcDbEntity
  8
IMPORT_IGES
100
AcDbLine
 62
7
  6
CONTINUOUS
 10
45.6883266823
 20
89.8649099601
 11
45.7244351521
 21
89.8626944689
  0
LINE
  5
2DD
100
AcDbEntity
  8
IMPORT_IGES
100
AcDbLine
 62
7
  6
CONTINUOUS
 10
159.5455921149
 20
127.5885169584
 11
159.5455921149
 21
152.9885169584
  0
LINE
  5
2DE
100
AcDbEntity
  8
IMPORT_IGES
100
AcDbLine
 62
7
  6
CONTINUOUS
 10
161.6719968394
 20
164.9210319247
 11
161.6719968394
 21
166.8110612635
  0
LINE
  5
2DF
100
AcDbEntity
  8
IMPORT_IGES
100
AcDbLine
 62
7
  6
CONTINUOUS
 10
161.6719968394
 20
167.9110612635
 11
161.6719968394
 21
169.8010905917
  0
LINE
  5
2E0
100
AcDbEntity
  8
IMPORT_IGES
100
AcDbLine
 62
7
  6
CONTINUOUS
 10
162.7608494465
 20
164.9210319354
 11
162.7608494465
 21
166.8110612635
  0
LINE
  5
2E1
100
AcDbEntity
  8
IMPORT_IGES
100
AcDbLine
 62
7
  6
CONTINUOUS
 10
162.7608494465
 20
167.9110612635
 11
162.7608494465
 21
169.8010906024
  0
LINE
  5
2E2
100
AcDbEntity
  8
IMPORT_IGES
100
AcDbLine
 62
7
  6
CONTINUOUS
 10
144.4692079858
 20
146.800013234
 11
143.4727393983
 21
145.785980719
  0
LINE
  5
2E3
100
AcDbEntity
  8
IMPORT_IGES
100
AcDbLine
 62
7
  6
CONTINUOUS
 10
148.4380722751
 20
150.8387727164
 11
146.5590179574
 21
148.9266107483
  0
LINE
  5
2E4
100
AcDbEntity
  8
IMPORT_IGES
100
AcDbLine
 62
7
  6
CONTINUOUS
 10
143.2751841169
 20
145.5849471218
 11
141.067946091
 21
143.3388212977
  0
LINE
  5
2E5
100
AcDbEntity
  8
IMPORT_IGES
100
AcDbLine
 62
7
  6
CONTINUOUS
 10
146.1082168983
 20
148.467889219
 11
145.5910213983
 21
147.9415897009
  0
LINE
  5
2E6
100
AcDbEntity
  8
IMPORT_IGES
100
AcDbLine
 62
7
  6
CONTINUOUS
 10
145.4135415346
 20
147.760985719
 11
144.6094663983
 21
146.942756719
  0
LINE
  5
2E7
100
AcDbEntity
  8
IMPORT_IGES
100
AcDbLine
 62
7
  6
CONTINUOUS
 10
143.4952928481
 20
145.523585382
 11
144.6070102863
 21
146.6548981439
  0
LINE
  5
2E8
100
AcDbEntity
  8
IMPORT_IGES
100
AcDbLine
 62
7
  6
CONTINUOUS
 10
146.3722428169
 20
148.451199418
 11
146.6472103983
 21
148.7310117399
  0
LINE
  5
2E9
100
AcDbEntity
  8
IMPORT_IGES
100
AcDbLine
 62
7
  6
CONTINUOUS
 10
146.834543419
 20
148.9216454402
 11
148.4380722751
 21
150.5534273768
  0
LINE
  5
2EA
100
AcDbEntity
  8
IMPORT_IGES
100
AcDbLine
 62
7
  6
CONTINUOUS
 10
141.210597837
 20
143.1986411302
 11
143.2977561342
 21
145.322571624
  0
LINE
  5
2EB
100
AcDbEntity
  8
IMPORT_IGES
100
AcDbLine
 62
7
  6
CONTINUOUS
 10
144.7472686477
 20
146.7976416909
 11
146.1347224999
 21
148.2095184257
  0
LWPOLYLINE
  5
2EC
100
AcDbEntity
  8
IMPORT_IGES
100
AcDbPolyline
 62
7
  6
CONTINUOUS
 90
34
 70
0
 10
252.999943922
 20
89.8688737126
 10
253.0157362303
 20
89.87013777
 10
253.0312553466
 20
89.871457121
 10
253.0465371129
 20
89.8728400514
 10
253.0617899532
 20
89.8743131375
 10
253.0770574078
 20
89.875891332
 10
253.0923653292
 20
89.8775896911
 10
253.1079316714
 20
89.8794487197
 10
253.1238095157
 20
89.8814960352
 10
253.1400568929
 20
89.8837637889
 10
253.1569409408
 20
89.886321407
 10
253.1745611798
 20
89.8892257286
 10
253.1929510406
 20
89.8925304846
 10
253.2123023949
 20
89.8963273557
 10
253.2327371406
 20
89.9007093779
 10
253.254247956
 20
89.9057530675
 10
253.2768250242
 20
89.9115403412
 10
253.3005747636
 20
89.9181935762
 10
253.3254356794
 20
89.9258013948
 10
253.3511192897
 20
89.9343775737
 10
253.3776083941
 20
89.9440156043
 10
253.4048903037
 20
89.9548193791
 10
253.4326595676
 20
89.9667664118
 10
253.4608252931
 20
89.9799003837
 10
253.4893840697
 20
89.9943086068
 10
253.5181461911
 20
90.0099864295
 10
253.5470378276
 20
90.0269836206
 10
253.5759890213
 20
90.0453565821
 10
253.6048108077
 20
90.0650775282
 10
253.6334356847
 20
90.0861731188
 10
253.6617677491
 20
90.1086479043
 10
253.6895849241
 20
90.1323946815
 10
253.7167497782
 20
90.1573541282
 10
253.7337028535
 20
90.1739048623
  0
LINE
  5
2ED
100
AcDbEntity
  8
IMPORT_IGES
100
AcDbLine
 62
7
  6
CONTINUOUS
 10
252.9673398932
 20
89.8664793406
 11
252.999943922
 21
89.8688737126
  0
LINE
  5
2EE
100
AcDbEntity
  8
IMPORT_IGES
100
AcDbLine
 62
7
  6
CONTINUOUS
 10
252.9328279139
 20
89.8642068775
 11
252.9673398932
 21
89.8664793406
  0
LINE
  5
2EF
100
AcDbEntity
  8
IMPORT_IGES
100
AcDbLine
 62
7
  6
CONTINUOUS
 10
252.8960616258
 20
89.8620237518
 11
252.9328279139
 21
89.8642068775
  0
LWPOLYLINE
  5
2F0
100
AcDbEntity
  8
IMPORT_IGES
100
AcDbPolyline
 62
250
  6
CONTINUOUS
 90
9
 70
0
 10
113.3558165733
 20
89.9925799589
 10
113.6225768026
 20
90.007747468
 10
113.7618355872
 20
90.0147845617
 10
113.9008238484
 20
90.0210867856
 10
114.0384108501
 20
90.026449876
 10
114.1757273285
 20
90.0308569492
 10
114.312706143
 20
90.0343134162
 10
114.4493249135
 20
90.0367920782
 10
114.5856060201
 20
90.0382267509
  0
LINE
  5
2F1
100
AcDbEntity
  8
IMPORT_IGES
100
AcDbLine
 62
7
  6
CONTINUOUS
 10
252.8567945284
 20
89.8599111183
 11
252.8960616258
 21
89.8620237518
  0
LINE
  5
2F2
100
AcDbEntity
  8
IMPORT_IGES
100
AcDbLine
 62
250
  6
CONTINUOUS
 10
252.8148123535
 20
89.857856656
 11
252.7884472778
 21
89.8579983391
  0
LINE
  5
2F3
100
AcDbEntity
  8
IMPORT_IGES
100
AcDbLine
 62
7
  6
CONTINUOUS
 10
252.8148123535
 20
89.857856656
 11
252.8567945284
 21
89.8599111183
  0
LINE
  5
2F4
100
AcDbEntity
  8
IMPORT_IGES
100
AcDbLine
 62
250
  6
CONTINUOUS
 10
252.7464382132
 20
89.8548725626
 11
252.7374203207
 21
89.8556539054
  0
LWPOLYLINE
  5
2F5
100
AcDbEntity
  8
IMPORT_IGES
100
AcDbPolyline
 62
7
  6
CONTINUOUS
 90
7
 70
0
 10
112.9580799861
 20
89.9584055754
 10
113.8242174144
 20
89.9992658418
 10
113.9948770145
 20
90.0061254812
 10
114.1639872165
 20
90.0119622568
 10
114.3307850702
 20
90.0165498502
 10
114.4948455686
 20
90.01970212
 10
114.6561636807
 20
90.0212629174
  0
LWPOLYLINE
  5
2F6
100
AcDbEntity
  8
IMPORT_IGES
100
AcDbPolyline
 62
250
  6
CONTINUOUS
 90
5
 70
0
 10
112.4599308314
 20
89.9413801653
 10
112.5878809872
 20
89.9467594196
 10
112.7159519084
 20
89.9533024765
 10
112.8441586567
 20
89.9606522427
 10
113.3558165733
 20
89.9925799589
  0
LINE
  5
2F7
100
AcDbEntity
  8
IMPORT_IGES
100
AcDbLine
 62
7
  6
CONTINUOUS
 10
252.7464382132
 20
89.8548725626
 11
252.8148123535
 21
89.857856656
  0
LINE
  5
2F8
100
AcDbEntity
  8
IMPORT_IGES
100
AcDbLine
 62
250
  6
CONTINUOUS
 10
252.6711152973
 20
89.8519957952
 11
252.6224370046
 21
89.8511980703
  0
LINE
  5
2F9
100
AcDbEntity
  8
IMPORT_IGES
100
AcDbLine
 62
7
  6
CONTINUOUS
 10
252.6711152973
 20
89.8519957952
 11
252.7464382132
 21
89.8548725626
  0
LINE
  5
2FA
100
AcDbEntity
  8
IMPORT_IGES
100
AcDbLine
 62
7
  6
CONTINUOUS
 10
252.5591292494
 20
89.8483290087
 11
252.6711152973
 21
89.8519957952
  0
LINE
  5
2FB
100
AcDbEntity
  8
IMPORT_IGES
100
AcDbLine
 62
250
  6
CONTINUOUS
 10
112.332101441
 20
89.9375340446
 11
112.4424935213
 21
89.9394202414
  0
LWPOLYLINE
  5
2FC
100
AcDbEntity
  8
IMPORT_IGES
100
AcDbPolyline
 62
7
  6
CONTINUOUS
 90
4
 70
0
 10
112.4424935213
 20
89.9394202414
 10
112.6132765247
 20
89.9445154515
 10
112.7851597713
 20
89.950960764
 10
112.9580799861
 20
89.9584055754
  0
LINE
  5
2FD
100
AcDbEntity
  8
IMPORT_IGES
100
AcDbLine
 62
7
  6
CONTINUOUS
 10
109.3012334999
 20
89.8462531353
 11
111.8657471673
 21
89.9261668425
  0
LINE
  5
2FE
100
AcDbEntity
  8
IMPORT_IGES
100
AcDbLine
 62
250
  6
CONTINUOUS
 10
111.8657471673
 20
89.9261668425
 11
111.8592764557
 21
89.9266995434
  0
LINE
  5
2FF
100
AcDbEntity
  8
IMPORT_IGES
100
AcDbLine
 62
7
  6
CONTINUOUS
 10
252.4332667943
 20
89.8448804362
 11
252.5591292494
 21
89.8483290087
  0
LINE
  5
300
100
AcDbEntity
  8
IMPORT_IGES
100
AcDbLine
 62
7
  6
CONTINUOUS
 10
111.8657471673
 20
89.9261668425
 11
112.1349054591
 21
89.9328352187
  0
LINE
  5
301
100
AcDbEntity
  8
IMPORT_IGES
100
AcDbLine
 62
7
  6
CONTINUOUS
 10
109.1412895318
 20
89.8424034283
 11
109.3012334999
 21
89.8462531353
  0
LINE
  5
302
100
AcDbEntity
  8
IMPORT_IGES
100
AcDbLine
 62
7
  6
CONTINUOUS
 10
252.2559996361
 20
89.8409366953
 11
252.4332667943
 21
89.8448804362
  0
LINE
  5
303
100
AcDbEntity
  8
IMPORT_IGES
100
AcDbLine
 62
250
  6
CONTINUOUS
 10
252.2667118934
 20
89.841685863
 11
252.2559996361
 21
89.8409366953
  0
LINE
  5
304
100
AcDbEntity
  8
IMPORT_IGES
100
AcDbLine
 62
250
  6
CONTINUOUS
 10
252.2179293424
 20
89.8402024396
 11
252.1849970183
 21
89.8400880627
  0
LINE
  5
305
100
AcDbEntity
  8
IMPORT_IGES
100
AcDbLine
 62
7
  6
CONTINUOUS
 10
112.1349054591
 20
89.9328352187
 11
112.4424935213
 21
89.9394202414
  0
LINE
  5
306
100
AcDbEntity
  8
IMPORT_IGES
100
AcDbLine
 62
7
  6
CONTINUOUS
 10
108.8783473527
 20
89.8375685991
 11
109.1412895318
 21
89.8424034283
  0
LINE
  5
307
100
AcDbEntity
  8
IMPORT_IGES
100
AcDbLine
 62
7
  6
CONTINUOUS
 10
252.0572183907
 20
89.8374672406
 11
252.2559996361
 21
89.8409366953
  0
LINE
  5
308
100
AcDbEntity
  8
IMPORT_IGES
100
AcDbLine
 62
7
  6
CONTINUOUS
 10
108.5937230804
 20
89.8338991946
 11
108.8783473527
 21
89.8375685991
  0
LINE
  5
309
100
AcDbEntity
  8
IMPORT_IGES
100
AcDbLine
 62
7
  6
CONTINUOUS
 10
251.7920874377
 20
89.8340430263
 11
252.0572183907
 21
89.8374672406
  0
LINE
  5
30A
100
AcDbEntity
  8
IMPORT_IGES
100
AcDbLine
 62
250
  6
CONTINUOUS
 10
108.5937230804
 20
89.8338991946
 11
108.601550077
 21
89.8343470156
  0
LINE
  5
30B
100
AcDbEntity
  8
IMPORT_IGES
100
AcDbLine
 62
250
  6
CONTINUOUS
 10
186.2814565921
 20
89.9373775021
 11
186.3007478032
 21
89.9375340446
  0
LINE
  5
30C
100
AcDbEntity
  8
IMPORT_IGES
100
AcDbLine
 62
7
  6
CONTINUOUS
 10
251.4502083977
 20
89.8312718326
 11
251.7920874377
 21
89.8340430263
  0
LINE
  5
30D
100
AcDbEntity
  8
IMPORT_IGES
100
AcDbLine
 62
7
  6
CONTINUOUS
 10
108.1924183184
 20
89.8308915425
 11
108.5937230804
 21
89.8338991946
  0
LINE
  5
30E
100
AcDbEntity
  8
IMPORT_IGES
100
AcDbLine
 62
250
  6
CONTINUOUS
 10
109.3789321459
 20
89.8492658094
 11
109.4103397495
 21
89.8494164748
  0
LINE
  5
30F
100
AcDbEntity
  8
IMPORT_IGES
100
AcDbLine
 62
250
  6
CONTINUOUS
 10
111.6800719481
 20
89.92073851
 11
111.6486643445
 21
89.9205878446
  0
LINE
  5
310
100
AcDbEntity
  8
IMPORT_IGES
100
AcDbLine
 62
250
  6
CONTINUOUS
 10
108.1924183184
 20
89.8308915425
 11
108.2306065896
 21
89.8314162826
  0
LINE
  5
311
100
AcDbEntity
  8
IMPORT_IGES
100
AcDbLine
 62
7
  6
CONTINUOUS
 10
251.0806798972
 20
89.8300990506
 11
251.4502083977
 21
89.8312718326
  0
LINE
  5
312
100
AcDbEntity
  8
IMPORT_IGES
100
AcDbLine
 62
250
  6
CONTINUOUS
 10
251.1324152753
 20
89.8304953002
 11
251.0806798972
 21
89.8300990506
  0
LINE
  5
313
100
AcDbEntity
  8
IMPORT_IGES
100
AcDbLine
 62
7
  6
CONTINUOUS
 10
251.0806798972
 20
89.8300990506
 11
190.7903596574
 21
89.8300789282
  0
LINE
  5
314
100
AcDbEntity
  8
IMPORT_IGES
100
AcDbLine
 62
250
  6
CONTINUOUS
 10
112.332101441
 20
89.9375340446
 11
45.550070454
 21
89.9375340445
  0
LINE
  5
315
100
AcDbEntity
  8
IMPORT_IGES
100
AcDbLine
 62
250
  6
CONTINUOUS
 10
186.3007478032
 20
89.9375340446
 11
253.082775832
 21
89.9375340446
  0
LINE
  5
316
100
AcDbEntity
  8
IMPORT_IGES
100
AcDbLine
 62
7
  6
CONTINUOUS
 10
114.6561636807
 20
90.0212629174
 11
183.9112997813
 21
90.0214089144
  0
LINE
  5
317
100
AcDbEntity
  8
IMPORT_IGES
100
AcDbLine
 62
250
  6
CONTINUOUS
 10
114.5856060201
 20
90.0382267509
 11
183.9112997813
 21
90.0385950984
  0
LINE
  5
318
100
AcDbEntity
  8
IMPORT_IGES
100
AcDbLine
 62
250
  6
CONTINUOUS
 10
253.2657858464
 20
94.3321271447
 11
45.4273300327
 21
94.3320477378
  0
LINE
  5
319
100
AcDbEntity
  8
IMPORT_IGES
100
AcDbLine
 62
7
  6
CONTINUOUS
 10
47.5585285193
 20
89.8300950059
 11
108.1924183184
 21
89.8308915425
  0
LINE
  5
31A
100
AcDbEntity
  8
IMPORT_IGES
100
AcDbLine
 62
250
  6
CONTINUOUS
 10
47.6054547537
 20
89.8304214348
 11
47.5585285193
 21
89.8300950059
  0
LINE
  5
31B
100
AcDbEntity
  8
IMPORT_IGES
100
AcDbLine
 62
250
  6
CONTINUOUS
 10
47.5054501443
 20
89.8301476565
 11
47.5037284745
 21
89.8304846899
  0
LWPOLYLINE
  5
31C
100
AcDbEntity
  8
IMPORT_IGES
100
AcDbPolyline
 62
7
  6
CONTINUOUS
 90
6
 70
0
 10
183.9112999206
 20
90.0214089323
 10
183.9840834325
 20
90.0212288563
 10
184.1454500526
 20
90.0196004889
 10
184.3095456371
 20
90.0163947781
 10
184.4763640635
 20
90.0117652999
 10
184.6454796293
 20
90.0058961435
  0
LWPOLYLINE
  5
31D
100
AcDbEntity
  8
IMPORT_IGES
100
AcDbPolyline
 62
250
  6
CONTINUOUS
 90
8
 70
0
 10
183.9112997813
 20
90.0385950984
 10
184.0455661749
 20
90.0380862194
 10
184.1805646654
 20
90.0365040849
 10
184.3162952528
 20
90.0338735622
 10
184.4527290118
 20
90.0302648904
 10
184.5898948678
 20
90.0257070256
 10
184.7278795962
 20
90.0201945802
 10
184.8679706639
 20
90.0137374128
  0
LINE
  5
31E
100
AcDbEntity
  8
IMPORT_IGES
100
AcDbLine
 62
7
  6
CONTINUOUS
 10
190.4354756098
 20
89.8309148084
 11
190.7903596574
 21
89.8300789282
  0
LINE
  5
31F
100
AcDbEntity
  8
IMPORT_IGES
100
AcDbLine
 62
250
  6
CONTINUOUS
 10
189.2225094946
 20
89.8494164748
 11
189.2539170982
 21
89.8492658094
  0
LINE
  5
320
100
AcDbEntity
  8
IMPORT_IGES
100
AcDbLine
 62
250
  6
CONTINUOUS
 10
186.9841848996
 20
89.9205878446
 11
186.952777296
 21
89.92073851
  0
LINE
  5
321
100
AcDbEntity
  8
IMPORT_IGES
100
AcDbLine
 62
7
  6
CONTINUOUS
 10
47.1971080292
 20
89.8312003872
 11
47.5585285193
 21
89.8300950059
  0
LINE
  5
322
100
AcDbEntity
  8
IMPORT_IGES
100
AcDbLine
 62
250
  6
CONTINUOUS
 10
47.2030650262
 20
89.8314842922
 11
47.1971080292
 21
89.8312003872
  0
LINE
  5
323
100
AcDbEntity
  8
IMPORT_IGES
100
AcDbLine
 62
250
  6
CONTINUOUS
 10
47.147618719
 20
89.8314891073
 11
47.1043284049
 21
89.8320872958
  0
LINE
  5
324
100
AcDbEntity
  8
IMPORT_IGES
100
AcDbLine
 62
250
  6
CONTINUOUS
 10
112.351409423
 20
89.9373778197
 11
112.332101441
 21
89.9375340446
  0
LINE
  5
325
100
AcDbEntity
  8
IMPORT_IGES
100
AcDbLine
 62
7
  6
CONTINUOUS
 10
190.0344473197
 20
89.8339483969
 11
190.4354756098
 21
89.8309148084
  0
LINE
  5
326
100
AcDbEntity
  8
IMPORT_IGES
100
AcDbLine
 62
7
  6
CONTINUOUS
 10
46.8638754892
 20
89.833817163
 11
47.1971080292
 21
89.8312003872
  0
LINE
  5
327
100
AcDbEntity
  8
IMPORT_IGES
100
AcDbLine
 62
250
  6
CONTINUOUS
 10
190.0344473197
 20
89.8339483969
 11
190.1223844968
 21
89.8334327222
  0
LINE
  5
328
100
AcDbEntity
  8
IMPORT_IGES
100
AcDbLine
 62
250
  6
CONTINUOUS
 10
46.9092775566
 20
89.8337078728
 11
46.8638754892
 21
89.833817163
  0
LINE
  5
329
100
AcDbEntity
  8
IMPORT_IGES
100
AcDbLine
 62
7
  6
CONTINUOUS
 10
46.6050220129
 20
89.8370426372
 11
46.8638754892
 21
89.833817163
  0
LINE
  5
32A
100
AcDbEntity
  8
IMPORT_IGES
100
AcDbLine
 62
7
  6
CONTINUOUS
 10
189.7501453652
 20
89.837636286
 11
190.0344473197
 21
89.8339483969
  0
LINE
  5
32B
100
AcDbEntity
  8
IMPORT_IGES
100
AcDbLine
 62
250
  6
CONTINUOUS
 10
46.6277957018
 20
89.8371199011
 11
46.6050220129
 21
89.8370426372
  0
LINE
  5
32C
100
AcDbEntity
  8
IMPORT_IGES
100
AcDbLine
 62
250
  6
CONTINUOUS
 10
46.5644607692
 20
89.837656819
 11
46.5389423012
 21
89.8384967829
  0
LINE
  5
32D
100
AcDbEntity
  8
IMPORT_IGES
100
AcDbLine
 62
250
  6
CONTINUOUS
 10
189.7501453652
 20
89.837636286
 11
189.7699657971
 21
89.8377547596
  0
LINE
  5
32E
100
AcDbEntity
  8
IMPORT_IGES
100
AcDbLine
 62
7
  6
CONTINUOUS
 10
46.4472979767
 20
89.8396198701
 11
46.6050220129
 21
89.8370426372
  0
LINE
  5
32F
100
AcDbEntity
  8
IMPORT_IGES
100
AcDbLine
 62
7
  6
CONTINUOUS
 10
189.4876216243
 20
89.8424888053
 11
189.7501453652
 21
89.837636286
  0
LINE
  5
330
100
AcDbEntity
  8
IMPORT_IGES
100
AcDbLine
 62
250
  6
CONTINUOUS
 10
189.4876216243
 20
89.8424888053
 11
189.5316398193
 21
89.8420934523
  0
LINE
  5
331
100
AcDbEntity
  8
IMPORT_IGES
100
AcDbLine
 62
7
  6
CONTINUOUS
 10
186.1973388862
 20
89.9392471218
 11
186.5965910801
 21
89.93053537
  0
LINE
  5
332
100
AcDbEntity
  8
IMPORT_IGES
100
AcDbLine
 62
7
  6
CONTINUOUS
 10
189.328006448
 20
89.8463499948
 11
189.4876216243
 21
89.8424888053
  0
LINE
  5
333
100
AcDbEntity
  8
IMPORT_IGES
100
AcDbLine
 62
7
  6
CONTINUOUS
 10
186.5965910801
 20
89.93053537
 11
186.8560167227
 21
89.9236642533
  0
LINE
  5
334
100
AcDbEntity
  8
IMPORT_IGES
100
AcDbLine
 62
250
  6
CONTINUOUS
 10
186.1973388862
 20
89.9392471218
 11
186.3007478032
 21
89.9375340446
  0
LINE
  5
335
100
AcDbEntity
  8
IMPORT_IGES
100
AcDbLine
 62
7
  6
CONTINUOUS
 10
186.8560167227
 20
89.9236642533
 11
186.9527581679
 21
89.9207391114
  0
LINE
  5
336
100
AcDbEntity
  8
IMPORT_IGES
100
AcDbLine
 62
7
  6
CONTINUOUS
 10
189.328006448
 20
89.8463499948
 11
186.952777296
 21
89.92073851
  0
LWPOLYLINE
  5
337
100
AcDbEntity
  8
IMPORT_IGES
100
AcDbPolyline
 62
7
  6
CONTINUOUS
 90
3
 70
0
 10
185.8548323047
 20
89.9507005936
 10
186.0266390291
 20
89.9442887151
 10
186.1973388862
 20
89.9392471218
  0
LINE
  5
338
100
AcDbEntity
  8
IMPORT_IGES
100
AcDbLine
 62
7
  6
CONTINUOUS
 10
184.6454796293
 20
90.0058961435
 11
184.9881712058
 21
89.991337744
  0
LINE
  5
339
100
AcDbEntity
  8
IMPORT_IGES
100
AcDbLine
 62
7
  6
CONTINUOUS
 10
185.5084237837
 20
89.9662249608
 11
185.8548323047
 21
89.9507005936
  0
LINE
  5
33A
100
AcDbEntity
  8
IMPORT_IGES
100
AcDbLine
 62
7
  6
CONTINUOUS
 10
184.9881712058
 20
89.991337744
 11
185.5084237837
 21
89.9662249608
  0
LWPOLYLINE
  5
33B
100
AcDbEntity
  8
IMPORT_IGES
100
AcDbPolyline
 62
250
  6
CONTINUOUS
 90
3
 70
0
 10
185.923821163
 20
89.952666031
 10
186.0503208558
 20
89.9463846517
 10
186.1759630692
 20
89.9412309457
  0
LINE
  5
33C
100
AcDbEntity
  8
IMPORT_IGES
100
AcDbLine
 62
250
  6
CONTINUOUS
 10
184.8679706639
 20
90.0137374128
 11
185.1468337911
 21
89.9989752841
  0
LINE
  5
33D
100
AcDbEntity
  8
IMPORT_IGES
100
AcDbLine
 62
250
  6
CONTINUOUS
 10
185.6682480169
 20
89.9673758534
 11
185.923821163
 21
89.952666031
  0
LINE
  5
33E
100
AcDbEntity
  8
IMPORT_IGES
100
AcDbLine
 62
250
  6
CONTINUOUS
 10
185.1468337911
 20
89.9989752841
 11
185.6682480169
 21
89.9673758534
  0
LINE
  5
33F
100
AcDbEntity
  8
IMPORT_IGES
100
AcDbLine
 62
7
  6
CONTINUOUS
 10
141.067946091
 20
143.3388212977
 11
141.210597837
 21
143.1986411302
  0
LINE
  5
340
100
AcDbEntity
  8
IMPORT_IGES
100
AcDbLine
 62
7
  6
CONTINUOUS
 10
144.6070102863
 20
146.6548981439
 11
145.8662533564
 21
145.3286977208
  0
LINE
  5
341
100
AcDbEntity
  8
IMPORT_IGES
100
AcDbLine
 62
7
  6
CONTINUOUS
 10
143.2775504355
 20
148.0550323865
 11
144.4692079858
 21
146.800013234
  0
LINE
  5
342
100
AcDbEntity
  8
IMPORT_IGES
100
AcDbLine
 62
7
  6
CONTINUOUS
 10
146.6042829165
 20
144.5514558949
 11
147.8673164276
 21
143.2212658828
  0
LINE
  5
343
100
AcDbEntity
  8
IMPORT_IGES
100
AcDbLine
 62
7
  6
CONTINUOUS
 10
140.9374251483
 20
150.5195770977
 11
143.0413061483
 21
148.3038349579
  0
LINE
  5
344
100
AcDbEntity
  8
IMPORT_IGES
100
AcDbLine
 62
7
  6
CONTINUOUS
 10
145.8908953983
 20
145.593205219
 11
144.7472686477
 21
146.7976416909
  0
LINE
  5
345
100
AcDbEntity
  8
IMPORT_IGES
100
AcDbLine
 62
7
  6
CONTINUOUS
 10
144.6094663983
 20
146.942756719
 11
143.2500688983
 21
148.374434719
  0
LINE
  5
346
100
AcDbEntity
  8
IMPORT_IGES
100
AcDbLine
 62
7
  6
CONTINUOUS
 10
148.0123859976
 20
143.3589423963
 11
146.0866854839
 21
145.387033945
  0
LINE
  5
347
100
AcDbEntity
  8
IMPORT_IGES
100
AcDbLine
 62
7
  6
CONTINUOUS
 10
143.0138221405
 20
148.6232395414
 11
140.9374251483
 21
150.8100363777
  0
LWPOLYLINE
  5
348
100
AcDbEntity
  8
IMPORT_IGES
100
AcDbPolyline
 62
7
  6
CONTINUOUS
 90
19
 70
0
 10
146.333421465
 20
149.6959234095
 10
146.3053099447
 20
149.7270427577
 10
146.2737692153
 20
149.7572723165
 10
146.2387992766
 20
149.786612086
 10
146.2003279869
 20
149.8151835491
 10
146.1584274881
 20
149.8428652228
 10
146.1133142052
 20
149.8692926584
 10
146.0648293438
 20
149.8943945122
 10
146.0131316984
 20
149.9182421278
 10
145.958914078
 20
149.9406850875
 10
145.9023019938
 20
149.9616929324
 10
145.8431699347
 20
149.9812961213
 10
145.7818341761
 20
149.9994356122
 10
145.7184055801
 20
150.0160582262
 10
145.6527732845
 20
150.0312171421
 10
145.5849209791
 20
150.0450128547
 10
145.5148432269
 20
150.057478862
 10
145.4425454648
 20
150.0685816659
 10
145.3680276928
 20
150.0783212663
  0
LINE
  5
349
100
AcDbEntity
  8
IMPORT_IGES
100
AcDbLine
 62
7
  6
CONTINUOUS
 10
175.2314041149
 20
155.7885164593
 11
175.2314041149
 21
160.2882384593
  0
LINE
  5
34A
100
AcDbEntity
  8
IMPORT_IGES
100
AcDbLine
 62
7
  6
CONTINUOUS
 10
176.1706161149
 20
160.2882384593
 11
176.1706161149
 21
155.7885164593
  0
LINE
  5
34B
100
AcDbEntity
  8
IMPORT_IGES
100
AcDbLine
 62
7
  6
CONTINUOUS
 10
177.5747441149
 20
155.7885164593
 11
177.7774251149
 21
158.7265734593
  0
LINE
  5
34C
100
AcDbEntity
  8
IMPORT_IGES
100
AcDbLine
 62
7
  6
CONTINUOUS
 10
177.0824981149
 20
160.2879684593
 11
176.6762231149
 21
155.7885164593
  0
LINE
  5
34D
100
AcDbEntity
  8
IMPORT_IGES
100
AcDbLine
 62
7
  6
CONTINUOUS
 10
173.9442901149
 20
160.2879684593
 11
173.0604131149
 21
157.1908564593
  0
LINE
  5
34E
100
AcDbEntity
  8
IMPORT_IGES
100
AcDbLine
 62
7
  6
CONTINUOUS
 10
182.7982411149
 20
160.2879684593
 11
181.3869261149
 21
155.7885164593
  0
LINE
  5
34F
100
AcDbEntity
  8
IMPORT_IGES
100
AcDbLine
 62
7
  6
CONTINUOUS
 10
173.4365561149
 20
155.7885164593
 11
174.8828601149
 21
160.2879684593
  0
LINE
  5
350
100
AcDbEntity
  8
IMPORT_IGES
100
AcDbLine
 62
7
  6
CONTINUOUS
 10
179.8894371149
 20
160.2879684593
 11
178.9502261149
 21
157.7898584593
  0
LINE
  5
351
100
AcDbEntity
  8
IMPORT_IGES
100
AcDbLine
 62
7
  6
CONTINUOUS
 10
179.0109591149
 20
155.7885164593
 11
180.1276821149
 21
158.7143264593
  0
LINE
  5
352
100
AcDbEntity
  8
IMPORT_IGES
100
AcDbLine
 62
7
  6
CONTINUOUS
 10
147.8673164276
 20
143.2212658828
 11
148.0123859976
 21
143.3589423963
  0
LINE
  5
353
100
AcDbEntity
  8
IMPORT_IGES
100
AcDbLine
 62
7
  6
CONTINUOUS
 10
146.5370881361
 20
144.4957794175
 11
146.6042829165
 21
144.5514558949
  0
LWPOLYLINE
  5
354
100
AcDbEntity
  8
IMPORT_IGES
100
AcDbPolyline
 62
7
  6
CONTINUOUS
 90
16
 70
0
 10
143.3701357564
 20
149.9027600268
 10
143.3226075848
 20
149.8800538802
 10
143.277539123
 20
149.8562037821
 10
143.2349303711
 20
149.8312097323
 10
143.1947211189
 20
149.8050049265
 10
143.1569715765
 20
149.7776561691
 10
143.1218623748
 20
149.7493638731
 10
143.0893970865
 20
149.7200141511
 10
143.059572139
 20
149.6897208905
 10
143.0325574444
 20
149.6590261669
 10
143.0084724668
 20
149.6278965909
 10
142.9871977422
 20
149.5963655518
 10
142.9685447912
 20
149.5650752937
 10
142.9524507874
 20
149.5342398978
 10
142.9389785572
 20
149.5036452828
 10
142.9281281007
 20
149.4732914487
  0
LWPOLYLINE
  5
355
100
AcDbEntity
  8
IMPORT_IGES
100
AcDbPolyline
 62
250
  6
CONTINUOUS
 90
27
 70
0
 10
253.3305494273
 20
103.4595129499
 10
253.3890198515
 20
103.460499499
 10
253.4470103953
 20
103.4624001328
 10
253.5045012988
 20
103.4652148738
 10
253.561115749
 20
103.4689259501
 10
253.6161484174
 20
103.4734701017
 10
253.6689675369
 20
103.4787518402
 10
253.7199432926
 20
103.4847645486
 10
253.7698474876
 20
103.49159363
 10
253.8188252335
 20
103.4992899757
 10
253.8663185686
 20
103.5077982772
 10
253.9119871808
 20
103.5170748947
 10
253.9555576121
 20
103.5270730854
 10
253.9969638709
 20
103.5377869749
 10
254.0361748161
 20
103.5492296689
 10
254.0731044475
 20
103.5614124502
 10
254.107441516
 20
103.5742719846
 10
254.1388422812
 20
103.5877018463
 10
254.1670711189
 20
103.6016003202
 10
254.1921407845
 20
103.6159726424
 10
254.214076687
 20
103.6308687328
 10
254.2328257972
 20
103.6463473698
 10
254.2480698613
 20
103.6622595798
 10
254.2595316662
 20
103.6783350307
 10
254.2671989111
 20
103.6944368298
 10
254.2711596856
 20
103.7105740074
 10
254.2717727565
 20
103.7193877119
  0
LINE
  5
356
100
AcDbEntity
  8
IMPORT_IGES
100
AcDbLine
 62
250
  6
CONTINUOUS
 10
253.3305494273
 20
103.4595129499
 11
45.3610511059
 21
103.459447535
  0
LINE
  5
357
100
AcDbEntity
  8
IMPORT_IGES
100
AcDbLine
 62
250
  6
CONTINUOUS
 10
44.342951857
 20
108.8042150281
 11
254.289894429
 21
108.8042150281
  0
LINE
  5
358
100
AcDbEntity
  8
IMPORT_IGES
100
AcDbLine
 62
7
  6
CONTINUOUS
 10
171.1824611149
 20
160.2879684593
 11
172.6088751149
 21
155.7885164593
  0
LINE
  5
359
100
AcDbEntity
  8
IMPORT_IGES
100
AcDbLine
 62
7
  6
CONTINUOUS
 10
173.0604131149
 20
157.1908564593
 11
172.2027361149
 21
160.2879684593
  0
LINE
  5
35A
100
AcDbEntity
  8
IMPORT_IGES
100
AcDbLine
 62
7
  6
CONTINUOUS
 10
181.2394451149
 20
155.7885164593
 11
180.8186961149
 21
160.2879684593
  0
LINE
  5
35B
100
AcDbEntity
  8
IMPORT_IGES
100
AcDbLine
 62
7
  6
CONTINUOUS
 10
180.1276821149
 20
158.7143264593
 11
180.3206461149
 21
155.7885164593
  0
LINE
  5
35C
100
AcDbEntity
  8
IMPORT_IGES
100
AcDbLine
 62
250
  6
CONTINUOUS
 10
183.9112997813
 20
90.0214089144
 11
183.9112997813
 21
90.0385950984
  0
LINE
  5
35D
100
AcDbEntity
  8
IMPORT_IGES
100
AcDbLine
 62
7
  6
CONTINUOUS
 10
185.3631573801
 20
155.7885169584
 11
185.3631573801
 21
160.2353997689
  0
LINE
  5
35E
100
AcDbEntity
  8
IMPORT_IGES
100
AcDbLine
 62
7
  6
CONTINUOUS
 10
186.2674474231
 20
158.2862550654
 11
186.2674474231
 21
159.5214421812
  0
LINE
  5
35F
100
AcDbEntity
  8
IMPORT_IGES
100
AcDbLine
 62
7
  6
CONTINUOUS
 10
186.29859028
 20
157.5493536611
 11
186.29859028
 21
155.7885169584
  0
LINE
  5
360
100
AcDbEntity
  8
IMPORT_IGES
100
AcDbLine
 62
7
  6
CONTINUOUS
 10
187.8099639344
 20
157.9259448324
 11
187.8099639344
 21
157.8747606229
  0
LINE
  5
361
100
AcDbEntity
  8
IMPORT_IGES
100
AcDbLine
 62
7
  6
CONTINUOUS
 10
189.0011658114
 20
115.6526793503
 11
189.0011658114
 21
117.5427086891
  0
LINE
  5
362
100
AcDbEntity
  8
IMPORT_IGES
100
AcDbLine
 62
7
  6
CONTINUOUS
 10
189.0011658114
 20
118.6427086891
 11
189.0011658114
 21
120.5327380173
  0
LINE
  5
363
100
AcDbEntity
  8
IMPORT_IGES
100
AcDbLine
 62
7
  6
CONTINUOUS
 10
190.0900184185
 20
115.652679361
 11
190.0900184185
 21
117.5427086891
  0
LINE
  5
364
100
AcDbEntity
  8
IMPORT_IGES
100
AcDbLine
 62
7
  6
CONTINUOUS
 10
190.0900184185
 20
118.6427086891
 11
190.0900184185
 21
120.532738028
  0
LINE
  5
365
100
AcDbEntity
  8
IMPORT_IGES
100
AcDbLine
 62
250
  6
CONTINUOUS
 10
190.7903596574
 20
89.8304216032
 11
190.7903596574
 21
89.8300789282
  0
LWPOLYLINE
  5
366
100
AcDbEntity
  8
IMPORT_IGES
100
AcDbPolyline
 62
7
  6
CONTINUOUS
 90
28
 70
0
 10
187.5337773958
 20
158.9854678768
 10
187.5335862413
 20
158.9366222738
 10
187.5312314515
 20
158.8894500963
 10
187.5267130264
 20
158.8439513445
 10
187.5200641809
 20
158.8001140874
 10
187.5112517
 20
158.7579502559
 10
187.5001759392
 20
158.7174956426
 10
187.4867807355
 20
158.6787835733
 10
187.4711222517
 20
158.6417807222
 10
187.4532693321
 20
158.6064229049
 10
187.4331582994
 20
158.5726075763
 10
187.4108528309
 20
158.5404372816
 10
187.3866128014
 20
158.5101554715
 10
187.3605215276
 20
158.4818027672
 10
187.3324956928
 20
158.4553385476
 10
187.3025452226
 20
158.4308844002
 10
187.2705788203
 20
158.4085014447
 10
187.2366877827
 20
158.3881285614
 10
187.2011559248
 20
158.3697039791
 10
187.1641437198
 20
158.3532763771
 10
187.1254906945
 20
158.3387970761
 10
187.0849992456
 20
158.3260582669
 10
187.0425609378
 20
158.3149723486
 10
186.9982842062
 20
158.3056269221
 10
186.9522967533
 20
158.2980769812
 10
186.9046411464
 20
158.2923408571
 10
186.855274818
 20
158.2884002185
 10
186.8041977683
 20
158.2862550654
  0
LINE
  5
367
100
AcDbEntity
  8
IMPORT_IGES
100
AcDbLine
 62
7
  6
CONTINUOUS
 10
182.7672331149
 20
157.3818304593
 11
183.2348821149
 21
159.0516334593
  0
LINE
  5
368
100
AcDbEntity
  8
IMPORT_IGES
100
AcDbLine
 62
7
  6
CONTINUOUS
 10
182.3159491149
 20
155.7885164593
 11
182.5751121149
 21
156.6867674593
  0
LWPOLYLINE
  5
369
100
AcDbEntity
  8
IMPORT_IGES
100
AcDbPolyline
 62
7
  6
CONTINUOUS
 90
94
 70
0
 10
187.8099639344
 20
157.9259448324
 10
187.8180406461
 20
157.9302486703
 10
187.8263313207
 20
157.9348064082
 10
187.8348359582
 20
157.9396180459
 10
187.843542495
 20
157.9446735552
 10
187.8524629946
 20
157.9499829645
 10
187.8616336478
 20
157.9555763582
 10
187.8710621483
 20
157.9614359116
 10
187.8807408024
 20
157.9675794495
 10
187.890682719
 20
157.9740905309
 10
187.9008913728
 20
157.9809681057
 10
187.9113632892
 20
157.9882132241
 10
187.922101154
 20
157.9959125954
 10
187.9331037707
 20
158.0040732772
 10
187.9443723357
 20
158.0126882121
 10
187.9559131244
 20
158.0218229361
 10
187.9677247083
 20
158.0314771933
 10
187.9798085158
 20
158.0416512397
 10
187.992175107
 20
158.0524113799
 10
188.0048235484
 20
158.0637499962
 10
188.0177547735
 20
158.0756747062
 10
188.0309821434
 20
158.088274668
 10
188.0445124991
 20
158.1015324775
 10
188.0583389996
 20
158.1154655386
 10
188.0724544823
 20
158.1302152212
 10
188.0868660952
 20
158.145767165
 10
188.1015666904
 20
158.1621357302
 10
188.1165276615
 20
158.179505367
 10
188.1317615608
 20
158.1978655723
 10
188.147255836
 20
158.2172268492
 10
188.162944224
 20
158.2378051564
 10
188.1788334663
 20
158.2595686151
 10
188.1949168213
 20
158.2825491042
 10
188.2111078018
 20
158.307058219
 10
188.2274844334
 20
158.3331805518
 10
188.2439686904
 20
158.3608315103
 10
188.2602400085
 20
158.3900689137
 10
188.2763768298
 20
158.4211165504
 10
188.2923007121
 20
158.4537506321
 10
188.3074557649
 20
158.4873576123
 10
188.3217363958
 20
158.5218478241
 10
188.3352481971
 20
158.5573109344
 10
188.3477520553
 20
158.5934023985
 10
188.3591823665
 20
158.6300028475
 10
188.3696047345
 20
158.6672316503
 10
188.3789768573
 20
158.7051023679
 10
188.3873038179
 20
158.7435757403
 10
188.3945805333
 20
158.7826910276
 10
188.4007494514
 20
158.8225795711
 10
188.4058203847
 20
158.8632668458
 10
188.4097835207
 20
158.9047273767
 10
188.4125518706
 20
158.9470160804
 10
188.4141060766
 20
158.9905122942
 10
188.4144654965
 20
159.0348366807
 10
188.413601215
 20
159.0789061448
 10
188.4114611432
 20
159.1226307957
 10
188.40809737
 20
159.1661005241
 10
188.4036372464
 20
159.2085019068
 10
188.3981015922
 20
159.2494873114
 10
188.3914695876
 20
159.2894043703
 10
188.3838061241
 20
159.3284825575
 10
188.3751122462
 20
159.3667648633
 10
188.3653869093
 20
159.4042082973
 10
188.3546918708
 20
159.4409133625
 10
188.3430377914
 20
159.4768937205
 10
188.3304140103
 20
159.5121357096
 10
188.3168503028
 20
159.546698848
 10
188.3023601655
 20
159.5805718799
 10
188.2869301018
 20
159.613766061
 10
188.2705493976
 20
159.6463746769
 10
188.2532031256
 20
159.6784434192
 10
188.2349062132
 20
159.7099265964
 10
188.2156927279
 20
159.7407804198
 10
188.1955672947
 20
159.7709997552
 10
188.1745252886
 20
159.8005897367
 10
188.1525869023
 20
159.8295219781
 10
188.1297485303
 20
159.8578036614
 10
188.106013778
 20
159.8854276045
 10
188.0814136541
 20
159.9123438746
 10
188.0559209002
 20
159.9385726558
 10
188.0295627746
 20
159.9640937641
 10
188.0024520617
 20
159.9887967137
 10
187.9743525505
 20
160.0128190763
 10
187.9455004518
 20
160.0360232802
 10
187.9167171826
 20
160.0578861253
 10
187.8880518722
 20
160.0783162552
 10
187.8594553912
 20
160.0974050263
 10
187.8316017678
 20
160.1149033075
 10
187.8047319417
 20
160.1306527557
 10
187.7786049733
 20
160.144811714
 10
187.7531720712
 20
160.1576060812
 10
187.7284169718
 20
160.1691111571
 10
187.7043559388
 20
160.1792516419
 10
187.6809889721
 20
160.1880275358
  0
LINE
  5
36A
100
AcDbEntity
  8
IMPORT_IGES
100
AcDbLine
 62
7
  6
CONTINUOUS
 10
108.5428278675
 20
117.5427086891
 11
109.6316804746
 21
117.5427086891
  0
LINE
  5
36B
100
AcDbEntity
  8
IMPORT_IGES
100
AcDbLine
 62
7
  6
CONTINUOUS
 10
189.0011658114
 20
117.5427086891
 11
190.0900184185
 21
117.5427086891
  0
LINE
  5
36C
100
AcDbEntity
  8
IMPORT_IGES
100
AcDbLine
 62
7
  6
CONTINUOUS
 10
108.5428278675
 20
118.6427086891
 11
109.6316804746
 21
118.6427086891
  0
LINE
  5
36D
100
AcDbEntity
  8
IMPORT_IGES
100
AcDbLine
 62
7
  6
CONTINUOUS
 10
189.0011658114
 20
118.6427086891
 11
190.0900184185
 21
118.6427086891
  0
LINE
  5
36E
100
AcDbEntity
  8
IMPORT_IGES
100
AcDbLine
 62
7
  6
CONTINUOUS
 10
177.7774251149
 20
158.7265734593
 11
178.8792351149
 21
155.7885164593
  0
LINE
  5
36F
100
AcDbEntity
  8
IMPORT_IGES
100
AcDbLine
 62
7
  6
CONTINUOUS
 10
178.9502261149
 20
157.7898584593
 11
178.0209331149
 21
160.2879684593
  0
LINE
  5
370
100
AcDbEntity
  8
IMPORT_IGES
100
AcDbLine
 62
7
  6
CONTINUOUS
 10
185.0873591149
 20
155.7885164593
 11
183.7068161149
 21
160.2879684593
  0
LINE
  5
371
100
AcDbEntity
  8
IMPORT_IGES
100
AcDbLine
 62
7
  6
CONTINUOUS
 10
187.504445384
 20
156.5829019419
 11
187.6418594562
 21
156.1169749511
  0
LINE
  5
372
100
AcDbEntity
  8
IMPORT_IGES
100
AcDbLine
 62
7
  6
CONTINUOUS
 10
187.6418594562
 20
156.1169749511
 11
187.7368639138
 21
155.7885169584
  0
LINE
  5
373
100
AcDbEntity
  8
IMPORT_IGES
100
AcDbLine
 62
7
  6
CONTINUOUS
 10
183.8541631149
 20
156.6867674593
 11
184.0974681149
 21
155.7885164593
  0
LINE
  5
374
100
AcDbEntity
  8
IMPORT_IGES
100
AcDbLine
 62
7
  6
CONTINUOUS
 10
183.2348821149
 20
159.0516334593
 11
183.6664621149
 21
157.3818304593
  0
LINE
  5
375
100
AcDbEntity
  8
IMPORT_IGES
100
AcDbLine
 62
7
  6
CONTINUOUS
 10
200.5455921149
 20
152.9885169584
 11
200.5455921149
 21
127.5885169584
  0
LINE
  5
376
100
AcDbEntity
  8
IMPORT_IGES
100
AcDbLine
 62
7
  6
CONTINUOUS
 10
347.016423143
 20
138.7403763879
 11
345.516423143
 21
138.6216562202
  0
LINE
  5
377
100
AcDbEntity
  8
IMPORT_IGES
100
AcDbLine
 62
7
  6
CONTINUOUS
 10
200.2455921149
 20
127.2885169584
 11
159.8455921149
 21
127.2885169584
  0
LINE
  5
378
100
AcDbEntity
  8
IMPORT_IGES
100
AcDbLine
 62
7
  6
CONTINUOUS
 10
365.016423143
 20
132.3610612635
 11
353.016423143
 21
132.3610612635
  0
LWPOLYLINE
  5
379
100
AcDbEntity
  8
IMPORT_IGES
100
AcDbPolyline
 62
7
  6
CONTINUOUS
 90
5
 70
0
 10
187.3261695963
 20
157.1528980063
 10
187.3703838813
 20
157.0159383577
 10
187.4148560917
 20
156.8752918612
 10
187.4595862276
 20
156.7309585166
 10
187.504445384
 20
156.5829019419
  0
LWPOLYLINE
  5
37A
100
AcDbEntity
  8
IMPORT_IGES
100
AcDbPolyline
 62
7
  6
CONTINUOUS
 90
21
 70
0
 10
188.3033198623
 20
157.0661805235
 10
188.287040818
 20
157.1246061305
 10
188.270361091
 20
157.1816043284
 10
188.2534510559
 20
157.237263584
 10
188.2361403382
 20
157.2914954305
 10
188.2179178145
 20
157.3440344667
 10
188.1987056968
 20
157.394864583
 10
188.1785817732
 20
157.444001889
 10
188.1572682833
 20
157.4912293121
 10
188.1347227838
 20
157.5366172101
 10
188.1109877182
 20
157.5800952252
 10
188.0859126564
 20
157.6212352106
 10
188.0593963647
 20
157.6600029623
 10
188.0315400768
 20
157.6964326843
 10
188.0024970647
 20
157.7301988421
 10
187.9720836186
 20
157.7612466002
 10
187.9404834482
 20
157.7896307941
 10
187.9084009545
 20
157.8151903961
 10
187.8760709378
 20
157.8378717303
 10
187.8432585978
 20
157.8577284726
 10
187.8099639344
 20
157.8747606229
  0
LINE
  5
37B
100
AcDbEntity
  8
IMPORT_IGES
100
AcDbLine
 62
7
  6
CONTINUOUS
 10
188.4292890313
 20
156.593698714
 11
188.3033198623
 21
157.0661805235
  0
LINE
  5
37C
100
AcDbEntity
  8
IMPORT_IGES
100
AcDbLine
 62
7
  6
CONTINUOUS
 10
188.6402766931
 20
155.7885169584
 11
188.4292890313
 21
156.593698714
  0
LINE
  5
37D
100
AcDbEntity
  8
IMPORT_IGES
100
AcDbLine
 62
7
  6
CONTINUOUS
 10
375.7235299242
 20
137.3610612636
 11
381.516423143
 21
137.3610612636
  0
LINE
  5
37E
100
AcDbEntity
  8
ASSI
100
AcDbLine
 62
7
  6
CONTINUOUS
 10
365.016423143
 20
137.4610612646
 11
375.4235299242
 21
137.4610612677
  0
LINE
  5
37F
100
AcDbEntity
  8
IMPORT_IGES
100
AcDbLine
 62
7
  6
CONTINUOUS
 10
347.9014917665
 20
138.3610612635
 11
365.016423143
 21
138.3610612635
  0
LINE
  5
380
100
AcDbEntity
  8
IMPORT_IGES
100
AcDbLine
 62
7
  6
CONTINUOUS
 10
147.7435318983
 20
140.188772719
 11
141.5417398983
 21
140.188772719
  0
LINE
  5
381
100
AcDbEntity
  8
IMPORT_IGES
100
AcDbLine
 62
7
  6
CONTINUOUS
 10
141.5417398983
 20
141.698956219
 11
147.7435318983
 21
141.698956219
  0
LINE
  5
382
100
AcDbEntity
  8
ASSI
100
AcDbLine
 62
7
  6
CONTINUOUS
 10
375.4235299243
 20
142.2610612594
 11
365.016423143
 21
142.2610612625
  0
LINE
  5
383
100
AcDbEntity
  8
IMPORT_IGES
100
AcDbLine
 62
7
  6
CONTINUOUS
 10
381.516423143
 20
142.3610612634
 11
375.7235299242
 21
142.3610612634
  0
LINE
  5
384
100
AcDbEntity
  8
IMPORT_IGES
100
AcDbLine
 62
7
  6
CONTINUOUS
 10
127.0403755152
 20
142.4361488646
 11
125.2541323152
 21
142.4361488646
  0
LINE
  5
385
100
AcDbEntity
  8
IMPORT_IGES
100
AcDbLine
 62
7
  6
CONTINUOUS
 10
365.216423143
 20
142.9417063852
 11
365.016423143
 21
142.9417063852
  0
LINE
  5
386
100
AcDbEntity
  8
IMPORT_IGES
100
AcDbLine
 62
7
  6
CONTINUOUS
 10
365.216423143
 20
143.2239644785
 11
365.016423143
 21
143.2239644785
  0
LINE
  5
387
100
AcDbEntity
  8
IMPORT_IGES
100
AcDbLine
 62
7
  6
CONTINUOUS
 10
365.216423143
 20
143.3449322541
 11
365.016423143
 21
143.3449322541
  0
LINE
  5
388
100
AcDbEntity
  8
IMPORT_IGES
100
AcDbLine
 62
7
  6
CONTINUOUS
 10
125.2541317996
 20
143.3541488646
 11
127.0403755152
 21
143.3541488646
  0
LINE
  5
389
100
AcDbEntity
  8
IMPORT_IGES
100
AcDbLine
 62
7
  6
CONTINUOUS
 10
365.216423143
 20
143.5062225719
 11
365.016423143
 21
143.5062225719
  0
LINE
  5
38A
100
AcDbEntity
  8
IMPORT_IGES
100
AcDbLine
 62
7
  6
CONTINUOUS
 10
365.216423143
 20
143.6271903475
 11
365.016423143
 21
143.6271903475
  0
LINE
  5
38B
100
AcDbEntity
  8
IMPORT_IGES
100
AcDbLine
 62
7
  6
CONTINUOUS
 10
365.216423143
 20
143.7884806652
 11
365.016423143
 21
143.7884806652
  0
LINE
  5
38C
100
AcDbEntity
  8
IMPORT_IGES
100
AcDbLine
 62
7
  6
CONTINUOUS
 10
365.216423143
 20
143.9094482918
 11
365.016423143
 21
143.9094482918
  0
LINE
  5
38D
100
AcDbEntity
  8
IMPORT_IGES
100
AcDbLine
 62
7
  6
CONTINUOUS
 10
143.8712415861
 20
143.9514853962
 11
143.4745779871
 21
143.9514853962
  0
LINE
  5
38E
100
AcDbEntity
  8
IMPORT_IGES
100
AcDbLine
 62
7
  6
CONTINUOUS
 10
145.37908405
 20
144.2735503568
 11
143.8712415861
 21
144.2735503568
  0
LINE
  5
38F
100
AcDbEntity
  8
IMPORT_IGES
100
AcDbLine
 62
7
  6
CONTINUOUS
 10
145.3119812726
 20
144.4875889379
 11
143.5844062401
 21
144.4875889377
  0
LINE
  5
390
100
AcDbEntity
  8
IMPORT_IGES
100
AcDbLine
 62
7
  6
CONTINUOUS
 10
365.216423143
 20
144.5949322541
 11
365.016423143
 21
144.5949322541
  0
LINE
  5
391
100
AcDbEntity
  8
IMPORT_IGES
100
AcDbLine
 62
7
  6
CONTINUOUS
 10
365.216423143
 20
144.7158999552
 11
365.016423143
 21
144.7158999552
  0
LINE
  5
392
100
AcDbEntity
  8
IMPORT_IGES
100
AcDbLine
 62
7
  6
CONTINUOUS
 10
365.216423143
 20
144.8771903102
 11
365.016423143
 21
144.8771903102
  0
LINE
  5
393
100
AcDbEntity
  8
IMPORT_IGES
100
AcDbLine
 62
7
  6
CONTINUOUS
 10
365.016423143
 20
144.9981578742
 11
365.216423143
 21
144.9981578742
  0
LINE
  5
394
100
AcDbEntity
  8
IMPORT_IGES
100
AcDbLine
 62
7
  6
CONTINUOUS
 10
365.016423143
 20
145.1997709458
 11
365.216423143
 21
145.1997709458
  0
LINE
  5
395
100
AcDbEntity
  8
IMPORT_IGES
100
AcDbLine
 62
7
  6
CONTINUOUS
 10
365.016423143
 20
145.2804161047
 11
365.216423143
 21
145.2804161047
  0
LINE
  5
396
100
AcDbEntity
  8
IMPORT_IGES
100
AcDbLine
 62
7
  6
CONTINUOUS
 10
365.216423143
 20
145.3207386841
 11
365.016423143
 21
145.3207386841
  0
LINE
  5
397
100
AcDbEntity
  8
IMPORT_IGES
100
AcDbLine
 62
7
  6
CONTINUOUS
 10
365.216423143
 20
145.3610612635
 11
365.016423143
 21
145.3610612635
  0
LINE
  5
398
100
AcDbEntity
  8
IMPORT_IGES
100
AcDbLine
 62
7
  6
CONTINUOUS
 10
299.016423143
 20
145.3610612635
 11
325.016423143
 21
145.3610612635
  0
LINE
  5
399
100
AcDbEntity
  8
IMPORT_IGES
100
AcDbLine
 62
7
  6
CONTINUOUS
 10
365.016423143
 20
145.9572407787
 11
365.216423143
 21
145.9572407787
  0
LINE
  5
39A
100
AcDbEntity
  8
IMPORT_IGES
100
AcDbLine
 62
7
  6
CONTINUOUS
 10
323.016423143
 20
146.2710612635
 11
320.816423143
 21
146.2710612635
  0
LINE
  5
39B
100
AcDbEntity
  8
IMPORT_IGES
100
AcDbLine
 62
7
  6
CONTINUOUS
 10
318.316423143
 20
146.2710612635
 11
316.116423143
 21
146.2710612635
  0
LINE
  5
39C
100
AcDbEntity
  8
IMPORT_IGES
100
AcDbLine
 62
7
  6
CONTINUOUS
 10
313.616423143
 20
146.2710612635
 11
311.416423143
 21
146.2710612635
  0
LINE
  5
39D
100
AcDbEntity
  8
IMPORT_IGES
100
AcDbLine
 62
7
  6
CONTINUOUS
 10
308.916423143
 20
146.2710612635
 11
306.716423143
 21
146.2710612635
  0
LINE
  5
39E
100
AcDbEntity
  8
IMPORT_IGES
100
AcDbLine
 62
7
  6
CONTINUOUS
 10
304.216423143
 20
146.2710612635
 11
302.016423143
 21
146.2710612635
  0
LWPOLYLINE
  5
39F
100
AcDbEntity
  8
IMPORT_IGES
100
AcDbPolyline
 62
7
  6
CONTINUOUS
 90
37
 70
0
 10
145.3680364028
 20
149.860358848
 10
145.4172683744
 20
149.853564759
 10
145.4646803562
 20
149.8464088824
 10
145.5102723482
 20
149.8388912183
 10
145.5539882039
 20
149.8309912514
 10
145.5958840699
 20
149.8227294969
 10
145.636128385
 20
149.8141675008
 10
145.6747494111
 20
149.8053355233
 10
145.7117188864
 20
149.7962033041
 10
145.7471204643
 20
149.7867416079
 10
145.7809484175
 20
149.7769164042
 10
145.8132084733
 20
149.7667617235
 10
145.8440014661
 20
149.7563504219
 10
145.8733173008
 20
149.7456778097
 10
145.9011660725
 20
149.7347485765
 10
145.9276789006
 20
149.7236496474
 10
145.9528683996
 20
149.7124008046
 10
145.9767219549
 20
149.700982266
 10
145.9993328428
 20
149.6894216096
 10
146.0207088591
 20
149.6777101675
 10
146.0408422079
 20
149.6658566076
 10
146.0598027771
 20
149.6539145127
 10
146.0775922375
 20
149.6418721292
 10
146.0942089183
 20
149.6297412107
 10
146.1097176949
 20
149.6176106001
 10
146.1240911766
 20
149.6054977739
 10
146.137356754
 20
149.5933852556
 10
146.1496614742
 20
149.5813094585
 10
146.1609986191
 20
149.5692900866
 10
146.1713749067
 20
149.557307436
 10
146.1809575389
 20
149.5453388087
 10
146.1897583353
 20
149.5333945902
 10
146.1977654762
 20
149.521464395
 10
146.2051107053
 20
149.5094943686
 10
146.2118379371
 20
149.4974665597
 10
146.2179032572
 20
149.4853989197
 10
146.2233066654
 20
149.4732914487
  0
LWPOLYLINE
  5
3A0
100
AcDbEntity
  8
IMPORT_IGES
100
AcDbPolyline
 62
7
  6
CONTINUOUS
 90
10
 70
0
 10
144.3156216174
 20
150.1020461113
 10
144.2593471452
 20
150.0980942459
 10
144.2039222334
 20
150.0935325524
 10
144.1493468818
 20
150.088361031
 10
144.0956034895
 20
150.0825905281
 10
144.0427096574
 20
150.0762101972
 10
143.9907181886
 20
150.0691874986
 10
143.9396466838
 20
150.0615115856
 10
143.8894775422
 20
150.053193305
 10
143.8402107637
 20
150.0442326566
  0
LINE
  5
3A1
100
AcDbEntity
  8
IMPORT_IGES
100
AcDbLine
 62
7
  6
CONTINUOUS
 10
365.016423143
 20
146.9360956733
 11
365.216423143
 21
146.9360956733
  0
LINE
  5
3A2
100
AcDbEntity
  8
IMPORT_IGES
100
AcDbLine
 62
7
  6
CONTINUOUS
 10
365.016423143
 20
147.2754547183
 11
365.216423143
 21
147.2754547183
  0
LINE
  5
3A3
100
AcDbEntity
  8
IMPORT_IGES
100
AcDbLine
 62
7
  6
CONTINUOUS
 10
145.4135415346
 20
147.760985719
 11
144.2799088983
 21
147.760985719
  0
LINE
  5
3A4
100
AcDbEntity
  8
IMPORT_IGES
100
AcDbLine
 62
7
  6
CONTINUOUS
 10
254.2898944291
 20
147.8610612722
 11
268.816423143
 21
147.8610612722
  0
LINE
  5
3A5
100
AcDbEntity
  8
IMPORT_IGES
100
AcDbLine
 62
7
  6
CONTINUOUS
 10
146.834543419
 20
148.1802509264
 11
146.3470131523
 21
148.1802509264
  0
LINE
  5
3A6
100
AcDbEntity
  8
IMPORT_IGES
100
AcDbLine
 62
7
  6
CONTINUOUS
 10
144.2799088983
 20
148.189097719
 11
145.5910213983
 21
148.189097719
  0
LINE
  5
3A7
100
AcDbEntity
  8
IMPORT_IGES
100
AcDbLine
 62
7
  6
CONTINUOUS
 10
365.216423143
 20
148.2440766876
 11
365.016423143
 21
148.2440766876
  0
LINE
  5
3A8
100
AcDbEntity
  8
IMPORT_IGES
100
AcDbLine
 62
7
  6
CONTINUOUS
 10
146.6472103983
 20
148.372723219
 11
146.3649238983
 21
148.372723219
  0
LINE
  5
3A9
100
AcDbEntity
  8
IMPORT_IGES
100
AcDbLine
 62
7
  6
CONTINUOUS
 10
365.016423143
 20
148.4265455787
 11
365.216423143
 21
148.4265455787
  0
LINE
  5
3AA
100
AcDbEntity
  8
IMPORT_IGES
100
AcDbLine
 62
250
  6
CONTINUOUS
 10
365.016423143
 20
148.5176946088
 11
365.216423143
 21
148.5176946088
  0
LINE
  5
3AB
100
AcDbEntity
  8
IMPORT_IGES
100
AcDbLine
 62
7
  6
CONTINUOUS
 10
299.016423143
 20
148.6110612635
 11
302.016423143
 21
148.6110612635
  0
LINE
  5
3AC
100
AcDbEntity
  8
IMPORT_IGES
100
AcDbLine
 62
7
  6
CONTINUOUS
 10
304.216423143
 20
148.6110612635
 11
306.716423143
 21
148.6110612635
  0
LINE
  5
3AD
100
AcDbEntity
  8
IMPORT_IGES
100
AcDbLine
 62
7
  6
CONTINUOUS
 10
308.916423143
 20
148.6110612635
 11
311.416423143
 21
148.6110612635
  0
LINE
  5
3AE
100
AcDbEntity
  8
IMPORT_IGES
100
AcDbLine
 62
7
  6
CONTINUOUS
 10
313.616423143
 20
148.6110612635
 11
316.116423143
 21
148.6110612635
  0
LINE
  5
3AF
100
AcDbEntity
  8
IMPORT_IGES
100
AcDbLine
 62
7
  6
CONTINUOUS
 10
318.316423143
 20
148.6110612635
 11
320.816423143
 21
148.6110612635
  0
LINE
  5
3B0
100
AcDbEntity
  8
IMPORT_IGES
100
AcDbLine
 62
7
  6
CONTINUOUS
 10
323.016423143
 20
148.6110612635
 11
325.016423143
 21
148.6110612635
  0
LINE
  5
3B1
100
AcDbEntity
  8
IMPORT_IGES
100
AcDbLine
 62
250
  6
CONTINUOUS
 10
365.016423143
 20
148.7880737331
 11
365.216423143
 21
148.7880737331
  0
LINE
  5
3B2
100
AcDbEntity
  8
IMPORT_IGES
100
AcDbLine
 62
7
  6
CONTINUOUS
 10
146.2015438983
 20
148.926592219
 11
146.1082168983
 21
148.926592219
  0
LINE
  5
3B3
100
AcDbEntity
  8
IMPORT_IGES
100
AcDbLine
 62
7
  6
CONTINUOUS
 10
146.4165632794
 20
148.9266107483
 11
146.5590179574
 21
148.9266107483
  0
LINE
  5
3B4
100
AcDbEntity
  8
IMPORT_IGES
100
AcDbLine
 62
7
  6
CONTINUOUS
 10
302.016423143
 20
148.9880779173
 11
304.216423143
 21
148.9880779173
  0
LINE
  5
3B5
100
AcDbEntity
  8
IMPORT_IGES
100
AcDbLine
 62
7
  6
CONTINUOUS
 10
306.716423143
 20
148.9880779173
 11
308.916423143
 21
148.9880779173
  0
LINE
  5
3B6
100
AcDbEntity
  8
IMPORT_IGES
100
AcDbLine
 62
7
  6
CONTINUOUS
 10
311.416423143
 20
148.9880779173
 11
313.616423143
 21
148.9880779173
  0
LINE
  5
3B7
100
AcDbEntity
  8
IMPORT_IGES
100
AcDbLine
 62
7
  6
CONTINUOUS
 10
316.116423143
 20
148.9880779173
 11
318.316423143
 21
148.9880779173
  0
LINE
  5
3B8
100
AcDbEntity
  8
IMPORT_IGES
100
AcDbLine
 62
7
  6
CONTINUOUS
 10
320.816423143
 20
148.9880779173
 11
323.016423143
 21
148.9880779173
  0
LINE
  5
3B9
100
AcDbEntity
  8
IMPORT_IGES
100
AcDbLine
 62
7
  6
CONTINUOUS
 10
268.816423143
 20
149.2110612635
 11
299.016423143
 21
149.2110612635
  0
LINE
  5
3BA
100
AcDbEntity
  8
IMPORT_IGES
100
AcDbLine
 62
7
  6
CONTINUOUS
 10
302.016423143
 20
149.2110612635
 11
304.216423143
 21
149.2110612635
  0
LINE
  5
3BB
100
AcDbEntity
  8
IMPORT_IGES
100
AcDbLine
 62
7
  6
CONTINUOUS
 10
306.716423143
 20
149.2110612635
 11
308.916423143
 21
149.2110612635
  0
LINE
  5
3BC
100
AcDbEntity
  8
IMPORT_IGES
100
AcDbLine
 62
7
  6
CONTINUOUS
 10
311.416423143
 20
149.2110612635
 11
313.616423143
 21
149.2110612635
  0
LINE
  5
3BD
100
AcDbEntity
  8
IMPORT_IGES
100
AcDbLine
 62
7
  6
CONTINUOUS
 10
316.116423143
 20
149.2110612635
 11
318.316423143
 21
149.2110612635
  0
LINE
  5
3BE
100
AcDbEntity
  8
IMPORT_IGES
100
AcDbLine
 62
7
  6
CONTINUOUS
 10
320.816423143
 20
149.2110612635
 11
323.016423143
 21
149.2110612635
  0
LINE
  5
3BF
100
AcDbEntity
  8
IMPORT_IGES
100
AcDbLine
 62
250
  6
CONTINUOUS
 10
365.016423143
 20
149.2416891639
 11
365.216423143
 21
149.2416891639
  0
LINE
  5
3C0
100
AcDbEntity
  8
IMPORT_IGES
100
AcDbLine
 62
7
  6
CONTINUOUS
 10
143.1747193983
 20
149.250370219
 11
146.2317088983
 21
149.250370219
  0
LINE
  5
3C1
100
AcDbEntity
  8
IMPORT_IGES
100
AcDbLine
 62
7
  6
CONTINUOUS
 10
142.9591126981
 20
149.2592354478
 11
142.7012466823
 21
149.2592354478
  0
LINE
  5
3C2
100
AcDbEntity
  8
IMPORT_IGES
100
AcDbLine
 62
7
  6
CONTINUOUS
 10
146.2233066654
 20
149.4732914487
 11
143.7359040349
 21
149.4732914487
  0
LINE
  5
3C3
100
AcDbEntity
  8
IMPORT_IGES
100
AcDbLine
 62
7
  6
CONTINUOUS
 10
142.7012466823
 20
149.4732914487
 11
142.9281281007
 21
149.4732914487
  0
LINE
  5
3C4
100
AcDbEntity
  8
IMPORT_IGES
100
AcDbLine
 62
7
  6
CONTINUOUS
 10
144.3156216174
 20
149.6605730295
 11
145.3680451128
 21
149.6605730295
  0
LINE
  5
3C5
100
AcDbEntity
  8
IMPORT_IGES
100
AcDbLine
 62
250
  6
CONTINUOUS
 10
365.016423143
 20
149.810189439
 11
365.216423143
 21
149.810189439
  0
LINE
  5
3C6
100
AcDbEntity
  8
IMPORT_IGES
100
AcDbLine
 62
7
  6
CONTINUOUS
 10
143.3701357564
 20
150.0442326566
 11
143.8402107637
 21
150.0442326566
  0
LINE
  5
3C7
100
AcDbEntity
  8
IMPORT_IGES
100
AcDbLine
 62
7
  6
CONTINUOUS
 10
365.016423143
 20
150.056831557
 11
365.216423143
 21
150.056831557
  0
LINE
  5
3C8
100
AcDbEntity
  8
IMPORT_IGES
100
AcDbLine
 62
7
  6
CONTINUOUS
 10
144.3156216174
 20
150.1868114515
 11
145.3680451128
 21
150.1868114515
  0
LINE
  5
3C9
100
AcDbEntity
  8
IMPORT_IGES
100
AcDbLine
 62
7
  6
CONTINUOUS
 10
365.016423143
 20
150.3416201656
 11
365.216423143
 21
150.3416201656
  0
LINE
  5
3CA
100
AcDbEntity
  8
IMPORT_IGES
100
AcDbLine
 62
7
  6
CONTINUOUS
 10
365.216423143
 20
150.3610612635
 11
382.016423143
 21
150.3610612635
  0
LINE
  5
3CB
100
AcDbEntity
  8
IMPORT_IGES
100
AcDbLine
 62
250
  6
CONTINUOUS
 10
365.016423143
 20
150.5387634278
 11
365.216423143
 21
150.5387634278
  0
LINE
  5
3CC
100
AcDbEntity
  8
IMPORT_IGES
100
AcDbLine
 62
7
  6
CONTINUOUS
 10
302.016423143
 20
151.1110612635
 11
304.216423143
 21
151.1110612635
  0
LINE
  5
3CD
100
AcDbEntity
  8
IMPORT_IGES
100
AcDbLine
 62
7
  6
CONTINUOUS
 10
306.716423143
 20
151.1110612635
 11
308.916423143
 21
151.1110612635
  0
LINE
  5
3CE
100
AcDbEntity
  8
IMPORT_IGES
100
AcDbLine
 62
7
  6
CONTINUOUS
 10
311.416423143
 20
151.1110612635
 11
313.616423143
 21
151.1110612635
  0
LINE
  5
3CF
100
AcDbEntity
  8
IMPORT_IGES
100
AcDbLine
 62
7
  6
CONTINUOUS
 10
316.116423143
 20
151.1110612635
 11
318.316423143
 21
151.1110612635
  0
LINE
  5
3D0
100
AcDbEntity
  8
IMPORT_IGES
100
AcDbLine
 62
7
  6
CONTINUOUS
 10
320.816423143
 20
151.1110612635
 11
323.016423143
 21
151.1110612635
  0
LINE
  5
3D1
100
AcDbEntity
  8
IMPORT_IGES
100
AcDbLine
 62
250
  6
CONTINUOUS
 10
365.016423143
 20
151.1959859912
 11
365.216423143
 21
151.1959859912
  0
LINE
  5
3D2
100
AcDbEntity
  8
IMPORT_IGES
100
AcDbLine
 62
250
  6
CONTINUOUS
 10
365.016423143
 20
151.7540499237
 11
365.216423143
 21
151.7540499237
  0
LINE
  5
3D3
100
AcDbEntity
  8
ASSI
100
AcDbLine
 62
7
  6
CONTINUOUS
 10
353.139873143
 20
151.7599434593
 11
353.877965143
 21
151.7599434593
  0
LINE
  5
3D4
100
AcDbEntity
  8
ASSI
100
AcDbLine
 62
7
  6
CONTINUOUS
 10
359.121745143
 20
151.7840474593
 11
359.863897143
 21
151.7840474593
  0
LINE
  5
3D5
100
AcDbEntity
  8
IMPORT_IGES
100
AcDbLine
 62
7
  6
CONTINUOUS
 10
365.016423143
 20
151.9991919582
 11
365.216423143
 21
151.9991919582
  0
LINE
  5
3D6
100
AcDbEntity
  8
IMPORT_IGES
100
AcDbLine
 62
7
  6
CONTINUOUS
 10
365.216423143
 20
152.3283192699
 11
365.016423143
 21
152.3283192699
  0
LINE
  5
3D7
100
AcDbEntity
  8
ASSI
100
AcDbLine
 62
7
  6
CONTINUOUS
 10
353.877965143
 20
152.4137974593
 11
356.333418143
 21
152.4137974593
  0
LINE
  5
3D8
100
AcDbEntity
  8
ASSI
100
AcDbLine
 62
7
  6
CONTINUOUS
 10
357.239851143
 20
152.4137974593
 11
359.121745143
 21
152.4137974593
  0
LINE
  5
3D9
100
AcDbEntity
  8
ASSI
100
AcDbLine
 62
7
  6
CONTINUOUS
 10
359.121745143
 20
153.2000984593
 11
357.239851143
 21
153.2000984593
  0
LINE
  5
3DA
100
AcDbEntity
  8
ASSI
100
AcDbLine
 62
7
  6
CONTINUOUS
 10
356.325164143
 20
153.2000984593
 11
353.877965143
 21
153.2000984593
  0
LINE
  5
3DB
100
AcDbEntity
  8
IMPORT_IGES
100
AcDbLine
 62
7
  6
CONTINUOUS
 10
159.8455921149
 20
153.2885169584
 11
200.2455921149
 21
153.2885169584
  0
LINE
  5
3DC
100
AcDbEntity
  8
ASSI
100
AcDbLine
 62
7
  6
CONTINUOUS
 10
359.863897143
 20
153.8301034593
 11
359.121745143
 21
153.8301034593
  0
LINE
  5
3DD
100
AcDbEntity
  8
ASSI
100
AcDbLine
 62
7
  6
CONTINUOUS
 10
353.877965143
 20
153.8542074593
 11
353.139873143
 21
153.8542074593
  0
LINE
  5
3DE
100
AcDbEntity
  8
IMPORT_IGES
100
AcDbLine
 62
7
  6
CONTINUOUS
 10
365.016423143
 20
153.9807745998
 11
365.216423143
 21
153.9807745998
  0
LINE
  5
3DF
100
AcDbEntity
  8
IMPORT_IGES
100
AcDbLine
 62
7
  6
CONTINUOUS
 10
323.016423143
 20
154.6110612635
 11
320.816423143
 21
154.6110612635
  0
LINE
  5
3E0
100
AcDbEntity
  8
IMPORT_IGES
100
AcDbLine
 62
7
  6
CONTINUOUS
 10
318.316423143
 20
154.6110612635
 11
316.116423143
 21
154.6110612635
  0
LINE
  5
3E1
100
AcDbEntity
  8
IMPORT_IGES
100
AcDbLine
 62
7
  6
CONTINUOUS
 10
313.616423143
 20
154.6110612635
 11
311.416423143
 21
154.6110612635
  0
LINE
  5
3E2
100
AcDbEntity
  8
IMPORT_IGES
100
AcDbLine
 62
7
  6
CONTINUOUS
 10
308.916423143
 20
154.6110612635
 11
306.716423143
 21
154.6110612635
  0
LINE
  5
3E3
100
AcDbEntity
  8
IMPORT_IGES
100
AcDbLine
 62
7
  6
CONTINUOUS
 10
302.016423143
 20
154.6110612635
 11
304.216423143
 21
154.6110612635
  0
LINE
  5
3E4
100
AcDbEntity
  8
IMPORT_IGES
100
AcDbLine
 62
7
  6
CONTINUOUS
 10
365.016423143
 20
155.3610612635
 11
382.016423143
 21
155.3610612635
  0
LINE
  5
3E5
100
AcDbEntity
  8
IMPORT_IGES
100
AcDbLine
 62
7
  6
CONTINUOUS
 10
185.0873591149
 20
155.7885164593
 11
184.0974681149
 21
155.7885164593
  0
LINE
  5
3E6
100
AcDbEntity
  8
IMPORT_IGES
100
AcDbLine
 62
7
  6
CONTINUOUS
 10
182.3159491149
 20
155.7885164593
 11
181.3869261149
 21
155.7885164593
  0
LINE
  5
3E7
100
AcDbEntity
  8
IMPORT_IGES
100
AcDbLine
 62
7
  6
CONTINUOUS
 10
181.2394451149
 20
155.7885164593
 11
180.3206461149
 21
155.7885164593
  0
LINE
  5
3E8
100
AcDbEntity
  8
IMPORT_IGES
100
AcDbLine
 62
7
  6
CONTINUOUS
 10
179.0109591149
 20
155.7885164593
 11
178.8792351149
 21
155.7885164593
  0
LINE
  5
3E9
100
AcDbEntity
  8
IMPORT_IGES
100
AcDbLine
 62
7
  6
CONTINUOUS
 10
177.5747441149
 20
155.7885164593
 11
176.6762231149
 21
155.7885164593
  0
LINE
  5
3EA
100
AcDbEntity
  8
IMPORT_IGES
100
AcDbLine
 62
7
  6
CONTINUOUS
 10
176.1706161149
 20
155.7885164593
 11
175.2314041149
 21
155.7885164593
  0
LINE
  5
3EB
100
AcDbEntity
  8
IMPORT_IGES
100
AcDbLine
 62
7
  6
CONTINUOUS
 10
173.4365561149
 20
155.7885164593
 11
172.6088751149
 21
155.7885164593
  0
LINE
  5
3EC
100
AcDbEntity
  8
IMPORT_IGES
100
AcDbLine
 62
7
  6
CONTINUOUS
 10
188.6402766931
 20
155.7885169584
 11
187.7368639138
 21
155.7885169584
  0
LINE
  5
3ED
100
AcDbEntity
  8
IMPORT_IGES
100
AcDbLine
 62
7
  6
CONTINUOUS
 10
186.29859028
 20
155.7885169584
 11
185.3631573801
 21
155.7885169584
  0
LINE
  5
3EE
100
AcDbEntity
  8
IMPORT_IGES
100
AcDbLine
 62
7
  6
CONTINUOUS
 10
365.016423143
 20
156.0220435445
 11
365.216423143
 21
156.0220435445
  0
LINE
  5
3EF
100
AcDbEntity
  8
IMPORT_IGES
100
AcDbLine
 62
7
  6
CONTINUOUS
 10
365.016423143
 20
156.3989195411
 11
365.216423143
 21
156.3989195411
  0
LINE
  5
3F0
100
AcDbEntity
  8
IMPORT_IGES
100
AcDbLine
 62
7
  6
CONTINUOUS
 10
268.816423143
 20
156.5110612635
 11
299.016423143
 21
156.5110612635
  0
LINE
  5
3F1
100
AcDbEntity
  8
IMPORT_IGES
100
AcDbLine
 62
7
  6
CONTINUOUS
 10
302.016423143
 20
156.5110612635
 11
304.216423143
 21
156.5110612635
  0
LINE
  5
3F2
100
AcDbEntity
  8
IMPORT_IGES
100
AcDbLine
 62
7
  6
CONTINUOUS
 10
306.716423143
 20
156.5110612635
 11
308.916423143
 21
156.5110612635
  0
LINE
  5
3F3
100
AcDbEntity
  8
IMPORT_IGES
100
AcDbLine
 62
7
  6
CONTINUOUS
 10
311.416423143
 20
156.5110612635
 11
313.616423143
 21
156.5110612635
  0
LINE
  5
3F4
100
AcDbEntity
  8
IMPORT_IGES
100
AcDbLine
 62
7
  6
CONTINUOUS
 10
316.116423143
 20
156.5110612635
 11
318.316423143
 21
156.5110612635
  0
LINE
  5
3F5
100
AcDbEntity
  8
IMPORT_IGES
100
AcDbLine
 62
7
  6
CONTINUOUS
 10
320.816423143
 20
156.5110612635
 11
323.016423143
 21
156.5110612635
  0
LINE
  5
3F6
100
AcDbEntity
  8
IMPORT_IGES
100
AcDbLine
 62
7
  6
CONTINUOUS
 10
183.8541631149
 20
156.6867674593
 11
182.5751121149
 21
156.6867674593
  0
LINE
  5
3F7
100
AcDbEntity
  8
IMPORT_IGES
100
AcDbLine
 62
7
  6
CONTINUOUS
 10
365.016423143
 20
156.6905293052
 11
365.216423143
 21
156.6905293052
  0
LINE
  5
3F8
100
AcDbEntity
  8
IMPORT_IGES
100
AcDbLine
 62
7
  6
CONTINUOUS
 10
323.016423143
 20
156.7340446097
 11
320.816423143
 21
156.7340446097
  0
LINE
  5
3F9
100
AcDbEntity
  8
IMPORT_IGES
100
AcDbLine
 62
7
  6
CONTINUOUS
 10
318.316423143
 20
156.7340446097
 11
316.116423143
 21
156.7340446097
  0
LINE
  5
3FA
100
AcDbEntity
  8
IMPORT_IGES
100
AcDbLine
 62
7
  6
CONTINUOUS
 10
313.616423143
 20
156.7340446097
 11
311.416423143
 21
156.7340446097
  0
LINE
  5
3FB
100
AcDbEntity
  8
IMPORT_IGES
100
AcDbLine
 62
7
  6
CONTINUOUS
 10
308.916423143
 20
156.7340446097
 11
306.716423143
 21
156.7340446097
  0
LINE
  5
3FC
100
AcDbEntity
  8
IMPORT_IGES
100
AcDbLine
 62
7
  6
CONTINUOUS
 10
304.216423143
 20
156.7340446097
 11
302.016423143
 21
156.7340446097
  0
LINE
  5
3FD
100
AcDbEntity
  8
IMPORT_IGES
100
AcDbLine
 62
7
  6
CONTINUOUS
 10
299.016423143
 20
157.1110612635
 11
302.016423143
 21
157.1110612635
  0
LINE
  5
3FE
100
AcDbEntity
  8
IMPORT_IGES
100
AcDbLine
 62
7
  6
CONTINUOUS
 10
304.216423143
 20
157.1110612635
 11
306.716423143
 21
157.1110612635
  0
LINE
  5
3FF
100
AcDbEntity
  8
IMPORT_IGES
100
AcDbLine
 62
7
  6
CONTINUOUS
 10
308.916423143
 20
157.1110612635
 11
311.416423143
 21
157.1110612635
  0
LINE
  5
400
100
AcDbEntity
  8
IMPORT_IGES
100
AcDbLine
 62
7
  6
CONTINUOUS
 10
313.616423143
 20
157.1110612635
 11
316.116423143
 21
157.1110612635
  0
LINE
  5
401
100
AcDbEntity
  8
IMPORT_IGES
100
AcDbLine
 62
7
  6
CONTINUOUS
 10
318.316423143
 20
157.1110612635
 11
320.816423143
 21
157.1110612635
  0
LINE
  5
402
100
AcDbEntity
  8
IMPORT_IGES
100
AcDbLine
 62
7
  6
CONTINUOUS
 10
323.016423143
 20
157.1110612635
 11
325.016423143
 21
157.1110612635
  0
LINE
  5
403
100
AcDbEntity
  8
IMPORT_IGES
100
AcDbLine
 62
7
  6
CONTINUOUS
 10
183.6664621149
 20
157.3818304593
 11
182.7672331149
 21
157.3818304593
  0
LINE
  5
404
100
AcDbEntity
  8
IMPORT_IGES
100
AcDbLine
 62
7
  6
CONTINUOUS
 10
186.8021733139
 20
157.5493536611
 11
186.29859028
 21
157.5493536611
  0
LINE
  5
405
100
AcDbEntity
  8
IMPORT_IGES
100
AcDbLine
 62
7
  6
CONTINUOUS
 10
365.016423143
 20
157.7358907645
 11
365.216423143
 21
157.7358907645
  0
LINE
  5
406
100
AcDbEntity
  8
IMPORT_IGES
100
AcDbLine
 62
7
  6
CONTINUOUS
 10
268.816423143
 20
157.8610612549
 11
254.2898944291
 21
157.8610612549
  0
LINE
  5
407
100
AcDbEntity
  8
IMPORT_IGES
100
AcDbLine
 62
7
  6
CONTINUOUS
 10
365.016423143
 20
158.0104473417
 11
365.216423143
 21
158.0104473417
  0
LWPOLYLINE
  5
408
100
AcDbEntity
  8
IMPORT_IGES
100
AcDbPolyline
 62
7
  6
CONTINUOUS
 90
19
 70
0
 10
186.8021733139
 20
157.5493536611
 10
186.8416322016
 20
157.547741475
 10
186.8799837827
 20
157.5436848328
 10
186.9172280572
 20
157.5371837346
 10
186.9533980241
 20
157.5282090135
 10
186.9884606844
 20
157.5167898364
 10
187.0223170413
 20
157.5030137039
 10
187.0549532263
 20
157.4869038597
 10
187.0863831079
 20
157.4684370601
 10
187.1165492938
 20
157.4476310744
 10
187.1454831841
 20
157.4245098433
 10
187.1731533787
 20
157.399049426
 10
187.1994082859
 20
157.37119577
 10
187.2242249274
 20
157.3409608469
 10
187.2476262814
 20
157.3083326851
 10
187.269529691
 20
157.2732213169
 10
187.2899076038
 20
157.235596753
 10
187.3087875723
 20
157.1954889829
 10
187.3261695963
 20
157.1528980063
  0
LINE
  5
409
100
AcDbEntity
  8
IMPORT_IGES
100
AcDbLine
 62
7
  6
CONTINUOUS
 10
186.8819659837
 20
159.556089001
 11
187.0032353774
 21
159.547928793
  0
LWPOLYLINE
  5
40A
100
AcDbEntity
  8
IMPORT_IGES
100
AcDbPolyline
 62
7
  6
CONTINUOUS
 90
22
 70
0
 10
187.0032353774
 20
159.547928793
 10
187.0467731884
 20
159.5412655279
 10
187.0891136185
 20
159.5320628861
 10
187.1302566677
 20
159.5203208678
 10
187.170405063
 20
159.5059393575
 10
187.2093560774
 20
159.4890184705
 10
187.2465015299
 20
159.4698585538
 10
187.2817870059
 20
159.4484838597
 10
187.31526692
 20
159.4248701358
 10
187.346496335
 20
159.3992449711
 10
187.3753806577
 20
159.3715183798
 10
187.4020144813
 20
159.3417803476
 10
187.4262366485
 20
159.3105284207
 10
187.4480027259
 20
159.2777122502
 10
187.4673571469
 20
159.2433821848
 10
187.484272054
 20
159.2081868176
 10
187.4987640353
 20
159.1721450342
 10
187.5108165028
 20
159.1352379488
 10
187.5203518348
 20
159.0980574968
 10
187.5273441573
 20
159.0608009901
 10
187.5318193443
 20
159.0232711167
 10
187.5337773958
 20
158.9854678768
  0
LWPOLYLINE
  5
40B
100
AcDbEntity
  8
IMPORT_IGES
100
AcDbPolyline
 62
7
  6
CONTINUOUS
 90
19
 70
0
 10
187.6809889721
 20
160.1880275358
 10
187.5908427625
 20
160.2182397004
 10
187.4955904252
 20
160.2450468086
 10
187.39523196
 20
160.2684488604
 10
187.2895357514
 20
160.2884132324
 10
187.178733415
 20
160.3049725481
 10
187.0635197978
 20
160.3182246771
 10
186.9439972416
 20
160.3281481045
 10
186.8200634046
 20
160.3347643454
 10
186.6921061088
 20
160.3382358146
 10
186.5602338795
 20
160.338533464
 10
186.4243381913
 20
160.3356863418
 10
186.2844812902
 20
160.329944007
 10
186.1406513887
 20
160.3213818638
 10
185.9928602742
 20
160.3099245081
 10
185.8412055553
 20
160.2955952861
 10
185.685719768
 20
160.2784019799
 10
185.5263703763
 20
160.2583368076
 10
185.3631573801
 20
160.2353997689
  0
LWPOLYLINE
  5
40C
100
AcDbEntity
  8
IMPORT_IGES
100
AcDbPolyline
 62
7
  6
CONTINUOUS
 90
22
 70
0
 10
145.8518300962
 20
145.1739589035
 10
145.8112883796
 20
145.1642184596
 10
145.7716193526
 20
145.1519740946
 10
145.7328230151
 20
145.1372258085
 10
145.6947066204
 20
145.1198559709
 10
145.6574629153
 20
145.0999822121
 10
145.62167014
 20
145.0779574232
 10
145.5874442238
 20
145.0537415857
 10
145.5546692374
 20
145.0273747181
 10
145.5235756323
 20
144.9993297668
 10
145.4941692158
 20
144.9696785255
 10
145.4664441807
 20
144.9383492004
 10
145.4406135569
 20
144.9055993567
 10
145.4166081185
 20
144.8714116669
 10
145.3944970914
 20
144.8358034585
 10
145.374701183
 20
144.7990842786
 10
145.3572788558
 20
144.7611514541
 10
145.3421716473
 20
144.7221076581
 10
145.3296248775
 20
144.6825704566
 10
145.3197203196
 20
144.6427457048
 10
145.3123762003
 20
144.6024275476
 10
145.3075925197
 20
144.5616159848
  0
LWPOLYLINE
  5
40D
100
AcDbEntity
  8
IMPORT_IGES
100
AcDbPolyline
 62
7
  6
CONTINUOUS
 90
10
 70
0
 10
143.7359040349
 20
149.7988708785
 10
143.7946708271
 20
149.8121027631
 10
143.8548768507
 20
149.8243317977
 10
143.9165221059
 20
149.8355579824
 10
143.9796434771
 20
149.8457437429
 10
144.0442040798
 20
149.8549266534
 10
144.1100932605
 20
149.8632194364
 10
144.1772741348
 20
149.8706596659
 10
144.2457835871
 20
149.8772097678
 10
144.3156216174
 20
149.8828697421
  0
LINE
  5
40E
100
AcDbEntity
  8
IMPORT_IGES
100
AcDbLine
 62
7
  6
CONTINUOUS
 10
186.3908486063
 20
159.5374150482
 11
186.4731913115
 21
159.5500971182
  0
LWPOLYLINE
  5
40F
100
AcDbEntity
  8
IMPORT_IGES
100
AcDbPolyline
 62
7
  6
CONTINUOUS
 90
3
 70
0
 10
186.2674474231
 20
159.5214421812
 10
186.3085720444
 20
159.5266036461
 10
186.3908486063
 20
159.5374150482
  0
LWPOLYLINE
  5
410
100
AcDbEntity
  8
IMPORT_IGES
100
AcDbPolyline
 62
7
  6
CONTINUOUS
 90
10
 70
0
 10
186.4731913115
 20
159.5500971182
 10
186.5143317468
 20
159.5548533321
 10
186.5554213466
 20
159.5566032418
 10
186.5964754758
 20
159.5566869184
 10
186.637495653
 20
159.5572955176
 10
186.678517228
 20
159.5599099359
 10
186.7195048509
 20
159.5630492768
 10
186.760353991
 20
159.5644620071
 10
186.8009963326
 20
159.5628141974
 10
186.8819659837
 20
159.556089001
  0
LINE
  5
411
100
AcDbEntity
  8
IMPORT_IGES
100
AcDbLine
 62
7
  6
CONTINUOUS
 10
186.8041977683
 20
158.2862550654
 11
186.2674474231
 21
158.2862550654
  0
LINE
  5
412
100
AcDbEntity
  8
IMPORT_IGES
100
AcDbLine
 62
7
  6
CONTINUOUS
 10
365.016423143
 20
158.3617434089
 11
365.216423143
 21
158.3617434089
  0
LINE
  5
413
100
AcDbEntity
  8
IMPORT_IGES
100
AcDbLine
 62
7
  6
CONTINUOUS
 10
365.016423143
 20
158.5169276778
 11
365.216423143
 21
158.5169276778
  0
LINE
  5
414
100
AcDbEntity
  8
IMPORT_IGES
100
AcDbLine
 62
250
  6
CONTINUOUS
 10
365.016423143
 20
158.6192468067
 11
365.216423143
 21
158.6192468067
  0
LINE
  5
415
100
AcDbEntity
  8
IMPORT_IGES
100
AcDbLine
 62
250
  6
CONTINUOUS
 10
365.016423143
 20
158.8974426843
 11
365.216423143
 21
158.8974426843
  0
LINE
  5
416
100
AcDbEntity
  8
IMPORT_IGES
100
AcDbLine
 62
250
  6
CONTINUOUS
 10
365.016423143
 20
159.2996695821
 11
365.216423143
 21
159.2996695821
  0
LINE
  5
417
100
AcDbEntity
  8
IMPORT_IGES
100
AcDbLine
 62
7
  6
CONTINUOUS
 10
302.016423143
 20
159.4510612635
 11
304.216423143
 21
159.4510612635
  0
LINE
  5
418
100
AcDbEntity
  8
IMPORT_IGES
100
AcDbLine
 62
7
  6
CONTINUOUS
 10
306.716423143
 20
159.4510612635
 11
308.916423143
 21
159.4510612635
  0
LINE
  5
419
100
AcDbEntity
  8
IMPORT_IGES
100
AcDbLine
 62
7
  6
CONTINUOUS
 10
311.416423143
 20
159.4510612635
 11
313.616423143
 21
159.4510612635
  0
LINE
  5
41A
100
AcDbEntity
  8
IMPORT_IGES
100
AcDbLine
 62
7
  6
CONTINUOUS
 10
316.116423143
 20
159.4510612635
 11
318.316423143
 21
159.4510612635
  0
LINE
  5
41B
100
AcDbEntity
  8
IMPORT_IGES
100
AcDbLine
 62
7
  6
CONTINUOUS
 10
320.816423143
 20
159.4510612635
 11
323.016423143
 21
159.4510612635
  0
LINE
  5
41C
100
AcDbEntity
  8
IMPORT_IGES
100
AcDbLine
 62
250
  6
CONTINUOUS
 10
365.016423143
 20
159.9260135023
 11
365.216423143
 21
159.9260135023
  0
LINE
  5
41D
100
AcDbEntity
  8
IMPORT_IGES
100
AcDbLine
 62
7
  6
CONTINUOUS
 10
365.016423143
 20
160.1676778679
 11
365.216423143
 21
160.1676778679
  0
LINE
  5
41E
100
AcDbEntity
  8
IMPORT_IGES
100
AcDbLine
 62
7
  6
CONTINUOUS
 10
171.1824611149
 20
160.2879684593
 11
172.2027361149
 21
160.2879684593
  0
LINE
  5
41F
100
AcDbEntity
  8
IMPORT_IGES
100
AcDbLine
 62
7
  6
CONTINUOUS
 10
173.9442901149
 20
160.2879684593
 11
174.8828601149
 21
160.2879684593
  0
LINE
  5
420
100
AcDbEntity
  8
IMPORT_IGES
100
AcDbLine
 62
7
  6
CONTINUOUS
 10
177.0824981149
 20
160.2879684593
 11
178.0209331149
 21
160.2879684593
  0
LINE
  5
421
100
AcDbEntity
  8
IMPORT_IGES
100
AcDbLine
 62
7
  6
CONTINUOUS
 10
179.8894371149
 20
160.2879684593
 11
180.8186961149
 21
160.2879684593
  0
LINE
  5
422
100
AcDbEntity
  8
IMPORT_IGES
100
AcDbLine
 62
7
  6
CONTINUOUS
 10
182.7982411149
 20
160.2879684593
 11
183.7068161149
 21
160.2879684593
  0
LINE
  5
423
100
AcDbEntity
  8
IMPORT_IGES
100
AcDbLine
 62
7
  6
CONTINUOUS
 10
175.2314041149
 20
160.2882384593
 11
176.1706161149
 21
160.2882384593
  0
LINE
  5
424
100
AcDbEntity
  8
IMPORT_IGES
100
AcDbLine
 62
7
  6
CONTINUOUS
 10
299.016423143
 20
160.3610612635
 11
325.016423143
 21
160.3610612635
  0
LINE
  5
425
100
AcDbEntity
  8
IMPORT_IGES
100
AcDbLine
 62
7
  6
CONTINUOUS
 10
365.016423143
 20
160.9401881878
 11
365.216423143
 21
160.9401881878
  0
LINE
  5
426
100
AcDbEntity
  8
IMPORT_IGES
100
AcDbLine
 62
7
  6
CONTINUOUS
 10
365.216423143
 20
161.2471458499
 11
365.016423143
 21
161.2471458499
  0
LINE
  5
427
100
AcDbEntity
  8
IMPORT_IGES
100
AcDbLine
 62
250
  6
CONTINUOUS
 10
365.016423143
 20
161.5383832921
 11
365.216423143
 21
161.5383832921
  0
LINE
  5
428
100
AcDbEntity
  8
IMPORT_IGES
100
AcDbLine
 62
7
  6
CONTINUOUS
 10
365.016423143
 20
161.8610612486
 11
365.216423143
 21
161.8610612486
  0
LINE
  5
429
100
AcDbEntity
  8
IMPORT_IGES
100
AcDbLine
 62
7
  6
CONTINUOUS
 10
375.7235299242
 20
163.3610612636
 11
381.516423143
 21
163.3610612636
  0
LINE
  5
42A
100
AcDbEntity
  8
ASSI
100
AcDbLine
 62
7
  6
CONTINUOUS
 10
365.016423143
 20
163.4610612646
 11
375.4235299242
 21
163.4610612677
  0
LINE
  5
42B
100
AcDbEntity
  8
IMPORT_IGES
100
AcDbLine
 62
7
  6
CONTINUOUS
 10
161.6719968394
 20
166.8110612635
 11
162.7608494465
 21
166.8110612635
  0
LINE
  5
42C
100
AcDbEntity
  8
IMPORT_IGES
100
AcDbLine
 62
7
  6
CONTINUOUS
 10
365.016423143
 20
167.3610612635
 11
347.9014917665
 21
167.3610612635
  0
LINE
  5
42D
100
AcDbEntity
  8
IMPORT_IGES
100
AcDbLine
 62
7
  6
CONTINUOUS
 10
161.6719968394
 20
167.9110612635
 11
162.7608494465
 21
167.9110612635
  0
LINE
  5
42E
100
AcDbEntity
  8
ASSI
100
AcDbLine
 62
7
  6
CONTINUOUS
 10
375.4235299243
 20
168.2610612594
 11
365.016423143
 21
168.2610612625
  0
LINE
  5
42F
100
AcDbEntity
  8
IMPORT_IGES
100
AcDbLine
 62
7
  6
CONTINUOUS
 10
381.516423143
 20
168.3610612634
 11
375.7235299242
 21
168.3610612634
  0
LINE
  5
430
100
AcDbEntity
  8
IMPORT_IGES
100
AcDbLine
 62
7
  6
CONTINUOUS
 10
353.016423143
 20
173.3610612635
 11
325.016423143
 21
161.3610612635
  0
LINE
  5
431
100
AcDbEntity
  8
IMPORT_IGES
100
AcDbLine
 62
7
  6
CONTINUOUS
 10
332.016423143
 20
161.3147520212
 11
345.516423143
 21
167.1004663069
  0
LINE
  5
432
100
AcDbEntity
  8
IMPORT_IGES
100
AcDbLine
 62
7
  6
CONTINUOUS
 10
325.016423143
 20
157.5531747106
 11
330.516423143
 21
159.9103175678
  0
LINE
  5
433
100
AcDbEntity
  8
IMPORT_IGES
100
AcDbLine
 62
7
  6
CONTINUOUS
 10
347.016423143
 20
166.9817461392
 11
347.9014917665
 21
167.3610612635
  0
LINE
  5
434
100
AcDbEntity
  8
IMPORT_IGES
100
AcDbLine
 62
7
  6
CONTINUOUS
 10
365.016423143
 20
173.3610612635
 11
353.016423143
 21
173.3610612635
  0
LINE
  5
435
100
AcDbEntity
  8
IMPORT_IGES
100
AcDbLine
 62
7
  6
CONTINUOUS
 10
345.516423143
 20
167.1004663069
 11
347.016423143
 21
166.9817461392
  0
LINE
  5
436
100
AcDbEntity
  8
IMPORT_IGES
100
AcDbLine
 62
7
  6
CONTINUOUS
 10
254.1061610533
 20
198.5365520363
 11
254.1015837861
 21
198.5794473526
  0
LINE
  5
437
100
AcDbEntity
  8
IMPORT_IGES
100
AcDbLine
 62
7
  6
CONTINUOUS
 10
254.1106416555
 20
198.4915734546
 11
254.1061610533
 21
198.5365520363
  0
LINE
  5
438
100
AcDbEntity
  8
IMPORT_IGES
100
AcDbLine
 62
7
  6
CONTINUOUS
 10
254.115046584
 20
198.4443582086
 11
254.1106416555
 21
198.4915734546
  0
LINE
  5
439
100
AcDbEntity
  8
IMPORT_IGES
100
AcDbLine
 62
7
  6
CONTINUOUS
 10
254.1193952243
 20
198.3947299571
 11
254.115046584
 21
198.4443582086
  0
LINE
  5
43A
100
AcDbEntity
  8
IMPORT_IGES
100
AcDbLine
 62
7
  6
CONTINUOUS
 10
254.1237026601
 20
198.3425227174
 11
254.1193952243
 21
198.3947299571
  0
LINE
  5
43B
100
AcDbEntity
  8
IMPORT_IGES
100
AcDbLine
 62
7
  6
CONTINUOUS
 10
254.1301073574
 20
198.2590891389
 11
254.1237026601
 21
198.3425227174
  0
LINE
  5
43C
100
AcDbEntity
  8
IMPORT_IGES
100
AcDbLine
 62
7
  6
CONTINUOUS
 10
254.136466006
 20
198.169123069
 11
254.1301073574
 21
198.2590891389
  0
LINE
  5
43D
100
AcDbEntity
  8
IMPORT_IGES
100
AcDbLine
 62
250
  6
CONTINUOUS
 10
253.1200780638
 20
199.2895873895
 11
253.127502116
 21
199.1837377587
  0
LINE
  5
43E
100
AcDbEntity
  8
IMPORT_IGES
100
AcDbLine
 62
7
  6
CONTINUOUS
 10
254.1427933419
 20
198.072245849
 11
254.136466006
 21
198.169123069
  0
LINE
  5
43F
100
AcDbEntity
  8
IMPORT_IGES
100
AcDbLine
 62
250
  6
CONTINUOUS
 10
253.127502116
 20
199.1837377587
 11
253.1348220386
 21
199.0663827568
  0
LINE
  5
440
100
AcDbEntity
  8
IMPORT_IGES
100
AcDbLine
 62
7
  6
CONTINUOUS
 10
254.1490973296
 20
197.9681157889
 11
254.1427933419
 21
198.072245849
  0
LINE
  5
441
100
AcDbEntity
  8
IMPORT_IGES
100
AcDbLine
 62
250
  6
CONTINUOUS
 10
253.1348220386
 20
199.0663827568
 11
253.1420371465
 21
198.9376650484
  0
LINE
  5
442
100
AcDbEntity
  8
IMPORT_IGES
100
AcDbLine
 62
7
  6
CONTINUOUS
 10
254.1574711463
 20
197.8174579219
 11
254.1490973296
 21
197.9681157889
  0
LINE
  5
443
100
AcDbEntity
  8
IMPORT_IGES
100
AcDbLine
 62
250
  6
CONTINUOUS
 10
253.1420371465
 20
198.9376650484
 11
253.1491463523
 21
198.7977412583
  0
LINE
  5
444
100
AcDbEntity
  8
IMPORT_IGES
100
AcDbLine
 62
7
  6
CONTINUOUS
 10
254.1658066049
 20
197.6526758493
 11
254.1574711463
 21
197.8174579219
  0
LINE
  5
445
100
AcDbEntity
  8
IMPORT_IGES
100
AcDbLine
 62
7
  6
CONTINUOUS
 10
254.1761562543
 20
197.4258991456
 11
254.1658066049
 21
197.6526758493
  0
LINE
  5
446
100
AcDbEntity
  8
IMPORT_IGES
100
AcDbLine
 62
250
  6
CONTINUOUS
 10
253.1491463523
 20
198.7977412583
 11
253.1596051476
 21
198.567221169
  0
LINE
  5
447
100
AcDbEntity
  8
IMPORT_IGES
100
AcDbLine
 62
7
  6
CONTINUOUS
 10
254.186410282
 20
197.1746746267
 11
254.1761562543
 21
197.4258991456
  0
LINE
  5
448
100
AcDbEntity
  8
IMPORT_IGES
100
AcDbLine
 62
250
  6
CONTINUOUS
 10
253.1596051476
 20
198.567221169
 11
253.1697885949
 21
198.3125069889
  0
LINE
  5
449
100
AcDbEntity
  8
IMPORT_IGES
100
AcDbLine
 62
7
  6
CONTINUOUS
 10
254.198557066
 20
196.8385298176
 11
254.186410282
 21
197.1746746267
  0
LINE
  5
44A
100
AcDbEntity
  8
IMPORT_IGES
100
AcDbLine
 62
250
  6
CONTINUOUS
 10
253.1697885949
 20
198.3125069889
 11
253.1828902664
 21
197.9365570835
  0
LINE
  5
44B
100
AcDbEntity
  8
IMPORT_IGES
100
AcDbLine
 62
7
  6
CONTINUOUS
 10
254.21243003
 20
196.394592385
 11
254.198557066
 21
196.8385298176
  0
LINE
  5
44C
100
AcDbEntity
  8
IMPORT_IGES
100
AcDbLine
 62
250
  6
CONTINUOUS
 10
253.1828902664
 20
197.9365570835
 11
253.1984368514
 21
197.414607561
  0
LINE
  5
44D
100
AcDbEntity
  8
IMPORT_IGES
100
AcDbLine
 62
7
  6
CONTINUOUS
 10
254.225843766
 20
195.8899507809
 11
254.21243003
 21
196.394592385
  0
LINE
  5
44E
100
AcDbEntity
  8
IMPORT_IGES
100
AcDbLine
 62
250
  6
CONTINUOUS
 10
253.1984368514
 20
197.414607561
 11
253.2156703235
 21
196.7272701842
  0
LINE
  5
44F
100
AcDbEntity
  8
IMPORT_IGES
100
AcDbLine
 62
7
  6
CONTINUOUS
 10
254.2421372701
 20
195.145460047
 11
254.225843766
 21
195.8899507809
  0
LINE
  5
450
100
AcDbEntity
  8
IMPORT_IGES
100
AcDbLine
 62
250
  6
CONTINUOUS
 10
253.2156703235
 20
196.7272701842
 11
253.2342142791
 21
195.8296178023
  0
LINE
  5
451
100
AcDbEntity
  8
IMPORT_IGES
100
AcDbLine
 62
250
  6
CONTINUOUS
 10
253.2342142791
 20
195.8296178023
 11
253.2512060154
 21
194.8233233717
  0
LINE
  5
452
100
AcDbEntity
  8
IMPORT_IGES
100
AcDbLine
 62
7
  6
CONTINUOUS
 10
254.2585484883
 20
194.1855146047
 11
254.2421372701
 21
195.145460047
  0
LINE
  5
453
100
AcDbEntity
  8
IMPORT_IGES
100
AcDbLine
 62
250
  6
CONTINUOUS
 10
253.2512060154
 20
194.8233233717
 11
253.2655854482
 21
193.7398189026
  0
LINE
  5
454
100
AcDbEntity
  8
IMPORT_IGES
100
AcDbLine
 62
7
  6
CONTINUOUS
 10
254.2737503388
 20
192.9604189642
 11
254.2585484883
 21
194.1855146047
  0
LINE
  5
455
100
AcDbEntity
  8
IMPORT_IGES
100
AcDbLine
 62
250
  6
CONTINUOUS
 10
253.2655854482
 20
193.7398189026
 11
253.2770162688
 21
192.5964651178
  0
LINE
  5
456
100
AcDbEntity
  8
IMPORT_IGES
100
AcDbLine
 62
250
  6
CONTINUOUS
 10
253.2770162688
 20
192.5964651178
 11
253.2843063375
 21
191.581853424
  0
LINE
  5
457
100
AcDbEntity
  8
IMPORT_IGES
100
AcDbLine
 62
7
  6
CONTINUOUS
 10
254.2847792104
 20
191.5477261341
 11
254.2737503388
 21
192.9604189642
  0
LINE
  5
458
100
AcDbEntity
  8
IMPORT_IGES
100
AcDbLine
 62
250
  6
CONTINUOUS
 10
253.2843063375
 20
191.581853424
 11
253.2886344224
 21
190.5551971202
  0
LINE
  5
459
100
AcDbEntity
  8
IMPORT_IGES
100
AcDbLine
 62
7
  6
CONTINUOUS
 10
254.2896576845
 20
190.0988575027
 11
254.2847792104
 21
191.5477261341
  0
LINE
  5
45A
100
AcDbEntity
  8
IMPORT_IGES
100
AcDbLine
 62
250
  6
CONTINUOUS
 10
253.2898924226
 20
108.8042150281
 11
253.2886344224
 21
190.5551971202
  0
LINE
  5
45B
100
AcDbEntity
  8
IMPORT_IGES
100
AcDbLine
 62
250
  6
CONTINUOUS
 10
253.2898902099
 20
108.8042150281
 11
253.2878854234
 21
107.0031479563
  0
LINE
  5
45C
100
AcDbEntity
  8
IMPORT_IGES
100
AcDbLine
 62
7
  6
CONTINUOUS
 10
254.2867778072
 20
106.6733204292
 11
254.2896576845
 21
190.0988575027
  0
LINE
  5
45D
100
AcDbEntity
  8
IMPORT_IGES
100
AcDbLine
 62
250
  6
CONTINUOUS
 10
253.2878854234
 20
107.0031479563
 11
253.28183718
 21
105.2167511412
  0
LINE
  5
45E
100
AcDbEntity
  8
IMPORT_IGES
100
AcDbLine
 62
250
  6
CONTINUOUS
 10
253.28183718
 20
105.2167511412
 11
253.2717951801
 21
103.459447535
  0
LINE
  5
45F
100
AcDbEntity
  8
IMPORT_IGES
100
AcDbLine
 62
7
  6
CONTINUOUS
 10
254.2717730297
 20
103.719424056
 11
254.2867778072
 21
106.6733204292
  0
LINE
  5
460
100
AcDbEntity
  8
IMPORT_IGES
100
AcDbLine
 62
7
  6
CONTINUOUS
 10
254.2717730298
 20
103.7194240753
 11
254.205489864
 21
94.5920243067
  0
LINE
  5
461
100
AcDbEntity
  8
IMPORT_IGES
100
AcDbLine
 62
250
  6
CONTINUOUS
 10
253.1955102528
 20
93.2600467425
 11
253.2717951801
 21
103.459447535
  0
LINE
  5
462
100
AcDbEntity
  8
IMPORT_IGES
100
AcDbLine
 62
7
  6
CONTINUOUS
 10
254.1989331729
 20
93.8961629267
 11
254.2054802295
 21
94.5921828385
  0
LINE
  5
463
100
AcDbEntity
  8
IMPORT_IGES
100
AcDbLine
 62
250
  6
CONTINUOUS
 10
253.1845619799
 20
92.4660673774
 11
253.1955102528
 21
93.2600467425
  0
LINE
  5
464
100
AcDbEntity
  8
IMPORT_IGES
100
AcDbLine
 62
7
  6
CONTINUOUS
 10
254.1906607389
 20
93.2977025936
 11
254.1989331729
 21
93.8961629267
  0
LINE
  5
465
100
AcDbEntity
  8
IMPORT_IGES
100
AcDbLine
 62
7
  6
CONTINUOUS
 10
254.1807962967
 20
92.7661116712
 11
254.1906607389
 21
93.2977025936
  0
LINE
  5
466
100
AcDbEntity
  8
IMPORT_IGES
100
AcDbLine
 62
250
  6
CONTINUOUS
 10
253.1675894228
 20
91.5882849793
 11
253.1845619799
 21
92.4660673774
  0
LINE
  5
467
100
AcDbEntity
  8
IMPORT_IGES
100
AcDbLine
 62
7
  6
CONTINUOUS
 10
254.1713355796
 20
92.3654493521
 11
254.1807962967
 21
92.7661116712
  0
LINE
  5
468
100
AcDbEntity
  8
IMPORT_IGES
100
AcDbLine
 62
250
  6
CONTINUOUS
 10
253.155906092
 20
91.1371521586
 11
253.1675894228
 21
91.5882849793
  0
LINE
  5
469
100
AcDbEntity
  8
IMPORT_IGES
100
AcDbLine
 62
7
  6
CONTINUOUS
 10
254.1628873443
 20
92.0704638837
 11
254.1713355796
 21
92.3654493521
  0
LINE
  5
46A
100
AcDbEntity
  8
IMPORT_IGES
100
AcDbLine
 62
250
  6
CONTINUOUS
 10
253.1475989592
 20
90.8721826576
 11
253.155906092
 21
91.1371521586
  0
LINE
  5
46B
100
AcDbEntity
  8
IMPORT_IGES
100
AcDbLine
 62
7
  6
CONTINUOUS
 10
254.1558282367
 20
91.8597641919
 11
254.1628873443
 21
92.0704638837
  0
LINE
  5
46C
100
AcDbEntity
  8
IMPORT_IGES
100
AcDbLine
 62
250
  6
CONTINUOUS
 10
253.1389297493
 20
90.637835338
 11
253.1475989592
 21
90.8721826576
  0
LINE
  5
46D
100
AcDbEntity
  8
IMPORT_IGES
100
AcDbLine
 62
7
  6
CONTINUOUS
 10
254.1485490211
 20
91.6710064972
 11
254.1558282367
 21
91.8597641919
  0
LINE
  5
46E
100
AcDbEntity
  8
IMPORT_IGES
100
AcDbLine
 62
7
  6
CONTINUOUS
 10
254.1429647459
 20
91.5432422961
 11
254.1485490211
 21
91.6710064972
  0
LINE
  5
46F
100
AcDbEntity
  8
IMPORT_IGES
100
AcDbLine
 62
7
  6
CONTINUOUS
 10
254.1372791612
 20
91.4267684744
 11
254.1429647459
 21
91.5432422961
  0
LINE
  5
470
100
AcDbEntity
  8
IMPORT_IGES
100
AcDbLine
 62
7
  6
CONTINUOUS
 10
254.1314849929
 20
91.3209801591
 11
254.1372791612
 21
91.4267684744
  0
LINE
  5
471
100
AcDbEntity
  8
IMPORT_IGES
100
AcDbLine
 62
7
  6
CONTINUOUS
 10
254.1275597264
 20
91.2561729036
 11
254.1314849929
 21
91.3209801591
  0
LWPOLYLINE
  5
472
100
AcDbEntity
  8
IMPORT_IGES
100
AcDbPolyline
 62
250
  6
CONTINUOUS
 90
27
 70
0
 10
254.205489864
 20
94.5920243067
 10
254.2049287526
 20
94.5835804694
 10
254.2012383731
 20
94.5679495719
 10
254.1941286812
 20
94.5524469608
 10
254.183599593
 20
94.5370779185
 10
254.1697175874
 20
94.5219431785
 10
254.1527193011
 20
94.5072312962
 10
254.1329619268
 20
94.4931111618
 10
254.1104702171
 20
94.4794838139
 10
254.0849247048
 20
94.4661429263
 10
254.0561350209
 20
94.4530497063
 10
254.024308058
 20
94.4403533138
 10
253.9896070589
 20
94.4281447245
 10
253.9522068744
 20
94.4164970418
 10
253.9121294789
 20
94.4054279073
 10
253.8693258478
 20
94.394945646
 10
253.8237537754
 20
94.3850732482
 10
253.7756501761
 20
94.3758939203
 10
253.7254131565
 20
94.3674995543
 10
253.6734232009
 20
94.3599531395
 10
253.6196607237
 20
94.3532512662
 10
253.563938989
 20
94.3473871418
 10
253.506038125
 20
94.3423749425
 10
253.4465153967
 20
94.3382997471
 10
253.3863820337
 20
94.3352356629
 10
253.3261501103
 20
94.3331859785
 10
253.2657858464
 20
94.3321271447
  0
LINE
  5
473
100
AcDbEntity
  8
IMPORT_IGES
100
AcDbLine
 62
7
  6
CONTINUOUS
 10
254.1235813001
 20
91.1957818226
 11
254.1275597264
 21
91.2561729036
  0
LINE
  5
474
100
AcDbEntity
  8
IMPORT_IGES
100
AcDbLine
 62
7
  6
CONTINUOUS
 10
254.1195442704
 20
91.1396467303
 11
254.1235813001
 21
91.1957818226
  0
LINE
  5
475
100
AcDbEntity
  8
IMPORT_IGES
100
AcDbLine
 62
7
  6
CONTINUOUS
 10
254.1154309564
 20
91.0874736211
 11
254.1195442704
 21
91.1396467303
  0
LINE
  5
476
100
AcDbEntity
  8
IMPORT_IGES
100
AcDbLine
 62
250
  6
CONTINUOUS
 10
251.0274298054
 20
89.8304214412
 11
251.0273496283
 21
89.8300800753
  0
LINE
  5
477
100
AcDbEntity
  8
IMPORT_IGES
100
AcDbLine
 62
250
  6
CONTINUOUS
 10
44.3429518568
 20
189.7105186831
 11
254.2898944292
 21
189.7105186831
  0
LINE
  5
478
100
AcDbEntity
  8
IMPORT_IGES
100
AcDbLine
 62
7
  6
CONTINUOUS
 10
353.016423143
 20
132.3610612635
 11
325.016423143
 21
144.3610612635
  0
LINE
  5
479
100
AcDbEntity
  8
IMPORT_IGES
100
AcDbLine
 62
7
  6
CONTINUOUS
 10
345.516423143
 20
138.6216562202
 11
332.016423143
 21
144.4073705059
  0
LINE
  5
47A
100
AcDbEntity
  8
IMPORT_IGES
100
AcDbLine
 62
7
  6
CONTINUOUS
 10
347.9014917665
 20
138.3610612635
 11
347.016423143
 21
138.7403763879
  0
LINE
  5
47B
100
AcDbEntity
  8
IMPORT_IGES
100
AcDbLine
 62
7
  6
CONTINUOUS
 10
330.516423143
 20
145.8118049593
 11
325.016423143
 21
148.1689478165
  0
LWPOLYLINE
  5
47C
100
AcDbEntity
  8
IMPORT_IGES
100
AcDbPolyline
 62
7
  6
CONTINUOUS
 90
37
 70
0
 10
254.0968804731
 20
198.6204484802
 10
254.0944660951
 20
198.6403351961
 10
254.0920032693
 20
198.6598403539
 10
254.0894858424
 20
198.6789891839
 10
254.0868953922
 20
198.6978902903
 10
254.0842267008
 20
198.7165434015
 10
254.0814693397
 20
198.7349808181
 10
254.0785910111
 20
198.7533644183
 10
254.0755822783
 20
198.7716886858
 10
254.0724250792
 20
198.7899940976
 10
254.0690627581
 20
198.8085171157
 10
254.065471859
 20
198.8272726045
 10
254.0616249038
 20
198.8462830578
 10
254.0574391451
 20
198.8658082621
 10
254.0528754529
 20
198.885853142
 10
254.0478809149
 20
198.9064617365
 10
254.0423183835
 20
198.9279680514
 10
254.036106162
 20
198.9504094164
 10
254.0291598251
 20
198.973795334
 10
254.0212877008
 20
198.9984282068
 10
254.012390135
 20
199.024235501
 10
254.0022953238
 20
199.0513094679
 10
253.9906124622
 20
199.0801931517
 10
253.9770250602
 20
199.1110751478
 10
253.9613968849
 20
199.1436757851
 10
253.9435531911
 20
199.1778008219
 10
253.923166556
 20
199.2134977208
 10
253.9000902711
 20
199.2504321579
 10
253.8745061737
 20
199.2878147244
 10
253.8463833618
 20
199.3252852921
 10
253.8154706911
 20
199.362762442
 10
253.7817259853
 20
199.3998618526
 10
253.7452200046
 20
199.4361028037
 10
253.7057397334
 20
199.4713760522
 10
253.6628279264
 20
199.5057601402
 10
253.6165422491
 20
199.5388211269
 10
253.6088494771
 20
199.5439447153
  0
LINE
  5
47D
100
AcDbEntity
  8
IMPORT_IGES
100
AcDbLine
 62
7
  6
CONTINUOUS
 10
254.1015837861
 20
198.5794473526
 11
254.0968804731
 21
198.6204484802
  0
LINE
  5
47E
100
AcDbEntity
  8
IMPORT_IGES
100
AcDbLine
 62
7
  6
CONTINUOUS
 10
268.816423143
 20
147.8610612635
 11
268.816423143
 21
157.8610612635
  0
LWPOLYLINE
  5
47F
100
AcDbEntity
  8
IMPORT_IGES
100
AcDbPolyline
 62
250
  6
CONTINUOUS
 90
12
 70
0
 10
253.0827762161
 20
89.9375340444
 10
253.087557375
 20
89.9479217275
 10
253.0923327407
 20
89.967101177
 10
253.097102313
 20
89.9950881541
 10
253.1018738676
 20
90.0318904189
 10
253.1066396289
 20
90.0774942912
 10
253.1113762706
 20
90.1318536207
 10
253.1160837285
 20
90.1949208603
 10
253.1207620667
 20
90.266635254
 10
253.1253881513
 20
90.3468914838
 10
253.1299616942
 20
90.4355921487
 10
253.1389297493
 20
90.637835338
  0
LINE
  5
480
100
AcDbEntity
  8
IMPORT_IGES
100
AcDbLine
 62
7
  6
CONTINUOUS
 10
45.5751259153
 20
199.7093863044
 11
253.0577079676
 21
199.7091325007
  0
LWPOLYLINE
  5
481
100
AcDbEntity
  8
IMPORT_IGES
100
AcDbPolyline
 62
7
  6
CONTINUOUS
 90
12
 70
0
 10
253.0577079676
 20
199.7091325007
 10
253.1146603079
 20
199.7075905696
 10
253.1713107091
 20
199.7027796253
 10
253.2276591712
 20
199.6946996678
 10
253.2839224122
 20
199.6833389864
 10
253.3398837141
 20
199.6687092919
 10
253.3948929234
 20
199.6508457166
 10
253.4489405191
 20
199.6296891192
 10
253.5020360223
 20
199.6052986409
 10
253.553557842
 20
199.577886838
 10
253.6034998879
 20
199.5474193962
 10
253.608836575
 20
199.5439251443
  0
LWPOLYLINE
  5
482
100
AcDbEntity
  8
IMPORT_IGES
100
AcDbPolyline
 62
7
  6
CONTINUOUS
 90
32
 70
0
 10
253.7901325898
 20
90.2303347731
 10
253.79961994
 20
90.239963965
 10
253.8319960644
 20
90.2749469536
 10
253.862076206
 20
90.31070388
 10
253.8900828722
 20
90.3472541696
 10
253.9158798875
 20
90.384182781
 10
253.9393777896
 20
90.4210654609
 10
253.9607362844
 20
90.4578422175
 10
253.9799931734
 20
90.4942711412
 10
253.9969971825
 20
90.5296674568
 10
254.011890374
 20
90.5638324502
 10
254.0249100415
 20
90.5968120867
 10
254.0361713265
 20
90.6283294388
 10
254.0458971643
 20
90.6583713721
 10
254.0543026916
 20
90.6869897855
 10
254.0615208248
 20
90.7140264448
 10
254.0676790098
 20
90.7393225684
 10
254.0729882264
 20
90.7631474029
 10
254.0776585406
 20
90.7859638708
 10
254.0817784723
 20
90.8078025173
 10
254.085435283
 20
90.8287512552
 10
254.0887697012
 20
90.8493226759
 10
254.0918282937
 20
90.86958247
 10
254.0946468575
 20
90.8895613445
 10
254.097308573
 20
90.9096933493
 10
254.0998402922
 20
90.9300792037
 10
254.1022528818
 20
90.9507117588
 10
254.1045851663
 20
90.9718496826
 10
254.1068501586
 20
90.9935644466
 10
254.1090536645
 20
91.0158698116
 10
254.1112144183
 20
91.0389250017
 10
254.1154309564
 20
91.0874736211
  0
LINE
  5
483
100
AcDbEntity
  8
IMPORT_IGES
100
AcDbLine
 62
7
  6
CONTINUOUS
 10
253.7337710595
 20
90.1739730552
 11
253.7898825927
 21
90.2300845885
  0
LINE
  5
484
100
AcDbEntity
  8
IMPORT_IGES
100
AcDbLine
 62
250
  6
CONTINUOUS
 10
253.082775832
 20
89.9375340446
 11
253.0266590493
 21
89.8814235929
  0
LWPOLYLINE
  5
485
100
AcDbEntity
  8
IMPORT_IGES
100
AcDbPolyline
 62
250
  6
CONTINUOUS
 90
3
 70
0
 10
253.733686569
 20
90.1738885748
 10
253.7241064412
 20
90.1644389384
 10
253.7167497782
 20
90.1573541282
  0
LWPOLYLINE
  5
486
100
AcDbEntity
  8
IMPORT_IGES
100
AcDbPolyline
 62
250
  6
CONTINUOUS
 90
15
 70
0
 10
253.7898825927
 20
90.2300845885
 10
253.7798589486
 20
90.2202012524
 10
253.7365662086
 20
90.1805204643
 10
253.6905934326
 20
90.1431296877
 10
253.6421887892
 20
90.1083323118
 10
253.591872964
 20
90.0765315419
 10
253.5400831627
 20
90.0479545846
 10
253.4867758498
 20
90.0225301454
 10
253.4317740798
 20
90.0001945007
 10
253.3748792241
 20
89.9809627573
 10
253.3166354167
 20
89.9651131834
 10
253.2580019613
 20
89.9528911435
 10
253.1994626822
 20
89.9442876874
 10
253.1409843232
 20
89.9391902925
 10
253.0827758115
 20
89.9375340446
  0
LINE
  5
487
100
AcDbEntity
  8
IMPORT_IGES
100
AcDbLine
 62
7
  6
CONTINUOUS
 10
330.516423143
 20
159.9103175678
 11
332.016423143
 21
161.3147520212
  0
LWPOLYLINE
  5
488
100
AcDbEntity
  8
IMPORT_IGES
100
AcDbPolyline
 62
250
  6
CONTINUOUS
 90
5
 70
0
 10
253.6895849241
 20
90.1323946815
 10
253.6814881745
 20
90.1253029668
 10
253.6362171501
 20
90.088348931
 10
253.5885245662
 20
90.0538768753
 10
253.5759890213
 20
90.0453565821
  0
LINE
  5
489
100
AcDbEntity
  8
IMPORT_IGES
100
AcDbLine
 62
7
  6
CONTINUOUS
 10
347.9014917665
 20
167.3610612635
 11
355.9781126842
 21
173.3610612635
  0
LWPOLYLINE
  5
48A
100
AcDbEntity
  8
IMPORT_IGES
100
AcDbPolyline
 62
250
  6
CONTINUOUS
 90
11
 70
0
 10
253.5470378276
 20
90.0269836206
 10
253.538797869
 20
90.0222220182
 10
253.4874067287
 20
89.9936162967
 10
253.4343284346
 20
89.9680437983
 10
253.379375634
 20
89.9454721623
 10
253.322332006
 20
89.9259450893
 10
253.2637371647
 20
89.9097782405
 10
253.2045673956
 20
89.8972581483
 10
253.1453143466
 20
89.8884075122
 10
253.0859413058
 20
89.8831409248
 10
253.0266642782
 20
89.8814225113
  0
LINE
  5
48B
100
AcDbEntity
  8
ASSI
100
AcDbLine
 62
7
  6
CONTINUOUS
 10
354.077127143
 20
151.4427444593
 11
353.471797143
 21
151.1029914593
  0
LWPOLYLINE
  5
48C
100
AcDbEntity
  8
IMPORT_IGES
100
AcDbPolyline
 62
250
  6
CONTINUOUS
 90
9
 70
0
 10
253.0266590493
 20
89.8814235929
 10
253.0210684964
 20
89.878650955
 10
253.0102331447
 20
89.8759222786
 10
252.9941529944
 20
89.8732375636
 10
252.9727941209
 20
89.8705988146
 10
252.9461904488
 20
89.8680040271
 10
252.914443751
 20
89.8654471872
 10
252.8773556029
 20
89.862914918
 10
252.8351244293
 20
89.8604205964
  0
LWPOLYLINE
  5
48D
100
AcDbEntity
  8
IMPORT_IGES
100
AcDbPolyline
 62
250
  6
CONTINUOUS
 90
17
 70
0
 10
253.0577079405
 20
199.709393615
 10
253.0616751501
 20
199.7054398659
 10
253.0656392887
 20
199.6986084166
 10
253.0696003561
 20
199.6888672431
 10
253.073559727
 20
199.6761837073
 10
253.0775160268
 20
199.6605281223
 10
253.081465132
 20
199.641876601
 10
253.0854089359
 20
199.6201914562
 10
253.0893455452
 20
199.5954557859
 10
253.093265156
 20
199.5676964274
 10
253.0971674554
 20
199.5369060967
 10
253.1010527564
 20
199.5030774678
 10
253.104912194
 20
199.4662696006
 10
253.1087430296
 20
199.4265144616
 10
253.1125480019
 20
199.3838044711
 10
253.1163264616
 20
199.3381568794
 10
253.1200780638
 20
199.2895873895
  0
LINE
  5
48E
100
AcDbEntity
  8
IMPORT_IGES
100
AcDbLine
 62
7
  6
CONTINUOUS
 10
299.016423143
 20
145.3610612635
 11
299.016423143
 21
160.3610612635
  0
LINE
  5
48F
100
AcDbEntity
  8
ASSI
100
AcDbLine
 62
7
  6
CONTINUOUS
 10
353.4717971392
 20
154.5206994615
 11
354.0771280749
 21
154.1809459363
  0
LINE
  5
490
100
AcDbEntity
  8
ASSI
100
AcDbLine
 62
7
  6
CONTINUOUS
 10
350.796449143
 20
150.1388804593
 11
351.342470143
 21
149.7537224593
  0
LINE
  5
491
100
AcDbEntity
  8
IMPORT_IGES
100
AcDbLine
 62
7
  6
CONTINUOUS
 10
355.9781126842
 20
132.3610612635
 11
347.9014917665
 21
138.3610612635
  0
LINE
  5
492
100
AcDbEntity
  8
IMPORT_IGES
100
AcDbLine
 62
7
  6
CONTINUOUS
 10
332.016423143
 20
144.4073705059
 11
330.516423143
 21
145.8118049593
  0
LINE
  5
493
100
AcDbEntity
  8
IMPORT_IGES
100
AcDbLine
 62
7
  6
CONTINUOUS
 10
302.016423143
 20
146.2710612635
 11
302.016423143
 21
151.1110612635
  0
LINE
  5
494
100
AcDbEntity
  8
IMPORT_IGES
100
AcDbLine
 62
7
  6
CONTINUOUS
 10
302.016423143
 20
154.6110612635
 11
302.016423143
 21
159.4510612635
  0
LINE
  5
495
100
AcDbEntity
  8
IMPORT_IGES
100
AcDbLine
 62
7
  6
CONTINUOUS
 10
304.216423143
 20
151.1110612635
 11
304.216423143
 21
146.2710612635
  0
LINE
  5
496
100
AcDbEntity
  8
IMPORT_IGES
100
AcDbLine
 62
7
  6
CONTINUOUS
 10
304.216423143
 20
154.6110612635
 11
304.216423143
 21
159.4510612635
  0
LINE
  5
497
100
AcDbEntity
  8
IMPORT_IGES
100
AcDbLine
 62
7
  6
CONTINUOUS
 10
306.716423143
 20
146.2710612635
 11
306.716423143
 21
151.1110612635
  0
LINE
  5
498
100
AcDbEntity
  8
IMPORT_IGES
100
AcDbLine
 62
7
  6
CONTINUOUS
 10
306.716423143
 20
154.6110612635
 11
306.716423143
 21
159.4510612635
  0
LINE
  5
499
100
AcDbEntity
  8
IMPORT_IGES
100
AcDbLine
 62
7
  6
CONTINUOUS
 10
308.916423143
 20
159.4510612635
 11
308.916423143
 21
154.6110612635
  0
LINE
  5
49A
100
AcDbEntity
  8
IMPORT_IGES
100
AcDbLine
 62
7
  6
CONTINUOUS
 10
308.916423143
 20
151.1110612635
 11
308.916423143
 21
146.2710612635
  0
LINE
  5
49B
100
AcDbEntity
  8
IMPORT_IGES
100
AcDbLine
 62
7
  6
CONTINUOUS
 10
311.416423143
 20
146.2710612635
 11
311.416423143
 21
151.1110612635
  0
LINE
  5
49C
100
AcDbEntity
  8
IMPORT_IGES
100
AcDbLine
 62
7
  6
CONTINUOUS
 10
311.416423143
 20
154.6110612635
 11
311.416423143
 21
159.4510612635
  0
LINE
  5
49D
100
AcDbEntity
  8
IMPORT_IGES
100
AcDbLine
 62
7
  6
CONTINUOUS
 10
313.616423143
 20
159.4510612635
 11
313.616423143
 21
154.6110612635
  0
LINE
  5
49E
100
AcDbEntity
  8
IMPORT_IGES
100
AcDbLine
 62
7
  6
CONTINUOUS
 10
313.616423143
 20
151.1110612635
 11
313.616423143
 21
146.2710612635
  0
LINE
  5
49F
100
AcDbEntity
  8
IMPORT_IGES
100
AcDbLine
 62
7
  6
CONTINUOUS
 10
316.116423143
 20
146.2710612635
 11
316.116423143
 21
151.1110612635
  0
LINE
  5
4A0
100
AcDbEntity
  8
IMPORT_IGES
100
AcDbLine
 62
7
  6
CONTINUOUS
 10
316.116423143
 20
154.6110612635
 11
316.116423143
 21
159.4510612635
  0
LINE
  5
4A1
100
AcDbEntity
  8
IMPORT_IGES
100
AcDbLine
 62
7
  6
CONTINUOUS
 10
318.316423143
 20
159.4510612635
 11
318.316423143
 21
154.6110612635
  0
LINE
  5
4A2
100
AcDbEntity
  8
IMPORT_IGES
100
AcDbLine
 62
7
  6
CONTINUOUS
 10
318.316423143
 20
151.1110612635
 11
318.316423143
 21
146.2710612635
  0
LINE
  5
4A3
100
AcDbEntity
  8
IMPORT_IGES
100
AcDbLine
 62
7
  6
CONTINUOUS
 10
320.816423143
 20
146.2710612635
 11
320.816423143
 21
151.1110612635
  0
LINE
  5
4A4
100
AcDbEntity
  8
IMPORT_IGES
100
AcDbLine
 62
7
  6
CONTINUOUS
 10
320.816423143
 20
154.6110612635
 11
320.816423143
 21
159.4510612635
  0
LINE
  5
4A5
100
AcDbEntity
  8
IMPORT_IGES
100
AcDbLine
 62
7
  6
CONTINUOUS
 10
323.016423143
 20
159.4510612635
 11
323.016423143
 21
154.6110612635
  0
LINE
  5
4A6
100
AcDbEntity
  8
IMPORT_IGES
100
AcDbLine
 62
7
  6
CONTINUOUS
 10
323.016423143
 20
151.1110612635
 11
323.016423143
 21
146.2710612635
  0
LINE
  5
4A7
100
AcDbEntity
  8
ASSI
100
AcDbLine
 62
7
  6
CONTINUOUS
 10
357.997632143
 20
155.1847374593
 11
356.325164143
 21
153.2000984593
  0
LINE
  5
4A8
100
AcDbEntity
  8
ASSI
100
AcDbLine
 62
7
  6
CONTINUOUS
 10
357.239851143
 20
153.2000984593
 11
358.989515143
 21
155.2763424593
  0
LINE
  5
4A9
100
AcDbEntity
  8
IMPORT_IGES
100
AcDbLine
 62
7
  6
CONTINUOUS
 10
325.016423143
 20
161.3610612635
 11
325.016423143
 21
144.3610612635
  0
LINE
  5
4AA
100
AcDbEntity
  8
IMPORT_IGES
100
AcDbLine
 62
7
  6
CONTINUOUS
 10
330.516423143
 20
145.8118049593
 11
330.516423143
 21
159.9103175678
  0
LINE
  5
4AB
100
AcDbEntity
  8
IMPORT_IGES
100
AcDbLine
 62
7
  6
CONTINUOUS
 10
332.016423143
 20
161.3147520212
 11
332.016423143
 21
144.4073705059
  0
LINE
  5
4AC
100
AcDbEntity
  8
ASSI
100
AcDbLine
 62
7
  6
CONTINUOUS
 10
356.333418143
 20
152.4137974593
 11
357.9976328468
 21
150.4389526241
  0
LINE
  5
4AD
100
AcDbEntity
  8
ASSI
100
AcDbLine
 62
7
  6
CONTINUOUS
 10
358.9850388981
 20
150.34286475
 11
357.239851143
 21
152.4137974593
  0
LINE
  5
4AE
100
AcDbEntity
  8
IMPORT_IGES
100
AcDbLine
 62
7
  6
CONTINUOUS
 10
345.516423143
 20
138.6216562202
 11
345.516423143
 21
167.1004663069
  0
LINE
  5
4AF
100
AcDbEntity
  8
IMPORT_IGES
100
AcDbLine
 62
7
  6
CONTINUOUS
 10
347.016423143
 20
138.7403763879
 11
347.016423143
 21
166.9817461392
  0
LINE
  5
4B0
100
AcDbEntity
  8
ASSI
100
AcDbLine
 62
7
  6
CONTINUOUS
 10
353.139873143
 20
153.8542074593
 11
353.139873143
 21
151.7599434593
  0
LINE
  5
4B1
100
AcDbEntity
  8
ASSI
100
AcDbLine
 62
7
  6
CONTINUOUS
 10
353.877965143
 20
151.7599434593
 11
353.877965143
 21
152.4137974593
  0
LINE
  5
4B2
100
AcDbEntity
  8
ASSI
100
AcDbLine
 62
7
  6
CONTINUOUS
 10
353.877965143
 20
153.2000984593
 11
353.877965143
 21
153.8542074593
  0
LINE
  5
4B3
100
AcDbEntity
  8
ASSI
100
AcDbLine
 62
7
  6
CONTINUOUS
 10
359.121745143
 20
153.8301034593
 11
359.121745143
 21
153.2000984593
  0
LINE
  5
4B4
100
AcDbEntity
  8
ASSI
100
AcDbLine
 62
7
  6
CONTINUOUS
 10
359.121745143
 20
152.4137974593
 11
359.121745143
 21
151.7840474593
  0
LINE
  5
4B5
100
AcDbEntity
  8
ASSI
100
AcDbLine
 62
7
  6
CONTINUOUS
 10
359.863897143
 20
151.7840474593
 11
359.863897143
 21
153.8301034593
  0
LINE
  5
4B6
100
AcDbEntity
  8
IMPORT_IGES
100
AcDbLine
 62
7
  6
CONTINUOUS
 10
365.016423143
 20
132.3610612635
 11
365.016423143
 21
173.3610612635
  0
LINE
  5
4B7
100
AcDbEntity
  8
IMPORT_IGES
100
AcDbLine
 62
7
  6
CONTINUOUS
 10
365.216423143
 20
142.9417063852
 11
365.216423143
 21
145.3610612635
  0
LINE
  5
4B8
100
AcDbEntity
  8
IMPORT_IGES
100
AcDbLine
 62
7
  6
CONTINUOUS
 10
365.216423143
 20
145.9572407787
 11
365.216423143
 21
148.2440766876
  0
LINE
  5
4B9
100
AcDbEntity
  8
IMPORT_IGES
100
AcDbLine
 62
7
  6
CONTINUOUS
 10
365.216423143
 20
148.4265455787
 11
365.216423143
 21
150.056831557
  0
LINE
  5
4BA
100
AcDbEntity
  8
IMPORT_IGES
100
AcDbLine
 62
7
  6
CONTINUOUS
 10
365.216423143
 20
150.3416201656
 11
365.216423143
 21
151.9991919582
  0
LINE
  5
4BB
100
AcDbEntity
  8
IMPORT_IGES
100
AcDbLine
 62
7
  6
CONTINUOUS
 10
365.216423143
 20
152.3283192699
 11
365.216423143
 21
153.9807745998
  0
LINE
  5
4BC
100
AcDbEntity
  8
IMPORT_IGES
100
AcDbLine
 62
7
  6
CONTINUOUS
 10
365.216423143
 20
156.0220435445
 11
365.216423143
 21
158.3617434089
  0
LINE
  5
4BD
100
AcDbEntity
  8
IMPORT_IGES
100
AcDbLine
 62
7
  6
CONTINUOUS
 10
365.216423143
 20
158.5169276778
 11
365.216423143
 21
160.1676778679
  0
LINE
  5
4BE
100
AcDbEntity
  8
IMPORT_IGES
100
AcDbLine
 62
7
  6
CONTINUOUS
 10
365.216423143
 20
160.9401881878
 11
365.216423143
 21
161.8610612486
  0
LINE
  5
4BF
100
AcDbEntity
  8
IMPORT_IGES
100
AcDbLine
 62
7
  6
CONTINUOUS
 10
375.4235299242
 20
137.4610612677
 11
375.4235299243
 21
142.2610612594
  0
LINE
  5
4C0
100
AcDbEntity
  8
IMPORT_IGES
100
AcDbLine
 62
7
  6
CONTINUOUS
 10
375.4235299242
 20
163.4610612677
 11
375.4235299243
 21
168.2610612594
  0
LINE
  5
4C1
100
AcDbEntity
  8
IMPORT_IGES
100
AcDbLine
 62
250
  6
CONTINUOUS
 10
375.7235299242
 20
137.3610612636
 11
375.7235299242
 21
142.3610612634
  0
LINE
  5
4C2
100
AcDbEntity
  8
IMPORT_IGES
100
AcDbLine
 62
250
  6
CONTINUOUS
 10
375.7235299242
 20
163.3610612636
 11
375.7235299242
 21
168.3610612634
  0
LINE
  5
4C3
100
AcDbEntity
  8
IMPORT_IGES
100
AcDbLine
 62
250
  6
CONTINUOUS
 10
381.516423143
 20
137.3610612636
 11
381.516423143
 21
142.3610612634
  0
LINE
  5
4C4
100
AcDbEntity
  8
IMPORT_IGES
100
AcDbLine
 62
250
  6
CONTINUOUS
 10
381.516423143
 20
163.3610612636
 11
381.516423143
 21
168.3610612634
  0
LINE
  5
4C5
100
AcDbEntity
  8
IMPORT_IGES
100
AcDbLine
 62
250
  6
CONTINUOUS
 10
382.016423143
 20
150.3610612635
 11
382.016423143
 21
155.3610612635
  0
CIRCLE
  5
4C6
100
AcDbEntity
  8
IMPORT_IGES
100
AcDbCircle
 62
250
  6
CONTINUOUS
 10
54.0872541711
 20
118.0927086891
 40
3.9999752963
  0
CIRCLE
  5
4C7
100
AcDbEntity
  8
IMPORT_IGES
100
AcDbCircle
 62
7
  6
CONTINUOUS
 10
54.0872541711
 20
118.0927086891
 40
3.5
  0
CIRCLE
  5
4C8
100
AcDbEntity
  8
IMPORT_IGES
100
AcDbCircle
 62
7
  6
CONTINUOUS
 10
54.0872541711
 20
118.0927086891
 40
3.45
  0
CIRCLE
  5
4C9
100
AcDbEntity
  8
IMPORT_IGES
100
AcDbCircle
 62
250
  6
CONTINUOUS
 10
109.0872541711
 20
118.0927086891
 40
3.3999784074
  0
CIRCLE
  5
4CA
100
AcDbEntity
  8
IMPORT_IGES
100
AcDbCircle
 62
250
  6
CONTINUOUS
 10
54.0872541711
 20
118.0927086891
 40
3.1499854475
  0
CIRCLE
  5
4CB
100
AcDbEntity
  8
IMPORT_IGES
100
AcDbCircle
 62
7
  6
CONTINUOUS
 10
109.0872541711
 20
118.0927086891
 40
2.9
  0
CIRCLE
  5
4CC
100
AcDbEntity
  8
IMPORT_IGES
100
AcDbCircle
 62
7
  6
CONTINUOUS
 10
109.0872541711
 20
118.0927086891
 40
2.4999993374
  0
ARC
  5
4CD
100
AcDbEntity
  8
IMPORT_IGES
100
AcDbCircle
 62
250
  6
CONTINUOUS
 10
109.0872541711
 20
118.0927086891
 40
2.2222222222
100
AcDbArc
 50
284.1813512976
 51
75.8186487024
  0
ARC
  5
4CE
100
AcDbEntity
  8
IMPORT_IGES
100
AcDbCircle
 62
250
  6
CONTINUOUS
 10
109.0872541711
 20
118.0927086891
 40
2.222209717
100
AcDbArc
 50
104.1819873104
 51
255.8180126897
  0
ARC
  5
4CF
100
AcDbEntity
  8
IMPORT_IGES
100
AcDbCircle
 62
7
  6
CONTINUOUS
 10
122.1443755152
 20
142.8951488646
 40
3.0600000422
100
AcDbArc
 50
84.2608296023
 51
275.7391703977
  0
ARC
  5
4D0
100
AcDbEntity
  8
IMPORT_IGES
100
AcDbCircle
 62
7
  6
CONTINUOUS
 10
122.1443755152
 20
142.8951488646
 40
2.1420002094
100
AcDbArc
 50
81.7867901066
 51
278.2132098934
  0
CIRCLE
  5
4D1
100
AcDbEntity
  8
IMPORT_IGES
100
AcDbCircle
 62
250
  6
CONTINUOUS
 10
189.5455921149
 20
118.0927086891
 40
3.3999784074
  0
CIRCLE
  5
4D2
100
AcDbEntity
  8
IMPORT_IGES
100
AcDbCircle
 62
7
  6
CONTINUOUS
 10
189.5455921149
 20
118.0927086891
 40
2.9
  0
CIRCLE
  5
4D3
100
AcDbEntity
  8
IMPORT_IGES
100
AcDbCircle
 62
7
  6
CONTINUOUS
 10
189.5455921149
 20
118.0927086891
 40
2.4999993374
  0
ARC
  5
4D4
100
AcDbEntity
  8
IMPORT_IGES
100
AcDbCircle
 62
250
  6
CONTINUOUS
 10
189.5455921149
 20
118.0927086891
 40
2.2222222222
100
AcDbArc
 50
284.1813512976
 51
75.8186487024
  0
ARC
  5
4D5
100
AcDbEntity
  8
IMPORT_IGES
100
AcDbCircle
 62
250
  6
CONTINUOUS
 10
189.5455921149
 20
118.0927086891
 40
2.222209717
100
AcDbArc
 50
104.1819873104
 51
255.8180126897
  0
ARC
  5
4D6
100
AcDbEntity
  8
IMPORT_IGES
100
AcDbCircle
 62
7
  6
CONTINUOUS
 10
159.8455921149
 20
127.5885169584
 40
0.3
100
AcDbArc
 50
180.0000000005
 51
269.9999999996
  0
ARC
  5
4D7
100
AcDbEntity
  8
IMPORT_IGES
100
AcDbCircle
 62
7
  6
CONTINUOUS
 10
200.2455921149
 20
127.5885169584
 40
0.3
100
AcDbArc
 50
270.0000000004
 51
359.9999999995
  0
ARC
  5
4D8
100
AcDbEntity
  8
IMPORT_IGES
100
AcDbCircle
 62
7
  6
CONTINUOUS
 10
127.3463755152
 20
142.8951488646
 40
3.0600000422
100
AcDbArc
 50
84.2608296023
 51
275.739170325
  0
ARC
  5
4D9
100
AcDbEntity
  8
IMPORT_IGES
100
AcDbCircle
 62
7
  6
CONTINUOUS
 10
127.3463755152
 20
142.8951488646
 40
2.1420002094
100
AcDbArc
 50
81.7867901067
 51
167.6263759504
  0
ARC
  5
4DA
100
AcDbEntity
  8
IMPORT_IGES
100
AcDbCircle
 62
7
  6
CONTINUOUS
 10
127.3463755152
 20
142.8951488646
 40
2.1419996751
100
AcDbArc
 50
192.373627023
 51
278.2132118486
  0
ARC
  5
4DB
100
AcDbEntity
  8
IMPORT_IGES
100
AcDbCircle
 62
7
  6
CONTINUOUS
 10
145.9332386743
 20
144.5615646426
 40
0.6256461972
100
AcDbArc
 50
179.9952981601
 51
186.7904741416
  0
ARC
  5
4DC
100
AcDbEntity
  8
IMPORT_IGES
100
AcDbCircle
 62
7
  6
CONTINUOUS
 10
145.9241278983
 20
144.561616219
 40
0.6164857967
100
AcDbArc
 50
207.8572889376
 51
353.8694806318
  0
CIRCLE
  5
4DD
100
AcDbEntity
  8
IMPORT_IGES
100
AcDbCircle
 62
250
  6
CONTINUOUS
 10
54.0872541711
 20
175.0380054256
 40
3.9999752963
  0
CIRCLE
  5
4DE
100
AcDbEntity
  8
IMPORT_IGES
100
AcDbCircle
 62
7
  6
CONTINUOUS
 10
54.0872541711
 20
175.0380054256
 40
3.5
  0
CIRCLE
  5
4DF
100
AcDbEntity
  8
IMPORT_IGES
100
AcDbCircle
 62
7
  6
CONTINUOUS
 10
54.0872541711
 20
175.0380054256
 40
3.45
  0
CIRCLE
  5
4E0
100
AcDbEntity
  8
IMPORT_IGES
100
AcDbCircle
 62
250
  6
CONTINUOUS
 10
162.216423143
 20
167.3610612635
 40
3.3999784074
  0
CIRCLE
  5
4E1
100
AcDbEntity
  8
IMPORT_IGES
100
AcDbCircle
 62
250
  6
CONTINUOUS
 10
54.0872541711
 20
175.0380054256
 40
3.1499854475
  0
CIRCLE
  5
4E2
100
AcDbEntity
  8
IMPORT_IGES
100
AcDbCircle
 62
7
  6
CONTINUOUS
 10
162.216423143
 20
167.3610612635
 40
2.9
  0
CIRCLE
  5
4E3
100
AcDbEntity
  8
IMPORT_IGES
100
AcDbCircle
 62
7
  6
CONTINUOUS
 10
162.216423143
 20
167.3610612635
 40
2.4999993374
  0
ARC
  5
4E4
100
AcDbEntity
  8
IMPORT_IGES
100
AcDbCircle
 62
250
  6
CONTINUOUS
 10
162.216423143
 20
167.3610612635
 40
2.2222222222
100
AcDbArc
 50
284.1813512976
 51
75.8186487024
  0
ARC
  5
4E5
100
AcDbEntity
  8
IMPORT_IGES
100
AcDbCircle
 62
250
  6
CONTINUOUS
 10
162.216423143
 20
167.3610612635
 40
2.222209717
100
AcDbArc
 50
104.1819873104
 51
255.8180126897
  0
ARC
  5
4E6
100
AcDbEntity
  8
IMPORT_IGES
100
AcDbCircle
 62
7
  6
CONTINUOUS
 10
159.8455921149
 20
152.9885169584
 40
0.3
100
AcDbArc
 50
89.999999998
 51
180.0
  0
ARC
  5
4E7
100
AcDbEntity
  8
IMPORT_IGES
100
AcDbCircle
 62
7
  6
CONTINUOUS
 10
200.2455921149
 20
152.9885169584
 40
0.3
100
AcDbArc
 50
0.0
 51
90.000000002
  0
ARC
  5
4E8
100
AcDbEntity
  8
IMPORT_IGES
100
AcDbCircle
 62
7
  6
CONTINUOUS
 10
146.5580200697
 20
149.5197580387
 40
0.2854448654
100
AcDbArc
 50
247.1864725054
 51
141.8909065122
  0
CIRCLE
  5
4E9
100
AcDbEntity
  8
IMPORT_IGES
100
AcDbCircle
 62
250
  6
CONTINUOUS
 10
244.5455921149
 20
118.0927086891
 40
3.9999752963
  0
CIRCLE
  5
4EA
100
AcDbEntity
  8
IMPORT_IGES
100
AcDbCircle
 62
7
  6
CONTINUOUS
 10
244.5455921149
 20
118.0927086891
 40
3.5
  0
CIRCLE
  5
4EB
100
AcDbEntity
  8
IMPORT_IGES
100
AcDbCircle
 62
7
  6
CONTINUOUS
 10
244.5455921149
 20
118.0927086891
 40
3.45
  0
CIRCLE
  5
4EC
100
AcDbEntity
  8
IMPORT_IGES
100
AcDbCircle
 62
250
  6
CONTINUOUS
 10
244.5455921149
 20
118.0927086891
 40
3.1499854475
  0
ARC
  5
4ED
100
AcDbEntity
  8
IMPORT_IGES
100
AcDbCircle
 62
7
  6
CONTINUOUS
 10
381.516423143
 20
139.8610612635
 40
2.5
100
AcDbArc
 50
270.00019031
 51
90.0
  0
ARC
  5
4EE
100
AcDbEntity
  8
IMPORT_IGES
100
AcDbCircle
 62
7
  6
CONTINUOUS
 10
375.7235299242
 20
141.8610612636
 40
0.4999999999
100
AcDbArc
 50
90.0006776679
 51
126.8698976446
  0
ARC
  5
4EF
100
AcDbEntity
  8
IMPORT_IGES
100
AcDbCircle
 62
7
  6
CONTINUOUS
 10
375.7235299242
 20
137.8610612635
 40
0.4999999999
100
AcDbArc
 50
233.1301023532
 51
270.0000000005
  0
CIRCLE
  5
4F0
100
AcDbEntity
  8
IMPORT_IGES
100
AcDbCircle
 62
7
  6
CONTINUOUS
 10
356.016423143
 20
152.8610612635
 40
6.0
  0
ARC
  5
4F1
100
AcDbEntity
  8
ASSI
100
AcDbCircle
 62
7
  6
CONTINUOUS
 10
356.516423143
 20
152.8118454593
 40
4.6477727604
100
AcDbArc
 50
202.0885400684
 51
183.4298331581
  0
ARC
  5
4F2
100
AcDbEntity
  8
ASSI
100
AcDbCircle
 62
7
  6
CONTINUOUS
 10
347.754773143
 20
152.9524214593
 40
4.143405103
100
AcDbArc
 50
317.2312690148
 51
354.2011526168
  0
ARC
  5
4F3
100
AcDbEntity
  8
ASSI
100
AcDbCircle
 62
7
  6
CONTINUOUS
 10
348.425912143
 20
152.6263374593
 40
4.0936814123
100
AcDbArc
 50
315.4348980565
 51
337.5658614676
  0
CIRCLE
  5
4F4
100
AcDbEntity
  8
IMPORT_IGES
100
AcDbCircle
 62
250
  6
CONTINUOUS
 10
244.5455921149
 20
175.0380054256
 40
3.9999752963
  0
CIRCLE
  5
4F5
100
AcDbEntity
  8
ASSI
100
AcDbCircle
 62
7
  6
CONTINUOUS
 10
356.516423143
 20
152.8118454593
 40
3.903804
  0
CIRCLE
  5
4F6
100
AcDbEntity
  8
IMPORT_IGES
100
AcDbCircle
 62
7
  6
CONTINUOUS
 10
244.5455921149
 20
175.0380054256
 40
3.5
  0
ARC
  5
4F7
100
AcDbEntity
  8
ASSI
100
AcDbCircle
 62
7
  6
CONTINUOUS
 10
356.516423143
 20
152.8118454593
 40
3.4914079543
100
AcDbArc
 50
44.9002637264
 51
150.6958558882
  0
ARC
  5
4F8
100
AcDbEntity
  8
ASSI
100
AcDbCircle
 62
7
  6
CONTINUOUS
 10
356.516423143
 20
152.8118454593
 40
3.49140795
100
AcDbArc
 50
209.3041441118
 51
314.9957650772
  0
CIRCLE
  5
4F9
100
AcDbEntity
  8
IMPORT_IGES
100
AcDbCircle
 62
7
  6
CONTINUOUS
 10
244.5455921149
 20
175.0380054256
 40
3.45
  0
CIRCLE
  5
4FA
100
AcDbEntity
  8
IMPORT_IGES
100
AcDbCircle
 62
250
  6
CONTINUOUS
 10
244.5455921149
 20
175.0380054256
 40
3.1499854475
  0
ARC
  5
4FB
100
AcDbEntity
  8
ASSI
100
AcDbCircle
 62
7
  6
CONTINUOUS
 10
356.516423143
 20
152.8118454593
 40
2.7972490994
100
AcDbArc
 50
209.3041427885
 51
301.9732789064
  0
ARC
  5
4FC
100
AcDbEntity
  8
ASSI
100
AcDbCircle
 62
7
  6
CONTINUOUS
 10
356.516423143
 20
152.8118454593
 40
2.7972480307
100
AcDbArc
 50
58.0267242642
 51
150.6958572115
  0
ARC
  5
4FD
100
AcDbEntity
  8
IMPORT_IGES
100
AcDbCircle
 62
7
  6
CONTINUOUS
 10
381.516423143
 20
165.8610612635
 40
2.5
100
AcDbArc
 50
270.00019031
 51
90.0
  0
ARC
  5
4FE
100
AcDbEntity
  8
IMPORT_IGES
100
AcDbCircle
 62
7
  6
CONTINUOUS
 10
382.016423143
 20
152.8610612635
 40
2.5
100
AcDbArc
 50
270.0
 51
90.0
  0
ARC
  5
4FF
100
AcDbEntity
  8
IMPORT_IGES
100
AcDbCircle
 62
7
  6
CONTINUOUS
 10
375.7235299242
 20
167.8610612636
 40
0.4999999999
100
AcDbArc
 50
90.0006776679
 51
126.8698976446
  0
ARC
  5
500
100
AcDbEntity
  8
IMPORT_IGES
100
AcDbCircle
 62
7
  6
CONTINUOUS
 10
375.7235299242
 20
163.8610612635
 40
0.4999999999
100
AcDbArc
 50
233.1301023532
 51
270.0000000005
  0
ENDSEC
  0
SECTION
  2
OBJECTS
  0
DICTIONARY
  5
C
100
AcDbDictionary
280
0
281
1
  3
ACAD_GROUP
350
D
  3
ACAD_MLINESTYLE
350
17
  3
ACAD_LAYOUT
350
1A
  3
ACAD_PLOTSETTINGS
350
19
  3
ACAD_PLOTSTYLENAME
350
E
  0
DICTIONARY
  5
D
102
{ACAD_REACTORS
330
C
102
}
100
AcDbDictionary
280
0
281
1
  0
ACDBDICTIONARYWDFLT
  5
E
102
{ACAD_REACTORS
330
C
102
}
100
AcDbDictionary
281
1
  3
Normal
350
F
100
AcDbDictionaryWithDefault
340
F
  0
DICTIONARY
  5
17
102
{ACAD_REACTORS
330
C
102
}
100
AcDbDictionary
280
0
281
1
  3
Standard
350
18
  0
DICTIONARY
  5
19
102
{ACAD_REACTORS
330
C
102
}
100
AcDbDictionary
281
1
  0
DICTIONARY
  5
1A
102
{ACAD_REACTORS
330
C
102
}
100
AcDbDictionary
281
1
  3
Model
350
501
  3
Layout1
350
502
  0
ACDBPLACEHOLDER
  5
F
102
{ACAD_REACTORS
330
E
102
}
  0
MLINESTYLE
  5
18
102
{ACAD_REACTORS
330
17
102
}
100
AcDbMlineStyle
  2
STANDARD
 70
0
  3

 62
256
 51
90.0
 52
90.0
 71
2
 49
0.5
 62
256
  6
BYLAYER
 49
-0.5
 62
256
  6
BYLAYER
  0
LAYOUT
  5
501
102
{ACAD_REACTORS
330
1A
102
}
100
AcDbPlotSettings
  1

  2
none_device
  4
ISO_A3_(420.00_x_297.00_MM)
  6

 40
0.0
 41
0.0
 42
0.0
 43
0.0
 44
420.0
 45
297.0
 46
0.0
 47
0.0
 48
0.0
 49
0.0
140
0.0
141
0.0
142
1.0
143
1.0
 70
1024
 72
1
 73
0
 74
0
  7

 75
0
147
1.0
148
0.0
149
0.0
100
AcDbLayout
  1
Model
 70
0
 71
0
 10
0.0
 20
0.0
 11
420.0
 21
297.0
 12
0.0
 22
0.0
 32
0.0
 14
0.0
 24
0.0
 34
0.0
 15
0.0
 25
0.0
 35
0.0
146
0.0
 13
0.0
 23
0.0
 33
0.0
 16
1.0
 26
0.0
 36
0.0
 17
0.0
 27
1.0
 37
0.0
 76
0
330
24B
345
0
346
0
  0
LAYOUT
  5
502
102
{ACAD_REACTORS
330
1A
102
}
100
AcDbPlotSettings
  1

  2
none_device
  4
ISO_A3_(420.00_x_297.00_MM)
  6

 40
0.0
 41
0.0
 42
0.0
 43
0.0
 44
420.0
 45
297.0
 46
0.0
 47
0.0
 48
0.0
 49
0.0
140
0.0
141
0.0
142
1.0
143
1.0
 70
0
 72
1
 73
0
 74
0
  7

 75
0
147
1.0
148
0.0
149
0.0
100
AcDbLayout
  1
Layout1
 70
0
 71
1
 10
0.0
 20
0.0
 11
420.0
 21
297.0
 12
0.0
 22
0.0
 32
0.0
 14
0.0
 24
0.0
 34
0.0
 15
0.0
 25
0.0
 35
0.0
146
0.0
 13
0.0
 23
0.0
 33
0.0
 16
1.0
 26
0.0
 36
0.0
 17
0.0
 27
1.0
 37
0.0
 76
0
330
24C
345
0
346
0
  0
ENDSEC
  0
EOF
