  0
SECTION
  2
HEADER
  9
$ACADVER
  1
AC1015
  9
$DWGCODEPAGE
  3
ANSI_1252
  9
$EXTMAX
 10
297.0
 20
210.0
 30
0.0
  9
$EXTMIN
 10
0.0
 20
0.0
 30
0.0
  9
$LIMMIN
 10
0.0
 20
0.0
  9
$LIMMAX
 10
297.0
 20
210.0
  9
$VIEWCTR
 10
148.5
 20
105.0
  9
$VIEWSIZE
 40
210.0
  9
$CLAYER
  8
0
  9
$LTSCALE
 40
16.335
  9
$CELTYPE
  6
BYLAYER
  9
$DIMSCALE
 40
1.0
  9
$DIMASZ
 40
3.0
  9
$DIMEXO
 40
1.85625
  9
$DIMDLI
 40
11.286
  9
$DIMEXE
 40
5.346
  9
$DIMCEN
 40
2.673
  9
$DIMLFAC
 40
1.0
  9
$DIMBLK
  1
_FILLED
  9
$DIMTXT
 40
3.0
  9
$DIMTOL
 70
1
  9
$DIMLIM
 70
0
  9
$DIMTFAC
 40
1.0
  9
$DIMTP
 40
0.01
  9
$DIMTM
 40
0.01
  9
$PDMODE
 70
3
  9
$PDSIZE
 40
3.0
  9
$HANDSEED
  5
4E3
  9
$TILEMODE
 70
1
  9
$MEASUREMENT
 70
1
  9
$INSUNITS
 70
4
  0
ENDSEC
  0
SECTION
  2
CLASSES
  0
CLASS
  1
ACDBDICTIONARYWDFLT
  2
AcDbDictionaryWithDefault
  3
AutoCAD 2000
 90
0
280
0
281
0
  0
CLASS
  1
ACDBPLACEHOLDER
  2
AcDbPlaceHolder
  3
AutoCAD 2000
 90
0
280
0
281
0
  0
CLASS
  1
LAYOUT
  2
AcDbLayout
  3
AutoCAD 2000
 90
0
280
0
281
0
  0
ENDSEC
  0
SECTION
  2
TABLES
  0
TABLE
  2
VPORT
  5
8
100
AcDbSymbolTable
 70
2
  0
VPORT
  5
1F4
100
AcDbSymbolTableRecord
100
AcDbViewportTableRecord
  2
*ACTIVE
 70
0
 10
0.0
 20
0.0
 11
1.0
 21
1.0
 12
148.5
 22
105.0
 13
0.0
 23
0.0
 14
1.0
 24
1.0
 15
0.0
 25
0.0
 16
0.0
 26
0.0
 36
1.0
 17
0.0
 27
0.0
 37
0.0
 40
210.0
 41
1.4142857143
 42
50.0
 43
0.0
 44
0.0
 50
0.0
 51
0.0
 71
0
 72
100
 73
1
 74
1
 75
0
 76
0
 77
0
 78
0
  0
ENDTAB
  0
TABLE
  2
LTYPE
  5
5
100
AcDbSymbolTable
 70
6
  0
LTYPE
  5
14
100
AcDbSymbolTableRecord
100
AcDbLinetypeTableRecord
  2
BYBLOCK
 70
0
  3

 72
65
 73
0
 40
0.0
  0
LTYPE
  5
15
100
AcDbSymbolTableRecord
100
AcDbLinetypeTableRecord
  2
BYLAYER
 70
0
  3

 72
65
 73
0
 40
0.0
  0
LTYPE
  5
16
100
AcDbSymbolTableRecord
100
AcDbLinetypeTableRecord
  2
CONTINUOUS
 70
64
  3
Solid line
 72
65
 73
0
 40
0.0
  0
LTYPE
  5
1F5
100
AcDbSymbolTableRecord
100
AcDbLinetypeTableRecord
  2
CENTER
 70
64
  3
____ _ ____ _ ____ _ ____ _ ____ _ ____ _ ____
 72
65
 73
4
 40
0.6
 49
0.375
 74
0
 49
-0.075
 74
0
 49
0.075
 74
0
 49
-0.075
 74
0
  0
LTYPE
  5
1F6
100
AcDbSymbolTableRecord
100
AcDbLinetypeTableRecord
  2
HIDDEN
 70
64
  3
- - - - - - - - - - - - - - - - - - - -
 72
65
 73
2
 40
0.2
 49
0.1
 74
0
 49
-0.1
 74
0
  0
LTYPE
  5
1F7
100
AcDbSymbolTableRecord
100
AcDbLinetypeTableRecord
  2
PHANTOM
 70
64
  3
_____ _ _ _____ _ _ _____ _ _ _____
 72
65
 73
6
 40
0.8
 49
0.45
 74
0
 49
-0.05
 74
0
 49
0.1
 74
0
 49
-0.05
 74
0
 49
0.1
 74
0
 49
-0.05
 74
0
  0
LTYPE
  5
1F8
100
AcDbSymbolTableRecord
100
AcDbLinetypeTableRecord
  2
DOT
 70
64
  3
. . . . . . . . . . . . . . . . . . . .
 72
65
 73
2
 40
0.2
 49
0.1
 74
0
 49
-0.1
 74
0
  0
LTYPE
  5
1F9
100
AcDbSymbolTableRecord
100
AcDbLinetypeTableRecord
  2
DASHED
 70
64
  3
- - - - - - - - - - - - - - - - - - - -
 72
65
 73
2
 40
0.2
 49
0.1
 74
0
 49
-0.1
 74
0
  0
ENDTAB
  0
TABLE
  2
LAYER
  5
2
100
AcDbSymbolTable
 70
36
  0
LAYER
  5
10
100
AcDbSymbolTableRecord
100
AcDbLayerTableRecord
  2
0
 70
0
 62
7
  6
CONTINUOUS
370
-3
390
F
  0
LAYER
  5
1FA
100
AcDbSymbolTableRecord
100
AcDbLayerTableRecord
  2
DEFAULT_1
 70
0
 62
7
  6
CENTER
370
-3
390
F
  0
LAYER
  5
1FB
100
AcDbSymbolTableRecord
100
AcDbLayerTableRecord
  2
DEFAULT_2
 70
0
 62
7
  6
HIDDEN
370
-3
390
F
  0
LAYER
  5
1FC
100
AcDbSymbolTableRecord
100
AcDbLayerTableRecord
  2
DEFAULT_3
 70
0
 62
7
  6
PHANTOM
370
-3
390
F
  0
LAYER
  5
1FD
100
AcDbSymbolTableRecord
100
AcDbLayerTableRecord
  2
ASSI
 70
0
 62
7
  6
CONTINUOUS
370
-3
390
F
  0
LAYER
  5
1FE
100
AcDbSymbolTableRecord
100
AcDbLayerTableRecord
  2
COLOR5
 70
0
 62
7
  6
CONTINUOUS
370
-3
390
F
  0
LAYER
  5
1FF
100
AcDbSymbolTableRecord
100
AcDbLayerTableRecord
  2
COORDINATE
 70
0
 62
7
  6
CONTINUOUS
370
-3
390
F
  0
LAYER
  5
200
100
AcDbSymbolTableRecord
100
AcDbLayerTableRecord
  2
COORD_ORIGINE
 70
0
 62
7
  6
CONTINUOUS
370
-3
390
F
  0
LAYER
  5
201
100
AcDbSymbolTableRecord
100
AcDbLayerTableRecord
  2
CURVE
 70
0
 62
7
  6
CONTINUOUS
370
-3
390
F
  0
LAYER
  5
202
100
AcDbSymbolTableRecord
100
AcDbLayerTableRecord
  2
DRAFT
 70
0
 62
7
  6
CONTINUOUS
370
-3
390
F
  0
LAYER
  5
203
100
AcDbSymbolTableRecord
100
AcDbLayerTableRecord
  2
IMPORT
 70
0
 62
7
  6
CONTINUOUS
370
-3
390
F
  0
LAYER
  5
204
100
AcDbSymbolTableRecord
100
AcDbLayerTableRecord
  2
NOTE
 70
0
 62
7
  6
CONTINUOUS
370
-3
390
F
  0
LAYER
  5
205
100
AcDbSymbolTableRecord
100
AcDbLayerTableRecord
  2
PIANI
 70
0
 62
7
  6
CONTINUOUS
370
-3
390
F
  0
LAYER
  5
206
100
AcDbSymbolTableRecord
100
AcDbLayerTableRecord
  2
PIANI_ORIGINE
 70
0
 62
7
  6
CONTINUOUS
370
-3
390
F
  0
LAYER
  5
207
100
AcDbSymbolTableRecord
100
AcDbLayerTableRecord
  2
PUNTI
 70
0
 62
7
  6
CONTINUOUS
370
-3
390
F
  0
LAYER
  5
208
100
AcDbSymbolTableRecord
100
AcDbLayerTableRecord
  2
RACCORDO
 70
0
 62
7
  6
CONTINUOUS
370
-3
390
F
  0
LAYER
  5
209
100
AcDbSymbolTableRecord
100
AcDbLayerTableRecord
  2
SNAPLINE
 70
0
 62
7
  6
CONTINUOUS
370
-3
390
F
  0
LAYER
  5
20A
100
AcDbSymbolTableRecord
100
AcDbLayerTableRecord
  2
SUPERFICI
 70
0
 62
7
  6
CONTINUOUS
370
-3
390
F
  0
LAYER
  5
20B
100
AcDbSymbolTableRecord
100
AcDbLayerTableRecord
  2
TRASH
 70
0
 62
7
  6
CONTINUOUS
370
-3
390
F
  0
LAYER
  5
20C
100
AcDbSymbolTableRecord
100
AcDbLayerTableRecord
  2
XSEC_DATUMS
 70
0
 62
7
  6
CONTINUOUS
370
-3
390
F
  0
ENDTAB
  0
TABLE
  2
STYLE
  5
3
100
AcDbSymbolTable
 70
1
  0
STYLE
  5
11
100
AcDbSymbolTableRecord
100
AcDbTextStyleTableRecord
  2
STANDARD
 70
0
 40
0.0
 41
0.8
 50
0.0
 71
0
 42
0.2
  3
txt
  4

  0
STYLE
  5
20D
100
AcDbSymbolTableRecord
100
AcDbTextStyleTableRecord
  2
TEXTSTYLE_1
 70
0
 40
0.0
 41
0.8
 50
0.0
 71
0
 42
0.2
  3
gdt
  4

  0
ENDTAB
  0
TABLE
  2
VIEW
  5
6
100
AcDbSymbolTable
 70
0
  0
ENDTAB
  0
TABLE
  2
UCS
  5
7
100
AcDbSymbolTable
 70
0
  0
ENDTAB
  0
TABLE
  2
APPID
  5
9
100
AcDbSymbolTable
 70
1
  0
APPID
  5
20E
100
AcDbSymbolTableRecord
100
AcDbRegAppTableRecord
  2
ACAD
 70
0
  0
ENDTAB
  0
TABLE
  2
BLOCK_RECORD
  5
1
100
AcDbSymbolTable
 70
0
  0
BLOCK_RECORD
  5
20F
100
AcDbSymbolTableRecord
100
AcDbBlockTableRecord
  2
*Model_Space
  0
BLOCK_RECORD
  5
210
100
AcDbSymbolTableRecord
100
AcDbBlockTableRecord
  2
*Paper_Space
  0
ENDTAB
  0
TABLE
  2
DIMSTYLE
  5
A
100
AcDbSymbolTable
 70
1
100
AcDbDimStyleTable
 71
0
  0
DIMSTYLE
105
211
100
AcDbSymbolTableRecord
100
AcDbDimStyleTableRecord
  2
STANDARD
 70
0
  3

  4

 40
1.0
 41
3.0
 42
0.0625
 43
0.38
 44
0.18
 45
0.0
 46
0.0
 47
0.01
 48
0.01
140
3.0
141
0.09
142
0.0
143
25.4
144
1.0
145
0.0
146
1.0
147
0.09
 71
1.0
 72
0.0
 73
0
 74
0
 75
0
 76
0
 77
1
 78
8
170
0
171
2
172
0
173
0
174
0
175
0
176
0
177
0
178
0
270
2
271
2
272
2
273
2
274
2
275
0
280
0
281
0
282
0
283
1
284
8
285
0
286
0
287
3
288
0
340
11
  0
ENDTAB
  0
ENDSEC
  0
SECTION
  2
BLOCKS
  0
BLOCK
  5
20
100
AcDbEntity
  8
0
100
AcDbBlockBegin
  2
*Model_Space
 70
0
 10
0.0
 20
0.0
 30
0.0
  3
*Model_Space
  1

  0
ENDBLK
  5
21
100
AcDbEntity
  8
0
100
AcDbBlockEnd
  0
BLOCK
  5
1C
100
AcDbEntity
  8
0
100
AcDbBlockBegin
  2
*Paper_Space
 70
0
 10
0.0
 20
0.0
 30
0.0
  3
*Paper_Space
  1

  0
ENDBLK
  5
1D
100
AcDbEntity
  8
0
100
AcDbBlockEnd
  0
ENDSEC
  0
SECTION
  2
ENTITIES
  0
LINE
  5
212
100
AcDbEntity
  8
RACCORDO
100
AcDbLine
 62
7
  6
CONTINUOUS
 10
29.0013704652
 20
-40.0
 11
-29.0013704652
 21
-40.0
  0
LINE
  5
213
100
AcDbEntity
  8
DRAFT
100
AcDbLine
 62
7
  6
CONTINUOUS
 10
-4.25
 20
-39.4
 11
4.25
 21
-39.4
  0
LINE
  5
214
100
AcDbEntity
  8
DRAFT
100
AcDbLine
 62
7
  6
CONTINUOUS
 10
10.5
 20
-39.0
 11
4.25
 21
-39.0
  0
LINE
  5
215
100
AcDbEntity
  8
DRAFT
100
AcDbLine
 62
7
  6
CONTINUOUS
 10
-4.25
 20
-39.0
 11
-10.5
 21
-39.0
  0
LINE
  5
216
100
AcDbEntity
  8
DRAFT
100
AcDbLine
 62
7
  6
CONTINUOUS
 10
-28.2501522932
 20
-38.5
 11
-10.5
 21
-38.5
  0
LINE
  5
217
100
AcDbEntity
  8
DRAFT
100
AcDbLine
 62
7
  6
CONTINUOUS
 10
10.5
 20
-38.5
 11
28.2501522932
 21
-38.5
  0
LINE
  5
218
100
AcDbEntity
  8
RACCORDO
100
AcDbLine
 62
7
  6
CONTINUOUS
 10
27.9503045865
 20
-38.45
 11
10.75
 21
-38.45
  0
LINE
  5
219
100
AcDbEntity
  8
RACCORDO
100
AcDbLine
 62
7
  6
CONTINUOUS
 10
-10.75
 20
-38.45
 11
-27.9503045865
 21
-38.45
  0
LINE
  5
21A
100
AcDbEntity
  8
DRAFT
100
AcDbLine
 62
7
  6
CONTINUOUS
 10
10.3167218183
 20
-38.4497183175
 11
-10.3167218183
 21
-38.4497183175
  0
LINE
  5
21B
100
AcDbEntity
  8
DRAFT
100
AcDbLine
 62
253
  6
CONTINUOUS
 10
10.75
 20
-38.1426449211
 11
10.3213768999
 21
-38.1426449211
  0
LINE
  5
21C
100
AcDbEntity
  8
DRAFT
100
AcDbLine
 62
253
  6
CONTINUOUS
 10
-10.3213768999
 20
-38.1426449211
 11
-10.75
 21
-38.1426449211
  0
LINE
  5
21D
100
AcDbEntity
  8
DRAFT
100
AcDbLine
 62
7
  6
CONTINUOUS
 10
10.3167218183
 20
-38.0543676855
 11
-10.3167218183
 21
-38.0543676855
  0
LINE
  5
21E
100
AcDbEntity
  8
DRAFT
100
AcDbLine
 62
7
  6
CONTINUOUS
 10
-10.75
 20
-37.95
 11
-5.0
 21
-37.95
  0
LINE
  5
21F
100
AcDbEntity
  8
DRAFT
100
AcDbLine
 62
7
  6
CONTINUOUS
 10
5.0
 20
-37.95
 11
10.75
 21
-37.95
  0
LINE
  5
220
100
AcDbEntity
  8
RACCORDO
100
AcDbLine
 62
253
  6
CONTINUOUS
 10
5.0
 20
-37.6902396451
 11
-5.0
 21
-37.6902396451
  0
LINE
  5
221
100
AcDbEntity
  8
DRAFT
100
AcDbLine
 62
7
  6
CONTINUOUS
 10
-26.4936376623
 20
-36.4936376623
 11
-18.4
 21
-36.4936376623
  0
LINE
  5
222
100
AcDbEntity
  8
DRAFT
100
AcDbLine
 62
7
  6
CONTINUOUS
 10
-16.4
 20
-36.4936376623
 11
-7.0
 21
-36.4936376623
  0
LINE
  5
223
100
AcDbEntity
  8
DRAFT
100
AcDbLine
 62
7
  6
CONTINUOUS
 10
7.0
 20
-36.4936376623
 11
14.9
 21
-36.4936376623
  0
LINE
  5
224
100
AcDbEntity
  8
DRAFT
100
AcDbLine
 62
7
  6
CONTINUOUS
 10
16.9
 20
-36.4936376623
 11
26.4936376623
 21
-36.4936376623
  0
LINE
  5
225
100
AcDbEntity
  8
DRAFT
100
AcDbLine
 62
7
  6
CONTINUOUS
 10
16.9
 20
-36.4849101299
 11
26.4849101299
 21
-36.4849101299
  0
LINE
  5
226
100
AcDbEntity
  8
DRAFT
100
AcDbLine
 62
7
  6
CONTINUOUS
 10
-5.0
 20
-35.5
 11
5.0
 21
-35.5
  0
LINE
  5
227
100
AcDbEntity
  8
0
100
AcDbLine
 62
7
  6
CONTINUOUS
 10
21.5
 20
-33.6
 11
18.5
 21
-33.6
  0
LINE
  5
228
100
AcDbEntity
  8
0
100
AcDbLine
 62
7
  6
CONTINUOUS
 10
-18.9366663742
 20
-30.3
 11
-19.1666663742
 21
-30.2510638356
  0
LINE
  5
229
100
AcDbEntity
  8
0
100
AcDbLine
 62
7
  6
CONTINUOUS
 10
-18.9366663742
 20
-30.0553191781
 11
-19.1283336258
 21
-30.0063830137
  0
LINE
  5
22A
100
AcDbEntity
  8
0
100
AcDbLine
 62
7
  6
CONTINUOUS
 10
-19.1666663742
 20
-30.2510638356
 11
-19.3583336258
 21
-30.1042553425
  0
LINE
  5
22B
100
AcDbEntity
  8
0
100
AcDbLine
 62
7
  6
CONTINUOUS
 10
-18.515
 20
-28.1957446747
 11
-18.7066668129
 21
-28.0489361687
  0
LINE
  5
22C
100
AcDbEntity
  8
0
100
AcDbLine
 62
7
  6
CONTINUOUS
 10
-19.1283336258
 20
-30.0063830137
 11
-19.2433336258
 21
-29.908510685
  0
LINE
  5
22D
100
AcDbEntity
  8
0
100
AcDbLine
 62
7
  6
CONTINUOUS
 10
-18.63
 20
-28.3914893493
 11
-18.745
 21
-28.2936170205
  0
LINE
  5
22E
100
AcDbEntity
  8
0
100
AcDbLine
 62
7
  6
CONTINUOUS
 10
-19.3583336258
 20
-30.1042553425
 11
-19.4733336258
 21
-29.9574468493
  0
LINE
  5
22F
100
AcDbEntity
  8
RACCORDO
100
AcDbLine
 62
7
  6
CONTINUOUS
 10
-30.0
 20
-39.0013704652
 11
-30.0
 21
39.0013704652
  0
LINE
  5
230
100
AcDbEntity
  8
0
100
AcDbLine
 62
7
  6
CONTINUOUS
 10
-0.4006665168
 20
30.9063829795
 11
-0.2435
 21
30.9553191438
  0
LINE
  5
231
100
AcDbEntity
  8
DRAFT
100
AcDbLine
 62
7
  6
CONTINUOUS
 10
18.5
 20
-32.1
 11
21.5
 21
-32.1
  0
LINE
  5
232
100
AcDbEntity
  8
0
100
AcDbLine
 62
7
  6
CONTINUOUS
 10
-19.458832
 20
-32.038387
 11
-19.17733
 21
-32.038387
  0
LINE
  5
233
100
AcDbEntity
  8
0
100
AcDbLine
 62
7
  6
CONTINUOUS
 10
-7.0
 20
-32.0
 11
7.0
 21
-32.0
  0
LINE
  5
234
100
AcDbEntity
  8
0
100
AcDbLine
 62
7
  6
CONTINUOUS
 10
-18.7066668129
 20
-28.0489361687
 11
-18.9366663742
 21
-28.0
  0
LINE
  5
235
100
AcDbEntity
  8
0
100
AcDbLine
 62
7
  6
CONTINUOUS
 10
-18.745
 20
-28.2936170205
 11
-18.9366663742
 21
-28.2446808562
  0
LINE
  5
236
100
AcDbEntity
  8
0
100
AcDbLine
 62
7
  6
CONTINUOUS
 10
-18.4
 20
-28.3425531849
 11
-18.515
 21
-28.1957446747
  0
LINE
  5
237
100
AcDbEntity
  8
0
100
AcDbLine
 62
7
  6
CONTINUOUS
 10
-19.2433336258
 20
-29.908510685
 11
-19.3966663742
 21
-29.6148935616
  0
LINE
  5
238
100
AcDbEntity
  8
0
100
AcDbLine
 62
7
  6
CONTINUOUS
 10
-18.4766668129
 20
-28.6851063699
 11
-18.63
 21
-28.3914893493
  0
LINE
  5
239
100
AcDbEntity
  8
RACCORDO
100
AcDbLine
 62
7
  6
CONTINUOUS
 10
-28.5
 20
38.2501522932
 11
-28.5
 21
-38.2501522932
  0
LINE
  5
23A
100
AcDbEntity
  8
RACCORDO
100
AcDbLine
 62
7
  6
CONTINUOUS
 10
-28.45
 20
-37.9503045865
 11
-28.45
 21
37.9503045865
  0
LINE
  5
23B
100
AcDbEntity
  8
DRAFT
100
AcDbLine
 62
7
  6
CONTINUOUS
 10
-26.4936376623
 20
36.4936376623
 11
-26.4936376623
 21
26.9
  0
LINE
  5
23C
100
AcDbEntity
  8
DRAFT
100
AcDbLine
 62
7
  6
CONTINUOUS
 10
-26.4936376623
 20
24.9
 11
-26.4936376623
 21
-24.9
  0
LINE
  5
23D
100
AcDbEntity
  8
DRAFT
100
AcDbLine
 62
7
  6
CONTINUOUS
 10
-26.4936376623
 20
-26.9
 11
-26.4936376623
 21
-36.4936376623
  0
LINE
  5
23E
100
AcDbEntity
  8
DRAFT
100
AcDbLine
 62
7
  6
CONTINUOUS
 10
-26.4849101299
 20
-26.9
 11
-26.4849101299
 21
-36.4849101299
  0
LINE
  5
23F
100
AcDbEntity
  8
0
100
AcDbLine
 62
7
  6
CONTINUOUS
 10
-3.8583330336
 20
31.1510638313
 11
-4.0547919664
 21
31.0042553253
  0
LINE
  5
240
100
AcDbEntity
  8
0
100
AcDbLine
 62
7
  6
CONTINUOUS
 10
-2.1295
 20
31.1510638313
 11
-2.3259584832
 21
31.0042553253
  0
LINE
  5
241
100
AcDbEntity
  8
0
100
AcDbLine
 62
7
  6
CONTINUOUS
 10
-0.5578334832
 20
30.8085106507
 11
-0.4006665168
 21
30.9063829795
  0
LINE
  5
242
100
AcDbEntity
  8
0
100
AcDbLine
 62
7
  6
CONTINUOUS
 10
0.0708334832
 20
30.1723404109
 11
-0.0863334832
 21
30.1234042466
  0
LINE
  5
243
100
AcDbEntity
  8
0
100
AcDbLine
 62
7
  6
CONTINUOUS
 10
-0.4006665168
 20
29.8787234247
 11
-0.2435
 21
29.9276595891
  0
LINE
  5
244
100
AcDbEntity
  8
0
100
AcDbLine
 62
7
  6
CONTINUOUS
 10
0.0708334832
 20
29.1936169863
 11
-0.0863334832
 21
29.1446808219
  0
LINE
  5
245
100
AcDbEntity
  8
DRAFT
100
AcDbLine
 62
7
  6
CONTINUOUS
 10
26.4936376623
 20
-28.4
 11
24.7249030993
 21
-28.4
  0
LINE
  5
246
100
AcDbEntity
  8
DRAFT
100
AcDbLine
 62
7
  6
CONTINUOUS
 10
21.5
 20
-27.9
 11
18.5
 21
-27.9
  0
LINE
  5
247
100
AcDbEntity
  8
ASSI
100
AcDbLine
 62
7
  6
CONTINUOUS
 10
-6.6581322764
 20
-27.850083
 11
-4.925218
 21
-27.850083
  0
LINE
  5
248
100
AcDbEntity
  8
ASSI
100
AcDbLine
 62
7
  6
CONTINUOUS
 10
-3.243864
 20
-27.850083
 11
-2.503799
 21
-27.850083
  0
LINE
  5
249
100
AcDbEntity
  8
ASSI
100
AcDbLine
 62
7
  6
CONTINUOUS
 10
-0.822464
 20
-27.850074
 11
0.296259
 21
-27.850074
  0
LINE
  5
24A
100
AcDbEntity
  8
ASSI
100
AcDbLine
 62
7
  6
CONTINUOUS
 10
1.678191
 20
-27.850074
 11
2.796913
 21
-27.850074
  0
LINE
  5
24B
100
AcDbEntity
  8
ASSI
100
AcDbLine
 62
7
  6
CONTINUOUS
 10
3.536913
 20
-27.850074
 11
4.276941
 21
-27.850074
  0
LINE
  5
24C
100
AcDbEntity
  8
ASSI
100
AcDbLine
 62
7
  6
CONTINUOUS
 10
4.77029
 20
-27.850074
 11
5.510327
 21
-27.850074
  0
LINE
  5
24D
100
AcDbEntity
  8
ASSI
100
AcDbLine
 62
7
  6
CONTINUOUS
 10
7.14631
 20
-27.850074
 11
7.886347
 21
-27.850074
  0
LINE
  5
24E
100
AcDbEntity
  8
ASSI
100
AcDbLine
 62
7
  6
CONTINUOUS
 10
-5.655043
 20
-27.165556
 11
-6.5553936187
 21
-27.165556
  0
LINE
  5
24F
100
AcDbEntity
  8
DRAFT
100
AcDbLine
 62
7
  6
CONTINUOUS
 10
-23.2249030993
 20
-26.9
 11
-26.4936376623
 21
-26.9
  0
LINE
  5
250
100
AcDbEntity
  8
DRAFT
100
AcDbLine
 62
7
  6
CONTINUOUS
 10
18.5
 20
-26.4
 11
26.4936376623
 21
-26.4
  0
LINE
  5
251
100
AcDbEntity
  8
ASSI
100
AcDbLine
 62
7
  6
CONTINUOUS
 10
-6.5554111439
 20
-26.265142
 11
-5.655052
 21
-26.265142
  0
LINE
  5
252
100
AcDbEntity
  8
0
100
AcDbLine
 62
7
  6
CONTINUOUS
 10
-19.4733336258
 20
-29.9574468493
 11
-19.55
 21
-29.7617021918
  0
LINE
  5
253
100
AcDbEntity
  8
0
100
AcDbLine
 62
7
  6
CONTINUOUS
 10
-18.3233331871
 20
-28.5382978767
 11
-18.4
 21
-28.3425531849
  0
LINE
  5
254
100
AcDbEntity
  8
0
100
AcDbLine
 62
7
  6
CONTINUOUS
 10
-19.55
 20
-29.7617021918
 11
-19.5883336258
 21
-29.6148935616
  0
LINE
  5
255
100
AcDbEntity
  8
0
100
AcDbLine
 62
7
  6
CONTINUOUS
 10
-23.6
 20
-31.5
 11
-23.6
 21
-28.5
  0
LINE
  5
256
100
AcDbEntity
  8
0
100
AcDbLine
 62
7
  6
CONTINUOUS
 10
-23.6
 20
28.5
 11
-23.6
 21
31.5
  0
LINE
  5
257
100
AcDbEntity
  8
0
100
AcDbLine
 62
7
  6
CONTINUOUS
 10
-3.9369169664
 20
30.8085106507
 11
-3.8190419664
 21
30.9063829795
  0
LINE
  5
258
100
AcDbEntity
  8
0
100
AcDbLine
 62
7
  6
CONTINUOUS
 10
-2.2080834832
 20
30.8085106507
 11
-2.0902084832
 21
30.9063829795
  0
LINE
  5
259
100
AcDbEntity
  8
0
100
AcDbLine
 62
7
  6
CONTINUOUS
 10
-3.30825
 20
29.291489315
 11
-3.426125
 21
29.1936169863
  0
LINE
  5
25A
100
AcDbEntity
  8
0
100
AcDbLine
 62
7
  6
CONTINUOUS
 10
-1.5794165168
 20
29.291489315
 11
-1.6972915168
 21
29.1936169863
  0
LINE
  5
25B
100
AcDbEntity
  8
0
100
AcDbLine
 62
7
  6
CONTINUOUS
 10
1.2495832584
 20
30.8085106507
 11
1.3674582584
 21
30.9063829795
  0
LINE
  5
25C
100
AcDbEntity
  8
0
100
AcDbLine
 62
7
  6
CONTINUOUS
 10
-0.47925
 20
31.1510638313
 11
-0.6757084832
 21
31.0042553253
  0
LINE
  5
25D
100
AcDbEntity
  8
0
100
AcDbLine
 62
7
  6
CONTINUOUS
 10
-3.3868334832
 20
28.9489361644
 11
-3.190375
 21
29.0957446575
  0
LINE
  5
25E
100
AcDbEntity
  8
0
100
AcDbLine
 62
7
  6
CONTINUOUS
 10
-1.658
 20
28.9489361644
 11
-1.4615415168
 21
29.0957446575
  0
LINE
  5
25F
100
AcDbEntity
  8
0
100
AcDbLine
 62
7
  6
CONTINUOUS
 10
1.3281667416
 20
31.1510638313
 11
1.1317082584
 21
31.0042553253
  0
LINE
  5
260
100
AcDbEntity
  8
0
100
AcDbLine
 62
7
  6
CONTINUOUS
 10
3.057
 20
31.1510638313
 11
2.8605416292
 21
31.0042553253
  0
LINE
  5
261
100
AcDbEntity
  8
0
100
AcDbLine
 62
7
  6
CONTINUOUS
 10
0.110125
 20
28.9489361644
 11
0.3065832584
 21
29.0957446575
  0
LINE
  5
262
100
AcDbEntity
  8
0
100
AcDbLine
 62
7
  6
CONTINUOUS
 10
-0.5578334832
 20
30.0255319178
 11
-0.6364165168
 21
29.9765957534
  0
LINE
  5
263
100
AcDbEntity
  8
0
100
AcDbLine
 62
7
  6
CONTINUOUS
 10
0.228
 20
30.2702127397
 11
0.0708334832
 21
30.1723404109
  0
LINE
  5
264
100
AcDbEntity
  8
0
100
AcDbLine
 62
7
  6
CONTINUOUS
 10
0.228
 20
30.0255319178
 11
0.3065832584
 21
30.0744680822
  0
LINE
  5
265
100
AcDbEntity
  8
0
100
AcDbLine
 62
7
  6
CONTINUOUS
 10
-18.9366663742
 20
-30.0553191781
 11
-18.745
 21
-30.0063830137
  0
LINE
  5
266
100
AcDbEntity
  8
0
100
AcDbLine
 62
7
  6
CONTINUOUS
 10
-18.9366663742
 20
-30.3
 11
-18.7066668129
 21
-30.2510638356
  0
LINE
  5
267
100
AcDbEntity
  8
0
100
AcDbLine
 62
7
  6
CONTINUOUS
 10
-19.1666663742
 20
-28.0489361687
 11
-18.9366663742
 21
-28.0
  0
LINE
  5
268
100
AcDbEntity
  8
ASSI
100
AcDbLine
 62
7
  6
CONTINUOUS
 10
-5.665338
 20
-25.580614
 11
-6.31122
 21
-25.580605
  0
LINE
  5
269
100
AcDbEntity
  8
ASSI
100
AcDbLine
 62
7
  6
CONTINUOUS
 10
-3.232477
 20
-25.580605
 11
-2.515195
 21
-25.580605
  0
LINE
  5
26A
100
AcDbEntity
  8
DRAFT
100
AcDbLine
 62
7
  6
CONTINUOUS
 10
-26.4936376623
 20
-24.9
 11
-20.0
 21
-24.9
  0
LINE
  5
26B
100
AcDbEntity
  8
ASSI
100
AcDbLine
 62
7
  6
CONTINUOUS
 10
-2.289468
 20
-24.877577
 11
-3.458214
 21
-24.877577
  0
LINE
  5
26C
100
AcDbEntity
  8
ASSI
100
AcDbLine
 62
7
  6
CONTINUOUS
 10
6.698351
 20
-24.149898
 11
5.958295
 21
-24.149907
  0
LINE
  5
26D
100
AcDbEntity
  8
ASSI
100
AcDbLine
 62
7
  6
CONTINUOUS
 10
-3.691832
 20
-24.149917
 11
-4.431869
 21
-24.149907
  0
LINE
  5
26E
100
AcDbEntity
  8
ASSI
100
AcDbLine
 62
7
  6
CONTINUOUS
 10
4.27695
 20
-24.149898
 11
3.536923
 21
-24.149907
  0
LINE
  5
26F
100
AcDbEntity
  8
ASSI
100
AcDbLine
 62
7
  6
CONTINUOUS
 10
1.357234
 20
-24.149907
 11
0.617225
 21
-24.149917
  0
LINE
  5
270
100
AcDbEntity
  8
ASSI
100
AcDbLine
 62
7
  6
CONTINUOUS
 10
-4.925218
 20
-24.149917
 11
-5.665255
 21
-24.149917
  0
LINE
  5
271
100
AcDbEntity
  8
ASSI
100
AcDbLine
 62
7
  6
CONTINUOUS
 10
2.796913
 20
-24.149907
 11
2.056886
 21
-24.149907
  0
LINE
  5
272
100
AcDbEntity
  8
ASSI
100
AcDbLine
 62
7
  6
CONTINUOUS
 10
-0.082436
 20
-24.149907
 11
-0.822464
 21
-24.149907
  0
LINE
  5
273
100
AcDbEntity
  8
ASSI
100
AcDbLine
 62
7
  6
CONTINUOUS
 10
-1.315813
 20
-24.149907
 11
-2.05584
 21
-24.149917
  0
LINE
  5
274
100
AcDbEntity
  8
ASSI
100
AcDbLine
 62
7
  6
CONTINUOUS
 10
-7.05282
 20
-24.149917
 11
-7.886347
 21
-24.149926
  0
LINE
  5
275
100
AcDbEntity
  8
0
100
AcDbLine
 62
7
  6
CONTINUOUS
 10
-18.285
 20
-28.6851063699
 11
-18.3233331871
 21
-28.5382978767
  0
LINE
  5
276
100
AcDbEntity
  8
0
100
AcDbLine
 62
7
  6
CONTINUOUS
 10
-19.5883336258
 20
-29.6148935616
 11
-19.6266663742
 21
-29.3702127397
  0
LINE
  5
277
100
AcDbEntity
  8
0
100
AcDbLine
 62
7
  6
CONTINUOUS
 10
-19.3966663742
 20
-29.6148935616
 11
-19.435
 21
-29.3212765753
  0
LINE
  5
278
100
AcDbEntity
  8
DRAFT
100
AcDbLine
 62
7
  6
CONTINUOUS
 10
-22.1
 20
31.5
 11
-22.1
 21
28.5
  0
LINE
  5
279
100
AcDbEntity
  8
DRAFT
100
AcDbLine
 62
7
  6
CONTINUOUS
 10
-22.1
 20
-28.5
 11
-22.1
 21
-31.5
  0
LINE
  5
27A
100
AcDbEntity
  8
0
100
AcDbLine
 62
7
  6
CONTINUOUS
 10
-19.6266663742
 20
-29.3702127397
 11
-19.6266663742
 21
-28.9297872603
  0
LINE
  5
27B
100
AcDbEntity
  8
0
100
AcDbLine
 62
7
  6
CONTINUOUS
 10
-4.0547919664
 20
31.0042553253
 11
-4.1726669664
 21
30.8574468151
  0
LINE
  5
27C
100
AcDbEntity
  8
0
100
AcDbLine
 62
7
  6
CONTINUOUS
 10
-2.3259584832
 20
31.0042553253
 11
-2.4438334832
 21
30.8574468151
  0
LINE
  5
27D
100
AcDbEntity
  8
0
100
AcDbLine
 62
7
  6
CONTINUOUS
 10
-3.190375
 20
29.0957446575
 11
-3.0725
 21
29.2425531507
  0
LINE
  5
27E
100
AcDbEntity
  8
0
100
AcDbLine
 62
7
  6
CONTINUOUS
 10
-0.6757084832
 20
31.0042553253
 11
-0.7935834832
 21
30.8574468151
  0
LINE
  5
27F
100
AcDbEntity
  8
0
100
AcDbLine
 62
7
  6
CONTINUOUS
 10
-0.5578334832
 20
29.7319149315
 11
-0.4006665168
 21
29.8787234247
  0
LINE
  5
280
100
AcDbEntity
  8
0
100
AcDbLine
 62
7
  6
CONTINUOUS
 10
0.3065832584
 20
30.0744680822
 11
0.46375
 21
30.2212765753
  0
LINE
  5
281
100
AcDbEntity
  8
0
100
AcDbLine
 62
7
  6
CONTINUOUS
 10
0.228
 20
29.3404254794
 11
0.0708334832
 21
29.1936169863
  0
LINE
  5
282
100
AcDbEntity
  8
0
100
AcDbLine
 62
7
  6
CONTINUOUS
 10
2.9784166292
 20
30.8085106507
 11
3.0962916854
 21
30.9063829795
  0
LINE
  5
283
100
AcDbEntity
  8
0
100
AcDbLine
 62
7
  6
CONTINUOUS
 10
1.87825
 20
29.291489315
 11
1.760375
 21
29.1936169863
  0
LINE
  5
284
100
AcDbEntity
  8
0
100
AcDbLine
 62
7
  6
CONTINUOUS
 10
3.6070833427
 20
29.291489315
 11
3.4892083146
 21
29.1936169863
  0
LINE
  5
285
100
AcDbEntity
  8
0
100
AcDbLine
 62
7
  6
CONTINUOUS
 10
1.7996667416
 20
28.9489361644
 11
1.996125
 21
29.0957446575
  0
LINE
  5
286
100
AcDbEntity
  8
0
100
AcDbLine
 62
7
  6
CONTINUOUS
 10
3.5285
 20
28.9489361644
 11
3.7249583427
 21
29.0957446575
  0
LINE
  5
287
100
AcDbEntity
  8
0
100
AcDbLine
 62
7
  6
CONTINUOUS
 10
-19.1283336258
 20
-28.2936170205
 11
-18.9366663742
 21
-28.2446808562
  0
LINE
  5
288
100
AcDbEntity
  8
DRAFT
100
AcDbLine
 62
7
  6
CONTINUOUS
 10
11.35
 20
-20.2885911935
 11
12.1854452245
 21
-20.2740084429
  0
LINE
  5
289
100
AcDbEntity
  8
DRAFT
100
AcDbLine
 62
7
  6
CONTINUOUS
 10
-11.35
 20
-20.2935507634
 11
-11.85
 21
-20.2958892987
  0
LINE
  5
28A
100
AcDbEntity
  8
DRAFT
100
AcDbLine
 62
7
  6
CONTINUOUS
 10
-13.75
 20
-20.85
 11
-11.15
 21
-20.85
  0
LINE
  5
28B
100
AcDbEntity
  8
DRAFT
100
AcDbLine
 62
7
  6
CONTINUOUS
 10
11.15
 20
-20.85
 11
13.75
 21
-20.85
  0
LINE
  5
28C
100
AcDbEntity
  8
DRAFT
100
AcDbLine
 62
7
  6
CONTINUOUS
 10
-13.7325462644
 20
-20.8150898701
 11
-12.8
 21
-20.8150898701
  0
LINE
  5
28D
100
AcDbEntity
  8
DRAFT
100
AcDbLine
 62
7
  6
CONTINUOUS
 10
12.8
 20
-20.8150898701
 11
13.7325462644
 21
-20.8150898701
  0
LINE
  5
28E
100
AcDbEntity
  8
DRAFT
100
AcDbLine
 62
7
  6
CONTINUOUS
 10
11.85
 20
-20.7714522078
 11
11.1892709051
 21
-20.7714522078
  0
LINE
  5
28F
100
AcDbEntity
  8
DRAFT
100
AcDbLine
 62
7
  6
CONTINUOUS
 10
-11.1892709051
 20
-20.7714522078
 11
-11.85
 21
-20.7714522078
  0
LINE
  5
290
100
AcDbEntity
  8
DRAFT
100
AcDbLine
 62
7
  6
CONTINUOUS
 10
11.85
 20
-20.736542078
 11
12.7214522078
 21
-20.736542078
  0
LINE
  5
291
100
AcDbEntity
  8
DRAFT
100
AcDbLine
 62
7
  6
CONTINUOUS
 10
-11.85
 20
-20.736542078
 11
-12.7214522078
 21
-20.736542078
  0
LINE
  5
292
100
AcDbEntity
  8
RACCORDO
100
AcDbLine
 62
253
  6
CONTINUOUS
 10
-13.4272631372
 20
-20.3767931924
 11
-11.9573363253
 21
-20.3767931924
  0
LINE
  5
293
100
AcDbEntity
  8
RACCORDO
100
AcDbLine
 62
253
  6
CONTINUOUS
 10
11.9573363253
 20
-20.3767931924
 11
13.4272631372
 21
-20.3767931924
  0
LINE
  5
294
100
AcDbEntity
  8
DRAFT
100
AcDbLine
 62
7
  6
CONTINUOUS
 10
11.85
 20
-20.2958892987
 11
11.35
 21
-20.2935507634
  0
LINE
  5
295
100
AcDbEntity
  8
DRAFT
100
AcDbLine
 62
7
  6
CONTINUOUS
 10
-12.1854452245
 20
-20.2740084429
 11
-11.35
 21
-20.2885911935
  0
LINE
  5
296
100
AcDbEntity
  8
DRAFT
100
AcDbLine
 62
7
  6
CONTINUOUS
 10
-12.8
 20
-14.8849101299
 11
-12.7214522078
 21
-14.963457922
  0
LINE
  5
297
100
AcDbEntity
  8
0
100
AcDbLine
 62
7
  6
CONTINUOUS
 10
-18.2466668129
 20
-28.9297872603
 11
-18.285
 21
-28.6851063699
  0
LINE
  5
298
100
AcDbEntity
  8
0
100
AcDbLine
 62
7
  6
CONTINUOUS
 10
-17.9016668129
 20
-29.6148935616
 11
-17.94
 21
-29.3702127397
  0
LINE
  5
299
100
AcDbEntity
  8
0
100
AcDbLine
 62
7
  6
CONTINUOUS
 10
-18.4383331871
 20
-28.9787234247
 11
-18.4766668129
 21
-28.6851063699
  0
LINE
  5
29A
100
AcDbEntity
  8
0
100
AcDbLine
 62
7
  6
CONTINUOUS
 10
-19.458832
 20
-33.5288992959
 11
-19.458832
 21
-32.038387
  0
LINE
  5
29B
100
AcDbEntity
  8
0
100
AcDbLine
 62
7
  6
CONTINUOUS
 10
-19.435
 20
-29.3212765753
 11
-19.435
 21
-28.9787234247
  0
LINE
  5
29C
100
AcDbEntity
  8
0
100
AcDbLine
 62
7
  6
CONTINUOUS
 10
-19.17733
 20
-33.4301738486
 11
-19.17733
 21
-32.038387
  0
LINE
  5
29D
100
AcDbEntity
  8
0
100
AcDbLine
 62
7
  6
CONTINUOUS
 10
-18.4383331871
 20
-29.3212765753
 11
-18.4383331871
 21
-28.9787234247
  0
LINE
  5
29E
100
AcDbEntity
  8
DRAFT
100
AcDbLine
 62
7
  6
CONTINUOUS
 10
-18.4
 20
-36.4936376623
 11
-18.4
 21
-34.7249030993
  0
LINE
  5
29F
100
AcDbEntity
  8
DRAFT
100
AcDbLine
 62
7
  6
CONTINUOUS
 10
-18.4
 20
34.7249030993
 11
-18.4
 21
36.4936376623
  0
LINE
  5
2A0
100
AcDbEntity
  8
0
100
AcDbLine
 62
7
  6
CONTINUOUS
 10
-18.2466668129
 20
-29.3702127397
 11
-18.2466668129
 21
-28.9297872603
  0
LINE
  5
2A1
100
AcDbEntity
  8
0
100
AcDbLine
 62
7
  6
CONTINUOUS
 10
-17.94
 20
-29.3702127397
 11
-17.94
 21
-28.9297872603
  0
LINE
  5
2A2
100
AcDbEntity
  8
DRAFT
100
AcDbLine
 62
7
  6
CONTINUOUS
 10
-17.9
 20
-31.5
 11
-17.9
 21
-28.5
  0
LINE
  5
2A3
100
AcDbEntity
  8
DRAFT
100
AcDbLine
 62
7
  6
CONTINUOUS
 10
-17.9
 20
28.5
 11
-17.9
 21
31.5
  0
LINE
  5
2A4
100
AcDbEntity
  8
DRAFT
100
AcDbLine
 62
7
  6
CONTINUOUS
 10
-16.4
 20
36.4936376623
 11
-16.4
 21
28.5
  0
LINE
  5
2A5
100
AcDbEntity
  8
DRAFT
100
AcDbLine
 62
7
  6
CONTINUOUS
 10
-16.4
 20
-28.5
 11
-16.4
 21
-36.4936376623
  0
LINE
  5
2A6
100
AcDbEntity
  8
0
100
AcDbLine
 62
7
  6
CONTINUOUS
 10
-4.0940830336
 20
30.5148936301
 11
-3.9369169664
 21
30.8085106507
  0
LINE
  5
2A7
100
AcDbEntity
  8
0
100
AcDbLine
 62
7
  6
CONTINUOUS
 10
-3.1510834832
 20
29.5851064384
 11
-3.30825
 21
29.291489315
  0
LINE
  5
2A8
100
AcDbEntity
  8
0
100
AcDbLine
 62
7
  6
CONTINUOUS
 10
-2.36525
 20
30.5148936301
 11
-2.2080834832
 21
30.8085106507
  0
LINE
  5
2A9
100
AcDbEntity
  8
0
100
AcDbLine
 62
7
  6
CONTINUOUS
 10
-0.6757084832
 20
30.6127659589
 11
-0.5578334832
 21
30.8085106507
  0
LINE
  5
2AA
100
AcDbEntity
  8
0
100
AcDbLine
 62
7
  6
CONTINUOUS
 10
-1.4615415168
 20
29.0957446575
 11
-1.3436665168
 21
29.2425531507
  0
LINE
  5
2AB
100
AcDbEntity
  8
0
100
AcDbLine
 62
7
  6
CONTINUOUS
 10
-0.6364165168
 20
29.9765957534
 11
-0.7542915168
 21
29.8297872603
  0
LINE
  5
2AC
100
AcDbEntity
  8
0
100
AcDbLine
 62
7
  6
CONTINUOUS
 10
1.1317082584
 20
31.0042553253
 11
1.0138332584
 21
30.8574468151
  0
LINE
  5
2AD
100
AcDbEntity
  8
0
100
AcDbLine
 62
7
  6
CONTINUOUS
 10
0.3065832584
 20
29.0957446575
 11
0.4244582584
 21
29.2425531507
  0
LINE
  5
2AE
100
AcDbEntity
  8
0
100
AcDbLine
 62
7
  6
CONTINUOUS
 10
2.8605416292
 20
31.0042553253
 11
2.7426666292
 21
30.8574468151
  0
LINE
  5
2AF
100
AcDbEntity
  8
0
100
AcDbLine
 62
7
  6
CONTINUOUS
 10
1.996125
 20
29.0957446575
 11
2.114
 21
29.2425531507
  0
LINE
  5
2B0
100
AcDbEntity
  8
RACCORDO
100
AcDbLine
 62
7
  6
CONTINUOUS
 10
13.0377806403
 20
-15.4204290616
 11
13.4272631372
 21
-15.3232068076
  0
LINE
  5
2B1
100
AcDbEntity
  8
RACCORDO
100
AcDbLine
 62
7
  6
CONTINUOUS
 10
11.9573363253
 20
-15.3232068076
 11
11.85
 21
-15.35
  0
LINE
  5
2B2
100
AcDbEntity
  8
RACCORDO
100
AcDbLine
 62
7
  6
CONTINUOUS
 10
-11.85
 20
-20.35
 11
-11.9573363253
 21
-20.3767931924
  0
LINE
  5
2B3
100
AcDbEntity
  8
RACCORDO
100
AcDbLine
 62
7
  6
CONTINUOUS
 10
-13.4272631372
 20
-20.3767931924
 11
-13.0377806403
 21
-20.2795709384
  0
LINE
  5
2B4
100
AcDbEntity
  8
RACCORDO
100
AcDbLine
 62
7
  6
CONTINUOUS
 10
-13.4272631372
 20
-15.3232068076
 11
-13.0377806403
 21
-15.4204290616
  0
LINE
  5
2B5
100
AcDbEntity
  8
RACCORDO
100
AcDbLine
 62
7
  6
CONTINUOUS
 10
-11.85
 20
-15.35
 11
-11.9573363253
 21
-15.3232068076
  0
LINE
  5
2B6
100
AcDbEntity
  8
RACCORDO
100
AcDbLine
 62
7
  6
CONTINUOUS
 10
11.9573363253
 20
-20.3767931924
 11
11.85
 21
-20.35
  0
LINE
  5
2B7
100
AcDbEntity
  8
RACCORDO
100
AcDbLine
 62
7
  6
CONTINUOUS
 10
13.0377806403
 20
-20.2795709384
 11
13.4272631372
 21
-20.3767931924
  0
LINE
  5
2B8
100
AcDbEntity
  8
ASSI
100
AcDbLine
 62
7
  6
CONTINUOUS
 10
-7.886347
 20
-24.149926
 11
-7.0986244736
 21
-25.6696019448
  0
LINE
  5
2B9
100
AcDbEntity
  8
ASSI
100
AcDbLine
 62
7
  6
CONTINUOUS
 10
-6.31122
 20
-25.580605
 11
-7.05282
 21
-24.149917
  0
LINE
  5
2BA
100
AcDbEntity
  8
DRAFT
100
AcDbLine
 62
7
  6
CONTINUOUS
 10
-11.15
 20
-20.85
 11
-11.1892709051
 21
-20.7714522078
  0
LINE
  5
2BB
100
AcDbEntity
  8
DRAFT
100
AcDbLine
 62
7
  6
CONTINUOUS
 10
-13.7325462644
 20
-14.8849101299
 11
-13.75
 21
-14.85
  0
LINE
  5
2BC
100
AcDbEntity
  8
DRAFT
100
AcDbLine
 62
7
  6
CONTINUOUS
 10
-13.75
 20
-20.85
 11
-13.75
 21
-14.85
  0
LINE
  5
2BD
100
AcDbEntity
  8
DRAFT
100
AcDbLine
 62
7
  6
CONTINUOUS
 10
-13.7325462644
 20
-20.8150898701
 11
-13.7325462644
 21
-14.8849101299
  0
LINE
  5
2BE
100
AcDbEntity
  8
DRAFT
100
AcDbLine
 62
7
  6
CONTINUOUS
 10
-13.3199268119
 20
-8.0
 11
-13.3199268119
 21
8.0
  0
LINE
  5
2BF
100
AcDbEntity
  8
RACCORDO
100
AcDbLine
 62
253
  6
CONTINUOUS
 10
-13.2825244821
 20
10.9942584362
 11
-13.2825244821
 21
8.0093363344
  0
LINE
  5
2C0
100
AcDbEntity
  8
RACCORDO
100
AcDbLine
 62
253
  6
CONTINUOUS
 10
-13.2825244821
 20
-8.0093363344
 11
-13.2825244821
 21
-8.9942584362
  0
LINE
  5
2C1
100
AcDbEntity
  8
DRAFT
100
AcDbLine
 62
253
  6
CONTINUOUS
 10
-13.0377806403
 20
-20.2795709384
 11
-13.0377806403
 21
-15.4204290616
  0
LINE
  5
2C2
100
AcDbEntity
  8
0
100
AcDbLine
 62
7
  6
CONTINUOUS
 10
-19.435
 20
-28.9787234247
 11
-19.3966663742
 21
-28.6851063699
  0
LINE
  5
2C3
100
AcDbEntity
  8
0
100
AcDbLine
 62
7
  6
CONTINUOUS
 10
-18.4766668129
 20
-29.6148935616
 11
-18.4383331871
 21
-29.3212765753
  0
LINE
  5
2C4
100
AcDbEntity
  8
0
100
AcDbLine
 62
7
  6
CONTINUOUS
 10
-19.6266663742
 20
-28.9297872603
 11
-19.5883336258
 21
-28.6851063699
  0
LINE
  5
2C5
100
AcDbEntity
  8
0
100
AcDbLine
 62
7
  6
CONTINUOUS
 10
-18.285
 20
-29.6148935616
 11
-18.2466668129
 21
-29.3702127397
  0
LINE
  5
2C6
100
AcDbEntity
  8
0
100
AcDbLine
 62
7
  6
CONTINUOUS
 10
-17.94
 20
-28.9297872603
 11
-17.9016668129
 21
-28.6851063699
  0
LINE
  5
2C7
100
AcDbEntity
  8
0
100
AcDbLine
 62
7
  6
CONTINUOUS
 10
-4.1726669664
 20
30.8574468151
 11
-4.25125
 21
30.6617021233
  0
LINE
  5
2C8
100
AcDbEntity
  8
0
100
AcDbLine
 62
7
  6
CONTINUOUS
 10
-2.4438334832
 20
30.8574468151
 11
-2.5224165168
 21
30.6617021233
  0
LINE
  5
2C9
100
AcDbEntity
  8
0
100
AcDbLine
 62
7
  6
CONTINUOUS
 10
-3.0725
 20
29.2425531507
 11
-2.9939165168
 21
29.4382978082
  0
LINE
  5
2CA
100
AcDbEntity
  8
0
100
AcDbLine
 62
7
  6
CONTINUOUS
 10
-1.42225
 20
29.5851064384
 11
-1.5794165168
 21
29.291489315
  0
LINE
  5
2CB
100
AcDbEntity
  8
0
100
AcDbLine
 62
7
  6
CONTINUOUS
 10
-0.6364165168
 20
29.5851064384
 11
-0.5578334832
 21
29.7319149315
  0
LINE
  5
2CC
100
AcDbEntity
  8
0
100
AcDbLine
 62
7
  6
CONTINUOUS
 10
0.3065832584
 20
29.4872341096
 11
0.228
 21
29.3404254794
  0
LINE
  5
2CD
100
AcDbEntity
  8
0
100
AcDbLine
 62
7
  6
CONTINUOUS
 10
1.0924167416
 20
30.5148936301
 11
1.2495832584
 21
30.8085106507
  0
LINE
  5
2CE
100
AcDbEntity
  8
0
100
AcDbLine
 62
7
  6
CONTINUOUS
 10
0.345875
 20
30.4659574658
 11
0.228
 21
30.2702127397
  0
LINE
  5
2CF
100
AcDbEntity
  8
0
100
AcDbLine
 62
7
  6
CONTINUOUS
 10
3.7249583427
 20
29.0957446575
 11
3.8428333286
 21
29.2425531507
  0
LINE
  5
2D0
100
AcDbEntity
  8
DRAFT
100
AcDbLine
 62
7
  6
CONTINUOUS
 10
-12.1854452245
 20
-15.4259915571
 11
-11.35
 21
-15.4114088065
  0
LINE
  5
2D1
100
AcDbEntity
  8
DRAFT
100
AcDbLine
 62
7
  6
CONTINUOUS
 10
11.85
 20
-15.4041107013
 11
11.35
 21
-15.4064492366
  0
LINE
  5
2D2
100
AcDbEntity
  8
RACCORDO
100
AcDbLine
 62
253
  6
CONTINUOUS
 10
13.4272631372
 20
-15.3232068076
 11
11.9573363253
 21
-15.3232068076
  0
LINE
  5
2D3
100
AcDbEntity
  8
RACCORDO
100
AcDbLine
 62
253
  6
CONTINUOUS
 10
-11.9573363253
 20
-15.3232068076
 11
-13.4272631372
 21
-15.3232068076
  0
LINE
  5
2D4
100
AcDbEntity
  8
DRAFT
100
AcDbLine
 62
7
  6
CONTINUOUS
 10
11.85
 20
-14.963457922
 11
12.7214522078
 21
-14.963457922
  0
LINE
  5
2D5
100
AcDbEntity
  8
DRAFT
100
AcDbLine
 62
7
  6
CONTINUOUS
 10
-11.85
 20
-14.963457922
 11
-12.7214522078
 21
-14.963457922
  0
LINE
  5
2D6
100
AcDbEntity
  8
DRAFT
100
AcDbLine
 62
7
  6
CONTINUOUS
 10
11.85
 20
-14.9285477922
 11
11.1892709051
 21
-14.9285477922
  0
LINE
  5
2D7
100
AcDbEntity
  8
DRAFT
100
AcDbLine
 62
7
  6
CONTINUOUS
 10
-11.1892709051
 20
-14.9285477922
 11
-11.85
 21
-14.9285477922
  0
LINE
  5
2D8
100
AcDbEntity
  8
DRAFT
100
AcDbLine
 62
7
  6
CONTINUOUS
 10
-13.7325462644
 20
-14.8849101299
 11
-12.8
 21
-14.8849101299
  0
LINE
  5
2D9
100
AcDbEntity
  8
DRAFT
100
AcDbLine
 62
7
  6
CONTINUOUS
 10
12.8
 20
-14.8849101299
 11
13.7325462644
 21
-14.8849101299
  0
LINE
  5
2DA
100
AcDbEntity
  8
DRAFT
100
AcDbLine
 62
7
  6
CONTINUOUS
 10
-13.75
 20
-14.85
 11
-11.15
 21
-14.85
  0
LINE
  5
2DB
100
AcDbEntity
  8
DRAFT
100
AcDbLine
 62
7
  6
CONTINUOUS
 10
11.15
 20
-14.85
 11
13.75
 21
-14.85
  0
LINE
  5
2DC
100
AcDbEntity
  8
DRAFT
100
AcDbLine
 62
7
  6
CONTINUOUS
 10
-11.35
 20
-15.4064492366
 11
-11.85
 21
-15.4041107013
  0
LINE
  5
2DD
100
AcDbEntity
  8
DRAFT
100
AcDbLine
 62
7
  6
CONTINUOUS
 10
11.35
 20
-15.4114088065
 11
12.1854452245
 21
-15.4259915571
  0
LINE
  5
2DE
100
AcDbEntity
  8
DRAFT
100
AcDbLine
 62
7
  6
CONTINUOUS
 10
-10.3362318521
 20
22.2187781165
 11
-10.3351486121
 21
20.8
  0
LINE
  5
2DF
100
AcDbEntity
  8
RACCORDO
100
AcDbLine
 62
253
  6
CONTINUOUS
 10
-12.7837424569
 20
11.0
 11
-12.7837424569
 21
8.0174550649
  0
LINE
  5
2E0
100
AcDbEntity
  8
RACCORDO
100
AcDbLine
 62
253
  6
CONTINUOUS
 10
-12.7837424569
 20
-8.0174550649
 11
-12.7837424569
 21
-9.0
  0
LINE
  5
2E1
100
AcDbEntity
  8
DRAFT
100
AcDbLine
 62
253
  6
CONTINUOUS
 10
-12.1854452245
 20
-20.2740084429
 11
-12.1854452245
 21
-15.4259915571
  0
LINE
  5
2E2
100
AcDbEntity
  8
DRAFT
100
AcDbLine
 62
7
  6
CONTINUOUS
 10
-11.85
 20
-14.9285477922
 11
-11.85
 21
-15.4041107013
  0
LINE
  5
2E3
100
AcDbEntity
  8
DRAFT
100
AcDbLine
 62
7
  6
CONTINUOUS
 10
-11.85
 20
-20.2958892987
 11
-11.85
 21
-20.7714522078
  0
LINE
  5
2E4
100
AcDbEntity
  8
DRAFT
100
AcDbLine
 62
7
  6
CONTINUOUS
 10
-11.85
 20
-8.0
 11
-11.85
 21
8.0
  0
LINE
  5
2E5
100
AcDbEntity
  8
DRAFT
100
AcDbLine
 62
7
  6
CONTINUOUS
 10
-11.4174537356
 20
20.5
 11
-11.4174537356
 21
22.3
  0
LINE
  5
2E6
100
AcDbEntity
  8
DRAFT
100
AcDbLine
 62
7
  6
CONTINUOUS
 10
-11.3607290949
 20
22.2432753594
 11
-11.3607290949
 21
20.5
  0
LINE
  5
2E7
100
AcDbEntity
  8
DRAFT
100
AcDbLine
 62
7
  6
CONTINUOUS
 10
-11.35
 20
-20.2885911935
 11
-11.35
 21
-15.4114088065
  0
LINE
  5
2E8
100
AcDbEntity
  8
DRAFT
100
AcDbLine
 62
7
  6
CONTINUOUS
 10
-11.1892709051
 20
-14.9285477922
 11
-11.1892709051
 21
-20.7714522078
  0
LINE
  5
2E9
100
AcDbEntity
  8
DRAFT
100
AcDbLine
 62
7
  6
CONTINUOUS
 10
-11.15
 20
-20.85
 11
-11.15
 21
-14.85
  0
LINE
  5
2EA
100
AcDbEntity
  8
RACCORDO
100
AcDbLine
 62
7
  6
CONTINUOUS
 10
-10.7674550649
 20
22.2432753594
 11
-10.7674550649
 21
20.5
  0
LINE
  5
2EB
100
AcDbEntity
  8
DRAFT
100
AcDbLine
 62
7
  6
CONTINUOUS
 10
-10.75
 20
38.45
 11
-10.75
 21
37.95
  0
LINE
  5
2EC
100
AcDbEntity
  8
DRAFT
100
AcDbLine
 62
7
  6
CONTINUOUS
 10
-10.75
 20
-38.45
 11
-10.75
 21
-37.95
  0
LINE
  5
2ED
100
AcDbEntity
  8
DRAFT
100
AcDbLine
 62
7
  6
CONTINUOUS
 10
-10.75
 20
20.5
 11
-10.75
 21
22.2432753594
  0
LINE
  5
2EE
100
AcDbEntity
  8
DRAFT
100
AcDbLine
 62
7
  6
CONTINUOUS
 10
-10.5
 20
-39.0
 11
-10.5
 21
-38.5
  0
LINE
  5
2EF
100
AcDbEntity
  8
DRAFT
100
AcDbLine
 62
7
  6
CONTINUOUS
 10
-10.5
 20
38.5
 11
-10.5
 21
39.0
  0
LINE
  5
2F0
100
AcDbEntity
  8
DRAFT
100
AcDbLine
 62
7
  6
CONTINUOUS
 10
-10.3167218183
 20
-38.4497183175
 11
-10.3167218183
 21
-38.0543676855
  0
LINE
  5
2F1
100
AcDbEntity
  8
DRAFT
100
AcDbLine
 62
7
  6
CONTINUOUS
 10
-10.3167218183
 20
38.0543676855
 11
-10.3167218183
 21
38.4497183175
  0
LINE
  5
2F2
100
AcDbEntity
  8
0
100
AcDbLine
 62
7
  6
CONTINUOUS
 10
-19.5883336258
 20
-28.6851063699
 11
-19.55
 21
-28.5382978767
  0
LINE
  5
2F3
100
AcDbEntity
  8
0
100
AcDbLine
 62
7
  6
CONTINUOUS
 10
-18.3233331871
 20
-29.7617021918
 11
-18.285
 21
-29.6148935616
  0
LINE
  5
2F4
100
AcDbEntity
  8
0
100
AcDbLine
 62
7
  6
CONTINUOUS
 10
-4.25125
 20
30.6617021233
 11
-4.2905419664
 21
30.5148936301
  0
LINE
  5
2F5
100
AcDbEntity
  8
0
100
AcDbLine
 62
7
  6
CONTINUOUS
 10
-2.9939165168
 20
29.4382978082
 11
-2.954625
 21
29.5851064384
  0
LINE
  5
2F6
100
AcDbEntity
  8
0
100
AcDbLine
 62
7
  6
CONTINUOUS
 10
-2.5224165168
 20
30.6617021233
 11
-2.5617084832
 21
30.5148936301
  0
LINE
  5
2F7
100
AcDbEntity
  8
0
100
AcDbLine
 62
7
  6
CONTINUOUS
 10
-0.7935834832
 20
30.8574468151
 11
-0.8721665168
 21
30.6127659589
  0
LINE
  5
2F8
100
AcDbEntity
  8
0
100
AcDbLine
 62
7
  6
CONTINUOUS
 10
-1.3436665168
 20
29.2425531507
 11
-1.2650834832
 21
29.4382978082
  0
LINE
  5
2F9
100
AcDbEntity
  8
0
100
AcDbLine
 62
7
  6
CONTINUOUS
 10
-0.7542915168
 20
29.8297872603
 11
-0.832875
 21
29.6340426028
  0
LINE
  5
2FA
100
AcDbEntity
  8
0
100
AcDbLine
 62
7
  6
CONTINUOUS
 10
1.0138332584
 20
30.8574468151
 11
0.93525
 21
30.6617021233
  0
LINE
  5
2FB
100
AcDbEntity
  8
0
100
AcDbLine
 62
7
  6
CONTINUOUS
 10
2.0354167416
 20
29.5851064384
 11
1.87825
 21
29.291489315
  0
LINE
  5
2FC
100
AcDbEntity
  8
0
100
AcDbLine
 62
7
  6
CONTINUOUS
 10
2.82125
 20
30.5148936301
 11
2.9784166292
 21
30.8085106507
  0
LINE
  5
2FD
100
AcDbEntity
  8
0
100
AcDbLine
 62
7
  6
CONTINUOUS
 10
3.76425
 20
29.5851064384
 11
3.6070833427
 21
29.291489315
  0
LINE
  5
2FE
100
AcDbEntity
  8
RACCORDO
100
AcDbLine
 62
7
  6
CONTINUOUS
 10
-13.2825244821
 20
-8.0093363344
 11
-13.3199268119
 21
-8.0
  0
LINE
  5
2FF
100
AcDbEntity
  8
ASSI
100
AcDbLine
 62
7
  6
CONTINUOUS
 10
-4.431869
 20
-24.149907
 11
-3.243864
 21
-27.850083
  0
LINE
  5
300
100
AcDbEntity
  8
ASSI
100
AcDbLine
 62
7
  6
CONTINUOUS
 10
-2.873827
 20
-26.697672
 11
-3.232477
 21
-25.580605
  0
LINE
  5
301
100
AcDbEntity
  8
ASSI
100
AcDbLine
 62
7
  6
CONTINUOUS
 10
-3.458214
 20
-24.877577
 11
-3.691832
 21
-24.149917
  0
LINE
  5
302
100
AcDbEntity
  8
DRAFT
100
AcDbLine
 62
7
  6
CONTINUOUS
 10
-7.0
 20
-36.4936376623
 11
-7.0
 21
-32.0
  0
LINE
  5
303
100
AcDbEntity
  8
DRAFT
100
AcDbLine
 62
7
  6
CONTINUOUS
 10
-7.0
 20
32.0
 11
-7.0
 21
36.4936376623
  0
LINE
  5
304
100
AcDbEntity
  8
0
100
AcDbLine
 62
7
  6
CONTINUOUS
 10
-4.133375
 20
30.2212765753
 11
-4.0940830336
 21
30.5148936301
  0
LINE
  5
305
100
AcDbEntity
  8
0
100
AcDbLine
 62
7
  6
CONTINUOUS
 10
-3.1117915168
 20
29.8787234247
 11
-3.1510834832
 21
29.5851064384
  0
LINE
  5
306
100
AcDbEntity
  8
0
100
AcDbLine
 62
7
  6
CONTINUOUS
 10
-2.4045415168
 20
30.2212765753
 11
-2.36525
 21
30.5148936301
  0
LINE
  5
307
100
AcDbEntity
  8
0
100
AcDbLine
 62
7
  6
CONTINUOUS
 10
-4.2905419664
 20
30.5148936301
 11
-4.3298330336
 21
30.2702127397
  0
LINE
  5
308
100
AcDbEntity
  8
0
100
AcDbLine
 62
7
  6
CONTINUOUS
 10
-2.954625
 20
29.5851064384
 11
-2.9153334832
 21
29.8297872603
  0
LINE
  5
309
100
AcDbEntity
  8
0
100
AcDbLine
 62
7
  6
CONTINUOUS
 10
-2.5617084832
 20
30.5148936301
 11
-2.601
 21
30.2702127397
  0
LINE
  5
30A
100
AcDbEntity
  8
0
100
AcDbLine
 62
7
  6
CONTINUOUS
 10
-1.2650834832
 20
29.4382978082
 11
-1.2257915168
 21
29.5851064384
  0
LINE
  5
30B
100
AcDbEntity
  8
0
100
AcDbLine
 62
7
  6
CONTINUOUS
 10
0.93525
 20
30.6617021233
 11
0.8959582584
 21
30.5148936301
  0
LINE
  5
30C
100
AcDbEntity
  8
0
100
AcDbLine
 62
7
  6
CONTINUOUS
 10
0.46375
 20
30.2212765753
 11
0.5423332584
 21
30.4659574658
  0
LINE
  5
30D
100
AcDbEntity
  8
0
100
AcDbLine
 62
7
  6
CONTINUOUS
 10
0.4244582584
 20
29.2425531507
 11
0.5030417416
 21
29.4872341096
  0
LINE
  5
30E
100
AcDbEntity
  8
DRAFT
100
AcDbLine
 62
7
  6
CONTINUOUS
 10
4.25
 20
39.4
 11
4.1376959003
 21
39.0628137166
  0
LINE
  5
30F
100
AcDbEntity
  8
DRAFT
100
AcDbLine
 62
7
  6
CONTINUOUS
 10
4.25
 20
39.0
 11
4.1376959003
 21
38.6628137166
  0
LINE
  5
310
100
AcDbEntity
  8
0
100
AcDbLine
 62
7
  6
CONTINUOUS
 10
-19.55
 20
-28.5382978767
 11
-19.4733336258
 21
-28.3425531849
  0
LINE
  5
311
100
AcDbEntity
  8
0
100
AcDbLine
 62
7
  6
CONTINUOUS
 10
2.7426666292
 20
30.8574468151
 11
2.6640833708
 21
30.6617021233
  0
LINE
  5
312
100
AcDbEntity
  8
0
100
AcDbLine
 62
7
  6
CONTINUOUS
 10
2.114
 20
29.2425531507
 11
2.1925833708
 21
29.4382978082
  0
LINE
  5
313
100
AcDbEntity
  8
0
100
AcDbLine
 62
7
  6
CONTINUOUS
 10
3.8428333286
 20
29.2425531507
 11
3.9214166643
 21
29.4382978082
  0
LINE
  5
314
100
AcDbEntity
  8
DRAFT
100
AcDbLine
 62
7
  6
CONTINUOUS
 10
10.5
 20
38.5
 11
10.3213768999
 21
38.1426449211
  0
LINE
  5
315
100
AcDbEntity
  8
DRAFT
100
AcDbLine
 62
7
  6
CONTINUOUS
 10
10.3607290949
 20
22.2432753594
 11
10.3362318521
 21
22.2187781165
  0
LINE
  5
316
100
AcDbEntity
  8
DRAFT
100
AcDbLine
 62
7
  6
CONTINUOUS
 10
11.3607290949
 20
22.2432753594
 11
11.4174537356
 21
22.3
  0
LINE
  5
317
100
AcDbEntity
  8
RACCORDO
100
AcDbLine
 62
253
  6
CONTINUOUS
 10
28.1557542986
 20
38.4056020053
 11
28.2501522932
 21
38.5
  0
LINE
  5
318
100
AcDbEntity
  8
RACCORDO
100
AcDbLine
 62
253
  6
CONTINUOUS
 10
28.4056129843
 20
38.1557652776
 11
28.5
 21
38.2501522932
  0
LINE
  5
319
100
AcDbEntity
  8
DRAFT
100
AcDbLine
 62
7
  6
CONTINUOUS
 10
-8.1
 20
-9.0
 11
-13.1
 21
-9.0
  0
LINE
  5
31A
100
AcDbEntity
  8
RACCORDO
100
AcDbLine
 62
7
  6
CONTINUOUS
 10
-12.7837424569
 20
-8.0174550649
 11
-3.7856398713
 21
-8.0174550649
  0
LINE
  5
31B
100
AcDbEntity
  8
DRAFT
100
AcDbLine
 62
7
  6
CONTINUOUS
 10
-3.7505837888
 20
-8.0
 11
-13.3199268119
 21
-8.0
  0
LINE
  5
31C
100
AcDbEntity
  8
RACCORDO
100
AcDbLine
 62
253
  6
CONTINUOUS
 10
28.2501522932
 20
-38.5
 11
28.1557542986
 21
-38.4056020053
  0
LINE
  5
31D
100
AcDbEntity
  8
RACCORDO
100
AcDbLine
 62
253
  6
CONTINUOUS
 10
28.5
 20
-38.2501522932
 11
28.4056129843
 21
-38.1557652776
  0
LINE
  5
31E
100
AcDbEntity
  8
DRAFT
100
AcDbLine
 62
7
  6
CONTINUOUS
 10
10.5
 20
-38.5
 11
10.3213768999
 21
-38.1426449211
  0
LINE
  5
31F
100
AcDbEntity
  8
DRAFT
100
AcDbLine
 62
7
  6
CONTINUOUS
 10
4.1376959003
 20
-39.0628137166
 11
4.25
 21
-39.4
  0
LINE
  5
320
100
AcDbEntity
  8
DRAFT
100
AcDbLine
 62
7
  6
CONTINUOUS
 10
4.25
 20
-39.0
 11
4.1376959003
 21
-38.6628137166
  0
LINE
  5
321
100
AcDbEntity
  8
ASSI
100
AcDbLine
 62
7
  6
CONTINUOUS
 10
-5.655052
 20
-26.265142
 11
-5.655043
 21
-27.165556
  0
LINE
  5
322
100
AcDbEntity
  8
DRAFT
100
AcDbLine
 62
7
  6
CONTINUOUS
 10
-5.0
 20
37.95
 11
-5.0
 21
35.5
  0
LINE
  5
323
100
AcDbEntity
  8
DRAFT
100
AcDbLine
 62
7
  6
CONTINUOUS
 10
-5.0
 20
-35.5
 11
-5.0
 21
-37.95
  0
LINE
  5
324
100
AcDbEntity
  8
ASSI
100
AcDbLine
 62
7
  6
CONTINUOUS
 10
-4.925218
 20
-27.850083
 11
-4.925218
 21
-24.149917
  0
LINE
  5
325
100
AcDbEntity
  8
0
100
AcDbLine
 62
7
  6
CONTINUOUS
 10
-4.3298330336
 20
30.2702127397
 11
-4.3298330336
 21
29.8297872603
  0
LINE
  5
326
100
AcDbEntity
  8
DRAFT
100
AcDbLine
 62
7
  6
CONTINUOUS
 10
-4.25
 20
-39.0
 11
-4.25
 21
-39.4
  0
LINE
  5
327
100
AcDbEntity
  8
DRAFT
100
AcDbLine
 62
7
  6
CONTINUOUS
 10
-4.25
 20
39.0
 11
-4.25
 21
39.4
  0
LINE
  5
328
100
AcDbEntity
  8
DRAFT
100
AcDbLine
 62
253
  6
CONTINUOUS
 10
-4.1376959003
 20
39.0628137166
 11
-4.1376959003
 21
38.6628137166
  0
LINE
  5
329
100
AcDbEntity
  8
DRAFT
100
AcDbLine
 62
253
  6
CONTINUOUS
 10
-4.1376959003
 20
-39.0628137166
 11
-4.1376959003
 21
-38.6628137166
  0
LINE
  5
32A
100
AcDbEntity
  8
0
100
AcDbLine
 62
7
  6
CONTINUOUS
 10
-4.133375
 20
29.8787234247
 11
-4.133375
 21
30.2212765753
  0
LINE
  5
32B
100
AcDbEntity
  8
0
100
AcDbLine
 62
7
  6
CONTINUOUS
 10
-3.978832
 20
28.111613
 11
-3.978832
 21
25.811613
  0
LINE
  5
32C
100
AcDbEntity
  8
0
100
AcDbLine
 62
7
  6
CONTINUOUS
 10
-3.69733
 20
26.3194364063
 11
-3.69733
 21
28.111613
  0
LINE
  5
32D
100
AcDbEntity
  8
0
100
AcDbLine
 62
7
  6
CONTINUOUS
 10
-3.134325
 20
26.386613611
 11
-3.134325
 21
26.6584689874
  0
LINE
  5
32E
100
AcDbEntity
  8
0
100
AcDbLine
 62
7
  6
CONTINUOUS
 10
-3.1117915168
 20
30.2212765753
 11
-3.1117915168
 21
29.8787234247
  0
LINE
  5
32F
100
AcDbEntity
  8
0
100
AcDbLine
 62
7
  6
CONTINUOUS
 10
-2.9153334832
 20
29.8297872603
 11
-2.9153334832
 21
30.2702127397
  0
LINE
  5
330
100
AcDbEntity
  8
ASSI
100
AcDbLine
 62
7
  6
CONTINUOUS
 10
-5.665255
 20
-24.149917
 11
-5.665338
 21
-25.580614
  0
LINE
  5
331
100
AcDbEntity
  8
0
100
AcDbLine
 62
7
  6
CONTINUOUS
 10
-1.731113953
 20
26.7776773698
 11
-1.6998240372
 21
27.0239917075
  0
LINE
  5
332
100
AcDbEntity
  8
0
100
AcDbLine
 62
7
  6
CONTINUOUS
 10
-1.3829584832
 20
29.8787234247
 11
-1.42225
 21
29.5851064384
  0
LINE
  5
333
100
AcDbEntity
  8
0
100
AcDbLine
 62
7
  6
CONTINUOUS
 10
1.053125
 20
30.2212765753
 11
1.0924167416
 21
30.5148936301
  0
LINE
  5
334
100
AcDbEntity
  8
0
100
AcDbLine
 62
7
  6
CONTINUOUS
 10
-1.2257915168
 20
29.5851064384
 11
-1.1865
 21
29.8297872603
  0
LINE
  5
335
100
AcDbEntity
  8
0
100
AcDbLine
 62
7
  6
CONTINUOUS
 10
0.8959582584
 20
30.5148936301
 11
0.8566667416
 21
30.2702127397
  0
LINE
  5
336
100
AcDbEntity
  8
0
100
AcDbLine
 62
7
  6
CONTINUOUS
 10
2.1925833708
 20
29.4382978082
 11
2.231875
 21
29.5851064384
  0
LINE
  5
337
100
AcDbEntity
  8
0
100
AcDbLine
 62
7
  6
CONTINUOUS
 10
2.6640833708
 20
30.6617021233
 11
2.6247916292
 21
30.5148936301
  0
LINE
  5
338
100
AcDbEntity
  8
0
100
AcDbLine
 62
7
  6
CONTINUOUS
 10
3.9214166643
 20
29.4382978082
 11
3.9607083322
 21
29.5851064384
  0
LINE
  5
339
100
AcDbEntity
  8
0
100
AcDbLine
 62
7
  6
CONTINUOUS
 10
-18.4
 20
-29.9574468493
 11
-18.3233331871
 21
-29.7617021918
  0
LINE
  5
33A
100
AcDbEntity
  8
DRAFT
100
AcDbLine
 62
7
  6
CONTINUOUS
 10
-11.15
 20
-14.85
 11
-11.1892709051
 21
-14.9285477922
  0
LINE
  5
33B
100
AcDbEntity
  8
DRAFT
100
AcDbLine
 62
7
  6
CONTINUOUS
 10
-13.7325462644
 20
-20.8150898701
 11
-13.75
 21
-20.85
  0
LINE
  5
33C
100
AcDbEntity
  8
0
100
AcDbLine
 62
7
  6
CONTINUOUS
 10
-19.3966663742
 20
-28.6851063699
 11
-19.2433336258
 21
-28.3914893493
  0
LINE
  5
33D
100
AcDbEntity
  8
DRAFT
100
AcDbLine
 62
7
  6
CONTINUOUS
 10
12.8
 20
-20.8150898701
 11
12.7214522078
 21
-20.736542078
  0
LINE
  5
33E
100
AcDbEntity
  8
ASSI
100
AcDbLine
 62
7
  6
CONTINUOUS
 10
0.987225
 20
-25.440393
 11
1.678191
 21
-27.850074
  0
LINE
  5
33F
100
AcDbEntity
  8
ASSI
100
AcDbLine
 62
7
  6
CONTINUOUS
 10
2.056886
 20
-26.589919
 11
1.357234
 21
-24.149907
  0
LINE
  5
340
100
AcDbEntity
  8
0
100
AcDbLine
 62
7
  6
CONTINUOUS
 10
-2.601
 20
30.2702127397
 11
-2.601
 21
29.8297872603
  0
LINE
  5
341
100
AcDbEntity
  8
0
100
AcDbLine
 62
7
  6
CONTINUOUS
 10
-2.4045415168
 20
29.8787234247
 11
-2.4045415168
 21
30.2212765753
  0
LINE
  5
342
100
AcDbEntity
  8
0
100
AcDbLine
 62
7
  6
CONTINUOUS
 10
-1.3829584832
 20
30.2212765753
 11
-1.3829584832
 21
29.8787234247
  0
LINE
  5
343
100
AcDbEntity
  8
0
100
AcDbLine
 62
7
  6
CONTINUOUS
 10
-1.1865
 20
29.8297872603
 11
-1.1865
 21
30.2702127397
  0
LINE
  5
344
100
AcDbEntity
  8
0
100
AcDbLine
 62
7
  6
CONTINUOUS
 10
-0.8721665168
 20
30.6127659589
 11
-0.8721665168
 21
30.4659574658
  0
LINE
  5
345
100
AcDbEntity
  8
0
100
AcDbLine
 62
7
  6
CONTINUOUS
 10
-0.832875
 20
29.6340426028
 11
-0.832875
 21
29.4872341096
  0
LINE
  5
346
100
AcDbEntity
  8
ASSI
100
AcDbLine
 62
7
  6
CONTINUOUS
 10
-0.822464
 20
-24.149907
 11
-0.822464
 21
-27.850074
  0
LINE
  5
347
100
AcDbEntity
  8
0
100
AcDbLine
 62
7
  6
CONTINUOUS
 10
-0.6757084832
 20
30.4659574658
 11
-0.6757084832
 21
30.6127659589
  0
LINE
  5
348
100
AcDbEntity
  8
0
100
AcDbLine
 62
7
  6
CONTINUOUS
 10
-0.6364165168
 20
29.4872341096
 11
-0.6364165168
 21
29.5851064384
  0
LINE
  5
349
100
AcDbEntity
  8
ASSI
100
AcDbLine
 62
7
  6
CONTINUOUS
 10
-0.082427
 20
-26.589919
 11
-0.082436
 21
-24.149907
  0
LINE
  5
34A
100
AcDbEntity
  8
0
100
AcDbLine
 62
7
  6
CONTINUOUS
 10
0.3065832584
 20
29.5851064384
 11
0.3065832584
 21
29.4872341096
  0
LINE
  5
34B
100
AcDbEntity
  8
0
100
AcDbLine
 62
7
  6
CONTINUOUS
 10
0.345875
 20
30.6127659589
 11
0.345875
 21
30.4659574658
  0
LINE
  5
34C
100
AcDbEntity
  8
0
100
AcDbLine
 62
7
  6
CONTINUOUS
 10
2.0747082584
 20
29.8787234247
 11
2.0354167416
 21
29.5851064384
  0
LINE
  5
34D
100
AcDbEntity
  8
0
100
AcDbLine
 62
7
  6
CONTINUOUS
 10
2.7819583708
 20
30.2212765753
 11
2.82125
 21
30.5148936301
  0
LINE
  5
34E
100
AcDbEntity
  8
0
100
AcDbLine
 62
7
  6
CONTINUOUS
 10
3.8035416714
 20
29.8787234247
 11
3.76425
 21
29.5851064384
  0
LINE
  5
34F
100
AcDbEntity
  8
0
100
AcDbLine
 62
7
  6
CONTINUOUS
 10
2.231875
 20
29.5851064384
 11
2.2711666292
 21
29.8297872603
  0
LINE
  5
350
100
AcDbEntity
  8
0
100
AcDbLine
 62
7
  6
CONTINUOUS
 10
2.6247916292
 20
30.5148936301
 11
2.5855
 21
30.2702127397
  0
LINE
  5
351
100
AcDbEntity
  8
0
100
AcDbLine
 62
7
  6
CONTINUOUS
 10
3.9607083322
 20
29.5851064384
 11
4.0
 21
29.8297872603
  0
LINE
  5
352
100
AcDbEntity
  8
DRAFT
100
AcDbLine
 62
7
  6
CONTINUOUS
 10
10.3167218183
 20
38.4497183175
 11
10.5
 21
39.0
  0
LINE
  5
353
100
AcDbEntity
  8
0
100
AcDbLine
 62
7
  6
CONTINUOUS
 10
-18.63
 20
-29.908510685
 11
-18.4766668129
 21
-29.6148935616
  0
LINE
  5
354
100
AcDbEntity
  8
DRAFT
100
AcDbLine
 62
7
  6
CONTINUOUS
 10
10.3167218183
 20
-38.4497183175
 11
10.5
 21
-39.0
  0
LINE
  5
355
100
AcDbEntity
  8
ASSI
100
AcDbLine
 62
7
  6
CONTINUOUS
 10
6.328314
 20
-25.302309
 11
7.14631
 21
-27.850074
  0
LINE
  5
356
100
AcDbEntity
  8
ASSI
100
AcDbLine
 62
7
  6
CONTINUOUS
 10
7.886347
 20
-27.850074
 11
6.698351
 21
-24.149898
  0
LINE
  5
357
100
AcDbEntity
  8
0
100
AcDbLine
 62
7
  6
CONTINUOUS
 10
-4.0940830336
 20
29.5851064384
 11
-4.133375
 21
29.8787234247
  0
LINE
  5
358
100
AcDbEntity
  8
0
100
AcDbLine
 62
7
  6
CONTINUOUS
 10
0.5030417416
 20
29.4872341096
 11
0.5030417416
 21
29.6340426028
  0
LINE
  5
359
100
AcDbEntity
  8
0
100
AcDbLine
 62
7
  6
CONTINUOUS
 10
0.5423332584
 20
30.4659574658
 11
0.5423332584
 21
30.6127659589
  0
LINE
  5
35A
100
AcDbEntity
  8
0
100
AcDbLine
 62
7
  6
CONTINUOUS
 10
0.8566667416
 20
30.2702127397
 11
0.8566667416
 21
29.8297872603
  0
LINE
  5
35B
100
AcDbEntity
  8
0
100
AcDbLine
 62
7
  6
CONTINUOUS
 10
1.053125
 20
29.8787234247
 11
1.053125
 21
30.2212765753
  0
LINE
  5
35C
100
AcDbEntity
  8
ASSI
100
AcDbLine
 62
7
  6
CONTINUOUS
 10
2.056886
 20
-24.149907
 11
2.056886
 21
-26.589919
  0
LINE
  5
35D
100
AcDbEntity
  8
0
100
AcDbLine
 62
7
  6
CONTINUOUS
 10
2.0747082584
 20
30.2212765753
 11
2.0747082584
 21
29.8787234247
  0
LINE
  5
35E
100
AcDbEntity
  8
0
100
AcDbLine
 62
7
  6
CONTINUOUS
 10
2.2711666292
 20
29.8297872603
 11
2.2711666292
 21
30.2702127397
  0
LINE
  5
35F
100
AcDbEntity
  8
0
100
AcDbLine
 62
7
  6
CONTINUOUS
 10
2.5855
 20
30.2702127397
 11
2.5855
 21
29.8297872603
  0
LINE
  5
360
100
AcDbEntity
  8
0
100
AcDbLine
 62
7
  6
CONTINUOUS
 10
2.7819583708
 20
29.8787234247
 11
2.7819583708
 21
30.2212765753
  0
LINE
  5
361
100
AcDbEntity
  8
ASSI
100
AcDbLine
 62
7
  6
CONTINUOUS
 10
2.796913
 20
-27.850074
 11
2.796913
 21
-24.149907
  0
LINE
  5
362
100
AcDbEntity
  8
0
100
AcDbLine
 62
7
  6
CONTINUOUS
 10
3.135494
 20
28.111613
 11
3.135494
 21
25.811613
  0
LINE
  5
363
100
AcDbEntity
  8
0
100
AcDbLine
 62
7
  6
CONTINUOUS
 10
3.416996
 20
26.3194368429
 11
3.416996
 21
28.111613
  0
LINE
  5
364
100
AcDbEntity
  8
ASSI
100
AcDbLine
 62
7
  6
CONTINUOUS
 10
3.536923
 20
-24.149907
 11
3.536913
 21
-27.850074
  0
LINE
  5
365
100
AcDbEntity
  8
DRAFT
100
AcDbLine
 62
7
  6
CONTINUOUS
 10
-10.3167218183
 20
-38.4497183175
 11
-10.5
 21
-39.0
  0
LINE
  5
366
100
AcDbEntity
  8
0
100
AcDbLine
 62
7
  6
CONTINUOUS
 10
-19.4733336258
 20
-28.3425531849
 11
-19.3583336258
 21
-28.1957446747
  0
LINE
  5
367
100
AcDbEntity
  8
DRAFT
100
AcDbLine
 62
7
  6
CONTINUOUS
 10
13.75
 20
-20.85
 11
13.7325462644
 21
-20.8150898701
  0
LINE
  5
368
100
AcDbEntity
  8
DRAFT
100
AcDbLine
 62
7
  6
CONTINUOUS
 10
11.1892709051
 20
-14.9285477922
 11
11.15
 21
-14.85
  0
LINE
  5
369
100
AcDbEntity
  8
DRAFT
100
AcDbLine
 62
7
  6
CONTINUOUS
 10
-10.3167218183
 20
38.4497183175
 11
-10.5
 21
39.0
  0
LINE
  5
36A
100
AcDbEntity
  8
0
100
AcDbLine
 62
7
  6
CONTINUOUS
 10
-4.2905419664
 20
29.5851064384
 11
-4.25125
 21
29.4382978082
  0
LINE
  5
36B
100
AcDbEntity
  8
0
100
AcDbLine
 62
7
  6
CONTINUOUS
 10
-4.3298330336
 20
29.8297872603
 11
-4.2905419664
 21
29.5851064384
  0
LINE
  5
36C
100
AcDbEntity
  8
0
100
AcDbLine
 62
7
  6
CONTINUOUS
 10
-2.9153334832
 20
30.2702127397
 11
-2.954625
 21
30.5148936301
  0
LINE
  5
36D
100
AcDbEntity
  8
0
100
AcDbLine
 62
7
  6
CONTINUOUS
 10
-2.601
 20
29.8297872603
 11
-2.5617084832
 21
29.5851064384
  0
LINE
  5
36E
100
AcDbEntity
  8
0
100
AcDbLine
 62
7
  6
CONTINUOUS
 10
-1.1865
 20
30.2702127397
 11
-1.2257915168
 21
30.5148936301
  0
LINE
  5
36F
100
AcDbEntity
  8
0
100
AcDbLine
 62
7
  6
CONTINUOUS
 10
-3.1510834832
 20
30.5148936301
 11
-3.1117915168
 21
30.2212765753
  0
LINE
  5
370
100
AcDbEntity
  8
0
100
AcDbLine
 62
7
  6
CONTINUOUS
 10
-2.36525
 20
29.5851064384
 11
-2.4045415168
 21
29.8787234247
  0
LINE
  5
371
100
AcDbEntity
  8
0
100
AcDbLine
 62
7
  6
CONTINUOUS
 10
-1.42225
 20
30.5148936301
 11
-1.3829584832
 21
30.2212765753
  0
LINE
  5
372
100
AcDbEntity
  8
0
100
AcDbLine
 62
7
  6
CONTINUOUS
 10
3.8035416714
 20
30.2212765753
 11
3.8035416714
 21
29.8787234247
  0
LINE
  5
373
100
AcDbEntity
  8
0
100
AcDbLine
 62
7
  6
CONTINUOUS
 10
3.98
 20
26.3866133397
 11
3.98
 21
26.6584687805
  0
LINE
  5
374
100
AcDbEntity
  8
0
100
AcDbLine
 62
7
  6
CONTINUOUS
 10
4.0
 20
29.8297872603
 11
4.0
 21
30.2702127397
  0
LINE
  5
375
100
AcDbEntity
  8
DRAFT
100
AcDbLine
 62
253
  6
CONTINUOUS
 10
4.1376959003
 20
39.0628137166
 11
4.1376959003
 21
38.6628137166
  0
LINE
  5
376
100
AcDbEntity
  8
DRAFT
100
AcDbLine
 62
253
  6
CONTINUOUS
 10
4.1376959003
 20
-39.0628137166
 11
4.1376959003
 21
-38.6628137166
  0
LINE
  5
377
100
AcDbEntity
  8
DRAFT
100
AcDbLine
 62
7
  6
CONTINUOUS
 10
4.25
 20
-39.0
 11
4.25
 21
-39.4
  0
LINE
  5
378
100
AcDbEntity
  8
DRAFT
100
AcDbLine
 62
7
  6
CONTINUOUS
 10
4.25
 20
39.0
 11
4.25
 21
39.4
  0
LINE
  5
379
100
AcDbEntity
  8
ASSI
100
AcDbLine
 62
7
  6
CONTINUOUS
 10
4.276941
 20
-27.850074
 11
4.27695
 21
-24.149898
  0
LINE
  5
37A
100
AcDbEntity
  8
DRAFT
100
AcDbLine
 62
7
  6
CONTINUOUS
 10
5.0
 20
37.95
 11
5.0
 21
35.5
  0
LINE
  5
37B
100
AcDbEntity
  8
DRAFT
100
AcDbLine
 62
7
  6
CONTINUOUS
 10
5.0
 20
-35.5
 11
5.0
 21
-37.95
  0
LINE
  5
37C
100
AcDbEntity
  8
DRAFT
100
AcDbLine
 62
7
  6
CONTINUOUS
 10
7.0
 20
36.4936376623
 11
7.0
 21
32.0
  0
LINE
  5
37D
100
AcDbEntity
  8
DRAFT
100
AcDbLine
 62
7
  6
CONTINUOUS
 10
7.0
 20
-32.0
 11
7.0
 21
-36.4936376623
  0
LINE
  5
37E
100
AcDbEntity
  8
ASSI
100
AcDbLine
 62
7
  6
CONTINUOUS
 10
-2.515195
 20
-25.580605
 11
-2.873827
 21
-26.697672
  0
LINE
  5
37F
100
AcDbEntity
  8
ASSI
100
AcDbLine
 62
7
  6
CONTINUOUS
 10
-2.05584
 20
-24.149917
 11
-2.289468
 21
-24.877577
  0
LINE
  5
380
100
AcDbEntity
  8
ASSI
100
AcDbLine
 62
7
  6
CONTINUOUS
 10
-2.503799
 20
-27.850083
 11
-1.315813
 21
-24.149907
  0
LINE
  5
381
100
AcDbEntity
  8
0
100
AcDbLine
 62
7
  6
CONTINUOUS
 10
-18.515
 20
-30.1042553425
 11
-18.4
 21
-29.9574468493
  0
LINE
  5
382
100
AcDbEntity
  8
DRAFT
100
AcDbLine
 62
7
  6
CONTINUOUS
 10
-12.8
 20
-20.8150898701
 11
-12.7214522078
 21
-20.736542078
  0
LINE
  5
383
100
AcDbEntity
  8
RACCORDO
100
AcDbLine
 62
253
  6
CONTINUOUS
 10
-28.4056129843
 20
-38.1557652776
 11
-28.5
 21
-38.2501522932
  0
LINE
  5
384
100
AcDbEntity
  8
DRAFT
100
AcDbLine
 62
7
  6
CONTINUOUS
 10
1.158893602
 20
7.8906723224
 11
12.7787199718
 21
-1.7925163191
  0
LINE
  5
385
100
AcDbEntity
  8
DRAFT
100
AcDbLine
 62
7
  6
CONTINUOUS
 10
13.3932969955
 20
-2.3046638388
 11
16.158893602
 21
-4.6093276776
  0
LINE
  5
386
100
AcDbEntity
  8
RACCORDO
100
AcDbLine
 62
253
  6
CONTINUOUS
 10
-28.4056020053
 20
38.1557542986
 11
-28.5
 21
38.2501522932
  0
LINE
  5
387
100
AcDbEntity
  8
0
100
AcDbLine
 62
7
  6
CONTINUOUS
 10
-4.25125
 20
29.4382978082
 11
-4.1726669664
 21
29.2425531507
  0
LINE
  5
388
100
AcDbEntity
  8
0
100
AcDbLine
 62
7
  6
CONTINUOUS
 10
-2.954625
 20
30.5148936301
 11
-2.9939165168
 21
30.6617021233
  0
LINE
  5
389
100
AcDbEntity
  8
0
100
AcDbLine
 62
7
  6
CONTINUOUS
 10
-2.5617084832
 20
29.5851064384
 11
-2.5224165168
 21
29.4382978082
  0
LINE
  5
38A
100
AcDbEntity
  8
0
100
AcDbLine
 62
7
  6
CONTINUOUS
 10
-1.2257915168
 20
30.5148936301
 11
-1.2650834832
 21
30.6617021233
  0
LINE
  5
38B
100
AcDbEntity
  8
0
100
AcDbLine
 62
7
  6
CONTINUOUS
 10
0.8566667416
 20
29.8297872603
 11
0.8959582584
 21
29.5851064384
  0
LINE
  5
38C
100
AcDbEntity
  8
0
100
AcDbLine
 62
7
  6
CONTINUOUS
 10
2.2711666292
 20
30.2702127397
 11
2.231875
 21
30.5148936301
  0
LINE
  5
38D
100
AcDbEntity
  8
0
100
AcDbLine
 62
7
  6
CONTINUOUS
 10
1.0924167416
 20
29.5851064384
 11
1.053125
 21
29.8787234247
  0
LINE
  5
38E
100
AcDbEntity
  8
0
100
AcDbLine
 62
7
  6
CONTINUOUS
 10
2.0354167416
 20
30.5148936301
 11
2.0747082584
 21
30.2212765753
  0
LINE
  5
38F
100
AcDbEntity
  8
0
100
AcDbLine
 62
7
  6
CONTINUOUS
 10
2.82125
 20
29.5851064384
 11
2.7819583708
 21
29.8787234247
  0
LINE
  5
390
100
AcDbEntity
  8
DRAFT
100
AcDbLine
 62
7
  6
CONTINUOUS
 10
10.3167218183
 20
38.4497183175
 11
10.3167218183
 21
38.0543676855
  0
LINE
  5
391
100
AcDbEntity
  8
DRAFT
100
AcDbLine
 62
7
  6
CONTINUOUS
 10
10.3167218183
 20
-38.0543676855
 11
10.3167218183
 21
-38.4497183175
  0
LINE
  5
392
100
AcDbEntity
  8
DRAFT
100
AcDbLine
 62
7
  6
CONTINUOUS
 10
10.3362318521
 20
22.2187781165
 11
10.3351486121
 21
20.8
  0
LINE
  5
393
100
AcDbEntity
  8
ASSI
100
AcDbLine
 62
7
  6
CONTINUOUS
 10
0.617225
 20
-24.149917
 11
-0.082427
 21
-26.589919
  0
LINE
  5
394
100
AcDbEntity
  8
ASSI
100
AcDbLine
 62
7
  6
CONTINUOUS
 10
0.296259
 20
-27.850074
 11
0.987225
 21
-25.440393
  0
LINE
  5
395
100
AcDbEntity
  8
0
100
AcDbLine
 62
7
  6
CONTINUOUS
 10
18.609949
 20
31.999944
 11
18.642073785
 21
32.1
  0
LINE
  5
396
100
AcDbEntity
  8
0
100
AcDbLine
 62
7
  6
CONTINUOUS
 10
19.169977
 20
31.999944
 11
19.2021010375
 21
32.1
  0
LINE
  5
397
100
AcDbEntity
  8
DRAFT
100
AcDbLine
 62
7
  6
CONTINUOUS
 10
-4.25
 20
-39.0
 11
-4.1376959003
 21
-38.6628137166
  0
LINE
  5
398
100
AcDbEntity
  8
DRAFT
100
AcDbLine
 62
7
  6
CONTINUOUS
 10
-4.25
 20
-39.4
 11
-4.1376959003
 21
-39.0628137166
  0
LINE
  5
399
100
AcDbEntity
  8
DRAFT
100
AcDbLine
 62
7
  6
CONTINUOUS
 10
-10.5
 20
-38.5
 11
-10.3213768999
 21
-38.1426449211
  0
LINE
  5
39A
100
AcDbEntity
  8
RACCORDO
100
AcDbLine
 62
253
  6
CONTINUOUS
 10
-28.1557542986
 20
-38.4056020053
 11
-28.2501522932
 21
-38.5
  0
LINE
  5
39B
100
AcDbEntity
  8
0
100
AcDbLine
 62
7
  6
CONTINUOUS
 10
-19.2433336258
 20
-28.3914893493
 11
-19.1283336258
 21
-28.2936170205
  0
LINE
  5
39C
100
AcDbEntity
  8
DRAFT
100
AcDbLine
 62
7
  6
CONTINUOUS
 10
2.5897503241
 20
8.0
 11
1.0368653009
 21
8.0
  0
LINE
  5
39D
100
AcDbEntity
  8
DRAFT
100
AcDbLine
 62
7
  6
CONTINUOUS
 10
-0.9607537673
 20
8.0
 11
-13.3199268119
 21
8.0
  0
LINE
  5
39E
100
AcDbEntity
  8
RACCORDO
100
AcDbLine
 62
7
  6
CONTINUOUS
 10
-12.7837424569
 20
8.0174550649
 11
-0.9787507915
 21
8.0174550649
  0
LINE
  5
39F
100
AcDbEntity
  8
RACCORDO
100
AcDbLine
 62
7
  6
CONTINUOUS
 10
1.0173824767
 20
8.0174550649
 11
2.5688042462
 21
8.0174550649
  0
LINE
  5
3A0
100
AcDbEntity
  8
DRAFT
100
AcDbLine
 62
7
  6
CONTINUOUS
 10
16.582709832
 20
-3.6607995567
 11
14.0334813951
 21
-1.5364425592
  0
LINE
  5
3A1
100
AcDbEntity
  8
DRAFT
100
AcDbLine
 62
7
  6
CONTINUOUS
 10
13.4189043714
 20
-1.0242950395
 11
1.7990780017
 21
8.658893602
  0
LINE
  5
3A2
100
AcDbEntity
  8
RACCORDO
100
AcDbLine
 62
253
  6
CONTINUOUS
 10
-28.1557652776
 20
38.4056129843
 11
-28.2501522932
 21
38.5
  0
LINE
  5
3A3
100
AcDbEntity
  8
DRAFT
100
AcDbLine
 62
7
  6
CONTINUOUS
 10
-11.3607290949
 20
22.2432753594
 11
-11.4174537356
 21
22.3
  0
LINE
  5
3A4
100
AcDbEntity
  8
DRAFT
100
AcDbLine
 62
7
  6
CONTINUOUS
 10
-10.3607290949
 20
22.2432753594
 11
-10.3362318521
 21
22.2187781165
  0
LINE
  5
3A5
100
AcDbEntity
  8
0
100
AcDbLine
 62
7
  6
CONTINUOUS
 10
-3.9369169664
 20
29.291489315
 11
-4.0940830336
 21
29.5851064384
  0
LINE
  5
3A6
100
AcDbEntity
  8
DRAFT
100
AcDbLine
 62
7
  6
CONTINUOUS
 10
-10.5
 20
38.5
 11
-10.3213768999
 21
38.1426449211
  0
LINE
  5
3A7
100
AcDbEntity
  8
0
100
AcDbLine
 62
7
  6
CONTINUOUS
 10
-2.5224165168
 20
29.4382978082
 11
-2.4438334832
 21
29.2425531507
  0
LINE
  5
3A8
100
AcDbEntity
  8
0
100
AcDbLine
 62
7
  6
CONTINUOUS
 10
-2.9939165168
 20
30.6617021233
 11
-3.0725
 21
30.8574468151
  0
LINE
  5
3A9
100
AcDbEntity
  8
0
100
AcDbLine
 62
7
  6
CONTINUOUS
 10
-1.2650834832
 20
30.6617021233
 11
-1.3436665168
 21
30.8574468151
  0
LINE
  5
3AA
100
AcDbEntity
  8
DRAFT
100
AcDbLine
 62
7
  6
CONTINUOUS
 10
-4.25
 20
39.0
 11
-4.1376959003
 21
38.6628137166
  0
LINE
  5
3AB
100
AcDbEntity
  8
DRAFT
100
AcDbLine
 62
7
  6
CONTINUOUS
 10
-4.1376959003
 20
39.0628137166
 11
-4.25
 21
39.4
  0
LINE
  5
3AC
100
AcDbEntity
  8
0
100
AcDbLine
 62
7
  6
CONTINUOUS
 10
-0.832875
 20
29.4872341096
 11
-0.7542915168
 21
29.2425531507
  0
LINE
  5
3AD
100
AcDbEntity
  8
0
100
AcDbLine
 62
7
  6
CONTINUOUS
 10
-0.8721665168
 20
30.4659574658
 11
-0.7935834832
 21
30.2212765753
  0
LINE
  5
3AE
100
AcDbEntity
  8
0
100
AcDbLine
 62
7
  6
CONTINUOUS
 10
0.5423332584
 20
30.6127659589
 11
0.46375
 21
30.8574468151
  0
LINE
  5
3AF
100
AcDbEntity
  8
0
100
AcDbLine
 62
7
  6
CONTINUOUS
 10
0.8959582584
 20
29.5851064384
 11
0.93525
 21
29.4382978082
  0
LINE
  5
3B0
100
AcDbEntity
  8
0
100
AcDbLine
 62
7
  6
CONTINUOUS
 10
2.231875
 20
30.5148936301
 11
2.1925833708
 21
30.6617021233
  0
LINE
  5
3B1
100
AcDbEntity
  8
0
100
AcDbLine
 62
7
  6
CONTINUOUS
 10
2.6247916292
 20
29.5851064384
 11
2.6640833708
 21
29.4382978082
  0
LINE
  5
3B2
100
AcDbEntity
  8
0
100
AcDbLine
 62
7
  6
CONTINUOUS
 10
2.5855
 20
29.8297872603
 11
2.6247916292
 21
29.5851064384
  0
LINE
  5
3B3
100
AcDbEntity
  8
0
100
AcDbLine
 62
7
  6
CONTINUOUS
 10
4.0
 20
30.2702127397
 11
3.9607083322
 21
30.5148936301
  0
LINE
  5
3B4
100
AcDbEntity
  8
0
100
AcDbLine
 62
7
  6
CONTINUOUS
 10
3.76425
 20
30.5148936301
 11
3.8035416714
 21
30.2212765753
  0
LINE
  5
3B5
100
AcDbEntity
  8
DRAFT
100
AcDbLine
 62
7
  6
CONTINUOUS
 10
10.5
 20
39.0
 11
10.5
 21
38.5
  0
LINE
  5
3B6
100
AcDbEntity
  8
DRAFT
100
AcDbLine
 62
7
  6
CONTINUOUS
 10
10.5
 20
-38.5
 11
10.5
 21
-39.0
  0
LINE
  5
3B7
100
AcDbEntity
  8
DRAFT
100
AcDbLine
 62
7
  6
CONTINUOUS
 10
10.75
 20
38.45
 11
10.75
 21
37.95
  0
LINE
  5
3B8
100
AcDbEntity
  8
DRAFT
100
AcDbLine
 62
7
  6
CONTINUOUS
 10
10.75
 20
-38.45
 11
10.75
 21
-37.95
  0
LINE
  5
3B9
100
AcDbEntity
  8
DRAFT
100
AcDbLine
 62
7
  6
CONTINUOUS
 10
10.75
 20
20.5
 11
10.75
 21
22.2432753594
  0
LINE
  5
3BA
100
AcDbEntity
  8
RACCORDO
100
AcDbLine
 62
7
  6
CONTINUOUS
 10
10.7674550649
 20
20.5
 11
10.7674550649
 21
22.2432753594
  0
LINE
  5
3BB
100
AcDbEntity
  8
DRAFT
100
AcDbLine
 62
7
  6
CONTINUOUS
 10
11.15
 20
-20.85
 11
11.15
 21
-14.85
  0
LINE
  5
3BC
100
AcDbEntity
  8
DRAFT
100
AcDbLine
 62
7
  6
CONTINUOUS
 10
11.1892709051
 20
-14.9285477922
 11
11.1892709051
 21
-20.7714522078
  0
LINE
  5
3BD
100
AcDbEntity
  8
DRAFT
100
AcDbLine
 62
7
  6
CONTINUOUS
 10
11.35
 20
-20.2885911935
 11
11.35
 21
-15.4114088065
  0
LINE
  5
3BE
100
AcDbEntity
  8
DRAFT
100
AcDbLine
 62
7
  6
CONTINUOUS
 10
11.3607290949
 20
22.2432753594
 11
11.3607290949
 21
20.5
  0
LINE
  5
3BF
100
AcDbEntity
  8
DRAFT
100
AcDbLine
 62
7
  6
CONTINUOUS
 10
11.4174537356
 20
22.3
 11
11.4174537356
 21
20.5
  0
LINE
  5
3C0
100
AcDbEntity
  8
DRAFT
100
AcDbLine
 62
7
  6
CONTINUOUS
 10
11.85
 20
0.2831252701
 11
11.85
 21
-1.0185830092
  0
LINE
  5
3C1
100
AcDbEntity
  8
DRAFT
100
AcDbLine
 62
7
  6
CONTINUOUS
 10
11.85
 20
-14.9285477922
 11
11.85
 21
-15.4041107013
  0
LINE
  5
3C2
100
AcDbEntity
  8
DRAFT
100
AcDbLine
 62
7
  6
CONTINUOUS
 10
11.85
 20
-20.2958892987
 11
11.85
 21
-20.7714522078
  0
LINE
  5
3C3
100
AcDbEntity
  8
DRAFT
100
AcDbLine
 62
253
  6
CONTINUOUS
 10
12.1854452245
 20
-20.2740084429
 11
12.1854452245
 21
-15.4259915571
  0
LINE
  5
3C4
100
AcDbEntity
  8
RACCORDO
100
AcDbLine
 62
253
  6
CONTINUOUS
 10
12.7837424569
 20
12.5220893491
 11
12.7837424569
 21
13.8237976285
  0
LINE
  5
3C5
100
AcDbEntity
  8
DRAFT
100
AcDbLine
 62
253
  6
CONTINUOUS
 10
13.0377806403
 20
-20.2795709384
 11
13.0377806403
 21
-15.4204290616
  0
LINE
  5
3C6
100
AcDbEntity
  8
RACCORDO
100
AcDbLine
 62
253
  6
CONTINUOUS
 10
13.2825244821
 20
12.1064376615
 11
13.2825244821
 21
13.4081459409
  0
LINE
  5
3C7
100
AcDbEntity
  8
DRAFT
100
AcDbLine
 62
7
  6
CONTINUOUS
 10
13.3199268119
 20
-1.1430681109
 11
13.3199268119
 21
-0.9418137399
  0
LINE
  5
3C8
100
AcDbEntity
  8
DRAFT
100
AcDbLine
 62
7
  6
CONTINUOUS
 10
13.7325462644
 20
-20.8150898701
 11
13.7325462644
 21
-14.8849101299
  0
LINE
  5
3C9
100
AcDbEntity
  8
DRAFT
100
AcDbLine
 62
7
  6
CONTINUOUS
 10
13.75
 20
-20.85
 11
13.75
 21
-14.85
  0
LINE
  5
3CA
100
AcDbEntity
  8
ASSI
100
AcDbLine
 62
7
  6
CONTINUOUS
 10
5.958295
 20
-24.149907
 11
4.77029
 21
-27.850074
  0
LINE
  5
3CB
100
AcDbEntity
  8
ASSI
100
AcDbLine
 62
7
  6
CONTINUOUS
 10
5.510327
 20
-27.850074
 11
6.328314
 21
-25.302309
  0
LINE
  5
3CC
100
AcDbEntity
  8
DRAFT
100
AcDbLine
 62
7
  6
CONTINUOUS
 10
12.7787199718
 20
-1.7925163191
 11
13.4189043714
 21
-1.0242950395
  0
LINE
  5
3CD
100
AcDbEntity
  8
DRAFT
100
AcDbLine
 62
7
  6
CONTINUOUS
 10
19.8207483681
 20
6.6579177565
 11
20.4609327678
 21
7.4261390361
  0
LINE
  5
3CE
100
AcDbEntity
  8
DRAFT
100
AcDbLine
 62
7
  6
CONTINUOUS
 10
21.0755097914
 20
6.9139915164
 11
20.4353253918
 21
6.1457702368
  0
LINE
  5
3CF
100
AcDbEntity
  8
DRAFT
100
AcDbLine
 62
7
  6
CONTINUOUS
 10
14.0334813951
 20
-1.5364425592
 11
13.3932969955
 21
-2.3046638388
  0
LINE
  5
3D0
100
AcDbEntity
  8
0
100
AcDbLine
 62
7
  6
CONTINUOUS
 10
-18.745
 20
-30.0063830137
 11
-18.63
 21
-29.908510685
  0
LINE
  5
3D1
100
AcDbEntity
  8
0
100
AcDbLine
 62
7
  6
CONTINUOUS
 10
-19.3583336258
 20
-28.1957446747
 11
-19.1666663742
 21
-28.0489361687
  0
LINE
  5
3D2
100
AcDbEntity
  8
0
100
AcDbLine
 62
7
  6
CONTINUOUS
 10
-18.7066668129
 20
-30.2510638356
 11
-18.515
 21
-30.1042553425
  0
LINE
  5
3D3
100
AcDbEntity
  8
RACCORDO
100
AcDbLine
 62
7
  6
CONTINUOUS
 10
-13.2825244821
 20
8.0093363344
 11
-13.3199268119
 21
8.0
  0
LINE
  5
3D4
100
AcDbEntity
  8
DRAFT
100
AcDbLine
 62
7
  6
CONTINUOUS
 10
-13.1
 20
11.0
 11
-8.1
 21
11.0
  0
LINE
  5
3D5
100
AcDbEntity
  8
DRAFT
100
AcDbLine
 62
7
  6
CONTINUOUS
 10
24.3429995609
 20
-4.1398496125
 11
23.572721368
 21
-3.4979511184
  0
LINE
  5
3D6
100
AcDbEntity
  8
DRAFT
100
AcDbLine
 62
7
  6
CONTINUOUS
 10
24.0848688877
 20
-2.8833740947
 11
24.8551470806
 21
-3.5252725888
  0
LINE
  5
3D7
100
AcDbEntity
  8
0
100
AcDbLine
 62
7
  6
CONTINUOUS
 10
-3.30825
 20
30.8085106507
 11
-3.1510834832
 21
30.5148936301
  0
LINE
  5
3D8
100
AcDbEntity
  8
0
100
AcDbLine
 62
7
  6
CONTINUOUS
 10
-2.2080834832
 20
29.291489315
 11
-2.36525
 21
29.5851064384
  0
LINE
  5
3D9
100
AcDbEntity
  8
0
100
AcDbLine
 62
7
  6
CONTINUOUS
 10
-1.5794165168
 20
30.8085106507
 11
-1.42225
 21
30.5148936301
  0
LINE
  5
3DA
100
AcDbEntity
  8
0
100
AcDbLine
 62
7
  6
CONTINUOUS
 10
-0.5578334832
 20
29.3404254794
 11
-0.6364165168
 21
29.4872341096
  0
LINE
  5
3DB
100
AcDbEntity
  8
0
100
AcDbLine
 62
7
  6
CONTINUOUS
 10
0.5030417416
 20
29.6340426028
 11
0.4244582584
 21
29.8297872603
  0
LINE
  5
3DC
100
AcDbEntity
  8
0
100
AcDbLine
 62
7
  6
CONTINUOUS
 10
0.93525
 20
29.4382978082
 11
1.0138332584
 21
29.2425531507
  0
LINE
  5
3DD
100
AcDbEntity
  8
0
100
AcDbLine
 62
7
  6
CONTINUOUS
 10
2.6640833708
 20
29.4382978082
 11
2.7426666292
 21
29.2425531507
  0
LINE
  5
3DE
100
AcDbEntity
  8
0
100
AcDbLine
 62
7
  6
CONTINUOUS
 10
2.1925833708
 20
30.6617021233
 11
2.114
 21
30.8574468151
  0
LINE
  5
3DF
100
AcDbEntity
  8
0
100
AcDbLine
 62
7
  6
CONTINUOUS
 10
3.9607083322
 20
30.5148936301
 11
3.9214166643
 21
30.6617021233
  0
LINE
  5
3E0
100
AcDbEntity
  8
DRAFT
100
AcDbLine
 62
7
  6
CONTINUOUS
 10
14.9
 20
-36.4936376623
 11
14.9
 21
-30.0
  0
LINE
  5
3E1
100
AcDbEntity
  8
DRAFT
100
AcDbLine
 62
7
  6
CONTINUOUS
 10
14.9
 20
30.0
 11
14.9
 21
36.4936376623
  0
LINE
  5
3E2
100
AcDbEntity
  8
DRAFT
100
AcDbLine
 62
7
  6
CONTINUOUS
 10
16.9
 20
36.4936376623
 11
16.9
 21
33.2249030993
  0
LINE
  5
3E3
100
AcDbEntity
  8
DRAFT
100
AcDbLine
 62
7
  6
CONTINUOUS
 10
16.9
 20
-33.2249030993
 11
16.9
 21
-36.4936376623
  0
LINE
  5
3E4
100
AcDbEntity
  8
0
100
AcDbLine
 62
7
  6
CONTINUOUS
 10
-4.1726669664
 20
29.2425531507
 11
-4.0547919664
 21
29.0957446575
  0
LINE
  5
3E5
100
AcDbEntity
  8
0
100
AcDbLine
 62
7
  6
CONTINUOUS
 10
-2.4438334832
 20
29.2425531507
 11
-2.3259584832
 21
29.0957446575
  0
LINE
  5
3E6
100
AcDbEntity
  8
0
100
AcDbLine
 62
7
  6
CONTINUOUS
 10
-3.0725
 20
30.8574468151
 11
-3.190375
 21
31.0042553253
  0
LINE
  5
3E7
100
AcDbEntity
  8
0
100
AcDbLine
 62
7
  6
CONTINUOUS
 10
-0.5578334832
 20
30.2702127397
 11
-0.6757084832
 21
30.4659574658
  0
LINE
  5
3E8
100
AcDbEntity
  8
0
100
AcDbLine
 62
7
  6
CONTINUOUS
 10
0.228
 20
30.8085106507
 11
0.345875
 21
30.6127659589
  0
LINE
  5
3E9
100
AcDbEntity
  8
0
100
AcDbLine
 62
7
  6
CONTINUOUS
 10
0.228
 20
29.7319149315
 11
0.3065832584
 21
29.5851064384
  0
LINE
  5
3EA
100
AcDbEntity
  8
0
100
AcDbLine
 62
7
  6
CONTINUOUS
 10
1.2495832584
 20
29.291489315
 11
1.0924167416
 21
29.5851064384
  0
LINE
  5
3EB
100
AcDbEntity
  8
0
100
AcDbLine
 62
7
  6
CONTINUOUS
 10
1.87825
 20
30.8085106507
 11
2.0354167416
 21
30.5148936301
  0
LINE
  5
3EC
100
AcDbEntity
  8
0
100
AcDbLine
 62
7
  6
CONTINUOUS
 10
2.9784166292
 20
29.291489315
 11
2.82125
 21
29.5851064384
  0
LINE
  5
3ED
100
AcDbEntity
  8
0
100
AcDbLine
 62
7
  6
CONTINUOUS
 10
3.9214166643
 20
30.6617021233
 11
3.8428333286
 21
30.8574468151
  0
LINE
  5
3EE
100
AcDbEntity
  8
0
100
AcDbLine
 62
7
  6
CONTINUOUS
 10
18.236604
 20
31.999944
 11
18.2366042036
 21
32.0813961736
  0
LINE
  5
3EF
100
AcDbEntity
  8
DRAFT
100
AcDbLine
 62
7
  6
CONTINUOUS
 10
13.75
 20
-14.85
 11
13.7325462644
 21
-14.8849101299
  0
LINE
  5
3F0
100
AcDbEntity
  8
DRAFT
100
AcDbLine
 62
7
  6
CONTINUOUS
 10
11.1892709051
 20
-20.7714522078
 11
11.15
 21
-20.85
  0
LINE
  5
3F1
100
AcDbEntity
  8
DRAFT
100
AcDbLine
 62
7
  6
CONTINUOUS
 10
12.8
 20
-14.8849101299
 11
12.7214522078
 21
-14.963457922
  0
LINE
  5
3F2
100
AcDbEntity
  8
0
100
AcDbLine
 62
7
  6
CONTINUOUS
 10
-3.8190419664
 20
29.1936169863
 11
-3.9369169664
 21
29.291489315
  0
LINE
  5
3F3
100
AcDbEntity
  8
DRAFT
100
AcDbLine
 62
7
  6
CONTINUOUS
 10
8.2009219983
 20
16.341106398
 11
19.8207483681
 21
6.6579177565
  0
LINE
  5
3F4
100
AcDbEntity
  8
DRAFT
100
AcDbLine
 62
7
  6
CONTINUOUS
 10
20.4353253918
 20
6.1457702368
 11
23.0204750908
 21
3.9914788209
  0
LINE
  5
3F5
100
AcDbEntity
  8
DRAFT
100
AcDbLine
 62
7
  6
CONTINUOUS
 10
23.841106398
 20
4.6093276776
 11
21.0755097914
 21
6.9139915164
  0
LINE
  5
3F6
100
AcDbEntity
  8
DRAFT
100
AcDbLine
 62
7
  6
CONTINUOUS
 10
20.4609327678
 20
7.4261390361
 11
8.841106398
 21
17.1093276776
  0
LINE
  5
3F7
100
AcDbEntity
  8
0
100
AcDbLine
 62
7
  6
CONTINUOUS
 10
-0.7542915168
 20
29.2425531507
 11
-0.6364165168
 21
29.0957446575
  0
LINE
  5
3F8
100
AcDbEntity
  8
0
100
AcDbLine
 62
7
  6
CONTINUOUS
 10
-1.3436665168
 20
30.8574468151
 11
-1.4615415168
 21
31.0042553253
  0
LINE
  5
3F9
100
AcDbEntity
  8
0
100
AcDbLine
 62
7
  6
CONTINUOUS
 10
0.4244582584
 20
29.8297872603
 11
0.3065832584
 21
29.9765957534
  0
LINE
  5
3FA
100
AcDbEntity
  8
0
100
AcDbLine
 62
7
  6
CONTINUOUS
 10
1.0138332584
 20
29.2425531507
 11
1.1317082584
 21
29.0957446575
  0
LINE
  5
3FB
100
AcDbEntity
  8
0
100
AcDbLine
 62
7
  6
CONTINUOUS
 10
0.46375
 20
30.8574468151
 11
0.345875
 21
31.0042553253
  0
LINE
  5
3FC
100
AcDbEntity
  8
0
100
AcDbLine
 62
7
  6
CONTINUOUS
 10
2.7426666292
 20
29.2425531507
 11
2.8605416292
 21
29.0957446575
  0
LINE
  5
3FD
100
AcDbEntity
  8
0
100
AcDbLine
 62
7
  6
CONTINUOUS
 10
3.6070833427
 20
30.8085106507
 11
3.76425
 21
30.5148936301
  0
LINE
  5
3FE
100
AcDbEntity
  8
DRAFT
100
AcDbLine
 62
7
  6
CONTINUOUS
 10
11.4174537356
 20
20.5
 11
-11.4174537356
 21
20.5
  0
LINE
  5
3FF
100
AcDbEntity
  8
DRAFT
100
AcDbLine
 62
7
  6
CONTINUOUS
 10
-10.3351486121
 20
20.8
 11
10.3351486121
 21
20.8
  0
LINE
  5
400
100
AcDbEntity
  8
DRAFT
100
AcDbLine
 62
7
  6
CONTINUOUS
 10
-10.3362318521
 20
22.2187781165
 11
10.3362318521
 21
22.2187781165
  0
LINE
  5
401
100
AcDbEntity
  8
DRAFT
100
AcDbLine
 62
7
  6
CONTINUOUS
 10
-11.3607290949
 20
22.2432753594
 11
-10.3607290949
 21
22.2432753594
  0
LINE
  5
402
100
AcDbEntity
  8
DRAFT
100
AcDbLine
 62
7
  6
CONTINUOUS
 10
10.3607290949
 20
22.2432753594
 11
11.3607290949
 21
22.2432753594
  0
LINE
  5
403
100
AcDbEntity
  8
DRAFT
100
AcDbLine
 62
7
  6
CONTINUOUS
 10
-11.4174537356
 20
22.3
 11
11.4174537356
 21
22.3
  0
LINE
  5
404
100
AcDbEntity
  8
0
100
AcDbLine
 62
7
  6
CONTINUOUS
 10
-4.0547919664
 20
29.0957446575
 11
-3.8583330336
 21
28.9489361644
  0
LINE
  5
405
100
AcDbEntity
  8
0
100
AcDbLine
 62
7
  6
CONTINUOUS
 10
-2.3259584832
 20
29.0957446575
 11
-2.1295
 21
28.9489361644
  0
LINE
  5
406
100
AcDbEntity
  8
0
100
AcDbLine
 62
7
  6
CONTINUOUS
 10
-0.6364165168
 20
29.0957446575
 11
-0.4399584832
 21
28.9489361644
  0
LINE
  5
407
100
AcDbEntity
  8
0
100
AcDbLine
 62
7
  6
CONTINUOUS
 10
-3.190375
 20
31.0042553253
 11
-3.3868334832
 21
31.1510638313
  0
LINE
  5
408
100
AcDbEntity
  8
0
100
AcDbLine
 62
7
  6
CONTINUOUS
 10
-2.0902084832
 20
29.1936169863
 11
-2.2080834832
 21
29.291489315
  0
LINE
  5
409
100
AcDbEntity
  8
0
100
AcDbLine
 62
7
  6
CONTINUOUS
 10
-3.426125
 20
30.9063829795
 11
-3.30825
 21
30.8085106507
  0
LINE
  5
40A
100
AcDbEntity
  8
0
100
AcDbLine
 62
7
  6
CONTINUOUS
 10
-1.6972915168
 20
30.9063829795
 11
-1.5794165168
 21
30.8085106507
  0
LINE
  5
40B
100
AcDbEntity
  8
0
100
AcDbLine
 62
7
  6
CONTINUOUS
 10
1.3674582584
 20
29.1936169863
 11
1.2495832584
 21
29.291489315
  0
LINE
  5
40C
100
AcDbEntity
  8
0
100
AcDbLine
 62
7
  6
CONTINUOUS
 10
-0.4006665168
 20
29.1936169863
 11
-0.5578334832
 21
29.3404254794
  0
LINE
  5
40D
100
AcDbEntity
  8
0
100
AcDbLine
 62
7
  6
CONTINUOUS
 10
-0.7935834832
 20
30.2212765753
 11
-0.6364165168
 21
30.0744680822
  0
LINE
  5
40E
100
AcDbEntity
  8
0
100
AcDbLine
 62
7
  6
CONTINUOUS
 10
0.0708334832
 20
29.8787234247
 11
0.228
 21
29.7319149315
  0
LINE
  5
40F
100
AcDbEntity
  8
0
100
AcDbLine
 62
7
  6
CONTINUOUS
 10
2.114
 20
30.8574468151
 11
1.996125
 21
31.0042553253
  0
LINE
  5
410
100
AcDbEntity
  8
0
100
AcDbLine
 62
7
  6
CONTINUOUS
 10
3.8428333286
 20
30.8574468151
 11
3.7249583427
 21
31.0042553253
  0
LINE
  5
411
100
AcDbEntity
  8
DRAFT
100
AcDbLine
 62
7
  6
CONTINUOUS
 10
26.4849101299
 20
-36.4849101299
 11
26.4849101299
 21
-28.4
  0
LINE
  5
412
100
AcDbEntity
  8
DRAFT
100
AcDbLine
 62
7
  6
CONTINUOUS
 10
26.4936376623
 20
-36.4936376623
 11
26.4936376623
 21
-28.4
  0
LINE
  5
413
100
AcDbEntity
  8
DRAFT
100
AcDbLine
 62
7
  6
CONTINUOUS
 10
26.4936376623
 20
-26.4
 11
26.4936376623
 21
26.4
  0
LINE
  5
414
100
AcDbEntity
  8
DRAFT
100
AcDbLine
 62
7
  6
CONTINUOUS
 10
26.4936376623
 20
28.4
 11
26.4936376623
 21
36.4936376623
  0
LINE
  5
415
100
AcDbEntity
  8
0
100
AcDbLine
 62
7
  6
CONTINUOUS
 10
1.2289567078
 20
26.4034079765
 11
0.9506537822
 21
26.3810149825
  0
LINE
  5
416
100
AcDbEntity
  8
DRAFT
100
AcDbLine
 62
7
  6
CONTINUOUS
 10
-20.0
 20
24.9
 11
-26.4936376623
 21
24.9
  0
LINE
  5
417
100
AcDbEntity
  8
0
100
AcDbLine
 62
7
  6
CONTINUOUS
 10
-3.978832
 20
25.811613
 11
-3.7973950756
 21
25.811613
  0
LINE
  5
418
100
AcDbEntity
  8
0
100
AcDbLine
 62
7
  6
CONTINUOUS
 10
3.135494
 20
25.811613
 11
3.3169303764
 21
25.811613
  0
LINE
  5
419
100
AcDbEntity
  8
DRAFT
100
AcDbLine
 62
7
  6
CONTINUOUS
 10
26.4936376623
 20
26.4
 11
18.5
 21
26.4
  0
LINE
  5
41A
100
AcDbEntity
  8
DRAFT
100
AcDbLine
 62
7
  6
CONTINUOUS
 10
-26.4936376623
 20
26.9
 11
-23.2249030993
 21
26.9
  0
LINE
  5
41B
100
AcDbEntity
  8
0
100
AcDbLine
 62
7
  6
CONTINUOUS
 10
-1.1734076735
 20
26.4066059406
 11
-1.4549094996
 21
26.457788909
  0
LINE
  5
41C
100
AcDbEntity
  8
0
100
AcDbLine
 62
7
  6
CONTINUOUS
 10
-0.6364165168
 20
30.0744680822
 11
-0.5578334832
 21
30.0255319178
  0
LINE
  5
41D
100
AcDbEntity
  8
0
100
AcDbLine
 62
7
  6
CONTINUOUS
 10
-0.4006665168
 20
30.1723404109
 11
-0.5578334832
 21
30.2702127397
  0
LINE
  5
41E
100
AcDbEntity
  8
0
100
AcDbLine
 62
7
  6
CONTINUOUS
 10
0.3065832584
 20
29.9765957534
 11
0.228
 21
30.0255319178
  0
LINE
  5
41F
100
AcDbEntity
  8
0
100
AcDbLine
 62
7
  6
CONTINUOUS
 10
0.0708334832
 20
30.9063829795
 11
0.228
 21
30.8085106507
  0
LINE
  5
420
100
AcDbEntity
  8
0
100
AcDbLine
 62
7
  6
CONTINUOUS
 10
-1.4615415168
 20
31.0042553253
 11
-1.658
 21
31.1510638313
  0
LINE
  5
421
100
AcDbEntity
  8
0
100
AcDbLine
 62
7
  6
CONTINUOUS
 10
1.1317082584
 20
29.0957446575
 11
1.3281667416
 21
28.9489361644
  0
LINE
  5
422
100
AcDbEntity
  8
0
100
AcDbLine
 62
7
  6
CONTINUOUS
 10
2.8605416292
 20
29.0957446575
 11
3.057
 21
28.9489361644
  0
LINE
  5
423
100
AcDbEntity
  8
0
100
AcDbLine
 62
7
  6
CONTINUOUS
 10
0.345875
 20
31.0042553253
 11
0.1494165168
 21
31.1510638313
  0
LINE
  5
424
100
AcDbEntity
  8
0
100
AcDbLine
 62
7
  6
CONTINUOUS
 10
1.996125
 20
31.0042553253
 11
1.7996667416
 21
31.1510638313
  0
LINE
  5
425
100
AcDbEntity
  8
0
100
AcDbLine
 62
7
  6
CONTINUOUS
 10
3.7249583427
 20
31.0042553253
 11
3.5285
 21
31.1510638313
  0
LINE
  5
426
100
AcDbEntity
  8
0
100
AcDbLine
 62
7
  6
CONTINUOUS
 10
3.0962916854
 20
29.1936169863
 11
2.9784166292
 21
29.291489315
  0
LINE
  5
427
100
AcDbEntity
  8
0
100
AcDbLine
 62
7
  6
CONTINUOUS
 10
1.760375
 20
30.9063829795
 11
1.87825
 21
30.8085106507
  0
LINE
  5
428
100
AcDbEntity
  8
0
100
AcDbLine
 62
7
  6
CONTINUOUS
 10
3.4892083146
 20
30.9063829795
 11
3.6070833427
 21
30.8085106507
  0
LINE
  5
429
100
AcDbEntity
  8
RACCORDO
100
AcDbLine
 62
7
  6
CONTINUOUS
 10
28.45
 20
37.9503045865
 11
28.45
 21
-37.9503045865
  0
LINE
  5
42A
100
AcDbEntity
  8
RACCORDO
100
AcDbLine
 62
7
  6
CONTINUOUS
 10
28.5
 20
38.2501522932
 11
28.5
 21
-38.2501522932
  0
LINE
  5
42B
100
AcDbEntity
  8
RACCORDO
100
AcDbLine
 62
7
  6
CONTINUOUS
 10
30.0
 20
39.0013704652
 11
30.0
 21
-39.0013704652
  0
LINE
  5
42C
100
AcDbEntity
  8
0
100
AcDbLine
 62
7
  6
CONTINUOUS
 10
3.4892083146
 20
29.1936169863
 11
3.29275
 21
29.1446808219
  0
LINE
  5
42D
100
AcDbEntity
  8
0
100
AcDbLine
 62
7
  6
CONTINUOUS
 10
1.760375
 20
29.1936169863
 11
1.5639167416
 21
29.1446808219
  0
LINE
  5
42E
100
AcDbEntity
  8
0
100
AcDbLine
 62
7
  6
CONTINUOUS
 10
-0.0863334832
 20
28.9
 11
0.110125
 21
28.9489361644
  0
LINE
  5
42F
100
AcDbEntity
  8
0
100
AcDbLine
 62
7
  6
CONTINUOUS
 10
-1.6972915168
 20
29.1936169863
 11
-1.89375
 21
29.1446808219
  0
LINE
  5
430
100
AcDbEntity
  8
0
100
AcDbLine
 62
7
  6
CONTINUOUS
 10
-3.426125
 20
29.1936169863
 11
-3.6225830336
 21
29.1446808219
  0
LINE
  5
431
100
AcDbEntity
  8
0
100
AcDbLine
 62
7
  6
CONTINUOUS
 10
3.0962916854
 20
30.9063829795
 11
3.29275
 21
30.9553191438
  0
LINE
  5
432
100
AcDbEntity
  8
0
100
AcDbLine
 62
7
  6
CONTINUOUS
 10
1.3674582584
 20
30.9063829795
 11
1.5639167416
 21
30.9553191438
  0
LINE
  5
433
100
AcDbEntity
  8
0
100
AcDbLine
 62
7
  6
CONTINUOUS
 10
-0.2827915168
 20
31.2
 11
-0.47925
 21
31.1510638313
  0
LINE
  5
434
100
AcDbEntity
  8
0
100
AcDbLine
 62
7
  6
CONTINUOUS
 10
3.29275
 20
28.9
 11
3.5285
 21
28.9489361644
  0
LINE
  5
435
100
AcDbEntity
  8
0
100
AcDbLine
 62
7
  6
CONTINUOUS
 10
1.5639167416
 20
28.9
 11
1.7996667416
 21
28.9489361644
  0
LINE
  5
436
100
AcDbEntity
  8
0
100
AcDbLine
 62
7
  6
CONTINUOUS
 10
-1.89375
 20
28.9
 11
-1.658
 21
28.9489361644
  0
LINE
  5
437
100
AcDbEntity
  8
0
100
AcDbLine
 62
7
  6
CONTINUOUS
 10
-3.6225830336
 20
28.9
 11
-3.3868334832
 21
28.9489361644
  0
LINE
  5
438
100
AcDbEntity
  8
0
100
AcDbLine
 62
7
  6
CONTINUOUS
 10
3.29275
 20
31.2
 11
3.057
 21
31.1510638313
  0
LINE
  5
439
100
AcDbEntity
  8
0
100
AcDbLine
 62
7
  6
CONTINUOUS
 10
1.5639167416
 20
31.2
 11
1.3281667416
 21
31.1510638313
  0
LINE
  5
43A
100
AcDbEntity
  8
0
100
AcDbLine
 62
7
  6
CONTINUOUS
 10
-1.4261195925
 20
27.4654380556
 11
-1.1446176052
 21
27.5038250538
  0
LINE
  5
43B
100
AcDbEntity
  8
DRAFT
100
AcDbLine
 62
7
  6
CONTINUOUS
 10
18.5
 20
27.9
 11
21.5
 21
27.9
  0
LINE
  5
43C
100
AcDbEntity
  8
0
100
AcDbLine
 62
7
  6
CONTINUOUS
 10
3.416996
 20
28.111613
 11
3.135494
 21
28.111613
  0
LINE
  5
43D
100
AcDbEntity
  8
0
100
AcDbLine
 62
7
  6
CONTINUOUS
 10
-3.69733
 20
28.111613
 11
-3.978832
 21
28.111613
  0
LINE
  5
43E
100
AcDbEntity
  8
DRAFT
100
AcDbLine
 62
7
  6
CONTINUOUS
 10
24.7249030993
 20
28.4
 11
26.4936376623
 21
28.4
  0
LINE
  5
43F
100
AcDbEntity
  8
0
100
AcDbLine
 62
7
  6
CONTINUOUS
 10
-0.2435
 20
28.9
 11
-0.0863334832
 21
28.9
  0
LINE
  5
440
100
AcDbEntity
  8
0
100
AcDbLine
 62
7
  6
CONTINUOUS
 10
-0.0863334832
 20
29.1446808219
 11
-0.2435
 21
29.1446808219
  0
LINE
  5
441
100
AcDbEntity
  8
0
100
AcDbLine
 62
7
  6
CONTINUOUS
 10
-0.2435
 20
29.9276595891
 11
-0.0863334832
 21
29.9276595891
  0
LINE
  5
442
100
AcDbEntity
  8
0
100
AcDbLine
 62
7
  6
CONTINUOUS
 10
-0.0863334832
 20
30.1234042466
 11
-0.2435
 21
30.1234042466
  0
LINE
  5
443
100
AcDbEntity
  8
0
100
AcDbLine
 62
7
  6
CONTINUOUS
 10
-3.8583330336
 20
28.9489361644
 11
-3.6225830336
 21
28.9
  0
LINE
  5
444
100
AcDbEntity
  8
0
100
AcDbLine
 62
7
  6
CONTINUOUS
 10
-2.1295
 20
28.9489361644
 11
-1.89375
 21
28.9
  0
LINE
  5
445
100
AcDbEntity
  8
0
100
AcDbLine
 62
7
  6
CONTINUOUS
 10
1.3281667416
 20
28.9489361644
 11
1.5639167416
 21
28.9
  0
LINE
  5
446
100
AcDbEntity
  8
0
100
AcDbLine
 62
7
  6
CONTINUOUS
 10
3.057
 20
28.9489361644
 11
3.29275
 21
28.9
  0
LINE
  5
447
100
AcDbEntity
  8
0
100
AcDbLine
 62
7
  6
CONTINUOUS
 10
-3.3868334832
 20
31.1510638313
 11
-3.6225830336
 21
31.2
  0
LINE
  5
448
100
AcDbEntity
  8
0
100
AcDbLine
 62
7
  6
CONTINUOUS
 10
-1.658
 20
31.1510638313
 11
-1.89375
 21
31.2
  0
LINE
  5
449
100
AcDbEntity
  8
0
100
AcDbLine
 62
7
  6
CONTINUOUS
 10
-3.6225830336
 20
29.1446808219
 11
-3.8190419664
 21
29.1936169863
  0
LINE
  5
44A
100
AcDbEntity
  8
0
100
AcDbLine
 62
7
  6
CONTINUOUS
 10
-1.89375
 20
29.1446808219
 11
-2.0902084832
 21
29.1936169863
  0
LINE
  5
44B
100
AcDbEntity
  8
0
100
AcDbLine
 62
7
  6
CONTINUOUS
 10
-0.4399584832
 20
28.9489361644
 11
-0.2435
 21
28.9
  0
LINE
  5
44C
100
AcDbEntity
  8
0
100
AcDbLine
 62
7
  6
CONTINUOUS
 10
1.5639167416
 20
29.1446808219
 11
1.3674582584
 21
29.1936169863
  0
LINE
  5
44D
100
AcDbEntity
  8
0
100
AcDbLine
 62
7
  6
CONTINUOUS
 10
3.29275
 20
29.1446808219
 11
3.0962916854
 21
29.1936169863
  0
LINE
  5
44E
100
AcDbEntity
  8
0
100
AcDbLine
 62
7
  6
CONTINUOUS
 10
-3.6225830336
 20
30.9553191438
 11
-3.426125
 21
30.9063829795
  0
LINE
  5
44F
100
AcDbEntity
  8
0
100
AcDbLine
 62
7
  6
CONTINUOUS
 10
-1.89375
 20
30.9553191438
 11
-1.6972915168
 21
30.9063829795
  0
LINE
  5
450
100
AcDbEntity
  8
0
100
AcDbLine
 62
7
  6
CONTINUOUS
 10
0.1494165168
 20
31.1510638313
 11
-0.0470415168
 21
31.2
  0
LINE
  5
451
100
AcDbEntity
  8
0
100
AcDbLine
 62
7
  6
CONTINUOUS
 10
1.5639167416
 20
30.9553191438
 11
1.760375
 21
30.9063829795
  0
LINE
  5
452
100
AcDbEntity
  8
0
100
AcDbLine
 62
7
  6
CONTINUOUS
 10
-0.2435
 20
29.1446808219
 11
-0.4006665168
 21
29.1936169863
  0
LINE
  5
453
100
AcDbEntity
  8
0
100
AcDbLine
 62
7
  6
CONTINUOUS
 10
-0.0863334832
 20
29.9276595891
 11
0.0708334832
 21
29.8787234247
  0
LINE
  5
454
100
AcDbEntity
  8
0
100
AcDbLine
 62
7
  6
CONTINUOUS
 10
-0.2435
 20
30.1234042466
 11
-0.4006665168
 21
30.1723404109
  0
LINE
  5
455
100
AcDbEntity
  8
0
100
AcDbLine
 62
7
  6
CONTINUOUS
 10
-0.0863334832
 20
30.9553191438
 11
0.0708334832
 21
30.9063829795
  0
LINE
  5
456
100
AcDbEntity
  8
0
100
AcDbLine
 62
7
  6
CONTINUOUS
 10
20.408018
 20
31.999944
 11
20.3758935993
 21
32.1
  0
LINE
  5
457
100
AcDbEntity
  8
0
100
AcDbLine
 62
7
  6
CONTINUOUS
 10
20.968046
 20
31.999944
 11
20.9359215454
 21
32.1
  0
LINE
  5
458
100
AcDbEntity
  8
0
100
AcDbLine
 62
7
  6
CONTINUOUS
 10
-2.0902084832
 20
30.9063829795
 11
-1.89375
 21
30.9553191438
  0
LINE
  5
459
100
AcDbEntity
  8
0
100
AcDbLine
 62
7
  6
CONTINUOUS
 10
-3.8190419664
 20
30.9063829795
 11
-3.6225830336
 21
30.9553191438
  0
LINE
  5
45A
100
AcDbEntity
  8
0
100
AcDbLine
 62
7
  6
CONTINUOUS
 10
-1.89375
 20
31.2
 11
-2.1295
 21
31.1510638313
  0
LINE
  5
45B
100
AcDbEntity
  8
0
100
AcDbLine
 62
7
  6
CONTINUOUS
 10
-3.6225830336
 20
31.2
 11
-3.8583330336
 21
31.1510638313
  0
LINE
  5
45C
100
AcDbEntity
  8
0
100
AcDbLine
 62
7
  6
CONTINUOUS
 10
-0.2435
 20
30.9553191438
 11
-0.0863334832
 21
30.9553191438
  0
LINE
  5
45D
100
AcDbEntity
  8
0
100
AcDbLine
 62
7
  6
CONTINUOUS
 10
-0.0470415168
 20
31.2
 11
-0.2827915168
 21
31.2
  0
LINE
  5
45E
100
AcDbEntity
  8
0
100
AcDbLine
 62
7
  6
CONTINUOUS
 10
17.8667987031
 20
31.999944
 11
18.236604
 21
31.999944
  0
LINE
  5
45F
100
AcDbEntity
  8
0
100
AcDbLine
 62
7
  6
CONTINUOUS
 10
18.609949
 20
31.999944
 11
19.169977
 21
31.999944
  0
LINE
  5
460
100
AcDbEntity
  8
0
100
AcDbLine
 62
7
  6
CONTINUOUS
 10
20.408018
 20
31.999944
 11
20.968046
 21
31.999944
  0
LINE
  5
461
100
AcDbEntity
  8
0
100
AcDbLine
 62
7
  6
CONTINUOUS
 10
7.0
 20
32.0
 11
-7.0
 21
32.0
  0
LINE
  5
462
100
AcDbEntity
  8
DRAFT
100
AcDbLine
 62
7
  6
CONTINUOUS
 10
21.5
 20
32.1
 11
18.5
 21
32.1
  0
LINE
  5
463
100
AcDbEntity
  8
0
100
AcDbLine
 62
7
  6
CONTINUOUS
 10
18.5
 20
33.6
 11
21.5
 21
33.6
  0
LINE
  5
464
100
AcDbEntity
  8
0
100
AcDbLine
 62
7
  6
CONTINUOUS
 10
1.7996667416
 20
31.1510638313
 11
1.5639167416
 21
31.2
  0
LINE
  5
465
100
AcDbEntity
  8
0
100
AcDbLine
 62
7
  6
CONTINUOUS
 10
3.5285
 20
31.1510638313
 11
3.29275
 21
31.2
  0
LINE
  5
466
100
AcDbEntity
  8
0
100
AcDbLine
 62
7
  6
CONTINUOUS
 10
3.29275
 20
30.9553191438
 11
3.4892083146
 21
30.9063829795
  0
LINE
  5
467
100
AcDbEntity
  8
DRAFT
100
AcDbLine
 62
7
  6
CONTINUOUS
 10
-5.0
 20
35.5
 11
5.0
 21
35.5
  0
LINE
  5
468
100
AcDbEntity
  8
DRAFT
100
AcDbLine
 62
7
  6
CONTINUOUS
 10
26.4849101299
 20
36.4849101299
 11
16.9
 21
36.4849101299
  0
LINE
  5
469
100
AcDbEntity
  8
DRAFT
100
AcDbLine
 62
7
  6
CONTINUOUS
 10
26.4936376623
 20
36.4936376623
 11
16.9
 21
36.4936376623
  0
LINE
  5
46A
100
AcDbEntity
  8
DRAFT
100
AcDbLine
 62
7
  6
CONTINUOUS
 10
14.9
 20
36.4936376623
 11
7.0
 21
36.4936376623
  0
LINE
  5
46B
100
AcDbEntity
  8
DRAFT
100
AcDbLine
 62
7
  6
CONTINUOUS
 10
-7.0
 20
36.4936376623
 11
-16.4
 21
36.4936376623
  0
LINE
  5
46C
100
AcDbEntity
  8
DRAFT
100
AcDbLine
 62
7
  6
CONTINUOUS
 10
-18.4
 20
36.4936376623
 11
-26.4936376623
 21
36.4936376623
  0
LINE
  5
46D
100
AcDbEntity
  8
RACCORDO
100
AcDbLine
 62
253
  6
CONTINUOUS
 10
5.0
 20
37.6902396451
 11
-5.0
 21
37.6902396451
  0
LINE
  5
46E
100
AcDbEntity
  8
DRAFT
100
AcDbLine
 62
7
  6
CONTINUOUS
 10
10.75
 20
37.95
 11
5.0
 21
37.95
  0
LINE
  5
46F
100
AcDbEntity
  8
DRAFT
100
AcDbLine
 62
7
  6
CONTINUOUS
 10
-5.0
 20
37.95
 11
-10.75
 21
37.95
  0
LINE
  5
470
100
AcDbEntity
  8
DRAFT
100
AcDbLine
 62
7
  6
CONTINUOUS
 10
10.3167218183
 20
38.0543676855
 11
-10.3167218183
 21
38.0543676855
  0
LINE
  5
471
100
AcDbEntity
  8
DRAFT
100
AcDbLine
 62
253
  6
CONTINUOUS
 10
10.75
 20
38.1426449211
 11
10.3213768999
 21
38.1426449211
  0
LINE
  5
472
100
AcDbEntity
  8
DRAFT
100
AcDbLine
 62
253
  6
CONTINUOUS
 10
-10.3213768999
 20
38.1426449211
 11
-10.75
 21
38.1426449211
  0
LINE
  5
473
100
AcDbEntity
  8
DRAFT
100
AcDbLine
 62
7
  6
CONTINUOUS
 10
-10.3167218183
 20
38.4497183175
 11
10.3167218183
 21
38.4497183175
  0
LINE
  5
474
100
AcDbEntity
  8
RACCORDO
100
AcDbLine
 62
7
  6
CONTINUOUS
 10
-27.9503045865
 20
38.45
 11
-10.75
 21
38.45
  0
LINE
  5
475
100
AcDbEntity
  8
RACCORDO
100
AcDbLine
 62
7
  6
CONTINUOUS
 10
10.75
 20
38.45
 11
27.9503045865
 21
38.45
  0
LINE
  5
476
100
AcDbEntity
  8
DRAFT
100
AcDbLine
 62
7
  6
CONTINUOUS
 10
-28.2501522932
 20
38.5
 11
-10.5
 21
38.5
  0
LINE
  5
477
100
AcDbEntity
  8
DRAFT
100
AcDbLine
 62
7
  6
CONTINUOUS
 10
10.5
 20
38.5
 11
28.2501522932
 21
38.5
  0
LINE
  5
478
100
AcDbEntity
  8
DRAFT
100
AcDbLine
 62
7
  6
CONTINUOUS
 10
-10.5
 20
39.0
 11
-4.25
 21
39.0
  0
LINE
  5
479
100
AcDbEntity
  8
DRAFT
100
AcDbLine
 62
7
  6
CONTINUOUS
 10
4.25
 20
39.0
 11
10.5
 21
39.0
  0
LINE
  5
47A
100
AcDbEntity
  8
DRAFT
100
AcDbLine
 62
7
  6
CONTINUOUS
 10
-4.25
 20
39.4
 11
4.25
 21
39.4
  0
LINE
  5
47B
100
AcDbEntity
  8
RACCORDO
100
AcDbLine
 62
7
  6
CONTINUOUS
 10
-29.0013704652
 20
40.0
 11
29.0013704652
 21
40.0
  0
ARC
  5
47C
100
AcDbEntity
  8
0
100
AcDbCircle
 62
7
  6
CONTINUOUS
 10
-20.0
 20
-28.5
 40
3.6
100
AcDbArc
 50
0.0
 51
90.0
  0
ARC
  5
47D
100
AcDbEntity
  8
0
100
AcDbCircle
 62
7
  6
CONTINUOUS
 10
-20.0
 20
-28.5
 40
3.6
100
AcDbArc
 50
153.6122000388
 51
180.0
  0
ARC
  5
47E
100
AcDbEntity
  8
0
100
AcDbCircle
 62
7
  6
CONTINUOUS
 10
-20.0
 20
-31.5
 40
3.6
100
AcDbArc
 50
180.0
 51
296.3877999612
  0
CIRCLE
  5
47F
100
AcDbEntity
  8
ASSI
100
AcDbCircle
 62
7
  6
CONTINUOUS
 10
-0.0
 20
-13.5
 40
3.15
  0
ARC
  5
480
100
AcDbEntity
  8
DRAFT
100
AcDbCircle
 62
7
  6
CONTINUOUS
 10
-20.0
 20
-31.5
 40
2.1
100
AcDbArc
 50
180.0
 51
360.0
  0
ARC
  5
481
100
AcDbEntity
  8
DRAFT
100
AcDbCircle
 62
7
  6
CONTINUOUS
 10
-20.0
 20
-28.5
 40
2.1
100
AcDbArc
 50
0.0
 51
180.0
  0
CIRCLE
  5
482
100
AcDbEntity
  8
DRAFT
100
AcDbCircle
 62
7
  6
CONTINUOUS
 10
-0.0
 20
-13.5
 40
1.1845484916
  0
ARC
  5
483
100
AcDbEntity
  8
ASSI
100
AcDbCircle
 62
7
  6
CONTINUOUS
 10
-6.658113
 20
-26.715347
 40
1.1347395105
100
AcDbArc
 50
112.8428573511
 51
269.999026683
  0
ARC
  5
484
100
AcDbEntity
  8
ASSI
100
AcDbCircle
 62
7
  6
CONTINUOUS
 10
-6.555398
 20
-26.715347
 40
0.450208
100
AcDbArc
 50
90.001672766
 51
270.0005575837
  0
ARC
  5
485
100
AcDbEntity
  8
DRAFT
100
AcDbCircle
 62
7
  6
CONTINUOUS
 10
-13.1
 20
1.0
 40
10.0
100
AcDbArc
 50
90.0
 51
270.0
  0
ARC
  5
486
100
AcDbEntity
  8
DRAFT
100
AcDbCircle
 62
7
  6
CONTINUOUS
 10
-8.1
 20
1.0
 40
10.0
100
AcDbArc
 50
270.0
 51
90.0
  0
ARC
  5
487
100
AcDbEntity
  8
0
100
AcDbCircle
 62
7
  6
CONTINUOUS
 10
-20.0
 20
28.5
 40
3.6
100
AcDbArc
 50
270.0
 51
360.0
  0
ARC
  5
488
100
AcDbEntity
  8
0
100
AcDbCircle
 62
7
  6
CONTINUOUS
 10
-20.0
 20
31.5
 40
3.6
100
AcDbArc
 50
63.6122000388
 51
180.0
  0
ARC
  5
489
100
AcDbEntity
  8
0
100
AcDbCircle
 62
7
  6
CONTINUOUS
 10
-20.0
 20
28.5
 40
3.6
100
AcDbArc
 50
180.0
 51
206.3877999612
  0
ARC
  5
48A
100
AcDbEntity
  8
DRAFT
100
AcDbCircle
 62
7
  6
CONTINUOUS
 10
-20.0
 20
31.5
 40
2.1
100
AcDbArc
 50
0.0
 51
180.0
  0
ARC
  5
48B
100
AcDbEntity
  8
DRAFT
100
AcDbCircle
 62
7
  6
CONTINUOUS
 10
-20.0
 20
28.5
 40
2.1
100
AcDbArc
 50
180.0
 51
360.0
  0
ARC
  5
48C
100
AcDbEntity
  8
0
100
AcDbCircle
 62
7
  6
CONTINUOUS
 10
18.5
 20
-30.0
 40
3.6
100
AcDbArc
 50
90.0
 51
180.0
  0
ARC
  5
48D
100
AcDbEntity
  8
0
100
AcDbCircle
 62
7
  6
CONTINUOUS
 10
18.5
 20
-30.0
 40
3.6
100
AcDbArc
 50
243.6122000388
 51
270.0
  0
ARC
  5
48E
100
AcDbEntity
  8
0
100
AcDbCircle
 62
7
  6
CONTINUOUS
 10
21.5
 20
-30.0
 40
3.6
100
AcDbArc
 50
270.0
 51
26.3877999612
  0
ARC
  5
48F
100
AcDbEntity
  8
DRAFT
100
AcDbCircle
 62
7
  6
CONTINUOUS
 10
18.5
 20
-30.0
 40
2.1
100
AcDbArc
 50
90.0
 51
270.0
  0
ARC
  5
490
100
AcDbEntity
  8
DRAFT
100
AcDbCircle
 62
7
  6
CONTINUOUS
 10
21.5
 20
-30.0
 40
2.1
100
AcDbArc
 50
270.0
 51
90.0
  0
ARC
  5
491
100
AcDbEntity
  8
DRAFT
100
AcDbCircle
 62
7
  6
CONTINUOUS
 10
20.0
 20
0.0
 40
6.0
100
AcDbArc
 50
230.1944289077
 51
316.3718751785
  0
ARC
  5
492
100
AcDbEntity
  8
DRAFT
100
AcDbCircle
 62
7
  6
CONTINUOUS
 10
20.0
 20
0.0
 40
6.0
100
AcDbArc
 50
324.016982637
 51
50.1944289077
  0
ARC
  5
493
100
AcDbEntity
  8
DRAFT
100
AcDbCircle
 62
7
  6
CONTINUOUS
 10
5.0
 20
12.5
 40
6.0
100
AcDbArc
 50
50.1944289077
 51
230.1944289077
  0
CIRCLE
  5
494
100
AcDbEntity
  8
DRAFT
100
AcDbCircle
 62
7
  6
CONTINUOUS
 10
20.0
 20
0.0
 40
5.0087275325
  0
ARC
  5
495
100
AcDbEntity
  8
DRAFT
100
AcDbCircle
 62
7
  6
CONTINUOUS
 10
5.0
 20
12.5
 40
5.0
100
AcDbArc
 50
50.1944289077
 51
230.1944289077
  0
ARC
  5
496
100
AcDbEntity
  8
0
100
AcDbCircle
 62
7
  6
CONTINUOUS
 10
18.5
 20
30.0
 40
3.6
100
AcDbArc
 50
180.0
 51
270.0
  0
ARC
  5
497
100
AcDbEntity
  8
0
100
AcDbCircle
 62
7
  6
CONTINUOUS
 10
21.5
 20
30.0
 40
3.6
100
AcDbArc
 50
333.6122000388
 51
90.0
  0
ARC
  5
498
100
AcDbEntity
  8
0
100
AcDbCircle
 62
7
  6
CONTINUOUS
 10
18.5
 20
30.0
 40
3.6
100
AcDbArc
 50
90.0
 51
116.3877999612
  0
CIRCLE
  5
499
100
AcDbEntity
  8
DRAFT
100
AcDbCircle
 62
7
  6
CONTINUOUS
 10
5.0
 20
12.5
 40
3.4781828305
  0
CIRCLE
  5
49A
100
AcDbEntity
  8
DRAFT
100
AcDbCircle
 62
7
  6
CONTINUOUS
 10
20.0
 20
0.0
 40
2.2412724675
  0
ARC
  5
49B
100
AcDbEntity
  8
DRAFT
100
AcDbCircle
 62
7
  6
CONTINUOUS
 10
18.5
 20
30.0
 40
2.1
100
AcDbArc
 50
90.0
 51
270.0
  0
ARC
  5
49C
100
AcDbEntity
  8
DRAFT
100
AcDbCircle
 62
7
  6
CONTINUOUS
 10
21.5
 20
30.0
 40
2.1
100
AcDbArc
 50
270.0
 51
90.0
  0
CIRCLE
  5
49D
100
AcDbEntity
  8
DRAFT
100
AcDbCircle
 62
7
  6
CONTINUOUS
 10
5.0
 20
12.5
 40
2.0
  0
CIRCLE
  5
49E
100
AcDbEntity
  8
DRAFT
100
AcDbCircle
 62
7
  6
CONTINUOUS
 10
5.0
 20
12.5
 40
1.8952696104
  0
SPLINE
  5
49F
100
AcDbEntity
  8
0
100
AcDbSpline
 62
7
  6
CONTINUOUS
 70
0
 71
3
 72
11
 73
7
 74
5
 42
0.0000001
 43
0.0000001
 44
0.0000000001
 12
-0.5254179817
 22
-0.1937326602
 32
0.0
 13
-0.4066588329
 23
-0.3874657856
 33
0.0
 40
0.0
 40
0.0
 40
0.0
 40
0.0
 40
0.250000451
 40
0.5000000169
 40
0.7499995827
 40
1.0
 40
1.0
 40
1.0
 40
1.0
 10
-3.1343249869
 20
26.658468952
 30
0.0
 10
-3.1781098977
 20
26.6423245345
 30
0.0
 10
-3.2701315985
 20
26.6025401154
 30
0.0
 10
-3.431909452
 20
26.5151873452
 30
0.0
 10
-3.586264868
 20
26.4157262871
 30
0.0
 10
-3.6634416781
 20
26.3517252449
 30
0.0
 10
-3.6973299707
 20
26.3194363756
 30
0.0
 11
-3.1343249869
 21
26.658468952
 31
0.0
 11
-3.2740893417
 21
26.5979273298
 31
0.0
 11
-3.4306723817
 21
26.5131692988
 31
0.0
 11
-3.5798329999
 21
26.41630299
 31
0.0
 11
-3.6973299707
 21
26.3194363756
 31
0.0
  0
SPLINE
  5
4A0
100
AcDbEntity
  8
0
100
AcDbSpline
 62
7
  6
CONTINUOUS
 70
0
 71
3
 72
11
 73
7
 74
5
 42
0.0000001
 43
0.0000001
 44
0.0000000001
 12
0.2940975266
 22
0.5937939975
 32
0.0
 13
0.9444729759
 23
0.4438460874
 33
0.0
 40
0.0
 40
0.0
 40
0.0
 40
0.0
 40
0.2500003532
 40
0.5000000679
 40
0.7499997827
 40
1.0
 40
1.0
 40
1.0
 40
1.0
 10
-3.7973950207
 20
25.8116129728
 30
0.0
 10
-3.7728868588
 20
25.8610958758
 30
0.0
 10
-3.7071936016
 20
25.960950534
 30
0.0
 10
-3.5539316142
 20
26.1194187491
 30
0.0
 10
-3.3600212556
 20
26.2685152047
 30
0.0
 10
-3.2130311271
 20
26.3496263566
 30
0.0
 10
-3.1343249773
 20
26.3866135627
 30
0.0
 11
-3.7973950207
 21
25.8116129728
 31
0.0
 11
-3.6980731333
 21
25.9623983811
 31
0.0
 11
-3.5471568856
 21
26.117856795
 31
0.0
 11
-3.3555922663
 21
26.2639434844
 31
0.0
 11
-3.1343249773
 21
26.3866135627
 31
0.0
  0
SPLINE
  5
4A1
100
AcDbEntity
  8
0
100
AcDbSpline
 62
7
  6
CONTINUOUS
 70
0
 71
3
 72
14
 73
10
 74
8
 42
0.0000001
 43
0.0000001
 44
0.0000000001
 12
-1.9856738075
 22
-0.9111856773
 32
0.0
 13
1.6785953382
 23
1.019150306
 33
0.0
 40
0.0
 40
0.0
 40
0.0
 40
0.0
 40
0.1573225795
 40
0.3146451589
 40
0.4802534351
 40
0.6458617113
 40
0.8114699875
 40
0.9315591789
 40
1.0
 40
1.0
 40
1.0
 40
1.0
 10
-2.2173944021
 20
26.8680958438
 30
0.0
 10
-2.3215248439
 20
26.8203124835
 30
0.0
 10
-2.4795177757
 20
26.6889771082
 30
0.0
 10
-2.5603695235
 20
26.4024972844
 30
0.0
 10
-2.4766317506
 20
26.0974785517
 30
0.0
 10
-2.227715626
 20
25.8671209603
 30
0.0
 10
-1.8935919836
 20
25.7927057107
 30
0.0
 10
-1.6412774589
 20
25.831752147
 30
0.0
 10
-1.5277816591
 20
25.884864044
 30
0.0
 10
-1.4894868447
 20
25.9081145386
 30
0.0
 11
-2.2173944021
 21
26.8680958438
 31
0.0
 11
-2.4532623481
 21
26.6748880759
 31
0.0
 11
-2.5329346314
 21
26.40530683
 31
0.0
 11
-2.4493387262
 21
26.1107842692
 31
0.0
 11
-2.2078977068
 21
25.8918604196
 31
0.0
 11
-1.8625678239
 21
25.8116133519
 31
0.0
 11
-1.6129296526
 21
25.8505623008
 31
0.0
 11
-1.4894868447
 21
25.9081145386
 31
0.0
  0
SPLINE
  5
4A2
100
AcDbEntity
  8
0
100
AcDbSpline
 62
7
  6
CONTINUOUS
 70
0
 71
3
 72
15
 73
11
 74
9
 42
0.0000001
 43
0.0000001
 44
0.0000000001
 12
-0.2770472306
 22
-1.8410829245
 32
0.0
 13
0.3238300314
 23
1.1552143232
 33
0.0
 40
0.0
 40
0.0
 40
0.0
 40
0.0
 40
0.2258756686
 40
0.3388134156
 40
0.4517511627
 40
0.5657540187
 40
0.6797568747
 40
0.7937597306
 40
0.9077625866
 40
1.0
 40
1.0
 40
1.0
 40
1.0
 10
-1.4549095483
 20
26.4577889164
 30
0.0
 10
-1.4757689578
 20
26.3191703042
 30
0.0
 10
-1.5490910931
 20
26.1632811519
 30
0.0
 10
-1.7133903373
 20
26.0591660037
 30
0.0
 10
-1.8702710563
 20
26.0335485724
 30
0.0
 10
-2.0260418791
 20
26.0582268966
 30
0.0
 10
-2.1466887215
 20
26.1371924962
 30
0.0
 10
-2.2283807176
 20
26.2524910268
 30
0.0
 10
-2.2511890682
 20
26.3903944835
 30
0.0
 10
-2.2406629333
 20
26.4763975779
 30
0.0
 10
-2.2307065185
 20
26.5119155716
 30
0.0
 11
-1.4549095483
 21
26.4577889164
 31
0.0
 11
-1.5957106476
 21
26.1458970793
 31
0.0
 11
-1.7189177876
 21
26.0679242003
 31
0.0
 11
-1.8695154157
 21
26.0419332406
 31
0.0
 11
-2.0201067776
 21
26.0672619266
 31
0.0
 11
-2.1401962472
 21
26.1432479847
 31
0.0
 11
-2.2188251397
 21
26.2578206244
 31
0.0
 11
-2.2450347705
 21
26.3989090553
 31
0.0
 11
-2.2307065185
 21
26.5119155716
 31
0.0
  0
SPLINE
  5
4A3
100
AcDbEntity
  8
0
100
AcDbSpline
 62
7
  6
CONTINUOUS
 70
0
 71
3
 72
8
 73
4
 74
2
 42
0.0000001
 43
0.0000001
 44
0.0000000001
 12
0.0344877915
 22
0.0
 32
0.0
 13
0.056379802
 23
-0.006197751
 33
0.0
 40
0.0
 40
0.0
 40
0.0
 40
0.0
 40
1.0
 40
1.0
 40
1.0
 40
1.0
 10
-1.7765477492
 20
26.7807762502
 30
0.0
 10
-1.7650518187
 20
26.7807762502
 30
0.0
 10
-1.7499072198
 20
26.7797432917
 30
0.0
 10
-1.7311139525
 20
26.7776773747
 30
0.0
 11
-1.7765477492
 21
26.7807762502
 31
0.0
 11
-1.7311139525
 21
26.7776773747
 31
0.0
  0
SPLINE
  5
4A4
100
AcDbEntity
  8
0
100
AcDbSpline
 62
7
  6
CONTINUOUS
 70
0
 71
3
 72
16
 73
12
 74
10
 42
0.0000001
 43
0.0000001
 44
0.0000000001
 12
-2.4747834782
 22
-0.6501652775
 32
0.0
 13
1.5048721098
 23
0.2741086086
 33
0.0
 40
0.0
 40
0.0
 40
0.0
 40
0.0
 40
0.0960964218
 40
0.213868545
 40
0.3316406682
 40
0.4494127914
 40
0.5671849147
 40
0.6906361239
 40
0.814087333
 40
0.9375385422
 40
1.0
 40
1.0
 40
1.0
 40
1.0
 10
-1.69982405
 20
27.0239917566
 30
0.0
 10
-1.7790966623
 20
27.003165571
 30
0.0
 10
-1.9206224622
 20
26.9824045188
 30
0.0
 10
-2.0803779074
 20
27.0135290977
 30
0.0
 10
-2.2292547293
 20
27.1107376485
 30
0.0
 10
-2.3269126626
 20
27.2548727531
 30
0.0
 10
-2.3579593767
 20
27.440944319
 30
0.0
 10
-2.3256371932
 20
27.631207416
 30
0.0
 10
-2.2193045077
 20
27.787009666
 30
0.0
 10
-2.0905978113
 20
27.8766551159
 30
0.0
 10
-1.9996735097
 20
27.9027793801
 30
0.0
 10
-1.9683413411
 20
27.9084864545
 30
0.0
 11
-1.69982405
 21
27.0239917566
 31
0.0
 11
-1.8985053353
 21
26.9927524835
 31
0.0
 11
-2.0768245609
 21
27.0242040478
 31
0.0
 11
-2.2207182479
 21
27.1185587408
 31
0.0
 11
-2.3157289361
 21
27.2613715738
 31
0.0
 11
-2.3473991655
 21
27.4381975583
 31
0.0
 11
-2.3133860019
 21
27.6249701128
 31
0.0
 11
-2.2113465111
 21
27.7789290682
 31
0.0
 11
-2.0592369285
 21
27.882093185
 31
0.0
 11
-1.9683413411
 21
27.9084864545
 31
0.0
  0
SPLINE
  5
4A5
100
AcDbEntity
  8
0
100
AcDbSpline
 62
7
  6
CONTINUOUS
 70
0
 71
3
 72
21
 73
17
 74
15
 42
0.0000001
 43
0.0000001
 44
0.0000000001
 12
-0.2522053306
 22
2.5659417494
 32
0.0
 13
0.3955481161
 23
-2.1907925204
 33
0.0
 40
0.0
 40
0.0
 40
0.0
 40
0.0
 40
0.1115769802
 40
0.2231540781
 40
0.3347311761
 40
0.3905197251
 40
0.4463082741
 40
0.5081712405
 40
0.570034207
 40
0.6318971735
 40
0.6937601399
 40
0.7556231064
 40
0.8174860728
 40
0.8793490393
 40
0.9412120057
 40
1.0
 40
1.0
 40
1.0
 40
1.0
 10
-1.144617554
 20
27.5038250589
 30
0.0
 10
-1.1539976571
 20
27.5992584028
 30
0.0
 10
-1.2005054414
 20
27.7715368817
 30
0.0
 10
-1.3604545406
 20
27.9819402872
 30
0.0
 10
-1.551540094
 20
28.0978879577
 30
0.0
 10
-1.7256989197
 20
28.1424605498
 30
0.0
 10
-1.8782446232
 20
28.1540562796
 30
0.0
 10
-2.035876866
 20
28.1412885361
 30
0.0
 10
-2.1807053211
 20
28.1020941331
 30
0.0
 10
-2.3116371442
 20
28.037281302
 30
0.0
 10
-2.4295671772
 20
27.9444099924
 30
0.0
 10
-2.5266749312
 20
27.8328642103
 30
0.0
 10
-2.5946609715
 20
27.7115201994
 30
0.0
 10
-2.635856977
 20
27.5794611959
 30
0.0
 10
-2.6490139993
 20
27.4339299047
 30
0.0
 10
-2.6412037157
 20
27.341421797
 30
0.0
 10
-2.6334525556
 20
27.298491031
 30
0.0
 11
-1.144617554
 21
27.5038250589
 31
0.0
 11
-1.2155366334
 21
27.7635344076
 31
0.0
 11
-1.3720134587
 21
27.9700625747
 31
0.0
 11
-1.596853999
 21
28.1050156437
 31
0.0
 11
-1.7284629119
 21
28.1387539109
 31
0.0
 11
-1.8728642532
 21
28.15
 31
0.0
 11
-2.0328539071
 21
28.1369560988
 31
0.0
 11
-2.1783892158
 21
28.0978243951
 31
0.0
 11
-2.3094701792
 21
28.0326048889
 31
0.0
 11
-2.4260967974
 21
27.9412975803
 31
0.0
 11
-2.5218213122
 21
27.8312311721
 31
0.0
 11
-2.5901959657
 21
27.7097343673
 31
0.0
 11
-2.6312207578
 21
27.5768071657
 31
0.0
 11
-2.6448956885
 21
27.4324495675
 31
0.0
 11
-2.6334525556
 21
27.298491031
 31
0.0
  0
SPLINE
  5
4A6
100
AcDbEntity
  8
0
100
AcDbSpline
 62
7
  6
CONTINUOUS
 70
0
 71
3
 72
19
 73
15
 74
13
 42
0.0000001
 43
0.0000001
 44
0.0000000001
 12
2.2103211863
 22
0.5756210299
 32
0.0
 13
-2.2020268435
 23
-0.6789503534
 33
0.0
 40
0.0
 40
0.0
 40
0.0
 40
0.0
 40
0.1898158646
 40
0.2847237969
 40
0.3796317291
 40
0.4433641132
 40
0.5070964973
 40
0.6345612654
 40
0.6982936495
 40
0.7620260336
 40
0.8257584176
 40
0.8894908017
 40
0.9532231858
 40
1.0
 40
1.0
 40
1.0
 40
1.0
 10
0.2003646291
 20
26.8697952787
 30
0.0
 10
0.3402159714
 20
26.9062159465
 30
0.0
 10
0.5034475473
 20
27.0116838979
 30
0.0
 10
0.6184719835
 20
27.2370847473
 30
0.0
 10
0.6435370286
 20
27.424086948
 30
0.0
 10
0.6284855286
 20
27.5955905062
 30
0.0
 10
0.5769215387
 20
27.7690174427
 30
0.0
 10
0.471201248
 20
27.9224188216
 30
0.0
 10
0.3202970304
 20
28.0416969979
 30
0.0
 10
0.1921200235
 20
28.1039309761
 30
0.0
 10
0.0482957935
 20
28.1416712458
 30
0.0
 10
-0.1161752615
 20
28.1541570776
 30
0.0
 10
-0.2660608804
 20
28.1428051115
 30
0.0
 10
-0.3507765761
 20
28.1230081252
 30
0.0
 10
-0.3851111762
 20
28.112421747
 30
0.0
 11
0.2003646291
 21
26.8697952787
 31
0.0
 11
0.5236521843
 21
27.0750988531
 31
0.0
 11
0.6087850906
 21
27.2439088815
 31
0.0
 11
0.637162726
 21
27.4489938214
 31
0.0
 11
0.6241969223
 21
27.5926922714
 31
0.0
 11
0.5852995111
 21
27.7239919121
 31
0.0
 11
0.4297098664
 21
27.9493947654
 31
0.0
 11
0.3177972231
 21
28.0371595556
 31
0.0
 11
0.189512153
 21
28.0998486914
 31
0.0
 11
0.044854656
 21
28.1374621728
 31
0.0
 11
-0.1161752678
 21
28.15
 31
0.0
 11
-0.2772051901
 21
28.1375105927
 31
0.0
 11
-0.3851111762
 21
28.112421747
 31
0.0
  0
SPLINE
  5
4A7
100
AcDbEntity
  8
0
100
AcDbSpline
 62
7
  6
CONTINUOUS
 70
0
 71
3
 72
17
 73
13
 74
11
 42
0.0000001
 43
0.0000001
 44
0.0000000001
 12
-2.0565030588
 22
-0.7765646387
 32
0.0
 13
1.7781227939
 23
0.8014252956
 33
0.0
 40
0.0
 40
0.0
 40
0.0
 40
0.0
 40
0.1650286671
 40
0.2475430007
 40
0.3300573342
 40
0.5888780473
 40
0.7182884039
 40
0.7829935821
 40
0.8476987604
 40
0.9120583784
 40
0.9764179964
 40
1.0
 40
1.0
 40
1.0
 40
1.0
 10
-0.4405124739
 20
26.8697952787
 30
0.0
 10
-0.5536397935
 20
26.8270768029
 30
0.0
 10
-0.67978663
 20
26.7342450291
 30
0.0
 10
-0.7628990852
 20
26.5636918681
 30
0.0
 10
-0.7980103008
 20
26.299972335
 30
0.0
 10
-0.6798365599
 20
26.0208736877
 30
0.0
 10
-0.4267696476
 20
25.861939961
 30
0.0
 10
-0.2578686871
 20
25.8189723482
 30
0.0
 10
-0.1125088176
 20
25.8079707967
 30
0.0
 10
0.0324306914
 20
25.8188252169
 30
0.0
 10
0.1315715289
 20
25.8436338597
 30
0.0
 10
0.1848530983
 20
25.8652937989
 30
0.0
 10
0.198830331
 20
25.871593537
 30
0.0
 11
-0.4405124739
 21
26.8697952787
 31
0.0
 11
-0.6934744666
 21
26.687708617
 31
0.0
 11
-0.7559277265
 21
26.5593407604
 31
0.0
 11
-0.7767454798
 21
26.4102550867
 31
0.0
 11
-0.5942589755
 21
25.9859027287
 31
0.0
 11
-0.3825201328
 21
25.8551856961
 31
0.0
 11
-0.2547114576
 21
25.8225064379
 31
0.0
 11
-0.1122766132
 21
25.8116133519
 31
0.0
 11
0.0292647829
 21
25.82226121
 31
0.0
 11
0.1559925813
 21
25.8542047845
 31
0.0
 11
0.198830331
 21
25.871593537
 31
0.0
  0
SPLINE
  5
4A8
100
AcDbEntity
  8
0
100
AcDbSpline
 62
7
  6
CONTINUOUS
 70
0
 71
3
 72
16
 73
12
 74
10
 42
0.0000001
 43
0.0000001
 44
0.0000000001
 12
-0.0274015201
 22
-2.9901993716
 32
0.0
 13
-0.5504147753
 23
2.4196444294
 33
0.0
 40
0.0
 40
0.0
 40
0.0
 40
0.0
 40
0.1149189086
 40
0.2298378171
 40
0.3447567257
 40
0.4596756342
 40
0.5495161028
 40
0.6393565714
 40
0.7511174984
 40
0.8628784254
 40
1.0
 40
1.0
 40
1.0
 40
1.0
 10
2.1470375522
 20
26.9287247532
 30
0.0
 10
2.1459879012
 20
26.8141812705
 30
0.0
 10
2.13180645
 20
26.610618359
 30
0.0
 10
2.0722158156
 20
26.3889722412
 30
0.0
 10
1.9805227517
 20
26.2296461101
 30
0.0
 10
1.870807241
 20
26.1165130949
 30
0.0
 10
1.7495461716
 20
26.0543655085
 30
0.0
 10
1.6076444605
 20
26.0337500606
 30
0.0
 10
1.459013358
 20
26.0634976245
 30
0.0
 10
1.3200593283
 20
26.1529954381
 30
0.0
 10
1.2541146886
 20
26.2928128404
 30
0.0
 10
1.2289567751
 20
26.4034079918
 30
0.0
 11
2.1470375522
 21
26.9287247532
 31
0.0
 11
2.1254200404
 21
26.6245680673
 31
0.0
 11
2.0668654107
 21
26.3993589057
 31
0.0
 11
1.9760844986
 21
26.2358657675
 31
0.0
 11
1.85778814
 21
26.1168571519
 31
0.0
 11
1.7461644586
 21
26.0606642184
 31
0.0
 11
1.6188212735
 21
26.0419332406
 31
0.0
 11
1.463987609
 21
26.0720602576
 31
0.0
 11
1.3358696693
 21
26.1624413087
 31
0.0
 11
1.2289567751
 21
26.4034079918
 31
0.0
  0
SPLINE
  5
4A9
100
AcDbEntity
  8
0
100
AcDbSpline
 62
7
  6
CONTINUOUS
 70
0
 71
3
 72
21
 73
17
 74
15
 42
0.0000001
 43
0.0000001
 44
0.0000000001
 12
0.3716451648
 22
-2.8787597636
 32
0.0
 13
-0.649861384
 23
3.6665387
 33
0.0
 40
0.0
 40
0.0
 40
0.0
 40
0.0
 40
0.1853277299
 40
0.2779916511
 40
0.3243236117
 40
0.3706555723
 40
0.4327992338
 40
0.4949428952
 40
0.6192302182
 40
0.6905541032
 40
0.7618779882
 40
0.8332018731
 40
0.8688638156
 40
0.9045257581
 40
0.9682994665
 40
1.0
 40
1.0
 40
1.0
 40
1.0
 10
0.9506537275
 20
26.3810149754
 30
0.0
 10
0.9736124457
 20
26.2031769714
 30
0.0
 10
1.0807008092
 20
25.9909446443
 30
0.0
 10
1.3150594389
 20
25.8555199797
 30
0.0
 10
1.4699369934
 20
25.8179454764
 30
0.0
 10
1.6170227378
 20
25.8074452678
 30
0.0
 10
1.7780746665
 20
25.8225624345
 30
0.0
 10
1.9816509928
 20
25.8881982619
 30
0.0
 10
2.1573675115
 20
26.0237774957
 30
0.0
 10
2.2923655899
 20
26.2398543685
 30
0.0
 10
2.3689738582
 20
26.4584403969
 30
0.0
 10
2.4074428495
 20
26.6789467811
 30
0.0
 10
2.4227494979
 20
26.8765080356
 30
0.0
 10
2.4277842269
 20
27.0831076537
 30
0.0
 10
2.4183598096
 20
27.2761531387
 30
0.0
 10
2.4012204695
 20
27.3984845389
 30
0.0
 10
2.3943534853
 20
27.4372282833
 30
0.0
 11
0.9506537275
 21
26.3810149754
 31
0.0
 11
1.1580815292
 21
25.9629357085
 31
0.0
 11
1.3555253518
 21
25.849443941
 31
0.0
 11
1.4725877549
 21
25.8210709992
 31
0.0
 11
1.6018771526
 21
25.8116133519
 31
0.0
 11
1.7741922074
 21
25.8280138944
 31
0.0
 11
1.9279137325
 21
25.8772155219
 31
0.0
 11
2.1795761939
 21
26.074022032
 31
0.0
 11
2.2870981877
 21
26.2474179773
 31
0.0
 11
2.3638996118
 21
26.466110669
 31
0.0
 11
2.4099804662
 21
26.730100107
 31
0.0
 11
2.4215006798
 21
26.8790811058
 31
0.0
 11
2.425340751
 21
27.0393862913
 31
0.0
 11
2.4114690123
 21
27.3152403336
 31
0.0
 11
2.3943534853
 21
27.4372282833
 31
0.0
  0
SPLINE
  5
4AA
100
AcDbEntity
  8
0
100
AcDbSpline
 62
7
  6
CONTINUOUS
 70
0
 71
3
 72
11
 73
7
 74
5
 42
0.0000001
 43
0.0000001
 44
0.0000000001
 12
-0.5254170529
 22
-0.1937325664
 32
0.0
 13
-0.4066585283
 23
-0.3874649268
 33
0.0
 40
0.0
 40
0.0
 40
0.0
 40
0.0
 40
0.2500000978
 40
0.5000001955
 40
0.7500002933
 40
1.0
 40
1.0
 40
1.0
 40
1.0
 10
3.98
 20
26.6584687805
 30
0.0
 10
3.9362152285
 20
26.6423243936
 30
0.0
 10
3.8441936626
 20
26.6025400123
 30
0.0
 10
3.682416
 20
26.5151873452
 30
0.0
 10
3.5280608397
 20
26.4157264519
 30
0.0
 10
3.4508841575
 20
26.351725563
 30
0.0
 10
3.4169959866
 20
26.319436857
 30
0.0
 11
3.98
 21
26.6584687805
 31
0.0
 11
3.8402361103
 21
26.5979273298
 31
0.0
 11
3.6836530703
 21
26.5131692988
 31
0.0
 11
3.5344924521
 21
26.41630299
 31
0.0
 11
3.4169959866
 21
26.319436857
 31
0.0
  0
SPLINE
  5
4AB
100
AcDbEntity
  8
0
100
AcDbSpline
 62
7
  6
CONTINUOUS
 70
0
 71
3
 72
11
 73
7
 74
5
 42
0.0000001
 43
0.0000001
 44
0.0000000001
 12
0.2940973788
 22
0.593793699
 32
0.0
 13
0.9444722498
 23
0.4438460365
 33
0.0
 40
0.0
 40
0.0
 40
0.0
 40
0.0
 40
0.2500004788
 40
0.5000003192
 40
0.7500001596
 40
1.0
 40
1.0
 40
1.0
 40
1.0
 10
3.3169304313
 20
25.8116129728
 30
0.0
 10
3.3414385932
 20
25.8610958758
 30
0.0
 10
3.4071318504
 20
25.960950534
 30
0.0
 10
3.5603938379
 20
26.1194187491
 30
0.0
 10
3.7543040664
 20
26.2685151048
 30
0.0
 10
3.9012940294
 20
26.3496261936
 30
0.0
 10
3.98
 20
26.3866133397
 30
0.0
 11
3.3169304313
 21
25.8116129728
 31
0.0
 11
3.4162523187
 21
25.9623983811
 31
0.0
 11
3.5671685665
 21
26.117856795
 31
0.0
 11
3.7587331858
 21
26.2639434844
 31
0.0
 11
3.98
 21
26.3866133397
 31
0.0
  0
SPLINE
  5
4AC
100
AcDbEntity
  8
0
100
AcDbSpline
 62
7
  6
CONTINUOUS
 70
0
 71
3
 72
14
 73
10
 74
8
 42
0.0000001
 43
0.0000001
 44
0.0000000001
 12
-0.050057981
 22
1.4987359525
 32
0.0
 13
0.0037998171
 23
-1.4971371585
 33
0.0
 40
0.0
 40
0.0
 40
0.0
 40
0.0
 40
0.0128404768
 40
0.1389164138
 40
0.2649923508
 40
0.5171442248
 40
0.6780961498
 40
0.8390480749
 40
1.0
 40
1.0
 40
1.0
 40
1.0
 10
-0.5812988236
 20
27.4412840813
 30
0.0
 10
-0.5815130797
 20
27.4476989094
 30
0.0
 10
-0.5826428117
 20
27.5171640995
 30
0.0
 10
-0.5605561547
 20
27.6494747055
 30
0.0
 10
-0.4266214711
 20
27.8483368959
 30
0.0
 10
-0.1721700562
 20
27.9509849166
 30
0.0
 10
0.1382996325
 20
27.8787519653
 30
0.0
 10
0.3134446093
 20
27.6934921409
 30
0.0
 10
0.3490590025
 20
27.531465427
 30
0.0
 10
0.3492628651
 20
27.4511430578
 30
0.0
 11
-0.5812988236
 21
27.4412840813
 31
0.0
 11
-0.5816133519
 21
27.4605397863
 31
0.0
 11
-0.5490684256
 21
27.6428576394
 31
0.0
 11
-0.4514336467
 21
27.7900501988
 31
0.0
 11
-0.1185244377
 21
27.9196801113
 31
0.0
 11
0.1239662082
 21
27.8580015509
 31
0.0
 11
0.2931573781
 21
27.6838620998
 31
0.0
 11
0.3492628651
 21
27.4511430578
 31
0.0
  0
SPLINE
  5
4AD
100
AcDbEntity
  8
0
100
AcDbSpline
 62
7
  6
CONTINUOUS
 70
0
 71
3
 72
15
 73
11
 74
9
 42
0.0000001
 43
0.0000001
 44
0.0000000001
 12
0.0037998171
 22
-1.4971371585
 32
0.0
 13
-0.050057981
 23
1.4987359525
 33
0.0
 40
0.0
 40
0.0
 40
0.0
 40
0.0
 40
0.1251480212
 40
0.2502960423
 40
0.3754440635
 40
0.5005920847
 40
0.6286541827
 40
0.7567162807
 40
0.8847783788
 40
1.0
 40
1.0
 40
1.0
 40
1.0
 10
0.3492628651
 20
27.4511430578
 30
0.0
 10
0.3494213783
 20
27.3886884735
 30
0.0
 10
0.3284530669
 20
27.2646148232
 30
0.0
 10
0.2277518715
 20
27.1153876254
 30
0.0
 10
0.0796865677
 20
27.0129274554
 30
0.0
 10
-0.1105848272
 20
26.9814457969
 30
0.0
 10
-0.3026811428
 20
27.013301169
 30
0.0
 10
-0.4555977239
 20
27.1167404259
 30
0.0
 10
-0.5566439165
 20
27.2632120384
 30
0.0
 10
-0.5793762364
 20
27.3837218192
 30
0.0
 10
-0.5812988236
 20
27.4412840813
 30
0.0
 11
0.3492628651
 21
27.4511430578
 31
0.0
 11
0.3169116122
 21
27.2707620361
 31
0.0
 11
0.2198578534
 21
27.12318213
 31
0.0
 11
0.0728964611
 21
27.0247976187
 31
0.0
 11
-0.1091776926
 21
26.9920027816
 31
0.0
 11
-0.2959064872
 21
27.0251912378
 31
0.0
 11
-0.447534992
 21
27.1247566064
 31
0.0
 11
-0.5480937619
 21
27.2750793138
 31
0.0
 11
-0.5812988236
 21
27.4412840813
 31
0.0
  0
SPLINE
  5
4AE
100
AcDbEntity
  8
0
100
AcDbSpline
 62
7
  6
CONTINUOUS
 70
0
 71
3
 72
17
 73
13
 74
11
 42
0.0000001
 43
0.0000001
 44
0.0000000001
 12
-0.0491721108
 22
1.1633569907
 32
0.0
 13
0.0007975464
 23
-1.2157228695
 33
0.0
 40
0.0
 40
0.0
 40
0.0
 40
0.0
 40
0.0159449471
 40
0.1372308155
 40
0.2585166839
 40
0.3798025524
 40
0.5010884208
 40
0.6258163156
 40
0.7505442104
 40
0.8752721052
 40
0.9376360526
 40
1.0
 40
1.0
 40
1.0
 40
1.0
 10
-0.4884811341
 20
26.3894857686
 30
0.0
 10
-0.488742483
 20
26.3956689905
 30
0.0
 10
-0.4897837529
 20
26.4489701133
 30
0.0
 10
-0.4723723537
 20
26.5494748317
 30
0.0
 10
-0.3923719183
 20
26.6650711013
 30
0.0
 10
-0.2738785103
 20
26.7454019997
 30
0.0
 10
-0.1176980445
 20
26.7699139324
 30
0.0
 10
0.0392481708
 20
26.7450451634
 30
0.0
 10
0.1599995665
 20
26.6648757419
 30
0.0
 10
0.2247837438
 20
26.5657831668
 30
0.0
 10
0.2518153635
 20
26.4724759956
 30
0.0
 10
0.2564785527
 20
26.4176837395
 30
0.0
 10
0.2564951321
 20
26.3924113138
 30
0.0
 11
-0.4884811341
 21
26.3894857686
 31
0.0
 11
-0.4888456189
 21
26.4080558669
 31
0.0
 11
-0.4631233199
 21
26.5451644446
 31
0.0
 11
-0.3859564229
 21
26.6591935395
 31
0.0
 11
-0.2678412662
 21
26.7360605545
 31
0.0
 11
-0.1192741884
 21
26.7616828929
 31
0.0
 11
0.0329728485
 21
26.735866869
 31
0.0
 11
0.1528311693
 21
26.6584187971
 31
0.0
 11
0.2294753385
 21
26.541286948
 31
0.0
 11
0.2496022084
 21
26.470441328
 31
0.0
 11
0.2564951321
 21
26.3924113138
 31
0.0
  0
SPLINE
  5
4AF
100
AcDbEntity
  8
0
100
AcDbSpline
 62
7
  6
CONTINUOUS
 70
0
 71
3
 72
15
 73
11
 74
9
 42
0.0000001
 43
0.0000001
 44
0.0000000001
 12
0.0007975464
 22
-1.2157228695
 32
0.0
 13
-0.0491721108
 23
1.1633569907
 33
0.0
 40
0.0
 40
0.0
 40
0.0
 40
0.0
 40
0.1276026125
 40
0.2552052251
 40
0.3828078376
 40
0.5104104502
 40
0.6367940744
 40
0.7631776986
 40
0.8895613228
 40
1.0
 40
1.0
 40
1.0
 40
1.0
 10
0.2564951321
 20
26.3924113138
 30
0.0
 10
0.2565290551
 20
26.3407015091
 30
0.0
 10
0.237213241
 20
26.2550636938
 30
0.0
 10
0.1583043923
 20
26.13943526
 30
0.0
 10
0.0371094939
 20
26.0583791383
 30
0.0
 10
-0.1155775262
 20
26.0336228219
 30
0.0
 10
-0.268429343
 20
26.058723124
 30
0.0
 10
-0.389185125
 20
26.1414235477
 30
0.0
 10
-0.4683498444
 20
26.2558386869
 30
0.0
 10
-0.4866709665
 20
26.3466592329
 30
0.0
 10
-0.4884811341
 20
26.3894857686
 30
0.0
 11
0.2564951321
 21
26.3924113138
 31
0.0
 11
0.2288907197
 21
26.257201742
 31
0.0
 11
0.1512567173
 21
26.145197312
 31
0.0
 11
0.0317795137
 21
26.0677492585
 31
0.0
 11
-0.1161752678
 21
26.0419332406
 31
0.0
 11
-0.2631616457
 21
26.0683365509
 31
0.0
 11
-0.3828325106
 21
26.1475464819
 31
0.0
 11
-0.4623423418
 21
26.2654804488
 31
0.0
 11
-0.4884811341
 21
26.3894857686
 31
0.0
  0
SPLINE
  5
4B0
100
AcDbEntity
  8
0
100
AcDbSpline
 62
7
  6
CONTINUOUS
 70
0
 71
3
 72
15
 73
11
 74
9
 42
0.0000001
 43
0.0000001
 44
0.0000000001
 12
0.1234348459
 22
1.8568430315
 32
0.0
 13
-0.0022728861
 23
-1.743609978
 33
0.0
 40
0.0
 40
0.0
 40
0.0
 40
0.0
 40
0.0324792736
 40
0.0959597064
 40
0.2229205721
 40
0.4768423035
 40
0.6512282023
 40
0.8256141012
 40
0.9128070506
 40
1.0
 40
1.0
 40
1.0
 40
1.0
 10
1.2020576366
 20
27.4431147614
 30
0.0
 10
1.2033939946
 20
27.4632177323
 30
0.0
 10
1.2094051619
 20
27.5215748759
 30
0.0
 10
1.2368865456
 20
27.642450416
 30
0.0
 10
1.3537759471
 20
27.844499184
 30
0.0
 10
1.5942234601
 20
27.9534252521
 30
0.0
 10
1.8798332783
 20
27.8740858893
 30
0.0
 10
2.0299377505
 20
27.6967869711
 30
0.0
 10
2.0916441754
 20
27.5138404117
 30
0.0
 10
2.1023191892
 20
27.4199983703
 30
0.0
 10
2.1022531293
 20
27.369321538
 30
0.0
 11
1.2020576366
 21
27.4431147614
 31
0.0
 11
1.2081297533
 21
27.5019972439
 31
0.0
 11
1.2320183176
 21
27.6061766252
 31
0.0
 11
1.3275725751
 21
27.7758301232
 31
0.0
 11
1.6348157102
 21
27.9196801113
 31
0.0
 11
1.8685343954
 21
27.8501042993
 31
0.0
 11
2.040499594
 21
27.6476247125
 31
0.0
 11
2.0865996257
 21
27.5132482213
 31
0.0
 11
2.1022531293
 21
27.369321538
 31
0.0
  0
SPLINE
  5
4B1
100
AcDbEntity
  8
0
100
AcDbSpline
 62
7
  6
CONTINUOUS
 70
0
 71
3
 72
18
 73
14
 74
12
 42
0.0000001
 43
0.0000001
 44
0.0000000001
 12
-0.0022728861
 22
-1.743609978
 32
0.0
 13
0.1234348459
 23
1.8568430315
 33
0.0
 40
0.0
 40
0.0
 40
0.0
 40
0.0
 40
0.0600587976
 40
0.1201175952
 40
0.2402351904
 40
0.3603527856
 40
0.4804703808
 40
0.6026024958
 40
0.7247346108
 40
0.8468667258
 40
0.9079327833
 40
0.9689988408
 40
1.0
 40
1.0
 40
1.0
 40
1.0
 10
2.1022531293
 20
27.369321538
 30
0.0
 10
2.1022076271
 20
27.3344151651
 30
0.0
 10
2.0969891771
 20
27.2610385291
 30
0.0
 10
2.0637370243
 20
27.1358096505
 30
0.0
 10
1.9769223992
 20
27.0010158004
 30
0.0
 10
1.8274565306
 20
26.8958465083
 30
0.0
 10
1.6444249651
 20
26.8624799781
 30
0.0
 10
1.4623297989
 20
26.8960938437
 30
0.0
 10
1.3183771483
 20
27.0003977918
 30
0.0
 10
1.23652148
 20
27.1375605648
 30
0.0
 10
1.2054600202
 20
27.2697064124
 30
0.0
 10
1.1988831514
 20
27.3659923168
 30
0.0
 10
1.2007820955
 20
27.4239266659
 30
0.0
 10
1.2020576366
 20
27.4431147614
 30
0.0
 11
2.1022531293
 21
27.369321538
 31
0.0
 11
2.0941372705
 21
27.2637290783
 31
0.0
 11
2.0690334335
 21
27.1685663533
 31
0.0
 11
1.9693743461
 21
27.010446355
 31
0.0
 11
1.8220318367
 21
26.9078445512
 31
0.0
 11
1.6457618746
 21
26.8736439499
 31
0.0
 11
1.4688546733
 21
26.9078445512
 31
0.0
 11
1.3259981231
 21
27.010446355
 31
0.0
 11
1.2316247046
 21
27.1724649958
 31
0.0
 11
1.20803135
 21
27.2723864929
 31
0.0
 11
1.2001668985
 21
27.3849161077
 31
0.0
 11
1.2020576366
 21
27.4431147614
 31
0.0
  0
SPLINE
  5
4B2
100
AcDbEntity
  8
0
100
AcDbSpline
 62
7
  6
CONTINUOUS
 70
0
 71
3
 72
9
 73
5
 74
3
 42
0.0000001
 43
0.0000001
 44
0.0000000001
 12
0.4898586922
 22
0.2974151213
 32
0.0
 13
0.1253489187
 23
0.6886884584
 33
0.0
 40
0.0
 40
0.0
 40
0.0
 40
0.0
 40
0.1769831075
 40
1.0
 40
1.0
 40
1.0
 40
1.0
 10
-1.4894868447
 20
25.9081145386
 30
0.0
 10
-1.4605879401
 20
25.9256603561
 30
0.0
 10
-1.30665512
 20
26.0375719654
 30
0.0
 10
-1.2077956887
 20
26.2176718483
 30
0.0
 10
-1.1734075962
 20
26.4066059266
 30
0.0
 11
-1.4894868447
 21
25.9081145386
 31
0.0
 11
-1.4078259873
 21
25.9674091475
 31
0.0
 11
-1.1734075962
 21
26.4066059266
 31
0.0
  0
SPLINE
  5
4B3
100
AcDbEntity
  8
0
100
AcDbSpline
 62
7
  6
CONTINUOUS
 70
0
 71
3
 72
11
 73
7
 74
5
 42
0.0000001
 43
0.0000001
 44
0.0000000001
 12
0.1565356636
 22
0.5584171421
 32
0.0
 13
0.6052575647
 23
0.0
 33
0.0
 40
0.0
 40
0.0
 40
0.0
 40
0.0
 40
0.1068892683
 40
0.4045928455
 40
0.7022964228
 40
1.0
 40
1.0
 40
1.0
 40
1.0
 10
-2.2307065185
 20
26.5119155716
 30
0.0
 10
-2.225129191
 20
26.5318118382
 30
0.0
 10
-2.1977838029
 20
26.6036239095
 30
0.0
 10
-2.1084582243
 20
26.6948695147
 30
0.0
 10
-1.9494230786
 20
26.7652421102
 30
0.0
 10
-1.8366101966
 20
26.7807762502
 30
0.0
 10
-1.7765477492
 20
26.7807762502
 30
0.0
 11
-2.2307065185
 21
26.5119155716
 31
0.0
 11
-2.2089973106
 21
26.5684125969
 31
0.0
 11
-2.100884931
 21
26.6872587666
 31
0.0
 11
-1.9477257157
 21
26.7573968793
 31
0.0
 11
-1.7765477492
 21
26.7807762502
 31
0.0
  0
SPLINE
  5
4B4
100
AcDbEntity
  8
0
100
AcDbSpline
 62
7
  6
CONTINUOUS
 70
0
 71
3
 72
11
 73
7
 74
5
 42
0.0000001
 43
0.0000001
 44
0.0000000001
 12
0.7186153174
 22
0.1308939434
 32
0.0
 13
0.2223284092
 23
-1.0988066532
 33
0.0
 40
0.0
 40
0.0
 40
0.0
 40
0.0
 40
0.1277203166
 40
0.3457902251
 40
0.5638601336
 40
1.0
 40
1.0
 40
1.0
 40
1.0
 10
-1.9683413411
 20
27.9084864545
 30
0.0
 10
-1.9377474159
 20
27.9140590598
 30
0.0
 10
-1.8528932326
 20
27.9212218172
 30
0.0
 10
-1.7139190172
 20
27.8986086503
 30
0.0
 10
-1.5425677525
 20
27.7951806801
 30
0.0
 10
-1.4584416938
 20
27.6251825164
 30
0.0
 10
-1.4261195996
 20
27.4654380541
 30
0.0
 11
-1.9683413411
 21
27.9084864545
 31
0.0
 11
-1.8750134896
 21
27.9164812239
 31
0.0
 11
-1.7193738798
 21
27.8900529158
 31
0.0
 11
-1.5903375077
 21
27.8107679915
 31
0.0
 11
-1.4261195996
 21
27.4654380541
 31
0.0
  0
SPLINE
  5
4B5
100
AcDbEntity
  8
0
100
AcDbSpline
 62
7
  6
CONTINUOUS
 70
0
 71
3
 72
10
 73
6
 74
4
 42
0.0000001
 43
0.0000001
 44
0.0000000001
 12
0.1215196149
 22
-0.6730515265
 32
0.0
 13
0.6818429597
 23
-0.1574130098
 33
0.0
 40
0.0
 40
0.0
 40
0.0
 40
0.0
 40
0.1064831669
 40
0.4043221113
 40
1.0
 40
1.0
 40
1.0
 40
1.0
 10
-2.6334525556
 20
27.298491031
 30
0.0
 10
-2.6291392911
 20
27.2746014783
 30
0.0
 10
-2.6081225153
 20
27.1864129842
 30
0.0
 10
-2.5124142965
 20
26.9997625912
 30
0.0
 10
-2.3527806603
 20
26.8993516603
 30
0.0
 10
-2.2173944021
 20
26.8680958438
 30
0.0
 11
-2.6334525556
 21
27.298491031
 31
0.0
 11
-2.6168429511
 21
27.2290328107
 31
0.0
 11
-2.532684739
 21
27.0627281624
 31
0.0
 11
-2.2173944021
 21
26.8680958438
 31
0.0
  0
SPLINE
  5
4B6
100
AcDbEntity
  8
0
100
AcDbSpline
 62
7
  6
CONTINUOUS
 70
0
 71
3
 72
16
 73
12
 74
10
 42
0.0000001
 43
0.0000001
 44
0.0000000001
 12
-1.6914561654
 22
-0.5215262314
 32
0.0
 13
1.7481749035
 23
-0.5721752352
 33
0.0
 40
0.0
 40
0.0
 40
0.0
 40
0.0
 40
0.0220736551
 40
0.1050438339
 40
0.1880140127
 40
0.3539543704
 40
0.4369245492
 40
0.5198947281
 40
0.639921046
 40
0.759947364
 40
1.0
 40
1.0
 40
1.0
 40
1.0
 10
-0.3851111762
 20
28.112421747
 30
0.0
 10
-0.3975567162
 20
28.108584417
 30
0.0
 10
-0.4558293594
 20
28.0889436678
 30
0.0
 10
-0.5526478952
 20
28.0421349661
 30
0.0
 10
-0.7035499386
 20
27.9231915953
 30
0.0
 10
-0.8092833795
 20
27.7711527686
 30
0.0
 10
-0.8608166131
 20
27.6004136302
 30
0.0
 10
-0.8757918438
 20
27.4346426956
 30
0.0
 10
-0.8513858849
 20
27.2537485126
 30
0.0
 10
-0.7409564566
 20
27.0292777224
 30
0.0
 10
-0.5803971385
 20
26.9155793365
 30
0.0
 10
-0.4405124739
 20
26.8697952787
 30
0.0
 11
-0.3851111762
 21
28.112421747
 31
0.0
 11
-0.4218626825
 21
28.1000423708
 31
0.0
 11
-0.550147745
 21
28.0375953344
 31
0.0
 11
-0.6620603776
 21
27.9501694834
 31
0.0
 11
-0.817650004
 21
27.7269096247
 31
0.0
 11
-0.8565474106
 21
27.5977076888
 31
0.0
 11
-0.8695132128
 21
27.4567910818
 31
0.0
 11
-0.842116495
 21
27.2592972942
 31
0.0
 11
-0.7599263418
 21
27.0914681651
 31
0.0
 11
-0.4405124739
 21
26.8697952787
 31
0.0
  0
SPLINE
  5
4B7
100
AcDbEntity
  8
0
100
AcDbSpline
 62
7
  6
CONTINUOUS
 70
0
 71
3
 72
13
 73
9
 74
7
 42
0.0000001
 43
0.0000001
 44
0.0000000001
 12
1.2512049329
 22
0.5639359029
 32
0.0
 13
-1.4452404033
 23
0.5287666582
 33
0.0
 40
0.0
 40
0.0
 40
0.0
 40
0.0
 40
0.149413501
 40
0.3323400557
 40
0.5152666104
 40
0.6364499578
 40
0.7576333052
 40
1.0
 40
1.0
 40
1.0
 40
1.0
 10
0.198830331
 20
25.871593537
 30
0.0
 10
0.2611459675
 20
25.8996800829
 30
0.0
 10
0.3860266208
 20
25.9838838872
 30
0.0
 10
0.5150083259
 20
26.1649564908
 30
0.0
 10
0.5545986279
 20
26.3751145301
 30
0.0
 10
0.5303323102
 20
26.5613391203
 30
0.0
 10
0.4462846349
 20
26.7342621416
 30
0.0
 10
0.317124009
 20
26.8270768029
 30
0.0
 10
0.2003646291
 20
26.8697952787
 30
0.0
 11
0.198830331
 21
25.871593537
 31
0.0
 11
0.3650073849
 21
25.9819790824
 31
0.0
 11
0.499548091
 21
26.1722816336
 31
0.0
 11
0.544394993
 21
26.4024578263
 31
0.0
 11
0.5232835813
 21
26.5564230173
 31
0.0
 11
0.459949346
 21
26.6869338746
 31
0.0
 11
0.2003646291
 21
26.8697952787
 31
0.0
  0
SPLINE
  5
4B8
100
AcDbEntity
  8
0
100
AcDbSpline
 62
7
  6
CONTINUOUS
 70
0
 71
3
 72
18
 73
14
 74
12
 42
0.0000001
 43
0.0000001
 44
0.0000000001
 12
-0.6088803246
 22
3.4353222527
 32
0.0
 13
0.5264454994
 23
-2.3853082717
 33
0.0
 40
0.0
 40
0.0
 40
0.0
 40
0.0
 40
0.0342318793
 40
0.1703639523
 40
0.3064960252
 40
0.3745620617
 40
0.4426280982
 40
0.5224850165
 40
0.6023419348
 40
0.7620557715
 40
0.9217696081
 40
0.9825178311
 40
1.0
 40
1.0
 40
1.0
 40
1.0
 10
2.3943534853
 20
27.4372282833
 30
0.0
 10
2.3874057794
 20
27.4764274622
 30
0.0
 10
2.3468367511
 20
27.6619642887
 30
0.0
 10
2.2182131288
 20
27.916452031
 30
0.0
 10
2.0012897331
 20
28.0742220772
 30
0.0
 10
1.8010363124
 20
28.1392272808
 30
0.0
 10
1.6195407546
 20
28.156626012
 30
0.0
 10
1.4300923502
 20
28.1336936976
 30
0.0
 10
1.1983135461
 20
28.0350034157
 30
0.0
 10
0.9770279614
 20
27.789139424
 30
0.0
 10
0.9007355923
 20
27.4532506622
 30
0.0
 10
0.9175417264
 20
27.2448936258
 30
0.0
 10
0.9297723853
 20
27.1816027786
 30
0.0
 10
0.9328401884
 20
27.1677026579
 30
0.0
 11
2.3943534853
 21
27.4372282833
 31
0.0
 11
2.3698537962
 21
27.5492089494
 31
0.0
 11
2.2033929316
 21
27.8914899013
 31
0.0
 11
1.9490001526
 21
28.0853724753
 31
0.0
 11
1.7974700434
 21
28.1338431188
 31
0.0
 11
1.6297174545
 21
28.15
 31
0.0
 11
1.43432918
 21
28.1253773109
 31
0.0
 11
1.2608207751
 21
28.0515092435
 31
0.0
 11
1.0052596713
 21
27.7677579297
 31
0.0
 11
0.9122670376
 21
27.3667224024
 31
0.0
 11
0.9246408583
 21
27.2101503085
 31
0.0
 11
0.9328401884
 21
27.1677026579
 31
0.0
  0
SPLINE
  5
4B9
100
AcDbEntity
  8
0
100
AcDbSpline
 62
7
  6
CONTINUOUS
 70
0
 71
3
 72
14
 73
10
 74
8
 42
0.0000001
 43
0.0000001
 44
0.0000000001
 12
0.3610851358
 22
-1.6360655795
 32
0.0
 13
1.0033222801
 23
1.5254433929
 33
0.0
 40
0.0
 40
0.0
 40
0.0
 40
0.0
 40
0.0630799142
 40
0.1516480257
 40
0.2402161371
 40
0.41735236
 40
0.5944885829
 40
0.7972442915
 40
1.0
 40
1.0
 40
1.0
 40
1.0
 10
0.9328401884
 20
27.1677026579
 30
0.0
 10
0.9404325948
 20
27.1333016991
 30
0.0
 10
0.9636123385
 20
27.0541852061
 30
0.0
 10
1.0190601607
 20
26.9401876538
 30
0.0
 10
1.1374051055
 20
26.7900095798
 30
0.0
 10
1.3217757848
 20
26.6582305942
 30
0.0
 10
1.6000466081
 20
26.6037189068
 30
0.0
 10
1.9096918488
 20
26.6730041736
 30
0.0
 10
2.0792277789
 20
26.8256273013
 30
0.0
 10
2.1470375522
 20
26.9287247532
 30
0.0
 11
0.9328401884
 21
27.1677026579
 31
0.0
 11
0.9617623205
 21
27.0687198222
 31
0.0
 11
1.0236314241
 21
26.9424309434
 31
0.0
 11
1.1102481692
 21
26.8312836721
 31
0.0
 11
1.329147027
 21
26.6759189709
 31
0.0
 11
1.5898813372
 21
26.6241307371
 31
0.0
 11
1.8981990661
 21
26.6991046562
 31
0.0
 11
2.1470375522
 21
26.9287247532
 31
0.0
  0
ELLIPSE
  5
4BA
100
AcDbEntity
  8
RACCORDO
100
AcDbEllipse
 62
7
  6
CONTINUOUS
 10
-27.9496952279
 20
37.9496952279
 30
0.0
 11
0.3539842723
 21
-0.3539842723
 31
0.0
 40
0.998782766
 41
2.3568034778
 42
3.9263818294
  0
ELLIPSE
  5
4BB
100
AcDbEntity
  8
RACCORDO
100
AcDbEllipse
 62
7
  6
CONTINUOUS
 10
-27.9496952279
 20
-37.9496952279
 30
0.0
 11
0.3539842723
 21
0.3539842723
 31
0.0
 40
0.998782766
 41
2.3568034778
 42
3.9263818294
  0
ELLIPSE
  5
4BC
100
AcDbEntity
  8
RACCORDO
100
AcDbEllipse
 62
7
  6
CONTINUOUS
 10
27.9496952279
 20
-37.9496952279
 30
0.0
 11
0.3539842723
 21
-0.3539842723
 31
0.0
 40
0.998782766
 41
-0.7847891758
 42
0.7847891758
  0
ELLIPSE
  5
4BD
100
AcDbEntity
  8
RACCORDO
100
AcDbEllipse
 62
7
  6
CONTINUOUS
 10
27.9496952279
 20
37.9496952279
 30
0.0
 11
-0.3539842723
 21
-0.3539842723
 31
0.0
 40
0.998782766
 41
2.3568034778
 42
3.9263818294
  0
ELLIPSE
  5
4BE
100
AcDbEntity
  8
RACCORDO
100
AcDbEllipse
 62
7
  6
CONTINUOUS
 10
28.998627654
 20
38.998627654
 30
0.0
 11
-0.7090462434
 21
-0.7090462434
 31
0.0
 40
0.9972646886
 41
2.3575640181
 42
3.9256212891
  0
ELLIPSE
  5
4BF
100
AcDbEntity
  8
RACCORDO
100
AcDbEllipse
 62
7
  6
CONTINUOUS
 10
28.998627654
 20
-38.998627654
 30
0.0
 11
-0.7090462434
 21
0.7090462434
 31
0.0
 40
0.9972646886
 41
2.3575640181
 42
3.9256212891
  0
ELLIPSE
  5
4C0
100
AcDbEntity
  8
RACCORDO
100
AcDbEllipse
 62
7
  6
CONTINUOUS
 10
-28.998627654
 20
-38.998627654
 30
0.0
 11
0.7090462434
 21
0.7090462434
 31
0.0
 40
0.9972646886
 41
2.3575640181
 42
3.9256212891
  0
ELLIPSE
  5
4C1
100
AcDbEntity
  8
RACCORDO
100
AcDbEllipse
 62
7
  6
CONTINUOUS
 10
-28.998627654
 20
38.998627654
 30
0.0
 11
0.7090462434
 21
-0.7090462434
 31
0.0
 40
0.9972646886
 41
2.3575640181
 42
3.9256212891
  0
ELLIPSE
  5
4C2
100
AcDbEntity
  8
RACCORDO
100
AcDbEllipse
 62
7
  6
CONTINUOUS
 10
-11.9567587399
 20
-20.85
 30
0.0
 11
0.0
 21
0.4732788903
 31
0.0
 40
0.0699268119
 41
0.0174532925
 42
1.3283508948
  0
ELLIPSE
  5
4C3
100
AcDbEntity
  8
RACCORDO
100
AcDbEllipse
 62
7
  6
CONTINUOUS
 10
-11.9567587399
 20
-14.85
 30
0.0
 11
0.0
 21
0.4732788903
 31
0.0
 40
0.0699268119
 41
-4.4698765949
 42
-3.1590459461
  0
ELLIPSE
  5
4C4
100
AcDbEntity
  8
RACCORDO
100
AcDbEllipse
 62
7
  6
CONTINUOUS
 10
11.9567587399
 20
-20.85
 30
0.0
 11
0.0
 21
0.4732788903
 31
0.0
 40
0.0699268119
 41
-1.3282839413
 42
-0.0174532925
  0
ELLIPSE
  5
4C5
100
AcDbEntity
  8
RACCORDO
100
AcDbEllipse
 62
7
  6
CONTINUOUS
 10
11.9567587399
 20
-14.85
 30
0.0
 11
0.0
 21
0.4732788903
 31
0.0
 40
0.0699268119
 41
-3.1241393611
 42
-1.8132417588
  0
ELLIPSE
  5
4C6
100
AcDbEntity
  8
RACCORDO
100
AcDbEllipse
 62
7
  6
CONTINUOUS
 10
-13.4266855519
 20
-20.85
 30
0.0
 11
-0.0
 21
0.4732788903
 31
0.0
 40
0.0699268119
 41
0.0174532925
 42
1.4969156938
  0
ELLIPSE
  5
4C7
100
AcDbEntity
  8
RACCORDO
100
AcDbEllipse
 62
7
  6
CONTINUOUS
 10
-13.4266855519
 20
-14.85
 30
0.0
 11
-0.0
 21
0.4732788903
 31
0.0
 40
0.0699268119
 41
-4.6384592881
 42
-3.1590459461
  0
ELLIPSE
  5
4C8
100
AcDbEntity
  8
RACCORDO
100
AcDbEllipse
 62
7
  6
CONTINUOUS
 10
13.4266855519
 20
-20.85
 30
0.0
 11
0.0
 21
0.4732788903
 31
0.0
 40
0.0699268119
 41
-1.4968666345
 42
-0.0174532925
  0
ELLIPSE
  5
4C9
100
AcDbEntity
  8
RACCORDO
100
AcDbEllipse
 62
7
  6
CONTINUOUS
 10
13.4266855519
 20
-14.85
 30
0.0
 11
-0.0
 21
0.4732788903
 31
0.0
 40
0.0699268119
 41
-3.1241393611
 42
-1.6446769598
  0
ELLIPSE
  5
4CA
100
AcDbEntity
  8
DRAFT
100
AcDbEllipse
 62
7
  6
CONTINUOUS
 10
-0.0
 20
-39.066598803
 30
0.0
 11
4.1383261874
 21
0.0
 31
0.0
 40
0.0524077793
 41
0.0174532925
 42
3.1241393611
  0
ELLIPSE
  5
4CB
100
AcDbEntity
  8
DRAFT
100
AcDbEllipse
 62
7
  6
CONTINUOUS
 10
-0.0
 20
39.066598803
 30
0.0
 11
4.1383261874
 21
-0.0
 31
0.0
 40
0.0524077793
 41
-3.1241393611
 42
-0.0174532925
  0
ELLIPSE
  5
4CC
100
AcDbEntity
  8
DRAFT
100
AcDbEllipse
 62
7
  6
CONTINUOUS
 10
-0.0
 20
38.666598803
 30
0.0
 11
4.1383261874
 21
-0.0
 31
0.0
 40
0.0524077793
 41
-3.1241393611
 42
-0.0174532925
  0
ELLIPSE
  5
4CD
100
AcDbEntity
  8
RACCORDO
100
AcDbEllipse
 62
7
  6
CONTINUOUS
 10
-12.7837424569
 20
8.0087275325
 30
0.0
 11
0.5
 21
-0.0
 31
0.0
 40
0.0174550649
 41
1.5707963268
 42
3.0717794835
  0
ELLIPSE
  5
4CE
100
AcDbEntity
  8
RACCORDO
100
AcDbEllipse
 62
7
  6
CONTINUOUS
 10
-12.7837424569
 20
-8.0087275325
 30
0.0
 11
0.5
 21
0.0
 31
0.0
 40
0.0174550649
 41
-3.0717794835
 42
-1.5707963268
  0
ELLIPSE
  5
4CF
100
AcDbEntity
  8
DRAFT
100
AcDbEllipse
 62
7
  6
CONTINUOUS
 10
-0.0
 20
-38.666598803
 30
0.0
 11
4.1383261874
 21
-0.0
 31
0.0
 40
0.0524077793
 41
6.3006385997
 42
9.4073246682
  0
ELLIPSE
  5
4D0
100
AcDbEntity
  8
RACCORDO
100
AcDbEllipse
 62
7
  6
CONTINUOUS
 10
-28.2498476139
 20
-38.2498476139
 30
0.0
 11
0.1769921361
 21
0.1769921362
 31
0.0
 40
0.998782766
 41
2.3568034778
 42
3.9263818294
  0
ELLIPSE
  5
4D1
100
AcDbEntity
  8
RACCORDO
100
AcDbEllipse
 62
7
  6
CONTINUOUS
 10
-28.2498476139
 20
38.2498476139
 30
0.0
 11
-0.1769921361
 21
0.1769921362
 31
0.0
 40
0.998782766
 41
-0.7847891758
 42
0.7847891758
  0
ELLIPSE
  5
4D2
100
AcDbEntity
  8
DRAFT
100
AcDbEllipse
 62
7
  6
CONTINUOUS
 10
12.5389986151
 20
-20.2801797403
 30
0.0
 11
0.5
 21
-0.0
 31
0.0
 40
0.0174550649
 41
0.0698131701
 42
2.3561944902
  0
ELLIPSE
  5
4D3
100
AcDbEntity
  8
DRAFT
100
AcDbEllipse
 62
7
  6
CONTINUOUS
 10
-12.5389986151
 20
-20.2801797403
 30
0.0
 11
0.5
 21
-0.0
 31
0.0
 40
0.0174550649
 41
0.7853981634
 42
3.0717794835
  0
ELLIPSE
  5
4D4
100
AcDbEntity
  8
RACCORDO
100
AcDbEllipse
 62
7
  6
CONTINUOUS
 10
14.2312370938
 20
-0.0
 30
0.0
 11
0.0
 21
398.5
 31
0.0
 40
0.0699268119
 41
-4.6750280125
 42
-4.6601317314
  0
ELLIPSE
  5
4D5
100
AcDbEntity
  8
RACCORDO
100
AcDbEllipse
 62
7
  6
CONTINUOUS
 10
14.2312370938
 20
-0.0
 30
0.0
 11
-0.0
 21
398.5
 31
0.0
 40
0.0699268119
 41
1.5432300824
 42
1.593341661
  0
ELLIPSE
  5
4D6
100
AcDbEntity
  8
DRAFT
100
AcDbEllipse
 62
7
  6
CONTINUOUS
 10
12.5389986151
 20
-15.4198202597
 30
0.0
 11
0.5
 21
0.0
 31
0.0
 40
0.0174550649
 41
-2.3561944902
 42
-0.0698131701
  0
ELLIPSE
  5
4D7
100
AcDbEntity
  8
RACCORDO
100
AcDbEllipse
 62
7
  6
CONTINUOUS
 10
-14.2312370938
 20
-0.0
 30
0.0
 11
0.0
 21
398.5
 31
0.0
 40
0.0699268119
 41
-1.6230535757
 42
-1.6081572947
  0
ELLIPSE
  5
4D8
100
AcDbEntity
  8
RACCORDO
100
AcDbEllipse
 62
7
  6
CONTINUOUS
 10
-14.2312370938
 20
-0.0
 30
0.0
 11
-0.0
 21
398.5
 31
0.0
 40
0.0699268119
 41
-1.5770830837
 42
-1.5758549029
  0
ELLIPSE
  5
4D9
100
AcDbEntity
  8
RACCORDO
100
AcDbEllipse
 62
7
  6
CONTINUOUS
 10
-14.2312370938
 20
0.0
 30
0.0
 11
0.0
 21
398.5
 31
0.0
 40
0.0699268119
 41
-1.5411212329
 42
-1.5378482511
  0
ELLIPSE
  5
4DA
100
AcDbEntity
  8
DRAFT
100
AcDbEllipse
 62
7
  6
CONTINUOUS
 10
-12.5389986151
 20
-15.4198202597
 30
0.0
 11
0.5
 21
0.0
 31
0.0
 40
0.0174550649
 41
-3.0717794835
 42
-0.7853981634
  0
ELLIPSE
  5
4DB
100
AcDbEntity
  8
RACCORDO
100
AcDbEllipse
 62
7
  6
CONTINUOUS
 10
28.2498476139
 20
38.2498476139
 30
0.0
 11
0.1769921362
 21
0.1769921361
 31
0.0
 40
0.998782766
 41
-0.7847891758
 42
0.7847891758
  0
ELLIPSE
  5
4DC
100
AcDbEntity
  8
RACCORDO
100
AcDbEllipse
 62
7
  6
CONTINUOUS
 10
28.2498476139
 20
-38.2498476139
 30
0.0
 11
0.1769921361
 21
-0.1769921362
 31
0.0
 40
0.998782766
 41
-0.7847891758
 42
0.7847891758
  0
ELLIPSE
  5
4DD
100
AcDbEntity
  8
DRAFT
100
AcDbEllipse
 62
7
  6
CONTINUOUS
 10
-10.3216814864
 20
-37.6429495076
 30
0.0
 11
0.0
 21
0.5
 31
0.0
 40
0.0174550649
 41
-3.1066860685
 42
-2.5371805977
  0
ELLIPSE
  5
4DE
100
AcDbEntity
  8
DRAFT
100
AcDbEllipse
 62
7
  6
CONTINUOUS
 10
10.3216814864
 20
-37.6429495076
 30
0.0
 11
-0.0
 21
0.5
 31
0.0
 40
0.0174550649
 41
-3.7460047095
 42
-3.1764992386
  0
ELLIPSE
  5
4DF
100
AcDbEntity
  8
DRAFT
100
AcDbEllipse
 62
7
  6
CONTINUOUS
 10
10.3216814864
 20
37.6429495076
 30
0.0
 11
0.0
 21
0.5
 31
0.0
 40
0.0174550649
 41
0.034906585
 42
0.6044120559
  0
ELLIPSE
  5
4E0
100
AcDbEntity
  8
DRAFT
100
AcDbEllipse
 62
7
  6
CONTINUOUS
 10
-10.3216814864
 20
37.6429495076
 30
0.0
 11
-0.0
 21
0.5
 31
0.0
 40
0.0174550649
 41
-0.6044120559
 42
-0.034906585
  0
ENDSEC
  0
SECTION
  2
OBJECTS
  0
DICTIONARY
  5
C
100
AcDbDictionary
280
0
281
1
  3
ACAD_GROUP
350
D
  3
ACAD_MLINESTYLE
350
17
  3
ACAD_LAYOUT
350
1A
  3
ACAD_PLOTSETTINGS
350
19
  3
ACAD_PLOTSTYLENAME
350
E
  0
DICTIONARY
  5
D
102
{ACAD_REACTORS
330
C
102
}
100
AcDbDictionary
280
0
281
1
  0
ACDBDICTIONARYWDFLT
  5
E
102
{ACAD_REACTORS
330
C
102
}
100
AcDbDictionary
281
1
  3
Normal
350
F
100
AcDbDictionaryWithDefault
340
F
  0
DICTIONARY
  5
17
102
{ACAD_REACTORS
330
C
102
}
100
AcDbDictionary
280
0
281
1
  3
Standard
350
18
  0
DICTIONARY
  5
19
102
{ACAD_REACTORS
330
C
102
}
100
AcDbDictionary
281
1
  0
DICTIONARY
  5
1A
102
{ACAD_REACTORS
330
C
102
}
100
AcDbDictionary
281
1
  3
Model
350
4E1
  3
Layout1
350
4E2
  0
ACDBPLACEHOLDER
  5
F
102
{ACAD_REACTORS
330
E
102
}
  0
MLINESTYLE
  5
18
102
{ACAD_REACTORS
330
17
102
}
100
AcDbMlineStyle
  2
STANDARD
 70
0
  3

 62
256
 51
90.0
 52
90.0
 71
2
 49
0.5
 62
256
  6
BYLAYER
 49
-0.5
 62
256
  6
BYLAYER
  0
LAYOUT
  5
4E1
102
{ACAD_REACTORS
330
1A
102
}
100
AcDbPlotSettings
  1

  2
none_device
  4
ISO_A4_(297.00_x_210.00_MM)
  6

 40
0.0
 41
0.0
 42
0.0
 43
0.0
 44
297.0
 45
210.0
 46
0.0
 47
0.0
 48
0.0
 49
0.0
140
0.0
141
0.0
142
1.0
143
1.0
 70
1024
 72
1
 73
0
 74
0
  7

 75
0
147
1.0
148
0.0
149
0.0
100
AcDbLayout
  1
Model
 70
0
 71
0
 10
0.0
 20
0.0
 11
297.0
 21
210.0
 12
0.0
 22
0.0
 32
0.0
 14
0.0
 24
0.0
 34
0.0
 15
0.0
 25
0.0
 35
0.0
146
0.0
 13
0.0
 23
0.0
 33
0.0
 16
1.0
 26
0.0
 36
0.0
 17
0.0
 27
1.0
 37
0.0
 76
0
330
20F
345
0
346
0
  0
LAYOUT
  5
4E2
102
{ACAD_REACTORS
330
1A
102
}
100
AcDbPlotSettings
  1

  2
none_device
  4
ISO_A4_(297.00_x_210.00_MM)
  6

 40
0.0
 41
0.0
 42
0.0
 43
0.0
 44
297.0
 45
210.0
 46
0.0
 47
0.0
 48
0.0
 49
0.0
140
0.0
141
0.0
142
1.0
143
1.0
 70
0
 72
1
 73
0
 74
0
  7

 75
0
147
1.0
148
0.0
149
0.0
100
AcDbLayout
  1
Layout1
 70
0
 71
1
 10
0.0
 20
0.0
 11
297.0
 21
210.0
 12
0.0
 22
0.0
 32
0.0
 14
0.0
 24
0.0
 34
0.0
 15
0.0
 25
0.0
 35
0.0
146
0.0
 13
0.0
 23
0.0
 33
0.0
 16
1.0
 26
0.0
 36
0.0
 17
0.0
 27
1.0
 37
0.0
 76
0
330
210
345
0
346
0
  0
ENDSEC
  0
EOF
