  0
SECTION
  2
HEADER
  9
$ACADVER
  1
AC1015
  9
$DWGCODEPAGE
  3
ANSI_1252
  9
$EXTMAX
 10
297.0
 20
210.0
 30
0.0
  9
$EXTMIN
 10
0.0
 20
0.0
 30
0.0
  9
$LIMMIN
 10
0.0
 20
0.0
  9
$LIMMAX
 10
297.0
 20
210.0
  9
$VIEWCTR
 10
148.5
 20
105.0
  9
$VIEWSIZE
 40
210.0
  9
$CLAYER
  8
0
  9
$LTSCALE
 40
16.335
  9
$CELTYPE
  6
BYLAYER
  9
$DIMSCALE
 40
1.0
  9
$DIMASZ
 40
3.0
  9
$DIMEXO
 40
1.85625
  9
$DIMDLI
 40
11.286
  9
$DIMEXE
 40
5.346
  9
$DIMCEN
 40
2.673
  9
$DIMLFAC
 40
1.0
  9
$DIMBLK
  1
_FILLED
  9
$DIMTXT
 40
3.0
  9
$DIMTOL
 70
1
  9
$DIMLIM
 70
0
  9
$DIMTFAC
 40
1.0
  9
$DIMTP
 40
0.01
  9
$DIMTM
 40
0.01
  9
$PDMODE
 70
3
  9
$PDSIZE
 40
3.0
  9
$HANDSEED
  5
4C9
  9
$TILEMODE
 70
1
  9
$MEASUREMENT
 70
1
  9
$INSUNITS
 70
4
  0
ENDSEC
  0
SECTION
  2
CLASSES
  0
CLASS
  1
ACDBDICTIONARYWDFLT
  2
AcDbDictionaryWithDefault
  3
AutoCAD 2000
 90
0
280
0
281
0
  0
CLASS
  1
ACDBPLACEHOLDER
  2
AcDbPlaceHolder
  3
AutoCAD 2000
 90
0
280
0
281
0
  0
CLASS
  1
LAYOUT
  2
AcDbLayout
  3
AutoCAD 2000
 90
0
280
0
281
0
  0
ENDSEC
  0
SECTION
  2
TABLES
  0
TABLE
  2
VPORT
  5
8
100
AcDbSymbolTable
 70
2
  0
VPORT
  5
1F4
100
AcDbSymbolTableRecord
100
AcDbViewportTableRecord
  2
*ACTIVE
 70
0
 10
0.0
 20
0.0
 11
1.0
 21
1.0
 12
148.5
 22
105.0
 13
0.0
 23
0.0
 14
1.0
 24
1.0
 15
0.0
 25
0.0
 16
0.0
 26
0.0
 36
1.0
 17
0.0
 27
0.0
 37
0.0
 40
210.0
 41
1.4142857143
 42
50.0
 43
0.0
 44
0.0
 50
0.0
 51
0.0
 71
0
 72
100
 73
1
 74
1
 75
0
 76
0
 77
0
 78
0
  0
ENDTAB
  0
TABLE
  2
LTYPE
  5
5
100
AcDbSymbolTable
 70
6
  0
LTYPE
  5
14
100
AcDbSymbolTableRecord
100
AcDbLinetypeTableRecord
  2
BYBLOCK
 70
0
  3

 72
65
 73
0
 40
0.0
  0
LTYPE
  5
15
100
AcDbSymbolTableRecord
100
AcDbLinetypeTableRecord
  2
BYLAYER
 70
0
  3

 72
65
 73
0
 40
0.0
  0
LTYPE
  5
16
100
AcDbSymbolTableRecord
100
AcDbLinetypeTableRecord
  2
CONTINUOUS
 70
64
  3
Solid line
 72
65
 73
0
 40
0.0
  0
LTYPE
  5
1F5
100
AcDbSymbolTableRecord
100
AcDbLinetypeTableRecord
  2
CENTER
 70
64
  3
____ _ ____ _ ____ _ ____ _ ____ _ ____ _ ____
 72
65
 73
4
 40
0.6
 49
0.375
 74
0
 49
-0.075
 74
0
 49
0.075
 74
0
 49
-0.075
 74
0
  0
LTYPE
  5
1F6
100
AcDbSymbolTableRecord
100
AcDbLinetypeTableRecord
  2
HIDDEN
 70
64
  3
- - - - - - - - - - - - - - - - - - - -
 72
65
 73
2
 40
0.2
 49
0.1
 74
0
 49
-0.1
 74
0
  0
LTYPE
  5
1F7
100
AcDbSymbolTableRecord
100
AcDbLinetypeTableRecord
  2
PHANTOM
 70
64
  3
_____ _ _ _____ _ _ _____ _ _ _____
 72
65
 73
6
 40
0.8
 49
0.45
 74
0
 49
-0.05
 74
0
 49
0.1
 74
0
 49
-0.05
 74
0
 49
0.1
 74
0
 49
-0.05
 74
0
  0
LTYPE
  5
1F8
100
AcDbSymbolTableRecord
100
AcDbLinetypeTableRecord
  2
DOT
 70
64
  3
. . . . . . . . . . . . . . . . . . . .
 72
65
 73
2
 40
0.2
 49
0.1
 74
0
 49
-0.1
 74
0
  0
LTYPE
  5
1F9
100
AcDbSymbolTableRecord
100
AcDbLinetypeTableRecord
  2
DASHED
 70
64
  3
- - - - - - - - - - - - - - - - - - - -
 72
65
 73
2
 40
0.2
 49
0.1
 74
0
 49
-0.1
 74
0
  0
ENDTAB
  0
TABLE
  2
LAYER
  5
2
100
AcDbSymbolTable
 70
36
  0
LAYER
  5
10
100
AcDbSymbolTableRecord
100
AcDbLayerTableRecord
  2
0
 70
0
 62
7
  6
CONTINUOUS
370
-3
390
F
  0
LAYER
  5
1FA
100
AcDbSymbolTableRecord
100
AcDbLayerTableRecord
  2
DEFAULT_1
 70
0
 62
7
  6
CENTER
370
-3
390
F
  0
LAYER
  5
1FB
100
AcDbSymbolTableRecord
100
AcDbLayerTableRecord
  2
DEFAULT_2
 70
0
 62
7
  6
HIDDEN
370
-3
390
F
  0
LAYER
  5
1FC
100
AcDbSymbolTableRecord
100
AcDbLayerTableRecord
  2
DEFAULT_3
 70
0
 62
7
  6
PHANTOM
370
-3
390
F
  0
LAYER
  5
1FD
100
AcDbSymbolTableRecord
100
AcDbLayerTableRecord
  2
ASSI
 70
0
 62
7
  6
CONTINUOUS
370
-3
390
F
  0
LAYER
  5
1FE
100
AcDbSymbolTableRecord
100
AcDbLayerTableRecord
  2
COLORE
 70
0
 62
7
  6
CONTINUOUS
370
-3
390
F
  0
LAYER
  5
1FF
100
AcDbSymbolTableRecord
100
AcDbLayerTableRecord
  2
COORDINATE
 70
0
 62
7
  6
CONTINUOUS
370
-3
390
F
  0
LAYER
  5
200
100
AcDbSymbolTableRecord
100
AcDbLayerTableRecord
  2
COORD_ORIGINE
 70
0
 62
7
  6
CONTINUOUS
370
-3
390
F
  0
LAYER
  5
201
100
AcDbSymbolTableRecord
100
AcDbLayerTableRecord
  2
CURVE
 70
0
 62
7
  6
CONTINUOUS
370
-3
390
F
  0
LAYER
  5
202
100
AcDbSymbolTableRecord
100
AcDbLayerTableRecord
  2
DRAFT
 70
0
 62
7
  6
CONTINUOUS
370
-3
390
F
  0
LAYER
  5
203
100
AcDbSymbolTableRecord
100
AcDbLayerTableRecord
  2
IGES_SCRITTE
 70
0
 62
7
  6
CONTINUOUS
370
-3
390
F
  0
LAYER
  5
204
100
AcDbSymbolTableRecord
100
AcDbLayerTableRecord
  2
IMPORT
 70
0
 62
7
  6
CONTINUOUS
370
-3
390
F
  0
LAYER
  5
205
100
AcDbSymbolTableRecord
100
AcDbLayerTableRecord
  2
INTF_1
 70
0
 62
7
  6
CONTINUOUS
370
-3
390
F
  0
LAYER
  5
206
100
AcDbSymbolTableRecord
100
AcDbLayerTableRecord
  2
INTF_RED
 70
0
 62
7
  6
CONTINUOUS
370
-3
390
F
  0
LAYER
  5
207
100
AcDbSymbolTableRecord
100
AcDbLayerTableRecord
  2
INTF_YELLOW
 70
0
 62
7
  6
CONTINUOUS
370
-3
390
F
  0
LAYER
  5
208
100
AcDbSymbolTableRecord
100
AcDbLayerTableRecord
  2
NOTE
 70
0
 62
7
  6
CONTINUOUS
370
-3
390
F
  0
LAYER
  5
209
100
AcDbSymbolTableRecord
100
AcDbLayerTableRecord
  2
PIANI
 70
0
 62
7
  6
CONTINUOUS
370
-3
390
F
  0
LAYER
  5
20A
100
AcDbSymbolTableRecord
100
AcDbLayerTableRecord
  2
PIANI_DI_RIFERIMENTO
 70
0
 62
7
  6
CONTINUOUS
370
-3
390
F
  0
LAYER
  5
20B
100
AcDbSymbolTableRecord
100
AcDbLayerTableRecord
  2
PIANI_ORIGINE
 70
0
 62
7
  6
CONTINUOUS
370
-3
390
F
  0
LAYER
  5
20C
100
AcDbSymbolTableRecord
100
AcDbLayerTableRecord
  2
PUNTI
 70
0
 62
7
  6
CONTINUOUS
370
-3
390
F
  0
LAYER
  5
20D
100
AcDbSymbolTableRecord
100
AcDbLayerTableRecord
  2
RACCORDO
 70
0
 62
7
  6
CONTINUOUS
370
-3
390
F
  0
LAYER
  5
20E
100
AcDbSymbolTableRecord
100
AcDbLayerTableRecord
  2
RGB____0____0____0__
 70
0
 62
7
  6
CONTINUOUS
370
-3
390
F
  0
LAYER
  5
20F
100
AcDbSymbolTableRecord
100
AcDbLayerTableRecord
  2
SMUSSO
 70
0
 62
7
  6
CONTINUOUS
370
-3
390
F
  0
LAYER
  5
210
100
AcDbSymbolTableRecord
100
AcDbLayerTableRecord
  2
SNAPLINE
 70
0
 62
7
  6
CONTINUOUS
370
-3
390
F
  0
LAYER
  5
211
100
AcDbSymbolTableRecord
100
AcDbLayerTableRecord
  2
SUPERFICI
 70
0
 62
7
  6
CONTINUOUS
370
-3
390
F
  0
LAYER
  5
212
100
AcDbSymbolTableRecord
100
AcDbLayerTableRecord
  2
SUP_COSTRUZIONE
 70
0
 62
7
  6
CONTINUOUS
370
-3
390
F
  0
LAYER
  5
213
100
AcDbSymbolTableRecord
100
AcDbLayerTableRecord
  2
TRASH
 70
0
 62
7
  6
CONTINUOUS
370
-3
390
F
  0
LAYER
  5
214
100
AcDbSymbolTableRecord
100
AcDbLayerTableRecord
  2
XSEC_DATUMS
 70
0
 62
7
  6
CONTINUOUS
370
-3
390
F
  0
ENDTAB
  0
TABLE
  2
STYLE
  5
3
100
AcDbSymbolTable
 70
1
  0
STYLE
  5
11
100
AcDbSymbolTableRecord
100
AcDbTextStyleTableRecord
  2
STANDARD
 70
0
 40
0.0
 41
0.8
 50
0.0
 71
0
 42
0.2
  3
txt
  4

  0
STYLE
  5
215
100
AcDbSymbolTableRecord
100
AcDbTextStyleTableRecord
  2
TEXTSTYLE_1
 70
0
 40
0.0
 41
0.8
 50
0.0
 71
0
 42
0.2
  3
gdt
  4

  0
ENDTAB
  0
TABLE
  2
VIEW
  5
6
100
AcDbSymbolTable
 70
0
  0
ENDTAB
  0
TABLE
  2
UCS
  5
7
100
AcDbSymbolTable
 70
0
  0
ENDTAB
  0
TABLE
  2
APPID
  5
9
100
AcDbSymbolTable
 70
1
  0
APPID
  5
216
100
AcDbSymbolTableRecord
100
AcDbRegAppTableRecord
  2
ACAD
 70
0
  0
ENDTAB
  0
TABLE
  2
BLOCK_RECORD
  5
1
100
AcDbSymbolTable
 70
0
  0
BLOCK_RECORD
  5
217
100
AcDbSymbolTableRecord
100
AcDbBlockTableRecord
  2
*Model_Space
  0
BLOCK_RECORD
  5
218
100
AcDbSymbolTableRecord
100
AcDbBlockTableRecord
  2
*Paper_Space
  0
ENDTAB
  0
TABLE
  2
DIMSTYLE
  5
A
100
AcDbSymbolTable
 70
1
100
AcDbDimStyleTable
 71
0
  0
DIMSTYLE
105
219
100
AcDbSymbolTableRecord
100
AcDbDimStyleTableRecord
  2
STANDARD
 70
0
  3

  4

 40
1.0
 41
3.0
 42
0.0625
 43
0.38
 44
0.18
 45
0.0
 46
0.0
 47
0.01
 48
0.01
140
3.0
141
0.09
142
0.0
143
25.4
144
1.0
145
0.0
146
1.0
147
0.09
 71
1.0
 72
0.0
 73
0
 74
0
 75
0
 76
0
 77
1
 78
8
170
0
171
2
172
0
173
0
174
0
175
0
176
0
177
0
178
0
270
2
271
2
272
2
273
2
274
2
275
0
280
0
281
0
282
0
283
1
284
8
285
0
286
0
287
3
288
0
340
11
  0
ENDTAB
  0
ENDSEC
  0
SECTION
  2
BLOCKS
  0
BLOCK
  5
20
100
AcDbEntity
  8
0
100
AcDbBlockBegin
  2
*Model_Space
 70
0
 10
0.0
 20
0.0
 30
0.0
  3
*Model_Space
  1

  0
ENDBLK
  5
21
100
AcDbEntity
  8
0
100
AcDbBlockEnd
  0
BLOCK
  5
1C
100
AcDbEntity
  8
0
100
AcDbBlockBegin
  2
*Paper_Space
 70
0
 10
0.0
 20
0.0
 30
0.0
  3
*Paper_Space
  1

  0
ENDBLK
  5
1D
100
AcDbEntity
  8
0
100
AcDbBlockEnd
  0
ENDSEC
  0
SECTION
  2
ENTITIES
  0
LINE
  5
21A
100
AcDbEntity
  8
RACCORDO
100
AcDbLine
 62
7
  6
CONTINUOUS
 10
11.2986276046
 20
-57.0
 11
10.7745498612
 21
-57.0
  0
LINE
  5
21B
100
AcDbEntity
  8
DRAFT
100
AcDbLine
 62
7
  6
CONTINUOUS
 10
-8.5314191169
 20
-57.0
 11
-8.45
 21
-57.0
  0
LINE
  5
21C
100
AcDbEntity
  8
RACCORDO
100
AcDbLine
 62
7
  6
CONTINUOUS
 10
10.7221420819
 20
-57.0
 11
8.5314191169
 21
-57.0
  0
LINE
  5
21D
100
AcDbEntity
  8
0
100
AcDbLine
 62
7
  6
CONTINUOUS
 10
8.45
 20
-57.0
 11
-8.45
 21
-57.0
  0
LINE
  5
21E
100
AcDbEntity
  8
DRAFT
100
AcDbLine
 62
7
  6
CONTINUOUS
 10
8.45
 20
-57.0
 11
8.5314191169
 21
-57.0
  0
LINE
  5
21F
100
AcDbEntity
  8
RACCORDO
100
AcDbLine
 62
7
  6
CONTINUOUS
 10
-8.5314191169
 20
-57.0
 11
-10.7221420819
 21
-57.0
  0
LINE
  5
220
100
AcDbEntity
  8
RACCORDO
100
AcDbLine
 62
7
  6
CONTINUOUS
 10
-10.7745498612
 20
-57.0
 11
-11.2986276046
 21
-57.0
  0
LINE
  5
221
100
AcDbEntity
  8
DRAFT
100
AcDbLine
 62
7
  6
CONTINUOUS
 10
0.75
 20
-56.5
 11
8.45
 21
-56.5
  0
LINE
  5
222
100
AcDbEntity
  8
ASSI
100
AcDbLine
 62
7
  6
CONTINUOUS
 10
0.75
 20
-56.5
 11
-6.75
 21
-56.5
  0
LINE
  5
223
100
AcDbEntity
  8
DRAFT
100
AcDbLine
 62
7
  6
CONTINUOUS
 10
-6.75
 20
-56.5
 11
-8.45
 21
-56.5
  0
LINE
  5
224
100
AcDbEntity
  8
DRAFT
100
AcDbLine
 62
7
  6
CONTINUOUS
 10
-8.45
 20
-56.0591825482
 11
-7.2350029128
 21
-56.0591825482
  0
LINE
  5
225
100
AcDbEntity
  8
SMUSSO
100
AcDbLine
 62
7
  6
CONTINUOUS
 10
-6.4960492755
 20
-56.0591825482
 11
0.4960492755
 21
-56.0591825482
  0
LINE
  5
226
100
AcDbEntity
  8
DRAFT
100
AcDbLine
 62
7
  6
CONTINUOUS
 10
1.2350029128
 20
-56.0591825482
 11
8.45
 21
-56.0591825482
  0
LINE
  5
227
100
AcDbEntity
  8
RACCORDO
100
AcDbLine
 62
253
  6
CONTINUOUS
 10
12.3
 20
-56.0
 11
11.7731793959
 21
-56.0
  0
LINE
  5
228
100
AcDbEntity
  8
RACCORDO
100
AcDbLine
 62
253
  6
CONTINUOUS
 10
-11.7731793959
 20
-56.0
 11
-12.3
 21
-56.0
  0
LINE
  5
229
100
AcDbEntity
  8
DRAFT
100
AcDbLine
 62
7
  6
CONTINUOUS
 10
-8.5
 20
-55.2
 11
8.5
 21
-55.2
  0
LINE
  5
22A
100
AcDbEntity
  8
DRAFT
100
AcDbLine
 62
7
  6
CONTINUOUS
 10
-10.3
 20
-54.2
 11
-8.25
 21
-54.2
  0
LINE
  5
22B
100
AcDbEntity
  8
DRAFT
100
AcDbLine
 62
7
  6
CONTINUOUS
 10
10.3
 20
-54.2
 11
8.25
 21
-54.2
  0
LINE
  5
22C
100
AcDbEntity
  8
DRAFT
100
AcDbLine
 62
7
  6
CONTINUOUS
 10
8.25
 20
-53.7
 11
8.5534920769
 21
-53.7
  0
LINE
  5
22D
100
AcDbEntity
  8
DRAFT
100
AcDbLine
 62
7
  6
CONTINUOUS
 10
-8.25
 20
-53.7
 11
-8.5534920769
 21
-53.7
  0
LINE
  5
22E
100
AcDbEntity
  8
DRAFT
100
AcDbLine
 62
7
  6
CONTINUOUS
 10
10.2057518376
 20
-53.7
 11
10.3
 21
-53.7
  0
LINE
  5
22F
100
AcDbEntity
  8
DRAFT
100
AcDbLine
 62
7
  6
CONTINUOUS
 10
-10.2057518376
 20
-53.7
 11
-10.3
 21
-53.7
  0
LINE
  5
230
100
AcDbEntity
  8
RACCORDO
100
AcDbLine
 62
253
  6
CONTINUOUS
 10
10.2127283518
 20
-51.7013840161
 11
8.5534920769
 21
-51.7013840161
  0
LINE
  5
231
100
AcDbEntity
  8
RACCORDO
100
AcDbLine
 62
253
  6
CONTINUOUS
 10
-8.5534920769
 20
-51.7013840161
 11
-10.2127283518
 21
-51.7013840161
  0
LINE
  5
232
100
AcDbEntity
  8
RACCORDO
100
AcDbLine
 62
7
  6
CONTINUOUS
 10
-1.5
 20
-50.0
 11
1.5
 21
-50.0
  0
LINE
  5
233
100
AcDbEntity
  8
RACCORDO
100
AcDbLine
 62
253
  6
CONTINUOUS
 10
10.2196036349
 20
-49.73176851
 11
8.61120576
 21
-49.73176851
  0
LINE
  5
234
100
AcDbEntity
  8
RACCORDO
100
AcDbLine
 62
253
  6
CONTINUOUS
 10
-8.61120576
 20
-49.73176851
 11
-10.2196036349
 21
-49.73176851
  0
LINE
  5
235
100
AcDbEntity
  8
DRAFT
100
AcDbLine
 62
7
  6
CONTINUOUS
 10
-10.3
 20
-49.5
 11
-8.25
 21
-49.5
  0
LINE
  5
236
100
AcDbEntity
  8
DRAFT
100
AcDbLine
 62
7
  6
CONTINUOUS
 10
10.3
 20
-49.5
 11
8.25
 21
-49.5
  0
LINE
  5
237
100
AcDbEntity
  8
RACCORDO
100
AcDbLine
 62
7
  6
CONTINUOUS
 10
1.5
 20
-46.5
 11
-1.5
 21
-46.5
  0
LWPOLYLINE
  5
238
100
AcDbEntity
  8
RACCORDO
100
AcDbPolyline
 62
7
  6
CONTINUOUS
 90
21
 70
0
 10
15.6641357359
 20
-37.4552656928
 10
15.8963957489
 20
-37.3979296046
 10
16.1808082758
 20
-37.322868924
 10
16.4487089487
 20
-37.246460328
 10
16.7001763079
 20
-37.1687168686
 10
16.9356331592
 20
-37.0895362705
 10
17.1560688256
 20
-37.0085776849
 10
17.3616271912
 20
-36.9257352556
 10
17.5530294362
 20
-36.84062356
 10
17.7323659875
 20
-36.7520285908
 10
17.899744146
 20
-36.659415682
 10
18.0556241699
 20
-36.5619132934
 10
18.2024839193
 20
-36.4568311395
 10
18.3404346823
 20
-36.342147339
 10
18.4678660437
 20
-36.2167177975
 10
18.5838310412
 20
-36.0782944592
 10
18.6873203915
 20
-35.923113059
 10
18.7732782542
 20
-35.7521346605
 10
18.8358407992
 20
-35.5720142553
 10
18.8730217269
 20
-35.3867776877
 10
18.8826272372
 20
-35.2798217276
  0
LINE
  5
239
100
AcDbEntity
  8
RACCORDO
100
AcDbLine
 62
7
  6
CONTINUOUS
 10
15.6643093381
 20
-37.4552245232
 11
13.3417393047
 21
-38.0123860009
  0
LINE
  5
23A
100
AcDbEntity
  8
RACCORDO
100
AcDbLine
 62
7
  6
CONTINUOUS
 10
15.6643093302
 20
-37.455224525
 11
15.664135839
 21
-37.4552661216
  0
LINE
  5
23B
100
AcDbEntity
  8
RACCORDO
100
AcDbLine
 62
7
  6
CONTINUOUS
 10
-7.75
 20
-42.75
 11
-2.75
 21
-42.75
  0
LINE
  5
23C
100
AcDbEntity
  8
RACCORDO
100
AcDbLine
 62
7
  6
CONTINUOUS
 10
-15.6643093383
 20
-37.4552245231
 11
-13.3417222173
 21
-38.0123900949
  0
LINE
  5
23D
100
AcDbEntity
  8
RACCORDO
100
AcDbLine
 62
7
  6
CONTINUOUS
 10
-15.6643093383
 20
-37.4552245231
 11
-15.6641496977
 21
-37.4552628004
  0
LWPOLYLINE
  5
23E
100
AcDbEntity
  8
RACCORDO
100
AcDbPolyline
 62
7
  6
CONTINUOUS
 90
6
 70
0
 10
-13.3417224637
 20
-38.0123911192
 10
-13.1030569095
 20
-38.0718612318
 10
-12.8345716319
 20
-38.1448437083
 10
-12.6015028389
 20
-38.2148007179
 10
-12.401481005
 20
-38.2812747758
 10
-12.3
 20
-38.318751902
  0
LINE
  5
23F
100
AcDbEntity
  8
RACCORDO
100
AcDbLine
 62
253
  6
CONTINUOUS
 10
13.9734999511
 20
-37.0922638975
 11
16.2958760014
 21
-36.5351489263
  0
LINE
  5
240
100
AcDbEntity
  8
0
100
AcDbLine
 62
253
  6
CONTINUOUS
 10
-8.9317300106
 20
-39.5683685732
 11
-9.0
 21
-39.5791152481
  0
LINE
  5
241
100
AcDbEntity
  8
0
100
AcDbLine
 62
7
  6
CONTINUOUS
 10
-3.0649304471
 20
-36.3249077818
 11
-3.0872760498
 21
-36.3253360301
  0
LINE
  5
242
100
AcDbEntity
  8
0
100
AcDbLine
 62
7
  6
CONTINUOUS
 10
-3.0649304471
 20
-36.1229422673
 11
-3.2974756007
 21
-36.1273989415
  0
LINE
  5
243
100
AcDbEntity
  8
0
100
AcDbLine
 62
7
  6
CONTINUOUS
 10
-1.3340542635
 20
-36.2532992265
 11
-1.1041516679
 21
-36.2506994954
  0
LINE
  5
244
100
AcDbEntity
  8
0
100
AcDbLine
 62
7
  6
CONTINUOUS
 10
-4.5341933045
 20
-36.3241650182
 11
-4.5770687744
 21
-36.3246235006
  0
LINE
  5
245
100
AcDbEntity
  8
0
100
AcDbLine
 62
7
  6
CONTINUOUS
 10
-4.5341933045
 20
-36.1221995037
 11
-4.7773087251
 21
-36.1247992218
  0
LINE
  5
246
100
AcDbEntity
  8
0
100
AcDbLine
 62
253
  6
CONTINUOUS
 10
-8.9313313185
 20
-39.5865736685
 11
-0.75
 21
-39.5865736685
  0
LINE
  5
247
100
AcDbEntity
  8
0
100
AcDbLine
 62
253
  6
CONTINUOUS
 10
-9.0
 20
-37.2035077587
 11
-0.75
 21
-37.2035077587
  0
LINE
  5
248
100
AcDbEntity
  8
0
100
AcDbLine
 62
7
  6
CONTINUOUS
 10
-4.758811
 20
-36.5169150832
 11
-5.696919
 21
-36.5169150832
  0
LINE
  5
249
100
AcDbEntity
  8
0
100
AcDbLine
 62
7
  6
CONTINUOUS
 10
-4.758811
 20
-36.3149495687
 11
-5.696919
 21
-36.3149495687
  0
LINE
  5
24A
100
AcDbEntity
  8
0
100
AcDbLine
 62
7
  6
CONTINUOUS
 10
-5.696919
 20
-36.2837530169
 11
-4.94412
 21
-36.2837530169
  0
LINE
  5
24B
100
AcDbEntity
  8
0
100
AcDbLine
 62
7
  6
CONTINUOUS
 10
-4.795806968
 20
-36.1738223983
 11
-4.576474
 21
-36.1782789475
  0
LINE
  5
24C
100
AcDbEntity
  8
0
100
AcDbLine
 62
7
  6
CONTINUOUS
 10
-3.3212587346
 20
-36.24438599
 11
-3.0887135575
 21
-36.2503282015
  0
LINE
  5
24D
100
AcDbEntity
  8
RACCORDO
100
AcDbLine
 62
253
  6
CONTINUOUS
 10
-16.2958760014
 20
-36.5351489263
 11
-13.9734999542
 21
-37.0922638968
  0
LINE
  5
24E
100
AcDbEntity
  8
0
100
AcDbLine
 62
7
  6
CONTINUOUS
 10
-1.657051888
 20
-35.3276502049
 11
-3.117556
 21
-35.3276502049
  0
LINE
  5
24F
100
AcDbEntity
  8
0
100
AcDbLine
 62
7
  6
CONTINUOUS
 10
-3.117556
 20
-35.2222445789
 11
-1.657055
 21
-35.2222445789
  0
LINE
  5
250
100
AcDbEntity
  8
ASSI
100
AcDbLine
 62
7
  6
CONTINUOUS
 10
-1.894767
 20
-33.9169184953
 11
-2.454816
 21
-33.9169184953
  0
LINE
  5
251
100
AcDbEntity
  8
ASSI
100
AcDbLine
 62
7
  6
CONTINUOUS
 10
-3.727192
 20
-33.9169184953
 11
-5.0385877422
 21
-33.9169185021
  0
LINE
  5
252
100
AcDbEntity
  8
0
100
AcDbLine
 62
7
  6
CONTINUOUS
 10
-1.894767
 20
-33.7149529808
 11
-2.454816
 21
-33.7149529808
  0
LINE
  5
253
100
AcDbEntity
  8
0
100
AcDbLine
 62
7
  6
CONTINUOUS
 10
-3.727192
 20
-33.7149529808
 11
-5.038572
 21
-33.7149533321
  0
LINE
  5
254
100
AcDbEntity
  8
0
100
AcDbLine
 62
7
  6
CONTINUOUS
 10
-4.960842
 20
-33.6421498771
 11
-4.279492
 21
-33.6421498771
  0
LINE
  5
255
100
AcDbEntity
  8
0
100
AcDbLine
 62
7
  6
CONTINUOUS
 10
-4.279499
 20
-33.5463861955
 11
-4.960842
 21
-33.5463859145
  0
LINE
  5
256
100
AcDbEntity
  8
0
100
AcDbLine
 62
7
  6
CONTINUOUS
 10
-4.776058
 20
-33.473582108
 11
-4.287283
 21
-33.4735830918
  0
LINE
  5
257
100
AcDbEntity
  8
0
100
AcDbLine
 62
7
  6
CONTINUOUS
 10
-1.903391
 20
-33.473582108
 11
-2.446199
 21
-33.473582108
  0
LINE
  5
258
100
AcDbEntity
  8
0
100
AcDbLine
 62
7
  6
CONTINUOUS
 10
-2.617027
 20
-33.3988114326
 11
-1.73257
 21
-33.3988114326
  0
LINE
  5
259
100
AcDbEntity
  8
0
100
AcDbLine
 62
7
  6
CONTINUOUS
 10
-3.353847
 20
-33.3214199517
 11
-2.793819
 21
-33.3214209355
  0
LINE
  5
25A
100
AcDbEntity
  8
0
100
AcDbLine
 62
7
  6
CONTINUOUS
 10
-4.28722
 20
-33.3214209355
 11
-3.727192
 21
-33.3214209355
  0
LINE
  5
25B
100
AcDbEntity
  8
0
100
AcDbLine
 62
7
  6
CONTINUOUS
 10
-1.555771
 20
-33.3214209355
 11
-0.99575
 21
-33.3214199517
  0
LINE
  5
25C
100
AcDbEntity
  8
0
100
AcDbLine
 62
7
  6
CONTINUOUS
 10
-5.968046
 20
-33.3214219193
 11
-5.337269
 21
-33.3214209355
  0
LINE
  5
25D
100
AcDbEntity
  8
0
100
AcDbLine
 62
7
  6
CONTINUOUS
 10
-2.25
 20
-32.1742032909
 11
-3.25
 21
-32.1742032909
  0
LINE
  5
25E
100
AcDbEntity
  8
0
100
AcDbLine
 62
7
  6
CONTINUOUS
 10
-0.75
 20
-32.0
 11
-2.9999646991
 21
-32.0
  0
LINE
  5
25F
100
AcDbEntity
  8
ASSI
100
AcDbLine
 62
7
  6
CONTINUOUS
 10
-5.850264566
 20
-33.5553217263
 11
-5.968046
 21
-33.5233874338
  0
LINE
  5
260
100
AcDbEntity
  8
0
100
AcDbLine
 62
7
  6
CONTINUOUS
 10
-5.3719317907
 20
-33.4830474395
 11
-5.968046
 21
-33.3214219193
  0
LINE
  5
261
100
AcDbEntity
  8
0
100
AcDbLine
 62
7
  6
CONTINUOUS
 10
-5.337269
 20
-33.3214209355
 11
-4.776058
 21
-33.473582108
  0
LINE
  5
262
100
AcDbEntity
  8
ASSI
100
AcDbLine
 62
7
  6
CONTINUOUS
 10
-2.454816
 20
-33.9169184953
 11
-3.353847
 21
-33.5233854662
  0
LINE
  5
263
100
AcDbEntity
  8
0
100
AcDbLine
 62
7
  6
CONTINUOUS
 10
-2.454816
 20
-33.7149529808
 11
-3.353847
 21
-33.3214199517
  0
LINE
  5
264
100
AcDbEntity
  8
0
100
AcDbLine
 62
7
  6
CONTINUOUS
 10
-2.446199
 20
-33.473582108
 11
-2.174788
 21
-33.5923880216
  0
LINE
  5
265
100
AcDbEntity
  8
0
100
AcDbLine
 62
7
  6
CONTINUOUS
 10
-2.793819
 20
-33.3214209355
 11
-2.617027
 21
-33.3988114326
  0
LINE
  5
266
100
AcDbEntity
  8
RACCORDO
100
AcDbLine
 62
253
  6
CONTINUOUS
 10
18.0013704652
 20
57.0
 11
16.9827570796
 21
55.9813866144
  0
LINE
  5
267
100
AcDbEntity
  8
0
100
AcDbLine
 62
7
  6
CONTINUOUS
 10
-4.25
 20
-29.5
 11
-0.75
 21
-29.5
  0
LINE
  5
268
100
AcDbEntity
  8
SMUSSO
100
AcDbLine
 62
7
  6
CONTINUOUS
 10
1.05
 20
-29.5
 11
8.95
 21
-29.5
  0
LINE
  5
269
100
AcDbEntity
  8
0
100
AcDbLine
 62
7
  6
CONTINUOUS
 10
-1.8370633139
 20
-28.5
 11
-0.766528155
 21
-28.5
  0
LINE
  5
26A
100
AcDbEntity
  8
RACCORDO
100
AcDbLine
 62
7
  6
CONTINUOUS
 10
-1.8359968032
 20
-28.5
 11
-7.4650137061
 21
-28.5
  0
LINE
  5
26B
100
AcDbEntity
  8
0
100
AcDbLine
 62
7
  6
CONTINUOUS
 10
-9.0
 20
-28.1628295976
 11
-7.9373064341
 21
-28.1628295976
  0
LINE
  5
26C
100
AcDbEntity
  8
RACCORDO
100
AcDbLine
 62
253
  6
CONTINUOUS
 10
-0.8932408896
 20
-28.0087262032
 11
-7.9649375537
 21
-28.0087262032
  0
LINE
  5
26D
100
AcDbEntity
  8
SMUSSO
100
AcDbLine
 62
7
  6
CONTINUOUS
 10
1.05
 20
-28.0
 11
8.95
 21
-28.0
  0
LINE
  5
26E
100
AcDbEntity
  8
SMUSSO
100
AcDbLine
 62
253
  6
CONTINUOUS
 10
10.5
 20
-27.95
 11
9.0
 21
-27.95
  0
LINE
  5
26F
100
AcDbEntity
  8
SMUSSO
100
AcDbLine
 62
253
  6
CONTINUOUS
 10
1.0
 20
-27.95
 11
-0.5
 21
-27.95
  0
LINE
  5
270
100
AcDbEntity
  8
0
100
AcDbLine
 62
7
  6
CONTINUOUS
 10
-3.4641016151
 20
-31.7320508076
 11
-3.0
 21
-32.0
  0
LINE
  5
271
100
AcDbEntity
  8
SMUSSO
100
AcDbLine
 62
7
  6
CONTINUOUS
 10
0.0
 20
-55.2
 11
0.7505553499
 21
-56.5
  0
LINE
  5
272
100
AcDbEntity
  8
RACCORDO
100
AcDbLine
 62
253
  6
CONTINUOUS
 10
19.0
 20
56.0013704652
 11
17.9813866144
 21
54.9827570796
  0
LINE
  5
273
100
AcDbEntity
  8
0
100
AcDbLine
 62
7
  6
CONTINUOUS
 10
9.0
 20
-27.3
 11
7.9773084156
 21
-27.3
  0
LINE
  5
274
100
AcDbEntity
  8
0
100
AcDbLine
 62
7
  6
CONTINUOUS
 10
-7.9773084156
 20
-27.3
 11
-9.0
 21
-27.3
  0
LINE
  5
275
100
AcDbEntity
  8
RACCORDO
100
AcDbLine
 62
7
  6
CONTINUOUS
 10
9.0
 20
-27.1
 11
8.5849105088
 21
-27.1
  0
LINE
  5
276
100
AcDbEntity
  8
RACCORDO
100
AcDbLine
 62
7
  6
CONTINUOUS
 10
-8.5849105088
 20
-27.1
 11
-8.8797494354
 21
-27.1
  0
LINE
  5
277
100
AcDbEntity
  8
RACCORDO
100
AcDbLine
 62
7
  6
CONTINUOUS
 10
-2.75
 20
-26.75
 11
-7.75
 21
-26.75
  0
LINE
  5
278
100
AcDbEntity
  8
RACCORDO
100
AcDbLine
 62
253
  6
CONTINUOUS
 10
9.0
 20
-26.4793693972
 11
8.3139306981
 21
-26.4793693972
  0
LINE
  5
279
100
AcDbEntity
  8
DRAFT
100
AcDbLine
 62
7
  6
CONTINUOUS
 10
7.9949389128
 20
-26.2899494937
 11
8.3118097645
 21
-26.2899494937
  0
LINE
  5
27A
100
AcDbEntity
  8
RACCORDO
100
AcDbLine
 62
253
  6
CONTINUOUS
 10
1.0
 20
-26.2034904813
 11
4.25
 21
-26.2034904813
  0
LINE
  5
27B
100
AcDbEntity
  8
RACCORDO
100
AcDbLine
 62
7
  6
CONTINUOUS
 10
1.0
 20
-26.0
 11
6.1
 21
-26.0
  0
LINE
  5
27C
100
AcDbEntity
  8
RACCORDO
100
AcDbLine
 62
7
  6
CONTINUOUS
 10
6.3701565837
 20
-26.0
 11
8.0
 21
-26.0
  0
LINE
  5
27D
100
AcDbEntity
  8
0
100
AcDbLine
 62
7
  6
CONTINUOUS
 10
2.0500079347
 20
-25.8
 11
3.9817757269
 21
-25.8
  0
LINE
  5
27E
100
AcDbEntity
  8
ASSI
100
AcDbLine
 62
7
  6
CONTINUOUS
 10
6.1
 20
-25.2969914117
 11
4.25
 21
-25.2969914117
  0
LINE
  5
27F
100
AcDbEntity
  8
DRAFT
100
AcDbLine
 62
7
  6
CONTINUOUS
 10
5.6835278765
 20
-25.2577350269
 11
6.074360459
 21
-25.2577350269
  0
LINE
  5
280
100
AcDbEntity
  8
DRAFT
100
AcDbLine
 62
7
  6
CONTINUOUS
 10
7.9852651066
 20
-25.2577350269
 11
8.3002520649
 21
-25.2577350269
  0
LINE
  5
281
100
AcDbEntity
  8
DRAFT
100
AcDbLine
 62
7
  6
CONTINUOUS
 10
7.9852651066
 20
-25.2
 11
8.2996056061
 21
-25.2
  0
LINE
  5
282
100
AcDbEntity
  8
DRAFT
100
AcDbLine
 62
7
  6
CONTINUOUS
 10
6.0736812335
 20
-25.2
 11
4.275
 21
-25.1999961015
  0
LINE
  5
283
100
AcDbEntity
  8
DRAFT
100
AcDbLine
 62
7
  6
CONTINUOUS
 10
6.0155103713
 20
-25.188326345
 11
4.275
 21
-25.188326345
  0
LINE
  5
284
100
AcDbEntity
  8
DRAFT
100
AcDbLine
 62
7
  6
CONTINUOUS
 10
6.0155081627
 20
-25.187457602
 11
4.275
 21
-25.187457602
  0
LINE
  5
285
100
AcDbEntity
  8
DRAFT
100
AcDbLine
 62
7
  6
CONTINUOUS
 10
6.0154194626
 20
-25.1524663263
 11
4.275
 21
-25.1524663263
  0
LINE
  5
286
100
AcDbEntity
  8
DRAFT
100
AcDbLine
 62
7
  6
CONTINUOUS
 10
6.0154150657
 20
-25.1507301799
 11
4.275
 21
-25.1507301799
  0
LINE
  5
287
100
AcDbEntity
  8
DRAFT
100
AcDbLine
 62
7
  6
CONTINUOUS
 10
6.0152672176
 20
-25.0924713391
 11
4.275
 21
-25.0924713391
  0
LINE
  5
288
100
AcDbEntity
  8
DRAFT
100
AcDbLine
 62
7
  6
CONTINUOUS
 10
6.0152605952
 20
-25.0898704663
 11
4.275
 21
-25.0898704663
  0
LINE
  5
289
100
AcDbEntity
  8
DRAFT
100
AcDbLine
 62
7
  6
CONTINUOUS
 10
6.015051815
 20
-25.0084338913
 11
4.275
 21
-25.0084338913
  0
LINE
  5
28A
100
AcDbEntity
  8
DRAFT
100
AcDbLine
 62
7
  6
CONTINUOUS
 10
6.015042871
 20
-25.0049723024
 11
4.275
 21
-25.0049723024
  0
LINE
  5
28B
100
AcDbEntity
  8
DRAFT
100
AcDbLine
 62
7
  6
CONTINUOUS
 10
6.0147698696
 20
-24.9004835624
 11
4.275
 21
-24.9004835624
  0
LINE
  5
28C
100
AcDbEntity
  8
DRAFT
100
AcDbLine
 62
7
  6
CONTINUOUS
 10
6.0147584722
 20
-24.8961665951
 11
4.275
 21
-24.8961665951
  0
LINE
  5
28D
100
AcDbEntity
  8
DRAFT
100
AcDbLine
 62
7
  6
CONTINUOUS
 10
6.0144186081
 20
-24.7687868042
 11
4.275
 21
-24.7687868042
  0
LINE
  5
28E
100
AcDbEntity
  8
DRAFT
100
AcDbLine
 62
7
  6
CONTINUOUS
 10
6.0144046861
 20
-24.7636211147
 11
4.275
 21
-24.7636211147
  0
LINE
  5
28F
100
AcDbEntity
  8
DRAFT
100
AcDbLine
 62
7
  6
CONTINUOUS
 10
6.0139955265
 20
-24.6135466834
 11
4.275
 21
-24.6135466834
  0
LINE
  5
290
100
AcDbEntity
  8
DRAFT
100
AcDbLine
 62
7
  6
CONTINUOUS
 10
6.0139789579
 20
-24.607540237
 11
4.275
 21
-24.607540237
  0
LINE
  5
291
100
AcDbEntity
  8
DRAFT
100
AcDbLine
 62
7
  6
CONTINUOUS
 10
1.0
 20
-24.5
 11
4.2061293015
 21
-24.5
  0
LINE
  5
292
100
AcDbEntity
  8
DRAFT
100
AcDbLine
 62
7
  6
CONTINUOUS
 10
6.01349626
 20
-24.4350025691
 11
4.275
 21
-24.4350025691
  0
LINE
  5
293
100
AcDbEntity
  8
DRAFT
100
AcDbLine
 62
7
  6
CONTINUOUS
 10
-4.7801458491
 20
-24.4350025691
 11
-5.7160509692
 21
-24.4350025691
  0
LINE
  5
294
100
AcDbEntity
  8
DRAFT
100
AcDbLine
 62
7
  6
CONTINUOUS
 10
6.0134768492
 20
-24.4281646272
 11
4.275
 21
-24.4281646272
  0
LINE
  5
295
100
AcDbEntity
  8
DRAFT
100
AcDbLine
 62
7
  6
CONTINUOUS
 10
-4.7579045921
 20
-24.4281646272
 11
-5.7411806035
 21
-24.4281646272
  0
LINE
  5
296
100
AcDbEntity
  8
DRAFT
100
AcDbLine
 62
7
  6
CONTINUOUS
 10
6.0129142638
 20
-24.2334297633
 11
4.275
 21
-24.2334297633
  0
LINE
  5
297
100
AcDbEntity
  8
DRAFT
100
AcDbLine
 62
7
  6
CONTINUOUS
 10
-4.3219797198
 20
-24.2334297633
 11
-6.0129142638
 21
-24.2334297633
  0
LINE
  5
298
100
AcDbEntity
  8
DRAFT
100
AcDbLine
 62
7
  6
CONTINUOUS
 10
6.0128917341
 20
-24.2257708696
 11
4.275
 21
-24.2257708696
  0
LINE
  5
299
100
AcDbEntity
  8
DRAFT
100
AcDbLine
 62
7
  6
CONTINUOUS
 10
-4.3094433125
 20
-24.2257708696
 11
-6.0128917341
 21
-24.2257708696
  0
LINE
  5
29A
100
AcDbEntity
  8
RACCORDO
100
AcDbLine
 62
7
  6
CONTINUOUS
 10
7.0240984851
 20
-24.1169980237
 11
6.1
 21
-24.1169980237
  0
LINE
  5
29B
100
AcDbEntity
  8
RACCORDO
100
AcDbLine
 62
7
  6
CONTINUOUS
 10
-6.1
 20
-24.1169980237
 11
-6.3402702469
 21
-24.1169980237
  0
LINE
  5
29C
100
AcDbEntity
  8
DRAFT
100
AcDbLine
 62
7
  6
CONTINUOUS
 10
6.0122416095
 20
-24.0091390767
 11
4.275
 21
-24.0091390767
  0
LINE
  5
29D
100
AcDbEntity
  8
DRAFT
100
AcDbLine
 62
7
  6
CONTINUOUS
 10
-4.275
 20
-24.0091390767
 11
-6.0122416095
 21
-24.0091390767
  0
LINE
  5
29E
100
AcDbEntity
  8
DRAFT
100
AcDbLine
 62
7
  6
CONTINUOUS
 10
6.0122156877
 20
-24.0006710406
 11
4.275
 21
-24.0006710406
  0
LINE
  5
29F
100
AcDbEntity
  8
DRAFT
100
AcDbLine
 62
7
  6
CONTINUOUS
 10
-4.275
 20
-24.0006710406
 11
-6.0122156877
 21
-24.0006710406
  0
LINE
  5
2A0
100
AcDbEntity
  8
DRAFT
100
AcDbLine
 62
7
  6
CONTINUOUS
 10
6.0114703134
 20
-23.7624763494
 11
4.275
 21
-23.7624763494
  0
LINE
  5
2A1
100
AcDbEntity
  8
DRAFT
100
AcDbLine
 62
7
  6
CONTINUOUS
 10
-4.275
 20
-23.7624763494
 11
-6.0114703134
 21
-23.7624763494
  0
LINE
  5
2A2
100
AcDbEntity
  8
DRAFT
100
AcDbLine
 62
7
  6
CONTINUOUS
 10
6.0114406732
 20
-23.753212228
 11
4.275
 21
-23.753212228
  0
LINE
  5
2A3
100
AcDbEntity
  8
DRAFT
100
AcDbLine
 62
7
  6
CONTINUOUS
 10
-4.275
 20
-23.753212228
 11
-6.0114406732
 21
-23.753212228
  0
LWPOLYLINE
  5
2A4
100
AcDbEntity
  8
RACCORDO
100
AcDbPolyline
 62
7
  6
CONTINUOUS
 90
21
 70
0
 10
-18.8826271038
 20
-35.2798294129
 10
-18.87304757
 20
-35.3865806917
 10
-18.8359220458
 20
-35.5717172767
 10
-18.7734458183
 20
-35.7517393035
 10
-18.6876046587
 20
-35.922626462
 10
-18.5842553007
 20
-36.0777302605
 10
-18.4684503514
 20
-36.2160868833
 10
-18.3412025874
 20
-36.3414550488
 10
-18.2034590375
 20
-36.4560813013
 10
-18.0568317402
 20
-36.5611071224
 10
-17.9012141981
 20
-36.6585517211
 10
-17.734131163
 20
-36.7511062891
 10
-17.5551249399
 20
-36.8396419567
 10
-17.3640888683
 20
-36.9246933309
 10
-17.1589285085
 20
-37.0074774284
 10
-16.9389232341
 20
-37.0883798307
 10
-16.7039286249
 20
-37.1675067051
 10
-16.452944589
 20
-37.2452023443
 10
-16.1855386135
 20
-37.321570671
 10
-15.9016302625
 20
-37.3965983356
 10
-15.6641495711
 20
-37.4552622739
  0
LINE
  5
2A5
100
AcDbEntity
  8
DRAFT
100
AcDbLine
 62
7
  6
CONTINUOUS
 10
-19.5
 20
-23.5
 11
-18.8824859408
 21
-35.2828701704
  0
LINE
  5
2A6
100
AcDbEntity
  8
RACCORDO
100
AcDbLine
 62
7
  6
CONTINUOUS
 10
-18.8826343694
 20
-35.2797509494
 11
-18.8824795749
 21
-35.2829914948
  0
LWPOLYLINE
  5
2A7
100
AcDbEntity
  8
RACCORDO
100
AcDbPolyline
 62
7
  6
CONTINUOUS
 90
17
 70
0
 10
7.4796649646
 20
-22.7736710247
 10
7.4472295099
 20
-22.7763406318
 10
7.410304679
 20
-22.7818393164
 10
7.3733909766
 20
-22.7901235514
 10
7.3366728185
 20
-22.8012550256
 10
7.3003667329
 20
-22.8152853874
 10
7.2648668458
 20
-22.8322368065
 10
7.2304986781
 20
-22.852129158
 10
7.1976033334
 20
-22.8748599931
 10
7.1664487709
 20
-22.9003405061
 10
7.1373033408
 20
-22.9285735876
 10
7.1104762443
 20
-22.9594210328
 10
7.086190377
 20
-22.9927951763
 10
7.0647545882
 20
-23.028648261
 10
7.0465038236
 20
-23.0667932599
 10
7.0317124879
 20
-23.1070596412
 10
7.0201768258
 20
-23.1519972556
  0
LINE
  5
2A8
100
AcDbEntity
  8
DRAFT
100
AcDbLine
 62
7
  6
CONTINUOUS
 10
19.4995609714
 20
-23.5
 11
16.8874953738
 21
-23.5
  0
LINE
  5
2A9
100
AcDbEntity
  8
DRAFT
100
AcDbLine
 62
7
  6
CONTINUOUS
 10
7.9566282126
 20
-23.5
 11
8.2805707155
 21
-23.5
  0
LINE
  5
2AA
100
AcDbEntity
  8
RACCORDO
100
AcDbLine
 62
7
  6
CONTINUOUS
 10
12.3
 20
-23.5
 11
16.8874953738
 21
-23.5
  0
LINE
  5
2AB
100
AcDbEntity
  8
0
100
AcDbLine
 62
7
  6
CONTINUOUS
 10
12.3
 20
-23.5
 11
16.8874953738
 21
-23.5
  0
LINE
  5
2AC
100
AcDbEntity
  8
RACCORDO
100
AcDbLine
 62
7
  6
CONTINUOUS
 10
-12.3
 20
-23.5
 11
-16.8874953738
 21
-23.5
  0
LINE
  5
2AD
100
AcDbEntity
  8
0
100
AcDbLine
 62
7
  6
CONTINUOUS
 10
-12.3
 20
-23.5
 11
-16.8874953738
 21
-23.5
  0
LINE
  5
2AE
100
AcDbEntity
  8
DRAFT
100
AcDbLine
 62
7
  6
CONTINUOUS
 10
-16.8874953738
 20
-23.5
 11
-19.4995609714
 21
-23.5
  0
LINE
  5
2AF
100
AcDbEntity
  8
DRAFT
100
AcDbLine
 62
7
  6
CONTINUOUS
 10
6.0105900805
 20
-23.4938219172
 11
4.275
 21
-23.4938219172
  0
LINE
  5
2B0
100
AcDbEntity
  8
DRAFT
100
AcDbLine
 62
7
  6
CONTINUOUS
 10
-4.275
 20
-23.4938219172
 11
-6.0105900805
 21
-23.4938219172
  0
LINE
  5
2B1
100
AcDbEntity
  8
DRAFT
100
AcDbLine
 62
7
  6
CONTINUOUS
 10
6.0105563151
 20
-23.4837759951
 11
4.275
 21
-23.4837759951
  0
LINE
  5
2B2
100
AcDbEntity
  8
DRAFT
100
AcDbLine
 62
7
  6
CONTINUOUS
 10
-4.275
 20
-23.4837759951
 11
-6.0105563151
 21
-23.4837759951
  0
LINE
  5
2B3
100
AcDbEntity
  8
DRAFT
100
AcDbLine
 62
7
  6
CONTINUOUS
 10
6.0095883725
 20
-23.203590026
 11
4.275
 21
-23.203590026
  0
LINE
  5
2B4
100
AcDbEntity
  8
DRAFT
100
AcDbLine
 62
7
  6
CONTINUOUS
 10
-4.275
 20
-23.203590026
 11
-6.0095883725
 21
-23.203590026
  0
LINE
  5
2B5
100
AcDbEntity
  8
DRAFT
100
AcDbLine
 62
7
  6
CONTINUOUS
 10
6.0095499686
 20
-23.1927777933
 11
4.275
 21
-23.1927777933
  0
LINE
  5
2B6
100
AcDbEntity
  8
DRAFT
100
AcDbLine
 62
7
  6
CONTINUOUS
 10
-4.275
 20
-23.1927777933
 11
-6.0095499686
 21
-23.1927777933
  0
LINE
  5
2B7
100
AcDbEntity
  8
DRAFT
100
AcDbLine
 62
7
  6
CONTINUOUS
 10
6.0084490468
 20
-22.8922281921
 11
4.275
 21
-22.8922281921
  0
LINE
  5
2B8
100
AcDbEntity
  8
DRAFT
100
AcDbLine
 62
7
  6
CONTINUOUS
 10
-4.275
 20
-22.8922281921
 11
-6.0084490468
 21
-22.8922281921
  0
LINE
  5
2B9
100
AcDbEntity
  8
DRAFT
100
AcDbLine
 62
7
  6
CONTINUOUS
 10
6.0084053678
 20
-22.8806663206
 11
4.275
 21
-22.8806663206
  0
LINE
  5
2BA
100
AcDbEntity
  8
DRAFT
100
AcDbLine
 62
7
  6
CONTINUOUS
 10
-4.275
 20
-22.8806663206
 11
-6.0084053678
 21
-22.8806663206
  0
LINE
  5
2BB
100
AcDbEntity
  8
DRAFT
100
AcDbLine
 62
7
  6
CONTINUOUS
 10
6.0071528609
 20
-22.5602165131
 11
4.275
 21
-22.5602165131
  0
LINE
  5
2BC
100
AcDbEntity
  8
DRAFT
100
AcDbLine
 62
7
  6
CONTINUOUS
 10
-4.275
 20
-22.5602165131
 11
-6.0071528609
 21
-22.5602165131
  0
LINE
  5
2BD
100
AcDbEntity
  8
DRAFT
100
AcDbLine
 62
7
  6
CONTINUOUS
 10
6.0071031313
 20
-22.5479228302
 11
4.275
 21
-22.5479228302
  0
LINE
  5
2BE
100
AcDbEntity
  8
DRAFT
100
AcDbLine
 62
7
  6
CONTINUOUS
 10
-4.275
 20
-22.5479228302
 11
-6.0071031313
 21
-22.5479228302
  0
LINE
  5
2BF
100
AcDbEntity
  8
DRAFT
100
AcDbLine
 62
7
  6
CONTINUOUS
 10
6.0056751102
 20
-22.2080669269
 11
4.275
 21
-22.2080669269
  0
LINE
  5
2C0
100
AcDbEntity
  8
DRAFT
100
AcDbLine
 62
7
  6
CONTINUOUS
 10
-4.275
 20
-22.2080669269
 11
-6.0056751102
 21
-22.2080669269
  0
LINE
  5
2C1
100
AcDbEntity
  8
DRAFT
100
AcDbLine
 62
7
  6
CONTINUOUS
 10
6.0056183316
 20
-22.1950603886
 11
4.275
 21
-22.1950603886
  0
LINE
  5
2C2
100
AcDbEntity
  8
DRAFT
100
AcDbLine
 62
7
  6
CONTINUOUS
 10
-4.275
 20
-22.1950603886
 11
-6.0056183316
 21
-22.1950603886
  0
LINE
  5
2C3
100
AcDbEntity
  8
DRAFT
100
AcDbLine
 62
7
  6
CONTINUOUS
 10
6.0039849241
 20
-21.8363224226
 11
4.275
 21
-21.8363224226
  0
LINE
  5
2C4
100
AcDbEntity
  8
DRAFT
100
AcDbLine
 62
7
  6
CONTINUOUS
 10
-4.275
 20
-21.8363224226
 11
-6.0039849241
 21
-21.8363224226
  0
LINE
  5
2C5
100
AcDbEntity
  8
DRAFT
100
AcDbLine
 62
7
  6
CONTINUOUS
 10
6.0039198367
 20
-21.822623084
 11
4.275
 21
-21.822623084
  0
LINE
  5
2C6
100
AcDbEntity
  8
DRAFT
100
AcDbLine
 62
7
  6
CONTINUOUS
 10
-4.275
 20
-21.822623084
 11
-6.0039198367
 21
-21.822623084
  0
LINE
  5
2C7
100
AcDbEntity
  8
DRAFT
100
AcDbLine
 62
7
  6
CONTINUOUS
 10
6.0090581642
 20
-21.4455562032
 11
4.275
 21
-21.4455562032
  0
LINE
  5
2C8
100
AcDbEntity
  8
DRAFT
100
AcDbLine
 62
7
  6
CONTINUOUS
 10
-4.275
 20
-21.4455562032
 11
-6.0090581642
 21
-21.4455562032
  0
LINE
  5
2C9
100
AcDbEntity
  8
DRAFT
100
AcDbLine
 62
7
  6
CONTINUOUS
 10
6.0093090112
 20
-21.4311851878
 11
4.275
 21
-21.4311851878
  0
LINE
  5
2CA
100
AcDbEntity
  8
DRAFT
100
AcDbLine
 62
7
  6
CONTINUOUS
 10
-4.275
 20
-21.4311851878
 11
-6.0093090112
 21
-21.4311851878
  0
LINE
  5
2CB
100
AcDbEntity
  8
DRAFT
100
AcDbLine
 62
7
  6
CONTINUOUS
 10
6.0162005219
 20
-21.036370802
 11
4.275
 21
-21.036370802
  0
LINE
  5
2CC
100
AcDbEntity
  8
DRAFT
100
AcDbLine
 62
7
  6
CONTINUOUS
 10
-4.275
 20
-21.036370802
 11
-6.0162005219
 21
-21.036370802
  0
LINE
  5
2CD
100
AcDbEntity
  8
DRAFT
100
AcDbLine
 62
7
  6
CONTINUOUS
 10
6.0164627063
 20
-21.0213502688
 11
4.275
 21
-21.0213502688
  0
LINE
  5
2CE
100
AcDbEntity
  8
DRAFT
100
AcDbLine
 62
7
  6
CONTINUOUS
 10
-4.275
 20
-21.0213502688
 11
-6.0164627063
 21
-21.0213502688
  0
LINE
  5
2CF
100
AcDbEntity
  8
DRAFT
100
AcDbLine
 62
7
  6
CONTINUOUS
 10
6.0236533747
 20
-20.6093971532
 11
4.275
 21
-20.6093971532
  0
LINE
  5
2D0
100
AcDbEntity
  8
DRAFT
100
AcDbLine
 62
7
  6
CONTINUOUS
 10
-4.275
 20
-20.6093971532
 11
-6.0236533747
 21
-20.6093971532
  0
LINE
  5
2D1
100
AcDbEntity
  8
DRAFT
100
AcDbLine
 62
7
  6
CONTINUOUS
 10
6.0239264922
 20
-20.5937502628
 11
4.275
 21
-20.5937502628
  0
LINE
  5
2D2
100
AcDbEntity
  8
DRAFT
100
AcDbLine
 62
7
  6
CONTINUOUS
 10
-4.275
 20
-20.5937502628
 11
-6.0239264922
 21
-20.5937502628
  0
LINE
  5
2D3
100
AcDbEntity
  8
DRAFT
100
AcDbLine
 62
7
  6
CONTINUOUS
 10
-6.0312611956
 20
-20.1735453832
 11
-4.275
 21
-20.1735453832
  0
LINE
  5
2D4
100
AcDbEntity
  8
DRAFT
100
AcDbLine
 62
7
  6
CONTINUOUS
 10
4.275
 20
-20.1735453832
 11
6.0312611956
 21
-20.1735453832
  0
LINE
  5
2D5
100
AcDbEntity
  8
DRAFT
100
AcDbLine
 62
7
  6
CONTINUOUS
 10
6.0263243338
 20
-20.1652936192
 11
4.275
 21
-20.1652936192
  0
LINE
  5
2D6
100
AcDbEntity
  8
DRAFT
100
AcDbLine
 62
7
  6
CONTINUOUS
 10
-4.275
 20
-20.1652936192
 11
-6.0263243338
 21
-20.1652936192
  0
LINE
  5
2D7
100
AcDbEntity
  8
DRAFT
100
AcDbLine
 62
7
  6
CONTINUOUS
 10
6.026282923
 20
-20.1490444979
 11
4.275
 21
-20.1490444979
  0
LINE
  5
2D8
100
AcDbEntity
  8
DRAFT
100
AcDbLine
 62
7
  6
CONTINUOUS
 10
-4.275
 20
-20.1490444979
 11
-6.026282923
 21
-20.1490444979
  0
LINE
  5
2D9
100
AcDbEntity
  8
DRAFT
100
AcDbLine
 62
7
  6
CONTINUOUS
 10
-6.0341411679
 20
-19.7294875438
 11
-4.275
 21
-19.7294875438
  0
LINE
  5
2DA
100
AcDbEntity
  8
DRAFT
100
AcDbLine
 62
7
  6
CONTINUOUS
 10
6.0341411679
 20
-19.7294875438
 11
4.275
 21
-19.7294875438
  0
LINE
  5
2DB
100
AcDbEntity
  8
RACCORDO
100
AcDbLine
 62
7
  6
CONTINUOUS
 10
7.5067146473
 20
-22.7757765541
 11
7.4796650989
 21
-22.7736710642
  0
LWPOLYLINE
  5
2DC
100
AcDbEntity
  8
0
100
AcDbPolyline
 62
7
  6
CONTINUOUS
 90
8
 70
0
 10
1.6969712563
 20
-25.5006680525
 10
1.6459218159
 20
-25.4702465012
 10
1.5514746987
 20
-25.4138117594
 10
1.4598004633
 20
-25.3588185153
 10
1.3709498839
 20
-25.3052808278
 10
1.2849294808
 20
-25.2531846379
 10
1.2017027659
 20
-25.2024877683
 10
1.1214405886
 20
-25.153272583
  0
LINE
  5
2DD
100
AcDbEntity
  8
0
100
AcDbLine
 62
7
  6
CONTINUOUS
 10
1.1214405886
 20
-25.153272583
 11
1.1
 21
-25.1400267621
  0
LINE
  5
2DE
100
AcDbEntity
  8
RACCORDO
100
AcDbLine
 62
253
  6
CONTINUOUS
 10
-16.8874953738
 20
-23.5
 11
-16.2958760014
 21
-36.5351489263
  0
LINE
  5
2DF
100
AcDbEntity
  8
RACCORDO
100
AcDbLine
 62
7
  6
CONTINUOUS
 10
-19.0
 20
56.0013704652
 11
-19.0
 21
-5.0013704652
  0
LINE
  5
2E0
100
AcDbEntity
  8
RACCORDO
100
AcDbLine
 62
253
  6
CONTINUOUS
 10
-17.9813866144
 20
54.9827570796
 11
-17.9813866144
 21
-3.9827570796
  0
LINE
  5
2E1
100
AcDbEntity
  8
RACCORDO
100
AcDbLine
 62
253
  6
CONTINUOUS
 10
-16.8874953738
 20
-23.5
 11
-16.4312553474
 21
-13.4476640438
  0
LINE
  5
2E2
100
AcDbEntity
  8
SUP_COSTRUZIONE
100
AcDbLine
 62
7
  6
CONTINUOUS
 10
-18.9731793923
 20
-13.4476639748
 11
-19.5
 21
-23.5
  0
LINE
  5
2E3
100
AcDbEntity
  8
DRAFT
100
AcDbLine
 62
7
  6
CONTINUOUS
 10
-6.872503893
 20
-19.1
 11
-6.05
 21
-19.1
  0
LINE
  5
2E4
100
AcDbEntity
  8
DRAFT
100
AcDbLine
 62
7
  6
CONTINUOUS
 10
9.0
 20
-19.1
 11
6.05
 21
-19.1
  0
LINE
  5
2E5
100
AcDbEntity
  8
SMUSSO
100
AcDbLine
 62
253
  6
CONTINUOUS
 10
-0.5
 20
-17.05
 11
1.0
 21
-17.05
  0
LINE
  5
2E6
100
AcDbEntity
  8
SMUSSO
100
AcDbLine
 62
253
  6
CONTINUOUS
 10
9.0
 20
-17.05
 11
10.5
 21
-17.05
  0
LINE
  5
2E7
100
AcDbEntity
  8
SMUSSO
100
AcDbLine
 62
7
  6
CONTINUOUS
 10
8.95
 20
-17.0
 11
1.05
 21
-17.0
  0
LINE
  5
2E8
100
AcDbEntity
  8
RACCORDO
100
AcDbLine
 62
7
  6
CONTINUOUS
 10
-8.6571064762
 20
-49.5
 11
-8.61120576
 21
-49.73176851
  0
LINE
  5
2E9
100
AcDbEntity
  8
0
100
AcDbLine
 62
7
  6
CONTINUOUS
 10
-11.9835544171
 20
-10.4280314749
 11
-12.2820434677
 21
-4.732521099
  0
LINE
  5
2EA
100
AcDbEntity
  8
RACCORDO
100
AcDbLine
 62
7
  6
CONTINUOUS
 10
-12.3
 20
-23.5
 11
-12.3
 21
-56.0
  0
LINE
  5
2EB
100
AcDbEntity
  8
RACCORDO
100
AcDbLine
 62
253
  6
CONTINUOUS
 10
-11.7731793959
 20
-13.4476640438
 11
-11.7731793959
 21
-56.0
  0
LINE
  5
2EC
100
AcDbEntity
  8
RACCORDO
100
AcDbLine
 62
253
  6
CONTINUOUS
 10
-14.3096189432
 20
-23.5
 11
-13.8533789169
 21
-13.4476640438
  0
LINE
  5
2ED
100
AcDbEntity
  8
SMUSSO
100
AcDbLine
 62
7
  6
CONTINUOUS
 10
8.95
 20
-15.5
 11
1.05
 21
-15.5
  0
LINE
  5
2EE
100
AcDbEntity
  8
RACCORDO
100
AcDbLine
 62
253
  6
CONTINUOUS
 10
-18.9731793918
 20
-13.4476639748
 11
-11.7731793959
 21
-13.4476640438
  0
LINE
  5
2EF
100
AcDbEntity
  8
RACCORDO
100
AcDbLine
 62
253
  6
CONTINUOUS
 10
11.7731793959
 20
-13.4476640438
 11
18.9731792678
 21
-13.4476638866
  0
LINE
  5
2F0
100
AcDbEntity
  8
RACCORDO
100
AcDbLine
 62
7
  6
CONTINUOUS
 10
-17.9745620562
 20
-12.5
 11
17.9748009626
 21
-12.5
  0
LINE
  5
2F1
100
AcDbEntity
  8
RACCORDO
100
AcDbLine
 62
7
  6
CONTINUOUS
 10
-7.9866461357
 20
-26.7650423748
 11
-7.9649375537
 21
-28.0087262032
  0
LINE
  5
2F2
100
AcDbEntity
  8
DRAFT
100
AcDbLine
 62
7
  6
CONTINUOUS
 10
-7.25
 20
-55.2
 11
-7.2273084156
 21
-56.5
  0
LINE
  5
2F3
100
AcDbEntity
  8
RACCORDO
100
AcDbLine
 62
7
  6
CONTINUOUS
 10
-10.2204136326
 20
-49.49972219
 11
-10.2040065013
 21
-54.2
  0
LINE
  5
2F4
100
AcDbEntity
  8
RACCORDO
100
AcDbLine
 62
253
  6
CONTINUOUS
 10
-10.7745498612
 20
-12.5
 11
-10.7745498612
 21
-56.9986295348
  0
LINE
  5
2F5
100
AcDbEntity
  8
DRAFT
100
AcDbLine
 62
7
  6
CONTINUOUS
 10
-10.3
 20
-49.5
 11
-10.3
 21
-54.2
  0
LINE
  5
2F6
100
AcDbEntity
  8
RACCORDO
100
AcDbLine
 62
7
  6
CONTINUOUS
 10
-9.75
 20
-28.75
 11
-9.75
 21
-40.75
  0
LINE
  5
2F7
100
AcDbEntity
  8
0
100
AcDbLine
 62
7
  6
CONTINUOUS
 10
-9.0
 20
-27.1887633791
 11
-9.0
 21
-42.3112010545
  0
LINE
  5
2F8
100
AcDbEntity
  8
RACCORDO
100
AcDbLine
 62
7
  6
CONTINUOUS
 10
-8.5534920769
 20
-51.7013840161
 11
-8.5534920769
 21
-54.2
  0
LINE
  5
2F9
100
AcDbEntity
  8
0
100
AcDbLine
 62
7
  6
CONTINUOUS
 10
-8.45
 20
-56.0591825482
 11
-8.45
 21
-57.0
  0
LINE
  5
2FA
100
AcDbEntity
  8
0
100
AcDbLine
 62
7
  6
CONTINUOUS
 10
-8.25
 20
-54.2
 11
-8.25
 21
-49.5
  0
LINE
  5
2FB
100
AcDbEntity
  8
DRAFT
100
AcDbLine
 62
7
  6
CONTINUOUS
 10
-8.5314191169
 20
-57.0
 11
-8.5
 21
-55.2
  0
LINE
  5
2FC
100
AcDbEntity
  8
RACCORDO
100
AcDbLine
 62
7
  6
CONTINUOUS
 10
-12.3
 20
-23.5
 11
-11.7731793959
 21
-13.4476640438
  0
LINE
  5
2FD
100
AcDbEntity
  8
RACCORDO
100
AcDbLine
 62
253
  6
CONTINUOUS
 10
-19.0
 20
-5.0013704652
 11
-17.9813866144
 21
-3.9827570796
  0
LINE
  5
2FE
100
AcDbEntity
  8
RACCORDO
100
AcDbLine
 62
253
  6
CONTINUOUS
 10
-18.0013704652
 20
-6.0
 11
-16.9827570796
 21
-4.9813866144
  0
LINE
  5
2FF
100
AcDbEntity
  8
0
100
AcDbLine
 62
253
  6
CONTINUOUS
 10
11.9835544171
 20
-10.4280314749
 11
-11.9835544171
 21
-10.4280314749
  0
LINE
  5
300
100
AcDbEntity
  8
DRAFT
100
AcDbLine
 62
7
  6
CONTINUOUS
 10
-6.05
 20
-23.2257968803
 11
-6.0309939981
 21
-24.3146499983
  0
LINE
  5
301
100
AcDbEntity
  8
DRAFT
100
AcDbLine
 62
7
  6
CONTINUOUS
 10
-6.0090581642
 20
-21.4455562032
 11
-6.05
 21
-19.1
  0
LINE
  5
302
100
AcDbEntity
  8
DRAFT
100
AcDbLine
 62
7
  6
CONTINUOUS
 10
-4.2079322962
 20
-24.1556565187
 11
-4.2375329888
 21
-18.5023923275
  0
LINE
  5
303
100
AcDbEntity
  8
RACCORDO
100
AcDbLine
 62
7
  6
CONTINUOUS
 10
-7.0
 20
-19.75
 11
-7.0
 21
-22.75
  0
LINE
  5
304
100
AcDbEntity
  8
ASSI
100
AcDbLine
 62
7
  6
CONTINUOUS
 10
-6.1
 20
-24.2779498426
 11
-6.1
 21
-24.1169980237
  0
LINE
  5
305
100
AcDbEntity
  8
0
100
AcDbLine
 62
7
  6
CONTINUOUS
 10
-5.968046
 20
-33.3214219193
 11
-5.968046
 21
-33.5233874338
  0
LINE
  5
306
100
AcDbEntity
  8
ASSI
100
AcDbLine
 62
7
  6
CONTINUOUS
 10
-5.8972934994
 20
-33.5943202793
 11
-5.8972934994
 21
-33.7962857939
  0
LINE
  5
307
100
AcDbEntity
  8
0
100
AcDbLine
 62
7
  6
CONTINUOUS
 10
-5.786766516
 20
-36.1425427868
 11
-5.786766516
 21
-36.3445083013
  0
LINE
  5
308
100
AcDbEntity
  8
0
100
AcDbLine
 62
7
  6
CONTINUOUS
 10
-5.696919
 20
-36.2837530169
 11
-5.696919
 21
-36.5169150832
  0
LINE
  5
309
100
AcDbEntity
  8
RACCORDO
100
AcDbLine
 62
253
  6
CONTINUOUS
 10
-5.5
 20
-28.5
 11
-5.5000000161
 21
-26.75
  0
LINE
  5
30A
100
AcDbEntity
  8
0
100
AcDbLine
 62
7
  6
CONTINUOUS
 10
-5.038572
 20
-33.7149533321
 11
-5.038572
 21
-33.9169188466
  0
LINE
  5
30B
100
AcDbEntity
  8
0
100
AcDbLine
 62
7
  6
CONTINUOUS
 10
-4.960842
 20
-33.5463859145
 11
-4.960842
 21
-33.6421498771
  0
LINE
  5
30C
100
AcDbEntity
  8
0
100
AcDbLine
 62
7
  6
CONTINUOUS
 10
-4.7773087251
 20
-36.1247992218
 11
-4.7773087251
 21
-36.1738223983
  0
LINE
  5
30D
100
AcDbEntity
  8
0
100
AcDbLine
 62
7
  6
CONTINUOUS
 10
-4.758811
 20
-36.3149495687
 11
-4.758811
 21
-36.5169150832
  0
LINE
  5
30E
100
AcDbEntity
  8
0
100
AcDbLine
 62
7
  6
CONTINUOUS
 10
-4.576474
 20
-36.1782789475
 11
-4.576474
 21
-36.380244462
  0
LINE
  5
30F
100
AcDbEntity
  8
0
100
AcDbLine
 62
7
  6
CONTINUOUS
 10
-4.5341933045
 20
-36.1221995037
 11
-4.5341933045
 21
-36.3241650182
  0
LINE
  5
310
100
AcDbEntity
  8
0
100
AcDbLine
 62
7
  6
CONTINUOUS
 10
-4.3042915346
 20
-36.1313822992
 11
-4.3042915346
 21
-36.3333478137
  0
LINE
  5
311
100
AcDbEntity
  8
0
100
AcDbLine
 62
7
  6
CONTINUOUS
 10
-4.279492
 20
-33.6421498771
 11
-4.279499
 21
-33.5463861955
  0
LINE
  5
312
100
AcDbEntity
  8
0
100
AcDbLine
 62
7
  6
CONTINUOUS
 10
-4.275
 20
-24.2019806389
 11
-4.275
 21
-18.2983161105
  0
LINE
  5
313
100
AcDbEntity
  8
0
100
AcDbLine
 62
7
  6
CONTINUOUS
 10
-4.25
 20
-29.5
 11
-4.25
 21
-28.5
  0
LINE
  5
314
100
AcDbEntity
  8
0
100
AcDbLine
 62
7
  6
CONTINUOUS
 10
-4.2118145768
 20
-36.2509597548
 11
-4.2118145768
 21
-36.4529252693
  0
LINE
  5
315
100
AcDbEntity
  8
0
100
AcDbLine
 62
7
  6
CONTINUOUS
 10
-3.727192
 20
-33.3214209355
 11
-3.727192
 21
-33.9169184953
  0
LINE
  5
316
100
AcDbEntity
  8
0
100
AcDbLine
 62
253
  6
CONTINUOUS
 10
-3.5869597752
 20
-36.206887423
 11
-3.5869597752
 21
-36.2915119684
  0
LINE
  5
317
100
AcDbEntity
  8
0
100
AcDbLine
 62
7
  6
CONTINUOUS
 10
-3.5494269846
 20
-36.2072472073
 11
-3.5494269846
 21
-36.290060142
  0
LINE
  5
318
100
AcDbEntity
  8
0
100
AcDbLine
 62
7
  6
CONTINUOUS
 10
-3.5235799868
 20
-36.1786503823
 11
-3.5235799868
 21
-36.2886405405
  0
LINE
  5
319
100
AcDbEntity
  8
0
100
AcDbLine
 62
7
  6
CONTINUOUS
 10
-3.517556
 20
-34.9168441285
 11
-3.517556
 21
-35.2243305359
  0
LINE
  5
31A
100
AcDbEntity
  8
0
100
AcDbLine
 62
7
  6
CONTINUOUS
 10
-3.517556
 20
-35.5275301909
 11
-3.517556
 21
-35.8350161698
  0
LINE
  5
31B
100
AcDbEntity
  8
RACCORDO
100
AcDbLine
 62
7
  6
CONTINUOUS
 10
-3.5
 20
-22.75
 11
-3.5
 21
-19.75
  0
LINE
  5
31C
100
AcDbEntity
  8
0
100
AcDbLine
 62
7
  6
CONTINUOUS
 10
-4.287283
 20
-33.4735830918
 11
-4.28722
 21
-33.3214209355
  0
LINE
  5
31D
100
AcDbEntity
  8
RACCORDO
100
AcDbLine
 62
7
  6
CONTINUOUS
 10
-18.0013704652
 20
-6.0
 11
-12.2156177133
 21
-6.0
  0
LINE
  5
31E
100
AcDbEntity
  8
RACCORDO
100
AcDbLine
 62
7
  6
CONTINUOUS
 10
18.0013704652
 20
-6.0
 11
12.2156177133
 21
-6.0
  0
LINE
  5
31F
100
AcDbEntity
  8
0
100
AcDbLine
 62
7
  6
CONTINUOUS
 10
-3.4641016151
 20
-31.7320508076
 11
-3.4641016151
 21
-29.5
  0
LINE
  5
320
100
AcDbEntity
  8
0
100
AcDbLine
 62
7
  6
CONTINUOUS
 10
-3.353847
 20
-33.3214199517
 11
-3.353847
 21
-33.5233854662
  0
LINE
  5
321
100
AcDbEntity
  8
0
100
AcDbLine
 62
7
  6
CONTINUOUS
 10
-3.2974756007
 20
-36.1273989415
 11
-3.2974756007
 21
-36.24438599
  0
LINE
  5
322
100
AcDbEntity
  8
0
100
AcDbLine
 62
7
  6
CONTINUOUS
 10
-3.25
 20
-31.8556624327
 11
-3.25
 21
-32.1742032909
  0
LINE
  5
323
100
AcDbEntity
  8
0
100
AcDbLine
 62
7
  6
CONTINUOUS
 10
-3.117556
 20
-35.2222445789
 11
-3.117556
 21
-35.5296157194
  0
LINE
  5
324
100
AcDbEntity
  8
0
100
AcDbLine
 62
7
  6
CONTINUOUS
 10
-3.0887135575
 20
-36.2503282015
 11
-3.0887135575
 21
-36.452293716
  0
LINE
  5
325
100
AcDbEntity
  8
0
100
AcDbLine
 62
7
  6
CONTINUOUS
 10
-3.0649304471
 20
-36.1229422673
 11
-3.0649304471
 21
-36.3249077818
  0
LINE
  5
326
100
AcDbEntity
  8
0
100
AcDbLine
 62
7
  6
CONTINUOUS
 10
-2.8376707457
 20
-36.128303805
 11
-2.8376707457
 21
-36.3302693195
  0
LINE
  5
327
100
AcDbEntity
  8
0
100
AcDbLine
 62
7
  6
CONTINUOUS
 10
-2.7610391219
 20
-36.2501504603
 11
-2.7610391219
 21
-36.4521159748
  0
LINE
  5
328
100
AcDbEntity
  8
0
100
AcDbLine
 62
7
  6
CONTINUOUS
 10
-2.454816
 20
-33.7149529808
 11
-2.454816
 21
-33.9169184953
  0
LINE
  5
329
100
AcDbEntity
  8
0
100
AcDbLine
 62
7
  6
CONTINUOUS
 10
-2.25
 20
-32.0
 11
-2.25
 21
-32.1742032909
  0
LINE
  5
32A
100
AcDbEntity
  8
0
100
AcDbLine
 62
7
  6
CONTINUOUS
 10
-1.894767
 20
-33.7149529808
 11
-1.894767
 21
-33.9169184953
  0
LINE
  5
32B
100
AcDbEntity
  8
0
100
AcDbLine
 62
7
  6
CONTINUOUS
 10
-1.7320508076
 20
-31.7320508076
 11
-1.7320508076
 21
-29.5
  0
LINE
  5
32C
100
AcDbEntity
  8
0
100
AcDbLine
 62
7
  6
CONTINUOUS
 10
-1.6696590281
 20
-36.4528437627
 11
-1.6696590281
 21
-36.2508782482
  0
LINE
  5
32D
100
AcDbEntity
  8
0
100
AcDbLine
 62
7
  6
CONTINUOUS
 10
-1.5930250347
 20
-36.3312723554
 11
-1.5930250347
 21
-36.1293068409
  0
LINE
  5
32E
100
AcDbEntity
  8
0
100
AcDbLine
 62
7
  6
CONTINUOUS
 10
-1.3657721137
 20
-36.1393416302
 11
-1.3657721137
 21
-36.3413071447
  0
LINE
  5
32F
100
AcDbEntity
  8
0
100
AcDbLine
 62
7
  6
CONTINUOUS
 10
-1.3340542635
 20
-36.2532992265
 11
-1.3340542635
 21
-36.455264741
  0
LINE
  5
330
100
AcDbEntity
  8
0
100
AcDbLine
 62
7
  6
CONTINUOUS
 10
-0.99575
 20
-33.3214199517
 11
-0.99575
 21
-33.5233854662
  0
LINE
  5
331
100
AcDbEntity
  8
ASSI
100
AcDbLine
 62
7
  6
CONTINUOUS
 10
-0.8675573425
 20
-35.274947415
 11
-0.8675573425
 21
-35.4769129295
  0
LINE
  5
332
100
AcDbEntity
  8
RACCORDO
100
AcDbLine
 62
7
  6
CONTINUOUS
 10
-0.75
 20
-40.75
 11
-0.75
 21
-28.75
  0
LINE
  5
333
100
AcDbEntity
  8
SMUSSO
100
AcDbLine
 62
7
  6
CONTINUOUS
 10
-0.5
 20
-17.05
 11
-0.5
 21
-27.95
  0
LINE
  5
334
100
AcDbEntity
  8
SMUSSO
100
AcDbLine
 62
7
  6
CONTINUOUS
 10
1.0
 20
-17.05
 11
1.0
 21
-27.95
  0
LINE
  5
335
100
AcDbEntity
  8
SMUSSO
100
AcDbLine
 62
253
  6
CONTINUOUS
 10
1.05
 20
-29.5
 11
1.05
 21
-28.0
  0
LINE
  5
336
100
AcDbEntity
  8
SMUSSO
100
AcDbLine
 62
253
  6
CONTINUOUS
 10
1.05
 20
-17.0
 11
1.05
 21
-15.5
  0
LINE
  5
337
100
AcDbEntity
  8
0
100
AcDbLine
 62
7
  6
CONTINUOUS
 10
1.1
 20
-25.1882387893
 11
1.1
 21
-24.5
  0
LINE
  5
338
100
AcDbEntity
  8
0
100
AcDbLine
 62
7
  6
CONTINUOUS
 10
1.7499999998
 20
-25.6635164643
 11
1.7499999998
 21
-25.5635164643
  0
LINE
  5
339
100
AcDbEntity
  8
0
100
AcDbLine
 62
7
  6
CONTINUOUS
 10
2.0499987829
 20
-25.8
 11
2.0499987829
 21
-26.0
  0
LINE
  5
33A
100
AcDbEntity
  8
DRAFT
100
AcDbLine
 62
7
  6
CONTINUOUS
 10
3.0
 20
-24.5
 11
3.0
 21
-25.8
  0
LINE
  5
33B
100
AcDbEntity
  8
0
100
AcDbLine
 62
7
  6
CONTINUOUS
 10
3.25
 20
-24.5
 11
3.25
 21
-25.8
  0
LINE
  5
33C
100
AcDbEntity
  8
0
100
AcDbLine
 62
7
  6
CONTINUOUS
 10
3.3369262865
 20
-26.0
 11
3.3369262865
 21
-25.8
  0
LINE
  5
33D
100
AcDbEntity
  8
0
100
AcDbLine
 62
7
  6
CONTINUOUS
 10
3.728025
 20
-26.0
 11
3.728025
 21
-25.8
  0
LINE
  5
33E
100
AcDbEntity
  8
0
100
AcDbLine
 62
7
  6
CONTINUOUS
 10
3.95
 20
-26.0
 11
3.95
 21
-25.8
  0
LINE
  5
33F
100
AcDbEntity
  8
0
100
AcDbLine
 62
7
  6
CONTINUOUS
 10
3.9817114482
 20
-26.0
 11
3.9817114482
 21
-25.8
  0
LINE
  5
340
100
AcDbEntity
  8
RACCORDO
100
AcDbLine
 62
7
  6
CONTINUOUS
 10
4.25
 20
-26.2034904813
 11
4.25
 21
-25.2969941912
  0
LINE
  5
341
100
AcDbEntity
  8
0
100
AcDbLine
 62
7
  6
CONTINUOUS
 10
4.275
 20
-25.1999961015
 11
4.275
 21
-20.1490444979
  0
LINE
  5
342
100
AcDbEntity
  8
ASSI
100
AcDbLine
 62
7
  6
CONTINUOUS
 10
4.275
 20
-20.1490444979
 11
4.275
 21
-17.0
  0
LINE
  5
343
100
AcDbEntity
  8
DRAFT
100
AcDbLine
 62
7
  6
CONTINUOUS
 10
4.2061293015
 20
-24.5
 11
4.2375329888
 21
-18.5023923275
  0
LINE
  5
344
100
AcDbEntity
  8
DRAFT
100
AcDbLine
 62
7
  6
CONTINUOUS
 10
1.25
 20
-55.2
 11
1.2273084156
 21
-56.5
  0
LWPOLYLINE
  5
345
100
AcDbEntity
  8
RACCORDO
100
AcDbPolyline
 62
7
  6
CONTINUOUS
 90
20
 70
0
 10
7.9517369947
 20
-23.2350210998
 10
7.9513626122
 20
-23.2230566794
 10
7.9476606402
 20
-23.1826720768
 10
7.9402547787
 20
-23.1428153391
 10
7.9291104949
 20
-23.1034052164
 10
7.9143045645
 20
-23.064908788
 10
7.8962799248
 20
-23.0282858767
 10
7.8753002973
 20
-22.9937042778
 10
7.851534918
 20
-22.9612033811
 10
7.8256596865
 20
-22.9314058982
 10
7.7982220747
 20
-22.9045193992
 10
7.7693498967
 20
-22.8803176902
 10
7.7392000334
 20
-22.858682472
 10
7.7080838221
 20
-22.8396385615
 10
7.676224482
 20
-22.8231331759
 10
7.6434835321
 20
-22.8089716424
 10
7.6100917277
 20
-22.7971814363
 10
7.576303261
 20
-22.7877691027
 10
7.5418285974
 20
-22.7806217091
 10
7.5067146473
 20
-22.7757765541
  0
LINE
  5
346
100
AcDbEntity
  8
RACCORDO
100
AcDbLine
 62
253
  6
CONTINUOUS
 10
7.7517683098
 20
-23.0747264772
 11
7.7736758542
 21
-24.3298056634
  0
LINE
  5
347
100
AcDbEntity
  8
DRAFT
100
AcDbLine
 62
7
  6
CONTINUOUS
 10
8.5314191169
 20
-57.0
 11
8.5
 21
-55.2
  0
LINE
  5
348
100
AcDbEntity
  8
DRAFT
100
AcDbLine
 62
7
  6
CONTINUOUS
 10
7.9736453933
 20
-24.4901455909
 11
8.0
 21
-26.0
  0
LINE
  5
349
100
AcDbEntity
  8
RACCORDO
100
AcDbLine
 62
7
  6
CONTINUOUS
 10
7.9517371056
 20
-23.235021072
 11
8.0
 21
-26.0
  0
LINE
  5
34A
100
AcDbEntity
  8
RACCORDO
100
AcDbLine
 62
253
  6
CONTINUOUS
 10
5.5
 20
-26.0
 11
5.5
 21
-28.0
  0
LINE
  5
34B
100
AcDbEntity
  8
DRAFT
100
AcDbLine
 62
7
  6
CONTINUOUS
 10
6.1
 20
-25.7066677576
 11
6.1
 21
-25.2970123276
  0
LINE
  5
34C
100
AcDbEntity
  8
ASSI
100
AcDbLine
 62
7
  6
CONTINUOUS
 10
6.1
 20
-24.1169980237
 11
6.1
 21
-25.2969914117
  0
LINE
  5
34D
100
AcDbEntity
  8
RACCORDO
100
AcDbLine
 62
7
  6
CONTINUOUS
 10
6.1
 20
-25.7066677576
 11
6.1
 21
-26.0326226153
  0
LINE
  5
34E
100
AcDbEntity
  8
0
100
AcDbLine
 62
7
  6
CONTINUOUS
 10
8.25
 20
-54.2
 11
8.25
 21
-49.5
  0
LINE
  5
34F
100
AcDbEntity
  8
0
100
AcDbLine
 62
7
  6
CONTINUOUS
 10
8.45
 20
-56.0591825482
 11
8.45
 21
-57.0
  0
LINE
  5
350
100
AcDbEntity
  8
RACCORDO
100
AcDbLine
 62
7
  6
CONTINUOUS
 10
8.5534920769
 20
-51.7013840161
 11
8.5534920769
 21
-54.2
  0
LINE
  5
351
100
AcDbEntity
  8
DRAFT
100
AcDbLine
 62
7
  6
CONTINUOUS
 10
5.683202047
 20
-25.2969914117
 11
5.6835278765
 21
-25.2577350269
  0
LINE
  5
352
100
AcDbEntity
  8
DRAFT
100
AcDbLine
 62
7
  6
CONTINUOUS
 10
6.0295630467
 20
-17.670832271
 11
6.0412724675
 21
-17.0
  0
LINE
  5
353
100
AcDbEntity
  8
DRAFT
100
AcDbLine
 62
7
  6
CONTINUOUS
 10
6.0090581642
 20
-21.4455562032
 11
6.05
 21
-19.1
  0
LINE
  5
354
100
AcDbEntity
  8
DRAFT
100
AcDbLine
 62
7
  6
CONTINUOUS
 10
6.0208284734
 20
-24.8970325205
 11
6.05
 21
-23.2257968803
  0
LINE
  5
355
100
AcDbEntity
  8
RACCORDO
100
AcDbLine
 62
7
  6
CONTINUOUS
 10
8.0
 20
-26.0
 11
7.9650898701
 21
-28.0
  0
LINE
  5
356
100
AcDbEntity
  8
DRAFT
100
AcDbLine
 62
7
  6
CONTINUOUS
 10
8.0
 20
-26.0
 11
7.9650898701
 21
-28.0
  0
LINE
  5
357
100
AcDbEntity
  8
0
100
AcDbLine
 62
7
  6
CONTINUOUS
 10
-1.1277289813
 20
-36.1341220629
 11
-1.1282297243
 21
-36.1365967535
  0
LINE
  5
358
100
AcDbEntity
  8
RACCORDO
100
AcDbLine
 62
253
  6
CONTINUOUS
 10
16.9827570796
 20
-4.9813866144
 11
18.0013704652
 21
-6.0
  0
LINE
  5
359
100
AcDbEntity
  8
RACCORDO
100
AcDbLine
 62
7
  6
CONTINUOUS
 10
12.3
 20
-23.5
 11
11.7731793959
 21
-13.4476640438
  0
LINE
  5
35A
100
AcDbEntity
  8
SMUSSO
100
AcDbLine
 62
253
  6
CONTINUOUS
 10
8.95
 20
-17.0
 11
8.95
 21
-15.5
  0
LINE
  5
35B
100
AcDbEntity
  8
SMUSSO
100
AcDbLine
 62
253
  6
CONTINUOUS
 10
8.95
 20
-28.0
 11
8.95
 21
-29.5
  0
LINE
  5
35C
100
AcDbEntity
  8
SMUSSO
100
AcDbLine
 62
7
  6
CONTINUOUS
 10
9.0
 20
-27.95
 11
9.0
 21
-17.05
  0
LINE
  5
35D
100
AcDbEntity
  8
DRAFT
100
AcDbLine
 62
7
  6
CONTINUOUS
 10
10.3
 20
-49.5
 11
10.3
 21
-54.2
  0
LINE
  5
35E
100
AcDbEntity
  8
SMUSSO
100
AcDbLine
 62
7
  6
CONTINUOUS
 10
10.5
 20
-27.95
 11
10.5
 21
-17.05
  0
LINE
  5
35F
100
AcDbEntity
  8
RACCORDO
100
AcDbLine
 62
253
  6
CONTINUOUS
 10
10.7745498612
 20
-56.9986295348
 11
10.7745498612
 21
-12.5
  0
LINE
  5
360
100
AcDbEntity
  8
RACCORDO
100
AcDbLine
 62
253
  6
CONTINUOUS
 10
11.7731793959
 20
-56.0
 11
11.7731793959
 21
-13.4476640438
  0
LINE
  5
361
100
AcDbEntity
  8
RACCORDO
100
AcDbLine
 62
7
  6
CONTINUOUS
 10
12.3
 20
-23.5
 11
12.3
 21
-56.0
  0
LINE
  5
362
100
AcDbEntity
  8
RACCORDO
100
AcDbLine
 62
7
  6
CONTINUOUS
 10
10.2204136326
 20
-49.49972219
 11
10.2040065013
 21
-54.2
  0
LINE
  5
363
100
AcDbEntity
  8
0
100
AcDbLine
 62
7
  6
CONTINUOUS
 10
11.9835544171
 20
-10.4280314749
 11
12.2820434677
 21
-4.7325210995
  0
LINE
  5
364
100
AcDbEntity
  8
RACCORDO
100
AcDbLine
 62
7
  6
CONTINUOUS
 10
6.849900884
 20
-24.1169980237
 11
7.0182297965
 21
-23.1623573224
  0
LINE
  5
365
100
AcDbEntity
  8
RACCORDO
100
AcDbLine
 62
253
  6
CONTINUOUS
 10
7.0240984851
 20
-24.1169980237
 11
7.2151914056
 21
-23.0332565716
  0
LINE
  5
366
100
AcDbEntity
  8
RACCORDO
100
AcDbLine
 62
7
  6
CONTINUOUS
 10
7.0182236944
 20
-23.1623562673
 11
7.0200943553
 21
-23.152411809
  0
LINE
  5
367
100
AcDbEntity
  8
RACCORDO
100
AcDbLine
 62
253
  6
CONTINUOUS
 10
17.9813866144
 20
-3.9827570796
 11
19.0
 21
-5.0013704652
  0
LINE
  5
368
100
AcDbEntity
  8
RACCORDO
100
AcDbLine
 62
253
  6
CONTINUOUS
 10
14.3096189432
 20
-23.5
 11
13.8533789169
 21
-13.4476640438
  0
LINE
  5
369
100
AcDbEntity
  8
RACCORDO
100
AcDbLine
 62
253
  6
CONTINUOUS
 10
16.8874953738
 20
-23.5
 11
16.4312553474
 21
-13.4476640438
  0
LINE
  5
36A
100
AcDbEntity
  8
SUP_COSTRUZIONE
100
AcDbLine
 62
7
  6
CONTINUOUS
 10
18.9731793877
 20
-13.4476638864
 11
19.5
 21
-23.5
  0
LINE
  5
36B
100
AcDbEntity
  8
RACCORDO
100
AcDbLine
 62
253
  6
CONTINUOUS
 10
17.9813866144
 20
54.9827570796
 11
17.9813866144
 21
-3.9827570796
  0
LINE
  5
36C
100
AcDbEntity
  8
RACCORDO
100
AcDbLine
 62
7
  6
CONTINUOUS
 10
19.0
 20
56.0013704652
 11
19.0
 21
-5.0013704652
  0
LINE
  5
36D
100
AcDbEntity
  8
RACCORDO
100
AcDbLine
 62
253
  6
CONTINUOUS
 10
16.8874953738
 20
-23.5
 11
16.2958760014
 21
-36.5351489263
  0
LINE
  5
36E
100
AcDbEntity
  8
RACCORDO
100
AcDbLine
 62
7
  6
CONTINUOUS
 10
18.8824794831
 20
-35.2829932415
 11
18.8826346322
 21
-35.2797447315
  0
LINE
  5
36F
100
AcDbEntity
  8
RACCORDO
100
AcDbLine
 62
7
  6
CONTINUOUS
 10
8.6571064762
 20
-49.5
 11
8.61120576
 21
-49.73176851
  0
LINE
  5
370
100
AcDbEntity
  8
DRAFT
100
AcDbLine
 62
7
  6
CONTINUOUS
 10
19.5
 20
-23.5
 11
18.882485905
 21
-35.2828708533
  0
LINE
  5
371
100
AcDbEntity
  8
SMUSSO
100
AcDbLine
 62
7
  6
CONTINUOUS
 10
-6.0
 20
-55.2
 11
-6.7505553499
 21
-56.5
  0
LINE
  5
372
100
AcDbEntity
  8
0
100
AcDbLine
 62
7
  6
CONTINUOUS
 10
-3.5235799868
 20
-36.1786503823
 11
-3.5494269846
 21
-36.2072472073
  0
LWPOLYLINE
  5
373
100
AcDbEntity
  8
0
100
AcDbPolyline
 62
7
  6
CONTINUOUS
 90
3
 70
0
 10
1.0209370881
 20
-24.5359303537
 10
1.0480251367
 20
-24.5191072226
 10
1.0789654072
 20
-24.5
  0
LWPOLYLINE
  5
374
100
AcDbEntity
  8
0
100
AcDbPolyline
 62
7
  6
CONTINUOUS
 90
7
 70
0
 10
1.2419958647
 20
-26.0
 10
1.277293388
 20
-25.9784869955
 10
1.364264466
 20
-25.9257910818
 10
1.4548422754
 20
-25.8711954627
 10
1.5487673649
 20
-25.8148420219
 10
1.6462530265
 20
-25.7565888756
 10
1.6969598254
 20
-25.7263716792
  0
LINE
  5
375
100
AcDbEntity
  8
0
100
AcDbLine
 62
7
  6
CONTINUOUS
 10
-4.576474
 20
-36.1782789475
 11
-4.758811
 21
-36.3149495687
  0
LINE
  5
376
100
AcDbEntity
  8
0
100
AcDbLine
 62
7
  6
CONTINUOUS
 10
-4.576474
 20
-36.380244462
 11
-4.758811
 21
-36.5169150832
  0
LINE
  5
377
100
AcDbEntity
  8
0
100
AcDbLine
 62
7
  6
CONTINUOUS
 10
-4.94412
 20
-36.2837530169
 11
-4.8432080253
 21
-36.2120288632
  0
LINE
  5
378
100
AcDbEntity
  8
RACCORDO
100
AcDbLine
 62
253
  6
CONTINUOUS
 10
-17.9813866144
 20
54.9827570796
 11
-19.0
 21
56.0013704652
  0
LINE
  5
379
100
AcDbEntity
  8
RACCORDO
100
AcDbLine
 62
253
  6
CONTINUOUS
 10
-16.9827570796
 20
55.9813866144
 11
-18.0013704652
 21
57.0
  0
LINE
  5
37A
100
AcDbEntity
  8
0
100
AcDbLine
 62
7
  6
CONTINUOUS
 10
-2.174788
 20
-33.5923880216
 11
-1.903391
 21
-33.473582108
  0
LINE
  5
37B
100
AcDbEntity
  8
0
100
AcDbLine
 62
7
  6
CONTINUOUS
 10
-1.73257
 20
-33.3988114326
 11
-1.555771
 21
-33.3214209355
  0
LINE
  5
37C
100
AcDbEntity
  8
0
100
AcDbLine
 62
7
  6
CONTINUOUS
 10
-0.99575
 20
-33.3214199517
 11
-1.894767
 21
-33.7149529808
  0
LINE
  5
37D
100
AcDbEntity
  8
ASSI
100
AcDbLine
 62
7
  6
CONTINUOUS
 10
-0.99575
 20
-33.5233854662
 11
-1.894767
 21
-33.9169184953
  0
LWPOLYLINE
  5
37E
100
AcDbEntity
  8
RACCORDO
100
AcDbPolyline
 62
7
  6
CONTINUOUS
 90
6
 70
0
 10
12.3
 20
-38.3187614989
 10
12.3980837791
 20
-38.2824665416
 10
12.5975615031
 20
-38.2160469469
 10
12.8300794985
 20
-38.1461284551
 10
13.098016737
 20
-38.0731679895
 10
13.3417395742
 20
-38.0123871214
  0
LINE
  5
37F
100
AcDbEntity
  8
RACCORDO
100
AcDbLine
 62
7
  6
CONTINUOUS
 10
-18.0013704652
 20
57.0
 11
18.0013704652
 21
57.0
  0
ARC
  5
380
100
AcDbEntity
  8
DRAFT
100
AcDbCircle
 62
7
  6
CONTINUOUS
 10
-55.0351892982
 20
-20.5653030612
 40
61.1159832012
100
AcDbArc
 50
357.2534836423
 51
357.3827163893
  0
ARC
  5
381
100
AcDbEntity
  8
DRAFT
100
AcDbCircle
 62
7
  6
CONTINUOUS
 10
-36.8881228407
 20
-20.7948819614
 40
42.9652825182
100
AcDbArc
 50
356.786214538
 51
356.9491529013
  0
ARC
  5
382
100
AcDbEntity
  8
DRAFT
100
AcDbCircle
 62
7
  6
CONTINUOUS
 10
-22.8746129065
 20
-20.9511341258
 40
28.9482143485
100
AcDbArc
 50
356.1552029399
 51
356.3656866442
  0
ARC
  5
383
100
AcDbEntity
  8
DRAFT
100
AcDbCircle
 62
7
  6
CONTINUOUS
 10
-12.5319007455
 20
-21.0259332611
 40
18.6024335429
100
AcDbArc
 50
355.2690099718
 51
355.5473239559
  0
ARC
  5
384
100
AcDbEntity
  8
0
100
AcDbCircle
 62
7
  6
CONTINUOUS
 10
-0.0823100788
 20
-2.5812240279
 40
16.4545353195
100
AcDbArc
 50
255.2379978346
 51
256.382829241
  0
ARC
  5
385
100
AcDbEntity
  8
DRAFT
100
AcDbCircle
 62
7
  6
CONTINUOUS
 10
-4.9482516988
 20
-21.0470987699
 40
11.0152784621
100
AcDbArc
 50
353.9500079412
 51
354.3363352682
  0
ARC
  5
386
100
AcDbEntity
  8
DRAFT
100
AcDbCircle
 62
7
  6
CONTINUOUS
 10
-0.1936622644
 20
-21.0017286498
 40
5.8699570846
100
AcDbArc
 50
187.6065985996
 51
188.1740454396
  0
ARC
  5
387
100
AcDbEntity
  8
0
100
AcDbCircle
 62
7
  6
CONTINUOUS
 10
-2.0774553848
 20
-32.8173639383
 40
3.3814480569
100
AcDbArc
 50
272.0947156772
 51
272.5760333265
  0
ARC
  5
388
100
AcDbEntity
  8
0
100
AcDbCircle
 62
7
  6
CONTINUOUS
 10
-2.3109956683
 20
-39.4459159014
 40
3.2539275465
100
AcDbArc
 50
93.0350075397
 51
93.4498161427
  0
ARC
  5
389
100
AcDbEntity
  8
0
100
AcDbCircle
 62
7
  6
CONTINUOUS
 10
-11.6632496727
 20
-39.6372958501
 40
2.7323891805
100
AcDbArc
 50
1.0636602914
 51
1.4454972454
  0
ARC
  5
38A
100
AcDbEntity
  8
RACCORDO
100
AcDbCircle
 62
7
  6
CONTINUOUS
 10
-7.75
 20
-40.75
 40
2.0
100
AcDbArc
 50
180.0
 51
270.0
  0
ARC
  5
38B
100
AcDbEntity
  8
RACCORDO
100
AcDbCircle
 62
7
  6
CONTINUOUS
 10
-7.75
 20
-28.75
 40
2.0
100
AcDbArc
 50
90.0
 51
180.0
  0
ARC
  5
38C
100
AcDbEntity
  8
RACCORDO
100
AcDbCircle
 62
7
  6
CONTINUOUS
 10
-2.75
 20
-28.75
 40
2.0
100
AcDbArc
 50
0.0
 51
90.0
  0
ARC
  5
38D
100
AcDbEntity
  8
RACCORDO
100
AcDbCircle
 62
7
  6
CONTINUOUS
 10
-2.75
 20
-40.75
 40
2.0
100
AcDbArc
 50
270.0
 51
360.0
  0
ARC
  5
38E
100
AcDbEntity
  8
RACCORDO
100
AcDbCircle
 62
7
  6
CONTINUOUS
 10
-5.25
 20
-19.75
 40
1.75
100
AcDbArc
 50
0.0
 51
180.0
  0
ARC
  5
38F
100
AcDbEntity
  8
RACCORDO
100
AcDbCircle
 62
7
  6
CONTINUOUS
 10
-5.25
 20
-22.75
 40
1.75
100
AcDbArc
 50
180.0
 51
360.0
  0
ARC
  5
390
100
AcDbEntity
  8
RACCORDO
100
AcDbCircle
 62
7
  6
CONTINUOUS
 10
-1.5
 20
-48.25
 40
1.75
100
AcDbArc
 50
90.0
 51
270.0
  0
ARC
  5
391
100
AcDbEntity
  8
RACCORDO
100
AcDbCircle
 62
7
  6
CONTINUOUS
 10
-10.7154761915
 20
-55.9538175578
 40
1.0466354409
100
AcDbArc
 50
247.128112227
 51
261.6209907858
  0
ARC
  5
392
100
AcDbEntity
  8
RACCORDO
100
AcDbCircle
 62
7
  6
CONTINUOUS
 10
-11.2976387384
 20
-55.9943218188
 40
1.0056869072
100
AcDbArc
 50
265.0000457118
 51
266.6903444029
  0
ARC
  5
393
100
AcDbEntity
  8
RACCORDO
100
AcDbCircle
 62
7
  6
CONTINUOUS
 10
-10.7216214593
 20
-55.9979142339
 40
1.00211403
100
AcDbArc
 50
261.6012013048
 51
266.9724146412
  0
ARC
  5
394
100
AcDbEntity
  8
RACCORDO
100
AcDbCircle
 62
7
  6
CONTINUOUS
 10
-17.9745498612
 20
-13.5
 40
1.0
100
AcDbArc
 50
89.9999325649
 51
176.9999960433
  0
ARC
  5
395
100
AcDbEntity
  8
RACCORDO
100
AcDbCircle
 62
7
  6
CONTINUOUS
 10
-10.7745498612
 20
-13.5
 40
1.0
100
AcDbArc
 50
90.0
 51
177.0
  0
ARC
  5
396
100
AcDbEntity
  8
RACCORDO
100
AcDbCircle
 62
7
  6
CONTINUOUS
 10
-11.2979770761
 20
-56.0008018046
 40
0.999198197
100
AcDbArc
 50
266.6882611275
 51
269.9967188042
  0
ARC
  5
397
100
AcDbEntity
  8
RACCORDO
100
AcDbCircle
 62
7
  6
CONTINUOUS
 10
-11.3017198279
 20
-55.9998076205
 40
0.9982801907
100
AcDbArc
 50
180.0110415239
 51
186.4467966882
  0
ARC
  5
398
100
AcDbEntity
  8
RACCORDO
100
AcDbCircle
 62
7
  6
CONTINUOUS
 10
-11.3023086465
 20
-55.9998068061
 40
0.9976913722
100
AcDbArc
 50
180.011094811
 51
186.450642044
  0
ARC
  5
399
100
AcDbEntity
  8
RACCORDO
100
AcDbCircle
 62
7
  6
CONTINUOUS
 10
-11.2994010213
 20
-56.0076408276
 40
0.9923716714
100
AcDbArc
 50
265.0343833958
 51
266.7475738116
  0
ARC
  5
39A
100
AcDbEntity
  8
RACCORDO
100
AcDbCircle
 62
7
  6
CONTINUOUS
 10
-11.2999237078
 20
-56.0177097526
 40
0.9822893112
100
AcDbArc
 50
266.7446914043
 51
269.9955499638
  0
ARC
  5
39B
100
AcDbEntity
  8
RACCORDO
100
AcDbCircle
 62
7
  6
CONTINUOUS
 10
-7.4650137061
 20
-28.0
 40
0.5
100
AcDbArc
 50
181.0
 51
270.0
  0
ARC
  5
39C
100
AcDbEntity
  8
DRAFT
100
AcDbCircle
 62
7
  6
CONTINUOUS
 10
-5.8490355926
 20
-20.3572316196
 40
0.2612881432
100
AcDbArc
 50
132.7279524115
 51
134.2385280825
  0
ARC
  5
39D
100
AcDbEntity
  8
RACCORDO
100
AcDbCircle
 62
253
  6
CONTINUOUS
 10
-5634.0653193973
 20
110.7863766872
 40
5649.9743890754
100
AcDbArc
 50
358.5002074213
 51
358.6380881261
  0
ARC
  5
39E
100
AcDbEntity
  8
0
100
AcDbCircle
 62
7
  6
CONTINUOUS
 10
74.5339615606
 20
-37.9965668313
 40
83.4804901171
100
AcDbArc
 50
180.358271669
 51
181.0788500137
  0
ARC
  5
39F
100
AcDbEntity
  8
DRAFT
100
AcDbCircle
 62
7
  6
CONTINUOUS
 10
55.0351892982
 20
-20.5653030612
 40
61.1159832012
100
AcDbArc
 50
182.6172836107
 51
182.7465163577
  0
ARC
  5
3A0
100
AcDbEntity
  8
DRAFT
100
AcDbCircle
 62
7
  6
CONTINUOUS
 10
36.8881228407
 20
-20.7948819614
 40
42.9652825182
100
AcDbArc
 50
183.0508470987
 51
183.213785462
  0
ARC
  5
3A1
100
AcDbEntity
  8
DRAFT
100
AcDbCircle
 62
7
  6
CONTINUOUS
 10
22.8746129065
 20
-20.9511341258
 40
28.9482143485
100
AcDbArc
 50
183.6343133558
 51
183.8447970601
  0
ARC
  5
3A2
100
AcDbEntity
  8
DRAFT
100
AcDbCircle
 62
7
  6
CONTINUOUS
 10
12.5319007452
 20
-21.0259332611
 40
18.6024335426
100
AcDbArc
 50
184.4526760441
 51
184.7309900282
  0
ARC
  5
3A3
100
AcDbEntity
  8
0
100
AcDbCircle
 62
7
  6
CONTINUOUS
 10
0.0195447986
 20
-2.3050409645
 40
16.7375979693
100
AcDbArc
 50
273.3582130134
 51
284.7288687724
  0
ARC
  5
3A4
100
AcDbEntity
  8
0
100
AcDbCircle
 62
7
  6
CONTINUOUS
 10
0.0
 20
-9.5
 40
15.0
100
AcDbArc
 50
242.1848727256
 51
246.2132726792
  0
ARC
  5
3A5
100
AcDbEntity
  8
0
100
AcDbCircle
 62
7
  6
CONTINUOUS
 10
0.0
 20
-9.5
 40
15.0
100
AcDbArc
 50
293.7867273208
 51
306.8700315615
  0
ARC
  5
3A6
100
AcDbEntity
  8
0
100
AcDbCircle
 62
7
  6
CONTINUOUS
 10
0.0
 20
-9.8
 40
12.0
100
AcDbArc
 50
183.0
 51
193.007102557
  0
ARC
  5
3A7
100
AcDbEntity
  8
0
100
AcDbCircle
 62
7
  6
CONTINUOUS
 10
0.0
 20
-9.8
 40
12.0
100
AcDbArc
 50
346.992897443
 51
357.0
  0
ARC
  5
3A8
100
AcDbEntity
  8
DRAFT
100
AcDbCircle
 62
7
  6
CONTINUOUS
 10
4.9482516982
 20
-21.0470987699
 40
11.0152784616
100
AcDbArc
 50
185.6636647318
 51
186.0499920588
  0
ARC
  5
3A9
100
AcDbEntity
  8
DRAFT
100
AcDbCircle
 62
7
  6
CONTINUOUS
 10
0.1936622646
 20
-21.0017286498
 40
5.8699570844
100
AcDbArc
 50
351.8259545604
 51
352.3934014004
  0
ARC
  5
3AA
100
AcDbEntity
  8
RACCORDO
100
AcDbCircle
 62
7
  6
CONTINUOUS
 10
1.5
 20
-48.25
 40
1.75
100
AcDbArc
 50
270.0
 51
90.0
  0
ARC
  5
3AB
100
AcDbEntity
  8
SMUSSO
100
AcDbCircle
 62
7
  6
CONTINUOUS
 10
8.95
 20
-17.05
 40
1.55
100
AcDbArc
 50
0.0
 51
90.0
  0
ARC
  5
3AC
100
AcDbEntity
  8
SMUSSO
100
AcDbCircle
 62
7
  6
CONTINUOUS
 10
8.95
 20
-27.95
 40
1.55
100
AcDbArc
 50
270.0
 51
360.0
  0
ARC
  5
3AD
100
AcDbEntity
  8
SMUSSO
100
AcDbCircle
 62
7
  6
CONTINUOUS
 10
1.05
 20
-27.95
 40
1.55
100
AcDbArc
 50
180.0
 51
270.0
  0
ARC
  5
3AE
100
AcDbEntity
  8
SMUSSO
100
AcDbCircle
 62
7
  6
CONTINUOUS
 10
1.05
 20
-17.05
 40
1.55
100
AcDbArc
 50
90.0
 51
180.0
  0
ARC
  5
3AF
100
AcDbEntity
  8
RACCORDO
100
AcDbCircle
 62
7
  6
CONTINUOUS
 10
10.7154761915
 20
-55.9538175578
 40
1.0466354409
100
AcDbArc
 50
278.3790092142
 51
292.871887773
  0
ARC
  5
3B0
100
AcDbEntity
  8
RACCORDO
100
AcDbCircle
 62
7
  6
CONTINUOUS
 10
11.2976387384
 20
-55.9943218189
 40
1.0056869072
100
AcDbArc
 50
273.309655597
 51
274.9999542882
  0
ARC
  5
3B1
100
AcDbEntity
  8
RACCORDO
100
AcDbCircle
 62
7
  6
CONTINUOUS
 10
10.7216214593
 20
-55.9979142339
 40
1.00211403
100
AcDbArc
 50
273.0275853588
 51
278.3987986952
  0
ARC
  5
3B2
100
AcDbEntity
  8
RACCORDO
100
AcDbCircle
 62
7
  6
CONTINUOUS
 10
17.9745498612
 20
-13.5
 40
1.0
100
AcDbArc
 50
3.0000090254
 51
90.0001540345
  0
ARC
  5
3B3
100
AcDbEntity
  8
RACCORDO
100
AcDbCircle
 62
7
  6
CONTINUOUS
 10
10.7745498612
 20
-13.5
 40
1.0
100
AcDbArc
 50
3.0
 51
90.0
  0
ARC
  5
3B4
100
AcDbEntity
  8
RACCORDO
100
AcDbCircle
 62
7
  6
CONTINUOUS
 10
11.2979770761
 20
-56.0008018046
 40
0.999198197
100
AcDbArc
 50
270.0032811958
 51
273.3117388725
  0
ARC
  5
3B5
100
AcDbEntity
  8
RACCORDO
100
AcDbCircle
 62
7
  6
CONTINUOUS
 10
11.3017198279
 20
-55.9998076205
 40
0.9982801907
100
AcDbArc
 50
353.5532033131
 51
359.9889584761
  0
ARC
  5
3B6
100
AcDbEntity
  8
RACCORDO
100
AcDbCircle
 62
7
  6
CONTINUOUS
 10
11.3023086465
 20
-55.9998068061
 40
0.9976913722
100
AcDbArc
 50
353.5493579572
 51
359.988905189
  0
ARC
  5
3B7
100
AcDbEntity
  8
RACCORDO
100
AcDbCircle
 62
7
  6
CONTINUOUS
 10
11.2994010213
 20
-56.0076408276
 40
0.9923716714
100
AcDbArc
 50
273.2524261884
 51
274.9656166042
  0
ARC
  5
3B8
100
AcDbEntity
  8
RACCORDO
100
AcDbCircle
 62
7
  6
CONTINUOUS
 10
11.2999237078
 20
-56.0177097526
 40
0.9822893113
100
AcDbArc
 50
270.0044500363
 51
273.2553085957
  0
ARC
  5
3B9
100
AcDbEntity
  8
RACCORDO
100
AcDbCircle
 62
7
  6
CONTINUOUS
 10
7.4492286692
 20
-23.2383925551
 40
0.4376618934
100
AcDbArc
 50
164.6895828759
 51
168.6708604097
  0
ARC
  5
3BA
100
AcDbEntity
  8
DRAFT
100
AcDbCircle
 62
7
  6
CONTINUOUS
 10
5.8490355926
 20
-20.3572316196
 40
0.2612881431
100
AcDbArc
 50
45.7614719174
 51
47.2720475885
  0
ARC
  5
3BB
100
AcDbEntity
  8
RACCORDO
100
AcDbCircle
 62
253
  6
CONTINUOUS
 10
7.1489979969
 20
-23.1854907158
 40
0.1327986299
100
AcDbArc
 50
161.5892670135
 51
169.9679496281
  0
ARC
  5
3BC
100
AcDbEntity
  8
SMUSSO
100
AcDbCircle
 62
7
  6
CONTINUOUS
 10
8.95
 20
-17.05
 40
0.05
100
AcDbArc
 50
0.0
 51
90.0
  0
ARC
  5
3BD
100
AcDbEntity
  8
SMUSSO
100
AcDbCircle
 62
7
  6
CONTINUOUS
 10
8.95
 20
-27.95
 40
0.05
100
AcDbArc
 50
270.0
 51
360.0
  0
ARC
  5
3BE
100
AcDbEntity
  8
SMUSSO
100
AcDbCircle
 62
7
  6
CONTINUOUS
 10
1.05
 20
-27.95
 40
0.05
100
AcDbArc
 50
180.0
 51
270.0
  0
ARC
  5
3BF
100
AcDbEntity
  8
SMUSSO
100
AcDbCircle
 62
7
  6
CONTINUOUS
 10
1.05
 20
-17.05
 40
0.05
100
AcDbArc
 50
90.0
 51
180.0
  0
ARC
  5
3C0
100
AcDbEntity
  8
RACCORDO
100
AcDbCircle
 62
253
  6
CONTINUOUS
 10
5633.9847788105
 20
110.7843073871
 40
5649.8938219228
100
AcDbArc
 50
181.3619103075
 51
181.4997929785
  0
SPLINE
  5
3C1
100
AcDbEntity
  8
RACCORDO
100
AcDbSpline
 62
7
  6
CONTINUOUS
 70
0
 71
3
 72
11
 73
7
 74
5
 42
0.0000001
 43
0.0000001
 44
0.0000000001
 12
0.1596300818
 22
0.5831865749
 32
0.0
 13
0.6036552401
 23
0.0344774602
 33
0.0
 40
0.0
 40
0.0
 40
0.0
 40
0.0
 40
0.2237089019
 40
0.462599144
 40
0.7220998681
 40
1.0
 40
1.0
 40
1.0
 40
1.0
 10
7.0270996473
 20
-23.1228286259
 30
0.0
 10
7.039003204
 20
-23.0793406165
 30
0.0
 10
7.0778148696
 20
-22.9927266797
 30
0.0
 10
7.1759786123
 20
-22.8823228888
 30
0.0
 10
7.3126378202
 20
-22.8011173356
 30
0.0
 10
7.4206523652
 20
-22.7774539259
 30
0.0
 10
7.4765709888
 20
-22.7742601624
 30
0.0
 11
7.0270996473
 21
-23.1228286259
 31
0.0
 11
7.0821713634
 21
-22.999284218
 31
0.0
 11
7.1777683552
 21
-22.8910030514
 31
0.0
 11
7.3125255994
 21
-22.8106324534
 31
0.0
 11
7.4765709888
 21
-22.7742601624
 31
0.0
  0
SPLINE
  5
3C2
100
AcDbEntity
  8
RACCORDO
100
AcDbSpline
 62
7
  6
CONTINUOUS
 70
0
 71
3
 72
16
 73
12
 74
10
 42
0.0000001
 43
0.0000001
 44
0.0000000001
 12
0.0363771844
 22
-0.0040883252
 32
0.0
 13
-0.0000851866
 23
-0.0366061018
 33
0.0
 40
0.0
 40
0.0
 40
0.0
 40
0.0
 40
0.0042795063
 40
0.0165168578
 40
0.0367534161
 40
0.0649770941
 40
0.1452624437
 40
0.2568686259
 40
0.399161456
 40
0.5713789698
 40
1.0
 40
1.0
 40
1.0
 40
1.0
 10
7.4794911596
 20
-22.7736641211
 30
0.0
 10
7.4795430517
 20
-22.7736699531
 30
0.0
 10
7.4795076506
 20
-22.77396993
 30
0.0
 10
7.4795994695
 20
-22.7743233101
 30
0.0
 10
7.4795960962
 20
-22.7751160026
 30
0.0
 10
7.4796489606
 20
-22.7766549246
 30
0.0
 10
7.4796295324
 20
-22.7793644834
 30
0.0
 10
7.4796052973
 20
-22.7834307868
 30
0.0
 10
7.4795621489
 20
-22.7886344764
 30
0.0
 10
7.4795282726
 20
-22.7977000991
 30
0.0
 10
7.4795159972
 20
-22.8050324868
 30
0.0
 10
7.4795038263
 20
-22.8102625351
 30
0.0
 11
7.4794911596
 21
-22.7736641211
 31
0.0
 11
7.4795298536
 21
-22.7738159237
 31
0.0
 11
7.4795677087
 21
-22.7742622843
 31
0.0
 11
7.4796004797
 21
-22.7750023426
 31
0.0
 11
7.4796239212
 21
-22.7760352383
 31
0.0
 11
7.4796328258
 21
-22.7789741664
 31
0.0
 11
7.4796061128
 21
-22.7830595574
 31
0.0
 11
7.4795687631
 21
-22.7882682234
 31
0.0
 11
7.4795412027
 21
-22.7945723921
 31
0.0
 11
7.4795038263
 21
-22.8102625351
 31
0.0
  0
SPLINE
  5
3C3
100
AcDbEntity
  8
RACCORDO
100
AcDbSpline
 62
253
  6
CONTINUOUS
 70
0
 71
3
 72
9
 73
5
 74
3
 42
0.0000001
 43
0.0000001
 44
0.0000000001
 12
0.0124028596
 22
0.0373063003
 32
0.0
 13
0.0223043529
 23
0.0323744777
 33
0.0
 40
0.0
 40
0.0
 40
0.0
 40
0.0
 40
0.2477835385
 40
1.0
 40
1.0
 40
1.0
 40
1.0
 10
7.0229964171
 20
-23.1435493521
 30
0.0
 10
7.0240208252
 20
-23.1404680564
 30
0.0
 10
7.0286006635
 20
-23.1281843161
 30
0.0
 10
7.0349478344
 20
-23.1165667777
 30
0.0
 10
7.0405404015
 20
-23.1084492393
 30
0.0
 11
7.0229964171
 21
-23.1435493521
 31
0.0
 11
7.0263989506
 21
-23.1344215417
 31
0.0
 11
7.0405404015
 21
-23.1084492393
 31
0.0
  0
SPLINE
  5
3C4
100
AcDbEntity
  8
RACCORDO
100
AcDbSpline
 62
253
  6
CONTINUOUS
 70
0
 71
3
 72
10
 73
6
 74
4
 42
0.0000001
 43
0.0000001
 44
0.0000000001
 12
0.1119338685
 22
0.1624705527
 32
0.0
 13
0.1969653112
 23
-0.011425306
 33
0.0
 40
0.0
 40
0.0
 40
0.0
 40
0.0
 40
0.2326640403
 40
0.478066554
 40
1.0
 40
1.0
 40
1.0
 40
1.0
 10
7.0405404015
 20
-23.1084492393
 30
0.0
 10
7.0492213969
 20
-23.0958488876
 30
0.0
 10
7.0713456762
 20
-23.0727176224
 30
0.0
 10
7.1286229021
 20
-23.0392438335
 30
0.0
 10
7.1809238111
 20
-23.0312688219
 30
0.0
 10
7.2151914056
 20
-23.0332565716
 30
0.0
 11
7.0405404015
 21
-23.1084492393
 31
0.0
 11
7.0720015493
 21
-23.0750224075
 31
0.0
 11
7.1136380114
 21
-23.050311799
 31
0.0
 11
7.2151914056
 21
-23.0332565716
 31
0.0
  0
SPLINE
  5
3C5
100
AcDbEntity
  8
RACCORDO
100
AcDbSpline
 62
253
  6
CONTINUOUS
 70
0
 71
3
 72
11
 73
7
 74
5
 42
0.0000001
 43
0.0000001
 44
0.0000000001
 12
0.4116842702
 22
-0.0343536807
 32
0.0
 13
0.0072086385
 23
-0.4130522355
 33
0.0
 40
0.0
 40
0.0
 40
0.0
 40
0.0
 40
0.3184943225
 40
0.5774405261
 40
0.7976439555
 40
1.0
 40
1.0
 40
1.0
 40
1.0
 10
7.4794489739
 20
-22.8102556449
 30
0.0
 10
7.5231553415
 20
-22.8139027957
 30
0.0
 10
7.6021410864
 20
-22.8369295662
 30
0.0
 10
7.6899368011
 20
-22.9067094788
 30
0.0
 10
7.7396752951
 20
-22.9884287777
 30
0.0
 10
7.7512820726
 20
-23.0468652717
 30
0.0
 10
7.7517683098
 20
-23.0747264772
 30
0.0
 11
7.4794489739
 21
-22.8102556449
 31
0.0
 11
7.6055930482
 21
-22.8476669668
 31
0.0
 11
7.6890113461
 21
-22.9146367485
 31
0.0
 11
7.7357548661
 21
-22.9926782084
 31
0.0
 11
7.7517683098
 21
-23.0747264772
 31
0.0
  0
SPLINE
  5
3C6
100
AcDbEntity
  8
RACCORDO
100
AcDbSpline
 62
253
  6
CONTINUOUS
 70
0
 71
3
 72
11
 73
7
 74
5
 42
0.0000001
 43
0.0000001
 44
0.0000000001
 12
0.0642011282
 22
0.3642727794
 32
0.0
 13
0.3686163771
 23
0.0306334654
 33
0.0
 40
0.0
 40
0.0
 40
0.0
 40
0.0
 40
0.2017011697
 40
0.4242841741
 40
0.6854618316
 40
1.0
 40
1.0
 40
1.0
 40
1.0
 10
7.2151914056
 20
-23.0332565716
 30
0.0
 10
7.2195078865
 20
-23.0087651564
 30
0.0
 10
7.2368576502
 20
-22.9583969453
 30
0.0
 10
7.2882687311
 20
-22.8896618107
 30
0.0
 10
7.3703525239
 20
-22.8323161677
 30
0.0
 10
7.4408010005
 20
-22.813467443
 30
0.0
 10
7.4794489739
 20
-22.8102556449
 30
0.0
 11
7.2151914056
 21
-23.0332565716
 31
0.0
 11
7.2392744858
 21
-22.9626438384
 31
0.0
 11
7.2882233014
 21
-22.8964446164
 31
0.0
 11
7.3671814132
 21
-22.8407815069
 31
0.0
 11
7.4794489739
 21
-22.8102556449
 31
0.0
  0
SPLINE
  5
3C7
100
AcDbEntity
  8
RACCORDO
100
AcDbSpline
 62
7
  6
CONTINUOUS
 70
0
 71
3
 72
16
 73
12
 74
10
 42
0.0000001
 43
0.0000001
 44
0.0000000001
 12
0.5779519828
 22
0.0
 32
0.0
 13
0.0046465571
 23
0.577933304
 33
0.0
 40
0.0
 40
0.0
 40
0.0
 40
0.0
 40
0.0712379125
 40
0.1529177034
 40
0.2510514213
 40
0.3682699837
 40
0.4342083472
 40
0.5047646747
 40
0.6583853674
 40
0.8254794125
 40
1.0
 40
1.0
 40
1.0
 40
1.0
 10
-3.4792181423
 20
-28.5
 30
0.0
 10
-3.4654941114
 20
-28.5
 30
0.0
 10
-3.4358375764
 20
-28.4930394619
 30
0.0
 10
-3.3955580406
 20
-28.4649107181
 30
0.0
 10
-3.3584012789
 20
-28.4208087367
 30
0.0
 10
-3.3316945247
 20
-28.3733705631
 30
0.0
 10
-3.3122610011
 20
-28.3284968979
 30
0.0
 10
-3.2934426078
 20
-28.2758295138
 30
0.0
 10
-3.2746095184
 20
-28.2026632901
 30
0.0
 10
-3.2604173262
 20
-28.1081772463
 30
0.0
 10
-3.2568309676
 20
-28.0423466231
 30
0.0
 10
-3.256560661
 20
-28.0087262032
 30
0.0
 11
-3.4792181423
 21
-28.5
 31
0.0
 11
-3.4389742258
 21
-28.4913069909
 31
0.0
 11
-3.3995095463
 21
-28.4654025578
 31
0.0
 11
-3.3621369211
 21
-28.4227404321
 31
0.0
 11
-3.328202181
 21
-28.3641055547
 31
0.0
 11
-3.3129884034
 21
-28.3291648521
 31
0.0
 11
-3.2992021568
 21
-28.2907877951
 31
0.0
 11
-3.2766911178
 21
-28.2049035851
 31
0.0
 11
-3.2621143183
 21
-28.109437713
 31
0.0
 11
-3.256560661
 21
-28.0087262032
 31
0.0
  0
SPLINE
  5
3C8
100
AcDbEntity
  8
RACCORDO
100
AcDbSpline
 62
7
  6
CONTINUOUS
 70
0
 71
3
 72
14
 73
10
 74
8
 42
0.0000001
 43
0.0000001
 44
0.0000000001
 12
-0.2396093507
 22
0.0
 32
0.0
 13
0.0019350287
 23
-0.2396015371
 33
0.0
 40
0.0
 40
0.0
 40
0.0
 40
0.0
 40
0.0726051211
 40
0.1551086999
 40
0.2535819734
 40
0.3709728887
 40
0.5073693033
 40
0.6608574015
 40
1.0
 40
1.0
 40
1.0
 40
1.0
 10
3.333251331
 20
-26.0
 30
0.0
 10
3.3274523757
 20
-26.0
 30
0.0
 10
3.3149754327
 20
-26.0028407735
 30
0.0
 10
3.2979987014
 20
-26.0144740317
 30
0.0
 10
3.2824644485
 20
-26.0328081374
 30
0.0
 10
3.2686796324
 20
-26.0574808375
 30
0.0
 10
3.2571008088
 20
-26.0879837253
 30
0.0
 10
3.2450569524
 20
-26.1368425888
 30
0.0
 10
3.2417954106
 20
-26.1764041187
 30
0.0
 10
3.2420141608
 20
-26.2034904813
 30
0.0
 11
3.333251331
 21
-26.0
 31
0.0
 11
3.3162302118
 21
-26.0035961705
 31
0.0
 11
3.2996276325
 21
-26.0143271096
 31
0.0
 11
3.2840302915
 21
-26.0320316995
 31
0.0
 11
3.2700045074
 21
-26.0564132411
 31
0.0
 11
3.258182492
 21
-26.086881974
 31
0.0
 11
3.2492106672
 21
-26.1225480306
 31
0.0
 11
3.2420141608
 21
-26.2034904813
 31
0.0
  0
SPLINE
  5
3C9
100
AcDbEntity
  8
RACCORDO
100
AcDbSpline
 62
7
  6
CONTINUOUS
 70
0
 71
3
 72
13
 73
9
 74
7
 42
0.0000001
 43
0.0000001
 44
0.0000000001
 12
0.2701664776
 22
0.0329824523
 32
0.0
 13
0.2721723126
 23
0.0000000514
 33
0.0
 40
0.0
 40
0.0
 40
0.0
 40
0.0
 40
0.2531136138
 40
0.5043249866
 40
0.6291408463
 40
0.7533379493
 40
0.8770960484
 40
1.0
 40
1.0
 40
1.0
 40
1.0
 10
6.1
 20
-26.0326226153
 30
0.0
 10
6.1227942712
 20
-26.0298398461
 30
0.0
 10
6.1681859608
 20
-26.0240863004
 30
0.0
 10
6.2247635547
 20
-26.0165373705
 30
0.0
 10
6.269735125
 20
-26.0104536409
 30
0.0
 10
6.3033127589
 20
-26.0063674942
 30
0.0
 10
6.3366687375
 20
-26.002120055
 30
0.0
 10
6.3590062328
 20
-26.0000000021
 30
0.0
 10
6.3701565837
 20
-26.0
 30
0.0
 11
6.1
 21
-26.0326226153
 31
0.0
 11
6.168347454
 21
-26.0239896001
 31
0.0
 11
6.2361258076
 21
-26.0149933861
 31
0.0
 11
6.2698015732
 21
-26.0105212198
 31
0.0
 11
6.3033440096
 21
-26.0063321111
 31
0.0
 11
6.3367838523
 21
-26.0022877353
 31
0.0
 11
6.3701565837
 21
-26.0
 31
0.0
  0
LINE
  5
3CA
100
AcDbEntity
  8
RACCORDO
100
AcDbLine
 62
7
  6
CONTINUOUS
 10
3.2420141608
 20
-26.2034904813
 11
3.2564904997
 21
-27.9999999988
  0
LINE
  5
3CB
100
AcDbEntity
  8
RACCORDO
100
AcDbLine
 62
7
  6
CONTINUOUS
 10
-3.2464194478
 20
-26.7499999876
 11
-3.256560661
 21
-28.0087262032
  0
SPLINE
  5
3CC
100
AcDbEntity
  8
RACCORDO
100
AcDbSpline
 62
253
  6
CONTINUOUS
 70
0
 71
3
 72
11
 73
7
 74
5
 42
0.0000001
 43
0.0000001
 44
0.0000000001
 12
-0.0050148575
 22
0.2817121357
 32
0.0
 13
-0.2817521217
 23
-0.0016180522
 33
0.0
 40
0.0
 40
0.0
 40
0.0
 40
0.0
 40
0.2268422707
 40
0.4677957469
 40
0.7275218756
 40
1.0
 40
1.0
 40
1.0
 40
1.0
 10
7.9517371054
 20
-23.235021072
 30
0.0
 10
7.9513579116
 20
-23.2137196652
 30
0.0
 10
7.9394994117
 20
-23.1694254525
 30
0.0
 10
7.8934788169
 20
-23.1163660366
 30
0.0
 10
7.8277828064
 20
-23.082173284
 30
0.0
 10
7.7773587397
 20
-23.0745795159
 30
0.0
 10
7.7517683098
 20
-23.0747264772
 30
0.0
 11
7.9517371054
 21
-23.235021072
 31
0.0
 11
7.9356873765
 21
-23.1731546862
 31
0.0
 11
7.8921483218
 21
-23.1210639976
 31
0.0
 11
7.8276274028
 21
-23.0865342414
 31
0.0
 11
7.7517683098
 21
-23.0747264772
 31
0.0
  0
SPLINE
  5
3CD
100
AcDbEntity
  8
DRAFT
100
AcDbSpline
 62
7
  6
CONTINUOUS
 70
0
 71
3
 72
16
 73
12
 74
10
 42
0.0000001
 43
0.0000001
 44
0.0000000001
 12
0.6696441084
 22
0.0
 32
0.0
 13
0.5964424561
 23
0.3044332907
 33
0.0
 40
0.0
 40
0.0
 40
0.0
 40
0.0
 40
0.0630293943
 40
0.1260384864
 40
0.1890291389
 40
0.251979312
 40
0.3777035639
 40
0.5031295182
 40
0.6281669072
 40
0.7527227552
 40
1.0
 40
1.0
 40
1.0
 40
1.0
 10
5.5
 20
-26.0
 30
0.0
 10
5.5140690875
 20
-26.0
 30
0.0
 10
5.5420120756
 20
-25.9932312038
 30
0.0
 10
5.5806080443
 20
-25.9763947825
 30
0.0
 10
5.6185961082
 20
-25.9579952892
 30
0.0
 10
5.6686385892
 20
-25.9324893253
 30
0.0
 10
5.7307262787
 20
-25.8999077016
 30
0.0
 10
5.804952653
 20
-25.8606492903
 30
0.0
 10
5.8789625176
 20
-25.8215346394
 30
0.0
 10
5.9771438502
 20
-25.7699483581
 30
0.0
 10
6.0508377843
 20
-25.7317608994
 30
0.0
 10
6.1
 20
-25.7066677576
 30
0.0
 11
5.5
 21
-26.0
 31
0.0
 11
5.5414642861
 21
-25.9921154589
 31
0.0
 11
5.5805131329
 21
-25.9761313067
 31
0.0
 11
5.6185348472
 21
-25.9578662323
 31
0.0
 11
5.6561315173
 21
-25.9388013946
 31
0.0
 11
5.7307628259
 21
-25.8998371953
 31
0.0
 11
5.8050316716
 21
-25.860612396
 31
0.0
 11
5.8790732036
 21
-25.8215143565
 31
0.0
 11
5.9529188473
 21
-25.7827363945
 31
0.0
 11
6.1
 21
-25.7066677576
 31
0.0
  0
SPLINE
  5
3CE
100
AcDbEntity
  8
RACCORDO
100
AcDbSpline
 62
253
  6
CONTINUOUS
 70
0
 71
3
 72
11
 73
7
 74
5
 42
0.0000001
 43
0.0000001
 44
0.0000000001
 12
-0.0049181052
 22
0.2817580565
 32
0.0
 13
-0.2817963298
 23
-0.0016182269
 33
0.0
 40
0.0
 40
0.0
 40
0.0
 40
0.0
 40
0.226840496
 40
0.4677906782
 40
0.7275171158
 40
1.0
 40
1.0
 40
1.0
 40
1.0
 10
7.9736453933
 20
-24.4901455909
 30
0.0
 10
7.9732735181
 20
-24.4688408785
 30
0.0
 10
7.9614259257
 20
-24.4245358668
 30
0.0
 10
7.915407349
 20
-24.3714594543
 30
0.0
 10
7.8497033536
 20
-24.3372551072
 30
0.0
 10
7.7992707465
 20
-24.3296586837
 30
0.0
 10
7.7736758542
 20
-24.3298056634
 30
0.0
 11
7.9736453933
 21
-24.4901455909
 31
0.0
 11
7.9576112719
 21
-24.4282653153
 31
0.0
 11
7.9140756427
 21
-24.3761590918
 31
0.0
 11
7.849547831
 21
-24.3416176971
 31
0.0
 11
7.7736758542
 21
-24.3298056634
 31
0.0
  0
SPLINE
  5
3CF
100
AcDbEntity
  8
RACCORDO
100
AcDbSpline
 62
253
  6
CONTINUOUS
 70
0
 71
3
 72
14
 73
10
 74
8
 42
0.0000001
 43
0.0000001
 44
0.0000000001
 12
0.0431037655
 22
-2.4707202991
 32
0.0
 13
-2.4269320831
 23
-0.4650993387
 33
0.0
 40
0.0
 40
0.0
 40
0.0
 40
0.0
 40
0.0988237572
 40
0.2005342204
 40
0.3080564272
 40
0.423998552
 40
0.5504479371
 40
0.6887869005
 40
1.0
 40
1.0
 40
1.0
 40
1.0
 10
7.7736758542
 20
-24.3298056634
 30
0.0
 10
7.7750957462
 20
-24.4111942844
 30
0.0
 10
7.7596444034
 20
-24.5772163619
 30
0.0
 10
7.681663501
 20
-24.8205798586
 30
0.0
 10
7.5488421289
 20
-25.0551994333
 30
0.0
 10
7.3612855082
 20
-25.2760727517
 30
0.0
 10
7.1191907486
 20
-25.4777348422
 30
0.0
 10
6.7103256682
 20
-25.7212404356
 30
0.0
 10
6.351764352
 20
-25.8368663041
 30
0.0
 10
6.1
 20
-25.8851146397
 30
0.0
 11
7.7736758542
 21
-24.3298056634
 31
0.0
 11
7.751291263
 21
-24.5729805871
 31
0.0
 11
7.6754550907
 21
-24.8126028595
 31
0.0
 11
7.5456826547
 21
-25.0444528002
 31
0.0
 11
7.3613793861
 21
-25.2638085243
 31
0.0
 11
7.1222845748
 21
-25.4649808359
 31
0.0
 11
6.8293013722
 21
-25.6411100787
 31
0.0
 11
6.1
 21
-25.8851146397
 31
0.0
  0
SPLINE
  5
3D0
100
AcDbEntity
  8
RACCORDO
100
AcDbSpline
 62
253
  6
CONTINUOUS
 70
0
 71
3
 72
15
 73
11
 74
9
 42
0.0000001
 43
0.0000001
 44
0.0000000001
 12
0.0413271508
 22
-2.3686468921
 32
0.0
 13
-2.3024164975
 23
-0.5577403562
 33
0.0
 40
0.0
 40
0.0
 40
0.0
 40
0.0
 40
0.0972834373
 40
0.1977407296
 40
0.3044517607
 40
0.4200824629
 40
0.5466539471
 40
0.685457426
 40
0.8368535105
 40
1.0
 40
1.0
 40
1.0
 40
1.0
 10
7.9736453933
 20
-24.4901455909
 30
0.0
 10
7.9749855424
 20
-24.5669556281
 30
0.0
 10
7.9598746577
 20
-24.7239305012
 30
0.0
 10
7.8841691571
 20
-24.9539704692
 30
0.0
 10
7.7557877204
 20
-25.1760966971
 30
0.0
 10
7.5753839109
 20
-25.3861904741
 30
0.0
 10
7.3436311553
 20
-25.5799482516
 30
0.0
 10
7.0620124823
 20
-25.7523284093
 30
0.0
 10
6.7337432396
 20
-25.8974514844
 30
0.0
 10
6.4953669733
 20
-25.9696688729
 30
0.0
 10
6.3701565837
 20
-26.0
 30
0.0
 11
7.9736453933
 21
-24.4901455909
 31
0.0
 11
7.9518734248
 21
-24.7195800731
 31
0.0
 11
7.8784635661
 21
-24.9459589798
 31
0.0
 11
7.7532236109
 21
-25.1655549727
 31
0.0
 11
7.5760050504
 21
-25.3744358488
 31
0.0
 11
7.3469996141
 21
-25.5679966976
 31
0.0
 11
7.0673090478
 21
-25.7409129578
 31
0.0
 11
6.7397925532
 21
-25.8870937536
 31
0.0
 11
6.3701565837
 21
-26.0
 31
0.0
  0
SPLINE
  5
3D1
100
AcDbEntity
  8
0
100
AcDbSpline
 62
7
  6
CONTINUOUS
 70
0
 71
3
 72
11
 73
7
 74
5
 42
0.0000001
 43
0.0000001
 44
0.0000000001
 12
0.0000500565
 22
0.0854821068
 32
0.0
 13
-0.0734383095
 23
0.0437493748
 33
0.0
 40
0.0
 40
0.0
 40
0.0
 40
0.0
 40
0.1878869369
 40
0.4056764164
 40
0.672940736
 40
1.0
 40
1.0
 40
1.0
 40
1.0
 10
1.7499970015
 20
-25.5635165586
 30
0.0
 10
1.7500001365
 20
-25.5581629015
 30
0.0
 10
1.7473076057
 20
-25.5465292165
 30
0.0
 10
1.736357375
 20
-25.5304614255
 30
0.0
 10
1.719147062
 20
-25.5148045231
 30
0.0
 10
1.7049769736
 20
-25.5054376432
 30
0.0
 10
1.6969707471
 20
-25.5006680971
 30
0.0
 11
1.7499970015
 21
-25.5635165586
 31
0.0
 11
1.7466676404
 21
-25.5478044538
 31
0.0
 11
1.7366813434
 21
-25.5320923395
 31
0.0
 11
1.7200956971
 21
-25.5163802193
 31
0.0
 11
1.6969707471
 21
-25.5006680971
 31
0.0
  0
SPLINE
  5
3D2
100
AcDbEntity
  8
0
100
AcDbSpline
 62
7
  6
CONTINUOUS
 70
0
 71
3
 72
11
 73
7
 74
5
 42
0.0000001
 43
0.0000001
 44
0.0000000001
 12
0.0734654841
 22
0.0437361595
 32
0.0
 13
0.0000500662
 23
0.085498693
 33
0.0
 40
0.0
 40
0.0
 40
0.0
 40
0.0
 40
0.3272001547
 40
0.5944002232
 40
0.8121066346
 40
1.0
 40
1.0
 40
1.0
 40
1.0
 10
1.6969533083
 20
-25.7263718252
 30
0.0
 10
1.7049659476
 20
-25.7216016658
 30
0.0
 10
1.7191459647
 20
-25.7122400344
 30
0.0
 10
1.7363592757
 20
-25.6965770874
 30
0.0
 10
1.7472952251
 20
-25.6805011046
 30
0.0
 10
1.7499938658
 20
-25.6688714377
 30
0.0
 10
1.7499970015
 20
-25.6635165586
 30
0.0
 11
1.6969533083
 21
-25.7263718252
 31
0.0
 11
1.7200981993
 21
-25.7106579683
 31
0.0
 11
1.7366807703
 21
-25.6949441441
 31
0.0
 11
1.7466579078
 21
-25.6792303458
 31
0.0
 11
1.7499970015
 21
-25.6635165586
 31
0.0
  0
SPLINE
  5
3D3
100
AcDbEntity
  8
0
100
AcDbSpline
 62
7
  6
CONTINUOUS
 70
0
 71
3
 72
9
 73
5
 74
3
 42
0.0000001
 43
0.0000001
 44
0.0000000001
 12
-0.995998146
 22
0.1394713606
 32
0.0
 13
-0.9662606276
 23
0.2789354167
 33
0.0
 40
0.0
 40
0.0
 40
0.0
 40
0.0
 40
0.2500748718
 40
1.0
 40
1.0
 40
1.0
 40
1.0
 10
-0.750027742
 20
-31.9466888207
 30
0.0
 10
-0.8330524449
 20
-31.9350627265
 30
0.0
 10
-1.1640552134
 20
-31.8814414464
 30
0.0
 10
-1.4905097659
 20
-31.8017777003
 30
0.0
 10
-1.7320508076
 20
-31.7320508076
 30
0.0
 11
-0.750027742
 21
-31.9466888207
 31
0.0
 11
-0.9983189609
 21
-31.9066154278
 31
0.0
 11
-1.7320508076
 21
-31.7320508076
 31
0.0
  0
SPLINE
  5
3D4
100
AcDbEntity
  8
0
100
AcDbSpline
 62
7
  6
CONTINUOUS
 70
0
 71
3
 72
12
 73
8
 74
6
 42
0.0000001
 43
0.0000001
 44
0.0000000001
 12
0.7111018774
 22
0.1261164103
 32
0.0
 13
0.6205554699
 23
0.3694348898
 33
0.0
 40
0.0
 40
0.0
 40
0.0
 40
0.0
 40
0.3374644157
 40
0.6213857484
 40
0.8437245476
 40
0.9302041566
 40
1.0
 40
1.0
 40
1.0
 40
1.0
 10
1.0004984486
 20
-25.9085390961
 30
0.0
 10
1.0804889751
 20
-25.8943524958
 30
0.0
 10
1.2275598196
 20
-25.8668411318
 30
0.0
 10
1.4258289657
 20
-25.8227252508
 30
0.0
 10
1.5634360984
 20
-25.7841090838
 30
0.0
 10
1.6486153293
 20
-25.7515351458
 30
0.0
 10
1.6825159109
 20
-25.7349668317
 30
0.0
 10
1.6969533083
 20
-25.7263718252
 30
0.0
 11
1.0004984486
 21
-25.9085390961
 31
0.0
 11
1.2399229064
 21
-25.863002027
 31
0.0
 11
1.4398484658
 21
-25.8174573502
 31
0.0
 11
1.5938273619
 21
-25.7719146868
 31
0.0
 11
1.6519836401
 21
-25.7491433467
 31
0.0
 11
1.6969533083
 21
-25.7263718252
 31
0.0
  0
SPLINE
  5
3D5
100
AcDbEntity
  8
0
100
AcDbSpline
 62
7
  6
CONTINUOUS
 70
0
 71
3
 72
11
 73
7
 74
5
 42
0.0000001
 43
0.0000001
 44
0.0000000001
 12
0.6689330698
 22
0.1186376245
 32
0.0
 13
0.6178847299
 23
0.2824266247
 33
0.0
 40
0.0
 40
0.0
 40
0.0
 40
0.0
 40
0.3225965762
 40
0.6007271077
 40
0.8279699795
 40
1.0
 40
1.0
 40
1.0
 40
1.0
 10
1.0004984486
 20
-25.8085390961
 30
0.0
 10
1.072430288
 20
-25.7957817322
 30
0.0
 10
1.206170998
 20
-25.7708541536
 30
0.0
 10
1.3895150538
 20
-25.7312738788
 30
0.0
 10
1.5378115236
 20
-25.6920086549
 30
0.0
 10
1.6234899474
 20
-25.662223954
 30
0.0
 10
1.6589215217
 20
-25.646028668
 30
0.0
 11
1.0004984486
 21
-25.8085390961
 31
0.0
 11
1.2158638037
 21
-25.7679161665
 31
0.0
 11
1.4003979294
 21
-25.7272860242
 31
0.0
 11
1.5493382818
 21
-25.6866570722
 31
0.0
 11
1.6589215217
 21
-25.646028668
 31
0.0
  0
SPLINE
  5
3D6
100
AcDbEntity
  8
0
100
AcDbSpline
 62
7
  6
CONTINUOUS
 70
0
 71
3
 72
9
 73
5
 74
3
 42
0.0000001
 43
0.0000001
 44
0.0000000001
 12
0.0292501826
 22
0.0133698568
 32
0.0
 13
0.0281785774
 23
0.0155014203
 33
0.0
 40
0.0
 40
0.0
 40
0.0
 40
0.0
 40
0.2638968985
 40
1.0
 40
1.0
 40
1.0
 40
1.0
 10
1.6589215217
 20
-25.646028668
 30
0.0
 10
1.6614945325
 20
-25.6448525801
 30
0.0
 10
1.6712092761
 20
-25.6403199349
 30
0.0
 10
1.6807790794
 20
-25.6354703504
 30
0.0
 10
1.6876931922
 20
-25.6316668026
 30
0.0
 11
1.6589215217
 21
-25.646028668
 31
0.0
 11
1.6666118201
 21
-25.6424382059
 31
0.0
 11
1.6876931922
 21
-25.6316668026
 31
0.0
  0
SPLINE
  5
3D7
100
AcDbEntity
  8
0
100
AcDbSpline
 62
7
  6
CONTINUOUS
 70
0
 71
3
 72
11
 73
7
 74
5
 42
0.0000001
 43
0.0000001
 44
0.0000000001
 12
0.0842172547
 22
0.0463290621
 32
0.0
 13
0.0000562854
 23
0.0961193259
 33
0.0
 40
0.0
 40
0.0
 40
0.0
 40
0.0
 40
0.3336707549
 40
0.6029377727
 40
0.8181056846
 40
1.0
 40
1.0
 40
1.0
 40
1.0
 10
1.6876931922
 20
-25.6316668026
 30
0.0
 10
1.6970601372
 20
-25.6265139182
 30
0.0
 10
1.7136071814
 20
-25.616438503
 30
0.0
 10
1.7338044444
 20
-25.5995196414
 30
0.0
 10
1.7467317435
 20
-25.5821369328
 30
0.0
 10
1.7499935889
 20
-25.5693444116
 30
0.0
 10
1.7499970015
 20
-25.5635165586
 30
0.0
 11
1.6876931922
 21
-25.6316668026
 31
0.0
 11
1.7148657318
 21
-25.614629198
 31
0.0
 11
1.7343487254
 21
-25.5975916245
 31
0.0
 11
1.7460730165
 21
-25.5805540843
 31
0.0
 11
1.7499970015
 21
-25.5635165586
 31
0.0
  0
SPLINE
  5
3D8
100
AcDbEntity
  8
0
100
AcDbSpline
 62
7
  6
CONTINUOUS
 70
0
 71
3
 72
11
 73
7
 74
5
 42
0.0000001
 43
0.0000001
 44
0.0000000001
 12
-0.793778378
 22
-0.4582881602
 32
0.0
 13
-0.9165763204
 23
-0.0000014733
 33
0.0
 40
0.0
 40
0.0
 40
0.0
 40
0.0
 40
0.2616427464
 40
0.5144969208
 40
0.7595946891
 40
1.0
 40
1.0
 40
1.0
 40
1.0
 10
-1.7320508076
 20
-31.7320508076
 30
0.0
 10
-1.8012795925
 20
-31.7720200652
 30
0.0
 10
-1.9405539894
 20
-31.8454219586
 30
0.0
 10
-2.156507129
 20
-31.9318785418
 30
0.0
 10
-2.3760175621
 20
-31.9871944296
 30
0.0
 10
-2.5246262728
 20
-31.9999998819
 30
0.0
 10
-2.5980762112
 20
-32.0
 30
0.0
 11
-1.7320508076
 21
-31.7320508076
 31
0.0
 11
-1.9447426634
 21
-31.8428374062
 31
0.0
 11
-2.160380817
 21
-31.9277665136
 31
0.0
 11
-2.3785010317
 21
-31.9815397286
 31
0.0
 11
-2.5980762112
 21
-32.0
 31
0.0
  0
SPLINE
  5
3D9
100
AcDbEntity
  8
0
100
AcDbSpline
 62
7
  6
CONTINUOUS
 70
0
 71
3
 72
9
 73
5
 74
3
 42
0.0000001
 43
0.0000001
 44
0.0000000001
 12
-0.4620327758
 22
0.0000005712
 32
0.0
 13
-0.4381778194
 23
0.14654175
 33
0.0
 40
0.0
 40
0.0
 40
0.0
 40
0.0
 40
0.4948374685
 40
1.0
 40
1.0
 40
1.0
 40
1.0
 10
-2.5980762112
 20
-32.0
 30
0.0
 10
-2.6742865876
 20
-31.9999999058
 30
0.0
 10
-2.8285754848
 20
-31.9861913188
 30
0.0
 10
-2.9782131178
 20
-31.9471050724
 30
0.0
 10
-3.05199679
 20
-31.922429272
 30
0.0
 11
-2.5980762112
 21
-32.0
 31
0.0
 11
-2.8258435145
 21
-31.9801443015
 31
0.0
 11
-3.05199679
 21
-31.922429272
 31
0.0
  0
SPLINE
  5
3DA
100
AcDbEntity
  8
0
100
AcDbSpline
 62
7
  6
CONTINUOUS
 70
0
 71
3
 72
9
 73
5
 74
3
 42
0.0000001
 43
0.0000001
 44
0.0000000001
 12
-0.4309542912
 22
0.1441259535
 32
0.0
 13
-0.3935357909
 23
0.2272079948
 33
0.0
 40
0.0
 40
0.0
 40
0.0
 40
0.0
 40
0.2440324498
 40
1.0
 40
1.0
 40
1.0
 40
1.0
 10
-3.05199679
 20
-31.922429272
 30
0.0
 10
-3.0870524005
 20
-31.9107054688
 30
0.0
 10
-3.2291712997
 20
-31.8580652726
 30
0.0
 10
-3.3649348526
 20
-31.7893047646
 30
0.0
 10
-3.4641016151
 20
-31.7320508076
 30
0.0
 11
-3.05199679
 21
-31.922429272
 31
0.0
 11
-3.1560371742
 21
-31.8840536426
 31
0.0
 11
-3.4641016151
 21
-31.7320508076
 31
0.0
  0
SPLINE
  5
3DB
100
AcDbEntity
  8
0
100
AcDbSpline
 62
7
  6
CONTINUOUS
 70
0
 71
3
 72
11
 73
7
 74
5
 42
0.0000001
 43
0.0000001
 44
0.0000000001
 12
0.0
 22
-0.15389901
 32
0.0
 13
-0.1344827732
 23
-0.0748283971
 33
0.0
 40
0.0
 40
0.0
 40
0.0
 40
0.0
 40
0.1820825085
 40
0.3979566957
 40
0.6676945183
 40
1.0
 40
1.0
 40
1.0
 40
1.0
 10
1.1
 20
-25.1882387893
 30
0.0
 10
1.1
 20
-25.1975795619
 30
0.0
 10
1.0947094767
 20
-25.2181030112
 30
0.0
 10
1.0739100092
 20
-25.2459393355
 30
0.0
 10
1.0415738734
 20
-25.2730055121
 30
0.0
 10
1.0151863595
 20
-25.2892112173
 30
0.0
 10
1.0002899053
 20
-25.2974998461
 30
0.0
 11
1.1
 21
-25.1882387893
 31
0.0
 11
1.0936710357
 21
-25.2155370403
 31
0.0
 11
1.0747833995
 21
-25.2428685827
 31
0.0
 11
1.0435283807
 21
-25.2701889381
 31
0.0
 11
1.0002899053
 21
-25.2974998461
 31
0.0
  0
SPLINE
  5
3DC
100
AcDbEntity
  8
0
100
AcDbSpline
 62
7
  6
CONTINUOUS
 70
0
 71
3
 72
9
 73
5
 74
3
 42
0.0000001
 43
0.0000001
 44
0.0000000001
 12
0.0205606438
 22
0.0114613765
 32
0.0
 13
0.0199896195
 23
0.0124305404
 33
0.0
 40
0.0
 40
0.0
 40
0.0
 40
0.0
 40
0.2576167838
 40
1.0
 40
1.0
 40
1.0
 40
1.0
 10
1.0006429014
 20
-24.5478582349
 30
0.0
 10
1.0024084903
 20
-24.5468740206
 30
0.0
 10
1.0092412806
 20
-24.5430165629
 30
0.0
 10
1.0159885876
 20
-24.5390067605
 30
0.0
 10
1.0209352403
 20
-24.5359306856
 30
0.0
 11
1.0006429014
 21
-24.5478582349
 31
0.0
 11
1.0059233
 21
-24.5448764183
 31
0.0
 11
1.0209352403
 21
-24.5359306856
 31
0.0
  0
LINE
  5
3DD
100
AcDbEntity
  8
DRAFT
100
AcDbLine
 62
7
  6
CONTINUOUS
 10
6.0155401463
 20
-25.1999961015
 11
6.0157435333
 21
-25.1883304056
  0
LINE
  5
3DE
100
AcDbEntity
  8
DRAFT
100
AcDbLine
 62
7
  6
CONTINUOUS
 10
6.0157435333
 20
-25.1883304056
 11
6.0157586678
 21
-25.1874619647
  0
LINE
  5
3DF
100
AcDbEntity
  8
DRAFT
100
AcDbLine
 62
7
  6
CONTINUOUS
 10
6.0157586678
 20
-25.1874619647
 11
6.0163675182
 21
-25.1524828035
  0
LINE
  5
3E0
100
AcDbEntity
  8
DRAFT
100
AcDbLine
 62
7
  6
CONTINUOUS
 10
6.0163675182
 20
-25.1524828035
 11
6.0207702069
 21
-24.8970315034
  0
LINE
  5
3E1
100
AcDbEntity
  8
DRAFT
100
AcDbLine
 62
7
  6
CONTINUOUS
 10
6.0207702069
 20
-24.8970315034
 11
6.0172583397
 21
-25.0922382423
  0
LINE
  5
3E2
100
AcDbEntity
  8
DRAFT
100
AcDbLine
 62
7
  6
CONTINUOUS
 10
6.0172583397
 20
-25.0922382423
 11
6.0172534615
 21
-25.0925073826
  0
LINE
  5
3E3
100
AcDbEntity
  8
DRAFT
100
AcDbLine
 62
7
  6
CONTINUOUS
 10
6.0172534615
 20
-25.0925073826
 11
6.0161639547
 21
-25.1524798691
  0
LINE
  5
3E4
100
AcDbEntity
  8
DRAFT
100
AcDbLine
 62
7
  6
CONTINUOUS
 10
6.0155103713
 20
-25.188326345
 11
6.0155081627
 21
-25.187457602
  0
LINE
  5
3E5
100
AcDbEntity
  8
DRAFT
100
AcDbLine
 62
7
  6
CONTINUOUS
 10
6.0155081627
 20
-25.187457602
 11
6.016093264
 21
-25.152477596
  0
LINE
  5
3E6
100
AcDbEntity
  8
DRAFT
100
AcDbLine
 62
7
  6
CONTINUOUS
 10
6.016093264
 20
-25.152477596
 11
6.0161010895
 21
-25.1520092515
  0
LINE
  5
3E7
100
AcDbEntity
  8
DRAFT
100
AcDbLine
 62
7
  6
CONTINUOUS
 10
6.0161010895
 20
-25.1520092515
 11
6.0170935953
 21
-25.092501758
  0
LINE
  5
3E8
100
AcDbEntity
  8
DRAFT
100
AcDbLine
 62
7
  6
CONTINUOUS
 10
6.0170935953
 20
-25.092501758
 11
6.0207189508
 21
-24.8732903968
  0
LINE
  5
3E9
100
AcDbEntity
  8
DRAFT
100
AcDbLine
 62
7
  6
CONTINUOUS
 10
6.0207189508
 20
-24.8732903968
 11
6.0165855507
 21
-25.0916052856
  0
LINE
  5
3EA
100
AcDbEntity
  8
DRAFT
100
AcDbLine
 62
7
  6
CONTINUOUS
 10
6.0165855507
 20
-25.0916052856
 11
6.0165685236
 21
-25.0924962396
  0
LINE
  5
3EB
100
AcDbEntity
  8
DRAFT
100
AcDbLine
 62
7
  6
CONTINUOUS
 10
6.0165685236
 20
-25.0924962396
 11
6.0154194626
 21
-25.1524663263
  0
LINE
  5
3EC
100
AcDbEntity
  8
DRAFT
100
AcDbLine
 62
7
  6
CONTINUOUS
 10
6.0206169849
 20
-24.8258447908
 11
6.0169674244
 21
-25.0084725484
  0
LINE
  5
3ED
100
AcDbEntity
  8
DRAFT
100
AcDbLine
 62
7
  6
CONTINUOUS
 10
6.0169674244
 20
-25.0084725484
 11
6.0152672176
 21
-25.0924713391
  0
LINE
  5
3EE
100
AcDbEntity
  8
DRAFT
100
AcDbLine
 62
7
  6
CONTINUOUS
 10
6.0204635409
 20
-24.7547678428
 11
6.015051815
 21
-25.0084338913
  0
LINE
  5
3EF
100
AcDbEntity
  8
DRAFT
100
AcDbLine
 62
7
  6
CONTINUOUS
 10
6.0202564024
 20
-24.6601691486
 11
6.0147698696
 21
-24.9004835624
  0
LINE
  5
3F0
100
AcDbEntity
  8
DRAFT
100
AcDbLine
 62
7
  6
CONTINUOUS
 10
6.0199925323
 20
-24.5421945723
 11
6.0144186081
 21
-24.7687868042
  0
LINE
  5
3F1
100
AcDbEntity
  8
DRAFT
100
AcDbLine
 62
7
  6
CONTINUOUS
 10
6.0196702602
 20
-24.4010260223
 11
6.0139955265
 21
-24.6135466834
  0
LINE
  5
3F2
100
AcDbEntity
  8
DRAFT
100
AcDbLine
 62
7
  6
CONTINUOUS
 10
6.0192870918
 20
-24.2368811703
 11
6.01349626
 21
-24.4350025691
  0
LINE
  5
3F3
100
AcDbEntity
  8
DRAFT
100
AcDbLine
 62
7
  6
CONTINUOUS
 10
6.0188387923
 20
-24.0500131156
 11
6.0129142638
 21
-24.2334297633
  0
LINE
  5
3F4
100
AcDbEntity
  8
DRAFT
100
AcDbLine
 62
7
  6
CONTINUOUS
 10
6.0183192425
 20
-23.8407099953
 11
6.0122416095
 21
-24.0091390767
  0
LINE
  5
3F5
100
AcDbEntity
  8
DRAFT
100
AcDbLine
 62
7
  6
CONTINUOUS
 10
6.0177220172
 20
-23.6092945396
 11
6.0114703134
 21
-23.7624763494
  0
LINE
  5
3F6
100
AcDbEntity
  8
DRAFT
100
AcDbLine
 62
7
  6
CONTINUOUS
 10
6.010495084
 20
-21.4043609818
 11
6.0097077494
 21
-21.4083414901
  0
LINE
  5
3F7
100
AcDbEntity
  8
DRAFT
100
AcDbLine
 62
7
  6
CONTINUOUS
 10
-6.010495084
 20
-21.4043609818
 11
-6.0097077494
 21
-21.4083414901
  0
LINE
  5
3F8
100
AcDbEntity
  8
DRAFT
100
AcDbLine
 62
7
  6
CONTINUOUS
 10
-6.0177220172
 20
-23.6092945396
 11
-6.0114703134
 21
-23.7624763494
  0
LINE
  5
3F9
100
AcDbEntity
  8
DRAFT
100
AcDbLine
 62
7
  6
CONTINUOUS
 10
-6.0183192425
 20
-23.8407099953
 11
-6.0122416095
 21
-24.0091390767
  0
LINE
  5
3FA
100
AcDbEntity
  8
DRAFT
100
AcDbLine
 62
7
  6
CONTINUOUS
 10
-6.0188387923
 20
-24.0500131156
 11
-6.0129142638
 21
-24.2334297633
  0
LINE
  5
3FB
100
AcDbEntity
  8
DRAFT
100
AcDbLine
 62
7
  6
CONTINUOUS
 10
-6.0192870918
 20
-24.2368811703
 11
-6.0168463061
 21
-24.3212638573
  0
LINE
  5
3FC
100
AcDbEntity
  8
0
100
AcDbLine
 62
7
  6
CONTINUOUS
 10
-4.2345252534
 20
-19.0770196181
 11
-4.275
 21
-19.0674739378
  0
LINE
  5
3FD
100
AcDbEntity
  8
ASSI
100
AcDbLine
 62
7
  6
CONTINUOUS
 10
4.275
 20
-19.0674739378
 11
4.2345252416
 21
-19.0770196208
  0
LINE
  5
3FE
100
AcDbEntity
  8
DRAFT
100
AcDbLine
 62
7
  6
CONTINUOUS
 10
6.0154194626
 20
-25.1524663263
 11
6.0154150657
 21
-25.1507301799
  0
LINE
  5
3FF
100
AcDbEntity
  8
DRAFT
100
AcDbLine
 62
7
  6
CONTINUOUS
 10
6.0154150657
 20
-25.1507301799
 11
6.0206169849
 21
-24.8258447908
  0
LINE
  5
400
100
AcDbEntity
  8
DRAFT
100
AcDbLine
 62
7
  6
CONTINUOUS
 10
6.0152672176
 20
-25.0924713391
 11
6.0152605952
 21
-25.0898704663
  0
LINE
  5
401
100
AcDbEntity
  8
DRAFT
100
AcDbLine
 62
7
  6
CONTINUOUS
 10
6.0152605952
 20
-25.0898704663
 11
6.0204635409
 21
-24.7547678428
  0
LINE
  5
402
100
AcDbEntity
  8
DRAFT
100
AcDbLine
 62
7
  6
CONTINUOUS
 10
6.015051815
 20
-25.0084338913
 11
6.015042871
 21
-25.0049723024
  0
LINE
  5
403
100
AcDbEntity
  8
DRAFT
100
AcDbLine
 62
7
  6
CONTINUOUS
 10
6.015042871
 20
-25.0049723024
 11
6.0202564024
 21
-24.6601691486
  0
LINE
  5
404
100
AcDbEntity
  8
DRAFT
100
AcDbLine
 62
7
  6
CONTINUOUS
 10
6.0147698696
 20
-24.9004835624
 11
6.0147584722
 21
-24.8961665951
  0
LINE
  5
405
100
AcDbEntity
  8
DRAFT
100
AcDbLine
 62
7
  6
CONTINUOUS
 10
6.0147584722
 20
-24.8961665951
 11
6.0199925323
 21
-24.5421945723
  0
LINE
  5
406
100
AcDbEntity
  8
DRAFT
100
AcDbLine
 62
7
  6
CONTINUOUS
 10
6.0144186081
 20
-24.7687868042
 11
6.0144046861
 21
-24.7636211147
  0
LINE
  5
407
100
AcDbEntity
  8
DRAFT
100
AcDbLine
 62
7
  6
CONTINUOUS
 10
6.0144046861
 20
-24.7636211147
 11
6.0196702602
 21
-24.4010260223
  0
LINE
  5
408
100
AcDbEntity
  8
DRAFT
100
AcDbLine
 62
7
  6
CONTINUOUS
 10
6.0139955265
 20
-24.6135466834
 11
6.0139789579
 21
-24.607540237
  0
LINE
  5
409
100
AcDbEntity
  8
DRAFT
100
AcDbLine
 62
7
  6
CONTINUOUS
 10
6.0139789579
 20
-24.607540237
 11
6.0192870918
 21
-24.2368811703
  0
LINE
  5
40A
100
AcDbEntity
  8
DRAFT
100
AcDbLine
 62
7
  6
CONTINUOUS
 10
6.01349626
 20
-24.4350025691
 11
6.0134768492
 21
-24.4281646272
  0
LINE
  5
40B
100
AcDbEntity
  8
DRAFT
100
AcDbLine
 62
7
  6
CONTINUOUS
 10
6.0134768492
 20
-24.4281646272
 11
6.0188387923
 21
-24.0500131156
  0
LINE
  5
40C
100
AcDbEntity
  8
DRAFT
100
AcDbLine
 62
7
  6
CONTINUOUS
 10
6.0129142638
 20
-24.2334297633
 11
6.0128917341
 21
-24.2257708696
  0
LINE
  5
40D
100
AcDbEntity
  8
DRAFT
100
AcDbLine
 62
7
  6
CONTINUOUS
 10
6.0128917341
 20
-24.2257708696
 11
6.0183192425
 21
-23.8407099953
  0
LINE
  5
40E
100
AcDbEntity
  8
DRAFT
100
AcDbLine
 62
7
  6
CONTINUOUS
 10
6.0122416095
 20
-24.0091390767
 11
6.0122156877
 21
-24.0006710406
  0
LINE
  5
40F
100
AcDbEntity
  8
DRAFT
100
AcDbLine
 62
7
  6
CONTINUOUS
 10
6.0122156877
 20
-24.0006710406
 11
6.0177220172
 21
-23.6092945396
  0
LINE
  5
410
100
AcDbEntity
  8
DRAFT
100
AcDbLine
 62
7
  6
CONTINUOUS
 10
6.0114703134
 20
-23.7624763494
 11
6.0114406732
 21
-23.753212228
  0
LINE
  5
411
100
AcDbEntity
  8
DRAFT
100
AcDbLine
 62
7
  6
CONTINUOUS
 10
6.0114406732
 20
-23.753212228
 11
6.0170401739
 21
-23.3561235744
  0
LINE
  5
412
100
AcDbEntity
  8
DRAFT
100
AcDbLine
 62
7
  6
CONTINUOUS
 10
6.0105900805
 20
-23.4938219172
 11
6.0105563151
 21
-23.4837759951
  0
LINE
  5
413
100
AcDbEntity
  8
DRAFT
100
AcDbLine
 62
7
  6
CONTINUOUS
 10
6.0105563151
 20
-23.4837759951
 11
6.0162648112
 21
-23.081587471
  0
LINE
  5
414
100
AcDbEntity
  8
DRAFT
100
AcDbLine
 62
7
  6
CONTINUOUS
 10
6.0095883725
 20
-23.203590026
 11
6.0095499686
 21
-23.1927777933
  0
LINE
  5
415
100
AcDbEntity
  8
DRAFT
100
AcDbLine
 62
7
  6
CONTINUOUS
 10
6.0095499686
 20
-23.1927777933
 11
6.0153850026
 21
-22.7861095441
  0
LINE
  5
416
100
AcDbEntity
  8
DRAFT
100
AcDbLine
 62
7
  6
CONTINUOUS
 10
6.0084490468
 20
-22.8922281921
 11
6.0084053678
 21
-22.8806663206
  0
LINE
  5
417
100
AcDbEntity
  8
DRAFT
100
AcDbLine
 62
7
  6
CONTINUOUS
 10
6.0084053678
 20
-22.8806663206
 11
6.0143868889
 21
-22.4701453992
  0
LINE
  5
418
100
AcDbEntity
  8
DRAFT
100
AcDbLine
 62
7
  6
CONTINUOUS
 10
6.0071528609
 20
-22.5602165131
 11
6.0071031313
 21
-22.5479228302
  0
LINE
  5
419
100
AcDbEntity
  8
DRAFT
100
AcDbLine
 62
7
  6
CONTINUOUS
 10
6.0071031313
 20
-22.5479228302
 11
6.0132540896
 21
-22.1341822303
  0
LINE
  5
41A
100
AcDbEntity
  8
DRAFT
100
AcDbLine
 62
7
  6
CONTINUOUS
 10
6.0056751102
 20
-22.2080669269
 11
6.0056183316
 21
-22.1950603886
  0
LINE
  5
41B
100
AcDbEntity
  8
DRAFT
100
AcDbLine
 62
7
  6
CONTINUOUS
 10
6.0056183316
 20
-22.1950603886
 11
6.0119654998
 21
-21.7787380681
  0
LINE
  5
41C
100
AcDbEntity
  8
DRAFT
100
AcDbLine
 62
7
  6
CONTINUOUS
 10
6.0039849241
 20
-21.8363224226
 11
6.0039198367
 21
-21.822623084
  0
LINE
  5
41D
100
AcDbEntity
  8
DRAFT
100
AcDbLine
 62
7
  6
CONTINUOUS
 10
6.0039198367
 20
-21.822623084
 11
6.009847559
 21
-21.4455686076
  0
LINE
  5
41E
100
AcDbEntity
  8
DRAFT
100
AcDbLine
 62
7
  6
CONTINUOUS
 10
6.009847559
 20
-21.4455686076
 11
6.0100733941
 21
-21.4311971991
  0
LINE
  5
41F
100
AcDbEntity
  8
DRAFT
100
AcDbLine
 62
7
  6
CONTINUOUS
 10
6.0100733941
 20
-21.4311971991
 11
6.010495084
 21
-21.4043609818
  0
SPLINE
  5
420
100
AcDbEntity
  8
DRAFT
100
AcDbSpline
 62
7
  6
CONTINUOUS
 70
0
 71
3
 72
9
 73
5
 74
3
 42
0.0000001
 43
0.0000001
 44
0.0000000001
 12
0.002628628
 22
1.5446182033
 32
0.0
 13
0.0038739892
 23
1.5446155819
 33
0.0
 40
0.0
 40
0.0
 40
0.0
 40
0.0
 40
0.2405522958
 40
1.0
 40
1.0
 40
1.0
 40
1.0
 10
-6.0341411679
 20
-19.7294875438
 30
0.0
 10
-6.0339303938
 20
-19.6056337255
 30
0.0
 10
-6.0330173253
 20
-19.0907610575
 30
0.0
 10
-6.0319343081
 20
-18.5758886656
 30
0.0
 10
-6.0309536107
 20
-18.1848704131
 30
0.0
 11
-6.0341411679
 21
-19.7294875438
 31
0.0
 11
-6.0334812782
 21
-19.3579261368
 31
0.0
 11
-6.0309536107
 21
-18.1848704131
 31
0.0
  0
LINE
  5
421
100
AcDbEntity
  8
DRAFT
100
AcDbLine
 62
7
  6
CONTINUOUS
 10
-6.026282923
 20
-20.1490444979
 11
-6.0341411679
 21
-19.7294875438
  0
LINE
  5
422
100
AcDbEntity
  8
DRAFT
100
AcDbLine
 62
7
  6
CONTINUOUS
 10
-6.0263243338
 20
-20.1652936192
 11
-6.026282923
 21
-20.1490444979
  0
LINE
  5
423
100
AcDbEntity
  8
DRAFT
100
AcDbLine
 62
7
  6
CONTINUOUS
 10
6.0263243338
 20
-20.1652936192
 11
6.026282923
 21
-20.1490444979
  0
LINE
  5
424
100
AcDbEntity
  8
DRAFT
100
AcDbLine
 62
7
  6
CONTINUOUS
 10
6.026282923
 20
-20.1490444979
 11
6.0341411679
 21
-19.7294875438
  0
SPLINE
  5
425
100
AcDbEntity
  8
DRAFT
100
AcDbSpline
 62
7
  6
CONTINUOUS
 70
0
 71
3
 72
9
 73
5
 74
3
 42
0.0000001
 43
0.0000001
 44
0.0000000001
 12
-0.003503419
 22
2.0586574729
 32
0.0
 13
-0.0060103669
 23
2.0586516801
 33
0.0
 40
0.0
 40
0.0
 40
0.0
 40
0.0
 40
0.4843344177
 40
1.0
 40
1.0
 40
1.0
 40
1.0
 10
6.0341411679
 20
-19.7294875438
 30
0.0
 10
6.0335755591
 20
-19.3971279877
 30
0.0
 10
6.0322789494
 20
-18.7109090448
 30
0.0
 10
6.0305961598
 20
-18.0246908768
 30
0.0
 10
6.0295630467
 20
-17.670832271
 30
0.0
 11
6.0341411679
 21
-19.7294875438
 31
0.0
 11
6.0322289837
 21
-18.7324092653
 31
0.0
 11
6.0295630467
 21
-17.670832271
 31
0.0
  0
LINE
  5
426
100
AcDbEntity
  8
DRAFT
100
AcDbLine
 62
7
  6
CONTINUOUS
 10
-6.05
 20
-23.2257968803
 11
-6.05
 21
-19.1
  0
LINE
  5
427
100
AcDbEntity
  8
DRAFT
100
AcDbLine
 62
7
  6
CONTINUOUS
 10
6.05
 20
-23.2257968803
 11
6.05
 21
-19.1
  0
LINE
  5
428
100
AcDbEntity
  8
DRAFT
100
AcDbLine
 62
7
  6
CONTINUOUS
 10
-6.05
 20
-19.1
 11
-6.0499999078
 21
-18.1937896272
  0
LINE
  5
429
100
AcDbEntity
  8
DRAFT
100
AcDbLine
 62
7
  6
CONTINUOUS
 10
6.05
 20
-19.1
 11
6.0499998513
 21
-17.0000001884
  0
LINE
  5
42A
100
AcDbEntity
  8
DRAFT
100
AcDbLine
 62
7
  6
CONTINUOUS
 10
-6.0039198367
 20
-21.822623084
 11
-6.009847559
 21
-21.4455686076
  0
LINE
  5
42B
100
AcDbEntity
  8
DRAFT
100
AcDbLine
 62
7
  6
CONTINUOUS
 10
-6.009847559
 20
-21.4455686076
 11
-6.0100733941
 21
-21.4311971991
  0
LINE
  5
42C
100
AcDbEntity
  8
DRAFT
100
AcDbLine
 62
7
  6
CONTINUOUS
 10
-6.0100733941
 20
-21.4311971991
 11
-6.010495084
 21
-21.4043609818
  0
LINE
  5
42D
100
AcDbEntity
  8
DRAFT
100
AcDbLine
 62
7
  6
CONTINUOUS
 10
-6.0039849241
 20
-21.8363224226
 11
-6.0039198367
 21
-21.822623084
  0
LINE
  5
42E
100
AcDbEntity
  8
DRAFT
100
AcDbLine
 62
7
  6
CONTINUOUS
 10
-6.0056183316
 20
-22.1950603886
 11
-6.0119654998
 21
-21.7787380681
  0
LINE
  5
42F
100
AcDbEntity
  8
DRAFT
100
AcDbLine
 62
7
  6
CONTINUOUS
 10
-6.0056751102
 20
-22.2080669269
 11
-6.0056183316
 21
-22.1950603886
  0
LINE
  5
430
100
AcDbEntity
  8
DRAFT
100
AcDbLine
 62
7
  6
CONTINUOUS
 10
-6.0071031313
 20
-22.5479228302
 11
-6.0132540896
 21
-22.1341822303
  0
LINE
  5
431
100
AcDbEntity
  8
DRAFT
100
AcDbLine
 62
7
  6
CONTINUOUS
 10
-6.0071528609
 20
-22.5602165131
 11
-6.0071031313
 21
-22.5479228302
  0
LINE
  5
432
100
AcDbEntity
  8
DRAFT
100
AcDbLine
 62
7
  6
CONTINUOUS
 10
-6.0084053678
 20
-22.8806663206
 11
-6.0143868889
 21
-22.4701453992
  0
LINE
  5
433
100
AcDbEntity
  8
DRAFT
100
AcDbLine
 62
7
  6
CONTINUOUS
 10
-6.0084490468
 20
-22.8922281921
 11
-6.0084053678
 21
-22.8806663206
  0
LINE
  5
434
100
AcDbEntity
  8
DRAFT
100
AcDbLine
 62
7
  6
CONTINUOUS
 10
-6.0095499686
 20
-23.1927777933
 11
-6.0153850026
 21
-22.7861095441
  0
LINE
  5
435
100
AcDbEntity
  8
DRAFT
100
AcDbLine
 62
7
  6
CONTINUOUS
 10
-6.0095883725
 20
-23.203590026
 11
-6.0095499686
 21
-23.1927777933
  0
LINE
  5
436
100
AcDbEntity
  8
DRAFT
100
AcDbLine
 62
7
  6
CONTINUOUS
 10
-6.0105563151
 20
-23.4837759951
 11
-6.0162648112
 21
-23.081587471
  0
LINE
  5
437
100
AcDbEntity
  8
DRAFT
100
AcDbLine
 62
7
  6
CONTINUOUS
 10
-6.0105900805
 20
-23.4938219172
 11
-6.0105563151
 21
-23.4837759951
  0
LINE
  5
438
100
AcDbEntity
  8
DRAFT
100
AcDbLine
 62
7
  6
CONTINUOUS
 10
-6.0114406732
 20
-23.753212228
 11
-6.0170401739
 21
-23.3561235744
  0
LINE
  5
439
100
AcDbEntity
  8
DRAFT
100
AcDbLine
 62
7
  6
CONTINUOUS
 10
-6.0114703134
 20
-23.7624763494
 11
-6.0114406732
 21
-23.753212228
  0
LINE
  5
43A
100
AcDbEntity
  8
DRAFT
100
AcDbLine
 62
7
  6
CONTINUOUS
 10
-6.0122156877
 20
-24.0006710406
 11
-6.0177220172
 21
-23.6092945396
  0
LINE
  5
43B
100
AcDbEntity
  8
DRAFT
100
AcDbLine
 62
7
  6
CONTINUOUS
 10
-6.0122416095
 20
-24.0091390767
 11
-6.0122156877
 21
-24.0006710406
  0
LINE
  5
43C
100
AcDbEntity
  8
DRAFT
100
AcDbLine
 62
7
  6
CONTINUOUS
 10
-6.0128917341
 20
-24.2257708696
 11
-6.0183192425
 21
-23.8407099953
  0
LINE
  5
43D
100
AcDbEntity
  8
DRAFT
100
AcDbLine
 62
7
  6
CONTINUOUS
 10
-6.0129142638
 20
-24.2334297633
 11
-6.0128917341
 21
-24.2257708696
  0
LINE
  5
43E
100
AcDbEntity
  8
DRAFT
100
AcDbLine
 62
7
  6
CONTINUOUS
 10
-6.0149856149
 20
-24.3221336313
 11
-6.0188387923
 21
-24.0500131156
  0
LINE
  5
43F
100
AcDbEntity
  8
DRAFT
100
AcDbLine
 62
7
  6
CONTINUOUS
 10
-6.0180921312
 20
-24.3206813635
 11
-6.0192870918
 21
-24.2368811703
  0
SPLINE
  5
440
100
AcDbEntity
  8
0
100
AcDbSpline
 62
7
  6
CONTINUOUS
 70
0
 71
3
 72
10
 73
6
 74
4
 42
0.0000001
 43
0.0000001
 44
0.0000000001
 12
-0.0002021357
 22
0.1081871016
 32
0.0
 13
0.104117258
 23
0.0293953466
 33
0.0
 40
0.0
 40
0.0
 40
0.0
 40
0.0
 40
0.3309397601
 40
0.6198998486
 40
1.0
 40
1.0
 40
1.0
 40
1.0
 10
-5.8972894123
 20
-33.5943207228
 30
0.0
 10
-5.8973117105
 20
-33.5823862517
 30
0.0
 10
-5.8753205925
 20
-33.5653795424
 30
0.0
 10
-5.8438689598
 20
-33.5517787886
 30
0.0
 10
-5.8204081503
 20
-33.5441907299
 30
0.0
 10
-5.8072164885
 20
-33.540466338
 30
0.0
 11
-5.8972894123
 21
-33.5943207228
 31
0.0
 11
-5.8745422313
 21
-33.5666719498
 31
0.0
 11
-5.84628448
 21
-33.5533003308
 31
0.0
 11
-5.8072164885
 21
-33.540466338
 31
0.0
  0
SPLINE
  5
441
100
AcDbEntity
  8
0
100
AcDbSpline
 62
7
  6
CONTINUOUS
 70
0
 71
3
 72
10
 73
6
 74
4
 42
0.0000001
 43
0.0000001
 44
0.0000000001
 12
0.4231127284
 22
0.1194570961
 32
0.0
 13
0.4388841311
 23
0.0259826521
 33
0.0
 40
0.0
 40
0.0
 40
0.0
 40
0.0
 40
0.185300418
 40
0.4182667019
 40
1.0
 40
1.0
 40
1.0
 40
1.0
 10
-5.8072164885
 20
-33.540466338
 30
0.0
 10
-5.7810821667
 20
-33.5330878547
 30
0.0
 10
-5.721088109
 20
-33.5200519595
 30
0.0
 10
-5.5761819614
 20
-33.4979424721
 30
0.0
 10
-5.457036295
 20
-33.4880857641
 30
0.0
 10
-5.3719317907
 20
-33.4830474395
 30
0.0
 11
-5.8072164885
 21
-33.540466338
 31
0.0
 11
-5.7278042851
 21
-33.5222810394
 31
0.0
 11
-5.6266312609
 21
-33.5063204341
 31
0.0
 11
-5.3719317907
 21
-33.4830474395
 31
0.0
  0
SPLINE
  5
442
100
AcDbEntity
  8
0
100
AcDbSpline
 62
7
  6
CONTINUOUS
 70
0
 71
3
 72
17
 73
13
 74
11
 42
0.0000001
 43
0.0000001
 44
0.0000000001
 12
-0.0286108225
 22
1.1106685615
 32
0.0
 13
1.1001993518
 23
-0.1548051002
 33
0.0
 40
0.0
 40
0.0
 40
0.0
 40
0.0
 40
0.0313498546
 40
0.0607278979
 40
0.1004812612
 40
0.1500427727
 40
0.2088868568
 40
0.3527764207
 40
0.5194499163
 40
0.6923313195
 40
0.8583417302
 40
1.0
 40
1.0
 40
1.0
 40
1.0
 10
-5.7868551368
 20
-36.1425428129
 30
0.0
 10
-5.7871541185
 20
-36.1309363803
 30
0.0
 10
-5.7642048312
 20
-36.1140460217
 30
0.0
 10
-5.7312163689
 20
-36.1018423314
 30
0.0
 10
-5.6880824209
 20
-36.0898462063
 30
0.0
 10
-5.6345049578
 20
-36.0792197784
 30
0.0
 10
-5.5419754976
 20
-36.0651806702
 30
0.0
 10
-5.4056077895
 20
-36.0535773316
 30
0.0
 10
-5.2266112836
 20
-36.0473133164
 30
0.0
 10
-5.0393444848
 20
-36.047796952
 30
0.0
 10
-4.8614529478
 20
-36.0539825212
 30
0.0
 10
-4.7478357977
 20
-36.064191524
 30
0.0
 10
-4.6958850188
 20
-36.0715013316
 30
0.0
 11
-5.7868551368
 21
-36.1425428129
 31
0.0
 11
-5.7642623799
 21
-36.1160332796
 31
0.0
 11
-5.7341843879
 21
-36.1033569202
 31
0.0
 11
-5.691678389
 21
-36.0913567375
 31
0.0
 11
-5.6377455105
 21
-36.080249853
 31
0.0
 11
-5.5731249722
 21
-36.0703269983
 31
0.0
 11
-5.4139452369
 21
-36.0555232346
 31
0.0
 11
-5.2288968315
 21
-36.0485320742
 31
0.0
 11
-5.0368194651
 21
-36.0488543679
 31
0.0
 11
-4.8525187277
 21
-36.0561152449
 31
0.0
 11
-4.6958850188
 21
-36.0715013316
 31
0.0
  0
SPLINE
  5
443
100
AcDbEntity
  8
0
100
AcDbSpline
 62
7
  6
CONTINUOUS
 70
0
 71
3
 72
10
 73
6
 74
4
 42
0.0000001
 43
0.0000001
 44
0.0000000001
 12
0.1701680806
 22
-0.0239437396
 32
0.0
 13
0.0976564877
 23
-0.1413990408
 33
0.0
 40
0.0
 40
0.0
 40
0.0
 40
0.0
 40
0.6721702811
 40
0.8737031488
 40
1.0
 40
1.0
 40
1.0
 40
1.0
 10
-4.6958850188
 20
-36.0715013316
 30
0.0
 10
-4.65775771
 20
-36.0768660883
 30
0.0
 10
-4.60777619
 20
-36.0848646077
 30
0.0
 10
-4.5542583645
 20
-36.1049912366
 30
0.0
 10
-4.5383045402
 20
-36.1162467525
 30
0.0
 10
-4.5341933045
 20
-36.1221995037
 30
0.0
 11
-4.6958850188
 21
-36.0715013316
 31
0.0
 11
-4.5827601741
 21
-36.0948469985
 31
0.0
 11
-4.5508331264
 21
-36.1082655927
 31
0.0
 11
-4.5341933045
 21
-36.1221995037
 31
0.0
  0
SPLINE
  5
444
100
AcDbEntity
  8
0
100
AcDbSpline
 62
7
  6
CONTINUOUS
 70
0
 71
3
 72
16
 73
12
 74
10
 42
0.0000001
 43
0.0000001
 44
0.0000000001
 12
-0.0282878963
 22
-0.7598455221
 32
0.0
 13
0.7419193986
 23
0.1664963316
 33
0.0
 40
0.0
 40
0.0
 40
0.0
 40
0.0
 40
0.0305553042
 40
0.059589051
 40
0.1006457359
 40
0.1544354722
 40
0.2201029987
 40
0.3778909282
 40
0.7263345648
 40
0.8812887721
 40
1.0
 40
1.0
 40
1.0
 40
1.0
 10
-5.5411368344
 20
-36.1394890132
 30
0.0
 10
-5.5414249495
 20
-36.1472281169
 30
0.0
 10
-5.5273416978
 20
-36.1596403698
 30
0.0
 10
-5.5044285779
 20
-36.1681368513
 30
0.0
 10
-5.4737004302
 20
-36.1766056337
 30
0.0
 10
-5.4337540806
 20
-36.1836087779
 30
0.0
 10
-5.363936838
 20
-36.1923744589
 30
0.0
 10
-5.2192142862
 20
-36.2010267746
 30
0.0
 10
-5.0513309323
 20
-36.201158245
 30
0.0
 10
-4.8940694602
 20
-36.1897787701
 30
0.0
 10
-4.8251650223
 20
-36.1804107263
 30
0.0
 10
-4.795806968
 20
-36.1738223983
 30
0.0
 11
-5.5411368344
 21
-36.1394890132
 31
0.0
 11
-5.5271180658
 21
-36.1580164186
 31
0.0
 11
-5.5069205535
 21
-36.1669287656
 31
0.0
 11
-5.4768442932
 21
-36.1752955991
 31
0.0
 11
-5.4366383665
 21
-36.1827996065
 31
0.0
 11
-5.3871112896
 21
-36.189143698
 31
0.0
 11
-5.2674187546
 21
-36.1974080398
 31
0.0
 11
-5.0024728553
 21
-36.1967370258
 31
0.0
 11
-4.8849957841
 21
-36.1877172837
 31
0.0
 11
-4.795806968
 21
-36.1738223983
 31
0.0
  0
SPLINE
  5
445
100
AcDbEntity
  8
0
100
AcDbSpline
 62
7
  6
CONTINUOUS
 70
0
 71
3
 72
17
 73
13
 74
11
 42
0.0000001
 43
0.0000001
 44
0.0000000001
 12
0.0352745494
 22
1.0849291251
 32
0.0
 13
1.0755047219
 23
-0.1469867114
 33
0.0
 40
0.0
 40
0.0
 40
0.0
 40
0.0
 40
0.0131539988
 40
0.0344671998
 40
0.0671828934
 40
0.1118053268
 40
0.1664638617
 40
0.229323298
 40
0.3754791824
 40
0.5383022508
 40
0.7048763252
 40
1.0
 40
1.0
 40
1.0
 40
1.0
 10
-4.3046306034
 20
-36.1313821185
 30
0.0
 10
-4.3044759362
 20
-36.1266250664
 30
0.0
 10
-4.2964736452
 20
-36.1152706986
 30
0.0
 10
-4.2748845558
 20
-36.1041112882
 30
0.0
 10
-4.2408273699
 20
-36.0928543728
 30
0.0
 10
-4.1941077954
 20
-36.0828528307
 30
0.0
 10
-4.1361756949
 20
-36.0734518408
 30
0.0
 10
-4.0414580582
 20
-36.0618611628
 30
0.0
 10
-3.907188728
 20
-36.0521720157
 30
0.0
 10
-3.7351336037
 20
-36.0473333474
 30
0.0
 10
-3.5092237153
 20
-36.0482354883
 30
0.0
 10
-3.3418795389
 20
-36.0565465246
 30
0.0
 10
-3.236077237
 20
-36.0710062774
 30
0.0
 11
-4.3046306034
 21
-36.1313821185
 31
0.0
 11
-4.2979203033
 21
-36.1187784256
 31
0.0
 11
-4.2783479525
 21
-36.1064424664
 31
0.0
 11
-4.2448172659
 21
-36.0947435899
 31
0.0
 11
-4.1975928221
 21
-36.0839700835
 31
0.0
 11
-4.1390568595
 21
-36.0742838066
 31
0.0
 11
-4.0713446218
 21
-36.0658611476
 31
0.0
 11
-3.9131584984
 21
-36.0537043768
 31
0.0
 11
-3.7364961043
 21
-36.0483066909
 31
0.0
 11
-3.5556810501
 21
-36.0490447999
 31
0.0
 11
-3.236077237
 21
-36.0710062774
 31
0.0
  0
SPLINE
  5
446
100
AcDbEntity
  8
0
100
AcDbSpline
 62
7
  6
CONTINUOUS
 70
0
 71
3
 72
11
 73
7
 74
5
 42
0.0000001
 43
0.0000001
 44
0.0000000001
 12
0.1796740376
 22
-0.0245556299
 32
0.0
 13
0.103930575
 23
-0.1486074505
 33
0.0
 40
0.0
 40
0.0
 40
0.0
 40
0.0
 40
0.378228234
 40
0.6707438702
 40
0.8741990799
 40
1.0
 40
1.0
 40
1.0
 40
1.0
 10
-3.236077237
 20
-36.0710062774
 30
0.0
 10
-3.213424639
 20
-36.0741021549
 30
0.0
 10
-3.173383477
 20
-36.0803862865
 30
0.0
 10
-3.1217246355
 20
-36.0924266697
 30
0.0
 10
-3.0865175163
 20
-36.1051610871
 30
0.0
 10
-3.0692886344
 20
-36.116710616
 30
0.0
 10
-3.0649304471
 20
-36.1229422673
 30
0.0
 11
-3.236077237
 21
-36.0710062774
 31
0.0
 11
-3.1683955188
 21
-36.0821286377
 31
0.0
 11
-3.1168877463
 21
-36.0948105412
 31
0.0
 11
-3.0826606709
 21
-36.1085866189
 31
0.0
 11
-3.0649304471
 21
-36.1229422673
 31
0.0
  0
SPLINE
  5
447
100
AcDbEntity
  8
0
100
AcDbSpline
 62
7
  6
CONTINUOUS
 70
0
 71
3
 72
13
 73
9
 74
7
 42
0.0000001
 43
0.0000001
 44
0.0000000001
 12
-0.0027793826
 22
0.2713288363
 32
0.0
 13
0.2707805492
 23
0.0174630047
 33
0.0
 40
0.0
 40
0.0
 40
0.0
 40
0.0
 40
0.0894417742
 40
0.1764109873
 40
0.2943331371
 40
0.4400375754
 40
0.6095550437
 40
1.0
 40
1.0
 40
1.0
 40
1.0
 10
-4.2118114447
 20
-36.250959754
 30
0.0
 10
-4.211894309
 20
-36.2428703765
 30
0.0
 10
-4.1937875938
 20
-36.232573195
 30
0.0
 10
-4.1703026101
 20
-36.224808274
 30
0.0
 10
-4.13869508
 20
-36.2174278184
 30
0.0
 10
-4.1002968904
 20
-36.2110087001
 30
0.0
 10
-4.0368457897
 20
-36.2030221693
 30
0.0
 10
-3.9863790782
 20
-36.1990224905
 30
0.0
 10
-3.9511374449
 20
-36.1967497098
 30
0.0
 11
-4.2118114447
 21
-36.250959754
 31
0.0
 11
-4.1945699565
 21
-36.2338794982
 31
0.0
 11
-4.1723897956
 21
-36.2258216231
 31
0.0
 11
-4.1412790812
 21
-36.2183413567
 31
0.0
 11
-4.1023226113
 21
-36.2115974679
 31
0.0
 11
-4.0567001098
 21
-36.2057368118
 31
0.0
 11
-3.9511374449
 21
-36.1967497098
 31
0.0
  0
SPLINE
  5
448
100
AcDbEntity
  8
0
100
AcDbSpline
 62
7
  6
CONTINUOUS
 70
0
 71
3
 72
16
 73
12
 74
10
 42
0.0000001
 43
0.0000001
 44
0.0000000001
 12
0.041631159
 22
-0.6671860772
 32
0.0
 13
0.4885502118
 23
0.4562774437
 33
0.0
 40
0.0
 40
0.0
 40
0.0
 40
0.0
 40
0.0162296002
 40
0.0459560666
 40
0.1598337616
 40
0.328344104
 40
0.5179191077
 40
0.7021831842
 40
0.8513775023
 40
0.9467697852
 40
1.0
 40
1.0
 40
1.0
 40
1.0
 10
-3.9744750997
 20
-36.2506922256
 30
0.0
 10
-3.9742498807
 20
-36.2543016134
 30
0.0
 10
-3.965966567
 20
-36.2626294977
 30
0.0
 10
-3.9331694788
 20
-36.2748211381
 30
0.0
 10
-3.8631583718
 20
-36.2850549959
 30
0.0
 10
-3.7587128594
 20
-36.2921408962
 30
0.0
 10
-3.6376153392
 20
-36.2934658437
 30
0.0
 10
-3.5212217565
 20
-36.2897827715
 30
0.0
 10
-3.425739628
 20
-36.2805617357
 30
0.0
 10
-3.3611449797
 20
-36.2663892525
 30
0.0
 10
-3.3299272789
 20
-36.2524819054
 30
0.0
 10
-3.3212587346
 20
-36.24438599
 30
0.0
 11
-3.9744750997
 21
-36.2506922256
 31
0.0
 11
-3.9682562916
 21
-36.2595822232
 31
0.0
 11
-3.9503192526
 21
-36.2681347314
 31
0.0
 11
-3.875551467
 21
-36.2824473692
 31
0.0
 11
-3.7632172222
 21
-36.290827797
 31
0.0
 11
-3.6365013634
 21
-36.2925670122
 31
0.0
 11
-3.5134061925
 21
-36.2880634807
 31
0.0
 11
-3.4142843196
 21
-36.277030889
 31
0.0
 11
-3.352419502
 21
-36.2615672045
 31
0.0
 11
-3.3212587346
 21
-36.24438599
 31
0.0
  0
SPLINE
  5
449
100
AcDbEntity
  8
RACCORDO
100
AcDbSpline
 62
7
  6
CONTINUOUS
 70
0
 71
3
 72
11
 73
7
 74
5
 42
0.0000001
 43
0.0000001
 44
0.0000000001
 12
1.3609196163
 22
0.1190539826
 32
0.0
 13
0.1533372957
 23
1.3574843375
 33
0.0
 40
0.0
 40
0.0
 40
0.0
 40
0.0
 40
0.25006063
 40
0.5000041805
 40
0.7499494333
 40
1.0
 40
1.0
 40
1.0
 40
1.0
 10
11.3852893284
 20
-56.9961818536
 30
0.0
 10
11.4987268006
 20
-56.9862582823
 30
0.0
 10
11.7240219423
 20
-56.9270344256
 30
0.0
 10
12.0110895552
 20
-56.7302711324
 30
0.0
 10
12.2157399076
 20
-56.4487487043
 30
0.0
 10
12.280902949
 20
-56.2250412646
 30
0.0
 10
12.2936836415
 20
-56.1118946887
 30
0.0
 11
11.3852893284
 21
-56.9961818536
 31
0.0
 11
11.7155951699
 21
-56.9090217284
 31
0.0
 11
11.9973553735
 21
-56.7161467126
 31
0.0
 11
12.1978985706
 21
-56.4397889765
 31
0.0
 11
12.2936836415
 21
-56.1118946887
 31
0.0
  0
SPLINE
  5
44A
100
AcDbEntity
  8
0
100
AcDbSpline
 62
7
  6
CONTINUOUS
 70
0
 71
3
 72
14
 73
10
 74
8
 42
0.0000001
 43
0.0000001
 44
0.0000000001
 12
0.006505591
 22
-0.5454641498
 32
0.0
 13
0.5451314941
 23
0.0201274817
 33
0.0
 40
0.0
 40
0.0
 40
0.0
 40
0.0
 40
0.0301365547
 40
0.0567439754
 40
0.0934723085
 40
0.1961418532
 40
0.3307213186
 40
0.6592326299
 40
1.0
 40
1.0
 40
1.0
 40
1.0
 10
-4.0585418034
 20
-36.1305254245
 30
0.0
 10
-4.0584764513
 20
-36.1360048946
 30
0.0
 10
-4.0491328567
 20
-36.1443597862
 30
0.0
 10
-4.0340669091
 20
-36.1507899612
 30
0.0
 10
-4.0048207703
 20
-36.1596564247
 30
0.0
 10
-3.9558190777
 20
-36.1680365308
 30
0.0
 10
-3.8534279562
 20
-36.1792958548
 30
0.0
 10
-3.7071894213
 20
-36.183955322
 30
0.0
 10
-3.5855009953
 20
-36.1809366453
 30
0.0
 10
-3.5235799868
 20
-36.1786503823
 30
0.0
 11
-4.0585418034
 21
-36.1305254245
 31
0.0
 11
-4.0486074635
 21
-36.1436238465
 31
0.0
 11
-4.0355305945
 21
-36.1499217881
 31
0.0
 11
-4.0164121178
 21
-36.1559135873
 31
0.0
 11
-3.9614317802
 21
-36.1665857412
 31
0.0
 11
-3.8884888711
 21
-36.1748847282
 31
0.0
 11
-3.7094352685
 21
-36.1822223453
 31
0.0
 11
-3.5235799868
 21
-36.1786503823
 31
0.0
  0
SPLINE
  5
44B
100
AcDbEntity
  8
0
100
AcDbSpline
 62
7
  6
CONTINUOUS
 70
0
 71
3
 72
8
 73
4
 74
2
 42
0.0000001
 43
0.0000001
 44
0.0000000001
 12
0.0000317458
 22
0.0034971351
 32
0.0
 13
0.0011809574
 23
0.0032918538
 33
0.0
 40
0.0
 40
0.0
 40
0.0
 40
0.0
 40
1.0
 40
1.0
 40
1.0
 40
1.0
 10
-2.7610814271
 20
-36.2501504412
 30
0.0
 10
-2.7610708452
 20
-36.2489847295
 30
0.0
 10
-2.7608429176
 20
-36.2478080553
 30
0.0
 10
-2.7604492651
 20
-36.2467107707
 30
0.0
 11
-2.7610814271
 21
-36.2501504412
 31
0.0
 11
-2.7604492651
 21
-36.2467107707
 31
0.0
  0
SPLINE
  5
44C
100
AcDbEntity
  8
0
100
AcDbSpline
 62
7
  6
CONTINUOUS
 70
0
 71
3
 72
12
 73
8
 74
6
 42
0.0000001
 43
0.0000001
 44
0.0000000001
 12
0.088624923
 22
0.2470370909
 32
0.0
 13
0.2619768573
 23
0.0158059321
 33
0.0
 40
0.0
 40
0.0
 40
0.0
 40
0.0
 40
0.0385546944
 40
0.0989133695
 40
0.3056731414
 40
0.6198716262
 40
1.0
 40
1.0
 40
1.0
 40
1.0
 10
-2.7604492651
 20
-36.2467107707
 30
0.0
 10
-2.7593102962
 20
-36.2435359576
 30
0.0
 10
-2.7530078002
 20
-36.2368693894
 30
0.0
 10
-2.728914425
 20
-36.2251551708
 30
0.0
 10
-2.678700386
 20
-36.2142143664
 30
0.0
 10
-2.6006457744
 20
-36.2044358277
 30
0.0
 10
-2.5399933493
 20
-36.1998876025
 30
0.0
 10
-2.5067984038
 20
-36.1978848414
 30
0.0
 11
-2.7604492651
 21
-36.2467107707
 31
0.0
 11
-2.7541701189
 21
-36.2387758779
 31
0.0
 11
-2.7403507673
 21
-36.2310316385
 31
0.0
 11
-2.6879609829
 21
-36.2168903552
 31
0.0
 11
-2.6062527942
 21
-36.2057628742
 31
0.0
 11
-2.5067984038
 21
-36.1978848414
 31
0.0
  0
SPLINE
  5
44D
100
AcDbEntity
  8
RACCORDO
100
AcDbSpline
 62
7
  6
CONTINUOUS
 70
0
 71
3
 72
11
 73
7
 74
5
 42
0.0000001
 43
0.0000001
 44
0.0000000001
 12
0.1533372958
 22
-1.3574843375
 32
0.0
 13
1.3609196163
 23
-0.1190539826
 33
0.0
 40
0.0
 40
0.0
 40
0.0
 40
0.0
 40
0.2500505667
 40
0.4999958195
 40
0.74993937
 40
1.0
 40
1.0
 40
1.0
 40
1.0
 10
-12.2936836415
 20
-56.1118946887
 30
0.0
 10
-12.2809029489
 20
-56.2250412646
 30
0.0
 10
-12.2157399076
 20
-56.4487487043
 30
0.0
 10
-12.0110895552
 20
-56.7302711324
 30
0.0
 10
-11.7240219423
 20
-56.9270344256
 30
0.0
 10
-11.4987268006
 20
-56.9862582823
 30
0.0
 10
-11.3852893284
 20
-56.9961818536
 30
0.0
 11
-12.2936836415
 21
-56.1118946887
 31
0.0
 11
-12.1978985706
 21
-56.4397889765
 31
0.0
 11
-11.9973553735
 21
-56.7161467126
 31
0.0
 11
-11.7155951699
 21
-56.9090217284
 31
0.0
 11
-11.3852893284
 21
-56.9961818536
 31
0.0
  0
SPLINE
  5
44E
100
AcDbEntity
  8
0
100
AcDbSpline
 62
7
  6
CONTINUOUS
 70
0
 71
3
 72
13
 73
9
 74
7
 42
0.0000001
 43
0.0000001
 44
0.0000000001
 12
0.0030043914
 22
0.2955059419
 32
0.0
 13
0.2945422129
 23
0.0240348261
 33
0.0
 40
0.0
 40
0.0
 40
0.0
 40
0.0
 40
0.0909691081
 40
0.1752531383
 40
0.289233826
 40
0.4317309016
 40
0.5999331788
 40
1.0
 40
1.0
 40
1.0
 40
1.0
 10
-2.8377010989
 20
-36.128303625
 30
0.0
 10
-2.8376099967
 20
-36.1193429877
 30
0.0
 10
-2.8204748756
 20
-36.1063833929
 30
0.0
 10
-2.7951292933
 20
-36.0967716382
 30
0.0
 10
-2.7622937844
 20
-36.0874688039
 30
0.0
 10
-2.7214368737
 20
-36.079284874
 30
0.0
 10
-2.6521612556
 20
-36.0684817139
 30
0.0
 10
-2.5964643676
 20
-36.0628015512
 30
0.0
 10
-2.557185512
 20
-36.0595963724
 30
0.0
 11
-2.8377010989
 21
-36.128303625
 31
0.0
 11
-2.8203002223
 21
-36.1078116417
 31
0.0
 11
-2.797418853
 21
-36.0979710419
 31
0.0
 11
-2.7650493381
 21
-36.0886540195
 31
0.0
 11
-2.7238275454
 21
-36.0800463224
 31
0.0
 11
-2.674733041
 21
-36.0722649727
 31
0.0
 11
-2.557185512
 21
-36.0595963724
 31
0.0
  0
SPLINE
  5
44F
100
AcDbEntity
  8
0
100
AcDbSpline
 62
7
  6
CONTINUOUS
 70
0
 71
3
 72
11
 73
7
 74
5
 42
0.0000001
 43
0.0000001
 44
0.0000000001
 12
0.796402746
 22
0.0649869548
 32
0.0
 13
0.7915234475
 23
-0.1094132995
 33
0.0
 40
0.0
 40
0.0
 40
0.0
 40
0.0
 40
0.2513187955
 40
0.5183950479
 40
0.7783259057
 40
1.0
 40
1.0
 40
1.0
 40
1.0
 10
-2.557185512
 20
-36.0595963724
 30
0.0
 10
-2.490468519
 20
-36.0541522246
 30
0.0
 10
-2.3524363885
 20
-36.0481825122
 30
0.0
 10
-2.145107157
 20
-36.0470584787
 30
0.0
 10
-1.9457388736
 20
-36.0528568352
 30
0.0
 10
-1.8177769552
 20
-36.0638262487
 30
0.0
 10
-1.7592902074
 20
-36.0719109468
 30
0.0
 11
-2.557185512
 21
-36.0595963724
 31
0.0
 11
-2.3566186718
 21
-36.0495910916
 31
0.0
 11
-2.1432153913
 21
-36.048291869
 31
0.0
 11
-1.9356346693
 21
-36.0552619581
 31
0.0
 11
-1.7592902074
 21
-36.0719109468
 31
0.0
  0
SPLINE
  5
450
100
AcDbEntity
  8
0
100
AcDbSpline
 62
7
  6
CONTINUOUS
 70
0
 71
3
 72
12
 73
8
 74
6
 42
0.0000001
 43
0.0000001
 44
0.0000000001
 12
0.179998641
 22
-0.0248814426
 32
0.0
 13
0.0016240115
 23
-0.1817029431
 33
0.0
 40
0.0
 40
0.0
 40
0.0
 40
0.0
 40
0.4060011005
 40
0.7078473578
 40
0.8166175354
 40
0.8982295985
 40
1.0
 40
1.0
 40
1.0
 40
1.0
 10
-1.7592902074
 20
-36.0719109468
 30
0.0
 10
-1.7349303253
 20
-36.0752782444
 30
0.0
 10
-1.6925794544
 20
-36.0821643606
 30
0.0
 10
-1.6443974053
 20
-36.0935767135
 30
0.0
 10
-1.6165030321
 20
-36.1047695706
 30
0.0
 10
-1.6012924005
 20
-36.1131303484
 30
0.0
 10
-1.5930648789
 20
-36.1231426877
 30
0.0
 10
-1.5930097868
 20
-36.1293066815
 30
0.0
 11
-1.7592902074
 21
-36.0719109468
 31
0.0
 11
-1.6865407585
 21
-36.0841665835
 31
0.0
 11
-1.6335230716
 21
-36.0982196133
 31
0.0
 11
-1.6152501985
 21
-36.1057524434
 31
0.0
 11
-1.6026033809
 21
-36.1134970753
 31
0.0
 11
-1.5930097868
 21
-36.1293066815
 31
0.0
  0
SPLINE
  5
451
100
AcDbEntity
  8
0
100
AcDbSpline
 62
7
  6
CONTINUOUS
 70
0
 71
3
 72
15
 73
11
 74
9
 42
0.0000001
 43
0.0000001
 44
0.0000000001
 12
-0.0123670036
 22
0.6358112711
 32
0.0
 13
0.6359246746
 23
-0.0029535558
 33
0.0
 40
0.0
 40
0.0
 40
0.0
 40
0.0
 40
0.0314933561
 40
0.055356446
 40
0.0862491896
 40
0.1709034933
 40
0.2874184751
 40
0.435024727
 40
0.6098335168
 40
1.0
 40
1.0
 40
1.0
 40
1.0
 10
-1.3658920875
 20
-36.1393416189
 30
0.0
 10
-1.3660219136
 20
-36.1326670086
 30
0.0
 10
-1.3578856601
 20
-36.1217557535
 30
0.0
 10
-1.3427052604
 20
-36.1121651726
 30
0.0
 10
-1.3156962818
 20
-36.0996024934
 30
0.0
 10
-1.2682896623
 20
-36.0861165341
 30
0.0
 10
-1.1956062749
 20
-36.0722246526
 30
0.0
 10
-1.1032042519
 20
-36.0608758164
 30
0.0
 10
-0.9525234338
 20
-36.0497917858
 30
0.0
 10
-0.8326813135
 20
-36.0475640882
 30
0.0
 10
-0.7499758156
 20
-36.0479482144
 30
0.0
 11
-1.3658920875
 21
-36.1393416189
 31
0.0
 11
-1.3562440874
 21
-36.1217910751
 31
0.0
 11
-1.3437581229
 21
-36.1131661022
 31
0.0
 11
-1.3260248042
 21
-36.1047114141
 31
0.0
 11
-1.2746518267
 21
-36.0886193827
 31
0.0
 11
-1.2019765677
 21
-36.0741813288
 31
0.0
 11
-1.1088672375
 21
-36.062275255
 31
0.0
 11
-0.9980266836
 21
-36.0537696729
 31
0.0
 11
-0.7499758156
 21
-36.0479482144
 31
0.0
  0
SPLINE
  5
452
100
AcDbEntity
  8
0
100
AcDbSpline
 62
7
  6
CONTINUOUS
 70
0
 71
3
 72
13
 73
9
 74
7
 42
0.0000001
 43
0.0000001
 44
0.0000000001
 12
-0.005710965
 22
-0.3912891766
 32
0.0
 13
0.3913273055
 23
0.0016657748
 33
0.0
 40
0.0
 40
0.0
 40
0.0
 40
0.0
 40
0.0765117009
 40
0.156262533
 40
0.2711098024
 40
0.4201507383
 40
0.5981204885
 40
1.0
 40
1.0
 40
1.0
 40
1.0
 10
-1.1279578811
 20
-36.1365968304
 30
0.0
 10
-1.128103533
 20
-36.1465762305
 30
0.0
 10
-1.106616859
 20
-36.1612731816
 30
0.0
 10
-1.074635562
 20
-36.1705782719
 30
0.0
 10
-1.0299048609
 20
-36.1800494319
 30
0.0
 10
-0.9729984538
 20
-36.1872083214
 30
0.0
 10
-0.8780526918
 20
-36.1947130783
 30
0.0
 10
-0.8024183261
 20
-36.1963587995
 30
0.0
 10
-0.7499961839
 20
-36.1961356526
 30
0.0
 11
-1.1279578811
 21
-36.1365968304
 31
0.0
 11
-1.10779425
 21
-36.1587308484
 31
0.0
 11
-1.0783768408
 21
-36.169152714
 31
0.0
 11
-1.0344246869
 21
-36.1785392236
 31
0.0
 11
-0.9766241876
 21
-36.1863384637
 31
0.0
 11
-0.9072096561
 21
-36.1920002942
 31
0.0
 11
-0.7499961839
 21
-36.1961356526
 31
0.0
  0
SPLINE
  5
453
100
AcDbEntity
  8
0
100
AcDbSpline
 62
7
  6
CONTINUOUS
 70
0
 71
3
 72
12
 73
8
 74
6
 42
0.0000001
 43
0.0000001
 44
0.0000000001
 12
-0.3496887953
 22
0.0
 32
0.0
 13
-0.0000011372
 23
0.3496887953
 33
0.0
 40
0.0
 40
0.0
 40
0.0
 40
0.0
 40
0.3745779516
 40
0.6921769326
 40
0.9069651143
 40
0.9675572556
 40
1.0
 40
1.0
 40
1.0
 40
1.0
 10
-4.960842
 20
-33.6421498771
 30
0.0
 10
-5.0045039042
 20
-33.6421498771
 30
0.0
 10
-5.0853680944
 20
-33.6399614817
 30
0.0
 10
-5.1902127
 20
-33.6312394063
 30
0.0
 10
-5.259538143
 20
-33.6186234438
 30
0.0
 10
-5.2923419823
 20
-33.6068774737
 30
0.0
 10
-5.3015399877
 20
-33.5980495551
 30
0.0
 10
-5.30154
 20
-33.5942679337
 30
0.0
 11
-4.960842
 21
-33.6421498771
 31
0.0
 11
-5.0917760913
 21
-33.6384728349
 31
0.0
 11
-5.2023459565
 21
-33.628041759
 31
0.0
 11
-5.2758324848
 21
-33.6125145209
 31
0.0
 11
-5.2950378825
 21
-33.603564622
 31
0.0
 11
-5.30154
 21
-33.5942679337
 31
0.0
  0
SPLINE
  5
454
100
AcDbEntity
  8
0
100
AcDbSpline
 62
7
  6
CONTINUOUS
 70
0
 71
3
 72
9
 73
5
 74
3
 42
0.0000001
 43
0.0000001
 44
0.0000000001
 12
0.1118165374
 22
-0.0057495325
 32
0.0
 13
0.1114928491
 23
-0.0102635162
 33
0.0
 40
0.0
 40
0.0
 40
0.0
 40
0.0
 40
0.2599034055
 40
1.0
 40
1.0
 40
1.0
 40
1.0
 10
-1.9538582453
 20
-36.1965524072
 30
0.0
 10
-1.944171079
 20
-36.1970505149
 30
0.0
 10
-1.906907465
 20
-36.1991209158
 30
0.0
 10
-1.8696747129
 20
-36.2018150387
 30
0.0
 10
-1.8421695536
 20
-36.2043470365
 30
0.0
 11
-1.9538582453
 21
-36.1965524072
 31
0.0
 11
-1.9248032833
 21
-36.1981688557
 31
0.0
 11
-1.8421695536
 21
-36.2043470365
 31
0.0
  0
SPLINE
  5
455
100
AcDbEntity
  8
0
100
AcDbSpline
 62
7
  6
CONTINUOUS
 70
0
 71
3
 72
12
 73
8
 74
6
 42
0.0000001
 43
0.0000001
 44
0.0000000001
 12
0.1830464514
 22
-0.0168504101
 32
0.0
 13
0.0016314135
 23
-0.1838131611
 33
0.0
 40
0.0
 40
0.0
 40
0.0
 40
0.0
 40
0.4120921661
 40
0.721848971
 40
0.83014116
 40
0.9089302488
 40
1.0
 40
1.0
 40
1.0
 40
1.0
 10
-1.8421695536
 20
-36.2043470365
 30
0.0
 10
-1.8170255507
 20
-36.2066616771
 30
0.0
 10
-1.7730135219
 20
-36.2115566313
 30
0.0
 10
-1.7229417591
 20
-36.2202401735
 30
0.0
 10
-1.6936591364
 20
-36.2297621138
 30
0.0
 10
-1.6786440822
 20
-36.2366034784
 30
0.0
 10
-1.6696369018
 20
-36.2452982299
 30
0.0
 10
-1.6695873776
 20
-36.2508781696
 30
0.0
 11
-1.8421695536
 21
-36.2043470365
 31
0.0
 11
-1.7669278837
 21
-36.2131161351
 31
0.0
 11
-1.7111065356
 21
-36.2243454461
 31
0.0
 11
-1.6922309697
 21
-36.230667972
 31
0.0
 11
-1.6793418858
 21
-36.2372732741
 31
0.0
 11
-1.6695873776
 21
-36.2508781696
 31
0.0
  0
SPLINE
  5
456
100
AcDbEntity
  8
0
100
AcDbSpline
 62
7
  6
CONTINUOUS
 70
0
 71
3
 72
12
 73
8
 74
6
 42
0.0000001
 43
0.0000001
 44
0.0000000001
 12
0.3058516378
 22
-0.1889619784
 32
0.0
 13
0.3594868219
 23
0.0045911377
 33
0.0
 40
0.0
 40
0.0
 40
0.0
 40
0.0
 40
0.1179699539
 40
0.2103063019
 40
0.3306753287
 40
0.6446298924
 40
1.0
 40
1.0
 40
1.0
 40
1.0
 10
-1.1041516679
 20
-36.2506994954
 30
0.0
 10
-1.0921245666
 20
-36.2581301073
 30
0.0
 10
-1.0684885643
 20
-36.267852524
 30
0.0
 10
-1.0298275717
 20
-36.2765945679
 30
0.0
 10
-0.9673638238
 20
-36.2860370227
 30
0.0
 10
-0.8727914202
 20
-36.2919239579
 30
0.0
 10
-0.7925715833
 20
-36.2930394563
 30
0.0
 10
-0.7499879597
 20
-36.2924956052
 30
0.0
 11
-1.1041516679
 21
-36.2506994954
 31
0.0
 11
-1.0653080842
 21
-36.2677277786
 31
0.0
 11
-1.0330373463
 21
-36.2755124382
 31
0.0
 11
-0.990285237
 21
-36.2822168267
 31
0.0
 11
-0.8777374976
 21
-36.2907628374
 31
0.0
 11
-0.7499879597
 21
-36.2924956052
 31
0.0
  0
SPLINE
  5
457
100
AcDbEntity
  8
0
100
AcDbSpline
 62
7
  6
CONTINUOUS
 70
0
 71
3
 72
20
 73
16
 74
14
 42
0.0000001
 43
0.0000001
 44
0.0000000001
 12
-0.0708928955
 22
-0.628495881
 32
0.0
 13
0.0391945504
 23
0.6312659204
 33
0.0
 40
0.0
 40
0.0
 40
0.0
 40
0.0
 40
0.0147848132
 40
0.0265861556
 40
0.0424117671
 40
0.086932754
 40
0.1470448711
 40
0.2201561755
 40
0.3035352499
 40
0.4890705753
 40
0.6766158189
 40
0.8390252659
 40
0.9526268301
 40
0.9837490713
 40
1.0
 40
1.0
 40
1.0
 40
1.0
 10
-2.5231637681
 20
-36.2495295085
 30
0.0
 10
-2.5235131475
 20
-36.2526269066
 30
0.0
 10
-2.5196137161
 20
-36.2580825834
 30
0.0
 10
-2.5120442279
 20
-36.2624768115
 30
0.0
 10
-2.4979046794
 20
-36.2684463943
 30
0.0
 10
-2.4731869335
 20
-36.2744256542
 30
0.0
 10
-2.4362249195
 20
-36.2807146251
 30
0.0
 10
-2.3908381302
 20
-36.2859050184
 30
0.0
 10
-2.3189114376
 20
-36.2912922922
 30
0.0
 10
-2.2226856275
 20
-36.2933936486
 30
0.0
 10
-2.1096224845
 20
-36.2916180305
 30
0.0
 10
-2.0125267036
 20
-36.2841561346
 30
0.0
 10
-1.9476067264
 20
-36.2738183159
 30
0.0
 10
-1.9160447695
 20
-36.263364508
 30
0.0
 10
-1.9077018848
 20
-36.255395737
 30
0.0
 10
-1.9074895688
 20
-36.2519761845
 30
0.0
 11
-2.5231637681
 21
-36.2495295085
 31
0.0
 11
-2.5189146291
 21
-36.2578594716
 31
0.0
 11
-2.5126742246
 21
-36.2619546643
 31
0.0
 11
-2.5034901453
 21
-36.2659347286
 31
0.0
 11
-2.4763340222
 21
-36.273381705
 31
0.0
 11
-2.4388850011
 21
-36.2799449556
 31
0.0
 11
-2.3929637904
 21
-36.2853784869
 31
0.0
 11
-2.3403812464
 21
-36.2893950324
 31
0.0
 11
-2.2230788353
 21
-36.2926536827
 31
0.0
 11
-2.1044842893
 21
-36.2902500724
 31
0.0
 11
-2.0021204245
 21
-36.2816921687
 31
0.0
 11
-1.9315376295
 21
-36.2682526943
 31
0.0
 11
-1.9135370437
 21
-36.2602872496
 31
0.0
 11
-1.9074895688
 21
-36.2519761845
 31
0.0
  0
SPLINE
  5
458
100
AcDbEntity
  8
0
100
AcDbSpline
 62
7
  6
CONTINUOUS
 70
0
 71
3
 72
12
 73
8
 74
6
 42
0.0000001
 43
0.0000001
 44
0.0000000001
 12
0.0094607461
 22
-0.1567452266
 32
0.0
 13
0.1561268199
 23
-0.0168222439
 33
0.0
 40
0.0
 40
0.0
 40
0.0
 40
0.0
 40
0.0964989783
 40
0.1783887098
 40
0.2894417446
 40
0.5956214551
 40
1.0
 40
1.0
 40
1.0
 40
1.0
 10
-2.5998225373
 20
-36.1285915552
 30
0.0
 10
-2.5995182198
 20
-36.1336334733
 30
0.0
 10
-2.5915533703
 20
-36.141268442
 30
0.0
 10
-2.5782092724
 20
-36.147506487
 30
0.0
 10
-2.5531757043
 20
-36.1558620249
 30
0.0
 10
-2.5110387116
 20
-36.1642230837
 30
0.0
 10
-2.4741172005
 20
-36.1691353825
 30
0.0
 10
-2.4530724217
 20
-36.1714029007
 30
0.0
 11
-2.5998225373
 21
-36.1285915552
 31
0.0
 11
-2.5908251823
 21
-36.1407845666
 31
0.0
 11
-2.5794129434
 21
-36.14671073
 31
0.0
 11
-2.5629288941
 21
-36.1524014922
 31
0.0
 11
-2.5159858005
 21
-36.1627932583
 31
0.0
 11
-2.4530724217
 21
-36.1714029007
 31
0.0
  0
SPLINE
  5
459
100
AcDbEntity
  8
0
100
AcDbSpline
 62
7
  6
CONTINUOUS
 70
0
 71
3
 72
11
 73
7
 74
5
 42
0.0000001
 43
0.0000001
 44
0.0000000001
 12
0.5135738234
 22
-0.0553361948
 32
0.0
 13
0.5113427297
 23
0.0731353492
 33
0.0
 40
0.0
 40
0.0
 40
0.0
 40
0.0
 40
0.2422393548
 40
0.5115506621
 40
0.7761135791
 40
1.0
 40
1.0
 40
1.0
 40
1.0
 10
-2.4530724217
 20
-36.1714029007
 30
0.0
 10
-2.4116031579
 20
-36.1758711021
 30
0.0
 10
-2.3236161958
 20
-36.1813483016
 30
0.0
 10
-2.1899664682
 20
-36.1833756737
 30
0.0
 10
-2.0595150882
 20
-36.1796962964
 30
0.0
 10
-1.9755996824
 20
-36.1725741896
 30
0.0
 10
-1.9374387845
 20
-36.1671161857
 30
0.0
 11
-2.4530724217
 21
-36.1714029007
 31
0.0
 11
-2.3282492596
 21
-36.1801298827
 31
0.0
 11
-2.1891555724
 21
-36.1823735517
 31
0.0
 11
-2.0525632301
 21
-36.1781051541
 31
0.0
 11
-1.9374387845
 21
-36.1671161857
 31
0.0
  0
SPLINE
  5
45A
100
AcDbEntity
  8
0
100
AcDbSpline
 62
7
  6
CONTINUOUS
 70
0
 71
3
 72
12
 73
8
 74
6
 42
0.0000001
 43
0.0000001
 44
0.0000000001
 12
0.1159399874
 22
0.0165824426
 32
0.0
 13
-0.0027952547
 23
0.1170864836
 33
0.0
 40
0.0
 40
0.0
 40
0.0
 40
0.0
 40
0.4062159191
 40
0.7080454099
 40
0.8164103519
 40
0.8975081316
 40
1.0
 40
1.0
 40
1.0
 40
1.0
 10
-1.9374387845
 20
-36.1671161857
 30
0.0
 10
-1.921739895
 20
-36.164870835
 30
0.0
 10
-1.894468716
 20
-36.1602242697
 30
0.0
 10
-1.8634729247
 20
-36.1526528982
 30
0.0
 10
-1.8455970214
 20
-36.1452681048
 30
0.0
 10
-1.8359079923
 20
-36.1396841796
 30
0.0
 10
-1.8307598577
 20
-36.1330586778
 30
0.0
 10
-1.8308553547
 20
-36.1290585403
 30
0.0
 11
-1.9374387845
 21
-36.1671161857
 31
0.0
 11
-1.890576378
 21
-36.1589073217
 31
0.0
 11
-1.8564788693
 21
-36.1495800403
 31
0.0
 11
-1.8448031499
 21
-36.1446044551
 31
0.0
 11
-1.8368023141
 21
-36.1394856995
 31
0.0
 11
-1.8308553547
 21
-36.1290585403
 31
0.0
  0
SPLINE
  5
45B
100
AcDbEntity
  8
0
100
AcDbSpline
 62
7
  6
CONTINUOUS
 70
0
 71
3
 72
14
 73
10
 74
8
 42
0.0000001
 43
0.0000001
 44
0.0000000001
 12
-0.8816293441
 22
0.0
 32
0.0
 13
-0.0016472244
 23
0.8816278053
 33
0.0
 40
0.0
 40
0.0
 40
0.0
 40
0.0
 40
0.3743959167
 40
0.6917874805
 40
0.8142427828
 40
0.9067643109
 40
0.941114265
 40
0.9675504511
 40
1.0
 40
1.0
 40
1.0
 40
1.0
 10
-5.0385877422
 20
-33.7149529876
 30
0.0
 10
-5.1486138844
 20
-33.7149529876
 30
0.0
 10
-5.351936167
 20
-33.7094916391
 30
0.0
 10
-5.5906298397
 20
-33.6895894336
 30
0.0
 10
-5.7451730431
 20
-33.6639938378
 30
0.0
 10
-5.8163261558
 20
-33.6468630683
 30
0.0
 10
-5.8588510607
 20
-33.6304866478
 30
0.0
 10
-5.8823769513
 20
-33.6183325722
 30
0.0
 10
-5.8972715951
 20
-33.6038568643
 30
0.0
 10
-5.8972894123
 20
-33.5943207228
 30
0.0
 11
-5.0385877422
 21
-33.7149529876
 31
0.0
 11
-5.3685361301
 21
-33.7056885947
 31
0.0
 11
-5.6471213034
 21
-33.6794113405
 31
0.0
 11
-5.7535199481
 21
-33.6611156974
 31
0.0
 11
-5.8323875638
 21
-33.6402946937
 31
0.0
 11
-5.8605598481
 21
-33.6291843983
 31
0.0
 11
-5.8808669084
 21
-33.6177460548
 31
0.0
 11
-5.8972894123
 21
-33.5943207228
 31
0.0
  0
SPLINE
  5
45C
100
AcDbEntity
  8
0
100
AcDbSpline
 62
7
  6
CONTINUOUS
 70
0
 71
3
 72
12
 73
8
 74
6
 42
0.0000001
 43
0.0000001
 44
0.0000000001
 12
-0.0000011371
 22
0.3496791617
 32
0.0
 13
0.3496791617
 23
-0.0
 33
0.0
 40
0.0
 40
0.0
 40
0.0
 40
0.0
 40
0.032442706
 40
0.09303435
 40
0.3078211123
 40
0.6254194488
 40
1.0
 40
1.0
 40
1.0
 40
1.0
 10
-5.30154
 20
-33.5942679337
 30
0.0
 10
-5.3015400123
 20
-33.590486421
 30
0.0
 10
-5.2923425348
 20
-33.5816586244
 30
0.0
 10
-5.2595397763
 20
-33.5699128023
 30
0.0
 10
-5.1902166944
 20
-33.5572969285
 30
0.0
 10
-5.0853748985
 20
-33.5485746714
 30
0.0
 10
-5.0045127185
 20
-33.5463861901
 30
0.0
 10
-4.9608517142
 20
-33.5463861901
 30
0.0
 11
-5.30154
 21
-33.5942679337
 31
0.0
 11
-5.2950382199
 21
-33.5849714073
 31
0.0
 11
-5.2758335926
 21
-33.5760216487
 31
0.0
 11
-5.202349656
 21
-33.5604945551
 31
0.0
 11
-5.0917831012
 21
-33.5500633655
 31
0.0
 11
-4.9608517142
 21
-33.5463861901
 31
0.0
  0
SPLINE
  5
45D
100
AcDbEntity
  8
ASSI
100
AcDbSpline
 62
7
  6
CONTINUOUS
 70
0
 71
3
 72
14
 73
10
 74
8
 42
0.0000001
 43
0.0000001
 44
0.0000000001
 12
-0.8816293441
 22
0.0
 32
0.0
 13
-0.0016472244
 23
0.8816278053
 33
0.0
 40
0.0
 40
0.0
 40
0.0
 40
0.0
 40
0.3743959167
 40
0.6917874805
 40
0.8142427828
 40
0.9067643109
 40
0.941114265
 40
0.9675504511
 40
1.0
 40
1.0
 40
1.0
 40
1.0
 10
-5.0385877422
 20
-33.9169185021
 30
0.0
 10
-5.1486138844
 20
-33.9169185021
 30
0.0
 10
-5.351936167
 20
-33.9114571536
 30
0.0
 10
-5.5906298397
 20
-33.8915549481
 30
0.0
 10
-5.7451730431
 20
-33.8659593523
 30
0.0
 10
-5.8163261558
 20
-33.8488285828
 30
0.0
 10
-5.8588510607
 20
-33.8324521623
 30
0.0
 10
-5.8823769513
 20
-33.8202980867
 30
0.0
 10
-5.8972715951
 20
-33.8058223788
 30
0.0
 10
-5.8972894123
 20
-33.7962862373
 30
0.0
 11
-5.0385877422
 21
-33.9169185021
 31
0.0
 11
-5.3685361301
 21
-33.9076541092
 31
0.0
 11
-5.6471213034
 21
-33.881376855
 31
0.0
 11
-5.7535199481
 21
-33.8630812119
 31
0.0
 11
-5.8323875638
 21
-33.8422602082
 31
0.0
 11
-5.8605598481
 21
-33.8311499128
 31
0.0
 11
-5.8808669084
 21
-33.8197115693
 31
0.0
 11
-5.8972894123
 21
-33.7962862373
 31
0.0
  0
LINE
  5
45E
100
AcDbEntity
  8
RACCORDO
100
AcDbLine
 62
253
  6
CONTINUOUS
 10
-18.8824662682
 20
-35.2831235172
 11
-18.882341981
 21
-35.2853389552
  0
SPLINE
  5
45F
100
AcDbEntity
  8
RACCORDO
100
AcDbSpline
 62
253
  6
CONTINUOUS
 70
0
 71
3
 72
17
 73
13
 74
11
 42
0.0000001
 43
0.0000001
 44
0.0000000001
 12
0.1767635287
 22
-2.9751836415
 32
0.0
 13
2.9063013406
 23
-0.6605872866
 33
0.0
 40
0.0
 40
0.0
 40
0.0
 40
0.0
 40
0.0279241682
 40
0.0577575542
 40
0.0907510377
 40
0.1278308282
 40
0.2165077894
 40
0.3268871729
 40
0.4602303466
 40
0.6169522415
 40
0.7970258317
 40
1.0
 40
1.0
 40
1.0
 40
1.0
 10
-18.882341981
 20
-35.2853389552
 30
0.0
 10
-18.8806966561
 20
-35.3130321314
 30
0.0
 10
-18.8700260353
 20
-35.3700721702
 30
0.0
 10
-18.8335864159
 20
-35.4532124499
 30
0.0
 10
-18.7771317081
 20
-35.5354303312
 30
0.0
 10
-18.6689895858
 20
-35.650857419
 30
0.0
 10
-18.478837101
 20
-35.7910051836
 30
0.0
 10
-18.1875920697
 20
-35.9477379747
 30
0.0
 10
-17.8203453264
 20
-36.1019742299
 30
0.0
 10
-17.3781582605
 20
-36.2531346302
 30
0.0
 10
-16.8623650815
 20
-36.4004903447
 30
0.0
 10
-16.4925107005
 20
-36.4904548746
 30
0.0
 10
-16.2958760014
 20
-36.5351489263
 30
0.0
 11
-18.882341981
 21
-35.2853389552
 31
0.0
 11
-18.8674520363
 21
-35.3672221736
 31
0.0
 11
-18.8325385196
 21
-35.4489972195
 31
0.0
 11
-18.7776366541
 21
-35.5305785396
 31
0.0
 11
-18.7027817248
 21
-35.6118805811
 31
0.0
 11
-18.4935115469
 21
-35.7733057697
 31
0.0
 11
-18.2056677212
 21
-35.9325931651
 31
0.0
 11
-17.8403485726
 21
-36.0890686371
 31
0.0
 11
-17.3990252013
 21
-36.2420876567
 31
0.0
 11
-16.8834038564
 21
-36.3910104924
 31
0.0
 11
-16.2958760014
 21
-36.5351489263
 31
0.0
  0
SPLINE
  5
460
100
AcDbEntity
  8
0
100
AcDbSpline
 62
7
  6
CONTINUOUS
 70
0
 71
3
 72
15
 73
11
 74
9
 42
0.0000001
 43
0.0000001
 44
0.0000000001
 12
-0.9572828897
 22
-0.0944212023
 32
0.0
 13
-0.0247710538
 23
0.9616092185
 33
0.0
 40
0.0
 40
0.0
 40
0.0
 40
0.0
 40
0.3206330243
 40
0.6562016307
 40
0.7977284119
 40
0.8561430707
 40
0.9046078257
 40
0.9424557672
 40
0.9696434271
 40
1.0
 40
1.0
 40
1.0
 40
1.0
 10
-4.8432080253
 20
-36.2120288632
 30
0.0
 10
-4.9455201947
 20
-36.2221203817
 30
0.0
 10
-5.1559514834
 20
-36.2325493459
 30
0.0
 10
-5.4119382562
 20
-36.225667849
 30
0.0
 10
-5.5829822589
 20
-36.2100302357
 30
0.0
 10
-5.6618192546
 20
-36.1980021129
 30
0.0
 10
-5.7071485935
 20
-36.1887081399
 30
0.0
 10
-5.742531368
 20
-36.1782734049
 30
0.0
 10
-5.7697716257
 20
-36.1670157142
 30
0.0
 10
-5.7866044821
 20
-36.1522731997
 30
0.0
 10
-5.7868551368
 20
-36.1425428129
 30
0.0
 11
-4.8432080253
 21
-36.2120288632
 31
0.0
 11
-5.1511954245
 21
-36.2284705971
 31
0.0
 11
-5.4738533887
 21
-36.2191377704
 31
0.0
 11
-5.6093249714
 21
-36.2056778354
 31
0.0
 11
-5.6648440554
 21
-36.1970160201
 31
0.0
 11
-5.7104340061
 21
-36.1872720512
 31
0.0
 11
-5.7452779649
 21
-36.1767189287
 31
0.0
 11
-5.7689561061
 21
-36.1656147437
 31
0.0
 11
-5.7868551368
 21
-36.1425428129
 31
0.0
  0
SPLINE
  5
461
100
AcDbEntity
  8
0
100
AcDbSpline
 62
7
  6
CONTINUOUS
 70
0
 71
3
 72
13
 73
9
 74
7
 42
0.0000001
 43
0.0000001
 44
0.0000000001
 12
-0.0040362269
 22
-0.2985370825
 32
0.0
 13
0.2979549974
 23
-0.0190656836
 33
0.0
 40
0.0
 40
0.0
 40
0.0
 40
0.0
 40
0.0902200628
 40
0.1777499405
 40
0.2952263361
 40
0.4392772542
 40
0.6065791705
 40
1.0
 40
1.0
 40
1.0
 40
1.0
 10
-2.7610483945
 20
-36.4521159072
 30
0.0
 10
-2.7611697774
 20
-36.4610939186
 30
0.0
 10
-2.7414012487
 20
-36.4728354129
 30
0.0
 10
-2.7154327883
 20
-36.4814663995
 30
0.0
 10
-2.6809259284
 20
-36.4899013197
 30
0.0
 10
-2.6391530913
 20
-36.4973025877
 30
0.0
 10
-2.5695328848
 20
-36.506849392
 30
0.0
 10
-2.5139331978
 20
-36.511518556
 30
0.0
 10
-2.474859297
 20
-36.514018835
 30
0.0
 11
-2.7610483945
 21
-36.4521159072
 31
0.0
 11
-2.7421669325
 21
-36.4713269769
 31
0.0
 11
-2.7176597103
 21
-36.4804014222
 31
0.0
 11
-2.6836293178
 21
-36.4888947426
 31
0.0
 11
-2.641326535
 21
-36.4966538117
 31
0.0
 11
-2.5918511265
 21
-36.503525891
 31
0.0
 11
-2.474859297
 21
-36.514018835
 31
0.0
  0
SPLINE
  5
462
100
AcDbEntity
  8
0
100
AcDbSpline
 62
7
  6
CONTINUOUS
 70
0
 71
3
 72
9
 73
5
 74
3
 42
0.0000001
 43
0.0000001
 44
0.0000000001
 12
0.6457711457
 22
-0.0413219058
 32
0.0
 13
0.6421765096
 23
0.0796065513
 33
0.0
 40
0.0
 40
0.0
 40
0.0
 40
0.0
 40
0.518442702
 40
1.0
 40
1.0
 40
1.0
 40
1.0
 10
-2.474859297
 20
-36.514018835
 30
0.0
 10
-2.3632608512
 20
-36.5211598485
 30
0.0
 10
-2.147478511
 20
-36.5235858215
 30
0.0
 10
-1.9314383434
 20
-36.5157168274
 30
0.0
 10
-1.8283567485
 20
-36.5029384555
 30
0.0
 11
-2.474859297
 21
-36.514018835
 31
0.0
 11
-2.1394499926
 21
-36.520908194
 31
0.0
 11
-1.8283567485
 21
-36.5029384555
 31
0.0
  0
SPLINE
  5
463
100
AcDbEntity
  8
0
100
AcDbSpline
 62
7
  6
CONTINUOUS
 70
0
 71
3
 72
12
 73
8
 74
6
 42
0.0000001
 43
0.0000001
 44
0.0000000001
 12
0.1700252872
 22
0.0210769571
 32
0.0
 13
-0.0007450598
 23
0.1713250749
 33
0.0
 40
0.0
 40
0.0
 40
0.0
 40
0.0
 40
0.4031594456
 40
0.7081572282
 40
0.8183037715
 40
0.9004947482
 40
1.0
 40
1.0
 40
1.0
 40
1.0
 10
-1.8283567485
 20
-36.5029384555
 30
0.0
 10
-1.8055076483
 20
-36.5001059974
 30
0.0
 10
-1.7654434891
 20
-36.4941585587
 30
0.0
 10
-1.7198093312
 20
-36.4843716396
 30
0.0
 10
-1.6927902703
 20
-36.4745944314
 30
0.0
 10
-1.6784052907
 20
-36.4672991393
 30
0.0
 10
-1.6695616903
 20
-36.4585261832
 30
0.0
 10
-1.6695864028
 20
-36.4528436016
 30
0.0
 11
-1.8283567485
 21
-36.5029384555
 31
0.0
 11
-1.7600755299
 21
-36.4925167006
 31
0.0
 11
-1.7092655772
 21
-36.48031602
 31
0.0
 11
-1.6915892644
 21
-36.473708128
 31
0.0
 11
-1.6792816808
 21
-36.4668661791
 31
0.0
 11
-1.6695864028
 21
-36.4528436016
 31
0.0
  0
SPLINE
  5
464
100
AcDbEntity
  8
0
100
AcDbSpline
 62
7
  6
CONTINUOUS
 70
0
 71
3
 72
10
 73
6
 74
4
 42
0.0000001
 43
0.0000001
 44
0.0000000001
 12
-0.0007366069
 22
-0.0890259383
 32
0.0
 13
0.0870026188
 23
-0.0188866246
 33
0.0
 40
0.0
 40
0.0
 40
0.0
 40
0.0
 40
0.3065886531
 40
0.596080363
 40
1.0
 40
1.0
 40
1.0
 40
1.0
 10
-2.8377625796
 20
-36.3302694059
 30
0.0
 10
-2.8378378581
 20
-36.3393675201
 30
0.0
 10
-2.8197149368
 20
-36.3524119141
 30
0.0
 10
-2.793380037
 20
-36.3620387241
 30
0.0
 10
-2.7729657841
 20
-36.367345942
 30
0.0
 10
-2.761251762
 20
-36.3698888349
 30
0.0
 11
-2.8377625796
 21
-36.3302694059
 31
0.0
 11
-2.8198367102
 21
-36.3508532671
 31
0.0
 11
-2.7960181648
 21
-36.3606986885
 31
0.0
 11
-2.761251762
 21
-36.3698888349
 31
0.0
  0
SPLINE
  5
465
100
AcDbEntity
  8
0
100
AcDbSpline
 62
7
  6
CONTINUOUS
 70
0
 71
3
 72
18
 73
14
 74
12
 42
0.0000001
 43
0.0000001
 44
0.0000000001
 12
-0.577302447
 22
0.5323229959
 32
0.0
 13
-0.0292141002
 23
-0.7847244253
 33
0.0
 40
0.0
 40
0.0
 40
0.0
 40
0.0
 40
0.02466934
 40
0.0608279587
 40
0.1772798538
 40
0.3526639101
 40
0.5506299977
 40
0.7355876224
 40
0.81336759
 40
0.8781287959
 40
0.9284706437
 40
0.9637621298
 40
1.0
 40
1.0
 40
1.0
 40
1.0
 10
-4.7773087251
 20
-36.1247992218
 30
0.0
 10
-4.7820559485
 20
-36.1204218695
 30
0.0
 10
-4.7959669282
 20
-36.1121597319
 30
0.0
 10
-4.8397053579
 20
-36.0964670839
 30
0.0
 10
-4.9250114888
 20
-36.0826108934
 30
0.0
 10
-5.0529168896
 20
-36.074608236
 30
0.0
 10
-5.199172764
 20
-36.0740025418
 30
0.0
 10
-5.3196849536
 20
-36.0794413256
 30
0.0
 10
-5.4050023698
 20
-36.0889665824
 30
0.0
 10
-5.4546870073
 20
-36.0968451853
 30
0.0
 10
-5.4935445293
 20
-36.1062462025
 30
0.0
 10
-5.5224619029
 20
-36.1159778402
 30
0.0
 10
-5.5407839488
 20
-36.1300100992
 30
0.0
 10
-5.5411368344
 20
-36.1394890132
 30
0.0
 11
-4.7773087251
 21
-36.1247992218
 31
0.0
 11
-4.7935197472
 21
-36.1141936169
 31
0.0
 11
-4.8200099206
 21
-36.1039710081
 31
0.0
 11
-4.9097331071
 21
-36.0863043235
 31
0.0
 11
-5.0470879302
 21
-36.0762339137
 31
0.0
 11
-5.2025416116
 21
-36.075307691
 31
0.0
 11
-5.3475813815
 21
-36.0829564452
 31
0.0
 11
-5.4082698717
 21
-36.0898444195
 31
0.0
 11
-5.4584297426
 21
-36.0982234833
 31
0.0
 11
-5.4968088738
 21
-36.1077002425
 31
0.0
 11
-5.5225659002
 21
-36.1179277181
 31
0.0
 11
-5.5411368344
 21
-36.1394890132
 31
0.0
  0
SPLINE
  5
466
100
AcDbEntity
  8
0
100
AcDbSpline
 62
7
  6
CONTINUOUS
 70
0
 71
3
 72
9
 73
5
 74
3
 42
0.0000001
 43
0.0000001
 44
0.0000000001
 12
-0.2708567213
 22
0.0087881692
 32
0.0
 13
-0.2658958297
 23
0.0523450394
 33
0.0
 40
0.0
 40
0.0
 40
0.0
 40
0.0
 40
0.5564336581
 40
1.0
 40
1.0
 40
1.0
 40
1.0
 10
-3.9511374449
 20
-36.1967497098
 30
0.0
 10
-4.001375377
 20
-36.1951196988
 30
0.0
 10
-4.0915457974
 20
-36.1899847892
 30
0.0
 10
-4.1815555727
 20
-36.1801376021
 30
0.0
 10
-4.2208697196
 20
-36.1723981029
 30
0.0
 11
-3.9511374449
 21
-36.1967497098
 31
0.0
 11
-4.1016733521
 21
-36.1879462178
 31
0.0
 11
-4.2208697196
 21
-36.1723981029
 31
0.0
  0
SPLINE
  5
467
100
AcDbEntity
  8
0
100
AcDbSpline
 62
7
  6
CONTINUOUS
 70
0
 71
3
 72
10
 73
6
 74
4
 42
0.0000001
 43
0.0000001
 44
0.0000000001
 12
-0.0945056502
 22
0.0186046618
 32
0.0
 13
0.0031300049
 23
0.0962686575
 33
0.0
 40
0.0
 40
0.0
 40
0.0
 40
0.0
 40
0.4095508569
 40
0.7002185707
 40
1.0
 40
1.0
 40
1.0
 40
1.0
 10
-4.2208697196
 20
-36.1723981029
 30
0.0
 10
-4.2337713429
 20
-36.1698582512
 30
0.0
 10
-4.2562567969
 20
-36.1644388249
 30
0.0
 10
-4.2846505119
 20
-36.1545691659
 30
0.0
 10
-4.3049433758
 20
-36.1410019704
 30
0.0
 10
-4.3046306034
 20
-36.1313821185
 30
0.0
 11
-4.2208697196
 21
-36.1723981029
 31
0.0
 11
-4.2591836801
 21
-36.1630084804
 31
0.0
 11
-4.2852466783
 21
-36.15278347
 31
0.0
 11
-4.3046306034
 21
-36.1313821185
 31
0.0
  0
SPLINE
  5
468
100
AcDbEntity
  8
0
100
AcDbSpline
 62
7
  6
CONTINUOUS
 70
0
 71
3
 72
20
 73
16
 74
14
 42
0.0000001
 43
0.0000001
 44
0.0000000001
 12
-0.9052631427
 22
-0.6990036578
 32
0.0
 13
-0.0117152434
 23
1.1436652589
 33
0.0
 40
0.0
 40
0.0
 40
0.0
 40
0.0
 40
0.0252259025
 40
0.0613853724
 40
0.1094399136
 40
0.1702899776
 40
0.3254262348
 40
0.5029120086
 40
0.6806137492
 40
0.8386637865
 40
0.9023336044
 40
0.9514844392
 40
0.9698384194
 40
0.9838165723
 40
1.0
 40
1.0
 40
1.0
 40
1.0
 10
-3.0887135575
 20
-36.2503282015
 30
0.0
 10
-3.0963255841
 20
-36.2562058676
 30
0.0
 10
-3.1176346764
 20
-36.2666225913
 30
0.0
 10
-3.1573207537
 20
-36.2794284364
 30
0.0
 10
-3.2114340008
 20
-36.2913290542
 30
0.0
 10
-3.3110119899
 20
-36.3062926124
 30
0.0
 10
-3.4608378129
 20
-36.3169165824
 30
0.0
 10
-3.6553778177
 20
-36.3207871386
 30
0.0
 10
-3.8510738787
 20
-36.3168350622
 30
0.0
 10
-4.0030764681
 20
-36.3066816879
 30
0.0
 10
-4.1055488448
 20
-36.292564855
 30
0.0
 10
-4.1543964799
 20
-36.2826858902
 30
0.0
 10
-4.1843806987
 20
-36.2729577545
 30
0.0
 10
-4.2005148053
 20
-36.265840806
 30
0.0
 10
-4.2117482471
 20
-36.2571292287
 30
0.0
 10
-4.2118114447
 20
-36.250959754
 30
0.0
 11
-3.0887135575
 21
-36.2503282015
 31
0.0
 11
-3.1139998407
 21
-36.264221115
 31
0.0
 11
-3.1531687436
 21
-36.2774935323
 31
0.0
 11
-3.2067478462
 21
-36.2897414901
 31
0.0
 11
-3.275516281
 21
-36.3004406272
 31
0.0
 11
-3.4523587192
 21
-36.3149082612
 31
0.0
 11
-3.6553033167
 21
-36.3194299083
 31
0.0
 11
-3.8584973761
 21
-36.3150171573
 31
0.0
 11
-4.0387400729
 21
-36.3012748153
 31
0.0
 11
-4.1108287285
 21
-36.2909747373
 31
0.0
 11
-4.1657071689
 21
-36.2787891404
 31
0.0
 11
-4.185621817
 21
-36.2721508339
 31
0.0
 11
-4.2000398188
 21
-36.2652435395
 31
0.0
 11
-4.2118114447
 21
-36.250959754
 31
0.0
  0
SPLINE
  5
469
100
AcDbEntity
  8
0
100
AcDbSpline
 62
7
  6
CONTINUOUS
 70
0
 71
3
 72
14
 73
10
 74
8
 42
0.0000001
 43
0.0000001
 44
0.0000000001
 12
-0.3958110346
 22
0.0
 32
0.0
 13
0.0246499247
 23
-0.3950427272
 33
0.0
 40
0.0
 40
0.0
 40
0.0
 40
0.0
 40
0.3490432219
 40
0.669973708
 40
0.8051281514
 40
0.9071092607
 40
0.9433670209
 40
0.9700213975
 40
1.0
 40
1.0
 40
1.0
 40
1.0
 10
-3.5869597752
 20
-36.206887423
 30
0.0
 10
-3.6330114948
 20
-36.206887423
 30
0.0
 10
-3.7214140049
 20
-36.2085117421
 30
0.0
 10
-3.82750588
 20
-36.214379651
 30
0.0
 10
-3.9007499841
 20
-36.2226943631
 30
0.0
 10
-3.9362133564
 20
-36.2289096342
 30
0.0
 10
-3.9571866064
 20
-36.2357183941
 30
0.0
 10
-3.9679627078
 20
-36.2404033265
 30
0.0
 10
-3.9747214232
 20
-36.2467446159
 30
0.0
 10
-3.9744750997
 20
-36.2506922256
 30
0.0
 11
-3.5869597752
 21
-36.206887423
 31
0.0
 11
-3.7250908991
 21
-36.209464341
 31
0.0
 11
-3.8518673171
 21
-36.2174523857
 31
0.0
 11
-3.9049859489
 21
-36.2237921268
 31
0.0
 11
-3.9445489095
 21
-36.2317999621
 31
0.0
 11
-3.9581743739
 21
-36.2363059892
 31
0.0
 11
-3.9676188951
 21
-36.2410076434
 31
0.0
 11
-3.9744750997
 21
-36.2506922256
 31
0.0
  0
LINE
  5
46A
100
AcDbEntity
  8
0
100
AcDbLine
 62
7
  6
CONTINUOUS
 10
-3.5494269846
 20
-36.2072472073
 11
-3.5869597752
 21
-36.206887423
  0
SPLINE
  5
46B
100
AcDbEntity
  8
0
100
AcDbSpline
 62
7
  6
CONTINUOUS
 70
0
 71
3
 72
19
 73
15
 74
13
 42
0.0000001
 43
0.0000001
 44
0.0000000001
 12
-0.6403282407
 22
0.4447664442
 32
0.0
 13
0.0092978681
 23
-0.7795838604
 33
0.0
 40
0.0
 40
0.0
 40
0.0
 40
0.0
 40
0.0592035296
 40
0.161592785
 40
0.3209895616
 40
0.5107451005
 40
0.6976047007
 40
0.7805822238
 40
0.8529976442
 40
0.9125456718
 40
0.9567231308
 40
0.9725450123
 40
0.9845404768
 40
1.0
 40
1.0
 40
1.0
 40
1.0
 10
-3.2974756007
 20
-36.1273989415
 30
0.0
 10
-3.3101121647
 20
-36.1186216937
 30
0.0
 10
-3.3492237151
 20
-36.1016652866
 30
0.0
 10
-3.4313369102
 20
-36.0856170547
 30
0.0
 10
-3.5484665924
 20
-36.0762052507
 30
0.0
 10
-3.6877845353
 20
-36.0740346709
 30
0.0
 10
-3.8072540778
 20
-36.0773072259
 30
0.0
 10
-3.8959235062
 20
-36.0845372698
 30
0.0
 10
-3.9513943291
 20
-36.0912913731
 30
0.0
 10
-3.996491354
 20
-36.0992789089
 30
0.0
 10
-4.0266661554
 20
-36.1068741208
 30
0.0
 10
-4.0440036823
 20
-36.1143084283
 30
0.0
 10
-4.053501016
 20
-36.1199391956
 30
0.0
 10
-4.0585897169
 20
-36.1265080929
 30
0.0
 10
-4.0585418034
 20
-36.1305254245
 30
0.0
 11
-3.2974756007
 21
-36.1273989415
 31
0.0
 11
-3.339069928
 21
-36.1073885094
 31
0.0
 11
-3.4168973059
 21
-36.089634655
 31
0.0
 11
-3.5406291064
 21
-36.0780601321
 31
0.0
 11
-3.6885401827
 21
-36.0750908828
 31
0.0
 11
-3.8341452198
 21
-36.0798590621
 31
0.0
 11
-3.8986155255
 21
-36.0852166926
 31
0.0
 11
-3.9546337506
 21
-36.0922490353
 31
0.0
 11
-4.0003029197
 21
-36.1005976208
 31
0.0
 11
-4.0334462761
 21
-36.1099679242
 31
0.0
 11
-4.0447329142
 21
-36.1149451648
 31
0.0
 11
-4.0525620501
 21
-36.1200605409
 31
0.0
 11
-4.0585418034
 21
-36.1305254245
 31
0.0
  0
LINE
  5
46C
100
AcDbEntity
  8
0
100
AcDbLine
 62
7
  6
CONTINUOUS
 10
-8.9313313185
 20
-39.5865736685
 11
-8.8812175615
 21
-42.3987574536
  0
SPLINE
  5
46D
100
AcDbEntity
  8
0
100
AcDbSpline
 62
7
  6
CONTINUOUS
 70
0
 71
3
 72
9
 73
5
 74
3
 42
0.0000001
 43
0.0000001
 44
0.0000000001
 12
-0.0723026074
 22
0.0057384209
 32
0.0
 13
-0.0720791225
 23
0.0080744419
 33
0.0
 40
0.0
 40
0.0
 40
0.0
 40
0.0
 40
0.2595619728
 40
1.0
 40
1.0
 40
1.0
 40
1.0
 10
-2.5901565487
 20
-36.1899386664
 30
0.0
 10
-2.5964122178
 20
-36.1894421745
 30
0.0
 10
-2.6205062093
 20
-36.1874454745
 30
0.0
 10
-2.6445729528
 20
-36.185106421
 30
0.0
 10
-2.6623629939
 20
-36.1831135464
 30
0.0
 11
-2.5901565487
 21
-36.1899386664
 31
0.0
 11
-2.60891815
 21
-36.1883825745
 31
0.0
 11
-2.6623629939
 21
-36.1831135464
 31
0.0
  0
SPLINE
  5
46E
100
AcDbEntity
  8
0
100
AcDbSpline
 62
7
  6
CONTINUOUS
 70
0
 71
3
 72
9
 73
5
 74
3
 42
0.0000001
 43
0.0000001
 44
0.0000000001
 12
-0.09976987
 22
0.0111764127
 32
0.0
 13
-0.0980910758
 23
0.0213794293
 33
0.0
 40
0.0
 40
0.0
 40
0.0
 40
0.0
 40
0.2811411417
 40
1.0
 40
1.0
 40
1.0
 40
1.0
 10
-2.6623629939
 20
-36.1831135464
 30
0.0
 10
-2.671712799
 20
-36.1820661633
 30
0.0
 10
-2.704930972
 20
-36.178060739
 30
0.0
 10
-2.7380661266
 20
-36.1729836369
 30
0.0
 10
-2.7615706728
 20
-36.1678607062
 30
0.0
 11
-2.6623629939
 21
-36.1831135464
 31
0.0
 11
-2.6903842273
 21
-36.1797292784
 31
0.0
 11
-2.7615706728
 21
-36.1678607062
 31
0.0
  0
SPLINE
  5
46F
100
AcDbEntity
  8
0
100
AcDbSpline
 62
7
  6
CONTINUOUS
 70
0
 71
3
 72
10
 73
6
 74
4
 42
0.0000001
 43
0.0000001
 44
0.0000000001
 12
-0.0866354551
 22
0.0188826208
 32
0.0
 13
0.0009014495
 23
0.0886647779
 33
0.0
 40
0.0
 40
0.0
 40
0.0
 40
0.0
 40
0.4036711832
 40
0.6934692116
 40
1.0
 40
1.0
 40
1.0
 40
1.0
 10
-2.7615706728
 20
-36.1678607062
 30
0.0
 10
-2.7732280851
 20
-36.1653199162
 30
0.0
 10
-2.7935480452
 20
-36.1599990877
 30
0.0
 10
-2.8197924777
 20
-36.1504275853
 30
0.0
 10
-2.8377932063
 20
-36.1373631197
 30
0.0
 10
-2.8377010989
 20
-36.128303625
 30
0.0
 11
-2.7615706728
 21
-36.1678607062
 31
0.0
 11
-2.7961663065
 21
-36.1586792035
 31
0.0
 11
-2.8199084269
 21
-36.1488503323
 31
0.0
 11
-2.8377010989
 21
-36.128303625
 31
0.0
  0
SPLINE
  5
470
100
AcDbEntity
  8
0
100
AcDbSpline
 62
7
  6
CONTINUOUS
 70
0
 71
3
 72
11
 73
7
 74
5
 42
0.0000001
 43
0.0000001
 44
0.0000000001
 12
-0.5662225361
 22
-0.0079158533
 32
0.0
 13
-0.5391302795
 23
0.1732315294
 33
0.0
 40
0.0
 40
0.0
 40
0.0
 40
0.0
 40
0.3089991118
 40
0.5953264782
 40
0.8315014918
 40
1.0
 40
1.0
 40
1.0
 40
1.0
 10
-0.7499290261
 20
-36.2246887982
 30
0.0
 10
-0.8082497797
 20
-36.2255041288
 30
0.0
 10
-0.920642584
 20
-36.22473492
 30
0.0
 10
-1.0775219479
 20
-36.2166404108
 30
0.0
 10
-1.2070367054
 20
-36.2016358898
 30
0.0
 10
-1.2824576708
 20
-36.1874335321
 30
0.0
 10
-1.3127385534
 20
-36.1777037807
 30
0.0
 11
-0.7499290261
 21
-36.2246887982
 31
0.0
 11
-0.9249032737
 21
-36.2233515528
 31
0.0
 11
-1.0867897374
 21
-36.2142725605
 31
0.0
 11
-1.2195758277
 21
-36.1983218737
 31
0.0
 11
-1.3127385534
 21
-36.1777037807
 31
0.0
  0
SPLINE
  5
471
100
AcDbEntity
  8
0
100
AcDbSpline
 62
7
  6
CONTINUOUS
 70
0
 71
3
 72
10
 73
6
 74
4
 42
0.0000001
 43
0.0000001
 44
0.0000000001
 12
-0.0648083467
 22
0.0208240001
 32
0.0
 13
-0.0013237956
 23
0.0680588594
 33
0.0
 40
0.0
 40
0.0
 40
0.0
 40
0.0
 40
0.3775555677
 40
0.6566558037
 40
1.0
 40
1.0
 40
1.0
 40
1.0
 10
-1.3127385534
 20
-36.1777037807
 30
0.0
 10
-1.3208948041
 20
-36.1750830416
 30
0.0
 10
-1.3350296112
 20
-36.169766984
 30
0.0
 10
-1.3546323159
 20
-36.1594659408
 30
0.0
 10
-1.3657405816
 20
-36.1471308237
 30
0.0
 10
-1.3658920875
 20
-36.1393416189
 30
0.0
 11
-1.3127385534
 21
-36.1777037807
 31
0.0
 11
-1.3367315138
 21
-36.1684911731
 31
0.0
 11
-1.3531531391
 21
-36.1589368015
 31
0.0
 11
-1.3658920875
 21
-36.1393416189
 31
0.0
  0
SPLINE
  5
472
100
AcDbEntity
  8
RACCORDO
100
AcDbSpline
 62
253
  6
CONTINUOUS
 70
0
 71
3
 72
17
 73
13
 74
11
 42
0.0000001
 43
0.0000001
 44
0.0000000001
 12
2.9063075184
 22
0.6605871639
 32
0.0
 13
0.1767095393
 23
2.9751928562
 33
0.0
 40
0.0
 40
0.0
 40
0.0
 40
0.0
 40
0.2029747431
 40
0.3830484645
 40
0.5397704484
 40
0.6731136037
 40
0.7834928635
 40
0.8721695467
 40
0.909249162
 40
0.9422425206
 40
0.9720758328
 40
1.0
 40
1.0
 40
1.0
 40
1.0
 10
16.2958760014
 20
-36.5351489263
 30
0.0
 10
16.4925116753
 20
-36.4904547563
 30
0.0
 10
16.8623674962
 20
-36.400489913
 30
0.0
 10
17.3781623683
 20
-36.2531333152
 30
0.0
 10
17.8203504355
 20
-36.1019723185
 30
0.0
 10
18.1875976991
 20
-35.9477353316
 30
0.0
 10
18.478842629
 20
-35.7910018403
 30
0.0
 10
18.6689945596
 20
-35.6508533631
 30
0.0
 10
18.7771355143
 20
-35.535425514
 30
0.0
 10
18.8335893256
 20
-35.4532072154
 30
0.0
 10
18.8700279003
 20
-35.3700664736
 30
0.0
 10
18.8806975941
 20
-35.3130261975
 30
0.0
 10
18.8823424164
 20
-35.2853329365
 30
0.0
 11
16.2958760014
 21
-36.5351489263
 31
0.0
 11
16.8834067137
 21
-36.3910098407
 31
0.0
 11
17.3990293883
 21
-36.2420863076
 31
0.0
 11
17.8403537954
 21
-36.0890665966
 31
0.0
 11
18.2056734339
 21
-35.9325903763
 31
0.0
 11
18.4935171562
 21
-35.7733021887
 31
0.0
 11
18.7027863358
 21
-35.611876192
 31
0.0
 11
18.7776403789
 21
-35.530573742
 31
0.0
 11
18.832541326
 21
-35.4489920137
 31
0.0
 11
18.8674537842
 21
-35.3672165606
 31
0.0
 11
18.8823424164
 21
-35.2853329365
 31
0.0
  0
LINE
  5
473
100
AcDbEntity
  8
RACCORDO
100
AcDbLine
 62
253
  6
CONTINUOUS
 10
18.8823424164
 20
-35.2853329365
 11
18.8824662724
 21
-35.283124898
  0
SPLINE
  5
474
100
AcDbEntity
  8
0
100
AcDbSpline
 62
7
  6
CONTINUOUS
 70
0
 71
3
 72
20
 73
16
 74
14
 42
0.0000001
 43
0.0000001
 44
0.0000000001
 12
0.0126759212
 22
-1.1436580277
 32
0.0
 13
0.9052655275
 23
0.6990054992
 33
0.0
 40
0.0
 40
0.0
 40
0.0
 40
0.0
 40
0.016166111
 40
0.0301193391
 40
0.0484293763
 40
0.0974496577
 40
0.1610141538
 40
0.3188742581
 40
0.4964398924
 40
0.6740446686
 40
0.8295476049
 40
0.8903846315
 40
0.9385199262
 40
0.9748097205
 40
1.0
 40
1.0
 40
1.0
 40
1.0
 10
-4.211810451
 20
-36.4529252633
 30
0.0
 10
-4.2117421442
 20
-36.4590880975
 30
0.0
 10
-4.20053243
 20
-36.4677876502
 30
0.0
 10
-4.1844279943
 20
-36.4749004611
 30
0.0
 10
-4.1545244033
 20
-36.4846228724
 30
0.0
 10
-4.105784149
 20
-36.4945054587
 30
0.0
 10
-4.0034726999
 20
-36.5085994989
 30
0.0
 10
-3.851636309
 20
-36.5187703388
 30
0.0
 10
-3.6560197391
 20
-36.5227578834
 30
0.0
 10
-3.4613430309
 20
-36.5189042928
 30
0.0
 10
-3.3113420888
 20
-36.5082864488
 30
0.0
 10
-3.2115822304
 20
-36.4933753943
 30
0.0
 10
-3.1574190345
 20
-36.4813739917
 30
0.0
 10
-3.1176367587
 20
-36.4686355326
 30
0.0
 10
-3.0963148547
 20
-36.4581630973
 30
0.0
 10
-3.0887135575
 20
-36.452293716
 30
0.0
 11
-4.211810451
 21
-36.4529252633
 31
0.0
 11
-4.2000528189
 21
-36.4671949798
 31
0.0
 11
-4.1856634166
 21
-36.4740960851
 31
0.0
 11
-4.1658002098
 21
-36.4807299466
 31
0.0
 11
-4.1110729525
 21
-36.4929082225
 31
0.0
 11
-4.0391045364
 21
-36.5031995511
 31
0.0
 11
-3.859079968
 21
-36.5169516229
 31
0.0
 11
-3.6560418053
 21
-36.5213976983
 31
0.0
 11
-3.452960005
 21
-36.5168998196
 31
0.0
 11
-3.2756952108
 21
-36.5024457669
 31
0.0
 11
-3.2069383459
 21
-36.4917680844
 31
0.0
 11
-3.153275035
 21
-36.479473424
 31
0.0
 11
-3.1139536739
 21
-36.4661861863
 31
0.0
 11
-3.0887135575
 21
-36.452293716
 31
0.0
  0
SPLINE
  5
475
100
AcDbEntity
  8
RACCORDO
100
AcDbSpline
 62
253
  6
CONTINUOUS
 70
0
 71
3
 72
11
 73
7
 74
5
 42
0.0000001
 43
0.0000001
 44
0.0000000001
 12
1.7382981211
 22
-0.4358813181
 32
0.0
 13
1.5054032491
 23
-0.9723342731
 33
0.0
 40
0.0
 40
0.0
 40
0.0
 40
0.0
 40
0.3123409868
 40
0.5833540997
 40
0.812402337
 40
1.0
 40
1.0
 40
1.0
 40
1.0
 10
-13.9734999537
 20
-37.092263897
 30
0.0
 10
-13.7925193702
 20
-37.1376450974
 30
0.0
 10
-13.4560471649
 20
-37.2288201853
 30
0.0
 10
-12.9945740644
 20
-37.3800795432
 30
0.0
 10
-12.6138881977
 20
-37.5353227014
 30
0.0
 10
-12.3932272108
 20
-37.6522920393
 30
0.0
 10
-12.2990905004
 20
-37.7130945851
 30
0.0
 11
-13.9734999537
 21
-37.092263897
 31
0.0
 11
-13.4336736385
 21
-37.2402786734
 31
0.0
 11
-12.972857213
 21
-37.3937046048
 31
0.0
 11
-12.5939613118
 21
-37.5516039258
 31
0.0
 11
-12.2990905004
 21
-37.7130945851
 31
0.0
  0
SPLINE
  5
476
100
AcDbEntity
  8
RACCORDO
100
AcDbSpline
 62
253
  6
CONTINUOUS
 70
0
 71
3
 72
11
 73
7
 74
5
 42
0.0000001
 43
0.0000001
 44
0.0000000001
 12
1.5053717295
 22
0.9722627123
 32
0.0
 13
1.7382346297
 23
0.4358660319
 33
0.0
 40
0.0
 40
0.0
 40
0.0
 40
0.0
 40
0.1875996605
 40
0.4166498206
 40
0.6876622884
 40
1.0
 40
1.0
 40
1.0
 40
1.0
 10
12.2991346024
 20
-37.7130398384
 30
0.0
 10
12.3932703442
 20
-37.6522411202
 30
0.0
 10
12.6139452218
 20
-37.5353112174
 30
0.0
 10
12.9946144897
 20
-37.38006789
 30
0.0
 10
13.4560694815
 20
-37.2288107837
 30
0.0
 10
13.7925278752
 20
-37.1376430307
 30
0.0
 10
13.9734999507
 20
-37.0922638978
 30
0.0
 11
12.2991346024
 21
-37.7130398384
 31
0.0
 11
12.5940125674
 21
-37.5515802955
 31
0.0
 11
12.9729008219
 21
-37.393692552
 31
0.0
 11
13.4336984526
 21
-37.2402698534
 31
0.0
 11
13.9734999507
 21
-37.0922638978
 31
0.0
  0
SPLINE
  5
477
100
AcDbEntity
  8
0
100
AcDbSpline
 62
7
  6
CONTINUOUS
 70
0
 71
3
 72
18
 73
14
 74
12
 42
0.0000001
 43
0.0000001
 44
0.0000000001
 12
0.0391739053
 22
0.6309334105
 32
0.0
 13
-0.0708555537
 23
-0.6281648302
 33
0.0
 40
0.0
 40
0.0
 40
0.0
 40
0.0
 40
0.0150461078
 40
0.0424208576
 40
0.0857816975
 40
0.1449907661
 40
0.3029725371
 40
0.4887396708
 40
0.6764803372
 40
0.8397483146
 40
0.9525624126
 40
0.9835159019
 40
1.0
 40
1.0
 40
1.0
 40
1.0
 10
-1.9074895688
 20
-36.2519761845
 30
0.0
 10
-1.9072930972
 20
-36.2488118205
 30
0.0
 10
-1.9137731539
 20
-36.2406819955
 30
0.0
 10
-1.9303937582
 20
-36.2341597473
 30
0.0
 10
-1.9569376326
 20
-36.2267289919
 30
0.0
 10
-2.0111001837
 20
-36.2177873886
 30
0.0
 10
-2.0958777961
 20
-36.2107974752
 30
0.0
 10
-2.2078147246
 20
-36.2084297386
 30
0.0
 10
-2.3211012041
 20
-36.2099931771
 30
0.0
 10
-2.4182175804
 20
-36.2172812946
 30
0.0
 10
-2.4830833834
 20
-36.2275295839
 30
0.0
 10
-2.5144327031
 20
-36.2383047944
 30
0.0
 10
-2.5227744381
 20
-36.2460779316
 30
0.0
 10
-2.5231637681
 20
-36.2495295085
 30
0.0
 11
-1.9074895688
 21
-36.2519761845
 31
0.0
 11
-1.9121086688
 21
-36.2436617318
 31
0.0
 11
-1.9274077851
 21
-36.2355749077
 31
0.0
 11
-1.9537664018
 21
-36.228054404
 31
0.0
 11
-1.9906082111
 21
-36.2214510059
 31
0.0
 11
-2.090048173
 21
-36.212215462
 31
0.0
 11
-2.2074397394
 21
-36.2091192394
 31
0.0
 11
-2.3260987322
 21
-36.211349821
 31
0.0
 11
-2.4289634783
 21
-36.2197796881
 31
0.0
 11
-2.4989931821
 21
-36.2332594961
 31
0.0
 11
-2.5168638
 21
-36.2412292044
 31
0.0
 11
-2.5231637681
 21
-36.2495295085
 31
0.0
  0
SPLINE
  5
478
100
AcDbEntity
  8
0
100
AcDbSpline
 62
7
  6
CONTINUOUS
 70
0
 71
3
 72
21
 73
17
 74
15
 42
0.0000001
 43
0.0000001
 44
0.0000000001
 12
-0.0188970422
 22
0.791551575
 32
0.0
 13
0.0477028548
 23
-0.7903388082
 33
0.0
 40
0.0
 40
0.0
 40
0.0
 40
0.0
 40
0.0156889789
 40
0.0440808779
 40
0.088935631
 40
0.1497185861
 40
0.310080235
 40
0.4991453913
 40
0.6883576468
 40
0.7749665375
 40
0.8512906149
 40
0.9129864812
 40
0.957493074
 40
0.9732234423
 40
0.9849581029
 40
1.0
 40
1.0
 40
1.0
 40
1.0
 10
-1.8308553547
 20
-36.1290585403
 30
0.0
 10
-1.8309541798
 20
-36.1249189949
 30
0.0
 10
-1.8395564979
 20
-36.1148012838
 30
0.0
 10
-1.8612116059
 20
-36.106348199
 30
0.0
 10
-1.8955618465
 20
-36.0970640393
 30
0.0
 10
-1.9648369524
 20
-36.0857245505
 30
0.0
 10
-2.0729051599
 20
-36.0767421562
 30
0.0
 10
-2.2150540104
 20
-36.0734982878
 30
0.0
 10
-2.3377833852
 20
-36.0764031072
 30
0.0
 10
-2.4305253977
 20
-36.0826394122
 30
0.0
 10
-2.4895116805
 20
-36.0888350969
 30
0.0
 10
-2.5370776104
 20
-36.096632204
 30
0.0
 10
-2.5683681235
 20
-36.104464957
 30
0.0
 10
-2.5859249985
 20
-36.1120914679
 30
0.0
 10
-2.5953673069
 20
-36.1178249391
 30
0.0
 10
-2.6000617178
 20
-36.1246288236
 30
0.0
 10
-2.5998225373
 20
-36.1285915552
 30
0.0
 11
-1.8308553547
 21
-36.1290585403
 31
0.0
 11
-1.8373474875
 21
-36.1184678543
 31
0.0
 11
-1.8573438632
 21
-36.108196639
 31
0.0
 11
-1.8915585751
 21
-36.0986747505
 31
0.0
 11
-1.9389536732
 21
-36.0903159383
 31
0.0
 11
-2.0653769995
 21
-36.0785389707
 31
0.0
 11
-2.2150241649
 21
-36.0746587123
 31
0.0
 11
-2.3647880235
 21
-36.0785318467
 31
0.0
 11
-2.4331986551
 21
-36.0832760562
 31
0.0
 11
-2.4932686764
 21
-36.0898774018
 31
0.0
 11
-2.541414571
 21
-36.0981378049
 31
0.0
 11
-2.5753357582
 21
-36.1076856542
 31
0.0
 11
-2.5867032593
 21
-36.1127754074
 31
0.0
 11
-2.5943918841
 21
-36.1179919301
 31
0.0
 11
-2.5998225373
 21
-36.1285915552
 31
0.0
  0
SPLINE
  5
479
100
AcDbEntity
  8
RACCORDO
100
AcDbSpline
 62
253
  6
CONTINUOUS
 70
0
 71
3
 72
11
 73
7
 74
5
 42
0.0000001
 43
0.0000001
 44
0.0000000001
 12
0.01849178
 22
-1.1997725809
 32
0.0
 13
-1.167002505
 23
-0.2791081241
 33
0.0
 40
0.0
 40
0.0
 40
0.0
 40
0.0
 40
0.2667208919
 40
0.5221392328
 40
0.7651422677
 40
1.0
 40
1.0
 40
1.0
 40
1.0
 10
13.9734999511
 20
-37.0922638975
 30
0.0
 10
13.9751439991
 20
-37.1989320351
 30
0.0
 10
13.9488507634
 20
-37.4096569575
 30
0.0
 10
13.8194233471
 20
-37.6926107437
 30
0.0
 10
13.612052642
 20
-37.9084466945
 30
0.0
 10
13.4332878333
 20
-37.9904670818
 30
0.0
 10
13.3419279794
 20
-38.0123173155
 30
0.0
 11
13.9734999511
 21
-37.0922638975
 31
0.0
 11
13.932095709
 21
-37.4096167595
 31
0.0
 11
13.8024482838
 21
-37.6873247546
 31
0.0
 11
13.5984676287
 21
-37.8956815192
 31
0.0
 11
13.3419279794
 21
-38.0123173155
 31
0.0
  0
SPLINE
  5
47A
100
AcDbEntity
  8
RACCORDO
100
AcDbSpline
 62
253
  6
CONTINUOUS
 70
0
 71
3
 72
11
 73
7
 74
5
 42
0.0000001
 43
0.0000001
 44
0.0000000001
 12
0.018491779
 22
-1.1997725891
 32
0.0
 13
-1.1670025156
 23
-0.2791081156
 33
0.0
 40
0.0
 40
0.0
 40
0.0
 40
0.0
 40
0.2667208929
 40
0.5221392345
 40
0.7651422692
 40
1.0
 40
1.0
 40
1.0
 40
1.0
 10
16.2958760014
 20
-36.5351489263
 30
0.0
 10
16.2975200493
 20
-36.641817065
 30
0.0
 10
16.2712268127
 20
-36.8525419895
 30
0.0
 10
16.1417993943
 20
-37.1354957778
 30
0.0
 10
15.9344286859
 20
-37.351331728
 30
0.0
 10
15.7556638759
 20
-37.4333521138
 30
0.0
 10
15.6643040216
 20
-37.4552023467
 30
0.0
 11
16.2958760014
 21
-36.5351489263
 31
0.0
 11
16.2544717581
 21
-36.8525017915
 31
0.0
 11
16.1248243304
 21
-37.1302097887
 31
0.0
 11
15.9208436723
 21
-37.3385665528
 31
0.0
 11
15.6643040216
 21
-37.4552023467
 31
0.0
  0
SPLINE
  5
47B
100
AcDbEntity
  8
RACCORDO
100
AcDbSpline
 62
253
  6
CONTINUOUS
 70
0
 71
3
 72
11
 73
7
 74
5
 42
0.0000001
 43
0.0000001
 44
0.0000000001
 12
-0.0184917799
 22
-1.1997725811
 32
0.0
 13
1.1670025053
 23
-0.2791081242
 33
0.0
 40
0.0
 40
0.0
 40
0.0
 40
0.0
 40
0.2667208919
 40
0.5221392328
 40
0.7651422677
 40
1.0
 40
1.0
 40
1.0
 40
1.0
 10
-16.2958760014
 20
-36.5351489263
 30
0.0
 10
-16.2975200494
 20
-36.6418170639
 30
0.0
 10
-16.2712268136
 20
-36.8525419863
 30
0.0
 10
-16.1417993974
 20
-37.1354957726
 30
0.0
 10
-15.9344286923
 20
-37.3513317235
 30
0.0
 10
-15.7556638836
 20
-37.4333521108
 30
0.0
 10
-15.6643040296
 20
-37.4552023445
 30
0.0
 11
-16.2958760014
 21
-36.5351489263
 31
0.0
 11
-16.2544717592
 21
-36.8525017883
 31
0.0
 11
-16.1248243341
 21
-37.1302097835
 31
0.0
 11
-15.920843679
 21
-37.3385665482
 31
0.0
 11
-15.6643040296
 21
-37.4552023445
 31
0.0
  0
SPLINE
  5
47C
100
AcDbEntity
  8
RACCORDO
100
AcDbSpline
 62
253
  6
CONTINUOUS
 70
0
 71
3
 72
11
 73
7
 74
5
 42
0.0000001
 43
0.0000001
 44
0.0000000001
 12
-0.0184917799
 22
-1.199772554
 32
0.0
 13
1.1670024705
 23
-0.279108153
 33
0.0
 40
0.0
 40
0.0
 40
0.0
 40
0.0
 40
0.2667208888
 40
0.5221392275
 40
0.7651422631
 40
1.0
 40
1.0
 40
1.0
 40
1.0
 10
-13.9734999542
 20
-37.0922638968
 30
0.0
 10
-13.9751440022
 20
-37.1989320308
 30
0.0
 10
-13.9488507687
 20
-37.4096569463
 30
0.0
 10
-13.8194233597
 20
-37.6926107256
 30
0.0
 10
-13.6120526657
 20
-37.9084466787
 30
0.0
 10
-13.4332878617
 20
-37.9904670714
 30
0.0
 10
-13.3419280086
 20
-38.0123173078
 30
0.0
 11
-13.9734999542
 21
-37.0922638968
 31
0.0
 11
-13.9320957153
 21
-37.4096167482
 31
0.0
 11
-13.8024482983
 21
-37.6873247366
 31
0.0
 11
-13.5984676534
 21
-37.8956815033
 31
0.0
 11
-13.3419280086
 21
-38.0123173078
 31
0.0
  0
SPLINE
  5
47D
100
AcDbEntity
  8
0
100
AcDbSpline
 62
7
  6
CONTINUOUS
 70
0
 71
3
 72
14
 73
10
 74
8
 42
0.0000001
 43
0.0000001
 44
0.0000000001
 12
-0.5931941995
 22
-0.0049393121
 32
0.0
 13
-0.4013045191
 23
0.4368734806
 33
0.0
 40
0.0
 40
0.0
 40
0.0
 40
0.0
 40
0.3511504147
 40
0.517264229
 40
0.6670475158
 40
0.7913546903
 40
0.8871528966
 40
0.9560054331
 40
1.0
 40
1.0
 40
1.0
 40
1.0
 10
-0.7499820657
 20
-36.3192410423
 30
0.0
 10
-0.8194155288
 20
-36.3198191895
 30
0.0
 10
-0.9217443217
 20
-36.3189602398
 30
0.0
 10
-1.0534945531
 20
-36.3124838455
 30
0.0
 10
-1.1402806704
 20
-36.3051835313
 30
0.0
 10
-1.2127301652
 20
-36.2952409306
 30
0.0
 10
-1.2688396741
 20
-36.2833462884
 30
0.0
 10
-1.3078240923
 20
-36.2705308552
 30
0.0
 10
-1.3281691907
 20
-36.259705913
 30
0.0
 10
-1.3340542635
 20
-36.2532992265
 30
0.0
 11
-0.7499820657
 21
-36.3192410423
 31
0.0
 11
-0.9582745931
 21
-36.3167343596
 31
0.0
 11
-1.05668834
 21
-36.3117247669
 31
0.0
 11
-1.145198402
 21
-36.3039182777
 31
0.0
 11
-1.2181955571
 21
-36.2934718204
 31
0.0
 11
-1.273663203
 21
-36.2811079495
 31
0.0
 11
-1.3121932597
 21
-36.2675545392
 31
0.0
 11
-1.3340542635
 21
-36.2532992265
 31
0.0
  0
SPLINE
  5
47E
100
AcDbEntity
  8
0
100
AcDbSpline
 62
7
  6
CONTINUOUS
 70
0
 71
3
 72
13
 73
9
 74
7
 42
0.0000001
 43
0.0000001
 44
0.0000000001
 12
-0.3898878404
 22
0.0020801511
 32
0.0
 13
-0.064662942
 23
-0.3844938999
 33
0.0
 40
0.0
 40
0.0
 40
0.0
 40
0.0
 40
0.3974621567
 40
0.5731126092
 40
0.7220543585
 40
0.8367912009
 40
0.9177418678
 40
1.0
 40
1.0
 40
1.0
 40
1.0
 10
-0.7499798525
 20
-36.074720427
 30
0.0
 10
-0.8016350731
 20
-36.0744448332
 30
0.0
 10
-0.8761287305
 20
-36.0764232341
 30
0.0
 10
-0.969779684
 20
-36.084200082
 30
0.0
 10
-1.026203116
 20
-36.0912499691
 30
0.0
 10
-1.0708286162
 20
-36.1003271428
 30
0.0
 10
-1.1037119315
 20
-36.1105696154
 30
0.0
 10
-1.1259559637
 20
-36.1235794795
 30
0.0
 10
-1.1277289813
 20
-36.1341220629
 30
0.0
 11
-0.7499798525
 21
-36.074720427
 31
0.0
 11
-0.9048827819
 21
-36.0792062267
 31
0.0
 11
-0.9731231265
 21
-36.0849892871
 31
0.0
 11
-1.0306850532
 21
-36.0926647344
 31
0.0
 11
-1.0744514204
 21
-36.1019241906
 31
0.0
 11
-1.1042793015
 21
-36.1122424054
 31
0.0
 11
-1.1277289813
 21
-36.1341220629
 31
0.0
  0
SPLINE
  5
47F
100
AcDbEntity
  8
0
100
AcDbSpline
 62
7
  6
CONTINUOUS
 70
0
 71
3
 72
11
 73
7
 74
5
 42
0.0000001
 43
0.0000001
 44
0.0000000001
 12
0.2553802706
 22
-1.1826780676
 32
0.0
 13
0.0072715121
 23
-1.2099147157
 33
0.0
 40
0.0
 40
0.0
 40
0.0
 40
0.0
 40
0.161712624
 40
0.3868065354
 40
0.6692295963
 40
1.0
 40
1.0
 40
1.0
 40
1.0
 10
-8.999700734
 20
-37.3110703544
 30
0.0
 10
-8.9859346628
 20
-37.374821679
 30
0.0
 10
-8.9683664318
 20
-37.5303289769
 30
0.0
 10
-8.9542839048
 20
-37.7997677558
 30
0.0
 10
-8.9474563744
 20
-38.137883361
 30
0.0
 10
-8.9456982409
 20
-38.3851672976
 30
0.0
 10
-8.9448965072
 20
-38.5185686239
 30
0.0
 11
-8.999700734
 21
-37.3110703544
 31
0.0
 11
-8.9728931053
 21
-37.5048872163
 31
0.0
 11
-8.9567779578
 21
-37.7767593788
 31
0.0
 11
-8.9485366225
 21
-38.1183739721
 31
0.0
 11
-8.9448965072
 21
-38.5185686239
 31
0.0
  0
SPLINE
  5
480
100
AcDbEntity
  8
0
100
AcDbSpline
 62
7
  6
CONTINUOUS
 70
0
 71
3
 72
14
 73
10
 74
8
 42
0.0000001
 43
0.0000001
 44
0.0000000001
 12
0.4013097325
 22
-0.4368791561
 32
0.0
 13
0.5932029013
 23
0.0048183298
 33
0.0
 40
0.0
 40
0.0
 40
0.0
 40
0.0
 40
0.0439830451
 40
0.1128109546
 40
0.2085852414
 40
0.3328765972
 40
0.4826472848
 40
0.6488256979
 40
1.0
 40
1.0
 40
1.0
 40
1.0
 10
-1.3340542635
 20
-36.455264741
 30
0.0
 10
-1.3281706555
 20
-36.4616698328
 30
0.0
 10
-1.3078324752
 20
-36.4724922659
 30
0.0
 10
-1.2688596096
 20
-36.4853072985
 30
0.0
 10
-1.2127616281
 20
-36.4971981412
 30
0.0
 10
-1.1403226953
 20
-36.5071479446
 30
0.0
 10
-1.0535280973
 20
-36.5144479706
 30
0.0
 10
-0.921760784
 20
-36.5209227795
 30
0.0
 10
-0.8194132539
 20
-36.5217511626
 30
0.0
 10
-0.7499740489
 20
-36.521187138
 30
0.0
 11
-1.3340542635
 21
-36.455264741
 31
0.0
 11
-1.3121991806
 21
-36.469517241
 31
0.0
 11
-1.2736831748
 21
-36.4830681682
 31
0.0
 11
-1.2182288864
 21
-36.4954301371
 31
0.0
 11
-1.1452408271
 21
-36.5058806729
 31
0.0
 11
-1.0567371571
 21
-36.5136877035
 31
0.0
 11
-0.958283625
 21
-36.5186946949
 31
0.0
 11
-0.7499740489
 21
-36.521187138
 31
0.0
  0
SPLINE
  5
481
100
AcDbEntity
  8
0
100
AcDbSpline
 62
7
  6
CONTINUOUS
 70
0
 71
3
 72
14
 73
10
 74
8
 42
0.0000001
 43
0.0000001
 44
0.0000000001
 12
0.002945883
 22
-0.3319158856
 32
0.0
 13
-0.3314829978
 23
-0.0172004527
 33
0.0
 40
0.0
 40
0.0
 40
0.0
 40
0.0
 40
0.0346243744
 40
0.090874285
 40
0.177058839
 40
0.2946066065
 40
0.4396064839
 40
0.6080317638
 40
1.0
 40
1.0
 40
1.0
 40
1.0
 10
-1.6695873776
 20
-36.2508781696
 30
0.0
 10
-1.6695533779
 20
-36.2547089629
 30
0.0
 10
-1.6758770764
 20
-36.2640554236
 30
0.0
 10
-1.6932493003
 20
-36.273081755
 30
0.0
 10
-1.7206221948
 20
-36.2823633513
 30
0.0
 10
-1.7583360701
 20
-36.2906072975
 30
0.0
 10
-1.8054132094
 20
-36.2983117966
 30
0.0
 10
-1.8829141576
 20
-36.3076531154
 30
0.0
 10
-1.94480216
 20
-36.3120513973
 30
0.0
 10
-1.9881124286
 20
-36.314298741
 30
0.0
 11
-1.6695873776
 21
-36.2508781696
 31
0.0
 11
-1.674748568
 21
-36.2611469238
 31
0.0
 11
-1.6904715664
 21
-36.271216313
 31
0.0
 11
-1.7174242409
 21
-36.2808039261
 31
0.0
 11
-1.7554245505
 21
-36.2896550504
 31
0.0
 11
-1.8028969124
 21
-36.2975821472
 31
0.0
 11
-1.8583824211
 21
-36.3044197499
 31
0.0
 11
-1.9881124286
 21
-36.314298741
 31
0.0
  0
SPLINE
  5
482
100
AcDbEntity
  8
0
100
AcDbSpline
 62
7
  6
CONTINUOUS
 70
0
 71
3
 72
9
 73
5
 74
3
 42
0.0000001
 43
0.0000001
 44
0.0000000001
 12
-0.5924275126
 22
-0.0307407061
 32
0.0
 13
-0.5893933184
 23
0.0673116997
 33
0.0
 40
0.0
 40
0.0
 40
0.0
 40
0.0
 40
0.5183655504
 40
1.0
 40
1.0
 40
1.0
 40
1.0
 10
-1.9881124286
 20
-36.314298741
 30
0.0
 10
-2.0904770998
 20
-36.319610382
 30
0.0
 10
-2.2882811927
 20
-36.3211730911
 30
0.0
 10
-2.4862344733
 20
-36.3136403448
 30
0.0
 10
-2.5808585155
 20
-36.3028338003
 30
0.0
 11
-1.9881124286
 21
-36.314298741
 31
0.0
 11
-2.2955868419
 21
-36.3187865164
 31
0.0
 11
-2.5808585155
 21
-36.3028338003
 31
0.0
  0
SPLINE
  5
483
100
AcDbEntity
  8
0
100
AcDbSpline
 62
7
  6
CONTINUOUS
 70
0
 71
3
 72
12
 73
8
 74
6
 42
0.0000001
 43
0.0000001
 44
0.0000000001
 12
-0.191420331
 22
0.0218611705
 32
0.0
 13
0.0017488732
 23
0.1926566774
 33
0.0
 40
0.0
 40
0.0
 40
0.0
 40
0.0
 40
0.3984435174
 40
0.7062995825
 40
0.8185767733
 40
0.9024169742
 40
1.0
 40
1.0
 40
1.0
 40
1.0
 10
-2.5808585155
 20
-36.3028338003
 30
0.0
 10
-2.6062819121
 20
-36.2999303198
 30
0.0
 10
-2.6512927423
 20
-36.2936549417
 30
0.0
 10
-2.7027402042
 20
-36.283599228
 30
0.0
 10
-2.7338954123
 20
-36.2733025077
 30
0.0
 10
-2.7503309046
 20
-36.2657657272
 30
0.0
 10
-2.7611383139
 20
-36.2564171151
 30
0.0
 10
-2.7610814271
 20
-36.2501504412
 30
0.0
 11
-2.5808585155
 21
-36.3028338003
 31
0.0
 11
-2.6568683679
 21
-36.2920859633
 31
0.0
 11
-2.7147997952
 21
-36.2793588983
 31
0.0
 11
-2.7352767483
 21
-36.2723853074
 31
0.0
 11
-2.7497017272
 21
-36.2651161475
 31
0.0
 11
-2.7610814271
 21
-36.2501504412
 31
0.0
  0
SPLINE
  5
484
100
AcDbEntity
  8
0
100
AcDbSpline
 62
7
  6
CONTINUOUS
 70
0
 71
3
 72
9
 73
5
 74
3
 42
0.0000001
 43
0.0000001
 44
0.0000000001
 12
0.0830932405
 22
0.0177660757
 32
0.0
 13
0.0300165961
 23
0.079492918
 33
0.0
 40
0.0
 40
0.0
 40
0.0
 40
0.0
 40
0.6701522631
 40
1.0
 40
1.0
 40
1.0
 40
1.0
 10
-1.6694565399
 20
-36.3712375879
 30
0.0
 10
-1.6508948322
 20
-36.3672689293
 30
0.0
 10
-1.624504351
 20
-36.3608850513
 30
0.0
 10
-1.597078793
 20
-36.3449014899
 30
0.0
 10
-1.5937784909
 20
-36.3361613035
 30
0.0
 11
-1.6694565399
 21
-36.3712375879
 31
0.0
 11
-1.6150586936
 21
-36.354401332
 31
0.0
 11
-1.5937784909
 21
-36.3361613035
 31
0.0
  0
SPLINE
  5
485
100
AcDbEntity
  8
0
100
AcDbSpline
 62
7
  6
CONTINUOUS
 70
0
 71
3
 72
8
 73
4
 74
2
 42
0.0000001
 43
0.0000001
 44
0.0000000001
 12
0.0017561077
 22
0.0046506982
 32
0.0
 13
-0.0000346104
 23
0.0049710874
 33
0.0
 40
0.0
 40
0.0
 40
0.0
 40
0.0
 40
1.0
 40
1.0
 40
1.0
 40
1.0
 10
-1.5937784909
 20
-36.3361613035
 30
0.0
 10
-1.5931931217
 20
-36.3346110708
 30
0.0
 10
-1.5928653646
 20
-36.3329295655
 30
0.0
 10
-1.5928769014
 20
-36.3312725363
 30
0.0
 11
-1.5937784909
 21
-36.3361613035
 31
0.0
 11
-1.5928769014
 21
-36.3312725363
 31
0.0
  0
SPLINE
  5
486
100
AcDbEntity
  8
0
100
AcDbSpline
 62
7
  6
CONTINUOUS
 70
0
 71
3
 72
10
 73
6
 74
4
 42
0.0000001
 43
0.0000001
 44
0.0000000001
 12
0.0005528885
 22
-0.0443725904
 32
0.0
 13
0.0404144316
 23
-0.0183277437
 33
0.0
 40
0.0
 40
0.0
 40
0.0
 40
0.0
 40
0.1750418034
 40
0.5089123648
 40
1.0
 40
1.0
 40
1.0
 40
1.0
 10
-1.3658097678
 20
-36.3413071397
 30
0.0
 10
-1.3657775082
 20
-36.3438961592
 30
0.0
 10
-1.3637466897
 20
-36.3514483148
 30
0.0
 10
-1.3529262847
 20
-36.3623397089
 30
0.0
 10
-1.3421045445
 20
-36.3680670643
 30
0.0
 10
-1.3354888686
 20
-36.3710672404
 30
0.0
 11
-1.3658097678
 21
-36.3413071397
 31
0.0
 11
-1.3639692955
 21
-36.3488536105
 31
0.0
 11
-1.3543169928
 21
-36.3600938291
 31
0.0
 11
-1.3354888686
 21
-36.3710672404
 31
0.0
  0
LINE
  5
487
100
AcDbEntity
  8
0
100
AcDbLine
 62
253
  6
CONTINUOUS
 10
-8.9448965073
 20
-38.5185685818
 11
-9.0000000444
 21
-38.547171466
  0
SPLINE
  5
488
100
AcDbEntity
  8
0
100
AcDbSpline
 62
7
  6
CONTINUOUS
 70
0
 71
3
 72
12
 73
8
 74
6
 42
0.0000001
 43
0.0000001
 44
0.0000000001
 12
0.0015118421
 22
-0.1691528466
 32
0.0
 13
-0.1679568106
 23
-0.020136558
 33
0.0
 40
0.0
 40
0.0
 40
0.0
 40
0.0
 40
0.0987539828
 40
0.1762842702
 40
0.2800775082
 40
0.5786812276
 40
1.0
 40
1.0
 40
1.0
 40
1.0
 10
-1.5930097868
 20
-36.1293066815
 30
0.0
 10
-1.59296002
 20
-36.134874854
 30
0.0
 10
-1.5999062461
 20
-36.144092387
 30
0.0
 10
-1.6133170149
 20
-36.1519412762
 30
0.0
 10
-1.6384700941
 20
-36.1624846769
 30
0.0
 10
-1.6838267984
 20
-36.1730210149
 30
0.0
 10
-1.724024874
 20
-36.1788389702
 30
0.0
 10
-1.7476126597
 20
-36.1816669402
 30
0.0
 11
-1.5930097868
 21
-36.1293066815
 31
0.0
 11
-1.6012115967
 21
-36.1438598085
 31
0.0
 11
-1.6122095829
 21
-36.15100455
 31
0.0
 11
-1.6283310751
 21
-36.1579592326
 31
0.0
 11
-1.6771654273
 21
-36.1708680097
 31
0.0
 11
-1.7476126597
 21
-36.1816669402
 31
0.0
  0
SPLINE
  5
489
100
AcDbEntity
  8
0
100
AcDbSpline
 62
7
  6
CONTINUOUS
 70
0
 71
3
 72
9
 73
5
 74
3
 42
0.0000001
 43
0.0000001
 44
0.0000000001
 12
-0.1496310367
 22
-0.0179394574
 32
0.0
 13
-0.1504867311
 23
-0.0080631901
 33
0.0
 40
0.0
 40
0.0
 40
0.0
 40
0.0
 40
0.2303847181
 40
1.0
 40
1.0
 40
1.0
 40
1.0
 10
-1.7476126597
 20
-36.1816669402
 30
0.0
 10
-1.7591035611
 20
-36.1830445991
 30
0.0
 10
-1.8090522318
 20
-36.1884236534
 30
0.0
 10
-1.8591858878
 20
-36.1919625901
 30
0.0
 10
-1.8977915172
 20
-36.1940311082
 30
0.0
 11
-1.7476126597
 21
-36.1816669402
 31
0.0
 11
-1.7821282005
 21
-36.1854254348
 31
0.0
 11
-1.8977915172
 21
-36.1940311082
 31
0.0
  0
SPLINE
  5
48A
100
AcDbEntity
  8
0
100
AcDbSpline
 62
7
  6
CONTINUOUS
 70
0
 71
3
 72
10
 73
6
 74
4
 42
0.0000001
 43
0.0000001
 44
0.0000000001
 12
-0.0029826687
 22
-0.1046402551
 32
0.0
 13
0.1029925357
 23
-0.0187354449
 33
0.0
 40
0.0
 40
0.0
 40
0.0
 40
0.0
 40
0.2954473659
 40
0.5869129566
 40
1.0
 40
1.0
 40
1.0
 40
1.0
 10
-4.3047130081
 20
-36.3333476414
 30
0.0
 10
-4.3050067486
 20
-36.3436528706
 30
0.0
 10
-4.2823272999
 20
-36.3576245717
 30
0.0
 10
-4.2514947821
 20
-36.3678379265
 30
0.0
 10
-4.226750748
 20
-36.3733521212
 30
0.0
 10
-4.2125691206
 20
-36.3759319111
 30
0.0
 11
-4.3047130081
 21
-36.3333476414
 31
0.0
 11
-4.283334898
 21
-36.3556978697
 31
0.0
 11
-4.2547276851
 21
-36.3663079682
 31
0.0
 11
-4.2125691206
 21
-36.3759319111
 31
0.0
  0
SPLINE
  5
48B
100
AcDbEntity
  8
0
100
AcDbSpline
 62
7
  6
CONTINUOUS
 70
0
 71
3
 72
9
 73
5
 74
3
 42
0.0000001
 43
0.0000001
 44
0.0000000001
 12
0.0010407049
 22
-0.0345475442
 32
0.0
 13
0.0303070795
 23
-0.016616161
 33
0.0
 40
0.0
 40
0.0
 40
0.0
 40
0.0
 40
0.1903468516
 40
1.0
 40
1.0
 40
1.0
 40
1.0
 10
-5.7869014599
 20
-36.3445083449
 30
0.0
 10
-5.7868354283
 20
-36.3467003503
 30
0.0
 10
-5.7839612847
 20
-36.3582064105
 30
0.0
 10
-5.7730740226
 20
-36.365429272
 30
0.0
 10
-5.7648946152
 20
-36.3699137144
 30
0.0
 11
-5.7869014599
 21
-36.3445083449
 31
0.0
 11
-5.7854509292
 21
-36.3509254464
 31
0.0
 11
-5.7648946152
 21
-36.3699137144
 31
0.0
  0
SPLINE
  5
48C
100
AcDbEntity
  8
0
100
AcDbSpline
 62
7
  6
CONTINUOUS
 70
0
 71
3
 72
9
 73
5
 74
3
 42
0.0000001
 43
0.0000001
 44
0.0000000001
 12
0.061851875
 22
-0.0339109122
 32
0.0
 13
0.0687629813
 23
-0.0157244017
 33
0.0
 40
0.0
 40
0.0
 40
0.0
 40
0.0
 40
0.1908197239
 40
1.0
 40
1.0
 40
1.0
 40
1.0
 10
-5.7648946152
 20
-36.3699137144
 30
0.0
 10
-5.7609604293
 20
-36.3720706713
 30
0.0
 10
-5.7396006594
 20
-36.3820111274
 30
0.0
 10
-5.7166512032
 20
-36.3879583727
 30
0.0
 10
-5.6981039872
 20
-36.3921996646
 30
0.0
 11
-5.7648946152
 21
-36.3699137144
 31
0.0
 11
-5.7527508145
 21
-36.37571894
 31
0.0
 11
-5.6981039872
 21
-36.3921996646
 31
0.0
  0
SPLINE
  5
48D
100
AcDbEntity
  8
RACCORDO
100
AcDbSpline
 62
7
  6
CONTINUOUS
 70
0
 71
3
 72
11
 73
7
 74
5
 42
0.0000001
 43
0.0000001
 44
0.0000000001
 12
-0.1532613023
 22
-1.3576191816
 32
0.0
 13
-1.3611165443
 23
-0.1182396796
 33
0.0
 40
0.0
 40
0.0
 40
0.0
 40
0.0
 40
0.2500499364
 40
0.4999941579
 40
0.7499300841
 40
1.0
 40
1.0
 40
1.0
 40
1.0
 10
12.2936874384
 20
-56.1118950804
 30
0.0
 10
12.2809131121
 20
-56.2250526104
 30
0.0
 10
12.2157788245
 20
-56.4487819622
 30
0.0
 10
12.0111790225
 20
-56.7303902152
 30
0.0
 10
11.7240714761
 20
-56.9271368466
 30
0.0
 10
11.4987567362
 20
-56.9864318884
 30
0.0
 10
11.3852986363
 20
-56.9962879506
 30
0.0
 11
12.2936874384
 21
-56.1118950804
 31
0.0
 11
12.1979383413
 21
-56.4398316604
 31
0.0
 11
11.9974283014
 21
-56.7162504558
 31
0.0
 11
11.7156536312
 21
-56.9091414132
 31
0.0
 11
11.3852986363
 21
-56.9962879506
 31
0.0
  0
SPLINE
  5
48E
100
AcDbEntity
  8
RACCORDO
100
AcDbSpline
 62
7
  6
CONTINUOUS
 70
0
 71
3
 72
12
 73
8
 74
6
 42
0.0000001
 43
0.0000001
 44
0.0000000001
 12
-0.7115187879
 22
-0.0010429259
 32
0.0
 13
-0.0079594374
 23
0.7114750316
 33
0.0
 40
0.0
 40
0.0
 40
0.0
 40
0.0
 40
0.3670925487
 40
0.5074254622
 40
0.6626911914
 40
0.828784732
 40
1.0
 40
1.0
 40
1.0
 40
1.0
 10
8.5851655997
 20
-27.0999747455
 30
0.0
 10
8.4981011846
 20
-27.1001023622
 30
0.0
 10
8.4094142612
 20
-26.9665017337
 30
0.0
 10
8.360132341
 20
-26.8234643107
 30
0.0
 10
8.3344134357
 20
-26.7155978122
 30
0.0
 10
8.3186525328
 20
-26.6000490198
 30
0.0
 10
8.3143849572
 20
-26.5199745266
 30
0.0
 10
8.3139306981
 20
-26.4793693972
 30
0.0
 11
8.5851655997
 21
-27.0999747455
 31
0.0
 11
8.3964479903
 21
-26.9193986622
 31
0.0
 11
8.3624860435
 21
-26.825502277
 31
0.0
 11
8.3367951691
 21
-26.7180563991
 31
0.0
 11
8.3203985713
 21
-26.6010205895
 31
0.0
 11
8.3139306981
 21
-26.4793693972
 31
0.0
  0
SPLINE
  5
48F
100
AcDbEntity
  8
RACCORDO
100
AcDbSpline
 62
7
  6
CONTINUOUS
 70
0
 71
3
 72
11
 73
7
 74
5
 42
0.0000001
 43
0.0000001
 44
0.0000000001
 12
-1.3611165443
 22
0.1182396796
 32
0.0
 13
-0.1532613023
 23
1.3576191816
 33
0.0
 40
0.0
 40
0.0
 40
0.0
 40
0.0
 40
0.2500699159
 40
0.5000058421
 40
0.7499500636
 40
1.0
 40
1.0
 40
1.0
 40
1.0
 10
-11.3852986363
 20
-56.9962879506
 30
0.0
 10
-11.4987567362
 20
-56.9864318884
 30
0.0
 10
-11.7240714761
 20
-56.9271368466
 30
0.0
 10
-12.0111790225
 20
-56.7303902153
 30
0.0
 10
-12.2157788244
 20
-56.4487819622
 30
0.0
 10
-12.2809131121
 20
-56.2250526105
 30
0.0
 10
-12.2936874384
 20
-56.1118950805
 30
0.0
 11
-11.3852986363
 21
-56.9962879506
 31
0.0
 11
-11.7156536312
 21
-56.9091414132
 31
0.0
 11
-11.9974283014
 21
-56.7162504558
 31
0.0
 11
-12.1979383413
 21
-56.4398316604
 31
0.0
 11
-12.2936874384
 21
-56.1118950805
 31
0.0
  0
LINE
  5
490
100
AcDbEntity
  8
DRAFT
100
AcDbLine
 62
7
  6
CONTINUOUS
 10
5.6415074474
 20
-25.2
 11
5.6835278765
 21
-25.2577350269
  0
SPLINE
  5
491
100
AcDbEntity
  8
RACCORDO
100
AcDbSpline
 62
7
  6
CONTINUOUS
 70
0
 71
3
 72
11
 73
7
 74
5
 42
0.0000001
 43
0.0000001
 44
0.0000000001
 12
-0.1083285748
 22
-0.3301444284
 32
0.0
 13
-0.3474624647
 23
0.0005093015
 33
0.0
 40
0.0
 40
0.0
 40
0.0
 40
0.0
 40
0.3264019828
 40
0.5987951873
 40
0.8177578704
 40
1.0
 40
1.0
 40
1.0
 40
1.0
 10
-8.3703406125
 20
-26.8506870203
 30
0.0
 10
-8.382126833
 20
-26.8866069523
 30
0.0
 10
-8.4079598551
 20
-26.9513351864
 30
0.0
 10
-8.4587804739
 20
-27.0320219154
 30
0.0
 10
-8.517291207
 20
-27.0858923366
 30
0.0
 10
-8.5640581665
 20
-27.1000056842
 30
0.0
 10
-8.5851655997
 20
-27.0999747455
 30
0.0
 11
-8.3703406125
 21
-26.8506870203
 31
0.0
 11
-8.4136712062
 21
-26.9554957425
 31
0.0
 11
-8.46583337
 21
-27.0344708754
 31
0.0
 11
-8.5240304603
 21
-27.0834757465
 31
0.0
 11
-8.5851655997
 21
-27.0999747455
 31
0.0
  0
LINE
  5
492
100
AcDbEntity
  8
RACCORDO
100
AcDbLine
 62
7
  6
CONTINUOUS
 10
-6.0630946152
 20
-24.2991250342
 11
-6.0504646331
 21
-23.2257913252
  0
LINE
  5
493
100
AcDbEntity
  8
RACCORDO
100
AcDbLine
 62
7
  6
CONTINUOUS
 10
3.6864743279
 20
-25.7999997462
 11
3.6703083742
 21
-24.4999995776
  0
LINE
  5
494
100
AcDbEntity
  8
RACCORDO
100
AcDbLine
 62
7
  6
CONTINUOUS
 10
6.0748359282
 20
-25.2972873557
 11
6.0736837371
 21
-25.1993158647
  0
LINE
  5
495
100
AcDbEntity
  8
RACCORDO
100
AcDbLine
 62
7
  6
CONTINUOUS
 10
6.0736837371
 20
-25.1993158647
 11
6.0504646331
 21
-23.2257913252
  0
LINE
  5
496
100
AcDbEntity
  8
RACCORDO
100
AcDbLine
 62
7
  6
CONTINUOUS
 10
8.3139306981
 20
-26.4793693972
 11
8.2639817411
 21
-22.018191841
  0
LINE
  5
497
100
AcDbEntity
  8
RACCORDO
100
AcDbLine
 62
7
  6
CONTINUOUS
 10
4.9578300573
 20
-25.296991275
 11
4.9582785876
 21
-25.199999858
  0
LINE
  5
498
100
AcDbEntity
  8
RACCORDO
100
AcDbLine
 62
7
  6
CONTINUOUS
 10
7.2735065006
 20
-22.8285542966
 11
7.274359219
 21
-22.6179828324
  0
LINE
  5
499
100
AcDbEntity
  8
DRAFT
100
AcDbLine
 62
7
  6
CONTINUOUS
 10
7.9989213609
 20
-23.5
 11
7.9897771955
 21
-22.1949960002
  0
SPLINE
  5
49A
100
AcDbEntity
  8
RACCORDO
100
AcDbSpline
 62
253
  6
CONTINUOUS
 70
0
 71
3
 72
11
 73
7
 74
5
 42
0.0000001
 43
0.0000001
 44
0.0000000001
 12
1.4065380986
 22
0.0
 32
0.0
 13
0.0637721474
 23
-1.4050916468
 33
0.0
 40
0.0
 40
0.0
 40
0.0
 40
0.0
 40
0.2337298212
 40
0.4770293875
 40
0.7336347845
 40
1.0
 40
1.0
 40
1.0
 40
1.0
 10
12.9885403708
 20
-12.5
 30
0.0
 10
13.0981236702
 20
-12.5
 30
0.0
 10
13.324479743
 20
-12.5512188587
 30
0.0
 10
13.6056460692
 20
-12.7645719214
 30
0.0
 10
13.7964408682
 20
-13.0777074219
 30
0.0
 10
13.8477166896
 20
-13.3229081973
 30
0.0
 10
13.8533789169
 20
-13.4476640438
 30
0.0
 11
12.9885403708
 21
-12.5
 31
0.0
 11
13.3094875662
 21
-12.571199673
 31
0.0
 11
13.5846486733
 21
-12.7746551326
 31
0.0
 11
13.7750056168
 21
-13.081300339
 31
0.0
 11
13.8533789169
 21
-13.4476640438
 31
0.0
  0
SPLINE
  5
49B
100
AcDbEntity
  8
RACCORDO
100
AcDbSpline
 62
253
  6
CONTINUOUS
 70
0
 71
3
 72
11
 73
7
 74
5
 42
0.0000001
 43
0.0000001
 44
0.0000000001
 12
1.4065380986
 22
0.0
 32
0.0
 13
0.0637721472
 23
-1.4050916469
 33
0.0
 40
0.0
 40
0.0
 40
0.0
 40
0.0
 40
0.2337298205
 40
0.4770293865
 40
0.7336347839
 40
1.0
 40
1.0
 40
1.0
 40
1.0
 10
15.5664168014
 20
-12.5
 30
0.0
 10
15.6760001005
 20
-12.5
 30
0.0
 10
15.9023561728
 20
-12.5512188584
 30
0.0
 10
16.1835224991
 20
-12.7645719205
 30
0.0
 10
16.3743172986
 20
-13.0777074212
 30
0.0
 10
16.4255931202
 20
-13.322908197
 30
0.0
 10
16.4312553474
 20
-13.4476640438
 30
0.0
 11
15.5664168014
 21
-12.5
 31
0.0
 11
15.8873639958
 21
-12.5711996726
 31
0.0
 11
16.162525103
 21
-12.7746551316
 31
0.0
 11
16.352882047
 21
-13.0813003381
 31
0.0
 11
16.4312553474
 21
-13.4476640438
 31
0.0
  0
SPLINE
  5
49C
100
AcDbEntity
  8
RACCORDO
100
AcDbSpline
 62
253
  6
CONTINUOUS
 70
0
 71
3
 72
11
 73
7
 74
5
 42
0.0000001
 43
0.0000001
 44
0.0000000001
 12
-1.4065380986
 22
-0.0
 32
0.0
 13
-0.0637721474
 23
-1.4050916468
 33
0.0
 40
0.0
 40
0.0
 40
0.0
 40
0.0
 40
0.2337298212
 40
0.4770293875
 40
0.7336347845
 40
1.0
 40
1.0
 40
1.0
 40
1.0
 10
-15.5664168014
 20
-12.5
 30
0.0
 10
-15.6760001008
 20
-12.5
 30
0.0
 10
-15.9023561736
 20
-12.5512188587
 30
0.0
 10
-16.1835224998
 20
-12.7645719214
 30
0.0
 10
-16.3743172988
 20
-13.0777074219
 30
0.0
 10
-16.4255931202
 20
-13.3229081973
 30
0.0
 10
-16.4312553474
 20
-13.4476640438
 30
0.0
 11
-15.5664168014
 21
-12.5
 31
0.0
 11
-15.8873639967
 21
-12.571199673
 31
0.0
 11
-16.1625251039
 21
-12.7746551326
 31
0.0
 11
-16.3528820473
 21
-13.081300339
 31
0.0
 11
-16.4312553474
 21
-13.4476640438
 31
0.0
  0
SPLINE
  5
49D
100
AcDbEntity
  8
RACCORDO
100
AcDbSpline
 62
253
  6
CONTINUOUS
 70
0
 71
3
 72
11
 73
7
 74
5
 42
0.0000001
 43
0.0000001
 44
0.0000000001
 12
-1.4065380987
 22
0.0
 32
0.0
 13
-0.0637721475
 23
-1.4050916469
 33
0.0
 40
0.0
 40
0.0
 40
0.0
 40
0.0
 40
0.2337298264
 40
0.4770293939
 40
0.733634789
 40
1.0
 40
1.0
 40
1.0
 40
1.0
 10
-12.9885403708
 20
-12.5
 30
0.0
 10
-13.0981236727
 20
-12.5
 30
0.0
 10
-13.3244797487
 20
-12.5512188602
 30
0.0
 10
-13.6056460744
 20
-12.7645719274
 30
0.0
 10
-13.7964408696
 20
-13.0777074271
 30
0.0
 10
-13.8477166898
 20
-13.3229081994
 30
0.0
 10
-13.853378917
 20
-13.4476640438
 30
0.0
 11
-12.9885403708
 21
-12.5
 31
0.0
 11
-13.309487573
 21
-12.571199676
 31
0.0
 11
-13.5846486795
 21
-12.7746551393
 31
0.0
 11
-13.7750056192
 21
-13.081300345
 31
0.0
 11
-13.853378917
 21
-13.4476640438
 31
0.0
  0
SPLINE
  5
49E
100
AcDbEntity
  8
RACCORDO
100
AcDbSpline
 62
7
  6
CONTINUOUS
 70
0
 71
3
 72
11
 73
7
 74
5
 42
0.0000001
 43
0.0000001
 44
0.0000000001
 12
1.088445694
 22
0.460049264
 32
0.0
 13
0.0617596461
 23
1.1800614815
 33
0.0
 40
0.0
 40
0.0
 40
0.0
 40
0.0
 40
0.2828012288
 40
0.5382226548
 40
0.774492569
 40
1.0
 40
1.0
 40
1.0
 40
1.0
 10
11.1222740008
 20
-56.9181625628
 30
0.0
 10
11.2248785941
 20
-56.8747950637
 30
0.0
 10
11.4082342421
 20
-56.7602756848
 30
0.0
 10
11.6111979269
 20
-56.5274941882
 30
0.0
 10
11.7346857508
 20
-56.2698833888
 30
0.0
 10
11.7685369762
 20
-56.088704211
 30
0.0
 10
11.7731793959
 20
-56.0
 30
0.0
 11
11.1222740008
 21
-56.9181625628
 31
0.0
 11
11.4058809436
 21
-56.7414054278
 31
0.0
 11
11.6042911131
 21
-56.5139586531
 31
0.0
 11
11.7245860897
 21
-56.2620087644
 31
0.0
 11
11.7731793959
 21
-56.0
 31
0.0
  0
SPLINE
  5
49F
100
AcDbEntity
  8
RACCORDO
100
AcDbSpline
 62
7
  6
CONTINUOUS
 70
0
 71
3
 72
11
 73
7
 74
5
 42
0.0000001
 43
0.0000001
 44
0.0000000001
 12
-1.088445694
 22
0.460049264
 32
0.0
 13
-0.0617596461
 23
1.1800614815
 33
0.0
 40
0.0
 40
0.0
 40
0.0
 40
0.0
 40
0.2828012288
 40
0.5382226548
 40
0.774492569
 40
1.0
 40
1.0
 40
1.0
 40
1.0
 10
-11.1222740008
 20
-56.9181625628
 30
0.0
 10
-11.2248785941
 20
-56.8747950637
 30
0.0
 10
-11.4082342421
 20
-56.7602756848
 30
0.0
 10
-11.6111979269
 20
-56.5274941882
 30
0.0
 10
-11.7346857508
 20
-56.2698833888
 30
0.0
 10
-11.7685369762
 20
-56.088704211
 30
0.0
 10
-11.7731793959
 20
-56.0
 30
0.0
 11
-11.1222740008
 21
-56.9181625628
 31
0.0
 11
-11.4058809436
 21
-56.7414054278
 31
0.0
 11
-11.6042911131
 21
-56.5139586531
 31
0.0
 11
-11.7245860897
 21
-56.2620087644
 31
0.0
 11
-11.7731793959
 21
-56.0
 31
0.0
  0
SPLINE
  5
4A0
100
AcDbEntity
  8
DRAFT
100
AcDbSpline
 62
7
  6
CONTINUOUS
 70
0
 71
3
 72
9
 73
5
 74
3
 42
0.0000001
 43
0.0000001
 44
0.0000000001
 12
0.4217805752
 22
-0.6204133501
 32
0.0
 13
0.1612262186
 23
-0.7326784322
 33
0.0
 40
0.0
 40
0.0
 40
0.0
 40
0.0
 40
0.2671646256
 40
1.0
 40
1.0
 40
1.0
 40
1.0
 10
3.9267316966
 20
-18.5805891065
 30
0.0
 10
3.9642933131
 20
-18.6358399399
 30
0.0
 10
4.0967146596
 20
-18.847827227
 30
0.0
 10
4.1941688222
 20
-19.083546063
 30
0.0
 10
4.2335529143
 20
-19.2625236207
 30
0.0
 11
3.9267316966
 21
-18.5805891065
 31
0.0
 11
4.0325540615
 21
-18.7508048336
 31
0.0
 11
4.2335529143
 21
-19.2625236207
 31
0.0
  0
SPLINE
  5
4A1
100
AcDbEntity
  8
DRAFT
100
AcDbSpline
 62
7
  6
CONTINUOUS
 70
0
 71
3
 72
9
 73
5
 74
3
 42
0.0000001
 43
0.0000001
 44
0.0000000001
 12
0.1572286645
 22
0.7145118977
 32
0.0
 13
0.406811979
 23
0.6080724617
 33
0.0
 40
0.0
 40
0.0
 40
0.0
 40
0.0
 40
0.2355718563
 40
1.0
 40
1.0
 40
1.0
 40
1.0
 10
-4.2335529143
 20
-19.2625236207
 30
0.0
 10
-4.2212066982
 20
-19.2064173227
 30
0.0
 10
-4.1556170864
 20
-18.9711436976
 30
0.0
 10
-4.0409753615
 20
-18.7512252826
 30
0.0
 10
-3.9373158529
 20
-18.5962827149
 30
0.0
 11
-4.2335529143
 21
-19.2625236207
 31
0.0
 11
-4.1875824621
 21
-19.0964217571
 31
0.0
 11
-3.9373158529
 21
-18.5962827149
 31
0.0
  0
SPLINE
  5
4A2
100
AcDbEntity
  8
RACCORDO
100
AcDbSpline
 62
7
  6
CONTINUOUS
 70
0
 71
3
 72
20
 73
16
 74
14
 42
0.0000001
 43
0.0000001
 44
0.0000000001
 12
-0.2272067832
 22
4.3883959878
 32
0.0
 13
4.3899273946
 23
0.195396363
 33
0.0
 40
0.0
 40
0.0
 40
0.0
 40
0.0
 40
0.0087765239
 40
0.0151204366
 40
0.0231677806
 40
0.044805029
 40
0.074150284
 40
0.1113124733
 40
0.1562609585
 40
0.2089135008
 40
0.2691582347
 40
0.4117215309
 40
0.582389602
 40
0.7792999835
 40
1.0
 40
1.0
 40
1.0
 40
1.0
 10
-12.2820252206
 20
-4.7325262399
 30
0.0
 10
-12.2826899158
 20
-4.7196879525
 30
0.0
 10
-12.2692795031
 20
-4.6981636254
 30
0.0
 10
-12.242356954
 20
-4.6782598751
 30
0.0
 10
-12.1958497125
 20
-4.6525616754
 30
0.0
 10
-12.1143277476
 20
-4.6231357528
 30
0.0
 10
-11.9895468091
 20
-4.5896887765
 30
0.0
 10
-11.8296167062
 20
-4.5565742325
 30
0.0
 10
-11.6349615886
 20
-4.5236448824
 30
0.0
 10
-11.406019647
 20
-4.491208555
 30
0.0
 10
-11.0345286811
 20
-4.4462139709
 30
0.0
 10
-10.489935162
 20
-4.3936615813
 30
0.0
 10
-9.7448267699
 20
-4.336956875
 30
0.0
 10
-8.8847077166
 20
-4.2845760409
 30
0.0
 10
-8.2737338732
 20
-4.2545618415
 30
0.0
 10
-7.9507815237
 20
-4.2401871814
 30
0.0
 11
-12.2820252206
 21
-4.7325262399
 31
0.0
 11
-12.2657202585
 21
-4.6975760011
 31
0.0
 11
-12.2439763318
 21
-4.6801311561
 31
0.0
 11
-12.2131954379
 21
-4.6627235692
 31
0.0
 11
-12.1246549285
 21
-4.6280712461
 31
0.0
 11
-12.0003631125
 21
-4.5937211837
 31
0.0
 11
-11.8406295295
 21
-4.5597749721
 31
0.0
 11
-11.6459654652
 21
-4.5263316929
 31
0.0
 11
-11.4169385288
 21
-4.4934897271
 31
0.0
 11
-11.1541652771
 21
-4.4613467071
 31
0.0
 11
-10.5307600861
 21
-4.3995340604
 31
0.0
 11
-9.7830368551
 21
-4.3416261816
 31
0.0
 11
-8.9194042201
 21
-4.2882884287
 31
0.0
 11
-7.9507815237
 21
-4.2401871814
 31
0.0
  0
SPLINE
  5
4A3
100
AcDbEntity
  8
RACCORDO
100
AcDbSpline
 62
253
  6
CONTINUOUS
 70
0
 71
3
 72
20
 73
16
 74
14
 42
0.0000001
 43
0.0000001
 44
0.0000000001
 12
6.4287575022
 22
6.426486265
 32
0.0
 13
9.0865403775
 23
0.2518585026
 33
0.0
 40
0.0
 40
0.0
 40
0.0
 40
0.0
 40
0.0051899061
 40
0.0120161141
 40
0.0309747776
 40
0.0572563696
 40
0.0908945818
 40
0.1318250088
 40
0.1799084597
 40
0.2349774658
 40
0.2968142138
 40
0.4397920656
 40
0.6065122235
 40
0.7943066314
 40
1.0
 40
1.0
 40
1.0
 40
1.0
 10
-16.9827570796
 20
-4.9813866144
 30
0.0
 10
-16.9716355303
 20
-4.9702689943
 30
0.0
 10
-16.9416943703
 20
-4.9488691496
 30
0.0
 10
-16.8575626721
 20
-4.90702137
 30
0.0
 10
-16.706678736
 20
-4.8586546733
 30
0.0
 10
-16.473957672
 20
-4.8043985736
 30
0.0
 10
-16.172990872
 20
-4.7505892322
 30
0.0
 10
-15.8051584692
 20
-4.6974219006
 30
0.0
 10
-15.3716586783
 20
-4.645372622
 30
0.0
 10
-14.8742940827
 20
-4.5947277646
 30
0.0
 10
-14.0898216583
 20
-4.5260657201
 30
0.0
 10
-12.9667191166
 20
-4.4476992491
 30
0.0
 10
-11.461471025
 20
-4.3663149318
 30
0.0
 10
-9.765481843
 20
-4.2954068822
 30
0.0
 10
-8.5737952234
 20
-4.2574557226
 30
0.0
 10
-7.9507815237
 20
-4.2401871814
 30
0.0
 11
-16.9827570796
 21
-4.9813866144
 31
0.0
 11
-16.9452686487
 21
-4.9527469466
 31
0.0
 11
-16.8901875735
 21
-4.9241754251
 31
0.0
 11
-16.7274830952
 21
-4.8673727471
 31
0.0
 11
-16.4952714552
 21
-4.8112373203
 31
0.0
 11
-16.1945299951
 21
-4.7559986322
 31
0.0
 11
-15.8264278811
 21
-4.7018821181
 31
0.0
 11
-15.3925450034
 21
-4.6491128841
 31
0.0
 11
-14.8945912244
 21
-4.5979142822
 31
0.0
 11
-14.3346697154
 21
-4.548498097
 31
0.0
 11
-13.0383044769
 21
-4.4558317853
 31
0.0
 11
-11.5250969576
 21
-4.3726645629
 31
0.0
 11
-9.8195715533
 21
-4.3003725427
 31
0.0
 11
-7.9507815237
 21
-4.2401871814
 31
0.0
  0
SPLINE
  5
4A4
100
AcDbEntity
  8
RACCORDO
100
AcDbSpline
 62
7
  6
CONTINUOUS
 70
0
 71
3
 72
20
 73
16
 74
14
 42
0.0000001
 43
0.0000001
 44
0.0000000001
 12
4.3899275553
 22
-0.1953963735
 32
0.0
 13
-0.2272061037
 23
-4.3883961843
 33
0.0
 40
0.0
 40
0.0
 40
0.0
 40
0.0
 40
0.2207000139
 40
0.4176103946
 40
0.5882784644
 40
0.7308417607
 40
0.7910864948
 40
0.8437390376
 40
0.8886875234
 40
0.9258497133
 40
0.955194969
 40
0.9768322184
 40
0.9848795628
 40
0.9912234758
 40
1.0
 40
1.0
 40
1.0
 40
1.0
 10
7.9507813579
 20
-4.2401871743
 30
0.0
 10
8.2737337153
 20
-4.2545618351
 30
0.0
 10
8.8847075764
 20
-4.2845760339
 30
0.0
 10
9.7448266546
 20
-4.3369568665
 30
0.0
 10
10.4899350712
 20
-4.3936615737
 30
0.0
 10
11.034528609
 20
-4.4462139632
 30
0.0
 10
11.4060195898
 20
-4.4912085475
 30
0.0
 10
11.6349615418
 20
-4.5236448752
 30
0.0
 10
11.8296166691
 20
-4.5565742254
 30
0.0
 10
11.9895467809
 20
-4.5896887699
 30
0.0
 10
12.1143277277
 20
-4.6231357467
 30
0.0
 10
12.195849699
 20
-4.6525616696
 30
0.0
 10
12.2423569454
 20
-4.6782598693
 30
0.0
 10
12.2692794976
 20
-4.69816362
 30
0.0
 10
12.2826899139
 20
-4.7196879465
 30
0.0
 10
12.2820252206
 20
-4.7325262349
 30
0.0
 11
7.9507813579
 21
-4.2401871743
 31
0.0
 11
8.9194040782
 21
-4.2882884214
 31
0.0
 11
9.783036742
 21
-4.3416261735
 31
0.0
 11
10.5307599949
 21
-4.3995340524
 31
0.0
 11
11.1541652093
 21
-4.4613466994
 31
0.0
 11
11.4169384718
 21
-4.4934897195
 31
0.0
 11
11.6459654184
 21
-4.5263316856
 31
0.0
 11
11.8406294929
 21
-4.5597749651
 31
0.0
 11
12.0003630845
 21
-4.593721177
 31
0.0
 11
12.1246549087
 21
-4.6280712398
 31
0.0
 11
12.2131954261
 21
-4.6627235633
 31
0.0
 11
12.2439763235
 21
-4.6801311504
 31
0.0
 11
12.265720253
 21
-4.6975759956
 31
0.0
 11
12.2820252206
 21
-4.7325262349
 31
0.0
  0
SPLINE
  5
4A5
100
AcDbEntity
  8
RACCORDO
100
AcDbSpline
 62
253
  6
CONTINUOUS
 70
0
 71
3
 72
20
 73
16
 74
14
 42
0.0000001
 43
0.0000001
 44
0.0000000001
 12
9.0865404798
 22
-0.2518575799
 32
0.0
 13
6.4288585968
 23
-6.4263852416
 33
0.0
 40
0.0
 40
0.0
 40
0.0
 40
0.0
 40
0.2056933292
 40
0.3934875796
 40
0.5602077195
 40
0.7031855514
 40
0.7650223235
 40
0.8200913379
 40
0.8681748167
 40
0.9091052879
 40
0.9427435542
 40
0.9690251914
 40
0.9879838271
 40
0.9948100434
 40
1.0
 40
1.0
 40
1.0
 40
1.0
 10
7.9507813579
 20
-4.2401871743
 30
0.0
 10
8.5737949454
 20
-4.257455649
 30
0.0
 10
9.7654809783
 20
-4.2954068287
 30
0.0
 10
11.4614695214
 20
-4.3663148931
 30
0.0
 10
12.9667170383
 20
-4.4476991082
 30
0.0
 10
14.0898195459
 20
-4.5260655972
 30
0.0
 10
14.8742920211
 20
-4.5947275713
 30
0.0
 10
15.3716568031
 20
-4.64537245
 30
0.0
 10
15.8051568406
 20
-4.6974217383
 30
0.0
 10
16.1729896368
 20
-4.7505890637
 30
0.0
 10
16.4739568644
 20
-4.8043984541
 30
0.0
 10
16.7066781946
 20
-4.8586544382
 30
0.0
 10
16.8575621312
 20
-4.9070213621
 30
0.0
 10
16.941693897
 20
-4.9488692508
 30
0.0
 10
16.9716352474
 20
-4.970269061
 30
0.0
 10
16.9827570796
 20
-4.9813866144
 30
0.0
 11
7.9507813579
 21
-4.2401871743
 31
0.0
 11
9.8195710466
 21
-4.3003725001
 31
0.0
 11
11.5250950337
 21
-4.3726644823
 31
0.0
 11
13.0383024038
 21
-4.4558316587
 31
0.0
 11
14.3346674745
 21
-4.5484979339
 31
0.0
 11
14.8945892104
 21
-4.5979141018
 31
0.0
 11
15.3925430692
 21
-4.6491127017
 31
0.0
 11
15.826426206
 21
-4.7018819403
 31
0.0
 11
16.1945287282
 21
-4.7559984627
 31
0.0
 11
16.4952706862
 21
-4.8112371737
 31
0.0
 11
16.7274827397
 21
-4.8673726497
 31
0.0
 11
16.8901869286
 21
-4.924175394
 31
0.0
 11
16.9452680785
 21
-4.952746937
 31
0.0
 11
16.9827570796
 21
-4.9813866144
 31
0.0
  0
SPLINE
  5
4A6
100
AcDbEntity
  8
RACCORDO
100
AcDbSpline
 62
253
  6
CONTINUOUS
 70
0
 71
3
 72
39
 73
35
 74
33
 42
0.0000001
 43
0.0000001
 44
0.0000000001
 12
-24.1048581993
 22
-24.0961051694
 32
0.0
 13
-24.105014892
 23
24.0959484187
 33
0.0
 40
0.0
 40
0.0
 40
0.0
 40
0.0
 40
0.0021805742
 40
0.0053416832
 40
0.0095445483
 40
0.0148075025
 40
0.0211321453
 40
0.0285136371
 40
0.0463943737
 40
0.0683161671
 40
0.0940937529
 40
0.1235063785
 40
0.1562938143
 40
0.1921664176
 40
0.2308052222
 40
0.3149756819
 40
0.4057940565
 40
0.5000001081
 40
0.5942061568
 40
0.6850245203
 40
0.7691949605
 40
0.8078337588
 40
0.843706341
 40
0.8764937687
 40
0.9059063702
 40
0.931683935
 40
0.9536057089
 40
0.9714864187
 40
0.9788679032
 40
0.985192533
 40
0.9904554703
 40
0.9946583227
 40
0.9978194224
 40
1.0
 40
1.0
 40
1.0
 40
1.0
 10
16.9827570796
 20
55.9813866144
 30
0.0
 10
16.9652362689
 20
55.9638721659
 30
0.0
 10
16.9123864204
 20
55.9317938173
 30
0.0
 10
16.8118089803
 20
55.8916078398
 30
0.0
 10
16.6739000119
 20
55.8511104269
 30
0.0
 10
16.4991063793
 20
55.8107031007
 30
0.0
 10
16.2873155602
 20
55.7705182973
 30
0.0
 10
15.932929773
 20
55.7138505497
 30
0.0
 10
15.4009128737
 20
55.647056889
 30
0.0
 10
14.6594329807
 20
55.573687057
 30
0.0
 10
13.7860928982
 20
55.5039486185
 30
0.0
 10
12.7886893052
 20
55.4385613215
 30
0.0
 10
11.6760929658
 20
55.37823094
 30
0.0
 10
10.4582746562
 20
55.3235527661
 30
0.0
 10
8.6566907184
 20
55.2570196409
 30
0.0
 10
6.2304194842
 20
55.1931544976
 30
0.0
 10
3.1723697528
 20
55.1470843838
 30
0.0
 10
-0.0000036482
 20
55.1315350064
 30
0.0
 10
-3.1723769231
 20
55.1470844407
 30
0.0
 10
-6.230426273
 20
55.1931546126
 30
0.0
 10
-8.6566970848
 20
55.2570198545
 30
0.0
 10
-10.4582804908
 20
55.3235529601
 30
0.0
 10
-11.6760983923
 20
55.3782312303
 30
0.0
 10
-12.7886941293
 20
55.4385615566
 30
0.0
 10
-13.7860971121
 20
55.5039489153
 30
0.0
 10
-14.6594364574
 20
55.5736873538
 30
0.0
 10
-15.4009155893
 20
55.6470571192
 30
0.0
 10
-15.9329318697
 20
55.713850819
 30
0.0
 10
-16.2873171264
 20
55.7705184921
 30
0.0
 10
-16.4991075223
 20
55.8107032573
 30
0.0
 10
-16.673900663
 20
55.8511105803
 30
0.0
 10
-16.8118091824
 20
55.8916079032
 30
0.0
 10
-16.912386425
 20
55.9317939015
 30
0.0
 10
-16.9652361274
 20
55.9638722522
 30
0.0
 10
-16.9827570796
 20
55.9813866144
 30
0.0
 11
16.9827570796
 21
55.9813866144
 31
0.0
 11
16.9215145873
 21
55.9392799693
 31
0.0
 11
16.822265429
 21
55.8973552178
 31
0.0
 11
16.6852023827
 21
55.8557200758
 31
0.0
 11
16.5106305845
 21
55.8144729721
 31
0.0
 11
16.2989567068
 21
55.7737039422
 31
0.0
 11
16.0506043195
 21
55.7335027036
 31
0.0
 11
15.4462273296
 21
55.6551616434
 31
0.0
 11
14.7028356628
 21
55.5801609311
 31
0.0
 11
13.8271245853
 21
55.5091763251
 31
0.0
 11
12.8268438541
 21
55.4428507639
 31
0.0
 11
11.7110120745
 21
55.3817817657
 31
0.0
 11
10.4896073522
 21
55.3265219332
 31
0.0
 11
9.1735821341
 21
55.2775732653
 31
0.0
 11
6.3058215568
 21
55.2003166982
 31
0.0
 11
3.2108027004
 21
55.1528108274
 31
0.0
 11
-0.0000036822
 21
55.1367810245
 31
0.0
 11
-3.2108099623
 21
55.152810887
 31
0.0
 11
-6.3058284403
 21
55.2003168288
 31
0.0
 11
-9.1735883521
 21
55.277573467
 31
0.0
 11
-10.4896133523
 21
55.3265221547
 31
0.0
 11
-11.7110173551
 21
55.3817820269
 31
0.0
 11
-12.8268488584
 21
55.442851032
 31
0.0
 11
-13.8271287651
 21
55.5091766156
 31
0.0
 11
-14.7028391212
 21
55.5801612183
 31
0.0
 11
-15.4462301258
 21
55.655161908
 31
0.0
 11
-16.0506061969
 21
55.7335029361
 31
0.0
 11
-16.2989583359
 21
55.7737041542
 31
0.0
 11
-16.5106317678
 21
55.8144731525
 31
0.0
 11
-16.6852029862
 21
55.8557202079
 31
0.0
 11
-16.8222655989
 21
55.8973552841
 31
0.0
 11
-16.9215144325
 21
55.9392799876
 31
0.0
 11
-16.9827570796
 21
55.9813866144
 31
0.0
  0
SPLINE
  5
4A7
100
AcDbEntity
  8
RACCORDO
100
AcDbSpline
 62
253
  6
CONTINUOUS
 70
0
 71
3
 72
9
 73
5
 74
3
 42
0.0000001
 43
0.0000001
 44
0.0000000001
 12
8.3059685051
 22
-0.045074143
 32
0.0
 13
8.3011925248
 23
-0.2852142225
 33
0.0
 40
0.0
 40
0.0
 40
0.0
 40
0.0
 40
0.5233795719
 40
1.0
 40
1.0
 40
1.0
 40
1.0
 10
1.9628638486
 20
-3.1434783196
 30
0.0
 10
3.4119219289
 20
-3.1513419482
 30
0.0
 10
6.1805138579
 20
-3.1829501065
 30
0.0
 10
8.9484847528
 20
-3.2519326925
 30
0.0
 10
10.2673240643
 20
-3.2972456675
 30
0.0
 11
1.9628638486
 21
-3.1434783196
 31
0.0
 11
6.3098007288
 21
-3.194665911
 31
0.0
 11
10.2673240643
 21
-3.2972456675
 31
0.0
  0
LINE
  5
4A8
100
AcDbEntity
  8
RACCORDO
100
AcDbLine
 62
253
  6
CONTINUOUS
 10
10.2673240643
 20
-3.2972456675
 11
10.4193821487
 21
-3.3025278218
  0
SPLINE
  5
4A9
100
AcDbEntity
  8
RACCORDO
100
AcDbSpline
 62
253
  6
CONTINUOUS
 70
0
 71
3
 72
19
 73
15
 74
13
 42
0.0000001
 43
0.0000001
 44
0.0000000001
 12
7.6114515597
 22
-0.2673140761
 32
0.0
 13
5.5374793272
 23
-5.2289553796
 33
0.0
 40
0.0
 40
0.0
 40
0.0
 40
0.0
 40
0.2083822609
 40
0.3967989286
 40
0.5628871159
 40
0.7045868018
 40
0.8201689421
 40
0.8677286613
 40
0.9082920688
 40
0.9417645547
 40
0.9681165377
 40
0.9874054484
 40
0.9944945354
 40
1.0
 40
1.0
 40
1.0
 40
1.0
 10
10.4193821487
 20
-3.3025278218
 30
0.0
 10
10.9480793102
 20
-3.321095659
 30
0.0
 10
11.9546862896
 20
-3.3604394264
 30
0.0
 10
13.3820111549
 20
-3.4303316748
 30
0.0
 10
14.6394239432
 20
-3.507322325
 30
0.0
 10
15.7110746437
 20
-3.5903463718
 30
0.0
 10
16.4812742326
 20
-3.6672794523
 30
0.0
 10
16.9942217926
 20
-3.7334395364
 30
0.0
 10
17.2993280731
 20
-3.7805238252
 30
0.0
 10
17.5498533965
 20
-3.8279946029
 30
0.0
 10
17.7449432354
 20
-3.8757099289
 30
0.0
 10
17.8724525547
 20
-3.9181792254
 30
0.0
 10
17.944851364
 20
-3.9546022569
 30
0.0
 10
17.9712244823
 20
-3.9731611368
 30
0.0
 10
17.9813866144
 20
-3.9827570796
 30
0.0
 11
10.4193821487
 21
-3.3025278218
 31
0.0
 11
12.005215282
 21
-3.3651565046
 31
0.0
 11
13.4384637331
 21
-3.4362077137
 31
0.0
 11
14.7009729478
 21
-3.5147759754
 31
0.0
 11
15.7768190123
 21
-3.5998593593
 31
0.0
 11
16.6524431596
 21
-3.6903759897
 31
0.0
 11
17.0116107049
 21
-3.7373144406
 31
0.0
 11
17.3168179532
 21
-3.7851731522
 31
0.0
 11
17.5670683859
 21
-3.833801097
 31
0.0
 11
17.7616332114
 21
-3.8830476195
 31
0.0
 11
17.8998742188
 21
-3.932758052
 31
0.0
 11
17.9477421842
 21
-3.9577328562
 31
0.0
 11
17.9813866144
 21
-3.9827570796
 31
0.0
  0
SPLINE
  5
4AA
100
AcDbEntity
  8
RACCORDO
100
AcDbSpline
 62
7
  6
CONTINUOUS
 70
0
 71
3
 72
11
 73
7
 74
5
 42
0.0000001
 43
0.0000001
 44
0.0000000001
 12
-1.6058432152
 22
-1.5464346124
 32
0.0
 13
-2.2293928416
 23
0.0000114808
 33
0.0
 40
0.0
 40
0.0
 40
0.0
 40
0.0
 40
0.2497400967
 40
0.4997195746
 40
0.749840209
 40
1.0
 40
1.0
 40
1.0
 40
1.0
 10
1.9628638486
 20
-3.1434783196
 30
0.0
 10
1.829182702
 20
-3.2722138961
 30
0.0
 10
1.5479557206
 20
-3.5162034655
 30
0.0
 10
1.07922699
 20
-3.8218662083
 30
0.0
 10
0.5593367548
 20
-4.0347484288
 30
0.0
 10
0.185906342
 20
-4.0871175862
 30
0.0
 10
0.0000048596
 20
-4.0871166289
 30
0.0
 11
1.9628638486
 21
-3.1434783196
 31
0.0
 11
1.5403103627
 21
-3.5060249098
 31
0.0
 11
1.0708380639
 21
-3.8063277422
 31
0.0
 11
0.5526742683
 21
-4.012345142
 31
0.0
 11
0.0000048596
 21
-4.0871166289
 31
0.0
  0
SPLINE
  5
4AB
100
AcDbEntity
  8
RACCORDO
100
AcDbSpline
 62
7
  6
CONTINUOUS
 70
0
 71
3
 72
11
 73
7
 74
5
 42
0.0000001
 43
0.0000001
 44
0.0000000001
 12
-2.2293979361
 22
0.0000114808
 32
0.0
 13
-1.60584896
 23
1.5464359913
 33
0.0
 40
0.0
 40
0.0
 40
0.0
 40
0.0
 40
0.2501838281
 40
0.5002759532
 40
0.7502561518
 40
1.0
 40
1.0
 40
1.0
 40
1.0
 10
0.0000048596
 20
-4.0871166289
 30
0.0
 10
-0.1859149104
 20
-4.0871156715
 30
0.0
 10
-0.5593466353
 20
-4.0347595592
 30
0.0
 10
-1.0792232009
 20
-3.8218508785
 30
0.0
 10
-1.5479537674
 20
-3.5162226346
 30
0.0
 10
-1.8291728359
 20
-3.2722158875
 30
0.0
 10
-1.9628564688
 20
-3.1434782623
 30
0.0
 11
0.0000048596
 21
-4.0871166289
 31
0.0
 11
-0.5527190176
 21
-4.0123385336
 31
0.0
 11
-1.0708201395
 21
-3.8063320827
 31
0.0
 11
-1.5403011229
 21
-3.5060374829
 31
0.0
 11
-1.9628564688
 21
-3.1434782623
 31
0.0
  0
SPLINE
  5
4AC
100
AcDbEntity
  8
RACCORDO
100
AcDbSpline
 62
253
  6
CONTINUOUS
 70
0
 71
3
 72
19
 73
15
 74
13
 42
0.0000001
 43
0.0000001
 44
0.0000000001
 12
5.5374537046
 22
5.2290080039
 32
0.0
 13
7.6114690705
 23
0.2673140945
 33
0.0
 40
0.0
 40
0.0
 40
0.0
 40
0.0
 40
0.0055054314
 40
0.0125945066
 40
0.0318834254
 40
0.0582353797
 40
0.091707826
 40
0.1322712063
 40
0.1798308892
 40
0.2954130105
 40
0.4371127146
 40
0.6032009403
 40
0.7916176595
 40
1.0
 40
1.0
 40
1.0
 40
1.0
 10
-17.9813866144
 20
-3.9827570796
 30
0.0
 10
-17.9712245905
 20
-3.973161098
 30
0.0
 10
-17.94485153
 20
-3.9546021789
 30
0.0
 10
-17.8724526278
 20
-3.918179133
 30
0.0
 10
-17.7449430391
 20
-3.8757099148
 30
0.0
 10
-17.5498529129
 20
-3.8279944972
 30
0.0
 10
-17.2993272436
 20
-3.7805236809
 30
0.0
 10
-16.9942205166
 20
-3.7334393603
 30
0.0
 10
-16.4812719818
 20
-3.6672791761
 30
0.0
 10
-15.7110707061
 20
-3.5903460362
 30
0.0
 10
-14.6394174406
 20
-3.5073218913
 30
0.0
 10
-13.3820014819
 20
-3.4303311664
 30
0.0
 10
-11.954672902
 20
-3.3604388359
 30
0.0
 10
-10.9480632728
 20
-3.321095065
 30
0.0
 10
-10.419364693
 20
-3.3025272195
 30
0.0
 11
-17.9813866144
 21
-3.9827570796
 31
0.0
 11
-17.9477423968
 21
-3.9577328321
 31
0.0
 11
-17.8998744035
 21
-3.9327580071
 31
0.0
 11
-17.7616329809
 21
-3.8830475496
 31
0.0
 11
-17.5670679116
 21
-3.8338010038
 31
0.0
 11
-17.3168171966
 21
-3.7851730215
 31
0.0
 11
-17.0116094463
 21
-3.7373142637
 31
0.0
 11
-16.6524413475
 21
-3.6903757658
 31
0.0
 11
-15.776815321
 21
-3.5998590386
 31
0.0
 11
-14.7009666385
 21
-3.5147755575
 31
0.0
 11
-13.4384542241
 21
-3.4362072112
 31
0.0
 11
-12.0052020815
 21
-3.3651559321
 31
0.0
 11
-10.419364693
 21
-3.3025272195
 31
0.0
  0
LINE
  5
4AD
100
AcDbEntity
  8
RACCORDO
100
AcDbLine
 62
253
  6
CONTINUOUS
 10
-10.419364693
 20
-3.3025272195
 11
-10.2690782454
 21
-3.297305955
  0
SPLINE
  5
4AE
100
AcDbEntity
  8
RACCORDO
100
AcDbSpline
 62
253
  6
CONTINUOUS
 70
0
 71
3
 72
9
 73
5
 74
3
 42
0.0000001
 43
0.0000001
 44
0.0000000001
 12
8.3029515439
 22
0.2853469259
 32
0.0
 13
8.3077310202
 23
0.0450833109
 33
0.0
 40
0.0
 40
0.0
 40
0.0
 40
0.0
 40
0.476610575
 40
1.0
 40
1.0
 40
1.0
 40
1.0
 10
-10.2690782454
 20
-3.297305955
 30
0.0
 10
-8.9499867421
 20
-3.2519728341
 30
0.0
 10
-6.1814287296
 20
-3.1829622727
 30
0.0
 10
-3.4122493227
 20
-3.1513436384
 30
0.0
 10
-1.9628564688
 20
-3.1434782623
 30
0.0
 11
-10.2690782454
 21
-3.297305955
 31
0.0
 11
-6.3107975349
 21
-3.1946843693
 31
0.0
 11
-1.9628564688
 21
-3.1434782623
 31
0.0
  0
SPLINE
  5
4AF
100
AcDbEntity
  8
RACCORDO
100
AcDbSpline
 62
253
  6
CONTINUOUS
 70
0
 71
3
 72
39
 73
35
 74
33
 42
0.0000001
 43
0.0000001
 44
0.0000000001
 12
-26.2284783849
 22
-24.7673857879
 32
0.0
 13
-26.228546282
 23
24.7673138852
 33
0.0
 40
0.0
 40
0.0
 40
0.0
 40
0.0
 40
0.0021433493
 40
0.0052800588
 40
0.0094657735
 40
0.0147161999
 40
0.0210316222
 40
0.0284064561
 40
0.046279741
 40
0.0681997122
 40
0.093979638
 40
0.1233978149
 40
0.1561932471
 40
0.1920756907
 40
0.2307256991
 40
0.3149212443
 40
0.4057665192
 40
0.5000001075
 40
0.5942336924
 40
0.6850789556
 40
0.7692744802
 40
0.807924482
 40
0.843806904
 40
0.8766023269
 40
0.9060204786
 40
0.9318003845
 40
0.9537203351
 40
0.9715935888
 40
0.9789684161
 40
0.9852838285
 40
0.9905342423
 40
0.9947199487
 40
0.9978566509
 40
1.0
 40
1.0
 40
1.0
 40
1.0
 10
17.9813866144
 20
54.9827570796
 30
0.0
 10
17.9626476845
 20
54.965062027
 30
0.0
 10
17.9064974608
 20
54.9330326222
 30
0.0
 10
17.8001602539
 20
54.8928978256
 30
0.0
 10
17.6541927969
 20
54.8524435731
 30
0.0
 10
17.4691446265
 20
54.8120424583
 30
0.0
 10
17.244898133
 20
54.7718637745
 30
0.0
 10
16.8695846985
 20
54.7151873058
 30
0.0
 10
16.3062186067
 20
54.6483957701
 30
0.0
 10
15.5210988262
 20
54.5750282835
 30
0.0
 10
14.596354814
 20
54.5052920854
 30
0.0
 10
13.5402521809
 20
54.4399067264
 30
0.0
 10
12.362194341
 20
54.3795789448
 30
0.0
 10
11.0727455349
 20
54.3249039602
 30
0.0
 10
9.1652227753
 20
54.258375663
 30
0.0
 10
6.5963649177
 20
54.1945174979
 30
0.0
 10
3.3586788066
 20
54.1484533767
 30
0.0
 10
-0.0000038375
 20
54.132906232
 30
0.0
 10
-3.3586863403
 20
54.148453431
 30
0.0
 10
-6.5963720233
 20
54.1945176083
 30
0.0
 10
-9.1652294106
 20
54.2583758726
 30
0.0
 10
-11.0727515841
 20
54.3249041484
 30
0.0
 10
-12.3621999343
 20
54.3795792307
 30
0.0
 10
-13.5402571015
 20
54.439906956
 30
0.0
 10
-14.5963590754
 20
54.505292382
 30
0.0
 10
-15.5211022932
 20
54.5750285764
 30
0.0
 10
-16.3062212159
 20
54.6483959878
 30
0.0
 10
-16.8695865931
 20
54.7151875844
 30
0.0
 10
-17.2448994591
 20
54.7718639786
 30
0.0
 10
-17.4691456037
 20
54.8120426252
 30
0.0
 10
-17.6541933974
 20
54.8524437372
 30
0.0
 10
-17.8001605215
 20
54.892897888
 30
0.0
 10
-17.9064975559
 20
54.9330326658
 30
0.0
 10
-17.9626476373
 20
54.9650620796
 30
0.0
 10
-17.9813866144
 20
54.9827570796
 30
0.0
 11
17.9813866144
 21
54.9827570796
 31
0.0
 11
17.9165396726
 21
54.9406472756
 31
0.0
 11
17.8114395873
 21
54.8987193746
 31
0.0
 11
17.6662972386
 21
54.8570812392
 31
0.0
 11
17.4814380642
 21
54.8158313864
 31
0.0
 11
17.2572914344
 21
54.7750598545
 31
0.0
 11
16.9943045868
 21
54.7348563601
 31
0.0
 11
16.3543154916
 21
54.6565116288
 31
0.0
 11
15.5671325447
 21
54.5815085911
 31
0.0
 11
14.6398523685
 21
54.5105230806
 31
0.0
 11
13.5806862861
 21
54.4441979787
 31
0.0
 11
12.3991905344
 21
54.3831306598
 31
0.0
 11
11.1059357789
 21
54.3278735087
 31
0.0
 11
9.7125224175
 21
54.278928209
 31
0.0
 11
6.6762079984
 21
54.2016790287
 31
0.0
 11
3.3993708438
 21
54.1541790564
 31
0.0
 11
-0.0000038778
 21
54.1381514898
 31
0.0
 11
-3.3993784779
 21
54.1541791135
 31
0.0
 11
-6.6762152089
 21
54.2016791553
 31
0.0
 11
-9.7125288869
 21
54.278928406
 31
0.0
 11
-11.1059420074
 21
54.3278737251
 31
0.0
 11
-12.3991959792
 21
54.3831309167
 31
0.0
 11
-13.5806913978
 21
54.4441982423
 31
0.0
 11
-14.6398565662
 21
54.5105233677
 31
0.0
 11
-15.5671360209
 21
54.5815088763
 31
0.0
 11
-16.3543182222
 21
54.6565118923
 31
0.0
 11
-16.9943061893
 21
54.7348565922
 31
0.0
 11
-17.2572927999
 21
54.775060068
 31
0.0
 11
-17.4814390706
 21
54.8158315707
 31
0.0
 11
-17.6662977902
 21
54.8570813758
 31
0.0
 11
-17.811439847
 21
54.8987194427
 31
0.0
 11
-17.916539668
 21
54.9406472925
 31
0.0
 11
-17.9813866144
 21
54.9827570796
 31
0.0
  0
SPLINE
  5
4B0
100
AcDbEntity
  8
RACCORDO
100
AcDbSpline
 62
253
  6
CONTINUOUS
 70
0
 71
3
 72
11
 73
7
 74
5
 42
0.0000001
 43
0.0000001
 44
0.0000000001
 12
-0.0042654774
 22
1.5572821575
 32
0.0
 13
-1.5572821575
 23
0.0042654774
 33
0.0
 40
0.0
 40
0.0
 40
0.0
 40
0.0
 40
0.2499388509
 40
0.5000000024
 40
0.7500611528
 40
1.0
 40
1.0
 40
1.0
 40
1.0
 10
17.9813866144
 20
54.9827570796
 30
0.0
 10
17.9810312449
 20
55.1124988506
 30
0.0
 10
17.9284858093
 20
55.3747331382
 30
0.0
 10
17.7060454483
 20
55.706045453
 30
0.0
 10
17.3747331336
 20
55.9284858104
 30
0.0
 10
17.1124988487
 20
55.9810312449
 30
0.0
 10
16.9827570796
 20
55.9813866144
 30
0.0
 11
17.9813866144
 21
54.9827570796
 31
0.0
 11
17.904576357
 21
55.3643297007
 31
0.0
 11
17.6878971633
 21
55.6878971687
 31
0.0
 11
17.3643296953
 21
55.9045763591
 31
0.0
 11
16.9827570796
 21
55.9813866144
 31
0.0
  0
SPLINE
  5
4B1
100
AcDbEntity
  8
RACCORDO
100
AcDbSpline
 62
253
  6
CONTINUOUS
 70
0
 71
3
 72
11
 73
7
 74
5
 42
0.0000001
 43
0.0000001
 44
0.0000000001
 12
0.0042654773
 22
1.5572821575
 32
0.0
 13
1.5572821575
 23
0.0042654773
 33
0.0
 40
0.0
 40
0.0
 40
0.0
 40
0.0
 40
0.2499388493
 40
0.5
 40
0.7500611507
 40
1.0
 40
1.0
 40
1.0
 40
1.0
 10
-17.9813866144
 20
54.9827570796
 30
0.0
 10
-17.9810312449
 20
55.1124988498
 30
0.0
 10
-17.9284858099
 20
55.3747331361
 30
0.0
 10
-17.7060454506
 20
55.7060454506
 30
0.0
 10
-17.3747331361
 20
55.9284858099
 30
0.0
 10
-17.1124988498
 20
55.9810312449
 30
0.0
 10
-16.9827570796
 20
55.9813866144
 30
0.0
 11
-17.9813866144
 21
54.9827570796
 31
0.0
 11
-17.9045763579
 21
55.3643296984
 31
0.0
 11
-17.6878971661
 21
55.6878971661
 31
0.0
 11
-17.3643296984
 21
55.9045763579
 31
0.0
 11
-16.9827570796
 21
55.9813866144
 31
0.0
  0
SPLINE
  5
4B2
100
AcDbEntity
  8
RACCORDO
100
AcDbSpline
 62
7
  6
CONTINUOUS
 70
0
 71
3
 72
32
 73
28
 74
26
 42
0.0000001
 43
0.0000001
 44
0.0000000001
 12
4.4737351701
 22
-4.3103554368
 32
0.0
 13
-6.2062196164
 23
-0.2762398171
 33
0.0
 40
0.0
 40
0.0
 40
0.0
 40
0.0
 40
0.0043653692
 40
0.0087269404
 40
0.0130779636
 40
0.0174056719
 40
0.0217446259
 40
0.0260221075
 40
0.0345897892
 40
0.0431466625
 40
0.0516983888
 40
0.0687795629
 40
0.0858349677
 40
0.1028628842
 40
0.1198618501
 40
0.1368304963
 40
0.1706711562
 40
0.2043747776
 40
0.237930932
 40
0.2713293896
 40
0.3376125689
 40
0.4031444713
 40
0.5316358419
 40
0.6561749091
 40
0.7761427584
 40
0.8909386285
 40
1.0
 40
1.0
 40
1.0
 40
1.0
 10
-1.9629043877
 20
-3.1434356721
 30
0.0
 10
-1.9563945524
 20
-3.1497077698
 30
0.0
 10
-1.9438842752
 20
-3.1630958819
 30
0.0
 10
-1.9341193998
 20
-3.1893245245
 30
0.0
 10
-1.937415015
 20
-3.2173450915
 30
0.0
 10
-1.9532262386
 20
-3.2399471772
 30
0.0
 10
-1.9727872181
 20
-3.25830601
 30
0.0
 10
-2.0015983043
 20
-3.2793274825
 30
0.0
 10
-2.0403610293
 20
-3.3010308089
 30
0.0
 10
-2.088679635
 20
-3.3232727447
 30
0.0
 10
-2.1544373832
 20
-3.3495737474
 30
0.0
 10
-2.2381152614
 20
-3.3782100869
 30
0.0
 10
-2.3395909413
 20
-3.4087175562
 30
0.0
 10
-2.4416312441
 20
-3.4366299856
 30
0.0
 10
-2.5439694474
 20
-3.4626920968
 30
0.0
 10
-2.6804952743
 20
-3.4955307905
 30
0.0
 10
-2.851270344
 20
-3.5338340896
 30
0.0
 10
-3.056163781
 20
-3.5768562732
 30
0.0
 10
-3.260579063
 20
-3.6176433987
 30
0.0
 10
-3.5315671203
 20
-3.6695216602
 30
0.0
 10
-3.8681861802
 20
-3.7306825826
 30
0.0
 10
-4.3994412299
 20
-3.8219905162
 30
0.0
 10
-5.0509214715
 20
-3.9258386322
 30
0.0
 10
-5.8155422538
 20
-4.0354232662
 30
0.0
 10
-6.5539373941
 20
-4.1273614104
 30
0.0
 10
-7.2624250804
 20
-4.1986038106
 30
0.0
 10
-7.7250565732
 20
-4.2301392992
 30
0.0
 10
-7.9506761809
 20
-4.2401816636
 30
0.0
 11
-1.9629043877
 21
-3.1434356721
 31
0.0
 11
-1.9453786763
 21
-3.1641311771
 31
0.0
 11
-1.9362936216
 21
-3.1896583596
 31
0.0
 11
-1.9395190887
 21
-3.2164953659
 31
0.0
 11
-1.9538535202
 21
-3.2392405512
 31
0.0
 11
-1.973241566
 21
-3.2579671229
 31
0.0
 11
-1.9945969733
 21
-3.2737812139
 31
0.0
 11
-2.0406835278
 21
-3.300408076
 31
0.0
 11
-2.0888668358
 21
-3.3228621589
 31
0.0
 11
-2.1381378062
 21
-3.3427314822
 31
0.0
 11
-2.238363348
 21
-3.3775900937
 31
0.0
 11
-2.3397670349
 21
-3.4083085695
 31
0.0
 11
-2.4417678122
 21
-3.4363445437
 31
0.0
 11
-2.5440864586
 21
-3.4624797799
 31
0.0
 11
-2.6465663007
 21
-3.4871838516
 31
0.0
 11
-2.8516478829
 21
-3.5334268074
 31
0.0
 11
-3.0565327802
 21
-3.5765755935
 31
0.0
 11
-3.2609511487
 21
-3.6174409394
 31
0.0
 11
-3.4647243486
 21
-3.6565029213
 31
0.0
 11
-3.8698303639
 21
-3.7303133475
 31
0.0
 11
-4.2710408409
 21
-3.7993576736
 31
0.0
 11
-5.0593217836
 21
-3.9250262803
 31
0.0
 11
-5.8252394037
 21
-4.0343611964
 31
0.0
 11
-6.5649050644
 21
-4.1257008372
 31
0.0
 11
-7.2745966694
 21
-4.1958871699
 31
0.0
 11
-7.9506761809
 21
-4.2401816636
 31
0.0
  0
SPLINE
  5
4B3
100
AcDbEntity
  8
RACCORDO
100
AcDbSpline
 62
253
  6
CONTINUOUS
 70
0
 71
3
 72
11
 73
7
 74
5
 42
0.0000001
 43
0.0000001
 44
0.0000000001
 12
0.0042654774
 22
-1.5572821575
 32
0.0
 13
1.5572821575
 23
-0.0042654774
 33
0.0
 40
0.0
 40
0.0
 40
0.0
 40
0.0
 40
0.2499388507
 40
0.5000000022
 40
0.7500611526
 40
1.0
 40
1.0
 40
1.0
 40
1.0
 10
-17.9813866144
 20
-3.9827570796
 30
0.0
 10
-17.9810312449
 20
-4.1124988505
 30
0.0
 10
-17.9284858094
 20
-4.374733138
 30
0.0
 10
-17.7060454485
 20
-4.7060454527
 30
0.0
 10
-17.3747331339
 20
-4.9284858104
 30
0.0
 10
-17.1124988488
 20
-4.9810312449
 30
0.0
 10
-16.9827570796
 20
-4.9813866144
 30
0.0
 11
-17.9813866144
 21
-3.9827570796
 31
0.0
 11
-17.9045763571
 21
-4.3643297005
 31
0.0
 11
-17.6878971636
 21
-4.6878971684
 31
0.0
 11
-17.3643296956
 21
-4.904576359
 31
0.0
 11
-16.9827570796
 21
-4.9813866144
 31
0.0
  0
SPLINE
  5
4B4
100
AcDbEntity
  8
RACCORDO
100
AcDbSpline
 62
7
  6
CONTINUOUS
 70
0
 71
3
 72
32
 73
28
 74
26
 42
0.0000001
 43
0.0000001
 44
0.0000000001
 12
-6.2062001929
 22
0.2762389574
 32
0.0
 13
4.4737362521
 23
4.3103262919
 33
0.0
 40
0.0
 40
0.0
 40
0.0
 40
0.0
 40
0.1090623648
 40
0.22385808
 40
0.3438257386
 40
0.468365021
 40
0.5968569094
 40
0.6623890739
 40
0.7286724828
 40
0.7620710375
 40
0.7956272761
 40
0.8293309703
 40
0.863171706
 40
0.8801403961
 40
0.8971394137
 40
0.914167389
 40
0.9312228805
 40
0.9483041666
 40
0.9568558998
 40
0.9654131422
 40
0.973982055
 40
0.978260519
 40
0.9825923005
 40
0.98692045
 40
0.9912721879
 40
0.9956363779
 40
1.0
 40
1.0
 40
1.0
 40
1.0
 10
7.9506762609
 20
-4.2401816683
 30
0.0
 10
7.7250553044
 20
-4.2301392437
 30
0.0
 10
7.2624235433
 20
-4.1986034687
 30
0.0
 10
6.5539367298
 20
-4.127361338
 30
0.0
 10
5.8155441156
 20
-4.0354238838
 30
0.0
 10
5.0509247459
 20
-3.925838518
 30
0.0
 10
4.3994444372
 20
-3.8219908874
 30
0.0
 10
3.8681888885
 20
-3.7306834794
 30
0.0
 10
3.5315695824
 20
-3.6695230678
 30
0.0
 10
3.2605815657
 20
-3.6176446624
 30
0.0
 10
3.0561664109
 20
-3.5768575368
 30
0.0
 10
2.8512733388
 20
-3.5338344522
 30
0.0
 10
2.68049854
 20
-3.4955306294
 30
0.0
 10
2.5439729074
 20
-3.4626914924
 30
0.0
 10
2.441634728
 20
-3.4366293332
 30
0.0
 10
2.339594493
 20
-3.4087163341
 30
0.0
 10
2.2381185372
 20
-3.3782092338
 30
0.0
 10
2.1544407702
 20
-3.3495715654
 30
0.0
 10
2.0886827655
 20
-3.3232700275
 30
0.0
 10
2.040359782
 20
-3.3010277098
 30
0.0
 10
2.0015984059
 20
-3.2793163091
 30
0.0
 10
1.9727835014
 20
-3.2583125961
 30
0.0
 10
1.9532647613
 20
-3.2399314394
 30
0.0
 10
1.9374214384
 20
-3.2173651218
 30
0.0
 10
1.9341439102
 20
-3.1893311524
 30
0.0
 10
1.9438879645
 20
-3.163094396
 30
0.0
 10
1.9564038043
 20
-3.1497058051
 30
0.0
 10
1.9629110358
 20
-3.1434362601
 30
0.0
 11
7.9506762609
 21
-4.2401816683
 31
0.0
 11
7.2745927198
 21
-4.1958867219
 31
0.0
 11
6.5649042854
 21
-4.1257007913
 31
0.0
 11
5.8252420982
 21
-4.0343617189
 31
0.0
 11
5.0593256156
 21
-3.9250265098
 31
0.0
 11
4.2710439006
 21
-3.7993581843
 31
0.0
 11
3.8698329944
 21
-3.7303142613
 31
0.0
 11
3.4647267665
 21
-3.6565042327
 31
0.0
 11
3.2609536209
 21
-3.6174422122
 31
0.0
 11
3.056535418
 21
-3.5765767016
 31
0.0
 11
2.8516508751
 21
-3.533427218
 31
0.0
 11
2.6465696372
 21
-3.4871835841
 31
0.0
 11
2.5440899224
 21
-3.4624792291
 31
0.0
 11
2.4417713316
 21
-3.4363438121
 31
0.0
 11
2.3397706044
 21
-3.4083075256
 31
0.0
 11
2.2383667384
 21
-3.377588928
 31
0.0
 11
2.1381411835
 21
-3.3427292466
 31
0.0
 11
2.0888703486
 21
-3.3228599169
 31
0.0
 11
2.0406853302
 21
-3.3004044696
 31
0.0
 11
1.9945922755
 21
-3.2737739041
 31
0.0
 11
1.973231643
 21
-3.2579567537
 31
0.0
 11
1.9538897477
 21
-3.2392466708
 31
0.0
 11
1.9395357492
 21
-3.2165106866
 31
0.0
 11
1.9363116505
 21
-3.1896691297
 31
0.0
 11
1.9453920233
 21
-3.164123104
 31
0.0
 11
1.9629110358
 21
-3.1434362601
 31
0.0
  0
SPLINE
  5
4B5
100
AcDbEntity
  8
RACCORDO
100
AcDbSpline
 62
253
  6
CONTINUOUS
 70
0
 71
3
 72
11
 73
7
 74
5
 42
0.0000001
 43
0.0000001
 44
0.0000000001
 12
-0.0042654773
 22
-1.5572821575
 32
0.0
 13
-1.5572821575
 23
-0.0042654773
 33
0.0
 40
0.0
 40
0.0
 40
0.0
 40
0.0
 40
0.2499388493
 40
0.5
 40
0.7500611507
 40
1.0
 40
1.0
 40
1.0
 40
1.0
 10
17.9813866144
 20
-3.9827570796
 30
0.0
 10
17.9810312449
 20
-4.1124988498
 30
0.0
 10
17.9284858099
 20
-4.3747331361
 30
0.0
 10
17.7060454506
 20
-4.7060454506
 30
0.0
 10
17.3747331361
 20
-4.9284858099
 30
0.0
 10
17.1124988498
 20
-4.9810312449
 30
0.0
 10
16.9827570796
 20
-4.9813866144
 30
0.0
 11
17.9813866144
 21
-3.9827570796
 31
0.0
 11
17.9045763579
 21
-4.3643296984
 31
0.0
 11
17.6878971661
 21
-4.6878971661
 31
0.0
 11
17.3643296984
 21
-4.9045763579
 31
0.0
 11
16.9827570796
 21
-4.9813866144
 31
0.0
  0
ELLIPSE
  5
4B6
100
AcDbEntity
  8
RACCORDO
100
AcDbEllipse
 62
7
  6
CONTINUOUS
 10
8.6233336159
 20
-51.7013840161
 30
0.0
 11
-0.0
 21
2.0
 31
0.0
 40
0.0349207695
 41
0.1745329252
 42
1.5707963268
  0
ELLIPSE
  5
4B7
100
AcDbEntity
  8
RACCORDO
100
AcDbEllipse
 62
7
  6
CONTINUOUS
 10
-8.6233336159
 20
-51.7013840161
 30
0.0
 11
-0.0
 21
2.0
 31
0.0
 40
0.0349207695
 41
-1.5707963268
 42
-0.1745329252
  0
ELLIPSE
  5
4B8
100
AcDbEntity
  8
0
100
AcDbEllipse
 62
7
  6
CONTINUOUS
 10
-3.417556
 20
-35.2749473919
 30
0.0
 11
1.7999999246
 21
-0.0
 31
0.0
 40
0.1405408347
 41
-1.6263805024
 42
-0.2098706012
  0
ELLIPSE
  5
4B9
100
AcDbEntity
  8
DRAFT
100
AcDbEllipse
 62
7
  6
CONTINUOUS
 10
0.0
 20
-34.4110489086
 30
0.0
 11
17.1187716073
 21
0.0
 31
0.0
 40
0.1405425273
 41
1.7618057645
 42
2.1245650425
  0
ELLIPSE
  5
4BA
100
AcDbEntity
  8
DRAFT
100
AcDbEllipse
 62
7
  6
CONTINUOUS
 10
0.0
 20
-34.4110489086
 30
0.0
 11
17.1187716073
 21
0.0
 31
0.0
 40
0.1405425273
 41
1.6146219815
 42
1.7026123874
  0
ELLIPSE
  5
4BB
100
AcDbEntity
  8
0
100
AcDbEllipse
 62
7
  6
CONTINUOUS
 10
-3.417556
 20
-35.2749473919
 30
0.0
 11
1.7999968808
 21
-0.0
 31
0.0
 40
0.1405408347
 41
0.2098709614
 42
1.6263805965
  0
ELLIPSE
  5
4BC
100
AcDbEntity
  8
ASSI
100
AcDbEllipse
 62
7
  6
CONTINUOUS
 10
-3.417556
 20
-35.4769129064
 30
0.0
 11
2.5499986575
 21
0.0
 31
0.0
 40
0.1405408347
 41
-1.6100220921
 42
0.0000000929
  0
ELLIPSE
  5
4BD
100
AcDbEntity
  8
0
100
AcDbEllipse
 62
7
  6
CONTINUOUS
 10
-3.417556
 20
-35.2749473919
 30
0.0
 11
2.5499986575
 21
0.0
 31
0.0
 40
0.1405408347
 41
-1.6100220921
 42
1.6100220921
  0
ELLIPSE
  5
4BE
100
AcDbEntity
  8
ASSI
100
AcDbEllipse
 62
7
  6
CONTINUOUS
 10
-3.417556
 20
-35.4769129064
 30
0.0
 11
1.7999968808
 21
0.0
 31
0.0
 40
0.1405408347
 41
1.4032797897
 42
1.6263805965
  0
ELLIPSE
  5
4BF
100
AcDbEntity
  8
RACCORDO
100
AcDbEllipse
 62
7
  6
CONTINUOUS
 10
17.998627654
 20
55.998627654
 30
0.0
 11
-0.7090462434
 21
-0.7090462434
 31
0.0
 40
0.9972646886
 41
8.6407493252
 42
10.2088065963
  0
ELLIPSE
  5
4C0
100
AcDbEntity
  8
RACCORDO
100
AcDbEllipse
 62
7
  6
CONTINUOUS
 10
-17.998627654
 20
55.998627654
 30
0.0
 11
0.7090462434
 21
-0.7090462434
 31
0.0
 40
0.9972646886
 41
8.6407493252
 42
10.2088065963
  0
ELLIPSE
  5
4C1
100
AcDbEntity
  8
RACCORDO
100
AcDbEllipse
 62
7
  6
CONTINUOUS
 10
-10.7221420819
 20
-56.0
 30
0.0
 11
-1.001372346
 21
0.0
 31
0.0
 40
0.9986295348
 41
1.5184364492
 42
1.5707963268
  0
ELLIPSE
  5
4C2
100
AcDbEntity
  8
RACCORDO
100
AcDbEllipse
 62
7
  6
CONTINUOUS
 10
10.7221420819
 20
-56.0
 30
0.0
 11
1.001372346
 21
-0.0
 31
0.0
 40
0.9986295348
 41
-1.5707963268
 42
-1.5184364492
  0
ELLIPSE
  5
4C3
100
AcDbEntity
  8
RACCORDO
100
AcDbEllipse
 62
7
  6
CONTINUOUS
 10
17.998627654
 20
-4.998627654
 30
0.0
 11
-0.7090462434
 21
0.7090462434
 31
0.0
 40
0.9972646886
 41
-3.9256212891
 42
-2.3575640181
  0
ELLIPSE
  5
4C4
100
AcDbEntity
  8
RACCORDO
100
AcDbEllipse
 62
7
  6
CONTINUOUS
 10
17.998627654
 20
55.998627654
 30
0.0
 11
0.7090462434
 21
0.7090462434
 31
0.0
 40
0.9972646886
 41
-0.7840286355
 42
0.7840286355
  0
ELLIPSE
  5
4C5
100
AcDbEntity
  8
RACCORDO
100
AcDbEllipse
 62
7
  6
CONTINUOUS
 10
-17.998627654
 20
55.998627654
 30
0.0
 11
-0.7090462434
 21
0.7090462434
 31
0.0
 40
0.9972646886
 41
-0.7840286355
 42
0.7840286355
  0
ELLIPSE
  5
4C6
100
AcDbEntity
  8
RACCORDO
100
AcDbEllipse
 62
7
  6
CONTINUOUS
 10
-17.998627654
 20
-4.998627654
 30
0.0
 11
0.7090462434
 21
0.7090462434
 31
0.0
 40
0.9972646886
 41
-3.9256212891
 42
-2.3575640181
  0
ENDSEC
  0
SECTION
  2
OBJECTS
  0
DICTIONARY
  5
C
100
AcDbDictionary
280
0
281
1
  3
ACAD_GROUP
350
D
  3
ACAD_MLINESTYLE
350
17
  3
ACAD_LAYOUT
350
1A
  3
ACAD_PLOTSETTINGS
350
19
  3
ACAD_PLOTSTYLENAME
350
E
  0
DICTIONARY
  5
D
102
{ACAD_REACTORS
330
C
102
}
100
AcDbDictionary
280
0
281
1
  0
ACDBDICTIONARYWDFLT
  5
E
102
{ACAD_REACTORS
330
C
102
}
100
AcDbDictionary
281
1
  3
Normal
350
F
100
AcDbDictionaryWithDefault
340
F
  0
DICTIONARY
  5
17
102
{ACAD_REACTORS
330
C
102
}
100
AcDbDictionary
280
0
281
1
  3
Standard
350
18
  0
DICTIONARY
  5
19
102
{ACAD_REACTORS
330
C
102
}
100
AcDbDictionary
281
1
  0
DICTIONARY
  5
1A
102
{ACAD_REACTORS
330
C
102
}
100
AcDbDictionary
281
1
  3
Model
350
4C7
  3
Layout1
350
4C8
  0
ACDBPLACEHOLDER
  5
F
102
{ACAD_REACTORS
330
E
102
}
  0
MLINESTYLE
  5
18
102
{ACAD_REACTORS
330
17
102
}
100
AcDbMlineStyle
  2
STANDARD
 70
0
  3

 62
256
 51
90.0
 52
90.0
 71
2
 49
0.5
 62
256
  6
BYLAYER
 49
-0.5
 62
256
  6
BYLAYER
  0
LAYOUT
  5
4C7
102
{ACAD_REACTORS
330
1A
102
}
100
AcDbPlotSettings
  1

  2
none_device
  4
ISO_A4_(297.00_x_210.00_MM)
  6

 40
0.0
 41
0.0
 42
0.0
 43
0.0
 44
297.0
 45
210.0
 46
0.0
 47
0.0
 48
0.0
 49
0.0
140
0.0
141
0.0
142
1.0
143
1.0
 70
1024
 72
1
 73
0
 74
0
  7

 75
0
147
1.0
148
0.0
149
0.0
100
AcDbLayout
  1
Model
 70
0
 71
0
 10
0.0
 20
0.0
 11
297.0
 21
210.0
 12
0.0
 22
0.0
 32
0.0
 14
0.0
 24
0.0
 34
0.0
 15
0.0
 25
0.0
 35
0.0
146
0.0
 13
0.0
 23
0.0
 33
0.0
 16
1.0
 26
0.0
 36
0.0
 17
0.0
 27
1.0
 37
0.0
 76
0
330
217
345
0
346
0
  0
LAYOUT
  5
4C8
102
{ACAD_REACTORS
330
1A
102
}
100
AcDbPlotSettings
  1

  2
none_device
  4
ISO_A4_(297.00_x_210.00_MM)
  6

 40
0.0
 41
0.0
 42
0.0
 43
0.0
 44
297.0
 45
210.0
 46
0.0
 47
0.0
 48
0.0
 49
0.0
140
0.0
141
0.0
142
1.0
143
1.0
 70
0
 72
1
 73
0
 74
0
  7

 75
0
147
1.0
148
0.0
149
0.0
100
AcDbLayout
  1
Layout1
 70
0
 71
1
 10
0.0
 20
0.0
 11
297.0
 21
210.0
 12
0.0
 22
0.0
 32
0.0
 14
0.0
 24
0.0
 34
0.0
 15
0.0
 25
0.0
 35
0.0
146
0.0
 13
0.0
 23
0.0
 33
0.0
 16
1.0
 26
0.0
 36
0.0
 17
0.0
 27
1.0
 37
0.0
 76
0
330
218
345
0
346
0
  0
ENDSEC
  0
EOF
