  0
SECTION
  2
HEADER
  9
$ACADVER
  1
AC1015
  9
$DWGCODEPAGE
  3
ANSI_1252
  9
$EXTMAX
 10
558.8
 20
431.8
 30
0.0
  9
$EXTMIN
 10
0.0
 20
0.0
 30
0.0
  9
$LIMMIN
 10
0.0
 20
0.0
  9
$LIMMAX
 10
558.8
 20
431.8
  9
$VIEWCTR
 10
279.4
 20
215.9
  9
$VIEWSIZE
 40
431.8
  9
$CLAYER
  8
0
  9
$LTSCALE
 40
30.734
  9
$CELTYPE
  6
BYLAYER
  9
$DIMSCALE
 40
1.0
  9
$DIMASZ
 40
3.0
  9
$DIMEXO
 40
3.4925
  9
$DIMDLI
 40
21.2344
  9
$DIMEXE
 40
10.0584
  9
$DIMCEN
 40
5.0292
  9
$DIMLFAC
 40
1.0
  9
$DIMBLK
  1
_FILLED
  9
$DIMTXT
 40
3.0
  9
$DIMTOL
 70
1
  9
$DIMLIM
 70
0
  9
$DIMTFAC
 40
1.0
  9
$DIMTP
 40
0.01
  9
$DIMTM
 40
0.01
  9
$PDMODE
 70
3
  9
$PDSIZE
 40
3.0
  9
$HANDSEED
  5
37A
  9
$TILEMODE
 70
1
  9
$MEASUREMENT
 70
1
  9
$INSUNITS
 70
4
  0
ENDSEC
  0
SECTION
  2
CLASSES
  0
CLASS
  1
ACDBDICTIONARYWDFLT
  2
AcDbDictionaryWithDefault
  3
AutoCAD 2000
 90
0
280
0
281
0
  0
CLASS
  1
ACDBPLACEHOLDER
  2
AcDbPlaceHolder
  3
AutoCAD 2000
 90
0
280
0
281
0
  0
CLASS
  1
LAYOUT
  2
AcDbLayout
  3
AutoCAD 2000
 90
0
280
0
281
0
  0
ENDSEC
  0
SECTION
  2
TABLES
  0
TABLE
  2
VPORT
  5
8
100
AcDbSymbolTable
 70
2
  0
VPORT
  5
1F4
100
AcDbSymbolTableRecord
100
AcDbViewportTableRecord
  2
*ACTIVE
 70
0
 10
0.0
 20
0.0
 11
1.0
 21
1.0
 12
279.4
 22
215.9
 13
0.0
 23
0.0
 14
1.0
 24
1.0
 15
0.0
 25
0.0
 16
0.0
 26
0.0
 36
1.0
 17
0.0
 27
0.0
 37
0.0
 40
431.8
 41
1.2941176471
 42
50.0
 43
0.0
 44
0.0
 50
0.0
 51
0.0
 71
0
 72
100
 73
1
 74
1
 75
0
 76
0
 77
0
 78
0
  0
ENDTAB
  0
TABLE
  2
LTYPE
  5
5
100
AcDbSymbolTable
 70
6
  0
LTYPE
  5
14
100
AcDbSymbolTableRecord
100
AcDbLinetypeTableRecord
  2
BYBLOCK
 70
0
  3

 72
65
 73
0
 40
0.0
  0
LTYPE
  5
15
100
AcDbSymbolTableRecord
100
AcDbLinetypeTableRecord
  2
BYLAYER
 70
0
  3

 72
65
 73
0
 40
0.0
  0
LTYPE
  5
16
100
AcDbSymbolTableRecord
100
AcDbLinetypeTableRecord
  2
CONTINUOUS
 70
64
  3
Solid line
 72
65
 73
0
 40
0.0
  0
LTYPE
  5
1F5
100
AcDbSymbolTableRecord
100
AcDbLinetypeTableRecord
  2
CENTER
 70
64
  3
____ _ ____ _ ____ _ ____ _ ____ _ ____ _ ____
 72
65
 73
4
 40
0.6
 49
0.375
 74
0
 49
-0.075
 74
0
 49
0.075
 74
0
 49
-0.075
 74
0
  0
LTYPE
  5
1F6
100
AcDbSymbolTableRecord
100
AcDbLinetypeTableRecord
  2
HIDDEN
 70
64
  3
- - - - - - - - - - - - - - - - - - - -
 72
65
 73
2
 40
0.2
 49
0.1
 74
0
 49
-0.1
 74
0
  0
LTYPE
  5
1F7
100
AcDbSymbolTableRecord
100
AcDbLinetypeTableRecord
  2
PHANTOM
 70
64
  3
_____ _ _ _____ _ _ _____ _ _ _____
 72
65
 73
6
 40
0.8
 49
0.45
 74
0
 49
-0.05
 74
0
 49
0.1
 74
0
 49
-0.05
 74
0
 49
0.1
 74
0
 49
-0.05
 74
0
  0
LTYPE
  5
1F8
100
AcDbSymbolTableRecord
100
AcDbLinetypeTableRecord
  2
DOT
 70
64
  3
. . . . . . . . . . . . . . . . . . . .
 72
65
 73
2
 40
0.2
 49
0.1
 74
0
 49
-0.1
 74
0
  0
LTYPE
  5
1F9
100
AcDbSymbolTableRecord
100
AcDbLinetypeTableRecord
  2
DASHED
 70
64
  3
- - - - - - - - - - - - - - - - - - - -
 72
65
 73
2
 40
0.2
 49
0.1
 74
0
 49
-0.1
 74
0
  0
ENDTAB
  0
TABLE
  2
LAYER
  5
2
100
AcDbSymbolTable
 70
36
  0
LAYER
  5
10
100
AcDbSymbolTableRecord
100
AcDbLayerTableRecord
  2
0
 70
0
 62
7
  6
CONTINUOUS
370
-3
390
F
  0
LAYER
  5
1FA
100
AcDbSymbolTableRecord
100
AcDbLayerTableRecord
  2
DEFAULT_1
 70
0
 62
7
  6
CENTER
370
-3
390
F
  0
LAYER
  5
1FB
100
AcDbSymbolTableRecord
100
AcDbLayerTableRecord
  2
DEFAULT_2
 70
0
 62
7
  6
HIDDEN
370
-3
390
F
  0
LAYER
  5
1FC
100
AcDbSymbolTableRecord
100
AcDbLayerTableRecord
  2
DEFAULT_3
 70
0
 62
7
  6
PHANTOM
370
-3
390
F
  0
LAYER
  5
1FD
100
AcDbSymbolTableRecord
100
AcDbLayerTableRecord
  2
ASSI
 70
0
 62
7
  6
CONTINUOUS
370
-3
390
F
  0
LAYER
  5
1FE
100
AcDbSymbolTableRecord
100
AcDbLayerTableRecord
  2
COORDINATE
 70
0
 62
7
  6
CONTINUOUS
370
-3
390
F
  0
LAYER
  5
1FF
100
AcDbSymbolTableRecord
100
AcDbLayerTableRecord
  2
COORD_ORIGINE
 70
0
 62
7
  6
CONTINUOUS
370
-3
390
F
  0
LAYER
  5
200
100
AcDbSymbolTableRecord
100
AcDbLayerTableRecord
  2
COPY_PUBLISH
 70
0
 62
7
  6
CONTINUOUS
370
-3
390
F
  0
LAYER
  5
201
100
AcDbSymbolTableRecord
100
AcDbLayerTableRecord
  2
COSMETIC
 70
0
 62
7
  6
CONTINUOUS
370
-3
390
F
  0
LAYER
  5
202
100
AcDbSymbolTableRecord
100
AcDbLayerTableRecord
  2
CURVE
 70
0
 62
7
  6
CONTINUOUS
370
-3
390
F
  0
LAYER
  5
203
100
AcDbSymbolTableRecord
100
AcDbLayerTableRecord
  2
DRAFT
 70
0
 62
7
  6
CONTINUOUS
370
-3
390
F
  0
LAYER
  5
204
100
AcDbSymbolTableRecord
100
AcDbLayerTableRecord
  2
IMPORT_IGES
 70
0
 62
7
  6
CONTINUOUS
370
-3
390
F
  0
LAYER
  5
205
100
AcDbSymbolTableRecord
100
AcDbLayerTableRecord
  2
NOTE
 70
0
 62
7
  6
CONTINUOUS
370
-3
390
F
  0
LAYER
  5
206
100
AcDbSymbolTableRecord
100
AcDbLayerTableRecord
  2
PIANI
 70
0
 62
7
  6
CONTINUOUS
370
-3
390
F
  0
LAYER
  5
207
100
AcDbSymbolTableRecord
100
AcDbLayerTableRecord
  2
PIANI_ORIGINE
 70
0
 62
7
  6
CONTINUOUS
370
-3
390
F
  0
LAYER
  5
208
100
AcDbSymbolTableRecord
100
AcDbLayerTableRecord
  2
PUNTI
 70
0
 62
7
  6
CONTINUOUS
370
-3
390
F
  0
LAYER
  5
209
100
AcDbSymbolTableRecord
100
AcDbLayerTableRecord
  2
RACCORDO
 70
0
 62
7
  6
CONTINUOUS
370
-3
390
F
  0
LAYER
  5
20A
100
AcDbSymbolTableRecord
100
AcDbLayerTableRecord
  2
SCRITTE
 70
0
 62
7
  6
CONTINUOUS
370
-3
390
F
  0
LAYER
  5
20B
100
AcDbSymbolTableRecord
100
AcDbLayerTableRecord
  2
SMUSSO
 70
0
 62
7
  6
CONTINUOUS
370
-3
390
F
  0
LAYER
  5
20C
100
AcDbSymbolTableRecord
100
AcDbLayerTableRecord
  2
SNAPLINE
 70
0
 62
7
  6
CONTINUOUS
370
-3
390
F
  0
LAYER
  5
20D
100
AcDbSymbolTableRecord
100
AcDbLayerTableRecord
  2
SUPERFICI
 70
0
 62
7
  6
CONTINUOUS
370
-3
390
F
  0
LAYER
  5
20E
100
AcDbSymbolTableRecord
100
AcDbLayerTableRecord
  2
TRASH
 70
0
 62
7
  6
CONTINUOUS
370
-3
390
F
  0
LAYER
  5
20F
100
AcDbSymbolTableRecord
100
AcDbLayerTableRecord
  2
XSEC_DATUMS
 70
0
 62
7
  6
CONTINUOUS
370
-3
390
F
  0
ENDTAB
  0
TABLE
  2
STYLE
  5
3
100
AcDbSymbolTable
 70
1
  0
STYLE
  5
11
100
AcDbSymbolTableRecord
100
AcDbTextStyleTableRecord
  2
STANDARD
 70
0
 40
0.0
 41
0.8
 50
0.0
 71
0
 42
0.2
  3
txt
  4

  0
STYLE
  5
210
100
AcDbSymbolTableRecord
100
AcDbTextStyleTableRecord
  2
TEXTSTYLE_1
 70
0
 40
0.0
 41
0.8
 50
0.0
 71
0
 42
0.2
  3
gdt
  4

  0
ENDTAB
  0
TABLE
  2
VIEW
  5
6
100
AcDbSymbolTable
 70
0
  0
ENDTAB
  0
TABLE
  2
UCS
  5
7
100
AcDbSymbolTable
 70
0
  0
ENDTAB
  0
TABLE
  2
APPID
  5
9
100
AcDbSymbolTable
 70
1
  0
APPID
  5
211
100
AcDbSymbolTableRecord
100
AcDbRegAppTableRecord
  2
ACAD
 70
0
  0
ENDTAB
  0
TABLE
  2
BLOCK_RECORD
  5
1
100
AcDbSymbolTable
 70
0
  0
BLOCK_RECORD
  5
212
100
AcDbSymbolTableRecord
100
AcDbBlockTableRecord
  2
*Model_Space
  0
BLOCK_RECORD
  5
213
100
AcDbSymbolTableRecord
100
AcDbBlockTableRecord
  2
*Paper_Space
  0
ENDTAB
  0
TABLE
  2
DIMSTYLE
  5
A
100
AcDbSymbolTable
 70
1
100
AcDbDimStyleTable
 71
0
  0
DIMSTYLE
105
214
100
AcDbSymbolTableRecord
100
AcDbDimStyleTableRecord
  2
STANDARD
 70
0
  3

  4

 40
1.0
 41
3.0
 42
0.0625
 43
0.38
 44
0.18
 45
0.0
 46
0.0
 47
0.01
 48
0.01
140
3.0
141
0.09
142
0.0
143
25.4
144
1.0
145
0.0
146
1.0
147
0.09
 71
1.0
 72
0.0
 73
0
 74
0
 75
0
 76
0
 77
1
 78
8
170
0
171
2
172
0
173
0
174
0
175
0
176
0
177
0
178
0
270
2
271
2
272
2
273
2
274
2
275
0
280
0
281
0
282
0
283
1
284
8
285
0
286
0
287
3
288
0
340
11
  0
ENDTAB
  0
ENDSEC
  0
SECTION
  2
BLOCKS
  0
BLOCK
  5
20
100
AcDbEntity
  8
0
100
AcDbBlockBegin
  2
*Model_Space
 70
0
 10
0.0
 20
0.0
 30
0.0
  3
*Model_Space
  1

  0
ENDBLK
  5
21
100
AcDbEntity
  8
0
100
AcDbBlockEnd
  0
BLOCK
  5
1C
100
AcDbEntity
  8
0
100
AcDbBlockBegin
  2
*Paper_Space
 70
0
 10
0.0
 20
0.0
 30
0.0
  3
*Paper_Space
  1

  0
ENDBLK
  5
1D
100
AcDbEntity
  8
0
100
AcDbBlockEnd
  0
ENDSEC
  0
SECTION
  2
ENTITIES
  0
LINE
  5
215
100
AcDbEntity
  8
RACCORDO
100
AcDbLine
 62
7
  6
CONTINUOUS
 10
-1.0935594698
 20
-45.6263745815
 11
22.0664405302
 21
-45.6263745815
  0
LINE
  5
216
100
AcDbEntity
  8
ASSI
100
AcDbLine
 62
7
  6
CONTINUOUS
 10
-1.0935594698
 20
-45.6263745815
 11
22.0664405302
 21
-45.6263745815
  0
LINE
  5
217
100
AcDbEntity
  8
CURVE
100
AcDbLine
 62
252
  6
CONTINUOUS
 10
24.4664405302
 20
-44.1528978541
 11
24.2779308315
 21
-44.1528978541
  0
LINE
  5
218
100
AcDbEntity
  8
ASSI
100
AcDbLine
 62
252
  6
CONTINUOUS
 10
24.4664405302
 20
-44.1528978541
 11
24.2779308315
 21
-44.1528978541
  0
LINE
  5
219
100
AcDbEntity
  8
CURVE
100
AcDbLine
 62
252
  6
CONTINUOUS
 10
-3.3050497711
 20
-44.1528978541
 11
-3.4935594698
 21
-44.1528978541
  0
LINE
  5
21A
100
AcDbEntity
  8
ASSI
100
AcDbLine
 62
252
  6
CONTINUOUS
 10
-3.3050497711
 20
-44.1528978541
 11
-3.4935594698
 21
-44.1528978541
  0
LINE
  5
21B
100
AcDbEntity
  8
RACCORDO
100
AcDbLine
 62
253
  6
CONTINUOUS
 10
-3.4935594698
 20
-43.2263745815
 11
24.4664405302
 21
-43.2263745815
  0
LINE
  5
21C
100
AcDbEntity
  8
ASSI
100
AcDbLine
 62
253
  6
CONTINUOUS
 10
-3.4935594698
 20
-43.2263745815
 11
24.4664405302
 21
-43.2263745815
  0
LINE
  5
21D
100
AcDbEntity
  8
ASSI
100
AcDbLine
 62
7
  6
CONTINUOUS
 10
22.0664405302
 20
-42.6852203084
 11
-1.0935594698
 21
-42.6852203084
  0
LINE
  5
21E
100
AcDbEntity
  8
ASSI
100
AcDbLine
 62
7
  6
CONTINUOUS
 10
22.0664405302
 20
-39.5675288547
 11
-1.0935594698
 21
-39.5675288547
  0
LINE
  5
21F
100
AcDbEntity
  8
ASSI
100
AcDbLine
 62
7
  6
CONTINUOUS
 10
22.0664405302
 20
-37.2852203084
 11
-1.0935594698
 21
-37.2852203084
  0
LINE
  5
220
100
AcDbEntity
  8
ASSI
100
AcDbLine
 62
7
  6
CONTINUOUS
 10
22.0664405302
 20
-34.1675288547
 11
-1.0935594698
 21
-34.1675288547
  0
LINE
  5
221
100
AcDbEntity
  8
ASSI
100
AcDbLine
 62
7
  6
CONTINUOUS
 10
22.0664405302
 20
-31.8852203084
 11
-1.0935594698
 21
-31.8852203084
  0
LINE
  5
222
100
AcDbEntity
  8
ASSI
100
AcDbLine
 62
7
  6
CONTINUOUS
 10
22.0664405302
 20
-28.7675288547
 11
-1.0935594698
 21
-28.7675288547
  0
LINE
  5
223
100
AcDbEntity
  8
CURVE
100
AcDbLine
 62
253
  6
CONTINUOUS
 10
4.9568885302
 20
-26.7262185815
 11
3.8864405302
 21
-26.7262185815
  0
LINE
  5
224
100
AcDbEntity
  8
0
100
AcDbLine
 62
253
  6
CONTINUOUS
 10
4.9568885302
 20
-26.7262185815
 11
3.8864405302
 21
-26.7262185815
  0
LINE
  5
225
100
AcDbEntity
  8
RACCORDO
100
AcDbLine
 62
7
  6
CONTINUOUS
 10
-3.4935594698
 20
27.5736254185
 11
-3.4935594698
 21
-43.2263745815
  0
LINE
  5
226
100
AcDbEntity
  8
ASSI
100
AcDbLine
 62
7
  6
CONTINUOUS
 10
-3.4935594698
 20
27.5736254185
 11
-3.4935594698
 21
-43.2263745815
  0
LINE
  5
227
100
AcDbEntity
  8
CURVE
100
AcDbLine
 62
252
  6
CONTINUOUS
 10
-3.4935594698
 20
-44.1528978541
 11
-3.4935594698
 21
-43.2263745815
  0
LINE
  5
228
100
AcDbEntity
  8
ASSI
100
AcDbLine
 62
252
  6
CONTINUOUS
 10
-3.4935594698
 20
-44.1528978541
 11
-3.4935594698
 21
-43.2263745815
  0
LINE
  5
229
100
AcDbEntity
  8
CURVE
100
AcDbLine
 62
252
  6
CONTINUOUS
 10
-3.4935594698
 20
27.5736254185
 11
-3.4935594698
 21
28.500148691
  0
LINE
  5
22A
100
AcDbEntity
  8
ASSI
100
AcDbLine
 62
252
  6
CONTINUOUS
 10
-3.4935594698
 20
27.5736254185
 11
-3.4935594698
 21
28.500148691
  0
LINE
  5
22B
100
AcDbEntity
  8
CURVE
100
AcDbLine
 62
253
  6
CONTINUOUS
 10
3.3908615302
 20
-25.4971875815
 11
4.3820195302
 21
-25.4971875815
  0
LINE
  5
22C
100
AcDbEntity
  8
0
100
AcDbLine
 62
253
  6
CONTINUOUS
 10
3.3908615302
 20
-25.4971875815
 11
4.3820195302
 21
-25.4971875815
  0
LINE
  5
22D
100
AcDbEntity
  8
CURVE
100
AcDbLine
 62
253
  6
CONTINUOUS
 10
21.3880085302
 20
-22.8881385815
 11
18.8106575302
 21
-22.8881385815
  0
LINE
  5
22E
100
AcDbEntity
  8
0
100
AcDbLine
 62
253
  6
CONTINUOUS
 10
21.3880085302
 20
-22.8881385815
 11
18.8106575302
 21
-22.8881385815
  0
LINE
  5
22F
100
AcDbEntity
  8
CURVE
100
AcDbLine
 62
253
  6
CONTINUOUS
 10
1.2243965302
 20
-20.1599925815
 11
3.8864405302
 21
-22.2263745815
  0
LINE
  5
230
100
AcDbEntity
  8
0
100
AcDbLine
 62
253
  6
CONTINUOUS
 10
1.2243965302
 20
-20.1599925815
 11
3.8864405302
 21
-22.2263745815
  0
LINE
  5
231
100
AcDbEntity
  8
ASSI
100
AcDbLine
 62
253
  6
CONTINUOUS
 10
-1.0935594698
 20
23.9147796916
 11
-1.0935594698
 21
21.6324711453
  0
LINE
  5
232
100
AcDbEntity
  8
ASSI
100
AcDbLine
 62
253
  6
CONTINUOUS
 10
-1.0935594698
 20
18.5147796916
 11
-1.0935594698
 21
16.2324711453
  0
LINE
  5
233
100
AcDbEntity
  8
ASSI
100
AcDbLine
 62
253
  6
CONTINUOUS
 10
-1.0935594698
 20
13.1147796916
 11
-1.0935594698
 21
-28.7675288547
  0
LINE
  5
234
100
AcDbEntity
  8
ASSI
100
AcDbLine
 62
253
  6
CONTINUOUS
 10
-1.0935594698
 20
-31.8852203084
 11
-1.0935594698
 21
-34.1675288547
  0
LINE
  5
235
100
AcDbEntity
  8
ASSI
100
AcDbLine
 62
253
  6
CONTINUOUS
 10
-1.0935594698
 20
-37.2852203084
 11
-1.0935594698
 21
-39.5675288547
  0
LINE
  5
236
100
AcDbEntity
  8
RACCORDO
100
AcDbLine
 62
253
  6
CONTINUOUS
 10
-1.0935594698
 20
-43.2263745815
 11
-1.0935594698
 21
-45.6263745815
  0
LINE
  5
237
100
AcDbEntity
  8
ASSI
100
AcDbLine
 62
253
  6
CONTINUOUS
 10
-1.0935594698
 20
-42.6852203084
 11
-1.0935594698
 21
-45.6263745815
  0
LINE
  5
238
100
AcDbEntity
  8
RACCORDO
100
AcDbLine
 62
253
  6
CONTINUOUS
 10
-1.0935594698
 20
27.5736254185
 11
-1.0935594698
 21
29.9736254185
  0
LINE
  5
239
100
AcDbEntity
  8
ASSI
100
AcDbLine
 62
253
  6
CONTINUOUS
 10
-1.0935594698
 20
27.0324711453
 11
-1.0935594698
 21
29.9736254185
  0
LINE
  5
23A
100
AcDbEntity
  8
CURVE
100
AcDbLine
 62
253
  6
CONTINUOUS
 10
0.1150120048
 20
-9.0263745815
 11
0.1150120048
 21
-13.5263745815
  0
LINE
  5
23B
100
AcDbEntity
  8
CURVE
100
AcDbLine
 62
253
  6
CONTINUOUS
 10
2.5913765302
 20
7.4661074185
 11
3.5931425302
 21
10.9763114185
  0
LINE
  5
23C
100
AcDbEntity
  8
0
100
AcDbLine
 62
253
  6
CONTINUOUS
 10
2.5913765302
 20
7.4661074185
 11
3.5931425302
 21
10.9763114185
  0
LINE
  5
23D
100
AcDbEntity
  8
CURVE
100
AcDbLine
 62
253
  6
CONTINUOUS
 10
4.6569005302
 20
10.9763114185
 11
3.0176885302
 21
5.8767224185
  0
LINE
  5
23E
100
AcDbEntity
  8
0
100
AcDbLine
 62
253
  6
CONTINUOUS
 10
4.6569005302
 20
10.9763114185
 11
3.0176885302
 21
5.8767224185
  0
LINE
  5
23F
100
AcDbEntity
  8
CURVE
100
AcDbLine
 62
253
  6
CONTINUOUS
 10
18.8106575302
 20
-21.5646105815
 11
21.3880085302
 21
-21.5646105815
  0
LINE
  5
240
100
AcDbEntity
  8
0
100
AcDbLine
 62
253
  6
CONTINUOUS
 10
18.8106575302
 20
-21.5646105815
 11
21.3880085302
 21
-21.5646105815
  0
LINE
  5
241
100
AcDbEntity
  8
0
100
AcDbLine
 62
7
  6
CONTINUOUS
 10
0.5864405302
 20
35.0736240879
 11
0.5864405302
 21
29.9736254185
  0
LINE
  5
242
100
AcDbEntity
  8
CURVE
100
AcDbLine
 62
253
  6
CONTINUOUS
 10
1.9257262854
 20
-2.1692316593
 11
1.9257262854
 21
0.0164826482
  0
LINE
  5
243
100
AcDbEntity
  8
CURVE
100
AcDbLine
 62
253
  6
CONTINUOUS
 10
2.1721548466
 20
-9.0263745815
 11
2.1721548466
 21
-13.5263745815
  0
LINE
  5
244
100
AcDbEntity
  8
CURVE
100
AcDbLine
 62
253
  6
CONTINUOUS
 10
1.9257262854
 20
0.0164826482
 11
2.2900120159
 21
0.7450540333
  0
LINE
  5
245
100
AcDbEntity
  8
CURVE
100
AcDbLine
 62
253
  6
CONTINUOUS
 10
2.2900120159
 20
0.7450540333
 11
3.0185834391
 21
1.4736254185
  0
LINE
  5
246
100
AcDbEntity
  8
CURVE
100
AcDbLine
 62
253
  6
CONTINUOUS
 10
3.3908615302
 20
-18.9555615815
 11
4.3820195302
 21
-18.9555615815
  0
LINE
  5
247
100
AcDbEntity
  8
0
100
AcDbLine
 62
253
  6
CONTINUOUS
 10
3.3908615302
 20
-18.9555615815
 11
4.3820195302
 21
-18.9555615815
  0
LINE
  5
248
100
AcDbEntity
  8
CURVE
100
AcDbLine
 62
253
  6
CONTINUOUS
 10
3.972154632
 20
-13.5263745815
 11
3.4578691629
 21
-12.8835174099
  0
LINE
  5
249
100
AcDbEntity
  8
CURVE
100
AcDbLine
 62
253
  6
CONTINUOUS
 10
3.4578691629
 20
-12.8835174099
 11
3.2007264284
 21
-12.2406602384
  0
LINE
  5
24A
100
AcDbEntity
  8
CURVE
100
AcDbLine
 62
253
  6
CONTINUOUS
 10
3.2007264284
 20
-12.2406602384
 11
3.2007264284
 21
-10.3120887906
  0
LINE
  5
24B
100
AcDbEntity
  8
CURVE
100
AcDbLine
 62
253
  6
CONTINUOUS
 10
3.8864405302
 20
-18.9555615815
 11
3.8864405302
 21
-25.4971875815
  0
LINE
  5
24C
100
AcDbEntity
  8
0
100
AcDbLine
 62
253
  6
CONTINUOUS
 10
3.8864405302
 20
-18.9555615815
 11
3.8864405302
 21
-25.4971875815
  0
LINE
  5
24D
100
AcDbEntity
  8
CURVE
100
AcDbLine
 62
253
  6
CONTINUOUS
 10
4.4757262854
 20
0.0164826482
 11
4.4757262854
 21
-2.1692316593
  0
LINE
  5
24E
100
AcDbEntity
  8
0
100
AcDbLine
 62
7
  6
CONTINUOUS
 10
4.7864405302
 20
35.0736240879
 11
4.7864405302
 21
29.9736254185
  0
LINE
  5
24F
100
AcDbEntity
  8
CURVE
100
AcDbLine
 62
253
  6
CONTINUOUS
 10
5.0007264284
 20
-10.3120887906
 11
5.0007264284
 21
-12.2406602384
  0
LINE
  5
250
100
AcDbEntity
  8
CURVE
100
AcDbLine
 62
253
  6
CONTINUOUS
 10
5.0519345302
 20
10.9766174185
 11
5.0519345302
 21
5.8767224185
  0
LINE
  5
251
100
AcDbEntity
  8
0
100
AcDbLine
 62
253
  6
CONTINUOUS
 10
5.0519345302
 20
10.9766174185
 11
5.0519345302
 21
5.8767224185
  0
LINE
  5
252
100
AcDbEntity
  8
CURVE
100
AcDbLine
 62
253
  6
CONTINUOUS
 10
5.9328690557
 20
-2.1692316593
 11
5.9328690557
 21
0.0164826482
  0
LINE
  5
253
100
AcDbEntity
  8
CURVE
100
AcDbLine
 62
253
  6
CONTINUOUS
 10
6.1164185302
 20
5.8767224185
 11
6.1164185302
 21
10.9766174185
  0
LINE
  5
254
100
AcDbEntity
  8
0
100
AcDbLine
 62
253
  6
CONTINUOUS
 10
6.1164185302
 20
5.8767224185
 11
6.1164185302
 21
10.9766174185
  0
LINE
  5
255
100
AcDbEntity
  8
CURVE
100
AcDbLine
 62
253
  6
CONTINUOUS
 10
6.6894635302
 20
5.8767224185
 11
7.1499245302
 21
10.9763114185
  0
LINE
  5
256
100
AcDbEntity
  8
0
100
AcDbLine
 62
253
  6
CONTINUOUS
 10
6.6894635302
 20
5.8767224185
 11
7.1499245302
 21
10.9763114185
  0
LINE
  5
257
100
AcDbEntity
  8
CURVE
100
AcDbLine
 62
253
  6
CONTINUOUS
 10
9.2667725302
 20
8.1450044185
 11
10.3312565302
 21
10.9763114185
  0
LINE
  5
258
100
AcDbEntity
  8
0
100
AcDbLine
 62
253
  6
CONTINUOUS
 10
9.2667725302
 20
8.1450044185
 11
10.3312565302
 21
10.9763114185
  0
LINE
  5
259
100
AcDbEntity
  8
CURVE
100
AcDbLine
 62
253
  6
CONTINUOUS
 10
10.6012775302
 20
9.1927784185
 11
9.3356045302
 21
5.8767224185
  0
LINE
  5
25A
100
AcDbEntity
  8
0
100
AcDbLine
 62
253
  6
CONTINUOUS
 10
10.6012775302
 20
9.1927784185
 11
9.3356045302
 21
5.8767224185
  0
LINE
  5
25B
100
AcDbEntity
  8
CURVE
100
AcDbLine
 62
253
  6
CONTINUOUS
 10
3.2007264284
 20
-10.3120887906
 11
3.4578691629
 21
-9.6692316861
  0
LINE
  5
25C
100
AcDbEntity
  8
CURVE
100
AcDbLine
 62
253
  6
CONTINUOUS
 10
4.4757262854
 20
-2.1692316593
 11
4.1114405928
 21
-2.8978031204
  0
LINE
  5
25D
100
AcDbEntity
  8
CURVE
100
AcDbLine
 62
253
  6
CONTINUOUS
 10
5.9328690557
 20
0.0164826482
 11
6.2971549002
 21
0.7450540333
  0
LINE
  5
25E
100
AcDbEntity
  8
CURVE
100
AcDbLine
 62
253
  6
CONTINUOUS
 10
-0.9135594698
 20
-10.3120887906
 11
0.1150120048
 21
-9.0263745815
  0
LINE
  5
25F
100
AcDbEntity
  8
CURVE
100
AcDbLine
 62
253
  6
CONTINUOUS
 10
6.2971549002
 20
0.7450540333
 11
7.0257262854
 21
1.4736254185
  0
LINE
  5
260
100
AcDbEntity
  8
CURVE
100
AcDbLine
 62
253
  6
CONTINUOUS
 10
4.1114405928
 20
-2.8978031204
 11
3.3828692076
 21
-3.6263745815
  0
LINE
  5
261
100
AcDbEntity
  8
0
100
AcDbLine
 62
7
  6
CONTINUOUS
 10
32.6864391996
 20
-16.2263745815
 11
26.3010564744
 21
-16.2263745815
  0
LINE
  5
262
100
AcDbEntity
  8
0
100
AcDbLine
 62
7
  6
CONTINUOUS
 10
24.4664405302
 20
-16.2263745815
 11
26.3010564744
 21
-16.2263745815
  0
LINE
  5
263
100
AcDbEntity
  8
0
100
AcDbLine
 62
7
  6
CONTINUOUS
 10
24.9534155866
 20
-15.6403762022
 11
25.4696343793
 21
-15.6403762022
  0
LINE
  5
264
100
AcDbEntity
  8
CURVE
100
AcDbLine
 62
253
  6
CONTINUOUS
 10
4.2292977957
 20
-9.0263745815
 11
4.7435832647
 21
-9.6692316861
  0
LINE
  5
265
100
AcDbEntity
  8
CURVE
100
AcDbLine
 62
253
  6
CONTINUOUS
 10
2.2900120159
 20
-2.8978031204
 11
1.9257262854
 21
-2.1692316593
  0
LINE
  5
266
100
AcDbEntity
  8
CURVE
100
AcDbLine
 62
253
  6
CONTINUOUS
 10
4.7435832647
 20
-9.6692316861
 11
5.0007264284
 21
-10.3120887906
  0
LINE
  5
267
100
AcDbEntity
  8
CURVE
100
AcDbLine
 62
253
  6
CONTINUOUS
 10
2.0796125302
 20
5.8767224185
 11
0.4629425302
 21
10.9763114185
  0
LINE
  5
268
100
AcDbEntity
  8
0
100
AcDbLine
 62
253
  6
CONTINUOUS
 10
2.0796125302
 20
5.8767224185
 11
0.4629425302
 21
10.9763114185
  0
LINE
  5
269
100
AcDbEntity
  8
CURVE
100
AcDbLine
 62
253
  6
CONTINUOUS
 10
8.4828690557
 20
0.0164826482
 11
8.4828690557
 21
-2.1692316593
  0
LINE
  5
26A
100
AcDbEntity
  8
CURVE
100
AcDbLine
 62
253
  6
CONTINUOUS
 10
7.9375445302
 20
9.2066594185
 11
7.7078285302
 21
5.8767224185
  0
LINE
  5
26B
100
AcDbEntity
  8
0
100
AcDbLine
 62
253
  6
CONTINUOUS
 10
7.9375445302
 20
9.2066594185
 11
7.7078285302
 21
5.8767224185
  0
LINE
  5
26C
100
AcDbEntity
  8
CURVE
100
AcDbLine
 62
253
  6
CONTINUOUS
 10
12.0284795302
 20
5.8767224185
 11
13.6280345302
 21
10.9763114185
  0
LINE
  5
26D
100
AcDbEntity
  8
0
100
AcDbLine
 62
253
  6
CONTINUOUS
 10
12.0284795302
 20
5.8767224185
 11
13.6280345302
 21
10.9763114185
  0
LINE
  5
26E
100
AcDbEntity
  8
CURVE
100
AcDbLine
 62
253
  6
CONTINUOUS
 10
5.0007264284
 20
-12.2406602384
 11
4.7435832647
 21
-12.8835174099
  0
LINE
  5
26F
100
AcDbEntity
  8
CURVE
100
AcDbLine
 62
253
  6
CONTINUOUS
 10
8.4828690557
 20
-2.1692316593
 11
8.1185835151
 21
-2.8978031204
  0
LINE
  5
270
100
AcDbEntity
  8
CURVE
100
AcDbLine
 62
253
  6
CONTINUOUS
 10
1.1435834793
 20
-10.3120887906
 11
2.1721548466
 21
-9.0263745815
  0
LINE
  5
271
100
AcDbEntity
  8
CURVE
100
AcDbLine
 62
253
  6
CONTINUOUS
 10
3.4578691629
 20
-9.6692316861
 11
3.972154632
 21
-9.0263745815
  0
LINE
  5
272
100
AcDbEntity
  8
CURVE
100
AcDbLine
 62
253
  6
CONTINUOUS
 10
10.6685835151
 20
1.4736254185
 11
9.9400118259
 21
0.7450540333
  0
LINE
  5
273
100
AcDbEntity
  8
CURVE
100
AcDbLine
 62
253
  6
CONTINUOUS
 10
8.1185835151
 20
-2.8978031204
 11
7.3900118259
 21
-3.6263745815
  0
LINE
  5
274
100
AcDbEntity
  8
CURVE
100
AcDbLine
 62
253
  6
CONTINUOUS
 10
15.0292969374
 20
-13.5263745815
 11
14.7721550611
 21
-13.5263745815
  0
LINE
  5
275
100
AcDbEntity
  8
CURVE
100
AcDbLine
 62
253
  6
CONTINUOUS
 10
10.4007259993
 20
-13.5263745815
 11
8.6007259993
 21
-13.5263745815
  0
LINE
  5
276
100
AcDbEntity
  8
CURVE
100
AcDbLine
 62
253
  6
CONTINUOUS
 10
4.2292977957
 20
-13.5263745815
 11
3.972154632
 21
-13.5263745815
  0
LINE
  5
277
100
AcDbEntity
  8
CURVE
100
AcDbLine
 62
253
  6
CONTINUOUS
 10
11.4292977957
 20
-13.5263745815
 11
12.4578687338
 21
-13.5263745815
  0
LINE
  5
278
100
AcDbEntity
  8
0
100
AcDbLine
 62
7
  6
CONTINUOUS
 10
24.9534155866
 20
-12.6123729609
 11
25.4696343793
 21
-12.6123729609
  0
LINE
  5
279
100
AcDbEntity
  8
0
100
AcDbLine
 62
7
  6
CONTINUOUS
 10
32.6864391996
 20
-12.0263745815
 11
26.3010564744
 21
-12.0263745815
  0
LINE
  5
27A
100
AcDbEntity
  8
0
100
AcDbLine
 62
7
  6
CONTINUOUS
 10
24.4664405302
 20
-12.0263745815
 11
26.3010564744
 21
-12.0263745815
  0
LINE
  5
27B
100
AcDbEntity
  8
CURVE
100
AcDbLine
 62
253
  6
CONTINUOUS
 10
6.0292977957
 20
-11.9192316861
 11
7.5721550611
 21
-11.9192316861
  0
LINE
  5
27C
100
AcDbEntity
  8
CURVE
100
AcDbLine
 62
253
  6
CONTINUOUS
 10
12.4578687338
 20
-10.9549458952
 11
11.4292977957
 21
-10.9549458952
  0
LINE
  5
27D
100
AcDbEntity
  8
CURVE
100
AcDbLine
 62
253
  6
CONTINUOUS
 10
3.0185834391
 20
-3.6263745815
 11
2.2900120159
 21
-2.8978031204
  0
LINE
  5
27E
100
AcDbEntity
  8
CURVE
100
AcDbLine
 62
253
  6
CONTINUOUS
 10
10.4007259993
 20
-9.6692316861
 11
9.8864405302
 21
-9.0263745815
  0
LINE
  5
27F
100
AcDbEntity
  8
CURVE
100
AcDbLine
 62
253
  6
CONTINUOUS
 10
4.1114405928
 20
0.7450540333
 11
4.4757262854
 21
0.0164826482
  0
LINE
  5
280
100
AcDbEntity
  8
CURVE
100
AcDbLine
 62
253
  6
CONTINUOUS
 10
6.2971549002
 20
-2.8978031204
 11
5.9328690557
 21
-2.1692316593
  0
LINE
  5
281
100
AcDbEntity
  8
CURVE
100
AcDbLine
 62
253
  6
CONTINUOUS
 10
1.6193015302
 20
10.9763114185
 11
2.5913765302
 21
7.4661074185
  0
LINE
  5
282
100
AcDbEntity
  8
0
100
AcDbLine
 62
253
  6
CONTINUOUS
 10
1.6193015302
 20
10.9763114185
 11
2.5913765302
 21
7.4661074185
  0
LINE
  5
283
100
AcDbEntity
  8
CURVE
100
AcDbLine
 62
253
  6
CONTINUOUS
 10
10.8199805302
 20
5.8767224185
 11
10.6012775302
 21
9.1927784185
  0
LINE
  5
284
100
AcDbEntity
  8
0
100
AcDbLine
 62
253
  6
CONTINUOUS
 10
10.8199805302
 20
5.8767224185
 11
10.6012775302
 21
9.1927784185
  0
LINE
  5
285
100
AcDbEntity
  8
CURVE
100
AcDbLine
 62
253
  6
CONTINUOUS
 10
9.9400118259
 20
0.7450540333
 11
9.9400118259
 21
-0.712088737
  0
LINE
  5
286
100
AcDbEntity
  8
CURVE
100
AcDbLine
 62
253
  6
CONTINUOUS
 10
10.4007259993
 20
-10.3120887906
 11
10.4007259993
 21
-9.6692316861
  0
LINE
  5
287
100
AcDbEntity
  8
CURVE
100
AcDbLine
 62
253
  6
CONTINUOUS
 10
11.4292977957
 20
-10.9549458952
 11
11.4292977957
 21
-9.0263745815
  0
LINE
  5
288
100
AcDbEntity
  8
CURVE
100
AcDbLine
 62
253
  6
CONTINUOUS
 10
12.1257262854
 20
-2.1692316593
 11
12.4900118259
 21
-0.712088737
  0
LINE
  5
289
100
AcDbEntity
  8
CURVE
100
AcDbLine
 62
253
  6
CONTINUOUS
 10
14.1229145302
 20
9.5750744185
 11
13.5928925302
 21
7.6825514185
  0
LINE
  5
28A
100
AcDbEntity
  8
0
100
AcDbLine
 62
253
  6
CONTINUOUS
 10
14.1229145302
 20
9.5750744185
 11
13.5928925302
 21
7.6825514185
  0
LINE
  5
28B
100
AcDbEntity
  8
CURVE
100
AcDbLine
 62
253
  6
CONTINUOUS
 10
13.3751465302
 20
6.8947814185
 11
13.0814135302
 21
5.8767224185
  0
LINE
  5
28C
100
AcDbEntity
  8
0
100
AcDbLine
 62
253
  6
CONTINUOUS
 10
13.3751465302
 20
6.8947814185
 11
13.0814135302
 21
5.8767224185
  0
LINE
  5
28D
100
AcDbEntity
  8
CURVE
100
AcDbLine
 62
253
  6
CONTINUOUS
 10
9.1150123266
 20
-9.0263745815
 11
8.6007259993
 21
-9.9906603725
  0
LINE
  5
28E
100
AcDbEntity
  8
CURVE
100
AcDbLine
 62
253
  6
CONTINUOUS
 10
4.7435832647
 20
-12.8835174099
 11
4.2292977957
 21
-13.5263745815
  0
LINE
  5
28F
100
AcDbEntity
  8
CURVE
100
AcDbLine
 62
253
  6
CONTINUOUS
 10
10.6685835151
 20
-3.6263745815
 11
12.1257262854
 21
-2.1692316593
  0
LINE
  5
290
100
AcDbEntity
  8
CURVE
100
AcDbLine
 62
253
  6
CONTINUOUS
 10
15.4042973665
 20
-0.712088737
 11
16.0114403395
 21
-0.3478031964
  0
LINE
  5
291
100
AcDbEntity
  8
CURVE
100
AcDbLine
 62
253
  6
CONTINUOUS
 10
9.8864405302
 20
-9.0263745815
 11
9.1150123266
 21
-9.0263745815
  0
LINE
  5
292
100
AcDbEntity
  8
CURVE
100
AcDbLine
 62
253
  6
CONTINUOUS
 10
3.972154632
 20
-9.0263745815
 11
4.2292977957
 21
-9.0263745815
  0
LINE
  5
293
100
AcDbEntity
  8
CURVE
100
AcDbLine
 62
253
  6
CONTINUOUS
 10
11.4292977957
 20
-9.0263745815
 11
12.9721550611
 21
-9.0263745815
  0
LINE
  5
294
100
AcDbEntity
  8
CURVE
100
AcDbLine
 62
253
  6
CONTINUOUS
 10
14.7721550611
 20
-9.0263745815
 11
15.0292969374
 21
-9.0263745815
  0
LINE
  5
295
100
AcDbEntity
  8
CURVE
100
AcDbLine
 62
253
  6
CONTINUOUS
 10
7.0257262854
 20
-3.6263745815
 11
6.2971549002
 21
-2.8978031204
  0
LINE
  5
296
100
AcDbEntity
  8
CURVE
100
AcDbLine
 62
253
  6
CONTINUOUS
 10
3.3828692076
 20
1.4736254185
 11
4.1114405928
 21
0.7450540333
  0
LINE
  5
297
100
AcDbEntity
  8
CURVE
100
AcDbLine
 62
253
  6
CONTINUOUS
 10
12.9721550611
 20
-11.5978031338
 11
12.4578687338
 21
-10.9549458952
  0
LINE
  5
298
100
AcDbEntity
  8
CURVE
100
AcDbLine
 62
253
  6
CONTINUOUS
 10
14.7721550611
 20
-13.5263745815
 11
14.2578695921
 21
-12.8835174099
  0
LINE
  5
299
100
AcDbEntity
  8
CURVE
100
AcDbLine
 62
253
  6
CONTINUOUS
 10
8.1185835151
 20
0.7450540333
 11
8.4828690557
 21
0.0164826482
  0
LINE
  5
29A
100
AcDbEntity
  8
CURVE
100
AcDbLine
 62
253
  6
CONTINUOUS
 10
14.2578695921
 20
-12.8835174099
 11
14.0007259993
 21
-12.2406602384
  0
LINE
  5
29B
100
AcDbEntity
  8
CURVE
100
AcDbLine
 62
253
  6
CONTINUOUS
 10
11.3844575302
 20
10.9763114185
 11
11.8613285302
 21
5.8767224185
  0
LINE
  5
29C
100
AcDbEntity
  8
0
100
AcDbLine
 62
253
  6
CONTINUOUS
 10
11.3844575302
 20
10.9763114185
 11
11.8613285302
 21
5.8767224185
  0
LINE
  5
29D
100
AcDbEntity
  8
CURVE
100
AcDbLine
 62
253
  6
CONTINUOUS
 10
12.4900118259
 20
-0.712088737
 11
12.4900118259
 21
0.7450540333
  0
LINE
  5
29E
100
AcDbEntity
  8
CURVE
100
AcDbLine
 62
253
  6
CONTINUOUS
 10
12.9721550611
 20
-12.8835174099
 11
12.9721550611
 21
-11.5978031338
  0
LINE
  5
29F
100
AcDbEntity
  8
CURVE
100
AcDbLine
 62
253
  6
CONTINUOUS
 10
14.0007259993
 20
-12.2406602384
 11
14.0007259993
 21
-10.3120887906
  0
LINE
  5
2A0
100
AcDbEntity
  8
CURVE
100
AcDbLine
 62
253
  6
CONTINUOUS
 10
14.3554625302
 20
-17.7298335815
 11
14.3554625302
 21
-19.0548105815
  0
LINE
  5
2A1
100
AcDbEntity
  8
0
100
AcDbLine
 62
253
  6
CONTINUOUS
 10
14.3554625302
 20
-17.7298335815
 11
14.3554625302
 21
-19.0548105815
  0
LINE
  5
2A2
100
AcDbEntity
  8
CURVE
100
AcDbLine
 62
253
  6
CONTINUOUS
 10
14.3554625302
 20
-25.3979385815
 11
14.3554625302
 21
-26.7229155815
  0
LINE
  5
2A3
100
AcDbEntity
  8
0
100
AcDbLine
 62
253
  6
CONTINUOUS
 10
14.3554625302
 20
-25.3979385815
 11
14.3554625302
 21
-26.7229155815
  0
LINE
  5
2A4
100
AcDbEntity
  8
CURVE
100
AcDbLine
 62
253
  6
CONTINUOUS
 10
8.6007259993
 20
-13.5263745815
 11
10.4007259993
 21
-10.3120887906
  0
LINE
  5
2A5
100
AcDbEntity
  8
CURVE
100
AcDbLine
 62
253
  6
CONTINUOUS
 10
17.5900118259
 20
0.0164826482
 11
19.0471552042
 21
1.4736254185
  0
LINE
  5
2A6
100
AcDbEntity
  8
CURVE
100
AcDbLine
 62
253
  6
CONTINUOUS
 10
15.7685829071
 20
-3.6263745815
 11
16.1328696636
 21
-3.262088851
  0
LINE
  5
2A7
100
AcDbEntity
  8
0
100
AcDbLine
 62
7
  6
CONTINUOUS
 10
24.9534155866
 20
2.0876270391
 11
25.7848376817
 21
2.6736254185
  0
LINE
  5
2A8
100
AcDbEntity
  8
0
100
AcDbLine
 62
7
  6
CONTINUOUS
 10
25.4696343793
 20
2.0876270391
 11
26.3010564744
 21
2.6736254185
  0
LINE
  5
2A9
100
AcDbEntity
  8
0
100
AcDbLine
 62
7
  6
CONTINUOUS
 10
25.7848376817
 20
-16.2263745815
 11
24.9534155866
 21
-15.6403762022
  0
LINE
  5
2AA
100
AcDbEntity
  8
0
100
AcDbLine
 62
7
  6
CONTINUOUS
 10
26.3010564744
 20
-16.2263745815
 11
25.4696343793
 21
-15.6403762022
  0
LINE
  5
2AB
100
AcDbEntity
  8
CURVE
100
AcDbLine
 62
253
  6
CONTINUOUS
 10
20.5150126127
 20
-11.8120888353
 11
21.2007259993
 21
-12.4549460069
  0
LINE
  5
2AC
100
AcDbEntity
  8
CURVE
100
AcDbLine
 62
253
  6
CONTINUOUS
 10
7.3900118259
 20
1.4736254185
 11
8.1185835151
 21
0.7450540333
  0
LINE
  5
2AD
100
AcDbEntity
  8
CURVE
100
AcDbLine
 62
253
  6
CONTINUOUS
 10
9.9400118259
 20
-0.712088737
 11
10.6685835151
 21
-1.4406602741
  0
LINE
  5
2AE
100
AcDbEntity
  8
CURVE
100
AcDbLine
 62
253
  6
CONTINUOUS
 10
15.0292969374
 20
-9.0263745815
 11
15.543584123
 21
-9.6692316861
  0
LINE
  5
2AF
100
AcDbEntity
  8
CURVE
100
AcDbLine
 62
253
  6
CONTINUOUS
 10
15.543584123
 20
-9.6692316861
 11
15.8007259993
 21
-10.3120887906
  0
LINE
  5
2B0
100
AcDbEntity
  8
CURVE
100
AcDbLine
 62
253
  6
CONTINUOUS
 10
9.1863125302
 20
5.8767224185
 11
7.9375445302
 21
9.2066594185
  0
LINE
  5
2B1
100
AcDbEntity
  8
0
100
AcDbLine
 62
253
  6
CONTINUOUS
 10
9.1863125302
 20
5.8767224185
 11
7.9375445302
 21
9.2066594185
  0
LINE
  5
2B2
100
AcDbEntity
  8
CURVE
100
AcDbLine
 62
253
  6
CONTINUOUS
 10
8.2135295302
 20
10.9763114185
 11
9.2667725302
 21
8.1450044185
  0
LINE
  5
2B3
100
AcDbEntity
  8
0
100
AcDbLine
 62
253
  6
CONTINUOUS
 10
8.2135295302
 20
10.9763114185
 11
9.2667725302
 21
8.1450044185
  0
LINE
  5
2B4
100
AcDbEntity
  8
CURVE
100
AcDbLine
 62
253
  6
CONTINUOUS
 10
15.8007259993
 20
-10.3120887906
 11
15.8007259993
 21
-12.2406602384
  0
LINE
  5
2B5
100
AcDbEntity
  8
CURVE
100
AcDbLine
 62
253
  6
CONTINUOUS
 10
16.0114403395
 20
-0.3478031964
 11
16.0114403395
 21
0.7450540333
  0
LINE
  5
2B6
100
AcDbEntity
  8
CURVE
100
AcDbLine
 62
253
  6
CONTINUOUS
 10
16.1328696636
 20
-3.262088851
 11
16.1328696636
 21
-1.4406602741
  0
LINE
  5
2B7
100
AcDbEntity
  8
CURVE
100
AcDbLine
 62
253
  6
CONTINUOUS
 10
16.535060522
 20
10.916731665
 11
16.535060522
 21
5.8767233584
  0
LINE
  5
2B8
100
AcDbEntity
  8
0
100
AcDbLine
 62
253
  6
CONTINUOUS
 10
16.535060522
 20
10.916731665
 11
16.535060522
 21
5.8767233584
  0
LINE
  5
2B9
100
AcDbEntity
  8
CURVE
100
AcDbLine
 62
253
  6
CONTINUOUS
 10
17.5599648251
 20
8.707609924
 11
17.5599648251
 21
10.1075463714
  0
LINE
  5
2BA
100
AcDbEntity
  8
0
100
AcDbLine
 62
253
  6
CONTINUOUS
 10
17.5599648251
 20
8.707609924
 11
17.5599648251
 21
10.1075463714
  0
LINE
  5
2BB
100
AcDbEntity
  8
CURVE
100
AcDbLine
 62
253
  6
CONTINUOUS
 10
17.5952615182
 20
5.8767233584
 11
17.5952615182
 21
7.8724205661
  0
LINE
  5
2BC
100
AcDbEntity
  8
0
100
AcDbLine
 62
253
  6
CONTINUOUS
 10
17.5952615182
 20
5.8767233584
 11
17.5952615182
 21
7.8724205661
  0
LINE
  5
2BD
100
AcDbEntity
  8
CURVE
100
AcDbLine
 62
253
  6
CONTINUOUS
 10
14.0007259993
 20
-10.3120887906
 11
14.2578695921
 21
-9.6692316861
  0
LINE
  5
2BE
100
AcDbEntity
  8
CURVE
100
AcDbLine
 62
253
  6
CONTINUOUS
 10
14.2578695921
 20
-9.6692316861
 11
14.7721550611
 21
-9.0263745815
  0
LINE
  5
2BF
100
AcDbEntity
  8
CURVE
100
AcDbLine
 62
253
  6
CONTINUOUS
 10
7.3900118259
 20
-3.6263745815
 11
7.0257262854
 21
-3.6263745815
  0
LINE
  5
2C0
100
AcDbEntity
  8
CURVE
100
AcDbLine
 62
253
  6
CONTINUOUS
 10
3.3828692076
 20
-3.6263745815
 11
3.0185834391
 21
-3.6263745815
  0
LINE
  5
2C1
100
AcDbEntity
  8
CURVE
100
AcDbLine
 62
253
  6
CONTINUOUS
 10
13.9471552042
 20
-3.6263745815
 11
15.7685829071
 21
-3.6263745815
  0
LINE
  5
2C2
100
AcDbEntity
  8
CURVE
100
AcDbLine
 62
253
  6
CONTINUOUS
 10
12.4900118259
 20
0.7450540333
 11
11.7614407448
 21
1.4736254185
  0
LINE
  5
2C3
100
AcDbEntity
  8
CURVE
100
AcDbLine
 62
253
  6
CONTINUOUS
 10
14.6120585302
 20
7.6825514185
 11
14.1229145302
 21
9.5750744185
  0
LINE
  5
2C4
100
AcDbEntity
  8
0
100
AcDbLine
 62
253
  6
CONTINUOUS
 10
14.6120585302
 20
7.6825514185
 11
14.1229145302
 21
9.5750744185
  0
LINE
  5
2C5
100
AcDbEntity
  8
CURVE
100
AcDbLine
 62
253
  6
CONTINUOUS
 10
16.8292969374
 20
-9.0263745815
 11
17.8578695921
 21
-13.5263745815
  0
LINE
  5
2C6
100
AcDbEntity
  8
CURVE
100
AcDbLine
 62
253
  6
CONTINUOUS
 10
19.0471552042
 20
1.4736254185
 11
19.0471552042
 21
-3.6263745815
  0
LINE
  5
2C7
100
AcDbEntity
  8
CURVE
100
AcDbLine
 62
253
  6
CONTINUOUS
 10
19.2717970785
 20
8.2571659933
 11
19.2717970785
 21
8.2873001148
  0
LINE
  5
2C8
100
AcDbEntity
  8
0
100
AcDbLine
 62
253
  6
CONTINUOUS
 10
19.2717970785
 20
8.2571659933
 11
19.2717970785
 21
8.2873001148
  0
LINE
  5
2C9
100
AcDbEntity
  8
CURVE
100
AcDbLine
 62
253
  6
CONTINUOUS
 10
17.8578695921
 20
-13.5263745815
 11
18.8864405302
 21
-9.0263745815
  0
LINE
  5
2CA
100
AcDbEntity
  8
CURVE
100
AcDbLine
 62
253
  6
CONTINUOUS
 10
15.8007259993
 20
-12.2406602384
 11
15.543584123
 21
-12.8835174099
  0
LINE
  5
2CB
100
AcDbEntity
  8
CURVE
100
AcDbLine
 62
253
  6
CONTINUOUS
 10
12.4578687338
 20
-13.5263745815
 11
12.9721550611
 21
-12.8835174099
  0
LINE
  5
2CC
100
AcDbEntity
  8
CURVE
100
AcDbLine
 62
253
  6
CONTINUOUS
 10
15.543584123
 20
-12.8835174099
 11
15.0292969374
 21
-13.5263745815
  0
LINE
  5
2CD
100
AcDbEntity
  8
0
100
AcDbLine
 62
7
  6
CONTINUOUS
 10
32.6864391996
 20
-1.5263745815
 11
26.3010564744
 21
-1.5263745815
  0
LINE
  5
2CE
100
AcDbEntity
  8
0
100
AcDbLine
 62
7
  6
CONTINUOUS
 10
24.4664405302
 20
-1.5263745815
 11
26.3010564744
 21
-1.5263745815
  0
LINE
  5
2CF
100
AcDbEntity
  8
CURVE
100
AcDbLine
 62
253
  6
CONTINUOUS
 10
10.6685835151
 20
-1.4406602741
 11
12.2471543936
 21
-1.4406602741
  0
LINE
  5
2D0
100
AcDbEntity
  8
0
100
AcDbLine
 62
7
  6
CONTINUOUS
 10
24.9534155866
 20
-0.9403762022
 11
25.4696343793
 21
-0.9403762022
  0
LINE
  5
2D1
100
AcDbEntity
  8
CURVE
100
AcDbLine
 62
253
  6
CONTINUOUS
 10
15.4042973665
 20
-0.712088737
 11
14.6757262854
 21
-0.712088737
  0
LINE
  5
2D2
100
AcDbEntity
  8
CURVE
100
AcDbLine
 62
253
  6
CONTINUOUS
 10
16.1328696636
 20
-1.4406602741
 11
15.4042973665
 21
-0.712088737
  0
LINE
  5
2D3
100
AcDbEntity
  8
CURVE
100
AcDbLine
 62
253
  6
CONTINUOUS
 10
16.0114403395
 20
0.7450540333
 11
15.4042973665
 21
1.4736254185
  0
LINE
  5
2D4
100
AcDbEntity
  8
CURVE
100
AcDbLine
 62
253
  6
CONTINUOUS
 10
14.6577965302
 20
10.9763114185
 11
16.2224765302
 21
5.8767224185
  0
LINE
  5
2D5
100
AcDbEntity
  8
0
100
AcDbLine
 62
253
  6
CONTINUOUS
 10
14.6577965302
 20
10.9763114185
 11
16.2224765302
 21
5.8767224185
  0
LINE
  5
2D6
100
AcDbEntity
  8
CURVE
100
AcDbLine
 62
253
  6
CONTINUOUS
 10
15.1005545302
 20
5.8767224185
 11
14.8247975302
 21
6.8947814185
  0
LINE
  5
2D7
100
AcDbEntity
  8
0
100
AcDbLine
 62
253
  6
CONTINUOUS
 10
15.1005545302
 20
5.8767224185
 11
14.8247975302
 21
6.8947814185
  0
LINE
  5
2D8
100
AcDbEntity
  8
CURVE
100
AcDbLine
 62
253
  6
CONTINUOUS
 10
21.3880085302
 20
-21.5646105815
 11
21.3880085302
 21
-22.8881385815
  0
LINE
  5
2D9
100
AcDbEntity
  8
0
100
AcDbLine
 62
253
  6
CONTINUOUS
 10
21.3880085302
 20
-21.5646105815
 11
21.3880085302
 21
-22.8881385815
  0
LINE
  5
2DA
100
AcDbEntity
  8
ASSI
100
AcDbLine
 62
253
  6
CONTINUOUS
 10
22.0664405302
 20
-39.5675288547
 11
22.0664405302
 21
-37.2852203084
  0
LINE
  5
2DB
100
AcDbEntity
  8
ASSI
100
AcDbLine
 62
253
  6
CONTINUOUS
 10
22.0664405302
 20
-34.1675288547
 11
22.0664405302
 21
-31.8852203084
  0
LINE
  5
2DC
100
AcDbEntity
  8
RACCORDO
100
AcDbLine
 62
253
  6
CONTINUOUS
 10
22.0664405302
 20
-43.2263745815
 11
22.0664405302
 21
-45.6263745815
  0
LINE
  5
2DD
100
AcDbEntity
  8
ASSI
100
AcDbLine
 62
253
  6
CONTINUOUS
 10
22.0664405302
 20
-42.6852203084
 11
22.0664405302
 21
-45.6263745815
  0
LINE
  5
2DE
100
AcDbEntity
  8
ASSI
100
AcDbLine
 62
253
  6
CONTINUOUS
 10
22.0664405302
 20
-28.7675288547
 11
22.0664405302
 21
13.1147796916
  0
LINE
  5
2DF
100
AcDbEntity
  8
ASSI
100
AcDbLine
 62
253
  6
CONTINUOUS
 10
22.0664405302
 20
16.2324711453
 11
22.0664405302
 21
18.5147796916
  0
LINE
  5
2E0
100
AcDbEntity
  8
ASSI
100
AcDbLine
 62
253
  6
CONTINUOUS
 10
22.0664405302
 20
21.6324711453
 11
22.0664405302
 21
23.9147796916
  0
LINE
  5
2E1
100
AcDbEntity
  8
RACCORDO
100
AcDbLine
 62
253
  6
CONTINUOUS
 10
22.0664405302
 20
27.5736254185
 11
22.0664405302
 21
29.9736254185
  0
LINE
  5
2E2
100
AcDbEntity
  8
ASSI
100
AcDbLine
 62
253
  6
CONTINUOUS
 10
22.0664405302
 20
27.0324711453
 11
22.0664405302
 21
29.9736254185
  0
LINE
  5
2E3
100
AcDbEntity
  8
CURVE
100
AcDbLine
 62
253
  6
CONTINUOUS
 10
22.0938935302
 20
-17.7298335815
 11
22.0938935302
 21
-19.0548105815
  0
LINE
  5
2E4
100
AcDbEntity
  8
0
100
AcDbLine
 62
253
  6
CONTINUOUS
 10
22.0938935302
 20
-17.7298335815
 11
22.0938935302
 21
-19.0548105815
  0
LINE
  5
2E5
100
AcDbEntity
  8
CURVE
100
AcDbLine
 62
253
  6
CONTINUOUS
 10
22.0938935302
 20
-25.3979385815
 11
22.0938935302
 21
-26.7229155815
  0
LINE
  5
2E6
100
AcDbEntity
  8
0
100
AcDbLine
 62
253
  6
CONTINUOUS
 10
22.0938935302
 20
-25.3979385815
 11
22.0938935302
 21
-26.7229155815
  0
LINE
  5
2E7
100
AcDbEntity
  8
CURVE
100
AcDbLine
 62
253
  6
CONTINUOUS
 10
3.8864405302
 20
-22.2263745815
 11
6.5484845302
 21
-20.1599925815
  0
LINE
  5
2E8
100
AcDbEntity
  8
0
100
AcDbLine
 62
253
  6
CONTINUOUS
 10
3.8864405302
 20
-22.2263745815
 11
6.5484845302
 21
-20.1599925815
  0
LINE
  5
2E9
100
AcDbEntity
  8
CURVE
100
AcDbLine
 62
253
  6
CONTINUOUS
 10
19.9150114683
 20
-12.1335173876
 11
20.5150126127
 21
-11.8120888353
  0
LINE
  5
2EA
100
AcDbEntity
  8
CURVE
100
AcDbLine
 62
253
  6
CONTINUOUS
 10
15.4042973665
 20
1.4736254185
 11
13.9471552042
 21
1.4736254185
  0
LINE
  5
2EB
100
AcDbEntity
  8
CURVE
100
AcDbLine
 62
253
  6
CONTINUOUS
 10
11.7614407448
 20
1.4736254185
 11
10.6685835151
 21
1.4736254185
  0
LINE
  5
2EC
100
AcDbEntity
  8
CURVE
100
AcDbLine
 62
253
  6
CONTINUOUS
 10
3.0185834391
 20
1.4736254185
 11
3.3828692076
 21
1.4736254185
  0
LINE
  5
2ED
100
AcDbEntity
  8
CURVE
100
AcDbLine
 62
253
  6
CONTINUOUS
 10
7.0257262854
 20
1.4736254185
 11
7.3900118259
 21
1.4736254185
  0
LINE
  5
2EE
100
AcDbEntity
  8
0
100
AcDbLine
 62
7
  6
CONTINUOUS
 10
24.9534155866
 20
2.0876270391
 11
25.4696343793
 21
2.0876270391
  0
LINE
  5
2EF
100
AcDbEntity
  8
0
100
AcDbLine
 62
7
  6
CONTINUOUS
 10
32.6864391996
 20
2.6736254185
 11
26.3010564744
 21
2.6736254185
  0
LINE
  5
2F0
100
AcDbEntity
  8
0
100
AcDbLine
 62
7
  6
CONTINUOUS
 10
24.4664405302
 20
2.6736254185
 11
26.3010564744
 21
2.6736254185
  0
LINE
  5
2F1
100
AcDbEntity
  8
CURVE
100
AcDbLine
 62
252
  6
CONTINUOUS
 10
24.4664405302
 20
28.500148691
 11
24.4664405302
 21
27.5736254185
  0
LINE
  5
2F2
100
AcDbEntity
  8
ASSI
100
AcDbLine
 62
252
  6
CONTINUOUS
 10
24.4664405302
 20
28.500148691
 11
24.4664405302
 21
27.5736254185
  0
LINE
  5
2F3
100
AcDbEntity
  8
CURVE
100
AcDbLine
 62
252
  6
CONTINUOUS
 10
24.4664405302
 20
-43.2263745815
 11
24.4664405302
 21
-44.1528978541
  0
LINE
  5
2F4
100
AcDbEntity
  8
ASSI
100
AcDbLine
 62
252
  6
CONTINUOUS
 10
24.4664405302
 20
-43.2263745815
 11
24.4664405302
 21
-44.1528978541
  0
LINE
  5
2F5
100
AcDbEntity
  8
RACCORDO
100
AcDbLine
 62
7
  6
CONTINUOUS
 10
24.4664405302
 20
-43.2263745815
 11
24.4664405302
 21
27.5736254185
  0
LINE
  5
2F6
100
AcDbEntity
  8
ASSI
100
AcDbLine
 62
7
  6
CONTINUOUS
 10
24.4664405302
 20
-43.2263745815
 11
24.4664405302
 21
27.5736254185
  0
LINE
  5
2F7
100
AcDbEntity
  8
0
100
AcDbLine
 62
253
  6
CONTINUOUS
 10
25.4696343793
 20
2.0876270391
 11
25.4696343793
 21
-0.9403762022
  0
LINE
  5
2F8
100
AcDbEntity
  8
0
100
AcDbLine
 62
253
  6
CONTINUOUS
 10
25.4696343793
 20
-12.6123729609
 11
25.4696343793
 21
-15.6403762022
  0
LINE
  5
2F9
100
AcDbEntity
  8
0
100
AcDbLine
 62
7
  6
CONTINUOUS
 10
24.9534155866
 20
-12.6123729609
 11
25.7848376817
 21
-12.0263745815
  0
LINE
  5
2FA
100
AcDbEntity
  8
CURVE
100
AcDbLine
 62
253
  6
CONTINUOUS
 10
21.2007259993
 20
-12.4549460069
 11
21.8864411024
 21
-12.1335173876
  0
LINE
  5
2FB
100
AcDbEntity
  8
CURVE
100
AcDbLine
 62
253
  6
CONTINUOUS
 10
16.2224765302
 20
5.8767224185
 11
15.1005545302
 21
5.8767224185
  0
LINE
  5
2FC
100
AcDbEntity
  8
0
100
AcDbLine
 62
253
  6
CONTINUOUS
 10
16.2224765302
 20
5.8767224185
 11
15.1005545302
 21
5.8767224185
  0
LINE
  5
2FD
100
AcDbEntity
  8
CURVE
100
AcDbLine
 62
253
  6
CONTINUOUS
 10
13.0814135302
 20
5.8767224185
 11
12.0284795302
 21
5.8767224185
  0
LINE
  5
2FE
100
AcDbEntity
  8
0
100
AcDbLine
 62
253
  6
CONTINUOUS
 10
13.0814135302
 20
5.8767224185
 11
12.0284795302
 21
5.8767224185
  0
LINE
  5
2FF
100
AcDbEntity
  8
CURVE
100
AcDbLine
 62
253
  6
CONTINUOUS
 10
11.8613285302
 20
5.8767224185
 11
10.8199805302
 21
5.8767224185
  0
LINE
  5
300
100
AcDbEntity
  8
0
100
AcDbLine
 62
253
  6
CONTINUOUS
 10
11.8613285302
 20
5.8767224185
 11
10.8199805302
 21
5.8767224185
  0
LINE
  5
301
100
AcDbEntity
  8
CURVE
100
AcDbLine
 62
253
  6
CONTINUOUS
 10
9.3356045302
 20
5.8767224185
 11
9.1863125302
 21
5.8767224185
  0
LINE
  5
302
100
AcDbEntity
  8
0
100
AcDbLine
 62
253
  6
CONTINUOUS
 10
9.3356045302
 20
5.8767224185
 11
9.1863125302
 21
5.8767224185
  0
LINE
  5
303
100
AcDbEntity
  8
CURVE
100
AcDbLine
 62
253
  6
CONTINUOUS
 10
7.7078285302
 20
5.8767224185
 11
6.6894635302
 21
5.8767224185
  0
LINE
  5
304
100
AcDbEntity
  8
0
100
AcDbLine
 62
253
  6
CONTINUOUS
 10
7.7078285302
 20
5.8767224185
 11
6.6894635302
 21
5.8767224185
  0
LINE
  5
305
100
AcDbEntity
  8
CURVE
100
AcDbLine
 62
253
  6
CONTINUOUS
 10
3.0176885302
 20
5.8767224185
 11
2.0796125302
 21
5.8767224185
  0
LINE
  5
306
100
AcDbEntity
  8
0
100
AcDbLine
 62
253
  6
CONTINUOUS
 10
3.0176885302
 20
5.8767224185
 11
2.0796125302
 21
5.8767224185
  0
LINE
  5
307
100
AcDbEntity
  8
CURVE
100
AcDbLine
 62
253
  6
CONTINUOUS
 10
5.0519345302
 20
5.8767224185
 11
6.1164185302
 21
5.8767224185
  0
LINE
  5
308
100
AcDbEntity
  8
0
100
AcDbLine
 62
253
  6
CONTINUOUS
 10
5.0519345302
 20
5.8767224185
 11
6.1164185302
 21
5.8767224185
  0
LINE
  5
309
100
AcDbEntity
  8
CURVE
100
AcDbLine
 62
253
  6
CONTINUOUS
 10
16.535060522
 20
5.8767233584
 11
17.5952615182
 21
5.8767233584
  0
LINE
  5
30A
100
AcDbEntity
  8
0
100
AcDbLine
 62
253
  6
CONTINUOUS
 10
16.535060522
 20
5.8767233584
 11
17.5952615182
 21
5.8767233584
  0
LINE
  5
30B
100
AcDbEntity
  8
CURVE
100
AcDbLine
 62
253
  6
CONTINUOUS
 10
19.2253721755
 20
5.8767233584
 11
20.2492822056
 21
5.8767233584
  0
LINE
  5
30C
100
AcDbEntity
  8
0
100
AcDbLine
 62
253
  6
CONTINUOUS
 10
19.2253721755
 20
5.8767233584
 11
20.2492822056
 21
5.8767233584
  0
LINE
  5
30D
100
AcDbEntity
  8
CURVE
100
AcDbLine
 62
253
  6
CONTINUOUS
 10
14.8247975302
 20
6.8947814185
 11
13.3751465302
 21
6.8947814185
  0
LINE
  5
30E
100
AcDbEntity
  8
0
100
AcDbLine
 62
253
  6
CONTINUOUS
 10
14.8247975302
 20
6.8947814185
 11
13.3751465302
 21
6.8947814185
  0
LINE
  5
30F
100
AcDbEntity
  8
0
100
AcDbLine
 62
7
  6
CONTINUOUS
 10
25.7848376817
 20
-1.5263745815
 11
24.9534155866
 21
-0.9403762022
  0
LINE
  5
310
100
AcDbEntity
  8
0
100
AcDbLine
 62
7
  6
CONTINUOUS
 10
26.3010564744
 20
-1.5263745815
 11
25.4696343793
 21
-0.9403762022
  0
LINE
  5
311
100
AcDbEntity
  8
0
100
AcDbLine
 62
7
  6
CONTINUOUS
 10
25.4696343793
 20
-12.6123729609
 11
26.3010564744
 21
-12.0263745815
  0
LINE
  5
312
100
AcDbEntity
  8
CURVE
100
AcDbLine
 62
253
  6
CONTINUOUS
 10
13.5928925302
 20
7.6825514185
 11
14.6120585302
 21
7.6825514185
  0
LINE
  5
313
100
AcDbEntity
  8
0
100
AcDbLine
 62
253
  6
CONTINUOUS
 10
13.5928925302
 20
7.6825514185
 11
14.6120585302
 21
7.6825514185
  0
LINE
  5
314
100
AcDbEntity
  8
CURVE
100
AcDbLine
 62
253
  6
CONTINUOUS
 10
17.5952615182
 20
7.8724205661
 11
18.1660124873
 21
7.8724205661
  0
LINE
  5
315
100
AcDbEntity
  8
0
100
AcDbLine
 62
253
  6
CONTINUOUS
 10
17.5952615182
 20
7.8724205661
 11
18.1660124873
 21
7.8724205661
  0
LINE
  5
316
100
AcDbEntity
  8
CURVE
100
AcDbLine
 62
253
  6
CONTINUOUS
 10
18.1683069636
 20
8.707609924
 11
17.5599648251
 21
8.707609924
  0
LINE
  5
317
100
AcDbEntity
  8
0
100
AcDbLine
 62
253
  6
CONTINUOUS
 10
18.1683069636
 20
8.707609924
 11
17.5599648251
 21
8.707609924
  0
LINE
  5
318
100
AcDbEntity
  8
0
100
AcDbLine
 62
253
  6
CONTINUOUS
 10
31.7909510465
 20
-16.2263745815
 11
31.7909510465
 21
-12.0263745815
  0
LINE
  5
319
100
AcDbEntity
  8
0
100
AcDbLine
 62
253
  6
CONTINUOUS
 10
31.7909510465
 20
-1.5263745815
 11
31.7909510465
 21
2.6736254185
  0
LINE
  5
31A
100
AcDbEntity
  8
CURVE
100
AcDbLine
 62
253
  6
CONTINUOUS
 10
0.4629425302
 20
10.9763114185
 11
1.6193015302
 21
10.9763114185
  0
LINE
  5
31B
100
AcDbEntity
  8
0
100
AcDbLine
 62
253
  6
CONTINUOUS
 10
0.4629425302
 20
10.9763114185
 11
1.6193015302
 21
10.9763114185
  0
LINE
  5
31C
100
AcDbEntity
  8
CURVE
100
AcDbLine
 62
253
  6
CONTINUOUS
 10
3.5931425302
 20
10.9763114185
 11
4.6569005302
 21
10.9763114185
  0
LINE
  5
31D
100
AcDbEntity
  8
0
100
AcDbLine
 62
253
  6
CONTINUOUS
 10
3.5931425302
 20
10.9763114185
 11
4.6569005302
 21
10.9763114185
  0
LINE
  5
31E
100
AcDbEntity
  8
CURVE
100
AcDbLine
 62
253
  6
CONTINUOUS
 10
7.1499245302
 20
10.9763114185
 11
8.2135295302
 21
10.9763114185
  0
LINE
  5
31F
100
AcDbEntity
  8
0
100
AcDbLine
 62
253
  6
CONTINUOUS
 10
7.1499245302
 20
10.9763114185
 11
8.2135295302
 21
10.9763114185
  0
LINE
  5
320
100
AcDbEntity
  8
CURVE
100
AcDbLine
 62
253
  6
CONTINUOUS
 10
10.3312565302
 20
10.9763114185
 11
11.3844575302
 21
10.9763114185
  0
LINE
  5
321
100
AcDbEntity
  8
0
100
AcDbLine
 62
253
  6
CONTINUOUS
 10
10.3312565302
 20
10.9763114185
 11
11.3844575302
 21
10.9763114185
  0
LINE
  5
322
100
AcDbEntity
  8
CURVE
100
AcDbLine
 62
253
  6
CONTINUOUS
 10
13.6280345302
 20
10.9763114185
 11
14.6577965302
 21
10.9763114185
  0
LINE
  5
323
100
AcDbEntity
  8
0
100
AcDbLine
 62
253
  6
CONTINUOUS
 10
13.6280345302
 20
10.9763114185
 11
14.6577965302
 21
10.9763114185
  0
LINE
  5
324
100
AcDbEntity
  8
CURVE
100
AcDbLine
 62
253
  6
CONTINUOUS
 10
6.1164185302
 20
10.9766174185
 11
5.0519345302
 21
10.9766174185
  0
LINE
  5
325
100
AcDbEntity
  8
0
100
AcDbLine
 62
253
  6
CONTINUOUS
 10
6.1164185302
 20
10.9766174185
 11
5.0519345302
 21
10.9766174185
  0
LINE
  5
326
100
AcDbEntity
  8
0
100
AcDbLine
 62
7
  6
CONTINUOUS
 10
32.6864405302
 20
2.6736254185
 11
32.6864405302
 21
-1.5263745815
  0
LINE
  5
327
100
AcDbEntity
  8
0
100
AcDbLine
 62
7
  6
CONTINUOUS
 10
32.6864405302
 20
-12.0263745815
 11
32.6864405302
 21
-16.2263745815
  0
LINE
  5
328
100
AcDbEntity
  8
ASSI
100
AcDbLine
 62
7
  6
CONTINUOUS
 10
22.0664405302
 20
13.1147796916
 11
-1.0935594698
 21
13.1147796916
  0
LINE
  5
329
100
AcDbEntity
  8
ASSI
100
AcDbLine
 62
7
  6
CONTINUOUS
 10
22.0664405302
 20
16.2324711453
 11
-1.0935594698
 21
16.2324711453
  0
LINE
  5
32A
100
AcDbEntity
  8
ASSI
100
AcDbLine
 62
7
  6
CONTINUOUS
 10
22.0664405302
 20
18.5147796916
 11
-1.0935594698
 21
18.5147796916
  0
LINE
  5
32B
100
AcDbEntity
  8
ASSI
100
AcDbLine
 62
7
  6
CONTINUOUS
 10
22.0664405302
 20
21.6324711453
 11
-1.0935594698
 21
21.6324711453
  0
LINE
  5
32C
100
AcDbEntity
  8
ASSI
100
AcDbLine
 62
7
  6
CONTINUOUS
 10
22.0664405302
 20
23.9147796916
 11
-1.0935594698
 21
23.9147796916
  0
LINE
  5
32D
100
AcDbEntity
  8
ASSI
100
AcDbLine
 62
7
  6
CONTINUOUS
 10
22.0664405302
 20
27.0324711453
 11
-1.0935594698
 21
27.0324711453
  0
LINE
  5
32E
100
AcDbEntity
  8
RACCORDO
100
AcDbLine
 62
253
  6
CONTINUOUS
 10
-3.4935594698
 20
27.5736254185
 11
24.4664405302
 21
27.5736254185
  0
LINE
  5
32F
100
AcDbEntity
  8
ASSI
100
AcDbLine
 62
253
  6
CONTINUOUS
 10
-3.4935594698
 20
27.5736254185
 11
24.4664405302
 21
27.5736254185
  0
LINE
  5
330
100
AcDbEntity
  8
CURVE
100
AcDbLine
 62
252
  6
CONTINUOUS
 10
-3.4935594698
 20
28.500148691
 11
-3.3050497711
 21
28.500148691
  0
LINE
  5
331
100
AcDbEntity
  8
ASSI
100
AcDbLine
 62
252
  6
CONTINUOUS
 10
-3.4935594698
 20
28.500148691
 11
-3.3050497711
 21
28.500148691
  0
LINE
  5
332
100
AcDbEntity
  8
CURVE
100
AcDbLine
 62
252
  6
CONTINUOUS
 10
24.2779308315
 20
28.500148691
 11
24.4664405302
 21
28.500148691
  0
LINE
  5
333
100
AcDbEntity
  8
ASSI
100
AcDbLine
 62
252
  6
CONTINUOUS
 10
24.2779308315
 20
28.500148691
 11
24.4664405302
 21
28.500148691
  0
LINE
  5
334
100
AcDbEntity
  8
RACCORDO
100
AcDbLine
 62
7
  6
CONTINUOUS
 10
22.0664405302
 20
29.9736254185
 11
-1.0935594698
 21
29.9736254185
  0
LINE
  5
335
100
AcDbEntity
  8
ASSI
100
AcDbLine
 62
7
  6
CONTINUOUS
 10
22.0664405302
 20
29.9736254185
 11
-1.0935594698
 21
29.9736254185
  0
LINE
  5
336
100
AcDbEntity
  8
0
100
AcDbLine
 62
253
  6
CONTINUOUS
 10
4.7864405302
 20
34.1781359348
 11
0.5864405302
 21
34.1781359348
  0
LINE
  5
337
100
AcDbEntity
  8
0
100
AcDbLine
 62
7
  6
CONTINUOUS
 10
0.5864405302
 20
35.0736254185
 11
4.7864405302
 21
35.0736254185
  0
ARC
  5
338
100
AcDbEntity
  8
CURVE
100
AcDbCircle
 62
253
  6
CONTINUOUS
 10
21.9174215302
 20
-22.2263745815
 40
4.4999967146
100
AcDbArc
 50
87.7524725246
 51
272.2474863117
  0
ARC
  5
339
100
AcDbEntity
  8
0
100
AcDbCircle
 62
253
  6
CONTINUOUS
 10
21.9174215302
 20
-22.2263745815
 40
4.4999967146
100
AcDbArc
 50
87.7524725246
 51
272.2474863117
  0
ARC
  5
33A
100
AcDbEntity
  8
CURVE
100
AcDbCircle
 62
253
  6
CONTINUOUS
 10
14.1789935302
 20
-22.2263745815
 40
4.4999964794
100
AcDbArc
 50
87.7525488602
 51
272.2474481439
  0
ARC
  5
33B
100
AcDbEntity
  8
0
100
AcDbCircle
 62
253
  6
CONTINUOUS
 10
14.1789935302
 20
-22.2263745815
 40
4.4999964794
100
AcDbArc
 50
87.7525488602
 51
272.2474481439
  0
CIRCLE
  5
33C
100
AcDbEntity
  8
CURVE
100
AcDbCircle
 62
253
  6
CONTINUOUS
 10
3.8864405302
 20
-22.2263745815
 40
4.499844
  0
CIRCLE
  5
33D
100
AcDbEntity
  8
0
100
AcDbCircle
 62
253
  6
CONTINUOUS
 10
3.8864405302
 20
-22.2263745815
 40
4.499844
  0
ARC
  5
33E
100
AcDbEntity
  8
CURVE
100
AcDbCircle
 62
253
  6
CONTINUOUS
 10
3.8864405302
 20
-22.2263745815
 40
3.3699277185
100
AcDbArc
 50
142.1799962019
 51
229.6797913243
  0
ARC
  5
33F
100
AcDbEntity
  8
0
100
AcDbCircle
 62
253
  6
CONTINUOUS
 10
3.8864405302
 20
-22.2263745815
 40
3.3699277185
100
AcDbArc
 50
142.1799962019
 51
229.6797913243
  0
ARC
  5
340
100
AcDbEntity
  8
CURVE
100
AcDbCircle
 62
253
  6
CONTINUOUS
 10
3.8864405302
 20
-22.2263745815
 40
3.3699274432
100
AcDbArc
 50
310.3202086757
 51
37.8200037981
  0
ARC
  5
341
100
AcDbEntity
  8
0
100
AcDbCircle
 62
253
  6
CONTINUOUS
 10
3.8864405302
 20
-22.2263745815
 40
3.3699274432
100
AcDbArc
 50
310.3202086757
 51
37.8200037981
  0
ARC
  5
342
100
AcDbEntity
  8
CURVE
100
AcDbCircle
 62
253
  6
CONTINUOUS
 10
21.9174215302
 20
-22.2263745815
 40
3.1764698287
100
AcDbArc
 50
86.8152351968
 51
167.9752941132
  0
ARC
  5
343
100
AcDbEntity
  8
0
100
AcDbCircle
 62
253
  6
CONTINUOUS
 10
21.9174215302
 20
-22.2263745815
 40
3.1764698287
100
AcDbArc
 50
86.8152351968
 51
167.9752941132
  0
ARC
  5
344
100
AcDbEntity
  8
CURVE
100
AcDbCircle
 62
253
  6
CONTINUOUS
 10
14.1789935302
 20
-22.2263745815
 40
3.1764696621
100
AcDbArc
 50
86.815289226
 51
273.1847077678
  0
ARC
  5
345
100
AcDbEntity
  8
0
100
AcDbCircle
 62
253
  6
CONTINUOUS
 10
14.1789935302
 20
-22.2263745815
 40
3.1764696621
100
AcDbArc
 50
86.815289226
 51
273.1847077678
  0
ARC
  5
346
100
AcDbEntity
  8
CURVE
100
AcDbCircle
 62
253
  6
CONTINUOUS
 10
21.9174215302
 20
-22.2263745815
 40
3.1764654546
100
AcDbArc
 50
192.0247058868
 51
273.184815826
  0
ARC
  5
347
100
AcDbEntity
  8
0
100
AcDbCircle
 62
253
  6
CONTINUOUS
 10
21.9174215302
 20
-22.2263745815
 40
3.1764654546
100
AcDbArc
 50
192.0247058868
 51
273.184815826
  0
ARC
  5
348
100
AcDbEntity
  8
RACCORDO
100
AcDbCircle
 62
7
  6
CONTINUOUS
 10
-1.0935594698
 20
27.5736254185
 40
2.4
100
AcDbArc
 50
90.0
 51
180.0
  0
ARC
  5
349
100
AcDbEntity
  8
RACCORDO
100
AcDbCircle
 62
7
  6
CONTINUOUS
 10
22.0664405302
 20
27.5736254185
 40
2.4
100
AcDbArc
 50
0.0
 51
90.0
  0
ARC
  5
34A
100
AcDbEntity
  8
RACCORDO
100
AcDbCircle
 62
7
  6
CONTINUOUS
 10
22.0664405302
 20
-43.2263745815
 40
2.4
100
AcDbArc
 50
270.0
 51
360.0
  0
ARC
  5
34B
100
AcDbEntity
  8
RACCORDO
100
AcDbCircle
 62
7
  6
CONTINUOUS
 10
-1.0935594698
 20
-43.2263745815
 40
2.4
100
AcDbArc
 50
180.0
 51
270.0
  0
ARC
  5
34C
100
AcDbEntity
  8
ASSI
100
AcDbCircle
 62
7
  6
CONTINUOUS
 10
-1.0935594698
 20
27.5736254185
 40
2.4
100
AcDbArc
 50
90.0
 51
180.0
  0
ARC
  5
34D
100
AcDbEntity
  8
ASSI
100
AcDbCircle
 62
7
  6
CONTINUOUS
 10
22.0664405302
 20
27.5736254185
 40
2.4
100
AcDbArc
 50
0.0
 51
90.0
  0
ARC
  5
34E
100
AcDbEntity
  8
ASSI
100
AcDbCircle
 62
7
  6
CONTINUOUS
 10
22.0664405302
 20
-43.2263745815
 40
2.4
100
AcDbArc
 50
270.0
 51
360.0
  0
ARC
  5
34F
100
AcDbEntity
  8
ASSI
100
AcDbCircle
 62
7
  6
CONTINUOUS
 10
-1.0935594698
 20
-43.2263745815
 40
2.4
100
AcDbArc
 50
180.0
 51
270.0
  0
ARC
  5
350
100
AcDbEntity
  8
CURVE
100
AcDbCircle
 62
253
  6
CONTINUOUS
 10
4.9568885302
 20
-28.7085285815
 40
1.9823082595
100
AcDbArc
 50
43.6301208844
 51
90.0
  0
ARC
  5
351
100
AcDbEntity
  8
0
100
AcDbCircle
 62
253
  6
CONTINUOUS
 10
4.9568885302
 20
-28.7085285815
 40
1.9823082595
100
AcDbArc
 50
43.6301208844
 51
90.0
  0
SPLINE
  5
352
100
AcDbEntity
  8
0
100
AcDbSpline
 62
7
  6
CONTINUOUS
 70
0
 71
3
 72
9
 73
5
 74
3
 42
0.0000001
 43
0.0000001
 44
0.0000000001
 12
-0.4600022522
 22
0.4274175201
 32
0.0
 13
-0.4994660078
 23
0.3805542216
 33
0.0
 40
0.0
 40
0.0
 40
0.0
 40
0.0
 40
0.4853320296
 40
1.0
 40
1.0
 40
1.0
 40
1.0
 10
24.9534155866
 20
-0.9403762022
 30
0.0
 10
24.8789976443
 20
-0.8712297313
 30
0.0
 10
24.7183530346
 20
-0.7366895226
 30
0.0
 10
24.5521392996
 20
-0.6095115129
 30
0.0
 10
24.4664529141
 20
-0.5442251566
 30
0.0
 11
24.9534155866
 21
-0.9403762022
 31
0.0
 11
24.7217539036
 21
-0.7423705314
 31
0.0
 11
24.4664529141
 21
-0.5442251566
 31
0.0
  0
SPLINE
  5
353
100
AcDbEntity
  8
0
100
AcDbSpline
 62
7
  6
CONTINUOUS
 70
0
 71
3
 72
9
 73
5
 74
3
 42
0.0000001
 43
0.0000001
 44
0.0000000001
 12
0.4994660078
 22
0.3805542216
 32
0.0
 13
0.4600022522
 23
0.4274175201
 33
0.0
 40
0.0
 40
0.0
 40
0.0
 40
0.0
 40
0.5146679704
 40
1.0
 40
1.0
 40
1.0
 40
1.0
 10
24.4664529141
 20
1.6914759935
 30
0.0
 10
24.5521392996
 20
1.7567623498
 30
0.0
 10
24.7183530346
 20
1.8839403595
 30
0.0
 10
24.8789976443
 20
2.0184805682
 30
0.0
 10
24.9534155866
 20
2.0876270391
 30
0.0
 11
24.4664529141
 21
1.6914759935
 31
0.0
 11
24.7217539036
 21
1.8896213683
 31
0.0
 11
24.9534155866
 21
2.0876270391
 31
0.0
  0
SPLINE
  5
354
100
AcDbEntity
  8
0
100
AcDbSpline
 62
7
  6
CONTINUOUS
 70
0
 71
3
 72
9
 73
5
 74
3
 42
0.0000001
 43
0.0000001
 44
0.0000000001
 12
-0.4600022522
 22
0.4274175201
 32
0.0
 13
-0.4994660078
 23
0.3805542216
 33
0.0
 40
0.0
 40
0.0
 40
0.0
 40
0.0
 40
0.4853320296
 40
1.0
 40
1.0
 40
1.0
 40
1.0
 10
24.9534155866
 20
-15.6403762022
 30
0.0
 10
24.8789976443
 20
-15.5712297313
 30
0.0
 10
24.7183530346
 20
-15.4366895226
 30
0.0
 10
24.5521392996
 20
-15.3095115129
 30
0.0
 10
24.4664529141
 20
-15.2442251566
 30
0.0
 11
24.9534155866
 21
-15.6403762022
 31
0.0
 11
24.7217539036
 21
-15.4423705314
 31
0.0
 11
24.4664529141
 21
-15.2442251566
 31
0.0
  0
SPLINE
  5
355
100
AcDbEntity
  8
0
100
AcDbSpline
 62
7
  6
CONTINUOUS
 70
0
 71
3
 72
9
 73
5
 74
3
 42
0.0000001
 43
0.0000001
 44
0.0000000001
 12
0.4994660078
 22
0.3805542216
 32
0.0
 13
0.4600022522
 23
0.4274175201
 33
0.0
 40
0.0
 40
0.0
 40
0.0
 40
0.0
 40
0.5146679704
 40
1.0
 40
1.0
 40
1.0
 40
1.0
 10
24.4664529141
 20
-13.0085240065
 30
0.0
 10
24.5521392996
 20
-12.9432376502
 30
0.0
 10
24.7183530346
 20
-12.8160596405
 30
0.0
 10
24.8789976443
 20
-12.6815194318
 30
0.0
 10
24.9534155866
 20
-12.6123729609
 30
0.0
 11
24.4664529141
 21
-13.0085240065
 31
0.0
 11
24.7217539036
 21
-12.8103786317
 31
0.0
 11
24.9534155866
 21
-12.6123729609
 31
0.0
  0
SPLINE
  5
356
100
AcDbEntity
  8
ASSI
100
AcDbSpline
 62
7
  6
CONTINUOUS
 70
0
 71
3
 72
23
 73
19
 74
17
 42
0.0000001
 43
0.0000001
 44
0.0000000001
 12
5.5878424407
 22
0.0
 32
0.0
 13
-5.5878424407
 23
-0.0
 33
0.0
 40
0.0
 40
0.0
 40
0.0
 40
0.0
 40
0.0662186537
 40
0.1308992403
 40
0.1928676253
 40
0.2520070284
 40
0.3100920304
 40
0.3701262539
 40
0.4337139482
 40
0.4998402877
 40
0.5659700554
 40
0.6295860431
 40
0.6896647895
 40
0.7477906409
 40
0.8069786289
 40
0.8690017694
 40
0.9337355101
 40
1.0
 40
1.0
 40
1.0
 40
1.0
 10
22.0664405302
 20
-39.5675288547
 30
0.0
 10
22.1897803315
 20
-39.5675288547
 30
0.0
 10
22.4337540585
 20
-39.5781124153
 30
0.0
 10
22.7900816422
 20
-39.629257889
 30
0.0
 10
23.1241297262
 20
-39.7254438456
 30
0.0
 10
23.4222660853
 20
-39.8829286921
 30
0.0
 10
23.6631424905
 20
-40.1160388135
 30
0.0
 10
23.8281914483
 20
-40.416460288
 30
0.0
 10
23.9203519044
 20
-40.7602404584
 30
0.0
 10
23.9498561352
 20
-41.1254805535
 30
0.0
 10
23.9206259015
 20
-41.4907921144
 30
0.0
 10
23.8287823368
 20
-41.8347980289
 30
0.0
 10
23.6639993473
 20
-42.1356066033
 30
0.0
 10
23.4232092664
 20
-42.3691819582
 30
0.0
 10
23.1249366546
 20
-42.5270195934
 30
0.0
 10
22.7906317748
 20
-42.6233941738
 30
0.0
 10
22.4340237062
 20
-42.6746140428
 30
0.0
 10
22.1898657065
 20
-42.6852203084
 30
0.0
 10
22.0664405302
 20
-42.6852203084
 30
0.0
 11
22.0664405302
 21
-39.5675288547
 31
0.0
 11
22.4360745827
 21
-39.5844115793
 31
0.0
 11
22.7934566819
 21
-39.6383190274
 31
0.0
 11
23.1249601214
 21
-39.7383594469
 31
0.0
 11
23.4149241828
 21
-39.8968705073
 31
0.0
 11
23.6476238752
 21
-40.1231367965
 31
0.0
 11
23.8126423691
 21
-40.4152044328
 31
0.0
 11
23.9086749435
 21
-40.757298919
 31
0.0
 11
23.9399407906
 21
-41.1254773164
 31
0.0
 11
23.9089728088
 21
-41.4937001115
 31
0.0
 11
23.8132490127
 21
-41.8360452938
 31
0.0
 11
23.6484550927
 21
-42.1285252933
 31
0.0
 11
23.4158436976
 21
-42.3552095325
 31
0.0
 11
23.1257597339
 21
-42.5140670506
 31
0.0
 11
22.7939987508
 21
-42.6143130129
 31
0.0
 11
22.4363296847
 21
-42.6683093426
 31
0.0
 11
22.0664405302
 21
-42.6852203084
 31
0.0
  0
SPLINE
  5
357
100
AcDbEntity
  8
ASSI
100
AcDbSpline
 62
7
  6
CONTINUOUS
 70
0
 71
3
 72
23
 73
19
 74
17
 42
0.0000001
 43
0.0000001
 44
0.0000000001
 12
5.5878125505
 22
0.0
 32
0.0
 13
-5.5878125505
 23
-0.0
 33
0.0
 40
0.0
 40
0.0
 40
0.0
 40
0.0
 40
0.0662202789
 40
0.1309022785
 40
0.1928724594
 40
0.2520147877
 40
0.3101047042
 40
0.3701478836
 40
0.4337459212
 40
0.4998814787
 40
0.5660231741
 40
0.6296453636
 40
0.6897242698
 40
0.7478483121
 40
0.8070219761
 40
0.8690296294
 40
0.9337468659
 40
1.0
 40
1.0
 40
1.0
 40
1.0
 10
22.0664405302
 20
27.0324711453
 30
0.0
 10
22.1897826987
 20
27.0324711453
 30
0.0
 10
22.4337608556
 20
27.0218876016
 30
0.0
 10
22.7900951536
 20
26.9707402754
 30
0.0
 10
23.1241527182
 20
26.8745491038
 30
0.0
 10
23.4222956692
 20
26.7170431641
 30
0.0
 10
23.6631912247
 20
26.4839072948
 30
0.0
 10
23.828222799
 20
26.1834239748
 30
0.0
 10
23.920368758
 20
25.8395890234
 30
0.0
 10
23.9498692126
 20
25.4742918926
 30
0.0
 10
23.9206152453
 20
25.1089307074
 30
0.0
 10
23.8286632677
 20
24.7649110219
 30
0.0
 10
23.6637375473
 20
24.4641797894
 30
0.0
 10
23.4229502844
 20
24.2306553387
 30
0.0
 10
23.1246999408
 20
24.0729031875
 30
0.0
 10
22.7904763718
 20
23.9765775208
 30
0.0
 10
22.4339485925
 20
23.9253791805
 30
0.0
 10
22.189843895
 20
23.9147796916
 30
0.0
 10
22.0664405302
 20
23.9147796916
 30
0.0
 11
22.0664405302
 21
27.0324711453
 31
0.0
 11
22.436081677
 21
27.0155880975
 31
0.0
 11
22.793469529
 21
26.9616788126
 31
0.0
 11
23.1249795728
 21
26.8616319529
 31
0.0
 11
23.4149510635
 21
26.7031040919
 31
0.0
 11
23.647660894
 21
26.4768113277
 31
0.0
 11
23.8126734396
 21
26.1846849148
 31
0.0
 11
23.9086942011
 21
25.8425290568
 31
0.0
 11
23.9399504021
 21
25.4743001304
 31
0.0
 11
23.908944254
 21
25.1060156454
 31
0.0
 11
23.813115395
 21
24.7636658453
 31
0.0
 11
23.648209783
 21
24.4712498419
 31
0.0
 11
23.4155653691
 21
24.2446164663
 31
0.0
 11
23.1255270734
 21
24.0858458864
 31
0.0
 11
22.7938422719
 21
23.9856534062
 31
0.0
 11
22.4362645382
 21
23.9316828562
 31
0.0
 11
22.0664405302
 21
23.9147796916
 31
0.0
  0
SPLINE
  5
358
100
AcDbEntity
  8
ASSI
100
AcDbSpline
 62
7
  6
CONTINUOUS
 70
0
 71
3
 72
23
 73
19
 74
17
 42
0.0000001
 43
0.0000001
 44
0.0000000001
 12
5.5878125505
 22
0.0
 32
0.0
 13
-5.5878125505
 23
0.0
 33
0.0
 40
0.0
 40
0.0
 40
0.0
 40
0.0
 40
0.0662202789
 40
0.1309022785
 40
0.1928724594
 40
0.2520147877
 40
0.3101047042
 40
0.3701478836
 40
0.4337459212
 40
0.4998814787
 40
0.5660231741
 40
0.6296453636
 40
0.6897242698
 40
0.7478483121
 40
0.8070219761
 40
0.8690296294
 40
0.9337468659
 40
1.0
 40
1.0
 40
1.0
 40
1.0
 10
22.0664405302
 20
21.6324711453
 30
0.0
 10
22.1897826987
 20
21.6324711453
 30
0.0
 10
22.4337608556
 20
21.6218876016
 30
0.0
 10
22.7900951536
 20
21.5707402754
 30
0.0
 10
23.1241527182
 20
21.4745491038
 30
0.0
 10
23.4222956692
 20
21.3170431641
 30
0.0
 10
23.6631912247
 20
21.0839072948
 30
0.0
 10
23.828222799
 20
20.7834239748
 30
0.0
 10
23.920368758
 20
20.4395890234
 30
0.0
 10
23.9498692126
 20
20.0742918926
 30
0.0
 10
23.9206152453
 20
19.7089307074
 30
0.0
 10
23.8286632677
 20
19.3649110219
 30
0.0
 10
23.6637375473
 20
19.0641797894
 30
0.0
 10
23.4229502844
 20
18.8306553387
 30
0.0
 10
23.1246999408
 20
18.6729031875
 30
0.0
 10
22.7904763718
 20
18.5765775208
 30
0.0
 10
22.4339485925
 20
18.5253791805
 30
0.0
 10
22.189843895
 20
18.5147796916
 30
0.0
 10
22.0664405302
 20
18.5147796916
 30
0.0
 11
22.0664405302
 21
21.6324711453
 31
0.0
 11
22.436081677
 21
21.6155880975
 31
0.0
 11
22.793469529
 21
21.5616788126
 31
0.0
 11
23.1249795728
 21
21.4616319529
 31
0.0
 11
23.4149510635
 21
21.3031040919
 31
0.0
 11
23.647660894
 21
21.0768113277
 31
0.0
 11
23.8126734396
 21
20.7846849148
 31
0.0
 11
23.9086942011
 21
20.4425290568
 31
0.0
 11
23.9399504021
 21
20.0743001304
 31
0.0
 11
23.908944254
 21
19.7060156454
 31
0.0
 11
23.813115395
 21
19.3636658453
 31
0.0
 11
23.648209783
 21
19.0712498419
 31
0.0
 11
23.4155653691
 21
18.8446164663
 31
0.0
 11
23.1255270734
 21
18.6858458864
 31
0.0
 11
22.7938422719
 21
18.5856534062
 31
0.0
 11
22.4362645382
 21
18.5316828562
 31
0.0
 11
22.0664405302
 21
18.5147796916
 31
0.0
  0
SPLINE
  5
359
100
AcDbEntity
  8
ASSI
100
AcDbSpline
 62
7
  6
CONTINUOUS
 70
0
 71
3
 72
23
 73
19
 74
17
 42
0.0000001
 43
0.0000001
 44
0.0000000001
 12
5.5878125505
 22
0.0
 32
0.0
 13
-5.5878125505
 23
0.0
 33
0.0
 40
0.0
 40
0.0
 40
0.0
 40
0.0
 40
0.0662202789
 40
0.1309022785
 40
0.1928724594
 40
0.2520147877
 40
0.3101047042
 40
0.3701478836
 40
0.4337459212
 40
0.4998814787
 40
0.5660231741
 40
0.6296453636
 40
0.6897242698
 40
0.7478483121
 40
0.8070219761
 40
0.8690296294
 40
0.9337468659
 40
1.0
 40
1.0
 40
1.0
 40
1.0
 10
22.0664405302
 20
16.2324711453
 30
0.0
 10
22.1897826987
 20
16.2324711453
 30
0.0
 10
22.4337608556
 20
16.2218876016
 30
0.0
 10
22.7900951536
 20
16.1707402754
 30
0.0
 10
23.1241527182
 20
16.0745491038
 30
0.0
 10
23.4222956692
 20
15.9170431641
 30
0.0
 10
23.6631912247
 20
15.6839072948
 30
0.0
 10
23.828222799
 20
15.3834239748
 30
0.0
 10
23.920368758
 20
15.0395890234
 30
0.0
 10
23.9498692126
 20
14.6742918926
 30
0.0
 10
23.9206152453
 20
14.3089307074
 30
0.0
 10
23.8286632677
 20
13.9649110219
 30
0.0
 10
23.6637375473
 20
13.6641797894
 30
0.0
 10
23.4229502844
 20
13.4306553387
 30
0.0
 10
23.1246999408
 20
13.2729031875
 30
0.0
 10
22.7904763718
 20
13.1765775208
 30
0.0
 10
22.4339485925
 20
13.1253791805
 30
0.0
 10
22.189843895
 20
13.1147796916
 30
0.0
 10
22.0664405302
 20
13.1147796916
 30
0.0
 11
22.0664405302
 21
16.2324711453
 31
0.0
 11
22.436081677
 21
16.2155880975
 31
0.0
 11
22.793469529
 21
16.1616788126
 31
0.0
 11
23.1249795728
 21
16.0616319529
 31
0.0
 11
23.4149510635
 21
15.9031040919
 31
0.0
 11
23.647660894
 21
15.6768113277
 31
0.0
 11
23.8126734396
 21
15.3846849148
 31
0.0
 11
23.9086942011
 21
15.0425290568
 31
0.0
 11
23.9399504021
 21
14.6743001304
 31
0.0
 11
23.908944254
 21
14.3060156454
 31
0.0
 11
23.813115395
 21
13.9636658453
 31
0.0
 11
23.648209783
 21
13.6712498419
 31
0.0
 11
23.4155653691
 21
13.4446164663
 31
0.0
 11
23.1255270734
 21
13.2858458864
 31
0.0
 11
22.7938422719
 21
13.1856534062
 31
0.0
 11
22.4362645382
 21
13.1316828562
 31
0.0
 11
22.0664405302
 21
13.1147796916
 31
0.0
  0
SPLINE
  5
35A
100
AcDbEntity
  8
ASSI
100
AcDbSpline
 62
7
  6
CONTINUOUS
 70
0
 71
3
 72
23
 73
19
 74
17
 42
0.0000001
 43
0.0000001
 44
0.0000000001
 12
-5.5878377619
 22
0.0
 32
0.0
 13
5.5878377619
 23
0.0
 33
0.0
 40
0.0
 40
0.0
 40
0.0
 40
0.0
 40
0.0662196944
 40
0.1309012126
 40
0.1928705076
 40
0.2520111359
 40
0.3100987159
 40
0.3701378712
 40
0.4337300035
 40
0.4998609002
 40
0.5659953403
 40
0.6296061817
 40
0.6896808613
 40
0.7478045866
 40
0.8069882722
 40
0.8690077861
 40
0.9337377913
 40
1.0
 40
1.0
 40
1.0
 40
1.0
 10
-1.0935594698
 20
18.5147796916
 30
0.0
 10
-1.216901106
 20
18.5147796916
 30
0.0
 10
-1.4608783403
 20
18.5253633882
 30
0.0
 10
-1.8172107608
 20
18.5765104373
 30
0.0
 10
-2.1512639757
 20
18.6726998032
 30
0.0
 10
-2.4494041016
 20
18.8301952225
 30
0.0
 10
-2.6902912741
 20
19.0633182247
 30
0.0
 10
-2.8553352447
 20
19.3637697156
 30
0.0
 10
-2.9474786068
 20
19.7075803721
 30
0.0
 10
-2.9769759813
 20
20.0728459574
 30
0.0
 10
-2.9477321769
 20
20.4381640022
 30
0.0
 10
-2.8558667637
 20
20.7821577111
 30
0.0
 10
-2.6910457848
 20
21.0829193009
 30
0.0
 10
-2.4502644382
 20
21.3164711228
 30
0.0
 10
-2.1520012655
 20
21.4742865659
 30
0.0
 10
-1.817717068
 20
21.5706500769
 30
0.0
 10
-1.4611268863
 20
21.6218664832
 30
0.0
 10
-1.2169802938
 20
21.6324711453
 30
0.0
 10
-1.0935594698
 20
21.6324711453
 30
0.0
 11
-1.0935594698
 21
18.5147796916
 31
0.0
 11
-1.4631990151
 21
18.5316628086
 31
0.0
 11
-1.8205858255
 21
18.5855718967
 31
0.0
 11
-2.1520930929
 21
18.6856162306
 31
0.0
 11
-2.4420603356
 21
18.8441351676
 31
0.0
 11
-2.6747668361
 21
19.070414729
 31
0.0
 11
-2.8397847087
 21
19.3625140453
 31
0.0
 11
-2.935803674
 21
19.7046378
 31
0.0
 11
-2.9670592619
 21
20.0728423148
 31
0.0
 11
-2.9360737774
 21
20.4410895273
 31
0.0
 11
-2.8403301798
 21
20.7833990031
 31
0.0
 11
-2.6755110714
 21
21.0758384012
 31
0.0
 11
-2.4428958351
 21
21.3025012858
 31
0.0
 11
-2.1528270242
 21
21.4613358449
 31
0.0
 11
-1.8210839994
 21
21.5615701755
 31
0.0
 11
-1.4634356229
 21
21.6155616913
 31
0.0
 11
-1.0935594698
 21
21.6324711453
 31
0.0
  0
SPLINE
  5
35B
100
AcDbEntity
  8
ASSI
100
AcDbSpline
 62
7
  6
CONTINUOUS
 70
0
 71
3
 72
23
 73
19
 74
17
 42
0.0000001
 43
0.0000001
 44
0.0000000001
 12
-5.5878020583
 22
0.0
 32
0.0
 13
5.5878020583
 23
-0.0
 33
0.0
 40
0.0
 40
0.0
 40
0.0
 40
0.0
 40
0.0662070753
 40
0.1308767166
 40
0.1928361926
 40
0.2519693572
 40
0.3100509094
 40
0.3700842159
 40
0.4336706944
 40
0.4997989569
 40
0.5659351153
 40
0.6295474655
 40
0.6896216646
 40
0.7477543428
 40
0.8069554042
 40
0.8689890106
 40
0.9337357729
 40
1.0
 40
1.0
 40
1.0
 40
1.0
 10
-1.0935594698
 20
23.9147796916
 30
0.0
 10
-1.2168768136
 20
23.9147796916
 30
0.0
 10
-1.4608067783
 20
23.9253590201
 30
0.0
 10
-1.8170747805
 20
23.9764843411
 30
0.0
 10
-2.1510801195
 20
24.0726321752
 30
0.0
 10
-2.449198612
 20
24.2300639302
 30
0.0
 10
-2.6901082856
 20
24.463109352
 30
0.0
 10
-2.8551792941
 20
24.7635032806
 30
0.0
 10
-2.9474311057
 20
25.1072532289
 30
0.0
 10
-2.9770048972
 20
25.4724999217
 30
0.0
 10
-2.9478219258
 20
25.8378266755
 30
0.0
 10
-2.8559305351
 20
26.1818132197
 30
0.0
 10
-2.6912013443
 20
26.4826343744
 30
0.0
 10
-2.4504633915
 20
26.7163001815
 30
0.0
 10
-2.1521800969
 20
26.8742427429
 30
0.0
 10
-1.817814839
 20
26.970660559
 30
0.0
 10
-1.461162332
 20
27.0218581651
 30
0.0
 10
-1.2169832647
 20
27.0324711453
 30
0.0
 10
-1.0935594698
 20
27.0324711453
 30
0.0
 11
-1.0935594698
 21
23.9147796916
 31
0.0
 11
-1.4631263923
 21
23.9316555722
 31
0.0
 11
-1.8204473339
 21
23.9855409057
 31
0.0
 11
-2.1519080699
 21
24.0855418579
 31
0.0
 11
-2.4418591616
 21
24.243998985
 31
0.0
 11
-2.6745833368
 21
24.470209072
 31
0.0
 11
-2.83963982
 21
24.7622465696
 31
0.0
 11
-2.9357477283
 21
25.1043101756
 31
0.0
 11
-2.9670854564
 21
25.472490566
 31
0.0
 11
-2.9361491121
 21
25.8407491764
 31
0.0
 11
-2.8404143805
 21
26.1830675277
 31
0.0
 11
-2.6756740402
 21
26.4755457625
 31
0.0
 11
-2.443099836
 21
26.7023194412
 31
0.0
 11
-2.1529916607
 21
26.8612798428
 31
0.0
 11
-1.8211849883
 21
26.9615681179
 31
0.0
 11
-1.4634445366
 21
27.0155615144
 31
0.0
 11
-1.0935594698
 21
27.0324711453
 31
0.0
  0
SPLINE
  5
35C
100
AcDbEntity
  8
ASSI
100
AcDbSpline
 62
7
  6
CONTINUOUS
 70
0
 71
3
 72
23
 73
19
 74
17
 42
0.0000001
 43
0.0000001
 44
0.0000000001
 12
-5.5878377619
 22
0.0
 32
0.0
 13
5.5878377619
 23
-0.0
 33
0.0
 40
0.0
 40
0.0
 40
0.0
 40
0.0
 40
0.0662196944
 40
0.1309012126
 40
0.1928705076
 40
0.2520111359
 40
0.3100987159
 40
0.3701378712
 40
0.4337300035
 40
0.4998609002
 40
0.5659953403
 40
0.6296061817
 40
0.6896808613
 40
0.7478045866
 40
0.8069882722
 40
0.8690077861
 40
0.9337377913
 40
1.0
 40
1.0
 40
1.0
 40
1.0
 10
-1.0935594698
 20
-42.6852203084
 30
0.0
 10
-1.216901106
 20
-42.6852203084
 30
0.0
 10
-1.4608783403
 20
-42.6746366118
 30
0.0
 10
-1.8172107608
 20
-42.6234895627
 30
0.0
 10
-2.1512639757
 20
-42.5273001968
 30
0.0
 10
-2.4494041016
 20
-42.3698047775
 30
0.0
 10
-2.6902912741
 20
-42.1366817753
 30
0.0
 10
-2.8553352447
 20
-41.8362302844
 30
0.0
 10
-2.9474786068
 20
-41.4924196279
 30
0.0
 10
-2.9769759813
 20
-41.1271540426
 30
0.0
 10
-2.9477321769
 20
-40.7618359978
 30
0.0
 10
-2.8558667637
 20
-40.4178422889
 30
0.0
 10
-2.6910457848
 20
-40.1170806991
 30
0.0
 10
-2.4502644382
 20
-39.8835288772
 30
0.0
 10
-2.1520012655
 20
-39.7257134341
 30
0.0
 10
-1.817717068
 20
-39.6293499231
 30
0.0
 10
-1.4611268863
 20
-39.5781335168
 30
0.0
 10
-1.2169802938
 20
-39.5675288547
 30
0.0
 10
-1.0935594698
 20
-39.5675288547
 30
0.0
 11
-1.0935594698
 21
-42.6852203084
 31
0.0
 11
-1.4631990151
 21
-42.6683371914
 31
0.0
 11
-1.8205858255
 21
-42.6144281033
 31
0.0
 11
-2.1520930929
 21
-42.5143837694
 31
0.0
 11
-2.4420603356
 21
-42.3558648324
 31
0.0
 11
-2.6747668361
 21
-42.129585271
 31
0.0
 11
-2.8397847087
 21
-41.8374859547
 31
0.0
 11
-2.935803674
 21
-41.4953622
 31
0.0
 11
-2.9670592619
 21
-41.1271576852
 31
0.0
 11
-2.9360737774
 21
-40.7589104727
 31
0.0
 11
-2.8403301798
 21
-40.4166009969
 31
0.0
 11
-2.6755110714
 21
-40.1241615988
 31
0.0
 11
-2.4428958351
 21
-39.8974987142
 31
0.0
 11
-2.1528270242
 21
-39.7386641551
 31
0.0
 11
-1.8210839994
 21
-39.6384298245
 31
0.0
 11
-1.4634356229
 21
-39.5844383087
 31
0.0
 11
-1.0935594698
 21
-39.5675288547
 31
0.0
  0
SPLINE
  5
35D
100
AcDbEntity
  8
ASSI
100
AcDbSpline
 62
7
  6
CONTINUOUS
 70
0
 71
3
 72
23
 73
19
 74
17
 42
0.0000001
 43
0.0000001
 44
0.0000000001
 12
-5.5878377619
 22
0.0
 32
0.0
 13
5.5878377619
 23
0.0
 33
0.0
 40
0.0
 40
0.0
 40
0.0
 40
0.0
 40
0.0662196944
 40
0.1309012126
 40
0.1928705076
 40
0.2520111359
 40
0.3100987159
 40
0.3701378712
 40
0.4337300035
 40
0.4998609002
 40
0.5659953403
 40
0.6296061817
 40
0.6896808613
 40
0.7478045866
 40
0.8069882722
 40
0.8690077861
 40
0.9337377913
 40
1.0
 40
1.0
 40
1.0
 40
1.0
 10
-1.0935594698
 20
-37.2852203084
 30
0.0
 10
-1.216901106
 20
-37.2852203084
 30
0.0
 10
-1.4608783403
 20
-37.2746366118
 30
0.0
 10
-1.8172107608
 20
-37.2234895627
 30
0.0
 10
-2.1512639757
 20
-37.1273001968
 30
0.0
 10
-2.4494041016
 20
-36.9698047775
 30
0.0
 10
-2.6902912741
 20
-36.7366817753
 30
0.0
 10
-2.8553352447
 20
-36.4362302844
 30
0.0
 10
-2.9474786068
 20
-36.0924196279
 30
0.0
 10
-2.9769759813
 20
-35.7271540426
 30
0.0
 10
-2.9477321769
 20
-35.3618359978
 30
0.0
 10
-2.8558667637
 20
-35.0178422889
 30
0.0
 10
-2.6910457848
 20
-34.7170806991
 30
0.0
 10
-2.4502644382
 20
-34.4835288772
 30
0.0
 10
-2.1520012655
 20
-34.3257134341
 30
0.0
 10
-1.817717068
 20
-34.2293499231
 30
0.0
 10
-1.4611268863
 20
-34.1781335168
 30
0.0
 10
-1.2169802938
 20
-34.1675288547
 30
0.0
 10
-1.0935594698
 20
-34.1675288547
 30
0.0
 11
-1.0935594698
 21
-37.2852203084
 31
0.0
 11
-1.4631990151
 21
-37.2683371914
 31
0.0
 11
-1.8205858255
 21
-37.2144281033
 31
0.0
 11
-2.1520930929
 21
-37.1143837694
 31
0.0
 11
-2.4420603356
 21
-36.9558648324
 31
0.0
 11
-2.6747668361
 21
-36.729585271
 31
0.0
 11
-2.8397847087
 21
-36.4374859547
 31
0.0
 11
-2.935803674
 21
-36.0953622
 31
0.0
 11
-2.9670592619
 21
-35.7271576852
 31
0.0
 11
-2.9360737774
 21
-35.3589104727
 31
0.0
 11
-2.8403301798
 21
-35.0166009969
 31
0.0
 11
-2.6755110714
 21
-34.7241615988
 31
0.0
 11
-2.4428958351
 21
-34.4974987142
 31
0.0
 11
-2.1528270242
 21
-34.3386641551
 31
0.0
 11
-1.8210839994
 21
-34.2384298245
 31
0.0
 11
-1.4634356229
 21
-34.1844383087
 31
0.0
 11
-1.0935594698
 21
-34.1675288547
 31
0.0
  0
SPLINE
  5
35E
100
AcDbEntity
  8
ASSI
100
AcDbSpline
 62
7
  6
CONTINUOUS
 70
0
 71
3
 72
23
 73
19
 74
17
 42
0.0000001
 43
0.0000001
 44
0.0000000001
 12
-5.5878377619
 22
0.0
 32
0.0
 13
5.5878377619
 23
-0.0
 33
0.0
 40
0.0
 40
0.0
 40
0.0
 40
0.0
 40
0.0662196944
 40
0.1309012126
 40
0.1928705076
 40
0.2520111359
 40
0.3100987159
 40
0.3701378712
 40
0.4337300035
 40
0.4998609002
 40
0.5659953403
 40
0.6296061817
 40
0.6896808613
 40
0.7478045866
 40
0.8069882722
 40
0.8690077861
 40
0.9337377913
 40
1.0
 40
1.0
 40
1.0
 40
1.0
 10
-1.0935594698
 20
-31.8852203084
 30
0.0
 10
-1.216901106
 20
-31.8852203084
 30
0.0
 10
-1.4608783403
 20
-31.8746366118
 30
0.0
 10
-1.8172107608
 20
-31.8234895627
 30
0.0
 10
-2.1512639757
 20
-31.7273001968
 30
0.0
 10
-2.4494041016
 20
-31.5698047775
 30
0.0
 10
-2.6902912741
 20
-31.3366817753
 30
0.0
 10
-2.8553352447
 20
-31.0362302844
 30
0.0
 10
-2.9474786068
 20
-30.6924196279
 30
0.0
 10
-2.9769759813
 20
-30.3271540426
 30
0.0
 10
-2.9477321769
 20
-29.9618359978
 30
0.0
 10
-2.8558667637
 20
-29.6178422889
 30
0.0
 10
-2.6910457848
 20
-29.3170806991
 30
0.0
 10
-2.4502644382
 20
-29.0835288772
 30
0.0
 10
-2.1520012655
 20
-28.9257134341
 30
0.0
 10
-1.817717068
 20
-28.8293499231
 30
0.0
 10
-1.4611268863
 20
-28.7781335168
 30
0.0
 10
-1.2169802938
 20
-28.7675288547
 30
0.0
 10
-1.0935594698
 20
-28.7675288547
 30
0.0
 11
-1.0935594698
 21
-31.8852203084
 31
0.0
 11
-1.4631990151
 21
-31.8683371914
 31
0.0
 11
-1.8205858255
 21
-31.8144281033
 31
0.0
 11
-2.1520930929
 21
-31.7143837694
 31
0.0
 11
-2.4420603356
 21
-31.5558648324
 31
0.0
 11
-2.6747668361
 21
-31.329585271
 31
0.0
 11
-2.8397847087
 21
-31.0374859547
 31
0.0
 11
-2.935803674
 21
-30.6953622
 31
0.0
 11
-2.9670592619
 21
-30.3271576852
 31
0.0
 11
-2.9360737774
 21
-29.9589104727
 31
0.0
 11
-2.8403301798
 21
-29.6166009969
 31
0.0
 11
-2.6755110714
 21
-29.3241615988
 31
0.0
 11
-2.4428958351
 21
-29.0974987142
 31
0.0
 11
-2.1528270242
 21
-28.9386641551
 31
0.0
 11
-1.8210839994
 21
-28.8384298245
 31
0.0
 11
-1.4634356229
 21
-28.7844383087
 31
0.0
 11
-1.0935594698
 21
-28.7675288547
 31
0.0
  0
SPLINE
  5
35F
100
AcDbEntity
  8
ASSI
100
AcDbSpline
 62
7
  6
CONTINUOUS
 70
0
 71
3
 72
23
 73
19
 74
17
 42
0.0000001
 43
0.0000001
 44
0.0000000001
 12
-5.5878377619
 22
0.0
 32
0.0
 13
5.5878377619
 23
-0.0
 33
0.0
 40
0.0
 40
0.0
 40
0.0
 40
0.0
 40
0.0662196944
 40
0.1309012126
 40
0.1928705076
 40
0.2520111359
 40
0.3100987159
 40
0.3701378712
 40
0.4337300035
 40
0.4998609002
 40
0.5659953403
 40
0.6296061817
 40
0.6896808613
 40
0.7478045866
 40
0.8069882722
 40
0.8690077861
 40
0.9337377913
 40
1.0
 40
1.0
 40
1.0
 40
1.0
 10
-1.0935594698
 20
13.1147796916
 30
0.0
 10
-1.216901106
 20
13.1147796916
 30
0.0
 10
-1.4608783403
 20
13.1253633882
 30
0.0
 10
-1.8172107608
 20
13.1765104373
 30
0.0
 10
-2.1512639757
 20
13.2726998032
 30
0.0
 10
-2.4494041016
 20
13.4301952225
 30
0.0
 10
-2.6902912741
 20
13.6633182247
 30
0.0
 10
-2.8553352447
 20
13.9637697156
 30
0.0
 10
-2.9474786068
 20
14.3075803721
 30
0.0
 10
-2.9769759813
 20
14.6728459574
 30
0.0
 10
-2.9477321769
 20
15.0381640022
 30
0.0
 10
-2.8558667637
 20
15.3821577111
 30
0.0
 10
-2.6910457848
 20
15.6829193009
 30
0.0
 10
-2.4502644382
 20
15.9164711228
 30
0.0
 10
-2.1520012655
 20
16.0742865659
 30
0.0
 10
-1.817717068
 20
16.1706500769
 30
0.0
 10
-1.4611268863
 20
16.2218664832
 30
0.0
 10
-1.2169802938
 20
16.2324711453
 30
0.0
 10
-1.0935594698
 20
16.2324711453
 30
0.0
 11
-1.0935594698
 21
13.1147796916
 31
0.0
 11
-1.4631990151
 21
13.1316628086
 31
0.0
 11
-1.8205858255
 21
13.1855718967
 31
0.0
 11
-2.1520930929
 21
13.2856162306
 31
0.0
 11
-2.4420603356
 21
13.4441351676
 31
0.0
 11
-2.6747668361
 21
13.670414729
 31
0.0
 11
-2.8397847087
 21
13.9625140453
 31
0.0
 11
-2.935803674
 21
14.3046378
 31
0.0
 11
-2.9670592619
 21
14.6728423148
 31
0.0
 11
-2.9360737774
 21
15.0410895273
 31
0.0
 11
-2.8403301798
 21
15.3833990031
 31
0.0
 11
-2.6755110714
 21
15.6758384012
 31
0.0
 11
-2.4428958351
 21
15.9025012858
 31
0.0
 11
-2.1528270242
 21
16.0613358449
 31
0.0
 11
-1.8210839994
 21
16.1615701755
 31
0.0
 11
-1.4634356229
 21
16.2155616913
 31
0.0
 11
-1.0935594698
 21
16.2324711453
 31
0.0
  0
SPLINE
  5
360
100
AcDbEntity
  8
ASSI
100
AcDbSpline
 62
7
  6
CONTINUOUS
 70
0
 71
3
 72
23
 73
19
 74
17
 42
0.0000001
 43
0.0000001
 44
0.0000000001
 12
5.5878125505
 22
0.0
 32
0.0
 13
-5.5878125505
 23
0.0
 33
0.0
 40
0.0
 40
0.0
 40
0.0
 40
0.0
 40
0.0662202789
 40
0.1309022785
 40
0.1928724594
 40
0.2520147877
 40
0.3101047042
 40
0.3701478836
 40
0.4337459212
 40
0.4998814787
 40
0.5660231741
 40
0.6296453636
 40
0.6897242698
 40
0.7478483121
 40
0.8070219761
 40
0.8690296294
 40
0.9337468659
 40
1.0
 40
1.0
 40
1.0
 40
1.0
 10
22.0664405302
 20
-28.7675288547
 30
0.0
 10
22.1897826987
 20
-28.7675288547
 30
0.0
 10
22.4337608556
 20
-28.7781123984
 30
0.0
 10
22.7900951536
 20
-28.8292597246
 30
0.0
 10
23.1241527182
 20
-28.9254508962
 30
0.0
 10
23.4222956692
 20
-29.0829568359
 30
0.0
 10
23.6631912247
 20
-29.3160927052
 30
0.0
 10
23.828222799
 20
-29.6165760252
 30
0.0
 10
23.920368758
 20
-29.9604109766
 30
0.0
 10
23.9498692126
 20
-30.3257081074
 30
0.0
 10
23.9206152453
 20
-30.6910692926
 30
0.0
 10
23.8286632677
 20
-31.0350889781
 30
0.0
 10
23.6637375473
 20
-31.3358202106
 30
0.0
 10
23.4229502844
 20
-31.5693446613
 30
0.0
 10
23.1246999408
 20
-31.7270968125
 30
0.0
 10
22.7904763718
 20
-31.8234224792
 30
0.0
 10
22.4339485925
 20
-31.8746208195
 30
0.0
 10
22.189843895
 20
-31.8852203084
 30
0.0
 10
22.0664405302
 20
-31.8852203084
 30
0.0
 11
22.0664405302
 21
-28.7675288547
 31
0.0
 11
22.436081677
 21
-28.7844119025
 31
0.0
 11
22.793469529
 21
-28.8383211874
 31
0.0
 11
23.1249795728
 21
-28.9383680471
 31
0.0
 11
23.4149510635
 21
-29.0968959081
 31
0.0
 11
23.647660894
 21
-29.3231886723
 31
0.0
 11
23.8126734396
 21
-29.6153150852
 31
0.0
 11
23.9086942011
 21
-29.9574709432
 31
0.0
 11
23.9399504021
 21
-30.3256998696
 31
0.0
 11
23.908944254
 21
-30.6939843546
 31
0.0
 11
23.813115395
 21
-31.0363341547
 31
0.0
 11
23.648209783
 21
-31.3287501581
 31
0.0
 11
23.4155653691
 21
-31.5553835337
 31
0.0
 11
23.1255270734
 21
-31.7141541136
 31
0.0
 11
22.7938422719
 21
-31.8143465938
 31
0.0
 11
22.4362645382
 21
-31.8683171438
 31
0.0
 11
22.0664405302
 21
-31.8852203084
 31
0.0
  0
SPLINE
  5
361
100
AcDbEntity
  8
ASSI
100
AcDbSpline
 62
7
  6
CONTINUOUS
 70
0
 71
3
 72
23
 73
19
 74
17
 42
0.0000001
 43
0.0000001
 44
0.0000000001
 12
5.5878125505
 22
0.0
 32
0.0
 13
-5.5878125505
 23
0.0
 33
0.0
 40
0.0
 40
0.0
 40
0.0
 40
0.0
 40
0.0662202789
 40
0.1309022785
 40
0.1928724594
 40
0.2520147877
 40
0.3101047042
 40
0.3701478836
 40
0.4337459212
 40
0.4998814787
 40
0.5660231741
 40
0.6296453636
 40
0.6897242698
 40
0.7478483121
 40
0.8070219761
 40
0.8690296294
 40
0.9337468659
 40
1.0
 40
1.0
 40
1.0
 40
1.0
 10
22.0664405302
 20
-34.1675288547
 30
0.0
 10
22.1897826987
 20
-34.1675288547
 30
0.0
 10
22.4337608556
 20
-34.1781123984
 30
0.0
 10
22.7900951536
 20
-34.2292597246
 30
0.0
 10
23.1241527182
 20
-34.3254508962
 30
0.0
 10
23.4222956692
 20
-34.4829568359
 30
0.0
 10
23.6631912247
 20
-34.7160927052
 30
0.0
 10
23.828222799
 20
-35.0165760252
 30
0.0
 10
23.920368758
 20
-35.3604109766
 30
0.0
 10
23.9498692126
 20
-35.7257081074
 30
0.0
 10
23.9206152453
 20
-36.0910692926
 30
0.0
 10
23.8286632677
 20
-36.4350889781
 30
0.0
 10
23.6637375473
 20
-36.7358202106
 30
0.0
 10
23.4229502844
 20
-36.9693446613
 30
0.0
 10
23.1246999408
 20
-37.1270968125
 30
0.0
 10
22.7904763718
 20
-37.2234224792
 30
0.0
 10
22.4339485925
 20
-37.2746208195
 30
0.0
 10
22.189843895
 20
-37.2852203084
 30
0.0
 10
22.0664405302
 20
-37.2852203084
 30
0.0
 11
22.0664405302
 21
-34.1675288547
 31
0.0
 11
22.436081677
 21
-34.1844119025
 31
0.0
 11
22.793469529
 21
-34.2383211874
 31
0.0
 11
23.1249795728
 21
-34.3383680471
 31
0.0
 11
23.4149510635
 21
-34.4968959081
 31
0.0
 11
23.647660894
 21
-34.7231886723
 31
0.0
 11
23.8126734396
 21
-35.0153150852
 31
0.0
 11
23.9086942011
 21
-35.3574709432
 31
0.0
 11
23.9399504021
 21
-35.7256998696
 31
0.0
 11
23.908944254
 21
-36.0939843546
 31
0.0
 11
23.813115395
 21
-36.4363341547
 31
0.0
 11
23.648209783
 21
-36.7287501581
 31
0.0
 11
23.4155653691
 21
-36.9553835337
 31
0.0
 11
23.1255270734
 21
-37.1141541136
 31
0.0
 11
22.7938422719
 21
-37.2143465938
 31
0.0
 11
22.4362645382
 21
-37.2683171438
 31
0.0
 11
22.0664405302
 21
-37.2852203084
 31
0.0
  0
SPLINE
  5
362
100
AcDbEntity
  8
CURVE
100
AcDbSpline
 62
253
  6
CONTINUOUS
 70
0
 71
3
 72
9
 73
5
 74
3
 42
0.0000001
 43
0.0000001
 44
0.0000000001
 12
-2.481763093
 22
0.8966042505
 32
0.0
 13
-2.6106581028
 23
-0.3840722611
 33
0.0
 40
0.0
 40
0.0
 40
0.0
 40
0.0
 40
0.108204615
 40
1.0
 40
1.0
 40
1.0
 40
1.0
 10
19.1620446308
 20
10.8630409206
 30
0.0
 10
19.0725318909
 20
10.8953798265
 30
0.0
 10
18.223952353
 20
11.1373676397
 30
0.0
 10
17.311118138
 20
11.030902955
 30
0.0
 10
16.535060522
 20
10.916731665
 30
0.0
 11
19.1620446308
 21
10.8630409206
 31
0.0
 11
18.8881391375
 21
10.9436684577
 31
0.0
 11
16.535060522
 21
10.916731665
 31
0.0
  0
SPLINE
  5
363
100
AcDbEntity
  8
CURVE
100
AcDbSpline
 62
253
  6
CONTINUOUS
 70
0
 71
3
 72
17
 73
13
 74
11
 42
0.0000001
 43
0.0000001
 44
0.0000000001
 12
3.1509806175
 22
0.4065781442
 32
0.0
 13
-2.9885780248
 23
1.0781400786
 33
0.0
 40
0.0
 40
0.0
 40
0.0
 40
0.0
 40
0.0559780952
 40
0.1687540387
 40
0.321006234
 40
0.4122750837
 40
0.516613223
 40
0.6013931059
 40
0.6776022439
 40
0.8103422694
 40
0.9200404832
 40
1.0
 40
1.0
 40
1.0
 40
1.0
 10
19.2717970785
 20
8.2873001148
 30
0.0
 10
19.3305923762
 20
8.2948866048
 30
0.0
 10
19.4800424202
 20
8.4125905287
 30
0.0
 10
19.7278879178
 20
8.6369670437
 30
0.0
 10
19.9103812643
 20
8.9823598527
 30
0.0
 10
19.9916778681
 20
9.3426827317
 30
0.0
 10
19.9993155211
 20
9.6417431997
 30
0.0
 10
19.9590642393
 20
9.9210632508
 30
0.0
 10
19.8615089525
 20
10.217862595
 30
0.0
 10
19.6782801599
 20
10.5087324225
 30
0.0
 10
19.4195753618
 20
10.7362002687
 30
0.0
 10
19.2416997158
 20
10.8343050673
 30
0.0
 10
19.1620446308
 20
10.8630409206
 30
0.0
 11
19.2717970785
 21
8.2873001148
 31
0.0
 11
19.4276338428
 21
8.3730023882
 31
0.0
 11
19.6849366493
 21
8.6223510104
 31
0.0
 11
19.9151072741
 21
9.0478006853
 31
0.0
 11
19.9798310734
 21
9.3304555126
 31
0.0
 11
19.9895474932
 21
9.6618061171
 31
0.0
 11
19.9497087529
 21
9.9281980969
 31
0.0
 11
19.8735330374
 21
10.1580272392
 31
0.0
 11
19.6485022784
 21
10.5147011834
 31
0.0
 11
19.3871184112
 21
10.7452362953
 31
0.0
 11
19.1620446308
 21
10.8630409206
 31
0.0
  0
SPLINE
  5
364
100
AcDbEntity
  8
CURVE
100
AcDbSpline
 62
253
  6
CONTINUOUS
 70
0
 71
3
 72
9
 73
5
 74
3
 42
0.0000001
 43
0.0000001
 44
0.0000000001
 12
-0.3121123067
 22
1.1456600681
 32
0.0
 13
-1.1029606337
 23
0.4398055527
 33
0.0
 40
0.0
 40
0.0
 40
0.0
 40
0.0
 40
0.2426586216
 40
1.0
 40
1.0
 40
1.0
 40
1.0
 10
19.8853782711
 20
7.2569655512
 30
0.0
 10
19.8601326904
 20
7.3496336489
 30
0.0
 10
19.7636984684
 20
7.72385001
 30
0.0
 10
19.5502363207
 20
8.1461383455
 30
0.0
 10
19.2717970785
 20
8.2571659933
 30
0.0
 11
19.8853782711
 21
7.2569655512
 31
0.0
 11
19.8064405201
 21
7.5340779337
 31
0.0
 11
19.2717970785
 21
8.2571659933
 31
0.0
  0
SPLINE
  5
365
100
AcDbEntity
  8
CURVE
100
AcDbSpline
 62
253
  6
CONTINUOUS
 70
0
 71
3
 72
9
 73
5
 74
3
 42
0.0000001
 43
0.0000001
 44
0.0000000001
 12
-0.3741269143
 22
1.3775066862
 32
0.0
 13
-0.3752138558
 23
1.3772110153
 33
0.0
 40
0.0
 40
0.0
 40
0.0
 40
0.0
 40
0.1980141723
 40
1.0
 40
1.0
 40
1.0
 40
1.0
 10
20.2492822056
 20
5.8767233584
 30
0.0
 10
20.2245880618
 20
5.9676453071
 30
0.0
 10
20.1037212932
 20
6.4278462931
 30
0.0
 10
19.9856836693
 20
6.8887976459
 30
0.0
 10
19.8853782711
 20
7.2569655512
 30
0.0
 11
20.2492822056
 21
5.8767233584
 31
0.0
 11
20.1768323252
 21
6.1499273634
 31
0.0
 11
19.8853782711
 21
7.2569655512
 31
0.0
  0
SPLINE
  5
366
100
AcDbEntity
  8
CURVE
100
AcDbSpline
 62
253
  6
CONTINUOUS
 70
0
 71
3
 72
9
 73
5
 74
3
 42
0.0000001
 43
0.0000001
 44
0.0000000001
 12
0.5679562581
 22
-1.5117838688
 32
0.0
 13
0.4462285413
 23
-1.5520775966
 33
0.0
 40
0.0
 40
0.0
 40
0.0
 40
0.0
 40
0.5586214172
 40
1.0
 40
1.0
 40
1.0
 40
1.0
 10
18.7598994254
 20
7.4230856323
 30
0.0
 10
18.8656569353
 20
7.1415806832
 30
0.0
 10
19.0047374631
 20
6.6203129789
 30
0.0
 10
19.1597202685
 20
6.1050746284
 30
0.0
 10
19.2253721755
 20
5.8767233584
 30
0.0
 11
18.7598994254
 21
7.4230856323
 31
0.0
 11
19.0260060895
 21
6.5610795832
 31
0.0
 11
19.2253721755
 21
5.8767233584
 31
0.0
  0
SPLINE
  5
367
100
AcDbEntity
  8
CURVE
100
AcDbSpline
 62
253
  6
CONTINUOUS
 70
0
 71
3
 72
9
 73
5
 74
3
 42
0.0000001
 43
0.0000001
 44
0.0000000001
 12
0.764148215
 22
0.0
 32
0.0
 13
0.2684908985
 23
-0.7154265385
 33
0.0
 40
0.0
 40
0.0
 40
0.0
 40
0.0
 40
0.1435863572
 40
1.0
 40
1.0
 40
1.0
 40
1.0
 10
18.1660124873
 20
7.8724205661
 30
0.0
 10
18.2025862402
 20
7.8724205661
 30
0.0
 10
18.4580402355
 20
7.8543618831
 30
0.0
 10
18.6832530026
 20
7.627319315
 30
0.0
 10
18.7598994254
 20
7.4230856323
 30
0.0
 11
18.1660124873
 21
7.8724205661
 31
0.0
 11
18.2753221728
 21
7.8629259756
 31
0.0
 11
18.7598994254
 21
7.4230856323
 31
0.0
  0
SPLINE
  5
368
100
AcDbEntity
  8
CURVE
100
AcDbSpline
 62
253
  6
CONTINUOUS
 70
0
 71
3
 72
9
 73
5
 74
3
 42
0.0000001
 43
0.0000001
 44
0.0000000001
 12
0.0196019968
 22
-1.2703570208
 32
0.0
 13
-1.2701914441
 23
-0.0283706512
 33
0.0
 40
0.0
 40
0.0
 40
0.0
 40
0.0
 40
0.5206208722
 40
1.0
 40
1.0
 40
1.0
 40
1.0
 10
18.9951979656
 20
9.5000837821
 30
0.0
 10
18.9985997018
 20
9.2796256554
 30
0.0
 10
18.8428567362
 20
8.7980370464
 30
0.0
 10
18.3712747191
 20
8.7121433567
 30
0.0
 10
18.1683069636
 20
8.707609924
 30
0.0
 11
18.9951979656
 21
9.5000837821
 31
0.0
 11
18.7508266838
 21
8.8854270538
 31
0.0
 11
18.1683069636
 21
8.707609924
 31
0.0
  0
SPLINE
  5
369
100
AcDbEntity
  8
CURVE
100
AcDbSpline
 62
253
  6
CONTINUOUS
 70
0
 71
3
 72
9
 73
5
 74
3
 42
0.0000001
 43
0.0000001
 44
0.0000000001
 12
0.9335515867
 22
-0.1083851275
 32
0.0
 13
0.0146974824
 23
-0.93970734
 33
0.0
 40
0.0
 40
0.0
 40
0.0
 40
0.0
 40
0.5013510385
 40
1.0
 40
1.0
 40
1.0
 40
1.0
 10
18.393892221
 20
10.1375657691
 30
0.0
 10
18.5499045735
 20
10.1194527704
 30
0.0
 10
18.8654577811
 20
9.9820612253
 30
0.0
 10
18.9927550042
 20
9.6562784786
 30
0.0
 10
18.9951979656
 20
9.5000837821
 30
0.0
 11
18.393892221
 21
10.1375657691
 31
0.0
 11
18.8189917493
 21
9.9343373147
 31
0.0
 11
18.9951979656
 21
9.5000837821
 31
0.0
  0
SPLINE
  5
36A
100
AcDbEntity
  8
CURVE
100
AcDbSpline
 62
253
  6
CONTINUOUS
 70
0
 71
3
 72
9
 73
5
 74
3
 42
0.0000001
 43
0.0000001
 44
0.0000000001
 12
0.8243085264
 22
0.1406554247
 32
0.0
 13
0.8306458898
 23
-0.0964152526
 33
0.0
 40
0.0
 40
0.0
 40
0.0
 40
0.0
 40
0.2703953699
 40
1.0
 40
1.0
 40
1.0
 40
1.0
 10
17.5599648251
 20
10.1075463714
 30
0.0
 10
17.634261228
 20
10.1202238966
 30
0.0
 10
17.9098904111
 20
10.1619192666
 30
0.0
 10
18.1918778586
 20
10.1610141073
 30
0.0
 10
18.393892221
 20
10.1375657691
 30
0.0
 11
17.5599648251
 21
10.1075463714
 31
0.0
 11
17.7837838138
 21
10.1396576861
 31
0.0
 11
18.393892221
 21
10.1375657691
 31
0.0
  0
SPLINE
  5
36B
100
AcDbEntity
  8
0
100
AcDbSpline
 62
253
  6
CONTINUOUS
 70
0
 71
3
 72
9
 73
5
 74
3
 42
0.0000001
 43
0.0000001
 44
0.0000000001
 12
0.0196019968
 22
-1.2703570208
 32
0.0
 13
-1.2701914441
 23
-0.0283706512
 33
0.0
 40
0.0
 40
0.0
 40
0.0
 40
0.0
 40
0.5206208722
 40
1.0
 40
1.0
 40
1.0
 40
1.0
 10
18.9951979656
 20
9.5000837821
 30
0.0
 10
18.9985997018
 20
9.2796256554
 30
0.0
 10
18.8428567362
 20
8.7980370464
 30
0.0
 10
18.3712747191
 20
8.7121433567
 30
0.0
 10
18.1683069636
 20
8.707609924
 30
0.0
 11
18.9951979656
 21
9.5000837821
 31
0.0
 11
18.7508266838
 21
8.8854270538
 31
0.0
 11
18.1683069636
 21
8.707609924
 31
0.0
  0
SPLINE
  5
36C
100
AcDbEntity
  8
0
100
AcDbSpline
 62
253
  6
CONTINUOUS
 70
0
 71
3
 72
9
 73
5
 74
3
 42
0.0000001
 43
0.0000001
 44
0.0000000001
 12
0.9335515867
 22
-0.1083851275
 32
0.0
 13
0.0146974824
 23
-0.93970734
 33
0.0
 40
0.0
 40
0.0
 40
0.0
 40
0.0
 40
0.5013510385
 40
1.0
 40
1.0
 40
1.0
 40
1.0
 10
18.393892221
 20
10.1375657691
 30
0.0
 10
18.5499045735
 20
10.1194527704
 30
0.0
 10
18.8654577811
 20
9.9820612253
 30
0.0
 10
18.9927550042
 20
9.6562784786
 30
0.0
 10
18.9951979656
 20
9.5000837821
 30
0.0
 11
18.393892221
 21
10.1375657691
 31
0.0
 11
18.8189917493
 21
9.9343373147
 31
0.0
 11
18.9951979656
 21
9.5000837821
 31
0.0
  0
SPLINE
  5
36D
100
AcDbEntity
  8
0
100
AcDbSpline
 62
253
  6
CONTINUOUS
 70
0
 71
3
 72
9
 73
5
 74
3
 42
0.0000001
 43
0.0000001
 44
0.0000000001
 12
0.8243085264
 22
0.1406554247
 32
0.0
 13
0.8306458898
 23
-0.0964152526
 33
0.0
 40
0.0
 40
0.0
 40
0.0
 40
0.0
 40
0.2703953699
 40
1.0
 40
1.0
 40
1.0
 40
1.0
 10
17.5599648251
 20
10.1075463714
 30
0.0
 10
17.634261228
 20
10.1202238966
 30
0.0
 10
17.9098904111
 20
10.1619192666
 30
0.0
 10
18.1918778586
 20
10.1610141073
 30
0.0
 10
18.393892221
 20
10.1375657691
 30
0.0
 11
17.5599648251
 21
10.1075463714
 31
0.0
 11
17.7837838138
 21
10.1396576861
 31
0.0
 11
18.393892221
 21
10.1375657691
 31
0.0
  0
SPLINE
  5
36E
100
AcDbEntity
  8
0
100
AcDbSpline
 62
253
  6
CONTINUOUS
 70
0
 71
3
 72
9
 73
5
 74
3
 42
0.0000001
 43
0.0000001
 44
0.0000000001
 12
-0.3121123067
 22
1.1456600681
 32
0.0
 13
-1.1029606337
 23
0.4398055527
 33
0.0
 40
0.0
 40
0.0
 40
0.0
 40
0.0
 40
0.2426586216
 40
1.0
 40
1.0
 40
1.0
 40
1.0
 10
19.8853782711
 20
7.2569655512
 30
0.0
 10
19.8601326904
 20
7.3496336489
 30
0.0
 10
19.7636984684
 20
7.72385001
 30
0.0
 10
19.5502363207
 20
8.1461383455
 30
0.0
 10
19.2717970785
 20
8.2571659933
 30
0.0
 11
19.8853782711
 21
7.2569655512
 31
0.0
 11
19.8064405201
 21
7.5340779337
 31
0.0
 11
19.2717970785
 21
8.2571659933
 31
0.0
  0
SPLINE
  5
36F
100
AcDbEntity
  8
0
100
AcDbSpline
 62
253
  6
CONTINUOUS
 70
0
 71
3
 72
9
 73
5
 74
3
 42
0.0000001
 43
0.0000001
 44
0.0000000001
 12
-0.3741269143
 22
1.3775066862
 32
0.0
 13
-0.3752138558
 23
1.3772110153
 33
0.0
 40
0.0
 40
0.0
 40
0.0
 40
0.0
 40
0.1980141723
 40
1.0
 40
1.0
 40
1.0
 40
1.0
 10
20.2492822056
 20
5.8767233584
 30
0.0
 10
20.2245880618
 20
5.9676453071
 30
0.0
 10
20.1037212932
 20
6.4278462931
 30
0.0
 10
19.9856836693
 20
6.8887976459
 30
0.0
 10
19.8853782711
 20
7.2569655512
 30
0.0
 11
20.2492822056
 21
5.8767233584
 31
0.0
 11
20.1768323252
 21
6.1499273634
 31
0.0
 11
19.8853782711
 21
7.2569655512
 31
0.0
  0
SPLINE
  5
370
100
AcDbEntity
  8
0
100
AcDbSpline
 62
253
  6
CONTINUOUS
 70
0
 71
3
 72
9
 73
5
 74
3
 42
0.0000001
 43
0.0000001
 44
0.0000000001
 12
0.5679562581
 22
-1.5117838688
 32
0.0
 13
0.4462285413
 23
-1.5520775966
 33
0.0
 40
0.0
 40
0.0
 40
0.0
 40
0.0
 40
0.5586214172
 40
1.0
 40
1.0
 40
1.0
 40
1.0
 10
18.7598994254
 20
7.4230856323
 30
0.0
 10
18.8656569353
 20
7.1415806832
 30
0.0
 10
19.0047374631
 20
6.6203129789
 30
0.0
 10
19.1597202685
 20
6.1050746284
 30
0.0
 10
19.2253721755
 20
5.8767233584
 30
0.0
 11
18.7598994254
 21
7.4230856323
 31
0.0
 11
19.0260060895
 21
6.5610795832
 31
0.0
 11
19.2253721755
 21
5.8767233584
 31
0.0
  0
SPLINE
  5
371
100
AcDbEntity
  8
0
100
AcDbSpline
 62
253
  6
CONTINUOUS
 70
0
 71
3
 72
9
 73
5
 74
3
 42
0.0000001
 43
0.0000001
 44
0.0000000001
 12
0.764148215
 22
0.0
 32
0.0
 13
0.2684908985
 23
-0.7154265385
 33
0.0
 40
0.0
 40
0.0
 40
0.0
 40
0.0
 40
0.1435863572
 40
1.0
 40
1.0
 40
1.0
 40
1.0
 10
18.1660124873
 20
7.8724205661
 30
0.0
 10
18.2025862402
 20
7.8724205661
 30
0.0
 10
18.4580402355
 20
7.8543618831
 30
0.0
 10
18.6832530026
 20
7.627319315
 30
0.0
 10
18.7598994254
 20
7.4230856323
 30
0.0
 11
18.1660124873
 21
7.8724205661
 31
0.0
 11
18.2753221728
 21
7.8629259756
 31
0.0
 11
18.7598994254
 21
7.4230856323
 31
0.0
  0
SPLINE
  5
372
100
AcDbEntity
  8
0
100
AcDbSpline
 62
253
  6
CONTINUOUS
 70
0
 71
3
 72
9
 73
5
 74
3
 42
0.0000001
 43
0.0000001
 44
0.0000000001
 12
-2.481763093
 22
0.8966042505
 32
0.0
 13
-2.6106581028
 23
-0.3840722611
 33
0.0
 40
0.0
 40
0.0
 40
0.0
 40
0.0
 40
0.108204615
 40
1.0
 40
1.0
 40
1.0
 40
1.0
 10
19.1620446308
 20
10.8630409206
 30
0.0
 10
19.0725318909
 20
10.8953798265
 30
0.0
 10
18.223952353
 20
11.1373676397
 30
0.0
 10
17.311118138
 20
11.030902955
 30
0.0
 10
16.535060522
 20
10.916731665
 30
0.0
 11
19.1620446308
 21
10.8630409206
 31
0.0
 11
18.8881391375
 21
10.9436684577
 31
0.0
 11
16.535060522
 21
10.916731665
 31
0.0
  0
SPLINE
  5
373
100
AcDbEntity
  8
0
100
AcDbSpline
 62
253
  6
CONTINUOUS
 70
0
 71
3
 72
17
 73
13
 74
11
 42
0.0000001
 43
0.0000001
 44
0.0000000001
 12
3.1509806175
 22
0.4065781442
 32
0.0
 13
-2.9885780248
 23
1.0781400786
 33
0.0
 40
0.0
 40
0.0
 40
0.0
 40
0.0
 40
0.0559780952
 40
0.1687540387
 40
0.321006234
 40
0.4122750837
 40
0.516613223
 40
0.6013931059
 40
0.6776022439
 40
0.8103422694
 40
0.9200404832
 40
1.0
 40
1.0
 40
1.0
 40
1.0
 10
19.2717970785
 20
8.2873001148
 30
0.0
 10
19.3305923762
 20
8.2948866048
 30
0.0
 10
19.4800424202
 20
8.4125905287
 30
0.0
 10
19.7278879178
 20
8.6369670437
 30
0.0
 10
19.9103812643
 20
8.9823598527
 30
0.0
 10
19.9916778681
 20
9.3426827317
 30
0.0
 10
19.9993155211
 20
9.6417431997
 30
0.0
 10
19.9590642393
 20
9.9210632508
 30
0.0
 10
19.8615089525
 20
10.217862595
 30
0.0
 10
19.6782801599
 20
10.5087324225
 30
0.0
 10
19.4195753618
 20
10.7362002687
 30
0.0
 10
19.2416997158
 20
10.8343050673
 30
0.0
 10
19.1620446308
 20
10.8630409206
 30
0.0
 11
19.2717970785
 21
8.2873001148
 31
0.0
 11
19.4276338428
 21
8.3730023882
 31
0.0
 11
19.6849366493
 21
8.6223510104
 31
0.0
 11
19.9151072741
 21
9.0478006853
 31
0.0
 11
19.9798310734
 21
9.3304555126
 31
0.0
 11
19.9895474932
 21
9.6618061171
 31
0.0
 11
19.9497087529
 21
9.9281980969
 31
0.0
 11
19.8735330374
 21
10.1580272392
 31
0.0
 11
19.6485022784
 21
10.5147011834
 31
0.0
 11
19.3871184112
 21
10.7452362953
 31
0.0
 11
19.1620446308
 21
10.8630409206
 31
0.0
  0
SPLINE
  5
374
100
AcDbEntity
  8
0
100
AcDbSpline
 62
7
  6
CONTINUOUS
 70
0
 71
3
 72
9
 73
5
 74
3
 42
0.0000001
 43
0.0000001
 44
0.0000000001
 12
-0.9820584607
 22
0.4562466703
 32
0.0
 13
-1.0120356165
 23
0.3852061205
 33
0.0
 40
0.0
 40
0.0
 40
0.0
 40
0.0
 40
0.4791652826
 40
1.0
 40
1.0
 40
1.0
 40
1.0
 10
25.4696343793
 20
-0.9403762022
 30
0.0
 10
25.3127782727
 20
-0.8675036806
 30
0.0
 10
24.9793904179
 20
-0.7285598509
 30
0.0
 10
24.6421605309
 20
-0.5999398514
 30
0.0
 10
24.4664594361
 20
-0.5330636111
 30
0.0
 11
25.4696343793
 21
-0.9403762022
 31
0.0
 11
24.9924003732
 21
-0.7367199066
 31
0.0
 11
24.4664594361
 21
-0.5330636111
 31
0.0
  0
SPLINE
  5
375
100
AcDbEntity
  8
0
100
AcDbSpline
 62
7
  6
CONTINUOUS
 70
0
 71
3
 72
9
 73
5
 74
3
 42
0.0000001
 43
0.0000001
 44
0.0000000001
 12
1.0120356165
 22
0.3852061205
 32
0.0
 13
0.9820584607
 23
0.4562466703
 33
0.0
 40
0.0
 40
0.0
 40
0.0
 40
0.0
 40
0.5208347174
 40
1.0
 40
1.0
 40
1.0
 40
1.0
 10
24.4664594361
 20
1.680314448
 30
0.0
 10
24.6421605309
 20
1.7471906883
 30
0.0
 10
24.9793904179
 20
1.8758106878
 30
0.0
 10
25.3127782727
 20
2.0147545175
 30
0.0
 10
25.4696343793
 20
2.0876270391
 30
0.0
 11
24.4664594361
 21
1.680314448
 31
0.0
 11
24.9924003732
 21
1.8839707435
 31
0.0
 11
25.4696343793
 21
2.0876270391
 31
0.0
  0
SPLINE
  5
376
100
AcDbEntity
  8
0
100
AcDbSpline
 62
7
  6
CONTINUOUS
 70
0
 71
3
 72
9
 73
5
 74
3
 42
0.0000001
 43
0.0000001
 44
0.0000000001
 12
-0.9820584607
 22
0.4562466703
 32
0.0
 13
-1.0120356165
 23
0.3852061205
 33
0.0
 40
0.0
 40
0.0
 40
0.0
 40
0.0
 40
0.4791652826
 40
1.0
 40
1.0
 40
1.0
 40
1.0
 10
25.4696343793
 20
-15.6403762022
 30
0.0
 10
25.3127782727
 20
-15.5675036806
 30
0.0
 10
24.9793904179
 20
-15.4285598509
 30
0.0
 10
24.6421605309
 20
-15.2999398514
 30
0.0
 10
24.4664594361
 20
-15.2330636111
 30
0.0
 11
25.4696343793
 21
-15.6403762022
 31
0.0
 11
24.9924003732
 21
-15.4367199066
 31
0.0
 11
24.4664594361
 21
-15.2330636111
 31
0.0
  0
SPLINE
  5
377
100
AcDbEntity
  8
0
100
AcDbSpline
 62
7
  6
CONTINUOUS
 70
0
 71
3
 72
9
 73
5
 74
3
 42
0.0000001
 43
0.0000001
 44
0.0000000001
 12
1.0120356165
 22
0.3852061205
 32
0.0
 13
0.9820584607
 23
0.4562466703
 33
0.0
 40
0.0
 40
0.0
 40
0.0
 40
0.0
 40
0.5208347174
 40
1.0
 40
1.0
 40
1.0
 40
1.0
 10
24.4664594361
 20
-13.019685552
 30
0.0
 10
24.6421605309
 20
-12.9528093117
 30
0.0
 10
24.9793904179
 20
-12.8241893122
 30
0.0
 10
25.3127782727
 20
-12.6852454825
 30
0.0
 10
25.4696343793
 20
-12.6123729609
 30
0.0
 11
24.4664594361
 21
-13.019685552
 31
0.0
 11
24.9924003732
 21
-12.8160292565
 31
0.0
 11
25.4696343793
 21
-12.6123729609
 31
0.0
  0
ENDSEC
  0
SECTION
  2
OBJECTS
  0
DICTIONARY
  5
C
100
AcDbDictionary
280
0
281
1
  3
ACAD_GROUP
350
D
  3
ACAD_MLINESTYLE
350
17
  3
ACAD_LAYOUT
350
1A
  3
ACAD_PLOTSETTINGS
350
19
  3
ACAD_PLOTSTYLENAME
350
E
  0
DICTIONARY
  5
D
102
{ACAD_REACTORS
330
C
102
}
100
AcDbDictionary
280
0
281
1
  0
ACDBDICTIONARYWDFLT
  5
E
102
{ACAD_REACTORS
330
C
102
}
100
AcDbDictionary
281
1
  3
Normal
350
F
100
AcDbDictionaryWithDefault
340
F
  0
DICTIONARY
  5
17
102
{ACAD_REACTORS
330
C
102
}
100
AcDbDictionary
280
0
281
1
  3
Standard
350
18
  0
DICTIONARY
  5
19
102
{ACAD_REACTORS
330
C
102
}
100
AcDbDictionary
281
1
  0
DICTIONARY
  5
1A
102
{ACAD_REACTORS
330
C
102
}
100
AcDbDictionary
281
1
  3
Model
350
378
  3
Layout1
350
379
  0
ACDBPLACEHOLDER
  5
F
102
{ACAD_REACTORS
330
E
102
}
  0
MLINESTYLE
  5
18
102
{ACAD_REACTORS
330
17
102
}
100
AcDbMlineStyle
  2
STANDARD
 70
0
  3

 62
256
 51
90.0
 52
90.0
 71
2
 49
0.5
 62
256
  6
BYLAYER
 49
-0.5
 62
256
  6
BYLAYER
  0
LAYOUT
  5
378
102
{ACAD_REACTORS
330
1A
102
}
100
AcDbPlotSettings
  1

  2
none_device
  4
ANSI_C_(22.00_x_17.00_Inches)
  6

 40
0.0
 41
0.0
 42
0.0
 43
0.0
 44
558.8
 45
431.8
 46
0.0
 47
0.0
 48
0.0
 49
0.0
140
0.0
141
0.0
142
1.0
143
1.0
 70
1024
 72
1
 73
0
 74
0
  7

 75
0
147
1.0
148
0.0
149
0.0
100
AcDbLayout
  1
Model
 70
0
 71
0
 10
0.0
 20
0.0
 11
558.8
 21
431.8
 12
0.0
 22
0.0
 32
0.0
 14
0.0
 24
0.0
 34
0.0
 15
0.0
 25
0.0
 35
0.0
146
0.0
 13
0.0
 23
0.0
 33
0.0
 16
1.0
 26
0.0
 36
0.0
 17
0.0
 27
1.0
 37
0.0
 76
0
330
212
345
0
346
0
  0
LAYOUT
  5
379
102
{ACAD_REACTORS
330
1A
102
}
100
AcDbPlotSettings
  1

  2
none_device
  4
ANSI_C_(22.00_x_17.00_Inches)
  6

 40
0.0
 41
0.0
 42
0.0
 43
0.0
 44
558.8
 45
431.8
 46
0.0
 47
0.0
 48
0.0
 49
0.0
140
0.0
141
0.0
142
1.0
143
1.0
 70
0
 72
1
 73
0
 74
0
  7

 75
0
147
1.0
148
0.0
149
0.0
100
AcDbLayout
  1
Layout1
 70
0
 71
1
 10
0.0
 20
0.0
 11
558.8
 21
431.8
 12
0.0
 22
0.0
 32
0.0
 14
0.0
 24
0.0
 34
0.0
 15
0.0
 25
0.0
 35
0.0
146
0.0
 13
0.0
 23
0.0
 33
0.0
 16
1.0
 26
0.0
 36
0.0
 17
0.0
 27
1.0
 37
0.0
 76
0
330
213
345
0
346
0
  0
ENDSEC
  0
EOF
