  0
SECTION
  2
HEADER
  9
$ACADVER
  1
AC1021
  9
$DWGCODEPAGE
  3
ANSI_1252
  9
$EXTMAX
 10
297.0
 20
210.0
 30
0.0
  9
$EXTMIN
 10
0.0
 20
0.0
 30
0.0
  9
$LIMMIN
 10
0.0
 20
0.0
  9
$LIMMAX
 10
297.0
 20
210.0
  9
$VIEWCTR
 10
148.5
 20
105.0
  9
$VIEWSIZE
 40
210.0
  9
$CLAYER
  8
0
  9
$LTSCALE
 40
16.335
  9
$CELTYPE
  6
BYLAYER
  9
$DIMSCALE
 40
1.0
  9
$DIMASZ
 40
3.0
  9
$DIMEXO
 40
0.5
  9
$DIMDLI
 40
11.286
  9
$DIMEXE
 40
1.5
  9
$DIMCEN
 40
2.673
  9
$DIMLFAC
 40
1.0
  9
$DIMBLK
  1
_FILLED
  9
$DIMALT
 70
0
  9
$DIMALTF
 40
0.0393700787
  9
$DIMTXT
 40
3.0
  9
$DIMTOL
 70
1
  9
$DIMLIM
 70
0
  9
$DIMTFAC
 40
1.0
  9
$DIMTP
 40
0.01
  9
$DIMTM
 40
0.01
  9
$DIMGAP
 40
0.625
  9
$DIMDSEP
 70
44
  9
$AUNITS
 70
0
  9
$PDMODE
 70
3
  9
$PDSIZE
 40
3.0
  9
$HANDSEED
  5
404
  9
$TILEMODE
 70
1
  9
$MEASUREMENT
 70
1
  9
$INSUNITS
 70
4
  0
ENDSEC
  0
SECTION
  2
CLASSES
  0
CLASS
  1
ACDBDICTIONARYWDFLT
  2
AcDbDictionaryWithDefault
  3
AutoCAD 2000
 90
0
 91
1
280
0
281
0
  0
CLASS
  1
ACDBPLACEHOLDER
  2
AcDbPlaceHolder
  3
AutoCAD 2000
 90
0
 91
1
280
0
281
0
  0
CLASS
  1
LAYOUT
  2
AcDbLayout
  3
AutoCAD 2000
 90
0
 91
0
280
0
281
0
  0
ENDSEC
  0
SECTION
  2
TABLES
  0
TABLE
  2
VPORT
  5
8
100
AcDbSymbolTable
 70
2
  0
VPORT
  5
1F4
100
AcDbSymbolTableRecord
100
AcDbViewportTableRecord
  2
*ACTIVE
 70
0
 10
0.0
 20
0.0
 11
1.0
 21
1.0
 12
148.5
 22
105.0
 13
0.0
 23
0.0
 14
1.0
 24
1.0
 15
0.0
 25
0.0
 16
0.0
 26
0.0
 36
1.0
 17
0.0
 27
0.0
 37
0.0
 40
210.0
 41
1.4142857143
 42
50.0
 43
0.0
 44
0.0
 50
0.0
 51
0.0
 71
0
 72
100
 73
1
 74
1
 75
0
 76
0
 77
0
 78
0
  0
ENDTAB
  0
TABLE
  2
LTYPE
  5
5
100
AcDbSymbolTable
 70
6
  0
LTYPE
  5
14
100
AcDbSymbolTableRecord
100
AcDbLinetypeTableRecord
  2
BYBLOCK
 70
0
  3

 72
65
 73
0
 40
0.0
  0
LTYPE
  5
15
100
AcDbSymbolTableRecord
100
AcDbLinetypeTableRecord
  2
BYLAYER
 70
0
  3

 72
65
 73
0
 40
0.0
  0
LTYPE
  5
16
100
AcDbSymbolTableRecord
100
AcDbLinetypeTableRecord
  2
CONTINUOUS
 70
64
  3
Solid line
 72
65
 73
0
 40
0.0
  0
LTYPE
  5
1F5
100
AcDbSymbolTableRecord
100
AcDbLinetypeTableRecord
  2
CENTER
 70
64
  3
____ _ ____ _ ____ _ ____ _ ____ _ ____ _ ____
 72
65
 73
4
 40
0.6
 49
0.375
 74
0
 49
-0.075
 74
0
 49
0.075
 74
0
 49
-0.075
 74
0
  0
LTYPE
  5
1F6
100
AcDbSymbolTableRecord
100
AcDbLinetypeTableRecord
  2
HIDDEN
 70
64
  3
- - - - - - - - - - - - - - - - - - - -
 72
65
 73
2
 40
0.2
 49
0.1
 74
0
 49
-0.1
 74
0
  0
LTYPE
  5
1F7
100
AcDbSymbolTableRecord
100
AcDbLinetypeTableRecord
  2
PHANTOM
 70
64
  3
_____ _ _ _____ _ _ _____ _ _ _____
 72
65
 73
6
 40
0.8
 49
0.45
 74
0
 49
-0.05
 74
0
 49
0.1
 74
0
 49
-0.05
 74
0
 49
0.1
 74
0
 49
-0.05
 74
0
  0
LTYPE
  5
1F8
100
AcDbSymbolTableRecord
100
AcDbLinetypeTableRecord
  2
DOT
 70
64
  3
. . . . . . . . . . . . . . . . . . . .
 72
65
 73
2
 40
0.2
 49
0.1
 74
0
 49
-0.1
 74
0
  0
LTYPE
  5
1F9
100
AcDbSymbolTableRecord
100
AcDbLinetypeTableRecord
  2
DASHED
 70
64
  3
- - - - - - - - - - - - - - - - - - - -
 72
65
 73
2
 40
0.2
 49
0.1
 74
0
 49
-0.1
 74
0
  0
ENDTAB
  0
TABLE
  2
LAYER
  5
2
100
AcDbSymbolTable
 70
36
  0
LAYER
  5
10
100
AcDbSymbolTableRecord
100
AcDbLayerTableRecord
  2
0
 70
0
 62
7
  6
CONTINUOUS
370
-3
390
F
  0
LAYER
  5
1FA
100
AcDbSymbolTableRecord
100
AcDbLayerTableRecord
  2
DEFAULT_1
 70
0
 62
7
  6
CENTER
370
-3
390
F
  0
LAYER
  5
1FB
100
AcDbSymbolTableRecord
100
AcDbLayerTableRecord
  2
DEFAULT_2
 70
0
 62
7
  6
HIDDEN
370
-3
390
F
  0
LAYER
  5
1FC
100
AcDbSymbolTableRecord
100
AcDbLayerTableRecord
  2
DEFAULT_3
 70
0
 62
7
  6
PHANTOM
370
-3
390
F
  0
LAYER
  5
1FD
100
AcDbSymbolTableRecord
100
AcDbLayerTableRecord
  2
ASSI
 70
0
 62
7
  6
CONTINUOUS
370
-3
390
F
  0
LAYER
  5
1FE
100
AcDbSymbolTableRecord
100
AcDbLayerTableRecord
  2
COLORI
 70
0
 62
7
  6
CONTINUOUS
370
-3
390
F
  0
LAYER
  5
1FF
100
AcDbSymbolTableRecord
100
AcDbLayerTableRecord
  2
COORDINATE
 70
0
 62
7
  6
CONTINUOUS
370
-3
390
F
  0
LAYER
  5
200
100
AcDbSymbolTableRecord
100
AcDbLayerTableRecord
  2
COPY_PUBLISH
 70
0
 62
7
  6
CONTINUOUS
370
-3
390
F
  0
LAYER
  5
201
100
AcDbSymbolTableRecord
100
AcDbLayerTableRecord
  2
COSMETICI
 70
0
 62
7
  6
CONTINUOUS
370
-3
390
F
  0
LAYER
  5
202
100
AcDbSymbolTableRecord
100
AcDbLayerTableRecord
  2
CURVE
 70
0
 62
7
  6
CONTINUOUS
370
-3
390
F
  0
LAYER
  5
203
100
AcDbSymbolTableRecord
100
AcDbLayerTableRecord
  2
DRAFT
 70
0
 62
7
  6
CONTINUOUS
370
-3
390
F
  0
LAYER
  5
204
100
AcDbSymbolTableRecord
100
AcDbLayerTableRecord
  2
IMPORT_IGES
 70
0
 62
7
  6
CONTINUOUS
370
-3
390
F
  0
LAYER
  5
205
100
AcDbSymbolTableRecord
100
AcDbLayerTableRecord
  2
NOTE
 70
0
 62
7
  6
CONTINUOUS
370
-3
390
F
  0
LAYER
  5
206
100
AcDbSymbolTableRecord
100
AcDbLayerTableRecord
  2
PIANI
 70
0
 62
7
  6
CONTINUOUS
370
-3
390
F
  0
LAYER
  5
207
100
AcDbSymbolTableRecord
100
AcDbLayerTableRecord
  2
PUNTI
 70
0
 62
7
  6
CONTINUOUS
370
-3
390
F
  0
LAYER
  5
208
100
AcDbSymbolTableRecord
100
AcDbLayerTableRecord
  2
RACCORDO
 70
0
 62
7
  6
CONTINUOUS
370
-3
390
F
  0
LAYER
  5
209
100
AcDbSymbolTableRecord
100
AcDbLayerTableRecord
  2
SCRITTE
 70
0
 62
7
  6
CONTINUOUS
370
-3
390
F
  0
LAYER
  5
20A
100
AcDbSymbolTableRecord
100
AcDbLayerTableRecord
  2
SIMBOLI
 70
0
 62
7
  6
CONTINUOUS
370
-3
390
F
  0
LAYER
  5
20B
100
AcDbSymbolTableRecord
100
AcDbLayerTableRecord
  2
SMUSSO
 70
0
 62
7
  6
CONTINUOUS
370
-3
390
F
  0
LAYER
  5
20C
100
AcDbSymbolTableRecord
100
AcDbLayerTableRecord
  2
SNAPLINE
 70
0
 62
7
  6
CONTINUOUS
370
-3
390
F
  0
LAYER
  5
20D
100
AcDbSymbolTableRecord
100
AcDbLayerTableRecord
  2
SUPERFICI
 70
0
 62
7
  6
CONTINUOUS
370
-3
390
F
  0
LAYER
  5
20E
100
AcDbSymbolTableRecord
100
AcDbLayerTableRecord
  2
TRASH
 70
0
 62
7
  6
CONTINUOUS
370
-3
390
F
  0
LAYER
  5
20F
100
AcDbSymbolTableRecord
100
AcDbLayerTableRecord
  2
XSEC_DATUMS
 70
0
 62
7
  6
CONTINUOUS
370
-3
390
F
  0
ENDTAB
  0
TABLE
  2
STYLE
  5
3
100
AcDbSymbolTable
 70
1
  0
STYLE
  5
11
100
AcDbSymbolTableRecord
100
AcDbTextStyleTableRecord
  2
STANDARD
 70
0
 40
0.0
 41
0.8
 50
0.0
 71
0
 42
0.2
  3
txt
  4

  0
STYLE
  5
210
100
AcDbSymbolTableRecord
100
AcDbTextStyleTableRecord
  2
TEXTSTYLE_1
 70
0
 40
0.0
 41
0.8
 50
0.0
 71
0
 42
0.2
  3
gdt
  4

  0
ENDTAB
  0
TABLE
  2
VIEW
  5
6
100
AcDbSymbolTable
 70
0
  0
ENDTAB
  0
TABLE
  2
UCS
  5
7
100
AcDbSymbolTable
 70
0
  0
ENDTAB
  0
TABLE
  2
APPID
  5
9
100
AcDbSymbolTable
 70
1
  0
APPID
  5
211
100
AcDbSymbolTableRecord
100
AcDbRegAppTableRecord
  2
ACAD
 70
0
  0
ENDTAB
  0
TABLE
  2
BLOCK_RECORD
  5
1
100
AcDbSymbolTable
 70
0
  0
BLOCK_RECORD
  5
212
100
AcDbSymbolTableRecord
100
AcDbBlockTableRecord
  2
*Model_Space
  0
BLOCK_RECORD
  5
213
100
AcDbSymbolTableRecord
100
AcDbBlockTableRecord
  2
*Paper_Space
  0
ENDTAB
  0
TABLE
  2
DIMSTYLE
  5
A
100
AcDbSymbolTable
 70
1
100
AcDbDimStyleTable
 71
0
  0
DIMSTYLE
105
214
100
AcDbSymbolTableRecord
100
AcDbDimStyleTableRecord
  2
STANDARD
 70
0
  3

  4

 40
1.0
 41
3.0
 42
0.5
 43
0.38
 44
1.5
 45
0.0
 46
0.0
 47
0.01
 48
0.01
140
3.0
141
0.09
142
0.0
143
25.4
144
1.0
145
0.0
146
1.0
147
0.625
 71
1.0
 72
0.0
 73
0
 74
0
 75
0
 76
0
 77
1
 78
8
170
0
171
2
172
0
173
0
174
0
175
0
176
0
177
0
178
0
270
2
271
2
272
2
273
2
274
2
275
0
280
0
281
0
282
0
283
1
284
8
285
0
286
0
287
3
288
0
340
11
278
44
  0
ENDTAB
  0
ENDSEC
  0
SECTION
  2
BLOCKS
  0
BLOCK
  5
20
100
AcDbEntity
  8
0
100
AcDbBlockBegin
  2
*Model_Space
 70
0
 10
0.0
 20
0.0
 30
0.0
  3
*Model_Space
  1

  0
ENDBLK
  5
21
100
AcDbEntity
  8
0
100
AcDbBlockEnd
  0
BLOCK
  5
1C
100
AcDbEntity
  8
0
100
AcDbBlockBegin
  2
*Paper_Space
 70
0
 10
0.0
 20
0.0
 30
0.0
  3
*Paper_Space
  1

  0
ENDBLK
  5
1D
100
AcDbEntity
  8
0
100
AcDbBlockEnd
  0
ENDSEC
  0
SECTION
  2
ENTITIES
  0
LWPOLYLINE
  5
215
100
AcDbEntity
  8
RACCORDO
100
AcDbPolyline
 62
253
  6
CONTINUOUS
 90
7
 70
0
 10
-20.3562481319
 20
-0.8268258999
 10
-20.3551912193
 20
-0.8415609496
 10
-20.3522663037
 20
-0.8559742398
 10
-20.3475372542
 20
-0.8697510372
 10
-20.3411073361
 20
-0.8825905069
 10
-20.3331169552
 20
-0.8942122819
 10
-20.323740592
 20
-0.9043625851
  0
LWPOLYLINE
  5
216
100
AcDbEntity
  8
RACCORDO
100
AcDbPolyline
 62
7
  6
CONTINUOUS
 90
6
 70
0
 10
-20.4902061485
 20
-0.8346856352
 10
-20.4894811498
 20
-0.8467191639
 10
-20.485763141
 20
-0.8642017295
 10
-20.4793362558
 20
-0.8800941076
 10
-20.4707306108
 20
-0.8940784995
 10
-20.460557612
 20
-0.905889814
  0
LWPOLYLINE
  5
217
100
AcDbEntity
  8
RACCORDO
100
AcDbPolyline
 62
7
  6
CONTINUOUS
 90
10
 70
0
 10
-20.473761993
 20
3.7136377435
 10
-20.47506236
 20
3.7430444116
 10
-20.4763855506
 20
3.7693384795
 10
-20.4777245261
 20
3.7923793353
 10
-20.4790793423
 20
3.8121496054
 10
-20.4804499434
 20
3.8286666635
 10
-20.4818291234
 20
3.8418420197
 10
-20.4832144802
 20
3.851646177
 10
-20.4846084159
 20
3.8581086324
 10
-20.4860109305
 20
3.8612293857
  0
LWPOLYLINE
  5
218
100
AcDbEntity
  8
RACCORDO
100
AcDbPolyline
 62
7
  6
CONTINUOUS
 90
4
 70
0
 10
-19.4257156307
 20
4.3413784465
 10
-19.4200574559
 20
4.2135762974
 10
-19.4147664429
 20
4.076236246
 10
-19.4098425917
 20
3.9293582921
  0
LINE
  5
219
100
AcDbEntity
  8
RACCORDO
100
AcDbLine
 62
7
  6
CONTINUOUS
 10
-20.4712299854
 20
3.6454538658
 11
-20.473761993
 21
3.7136377435
  0
LWPOLYLINE
  5
21A
100
AcDbEntity
  8
RACCORDO
100
AcDbPolyline
 62
7
  6
CONTINUOUS
 90
18
 70
0
 10
-19.4247716799
 20
4.3181509357
 10
-19.4239706103
 20
4.2925657376
 10
-19.423312422
 20
4.2646228522
 10
-19.4227901088
 20
4.233705835
 10
-19.4224106768
 20
4.2004311305
 10
-19.4221951449
 20
4.1666480723
 10
-19.4221527622
 20
4.1323282615
 10
-19.4222742796
 20
4.0975000969
 10
-19.4225529687
 20
4.0640981087
 10
-19.4229977117
 20
4.032202138
 10
-19.4235996264
 20
4.0017323436
 10
-19.424325338
 20
3.9743837325
 10
-19.4251818882
 20
3.9503321746
 10
-19.4261622353
 20
3.9294018
 10
-19.4272118791
 20
3.9127600054
 10
-19.4283126528
 20
3.9007959232
 10
-19.4294827231
 20
3.893120421
 10
-19.4307220901
 20
3.8897334988
  0
LINE
  5
21B
100
AcDbEntity
  8
RACCORDO
100
AcDbLine
 62
7
  6
CONTINUOUS
 10
-20.4688093964
 20
3.5653732591
 11
-20.4712299854
 21
3.6454538658
  0
LINE
  5
21C
100
AcDbEntity
  8
RACCORDO
100
AcDbLine
 62
7
  6
CONTINUOUS
 10
-19.4098425917
 20
3.9293582921
 11
-19.4010541727
 21
3.6053471087
  0
LINE
  5
21D
100
AcDbEntity
  8
RACCORDO
100
AcDbLine
 62
7
  6
CONTINUOUS
 10
-20.4654186087
 20
3.4240018349
 11
-20.4688093964
 21
3.5653732591
  0
LINE
  5
21E
100
AcDbEntity
  8
RACCORDO
100
AcDbLine
 62
7
  6
CONTINUOUS
 10
-19.4010541727
 20
3.6053471087
 11
-19.3939315071
 21
3.2504903983
  0
LINE
  5
21F
100
AcDbEntity
  8
RACCORDO
100
AcDbLine
 62
7
  6
CONTINUOUS
 10
-20.4623662631
 20
3.2592383034
 11
-20.4654186087
 21
3.4240018349
  0
LINE
  5
220
100
AcDbEntity
  8
RACCORDO
100
AcDbLine
 62
7
  6
CONTINUOUS
 10
-19.3939315071
 20
3.2504903983
 11
-19.388579617
 21
2.8699557931
  0
LINE
  5
221
100
AcDbEntity
  8
RACCORDO
100
AcDbLine
 62
7
  6
CONTINUOUS
 10
-20.4589098427
 20
3.008068972
 11
-20.4623662631
 21
3.2592383034
  0
LINE
  5
222
100
AcDbEntity
  8
RACCORDO
100
AcDbLine
 62
7
  6
CONTINUOUS
 10
-19.388579617
 20
2.8699557931
 11
-19.3851300795
 21
2.4718162657
  0
LINE
  5
223
100
AcDbEntity
  8
RACCORDO
100
AcDbLine
 62
7
  6
CONTINUOUS
 10
-20.4574778307
 20
2.859107538
 11
-20.4589098427
 21
3.008068972
  0
LINE
  5
224
100
AcDbEntity
  8
RACCORDO
100
AcDbLine
 62
7
  6
CONTINUOUS
 10
-20.4569795539
 20
2.7427480559
 11
-20.4574778307
 21
2.859107538
  0
LINE
  5
225
100
AcDbEntity
  8
RACCORDO
100
AcDbLine
 62
7
  6
CONTINUOUS
 10
-19.3851300795
 20
2.4718162657
 11
-19.3836402523
 21
2.0648477882
  0
LINE
  5
226
100
AcDbEntity
  8
RACCORDO
100
AcDbLine
 62
7
  6
CONTINUOUS
 10
-20.4902227281
 20
-0.8346808777
 11
-20.4902227281
 21
0.0574440186
  0
LINE
  5
227
100
AcDbEntity
  8
RACCORDO
100
AcDbLine
 62
7
  6
CONTINUOUS
 10
-20.4902227281
 20
3.8655935113
 11
-20.4902227281
 21
4.757718282
  0
LINE
  5
228
100
AcDbEntity
  8
RACCORDO
100
AcDbLine
 62
253
  6
CONTINUOUS
 10
-20.3562372002
 20
-0.8268255694
 11
-20.3562481319
 21
0.0487164861
  0
LINE
  5
229
100
AcDbEntity
  8
RACCORDO
100
AcDbLine
 62
253
  6
CONTINUOUS
 10
-20.3562481319
 20
3.8743210438
 11
-20.3562633182
 21
4.7498638889
  0
LINE
  5
22A
100
AcDbEntity
  8
RACCORDO
100
AcDbLine
 62
7
  6
CONTINUOUS
 10
-20.086589733
 20
0.6980012082
 11
-20.086589733
 21
3.2250363216
  0
LINE
  5
22B
100
AcDbEntity
  8
ASSI
100
AcDbLine
 62
7
  6
CONTINUOUS
 10
-20.086589733
 20
0.6980012082
 11
-20.086589733
 21
3.2250363216
  0
LINE
  5
22C
100
AcDbEntity
  8
ASSI
100
AcDbLine
 62
7
  6
CONTINUOUS
 10
-19.4899599382
 20
3.8590660793
 11
-19.4899599382
 21
0.0639714506
  0
LINE
  5
22D
100
AcDbEntity
  8
RACCORDO
100
AcDbLine
 62
7
  6
CONTINUOUS
 10
-19.3836402523
 20
2.0648477882
 11
-19.3841314448
 21
1.6548954139
  0
LINE
  5
22E
100
AcDbEntity
  8
RACCORDO
100
AcDbLine
 62
7
  6
CONTINUOUS
 10
-20.4570576963
 20
1.1507147798
 11
-20.4569795539
 21
2.7427480559
  0
LINE
  5
22F
100
AcDbEntity
  8
RACCORDO
100
AcDbLine
 62
7
  6
CONTINUOUS
 10
-20.4576767528
 20
1.0362737135
 11
-20.4570576963
 21
1.1507147798
  0
LINE
  5
230
100
AcDbEntity
  8
RACCORDO
100
AcDbLine
 62
7
  6
CONTINUOUS
 10
-19.3841314448
 20
1.6548954139
 11
-19.3866107969
 21
1.2508840355
  0
LINE
  5
231
100
AcDbEntity
  8
RACCORDO
100
AcDbLine
 62
7
  6
CONTINUOUS
 10
-20.459703232
 20
0.8491391183
 11
-20.4576767528
 21
1.0362737135
  0
LINE
  5
232
100
AcDbEntity
  8
RACCORDO
100
AcDbLine
 62
7
  6
CONTINUOUS
 10
-19.3866107969
 20
1.2508840355
 11
-19.3910071348
 21
0.8615075328
  0
LINE
  5
233
100
AcDbEntity
  8
RACCORDO
100
AcDbLine
 62
7
  6
CONTINUOUS
 10
-20.4633420316
 20
0.6064729522
 11
-20.459703232
 21
0.8491391183
  0
LINE
  5
234
100
AcDbEntity
  8
RACCORDO
100
AcDbLine
 62
7
  6
CONTINUOUS
 10
-19.3910071348
 20
0.8615075328
 11
-19.3972575274
 21
0.4923620508
  0
LINE
  5
235
100
AcDbEntity
  8
RACCORDO
100
AcDbLine
 62
7
  6
CONTINUOUS
 10
-20.4665126026
 20
0.4492362262
 11
-20.4633420316
 21
0.6064729522
  0
LWPOLYLINE
  5
236
100
AcDbEntity
  8
RACCORDO
100
AcDbPolyline
 62
7
  6
CONTINUOUS
 90
6
 70
0
 10
-19.3972575274
 20
0.4923620508
 10
-19.4052426298
 20
0.1517019849
 10
-19.4098206652
 20
-0.0056192839
 10
-19.414748784
 20
-0.1526664617
 10
-19.4200471058
 20
-0.2902403392
 10
-19.4257156307
 20
-0.4183409166
  0
LINE
  5
237
100
AcDbEntity
  8
RACCORDO
100
AcDbLine
 62
7
  6
CONTINUOUS
 10
-20.4688088568
 20
0.3576838369
 11
-20.4665126026
 21
0.4492362262
  0
LINE
  5
238
100
AcDbEntity
  8
RACCORDO
100
AcDbLine
 62
7
  6
CONTINUOUS
 10
-20.4712294464
 20
0.2775998917
 11
-20.4688088568
 21
0.3576838369
  0
LWPOLYLINE
  5
239
100
AcDbEntity
  8
RACCORDO
100
AcDbPolyline
 62
7
  6
CONTINUOUS
 90
7
 70
0
 10
-20.4804498003
 20
0.094372487
 10
-20.4790791314
 20
0.1108907752
 10
-20.4777242475
 20
0.1306626237
 10
-20.4763852043
 20
0.1537055249
 10
-20.4750619462
 20
0.1800019864
 10
-20.473761524
 20
0.209411058
 10
-20.4712294464
 20
0.2775998917
  0
LWPOLYLINE
  5
23A
100
AcDbEntity
  8
RACCORDO
100
AcDbPolyline
 62
7
  6
CONTINUOUS
 90
4
 70
0
 10
-20.4847496087
 20
4.7903645051
 10
-20.4885380741
 20
4.7759646271
 10
-20.4901695278
 20
4.7606353945
 10
-20.4902119476
 20
4.7577205532
  0
LWPOLYLINE
  5
23B
100
AcDbEntity
  8
ASSI
100
AcDbPolyline
 62
7
  6
CONTINUOUS
 90
5
 70
0
 10
-19.5036575773
 20
0.1261511047
 10
-19.5028044093
 20
0.1191290395
 10
-19.4985928863
 20
0.0929115041
 10
-19.494311396
 20
0.0745256411
 10
-19.4899599382
 20
0.0639714506
  0
LWPOLYLINE
  5
23C
100
AcDbEntity
  8
ASSI
100
AcDbPolyline
 62
7
  6
CONTINUOUS
 90
5
 70
0
 10
-19.4899599382
 20
3.8590660793
 10
-19.4943113914
 20
3.8485119131
 10
-19.4985928782
 20
3.8301260759
 10
-19.5028043986
 20
3.8039085678
 10
-19.5036575764
 20
3.7968864259
  0
LINE
  5
23D
100
AcDbEntity
  8
RACCORDO
100
AcDbLine
 62
7
  6
CONTINUOUS
 10
-20.4900704232
 20
0.0577486514
 11
-20.4902030688
 21
0.0574440188
  0
LWPOLYLINE
  5
23E
100
AcDbEntity
  8
RACCORDO
100
AcDbPolyline
 62
7
  6
CONTINUOUS
 90
7
 70
0
 10
-20.063713916
 20
3.2719275868
 10
-20.0676647366
 20
3.2642493075
 10
-20.0715602834
 20
3.2565162556
 10
-20.0754005564
 20
3.248728431
 10
-20.0791855557
 20
3.2408858339
 10
-20.0829152812
 20
3.2329884641
 10
-20.086589733
 20
3.2250363216
  0
LWPOLYLINE
  5
23F
100
AcDbEntity
  8
ASSI
100
AcDbPolyline
 62
7
  6
CONTINUOUS
 90
7
 70
0
 10
-20.063713916
 20
3.2719275868
 10
-20.0676647366
 20
3.2642493075
 10
-20.0715602834
 20
3.2565162556
 10
-20.0754005564
 20
3.248728431
 10
-20.0791855557
 20
3.2408858339
 10
-20.0829152812
 20
3.2329884641
 10
-20.086589733
 20
3.2250363216
  0
LWPOLYLINE
  5
240
100
AcDbEntity
  8
RACCORDO
100
AcDbPolyline
 62
7
  6
CONTINUOUS
 90
10
 70
0
 10
-20.063713916
 20
0.6511099431
 10
-20.0196092066
 20
0.5711688136
 10
-19.9728475721
 20
0.496917746
 10
-19.9234290125
 20
0.4283567402
 10
-19.8711045835
 20
0.3650347084
 10
-19.8161232294
 20
0.3074027385
 10
-19.7592317834
 20
0.2568140943
 10
-19.7004078979
 20
0.2134376354
 10
-19.6396739205
 20
0.1771045021
 10
-19.5778437276
 20
0.14866138
  0
LWPOLYLINE
  5
241
100
AcDbEntity
  8
ASSI
100
AcDbPolyline
 62
7
  6
CONTINUOUS
 90
10
 70
0
 10
-20.063713916
 20
0.6511099431
 10
-20.0196092066
 20
0.5711688136
 10
-19.9728475721
 20
0.496917746
 10
-19.9234290125
 20
0.4283567402
 10
-19.8711045835
 20
0.3650347084
 10
-19.8161232294
 20
0.3074027385
 10
-19.7592317834
 20
0.2568140943
 10
-19.7004078979
 20
0.2134376354
 10
-19.6396739205
 20
0.1771045021
 10
-19.5778437276
 20
0.14866138
  0
LWPOLYLINE
  5
242
100
AcDbEntity
  8
RACCORDO
100
AcDbPolyline
 62
7
  6
CONTINUOUS
 90
7
 70
0
 10
-20.086589733
 20
0.6980012082
 10
-20.0829152812
 20
0.6900490658
 10
-20.0791855557
 20
0.682151696
 10
-20.0754005564
 20
0.6743090988
 10
-20.0715602834
 20
0.6665212743
 10
-20.0676647366
 20
0.6587882224
 10
-20.063713916
 20
0.6511099431
  0
LWPOLYLINE
  5
243
100
AcDbEntity
  8
ASSI
100
AcDbPolyline
 62
7
  6
CONTINUOUS
 90
7
 70
0
 10
-20.086589733
 20
0.6980012082
 10
-20.0829152812
 20
0.6900490658
 10
-20.0791855557
 20
0.682151696
 10
-20.0754005564
 20
0.6743090988
 10
-20.0715602834
 20
0.6665212743
 10
-20.0676647366
 20
0.6587882224
 10
-20.063713916
 20
0.6511099431
  0
LINE
  5
244
100
AcDbEntity
  8
RACCORDO
100
AcDbLine
 62
7
  6
CONTINUOUS
 10
-20.4902030688
 20
3.865593511
 11
-20.4900704232
 21
3.8652888784
  0
LWPOLYLINE
  5
245
100
AcDbEntity
  8
RACCORDO
100
AcDbPolyline
 62
7
  6
CONTINUOUS
 90
18
 70
0
 10
-19.4307220901
 20
0.0333040311
 10
-19.4294827231
 20
0.0299171089
 10
-19.4283126528
 20
0.0222416067
 10
-19.4272118791
 20
0.0102775244
 10
-19.4261622353
 20
-0.0063642701
 10
-19.4251818882
 20
-0.0272946448
 10
-19.424325338
 20
-0.0513462026
 10
-19.4235996264
 20
-0.0786948137
 10
-19.4229977117
 20
-0.1091646081
 10
-19.4225529687
 20
-0.1410605789
 10
-19.4222742796
 20
-0.174462567
 10
-19.4221527622
 20
-0.2092907316
 10
-19.4221951449
 20
-0.2436105424
 10
-19.4224106768
 20
-0.2773936006
 10
-19.4227901088
 20
-0.3106683051
 10
-19.423312422
 20
-0.3415853223
 10
-19.4239706103
 20
-0.3695282077
 10
-19.4247716799
 20
-0.3951134058
  0
LWPOLYLINE
  5
246
100
AcDbEntity
  8
RACCORDO
100
AcDbPolyline
 62
7
  6
CONTINUOUS
 90
5
 70
0
 10
-20.4860109305
 20
0.0618081441
 10
-20.4846083986
 20
0.0649288066
 10
-20.4832144339
 20
0.0713915028
 10
-20.4818290365
 20
0.0811962325
 10
-20.4804498003
 20
0.094372487
  0
LWPOLYLINE
  5
247
100
AcDbEntity
  8
RACCORDO
100
AcDbPolyline
 62
253
  6
CONTINUOUS
 90
7
 70
0
 10
-20.3237403659
 20
4.8274003261
 10
-20.3331167913
 20
4.8172500172
 10
-20.3411072274
 20
4.8056282212
 10
-20.3475371912
 20
4.7927887173
 10
-20.3522662749
 20
4.7790118756
 10
-20.3551912119
 20
4.7645985341
 10
-20.3562481319
 20
4.7498634298
  0
LWPOLYLINE
  5
248
100
AcDbEntity
  8
RACCORDO
100
AcDbPolyline
 62
7
  6
CONTINUOUS
 90
5
 70
0
 10
-20.4611422806
 20
4.8283459637
 10
-20.4639422049
 20
4.8254012766
 10
-20.4720112943
 20
4.8153385294
 10
-20.4791369967
 20
4.8035318872
 10
-20.4847496087
 20
4.7903645051
  0
LINE
  5
249
100
AcDbEntity
  8
RACCORDO
100
AcDbLine
 62
7
  6
CONTINUOUS
 10
-20.4607963318
 20
-0.9056655269
 11
-20.4572636408
 21
-0.9091982179
  0
LINE
  5
24A
100
AcDbEntity
  8
RACCORDO
100
AcDbLine
 62
253
  6
CONTINUOUS
 10
-20.3900856537
 20
-0.9349396183
 11
-20.3865440369
 21
-0.9384812351
  0
LWPOLYLINE
  5
24B
100
AcDbEntity
  8
ASSI
100
AcDbPolyline
 62
7
  6
CONTINUOUS
 90
7
 70
0
 10
-19.4899599382
 20
0.0639714506
 10
-19.4895919255
 20
0.0634646282
 10
-19.4892236346
 20
0.0630163143
 10
-19.4888550658
 20
0.062626509
 10
-19.4884862188
 20
0.0622952122
 10
-19.4881170938
 20
0.0620224239
 10
-19.4877476908
 20
0.0618081441
  0
LWPOLYLINE
  5
24C
100
AcDbEntity
  8
RACCORDO
100
AcDbPolyline
 62
7
  6
CONTINUOUS
 90
19
 70
0
 10
-19.7636874565
 20
-0.4183409166
 10
-19.7479012133
 20
-0.3942609764
 10
-19.734564706
 20
-0.3683974111
 10
-19.7236779344
 20
-0.3407502206
 10
-19.7152398348
 20
-0.3108447311
 10
-19.709251471
 20
-0.2791556164
 10
-19.7057160347
 20
-0.247106898
 10
-19.704632889
 20
-0.2147727321
 10
-19.7060026708
 20
-0.1820789625
 10
-19.7098304824
 20
-0.1502271425
 10
-19.7161436014
 20
-0.1190823962
 10
-19.7249147501
 20
-0.0887795995
 10
-19.7360671988
 20
-0.0609249332
 10
-19.7498115093
 20
-0.0353769043
 10
-19.7659371197
 20
-0.0122770058
 10
-19.7837356148
 20
0.0063441029
 10
-19.8029708561
 20
0.0198095354
 10
-19.8238789821
 20
0.0287961781
 10
-19.8464599928
 20
0.0333040311
  0
LINE
  5
24D
100
AcDbEntity
  8
RACCORDO
100
AcDbLine
 62
7
  6
CONTINUOUS
 10
-20.4572636408
 20
4.8322357478
 11
-20.4607963319
 21
4.8287030567
  0
LINE
  5
24E
100
AcDbEntity
  8
RACCORDO
100
AcDbLine
 62
253
  6
CONTINUOUS
 10
-20.3865440369
 20
4.8615187649
 11
-20.3900856537
 21
4.8579771482
  0
LINE
  5
24F
100
AcDbEntity
  8
RACCORDO
100
AcDbLine
 62
253
  6
CONTINUOUS
 10
-20.4572636591
 20
4.8322357295
 11
-20.4607963319
 21
4.8287030567
  0
LINE
  5
250
100
AcDbEntity
  8
RACCORDO
100
AcDbLine
 62
253
  6
CONTINUOUS
 10
-20.4572635839
 20
-0.9091981995
 11
-20.4605644476
 21
-0.9058966527
  0
LWPOLYLINE
  5
251
100
AcDbEntity
  8
RACCORDO
100
AcDbPolyline
 62
253
  6
CONTINUOUS
 90
10
 70
0
 10
-20.3900856537
 20
4.8579771482
 10
-20.3895830229
 20
4.8571750941
 10
-20.3869570039
 20
4.8563863408
 10
-20.3822075967
 20
4.8556108883
 10
-20.3753642364
 20
4.8548517771
 10
-20.366397488
 20
4.8541059667
 10
-20.3552190463
 20
4.8533643352
 10
-20.3417994764
 20
4.8526238419
 10
-20.3261682133
 20
4.8518875275
 10
-20.308325257
 20
4.8511553919
  0
LINE
  5
252
100
AcDbEntity
  8
RACCORDO
100
AcDbLine
 62
253
  6
CONTINUOUS
 10
-20.450846662
 20
4.8381169641
 11
-20.4543633409
 21
4.8345974217
  0
LINE
  5
253
100
AcDbEntity
  8
RACCORDO
100
AcDbLine
 62
253
  6
CONTINUOUS
 10
-20.4508465889
 20
-0.9150795005
 11
-20.4543649945
 21
-0.9115585045
  0
LWPOLYLINE
  5
254
100
AcDbEntity
  8
RACCORDO
100
AcDbPolyline
 62
7
  6
CONTINUOUS
 90
10
 70
0
 10
-20.4902030688
 20
0.0574440188
 10
-20.4892647993
 20
0.0566932768
 10
-20.4849026074
 20
0.0556481092
 10
-20.4769838475
 20
0.0546131486
 10
-20.4654542689
 20
0.0535847373
 10
-20.4503681224
 20
0.0525665329
 10
-20.4318881602
 20
0.0515695084
 10
-20.4100686331
 20
0.0505973212
 10
-20.3848552903
 20
0.0496463138
 10
-19.8464599928
 20
0.0333040311
  0
LWPOLYLINE
  5
255
100
AcDbEntity
  8
RACCORDO
100
AcDbPolyline
 62
7
  6
CONTINUOUS
 90
7
 70
0
 10
-19.7636874565
 20
4.3413784465
 10
-19.8321964946
 20
4.4239735117
 10
-19.9028262507
 20
4.5004611659
 10
-19.9755767247
 20
4.5708414089
 10
-20.0504479167
 20
4.6351142409
 10
-20.1274398265
 20
4.6932796618
 10
-20.2065524543
 20
4.7453376715
  0
LWPOLYLINE
  5
256
100
AcDbEntity
  8
RACCORDO
100
AcDbPolyline
 62
7
  6
CONTINUOUS
 90
22
 70
0
 10
-20.3237404946
 20
-0.9043624459
 10
-20.3254281471
 20
-0.906060228
 10
-20.32693105
 20
-0.907706561
 10
-20.3282492035
 20
-0.9093024666
 10
-20.3293846207
 20
-0.9108516889
 10
-20.3303352884
 20
-0.9123524137
 10
-20.331095167
 20
-0.9137975316
 10
-20.3316669364
 20
-0.9151852943
 10
-20.3320479167
 20
-0.9165198033
 10
-20.3322240278
 20
-0.9178028907
 10
-20.3322123705
 20
-0.9190342388
 10
-20.3319958441
 20
-0.9202162522
 10
-20.3315090668
 20
-0.9213546561
 10
-20.3307970035
 20
-0.9224600605
 10
-20.3298146893
 20
-0.92352335
 10
-20.3283618481
 20
-0.9245210913
 10
-20.3264101629
 20
-0.9254858913
 10
-20.3239879506
 20
-0.9263872554
 10
-20.3209798864
 20
-0.9271100321
 10
-20.3173475286
 20
-0.9276185851
 10
-20.3131293188
 20
-0.9279540598
 10
-20.308325257
 20
-0.928117862
  0
LWPOLYLINE
  5
257
100
AcDbEntity
  8
ASSI
100
AcDbPolyline
 62
7
  6
CONTINUOUS
 90
7
 70
0
 10
-19.4877476908
 20
3.8612293857
 10
-19.4881170938
 20
3.861015106
 10
-19.4884862188
 20
3.8607423177
 10
-19.4888550658
 20
3.8604110209
 10
-19.4892236346
 20
3.8600212156
 10
-19.4895919255
 20
3.8595729017
 10
-19.4899599382
 20
3.8590660793
  0
LWPOLYLINE
  5
258
100
AcDbEntity
  8
RACCORDO
100
AcDbPolyline
 62
7
  6
CONTINUOUS
 90
20
 70
0
 10
-20.3237401543
 20
4.8274000235
 10
-20.3218576518
 20
4.8256227547
 10
-20.3198688046
 20
4.8238079411
 10
-20.3177736128
 20
4.8219550031
 10
-20.3155708323
 20
4.8200639694
 10
-20.3132617071
 20
4.8181336488
 10
-20.3108499694
 20
4.8161615663
 10
-20.3083410414
 20
4.814149852
 10
-20.3057295009
 20
4.8120951094
 10
-20.3030028134
 20
4.8099861882
 10
-20.3001629442
 20
4.8078219732
 10
-20.2972079281
 20
4.8056015578
 10
-20.2941193352
 20
4.8033134439
 10
-20.2908988176
 20
4.8009560561
 10
-20.2875447231
 20
4.7985281864
 10
-20.284033665
 20
4.7960182084
 10
-20.2803672777
 20
4.7934240782
 10
-20.2765439267
 20
4.7907442291
 10
-20.2725353224
 20
4.7879670577
 10
-20.2639659034
 20
4.7821110541
  0
LINE
  5
259
100
AcDbEntity
  8
ASSI
100
AcDbLine
 62
7
  6
CONTINUOUS
 10
-19.4877476908
 20
3.8612293857
 11
-19.4307220901
 21
3.8897334988
  0
LINE
  5
25A
100
AcDbEntity
  8
ASSI
100
AcDbLine
 62
7
  6
CONTINUOUS
 10
-19.4307220901
 20
0.0333040311
 11
-19.4877476908
 21
0.0618081441
  0
LWPOLYLINE
  5
25B
100
AcDbEntity
  8
RACCORDO
100
AcDbPolyline
 62
253
  6
CONTINUOUS
 90
9
 70
0
 10
-20.4902227281
 20
4.7577159305
 10
-20.4892825357
 20
4.7570320782
 10
-20.4848674837
 20
4.7560906021
 10
-20.4769579585
 20
4.7551679503
 10
-20.4658352019
 20
4.754270178
 10
-20.4515828255
 20
4.75339123
 10
-20.4337320503
 20
4.7525129409
 10
-20.4118920074
 20
4.7516292559
 10
-20.3861058951
 20
4.7507462298
  0
LWPOLYLINE
  5
25C
100
AcDbEntity
  8
RACCORDO
100
AcDbPolyline
 62
7
  6
CONTINUOUS
 90
19
 70
0
 10
-20.2721578368
 20
-0.8646692307
 10
-20.27617802
 20
-0.8674519453
 10
-20.2800170358
 20
-0.8701401039
 10
-20.2837015256
 20
-0.8727445004
 10
-20.2872330483
 20
-0.8752666452
 10
-20.2906100448
 20
-0.8777085109
 10
-20.2938544797
 20
-0.8800809439
 10
-20.2969679412
 20
-0.8823851218
 10
-20.2999488409
 20
-0.8846225808
 10
-20.3028143787
 20
-0.8868040707
 10
-20.3055664635
 20
-0.8889304947
 10
-20.3082031863
 20
-0.89100295
 10
-20.3107360203
 20
-0.8930318589
 10
-20.3131700419
 20
-0.8950203665
 10
-20.3155001746
 20
-0.8969666196
 10
-20.3177226619
 20
-0.8988731757
 10
-20.3198362516
 20
-0.9007412573
 10
-20.3218421958
 20
-0.9025708184
 10
-20.3237404946
 20
-0.9043624459
  0
LINE
  5
25D
100
AcDbEntity
  8
RACCORDO
100
AcDbLine
 62
7
  6
CONTINUOUS
 10
-20.2635773281
 20
-0.8588108589
 11
-20.2721578368
 21
-0.8646692307
  0
LWPOLYLINE
  5
25E
100
AcDbEntity
  8
RACCORDO
100
AcDbPolyline
 62
7
  6
CONTINUOUS
 90
3
 70
0
 10
-20.2491615543
 20
-0.8492078078
 10
-20.2541790222
 20
-0.8525226097
 10
-20.2635773281
 20
-0.8588108589
  0
LWPOLYLINE
  5
25F
100
AcDbEntity
  8
RACCORDO
100
AcDbPolyline
 62
7
  6
CONTINUOUS
 90
7
 70
0
 10
-20.2065524543
 20
-0.8223001416
 10
-20.1274398272
 20
-0.7702421325
 10
-20.0504479178
 20
-0.712076712
 10
-19.975576726
 20
-0.6478038802
 10
-19.9028262518
 20
-0.577423637
 10
-19.8321964953
 20
-0.5009359825
 10
-19.7636874565
 20
-0.4183409166
  0
LWPOLYLINE
  5
260
100
AcDbEntity
  8
RACCORDO
100
AcDbPolyline
 62
7
  6
CONTINUOUS
 90
4
 70
0
 10
-20.2265515378
 20
-0.8346713844
 10
-20.2326125212
 20
-0.838505982
 10
-20.2383783038
 20
-0.8422025038
 10
-20.2491615543
 20
-0.8492078078
  0
LWPOLYLINE
  5
261
100
AcDbEntity
  8
RACCORDO
100
AcDbPolyline
 62
7
  6
CONTINUOUS
 90
10
 70
0
 10
-19.5778437253
 20
3.7743761508
 10
-19.6396739197
 20
3.7459330276
 10
-19.7004078995
 20
3.7095998929
 10
-19.7592317866
 20
3.666223433
 10
-19.8161232321
 20
3.6156347892
 10
-19.8711045848
 20
3.5580028203
 10
-19.9234290128
 20
3.4946807893
 10
-19.972847572
 20
3.4261197839
 10
-20.0196092064
 20
3.3518687164
 10
-20.063713916
 20
3.2719275868
  0
LWPOLYLINE
  5
262
100
AcDbEntity
  8
ASSI
100
AcDbPolyline
 62
7
  6
CONTINUOUS
 90
10
 70
0
 10
-19.5778437253
 20
3.7743761508
 10
-19.6396739197
 20
3.7459330276
 10
-19.7004078995
 20
3.7095998929
 10
-19.7592317866
 20
3.666223433
 10
-19.8161232321
 20
3.6156347892
 10
-19.8711045848
 20
3.5580028203
 10
-19.9234290128
 20
3.4946807893
 10
-19.972847572
 20
3.4261197839
 10
-20.0196092064
 20
3.3518687164
 10
-20.063713916
 20
3.2719275868
  0
LWPOLYLINE
  5
263
100
AcDbEntity
  8
RACCORDO
100
AcDbPolyline
 62
7
  6
CONTINUOUS
 90
4
 70
0
 10
-20.2328826647
 20
4.7617153504
 10
-20.2267713393
 20
4.7578473911
 10
-20.2203379281
 20
4.753830017
 10
-20.2065524543
 20
4.7453376715
  0
LWPOLYLINE
  5
264
100
AcDbEntity
  8
RACCORDO
100
AcDbPolyline
 62
7
  6
CONTINUOUS
 90
3
 70
0
 10
-20.2495247765
 20
4.7724837654
 10
-20.24423427
 20
4.7690279498
 10
-20.2328826647
 20
4.7617153504
  0
LWPOLYLINE
  5
265
100
AcDbEntity
  8
RACCORDO
100
AcDbPolyline
 62
7
  6
CONTINUOUS
 90
3
 70
0
 10
-20.2639659034
 20
4.7821110541
 10
-20.2593696998
 20
4.7790190396
 10
-20.2495247765
 20
4.7724837654
  0
LWPOLYLINE
  5
266
100
AcDbEntity
  8
RACCORDO
100
AcDbPolyline
 62
253
  6
CONTINUOUS
 90
19
 70
0
 10
-6.3248690278
 20
-1.1271260336
 10
-6.3225373423
 20
-1.1793579469
 10
-6.315665759
 20
-1.2311917668
 10
-6.3043066004
 20
-1.2822336865
 10
-6.2885463349
 20
-1.3320959251
 10
-6.2685047606
 20
-1.3803996419
 10
-6.2443340673
 20
-1.4267778033
 10
-6.2162179444
 20
-1.4708780106
 10
-6.1843700952
 20
-1.5123652086
 10
-6.1490324121
 20
-1.5509241744
 10
-6.1104733161
 20
-1.5862618989
 10
-6.0689858821
 20
-1.6181098372
 10
-6.024885497
 20
-1.6462259799
 10
-5.9785073046
 20
-1.6703966156
 10
-5.930203646
 20
-1.6904381091
 10
-5.8803415236
 20
-1.7061982854
 10
-5.8292997669
 20
-1.7175573581
 10
-5.7774661683
 20
-1.7244288755
 10
-5.7252345316
 20
-1.7267605298
  0
LINE
  5
267
100
AcDbEntity
  8
DRAFT
100
AcDbLine
 62
7
  6
CONTINUOUS
 10
-6.3591213599
 20
3.8253857858
 11
-6.3501825773
 21
3.4571778871
  0
LINE
  5
268
100
AcDbEntity
  8
DRAFT
100
AcDbLine
 62
7
  6
CONTINUOUS
 10
-6.3501825773
 20
3.4571778871
 11
-6.3433089145
 21
3.0557423154
  0
LINE
  5
269
100
AcDbEntity
  8
DRAFT
100
AcDbLine
 62
7
  6
CONTINUOUS
 10
-6.3433089145
 20
3.0557423154
 11
-6.3386178749
 21
2.6279655331
  0
LINE
  5
26A
100
AcDbEntity
  8
DRAFT
100
AcDbLine
 62
7
  6
CONTINUOUS
 10
-6.3386178749
 20
2.6279655331
 11
-6.3362550956
 21
2.184746698
  0
LINE
  5
26B
100
AcDbEntity
  8
RACCORDO
100
AcDbLine
 62
7
  6
CONTINUOUS
 10
-6.4389708873
 20
-1.2412278931
 11
-6.4389708873
 21
-0.9384812351
  0
LINE
  5
26C
100
AcDbEntity
  8
RACCORDO
100
AcDbLine
 62
7
  6
CONTINUOUS
 10
-6.4389708873
 20
4.8615187649
 11
-6.4389708873
 21
5.164265423
  0
LINE
  5
26D
100
AcDbEntity
  8
RACCORDO
100
AcDbLine
 62
253
  6
CONTINUOUS
 10
-6.3248690278
 20
5.0501635635
 11
-6.3248690278
 21
-1.1271260336
  0
LINE
  5
26E
100
AcDbEntity
  8
DRAFT
100
AcDbLine
 62
7
  6
CONTINUOUS
 10
-6.3362550956
 20
2.184746698
 11
-6.3362566619
 21
1.7377024945
  0
LINE
  5
26F
100
AcDbEntity
  8
DRAFT
100
AcDbLine
 62
7
  6
CONTINUOUS
 10
-6.3362566619
 20
1.7377024945
 11
-6.3386225817
 21
1.2944910643
  0
LINE
  5
270
100
AcDbEntity
  8
DRAFT
100
AcDbLine
 62
7
  6
CONTINUOUS
 10
-6.3386225817
 20
1.2944910643
 11
-6.3433167957
 21
0.8667300579
  0
LINE
  5
271
100
AcDbEntity
  8
DRAFT
100
AcDbLine
 62
7
  6
CONTINUOUS
 10
-6.3433167957
 20
0.8667300579
 11
-6.3501936831
 21
0.4653194553
  0
LWPOLYLINE
  5
272
100
AcDbEntity
  8
DRAFT
100
AcDbPolyline
 62
7
  6
CONTINUOUS
 90
11
 70
0
 10
-6.3501936831
 20
0.4653194553
 10
-6.3591357389
 20
0.0971467092
 10
-6.3643043909
 20
-0.0706830517
 10
-6.3699326537
 20
-0.2277952394
 10
-6.3759233875
 20
-0.3714774507
 10
-6.3822830117
 20
-0.5014921639
 10
-6.389005107
 20
-0.6180769007
 10
-6.3959732757
 20
-0.7192318228
 10
-6.4031487185
 20
-0.8042903173
 10
-6.4105702347
 20
-0.873918997
 10
-6.4182378243
 20
-0.928117862
  0
LWPOLYLINE
  5
273
100
AcDbEntity
  8
RACCORDO
100
AcDbPolyline
 62
7
  6
CONTINUOUS
 90
16
 70
0
 10
-6.4389708873
 20
5.164265423
 10
-6.4353863004
 20
5.2280903574
 10
-6.4256021046
 20
5.2898872403
 10
-6.4096182998
 20
5.3496560718
 10
-6.3871259652
 20
5.4079998599
 10
-6.3584340217
 20
5.4643155966
 10
-6.3244692314
 20
5.5167942573
 10
-6.2850619052
 20
5.5653114315
 10
-6.2403817324
 20
5.6099915298
 10
-6.1918645428
 20
5.6493987593
 10
-6.1393859582
 20
5.6833634252
 10
-6.0830703569
 20
5.7120552222
 10
-6.0247267031
 20
5.7345474411
 10
-5.9649579849
 20
5.7505311786
 10
-5.9031612142
 20
5.760315338
 10
-5.839336391
 20
5.7638999192
  0
LWPOLYLINE
  5
274
100
AcDbEntity
  8
RACCORDO
100
AcDbPolyline
 62
7
  6
CONTINUOUS
 90
3
 70
0
 10
-20.2065524543
 20
-0.8223001416
 10
-20.2135140162
 20
-0.8265711084
 10
-20.2265515378
 20
-0.8346713844
  0
LWPOLYLINE
  5
275
100
AcDbEntity
  8
RACCORDO
100
AcDbPolyline
 62
7
  6
CONTINUOUS
 90
3
 70
0
 10
-19.5778437276
 20
0.14866138
 10
-19.5151886115
 20
0.1283904973
 10
-19.4899599382
 20
0.1234909452
  0
LWPOLYLINE
  5
276
100
AcDbEntity
  8
ASSI
100
AcDbPolyline
 62
7
  6
CONTINUOUS
 90
3
 70
0
 10
-19.5778437276
 20
0.14866138
 10
-19.5151886115
 20
0.1283904973
 10
-19.4899599382
 20
0.1234909452
  0
LWPOLYLINE
  5
277
100
AcDbEntity
  8
RACCORDO
100
AcDbPolyline
 62
253
  6
CONTINUOUS
 90
19
 70
0
 10
-5.8251736143
 20
-1.1271260336
 10
-5.8247901199
 20
-1.1358598722
 10
-5.8236710052
 20
-1.1444262573
 10
-5.8218162704
 20
-1.1528251891
 10
-5.8192017688
 20
-1.1611264421
 10
-5.815851647
 20
-1.1692602417
 10
-5.8118383443
 20
-1.1770172637
 10
-5.8071434898
 20
-1.184383277
 10
-5.8017854544
 20
-1.1913725128
 10
-5.7958917905
 20
-1.1978183403
 10
-5.7894517017
 20
-1.2037042048
 10
-5.7824759844
 20
-1.2090466611
 10
-5.7751245796
 20
-1.2137287422
 10
-5.7673845813
 20
-1.2177356927
 10
-5.7592688956
 20
-1.2210822682
 10
-5.7509761818
 20
-1.2236957683
 10
-5.7425726598
 20
-1.2255519596
 10
-5.7339921097
 20
-1.2266750756
 10
-5.7252345316
 20
-1.2270651163
  0
LINE
  5
278
100
AcDbEntity
  8
RACCORDO
100
AcDbLine
 62
253
  6
CONTINUOUS
 10
-5.8251736143
 20
5.0501635635
 11
-5.8251736143
 21
-1.1271260336
  0
LINE
  5
279
100
AcDbEntity
  8
RACCORDO
100
AcDbLine
 62
253
  6
CONTINUOUS
 10
-5.7252345316
 20
-1.2270651163
 11
-5.7252345316
 21
-1.7267605298
  0
LINE
  5
27A
100
AcDbEntity
  8
RACCORDO
100
AcDbLine
 62
253
  6
CONTINUOUS
 10
-5.7252345316
 20
5.1501026462
 11
-5.7252345349
 21
5.6497980597
  0
LWPOLYLINE
  5
27B
100
AcDbEntity
  8
DRAFT
100
AcDbPolyline
 62
7
  6
CONTINUOUS
 90
32
 70
0
 10
-19.4899599382
 20
2.9408059228
 10
-19.492338684
 20
2.9401006078
 10
-19.542346698
 20
2.9153357231
 10
-19.5908976171
 20
2.8804674041
 10
-19.6375375618
 20
2.8362285477
 10
-19.6809048939
 20
2.7848178441
 10
-19.720765457
 20
2.7261224384
 10
-19.7573534075
 20
2.6602551855
 10
-19.7900095765
 20
2.5897533394
 10
-19.8185710199
 20
2.5147347496
 10
-19.8432006819
 20
2.4350815666
 10
-19.863728226
 20
2.3529774959
 10
-19.8800932283
 20
2.2685823288
 10
-19.8923561128
 20
2.181736274
 10
-19.9005278151
 20
2.0941436627
 10
-19.9046112954
 20
2.0058711725
 10
-19.9046035937
 20
1.9168521258
 10
-19.9005067649
 20
1.828590821
 10
-19.8923246326
 20
1.7410237334
 10
-19.8800533733
 20
1.6542143877
 10
-19.8636835716
 20
1.5698576569
 10
-19.8431560077
 20
1.4877929827
 10
-19.8185299014
 20
1.4081809233
 10
-19.7899734963
 20
1.3331980264
 10
-19.7573241009
 20
1.2627241449
 10
-19.7207444067
 20
1.1968794258
 10
-19.6808907325
 20
1.1382008573
 10
-19.6375277036
 20
1.0867997992
 10
-19.5908906946
 20
1.0425648918
 10
-19.5423421488
 20
1.0076990438
 10
-19.4923362138
 20
0.9829365581
 10
-19.4899599382
 20
0.9822319972
  0
LWPOLYLINE
  5
27C
100
AcDbEntity
  8
ASSI
100
AcDbPolyline
 62
7
  6
CONTINUOUS
 90
32
 70
0
 10
-19.4899599382
 20
2.9408059228
 10
-19.492338684
 20
2.9401006078
 10
-19.542346698
 20
2.9153357231
 10
-19.5908976171
 20
2.8804674041
 10
-19.6375375618
 20
2.8362285477
 10
-19.6809048939
 20
2.7848178441
 10
-19.720765457
 20
2.7261224384
 10
-19.7573534075
 20
2.6602551855
 10
-19.7900095765
 20
2.5897533394
 10
-19.8185710199
 20
2.5147347496
 10
-19.8432006819
 20
2.4350815666
 10
-19.863728226
 20
2.3529774959
 10
-19.8800932283
 20
2.2685823288
 10
-19.8923561128
 20
2.181736274
 10
-19.9005278151
 20
2.0941436627
 10
-19.9046112954
 20
2.0058711725
 10
-19.9046035937
 20
1.9168521258
 10
-19.9005067649
 20
1.828590821
 10
-19.8923246326
 20
1.7410237334
 10
-19.8800533733
 20
1.6542143877
 10
-19.8636835716
 20
1.5698576569
 10
-19.8431560077
 20
1.4877929827
 10
-19.8185299014
 20
1.4081809233
 10
-19.7899734963
 20
1.3331980264
 10
-19.7573241009
 20
1.2627241449
 10
-19.7207444067
 20
1.1968794258
 10
-19.6808907325
 20
1.1382008573
 10
-19.6375277036
 20
1.0867997992
 10
-19.5908906946
 20
1.0425648918
 10
-19.5423421488
 20
1.0076990438
 10
-19.4923362138
 20
0.9829365581
 10
-19.4899599382
 20
0.9822319972
  0
LWPOLYLINE
  5
27D
100
AcDbEntity
  8
DRAFT
100
AcDbPolyline
 62
7
  6
CONTINUOUS
 90
10
 70
0
 10
-6.4182378243
 20
4.8511553919
 10
-6.410562597
 20
4.7968753948
 10
-6.4031352095
 20
4.7271694723
 10
-6.3959556619
 20
4.6420376243
 10
-6.388985497
 20
4.5408100849
 10
-6.3822631719
 20
4.4241566199
 10
-6.3759040585
 20
4.2940865277
 10
-6.369914483
 20
4.1503688599
 10
-6.3642881191
 20
3.9932345648
 10
-6.3591213599
 20
3.8253857858
  0
LWPOLYLINE
  5
27E
100
AcDbEntity
  8
RACCORDO
100
AcDbPolyline
 62
7
  6
CONTINUOUS
 90
16
 70
0
 10
13.6137757708
 20
-1.7884812351
 10
13.6776380257
 20
-1.7848926055
 10
13.7394693734
 20
-1.77509721
 10
13.7992698138
 20
-1.7590950484
 10
13.8576436042
 20
-1.7365764789
 10
13.9139864874
 20
-1.7078511434
 10
13.9664856915
 20
-1.673847968
 10
14.0150162151
 20
-1.6343968865
 10
14.0597030595
 20
-1.5896679651
 10
14.0991084578
 20
-1.541100328
 10
14.1330622162
 20
-1.4885482385
 10
14.1617345284
 20
-1.4321574333
 10
14.1841982082
 20
-1.3738042473
 10
14.2001441936
 20
-1.3141141254
 10
14.2098815465
 20
-1.2524616225
 10
14.213410267
 20
-1.1888467388
  0
LWPOLYLINE
  5
27F
100
AcDbEntity
  8
RACCORDO
100
AcDbPolyline
 62
253
  6
CONTINUOUS
 90
19
 70
0
 10
13.5520550655
 20
-1.7267605298
 10
13.6042869788
 20
-1.7244288443
 10
13.6561207987
 20
-1.717557261
 10
13.7071627184
 20
-1.7061981024
 10
13.757024957
 20
-1.6904378369
 10
13.8053286738
 20
-1.6703962627
 10
13.8517068352
 20
-1.6462255694
 10
13.8958070425
 20
-1.6181094465
 10
13.9372942405
 20
-1.5862615972
 10
13.9758532064
 20
-1.5509239142
 10
14.0111909309
 20
-1.5123648181
 10
14.0430388691
 20
-1.4708773841
 10
14.0711550118
 20
-1.4267769991
 10
14.0953256475
 20
-1.3803988066
 10
14.1153671411
 20
-1.3320951481
 10
14.1311273173
 20
-1.2822330256
 10
14.1424863901
 20
-1.2311912689
 10
14.1493579074
 20
-1.1793576704
 10
14.1516895617
 20
-1.1271260336
  0
LWPOLYLINE
  5
280
100
AcDbEntity
  8
RACCORDO
100
AcDbPolyline
 62
7
  6
CONTINUOUS
 90
16
 70
0
 10
-5.839336391
 20
-1.8408623893
 10
-5.9031612142
 20
-1.8372778081
 10
-5.9649579849
 20
-1.8274936488
 10
-6.0247267031
 20
-1.8115099112
 10
-6.0830703569
 20
-1.7890176923
 10
-6.1393859582
 20
-1.7603258953
 10
-6.1918645428
 20
-1.7263612294
 10
-6.2403817324
 20
-1.686954
 10
-6.2850619052
 20
-1.6422739017
 10
-6.3244692314
 20
-1.5937567274
 10
-6.3584340217
 20
-1.5412780667
 10
-6.3871259652
 20
-1.48496233
 10
-6.4096182998
 20
-1.4266185419
 10
-6.4256021046
 20
-1.3668497104
 10
-6.4353863004
 20
-1.3050528275
 10
-6.4389708873
 20
-1.2412278931
  0
LWPOLYLINE
  5
281
100
AcDbEntity
  8
RACCORDO
100
AcDbPolyline
 62
253
  6
CONTINUOUS
 90
4
 70
0
 10
-20.3900856537
 20
-0.9349396183
 10
-20.4074511594
 20
-0.9334253267
 10
-20.424288819
 20
-0.9289179022
 10
-20.4400868308
 20
-0.9215543533
  0
LWPOLYLINE
  5
282
100
AcDbEntity
  8
RACCORDO
100
AcDbPolyline
 62
7
  6
CONTINUOUS
 90
6
 70
0
 10
-20.3866049635
 20
-0.9384812351
 10
-20.4039580984
 20
-0.9369578675
 10
-20.4207849271
 20
-0.9324444828
 10
-20.4365743808
 20
-0.9250774011
 10
-20.4508465889
 20
-0.9150795005
 10
-20.4572635839
 20
-0.9091981995
  0
LINE
  5
283
100
AcDbEntity
  8
RACCORDO
100
AcDbLine
 62
253
  6
CONTINUOUS
 10
-6.4389708873
 20
-1.2412278931
 11
-6.3248690278
 21
-1.1271260336
  0
LINE
  5
284
100
AcDbEntity
  8
RACCORDO
100
AcDbLine
 62
7
  6
CONTINUOUS
 10
2.013410267
 20
-1.7884812351
 11
2.1168831868
 21
-1.7833600988
  0
LINE
  5
285
100
AcDbEntity
  8
ASSI
100
AcDbLine
 62
7
  6
CONTINUOUS
 10
2.013410267
 20
-1.7884812351
 11
2.1168831868
 21
-1.7833600988
  0
LWPOLYLINE
  5
286
100
AcDbEntity
  8
RACCORDO
100
AcDbPolyline
 62
253
  6
CONTINUOUS
 90
19
 70
0
 10
13.5520550655
 20
-1.2270651163
 10
13.5607889041
 20
-1.2266816219
 10
13.5693552893
 20
-1.2255625073
 10
13.577754221
 20
-1.2237077724
 10
13.586055474
 20
-1.2210932709
 10
13.5941892736
 20
-1.2177431491
 10
13.6019462956
 20
-1.2137298464
 10
13.609312309
 20
-1.2090349919
 10
13.6163015447
 20
-1.2036769565
 10
13.6227473722
 20
-1.1977832925
 10
13.6286332367
 20
-1.1913432037
 10
13.633975693
 20
-1.1843674864
 10
13.6386577741
 20
-1.1770160817
 10
13.6426647247
 20
-1.1692760834
 10
13.6460113001
 20
-1.1611603976
 10
13.6486248002
 20
-1.1528676838
 10
13.6504809915
 20
-1.1444641618
 10
13.6516041076
 20
-1.1358836117
 10
13.6519941482
 20
-1.1271260336
  0
LINE
  5
287
100
AcDbEntity
  8
RACCORDO
100
AcDbLine
 62
7
  6
CONTINUOUS
 10
2.1308777125
 20
-1.7828561775
 11
2.1168831868
 21
-1.7833600988
  0
LINE
  5
288
100
AcDbEntity
  8
ASSI
100
AcDbLine
 62
7
  6
CONTINUOUS
 10
2.1308777125
 20
-1.7828561775
 11
2.1168831868
 21
-1.7833600988
  0
LINE
  5
289
100
AcDbEntity
  8
RACCORDO
100
AcDbLine
 62
7
  6
CONTINUOUS
 10
2.1506753266
 20
-1.7823814975
 11
2.1308777125
 21
-1.7828561775
  0
LINE
  5
28A
100
AcDbEntity
  8
ASSI
100
AcDbLine
 62
7
  6
CONTINUOUS
 10
2.1506753266
 20
-1.7823814975
 11
2.1308777125
 21
-1.7828561775
  0
LINE
  5
28B
100
AcDbEntity
  8
RACCORDO
100
AcDbLine
 62
7
  6
CONTINUOUS
 10
2.2081785331
 20
-1.7815146764
 11
2.1506753266
 21
-1.7823814975
  0
LINE
  5
28C
100
AcDbEntity
  8
ASSI
100
AcDbLine
 62
7
  6
CONTINUOUS
 10
2.2081785331
 20
-1.7815146764
 11
2.1506753266
 21
-1.7823814975
  0
LWPOLYLINE
  5
28D
100
AcDbEntity
  8
RACCORDO
100
AcDbPolyline
 62
7
  6
CONTINUOUS
 90
15
 70
0
 10
13.7039186936
 20
-0.7372695172
 10
13.7542778346
 20
-0.7368612506
 10
13.8030715713
 20
-0.7361933869
 10
13.850774471
 20
-0.7352536963
 10
13.8969119664
 20
-0.7340544086
 10
13.9400603554
 20
-0.7326322132
 10
13.9801283318
 20
-0.7309801254
 10
14.0172072017
 20
-0.7291051298
 10
14.0501471817
 20
-0.7270648704
 10
14.0788198716
 20
-0.7248540898
 10
14.1033536715
 20
-0.7224780453
 10
14.1229839988
 20
-0.7200101525
 10
14.1374559924
 20
-0.7174748832
 10
14.1470245134
 20
-0.7148477656
 10
14.1516895617
 20
-0.7121287996
  0
LINE
  5
28E
100
AcDbEntity
  8
RACCORDO
100
AcDbLine
 62
7
  6
CONTINUOUS
 10
2.3343892429
 20
-1.7804744479
 11
2.2081785331
 21
-1.7815146764
  0
LINE
  5
28F
100
AcDbEntity
  8
ASSI
100
AcDbLine
 62
7
  6
CONTINUOUS
 10
2.3343892429
 20
-1.7804744479
 11
2.2081785331
 21
-1.7815146764
  0
LINE
  5
290
100
AcDbEntity
  8
RACCORDO
100
AcDbLine
 62
7
  6
CONTINUOUS
 10
2.1264018322
 20
-1.7364511929
 11
2.2031168994
 21
-1.7361000808
  0
LINE
  5
291
100
AcDbEntity
  8
RACCORDO
100
AcDbLine
 62
7
  6
CONTINUOUS
 10
2.5499931009
 20
-1.7797871302
 11
2.3343892429
 21
-1.7804744479
  0
LINE
  5
292
100
AcDbEntity
  8
ASSI
100
AcDbLine
 62
7
  6
CONTINUOUS
 10
2.5499931009
 20
-1.7797871302
 11
2.3343892429
 21
-1.7804744479
  0
LINE
  5
293
100
AcDbEntity
  8
RACCORDO
100
AcDbLine
 62
7
  6
CONTINUOUS
 10
-5.586589733
 20
-1.8408623893
 11
-5.839336391
 21
-1.8408623893
  0
LINE
  5
294
100
AcDbEntity
  8
DRAFT
100
AcDbLine
 62
7
  6
CONTINUOUS
 10
-5.5342085788
 20
-1.7884812351
 11
1.8610291127
 21
-1.7884812351
  0
LINE
  5
295
100
AcDbEntity
  8
DRAFT
100
AcDbLine
 62
7
  6
CONTINUOUS
 10
2.013410267
 20
-1.7884812351
 11
5.213410267
 21
-1.7884812351
  0
LINE
  5
296
100
AcDbEntity
  8
RACCORDO
100
AcDbLine
 62
7
  6
CONTINUOUS
 10
2.013410267
 20
-1.7884812351
 11
-5.1804573855
 21
-1.7884812351
  0
LINE
  5
297
100
AcDbEntity
  8
ASSI
100
AcDbLine
 62
7
  6
CONTINUOUS
 10
12.9634159785
 20
-1.7884812351
 11
-5.1804573855
 21
-1.7884812351
  0
LINE
  5
298
100
AcDbEntity
  8
RACCORDO
100
AcDbLine
 62
7
  6
CONTINUOUS
 10
5.213410267
 20
-1.7884812351
 11
13.6137757708
 21
-1.7884812351
  0
LINE
  5
299
100
AcDbEntity
  8
RACCORDO
100
AcDbLine
 62
253
  6
CONTINUOUS
 10
-5.7252345316
 20
-1.7267605298
 11
13.5520550655
 21
-1.7267605298
  0
LINE
  5
29A
100
AcDbEntity
  8
RACCORDO
100
AcDbLine
 62
253
  6
CONTINUOUS
 10
-5.7252345316
 20
-1.2270651163
 11
13.5520550655
 21
-1.2270651163
  0
LINE
  5
29B
100
AcDbEntity
  8
RACCORDO
100
AcDbLine
 62
253
  6
CONTINUOUS
 10
-5.8251736143
 20
-1.1271260336
 11
-6.3248690278
 21
-1.1271260272
  0
LINE
  5
29C
100
AcDbEntity
  8
RACCORDO
100
AcDbLine
 62
253
  6
CONTINUOUS
 10
13.6519941482
 20
-1.1271260336
 11
14.1516895617
 21
-1.1271260336
  0
LINE
  5
29D
100
AcDbEntity
  8
DRAFT
100
AcDbLine
 62
7
  6
CONTINUOUS
 10
-19.386589733
 20
-0.9384812351
 11
-6.4389708873
 21
-0.9384812351
  0
LINE
  5
29E
100
AcDbEntity
  8
ASSI
100
AcDbLine
 62
7
  6
CONTINUOUS
 10
-19.386589733
 20
-0.9384812351
 11
-6.4389708873
 21
-0.9384812351
  0
LINE
  5
29F
100
AcDbEntity
  8
RACCORDO
100
AcDbLine
 62
7
  6
CONTINUOUS
 10
-20.3866049635
 20
-0.9384812351
 11
-6.4389708873
 21
-0.9384812351
  0
LINE
  5
2A0
100
AcDbEntity
  8
RACCORDO
100
AcDbLine
 62
7
  6
CONTINUOUS
 10
-6.4182378243
 20
-0.928117862
 11
-20.308325257
 21
-0.928117862
  0
LINE
  5
2A1
100
AcDbEntity
  8
RACCORDO
100
AcDbLine
 62
7
  6
CONTINUOUS
 10
13.7039186936
 20
-0.7372695172
 11
12.8644733154
 21
-0.7374181867
  0
LINE
  5
2A2
100
AcDbEntity
  8
DRAFT
100
AcDbLine
 62
7
  6
CONTINUOUS
 10
13.1025016822
 20
-0.6850104074
 11
12.9168810947
 21
-0.6850104074
  0
LINE
  5
2A3
100
AcDbEntity
  8
DRAFT
100
AcDbLine
 62
7
  6
CONTINUOUS
 10
14.213410267
 20
-0.6195006833
 11
14.183410267
 21
-0.6195006833
  0
LINE
  5
2A4
100
AcDbEntity
  8
RACCORDO
100
AcDbLine
 62
253
  6
CONTINUOUS
 10
14.1455621428
 20
-0.5058639739
 11
13.1323328879
 21
-0.5058639739
  0
LWPOLYLINE
  5
2A5
100
AcDbEntity
  8
RACCORDO
100
AcDbPolyline
 62
7
  6
CONTINUOUS
 90
13
 70
0
 10
2.2031168994
 20
-1.7361000808
 10
5.062968812
 20
-1.7361970652
 10
5.1004187018
 20
-1.7364511929
 10
5.1360533039
 20
-1.7368624638
 10
5.1703906592
 20
-1.7374425813
 10
5.2029127268
 20
-1.7381798421
 10
5.2320653839
 20
-1.7390391361
 10
5.2576859443
 20
-1.7400264148
 10
5.2799370942
 20
-1.7411357268
 10
5.2977527693
 20
-1.7423141074
 10
5.3107776151
 20
-1.7435439018
 10
5.3193669862
 20
-1.7448427648
 10
5.3235208826
 20
-1.7462106965
  0
LINE
  5
2A6
100
AcDbEntity
  8
RACCORDO
100
AcDbLine
 62
7
  6
CONTINUOUS
 10
4.8416317659
 20
-1.7802185018
 11
2.5499931009
 21
-1.7797871302
  0
LINE
  5
2A7
100
AcDbEntity
  8
ASSI
100
AcDbLine
 62
7
  6
CONTINUOUS
 10
4.8416317659
 20
-1.7802185018
 11
2.5499931009
 21
-1.7797871302
  0
LINE
  5
2A8
100
AcDbEntity
  8
RACCORDO
100
AcDbLine
 62
7
  6
CONTINUOUS
 10
4.9809364086
 20
-1.7811225352
 11
4.8416317659
 21
-1.7802185018
  0
LINE
  5
2A9
100
AcDbEntity
  8
ASSI
100
AcDbLine
 62
7
  6
CONTINUOUS
 10
4.9809364086
 20
-1.7811225352
 11
4.8416317659
 21
-1.7802185018
  0
LWPOLYLINE
  5
2AA
100
AcDbEntity
  8
RACCORDO
100
AcDbPolyline
 62
7
  6
CONTINUOUS
 90
5
 70
0
 10
5.1099373472
 20
-1.7833600988
 10
5.0959428215
 20
-1.7828561775
 10
5.0761452073
 20
-1.7823814975
 10
5.0505445048
 20
-1.781936059
 10
4.9809364086
 20
-1.7811225352
  0
LWPOLYLINE
  5
2AB
100
AcDbEntity
  8
ASSI
100
AcDbPolyline
 62
7
  6
CONTINUOUS
 90
5
 70
0
 10
5.1099373472
 20
-1.7833600988
 10
5.0959428215
 20
-1.7828561775
 10
5.0761452073
 20
-1.7823814975
 10
5.0505445048
 20
-1.781936059
 10
4.9809364086
 20
-1.7811225352
  0
LINE
  5
2AC
100
AcDbEntity
  8
RACCORDO
100
AcDbLine
 62
7
  6
CONTINUOUS
 10
5.213410267
 20
-1.7884812351
 11
5.1099373472
 21
-1.7833600988
  0
LINE
  5
2AD
100
AcDbEntity
  8
ASSI
100
AcDbLine
 62
7
  6
CONTINUOUS
 10
5.213410267
 20
-1.7884812351
 11
5.1099373472
 21
-1.7833600988
  0
LINE
  5
2AE
100
AcDbEntity
  8
RACCORDO
100
AcDbLine
 62
253
  6
CONTINUOUS
 10
-6.3248690278
 20
5.0501635635
 11
-6.4389708873
 21
5.164265423
  0
LINE
  5
2AF
100
AcDbEntity
  8
RACCORDO
100
AcDbLine
 62
253
  6
CONTINUOUS
 10
-5.839336391
 20
-1.8408623893
 11
-5.7252345316
 21
-1.7267605298
  0
LINE
  5
2B0
100
AcDbEntity
  8
DRAFT
100
AcDbLine
 62
7
  6
CONTINUOUS
 10
-5.586589733
 20
-1.8408623893
 11
-5.5342085788
 21
-1.7884812351
  0
LWPOLYLINE
  5
2B1
100
AcDbEntity
  8
RACCORDO
100
AcDbPolyline
 62
7
  6
CONTINUOUS
 90
11
 70
0
 10
5.3235208826
 20
5.6692482264
 10
5.3193669862
 20
5.6678802947
 10
5.3107776151
 20
5.6665814317
 10
5.2977527693
 20
5.6653516373
 10
5.2799370942
 20
5.6641732567
 10
5.2576859443
 20
5.6630639447
 10
5.2320653839
 20
5.662076666
 10
5.2029127268
 20
5.661217372
 10
5.1703906592
 20
5.6604801112
 10
5.1360533039
 20
5.6598999937
 10
5.1004187018
 20
5.6594887228
  0
LWPOLYLINE
  5
2B2
100
AcDbEntity
  8
0
100
AcDbPolyline
 62
7
  6
CONTINUOUS
 90
7
 70
0
 10
8.2192166642
 20
1.9129646328
 10
8.2335808346
 20
1.9168838953
 10
8.2477554637
 20
1.9224194708
 10
8.2617405515
 20
1.9295713594
 10
8.2754384635
 20
1.9386968832
 10
8.2889468341
 20
1.94943872
 10
8.3163849358
 20
1.9722022035
  0
LWPOLYLINE
  5
2B3
100
AcDbEntity
  8
RACCORDO
100
AcDbPolyline
 62
253
  6
CONTINUOUS
 90
13
 70
0
 10
10.3011460231
 20
0.2238287003
 10
10.3404535187
 20
0.22642735
 10
10.3790939847
 20
0.2341574747
 10
10.4163997346
 20
0.2468900174
 10
10.4517294237
 20
0.2644117802
 10
10.4844658161
 20
0.2864226628
 10
10.5140300368
 20
0.3125353138
 10
10.5399609774
 20
0.3423619192
 10
10.5617453473
 20
0.37533432
 10
10.5789088853
 20
0.4106404649
 10
10.5912275938
 20
0.447547859
 10
10.5986328243
 20
0.4854783263
 10
10.6011003317
 20
0.5237830088
  0
LWPOLYLINE
  5
2B4
100
AcDbEntity
  8
RACCORDO
100
AcDbPolyline
 62
253
  6
CONTINUOUS
 90
19
 70
0
 10
10.310025872
 20
0.0149793123
 10
10.3542448288
 20
0.017010201
 10
10.3974761379
 20
0.0227142294
 10
10.4397197994
 20
0.0320913974
 10
10.4812925955
 20
0.0452798858
 10
10.521877744
 20
0.0621415138
 10
10.5605248981
 20
0.0822617399
 10
10.597166188
 20
0.105703431
 10
10.6318694836
 20
0.1324037202
 10
10.6638880479
 20
0.1617594648
 10
10.6931641029
 20
0.1938196968
 10
10.7197554267
 20
0.2285353843
 10
10.7430886164
 20
0.2651562897
 10
10.7631047749
 20
0.3037466915
 10
10.7798627992
 20
0.3442423111
 10
10.7929659771
 20
0.3857000752
 10
10.8022820711
 20
0.4278056257
 10
10.8079433186
 20
0.4708733206
 10
10.8099497196
 20
0.5149031599
  0
LWPOLYLINE
  5
2B5
100
AcDbEntity
  8
RACCORDO
100
AcDbPolyline
 62
253
  6
CONTINUOUS
 90
19
 70
0
 10
10.3100182477
 20
0.2149488524
 10
10.3361791502
 20
0.2160852147
 10
10.3621387929
 20
0.2194978572
 10
10.3876996545
 20
0.2251604959
 10
10.4126697247
 20
0.2330305528
 10
10.4368564499
 20
0.2430474445
 10
10.4600690307
 20
0.2551309864
 10
10.4821277277
 20
0.2691843579
 10
10.502870747
 20
0.2851009579
 10
10.5221472086
 20
0.3027635229
 10
10.5398090738
 20
0.3220356493
 10
10.5557245515
 20
0.3427725866
 10
10.5697809504
 20
0.3648304214
 10
10.5818746449
 20
0.3880577183
 10
10.591901133
 20
0.4122666071
 10
10.599772493
 20
0.4372441311
 10
10.6054309102
 20
0.4627886875
 10
10.6088407691
 20
0.488714927
 10
10.6099801807
 20
0.5148255195
  0
LWPOLYLINE
  5
2B6
100
AcDbEntity
  8
RACCORDO
100
AcDbPolyline
 62
253
  6
CONTINUOUS
 90
10
 70
0
 10
-20.308325257
 20
-0.928117862
 10
-20.3249198434
 20
-0.928783507
 10
-20.339729523
 20
-0.9294708088
 10
-20.3527542958
 20
-0.9301797673
 10
-20.3641176519
 20
-0.9309084822
 10
-20.3736961011
 20
-0.9316588539
 10
-20.381119173
 20
-0.9324365833
 10
-20.3862633773
 20
-0.9332435706
 10
-20.3892522042
 20
-0.9340779156
 10
-20.3900856537
 20
-0.9349396183
  0
LWPOLYLINE
  5
2B7
100
AcDbEntity
  8
RACCORDO
100
AcDbPolyline
 62
253
  6
CONTINUOUS
 90
8
 70
0
 10
-20.4070812552
 20
-0.8284121398
 10
-20.4284936128
 20
-0.8292467406
 10
-20.4468669147
 20
-0.8301043752
 10
-20.4622141895
 20
-0.8309895602
 10
-20.4746135747
 20
-0.8319158451
 10
-20.4837161372
 20
-0.8328877465
 10
-20.489005414
 20
-0.8339007477
 10
-20.4902227281
 20
-0.8346785391
  0
LINE
  5
2B8
100
AcDbEntity
  8
RACCORDO
100
AcDbLine
 62
253
  6
CONTINUOUS
 10
-20.2065524543
 20
-0.8223001416
 11
-20.4070812552
 21
-0.8284121398
  0
LINE
  5
2B9
100
AcDbEntity
  8
RACCORDO
100
AcDbLine
 62
7
  6
CONTINUOUS
 10
13.1096661147
 20
-0.4347370828
 11
16.1096661147
 21
-0.4347370828
  0
LINE
  5
2BA
100
AcDbEntity
  8
ASSI
100
AcDbLine
 62
7
  6
CONTINUOUS
 10
13.1096661147
 20
-0.4347370828
 11
16.1096661147
 21
-0.4347370828
  0
LINE
  5
2BB
100
AcDbEntity
  8
RACCORDO
100
AcDbLine
 62
253
  6
CONTINUOUS
 10
12.9168810947
 20
-0.4253292518
 11
13.1029380256
 21
-0.4253292518
  0
LINE
  5
2BC
100
AcDbEntity
  8
ASSI
100
AcDbLine
 62
253
  6
CONTINUOUS
 10
12.9168810947
 20
-0.4253292518
 11
13.1029380256
 21
-0.4253292518
  0
LINE
  5
2BD
100
AcDbEntity
  8
RACCORDO
100
AcDbLine
 62
253
  6
CONTINUOUS
 10
-19.4257156307
 20
-0.4183409166
 11
-19.7636874565
 21
-0.4183409166
  0
LINE
  5
2BE
100
AcDbEntity
  8
RACCORDO
100
AcDbLine
 62
253
  6
CONTINUOUS
 10
13.1087746341
 20
-0.4056394786
 11
16.1087746341
 21
-0.4056394786
  0
LINE
  5
2BF
100
AcDbEntity
  8
ASSI
100
AcDbLine
 62
253
  6
CONTINUOUS
 10
13.1087746341
 20
-0.4056394786
 11
16.1087746341
 21
-0.4056394786
  0
LINE
  5
2C0
100
AcDbEntity
  8
RACCORDO
100
AcDbLine
 62
253
  6
CONTINUOUS
 10
9.9167946619
 20
0.0149793123
 11
10.310025872
 21
0.0149793123
  0
LINE
  5
2C1
100
AcDbEntity
  8
RACCORDO
100
AcDbLine
 62
253
  6
CONTINUOUS
 10
-19.4307220901
 20
0.0333040311
 11
-19.8464599928
 21
0.0333040311
  0
LINE
  5
2C2
100
AcDbEntity
  8
ASSI
100
AcDbLine
 62
253
  6
CONTINUOUS
 10
-20.4860109305
 20
0.0618081441
 11
-19.4877476908
 21
0.0618081441
  0
LINE
  5
2C3
100
AcDbEntity
  8
0
100
AcDbLine
 62
7
  6
CONTINUOUS
 10
16.1090322822
 20
0.2115187649
 11
22.8005254436
 21
0.2115187649
  0
LINE
  5
2C4
100
AcDbEntity
  8
RACCORDO
100
AcDbLine
 62
253
  6
CONTINUOUS
 10
9.9167170318
 20
0.2149488514
 11
10.3100182487
 21
0.2149488514
  0
LINE
  5
2C5
100
AcDbEntity
  8
RACCORDO
100
AcDbLine
 62
253
  6
CONTINUOUS
 10
9.9256745108
 20
0.2238287003
 11
10.3011460231
 21
0.2238287003
  0
LINE
  5
2C6
100
AcDbEntity
  8
0
100
AcDbLine
 62
253
  6
CONTINUOUS
 10
16.1030626952
 20
0.3676727738
 11
15.5593747072
 21
0.3676727738
  0
LINE
  5
2C7
100
AcDbEntity
  8
0
100
AcDbLine
 62
253
  6
CONTINUOUS
 10
14.698786394
 20
0.3676727738
 11
13.1030626952
 21
0.3676727738
  0
LINE
  5
2C8
100
AcDbEntity
  8
0
100
AcDbLine
 62
253
  6
CONTINUOUS
 10
16.1029380256
 20
0.4419035227
 11
15.5790805506
 21
0.4419035227
  0
LINE
  5
2C9
100
AcDbEntity
  8
0
100
AcDbLine
 62
253
  6
CONTINUOUS
 10
14.6790805506
 20
0.4419035227
 11
13.1029380256
 21
0.4419035227
  0
LINE
  5
2CA
100
AcDbEntity
  8
RACCORDO
100
AcDbLine
 62
253
  6
CONTINUOUS
 10
10.8099497196
 20
0.5149031599
 11
10.6099801806
 21
0.5149031599
  0
LINE
  5
2CB
100
AcDbEntity
  8
RACCORDO
100
AcDbLine
 62
253
  6
CONTINUOUS
 10
9.4168708144
 20
0.5149031599
 11
9.6168403534
 21
0.5149031599
  0
LINE
  5
2CC
100
AcDbEntity
  8
RACCORDO
100
AcDbLine
 62
253
  6
CONTINUOUS
 10
9.6257202023
 20
0.5237830088
 11
10.6011003317
 21
0.5237830088
  0
LINE
  5
2CD
100
AcDbEntity
  8
0
100
AcDbLine
 62
7
  6
CONTINUOUS
 10
-0.208113733
 20
0.7313387649
 11
0.251716267
 21
0.7313387649
  0
LINE
  5
2CE
100
AcDbEntity
  8
0
100
AcDbLine
 62
7
  6
CONTINUOUS
 10
1.248870267
 20
0.7313387649
 11
1.770663267
 21
0.7313387649
  0
LINE
  5
2CF
100
AcDbEntity
  8
0
100
AcDbLine
 62
7
  6
CONTINUOUS
 10
2.051560267
 20
0.7313387649
 11
2.550746267
 21
0.7313387649
  0
LINE
  5
2D0
100
AcDbEntity
  8
0
100
AcDbLine
 62
7
  6
CONTINUOUS
 10
3.275475267
 20
0.7313387649
 11
3.348657267
 21
0.7313387649
  0
LINE
  5
2D1
100
AcDbEntity
  8
0
100
AcDbLine
 62
7
  6
CONTINUOUS
 10
4.076272267
 20
0.7313387649
 11
4.586724267
 21
0.7313387649
  0
LINE
  5
2D2
100
AcDbEntity
  8
0
100
AcDbLine
 62
7
  6
CONTINUOUS
 10
4.668660267
 20
0.7313387649
 11
5.184791267
 21
0.7313387649
  0
LINE
  5
2D3
100
AcDbEntity
  8
0
100
AcDbLine
 62
7
  6
CONTINUOUS
 10
6.174541267
 20
0.7313387649
 11
6.724489267
 21
0.7313387649
  0
LINE
  5
2D4
100
AcDbEntity
  8
0
100
AcDbLine
 62
7
  6
CONTINUOUS
 10
6.877712769
 20
0.7313389843
 11
7.3974061106
 21
0.7313389843
  0
LINE
  5
2D5
100
AcDbEntity
  8
0
100
AcDbLine
 62
7
  6
CONTINUOUS
 10
8.1964599294
 20
0.7313389843
 11
8.6983640276
 21
0.7313389843
  0
LINE
  5
2D6
100
AcDbEntity
  8
RACCORDO
100
AcDbLine
 62
253
  6
CONTINUOUS
 10
-5.7252345316
 20
5.6497980597
 11
-5.839336391
 21
5.7638999192
  0
LINE
  5
2D7
100
AcDbEntity
  8
DRAFT
100
AcDbLine
 62
7
  6
CONTINUOUS
 10
-5.586589733
 20
5.7638999192
 11
-5.5342085788
 21
5.7115187649
  0
LINE
  5
2D8
100
AcDbEntity
  8
0
100
AcDbLine
 62
7
  6
CONTINUOUS
 10
-1.000578733
 20
3.2310747649
 11
-0.208113733
 21
0.7313387649
  0
LINE
  5
2D9
100
AcDbEntity
  8
0
100
AcDbLine
 62
7
  6
CONTINUOUS
 10
1.248870267
 20
3.2312247649
 11
1.248870267
 21
0.7313387649
  0
LINE
  5
2DA
100
AcDbEntity
  8
0
100
AcDbLine
 62
7
  6
CONTINUOUS
 10
0.533795267
 20
3.2310747649
 11
0.042744267
 21
1.5104287649
  0
LINE
  5
2DB
100
AcDbEntity
  8
0
100
AcDbLine
 62
7
  6
CONTINUOUS
 10
0.251716267
 20
0.7313387649
 11
1.055231267
 21
3.2310747649
  0
LINE
  5
2DC
100
AcDbEntity
  8
DRAFT
100
AcDbLine
 62
7
  6
CONTINUOUS
 10
-6.4182378243
 20
-0.928117862
 11
-6.4389708873
 21
-0.9384812351
  0
LWPOLYLINE
  5
2DD
100
AcDbEntity
  8
0
100
AcDbPolyline
 62
7
  6
CONTINUOUS
 90
10
 70
0
 10
7.3801042438
 20
2.80521984
 10
7.4265674853
 20
2.8129206222
 10
7.4727170854
 20
2.8191047062
 10
7.5185530442
 20
2.8237720918
 10
7.5640050058
 20
2.8269224413
 10
7.609143326
 20
2.8285560924
 10
7.6541790723
 20
2.8286740587
 10
7.6991826004
 20
2.827276678
 10
7.7440835545
 20
2.8243636125
 10
7.7888819346
 20
2.8199348621
  0
LINE
  5
2DE
100
AcDbEntity
  8
RACCORDO
100
AcDbLine
 62
253
  6
CONTINUOUS
 10
-20.458162913
 20
0.982869133
 11
-20.086589733
 21
0.982869133
  0
LINE
  5
2DF
100
AcDbEntity
  8
0
100
AcDbLine
 62
7
  6
CONTINUOUS
 10
5.328774267
 20
1.2303747649
 11
6.039369267
 21
1.2303747649
  0
LINE
  5
2E0
100
AcDbEntity
  8
RACCORDO
100
AcDbLine
 62
253
  6
CONTINUOUS
 10
-20.4569161226
 20
1.2404085099
 11
-20.086589733
 21
1.2404085099
  0
LINE
  5
2E1
100
AcDbEntity
  8
0
100
AcDbLine
 62
7
  6
CONTINUOUS
 10
5.935089267
 20
1.6165267649
 11
5.435509267
 21
1.6165267649
  0
LINE
  5
2E2
100
AcDbEntity
  8
0
100
AcDbLine
 62
7
  6
CONTINUOUS
 10
7.3974061106
 20
1.7095974035
 11
7.6771789833
 21
1.7095974035
  0
LINE
  5
2E3
100
AcDbEntity
  8
0
100
AcDbLine
 62
7
  6
CONTINUOUS
 10
16.1090339866
 20
1.7115187649
 11
22.8005254436
 21
1.7115187649
  0
LINE
  5
2E4
100
AcDbEntity
  8
0
100
AcDbLine
 62
7
  6
CONTINUOUS
 10
7.6783036984
 20
2.1189936876
 11
7.3801042438
 21
2.1189936876
  0
LINE
  5
2E5
100
AcDbEntity
  8
0
100
AcDbLine
 62
7
  6
CONTINUOUS
 10
16.1090339866
 20
2.2115187649
 11
22.8005254436
 21
2.2115187649
  0
LWPOLYLINE
  5
2E6
100
AcDbEntity
  8
0
100
AcDbPolyline
 62
7
  6
CONTINUOUS
 90
13
 70
0
 10
7.6771789833
 20
1.7095974035
 10
7.7105781751
 20
1.7076421678
 10
7.7422390171
 20
1.7026597281
 10
7.7721615092
 20
1.6946500843
 10
7.80024949
 20
1.6835965237
 10
7.8265991209
 20
1.6695157591
 10
7.8514988867
 20
1.6524579287
 10
7.8751462289
 20
1.6323787134
 10
7.8973437061
 20
1.6093224322
 10
7.9177874791
 20
1.5834721811
 10
7.936376268
 20
1.5548889918
 10
7.9532113526
 20
1.5235118325
 10
7.9682927329
 20
1.4893407031
  0
LINE
  5
2E7
100
AcDbEntity
  8
DRAFT
100
AcDbLine
 62
7
  6
CONTINUOUS
 10
-6.4182378243
 20
4.8511553919
 11
-6.4389708873
 21
4.8615187649
  0
LINE
  5
2E8
100
AcDbEntity
  8
RACCORDO
100
AcDbLine
 62
7
  6
CONTINUOUS
 10
5.3657914212
 20
-1.7884812351
 11
5.3235208826
 21
-1.7462106965
  0
LINE
  5
2E9
100
AcDbEntity
  8
0
100
AcDbLine
 62
7
  6
CONTINUOUS
 10
0.042744267
 20
1.5104287649
 11
-0.433750733
 21
3.2310747649
  0
LINE
  5
2EA
100
AcDbEntity
  8
0
100
AcDbLine
 62
7
  6
CONTINUOUS
 10
1.770663267
 20
0.7313387649
 11
1.770663267
 21
3.2312247649
  0
LINE
  5
2EB
100
AcDbEntity
  8
RACCORDO
100
AcDbLine
 62
7
  6
CONTINUOUS
 10
2.013410267
 20
5.7115187649
 11
2.013410267
 21
5.661526794
  0
LINE
  5
2EC
100
AcDbEntity
  8
ASSI
100
AcDbLine
 62
7
  6
CONTINUOUS
 10
2.013410267
 20
5.7115187649
 11
2.013410267
 21
5.661526794
  0
LINE
  5
2ED
100
AcDbEntity
  8
RACCORDO
100
AcDbLine
 62
7
  6
CONTINUOUS
 10
2.013410267
 20
-1.7884812351
 11
2.013410267
 21
-1.7384892641
  0
LINE
  5
2EE
100
AcDbEntity
  8
ASSI
100
AcDbLine
 62
7
  6
CONTINUOUS
 10
2.013410267
 20
-1.7884812351
 11
2.013410267
 21
-1.7384892641
  0
LINE
  5
2EF
100
AcDbEntity
  8
RACCORDO
100
AcDbLine
 62
253
  6
CONTINUOUS
 10
2.1168831868
 20
5.7063976287
 11
2.1168831868
 21
5.6595985807
  0
LINE
  5
2F0
100
AcDbEntity
  8
ASSI
100
AcDbLine
 62
253
  6
CONTINUOUS
 10
2.1168831868
 20
5.7063976287
 11
2.1168831868
 21
5.6595985807
  0
LINE
  5
2F1
100
AcDbEntity
  8
RACCORDO
100
AcDbLine
 62
253
  6
CONTINUOUS
 10
2.1168831868
 20
-1.7365610508
 11
2.1168831868
 21
-1.7833600988
  0
LINE
  5
2F2
100
AcDbEntity
  8
ASSI
100
AcDbLine
 62
253
  6
CONTINUOUS
 10
2.1168831868
 20
-1.7365610508
 11
2.1168831868
 21
-1.7833600988
  0
LINE
  5
2F3
100
AcDbEntity
  8
RACCORDO
100
AcDbLine
 62
253
  6
CONTINUOUS
 10
2.6092870633
 20
5.7027918972
 11
2.6092870633
 21
5.6591376107
  0
LINE
  5
2F4
100
AcDbEntity
  8
ASSI
100
AcDbLine
 62
253
  6
CONTINUOUS
 10
2.6092870633
 20
5.7027918972
 11
2.6092870633
 21
5.6591376107
  0
LINE
  5
2F5
100
AcDbEntity
  8
RACCORDO
100
AcDbLine
 62
253
  6
CONTINUOUS
 10
2.6092870633
 20
-1.7361000808
 11
2.6092870633
 21
-1.7797543673
  0
LINE
  5
2F6
100
AcDbEntity
  8
ASSI
100
AcDbLine
 62
253
  6
CONTINUOUS
 10
2.6092870633
 20
-1.7361000808
 11
2.6092870633
 21
-1.7797543673
  0
LINE
  5
2F7
100
AcDbEntity
  8
0
100
AcDbLine
 62
7
  6
CONTINUOUS
 10
2.550746267
 20
0.7313387649
 11
2.663349267
 21
2.3636187649
  0
LINE
  5
2F8
100
AcDbEntity
  8
0
100
AcDbLine
 62
7
  6
CONTINUOUS
 10
2.277272267
 20
3.2310747649
 11
2.051560267
 21
0.7313387649
  0
LINE
  5
2F9
100
AcDbEntity
  8
RACCORDO
100
AcDbLine
 62
7
  6
CONTINUOUS
 10
5.3657914212
 20
5.7115187649
 11
5.3235208826
 21
5.6692482264
  0
LWPOLYLINE
  5
2FA
100
AcDbEntity
  8
RACCORDO
100
AcDbPolyline
 62
253
  6
CONTINUOUS
 90
13
 70
0
 10
9.9256745108
 20
3.6992088296
 10
9.8863670153
 20
3.6966101799
 10
9.8477265493
 20
3.6888800551
 10
9.8104207993
 20
3.6761475125
 10
9.7750911103
 20
3.6586257497
 10
9.7423547178
 20
3.6366148671
 10
9.7127904972
 20
3.6105022161
 10
9.6868595565
 20
3.5806756106
 10
9.6650751866
 20
3.5477032098
 10
9.6479116487
 20
3.512397065
 10
9.6355929402
 20
3.4754896709
 10
9.6281877096
 20
3.4375592036
 10
9.6257202023
 20
3.3992545211
  0
LWPOLYLINE
  5
2FB
100
AcDbEntity
  8
RACCORDO
100
AcDbPolyline
 62
253
  6
CONTINUOUS
 90
19
 70
0
 10
9.9167946619
 20
3.9080582176
 10
9.8725757052
 20
3.9060273289
 10
9.8293443961
 20
3.9003233005
 10
9.7871007346
 20
3.8909461325
 10
9.7455279385
 20
3.8777576441
 10
9.70494279
 20
3.8608960161
 10
9.6662956359
 20
3.84077579
 10
9.629654346
 20
3.8173340989
 10
9.5949510504
 20
3.7906338097
 10
9.5629324861
 20
3.761278065
 10
9.533656431
 20
3.7292178331
 10
9.5070651072
 20
3.6945021456
 10
9.4837319176
 20
3.6578812402
 10
9.4637157591
 20
3.6192908384
 10
9.4469577347
 20
3.5787952187
 10
9.4338545568
 20
3.5373374547
 10
9.4245384629
 20
3.4952319042
 10
9.4188772154
 20
3.4521642093
 10
9.4168708144
 20
3.40813437
  0
LWPOLYLINE
  5
2FC
100
AcDbEntity
  8
RACCORDO
100
AcDbPolyline
 62
253
  6
CONTINUOUS
 90
19
 70
0
 10
9.9168022863
 20
3.7080886774
 10
9.8906413838
 20
3.7069523152
 10
9.8646817411
 20
3.7035396726
 10
9.8391208794
 20
3.697877034
 10
9.8141508093
 20
3.6900069771
 10
9.7899640841
 20
3.6799900854
 10
9.7667515033
 20
3.6679065435
 10
9.7446928062
 20
3.653853172
 10
9.7239497869
 20
3.637936572
 10
9.7046733254
 20
3.620274007
 10
9.6870114602
 20
3.6010018806
 10
9.6710959825
 20
3.5802649433
 10
9.6570395835
 20
3.5582071085
 10
9.644945889
 20
3.5349798116
 10
9.634919401
 20
3.5107709228
 10
9.6270480409
 20
3.4857933987
 10
9.6213896238
 20
3.4602488423
 10
9.6179797648
 20
3.4343226029
 10
9.6168403532
 20
3.4082120104
  0
LINE
  5
2FD
100
AcDbEntity
  8
RACCORDO
100
AcDbLine
 62
253
  6
CONTINUOUS
 10
-20.086589733
 20
2.68262902
 11
-20.4569161226
 21
2.68262902
  0
LINE
  5
2FE
100
AcDbEntity
  8
RACCORDO
100
AcDbLine
 62
253
  6
CONTINUOUS
 10
-20.086589733
 20
2.9401683969
 11
-20.458162913
 21
2.9401683969
  0
LINE
  5
2FF
100
AcDbEntity
  8
0
100
AcDbLine
 62
7
  6
CONTINUOUS
 10
5.957508267
 20
3.2310747649
 11
5.452736267
 21
3.2310747649
  0
LINE
  5
300
100
AcDbEntity
  8
0
100
AcDbLine
 62
7
  6
CONTINUOUS
 10
4.352971267
 20
3.2310747649
 11
3.836708267
 21
3.2310747649
  0
LINE
  5
301
100
AcDbEntity
  8
0
100
AcDbLine
 62
7
  6
CONTINUOUS
 10
2.798633267
 20
3.2310747649
 11
2.277272267
 21
3.2310747649
  0
LINE
  5
302
100
AcDbEntity
  8
0
100
AcDbLine
 62
7
  6
CONTINUOUS
 10
1.055231267
 20
3.2310747649
 11
0.533795267
 21
3.2310747649
  0
LINE
  5
303
100
AcDbEntity
  8
0
100
AcDbLine
 62
7
  6
CONTINUOUS
 10
-0.433750733
 20
3.2310747649
 11
-1.000578733
 21
3.2310747649
  0
LINE
  5
304
100
AcDbEntity
  8
0
100
AcDbLine
 62
7
  6
CONTINUOUS
 10
1.770663267
 20
3.2312247649
 11
1.248870267
 21
3.2312247649
  0
LINE
  5
305
100
AcDbEntity
  8
RACCORDO
100
AcDbLine
 62
253
  6
CONTINUOUS
 10
9.6257202023
 20
3.3992545211
 11
10.6011003317
 21
3.3992545211
  0
LINE
  5
306
100
AcDbEntity
  8
RACCORDO
100
AcDbLine
 62
253
  6
CONTINUOUS
 10
10.8099497196
 20
3.40813437
 11
10.6099801806
 21
3.40813437
  0
LINE
  5
307
100
AcDbEntity
  8
RACCORDO
100
AcDbLine
 62
253
  6
CONTINUOUS
 10
9.4168708144
 20
3.40813437
 11
9.6168403534
 21
3.40813437
  0
LINE
  5
308
100
AcDbEntity
  8
0
100
AcDbLine
 62
253
  6
CONTINUOUS
 10
16.1029380256
 20
3.4811340072
 11
15.5790805506
 21
3.4811340072
  0
LINE
  5
309
100
AcDbEntity
  8
0
100
AcDbLine
 62
253
  6
CONTINUOUS
 10
14.6790805506
 20
3.4811340072
 11
13.1029380256
 21
3.4811340072
  0
LINE
  5
30A
100
AcDbEntity
  8
0
100
AcDbLine
 62
253
  6
CONTINUOUS
 10
16.1030626952
 20
3.5553647561
 11
15.5593747072
 21
3.5553647561
  0
LINE
  5
30B
100
AcDbEntity
  8
0
100
AcDbLine
 62
253
  6
CONTINUOUS
 10
14.698786394
 20
3.5553647561
 11
13.1030626952
 21
3.5553647561
  0
LINE
  5
30C
100
AcDbEntity
  8
RACCORDO
100
AcDbLine
 62
253
  6
CONTINUOUS
 10
10.3011460231
 20
3.6992088296
 11
9.9256745108
 21
3.6992088296
  0
LINE
  5
30D
100
AcDbEntity
  8
RACCORDO
100
AcDbLine
 62
253
  6
CONTINUOUS
 10
10.3101035021
 20
3.7080886785
 11
9.9168022853
 21
3.7080886785
  0
LINE
  5
30E
100
AcDbEntity
  8
0
100
AcDbLine
 62
7
  6
CONTINUOUS
 10
16.1090322822
 20
3.7115187649
 11
22.8005254436
 21
3.7115187649
  0
LINE
  5
30F
100
AcDbEntity
  8
ASSI
100
AcDbLine
 62
253
  6
CONTINUOUS
 10
-19.4877476908
 20
3.8612293857
 11
-20.4860109305
 21
3.8612293857
  0
LINE
  5
310
100
AcDbEntity
  8
RACCORDO
100
AcDbLine
 62
253
  6
CONTINUOUS
 10
-19.8464599928
 20
3.8897334988
 11
-19.4307220901
 21
3.8897334988
  0
LINE
  5
311
100
AcDbEntity
  8
RACCORDO
100
AcDbLine
 62
253
  6
CONTINUOUS
 10
10.310025872
 20
3.9080582176
 11
9.9167946619
 21
3.9080582176
  0
LINE
  5
312
100
AcDbEntity
  8
0
100
AcDbLine
 62
7
  6
CONTINUOUS
 10
2.663349267
 20
2.3636187649
 11
3.275475267
 21
0.7313387649
  0
LINE
  5
313
100
AcDbEntity
  8
0
100
AcDbLine
 62
7
  6
CONTINUOUS
 10
3.969068267
 20
2.3568147649
 11
4.076272267
 21
0.7313387649
  0
LINE
  5
314
100
AcDbEntity
  8
0
100
AcDbLine
 62
7
  6
CONTINUOUS
 10
3.836708267
 20
3.2310747649
 11
3.314915267
 21
1.8432137649
  0
LINE
  5
315
100
AcDbEntity
  8
0
100
AcDbLine
 62
7
  6
CONTINUOUS
 10
3.348657267
 20
0.7313387649
 11
3.969068267
 21
2.3568147649
  0
LWPOLYLINE
  5
316
100
AcDbEntity
  8
RACCORDO
100
AcDbPolyline
 62
7
  6
CONTINUOUS
 90
9
 70
0
 10
-20.3848552903
 20
3.8733912161
 10
-20.4100686331
 20
3.8724402087
 10
-20.4318881602
 20
3.8714680215
 10
-20.4503681224
 20
3.8704709969
 10
-20.4654542689
 20
3.8694527926
 10
-20.4769838475
 20
3.8684243813
 10
-20.4849026074
 20
3.8673894207
 10
-20.4892647993
 20
3.866344253
 10
-20.4902030688
 20
3.865593511
  0
LINE
  5
317
100
AcDbEntity
  8
RACCORDO
100
AcDbLine
 62
7
  6
CONTINUOUS
 10
-20.3848552903
 20
3.8733912161
 11
-19.8464599928
 21
3.8897334988
  0
LINE
  5
318
100
AcDbEntity
  8
RACCORDO
100
AcDbLine
 62
253
  6
CONTINUOUS
 10
16.1087746341
 20
4.3286770085
 11
13.1087746341
 21
4.3286770085
  0
LINE
  5
319
100
AcDbEntity
  8
ASSI
100
AcDbLine
 62
253
  6
CONTINUOUS
 10
16.1087746341
 20
4.3286770085
 11
13.1087746341
 21
4.3286770085
  0
LINE
  5
31A
100
AcDbEntity
  8
RACCORDO
100
AcDbLine
 62
253
  6
CONTINUOUS
 10
-19.7636874565
 20
4.3413784465
 11
-19.4257156307
 21
4.3413784465
  0
LINE
  5
31B
100
AcDbEntity
  8
RACCORDO
100
AcDbLine
 62
253
  6
CONTINUOUS
 10
13.1029380256
 20
4.3483667817
 11
12.9168810947
 21
4.3483667817
  0
LINE
  5
31C
100
AcDbEntity
  8
ASSI
100
AcDbLine
 62
253
  6
CONTINUOUS
 10
13.1029380256
 20
4.3483667817
 11
12.9168810947
 21
4.3483667817
  0
LINE
  5
31D
100
AcDbEntity
  8
RACCORDO
100
AcDbLine
 62
7
  6
CONTINUOUS
 10
16.1096661147
 20
4.3577746126
 11
13.1096661147
 21
4.3577746126
  0
LINE
  5
31E
100
AcDbEntity
  8
ASSI
100
AcDbLine
 62
7
  6
CONTINUOUS
 10
16.1096661147
 20
4.3577746126
 11
13.1096661147
 21
4.3577746126
  0
LINE
  5
31F
100
AcDbEntity
  8
RACCORDO
100
AcDbLine
 62
253
  6
CONTINUOUS
 10
13.1323328879
 20
4.4289015038
 11
14.1455621428
 21
4.4289015038
  0
LINE
  5
320
100
AcDbEntity
  8
DRAFT
100
AcDbLine
 62
7
  6
CONTINUOUS
 10
14.213410267
 20
4.5425382132
 11
14.183410267
 21
4.5425382132
  0
LINE
  5
321
100
AcDbEntity
  8
DRAFT
100
AcDbLine
 62
7
  6
CONTINUOUS
 10
13.1025016822
 20
4.6080479373
 11
12.9168810947
 21
4.6080479373
  0
LINE
  5
322
100
AcDbEntity
  8
RACCORDO
100
AcDbLine
 62
7
  6
CONTINUOUS
 10
-20.308325257
 20
4.8511553919
 11
-6.4182378243
 21
4.8511553919
  0
LINE
  5
323
100
AcDbEntity
  8
DRAFT
100
AcDbLine
 62
7
  6
CONTINUOUS
 10
-19.386589733
 20
4.8615187649
 11
-6.4389708873
 21
4.8615187649
  0
LINE
  5
324
100
AcDbEntity
  8
ASSI
100
AcDbLine
 62
7
  6
CONTINUOUS
 10
-19.386589733
 20
4.8615187649
 11
-6.4389708873
 21
4.8615187649
  0
LINE
  5
325
100
AcDbEntity
  8
RACCORDO
100
AcDbLine
 62
7
  6
CONTINUOUS
 10
-6.4389708873
 20
4.8615187649
 11
-20.3866049635
 21
4.8615187649
  0
LINE
  5
326
100
AcDbEntity
  8
RACCORDO
100
AcDbLine
 62
253
  6
CONTINUOUS
 10
-5.8251736143
 20
5.0501635635
 11
-6.3248690278
 21
5.0501635635
  0
LINE
  5
327
100
AcDbEntity
  8
RACCORDO
100
AcDbLine
 62
253
  6
CONTINUOUS
 10
13.6519941482
 20
5.0501635635
 11
14.1516895617
 21
5.0501635668
  0
LINE
  5
328
100
AcDbEntity
  8
RACCORDO
100
AcDbLine
 62
253
  6
CONTINUOUS
 10
13.5520550655
 20
5.1501026462
 11
-5.7252345316
 21
5.1501026462
  0
LINE
  5
329
100
AcDbEntity
  8
RACCORDO
100
AcDbLine
 62
253
  6
CONTINUOUS
 10
-20.3861058951
 20
4.7507462298
 11
-20.2065524543
 21
4.7453376715
  0
LWPOLYLINE
  5
32A
100
AcDbEntity
  8
0
100
AcDbPolyline
 62
7
  6
CONTINUOUS
 90
13
 70
0
 10
7.7888819346
 20
2.8199348621
 10
7.8319978676
 20
2.8117979111
 10
7.8720280935
 20
2.7999866876
 10
7.9089726124
 20
2.7845011917
 10
7.9430082505
 20
2.7651594085
 10
7.9739581815
 20
2.7421433529
 10
8.0012919263
 20
2.7159990697
 10
8.0250052978
 20
2.686430098
 10
8.045102483
 20
2.6537328988
 10
8.061065564
 20
2.6193428993
 10
8.0727219013
 20
2.5837385752
 10
8.0802441343
 20
2.5464414509
 10
8.083632263
 20
2.5074515262
  0
LWPOLYLINE
  5
32B
100
AcDbEntity
  8
0
100
AcDbPolyline
 62
7
  6
CONTINUOUS
 90
13
 70
0
 10
8.1654177935
 20
3.1755510208
 10
8.07879116
 20
3.2016632411
 10
7.9881041133
 20
3.2229790585
 10
7.8933566536
 20
3.2394984731
 10
7.7943337333
 20
3.2509163975
 10
7.6912503998
 20
3.2575379191
 10
7.5847517956
 20
3.2602782992
 10
7.4749647087
 20
3.2592640244
 10
7.3617623509
 20
3.2543686082
 10
7.2454095003
 20
3.2461278528
 10
7.1259944161
 20
3.2347203588
 10
7.003428839
 20
3.2199675257
 10
6.877712769
 20
3.2018693533
  0
LINE
  5
32C
100
AcDbEntity
  8
RACCORDO
100
AcDbLine
 62
7
  6
CONTINUOUS
 10
1.8610291127
 20
5.7115187649
 11
1.9032996513
 21
5.6692482264
  0
LINE
  5
32D
100
AcDbEntity
  8
0
100
AcDbLine
 62
7
  6
CONTINUOUS
 10
3.314915267
 20
1.8432137649
 11
2.798633267
 21
3.2310747649
  0
LINE
  5
32E
100
AcDbEntity
  8
0
100
AcDbLine
 62
7
  6
CONTINUOUS
 10
4.586724267
 20
0.7313387649
 11
4.352971267
 21
3.2310747649
  0
LINE
  5
32F
100
AcDbEntity
  8
RACCORDO
100
AcDbLine
 62
253
  6
CONTINUOUS
 10
4.6175334707
 20
-1.7797543673
 11
4.6175334707
 21
-1.7361000808
  0
LINE
  5
330
100
AcDbEntity
  8
ASSI
100
AcDbLine
 62
253
  6
CONTINUOUS
 10
4.6175334707
 20
-1.7797543673
 11
4.6175334707
 21
-1.7361000808
  0
LINE
  5
331
100
AcDbEntity
  8
RACCORDO
100
AcDbLine
 62
253
  6
CONTINUOUS
 10
4.6175334707
 20
5.6591376107
 11
4.6175334707
 21
5.7027918972
  0
LINE
  5
332
100
AcDbEntity
  8
ASSI
100
AcDbLine
 62
253
  6
CONTINUOUS
 10
4.6175334707
 20
5.6591376107
 11
4.6175334707
 21
5.7027918972
  0
LINE
  5
333
100
AcDbEntity
  8
RACCORDO
100
AcDbLine
 62
253
  6
CONTINUOUS
 10
5.1099373472
 20
-1.7833600988
 11
5.1099373472
 21
-1.7365610508
  0
LINE
  5
334
100
AcDbEntity
  8
ASSI
100
AcDbLine
 62
253
  6
CONTINUOUS
 10
5.1099373472
 20
-1.7833600988
 11
5.1099373472
 21
-1.7365610508
  0
LINE
  5
335
100
AcDbEntity
  8
RACCORDO
100
AcDbLine
 62
253
  6
CONTINUOUS
 10
5.1099373472
 20
5.6595985807
 11
5.1099373472
 21
5.7063976287
  0
LINE
  5
336
100
AcDbEntity
  8
ASSI
100
AcDbLine
 62
253
  6
CONTINUOUS
 10
5.1099373472
 20
5.6595985807
 11
5.1099373472
 21
5.7063976287
  0
LINE
  5
337
100
AcDbEntity
  8
RACCORDO
100
AcDbLine
 62
7
  6
CONTINUOUS
 10
5.213410267
 20
5.7115187649
 11
5.213410267
 21
5.661526794
  0
LINE
  5
338
100
AcDbEntity
  8
ASSI
100
AcDbLine
 62
7
  6
CONTINUOUS
 10
5.213410267
 20
5.7115187649
 11
5.213410267
 21
5.661526794
  0
LINE
  5
339
100
AcDbEntity
  8
RACCORDO
100
AcDbLine
 62
7
  6
CONTINUOUS
 10
5.213410267
 20
-1.7884812351
 11
5.213410267
 21
-1.7384892641
  0
LINE
  5
33A
100
AcDbEntity
  8
ASSI
100
AcDbLine
 62
7
  6
CONTINUOUS
 10
5.213410267
 20
-1.7884812351
 11
5.213410267
 21
-1.7384892641
  0
LINE
  5
33B
100
AcDbEntity
  8
0
100
AcDbLine
 62
7
  6
CONTINUOUS
 10
5.435509267
 20
1.6165267649
 11
5.695318267
 21
2.5442107649
  0
LINE
  5
33C
100
AcDbEntity
  8
0
100
AcDbLine
 62
7
  6
CONTINUOUS
 10
5.184791267
 20
0.7313387649
 11
5.328774267
 21
1.2303747649
  0
LINE
  5
33D
100
AcDbEntity
  8
0
100
AcDbLine
 62
7
  6
CONTINUOUS
 10
5.452736267
 20
3.2310747649
 11
4.668660267
 21
0.7313387649
  0
LINE
  5
33E
100
AcDbEntity
  8
RACCORDO
100
AcDbLine
 62
7
  6
CONTINUOUS
 10
1.8610291127
 20
-1.7884812351
 11
1.9032996513
 21
-1.7462106965
  0
LWPOLYLINE
  5
33F
100
AcDbEntity
  8
RACCORDO
100
AcDbPolyline
 62
7
  6
CONTINUOUS
 90
11
 70
0
 10
1.9032996513
 20
-1.7462106965
 10
1.9074535477
 20
-1.7448427648
 10
1.9160429188
 20
-1.7435439018
 10
1.9290677646
 20
-1.7423141074
 10
1.9468834398
 20
-1.7411357268
 10
1.9691345897
 20
-1.7400264148
 10
1.9947551501
 20
-1.7390391361
 10
2.0239078072
 20
-1.7381798421
 10
2.0564298748
 20
-1.7374425813
 10
2.0907672301
 20
-1.7368624638
 10
2.1264018322
 20
-1.7364511929
  0
LWPOLYLINE
  5
340
100
AcDbEntity
  8
RACCORDO
100
AcDbPolyline
 62
7
  6
CONTINUOUS
 90
6
 70
0
 10
-20.3865440369
 20
4.8615187649
 10
-20.4039184776
 20
4.8600024232
 10
-20.4207630813
 20
4.8554900364
 10
-20.4365657919
 20
4.8481198918
 10
-20.450846662
 20
4.8381169641
 10
-20.4572636591
 20
4.8322357295
  0
LWPOLYLINE
  5
341
100
AcDbEntity
  8
RACCORDO
100
AcDbPolyline
 62
253
  6
CONTINUOUS
 90
4
 70
0
 10
-20.3900856537
 20
4.8579771482
 10
-20.4074502418
 20
4.8564630181
 10
-20.4242873086
 20
4.8519559814
 10
-20.4400850757
 20
4.8445928962
  0
LINE
  5
342
100
AcDbEntity
  8
RACCORDO
100
AcDbLine
 62
7
  6
CONTINUOUS
 10
5.213410267
 20
5.7115187649
 11
5.1099373472
 21
5.7063976287
  0
LINE
  5
343
100
AcDbEntity
  8
ASSI
100
AcDbLine
 62
7
  6
CONTINUOUS
 10
5.213410267
 20
5.7115187649
 11
5.1099373472
 21
5.7063976287
  0
LWPOLYLINE
  5
344
100
AcDbEntity
  8
RACCORDO
100
AcDbPolyline
 62
7
  6
CONTINUOUS
 90
19
 70
0
 10
-20.308325257
 20
4.8511553919
 10
-20.3139965778
 20
4.8508860571
 10
-20.3188381109
 20
4.8504126807
 10
-20.3228498562
 20
4.8497329171
 10
-20.3259327911
 20
4.8487972541
 10
-20.3281859383
 20
4.8476466791
 10
-20.3299063652
 20
4.8464167666
 10
-20.331122518
 20
4.8451417335
 10
-20.3318059506
 20
4.8437841162
 10
-20.3321683911
 20
4.8423765059
 10
-20.3322563654
 20
4.8409293552
 10
-20.3320233477
 20
4.839430231
 10
-20.3315414889
 20
4.8378783889
 10
-20.3308284993
 20
4.8362726101
 10
-20.3298666686
 20
4.8346117706
 10
-20.3286750167
 20
4.8328952594
 10
-20.3272598837
 20
4.831122062
 10
-20.3256149296
 20
4.829290739
 10
-20.3237401543
 20
4.8274000235
  0
LWPOLYLINE
  5
345
100
AcDbEntity
  8
RACCORDO
100
AcDbPolyline
 62
253
  6
CONTINUOUS
 90
19
 70
0
 10
-5.7252345316
 20
5.1501026462
 10
-5.7339921097
 20
5.1497126055
 10
-5.7425726598
 20
5.1485894895
 10
-5.7509761818
 20
5.1467332981
 10
-5.7592688956
 20
5.1441197981
 10
-5.7673845813
 20
5.1407732226
 10
-5.7751245796
 20
5.1367662721
 10
-5.7824759844
 20
5.1320841909
 10
-5.7894517017
 20
5.1267417347
 10
-5.7958917905
 20
5.1208558701
 10
-5.8017854544
 20
5.1144100427
 10
-5.8071434898
 20
5.1074208069
 10
-5.8118383443
 20
5.1000547936
 10
-5.815851647
 20
5.0922977716
 10
-5.8192017688
 20
5.084163972
 10
-5.8218162704
 20
5.075862719
 10
-5.8236710052
 20
5.0674637872
 10
-5.8247901199
 20
5.0588974021
 10
-5.8251736143
 20
5.0501635635
  0
LWPOLYLINE
  5
346
100
AcDbEntity
  8
RACCORDO
100
AcDbPolyline
 62
253
  6
CONTINUOUS
 90
19
 70
0
 10
-5.7252345316
 20
5.6497980597
 10
-5.7774661683
 20
5.6474664054
 10
-5.8292997669
 20
5.640594888
 10
-5.8803415236
 20
5.6292358153
 10
-5.930203646
 20
5.613475639
 10
-5.9785073046
 20
5.5934341454
 10
-6.024885497
 20
5.5692635098
 10
-6.0689858821
 20
5.5411473671
 10
-6.1104733161
 20
5.5092994288
 10
-6.1490324121
 20
5.4739617043
 10
-6.1843700952
 20
5.4354027385
 10
-6.2162179444
 20
5.3939155404
 10
-6.2443340673
 20
5.3498153332
 10
-6.2685047606
 20
5.3034371718
 10
-6.2885463349
 20
5.255133455
 10
-6.3043066004
 20
5.2052712163
 10
-6.315665759
 20
5.1542292967
 10
-6.3225373423
 20
5.1023954768
 10
-6.3248690278
 20
5.0501635635
  0
LINE
  5
347
100
AcDbEntity
  8
RACCORDO
100
AcDbLine
 62
7
  6
CONTINUOUS
 10
5.0959428215
 20
5.7058937074
 11
5.1099373472
 21
5.7063976287
  0
LINE
  5
348
100
AcDbEntity
  8
ASSI
100
AcDbLine
 62
7
  6
CONTINUOUS
 10
5.0959428215
 20
5.7058937074
 11
5.1099373472
 21
5.7063976287
  0
LINE
  5
349
100
AcDbEntity
  8
RACCORDO
100
AcDbLine
 62
7
  6
CONTINUOUS
 10
5.0761452073
 20
5.7054190274
 11
5.0959428215
 21
5.7058937074
  0
LINE
  5
34A
100
AcDbEntity
  8
ASSI
100
AcDbLine
 62
7
  6
CONTINUOUS
 10
5.0761452073
 20
5.7054190274
 11
5.0959428215
 21
5.7058937074
  0
LINE
  5
34B
100
AcDbEntity
  8
RACCORDO
100
AcDbLine
 62
7
  6
CONTINUOUS
 10
5.0186420009
 20
5.7045522063
 11
5.0761452073
 21
5.7054190274
  0
LINE
  5
34C
100
AcDbEntity
  8
ASSI
100
AcDbLine
 62
7
  6
CONTINUOUS
 10
5.0186420009
 20
5.7045522063
 11
5.0761452073
 21
5.7054190274
  0
LINE
  5
34D
100
AcDbEntity
  8
RACCORDO
100
AcDbLine
 62
7
  6
CONTINUOUS
 10
4.8924312911
 20
5.7035119778
 11
5.0186420009
 21
5.7045522063
  0
LINE
  5
34E
100
AcDbEntity
  8
ASSI
100
AcDbLine
 62
7
  6
CONTINUOUS
 10
4.8924312911
 20
5.7035119778
 11
5.0186420009
 21
5.7045522063
  0
LINE
  5
34F
100
AcDbEntity
  8
RACCORDO
100
AcDbLine
 62
7
  6
CONTINUOUS
 10
5.1004187018
 20
5.6594887228
 11
5.0237036345
 21
5.6591376107
  0
LINE
  5
350
100
AcDbEntity
  8
RACCORDO
100
AcDbLine
 62
7
  6
CONTINUOUS
 10
4.676827433
 20
5.7028246601
 11
4.8924312911
 21
5.7035119778
  0
LINE
  5
351
100
AcDbEntity
  8
ASSI
100
AcDbLine
 62
7
  6
CONTINUOUS
 10
4.676827433
 20
5.7028246601
 11
4.8924312911
 21
5.7035119778
  0
LINE
  5
352
100
AcDbEntity
  8
RACCORDO
100
AcDbLine
 62
253
  6
CONTINUOUS
 10
13.5520550655
 20
5.6497980597
 11
-5.7252345316
 21
5.6497980597
  0
LINE
  5
353
100
AcDbEntity
  8
DRAFT
100
AcDbLine
 62
7
  6
CONTINUOUS
 10
-5.5342085788
 20
5.7115187649
 11
1.8610291127
 21
5.7115187649
  0
LINE
  5
354
100
AcDbEntity
  8
DRAFT
100
AcDbLine
 62
7
  6
CONTINUOUS
 10
5.213410267
 20
5.7115187649
 11
2.013410267
 21
5.7115187649
  0
LINE
  5
355
100
AcDbEntity
  8
RACCORDO
100
AcDbLine
 62
7
  6
CONTINUOUS
 10
2.013410267
 20
5.7115187649
 11
-5.1804573855
 21
5.7115187649
  0
LINE
  5
356
100
AcDbEntity
  8
ASSI
100
AcDbLine
 62
7
  6
CONTINUOUS
 10
12.9634159785
 20
5.7115187649
 11
-5.1804573855
 21
5.7115187649
  0
LINE
  5
357
100
AcDbEntity
  8
RACCORDO
100
AcDbLine
 62
7
  6
CONTINUOUS
 10
5.213410267
 20
5.7115187649
 11
13.6137757708
 21
5.7115187649
  0
LINE
  5
358
100
AcDbEntity
  8
RACCORDO
100
AcDbLine
 62
7
  6
CONTINUOUS
 10
-5.839336391
 20
5.7638999192
 11
-5.586589733
 21
5.7638999192
  0
LWPOLYLINE
  5
359
100
AcDbEntity
  8
RACCORDO
100
AcDbPolyline
 62
7
  6
CONTINUOUS
 90
13
 70
0
 10
5.0237036345
 20
5.6591376107
 10
2.163851722
 20
5.6592345951
 10
2.1264018322
 20
5.6594887228
 10
2.0907672301
 20
5.6598999937
 10
2.0564298748
 20
5.6604801112
 10
2.0239078072
 20
5.661217372
 10
1.9947551501
 20
5.662076666
 10
1.9691345897
 20
5.6630639447
 10
1.9468834398
 20
5.6641732567
 10
1.9290677646
 20
5.6653516373
 10
1.9160429188
 20
5.6665814317
 10
1.9074535477
 20
5.6678802947
 10
1.9032996513
 20
5.6692482264
  0
LINE
  5
35A
100
AcDbEntity
  8
RACCORDO
100
AcDbLine
 62
7
  6
CONTINUOUS
 10
2.3851887681
 20
5.7032560317
 11
4.676827433
 21
5.7028246601
  0
LINE
  5
35B
100
AcDbEntity
  8
ASSI
100
AcDbLine
 62
7
  6
CONTINUOUS
 10
2.3851887681
 20
5.7032560317
 11
4.676827433
 21
5.7028246601
  0
LINE
  5
35C
100
AcDbEntity
  8
RACCORDO
100
AcDbLine
 62
7
  6
CONTINUOUS
 10
2.2458841254
 20
5.7041600651
 11
2.3851887681
 21
5.7032560317
  0
LINE
  5
35D
100
AcDbEntity
  8
ASSI
100
AcDbLine
 62
7
  6
CONTINUOUS
 10
2.2458841254
 20
5.7041600651
 11
2.3851887681
 21
5.7032560317
  0
LWPOLYLINE
  5
35E
100
AcDbEntity
  8
RACCORDO
100
AcDbPolyline
 62
7
  6
CONTINUOUS
 90
5
 70
0
 10
2.1168831868
 20
5.7063976287
 10
2.1308777125
 20
5.7058937074
 10
2.1506753266
 20
5.7054190274
 10
2.1762760292
 20
5.7049735889
 10
2.2458841254
 20
5.7041600651
  0
LWPOLYLINE
  5
35F
100
AcDbEntity
  8
ASSI
100
AcDbPolyline
 62
7
  6
CONTINUOUS
 90
5
 70
0
 10
2.1168831868
 20
5.7063976287
 10
2.1308777125
 20
5.7058937074
 10
2.1506753266
 20
5.7054190274
 10
2.1762760292
 20
5.7049735889
 10
2.2458841254
 20
5.7041600651
  0
LINE
  5
360
100
AcDbEntity
  8
RACCORDO
100
AcDbLine
 62
7
  6
CONTINUOUS
 10
2.013410267
 20
5.7115187649
 11
2.1168831868
 21
5.7063976287
  0
LINE
  5
361
100
AcDbEntity
  8
ASSI
100
AcDbLine
 62
7
  6
CONTINUOUS
 10
2.013410267
 20
5.7115187649
 11
2.1168831868
 21
5.7063976287
  0
LINE
  5
362
100
AcDbEntity
  8
0
100
AcDbLine
 62
7
  6
CONTINUOUS
 10
6.039369267
 20
1.2303747649
 11
6.174541267
 21
0.7313387649
  0
LINE
  5
363
100
AcDbEntity
  8
0
100
AcDbLine
 62
7
  6
CONTINUOUS
 10
5.695318267
 20
2.5442107649
 11
5.935089267
 21
1.6165267649
  0
LINE
  5
364
100
AcDbEntity
  8
0
100
AcDbLine
 62
7
  6
CONTINUOUS
 10
6.877712769
 20
3.2018693533
 11
6.877712769
 21
0.7313389843
  0
LINE
  5
365
100
AcDbEntity
  8
RACCORDO
100
AcDbLine
 62
253
  6
CONTINUOUS
 10
10.6011003317
 20
3.3992545211
 11
10.6099801806
 21
3.4081267467
  0
LINE
  5
366
100
AcDbEntity
  8
RACCORDO
100
AcDbLine
 62
253
  6
CONTINUOUS
 10
10.3011460231
 20
3.6992088296
 11
10.3101035021
 21
3.7080886785
  0
LWPOLYLINE
  5
367
100
AcDbEntity
  8
0
100
AcDbPolyline
 62
7
  6
CONTINUOUS
 90
42
 70
0
 10
8.3163849358
 20
1.9722022035
 10
8.3303146668
 20
1.9842238501
 10
8.3443068392
 20
1.9967775668
 10
8.35838379
 20
2.0097679041
 10
8.3725231822
 20
2.0232903116
 10
8.3866170841
 20
2.0376188614
 10
8.4006808477
 20
2.0527500491
 10
8.4146991209
 20
2.0686873791
 10
8.4285179154
 20
2.0857154368
 10
8.4421460535
 20
2.1038985806
 10
8.4555747128
 20
2.1231724521
 10
8.4686234371
 20
2.1436285622
 10
8.4813105824
 20
2.1652923785
 10
8.4936177928
 20
2.1881384333
 10
8.5053095437
 20
2.2121818349
 10
8.516406107
 20
2.2374415014
 10
8.5268872108
 20
2.2638985147
 10
8.5364565155
 20
2.2915112289
 10
8.5451063044
 20
2.3202442284
 10
8.5528442942
 20
2.3501329289
 10
8.5593972944
 20
2.3812419312
 10
8.5647797256
 20
2.4135371019
 10
8.5689771672
 20
2.4470525746
 10
8.5716731674
 20
2.4819553507
 10
8.5729562695
 20
2.5182686099
 10
8.5727379303
 20
2.5559691726
 10
8.5704360682
 20
2.595154502
 10
8.5662417465
 20
2.6359928355
 10
8.5599639019
 20
2.6783159355
 10
8.5504472631
 20
2.7217165526
 10
8.5375294314
 20
2.7666005416
 10
8.5213728054
 20
2.8125620475
 10
8.5013093099
 20
2.8579762557
 10
8.476971435
 20
2.9029021954
 10
8.4487266906
 20
2.9472808374
 10
8.4170095312
 20
2.9893102781
 10
8.3815661444
 20
3.0288713229
 10
8.3426503427
 20
3.0660831665
 10
8.3014580176
 20
3.09950149
 10
8.2583877996
 20
3.1286448537
 10
8.2130410583
 20
3.1539946973
 10
8.1654177935
 20
3.1755510208
  0
LWPOLYLINE
  5
368
100
AcDbEntity
  8
RACCORDO
100
AcDbPolyline
 62
7
  6
CONTINUOUS
 90
19
 70
0
 10
-19.8464599928
 20
3.8897334988
 10
-19.8238789821
 20
3.8942413518
 10
-19.8029708561
 20
3.9032279945
 10
-19.7837356148
 20
3.916693427
 10
-19.7659371197
 20
3.9353145357
 10
-19.7498115093
 20
3.9584144342
 10
-19.7360671988
 20
3.983962463
 10
-19.7249147501
 20
4.0118171294
 10
-19.7161436014
 20
4.0421199261
 10
-19.7098304824
 20
4.0732646724
 10
-19.7060026708
 20
4.1051164924
 10
-19.704632889
 20
4.137810262
 10
-19.7057160347
 20
4.1701444279
 10
-19.709251471
 20
4.2021931463
 10
-19.7152398348
 20
4.233882261
 10
-19.7236779344
 20
4.2637877505
 10
-19.734564706
 20
4.291434941
 10
-19.7479012133
 20
4.3172985063
 10
-19.7636874565
 20
4.3413784465
  0
LWPOLYLINE
  5
369
100
AcDbEntity
  8
RACCORDO
100
AcDbPolyline
 62
7
  6
CONTINUOUS
 90
3
 70
0
 10
-19.4899599382
 20
3.7995465852
 10
-19.5151886091
 20
3.7946470337
 10
-19.5778437253
 20
3.7743761508
  0
LWPOLYLINE
  5
36A
100
AcDbEntity
  8
ASSI
100
AcDbPolyline
 62
7
  6
CONTINUOUS
 90
3
 70
0
 10
-19.4899599382
 20
3.7995465852
 10
-19.5151886091
 20
3.7946470337
 10
-19.5778437253
 20
3.7743761508
  0
LINE
  5
36B
100
AcDbEntity
  8
RACCORDO
100
AcDbLine
 62
253
  6
CONTINUOUS
 10
13.6137757708
 20
-1.7884812351
 11
13.5520550655
 21
-1.7267605298
  0
LINE
  5
36C
100
AcDbEntity
  8
RACCORDO
100
AcDbLine
 62
253
  6
CONTINUOUS
 10
10.3011460231
 20
0.2238287003
 11
10.3100182487
 21
0.2149488514
  0
LINE
  5
36D
100
AcDbEntity
  8
RACCORDO
100
AcDbLine
 62
253
  6
CONTINUOUS
 10
10.6011003317
 20
0.5237830088
 11
10.6099801806
 21
0.5148255298
  0
LINE
  5
36E
100
AcDbEntity
  8
0
100
AcDbLine
 62
7
  6
CONTINUOUS
 10
6.724489267
 20
0.7313387649
 11
5.957508267
 21
3.2310747649
  0
LINE
  5
36F
100
AcDbEntity
  8
0
100
AcDbLine
 62
7
  6
CONTINUOUS
 10
7.3801042438
 20
2.1189936876
 11
7.3801042438
 21
2.80521984
  0
LINE
  5
370
100
AcDbEntity
  8
0
100
AcDbLine
 62
7
  6
CONTINUOUS
 10
7.3974061106
 20
0.7313389843
 11
7.3974061106
 21
1.7095974035
  0
LINE
  5
371
100
AcDbEntity
  8
0
100
AcDbLine
 62
7
  6
CONTINUOUS
 10
8.2192166642
 20
1.8981933749
 11
8.2192166642
 21
1.9129646328
  0
LWPOLYLINE
  5
372
100
AcDbEntity
  8
0
100
AcDbPolyline
 62
7
  6
CONTINUOUS
 90
16
 70
0
 10
8.083632263
 20
2.5074515262
 10
8.0809141323
 20
2.4578797058
 10
8.0741884232
 20
2.4111909566
 10
8.0634551357
 20
2.3673852785
 10
8.0484915609
 20
2.326063658
 10
8.0295204077
 20
2.2876251088
 10
8.0072098032
 20
2.2532666711
 10
7.9815909193
 20
2.2234293818
 10
7.952632584
 20
2.197672204
 10
7.920909408
 20
2.175869068
 10
7.8864408623
 20
2.1583053317
 10
7.8492074759
 20
2.1446956371
 10
7.8097254465
 20
2.1340578398
 10
7.7681668401
 20
2.1260645585
 10
7.7243595907
 20
2.1210431744
 10
7.6783036984
 20
2.1189936876
  0
LINE
  5
373
100
AcDbEntity
  8
RACCORDO
100
AcDbLine
 62
253
  6
CONTINUOUS
 10
13.5520550655
 20
5.6497980597
 11
13.6137757708
 21
5.7115187649
  0
LINE
  5
374
100
AcDbEntity
  8
RACCORDO
100
AcDbLine
 62
253
  6
CONTINUOUS
 10
14.1516895617
 20
5.0501635635
 11
14.213410267
 21
5.1118842687
  0
LINE
  5
375
100
AcDbEntity
  8
RACCORDO
100
AcDbLine
 62
253
  6
CONTINUOUS
 10
9.6257202023
 20
0.5237830088
 11
9.6168403534
 21
0.5149107832
  0
LINE
  5
376
100
AcDbEntity
  8
RACCORDO
100
AcDbLine
 62
253
  6
CONTINUOUS
 10
14.213410267
 20
-1.1888467388
 11
14.1516895617
 21
-1.1271260336
  0
LINE
  5
377
100
AcDbEntity
  8
RACCORDO
100
AcDbLine
 62
253
  6
CONTINUOUS
 10
9.9256745108
 20
3.6992088296
 11
9.9168022853
 21
3.7080886785
  0
LINE
  5
378
100
AcDbEntity
  8
RACCORDO
100
AcDbLine
 62
253
  6
CONTINUOUS
 10
9.6257202023
 20
3.3992545211
 11
9.6168403534
 21
3.4082120001
  0
LWPOLYLINE
  5
379
100
AcDbEntity
  8
0
100
AcDbPolyline
 62
7
  6
CONTINUOUS
 90
6
 70
0
 10
7.9682927329
 20
1.4893407031
 10
7.9950897789
 20
1.4107561619
 10
8.0212471054
 20
1.3306419688
 10
8.0467647123
 20
1.2489981238
 10
8.0712713522
 20
1.1656643819
 10
8.1194792161
 20
0.9948886779
  0
LINE
  5
37A
100
AcDbEntity
  8
0
100
AcDbLine
 62
7
  6
CONTINUOUS
 10
8.1194792161
 20
0.9948886779
 11
8.1964599294
 21
0.7313389843
  0
LINE
  5
37B
100
AcDbEntity
  8
0
100
AcDbLine
 62
7
  6
CONTINUOUS
 10
8.5810399184
 20
1.1790715261
 11
8.5199842181
 21
1.4079113323
  0
LINE
  5
37C
100
AcDbEntity
  8
0
100
AcDbLine
 62
7
  6
CONTINUOUS
 10
8.6983640276
 20
0.7313389843
 11
8.5810399184
 21
1.1790715261
  0
LWPOLYLINE
  5
37D
100
AcDbEntity
  8
0
100
AcDbPolyline
 62
7
  6
CONTINUOUS
 90
13
 70
0
 10
8.5199842181
 20
1.4079113323
 10
8.5054248427
 20
1.4657407963
 10
8.489104916
 20
1.5211396961
 10
8.4710244381
 20
1.5741080315
 10
8.4513222287
 20
1.6250452347
 10
8.429859468
 20
1.6735518736
 10
8.4062196969
 20
1.7184296519
 10
8.380212772
 20
1.7596828516
 10
8.3520288367
 20
1.7973071907
 10
8.3218218612
 20
1.8300915268
 10
8.289643169
 20
1.8576321458
 10
8.2554414367
 20
1.8803327619
 10
8.2192166642
 20
1.8981933749
  0
LWPOLYLINE
  5
37E
100
AcDbEntity
  8
RACCORDO
100
AcDbPolyline
 62
253
  6
CONTINUOUS
 90
13
 70
0
 10
9.6257202023
 20
0.5237830088
 10
9.6282972822
 20
0.4846386616
 10
9.6359605986
 20
0.4461638258
 10
9.6485790809
 20
0.4090165613
 10
9.665936907
 20
0.3738322223
 10
9.6877371946
 20
0.3412125893
 10
9.7136070792
 20
0.3117155772
 10
9.7431040913
 20
0.2858456926
 10
9.7757237243
 20
0.2640454049
 10
9.8109080634
 20
0.2466875789
 10
9.8480553278
 20
0.2340690966
 10
9.8865301637
 20
0.2264057801
 10
9.9256745108
 20
0.2238287003
  0
LWPOLYLINE
  5
37F
100
AcDbEntity
  8
RACCORDO
100
AcDbPolyline
 62
253
  6
CONTINUOUS
 90
19
 70
0
 10
9.4168708144
 20
0.5149031599
 10
9.418901703
 20
0.4706842031
 10
9.4246057314
 20
0.427452894
 10
9.4339828995
 20
0.3852092325
 10
9.4471713878
 20
0.3436364364
 10
9.4640330159
 20
0.303051288
 10
9.4841532419
 20
0.2644041338
 10
9.507594933
 20
0.2277628439
 10
9.5342952222
 20
0.1930595484
 10
9.5636509669
 20
0.1610409841
 10
9.5957111988
 20
0.131764929
 10
9.6304268864
 20
0.1051736052
 10
9.6670477917
 20
0.0818404156
 10
9.7056381935
 20
0.061824257
 10
9.7461338132
 20
0.0450662327
 10
9.7875915772
 20
0.0319630548
 10
9.8296971278
 20
0.0226469608
 10
9.8727648227
 20
0.0169857133
 10
9.9167946619
 20
0.0149793123
  0
LWPOLYLINE
  5
380
100
AcDbEntity
  8
RACCORDO
100
AcDbPolyline
 62
253
  6
CONTINUOUS
 90
19
 70
0
 10
9.6168403545
 20
0.5149107842
 10
9.6179767167
 20
0.4887498817
 10
9.6213893593
 20
0.4627902391
 10
9.6270519979
 20
0.4372293774
 10
9.6349220548
 20
0.4122593072
 10
9.6449389465
 20
0.3880725821
 10
9.6570224884
 20
0.3648600012
 10
9.67107586
 20
0.3428013042
 10
9.6869924599
 20
0.3220582849
 10
9.7046550249
 20
0.3027818233
 10
9.7239271514
 20
0.2851199582
 10
9.7446640886
 20
0.2692044804
 10
9.7667219234
 20
0.2551480815
 10
9.7899492203
 20
0.243054387
 10
9.8141581091
 20
0.233027899
 10
9.8391356332
 20
0.2251565389
 10
9.8646801896
 20
0.2194981217
 10
9.8906064291
 20
0.2160882628
 10
9.9167170215
 20
0.2149488512
  0
LINE
  5
381
100
AcDbEntity
  8
RACCORDO
100
AcDbLine
 62
253
  6
CONTINUOUS
 10
9.4168708144
 20
3.40813437
 11
9.4168708144
 21
0.5149031599
  0
LINE
  5
382
100
AcDbEntity
  8
RACCORDO
100
AcDbLine
 62
253
  6
CONTINUOUS
 10
9.6168403534
 20
3.4082120001
 11
9.6168403534
 21
0.5149107832
  0
LINE
  5
383
100
AcDbEntity
  8
RACCORDO
100
AcDbLine
 62
253
  6
CONTINUOUS
 10
9.6257202023
 20
3.3992545211
 11
9.6257202023
 21
0.5237830088
  0
LINE
  5
384
100
AcDbEntity
  8
RACCORDO
100
AcDbLine
 62
253
  6
CONTINUOUS
 10
9.9167946619
 20
3.9080582176
 11
9.9167946619
 21
3.7080886785
  0
LINE
  5
385
100
AcDbEntity
  8
RACCORDO
100
AcDbLine
 62
253
  6
CONTINUOUS
 10
9.9167946619
 20
0.0149793123
 11
9.9167946619
 21
0.2149488514
  0
LINE
  5
386
100
AcDbEntity
  8
RACCORDO
100
AcDbLine
 62
253
  6
CONTINUOUS
 10
9.9256745108
 20
0.2238287003
 11
9.9256745108
 21
3.6992088296
  0
LINE
  5
387
100
AcDbEntity
  8
RACCORDO
100
AcDbLine
 62
253
  6
CONTINUOUS
 10
9.9256745108
 20
0.2238287003
 11
9.9167170318
 21
0.2149488514
  0
LWPOLYLINE
  5
388
100
AcDbEntity
  8
RACCORDO
100
AcDbPolyline
 62
7
  6
CONTINUOUS
 90
16
 70
0
 10
14.1516895617
 20
4.6351663295
 10
14.1470245134
 20
4.6378852954
 10
14.1374559924
 20
4.6405124131
 10
14.1229839988
 20
4.6430476824
 10
14.1033536715
 20
4.6455155752
 10
14.0788198716
 20
4.6478916197
 10
14.0501471817
 20
4.6501024003
 10
14.0172072017
 20
4.6521426597
 10
13.9801283318
 20
4.6540176552
 10
13.9400603554
 20
4.6556697431
 10
13.8969119664
 20
4.6570919385
 10
13.850774471
 20
4.6582912262
 10
13.8030715713
 20
4.6592309168
 10
13.7542778346
 20
4.6598987805
 10
13.7039186936
 20
4.6603070471
 10
12.8644733154
 20
4.6604557165
  0
LWPOLYLINE
  5
389
100
AcDbEntity
  8
RACCORDO
100
AcDbPolyline
 62
253
  6
CONTINUOUS
 90
13
 70
0
 10
10.6011003317
 20
3.3992545211
 10
10.5985016819
 20
3.4385620166
 10
10.5907715572
 20
3.4772024827
 10
10.5780390145
 20
3.5145082326
 10
10.5605172517
 20
3.5498379217
 10
10.5385063691
 20
3.5825743141
 10
10.5123937182
 20
3.6121385348
 10
10.4825671127
 20
3.6380694754
 10
10.4495947119
 20
3.6598538453
 10
10.4142885671
 20
3.6770173833
 10
10.377381173
 20
3.6893360918
 10
10.3394507056
 20
3.6967413223
 10
10.3011460231
 20
3.6992088296
  0
LWPOLYLINE
  5
38A
100
AcDbEntity
  8
RACCORDO
100
AcDbPolyline
 62
253
  6
CONTINUOUS
 90
19
 70
0
 10
10.8099497196
 20
3.40813437
 10
10.8079188309
 20
3.4523533267
 10
10.8022148026
 20
3.4955846359
 10
10.7928376345
 20
3.5378282974
 10
10.7796491462
 20
3.5794010935
 10
10.7627875181
 20
3.6199862419
 10
10.742667292
 20
3.6586333961
 10
10.7192256009
 20
3.695274686
 10
10.6925253118
 20
3.7299779815
 10
10.6631695671
 20
3.7619965458
 10
10.6311093351
 20
3.7912726009
 10
10.5963936476
 20
3.8178639247
 10
10.5597727423
 20
3.8411971143
 10
10.5211823404
 20
3.8612132729
 10
10.4806867208
 20
3.8779712972
 10
10.4392289568
 20
3.8910744751
 10
10.3971234062
 20
3.9003905691
 10
10.3540557113
 20
3.9060518165
 10
10.310025872
 20
3.9080582176
  0
LWPOLYLINE
  5
38B
100
AcDbEntity
  8
RACCORDO
100
AcDbPolyline
 62
253
  6
CONTINUOUS
 90
19
 70
0
 10
10.6099801795
 20
3.4081267457
 10
10.6088438172
 20
3.4342876482
 10
10.6054311747
 20
3.4602472908
 10
10.599768536
 20
3.4858081525
 10
10.5918984792
 20
3.5107782227
 10
10.5818815874
 20
3.5349649478
 10
10.5697980456
 20
3.5581775287
 10
10.555744674
 20
3.5802362257
 10
10.539828074
 20
3.600979245
 10
10.5221655091
 20
3.6202557065
 10
10.5028933826
 20
3.6379175717
 10
10.4821564453
 20
3.6538330495
 10
10.4600986105
 20
3.6678894484
 10
10.4368713136
 20
3.6799831429
 10
10.4126624249
 20
3.6900096309
 10
10.3876849008
 20
3.697880991
 10
10.3621403444
 20
3.7035394081
 10
10.3362141049
 20
3.7069492671
 10
10.3101035124
 20
3.7080886787
  0
LINE
  5
38C
100
AcDbEntity
  8
RACCORDO
100
AcDbLine
 62
253
  6
CONTINUOUS
 10
10.3011460231
 20
0.2238287003
 11
10.3011460231
 21
3.6992088296
  0
LINE
  5
38D
100
AcDbEntity
  8
RACCORDO
100
AcDbLine
 62
253
  6
CONTINUOUS
 10
10.310025872
 20
3.9080582176
 11
10.310025872
 21
3.7080886785
  0
LINE
  5
38E
100
AcDbEntity
  8
RACCORDO
100
AcDbLine
 62
253
  6
CONTINUOUS
 10
10.310025872
 20
0.0149793123
 11
10.310025872
 21
0.2149488514
  0
LINE
  5
38F
100
AcDbEntity
  8
RACCORDO
100
AcDbLine
 62
253
  6
CONTINUOUS
 10
10.6011003317
 20
0.5237830088
 11
10.6011003317
 21
3.3992545211
  0
LINE
  5
390
100
AcDbEntity
  8
RACCORDO
100
AcDbLine
 62
253
  6
CONTINUOUS
 10
10.6099801806
 20
0.5148255298
 11
10.6099801806
 21
3.4081267467
  0
LINE
  5
391
100
AcDbEntity
  8
RACCORDO
100
AcDbLine
 62
253
  6
CONTINUOUS
 10
10.8099497196
 20
0.5149031599
 11
10.8099497196
 21
3.40813437
  0
LINE
  5
392
100
AcDbEntity
  8
DRAFT
100
AcDbLine
 62
7
  6
CONTINUOUS
 10
12.8644733154
 20
-0.7374181867
 11
12.9168810947
 21
-0.6850104074
  0
LINE
  5
393
100
AcDbEntity
  8
DRAFT
100
AcDbLine
 62
7
  6
CONTINUOUS
 10
12.8644733154
 20
4.6604557165
 11
12.9168810947
 21
4.6080479373
  0
LINE
  5
394
100
AcDbEntity
  8
RACCORDO
100
AcDbLine
 62
7
  6
CONTINUOUS
 10
13.1091531917
 20
-0.4253640836
 11
13.1089592774
 21
-0.4168241953
  0
LINE
  5
395
100
AcDbEntity
  8
ASSI
100
AcDbLine
 62
7
  6
CONTINUOUS
 10
13.1091531917
 20
-0.4253640836
 11
13.1089592774
 21
-0.4168241953
  0
LINE
  5
396
100
AcDbEntity
  8
RACCORDO
100
AcDbLine
 62
7
  6
CONTINUOUS
 10
13.1089592774
 20
-0.4168241953
 11
13.1087746341
 21
-0.4056394786
  0
LINE
  5
397
100
AcDbEntity
  8
ASSI
100
AcDbLine
 62
7
  6
CONTINUOUS
 10
13.1089592774
 20
-0.4168241953
 11
13.1087746341
 21
-0.4056394786
  0
LINE
  5
398
100
AcDbEntity
  8
RACCORDO
100
AcDbLine
 62
7
  6
CONTINUOUS
 10
13.106401837
 20
-0.197446338
 11
13.1087746341
 21
-0.4056394786
  0
LINE
  5
399
100
AcDbEntity
  8
ASSI
100
AcDbLine
 62
7
  6
CONTINUOUS
 10
13.106401837
 20
-0.197446338
 11
13.1087746341
 21
-0.4056394786
  0
LINE
  5
39A
100
AcDbEntity
  8
RACCORDO
100
AcDbLine
 62
7
  6
CONTINUOUS
 10
13.1034701999
 20
0.2622298186
 11
13.106401837
 21
-0.197446338
  0
LINE
  5
39B
100
AcDbEntity
  8
ASSI
100
AcDbLine
 62
7
  6
CONTINUOUS
 10
13.1034701999
 20
0.2622298186
 11
13.106401837
 21
-0.197446338
  0
LINE
  5
39C
100
AcDbEntity
  8
RACCORDO
100
AcDbLine
 62
7
  6
CONTINUOUS
 10
13.1034701999
 20
0.2622298186
 11
13.1029628921
 21
0.4082692625
  0
LINE
  5
39D
100
AcDbEntity
  8
ASSI
100
AcDbLine
 62
7
  6
CONTINUOUS
 10
13.1034701999
 20
0.2622298186
 11
13.1029628921
 21
0.4082692625
  0
LINE
  5
39E
100
AcDbEntity
  8
RACCORDO
100
AcDbLine
 62
7
  6
CONTINUOUS
 10
13.10296106
 20
-0.4754762252
 11
13.1035461825
 21
-0.6787378316
  0
LINE
  5
39F
100
AcDbEntity
  8
ASSI
100
AcDbLine
 62
7
  6
CONTINUOUS
 10
13.10296106
 20
-0.4754762252
 11
13.1035461825
 21
-0.6787378316
  0
LINE
  5
3A0
100
AcDbEntity
  8
DRAFT
100
AcDbLine
 62
7
  6
CONTINUOUS
 10
12.8644733154
 20
4.6604557165
 11
12.8644733154
 21
-0.7374181867
  0
LINE
  5
3A1
100
AcDbEntity
  8
DRAFT
100
AcDbLine
 62
7
  6
CONTINUOUS
 10
12.9168810947
 20
4.6080479373
 11
12.9168810947
 21
-0.6850104074
  0
LINE
  5
3A2
100
AcDbEntity
  8
RACCORDO
100
AcDbLine
 62
7
  6
CONTINUOUS
 10
13.1035461825
 20
4.6017753615
 11
13.10296106
 21
4.3985137551
  0
LINE
  5
3A3
100
AcDbEntity
  8
ASSI
100
AcDbLine
 62
7
  6
CONTINUOUS
 10
13.1035461825
 20
4.6017753615
 11
13.10296106
 21
4.3985137551
  0
LINE
  5
3A4
100
AcDbEntity
  8
RACCORDO
100
AcDbLine
 62
7
  6
CONTINUOUS
 10
13.1050541178
 20
3.9506241535
 11
13.1029768435
 21
3.5230752534
  0
LINE
  5
3A5
100
AcDbEntity
  8
ASSI
100
AcDbLine
 62
7
  6
CONTINUOUS
 10
13.1050541178
 20
3.9506241535
 11
13.1029768435
 21
3.5230752534
  0
LINE
  5
3A6
100
AcDbEntity
  8
RACCORDO
100
AcDbLine
 62
7
  6
CONTINUOUS
 10
13.1079353693
 20
4.2652909427
 11
13.1050541178
 21
3.9506241535
  0
LINE
  5
3A7
100
AcDbEntity
  8
ASSI
100
AcDbLine
 62
7
  6
CONTINUOUS
 10
13.1079353693
 20
4.2652909427
 11
13.1050541178
 21
3.9506241535
  0
LINE
  5
3A8
100
AcDbEntity
  8
RACCORDO
100
AcDbLine
 62
7
  6
CONTINUOUS
 10
13.1079353693
 20
4.2652909427
 11
13.1088658414
 21
4.3346014241
  0
LINE
  5
3A9
100
AcDbEntity
  8
ASSI
100
AcDbLine
 62
7
  6
CONTINUOUS
 10
13.1079353693
 20
4.2652909427
 11
13.1088658414
 21
4.3346014241
  0
LWPOLYLINE
  5
3AA
100
AcDbEntity
  8
RACCORDO
100
AcDbPolyline
 62
7
  6
CONTINUOUS
 90
8
 70
0
 10
13.1088658414
 20
4.3346014241
 10
13.1090549421
 20
4.3444579116
 10
13.1091531917
 20
4.3484016134
 10
13.1092536699
 20
4.3516812006
 10
13.1093553082
 20
4.3542617832
 10
13.1094577504
 20
4.356131731
 10
13.1095613525
 20
4.3573026742
 10
13.1096661147
 20
4.3577746126
  0
LWPOLYLINE
  5
3AB
100
AcDbEntity
  8
ASSI
100
AcDbPolyline
 62
7
  6
CONTINUOUS
 90
8
 70
0
 10
13.1088658414
 20
4.3346014241
 10
13.1090549421
 20
4.3444579116
 10
13.1091531917
 20
4.3484016134
 10
13.1092536699
 20
4.3516812006
 10
13.1093553082
 20
4.3542617832
 10
13.1094577504
 20
4.356131731
 10
13.1095613525
 20
4.3573026742
 10
13.1096661147
 20
4.3577746126
  0
LINE
  5
3AC
100
AcDbEntity
  8
RACCORDO
100
AcDbLine
 62
7
  6
CONTINUOUS
 10
14.1455621428
 20
4.4289015038
 11
14.183410267
 21
4.5425382132
  0
LWPOLYLINE
  5
3AD
100
AcDbEntity
  8
0
100
AcDbPolyline
 62
7
  6
CONTINUOUS
 90
22
 70
0
 10
14.698786394
 20
3.5553647561
 10
14.7292145599
 20
3.6035119931
 10
14.7621903825
 20
3.6466201816
 10
14.7977138618
 20
3.6848285967
 10
14.8360397455
 20
3.7184246632
 10
14.876913286
 20
3.7473982267
 10
14.9195702395
 20
3.771453133
 10
14.9641686667
 20
3.790670368
 10
15.0105505069
 20
3.8052104748
 10
15.0574773347
 20
3.8148876777
 10
15.1049807357
 20
3.8196351716
 10
15.1530291242
 20
3.8196156391
 10
15.2002893176
 20
3.8149475075
 10
15.2465072266
 20
3.8056463812
 10
15.2919369405
 20
3.7916071689
 10
15.336007545
 20
3.7727236488
 10
15.3789499699
 20
3.7486925507
 10
15.4205332854
 20
3.7195649246
 10
15.4594937872
 20
3.6857527233
 10
15.4954102408
 20
3.6473045026
 10
15.5287038808
 20
3.6038892924
 10
15.5593747072
 20
3.5553647561
  0
LWPOLYLINE
  5
3AE
100
AcDbEntity
  8
0
100
AcDbPolyline
 62
7
  6
CONTINUOUS
 90
7
 70
0
 10
14.698786394
 20
0.3676727738
 10
14.6929107756
 20
0.3788899968
 10
14.6880716817
 20
0.3906142418
 10
14.6842691122
 20
0.4028169049
 10
14.6815030672
 20
0.4154624682
 10
14.6797735467
 20
0.4285081365
 10
14.6790805506
 20
0.4419035227
  0
LINE
  5
3AF
100
AcDbEntity
  8
RACCORDO
100
AcDbLine
 62
7
  6
CONTINUOUS
 10
14.1455621428
 20
-0.5058639739
 11
14.183410267
 21
-0.6195006833
  0
LWPOLYLINE
  5
3B0
100
AcDbEntity
  8
RACCORDO
100
AcDbPolyline
 62
7
  6
CONTINUOUS
 90
6
 70
0
 10
13.1096661147
 20
-0.4347370828
 10
13.1095613525
 20
-0.4342651443
 10
13.1094577504
 20
-0.4330942011
 10
13.1093553082
 20
-0.4312242533
 10
13.1092536699
 20
-0.4286436707
 10
13.1091531917
 20
-0.4253640836
  0
LWPOLYLINE
  5
3B1
100
AcDbEntity
  8
ASSI
100
AcDbPolyline
 62
7
  6
CONTINUOUS
 90
6
 70
0
 10
13.1096661147
 20
-0.4347370828
 10
13.1095613525
 20
-0.4342651443
 10
13.1094577504
 20
-0.4330942011
 10
13.1093553082
 20
-0.4312242533
 10
13.1092536699
 20
-0.4286436707
 10
13.1091531917
 20
-0.4253640836
  0
LINE
  5
3B2
100
AcDbEntity
  8
RACCORDO
100
AcDbLine
 62
7
  6
CONTINUOUS
 10
13.1327260938
 20
4.4233728711
 11
13.1323328879
 21
4.4289015038
  0
LWPOLYLINE
  5
3B3
100
AcDbEntity
  8
RACCORDO
100
AcDbPolyline
 62
7
  6
CONTINUOUS
 90
16
 70
0
 10
14.213410267
 20
5.1118842687
 10
14.2098216374
 20
5.1757465237
 10
14.2000262419
 20
5.2375778713
 10
14.1840240804
 20
5.2973783117
 10
14.1615055109
 20
5.3557521022
 10
14.1327801754
 20
5.4120949853
 10
14.098777
 20
5.4645941895
 10
14.0593259185
 20
5.513124713
 10
14.0145969971
 20
5.5578115574
 10
13.96602936
 20
5.5972169557
 10
13.9134772705
 20
5.6311707141
 10
13.8570864653
 20
5.6598430264
 10
13.7987332792
 20
5.6823067062
 10
13.7390431573
 20
5.6982526915
 10
13.6773906544
 20
5.7079900444
 10
13.6137757708
 20
5.7115187649
  0
LWPOLYLINE
  5
3B4
100
AcDbEntity
  8
RACCORDO
100
AcDbPolyline
 62
253
  6
CONTINUOUS
 90
19
 70
0
 10
13.6519941482
 20
5.0501635635
 10
13.6516041075
 20
5.0589211416
 10
13.6504809915
 20
5.0675016917
 10
13.6486248002
 20
5.0759052137
 10
13.6460113001
 20
5.0841979275
 10
13.6426647247
 20
5.0923136133
 10
13.6386577741
 20
5.1000536116
 10
13.633975693
 20
5.1074050163
 10
13.6286332367
 20
5.1143807336
 10
13.6227473722
 20
5.1208208224
 10
13.6163015447
 20
5.1267144863
 10
13.609312309
 20
5.1320725217
 10
13.6019462956
 20
5.1367673763
 10
13.5941892736
 20
5.1407806789
 10
13.586055474
 20
5.1441308007
 10
13.577754221
 20
5.1467453023
 10
13.5693552893
 20
5.1486000372
 10
13.5607889041
 20
5.1497191518
 10
13.5520550655
 20
5.1501026462
  0
LWPOLYLINE
  5
3B5
100
AcDbEntity
  8
RACCORDO
100
AcDbPolyline
 62
253
  6
CONTINUOUS
 90
19
 70
0
 10
14.1516895617
 20
5.0501635635
 10
14.1493579074
 20
5.1023952003
 10
14.1424863901
 20
5.1542287988
 10
14.1311273173
 20
5.2052705555
 10
14.1153671411
 20
5.255132678
 10
14.0953256475
 20
5.3034363365
 10
14.0711550118
 20
5.349814529
 10
14.0430388691
 20
5.393914914
 10
14.0111909309
 20
5.435402348
 10
13.9758532064
 20
5.4739614441
 10
13.9372942405
 20
5.5092991271
 10
13.8958070425
 20
5.5411469764
 10
13.8517068352
 20
5.5692630992
 10
13.8053286738
 20
5.5934337926
 10
13.757024957
 20
5.6134753668
 10
13.7071627184
 20
5.6292356323
 10
13.6561207987
 20
5.6405947909
 10
13.6042869788
 20
5.6474663742
 10
13.5520550655
 20
5.6497980597
  0
LWPOLYLINE
  5
3B6
100
AcDbEntity
  8
RACCORDO
100
AcDbPolyline
 62
7
  6
CONTINUOUS
 90
5
 70
0
 10
14.1426490438
 20
-0.4531680508
 10
14.1433240078
 20
-0.4741894405
 10
14.1440295724
 20
-0.4897762307
 10
14.1447756174
 20
-0.5003344085
 10
14.1455621428
 20
-0.5058639739
  0
LINE
  5
3B7
100
AcDbEntity
  8
RACCORDO
100
AcDbLine
 62
7
  6
CONTINUOUS
 10
14.1422913262
 20
-0.4384812351
 11
14.1426490438
 21
-0.4531680508
  0
LWPOLYLINE
  5
3B8
100
AcDbEntity
  8
RACCORDO
100
AcDbPolyline
 62
7
  6
CONTINUOUS
 90
3
 70
0
 10
13.133451809
 20
4.3972302008
 10
13.1330990675
 20
4.4128157701
 10
13.1327260938
 20
4.4233728711
  0
LINE
  5
3B9
100
AcDbEntity
  8
RACCORDO
100
AcDbLine
 62
7
  6
CONTINUOUS
 10
13.1339681743
 20
4.3615187649
 11
13.133451809
 21
4.3972302008
  0
LINE
  5
3BA
100
AcDbEntity
  8
RACCORDO
100
AcDbLine
 62
7
  6
CONTINUOUS
 10
13.10296106
 20
-0.4754762252
 11
13.1029380256
 21
0.4419035227
  0
LINE
  5
3BB
100
AcDbEntity
  8
ASSI
100
AcDbLine
 62
7
  6
CONTINUOUS
 10
13.10296106
 20
-0.4754762252
 11
13.1029380256
 21
0.4419035227
  0
LINE
  5
3BC
100
AcDbEntity
  8
DRAFT
100
AcDbLine
 62
7
  6
CONTINUOUS
 10
13.113410267
 20
-0.6195006833
 11
13.113410267
 21
-0.4384812351
  0
LINE
  5
3BD
100
AcDbEntity
  8
ASSI
100
AcDbLine
 62
7
  6
CONTINUOUS
 10
13.113410267
 20
-0.6195006833
 11
13.113410267
 21
-0.4384812351
  0
LINE
  5
3BE
100
AcDbEntity
  8
DRAFT
100
AcDbLine
 62
7
  6
CONTINUOUS
 10
13.113410267
 20
4.3615187649
 11
13.113410267
 21
4.5425382132
  0
LINE
  5
3BF
100
AcDbEntity
  8
ASSI
100
AcDbLine
 62
7
  6
CONTINUOUS
 10
13.113410267
 20
4.3615187649
 11
13.113410267
 21
4.5425382132
  0
LINE
  5
3C0
100
AcDbEntity
  8
RACCORDO
100
AcDbLine
 62
253
  6
CONTINUOUS
 10
13.5520550655
 20
-1.2270651163
 11
13.5520550591
 21
-1.7267605298
  0
LINE
  5
3C1
100
AcDbEntity
  8
RACCORDO
100
AcDbLine
 62
253
  6
CONTINUOUS
 10
13.5520550655
 20
5.1501026462
 11
13.5520550655
 21
5.6497980597
  0
LINE
  5
3C2
100
AcDbEntity
  8
RACCORDO
100
AcDbLine
 62
253
  6
CONTINUOUS
 10
13.6519941482
 20
-1.1271260336
 11
13.6519941482
 21
-0.7374181867
  0
LINE
  5
3C3
100
AcDbEntity
  8
RACCORDO
100
AcDbLine
 62
253
  6
CONTINUOUS
 10
13.6519941482
 20
4.6604557165
 11
13.6519941482
 21
5.0501635635
  0
LINE
  5
3C4
100
AcDbEntity
  8
RACCORDO
100
AcDbLine
 62
253
  6
CONTINUOUS
 10
14.1516895617
 20
-1.1271260336
 11
14.1516895617
 21
-0.7121287996
  0
LINE
  5
3C5
100
AcDbEntity
  8
RACCORDO
100
AcDbLine
 62
253
  6
CONTINUOUS
 10
14.1516895617
 20
4.6351663295
 11
14.1516895617
 21
5.0501635635
  0
LINE
  5
3C6
100
AcDbEntity
  8
RACCORDO
100
AcDbLine
 62
7
  6
CONTINUOUS
 10
14.213410267
 20
5.1118842687
 11
14.213410267
 21
4.5425382132
  0
LINE
  5
3C7
100
AcDbEntity
  8
RACCORDO
100
AcDbLine
 62
7
  6
CONTINUOUS
 10
14.213410267
 20
-0.6195006833
 11
14.213410267
 21
-1.1888467388
  0
LINE
  5
3C8
100
AcDbEntity
  8
RACCORDO
100
AcDbLine
 62
7
  6
CONTINUOUS
 10
13.10296106
 20
4.3985137551
 11
13.1029380256
 21
3.4811340072
  0
LINE
  5
3C9
100
AcDbEntity
  8
ASSI
100
AcDbLine
 62
7
  6
CONTINUOUS
 10
13.10296106
 20
4.3985137551
 11
13.1029380256
 21
3.4811340072
  0
LWPOLYLINE
  5
3CA
100
AcDbEntity
  8
RACCORDO
100
AcDbPolyline
 62
7
  6
CONTINUOUS
 90
5
 70
0
 10
13.1323328879
 20
-0.5058639739
 10
13.1327260938
 20
-0.5003353412
 10
13.1330990675
 20
-0.4897782402
 10
13.133451809
 20
-0.4741926709
 10
13.1339681743
 20
-0.4384812351
  0
LWPOLYLINE
  5
3CB
100
AcDbEntity
  8
RACCORDO
100
AcDbPolyline
 62
7
  6
CONTINUOUS
 90
6
 70
0
 10
14.1455621428
 20
4.4289015038
 10
14.1447756174
 20
4.4233719384
 10
14.1440295724
 20
4.4128137606
 10
14.1433240078
 20
4.3972269704
 10
14.1426490438
 20
4.3762055807
 10
14.1422913262
 20
4.3615187649
  0
LINE
  5
3CC
100
AcDbEntity
  8
RACCORDO
100
AcDbLine
 62
7
  6
CONTINUOUS
 10
13.1025016822
 20
-0.6850104074
 11
13.1323328879
 21
-0.5058639739
  0
LWPOLYLINE
  5
3CD
100
AcDbEntity
  8
0
100
AcDbPolyline
 62
7
  6
CONTINUOUS
 90
22
 70
0
 10
15.5593747072
 20
0.3676727738
 10
15.5288387012
 20
0.3193891513
 10
15.4957614525
 20
0.2761830199
 10
15.4601429612
 20
0.2379134932
 10
15.4216953393
 20
0.2042921771
 10
15.3807064748
 20
0.1753272116
 10
15.3380400318
 20
0.1513118313
 10
15.2936989646
 20
0.1321764762
 10
15.2476803189
 20
0.1177477543
 10
15.2008388953
 20
0.1081734751
 10
15.1528367486
 20
0.1035040929
 10
15.104011824
 20
0.1035947224
 10
15.0562327571
 20
0.1083408552
 10
15.0100173496
 20
0.1177450242
 10
14.9648477998
 20
0.1318955324
 10
14.9210393386
 20
0.1508594481
 10
14.8782753949
 20
0.1749345707
 10
14.8368725398
 20
0.2040738615
 10
14.7980957177
 20
0.237838247
 10
14.7623665768
 20
0.2761679317
 10
14.7292634689
 20
0.319399616
 10
14.698786394
 20
0.3676727738
  0
LINE
  5
3CE
100
AcDbEntity
  8
RACCORDO
100
AcDbLine
 62
7
  6
CONTINUOUS
 10
14.1516895617
 20
-0.7121287996
 11
14.213410267
 21
-0.6195006833
  0
LINE
  5
3CF
100
AcDbEntity
  8
RACCORDO
100
AcDbLine
 62
7
  6
CONTINUOUS
 10
14.1516895617
 20
4.6351663295
 11
14.213410267
 21
4.5425382132
  0
LWPOLYLINE
  5
3D0
100
AcDbEntity
  8
0
100
AcDbPolyline
 62
7
  6
CONTINUOUS
 90
7
 70
0
 10
15.5593747072
 20
3.5553647561
 10
15.5652743731
 20
3.5440613209
 10
15.5701278955
 20
3.5322828037
 10
15.5739352745
 20
3.5200602673
 10
15.57669651
 20
3.5074309994
 10
15.578411602
 20
3.4944387641
 10
15.5790805506
 20
3.4811340072
  0
LINE
  5
3D1
100
AcDbEntity
  8
RACCORDO
100
AcDbLine
 62
7
  6
CONTINUOUS
 10
13.1025016822
 20
4.6080479373
 11
13.1323328879
 21
4.4289015038
  0
LWPOLYLINE
  5
3D2
100
AcDbEntity
  8
RACCORDO
100
AcDbPolyline
 62
7
  6
CONTINUOUS
 90
6
 70
0
 10
16.1091531917
 20
-0.4253640836
 10
16.1092536699
 20
-0.4286436707
 10
16.1093553082
 20
-0.4312242533
 10
16.1094577504
 20
-0.4330942011
 10
16.1095613525
 20
-0.4342651443
 10
16.1096661147
 20
-0.4347370828
  0
LWPOLYLINE
  5
3D3
100
AcDbEntity
  8
ASSI
100
AcDbPolyline
 62
7
  6
CONTINUOUS
 90
6
 70
0
 10
16.1091531917
 20
-0.4253640836
 10
16.1092536699
 20
-0.4286436707
 10
16.1093553082
 20
-0.4312242533
 10
16.1094577504
 20
-0.4330942011
 10
16.1095613525
 20
-0.4342651443
 10
16.1096661147
 20
-0.4347370828
  0
LINE
  5
3D4
100
AcDbEntity
  8
0
100
AcDbLine
 62
7
  6
CONTINUOUS
 10
14.6790805506
 20
0.4419035227
 11
14.6790805506
 21
3.4811340072
  0
LINE
  5
3D5
100
AcDbEntity
  8
0
100
AcDbLine
 62
7
  6
CONTINUOUS
 10
15.5790805506
 20
0.4419035227
 11
15.5790805506
 21
3.4811340072
  0
LWPOLYLINE
  5
3D6
100
AcDbEntity
  8
0
100
AcDbPolyline
 62
7
  6
CONTINUOUS
 90
7
 70
0
 10
15.5790805506
 20
0.4419035227
 10
15.5784085183
 20
0.4285871222
 10
15.576691576
 20
0.4155880216
 10
15.5739297238
 20
0.4029566595
 10
15.5701229616
 20
0.3907366762
 10
15.5652712894
 20
0.3789651323
 10
15.5593747072
 20
0.3676727738
  0
LWPOLYLINE
  5
3D7
100
AcDbEntity
  8
0
100
AcDbPolyline
 62
7
  6
CONTINUOUS
 90
7
 70
0
 10
14.6790805506
 20
3.4811340072
 10
14.6797660778
 20
3.4945012863
 10
14.6814911169
 20
3.5075303844
 10
14.6842556681
 20
3.5201708951
 10
14.6880597314
 20
3.5323797218
 10
14.6929033067
 20
3.544120797
 10
14.698786394
 20
3.5553647561
  0
LWPOLYLINE
  5
3D8
100
AcDbEntity
  8
RACCORDO
100
AcDbPolyline
 62
7
  6
CONTINUOUS
 90
7
 70
0
 10
16.1096661147
 20
4.3577746126
 10
16.1095613525
 20
4.3573026742
 10
16.1094577504
 20
4.356131731
 10
16.1093553082
 20
4.3542617832
 10
16.1092536699
 20
4.3516812006
 10
16.1091531917
 20
4.3484016134
 10
16.1089592774
 20
4.3398617252
  0
LWPOLYLINE
  5
3D9
100
AcDbEntity
  8
ASSI
100
AcDbPolyline
 62
7
  6
CONTINUOUS
 90
7
 70
0
 10
16.1096661147
 20
4.3577746126
 10
16.1095613525
 20
4.3573026742
 10
16.1094577504
 20
4.356131731
 10
16.1093553082
 20
4.3542617832
 10
16.1092536699
 20
4.3516812006
 10
16.1091531917
 20
4.3484016134
 10
16.1089592774
 20
4.3398617252
  0
LINE
  5
3DA
100
AcDbEntity
  8
RACCORDO
100
AcDbLine
 62
7
  6
CONTINUOUS
 10
16.1089592774
 20
-0.4168241953
 11
16.1091531917
 21
-0.4253640836
  0
LINE
  5
3DB
100
AcDbEntity
  8
ASSI
100
AcDbLine
 62
7
  6
CONTINUOUS
 10
16.1089592774
 20
-0.4168241953
 11
16.1091531917
 21
-0.4253640836
  0
LINE
  5
3DC
100
AcDbEntity
  8
RACCORDO
100
AcDbLine
 62
7
  6
CONTINUOUS
 10
16.1087746341
 20
-0.4056394786
 11
16.1089592774
 21
-0.4168241953
  0
LINE
  5
3DD
100
AcDbEntity
  8
ASSI
100
AcDbLine
 62
7
  6
CONTINUOUS
 10
16.1087746341
 20
-0.4056394786
 11
16.1089592774
 21
-0.4168241953
  0
LINE
  5
3DE
100
AcDbEntity
  8
RACCORDO
100
AcDbLine
 62
7
  6
CONTINUOUS
 10
16.1064018469
 20
-0.197447416
 11
16.1087746341
 21
-0.4056394786
  0
LINE
  5
3DF
100
AcDbEntity
  8
ASSI
100
AcDbLine
 62
7
  6
CONTINUOUS
 10
16.1064018469
 20
-0.197447416
 11
16.1087746341
 21
-0.4056394786
  0
LINE
  5
3E0
100
AcDbEntity
  8
RACCORDO
100
AcDbLine
 62
7
  6
CONTINUOUS
 10
16.1034702104
 20
0.2622279679
 11
16.1064018469
 21
-0.197447416
  0
LINE
  5
3E1
100
AcDbEntity
  8
ASSI
100
AcDbLine
 62
7
  6
CONTINUOUS
 10
16.1034702104
 20
0.2622279679
 11
16.1064018469
 21
-0.197447416
  0
LINE
  5
3E2
100
AcDbEntity
  8
DRAFT
100
AcDbLine
 62
7
  6
CONTINUOUS
 10
16.1108008218
 20
2.0400998558
 11
16.1108008218
 21
1.882937674
  0
LINE
  5
3E3
100
AcDbEntity
  8
ASSI
100
AcDbLine
 62
7
  6
CONTINUOUS
 10
16.1108008218
 20
2.0400998558
 11
16.1108008218
 21
1.882937674
  0
LINE
  5
3E4
100
AcDbEntity
  8
DRAFT
100
AcDbLine
 62
7
  6
CONTINUOUS
 10
16.113410267
 20
-0.4384812351
 11
16.113410267
 21
-0.095897784
  0
LINE
  5
3E5
100
AcDbEntity
  8
ASSI
100
AcDbLine
 62
7
  6
CONTINUOUS
 10
16.113410267
 20
-0.4384812351
 11
16.113410267
 21
-0.095897784
  0
LINE
  5
3E6
100
AcDbEntity
  8
DRAFT
100
AcDbLine
 62
7
  6
CONTINUOUS
 10
16.113410267
 20
4.0189353139
 11
16.113410267
 21
4.3615187649
  0
LINE
  5
3E7
100
AcDbEntity
  8
ASSI
100
AcDbLine
 62
7
  6
CONTINUOUS
 10
16.113410267
 20
4.0189353139
 11
16.113410267
 21
4.3615187649
  0
LINE
  5
3E8
100
AcDbEntity
  8
RACCORDO
100
AcDbLine
 62
7
  6
CONTINUOUS
 10
16.1034702104
 20
0.2622279679
 11
16.1029396057
 21
3.4896059053
  0
LINE
  5
3E9
100
AcDbEntity
  8
ASSI
100
AcDbLine
 62
7
  6
CONTINUOUS
 10
16.1034702104
 20
0.2622279679
 11
16.1029396057
 21
3.4896059053
  0
LINE
  5
3EA
100
AcDbEntity
  8
RACCORDO
100
AcDbLine
 62
7
  6
CONTINUOUS
 10
16.1039373296
 20
3.7617511248
 11
16.1029396057
 21
3.4896059053
  0
LINE
  5
3EB
100
AcDbEntity
  8
ASSI
100
AcDbLine
 62
7
  6
CONTINUOUS
 10
16.1039373296
 20
3.7617511248
 11
16.1029396057
 21
3.4896059053
  0
LINE
  5
3EC
100
AcDbEntity
  8
RACCORDO
100
AcDbLine
 62
7
  6
CONTINUOUS
 10
16.1064018469
 20
4.1204849459
 11
16.1039373296
 21
3.7617511248
  0
LINE
  5
3ED
100
AcDbEntity
  8
ASSI
100
AcDbLine
 62
7
  6
CONTINUOUS
 10
16.1064018469
 20
4.1204849459
 11
16.1039373296
 21
3.7617511248
  0
LINE
  5
3EE
100
AcDbEntity
  8
RACCORDO
100
AcDbLine
 62
7
  6
CONTINUOUS
 10
16.1087746341
 20
4.3286770085
 11
16.1064018469
 21
4.1204849459
  0
LINE
  5
3EF
100
AcDbEntity
  8
ASSI
100
AcDbLine
 62
7
  6
CONTINUOUS
 10
16.1087746341
 20
4.3286770085
 11
16.1064018469
 21
4.1204849459
  0
LINE
  5
3F0
100
AcDbEntity
  8
RACCORDO
100
AcDbLine
 62
7
  6
CONTINUOUS
 10
16.1089592774
 20
4.3398617252
 11
16.1087746341
 21
4.3286770085
  0
LINE
  5
3F1
100
AcDbEntity
  8
ASSI
100
AcDbLine
 62
7
  6
CONTINUOUS
 10
16.1089592774
 20
4.3398617252
 11
16.1087746341
 21
4.3286770085
  0
LINE
  5
3F2
100
AcDbEntity
  8
0
100
AcDbLine
 62
7
  6
CONTINUOUS
 10
22.8005254436
 20
0.2115187649
 11
22.8005254436
 21
1.7115187649
  0
LINE
  5
3F3
100
AcDbEntity
  8
0
100
AcDbLine
 62
7
  6
CONTINUOUS
 10
22.8005254436
 20
2.2115187649
 11
22.8005254436
 21
3.7115187649
  0
LINE
  5
3F4
100
AcDbEntity
  8
0
100
AcDbLine
 62
7
  6
CONTINUOUS
 10
25.8007274436
 20
3.7115187649
 11
25.8007274436
 21
2.2115187649
  0
LINE
  5
3F5
100
AcDbEntity
  8
0
100
AcDbLine
 62
7
  6
CONTINUOUS
 10
25.8007274436
 20
1.7115187649
 11
25.8007274436
 21
0.2115187649
  0
LINE
  5
3F6
100
AcDbEntity
  8
0
100
AcDbLine
 62
7
  6
CONTINUOUS
 10
25.8007274436
 20
0.2115187649
 11
33.4456406508
 21
0.2115187649
  0
LINE
  5
3F7
100
AcDbEntity
  8
0
100
AcDbLine
 62
7
  6
CONTINUOUS
 10
33.4456406508
 20
0.5615187649
 11
43.4456406508
 21
0.5615187649
  0
LINE
  5
3F8
100
AcDbEntity
  8
0
100
AcDbLine
 62
7
  6
CONTINUOUS
 10
33.4456406508
 20
3.7115187649
 11
33.4456406508
 21
2.2115187649
  0
LINE
  5
3F9
100
AcDbEntity
  8
0
100
AcDbLine
 62
7
  6
CONTINUOUS
 10
33.4456406508
 20
1.7115187649
 11
33.4456406508
 21
0.2115187649
  0
LINE
  5
3FA
100
AcDbEntity
  8
0
100
AcDbLine
 62
7
  6
CONTINUOUS
 10
33.4456406508
 20
1.3615187649
 11
43.4456406508
 21
1.3615187649
  0
LINE
  5
3FB
100
AcDbEntity
  8
0
100
AcDbLine
 62
7
  6
CONTINUOUS
 10
25.8007274436
 20
1.7115187649
 11
33.4456406508
 21
1.7115187649
  0
LINE
  5
3FC
100
AcDbEntity
  8
0
100
AcDbLine
 62
7
  6
CONTINUOUS
 10
25.8007274436
 20
2.2115187649
 11
33.4456406508
 21
2.2115187649
  0
LINE
  5
3FD
100
AcDbEntity
  8
0
100
AcDbLine
 62
7
  6
CONTINUOUS
 10
33.4456406508
 20
2.5615187649
 11
43.4456406508
 21
2.5615187649
  0
LINE
  5
3FE
100
AcDbEntity
  8
0
100
AcDbLine
 62
7
  6
CONTINUOUS
 10
33.4456406508
 20
3.3615187649
 11
43.4456406508
 21
3.3615187649
  0
LINE
  5
3FF
100
AcDbEntity
  8
0
100
AcDbLine
 62
7
  6
CONTINUOUS
 10
25.8007274436
 20
3.7115187649
 11
33.4456406508
 21
3.7115187649
  0
LINE
  5
400
100
AcDbEntity
  8
0
100
AcDbLine
 62
7
  6
CONTINUOUS
 10
43.4456406508
 20
3.3615187649
 11
43.4456406508
 21
2.5615187649
  0
LINE
  5
401
100
AcDbEntity
  8
0
100
AcDbLine
 62
7
  6
CONTINUOUS
 10
43.4456406508
 20
1.3615187649
 11
43.4456406508
 21
0.5615187649
  0
ENDSEC
  0
SECTION
  2
OBJECTS
  0
DICTIONARY
  5
C
100
AcDbDictionary
280
0
281
1
  3
ACAD_GROUP
350
D
  3
ACAD_MLINESTYLE
350
17
  3
ACAD_LAYOUT
350
1A
  3
ACAD_PLOTSETTINGS
350
19
  3
ACAD_PLOTSTYLENAME
350
E
  0
DICTIONARY
  5
D
102
{ACAD_REACTORS
330
C
102
}
100
AcDbDictionary
280
0
281
1
  0
ACDBDICTIONARYWDFLT
  5
E
102
{ACAD_REACTORS
330
C
102
}
100
AcDbDictionary
281
1
  3
Normal
350
F
100
AcDbDictionaryWithDefault
340
F
  0
DICTIONARY
  5
17
102
{ACAD_REACTORS
330
C
102
}
100
AcDbDictionary
280
0
281
1
  3
Standard
350
18
  0
DICTIONARY
  5
19
102
{ACAD_REACTORS
330
C
102
}
100
AcDbDictionary
281
1
  0
DICTIONARY
  5
1A
102
{ACAD_REACTORS
330
C
102
}
100
AcDbDictionary
281
1
  3
Model
350
402
  3
Layout1
350
403
  0
ACDBPLACEHOLDER
  5
F
102
{ACAD_REACTORS
330
E
102
}
  0
MLINESTYLE
  5
18
102
{ACAD_REACTORS
330
17
102
}
100
AcDbMlineStyle
  2
STANDARD
 70
0
  3

 62
256
 51
90.0
 52
90.0
 71
2
 49
0.5
 62
256
  6
BYLAYER
 49
-0.5
 62
256
  6
BYLAYER
  0
LAYOUT
  5
402
102
{ACAD_REACTORS
330
1A
102
}
100
AcDbPlotSettings
  1

  2
none_device
  4
ISO_A4_(297.00_x_210.00_MM)
  6

 40
0.0
 41
0.0
 42
0.0
 43
0.0
 44
297.0
 45
210.0
 46
0.0
 47
0.0
 48
0.0
 49
0.0
140
0.0
141
0.0
142
1.0
143
1.0
 70
1024
 72
1
 73
0
 74
0
  7

 75
0
147
1.0
148
0.0
149
0.0
100
AcDbLayout
  1
Model
 70
0
 71
0
 10
0.0
 20
0.0
 11
297.0
 21
210.0
 12
0.0
 22
0.0
 32
0.0
 14
0.0
 24
0.0
 34
0.0
 15
0.0
 25
0.0
 35
0.0
146
0.0
 13
0.0
 23
0.0
 33
0.0
 16
1.0
 26
0.0
 36
0.0
 17
0.0
 27
1.0
 37
0.0
 76
0
330
212
345
0
346
0
  0
LAYOUT
  5
403
102
{ACAD_REACTORS
330
1A
102
}
100
AcDbPlotSettings
  1

  2
none_device
  4
ISO_A4_(297.00_x_210.00_MM)
  6

 40
0.0
 41
0.0
 42
0.0
 43
0.0
 44
297.0
 45
210.0
 46
0.0
 47
0.0
 48
0.0
 49
0.0
140
0.0
141
0.0
142
1.0
143
1.0
 70
0
 72
1
 73
0
 74
0
  7

 75
0
147
1.0
148
0.0
149
0.0
100
AcDbLayout
  1
Layout1
 70
0
 71
1
 10
0.0
 20
0.0
 11
297.0
 21
210.0
 12
0.0
 22
0.0
 32
0.0
 14
0.0
 24
0.0
 34
0.0
 15
0.0
 25
0.0
 35
0.0
146
0.0
 13
0.0
 23
0.0
 33
0.0
 16
1.0
 26
0.0
 36
0.0
 17
0.0
 27
1.0
 37
0.0
 76
0
330
213
345
0
346
0
  0
ENDSEC
  0
EOF
