  0
SECTION
  2
HEADER
  9
$ACADVER
  1
AC1021
  9
$DWGCODEPAGE
  3
ANSI_1252
  9
$EXTMAX
 10
297.0
 20
210.0
 30
0.0
  9
$EXTMIN
 10
0.0
 20
0.0
 30
0.0
  9
$LIMMIN
 10
0.0
 20
0.0
  9
$LIMMAX
 10
297.0
 20
210.0
  9
$VIEWCTR
 10
148.5
 20
105.0
  9
$VIEWSIZE
 40
210.0
  9
$CLAYER
  8
0
  9
$LTSCALE
 40
16.335
  9
$CELTYPE
  6
BYLAYER
  9
$DIMSCALE
 40
1.0
  9
$DIMASZ
 40
3.0
  9
$DIMEXO
 40
0.5
  9
$DIMDLI
 40
11.286
  9
$DIMEXE
 40
1.5
  9
$DIMCEN
 40
2.673
  9
$DIMLFAC
 40
1.0
  9
$DIMBLK
  1
_FILLED
  9
$DIMALT
 70
0
  9
$DIMALTF
 40
0.0393700787
  9
$DIMTXT
 40
3.0
  9
$DIMTOL
 70
1
  9
$DIMLIM
 70
0
  9
$DIMTFAC
 40
1.0
  9
$DIMTP
 40
0.01
  9
$DIMTM
 40
0.01
  9
$DIMGAP
 40
0.625
  9
$DIMDSEP
 70
44
  9
$AUNITS
 70
0
  9
$PDMODE
 70
3
  9
$PDSIZE
 40
3.0
  9
$HANDSEED
  5
402
  9
$TILEMODE
 70
1
  9
$MEASUREMENT
 70
1
  9
$INSUNITS
 70
4
  0
ENDSEC
  0
SECTION
  2
CLASSES
  0
CLASS
  1
ACDBDICTIONARYWDFLT
  2
AcDbDictionaryWithDefault
  3
AutoCAD 2000
 90
0
 91
1
280
0
281
0
  0
CLASS
  1
ACDBPLACEHOLDER
  2
AcDbPlaceHolder
  3
AutoCAD 2000
 90
0
 91
1
280
0
281
0
  0
CLASS
  1
LAYOUT
  2
AcDbLayout
  3
AutoCAD 2000
 90
0
 91
0
280
0
281
0
  0
ENDSEC
  0
SECTION
  2
TABLES
  0
TABLE
  2
VPORT
  5
8
100
AcDbSymbolTable
 70
2
  0
VPORT
  5
1F4
100
AcDbSymbolTableRecord
100
AcDbViewportTableRecord
  2
*ACTIVE
 70
0
 10
0.0
 20
0.0
 11
1.0
 21
1.0
 12
148.5
 22
105.0
 13
0.0
 23
0.0
 14
1.0
 24
1.0
 15
0.0
 25
0.0
 16
0.0
 26
0.0
 36
1.0
 17
0.0
 27
0.0
 37
0.0
 40
210.0
 41
1.4142857143
 42
50.0
 43
0.0
 44
0.0
 50
0.0
 51
0.0
 71
0
 72
100
 73
1
 74
1
 75
0
 76
0
 77
0
 78
0
  0
ENDTAB
  0
TABLE
  2
LTYPE
  5
5
100
AcDbSymbolTable
 70
6
  0
LTYPE
  5
14
100
AcDbSymbolTableRecord
100
AcDbLinetypeTableRecord
  2
BYBLOCK
 70
0
  3

 72
65
 73
0
 40
0.0
  0
LTYPE
  5
15
100
AcDbSymbolTableRecord
100
AcDbLinetypeTableRecord
  2
BYLAYER
 70
0
  3

 72
65
 73
0
 40
0.0
  0
LTYPE
  5
16
100
AcDbSymbolTableRecord
100
AcDbLinetypeTableRecord
  2
CONTINUOUS
 70
64
  3
Solid line
 72
65
 73
0
 40
0.0
  0
LTYPE
  5
1F5
100
AcDbSymbolTableRecord
100
AcDbLinetypeTableRecord
  2
CENTER
 70
64
  3
____ _ ____ _ ____ _ ____ _ ____ _ ____ _ ____
 72
65
 73
4
 40
0.6
 49
0.375
 74
0
 49
-0.075
 74
0
 49
0.075
 74
0
 49
-0.075
 74
0
  0
LTYPE
  5
1F6
100
AcDbSymbolTableRecord
100
AcDbLinetypeTableRecord
  2
HIDDEN
 70
64
  3
- - - - - - - - - - - - - - - - - - - -
 72
65
 73
2
 40
0.2
 49
0.1
 74
0
 49
-0.1
 74
0
  0
LTYPE
  5
1F7
100
AcDbSymbolTableRecord
100
AcDbLinetypeTableRecord
  2
PHANTOM
 70
64
  3
_____ _ _ _____ _ _ _____ _ _ _____
 72
65
 73
6
 40
0.8
 49
0.45
 74
0
 49
-0.05
 74
0
 49
0.1
 74
0
 49
-0.05
 74
0
 49
0.1
 74
0
 49
-0.05
 74
0
  0
LTYPE
  5
1F8
100
AcDbSymbolTableRecord
100
AcDbLinetypeTableRecord
  2
DOT
 70
64
  3
. . . . . . . . . . . . . . . . . . . .
 72
65
 73
2
 40
0.2
 49
0.1
 74
0
 49
-0.1
 74
0
  0
LTYPE
  5
1F9
100
AcDbSymbolTableRecord
100
AcDbLinetypeTableRecord
  2
DASHED
 70
64
  3
- - - - - - - - - - - - - - - - - - - -
 72
65
 73
2
 40
0.2
 49
0.1
 74
0
 49
-0.1
 74
0
  0
ENDTAB
  0
TABLE
  2
LAYER
  5
2
100
AcDbSymbolTable
 70
36
  0
LAYER
  5
10
100
AcDbSymbolTableRecord
100
AcDbLayerTableRecord
  2
0
 70
0
 62
7
  6
CONTINUOUS
370
-3
390
F
  0
LAYER
  5
1FA
100
AcDbSymbolTableRecord
100
AcDbLayerTableRecord
  2
DEFAULT_1
 70
0
 62
7
  6
CENTER
370
-3
390
F
  0
LAYER
  5
1FB
100
AcDbSymbolTableRecord
100
AcDbLayerTableRecord
  2
DEFAULT_2
 70
0
 62
7
  6
HIDDEN
370
-3
390
F
  0
LAYER
  5
1FC
100
AcDbSymbolTableRecord
100
AcDbLayerTableRecord
  2
DEFAULT_3
 70
0
 62
7
  6
PHANTOM
370
-3
390
F
  0
LAYER
  5
1FD
100
AcDbSymbolTableRecord
100
AcDbLayerTableRecord
  2
ASSI
 70
0
 62
7
  6
CONTINUOUS
370
-3
390
F
  0
LAYER
  5
1FE
100
AcDbSymbolTableRecord
100
AcDbLayerTableRecord
  2
COLORI
 70
0
 62
7
  6
CONTINUOUS
370
-3
390
F
  0
LAYER
  5
1FF
100
AcDbSymbolTableRecord
100
AcDbLayerTableRecord
  2
COORDINATE
 70
0
 62
7
  6
CONTINUOUS
370
-3
390
F
  0
LAYER
  5
200
100
AcDbSymbolTableRecord
100
AcDbLayerTableRecord
  2
COPY_PUBLISH
 70
0
 62
7
  6
CONTINUOUS
370
-3
390
F
  0
LAYER
  5
201
100
AcDbSymbolTableRecord
100
AcDbLayerTableRecord
  2
COSMETICI
 70
0
 62
7
  6
CONTINUOUS
370
-3
390
F
  0
LAYER
  5
202
100
AcDbSymbolTableRecord
100
AcDbLayerTableRecord
  2
CURVE
 70
0
 62
7
  6
CONTINUOUS
370
-3
390
F
  0
LAYER
  5
203
100
AcDbSymbolTableRecord
100
AcDbLayerTableRecord
  2
DRAFT
 70
0
 62
7
  6
CONTINUOUS
370
-3
390
F
  0
LAYER
  5
204
100
AcDbSymbolTableRecord
100
AcDbLayerTableRecord
  2
IMPORT_IGES
 70
0
 62
7
  6
CONTINUOUS
370
-3
390
F
  0
LAYER
  5
205
100
AcDbSymbolTableRecord
100
AcDbLayerTableRecord
  2
NOTE
 70
0
 62
7
  6
CONTINUOUS
370
-3
390
F
  0
LAYER
  5
206
100
AcDbSymbolTableRecord
100
AcDbLayerTableRecord
  2
PIANI
 70
0
 62
7
  6
CONTINUOUS
370
-3
390
F
  0
LAYER
  5
207
100
AcDbSymbolTableRecord
100
AcDbLayerTableRecord
  2
PUNTI
 70
0
 62
7
  6
CONTINUOUS
370
-3
390
F
  0
LAYER
  5
208
100
AcDbSymbolTableRecord
100
AcDbLayerTableRecord
  2
RACCORDO
 70
0
 62
7
  6
CONTINUOUS
370
-3
390
F
  0
LAYER
  5
209
100
AcDbSymbolTableRecord
100
AcDbLayerTableRecord
  2
SCRITTE
 70
0
 62
7
  6
CONTINUOUS
370
-3
390
F
  0
LAYER
  5
20A
100
AcDbSymbolTableRecord
100
AcDbLayerTableRecord
  2
SIMBOLI
 70
0
 62
7
  6
CONTINUOUS
370
-3
390
F
  0
LAYER
  5
20B
100
AcDbSymbolTableRecord
100
AcDbLayerTableRecord
  2
SMUSSO
 70
0
 62
7
  6
CONTINUOUS
370
-3
390
F
  0
LAYER
  5
20C
100
AcDbSymbolTableRecord
100
AcDbLayerTableRecord
  2
SNAPLINE
 70
0
 62
7
  6
CONTINUOUS
370
-3
390
F
  0
LAYER
  5
20D
100
AcDbSymbolTableRecord
100
AcDbLayerTableRecord
  2
SUPERFICI
 70
0
 62
7
  6
CONTINUOUS
370
-3
390
F
  0
LAYER
  5
20E
100
AcDbSymbolTableRecord
100
AcDbLayerTableRecord
  2
TRASH
 70
0
 62
7
  6
CONTINUOUS
370
-3
390
F
  0
LAYER
  5
20F
100
AcDbSymbolTableRecord
100
AcDbLayerTableRecord
  2
XSEC_DATUMS
 70
0
 62
7
  6
CONTINUOUS
370
-3
390
F
  0
ENDTAB
  0
TABLE
  2
STYLE
  5
3
100
AcDbSymbolTable
 70
1
  0
STYLE
  5
11
100
AcDbSymbolTableRecord
100
AcDbTextStyleTableRecord
  2
STANDARD
 70
0
 40
0.0
 41
0.8
 50
0.0
 71
0
 42
0.2
  3
txt
  4

  0
STYLE
  5
210
100
AcDbSymbolTableRecord
100
AcDbTextStyleTableRecord
  2
TEXTSTYLE_1
 70
0
 40
0.0
 41
0.8
 50
0.0
 71
0
 42
0.2
  3
gdt
  4

  0
ENDTAB
  0
TABLE
  2
VIEW
  5
6
100
AcDbSymbolTable
 70
0
  0
ENDTAB
  0
TABLE
  2
UCS
  5
7
100
AcDbSymbolTable
 70
0
  0
ENDTAB
  0
TABLE
  2
APPID
  5
9
100
AcDbSymbolTable
 70
1
  0
APPID
  5
211
100
AcDbSymbolTableRecord
100
AcDbRegAppTableRecord
  2
ACAD
 70
0
  0
ENDTAB
  0
TABLE
  2
BLOCK_RECORD
  5
1
100
AcDbSymbolTable
 70
0
  0
BLOCK_RECORD
  5
212
100
AcDbSymbolTableRecord
100
AcDbBlockTableRecord
  2
*Model_Space
  0
BLOCK_RECORD
  5
213
100
AcDbSymbolTableRecord
100
AcDbBlockTableRecord
  2
*Paper_Space
  0
ENDTAB
  0
TABLE
  2
DIMSTYLE
  5
A
100
AcDbSymbolTable
 70
1
100
AcDbDimStyleTable
 71
0
  0
DIMSTYLE
105
214
100
AcDbSymbolTableRecord
100
AcDbDimStyleTableRecord
  2
STANDARD
 70
0
  3

  4

 40
1.0
 41
3.0
 42
0.5
 43
0.38
 44
1.5
 45
0.0
 46
0.0
 47
0.01
 48
0.01
140
3.0
141
0.09
142
0.0
143
25.4
144
1.0
145
0.0
146
1.0
147
0.625
 71
1.0
 72
0.0
 73
0
 74
0
 75
0
 76
0
 77
1
 78
8
170
0
171
2
172
0
173
0
174
0
175
0
176
0
177
0
178
0
270
2
271
2
272
2
273
2
274
2
275
0
280
0
281
0
282
0
283
1
284
8
285
0
286
0
287
3
288
0
340
11
278
44
  0
ENDTAB
  0
ENDSEC
  0
SECTION
  2
BLOCKS
  0
BLOCK
  5
20
100
AcDbEntity
  8
0
100
AcDbBlockBegin
  2
*Model_Space
 70
0
 10
0.0
 20
0.0
 30
0.0
  3
*Model_Space
  1

  0
ENDBLK
  5
21
100
AcDbEntity
  8
0
100
AcDbBlockEnd
  0
BLOCK
  5
1C
100
AcDbEntity
  8
0
100
AcDbBlockBegin
  2
*Paper_Space
 70
0
 10
0.0
 20
0.0
 30
0.0
  3
*Paper_Space
  1

  0
ENDBLK
  5
1D
100
AcDbEntity
  8
0
100
AcDbBlockEnd
  0
ENDSEC
  0
SECTION
  2
ENTITIES
  0
LWPOLYLINE
  5
215
100
AcDbEntity
  8
RACCORDO
100
AcDbPolyline
 62
253
  6
CONTINUOUS
 90
7
 70
0
 10
-37.2654427514
 20
-2.0272972171
 10
-37.2643858389
 20
-2.0420322667
 10
-37.2614609232
 20
-2.0564455569
 10
-37.2567318738
 20
-2.0702223543
 10
-37.2503019557
 20
-2.083061824
 10
-37.2423115748
 20
-2.094683599
 10
-37.2329352116
 20
-2.1048339023
  0
LWPOLYLINE
  5
216
100
AcDbEntity
  8
RACCORDO
100
AcDbPolyline
 62
7
  6
CONTINUOUS
 90
6
 70
0
 10
-37.3994007681
 20
-2.0351569523
 10
-37.3986757693
 20
-2.047190481
 10
-37.3949577606
 20
-2.0646730467
 10
-37.3885308753
 20
-2.0805654247
 10
-37.3799252304
 20
-2.0945498167
 10
-37.3697522315
 20
-2.1063611311
  0
LWPOLYLINE
  5
217
100
AcDbEntity
  8
RACCORDO
100
AcDbPolyline
 62
7
  6
CONTINUOUS
 90
10
 70
0
 10
-37.3829566126
 20
2.5131664263
 10
-37.3842569795
 20
2.5425730945
 10
-37.3855801702
 20
2.5688671623
 10
-37.3869191457
 20
2.5919080182
 10
-37.3882739619
 20
2.6116782883
 10
-37.389644563
 20
2.6281953464
 10
-37.391023743
 20
2.6413707025
 10
-37.3924090998
 20
2.6511748599
 10
-37.3938030355
 20
2.6576373153
 10
-37.3952055501
 20
2.6607580686
  0
LWPOLYLINE
  5
218
100
AcDbEntity
  8
RACCORDO
100
AcDbPolyline
 62
7
  6
CONTINUOUS
 90
4
 70
0
 10
-36.3349102503
 20
3.1409071293
 10
-36.3292520754
 20
3.0131049803
 10
-36.3239610624
 20
2.8757649288
 10
-36.3190372113
 20
2.728886975
  0
LINE
  5
219
100
AcDbEntity
  8
RACCORDO
100
AcDbLine
 62
7
  6
CONTINUOUS
 10
-37.3804246049
 20
2.4449825486
 11
-37.3829566126
 21
2.5131664263
  0
LWPOLYLINE
  5
21A
100
AcDbEntity
  8
RACCORDO
100
AcDbPolyline
 62
7
  6
CONTINUOUS
 90
18
 70
0
 10
-36.3339662994
 20
3.1176796186
 10
-36.3331652299
 20
3.0920944205
 10
-36.3325070416
 20
3.0641515351
 10
-36.3319847283
 20
3.0332345179
 10
-36.3316052964
 20
2.9999598134
 10
-36.3313897645
 20
2.9661767552
 10
-36.3313473818
 20
2.9318569443
 10
-36.3314688992
 20
2.8970287798
 10
-36.3317475883
 20
2.8636267916
 10
-36.3321923312
 20
2.8317308209
 10
-36.332794246
 20
2.8012610265
 10
-36.3335199575
 20
2.7739124154
 10
-36.3343765078
 20
2.7498608575
 10
-36.3353568549
 20
2.7289304829
 10
-36.3364064986
 20
2.7122886883
 10
-36.3375072723
 20
2.7003246061
 10
-36.3386773427
 20
2.6926491038
 10
-36.3399167097
 20
2.6892621817
  0
LINE
  5
21B
100
AcDbEntity
  8
RACCORDO
100
AcDbLine
 62
7
  6
CONTINUOUS
 10
-37.3780040159
 20
2.364901942
 11
-37.3804246049
 21
2.4449825486
  0
LINE
  5
21C
100
AcDbEntity
  8
RACCORDO
100
AcDbLine
 62
7
  6
CONTINUOUS
 10
-36.3190372113
 20
2.728886975
 11
-36.3102487923
 21
2.4048757916
  0
LINE
  5
21D
100
AcDbEntity
  8
RACCORDO
100
AcDbLine
 62
7
  6
CONTINUOUS
 10
-37.3746132283
 20
2.2235305178
 11
-37.3780040159
 21
2.364901942
  0
LINE
  5
21E
100
AcDbEntity
  8
RACCORDO
100
AcDbLine
 62
7
  6
CONTINUOUS
 10
-36.3102487923
 20
2.4048757916
 11
-36.3031261267
 21
2.0500190812
  0
LINE
  5
21F
100
AcDbEntity
  8
RACCORDO
100
AcDbLine
 62
7
  6
CONTINUOUS
 10
-37.3715608827
 20
2.0587669863
 11
-37.3746132283
 21
2.2235305178
  0
LINE
  5
220
100
AcDbEntity
  8
RACCORDO
100
AcDbLine
 62
7
  6
CONTINUOUS
 10
-36.3031261267
 20
2.0500190812
 11
-36.2977742365
 21
1.6694844759
  0
LINE
  5
221
100
AcDbEntity
  8
RACCORDO
100
AcDbLine
 62
7
  6
CONTINUOUS
 10
-37.3681044623
 20
1.8075976548
 11
-37.3715608827
 21
2.0587669863
  0
LINE
  5
222
100
AcDbEntity
  8
RACCORDO
100
AcDbLine
 62
7
  6
CONTINUOUS
 10
-36.2977742365
 20
1.6694844759
 11
-36.2943246991
 21
1.2713449485
  0
LINE
  5
223
100
AcDbEntity
  8
RACCORDO
100
AcDbLine
 62
7
  6
CONTINUOUS
 10
-37.3666724503
 20
1.6586362209
 11
-37.3681044623
 21
1.8075976548
  0
LINE
  5
224
100
AcDbEntity
  8
RACCORDO
100
AcDbLine
 62
7
  6
CONTINUOUS
 10
-37.3661741734
 20
1.5422767387
 11
-37.3666724503
 21
1.6586362209
  0
LINE
  5
225
100
AcDbEntity
  8
RACCORDO
100
AcDbLine
 62
7
  6
CONTINUOUS
 10
-36.2943246991
 20
1.2713449485
 11
-36.2928348719
 21
0.8643764711
  0
LINE
  5
226
100
AcDbEntity
  8
RACCORDO
100
AcDbLine
 62
7
  6
CONTINUOUS
 10
-37.3994173476
 20
-2.0351521948
 11
-37.3994173476
 21
-1.1430272986
  0
LINE
  5
227
100
AcDbEntity
  8
RACCORDO
100
AcDbLine
 62
7
  6
CONTINUOUS
 10
-37.3994173476
 20
2.6651221942
 11
-37.3994173476
 21
3.5572469649
  0
LINE
  5
228
100
AcDbEntity
  8
RACCORDO
100
AcDbLine
 62
253
  6
CONTINUOUS
 10
-37.2654318197
 20
-2.0272968866
 11
-37.2654427514
 21
-1.151754831
  0
LINE
  5
229
100
AcDbEntity
  8
RACCORDO
100
AcDbLine
 62
253
  6
CONTINUOUS
 10
-37.2654427514
 20
2.6738497267
 11
-37.2654579378
 21
3.5493925718
  0
LINE
  5
22A
100
AcDbEntity
  8
RACCORDO
100
AcDbLine
 62
7
  6
CONTINUOUS
 10
-36.9957843526
 20
-0.5024701089
 11
-36.9957843526
 21
2.0245650045
  0
LINE
  5
22B
100
AcDbEntity
  8
ASSI
100
AcDbLine
 62
7
  6
CONTINUOUS
 10
-36.9957843526
 20
-0.5024701089
 11
-36.9957843526
 21
2.0245650045
  0
LINE
  5
22C
100
AcDbEntity
  8
ASSI
100
AcDbLine
 62
7
  6
CONTINUOUS
 10
-36.3991545578
 20
2.6585947622
 11
-36.3991545578
 21
-1.1364998665
  0
LINE
  5
22D
100
AcDbEntity
  8
RACCORDO
100
AcDbLine
 62
7
  6
CONTINUOUS
 10
-36.2928348719
 20
0.8643764711
 11
-36.2933260643
 21
0.4544240968
  0
LINE
  5
22E
100
AcDbEntity
  8
RACCORDO
100
AcDbLine
 62
7
  6
CONTINUOUS
 10
-37.3662523159
 20
-0.0497565374
 11
-37.3661741734
 21
1.5422767387
  0
LINE
  5
22F
100
AcDbEntity
  8
RACCORDO
100
AcDbLine
 62
7
  6
CONTINUOUS
 10
-37.3668713724
 20
-0.1641976037
 11
-37.3662523159
 21
-0.0497565374
  0
LINE
  5
230
100
AcDbEntity
  8
RACCORDO
100
AcDbLine
 62
7
  6
CONTINUOUS
 10
-36.2933260643
 20
0.4544240968
 11
-36.2958054164
 21
0.0504127184
  0
LINE
  5
231
100
AcDbEntity
  8
RACCORDO
100
AcDbLine
 62
7
  6
CONTINUOUS
 10
-37.3688978515
 20
-0.3513321988
 11
-37.3668713724
 21
-0.1641976037
  0
LINE
  5
232
100
AcDbEntity
  8
RACCORDO
100
AcDbLine
 62
7
  6
CONTINUOUS
 10
-36.2958054164
 20
0.0504127184
 11
-36.3002017544
 21
-0.3389637844
  0
LINE
  5
233
100
AcDbEntity
  8
RACCORDO
100
AcDbLine
 62
7
  6
CONTINUOUS
 10
-37.3725366512
 20
-0.5939983649
 11
-37.3688978515
 21
-0.3513321988
  0
LINE
  5
234
100
AcDbEntity
  8
RACCORDO
100
AcDbLine
 62
7
  6
CONTINUOUS
 10
-36.3002017544
 20
-0.3389637844
 11
-36.306452147
 21
-0.7081092664
  0
LINE
  5
235
100
AcDbEntity
  8
RACCORDO
100
AcDbLine
 62
7
  6
CONTINUOUS
 10
-37.3757072221
 20
-0.7512350909
 11
-37.3725366512
 21
-0.5939983649
  0
LWPOLYLINE
  5
236
100
AcDbEntity
  8
RACCORDO
100
AcDbPolyline
 62
7
  6
CONTINUOUS
 90
6
 70
0
 10
-36.306452147
 20
-0.7081092664
 10
-36.3144372494
 20
-1.0487693323
 10
-36.3190152848
 20
-1.206090601
 10
-36.3239434035
 20
-1.3531377788
 10
-36.3292417254
 20
-1.4907116564
 10
-36.3349102503
 20
-1.6188122337
  0
LINE
  5
237
100
AcDbEntity
  8
RACCORDO
100
AcDbLine
 62
7
  6
CONTINUOUS
 10
-37.3780034763
 20
-0.8427874802
 11
-37.3757072221
 21
-0.7512350909
  0
LINE
  5
238
100
AcDbEntity
  8
RACCORDO
100
AcDbLine
 62
7
  6
CONTINUOUS
 10
-37.380424066
 20
-0.9228714255
 11
-37.3780034763
 21
-0.8427874802
  0
LWPOLYLINE
  5
239
100
AcDbEntity
  8
RACCORDO
100
AcDbPolyline
 62
7
  6
CONTINUOUS
 90
7
 70
0
 10
-37.3896444199
 20
-1.1060988301
 10
-37.3882737509
 20
-1.0895805419
 10
-37.386918867
 20
-1.0698086935
 10
-37.3855798239
 20
-1.0467657923
 10
-37.3842565658
 20
-1.0204693307
 10
-37.3829561435
 20
-0.9910602592
 10
-37.380424066
 20
-0.9228714255
  0
LWPOLYLINE
  5
23A
100
AcDbEntity
  8
RACCORDO
100
AcDbPolyline
 62
7
  6
CONTINUOUS
 90
4
 70
0
 10
-37.3939442283
 20
3.589893188
 10
-37.3977326936
 20
3.57549331
 10
-37.3993641474
 20
3.5601640774
 10
-37.3994065672
 20
3.5572492361
  0
LWPOLYLINE
  5
23B
100
AcDbEntity
  8
ASSI
100
AcDbPolyline
 62
7
  6
CONTINUOUS
 90
5
 70
0
 10
-36.4128521969
 20
-1.0743202124
 10
-36.4119990289
 20
-1.0813422776
 10
-36.4077875059
 20
-1.107559813
 10
-36.4035060155
 20
-1.125945676
 10
-36.3991545578
 20
-1.1364998665
  0
LWPOLYLINE
  5
23C
100
AcDbEntity
  8
ASSI
100
AcDbPolyline
 62
7
  6
CONTINUOUS
 90
5
 70
0
 10
-36.3991545578
 20
2.6585947622
 10
-36.403506011
 20
2.648040596
 10
-36.4077874977
 20
2.6296547588
 10
-36.4119990182
 20
2.6034372506
 10
-36.412852196
 20
2.5964151088
  0
LINE
  5
23D
100
AcDbEntity
  8
RACCORDO
100
AcDbLine
 62
7
  6
CONTINUOUS
 10
-37.3992650428
 20
-1.1427226657
 11
-37.3993976884
 21
-1.1430272983
  0
LWPOLYLINE
  5
23E
100
AcDbEntity
  8
RACCORDO
100
AcDbPolyline
 62
7
  6
CONTINUOUS
 90
7
 70
0
 10
-36.9729085356
 20
2.0714562696
 10
-36.9768593561
 20
2.0637779903
 10
-36.9807549029
 20
2.0560449384
 10
-36.984595176
 20
2.0482571139
 10
-36.9883801753
 20
2.0404145167
 10
-36.9921099008
 20
2.0325171469
 10
-36.9957843526
 20
2.0245650045
  0
LWPOLYLINE
  5
23F
100
AcDbEntity
  8
ASSI
100
AcDbPolyline
 62
7
  6
CONTINUOUS
 90
7
 70
0
 10
-36.9729085356
 20
2.0714562696
 10
-36.9768593561
 20
2.0637779903
 10
-36.9807549029
 20
2.0560449384
 10
-36.984595176
 20
2.0482571139
 10
-36.9883801753
 20
2.0404145167
 10
-36.9921099008
 20
2.0325171469
 10
-36.9957843526
 20
2.0245650045
  0
LWPOLYLINE
  5
240
100
AcDbEntity
  8
RACCORDO
100
AcDbPolyline
 62
7
  6
CONTINUOUS
 90
10
 70
0
 10
-36.9729085356
 20
-0.549361374
 10
-36.9288038262
 20
-0.6293025035
 10
-36.8820421917
 20
-0.7035535712
 10
-36.8326236321
 20
-0.7721145769
 10
-36.780299203
 20
-0.8354366087
 10
-36.7253178489
 20
-0.8930685786
 10
-36.668426403
 20
-0.9436572228
 10
-36.6096025174
 20
-0.9870336818
 10
-36.54886854
 20
-1.023366815
 10
-36.4870383472
 20
-1.0518099372
  0
LWPOLYLINE
  5
241
100
AcDbEntity
  8
ASSI
100
AcDbPolyline
 62
7
  6
CONTINUOUS
 90
10
 70
0
 10
-36.9729085356
 20
-0.549361374
 10
-36.9288038262
 20
-0.6293025035
 10
-36.8820421917
 20
-0.7035535712
 10
-36.8326236321
 20
-0.7721145769
 10
-36.780299203
 20
-0.8354366087
 10
-36.7253178489
 20
-0.8930685786
 10
-36.668426403
 20
-0.9436572228
 10
-36.6096025174
 20
-0.9870336818
 10
-36.54886854
 20
-1.023366815
 10
-36.4870383472
 20
-1.0518099372
  0
LWPOLYLINE
  5
242
100
AcDbEntity
  8
RACCORDO
100
AcDbPolyline
 62
7
  6
CONTINUOUS
 90
7
 70
0
 10
-36.9957843526
 20
-0.5024701089
 10
-36.9921099008
 20
-0.5104222513
 10
-36.9883801753
 20
-0.5183196211
 10
-36.984595176
 20
-0.5261622183
 10
-36.9807549029
 20
-0.5339500428
 10
-36.9768593561
 20
-0.5416830947
 10
-36.9729085356
 20
-0.549361374
  0
LWPOLYLINE
  5
243
100
AcDbEntity
  8
ASSI
100
AcDbPolyline
 62
7
  6
CONTINUOUS
 90
7
 70
0
 10
-36.9957843526
 20
-0.5024701089
 10
-36.9921099008
 20
-0.5104222513
 10
-36.9883801753
 20
-0.5183196211
 10
-36.984595176
 20
-0.5261622183
 10
-36.9807549029
 20
-0.5339500428
 10
-36.9768593561
 20
-0.5416830947
 10
-36.9729085356
 20
-0.549361374
  0
LINE
  5
244
100
AcDbEntity
  8
RACCORDO
100
AcDbLine
 62
7
  6
CONTINUOUS
 10
-37.3993976884
 20
2.6651221939
 11
-37.3992650428
 21
2.6648175613
  0
LWPOLYLINE
  5
245
100
AcDbEntity
  8
RACCORDO
100
AcDbPolyline
 62
7
  6
CONTINUOUS
 90
18
 70
0
 10
-36.3399167097
 20
-1.1671672861
 10
-36.3386773427
 20
-1.1705542082
 10
-36.3375072723
 20
-1.1782297104
 10
-36.3364064986
 20
-1.1901937927
 10
-36.3353568549
 20
-1.2068355873
 10
-36.3343765078
 20
-1.2277659619
 10
-36.3335199575
 20
-1.2518175198
 10
-36.332794246
 20
-1.2791661309
 10
-36.3321923312
 20
-1.3096359253
 10
-36.3317475883
 20
-1.341531896
 10
-36.3314688992
 20
-1.3749338842
 10
-36.3313473818
 20
-1.4097620487
 10
-36.3313897645
 20
-1.4440818596
 10
-36.3316052964
 20
-1.4778649178
 10
-36.3319847283
 20
-1.5111396223
 10
-36.3325070416
 20
-1.5420566395
 10
-36.3331652299
 20
-1.5699995249
 10
-36.3339662994
 20
-1.5955847229
  0
LWPOLYLINE
  5
246
100
AcDbEntity
  8
RACCORDO
100
AcDbPolyline
 62
7
  6
CONTINUOUS
 90
5
 70
0
 10
-37.3952055501
 20
-1.138663173
 10
-37.3938030182
 20
-1.1355425105
 10
-37.3924090535
 20
-1.1290798144
 10
-37.391023656
 20
-1.1192750846
 10
-37.3896444199
 20
-1.1060988301
  0
LWPOLYLINE
  5
247
100
AcDbEntity
  8
RACCORDO
100
AcDbPolyline
 62
253
  6
CONTINUOUS
 90
7
 70
0
 10
-37.2329349855
 20
3.6269290089
 10
-37.2423114108
 20
3.6167787001
 10
-37.250301847
 20
3.605156904
 10
-37.2567318108
 20
3.5923174002
 10
-37.2614608945
 20
3.5785405585
 10
-37.2643858314
 20
3.564127217
 10
-37.2654427514
 20
3.5493921127
  0
LWPOLYLINE
  5
248
100
AcDbEntity
  8
RACCORDO
100
AcDbPolyline
 62
7
  6
CONTINUOUS
 90
5
 70
0
 10
-37.3703369001
 20
3.6278746466
 10
-37.3731368245
 20
3.6249299594
 10
-37.3812059138
 20
3.6148672123
 10
-37.3883316162
 20
3.6030605701
 10
-37.3939442283
 20
3.589893188
  0
LINE
  5
249
100
AcDbEntity
  8
RACCORDO
100
AcDbLine
 62
7
  6
CONTINUOUS
 10
-37.3699909514
 20
-2.106136844
 11
-37.3664582604
 21
-2.109669535
  0
LINE
  5
24A
100
AcDbEntity
  8
RACCORDO
100
AcDbLine
 62
253
  6
CONTINUOUS
 10
-37.2992802733
 20
-2.1354109354
 11
-37.2957386565
 21
-2.1389525522
  0
LWPOLYLINE
  5
24B
100
AcDbEntity
  8
ASSI
100
AcDbPolyline
 62
7
  6
CONTINUOUS
 90
7
 70
0
 10
-36.3991545578
 20
-1.1364998665
 10
-36.398786545
 20
-1.1370066889
 10
-36.3984182542
 20
-1.1374550028
 10
-36.3980496853
 20
-1.1378448082
 10
-36.3976808384
 20
-1.138176105
 10
-36.3973117134
 20
-1.1384488932
 10
-36.3969423104
 20
-1.138663173
  0
LWPOLYLINE
  5
24C
100
AcDbEntity
  8
RACCORDO
100
AcDbPolyline
 62
7
  6
CONTINUOUS
 90
19
 70
0
 10
-36.672882076
 20
-1.6188122337
 10
-36.6570958329
 20
-1.5947322936
 10
-36.6437593255
 20
-1.5688687283
 10
-36.632872554
 20
-1.5412215377
 10
-36.6244344544
 20
-1.5113160482
 10
-36.6184460905
 20
-1.4796269335
 10
-36.6149106542
 20
-1.4475782151
 10
-36.6138275085
 20
-1.4152440492
 10
-36.6151972903
 20
-1.3825502797
 10
-36.619025102
 20
-1.3506984597
 10
-36.6253382209
 20
-1.3195537134
 10
-36.6341093697
 20
-1.2892509167
 10
-36.6452618184
 20
-1.2613962503
 10
-36.6590061289
 20
-1.2358482215
 10
-36.6751317393
 20
-1.212748323
 10
-36.6929302343
 20
-1.1941272143
 10
-36.7121654757
 20
-1.1806617818
 10
-36.7330736017
 20
-1.1716751391
 10
-36.7556546123
 20
-1.1671672861
  0
LINE
  5
24D
100
AcDbEntity
  8
RACCORDO
100
AcDbLine
 62
7
  6
CONTINUOUS
 10
-37.3664582604
 20
3.6317644306
 11
-37.3699909515
 21
3.6282317396
  0
LINE
  5
24E
100
AcDbEntity
  8
RACCORDO
100
AcDbLine
 62
253
  6
CONTINUOUS
 10
-37.2957386565
 20
3.6610474478
 11
-37.2992802733
 21
3.657505831
  0
LINE
  5
24F
100
AcDbEntity
  8
RACCORDO
100
AcDbLine
 62
253
  6
CONTINUOUS
 10
-37.3664582787
 20
3.6317644123
 11
-37.3699909515
 21
3.6282317396
  0
LINE
  5
250
100
AcDbEntity
  8
RACCORDO
100
AcDbLine
 62
253
  6
CONTINUOUS
 10
-37.3664582035
 20
-2.1096695166
 11
-37.3697590672
 21
-2.1063679698
  0
LWPOLYLINE
  5
251
100
AcDbEntity
  8
RACCORDO
100
AcDbPolyline
 62
253
  6
CONTINUOUS
 90
10
 70
0
 10
-37.2992802733
 20
3.657505831
 10
-37.2987776424
 20
3.656703777
 10
-37.2961516234
 20
3.6559150237
 10
-37.2914022163
 20
3.6551395711
 10
-37.284558856
 20
3.65438046
 10
-37.2755921075
 20
3.6536346496
 10
-37.2644136659
 20
3.652893018
 10
-37.250994096
 20
3.6521525248
 10
-37.2353628329
 20
3.6514162103
 10
-37.2175198765
 20
3.6506840748
  0
LINE
  5
252
100
AcDbEntity
  8
RACCORDO
100
AcDbLine
 62
253
  6
CONTINUOUS
 10
-37.3600412815
 20
3.637645647
 11
-37.3635579605
 21
3.6341261046
  0
LINE
  5
253
100
AcDbEntity
  8
RACCORDO
100
AcDbLine
 62
253
  6
CONTINUOUS
 10
-37.3600412085
 20
-2.1155508176
 11
-37.3635596141
 21
-2.1120298216
  0
LWPOLYLINE
  5
254
100
AcDbEntity
  8
RACCORDO
100
AcDbPolyline
 62
7
  6
CONTINUOUS
 90
10
 70
0
 10
-37.3993976884
 20
-1.1430272983
 10
-37.3984594189
 20
-1.1437780403
 10
-37.394097227
 20
-1.1448232079
 10
-37.3861784671
 20
-1.1458581686
 10
-37.3746488885
 20
-1.1468865799
 10
-37.359562742
 20
-1.1479047842
 10
-37.3410827797
 20
-1.1489018088
 10
-37.3192632526
 20
-1.149873996
 10
-37.2940499099
 20
-1.1508250034
 10
-36.7556546123
 20
-1.1671672861
  0
LWPOLYLINE
  5
255
100
AcDbEntity
  8
RACCORDO
100
AcDbPolyline
 62
7
  6
CONTINUOUS
 90
7
 70
0
 10
-36.672882076
 20
3.1409071293
 10
-36.7413911142
 20
3.2235021946
 10
-36.8120208703
 20
3.2999898487
 10
-36.8847713443
 20
3.3703700918
 10
-36.9596425362
 20
3.4346429237
 10
-37.0366344461
 20
3.4928083446
 10
-37.1157470738
 20
3.5448663544
  0
LWPOLYLINE
  5
256
100
AcDbEntity
  8
RACCORDO
100
AcDbPolyline
 62
7
  6
CONTINUOUS
 90
22
 70
0
 10
-37.2329351142
 20
-2.104833763
 10
-37.2346227666
 20
-2.1065315452
 10
-37.2361256696
 20
-2.1081778781
 10
-37.237443823
 20
-2.1097737838
 10
-37.2385792402
 20
-2.111323006
 10
-37.239529908
 20
-2.1128237309
 10
-37.2402897865
 20
-2.1142688487
 10
-37.240861556
 20
-2.1156566115
 10
-37.2412425362
 20
-2.1169911205
 10
-37.2414186474
 20
-2.1182742078
 10
-37.2414069901
 20
-2.1195055559
 10
-37.2411904637
 20
-2.1206875693
 10
-37.2407036864
 20
-2.1218259732
 10
-37.2399916231
 20
-2.1229313776
 10
-37.2390093089
 20
-2.1239946671
 10
-37.2375564677
 20
-2.1249924084
 10
-37.2356047824
 20
-2.1259572085
 10
-37.2331825702
 20
-2.1268585725
 10
-37.230174506
 20
-2.1275813493
 10
-37.2265421481
 20
-2.1280899022
 10
-37.2223239383
 20
-2.128425377
 10
-37.2175198765
 20
-2.1285891792
  0
LWPOLYLINE
  5
257
100
AcDbEntity
  8
ASSI
100
AcDbPolyline
 62
7
  6
CONTINUOUS
 90
7
 70
0
 10
-36.3969423104
 20
2.6607580686
 10
-36.3973117134
 20
2.6605437889
 10
-36.3976808384
 20
2.6602710006
 10
-36.3980496853
 20
2.6599397038
 10
-36.3984182542
 20
2.6595498984
 10
-36.398786545
 20
2.6591015846
 10
-36.3991545578
 20
2.6585947622
  0
LWPOLYLINE
  5
258
100
AcDbEntity
  8
RACCORDO
100
AcDbPolyline
 62
7
  6
CONTINUOUS
 90
20
 70
0
 10
-37.2329347739
 20
3.6269287064
 10
-37.2310522713
 20
3.6251514376
 10
-37.2290634242
 20
3.623336624
 10
-37.2269682324
 20
3.6214836859
 10
-37.2247654518
 20
3.6195926523
 10
-37.2224563267
 20
3.6176623317
 10
-37.220044589
 20
3.6156902491
 10
-37.217535661
 20
3.6136785349
 10
-37.2149241204
 20
3.6116237922
 10
-37.212197433
 20
3.6095148711
 10
-37.2093575638
 20
3.6073506561
 10
-37.2064025477
 20
3.6051302407
 10
-37.2033139547
 20
3.6028421268
 10
-37.2000934371
 20
3.6004847389
 10
-37.1967393427
 20
3.5980568693
 10
-37.1932282846
 20
3.5955468912
 10
-37.1895618972
 20
3.5929527611
 10
-37.1857385463
 20
3.590272912
 10
-37.181729942
 20
3.5874957405
 10
-37.173160523
 20
3.581639737
  0
LINE
  5
259
100
AcDbEntity
  8
ASSI
100
AcDbLine
 62
7
  6
CONTINUOUS
 10
-36.3969423104
 20
2.6607580686
 11
-36.3399167097
 21
2.6892621817
  0
LINE
  5
25A
100
AcDbEntity
  8
ASSI
100
AcDbLine
 62
7
  6
CONTINUOUS
 10
-36.3399167097
 20
-1.1671672861
 11
-36.3969423104
 21
-1.138663173
  0
LWPOLYLINE
  5
25B
100
AcDbEntity
  8
RACCORDO
100
AcDbPolyline
 62
253
  6
CONTINUOUS
 90
9
 70
0
 10
-37.3994173476
 20
3.5572446134
 10
-37.3984771552
 20
3.5565607611
 10
-37.3940621033
 20
3.555619285
 10
-37.3861525781
 20
3.5546966332
 10
-37.3750298215
 20
3.5537988608
 10
-37.360777445
 20
3.5529199128
 10
-37.3429266698
 20
3.5520416238
 10
-37.321086627
 20
3.5511579387
 10
-37.2953005147
 20
3.5502749127
  0
LWPOLYLINE
  5
25C
100
AcDbEntity
  8
RACCORDO
100
AcDbPolyline
 62
7
  6
CONTINUOUS
 90
19
 70
0
 10
-37.1813524563
 20
-2.0651405478
 10
-37.1853726395
 20
-2.0679232625
 10
-37.1892116554
 20
-2.070611421
 10
-37.1928961452
 20
-2.0732158175
 10
-37.1964276678
 20
-2.0757379623
 10
-37.1998046644
 20
-2.0781798281
 10
-37.2030490993
 20
-2.0805522611
 10
-37.2061625607
 20
-2.082856439
 10
-37.2091434605
 20
-2.085093898
 10
-37.2120089983
 20
-2.0872753879
 10
-37.2147610831
 20
-2.0894018118
 10
-37.2173978059
 20
-2.0914742671
 10
-37.2199306398
 20
-2.093503176
 10
-37.2223646614
 20
-2.0954916836
 10
-37.2246947942
 20
-2.0974379367
 10
-37.2269172814
 20
-2.0993444928
 10
-37.2290308711
 20
-2.1012125744
 10
-37.2310368154
 20
-2.1030421355
 10
-37.2329351142
 20
-2.104833763
  0
LINE
  5
25D
100
AcDbEntity
  8
RACCORDO
100
AcDbLine
 62
7
  6
CONTINUOUS
 10
-37.1727719477
 20
-2.059282176
 11
-37.1813524563
 21
-2.0651405478
  0
LWPOLYLINE
  5
25E
100
AcDbEntity
  8
RACCORDO
100
AcDbPolyline
 62
7
  6
CONTINUOUS
 90
3
 70
0
 10
-37.1583561739
 20
-2.0496791249
 10
-37.1633736418
 20
-2.0529939268
 10
-37.1727719477
 20
-2.059282176
  0
LWPOLYLINE
  5
25F
100
AcDbEntity
  8
RACCORDO
100
AcDbPolyline
 62
7
  6
CONTINUOUS
 90
7
 70
0
 10
-37.1157470738
 20
-2.0227714588
 10
-37.0366344468
 20
-1.9707134496
 10
-36.9596425373
 20
-1.9125480292
 10
-36.8847713456
 20
-1.8482751973
 10
-36.8120208714
 20
-1.7778949541
 10
-36.7413911149
 20
-1.7014072996
 10
-36.672882076
 20
-1.6188122337
  0
LWPOLYLINE
  5
260
100
AcDbEntity
  8
RACCORDO
100
AcDbPolyline
 62
7
  6
CONTINUOUS
 90
4
 70
0
 10
-37.1357461574
 20
-2.0351427015
 10
-37.1418071408
 20
-2.0389772991
 10
-37.1475729234
 20
-2.0426738209
 10
-37.1583561739
 20
-2.0496791249
  0
LWPOLYLINE
  5
261
100
AcDbEntity
  8
RACCORDO
100
AcDbPolyline
 62
7
  6
CONTINUOUS
 90
10
 70
0
 10
-36.4870383449
 20
2.5739048337
 10
-36.5488685393
 20
2.5454617105
 10
-36.6096025191
 20
2.5091285757
 10
-36.6684264061
 20
2.4657521159
 10
-36.7253178517
 20
2.4151634721
 10
-36.7802992044
 20
2.3575315032
 10
-36.8326236324
 20
2.2942094721
 10
-36.8820421916
 20
2.2256484667
 10
-36.928803826
 20
2.1513973992
 10
-36.9729085356
 20
2.0714562696
  0
LWPOLYLINE
  5
262
100
AcDbEntity
  8
ASSI
100
AcDbPolyline
 62
7
  6
CONTINUOUS
 90
10
 70
0
 10
-36.4870383449
 20
2.5739048337
 10
-36.5488685393
 20
2.5454617105
 10
-36.6096025191
 20
2.5091285757
 10
-36.6684264061
 20
2.4657521159
 10
-36.7253178517
 20
2.4151634721
 10
-36.7802992044
 20
2.3575315032
 10
-36.8326236324
 20
2.2942094721
 10
-36.8820421916
 20
2.2256484667
 10
-36.928803826
 20
2.1513973992
 10
-36.9729085356
 20
2.0714562696
  0
LWPOLYLINE
  5
263
100
AcDbEntity
  8
RACCORDO
100
AcDbPolyline
 62
7
  6
CONTINUOUS
 90
4
 70
0
 10
-37.1420772843
 20
3.5612440333
 10
-37.1359659589
 20
3.557376074
 10
-37.1295325477
 20
3.5533586999
 10
-37.1157470738
 20
3.5448663544
  0
LWPOLYLINE
  5
264
100
AcDbEntity
  8
RACCORDO
100
AcDbPolyline
 62
7
  6
CONTINUOUS
 90
3
 70
0
 10
-37.1587193961
 20
3.5720124482
 10
-37.1534288896
 20
3.5685566327
 10
-37.1420772843
 20
3.5612440333
  0
LWPOLYLINE
  5
265
100
AcDbEntity
  8
RACCORDO
100
AcDbPolyline
 62
7
  6
CONTINUOUS
 90
3
 70
0
 10
-37.173160523
 20
3.581639737
 10
-37.1685643193
 20
3.5785477224
 10
-37.1587193961
 20
3.5720124482
  0
LWPOLYLINE
  5
266
100
AcDbEntity
  8
RACCORDO
100
AcDbPolyline
 62
253
  6
CONTINUOUS
 90
19
 70
0
 10
-23.2340636473
 20
-2.3275973507
 10
-23.2317319618
 20
-2.379829264
 10
-23.2248603785
 20
-2.4316630839
 10
-23.2135012199
 20
-2.4827050036
 10
-23.1977409544
 20
-2.5325672422
 10
-23.1776993802
 20
-2.580870959
 10
-23.1535286869
 20
-2.6272491205
 10
-23.125412564
 20
-2.6713493277
 10
-23.0935647148
 20
-2.7128365257
 10
-23.0582270317
 20
-2.7513954916
 10
-23.0196679356
 20
-2.7867332161
 10
-22.9781805016
 20
-2.8185811544
 10
-22.9340801166
 20
-2.846697297
 10
-22.8877019242
 20
-2.8708679327
 10
-22.8393982656
 20
-2.8909094263
 10
-22.7895361432
 20
-2.9066696025
 10
-22.7384943864
 20
-2.9180286753
 10
-22.6866607879
 20
-2.9249001926
 10
-22.6344291511
 20
-2.9272318469
  0
LWPOLYLINE
  5
267
100
AcDbEntity
  8
RACCORDO
100
AcDbPolyline
 62
253
  6
CONTINUOUS
 90
19
 70
0
 10
-22.7343682338
 20
-2.3275973507
 10
-22.7339847394
 20
-2.3363311893
 10
-22.7328656248
 20
-2.3448975745
 10
-22.7310108899
 20
-2.3532965062
 10
-22.7283963884
 20
-2.3615977592
 10
-22.7250462666
 20
-2.3697315588
 10
-22.7210329639
 20
-2.3774885809
 10
-22.7163381094
 20
-2.3848545942
 10
-22.710980074
 20
-2.3918438299
 10
-22.70508641
 20
-2.3982896574
 10
-22.6986463213
 20
-2.4041755219
 10
-22.691670604
 20
-2.4095179782
 10
-22.6843191992
 20
-2.4142000594
 10
-22.6765792009
 20
-2.4182070099
 10
-22.6684635152
 20
-2.4215535853
 10
-22.6601708014
 20
-2.4241670854
 10
-22.6517672793
 20
-2.4260232768
 10
-22.6431867293
 20
-2.4271463928
 10
-22.6344291511
 20
-2.4275364334
  0
LINE
  5
268
100
AcDbEntity
  8
DRAFT
100
AcDbLine
 62
7
  6
CONTINUOUS
 10
-23.2683159795
 20
2.6249144687
 11
-23.2593771968
 21
2.25670657
  0
LINE
  5
269
100
AcDbEntity
  8
DRAFT
100
AcDbLine
 62
7
  6
CONTINUOUS
 10
-23.2593771968
 20
2.25670657
 11
-23.2525035341
 21
1.8552709982
  0
LINE
  5
26A
100
AcDbEntity
  8
DRAFT
100
AcDbLine
 62
7
  6
CONTINUOUS
 10
-23.2525035341
 20
1.8552709982
 11
-23.2478124945
 21
1.4274942159
  0
LINE
  5
26B
100
AcDbEntity
  8
DRAFT
100
AcDbLine
 62
7
  6
CONTINUOUS
 10
-23.2478124945
 20
1.4274942159
 11
-23.2454497152
 21
0.9842753809
  0
LINE
  5
26C
100
AcDbEntity
  8
RACCORDO
100
AcDbLine
 62
7
  6
CONTINUOUS
 10
-23.3481655068
 20
-2.4416992102
 11
-23.3481655068
 21
-2.1389525522
  0
LINE
  5
26D
100
AcDbEntity
  8
RACCORDO
100
AcDbLine
 62
7
  6
CONTINUOUS
 10
-23.3481655068
 20
3.6610474478
 11
-23.3481655068
 21
3.9637941058
  0
LINE
  5
26E
100
AcDbEntity
  8
RACCORDO
100
AcDbLine
 62
253
  6
CONTINUOUS
 10
-23.2340636473
 20
3.8496922463
 11
-23.2340636473
 21
-2.3275973507
  0
LINE
  5
26F
100
AcDbEntity
  8
DRAFT
100
AcDbLine
 62
7
  6
CONTINUOUS
 10
-23.2454497152
 20
0.9842753809
 11
-23.2454512815
 21
0.5372311773
  0
LINE
  5
270
100
AcDbEntity
  8
DRAFT
100
AcDbLine
 62
7
  6
CONTINUOUS
 10
-23.2454512815
 20
0.5372311773
 11
-23.2478172013
 21
0.0940197472
  0
LINE
  5
271
100
AcDbEntity
  8
DRAFT
100
AcDbLine
 62
7
  6
CONTINUOUS
 10
-23.2478172013
 20
0.0940197472
 11
-23.2525114153
 21
-0.3337412592
  0
LINE
  5
272
100
AcDbEntity
  8
DRAFT
100
AcDbLine
 62
7
  6
CONTINUOUS
 10
-23.2525114153
 20
-0.3337412592
 11
-23.2593883026
 21
-0.7351518618
  0
LWPOLYLINE
  5
273
100
AcDbEntity
  8
DRAFT
100
AcDbPolyline
 62
7
  6
CONTINUOUS
 90
11
 70
0
 10
-23.2593883026
 20
-0.7351518618
 10
-23.2683303585
 20
-1.1033246079
 10
-23.2734990104
 20
-1.2711543688
 10
-23.2791272732
 20
-1.4282665566
 10
-23.2851180071
 20
-1.5719487678
 10
-23.2914776313
 20
-1.7019634811
 10
-23.2981997266
 20
-1.8185482179
 10
-23.3051678952
 20
-1.9197031399
 10
-23.312343338
 20
-2.0047616344
 10
-23.3197648543
 20
-2.0743903142
 10
-23.3274324439
 20
-2.1285891792
  0
LWPOLYLINE
  5
274
100
AcDbEntity
  8
RACCORDO
100
AcDbPolyline
 62
7
  6
CONTINUOUS
 90
16
 70
0
 10
-23.3481655068
 20
3.9637941058
 10
-23.34458092
 20
4.0276190402
 10
-23.3347967241
 20
4.0894159232
 10
-23.3188129193
 20
4.1491847546
 10
-23.2963205848
 20
4.2075285428
 10
-23.2676286412
 20
4.2638442794
 10
-23.233663851
 20
4.3163229401
 10
-23.1942565248
 20
4.3648401144
 10
-23.149576352
 20
4.4095202127
 10
-23.1010591623
 20
4.4489274421
 10
-23.0485805778
 20
4.4828921081
 10
-22.9922649765
 20
4.5115839051
 10
-22.9339213227
 20
4.5340761239
 10
-22.8741526045
 20
4.5500598615
 10
-22.8123558338
 20
4.5598440209
 10
-22.7485310106
 20
4.563428602
  0
LWPOLYLINE
  5
275
100
AcDbEntity
  8
RACCORDO
100
AcDbPolyline
 62
7
  6
CONTINUOUS
 90
3
 70
0
 10
-37.1157470738
 20
-2.0227714588
 10
-37.1227086358
 20
-2.0270424255
 10
-37.1357461574
 20
-2.0351427015
  0
LWPOLYLINE
  5
276
100
AcDbEntity
  8
RACCORDO
100
AcDbPolyline
 62
7
  6
CONTINUOUS
 90
3
 70
0
 10
-36.4870383472
 20
-1.0518099372
 10
-36.4243832311
 20
-1.0720808199
 10
-36.3991545578
 20
-1.0769803719
  0
LWPOLYLINE
  5
277
100
AcDbEntity
  8
ASSI
100
AcDbPolyline
 62
7
  6
CONTINUOUS
 90
3
 70
0
 10
-36.4870383472
 20
-1.0518099372
 10
-36.4243832311
 20
-1.0720808199
 10
-36.3991545578
 20
-1.0769803719
  0
LWPOLYLINE
  5
278
100
AcDbEntity
  8
DRAFT
100
AcDbPolyline
 62
7
  6
CONTINUOUS
 90
10
 70
0
 10
-23.3274324439
 20
3.6506840748
 10
-23.3197572165
 20
3.5964040777
 10
-23.3123298291
 20
3.5266981552
 10
-23.3051502815
 20
3.4415663072
 10
-23.2981801165
 20
3.3403387677
 10
-23.2914577915
 20
3.2236853028
 10
-23.285098678
 20
3.0936152106
 10
-23.2791091025
 20
2.9498975428
 10
-23.2734827387
 20
2.7927632477
 10
-23.2683159795
 20
2.6249144687
  0
LINE
  5
279
100
AcDbEntity
  8
RACCORDO
100
AcDbLine
 62
253
  6
CONTINUOUS
 10
-22.7343682338
 20
3.8496922463
 11
-22.7343682338
 21
-2.3275973507
  0
LINE
  5
27A
100
AcDbEntity
  8
RACCORDO
100
AcDbLine
 62
253
  6
CONTINUOUS
 10
-22.6344291511
 20
-2.4275364334
 11
-22.6344291511
 21
-2.9272318469
  0
LINE
  5
27B
100
AcDbEntity
  8
RACCORDO
100
AcDbLine
 62
253
  6
CONTINUOUS
 10
-22.6344291511
 20
3.949631329
 11
-22.6344291544
 21
4.4493267426
  0
LWPOLYLINE
  5
27C
100
AcDbEntity
  8
DRAFT
100
AcDbPolyline
 62
7
  6
CONTINUOUS
 90
32
 70
0
 10
-36.3991545578
 20
1.7403346056
 10
-36.4015333036
 20
1.7396292907
 10
-36.4515413176
 20
1.7148644059
 10
-36.5000922367
 20
1.679996087
 10
-36.5467321814
 20
1.6357572306
 10
-36.5900995135
 20
1.5843465269
 10
-36.6299600766
 20
1.5256511213
 10
-36.666548027
 20
1.4597838684
 10
-36.6992041961
 20
1.3892820223
 10
-36.7277656395
 20
1.3142634325
 10
-36.7523953014
 20
1.2346102495
 10
-36.7729228456
 20
1.1525061787
 10
-36.7892878479
 20
1.0681110117
 10
-36.8015507323
 20
0.9812649569
 10
-36.8097224347
 20
0.8936723456
 10
-36.813805915
 20
0.8053998553
 10
-36.8137982132
 20
0.7163808086
 10
-36.8097013844
 20
0.6281195038
 10
-36.8015192522
 20
0.5405524162
 10
-36.7892479929
 20
0.4537430705
 10
-36.7728781912
 20
0.3693863397
 10
-36.7523506273
 20
0.2873216655
 10
-36.727724521
 20
0.2077096062
 10
-36.6991681159
 20
0.1327267092
 10
-36.6665187204
 20
0.0622528278
 10
-36.6299390263
 20
-0.0035918914
 10
-36.5900853521
 20
-0.0622704599
 10
-36.5467223231
 20
-0.1136715179
 10
-36.5000853142
 20
-0.1579064253
 10
-36.4515367684
 20
-0.1927722733
 10
-36.4015308333
 20
-0.217534759
 10
-36.3991545578
 20
-0.21823932
  0
LWPOLYLINE
  5
27D
100
AcDbEntity
  8
ASSI
100
AcDbPolyline
 62
7
  6
CONTINUOUS
 90
32
 70
0
 10
-36.3991545578
 20
1.7403346056
 10
-36.4015333036
 20
1.7396292907
 10
-36.4515413176
 20
1.7148644059
 10
-36.5000922367
 20
1.679996087
 10
-36.5467321814
 20
1.6357572306
 10
-36.5900995135
 20
1.5843465269
 10
-36.6299600766
 20
1.5256511213
 10
-36.666548027
 20
1.4597838684
 10
-36.6992041961
 20
1.3892820223
 10
-36.7277656395
 20
1.3142634325
 10
-36.7523953014
 20
1.2346102495
 10
-36.7729228456
 20
1.1525061787
 10
-36.7892878479
 20
1.0681110117
 10
-36.8015507323
 20
0.9812649569
 10
-36.8097224347
 20
0.8936723456
 10
-36.813805915
 20
0.8053998553
 10
-36.8137982132
 20
0.7163808086
 10
-36.8097013844
 20
0.6281195038
 10
-36.8015192522
 20
0.5405524162
 10
-36.7892479929
 20
0.4537430705
 10
-36.7728781912
 20
0.3693863397
 10
-36.7523506273
 20
0.2873216655
 10
-36.727724521
 20
0.2077096062
 10
-36.6991681159
 20
0.1327267092
 10
-36.6665187204
 20
0.0622528278
 10
-36.6299390263
 20
-0.0035918914
 10
-36.5900853521
 20
-0.0622704599
 10
-36.5467223231
 20
-0.1136715179
 10
-36.5000853142
 20
-0.1579064253
 10
-36.4515367684
 20
-0.1927722733
 10
-36.4015308333
 20
-0.217534759
 10
-36.3991545578
 20
-0.21823932
  0
LWPOLYLINE
  5
27E
100
AcDbEntity
  8
RACCORDO
100
AcDbPolyline
 62
7
  6
CONTINUOUS
 90
16
 70
0
 10
-3.2954188488
 20
-2.9889525522
 10
-3.2315565939
 20
-2.9853639226
 10
-3.1697252462
 20
-2.9755685271
 10
-3.1099248058
 20
-2.9595663656
 10
-3.0515510153
 20
-2.9370477961
 10
-2.9952081322
 20
-2.9083224606
 10
-2.942708928
 20
-2.8743192851
 10
-2.8941784045
 20
-2.8348682036
 10
-2.84949156
 20
-2.7901392822
 10
-2.8100861618
 20
-2.7415716452
 10
-2.7761324034
 20
-2.6890195556
 10
-2.7474600911
 20
-2.6326287505
 10
-2.7249964113
 20
-2.5742755644
 10
-2.709050426
 20
-2.5145854425
 10
-2.6993130731
 20
-2.4529329397
 10
-2.6957843526
 20
-2.389318056
  0
LWPOLYLINE
  5
27F
100
AcDbEntity
  8
RACCORDO
100
AcDbPolyline
 62
253
  6
CONTINUOUS
 90
19
 70
0
 10
-3.357139554
 20
-2.9272318469
 10
-3.3049076408
 20
-2.9249001614
 10
-3.2530738209
 20
-2.9180285781
 10
-3.2020319012
 20
-2.9066694195
 10
-3.1521696625
 20
-2.890909154
 10
-3.1038659458
 20
-2.8708675798
 10
-3.0574877843
 20
-2.8466968865
 10
-3.0133875771
 20
-2.8185807636
 10
-2.971900379
 20
-2.7867329144
 10
-2.9333414132
 20
-2.7513952313
 10
-2.8980036887
 20
-2.7128361353
 10
-2.8661557504
 20
-2.6713487012
 10
-2.8380396077
 20
-2.6272483162
 10
-2.8138689721
 20
-2.5808701238
 10
-2.7938274785
 20
-2.5325664652
 10
-2.7780673023
 20
-2.4827043428
 10
-2.7667082295
 20
-2.431662586
 10
-2.7598367122
 20
-2.3798289875
 10
-2.7575050578
 20
-2.3275973507
  0
LWPOLYLINE
  5
280
100
AcDbEntity
  8
RACCORDO
100
AcDbPolyline
 62
7
  6
CONTINUOUS
 90
16
 70
0
 10
-22.7485310106
 20
-3.0413337064
 10
-22.8123558338
 20
-3.0377491253
 10
-22.8741526045
 20
-3.0279649659
 10
-22.9339213227
 20
-3.0119812283
 10
-22.9922649765
 20
-2.9894890095
 10
-23.0485805778
 20
-2.9607972124
 10
-23.1010591623
 20
-2.9268325465
 10
-23.149576352
 20
-2.8874253171
 10
-23.1942565248
 20
-2.8427452188
 10
-23.233663851
 20
-2.7942280445
 10
-23.2676286412
 20
-2.7417493838
 10
-23.2963205848
 20
-2.6854336472
 10
-23.3188129193
 20
-2.627089859
 10
-23.3347967241
 20
-2.5673210276
 10
-23.34458092
 20
-2.5055241446
 10
-23.3481655068
 20
-2.4416992102
  0
LWPOLYLINE
  5
281
100
AcDbEntity
  8
RACCORDO
100
AcDbPolyline
 62
253
  6
CONTINUOUS
 90
4
 70
0
 10
-37.2992802733
 20
-2.1354109354
 10
-37.3166457789
 20
-2.1338966438
 10
-37.3334834385
 20
-2.1293892193
 10
-37.3492814503
 20
-2.1220256705
  0
LWPOLYLINE
  5
282
100
AcDbEntity
  8
RACCORDO
100
AcDbPolyline
 62
7
  6
CONTINUOUS
 90
6
 70
0
 10
-37.2957995831
 20
-2.1389525522
 10
-37.313152718
 20
-2.1374291847
 10
-37.3299795466
 20
-2.1329158
 10
-37.3457690004
 20
-2.1255487183
 10
-37.3600412085
 20
-2.1155508176
 10
-37.3664582035
 20
-2.1096695166
  0
LINE
  5
283
100
AcDbEntity
  8
RACCORDO
100
AcDbLine
 62
253
  6
CONTINUOUS
 10
-23.3481655068
 20
-2.4416992102
 11
-23.2340636473
 21
-2.3275973507
  0
LINE
  5
284
100
AcDbEntity
  8
RACCORDO
100
AcDbLine
 62
7
  6
CONTINUOUS
 10
-14.8957843526
 20
-2.9889525522
 11
-14.7923114328
 21
-2.983831416
  0
LINE
  5
285
100
AcDbEntity
  8
ASSI
100
AcDbLine
 62
7
  6
CONTINUOUS
 10
-14.8957843526
 20
-2.9889525522
 11
-14.7923114328
 21
-2.983831416
  0
LWPOLYLINE
  5
286
100
AcDbEntity
  8
RACCORDO
100
AcDbPolyline
 62
253
  6
CONTINUOUS
 90
19
 70
0
 10
-3.357139554
 20
-2.4275364334
 10
-3.3484057155
 20
-2.427152939
 10
-3.3398393303
 20
-2.4260338244
 10
-3.3314403986
 20
-2.4241790896
 10
-3.3231391455
 20
-2.421564588
 10
-3.315005346
 20
-2.4182144662
 10
-3.3072483239
 20
-2.4142011635
 10
-3.2998823106
 20
-2.409506309
 10
-3.2928930748
 20
-2.4041482736
 10
-3.2864472474
 20
-2.3982546096
 10
-3.2805613828
 20
-2.3918145209
 10
-3.2752189266
 20
-2.3848388036
 10
-3.2705368454
 20
-2.3774873988
 10
-3.2665298949
 20
-2.3697474005
 10
-3.2631833195
 20
-2.3616317148
 10
-3.2605698194
 20
-2.353339001
 10
-3.258713628
 20
-2.3449354789
 10
-3.257590512
 20
-2.3363549289
 10
-3.2572004713
 20
-2.3275973507
  0
LINE
  5
287
100
AcDbEntity
  8
RACCORDO
100
AcDbLine
 62
7
  6
CONTINUOUS
 10
-14.7783169071
 20
-2.9833274946
 11
-14.7923114328
 21
-2.983831416
  0
LINE
  5
288
100
AcDbEntity
  8
ASSI
100
AcDbLine
 62
7
  6
CONTINUOUS
 10
-14.7783169071
 20
-2.9833274946
 11
-14.7923114328
 21
-2.983831416
  0
LINE
  5
289
100
AcDbEntity
  8
RACCORDO
100
AcDbLine
 62
7
  6
CONTINUOUS
 10
-14.7585192929
 20
-2.9828528147
 11
-14.7783169071
 21
-2.9833274946
  0
LINE
  5
28A
100
AcDbEntity
  8
ASSI
100
AcDbLine
 62
7
  6
CONTINUOUS
 10
-14.7585192929
 20
-2.9828528147
 11
-14.7783169071
 21
-2.9833274946
  0
LINE
  5
28B
100
AcDbEntity
  8
RACCORDO
100
AcDbLine
 62
7
  6
CONTINUOUS
 10
-14.7010160865
 20
-2.9819859936
 11
-14.7585192929
 21
-2.9828528147
  0
LINE
  5
28C
100
AcDbEntity
  8
ASSI
100
AcDbLine
 62
7
  6
CONTINUOUS
 10
-14.7010160865
 20
-2.9819859936
 11
-14.7585192929
 21
-2.9828528147
  0
LWPOLYLINE
  5
28D
100
AcDbEntity
  8
RACCORDO
100
AcDbPolyline
 62
7
  6
CONTINUOUS
 90
15
 70
0
 10
-3.205275926
 20
-1.9377408343
 10
-3.154916785
 20
-1.9373325677
 10
-3.1061230483
 20
-1.936664704
 10
-3.0584201485
 20
-1.9357250134
 10
-3.0122826531
 20
-1.9345257257
 10
-2.9691342642
 20
-1.9331035304
 10
-2.9290662878
 20
-1.9314514425
 10
-2.8919874179
 20
-1.929576447
 10
-2.8590474378
 20
-1.9275361875
 10
-2.830374748
 20
-1.9253254069
 10
-2.8058409481
 20
-1.9229493625
 10
-2.7862106208
 20
-1.9204814696
 10
-2.7717386271
 20
-1.9179462003
 10
-2.7621701062
 20
-1.9153190827
 10
-2.7575050578
 20
-1.9126001167
  0
LINE
  5
28E
100
AcDbEntity
  8
RACCORDO
100
AcDbLine
 62
7
  6
CONTINUOUS
 10
-14.5748053767
 20
-2.9809457651
 11
-14.7010160865
 21
-2.9819859936
  0
LINE
  5
28F
100
AcDbEntity
  8
ASSI
100
AcDbLine
 62
7
  6
CONTINUOUS
 10
-14.5748053767
 20
-2.9809457651
 11
-14.7010160865
 21
-2.9819859936
  0
LINE
  5
290
100
AcDbEntity
  8
RACCORDO
100
AcDbLine
 62
7
  6
CONTINUOUS
 10
-14.7827927874
 20
-2.93692251
 11
-14.7060777201
 21
-2.936571398
  0
LINE
  5
291
100
AcDbEntity
  8
RACCORDO
100
AcDbLine
 62
7
  6
CONTINUOUS
 10
-14.3592015186
 20
-2.9802584473
 11
-14.5748053767
 21
-2.9809457651
  0
LINE
  5
292
100
AcDbEntity
  8
ASSI
100
AcDbLine
 62
7
  6
CONTINUOUS
 10
-14.3592015186
 20
-2.9802584473
 11
-14.5748053767
 21
-2.9809457651
  0
LINE
  5
293
100
AcDbEntity
  8
RACCORDO
100
AcDbLine
 62
7
  6
CONTINUOUS
 10
-22.4957843526
 20
-3.0413337064
 11
-22.7485310106
 21
-3.0413337064
  0
LINE
  5
294
100
AcDbEntity
  8
DRAFT
100
AcDbLine
 62
7
  6
CONTINUOUS
 10
-22.4434031983
 20
-2.9889525522
 11
-15.0481655068
 21
-2.9889525522
  0
LINE
  5
295
100
AcDbEntity
  8
DRAFT
100
AcDbLine
 62
7
  6
CONTINUOUS
 10
-14.8957843526
 20
-2.9889525522
 11
-11.6957843526
 21
-2.9889525522
  0
LINE
  5
296
100
AcDbEntity
  8
RACCORDO
100
AcDbLine
 62
7
  6
CONTINUOUS
 10
-3.2954188488
 20
-2.9889525522
 11
-11.6957843526
 21
-2.9889525522
  0
LINE
  5
297
100
AcDbEntity
  8
RACCORDO
100
AcDbLine
 62
7
  6
CONTINUOUS
 10
-14.8957843526
 20
-2.9889525522
 11
-22.0896520051
 21
-2.9889525522
  0
LINE
  5
298
100
AcDbEntity
  8
ASSI
100
AcDbLine
 62
7
  6
CONTINUOUS
 10
-3.945778641
 20
-2.9889525522
 11
-22.0896520051
 21
-2.9889525522
  0
LINE
  5
299
100
AcDbEntity
  8
RACCORDO
100
AcDbLine
 62
253
  6
CONTINUOUS
 10
-22.6344291511
 20
-2.9272318469
 11
-3.357139554
 21
-2.9272318469
  0
LINE
  5
29A
100
AcDbEntity
  8
RACCORDO
100
AcDbLine
 62
253
  6
CONTINUOUS
 10
-22.6344291511
 20
-2.4275364334
 11
-3.357139554
 21
-2.4275364334
  0
LINE
  5
29B
100
AcDbEntity
  8
RACCORDO
100
AcDbLine
 62
253
  6
CONTINUOUS
 10
-3.2572004713
 20
-2.3275973507
 11
-2.7575050578
 21
-2.3275973507
  0
LINE
  5
29C
100
AcDbEntity
  8
RACCORDO
100
AcDbLine
 62
253
  6
CONTINUOUS
 10
-22.7343682338
 20
-2.3275973507
 11
-23.2340636473
 21
-2.3275973443
  0
LINE
  5
29D
100
AcDbEntity
  8
DRAFT
100
AcDbLine
 62
7
  6
CONTINUOUS
 10
-36.2957843526
 20
-2.1389525522
 11
-23.3481655068
 21
-2.1389525522
  0
LINE
  5
29E
100
AcDbEntity
  8
ASSI
100
AcDbLine
 62
7
  6
CONTINUOUS
 10
-36.2957843526
 20
-2.1389525522
 11
-23.3481655068
 21
-2.1389525522
  0
LINE
  5
29F
100
AcDbEntity
  8
RACCORDO
100
AcDbLine
 62
7
  6
CONTINUOUS
 10
-37.2957995831
 20
-2.1389525522
 11
-23.3481655068
 21
-2.1389525522
  0
LINE
  5
2A0
100
AcDbEntity
  8
RACCORDO
100
AcDbLine
 62
7
  6
CONTINUOUS
 10
-23.3274324439
 20
-2.1285891792
 11
-37.2175198765
 21
-2.1285891792
  0
LINE
  5
2A1
100
AcDbEntity
  8
RACCORDO
100
AcDbLine
 62
7
  6
CONTINUOUS
 10
-3.205275926
 20
-1.9377408343
 11
-4.0447213042
 21
-1.9378895038
  0
LINE
  5
2A2
100
AcDbEntity
  8
DRAFT
100
AcDbLine
 62
7
  6
CONTINUOUS
 10
-3.8066929373
 20
-1.8854817245
 11
-3.9923135249
 21
-1.8854817245
  0
LINE
  5
2A3
100
AcDbEntity
  8
DRAFT
100
AcDbLine
 62
7
  6
CONTINUOUS
 10
-2.6957843526
 20
-1.8199720004
 11
-2.7257843526
 21
-1.8199720004
  0
LWPOLYLINE
  5
2A4
100
AcDbEntity
  8
RACCORDO
100
AcDbPolyline
 62
7
  6
CONTINUOUS
 90
13
 70
0
 10
-14.7060777201
 20
-2.936571398
 10
-11.8462258076
 20
-2.9366683824
 10
-11.8087759178
 20
-2.93692251
 10
-11.7731413157
 20
-2.9373337809
 10
-11.7388039604
 20
-2.9379138985
 10
-11.7062818928
 20
-2.9386511592
 10
-11.6771292357
 20
-2.9395104532
 10
-11.6515086753
 20
-2.940497732
 10
-11.6292575254
 20
-2.9416070439
 10
-11.6114418502
 20
-2.9427854245
 10
-11.5984170044
 20
-2.9440152189
 10
-11.5898276333
 20
-2.945314082
 10
-11.5856737369
 20
-2.9466820136
  0
LINE
  5
2A5
100
AcDbEntity
  8
RACCORDO
100
AcDbLine
 62
7
  6
CONTINUOUS
 10
-12.0675628537
 20
-2.9806898189
 11
-14.3592015186
 21
-2.9802584473
  0
LINE
  5
2A6
100
AcDbEntity
  8
ASSI
100
AcDbLine
 62
7
  6
CONTINUOUS
 10
-12.0675628537
 20
-2.9806898189
 11
-14.3592015186
 21
-2.9802584473
  0
LINE
  5
2A7
100
AcDbEntity
  8
RACCORDO
100
AcDbLine
 62
7
  6
CONTINUOUS
 10
-11.928258211
 20
-2.9815938524
 11
-12.0675628537
 21
-2.9806898189
  0
LINE
  5
2A8
100
AcDbEntity
  8
ASSI
100
AcDbLine
 62
7
  6
CONTINUOUS
 10
-11.928258211
 20
-2.9815938524
 11
-12.0675628537
 21
-2.9806898189
  0
LWPOLYLINE
  5
2A9
100
AcDbEntity
  8
RACCORDO
100
AcDbPolyline
 62
7
  6
CONTINUOUS
 90
5
 70
0
 10
-11.7992572724
 20
-2.983831416
 10
-11.8132517981
 20
-2.9833274946
 10
-11.8330494122
 20
-2.9828528147
 10
-11.8586501148
 20
-2.9824073761
 10
-11.928258211
 20
-2.9815938524
  0
LWPOLYLINE
  5
2AA
100
AcDbEntity
  8
ASSI
100
AcDbPolyline
 62
7
  6
CONTINUOUS
 90
5
 70
0
 10
-11.7992572724
 20
-2.983831416
 10
-11.8132517981
 20
-2.9833274946
 10
-11.8330494122
 20
-2.9828528147
 10
-11.8586501148
 20
-2.9824073761
 10
-11.928258211
 20
-2.9815938524
  0
LINE
  5
2AB
100
AcDbEntity
  8
RACCORDO
100
AcDbLine
 62
7
  6
CONTINUOUS
 10
-11.6957843526
 20
-2.9889525522
 11
-11.7992572724
 21
-2.983831416
  0
LINE
  5
2AC
100
AcDbEntity
  8
ASSI
100
AcDbLine
 62
7
  6
CONTINUOUS
 10
-11.6957843526
 20
-2.9889525522
 11
-11.7992572724
 21
-2.983831416
  0
LINE
  5
2AD
100
AcDbEntity
  8
RACCORDO
100
AcDbLine
 62
253
  6
CONTINUOUS
 10
-23.2340636473
 20
3.8496922463
 11
-23.3481655068
 21
3.9637941058
  0
LINE
  5
2AE
100
AcDbEntity
  8
RACCORDO
100
AcDbLine
 62
253
  6
CONTINUOUS
 10
-22.7485310106
 20
-3.0413337064
 11
-22.6344291511
 21
-2.9272318469
  0
LINE
  5
2AF
100
AcDbEntity
  8
DRAFT
100
AcDbLine
 62
7
  6
CONTINUOUS
 10
-22.4957843526
 20
-3.0413337064
 11
-22.4434031983
 21
-2.9889525522
  0
LWPOLYLINE
  5
2B0
100
AcDbEntity
  8
RACCORDO
100
AcDbPolyline
 62
7
  6
CONTINUOUS
 90
11
 70
0
 10
-11.5856737369
 20
4.4687769092
 10
-11.5898276333
 20
4.4674089776
 10
-11.5984170044
 20
4.4661101145
 10
-11.6114418502
 20
4.4648803202
 10
-11.6292575254
 20
4.4637019395
 10
-11.6515086753
 20
4.4625926276
 10
-11.6771292357
 20
4.4616053488
 10
-11.7062818928
 20
4.4607460548
 10
-11.7388039604
 20
4.4600087941
 10
-11.7731413157
 20
4.4594286766
 10
-11.8087759178
 20
4.4590174056
  0
LWPOLYLINE
  5
2B1
100
AcDbEntity
  8
0
100
AcDbPolyline
 62
7
  6
CONTINUOUS
 90
7
 70
0
 10
-8.6899779554
 20
0.7124933156
 10
-8.6756137849
 20
0.7164125781
 10
-8.6614391558
 20
0.7219481537
 10
-8.6474540681
 20
0.7291000423
 10
-8.6337561561
 20
0.7382255661
 10
-8.6202477854
 20
0.7489674029
 10
-8.5928096838
 20
0.7717308863
  0
LWPOLYLINE
  5
2B2
100
AcDbEntity
  8
RACCORDO
100
AcDbPolyline
 62
253
  6
CONTINUOUS
 90
13
 70
0
 10
-6.6080485964
 20
-0.9766426169
 10
-6.5687411009
 20
-0.9740439671
 10
-6.5301006349
 20
-0.9663138424
 10
-6.4927948849
 20
-0.9535812998
 10
-6.4574651959
 20
-0.9360595369
 10
-6.4247288034
 20
-0.9140486543
 10
-6.3951645828
 20
-0.8879360034
 10
-6.3692336421
 20
-0.8581093979
 10
-6.3474492722
 20
-0.8251369971
 10
-6.3302857343
 20
-0.7898308523
 10
-6.3179670258
 20
-0.7529234582
 10
-6.3105617952
 20
-0.7149929909
 10
-6.3080942879
 20
-0.6766883083
  0
LWPOLYLINE
  5
2B3
100
AcDbEntity
  8
RACCORDO
100
AcDbPolyline
 62
253
  6
CONTINUOUS
 90
19
 70
0
 10
-6.5991687475
 20
-1.1854920048
 10
-6.5549497908
 20
-1.1834611162
 10
-6.5117184817
 20
-1.1777570878
 10
-6.4694748202
 20
-1.1683799197
 10
-6.4279020241
 20
-1.1551914314
 10
-6.3873168756
 20
-1.1383298033
 10
-6.3486697215
 20
-1.1182095772
 10
-6.3120284316
 20
-1.0947678861
 10
-6.277325136
 20
-1.068067597
 10
-6.2453065717
 20
-1.0387118523
 10
-6.2160305166
 20
-1.0066516203
 10
-6.1894391928
 20
-0.9719359328
 10
-6.1661060032
 20
-0.9353150275
 10
-6.1460898447
 20
-0.8967246257
 10
-6.1293318203
 20
-0.856229006
 10
-6.1162286424
 20
-0.814771242
 10
-6.1069125485
 20
-0.7726656914
 10
-6.101251301
 20
-0.7295979965
 10
-6.0992449
 20
-0.6855681572
  0
LWPOLYLINE
  5
2B4
100
AcDbEntity
  8
RACCORDO
100
AcDbPolyline
 62
253
  6
CONTINUOUS
 90
19
 70
0
 10
-6.5991763719
 20
-0.9855224647
 10
-6.5730154694
 20
-0.9843861024
 10
-6.5470558267
 20
-0.9809734599
 10
-6.521494965
 20
-0.9753108212
 10
-6.4965248949
 20
-0.9674407644
 10
-6.4723381697
 20
-0.9574238726
 10
-6.4491255889
 20
-0.9453403308
 10
-6.4270668918
 20
-0.9312869592
 10
-6.4063238725
 20
-0.9153703592
 10
-6.387047411
 20
-0.8977077943
 10
-6.3693855458
 20
-0.8784356678
 10
-6.3534700681
 20
-0.8576987306
 10
-6.3394136691
 20
-0.8356408958
 10
-6.3273199746
 20
-0.8124135989
 10
-6.3172934866
 20
-0.7882047101
 10
-6.3094221265
 20
-0.763227186
 10
-6.3037637094
 20
-0.7376826296
 10
-6.3003538504
 20
-0.7117563901
 10
-6.2992144388
 20
-0.6856457976
  0
LWPOLYLINE
  5
2B5
100
AcDbEntity
  8
RACCORDO
100
AcDbPolyline
 62
253
  6
CONTINUOUS
 90
10
 70
0
 10
-37.2175198765
 20
-2.1285891792
 10
-37.234114463
 20
-2.1292548242
 10
-37.2489241426
 20
-2.1299421259
 10
-37.2619489153
 20
-2.1306510844
 10
-37.2733122714
 20
-2.1313797994
 10
-37.2828907207
 20
-2.1321301711
 10
-37.2903137926
 20
-2.1329079004
 10
-37.2954579968
 20
-2.1337148878
 10
-37.2984468238
 20
-2.1345492328
 10
-37.2992802733
 20
-2.1354109354
  0
LWPOLYLINE
  5
2B6
100
AcDbEntity
  8
RACCORDO
100
AcDbPolyline
 62
253
  6
CONTINUOUS
 90
8
 70
0
 10
-37.3162758748
 20
-2.0288834569
 10
-37.3376882324
 20
-2.0297180577
 10
-37.3560615343
 20
-2.0305756924
 10
-37.3714088091
 20
-2.0314608774
 10
-37.3838081942
 20
-2.0323871623
 10
-37.3929107568
 20
-2.0333590636
 10
-37.3982000336
 20
-2.0343720648
 10
-37.3994173476
 20
-2.0351498563
  0
LINE
  5
2B7
100
AcDbEntity
  8
RACCORDO
100
AcDbLine
 62
253
  6
CONTINUOUS
 10
-37.1157470738
 20
-2.0227714588
 11
-37.3162758748
 21
-2.0288834569
  0
LINE
  5
2B8
100
AcDbEntity
  8
RACCORDO
100
AcDbLine
 62
253
  6
CONTINUOUS
 10
-2.7636324768
 20
-1.706335291
 11
-3.7768617317
 21
-1.706335291
  0
LINE
  5
2B9
100
AcDbEntity
  8
RACCORDO
100
AcDbLine
 62
7
  6
CONTINUOUS
 10
-3.7995285049
 20
-1.6352083999
 11
-0.7995285049
 21
-1.6352083999
  0
LINE
  5
2BA
100
AcDbEntity
  8
ASSI
100
AcDbLine
 62
7
  6
CONTINUOUS
 10
-3.7995285049
 20
-1.6352083999
 11
-0.7995285049
 21
-1.6352083999
  0
LINE
  5
2BB
100
AcDbEntity
  8
RACCORDO
100
AcDbLine
 62
253
  6
CONTINUOUS
 10
-3.9923135249
 20
-1.625800569
 11
-3.8062565939
 21
-1.625800569
  0
LINE
  5
2BC
100
AcDbEntity
  8
ASSI
100
AcDbLine
 62
253
  6
CONTINUOUS
 10
-3.9923135249
 20
-1.625800569
 11
-3.8062565939
 21
-1.625800569
  0
LINE
  5
2BD
100
AcDbEntity
  8
RACCORDO
100
AcDbLine
 62
253
  6
CONTINUOUS
 10
-36.3349102503
 20
-1.6188122337
 11
-36.672882076
 21
-1.6188122337
  0
LINE
  5
2BE
100
AcDbEntity
  8
RACCORDO
100
AcDbLine
 62
253
  6
CONTINUOUS
 10
-3.8004199855
 20
-1.6061107957
 11
-0.8004199855
 21
-1.6061107957
  0
LINE
  5
2BF
100
AcDbEntity
  8
ASSI
100
AcDbLine
 62
253
  6
CONTINUOUS
 10
-3.8004199855
 20
-1.6061107957
 11
-0.8004199855
 21
-1.6061107957
  0
LINE
  5
2C0
100
AcDbEntity
  8
RACCORDO
100
AcDbLine
 62
253
  6
CONTINUOUS
 10
-6.9923999576
 20
-1.1854920048
 11
-6.5991687475
 21
-1.1854920048
  0
LINE
  5
2C1
100
AcDbEntity
  8
RACCORDO
100
AcDbLine
 62
253
  6
CONTINUOUS
 10
-36.3399167097
 20
-1.1671672861
 11
-36.7556546123
 21
-1.1671672861
  0
LINE
  5
2C2
100
AcDbEntity
  8
ASSI
100
AcDbLine
 62
253
  6
CONTINUOUS
 10
-37.3952055501
 20
-1.138663173
 11
-36.3969423104
 21
-1.138663173
  0
LINE
  5
2C3
100
AcDbEntity
  8
0
100
AcDbLine
 62
7
  6
CONTINUOUS
 10
-0.8001623374
 20
-0.9889525522
 11
6.1929149545
 21
-0.9889525522
  0
LINE
  5
2C4
100
AcDbEntity
  8
RACCORDO
100
AcDbLine
 62
253
  6
CONTINUOUS
 10
-6.9924775877
 20
-0.9855224658
 11
-6.5991763709
 21
-0.9855224658
  0
LINE
  5
2C5
100
AcDbEntity
  8
RACCORDO
100
AcDbLine
 62
253
  6
CONTINUOUS
 10
-6.9835201087
 20
-0.9766426169
 11
-6.6080485964
 21
-0.9766426169
  0
LINE
  5
2C6
100
AcDbEntity
  8
0
100
AcDbLine
 62
253
  6
CONTINUOUS
 10
-0.8061319244
 20
-0.8327985434
 11
-1.3498199123
 21
-0.8327985434
  0
LINE
  5
2C7
100
AcDbEntity
  8
0
100
AcDbLine
 62
253
  6
CONTINUOUS
 10
-2.2104082256
 20
-0.8327985434
 11
-3.8061319244
 21
-0.8327985434
  0
LINE
  5
2C8
100
AcDbEntity
  8
0
100
AcDbLine
 62
253
  6
CONTINUOUS
 10
-0.8062565939
 20
-0.7585677945
 11
-1.3301140689
 21
-0.7585677945
  0
LINE
  5
2C9
100
AcDbEntity
  8
0
100
AcDbLine
 62
253
  6
CONTINUOUS
 10
-2.2301140689
 20
-0.7585677945
 11
-3.8062565939
 21
-0.7585677945
  0
LINE
  5
2CA
100
AcDbEntity
  8
RACCORDO
100
AcDbLine
 62
253
  6
CONTINUOUS
 10
-7.4923238052
 20
-0.6855681572
 11
-7.2923542662
 21
-0.6855681572
  0
LINE
  5
2CB
100
AcDbEntity
  8
RACCORDO
100
AcDbLine
 62
253
  6
CONTINUOUS
 10
-6.0992449
 20
-0.6855681572
 11
-6.299214439
 21
-0.6855681572
  0
LINE
  5
2CC
100
AcDbEntity
  8
RACCORDO
100
AcDbLine
 62
253
  6
CONTINUOUS
 10
-6.3080942879
 20
-0.6766883083
 11
-7.2834744173
 21
-0.6766883083
  0
LINE
  5
2CD
100
AcDbEntity
  8
0
100
AcDbLine
 62
7
  6
CONTINUOUS
 10
-17.1173083526
 20
-0.4691325522
 11
-16.6574783526
 21
-0.4691325522
  0
LINE
  5
2CE
100
AcDbEntity
  8
0
100
AcDbLine
 62
7
  6
CONTINUOUS
 10
-15.6603243526
 20
-0.4691325522
 11
-15.1385313526
 21
-0.4691325522
  0
LINE
  5
2CF
100
AcDbEntity
  8
0
100
AcDbLine
 62
7
  6
CONTINUOUS
 10
-14.8576343526
 20
-0.4691325522
 11
-14.3584483526
 21
-0.4691325522
  0
LINE
  5
2D0
100
AcDbEntity
  8
0
100
AcDbLine
 62
7
  6
CONTINUOUS
 10
-13.6337193526
 20
-0.4691325522
 11
-13.5605373526
 21
-0.4691325522
  0
LINE
  5
2D1
100
AcDbEntity
  8
0
100
AcDbLine
 62
7
  6
CONTINUOUS
 10
-12.8329223526
 20
-0.4691325522
 11
-12.3224703526
 21
-0.4691325522
  0
LINE
  5
2D2
100
AcDbEntity
  8
0
100
AcDbLine
 62
7
  6
CONTINUOUS
 10
-12.2405343526
 20
-0.4691325522
 11
-11.7244033526
 21
-0.4691325522
  0
LINE
  5
2D3
100
AcDbEntity
  8
0
100
AcDbLine
 62
7
  6
CONTINUOUS
 10
-10.7346533526
 20
-0.4691325522
 11
-10.1847053526
 21
-0.4691325522
  0
LINE
  5
2D4
100
AcDbEntity
  8
0
100
AcDbLine
 62
7
  6
CONTINUOUS
 10
-10.0314818505
 20
-0.4691323329
 11
-9.511788509
 21
-0.4691323329
  0
LINE
  5
2D5
100
AcDbEntity
  8
0
100
AcDbLine
 62
7
  6
CONTINUOUS
 10
-8.7127346902
 20
-0.4691323329
 11
-8.2108305919
 21
-0.4691323329
  0
LINE
  5
2D6
100
AcDbEntity
  8
RACCORDO
100
AcDbLine
 62
253
  6
CONTINUOUS
 10
-22.6344291511
 20
4.4493267426
 11
-22.7485310106
 21
4.563428602
  0
LINE
  5
2D7
100
AcDbEntity
  8
DRAFT
100
AcDbLine
 62
7
  6
CONTINUOUS
 10
-22.4957843526
 20
4.563428602
 11
-22.4434031983
 21
4.5110474478
  0
LINE
  5
2D8
100
AcDbEntity
  8
0
100
AcDbLine
 62
7
  6
CONTINUOUS
 10
-17.9097733526
 20
2.0306034478
 11
-17.1173083526
 21
-0.4691325522
  0
LINE
  5
2D9
100
AcDbEntity
  8
0
100
AcDbLine
 62
7
  6
CONTINUOUS
 10
-16.8664503526
 20
0.3099574478
 11
-17.3429453526
 21
2.0306034478
  0
LINE
  5
2DA
100
AcDbEntity
  8
0
100
AcDbLine
 62
7
  6
CONTINUOUS
 10
-15.6603243526
 20
2.0307534478
 11
-15.6603243526
 21
-0.4691325522
  0
LINE
  5
2DB
100
AcDbEntity
  8
0
100
AcDbLine
 62
7
  6
CONTINUOUS
 10
-16.3753993526
 20
2.0306034478
 11
-16.8664503526
 21
0.3099574478
  0
LINE
  5
2DC
100
AcDbEntity
  8
0
100
AcDbLine
 62
7
  6
CONTINUOUS
 10
-16.6574783526
 20
-0.4691325522
 11
-15.8539633526
 21
2.0306034478
  0
LINE
  5
2DD
100
AcDbEntity
  8
DRAFT
100
AcDbLine
 62
7
  6
CONTINUOUS
 10
-23.3274324439
 20
-2.1285891792
 11
-23.3481655068
 21
-2.1389525522
  0
LWPOLYLINE
  5
2DE
100
AcDbEntity
  8
0
100
AcDbPolyline
 62
7
  6
CONTINUOUS
 90
10
 70
0
 10
-9.5290903757
 20
1.6047485229
 10
-9.4826271343
 20
1.6124493051
 10
-9.4364775342
 20
1.618633389
 10
-9.3906415754
 20
1.6233007746
 10
-9.3451896138
 20
1.6264511241
 10
-9.3000512935
 20
1.6280847753
 10
-9.2550155472
 20
1.6282027416
 10
-9.2100120192
 20
1.6268053609
 10
-9.165111065
 20
1.6238922954
 10
-9.1203126849
 20
1.619463545
  0
LINE
  5
2DF
100
AcDbEntity
  8
RACCORDO
100
AcDbLine
 62
253
  6
CONTINUOUS
 10
-37.3673575326
 20
-0.2176021841
 11
-36.9957843526
 21
-0.2176021841
  0
LINE
  5
2E0
100
AcDbEntity
  8
0
100
AcDbLine
 62
7
  6
CONTINUOUS
 10
-11.5804203526
 20
0.0299034478
 11
-10.8698253526
 21
0.0299034478
  0
LINE
  5
2E1
100
AcDbEntity
  8
RACCORDO
100
AcDbLine
 62
253
  6
CONTINUOUS
 10
-37.3661107422
 20
0.0399371927
 11
-36.9957843526
 21
0.0399371927
  0
LINE
  5
2E2
100
AcDbEntity
  8
0
100
AcDbLine
 62
7
  6
CONTINUOUS
 10
-10.9741053526
 20
0.4160554478
 11
-11.4736853526
 21
0.4160554478
  0
LINE
  5
2E3
100
AcDbEntity
  8
0
100
AcDbLine
 62
7
  6
CONTINUOUS
 10
-9.511788509
 20
0.5091260864
 11
-9.2320156362
 21
0.5091260864
  0
LINE
  5
2E4
100
AcDbEntity
  8
0
100
AcDbLine
 62
7
  6
CONTINUOUS
 10
-0.800160633
 20
0.5110474478
 11
6.1929149545
 21
0.5110474478
  0
LINE
  5
2E5
100
AcDbEntity
  8
0
100
AcDbLine
 62
7
  6
CONTINUOUS
 10
-9.2308909212
 20
0.9185223705
 11
-9.5290903757
 21
0.9185223705
  0
LINE
  5
2E6
100
AcDbEntity
  8
0
100
AcDbLine
 62
7
  6
CONTINUOUS
 10
-0.800160633
 20
1.0110474478
 11
6.1929149545
 21
1.0110474478
  0
LWPOLYLINE
  5
2E7
100
AcDbEntity
  8
0
100
AcDbPolyline
 62
7
  6
CONTINUOUS
 90
13
 70
0
 10
-9.2320156362
 20
0.5091260864
 10
-9.1986164445
 20
0.5071708507
 10
-9.1669556025
 20
0.5021884109
 10
-9.1370331103
 20
0.4941787671
 10
-9.1089451296
 20
0.4831252066
 10
-9.0825954987
 20
0.469044442
 10
-9.0576957328
 20
0.4519866116
 10
-9.0340483906
 20
0.4319073962
 10
-9.0118509134
 20
0.4088511151
 10
-8.9914071405
 20
0.3830008639
 10
-8.9728183516
 20
0.3544176747
 10
-8.955983267
 20
0.3230405153
 10
-8.9409018866
 20
0.288869386
  0
LINE
  5
2E8
100
AcDbEntity
  8
DRAFT
100
AcDbLine
 62
7
  6
CONTINUOUS
 10
-23.3274324439
 20
3.6506840748
 11
-23.3481655068
 21
3.6610474478
  0
LINE
  5
2E9
100
AcDbEntity
  8
RACCORDO
100
AcDbLine
 62
7
  6
CONTINUOUS
 10
-11.5434031983
 20
-2.9889525522
 11
-11.5856737369
 21
-2.9466820136
  0
LINE
  5
2EA
100
AcDbEntity
  8
0
100
AcDbLine
 62
7
  6
CONTINUOUS
 10
-15.1385313526
 20
-0.4691325522
 11
-15.1385313526
 21
2.0307534478
  0
LINE
  5
2EB
100
AcDbEntity
  8
RACCORDO
100
AcDbLine
 62
7
  6
CONTINUOUS
 10
-14.8957843526
 20
4.5110474478
 11
-14.8957843526
 21
4.4610554768
  0
LINE
  5
2EC
100
AcDbEntity
  8
ASSI
100
AcDbLine
 62
7
  6
CONTINUOUS
 10
-14.8957843526
 20
4.5110474478
 11
-14.8957843526
 21
4.4610554768
  0
LINE
  5
2ED
100
AcDbEntity
  8
RACCORDO
100
AcDbLine
 62
7
  6
CONTINUOUS
 10
-14.8957843526
 20
-2.9889525522
 11
-14.8957843526
 21
-2.9389605812
  0
LINE
  5
2EE
100
AcDbEntity
  8
ASSI
100
AcDbLine
 62
7
  6
CONTINUOUS
 10
-14.8957843526
 20
-2.9889525522
 11
-14.8957843526
 21
-2.9389605812
  0
LINE
  5
2EF
100
AcDbEntity
  8
RACCORDO
100
AcDbLine
 62
253
  6
CONTINUOUS
 10
-14.7923114328
 20
4.5059263116
 11
-14.7923114328
 21
4.4591272635
  0
LINE
  5
2F0
100
AcDbEntity
  8
ASSI
100
AcDbLine
 62
253
  6
CONTINUOUS
 10
-14.7923114328
 20
4.5059263116
 11
-14.7923114328
 21
4.4591272635
  0
LINE
  5
2F1
100
AcDbEntity
  8
RACCORDO
100
AcDbLine
 62
253
  6
CONTINUOUS
 10
-14.7923114328
 20
-2.9370323679
 11
-14.7923114328
 21
-2.983831416
  0
LINE
  5
2F2
100
AcDbEntity
  8
ASSI
100
AcDbLine
 62
253
  6
CONTINUOUS
 10
-14.7923114328
 20
-2.9370323679
 11
-14.7923114328
 21
-2.983831416
  0
LINE
  5
2F3
100
AcDbEntity
  8
RACCORDO
100
AcDbLine
 62
253
  6
CONTINUOUS
 10
-14.2999075563
 20
4.50232058
 11
-14.2999075563
 21
4.4586662936
  0
LINE
  5
2F4
100
AcDbEntity
  8
ASSI
100
AcDbLine
 62
253
  6
CONTINUOUS
 10
-14.2999075563
 20
4.50232058
 11
-14.2999075563
 21
4.4586662936
  0
LINE
  5
2F5
100
AcDbEntity
  8
RACCORDO
100
AcDbLine
 62
253
  6
CONTINUOUS
 10
-14.2999075563
 20
-2.936571398
 11
-14.2999075563
 21
-2.9802256844
  0
LINE
  5
2F6
100
AcDbEntity
  8
ASSI
100
AcDbLine
 62
253
  6
CONTINUOUS
 10
-14.2999075563
 20
-2.936571398
 11
-14.2999075563
 21
-2.9802256844
  0
LINE
  5
2F7
100
AcDbEntity
  8
0
100
AcDbLine
 62
7
  6
CONTINUOUS
 10
-14.3584483526
 20
-0.4691325522
 11
-14.2458453526
 21
1.1631474478
  0
LINE
  5
2F8
100
AcDbEntity
  8
0
100
AcDbLine
 62
7
  6
CONTINUOUS
 10
-14.6319223526
 20
2.0306034478
 11
-14.8576343526
 21
-0.4691325522
  0
LINE
  5
2F9
100
AcDbEntity
  8
RACCORDO
100
AcDbLine
 62
7
  6
CONTINUOUS
 10
-11.5434031983
 20
4.5110474478
 11
-11.5856737369
 21
4.4687769092
  0
LWPOLYLINE
  5
2FA
100
AcDbEntity
  8
RACCORDO
100
AcDbPolyline
 62
253
  6
CONTINUOUS
 90
13
 70
0
 10
-6.9835201087
 20
2.4987375125
 10
-7.0228276043
 20
2.4961388627
 10
-7.0614680703
 20
2.488408738
 10
-7.0987738202
 20
2.4756761954
 10
-7.1341035093
 20
2.4581544325
 10
-7.1668399017
 20
2.4361435499
 10
-7.1964041224
 20
2.410030899
 10
-7.222335063
 20
2.3802042935
 10
-7.2441194329
 20
2.3472318927
 10
-7.2612829709
 20
2.3119257479
 10
-7.2736016794
 20
2.2750183538
 10
-7.2810069099
 20
2.2370878865
 10
-7.2834744173
 20
2.1987832039
  0
LWPOLYLINE
  5
2FB
100
AcDbEntity
  8
RACCORDO
100
AcDbPolyline
 62
253
  6
CONTINUOUS
 90
19
 70
0
 10
-6.9923999576
 20
2.7075869004
 10
-7.0366189144
 20
2.7055560118
 10
-7.0798502235
 20
2.6998519834
 10
-7.122093885
 20
2.6904748153
 10
-7.1636666811
 20
2.677286327
 10
-7.2042518296
 20
2.6604246989
 10
-7.2428989837
 20
2.6403044728
 10
-7.2795402736
 20
2.6168627817
 10
-7.3142435692
 20
2.5901624926
 10
-7.3462621335
 20
2.5608067479
 10
-7.3755381885
 20
2.5287465159
 10
-7.4021295123
 20
2.4940308284
 10
-7.425462702
 20
2.4574099231
 10
-7.4454788605
 20
2.4188195213
 10
-7.4622368849
 20
2.3783239016
 10
-7.4753400627
 20
2.3368661376
 10
-7.4846561567
 20
2.294760587
 10
-7.4903174042
 20
2.2516928921
 10
-7.4923238052
 20
2.2076630528
  0
LWPOLYLINE
  5
2FC
100
AcDbEntity
  8
RACCORDO
100
AcDbPolyline
 62
253
  6
CONTINUOUS
 90
19
 70
0
 10
-6.9923923333
 20
2.5076173603
 10
-7.0185532358
 20
2.506480998
 10
-7.0445128785
 20
2.5030683555
 10
-7.0700737401
 20
2.4974057168
 10
-7.0950438103
 20
2.48953566
 10
-7.1192305355
 20
2.4795187682
 10
-7.1424431163
 20
2.4674352264
 10
-7.1645018133
 20
2.4533818548
 10
-7.1852448326
 20
2.4374652548
 10
-7.2045212942
 20
2.4198026899
 10
-7.2221831594
 20
2.4005305634
 10
-7.2380986371
 20
2.3797936262
 10
-7.252155036
 20
2.3577357914
 10
-7.2642487305
 20
2.3345084945
 10
-7.2742752186
 20
2.3102996057
 10
-7.2821465786
 20
2.2853220816
 10
-7.2878049958
 20
2.2597775252
 10
-7.2912148547
 20
2.2338512857
 10
-7.2923542663
 20
2.2077406932
  0
LINE
  5
2FD
100
AcDbEntity
  8
RACCORDO
100
AcDbLine
 62
253
  6
CONTINUOUS
 10
-36.9957843526
 20
1.4821577029
 11
-37.3661107422
 21
1.4821577029
  0
LINE
  5
2FE
100
AcDbEntity
  8
RACCORDO
100
AcDbLine
 62
253
  6
CONTINUOUS
 10
-36.9957843526
 20
1.7396970797
 11
-37.3673575326
 21
1.7396970797
  0
LINE
  5
2FF
100
AcDbEntity
  8
0
100
AcDbLine
 62
7
  6
CONTINUOUS
 10
-10.9516863526
 20
2.0306034478
 11
-11.4564583526
 21
2.0306034478
  0
LINE
  5
300
100
AcDbEntity
  8
0
100
AcDbLine
 62
7
  6
CONTINUOUS
 10
-12.5562233526
 20
2.0306034478
 11
-13.0724863526
 21
2.0306034478
  0
LINE
  5
301
100
AcDbEntity
  8
0
100
AcDbLine
 62
7
  6
CONTINUOUS
 10
-14.1105613526
 20
2.0306034478
 11
-14.6319223526
 21
2.0306034478
  0
LINE
  5
302
100
AcDbEntity
  8
0
100
AcDbLine
 62
7
  6
CONTINUOUS
 10
-15.8539633526
 20
2.0306034478
 11
-16.3753993526
 21
2.0306034478
  0
LINE
  5
303
100
AcDbEntity
  8
0
100
AcDbLine
 62
7
  6
CONTINUOUS
 10
-17.3429453526
 20
2.0306034478
 11
-17.9097733526
 21
2.0306034478
  0
LINE
  5
304
100
AcDbEntity
  8
0
100
AcDbLine
 62
7
  6
CONTINUOUS
 10
-15.1385313526
 20
2.0307534478
 11
-15.6603243526
 21
2.0307534478
  0
LINE
  5
305
100
AcDbEntity
  8
RACCORDO
100
AcDbLine
 62
253
  6
CONTINUOUS
 10
-6.3080942879
 20
2.1987832039
 11
-7.2834744173
 21
2.1987832039
  0
LINE
  5
306
100
AcDbEntity
  8
RACCORDO
100
AcDbLine
 62
253
  6
CONTINUOUS
 10
-7.4923238052
 20
2.2076630528
 11
-7.2923542662
 21
2.2076630528
  0
LINE
  5
307
100
AcDbEntity
  8
RACCORDO
100
AcDbLine
 62
253
  6
CONTINUOUS
 10
-6.0992449
 20
2.2076630528
 11
-6.299214439
 21
2.2076630528
  0
LINE
  5
308
100
AcDbEntity
  8
0
100
AcDbLine
 62
253
  6
CONTINUOUS
 10
-0.8062565939
 20
2.2806626901
 11
-1.3301140689
 21
2.2806626901
  0
LINE
  5
309
100
AcDbEntity
  8
0
100
AcDbLine
 62
253
  6
CONTINUOUS
 10
-2.2301140689
 20
2.2806626901
 11
-3.8062565939
 21
2.2806626901
  0
LINE
  5
30A
100
AcDbEntity
  8
0
100
AcDbLine
 62
253
  6
CONTINUOUS
 10
-0.8061319244
 20
2.354893439
 11
-1.3498199123
 21
2.354893439
  0
LINE
  5
30B
100
AcDbEntity
  8
0
100
AcDbLine
 62
253
  6
CONTINUOUS
 10
-2.2104082256
 20
2.354893439
 11
-3.8061319244
 21
2.354893439
  0
LINE
  5
30C
100
AcDbEntity
  8
RACCORDO
100
AcDbLine
 62
253
  6
CONTINUOUS
 10
-6.6080485964
 20
2.4987375125
 11
-6.9835201087
 21
2.4987375125
  0
LINE
  5
30D
100
AcDbEntity
  8
RACCORDO
100
AcDbLine
 62
253
  6
CONTINUOUS
 10
-6.5990911174
 20
2.5076173614
 11
-6.9923923343
 21
2.5076173614
  0
LINE
  5
30E
100
AcDbEntity
  8
0
100
AcDbLine
 62
7
  6
CONTINUOUS
 10
-0.8001623374
 20
2.5110474478
 11
6.1929149545
 21
2.5110474478
  0
LINE
  5
30F
100
AcDbEntity
  8
ASSI
100
AcDbLine
 62
253
  6
CONTINUOUS
 10
-36.3969423104
 20
2.6607580686
 11
-37.3952055501
 21
2.6607580686
  0
LINE
  5
310
100
AcDbEntity
  8
RACCORDO
100
AcDbLine
 62
253
  6
CONTINUOUS
 10
-36.7556546123
 20
2.6892621817
 11
-36.3399167097
 21
2.6892621817
  0
LINE
  5
311
100
AcDbEntity
  8
RACCORDO
100
AcDbLine
 62
253
  6
CONTINUOUS
 10
-6.5991687475
 20
2.7075869004
 11
-6.9923999576
 21
2.7075869004
  0
LINE
  5
312
100
AcDbEntity
  8
0
100
AcDbLine
 62
7
  6
CONTINUOUS
 10
-14.2458453526
 20
1.1631474478
 11
-13.6337193526
 21
-0.4691325522
  0
LINE
  5
313
100
AcDbEntity
  8
0
100
AcDbLine
 62
7
  6
CONTINUOUS
 10
-12.3224703526
 20
-0.4691325522
 11
-12.5562233526
 21
2.0306034478
  0
LINE
  5
314
100
AcDbEntity
  8
0
100
AcDbLine
 62
7
  6
CONTINUOUS
 10
-12.9401263526
 20
1.1563434478
 11
-12.8329223526
 21
-0.4691325522
  0
LINE
  5
315
100
AcDbEntity
  8
0
100
AcDbLine
 62
7
  6
CONTINUOUS
 10
-13.0724863526
 20
2.0306034478
 11
-13.5942793526
 21
0.6427424478
  0
LINE
  5
316
100
AcDbEntity
  8
0
100
AcDbLine
 62
7
  6
CONTINUOUS
 10
-13.5605373526
 20
-0.4691325522
 11
-12.9401263526
 21
1.1563434478
  0
LWPOLYLINE
  5
317
100
AcDbEntity
  8
RACCORDO
100
AcDbPolyline
 62
7
  6
CONTINUOUS
 90
9
 70
0
 10
-37.2940499099
 20
2.672919899
 10
-37.3192632526
 20
2.6719688916
 10
-37.3410827797
 20
2.6709967044
 10
-37.359562742
 20
2.6699996798
 10
-37.3746488885
 20
2.6689814755
 10
-37.3861784671
 20
2.6679530642
 10
-37.394097227
 20
2.6669181035
 10
-37.3984594189
 20
2.6658729359
 10
-37.3993976884
 20
2.6651221939
  0
LINE
  5
318
100
AcDbEntity
  8
RACCORDO
100
AcDbLine
 62
7
  6
CONTINUOUS
 10
-37.2940499099
 20
2.672919899
 11
-36.7556546123
 21
2.6892621817
  0
LINE
  5
319
100
AcDbEntity
  8
RACCORDO
100
AcDbLine
 62
253
  6
CONTINUOUS
 10
-0.8004199855
 20
3.1282056913
 11
-3.8004199855
 21
3.1282056913
  0
LINE
  5
31A
100
AcDbEntity
  8
ASSI
100
AcDbLine
 62
253
  6
CONTINUOUS
 10
-0.8004199855
 20
3.1282056913
 11
-3.8004199855
 21
3.1282056913
  0
LINE
  5
31B
100
AcDbEntity
  8
RACCORDO
100
AcDbLine
 62
253
  6
CONTINUOUS
 10
-36.672882076
 20
3.1409071293
 11
-36.3349102503
 21
3.1409071293
  0
LINE
  5
31C
100
AcDbEntity
  8
RACCORDO
100
AcDbLine
 62
253
  6
CONTINUOUS
 10
-3.8062565939
 20
3.1478954646
 11
-3.9923135249
 21
3.1478954646
  0
LINE
  5
31D
100
AcDbEntity
  8
ASSI
100
AcDbLine
 62
253
  6
CONTINUOUS
 10
-3.8062565939
 20
3.1478954646
 11
-3.9923135249
 21
3.1478954646
  0
LINE
  5
31E
100
AcDbEntity
  8
RACCORDO
100
AcDbLine
 62
7
  6
CONTINUOUS
 10
-0.7995285049
 20
3.1573032955
 11
-3.7995285049
 21
3.1573032955
  0
LINE
  5
31F
100
AcDbEntity
  8
ASSI
100
AcDbLine
 62
7
  6
CONTINUOUS
 10
-0.7995285049
 20
3.1573032955
 11
-3.7995285049
 21
3.1573032955
  0
LINE
  5
320
100
AcDbEntity
  8
RACCORDO
100
AcDbLine
 62
253
  6
CONTINUOUS
 10
-3.7768617317
 20
3.2284301866
 11
-2.7636324768
 21
3.2284301866
  0
LINE
  5
321
100
AcDbEntity
  8
DRAFT
100
AcDbLine
 62
7
  6
CONTINUOUS
 10
-2.6957843526
 20
3.342066896
 11
-2.7257843526
 21
3.342066896
  0
LINE
  5
322
100
AcDbEntity
  8
DRAFT
100
AcDbLine
 62
7
  6
CONTINUOUS
 10
-3.8066929373
 20
3.4075766201
 11
-3.9923135249
 21
3.4075766201
  0
LINE
  5
323
100
AcDbEntity
  8
RACCORDO
100
AcDbLine
 62
7
  6
CONTINUOUS
 10
-37.2175198765
 20
3.6506840748
 11
-23.3274324439
 21
3.6506840748
  0
LINE
  5
324
100
AcDbEntity
  8
DRAFT
100
AcDbLine
 62
7
  6
CONTINUOUS
 10
-36.2957843526
 20
3.6610474478
 11
-23.3481655068
 21
3.6610474478
  0
LINE
  5
325
100
AcDbEntity
  8
ASSI
100
AcDbLine
 62
7
  6
CONTINUOUS
 10
-36.2957843526
 20
3.6610474478
 11
-23.3481655068
 21
3.6610474478
  0
LINE
  5
326
100
AcDbEntity
  8
RACCORDO
100
AcDbLine
 62
7
  6
CONTINUOUS
 10
-23.3481655068
 20
3.6610474478
 11
-37.2957995831
 21
3.6610474478
  0
LINE
  5
327
100
AcDbEntity
  8
RACCORDO
100
AcDbLine
 62
253
  6
CONTINUOUS
 10
-3.2572004713
 20
3.8496922463
 11
-2.7575050578
 21
3.8496922497
  0
LINE
  5
328
100
AcDbEntity
  8
RACCORDO
100
AcDbLine
 62
253
  6
CONTINUOUS
 10
-22.7343682338
 20
3.8496922463
 11
-23.2340636473
 21
3.8496922463
  0
LINE
  5
329
100
AcDbEntity
  8
RACCORDO
100
AcDbLine
 62
253
  6
CONTINUOUS
 10
-3.357139554
 20
3.949631329
 11
-22.6344291511
 21
3.949631329
  0
LINE
  5
32A
100
AcDbEntity
  8
RACCORDO
100
AcDbLine
 62
253
  6
CONTINUOUS
 10
-37.2953005147
 20
3.5502749127
 11
-37.1157470738
 21
3.5448663544
  0
LWPOLYLINE
  5
32B
100
AcDbEntity
  8
0
100
AcDbPolyline
 62
7
  6
CONTINUOUS
 90
13
 70
0
 10
-9.1203126849
 20
1.619463545
 10
-9.0771967519
 20
1.6113265939
 10
-9.037166526
 20
1.5995153705
 10
-9.0002220072
 20
1.5840298746
 10
-8.9661863691
 20
1.5646880914
 10
-8.935236438
 20
1.5416720357
 10
-8.9079026933
 20
1.5155277525
 10
-8.8841893218
 20
1.4859587809
 10
-8.8640921365
 20
1.4532615817
 10
-8.8481290556
 20
1.4188715822
 10
-8.8364727183
 20
1.3832672581
 10
-8.8289504853
 20
1.3459701337
 10
-8.8255623566
 20
1.3069802091
  0
LWPOLYLINE
  5
32C
100
AcDbEntity
  8
0
100
AcDbPolyline
 62
7
  6
CONTINUOUS
 90
13
 70
0
 10
-8.743776826
 20
1.9750797036
 10
-8.8304034596
 20
2.001191924
 10
-8.9210905062
 20
2.0225077414
 10
-9.015837966
 20
2.0390271559
 10
-9.1148608863
 20
2.0504450804
 10
-9.2179442197
 20
2.0570666019
 10
-9.324442824
 20
2.0598069821
 10
-9.4342299109
 20
2.0587927073
 10
-9.5474322686
 20
2.0538972911
 10
-9.6637851192
 20
2.0456565356
 10
-9.7832002034
 20
2.0342490417
 10
-9.9057657805
 20
2.0194962086
 10
-10.0314818505
 20
2.0013980362
  0
LINE
  5
32D
100
AcDbEntity
  8
RACCORDO
100
AcDbLine
 62
7
  6
CONTINUOUS
 10
-15.0481655068
 20
4.5110474478
 11
-15.0058949682
 21
4.4687769092
  0
LINE
  5
32E
100
AcDbEntity
  8
0
100
AcDbLine
 62
7
  6
CONTINUOUS
 10
-13.5942793526
 20
0.6427424478
 11
-14.1105613526
 21
2.0306034478
  0
LINE
  5
32F
100
AcDbEntity
  8
RACCORDO
100
AcDbLine
 62
253
  6
CONTINUOUS
 10
-12.2916611489
 20
-2.9802256844
 11
-12.2916611489
 21
-2.936571398
  0
LINE
  5
330
100
AcDbEntity
  8
ASSI
100
AcDbLine
 62
253
  6
CONTINUOUS
 10
-12.2916611489
 20
-2.9802256844
 11
-12.2916611489
 21
-2.936571398
  0
LINE
  5
331
100
AcDbEntity
  8
RACCORDO
100
AcDbLine
 62
253
  6
CONTINUOUS
 10
-12.2916611489
 20
4.4586662936
 11
-12.2916611489
 21
4.50232058
  0
LINE
  5
332
100
AcDbEntity
  8
ASSI
100
AcDbLine
 62
253
  6
CONTINUOUS
 10
-12.2916611489
 20
4.4586662936
 11
-12.2916611489
 21
4.50232058
  0
LINE
  5
333
100
AcDbEntity
  8
RACCORDO
100
AcDbLine
 62
253
  6
CONTINUOUS
 10
-11.7992572724
 20
-2.983831416
 11
-11.7992572724
 21
-2.9370323679
  0
LINE
  5
334
100
AcDbEntity
  8
ASSI
100
AcDbLine
 62
253
  6
CONTINUOUS
 10
-11.7992572724
 20
-2.983831416
 11
-11.7992572724
 21
-2.9370323679
  0
LINE
  5
335
100
AcDbEntity
  8
RACCORDO
100
AcDbLine
 62
253
  6
CONTINUOUS
 10
-11.7992572724
 20
4.4591272635
 11
-11.7992572724
 21
4.5059263116
  0
LINE
  5
336
100
AcDbEntity
  8
ASSI
100
AcDbLine
 62
253
  6
CONTINUOUS
 10
-11.7992572724
 20
4.4591272635
 11
-11.7992572724
 21
4.5059263116
  0
LINE
  5
337
100
AcDbEntity
  8
RACCORDO
100
AcDbLine
 62
7
  6
CONTINUOUS
 10
-11.6957843526
 20
4.5110474478
 11
-11.6957843526
 21
4.4610554768
  0
LINE
  5
338
100
AcDbEntity
  8
ASSI
100
AcDbLine
 62
7
  6
CONTINUOUS
 10
-11.6957843526
 20
4.5110474478
 11
-11.6957843526
 21
4.4610554768
  0
LINE
  5
339
100
AcDbEntity
  8
RACCORDO
100
AcDbLine
 62
7
  6
CONTINUOUS
 10
-11.6957843526
 20
-2.9889525522
 11
-11.6957843526
 21
-2.9389605812
  0
LINE
  5
33A
100
AcDbEntity
  8
ASSI
100
AcDbLine
 62
7
  6
CONTINUOUS
 10
-11.6957843526
 20
-2.9889525522
 11
-11.6957843526
 21
-2.9389605812
  0
LINE
  5
33B
100
AcDbEntity
  8
0
100
AcDbLine
 62
7
  6
CONTINUOUS
 10
-11.4736853526
 20
0.4160554478
 11
-11.2138763526
 21
1.3437394478
  0
LINE
  5
33C
100
AcDbEntity
  8
0
100
AcDbLine
 62
7
  6
CONTINUOUS
 10
-11.7244033526
 20
-0.4691325522
 11
-11.5804203526
 21
0.0299034478
  0
LINE
  5
33D
100
AcDbEntity
  8
0
100
AcDbLine
 62
7
  6
CONTINUOUS
 10
-11.4564583526
 20
2.0306034478
 11
-12.2405343526
 21
-0.4691325522
  0
LINE
  5
33E
100
AcDbEntity
  8
RACCORDO
100
AcDbLine
 62
7
  6
CONTINUOUS
 10
-15.0481655068
 20
-2.9889525522
 11
-15.0058949682
 21
-2.9466820136
  0
LWPOLYLINE
  5
33F
100
AcDbEntity
  8
RACCORDO
100
AcDbPolyline
 62
7
  6
CONTINUOUS
 90
11
 70
0
 10
-15.0058949682
 20
-2.9466820136
 10
-15.0017410718
 20
-2.945314082
 10
-14.9931517007
 20
-2.9440152189
 10
-14.9801268549
 20
-2.9427854245
 10
-14.9623111798
 20
-2.9416070439
 10
-14.9400600299
 20
-2.940497732
 10
-14.9144394695
 20
-2.9395104532
 10
-14.8852868124
 20
-2.9386511592
 10
-14.8527647448
 20
-2.9379138985
 10
-14.8184273895
 20
-2.9373337809
 10
-14.7827927874
 20
-2.93692251
  0
LWPOLYLINE
  5
340
100
AcDbEntity
  8
RACCORDO
100
AcDbPolyline
 62
7
  6
CONTINUOUS
 90
6
 70
0
 10
-37.2957386565
 20
3.6610474478
 10
-37.3131130972
 20
3.6595311061
 10
-37.3299577009
 20
3.6550187192
 10
-37.3457604114
 20
3.6476485746
 10
-37.3600412815
 20
3.637645647
 10
-37.3664582787
 20
3.6317644123
  0
LWPOLYLINE
  5
341
100
AcDbEntity
  8
RACCORDO
100
AcDbPolyline
 62
253
  6
CONTINUOUS
 90
4
 70
0
 10
-37.2992802733
 20
3.657505831
 10
-37.3166448613
 20
3.655991701
 10
-37.3334819281
 20
3.6514846642
 10
-37.3492796952
 20
3.644121579
  0
LINE
  5
342
100
AcDbEntity
  8
RACCORDO
100
AcDbLine
 62
7
  6
CONTINUOUS
 10
-11.6957843526
 20
4.5110474478
 11
-11.7992572724
 21
4.5059263116
  0
LINE
  5
343
100
AcDbEntity
  8
ASSI
100
AcDbLine
 62
7
  6
CONTINUOUS
 10
-11.6957843526
 20
4.5110474478
 11
-11.7992572724
 21
4.5059263116
  0
LWPOLYLINE
  5
344
100
AcDbEntity
  8
RACCORDO
100
AcDbPolyline
 62
7
  6
CONTINUOUS
 90
19
 70
0
 10
-37.2175198765
 20
3.6506840748
 10
-37.2231911974
 20
3.65041474
 10
-37.2280327305
 20
3.6499413636
 10
-37.2320444757
 20
3.6492616
 10
-37.2351274107
 20
3.6483259369
 10
-37.2373805579
 20
3.647175362
 10
-37.2391009847
 20
3.6459454495
 10
-37.2403171376
 20
3.6446704164
 10
-37.2410005702
 20
3.643312799
 10
-37.2413630107
 20
3.6419051888
 10
-37.241450985
 20
3.6404580381
 10
-37.2412179673
 20
3.6389589139
 10
-37.2407361085
 20
3.6374070717
 10
-37.2400231189
 20
3.635801293
 10
-37.2390612881
 20
3.6341404535
 10
-37.2378696363
 20
3.6324239423
 10
-37.2364545033
 20
3.6306507449
 10
-37.2348095491
 20
3.6288194219
 10
-37.2329347739
 20
3.6269287064
  0
LWPOLYLINE
  5
345
100
AcDbEntity
  8
RACCORDO
100
AcDbPolyline
 62
253
  6
CONTINUOUS
 90
19
 70
0
 10
-22.6344291511
 20
3.949631329
 10
-22.6431867293
 20
3.9492412884
 10
-22.6517672793
 20
3.9481181724
 10
-22.6601708014
 20
3.946261981
 10
-22.6684635152
 20
3.9436484809
 10
-22.6765792009
 20
3.9403019055
 10
-22.6843191992
 20
3.936294955
 10
-22.691670604
 20
3.9316128738
 10
-22.6986463213
 20
3.9262704176
 10
-22.70508641
 20
3.920384553
 10
-22.710980074
 20
3.9139387255
 10
-22.7163381094
 20
3.9069494898
 10
-22.7210329639
 20
3.8995834765
 10
-22.7250462666
 20
3.8918264544
 10
-22.7283963884
 20
3.8836926548
 10
-22.7310108899
 20
3.8753914018
 10
-22.7328656248
 20
3.8669924701
 10
-22.7339847394
 20
3.8584260849
 10
-22.7343682338
 20
3.8496922463
  0
LWPOLYLINE
  5
346
100
AcDbEntity
  8
RACCORDO
100
AcDbPolyline
 62
253
  6
CONTINUOUS
 90
19
 70
0
 10
-22.6344291511
 20
4.4493267426
 10
-22.6866607879
 20
4.4469950882
 10
-22.7384943864
 20
4.4401235709
 10
-22.7895361432
 20
4.4287644981
 10
-22.8393982656
 20
4.4130043219
 10
-22.8877019242
 20
4.3929628283
 10
-22.9340801166
 20
4.3687921926
 10
-22.9781805016
 20
4.34067605
 10
-23.0196679356
 20
4.3088281117
 10
-23.0582270317
 20
4.2734903872
 10
-23.0935647148
 20
4.2349314213
 10
-23.125412564
 20
4.1934442233
 10
-23.1535286869
 20
4.1493440161
 10
-23.1776993802
 20
4.1029658546
 10
-23.1977409544
 20
4.0546621378
 10
-23.2135012199
 20
4.0047998992
 10
-23.2248603785
 20
3.9537579795
 10
-23.2317319618
 20
3.9019241596
 10
-23.2340636473
 20
3.8496922463
  0
LINE
  5
347
100
AcDbEntity
  8
RACCORDO
100
AcDbLine
 62
7
  6
CONTINUOUS
 10
-11.8132517981
 20
4.5054223902
 11
-11.7992572724
 21
4.5059263116
  0
LINE
  5
348
100
AcDbEntity
  8
ASSI
100
AcDbLine
 62
7
  6
CONTINUOUS
 10
-11.8132517981
 20
4.5054223902
 11
-11.7992572724
 21
4.5059263116
  0
LINE
  5
349
100
AcDbEntity
  8
RACCORDO
100
AcDbLine
 62
7
  6
CONTINUOUS
 10
-11.8330494122
 20
4.5049477103
 11
-11.8132517981
 21
4.5054223902
  0
LINE
  5
34A
100
AcDbEntity
  8
ASSI
100
AcDbLine
 62
7
  6
CONTINUOUS
 10
-11.8330494122
 20
4.5049477103
 11
-11.8132517981
 21
4.5054223902
  0
LINE
  5
34B
100
AcDbEntity
  8
RACCORDO
100
AcDbLine
 62
7
  6
CONTINUOUS
 10
-11.8905526187
 20
4.5040808892
 11
-11.8330494122
 21
4.5049477103
  0
LINE
  5
34C
100
AcDbEntity
  8
ASSI
100
AcDbLine
 62
7
  6
CONTINUOUS
 10
-11.8905526187
 20
4.5040808892
 11
-11.8330494122
 21
4.5049477103
  0
LINE
  5
34D
100
AcDbEntity
  8
RACCORDO
100
AcDbLine
 62
7
  6
CONTINUOUS
 10
-12.0167633285
 20
4.5030406607
 11
-11.8905526187
 21
4.5040808892
  0
LINE
  5
34E
100
AcDbEntity
  8
ASSI
100
AcDbLine
 62
7
  6
CONTINUOUS
 10
-12.0167633285
 20
4.5030406607
 11
-11.8905526187
 21
4.5040808892
  0
LINE
  5
34F
100
AcDbEntity
  8
RACCORDO
100
AcDbLine
 62
7
  6
CONTINUOUS
 10
-11.8087759178
 20
4.4590174056
 11
-11.885490985
 21
4.4586662936
  0
LINE
  5
350
100
AcDbEntity
  8
RACCORDO
100
AcDbLine
 62
7
  6
CONTINUOUS
 10
-12.2323671865
 20
4.5023533429
 11
-12.0167633285
 21
4.5030406607
  0
LINE
  5
351
100
AcDbEntity
  8
ASSI
100
AcDbLine
 62
7
  6
CONTINUOUS
 10
-12.2323671865
 20
4.5023533429
 11
-12.0167633285
 21
4.5030406607
  0
LINE
  5
352
100
AcDbEntity
  8
RACCORDO
100
AcDbLine
 62
253
  6
CONTINUOUS
 10
-3.357139554
 20
4.4493267426
 11
-22.6344291511
 21
4.4493267426
  0
LINE
  5
353
100
AcDbEntity
  8
DRAFT
100
AcDbLine
 62
7
  6
CONTINUOUS
 10
-22.4434031983
 20
4.5110474478
 11
-15.0481655068
 21
4.5110474478
  0
LINE
  5
354
100
AcDbEntity
  8
RACCORDO
100
AcDbLine
 62
7
  6
CONTINUOUS
 10
-3.2954188488
 20
4.5110474478
 11
-11.6957843526
 21
4.5110474478
  0
LINE
  5
355
100
AcDbEntity
  8
DRAFT
100
AcDbLine
 62
7
  6
CONTINUOUS
 10
-11.6957843526
 20
4.5110474478
 11
-14.8957843526
 21
4.5110474478
  0
LINE
  5
356
100
AcDbEntity
  8
RACCORDO
100
AcDbLine
 62
7
  6
CONTINUOUS
 10
-14.8957843526
 20
4.5110474478
 11
-22.0896520051
 21
4.5110474478
  0
LINE
  5
357
100
AcDbEntity
  8
ASSI
100
AcDbLine
 62
7
  6
CONTINUOUS
 10
-3.945778641
 20
4.5110474478
 11
-22.0896520051
 21
4.5110474478
  0
LINE
  5
358
100
AcDbEntity
  8
RACCORDO
100
AcDbLine
 62
7
  6
CONTINUOUS
 10
-22.7485310106
 20
4.563428602
 11
-22.4957843526
 21
4.563428602
  0
LWPOLYLINE
  5
359
100
AcDbEntity
  8
RACCORDO
100
AcDbPolyline
 62
7
  6
CONTINUOUS
 90
13
 70
0
 10
-11.885490985
 20
4.4586662936
 10
-14.7453428976
 20
4.458763278
 10
-14.7827927874
 20
4.4590174056
 10
-14.8184273895
 20
4.4594286766
 10
-14.8527647448
 20
4.4600087941
 10
-14.8852868124
 20
4.4607460548
 10
-14.9144394695
 20
4.4616053488
 10
-14.9400600299
 20
4.4625926276
 10
-14.9623111798
 20
4.4637019395
 10
-14.9801268549
 20
4.4648803202
 10
-14.9931517007
 20
4.4661101145
 10
-15.0017410718
 20
4.4674089776
 10
-15.0058949682
 20
4.4687769092
  0
LINE
  5
35A
100
AcDbEntity
  8
RACCORDO
100
AcDbLine
 62
7
  6
CONTINUOUS
 10
-14.5240058515
 20
4.5027847145
 11
-12.2323671865
 21
4.5023533429
  0
LINE
  5
35B
100
AcDbEntity
  8
ASSI
100
AcDbLine
 62
7
  6
CONTINUOUS
 10
-14.5240058515
 20
4.5027847145
 11
-12.2323671865
 21
4.5023533429
  0
LINE
  5
35C
100
AcDbEntity
  8
RACCORDO
100
AcDbLine
 62
7
  6
CONTINUOUS
 10
-14.6633104942
 20
4.503688748
 11
-14.5240058515
 21
4.5027847145
  0
LINE
  5
35D
100
AcDbEntity
  8
ASSI
100
AcDbLine
 62
7
  6
CONTINUOUS
 10
-14.6633104942
 20
4.503688748
 11
-14.5240058515
 21
4.5027847145
  0
LWPOLYLINE
  5
35E
100
AcDbEntity
  8
RACCORDO
100
AcDbPolyline
 62
7
  6
CONTINUOUS
 90
5
 70
0
 10
-14.7923114328
 20
4.5059263116
 10
-14.7783169071
 20
4.5054223902
 10
-14.7585192929
 20
4.5049477103
 10
-14.7329185904
 20
4.5045022718
 10
-14.6633104942
 20
4.503688748
  0
LWPOLYLINE
  5
35F
100
AcDbEntity
  8
ASSI
100
AcDbPolyline
 62
7
  6
CONTINUOUS
 90
5
 70
0
 10
-14.7923114328
 20
4.5059263116
 10
-14.7783169071
 20
4.5054223902
 10
-14.7585192929
 20
4.5049477103
 10
-14.7329185904
 20
4.5045022718
 10
-14.6633104942
 20
4.503688748
  0
LINE
  5
360
100
AcDbEntity
  8
RACCORDO
100
AcDbLine
 62
7
  6
CONTINUOUS
 10
-14.8957843526
 20
4.5110474478
 11
-14.7923114328
 21
4.5059263116
  0
LINE
  5
361
100
AcDbEntity
  8
ASSI
100
AcDbLine
 62
7
  6
CONTINUOUS
 10
-14.8957843526
 20
4.5110474478
 11
-14.7923114328
 21
4.5059263116
  0
LINE
  5
362
100
AcDbEntity
  8
0
100
AcDbLine
 62
7
  6
CONTINUOUS
 10
-10.8698253526
 20
0.0299034478
 11
-10.7346533526
 21
-0.4691325522
  0
LINE
  5
363
100
AcDbEntity
  8
0
100
AcDbLine
 62
7
  6
CONTINUOUS
 10
-11.2138763526
 20
1.3437394478
 11
-10.9741053526
 21
0.4160554478
  0
LINE
  5
364
100
AcDbEntity
  8
0
100
AcDbLine
 62
7
  6
CONTINUOUS
 10
-10.0314818505
 20
2.0013980362
 11
-10.0314818505
 21
-0.4691323329
  0
LINE
  5
365
100
AcDbEntity
  8
0
100
AcDbLine
 62
7
  6
CONTINUOUS
 10
-9.5290903757
 20
0.9185223705
 11
-9.5290903757
 21
1.6047485229
  0
LINE
  5
366
100
AcDbEntity
  8
0
100
AcDbLine
 62
7
  6
CONTINUOUS
 10
-9.511788509
 20
-0.4691323329
 11
-9.511788509
 21
0.5091260864
  0
LINE
  5
367
100
AcDbEntity
  8
RACCORDO
100
AcDbLine
 62
253
  6
CONTINUOUS
 10
-6.3080942879
 20
2.1987832039
 11
-6.299214439
 21
2.2076554295
  0
LINE
  5
368
100
AcDbEntity
  8
RACCORDO
100
AcDbLine
 62
253
  6
CONTINUOUS
 10
-6.6080485964
 20
2.4987375125
 11
-6.5990911174
 21
2.5076173614
  0
LWPOLYLINE
  5
369
100
AcDbEntity
  8
0
100
AcDbPolyline
 62
7
  6
CONTINUOUS
 90
42
 70
0
 10
-8.5928096838
 20
0.7717308863
 10
-8.5788799528
 20
0.7837525329
 10
-8.5648877804
 20
0.7963062496
 10
-8.5508108296
 20
0.809296587
 10
-8.5366714373
 20
0.8228189945
 10
-8.5225775355
 20
0.8371475443
 10
-8.5085137719
 20
0.8522787319
 10
-8.4944954986
 20
0.8682160619
 10
-8.4806767042
 20
0.8852441197
 10
-8.4670485661
 20
0.9034272634
 10
-8.4536199068
 20
0.922701135
 10
-8.4405711825
 20
0.9431572451
 10
-8.4278840371
 20
0.9648210613
 10
-8.4155768268
 20
0.9876671162
 10
-8.4038850759
 20
1.0117105178
 10
-8.3927885126
 20
1.0369701843
 10
-8.3823074087
 20
1.0634271975
 10
-8.3727381041
 20
1.0910399118
 10
-8.3640883151
 20
1.1197729113
 10
-8.3563503254
 20
1.1496616117
 10
-8.3497973252
 20
1.1807706141
 10
-8.344414894
 20
1.2130657848
 10
-8.3402174524
 20
1.2465812574
 10
-8.3375214521
 20
1.2814840336
 10
-8.33623835
 20
1.3177972928
 10
-8.3364566893
 20
1.3554978555
 10
-8.3387585514
 20
1.3946831848
 10
-8.3429528731
 20
1.4355215183
 10
-8.3492307176
 20
1.4778446184
 10
-8.3587473564
 20
1.5212452354
 10
-8.3716651882
 20
1.5661292244
 10
-8.3878218142
 20
1.6120907304
 10
-8.4078853097
 20
1.6575049385
 10
-8.4322231846
 20
1.7024308783
 10
-8.460467929
 20
1.7468095202
 10
-8.4921850884
 20
1.788838961
 10
-8.5276284751
 20
1.8284000058
 10
-8.5665442769
 20
1.8656118493
 10
-8.607736602
 20
1.8990301728
 10
-8.6508068199
 20
1.9281735365
 10
-8.6961535613
 20
1.9535233801
 10
-8.743776826
 20
1.9750797036
  0
LWPOLYLINE
  5
36A
100
AcDbEntity
  8
RACCORDO
100
AcDbPolyline
 62
7
  6
CONTINUOUS
 90
19
 70
0
 10
-36.7556546123
 20
2.6892621817
 10
-36.7330736017
 20
2.6937700347
 10
-36.7121654757
 20
2.7027566774
 10
-36.6929302343
 20
2.7162221099
 10
-36.6751317393
 20
2.7348432186
 10
-36.6590061289
 20
2.7579431171
 10
-36.6452618184
 20
2.7834911459
 10
-36.6341093697
 20
2.8113458123
 10
-36.6253382209
 20
2.841648609
 10
-36.619025102
 20
2.8727933553
 10
-36.6151972903
 20
2.9046451753
 10
-36.6138275085
 20
2.9373389448
 10
-36.6149106542
 20
2.9696731108
 10
-36.6184460905
 20
3.0017218291
 10
-36.6244344544
 20
3.0334109438
 10
-36.632872554
 20
3.0633164334
 10
-36.6437593255
 20
3.0909636239
 10
-36.6570958329
 20
3.1168271892
 10
-36.672882076
 20
3.1409071293
  0
LWPOLYLINE
  5
36B
100
AcDbEntity
  8
RACCORDO
100
AcDbPolyline
 62
7
  6
CONTINUOUS
 90
3
 70
0
 10
-36.3991545578
 20
2.5990752681
 10
-36.4243832287
 20
2.5941757166
 10
-36.4870383449
 20
2.5739048337
  0
LWPOLYLINE
  5
36C
100
AcDbEntity
  8
ASSI
100
AcDbPolyline
 62
7
  6
CONTINUOUS
 90
3
 70
0
 10
-36.3991545578
 20
2.5990752681
 10
-36.4243832287
 20
2.5941757166
 10
-36.4870383449
 20
2.5739048337
  0
LINE
  5
36D
100
AcDbEntity
  8
RACCORDO
100
AcDbLine
 62
253
  6
CONTINUOUS
 10
-3.2954188488
 20
-2.9889525522
 11
-3.357139554
 21
-2.9272318469
  0
LINE
  5
36E
100
AcDbEntity
  8
RACCORDO
100
AcDbLine
 62
253
  6
CONTINUOUS
 10
-6.6080485964
 20
-0.9766426169
 11
-6.5991763709
 21
-0.9855224658
  0
LINE
  5
36F
100
AcDbEntity
  8
RACCORDO
100
AcDbLine
 62
253
  6
CONTINUOUS
 10
-6.3080942879
 20
-0.6766883083
 11
-6.299214439
 21
-0.6856457874
  0
LWPOLYLINE
  5
370
100
AcDbEntity
  8
0
100
AcDbPolyline
 62
7
  6
CONTINUOUS
 90
6
 70
0
 10
-8.9409018866
 20
0.288869386
 10
-8.9141048406
 20
0.2102848447
 10
-8.8879475142
 20
0.1301706516
 10
-8.8624299072
 20
0.0485268067
 10
-8.8379232674
 20
-0.0348069352
 10
-8.7897154035
 20
-0.2055826392
  0
LINE
  5
371
100
AcDbEntity
  8
0
100
AcDbLine
 62
7
  6
CONTINUOUS
 10
-10.1847053526
 20
-0.4691325522
 11
-10.9516863526
 21
2.0306034478
  0
LINE
  5
372
100
AcDbEntity
  8
0
100
AcDbLine
 62
7
  6
CONTINUOUS
 10
-8.6899779554
 20
0.6977220578
 11
-8.6899779554
 21
0.7124933156
  0
LWPOLYLINE
  5
373
100
AcDbEntity
  8
0
100
AcDbPolyline
 62
7
  6
CONTINUOUS
 90
16
 70
0
 10
-8.8255623566
 20
1.3069802091
 10
-8.8282804873
 20
1.2574083887
 10
-8.8350061964
 20
1.2107196394
 10
-8.8457394838
 20
1.1669139613
 10
-8.8607030586
 20
1.1255923409
 10
-8.8796742118
 20
1.0871537916
 10
-8.9019848164
 20
1.052795354
 10
-8.9276037003
 20
1.0229580646
 10
-8.9565620355
 20
0.9972008869
 10
-8.9882852115
 20
0.9753977508
 10
-9.0227537572
 20
0.9578340146
 10
-9.0599871437
 20
0.94422432
 10
-9.099469173
 20
0.9335865227
 10
-9.1410277795
 20
0.9255932413
 10
-9.1848350288
 20
0.9205718572
 10
-9.2308909212
 20
0.9185223705
  0
LINE
  5
374
100
AcDbEntity
  8
RACCORDO
100
AcDbLine
 62
253
  6
CONTINUOUS
 10
-3.357139554
 20
4.4493267426
 11
-3.2954188488
 21
4.5110474478
  0
LINE
  5
375
100
AcDbEntity
  8
RACCORDO
100
AcDbLine
 62
253
  6
CONTINUOUS
 10
-2.7575050578
 20
3.8496922463
 11
-2.6957843526
 21
3.9114129516
  0
LINE
  5
376
100
AcDbEntity
  8
RACCORDO
100
AcDbLine
 62
253
  6
CONTINUOUS
 10
-7.2834744173
 20
-0.6766883083
 11
-7.2923542662
 21
-0.6855605339
  0
LINE
  5
377
100
AcDbEntity
  8
RACCORDO
100
AcDbLine
 62
253
  6
CONTINUOUS
 10
-6.9835201087
 20
-0.9766426169
 11
-6.9924775877
 21
-0.9855224658
  0
LINE
  5
378
100
AcDbEntity
  8
RACCORDO
100
AcDbLine
 62
253
  6
CONTINUOUS
 10
-2.6957843526
 20
-2.389318056
 11
-2.7575050578
 21
-2.3275973507
  0
LINE
  5
379
100
AcDbEntity
  8
RACCORDO
100
AcDbLine
 62
253
  6
CONTINUOUS
 10
-6.9835201087
 20
2.4987375125
 11
-6.9923923343
 21
2.5076173614
  0
LINE
  5
37A
100
AcDbEntity
  8
RACCORDO
100
AcDbLine
 62
253
  6
CONTINUOUS
 10
-7.2834744173
 20
2.1987832039
 11
-7.2923542662
 21
2.207740683
  0
LINE
  5
37B
100
AcDbEntity
  8
0
100
AcDbLine
 62
7
  6
CONTINUOUS
 10
-8.7897154035
 20
-0.2055826392
 11
-8.7127346902
 21
-0.4691323329
  0
LINE
  5
37C
100
AcDbEntity
  8
0
100
AcDbLine
 62
7
  6
CONTINUOUS
 10
-8.3281547011
 20
-0.0213997911
 11
-8.3892104014
 21
0.2074400152
  0
LINE
  5
37D
100
AcDbEntity
  8
0
100
AcDbLine
 62
7
  6
CONTINUOUS
 10
-8.2108305919
 20
-0.4691323329
 11
-8.3281547011
 21
-0.0213997911
  0
LWPOLYLINE
  5
37E
100
AcDbEntity
  8
0
100
AcDbPolyline
 62
7
  6
CONTINUOUS
 90
13
 70
0
 10
-8.3892104014
 20
0.2074400152
 10
-8.4037697769
 20
0.2652694792
 10
-8.4200897035
 20
0.3206683789
 10
-8.4381701815
 20
0.3736367144
 10
-8.4578723909
 20
0.4245739176
 10
-8.4793351515
 20
0.4730805565
 10
-8.5029749227
 20
0.5179583347
 10
-8.5289818475
 20
0.5592115345
 10
-8.5571657829
 20
0.5968358736
 10
-8.5873727584
 20
0.6296202097
 10
-8.6195514506
 20
0.6571608287
 10
-8.6537531829
 20
0.6798614447
 10
-8.6899779554
 20
0.6977220578
  0
LWPOLYLINE
  5
37F
100
AcDbEntity
  8
RACCORDO
100
AcDbPolyline
 62
253
  6
CONTINUOUS
 90
13
 70
0
 10
-7.2834744173
 20
-0.6766883083
 10
-7.2808973374
 20
-0.7158326555
 10
-7.273234021
 20
-0.7543074914
 10
-7.2606155386
 20
-0.7914547558
 10
-7.2432577126
 20
-0.8266390948
 10
-7.221457425
 20
-0.8592587279
 10
-7.1955875404
 20
-0.88875574
 10
-7.1660905282
 20
-0.9146256246
 10
-7.1334708952
 20
-0.9364259122
 10
-7.0982865562
 20
-0.9537837383
 10
-7.0611392918
 20
-0.9664022206
 10
-7.0226644559
 20
-0.974065537
 10
-6.9835201087
 20
-0.9766426169
  0
LWPOLYLINE
  5
380
100
AcDbEntity
  8
RACCORDO
100
AcDbPolyline
 62
253
  6
CONTINUOUS
 90
19
 70
0
 10
-7.4923238052
 20
-0.6855681572
 10
-7.4902929165
 20
-0.729787114
 10
-7.4845888882
 20
-0.7730184231
 10
-7.4752117201
 20
-0.8152620846
 10
-7.4620232318
 20
-0.8568348807
 10
-7.4451616037
 20
-0.8974200292
 10
-7.4250413776
 20
-0.9360671833
 10
-7.4015996865
 20
-0.9727084732
 10
-7.3748993974
 20
-1.0074117688
 10
-7.3455436527
 20
-1.0394303331
 10
-7.3134834207
 20
-1.0687063881
 10
-7.2787677332
 20
-1.095297712
 10
-7.2421468279
 20
-1.1186309016
 10
-7.203556426
 20
-1.1386470601
 10
-7.1630608064
 20
-1.1554050845
 10
-7.1216030424
 20
-1.1685082623
 10
-7.0794974918
 20
-1.1778243563
 10
-7.0364297969
 20
-1.1834856038
 10
-6.9923999576
 20
-1.1854920048
  0
LWPOLYLINE
  5
381
100
AcDbEntity
  8
RACCORDO
100
AcDbPolyline
 62
253
  6
CONTINUOUS
 90
19
 70
0
 10
-7.2923542651
 20
-0.6855605329
 10
-7.2912179028
 20
-0.7117214354
 10
-7.2878052603
 20
-0.7376810781
 10
-7.2821426216
 20
-0.7632419397
 10
-7.2742725648
 20
-0.7882120099
 10
-7.264255673
 20
-0.8123987351
 10
-7.2521721312
 20
-0.8356113159
 10
-7.2381187596
 20
-0.8576700129
 10
-7.2222021596
 20
-0.8784130323
 10
-7.2045395947
 20
-0.8976894938
 10
-7.1852674682
 20
-0.915351359
 10
-7.1645305309
 20
-0.9312668367
 10
-7.1424726961
 20
-0.9453232357
 10
-7.1192453992
 20
-0.9574169301
 10
-7.0950365105
 20
-0.9674434182
 10
-7.0700589864
 20
-0.9753147783
 10
-7.04451443
 20
-0.9809731954
 10
-7.0185881905
 20
-0.9843830543
 10
-6.992477598
 20
-0.9855224659
  0
LINE
  5
382
100
AcDbEntity
  8
RACCORDO
100
AcDbLine
 62
253
  6
CONTINUOUS
 10
-7.4923238052
 20
2.2076630528
 11
-7.4923238052
 21
-0.6855681572
  0
LINE
  5
383
100
AcDbEntity
  8
RACCORDO
100
AcDbLine
 62
253
  6
CONTINUOUS
 10
-7.2923542662
 20
2.207740683
 11
-7.2923542662
 21
-0.6855605339
  0
LINE
  5
384
100
AcDbEntity
  8
RACCORDO
100
AcDbLine
 62
253
  6
CONTINUOUS
 10
-7.2834744173
 20
2.1987832039
 11
-7.2834744173
 21
-0.6766883083
  0
LINE
  5
385
100
AcDbEntity
  8
RACCORDO
100
AcDbLine
 62
253
  6
CONTINUOUS
 10
-6.9923999576
 20
2.7075869004
 11
-6.9923999576
 21
2.5076173614
  0
LINE
  5
386
100
AcDbEntity
  8
RACCORDO
100
AcDbLine
 62
253
  6
CONTINUOUS
 10
-6.9923999576
 20
-1.1854920048
 11
-6.9923999576
 21
-0.9855224658
  0
LINE
  5
387
100
AcDbEntity
  8
RACCORDO
100
AcDbLine
 62
253
  6
CONTINUOUS
 10
-6.9835201087
 20
-0.9766426169
 11
-6.9835201087
 21
2.4987375125
  0
LINE
  5
388
100
AcDbEntity
  8
RACCORDO
100
AcDbLine
 62
253
  6
CONTINUOUS
 10
-6.6080485964
 20
-0.9766426169
 11
-6.6080485964
 21
2.4987375125
  0
LINE
  5
389
100
AcDbEntity
  8
RACCORDO
100
AcDbLine
 62
253
  6
CONTINUOUS
 10
-6.5991687475
 20
2.7075869004
 11
-6.5991687475
 21
2.5076173614
  0
LINE
  5
38A
100
AcDbEntity
  8
RACCORDO
100
AcDbLine
 62
253
  6
CONTINUOUS
 10
-6.5991687475
 20
-1.1854920048
 11
-6.5991687475
 21
-0.9855224658
  0
LWPOLYLINE
  5
38B
100
AcDbEntity
  8
RACCORDO
100
AcDbPolyline
 62
7
  6
CONTINUOUS
 90
16
 70
0
 10
-2.7575050578
 20
3.4346950123
 10
-2.7621701062
 20
3.4374139783
 10
-2.7717386271
 20
3.4400410959
 10
-2.7862106208
 20
3.4425763653
 10
-2.8058409481
 20
3.4450442581
 10
-2.830374748
 20
3.4474203025
 10
-2.8590474378
 20
3.4496310831
 10
-2.8919874179
 20
3.4516713426
 10
-2.9290662878
 20
3.4535463381
 10
-2.9691342642
 20
3.455198426
 10
-3.0122826531
 20
3.4566206213
 10
-3.0584201485
 20
3.4578199091
 10
-3.1061230483
 20
3.4587595997
 10
-3.154916785
 20
3.4594274633
 10
-3.205275926
 20
3.4598357299
 10
-4.0447213042
 20
3.4599843994
  0
LWPOLYLINE
  5
38C
100
AcDbEntity
  8
RACCORDO
100
AcDbPolyline
 62
253
  6
CONTINUOUS
 90
13
 70
0
 10
-6.3080942879
 20
2.1987832039
 10
-6.3106929377
 20
2.2380906995
 10
-6.3184230624
 20
2.2767311655
 10
-6.331155605
 20
2.3140369154
 10
-6.3486773679
 20
2.3493666045
 10
-6.3706882504
 20
2.3821029969
 10
-6.3968009014
 20
2.4116672176
 10
-6.4266275069
 20
2.4375981583
 10
-6.4595999077
 20
2.4593825282
 10
-6.4949060525
 20
2.4765460661
 10
-6.5318134466
 20
2.4888647746
 10
-6.5697439139
 20
2.4962700052
 10
-6.6080485964
 20
2.4987375125
  0
LWPOLYLINE
  5
38D
100
AcDbEntity
  8
RACCORDO
100
AcDbPolyline
 62
253
  6
CONTINUOUS
 90
19
 70
0
 10
-6.0992449
 20
2.2076630528
 10
-6.1012757886
 20
2.2518820096
 10
-6.106979817
 20
2.2951133187
 10
-6.1163569851
 20
2.3373569802
 10
-6.1295454734
 20
2.3789297763
 10
-6.1464071015
 20
2.4195149248
 10
-6.1665273275
 20
2.4581620789
 10
-6.1899690186
 20
2.4948033688
 10
-6.2166693078
 20
2.5295066644
 10
-6.2460250525
 20
2.5615252287
 10
-6.2780852845
 20
2.5908012838
 10
-6.312800972
 20
2.6173926076
 10
-6.3494218773
 20
2.6407257972
 10
-6.3880122791
 20
2.6607419557
 10
-6.4285078988
 20
2.6774999801
 10
-6.4699656628
 20
2.6906031579
 10
-6.5120712134
 20
2.6999192519
 10
-6.5551389083
 20
2.7055804994
 10
-6.5991687475
 20
2.7075869004
  0
LWPOLYLINE
  5
38E
100
AcDbEntity
  8
RACCORDO
100
AcDbPolyline
 62
253
  6
CONTINUOUS
 90
19
 70
0
 10
-6.2992144401
 20
2.2076554285
 10
-6.3003508023
 20
2.233816331
 10
-6.3037634449
 20
2.2597759737
 10
-6.3094260835
 20
2.2853368353
 10
-6.3172961404
 20
2.3103069055
 10
-6.3273130321
 20
2.3344936307
 10
-6.339396574
 20
2.3577062115
 10
-6.3534499456
 20
2.3797649086
 10
-6.3693665455
 20
2.4005079279
 10
-6.3870291105
 20
2.4197843894
 10
-6.406301237
 20
2.4374462546
 10
-6.4270381742
 20
2.4533617323
 10
-6.449096009
 20
2.4674181313
 10
-6.4723233059
 20
2.4795118258
 10
-6.4965321947
 20
2.4895383138
 10
-6.5215097188
 20
2.4974096739
 10
-6.5470542752
 20
2.503068091
 10
-6.5729805147
 20
2.50647795
 10
-6.5990911072
 20
2.5076173615
  0
LINE
  5
38F
100
AcDbEntity
  8
RACCORDO
100
AcDbLine
 62
253
  6
CONTINUOUS
 10
-6.3080942879
 20
-0.6766883083
 11
-6.3080942879
 21
2.1987832039
  0
LINE
  5
390
100
AcDbEntity
  8
RACCORDO
100
AcDbLine
 62
253
  6
CONTINUOUS
 10
-6.299214439
 20
-0.6856457874
 11
-6.299214439
 21
2.2076554295
  0
LINE
  5
391
100
AcDbEntity
  8
RACCORDO
100
AcDbLine
 62
253
  6
CONTINUOUS
 10
-6.0992449
 20
-0.6855681572
 11
-6.0992449
 21
2.2076630528
  0
LINE
  5
392
100
AcDbEntity
  8
DRAFT
100
AcDbLine
 62
7
  6
CONTINUOUS
 10
-4.0447213042
 20
-1.9378895038
 11
-3.9923135249
 21
-1.8854817245
  0
LINE
  5
393
100
AcDbEntity
  8
DRAFT
100
AcDbLine
 62
7
  6
CONTINUOUS
 10
-4.0447213042
 20
3.4599843994
 11
-3.9923135249
 21
3.4075766201
  0
LINE
  5
394
100
AcDbEntity
  8
RACCORDO
100
AcDbLine
 62
7
  6
CONTINUOUS
 10
-3.7764685258
 20
3.222901554
 11
-3.7768617317
 21
3.2284301866
  0
LWPOLYLINE
  5
395
100
AcDbEntity
  8
RACCORDO
100
AcDbPolyline
 62
7
  6
CONTINUOUS
 90
3
 70
0
 10
-3.7757428106
 20
3.1967588836
 10
-3.7760955521
 20
3.212344453
 10
-3.7764685258
 20
3.222901554
  0
LINE
  5
396
100
AcDbEntity
  8
RACCORDO
100
AcDbLine
 62
7
  6
CONTINUOUS
 10
-3.8000414279
 20
-1.6258354007
 11
-3.8002353422
 21
-1.6172955125
  0
LINE
  5
397
100
AcDbEntity
  8
ASSI
100
AcDbLine
 62
7
  6
CONTINUOUS
 10
-3.8000414279
 20
-1.6258354007
 11
-3.8002353422
 21
-1.6172955125
  0
LINE
  5
398
100
AcDbEntity
  8
RACCORDO
100
AcDbLine
 62
7
  6
CONTINUOUS
 10
-3.8002353422
 20
-1.6172955125
 11
-3.8004199855
 21
-1.6061107957
  0
LINE
  5
399
100
AcDbEntity
  8
ASSI
100
AcDbLine
 62
7
  6
CONTINUOUS
 10
-3.8002353422
 20
-1.6172955125
 11
-3.8004199855
 21
-1.6061107957
  0
LINE
  5
39A
100
AcDbEntity
  8
RACCORDO
100
AcDbLine
 62
7
  6
CONTINUOUS
 10
-3.7752264453
 20
3.1610474478
 11
-3.7757428106
 21
3.1967588836
  0
LINE
  5
39B
100
AcDbEntity
  8
RACCORDO
100
AcDbLine
 62
7
  6
CONTINUOUS
 10
-3.8027927825
 20
-1.3979176551
 11
-3.8004199855
 21
-1.6061107957
  0
LINE
  5
39C
100
AcDbEntity
  8
ASSI
100
AcDbLine
 62
7
  6
CONTINUOUS
 10
-3.8027927825
 20
-1.3979176551
 11
-3.8004199855
 21
-1.6061107957
  0
LINE
  5
39D
100
AcDbEntity
  8
RACCORDO
100
AcDbLine
 62
7
  6
CONTINUOUS
 10
-3.8057244197
 20
-0.9382414985
 11
-3.8027927825
 21
-1.3979176551
  0
LINE
  5
39E
100
AcDbEntity
  8
ASSI
100
AcDbLine
 62
7
  6
CONTINUOUS
 10
-3.8057244197
 20
-0.9382414985
 11
-3.8027927825
 21
-1.3979176551
  0
LINE
  5
39F
100
AcDbEntity
  8
RACCORDO
100
AcDbLine
 62
7
  6
CONTINUOUS
 10
-3.8062565939
 20
-1.625800569
 11
-3.8056484371
 21
-1.8792091487
  0
LINE
  5
3A0
100
AcDbEntity
  8
ASSI
100
AcDbLine
 62
7
  6
CONTINUOUS
 10
-3.8062565939
 20
-1.625800569
 11
-3.8056484371
 21
-1.8792091487
  0
LINE
  5
3A1
100
AcDbEntity
  8
DRAFT
100
AcDbLine
 62
7
  6
CONTINUOUS
 10
-4.0447213042
 20
3.4599843994
 11
-4.0447213042
 21
-1.9378895038
  0
LINE
  5
3A2
100
AcDbEntity
  8
DRAFT
100
AcDbLine
 62
7
  6
CONTINUOUS
 10
-3.9923135249
 20
3.4075766201
 11
-3.9923135249
 21
-1.8854817245
  0
LINE
  5
3A3
100
AcDbEntity
  8
RACCORDO
100
AcDbLine
 62
7
  6
CONTINUOUS
 10
-3.8062565939
 20
-1.625800569
 11
-3.8062565939
 21
-0.7585677945
  0
LINE
  5
3A4
100
AcDbEntity
  8
ASSI
100
AcDbLine
 62
7
  6
CONTINUOUS
 10
-3.8062565939
 20
-1.625800569
 11
-3.8062565939
 21
-0.7585677945
  0
LINE
  5
3A5
100
AcDbEntity
  8
DRAFT
100
AcDbLine
 62
7
  6
CONTINUOUS
 10
-3.7957843526
 20
-1.8199720004
 11
-3.7957843526
 21
-1.6389525522
  0
LINE
  5
3A6
100
AcDbEntity
  8
ASSI
100
AcDbLine
 62
7
  6
CONTINUOUS
 10
-3.7957843526
 20
-1.8199720004
 11
-3.7957843526
 21
-1.6389525522
  0
LINE
  5
3A7
100
AcDbEntity
  8
DRAFT
100
AcDbLine
 62
7
  6
CONTINUOUS
 10
-3.7957843526
 20
3.1610474478
 11
-3.7957843526
 21
3.342066896
  0
LINE
  5
3A8
100
AcDbEntity
  8
ASSI
100
AcDbLine
 62
7
  6
CONTINUOUS
 10
-3.7957843526
 20
3.1610474478
 11
-3.7957843526
 21
3.342066896
  0
LINE
  5
3A9
100
AcDbEntity
  8
RACCORDO
100
AcDbLine
 62
7
  6
CONTINUOUS
 10
-3.8057326593
 20
3.3853010016
 11
-3.8062565939
 21
2.2806626901
  0
LINE
  5
3AA
100
AcDbEntity
  8
ASSI
100
AcDbLine
 62
7
  6
CONTINUOUS
 10
-3.8057326593
 20
3.3853010016
 11
-3.8062565939
 21
2.2806626901
  0
LINE
  5
3AB
100
AcDbEntity
  8
RACCORDO
100
AcDbLine
 62
7
  6
CONTINUOUS
 10
-3.8056484371
 20
3.4013040443
 11
-3.8057326593
 21
3.3853010016
  0
LINE
  5
3AC
100
AcDbEntity
  8
ASSI
100
AcDbLine
 62
7
  6
CONTINUOUS
 10
-3.8056484371
 20
3.4013040443
 11
-3.8057326593
 21
3.3853010016
  0
LINE
  5
3AD
100
AcDbEntity
  8
RACCORDO
100
AcDbLine
 62
7
  6
CONTINUOUS
 10
-3.8027927825
 20
2.9200125507
 11
-3.8057244197
 21
2.4603363942
  0
LINE
  5
3AE
100
AcDbEntity
  8
ASSI
100
AcDbLine
 62
7
  6
CONTINUOUS
 10
-3.8027927825
 20
2.9200125507
 11
-3.8057244197
 21
2.4603363942
  0
LINE
  5
3AF
100
AcDbEntity
  8
RACCORDO
100
AcDbLine
 62
7
  6
CONTINUOUS
 10
-3.8004199855
 20
3.1282056913
 11
-3.8027927825
 21
2.9200125507
  0
LINE
  5
3B0
100
AcDbEntity
  8
ASSI
100
AcDbLine
 62
7
  6
CONTINUOUS
 10
-3.8004199855
 20
3.1282056913
 11
-3.8027927825
 21
2.9200125507
  0
LINE
  5
3B1
100
AcDbEntity
  8
RACCORDO
100
AcDbLine
 62
7
  6
CONTINUOUS
 10
-3.8004199855
 20
3.1282056913
 11
-3.8002353422
 21
3.1393904081
  0
LINE
  5
3B2
100
AcDbEntity
  8
ASSI
100
AcDbLine
 62
7
  6
CONTINUOUS
 10
-3.8004199855
 20
3.1282056913
 11
-3.8002353422
 21
3.1393904081
  0
LWPOLYLINE
  5
3B3
100
AcDbEntity
  8
RACCORDO
100
AcDbPolyline
 62
7
  6
CONTINUOUS
 90
7
 70
0
 10
-3.8002353422
 20
3.1393904081
 10
-3.8000414279
 20
3.1479302963
 10
-3.7999409496
 20
3.1512098835
 10
-3.7998393113
 20
3.153790466
 10
-3.7997368692
 20
3.1556604139
 10
-3.7996332671
 20
3.156831357
 10
-3.7995285049
 20
3.1573032955
  0
LWPOLYLINE
  5
3B4
100
AcDbEntity
  8
ASSI
100
AcDbPolyline
 62
7
  6
CONTINUOUS
 90
7
 70
0
 10
-3.8002353422
 20
3.1393904081
 10
-3.8000414279
 20
3.1479302963
 10
-3.7999409496
 20
3.1512098835
 10
-3.7998393113
 20
3.153790466
 10
-3.7997368692
 20
3.1556604139
 10
-3.7996332671
 20
3.156831357
 10
-3.7995285049
 20
3.1573032955
  0
LWPOLYLINE
  5
3B5
100
AcDbEntity
  8
RACCORDO
100
AcDbPolyline
 62
7
  6
CONTINUOUS
 90
5
 70
0
 10
-3.7768617317
 20
-1.706335291
 10
-3.7764685258
 20
-1.7008066584
 10
-3.7760955521
 20
-1.6902495574
 10
-3.7757428106
 20
-1.674663988
 10
-3.7752264453
 20
-1.6389525522
  0
LINE
  5
3B6
100
AcDbEntity
  8
RACCORDO
100
AcDbLine
 62
7
  6
CONTINUOUS
 10
-2.7636324768
 20
3.2284301866
 11
-2.7257843526
 21
3.342066896
  0
LWPOLYLINE
  5
3B7
100
AcDbEntity
  8
0
100
AcDbPolyline
 62
7
  6
CONTINUOUS
 90
22
 70
0
 10
-2.2104082256
 20
2.354893439
 10
-2.1799800596
 20
2.4030406759
 10
-2.147004237
 20
2.4461488644
 10
-2.1114807578
 20
2.4843572795
 10
-2.073154874
 20
2.517953346
 10
-2.0322813336
 20
2.5469269095
 10
-1.9896243801
 20
2.5709818159
 10
-1.9450259529
 20
2.5901990509
 10
-1.8986441126
 20
2.6047391576
 10
-1.8517172848
 20
2.6144163605
 10
-1.8042138839
 20
2.6191638544
 10
-1.7561654954
 20
2.619144322
 10
-1.708905302
 20
2.6144761904
 10
-1.662687393
 20
2.605175064
 10
-1.617257679
 20
2.5911358517
 10
-1.5731870745
 20
2.5722523317
 10
-1.5302446496
 20
2.5482212335
 10
-1.4886613342
 20
2.5190936074
 10
-1.4497008323
 20
2.4852814062
 10
-1.4137843788
 20
2.4468331855
 10
-1.3804907388
 20
2.4034179752
 10
-1.3498199123
 20
2.354893439
  0
LINE
  5
3B8
100
AcDbEntity
  8
RACCORDO
100
AcDbLine
 62
7
  6
CONTINUOUS
 10
-2.7575050578
 20
3.4346950123
 11
-2.6957843526
 21
3.342066896
  0
LWPOLYLINE
  5
3B9
100
AcDbEntity
  8
0
100
AcDbPolyline
 62
7
  6
CONTINUOUS
 90
7
 70
0
 10
-2.2104082256
 20
-0.8327985434
 10
-2.2162838439
 20
-0.8215813204
 10
-2.2211229379
 20
-0.8098570754
 10
-2.2249255073
 20
-0.7976544122
 10
-2.2276915523
 20
-0.785008849
 10
-2.2294210729
 20
-0.7719631806
 10
-2.2301140689
 20
-0.7585677945
  0
LINE
  5
3BA
100
AcDbEntity
  8
RACCORDO
100
AcDbLine
 62
7
  6
CONTINUOUS
 10
-2.7636324768
 20
-1.706335291
 11
-2.7257843526
 21
-1.8199720004
  0
LWPOLYLINE
  5
3BB
100
AcDbEntity
  8
RACCORDO
100
AcDbPolyline
 62
7
  6
CONTINUOUS
 90
6
 70
0
 10
-3.7995285049
 20
-1.6352083999
 10
-3.7996332671
 20
-1.6347364614
 10
-3.7997368692
 20
-1.6335655182
 10
-3.7998393113
 20
-1.6316955704
 10
-3.7999409496
 20
-1.6291149879
 10
-3.8000414279
 20
-1.6258354007
  0
LWPOLYLINE
  5
3BC
100
AcDbEntity
  8
ASSI
100
AcDbPolyline
 62
7
  6
CONTINUOUS
 90
6
 70
0
 10
-3.7995285049
 20
-1.6352083999
 10
-3.7996332671
 20
-1.6347364614
 10
-3.7997368692
 20
-1.6335655182
 10
-3.7998393113
 20
-1.6316955704
 10
-3.7999409496
 20
-1.6291149879
 10
-3.8000414279
 20
-1.6258354007
  0
LINE
  5
3BD
100
AcDbEntity
  8
RACCORDO
100
AcDbLine
 62
7
  6
CONTINUOUS
 10
-3.8066929373
 20
3.4075766201
 11
-3.7768617317
 21
3.2284301866
  0
LWPOLYLINE
  5
3BE
100
AcDbEntity
  8
RACCORDO
100
AcDbPolyline
 62
7
  6
CONTINUOUS
 90
16
 70
0
 10
-2.6957843526
 20
3.9114129516
 10
-2.6993729821
 20
3.9752752065
 10
-2.7091683777
 20
4.0371065542
 10
-2.7251705392
 20
4.0969069946
 10
-2.7476891087
 20
4.155280785
 10
-2.7764144442
 20
4.2116236682
 10
-2.8104176196
 20
4.2641228723
 10
-2.8498687011
 20
4.3126533958
 10
-2.8945976225
 20
4.3573402403
 10
-2.9431652596
 20
4.3967456386
 10
-2.9957173491
 20
4.430699397
 10
-3.0521081543
 20
4.4593717092
 10
-3.1104613403
 20
4.481835389
 10
-3.1701514623
 20
4.4977813744
 10
-3.2318039651
 20
4.5075187273
 10
-3.2954188488
 20
4.5110474478
  0
LWPOLYLINE
  5
3BF
100
AcDbEntity
  8
RACCORDO
100
AcDbPolyline
 62
253
  6
CONTINUOUS
 90
19
 70
0
 10
-3.2572004713
 20
3.8496922463
 10
-3.257590512
 20
3.8584498245
 10
-3.258713628
 20
3.8670303746
 10
-3.2605698194
 20
3.8754338966
 10
-3.2631833195
 20
3.8837266104
 10
-3.2665298949
 20
3.8918422961
 10
-3.2705368454
 20
3.8995822944
 10
-3.2752189266
 20
3.9069336992
 10
-3.2805613828
 20
3.9139094165
 10
-3.2864472474
 20
3.9203495052
 10
-3.2928930748
 20
3.9262431692
 10
-3.2998823106
 20
3.9316012046
 10
-3.3072483239
 20
3.9362960591
 10
-3.315005346
 20
3.9403093618
 10
-3.3231391455
 20
3.9436594836
 10
-3.3314403986
 20
3.9462739852
 10
-3.3398393303
 20
3.94812872
 10
-3.3484057155
 20
3.9492478347
 10
-3.357139554
 20
3.949631329
  0
LWPOLYLINE
  5
3C0
100
AcDbEntity
  8
RACCORDO
100
AcDbPolyline
 62
253
  6
CONTINUOUS
 90
19
 70
0
 10
-2.7575050578
 20
3.8496922463
 10
-2.7598367122
 20
3.9019238831
 10
-2.7667082295
 20
3.9537574816
 10
-2.7780673023
 20
4.0047992384
 10
-2.7938274785
 20
4.0546613608
 10
-2.8138689721
 20
4.1029650194
 10
-2.8380396077
 20
4.1493432118
 10
-2.8661557504
 20
4.1934435968
 10
-2.8980036887
 20
4.2349310309
 10
-2.9333414132
 20
4.2734901269
 10
-2.971900379
 20
4.30882781
 10
-3.0133875771
 20
4.3406756592
 10
-3.0574877843
 20
4.3687917821
 10
-3.1038659458
 20
4.3929624754
 10
-3.1521696625
 20
4.4130040496
 10
-3.2020319012
 20
4.4287643151
 10
-3.2530738209
 20
4.4401234737
 10
-3.3049076408
 20
4.446995057
 10
-3.357139554
 20
4.4493267426
  0
LWPOLYLINE
  5
3C1
100
AcDbEntity
  8
RACCORDO
100
AcDbPolyline
 62
7
  6
CONTINUOUS
 90
5
 70
0
 10
-2.7665455758
 20
-1.653639368
 10
-2.7658706118
 20
-1.6746607576
 10
-2.7651650472
 20
-1.6902475479
 10
-2.7644190022
 20
-1.7008057257
 10
-2.7636324768
 20
-1.706335291
  0
LINE
  5
3C2
100
AcDbEntity
  8
RACCORDO
100
AcDbLine
 62
7
  6
CONTINUOUS
 10
-2.7669032934
 20
-1.6389525522
 11
-2.7665455758
 21
-1.653639368
  0
LINE
  5
3C3
100
AcDbEntity
  8
RACCORDO
100
AcDbLine
 62
253
  6
CONTINUOUS
 10
-3.357139554
 20
3.949631329
 11
-3.357139554
 21
4.4493267426
  0
LINE
  5
3C4
100
AcDbEntity
  8
RACCORDO
100
AcDbLine
 62
253
  6
CONTINUOUS
 10
-3.357139554
 20
-2.4275364334
 11
-3.3571395605
 21
-2.9272318469
  0
LINE
  5
3C5
100
AcDbEntity
  8
RACCORDO
100
AcDbLine
 62
253
  6
CONTINUOUS
 10
-3.2572004713
 20
-2.3275973507
 11
-3.2572004713
 21
-1.9378895038
  0
LINE
  5
3C6
100
AcDbEntity
  8
RACCORDO
100
AcDbLine
 62
253
  6
CONTINUOUS
 10
-3.2572004713
 20
3.4599843994
 11
-3.2572004713
 21
3.8496922463
  0
LINE
  5
3C7
100
AcDbEntity
  8
RACCORDO
100
AcDbLine
 62
253
  6
CONTINUOUS
 10
-2.7575050578
 20
-2.3275973507
 11
-2.7575050578
 21
-1.9126001167
  0
LINE
  5
3C8
100
AcDbEntity
  8
RACCORDO
100
AcDbLine
 62
253
  6
CONTINUOUS
 10
-2.7575050578
 20
3.4346950123
 11
-2.7575050578
 21
3.8496922463
  0
LINE
  5
3C9
100
AcDbEntity
  8
RACCORDO
100
AcDbLine
 62
7
  6
CONTINUOUS
 10
-2.6957843526
 20
3.9114129516
 11
-2.6957843526
 21
3.342066896
  0
LINE
  5
3CA
100
AcDbEntity
  8
RACCORDO
100
AcDbLine
 62
7
  6
CONTINUOUS
 10
-2.6957843526
 20
-1.8199720004
 11
-2.6957843526
 21
-2.389318056
  0
LINE
  5
3CB
100
AcDbEntity
  8
0
100
AcDbLine
 62
7
  6
CONTINUOUS
 10
-2.2301140689
 20
-0.7585677945
 11
-2.2301140689
 21
2.2806626901
  0
LWPOLYLINE
  5
3CC
100
AcDbEntity
  8
0
100
AcDbPolyline
 62
7
  6
CONTINUOUS
 90
7
 70
0
 10
-2.2301140689
 20
2.2806626901
 10
-2.2294285418
 20
2.2940299692
 10
-2.2277035026
 20
2.3070590672
 10
-2.2249389514
 20
2.319699578
 10
-2.2211348882
 20
2.3319084046
 10
-2.2162913129
 20
2.3436494799
 10
-2.2104082256
 20
2.354893439
  0
LWPOLYLINE
  5
3CD
100
AcDbEntity
  8
RACCORDO
100
AcDbPolyline
 62
7
  6
CONTINUOUS
 90
6
 70
0
 10
-2.7636324768
 20
3.2284301866
 10
-2.7644190022
 20
3.2229006213
 10
-2.7651650472
 20
3.2123424435
 10
-2.7658706118
 20
3.1967556532
 10
-2.7665455758
 20
3.1757342636
 10
-2.7669032934
 20
3.1610474478
  0
LINE
  5
3CE
100
AcDbEntity
  8
RACCORDO
100
AcDbLine
 62
7
  6
CONTINUOUS
 10
-3.8066929373
 20
-1.8854817245
 11
-3.7768617317
 21
-1.706335291
  0
LWPOLYLINE
  5
3CF
100
AcDbEntity
  8
0
100
AcDbPolyline
 62
7
  6
CONTINUOUS
 90
22
 70
0
 10
-1.3498199123
 20
-0.8327985434
 10
-1.3803559184
 20
-0.8810821659
 10
-1.4134331671
 20
-0.9242882972
 10
-1.4490516583
 20
-0.962557824
 10
-1.4874992802
 20
-0.99617914
 10
-1.5284881447
 20
-1.0251441055
 10
-1.5711545878
 20
-1.0491594859
 10
-1.6154956549
 20
-1.068294841
 10
-1.6615143006
 20
-1.0827235628
 10
-1.7083557243
 20
-1.0922978421
 10
-1.756357871
 20
-1.0969672242
 10
-1.8051827956
 20
-1.0968765947
 10
-1.8529618625
 20
-1.0921304619
 10
-1.89917727
 20
-1.082726293
 10
-1.9443468198
 20
-1.0685757848
 10
-1.988155281
 20
-1.049611869
 10
-2.0309192247
 20
-1.0255367464
 10
-2.0723220798
 20
-0.9963974556
 10
-2.1110989019
 20
-0.9626330701
 10
-2.1468280428
 20
-0.9243033854
 10
-2.1799311507
 20
-0.8810717012
 10
-2.2104082256
 20
-0.8327985434
  0
LINE
  5
3D0
100
AcDbEntity
  8
RACCORDO
100
AcDbLine
 62
7
  6
CONTINUOUS
 10
-2.7575050578
 20
-1.9126001167
 11
-2.6957843526
 21
-1.8199720004
  0
LWPOLYLINE
  5
3D1
100
AcDbEntity
  8
0
100
AcDbPolyline
 62
7
  6
CONTINUOUS
 90
7
 70
0
 10
-1.3498199123
 20
2.354893439
 10
-1.3439202465
 20
2.3435900038
 10
-1.339066724
 20
2.3318114866
 10
-1.3352593451
 20
2.3195889502
 10
-1.3324981096
 20
2.3069596823
 10
-1.3307830175
 20
2.293967447
 10
-1.3301140689
 20
2.2806626901
  0
LWPOLYLINE
  5
3D2
100
AcDbEntity
  8
RACCORDO
100
AcDbPolyline
 62
7
  6
CONTINUOUS
 90
6
 70
0
 10
-0.8000414279
 20
-1.6258354007
 10
-0.7999409496
 20
-1.6291149879
 10
-0.7998393113
 20
-1.6316955704
 10
-0.7997368692
 20
-1.6335655182
 10
-0.7996332671
 20
-1.6347364614
 10
-0.7995285049
 20
-1.6352083999
  0
LWPOLYLINE
  5
3D3
100
AcDbEntity
  8
ASSI
100
AcDbPolyline
 62
7
  6
CONTINUOUS
 90
6
 70
0
 10
-0.8000414279
 20
-1.6258354007
 10
-0.7999409496
 20
-1.6291149879
 10
-0.7998393113
 20
-1.6316955704
 10
-0.7997368692
 20
-1.6335655182
 10
-0.7996332671
 20
-1.6347364614
 10
-0.7995285049
 20
-1.6352083999
  0
LINE
  5
3D4
100
AcDbEntity
  8
RACCORDO
100
AcDbLine
 62
7
  6
CONTINUOUS
 10
-0.8002353422
 20
-1.6172955125
 11
-0.8000414279
 21
-1.6258354007
  0
LINE
  5
3D5
100
AcDbEntity
  8
ASSI
100
AcDbLine
 62
7
  6
CONTINUOUS
 10
-0.8002353422
 20
-1.6172955125
 11
-0.8000414279
 21
-1.6258354007
  0
LINE
  5
3D6
100
AcDbEntity
  8
RACCORDO
100
AcDbLine
 62
7
  6
CONTINUOUS
 10
-0.8004199855
 20
-1.6061107957
 11
-0.8002353422
 21
-1.6172955125
  0
LINE
  5
3D7
100
AcDbEntity
  8
ASSI
100
AcDbLine
 62
7
  6
CONTINUOUS
 10
-0.8004199855
 20
-1.6061107957
 11
-0.8002353422
 21
-1.6172955125
  0
LINE
  5
3D8
100
AcDbEntity
  8
RACCORDO
100
AcDbLine
 62
7
  6
CONTINUOUS
 10
-0.8027927727
 20
-1.3979187331
 11
-0.8004199855
 21
-1.6061107957
  0
LINE
  5
3D9
100
AcDbEntity
  8
ASSI
100
AcDbLine
 62
7
  6
CONTINUOUS
 10
-0.8027927727
 20
-1.3979187331
 11
-0.8004199855
 21
-1.6061107957
  0
LINE
  5
3DA
100
AcDbEntity
  8
RACCORDO
100
AcDbLine
 62
7
  6
CONTINUOUS
 10
-0.8057244092
 20
-0.9382433492
 11
-0.8027927727
 21
-1.3979187331
  0
LINE
  5
3DB
100
AcDbEntity
  8
ASSI
100
AcDbLine
 62
7
  6
CONTINUOUS
 10
-0.8057244092
 20
-0.9382433492
 11
-0.8027927727
 21
-1.3979187331
  0
LINE
  5
3DC
100
AcDbEntity
  8
0
100
AcDbLine
 62
7
  6
CONTINUOUS
 10
-1.3301140689
 20
-0.7585677945
 11
-1.3301140689
 21
2.2806626901
  0
LINE
  5
3DD
100
AcDbEntity
  8
DRAFT
100
AcDbLine
 62
7
  6
CONTINUOUS
 10
-0.7983937978
 20
0.8396285387
 11
-0.7983937978
 21
0.6824663569
  0
LINE
  5
3DE
100
AcDbEntity
  8
ASSI
100
AcDbLine
 62
7
  6
CONTINUOUS
 10
-0.7983937978
 20
0.8396285387
 11
-0.7983937978
 21
0.6824663569
  0
LINE
  5
3DF
100
AcDbEntity
  8
DRAFT
100
AcDbLine
 62
7
  6
CONTINUOUS
 10
-0.7957843526
 20
-1.6389525522
 11
-0.7957843526
 21
-1.2963691012
  0
LINE
  5
3E0
100
AcDbEntity
  8
ASSI
100
AcDbLine
 62
7
  6
CONTINUOUS
 10
-0.7957843526
 20
-1.6389525522
 11
-0.7957843526
 21
-1.2963691012
  0
LINE
  5
3E1
100
AcDbEntity
  8
DRAFT
100
AcDbLine
 62
7
  6
CONTINUOUS
 10
-0.7957843526
 20
2.8184639968
 11
-0.7957843526
 21
3.1610474478
  0
LINE
  5
3E2
100
AcDbEntity
  8
ASSI
100
AcDbLine
 62
7
  6
CONTINUOUS
 10
-0.7957843526
 20
2.8184639968
 11
-0.7957843526
 21
3.1610474478
  0
LINE
  5
3E3
100
AcDbEntity
  8
RACCORDO
100
AcDbLine
 62
7
  6
CONTINUOUS
 10
-0.8057244092
 20
-0.9382433492
 11
-0.8062550139
 21
2.2891345882
  0
LINE
  5
3E4
100
AcDbEntity
  8
ASSI
100
AcDbLine
 62
7
  6
CONTINUOUS
 10
-0.8057244092
 20
-0.9382433492
 11
-0.8062550139
 21
2.2891345882
  0
LINE
  5
3E5
100
AcDbEntity
  8
RACCORDO
100
AcDbLine
 62
7
  6
CONTINUOUS
 10
-0.8052572899
 20
2.5612798077
 11
-0.8062550139
 21
2.2891345882
  0
LINE
  5
3E6
100
AcDbEntity
  8
ASSI
100
AcDbLine
 62
7
  6
CONTINUOUS
 10
-0.8052572899
 20
2.5612798077
 11
-0.8062550139
 21
2.2891345882
  0
LINE
  5
3E7
100
AcDbEntity
  8
RACCORDO
100
AcDbLine
 62
7
  6
CONTINUOUS
 10
-0.8027927727
 20
2.9200136287
 11
-0.8052572899
 21
2.5612798077
  0
LINE
  5
3E8
100
AcDbEntity
  8
ASSI
100
AcDbLine
 62
7
  6
CONTINUOUS
 10
-0.8027927727
 20
2.9200136287
 11
-0.8052572899
 21
2.5612798077
  0
LINE
  5
3E9
100
AcDbEntity
  8
RACCORDO
100
AcDbLine
 62
7
  6
CONTINUOUS
 10
-0.8004199855
 20
3.1282056913
 11
-0.8027927727
 21
2.9200136287
  0
LINE
  5
3EA
100
AcDbEntity
  8
ASSI
100
AcDbLine
 62
7
  6
CONTINUOUS
 10
-0.8004199855
 20
3.1282056913
 11
-0.8027927727
 21
2.9200136287
  0
LINE
  5
3EB
100
AcDbEntity
  8
RACCORDO
100
AcDbLine
 62
7
  6
CONTINUOUS
 10
-0.8002353422
 20
3.1393904081
 11
-0.8004199855
 21
3.1282056913
  0
LINE
  5
3EC
100
AcDbEntity
  8
ASSI
100
AcDbLine
 62
7
  6
CONTINUOUS
 10
-0.8002353422
 20
3.1393904081
 11
-0.8004199855
 21
3.1282056913
  0
LWPOLYLINE
  5
3ED
100
AcDbEntity
  8
0
100
AcDbPolyline
 62
7
  6
CONTINUOUS
 90
7
 70
0
 10
-1.3301140689
 20
-0.7585677945
 10
-1.3307861012
 20
-0.7718841949
 10
-1.3325030435
 20
-0.7848832956
 10
-1.3352648958
 20
-0.7975146576
 10
-1.339071658
 20
-0.8097346409
 10
-1.3439233302
 20
-0.8215061848
 10
-1.3498199123
 20
-0.8327985434
  0
LWPOLYLINE
  5
3EE
100
AcDbEntity
  8
RACCORDO
100
AcDbPolyline
 62
7
  6
CONTINUOUS
 90
7
 70
0
 10
-0.7995285049
 20
3.1573032955
 10
-0.7996332671
 20
3.156831357
 10
-0.7997368692
 20
3.1556604139
 10
-0.7998393113
 20
3.153790466
 10
-0.7999409496
 20
3.1512098835
 10
-0.8000414279
 20
3.1479302963
 10
-0.8002353422
 20
3.1393904081
  0
LWPOLYLINE
  5
3EF
100
AcDbEntity
  8
ASSI
100
AcDbPolyline
 62
7
  6
CONTINUOUS
 90
7
 70
0
 10
-0.7995285049
 20
3.1573032955
 10
-0.7996332671
 20
3.156831357
 10
-0.7997368692
 20
3.1556604139
 10
-0.7998393113
 20
3.153790466
 10
-0.7999409496
 20
3.1512098835
 10
-0.8000414279
 20
3.1479302963
 10
-0.8002353422
 20
3.1393904081
  0
LINE
  5
3F0
100
AcDbEntity
  8
0
100
AcDbLine
 62
7
  6
CONTINUOUS
 10
6.1929149545
 20
-0.9889525522
 11
6.1929149545
 21
0.5110474478
  0
LINE
  5
3F1
100
AcDbEntity
  8
0
100
AcDbLine
 62
7
  6
CONTINUOUS
 10
6.1929149545
 20
1.0110474478
 11
6.1929149545
 21
2.5110474478
  0
LINE
  5
3F2
100
AcDbEntity
  8
0
100
AcDbLine
 62
7
  6
CONTINUOUS
 10
9.1931169545
 20
2.5110474478
 11
9.1931169545
 21
1.0110474478
  0
LINE
  5
3F3
100
AcDbEntity
  8
0
100
AcDbLine
 62
7
  6
CONTINUOUS
 10
9.1931169545
 20
0.5110474478
 11
9.1931169545
 21
-0.9889525522
  0
LINE
  5
3F4
100
AcDbEntity
  8
0
100
AcDbLine
 62
7
  6
CONTINUOUS
 10
15.3041376464
 20
2.5110474478
 11
15.3041376464
 21
1.0110474478
  0
LINE
  5
3F5
100
AcDbEntity
  8
0
100
AcDbLine
 62
7
  6
CONTINUOUS
 10
15.3041376464
 20
0.5110474478
 11
15.3041376464
 21
-0.9889525522
  0
LINE
  5
3F6
100
AcDbEntity
  8
0
100
AcDbLine
 62
7
  6
CONTINUOUS
 10
9.1931169545
 20
-0.9889525522
 11
15.3041376464
 21
-0.9889525522
  0
LINE
  5
3F7
100
AcDbEntity
  8
0
100
AcDbLine
 62
7
  6
CONTINUOUS
 10
15.3041376464
 20
-0.6389525522
 11
25.3041376464
 21
-0.6389525522
  0
LINE
  5
3F8
100
AcDbEntity
  8
0
100
AcDbLine
 62
7
  6
CONTINUOUS
 10
15.3041376464
 20
0.1610474478
 11
25.3041376464
 21
0.1610474478
  0
LINE
  5
3F9
100
AcDbEntity
  8
0
100
AcDbLine
 62
7
  6
CONTINUOUS
 10
9.1931169545
 20
0.5110474478
 11
15.3041376464
 21
0.5110474478
  0
LINE
  5
3FA
100
AcDbEntity
  8
0
100
AcDbLine
 62
7
  6
CONTINUOUS
 10
9.1931169545
 20
1.0110474478
 11
15.3041376464
 21
1.0110474478
  0
LINE
  5
3FB
100
AcDbEntity
  8
0
100
AcDbLine
 62
7
  6
CONTINUOUS
 10
15.3041376464
 20
1.3610474478
 11
25.3041376464
 21
1.3610474478
  0
LINE
  5
3FC
100
AcDbEntity
  8
0
100
AcDbLine
 62
7
  6
CONTINUOUS
 10
15.3041376464
 20
2.1610474478
 11
25.3041376464
 21
2.1610474478
  0
LINE
  5
3FD
100
AcDbEntity
  8
0
100
AcDbLine
 62
7
  6
CONTINUOUS
 10
9.1931169545
 20
2.5110474478
 11
15.3041376464
 21
2.5110474478
  0
LINE
  5
3FE
100
AcDbEntity
  8
0
100
AcDbLine
 62
7
  6
CONTINUOUS
 10
25.3041376464
 20
2.1610474478
 11
25.3041376464
 21
1.3610474478
  0
LINE
  5
3FF
100
AcDbEntity
  8
0
100
AcDbLine
 62
7
  6
CONTINUOUS
 10
25.3041376464
 20
0.1610474478
 11
25.3041376464
 21
-0.6389525522
  0
ENDSEC
  0
SECTION
  2
OBJECTS
  0
DICTIONARY
  5
C
100
AcDbDictionary
280
0
281
1
  3
ACAD_GROUP
350
D
  3
ACAD_MLINESTYLE
350
17
  3
ACAD_LAYOUT
350
1A
  3
ACAD_PLOTSETTINGS
350
19
  3
ACAD_PLOTSTYLENAME
350
E
  0
DICTIONARY
  5
D
102
{ACAD_REACTORS
330
C
102
}
100
AcDbDictionary
280
0
281
1
  0
ACDBDICTIONARYWDFLT
  5
E
102
{ACAD_REACTORS
330
C
102
}
100
AcDbDictionary
281
1
  3
Normal
350
F
100
AcDbDictionaryWithDefault
340
F
  0
DICTIONARY
  5
17
102
{ACAD_REACTORS
330
C
102
}
100
AcDbDictionary
280
0
281
1
  3
Standard
350
18
  0
DICTIONARY
  5
19
102
{ACAD_REACTORS
330
C
102
}
100
AcDbDictionary
281
1
  0
DICTIONARY
  5
1A
102
{ACAD_REACTORS
330
C
102
}
100
AcDbDictionary
281
1
  3
Model
350
400
  3
Layout1
350
401
  0
ACDBPLACEHOLDER
  5
F
102
{ACAD_REACTORS
330
E
102
}
  0
MLINESTYLE
  5
18
102
{ACAD_REACTORS
330
17
102
}
100
AcDbMlineStyle
  2
STANDARD
 70
0
  3

 62
256
 51
90.0
 52
90.0
 71
2
 49
0.5
 62
256
  6
BYLAYER
 49
-0.5
 62
256
  6
BYLAYER
  0
LAYOUT
  5
400
102
{ACAD_REACTORS
330
1A
102
}
100
AcDbPlotSettings
  1

  2
none_device
  4
ISO_A4_(297.00_x_210.00_MM)
  6

 40
0.0
 41
0.0
 42
0.0
 43
0.0
 44
297.0
 45
210.0
 46
0.0
 47
0.0
 48
0.0
 49
0.0
140
0.0
141
0.0
142
1.0
143
1.0
 70
1024
 72
1
 73
0
 74
0
  7

 75
0
147
1.0
148
0.0
149
0.0
100
AcDbLayout
  1
Model
 70
0
 71
0
 10
0.0
 20
0.0
 11
297.0
 21
210.0
 12
0.0
 22
0.0
 32
0.0
 14
0.0
 24
0.0
 34
0.0
 15
0.0
 25
0.0
 35
0.0
146
0.0
 13
0.0
 23
0.0
 33
0.0
 16
1.0
 26
0.0
 36
0.0
 17
0.0
 27
1.0
 37
0.0
 76
0
330
212
345
0
346
0
  0
LAYOUT
  5
401
102
{ACAD_REACTORS
330
1A
102
}
100
AcDbPlotSettings
  1

  2
none_device
  4
ISO_A4_(297.00_x_210.00_MM)
  6

 40
0.0
 41
0.0
 42
0.0
 43
0.0
 44
297.0
 45
210.0
 46
0.0
 47
0.0
 48
0.0
 49
0.0
140
0.0
141
0.0
142
1.0
143
1.0
 70
0
 72
1
 73
0
 74
0
  7

 75
0
147
1.0
148
0.0
149
0.0
100
AcDbLayout
  1
Layout1
 70
0
 71
1
 10
0.0
 20
0.0
 11
297.0
 21
210.0
 12
0.0
 22
0.0
 32
0.0
 14
0.0
 24
0.0
 34
0.0
 15
0.0
 25
0.0
 35
0.0
146
0.0
 13
0.0
 23
0.0
 33
0.0
 16
1.0
 26
0.0
 36
0.0
 17
0.0
 27
1.0
 37
0.0
 76
0
330
213
345
0
346
0
  0
ENDSEC
  0
EOF
