  0
SECTION
  2
HEADER
  9
$ACADVER
  1
AC1021
  9
$DWGCODEPAGE
  3
ANSI_1252
  9
$EXTMAX
 10
297.0
 20
210.0
 30
0.0
  9
$EXTMIN
 10
0.0
 20
0.0
 30
0.0
  9
$LIMMIN
 10
0.0
 20
0.0
  9
$LIMMAX
 10
297.0
 20
210.0
  9
$VIEWCTR
 10
148.5
 20
105.0
  9
$VIEWSIZE
 40
210.0
  9
$CLAYER
  8
0
  9
$LTSCALE
 40
16.335
  9
$CELTYPE
  6
BYLAYER
  9
$DIMSCALE
 40
1.0
  9
$DIMASZ
 40
3.0
  9
$DIMEXO
 40
0.5
  9
$DIMDLI
 40
11.286
  9
$DIMEXE
 40
1.5
  9
$DIMCEN
 40
2.673
  9
$DIMLFAC
 40
1.0
  9
$DIMBLK
  1
_FILLED
  9
$DIMALT
 70
0
  9
$DIMALTF
 40
0.0393700787
  9
$DIMTXT
 40
3.0
  9
$DIMTOL
 70
1
  9
$DIMLIM
 70
0
  9
$DIMTFAC
 40
1.0
  9
$DIMTP
 40
0.01
  9
$DIMTM
 40
0.01
  9
$DIMGAP
 40
0.625
  9
$DIMDSEP
 70
44
  9
$AUNITS
 70
0
  9
$PDMODE
 70
3
  9
$PDSIZE
 40
3.0
  9
$HANDSEED
  5
6D7
  9
$TILEMODE
 70
1
  9
$MEASUREMENT
 70
1
  9
$INSUNITS
 70
4
  0
ENDSEC
  0
SECTION
  2
CLASSES
  0
CLASS
  1
ACDBDICTIONARYWDFLT
  2
AcDbDictionaryWithDefault
  3
AutoCAD 2000
 90
0
 91
1
280
0
281
0
  0
CLASS
  1
ACDBPLACEHOLDER
  2
AcDbPlaceHolder
  3
AutoCAD 2000
 90
0
 91
1
280
0
281
0
  0
CLASS
  1
LAYOUT
  2
AcDbLayout
  3
AutoCAD 2000
 90
0
 91
0
280
0
281
0
  0
ENDSEC
  0
SECTION
  2
TABLES
  0
TABLE
  2
VPORT
  5
8
100
AcDbSymbolTable
 70
2
  0
VPORT
  5
1F4
100
AcDbSymbolTableRecord
100
AcDbViewportTableRecord
  2
*ACTIVE
 70
0
 10
0.0
 20
0.0
 11
1.0
 21
1.0
 12
148.5
 22
105.0
 13
0.0
 23
0.0
 14
1.0
 24
1.0
 15
0.0
 25
0.0
 16
0.0
 26
0.0
 36
1.0
 17
0.0
 27
0.0
 37
0.0
 40
210.0
 41
1.4142857143
 42
50.0
 43
0.0
 44
0.0
 50
0.0
 51
0.0
 71
0
 72
100
 73
1
 74
1
 75
0
 76
0
 77
0
 78
0
  0
ENDTAB
  0
TABLE
  2
LTYPE
  5
5
100
AcDbSymbolTable
 70
6
  0
LTYPE
  5
14
100
AcDbSymbolTableRecord
100
AcDbLinetypeTableRecord
  2
BYBLOCK
 70
0
  3

 72
65
 73
0
 40
0.0
  0
LTYPE
  5
15
100
AcDbSymbolTableRecord
100
AcDbLinetypeTableRecord
  2
BYLAYER
 70
0
  3

 72
65
 73
0
 40
0.0
  0
LTYPE
  5
16
100
AcDbSymbolTableRecord
100
AcDbLinetypeTableRecord
  2
CONTINUOUS
 70
64
  3
Solid line
 72
65
 73
0
 40
0.0
  0
LTYPE
  5
1F5
100
AcDbSymbolTableRecord
100
AcDbLinetypeTableRecord
  2
CENTER
 70
64
  3
____ _ ____ _ ____ _ ____ _ ____ _ ____ _ ____
 72
65
 73
4
 40
0.6
 49
0.375
 74
0
 49
-0.075
 74
0
 49
0.075
 74
0
 49
-0.075
 74
0
  0
LTYPE
  5
1F6
100
AcDbSymbolTableRecord
100
AcDbLinetypeTableRecord
  2
HIDDEN
 70
64
  3
- - - - - - - - - - - - - - - - - - - -
 72
65
 73
2
 40
0.2
 49
0.1
 74
0
 49
-0.1
 74
0
  0
LTYPE
  5
1F7
100
AcDbSymbolTableRecord
100
AcDbLinetypeTableRecord
  2
PHANTOM
 70
64
  3
_____ _ _ _____ _ _ _____ _ _ _____
 72
65
 73
6
 40
0.8
 49
0.45
 74
0
 49
-0.05
 74
0
 49
0.1
 74
0
 49
-0.05
 74
0
 49
0.1
 74
0
 49
-0.05
 74
0
  0
LTYPE
  5
1F8
100
AcDbSymbolTableRecord
100
AcDbLinetypeTableRecord
  2
DOT
 70
64
  3
. . . . . . . . . . . . . . . . . . . .
 72
65
 73
2
 40
0.2
 49
0.1
 74
0
 49
-0.1
 74
0
  0
LTYPE
  5
1F9
100
AcDbSymbolTableRecord
100
AcDbLinetypeTableRecord
  2
DASHED
 70
64
  3
- - - - - - - - - - - - - - - - - - - -
 72
65
 73
2
 40
0.2
 49
0.1
 74
0
 49
-0.1
 74
0
  0
ENDTAB
  0
TABLE
  2
LAYER
  5
2
100
AcDbSymbolTable
 70
36
  0
LAYER
  5
10
100
AcDbSymbolTableRecord
100
AcDbLayerTableRecord
  2
0
 70
0
 62
7
  6
CONTINUOUS
370
-3
390
F
  0
LAYER
  5
1FA
100
AcDbSymbolTableRecord
100
AcDbLayerTableRecord
  2
DEFAULT_1
 70
0
 62
7
  6
CENTER
370
-3
390
F
  0
LAYER
  5
1FB
100
AcDbSymbolTableRecord
100
AcDbLayerTableRecord
  2
DEFAULT_2
 70
0
 62
7
  6
HIDDEN
370
-3
390
F
  0
LAYER
  5
1FC
100
AcDbSymbolTableRecord
100
AcDbLayerTableRecord
  2
DEFAULT_3
 70
0
 62
7
  6
PHANTOM
370
-3
390
F
  0
LAYER
  5
1FD
100
AcDbSymbolTableRecord
100
AcDbLayerTableRecord
  2
ASSI
 70
0
 62
7
  6
CONTINUOUS
370
-3
390
F
  0
LAYER
  5
1FE
100
AcDbSymbolTableRecord
100
AcDbLayerTableRecord
  2
COLOR5
 70
0
 62
7
  6
CONTINUOUS
370
-3
390
F
  0
LAYER
  5
1FF
100
AcDbSymbolTableRecord
100
AcDbLayerTableRecord
  2
COORDINATE
 70
0
 62
7
  6
CONTINUOUS
370
-3
390
F
  0
LAYER
  5
200
100
AcDbSymbolTableRecord
100
AcDbLayerTableRecord
  2
COORD_ORIGINE
 70
0
 62
7
  6
CONTINUOUS
370
-3
390
F
  0
LAYER
  5
201
100
AcDbSymbolTableRecord
100
AcDbLayerTableRecord
  2
COSMETICHE
 70
0
 62
7
  6
CONTINUOUS
370
-3
390
F
  0
LAYER
  5
202
100
AcDbSymbolTableRecord
100
AcDbLayerTableRecord
  2
CURVE
 70
0
 62
7
  6
CONTINUOUS
370
-3
390
F
  0
LAYER
  5
203
100
AcDbSymbolTableRecord
100
AcDbLayerTableRecord
  2
DRAFT
 70
0
 62
7
  6
CONTINUOUS
370
-3
390
F
  0
LAYER
  5
204
100
AcDbSymbolTableRecord
100
AcDbLayerTableRecord
  2
IMPORT_IGES
 70
0
 62
7
  6
CONTINUOUS
370
-3
390
F
  0
LAYER
  5
205
100
AcDbSymbolTableRecord
100
AcDbLayerTableRecord
  2
INTF_1
 70
0
 62
7
  6
CONTINUOUS
370
-3
390
F
  0
LAYER
  5
206
100
AcDbSymbolTableRecord
100
AcDbLayerTableRecord
  2
INTF_2
 70
0
 62
7
  6
CONTINUOUS
370
-3
390
F
  0
LAYER
  5
207
100
AcDbSymbolTableRecord
100
AcDbLayerTableRecord
  2
NOTE
 70
0
 62
7
  6
CONTINUOUS
370
-3
390
F
  0
LAYER
  5
208
100
AcDbSymbolTableRecord
100
AcDbLayerTableRecord
  2
PIANI
 70
0
 62
7
  6
CONTINUOUS
370
-3
390
F
  0
LAYER
  5
209
100
AcDbSymbolTableRecord
100
AcDbLayerTableRecord
  2
PIANI_ASSIEME
 70
0
 62
7
  6
CONTINUOUS
370
-3
390
F
  0
LAYER
  5
20A
100
AcDbSymbolTableRecord
100
AcDbLayerTableRecord
  2
PIANI_ORIGINE
 70
0
 62
7
  6
CONTINUOUS
370
-3
390
F
  0
LAYER
  5
20B
100
AcDbSymbolTableRecord
100
AcDbLayerTableRecord
  2
PIANI_SFORMI
 70
0
 62
7
  6
CONTINUOUS
370
-3
390
F
  0
LAYER
  5
20C
100
AcDbSymbolTableRecord
100
AcDbLayerTableRecord
  2
PUNTI
 70
0
 62
7
  6
CONTINUOUS
370
-3
390
F
  0
LAYER
  5
20D
100
AcDbSymbolTableRecord
100
AcDbLayerTableRecord
  2
RACCORDO
 70
0
 62
7
  6
CONTINUOUS
370
-3
390
F
  0
LAYER
  5
20E
100
AcDbSymbolTableRecord
100
AcDbLayerTableRecord
  2
RGB____0____0____0__
 70
0
 62
7
  6
CONTINUOUS
370
-3
390
F
  0
LAYER
  5
20F
100
AcDbSymbolTableRecord
100
AcDbLayerTableRecord
  2
SMUSSO
 70
0
 62
7
  6
CONTINUOUS
370
-3
390
F
  0
LAYER
  5
210
100
AcDbSymbolTableRecord
100
AcDbLayerTableRecord
  2
SNAPLINE
 70
0
 62
7
  6
CONTINUOUS
370
-3
390
F
  0
LAYER
  5
211
100
AcDbSymbolTableRecord
100
AcDbLayerTableRecord
  2
SUPERFICI
 70
0
 62
7
  6
CONTINUOUS
370
-3
390
F
  0
LAYER
  5
212
100
AcDbSymbolTableRecord
100
AcDbLayerTableRecord
  2
TRASH
 70
0
 62
7
  6
CONTINUOUS
370
-3
390
F
  0
LAYER
  5
213
100
AcDbSymbolTableRecord
100
AcDbLayerTableRecord
  2
XSEC_DATUMS
 70
0
 62
7
  6
CONTINUOUS
370
-3
390
F
  0
ENDTAB
  0
TABLE
  2
STYLE
  5
3
100
AcDbSymbolTable
 70
1
  0
STYLE
  5
11
100
AcDbSymbolTableRecord
100
AcDbTextStyleTableRecord
  2
STANDARD
 70
0
 40
0.0
 41
0.8
 50
0.0
 71
0
 42
0.2
  3
txt
  4

  0
STYLE
  5
214
100
AcDbSymbolTableRecord
100
AcDbTextStyleTableRecord
  2
TEXTSTYLE_1
 70
0
 40
0.0
 41
0.8
 50
0.0
 71
0
 42
0.2
  3
gdt
  4

  0
ENDTAB
  0
TABLE
  2
VIEW
  5
6
100
AcDbSymbolTable
 70
0
  0
ENDTAB
  0
TABLE
  2
UCS
  5
7
100
AcDbSymbolTable
 70
0
  0
ENDTAB
  0
TABLE
  2
APPID
  5
9
100
AcDbSymbolTable
 70
1
  0
APPID
  5
215
100
AcDbSymbolTableRecord
100
AcDbRegAppTableRecord
  2
ACAD
 70
0
  0
ENDTAB
  0
TABLE
  2
BLOCK_RECORD
  5
1
100
AcDbSymbolTable
 70
0
  0
BLOCK_RECORD
  5
216
100
AcDbSymbolTableRecord
100
AcDbBlockTableRecord
  2
*Model_Space
  0
BLOCK_RECORD
  5
217
100
AcDbSymbolTableRecord
100
AcDbBlockTableRecord
  2
*Paper_Space
  0
ENDTAB
  0
TABLE
  2
DIMSTYLE
  5
A
100
AcDbSymbolTable
 70
1
100
AcDbDimStyleTable
 71
0
  0
DIMSTYLE
105
218
100
AcDbSymbolTableRecord
100
AcDbDimStyleTableRecord
  2
STANDARD
 70
0
  3

  4

 40
1.0
 41
3.0
 42
0.5
 43
0.38
 44
1.5
 45
0.0
 46
0.0
 47
0.01
 48
0.01
140
3.0
141
0.09
142
0.0
143
25.4
144
1.0
145
0.0
146
1.0
147
0.625
 71
1.0
 72
0.0
 73
0
 74
0
 75
0
 76
0
 77
1
 78
8
170
0
171
2
172
0
173
0
174
0
175
0
176
0
177
0
178
0
270
2
271
2
272
2
273
2
274
2
275
0
280
0
281
0
282
0
283
1
284
8
285
0
286
0
287
3
288
0
340
11
278
44
  0
ENDTAB
  0
ENDSEC
  0
SECTION
  2
BLOCKS
  0
BLOCK
  5
20
100
AcDbEntity
  8
0
100
AcDbBlockBegin
  2
*Model_Space
 70
0
 10
0.0
 20
0.0
 30
0.0
  3
*Model_Space
  1

  0
ENDBLK
  5
21
100
AcDbEntity
  8
0
100
AcDbBlockEnd
  0
BLOCK
  5
1C
100
AcDbEntity
  8
0
100
AcDbBlockBegin
  2
*Paper_Space
 70
0
 10
0.0
 20
0.0
 30
0.0
  3
*Paper_Space
  1

  0
ENDBLK
  5
1D
100
AcDbEntity
  8
0
100
AcDbBlockEnd
  0
ENDSEC
  0
SECTION
  2
ENTITIES
  0
LWPOLYLINE
  5
219
100
AcDbEntity
  8
0
100
AcDbPolyline
 62
7
  6
CONTINUOUS
 90
6
 70
0
 10
-24.9437443691
 20
-2.3813179132
 10
-24.9420131872
 20
-2.4064122946
 10
-24.9393633312
 20
-2.4552264135
 10
-24.9372497745
 20
-2.5073355545
 10
-24.9357731147
 20
-2.5623879573
 10
-24.9350160225
 20
-2.6192550332
  0
LWPOLYLINE
  5
21A
100
AcDbEntity
  8
0
100
AcDbPolyline
 62
7
  6
CONTINUOUS
 90
6
 70
0
 10
-24.9437443691
 20
2.9186820868
 10
-24.9420131872
 20
2.8935877054
 10
-24.9393633312
 20
2.8447735865
 10
-24.9372497745
 20
2.7926644455
 10
-24.9357731147
 20
2.7376120427
 10
-24.9350160225
 20
2.6807449668
  0
LINE
  5
21B
100
AcDbEntity
  8
0
100
AcDbLine
 62
7
  6
CONTINUOUS
 10
-24.9350160225
 20
-2.6192550332
 11
-24.9349763423
 21
-2.6746163514
  0
LINE
  5
21C
100
AcDbEntity
  8
0
100
AcDbLine
 62
7
  6
CONTINUOUS
 10
-24.9350160225
 20
2.6807449668
 11
-24.9349763423
 21
2.6253836486
  0
LINE
  5
21D
100
AcDbEntity
  8
0
100
AcDbLine
 62
7
  6
CONTINUOUS
 10
-25.0690175214
 20
3.5
 11
-25.0690175214
 21
3.4033257008
  0
LINE
  5
21E
100
AcDbEntity
  8
0
100
AcDbLine
 62
7
  6
CONTINUOUS
 10
-25.0690175214
 20
1.8966740413
 11
-25.0690175214
 21
-1.8966740413
  0
LINE
  5
21F
100
AcDbEntity
  8
0
100
AcDbLine
 62
7
  6
CONTINUOUS
 10
-25.0690175214
 20
-3.4033259587
 11
-25.0690175214
 21
-3.5
  0
LINE
  5
220
100
AcDbEntity
  8
0
100
AcDbLine
 62
253
  6
CONTINUOUS
 10
-23.7690175214
 20
-3.5
 11
-23.7690175214
 21
3.5
  0
LWPOLYLINE
  5
221
100
AcDbEntity
  8
0
100
AcDbPolyline
 62
7
  6
CONTINUOUS
 90
7
 70
0
 10
-24.9349763423
 20
2.6253836486
 10
-24.9355646953
 20
2.5733857426
 10
-24.9367156202
 20
2.5242298892
 10
-24.9383715655
 20
2.4775519401
 10
-24.9404479852
 20
2.4336805414
 10
-24.9428603449
 20
2.393102676
 10
-24.943712527
 20
2.381378981
  0
LWPOLYLINE
  5
222
100
AcDbEntity
  8
0
100
AcDbPolyline
 62
7
  6
CONTINUOUS
 90
7
 70
0
 10
-24.9349763423
 20
-2.6746163514
 10
-24.9355646953
 20
-2.7266142574
 10
-24.9367156202
 20
-2.7757701108
 10
-24.9383715655
 20
-2.8224480599
 10
-24.9404479852
 20
-2.8663194586
 10
-24.9428603449
 20
-2.906897324
 10
-24.943712527
 20
-2.918621019
  0
LWPOLYLINE
  5
223
100
AcDbEntity
  8
ASSI
100
AcDbPolyline
 62
7
  6
CONTINUOUS
 90
5
 70
0
 10
-20.5122344062
 20
11.1945017313
 10
-20.5448985954
 20
11.1400986063
 10
-20.5551747518
 20
11.1232702023
 10
-20.5614513545
 20
11.1131936766
 10
-20.5637540701
 20
11.1098690294
  0
LWPOLYLINE
  5
224
100
AcDbEntity
  8
RACCORDO
100
AcDbPolyline
 62
7
  6
CONTINUOUS
 90
5
 70
0
 10
-20.5122344062
 20
11.1945017313
 10
-20.5448985954
 20
11.1400986063
 10
-20.5551747518
 20
11.1232702023
 10
-20.5614513545
 20
11.1131936766
 10
-20.5637540701
 20
11.1098690294
  0
LINE
  5
225
100
AcDbEntity
  8
ASSI
100
AcDbLine
 62
7
  6
CONTINUOUS
 10
-20.4348342845
 20
11.3226554968
 11
-20.5122344062
 21
11.1945017313
  0
LINE
  5
226
100
AcDbEntity
  8
RACCORDO
100
AcDbLine
 62
7
  6
CONTINUOUS
 10
-20.4348342845
 20
11.3226554968
 11
-20.5122344062
 21
11.1945017313
  0
LINE
  5
227
100
AcDbEntity
  8
ASSI
100
AcDbLine
 62
7
  6
CONTINUOUS
 10
-20.3276874541
 20
11.4976974417
 11
-20.4348342845
 21
11.3226554968
  0
LINE
  5
228
100
AcDbEntity
  8
RACCORDO
100
AcDbLine
 62
7
  6
CONTINUOUS
 10
-20.3276874541
 20
11.4976974417
 11
-20.4348342845
 21
11.3226554968
  0
LWPOLYLINE
  5
229
100
AcDbEntity
  8
ASSI
100
AcDbPolyline
 62
7
  6
CONTINUOUS
 90
4
 70
0
 10
-20.1469568806
 20
11.7857288749
 10
-20.1961011664
 20
11.7083135474
 10
-20.2423481165
 20
11.6345689478
 10
-20.3276874541
 20
11.4976974417
  0
LWPOLYLINE
  5
22A
100
AcDbEntity
  8
RACCORDO
100
AcDbPolyline
 62
7
  6
CONTINUOUS
 90
4
 70
0
 10
-20.1469568806
 20
11.7857288749
 10
-20.1961011664
 20
11.7083135474
 10
-20.2423481165
 20
11.6345689478
 10
-20.3276874541
 20
11.4976974417
  0
LWPOLYLINE
  5
22B
100
AcDbEntity
  8
ASSI
100
AcDbPolyline
 62
7
  6
CONTINUOUS
 90
3
 70
0
 10
-19.9825847736
 20
12.0400050031
 10
-20.0404953191
 20
11.9513522041
 10
-20.1469568806
 20
11.7857288749
  0
LWPOLYLINE
  5
22C
100
AcDbEntity
  8
RACCORDO
100
AcDbPolyline
 62
7
  6
CONTINUOUS
 90
3
 70
0
 10
-19.9825847736
 20
12.0400050031
 10
-20.0404953191
 20
11.9513522041
 10
-20.1469568806
 20
11.7857288749
  0
LWPOLYLINE
  5
22D
100
AcDbEntity
  8
ASSI
100
AcDbPolyline
 62
7
  6
CONTINUOUS
 90
4
 70
0
 10
-19.7561200127
 20
12.378268065
 10
-19.7890287122
 20
12.3303330648
 10
-19.8570955319
 20
12.2295612884
 10
-19.9825847736
 20
12.0400050031
  0
LWPOLYLINE
  5
22E
100
AcDbEntity
  8
RACCORDO
100
AcDbPolyline
 62
7
  6
CONTINUOUS
 90
4
 70
0
 10
-19.7561200127
 20
12.378268065
 10
-19.7890287122
 20
12.3303330648
 10
-19.8570955319
 20
12.2295612884
 10
-19.9825847736
 20
12.0400050031
  0
LWPOLYLINE
  5
22F
100
AcDbEntity
  8
ASSI
100
AcDbPolyline
 62
253
  6
CONTINUOUS
 90
25
 70
0
 10
13.9257670044
 20
-23.4947502565
 10
14.0899209931
 20
-23.4892893204
 10
14.2521366708
 20
-23.4733494614
 10
14.4124140377
 20
-23.4469306793
 10
14.5714603927
 20
-23.4098351888
 10
14.7285684367
 20
-23.3622607753
 10
14.881616273
 20
-23.3048007948
 10
15.0305278976
 20
-23.2373173237
 10
15.1753793144
 20
-23.1599482855
 10
15.3142766387
 20
-23.0737008072
 10
15.447121373
 20
-22.9784713612
 10
15.5740120149
 20
-22.8743634751
 10
15.6933501723
 20
-22.7626948592
 10
15.8050449662
 20
-22.6433705521
 10
15.9091872757
 20
-22.5164855151
 10
16.004451346
 20
-22.3836423429
 10
16.0907319313
 20
-22.2447427592
 10
16.1681342774
 20
-22.0998850403
 10
16.2356483672
 20
-21.9509666098
 10
16.2931348156
 20
-21.7979233277
 10
16.3407330078
 20
-21.6408193339
 10
16.3778510819
 20
-21.4817444725
 10
16.4042917509
 20
-21.3213953579
 10
16.420252302
 20
-21.1590753757
 10
16.425732735
 20
-20.9947845258
  0
LWPOLYLINE
  5
230
100
AcDbEntity
  8
RACCORDO
100
AcDbPolyline
 62
253
  6
CONTINUOUS
 90
25
 70
0
 10
13.9257670044
 20
-23.4947502565
 10
14.0899209931
 20
-23.4892893204
 10
14.2521366708
 20
-23.4733494614
 10
14.4124140377
 20
-23.4469306793
 10
14.5714603927
 20
-23.4098351888
 10
14.7285684367
 20
-23.3622607753
 10
14.881616273
 20
-23.3048007948
 10
15.0305278976
 20
-23.2373173237
 10
15.1753793144
 20
-23.1599482855
 10
15.3142766387
 20
-23.0737008072
 10
15.447121373
 20
-22.9784713612
 10
15.5740120149
 20
-22.8743634751
 10
15.6933501723
 20
-22.7626948592
 10
15.8050449662
 20
-22.6433705521
 10
15.9091872757
 20
-22.5164855151
 10
16.004451346
 20
-22.3836423429
 10
16.0907319313
 20
-22.2447427592
 10
16.1681342774
 20
-22.0998850403
 10
16.2356483672
 20
-21.9509666098
 10
16.2931348156
 20
-21.7979233277
 10
16.3407330078
 20
-21.6408193339
 10
16.3778510819
 20
-21.4817444725
 10
16.4042917509
 20
-21.3213953579
 10
16.420252302
 20
-21.1590753757
 10
16.425732735
 20
-20.9947845258
  0
LWPOLYLINE
  5
231
100
AcDbEntity
  8
ASSI
100
AcDbPolyline
 62
253
  6
CONTINUOUS
 90
25
 70
0
 10
13.9257670044
 20
-24.4947365487
 10
14.1547433985
 20
-24.487236759
 10
14.3827091629
 20
-24.4647768771
 10
14.6086884004
 20
-24.4274588808
 10
14.8316936376
 20
-24.3754538647
 10
15.0507928941
 20
-24.3089872638
 10
15.2651096774
 20
-24.2283243909
 10
15.4737642093
 20
-24.133784403
 10
15.6758176141
 20
-24.0257804117
 10
15.870343027
 20
-23.9048078145
 10
16.0564829381
 20
-23.7714119482
 10
16.2334748304
 20
-23.6261518816
 10
16.4005907602
 20
-23.4696293183
 10
16.5571158587
 20
-23.302513448
 10
16.7023795454
 20
-23.1255198521
 10
16.835778577
 20
-22.9393780814
 10
16.9567538438
 20
-22.7448508039
 10
17.0647600899
 20
-22.5427955033
 10
17.1593012251
 20
-22.3341408264
 10
17.239963601
 20
-22.1198285078
 10
17.3064297189
 20
-21.9007358795
 10
17.3584359764
 20
-21.677732979
 10
17.395756368
 20
-21.4517493717
 10
17.418218342
 20
-21.223774578
 10
17.4257190273
 20
-20.9947845258
  0
LWPOLYLINE
  5
232
100
AcDbEntity
  8
RACCORDO
100
AcDbPolyline
 62
253
  6
CONTINUOUS
 90
25
 70
0
 10
13.9257670044
 20
-24.4947365487
 10
14.1547433985
 20
-24.487236759
 10
14.3827091629
 20
-24.4647768771
 10
14.6086884004
 20
-24.4274588808
 10
14.8316936376
 20
-24.3754538647
 10
15.0507928941
 20
-24.3089872638
 10
15.2651096774
 20
-24.2283243909
 10
15.4737642093
 20
-24.133784403
 10
15.6758176141
 20
-24.0257804117
 10
15.870343027
 20
-23.9048078145
 10
16.0564829381
 20
-23.7714119482
 10
16.2334748304
 20
-23.6261518816
 10
16.4005907602
 20
-23.4696293183
 10
16.5571158587
 20
-23.302513448
 10
16.7023795454
 20
-23.1255198521
 10
16.835778577
 20
-22.9393780814
 10
16.9567538438
 20
-22.7448508039
 10
17.0647600899
 20
-22.5427955033
 10
17.1593012251
 20
-22.3341408264
 10
17.239963601
 20
-22.1198285078
 10
17.3064297189
 20
-21.9007358795
 10
17.3584359764
 20
-21.677732979
 10
17.395756368
 20
-21.4517493717
 10
17.418218342
 20
-21.223774578
 10
17.4257190273
 20
-20.9947845258
  0
LINE
  5
233
100
AcDbEntity
  8
ASSI
100
AcDbLine
 62
7
  6
CONTINUOUS
 10
-17.0638020473
 20
-24.4947365487
 11
13.9257670044
 21
-24.4947365487
  0
LINE
  5
234
100
AcDbEntity
  8
RACCORDO
100
AcDbLine
 62
7
  6
CONTINUOUS
 10
-17.0638020473
 20
-24.4947365487
 11
13.9257670044
 21
-24.4947365487
  0
LINE
  5
235
100
AcDbEntity
  8
ASSI
100
AcDbLine
 62
253
  6
CONTINUOUS
 10
-17.0638020473
 20
-23.4947502565
 11
13.9257670044
 21
-23.4947502565
  0
LINE
  5
236
100
AcDbEntity
  8
RACCORDO
100
AcDbLine
 62
253
  6
CONTINUOUS
 10
-17.0638020473
 20
-23.4947502565
 11
13.9257670044
 21
-23.4947502565
  0
LWPOLYLINE
  5
237
100
AcDbEntity
  8
ASSI
100
AcDbPolyline
 62
7
  6
CONTINUOUS
 90
4
 70
0
 10
-20.5637540701
 20
-11.1098690294
 10
-20.5614466071
 20
-11.1131980114
 10
-20.5551555436
 20
-11.1232991302
 10
-20.5448539057
 20
-11.1401723858
  0
LWPOLYLINE
  5
238
100
AcDbEntity
  8
RACCORDO
100
AcDbPolyline
 62
7
  6
CONTINUOUS
 90
4
 70
0
 10
-20.5637540701
 20
-11.1098690294
 10
-20.5614466071
 20
-11.1131980114
 10
-20.5551555436
 20
-11.1232991302
 10
-20.5448539057
 20
-11.1401723858
  0
LWPOLYLINE
  5
239
100
AcDbEntity
  8
ASSI
100
AcDbPolyline
 62
7
  6
CONTINUOUS
 90
3
 70
0
 10
-19.8571399051
 20
-12.2294944817
 10
-19.7890766066
 20
-12.3302623965
 10
-19.7561316959
 20
-12.3782504855
  0
LWPOLYLINE
  5
23A
100
AcDbEntity
  8
RACCORDO
100
AcDbPolyline
 62
7
  6
CONTINUOUS
 90
3
 70
0
 10
-19.8571399051
 20
-12.2294944817
 10
-19.7890766066
 20
-12.3302623965
 10
-19.7561316959
 20
-12.3782504855
  0
LWPOLYLINE
  5
23B
100
AcDbEntity
  8
ASSI
100
AcDbPolyline
 62
7
  6
CONTINUOUS
 90
3
 70
0
 10
-20.0405452611
 20
-11.9512751948
 10
-19.9826197758
 20
-12.0399516262
 10
-19.8571399051
 20
-12.2294944817
  0
LWPOLYLINE
  5
23C
100
AcDbEntity
  8
RACCORDO
100
AcDbPolyline
 62
7
  6
CONTINUOUS
 90
3
 70
0
 10
-20.0405452611
 20
-11.9512751948
 10
-19.9826197758
 20
-12.0399516262
 10
-19.8571399051
 20
-12.2294944817
  0
LWPOLYLINE
  5
23D
100
AcDbEntity
  8
ASSI
100
AcDbPolyline
 62
7
  6
CONTINUOUS
 90
3
 70
0
 10
-20.1962557466
 20
-11.7080766329
 10
-20.1470592486
 20
-11.7855682282
 10
-20.0405452611
 20
-11.9512751948
  0
LWPOLYLINE
  5
23E
100
AcDbEntity
  8
RACCORDO
100
AcDbPolyline
 62
7
  6
CONTINUOUS
 90
3
 70
0
 10
-20.1962557466
 20
-11.7080766329
 10
-20.1470592486
 20
-11.7855682282
 10
-20.0405452611
 20
-11.9512751948
  0
LWPOLYLINE
  5
23F
100
AcDbEntity
  8
ASSI
100
AcDbPolyline
 62
7
  6
CONTINUOUS
 90
3
 70
0
 10
-20.3278467869
 20
-11.4974327433
 10
-20.2864356098
 20
-11.5641431512
 10
-20.1962557466
 20
-11.7080766329
  0
LWPOLYLINE
  5
240
100
AcDbEntity
  8
RACCORDO
100
AcDbPolyline
 62
7
  6
CONTINUOUS
 90
3
 70
0
 10
-20.3278467869
 20
-11.4974327433
 10
-20.2864356098
 20
-11.5641431512
 10
-20.1962557466
 20
-11.7080766329
  0
LWPOLYLINE
  5
241
100
AcDbEntity
  8
ASSI
100
AcDbPolyline
 62
7
  6
CONTINUOUS
 90
3
 70
0
 10
-20.5120803315
 20
-11.1947818245
 10
-20.434734607
 20
-11.3227996729
 10
-20.3278467869
 20
-11.4974327433
  0
LWPOLYLINE
  5
242
100
AcDbEntity
  8
RACCORDO
100
AcDbPolyline
 62
7
  6
CONTINUOUS
 90
3
 70
0
 10
-20.5120803315
 20
-11.1947818245
 10
-20.434734607
 20
-11.3227996729
 10
-20.3278467869
 20
-11.4974327433
  0
LINE
  5
243
100
AcDbEntity
  8
ASSI
100
AcDbLine
 62
7
  6
CONTINUOUS
 10
-20.5448539057
 20
-11.1401723858
 11
-20.5120803315
 21
-11.1947818245
  0
LINE
  5
244
100
AcDbEntity
  8
RACCORDO
100
AcDbLine
 62
7
  6
CONTINUOUS
 10
-20.5448539057
 20
-11.1401723858
 11
-20.5120803315
 21
-11.1947818245
  0
LWPOLYLINE
  5
245
100
AcDbEntity
  8
ASSI
100
AcDbPolyline
 62
253
  6
CONTINUOUS
 90
25
 70
0
 10
-20.5637540701
 20
-20.9947845258
 10
-20.5562542805
 20
-21.2237609199
 10
-20.5337943986
 20
-21.4517266844
 10
-20.4964764022
 20
-21.6777059219
 10
-20.4444713861
 20
-21.9007111591
 10
-20.3780047852
 20
-22.1198104156
 10
-20.2973419123
 20
-22.3341271988
 10
-20.2028019244
 20
-22.5427817308
 10
-20.0947979332
 20
-22.7448351355
 10
-19.9738253359
 20
-22.9393605484
 10
-19.8404294696
 20
-23.1255004596
 10
-19.695169403
 20
-23.3024923518
 10
-19.5386468397
 20
-23.4696082817
 10
-19.3715309695
 20
-23.6261333801
 10
-19.1945373735
 20
-23.7713970669
 10
-19.0083956029
 20
-23.9047960985
 10
-18.8138683253
 20
-24.0257713653
 10
-18.6118130247
 20
-24.1337776113
 10
-18.4031583478
 20
-24.2283187466
 10
-18.1888460292
 20
-24.3089811225
 10
-17.9697534009
 20
-24.3754472404
 10
-17.7467505004
 20
-24.4274534978
 10
-17.5207668931
 20
-24.4647738895
 10
-17.2927920994
 20
-24.4872358635
 10
-17.0638020473
 20
-24.4947365487
  0
LWPOLYLINE
  5
246
100
AcDbEntity
  8
RACCORDO
100
AcDbPolyline
 62
253
  6
CONTINUOUS
 90
25
 70
0
 10
-20.5637540701
 20
-20.9947845258
 10
-20.5562542805
 20
-21.2237609199
 10
-20.5337943986
 20
-21.4517266844
 10
-20.4964764022
 20
-21.6777059219
 10
-20.4444713861
 20
-21.9007111591
 10
-20.3780047852
 20
-22.1198104156
 10
-20.2973419123
 20
-22.3341271988
 10
-20.2028019244
 20
-22.5427817308
 10
-20.0947979332
 20
-22.7448351355
 10
-19.9738253359
 20
-22.9393605484
 10
-19.8404294696
 20
-23.1255004596
 10
-19.695169403
 20
-23.3024923518
 10
-19.5386468397
 20
-23.4696082817
 10
-19.3715309695
 20
-23.6261333801
 10
-19.1945373735
 20
-23.7713970669
 10
-19.0083956029
 20
-23.9047960985
 10
-18.8138683253
 20
-24.0257713653
 10
-18.6118130247
 20
-24.1337776113
 10
-18.4031583478
 20
-24.2283187466
 10
-18.1888460292
 20
-24.3089811225
 10
-17.9697534009
 20
-24.3754472404
 10
-17.7467505004
 20
-24.4274534978
 10
-17.5207668931
 20
-24.4647738895
 10
-17.2927920994
 20
-24.4872358635
 10
-17.0638020473
 20
-24.4947365487
  0
LINE
  5
247
100
AcDbEntity
  8
0
100
AcDbLine
 62
7
  6
CONTINUOUS
 10
-21.8090175214
 20
0.35
 11
-21.8090175214
 21
-0.35
  0
LINE
  5
248
100
AcDbEntity
  8
DRAFT
100
AcDbLine
 62
7
  6
CONTINUOUS
 10
-21.0690175214
 20
-10.1857743937
 11
-21.0690175214
 21
-3.5
  0
LINE
  5
249
100
AcDbEntity
  8
DRAFT
100
AcDbLine
 62
7
  6
CONTINUOUS
 10
-21.0690175214
 20
3.5
 11
-21.0690175214
 21
10.1857743937
  0
LINE
  5
24A
100
AcDbEntity
  8
DRAFT
100
AcDbLine
 62
7
  6
CONTINUOUS
 10
-21.0410915445
 20
10.1789179246
 11
-21.0410915445
 21
9.338389354
  0
LINE
  5
24B
100
AcDbEntity
  8
DRAFT
100
AcDbLine
 62
7
  6
CONTINUOUS
 10
-21.0410915445
 20
-10.1789179246
 11
-21.0410915445
 21
-7.9720740231
  0
LINE
  5
24C
100
AcDbEntity
  8
DRAFT
100
AcDbLine
 62
7
  6
CONTINUOUS
 10
-20.9974572056
 20
-7.9284396841
 11
-20.9974572056
 21
-3.5
  0
LINE
  5
24D
100
AcDbEntity
  8
DRAFT
100
AcDbLine
 62
7
  6
CONTINUOUS
 10
-20.9974572056
 20
3.5
 11
-20.9974572056
 21
9.320315419
  0
LINE
  5
24E
100
AcDbEntity
  8
0
100
AcDbLine
 62
7
  6
CONTINUOUS
 10
-20.8617124661
 20
-0.35
 11
-20.8617124661
 21
-0.0726172387
  0
LINE
  5
24F
100
AcDbEntity
  8
0
100
AcDbLine
 62
7
  6
CONTINUOUS
 10
-20.8617124661
 20
0.0726172387
 11
-20.8617124661
 21
0.35
  0
LINE
  5
250
100
AcDbEntity
  8
DRAFT
100
AcDbLine
 62
7
  6
CONTINUOUS
 10
-21.0410915445
 20
9.338389354
 11
-11.4074068755
 21
18.9720740231
  0
LINE
  5
251
100
AcDbEntity
  8
DRAFT
100
AcDbLine
 62
7
  6
CONTINUOUS
 10
-20.9974572056
 20
9.320315419
 11
-19.4974572056
 21
10.820315419
  0
LINE
  5
252
100
AcDbEntity
  8
RACCORDO
100
AcDbLine
 62
7
  6
CONTINUOUS
 10
-11.3748580202
 20
18.8934941353
 11
-14.1181182616
 21
16.1502338939
  0
LINE
  5
253
100
AcDbEntity
  8
RACCORDO
100
AcDbLine
 62
7
  6
CONTINUOUS
 10
-17.7192514153
 20
12.5491007402
 11
-19.4625116567
 21
10.8058404988
  0
LINE
  5
254
100
AcDbEntity
  8
RACCORDO
100
AcDbLine
 62
253
  6
CONTINUOUS
 10
-11.167759125
 20
18.3935131738
 11
-13.7615198445
 21
15.7997524542
  0
LINE
  5
255
100
AcDbEntity
  8
RACCORDO
100
AcDbLine
 62
253
  6
CONTINUOUS
 10
-17.3687699757
 20
12.1925023231
 11
-18.9625306952
 21
10.5987416036
  0
LINE
  5
256
100
AcDbEntity
  8
ASSI
100
AcDbLine
 62
253
  6
CONTINUOUS
 10
-19.5637677779
 20
-20.9947845258
 11
-20.5637540701
 21
-20.9947845234
  0
LINE
  5
257
100
AcDbEntity
  8
RACCORDO
100
AcDbLine
 62
253
  6
CONTINUOUS
 10
-19.5637677779
 20
-20.9947845258
 11
-20.5637540701
 21
-20.9947845234
  0
LINE
  5
258
100
AcDbEntity
  8
ASSI
100
AcDbLine
 62
253
  6
CONTINUOUS
 10
16.425732735
 20
-20.9947845258
 11
17.4257190273
 21
-20.9947845258
  0
LINE
  5
259
100
AcDbEntity
  8
RACCORDO
100
AcDbLine
 62
253
  6
CONTINUOUS
 10
16.425732735
 20
-20.9947845258
 11
17.4257190273
 21
-20.9947845258
  0
LWPOLYLINE
  5
25A
100
AcDbEntity
  8
ASSI
100
AcDbPolyline
 62
253
  6
CONTINUOUS
 90
25
 70
0
 10
-19.5637677779
 20
-20.9947845258
 10
-19.5583068418
 20
-21.1589385145
 10
-19.5423669828
 20
-21.3211541923
 10
-19.5159482007
 20
-21.4814315591
 10
-19.4788527102
 20
-21.6404779141
 10
-19.4312782968
 20
-21.7975859581
 10
-19.3738183163
 20
-21.9506337945
 10
-19.3063348451
 20
-22.099545419
 10
-19.2289658069
 20
-22.2443968358
 10
-19.1427183287
 20
-22.3832941602
 10
-19.0474888826
 20
-22.5161388945
 10
-18.9433809966
 20
-22.6430295363
 10
-18.8317123807
 20
-22.7623676937
 10
-18.7123880735
 20
-22.8740624876
 10
-18.5855030365
 20
-22.9782047971
 10
-18.4526598644
 20
-23.0734688674
 10
-18.3137602807
 20
-23.1597494527
 10
-18.1689025618
 20
-23.2371517988
 10
-18.0199841313
 20
-23.3046658886
 10
-17.8669408491
 20
-23.362152337
 10
-17.7098368553
 20
-23.4097505292
 10
-17.5507619939
 20
-23.4468686034
 10
-17.3904128794
 20
-23.4733092724
 10
-17.2280928972
 20
-23.4892698234
 10
-17.0638020473
 20
-23.4947502565
  0
LWPOLYLINE
  5
25B
100
AcDbEntity
  8
RACCORDO
100
AcDbPolyline
 62
253
  6
CONTINUOUS
 90
25
 70
0
 10
-19.5637677779
 20
-20.9947845258
 10
-19.5583068418
 20
-21.1589385145
 10
-19.5423669828
 20
-21.3211541923
 10
-19.5159482007
 20
-21.4814315591
 10
-19.4788527102
 20
-21.6404779141
 10
-19.4312782968
 20
-21.7975859581
 10
-19.3738183163
 20
-21.9506337945
 10
-19.3063348451
 20
-22.099545419
 10
-19.2289658069
 20
-22.2443968358
 10
-19.1427183287
 20
-22.3832941602
 10
-19.0474888826
 20
-22.5161388945
 10
-18.9433809966
 20
-22.6430295363
 10
-18.8317123807
 20
-22.7623676937
 10
-18.7123880735
 20
-22.8740624876
 10
-18.5855030365
 20
-22.9782047971
 10
-18.4526598644
 20
-23.0734688674
 10
-18.3137602807
 20
-23.1597494527
 10
-18.1689025618
 20
-23.2371517988
 10
-18.0199841313
 20
-23.3046658886
 10
-17.8669408491
 20
-23.362152337
 10
-17.7098368553
 20
-23.4097505292
 10
-17.5507619939
 20
-23.4468686034
 10
-17.3904128794
 20
-23.4733092724
 10
-17.2280928972
 20
-23.4892698234
 10
-17.0638020473
 20
-23.4947502565
  0
LINE
  5
25C
100
AcDbEntity
  8
ASSI
100
AcDbLine
 62
7
  6
CONTINUOUS
 10
-20.5690175219
 20
11.1098690294
 11
-20.5690175219
 21
11.0904154823
  0
LINE
  5
25D
100
AcDbEntity
  8
RACCORDO
100
AcDbLine
 62
7
  6
CONTINUOUS
 10
-20.5690175218
 20
11.1098690294
 11
-20.5690175218
 21
11.0904154826
  0
LINE
  5
25E
100
AcDbEntity
  8
ASSI
100
AcDbLine
 62
7
  6
CONTINUOUS
 10
-20.5690175214
 20
-11.0904154832
 11
-20.5690175214
 21
-11.1098690294
  0
LINE
  5
25F
100
AcDbEntity
  8
RACCORDO
100
AcDbLine
 62
7
  6
CONTINUOUS
 10
-20.5690175214
 20
-11.0904154832
 11
-20.5690175214
 21
-11.1098690294
  0
LINE
  5
260
100
AcDbEntity
  8
ASSI
100
AcDbLine
 62
7
  6
CONTINUOUS
 10
-20.5637540701
 20
20.9947845258
 11
-20.5637540701
 21
11.1098690294
  0
LINE
  5
261
100
AcDbEntity
  8
RACCORDO
100
AcDbLine
 62
7
  6
CONTINUOUS
 10
-20.5637540701
 20
20.9947845258
 11
-20.5637540701
 21
11.1098690294
  0
LINE
  5
262
100
AcDbEntity
  8
ASSI
100
AcDbLine
 62
7
  6
CONTINUOUS
 10
-20.5637540701
 20
-11.1098690294
 11
-20.5637540701
 21
-20.9947845258
  0
LINE
  5
263
100
AcDbEntity
  8
RACCORDO
100
AcDbLine
 62
7
  6
CONTINUOUS
 10
-20.5637540701
 20
-11.1098690294
 11
-20.5637540701
 21
-20.9947845258
  0
LINE
  5
264
100
AcDbEntity
  8
0
100
AcDbLine
 62
7
  6
CONTINUOUS
 10
-20.2190175214
 20
-2.887031892
 11
-20.2190175214
 21
-0.5860176963
  0
LINE
  5
265
100
AcDbEntity
  8
0
100
AcDbLine
 62
7
  6
CONTINUOUS
 10
-20.2190175214
 20
0.5860176963
 11
-20.2190175214
 21
2.887031892
  0
LINE
  5
266
100
AcDbEntity
  8
0
100
AcDbLine
 62
7
  6
CONTINUOUS
 10
-20.0690175214
 20
-1.4917020703
 11
-20.0690175214
 21
-1.0901949367
  0
LINE
  5
267
100
AcDbEntity
  8
0
100
AcDbLine
 62
7
  6
CONTINUOUS
 10
-20.0690175214
 20
1.0901949367
 11
-20.0690175214
 21
1.4917020703
  0
LINE
  5
268
100
AcDbEntity
  8
DRAFT
100
AcDbLine
 62
7
  6
CONTINUOUS
 10
-19.5690175214
 20
-10.5
 11
-19.5690175214
 21
-3.7744348852
  0
LINE
  5
269
100
AcDbEntity
  8
RACCORDO
100
AcDbLine
 62
7
  6
CONTINUOUS
 10
-19.5690175214
 20
3.7744348852
 11
-19.5690175214
 21
4.2500169231
  0
LINE
  5
26A
100
AcDbEntity
  8
ASSI
100
AcDbLine
 62
253
  6
CONTINUOUS
 10
-19.5637677779
 20
20.9947845258
 11
-19.5637677779
 21
12.6565778632
  0
LINE
  5
26B
100
AcDbEntity
  8
RACCORDO
100
AcDbLine
 62
253
  6
CONTINUOUS
 10
-19.5637677779
 20
20.9947845258
 11
-19.5637677779
 21
12.6565778632
  0
LINE
  5
26C
100
AcDbEntity
  8
ASSI
100
AcDbLine
 62
253
  6
CONTINUOUS
 10
-19.5637677779
 20
-12.6565778632
 11
-19.5637677779
 21
-20.9947845258
  0
LINE
  5
26D
100
AcDbEntity
  8
RACCORDO
100
AcDbLine
 62
253
  6
CONTINUOUS
 10
-19.5637677779
 20
-12.6565778632
 11
-19.5637677779
 21
-20.9947845258
  0
LINE
  5
26E
100
AcDbEntity
  8
RACCORDO
100
AcDbLine
 62
7
  6
CONTINUOUS
 10
-19.5544729469
 20
-6.2296545191
 11
-19.5544729469
 21
-10.1963698875
  0
LINE
  5
26F
100
AcDbEntity
  8
DRAFT
100
AcDbLine
 62
7
  6
CONTINUOUS
 10
-19.5486551171
 20
-3.7540724809
 11
-19.5486551171
 21
-3.5040133167
  0
LINE
  5
270
100
AcDbEntity
  8
DRAFT
100
AcDbLine
 62
7
  6
CONTINUOUS
 10
-19.5486551171
 20
3.5040133167
 11
-19.5486551171
 21
3.7540724809
  0
LINE
  5
271
100
AcDbEntity
  8
DRAFT
100
AcDbLine
 62
7
  6
CONTINUOUS
 10
-19.5469097682
 20
-3.5022573558
 11
-19.5469097682
 21
-2.4999022475
  0
LINE
  5
272
100
AcDbEntity
  8
DRAFT
100
AcDbLine
 62
7
  6
CONTINUOUS
 10
-19.5469097682
 20
2.4999022475
 11
-19.5469097682
 21
3.5022573558
  0
LINE
  5
273
100
AcDbEntity
  8
RACCORDO
100
AcDbLine
 62
7
  6
CONTINUOUS
 10
-19.5399283724
 20
4.2209277741
 11
-19.5399283724
 21
2.4998307586
  0
LINE
  5
274
100
AcDbEntity
  8
DRAFT
100
AcDbLine
 62
7
  6
CONTINUOUS
 10
-19.5399283724
 20
-2.4998307586
 11
-19.5399283724
 21
-5.2209108509
  0
LINE
  5
275
100
AcDbEntity
  8
DRAFT
100
AcDbLine
 62
7
  6
CONTINUOUS
 10
-19.4974572056
 20
4.6205098492
 11
-19.4974572056
 21
10.820315419
  0
LINE
  5
276
100
AcDbEntity
  8
RACCORDO
100
AcDbLine
 62
7
  6
CONTINUOUS
 10
-19.4625116567
 20
10.8058404988
 11
-19.4625116567
 21
4.697989774
  0
LINE
  5
277
100
AcDbEntity
  8
0
100
AcDbLine
 62
7
  6
CONTINUOUS
 10
-19.3690175214
 20
-1.4917020703
 11
-19.3690175214
 21
-1.0901949367
  0
LINE
  5
278
100
AcDbEntity
  8
0
100
AcDbLine
 62
7
  6
CONTINUOUS
 10
-19.3690175214
 20
1.0901949367
 11
-19.3690175214
 21
1.4917020703
  0
LINE
  5
279
100
AcDbEntity
  8
0
100
AcDbLine
 62
7
  6
CONTINUOUS
 10
-19.2190175214
 20
-2.4745818839
 11
-19.2190175214
 21
-0.5860176963
  0
LINE
  5
27A
100
AcDbEntity
  8
0
100
AcDbLine
 62
7
  6
CONTINUOUS
 10
-19.2190175214
 20
0.5860176963
 11
-19.2190175214
 21
2.4745818839
  0
LINE
  5
27B
100
AcDbEntity
  8
RACCORDO
100
AcDbLine
 62
253
  6
CONTINUOUS
 10
-18.9625306952
 20
10.5987416036
 11
-18.9625306952
 21
5.1684712432
  0
LINE
  5
27C
100
AcDbEntity
  8
0
100
AcDbLine
 62
7
  6
CONTINUOUS
 10
-18.5763225767
 20
-0.35
 11
-18.5763225767
 21
-0.0726172387
  0
LINE
  5
27D
100
AcDbEntity
  8
0
100
AcDbLine
 62
7
  6
CONTINUOUS
 10
-18.5763225767
 20
0.0726172387
 11
-18.5763225767
 21
0.35
  0
LINE
  5
27E
100
AcDbEntity
  8
0
100
AcDbLine
 62
7
  6
CONTINUOUS
 10
-20.0690175214
 20
1.0901949367
 11
-20.2387410056
 21
0.5197234842
  0
LINE
  5
27F
100
AcDbEntity
  8
ASSI
100
AcDbLine
 62
7
  6
CONTINUOUS
 10
-13.1297106203
 20
15.16794323
 11
-16.7369607514
 21
11.5606930989
  0
LINE
  5
280
100
AcDbEntity
  8
DRAFT
100
AcDbLine
 62
7
  6
CONTINUOUS
 10
9.521518985
 20
-19.0
 11
-12.6595540278
 21
-19.0
  0
LINE
  5
281
100
AcDbEntity
  8
DRAFT
100
AcDbLine
 62
7
  6
CONTINUOUS
 10
8.2693718326
 20
-18.9720740231
 11
9.513962409
 21
-18.9720740231
  0
LINE
  5
282
100
AcDbEntity
  8
RACCORDO
100
AcDbLine
 62
7
  6
CONTINUOUS
 10
-12.6307065792
 20
-18.8934941353
 11
8.2368229773
 21
-18.8934941353
  0
LINE
  5
283
100
AcDbEntity
  8
RACCORDO
100
AcDbLine
 62
253
  6
CONTINUOUS
 10
-12.4898319371
 20
-18.3935131738
 11
8.0297240821
 21
-18.3935131738
  0
LWPOLYLINE
  5
284
100
AcDbEntity
  8
0
100
AcDbPolyline
 62
7
  6
CONTINUOUS
 90
17
 70
0
 10
-7.8392325214
 20
-16.9554323698
 10
-7.8547104456
 20
-16.9470827652
 10
-7.8689301684
 20
-16.9365648935
 10
-7.8818916899
 20
-16.9238787546
 10
-7.8936613019
 20
-16.9087888935
 10
-7.9041727127
 20
-16.8915307652
 10
-7.9132270462
 20
-16.8728107352
 10
-7.9205973197
 20
-16.8526975955
 10
-7.926510516
 20
-16.831122554
 10
-7.9314487081
 20
-16.8085855995
 10
-7.9354292268
 20
-16.7852534742
 10
-7.9384347413
 20
-16.7609594359
 10
-7.9408953329
 20
-16.735703246
 10
-7.9428314707
 20
-16.7095184645
 10
-7.9442226857
 20
-16.6823715315
 10
-7.945437652
 20
-16.6541615294
 10
-7.9465558573
 20
-16.6249200661
  0
LINE
  5
285
100
AcDbEntity
  8
0
100
AcDbLine
 62
7
  6
CONTINUOUS
 10
-17.508824217
 20
-10.8324714129
 11
-17.4906225024
 21
-10.8450726247
  0
LWPOLYLINE
  5
286
100
AcDbEntity
  8
0
100
AcDbPolyline
 62
7
  6
CONTINUOUS
 90
10
 70
0
 10
-9.9489445815
 20
-16.0565859395
 10
-9.9691383952
 20
-16.0386830405
 10
-9.9907896536
 20
-16.0216326312
 10
-10.0138983567
 20
-16.0054347119
 10
-10.0386148899
 20
-15.9901425983
 10
-10.0647888678
 20
-15.9757029746
 10
-10.0919691337
 20
-15.9619558929
 10
-10.1200053021
 20
-15.9488480372
 10
-10.1490477585
 20
-15.9364327235
 10
-10.179096503
 20
-15.9247099518
  0
LINE
  5
287
100
AcDbEntity
  8
0
100
AcDbLine
 62
7
  6
CONTINUOUS
 10
-15.7992940373
 20
-11.0197234842
 11
-15.7986128733
 21
-11.0204046481
  0
LINE
  5
288
100
AcDbEntity
  8
0
100
AcDbLine
 62
7
  6
CONTINUOUS
 10
-16.8387410056
 20
-9.9802765158
 11
-16.8394221696
 21
-9.9795953519
  0
LINE
  5
289
100
AcDbEntity
  8
0
100
AcDbLine
 62
7
  6
CONTINUOUS
 10
-15.7190175214
 20
-11.0999998582
 11
-15.6917201148
 21
-11.1272972341
  0
LINE
  5
28A
100
AcDbEntity
  8
0
100
AcDbLine
 62
7
  6
CONTINUOUS
 10
-16.9190175214
 20
-9.9000001418
 11
-16.946314928
 21
-9.8727027659
  0
LINE
  5
28B
100
AcDbEntity
  8
0
100
AcDbLine
 62
7
  6
CONTINUOUS
 10
-16.9190175214
 20
-11.1818880102
 11
-16.9463150307
 21
-11.1272975163
  0
LINE
  5
28C
100
AcDbEntity
  8
0
100
AcDbLine
 62
7
  6
CONTINUOUS
 10
-15.7190175214
 20
-9.8181119898
 11
-15.6917200122
 21
-9.8727024837
  0
LINE
  5
28D
100
AcDbEntity
  8
0
100
AcDbLine
 62
7
  6
CONTINUOUS
 10
-16.8394221696
 20
-11.0204046482
 11
-16.8189645324
 21
-11.062133536
  0
LINE
  5
28E
100
AcDbEntity
  8
0
100
AcDbLine
 62
7
  6
CONTINUOUS
 10
-15.7986128733
 20
-9.9795953518
 11
-15.8190705105
 21
-9.937866464
  0
LINE
  5
28F
100
AcDbEntity
  8
0
100
AcDbLine
 62
7
  6
CONTINUOUS
 10
-16.8189645324
 20
-11.062133536
 11
-16.8387410053
 21
-11.0197234839
  0
LINE
  5
290
100
AcDbEntity
  8
0
100
AcDbLine
 62
7
  6
CONTINUOUS
 10
-15.8190705105
 20
-9.937866464
 11
-15.7992940376
 21
-9.9802765161
  0
LINE
  5
291
100
AcDbEntity
  8
0
100
AcDbLine
 62
7
  6
CONTINUOUS
 10
-17.4411238084
 20
-10.2611776274
 11
-17.4906224104
 21
-10.1549273261
  0
LINE
  5
292
100
AcDbEntity
  8
0
100
AcDbLine
 62
7
  6
CONTINUOUS
 10
-17.4640147916
 20
-10.2718517819
 11
-17.5090652705
 21
-10.1676955419
  0
LINE
  5
293
100
AcDbEntity
  8
0
100
AcDbLine
 62
7
  6
CONTINUOUS
 10
-20.2387410056
 20
-0.5197234842
 11
-20.0690175214
 21
-1.0901949367
  0
LINE
  5
294
100
AcDbEntity
  8
RACCORDO
100
AcDbLine
 62
7
  6
CONTINUOUS
 10
-17.7192514153
 20
12.5491007402
 11
-17.7192514153
 21
12.6148346102
  0
LINE
  5
295
100
AcDbEntity
  8
0
100
AcDbLine
 62
7
  6
CONTINUOUS
 10
-17.6290175214
 20
0.35
 11
-17.6290175214
 21
-0.35
  0
LINE
  5
296
100
AcDbEntity
  8
ASSI
100
AcDbLine
 62
253
  6
CONTINUOUS
 10
-17.0638020473
 20
-23.4947502565
 11
-17.0638020473
 21
-24.4947365487
  0
LINE
  5
297
100
AcDbEntity
  8
RACCORDO
100
AcDbLine
 62
253
  6
CONTINUOUS
 10
-17.0638020473
 20
-23.4947502565
 11
-17.0638020473
 21
-24.4947365487
  0
LINE
  5
298
100
AcDbEntity
  8
ASSI
100
AcDbLine
 62
253
  6
CONTINUOUS
 10
-17.0638020473
 20
23.4947502565
 11
-17.0638020448
 21
24.4947365487
  0
LINE
  5
299
100
AcDbEntity
  8
RACCORDO
100
AcDbLine
 62
253
  6
CONTINUOUS
 10
-17.0638020473
 20
23.4947502565
 11
-17.0638020448
 21
24.4947365487
  0
LINE
  5
29A
100
AcDbEntity
  8
0
100
AcDbLine
 62
7
  6
CONTINUOUS
 10
-16.9190175214
 20
-13.587249677
 11
-16.9190175214
 21
-10.9538073666
  0
LINE
  5
29B
100
AcDbEntity
  8
0
100
AcDbLine
 62
7
  6
CONTINUOUS
 10
-16.9190175214
 20
-10.0461926334
 11
-16.9190175214
 21
-7.412750323
  0
LINE
  5
29C
100
AcDbEntity
  8
DRAFT
100
AcDbLine
 62
7
  6
CONTINUOUS
 10
-16.7246190966
 20
11.5941921419
 11
-16.7246190966
 21
11.6202022916
  0
LINE
  5
29D
100
AcDbEntity
  8
0
100
AcDbLine
 62
7
  6
CONTINUOUS
 10
-19.3690175214
 20
-1.0901949367
 11
-19.1992940373
 21
-0.5197234842
  0
LINE
  5
29E
100
AcDbEntity
  8
DRAFT
100
AcDbLine
 62
7
  6
CONTINUOUS
 10
-12.1756192392
 20
13.7885822331
 11
-15.3575997546
 21
10.6066017178
  0
LINE
  5
29F
100
AcDbEntity
  8
RACCORDO
100
AcDbLine
 62
7
  6
CONTINUOUS
 10
-12.1712835051
 20
13.784246499
 11
-15.3532640204
 21
10.6022659836
  0
LINE
  5
2A0
100
AcDbEntity
  8
RACCORDO
100
AcDbLine
 62
253
  6
CONTINUOUS
 10
-11.9591595481
 20
13.572122542
 11
-15.1411400634
 21
10.3901420266
  0
LINE
  5
2A1
100
AcDbEntity
  8
0
100
AcDbLine
 62
7
  6
CONTINUOUS
 10
-15.110810099
 20
9.0856244204
 11
-13.8386638211
 21
10.3577706983
  0
LINE
  5
2A2
100
AcDbEntity
  8
0
100
AcDbLine
 62
7
  6
CONTINUOUS
 10
-11.9282679258
 20
12.2681665936
 11
-10.6551588565
 21
13.5412756629
  0
LINE
  5
2A3
100
AcDbEntity
  8
0
100
AcDbLine
 62
7
  6
CONTINUOUS
 10
-13.2766684492
 20
10.212659289
 11
-13.1058461005
 21
10.3834816377
  0
LINE
  5
2A4
100
AcDbEntity
  8
0
100
AcDbLine
 62
7
  6
CONTINUOUS
 10
-11.9529225858
 20
11.5364051524
 11
-11.7816768104
 21
11.7076509278
  0
LWPOLYLINE
  5
2A5
100
AcDbEntity
  8
0
100
AcDbPolyline
 62
7
  6
CONTINUOUS
 90
15
 70
0
 10
-13.2766684492
 20
10.212659289
 10
-13.3979706756
 20
10.1211419234
 10
-13.5210906587
 20
10.0311309146
 10
-13.6460283986
 20
9.9426262627
 10
-13.7725478537
 20
9.8558720597
 10
-13.9008850655
 20
9.7706242135
 10
-14.0317481591
 20
9.6861504477
 10
-14.1649817837
 20
9.6024885944
 10
-14.3007412901
 20
9.5196008215
 10
-14.4402008556
 20
9.4366413557
 10
-14.5831156894
 20
9.3536822351
 10
-14.7297305823
 20
9.2706514215
 10
-14.8819540838
 20
9.1864870276
 10
-15.0404223768
 20
9.100835091
 10
-15.1163307957
 20
9.0606847023
  0
LWPOLYLINE
  5
2A6
100
AcDbEntity
  8
0
100
AcDbPolyline
 62
7
  6
CONTINUOUS
 90
13
 70
0
 10
-10.5140093646
 20
-17.0
 10
-10.4500321936
 20
-16.998214313
 10
-10.3886336309
 20
-16.9931231591
 10
-10.3298136765
 20
-16.9847265383
 10
-10.2732807306
 20
-16.9729258346
 10
-10.2193263929
 20
-16.957819664
 10
-10.1688254635
 20
-16.9397038742
 10
-10.1222284512
 20
-16.9187588133
 10
-10.079084847
 20
-16.8948041332
 10
-10.0389179241
 20
-16.8675946368
 10
-10.0015687733
 20
-16.837048592
 10
-9.9671963037
 20
-16.8032477311
 10
-9.9358005153
 20
-16.7661920539
  0
LINE
  5
2A7
100
AcDbEntity
  8
0
100
AcDbLine
 62
7
  6
CONTINUOUS
 10
-11.3628905214
 20
-17.0
 11
-10.5140093646
 21
-17.0
  0
LINE
  5
2A8
100
AcDbEntity
  8
0
100
AcDbLine
 62
7
  6
CONTINUOUS
 10
-9.4659645214
 20
-17.0
 11
-9.1929855214
 21
-17.0
  0
LINE
  5
2A9
100
AcDbEntity
  8
0
100
AcDbLine
 62
7
  6
CONTINUOUS
 10
-8.1710556717
 20
-17.0
 11
-7.8392325214
 21
-17.0
  0
LINE
  5
2AA
100
AcDbEntity
  8
0
100
AcDbLine
 62
7
  6
CONTINUOUS
 10
-7.4631905214
 20
-17.0
 11
-5.9924465214
 21
-17.0
  0
LINE
  5
2AB
100
AcDbEntity
  8
0
100
AcDbLine
 62
7
  6
CONTINUOUS
 10
-5.0444625214
 20
-17.0
 11
-4.7574685214
 21
-17.0
  0
LINE
  5
2AC
100
AcDbEntity
  8
0
100
AcDbLine
 62
7
  6
CONTINUOUS
 10
-3.7473335214
 20
-17.0
 11
-3.4632125214
 21
-17.0
  0
LINE
  5
2AD
100
AcDbEntity
  8
0
100
AcDbLine
 62
7
  6
CONTINUOUS
 10
-10.5096570394
 20
-16.7688035
 11
-11.0982675214
 21
-16.7688035
  0
LINE
  5
2AE
100
AcDbEntity
  8
0
100
AcDbLine
 62
7
  6
CONTINUOUS
 10
-5.9924465214
 20
-16.763232
 11
-7.1985675214
 21
-16.763232
  0
LINE
  5
2AF
100
AcDbEntity
  8
0
100
AcDbLine
 62
7
  6
CONTINUOUS
 10
-3.4632125214
 20
-16.704737
 11
-3.7473335214
 21
-16.704737
  0
LINE
  5
2B0
100
AcDbEntity
  8
RACCORDO
100
AcDbLine
 62
7
  6
CONTINUOUS
 10
10.9800832188
 20
-16.1502338939
 11
11.0458170888
 21
-16.1502338939
  0
LINE
  5
2B1
100
AcDbEntity
  8
0
100
AcDbLine
 62
7
  6
CONTINUOUS
 10
-9.1929855214
 20
-16.142066
 11
-8.5672981767
 21
-16.1420293528
  0
LINE
  5
2B2
100
AcDbEntity
  8
0
100
AcDbLine
 62
7
  6
CONTINUOUS
 10
-7.1985675214
 20
-16.08357
 11
-6.1010805214
 21
-16.08357
  0
LWPOLYLINE
  5
2B3
100
AcDbEntity
  8
0
100
AcDbPolyline
 62
7
  6
CONTINUOUS
 90
31
 70
0
 10
-11.0982675214
 20
-16.0668575
 10
-10.5046093109
 20
-16.0668631571
 10
-10.4550759066
 20
-16.0697252179
 10
-10.407713941
 20
-16.0754436823
 10
-10.3622013239
 20
-16.0839370146
 10
-10.3188601453
 20
-16.0952867505
 10
-10.2786566762
 20
-16.1097374973
 10
-10.2416333907
 20
-16.1274672705
 10
-10.2077478147
 20
-16.1482980545
 10
-10.1778387961
 20
-16.1719404097
 10
-10.1521196161
 20
-16.198214547
 10
-10.1303769936
 20
-16.2273002553
 10
-10.1128099337
 20
-16.2594474617
 10
-10.0994989517
 20
-16.2953006529
 10
-10.0903635322
 20
-16.3342153421
 10
-10.0853611339
 20
-16.3745079955
 10
-10.0844570944
 20
-16.4167047158
 10
-10.087686076
 20
-16.4602794003
 10
-10.0951095241
 20
-16.5019702063
 10
-10.1067316422
 20
-16.541129761
 10
-10.1225482269
 20
-16.5784054373
 10
-10.1426081124
 20
-16.6124775103
 10
-10.1668383111
 20
-16.6428477092
 10
-10.1953118107
 20
-16.6700143048
 10
-10.2282964084
 20
-16.6941523859
 10
-10.2663189849
 20
-16.7155769356
 10
-10.3088526594
 20
-16.7339729706
 10
-10.3545845867
 20
-16.7485706306
 10
-10.4030771515
 20
-16.7591132955
 10
-10.4547679691
 20
-16.7658575852
 10
-10.5096570394
 20
-16.7688035
  0
LWPOLYLINE
  5
2B4
100
AcDbEntity
  8
0
100
AcDbPolyline
 62
7
  6
CONTINUOUS
 90
9
 70
0
 10
-8.5672981767
 20
-16.1420293528
 10
-8.5383335703
 20
-16.1429372491
 10
-8.5102127804
 20
-16.1447896888
 10
-8.482847173
 20
-16.1474717264
 10
-8.456325382
 20
-16.1510983075
 10
-8.4309133089
 20
-16.1560142688
 10
-8.4066995875
 20
-16.1623345559
 10
-8.383595584
 20
-16.1699442232
 10
-8.3616012984
 20
-16.1788432708
  0
LWPOLYLINE
  5
2B5
100
AcDbEntity
  8
RACCORDO
100
AcDbPolyline
 62
253
  6
CONTINUOUS
 90
16
 70
0
 10
-13.8072264104
 20
-12.5592378812
 10
-13.7897255024
 20
-12.5665758535
 10
-13.7185485929
 20
-12.6033166258
 10
-13.6508469161
 20
-12.6454069331
 10
-13.5866221774
 20
-12.6929397387
 10
-13.5258726713
 20
-12.7458220793
 10
-13.4697827389
 20
-12.8031860681
 10
-13.4184060776
 20
-12.8651366681
 10
-13.3716889898
 20
-12.9315689164
 10
-13.3306547233
 20
-13.0013000373
 10
-13.2953963671
 20
-13.074447267
 10
-13.2658208321
 20
-13.1508933693
 10
-13.2426720994
 20
-13.2291038605
 10
-13.2261981624
 20
-13.3085672461
 10
-13.2161510275
 20
-13.3897950205
 10
-13.2125306948
 20
-13.4727871838
  0
LINE
  5
2B6
100
AcDbEntity
  8
0
100
AcDbLine
 62
7
  6
CONTINUOUS
 10
-16.8387410053
 20
-11.0197234839
 11
-16.8811510518
 21
-10.9999470172
  0
LINE
  5
2B7
100
AcDbEntity
  8
TRASH
100
AcDbLine
 62
7
  6
CONTINUOUS
 10
-17.4411238151
 20
-10.7388223825
 11
-17.4640147983
 21
-10.7281482281
  0
LINE
  5
2B8
100
AcDbEntity
  8
0
100
AcDbLine
 62
7
  6
CONTINUOUS
 10
-17.3980478622
 20
-10.7589916075
 11
-17.4411241748
 21
-10.738824741
  0
LINE
  5
2B9
100
AcDbEntity
  8
0
100
AcDbLine
 62
7
  6
CONTINUOUS
 10
-16.9190175214
 20
-10.9822898071
 11
-17.3980478622
 21
-10.7589916075
  0
LINE
  5
2BA
100
AcDbEntity
  8
0
100
AcDbLine
 62
7
  6
CONTINUOUS
 10
-16.8811510518
 20
-10.9999470172
 11
-16.8394221696
 21
-11.0204046482
  0
LINE
  5
2BB
100
AcDbEntity
  8
0
100
AcDbLine
 62
7
  6
CONTINUOUS
 10
-16.9463150307
 20
-11.1272975163
 11
-16.9834019338
 21
-11.1088995575
  0
LINE
  5
2BC
100
AcDbEntity
  8
0
100
AcDbLine
 62
7
  6
CONTINUOUS
 10
-16.9834019338
 20
-11.1088995575
 11
-17.0567813004
 21
-11.0717726872
  0
LINE
  5
2BD
100
AcDbEntity
  8
0
100
AcDbLine
 62
7
  6
CONTINUOUS
 10
-17.0567813004
 20
-11.0717726872
 11
-17.1297780048
 21
-11.0345294976
  0
LINE
  5
2BE
100
AcDbEntity
  8
0
100
AcDbLine
 62
7
  6
CONTINUOUS
 10
-17.1297780048
 20
-11.0345294976
 11
-17.2386280565
 21
-10.9782098638
  0
LWPOLYLINE
  5
2BF
100
AcDbEntity
  8
0
100
AcDbPolyline
 62
7
  6
CONTINUOUS
 90
3
 70
0
 10
-17.2386280565
 20
-10.9782098638
 10
-17.3828378603
 20
-10.9024143518
 10
-17.4906225024
 20
-10.8450726247
  0
LINE
  5
2C0
100
AcDbEntity
  8
0
100
AcDbLine
 62
7
  6
CONTINUOUS
 10
-15.291174469
 20
-10.0785485469
 11
-15.1474125405
 21
-10.1549273753
  0
LWPOLYLINE
  5
2C1
100
AcDbEntity
  8
0
100
AcDbPolyline
 62
7
  6
CONTINUOUS
 90
13
 70
0
 10
-8.3616012984
 20
-16.1788432708
 10
-8.3430552718
 20
-16.1894773252
 10
-8.3253826037
 20
-16.2024251973
 10
-8.3085832941
 20
-16.217686887
 10
-8.2924234689
 20
-16.2353949731
 10
-8.2771370022
 20
-16.2554168769
 10
-8.2634255164
 20
-16.2773548621
 10
-8.2513298456
 20
-16.301326116
 10
-8.2408091557
 20
-16.3272134512
 10
-8.2324425664
 20
-16.3542675696
 10
-8.2264231175
 20
-16.382238705
 10
-8.2225577692
 20
-16.4113766235
 10
-8.2208465214
 20
-16.4416813252
  0
LINE
  5
2C2
100
AcDbEntity
  8
0
100
AcDbLine
 62
7
  6
CONTINUOUS
 10
-15.1474125405
 20
-10.1549273753
 11
-15.1292108258
 21
-10.1675285871
  0
LINE
  5
2C3
100
AcDbEntity
  8
0
100
AcDbLine
 62
7
  6
CONTINUOUS
 10
-15.1969112344
 20
-10.7388223726
 11
-15.1474126325
 21
-10.8450726739
  0
LINE
  5
2C4
100
AcDbEntity
  8
0
100
AcDbLine
 62
7
  6
CONTINUOUS
 10
-15.1740202513
 20
-10.7281482181
 11
-15.1289697735
 21
-10.8323044589
  0
LINE
  5
2C5
100
AcDbEntity
  8
0
100
AcDbLine
 62
7
  6
CONTINUOUS
 10
-19.1992940373
 20
0.5197234842
 11
-19.3690175214
 21
1.0901949367
  0
LWPOLYLINE
  5
2C6
100
AcDbEntity
  8
RACCORDO
100
AcDbPolyline
 62
7
  6
CONTINUOUS
 90
20
 70
0
 10
-13.7910915445
 20
-13.6210787114
 10
-13.7939637225
 20
-13.5690041982
 10
-13.8017866116
 20
-13.5185375275
 10
-13.8145602117
 20
-13.4696786995
 10
-13.8325524708
 20
-13.4219403293
 10
-13.8554954409
 20
-13.3758098017
 10
-13.8825852782
 20
-13.3327492713
 10
-13.9138852782
 20
-13.2929175442
 10
-13.9493321454
 20
-13.2561558145
 10
-13.9879321496
 20
-13.2234498187
 10
-14.0298163369
 20
-13.1948644617
 10
-14.0748536611
 20
-13.1703348387
 10
-14.1216572537
 20
-13.1506519729
 10
-14.1702339147
 20
-13.1359608607
 10
-14.220576844
 20
-13.1261165057
 10
-14.2712787721
 20
-13.1214749426
 10
-14.3224902345
 20
-13.1222203978
 10
-14.3740606957
 20
-13.1281686448
 10
-14.4241312801
 20
-13.1391230389
 10
-14.4261524458
 20
-13.139793022
  0
LINE
  5
2C7
100
AcDbEntity
  8
0
100
AcDbLine
 62
7
  6
CONTINUOUS
 10
-15.7190175214
 20
-7.412750323
 11
-15.7190175214
 21
-10.0461926334
  0
LINE
  5
2C8
100
AcDbEntity
  8
0
100
AcDbLine
 62
7
  6
CONTINUOUS
 10
-15.7190175214
 20
-10.9538073666
 11
-15.7190175214
 21
-13.587249677
  0
LINE
  5
2C9
100
AcDbEntity
  8
0
100
AcDbLine
 62
7
  6
CONTINUOUS
 10
-15.3288785214
 20
0.193601
 11
-15.3288785214
 21
-0.171941
  0
LINE
  5
2CA
100
AcDbEntity
  8
RACCORDO
100
AcDbLine
 62
7
  6
CONTINUOUS
 10
-13.7910915445
 20
-18.2590510008
 11
-13.7910915445
 21
-13.6210787114
  0
LINE
  5
2CB
100
AcDbEntity
  8
RACCORDO
100
AcDbLine
 62
7
  6
CONTINUOUS
 10
-13.7125116567
 20
-13.4727871837
 11
-13.7125116567
 21
-18.2170424504
  0
LINE
  5
2CC
100
AcDbEntity
  8
0
100
AcDbLine
 62
7
  6
CONTINUOUS
 10
-13.7117245214
 20
1.966914
 11
-13.7117245214
 21
0.193601
  0
LINE
  5
2CD
100
AcDbEntity
  8
0
100
AcDbLine
 62
7
  6
CONTINUOUS
 10
-13.7117245214
 20
-0.171941
 11
-13.7117245214
 21
-1.945547
  0
LWPOLYLINE
  5
2CE
100
AcDbEntity
  8
RACCORDO
100
AcDbPolyline
 62
7
  6
CONTINUOUS
 90
10
 70
0
 10
-9.3235828778
 20
12.6336021465
 10
-9.3991397439
 20
12.4875217713
 10
-9.4739507748
 20
12.3454453798
 10
-9.5480159704
 20
12.2073729723
 10
-9.6211048781
 20
12.0737135903
 10
-9.6934479506
 20
11.9440581922
 10
-9.7657365463
 20
11.817179653
 10
-9.838201118
 20
11.6926689312
 10
-9.910611213
 20
11.5709350683
 10
-9.9829668312
 20
11.4519780643
  0
LWPOLYLINE
  5
2CF
100
AcDbEntity
  8
0
100
AcDbPolyline
 62
7
  6
CONTINUOUS
 90
15
 70
0
 10
-10.6295260762
 20
13.5476481156
 10
-10.6699458365
 20
13.4712316674
 10
-10.7556337336
 20
13.3127003512
 10
-10.8398269234
 20
13.1604305051
 10
-10.9228794319
 20
13.0137849815
 10
-11.0058533365
 20
12.8708523369
 10
-11.0888208749
 20
12.7313875257
 10
-11.1717098095
 20
12.5956355935
 10
-11.255365505
 20
12.4624202345
 10
-11.3398258823
 20
12.3315861088
 10
-11.4250530206
 20
12.2032885562
 10
-11.5117785224
 20
12.0768172905
 10
-11.600246255
 20
11.9519355495
 10
-11.690212351
 20
11.8288800952
 10
-11.7816768104
 20
11.7076509278
  0
LWPOLYLINE
  5
2D0
100
AcDbEntity
  8
RACCORDO
100
AcDbPolyline
 62
7
  6
CONTINUOUS
 90
10
 70
0
 10
-10.2724335583
 20
11.0955738364
 10
-10.2333709452
 20
11.1354010265
 10
-10.1960143192
 20
11.1751795908
 10
-10.1603636802
 20
11.2149095294
 10
-10.1263937965
 20
11.2546015813
 10
-10.0941298998
 20
11.2942450075
 10
-10.0636476854
 20
11.3338075907
 10
-10.0349723851
 20
11.3732785916
 10
-10.008078767
 20
11.4126687495
 10
-9.9829668312
 20
11.4519780643
  0
LINE
  5
2D1
100
AcDbEntity
  8
RACCORDO
100
AcDbLine
 62
253
  6
CONTINUOUS
 10
-8.9210414572
 20
12.5139034384
 11
-9.9829668312
 21
11.4519780643
  0
LINE
  5
2D2
100
AcDbEntity
  8
RACCORDO
100
AcDbLine
 62
253
  6
CONTINUOUS
 10
-14.0829209598
 20
7.3520239357
 11
-13.0209955858
 21
8.4139493098
  0
LINE
  5
2D3
100
AcDbEntity
  8
RACCORDO
100
AcDbLine
 62
7
  6
CONTINUOUS
 10
-14.0494522094
 20
7.3185551853
 11
-11.8741735609
 21
9.4938338337
  0
LINE
  5
2D4
100
AcDbEntity
  8
RACCORDO
100
AcDbLine
 62
7
  6
CONTINUOUS
 10
-11.0624469192
 20
10.3055604755
 11
-8.8875727067
 21
12.4804346879
  0
LWPOLYLINE
  5
2D5
100
AcDbEntity
  8
RACCORDO
100
AcDbPolyline
 62
7
  6
CONTINUOUS
 90
3
 70
0
 10
-14.1182148903
 20
6.0209154173
 10
-14.1056905204
 20
6.0318852349
 10
-14.0887975651
 20
6.0461134672
  0
LWPOLYLINE
  5
2D6
100
AcDbEntity
  8
RACCORDO
100
AcDbPolyline
 62
7
  6
CONTINUOUS
 90
10
 70
0
 10
-13.0209955858
 20
8.4139493098
 10
-12.9816862709
 20
8.4390612456
 10
-12.942296113
 20
8.4659548636
 10
-12.9028251121
 20
8.494630164
 10
-12.863262529
 20
8.5251123784
 10
-12.8236191028
 20
8.5573762751
 10
-12.7839270508
 20
8.5913461588
 10
-12.7441971122
 20
8.6269967978
 10
-12.7044185479
 20
8.6643534238
 10
-12.6645913578
 20
8.7034160368
  0
LWPOLYLINE
  5
2D7
100
AcDbEntity
  8
RACCORDO
100
AcDbPolyline
 62
7
  6
CONTINUOUS
 90
10
 70
0
 10
-13.0209955858
 20
8.4139493098
 10
-13.1399616456
 20
8.3415884148
 10
-13.2617020805
 20
8.2691745371
 10
-13.3862168905
 20
8.1967076766
 10
-13.5130967408
 20
8.1244185191
 10
-13.6427509661
 20
8.0520763788
 10
-13.7764075711
 20
7.9789891981
 10
-13.9144758904
 20
7.9049262913
 10
-14.0565465894
 20
7.830118344
 10
-14.202619668
 20
7.7545653564
  0
LINE
  5
2D8
100
AcDbEntity
  8
0
100
AcDbLine
 62
7
  6
CONTINUOUS
 10
-8.5884454732
 20
-15.9164405
 11
-9.1929855214
 21
-15.9164405
  0
LINE
  5
2D9
100
AcDbEntity
  8
0
100
AcDbLine
 62
7
  6
CONTINUOUS
 10
-6.1010805214
 20
-15.852374
 11
-7.1985675214
 21
-15.852374
  0
LINE
  5
2DA
100
AcDbEntity
  8
0
100
AcDbLine
 62
7
  6
CONTINUOUS
 10
-10.6016220635
 20
-15.846803
 11
-11.0982675214
 21
-15.846803
  0
LINE
  5
2DB
100
AcDbEntity
  8
0
100
AcDbLine
 62
7
  6
CONTINUOUS
 10
-7.1985675214
 20
-15.245135
 11
-6.0119445214
 21
-15.245135
  0
LINE
  5
2DC
100
AcDbEntity
  8
0
100
AcDbLine
 62
7
  6
CONTINUOUS
 10
-9.1929855214
 20
-15.2312075
 11
-8.5542360394
 21
-15.2312075
  0
LINE
  5
2DD
100
AcDbEntity
  8
0
100
AcDbLine
 62
7
  6
CONTINUOUS
 10
-11.0982675214
 20
-15.2256365
 11
-10.6112407199
 21
-15.2256365
  0
LINE
  5
2DE
100
AcDbEntity
  8
DRAFT
100
AcDbLine
 62
7
  6
CONTINUOUS
 10
10.0251746205
 20
-15.1556015752
 11
10.0511847701
 21
-15.1556015752
  0
LINE
  5
2DF
100
AcDbEntity
  8
0
100
AcDbLine
 62
7
  6
CONTINUOUS
 10
-4.0272765214
 20
-15.000011
 11
-4.3305915214
 21
-15.000011
  0
LINE
  5
2E0
100
AcDbEntity
  8
0
100
AcDbLine
 62
7
  6
CONTINUOUS
 10
-5.4718195214
 20
-15.000011
 11
-5.7709995214
 21
-15.000011
  0
LINE
  5
2E1
100
AcDbEntity
  8
0
100
AcDbLine
 62
7
  6
CONTINUOUS
 10
-6.0119445214
 20
-15.000011
 11
-7.4631905214
 21
-15.000011
  0
LINE
  5
2E2
100
AcDbEntity
  8
0
100
AcDbLine
 62
7
  6
CONTINUOUS
 10
-8.5595894189
 20
-15.000011
 11
-9.4659645214
 21
-15.000011
  0
LINE
  5
2E3
100
AcDbEntity
  8
0
100
AcDbLine
 62
7
  6
CONTINUOUS
 10
-10.5006041538
 20
-15.000011
 11
-11.3628905214
 21
-15.000011
  0
LWPOLYLINE
  5
2E4
100
AcDbEntity
  8
0
100
AcDbPolyline
 62
7
  6
CONTINUOUS
 90
34
 70
0
 10
-10.6112407199
 20
-15.2256365
 10
-10.5677198892
 20
-15.2258488469
 10
-10.5256831675
 20
-15.2277954477
 10
-10.4851305549
 20
-15.2314763026
 10
-10.4457439829
 20
-15.2365762078
 10
-10.40784152
 20
-15.2434103671
 10
-10.3723773716
 20
-15.2529243911
 10
-10.3394350748
 20
-15.2653968774
 10
-10.3089310925
 20
-15.2805492285
 10
-10.2815690195
 20
-15.2984912627
 10
-10.2575110895
 20
-15.319300008
 10
-10.2365950688
 20
-15.3428984363
 10
-10.2190378512
 20
-15.3691652817
 10
-10.2049382439
 20
-15.3984066905
 10
-10.1941974397
 20
-15.4303165164
 10
-10.1867359107
 20
-15.4638550543
 10
-10.1825614863
 20
-15.4995121041
 10
-10.1816663371
 20
-15.536797866
 10
-10.1839474477
 20
-15.5732032358
 10
-10.1891924444
 20
-15.6083789051
 10
-10.197613701
 20
-15.6426741824
 10
-10.2097453229
 20
-15.6746278895
 10
-10.2258633104
 20
-15.7038808368
 10
-10.2456916632
 20
-15.7307922138
 10
-10.2689364856
 20
-15.754978411
 10
-10.2957713426
 20
-15.7764392555
 10
-10.3260226692
 20
-15.7951749202
 10
-10.3588758744
 20
-15.8108023138
 10
-10.3943328835
 20
-15.8228872131
 10
-10.4323917712
 20
-15.8318638412
 10
-10.4722321698
 20
-15.8386517762
 10
-10.5135806234
 20
-15.843557544
 10
-10.556710588
 20
-15.8462746186
 10
-10.6016220635
 20
-15.846803
  0
LWPOLYLINE
  5
2E5
100
AcDbEntity
  8
0
100
AcDbPolyline
 62
7
  6
CONTINUOUS
 90
16
 70
0
 10
-8.5542360394
 20
-15.2312075
 10
-8.5086400574
 20
-15.2314365202
 10
-8.4655007991
 20
-15.2351899673
 10
-8.4248182645
 20
-15.2424678411
 10
-8.3862333633
 20
-15.2533242689
 10
-8.3501051859
 20
-15.2677051234
 10
-8.3175110032
 20
-15.2854480236
 10
-8.2886846366
 20
-15.3068878919
 10
-8.2633922648
 20
-15.3316898057
 10
-8.2420096946
 20
-15.3586866171
 10
-8.2248979617
 20
-15.3874958398
 10
-8.2116960305
 20
-15.4184999601
 10
-8.2016966009
 20
-15.4516792877
 10
-8.1946639061
 20
-15.4870272594
 10
-8.190833713
 20
-15.5245504386
 10
-8.1902060214
 20
-15.5642488252
  0
LINE
  5
2E6
100
AcDbEntity
  8
0
100
AcDbLine
 62
7
  6
CONTINUOUS
 10
-17.8307983454
 20
-10.7630844434
 11
-17.508824217
 21
-10.8324714129
  0
LINE
  5
2E7
100
AcDbEntity
  8
0
100
AcDbLine
 62
7
  6
CONTINUOUS
 10
-17.9910352574
 20
-10.7279452996
 11
-17.8307983454
 21
-10.7630844434
  0
LINE
  5
2E8
100
AcDbEntity
  8
0
100
AcDbLine
 62
7
  6
CONTINUOUS
 10
-15.7992940376
 20
-9.9802765161
 11
-15.7568839911
 21
-10.0000529828
  0
LINE
  5
2E9
100
AcDbEntity
  8
TRASH
100
AcDbLine
 62
7
  6
CONTINUOUS
 10
-15.1969112277
 20
-10.2611776175
 11
-15.1740202446
 21
-10.2718517719
  0
LINE
  5
2EA
100
AcDbEntity
  8
0
100
AcDbLine
 62
7
  6
CONTINUOUS
 10
-15.2399871807
 20
-10.2410083925
 11
-15.1969108681
 21
-10.261175259
  0
LINE
  5
2EB
100
AcDbEntity
  8
0
100
AcDbLine
 62
7
  6
CONTINUOUS
 10
-15.7190175214
 20
-10.0177101929
 11
-15.2399871807
 21
-10.2410083925
  0
LINE
  5
2EC
100
AcDbEntity
  8
0
100
AcDbLine
 62
7
  6
CONTINUOUS
 10
-15.7568839911
 20
-10.0000529828
 11
-15.7986128733
 21
-9.9795953518
  0
LINE
  5
2ED
100
AcDbEntity
  8
0
100
AcDbLine
 62
7
  6
CONTINUOUS
 10
-15.6917200122
 20
-9.8727024837
 11
-15.6546331091
 21
-9.8911004425
  0
LINE
  5
2EE
100
AcDbEntity
  8
0
100
AcDbLine
 62
7
  6
CONTINUOUS
 10
-15.6546331091
 20
-9.8911004425
 11
-15.5812537425
 21
-9.9282273128
  0
LINE
  5
2EF
100
AcDbEntity
  8
0
100
AcDbLine
 62
7
  6
CONTINUOUS
 10
-15.5812537425
 20
-9.9282273128
 11
-15.508257038
 21
-9.9654705024
  0
LINE
  5
2F0
100
AcDbEntity
  8
0
100
AcDbLine
 62
7
  6
CONTINUOUS
 10
-15.508257038
 20
-9.9654705024
 11
-15.3994069863
 21
-10.0217901362
  0
LINE
  5
2F1
100
AcDbEntity
  8
0
100
AcDbLine
 62
7
  6
CONTINUOUS
 10
-15.3994069863
 20
-10.0217901362
 11
-15.291174469
 21
-10.0785485469
  0
LINE
  5
2F2
100
AcDbEntity
  8
RACCORDO
100
AcDbLine
 62
253
  6
CONTINUOUS
 10
-13.0690175214
 20
-6.7499746153
 11
-13.083562096
 21
-6.7354300408
  0
LINE
  5
2F3
100
AcDbEntity
  8
RACCORDO
100
AcDbLine
 62
7
  6
CONTINUOUS
 10
-13.3893799258
 20
14.9691725292
 11
-13.3893799258
 21
14.9082739245
  0
LINE
  5
2F4
100
AcDbEntity
  8
0
100
AcDbLine
 62
7
  6
CONTINUOUS
 10
-13.3871235214
 20
-1.945547
 11
-13.3871235214
 21
1.966914
  0
LINE
  5
2F5
100
AcDbEntity
  8
RACCORDO
100
AcDbLine
 62
7
  6
CONTINUOUS
 10
-13.3690175214
 20
14.9888360777
 11
-13.3690175214
 21
14.9286363289
  0
LINE
  5
2F6
100
AcDbEntity
  8
RACCORDO
100
AcDbLine
 62
253
  6
CONTINUOUS
 10
-13.2125306948
 20
-13.4727871838
 11
-13.2125306951
 21
-17.9438470348
  0
LINE
  5
2F7
100
AcDbEntity
  8
RACCORDO
100
AcDbLine
 62
7
  6
CONTINUOUS
 10
-13.083562096
 20
-10.1963698875
 11
-13.083562096
 21
-6.7354300408
  0
LINE
  5
2F8
100
AcDbEntity
  8
RACCORDO
100
AcDbLine
 62
7
  6
CONTINUOUS
 10
-13.0690175214
 20
-10.5
 11
-13.0690175214
 21
-6.7499746153
  0
LINE
  5
2F9
100
AcDbEntity
  8
0
100
AcDbLine
 62
7
  6
CONTINUOUS
 10
-12.8841385214
 20
1.320637
 11
-12.8841385214
 21
-1.298978
  0
LINE
  5
2FA
100
AcDbEntity
  8
0
100
AcDbLine
 62
7
  6
CONTINUOUS
 10
-12.5595385214
 20
-1.298978
 11
-12.5595385214
 21
1.320637
  0
LINE
  5
2FB
100
AcDbEntity
  8
0
100
AcDbLine
 62
7
  6
CONTINUOUS
 10
-12.0565535214
 20
0.674068
 11
-12.0565535214
 21
-0.652701
  0
LINE
  5
2FC
100
AcDbEntity
  8
0
100
AcDbLine
 62
7
  6
CONTINUOUS
 10
-11.7290285214
 20
-0.652701
 11
-11.7290285214
 21
0.674068
  0
LINE
  5
2FD
100
AcDbEntity
  8
0
100
AcDbLine
 62
7
  6
CONTINUOUS
 10
-17.4787457507
 20
-10.7630445128
 11
-17.4640147983
 21
-10.7281482281
  0
LINE
  5
2FE
100
AcDbEntity
  8
0
100
AcDbLine
 62
7
  6
CONTINUOUS
 10
-17.4936822236
 20
-10.7978189078
 11
-17.4787457507
 21
-10.7630445128
  0
LINE
  5
2FF
100
AcDbEntity
  8
0
100
AcDbLine
 62
7
  6
CONTINUOUS
 10
-17.508824217
 20
-10.8324714129
 11
-17.4936822236
 21
-10.7978189078
  0
LINE
  5
300
100
AcDbEntity
  8
DRAFT
100
AcDbLine
 62
7
  6
CONTINUOUS
 10
-19.5486551171
 20
-3.5040133167
 11
-19.5469097682
 21
-3.5022573558
  0
LINE
  5
301
100
AcDbEntity
  8
RACCORDO
100
AcDbLine
 62
253
  6
CONTINUOUS
 10
-11.6849721492
 20
6.9339741124
 11
-8.5029916339
 21
10.1159546278
  0
LINE
  5
302
100
AcDbEntity
  8
RACCORDO
100
AcDbLine
 62
7
  6
CONTINUOUS
 10
-11.4728481922
 20
6.7218501554
 11
-8.2908676769
 21
9.9038306708
  0
LINE
  5
303
100
AcDbEntity
  8
DRAFT
100
AcDbLine
 62
7
  6
CONTINUOUS
 10
-11.468512458
 20
6.7175144213
 11
-8.2865319427
 21
9.8994949366
  0
LWPOLYLINE
  5
304
100
AcDbEntity
  8
RACCORDO
100
AcDbPolyline
 62
7
  6
CONTINUOUS
 90
11
 70
0
 10
-14.0887975651
 20
6.0461134672
 10
-14.068259818
 20
6.0630511001
 10
-14.0447768772
 20
6.0821493092
 10
-14.0189303732
 20
6.1028027776
 10
-13.9911578103
 20
6.1243797178
 10
-13.9618951004
 20
6.1463480174
 10
-13.9315670485
 20
6.1683126479
 10
-13.9004813075
 20
6.1899236514
 10
-13.868908125
 20
6.2108745348
 10
-13.8370892831
 20
6.2309109063
 10
-13.8052039087
 20
6.2498457185
  0
LWPOLYLINE
  5
305
100
AcDbEntity
  8
RACCORDO
100
AcDbPolyline
 62
7
  6
CONTINUOUS
 90
10
 70
0
 10
-14.1182148903
 20
6.0209154173
 10
-14.1201797366
 20
6.0193509069
 10
-14.1221980779
 20
6.0180230458
 10
-14.1242712751
 20
6.0169338233
 10
-14.1264026926
 20
6.0160811183
 10
-14.1285909548
 20
6.0154712604
 10
-14.1308299762
 20
6.0151191629
 10
-14.1331179027
 20
6.0150315057
 10
-14.1354570724
 20
6.0152066041
 10
-14.1378472946
 20
6.0156470596
  0
LWPOLYLINE
  5
306
100
AcDbEntity
  8
0
100
AcDbPolyline
 62
7
  6
CONTINUOUS
 90
19
 70
0
 10
1.7906559847
 20
-11.8206725763
 10
1.7521584882
 20
-11.8226854093
 10
1.7162110241
 20
-11.8287407333
 10
1.6828135924
 20
-11.8388385485
 10
1.6520481879
 20
-11.8528998062
 10
1.6238328159
 20
-11.8710035549
 10
1.5979214916
 20
-11.8933869404
 10
1.5740922257
 20
-11.9204992126
 10
1.5525670076
 20
-11.9518911215
 10
1.5337658209
 20
-11.9864520623
 10
1.5180667774
 20
-12.0241521799
 10
1.5050917652
 20
-12.0650213295
 10
1.494126432
 20
-12.1080384716
 10
1.4850481176
 20
-12.1529552166
 10
1.477979482
 20
-12.200019954
 10
1.4725741531
 20
-12.2489568136
 10
1.4687166733
 20
-12.2996738388
 10
1.4665225002
 20
-12.3522629861
 10
1.4659916336
 20
-12.4067242557
  0
LWPOLYLINE
  5
307
100
AcDbEntity
  8
0
100
AcDbPolyline
 62
7
  6
CONTINUOUS
 90
22
 70
0
 10
1.7906559847
 20
-12.9944022137
 10
1.8213690001
 20
-12.9933134728
 10
1.8509156568
 20
-12.9892851613
 10
1.8792959548
 20
-12.9823172795
 10
1.9066937274
 20
-12.9725419727
 10
1.9329251414
 20
-12.9598270955
 10
1.9574386961
 20
-12.9437762112
 10
1.9801133932
 20
-12.9240672898
 10
2.0010702311
 20
-12.9010223613
 10
2.020120705
 20
-12.8752110792
 10
2.0371789566
 20
-12.8465587692
 10
2.0523308442
 20
-12.8151401055
 10
2.0656454377
 20
-12.781748764
 10
2.0770210965
 20
-12.7465228282
 10
2.0865594613
 20
-12.7093242146
 10
2.0946345241
 20
-12.6705323487
 10
2.1012833698
 20
-12.6302128703
 10
2.1064689135
 20
-12.5883001395
 10
2.1104538926
 20
-12.5449766621
 10
2.1133258862
 20
-12.5003032733
 10
2.1149973151
 20
-12.4542191378
 10
2.1154681794
 20
-12.4067242557
  0
LWPOLYLINE
  5
308
100
AcDbEntity
  8
0
100
AcDbPolyline
 62
7
  6
CONTINUOUS
 90
25
 70
0
 10
1.7906559847
 20
-12.8140331298
 10
1.7774250534
 20
-12.8142935397
 10
1.764512235
 20
-12.8123129986
 10
1.7519175295
 20
-12.8080915067
 10
1.739374299
 20
-12.801506221
 10
1.7271491814
 20
-12.7926799844
 10
1.7160420902
 20
-12.7819813249
 10
1.7062994038
 20
-12.7693110365
 10
1.6976747438
 20
-12.7547683251
 10
1.6902288885
 20
-12.7390193367
 10
1.6841786752
 20
-12.7221297349
 10
1.6793072667
 20
-12.7040338561
 10
1.6750249293
 20
-12.685200855
 10
1.6711685928
 20
-12.6657723963
 10
1.6679013275
 20
-12.6456068155
 10
1.6651226111
 20
-12.6247482737
 10
1.6628599449
 20
-12.6032009617
 10
1.6610858276
 20
-12.5809606887
 10
1.6596172341
 20
-12.5580590441
 10
1.658420461
 20
-12.5345102353
 10
1.6575292117
 20
-12.5103000548
 10
1.6568615713
 20
-12.4854174698
 10
1.656390235
 20
-12.4598588029
 10
1.6561425077
 20
-12.4336277315
 10
1.6561183893
 20
-12.4067242557
  0
LWPOLYLINE
  5
309
100
AcDbEntity
  8
RACCORDO
100
AcDbPolyline
 62
253
  6
CONTINUOUS
 90
21
 70
0
 10
-14.2121725522
 20
-12.9731210418
 10
-14.1946329967
 20
-12.9730347766
 10
-14.1545169894
 20
-12.9760773053
 10
-14.1149096156
 20
-12.9823096589
 10
-14.0760363892
 20
-12.991666386
 10
-14.0380677732
 20
-13.0040887573
 10
-14.0012510382
 20
-13.0194863634
 10
-13.9658097326
 20
-13.0377558878
 10
-13.9318817409
 20
-13.0588308162
 10
-13.8996764468
 20
-13.0826029844
 10
-13.8694273262
 20
-13.1089231643
 10
-13.8413120141
 20
-13.1376647762
 10
-13.8155242798
 20
-13.1686691679
 10
-13.7922600932
 20
-13.2017438714
 10
-13.7716893582
 20
-13.2366944856
 10
-13.7539703105
 20
-13.2733089957
 10
-13.7392477173
 20
-13.3113544769
 10
-13.7276467492
 20
-13.3505846644
 10
-13.7192717732
 20
-13.3907438822
 10
-13.7142060832
 20
-13.4315689152
 10
-13.712511656
 20
-13.4727871839
  0
LINE
  5
30A
100
AcDbEntity
  8
RACCORDO
100
AcDbLine
 62
253
  6
CONTINUOUS
 10
-13.2125306948
 20
-13.4727871838
 11
-13.7125116567
 21
-13.4727871838
  0
LINE
  5
30B
100
AcDbEntity
  8
0
100
AcDbLine
 62
7
  6
CONTINUOUS
 10
-0.3963931295
 20
-12.963799
 11
0.2437694786
 21
-12.963799
  0
LINE
  5
30C
100
AcDbEntity
  8
0
100
AcDbLine
 62
7
  6
CONTINUOUS
 10
0.2437694786
 20
-12.76421
 11
-0.1628004186
 21
-12.76421
  0
LINE
  5
30D
100
AcDbEntity
  8
0
100
AcDbLine
 62
7
  6
CONTINUOUS
 10
0.7170163303
 20
-12.65791
 11
0.532064106
 21
-12.65791
  0
LINE
  5
30E
100
AcDbEntity
  8
0
100
AcDbLine
 62
7
  6
CONTINUOUS
 10
-0.3857483717
 20
-12.224877
 11
-0.206414183
 21
-12.224877
  0
LINE
  5
30F
100
AcDbEntity
  8
0
100
AcDbLine
 62
7
  6
CONTINUOUS
 10
0.7591514786
 20
-12.030019
 11
1.1407354786
 21
-12.030019
  0
LINE
  5
310
100
AcDbEntity
  8
ASSI
100
AcDbLine
 62
7
  6
CONTINUOUS
 10
13.225392942
 20
-12.0
 11
13.1596188074
 21
-12.0
  0
LINE
  5
311
100
AcDbEntity
  8
DRAFT
100
AcDbLine
 62
7
  6
CONTINUOUS
 10
13.225392942
 20
-12.0
 11
13.1596188074
 21
-12.0
  0
LINE
  5
312
100
AcDbEntity
  8
ASSI
100
AcDbLine
 62
7
  6
CONTINUOUS
 10
13.2637551759
 20
-11.960729733
 11
13.1988890745
 21
-11.960729733
  0
LINE
  5
313
100
AcDbEntity
  8
DRAFT
100
AcDbLine
 62
7
  6
CONTINUOUS
 10
13.2637551759
 20
-11.960729733
 11
13.1988890745
 21
-11.960729733
  0
LINE
  5
314
100
AcDbEntity
  8
0
100
AcDbLine
 62
7
  6
CONTINUOUS
 10
1.1407354786
 20
-11.84004
 11
0.6257964786
 21
-11.84004
  0
LINE
  5
315
100
AcDbEntity
  8
0
100
AcDbLine
 62
7
  6
CONTINUOUS
 10
-0.3230625214
 20
-11.5
 11
2.1218254786
 21
-11.5
  0
LINE
  5
316
100
AcDbEntity
  8
0
100
AcDbLine
 62
7
  6
CONTINUOUS
 10
0.5611894786
 20
-12.467931
 11
0.7261828852
 21
-12.4775410237
  0
LWPOLYLINE
  5
317
100
AcDbEntity
  8
0
100
AcDbPolyline
 62
7
  6
CONTINUOUS
 90
25
 70
0
 10
1.7906559847
 20
-12.0010416603
 10
1.8061235209
 20
-12.0019534356
 10
1.8207767016
 20
-12.0050937323
 10
1.8346155268
 20
-12.0104625504
 10
1.8478863078
 20
-12.0182722507
 10
1.8603427333
 20
-12.0283104724
 10
1.8712458694
 20
-12.0399401333
 10
1.880145517
 20
-12.0531464688
 10
1.8874918753
 20
-12.0679442435
 10
1.8938966078
 20
-12.0837406686
 10
1.8994532547
 20
-12.1004371542
 10
1.9040682759
 20
-12.1181322901
 10
1.9080727147
 20
-12.136529057
 10
1.9115025311
 20
-12.1555531066
 10
1.9143217651
 20
-12.1752787871
 10
1.9167535802
 20
-12.195632124
 10
1.9188400323
 20
-12.2165905472
 10
1.9205390656
 20
-12.2381766269
 10
1.9219476759
 20
-12.2603840991
 10
1.923066826
 20
-12.2832087054
 10
1.9238955532
 20
-12.3066547043
 10
1.9245279657
 20
-12.3307286076
 10
1.924995433
 20
-12.3554325859
 10
1.9252665856
 20
-12.3807644686
 10
1.9253414236
 20
-12.4067242557
  0
LINE
  5
318
100
AcDbEntity
  8
0
100
AcDbLine
 62
7
  6
CONTINUOUS
 10
-15.1292108258
 20
-10.1675285871
 11
-14.9144256884
 21
-10.2136365207
  0
LWPOLYLINE
  5
319
100
AcDbEntity
  8
0
100
AcDbPolyline
 62
7
  6
CONTINUOUS
 90
3
 70
0
 10
-14.9144256884
 20
-10.2136365207
 10
-14.7003450682
 20
-10.2603110136
 10
-14.6469997855
 20
-10.2720547004
  0
LINE
  5
31A
100
AcDbEntity
  8
RACCORDO
100
AcDbLine
 62
253
  6
CONTINUOUS
 10
-11.5893714639
 20
-5.2296714422
 11
-11.5690429061
 21
-5.25
  0
LINE
  5
31B
100
AcDbEntity
  8
DRAFT
100
AcDbLine
 62
7
  6
CONTINUOUS
 10
-19.5486551171
 20
3.5040133167
 11
-19.5469097682
 21
3.5022573558
  0
LWPOLYLINE
  5
31C
100
AcDbEntity
  8
0
100
AcDbPolyline
 62
7
  6
CONTINUOUS
 90
3
 70
0
 10
-15.6392268546
 20
12.7338728392
 10
-15.6278772865
 20
12.6943567122
 10
-15.622569878
 20
12.6750839722
  0
LWPOLYLINE
  5
31D
100
AcDbEntity
  8
0
100
AcDbPolyline
 62
7
  6
CONTINUOUS
 90
9
 70
0
 10
-8.205688556
 20
-16.8037405189
 10
-8.2040133142
 20
-16.8314156262
 10
-8.2018932961
 20
-16.8583137857
 10
-8.1996535836
 20
-16.8845604356
 10
-8.1969690948
 20
-16.9100301376
 10
-8.1928645838
 20
-16.9343465766
 10
-8.1870149686
 20
-16.9573843141
 10
-8.1797453313
 20
-16.9792687886
 10
-8.1710556717
 20
-17.0
  0
LWPOLYLINE
  5
31E
100
AcDbEntity
  8
0
100
AcDbPolyline
 62
7
  6
CONTINUOUS
 90
10
 70
0
 10
-9.8141525214
 20
-16.4168294457
 10
-9.8158267395
 20
-16.3664354421
 10
-9.8211101118
 20
-16.3183655531
 10
-9.8300026383
 20
-16.2726197786
 10
-9.8428822989
 20
-16.2288412889
 10
-9.8593711137
 20
-16.1873869136
 10
-9.8783351434
 20
-16.1493271421
 10
-9.8993964079
 20
-16.1150188042
 10
-9.9229328873
 20
-16.08410507
 10
-9.9489445815
 20
-16.0565859395
  0
LINE
  5
31F
100
AcDbEntity
  8
0
100
AcDbLine
 62
7
  6
CONTINUOUS
 10
-11.3628905214
 20
-15.000011
 11
-11.3628905214
 21
-17.0
  0
LINE
  5
320
100
AcDbEntity
  8
0
100
AcDbLine
 62
7
  6
CONTINUOUS
 10
-11.0982675214
 20
-16.7688035
 11
-11.0982675214
 21
-16.0668575
  0
LINE
  5
321
100
AcDbEntity
  8
0
100
AcDbLine
 62
7
  6
CONTINUOUS
 10
-11.0982675214
 20
-15.846803
 11
-11.0982675214
 21
-15.2256365
  0
LINE
  5
322
100
AcDbEntity
  8
0
100
AcDbLine
 62
7
  6
CONTINUOUS
 10
-10.5690175214
 20
-7.0
 11
-10.5690175214
 21
-6.4
  0
LINE
  5
323
100
AcDbEntity
  8
0
100
AcDbLine
 62
7
  6
CONTINUOUS
 10
-9.4659645214
 20
-15.000011
 11
-9.4659645214
 21
-17.0
  0
LINE
  5
324
100
AcDbEntity
  8
0
100
AcDbLine
 62
7
  6
CONTINUOUS
 10
-9.1929855214
 20
-17.0
 11
-9.1929855214
 21
-16.142066
  0
LINE
  5
325
100
AcDbEntity
  8
0
100
AcDbLine
 62
7
  6
CONTINUOUS
 10
-9.1929855214
 20
-15.9164405
 11
-9.1929855214
 21
-15.2312075
  0
LINE
  5
326
100
AcDbEntity
  8
0
100
AcDbLine
 62
7
  6
CONTINUOUS
 10
-5.0286935214
 20
13.437983
 11
-5.3142515214
 21
12.588544
  0
LINE
  5
327
100
AcDbEntity
  8
0
100
AcDbLine
 62
7
  6
CONTINUOUS
 10
-15.1592892922
 20
-10.2369554872
 11
-15.1740202446
 21
-10.2718517719
  0
LINE
  5
328
100
AcDbEntity
  8
0
100
AcDbLine
 62
7
  6
CONTINUOUS
 10
-15.1443528192
 20
-10.2021810922
 11
-15.1592892922
 21
-10.2369554872
  0
LINE
  5
329
100
AcDbEntity
  8
0
100
AcDbLine
 62
7
  6
CONTINUOUS
 10
-15.1292108258
 20
-10.1675285871
 11
-15.1443528192
 21
-10.2021810922
  0
LINE
  5
32A
100
AcDbEntity
  8
0
100
AcDbLine
 62
7
  6
CONTINUOUS
 10
-17.4906225024
 20
-10.8450726247
 11
-17.4411238151
 21
-10.7388223825
  0
LINE
  5
32B
100
AcDbEntity
  8
0
100
AcDbLine
 62
7
  6
CONTINUOUS
 10
-15.1474125405
 20
-10.1549273753
 11
-15.1969112277
 21
-10.2611776175
  0
LINE
  5
32C
100
AcDbEntity
  8
0
100
AcDbLine
 62
7
  6
CONTINUOUS
 10
-16.8387349564
 20
-9.9802732178
 11
-16.8189641656
 21
-9.9378661378
  0
LINE
  5
32D
100
AcDbEntity
  8
0
100
AcDbLine
 62
7
  6
CONTINUOUS
 10
-15.7993000865
 20
-11.0197267822
 11
-15.8190708773
 21
-11.0621338622
  0
LINE
  5
32E
100
AcDbEntity
  8
0
100
AcDbLine
 62
7
  6
CONTINUOUS
 10
-16.8189641656
 20
-9.9378661378
 11
-16.8394221696
 21
-9.9795953519
  0
LINE
  5
32F
100
AcDbEntity
  8
0
100
AcDbLine
 62
7
  6
CONTINUOUS
 10
-15.8190708773
 20
-11.0621338622
 11
-15.7986128733
 21
-11.0204046481
  0
LWPOLYLINE
  5
330
100
AcDbEntity
  8
0
100
AcDbPolyline
 62
7
  6
CONTINUOUS
 90
3
 70
0
 10
-15.6917201148
 20
-11.1272972341
 10
-15.7144563258
 20
-11.1728023655
 10
-15.7190175214
 20
-11.1818871521
  0
LINE
  5
331
100
AcDbEntity
  8
0
100
AcDbLine
 62
7
  6
CONTINUOUS
 10
-16.946314928
 20
-9.8727027659
 11
-16.9190175214
 21
-9.8181128479
  0
LINE
  5
332
100
AcDbEntity
  8
DRAFT
100
AcDbLine
 62
7
  6
CONTINUOUS
 10
-19.5690175214
 20
-3.7744348852
 11
-19.5486551171
 21
-3.7540724809
  0
LINE
  5
333
100
AcDbEntity
  8
RACCORDO
100
AcDbLine
 62
7
  6
CONTINUOUS
 10
-19.5399283724
 20
-5.2209108509
 11
-19.5486889637
 21
-5.2296714422
  0
LINE
  5
334
100
AcDbEntity
  8
DRAFT
100
AcDbLine
 62
7
  6
CONTINUOUS
 10
-20.9974572056
 20
-7.9284396841
 11
-21.0410915445
 21
-7.9720740231
  0
LWPOLYLINE
  5
335
100
AcDbEntity
  8
RACCORDO
100
AcDbPolyline
 62
7
  6
CONTINUOUS
 90
5
 70
0
 10
10.0744956523
 20
17.9474512644
 10
10.122497153
 20
17.9739494128
 10
10.1705408004
 20
17.9999071402
 10
10.2181528069
 20
18.0253244465
 10
10.3100431819
 20
18.0750616704
  0
LWPOLYLINE
  5
336
100
AcDbEntity
  8
RACCORDO
100
AcDbPolyline
 62
7
  6
CONTINUOUS
 90
3
 70
0
 10
10.3100431819
 20
18.0750616704
 10
10.3943548395
 20
18.1202877725
 10
10.4323652525
 20
18.1409154732
  0
LINE
  5
337
100
AcDbEntity
  8
RACCORDO
100
AcDbLine
 62
7
  6
CONTINUOUS
 10
10.5744766139
 20
18.2170424504
 11
10.6530565016
 21
18.2590510008
  0
LWPOLYLINE
  5
338
100
AcDbEntity
  8
RACCORDO
100
AcDbPolyline
 62
7
  6
CONTINUOUS
 90
7
 70
0
 10
10.4323652525
 20
18.1409154732
 10
10.4976032702
 20
18.1757461089
 10
10.5237699764
 20
18.1899490439
 10
10.5449939971
 20
18.2012561273
 10
10.5608032071
 20
18.2094140866
 10
10.5707550014
 20
18.2146761943
 10
10.5744766139
 20
18.2170424504
  0
LWPOLYLINE
  5
339
100
AcDbEntity
  8
IMPORT_IGES
100
AcDbPolyline
 62
7
  6
CONTINUOUS
 90
10
 70
0
 10
2.9233495029
 20
13.1780328698
 10
2.8971702039
 20
13.1650864319
 10
2.8694309477
 20
13.1537396211
 10
2.8401317343
 20
13.1439924372
 10
2.8090397812
 20
13.1361408618
 10
2.776387871
 20
13.1298889134
 10
2.7428743509
 20
13.1243486475
 10
2.7087320033
 20
13.1192240825
 10
2.6737280459
 20
13.1148112
 10
2.6378624786
 20
13.11111
  0
LWPOLYLINE
  5
33A
100
AcDbEntity
  8
RACCORDO
100
AcDbPolyline
 62
7
  6
CONTINUOUS
 90
10
 70
0
 10
-12.4956101414
 20
6.0696088605
 10
-12.5171301168
 20
6.0628255491
 10
-12.538624991
 20
6.0562429689
 10
-12.5600928023
 20
6.0498596256
 10
-12.5815301652
 20
6.0436744878
 10
-12.6029366243
 20
6.0376855364
 10
-12.6243146887
 20
6.0318898841
 10
-12.6456640079
 20
6.026285655
 10
-12.6669813377
 20
6.0208718661
 10
-12.688264918
 20
6.0156470596
  0
LINE
  5
33B
100
AcDbEntity
  8
0
100
AcDbLine
 62
7
  6
CONTINUOUS
 10
2.1218254786
 20
-11.337076
 11
-0.3230625214
 21
-11.337076
  0
LINE
  5
33C
100
AcDbEntity
  8
0
100
AcDbLine
 62
7
  6
CONTINUOUS
 10
0.4061014786
 20
-11.0544
 11
0.5909054786
 21
-11.0544
  0
LINE
  5
33D
100
AcDbEntity
  8
0
100
AcDbLine
 62
7
  6
CONTINUOUS
 10
0.1830054786
 20
-10.267133
 11
0.4061014786
 21
-10.267133
  0
LINE
  5
33E
100
AcDbEntity
  8
0
100
AcDbLine
 62
7
  6
CONTINUOUS
 10
1.4126201813
 20
-10.201195
 11
1.5960939723
 21
-10.201195
  0
LINE
  5
33F
100
AcDbEntity
  8
0
100
AcDbLine
 62
7
  6
CONTINUOUS
 10
0.5909054786
 20
-9.911274
 11
0.4392183721
 21
-9.911274
  0
LINE
  5
340
100
AcDbEntity
  8
0
100
AcDbLine
 62
7
  6
CONTINUOUS
 10
-15.1740095973
 20
-10.7281927449
 11
-14.6470262712
 21
-10.7281394927
  0
LINE
  5
341
100
AcDbEntity
  8
0
100
AcDbLine
 62
7
  6
CONTINUOUS
 10
-17.9910087717
 20
-10.2718605079
 11
-17.4640254446
 21
-10.27180726
  0
LINE
  5
342
100
AcDbEntity
  8
0
100
AcDbLine
 62
7
  6
CONTINUOUS
 10
-17.4640571045
 20
-10.7283532711
 11
-17.9910352574
 21
-10.7279452996
  0
LINE
  5
343
100
AcDbEntity
  8
0
100
AcDbLine
 62
7
  6
CONTINUOUS
 10
-15.1739779383
 20
-10.2716467289
 11
-14.6469997855
 21
-10.2720547004
  0
LINE
  5
344
100
AcDbEntity
  8
DRAFT
100
AcDbLine
 62
7
  6
CONTINUOUS
 10
-10.7869083815
 20
-7.8466757722
 11
-12.0638891268
 21
-7.6672078323
  0
LINE
  5
345
100
AcDbEntity
  8
0
100
AcDbLine
 62
7
  6
CONTINUOUS
 10
2.4924691697
 20
-11.535925891
 11
2.6030560078
 21
-11.5749568338
  0
LWPOLYLINE
  5
346
100
AcDbEntity
  8
0
100
AcDbPolyline
 62
7
  6
CONTINUOUS
 90
12
 70
0
 10
3.21420736
 20
-11.5812097917
 10
3.2301824473
 20
-11.5869483593
 10
3.2470844632
 20
-11.5912846135
 10
3.2649969137
 20
-11.5942498301
 10
3.2838362927
 20
-11.5958127332
 10
3.3033520824
 20
-11.5958794956
 10
3.3236048862
 20
-11.5945874325
 10
3.3445341007
 20
-11.5917992286
 10
3.3657073976
 20
-11.5870091103
 10
3.3869806677
 20
-11.5800484865
 10
3.4084980202
 20
-11.5710859483
 10
3.4302594552
 20
-11.5601214957
  0
LWPOLYLINE
  5
347
100
AcDbEntity
  8
0
100
AcDbPolyline
 62
7
  6
CONTINUOUS
 90
19
 70
0
 10
2.99380839
 20
-11.2445269367
 10
2.96555037
 20
-11.2337868194
 10
2.9362225477
 20
-11.2257299247
 10
2.9058249233
 20
-11.2203562525
 10
2.8739545446
 20
-11.2174765025
 10
2.8410143637
 20
-11.2172799751
 10
2.8082132372
 20
-11.2203345712
 10
2.7756916544
 20
-11.2266300105
 10
2.743309126
 20
-11.2361765734
 10
2.7118530394
 20
-11.2495730024
 10
2.6814472497
 20
-11.2671033981
 10
2.6519679019
 20
-11.2884836598
 10
2.6238308182
 20
-11.3134602285
 10
2.5968619518
 20
-11.3420378095
 10
2.5712353495
 20
-11.3742116974
 10
2.5478889739
 20
-11.4097142171
 10
2.5271354792
 20
-11.4484561433
 10
2.5086622111
 20
-11.4905267013
 10
2.4924691697
 20
-11.535925891
  0
LINE
  5
348
100
AcDbEntity
  8
0
100
AcDbLine
 62
7
  6
CONTINUOUS
 10
2.8772801664
 20
-11.4201553985
 11
3.21420736
 21
-11.5812097917
  0
LINE
  5
349
100
AcDbEntity
  8
DRAFT
100
AcDbLine
 62
7
  6
CONTINUOUS
 10
-19.5486551171
 20
3.7540724809
 11
-19.5690175214
 21
3.7744348852
  0
LINE
  5
34A
100
AcDbEntity
  8
RACCORDO
100
AcDbLine
 62
253
  6
CONTINUOUS
 10
-19.5399283724
 20
4.2209277741
 11
-19.5690175214
 21
4.2500169231
  0
LINE
  5
34B
100
AcDbEntity
  8
RACCORDO
100
AcDbLine
 62
253
  6
CONTINUOUS
 10
-18.5399452955
 20
5.2209108509
 11
-18.5690344446
 21
5.25
  0
LINE
  5
34C
100
AcDbEntity
  8
0
100
AcDbLine
 62
7
  6
CONTINUOUS
 10
-5.7709995214
 20
-15.000011
 11
-5.0444625214
 21
-17.0
  0
LINE
  5
34D
100
AcDbEntity
  8
0
100
AcDbLine
 62
7
  6
CONTINUOUS
 10
-4.8991375214
 20
-16.703214
 11
-5.4718195214
 21
-15.000011
  0
LWPOLYLINE
  5
34E
100
AcDbEntity
  8
0
100
AcDbPolyline
 62
7
  6
CONTINUOUS
 90
3
 70
0
 10
-15.3863069295
 20
12.9113469208
 10
-15.3986805591
 20
12.9527070906
 10
-15.4041973355
 20
12.9702510403
  0
LINE
  5
34F
100
AcDbEntity
  8
0
100
AcDbLine
 62
7
  6
CONTINUOUS
 10
-8.2208465214
 20
-16.4416813252
 11
-8.205688556
 21
-16.8037405189
  0
LWPOLYLINE
  5
350
100
AcDbEntity
  8
0
100
AcDbPolyline
 62
7
  6
CONTINUOUS
 90
15
 70
0
 10
-7.9520719679
 20
-16.4229183096
 10
-7.9535684096
 20
-16.383726554
 10
-7.9567168427
 20
-16.3447063637
 10
-7.9615741422
 20
-16.3056575328
 10
-7.9680834329
 20
-16.2667802672
 10
-7.9773661242
 20
-16.2303432561
 10
-7.9896591223
 20
-16.1970163904
 10
-8.0047255209
 20
-16.1661297793
 10
-8.0229760106
 20
-16.1379424399
 10
-8.0446584697
 20
-16.1128739708
 10
-8.0695250199
 20
-16.0905047734
 10
-8.0972427174
 20
-16.0698350681
 10
-8.127700581
 20
-16.0505315953
 10
-8.1610095919
 20
-16.0329276146
 10
-8.1971697502
 20
-16.0170231262
  0
LINE
  5
351
100
AcDbEntity
  8
0
100
AcDbLine
 62
7
  6
CONTINUOUS
 10
-7.9465558573
 20
-16.6249200661
 11
-7.9483937338
 21
-16.5630521907
  0
LWPOLYLINE
  5
352
100
AcDbEntity
  8
0
100
AcDbPolyline
 62
7
  6
CONTINUOUS
 90
3
 70
0
 10
-7.9483937338
 20
-16.5630521907
 10
-7.9498636076
 20
-16.4961770438
 10
-7.9520719679
 20
-16.4229183096
  0
LINE
  5
353
100
AcDbEntity
  8
0
100
AcDbLine
 62
7
  6
CONTINUOUS
 10
-7.8392325214
 20
-17.0
 11
-7.8392325214
 21
-16.9554323698
  0
LINE
  5
354
100
AcDbEntity
  8
0
100
AcDbLine
 62
7
  6
CONTINUOUS
 10
-7.4631905214
 20
-15.000011
 11
-7.4631905214
 21
-17.0
  0
LINE
  5
355
100
AcDbEntity
  8
0
100
AcDbLine
 62
7
  6
CONTINUOUS
 10
-7.1985675214
 20
-16.763232
 11
-7.1985675214
 21
-16.08357
  0
LINE
  5
356
100
AcDbEntity
  8
0
100
AcDbLine
 62
7
  6
CONTINUOUS
 10
-7.1985675214
 20
-15.852374
 11
-7.1985675214
 21
-15.245135
  0
LWPOLYLINE
  5
357
100
AcDbEntity
  8
0
100
AcDbPolyline
 62
7
  6
CONTINUOUS
 90
19
 70
0
 10
-8.1902060214
 20
-15.5642488252
 10
-8.1904931198
 20
-15.6039285608
 10
-8.1937726674
 20
-15.6415617705
 10
-8.2000446644
 20
-15.6771484543
 10
-8.2094258105
 20
-15.7109723487
 10
-8.2217994059
 20
-15.7427497171
 10
-8.2368153514
 20
-15.77162935
 10
-8.2545037744
 20
-15.7972928428
 10
-8.2748345475
 20
-15.8200586
 10
-8.2973671893
 20
-15.8400306254
 10
-8.3220013396
 20
-15.8569937262
 10
-8.3488373585
 20
-15.8711630951
 10
-8.3777358451
 20
-15.8832883147
 10
-8.4088619732
 20
-15.8935515106
 10
-8.442050569
 20
-15.9017705572
 10
-8.4766667091
 20
-15.9081486589
 10
-8.5124987527
 20
-15.9127535508
 10
-8.5497583408
 20
-15.9155174978
 10
-8.5884454732
 20
-15.9164405
  0
LWPOLYLINE
  5
358
100
AcDbEntity
  8
RACCORDO
100
AcDbPolyline
 62
7
  6
CONTINUOUS
 90
3
 70
0
 10
-12.6235007733
 20
-18.8669333275
 10
-12.6297167552
 20
-18.8901906442
 10
-12.6307065792
 20
-18.8934941353
  0
LINE
  5
359
100
AcDbEntity
  8
RACCORDO
100
AcDbLine
 62
7
  6
CONTINUOUS
 10
-12.6307065792
 20
-18.8934941353
 11
-12.6595540278
 21
-19.0
  0
LINE
  5
35A
100
AcDbEntity
  8
RACCORDO
100
AcDbLine
 62
7
  6
CONTINUOUS
 10
-12.5613554253
 20
-18.6384424646
 11
-12.6235007733
 21
-18.8669333275
  0
LINE
  5
35B
100
AcDbEntity
  8
RACCORDO
100
AcDbLine
 62
7
  6
CONTINUOUS
 10
-12.5486704571
 20
-18.5923217471
 11
-12.5613554253
 21
-18.6384424646
  0
LWPOLYLINE
  5
35C
100
AcDbEntity
  8
RACCORDO
100
AcDbPolyline
 62
7
  6
CONTINUOUS
 90
3
 70
0
 10
-12.4942671315
 20
-18.3935131738
 10
-12.5084444024
 20
-18.4443048051
 10
-12.5486704571
 20
-18.5923217471
  0
LINE
  5
35D
100
AcDbEntity
  8
0
100
AcDbLine
 62
7
  6
CONTINUOUS
 10
-5.2487785214
 20
12.438256
 11
-4.9673835214
 21
13.277832
  0
LINE
  5
35E
100
AcDbEntity
  8
0
100
AcDbLine
 62
7
  6
CONTINUOUS
 10
-4.5773595214
 20
12.438256
 11
-4.4728575214
 21
12.729438
  0
LINE
  5
35F
100
AcDbEntity
  8
0
100
AcDbLine
 62
7
  6
CONTINUOUS
 10
-4.3182885214
 20
9.562017
 11
-4.2137855214
 21
9.8532
  0
LINE
  5
360
100
AcDbEntity
  8
0
100
AcDbLine
 62
7
  6
CONTINUOUS
 10
-4.4310405214
 20
12.849147
 11
-4.2694595214
 21
13.293087
  0
LINE
  5
361
100
AcDbEntity
  8
0
100
AcDbLine
 62
7
  6
CONTINUOUS
 10
-4.1720495214
 20
9.972908
 11
-4.0103875214
 21
10.416847
  0
LINE
  5
362
100
AcDbEntity
  8
0
100
AcDbLine
 62
7
  6
CONTINUOUS
 10
-4.0814595214
 20
10.562553
 11
-4.4575705214
 21
9.562017
  0
LINE
  5
363
100
AcDbEntity
  8
0
100
AcDbLine
 62
7
  6
CONTINUOUS
 10
-4.3405315214
 20
13.437983
 11
-4.7166425214
 21
12.438256
  0
LINE
  5
364
100
AcDbEntity
  8
0
100
AcDbLine
 62
7
  6
CONTINUOUS
 10
-2.2315595214
 20
10.562553
 11
-2.5185365214
 21
10.082102
  0
LINE
  5
365
100
AcDbEntity
  8
0
100
AcDbLine
 62
7
  6
CONTINUOUS
 10
-2.4502705214
 20
9.96482
 11
-2.0727835214
 21
10.562553
  0
LWPOLYLINE
  5
366
100
AcDbEntity
  8
IMPORT_IGES
100
AcDbPolyline
 62
7
  6
CONTINUOUS
 90
20
 70
0
 10
3.9731344778
 20
11.4664788043
 10
3.9320962681
 20
11.4406797492
 10
3.8944724664
 20
11.4096544693
 10
3.8606036549
 20
11.3740510313
 10
3.8316761853
 20
11.3358889856
 10
3.8079948555
 20
11.2950848973
 10
3.7892548677
 20
11.2517222014
 10
3.7757281797
 20
11.2080707529
 10
3.7678010425
 20
11.164085527
 10
3.7650872052
 20
11.1198115485
 10
3.7666998733
 20
11.0776537467
 10
3.7723401159
 20
11.038280536
 10
3.782306864
 20
11.0010235021
 10
3.7966101155
 20
10.9662823314
 10
3.8152650533
 20
10.934115704
 10
3.8382564945
 20
10.9044649398
 10
3.8655488892
 20
10.8775536857
 10
3.8971303871
 20
10.8534564905
 10
3.9330128384
 20
10.8320988053
 10
3.9731962431
 20
10.8134806302
  0
LWPOLYLINE
  5
367
100
AcDbEntity
  8
IMPORT_IGES
100
AcDbPolyline
 62
7
  6
CONTINUOUS
 90
13
 70
0
 10
4.049858892
 20
12.5006389299
 10
3.9915067546
 20
12.465240789
 10
3.9387518944
 20
12.4273996491
 10
3.8915943115
 20
12.3871155101
 10
3.8501368827
 20
12.3445204146
 10
3.8142767312
 20
12.2994823201
 10
3.7837052263
 20
12.2516050989
 10
3.7588659001
 20
12.2009021849
 10
3.7393152205
 20
12.1473601443
 10
3.7234139612
 20
12.0905425484
 10
3.7106157134
 20
12.0303039209
 10
3.7014668858
 20
11.9667897381
 10
3.6959674786
 20
11.9
  0
LINE
  5
368
100
AcDbEntity
  8
IMPORT_IGES
100
AcDbLine
 62
7
  6
CONTINUOUS
 10
4.231379231
 20
12.6053849516
 11
4.049858892
 21
12.5006389299
  0
LWPOLYLINE
  5
369
100
AcDbEntity
  8
IMPORT_IGES
100
AcDbPolyline
 62
7
  6
CONTINUOUS
 90
30
 70
0
 10
4.5113496759
 20
10.8156265672
 10
4.5494368012
 20
10.8373494912
 10
4.5834460421
 20
10.8614625485
 10
4.6133773986
 20
10.887965739
 10
4.6392100672
 20
10.9166349534
 10
4.6609648514
 20
10.9476943011
 10
4.6787041622
 20
10.9818161105
 10
4.6925471989
 20
11.0200524755
 10
4.7023747621
 20
11.0613513022
 10
4.7078916642
 20
11.1032286374
 10
4.7092370011
 20
11.145472186
 10
4.7062716769
 20
11.188294243
 10
4.6982832157
 20
11.2298477398
 10
4.6850526542
 20
11.2696909176
 10
4.6667989558
 20
11.3082655353
 10
4.6434665347
 20
11.3450498007
 10
4.6147625036
 20
11.380627606
 10
4.5809797498
 20
11.4144150592
 10
4.5429413509
 20
11.4441386919
 10
4.5007049561
 20
11.4692858839
 10
4.4542129161
 20
11.4903692555
 10
4.4041153604
 20
11.5066531992
 10
4.3492513394
 20
11.5178121632
 10
4.2907818028
 20
11.5241716993
 10
4.232839729
 20
11.5259728552
 10
4.1757818033
 20
11.5233276897
 10
4.1192513405
 20
11.516124144
 10
4.0663112633
 20
11.5042670899
 10
4.0179276777
 20
11.4876997013
 10
3.9731344778
 20
11.4664788043
  0
LWPOLYLINE
  5
36A
100
AcDbEntity
  8
IMPORT_IGES
100
AcDbPolyline
 62
7
  6
CONTINUOUS
 90
10
 70
0
 10
4.346306098
 20
12.470132206
 10
4.3803184184
 20
12.4890459815
 10
4.4132297765
 20
12.5081966871
 10
4.4450401724
 20
12.5275843228
 10
4.4758617362
 20
12.5471249429
 10
4.5055823377
 20
12.5669024931
 10
4.5338655862
 20
12.5871688108
 10
4.5605993515
 20
12.6080078417
 10
4.5858957639
 20
12.6293356401
 10
4.6097548233
 20
12.651152206
  0
LWPOLYLINE
  5
36B
100
AcDbEntity
  8
IMPORT_IGES
100
AcDbPolyline
 62
7
  6
CONTINUOUS
 90
13
 70
0
 10
3.9731962431
 20
10.8134806302
 10
3.9316236611
 20
10.7940223694
 10
3.8937685193
 20
10.7724222272
 10
3.8596308177
 20
10.7486802036
 10
3.8292877045
 20
10.7228718759
 10
3.8026620315
 20
10.6949216668
 10
3.7795223541
 20
10.664602844
 10
3.7598139252
 20
10.63194595
 10
3.7435914918
 20
10.5969204423
 10
3.7307878507
 20
10.559207961
 10
3.721380601
 20
10.518702386
 10
3.7153921436
 20
10.4755098374
 10
3.7128224786
 20
10.4296303151
  0
LINE
  5
36C
100
AcDbEntity
  8
0
100
AcDbLine
 62
7
  6
CONTINUOUS
 10
-14.6470262712
 20
-10.7281394927
 11
-14.8601422594
 21
-10.774707569
  0
LWPOLYLINE
  5
36D
100
AcDbEntity
  8
0
100
AcDbPolyline
 62
7
  6
CONTINUOUS
 90
3
 70
0
 10
-14.8601422594
 20
-10.774707569
 10
-15.0751082267
 20
-10.8208657799
 10
-15.1289697735
 20
-10.8323044589
  0
LINE
  5
36E
100
AcDbEntity
  8
RACCORDO
100
AcDbLine
 62
7
  6
CONTINUOUS
 10
-19.5690175214
 20
-7.9720740231
 11
-21.0410915445
 21
-7.9720740231
  0
LINE
  5
36F
100
AcDbEntity
  8
DRAFT
100
AcDbLine
 62
7
  6
CONTINUOUS
 10
-19.5690175214
 20
-7.9284396841
 11
-20.9974572056
 21
-7.9284396841
  0
LINE
  5
370
100
AcDbEntity
  8
0
100
AcDbLine
 62
7
  6
CONTINUOUS
 10
-12.3190175214
 20
-7.0
 11
-10.5690175214
 21
-7.0
  0
LINE
  5
371
100
AcDbEntity
  8
0
100
AcDbLine
 62
7
  6
CONTINUOUS
 10
3.2979197302
 20
-11.3935526333
 11
2.99380839
 21
-11.2445269367
  0
LWPOLYLINE
  5
372
100
AcDbEntity
  8
0
100
AcDbPolyline
 62
7
  6
CONTINUOUS
 90
19
 70
0
 10
-14.3440410242
 20
7.6131440001
 10
-14.3473887727
 20
7.6176322161
 10
-14.3491631383
 20
7.6227823903
 10
-14.3494044686
 20
7.628554175
 10
-14.3481691051
 20
7.6348975912
 10
-14.3455056534
 20
7.6417576709
 10
-14.3414420208
 20
7.6490874199
 10
-14.3360329575
 20
7.6568263695
 10
-14.3293406235
 20
7.6649180784
 10
-14.3213898178
 20
7.673335817
 10
-14.3122401205
 20
7.6820187377
 10
-14.3019573234
 20
7.6909023163
 10
-14.2905631284
 20
7.6999667226
 10
-14.2781186468
 20
7.7091450934
 10
-14.2647039632
 20
7.718363096
 10
-14.2503648185
 20
7.7275941159
 10
-14.2351717847
 20
7.7367739568
 10
-14.219224921
 20
7.7457961838
 10
-14.202619668
 20
7.7545653564
  0
LINE
  5
373
100
AcDbEntity
  8
DRAFT
100
AcDbLine
 62
7
  6
CONTINUOUS
 10
-12.6519974519
 20
18.9720740231
 11
-12.6595540278
 21
19.0
  0
LINE
  5
374
100
AcDbEntity
  8
0
100
AcDbLine
 62
7
  6
CONTINUOUS
 10
-6.1010805214
 20
-16.08357
 11
-6.1010805214
 21
-15.852374
  0
LINE
  5
375
100
AcDbEntity
  8
0
100
AcDbLine
 62
7
  6
CONTINUOUS
 10
-6.0119445214
 20
-15.245135
 11
-6.0119445214
 21
-15.000011
  0
LINE
  5
376
100
AcDbEntity
  8
0
100
AcDbLine
 62
7
  6
CONTINUOUS
 10
-5.9924465214
 20
-17.0
 11
-5.9924465214
 21
-16.763232
  0
LINE
  5
377
100
AcDbEntity
  8
0
100
AcDbLine
 62
7
  6
CONTINUOUS
 10
-5.7948275214
 20
13.0941316896
 11
-5.7948275214
 21
12.438256
  0
LINE
  5
378
100
AcDbEntity
  8
0
100
AcDbLine
 62
7
  6
CONTINUOUS
 10
-5.6638765214
 20
12.438256
 11
-5.6638765214
 21
13.2402531914
  0
LINE
  5
379
100
AcDbEntity
  8
0
100
AcDbLine
 62
7
  6
CONTINUOUS
 10
-5.5887345214
 20
10.562553
 11
-5.5887345214
 21
9.6854550323
  0
LINE
  5
37A
100
AcDbEntity
  8
0
100
AcDbLine
 62
7
  6
CONTINUOUS
 10
-5.4535775214
 20
9.5663067445
 11
-5.4535775214
 21
10.562553
  0
LINE
  5
37B
100
AcDbEntity
  8
0
100
AcDbLine
 62
7
  6
CONTINUOUS
 10
-5.3086335214
 20
10.562553
 11
-5.3086335214
 21
10.442845
  0
LINE
  5
37C
100
AcDbEntity
  8
0
100
AcDbLine
 62
7
  6
CONTINUOUS
 10
-4.9701335214
 20
10.442845
 11
-4.9701335214
 21
9.562017
  0
LINE
  5
37D
100
AcDbEntity
  8
0
100
AcDbLine
 62
7
  6
CONTINUOUS
 10
-4.9673835214
 20
13.277832
 11
-4.9673835214
 21
12.438256
  0
LINE
  5
37E
100
AcDbEntity
  8
0
100
AcDbLine
 62
7
  6
CONTINUOUS
 10
-4.8364315214
 20
12.438256
 11
-4.8364315214
 21
13.437983
  0
LINE
  5
37F
100
AcDbEntity
  8
0
100
AcDbLine
 62
7
  6
CONTINUOUS
 10
-4.8350565214
 20
9.562017
 11
-4.8350565214
 21
10.442845
  0
LINE
  5
380
100
AcDbEntity
  8
0
100
AcDbLine
 62
7
  6
CONTINUOUS
 10
-4.4965565214
 20
10.442845
 11
-4.4965565214
 21
10.562553
  0
LINE
  5
381
100
AcDbEntity
  8
0
100
AcDbLine
 62
7
  6
CONTINUOUS
 10
-4.4540925214
 20
11.999864
 11
-4.4540925214
 21
11.000136
  0
LINE
  5
382
100
AcDbEntity
  8
DRAFT
100
AcDbLine
 62
7
  6
CONTINUOUS
 10
-4.39290396
 20
5.7238864386
 11
-4.39290396
 21
5.25
  0
LINE
  5
383
100
AcDbEntity
  8
DRAFT
100
AcDbLine
 62
7
  6
CONTINUOUS
 10
-4.39290396
 20
-5.25
 11
-4.39290396
 21
-5.7238864386
  0
LINE
  5
384
100
AcDbEntity
  8
ASSI
100
AcDbLine
 62
7
  6
CONTINUOUS
 10
-0.2525745214
 20
17.550097
 11
-0.7057825214
 21
16.138498
  0
LINE
  5
385
100
AcDbEntity
  8
ASSI
100
AcDbLine
 62
7
  6
CONTINUOUS
 10
-0.5007725214
 20
15.500005
 11
0.1574464786
 21
17.550097
  0
LINE
  5
386
100
AcDbEntity
  8
RACCORDO
100
AcDbLine
 62
253
  6
CONTINUOUS
 10
-13.7300577079
 20
-13.5065308838
 11
-13.7125116567
 21
-13.4727871837
  0
LINE
  5
387
100
AcDbEntity
  8
RACCORDO
100
AcDbLine
 62
253
  6
CONTINUOUS
 10
-13.7475558451
 20
-13.5398151055
 11
-13.7300577079
 21
-13.5065308838
  0
LINE
  5
388
100
AcDbEntity
  8
RACCORDO
100
AcDbLine
 62
253
  6
CONTINUOUS
 10
-13.7737132062
 20
-13.5888988741
 11
-13.7475558451
 21
-13.5398151055
  0
LINE
  5
389
100
AcDbEntity
  8
RACCORDO
100
AcDbLine
 62
253
  6
CONTINUOUS
 10
-13.7910915445
 20
-13.6210791686
 11
-13.7737132062
 21
-13.5888988741
  0
LWPOLYLINE
  5
38A
100
AcDbEntity
  8
IMPORT_IGES
100
AcDbPolyline
 62
7
  6
CONTINUOUS
 90
10
 70
0
 10
3.3543828103
 20
11.308
 10
3.2596769724
 20
11.1920920126
 10
3.1698133961
 20
11.0667854012
 10
3.0847920812
 20
10.9320801658
 10
3.0026392949
 20
10.7852532563
 10
2.92532877
 20
10.6290277228
 10
2.8587817061
 20
10.4715727154
 10
2.804971836
 20
10.3156112842
 10
2.7619254269
 20
10.158420379
 10
2.7296424786
 20
10.0
  0
LWPOLYLINE
  5
38B
100
AcDbEntity
  8
IMPORT_IGES
100
AcDbPolyline
 62
7
  6
CONTINUOUS
 90
9
 70
0
 10
3.8657057358
 20
13.2766213863
 10
3.8352406314
 20
13.2403131586
 10
3.8086617043
 20
13.1996561563
 10
3.7859524479
 20
13.1543346184
 10
3.7671293687
 20
13.1046643059
 10
3.7523655262
 20
13.0515006452
 10
3.741718607
 20
12.9951287783
 10
3.7351309244
 20
12.9352635633
 10
3.7326024786
 20
12.871905
  0
LWPOLYLINE
  5
38C
100
AcDbEntity
  8
IMPORT_IGES
100
AcDbPolyline
 62
7
  6
CONTINUOUS
 90
32
 70
0
 10
4.6097548233
 20
12.651152206
 10
4.6440528687
 20
12.6897064423
 10
4.6729638782
 20
12.7304803968
 10
4.6964878518
 20
12.7734740697
 10
4.7146341961
 20
12.8190204827
 10
4.7273935046
 20
12.8667866139
 10
4.7347375573
 20
12.9157733979
 10
4.7366003774
 20
12.9666651056
 10
4.7330479416
 20
13.018777466
 10
4.7242499602
 20
13.0690586001
 10
4.7095058946
 20
13.1171581669
 10
4.6895162833
 20
13.1634265073
 10
4.6665524523
 20
13.2058627648
 10
4.6412241323
 20
13.2438986202
 10
4.6129215926
 20
13.2781023927
 10
4.5820869668
 20
13.3081781837
 10
4.5490034439
 20
13.3338272569
 10
4.513387835
 20
13.3553483486
 10
4.4748327063
 20
13.3733417691
 10
4.4331203277
 20
13.3879162718
 10
4.3884684292
 20
13.3989631032
 10
4.341122768
 20
13.4067563134
 10
4.2902727556
 20
13.4116228324
 10
4.2367289803
 20
13.4132357302
 10
4.1831689638
 20
13.4108882672
 10
4.1292588932
 20
13.4044763354
 10
4.0753325813
 20
13.3941040428
 10
4.0250689878
 20
13.3793769741
 10
3.9796611263
 20
13.3601310381
 10
3.9379159832
 20
13.3365303261
 10
3.8999334776
 20
13.3086726961
 10
3.8657057358
 20
13.2766213863
  0
LWPOLYLINE
  5
38D
100
AcDbEntity
  8
IMPORT_IGES
100
AcDbPolyline
 62
7
  6
CONTINUOUS
 90
8
 70
0
 10
4.4417658405
 20
12.7522688441
 10
4.4162647431
 20
12.7295942551
 10
4.3891956191
 20
12.7075349537
 10
4.3605584685
 20
12.6860909401
 10
4.3301642545
 20
12.6654654227
 10
4.2982020139
 20
12.6454551931
 10
4.2652388576
 20
12.625450625
 10
4.231379231
 20
12.6053849516
  0
LINE
  5
38E
100
AcDbEntity
  8
TRASH
100
AcDbLine
 62
7
  6
CONTINUOUS
 10
12.0359852084
 20
10.7281482181
 11
12.0588761916
 21
10.7388223726
  0
LINE
  5
38F
100
AcDbEntity
  8
0
100
AcDbLine
 62
7
  6
CONTINUOUS
 10
12.6188484843
 20
10.9999464956
 11
12.6612556963
 21
11.019717435
  0
LINE
  5
390
100
AcDbEntity
  8
0
100
AcDbLine
 62
7
  6
CONTINUOUS
 10
12.0588796651
 20
10.7388260178
 11
12.5809824786
 21
10.982289287
  0
LINE
  5
391
100
AcDbEntity
  8
0
100
AcDbLine
 62
7
  6
CONTINUOUS
 10
-20.2387410056
 20
0.5197234842
 11
-20.8092124581
 21
0.35
  0
LINE
  5
392
100
AcDbEntity
  8
0
100
AcDbLine
 62
7
  6
CONTINUOUS
 10
-19.1992940373
 20
-0.5197234842
 11
-18.6288225847
 21
-0.35
  0
LINE
  5
393
100
AcDbEntity
  8
ASSI
100
AcDbLine
 62
7
  6
CONTINUOUS
 10
-20.5637540701
 20
-11.1098690294
 11
-20.5582549268
 21
-11.1083781021
  0
LINE
  5
394
100
AcDbEntity
  8
RACCORDO
100
AcDbLine
 62
7
  6
CONTINUOUS
 10
-20.5637540701
 20
-11.1098690294
 11
-20.5582549268
 21
-11.1083781021
  0
LINE
  5
395
100
AcDbEntity
  8
DRAFT
100
AcDbLine
 62
7
  6
CONTINUOUS
 10
-21.0410915445
 20
-10.1789179246
 11
-21.0690175214
 21
-10.1857743937
  0
LINE
  5
396
100
AcDbEntity
  8
0
100
AcDbLine
 62
7
  6
CONTINUOUS
 10
-17.9910087717
 20
-10.2718605079
 11
-17.7778927845
 21
-10.2252924318
  0
LWPOLYLINE
  5
397
100
AcDbEntity
  8
0
100
AcDbPolyline
 62
7
  6
CONTINUOUS
 90
3
 70
0
 10
-17.7778927845
 20
-10.2252924318
 10
-17.5629268174
 20
-10.1791342209
 10
-17.5090652705
 20
-10.1676955419
  0
LWPOLYLINE
  5
398
100
AcDbEntity
  8
RACCORDO
100
AcDbPolyline
 62
7
  6
CONTINUOUS
 90
31
 70
0
 10
-11.5893714639
 20
-5.2296714422
 10
-11.6582483784
 20
-5.2315846522
 10
-11.7262948248
 20
-5.2366275412
 10
-11.793510803
 20
-5.2447337609
 10
-11.8601169684
 20
-5.2558456953
 10
-11.9258926656
 20
-5.2698708413
 10
-11.9901759291
 20
-5.2866414222
 10
-12.0528945867
 20
-5.3060148218
 10
-12.1141208104
 20
-5.3278606448
 10
-12.1734091515
 20
-5.3519631989
 10
-12.2308074888
 20
-5.3782119701
 10
-12.2862679435
 20
-5.4063972268
 10
-12.3392014299
 20
-5.4360712208
 10
-12.3893245741
 20
-5.4668712101
 10
-12.4369207501
 20
-5.498718945
 10
-12.4822509947
 20
-5.5315687809
 10
-12.524934345
 20
-5.5648818809
 10
-12.565351764
 20
-5.5988407172
 10
-12.6049071762
 20
-5.6346637018
 10
-12.6440444149
 20
-5.6726211756
 10
-12.6823196469
 20
-5.7124298798
 10
-12.7198052977
 20
-5.7546645815
 10
-12.7567634502
 20
-5.7995891669
 10
-12.7929320215
 20
-5.8469427439
 10
-12.8275971881
 20
-5.8965264263
 10
-12.8607753834
 20
-5.9484122665
 10
-12.8924501741
 20
-6.0023757783
 10
-12.9218584364
 20
-6.0577036408
 10
-12.948745796
 20
-6.1140404866
 10
-12.9733666273
 20
-6.1714175674
 10
-12.9957209304
 20
-6.2296545191
  0
LINE
  5
399
100
AcDbEntity
  8
0
100
AcDbLine
 62
7
  6
CONTINUOUS
 10
-12.1180063168
 20
-6.4
 11
-10.5690175214
 21
-6.4
  0
LINE
  5
39A
100
AcDbEntity
  8
RACCORDO
100
AcDbLine
 62
253
  6
CONTINUOUS
 10
-19.5544729469
 20
-6.2296545191
 11
-12.9957209304
 21
-6.2296545191
  0
LINE
  5
39B
100
AcDbEntity
  8
DRAFT
100
AcDbLine
 62
7
  6
CONTINUOUS
 10
-4.39290396
 20
-5.7238864386
 11
1.2548689172
 21
-5.7238864386
  0
LINE
  5
39C
100
AcDbEntity
  8
DRAFT
100
AcDbLine
 62
7
  6
CONTINUOUS
 10
-4.3190175214
 20
-5.65
 11
1.1809824786
 21
-5.65
  0
LINE
  5
39D
100
AcDbEntity
  8
0
100
AcDbLine
 62
7
  6
CONTINUOUS
 10
-4.0690175214
 20
-5.5
 11
0.9309824786
 21
-5.5
  0
LINE
  5
39E
100
AcDbEntity
  8
RACCORDO
100
AcDbLine
 62
7
  6
CONTINUOUS
 10
-11.5690429061
 20
-5.25
 11
15.4309994017
 21
-5.25
  0
LINE
  5
39F
100
AcDbEntity
  8
RACCORDO
100
AcDbLine
 62
253
  6
CONTINUOUS
 10
-19.5486889637
 20
-5.2296714422
 11
-11.5893714639
 21
-5.2296714422
  0
LINE
  5
3A0
100
AcDbEntity
  8
RACCORDO
100
AcDbLine
 62
7
  6
CONTINUOUS
 10
-19.5399283724
 20
-5.2209108509
 11
15.4019102527
 21
-5.2209108509
  0
LINE
  5
3A1
100
AcDbEntity
  8
DRAFT
100
AcDbLine
 62
7
  6
CONTINUOUS
 10
17.9030565016
 20
-10.1789179246
 11
17.9309824786
 21
-10.1857743937
  0
LINE
  5
3A2
100
AcDbEntity
  8
ASSI
100
AcDbLine
 62
7
  6
CONTINUOUS
 10
17.4202198839
 20
-11.1083781021
 11
17.4257190273
 21
-11.1098690294
  0
LINE
  5
3A3
100
AcDbEntity
  8
RACCORDO
100
AcDbLine
 62
7
  6
CONTINUOUS
 10
17.4202198839
 20
-11.1083781021
 11
17.4257190273
 21
-11.1098690294
  0
LINE
  5
3A4
100
AcDbEntity
  8
0
100
AcDbLine
 62
7
  6
CONTINUOUS
 10
-20.8092124581
 20
-0.35
 11
-20.2387410056
 21
-0.5197234842
  0
LINE
  5
3A5
100
AcDbEntity
  8
0
100
AcDbLine
 62
7
  6
CONTINUOUS
 10
-18.6288225847
 20
0.35
 11
-19.1992940373
 21
0.5197234842
  0
LWPOLYLINE
  5
3A6
100
AcDbEntity
  8
0
100
AcDbPolyline
 62
7
  6
CONTINUOUS
 90
19
 70
0
 10
6.0441264787
 20
-12.7750235028
 10
6.0486147671
 20
-12.7783712948
 10
6.0537650425
 20
-12.7801456561
 10
6.0595369702
 20
-12.7803869213
 10
6.065880639
 20
-12.7791513773
 10
6.0727410578
 20
-12.7764876395
 10
6.0800710041
 20
-12.772423804
 10
6.0878096551
 20
-12.7670149418
 10
6.0959006979
 20
-12.7603231175
 10
6.1043179847
 20
-12.7523726071
 10
6.1130012126
 20
-12.7432224464
 10
6.1218855613
 20
-12.7329387229
 10
6.1309505394
 20
-12.7215438585
 10
6.1401288451
 20
-12.7090994363
 10
6.1493464397
 20
-12.6956852138
 10
6.1585770743
 20
-12.6813465265
 10
6.1677567005
 20
-12.6661537852
 10
6.1767787653
 20
-12.6502071806
 10
6.1855478349
 20
-12.6336021465
  0
LINE
  5
3A7
100
AcDbEntity
  8
0
100
AcDbLine
 62
7
  6
CONTINUOUS
 10
-15.1448164868
 20
8.4139194627
 11
-14.3440410242
 21
7.6131440001
  0
LINE
  5
3A8
100
AcDbEntity
  8
0
100
AcDbLine
 62
7
  6
CONTINUOUS
 10
6.8446754156
 20
-13.5755724397
 11
6.0441264787
 21
-12.7750235028
  0
LINE
  5
3A9
100
AcDbEntity
  8
RACCORDO
100
AcDbLine
 62
7
  6
CONTINUOUS
 10
6.0441264787
 20
-12.7750235028
 11
5.7495376638
 21
-12.4804346879
  0
LINE
  5
3AA
100
AcDbEntity
  8
RACCORDO
100
AcDbLine
 62
7
  6
CONTINUOUS
 10
-14.0494522094
 20
7.3185551853
 11
-14.3440410242
 21
7.6131440001
  0
LINE
  5
3AB
100
AcDbEntity
  8
0
100
AcDbLine
 62
253
  6
CONTINUOUS
 10
-15.1609395329
 20
8.7128852213
 11
-14.202619668
 21
7.7545653564
  0
LINE
  5
3AC
100
AcDbEntity
  8
0
100
AcDbLine
 62
253
  6
CONTINUOUS
 10
7.1437039747
 20
-13.5917582863
 11
6.1855478349
 21
-12.6336021465
  0
LWPOLYLINE
  5
3AD
100
AcDbEntity
  8
0
100
AcDbPolyline
 62
7
  6
CONTINUOUS
 90
16
 70
0
 10
-2.8686208262
 20
12.9381192
 10
-2.8701608662
 20
12.9981188644
 10
-2.8760842099
 20
13.0549026978
 10
-2.8863908571
 20
13.1084707002
 10
-2.9014177309
 20
13.1591981891
 10
-2.9208279083
 20
13.206709847
 10
-2.9436106201
 20
13.2498797214
 10
-2.9695570873
 20
13.2883473022
 10
-2.998876089
 20
13.3224730994
 10
-3.0311831933
 20
13.3522126906
 10
-3.0662810029
 20
13.3775686041
 10
-3.1043669152
 20
13.3985383116
 10
-3.1456486904
 20
13.4150698057
 10
-3.190195582
 20
13.4271457506
 10
-3.2379383367
 20
13.434783482
 10
-3.2888769543
 20
13.437983
  0
LINE
  5
3AE
100
AcDbEntity
  8
DRAFT
100
AcDbLine
 62
7
  6
CONTINUOUS
 10
-4.3190175214
 20
5.65
 11
-4.3190175214
 21
5.25
  0
LINE
  5
3AF
100
AcDbEntity
  8
DRAFT
100
AcDbLine
 62
7
  6
CONTINUOUS
 10
-4.3190175214
 20
-5.25
 11
-4.3190175214
 21
-5.65
  0
LINE
  5
3B0
100
AcDbEntity
  8
0
100
AcDbLine
 62
7
  6
CONTINUOUS
 10
-4.3189355214
 20
11.000136
 11
-4.3189355214
 21
11.999864
  0
LINE
  5
3B1
100
AcDbEntity
  8
0
100
AcDbLine
 62
7
  6
CONTINUOUS
 10
-4.0877685214
 20
11.999864
 11
-4.0877685214
 21
11.000136
  0
LINE
  5
3B2
100
AcDbEntity
  8
0
100
AcDbLine
 62
7
  6
CONTINUOUS
 10
-4.0690175214
 20
5.5
 11
-4.0690175214
 21
5.25
  0
LINE
  5
3B3
100
AcDbEntity
  8
0
100
AcDbLine
 62
7
  6
CONTINUOUS
 10
-4.0690175214
 20
-5.5
 11
-4.0690175214
 21
-5.25
  0
LINE
  5
3B4
100
AcDbEntity
  8
0
100
AcDbLine
 62
7
  6
CONTINUOUS
 10
-3.9567365214
 20
11.000136
 11
-3.9567365214
 21
11.812539
  0
LINE
  5
3B5
100
AcDbEntity
  8
0
100
AcDbLine
 62
7
  6
CONTINUOUS
 10
-3.7473335214
 20
-16.704737
 11
-3.7473335214
 21
-17.0
  0
LINE
  5
3B6
100
AcDbEntity
  8
0
100
AcDbLine
 62
7
  6
CONTINUOUS
 10
-3.6941865214
 20
13.437983
 11
-3.6941865214
 21
12.438256
  0
LINE
  5
3B7
100
AcDbEntity
  8
0
100
AcDbLine
 62
7
  6
CONTINUOUS
 10
-3.5591105214
 20
12.55392
 11
-3.5591105214
 21
13.322319
  0
LINE
  5
3B8
100
AcDbEntity
  8
0
100
AcDbLine
 62
7
  6
CONTINUOUS
 10
-3.4632125214
 20
-17.0
 11
-3.4632125214
 21
-16.704737
  0
LINE
  5
3B9
100
AcDbEntity
  8
0
100
AcDbLine
 62
7
  6
CONTINUOUS
 10
-3.4420705214
 20
10.562553
 11
-3.4420705214
 21
9.562017
  0
LINE
  5
3BA
100
AcDbEntity
  8
0
100
AcDbLine
 62
7
  6
CONTINUOUS
 10
-3.4245995214
 20
11.999864
 11
-3.4245995214
 21
11.188071
  0
LINE
  5
3BB
100
AcDbEntity
  8
0
100
AcDbLine
 62
7
  6
CONTINUOUS
 10
-3.3069945214
 20
9.681726
 11
-3.3069945214
 21
10.562553
  0
LINE
  5
3BC
100
AcDbEntity
  8
0
100
AcDbLine
 62
7
  6
CONTINUOUS
 10
-3.2937295214
 20
11.000136
 11
-3.2937295214
 21
11.999864
  0
LINE
  5
3BD
100
AcDbEntity
  8
0
100
AcDbLine
 62
7
  6
CONTINUOUS
 10
-2.7999315214
 20
9.562017
 11
-2.7999315214
 21
9.681726
  0
LINE
  5
3BE
100
AcDbEntity
  8
0
100
AcDbLine
 62
7
  6
CONTINUOUS
 10
-2.6815175214
 20
13.437983
 11
-2.6815175214
 21
12.438256
  0
LINE
  5
3BF
100
AcDbEntity
  8
0
100
AcDbLine
 62
7
  6
CONTINUOUS
 10
-2.5853465214
 20
9.96482
 11
-2.5853465214
 21
9.562017
  0
LINE
  5
3C0
100
AcDbEntity
  8
0
100
AcDbLine
 62
7
  6
CONTINUOUS
 10
-2.5463605214
 20
12.557964
 11
-2.5463605214
 21
12.892015
  0
LINE
  5
3C1
100
AcDbEntity
  8
0
100
AcDbLine
 62
7
  6
CONTINUOUS
 10
-2.5463605214
 20
13.011724
 11
-2.5463605214
 21
13.318274
  0
LINE
  5
3C2
100
AcDbEntity
  8
0
100
AcDbLine
 62
7
  6
CONTINUOUS
 10
-2.4502705214
 20
9.562017
 11
-2.4502705214
 21
9.96482
  0
LWPOLYLINE
  5
3C3
100
AcDbEntity
  8
0
100
AcDbPolyline
 62
7
  6
CONTINUOUS
 90
16
 70
0
 10
-3.0072616627
 20
12.9381192
 10
-3.0082463052
 20
12.8931270946
 10
-3.0120173217
 20
12.850277844
 10
-3.0185747122
 20
12.8095714482
 10
-3.0279198116
 20
12.7706518765
 10
-3.0400512851
 20
12.7338751595
 10
-3.0549651275
 20
12.700309389
 10
-3.0727739519
 20
12.6702225367
 10
-3.0933651452
 20
12.6433466309
 10
-3.1163968632
 20
12.6199458471
 10
-3.1416870724
 20
12.600075913
 10
-3.1694178064
 20
12.583681101
 10
-3.199793322
 20
12.5708584044
 10
-3.232881705
 20
12.5616401542
 10
-3.2686148697
 20
12.5559940194
 10
-3.3069928161
 20
12.55392
  0
LINE
  5
3C4
100
AcDbEntity
  8
0
100
AcDbLine
 62
7
  6
CONTINUOUS
 10
-4.1409848378
 20
-8.9303867966
 11
-4.3866653686
 21
-10.3237103243
  0
LINE
  5
3C5
100
AcDbEntity
  8
0
100
AcDbLine
 62
7
  6
CONTINUOUS
 10
-4.3016883628
 20
-10.429557776
 11
-4.0251863694
 21
-8.8614370477
  0
LINE
  5
3C6
100
AcDbEntity
  8
ASSI
100
AcDbLine
 62
7
  6
CONTINUOUS
 10
2.6363014786
 20
17.550097
 11
2.2534684786
 21
16.215004
  0
LINE
  5
3C7
100
AcDbEntity
  8
IMPORT_IGES
100
AcDbLine
 62
7
  6
CONTINUOUS
 10
5.6087414786
 20
11.52818
 11
4.9096424786
 21
10.562985
  0
LWPOLYLINE
  5
3C8
100
AcDbEntity
  8
IMPORT_IGES
100
AcDbPolyline
 62
7
  6
CONTINUOUS
 90
22
 70
0
 10
5.5966269864
 20
12.1295748448
 10
5.5693058028
 20
12.1008116975
 10
5.5410055243
 20
12.076340933
 10
5.5117261508
 20
12.0561625513
 10
5.4811410348
 20
12.0405277252
 10
5.4495768238
 20
12.0291852819
 10
5.4180134603
 20
12.0213817024
 10
5.3862442961
 20
12.0170861404
 10
5.3544759794
 20
12.0163294421
 10
5.3243083962
 20
12.0184506277
 10
5.2961936108
 20
12.0232104129
 10
5.269679559
 20
12.030848082
 10
5.2450099349
 20
12.041420508
 10
5.2223524781
 20
12.0548411832
 10
5.201539449
 20
12.0711966154
 10
5.1823113232
 20
12.0908032011
 10
5.1641335928
 20
12.1142536182
 10
5.1475407657
 20
12.1409551889
 10
5.1338768408
 20
12.169446276
 10
5.1235898178
 20
12.1992396675
 10
5.1162316971
 20
12.2308225755
 10
5.1118024786
 20
12.264195
  0
LWPOLYLINE
  5
3C9
100
AcDbEntity
  8
IMPORT_IGES
100
AcDbPolyline
 62
7
  6
CONTINUOUS
 90
22
 70
0
 10
6.7948069864
 20
12.1295748448
 10
6.7674858028
 20
12.1008116975
 10
6.7391855243
 20
12.076340933
 10
6.7099061508
 20
12.0561625513
 10
6.6793210348
 20
12.0405277252
 10
6.6477568238
 20
12.0291852819
 10
6.6161934603
 20
12.0213817024
 10
6.5844242961
 20
12.0170861404
 10
6.5526559794
 20
12.0163294421
 10
6.5224883962
 20
12.0184506277
 10
6.4943736108
 20
12.0232104129
 10
6.467859559
 20
12.030848082
 10
6.4431899349
 20
12.041420508
 10
6.4205324781
 20
12.0548411832
 10
6.399719449
 20
12.0711966154
 10
6.3804913232
 20
12.0908032011
 10
6.3623135928
 20
12.1142536182
 10
6.3457207657
 20
12.1409551889
 10
6.3320568408
 20
12.169446276
 10
6.3217698178
 20
12.1992396675
 10
6.3144116971
 20
12.2308225755
 10
6.3099824786
 20
12.264195
  0
LWPOLYLINE
  5
3CA
100
AcDbEntity
  8
IMPORT_IGES
100
AcDbPolyline
 62
7
  6
CONTINUOUS
 90
22
 70
0
 10
6.8454314007
 20
10.232238126
 10
6.8177912626
 20
10.2031404638
 10
6.789161994
 20
10.1783854084
 10
6.7595435948
 20
10.1579729597
 10
6.7286069831
 20
10.1421574668
 10
6.6966812408
 20
10.1306845806
 10
6.664753614
 20
10.1227912547
 10
6.6326120417
 20
10.1184458817
 10
6.6004685849
 20
10.117680069
 10
6.5699466723
 20
10.1198255915
 10
6.5415057977
 20
10.1246409904
 10
6.5146864673
 20
10.1323677246
 10
6.4897336281
 20
10.1430619457
 10
6.4668173874
 20
10.1566345312
 10
6.4457676379
 20
10.1731746037
 10
6.4263190045
 20
10.1930056826
 10
6.4079288593
 20
10.2167293241
 10
6.3911398303
 20
10.243743972
 10
6.3773144268
 20
10.2725684784
 10
6.3669068186
 20
10.3027091271
 10
6.3594628358
 20
10.3346596344
 10
6.3549824786
 20
10.36842
  0
LINE
  5
3CB
100
AcDbEntity
  8
0
100
AcDbLine
 62
7
  6
CONTINUOUS
 10
-16.9463150307
 20
-11.1272975163
 11
-16.9190175214
 21
-11.1000000064
  0
LINE
  5
3CC
100
AcDbEntity
  8
0
100
AcDbLine
 62
7
  6
CONTINUOUS
 10
-15.7190175214
 20
-9.8999999936
 11
-15.6917200122
 21
-9.8727024837
  0
LINE
  5
3CD
100
AcDbEntity
  8
0
100
AcDbLine
 62
7
  6
CONTINUOUS
 10
-16.8394221696
 20
-11.0204046482
 11
-16.8387410056
 21
-11.0197234842
  0
LINE
  5
3CE
100
AcDbEntity
  8
0
100
AcDbLine
 62
7
  6
CONTINUOUS
 10
-15.7992940373
 20
-9.9802765158
 11
-15.7986128733
 21
-9.9795953518
  0
LINE
  5
3CF
100
AcDbEntity
  8
DRAFT
100
AcDbLine
 62
7
  6
CONTINUOUS
 10
1.1809824786
 20
5.65
 11
1.2548689172
 21
5.7238864386
  0
LINE
  5
3D0
100
AcDbEntity
  8
0
100
AcDbLine
 62
7
  6
CONTINUOUS
 10
11.9909347295
 20
10.8323044581
 11
12.0093775896
 21
10.8450726739
  0
LINE
  5
3D1
100
AcDbEntity
  8
0
100
AcDbLine
 62
7
  6
CONTINUOUS
 10
12.0093775896
 20
10.8450726739
 11
12.1534827838
 21
10.921637571
  0
LINE
  5
3D2
100
AcDbEntity
  8
0
100
AcDbLine
 62
7
  6
CONTINUOUS
 10
14.3525873675
 20
10.1549273261
 11
14.2084821733
 21
10.078362429
  0
LINE
  5
3D3
100
AcDbEntity
  8
0
100
AcDbLine
 62
7
  6
CONTINUOUS
 10
12.1534827838
 20
10.921637571
 11
12.2621312843
 21
10.9786075247
  0
LINE
  5
3D4
100
AcDbEntity
  8
0
100
AcDbLine
 62
7
  6
CONTINUOUS
 10
14.2084821733
 20
10.078362429
 11
14.0998336729
 21
10.0213924753
  0
LINE
  5
3D5
100
AcDbEntity
  8
0
100
AcDbLine
 62
7
  6
CONTINUOUS
 10
12.2621312843
 20
10.9786075247
 11
12.3711377931
 21
11.0350007207
  0
LINE
  5
3D6
100
AcDbEntity
  8
0
100
AcDbLine
 62
7
  6
CONTINUOUS
 10
14.0998336729
 20
10.0213924753
 11
13.990827164
 21
9.9649992793
  0
LWPOLYLINE
  5
3D7
100
AcDbEntity
  8
0
100
AcDbPolyline
 62
7
  6
CONTINUOUS
 90
4
 70
0
 10
12.3711377931
 20
11.0350007207
 10
12.4803959558
 20
11.0906607767
 10
12.5169310037
 20
11.1090457991
 10
12.553685072
 20
11.1272972341
  0
LWPOLYLINE
  5
3D8
100
AcDbEntity
  8
0
100
AcDbPolyline
 62
7
  6
CONTINUOUS
 90
4
 70
0
 10
13.990827164
 20
9.9649992793
 10
13.8815690013
 20
9.9093392233
 10
13.8450339535
 20
9.8909542009
 10
13.8082798852
 20
9.8727027659
  0
LINE
  5
3D9
100
AcDbEntity
  8
0
100
AcDbLine
 62
7
  6
CONTINUOUS
 10
12.6605778304
 20
11.0204046481
 11
12.6188484843
 21
10.9999464956
  0
LINE
  5
3DA
100
AcDbEntity
  8
0
100
AcDbLine
 62
7
  6
CONTINUOUS
 10
13.7013871267
 20
9.9795953519
 11
13.7431164728
 21
10.0000535044
  0
LINE
  5
3DB
100
AcDbEntity
  8
TRASH
100
AcDbLine
 62
7
  6
CONTINUOUS
 10
14.3030887656
 20
10.2611776274
 11
14.3259797487
 21
10.2718517819
  0
LINE
  5
3DC
100
AcDbEntity
  8
0
100
AcDbLine
 62
7
  6
CONTINUOUS
 10
13.7431164728
 20
10.0000535044
 11
13.7007092608
 21
9.980282565
  0
LINE
  5
3DD
100
AcDbEntity
  8
0
100
AcDbLine
 62
7
  6
CONTINUOUS
 10
14.3030852921
 20
10.2611739822
 11
13.7809824786
 21
10.017710713
  0
LINE
  5
3DE
100
AcDbEntity
  8
0
100
AcDbLine
 62
7
  6
CONTINUOUS
 10
16.4106200742
 20
-3.5
 11
19.4307495643
 21
-3.5
  0
LINE
  5
3DF
100
AcDbEntity
  8
0
100
AcDbLine
 62
7
  6
CONTINUOUS
 10
-19.5486551171
 20
-3.5
 11
-25.0688110419
 21
-3.5
  0
LINE
  5
3E0
100
AcDbEntity
  8
0
100
AcDbLine
 62
253
  6
CONTINUOUS
 10
-25.0690175214
 20
-3.4033259587
 11
-19.5469097682
 21
-3.4033259587
  0
LINE
  5
3E1
100
AcDbEntity
  8
0
100
AcDbLine
 62
253
  6
CONTINUOUS
 10
-24.868620696
 20
-2.7994694362
 11
-20.7966308853
 21
-2.7994694362
  0
LINE
  5
3E2
100
AcDbEntity
  8
0
100
AcDbLine
 62
253
  6
CONTINUOUS
 10
-21.3762327361
 20
-2.5005305638
 11
-24.868620696
 21
-2.5005305638
  0
LWPOLYLINE
  5
3E3
100
AcDbEntity
  8
RACCORDO
100
AcDbPolyline
 62
7
  6
CONTINUOUS
 90
10
 70
0
 10
11.1924670283
 20
-6.0696088605
 10
11.1709470529
 20
-6.0628255491
 10
11.1494521788
 20
-6.0562429689
 10
11.1279843674
 20
-6.0498596256
 10
11.1065470045
 20
-6.0436744878
 10
11.0851405454
 20
-6.0376855364
 10
11.0637624811
 20
-6.0318898841
 10
11.0424131618
 20
-6.026285655
 10
11.0210958321
 20
-6.0208718661
 10
10.9998122517
 20
-6.0156470596
  0
LWPOLYLINE
  5
3E4
100
AcDbEntity
  8
RACCORDO
100
AcDbPolyline
 62
7
  6
CONTINUOUS
 90
11
 70
0
 10
-12.7373146476
 20
6.0461134672
 10
-12.7578523946
 20
6.0630511001
 10
-12.7813353354
 20
6.0821493092
 10
-12.8071818394
 20
6.1028027776
 10
-12.8349544023
 20
6.1243797178
 10
-12.8642171122
 20
6.1463480174
 10
-12.8945451641
 20
6.1683126479
 10
-12.9256309051
 20
6.1899236514
 10
-12.9572040876
 20
6.2108745348
 10
-12.9890229296
 20
6.2309109063
 10
-13.0209083039
 20
6.2498457185
  0
LWPOLYLINE
  5
3E5
100
AcDbEntity
  8
RACCORDO
100
AcDbPolyline
 62
7
  6
CONTINUOUS
 90
3
 70
0
 10
-12.7078973223
 20
6.0209154173
 10
-12.7204216923
 20
6.0318852349
 10
-12.7373146476
 20
6.0461134672
  0
LINE
  5
3E6
100
AcDbEntity
  8
RACCORDO
100
AcDbLine
 62
7
  6
CONTINUOUS
 10
-17.3687699757
 20
12.1925023231
 11
-16.7369607514
 21
11.5606930989
  0
LINE
  5
3E7
100
AcDbEntity
  8
RACCORDO
100
AcDbLine
 62
7
  6
CONTINUOUS
 10
10.6234848017
 20
-15.7997524542
 11
9.9916755774
 21
-15.16794323
  0
LINE
  5
3E8
100
AcDbEntity
  8
DRAFT
100
AcDbLine
 62
7
  6
CONTINUOUS
 10
-16.7246190966
 20
11.5941921419
 11
-16.7140404025
 21
11.5836134478
  0
LINE
  5
3E9
100
AcDbEntity
  8
DRAFT
100
AcDbLine
 62
7
  6
CONTINUOUS
 10
10.0251746205
 20
-15.1556015752
 11
10.0145959263
 21
-15.1450228811
  0
LINE
  5
3EA
100
AcDbEntity
  8
DRAFT
100
AcDbLine
 62
253
  6
CONTINUOUS
 10
10.0511847701
 20
-15.1556015752
 11
11.0458170888
 21
-16.1502338939
  0
LINE
  5
3EB
100
AcDbEntity
  8
DRAFT
100
AcDbLine
 62
253
  6
CONTINUOUS
 10
-16.7246190966
 20
11.6202022916
 11
-17.7192514153
 21
12.6148346102
  0
LINE
  5
3EC
100
AcDbEntity
  8
RACCORDO
100
AcDbLine
 62
253
  6
CONTINUOUS
 10
8.8211245052
 20
-13.572122542
 11
9.0332484622
 21
-13.784246499
  0
LINE
  5
3ED
100
AcDbEntity
  8
RACCORDO
100
AcDbLine
 62
253
  6
CONTINUOUS
 10
5.364956591
 20
-10.1159546278
 11
5.152832634
 21
-9.9038306708
  0
LINE
  5
3EE
100
AcDbEntity
  8
RACCORDO
100
AcDbLine
 62
253
  6
CONTINUOUS
 10
-11.468512458
 20
6.7175144213
 11
-11.6849721492
 21
6.9339741124
  0
LINE
  5
3EF
100
AcDbEntity
  8
RACCORDO
100
AcDbLine
 62
253
  6
CONTINUOUS
 10
-15.1411400634
 20
10.3901420266
 11
-15.3532640204
 21
10.6022659836
  0
LINE
  5
3F0
100
AcDbEntity
  8
DRAFT
100
AcDbLine
 62
7
  6
CONTINUOUS
 10
1.2548689172
 20
-5.7238864386
 11
1.1809824786
 21
-5.65
  0
LINE
  5
3F1
100
AcDbEntity
  8
0
100
AcDbLine
 62
7
  6
CONTINUOUS
 10
6.2616692199
 20
-10.3055604755
 11
7.0930405481
 21
-11.1369318037
  0
LINE
  5
3F2
100
AcDbEntity
  8
0
100
AcDbLine
 62
7
  6
CONTINUOUS
 10
8.2360789268
 20
-12.2799701824
 11
8.5072541105
 21
-12.5511453661
  0
LINE
  5
3F3
100
AcDbEntity
  8
0
100
AcDbLine
 62
7
  6
CONTINUOUS
 10
-11.8744517355
 20
7.8305604799
 11
-12.7059493251
 21
8.6620580695
  0
LINE
  5
3F4
100
AcDbEntity
  8
0
100
AcDbLine
 62
7
  6
CONTINUOUS
 10
-13.8489880213
 20
9.8050967657
 11
-14.1201628875
 21
10.0762716319
  0
LINE
  5
3F5
100
AcDbEntity
  8
0
100
AcDbLine
 62
7
  6
CONTINUOUS
 10
-13.8599044585
 20
10.3365300609
 11
-13.5406498065
 21
10.0172754089
  0
LINE
  5
3F6
100
AcDbEntity
  8
0
100
AcDbLine
 62
7
  6
CONTINUOUS
 10
-12.4456908961
 20
8.9223164985
 11
-11.7259032559
 21
8.2025288583
  0
LINE
  5
3F7
100
AcDbEntity
  8
0
100
AcDbLine
 62
7
  6
CONTINUOUS
 10
8.7675125395
 20
-12.2908869371
 11
8.4482578403
 21
-11.9716322379
  0
LINE
  5
3F8
100
AcDbEntity
  8
0
100
AcDbLine
 62
7
  6
CONTINUOUS
 10
7.3532989771
 20
-10.8766733747
 11
6.6333500806
 21
-10.1567244782
  0
LINE
  5
3F9
100
AcDbEntity
  8
RACCORDO
100
AcDbLine
 62
7
  6
CONTINUOUS
 10
-11.167759125
 20
18.3935131738
 11
-11.1886126811
 21
18.4430059128
  0
LINE
  5
3FA
100
AcDbEntity
  8
RACCORDO
100
AcDbLine
 62
7
  6
CONTINUOUS
 10
-11.3748580202
 20
18.8934941353
 11
-11.4074068755
 21
18.9720740231
  0
LWPOLYLINE
  5
3FB
100
AcDbEntity
  8
RACCORDO
100
AcDbPolyline
 62
7
  6
CONTINUOUS
 90
8
 70
0
 10
-11.3022950503
 20
18.7185022266
 10
-11.3320524772
 20
18.7901524129
 10
-11.3443409319
 20
18.8200161566
 10
-11.3549254658
 20
18.8453081275
 10
-11.3633182269
 20
18.8656346097
 10
-11.3693565976
 20
18.8806372988
 10
-11.3732031954
 20
18.8900063471
 10
-11.3748580202
 20
18.8934941353
  0
LINE
  5
3FC
100
AcDbEntity
  8
RACCORDO
100
AcDbLine
 62
7
  6
CONTINUOUS
 10
-11.1886126811
 20
18.4430059128
 11
-11.3022950503
 21
18.7185022266
  0
LWPOLYLINE
  5
3FD
100
AcDbEntity
  8
0
100
AcDbPolyline
 62
7
  6
CONTINUOUS
 90
30
 70
0
 10
0.532064106
 20
-12.65791
 10
0.5353777537
 20
-12.7007583169
 10
0.5423862351
 20
-12.7414784031
 10
0.5530895503
 20
-12.7800702584
 10
0.5677231077
 20
-12.8169870967
 10
0.5860514988
 20
-12.8517757043
 10
0.6073684988
 20
-12.8830764397
 10
0.6315672854
 20
-12.9105904215
 10
0.6587546808
 20
-12.9346165311
 10
0.6885449265
 20
-12.954691772
 10
0.7210443424
 20
-12.9708789855
 10
0.7561466086
 20
-12.9831153303
 10
0.7931470068
 20
-12.9907492854
 10
0.8330370755
 20
-12.9934008819
 10
0.8748252762
 20
-12.9914500888
 10
0.914832274
 20
-12.9853852924
 10
0.9523564851
 20
-12.975123746
 10
0.9880994933
 20
-12.9607481961
 10
1.0204867149
 20
-12.9429952695
 10
1.048712443
 20
-12.9221732259
 10
1.0735823846
 20
-12.8979738055
 10
1.0959390773
 20
-12.8702088552
 10
1.1162043627
 20
-12.8385986134
 10
1.1339563993
 20
-12.8034228417
 10
1.1487722
 20
-12.7653326729
 10
1.160690261
 20
-12.7238603605
 10
1.1696720861
 20
-12.6794736509
 10
1.1751792003
 20
-12.6342269167
 10
1.1770184211
 20
-12.5877467492
 10
1.1753829309
 20
-12.5404065571
  0
LINE
  5
3FE
100
AcDbEntity
  8
0
100
AcDbLine
 62
7
  6
CONTINUOUS
 10
-1.9989365214
 20
12.892015
 11
-1.9989365214
 21
13.011724
  0
LINE
  5
3FF
100
AcDbEntity
  8
0
100
AcDbLine
 62
7
  6
CONTINUOUS
 10
-1.9432075214
 20
12.438256
 11
-1.9432075214
 21
12.557964
  0
LINE
  5
400
100
AcDbEntity
  8
0
100
AcDbLine
 62
7
  6
CONTINUOUS
 10
-0.3230625214
 20
-11.337076
 11
-0.3230625214
 21
-11.5
  0
LINE
  5
401
100
AcDbEntity
  8
0
100
AcDbLine
 62
7
  6
CONTINUOUS
 10
0.1830054786
 20
-10.109383941
 11
0.1830054786
 21
-10.267133
  0
LINE
  5
402
100
AcDbEntity
  8
0
100
AcDbLine
 62
7
  6
CONTINUOUS
 10
0.2437694786
 20
-12.963799
 11
0.2437694786
 21
-12.76421
  0
LWPOLYLINE
  5
403
100
AcDbEntity
  8
0
100
AcDbPolyline
 62
7
  6
CONTINUOUS
 90
26
 70
0
 10
-0.206414183
 20
-12.224877
 10
-0.2061732208
 20
-12.1997829579
 10
-0.2047950406
 20
-12.1756046856
 10
-0.2022796424
 20
-12.1523421831
 10
-0.1989611622
 20
-12.129767229
 10
-0.194505464
 20
-12.1081080447
 10
-0.1879101401
 20
-12.0880492941
 10
-0.1787631849
 20
-12.0694156046
 10
-0.167476604
 20
-12.0523823488
 10
-0.1542840061
 20
-12.0381603078
 10
-0.1388127683
 20
-12.0271957587
 10
-0.1214355135
 20
-12.0190424245
 10
-0.103503719
 20
-12.0135722553
 10
-0.0850957843
 20
-12.0107370292
 10
-0.0661333098
 20
-12.0105849682
 10
-0.0477325741
 20
-12.0131326886
 10
-0.029942833
 20
-12.0183084142
 10
-0.0127148306
 20
-12.0261839214
 10
0.002982922
 20
-12.0369911557
 10
0.0170254196
 20
-12.0510457575
 10
0.0295376673
 20
-12.0680320866
 10
0.0399261695
 20
-12.0872351677
 10
0.0481982724
 20
-12.1087362426
 10
0.0543466297
 20
-12.1324540696
 10
0.0577557067
 20
-12.1574299484
 10
0.0585167835
 20
-12.1837199646
  0
LINE
  5
404
100
AcDbEntity
  8
0
100
AcDbLine
 62
7
  6
CONTINUOUS
 10
-3.7463152155
 20
-10.7330375803
 11
-3.3993811529
 21
-8.7654767385
  0
LINE
  5
405
100
AcDbEntity
  8
0
100
AcDbLine
 62
253
  6
CONTINUOUS
 10
-3.4826800322
 20
-10.7451020895
 11
-3.1473903137
 21
-8.8435796042
  0
LINE
  5
406
100
AcDbEntity
  8
0
100
AcDbLine
 62
7
  6
CONTINUOUS
 10
-3.1468234201
 20
-8.8438726786
 11
-3.4820509985
 21
-10.7450427493
  0
LINE
  5
407
100
AcDbEntity
  8
0
100
AcDbLine
 62
7
  6
CONTINUOUS
 10
0.0087883773
 20
8.8438726786
 11
0.3440159556
 21
10.7450427493
  0
LINE
  5
408
100
AcDbEntity
  8
0
100
AcDbLine
 62
253
  6
CONTINUOUS
 10
0.3446449894
 20
10.7451020895
 11
0.0093552708
 21
8.8435796042
  0
LINE
  5
409
100
AcDbEntity
  8
0
100
AcDbLine
 62
7
  6
CONTINUOUS
 10
0.6082801726
 20
10.7330375803
 11
0.26134611
 21
8.7654767385
  0
LINE
  5
40A
100
AcDbEntity
  8
0
100
AcDbLine
 62
7
  6
CONTINUOUS
 10
1.1636533199
 20
10.429557776
 11
0.8871513265
 21
8.8614370477
  0
LINE
  5
40B
100
AcDbEntity
  8
0
100
AcDbLine
 62
7
  6
CONTINUOUS
 10
1.0029497949
 20
8.9303867966
 11
1.2486303257
 21
10.3237103243
  0
LWPOLYLINE
  5
40C
100
AcDbEntity
  8
IMPORT_IGES
100
AcDbPolyline
 62
7
  6
CONTINUOUS
 90
13
 70
0
 10
3.0440463226
 20
13.39988
 10
3.0383817146
 20
13.3749050877
 10
3.0319813553
 20
13.3509038641
 10
3.0248452446
 20
13.3278763293
 10
3.0170282452
 20
13.305685128
 10
3.0084754945
 20
13.2844676155
 10
2.9990224045
 20
13.2646358578
 10
2.9886036703
 20
13.2462360037
 10
2.9772845968
 20
13.2292219044
 10
2.9650965107
 20
13.2138671794
 10
2.9520498541
 20
13.2002630353
 10
2.9381341848
 20
13.1883182654
 10
2.9233495029
 20
13.1780328698
  0
LINE
  5
40D
100
AcDbEntity
  8
ASSI
100
AcDbLine
 62
7
  6
CONTINUOUS
 10
2.4584684786
 20
15.50001
 11
2.8461134786
 21
16.851903
  0
LWPOLYLINE
  5
40E
100
AcDbEntity
  8
IMPORT_IGES
100
AcDbPolyline
 62
7
  6
CONTINUOUS
 90
13
 70
0
 10
3.9071574786
 20
12.078865
 10
3.9194029912
 20
12.1181331693
 10
3.9368387002
 20
12.1562231543
 10
3.9594646058
 20
12.1931349548
 10
3.9876983998
 20
12.2290581699
 10
4.0211223902
 20
12.2638032006
 10
4.0584835012
 20
12.29680125
 10
4.0999757977
 20
12.3273750576
 10
4.1454052148
 20
12.3562018841
 10
4.1929364805
 20
12.3847447136
 10
4.2419578376
 20
12.4134912079
 10
4.2930810435
 20
12.4419537054
 10
4.346306098
 20
12.470132206
  0
LINE
  5
40F
100
AcDbEntity
  8
ASSI
100
AcDbLine
 62
7
  6
CONTINUOUS
 10
4.1876844786
 20
17.550103
 11
3.5294764786
 21
15.500005
  0
LINE
  5
410
100
AcDbEntity
  8
ASSI
100
AcDbLine
 62
7
  6
CONTINUOUS
 10
3.9394914786
 20
15.50001
 11
4.0689334786
 21
15.903174
  0
LINE
  5
411
100
AcDbEntity
  8
ASSI
100
AcDbLine
 62
7
  6
CONTINUOUS
 10
4.1939984786
 20
16.292689
 11
4.3927004786
 21
16.911604
  0
LWPOLYLINE
  5
412
100
AcDbEntity
  8
IMPORT_IGES
100
AcDbPolyline
 62
7
  6
CONTINUOUS
 90
16
 70
0
 10
3.0207746843
 20
10.3398075291
 10
3.0505264516
 20
10.4292552487
 10
3.0816175283
 20
10.5150915994
 10
3.1140479144
 20
10.5973165813
 10
3.1479739594
 20
10.6757905395
 10
3.1832393138
 20
10.7506531289
 10
3.219374929
 20
10.8223233136
 10
3.2563482176
 20
10.8908604933
 10
3.294191767
 20
10.9562052683
 10
3.3325342902
 20
11.0185984038
 10
3.3712965742
 20
11.0780464364
 10
3.410557832
 20
11.1345428295
 10
3.450184416
 20
11.1883087378
 10
3.4901317773
 20
11.2394178798
 10
3.5304444648
 20
11.2877965372
 10
3.5711224786
 20
11.3334447098
  0
LINE
  5
413
100
AcDbEntity
  8
IMPORT_IGES
100
AcDbLine
 62
7
  6
CONTINUOUS
 10
5.0866654786
 20
10.54282
 11
5.5767224786
 21
11.230542
  0
LINE
  5
414
100
AcDbEntity
  8
0
100
AcDbLine
 62
7
  6
CONTINUOUS
 10
-17.5090652705
 20
-10.1676955419
 11
-17.4906224104
 21
-10.1549273261
  0
LINE
  5
415
100
AcDbEntity
  8
0
100
AcDbLine
 62
7
  6
CONTINUOUS
 10
14.3525873675
 20
10.1549273261
 11
14.3710302265
 21
10.1676955411
  0
LINE
  5
416
100
AcDbEntity
  8
0
100
AcDbLine
 62
7
  6
CONTINUOUS
 10
-15.1474126325
 20
-10.8450726739
 11
-15.1289697735
 21
-10.8323044589
  0
LINE
  5
417
100
AcDbEntity
  8
0
100
AcDbLine
 62
7
  6
CONTINUOUS
 10
-13.7117245214
 20
-1.945547
 11
-13.3871235214
 21
-1.945547
  0
LINE
  5
418
100
AcDbEntity
  8
0
100
AcDbLine
 62
253
  6
CONTINUOUS
 10
-22.0432117654
 20
-1.8966740413
 11
-25.0690175214
 21
-1.8966740413
  0
LINE
  5
419
100
AcDbEntity
  8
0
100
AcDbLine
 62
7
  6
CONTINUOUS
 10
-20.0690175214
 20
-1.4917020703
 11
-19.3690175214
 21
-1.4917020703
  0
LINE
  5
41A
100
AcDbEntity
  8
0
100
AcDbLine
 62
7
  6
CONTINUOUS
 10
-12.8841385214
 20
-1.298978
 11
-12.5595385214
 21
-1.298978
  0
LINE
  5
41B
100
AcDbEntity
  8
0
100
AcDbLine
 62
7
  6
CONTINUOUS
 10
-19.3690175214
 20
-1.1426949447
 11
-19.6464002827
 21
-1.1426949447
  0
LINE
  5
41C
100
AcDbEntity
  8
0
100
AcDbLine
 62
7
  6
CONTINUOUS
 10
-19.7916347602
 20
-1.1426949447
 11
-20.0690175214
 21
-1.1426949447
  0
LINE
  5
41D
100
AcDbEntity
  8
0
100
AcDbLine
 62
7
  6
CONTINUOUS
 10
-12.0565535214
 20
-0.652701
 11
-11.7290285214
 21
-0.652701
  0
LINE
  5
41E
100
AcDbEntity
  8
0
100
AcDbLine
 62
7
  6
CONTINUOUS
 10
-21.8090175214
 20
-0.35
 11
-20.8092124581
 21
-0.35
  0
LINE
  5
41F
100
AcDbEntity
  8
0
100
AcDbLine
 62
7
  6
CONTINUOUS
 10
-18.6288225847
 20
-0.35
 11
-17.6290175214
 21
-0.35
  0
LINE
  5
420
100
AcDbEntity
  8
0
100
AcDbLine
 62
7
  6
CONTINUOUS
 10
-15.3288785214
 20
-0.171941
 11
-13.7117245214
 21
-0.171941
  0
LINE
  5
421
100
AcDbEntity
  8
0
100
AcDbLine
 62
7
  6
CONTINUOUS
 10
-13.7117245214
 20
0.193601
 11
-15.3288785214
 21
0.193601
  0
LINE
  5
422
100
AcDbEntity
  8
RACCORDO
100
AcDbLine
 62
7
  6
CONTINUOUS
 10
17.9030565016
 20
-9.338389354
 11
17.8244766139
 21
-9.3058404988
  0
LWPOLYLINE
  5
423
100
AcDbEntity
  8
RACCORDO
100
AcDbPolyline
 62
7
  6
CONTINUOUS
 90
3
 70
0
 10
17.3739883914
 20
-9.1195951596
 10
17.6871413588
 20
-9.2490082027
 10
17.7509986351
 20
-9.2753234104
  0
LWPOLYLINE
  5
424
100
AcDbEntity
  8
RACCORDO
100
AcDbPolyline
 62
7
  6
CONTINUOUS
 90
6
 70
0
 10
17.7509986351
 20
-9.2753234104
 10
17.7762906061
 20
-9.2859079444
 10
17.7966170883
 20
-9.2943007054
 10
17.8116197773
 20
-9.3003390762
 10
17.8209888257
 20
-9.3041856739
 10
17.8244766139
 20
-9.3058404988
  0
LINE
  5
425
100
AcDbEntity
  8
RACCORDO
100
AcDbLine
 62
7
  6
CONTINUOUS
 10
17.3244956523
 20
-9.0987416036
 11
17.3739883914
 21
-9.1195951596
  0
LINE
  5
426
100
AcDbEntity
  8
0
100
AcDbLine
 62
7
  6
CONTINUOUS
 10
-11.9055475823
 20
12.2908869371
 11
-11.5862928832
 21
11.9716322379
  0
LINE
  5
427
100
AcDbEntity
  8
0
100
AcDbLine
 62
7
  6
CONTINUOUS
 10
-10.49133402
 20
10.8766733747
 11
-9.7713851234
 21
10.1567244782
  0
LINE
  5
428
100
AcDbEntity
  8
0
100
AcDbLine
 62
7
  6
CONTINUOUS
 10
10.7218694156
 20
-10.3365300609
 11
10.4026147636
 21
-10.0172754089
  0
LINE
  5
429
100
AcDbEntity
  8
0
100
AcDbLine
 62
7
  6
CONTINUOUS
 10
9.3076558533
 20
-8.9223164985
 11
8.587868213
 21
-8.2025288583
  0
LINE
  5
42A
100
AcDbEntity
  8
0
100
AcDbLine
 62
7
  6
CONTINUOUS
 10
-3.5660665214
 20
9.562017
 11
-3.9282655214
 21
10.562553
  0
LINE
  5
42B
100
AcDbEntity
  8
0
100
AcDbLine
 62
7
  6
CONTINUOUS
 10
-3.8126005214
 20
9.8532
 11
-3.7136795214
 21
9.562017
  0
LINE
  5
42C
100
AcDbEntity
  8
0
100
AcDbLine
 62
7
  6
CONTINUOUS
 10
-4.0716725214
 20
12.729438
 11
-3.9727515214
 21
12.438256
  0
LINE
  5
42D
100
AcDbEntity
  8
0
100
AcDbLine
 62
7
  6
CONTINUOUS
 10
-5.3142515214
 20
12.588544
 11
-5.5665192682
 21
13.3353440603
  0
LINE
  5
42E
100
AcDbEntity
  8
0
100
AcDbLine
 62
7
  6
CONTINUOUS
 10
-5.6548949264
 20
13.2494690321
 11
-5.3824805214
 21
12.438256
  0
LINE
  5
42F
100
AcDbEntity
  8
0
100
AcDbLine
 62
7
  6
CONTINUOUS
 10
-4.0103875214
 20
10.416847
 11
-3.8613735214
 21
9.972908
  0
LINE
  5
430
100
AcDbEntity
  8
0
100
AcDbLine
 62
7
  6
CONTINUOUS
 10
-4.2694595214
 20
13.293087
 11
-4.1204455214
 21
12.849147
  0
LWPOLYLINE
  5
431
100
AcDbEntity
  8
0
100
AcDbPolyline
 62
7
  6
CONTINUOUS
 90
20
 70
0
 10
1.6106561688
 20
-10.6096969539
 10
1.6030699156
 20
-10.5643589338
 10
1.5914065378
 20
-10.5223511415
 10
1.5758964271
 20
-10.4831373905
 10
1.5573975898
 20
-10.4477953423
 10
1.5358277231
 20
-10.416518583
 10
1.5112691298
 20
-10.3891135266
 10
1.4848267251
 20
-10.3660770769
 10
1.4565147706
 20
-10.3477005516
 10
1.4263190048
 20
-10.333692633
 10
1.3953015586
 20
-10.3236762717
 10
1.3631027651
 20
-10.3175524885
 10
1.3300822912
 20
-10.3154202626
 10
1.2983812691
 20
-10.3171994821
 10
1.2683528048
 20
-10.3229639675
 10
1.2396437922
 20
-10.3326398983
 10
1.2133360447
 20
-10.3459257006
 10
1.1897901668
 20
-10.3627208499
 10
1.1686455539
 20
-10.3831258709
 10
1.1499022061
 20
-10.4071407634
  0
LWPOLYLINE
  5
432
100
AcDbEntity
  8
0
100
AcDbPolyline
 62
7
  6
CONTINUOUS
 90
32
 70
0
 10
0.9778533786
 20
-10.6824018393
 10
0.983483977
 20
-10.7264364413
 10
0.9909042232
 20
-10.7686000138
 10
1.0001405198
 20
-10.8089955128
 10
1.0111664642
 20
-10.8475199823
 10
1.0242633059
 20
-10.8836078911
 10
1.0395112779
 20
-10.9172621954
 10
1.0568301472
 20
-10.9484799392
 10
1.0762604631
 20
-10.9766867231
 10
1.097575808
 20
-11.001807549
 10
1.1210025997
 20
-11.0239174151
 10
1.147260641
 20
-11.0426669176
 10
1.1770884036
 20
-11.0580460064
 10
1.2097474158
 20
-11.0700647316
 10
1.2437420658
 20
-11.0784038387
 10
1.2793367335
 20
-11.0832475761
 10
1.3162670389
 20
-11.0844116954
 10
1.35224423
 20
-11.0810241979
 10
1.386881562
 20
-11.0727435164
 10
1.4205657798
 20
-11.059911218
 10
1.452168366
 20
-11.0426800046
 10
1.4815635666
 20
-11.0210441728
 10
1.5088771356
 20
-10.9950094262
 10
1.5333578179
 20
-10.9647455774
 10
1.5549450889
 20
-10.9298878259
 10
1.5736994732
 20
-10.8908009724
 10
1.589051289
 20
-10.8487492312
 10
1.601014308
 20
-10.8031297715
 10
1.6095747586
 20
-10.7545454241
 10
1.6141216442
 20
-10.706068896
 10
1.6143956889
 20
-10.6578290153
 10
1.6106561688
 20
-10.6096969539
  0
LWPOLYLINE
  5
433
100
AcDbEntity
  8
0
100
AcDbPolyline
 62
7
  6
CONTINUOUS
 90
20
 70
0
 10
1.1753829309
 20
-12.5404065571
 10
1.1703138018
 20
-12.4953809386
 10
1.1617103621
 20
-12.4533620214
 10
1.1496732834
 20
-12.4136576778
 10
1.1345456528
 20
-12.3773661238
 10
1.1160906389
 20
-12.3447823247
 10
1.094545073
 20
-12.3156113151
 10
1.070962537
 20
-12.2900664141
 10
1.0455061316
 20
-12.2681662718
 10
1.018012756
 20
-12.249892238
 10
0.9890466897
 20
-12.2354016819
 10
0.9582743515
 20
-12.2246238723
 10
0.9260293226
 20
-12.2176295404
 10
0.8938766259
 20
-12.2147882477
 10
0.8615915263
 20
-12.2165098766
 10
0.829398759
 20
-12.2223845448
 10
0.799537552
 20
-12.2315521668
 10
0.772754315
 20
-12.2437260477
 10
0.7483026384
 20
-12.2591928824
 10
0.7261825223
 20
-12.2779526711
  0
LWPOLYLINE
  5
434
100
AcDbEntity
  8
0
100
AcDbPolyline
 62
7
  6
CONTINUOUS
 90
22
 70
0
 10
2.1154681794
 20
-12.4067242557
 10
2.1149239853
 20
-12.3605737603
 10
2.1132750743
 20
-12.3157982868
 10
2.1105214465
 20
-12.2723978354
 10
2.1067274107
 20
-12.2303462039
 10
2.101828658
 20
-12.1896695944
 10
2.0956322622
 20
-12.1504466135
 10
2.0882181622
 20
-12.1125600246
 10
2.0795064191
 20
-12.0761270643
 10
2.0690642893
 20
-12.0415780489
 10
2.0568068708
 20
-12.0088909351
 10
2.0428190656
 20
-11.9780877661
 10
2.0269228363
 20
-11.949664988
 10
2.0093094918
 20
-11.9236125699
 10
1.9897877232
 20
-11.8999405427
 10
1.9676055667
 20
-11.879175445
 10
1.9420117962
 20
-11.8613450442
 10
1.9137576378
 20
-11.8464215728
 10
1.884344806
 20
-11.8348482668
 10
1.8542738723
 20
-11.8267728713
 10
1.8230442652
 20
-11.8220476412
 10
1.7906559847
 20
-11.8206725763
  0
LWPOLYLINE
  5
435
100
AcDbEntity
  8
0
100
AcDbPolyline
 62
7
  6
CONTINUOUS
 90
22
 70
0
 10
1.4659916336
 20
-12.4067242557
 10
1.4663213164
 20
-12.4544519535
 10
1.4678681754
 20
-12.5006889268
 10
1.4706322104
 20
-12.5454351756
 10
1.4745084653
 20
-12.5887435616
 10
1.4796018963
 20
-12.630561223
 10
1.4862273724
 20
-12.6707295745
 10
1.4944461624
 20
-12.7093059502
 10
1.5041969975
 20
-12.746233016
 10
1.5156109405
 20
-12.7811801839
 10
1.5286570656
 20
-12.814324077
 10
1.5433662985
 20
-12.8454880724
 10
1.5599624789
 20
-12.8738117129
 10
1.5786221079
 20
-12.8990619519
 10
1.5991686843
 20
-12.9214718361
 10
1.6212965442
 20
-12.9408800484
 10
1.6447557752
 20
-12.9572168671
 10
1.6697962895
 20
-12.9705520139
 10
1.6968621604
 20
-12.9809333372
 10
1.726101412
 20
-12.9883767863
 10
1.7573660201
 20
-12.9928664118
 10
1.7906559847
 20
-12.9944022137
  0
LINE
  5
436
100
AcDbEntity
  8
0
100
AcDbLine
 62
7
  6
CONTINUOUS
 10
0.4061014786
 20
-10.267133
 11
0.4061014786
 21
-11.0544
  0
LINE
  5
437
100
AcDbEntity
  8
ASSI
100
AcDbLine
 62
7
  6
CONTINUOUS
 10
0.4307884786
 20
17.550097
 11
0.4307834786
 21
15.5
  0
LINE
  5
438
100
AcDbEntity
  8
0
100
AcDbLine
 62
7
  6
CONTINUOUS
 10
0.5909054786
 20
-11.0544
 11
0.5909054786
 21
-9.911274
  0
LINE
  5
439
100
AcDbEntity
  8
ASSI
100
AcDbLine
 62
7
  6
CONTINUOUS
 10
0.8407984786
 20
15.500005
 11
0.8408034786
 21
17.550097
  0
LINE
  5
43A
100
AcDbEntity
  8
0
100
AcDbLine
 62
7
  6
CONTINUOUS
 10
0.9309824786
 20
5.5
 11
0.9309824786
 21
5.25
  0
LINE
  5
43B
100
AcDbEntity
  8
0
100
AcDbLine
 62
7
  6
CONTINUOUS
 10
0.9309824786
 20
-5.5
 11
0.9309824786
 21
-5.25
  0
LINE
  5
43C
100
AcDbEntity
  8
0
100
AcDbLine
 62
7
  6
CONTINUOUS
 10
1.1407354786
 20
-12.030019
 11
1.1407354786
 21
-11.84004
  0
LINE
  5
43D
100
AcDbEntity
  8
DRAFT
100
AcDbLine
 62
7
  6
CONTINUOUS
 10
1.1809824786
 20
-5.65
 11
1.1809824786
 21
-5.25
  0
LINE
  5
43E
100
AcDbEntity
  8
DRAFT
100
AcDbLine
 62
7
  6
CONTINUOUS
 10
1.1809824786
 20
5.25
 11
1.1809824786
 21
5.65
  0
LINE
  5
43F
100
AcDbEntity
  8
ASSI
100
AcDbLine
 62
7
  6
CONTINUOUS
 10
1.2508034786
 20
17.550097
 11
1.2508034786
 21
15.500005
  0
LINE
  5
440
100
AcDbEntity
  8
DRAFT
100
AcDbLine
 62
7
  6
CONTINUOUS
 10
1.2548689172
 20
-5.7238864386
 11
1.2548689172
 21
-5.25
  0
LINE
  5
441
100
AcDbEntity
  8
DRAFT
100
AcDbLine
 62
7
  6
CONTINUOUS
 10
1.2548689172
 20
5.25
 11
1.2548689172
 21
5.7238864386
  0
LINE
  5
442
100
AcDbEntity
  8
ASSI
100
AcDbLine
 62
7
  6
CONTINUOUS
 10
1.6608194786
 20
15.500005
 11
1.6608194786
 21
16.851903
  0
LINE
  5
443
100
AcDbEntity
  8
0
100
AcDbLine
 62
7
  6
CONTINUOUS
 10
2.1218254786
 20
-11.5
 11
2.1218254786
 21
-11.337076
  0
LINE
  5
444
100
AcDbEntity
  8
IMPORT_IGES
100
AcDbLine
 62
7
  6
CONTINUOUS
 10
2.5116424786
 20
11.49984
 11
2.5116424786
 21
11.308
  0
LINE
  5
445
100
AcDbEntity
  8
IMPORT_IGES
100
AcDbLine
 62
7
  6
CONTINUOUS
 10
2.6378624786
 20
13.11111
 11
2.6378624786
 21
12.966725
  0
LWPOLYLINE
  5
446
100
AcDbEntity
  8
0
100
AcDbPolyline
 62
7
  6
CONTINUOUS
 90
25
 70
0
 10
1.9253414236
 20
-12.4067242557
 10
1.9252423976
 20
-12.4331535418
 10
1.9249400789
 20
-12.4589229912
 10
1.9244344677
 20
-12.4840326037
 10
1.9237556004
 20
-12.5084787966
 10
1.9228734405
 20
-12.5322651528
 10
1.9216978784
 20
-12.5554024206
 10
1.9202365554
 20
-12.5778967585
 10
1.9184818303
 20
-12.5997420081
 10
1.9163206702
 20
-12.6209304429
 10
1.9137712654
 20
-12.6414723782
 10
1.9108154256
 20
-12.6613574987
 10
1.9072855467
 20
-12.6805471327
 10
1.9032670862
 20
-12.6991593927
 10
1.8986745865
 20
-12.7170761662
 10
1.8930840713
 20
-12.7339044445
 10
1.8864515685
 20
-12.7497259879
 10
1.8788210503
 20
-12.7644590361
 10
1.8699004562
 20
-12.7774652986
 10
1.8595200326
 20
-12.7886775923
 10
1.8478495332
 20
-12.7981631005
 10
1.8351061586
 20
-12.8054850823
 10
1.8213623091
 20
-12.8104979577
 10
1.8065455845
 20
-12.8133473069
 10
1.7906559847
 20
-12.8140331298
  0
LWPOLYLINE
  5
447
100
AcDbEntity
  8
0
100
AcDbPolyline
 62
7
  6
CONTINUOUS
 90
25
 70
0
 10
1.6561183893
 20
-12.4067242557
 10
1.6562405828
 20
-12.3799361614
 10
1.6565455169
 20
-12.3538502534
 10
1.6570331916
 20
-12.3284665317
 10
1.6576529186
 20
-12.303790413
 10
1.6584553861
 20
-12.2798164806
 10
1.6595926596
 20
-12.2565284844
 10
1.6610943389
 20
-12.2339238509
 10
1.6629308241
 20
-12.2120051536
 10
1.6651653811
 20
-12.1907638621
 10
1.6677385102
 20
-12.1701642907
 10
1.670709711
 20
-12.1502421251
 10
1.6743207481
 20
-12.1310958918
 10
1.678524965
 20
-12.1126551346
 10
1.6833690181
 20
-12.0949903099
 10
1.6892346419
 20
-12.078411313
 10
1.6962059498
 20
-12.0627730777
 10
1.7041988284
 20
-12.0482206703
 10
1.7133426711
 20
-12.035499185
 10
1.7237538973
 20
-12.0247854369
 10
1.7353160877
 20
-12.0159026109
 10
1.747809378
 20
-12.0090653553
 10
1.7611604803
 20
-12.0043452198
 10
1.7754426825
 20
-12.0016706548
 10
1.7906559847
 20
-12.0010416603
  0
LWPOLYLINE
  5
448
100
AcDbEntity
  8
0
100
AcDbPolyline
 62
7
  6
CONTINUOUS
 90
28
 70
0
 10
1.4295936298
 20
-10.6921830534
 10
1.4290801302
 20
-10.7166485155
 10
1.4272131305
 20
-10.7401097187
 10
1.4239926305
 20
-10.7625666629
 10
1.4194420372
 20
-10.784172727
 10
1.4135379436
 20
-10.8047745322
 10
1.4062101294
 20
-10.8239119423
 10
1.3974374962
 20
-10.8417160131
 10
1.3872411423
 20
-10.8580556888
 10
1.375614142
 20
-10.8720776653
 10
1.3623009934
 20
-10.8835763827
 10
1.3475571985
 20
-10.892757401
 10
1.3321423375
 20
-10.8993840951
 10
1.3161477183
 20
-10.9034484667
 10
1.2994820331
 20
-10.9049585142
 10
1.2826309386
 20
-10.9037016085
 10
1.2653745124
 20
-10.8996279353
 10
1.2479326768
 20
-10.8927873088
 10
1.2314508556
 20
-10.8831165433
 10
1.2160122344
 20
-10.8703874053
 10
1.2015336276
 20
-10.8548281282
 10
1.1889109013
 20
-10.8370602262
 10
1.1784443737
 20
-10.8170364878
 10
1.1698337266
 20
-10.7948041245
 10
1.1630738726
 20
-10.7711262846
 10
1.1581631157
 20
-10.7462573508
 10
1.1551031518
 20
-10.7199429404
 10
1.1538939809
 20
-10.6921830534
  0
LWPOLYLINE
  5
449
100
AcDbEntity
  8
0
100
AcDbPolyline
 62
7
  6
CONTINUOUS
 90
28
 70
0
 10
1.1538939809
 20
-10.6921830534
 10
1.1551005665
 20
-10.6644381821
 10
1.1581579747
 20
-10.6381344441
 10
1.1630662055
 20
-10.6132718395
 10
1.1698234167
 20
-10.5895947322
 10
1.1784314504
 20
-10.5673587582
 10
1.1888958331
 20
-10.5473308256
 10
1.2015169802
 20
-10.5295591276
 10
1.2159944762
 20
-10.513995471
 10
1.2314326012
 20
-10.5012621836
 10
1.2479147256
 20
-10.4915877028
 10
1.2653574789
 20
-10.4847435912
 10
1.2826150302
 20
-10.4806668645
 10
1.2994673769
 20
-10.4794074292
 10
1.3161345215
 20
-10.4809153788
 10
1.332130641
 20
-10.4849780094
 10
1.3475470167
 20
-10.4916032885
 10
1.3622923674
 20
-10.5007832486
 10
1.3756070259
 20
-10.5122812834
 10
1.3872355178
 20
-10.5263029875
 10
1.3974333175
 20
-10.5426427663
 10
1.4062071818
 20
-10.5604472292
 10
1.4135359411
 20
-10.57958534
 10
1.4194407649
 20
-10.6001881349
 10
1.423991919
 20
-10.6217953318
 10
1.4272128256
 20
-10.6442535036
 10
1.4290800625
 20
-10.6677160775
 10
1.4295936298
 20
-10.6921830534
  0
LWPOLYLINE
  5
44A
100
AcDbEntity
  8
0
100
AcDbPolyline
 62
7
  6
CONTINUOUS
 90
28
 70
0
 10
1.1499022061
 20
-10.4071407634
 10
1.1513738809
 20
-10.3784044207
 10
1.1535083014
 20
-10.3505604974
 10
1.1563054678
 20
-10.3236089935
 10
1.1596619321
 20
-10.29749974
 10
1.1636811421
 20
-10.272282906
 10
1.1686734419
 20
-10.248108998
 10
1.1746515359
 20
-10.2249083673
 10
1.1816027198
 20
-10.2027506627
 10
1.1897992243
 20
-10.1819953371
 10
1.1992295304
 20
-10.1623951932
 10
1.2099051573
 20
-10.1441974282
 10
1.2221328927
 20
-10.1285030873
 10
1.2362872741
 20
-10.1155802369
 10
1.2519937641
 20
-10.1051608107
 10
1.2684355376
 20
-10.0975416542
 10
1.2858157801
 20
-10.092843856
 10
1.3039313062
 20
-10.0909463276
 10
1.3213557345
 20
-10.0917826491
 10
1.3378717046
 20
-10.0954185295
 10
1.3536965769
 20
-10.1017882599
 10
1.3680560521
 20
-10.1106282931
 10
1.3810353925
 20
-10.1223627341
 10
1.3925493358
 20
-10.1365674779
 10
1.401567795
 20
-10.1517066626
 10
1.4077474078
 20
-10.1672683342
 10
1.4114315366
 20
-10.1837644467
 10
1.4126201813
 20
-10.201195
  0
LWPOLYLINE
  5
44B
100
AcDbEntity
  8
0
100
AcDbPolyline
 62
7
  6
CONTINUOUS
 90
11
 70
0
 10
0.0585167835
 20
-12.1837199646
 10
0.0565385799
 20
-12.2112680326
 10
0.050931721
 20
-12.2389471954
 10
0.0412409633
 20
-12.266639236
 10
0.0279215502
 20
-12.2944623713
 10
0.011449837
 20
-12.3216442957
 10
-0.0085314227
 20
-12.3477568754
 10
-0.0316649825
 20
-12.3732282442
 10
-0.0564027479
 20
-12.3985704971
 10
-0.0825063813
 20
-12.4236549592
 10
-0.1386931829
 20
-12.4743346557
  0
LWPOLYLINE
  5
44C
100
AcDbEntity
  8
0
100
AcDbPolyline
 62
7
  6
CONTINUOUS
 90
16
 70
0
 10
0.4392183721
 20
-9.911274
 10
0.436648052
 20
-9.936839483
 10
0.4318840252
 20
-9.9607930383
 10
0.4249262917
 20
-9.9831346658
 10
0.4157725492
 20
-10.0039189934
 10
0.4044251
 20
-10.0230913933
 10
0.3908908516
 20
-10.0404879824
 10
0.3751005037
 20
-10.056158353
 10
0.3571233567
 20
-10.0700529128
 10
0.3371742191
 20
-10.0818590015
 10
0.3150836467
 20
-10.0914290055
 10
0.2910210836
 20
-10.0989105385
 10
0.2657096711
 20
-10.1044337805
 10
0.2393904563
 20
-10.108042125
 10
0.2118223922
 20
-10.1096921785
 10
0.1830054786
 20
-10.109383941
  0
LINE
  5
44D
100
AcDbEntity
  8
0
100
AcDbLine
 62
7
  6
CONTINUOUS
 10
0.6257964786
 20
-11.84004
 11
0.5611894786
 21
-12.467931
  0
LINE
  5
44E
100
AcDbEntity
  8
0
100
AcDbLine
 62
7
  6
CONTINUOUS
 10
0.7261825223
 20
-12.2779526711
 11
0.7591514786
 21
-12.030019
  0
LWPOLYLINE
  5
44F
100
AcDbEntity
  8
IMPORT_IGES
100
AcDbPolyline
 62
7
  6
CONTINUOUS
 90
3
 70
0
 10
2.9411024786
 20
10.0
 10
2.9492812225
 20
10.0394376225
 10
2.9575920027
 20
10.078474772
  0
LWPOLYLINE
  5
450
100
AcDbEntity
  8
IMPORT_IGES
100
AcDbPolyline
 62
7
  6
CONTINUOUS
 90
7
 70
0
 10
2.9575920027
 20
10.078474772
 10
2.9745611463
 20
10.155374098
 10
2.9832195096
 20
10.1932362745
 10
2.9921554873
 20
10.2306186396
 10
3.0014176053
 20
10.2674947474
 10
3.0109573376
 20
10.3038910439
 10
3.0207746843
 20
10.3398075291
  0
LINE
  5
451
100
AcDbEntity
  8
0
100
AcDbLine
 62
7
  6
CONTINUOUS
 10
-4.3305915214
 20
-15.000011
 11
-4.8991375214
 21
-16.703214
  0
LINE
  5
452
100
AcDbEntity
  8
0
100
AcDbLine
 62
7
  6
CONTINUOUS
 10
-4.7574685214
 20
-17.0
 11
-4.0272765214
 21
-15.000011
  0
LWPOLYLINE
  5
453
100
AcDbEntity
  8
0
100
AcDbPolyline
 62
7
  6
CONTINUOUS
 90
10
 70
0
 10
-9.9358005153
 20
-16.7661920539
 10
-9.9114021632
 20
-16.7322328474
 10
-9.8895722173
 20
-16.6965493584
 10
-9.8703106777
 20
-16.6591415871
 10
-9.8534147832
 20
-16.6193301104
 10
-9.839087295
 20
-16.5777943512
 10
-9.8279364964
 20
-16.5365725783
 10
-9.8201651485
 20
-16.4963442145
 10
-9.8155704902
 20
-16.456429837
 10
-9.8141525214
 20
-16.4168294457
  0
LINE
  5
454
100
AcDbEntity
  8
DRAFT
100
AcDbLine
 62
7
  6
CONTINUOUS
 10
-4.39290396
 20
-5.7238864386
 11
-4.3190175214
 21
-5.65
  0
LINE
  5
455
100
AcDbEntity
  8
0
100
AcDbLine
 62
7
  6
CONTINUOUS
 10
12.6605778304
 20
9.9795953518
 11
12.6612589944
 21
9.9802765158
  0
LINE
  5
456
100
AcDbEntity
  8
0
100
AcDbLine
 62
7
  6
CONTINUOUS
 10
13.7007059627
 20
11.0197234842
 11
13.7013871267
 21
11.0204046482
  0
LINE
  5
457
100
AcDbEntity
  8
0
100
AcDbLine
 62
7
  6
CONTINUOUS
 10
12.5536849693
 20
9.8727024837
 11
12.5809824786
 21
9.8999999936
  0
LINE
  5
458
100
AcDbEntity
  8
0
100
AcDbLine
 62
7
  6
CONTINUOUS
 10
13.7809824786
 20
11.1000000064
 11
13.8082799878
 21
11.1272975163
  0
LINE
  5
459
100
AcDbEntity
  8
0
100
AcDbLine
 62
7
  6
CONTINUOUS
 10
-17.4906224104
 20
-10.1549273261
 11
-17.3465172162
 21
-10.078362429
  0
LINE
  5
45A
100
AcDbEntity
  8
0
100
AcDbLine
 62
7
  6
CONTINUOUS
 10
-15.1474126325
 20
-10.8450726739
 11
-15.2915178267
 21
-10.921637571
  0
LINE
  5
45B
100
AcDbEntity
  8
0
100
AcDbLine
 62
7
  6
CONTINUOUS
 10
-17.3465172162
 20
-10.078362429
 11
-17.2378687157
 21
-10.0213924753
  0
LINE
  5
45C
100
AcDbEntity
  8
0
100
AcDbLine
 62
7
  6
CONTINUOUS
 10
-15.2915178267
 20
-10.921637571
 11
-15.4001663271
 21
-10.9786075247
  0
LINE
  5
45D
100
AcDbEntity
  8
0
100
AcDbLine
 62
7
  6
CONTINUOUS
 10
-17.2378687157
 20
-10.0213924753
 11
-17.1288622069
 21
-9.9649992793
  0
LWPOLYLINE
  5
45E
100
AcDbEntity
  8
0
100
AcDbPolyline
 62
7
  6
CONTINUOUS
 90
4
 70
0
 10
-17.1288622069
 20
-9.9649992793
 10
-17.0196040442
 20
-9.9093392233
 10
-16.9830689963
 20
-9.8909542009
 10
-16.946314928
 20
-9.8727027659
  0
LINE
  5
45F
100
AcDbEntity
  8
0
100
AcDbLine
 62
7
  6
CONTINUOUS
 10
-16.8394221696
 20
-9.9795953519
 11
-16.8811515157
 21
-10.0000535044
  0
LINE
  5
460
100
AcDbEntity
  8
TRASH
100
AcDbLine
 62
7
  6
CONTINUOUS
 10
-17.4640147916
 20
-10.2718517819
 11
-17.4411238084
 21
-10.2611776274
  0
LINE
  5
461
100
AcDbEntity
  8
0
100
AcDbLine
 62
7
  6
CONTINUOUS
 10
-16.8811515157
 20
-10.0000535044
 11
-16.8387443037
 21
-9.980282565
  0
LINE
  5
462
100
AcDbEntity
  8
0
100
AcDbLine
 62
7
  6
CONTINUOUS
 10
-17.4411203349
 20
-10.2611739822
 11
-16.9190175214
 21
-10.017710713
  0
LINE
  5
463
100
AcDbEntity
  8
0
100
AcDbLine
 62
7
  6
CONTINUOUS
 10
-21.8090175214
 20
0.35
 11
-20.8092124581
 21
0.35
  0
LINE
  5
464
100
AcDbEntity
  8
0
100
AcDbLine
 62
7
  6
CONTINUOUS
 10
-18.6288225847
 20
0.35
 11
-17.6290175214
 21
0.35
  0
LINE
  5
465
100
AcDbEntity
  8
0
100
AcDbLine
 62
7
  6
CONTINUOUS
 10
-11.7290285214
 20
0.674068
 11
-12.0565535214
 21
0.674068
  0
LINE
  5
466
100
AcDbEntity
  8
0
100
AcDbLine
 62
7
  6
CONTINUOUS
 10
-19.3690175214
 20
1.1426949447
 11
-19.6464002827
 21
1.1426949447
  0
LINE
  5
467
100
AcDbEntity
  8
0
100
AcDbLine
 62
7
  6
CONTINUOUS
 10
-19.7916347602
 20
1.1426949447
 11
-20.0690175214
 21
1.1426949447
  0
LINE
  5
468
100
AcDbEntity
  8
0
100
AcDbLine
 62
7
  6
CONTINUOUS
 10
-12.5595385214
 20
1.320637
 11
-12.8841385214
 21
1.320637
  0
LINE
  5
469
100
AcDbEntity
  8
0
100
AcDbLine
 62
7
  6
CONTINUOUS
 10
-20.0690175214
 20
1.4917020703
 11
-19.3690175214
 21
1.4917020703
  0
LINE
  5
46A
100
AcDbEntity
  8
0
100
AcDbLine
 62
253
  6
CONTINUOUS
 10
-25.0690175214
 20
1.8966740413
 11
-22.0432117654
 21
1.8966740413
  0
LINE
  5
46B
100
AcDbEntity
  8
0
100
AcDbLine
 62
7
  6
CONTINUOUS
 10
-13.3871235214
 20
1.966914
 11
-13.7117245214
 21
1.966914
  0
LINE
  5
46C
100
AcDbEntity
  8
0
100
AcDbLine
 62
253
  6
CONTINUOUS
 10
-24.868620696
 20
2.5005305638
 11
-21.3762327361
 21
2.5005305638
  0
LWPOLYLINE
  5
46D
100
AcDbEntity
  8
RACCORDO
100
AcDbPolyline
 62
7
  6
CONTINUOUS
 90
10
 70
0
 10
-14.3305020712
 20
6.0696088605
 10
-14.3089820958
 20
6.0628255491
 10
-14.2874872216
 20
6.0562429689
 10
-14.2660194103
 20
6.0498596256
 10
-14.2445820474
 20
6.0436744878
 10
-14.2231755883
 20
6.0376855364
 10
-14.2017975239
 20
6.0318898841
 10
-14.1804482047
 20
6.026285655
 10
-14.159130875
 20
6.0208718661
 10
-14.1378472946
 20
6.0156470596
  0
LINE
  5
46E
100
AcDbEntity
  8
DRAFT
100
AcDbLine
 62
7
  6
CONTINUOUS
 10
-20.9974572056
 20
9.320315419
 11
-21.0410915445
 21
9.338389354
  0
LINE
  5
46F
100
AcDbEntity
  8
RACCORDO
100
AcDbLine
 62
7
  6
CONTINUOUS
 10
-19.4625116567
 20
10.8058404988
 11
-19.4974572056
 21
10.820315419
  0
LWPOLYLINE
  5
470
100
AcDbEntity
  8
RACCORDO
100
AcDbPolyline
 62
7
  6
CONTINUOUS
 90
3
 70
0
 10
-19.1099784606
 20
10.6598164677
 10
-19.3251764017
 20
10.7490082027
 10
-19.389033678
 20
10.7753234104
  0
LWPOLYLINE
  5
471
100
AcDbEntity
  8
RACCORDO
100
AcDbPolyline
 62
7
  6
CONTINUOUS
 90
6
 70
0
 10
-19.389033678
 20
10.7753234104
 10
-19.414325649
 20
10.7859079444
 10
-19.4346521312
 20
10.7943007054
 10
-19.4496548202
 20
10.8003390762
 10
-19.4590238685
 20
10.8041856739
 10
-19.4625116567
 20
10.8058404988
  0
LWPOLYLINE
  5
472
100
AcDbEntity
  8
RACCORDO
100
AcDbPolyline
 62
7
  6
CONTINUOUS
 90
3
 70
0
 10
-18.9625306952
 20
10.5987416036
 10
-19.0120234342
 20
10.6195951596
 10
-19.1099784606
 20
10.6598164677
  0
LWPOLYLINE
  5
473
100
AcDbEntity
  8
RACCORDO
100
AcDbPolyline
 62
7
  6
CONTINUOUS
 90
10
 70
0
 10
9.5698622795
 20
-6.0209154173
 10
9.5678974332
 20
-6.0193509069
 10
9.5658790919
 20
-6.0180230458
 10
9.5638058947
 20
-6.0169338233
 10
9.5616744771
 20
-6.0160811183
 10
9.559486215
 20
-6.0154712604
 10
9.5572471936
 20
-6.0151191629
 10
9.5549592671
 20
-6.0150315057
 10
9.5526200974
 20
-6.0152066041
 10
9.5502298752
 20
-6.0156470596
  0
LWPOLYLINE
  5
474
100
AcDbEntity
  8
RACCORDO
100
AcDbPolyline
 62
7
  6
CONTINUOUS
 90
11
 70
0
 10
9.5992796047
 20
-6.0461134672
 10
9.6198173518
 20
-6.0630511001
 10
9.6433002925
 20
-6.0821493092
 10
9.6691467965
 20
-6.1028027776
 10
9.6969193594
 20
-6.1243797178
 10
9.7261820693
 20
-6.1463480174
 10
9.7565101212
 20
-6.1683126479
 10
9.7875958623
 20
-6.1899236514
 10
9.8191690447
 20
-6.2108745348
 10
9.8509878867
 20
-6.2309109063
 10
9.882873261
 20
-6.2498457185
  0
LWPOLYLINE
  5
475
100
AcDbEntity
  8
RACCORDO
100
AcDbPolyline
 62
7
  6
CONTINUOUS
 90
3
 70
0
 10
9.5698622795
 20
-6.0209154173
 10
9.5823866494
 20
-6.0318852349
 10
9.5992796047
 20
-6.0461134672
  0
LINE
  5
476
100
AcDbEntity
  8
0
100
AcDbLine
 62
7
  6
CONTINUOUS
 10
8.7364166927
 20
-7.83056048
 11
9.5679142823
 21
-8.6620580695
  0
LINE
  5
477
100
AcDbEntity
  8
0
100
AcDbLine
 62
7
  6
CONTINUOUS
 10
10.7109529784
 20
-9.8050967657
 11
10.9821278446
 21
-10.0762716319
  0
LINE
  5
478
100
AcDbEntity
  8
0
100
AcDbLine
 62
7
  6
CONTINUOUS
 10
-9.3997042627
 20
10.3055604755
 11
-10.231075591
 21
11.1369318037
  0
LINE
  5
479
100
AcDbEntity
  8
0
100
AcDbLine
 62
7
  6
CONTINUOUS
 10
-11.3741139697
 20
12.2799701824
 11
-11.6452891533
 21
12.5511453661
  0
LINE
  5
47A
100
AcDbEntity
  8
DRAFT
100
AcDbLine
 62
7
  6
CONTINUOUS
 10
-4.39290396
 20
5.7238864386
 11
-4.3190175214
 21
5.65
  0
LINE
  5
47B
100
AcDbEntity
  8
RACCORDO
100
AcDbLine
 62
253
  6
CONTINUOUS
 10
-8.5029916339
 20
10.1159546278
 11
-8.2908676769
 21
9.9038306708
  0
LINE
  5
47C
100
AcDbEntity
  8
RACCORDO
100
AcDbLine
 62
253
  6
CONTINUOUS
 10
12.0031050205
 20
-10.3901420266
 11
12.2152289775
 21
-10.6022659836
  0
LINE
  5
47D
100
AcDbEntity
  8
RACCORDO
100
AcDbLine
 62
253
  6
CONTINUOUS
 10
8.5469371064
 20
-6.9339741124
 11
8.3348131493
 21
-6.7218501554
  0
LINE
  5
47E
100
AcDbEntity
  8
RACCORDO
100
AcDbLine
 62
253
  6
CONTINUOUS
 10
-11.9591595481
 20
13.572122542
 11
-12.1712835051
 21
13.784246499
  0
LINE
  5
47F
100
AcDbEntity
  8
DRAFT
100
AcDbLine
 62
253
  6
CONTINUOUS
 10
13.5865840538
 20
-11.6202022916
 11
14.5812163724
 21
-12.6148346102
  0
LINE
  5
480
100
AcDbEntity
  8
DRAFT
100
AcDbLine
 62
253
  6
CONTINUOUS
 10
-13.189219813
 20
15.1556015752
 11
-14.1838521317
 21
16.1502338939
  0
LINE
  5
481
100
AcDbEntity
  8
DRAFT
100
AcDbLine
 62
7
  6
CONTINUOUS
 10
-13.1632096633
 20
15.1556015752
 11
-13.1526309692
 21
15.1450228811
  0
LINE
  5
482
100
AcDbEntity
  8
DRAFT
100
AcDbLine
 62
7
  6
CONTINUOUS
 10
13.5865840538
 20
-11.5941921419
 11
13.5760053596
 21
-11.5836134478
  0
LINE
  5
483
100
AcDbEntity
  8
RACCORDO
100
AcDbLine
 62
7
  6
CONTINUOUS
 10
-13.7615198445
 20
15.7997524542
 11
-13.1297106203
 21
15.16794323
  0
LINE
  5
484
100
AcDbEntity
  8
RACCORDO
100
AcDbLine
 62
7
  6
CONTINUOUS
 10
14.2307349328
 20
-12.1925023231
 11
13.5989257086
 21
-11.5606930989
  0
LINE
  5
485
100
AcDbEntity
  8
0
100
AcDbLine
 62
253
  6
CONTINUOUS
 10
-10.2817390176
 20
13.5917582863
 11
-9.3235828778
 21
12.6336021465
  0
LINE
  5
486
100
AcDbEntity
  8
0
100
AcDbLine
 62
253
  6
CONTINUOUS
 10
12.02290449
 20
-8.7128852213
 11
11.0645846251
 21
-7.7545653564
  0
LINE
  5
487
100
AcDbEntity
  8
0
100
AcDbLine
 62
7
  6
CONTINUOUS
 10
-9.9827104585
 20
13.5755724397
 11
-9.1821615216
 21
12.7750235028
  0
LINE
  5
488
100
AcDbEntity
  8
0
100
AcDbLine
 62
7
  6
CONTINUOUS
 10
12.0067814439
 20
-8.4139194627
 11
11.2060059814
 21
-7.6131440001
  0
LINE
  5
489
100
AcDbEntity
  8
RACCORDO
100
AcDbLine
 62
7
  6
CONTINUOUS
 10
11.2060059814
 20
-7.6131440001
 11
10.9114171665
 21
-7.3185551853
  0
LINE
  5
48A
100
AcDbEntity
  8
RACCORDO
100
AcDbLine
 62
7
  6
CONTINUOUS
 10
-8.8875727067
 20
12.4804346879
 11
-9.1821615216
 21
12.7750235028
  0
LINE
  5
48B
100
AcDbEntity
  8
RACCORDO
100
AcDbLine
 62
7
  6
CONTINUOUS
 10
8.2693718326
 20
-18.9720740231
 11
8.2368229773
 21
-18.8934941353
  0
LWPOLYLINE
  5
48C
100
AcDbEntity
  8
RACCORDO
100
AcDbPolyline
 62
7
  6
CONTINUOUS
 90
3
 70
0
 10
8.0907989463
 20
-18.5409609391
 10
8.1798987891
 20
-18.7561969432
 10
8.2064450404
 20
-18.8199585182
  0
LWPOLYLINE
  5
48D
100
AcDbEntity
  8
RACCORDO
100
AcDbPolyline
 62
7
  6
CONTINUOUS
 90
6
 70
0
 10
8.2064450404
 20
-18.8199585182
 10
8.2168447689
 20
-18.8453270381
 10
8.225283184
 20
-18.8656346097
 10
8.2316219143
 20
-18.8805128858
 10
8.2355268765
 20
-18.8898577587
 10
8.2368229773
 20
-18.8934941353
  0
LWPOLYLINE
  5
48E
100
AcDbEntity
  8
RACCORDO
100
AcDbPolyline
 62
7
  6
CONTINUOUS
 90
4
 70
0
 10
8.0297240821
 20
-18.3935131738
 10
8.0499750427
 20
-18.4432555161
 10
8.0704522879
 20
-18.4925237284
 10
8.0907989463
 20
-18.5409609391
  0
LINE
  5
48F
100
AcDbEntity
  8
0
100
AcDbLine
 62
7
  6
CONTINUOUS
 10
-3.8251375214
 20
12.438256
 11
-4.1873365214
 21
13.437983
  0
LWPOLYLINE
  5
490
100
AcDbEntity
  8
0
100
AcDbPolyline
 62
7
  6
CONTINUOUS
 90
38
 70
0
 10
1.5960939723
 20
-10.201195
 10
1.5918633125
 20
-10.1662765401
 10
1.5854145425
 20
-10.1333689641
 10
1.5767476623
 20
-10.1024722719
 10
1.5656404532
 20
-10.0734700872
 10
1.5523151339
 20
-10.0464787864
 10
1.5374383602
 20
-10.021847499
 10
1.5213515628
 20
-9.9995522072
 10
1.503713311
 20
-9.9796169288
 10
1.4841659681
 20
-9.9624628467
 10
1.4625361043
 20
-9.948492234
 10
1.4389971494
 20
-9.9373028176
 10
1.4137117563
 20
-9.928108961
 10
1.3866574905
 20
-9.9202770615
 10
1.3578567865
 20
-9.9144407218
 10
1.3275396004
 20
-9.9117151137
 10
1.2952483053
 20
-9.9120255362
 10
1.261440528
 20
-9.9154466903
 10
1.2277191048
 20
-9.9233178511
 10
1.1938338533
 20
-9.9361576379
 10
1.1600349557
 20
-9.9534474314
 10
1.1286757947
 20
-9.9749706483
 10
1.100266415
 20
-10.0008889353
 10
1.0742967718
 20
-10.0310406457
 10
1.0515901136
 20
-10.0647242563
 10
1.0327372004
 20
-10.1019876464
 10
1.0171472721
 20
-10.1427829366
 10
1.0038712965
 20
-10.1862649653
 10
0.9926539645
 20
-10.2325783787
 10
0.9837505852
 20
-10.2815785307
 10
0.9769780543
 20
-10.331986321
 10
0.9725372818
 20
-10.3842895461
 10
0.9702273577
 20
-10.4380004095
 10
0.9692624481
 20
-10.4903764225
 10
0.9693525492
 20
-10.5405965943
 10
0.9707876647
 20
-10.5894819158
 10
0.9736519722
 20
-10.6367528701
 10
0.9778533786
 20
-10.6824018393
  0
LWPOLYLINE
  5
491
100
AcDbEntity
  8
IMPORT_IGES
100
AcDbPolyline
 62
7
  6
CONTINUOUS
 90
30
 70
0
 10
3.7128224786
 20
10.4296303151
 10
3.7149104345
 20
10.3742974975
 10
3.7219831428
 20
10.3222489981
 10
3.7340406034
 20
10.2734848166
 10
3.7509270709
 20
10.2281821474
 10
3.7727982908
 20
10.1861637963
 10
3.8001214992
 20
10.1468981808
 10
3.8331104748
 20
10.1098589412
 10
3.8715514389
 20
10.0755724372
 10
3.9152702922
 20
10.0450861656
 10
3.9648324258
 20
10.0181961653
 10
4.0196724485
 20
9.9951063974
 10
4.077920087
 20
9.9774762419
 10
4.1406817759
 20
9.9658990618
 10
4.2068510805
 20
9.9597814941
 10
4.271238424
 20
9.9590028299
 10
4.332915321
 20
9.9636094534
 10
4.3928102568
 20
9.9735549805
 10
4.4485191105
 20
9.9885795502
 10
4.4991493494
 20
10.0086432703
 10
4.5455935063
 20
10.033786033
 10
4.5881250587
 20
10.0638676543
 10
4.6272099999
 20
10.0993024203
 10
4.6623823367
 20
10.1396760448
 10
4.6925175665
 20
10.1836054855
 10
4.7174912226
 20
10.2315391496
 10
4.7374277717
 20
10.2830286299
 10
4.7515761108
 20
10.3353456632
 10
4.7594132271
 20
10.3887688432
 10
4.7614621334
 20
10.443019576
  0
LINE
  5
492
100
AcDbEntity
  8
ASSI
100
AcDbLine
 62
7
  6
CONTINUOUS
 10
2.8461134786
 20
16.851903
 11
2.8461184786
 21
15.500005
  0
LINE
  5
493
100
AcDbEntity
  8
IMPORT_IGES
100
AcDbLine
 62
7
  6
CONTINUOUS
 10
2.9912824786
 20
12.966725
 11
2.9912824786
 21
11.9
  0
LINE
  5
494
100
AcDbEntity
  8
IMPORT_IGES
100
AcDbLine
 62
7
  6
CONTINUOUS
 10
3.1938524786
 20
11.9
 11
3.1938524786
 21
13.39988
  0
LINE
  5
495
100
AcDbEntity
  8
ASSI
100
AcDbLine
 62
7
  6
CONTINUOUS
 10
3.2561344786
 20
15.500005
 11
3.2561344786
 21
17.550097
  0
LINE
  5
496
100
AcDbEntity
  8
IMPORT_IGES
100
AcDbLine
 62
7
  6
CONTINUOUS
 10
3.5711224786
 20
11.3334447098
 11
3.5711224786
 21
11.49984
  0
LINE
  5
497
100
AcDbEntity
  8
IMPORT_IGES
100
AcDbLine
 62
7
  6
CONTINUOUS
 10
4.7303674786
 20
11.9
 11
4.7303674786
 21
12.078865
  0
LINE
  5
498
100
AcDbEntity
  8
IMPORT_IGES
100
AcDbLine
 62
7
  6
CONTINUOUS
 10
4.9096424786
 20
10.562985
 11
4.9096424786
 21
10.37278
  0
LWPOLYLINE
  5
499
100
AcDbEntity
  8
IMPORT_IGES
100
AcDbPolyline
 62
7
  6
CONTINUOUS
 90
28
 70
0
 10
3.9265524786
 20
12.871905
 10
3.9278063955
 20
12.9187811451
 10
3.9323740006
 20
12.9631120108
 10
3.9402552938
 20
13.004897597
 10
3.9514315188
 20
13.0444959808
 10
3.9659214319
 20
13.0815490852
 10
3.9837813028
 20
13.1149826787
 10
4.0052686544
 20
13.144625502
 10
4.0301259638
 20
13.1706488145
 10
4.0576369326
 20
13.1924921636
 10
4.0878174993
 20
13.2097985619
 10
4.1206517255
 20
13.2229249969
 10
4.1553754968
 20
13.232381978
 10
4.1925917482
 20
13.2383826248
 10
4.2316975449
 20
13.2407138177
 10
4.2701199681
 20
13.2392467076
 10
4.3077417584
 20
13.233958688
 10
4.3446801752
 20
13.2248723655
 10
4.3787140788
 20
13.2119267107
 10
4.409275832
 20
13.1949066047
 10
4.436933072
 20
13.1740271665
 10
4.4611675694
 20
13.1498727231
 10
4.4820324709
 20
13.122324443
 10
4.4994746298
 20
13.0915011578
 10
4.5128163771
 20
13.0583436884
 10
4.5218975419
 20
13.0221303946
 10
4.526878295
 20
12.9835829167
 10
4.5275614799
 20
12.9458069969
  0
LWPOLYLINE
  5
49A
100
AcDbEntity
  8
IMPORT_IGES
100
AcDbPolyline
 62
7
  6
CONTINUOUS
 90
7
 70
0
 10
4.5275614799
 20
12.9458069969
 10
4.5238536552
 20
12.909441469
 10
4.5158482623
 20
12.8738474991
 10
4.5036284677
 20
12.8402143276
 10
4.4872219936
 20
12.808938368
 10
4.4666011179
 20
12.7796232068
 10
4.4417658405
 20
12.7522688441
  0
LWPOLYLINE
  5
49B
100
AcDbEntity
  8
IMPORT_IGES
100
AcDbPolyline
 62
7
  6
CONTINUOUS
 90
16
 70
0
 10
5.7328802196
 20
12.5892296366
 10
5.7285875822
 20
12.5508733736
 10
5.7237886801
 20
12.5134649505
 10
5.7184835135
 20
12.4770043674
 10
5.7127607969
 20
12.4414196572
 10
5.7065318156
 20
12.406782787
 10
5.6995304262
 20
12.3733096579
 10
5.6917008623
 20
12.3410444846
 10
5.6830988902
 20
12.3099430524
 10
5.6736256647
 20
12.2800886192
 10
5.6633099156
 20
12.2514252586
 10
5.652122913
 20
12.2240088969
 10
5.6398796223
 20
12.198090571
 10
5.6265183652
 20
12.1737539599
 10
5.6121008199
 20
12.1509153844
 10
5.5966269864
 20
12.1295748448
  0
LWPOLYLINE
  5
49C
100
AcDbEntity
  8
RACCORDO
100
AcDbPolyline
 62
7
  6
CONTINUOUS
 90
3
 70
0
 10
9.4854657304
 20
18.8669333275
 10
9.4916817123
 20
18.8901906442
 10
9.4926715364
 20
18.8934941353
  0
LINE
  5
49D
100
AcDbEntity
  8
RACCORDO
100
AcDbLine
 62
7
  6
CONTINUOUS
 10
9.4926715364
 20
18.8934941353
 11
9.521518985
 21
19.0
  0
LINE
  5
49E
100
AcDbEntity
  8
RACCORDO
100
AcDbLine
 62
7
  6
CONTINUOUS
 10
9.4233203824
 20
18.6384424646
 11
9.4854657304
 21
18.8669333275
  0
LINE
  5
49F
100
AcDbEntity
  8
RACCORDO
100
AcDbLine
 62
7
  6
CONTINUOUS
 10
9.4106354143
 20
18.5923217471
 11
9.4233203824
 21
18.6384424646
  0
LWPOLYLINE
  5
4A0
100
AcDbEntity
  8
RACCORDO
100
AcDbPolyline
 62
7
  6
CONTINUOUS
 90
3
 70
0
 10
9.3562320886
 20
18.3935131738
 10
9.3704093595
 20
18.4443048051
 10
9.4106354143
 20
18.5923217471
  0
LINE
  5
4A1
100
AcDbEntity
  8
RACCORDO
100
AcDbLine
 62
253
  6
CONTINUOUS
 10
10.592022665
 20
13.5065308838
 11
10.5744766139
 21
13.4727871837
  0
LINE
  5
4A2
100
AcDbEntity
  8
RACCORDO
100
AcDbLine
 62
253
  6
CONTINUOUS
 10
10.6095208022
 20
13.5398151055
 11
10.592022665
 21
13.5065308838
  0
LINE
  5
4A3
100
AcDbEntity
  8
RACCORDO
100
AcDbLine
 62
253
  6
CONTINUOUS
 10
10.6356781634
 20
13.5888988741
 11
10.6095208022
 21
13.5398151055
  0
LINE
  5
4A4
100
AcDbEntity
  8
RACCORDO
100
AcDbLine
 62
253
  6
CONTINUOUS
 10
10.6530565016
 20
13.6210791686
 11
10.6356781634
 21
13.5888988741
  0
LINE
  5
4A5
100
AcDbEntity
  8
0
100
AcDbLine
 62
7
  6
CONTINUOUS
 10
-15.4001663271
 20
-10.9786075247
 11
-15.509172836
 21
-11.0350007207
  0
LWPOLYLINE
  5
4A6
100
AcDbEntity
  8
0
100
AcDbPolyline
 62
7
  6
CONTINUOUS
 90
4
 70
0
 10
-15.509172836
 20
-11.0350007207
 10
-15.6184309987
 20
-11.0906607767
 10
-15.6549660465
 20
-11.1090457991
 10
-15.6917201148
 20
-11.1272972341
  0
LINE
  5
4A7
100
AcDbEntity
  8
0
100
AcDbLine
 62
7
  6
CONTINUOUS
 10
-15.7986128733
 20
-11.0204046481
 11
-15.7568835272
 21
-10.9999464956
  0
LINE
  5
4A8
100
AcDbEntity
  8
TRASH
100
AcDbLine
 62
7
  6
CONTINUOUS
 10
-15.1969112344
 20
-10.7388223726
 11
-15.1740202513
 21
-10.7281482181
  0
LINE
  5
4A9
100
AcDbEntity
  8
0
100
AcDbLine
 62
7
  6
CONTINUOUS
 10
-15.7568835272
 20
-10.9999464956
 11
-15.7992907392
 21
-11.019717435
  0
LINE
  5
4AA
100
AcDbEntity
  8
0
100
AcDbLine
 62
7
  6
CONTINUOUS
 10
-15.1969147079
 20
-10.7388260178
 11
-15.7190175214
 21
-10.982289287
  0
LINE
  5
4AB
100
AcDbEntity
  8
0
100
AcDbLine
 62
253
  6
CONTINUOUS
 10
-20.7966308853
 20
2.7994694362
 11
-24.868620696
 21
2.7994694362
  0
LINE
  5
4AC
100
AcDbEntity
  8
0
100
AcDbLine
 62
253
  6
CONTINUOUS
 10
-19.5469097664
 20
3.4033258907
 11
-25.0690175214
 21
3.4033259151
  0
LINE
  5
4AD
100
AcDbEntity
  8
0
100
AcDbLine
 62
7
  6
CONTINUOUS
 10
-25.0688110419
 20
3.5
 11
-19.5469097682
 21
3.5
  0
LINE
  5
4AE
100
AcDbEntity
  8
0
100
AcDbLine
 62
7
  6
CONTINUOUS
 10
16.4106200742
 20
3.5
 11
19.4307495643
 21
3.5
  0
LINE
  5
4AF
100
AcDbEntity
  8
DRAFT
100
AcDbLine
 62
7
  6
CONTINUOUS
 10
-21.0410915445
 20
10.1789179246
 11
-21.0690175214
 21
10.1857743937
  0
LWPOLYLINE
  5
4B0
100
AcDbEntity
  8
0
100
AcDbPolyline
 62
7
  6
CONTINUOUS
 90
19
 70
0
 10
-9.1821615216
 20
12.7750235028
 10
-9.18664981
 20
12.7783712948
 10
-9.1918000854
 20
12.7801456561
 10
-9.1975720131
 20
12.7803869213
 10
-9.2039156819
 20
12.7791513773
 10
-9.2107761007
 20
12.7764876395
 10
-9.2181060469
 20
12.772423804
 10
-9.2258446979
 20
12.7670149418
 10
-9.2339357407
 20
12.7603231175
 10
-9.2423530276
 20
12.7523726071
 10
-9.2510362554
 20
12.7432224464
 10
-9.2599206041
 20
12.7329387229
 10
-9.2689855822
 20
12.7215438585
 10
-9.278163888
 20
12.7090994363
 10
-9.2873814825
 20
12.6956852138
 10
-9.2966121172
 20
12.6813465265
 10
-9.3057917434
 20
12.6661537852
 10
-9.3148138082
 20
12.6502071806
 10
-9.3235828778
 20
12.6336021465
  0
LWPOLYLINE
  5
4B1
100
AcDbEntity
  8
0
100
AcDbPolyline
 62
7
  6
CONTINUOUS
 90
19
 70
0
 10
11.2060059814
 20
-7.6131440001
 10
11.2093537299
 20
-7.6176322161
 10
11.2111280954
 20
-7.6227823903
 10
11.2113694258
 20
-7.628554175
 10
11.2101340623
 20
-7.6348975912
 10
11.2074706105
 20
-7.6417576709
 10
11.203406978
 20
-7.6490874199
 10
11.1979979147
 20
-7.6568263695
 10
11.1913055806
 20
-7.6649180784
 10
11.1833547749
 20
-7.673335817
 10
11.1742050777
 20
-7.6820187377
 10
11.1639222805
 20
-7.6909023163
 10
11.1525280855
 20
-7.6999667226
 10
11.1400836039
 20
-7.7091450934
 10
11.1266689203
 20
-7.718363096
 10
11.1123297756
 20
-7.7275941159
 10
11.0971367418
 20
-7.7367739568
 10
11.0811898781
 20
-7.7457961838
 10
11.0645846251
 20
-7.7545653564
  0
LINE
  5
4B2
100
AcDbEntity
  8
0
100
AcDbLine
 62
7
  6
CONTINUOUS
 10
-2.9629135214
 20
10.562553
 11
-2.5853465214
 21
9.96482
  0
LINE
  5
4B3
100
AcDbEntity
  8
0
100
AcDbLine
 62
7
  6
CONTINUOUS
 10
-3.9567365214
 20
11.812539
 11
-3.4455485214
 21
11.000136
  0
LINE
  5
4B4
100
AcDbEntity
  8
0
100
AcDbLine
 62
7
  6
CONTINUOUS
 10
-3.4245995214
 20
11.188071
 11
-3.9275375214
 21
11.999864
  0
LINE
  5
4B5
100
AcDbEntity
  8
0
100
AcDbLine
 62
7
  6
CONTINUOUS
 10
-2.5185365214
 20
10.082102
 11
-2.8055125214
 21
10.562553
  0
LINE
  5
4B6
100
AcDbEntity
  8
ASSI
100
AcDbLine
 62
7
  6
CONTINUOUS
 10
-1.5690175214
 20
17.550097
 11
-0.9108035214
 21
15.5
  0
LINE
  5
4B7
100
AcDbEntity
  8
ASSI
100
AcDbLine
 62
7
  6
CONTINUOUS
 10
-0.7057825214
 20
16.138498
 11
-1.1589965214
 21
17.550097
  0
LINE
  5
4B8
100
AcDbEntity
  8
DRAFT
100
AcDbLine
 62
7
  6
CONTINUOUS
 10
9.513962409
 20
-18.9720740231
 11
9.521518985
 21
-19.0
  0
LWPOLYLINE
  5
4B9
100
AcDbEntity
  8
IMPORT_IGES
100
AcDbPolyline
 62
7
  6
CONTINUOUS
 90
11
 70
0
 10
4.7614621334
 20
10.443019576
 10
4.7585407654
 20
10.4945338177
 10
4.7509013504
 20
10.5422273652
 10
4.7382916612
 20
10.5871844214
 10
4.7207729509
 20
10.6290935507
 10
4.6984154181
 20
10.6678617716
 10
4.6711488642
 20
10.7035820656
 10
4.6388239473
 20
10.7362219412
 10
4.6013908866
 20
10.7657705682
 10
4.5588994628
 20
10.7922387768
 10
4.5113496759
 20
10.8156265672
  0
LWPOLYLINE
  5
4BA
100
AcDbEntity
  8
IMPORT_IGES
100
AcDbPolyline
 62
7
  6
CONTINUOUS
 90
16
 70
0
 10
4.9221624786
 20
12.264195
 10
4.9248255394
 20
12.2157997686
 10
4.931724362
 20
12.1701082295
 10
4.9428589464
 20
12.1271203829
 10
4.9583770963
 20
12.0867275646
 10
4.978131008
 20
12.0490384387
 10
5.0016772706
 20
12.0143789976
 10
5.0289131334
 20
11.982682714
 10
5.0599413471
 20
11.9540161152
 10
5.0946267528
 20
11.9289047757
 10
5.1331504578
 20
11.9073347511
 10
5.175331355
 20
11.8893199858
 10
5.2204909639
 20
11.8754278873
 10
5.2684031246
 20
11.8658475914
 10
5.3192939972
 20
11.8603899623
 10
5.3731635816
 20
11.859055
  0
LWPOLYLINE
  5
4BB
100
AcDbEntity
  8
IMPORT_IGES
100
AcDbPolyline
 62
7
  6
CONTINUOUS
 90
16
 70
0
 10
6.1631424786
 20
10.36842
 10
6.1658378281
 20
10.3194609353
 10
6.1728168766
 20
10.2732387334
 10
6.1840796242
 20
10.2297533943
 10
6.1997755773
 20
10.1888958745
 10
6.2197552296
 20
10.1507752176
 10
6.2435700611
 20
10.115718554
 10
6.2711153657
 20
10.0836580344
 10
6.3024958497
 20
10.0546615081
 10
6.3375771117
 20
10.0292596544
 10
6.3765416334
 20
10.0074374412
 10
6.4192069332
 20
9.9892099006
 10
6.4648911656
 20
9.9751528087
 10
6.5133670488
 20
9.9654580905
 10
6.5648618645
 20
9.959933821
 10
6.6193756129
 20
9.95858
  0
LWPOLYLINE
  5
4BC
100
AcDbEntity
  8
IMPORT_IGES
100
AcDbPolyline
 62
7
  6
CONTINUOUS
 90
16
 70
0
 10
6.1203424786
 20
12.264195
 10
6.1230055394
 20
12.2157997686
 10
6.129904362
 20
12.1701082295
 10
6.1410389464
 20
12.1271203829
 10
6.1565570963
 20
12.0867275646
 10
6.176311008
 20
12.0490384387
 10
6.1998572706
 20
12.0143789976
 10
6.2270931334
 20
11.982682714
 10
6.2581213471
 20
11.9540161152
 10
6.2928067528
 20
11.9289047757
 10
6.3313304578
 20
11.9073347511
 10
6.373511355
 20
11.8893199858
 10
6.4186709639
 20
11.8754278873
 10
6.4665831246
 20
11.8658475914
 10
6.5174739972
 20
11.8603899623
 10
6.5713435816
 20
11.859055
  0
LINE
  5
4BD
100
AcDbEntity
  8
ASSI
100
AcDbLine
 62
7
  6
CONTINUOUS
 10
5.5292814786
 20
17.550103
 11
5.5292814786
 21
15.50001
  0
LINE
  5
4BE
100
AcDbEntity
  8
IMPORT_IGES
100
AcDbLine
 62
7
  6
CONTINUOUS
 10
5.5767224786
 20
11.230542
 11
5.5767224786
 21
10.54282
  0
LINE
  5
4BF
100
AcDbEntity
  8
IMPORT_IGES
100
AcDbLine
 62
7
  6
CONTINUOUS
 10
5.5789024786
 20
10.37278
 11
5.5789024786
 21
10.0
  0
LINE
  5
4C0
100
AcDbEntity
  8
IMPORT_IGES
100
AcDbLine
 62
7
  6
CONTINUOUS
 10
5.7707424786
 20
10.0
 11
5.7707424786
 21
10.37278
  0
LINE
  5
4C1
100
AcDbEntity
  8
IMPORT_IGES
100
AcDbLine
 62
7
  6
CONTINUOUS
 10
5.7707424786
 20
10.54282
 11
5.7707424786
 21
11.52818
  0
LINE
  5
4C2
100
AcDbEntity
  8
ASSI
100
AcDbLine
 62
7
  6
CONTINUOUS
 10
5.9336494786
 20
16.671959
 11
5.9336444786
 21
17.170837
  0
LINE
  5
4C3
100
AcDbEntity
  8
IMPORT_IGES
100
AcDbLine
 62
7
  6
CONTINUOUS
 10
5.9952824786
 20
10.37278
 11
5.9952824786
 21
10.54282
  0
LINE
  5
4C4
100
AcDbEntity
  8
ASSI
100
AcDbLine
 62
7
  6
CONTINUOUS
 10
5.9393024786
 20
15.50001
 11
5.9393484786
 21
16.292694
  0
LWPOLYLINE
  5
4C5
100
AcDbEntity
  8
IMPORT_IGES
100
AcDbPolyline
 62
7
  6
CONTINUOUS
 90
16
 70
0
 10
6.9310602196
 20
12.5892296366
 10
6.9267675822
 20
12.5508733736
 10
6.9219686801
 20
12.5134649505
 10
6.9166635135
 20
12.4770043674
 10
6.9109407969
 20
12.4414196572
 10
6.9047118156
 20
12.406782787
 10
6.8977104262
 20
12.3733096579
 10
6.8898808623
 20
12.3410444846
 10
6.8812788902
 20
12.3099430524
 10
6.8718056647
 20
12.2800886192
 10
6.8614899156
 20
12.2514252586
 10
6.850302913
 20
12.2240088969
 10
6.8380596223
 20
12.198090571
 10
6.8246983652
 20
12.1737539599
 10
6.8102808199
 20
12.1509153844
 10
6.7948069864
 20
12.1295748448
  0
LWPOLYLINE
  5
4C6
100
AcDbEntity
  8
IMPORT_IGES
100
AcDbPolyline
 62
7
  6
CONTINUOUS
 90
16
 70
0
 10
6.9832652978
 20
10.69722534
 10
6.9789209022
 20
10.6584075666
 10
6.9740642618
 20
10.6205512814
 10
6.9686953766
 20
10.5836564842
 10
6.962903888
 20
10.5476504371
 10
6.9566001546
 20
10.5126058781
 10
6.9495152521
 20
10.4787410215
 10
6.9415926526
 20
10.4461007033
 10
6.932888884
 20
10.4146400875
 10
6.9233046065
 20
10.3844428806
 10
6.9128688612
 20
10.355452559
 10
6.9015526071
 20
10.3277256462
 10
6.8891693803
 20
10.3015154189
 10
6.8756570264
 20
10.2769063025
 10
6.8610776998
 20
10.2538138716
 10
6.8454314007
 20
10.232238126
  0
LWPOLYLINE
  5
4C7
100
AcDbEntity
  8
0
100
AcDbPolyline
 62
7
  6
CONTINUOUS
 90
18
 70
0
 10
2.6030560078
 20
-11.5749568338
 10
2.6094900597
 20
-11.5555402726
 10
2.6174929674
 20
-11.5363403201
 10
2.6270647308
 20
-11.5173569763
 10
2.638325658
 20
-11.4980347011
 10
2.6511554409
 20
-11.4789290347
 10
2.6651931554
 20
-11.4617065974
 10
2.6804657606
 20
-11.4467385584
 10
2.6969462974
 20
-11.4336537486
 10
2.7141929637
 20
-11.4230052807
 10
2.7319919255
 20
-11.4151284697
 10
2.7505570167
 20
-11.4096880007
 10
2.7700879372
 20
-11.4062310411
 10
2.7910034296
 20
-11.4044592314
 10
2.8128847511
 20
-11.4046709311
 10
2.8346753732
 20
-11.407308387
 10
2.8560231196
 20
-11.4125190147
 10
2.8772801664
 20
-11.4201553985
  0
LINE
  5
4C8
100
AcDbEntity
  8
0
100
AcDbLine
 62
7
  6
CONTINUOUS
 10
12.0212542493
 20
10.2369554872
 11
12.0359852017
 21
10.2718517719
  0
LINE
  5
4C9
100
AcDbEntity
  8
0
100
AcDbLine
 62
7
  6
CONTINUOUS
 10
12.0063177764
 20
10.2021810922
 11
12.0212542493
 21
10.2369554872
  0
LINE
  5
4CA
100
AcDbEntity
  8
0
100
AcDbLine
 62
7
  6
CONTINUOUS
 10
11.991175783
 20
10.1675285871
 11
12.0063177764
 21
10.2021810922
  0
LINE
  5
4CB
100
AcDbEntity
  8
0
100
AcDbLine
 62
7
  6
CONTINUOUS
 10
12.0093774976
 20
10.1549273753
 11
12.0588761849
 21
10.2611776175
  0
LINE
  5
4CC
100
AcDbEntity
  8
0
100
AcDbLine
 62
7
  6
CONTINUOUS
 10
12.6612650436
 20
11.0197267822
 11
12.6810358344
 21
11.0621338622
  0
LWPOLYLINE
  5
4CD
100
AcDbEntity
  8
0
100
AcDbPolyline
 62
7
  6
CONTINUOUS
 90
27
 70
0
 10
0.7261828852
 20
-12.4775410237
 10
0.7348020094
 20
-12.459643648
 10
0.7453890797
 20
-12.4437882552
 10
0.7579440963
 20
-12.4299748453
 10
0.7727903524
 20
-12.4179766294
 10
0.7896045547
 20
-12.4080203965
 10
0.8074168231
 20
-12.4007865132
 10
0.8264019803
 20
-12.3963850162
 10
0.8463852035
 20
-12.3947058689
 10
0.8658721444
 20
-12.3960993273
 10
0.8847166179
 20
-12.4007694755
 10
0.9030648089
 20
-12.4085122294
 10
0.9198609241
 20
-12.4190655935
 10
0.9349135119
 20
-12.4326140946
 10
0.9484140237
 20
-12.4489732058
 10
0.9598810207
 20
-12.4673273506
 10
0.9690647593
 20
-12.4876166272
 10
0.976214983
 20
-12.5099009373
 10
0.9815994831
 20
-12.5335444103
 10
0.9853140438
 20
-12.558832194
 10
0.9872628809
 20
-12.5854791405
 10
0.9874264331
 20
-12.6119939357
 10
0.9858145141
 20
-12.6383125612
 10
0.9824173103
 20
-12.6644990354
 10
0.9771858197
 20
-12.6892540998
 10
0.97008697
 20
-12.7124398043
 10
0.9611538335
 20
-12.7341940991
  0
LINE
  5
4CE
100
AcDbEntity
  8
0
100
AcDbLine
 62
7
  6
CONTINUOUS
 10
12.6810358344
 20
11.0621338622
 11
12.6605778304
 21
11.0204046481
  0
LINE
  5
4CF
100
AcDbEntity
  8
0
100
AcDbLine
 62
7
  6
CONTINUOUS
 10
12.553685072
 20
11.1272972341
 11
12.5809824786
 21
11.1818871521
  0
LWPOLYLINE
  5
4D0
100
AcDbEntity
  8
0
100
AcDbPolyline
 62
7
  6
CONTINUOUS
 90
11
 70
0
 10
-0.1628004186
 20
-12.76421
 10
-0.1534173021
 20
-12.7469403643
 10
-0.1424662615
 20
-12.7300375526
 10
-0.1299472969
 20
-12.7135015647
 10
-0.1156075158
 20
-12.6974791431
 10
-0.0996998106
 20
-12.6818235453
 10
-0.082982859
 20
-12.6660945442
 10
-0.0656298704
 20
-12.650218763
 10
-0.0474676352
 20
-12.6342695784
 10
-0.028735202
 20
-12.6180268929
 10
-0.0094862409
 20
-12.601506124
  0
LWPOLYLINE
  5
4D1
100
AcDbEntity
  8
0
100
AcDbPolyline
 62
7
  6
CONTINUOUS
 90
20
 70
0
 10
0.9611538335
 20
-12.7341940991
 10
0.9504366258
 20
-12.7536315762
 10
0.9377895168
 20
-12.770668552
 10
0.9233583367
 20
-12.7853887101
 10
0.9076307912
 20
-12.7971576943
 10
0.8902947947
 20
-12.8057292099
 10
0.8716624328
 20
-12.8113495515
 10
0.8531576677
 20
-12.8141232462
 10
0.8348984865
 20
-12.8139694698
 10
0.8167669021
 20
-12.8109690465
 10
0.7998329154
 20
-12.8054689763
 10
0.7843022614
 20
-12.7975142287
 10
0.7699692051
 20
-12.7870598342
 10
0.7572865426
 20
-12.7743178836
 10
0.7463955056
 20
-12.7590754328
 10
0.7371548624
 20
-12.7415454259
 10
0.7295937132
 20
-12.7225787869
 10
0.7237217582
 20
-12.7024591568
 10
0.7195292972
 20
-12.6809028945
 10
0.7170163303
 20
-12.65791
  0
LWPOLYLINE
  5
4D2
100
AcDbEntity
  8
RACCORDO
100
AcDbPolyline
 62
7
  6
CONTINUOUS
 90
7
 70
0
 10
17.7314724214
 20
7.8003077745
 10
17.7724062918
 20
7.8414963365
 10
17.7897269761
 20
7.8585218235
 10
17.8037133815
 20
7.8727309029
 10
17.8139687379
 20
7.883651032
 10
17.8208898153
 20
7.8907379095
 10
17.8244766139
 20
7.8934941353
  0
LWPOLYLINE
  5
4D3
100
AcDbEntity
  8
RACCORDO
100
AcDbPolyline
 62
7
  6
CONTINUOUS
 90
3
 70
0
 10
17.6565948842
 20
7.7254871691
 10
17.7078592353
 20
7.7769169766
 10
17.7314724214
 20
7.8003077745
  0
LINE
  5
4D4
100
AcDbEntity
  8
RACCORDO
100
AcDbLine
 62
7
  6
CONTINUOUS
 10
17.3553349533
 20
7.4241237126
 11
17.4484102916
 21
7.5174638071
  0
LINE
  5
4D5
100
AcDbEntity
  8
RACCORDO
100
AcDbLine
 62
7
  6
CONTINUOUS
 10
17.8244766139
 20
7.8934941353
 11
17.9030565016
 21
7.9720740231
  0
LINE
  5
4D6
100
AcDbEntity
  8
RACCORDO
100
AcDbLine
 62
7
  6
CONTINUOUS
 10
17.4484102916
 20
7.5174638071
 11
17.6289437191
 21
7.6979997555
  0
LINE
  5
4D7
100
AcDbEntity
  8
RACCORDO
100
AcDbLine
 62
7
  6
CONTINUOUS
 10
17.6289437191
 20
7.6979997555
 11
17.6565948842
 21
7.7254871691
  0
LINE
  5
4D8
100
AcDbEntity
  8
RACCORDO
100
AcDbLine
 62
7
  6
CONTINUOUS
 10
17.3244956522
 20
7.3935131736
 11
17.3553349533
 21
7.4241237126
  0
LINE
  5
4D9
100
AcDbEntity
  8
ASSI
100
AcDbLine
 62
7
  6
CONTINUOUS
 10
17.4257190273
 20
11.1098690294
 11
17.4202198839
 21
11.1083781021
  0
LINE
  5
4DA
100
AcDbEntity
  8
RACCORDO
100
AcDbLine
 62
7
  6
CONTINUOUS
 10
17.4257190273
 20
11.1098690294
 11
17.4202198839
 21
11.1083781021
  0
LINE
  5
4DB
100
AcDbEntity
  8
DRAFT
100
AcDbLine
 62
7
  6
CONTINUOUS
 10
17.9030565016
 20
10.1789179246
 11
17.9309824786
 21
10.1857743937
  0
LINE
  5
4DC
100
AcDbEntity
  8
0
100
AcDbLine
 62
7
  6
CONTINUOUS
 10
14.8529737288
 20
10.2718605073
 11
14.6398577406
 21
10.225292431
  0
LWPOLYLINE
  5
4DD
100
AcDbEntity
  8
0
100
AcDbPolyline
 62
7
  6
CONTINUOUS
 90
3
 70
0
 10
14.6398577406
 20
10.225292431
 10
14.4248917733
 20
10.1791342201
 10
14.3710302265
 20
10.1676955411
  0
LWPOLYLINE
  5
4DE
100
AcDbEntity
  8
RACCORDO
100
AcDbPolyline
 62
7
  6
CONTINUOUS
 90
31
 70
0
 10
8.451336421
 20
5.2296714422
 10
8.5202133355
 20
5.2315846522
 10
8.5882597819
 20
5.2366275412
 10
8.6554757601
 20
5.2447337609
 10
8.7220819255
 20
5.2558456953
 10
8.7878576228
 20
5.2698708413
 10
8.8521408863
 20
5.2866414222
 10
8.9148595438
 20
5.3060148218
 10
8.9760857676
 20
5.3278606448
 10
9.0353741087
 20
5.3519631989
 10
9.092772446
 20
5.3782119701
 10
9.1482329006
 20
5.4063972268
 10
9.2011663871
 20
5.4360712208
 10
9.2512895313
 20
5.4668712101
 10
9.2988857073
 20
5.498718945
 10
9.3442159518
 20
5.5315687809
 10
9.3868993022
 20
5.5648818809
 10
9.4273167211
 20
5.5988407172
 10
9.4668721334
 20
5.6346637018
 10
9.506009372
 20
5.6726211756
 10
9.544284604
 20
5.7124298798
 10
9.5817702548
 20
5.7546645815
 10
9.6187284073
 20
5.7995891669
 10
9.6548969786
 20
5.8469427439
 10
9.6895621453
 20
5.8965264263
 10
9.7227403406
 20
5.9484122665
 10
9.7544151312
 20
6.0023757783
 10
9.7838233936
 20
6.0577036408
 10
9.8107107531
 20
6.1140404866
 10
9.8353315845
 20
6.1714175674
 10
9.8576858875
 20
6.2296545191
  0
LINE
  5
4DF
100
AcDbEntity
  8
RACCORDO
100
AcDbLine
 62
7
  6
CONTINUOUS
 10
-18.5399452955
 20
5.2209108509
 11
16.4018933295
 21
5.2209108509
  0
LINE
  5
4E0
100
AcDbEntity
  8
RACCORDO
100
AcDbLine
 62
253
  6
CONTINUOUS
 10
16.4106539208
 20
5.2296714422
 11
8.451336421
 21
5.2296714422
  0
LINE
  5
4E1
100
AcDbEntity
  8
RACCORDO
100
AcDbLine
 62
7
  6
CONTINUOUS
 10
-18.5690344446
 20
5.25
 11
8.4310078633
 21
5.25
  0
LINE
  5
4E2
100
AcDbEntity
  8
0
100
AcDbLine
 62
7
  6
CONTINUOUS
 10
-4.0690175214
 20
5.5
 11
0.9309824786
 21
5.5
  0
LINE
  5
4E3
100
AcDbEntity
  8
DRAFT
100
AcDbLine
 62
7
  6
CONTINUOUS
 10
1.1809824786
 20
5.65
 11
-4.3190175214
 21
5.65
  0
LINE
  5
4E4
100
AcDbEntity
  8
DRAFT
100
AcDbLine
 62
7
  6
CONTINUOUS
 10
1.2548689172
 20
5.7238864386
 11
-4.39290396
 21
5.7238864386
  0
LINE
  5
4E5
100
AcDbEntity
  8
RACCORDO
100
AcDbLine
 62
253
  6
CONTINUOUS
 10
16.416437904
 20
6.2296545191
 11
9.8576858875
 21
6.2296545191
  0
LINE
  5
4E6
100
AcDbEntity
  8
0
100
AcDbLine
 62
7
  6
CONTINUOUS
 10
8.979971274
 20
6.4
 11
7.4309824786
 21
6.4
  0
LINE
  5
4E7
100
AcDbEntity
  8
0
100
AcDbLine
 62
7
  6
CONTINUOUS
 10
9.1809824786
 20
7.0
 11
7.4309824786
 21
7.0
  0
LINE
  5
4E8
100
AcDbEntity
  8
ASSI
100
AcDbLine
 62
7
  6
CONTINUOUS
 10
-20.5582549268
 20
11.1083781021
 11
-20.5637540701
 21
11.1098690294
  0
LINE
  5
4E9
100
AcDbEntity
  8
RACCORDO
100
AcDbLine
 62
7
  6
CONTINUOUS
 10
-20.5582549268
 20
11.1083781021
 11
-20.5637540701
 21
11.1098690294
  0
LINE
  5
4EA
100
AcDbEntity
  8
RACCORDO
100
AcDbLine
 62
253
  6
CONTINUOUS
 10
15.4019102527
 20
-5.2209108509
 11
15.4309994017
 21
-5.25
  0
LINE
  5
4EB
100
AcDbEntity
  8
ASSI
100
AcDbLine
 62
7
  6
CONTINUOUS
 10
1.6608194786
 20
16.851903
 11
2.0484634786
 21
15.500005
  0
LINE
  5
4EC
100
AcDbEntity
  8
ASSI
100
AcDbLine
 62
7
  6
CONTINUOUS
 10
2.2534684786
 20
16.215004
 11
1.8706364786
 21
17.550097
  0
LINE
  5
4ED
100
AcDbEntity
  8
0
100
AcDbLine
 62
7
  6
CONTINUOUS
 10
7.4309824786
 20
7.0
 11
7.4309824786
 21
6.4
  0
LINE
  5
4EE
100
AcDbEntity
  8
0
100
AcDbLine
 62
7
  6
CONTINUOUS
 10
14.3407107078
 20
10.7630445128
 11
14.3259797554
 21
10.7281482281
  0
LINE
  5
4EF
100
AcDbEntity
  8
0
100
AcDbLine
 62
7
  6
CONTINUOUS
 10
14.3556471808
 20
10.7978189078
 11
14.3407107078
 21
10.7630445128
  0
LINE
  5
4F0
100
AcDbEntity
  8
0
100
AcDbLine
 62
7
  6
CONTINUOUS
 10
14.3707891742
 20
10.8324714129
 11
14.3556471808
 21
10.7978189078
  0
LINE
  5
4F1
100
AcDbEntity
  8
0
100
AcDbLine
 62
7
  6
CONTINUOUS
 10
14.3525874595
 20
10.8450726247
 11
14.3030887723
 21
10.7388223825
  0
LINE
  5
4F2
100
AcDbEntity
  8
0
100
AcDbLine
 62
7
  6
CONTINUOUS
 10
13.7006999135
 20
9.9802732178
 11
13.6809291227
 21
9.9378661378
  0
LINE
  5
4F3
100
AcDbEntity
  8
0
100
AcDbLine
 62
7
  6
CONTINUOUS
 10
13.6809291227
 20
9.9378661378
 11
13.7013871267
 21
9.9795953519
  0
LINE
  5
4F4
100
AcDbEntity
  8
0
100
AcDbLine
 62
7
  6
CONTINUOUS
 10
13.8082798852
 20
9.8727027659
 11
13.7809824786
 21
9.8181128479
  0
LWPOLYLINE
  5
4F5
100
AcDbEntity
  8
0
100
AcDbPolyline
 62
7
  6
CONTINUOUS
 90
10
 70
0
 10
-0.2774277927
 20
-11.8954427962
 10
-0.3006051025
 20
-11.9207763037
 10
-0.3212798493
 20
-11.9497193103
 10
-0.3389705914
 20
-11.9815822533
 10
-0.3533590593
 20
-12.0164249988
 10
-0.3647635226
 20
-12.0541876807
 10
-0.3736573488
 20
-12.0940011379
 10
-0.3801983269
 20
-12.13557565
 10
-0.3842286679
 20
-12.1792009373
 10
-0.3857483717
 20
-12.224877
  0
LINE
  5
4F6
100
AcDbEntity
  8
RACCORDO
100
AcDbLine
 62
7
  6
CONTINUOUS
 10
16.4106539208
 20
5.2296714422
 11
16.4018933295
 21
5.2209108509
  0
LINE
  5
4F7
100
AcDbEntity
  8
DRAFT
100
AcDbLine
 62
7
  6
CONTINUOUS
 10
16.4106200742
 20
3.7540724809
 11
16.4309824786
 21
3.7744348852
  0
LWPOLYLINE
  5
4F8
100
AcDbEntity
  8
0
100
AcDbPolyline
 62
7
  6
CONTINUOUS
 90
11
 70
0
 10
-0.1981609557
 20
-12.5275583189
 10
-0.2279237316
 20
-12.5570198507
 10
-0.2577289073
 20
-12.58910843
 10
-0.2871774106
 20
-12.6236622074
 10
-0.3139442279
 20
-12.6618918286
 10
-0.3378908943
 20
-12.7044632337
 10
-0.3591558748
 20
-12.7507104826
 10
-0.3758295504
 20
-12.7998464011
 10
-0.3872753816
 20
-12.8516085978
 10
-0.394129908
 20
-12.9062594641
 10
-0.3963931295
 20
-12.963799
  0
LWPOLYLINE
  5
4F9
100
AcDbEntity
  8
0
100
AcDbPolyline
 62
7
  6
CONTINUOUS
 90
32
 70
0
 10
0.0730359135
 20
-12.5313047169
 10
0.0944531241
 20
-12.5115699183
 10
0.1160657524
 20
-12.4904413668
 10
0.1376536733
 20
-12.4678644504
 10
0.1580396435
 20
-12.4427868188
 10
0.1773173409
 20
-12.4149322346
 10
0.1953930876
 20
-12.3845769353
 10
0.2108086064
 20
-12.3514972828
 10
0.2233784955
 20
-12.3153896097
 10
0.2332881566
 20
-12.2765575835
 10
0.2396355173
 20
-12.2356885687
 10
0.2422915476
 20
-12.1918579721
 10
0.2413852774
 20
-12.145990387
 10
0.236401724
 20
-12.1015469577
 10
0.2269472597
 20
-12.0589180939
 10
0.2134155121
 20
-12.017713386
 10
0.1964723819
 20
-11.9802227497
 10
0.1761361076
 20
-11.9471933353
 10
0.1523884507
 20
-11.9178779926
 10
0.1258405959
 20
-11.8923251864
 10
0.0965503153
 20
-11.8704521281
 10
0.0644598367
 20
-11.8523416063
 10
0.0300070287
 20
-11.8382904519
 10
-0.0078503406
 20
-11.8283248334
 10
-0.0480700393
 20
-11.8224185823
 10
-0.0870875036
 20
-11.820790024
 10
-0.12413634
 20
-11.8237283809
 10
-0.1599829419
 20
-11.8309444307
 10
-0.1933619264
 20
-11.8417888313
 10
-0.2238631478
 20
-11.8560514193
 10
-0.2518967518
 20
-11.8739423582
 10
-0.2774277927
 20
-11.8954427962
  0
LINE
  5
4FA
100
AcDbEntity
  8
0
100
AcDbLine
 62
7
  6
CONTINUOUS
 10
-0.1386931829
 20
-12.4743346557
 11
-0.1981609557
 21
-12.5275583189
  0
LINE
  5
4FB
100
AcDbEntity
  8
0
100
AcDbLine
 62
7
  6
CONTINUOUS
 10
-0.0094862409
 20
-12.601506124
 11
0.0730359135
 21
-12.5313047169
  0
LWPOLYLINE
  5
4FC
100
AcDbEntity
  8
0
100
AcDbPolyline
 62
7
  6
CONTINUOUS
 90
28
 70
0
 10
-8.1971697502
 20
-16.0170231262
 10
-8.14328854
 20
-15.9850538352
 10
-8.0953093177
 20
-15.9503853471
 10
-8.0532320833
 20
-15.913017662
 10
-8.017249585
 20
-15.8730863478
 10
-7.9871690746
 20
-15.8304558365
 10
-7.9624123074
 20
-15.7847194242
 10
-7.9429697939
 20
-15.735567248
 10
-7.9288510235
 20
-15.6833091708
 10
-7.9195062205
 20
-15.6284680771
 10
-7.9147216739
 20
-15.5696951326
 10
-7.9147110946
 20
-15.5083391717
 10
-7.9195658398
 20
-15.4489695818
 10
-7.929365176
 20
-15.3923922886
 10
-7.9440298366
 20
-15.3378013665
 10
-7.9634133795
 20
-15.2873484261
 10
-7.9873844444
 20
-15.2419199249
 10
-8.0160743915
 20
-15.2006294055
 10
-8.0497308589
 20
-15.162969106
 10
-8.0885178457
 20
-15.1286107927
 10
-8.1322713528
 20
-15.0978826993
 10
-8.1807470207
 20
-15.0712617656
 10
-8.2342592584
 20
-15.0488599121
 10
-8.2924936571
 20
-15.0305652183
 10
-8.354262631
 20
-15.0165188623
 10
-8.4191703183
 20
-15.0067679036
 10
-8.487612581
 20
-15.0012652829
 10
-8.5595894189
 20
-15.000011
  0
LWPOLYLINE
  5
4FD
100
AcDbEntity
  8
RACCORDO
100
AcDbPolyline
 62
7
  6
CONTINUOUS
 90
5
 70
0
 10
-13.2125306951
 20
-17.9474512644
 10
-13.2605321959
 20
-17.9739494128
 10
-13.3085758433
 20
-17.9999071402
 10
-13.3561878498
 20
-18.0253244465
 10
-13.4480782247
 20
-18.0750616704
  0
LWPOLYLINE
  5
4FE
100
AcDbEntity
  8
RACCORDO
100
AcDbPolyline
 62
7
  6
CONTINUOUS
 90
3
 70
0
 10
-13.4480782247
 20
-18.0750616704
 10
-13.5323898824
 20
-18.1202877725
 10
-13.5704002954
 20
-18.1409154732
  0
LWPOLYLINE
  5
4FF
100
AcDbEntity
  8
0
100
AcDbPolyline
 62
7
  6
CONTINUOUS
 90
28
 70
0
 10
-10.179096503
 20
-15.9247099518
 10
-10.1327081002
 20
-15.8998622442
 10
-10.0906513161
 20
-15.8720508468
 10
-10.0529261508
 20
-15.8412757594
 10
-10.0194646979
 20
-15.807577063
 10
-9.9903348637
 20
-15.7709146767
 10
-9.9657403673
 20
-15.7311683575
 10
-9.9457121721
 20
-15.6879881043
 10
-9.9302193148
 20
-15.6417239183
 10
-9.9193726242
 20
-15.5933055596
 10
-9.9131228331
 20
-15.541991957
 10
-9.9115192088
 20
-15.4885241819
 10
-9.9148203821
 20
-15.4360552081
 10
-9.923164633
 20
-15.3850344541
 10
-9.9364136816
 20
-15.3350125015
 10
-9.9544113186
 20
-15.28779407
 10
-9.9771978076
 20
-15.2438036924
 10
-10.004732885
 20
-15.202616836
 10
-10.0367395515
 20
-15.1647646212
 10
-10.0733589179
 20
-15.13013645
 10
-10.1144498734
 20
-15.0988429204
 10
-10.159312085
 20
-15.0717469475
 10
-10.2079223647
 20
-15.049100415
 10
-10.2603039007
 20
-15.0306514391
 10
-10.3158259244
 20
-15.0165072834
 10
-10.3742781797
 20
-15.0067037021
 10
-10.4358709229
 20
-15.001204941
 10
-10.5006041538
 20
-15.000011
  0
LINE
  5
500
100
AcDbEntity
  8
RACCORDO
100
AcDbLine
 62
7
  6
CONTINUOUS
 10
-13.7125116567
 20
-18.2170424504
 11
-13.7910915445
 21
-18.2590510008
  0
LWPOLYLINE
  5
501
100
AcDbEntity
  8
RACCORDO
100
AcDbPolyline
 62
7
  6
CONTINUOUS
 90
7
 70
0
 10
-13.5704002954
 20
-18.1409154732
 10
-13.6356383131
 20
-18.1757461089
 10
-13.6618050193
 20
-18.1899490439
 10
-13.6830290399
 20
-18.2012561273
 10
-13.6988382499
 20
-18.2094140866
 10
-13.7087900442
 20
-18.2146761943
 10
-13.7125116567
 20
-18.2170424504
  0
LWPOLYLINE
  5
502
100
AcDbEntity
  8
RACCORDO
100
AcDbPolyline
 62
7
  6
CONTINUOUS
 90
10
 70
0
 10
9.3575750985
 20
-6.0696088605
 10
9.379095074
 20
-6.0628255491
 10
9.4005899481
 20
-6.0562429689
 10
9.4220577594
 20
-6.0498596256
 10
9.4434951224
 20
-6.0436744878
 10
9.4649015815
 20
-6.0376855364
 10
9.4862796458
 20
-6.0318898841
 10
9.507628965
 20
-6.026285655
 10
9.5289462948
 20
-6.0208718661
 10
9.5502298752
 20
-6.0156470596
  0
LINE
  5
503
100
AcDbEntity
  8
0
100
AcDbLine
 62
7
  6
CONTINUOUS
 10
11.5089912283
 20
10.7281394921
 11
11.7221072155
 21
10.7747075682
  0
LWPOLYLINE
  5
504
100
AcDbEntity
  8
0
100
AcDbPolyline
 62
7
  6
CONTINUOUS
 90
3
 70
0
 10
11.7221072155
 20
10.7747075682
 10
11.9370731826
 20
10.8208657791
 10
11.9909347295
 20
10.8323044581
  0
LWPOLYLINE
  5
505
100
AcDbEntity
  8
RACCORDO
100
AcDbPolyline
 62
7
  6
CONTINUOUS
 90
10
 70
0
 10
-12.688264918
 20
6.0156470596
 10
-12.6906551402
 20
6.0152066041
 10
-12.6929943099
 20
6.0150315057
 10
-12.6952822364
 20
6.0151191629
 10
-12.6975212578
 20
6.0154712604
 10
-12.69970952
 20
6.0160811183
 10
-12.7018409376
 20
6.0169338233
 10
-12.7039141347
 20
6.0180230458
 10
-12.705932476
 20
6.0193509069
 10
-12.7078973223
 20
6.0209154173
  0
LWPOLYLINE
  5
506
100
AcDbEntity
  8
IMPORT_IGES
100
AcDbPolyline
 62
7
  6
CONTINUOUS
 90
38
 70
0
 10
6.6193756129
 20
9.95858
 10
6.676106388
 20
9.9623558281
 10
6.7297012256
 20
9.9710307049
 10
6.7801601257
 20
9.9846046304
 10
6.8275202111
 20
10.0030892558
 10
6.871744359
 20
10.0264729298
 10
6.9127212009
 20
10.0547206996
 10
6.950221457
 20
10.0878679979
 10
6.984474407
 20
10.125879392
 10
7.0160565217
 20
10.1686136302
 10
7.0452081503
 20
10.216368639
 10
7.0716889435
 20
10.268846492
 10
7.0953543241
 20
10.3250121589
 10
7.1162593282
 20
10.3846020699
 10
7.1343489198
 20
10.4478797949
 10
7.1493134136
 20
10.5146010136
 10
7.1611405356
 20
10.5858212303
 10
7.1698425598
 20
10.6604849408
 10
7.1751466233
 20
10.7351813116
 10
7.1770146645
 20
10.8097550249
 10
7.175484745
 20
10.8843613985
 10
7.1703981871
 20
10.9560555532
 10
7.1617901175
 20
11.0241371881
 10
7.1496254096
 20
11.0893066041
 10
7.1336400051
 20
11.1507198245
 10
7.113626045
 20
11.2084966046
 10
7.0897913884
 20
11.2625171891
 10
7.0624955542
 20
11.3115783353
 10
7.0318471552
 20
11.3552851533
 10
6.9977375786
 20
11.394032533
 10
6.9602005049
 20
11.4278019014
 10
6.919225025
 20
11.4565893796
 10
6.8748220481
 20
11.4803988465
 10
6.8270579821
 20
11.4992233662
 10
6.7749303665
 20
11.512997177
 10
6.7194416618
 20
11.5217860405
 10
6.6636656574
 20
11.5257803059
 10
6.6074214102
 20
11.5250026086
  0
LINE
  5
507
100
AcDbEntity
  8
RACCORDO
100
AcDbLine
 62
253
  6
CONTINUOUS
 10
17.3244956523
 20
7.3935131736
 11
16.4309824786
 21
7.3935131734
  0
LINE
  5
508
100
AcDbEntity
  8
RACCORDO
100
AcDbLine
 62
7
  6
CONTINUOUS
 10
17.8244766139
 20
7.8934941353
 11
16.4309824786
 21
7.8934941353
  0
LINE
  5
509
100
AcDbEntity
  8
RACCORDO
100
AcDbLine
 62
7
  6
CONTINUOUS
 10
16.4309824786
 20
7.9720740231
 11
17.9030565016
 21
7.9720740231
  0
LINE
  5
50A
100
AcDbEntity
  8
0
100
AcDbLine
 62
7
  6
CONTINUOUS
 10
-4.9701335214
 20
9.562017
 11
-4.8350565214
 21
9.562017
  0
LINE
  5
50B
100
AcDbEntity
  8
0
100
AcDbLine
 62
7
  6
CONTINUOUS
 10
-4.4575705214
 20
9.562017
 11
-4.3182885214
 21
9.562017
  0
LINE
  5
50C
100
AcDbEntity
  8
0
100
AcDbLine
 62
7
  6
CONTINUOUS
 10
-3.7136795214
 20
9.562017
 11
-3.5660665214
 21
9.562017
  0
LINE
  5
50D
100
AcDbEntity
  8
0
100
AcDbLine
 62
7
  6
CONTINUOUS
 10
-3.4420705214
 20
9.562017
 11
-2.7999315214
 21
9.562017
  0
LINE
  5
50E
100
AcDbEntity
  8
0
100
AcDbLine
 62
7
  6
CONTINUOUS
 10
-2.5853465214
 20
9.562017
 11
-2.4502705214
 21
9.562017
  0
LINE
  5
50F
100
AcDbEntity
  8
DRAFT
100
AcDbLine
 62
7
  6
CONTINUOUS
 10
7.6488733386
 20
7.8466757722
 11
8.9258540839
 21
7.6672078323
  0
LINE
  5
510
100
AcDbEntity
  8
RACCORDO
100
AcDbLine
 62
253
  6
CONTINUOUS
 10
16.4018933295
 20
-4.2209277741
 11
16.4309824786
 21
-4.2500169231
  0
LINE
  5
511
100
AcDbEntity
  8
DRAFT
100
AcDbLine
 62
7
  6
CONTINUOUS
 10
16.4309824786
 20
-3.7744348852
 11
16.4106200742
 21
-3.7540724809
  0
LINE
  5
512
100
AcDbEntity
  8
ASSI
100
AcDbLine
 62
7
  6
CONTINUOUS
 10
4.7164824786
 20
15.903174
 11
4.8459194786
 21
15.50001
  0
LINE
  5
513
100
AcDbEntity
  8
ASSI
100
AcDbLine
 62
7
  6
CONTINUOUS
 10
4.3927004786
 20
16.911604
 11
4.5914114786
 21
16.292689
  0
LWPOLYLINE
  5
514
100
AcDbEntity
  8
0
100
AcDbPolyline
 62
7
  6
CONTINUOUS
 90
3
 70
0
 10
12.2482718866
 20
-12.9113469208
 10
12.2606455163
 20
-12.9527070906
 10
12.2661622926
 20
-12.9702510403
  0
LWPOLYLINE
  5
515
100
AcDbEntity
  8
0
100
AcDbPolyline
 62
7
  6
CONTINUOUS
 90
3
 70
0
 10
12.5011918117
 20
-12.7338728392
 10
12.4898422436
 20
-12.6943567122
 10
12.4845348352
 20
-12.6750839722
  0
LWPOLYLINE
  5
516
100
AcDbEntity
  8
RACCORDO
100
AcDbPolyline
 62
7
  6
CONTINUOUS
 90
20
 70
0
 10
10.6530565016
 20
13.6210787114
 10
10.6559286797
 20
13.5690041982
 10
10.6637515687
 20
13.5185375275
 10
10.6765251688
 20
13.4696786995
 10
10.6945174279
 20
13.4219403293
 10
10.717460398
 20
13.3758098017
 10
10.7445502353
 20
13.3327492713
 10
10.7758502353
 20
13.2929175442
 10
10.8112971026
 20
13.2561558145
 10
10.8498971067
 20
13.2234498187
 10
10.891781294
 20
13.1948644617
 10
10.9368186183
 20
13.1703348387
 10
10.9836222108
 20
13.1506519729
 10
11.0321988718
 20
13.1359608607
 10
11.0825418011
 20
13.1261165057
 10
11.1332437292
 20
13.1214749426
 10
11.1844551916
 20
13.1222203978
 10
11.2360256528
 20
13.1281686448
 10
11.2860962372
 20
13.1391230389
 10
11.2881174029
 20
13.139793022
  0
LINE
  5
517
100
AcDbEntity
  8
RACCORDO
100
AcDbLine
 62
7
  6
CONTINUOUS
 10
9.9309824786
 20
10.5
 11
9.9309824786
 21
6.7499746153
  0
LINE
  5
518
100
AcDbEntity
  8
RACCORDO
100
AcDbLine
 62
7
  6
CONTINUOUS
 10
9.9455270531
 20
10.1963698875
 11
9.9455270531
 21
6.7354300408
  0
LINE
  5
519
100
AcDbEntity
  8
RACCORDO
100
AcDbLine
 62
253
  6
CONTINUOUS
 10
10.074495652
 20
13.4727871838
 11
10.0744956523
 21
17.9475098262
  0
LINE
  5
51A
100
AcDbEntity
  8
RACCORDO
100
AcDbLine
 62
7
  6
CONTINUOUS
 10
10.2309824786
 20
-14.9888360777
 11
10.2309824786
 21
-14.9286363289
  0
LINE
  5
51B
100
AcDbEntity
  8
RACCORDO
100
AcDbLine
 62
7
  6
CONTINUOUS
 10
10.2513448829
 20
-14.9691725292
 11
10.2513448829
 21
-14.9082739245
  0
LINE
  5
51C
100
AcDbEntity
  8
RACCORDO
100
AcDbLine
 62
7
  6
CONTINUOUS
 10
10.5744766139
 20
13.4727871837
 11
10.5744766139
 21
18.2170424504
  0
LINE
  5
51D
100
AcDbEntity
  8
RACCORDO
100
AcDbLine
 62
7
  6
CONTINUOUS
 10
10.6530565016
 20
18.2590510008
 11
10.6530565016
 21
13.6210787114
  0
LWPOLYLINE
  5
51E
100
AcDbEntity
  8
RACCORDO
100
AcDbPolyline
 62
7
  6
CONTINUOUS
 90
10
 70
0
 10
6.1855478349
 20
-12.6336021465
 10
6.261104701
 20
-12.4875217713
 10
6.3359157319
 20
-12.3454453798
 10
6.4099809276
 20
-12.2073729723
 10
6.4830698352
 20
-12.0737135903
 10
6.5554129077
 20
-11.9440581922
 10
6.6277015034
 20
-11.817179653
 10
6.7001660751
 20
-11.6926689312
 10
6.7725761701
 20
-11.5709350683
 10
6.8449317884
 20
-11.4519780643
  0
LINE
  5
51F
100
AcDbEntity
  8
DRAFT
100
AcDbLine
 62
7
  6
CONTINUOUS
 10
8.3304774152
 20
-6.7175144213
 11
5.1484968998
 21
-9.8994949366
  0
LINE
  5
520
100
AcDbEntity
  8
RACCORDO
100
AcDbLine
 62
7
  6
CONTINUOUS
 10
8.3348131493
 20
-6.7218501554
 11
5.152832634
 21
-9.9038306708
  0
LINE
  5
521
100
AcDbEntity
  8
RACCORDO
100
AcDbLine
 62
253
  6
CONTINUOUS
 10
8.5469371064
 20
-6.9339741124
 11
5.364956591
 21
-10.1159546278
  0
LWPOLYLINE
  5
522
100
AcDbEntity
  8
RACCORDO
100
AcDbPolyline
 62
7
  6
CONTINUOUS
 90
3
 70
0
 10
10.9801798474
 20
-6.0209154173
 10
10.9676554775
 20
-6.0318852349
 10
10.9507625222
 20
-6.0461134672
  0
LWPOLYLINE
  5
523
100
AcDbEntity
  8
RACCORDO
100
AcDbPolyline
 62
7
  6
CONTINUOUS
 90
11
 70
0
 10
10.9507625222
 20
-6.0461134672
 10
10.9302247751
 20
-6.0630511001
 10
10.9067418344
 20
-6.0821493092
 10
10.8808953304
 20
-6.1028027776
 10
10.8531227674
 20
-6.1243797178
 10
10.8238600576
 20
-6.1463480174
 10
10.7935320056
 20
-6.1683126479
 10
10.7624462646
 20
-6.1899236514
 10
10.7308730821
 20
-6.2108745348
 10
10.6990542402
 20
-6.2309109063
 10
10.6671688658
 20
-6.2498457185
  0
LWPOLYLINE
  5
524
100
AcDbEntity
  8
RACCORDO
100
AcDbPolyline
 62
7
  6
CONTINUOUS
 90
10
 70
0
 10
10.9801798474
 20
-6.0209154173
 10
10.9821446937
 20
-6.0193509069
 10
10.984163035
 20
-6.0180230458
 10
10.9862362322
 20
-6.0169338233
 10
10.9883676498
 20
-6.0160811183
 10
10.9905559119
 20
-6.0154712604
 10
10.9927949333
 20
-6.0151191629
 10
10.9950828598
 20
-6.0150315057
 10
10.9974220295
 20
-6.0152066041
 10
10.9998122517
 20
-6.0156470596
  0
LWPOLYLINE
  5
525
100
AcDbEntity
  8
ASSI
100
AcDbPolyline
 62
7
  6
CONTINUOUS
 90
15
 70
0
 10
19.4309824786
 20
2.0112950492
 10
19.4686753667
 20
2.0397554875
 10
19.5165283765
 20
2.0822564266
 10
19.5606621817
 20
2.1282068392
 10
19.600914672
 20
2.1775956086
 10
19.6368472363
 20
2.2296668086
 10
19.6685084766
 20
2.2848487843
 10
19.6958497909
 20
2.3427131906
 10
19.7182867614
 20
2.4012190667
 10
19.7354932083
 20
2.4599689122
 10
19.7477953113
 20
2.5193602275
 10
19.7555871916
 20
2.5785445529
 10
19.7590002229
 20
2.6372390684
 10
19.7579030315
 20
2.695726594
 10
19.7522956175
 20
2.7540071297
  0
LWPOLYLINE
  5
526
100
AcDbEntity
  8
RACCORDO
100
AcDbPolyline
 62
7
  6
CONTINUOUS
 90
15
 70
0
 10
19.4309824786
 20
2.0112950492
 10
19.4686753667
 20
2.0397554875
 10
19.5165283765
 20
2.0822564266
 10
19.5606621817
 20
2.1282068392
 10
19.600914672
 20
2.1775956086
 10
19.6368472363
 20
2.2296668086
 10
19.6685084766
 20
2.2848487843
 10
19.6958497909
 20
2.3427131906
 10
19.7182867614
 20
2.4012190667
 10
19.7354932083
 20
2.4599689122
 10
19.7477953113
 20
2.5193602275
 10
19.7555871916
 20
2.5785445529
 10
19.7590002229
 20
2.6372390684
 10
19.7579030315
 20
2.695726594
 10
19.7522956175
 20
2.7540071297
  0
LWPOLYLINE
  5
527
100
AcDbEntity
  8
0
100
AcDbPolyline
 62
7
  6
CONTINUOUS
 90
10
 70
0
 10
3.427502548
 20
-11.3681381672
 10
3.4151750431
 20
-11.3754809995
 10
3.4023167197
 20
-11.3817242666
 10
3.3889275777
 20
-11.3868679686
 10
3.3749900543
 20
-11.3909523527
 10
3.3605217124
 20
-11.3939371716
 10
3.3455752402
 20
-11.3957016833
 10
3.3301682005
 20
-11.3962056405
 10
3.3142830305
 20
-11.3954892905
 10
3.2979197302
 20
-11.3935526333
  0
LWPOLYLINE
  5
528
100
AcDbEntity
  8
IMPORT_IGES
100
AcDbPolyline
 62
7
  6
CONTINUOUS
 90
30
 70
0
 10
6.6074214102
 20
11.5250026086
 10
6.5508898633
 20
11.5194303131
 10
6.4976876359
 20
11.5091858624
 10
6.4488757269
 20
11.4942158062
 10
6.4033931374
 20
11.4745735949
 10
6.3616734902
 20
11.4505420229
 10
6.3241687191
 20
11.4222358222
 10
6.2904268903
 20
11.3895402609
 10
6.2595258243
 20
11.3523939368
 10
6.2306163046
 20
11.3107183842
 10
6.2045475478
 20
11.2645920689
 10
6.1829450237
 20
11.2141889855
 10
6.165927404
 20
11.1581212179
 10
6.1533760171
 20
11.0977766823
 10
6.1465603183
 20
11.0374931211
 10
6.1461089019
 20
10.9775734704
 10
6.1513931737
 20
10.9177147942
 10
6.1617968061
 20
10.861346027
 10
6.1773820648
 20
10.8094721325
 10
6.1980866841
 20
10.7610881469
 10
6.2231075392
 20
10.7166081144
 10
6.2523719673
 20
10.6759850443
 10
6.2859526312
 20
10.6392659272
 10
6.3232643949
 20
10.6070057786
 10
6.3641804533
 20
10.5791567613
 10
6.4088276116
 20
10.5557667125
 10
6.4570011489
 20
10.5375341593
 10
6.508632825
 20
10.524691944
 10
6.5637908802
 20
10.5170072242
 10
6.6224753145
 20
10.51448
  0
LWPOLYLINE
  5
529
100
AcDbEntity
  8
IMPORT_IGES
100
AcDbPolyline
 62
7
  6
CONTINUOUS
 90
36
 70
0
 10
6.5713435816
 20
11.859055
 10
6.6300942822
 20
11.8631327681
 10
6.6853982382
 20
11.8725020382
 10
6.7372554497
 20
11.8871628101
 10
6.7856559673
 20
11.9071039889
 10
6.8306097404
 20
11.9323366697
 10
6.8721466167
 20
11.9628941373
 10
6.9101179626
 20
11.9989202997
 10
6.9446724118
 20
12.040271249
 10
6.9762857129
 20
12.0865485462
 10
7.0051585168
 20
12.1379412923
 10
7.0310901727
 20
12.1942603863
 10
7.0539544765
 20
12.2545400865
 10
7.0738611446
 20
12.3187039369
 10
7.0907004605
 20
12.3868283935
 10
7.1040170715
 20
12.4581770831
 10
7.1137069176
 20
12.5340024332
 10
7.1198740587
 20
12.6130520164
 10
7.1223753218
 20
12.6908321767
 10
7.1212796076
 20
12.7665706972
 10
7.1165180154
 20
12.8410397949
 10
7.1077406701
 20
12.9120624647
 10
7.0948382001
 20
12.9792966996
 10
7.0779199768
 20
13.0430845068
 10
7.0569642398
 20
13.1022749026
 10
7.0318298969
 20
13.1567918532
 10
7.0026580401
 20
13.2067113924
 10
6.9698501853
 20
13.2511106385
 10
6.9336298621
 20
13.289619307
 10
6.8937735409
 20
13.3226076824
 10
6.8500121488
 20
13.3502637355
 10
6.8017235333
 20
13.3726671256
 10
6.749529847
 20
13.3897381935
 10
6.6950284739
 20
13.4014259321
 10
6.637239556
 20
13.4076292084
 10
6.5771429514
 20
13.4084491555
  0
LWPOLYLINE
  5
52A
100
AcDbEntity
  8
IMPORT_IGES
100
AcDbPolyline
 62
7
  6
CONTINUOUS
 90
36
 70
0
 10
5.3731635816
 20
11.859055
 10
5.4319142822
 20
11.8631327681
 10
5.4872182382
 20
11.8725020382
 10
5.5390754497
 20
11.8871628101
 10
5.5874759673
 20
11.9071039889
 10
5.6324297404
 20
11.9323366697
 10
5.6739666167
 20
11.9628941373
 10
5.7119379626
 20
11.9989202997
 10
5.7464924118
 20
12.040271249
 10
5.7781057129
 20
12.0865485462
 10
5.8069785168
 20
12.1379412923
 10
5.8329101727
 20
12.1942603863
 10
5.8557744765
 20
12.2545400865
 10
5.8756811446
 20
12.3187039369
 10
5.8925204605
 20
12.3868283935
 10
5.9058370715
 20
12.4581770831
 10
5.9155269176
 20
12.5340024332
 10
5.9216940587
 20
12.6130520164
 10
5.9241953218
 20
12.6908321767
 10
5.9230996076
 20
12.7665706972
 10
5.9183380154
 20
12.8410397949
 10
5.9095606701
 20
12.9120624647
 10
5.8966582001
 20
12.9792966996
 10
5.8797399768
 20
13.0430845068
 10
5.8587842398
 20
13.1022749026
 10
5.8336498969
 20
13.1567918532
 10
5.8044780401
 20
13.2067113924
 10
5.7716701853
 20
13.2511106385
 10
5.7354498621
 20
13.289619307
 10
5.6955935409
 20
13.3226076824
 10
5.6518321488
 20
13.3502637355
 10
5.6035435333
 20
13.3726671256
 10
5.551349847
 20
13.3897381935
 10
5.4968484739
 20
13.4014259321
 10
5.439059556
 20
13.4076292084
 10
5.3789629514
 20
13.4084491555
  0
LWPOLYLINE
  5
52B
100
AcDbEntity
  8
IMPORT_IGES
100
AcDbPolyline
 62
7
  6
CONTINUOUS
 90
10
 70
0
 10
6.6224753145
 20
10.51448
 10
6.6752583559
 20
10.5164517109
 10
6.7250036097
 20
10.5232090486
 10
6.7717110758
 20
10.534752013
 10
6.8155621258
 20
10.5513503308
 10
6.8563753881
 20
10.5727342754
 10
6.8936067479
 20
10.5980946666
 10
6.9270748337
 20
10.6271617777
 10
6.956961017
 20
10.6602053356
 10
6.9832652978
 20
10.69722534
  0
LINE
  5
52C
100
AcDbEntity
  8
0
100
AcDbLine
 62
7
  6
CONTINUOUS
 10
-2.7999315214
 20
9.681726
 11
-3.3069945214
 21
9.681726
  0
LINE
  5
52D
100
AcDbEntity
  8
0
100
AcDbLine
 62
7
  6
CONTINUOUS
 10
-4.2137855214
 20
9.8532
 11
-3.8126005214
 21
9.8532
  0
LINE
  5
52E
100
AcDbEntity
  8
0
100
AcDbLine
 62
7
  6
CONTINUOUS
 10
-3.8613735214
 20
9.972908
 11
-4.1720495214
 21
9.972908
  0
LINE
  5
52F
100
AcDbEntity
  8
IMPORT_IGES
100
AcDbLine
 62
7
  6
CONTINUOUS
 10
2.7296424786
 20
10.0
 11
2.9411024786
 21
10.0
  0
LINE
  5
530
100
AcDbEntity
  8
IMPORT_IGES
100
AcDbLine
 62
7
  6
CONTINUOUS
 10
5.5789024786
 20
10.0
 11
5.7707424786
 21
10.0
  0
LINE
  5
531
100
AcDbEntity
  8
IMPORT_IGES
100
AcDbLine
 62
7
  6
CONTINUOUS
 10
6.3549824786
 20
10.36842
 11
6.1631424786
 21
10.36842
  0
LINE
  5
532
100
AcDbEntity
  8
IMPORT_IGES
100
AcDbLine
 62
7
  6
CONTINUOUS
 10
4.9096424786
 20
10.37278
 11
5.5789024786
 21
10.37278
  0
LINE
  5
533
100
AcDbEntity
  8
IMPORT_IGES
100
AcDbLine
 62
7
  6
CONTINUOUS
 10
5.7707424786
 20
10.37278
 11
5.9952824786
 21
10.37278
  0
LINE
  5
534
100
AcDbEntity
  8
0
100
AcDbLine
 62
7
  6
CONTINUOUS
 10
-5.3086335214
 20
10.442845
 11
-4.9701335214
 21
10.442845
  0
LINE
  5
535
100
AcDbEntity
  8
0
100
AcDbLine
 62
7
  6
CONTINUOUS
 10
-4.8350565214
 20
10.442845
 11
-4.4965565214
 21
10.442845
  0
LINE
  5
536
100
AcDbEntity
  8
IMPORT_IGES
100
AcDbLine
 62
7
  6
CONTINUOUS
 10
5.9952824786
 20
10.54282
 11
5.7707424786
 21
10.54282
  0
LINE
  5
537
100
AcDbEntity
  8
IMPORT_IGES
100
AcDbLine
 62
7
  6
CONTINUOUS
 10
5.5767224786
 20
10.54282
 11
5.0866654786
 21
10.54282
  0
LINE
  5
538
100
AcDbEntity
  8
0
100
AcDbLine
 62
7
  6
CONTINUOUS
 10
-2.0727835214
 20
10.562553
 11
-2.2315595214
 21
10.562553
  0
LINE
  5
539
100
AcDbEntity
  8
0
100
AcDbLine
 62
7
  6
CONTINUOUS
 10
-2.8055125214
 20
10.562553
 11
-2.9629135214
 21
10.562553
  0
LINE
  5
53A
100
AcDbEntity
  8
0
100
AcDbLine
 62
7
  6
CONTINUOUS
 10
-3.3069945214
 20
10.562553
 11
-3.4420705214
 21
10.562553
  0
LINE
  5
53B
100
AcDbEntity
  8
0
100
AcDbLine
 62
7
  6
CONTINUOUS
 10
-3.9282655214
 20
10.562553
 11
-4.0814595214
 21
10.562553
  0
LINE
  5
53C
100
AcDbEntity
  8
0
100
AcDbLine
 62
7
  6
CONTINUOUS
 10
-4.4965565214
 20
10.562553
 11
-5.3086335214
 21
10.562553
  0
LINE
  5
53D
100
AcDbEntity
  8
0
100
AcDbLine
 62
7
  6
CONTINUOUS
 10
-5.4535775214
 20
10.562553
 11
-5.5887345214
 21
10.562553
  0
LINE
  5
53E
100
AcDbEntity
  8
0
100
AcDbLine
 62
7
  6
CONTINUOUS
 10
-4.4540925214
 20
11.000136
 11
-4.3189355214
 21
11.000136
  0
LINE
  5
53F
100
AcDbEntity
  8
0
100
AcDbLine
 62
7
  6
CONTINUOUS
 10
-4.0877685214
 20
11.000136
 11
-3.9567365214
 21
11.000136
  0
LINE
  5
540
100
AcDbEntity
  8
0
100
AcDbLine
 62
7
  6
CONTINUOUS
 10
-3.4455485214
 20
11.000136
 11
-3.2937295214
 21
11.000136
  0
LINE
  5
541
100
AcDbEntity
  8
IMPORT_IGES
100
AcDbLine
 62
7
  6
CONTINUOUS
 10
2.5116424786
 20
11.308
 11
3.3543828103
 21
11.308
  0
LINE
  5
542
100
AcDbEntity
  8
IMPORT_IGES
100
AcDbLine
 62
7
  6
CONTINUOUS
 10
3.5711224786
 20
11.49984
 11
2.5116424786
 21
11.49984
  0
LINE
  5
543
100
AcDbEntity
  8
IMPORT_IGES
100
AcDbLine
 62
7
  6
CONTINUOUS
 10
5.7707424786
 20
11.52818
 11
5.6087414786
 21
11.52818
  0
LINE
  5
544
100
AcDbEntity
  8
IMPORT_IGES
100
AcDbLine
 62
7
  6
CONTINUOUS
 10
2.9912824786
 20
11.9
 11
3.1938524786
 21
11.9
  0
LINE
  5
545
100
AcDbEntity
  8
IMPORT_IGES
100
AcDbLine
 62
7
  6
CONTINUOUS
 10
3.6959674786
 20
11.9
 11
4.7303674786
 21
11.9
  0
LINE
  5
546
100
AcDbEntity
  8
ASSI
100
AcDbLine
 62
7
  6
CONTINUOUS
 10
-16.4017902188
 20
11.960729733
 11
-16.3369241173
 21
11.960729733
  0
LINE
  5
547
100
AcDbEntity
  8
DRAFT
100
AcDbLine
 62
7
  6
CONTINUOUS
 10
-16.4017902188
 20
11.960729733
 11
-16.3369241173
 21
11.960729733
  0
LINE
  5
548
100
AcDbEntity
  8
0
100
AcDbLine
 62
7
  6
CONTINUOUS
 10
14.3259904027
 20
10.2718072551
 11
14.8529737288
 21
10.2718605073
  0
LINE
  5
549
100
AcDbEntity
  8
0
100
AcDbLine
 62
7
  6
CONTINUOUS
 10
11.5089912283
 20
10.7281394921
 11
12.0359745554
 21
10.72819274
  0
LINE
  5
54A
100
AcDbEntity
  8
0
100
AcDbLine
 62
7
  6
CONTINUOUS
 10
12.0359428955
 20
10.2716467289
 11
11.5089647426
 21
10.2720547004
  0
LINE
  5
54B
100
AcDbEntity
  8
0
100
AcDbLine
 62
7
  6
CONTINUOUS
 10
14.3260220617
 20
10.7283532711
 11
14.8530002145
 21
10.7279452996
  0
LWPOLYLINE
  5
54C
100
AcDbEntity
  8
IMPORT_IGES
100
AcDbPolyline
 62
7
  6
CONTINUOUS
 90
28
 70
0
 10
4.2451171718
 20
10.13298
 10
4.2044350209
 20
10.1338629019
 10
4.1660726026
 20
10.138077812
 10
4.130029917
 20
10.1456247302
 10
4.0961103366
 20
10.1565288448
 10
4.0645104888
 20
10.1707649676
 10
4.0358202553
 20
10.1882575338
 10
4.0101976864
 20
10.2089385657
 10
3.9874847319
 20
10.2328760411
 10
3.967797123
 20
10.2601983279
 10
3.9508146048
 20
10.2916503771
 10
3.9368574323
 20
10.3264872377
 10
3.9270021014
 20
10.3626024248
 10
3.9216924143
 20
10.4003289438
 10
3.9204845687
 20
10.4393337893
 10
3.9231236538
 20
10.4765114603
 10
3.9295811598
 20
10.5109848748
 10
3.9398855965
 20
10.5436311149
 10
3.9538675814
 20
10.5739759259
 10
3.9715596029
 20
10.6020429205
 10
3.9929291727
 20
10.6278084861
 10
4.017709444
 20
10.6507275297
 10
4.0459879024
 20
10.6709136989
 10
4.0776770623
 20
10.6882533463
 10
4.1122476199
 20
10.7018604363
 10
4.1495231407
 20
10.7114396236
 10
4.1896800593
 20
10.7172862535
 10
4.2327183755
 20
10.719400326
  0
LWPOLYLINE
  5
54D
100
AcDbEntity
  8
IMPORT_IGES
100
AcDbPolyline
 62
7
  6
CONTINUOUS
 90
25
 70
0
 10
4.2316181225
 20
11.3515947456
 10
4.2713707189
 20
11.3504035233
 10
4.3084633078
 20
11.3454313667
 10
4.3428958894
 20
11.3366782758
 10
4.3749374678
 20
11.3238458519
 10
4.4043190389
 20
11.3072324937
 10
4.4302335896
 20
11.2877333969
 10
4.4525955998
 20
11.2651723803
 10
4.4714905897
 20
11.2397256251
 10
4.4863681065
 20
11.2128168708
 10
4.4971762741
 20
11.1845691169
 10
4.5039669685
 20
11.1548593639
 10
4.506345365
 20
11.1247423524
 10
4.5040570097
 20
11.0939733225
 10
4.4973563565
 20
11.0627970341
 10
4.4866119416
 20
11.0330025077
 10
4.4716789334
 20
11.004567545
 10
4.4527021635
 20
10.9775143443
 10
4.4304846639
 20
10.9536985207
 10
4.4051182932
 20
10.9335623064
 10
4.3765111927
 20
10.9166634693
 10
4.345190818
 20
10.9035309281
 10
4.3113329874
 20
10.8943409894
 10
4.2747618826
 20
10.8889173467
 10
4.2354775035
 20
10.88726
  0
LWPOLYLINE
  5
54E
100
AcDbEntity
  8
IMPORT_IGES
100
AcDbPolyline
 62
7
  6
CONTINUOUS
 90
28
 70
0
 10
6.6476474869
 20
10.68234
 10
6.607426935
 20
10.6837570831
 10
6.5698585289
 20
10.688550202
 10
6.5349422688
 20
10.6967193567
 10
6.5025536081
 20
10.7082281641
 10
6.4728170934
 20
10.7231130073
 10
6.4461063638
 20
10.7414830361
 10
6.42253016
 20
10.7634542995
 10
6.4019797414
 20
10.7889107485
 10
6.3845025257
 20
10.817613386
 10
6.3700602699
 20
10.8497835285
 10
6.358691217
 20
10.8851998594
 10
6.3505575136
 20
10.9229594324
 10
6.3454916423
 20
10.9634876905
 10
6.3436611206
 20
11.0063591907
 10
6.3457306472
 20
11.0493946568
 10
6.3518909002
 20
11.0930840555
 10
6.3619512016
 20
11.1369374202
 10
6.3760042157
 20
11.1773055742
 10
6.3944968403
 20
11.2132365034
 10
6.4169821778
 20
11.2456822219
 10
6.4422121998
 20
11.2738495968
 10
6.4698784754
 20
11.2974683628
 10
6.5002894356
 20
11.3168087851
 10
6.5331223445
 20
11.3318885263
 10
6.5682696233
 20
11.3427134738
 10
6.6058388508
 20
11.3492777401
 10
6.6458300268
 20
11.3515813252
  0
LWPOLYLINE
  5
54F
100
AcDbEntity
  8
IMPORT_IGES
100
AcDbPolyline
 62
7
  6
CONTINUOUS
 90
28
 70
0
 10
4.2327183755
 20
10.719400326
 10
4.2767381004
 20
10.7170942931
 10
4.3178894119
 20
10.7111572971
 10
4.35617231
 20
10.7015893379
 10
4.3918178979
 20
10.6881635219
 10
4.4245950724
 20
10.6711067428
 10
4.4538105239
 20
10.6510996815
 10
4.4793283762
 20
10.6281165577
 10
4.5012845054
 20
10.6021831517
 10
4.519393231
 20
10.5740574857
 10
4.5333908767
 20
10.543719446
 10
4.5435411187
 20
10.5111891464
 10
4.5503493048
 20
10.47728495
 10
4.5540182286
 20
10.4413736876
 10
4.5543450966
 20
10.4040885284
 10
4.5512268758
 20
10.3681473445
 10
4.5447193853
 20
10.334034784
 10
4.5347668062
 20
10.3012661988
 10
4.521098649
 20
10.2711055155
 10
4.50351644
 20
10.2438875675
 10
4.4822186529
 20
10.2192775214
 10
4.4575302193
 20
10.1975348047
 10
4.4293271807
 20
10.1785544586
 10
4.3977334956
 20
10.1624414418
 10
4.3634459714
 20
10.1497700572
 10
4.3266968772
 20
10.1407317392
 10
4.287253944
 20
10.1351350535
 10
4.2451171718
 20
10.13298
  0
LWPOLYLINE
  5
550
100
AcDbEntity
  8
IMPORT_IGES
100
AcDbPolyline
 62
7
  6
CONTINUOUS
 90
28
 70
0
 10
6.6458300268
 20
11.3515813252
 10
6.6890257868
 20
11.349132993
 10
6.7290589741
 20
11.3426834774
 10
6.7659295886
 20
11.3322327783
 10
6.799696567
 20
11.3176059997
 10
6.8303009727
 20
11.2989780376
 10
6.8575659962
 20
11.2768735801
 10
6.881549662
 20
11.2513656319
 10
6.9021939456
 20
11.2223811881
 10
6.9191479631
 20
11.1902259223
 10
6.9321540343
 20
11.1543046682
 10
6.9414698395
 20
11.115212592
 10
6.9475175352
 20
11.0750408656
 10
6.9503515746
 20
11.0335512157
 10
6.9499175045
 20
10.9909819156
 10
6.9464741224
 20
10.9501389569
 10
6.9403484285
 20
10.9115512956
 10
6.9312134226
 20
10.8746899757
 10
6.918346901
 20
10.8407741203
 10
6.9013457495
 20
10.8101073008
 10
6.8806130824
 20
10.7823859457
 10
6.8566360385
 20
10.757918464
 10
6.8295017623
 20
10.7367232782
 10
6.7991231092
 20
10.7187819657
 10
6.7657257846
 20
10.7043476675
 10
6.7293850236
 20
10.693504764
 10
6.690025591
 20
10.6861688748
 10
6.6476474869
 20
10.68234
  0
LWPOLYLINE
  5
551
100
AcDbEntity
  8
IMPORT_IGES
100
AcDbPolyline
 62
7
  6
CONTINUOUS
 90
28
 70
0
 10
4.2354775035
 20
10.88726
 10
4.1979598746
 20
10.889575651
 10
4.1628561292
 20
10.8949537151
 10
4.130166267
 20
10.9033941923
 10
4.099648925
 20
10.915236248
 10
4.0715454663
 20
10.9301407167
 10
4.0465799809
 20
10.9470901031
 10
4.0248680869
 20
10.9659754636
 10
4.0062941661
 20
10.9869057417
 10
3.9912354543
 20
11.0091902724
 10
3.9799756287
 20
11.0326543532
 10
3.972231012
 20
11.0574726866
 10
3.967527808
 20
11.0834787156
 10
3.9656729127
 20
11.1111842189
 10
3.9668594301
 20
11.1400774178
 10
3.9711928762
 20
11.1684564182
 10
3.9788609982
 20
11.1963677367
 10
3.9896760489
 20
11.2237648567
 10
4.0031803026
 20
11.2488063347
 10
4.0193126516
 20
11.2710170969
 10
4.0381342035
 20
11.2908722171
 10
4.0593705561
 20
11.3079554739
 10
4.0831277438
 20
11.3221214121
 10
4.1092997321
 20
11.3335154869
 10
4.1372940147
 20
11.3421578432
 10
4.1669130896
 20
11.3480551959
 10
4.1983544589
 20
11.35120083
 10
4.2316181225
 20
11.3515947456
  0
LWPOLYLINE
  5
552
100
AcDbEntity
  8
ASSI
100
AcDbPolyline
 62
7
  6
CONTINUOUS
 90
11
 70
0
 10
19.4309824786
 20
-2.0044415452
 10
19.4634566014
 20
-2.0277734075
 10
19.5305691102
 20
-2.0885984401
 10
19.5903764015
 20
-2.1566195641
 10
19.6421119127
 20
-2.230964879
 10
19.6851125461
 20
-2.3106814204
 10
19.7188271687
 20
-2.3947473752
 10
19.7428236763
 20
-2.4820851786
 10
19.7567945323
 20
-2.5715753276
 10
19.7605607098
 20
-2.66207073
 10
19.7540739861
 20
-2.7524114086
  0
LINE
  5
553
100
AcDbEntity
  8
RACCORDO
100
AcDbLine
 62
253
  6
CONTINUOUS
 10
8.451336421
 20
5.2296714422
 11
8.4310078633
 21
5.25
  0
LINE
  5
554
100
AcDbEntity
  8
RACCORDO
100
AcDbLine
 62
253
  6
CONTINUOUS
 10
9.9309824786
 20
6.7499746153
 11
9.9455270531
 21
6.7354300408
  0
LINE
  5
555
100
AcDbEntity
  8
ASSI
100
AcDbLine
 62
7
  6
CONTINUOUS
 10
5.2559394786
 20
15.500005
 11
4.5977204786
 21
17.550103
  0
LINE
  5
556
100
AcDbEntity
  8
0
100
AcDbLine
 62
7
  6
CONTINUOUS
 10
12.5809824786
 20
7.412750323
 11
12.5809824786
 21
10.0461926334
  0
LINE
  5
557
100
AcDbEntity
  8
0
100
AcDbLine
 62
7
  6
CONTINUOUS
 10
12.5809824786
 20
10.9538073666
 11
12.5809824786
 21
13.587249677
  0
LINE
  5
558
100
AcDbEntity
  8
DRAFT
100
AcDbLine
 62
7
  6
CONTINUOUS
 10
13.5865840538
 20
-11.5941921419
 11
13.5865840538
 21
-11.6202022916
  0
LINE
  5
559
100
AcDbEntity
  8
0
100
AcDbLine
 62
7
  6
CONTINUOUS
 10
13.7809824786
 20
13.587249677
 11
13.7809824786
 21
10.9538073666
  0
LINE
  5
55A
100
AcDbEntity
  8
0
100
AcDbLine
 62
7
  6
CONTINUOUS
 10
13.7809824786
 20
10.0461926334
 11
13.7809824786
 21
7.412750323
  0
LINE
  5
55B
100
AcDbEntity
  8
ASSI
100
AcDbLine
 62
253
  6
CONTINUOUS
 10
13.9257670044
 20
-23.4947502565
 11
13.925767002
 21
-24.4947365487
  0
LINE
  5
55C
100
AcDbEntity
  8
RACCORDO
100
AcDbLine
 62
253
  6
CONTINUOUS
 10
13.9257670044
 20
-23.4947502565
 11
13.925767002
 21
-24.4947365487
  0
LINE
  5
55D
100
AcDbEntity
  8
ASSI
100
AcDbLine
 62
253
  6
CONTINUOUS
 10
13.9257670044
 20
23.4947502565
 11
13.9257670044
 21
24.4947365487
  0
LINE
  5
55E
100
AcDbEntity
  8
RACCORDO
100
AcDbLine
 62
253
  6
CONTINUOUS
 10
13.9257670044
 20
23.4947502565
 11
13.9257670044
 21
24.4947365487
  0
LWPOLYLINE
  5
55F
100
AcDbEntity
  8
0
100
AcDbPolyline
 62
7
  6
CONTINUOUS
 90
15
 70
0
 10
7.4914910333
 20
-13.5476481156
 10
7.5319107936
 20
-13.4712316674
 10
7.6175986907
 20
-13.3127003512
 10
7.7017918806
 20
-13.1604305051
 10
7.784844389
 20
-13.0137849815
 10
7.8678182937
 20
-12.8708523369
 10
7.950785832
 20
-12.7313875257
 10
8.0336747666
 20
-12.5956355935
 10
8.1173304621
 20
-12.4624202345
 10
8.2017908395
 20
-12.3315861088
 10
8.2870179778
 20
-12.2032885562
 10
8.3737434795
 20
-12.0768172905
 10
8.4622112121
 20
-11.9519355495
 10
8.5521773081
 20
-11.8288800952
 10
8.6436417676
 20
-11.7076509278
  0
LWPOLYLINE
  5
560
100
AcDbEntity
  8
RACCORDO
100
AcDbPolyline
 62
7
  6
CONTINUOUS
 90
10
 70
0
 10
7.1343985154
 20
-11.0955738364
 10
7.0953359024
 20
-11.1354010265
 10
7.0579792764
 20
-11.1751795908
 10
7.0223286374
 20
-11.2149095294
 10
6.9883587536
 20
-11.2546015813
 10
6.9560948569
 20
-11.2942450075
 10
6.9256126425
 20
-11.3338075907
 10
6.8969373422
 20
-11.3732785916
 10
6.8700437241
 20
-11.4126687495
 10
6.8449317884
 20
-11.4519780643
  0
LINE
  5
561
100
AcDbEntity
  8
RACCORDO
100
AcDbLine
 62
7
  6
CONTINUOUS
 10
10.9114171665
 20
-7.3185551853
 11
8.7361385181
 21
-9.4938338337
  0
LINE
  5
562
100
AcDbEntity
  8
RACCORDO
100
AcDbLine
 62
7
  6
CONTINUOUS
 10
5.7495376638
 20
-12.4804346879
 11
7.9244118763
 21
-10.3055604755
  0
LINE
  5
563
100
AcDbEntity
  8
RACCORDO
100
AcDbLine
 62
253
  6
CONTINUOUS
 10
10.9448859169
 20
-7.3520239357
 11
9.8829605429
 21
-8.4139493098
  0
LINE
  5
564
100
AcDbEntity
  8
RACCORDO
100
AcDbLine
 62
253
  6
CONTINUOUS
 10
5.7830064143
 20
-12.5139034384
 11
6.8449317884
 21
-11.4519780643
  0
LWPOLYLINE
  5
565
100
AcDbEntity
  8
0
100
AcDbPolyline
 62
7
  6
CONTINUOUS
 90
15
 70
0
 10
10.1386334063
 20
-10.212659289
 10
10.2599356327
 20
-10.1211419234
 10
10.3830556158
 20
-10.0311309146
 10
10.5079933558
 20
-9.9426262627
 10
10.6345128108
 20
-9.8558720597
 10
10.7628500226
 20
-9.7706242135
 10
10.8937131162
 20
-9.6861504477
 10
11.0269467408
 20
-9.6024885944
 10
11.1627062473
 20
-9.5196008215
 10
11.3021658127
 20
-9.4366413557
 10
11.4450806466
 20
-9.3536822351
 10
11.5916955395
 20
-9.2706514215
 10
11.7439190409
 20
-9.1864870276
 10
11.9023873339
 20
-9.100835091
 10
11.9782957529
 20
-9.0606847023
  0
LWPOLYLINE
  5
566
100
AcDbEntity
  8
RACCORDO
100
AcDbPolyline
 62
7
  6
CONTINUOUS
 90
10
 70
0
 10
9.8829605429
 20
-8.4139493098
 10
9.8436512281
 20
-8.4390612456
 10
9.8042610702
 20
-8.4659548636
 10
9.7647900692
 20
-8.494630164
 10
9.7252274861
 20
-8.5251123784
 10
9.6855840599
 20
-8.5573762751
 10
9.6458920079
 20
-8.5913461588
 10
9.6061620694
 20
-8.6269967978
 10
9.566383505
 20
-8.6643534238
 10
9.5265563149
 20
-8.7034160368
  0
LWPOLYLINE
  5
567
100
AcDbEntity
  8
RACCORDO
100
AcDbPolyline
 62
7
  6
CONTINUOUS
 90
10
 70
0
 10
9.8829605429
 20
-8.4139493098
 10
10.0019266027
 20
-8.3415884148
 10
10.1236670377
 20
-8.2691745371
 10
10.2481818477
 20
-8.1967076766
 10
10.3750616979
 20
-8.1244185191
 10
10.5047159233
 20
-8.0520763788
 10
10.6383725282
 20
-7.9789891981
 10
10.7764408476
 20
-7.9049262913
 10
10.9185115465
 20
-7.830118344
 10
11.0645846251
 20
-7.7545653564
  0
LWPOLYLINE
  5
568
100
AcDbEntity
  8
IMPORT_IGES
100
AcDbPolyline
 62
7
  6
CONTINUOUS
 90
29
 70
0
 10
6.5771429514
 20
13.4084491555
 10
6.5192756187
 20
13.4041381648
 10
6.4644699027
 20
13.3946873851
 10
6.4118934586
 20
13.3801056677
 10
6.3635862097
 20
13.360671958
 10
6.3205508548
 20
13.3364420309
 10
6.281784695
 20
13.3073601116
 10
6.2463195579
 20
13.2735378207
 10
6.2135814303
 20
13.2350853104
 10
6.1841443253
 20
13.1918924286
 10
6.1587621103
 20
13.1437403397
 10
6.1369693808
 20
13.089359137
 10
6.1192315412
 20
13.0300187271
 10
6.1076986717
 20
12.9693099944
 10
6.1032647057
 20
12.9068199059
 10
6.1050357099
 20
12.8429614946
 10
6.1124799647
 20
12.782564744
 10
6.1257001344
 20
12.7270078815
 10
6.1445935547
 20
12.6749126796
 10
6.1683205127
 20
12.6269744393
 10
6.1968508285
 20
12.5832178685
 10
6.2302146821
 20
12.5436182593
 10
6.2676628998
 20
12.5087967889
 10
6.3090278969
 20
12.4786964883
 10
6.3544772582
 20
12.4533743265
 10
6.4037645646
 20
12.4336223883
 10
6.4568076766
 20
12.4197047019
 10
6.5136887337
 20
12.4113572392
 10
6.5744077361
 20
12.40858
  0
LWPOLYLINE
  5
569
100
AcDbEntity
  8
IMPORT_IGES
100
AcDbPolyline
 62
7
  6
CONTINUOUS
 90
29
 70
0
 10
5.3789629514
 20
13.4084491555
 10
5.3210956187
 20
13.4041381648
 10
5.2662899027
 20
13.3946873851
 10
5.2137134586
 20
13.3801056677
 10
5.1654062097
 20
13.360671958
 10
5.1223708548
 20
13.3364420309
 10
5.083604695
 20
13.3073601116
 10
5.0481395579
 20
13.2735378207
 10
5.0154014303
 20
13.2350853104
 10
4.9859643253
 20
13.1918924286
 10
4.9605821103
 20
13.1437403397
 10
4.9387893808
 20
13.089359137
 10
4.9210515412
 20
13.0300187271
 10
4.9095186717
 20
12.9693099944
 10
4.9050847057
 20
12.9068199059
 10
4.9068557099
 20
12.8429614946
 10
4.9142999647
 20
12.782564744
 10
4.9275201344
 20
12.7270078815
 10
4.9464135547
 20
12.6749126796
 10
4.9701405127
 20
12.6269744393
 10
4.9986708285
 20
12.5832178685
 10
5.0320346821
 20
12.5436182593
 10
5.0694828998
 20
12.5087967889
 10
5.1108478969
 20
12.4786964883
 10
5.1562972582
 20
12.4533743265
 10
5.2055845646
 20
12.4336223883
 10
5.2586276766
 20
12.4197047019
 10
5.3155087337
 20
12.4113572392
 10
5.3762277361
 20
12.40858
  0
LWPOLYLINE
  5
56A
100
AcDbEntity
  8
0
100
AcDbPolyline
 62
7
  6
CONTINUOUS
 90
16
 70
0
 10
-3.2888732036
 20
12.438256
 10
-3.2379362529
 20
12.4414552513
 10
-3.1901947485
 20
12.4490927828
 10
-3.1456486904
 20
12.4611685943
 10
-3.104367193
 20
12.4777000439
 10
-3.0662811418
 20
12.4986697736
 10
-3.0311831933
 20
12.5240257094
 10
-2.998876089
 20
12.5537653006
 10
-2.9695570873
 20
12.5878910978
 10
-2.9436106201
 20
12.6263586785
 10
-2.9208279083
 20
12.6695285529
 10
-2.9014177309
 20
12.7170402109
 10
-2.8863908571
 20
12.7677676998
 10
-2.8760842099
 20
12.8213357022
 10
-2.8701608662
 20
12.8781195356
 10
-2.8686208262
 20
12.9381192
  0
LWPOLYLINE
  5
56B
100
AcDbEntity
  8
IMPORT_IGES
100
AcDbPolyline
 62
7
  6
CONTINUOUS
 90
10
 70
0
 10
6.5744077361
 20
12.40858
 10
6.626578981
 20
12.410527381
 10
6.6757495684
 20
12.4172059584
 10
6.7219194981
 20
12.4286157323
 10
6.7652689571
 20
12.4450233641
 10
6.8056177585
 20
12.4661621924
 10
6.8424253415
 20
12.4912322323
 10
6.8755115192
 20
12.5199668222
 10
6.9050564786
 20
12.5526326236
 10
6.9310602196
 20
12.5892296366
  0
LWPOLYLINE
  5
56C
100
AcDbEntity
  8
IMPORT_IGES
100
AcDbPolyline
 62
7
  6
CONTINUOUS
 90
10
 70
0
 10
5.3762277361
 20
12.40858
 10
5.428398981
 20
12.410527381
 10
5.4775695684
 20
12.4172059584
 10
5.5237394981
 20
12.4286157323
 10
5.5670889571
 20
12.4450233641
 10
5.6074377585
 20
12.4661621924
 10
5.6442453415
 20
12.4912322323
 10
5.6773315192
 20
12.5199668222
 10
5.7068764786
 20
12.5526326236
 10
5.7328802196
 20
12.5892296366
  0
LWPOLYLINE
  5
56D
100
AcDbEntity
  8
RACCORDO
100
AcDbPolyline
 62
253
  6
CONTINUOUS
 90
21
 70
0
 10
11.0741375093
 20
12.9731210418
 10
11.0565979538
 20
12.9730347766
 10
11.0164819466
 20
12.9760773053
 10
10.9768745727
 20
12.9823096589
 10
10.9380013464
 20
12.991666386
 10
10.9000327303
 20
13.0040887573
 10
10.8632159954
 20
13.0194863634
 10
10.8277746897
 20
13.0377558878
 10
10.793846698
 20
13.0588308162
 10
10.761641404
 20
13.0826029844
 10
10.7313922834
 20
13.1089231643
 10
10.7032769712
 20
13.1376647762
 10
10.6774892369
 20
13.1686691679
 10
10.6542250503
 20
13.2017438714
 10
10.6336543153
 20
13.2366944856
 10
10.6159352676
 20
13.2733089957
 10
10.6012126744
 20
13.3113544769
 10
10.5896117064
 20
13.3505846644
 10
10.5812367303
 20
13.3907438822
 10
10.5761710403
 20
13.4315689152
 10
10.5744766131
 20
13.4727871839
  0
LINE
  5
56E
100
AcDbEntity
  8
0
100
AcDbLine
 62
7
  6
CONTINUOUS
 10
-3.2937295214
 20
11.999864
 11
-3.4245995214
 21
11.999864
  0
LINE
  5
56F
100
AcDbEntity
  8
0
100
AcDbLine
 62
7
  6
CONTINUOUS
 10
-3.9275375214
 20
11.999864
 11
-4.0877685214
 21
11.999864
  0
LINE
  5
570
100
AcDbEntity
  8
0
100
AcDbLine
 62
7
  6
CONTINUOUS
 10
-4.3189355214
 20
11.999864
 11
-4.4540925214
 21
11.999864
  0
LINE
  5
571
100
AcDbEntity
  8
ASSI
100
AcDbLine
 62
7
  6
CONTINUOUS
 10
-16.3634279849
 20
12.0
 11
-16.2976538503
 21
12.0
  0
LINE
  5
572
100
AcDbEntity
  8
DRAFT
100
AcDbLine
 62
7
  6
CONTINUOUS
 10
-16.3634279849
 20
12.0
 11
-16.2976538503
 21
12.0
  0
LINE
  5
573
100
AcDbEntity
  8
IMPORT_IGES
100
AcDbLine
 62
7
  6
CONTINUOUS
 10
4.7303674786
 20
12.078865
 11
3.9071574786
 21
12.078865
  0
LINE
  5
574
100
AcDbEntity
  8
IMPORT_IGES
100
AcDbLine
 62
7
  6
CONTINUOUS
 10
6.3099824786
 20
12.264195
 11
6.1203424786
 21
12.264195
  0
LINE
  5
575
100
AcDbEntity
  8
IMPORT_IGES
100
AcDbLine
 62
7
  6
CONTINUOUS
 10
5.1118024786
 20
12.264195
 11
4.9221624786
 21
12.264195
  0
LINE
  5
576
100
AcDbEntity
  8
0
100
AcDbLine
 62
7
  6
CONTINUOUS
 10
-5.7948275214
 20
12.438256
 11
-5.6638765214
 21
12.438256
  0
LINE
  5
577
100
AcDbEntity
  8
0
100
AcDbLine
 62
7
  6
CONTINUOUS
 10
-5.3824805214
 20
12.438256
 11
-5.2487785214
 21
12.438256
  0
LINE
  5
578
100
AcDbEntity
  8
0
100
AcDbLine
 62
7
  6
CONTINUOUS
 10
-4.9673835214
 20
12.438256
 11
-4.8364315214
 21
12.438256
  0
LINE
  5
579
100
AcDbEntity
  8
0
100
AcDbLine
 62
7
  6
CONTINUOUS
 10
-4.7166425214
 20
12.438256
 11
-4.5773595214
 21
12.438256
  0
LINE
  5
57A
100
AcDbEntity
  8
0
100
AcDbLine
 62
7
  6
CONTINUOUS
 10
-3.9727515214
 20
12.438256
 11
-3.8251375214
 21
12.438256
  0
LINE
  5
57B
100
AcDbEntity
  8
0
100
AcDbLine
 62
7
  6
CONTINUOUS
 10
-3.6941865214
 20
12.438256
 11
-3.2888732036
 21
12.438256
  0
LINE
  5
57C
100
AcDbEntity
  8
0
100
AcDbLine
 62
7
  6
CONTINUOUS
 10
-2.6815175214
 20
12.438256
 11
-1.9432075214
 21
12.438256
  0
LINE
  5
57D
100
AcDbEntity
  8
0
100
AcDbLine
 62
7
  6
CONTINUOUS
 10
-3.3069928161
 20
12.55392
 11
-3.5591105214
 21
12.55392
  0
LINE
  5
57E
100
AcDbEntity
  8
0
100
AcDbLine
 62
7
  6
CONTINUOUS
 10
-1.9432075214
 20
12.557964
 11
-2.5463605214
 21
12.557964
  0
LINE
  5
57F
100
AcDbEntity
  8
0
100
AcDbLine
 62
7
  6
CONTINUOUS
 10
-4.4728575214
 20
12.729438
 11
-4.0716725214
 21
12.729438
  0
LINE
  5
580
100
AcDbEntity
  8
0
100
AcDbLine
 62
7
  6
CONTINUOUS
 10
-4.1204455214
 20
12.849147
 11
-4.4310405214
 21
12.849147
  0
LINE
  5
581
100
AcDbEntity
  8
IMPORT_IGES
100
AcDbLine
 62
7
  6
CONTINUOUS
 10
3.7326024786
 20
12.871905
 11
3.9265524786
 21
12.871905
  0
LINE
  5
582
100
AcDbEntity
  8
0
100
AcDbLine
 62
7
  6
CONTINUOUS
 10
-2.5463605214
 20
12.892015
 11
-1.9989365214
 21
12.892015
  0
LINE
  5
583
100
AcDbEntity
  8
IMPORT_IGES
100
AcDbLine
 62
7
  6
CONTINUOUS
 10
2.6378624786
 20
12.966725
 11
2.9912824786
 21
12.966725
  0
LINE
  5
584
100
AcDbEntity
  8
0
100
AcDbLine
 62
7
  6
CONTINUOUS
 10
-1.9989365214
 20
13.011724
 11
-2.5463605214
 21
13.011724
  0
LINE
  5
585
100
AcDbEntity
  8
0
100
AcDbLine
 62
7
  6
CONTINUOUS
 10
-2.5463605214
 20
13.318274
 11
-2.1532437424
 21
13.318274
  0
LINE
  5
586
100
AcDbEntity
  8
0
100
AcDbLine
 62
7
  6
CONTINUOUS
 10
-3.5591105214
 20
13.322319
 11
-3.3069966122
 21
13.322319
  0
LINE
  5
587
100
AcDbEntity
  8
IMPORT_IGES
100
AcDbLine
 62
7
  6
CONTINUOUS
 10
3.1938524786
 20
13.39988
 11
3.0440463226
 21
13.39988
  0
LINE
  5
588
100
AcDbEntity
  8
0
100
AcDbLine
 62
7
  6
CONTINUOUS
 10
-2.2897069466
 20
13.437983
 11
-2.6815175214
 21
13.437983
  0
LINE
  5
589
100
AcDbEntity
  8
0
100
AcDbLine
 62
7
  6
CONTINUOUS
 10
-3.2888769543
 20
13.437983
 11
-3.6941865214
 21
13.437983
  0
LINE
  5
58A
100
AcDbEntity
  8
0
100
AcDbLine
 62
7
  6
CONTINUOUS
 10
-4.1873365214
 20
13.437983
 11
-4.3405315214
 21
13.437983
  0
LINE
  5
58B
100
AcDbEntity
  8
0
100
AcDbLine
 62
7
  6
CONTINUOUS
 10
-4.8364315214
 20
13.437983
 11
-5.0286935214
 21
13.437983
  0
LINE
  5
58C
100
AcDbEntity
  8
RACCORDO
100
AcDbLine
 62
253
  6
CONTINUOUS
 10
10.074495652
 20
13.4727871838
 11
10.5744766139
 21
13.4727871838
  0
LWPOLYLINE
  5
58D
100
AcDbEntity
  8
IMPORT_IGES
100
AcDbPolyline
 62
7
  6
CONTINUOUS
 90
28
 70
0
 10
5.4011112368
 20
12.574515
 10
5.3612551512
 20
12.5759384736
 10
5.3240532198
 20
12.5806950784
 10
5.2895054426
 20
12.5887848144
 10
5.2575088367
 20
12.6001530276
 10
5.228166385
 20
12.614854372
 10
5.201787036
 20
12.6330528095
 10
5.1784510199
 20
12.6548348092
 10
5.1580781065
 20
12.680113902
 10
5.1407365541
 20
12.7087946429
 10
5.1263561685
 20
12.7412404546
 10
5.1150071438
 20
12.7770879143
 10
5.1069683211
 20
12.8151513084
 10
5.1021483441
 20
12.8558195694
 10
5.100638569
 20
12.8987037648
 10
5.1029919055
 20
12.9414513835
 10
5.1094083698
 20
12.9843994633
 10
5.1196879458
 20
13.0272109663
 10
5.1337834946
 20
13.0665222689
 10
5.152072607
 20
13.1014191955
 10
5.1741776922
 20
13.1328159216
 10
5.1989188383
 20
13.1600913501
 10
5.2259299599
 20
13.1830336365
 10
5.2555771426
 20
13.2018546253
 10
5.2877787314
 20
13.2165687524
 10
5.3225075083
 20
13.2271808299
 10
5.3597906913
 20
13.2336860457
 10
5.3996282806
 20
13.2360843999
  0
LWPOLYLINE
  5
58E
100
AcDbEntity
  8
IMPORT_IGES
100
AcDbPolyline
 62
7
  6
CONTINUOUS
 90
28
 70
0
 10
6.5992912368
 20
12.574515
 10
6.5594351512
 20
12.5759384736
 10
6.5222332198
 20
12.5806950784
 10
6.4876854426
 20
12.5887848144
 10
6.4556888367
 20
12.6001530276
 10
6.426346385
 20
12.614854372
 10
6.399967036
 20
12.6330528095
 10
6.3766310199
 20
12.6548348092
 10
6.3562581065
 20
12.680113902
 10
6.3389165541
 20
12.7087946429
 10
6.3245361685
 20
12.7412404546
 10
6.3131871438
 20
12.7770879143
 10
6.3051483211
 20
12.8151513084
 10
6.3003283441
 20
12.8558195694
 10
6.298818569
 20
12.8987037648
 10
6.3011719055
 20
12.9414513835
 10
6.3075883698
 20
12.9843994633
 10
6.3178679458
 20
13.0272109663
 10
6.3319634946
 20
13.0665222689
 10
6.350252607
 20
13.1014191955
 10
6.3723576922
 20
13.1328159216
 10
6.3970988383
 20
13.1600913501
 10
6.4241099599
 20
13.1830336365
 10
6.4537571426
 20
13.2018546253
 10
6.4859587314
 20
13.2165687524
 10
6.5206875083
 20
13.2271808299
 10
6.5579706913
 20
13.2336860457
 10
6.5978082806
 20
13.2360843999
  0
LWPOLYLINE
  5
58F
100
AcDbEntity
  8
0
100
AcDbPolyline
 62
7
  6
CONTINUOUS
 90
16
 70
0
 10
-3.3069966122
 20
13.322319
 10
-3.2685949772
 20
13.3202421794
 10
-3.2328418623
 20
13.3145893485
 10
-3.1997372673
 20
13.3053605072
 10
-3.1693499077
 20
13.2925236679
 10
-3.141611068
 20
13.2761108182
 10
-3.1163146024
 20
13.2562179211
 10
-3.0932761945
 20
13.2327853898
 10
-3.0726801608
 20
13.2058728112
 10
-3.0548733043
 20
13.1757549089
 10
-3.03997259
 20
13.1421590333
 10
-3.0278610529
 20
13.1053578342
 10
-3.0185346009
 20
13.066443984
 10
-3.0119918698
 20
13.025781707
 10
-3.0082342238
 20
12.983006779
 10
-3.0072616627
 20
12.9381192
  0
LWPOLYLINE
  5
590
100
AcDbEntity
  8
IMPORT_IGES
100
AcDbPolyline
 62
7
  6
CONTINUOUS
 90
28
 70
0
 10
5.3996282806
 20
13.2360843999
 10
5.4423009758
 20
13.2336312777
 10
5.4818476886
 20
13.2272264312
 10
5.5182684191
 20
13.2168698603
 10
5.5516210173
 20
13.2023897464
 10
5.5818476331
 20
13.1839579081
 10
5.6087747166
 20
13.1620898015
 10
5.6324603788
 20
13.1368578203
 10
5.6528465087
 20
13.1081895709
 10
5.6695852231
 20
13.0763833285
 10
5.6824211168
 20
13.04084149
 10
5.6916095951
 20
13.0021616584
 10
5.6975689909
 20
12.9624349186
 10
5.7003529567
 20
12.9214405595
 10
5.6999078401
 20
12.8793992921
 10
5.6964910167
 20
12.8390643342
 10
5.6904272211
 20
12.8009540254
 10
5.6813917188
 20
12.7645500261
 10
5.6686676816
 20
12.7310505348
 10
5.6518551922
 20
12.7007511179
 10
5.6313541679
 20
12.6733562089
 10
5.607647533
 20
12.6491773082
 10
5.5808201332
 20
12.6282348444
 10
5.5507871227
 20
12.6105083888
 10
5.5177768891
 20
12.5962481552
 10
5.4818655615
 20
12.5855375481
 10
5.4429770107
 20
12.5782931631
 10
5.4011112368
 20
12.574515
  0
LWPOLYLINE
  5
591
100
AcDbEntity
  8
IMPORT_IGES
100
AcDbPolyline
 62
7
  6
CONTINUOUS
 90
28
 70
0
 10
6.5978082806
 20
13.2360843999
 10
6.6404809758
 20
13.2336312777
 10
6.6800276886
 20
13.2272264312
 10
6.7164484191
 20
13.2168698603
 10
6.7498010173
 20
13.2023897464
 10
6.7800276331
 20
13.1839579081
 10
6.8069547166
 20
13.1620898015
 10
6.8306403788
 20
13.1368578203
 10
6.8510265087
 20
13.1081895709
 10
6.8677652231
 20
13.0763833285
 10
6.8806011168
 20
13.04084149
 10
6.8897895951
 20
13.0021616584
 10
6.8957489909
 20
12.9624349186
 10
6.8985329567
 20
12.9214405595
 10
6.8980878401
 20
12.8793992921
 10
6.8946710167
 20
12.8390643342
 10
6.8886072211
 20
12.8009540254
 10
6.8795717188
 20
12.7645500261
 10
6.8668476816
 20
12.7310505348
 10
6.8500351922
 20
12.7007511179
 10
6.8295341679
 20
12.6733562089
 10
6.805827533
 20
12.6491773082
 10
6.7790001332
 20
12.6282348444
 10
6.7489671227
 20
12.6105083888
 10
6.7159568891
 20
12.5962481552
 10
6.6800455615
 20
12.5855375481
 10
6.6411570107
 20
12.5782931631
 10
6.5992912368
 20
12.574515
  0
LINE
  5
592
100
AcDbEntity
  8
0
100
AcDbLine
 62
7
  6
CONTINUOUS
 10
14.3707891742
 20
10.8324714129
 11
14.5855743116
 21
10.7863634793
  0
LINE
  5
593
100
AcDbEntity
  8
0
100
AcDbLine
 62
7
  6
CONTINUOUS
 10
11.6692016546
 20
10.2369155566
 11
11.991175783
 21
10.1675285871
  0
LWPOLYLINE
  5
594
100
AcDbEntity
  8
0
100
AcDbPolyline
 62
7
  6
CONTINUOUS
 90
3
 70
0
 10
14.5855743116
 20
10.7863634793
 10
14.7996549318
 20
10.7396889864
 10
14.8530002145
 20
10.7279452996
  0
LINE
  5
595
100
AcDbEntity
  8
0
100
AcDbLine
 62
7
  6
CONTINUOUS
 10
11.5089647426
 20
10.2720547004
 11
11.6692016546
 21
10.2369155566
  0
LINE
  5
596
100
AcDbEntity
  8
ASSI
100
AcDbLine
 62
7
  6
CONTINUOUS
 10
6.2972014786
 20
16.292689
 11
6.7080884786
 21
15.50001
  0
LINE
  5
597
100
AcDbEntity
  8
ASSI
100
AcDbLine
 62
7
  6
CONTINUOUS
 10
7.1699074786
 20
15.500015
 11
6.7334665906
 21
16.341998713
  0
LINE
  5
598
100
AcDbEntity
  8
RACCORDO
100
AcDbLine
 62
7
  6
CONTINUOUS
 10
14.5812163724
 20
-12.5491007402
 11
14.5812163724
 21
-12.6148346102
  0
LINE
  5
599
100
AcDbEntity
  8
RACCORDO
100
AcDbLine
 62
7
  6
CONTINUOUS
 10
16.4018933295
 20
5.2209108509
 11
16.4018933295
 21
-4.2209277741
  0
LINE
  5
59A
100
AcDbEntity
  8
DRAFT
100
AcDbLine
 62
7
  6
CONTINUOUS
 10
16.4106200742
 20
-3.7540724809
 11
16.4106200742
 21
3.7540724809
  0
LINE
  5
59B
100
AcDbEntity
  8
RACCORDO
100
AcDbLine
 62
7
  6
CONTINUOUS
 10
16.416437904
 20
6.2296545191
 11
16.416437904
 21
10.1963698875
  0
LINE
  5
59C
100
AcDbEntity
  8
ASSI
100
AcDbLine
 62
253
  6
CONTINUOUS
 10
16.425732735
 20
-20.9947845258
 11
16.425732735
 21
-12.6565778632
  0
LINE
  5
59D
100
AcDbEntity
  8
RACCORDO
100
AcDbLine
 62
253
  6
CONTINUOUS
 10
16.425732735
 20
-20.9947845258
 11
16.425732735
 21
-12.6565778632
  0
LINE
  5
59E
100
AcDbEntity
  8
ASSI
100
AcDbLine
 62
253
  6
CONTINUOUS
 10
16.425732735
 20
12.6565778632
 11
16.425732735
 21
20.9947845258
  0
LINE
  5
59F
100
AcDbEntity
  8
RACCORDO
100
AcDbLine
 62
253
  6
CONTINUOUS
 10
16.425732735
 20
12.6565778632
 11
16.425732735
 21
20.9947845258
  0
LINE
  5
5A0
100
AcDbEntity
  8
DRAFT
100
AcDbLine
 62
7
  6
CONTINUOUS
 10
16.4309824786
 20
10.5
 11
16.4309824786
 21
3.7744348852
  0
LINE
  5
5A1
100
AcDbEntity
  8
RACCORDO
100
AcDbLine
 62
7
  6
CONTINUOUS
 10
16.4309824786
 20
-4.2500169231
 11
16.4309824786
 21
-3.7744348852
  0
LINE
  5
5A2
100
AcDbEntity
  8
0
100
AcDbLine
 62
7
  6
CONTINUOUS
 10
10.1386334063
 20
-10.212659289
 11
9.9678110577
 21
-10.3834816377
  0
LINE
  5
5A3
100
AcDbEntity
  8
0
100
AcDbLine
 62
7
  6
CONTINUOUS
 10
8.814887543
 20
-11.5364051524
 11
8.6436417676
 21
-11.7076509278
  0
LINE
  5
5A4
100
AcDbEntity
  8
0
100
AcDbLine
 62
7
  6
CONTINUOUS
 10
11.9727750561
 20
-9.0856244204
 11
10.7006287782
 21
-10.3577706983
  0
LINE
  5
5A5
100
AcDbEntity
  8
0
100
AcDbLine
 62
7
  6
CONTINUOUS
 10
8.7902328829
 20
-12.2681665936
 11
7.5171238136
 21
-13.5412756629
  0
LINE
  5
5A6
100
AcDbEntity
  8
RACCORDO
100
AcDbLine
 62
253
  6
CONTINUOUS
 10
8.8211245052
 20
-13.572122542
 11
12.0031050205
 21
-10.3901420266
  0
LINE
  5
5A7
100
AcDbEntity
  8
RACCORDO
100
AcDbLine
 62
7
  6
CONTINUOUS
 10
9.0332484622
 20
-13.784246499
 11
12.2152289775
 21
-10.6022659836
  0
LINE
  5
5A8
100
AcDbEntity
  8
DRAFT
100
AcDbLine
 62
7
  6
CONTINUOUS
 10
9.0375841964
 20
-13.7885822331
 11
12.2195647117
 21
-10.6066017178
  0
LINE
  5
5A9
100
AcDbEntity
  8
DRAFT
100
AcDbLine
 62
7
  6
CONTINUOUS
 10
-13.1632096633
 20
15.1556015752
 11
-13.189219813
 21
15.1556015752
  0
LINE
  5
5AA
100
AcDbEntity
  8
ASSI
100
AcDbLine
 62
7
  6
CONTINUOUS
 10
6.7080884786
 20
15.50001
 11
7.1699074786
 21
15.500015
  0
LINE
  5
5AB
100
AcDbEntity
  8
ASSI
100
AcDbLine
 62
7
  6
CONTINUOUS
 10
3.5294764786
 20
15.500005
 11
3.9394914786
 21
15.50001
  0
LINE
  5
5AC
100
AcDbEntity
  8
ASSI
100
AcDbLine
 62
7
  6
CONTINUOUS
 10
2.0484634786
 20
15.500005
 11
2.4584684786
 21
15.50001
  0
LINE
  5
5AD
100
AcDbEntity
  8
ASSI
100
AcDbLine
 62
7
  6
CONTINUOUS
 10
0.4307834786
 20
15.5
 11
0.8407984786
 21
15.500005
  0
LINE
  5
5AE
100
AcDbEntity
  8
ASSI
100
AcDbLine
 62
7
  6
CONTINUOUS
 10
1.2508034786
 20
15.500005
 11
1.6608194786
 21
15.500005
  0
LINE
  5
5AF
100
AcDbEntity
  8
ASSI
100
AcDbLine
 62
7
  6
CONTINUOUS
 10
2.8461184786
 20
15.500005
 11
3.2561344786
 21
15.500005
  0
LINE
  5
5B0
100
AcDbEntity
  8
ASSI
100
AcDbLine
 62
7
  6
CONTINUOUS
 10
5.5292814786
 20
15.50001
 11
5.9393024786
 21
15.50001
  0
LINE
  5
5B1
100
AcDbEntity
  8
ASSI
100
AcDbLine
 62
7
  6
CONTINUOUS
 10
-0.9108035214
 20
15.5
 11
-0.5007725214
 21
15.500005
  0
LINE
  5
5B2
100
AcDbEntity
  8
ASSI
100
AcDbLine
 62
7
  6
CONTINUOUS
 10
4.8459194786
 20
15.50001
 11
5.2559394786
 21
15.500005
  0
LINE
  5
5B3
100
AcDbEntity
  8
ASSI
100
AcDbLine
 62
7
  6
CONTINUOUS
 10
4.0689334786
 20
15.903174
 11
4.7164824786
 21
15.903174
  0
LINE
  5
5B4
100
AcDbEntity
  8
RACCORDO
100
AcDbLine
 62
7
  6
CONTINUOUS
 10
-14.1181182616
 20
16.1502338939
 11
-14.1838521317
 21
16.1502338939
  0
LINE
  5
5B5
100
AcDbEntity
  8
ASSI
100
AcDbLine
 62
7
  6
CONTINUOUS
 10
4.5914114786
 20
16.292689
 11
4.1939984786
 21
16.292689
  0
LINE
  5
5B6
100
AcDbEntity
  8
ASSI
100
AcDbLine
 62
7
  6
CONTINUOUS
 10
5.9393484786
 20
16.292694
 11
6.2972014786
 21
16.292689
  0
LWPOLYLINE
  5
5B7
100
AcDbEntity
  8
RACCORDO
100
AcDbPolyline
 62
253
  6
CONTINUOUS
 90
16
 70
0
 10
10.6691913675
 20
12.5592378812
 10
10.6516904595
 20
12.5665758535
 10
10.58051355
 20
12.6033166258
 10
10.5128118733
 20
12.6454069331
 10
10.4485871345
 20
12.6929397387
 10
10.3878376285
 20
12.7458220793
 10
10.331747696
 20
12.8031860681
 10
10.2803710347
 20
12.8651366681
 10
10.2336539469
 20
12.9315689164
 10
10.1926196804
 20
13.0013000373
 10
10.1573613242
 20
13.074447267
 10
10.1277857893
 20
13.1508933693
 10
10.1046370565
 20
13.2291038605
 10
10.0881631195
 20
13.3085672461
 10
10.0781159846
 20
13.3897950205
 10
10.074495652
 20
13.4727871838
  0
LINE
  5
5B8
100
AcDbEntity
  8
TRASH
100
AcDbLine
 62
7
  6
CONTINUOUS
 10
12.0588761849
 20
10.2611776175
 11
12.0359852017
 21
10.2718517719
  0
LINE
  5
5B9
100
AcDbEntity
  8
0
100
AcDbLine
 62
7
  6
CONTINUOUS
 10
12.6612589947
 20
9.9802765161
 11
12.6188489482
 21
10.0000529828
  0
LINE
  5
5BA
100
AcDbEntity
  8
TRASH
100
AcDbLine
 62
7
  6
CONTINUOUS
 10
14.3030887723
 20
10.7388223825
 11
14.3259797554
 21
10.7281482281
  0
LINE
  5
5BB
100
AcDbEntity
  8
0
100
AcDbLine
 62
7
  6
CONTINUOUS
 10
13.7007059624
 20
11.0197234839
 11
13.7431160089
 21
10.9999470172
  0
LINE
  5
5BC
100
AcDbEntity
  8
0
100
AcDbLine
 62
7
  6
CONTINUOUS
 10
12.1019521378
 20
10.2410083925
 11
12.0588758252
 21
10.261175259
  0
LINE
  5
5BD
100
AcDbEntity
  8
0
100
AcDbLine
 62
7
  6
CONTINUOUS
 10
14.2600128193
 20
10.7589916075
 11
14.3030891319
 21
10.738824741
  0
LINE
  5
5BE
100
AcDbEntity
  8
0
100
AcDbLine
 62
7
  6
CONTINUOUS
 10
12.5809824786
 20
10.0177101929
 11
12.1019521378
 21
10.2410083925
  0
LINE
  5
5BF
100
AcDbEntity
  8
0
100
AcDbLine
 62
7
  6
CONTINUOUS
 10
13.7809824786
 20
10.9822898071
 11
14.2600128193
 21
10.7589916075
  0
LINE
  5
5C0
100
AcDbEntity
  8
0
100
AcDbLine
 62
7
  6
CONTINUOUS
 10
12.6188489482
 20
10.0000529828
 11
12.6605778304
 21
9.9795953518
  0
LINE
  5
5C1
100
AcDbEntity
  8
0
100
AcDbLine
 62
7
  6
CONTINUOUS
 10
13.7431160089
 20
10.9999470172
 11
13.7013871267
 21
11.0204046482
  0
LINE
  5
5C2
100
AcDbEntity
  8
0
100
AcDbLine
 62
7
  6
CONTINUOUS
 10
12.5536849693
 20
9.8727024837
 11
12.5165980662
 21
9.8911004425
  0
LINE
  5
5C3
100
AcDbEntity
  8
0
100
AcDbLine
 62
7
  6
CONTINUOUS
 10
13.8082799878
 20
11.1272975163
 11
13.8453668909
 21
11.1088995575
  0
LINE
  5
5C4
100
AcDbEntity
  8
0
100
AcDbLine
 62
7
  6
CONTINUOUS
 10
12.5165980662
 20
9.8911004425
 11
12.4432186996
 21
9.9282273128
  0
LINE
  5
5C5
100
AcDbEntity
  8
0
100
AcDbLine
 62
7
  6
CONTINUOUS
 10
13.8453668909
 20
11.1088995575
 11
13.9187462575
 21
11.0717726872
  0
LINE
  5
5C6
100
AcDbEntity
  8
0
100
AcDbLine
 62
7
  6
CONTINUOUS
 10
12.4432186996
 20
9.9282273128
 11
12.3702219952
 21
9.9654705024
  0
LINE
  5
5C7
100
AcDbEntity
  8
0
100
AcDbLine
 62
7
  6
CONTINUOUS
 10
13.9187462575
 20
11.0717726872
 11
13.991742962
 21
11.0345294976
  0
LINE
  5
5C8
100
AcDbEntity
  8
0
100
AcDbLine
 62
7
  6
CONTINUOUS
 10
12.3702219952
 20
9.9654705024
 11
12.2613719435
 21
10.0217901362
  0
LINE
  5
5C9
100
AcDbEntity
  8
0
100
AcDbLine
 62
7
  6
CONTINUOUS
 10
13.991742962
 20
11.0345294976
 11
14.1005930137
 21
10.9782098638
  0
LWPOLYLINE
  5
5CA
100
AcDbEntity
  8
0
100
AcDbPolyline
 62
7
  6
CONTINUOUS
 90
3
 70
0
 10
12.2613719435
 20
10.0217901362
 10
12.1171621397
 20
10.0975856482
 10
12.0093774976
 20
10.1549273753
  0
LWPOLYLINE
  5
5CB
100
AcDbEntity
  8
0
100
AcDbPolyline
 62
7
  6
CONTINUOUS
 90
3
 70
0
 10
14.1005930137
 20
10.9782098638
 10
14.2448028174
 20
10.9024143518
 10
14.3525874595
 20
10.8450726247
  0
LINE
  5
5CC
100
AcDbEntity
  8
0
100
AcDbLine
 62
7
  6
CONTINUOUS
 10
11.991175783
 20
10.1675285871
 11
12.0093774976
 21
10.1549273753
  0
LINE
  5
5CD
100
AcDbEntity
  8
0
100
AcDbLine
 62
7
  6
CONTINUOUS
 10
12.5809824786
 20
9.8181119898
 11
12.5536849693
 21
9.8727024837
  0
LINE
  5
5CE
100
AcDbEntity
  8
0
100
AcDbLine
 62
7
  6
CONTINUOUS
 10
12.6605778304
 20
9.9795953518
 11
12.6810354676
 21
9.937866464
  0
LINE
  5
5CF
100
AcDbEntity
  8
0
100
AcDbLine
 62
7
  6
CONTINUOUS
 10
12.6810354676
 20
9.937866464
 11
12.6612589947
 21
9.9802765161
  0
LINE
  5
5D0
100
AcDbEntity
  8
0
100
AcDbLine
 62
7
  6
CONTINUOUS
 10
12.0588761916
 20
10.7388223726
 11
12.0093775896
 21
10.8450726739
  0
LINE
  5
5D1
100
AcDbEntity
  8
0
100
AcDbLine
 62
7
  6
CONTINUOUS
 10
12.0359852084
 20
10.7281482181
 11
11.9909347295
 21
10.8323044581
  0
LWPOLYLINE
  5
5D2
100
AcDbEntity
  8
ASSI
100
AcDbPolyline
 62
253
  6
CONTINUOUS
 90
25
 70
0
 10
16.425732735
 20
20.9947845258
 10
16.420271799
 20
21.1589385145
 10
16.4043319399
 20
21.3211541923
 10
16.3779131578
 20
21.4814315591
 10
16.3408176674
 20
21.6404779141
 10
16.2932432539
 20
21.7975859581
 10
16.2357832734
 20
21.9506337945
 10
16.1682998022
 20
22.099545419
 10
16.090930764
 20
22.2443968358
 10
16.0046832858
 20
22.3832941602
 10
15.9094538398
 20
22.5161388945
 10
15.8053459537
 20
22.6430295363
 10
15.6936773378
 20
22.7623676937
 10
15.5743530307
 20
22.8740624876
 10
15.4474679937
 20
22.9782047971
 10
15.3146248215
 20
23.0734688674
 10
15.1757252378
 20
23.1597494527
 10
15.0308675189
 20
23.2371517988
 10
14.8819490884
 20
23.3046658886
 10
14.7289058062
 20
23.362152337
 10
14.5718018125
 20
23.4097505292
 10
14.412726951
 20
23.4468686034
 10
14.2523778365
 20
23.4733092724
 10
14.0900578543
 20
23.4892698234
 10
13.9257670044
 20
23.4947502565
  0
LWPOLYLINE
  5
5D3
100
AcDbEntity
  8
RACCORDO
100
AcDbPolyline
 62
253
  6
CONTINUOUS
 90
25
 70
0
 10
16.425732735
 20
20.9947845258
 10
16.420271799
 20
21.1589385145
 10
16.4043319399
 20
21.3211541923
 10
16.3779131578
 20
21.4814315591
 10
16.3408176674
 20
21.6404779141
 10
16.2932432539
 20
21.7975859581
 10
16.2357832734
 20
21.9506337945
 10
16.1682998022
 20
22.099545419
 10
16.090930764
 20
22.2443968358
 10
16.0046832858
 20
22.3832941602
 10
15.9094538398
 20
22.5161388945
 10
15.8053459537
 20
22.6430295363
 10
15.6936773378
 20
22.7623676937
 10
15.5743530307
 20
22.8740624876
 10
15.4474679937
 20
22.9782047971
 10
15.3146248215
 20
23.0734688674
 10
15.1757252378
 20
23.1597494527
 10
15.0308675189
 20
23.2371517988
 10
14.8819490884
 20
23.3046658886
 10
14.7289058062
 20
23.362152337
 10
14.5718018125
 20
23.4097505292
 10
14.412726951
 20
23.4468686034
 10
14.2523778365
 20
23.4733092724
 10
14.0900578543
 20
23.4892698234
 10
13.9257670044
 20
23.4947502565
  0
LWPOLYLINE
  5
5D4
100
AcDbEntity
  8
ASSI
100
AcDbPolyline
 62
253
  6
CONTINUOUS
 90
25
 70
0
 10
17.4257190273
 20
20.9947845258
 10
17.4182192376
 20
21.2237609199
 10
17.3957593557
 20
21.4517266844
 10
17.3584413594
 20
21.6777059219
 10
17.3064363432
 20
21.9007111591
 10
17.2399697423
 20
22.1198104156
 10
17.1593068694
 20
22.3341271988
 10
17.0647668815
 20
22.5427817308
 10
16.9567628903
 20
22.7448351355
 10
16.8357902931
 20
22.9393605484
 10
16.7023944268
 20
23.1255004596
 10
16.5571343602
 20
23.3024923518
 10
16.4006117969
 20
23.4696082817
 10
16.2334959266
 20
23.6261333801
 10
16.0565023307
 20
23.7713970669
 10
15.87036056
 20
23.9047960985
 10
15.6758332825
 20
24.0257713653
 10
15.4737779819
 20
24.1337776113
 10
15.2651233049
 20
24.2283187466
 10
15.0508109864
 20
24.3089811225
 10
14.831718358
 20
24.3754472404
 10
14.6087154575
 20
24.4274534978
 10
14.3827318502
 20
24.4647738895
 10
14.1547570565
 20
24.4872358635
 10
13.9257670044
 20
24.4947365487
  0
LWPOLYLINE
  5
5D5
100
AcDbEntity
  8
RACCORDO
100
AcDbPolyline
 62
253
  6
CONTINUOUS
 90
25
 70
0
 10
17.4257190273
 20
20.9947845258
 10
17.4182192376
 20
21.2237609199
 10
17.3957593557
 20
21.4517266844
 10
17.3584413594
 20
21.6777059219
 10
17.3064363432
 20
21.9007111591
 10
17.2399697423
 20
22.1198104156
 10
17.1593068694
 20
22.3341271988
 10
17.0647668815
 20
22.5427817308
 10
16.9567628903
 20
22.7448351355
 10
16.8357902931
 20
22.9393605484
 10
16.7023944268
 20
23.1255004596
 10
16.5571343602
 20
23.3024923518
 10
16.4006117969
 20
23.4696082817
 10
16.2334959266
 20
23.6261333801
 10
16.0565023307
 20
23.7713970669
 10
15.87036056
 20
23.9047960985
 10
15.6758332825
 20
24.0257713653
 10
15.4737779819
 20
24.1337776113
 10
15.2651233049
 20
24.2283187466
 10
15.0508109864
 20
24.3089811225
 10
14.831718358
 20
24.3754472404
 10
14.6087154575
 20
24.4274534978
 10
14.3827318502
 20
24.4647738895
 10
14.1547570565
 20
24.4872358635
 10
13.9257670044
 20
24.4947365487
  0
LINE
  5
5D6
100
AcDbEntity
  8
RACCORDO
100
AcDbLine
 62
253
  6
CONTINUOUS
 10
17.3244956523
 20
-9.0987416036
 11
17.3244956523
 21
-3.5
  0
LINE
  5
5D7
100
AcDbEntity
  8
RACCORDO
100
AcDbLine
 62
253
  6
CONTINUOUS
 10
17.3244956523
 20
3.5
 11
17.3244956523
 21
7.3935131736
  0
LINE
  5
5D8
100
AcDbEntity
  8
ASSI
100
AcDbLine
 62
7
  6
CONTINUOUS
 10
17.4257190273
 20
-20.9947845258
 11
17.4257190273
 21
-11.1098690294
  0
LINE
  5
5D9
100
AcDbEntity
  8
RACCORDO
100
AcDbLine
 62
7
  6
CONTINUOUS
 10
17.4257190273
 20
-20.9947845258
 11
17.4257190273
 21
-11.1098690294
  0
LINE
  5
5DA
100
AcDbEntity
  8
ASSI
100
AcDbLine
 62
7
  6
CONTINUOUS
 10
17.4257190273
 20
11.1098690294
 11
17.4257190273
 21
20.9947845258
  0
LINE
  5
5DB
100
AcDbEntity
  8
RACCORDO
100
AcDbLine
 62
7
  6
CONTINUOUS
 10
17.4257190273
 20
11.1098690294
 11
17.4257190273
 21
20.9947845258
  0
LINE
  5
5DC
100
AcDbEntity
  8
ASSI
100
AcDbLine
 62
7
  6
CONTINUOUS
 10
17.4309824789
 20
-11.1098690294
 11
17.4309824789
 21
-11.0904154826
  0
LINE
  5
5DD
100
AcDbEntity
  8
RACCORDO
100
AcDbLine
 62
7
  6
CONTINUOUS
 10
17.4309824791
 20
-11.1098690294
 11
17.4309824791
 21
-11.0904154823
  0
LINE
  5
5DE
100
AcDbEntity
  8
ASSI
100
AcDbLine
 62
7
  6
CONTINUOUS
 10
17.4309824786
 20
11.0904154832
 11
17.4309824786
 21
11.1098690294
  0
LINE
  5
5DF
100
AcDbEntity
  8
RACCORDO
100
AcDbLine
 62
7
  6
CONTINUOUS
 10
17.4309824786
 20
11.0904154832
 11
17.4309824786
 21
11.1098690294
  0
LINE
  5
5E0
100
AcDbEntity
  8
RACCORDO
100
AcDbLine
 62
7
  6
CONTINUOUS
 10
17.8244766139
 20
-9.3058404988
 11
17.8244766139
 21
-3.5
  0
LINE
  5
5E1
100
AcDbEntity
  8
RACCORDO
100
AcDbLine
 62
7
  6
CONTINUOUS
 10
17.8244766139
 20
3.5
 11
17.8244766139
 21
7.8934941353
  0
LINE
  5
5E2
100
AcDbEntity
  8
DRAFT
100
AcDbLine
 62
7
  6
CONTINUOUS
 10
17.9030565016
 20
10.1789179246
 11
17.9030565016
 21
7.9720740231
  0
LINE
  5
5E3
100
AcDbEntity
  8
DRAFT
100
AcDbLine
 62
7
  6
CONTINUOUS
 10
17.9030565016
 20
-9.338389354
 11
17.9030565016
 21
-10.1789179246
  0
LINE
  5
5E4
100
AcDbEntity
  8
DRAFT
100
AcDbLine
 62
7
  6
CONTINUOUS
 10
17.9309824786
 20
10.1857743937
 11
17.9309824786
 21
3.5
  0
LINE
  5
5E5
100
AcDbEntity
  8
DRAFT
100
AcDbLine
 62
7
  6
CONTINUOUS
 10
17.9309824786
 20
-3.5
 11
17.9309824786
 21
-10.1857743937
  0
LINE
  5
5E6
100
AcDbEntity
  8
0
100
AcDbLine
 62
253
  6
CONTINUOUS
 10
18.1309824786
 20
3.5
 11
18.1309824786
 21
-3.5
  0
LINE
  5
5E7
100
AcDbEntity
  8
ASSI
100
AcDbLine
 62
7
  6
CONTINUOUS
 10
9.9916755774
 20
-15.16794323
 11
13.5989257086
 21
-11.5606930989
  0
LINE
  5
5E8
100
AcDbEntity
  8
RACCORDO
100
AcDbLine
 62
253
  6
CONTINUOUS
 10
8.0297240821
 20
-18.3935131738
 11
10.6234848017
 21
-15.7997524542
  0
LINE
  5
5E9
100
AcDbEntity
  8
RACCORDO
100
AcDbLine
 62
253
  6
CONTINUOUS
 10
14.2307349328
 20
-12.1925023231
 11
17.3244956523
 21
-9.0987416036
  0
LINE
  5
5EA
100
AcDbEntity
  8
ASSI
100
AcDbLine
 62
7
  6
CONTINUOUS
 10
6.4324938599
 20
16.671959
 11
5.9336494786
 21
16.671959
  0
LINE
  5
5EB
100
AcDbEntity
  8
ASSI
100
AcDbLine
 62
7
  6
CONTINUOUS
 10
5.9336444786
 20
17.170837
 11
6.4324850973
 21
17.170837
  0
LINE
  5
5EC
100
AcDbEntity
  8
ASSI
100
AcDbLine
 62
7
  6
CONTINUOUS
 10
3.2561344786
 20
17.550097
 11
2.6363014786
 21
17.550097
  0
LINE
  5
5ED
100
AcDbEntity
  8
ASSI
100
AcDbLine
 62
7
  6
CONTINUOUS
 10
1.8706364786
 20
17.550097
 11
1.2508034786
 21
17.550097
  0
LINE
  5
5EE
100
AcDbEntity
  8
ASSI
100
AcDbLine
 62
7
  6
CONTINUOUS
 10
0.8408034786
 20
17.550097
 11
0.4307884786
 21
17.550097
  0
LINE
  5
5EF
100
AcDbEntity
  8
ASSI
100
AcDbLine
 62
7
  6
CONTINUOUS
 10
0.1574464786
 20
17.550097
 11
-0.2525745214
 21
17.550097
  0
LINE
  5
5F0
100
AcDbEntity
  8
ASSI
100
AcDbLine
 62
7
  6
CONTINUOUS
 10
-1.1589965214
 20
17.550097
 11
-1.5690175214
 21
17.550097
  0
LINE
  5
5F1
100
AcDbEntity
  8
ASSI
100
AcDbLine
 62
7
  6
CONTINUOUS
 10
6.4893993014
 20
17.550103
 11
5.5292814786
 21
17.550103
  0
LINE
  5
5F2
100
AcDbEntity
  8
ASSI
100
AcDbLine
 62
7
  6
CONTINUOUS
 10
4.5977204786
 20
17.550103
 11
4.1876844786
 21
17.550103
  0
LINE
  5
5F3
100
AcDbEntity
  8
RACCORDO
100
AcDbLine
 62
253
  6
CONTINUOUS
 10
9.3563053295
 20
18.3935131738
 11
-11.167759125
 21
18.3935131738
  0
LINE
  5
5F4
100
AcDbEntity
  8
RACCORDO
100
AcDbLine
 62
7
  6
CONTINUOUS
 10
9.4926715364
 20
18.8934941353
 11
-11.3748580202
 21
18.8934941353
  0
LINE
  5
5F5
100
AcDbEntity
  8
DRAFT
100
AcDbLine
 62
7
  6
CONTINUOUS
 10
-12.6519974519
 20
18.9720740231
 11
-11.4074068755
 21
18.9720740231
  0
LINE
  5
5F6
100
AcDbEntity
  8
DRAFT
100
AcDbLine
 62
7
  6
CONTINUOUS
 10
-12.6595540278
 20
19.0
 11
9.521518985
 21
19.0
  0
LINE
  5
5F7
100
AcDbEntity
  8
0
100
AcDbLine
 62
7
  6
CONTINUOUS
 10
14.3525874595
 20
10.8450726247
 11
14.3707891742
 21
10.8324714129
  0
LINE
  5
5F8
100
AcDbEntity
  8
0
100
AcDbLine
 62
7
  6
CONTINUOUS
 10
13.7809824786
 20
9.9000001418
 11
13.8082798852
 21
9.8727027659
  0
LINE
  5
5F9
100
AcDbEntity
  8
0
100
AcDbLine
 62
7
  6
CONTINUOUS
 10
12.5809824786
 20
11.0999998582
 11
12.553685072
 21
11.1272972341
  0
LINE
  5
5FA
100
AcDbEntity
  8
0
100
AcDbLine
 62
7
  6
CONTINUOUS
 10
13.7007059627
 20
9.9802765158
 11
13.7013871267
 21
9.9795953519
  0
LINE
  5
5FB
100
AcDbEntity
  8
0
100
AcDbLine
 62
7
  6
CONTINUOUS
 10
12.6612589944
 20
11.0197234842
 11
12.6605778304
 21
11.0204046481
  0
LINE
  5
5FC
100
AcDbEntity
  8
0
100
AcDbLine
 62
7
  6
CONTINUOUS
 10
13.7809824786
 20
11.1818880102
 11
13.8082799878
 21
11.1272975163
  0
LINE
  5
5FD
100
AcDbEntity
  8
0
100
AcDbLine
 62
7
  6
CONTINUOUS
 10
13.7013871267
 20
11.0204046482
 11
13.6809294895
 21
11.062133536
  0
LINE
  5
5FE
100
AcDbEntity
  8
0
100
AcDbLine
 62
7
  6
CONTINUOUS
 10
13.6809294895
 20
11.062133536
 11
13.7007059624
 21
11.0197234839
  0
LINE
  5
5FF
100
AcDbEntity
  8
0
100
AcDbLine
 62
7
  6
CONTINUOUS
 10
14.3030887656
 20
10.2611776274
 11
14.3525873675
 21
10.1549273261
  0
LINE
  5
600
100
AcDbEntity
  8
0
100
AcDbLine
 62
7
  6
CONTINUOUS
 10
14.3259797487
 20
10.2718517819
 11
14.3710302265
 21
10.1676955411
  0
LINE
  5
601
100
AcDbEntity
  8
0
100
AcDbLine
 62
7
  6
CONTINUOUS
 10
19.4309824786
 20
-3.5
 11
19.4309824786
 21
3.5
  0
LWPOLYLINE
  5
602
100
AcDbEntity
  8
ASSI
100
AcDbPolyline
 62
7
  6
CONTINUOUS
 90
15
 70
0
 10
19.7522956175
 20
-2.7540071297
 10
19.7578923516
 20
-2.6938993593
 10
19.7588463569
 20
-2.6339115991
 10
19.7551576334
 20
-2.574043849
 10
19.7468517761
 20
-2.5139573277
 10
19.7339031899
 20
-2.4539908166
 10
19.71623509
 20
-2.3951606598
 10
19.6936686199
 20
-2.3373311355
 10
19.6663826361
 20
-2.2806379655
 10
19.6348369229
 20
-2.2265046595
 10
19.5990692232
 20
-2.175152631
 10
19.5590417941
 20
-2.1263604666
 10
19.515101191
 20
-2.0808874351
 10
19.4673615656
 20
-2.0387152281
 10
19.4309824786
 20
-2.0113509927
  0
LWPOLYLINE
  5
603
100
AcDbEntity
  8
RACCORDO
100
AcDbPolyline
 62
7
  6
CONTINUOUS
 90
15
 70
0
 10
19.7522956175
 20
-2.7540071297
 10
19.7578923516
 20
-2.6938993593
 10
19.7588463569
 20
-2.6339115991
 10
19.7551576334
 20
-2.574043849
 10
19.7468517761
 20
-2.5139573277
 10
19.7339031899
 20
-2.4539908166
 10
19.71623509
 20
-2.3951606598
 10
19.6936686199
 20
-2.3373311355
 10
19.6663826361
 20
-2.2806379655
 10
19.6348369229
 20
-2.2265046595
 10
19.5990692232
 20
-2.175152631
 10
19.5590417941
 20
-2.1263604666
 10
19.515101191
 20
-2.0808874351
 10
19.4673615656
 20
-2.0387152281
 10
19.4309824786
 20
-2.0113509927
  0
LWPOLYLINE
  5
604
100
AcDbEntity
  8
ASSI
100
AcDbPolyline
 62
7
  6
CONTINUOUS
 90
5
 70
0
 10
17.3741993634
 20
-11.1945017313
 10
17.4068635525
 20
-11.1400986063
 10
17.4171397089
 20
-11.1232702023
 10
17.4234163116
 20
-11.1131936766
 10
17.4257190273
 20
-11.1098690294
  0
LWPOLYLINE
  5
605
100
AcDbEntity
  8
RACCORDO
100
AcDbPolyline
 62
7
  6
CONTINUOUS
 90
5
 70
0
 10
17.3741993634
 20
-11.1945017313
 10
17.4068635525
 20
-11.1400986063
 10
17.4171397089
 20
-11.1232702023
 10
17.4234163116
 20
-11.1131936766
 10
17.4257190273
 20
-11.1098690294
  0
LINE
  5
606
100
AcDbEntity
  8
ASSI
100
AcDbLine
 62
7
  6
CONTINUOUS
 10
17.2967992416
 20
-11.3226554968
 11
17.3741993634
 21
-11.1945017313
  0
LINE
  5
607
100
AcDbEntity
  8
RACCORDO
100
AcDbLine
 62
7
  6
CONTINUOUS
 10
17.2967992416
 20
-11.3226554968
 11
17.3741993634
 21
-11.1945017313
  0
LINE
  5
608
100
AcDbEntity
  8
ASSI
100
AcDbLine
 62
7
  6
CONTINUOUS
 10
17.1896524113
 20
-11.4976974417
 11
17.2967992416
 21
-11.3226554968
  0
LINE
  5
609
100
AcDbEntity
  8
RACCORDO
100
AcDbLine
 62
7
  6
CONTINUOUS
 10
17.1896524113
 20
-11.4976974417
 11
17.2967992416
 21
-11.3226554968
  0
LWPOLYLINE
  5
60A
100
AcDbEntity
  8
ASSI
100
AcDbPolyline
 62
7
  6
CONTINUOUS
 90
4
 70
0
 10
17.0089218377
 20
-11.7857288749
 10
17.0580661235
 20
-11.7083135474
 10
17.1043130736
 20
-11.6345689478
 10
17.1896524113
 20
-11.4976974417
  0
LWPOLYLINE
  5
60B
100
AcDbEntity
  8
RACCORDO
100
AcDbPolyline
 62
7
  6
CONTINUOUS
 90
4
 70
0
 10
17.0089218377
 20
-11.7857288749
 10
17.0580661235
 20
-11.7083135474
 10
17.1043130736
 20
-11.6345689478
 10
17.1896524113
 20
-11.4976974417
  0
LWPOLYLINE
  5
60C
100
AcDbEntity
  8
ASSI
100
AcDbPolyline
 62
7
  6
CONTINUOUS
 90
3
 70
0
 10
16.8445497307
 20
-12.0400050031
 10
16.9024602763
 20
-11.9513522041
 10
17.0089218377
 20
-11.7857288749
  0
LWPOLYLINE
  5
60D
100
AcDbEntity
  8
RACCORDO
100
AcDbPolyline
 62
7
  6
CONTINUOUS
 90
3
 70
0
 10
16.8445497307
 20
-12.0400050031
 10
16.9024602763
 20
-11.9513522041
 10
17.0089218377
 20
-11.7857288749
  0
LWPOLYLINE
  5
60E
100
AcDbEntity
  8
ASSI
100
AcDbPolyline
 62
7
  6
CONTINUOUS
 90
4
 70
0
 10
16.6180849698
 20
-12.378268065
 10
16.6509936693
 20
-12.3303330648
 10
16.719060489
 20
-12.2295612884
 10
16.8445497307
 20
-12.0400050031
  0
LWPOLYLINE
  5
60F
100
AcDbEntity
  8
RACCORDO
100
AcDbPolyline
 62
7
  6
CONTINUOUS
 90
4
 70
0
 10
16.6180849698
 20
-12.378268065
 10
16.6509936693
 20
-12.3303330648
 10
16.719060489
 20
-12.2295612884
 10
16.8445497307
 20
-12.0400050031
  0
LINE
  5
610
100
AcDbEntity
  8
RACCORDO
100
AcDbLine
 62
7
  6
CONTINUOUS
 10
8.2368229773
 20
-18.8934941353
 11
10.9800832188
 21
-16.1502338939
  0
LINE
  5
611
100
AcDbEntity
  8
RACCORDO
100
AcDbLine
 62
7
  6
CONTINUOUS
 10
14.5812163724
 20
-12.5491007402
 11
17.8244766139
 21
-9.3058404988
  0
LINE
  5
612
100
AcDbEntity
  8
DRAFT
100
AcDbLine
 62
7
  6
CONTINUOUS
 10
8.2693718326
 20
-18.9720740231
 11
17.9030565016
 21
-9.338389354
  0
LINE
  5
613
100
AcDbEntity
  8
ASSI
100
AcDbLine
 62
253
  6
CONTINUOUS
 10
16.425732735
 20
20.9947845258
 11
17.4257190273
 21
20.9947845234
  0
LINE
  5
614
100
AcDbEntity
  8
RACCORDO
100
AcDbLine
 62
253
  6
CONTINUOUS
 10
16.425732735
 20
20.9947845258
 11
17.4257190273
 21
20.9947845234
  0
LINE
  5
615
100
AcDbEntity
  8
ASSI
100
AcDbLine
 62
253
  6
CONTINUOUS
 10
-19.5637677779
 20
20.9947845258
 11
-20.5637540701
 21
20.9947845258
  0
LINE
  5
616
100
AcDbEntity
  8
RACCORDO
100
AcDbLine
 62
253
  6
CONTINUOUS
 10
-19.5637677779
 20
20.9947845258
 11
-20.5637540701
 21
20.9947845258
  0
LWPOLYLINE
  5
617
100
AcDbEntity
  8
ASSI
100
AcDbPolyline
 62
7
  6
CONTINUOUS
 90
4
 70
0
 10
17.4257190273
 20
11.1098690294
 10
17.4234115642
 20
11.1131980114
 10
17.4171205008
 20
11.1232991302
 10
17.4068188628
 20
11.1401723858
  0
LWPOLYLINE
  5
618
100
AcDbEntity
  8
RACCORDO
100
AcDbPolyline
 62
7
  6
CONTINUOUS
 90
4
 70
0
 10
17.4257190273
 20
11.1098690294
 10
17.4234115642
 20
11.1131980114
 10
17.4171205008
 20
11.1232991302
 10
17.4068188628
 20
11.1401723858
  0
LWPOLYLINE
  5
619
100
AcDbEntity
  8
ASSI
100
AcDbPolyline
 62
7
  6
CONTINUOUS
 90
3
 70
0
 10
16.7191048622
 20
12.2294944817
 10
16.6510415637
 20
12.3302623965
 10
16.618096653
 20
12.3782504855
  0
LWPOLYLINE
  5
61A
100
AcDbEntity
  8
RACCORDO
100
AcDbPolyline
 62
7
  6
CONTINUOUS
 90
3
 70
0
 10
16.7191048622
 20
12.2294944817
 10
16.6510415637
 20
12.3302623965
 10
16.618096653
 20
12.3782504855
  0
LWPOLYLINE
  5
61B
100
AcDbEntity
  8
ASSI
100
AcDbPolyline
 62
7
  6
CONTINUOUS
 90
3
 70
0
 10
16.9025102183
 20
11.9512751948
 10
16.844584733
 20
12.0399516262
 10
16.7191048622
 20
12.2294944817
  0
LWPOLYLINE
  5
61C
100
AcDbEntity
  8
RACCORDO
100
AcDbPolyline
 62
7
  6
CONTINUOUS
 90
3
 70
0
 10
16.9025102183
 20
11.9512751948
 10
16.844584733
 20
12.0399516262
 10
16.7191048622
 20
12.2294944817
  0
LWPOLYLINE
  5
61D
100
AcDbEntity
  8
ASSI
100
AcDbPolyline
 62
7
  6
CONTINUOUS
 90
3
 70
0
 10
17.0582207037
 20
11.7080766329
 10
17.0090242057
 20
11.7855682282
 10
16.9025102183
 20
11.9512751948
  0
LWPOLYLINE
  5
61E
100
AcDbEntity
  8
RACCORDO
100
AcDbPolyline
 62
7
  6
CONTINUOUS
 90
3
 70
0
 10
17.0582207037
 20
11.7080766329
 10
17.0090242057
 20
11.7855682282
 10
16.9025102183
 20
11.9512751948
  0
LWPOLYLINE
  5
61F
100
AcDbEntity
  8
ASSI
100
AcDbPolyline
 62
7
  6
CONTINUOUS
 90
3
 70
0
 10
17.189811744
 20
11.4974327433
 10
17.148400567
 20
11.5641431512
 10
17.0582207037
 20
11.7080766329
  0
LWPOLYLINE
  5
620
100
AcDbEntity
  8
RACCORDO
100
AcDbPolyline
 62
7
  6
CONTINUOUS
 90
3
 70
0
 10
17.189811744
 20
11.4974327433
 10
17.148400567
 20
11.5641431512
 10
17.0582207037
 20
11.7080766329
  0
LWPOLYLINE
  5
621
100
AcDbEntity
  8
ASSI
100
AcDbPolyline
 62
7
  6
CONTINUOUS
 90
3
 70
0
 10
17.3740452886
 20
11.1947818245
 10
17.2966995642
 20
11.3227996729
 10
17.189811744
 20
11.4974327433
  0
LWPOLYLINE
  5
622
100
AcDbEntity
  8
RACCORDO
100
AcDbPolyline
 62
7
  6
CONTINUOUS
 90
3
 70
0
 10
17.3740452886
 20
11.1947818245
 10
17.2966995642
 20
11.3227996729
 10
17.189811744
 20
11.4974327433
  0
LINE
  5
623
100
AcDbEntity
  8
ASSI
100
AcDbLine
 62
7
  6
CONTINUOUS
 10
17.4068188628
 20
11.1401723858
 11
17.3740452886
 21
11.1947818245
  0
LINE
  5
624
100
AcDbEntity
  8
RACCORDO
100
AcDbLine
 62
7
  6
CONTINUOUS
 10
17.4068188628
 20
11.1401723858
 11
17.3740452886
 21
11.1947818245
  0
LINE
  5
625
100
AcDbEntity
  8
ASSI
100
AcDbLine
 62
253
  6
CONTINUOUS
 10
13.9257670044
 20
23.4947502565
 11
-17.0638020473
 21
23.4947502565
  0
LINE
  5
626
100
AcDbEntity
  8
RACCORDO
100
AcDbLine
 62
253
  6
CONTINUOUS
 10
13.9257670044
 20
23.4947502565
 11
-17.0638020473
 21
23.4947502565
  0
LWPOLYLINE
  5
627
100
AcDbEntity
  8
ASSI
100
AcDbPolyline
 62
253
  6
CONTINUOUS
 90
25
 70
0
 10
-17.0638020473
 20
23.4947502565
 10
-17.2279560359
 20
23.4892893204
 10
-17.3901717137
 20
23.4733494614
 10
-17.5504490806
 20
23.4469306793
 10
-17.7094954355
 20
23.4098351888
 10
-17.8666034796
 20
23.3622607753
 10
-18.0196513159
 20
23.3048007948
 10
-18.1685629404
 20
23.2373173237
 10
-18.3134143573
 20
23.1599482855
 10
-18.4523116816
 20
23.0737008072
 10
-18.5851564159
 20
22.9784713612
 10
-18.7120470577
 20
22.8743634751
 10
-18.8313852152
 20
22.7626948592
 10
-18.9430800091
 20
22.6433705521
 10
-19.0472223185
 20
22.5164855151
 10
-19.1424863889
 20
22.3836423429
 10
-19.2287669741
 20
22.2447427592
 10
-19.3061693202
 20
22.0998850403
 10
-19.3736834101
 20
21.9509666098
 10
-19.4311698585
 20
21.7979233277
 10
-19.4787680506
 20
21.6408193339
 10
-19.5158861248
 20
21.4817444725
 10
-19.5423267938
 20
21.3213953579
 10
-19.5582873448
 20
21.1590753757
 10
-19.5637677779
 20
20.9947845258
  0
LWPOLYLINE
  5
628
100
AcDbEntity
  8
RACCORDO
100
AcDbPolyline
 62
253
  6
CONTINUOUS
 90
25
 70
0
 10
-17.0638020473
 20
23.4947502565
 10
-17.2279560359
 20
23.4892893204
 10
-17.3901717137
 20
23.4733494614
 10
-17.5504490806
 20
23.4469306793
 10
-17.7094954355
 20
23.4098351888
 10
-17.8666034796
 20
23.3622607753
 10
-18.0196513159
 20
23.3048007948
 10
-18.1685629404
 20
23.2373173237
 10
-18.3134143573
 20
23.1599482855
 10
-18.4523116816
 20
23.0737008072
 10
-18.5851564159
 20
22.9784713612
 10
-18.7120470577
 20
22.8743634751
 10
-18.8313852152
 20
22.7626948592
 10
-18.9430800091
 20
22.6433705521
 10
-19.0472223185
 20
22.5164855151
 10
-19.1424863889
 20
22.3836423429
 10
-19.2287669741
 20
22.2447427592
 10
-19.3061693202
 20
22.0998850403
 10
-19.3736834101
 20
21.9509666098
 10
-19.4311698585
 20
21.7979233277
 10
-19.4787680506
 20
21.6408193339
 10
-19.5158861248
 20
21.4817444725
 10
-19.5423267938
 20
21.3213953579
 10
-19.5582873448
 20
21.1590753757
 10
-19.5637677779
 20
20.9947845258
  0
LWPOLYLINE
  5
629
100
AcDbEntity
  8
ASSI
100
AcDbPolyline
 62
253
  6
CONTINUOUS
 90
25
 70
0
 10
-17.0638020473
 20
24.4947365487
 10
-17.2927784413
 20
24.487236759
 10
-17.5207442058
 20
24.4647768771
 10
-17.7467234433
 20
24.4274588808
 10
-17.9697286805
 20
24.3754538647
 10
-18.188827937
 20
24.3089872638
 10
-18.4031447202
 20
24.2283243909
 10
-18.6117992522
 20
24.133784403
 10
-18.813852657
 20
24.0257804117
 10
-19.0083780699
 20
23.9048078145
 10
-19.194517981
 20
23.7714119482
 10
-19.3715098733
 20
23.6261518816
 10
-19.5386258031
 20
23.4696293183
 10
-19.6951509016
 20
23.302513448
 10
-19.8404145883
 20
23.1255198521
 10
-19.9738136199
 20
22.9393780814
 10
-20.0947888867
 20
22.7448508039
 10
-20.2027951327
 20
22.5427955033
 10
-20.297336268
 20
22.3341408264
 10
-20.3779986439
 20
22.1198285078
 10
-20.4444647618
 20
21.9007358795
 10
-20.4964710193
 20
21.677732979
 10
-20.5337914109
 20
21.4517493717
 10
-20.5562533849
 20
21.223774578
 10
-20.5637540701
 20
20.9947845258
  0
LWPOLYLINE
  5
62A
100
AcDbEntity
  8
RACCORDO
100
AcDbPolyline
 62
253
  6
CONTINUOUS
 90
25
 70
0
 10
-17.0638020473
 20
24.4947365487
 10
-17.2927784413
 20
24.487236759
 10
-17.5207442058
 20
24.4647768771
 10
-17.7467234433
 20
24.4274588808
 10
-17.9697286805
 20
24.3754538647
 10
-18.188827937
 20
24.3089872638
 10
-18.4031447202
 20
24.2283243909
 10
-18.6117992522
 20
24.133784403
 10
-18.813852657
 20
24.0257804117
 10
-19.0083780699
 20
23.9048078145
 10
-19.194517981
 20
23.7714119482
 10
-19.3715098733
 20
23.6261518816
 10
-19.5386258031
 20
23.4696293183
 10
-19.6951509016
 20
23.302513448
 10
-19.8404145883
 20
23.1255198521
 10
-19.9738136199
 20
22.9393780814
 10
-20.0947888867
 20
22.7448508039
 10
-20.2027951327
 20
22.5427955033
 10
-20.297336268
 20
22.3341408264
 10
-20.3779986439
 20
22.1198285078
 10
-20.4444647618
 20
21.9007358795
 10
-20.4964710193
 20
21.677732979
 10
-20.5337914109
 20
21.4517493717
 10
-20.5562533849
 20
21.223774578
 10
-20.5637540701
 20
20.9947845258
  0
LINE
  5
62B
100
AcDbEntity
  8
ASSI
100
AcDbLine
 62
7
  6
CONTINUOUS
 10
13.9257670044
 20
24.4947365487
 11
-17.0638020473
 21
24.4947365487
  0
LINE
  5
62C
100
AcDbEntity
  8
RACCORDO
100
AcDbLine
 62
7
  6
CONTINUOUS
 10
13.9257670044
 20
24.4947365487
 11
-17.0638020473
 21
24.4947365487
  0
CIRCLE
  5
62D
100
AcDbEntity
  8
ASSI
100
AcDbCircle
 62
7
  6
CONTINUOUS
 10
-17.0690175214
 20
-21.0
 40
2.0
  0
ARC
  5
62E
100
AcDbEntity
  8
0
100
AcDbCircle
 62
7
  6
CONTINUOUS
 10
-24.0590175214
 20
-3.4033259587
 40
1.01
100
AcDbArc
 50
143.2819469458
 51
180.0
  0
ARC
  5
62F
100
AcDbEntity
  8
0
100
AcDbCircle
 62
7
  6
CONTINUOUS
 10
-24.0590175214
 20
-1.8966740413
 40
1.01
100
AcDbArc
 50
180.0
 51
216.7180530542
  0
ARC
  5
630
100
AcDbEntity
  8
0
100
AcDbCircle
 62
7
  6
CONTINUOUS
 10
-25.0690175214
 20
-2.65
 40
0.25
100
AcDbArc
 50
323.2819469458
 51
36.7180530542
  0
CIRCLE
  5
631
100
AcDbEntity
  8
ASSI
100
AcDbCircle
 62
7
  6
CONTINUOUS
 10
-8.0690175214
 20
-11.5
 40
2.5
  0
CIRCLE
  5
632
100
AcDbEntity
  8
0
100
AcDbCircle
 62
7
  6
CONTINUOUS
 10
-16.3190175214
 20
-10.5
 40
3.25
  0
ARC
  5
633
100
AcDbEntity
  8
0
100
AcDbCircle
 62
7
  6
CONTINUOUS
 10
-16.3190175214
 20
-10.5
 40
3.1450136038
100
AcDbArc
 50
259.0017981008
 51
280.9982018992
  0
ARC
  5
634
100
AcDbEntity
  8
0
100
AcDbCircle
 62
7
  6
CONTINUOUS
 10
-16.3190175214
 20
-10.5
 40
3.1450136038
100
AcDbArc
 50
79.0017981008
 51
100.9982018992
  0
ARC
  5
635
100
AcDbEntity
  8
0
100
AcDbCircle
 62
7
  6
CONTINUOUS
 10
-16.3190175214
 20
-10.5
 40
3.0760810131
100
AcDbArc
 50
101.2478419429
 51
258.7521580571
  0
ARC
  5
636
100
AcDbEntity
  8
0
100
AcDbCircle
 62
7
  6
CONTINUOUS
 10
-16.3190175214
 20
-10.5
 40
3.0760810131
100
AcDbArc
 50
281.2478419429
 51
78.7521580571
  0
ARC
  5
637
100
AcDbEntity
  8
0
100
AcDbCircle
 62
7
  6
CONTINUOUS
 10
-16.3190175214
 20
-10.5
 40
1.6874840352
100
AcDbArc
 50
172.230101045
 51
187.7632444202
  0
ARC
  5
638
100
AcDbEntity
  8
0
100
AcDbCircle
 62
7
  6
CONTINUOUS
 10
-16.3190175214
 20
-10.5
 40
1.6874840352
100
AcDbArc
 50
352.2301010241
 51
7.7632444202
  0
ARC
  5
639
100
AcDbEntity
  8
TRASH
100
AcDbCircle
 62
7
  6
CONTINUOUS
 10
-16.3190175214
 20
-10.5
 40
1.1472328625
100
AcDbArc
 50
347.9845776281
 51
12.0153200785
  0
ARC
  5
63A
100
AcDbEntity
  8
TRASH
100
AcDbCircle
 62
7
  6
CONTINUOUS
 10
-16.3190175214
 20
-10.5
 40
1.1472328625
100
AcDbArc
 50
167.9845776281
 51
192.0153200785
  0
ARC
  5
63B
100
AcDbEntity
  8
0
100
AcDbCircle
 62
7
  6
CONTINUOUS
 10
-16.3190175214
 20
-10.5
 40
0.7522905861
100
AcDbArc
 50
217.1018788914
 51
221.6490663885
  0
ARC
  5
63C
100
AcDbEntity
  8
0
100
AcDbCircle
 62
7
  6
CONTINUOUS
 10
-16.3190175214
 20
-10.5
 40
0.7522905861
100
AcDbArc
 50
228.3509342563
 51
311.6490283615
  0
ARC
  5
63D
100
AcDbEntity
  8
0
100
AcDbCircle
 62
7
  6
CONTINUOUS
 10
-16.3190175214
 20
-10.5
 40
0.7522905861
100
AcDbArc
 50
318.3509867785
 51
322.8981211086
  0
ARC
  5
63E
100
AcDbEntity
  8
0
100
AcDbCircle
 62
7
  6
CONTINUOUS
 10
-16.3190175214
 20
-10.5
 40
0.7522905861
100
AcDbArc
 50
37.1018788914
 51
41.6490663885
  0
ARC
  5
63F
100
AcDbEntity
  8
0
100
AcDbCircle
 62
7
  6
CONTINUOUS
 10
-16.3190175214
 20
-10.5
 40
0.7522905861
100
AcDbArc
 50
48.3509342563
 51
131.6490283615
  0
ARC
  5
640
100
AcDbEntity
  8
0
100
AcDbCircle
 62
7
  6
CONTINUOUS
 10
-16.3190175214
 20
-10.5
 40
0.7522905861
100
AcDbArc
 50
138.3509867785
 51
142.8981211086
  0
CIRCLE
  5
641
100
AcDbEntity
  8
DRAFT
100
AcDbCircle
 62
7
  6
CONTINUOUS
 10
-11.3190175214
 20
-7.0
 40
1.6
  0
CIRCLE
  5
642
100
AcDbEntity
  8
RACCORDO
100
AcDbCircle
 62
253
  6
CONTINUOUS
 10
-11.3190175214
 20
-7.0
 40
1.37177035
  0
CIRCLE
  5
643
100
AcDbEntity
  8
RACCORDO
100
AcDbCircle
 62
253
  6
CONTINUOUS
 10
-11.3190175214
 20
-7.0
 40
1.1785830088
  0
ARC
  5
644
100
AcDbEntity
  8
RACCORDO
100
AcDbCircle
 62
253
  6
CONTINUOUS
 10
-11.8190175214
 20
-5.9
 40
1.0982597281
100
AcDbArc
 50
332.9146458936
 51
345.5284778703
  0
CIRCLE
  5
645
100
AcDbEntity
  8
DRAFT
100
AcDbCircle
 62
7
  6
CONTINUOUS
 10
-11.3190175214
 20
-7.0
 40
1.0523651948
  0
CIRCLE
  5
646
100
AcDbEntity
  8
DRAFT
100
AcDbCircle
 62
7
  6
CONTINUOUS
 10
-11.3190175214
 20
-7.0
 40
1.0
  0
ARC
  5
647
100
AcDbEntity
  8
RACCORDO
100
AcDbCircle
 62
7
  6
CONTINUOUS
 10
-11.8190175214
 20
-5.9
 40
0.7982648048
100
AcDbArc
 50
321.1828899232
 51
349.7036028747
  0
ARC
  5
648
100
AcDbEntity
  8
DRAFT
100
AcDbCircle
 62
7
  6
CONTINUOUS
 10
-11.8190175214
 20
-5.9
 40
0.7883643404
100
AcDbArc
 50
320.6003749427
 51
349.7789512941
  0
ARC
  5
649
100
AcDbEntity
  8
0
100
AcDbCircle
 62
7
  6
CONTINUOUS
 10
-19.7190175214
 20
0.0
 40
3.0
100
AcDbArc
 50
86.7108451744
 51
273.2891548256
  0
ARC
  5
64A
100
AcDbEntity
  8
0
100
AcDbCircle
 62
7
  6
CONTINUOUS
 10
-19.7190175214
 20
0.0
 40
2.9300090692
100
AcDbArc
 50
86.6323961142
 51
99.8254935485
  0
ARC
  5
64B
100
AcDbEntity
  8
0
100
AcDbCircle
 62
7
  6
CONTINUOUS
 10
-19.7190175214
 20
0.0
 40
2.9300090692
100
AcDbArc
 50
260.1745064515
 51
273.3676038858
  0
ARC
  5
64C
100
AcDbEntity
  8
0
100
AcDbCircle
 62
253
  6
CONTINUOUS
 10
-19.7190175214
 20
0.0
 40
2.8409953778
100
AcDbArc
 50
100.1365460426
 51
259.8634539574
  0
ARC
  5
64D
100
AcDbEntity
  8
0
100
AcDbCircle
 62
253
  6
CONTINUOUS
 10
-19.7190175214
 20
0.0
 40
2.6417564381
100
AcDbArc
 50
100.9100695443
 51
259.0899304557
  0
ARC
  5
64E
100
AcDbEntity
  8
0
100
AcDbCircle
 62
253
  6
CONTINUOUS
 10
-19.7190175214
 20
0.0
 40
2.6417564381
100
AcDbArc
 50
342.4695539552
 51
17.5304451019
  0
ARC
  5
64F
100
AcDbEntity
  8
DRAFT
100
AcDbCircle
 62
7
  6
CONTINUOUS
 10
-19.5690175214
 20
0.0
 40
2.5
100
AcDbArc
 50
270.6666892324
 51
89.3333107676
  0
ARC
  5
650
100
AcDbEntity
  8
0
100
AcDbCircle
 62
7
  6
CONTINUOUS
 10
-19.7190175214
 20
-0.0
 40
1.145
100
AcDbArc
 50
176.3637942714
 51
183.6362057286
  0
ARC
  5
651
100
AcDbEntity
  8
0
100
AcDbCircle
 62
7
  6
CONTINUOUS
 10
-19.7190175214
 20
-0.0
 40
1.145
100
AcDbArc
 50
356.3637942714
 51
3.6362057286
  0
ARC
  5
652
100
AcDbEntity
  8
0
100
AcDbCircle
 62
7
  6
CONTINUOUS
 10
-19.7190175214
 20
-0.0
 40
1.145
100
AcDbArc
 50
266.3637942714
 51
273.6362057286
  0
ARC
  5
653
100
AcDbEntity
  8
0
100
AcDbCircle
 62
7
  6
CONTINUOUS
 10
-19.7190175214
 20
-0.0
 40
1.145
100
AcDbArc
 50
86.3637942714
 51
93.6362057286
  0
ARC
  5
654
100
AcDbEntity
  8
0
100
AcDbCircle
 62
7
  6
CONTINUOUS
 10
-24.0590175214
 20
1.8966740413
 40
1.01
100
AcDbArc
 50
143.2819469458
 51
180.0
  0
ARC
  5
655
100
AcDbEntity
  8
0
100
AcDbCircle
 62
7
  6
CONTINUOUS
 10
-24.0590175214
 20
3.4033259587
 40
1.01
100
AcDbArc
 50
180.0000147836
 51
216.7180530542
  0
ARC
  5
656
100
AcDbEntity
  8
0
100
AcDbCircle
 62
7
  6
CONTINUOUS
 10
-25.0690175214
 20
2.65
 40
0.25
100
AcDbArc
 50
323.2819469458
 51
36.7180530542
  0
ARC
  5
657
100
AcDbEntity
  8
DRAFT
100
AcDbCircle
 62
7
  6
CONTINUOUS
 10
-13.4130561063
 20
8.6620580695
 40
2.75
100
AcDbArc
 50
289.488443007
 51
315.0
  0
ARC
  5
658
100
AcDbEntity
  8
DRAFT
100
AcDbCircle
 62
7
  6
CONTINUOUS
 10
-13.4130561063
 20
8.6620580695
 40
2.75
100
AcDbArc
 50
135.0
 51
250.511556993
  0
ARC
  5
659
100
AcDbEntity
  8
RACCORDO
100
AcDbCircle
 62
7
  6
CONTINUOUS
 10
-13.4130561063
 20
8.6620580695
 40
2.743868346
100
AcDbArc
 50
135.0
 51
254.6835836196
  0
ARC
  5
65A
100
AcDbEntity
  8
RACCORDO
100
AcDbCircle
 62
7
  6
CONTINUOUS
 10
-13.4130561063
 20
8.6620580695
 40
2.743868346
100
AcDbArc
 50
285.3164163804
 51
315.0
  0
ARC
  5
65B
100
AcDbEntity
  8
RACCORDO
100
AcDbCircle
 62
253
  6
CONTINUOUS
 10
-13.4130561063
 20
8.6620580695
 40
2.443879769
100
AcDbArc
 50
135.0
 51
260.7664403037
  0
ARC
  5
65C
100
AcDbEntity
  8
RACCORDO
100
AcDbCircle
 62
253
  6
CONTINUOUS
 10
-13.4130561063
 20
8.6620580695
 40
2.443879769
100
AcDbArc
 50
279.2329248437
 51
315.0
  0
CIRCLE
  5
65D
100
AcDbEntity
  8
DRAFT
100
AcDbCircle
 62
7
  6
CONTINUOUS
 10
-13.4130561063
 20
8.6620580695
 40
1.7761806034
  0
CIRCLE
  5
65E
100
AcDbEntity
  8
DRAFT
100
AcDbCircle
 62
7
  6
CONTINUOUS
 10
-13.4130561063
 20
8.6620580695
 40
1.75
  0
ARC
  5
65F
100
AcDbEntity
  8
DRAFT
100
AcDbCircle
 62
7
  6
CONTINUOUS
 10
-13.4130561063
 20
6.1
 40
0.9179491924
100
AcDbArc
 50
181.8972752612
 51
247.9498878792
  0
ARC
  5
660
100
AcDbEntity
  8
DRAFT
100
AcDbCircle
 62
7
  6
CONTINUOUS
 10
-13.4130561063
 20
6.1
 40
0.9179491924
100
AcDbArc
 50
292.0501121208
 51
358.1027247388
  0
ARC
  5
661
100
AcDbEntity
  8
RACCORDO
100
AcDbCircle
 62
253
  6
CONTINUOUS
 10
-13.4130561063
 20
6.1
 40
0.7095796515
100
AcDbArc
 50
186.3990653201
 51
353.6009346799
  0
ARC
  5
662
100
AcDbEntity
  8
RACCORDO
100
AcDbCircle
 62
253
  6
CONTINUOUS
 10
-13.4130561063
 20
6.1
 40
0.4198019036
100
AcDbArc
 50
159.0784114354
 51
20.9216883496
  0
ARC
  5
663
100
AcDbEntity
  8
DRAFT
100
AcDbCircle
 62
7
  6
CONTINUOUS
 10
-10.231075591
 20
11.8440385849
 40
2.75
100
AcDbArc
 50
315.0
 51
135.0
  0
ARC
  5
664
100
AcDbEntity
  8
RACCORDO
100
AcDbCircle
 62
7
  6
CONTINUOUS
 10
-10.231075591
 20
11.8440385849
 40
2.7438683455
100
AcDbArc
 50
315.0
 51
135.0
  0
ARC
  5
665
100
AcDbEntity
  8
RACCORDO
100
AcDbCircle
 62
253
  6
CONTINUOUS
 10
-10.231075591
 20
11.8440385849
 40
2.443875199
100
AcDbArc
 50
315.0
 51
135.0
  0
CIRCLE
  5
666
100
AcDbEntity
  8
ASSI
100
AcDbCircle
 62
7
  6
CONTINUOUS
 10
-17.0690175214
 20
21.0
 40
2.0
  0
CIRCLE
  5
667
100
AcDbEntity
  8
DRAFT
100
AcDbCircle
 62
7
  6
CONTINUOUS
 10
-10.231075591
 20
11.8440385849
 40
1.7761806034
  0
CIRCLE
  5
668
100
AcDbEntity
  8
DRAFT
100
AcDbCircle
 62
7
  6
CONTINUOUS
 10
-10.231075591
 20
11.8440385849
 40
1.75
  0
ARC
  5
669
100
AcDbEntity
  8
RACCORDO
100
AcDbCircle
 62
7
  6
CONTINUOUS
 10
-1.5690175214
 20
-9.5
 40
2.775
100
AcDbArc
 50
171.3413030289
 51
188.4310417707
  0
ARC
  5
66A
100
AcDbEntity
  8
DRAFT
100
AcDbCircle
 62
7
  6
CONTINUOUS
 10
10.2750210634
 20
-8.6620580695
 40
2.75
100
AcDbArc
 50
109.488443007
 51
135.0
  0
ARC
  5
66B
100
AcDbEntity
  8
DRAFT
100
AcDbCircle
 62
7
  6
CONTINUOUS
 10
7.0930405481
 20
-11.8440385849
 40
2.75
100
AcDbArc
 50
135.0
 51
315.0
  0
ARC
  5
66C
100
AcDbEntity
  8
DRAFT
100
AcDbCircle
 62
7
  6
CONTINUOUS
 10
10.2750210634
 20
-8.6620580695
 40
2.75
100
AcDbArc
 50
315.0
 51
70.511556993
  0
ARC
  5
66D
100
AcDbEntity
  8
RACCORDO
100
AcDbCircle
 62
7
  6
CONTINUOUS
 10
10.2750210634
 20
-8.6620580695
 40
2.743868346
100
AcDbArc
 50
315.0
 51
74.6835836196
  0
ARC
  5
66E
100
AcDbEntity
  8
RACCORDO
100
AcDbCircle
 62
7
  6
CONTINUOUS
 10
10.2750210634
 20
-8.6620580695
 40
2.743868346
100
AcDbArc
 50
105.3164163804
 51
135.0
  0
ARC
  5
66F
100
AcDbEntity
  8
RACCORDO
100
AcDbCircle
 62
7
  6
CONTINUOUS
 10
7.0930405481
 20
-11.8440385849
 40
2.7438683455
100
AcDbArc
 50
135.0
 51
315.0
  0
ARC
  5
670
100
AcDbEntity
  8
0
100
AcDbCircle
 62
7
  6
CONTINUOUS
 10
0.9309824786
 20
-11.5
 40
2.5
100
AcDbArc
 50
3.0234535852
 51
358.6219839676
  0
ARC
  5
671
100
AcDbEntity
  8
RACCORDO
100
AcDbCircle
 62
253
  6
CONTINUOUS
 10
10.2750210634
 20
-8.6620580695
 40
2.443879769
100
AcDbArc
 50
315.0
 51
80.7663548934
  0
ARC
  5
672
100
AcDbEntity
  8
RACCORDO
100
AcDbCircle
 62
253
  6
CONTINUOUS
 10
10.2750210634
 20
-8.6620580695
 40
2.443879769
100
AcDbArc
 50
99.2329447231
 51
135.0
  0
ARC
  5
673
100
AcDbEntity
  8
RACCORDO
100
AcDbCircle
 62
253
  6
CONTINUOUS
 10
7.0930405481
 20
-11.8440385849
 40
2.443875199
100
AcDbArc
 50
135.0
 51
315.0
  0
CIRCLE
  5
674
100
AcDbEntity
  8
ASSI
100
AcDbCircle
 62
7
  6
CONTINUOUS
 10
13.9309824786
 20
-21.0
 40
2.0
  0
CIRCLE
  5
675
100
AcDbEntity
  8
DRAFT
100
AcDbCircle
 62
7
  6
CONTINUOUS
 10
7.0930405481
 20
-11.8440385849
 40
1.7761806034
  0
CIRCLE
  5
676
100
AcDbEntity
  8
DRAFT
100
AcDbCircle
 62
7
  6
CONTINUOUS
 10
10.2750210634
 20
-8.6620580695
 40
1.7761806034
  0
CIRCLE
  5
677
100
AcDbEntity
  8
DRAFT
100
AcDbCircle
 62
7
  6
CONTINUOUS
 10
7.0930405481
 20
-11.8440385849
 40
1.75
  0
CIRCLE
  5
678
100
AcDbEntity
  8
DRAFT
100
AcDbCircle
 62
7
  6
CONTINUOUS
 10
10.2750210634
 20
-8.6620580695
 40
1.75
  0
CIRCLE
  5
679
100
AcDbEntity
  8
ASSI
100
AcDbCircle
 62
7
  6
CONTINUOUS
 10
-3.5690175214
 20
-9.75
 40
1.0
  0
ARC
  5
67A
100
AcDbEntity
  8
DRAFT
100
AcDbCircle
 62
7
  6
CONTINUOUS
 10
10.2750210634
 20
-6.1
 40
0.9179491924
100
AcDbArc
 50
1.8972752612
 51
67.9498878792
  0
ARC
  5
67B
100
AcDbEntity
  8
DRAFT
100
AcDbCircle
 62
7
  6
CONTINUOUS
 10
10.2750210634
 20
-6.1
 40
0.9179491924
100
AcDbArc
 50
112.0501121208
 51
178.1027247388
  0
ARC
  5
67C
100
AcDbEntity
  8
RACCORDO
100
AcDbCircle
 62
253
  6
CONTINUOUS
 10
10.2750210634
 20
-6.1
 40
0.7095796515
100
AcDbArc
 50
6.3990653201
 51
173.6009346799
  0
ARC
  5
67D
100
AcDbEntity
  8
RACCORDO
100
AcDbCircle
 62
253
  6
CONTINUOUS
 10
10.2750210634
 20
-6.1
 40
0.4198019036
100
AcDbArc
 50
339.0873685421
 51
200.9194451952
  0
ARC
  5
67E
100
AcDbEntity
  8
DRAFT
100
AcDbCircle
 62
7
  6
CONTINUOUS
 10
-1.5690175214
 20
0.0
 40
22.0
100
AcDbArc
 50
27.5801992036
 51
59.7273586811
  0
ARC
  5
67F
100
AcDbEntity
  8
DRAFT
100
AcDbCircle
 62
7
  6
CONTINUOUS
 10
-1.5690175214
 20
0.0
 40
22.0
100
AcDbArc
 50
120.2726413189
 51
152.4198007964
  0
ARC
  5
680
100
AcDbEntity
  8
DRAFT
100
AcDbCircle
 62
7
  6
CONTINUOUS
 10
-1.5690175214
 20
0.0
 40
22.0
100
AcDbArc
 50
207.5801992036
 51
239.7273586811
  0
ARC
  5
681
100
AcDbEntity
  8
DRAFT
100
AcDbCircle
 62
7
  6
CONTINUOUS
 10
-1.5690175214
 20
0.0
 40
22.0
100
AcDbArc
 50
300.2726413189
 51
332.4198007964
  0
ARC
  5
682
100
AcDbEntity
  8
DRAFT
100
AcDbCircle
 62
7
  6
CONTINUOUS
 10
-1.5690175214
 20
0.0
 40
21.9720740231
100
AcDbArc
 50
27.598067218
 51
56.2028066791
  0
ARC
  5
683
100
AcDbEntity
  8
DRAFT
100
AcDbCircle
 62
7
  6
CONTINUOUS
 10
-1.5690175214
 20
0.0
 40
21.9720740231
100
AcDbArc
 50
300.2923338174
 51
332.401932782
  0
ARC
  5
684
100
AcDbEntity
  8
DRAFT
100
AcDbCircle
 62
7
  6
CONTINUOUS
 10
-1.5690175214
 20
0.0
 40
21.9720740231
100
AcDbArc
 50
207.598067218
 51
236.2028066791
  0
ARC
  5
685
100
AcDbEntity
  8
DRAFT
100
AcDbCircle
 62
7
  6
CONTINUOUS
 10
-1.5690175214
 20
0.0
 40
21.9720740231
100
AcDbArc
 50
120.2923338174
 51
152.401932782
  0
ARC
  5
686
100
AcDbEntity
  8
RACCORDO
100
AcDbCircle
 62
7
  6
CONTINUOUS
 10
-1.5690175214
 20
0.0
 40
21.8934941353
100
AcDbArc
 50
56.3125472786
 51
59.6520471994
  0
ARC
  5
687
100
AcDbEntity
  8
RACCORDO
100
AcDbCircle
 62
7
  6
CONTINUOUS
 10
-1.5690175214
 20
0.0
 40
21.8934941353
100
AcDbArc
 50
236.3125472786
 51
239.6520471994
  0
ARC
  5
688
100
AcDbEntity
  8
ASSI
100
AcDbCircle
 62
7
  6
CONTINUOUS
 10
-1.5690175214
 20
0.0
 40
21.5
100
AcDbArc
 50
335.1122826037
 51
348.0781515832
  0
ARC
  5
689
100
AcDbEntity
  8
ASSI
100
AcDbCircle
 62
7
  6
CONTINUOUS
 10
-1.5690175214
 20
0.0
 40
21.5
100
AcDbArc
 50
11.9218481357
 51
24.8877173963
  0
ARC
  5
68A
100
AcDbEntity
  8
ASSI
100
AcDbCircle
 62
7
  6
CONTINUOUS
 10
-1.5690175214
 20
0.0
 40
21.5
100
AcDbArc
 50
194.2052231022
 51
204.8877173963
  0
ARC
  5
68B
100
AcDbEntity
  8
ASSI
100
AcDbCircle
 62
7
  6
CONTINUOUS
 10
-1.5690175214
 20
0.0
 40
21.5
100
AcDbArc
 50
155.1122826037
 51
165.7947765671
  0
ARC
  5
68C
100
AcDbEntity
  8
RACCORDO
100
AcDbCircle
 62
7
  6
CONTINUOUS
 10
-1.5690175214
 20
0.0
 40
21.5
100
AcDbArc
 50
335.1122826037
 51
345.7947765671
  0
ARC
  5
68D
100
AcDbEntity
  8
RACCORDO
100
AcDbCircle
 62
7
  6
CONTINUOUS
 10
-1.5690175214
 20
0.0
 40
21.5
100
AcDbArc
 50
14.2052231022
 51
24.8877173963
  0
ARC
  5
68E
100
AcDbEntity
  8
RACCORDO
100
AcDbCircle
 62
7
  6
CONTINUOUS
 10
-1.5690175214
 20
0.0
 40
21.5
100
AcDbArc
 50
191.9218481357
 51
204.8877173963
  0
ARC
  5
68F
100
AcDbEntity
  8
RACCORDO
100
AcDbCircle
 62
7
  6
CONTINUOUS
 10
-1.5690175214
 20
0.0
 40
21.5
100
AcDbArc
 50
155.1122826037
 51
168.0781515832
  0
ARC
  5
690
100
AcDbEntity
  8
RACCORDO
100
AcDbCircle
 62
253
  6
CONTINUOUS
 10
-1.5690175214
 20
0.0
 40
21.3935131738
100
AcDbArc
 50
57.0263603118
 51
59.2906644405
  0
ARC
  5
691
100
AcDbEntity
  8
RACCORDO
100
AcDbCircle
 62
253
  6
CONTINUOUS
 10
-1.5690175214
 20
0.0
 40
21.3935131738
100
AcDbArc
 50
237.0210206342
 51
239.3010467544
  0
ARC
  5
692
100
AcDbEntity
  8
RACCORDO
100
AcDbCircle
 62
7
  6
CONTINUOUS
 10
-1.5690175214
 20
9.5
 40
2.775
100
AcDbArc
 50
351.3413030289
 51
8.4310417707
  0
CIRCLE
  5
693
100
AcDbEntity
  8
ASSI
100
AcDbCircle
 62
7
  6
CONTINUOUS
 10
0.4309824786
 20
9.75
 40
1.0
  0
CIRCLE
  5
694
100
AcDbEntity
  8
ASSI
100
AcDbCircle
 62
7
  6
CONTINUOUS
 10
4.9309824786
 20
11.5
 40
3.0
  0
ARC
  5
695
100
AcDbEntity
  8
0
100
AcDbCircle
 62
7
  6
CONTINUOUS
 10
-3.8690175214
 20
11.5
 40
2.5
100
AcDbArc
 50
50.8225520357
 51
132.7656033818
  0
ARC
  5
696
100
AcDbEntity
  8
0
100
AcDbCircle
 62
7
  6
CONTINUOUS
 10
-3.8690175214
 20
11.5
 40
2.5
100
AcDbArc
 50
135.5900333671
 51
135.8849601942
  0
ARC
  5
697
100
AcDbEntity
  8
0
100
AcDbCircle
 62
7
  6
CONTINUOUS
 10
-3.8690175214
 20
11.5
 40
2.5
100
AcDbArc
 50
230.6671827827
 51
46.6613199634
  0
ARC
  5
698
100
AcDbEntity
  8
0
100
AcDbCircle
 62
7
  6
CONTINUOUS
 10
-3.8690175214
 20
11.5
 40
2.5
100
AcDbArc
 50
140.3829926897
 51
226.5369373115
  0
CIRCLE
  5
699
100
AcDbEntity
  8
DRAFT
100
AcDbCircle
 62
7
  6
CONTINUOUS
 10
8.1809824786
 20
7.0
 40
1.6
  0
CIRCLE
  5
69A
100
AcDbEntity
  8
RACCORDO
100
AcDbCircle
 62
253
  6
CONTINUOUS
 10
8.1809824786
 20
7.0
 40
1.37177035
  0
CIRCLE
  5
69B
100
AcDbEntity
  8
RACCORDO
100
AcDbCircle
 62
253
  6
CONTINUOUS
 10
8.1809824786
 20
7.0
 40
1.1785830088
  0
ARC
  5
69C
100
AcDbEntity
  8
RACCORDO
100
AcDbCircle
 62
253
  6
CONTINUOUS
 10
8.6809824786
 20
5.9
 40
1.0982597281
100
AcDbArc
 50
152.9146458936
 51
165.5284778703
  0
CIRCLE
  5
69D
100
AcDbEntity
  8
DRAFT
100
AcDbCircle
 62
7
  6
CONTINUOUS
 10
8.1809824786
 20
7.0
 40
1.0523651948
  0
CIRCLE
  5
69E
100
AcDbEntity
  8
DRAFT
100
AcDbCircle
 62
7
  6
CONTINUOUS
 10
8.1809824786
 20
7.0
 40
1.0
  0
ARC
  5
69F
100
AcDbEntity
  8
RACCORDO
100
AcDbCircle
 62
7
  6
CONTINUOUS
 10
8.6809824786
 20
5.9
 40
0.7982648048
100
AcDbArc
 50
141.1828899232
 51
169.7036028747
  0
ARC
  5
6A0
100
AcDbEntity
  8
DRAFT
100
AcDbCircle
 62
7
  6
CONTINUOUS
 10
8.6809824786
 20
5.9
 40
0.7883643404
100
AcDbArc
 50
140.6003749427
 51
169.7789512941
  0
CIRCLE
  5
6A1
100
AcDbEntity
  8
0
100
AcDbCircle
 62
7
  6
CONTINUOUS
 10
13.1809824786
 20
10.5
 40
3.25
  0
ARC
  5
6A2
100
AcDbEntity
  8
0
100
AcDbCircle
 62
7
  6
CONTINUOUS
 10
13.1809824786
 20
10.5
 40
3.1450136038
100
AcDbArc
 50
259.0017981008
 51
280.9982018992
  0
ARC
  5
6A3
100
AcDbEntity
  8
0
100
AcDbCircle
 62
7
  6
CONTINUOUS
 10
13.1809824786
 20
10.5
 40
3.1450136038
100
AcDbArc
 50
79.0017981008
 51
100.9982018992
  0
ARC
  5
6A4
100
AcDbEntity
  8
0
100
AcDbCircle
 62
7
  6
CONTINUOUS
 10
13.1809824786
 20
10.5
 40
3.0760810131
100
AcDbArc
 50
101.2478419429
 51
258.7521580571
  0
ARC
  5
6A5
100
AcDbEntity
  8
0
100
AcDbCircle
 62
7
  6
CONTINUOUS
 10
13.1809824786
 20
10.5
 40
3.0760810131
100
AcDbArc
 50
281.2478419429
 51
78.7521580571
  0
CIRCLE
  5
6A6
100
AcDbEntity
  8
ASSI
100
AcDbCircle
 62
7
  6
CONTINUOUS
 10
13.9309824786
 20
21.0
 40
2.0
  0
ARC
  5
6A7
100
AcDbEntity
  8
0
100
AcDbCircle
 62
7
  6
CONTINUOUS
 10
13.1809824786
 20
10.5
 40
1.6874840352
100
AcDbArc
 50
172.230101045
 51
187.7632444202
  0
ARC
  5
6A8
100
AcDbEntity
  8
0
100
AcDbCircle
 62
7
  6
CONTINUOUS
 10
13.1809824786
 20
10.5
 40
1.6874840352
100
AcDbArc
 50
352.2301010241
 51
7.7632444202
  0
ARC
  5
6A9
100
AcDbEntity
  8
TRASH
100
AcDbCircle
 62
7
  6
CONTINUOUS
 10
13.1809824786
 20
10.5
 40
1.1472328625
100
AcDbArc
 50
347.9845776281
 51
12.0153200785
  0
ARC
  5
6AA
100
AcDbEntity
  8
TRASH
100
AcDbCircle
 62
7
  6
CONTINUOUS
 10
13.1809824786
 20
10.5
 40
1.1472328625
100
AcDbArc
 50
167.9845776281
 51
192.0153200785
  0
ARC
  5
6AB
100
AcDbEntity
  8
0
100
AcDbCircle
 62
7
  6
CONTINUOUS
 10
13.1809824786
 20
10.5
 40
0.7522905861
100
AcDbArc
 50
217.1018788914
 51
221.6490663885
  0
ARC
  5
6AC
100
AcDbEntity
  8
0
100
AcDbCircle
 62
7
  6
CONTINUOUS
 10
13.1809824786
 20
10.5
 40
0.7522905861
100
AcDbArc
 50
228.3509342563
 51
311.6490283615
  0
ARC
  5
6AD
100
AcDbEntity
  8
0
100
AcDbCircle
 62
7
  6
CONTINUOUS
 10
13.1809824786
 20
10.5
 40
0.7522905861
100
AcDbArc
 50
318.3509867785
 51
322.8981211086
  0
ARC
  5
6AE
100
AcDbEntity
  8
0
100
AcDbCircle
 62
7
  6
CONTINUOUS
 10
13.1809824786
 20
10.5
 40
0.7522905861
100
AcDbArc
 50
37.1018788914
 51
41.6490663885
  0
ARC
  5
6AF
100
AcDbEntity
  8
0
100
AcDbCircle
 62
7
  6
CONTINUOUS
 10
13.1809824786
 20
10.5
 40
0.7522905861
100
AcDbArc
 50
48.3509342563
 51
131.6490283615
  0
ARC
  5
6B0
100
AcDbEntity
  8
0
100
AcDbCircle
 62
7
  6
CONTINUOUS
 10
13.1809824786
 20
10.5
 40
0.7522905861
100
AcDbArc
 50
138.3509867785
 51
142.8981211086
  0
ARC
  5
6B1
100
AcDbEntity
  8
ASSI
100
AcDbCircle
 62
7
  6
CONTINUOUS
 10
6.4893994786
 20
16.921397
 40
0.6287061425
100
AcDbArc
 50
292.8428880619
 51
90.0000161486
  0
ARC
  5
6B2
100
AcDbEntity
  8
ASSI
100
AcDbCircle
 62
7
  6
CONTINUOUS
 10
6.4324894786
 20
16.921397
 40
0.249439
100
AcDbArc
 50
270.0010063792
 51
90.0010063711
  0
ELLIPSE
  5
6B3
100
AcDbEntity
  8
RACCORDO
100
AcDbEllipse
 62
7
  6
CONTINUOUS
 10
15.4309655551
 20
-4.2499830766
 30
0.0
 11
0.7071307143
 21
-0.7071307143
 31
0.0
 40
0.9999661546
 41
-0.7853812404
 42
0.7853812404
  0
ELLIPSE
  5
6B4
100
AcDbEntity
  8
RACCORDO
100
AcDbEllipse
 62
7
  6
CONTINUOUS
 10
-18.569000598
 20
4.2499830766
 30
0.0
 11
0.7071307143
 21
-0.7071307143
 31
0.0
 40
0.9999661546
 41
2.3562114132
 42
3.926973894
  0
ELLIPSE
  5
6B5
100
AcDbEntity
  8
RACCORDO
100
AcDbEllipse
 62
7
  6
CONTINUOUS
 10
-11.5689921363
 20
-6.7500253851
 30
0.0
 11
1.0606960715
 21
-1.0606960715
 31
0.0
 40
0.9999661546
 41
2.3562114132
 42
3.926973894
  0
ELLIPSE
  5
6B6
100
AcDbEntity
  8
RACCORDO
100
AcDbEllipse
 62
7
  6
CONTINUOUS
 10
8.4309570934
 20
6.7500253851
 30
0.0
 11
-1.0606960715
 21
1.0606960715
 31
0.0
 40
0.9999661546
 41
2.3562114132
 42
3.926973894
  0
ELLIPSE
  5
6B7
100
AcDbEntity
  8
RACCORDO
100
AcDbEllipse
 62
7
  6
CONTINUOUS
 10
-19.5486551171
 20
-6.2296545191
 30
0.0
 11
0.0
 21
1.0
 31
0.0
 40
0.0058178298
 41
0.0058177642
 42
1.5707963268
  0
ELLIPSE
  5
6B8
100
AcDbEntity
  8
RACCORDO
100
AcDbEllipse
 62
7
  6
CONTINUOUS
 10
16.4106200742
 20
6.2296545191
 30
0.0
 11
-0.0
 21
1.0
 31
0.0
 40
0.0058178298
 41
-3.1357748894
 42
-1.5707963268
  0
ELLIPSE
  5
6B9
100
AcDbEntity
  8
RACCORDO
100
AcDbEllipse
 62
7
  6
CONTINUOUS
 10
-11.5835367108
 20
-6.7354808106
 30
0.0
 11
1.0606960715
 21
-1.0606960715
 31
0.0
 40
0.9999661546
 41
-2.7001312415
 42
-2.3562114132
  0
ELLIPSE
  5
6BA
100
AcDbEntity
  8
RACCORDO
100
AcDbEllipse
 62
7
  6
CONTINUOUS
 10
8.445501668
 20
6.7354808106
 30
0.0
 11
-1.0606960715
 21
1.0606960715
 31
0.0
 40
0.9999661546
 41
-2.7001312415
 42
-2.3562114132
  0
ELLIPSE
  5
6BB
100
AcDbEntity
  8
RACCORDO
100
AcDbEllipse
 62
7
  6
CONTINUOUS
 10
15.4018764061
 20
-4.2208939275
 30
0.0
 11
0.7071307143
 21
-0.7071307143
 31
0.0
 40
0.9999661546
 41
-0.7853812404
 42
0.7853812404
  0
ELLIPSE
  5
6BC
100
AcDbEntity
  8
RACCORDO
100
AcDbEllipse
 62
7
  6
CONTINUOUS
 10
-18.539911449
 20
4.2208939275
 30
0.0
 11
-0.7071307143
 21
0.7071307143
 31
0.0
 40
0.9999661546
 41
-0.7853812404
 42
0.7853812404
  0
ELLIPSE
  5
6BD
100
AcDbEntity
  8
DRAFT
100
AcDbEllipse
 62
7
  6
CONTINUOUS
 10
11.8187497871
 20
-13.3877673085
 30
0.0
 11
1.767766953
 21
1.767766953
 31
0.0
 40
0.0087268678
 41
-3.1328660073
 42
-0.0087266463
  0
ELLIPSE
  5
6BE
100
AcDbEntity
  8
DRAFT
100
AcDbEllipse
 62
7
  6
CONTINUOUS
 10
-14.95678483
 20
13.3877673085
 30
0.0
 11
1.767766953
 21
1.767766953
 31
0.0
 40
0.0087268678
 41
0.0087266463
 42
3.1328660073
  0
ELLIPSE
  5
6BF
100
AcDbEntity
  8
DRAFT
100
AcDbEllipse
 62
7
  6
CONTINUOUS
 10
12.8133821058
 20
-14.3823996272
 30
0.0
 11
1.767766953
 21
1.767766953
 31
0.0
 40
0.0087268678
 41
-3.1328660073
 42
-0.0087266463
  0
ELLIPSE
  5
6C0
100
AcDbEntity
  8
DRAFT
100
AcDbEllipse
 62
7
  6
CONTINUOUS
 10
-15.9514171486
 20
14.3823996272
 30
0.0
 11
1.767766953
 21
1.767766953
 31
0.0
 40
0.0087268678
 41
0.0087266463
 42
3.1328660073
  0
ELLIPSE
  5
6C1
100
AcDbEntity
  8
RACCORDO
100
AcDbEllipse
 62
7
  6
CONTINUOUS
 10
10.6265702154
 20
-15.7966670405
 30
0.0
 11
0.3535533906
 21
-0.3535533906
 31
0.0
 40
0.0087268678
 41
-1.5707963268
 42
-0.0087266463
  0
ELLIPSE
  5
6C2
100
AcDbEntity
  8
RACCORDO
100
AcDbEllipse
 62
7
  6
CONTINUOUS
 10
14.2276495191
 20
-12.1955877368
 30
0.0
 11
0.3535533906
 21
-0.3535533906
 31
0.0
 40
0.0087268678
 41
0.0087266463
 42
1.5707963268
  0
ELLIPSE
  5
6C3
100
AcDbEntity
  8
RACCORDO
100
AcDbEllipse
 62
7
  6
CONTINUOUS
 10
-13.7646052582
 20
15.7966670405
 30
0.0
 11
0.3535533906
 21
-0.3535533906
 31
0.0
 40
0.0087268678
 41
1.5707963268
 42
3.1328660073
  0
ELLIPSE
  5
6C4
100
AcDbEntity
  8
RACCORDO
100
AcDbEllipse
 62
7
  6
CONTINUOUS
 10
-17.365684562
 20
12.1955877368
 30
0.0
 11
0.3535533906
 21
-0.3535533906
 31
0.0
 40
0.0087268678
 41
-3.1328660073
 42
-1.5707963268
  0
ELLIPSE
  5
6C5
100
AcDbEntity
  8
ASSI
100
AcDbEllipse
 62
7
  6
CONTINUOUS
 10
-17.0689695436
 20
-20.9999520222
 30
0.0
 11
2.4749415845
 21
2.4749415845
 31
0.0
 40
0.9999725851
 41
-3.9269771093
 42
-2.3562081979
  0
ELLIPSE
  5
6C6
100
AcDbEntity
  8
ASSI
100
AcDbEllipse
 62
7
  6
CONTINUOUS
 10
13.9309345008
 20
-20.9999520222
 30
0.0
 11
2.4749415845
 21
-2.4749415845
 31
0.0
 40
0.9999725851
 41
-0.7853844557
 42
0.7853844557
  0
ELLIPSE
  5
6C7
100
AcDbEntity
  8
ASSI
100
AcDbEllipse
 62
7
  6
CONTINUOUS
 10
13.9309345008
 20
20.9999520222
 30
0.0
 11
2.4749415845
 21
2.4749415845
 31
0.0
 40
0.9999725851
 41
-0.7853844557
 42
0.7853844557
  0
ELLIPSE
  5
6C8
100
AcDbEntity
  8
ASSI
100
AcDbEllipse
 62
7
  6
CONTINUOUS
 10
-17.0689695436
 20
20.9999520222
 30
0.0
 11
2.4749415845
 21
-2.4749415845
 31
0.0
 40
0.9999725851
 41
2.3562081979
 42
3.9269771093
  0
ELLIPSE
  5
6C9
100
AcDbEntity
  8
ASSI
100
AcDbEllipse
 62
7
  6
CONTINUOUS
 10
-1.3830130999
 20
0.0
 30
0.0
 11
21.3139955785
 21
-0.0
 31
0.0
 40
0.9999619202
 41
-0.4366701895
 42
-0.1295784409
  0
ELLIPSE
  5
6CA
100
AcDbEntity
  8
ASSI
100
AcDbEllipse
 62
7
  6
CONTINUOUS
 10
-1.3830130999
 20
0.0
 30
0.0
 11
21.3139955785
 21
-0.0
 31
0.0
 40
0.9999619202
 41
0.1295784409
 42
0.4366701895
  0
ELLIPSE
  5
6CB
100
AcDbEntity
  8
ASSI
100
AcDbEllipse
 62
7
  6
CONTINUOUS
 10
-1.7550219429
 20
-0.0
 30
0.0
 11
21.3139955785
 21
-0.0
 31
0.0
 40
0.9999619202
 41
-2.9766084287
 42
-2.7049224641
  0
ELLIPSE
  5
6CC
100
AcDbEntity
  8
ASSI
100
AcDbEllipse
 62
7
  6
CONTINUOUS
 10
-1.7550219429
 20
0.0
 30
0.0
 11
21.3139955785
 21
0.0
 31
0.0
 40
0.9999619202
 41
2.7049224641
 42
2.9766084287
  0
ELLIPSE
  5
6CD
100
AcDbEntity
  8
RACCORDO
100
AcDbEllipse
 62
7
  6
CONTINUOUS
 10
13.9309345008
 20
20.9999520222
 30
0.0
 11
2.4749415845
 21
2.4749415845
 31
0.0
 40
0.9999725851
 41
-0.7853844557
 42
0.7853844557
  0
ELLIPSE
  5
6CE
100
AcDbEntity
  8
RACCORDO
100
AcDbEllipse
 62
7
  6
CONTINUOUS
 10
-17.0689695436
 20
20.9999520222
 30
0.0
 11
2.4749415845
 21
-2.4749415845
 31
0.0
 40
0.9999725851
 41
2.3562081979
 42
3.9269771093
  0
ELLIPSE
  5
6CF
100
AcDbEntity
  8
RACCORDO
100
AcDbEllipse
 62
7
  6
CONTINUOUS
 10
-17.0689695436
 20
-20.9999520222
 30
0.0
 11
2.4749415845
 21
2.4749415845
 31
0.0
 40
0.9999725851
 41
-3.9269771093
 42
-2.3562081979
  0
ELLIPSE
  5
6D0
100
AcDbEntity
  8
RACCORDO
100
AcDbEllipse
 62
7
  6
CONTINUOUS
 10
13.9309345008
 20
-20.9999520222
 30
0.0
 11
2.4749415845
 21
-2.4749415845
 31
0.0
 40
0.9999725851
 41
-0.7853844557
 42
0.7853844557
  0
ELLIPSE
  5
6D1
100
AcDbEntity
  8
RACCORDO
100
AcDbEllipse
 62
7
  6
CONTINUOUS
 10
-1.3830130999
 20
0.0
 30
0.0
 11
21.3139955785
 21
0.0
 31
0.0
 40
0.9999619202
 41
-0.4366701895
 42
-0.1295784409
  0
ELLIPSE
  5
6D2
100
AcDbEntity
  8
RACCORDO
100
AcDbEllipse
 62
7
  6
CONTINUOUS
 10
-1.3830130999
 20
0.0
 30
0.0
 11
21.3139955785
 21
0.0
 31
0.0
 40
0.9999619202
 41
0.1295784409
 42
0.4366701895
  0
ELLIPSE
  5
6D3
100
AcDbEntity
  8
RACCORDO
100
AcDbEllipse
 62
7
  6
CONTINUOUS
 10
-1.7550219429
 20
0.0
 30
0.0
 11
21.3139955785
 21
0.0
 31
0.0
 40
0.9999619202
 41
-2.9766084287
 42
-2.7049224641
  0
ELLIPSE
  5
6D4
100
AcDbEntity
  8
RACCORDO
100
AcDbEllipse
 62
7
  6
CONTINUOUS
 10
-1.7550219429
 20
0.0
 30
0.0
 11
21.3139955785
 21
0.0
 31
0.0
 40
0.9999619202
 41
2.7049224641
 42
2.9766084287
  0
ENDSEC
  0
SECTION
  2
OBJECTS
  0
DICTIONARY
  5
C
100
AcDbDictionary
280
0
281
1
  3
ACAD_GROUP
350
D
  3
ACAD_MLINESTYLE
350
17
  3
ACAD_LAYOUT
350
1A
  3
ACAD_PLOTSETTINGS
350
19
  3
ACAD_PLOTSTYLENAME
350
E
  0
DICTIONARY
  5
D
102
{ACAD_REACTORS
330
C
102
}
100
AcDbDictionary
280
0
281
1
  0
ACDBDICTIONARYWDFLT
  5
E
102
{ACAD_REACTORS
330
C
102
}
100
AcDbDictionary
281
1
  3
Normal
350
F
100
AcDbDictionaryWithDefault
340
F
  0
DICTIONARY
  5
17
102
{ACAD_REACTORS
330
C
102
}
100
AcDbDictionary
280
0
281
1
  3
Standard
350
18
  0
DICTIONARY
  5
19
102
{ACAD_REACTORS
330
C
102
}
100
AcDbDictionary
281
1
  0
DICTIONARY
  5
1A
102
{ACAD_REACTORS
330
C
102
}
100
AcDbDictionary
281
1
  3
Model
350
6D5
  3
Layout1
350
6D6
  0
ACDBPLACEHOLDER
  5
F
102
{ACAD_REACTORS
330
E
102
}
  0
MLINESTYLE
  5
18
102
{ACAD_REACTORS
330
17
102
}
100
AcDbMlineStyle
  2
STANDARD
 70
0
  3

 62
256
 51
90.0
 52
90.0
 71
2
 49
0.5
 62
256
  6
BYLAYER
 49
-0.5
 62
256
  6
BYLAYER
  0
LAYOUT
  5
6D5
102
{ACAD_REACTORS
330
1A
102
}
100
AcDbPlotSettings
  1

  2
none_device
  4
ISO_A4_(297.00_x_210.00_MM)
  6

 40
0.0
 41
0.0
 42
0.0
 43
0.0
 44
297.0
 45
210.0
 46
0.0
 47
0.0
 48
0.0
 49
0.0
140
0.0
141
0.0
142
1.0
143
1.0
 70
1024
 72
1
 73
0
 74
0
  7

 75
0
147
1.0
148
0.0
149
0.0
100
AcDbLayout
  1
Model
 70
0
 71
0
 10
0.0
 20
0.0
 11
297.0
 21
210.0
 12
0.0
 22
0.0
 32
0.0
 14
0.0
 24
0.0
 34
0.0
 15
0.0
 25
0.0
 35
0.0
146
0.0
 13
0.0
 23
0.0
 33
0.0
 16
1.0
 26
0.0
 36
0.0
 17
0.0
 27
1.0
 37
0.0
 76
0
330
216
345
0
346
0
  0
LAYOUT
  5
6D6
102
{ACAD_REACTORS
330
1A
102
}
100
AcDbPlotSettings
  1

  2
none_device
  4
ISO_A4_(297.00_x_210.00_MM)
  6

 40
0.0
 41
0.0
 42
0.0
 43
0.0
 44
297.0
 45
210.0
 46
0.0
 47
0.0
 48
0.0
 49
0.0
140
0.0
141
0.0
142
1.0
143
1.0
 70
0
 72
1
 73
0
 74
0
  7

 75
0
147
1.0
148
0.0
149
0.0
100
AcDbLayout
  1
Layout1
 70
0
 71
1
 10
0.0
 20
0.0
 11
297.0
 21
210.0
 12
0.0
 22
0.0
 32
0.0
 14
0.0
 24
0.0
 34
0.0
 15
0.0
 25
0.0
 35
0.0
146
0.0
 13
0.0
 23
0.0
 33
0.0
 16
1.0
 26
0.0
 36
0.0
 17
0.0
 27
1.0
 37
0.0
 76
0
330
217
345
0
346
0
  0
ENDSEC
  0
EOF
