  0
SECTION
  2
HEADER
  9
$ACADVER
  1
AC1021
  9
$DWGCODEPAGE
  3
ANSI_1252
  9
$EXTMAX
 10
297.0
 20
210.0
 30
0.0
  9
$EXTMIN
 10
0.0
 20
0.0
 30
0.0
  9
$LIMMIN
 10
0.0
 20
0.0
  9
$LIMMAX
 10
297.0
 20
210.0
  9
$VIEWCTR
 10
148.5
 20
105.0
  9
$VIEWSIZE
 40
210.0
  9
$CLAYER
  8
0
  9
$LTSCALE
 40
16.335
  9
$CELTYPE
  6
BYLAYER
  9
$DIMSCALE
 40
1.0
  9
$DIMASZ
 40
3.0
  9
$DIMEXO
 40
0.5
  9
$DIMDLI
 40
11.286
  9
$DIMEXE
 40
1.5
  9
$DIMCEN
 40
2.673
  9
$DIMLFAC
 40
1.0
  9
$DIMBLK
  1
_FILLED
  9
$DIMALT
 70
0
  9
$DIMALTF
 40
0.0393700787
  9
$DIMTXT
 40
3.0
  9
$DIMTOL
 70
1
  9
$DIMLIM
 70
0
  9
$DIMTFAC
 40
1.0
  9
$DIMTP
 40
0.01
  9
$DIMTM
 40
0.01
  9
$DIMGAP
 40
0.625
  9
$DIMDSEP
 70
44
  9
$AUNITS
 70
0
  9
$PDMODE
 70
3
  9
$PDSIZE
 40
3.0
  9
$HANDSEED
  5
640
  9
$TILEMODE
 70
1
  9
$MEASUREMENT
 70
1
  9
$INSUNITS
 70
4
  0
ENDSEC
  0
SECTION
  2
CLASSES
  0
CLASS
  1
ACDBDICTIONARYWDFLT
  2
AcDbDictionaryWithDefault
  3
AutoCAD 2000
 90
0
 91
1
280
0
281
0
  0
CLASS
  1
ACDBPLACEHOLDER
  2
AcDbPlaceHolder
  3
AutoCAD 2000
 90
0
 91
1
280
0
281
0
  0
CLASS
  1
LAYOUT
  2
AcDbLayout
  3
AutoCAD 2000
 90
0
 91
0
280
0
281
0
  0
ENDSEC
  0
SECTION
  2
TABLES
  0
TABLE
  2
VPORT
  5
8
100
AcDbSymbolTable
 70
2
  0
VPORT
  5
1F4
100
AcDbSymbolTableRecord
100
AcDbViewportTableRecord
  2
*ACTIVE
 70
0
 10
0.0
 20
0.0
 11
1.0
 21
1.0
 12
148.5
 22
105.0
 13
0.0
 23
0.0
 14
1.0
 24
1.0
 15
0.0
 25
0.0
 16
0.0
 26
0.0
 36
1.0
 17
0.0
 27
0.0
 37
0.0
 40
210.0
 41
1.4142857143
 42
50.0
 43
0.0
 44
0.0
 50
0.0
 51
0.0
 71
0
 72
100
 73
1
 74
1
 75
0
 76
0
 77
0
 78
0
  0
ENDTAB
  0
TABLE
  2
LTYPE
  5
5
100
AcDbSymbolTable
 70
6
  0
LTYPE
  5
14
100
AcDbSymbolTableRecord
100
AcDbLinetypeTableRecord
  2
BYBLOCK
 70
0
  3

 72
65
 73
0
 40
0.0
  0
LTYPE
  5
15
100
AcDbSymbolTableRecord
100
AcDbLinetypeTableRecord
  2
BYLAYER
 70
0
  3

 72
65
 73
0
 40
0.0
  0
LTYPE
  5
16
100
AcDbSymbolTableRecord
100
AcDbLinetypeTableRecord
  2
CONTINUOUS
 70
64
  3
Solid line
 72
65
 73
0
 40
0.0
  0
LTYPE
  5
1F5
100
AcDbSymbolTableRecord
100
AcDbLinetypeTableRecord
  2
CENTER
 70
64
  3
____ _ ____ _ ____ _ ____ _ ____ _ ____ _ ____
 72
65
 73
4
 40
0.6
 49
0.375
 74
0
 49
-0.075
 74
0
 49
0.075
 74
0
 49
-0.075
 74
0
  0
LTYPE
  5
1F6
100
AcDbSymbolTableRecord
100
AcDbLinetypeTableRecord
  2
HIDDEN
 70
64
  3
- - - - - - - - - - - - - - - - - - - -
 72
65
 73
2
 40
0.2
 49
0.1
 74
0
 49
-0.1
 74
0
  0
LTYPE
  5
1F7
100
AcDbSymbolTableRecord
100
AcDbLinetypeTableRecord
  2
PHANTOM
 70
64
  3
_____ _ _ _____ _ _ _____ _ _ _____
 72
65
 73
6
 40
0.8
 49
0.45
 74
0
 49
-0.05
 74
0
 49
0.1
 74
0
 49
-0.05
 74
0
 49
0.1
 74
0
 49
-0.05
 74
0
  0
LTYPE
  5
1F8
100
AcDbSymbolTableRecord
100
AcDbLinetypeTableRecord
  2
DOT
 70
64
  3
. . . . . . . . . . . . . . . . . . . .
 72
65
 73
2
 40
0.2
 49
0.1
 74
0
 49
-0.1
 74
0
  0
LTYPE
  5
1F9
100
AcDbSymbolTableRecord
100
AcDbLinetypeTableRecord
  2
DASHED
 70
64
  3
- - - - - - - - - - - - - - - - - - - -
 72
65
 73
2
 40
0.2
 49
0.1
 74
0
 49
-0.1
 74
0
  0
ENDTAB
  0
TABLE
  2
LAYER
  5
2
100
AcDbSymbolTable
 70
36
  0
LAYER
  5
10
100
AcDbSymbolTableRecord
100
AcDbLayerTableRecord
  2
0
 70
0
 62
7
  6
CONTINUOUS
370
-3
390
F
  0
LAYER
  5
1FA
100
AcDbSymbolTableRecord
100
AcDbLayerTableRecord
  2
DEFAULT_1
 70
0
 62
7
  6
CENTER
370
-3
390
F
  0
LAYER
  5
1FB
100
AcDbSymbolTableRecord
100
AcDbLayerTableRecord
  2
DEFAULT_2
 70
0
 62
7
  6
HIDDEN
370
-3
390
F
  0
LAYER
  5
1FC
100
AcDbSymbolTableRecord
100
AcDbLayerTableRecord
  2
DEFAULT_3
 70
0
 62
7
  6
PHANTOM
370
-3
390
F
  0
LAYER
  5
1FD
100
AcDbSymbolTableRecord
100
AcDbLayerTableRecord
  2
ASSI
 70
0
 62
7
  6
CONTINUOUS
370
-3
390
F
  0
LAYER
  5
1FE
100
AcDbSymbolTableRecord
100
AcDbLayerTableRecord
  2
COLOR5
 70
0
 62
7
  6
CONTINUOUS
370
-3
390
F
  0
LAYER
  5
1FF
100
AcDbSymbolTableRecord
100
AcDbLayerTableRecord
  2
COORDINATE
 70
0
 62
7
  6
CONTINUOUS
370
-3
390
F
  0
LAYER
  5
200
100
AcDbSymbolTableRecord
100
AcDbLayerTableRecord
  2
COORD_ORIGINE
 70
0
 62
7
  6
CONTINUOUS
370
-3
390
F
  0
LAYER
  5
201
100
AcDbSymbolTableRecord
100
AcDbLayerTableRecord
  2
COPY_PUBLISH
 70
0
 62
7
  6
CONTINUOUS
370
-3
390
F
  0
LAYER
  5
202
100
AcDbSymbolTableRecord
100
AcDbLayerTableRecord
  2
COSMETICHE
 70
0
 62
7
  6
CONTINUOUS
370
-3
390
F
  0
LAYER
  5
203
100
AcDbSymbolTableRecord
100
AcDbLayerTableRecord
  2
COSMETICI
 70
0
 62
7
  6
CONTINUOUS
370
-3
390
F
  0
LAYER
  5
204
100
AcDbSymbolTableRecord
100
AcDbLayerTableRecord
  2
CURVE
 70
0
 62
7
  6
CONTINUOUS
370
-3
390
F
  0
LAYER
  5
205
100
AcDbSymbolTableRecord
100
AcDbLayerTableRecord
  2
DRAFT
 70
0
 62
7
  6
CONTINUOUS
370
-3
390
F
  0
LAYER
  5
206
100
AcDbSymbolTableRecord
100
AcDbLayerTableRecord
  2
IMPORT_IGES
 70
0
 62
7
  6
CONTINUOUS
370
-3
390
F
  0
LAYER
  5
207
100
AcDbSymbolTableRecord
100
AcDbLayerTableRecord
  2
NOTE
 70
0
 62
7
  6
CONTINUOUS
370
-3
390
F
  0
LAYER
  5
208
100
AcDbSymbolTableRecord
100
AcDbLayerTableRecord
  2
PIANI
 70
0
 62
7
  6
CONTINUOUS
370
-3
390
F
  0
LAYER
  5
209
100
AcDbSymbolTableRecord
100
AcDbLayerTableRecord
  2
PIANI_ORIGINE
 70
0
 62
7
  6
CONTINUOUS
370
-3
390
F
  0
LAYER
  5
20A
100
AcDbSymbolTableRecord
100
AcDbLayerTableRecord
  2
PUNTI
 70
0
 62
7
  6
CONTINUOUS
370
-3
390
F
  0
LAYER
  5
20B
100
AcDbSymbolTableRecord
100
AcDbLayerTableRecord
  2
RACCORDO
 70
0
 62
7
  6
CONTINUOUS
370
-3
390
F
  0
LAYER
  5
20C
100
AcDbSymbolTableRecord
100
AcDbLayerTableRecord
  2
SAGOMA_P40
 70
0
 62
7
  6
CONTINUOUS
370
-3
390
F
  0
LAYER
  5
20D
100
AcDbSymbolTableRecord
100
AcDbLayerTableRecord
  2
SIMBOLI
 70
0
 62
7
  6
CONTINUOUS
370
-3
390
F
  0
LAYER
  5
20E
100
AcDbSymbolTableRecord
100
AcDbLayerTableRecord
  2
SMUSSO
 70
0
 62
7
  6
CONTINUOUS
370
-3
390
F
  0
LAYER
  5
20F
100
AcDbSymbolTableRecord
100
AcDbLayerTableRecord
  2
SUPERFICI
 70
0
 62
7
  6
CONTINUOUS
370
-3
390
F
  0
LAYER
  5
210
100
AcDbSymbolTableRecord
100
AcDbLayerTableRecord
  2
TRASH
 70
0
 62
7
  6
CONTINUOUS
370
-3
390
F
  0
ENDTAB
  0
TABLE
  2
STYLE
  5
3
100
AcDbSymbolTable
 70
1
  0
STYLE
  5
11
100
AcDbSymbolTableRecord
100
AcDbTextStyleTableRecord
  2
STANDARD
 70
0
 40
0.0
 41
0.8
 50
0.0
 71
0
 42
0.2
  3
txt
  4

  0
STYLE
  5
211
100
AcDbSymbolTableRecord
100
AcDbTextStyleTableRecord
  2
TEXTSTYLE_1
 70
0
 40
0.0
 41
0.8
 50
0.0
 71
0
 42
0.2
  3
gdt
  4

  0
ENDTAB
  0
TABLE
  2
VIEW
  5
6
100
AcDbSymbolTable
 70
0
  0
ENDTAB
  0
TABLE
  2
UCS
  5
7
100
AcDbSymbolTable
 70
0
  0
ENDTAB
  0
TABLE
  2
APPID
  5
9
100
AcDbSymbolTable
 70
1
  0
APPID
  5
212
100
AcDbSymbolTableRecord
100
AcDbRegAppTableRecord
  2
ACAD
 70
0
  0
ENDTAB
  0
TABLE
  2
BLOCK_RECORD
  5
1
100
AcDbSymbolTable
 70
0
  0
BLOCK_RECORD
  5
213
100
AcDbSymbolTableRecord
100
AcDbBlockTableRecord
  2
*Model_Space
  0
BLOCK_RECORD
  5
214
100
AcDbSymbolTableRecord
100
AcDbBlockTableRecord
  2
*Paper_Space
  0
ENDTAB
  0
TABLE
  2
DIMSTYLE
  5
A
100
AcDbSymbolTable
 70
1
100
AcDbDimStyleTable
 71
0
  0
DIMSTYLE
105
215
100
AcDbSymbolTableRecord
100
AcDbDimStyleTableRecord
  2
STANDARD
 70
0
  3

  4

 40
1.0
 41
3.0
 42
0.5
 43
0.38
 44
1.5
 45
0.0
 46
0.0
 47
0.01
 48
0.01
140
3.0
141
0.09
142
0.0
143
25.4
144
1.0
145
0.0
146
1.0
147
0.625
 71
1.0
 72
0.0
 73
0
 74
0
 75
0
 76
0
 77
1
 78
8
170
0
171
2
172
0
173
0
174
0
175
0
176
0
177
0
178
0
270
2
271
2
272
2
273
2
274
2
275
0
280
0
281
0
282
0
283
1
284
8
285
0
286
0
287
3
288
0
340
11
278
44
  0
ENDTAB
  0
ENDSEC
  0
SECTION
  2
BLOCKS
  0
BLOCK
  5
20
100
AcDbEntity
  8
0
100
AcDbBlockBegin
  2
*Model_Space
 70
0
 10
0.0
 20
0.0
 30
0.0
  3
*Model_Space
  1

  0
ENDBLK
  5
21
100
AcDbEntity
  8
0
100
AcDbBlockEnd
  0
BLOCK
  5
1C
100
AcDbEntity
  8
0
100
AcDbBlockBegin
  2
*Paper_Space
 70
0
 10
0.0
 20
0.0
 30
0.0
  3
*Paper_Space
  1

  0
ENDBLK
  5
1D
100
AcDbEntity
  8
0
100
AcDbBlockEnd
  0
ENDSEC
  0
SECTION
  2
ENTITIES
  0
LWPOLYLINE
  5
216
100
AcDbEntity
  8
0
100
AcDbPolyline
 62
7
  6
CONTINUOUS
 90
18
 70
0
 10
-24.0928564698
 20
24.3668082295
 10
-24.1368876791
 20
24.2807505107
 10
-24.175023516
 20
24.1938573304
 10
-24.2072984114
 20
24.106503915
 10
-24.2337696086
 20
24.0190595458
 10
-24.2545166324
 20
23.9318862151
 10
-24.2696406826
 20
23.8453373212
 10
-24.2792639514
 20
23.7597564082
 10
-24.2835288695
 20
23.6754759526
 10
-24.282597284
 20
23.5928162024
 10
-24.27664957
 20
23.5120840711
 10
-24.2658836818
 20
23.4335720921
 10
-24.250514145
 20
23.357557435
 10
-24.2307709951
 20
23.2843009877
 10
-24.2068986664
 20
23.2140465079
 10
-24.1791548348
 20
23.1470198452
 10
-24.1478092202
 20
23.0834282377
 10
-24.1131423512
 20
23.0234596844
  0
LWPOLYLINE
  5
217
100
AcDbEntity
  8
0
100
AcDbPolyline
 62
7
  6
CONTINUOUS
 90
34
 70
0
 10
-24.092733434
 20
24.3666634878
 10
-24.1773818516
 20
24.2947092216
 10
-24.2613179009
 20
24.2130857951
 10
-24.3396083355
 20
24.1260326375
 10
-24.4119027302
 20
24.0339393957
 10
-24.4778774974
 20
23.9372182757
 10
-24.5372373361
 20
23.8363021977
 10
-24.5897165537
 20
23.7316428586
 10
-24.6350802546
 20
23.6237087098
 10
-24.6731253923
 20
23.5129828608
 10
-24.7036816777
 20
23.3999609166
 10
-24.7266123418
 20
23.2851487596
 10
-24.7418147474
 20
23.1690602849
 10
-24.7492208487
 20
23.0522151008
 10
-24.748797496
 20
22.9351362022
 10
-24.740546584
 20
22.8183476303
 10
-24.7245050431
 20
22.702372127
 10
-24.7007446745
 20
22.5877287948
 10
-24.6693718286
 20
22.4749307735
 10
-24.6305269288
 20
22.3644829433
 10
-24.5843838433
 20
22.2568796652
 10
-24.5311491069
 20
22.1526025681
 10
-24.4710609961
 20
22.0521183929
 10
-24.4043884631
 20
21.9558769038
 10
-24.3314299317
 20
21.8643088746
 10
-24.2525119618
 20
21.7778241611
 10
-24.1679877873
 20
21.6968098663
 10
-24.0782357355
 20
21.6216286079
 10
-23.9836575335
 20
21.5526168949
 10
-23.8846765101
 20
21.4900836219
 10
-23.781735701
 20
21.4343086862
 10
-23.675295866
 20
21.3855417348
 10
-23.5658334261
 20
21.3440010475
 10
-23.4538383317
 20
21.3098725593
  0
LWPOLYLINE
  5
218
100
AcDbEntity
  8
0
100
AcDbPolyline
 62
7
  6
CONTINUOUS
 90
22
 70
0
 10
-23.6766795445
 20
23.8463061671
 10
-23.6194507774
 20
23.8929352685
 10
-23.5588447771
 20
23.9357920707
 10
-23.4951029223
 20
23.974621703
 10
-23.4283515446
 20
24.0092482459
 10
-23.3589965211
 20
24.03936525
 10
-23.2877673534
 20
24.0646299365
 10
-23.2150868856
 20
24.0849248952
 10
-23.1412299391
 20
24.1002055495
 10
-23.0667604019
 20
24.1104012209
 10
-22.9922462709
 20
24.115523603
 10
-22.917822552
 20
24.1156523462
 10
-22.8433993213
 20
24.1108125405
 10
-22.7692476296
 20
24.1009982162
 10
-22.6957609082
 20
24.0862377419
 10
-22.6230354929
 20
24.066507982
 10
-22.5512294219
 20
24.0417629722
 10
-22.4808749388
 20
24.0120947738
 10
-22.4126148429
 20
23.9777386855
 10
-22.3468536574
 20
23.938912647
 10
-22.2837830307
 20
23.8957449271
 10
-22.2236842704
 20
23.8484302493
  0
LINE
  5
219
100
AcDbEntity
  8
0
100
AcDbLine
 62
7
  6
CONTINUOUS
 10
-22.3233204555
 20
-23.8463061671
 11
-21.9071435302
 21
-24.3668082295
  0
LINE
  5
21A
100
AcDbEntity
  8
0
100
AcDbLine
 62
7
  6
CONTINUOUS
 10
-23.6766795445
 20
-22.1536938329
 11
-24.0928564698
 21
-21.6331917705
  0
LINE
  5
21B
100
AcDbEntity
  8
0
100
AcDbLine
 62
7
  6
CONTINUOUS
 10
-24.1131423512
 20
-22.9765403156
 11
-24.0754442988
 21
-23.0327176049
  0
LWPOLYLINE
  5
21C
100
AcDbEntity
  8
0
100
AcDbPolyline
 62
7
  6
CONTINUOUS
 90
18
 70
0
 10
-21.9071435302
 20
21.6331917705
 10
-21.8631123209
 20
21.7192494893
 10
-21.824976484
 20
21.8061426696
 10
-21.7927015886
 20
21.893496085
 10
-21.7662303914
 20
21.9809404542
 10
-21.7454833676
 20
22.0681137849
 10
-21.7303593174
 20
22.1546626788
 10
-21.7207360486
 20
22.2402435918
 10
-21.7164711305
 20
22.3245240474
 10
-21.717402716
 20
22.4071837976
 10
-21.72335043
 20
22.4879159289
 10
-21.7341163182
 20
22.5664279079
 10
-21.749485855
 20
22.642442565
 10
-21.7692290049
 20
22.7156990123
 10
-21.7931013336
 20
22.7859534921
 10
-21.8208451652
 20
22.8529801548
 10
-21.8521907798
 20
22.9165717623
 10
-21.8868576488
 20
22.9765403156
  0
LWPOLYLINE
  5
21D
100
AcDbEntity
  8
0
100
AcDbPolyline
 62
7
  6
CONTINUOUS
 90
34
 70
0
 10
-21.907266566
 20
21.6333365122
 10
-21.8226181484
 20
21.7052907784
 10
-21.7386820991
 20
21.7869142049
 10
-21.6603916645
 20
21.8739673625
 10
-21.5880972698
 20
21.9660606043
 10
-21.5221225026
 20
22.0627817243
 10
-21.4627626639
 20
22.1636978023
 10
-21.4102834463
 20
22.2683571414
 10
-21.3649197454
 20
22.3762912902
 10
-21.3268746077
 20
22.4870171392
 10
-21.2963183223
 20
22.6000390834
 10
-21.2733876582
 20
22.7148512404
 10
-21.2581852526
 20
22.8309397151
 10
-21.2507791513
 20
22.9477848992
 10
-21.251202504
 20
23.0648637978
 10
-21.259453416
 20
23.1816523697
 10
-21.2754949569
 20
23.297627873
 10
-21.2992553255
 20
23.4122712052
 10
-21.3306281714
 20
23.5250692265
 10
-21.3694730712
 20
23.6355170567
 10
-21.4156161567
 20
23.7431203348
 10
-21.4688508931
 20
23.8473974319
 10
-21.5289390039
 20
23.9478816071
 10
-21.5956115369
 20
24.0441230962
 10
-21.6685700683
 20
24.1356911254
 10
-21.7474880382
 20
24.2221758389
 10
-21.8320122127
 20
24.3031901337
 10
-21.9217642645
 20
24.3783713921
 10
-22.0163424665
 20
24.4473831051
 10
-22.1153234899
 20
24.5099163781
 10
-22.218264299
 20
24.5656913138
 10
-22.324704134
 20
24.6144582652
 10
-22.4341665739
 20
24.6559989525
 10
-22.5461616683
 20
24.6901274407
  0
LWPOLYLINE
  5
21E
100
AcDbEntity
  8
0
100
AcDbPolyline
 62
7
  6
CONTINUOUS
 90
22
 70
0
 10
-22.3233204555
 20
22.1536938329
 10
-22.3805592261
 20
22.1070571323
 10
-22.441170818
 20
22.0641976813
 10
-22.5049129689
 20
22.0253693472
 10
-22.5716587719
 20
21.9907468449
 10
-22.6410015958
 20
21.9606354917
 10
-22.7122109708
 20
21.9353769239
 10
-22.7848558805
 20
21.9150889982
 10
-22.8586690485
 20
21.8998117896
 10
-22.9331106386
 20
21.8896120139
 10
-23.0076263532
 20
21.8844808759
 10
-23.0820690334
 20
21.8843442319
 10
-23.1565142711
 20
21.8891789462
 10
-23.2306883485
 20
21.8989911316
 10
-23.3041998741
 20
21.9137530138
 10
-23.3769452444
 20
21.9334860956
 10
-23.4487637785
 20
21.9582344263
 10
-23.5191259977
 20
21.9879056587
 10
-23.5873902782
 20
22.0222641112
 10
-23.6531526402
 20
22.0610913611
 10
-23.7162214257
 20
22.1042583467
 10
-23.7763157296
 20
22.1515697507
  0
LINE
  5
21F
100
AcDbEntity
  8
0
100
AcDbLine
 62
7
  6
CONTINUOUS
 10
-23.4538383317
 20
-24.6901274407
 11
-23.3398118692
 21
-24.7166909712
  0
LINE
  5
220
100
AcDbEntity
  8
0
100
AcDbLine
 62
7
  6
CONTINUOUS
 10
-21.8868576488
 20
-23.0234596844
 11
-21.9245557012
 21
-22.9672823951
  0
LWPOLYLINE
  5
221
100
AcDbEntity
  8
0
100
AcDbPolyline
 62
7
  6
CONTINUOUS
 90
14
 70
0
 10
-23.3398118692
 20
-24.7166909712
 10
-23.2242644175
 20
-24.7355706463
 10
-23.1077131633
 20
-24.7466819607
 10
-22.9906797864
 20
-24.7499751802
 10
-22.8736881246
 20
-24.745435564
 10
-22.757261829
 20
-24.7330834309
 10
-22.6419220202
 20
-24.7129740683
 10
-22.5281849558
 20
-24.6851974848
 10
-22.4165597196
 20
-24.649878007
 10
-22.3075459428
 20
-24.6071737236
 10
-22.2016315681
 20
-24.5572757772
 10
-22.0992906652
 20
-24.5004075092
 10
-22.0009813092
 20
-24.43682346
 10
-21.9071435302
 20
-24.3668082295
  0
LWPOLYLINE
  5
222
100
AcDbEntity
  8
0
100
AcDbPolyline
 62
7
  6
CONTINUOUS
 90
7
 70
0
 10
-24.0754442988
 20
-23.0327176049
 10
-24.0756380471
 20
-23.0272669663
 10
-24.0758041687
 20
-23.0218152228
 10
-24.0759426574
 20
-23.0163625143
 10
-24.0760535079
 20
-23.0109089809
 10
-24.0761367155
 20
-23.0054547628
 10
-24.0761922761
 20
-23.0
  0
LWPOLYLINE
  5
223
100
AcDbEntity
  8
0
100
AcDbPolyline
 62
7
  6
CONTINUOUS
 90
7
 70
0
 10
-24.0754442988
 20
22.9672823951
 10
-24.0756380471
 20
22.9727330337
 10
-24.0758041687
 20
22.9781847772
 10
-24.0759426574
 20
22.9836374857
 10
-24.0760535079
 20
22.9890910191
 10
-24.0761367155
 20
22.9945452372
 10
-24.0761922761
 20
23.0
  0
LWPOLYLINE
  5
224
100
AcDbEntity
  8
0
100
AcDbPolyline
 62
7
  6
CONTINUOUS
 90
16
 70
0
 10
-24.0761922761
 20
23.0
 10
-24.0747664941
 20
23.0642248261
 10
-24.0695120996
 20
23.1282569878
 10
-24.0604483397
 20
23.1918685907
 10
-24.0476221554
 20
23.2547732315
 10
-24.0310727116
 20
23.3168092397
 10
-24.01079554
 20
23.3779312425
 10
-23.9867819572
 20
23.4380260978
 10
-23.9591234887
 20
23.4967460594
 10
-23.9279860875
 20
23.553701555
 10
-23.8934889411
 20
23.6086789507
 10
-23.8557528045
 20
23.6614897636
 10
-23.8150183011
 20
23.7118238487
 10
-23.7714915246
 20
23.7594813111
 10
-23.7253172491
 20
23.804354624
 10
-23.6766795445
 20
23.8463061671
  0
LWPOLYLINE
  5
225
100
AcDbEntity
  8
0
100
AcDbPolyline
 62
7
  6
CONTINUOUS
 90
16
 70
0
 10
-24.0761922761
 20
-23.0
 10
-24.0747664941
 20
-22.9357751739
 10
-24.0695120996
 20
-22.8717430122
 10
-24.0604483397
 20
-22.8081314093
 10
-24.0476221554
 20
-22.7452267685
 10
-24.0310727116
 20
-22.6831907603
 10
-24.01079554
 20
-22.6220687575
 10
-23.9867819572
 20
-22.5619739022
 10
-23.9591234887
 20
-22.5032539406
 10
-23.9279860875
 20
-22.446298445
 10
-23.8934889411
 20
-22.3913210493
 10
-23.8557528045
 20
-22.3385102364
 10
-23.8150183011
 20
-22.2881761513
 10
-23.7714915246
 20
-22.2405186889
 10
-23.7253172491
 20
-22.195645376
 10
-23.6766795445
 20
-22.1536938329
  0
LWPOLYLINE
  5
226
100
AcDbEntity
  8
0
100
AcDbPolyline
 62
7
  6
CONTINUOUS
 90
10
 70
0
 10
-22.7919167296
 20
10.2385858653
 10
-22.769471805
 20
10.3822263394
 10
-22.7370022559
 20
10.5227657357
 10
-22.6945080822
 20
10.6602040541
 10
-22.6415472404
 20
10.7954602814
 10
-22.5785617741
 20
10.9276154308
 10
-22.5068778139
 20
11.0539125421
 10
-22.4269374033
 20
11.1734326287
 10
-22.3382984989
 20
11.2870946771
 10
-22.2409611005
 20
11.3948986875
  0
LWPOLYLINE
  5
227
100
AcDbEntity
  8
0
100
AcDbPolyline
 62
253
  6
CONTINUOUS
 90
10
 70
0
 10
-21.7861103952
 20
11.0026304019
 10
-21.8595177194
 20
10.9214639933
 10
-21.9263304663
 20
10.8359198797
 10
-21.986548636
 20
10.7459980611
 10
-22.0404965108
 20
10.6509943662
 10
-22.0878498084
 20
10.5516129663
 10
-22.1276356814
 20
10.4499663751
 10
-22.1595298474
 20
10.3467587638
 10
-22.1838565889
 20
10.2412859611
 10
-22.2006159059
 20
10.133547967
  0
LWPOLYLINE
  5
228
100
AcDbEntity
  8
0
100
AcDbPolyline
 62
253
  6
CONTINUOUS
 90
10
 70
0
 10
-22.1443749376
 20
11.3512998313
 10
-22.2419295661
 20
11.243476099
 10
-22.3313442305
 20
11.1289148302
 10
-22.412160731
 20
11.0082317128
 10
-22.4839514606
 20
10.8821036576
 10
-22.5463739371
 20
10.7511754684
 10
-22.5991498887
 20
10.6160453987
 10
-22.6420059902
 20
10.4773892078
 10
-22.6746980441
 20
10.3359672406
 10
-22.6970489519
 20
10.1925232515
  0
LWPOLYLINE
  5
229
100
AcDbEntity
  8
0
100
AcDbPolyline
 62
7
  6
CONTINUOUS
 90
14
 70
0
 10
-22.6601881308
 20
-21.2833090288
 10
-22.7757355825
 20
-21.2644293537
 10
-22.8922868367
 20
-21.2533180393
 10
-23.0093202136
 20
-21.2500248198
 10
-23.1263118754
 20
-21.254564436
 10
-23.242738171
 20
-21.2669165691
 10
-23.3580779798
 20
-21.2870259317
 10
-23.4718150442
 20
-21.3148025152
 10
-23.5834402804
 20
-21.350121993
 10
-23.6924540572
 20
-21.3928262764
 10
-23.7983684319
 20
-21.4427242228
 10
-23.9007093348
 20
-21.4995924908
 10
-23.9990186908
 20
-21.56317654
 10
-24.0928564698
 20
-21.6331917705
  0
LINE
  5
22A
100
AcDbEntity
  8
0
100
AcDbLine
 62
7
  6
CONTINUOUS
 10
-22.5461616683
 20
-21.3098725593
 11
-22.6601881308
 21
-21.2833090288
  0
LINE
  5
22B
100
AcDbEntity
  8
0
100
AcDbLine
 62
253
  6
CONTINUOUS
 10
-11.7738174026
 20
-22.526106445
 11
-11.8
 21
-22.4999238476
  0
LINE
  5
22C
100
AcDbEntity
  8
0
100
AcDbLine
 62
253
  6
CONTINUOUS
 10
-7.8261825974
 20
-25.973893555
 11
-7.8
 21
-26.0000761524
  0
LINE
  5
22D
100
AcDbEntity
  8
0
100
AcDbLine
 62
253
  6
CONTINUOUS
 10
-11.273893555
 20
-22.0261825974
 11
-11.3000761524
 21
-22.0
  0
LWPOLYLINE
  5
22E
100
AcDbEntity
  8
0
100
AcDbPolyline
 62
7
  6
CONTINUOUS
 90
10
 70
0
 10
-22.2409611005
 20
-11.3948986875
 10
-22.3383599849
 20
-11.2870066312
 10
-22.4270412243
 20
-11.1732761391
 10
-22.5070048187
 20
-11.0537072111
 10
-22.5786877721
 20
-10.9273776483
 10
-22.6416530804
 20
-10.7952096496
 10
-22.6945897316
 20
-10.6599698122
 10
-22.7370607215
 20
-10.5225803352
 10
-22.7695030541
 20
-10.3821190196
 10
-22.7919167296
 20
-10.2385858653
  0
LWPOLYLINE
  5
22F
100
AcDbEntity
  8
0
100
AcDbPolyline
 62
253
  6
CONTINUOUS
 90
10
 70
0
 10
-22.2006159059
 20
-10.133547967
 10
-22.1837391428
 20
-10.2416781902
 10
-22.159310205
 20
-10.3474382775
 10
-22.1273290923
 20
-10.4508282289
 10
-22.0874527066
 20
-10.5525430326
 10
-22.040024146
 20
-10.6518877005
 10
-21.9860727052
 20
-10.7467772678
 10
-21.9259414822
 20
-10.8365167464
 10
-21.8592873788
 20
-10.9218011244
 10
-21.7861103952
 20
-11.0026304019
  0
LWPOLYLINE
  5
230
100
AcDbEntity
  8
0
100
AcDbPolyline
 62
253
  6
CONTINUOUS
 90
10
 70
0
 10
-22.6970489519
 20
-10.1925232515
 10
-22.6746541792
 20
-10.3361941446
 10
-22.6419006116
 20
-10.4777796854
 10
-22.5989783338
 20
-10.6165363111
 10
-22.5461442549
 20
-10.7517057162
 10
-22.4836839181
 20
-10.8826159218
 10
-22.4118871258
 20
-11.0086741175
 10
-22.3311070172
 20
-11.1292425928
 10
-22.241780778
 20
-11.2436530672
 10
-22.1443749376
 20
-11.3512998313
  0
LWPOLYLINE
  5
231
100
AcDbEntity
  8
RACCORDO
100
AcDbPolyline
 62
253
  6
CONTINUOUS
 90
5
 70
0
 10
-21.7340245667
 20
-5.1232523139
 10
-21.7321791856
 20
-5.1660859636
 10
-21.726651778
 20
-5.2087175809
 10
-21.7174539631
 20
-5.2508282231
 10
-21.7045907741
 20
-5.2921945441
  0
LWPOLYLINE
  5
232
100
AcDbEntity
  8
RACCORDO
100
AcDbPolyline
 62
253
  6
CONTINUOUS
 90
13
 70
0
 10
-21.5625723589
 20
-5.1676925165
 10
-21.5607269778
 20
-5.2105261662
 10
-21.5551995702
 20
-5.2531577835
 10
-21.5460017553
 20
-5.2952684257
 10
-21.5331385663
 20
-5.3366347467
 10
-21.516695618
 20
-5.376836983
 10
-21.4969209489
 20
-5.4152948989
 10
-21.4740815551
 20
-5.4516346523
 10
-21.4483319884
 20
-5.4857346201
 10
-21.419835827
 20
-5.5174400694
 10
-21.3887963334
 20
-5.546557386
 10
-21.355475136
 20
-5.5728709053
 10
-21.3201283274
 20
-5.5962108915
  0
LWPOLYLINE
  5
233
100
AcDbEntity
  8
0
100
AcDbPolyline
 62
7
  6
CONTINUOUS
 90
7
 70
0
 10
-21.9245557012
 20
-22.9672823951
 10
-21.9243619529
 20
-22.9727330337
 10
-21.9241958313
 20
-22.9781847772
 10
-21.9240573426
 20
-22.9836374857
 10
-21.9239464921
 20
-22.9890910191
 10
-21.9238632845
 20
-22.9945452372
 10
-21.9238077239
 20
-23.0
  0
LWPOLYLINE
  5
234
100
AcDbEntity
  8
0
100
AcDbPolyline
 62
7
  6
CONTINUOUS
 90
7
 70
0
 10
-21.9245557012
 20
23.0327176049
 10
-21.9243619529
 20
23.0272669663
 10
-21.9241958313
 20
23.0218152228
 10
-21.9240573426
 20
23.0163625143
 10
-21.9239464921
 20
23.0109089809
 10
-21.9238632845
 20
23.0054547628
 10
-21.9238077239
 20
23.0
  0
LINE
  5
235
100
AcDbEntity
  8
RACCORDO
100
AcDbLine
 62
7
  6
CONTINUOUS
 10
-21.9
 20
-5.1676192421
 11
-21.9
 21
5.2171566959
  0
LINE
  5
236
100
AcDbEntity
  8
RACCORDO
100
AcDbLine
 62
253
  6
CONTINUOUS
 10
-21.7340245667
 20
-5.1232523139
 11
-21.7340245667
 21
5.1232523139
  0
LINE
  5
237
100
AcDbEntity
  8
RACCORDO
100
AcDbLine
 62
7
  6
CONTINUOUS
 10
-21.65
 20
-5.2171566959
 11
-21.65
 21
5.2171566959
  0
LINE
  5
238
100
AcDbEntity
  8
RACCORDO
100
AcDbLine
 62
253
  6
CONTINUOUS
 10
-21.5625723589
 20
5.1676925165
 11
-21.5625723589
 21
-5.1676925165
  0
LINE
  5
239
100
AcDbEntity
  8
RACCORDO
100
AcDbLine
 62
253
  6
CONTINUOUS
 10
-21.0626485113
 20
5.1676925165
 11
-21.0626485113
 21
-5.1676925165
  0
LWPOLYLINE
  5
23A
100
AcDbEntity
  8
0
100
AcDbPolyline
 62
7
  6
CONTINUOUS
 90
16
 70
0
 10
-21.9238077239
 20
23.0
 10
-21.925233866
 20
22.9357682611
 10
-21.9304894193
 20
22.8717294726
 10
-21.9395550891
 20
22.8081115969
 10
-21.9523840662
 20
22.7452003085
 10
-21.9689370371
 20
22.68315815
 10
-21.9892175758
 20
22.6220328478
 10
-22.0132337503
 20
22.5619377778
 10
-22.040893678
 20
22.5032201685
 10
-22.0720302837
 20
22.446270527
 10
-22.1065217053
 20
22.3913051628
 10
-22.1442483193
 20
22.3385087595
 10
-22.1849753891
 20
22.2881834879
 10
-22.2284999775
 20
22.2405274536
 10
-22.2746761242
 20
22.1956514436
 10
-22.3233204555
 20
22.1536938329
  0
LWPOLYLINE
  5
23B
100
AcDbEntity
  8
0
100
AcDbPolyline
 62
7
  6
CONTINUOUS
 90
16
 70
0
 10
-21.9238077239
 20
-23.0
 10
-21.925233866
 20
-23.0642317389
 10
-21.9304894193
 20
-23.1282705274
 10
-21.9395550891
 20
-23.1918884031
 10
-21.9523840662
 20
-23.2547996915
 10
-21.9689370371
 20
-23.31684185
 10
-21.9892175758
 20
-23.3779671522
 10
-22.0132337503
 20
-23.4380622222
 10
-22.040893678
 20
-23.4967798315
 10
-22.0720302837
 20
-23.553729473
 10
-22.1065217053
 20
-23.6086948372
 10
-22.1442483193
 20
-23.6614912405
 10
-22.1849753891
 20
-23.7118165121
 10
-22.2284999775
 20
-23.7594725464
 10
-22.2746761242
 20
-23.8043485564
 10
-22.3233204555
 20
-23.8463061671
  0
LWPOLYLINE
  5
23C
100
AcDbEntity
  8
RACCORDO
100
AcDbPolyline
 62
253
  6
CONTINUOUS
 90
5
 70
0
 10
-21.704842931
 20
5.2914908033
 10
-21.7175335964
 20
5.2505262515
 10
-21.7266677795
 20
5.2086253805
 10
-21.7321782827
 20
5.1660964434
 10
-21.7340245667
 20
5.1232523139
  0
LINE
  5
23D
100
AcDbEntity
  8
0
100
AcDbLine
 62
7
  6
CONTINUOUS
 10
-23.0051775874
 20
7.9761825974
 11
-23.0338928645
 21
7.95
  0
LINE
  5
23E
100
AcDbEntity
  8
0
100
AcDbLine
 62
7
  6
CONTINUOUS
 10
-3.4541446572
 20
-22.3041065803
 11
3.4541446572
 21
-22.3041065803
  0
LINE
  5
23F
100
AcDbEntity
  8
0
100
AcDbLine
 62
7
  6
CONTINUOUS
 10
-3.3249870139
 20
-22.174948937
 11
3.3249870139
 21
-22.174948937
  0
LINE
  5
240
100
AcDbEntity
  8
0
100
AcDbLine
 62
7
  6
CONTINUOUS
 10
-8.326106445
 20
-22.0261825974
 11
-9.3261825974
 21
-22.0261825974
  0
LINE
  5
241
100
AcDbEntity
  8
0
100
AcDbLine
 62
7
  6
CONTINUOUS
 10
-10.2738174026
 20
-22.0261825974
 11
-11.273893555
 21
-22.0261825974
  0
LINE
  5
242
100
AcDbEntity
  8
0
100
AcDbLine
 62
7
  6
CONTINUOUS
 10
-8.2999238476
 20
-22.0
 11
-9.3
 21
-22.0
  0
LINE
  5
243
100
AcDbEntity
  8
0
100
AcDbLine
 62
7
  6
CONTINUOUS
 10
-10.3
 20
-22.0
 11
-11.3000761524
 21
-22.0
  0
LINE
  5
244
100
AcDbEntity
  8
0
100
AcDbLine
 62
7
  6
CONTINUOUS
 10
3.4207897551
 20
-20.9707897551
 11
-3.4207897551
 21
-20.9707897551
  0
LINE
  5
245
100
AcDbEntity
  8
0
100
AcDbLine
 62
7
  6
CONTINUOUS
 10
3.2043253562
 20
-20.7543253562
 11
-3.2043253562
 21
-20.7543253562
  0
LINE
  5
246
100
AcDbEntity
  8
0
100
AcDbLine
 62
253
  6
CONTINUOUS
 10
3.2
 20
-20.2543443947
 11
-3.2
 21
-20.2543443947
  0
LWPOLYLINE
  5
247
100
AcDbEntity
  8
0
100
AcDbPolyline
 62
7
  6
CONTINUOUS
 90
14
 70
0
 10
22.6601881308
 20
-24.7166909712
 10
22.7757355825
 20
-24.7355706463
 10
22.8922868367
 20
-24.7466819607
 10
23.0093202136
 20
-24.7499751802
 10
23.1263118754
 20
-24.745435564
 10
23.242738171
 20
-24.7330834309
 10
23.3580779798
 20
-24.7129740683
 10
23.4718150442
 20
-24.6851974848
 10
23.5834402804
 20
-24.649878007
 10
23.6924540572
 20
-24.6071737236
 10
23.7983684319
 20
-24.5572757772
 10
23.9007093348
 20
-24.5004075092
 10
23.9990186908
 20
-24.43682346
 10
24.0928564698
 20
-24.3668082295
  0
LINE
  5
248
100
AcDbEntity
  8
0
100
AcDbLine
 62
7
  6
CONTINUOUS
 10
-10.3
 20
-22.0
 11
-10.2738174026
 21
-22.0261825974
  0
LINE
  5
249
100
AcDbEntity
  8
RACCORDO
100
AcDbLine
 62
253
  6
CONTINUOUS
 10
-18.6608940154
 20
-8.2558964287
 11
-18.6756571446
 21
-8.2267994996
  0
LINE
  5
24A
100
AcDbEntity
  8
RACCORDO
100
AcDbLine
 62
253
  6
CONTINUOUS
 10
-18.6472769531
 20
-8.283092488
 11
-18.6608940154
 21
-8.2558964287
  0
LINE
  5
24B
100
AcDbEntity
  8
RACCORDO
100
AcDbLine
 62
253
  6
CONTINUOUS
 10
-18.6344946445
 20
-8.3089403025
 11
-18.6472769531
 21
-8.283092488
  0
LWPOLYLINE
  5
24C
100
AcDbEntity
  8
RACCORDO
100
AcDbPolyline
 62
253
  6
CONTINUOUS
 90
7
 70
0
 10
-21.7045907741
 20
-5.2921945441
 10
-21.6881478258
 20
-5.3323967804
 10
-21.6683731567
 20
-5.3708546963
 10
-21.6455337629
 20
-5.4071944497
 10
-21.6197841962
 20
-5.4412944175
 10
-21.5912880348
 20
-5.4729998668
 10
-21.561547268
 20
-5.5008988826
  0
LWPOLYLINE
  5
24D
100
AcDbEntity
  8
RACCORDO
100
AcDbPolyline
 62
7
  6
CONTINUOUS
 90
4
 70
0
 10
-21.834332279
 20
-5.2120540063
 10
-21.8336051822
 20
-5.2143567617
 10
-21.8326465736
 20
-5.21975018
 10
-21.8295250204
 20
-5.2399740404
  0
LWPOLYLINE
  5
24E
100
AcDbEntity
  8
RACCORDO
100
AcDbPolyline
 62
7
  6
CONTINUOUS
 90
12
 70
0
 10
-21.8295250204
 20
-5.2399740404
 10
-21.8269687942
 20
-5.2547537069
 10
-21.8235406104
 20
-5.2718897031
 10
-21.8189943732
 20
-5.2913011042
 10
-21.8130442944
 20
-5.3129100474
 10
-21.8055792032
 20
-5.336033371
 10
-21.7963297789
 20
-5.3606071118
 10
-21.7850656423
 20
-5.3863889013
 10
-21.7719277202
 20
-5.41245347
 10
-21.756943371
 20
-5.4383991741
 10
-21.7398877568
 20
-5.464287457
 10
-21.7206653989
 20
-5.4899132314
  0
LWPOLYLINE
  5
24F
100
AcDbEntity
  8
RACCORDO
100
AcDbPolyline
 62
253
  6
CONTINUOUS
 90
16
 70
0
 10
-17.424677346
 20
-3.9247534984
 10
-17.4219065817
 20
-3.9771633518
 10
-17.4136567893
 20
-4.0289954264
 10
-17.4000189439
 20
-4.0796784997
 10
-17.3811408254
 20
-4.1286597792
 10
-17.3572319024
 20
-4.1753931828
 10
-17.3285669311
 20
-4.2193482996
 10
-17.2954747751
 20
-4.2600352762
 10
-17.2583181116
 20
-4.2970206848
 10
-17.2174956618
 20
-4.329912266
 10
-17.173390684
 20
-4.3583866659
 10
-17.126546279
 20
-4.3820797599
 10
-17.0776795566
 20
-4.4006664514
 10
-17.0274171402
 20
-4.4139911024
 10
-16.9762554271
 20
-4.4220017304
 10
-16.9247534984
 20
-4.424677346
  0
LINE
  5
250
100
AcDbEntity
  8
0
100
AcDbLine
 62
7
  6
CONTINUOUS
 10
-18.9
 20
9.9000114231
 11
-18.9
 21
7.3025818571
  0
LINE
  5
251
100
AcDbEntity
  8
0
100
AcDbLine
 62
7
  6
CONTINUOUS
 10
-18.9
 20
-8.8535672184
 11
-18.9
 21
-9.9000114231
  0
LINE
  5
252
100
AcDbEntity
  8
0
100
AcDbLine
 62
7
  6
CONTINUOUS
 10
-18.8476387933
 20
9.8476502163
 11
-18.8476387933
 21
7.3340436442
  0
LINE
  5
253
100
AcDbEntity
  8
0
100
AcDbLine
 62
7
  6
CONTINUOUS
 10
-18.8476387933
 20
-8.770581369
 11
-18.8476387933
 21
-9.8476502163
  0
LINE
  5
254
100
AcDbEntity
  8
0
100
AcDbLine
 62
7
  6
CONTINUOUS
 10
-18.3523612067
 20
-9.7523612067
 11
-18.3523612067
 21
-7.9763365773
  0
LINE
  5
255
100
AcDbEntity
  8
0
100
AcDbLine
 62
7
  6
CONTINUOUS
 10
-18.3523612067
 20
7.6316364414
 11
-18.3523612067
 21
9.7523612067
  0
LINE
  5
256
100
AcDbEntity
  8
0
100
AcDbLine
 62
7
  6
CONTINUOUS
 10
-17.7471252854
 20
-9.1471252854
 11
-17.7471252854
 21
-7.9888343558
  0
LINE
  5
257
100
AcDbEntity
  8
0
100
AcDbLine
 62
7
  6
CONTINUOUS
 10
-17.7471252854
 20
7.9952988717
 11
-17.7471252854
 21
9.1471252854
  0
LINE
  5
258
100
AcDbEntity
  8
0
100
AcDbLine
 62
7
  6
CONTINUOUS
 10
-17.7
 20
-9.1
 11
-17.7
 21
-8.0236145999
  0
LINE
  5
259
100
AcDbEntity
  8
0
100
AcDbLine
 62
7
  6
CONTINUOUS
 10
-17.7
 20
8.0236145999
 11
-17.7
 21
9.1
  0
LINE
  5
25A
100
AcDbEntity
  8
RACCORDO
100
AcDbLine
 62
7
  6
CONTINUOUS
 10
-17.65
 20
4.1500761524
 11
-17.65
 21
-4.1500761524
  0
LINE
  5
25B
100
AcDbEntity
  8
RACCORDO
100
AcDbLine
 62
7
  6
CONTINUOUS
 10
-17.5
 20
8.2000109662
 11
-17.5
 21
8.1437867237
  0
LINE
  5
25C
100
AcDbEntity
  8
RACCORDO
100
AcDbLine
 62
7
  6
CONTINUOUS
 10
-17.5
 20
-8.1437867237
 11
-17.5
 21
-8.2000109662
  0
LINE
  5
25D
100
AcDbEntity
  8
RACCORDO
100
AcDbLine
 62
253
  6
CONTINUOUS
 10
-17.424677346
 20
3.9247534984
 11
-17.424677346
 21
-3.9247534984
  0
LINE
  5
25E
100
AcDbEntity
  8
0
100
AcDbLine
 62
7
  6
CONTINUOUS
 10
-9.3261825974
 20
19.3364128264
 11
-9.3
 21
19.3721152439
  0
LINE
  5
25F
100
AcDbEntity
  8
0
100
AcDbLine
 62
7
  6
CONTINUOUS
 10
-15.15
 20
10.2
 11
-15.2023612067
 21
10.1476387933
  0
LWPOLYLINE
  5
260
100
AcDbEntity
  8
RACCORDO
100
AcDbPolyline
 62
253
  6
CONTINUOUS
 90
7
 70
0
 10
-21.5614143058
 20
5.5010761324
 10
-21.5921821151
 20
5.4720842445
 10
-21.6207594136
 20
5.4401079173
 10
-21.6464921707
 20
5.4058005708
 10
-21.6691910778
 20
5.3694145948
 10
-21.6886891452
 20
5.3312176709
 10
-21.704842931
 20
5.2914908033
  0
LINE
  5
261
100
AcDbEntity
  8
0
100
AcDbLine
 62
7
  6
CONTINUOUS
 10
3.0
 20
-19.2
 11
-3.0
 21
-19.2
  0
LINE
  5
262
100
AcDbEntity
  8
0
100
AcDbLine
 62
253
  6
CONTINUOUS
 10
3.0
 20
-17.4
 11
-3.0
 21
-17.4
  0
LINE
  5
263
100
AcDbEntity
  8
0
100
AcDbLine
 62
7
  6
CONTINUOUS
 10
22.5461616683
 20
-24.6901274407
 11
22.6601881308
 21
-24.7166909712
  0
LINE
  5
264
100
AcDbEntity
  8
0
100
AcDbLine
 62
7
  6
CONTINUOUS
 10
-15.15
 20
-10.2
 11
-15.2023612067
 21
-10.1476387933
  0
LINE
  5
265
100
AcDbEntity
  8
RACCORDO
100
AcDbLine
 62
7
  6
CONTINUOUS
 10
-16.0
 20
-9.0
 11
-16.0088798489
 21
-8.9911201511
  0
LINE
  5
266
100
AcDbEntity
  8
0
100
AcDbLine
 62
7
  6
CONTINUOUS
 10
-9.3261825974
 20
-19.3364128264
 11
-9.3
 21
-19.3721152439
  0
LINE
  5
267
100
AcDbEntity
  8
RACCORDO
100
AcDbLine
 62
253
  6
CONTINUOUS
 10
-17.7810760952
 20
-7.9261455113
 11
-17.7941116314
 21
-7.89161446
  0
LINE
  5
268
100
AcDbEntity
  8
RACCORDO
100
AcDbLine
 62
253
  6
CONTINUOUS
 10
-17.7652720729
 20
-7.9686831095
 11
-17.7810760952
 21
-7.9261455113
  0
LINE
  5
269
100
AcDbEntity
  8
RACCORDO
100
AcDbLine
 62
253
  6
CONTINUOUS
 10
-17.7578840466
 20
-7.9888343558
 11
-17.7652720729
 21
-7.9686831095
  0
LWPOLYLINE
  5
26A
100
AcDbEntity
  8
RACCORDO
100
AcDbPolyline
 62
253
  6
CONTINUOUS
 90
18
 70
0
 10
-17.4768550359
 20
-8.1576936212
 10
-17.4759069462
 20
-8.1648878761
 10
-17.4570187943
 20
-8.2500406736
 10
-17.4307825562
 20
-8.3332231955
 10
-17.3973979482
 20
-8.413802741
 10
-17.3571188441
 20
-8.4911664339
 10
-17.3102517417
 20
-8.5647257606
 10
-17.2571533009
 20
-8.6339212256
 10
-17.1982273022
 20
-8.6982266035
 10
-17.133921992
 20
-8.7571526622
 10
-17.0647266037
 20
-8.8102511595
 10
-16.9911673614
 20
-8.8571183185
 10
-16.9138038141
 20
-8.8973974573
 10
-16.833224427
 20
-8.9307821158
 10
-16.7500419033
 20
-8.9570184707
 10
-16.6648888733
 20
-8.9759067744
 10
-16.5784131266
 20
-8.9873029866
 10
-16.4912724559
 20
-8.9911201511
  0
LINE
  5
26B
100
AcDbEntity
  8
0
100
AcDbLine
 62
7
  6
CONTINUOUS
 10
-15.2023612067
 20
9.7523612067
 11
-15.1971252854
 21
9.1471252854
  0
LINE
  5
26C
100
AcDbEntity
  8
RACCORDO
100
AcDbLine
 62
253
  6
CONTINUOUS
 10
-16.9935584139
 20
-8.1125723589
 11
-16.9935584139
 21
-7.6126485113
  0
LINE
  5
26D
100
AcDbEntity
  8
RACCORDO
100
AcDbLine
 62
253
  6
CONTINUOUS
 10
-16.9935584139
 20
7.6126485113
 11
-16.9935584139
 21
8.1125723589
  0
LINE
  5
26E
100
AcDbEntity
  8
RACCORDO
100
AcDbLine
 62
253
  6
CONTINUOUS
 10
-16.9247534984
 20
-4.424677346
 11
-16.9247534984
 21
4.424677346
  0
LINE
  5
26F
100
AcDbEntity
  8
RACCORDO
100
AcDbLine
 62
253
  6
CONTINUOUS
 10
-16.7224913385
 20
-8.3340245667
 11
-16.7224913385
 21
-8.2
  0
LINE
  5
270
100
AcDbEntity
  8
RACCORDO
100
AcDbLine
 62
253
  6
CONTINUOUS
 10
-16.7224913385
 20
8.2
 11
-16.7224913385
 21
8.3340245667
  0
LINE
  5
271
100
AcDbEntity
  8
RACCORDO
100
AcDbLine
 62
253
  6
CONTINUOUS
 10
-16.4912724559
 20
-8.5
 11
-16.4912724559
 21
-8.9911201511
  0
LINE
  5
272
100
AcDbEntity
  8
RACCORDO
100
AcDbLine
 62
253
  6
CONTINUOUS
 10
-16.4912724557
 20
8.5
 11
-16.4912724472
 21
8.9911201511
  0
LINE
  5
273
100
AcDbEntity
  8
DRAFT
100
AcDbLine
 62
7
  6
CONTINUOUS
 10
-16.0
 20
-9.0
 11
-16.0
 21
-8.5
  0
LINE
  5
274
100
AcDbEntity
  8
0
100
AcDbLine
 62
7
  6
CONTINUOUS
 10
-15.2023612067
 20
-10.1476387933
 11
-15.2023612067
 21
-9.7523612067
  0
LINE
  5
275
100
AcDbEntity
  8
0
100
AcDbLine
 62
7
  6
CONTINUOUS
 10
-15.2023612067
 20
9.7523612067
 11
-15.2023612067
 21
10.1476387933
  0
LINE
  5
276
100
AcDbEntity
  8
0
100
AcDbLine
 62
7
  6
CONTINUOUS
 10
-15.15
 20
-10.2
 11
-15.15
 21
-9.1
  0
LINE
  5
277
100
AcDbEntity
  8
0
100
AcDbLine
 62
7
  6
CONTINUOUS
 10
-15.15
 20
9.1
 11
-15.15
 21
10.2
  0
LINE
  5
278
100
AcDbEntity
  8
0
100
AcDbLine
 62
7
  6
CONTINUOUS
 10
-14.6412765528
 20
0.35
 11
-14.6412765528
 21
-0.35
  0
LINE
  5
279
100
AcDbEntity
  8
0
100
AcDbLine
 62
7
  6
CONTINUOUS
 10
-15.1971252854
 20
-9.1471252854
 11
-15.2023612067
 21
-9.7523612067
  0
LINE
  5
27A
100
AcDbEntity
  8
RACCORDO
100
AcDbLine
 62
253
  6
CONTINUOUS
 10
-17.2510382299
 20
-8.0411668863
 11
-17.2752840606
 21
-8.1285945274
  0
LINE
  5
27B
100
AcDbEntity
  8
RACCORDO
100
AcDbLine
 62
253
  6
CONTINUOUS
 10
-21.3201283274
 20
-5.5962108915
 11
-21.0626485113
 21
-5.1676925165
  0
LWPOLYLINE
  5
27C
100
AcDbEntity
  8
RACCORDO
100
AcDbPolyline
 62
253
  6
CONTINUOUS
 90
13
 70
0
 10
-21.3201283274
 20
5.5962108915
 10
-21.3559020077
 20
5.5725619592
 10
-21.3895183029
 20
5.5459345141
 10
-21.4207299073
 20
5.5165244471
 10
-21.4493072057
 20
5.4845481199
 10
-21.4750399629
 20
5.4502407734
 10
-21.49773887
 20
5.4138547974
 10
-21.5172369374
 20
5.3756578735
 10
-21.5333907232
 20
5.3359310059
 10
-21.5460813885
 20
5.2949664541
 10
-21.5552155716
 20
5.2530655831
 10
-21.5607260749
 20
5.210536646
 10
-21.5625723589
 20
5.1676925165
  0
LINE
  5
27D
100
AcDbEntity
  8
RACCORDO
100
AcDbLine
 62
7
  6
CONTINUOUS
 10
-17.0260002159
 20
8.4285945274
 11
-21.6575559685
 21
5.6456750709
  0
LINE
  5
27E
100
AcDbEntity
  8
RACCORDO
100
AcDbLine
 62
7
  6
CONTINUOUS
 10
-17.2752840606
 20
8.1285945274
 11
-21.4075559685
 21
5.6456750709
  0
LINE
  5
27F
100
AcDbEntity
  8
RACCORDO
100
AcDbLine
 62
253
  6
CONTINUOUS
 10
-16.9799711546
 20
8.2626190941
 11
-17.0943824648
 21
8.1938738434
  0
LINE
  5
280
100
AcDbEntity
  8
RACCORDO
100
AcDbLine
 62
253
  6
CONTINUOUS
 10
-17.2510382299
 20
8.0411668863
 11
-21.3201283274
 21
5.5962108915
  0
LINE
  5
281
100
AcDbEntity
  8
RACCORDO
100
AcDbLine
 62
253
  6
CONTINUOUS
 10
-16.9935584139
 20
7.6126485113
 11
-21.0626485113
 21
5.1676925165
  0
LINE
  5
282
100
AcDbEntity
  8
0
100
AcDbLine
 62
7
  6
CONTINUOUS
 10
-9.0901949367
 20
13.35
 11
-8.5197234842
 21
13.5197234842
  0
LINE
  5
283
100
AcDbEntity
  8
RACCORDO
100
AcDbLine
 62
7
  6
CONTINUOUS
 10
4.9896013553
 20
-16.0
 11
-4.2001218439
 21
-16.0
  0
LINE
  5
284
100
AcDbEntity
  8
RACCORDO
100
AcDbLine
 62
253
  6
CONTINUOUS
 10
-4.091656735
 20
-15.8915348911
 11
5.0349810746
 21
-15.8915348911
  0
LINE
  5
285
100
AcDbEntity
  8
RACCORDO
100
AcDbLine
 62
253
  6
CONTINUOUS
 10
5.3939221352
 20
-15.091656735
 11
-4.8915348911
 21
-15.091656735
  0
LINE
  5
286
100
AcDbEntity
  8
0
100
AcDbLine
 62
7
  6
CONTINUOUS
 10
7.65
 20
-14.6412765528
 11
8.35
 21
-14.6412765528
  0
LWPOLYLINE
  5
287
100
AcDbEntity
  8
0
100
AcDbPolyline
 62
7
  6
CONTINUOUS
 90
14
 70
0
 10
23.3398118692
 20
-21.2833090288
 10
23.2242644175
 20
-21.2644293537
 10
23.1077131633
 20
-21.2533180393
 10
22.9906797864
 20
-21.2500248198
 10
22.8736881246
 20
-21.254564436
 10
22.757261829
 20
-21.2669165691
 10
22.6419220202
 20
-21.2870259317
 10
22.5281849558
 20
-21.3148025152
 10
22.4165597196
 20
-21.350121993
 10
22.3075459428
 20
-21.3928262764
 10
22.2016315681
 20
-21.4427242228
 10
22.0992906652
 20
-21.4995924908
 10
22.0009813092
 20
-21.56317654
 10
21.9071435302
 20
-21.6331917705
  0
LINE
  5
288
100
AcDbEntity
  8
0
100
AcDbLine
 62
7
  6
CONTINUOUS
 10
23.4538383317
 20
-21.3098725593
 11
23.3398118692
 21
-21.2833090288
  0
LWPOLYLINE
  5
289
100
AcDbEntity
  8
RACCORDO
100
AcDbPolyline
 62
7
  6
CONTINUOUS
 90
19
 70
0
 10
-17.7578840466
 20
-7.9888343558
 10
-17.810404777
 20
-7.9607041584
 10
-17.8646578288
 20
-7.938169357
 10
-17.920643202
 20
-7.9212299514
 10
-17.9791754454
 20
-7.9098193848
 10
-18.0394400102
 20
-7.9040042141
 10
-18.0989932504
 20
-7.9039841105
 10
-18.1573569321
 20
-7.9099148451
 10
-18.2150092893
 20
-7.9216406469
 10
-18.270941378
 20
-7.9388938741
 10
-18.3253517488
 20
-7.9617743906
 10
-18.3780418512
 20
-7.9901823325
 10
-18.4274070899
 20
-8.023550467
 10
-18.4735078793
 20
-8.062350774
 10
-18.5162838049
 20
-8.1061112737
 10
-18.5539490281
 20
-8.1528487936
 10
-18.5859082693
 20
-8.2019022763
 10
-18.6127568081
 20
-8.2539327792
 10
-18.6344946444
 20
-8.3089403024
  0
LWPOLYLINE
  5
28A
100
AcDbEntity
  8
RACCORDO
100
AcDbPolyline
 62
253
  6
CONTINUOUS
 90
25
 70
0
 10
-17.794111631
 20
-7.8916144593
 10
-17.8353331625
 20
-7.8689837151
 10
-17.8781804947
 20
-7.8496571453
 10
-17.9223892687
 20
-7.8337492916
 10
-17.9676805984
 20
-7.8213549552
 10
-18.0137825713
 20
-7.8125434289
 10
-18.0604329818
 20
-7.8073634239
 10
-18.1073642543
 20
-7.8058474174
 10
-18.1542716123
 20
-7.8080078865
 10
-18.200835748
 20
-7.8138272712
 10
-18.2469084267
 20
-7.8232967526
 10
-18.2920686678
 20
-7.8363393343
 10
-18.3356247924
 20
-7.8526930448
 10
-18.3774483125
 20
-7.8722037778
 10
-18.4172380055
 20
-7.8946221041
 10
-18.4541933205
 20
-7.9192709536
 10
-18.4878116517
 20
-7.9454049613
 10
-18.5185902055
 20
-7.9729925956
 10
-18.5472309219
 20
-8.0024530543
 10
-18.5734507731
 20
-8.0333786931
 10
-18.5973830622
 20
-8.0658032636
 10
-18.6199265647
 20
-8.101186451
 10
-18.6409597945
 20
-8.1401086503
 10
-18.6596883557
 20
-8.1820099394
 10
-18.6756571435
 20
-8.2267995
  0
LWPOLYLINE
  5
28B
100
AcDbEntity
  8
RACCORDO
100
AcDbPolyline
 62
253
  6
CONTINUOUS
 90
10
 70
0
 10
-16.9799711546
 20
-8.2626190941
 10
-16.9537595765
 20
-8.2773123808
 10
-16.926712698
 20
-8.2904048645
 10
-16.8989282076
 20
-8.3018492573
 10
-16.8705064581
 20
-8.3116042242
 10
-16.8415501039
 20
-8.3196345319
 10
-16.8121637303
 20
-8.3259111764
 10
-16.7824534756
 20
-8.3304114875
 10
-16.7525266482
 20
-8.3331192109
 10
-16.7224913385
 20
-8.3340245667
  0
LWPOLYLINE
  5
28C
100
AcDbEntity
  8
RACCORDO
100
AcDbPolyline
 62
253
  6
CONTINUOUS
 90
10
 70
0
 10
-17.2510382299
 20
-8.0411668863
 10
-17.2248266518
 20
-8.055860173
 10
-17.1977797733
 20
-8.0689526566
 10
-17.169995283
 20
-8.0803970495
 10
-17.1415735335
 20
-8.0901520164
 10
-17.1126171793
 20
-8.0981823241
 10
-17.0832308056
 20
-8.1044589686
 10
-17.053520551
 20
-8.1089592797
 10
-17.0235937236
 20
-8.1116670031
 10
-16.9935584139
 20
-8.1125723589
  0
LINE
  5
28D
100
AcDbEntity
  8
RACCORDO
100
AcDbLine
 62
7
  6
CONTINUOUS
 10
-17.7578840466
 20
-7.9888343558
 11
-17.0260002159
 21
-8.4285945274
  0
LINE
  5
28E
100
AcDbEntity
  8
RACCORDO
100
AcDbLine
 62
7
  6
CONTINUOUS
 10
-21.4075559685
 20
-5.6456750709
 11
-17.2752840606
 21
-8.1285945274
  0
LINE
  5
28F
100
AcDbEntity
  8
RACCORDO
100
AcDbLine
 62
253
  6
CONTINUOUS
 10
-17.0943824648
 20
-8.1938738434
 11
-16.9799711546
 21
-8.2626190941
  0
LINE
  5
290
100
AcDbEntity
  8
RACCORDO
100
AcDbLine
 62
253
  6
CONTINUOUS
 10
-21.3201283274
 20
-5.5962108915
 11
-17.2510382299
 21
-8.0411668863
  0
LINE
  5
291
100
AcDbEntity
  8
RACCORDO
100
AcDbLine
 62
253
  6
CONTINUOUS
 10
-21.0626485113
 20
-5.1676925165
 11
-16.9935584139
 21
-7.6126485113
  0
LINE
  5
292
100
AcDbEntity
  8
RACCORDO
100
AcDbLine
 62
7
  6
CONTINUOUS
 10
-21.5877357088
 20
-5.6061726685
 11
-18.2560397584
 21
-7.6083255276
  0
LINE
  5
293
100
AcDbEntity
  8
RACCORDO
100
AcDbLine
 62
7
  6
CONTINUOUS
 10
-18.2560397584
 20
-7.6083255276
 11
-18.1063527236
 21
-7.6994394005
  0
LINE
  5
294
100
AcDbEntity
  8
RACCORDO
100
AcDbLine
 62
7
  6
CONTINUOUS
 10
-18.1063527236
 20
-7.6994394005
 11
-17.9136420311
 21
-7.8178205499
  0
LINE
  5
295
100
AcDbEntity
  8
RACCORDO
100
AcDbLine
 62
7
  6
CONTINUOUS
 10
-17.9136420311
 20
-7.8178205499
 11
-17.7941116314
 21
-7.89161446
  0
LWPOLYLINE
  5
296
100
AcDbEntity
  8
RACCORDO
100
AcDbPolyline
 62
7
  6
CONTINUOUS
 90
6
 70
0
 10
-21.834332279
 20
-5.2120540063
 10
-21.8387958893
 20
-5.2092527518
 10
-21.8432235493
 20
-5.2064235999
 10
-21.8476141694
 20
-5.203567062
 10
-21.8519666578
 20
-5.2006836716
 10
-21.8562799213
 20
-5.1977739849
  0
LINE
  5
297
100
AcDbEntity
  8
RACCORDO
100
AcDbLine
 62
7
  6
CONTINUOUS
 10
-21.8562799213
 20
-5.1977739849
 11
-21.9
 21
-5.1676192421
  0
LINE
  5
298
100
AcDbEntity
  8
RACCORDO
100
AcDbLine
 62
253
  6
CONTINUOUS
 10
-21.0626485113
 20
5.1676925165
 11
-21.3201283274
 21
5.5962108915
  0
LINE
  5
299
100
AcDbEntity
  8
RACCORDO
100
AcDbLine
 62
253
  6
CONTINUOUS
 10
-17.2752840606
 20
8.1285945274
 11
-17.2510382299
 21
8.0411668863
  0
LINE
  5
29A
100
AcDbEntity
  8
0
100
AcDbLine
 62
7
  6
CONTINUOUS
 10
-14.2424112663
 20
-0.35
 11
-14.2424112663
 21
0.35
  0
LINE
  5
29B
100
AcDbEntity
  8
0
100
AcDbLine
 62
7
  6
CONTINUOUS
 10
-13.35
 20
-1.9262640523
 11
-13.35
 21
-1.0901949367
  0
LINE
  5
29C
100
AcDbEntity
  8
0
100
AcDbLine
 62
7
  6
CONTINUOUS
 10
-13.35
 20
1.0901949367
 11
-13.35
 21
1.9262640523
  0
LINE
  5
29D
100
AcDbEntity
  8
0
100
AcDbLine
 62
7
  6
CONTINUOUS
 10
-12.65
 20
-1.9262640523
 11
-12.65
 21
-1.0901949367
  0
LINE
  5
29E
100
AcDbEntity
  8
0
100
AcDbLine
 62
7
  6
CONTINUOUS
 10
-12.65
 20
1.0901949367
 11
-12.65
 21
1.9262640523
  0
LINE
  5
29F
100
AcDbEntity
  8
0
100
AcDbLine
 62
7
  6
CONTINUOUS
 10
-11.8
 20
-22.4999238476
 11
-11.8
 21
-25.0564462158
  0
LINE
  5
2A0
100
AcDbEntity
  8
0
100
AcDbLine
 62
7
  6
CONTINUOUS
 10
-11.7738174026
 20
-22.526106445
 11
-11.7738174026
 21
-25.0686571676
  0
LINE
  5
2A1
100
AcDbEntity
  8
0
100
AcDbLine
 62
7
  6
CONTINUOUS
 10
-11.7575887337
 20
-0.35
 11
-11.7575887337
 21
0.35
  0
LINE
  5
2A2
100
AcDbEntity
  8
RACCORDO
100
AcDbLine
 62
253
  6
CONTINUOUS
 10
-16.9935584139
 20
-8.1125723589
 11
-17.0178042446
 21
-8.2
  0
LINE
  5
2A3
100
AcDbEntity
  8
RACCORDO
100
AcDbLine
 62
253
  6
CONTINUOUS
 10
-16.9799711546
 20
-8.2626190941
 11
-17.0260002159
 21
-8.4285945274
  0
LINE
  5
2A4
100
AcDbEntity
  8
RACCORDO
100
AcDbLine
 62
253
  6
CONTINUOUS
 10
-16.7224913385
 20
-8.3340245667
 11
-16.7685203999
 21
-8.5
  0
LINE
  5
2A5
100
AcDbEntity
  8
0
100
AcDbLine
 62
7
  6
CONTINUOUS
 10
-13.5197234842
 20
0.5197234842
 11
-13.35
 21
1.0901949367
  0
LINE
  5
2A6
100
AcDbEntity
  8
0
100
AcDbLine
 62
7
  6
CONTINUOUS
 10
-8.5197234842
 20
13.5197234842
 11
-8.35
 21
14.0901949367
  0
LINE
  5
2A7
100
AcDbEntity
  8
0
100
AcDbLine
 62
7
  6
CONTINUOUS
 10
-12.4802765158
 20
-0.5197234842
 11
-12.65
 21
-1.0901949367
  0
LWPOLYLINE
  5
2A8
100
AcDbEntity
  8
0
100
AcDbPolyline
 62
7
  6
CONTINUOUS
 90
18
 70
0
 10
-24.0928564698
 20
-21.6331917705
 10
-24.1368876791
 20
-21.7192494893
 10
-24.175023516
 20
-21.8061426696
 10
-24.2072984114
 20
-21.893496085
 10
-24.2337696086
 20
-21.9809404542
 10
-24.2545166324
 20
-22.0681137849
 10
-24.2696406826
 20
-22.1546626788
 10
-24.2792639514
 20
-22.2402435918
 10
-24.2835288695
 20
-22.3245240474
 10
-24.282597284
 20
-22.4071837976
 10
-24.27664957
 20
-22.4879159289
 10
-24.2658836818
 20
-22.5664279079
 10
-24.250514145
 20
-22.642442565
 10
-24.2307709951
 20
-22.7156990123
 10
-24.2068986664
 20
-22.7859534921
 10
-24.1791548348
 20
-22.8529801548
 10
-24.1478092202
 20
-22.9165717623
 10
-24.1131423512
 20
-22.9765403156
  0
LINE
  5
2A9
100
AcDbEntity
  8
0
100
AcDbLine
 62
253
  6
CONTINUOUS
 10
3.3249870139
 20
22.174948937
 11
3.4541446572
 21
22.3041065803
  0
LINE
  5
2AA
100
AcDbEntity
  8
0
100
AcDbLine
 62
7
  6
CONTINUOUS
 10
3.2043253562
 20
20.7543253562
 11
3.4207897551
 21
20.9707897551
  0
LINE
  5
2AB
100
AcDbEntity
  8
0
100
AcDbLine
 62
253
  6
CONTINUOUS
 10
4.324948937
 20
21.1749870139
 11
4.4541065803
 21
21.3041446572
  0
LINE
  5
2AC
100
AcDbEntity
  8
RACCORDO
100
AcDbLine
 62
7
  6
CONTINUOUS
 10
-9.9125723589
 20
9.3028287009
 11
-10.0
 21
9.25
  0
LINE
  5
2AD
100
AcDbEntity
  8
0
100
AcDbLine
 62
7
  6
CONTINUOUS
 10
-6.9098050633
 20
12.65
 11
-7.4802765158
 21
12.4802765158
  0
LINE
  5
2AE
100
AcDbEntity
  8
0
100
AcDbLine
 62
7
  6
CONTINUOUS
 10
8.35
 20
-14.2424112663
 11
7.65
 21
-14.2424112663
  0
LINE
  5
2AF
100
AcDbEntity
  8
0
100
AcDbLine
 62
7
  6
CONTINUOUS
 10
9.9262640523
 20
-13.35
 11
9.0901949367
 21
-13.35
  0
LINE
  5
2B0
100
AcDbEntity
  8
0
100
AcDbLine
 62
7
  6
CONTINUOUS
 10
6.9098050633
 20
-13.35
 11
6.0737359477
 21
-13.35
  0
LINE
  5
2B1
100
AcDbEntity
  8
0
100
AcDbLine
 62
7
  6
CONTINUOUS
 10
9.9262640523
 20
-12.65
 11
9.0901949367
 21
-12.65
  0
LINE
  5
2B2
100
AcDbEntity
  8
0
100
AcDbLine
 62
7
  6
CONTINUOUS
 10
6.9098050633
 20
-12.65
 11
6.0737359477
 21
-12.65
  0
LINE
  5
2B3
100
AcDbEntity
  8
0
100
AcDbLine
 62
7
  6
CONTINUOUS
 10
8.35
 20
-11.7575887337
 11
7.65
 21
-11.7575887337
  0
LINE
  5
2B4
100
AcDbEntity
  8
RACCORDO
100
AcDbLine
 62
253
  6
CONTINUOUS
 10
-18.675657144
 20
-8.2267994977
 11
-18.96194201
 21
-8.1372809948
  0
LINE
  5
2B5
100
AcDbEntity
  8
0
100
AcDbLine
 62
253
  6
CONTINUOUS
 10
3.3249870139
 20
-22.174948937
 11
3.4541446572
 21
-22.3041065803
  0
LINE
  5
2B6
100
AcDbEntity
  8
0
100
AcDbLine
 62
7
  6
CONTINUOUS
 10
3.2043253562
 20
-20.7543253562
 11
3.4207897551
 21
-20.9707897551
  0
LINE
  5
2B7
100
AcDbEntity
  8
0
100
AcDbLine
 62
253
  6
CONTINUOUS
 10
4.324948937
 20
-21.1749870139
 11
4.4541065803
 21
-21.3041446572
  0
LINE
  5
2B8
100
AcDbEntity
  8
0
100
AcDbLine
 62
7
  6
CONTINUOUS
 10
-13.35
 20
-1.0901949367
 11
-13.5197234842
 21
-0.5197234842
  0
LINE
  5
2B9
100
AcDbEntity
  8
0
100
AcDbLine
 62
7
  6
CONTINUOUS
 10
-12.4802765158
 20
0.5197234842
 11
-12.65
 21
1.0901949367
  0
LINE
  5
2BA
100
AcDbEntity
  8
RACCORDO
100
AcDbLine
 62
253
  6
CONTINUOUS
 10
-17.0178042446
 20
8.2
 11
-16.9935584139
 21
8.1125723589
  0
LINE
  5
2BB
100
AcDbEntity
  8
RACCORDO
100
AcDbLine
 62
253
  6
CONTINUOUS
 10
-17.0260002159
 20
8.4285945274
 11
-16.9799711546
 21
8.2626190941
  0
LINE
  5
2BC
100
AcDbEntity
  8
RACCORDO
100
AcDbLine
 62
253
  6
CONTINUOUS
 10
-16.7685203999
 20
8.5
 11
-16.7224913385
 21
8.3340245667
  0
LINE
  5
2BD
100
AcDbEntity
  8
0
100
AcDbLine
 62
7
  6
CONTINUOUS
 10
-11.3587234472
 20
0.35
 11
-11.3587234472
 21
-0.35
  0
LINE
  5
2BE
100
AcDbEntity
  8
RACCORDO
100
AcDbLine
 62
253
  6
CONTINUOUS
 10
-10.4124962065
 20
7.6126485113
 11
-10.4124962065
 21
8.1125723589
  0
LINE
  5
2BF
100
AcDbEntity
  8
0
100
AcDbLine
 62
7
  6
CONTINUOUS
 10
-10.3
 20
25.7123244183
 11
-10.3
 21
19.0388440264
  0
LINE
  5
2C0
100
AcDbEntity
  8
0
100
AcDbLine
 62
7
  6
CONTINUOUS
 10
-10.3
 20
-19.0388440264
 11
-10.3
 21
-22.0
  0
LINE
  5
2C1
100
AcDbEntity
  8
0
100
AcDbLine
 62
7
  6
CONTINUOUS
 10
-10.2738174026
 20
25.7223749757
 11
-10.2738174026
 21
19.0203018545
  0
LINE
  5
2C2
100
AcDbEntity
  8
0
100
AcDbLine
 62
7
  6
CONTINUOUS
 10
-10.2738174026
 20
-19.0203018545
 11
-10.2738174026
 21
-22.0261825974
  0
LINE
  5
2C3
100
AcDbEntity
  8
RACCORDO
100
AcDbLine
 62
7
  6
CONTINUOUS
 10
-10.0
 20
8.6999238476
 11
-10.0
 21
9.25
  0
LINE
  5
2C4
100
AcDbEntity
  8
RACCORDO
100
AcDbLine
 62
253
  6
CONTINUOUS
 10
-9.9125723589
 20
9.3028287009
 11
-9.9125723589
 21
8.6124962065
  0
LINE
  5
2C5
100
AcDbEntity
  8
RACCORDO
100
AcDbLine
 62
253
  6
CONTINUOUS
 10
-9.4126485113
 20
9.0935800985
 11
-9.4126485113
 21
8.6124962065
  0
LINE
  5
2C6
100
AcDbEntity
  8
0
100
AcDbLine
 62
7
  6
CONTINUOUS
 10
-9.3261825974
 20
-22.0261825974
 11
-9.3261825974
 21
-19.3364128264
  0
LINE
  5
2C7
100
AcDbEntity
  8
0
100
AcDbLine
 62
7
  6
CONTINUOUS
 10
-9.3261825974
 20
19.3364128264
 11
-9.3261825974
 21
26.0803201641
  0
LINE
  5
2C8
100
AcDbEntity
  8
0
100
AcDbLine
 62
7
  6
CONTINUOUS
 10
-9.3
 20
-22.0
 11
-9.3
 21
-19.3721152439
  0
LINE
  5
2C9
100
AcDbEntity
  8
0
100
AcDbLine
 62
7
  6
CONTINUOUS
 10
-9.3
 20
19.3721152439
 11
-9.3
 21
26.0893372148
  0
LINE
  5
2CA
100
AcDbEntity
  8
0
100
AcDbLine
 62
7
  6
CONTINUOUS
 10
-9.2424112663
 20
12.65
 11
-9.2424112663
 21
13.35
  0
LINE
  5
2CB
100
AcDbEntity
  8
RACCORDO
100
AcDbLine
 62
253
  6
CONTINUOUS
 10
-9.0752465016
 20
-4.424677346
 11
-9.0752465016
 21
4.424677346
  0
LINE
  5
2CC
100
AcDbEntity
  8
RACCORDO
100
AcDbLine
 62
253
  6
CONTINUOUS
 10
-8.575322654
 20
-3.9247534984
 11
-8.575322654
 21
3.9247534984
  0
LINE
  5
2CD
100
AcDbEntity
  8
0
100
AcDbLine
 62
7
  6
CONTINUOUS
 10
-8.5
 20
10.3372379297
 11
-8.5
 21
12.4139823037
  0
LINE
  5
2CE
100
AcDbEntity
  8
0
100
AcDbLine
 62
7
  6
CONTINUOUS
 10
-8.5
 20
13.5860176963
 11
-8.5
 21
15.6627620703
  0
LWPOLYLINE
  5
2CF
100
AcDbEntity
  8
0
100
AcDbPolyline
 62
7
  6
CONTINUOUS
 90
10
 70
0
 10
-9.9262640523
 20
13.35
 10
-9.9280809819
 20
13.2723580722
 10
-9.9294436792
 20
13.1946482198
 10
-9.930352144
 20
13.1168704429
 10
-9.9308063764
 20
13.0389794587
 10
-9.9308063764
 20
12.96102055
 10
-9.930352144
 20
12.8831295649
 10
-9.9294436792
 20
12.8053517863
 10
-9.928080982
 20
12.7276419313
 10
-9.9262640523
 20
12.65
  0
LWPOLYLINE
  5
2D0
100
AcDbEntity
  8
RACCORDO
100
AcDbPolyline
 62
253
  6
CONTINUOUS
 90
22
 70
0
 10
-9.9125723589
 20
8.6124962065
 10
-9.9139006931
 20
8.5759121236
 10
-9.9178958531
 20
8.5395631585
 10
-9.9245281667
 20
8.5036425872
 10
-9.9337474782
 20
8.4683619482
 10
-9.9455000762
 20
8.4338843893
 10
-9.9597446468
 20
8.4003290137
 10
-9.9764404217
 20
8.3678250367
 10
-9.9954828501
 20
8.3366042299
 10
-10.0167085943
 20
8.3069240577
 10
-10.0398810465
 20
8.2790545708
 10
-10.0649555574
 20
8.2529943663
 10
-10.0920816819
 20
8.2286229469
 10
-10.1211814143
 20
8.2061030224
 10
-10.1521182467
 20
8.1856282802
 10
-10.1850260508
 20
8.167231106
 10
-10.2199929126
 20
8.15104767
 10
-10.2566763273
 20
8.1374178641
 10
-10.2945324345
 20
8.1266465606
 10
-10.3332164964
 20
8.1188710689
 10
-10.3726182839
 20
8.1141522016
 10
-10.4124962065
 20
8.1125723589
  0
LWPOLYLINE
  5
2D1
100
AcDbEntity
  8
RACCORDO
100
AcDbPolyline
 62
253
  6
CONTINUOUS
 90
22
 70
0
 10
-9.4126485113
 20
8.6124962065
 10
-9.4154716421
 20
8.5387176062
 10
-9.423461853
 20
8.4661681815
 10
-9.436619144
 20
8.3948479326
 10
-9.4550556629
 20
8.3244333267
 10
-9.4786592619
 20
8.2552478965
 10
-9.507093498
 20
8.1882622401
 10
-9.5404935516
 20
8.1234150996
 10
-9.5787242423
 20
8.0607677329
 10
-9.621043586
 20
8.0014745109
 10
-9.6672663417
 20
7.9457865143
 10
-9.7175777503
 20
7.8934526623
 10
-9.771791551
 20
7.8448740841
 10
-9.8299204776
 20
7.7998957996
 10
-9.8919517962
 20
7.7586727889
 10
-9.9576610434
 20
7.7220711211
 10
-10.0275736907
 20
7.6899570023
 10
-10.1011642665
 20
7.6624642263
 10
-10.1766318938
 20
7.6408602442
 10
-10.25337628
 20
7.6255675395
 10
-10.3319977176
 20
7.6161636285
 10
-10.4124962065
 20
7.6126485113
  0
LINE
  5
2D2
100
AcDbEntity
  8
0
100
AcDbLine
 62
7
  6
CONTINUOUS
 10
-7.65
 20
11.9098050633
 11
-7.4802765158
 21
12.4802765158
  0
LINE
  5
2D3
100
AcDbEntity
  8
RACCORDO
100
AcDbLine
 62
7
  6
CONTINUOUS
 10
-5.0349810746
 20
15.8915348911
 11
-5.0365377888
 21
15.8877509342
  0
LINE
  5
2D4
100
AcDbEntity
  8
RACCORDO
100
AcDbLine
 62
7
  6
CONTINUOUS
 10
-5.0349810746
 20
15.8915348911
 11
-4.9896013553
 21
16.0
  0
LINE
  5
2D5
100
AcDbEntity
  8
RACCORDO
100
AcDbLine
 62
7
  6
CONTINUOUS
 10
-5.0365377888
 20
15.8877509342
 11
-5.0943996695
 21
15.7519869274
  0
LINE
  5
2D6
100
AcDbEntity
  8
RACCORDO
100
AcDbLine
 62
7
  6
CONTINUOUS
 10
-5.0943996695
 20
15.7519869274
 11
-5.1536868635
 21
15.6155978209
  0
LWPOLYLINE
  5
2D7
100
AcDbEntity
  8
RACCORDO
100
AcDbPolyline
 62
7
  6
CONTINUOUS
 90
3
 70
0
 10
-5.1536868635
 20
15.6155978209
 10
-5.2037710905
 20
15.5025584458
 10
-5.2317317577
 20
15.4403029694
  0
LWPOLYLINE
  5
2D8
100
AcDbEntity
  8
RACCORDO
100
AcDbPolyline
 62
7
  6
CONTINUOUS
 90
5
 70
0
 10
-5.2317317577
 20
15.4403029694
 10
-5.2927735027
 20
15.3066301231
 10
-5.3251401335
 20
15.2363735921
 10
-5.3588563443
 20
15.1645241126
 10
-5.3939221352
 20
15.091656735
  0
LINE
  5
2D9
100
AcDbEntity
  8
0
100
AcDbLine
 62
7
  6
CONTINUOUS
 10
-3.3317757036
 20
19.1112481935
 11
-3.2
 21
19.3910491073
  0
LINE
  5
2DA
100
AcDbEntity
  8
RACCORDO
100
AcDbLine
 62
253
  6
CONTINUOUS
 10
-6.3104996702
 20
9.2050980383
 11
-6.3014466548
 21
9.2228015954
  0
LINE
  5
2DB
100
AcDbEntity
  8
RACCORDO
100
AcDbLine
 62
253
  6
CONTINUOUS
 10
-16.9935584139
 20
-7.6126485113
 11
-17.2510382299
 21
-8.0411668863
  0
LINE
  5
2DC
100
AcDbEntity
  8
RACCORDO
100
AcDbLine
 62
253
  6
CONTINUOUS
 10
-16.9423458069
 20
-8.2
 11
-16.9799711546
 21
-8.2626190941
  0
LINE
  5
2DD
100
AcDbEntity
  8
RACCORDO
100
AcDbLine
 62
253
  6
CONTINUOUS
 10
-4.9039971429
 20
8.2916828748
 11
-4.8915348911
 21
8.3109118689
  0
LINE
  5
2DE
100
AcDbEntity
  8
DRAFT
100
AcDbLine
 62
7
  6
CONTINUOUS
 10
-10.9156503509
 20
4.65
 11
-10.9503122249
 21
4.615338126
  0
LINE
  5
2DF
100
AcDbEntity
  8
RACCORDO
100
AcDbLine
 62
253
  6
CONTINUOUS
 10
-17.424677346
 20
-3.9247534984
 11
-17.65
 21
-4.1500761524
  0
LINE
  5
2E0
100
AcDbEntity
  8
RACCORDO
100
AcDbLine
 62
253
  6
CONTINUOUS
 10
-9.0752465016
 20
4.424677346
 11
-8.8499238476
 21
4.65
  0
LINE
  5
2E1
100
AcDbEntity
  8
RACCORDO
100
AcDbLine
 62
253
  6
CONTINUOUS
 10
-16.9247534984
 20
-4.424677346
 11
-17.1500761524
 21
-4.65
  0
LINE
  5
2E2
100
AcDbEntity
  8
RACCORDO
100
AcDbLine
 62
253
  6
CONTINUOUS
 10
-8.575322654
 20
3.9247534984
 11
-8.35
 21
4.1500761524
  0
LINE
  5
2E3
100
AcDbEntity
  8
0
100
AcDbLine
 62
7
  6
CONTINUOUS
 10
10.2738174026
 20
19.0203018545
 11
10.3
 21
19.0388440264
  0
LINE
  5
2E4
100
AcDbEntity
  8
0
100
AcDbLine
 62
7
  6
CONTINUOUS
 10
-0.5197234842
 20
11.5197234842
 11
-1.0901949367
 21
11.35
  0
LINE
  5
2E5
100
AcDbEntity
  8
0
100
AcDbLine
 62
7
  6
CONTINUOUS
 10
0.5197234842
 20
10.4802765158
 11
1.0901949367
 21
10.65
  0
LWPOLYLINE
  5
2E6
100
AcDbEntity
  8
RACCORDO
100
AcDbPolyline
 62
253
  6
CONTINUOUS
 90
18
 70
0
 10
16.4912724559
 20
-8.9911201511
 10
16.5784125406
 20
-8.9873030359
 10
16.6648878761
 20
-8.9759069462
 10
16.7500406736
 20
-8.9570187943
 10
16.8332231955
 20
-8.9307825562
 10
16.913802741
 20
-8.8973979482
 10
16.9911664339
 20
-8.8571188441
 10
17.0647257606
 20
-8.8102517417
 10
17.1339212256
 20
-8.7571533009
 10
17.1982266035
 20
-8.6982273022
 10
17.2571526622
 20
-8.633921992
 10
17.3102511595
 20
-8.5647266037
 10
17.3571183185
 20
-8.4911673614
 10
17.3973974573
 20
-8.4138038141
 10
17.4307821158
 20
-8.333224427
 10
17.4570184707
 20
-8.2500419033
 10
17.4759067744
 20
-8.1648888733
 10
17.4768549982
 20
-8.1576936438
  0
LWPOLYLINE
  5
2E7
100
AcDbEntity
  8
RACCORDO
100
AcDbPolyline
 62
253
  6
CONTINUOUS
 90
10
 70
0
 10
16.7224913385
 20
-8.3340245667
 10
16.7525638586
 20
-8.3331169674
 10
16.7825273939
 20
-8.3304025478
 10
16.812273455
 20
-8.3258911542
 10
16.841706281
 20
-8.3195962072
 10
16.8707070159
 20
-8.3115420119
 10
16.8991360743
 20
-8.3017708033
 10
16.9268816378
 20
-8.2903292268
 10
16.9538580175
 20
-8.2772610087
 10
16.9799711546
 20
-8.2626190941
  0
LWPOLYLINE
  5
2E8
100
AcDbEntity
  8
RACCORDO
100
AcDbPolyline
 62
253
  6
CONTINUOUS
 90
10
 70
0
 10
16.9935584139
 20
-8.1125723589
 10
17.023630934
 20
-8.1116647595
 10
17.0535944692
 20
-8.10895034
 10
17.0833405304
 20
-8.1044389464
 10
17.1127733563
 20
-8.0981439994
 10
17.1417740912
 20
-8.0900898041
 10
17.1702031497
 20
-8.0803185955
 10
17.1979487132
 20
-8.068877019
 10
17.2249250928
 20
-8.0558088009
 10
17.2510382299
 20
-8.0411668863
  0
LWPOLYLINE
  5
2E9
100
AcDbEntity
  8
RACCORDO
100
AcDbPolyline
 62
253
  6
CONTINUOUS
 90
19
 70
0
 10
-5.4297449062
 20
-8.9911201511
 10
-5.4037857819
 20
-8.9907820595
 10
-5.3778888625
 20
-8.9897725283
 10
-5.3520714068
 20
-8.9880957107
 10
-5.3263554658
 20
-8.9857567131
 10
-5.3007528576
 20
-8.9827602852
 10
-5.2752653078
 20
-8.9791095259
 10
-5.2499100726
 20
-8.9748092493
 10
-5.2247028489
 20
-8.9698644664
 10
-5.199643138
 20
-8.9642767363
 10
-5.1747474397
 20
-8.958050734
 10
-5.1500317229
 20
-8.9511914543
 10
-5.1254950899
 20
-8.9436989397
 10
-5.1011537447
 20
-8.9355777158
 10
-5.077023906
 20
-8.9268327675
 10
-5.0531053542
 20
-8.9174628693
 10
-5.0294142676
 20
-8.9074724644
 10
-5.0059672402
 20
-8.896866634
 10
-5.0
 20
-8.8939801106
  0
LINE
  5
2EA
100
AcDbEntity
  8
0
100
AcDbLine
 62
7
  6
CONTINUOUS
 10
7.65
 20
-11.3587234472
 11
8.35
 21
-11.3587234472
  0
LINE
  5
2EB
100
AcDbEntity
  8
0
100
AcDbLine
 62
7
  6
CONTINUOUS
 10
-18.6000114231
 20
-10.2
 11
-15.15
 21
-10.2
  0
LINE
  5
2EC
100
AcDbEntity
  8
0
100
AcDbLine
 62
7
  6
CONTINUOUS
 10
15.15
 20
-10.2
 11
18.6000114231
 21
-10.2
  0
LINE
  5
2ED
100
AcDbEntity
  8
0
100
AcDbLine
 62
7
  6
CONTINUOUS
 10
-18.5476502163
 20
-10.1476387933
 11
-15.2023612067
 21
-10.1476387933
  0
LINE
  5
2EE
100
AcDbEntity
  8
0
100
AcDbLine
 62
7
  6
CONTINUOUS
 10
15.2023612067
 20
-10.1476387933
 11
18.5476502163
 21
-10.1476387933
  0
LINE
  5
2EF
100
AcDbEntity
  8
0
100
AcDbLine
 62
7
  6
CONTINUOUS
 10
18.3523612067
 20
-9.7523612067
 11
15.2023612067
 21
-9.7523612067
  0
LINE
  5
2F0
100
AcDbEntity
  8
0
100
AcDbLine
 62
7
  6
CONTINUOUS
 10
-15.2023612067
 20
-9.7523612067
 11
-18.3523612067
 21
-9.7523612067
  0
LINE
  5
2F1
100
AcDbEntity
  8
0
100
AcDbLine
 62
7
  6
CONTINUOUS
 10
17.7471252854
 20
-9.1471252854
 11
15.1971252854
 21
-9.1471252854
  0
LINE
  5
2F2
100
AcDbEntity
  8
0
100
AcDbLine
 62
7
  6
CONTINUOUS
 10
-15.1971252854
 20
-9.1471252854
 11
-17.7471252854
 21
-9.1471252854
  0
LINE
  5
2F3
100
AcDbEntity
  8
0
100
AcDbLine
 62
7
  6
CONTINUOUS
 10
17.7
 20
-9.1
 11
15.15
 21
-9.1
  0
LINE
  5
2F4
100
AcDbEntity
  8
0
100
AcDbLine
 62
7
  6
CONTINUOUS
 10
-15.15
 20
-9.1
 11
-17.7
 21
-9.1
  0
LINE
  5
2F5
100
AcDbEntity
  8
RACCORDO
100
AcDbLine
 62
7
  6
CONTINUOUS
 10
-16.7000109662
 20
-9.0
 11
-5.3055651271
 21
-9.0
  0
LINE
  5
2F6
100
AcDbEntity
  8
RACCORDO
100
AcDbLine
 62
7
  6
CONTINUOUS
 10
10.0
 20
-9.0
 11
16.5001523048
 21
-9.0
  0
LINE
  5
2F7
100
AcDbEntity
  8
RACCORDO
100
AcDbLine
 62
7
  6
CONTINUOUS
 10
16.5523612067
 20
-9.0
 11
16.7000109662
 21
-9.0
  0
LINE
  5
2F8
100
AcDbEntity
  8
RACCORDO
100
AcDbLine
 62
253
  6
CONTINUOUS
 10
-16.4912724559
 20
-8.9911201511
 11
-16.0088798489
 21
-8.9911201511
  0
LINE
  5
2F9
100
AcDbEntity
  8
RACCORDO
100
AcDbLine
 62
253
  6
CONTINUOUS
 10
-7.4911201511
 20
-8.9911201511
 11
-5.4297449062
 21
-8.9911201511
  0
LINE
  5
2FA
100
AcDbEntity
  8
RACCORDO
100
AcDbLine
 62
253
  6
CONTINUOUS
 10
10.0
 20
-8.9911201511
 11
16.4912724559
 21
-8.9911201511
  0
LINE
  5
2FB
100
AcDbEntity
  8
0
100
AcDbLine
 62
7
  6
CONTINUOUS
 10
-26.2098740615
 20
-8.95
 11
-23.0354982429
 21
-8.95
  0
LINE
  5
2FC
100
AcDbEntity
  8
0
100
AcDbLine
 62
7
  6
CONTINUOUS
 10
22.9357338552
 20
-8.95
 11
26.2098740615
 21
-8.95
  0
LINE
  5
2FD
100
AcDbEntity
  8
0
100
AcDbLine
 62
7
  6
CONTINUOUS
 10
-26.2188911121
 20
-8.9238174026
 11
-23.0531667634
 21
-8.9238174026
  0
LINE
  5
2FE
100
AcDbEntity
  8
0
100
AcDbLine
 62
7
  6
CONTINUOUS
 10
22.9121304186
 20
-8.9238174026
 11
26.2188911121
 21
-8.9238174026
  0
LINE
  5
2FF
100
AcDbEntity
  8
RACCORDO
100
AcDbLine
 62
253
  6
CONTINUOUS
 10
9.4126485113
 20
-8.6124962065
 11
9.9125723589
 21
-8.612496206
  0
LINE
  5
300
100
AcDbEntity
  8
RACCORDO
100
AcDbLine
 62
7
  6
CONTINUOUS
 10
16.7685203999
 20
-8.5
 11
10.0419819248
 21
-8.5
  0
LINE
  5
301
100
AcDbEntity
  8
RACCORDO
100
AcDbLine
 62
7
  6
CONTINUOUS
 10
-5.0700487402
 20
-8.5
 11
-16.7685203999
 21
-8.5
  0
LINE
  5
302
100
AcDbEntity
  8
0
100
AcDbLine
 62
7
  6
CONTINUOUS
 10
7.4802765158
 20
-13.5197234842
 11
6.9098050633
 21
-13.35
  0
LINE
  5
303
100
AcDbEntity
  8
0
100
AcDbLine
 62
7
  6
CONTINUOUS
 10
8.5197234842
 20
-12.4802765158
 11
9.0901949367
 21
-12.65
  0
LINE
  5
304
100
AcDbEntity
  8
0
100
AcDbLine
 62
7
  6
CONTINUOUS
 10
10.2738174026
 20
-19.0203018545
 11
10.3
 21
-19.0388440264
  0
LINE
  5
305
100
AcDbEntity
  8
RACCORDO
100
AcDbLine
 62
253
  6
CONTINUOUS
 10
-9.0752465016
 20
-4.424677346
 11
-8.8499238476
 21
-4.65
  0
LINE
  5
306
100
AcDbEntity
  8
RACCORDO
100
AcDbLine
 62
253
  6
CONTINUOUS
 10
-17.424677346
 20
3.9247534984
 11
-17.65
 21
4.1500761524
  0
LINE
  5
307
100
AcDbEntity
  8
RACCORDO
100
AcDbLine
 62
253
  6
CONTINUOUS
 10
-5.000076164
 20
-8.4300274238
 11
-5.0960790211
 21
-8.3340245667
  0
LINE
  5
308
100
AcDbEntity
  8
RACCORDO
100
AcDbLine
 62
253
  6
CONTINUOUS
 10
-8.575322654
 20
-3.9247534984
 11
-8.35
 21
-4.1500761524
  0
LINE
  5
309
100
AcDbEntity
  8
RACCORDO
100
AcDbLine
 62
253
  6
CONTINUOUS
 10
-16.9247534984
 20
4.424677346
 11
-17.1500761524
 21
4.65
  0
LINE
  5
30A
100
AcDbEntity
  8
0
100
AcDbLine
 62
7
  6
CONTINUOUS
 10
-22.9121304186
 20
8.9238174026
 11
-22.9357338552
 21
8.95
  0
LINE
  5
30B
100
AcDbEntity
  8
RACCORDO
100
AcDbLine
 62
253
  6
CONTINUOUS
 10
-17.2510382299
 20
8.0411668863
 11
-16.9935584139
 21
7.6126485113
  0
LINE
  5
30C
100
AcDbEntity
  8
RACCORDO
100
AcDbLine
 62
253
  6
CONTINUOUS
 10
-16.9799711546
 20
8.2626190941
 11
-16.9423458069
 21
8.2
  0
LINE
  5
30D
100
AcDbEntity
  8
RACCORDO
100
AcDbLine
 62
253
  6
CONTINUOUS
 10
-5.1240705592
 20
-8.5
 11
-5.0
 21
-8.706488086
  0
LINE
  5
30E
100
AcDbEntity
  8
0
100
AcDbLine
 62
7
  6
CONTINUOUS
 10
-3.3317757036
 20
-19.1112481935
 11
-3.2
 21
-19.3910491073
  0
LWPOLYLINE
  5
30F
100
AcDbEntity
  8
RACCORDO
100
AcDbPolyline
 62
7
  6
CONTINUOUS
 90
25
 70
0
 10
-6.7381144729
 20
-7.6126485113
 10
-6.7198697054
 20
-7.6527490936
 10
-6.6997230283
 20
-7.6919088452
 10
-6.6776744416
 20
-7.729903475
 10
-6.6534081431
 20
-7.7667023885
 10
-6.627239935
 20
-7.8019607918
 10
-6.6001172237
 20
-7.8350639849
 10
-6.5722555895
 20
-7.8656845082
 10
-6.5434394522
 20
-7.894074703
 10
-6.5139694772
 20
-7.9205405377
 10
-6.4840042231
 20
-7.9450130711
 10
-6.4533851314
 20
-7.9675510352
 10
-6.4219371917
 20
-7.9885636159
 10
-6.3894953814
 20
-8.0081271132
 10
-6.3562247231
 20
-8.0260589844
 10
-6.322445275
 20
-8.0423197559
 10
-6.2881522093
 20
-8.0568907444
 10
-6.2533503539
 20
-8.0697571174
 10
-6.2183742495
 20
-8.08090431
 10
-6.183218018
 20
-8.0903427616
 10
-6.1478875375
 20
-8.0980832065
 10
-6.1127349839
 20
-8.1041364392
 10
-6.0778777491
 20
-8.1085372789
 10
-6.0431984411
 20
-8.111333259
 10
-6.0086970599
 20
-8.1125723589
  0
LWPOLYLINE
  5
310
100
AcDbEntity
  8
RACCORDO
100
AcDbPolyline
 62
253
  6
CONTINUOUS
 90
16
 70
0
 10
-8.575322654
 20
3.9247534984
 10
-8.5780934183
 20
3.9771633518
 10
-8.5863432107
 20
4.0289954264
 10
-8.5999810561
 20
4.0796784997
 10
-8.6188591746
 20
4.1286597792
 10
-8.6427680976
 20
4.1753931828
 10
-8.6714330689
 20
4.2193482996
 10
-8.7045252249
 20
4.2600352762
 10
-8.7416818884
 20
4.2970206848
 10
-8.7825043382
 20
4.329912266
 10
-8.826609316
 20
4.3583866659
 10
-8.873453721
 20
4.3820797599
 10
-8.9223204434
 20
4.4006664514
 10
-8.9725828598
 20
4.4139911024
 10
-9.0237445729
 20
4.4220017304
 10
-9.0752465016
 20
4.424677346
  0
LWPOLYLINE
  5
311
100
AcDbEntity
  8
RACCORDO
100
AcDbPolyline
 62
253
  6
CONTINUOUS
 90
19
 70
0
 10
-6.7613551508
 20
-7.2654741376
 10
-6.7582913227
 20
-7.335174632
 10
-6.7491656064
 20
-7.4043448692
 10
-6.7340474274
 20
-7.4724586258
 10
-6.7130517994
 20
-7.5389977159
 10
-6.68633845
 20
-7.6034559331
 10
-6.654110605
 20
-7.6653429016
 10
-6.6166134429
 20
-7.7241878068
 10
-6.574132229
 20
-7.7795429768
 10
-6.5269901458
 20
-7.8309872887
 10
-6.4755458339
 20
-7.8781293719
 10
-6.4201906639
 20
-7.9206105858
 10
-6.3613457587
 20
-7.9581077479
 10
-6.2994587902
 20
-7.9903355928
 10
-6.235000573
 20
-8.0170489423
 10
-6.1684614829
 20
-8.0380445703
 10
-6.1003477263
 20
-8.0531627493
 10
-6.0311774891
 20
-8.0622884656
 10
-5.9614769947
 20
-8.0653522937
  0
LWPOLYLINE
  5
312
100
AcDbEntity
  8
RACCORDO
100
AcDbPolyline
 62
253
  6
CONTINUOUS
 90
19
 70
0
 10
-4.8915348911
 20
-15.091656735
 10
-4.888471063
 20
-15.1613572294
 10
-4.8793453467
 20
-15.2305274666
 10
-4.8642271677
 20
-15.2986412232
 10
-4.8432315397
 20
-15.3651803133
 10
-4.8165181902
 20
-15.4296385305
 10
-4.7842903453
 20
-15.491525499
 10
-4.7467931832
 20
-15.5503704042
 10
-4.7043119693
 20
-15.6057255742
 10
-4.6571698861
 20
-15.6571698861
 10
-4.6057255742
 20
-15.7043119693
 10
-4.5503704042
 20
-15.7467931832
 10
-4.491525499
 20
-15.7842903453
 10
-4.4296385305
 20
-15.8165181902
 10
-4.3651803133
 20
-15.8432315397
 10
-4.2986412232
 20
-15.8642271677
 10
-4.2305274666
 20
-15.8793453467
 10
-4.1613572294
 20
-15.888471063
 10
-4.091656735
 20
-15.8915348911
  0
LWPOLYLINE
  5
313
100
AcDbEntity
  8
RACCORDO
100
AcDbPolyline
 62
7
  6
CONTINUOUS
 90
19
 70
0
 10
-5.0
 20
-15.2001218439
 10
-4.9969898025
 20
-15.2694633819
 10
-4.9879583269
 20
-15.3384110927
 10
-4.9729398875
 20
-15.4064398522
 10
-4.951998232
 20
-15.4730727973
 10
-4.9252685744
 20
-15.5377433867
 10
-4.8929968863
 20
-15.5998158839
 10
-4.8554645583
 20
-15.6587730654
 10
-4.812938645
 20
-15.7142163378
 10
-4.7657358889
 20
-15.7657358889
 10
-4.7142163378
 20
-15.812938645
 10
-4.6587730654
 20
-15.8554645583
 10
-4.5998158839
 20
-15.8929968863
 10
-4.5377433867
 20
-15.9252685744
 10
-4.4730727973
 20
-15.951998232
 10
-4.4064398522
 20
-15.9729398875
 10
-4.3384110927
 20
-15.9879583269
 10
-4.2694633819
 20
-15.9969898025
 10
-4.2001218439
 20
-16.0
  0
LINE
  5
314
100
AcDbEntity
  8
RACCORDO
100
AcDbLine
 62
7
  6
CONTINUOUS
 10
-8.35
 20
-4.1500761524
 11
-8.35
 21
4.1500761524
  0
LINE
  5
315
100
AcDbEntity
  8
0
100
AcDbLine
 62
7
  6
CONTINUOUS
 10
-8.35
 20
11.3587234472
 11
-8.35
 21
11.9098050633
  0
LINE
  5
316
100
AcDbEntity
  8
0
100
AcDbLine
 62
7
  6
CONTINUOUS
 10
-8.35
 20
14.0901949367
 11
-8.35
 21
14.6412765528
  0
LINE
  5
317
100
AcDbEntity
  8
0
100
AcDbLine
 62
7
  6
CONTINUOUS
 10
-7.8261825974
 20
-25.973893555
 11
-7.8261825974
 21
-22.526106445
  0
LINE
  5
318
100
AcDbEntity
  8
0
100
AcDbLine
 62
7
  6
CONTINUOUS
 10
-7.8
 20
-26.0000761524
 11
-7.8
 21
-22.4999238476
  0
LINE
  5
319
100
AcDbEntity
  8
0
100
AcDbLine
 62
7
  6
CONTINUOUS
 10
-7.65
 20
11.3587234472
 11
-7.65
 21
11.9098050633
  0
LINE
  5
31A
100
AcDbEntity
  8
0
100
AcDbLine
 62
7
  6
CONTINUOUS
 10
-7.65
 20
14.0901949367
 11
-7.65
 21
14.6412765528
  0
LINE
  5
31B
100
AcDbEntity
  8
0
100
AcDbLine
 62
7
  6
CONTINUOUS
 10
-7.5
 20
15.6627620703
 11
-7.5
 21
13.5860176963
  0
LINE
  5
31C
100
AcDbEntity
  8
0
100
AcDbLine
 62
7
  6
CONTINUOUS
 10
-7.5
 20
12.4139823037
 11
-7.5
 21
10.3372379297
  0
LINE
  5
31D
100
AcDbEntity
  8
DRAFT
100
AcDbLine
 62
7
  6
CONTINUOUS
 10
-7.5
 20
-9.0
 11
-7.5
 21
-8.5
  0
LINE
  5
31E
100
AcDbEntity
  8
RACCORDO
100
AcDbLine
 62
7
  6
CONTINUOUS
 10
-6.8
 20
-7.3041189868
 11
-6.8
 21
7.3041189868
  0
LINE
  5
31F
100
AcDbEntity
  8
RACCORDO
100
AcDbLine
 62
253
  6
CONTINUOUS
 10
-6.7613551508
 20
7.2654741376
 11
-6.7613551508
 21
-7.2654741376
  0
LINE
  5
320
100
AcDbEntity
  8
0
100
AcDbLine
 62
7
  6
CONTINUOUS
 10
-6.7575887337
 20
12.65
 11
-6.7575887337
 21
13.35
  0
LINE
  5
321
100
AcDbEntity
  8
RACCORDO
100
AcDbLine
 62
253
  6
CONTINUOUS
 10
-5.9614769947
 20
-8.0653522937
 11
-5.9614769947
 21
8.0653522937
  0
LWPOLYLINE
  5
322
100
AcDbEntity
  8
0
100
AcDbPolyline
 62
7
  6
CONTINUOUS
 90
10
 70
0
 10
-6.0737359477
 20
12.65
 10
-6.0719190181
 20
12.7276419278
 10
-6.0705563208
 20
12.8053517802
 10
-6.069647856
 20
12.8831295571
 10
-6.0691936236
 20
12.9610205413
 10
-6.0691936236
 20
13.03897945
 10
-6.069647856
 20
13.1168704351
 10
-6.0705563208
 20
13.1946482137
 10
-6.071919018
 20
13.2723580687
 10
-6.0737359477
 20
13.35
  0
LWPOLYLINE
  5
323
100
AcDbEntity
  8
0
100
AcDbPolyline
 62
7
  6
CONTINUOUS
 90
18
 70
0
 10
-21.9071435302
 20
-24.3668082295
 10
-21.8631123209
 20
-24.2807505107
 10
-21.824976484
 20
-24.1938573304
 10
-21.7927015886
 20
-24.106503915
 10
-21.7662303914
 20
-24.0190595458
 10
-21.7454833676
 20
-23.9318862151
 10
-21.7303593174
 20
-23.8453373212
 10
-21.7207360486
 20
-23.7597564082
 10
-21.7164711305
 20
-23.6754759526
 10
-21.717402716
 20
-23.5928162024
 10
-21.72335043
 20
-23.5120840711
 10
-21.7341163182
 20
-23.4335720921
 10
-21.749485855
 20
-23.357557435
 10
-21.7692290049
 20
-23.2843009877
 10
-21.7931013336
 20
-23.2140465079
 10
-21.8208451652
 20
-23.1470198452
 10
-21.8521907798
 20
-23.0834282377
 10
-21.8868576488
 20
-23.0234596844
  0
LINE
  5
324
100
AcDbEntity
  8
0
100
AcDbLine
 62
7
  6
CONTINUOUS
 10
4.4042872815
 20
20.3848674893
 11
4.4541065803
 21
20.4783463468
  0
LINE
  5
325
100
AcDbEntity
  8
RACCORDO
100
AcDbLine
 62
253
  6
CONTINUOUS
 10
4.2001218439
 20
16.0
 11
4.091656735
 21
15.8915348911
  0
LINE
  5
326
100
AcDbEntity
  8
RACCORDO
100
AcDbLine
 62
253
  6
CONTINUOUS
 10
5.0
 20
15.2001218439
 11
4.8915348911
 21
15.091656735
  0
LINE
  5
327
100
AcDbEntity
  8
0
100
AcDbLine
 62
253
  6
CONTINUOUS
 10
-18.8476387933
 20
-9.8476502163
 11
-18.9
 21
-9.9000114231
  0
LINE
  5
328
100
AcDbEntity
  8
0
100
AcDbLine
 62
7
  6
CONTINUOUS
 10
-17.7
 20
-9.1
 11
-18.3523612067
 21
-9.7523612067
  0
LINE
  5
329
100
AcDbEntity
  8
0
100
AcDbLine
 62
253
  6
CONTINUOUS
 10
-18.5476502163
 20
-10.1476387933
 11
-18.6000114231
 21
-10.2
  0
LINE
  5
32A
100
AcDbEntity
  8
0
100
AcDbLine
 62
253
  6
CONTINUOUS
 10
-21.7861103952
 20
-11.0026304019
 11
-22.1443749376
 21
-11.3512998313
  0
LINE
  5
32B
100
AcDbEntity
  8
RACCORDO
100
AcDbLine
 62
253
  6
CONTINUOUS
 10
-21.8605528652
 20
-5.1948385808
 11
-21.7340245667
 21
-5.1232523139
  0
LINE
  5
32C
100
AcDbEntity
  8
RACCORDO
100
AcDbLine
 62
253
  6
CONTINUOUS
 10
-21.65
 20
-5.2171566959
 11
-21.5625723589
 21
-5.1676925165
  0
LINE
  5
32D
100
AcDbEntity
  8
RACCORDO
100
AcDbLine
 62
253
  6
CONTINUOUS
 10
-21.5877357088
 20
-5.6061726685
 11
-21.5110440036
 21
-5.5627825894
  0
LINE
  5
32E
100
AcDbEntity
  8
RACCORDO
100
AcDbLine
 62
253
  6
CONTINUOUS
 10
-21.4075559685
 20
-5.6456750709
 11
-21.3201283274
 21
-5.5962108915
  0
LINE
  5
32F
100
AcDbEntity
  8
0
100
AcDbLine
 62
253
  6
CONTINUOUS
 10
-22.2006159059
 20
-10.133547967
 11
-22.6970489536
 21
-10.1925232378
  0
LWPOLYLINE
  5
330
100
AcDbEntity
  8
RACCORDO
100
AcDbPolyline
 62
253
  6
CONTINUOUS
 90
3
 70
0
 10
-5.0960790211
 20
-8.3340245667
 10
-5.0436691677
 20
-8.3312538024
 10
-5.0
 20
-8.3243032497
  0
LWPOLYLINE
  5
331
100
AcDbEntity
  8
RACCORDO
100
AcDbPolyline
 62
253
  6
CONTINUOUS
 90
19
 70
0
 10
5.9614769947
 20
-8.0653522937
 10
6.0312894661
 20
-8.0622786287
 10
6.1005700013
 20
-8.053123464
 10
6.1687897957
 20
-8.0379564422
 10
6.2354284192
 20
-8.0168929836
 10
6.2999768328
 20
-7.9900936958
 10
6.3619413835
 20
-7.9577634215
 10
6.4208530361
 20
-7.9201462037
 10
6.4762577241
 20
-7.8775312673
 10
6.5277216321
 20
-7.8302548555
 10
6.5748484064
 20
-7.7786883364
 10
6.6172893113
 20
-7.723221228
 10
6.6547313122
 20
-7.6642661905
 10
6.6869167468
 20
-7.6022135317
 10
6.7135627567
 20
-7.5375906586
 10
6.7344195354
 20
-7.4710661835
 10
6.7493635852
 20
-7.403219095
 10
6.7583489879
 20
-7.3345145365
 10
6.7613551508
 20
-7.2654741376
  0
LINE
  5
332
100
AcDbEntity
  8
RACCORDO
100
AcDbLine
 62
253
  6
CONTINUOUS
 10
-16.7224913385
 20
-8.3340245667
 11
-5.0960790211
 21
-8.3340245667
  0
LINE
  5
333
100
AcDbEntity
  8
RACCORDO
100
AcDbLine
 62
253
  6
CONTINUOUS
 10
10.1599145094
 20
-8.3340245667
 11
16.7224913385
 21
-8.3340245667
  0
LINE
  5
334
100
AcDbEntity
  8
RACCORDO
100
AcDbLine
 62
253
  6
CONTINUOUS
 10
4.091656735
 20
-8.3109118689
 11
4.8915348911
 21
-8.3109118689
  0
LINE
  5
335
100
AcDbEntity
  8
RACCORDO
100
AcDbLine
 62
7
  6
CONTINUOUS
 10
17.0178042446
 20
-8.2
 11
10.4999238476
 21
-8.2
  0
LINE
  5
336
100
AcDbEntity
  8
RACCORDO
100
AcDbLine
 62
7
  6
CONTINUOUS
 10
-5.0
 20
-8.2
 11
-17.0178042446
 21
-8.2
  0
LINE
  5
337
100
AcDbEntity
  8
RACCORDO
100
AcDbLine
 62
253
  6
CONTINUOUS
 10
-16.9935584139
 20
-8.1125723589
 11
-6.0086970599
 21
-8.1125723589
  0
LINE
  5
338
100
AcDbEntity
  8
RACCORDO
100
AcDbLine
 62
253
  6
CONTINUOUS
 10
10.4124962065
 20
-8.1125723589
 11
16.9935584139
 21
-8.1125723589
  0
LINE
  5
339
100
AcDbEntity
  8
RACCORDO
100
AcDbLine
 62
7
  6
CONTINUOUS
 10
6.0001218439
 20
-8.1039971429
 11
4.9039971429
 21
-8.1039971429
  0
LINE
  5
33A
100
AcDbEntity
  8
RACCORDO
100
AcDbLine
 62
7
  6
CONTINUOUS
 10
4.091656735
 20
-8.0778145455
 11
-4.091656735
 21
-8.0778145455
  0
LINE
  5
33B
100
AcDbEntity
  8
RACCORDO
100
AcDbLine
 62
253
  6
CONTINUOUS
 10
-5.9614769947
 20
-8.0653522937
 11
5.9614769947
 21
-8.0653522937
  0
LINE
  5
33C
100
AcDbEntity
  8
0
100
AcDbLine
 62
7
  6
CONTINUOUS
 10
26.522650148
 20
-7.9761825974
 11
23.0051775874
 21
-7.9761825974
  0
LINE
  5
33D
100
AcDbEntity
  8
0
100
AcDbLine
 62
7
  6
CONTINUOUS
 10
-23.4530933844
 20
-7.9761825974
 11
-26.522650148
 21
-7.9761825974
  0
LINE
  5
33E
100
AcDbEntity
  8
0
100
AcDbLine
 62
7
  6
CONTINUOUS
 10
26.5306533492
 20
-7.95
 11
23.0338928645
 21
-7.95
  0
LINE
  5
33F
100
AcDbEntity
  8
0
100
AcDbLine
 62
7
  6
CONTINUOUS
 10
-23.4576155487
 20
-7.95
 11
-26.5306533492
 21
-7.95
  0
LINE
  5
340
100
AcDbEntity
  8
RACCORDO
100
AcDbLine
 62
253
  6
CONTINUOUS
 10
-16.9935584139
 20
-7.6126485113
 11
-6.7381144729
 21
-7.6126485113
  0
LINE
  5
341
100
AcDbEntity
  8
RACCORDO
100
AcDbLine
 62
253
  6
CONTINUOUS
 10
10.4124962065
 20
-7.6126485113
 11
16.9935584139
 21
-7.6126485113
  0
LINE
  5
342
100
AcDbEntity
  8
RACCORDO
100
AcDbLine
 62
253
  6
CONTINUOUS
 10
6.7613551508
 20
-7.2654741376
 11
-6.7613551508
 21
-7.2654741376
  0
LINE
  5
343
100
AcDbEntity
  8
0
100
AcDbLine
 62
7
  6
CONTINUOUS
 10
-0.6780514286
 20
-5.6369808163
 11
0.648717551
 21
-5.6369808163
  0
LINE
  5
344
100
AcDbEntity
  8
0
100
AcDbLine
 62
253
  6
CONTINUOUS
 10
22.2006159059
 20
-10.133547967
 11
22.6970489519
 21
-10.1925232515
  0
LWPOLYLINE
  5
345
100
AcDbEntity
  8
RACCORDO
100
AcDbPolyline
 62
7
  6
CONTINUOUS
 90
6
 70
0
 10
9.9125723589
 20
-9.3028287009
 10
9.9093103253
 20
-9.3020481276
 10
9.9011375145
 20
-9.298794361
 10
9.8879575131
 20
-9.2930674012
 10
9.8696566374
 20
-9.2846648232
 10
9.8462911226
 20
-9.2737890519
  0
LINE
  5
346
100
AcDbEntity
  8
RACCORDO
100
AcDbLine
 62
253
  6
CONTINUOUS
 10
-21.7340245667
 20
5.1232523139
 11
-21.9
 21
5.2171566959
  0
LINE
  5
347
100
AcDbEntity
  8
RACCORDO
100
AcDbLine
 62
253
  6
CONTINUOUS
 10
-21.5625723589
 20
5.1676925165
 11
-21.65
 21
5.2171566959
  0
LINE
  5
348
100
AcDbEntity
  8
RACCORDO
100
AcDbLine
 62
253
  6
CONTINUOUS
 10
-21.5110440036
 20
5.5627825894
 11
-21.6575559685
 21
5.6456750709
  0
LINE
  5
349
100
AcDbEntity
  8
RACCORDO
100
AcDbLine
 62
253
  6
CONTINUOUS
 10
-21.3201283274
 20
5.5962108915
 11
-21.4075559685
 21
5.6456750709
  0
LINE
  5
34A
100
AcDbEntity
  8
0
100
AcDbLine
 62
253
  6
CONTINUOUS
 10
-21.7861103952
 20
11.0026304019
 11
-22.144374928
 21
11.3512998413
  0
LINE
  5
34B
100
AcDbEntity
  8
DRAFT
100
AcDbLine
 62
7
  6
CONTINUOUS
 10
-15.0843496491
 20
4.65
 11
-15.0496877751
 21
4.615338126
  0
LINE
  5
34C
100
AcDbEntity
  8
0
100
AcDbLine
 62
253
  6
CONTINUOUS
 10
-18.8476387933
 20
9.8476502163
 11
-18.9
 21
9.9000114231
  0
LINE
  5
34D
100
AcDbEntity
  8
0
100
AcDbLine
 62
7
  6
CONTINUOUS
 10
-17.7
 20
9.1
 11
-18.3523612067
 21
9.7523612067
  0
LINE
  5
34E
100
AcDbEntity
  8
0
100
AcDbLine
 62
253
  6
CONTINUOUS
 10
-18.5476502163
 20
10.1476387933
 11
-18.6000114231
 21
10.2
  0
LINE
  5
34F
100
AcDbEntity
  8
0
100
AcDbLine
 62
7
  6
CONTINUOUS
 10
-24.1131423512
 20
23.0234596844
 11
-24.0754442988
 21
22.9672823951
  0
LINE
  5
350
100
AcDbEntity
  8
0
100
AcDbLine
 62
7
  6
CONTINUOUS
 10
4.4042872815
 20
-20.3848674893
 11
4.4541065803
 21
-20.4783463468
  0
LINE
  5
351
100
AcDbEntity
  8
RACCORDO
100
AcDbLine
 62
253
  6
CONTINUOUS
 10
-5.4272823062
 20
-9.0
 11
-5.4297449062
 21
-8.9911201511
  0
LWPOLYLINE
  5
352
100
AcDbEntity
  8
RACCORDO
100
AcDbPolyline
 62
7
  6
CONTINUOUS
 90
25
 70
0
 10
-4.9039971429
 20
8.2916828748
 10
-4.9073495531
 20
8.3741986958
 10
-4.9173988129
 20
8.455448485
 10
-4.9341449223
 20
8.5354322425
 10
-4.9578690324
 20
8.6149043677
 10
-4.9882899921
 20
8.6931104612
 10
-5.0245643485
 20
8.7677873244
 10
-5.0665760512
 20
8.8384417268
 10
-5.1144411506
 20
8.905566899
 10
-5.1676643443
 20
8.9683793336
 10
-5.2265993743
 20
9.0271309428
 10
-5.2908924987
 20
9.0815698144
 10
-5.3589871888
 20
9.130156704
 10
-5.4310448259
 20
9.1726437916
 10
-5.5069040288
 20
9.2092788973
 10
-5.5845241245
 20
9.2392662375
 10
-5.6635098546
 20
9.2623880614
 10
-5.7442564774
 20
9.2788621199
 10
-5.8259090949
 20
9.2885458817
 10
-5.9090213048
 20
9.2913425446
 10
-5.9930395093
 20
9.2873489109
 10
-6.0754480172
 20
9.2767128559
 10
-6.1554082648
 20
9.2594836713
 10
-6.2337588158
 20
9.2356120655
 10
-6.3104996701
 20
9.2050980383
  0
LWPOLYLINE
  5
353
100
AcDbEntity
  8
RACCORDO
100
AcDbPolyline
 62
253
  6
CONTINUOUS
 90
31
 70
0
 10
-4.091656735
 20
8.3109118689
 10
-4.0961738822
 20
8.4327669598
 10
-4.1081699411
 20
8.5521747343
 10
-4.1276449117
 20
8.6691351924
 10
-4.1547244446
 20
8.7837860694
 10
-4.1892828893
 20
8.89598963
 10
-4.2309432938
 20
9.0053326679
 10
-4.2798296949
 20
9.1121581501
 10
-4.3358180558
 20
9.2161231097
 10
-4.3981593138
 20
9.3157854398
 10
-4.4669190205
 20
9.4110432069
 10
-4.5420316243
 20
9.5019983447
 10
-4.6225514086
 20
9.5875145467
 10
-4.7085430445
 20
9.6675265077
 10
-4.7999418607
 20
9.742099533
 10
-4.8956081273
 20
9.810293233
 10
-4.9956577459
 20
9.8720445791
 10
-5.0999748147
 20
9.9274166
 10
-5.2070718987
 20
9.9756579923
 10
-5.3164780607
 20
10.016636477
 10
-5.4286642379
 20
10.0504843331
 10
-5.5435558066
 20
10.0768470939
 10
-5.6616702316
 20
10.0958958242
 10
-5.7824900482
 20
10.1074594591
 10
-5.9043882378
 20
10.1106703374
 10
-6.0277732486
 20
10.1052569804
 10
-6.1522366324
 20
10.0914908668
 10
-6.2749260267
 20
10.0693187721
 10
-6.3948906439
 20
10.0387229547
 10
-6.5130812715
 20
9.9997211562
 10
-6.6294979096
 20
9.9523133765
  0
LWPOLYLINE
  5
354
100
AcDbEntity
  8
0
100
AcDbPolyline
 62
7
  6
CONTINUOUS
 90
49
 70
0
 10
-3.0039832653
 20
-3.8045159184
 10
-2.997339843
 20
-4.0021211042
 10
-2.9781177496
 20
-4.1972477418
 10
-2.9463169853
 20
-4.3898958311
 10
-2.9016865144
 20
-4.580885141
 10
-2.8444773726
 20
-4.7693959026
 10
-2.775442666
 20
-4.9529688097
 10
-2.6944253433
 20
-5.1315282752
 10
-2.6015824559
 20
-5.3051498862
 10
-2.4981382643
 20
-5.4716010972
 10
-2.3839973036
 20
-5.6307486479
 10
-2.2592550388
 20
-5.7827257986
 10
-2.1254221253
 20
-5.9256997846
 10
-1.982369191
 20
-6.0595974219
 10
-1.830225608
 20
-6.1844918944
 10
-1.6708901478
 20
-6.2987699894
 10
-1.5041768486
 20
-6.4023202856
 10
-1.3302716721
 20
-6.4952542042
 10
-1.1516312749
 20
-6.5762927957
 10
-0.9683636114
 20
-6.6452189546
 10
-0.7803607271
 20
-6.7022497864
 10
-0.589755416
 20
-6.7467576582
 10
-0.3963920009
 20
-6.7786306143
 10
-0.2004261589
 20
-6.7979806105
 10
-0.0044577142
 20
-6.8045158807
 10
0.1915138317
 20
-6.7980422189
 10
0.3874879803
 20
-6.778753831
 10
0.5808634113
 20
-6.7469415693
 10
0.7714840483
 20
-6.7024933657
 10
0.9595059676
 20
-6.6455212883
 10
1.1427960785
 20
-6.576652393
 10
1.3214615799
 20
-6.4956703675
 10
1.495395273
 20
-6.4027915241
 10
1.6621424693
 20
-6.2992918552
 10
1.8215228289
 20
-6.1850526032
 10
1.9737166919
 20
-6.0601925258
 10
2.1168103901
 20
-5.9263438886
 10
2.2506528085
 20
-5.7834740572
 10
2.3753950622
 20
-5.6316156661
 10
2.4895768285
 20
-5.4724988833
 10
2.5931446764
 20
-5.3058708243
 10
2.6861520369
 20
-5.1319843736
 10
2.7672988811
 20
-4.9533283538
 10
2.8363923222
 20
-4.7700543355
 10
2.893625247
 20
-4.5820107481
 10
2.9382762875
 20
-4.3912317016
 10
2.9701049876
 20
-4.1983952329
 10
2.9893518033
 20
-4.0028233051
 10
2.9960167347
 20
-3.8045159184
  0
LWPOLYLINE
  5
355
100
AcDbEntity
  8
0
100
AcDbPolyline
 62
7
  6
CONTINUOUS
 90
49
 70
0
 10
-3.0039832653
 20
3.8045159184
 10
-2.997339843
 20
3.6069107326
 10
-2.9781177496
 20
3.411784095
 10
-2.9463169853
 20
3.2191360056
 10
-2.9016865144
 20
3.0281466958
 10
-2.8444773726
 20
2.8396359341
 10
-2.775442666
 20
2.6560630271
 10
-2.6944253433
 20
2.4775035615
 10
-2.6015824559
 20
2.3038819505
 10
-2.4981382643
 20
2.1374307396
 10
-2.3839973036
 20
1.9782831888
 10
-2.2592550388
 20
1.8263060381
 10
-2.1254221253
 20
1.6833320522
 10
-1.982369191
 20
1.5494344149
 10
-1.830225608
 20
1.4245399423
 10
-1.6708901478
 20
1.3102618473
 10
-1.5041768486
 20
1.2067115511
 10
-1.3302716721
 20
1.1137776325
 10
-1.1516312749
 20
1.032739041
 10
-0.9683636114
 20
0.9638128821
 10
-0.7803607271
 20
0.9067820504
 10
-0.589755416
 20
0.8622741786
 10
-0.3963920009
 20
0.8304012224
 10
-0.2004261589
 20
0.8110512262
 10
-0.0044577142
 20
0.804515956
 10
0.1915138317
 20
0.8109896179
 10
0.3874879803
 20
0.8302780057
 10
0.5808634113
 20
0.8620902675
 10
0.7714840483
 20
0.906538471
 10
0.9595059676
 20
0.9635105484
 10
1.1427960785
 20
1.0323794438
 10
1.3214615799
 20
1.1133614693
 10
1.495395273
 20
1.2062403127
 10
1.6621424693
 20
1.3097399815
 10
1.8215228289
 20
1.4239792335
 10
1.9737166919
 20
1.5488393109
 10
2.1168103901
 20
1.6826879482
 10
2.2506528085
 20
1.8255577795
 10
2.3753950622
 20
1.9774161707
 10
2.4895768285
 20
2.1365329534
 10
2.5931446764
 20
2.3031610125
 10
2.6861520369
 20
2.4770474631
 10
2.7672988811
 20
2.6557034829
 10
2.8363923222
 20
2.8389775012
 10
2.893625247
 20
3.0270210887
 10
2.9382762875
 20
3.2178001351
 10
2.9701049876
 20
3.4106366039
 10
2.9893518033
 20
3.6062085316
 10
2.9960167347
 20
3.8045159184
  0
LWPOLYLINE
  5
356
100
AcDbEntity
  8
RACCORDO
100
AcDbPolyline
 62
253
  6
CONTINUOUS
 90
34
 70
0
 10
-4.8915349061
 20
8.3109118457
 10
-4.8933852514
 20
8.3721419513
 10
-4.8989204833
 20
8.4326848223
 10
-4.908037115
 20
8.4923249254
 10
-4.9205829469
 20
8.5507077152
 10
-4.9364521712
 20
8.6077966007
 10
-4.9556750265
 20
8.6638486329
 10
-4.9782482861
 20
8.7188083344
 10
-5.0040476835
 20
8.7723336425
 10
-5.0329843149
 20
8.8242357781
 10
-5.064960416
 20
8.874335276
 10
-5.0998618796
 20
8.9224498382
 10
-5.1375572037
 20
8.968397202
 10
-5.1779046349
 20
9.0120078118
 10
-5.2207677962
 20
9.0531374287
 10
-5.2660095035
 20
9.0916532784
 10
-5.3134948267
 20
9.1274340417
 10
-5.3630361279
 20
9.1603323503
 10
-5.41440092
 20
9.1901981344
 10
-5.4673288809
 20
9.2168993934
 10
-5.5216993408
 20
9.2403940478
 10
-5.5774879837
 20
9.2606646929
 10
-5.6344036702
 20
9.2775917494
 10
-5.6923505623
 20
9.2911330051
 10
-5.751620515
 20
9.3012879317
 10
-5.8122292032
 20
9.3079258514
 10
-5.8737565763
 20
9.3108670206
 10
-5.9358370972
 20
9.3099918033
 10
-5.9983501507
 20
9.3052002093
 10
-6.0609231729
 20
9.296418268
 10
-6.1228087341
 20
9.2837063138
 10
-6.1836018012
 20
9.2671661251
 10
-6.2432261755
 20
9.2468369832
 10
-6.3014466679
 20
9.2228015696
  0
LINE
  5
357
100
AcDbEntity
  8
0
100
AcDbLine
 62
7
  6
CONTINUOUS
 10
-4.4025440617
 20
20.3390767483
 11
-4.4017663413
 21
20.2860829803
  0
LINE
  5
358
100
AcDbEntity
  8
0
100
AcDbLine
 62
7
  6
CONTINUOUS
 10
-4.4017663413
 20
20.2860829803
 11
-4.4008208213
 21
20.1751933173
  0
LINE
  5
359
100
AcDbEntity
  8
0
100
AcDbLine
 62
7
  6
CONTINUOUS
 10
-4.4008208213
 20
20.1751933173
 11
-4.4000958367
 21
19.9853335123
  0
LINE
  5
35A
100
AcDbEntity
  8
RACCORDO
100
AcDbLine
 62
253
  6
CONTINUOUS
 10
-5.4297449062
 20
-8.5
 11
-5.4297449062
 21
-8.9911201511
  0
LINE
  5
35B
100
AcDbEntity
  8
RACCORDO
100
AcDbLine
 62
253
  6
CONTINUOUS
 10
-5.0960790211
 20
-8.2
 11
-5.0960790211
 21
-8.3340245667
  0
LINE
  5
35C
100
AcDbEntity
  8
DRAFT
100
AcDbLine
 62
7
  6
CONTINUOUS
 10
-5.0
 20
-8.2
 11
-5.0
 21
-10.2709628074
  0
LINE
  5
35D
100
AcDbEntity
  8
RACCORDO
100
AcDbLine
 62
7
  6
CONTINUOUS
 10
-5.0
 20
-15.2001218439
 11
-5.0
 21
-10.2709628074
  0
LINE
  5
35E
100
AcDbEntity
  8
RACCORDO
100
AcDbLine
 62
7
  6
CONTINUOUS
 10
-4.9039971429
 20
8.1039971429
 11
-4.9039971429
 21
8.2916828748
  0
LINE
  5
35F
100
AcDbEntity
  8
RACCORDO
100
AcDbLine
 62
253
  6
CONTINUOUS
 10
-4.8915348911
 20
-8.0915348911
 11
-4.8915348911
 21
-15.091656735
  0
LINE
  5
360
100
AcDbEntity
  8
RACCORDO
100
AcDbLine
 62
253
  6
CONTINUOUS
 10
-4.8915348911
 20
8.0915348911
 11
-4.8915348911
 21
8.3109118689
  0
LINE
  5
361
100
AcDbEntity
  8
0
100
AcDbLine
 62
7
  6
CONTINUOUS
 10
-4.4541065803
 20
21.3041446572
 11
-4.4541065803
 21
20.4783463468
  0
LINE
  5
362
100
AcDbEntity
  8
0
100
AcDbLine
 62
7
  6
CONTINUOUS
 10
-4.4541065803
 20
-20.4783463468
 11
-4.4541065803
 21
-21.3041446572
  0
LINE
  5
363
100
AcDbEntity
  8
0
100
AcDbLine
 62
7
  6
CONTINUOUS
 10
-4.4000958367
 20
19.9853335123
 11
-4.4
 21
16.0
  0
LINE
  5
364
100
AcDbEntity
  8
0
100
AcDbLine
 62
7
  6
CONTINUOUS
 10
-4.324948937
 20
21.1749870139
 11
-4.324948937
 21
16.0
  0
LINE
  5
365
100
AcDbEntity
  8
0
100
AcDbLine
 62
7
  6
CONTINUOUS
 10
-4.324948937
 20
-15.9897217376
 11
-4.324948937
 21
-21.1749870139
  0
LINE
  5
366
100
AcDbEntity
  8
RACCORDO
100
AcDbLine
 62
253
  6
CONTINUOUS
 10
-4.091656735
 20
-15.8915348911
 11
-4.091656735
 21
-8.0778145455
  0
LINE
  5
367
100
AcDbEntity
  8
RACCORDO
100
AcDbLine
 62
253
  6
CONTINUOUS
 10
-4.091656735
 20
8.0778145455
 11
-4.091656735
 21
8.3109118689
  0
LINE
  5
368
100
AcDbEntity
  8
0
100
AcDbLine
 62
7
  6
CONTINUOUS
 10
-3.4207897551
 20
-20.9707897551
 11
-3.4207897551
 21
-16.0
  0
LINE
  5
369
100
AcDbEntity
  8
0
100
AcDbLine
 62
7
  6
CONTINUOUS
 10
-3.4207897551
 20
16.0
 11
-3.4207897551
 21
20.9707897551
  0
LINE
  5
36A
100
AcDbEntity
  8
0
100
AcDbLine
 62
7
  6
CONTINUOUS
 10
-3.3317757036
 20
-19.1112481935
 11
-3.3317757036
 21
-16.0
  0
LINE
  5
36B
100
AcDbEntity
  8
0
100
AcDbLine
 62
7
  6
CONTINUOUS
 10
-3.3317757036
 20
16.0
 11
-3.3317757036
 21
19.1112481935
  0
LINE
  5
36C
100
AcDbEntity
  8
0
100
AcDbLine
 62
7
  6
CONTINUOUS
 10
-3.2
 20
-20.2543443947
 11
-3.2
 21
-19.3910491073
  0
LINE
  5
36D
100
AcDbEntity
  8
0
100
AcDbLine
 62
7
  6
CONTINUOUS
 10
-3.2
 20
19.3910491073
 11
-3.2
 21
20.2543443947
  0
LINE
  5
36E
100
AcDbEntity
  8
0
100
AcDbLine
 62
7
  6
CONTINUOUS
 10
-3.0
 20
-19.2
 11
-3.0
 21
-16.0
  0
LINE
  5
36F
100
AcDbEntity
  8
0
100
AcDbLine
 62
7
  6
CONTINUOUS
 10
-3.0
 20
16.0
 11
-3.0
 21
19.2
  0
LINE
  5
370
100
AcDbEntity
  8
0
100
AcDbLine
 62
7
  6
CONTINUOUS
 10
-4.4
 20
-15.9743615881
 11
-4.400210419
 21
-20.0353173265
  0
LINE
  5
371
100
AcDbEntity
  8
0
100
AcDbLine
 62
7
  6
CONTINUOUS
 10
-4.400210419
 20
-20.0353173265
 11
-4.4011019314
 21
-20.2157343119
  0
LINE
  5
372
100
AcDbEntity
  8
0
100
AcDbLine
 62
7
  6
CONTINUOUS
 10
-4.4011019314
 20
-20.2157343119
 11
-4.4017663413
 21
-20.2860829803
  0
LWPOLYLINE
  5
373
100
AcDbEntity
  8
0
100
AcDbPolyline
 62
7
  6
CONTINUOUS
 90
6
 70
0
 10
-4.4017663413
 20
-20.2860829803
 10
-4.4025440617
 20
-20.3390767483
 10
-4.4029613323
 20
-20.3583454132
 10
-4.4033887645
 20
-20.3722683671
 10
-4.4038307475
 20
-20.3811090591
 10
-4.4042872815
 20
-20.3848674893
  0
LWPOLYLINE
  5
374
100
AcDbEntity
  8
0
100
AcDbPolyline
 62
7
  6
CONTINUOUS
 90
46
 70
0
 10
-2.683982449
 20
3.8045159184
 10
-2.6772155028
 20
3.9928042687
 10
-2.6577127935
 20
4.1784384381
 10
-2.625474321
 20
4.3614184264
 10
-2.5802215926
 20
4.5426231839
 10
-2.5222331011
 20
4.7211737604
 10
-2.4523443252
 20
4.8944333054
 10
-2.3703841672
 20
5.0623065323
 10
-2.2765237248
 20
5.2248887277
 10
-2.1721117695
 20
5.3798289007
 10
-2.056972044
 20
5.52703365
 10
-1.9312808055
 20
5.6665963768
 10
-1.7969155979
 20
5.7964462944
 10
-1.6537446261
 20
5.9164231525
 10
-1.5018996851
 20
6.0266872014
 10
-1.3436537034
 20
6.1256484043
 10
-1.1789876536
 20
6.2131171247
 10
-1.0079205631
 20
6.2892829992
 10
-0.8327824428
 20
6.3531249003
 10
-0.6534839019
 20
6.4045044636
 10
-0.4701143312
 20
6.4435600537
 10
-0.2852719134
 20
6.4696856366
 10
-0.0988438938
 20
6.4826795966
 10
0.0890569728
 20
6.4827435495
 10
0.2754942393
 20
6.4698763095
 10
0.4603559505
 20
6.4438757623
 10
0.6437540617
 20
6.4049440222
 10
0.8230879917
 20
6.3536862464
 10
0.9982655629
 20
6.2899659121
 10
1.1693789529
 20
6.213919542
 10
1.334104114
 20
6.1265618614
 10
1.4924316198
 20
6.0276937036
 10
1.6443708967
 20
5.9175142352
 10
1.7876261761
 20
5.7976356812
 10
1.9220390894
 20
5.6679383006
 10
2.0477680052
 20
5.5285418344
 10
2.1629922614
 20
5.3814177304
 10
2.2675844426
 20
5.2263540142
 10
2.3616719643
 20
5.0635626602
 10
2.4438164106
 20
4.8956510399
 10
2.5137970413
 20
4.7227977049
 10
2.5718345967
 20
4.5448241036
 10
2.6171528816
 20
4.3638019527
 10
2.6494931643
 20
4.1804218242
 10
2.6691141766
 20
3.9939931461
 10
2.6760159184
 20
3.8045159184
  0
LINE
  5
375
100
AcDbEntity
  8
0
100
AcDbLine
 62
7
  6
CONTINUOUS
 10
-0.5197234842
 20
11.5197234842
 11
-0.35
 21
12.0901949367
  0
LINE
  5
376
100
AcDbEntity
  8
RACCORDO
100
AcDbLine
 62
253
  6
CONTINUOUS
 10
-16.4912724559
 20
-8.9911201511
 11
-16.5001523048
 21
-9.0
  0
LINE
  5
377
100
AcDbEntity
  8
0
100
AcDbLine
 62
7
  6
CONTINUOUS
 10
-15.15
 20
-9.1
 11
-15.1971252854
 21
-9.1471252854
  0
LWPOLYLINE
  5
378
100
AcDbEntity
  8
0
100
AcDbPolyline
 62
7
  6
CONTINUOUS
 90
34
 70
0
 10
21.907266566
 20
24.3666634878
 10
21.8226181484
 20
24.2947092216
 10
21.7386820991
 20
24.2130857951
 10
21.6603916645
 20
24.1260326375
 10
21.5880972698
 20
24.0339393957
 10
21.5221225026
 20
23.9372182757
 10
21.4627626639
 20
23.8363021977
 10
21.4102834463
 20
23.7316428586
 10
21.3649197454
 20
23.6237087098
 10
21.3268746077
 20
23.5129828608
 10
21.2963183223
 20
23.3999609166
 10
21.2733876582
 20
23.2851487596
 10
21.2581852526
 20
23.1690602849
 10
21.2507791513
 20
23.0522151008
 10
21.251202504
 20
22.9351362022
 10
21.259453416
 20
22.8183476303
 10
21.2754949569
 20
22.702372127
 10
21.2992553255
 20
22.5877287948
 10
21.3306281714
 20
22.4749307735
 10
21.3694730712
 20
22.3644829433
 10
21.4156161567
 20
22.2568796652
 10
21.4688508931
 20
22.1526025681
 10
21.5289390039
 20
22.0521183929
 10
21.5956115369
 20
21.9558769038
 10
21.6685700683
 20
21.8643088746
 10
21.7474880382
 20
21.7778241611
 10
21.8320122127
 20
21.6968098663
 10
21.9217642645
 20
21.6216286079
 10
22.0163424665
 20
21.5526168949
 10
22.1153234899
 20
21.4900836219
 10
22.218264299
 20
21.4343086862
 10
22.324704134
 20
21.3855417348
 10
22.4341665739
 20
21.3440010475
 10
22.5461616683
 20
21.3098725593
  0
LWPOLYLINE
  5
379
100
AcDbEntity
  8
0
100
AcDbPolyline
 62
7
  6
CONTINUOUS
 90
22
 70
0
 10
22.3233204555
 20
23.8463061671
 10
22.3805492226
 20
23.8929352685
 10
22.4411552229
 20
23.9357920707
 10
22.5048970777
 20
23.974621703
 10
22.5716484554
 20
24.0092482459
 10
22.6410034789
 20
24.03936525
 10
22.7122326466
 20
24.0646299365
 10
22.7849131144
 20
24.0849248952
 10
22.8587700609
 20
24.1002055495
 10
22.9332395981
 20
24.1104012209
 10
23.0077537291
 20
24.115523603
 10
23.082177448
 20
24.1156523462
 10
23.1566006787
 20
24.1108125405
 10
23.2307523704
 20
24.1009982162
 10
23.3042390918
 20
24.0862377419
 10
23.3769645071
 20
24.066507982
 10
23.4487705781
 20
24.0417629722
 10
23.5191250612
 20
24.0120947738
 10
23.5873851571
 20
23.9777386855
 10
23.6531463426
 20
23.938912647
 10
23.7162169693
 20
23.8957449271
 10
23.7763157296
 20
23.8484302493
  0
LINE
  5
37A
100
AcDbEntity
  8
RACCORDO
100
AcDbLine
 62
7
  6
CONTINUOUS
 10
5.028007679
 20
8.9165422164
 11
5.0480496197
 21
8.9285846293
  0
LINE
  5
37B
100
AcDbEntity
  8
0
100
AcDbLine
 62
7
  6
CONTINUOUS
 10
-13.5197234842
 20
0.5197234842
 11
-14.0901949367
 21
0.35
  0
LINE
  5
37C
100
AcDbEntity
  8
0
100
AcDbLine
 62
7
  6
CONTINUOUS
 10
-12.4802765158
 20
-0.5197234842
 11
-11.9098050633
 21
-0.35
  0
LWPOLYLINE
  5
37D
100
AcDbEntity
  8
RACCORDO
100
AcDbPolyline
 62
253
  6
CONTINUOUS
 90
16
 70
0
 10
16.9247534984
 20
-4.424677346
 10
16.9771633518
 20
-4.4219065817
 10
17.0289954264
 20
-4.4136567893
 10
17.0796784997
 20
-4.4000189439
 10
17.1286597792
 20
-4.3811408254
 10
17.1753931828
 20
-4.3572319024
 10
17.2193482996
 20
-4.3285669311
 10
17.2600352762
 20
-4.2954747751
 10
17.2970206848
 20
-4.2583181116
 10
17.329912266
 20
-4.2174956618
 10
17.3583866659
 20
-4.173390684
 10
17.3820797599
 20
-4.126546279
 10
17.4006664514
 20
-4.0776795566
 10
17.4139911024
 20
-4.0274171402
 10
17.4220017304
 20
-3.9762554271
 10
17.424677346
 20
-3.9247534984
  0
LWPOLYLINE
  5
37E
100
AcDbEntity
  8
RACCORDO
100
AcDbPolyline
 62
253
  6
CONTINUOUS
 90
16
 70
0
 10
-9.0752465016
 20
-4.424677346
 10
-9.0230003234
 20
-4.4219238584
 10
-8.9713263434
 20
-4.4137253785
 10
-8.9207904934
 20
-4.400171696
 10
-8.8719462401
 20
-4.3814112502
 10
-8.8253285241
 20
-4.3576495048
 10
-8.7814479009
 20
-4.3291466977
 10
-8.7407849496
 20
-4.2962149906
 10
-8.7037850094
 20
-4.2592150504
 10
-8.6708533023
 20
-4.2185520991
 10
-8.6423504952
 20
-4.1746714759
 10
-8.6185887498
 20
-4.1280537599
 10
-8.599828304
 20
-4.0792095066
 10
-8.5862746215
 20
-4.0286736566
 10
-8.5780761416
 20
-3.9769996766
 10
-8.575322654
 20
-3.9247534984
  0
LINE
  5
37F
100
AcDbEntity
  8
0
100
AcDbLine
 62
7
  6
CONTINUOUS
 10
0.648717551
 20
-5.31698
 11
-0.6780514286
 21
-5.31698
  0
LINE
  5
380
100
AcDbEntity
  8
RACCORDO
100
AcDbLine
 62
253
  6
CONTINUOUS
 10
21.5625723589
 20
-5.1676925165
 11
21.0626485113
 21
-5.1676925165
  0
LINE
  5
381
100
AcDbEntity
  8
RACCORDO
100
AcDbLine
 62
253
  6
CONTINUOUS
 10
-21.0626485113
 20
-5.1676925165
 11
-21.5625723589
 21
-5.1676925165
  0
LINE
  5
382
100
AcDbEntity
  8
RACCORDO
100
AcDbLine
 62
253
  6
CONTINUOUS
 10
21.7340245667
 20
-5.1232523139
 11
21.65
 21
-5.1232523139
  0
LINE
  5
383
100
AcDbEntity
  8
RACCORDO
100
AcDbLine
 62
253
  6
CONTINUOUS
 10
-21.65
 20
-5.1232523139
 11
-21.7340245667
 21
-5.1232523139
  0
LINE
  5
384
100
AcDbEntity
  8
0
100
AcDbLine
 62
7
  6
CONTINUOUS
 10
-1.32462
 20
-4.813995102
 11
1.2949946939
 21
-4.813995102
  0
LINE
  5
385
100
AcDbEntity
  8
RACCORDO
100
AcDbLine
 62
7
  6
CONTINUOUS
 10
-17.1500761524
 20
-4.65
 11
-8.8499238476
 21
-4.65
  0
LINE
  5
386
100
AcDbEntity
  8
RACCORDO
100
AcDbLine
 62
7
  6
CONTINUOUS
 10
8.8499238476
 20
-4.65
 11
17.1500761524
 21
-4.65
  0
LINE
  5
387
100
AcDbEntity
  8
0
100
AcDbLine
 62
7
  6
CONTINUOUS
 10
1.2949946939
 20
-4.489395102
 11
-1.32462
 21
-4.489395102
  0
LINE
  5
388
100
AcDbEntity
  8
RACCORDO
100
AcDbLine
 62
253
  6
CONTINUOUS
 10
-16.9247534984
 20
-4.424677346
 11
-9.0752465016
 21
-4.424677346
  0
LINE
  5
389
100
AcDbEntity
  8
RACCORDO
100
AcDbLine
 62
253
  6
CONTINUOUS
 10
9.0752465016
 20
-4.424677346
 11
16.9247534984
 21
-4.424677346
  0
LINE
  5
38A
100
AcDbEntity
  8
0
100
AcDbLine
 62
7
  6
CONTINUOUS
 10
-1.9708971429
 20
-3.9864102041
 11
1.9415632653
 21
-3.9864102041
  0
LINE
  5
38B
100
AcDbEntity
  8
RACCORDO
100
AcDbLine
 62
253
  6
CONTINUOUS
 10
8.575322654
 20
-3.9247534984
 11
17.424677346
 21
-3.9247534984
  0
LINE
  5
38C
100
AcDbEntity
  8
RACCORDO
100
AcDbLine
 62
253
  6
CONTINUOUS
 10
-8.575322654
 20
-3.9247534984
 11
-17.424677346
 21
-3.9247534984
  0
LINE
  5
38D
100
AcDbEntity
  8
0
100
AcDbLine
 62
7
  6
CONTINUOUS
 10
1.9415632653
 20
-3.6618089796
 11
0.1560159184
 21
-3.6618089796
  0
LINE
  5
38E
100
AcDbEntity
  8
0
100
AcDbLine
 62
7
  6
CONTINUOUS
 10
-0.1639836735
 20
-3.6618089796
 11
-1.9708971429
 21
-3.6618089796
  0
LINE
  5
38F
100
AcDbEntity
  8
0
100
AcDbLine
 62
7
  6
CONTINUOUS
 10
-14.0901949367
 20
-0.35
 11
-13.5197234842
 21
-0.5197234842
  0
LINE
  5
390
100
AcDbEntity
  8
0
100
AcDbLine
 62
7
  6
CONTINUOUS
 10
-11.9098050633
 20
0.35
 11
-12.4802765158
 21
0.5197234842
  0
LWPOLYLINE
  5
391
100
AcDbEntity
  8
RACCORDO
100
AcDbPolyline
 62
7
  6
CONTINUOUS
 90
4
 70
0
 10
9.6188936155
 20
-9.1735042152
 10
9.5695557955
 20
-9.1534626129
 10
9.5183878305
 20
-9.1336252272
 10
9.4126485113
 20
-9.0935800985
  0
LWPOLYLINE
  5
392
100
AcDbEntity
  8
RACCORDO
100
AcDbPolyline
 62
7
  6
CONTINUOUS
 90
4
 70
0
 10
9.8462911226
 20
-9.2737890519
 10
9.7497339014
 20
-9.2298647701
 10
9.7095893943
 20
-9.2122340553
 10
9.6188936155
 20
-9.1735042152
  0
LINE
  5
393
100
AcDbEntity
  8
RACCORDO
100
AcDbLine
 62
253
  6
CONTINUOUS
 10
-16.4912724559
 20
8.9911201511
 11
-16.5001523048
 21
9.0
  0
LINE
  5
394
100
AcDbEntity
  8
0
100
AcDbLine
 62
7
  6
CONTINUOUS
 10
-15.15
 20
9.1
 11
-15.1971252854
 21
9.1471252854
  0
LINE
  5
395
100
AcDbEntity
  8
0
100
AcDbLine
 62
7
  6
CONTINUOUS
 10
-22.3233204555
 20
22.1536938329
 11
-21.9071435302
 21
21.6331917705
  0
LINE
  5
396
100
AcDbEntity
  8
0
100
AcDbLine
 62
7
  6
CONTINUOUS
 10
-23.6766795445
 20
23.8463061671
 11
-24.0928564698
 21
24.3668082295
  0
LINE
  5
397
100
AcDbEntity
  8
0
100
AcDbLine
 62
7
  6
CONTINUOUS
 10
-21.8868576488
 20
22.9765403156
 11
-21.9245557012
 21
23.0327176049
  0
LINE
  5
398
100
AcDbEntity
  8
0
100
AcDbLine
 62
7
  6
CONTINUOUS
 10
-8.35
 20
11.9098050633
 11
-8.5197234842
 21
12.4802765158
  0
LINE
  5
399
100
AcDbEntity
  8
0
100
AcDbLine
 62
7
  6
CONTINUOUS
 10
-7.4802765158
 20
13.5197234842
 11
-7.65
 21
14.0901949367
  0
LINE
  5
39A
100
AcDbEntity
  8
0
100
AcDbLine
 62
7
  6
CONTINUOUS
 10
-1.9708971429
 20
3.9864102041
 11
-1.9708971429
 21
3.6618089796
  0
LINE
  5
39B
100
AcDbEntity
  8
0
100
AcDbLine
 62
7
  6
CONTINUOUS
 10
-1.9708971429
 20
-3.6618089796
 11
-1.9708971429
 21
-3.9864102041
  0
LINE
  5
39C
100
AcDbEntity
  8
0
100
AcDbLine
 62
7
  6
CONTINUOUS
 10
-1.6412765528
 20
10.65
 11
-1.6412765528
 21
11.35
  0
LINE
  5
39D
100
AcDbEntity
  8
0
100
AcDbLine
 62
7
  6
CONTINUOUS
 10
-1.32462
 20
4.813995102
 11
-1.32462
 21
4.489395102
  0
LINE
  5
39E
100
AcDbEntity
  8
0
100
AcDbLine
 62
7
  6
CONTINUOUS
 10
-1.32462
 20
-4.489395102
 11
-1.32462
 21
-4.813995102
  0
LINE
  5
39F
100
AcDbEntity
  8
0
100
AcDbLine
 62
7
  6
CONTINUOUS
 10
-1.2424112663
 20
11.35
 11
-1.2424112663
 21
10.65
  0
LINE
  5
3A0
100
AcDbEntity
  8
0
100
AcDbLine
 62
7
  6
CONTINUOUS
 10
-0.6780514286
 20
5.6369808163
 11
-0.6780514286
 21
5.31698
  0
LINE
  5
3A1
100
AcDbEntity
  8
0
100
AcDbLine
 62
7
  6
CONTINUOUS
 10
-0.6780514286
 20
-5.31698
 11
-0.6780514286
 21
-5.6369808163
  0
LINE
  5
3A2
100
AcDbEntity
  8
0
100
AcDbLine
 62
7
  6
CONTINUOUS
 10
-0.35
 20
12.9262640523
 11
-0.35
 21
12.0901949367
  0
LINE
  5
3A3
100
AcDbEntity
  8
0
100
AcDbLine
 62
7
  6
CONTINUOUS
 10
-0.35
 20
9.9098050633
 11
-0.35
 21
9.0737359477
  0
LINE
  5
3A4
100
AcDbEntity
  8
0
100
AcDbLine
 62
7
  6
CONTINUOUS
 10
-0.1639836735
 20
3.6618089796
 11
-0.1639836735
 21
2.0446546939
  0
LINE
  5
3A5
100
AcDbEntity
  8
0
100
AcDbLine
 62
7
  6
CONTINUOUS
 10
-0.1639836735
 20
-2.0446546939
 11
-0.1639836735
 21
-3.6618089796
  0
LINE
  5
3A6
100
AcDbEntity
  8
0
100
AcDbLine
 62
7
  6
CONTINUOUS
 10
0.1560159184
 20
-3.6618089796
 11
0.1560159184
 21
-2.0446546939
  0
LINE
  5
3A7
100
AcDbEntity
  8
0
100
AcDbLine
 62
7
  6
CONTINUOUS
 10
0.1560159184
 20
2.0446546939
 11
0.1560159184
 21
3.6618089796
  0
LINE
  5
3A8
100
AcDbEntity
  8
0
100
AcDbLine
 62
7
  6
CONTINUOUS
 10
0.35
 20
12.9262640523
 11
0.35
 21
12.0901949367
  0
LINE
  5
3A9
100
AcDbEntity
  8
0
100
AcDbLine
 62
7
  6
CONTINUOUS
 10
0.35
 20
9.9098050633
 11
0.35
 21
9.0737359477
  0
LWPOLYLINE
  5
3AA
100
AcDbEntity
  8
0
100
AcDbPolyline
 62
7
  6
CONTINUOUS
 90
46
 70
0
 10
-2.683982449
 20
-3.8045159184
 10
-2.6772155028
 20
-3.616227568
 10
-2.6577127935
 20
-3.4305933986
 10
-2.625474321
 20
-3.2476134103
 10
-2.5802215926
 20
-3.0664086528
 10
-2.5222331011
 20
-2.8878580763
 10
-2.4523443252
 20
-2.7145985313
 10
-2.3703841672
 20
-2.5467253044
 10
-2.2765237248
 20
-2.384143109
 10
-2.1721117695
 20
-2.229202936
 10
-2.056972044
 20
-2.0819981867
 10
-1.9312808055
 20
-1.9424354599
 10
-1.7969155979
 20
-1.8125855424
 10
-1.6537446261
 20
-1.6926086842
 10
-1.5018996851
 20
-1.5823446353
 10
-1.3436537034
 20
-1.4833834324
 10
-1.1789876536
 20
-1.395914712
 10
-1.0079205631
 20
-1.3197488376
 10
-0.8327824428
 20
-1.2559069364
 10
-0.6534839019
 20
-1.2045273731
 10
-0.4701143312
 20
-1.1654717831
 10
-0.2852719134
 20
-1.1393462001
 10
-0.0988438938
 20
-1.1263522401
 10
0.0890569728
 20
-1.1262882872
 10
0.2754942393
 20
-1.1391555272
 10
0.4603559505
 20
-1.1651560744
 10
0.6437540617
 20
-1.2040878145
 10
0.8230879917
 20
-1.2553455904
 10
0.9982655629
 20
-1.3190659247
 10
1.1693789529
 20
-1.3951122947
 10
1.334104114
 20
-1.4824699754
 10
1.4924316198
 20
-1.5813381332
 10
1.6443708967
 20
-1.6915176015
 10
1.7876261761
 20
-1.8113961555
 10
1.9220390894
 20
-1.9410935361
 10
2.0477680052
 20
-2.0804900023
 10
2.1629922614
 20
-2.2276141063
 10
2.2675844426
 20
-2.3826778225
 10
2.3616719643
 20
-2.5454691765
 10
2.4438164106
 20
-2.7133807968
 10
2.5137970413
 20
-2.8862341318
 10
2.5718345967
 20
-3.0642077331
 10
2.6171528816
 20
-3.2452298841
 10
2.6494931643
 20
-3.4286100125
 10
2.6691141766
 20
-3.6150386906
 10
2.6760159184
 20
-3.8045159184
  0
LINE
  5
3AB
100
AcDbEntity
  8
0
100
AcDbLine
 62
7
  6
CONTINUOUS
 10
0.5197234842
 20
10.4802765158
 11
0.35
 21
9.9098050633
  0
LINE
  5
3AC
100
AcDbEntity
  8
RACCORDO
100
AcDbLine
 62
253
  6
CONTINUOUS
 10
5.0700487402
 20
8.5
 11
5.000076164
 21
8.4300274238
  0
LINE
  5
3AD
100
AcDbEntity
  8
RACCORDO
100
AcDbLine
 62
7
  6
CONTINUOUS
 10
5.0
 20
8.2
 11
4.8915348911
 21
8.0915348911
  0
LINE
  5
3AE
100
AcDbEntity
  8
RACCORDO
100
AcDbLine
 62
253
  6
CONTINUOUS
 10
5.9614769947
 20
8.0653522937
 11
6.0086970599
 21
8.1125723589
  0
LINE
  5
3AF
100
AcDbEntity
  8
RACCORDO
100
AcDbLine
 62
7
  6
CONTINUOUS
 10
7.5
 20
9.0
 11
7.4911201511
 21
8.9911201511
  0
LINE
  5
3B0
100
AcDbEntity
  8
RACCORDO
100
AcDbLine
 62
253
  6
CONTINUOUS
 10
6.7613551508
 20
7.2654741376
 11
6.8
 21
7.3041189868
  0
LINE
  5
3B1
100
AcDbEntity
  8
RACCORDO
100
AcDbLine
 62
253
  6
CONTINUOUS
 10
-6.7613551508
 20
-7.2654741376
 11
-6.8
 21
-7.3041189868
  0
LWPOLYLINE
  5
3B2
100
AcDbEntity
  8
0
100
AcDbPolyline
 62
7
  6
CONTINUOUS
 90
34
 70
0
 10
24.092733434
 20
21.6333365122
 10
24.1773818516
 20
21.7052907784
 10
24.2613179009
 20
21.7869142049
 10
24.3396083355
 20
21.8739673625
 10
24.4119027302
 20
21.9660606043
 10
24.4778774974
 20
22.0627817243
 10
24.5372373361
 20
22.1636978023
 10
24.5897165537
 20
22.2683571414
 10
24.6350802546
 20
22.3762912902
 10
24.6731253923
 20
22.4870171392
 10
24.7036816777
 20
22.6000390834
 10
24.7266123418
 20
22.7148512404
 10
24.7418147474
 20
22.8309397151
 10
24.7492208487
 20
22.9477848992
 10
24.748797496
 20
23.0648637978
 10
24.740546584
 20
23.1816523697
 10
24.7245050431
 20
23.297627873
 10
24.7007446745
 20
23.4122712052
 10
24.6693718286
 20
23.5250692265
 10
24.6305269288
 20
23.6355170567
 10
24.5843838433
 20
23.7431203348
 10
24.5311491069
 20
23.8473974319
 10
24.4710609961
 20
23.9478816071
 10
24.4043884631
 20
24.0441230962
 10
24.3314299317
 20
24.1356911254
 10
24.2525119618
 20
24.2221758389
 10
24.1679877873
 20
24.3031901337
 10
24.0782357355
 20
24.3783713921
 10
23.9836575335
 20
24.4473831051
 10
23.8846765101
 20
24.5099163781
 10
23.781735701
 20
24.5656913138
 10
23.675295866
 20
24.6144582652
 10
23.5658334261
 20
24.6559989525
 10
23.4538383317
 20
24.6901274407
  0
LWPOLYLINE
  5
3B3
100
AcDbEntity
  8
0
100
AcDbPolyline
 62
7
  6
CONTINUOUS
 90
22
 70
0
 10
23.6766795445
 20
22.1536938329
 10
23.6194407739
 20
22.1070571323
 10
23.558829182
 20
22.0641976813
 10
23.4950870311
 20
22.0253693472
 10
23.4283412281
 20
21.9907468449
 10
23.3589984042
 20
21.9606354917
 10
23.2877890292
 20
21.9353769239
 10
23.2151441195
 20
21.9150889982
 10
23.1413309515
 20
21.8998117896
 10
23.0668893614
 20
21.8896120139
 10
22.9923736468
 20
21.8844808759
 10
22.9179309666
 20
21.8843442319
 10
22.8434857289
 20
21.8891789462
 10
22.7693116515
 20
21.8989911316
 10
22.6958001259
 20
21.9137530138
 10
22.6230547556
 20
21.9334860956
 10
22.5512362215
 20
21.9582344263
 10
22.4808740023
 20
21.9879056587
 10
22.4126097218
 20
22.0222641112
 10
22.3468473598
 20
22.0610913611
 10
22.2837785743
 20
22.1042583467
 10
22.2236842704
 20
22.1515697507
  0
LINE
  5
3B4
100
AcDbEntity
  8
0
100
AcDbLine
 62
253
  6
CONTINUOUS
 10
-22.7919167296
 20
-10.2385858653
 11
-22.6970489519
 21
-10.1925232515
  0
LINE
  5
3B5
100
AcDbEntity
  8
0
100
AcDbLine
 62
253
  6
CONTINUOUS
 10
22.2409611005
 20
11.3948986875
 11
22.1443749376
 21
11.3512998313
  0
LWPOLYLINE
  5
3B6
100
AcDbEntity
  8
RACCORDO
100
AcDbPolyline
 62
253
  6
CONTINUOUS
 90
16
 70
0
 10
18.3624617602
 20
7.5441127831
 10
18.4229537743
 20
7.5652241416
 10
18.4803539764
 20
7.5892432204
 10
18.5346623666
 20
7.6161700196
 10
18.5858936373
 20
7.6463047236
 10
18.6340330961
 20
7.6793471479
 10
18.6790366656
 20
7.7143967391
 10
18.7206751199
 20
7.7510663384
 10
18.7591776848
 20
7.7897431046
 10
18.7951879609
 20
7.8306879606
 10
18.8288559163
 20
7.8735148375
 10
18.8600315829
 20
7.9186098041
 10
18.888908656
 20
7.9673919902
 10
18.9155517008
 20
8.020334439
 10
18.9398961521
 20
8.0769641072
 10
18.96194201
 20
8.1372809948
  0
LINE
  5
3B7
100
AcDbEntity
  8
0
100
AcDbLine
 62
7
  6
CONTINUOUS
 10
0.1560159184
 20
-2.0446546939
 11
-0.1639836735
 21
-2.0446546939
  0
LINE
  5
3B8
100
AcDbEntity
  8
0
100
AcDbLine
 62
7
  6
CONTINUOUS
 10
-13.35
 20
-1.2424112663
 11
-12.65
 21
-1.2424112663
  0
LINE
  5
3B9
100
AcDbEntity
  8
0
100
AcDbLine
 62
7
  6
CONTINUOUS
 10
13.35
 20
-1.2424112663
 11
12.65
 21
-1.2424112663
  0
LINE
  5
3BA
100
AcDbEntity
  8
0
100
AcDbLine
 62
7
  6
CONTINUOUS
 10
15.1420216575
 20
-0.6
 11
13.495840063
 21
-0.6
  0
LINE
  5
3BB
100
AcDbEntity
  8
0
100
AcDbLine
 62
7
  6
CONTINUOUS
 10
12.504159937
 20
-0.6
 11
10.8579783425
 21
-0.6
  0
LINE
  5
3BC
100
AcDbEntity
  8
0
100
AcDbLine
 62
7
  6
CONTINUOUS
 10
-10.8579783425
 20
-0.6
 11
-12.504159937
 21
-0.6
  0
LINE
  5
3BD
100
AcDbEntity
  8
0
100
AcDbLine
 62
7
  6
CONTINUOUS
 10
-13.495840063
 20
-0.6
 11
-15.1420216575
 21
-0.6
  0
LINE
  5
3BE
100
AcDbEntity
  8
0
100
AcDbLine
 62
7
  6
CONTINUOUS
 10
-14.6412765528
 20
-0.35
 11
-14.0901949367
 21
-0.35
  0
LINE
  5
3BF
100
AcDbEntity
  8
0
100
AcDbLine
 62
7
  6
CONTINUOUS
 10
14.6412765528
 20
-0.35
 11
14.0901949367
 21
-0.35
  0
LINE
  5
3C0
100
AcDbEntity
  8
0
100
AcDbLine
 62
7
  6
CONTINUOUS
 10
-11.9098050633
 20
-0.35
 11
-11.3587234472
 21
-0.35
  0
LINE
  5
3C1
100
AcDbEntity
  8
0
100
AcDbLine
 62
7
  6
CONTINUOUS
 10
11.9098050633
 20
-0.35
 11
11.3587234472
 21
-0.35
  0
LINE
  5
3C2
100
AcDbEntity
  8
0
100
AcDbLine
 62
7
  6
CONTINUOUS
 10
-14.6412765528
 20
0.35
 11
-14.0901949367
 21
0.35
  0
LINE
  5
3C3
100
AcDbEntity
  8
0
100
AcDbLine
 62
7
  6
CONTINUOUS
 10
14.6412765528
 20
0.35
 11
14.0901949367
 21
0.35
  0
LINE
  5
3C4
100
AcDbEntity
  8
0
100
AcDbLine
 62
7
  6
CONTINUOUS
 10
-11.9098050633
 20
0.35
 11
-11.3587234472
 21
0.35
  0
LINE
  5
3C5
100
AcDbEntity
  8
0
100
AcDbLine
 62
7
  6
CONTINUOUS
 10
11.9098050633
 20
0.35
 11
11.3587234472
 21
0.35
  0
LWPOLYLINE
  5
3C6
100
AcDbEntity
  8
0
100
AcDbPolyline
 62
7
  6
CONTINUOUS
 90
10
 70
0
 10
-13.35
 20
-1.9262640523
 10
-13.2723581071
 20
-1.9280809817
 10
-13.1946482719
 20
-1.9294436788
 10
-13.1168704945
 20
-1.9303521435
 10
-13.0389794802
 20
-1.9308063759
 10
-12.9610205235
 20
-1.9308063759
 10
-12.8831295088
 20
-1.9303521435
 10
-12.8053517306
 20
-1.9294436788
 10
-12.7276418944
 20
-1.9280809818
 10
-12.65
 20
-1.9262640523
  0
LWPOLYLINE
  5
3C7
100
AcDbEntity
  8
0
100
AcDbPolyline
 62
7
  6
CONTINUOUS
 90
10
 70
0
 10
12.65
 20
-1.9262640523
 10
12.7276418929
 20
-1.9280809817
 10
12.8053517281
 20
-1.9294436788
 10
12.8831295055
 20
-1.9303521435
 10
12.9610205198
 20
-1.9308063759
 10
13.0389794765
 20
-1.9308063759
 10
13.1168704912
 20
-1.9303521435
 10
13.1946482694
 20
-1.9294436788
 10
13.2723581056
 20
-1.9280809818
 10
13.35
 20
-1.9262640523
  0
LINE
  5
3C8
100
AcDbEntity
  8
0
100
AcDbLine
 62
253
  6
CONTINUOUS
 10
22.2409611005
 20
-11.3948986875
 11
22.1443749376
 21
-11.3512998313
  0
LINE
  5
3C9
100
AcDbEntity
  8
0
100
AcDbLine
 62
253
  6
CONTINUOUS
 10
-22.7919167296
 20
10.2385858653
 11
-22.6970489519
 21
10.1925232515
  0
LINE
  5
3CA
100
AcDbEntity
  8
RACCORDO
100
AcDbLine
 62
7
  6
CONTINUOUS
 10
4.9039971429
 20
-8.1039971429
 11
4.8915348911
 21
-8.0915348911
  0
LINE
  5
3CB
100
AcDbEntity
  8
RACCORDO
100
AcDbLine
 62
253
  6
CONTINUOUS
 10
-10.4999238476
 20
8.2
 11
-10.4124962065
 21
8.1125723589
  0
LINE
  5
3CC
100
AcDbEntity
  8
RACCORDO
100
AcDbLine
 62
253
  6
CONTINUOUS
 10
5.9614769947
 20
-8.0653522937
 11
6.0001218439
 21
-8.1039971429
  0
LINE
  5
3CD
100
AcDbEntity
  8
RACCORDO
100
AcDbLine
 62
253
  6
CONTINUOUS
 10
-10.0
 20
8.6999238476
 11
-9.9125723589
 21
8.6124962065
  0
LINE
  5
3CE
100
AcDbEntity
  8
RACCORDO
100
AcDbLine
 62
253
  6
CONTINUOUS
 10
6.7613551508
 20
-7.2654741376
 11
6.8
 21
-7.3041189868
  0
LINE
  5
3CF
100
AcDbEntity
  8
RACCORDO
100
AcDbLine
 62
253
  6
CONTINUOUS
 10
-6.7613551508
 20
7.2654741376
 11
-6.8
 21
7.3041189868
  0
LINE
  5
3D0
100
AcDbEntity
  8
RACCORDO
100
AcDbLine
 62
253
  6
CONTINUOUS
 10
-6.3014466548
 20
9.2228015954
 11
-6.6294979096
 21
9.9523133765
  0
LWPOLYLINE
  5
3D1
100
AcDbEntity
  8
0
100
AcDbPolyline
 62
7
  6
CONTINUOUS
 90
5
 70
0
 10
-4.4042872815
 20
20.3848674893
 10
-4.4038307475
 20
20.3811090591
 10
-4.4033887645
 20
20.3722683671
 10
-4.4029613323
 20
20.3583454132
 10
-4.4025440617
 20
20.3390767483
  0
LWPOLYLINE
  5
3D2
100
AcDbEntity
  8
0
100
AcDbPolyline
 62
7
  6
CONTINUOUS
 90
49
 70
0
 10
2.9960167347
 20
-3.8045159184
 10
2.9893518033
 20
-3.6062085316
 10
2.9701049876
 20
-3.4106366039
 10
2.9382762875
 20
-3.2178001351
 10
2.893625247
 20
-3.0270210887
 10
2.8363923222
 20
-2.8389775012
 10
2.7672988811
 20
-2.6557034829
 10
2.6861520369
 20
-2.4770474631
 10
2.5931446764
 20
-2.3031610125
 10
2.4895768285
 20
-2.1365329534
 10
2.3753950622
 20
-1.9774161707
 10
2.2506528085
 20
-1.8255577795
 10
2.1168103901
 20
-1.6826879482
 10
1.9737166919
 20
-1.5488393109
 10
1.8215228289
 20
-1.4239792335
 10
1.6621424693
 20
-1.3097399815
 10
1.495395273
 20
-1.2062403127
 10
1.3214615799
 20
-1.1133614693
 10
1.1427960785
 20
-1.0323794438
 10
0.9595059676
 20
-0.9635105484
 10
0.7714840483
 20
-0.906538471
 10
0.5808634113
 20
-0.8620902675
 10
0.3874879803
 20
-0.8302780057
 10
0.1915138317
 20
-0.8109896179
 10
-0.0044577142
 20
-0.804515956
 10
-0.2004261589
 20
-0.8110512262
 10
-0.3963920009
 20
-0.8304012224
 10
-0.589755416
 20
-0.8622741786
 10
-0.7803607271
 20
-0.9067820504
 10
-0.9683636114
 20
-0.9638128821
 10
-1.1516312749
 20
-1.032739041
 10
-1.3302716721
 20
-1.1137776325
 10
-1.5041768486
 20
-1.2067115511
 10
-1.6708901478
 20
-1.3102618473
 10
-1.830225608
 20
-1.4245399423
 10
-1.982369191
 20
-1.5494344149
 10
-2.1254221253
 20
-1.6833320522
 10
-2.2592550388
 20
-1.8263060381
 10
-2.3839973036
 20
-1.9782831888
 10
-2.4981382643
 20
-2.1374307396
 10
-2.6015824559
 20
-2.3038819505
 10
-2.6944253433
 20
-2.4775035615
 10
-2.775442666
 20
-2.6560630271
 10
-2.8444773726
 20
-2.8396359341
 10
-2.9016865144
 20
-3.0281466958
 10
-2.9463169853
 20
-3.2191360056
 10
-2.9781177496
 20
-3.411784095
 10
-2.997339843
 20
-3.6069107326
 10
-3.0039832653
 20
-3.8045159184
  0
LWPOLYLINE
  5
3D3
100
AcDbEntity
  8
0
100
AcDbPolyline
 62
7
  6
CONTINUOUS
 90
49
 70
0
 10
2.9960167347
 20
3.8045159184
 10
2.9893518033
 20
4.0028233051
 10
2.9701049876
 20
4.1983952329
 10
2.9382762875
 20
4.3912317016
 10
2.893625247
 20
4.5820107481
 10
2.8363923222
 20
4.7700543355
 10
2.7672988811
 20
4.9533283538
 10
2.6861520369
 20
5.1319843736
 10
2.5931446764
 20
5.3058708243
 10
2.4895768285
 20
5.4724988833
 10
2.3753950622
 20
5.6316156661
 10
2.2506528085
 20
5.7834740572
 10
2.1168103901
 20
5.9263438886
 10
1.9737166919
 20
6.0601925258
 10
1.8215228289
 20
6.1850526032
 10
1.6621424693
 20
6.2992918552
 10
1.495395273
 20
6.4027915241
 10
1.3214615799
 20
6.4956703675
 10
1.1427960785
 20
6.576652393
 10
0.9595059676
 20
6.6455212883
 10
0.7714840483
 20
6.7024933657
 10
0.5808634113
 20
6.7469415693
 10
0.3874879803
 20
6.778753831
 10
0.1915138317
 20
6.7980422189
 10
-0.0044577142
 20
6.8045158807
 10
-0.2004261589
 20
6.7979806105
 10
-0.3963920009
 20
6.7786306143
 10
-0.589755416
 20
6.7467576582
 10
-0.7803607271
 20
6.7022497864
 10
-0.9683636114
 20
6.6452189546
 10
-1.1516312749
 20
6.5762927957
 10
-1.3302716721
 20
6.4952542042
 10
-1.5041768486
 20
6.4023202856
 10
-1.6708901478
 20
6.2987699894
 10
-1.830225608
 20
6.1844918944
 10
-1.982369191
 20
6.0595974219
 10
-2.1254221253
 20
5.9256997846
 10
-2.2592550388
 20
5.7827257986
 10
-2.3839973036
 20
5.6307486479
 10
-2.4981382643
 20
5.4716010972
 10
-2.6015824559
 20
5.3051498862
 10
-2.6944253433
 20
5.1315282752
 10
-2.775442666
 20
4.9529688097
 10
-2.8444773726
 20
4.7693959026
 10
-2.9016865144
 20
4.580885141
 10
-2.9463169853
 20
4.3898958311
 10
-2.9781177496
 20
4.1972477418
 10
-2.997339843
 20
4.0021211042
 10
-3.0039832653
 20
3.8045159184
  0
LINE
  5
3D4
100
AcDbEntity
  8
0
100
AcDbLine
 62
7
  6
CONTINUOUS
 10
0.648717551
 20
-5.6369808163
 11
0.648717551
 21
-5.31698
  0
LINE
  5
3D5
100
AcDbEntity
  8
0
100
AcDbLine
 62
7
  6
CONTINUOUS
 10
0.648717551
 20
5.31698
 11
0.648717551
 21
5.6369808163
  0
LINE
  5
3D6
100
AcDbEntity
  8
0
100
AcDbLine
 62
7
  6
CONTINUOUS
 10
1.2424112663
 20
11.35
 11
1.2424112663
 21
10.65
  0
LINE
  5
3D7
100
AcDbEntity
  8
0
100
AcDbLine
 62
7
  6
CONTINUOUS
 10
1.2949946939
 20
-4.813995102
 11
1.2949946939
 21
-4.489395102
  0
LINE
  5
3D8
100
AcDbEntity
  8
0
100
AcDbLine
 62
7
  6
CONTINUOUS
 10
1.2949946939
 20
4.489395102
 11
1.2949946939
 21
4.813995102
  0
LINE
  5
3D9
100
AcDbEntity
  8
0
100
AcDbLine
 62
7
  6
CONTINUOUS
 10
1.6412765528
 20
10.65
 11
1.6412765528
 21
11.35
  0
LINE
  5
3DA
100
AcDbEntity
  8
0
100
AcDbLine
 62
7
  6
CONTINUOUS
 10
1.9415632653
 20
-3.9864102041
 11
1.9415632653
 21
-3.6618089796
  0
LINE
  5
3DB
100
AcDbEntity
  8
0
100
AcDbLine
 62
7
  6
CONTINUOUS
 10
1.9415632653
 20
3.6618089796
 11
1.9415632653
 21
3.9864102041
  0
LINE
  5
3DC
100
AcDbEntity
  8
0
100
AcDbLine
 62
7
  6
CONTINUOUS
 10
3.0
 20
-19.2
 11
3.0
 21
-16.0
  0
LINE
  5
3DD
100
AcDbEntity
  8
0
100
AcDbLine
 62
7
  6
CONTINUOUS
 10
3.0
 20
16.0
 11
3.0
 21
19.2
  0
LINE
  5
3DE
100
AcDbEntity
  8
0
100
AcDbLine
 62
7
  6
CONTINUOUS
 10
3.2
 20
20.2543443947
 11
3.2
 21
19.3910491073
  0
LINE
  5
3DF
100
AcDbEntity
  8
0
100
AcDbLine
 62
7
  6
CONTINUOUS
 10
3.2
 20
-19.3910491073
 11
3.2
 21
-20.2543443947
  0
LINE
  5
3E0
100
AcDbEntity
  8
0
100
AcDbLine
 62
7
  6
CONTINUOUS
 10
3.3317757036
 20
19.1112481935
 11
3.3317757036
 21
16.0
  0
LINE
  5
3E1
100
AcDbEntity
  8
0
100
AcDbLine
 62
7
  6
CONTINUOUS
 10
3.3317757036
 20
-16.0
 11
3.3317757036
 21
-19.1112481935
  0
LWPOLYLINE
  5
3E2
100
AcDbEntity
  8
0
100
AcDbPolyline
 62
7
  6
CONTINUOUS
 90
46
 70
0
 10
2.6760159184
 20
3.8045159184
 10
2.6691141766
 20
3.6150386906
 10
2.6494931643
 20
3.4286100125
 10
2.6171528816
 20
3.2452298841
 10
2.5718345967
 20
3.0642077331
 10
2.5137970413
 20
2.8862341318
 10
2.4438164106
 20
2.7133807968
 10
2.3616719643
 20
2.5454691765
 10
2.2675844426
 20
2.3826778225
 10
2.1629922614
 20
2.2276141063
 10
2.0477680052
 20
2.0804900023
 10
1.9220390894
 20
1.9410935361
 10
1.7876261761
 20
1.8113961555
 10
1.6443708967
 20
1.6915176015
 10
1.4924316198
 20
1.5813381332
 10
1.334104114
 20
1.4824699754
 10
1.1693789529
 20
1.3951122947
 10
0.9982655629
 20
1.3190659247
 10
0.8230879917
 20
1.2553455904
 10
0.6437540617
 20
1.2040878145
 10
0.4603559505
 20
1.1651560744
 10
0.2754942393
 20
1.1391555272
 10
0.0890569728
 20
1.1262882872
 10
-0.0988438938
 20
1.1263522401
 10
-0.2852719134
 20
1.1393462001
 10
-0.4701143312
 20
1.1654717831
 10
-0.6534839019
 20
1.2045273731
 10
-0.8327824428
 20
1.2559069364
 10
-1.0079205631
 20
1.3197488376
 10
-1.1789876536
 20
1.395914712
 10
-1.3436537034
 20
1.4833834324
 10
-1.5018996851
 20
1.5823446353
 10
-1.6537446261
 20
1.6926086842
 10
-1.7969155979
 20
1.8125855424
 10
-1.9312808055
 20
1.9424354599
 10
-2.056972044
 20
2.0819981867
 10
-2.1721117695
 20
2.229202936
 10
-2.2765237248
 20
2.384143109
 10
-2.3703841672
 20
2.5467253044
 10
-2.4523443252
 20
2.7145985313
 10
-2.5222331011
 20
2.8878580763
 10
-2.5802215926
 20
3.0664086528
 10
-2.625474321
 20
3.2476134103
 10
-2.6577127935
 20
3.4305933986
 10
-2.6772155028
 20
3.616227568
 10
-2.683982449
 20
3.8045159184
  0
LWPOLYLINE
  5
3E3
100
AcDbEntity
  8
0
100
AcDbPolyline
 62
7
  6
CONTINUOUS
 90
46
 70
0
 10
2.6760159184
 20
-3.8045159184
 10
2.6691141766
 20
-3.9939931461
 10
2.6494931643
 20
-4.1804218242
 10
2.6171528816
 20
-4.3638019527
 10
2.5718345967
 20
-4.5448241036
 10
2.5137970413
 20
-4.7227977049
 10
2.4438164106
 20
-4.8956510399
 10
2.3616719643
 20
-5.0635626602
 10
2.2675844426
 20
-5.2263540142
 10
2.1629922614
 20
-5.3814177304
 10
2.0477680052
 20
-5.5285418344
 10
1.9220390894
 20
-5.6679383006
 10
1.7876261761
 20
-5.7976356812
 10
1.6443708967
 20
-5.9175142352
 10
1.4924316198
 20
-6.0276937036
 10
1.334104114
 20
-6.1265618614
 10
1.1693789529
 20
-6.213919542
 10
0.9982655629
 20
-6.2899659121
 10
0.8230879917
 20
-6.3536862464
 10
0.6437540617
 20
-6.4049440222
 10
0.4603559505
 20
-6.4438757623
 10
0.2754942393
 20
-6.4698763095
 10
0.0890569728
 20
-6.4827435495
 10
-0.0988438938
 20
-6.4826795966
 10
-0.2852719134
 20
-6.4696856366
 10
-0.4701143312
 20
-6.4435600537
 10
-0.6534839019
 20
-6.4045044636
 10
-0.8327824428
 20
-6.3531249003
 10
-1.0079205631
 20
-6.2892829992
 10
-1.1789876536
 20
-6.2131171247
 10
-1.3436537034
 20
-6.1256484043
 10
-1.5018996851
 20
-6.0266872014
 10
-1.6537446261
 20
-5.9164231525
 10
-1.7969155979
 20
-5.7964462944
 10
-1.9312808055
 20
-5.6665963768
 10
-2.056972044
 20
-5.52703365
 10
-2.1721117695
 20
-5.3798289007
 10
-2.2765237248
 20
-5.2248887277
 10
-2.3703841672
 20
-5.0623065323
 10
-2.4523443252
 20
-4.8944333054
 10
-2.5222331011
 20
-4.7211737604
 10
-2.5802215926
 20
-4.5426231839
 10
-2.625474321
 20
-4.3614184264
 10
-2.6577127935
 20
-4.1784384381
 10
-2.6772155028
 20
-3.9928042687
 10
-2.683982449
 20
-3.8045159184
  0
LINE
  5
3E4
100
AcDbEntity
  8
RACCORDO
100
AcDbLine
 62
7
  6
CONTINUOUS
 10
-7.5
 20
-9.0
 11
-7.4911201511
 21
-8.9911201511
  0
LINE
  5
3E5
100
AcDbEntity
  8
RACCORDO
100
AcDbLine
 62
253
  6
CONTINUOUS
 10
-5.9614769947
 20
-8.0653522937
 11
-6.0086970599
 21
-8.1125723589
  0
LINE
  5
3E6
100
AcDbEntity
  8
RACCORDO
100
AcDbLine
 62
7
  6
CONTINUOUS
 10
-5.0
 20
-8.2
 11
-4.8915348911
 21
-8.0915348911
  0
LINE
  5
3E7
100
AcDbEntity
  8
RACCORDO
100
AcDbLine
 62
253
  6
CONTINUOUS
 10
-5.0700487402
 20
-8.5
 11
-5.000076164
 21
-8.4300274238
  0
LWPOLYLINE
  5
3E8
100
AcDbEntity
  8
0
100
AcDbPolyline
 62
7
  6
CONTINUOUS
 90
34
 70
0
 10
-24.092733434
 20
-21.6333365122
 10
-24.1773818516
 20
-21.7052907784
 10
-24.2613179009
 20
-21.7869142049
 10
-24.3396083355
 20
-21.8739673625
 10
-24.4119027302
 20
-21.9660606043
 10
-24.4778774974
 20
-22.0627817243
 10
-24.5372373361
 20
-22.1636978023
 10
-24.5897165537
 20
-22.2683571414
 10
-24.6350802546
 20
-22.3762912902
 10
-24.6731253923
 20
-22.4870171392
 10
-24.7036816777
 20
-22.6000390834
 10
-24.7266123418
 20
-22.7148512404
 10
-24.7418147474
 20
-22.8309397151
 10
-24.7492208487
 20
-22.9477848992
 10
-24.748797496
 20
-23.0648637978
 10
-24.740546584
 20
-23.1816523697
 10
-24.7245050431
 20
-23.297627873
 10
-24.7007446745
 20
-23.4122712052
 10
-24.6693718286
 20
-23.5250692265
 10
-24.6305269288
 20
-23.6355170567
 10
-24.5843838433
 20
-23.7431203348
 10
-24.5311491069
 20
-23.8473974319
 10
-24.4710609961
 20
-23.9478816071
 10
-24.4043884631
 20
-24.0441230962
 10
-24.3314299317
 20
-24.1356911254
 10
-24.2525119618
 20
-24.2221758389
 10
-24.1679877873
 20
-24.3031901337
 10
-24.0782357355
 20
-24.3783713921
 10
-23.9836575335
 20
-24.4473831051
 10
-23.8846765101
 20
-24.5099163781
 10
-23.781735701
 20
-24.5656913138
 10
-23.675295866
 20
-24.6144582652
 10
-23.5658334261
 20
-24.6559989525
 10
-23.4538383317
 20
-24.6901274407
  0
LWPOLYLINE
  5
3E9
100
AcDbEntity
  8
0
100
AcDbPolyline
 62
7
  6
CONTINUOUS
 90
22
 70
0
 10
-23.6766795445
 20
-22.1536938329
 10
-23.6194507774
 20
-22.1070647315
 10
-23.5588447771
 20
-22.0642079293
 10
-23.4951029223
 20
-22.025378297
 10
-23.4283515446
 20
-21.9907517541
 10
-23.3589965211
 20
-21.96063475
 10
-23.2877673534
 20
-21.9353700635
 10
-23.2150868856
 20
-21.9150751048
 10
-23.1412299391
 20
-21.8997944505
 10
-23.0667604019
 20
-21.8895987791
 10
-22.9922462709
 20
-21.884476397
 10
-22.917822552
 20
-21.8843476538
 10
-22.8433993213
 20
-21.8891874595
 10
-22.7692476296
 20
-21.8990017838
 10
-22.6957609082
 20
-21.9137622581
 10
-22.6230354929
 20
-21.933492018
 10
-22.5512294219
 20
-21.9582370278
 10
-22.4808749388
 20
-21.9879052262
 10
-22.4126148429
 20
-22.0222613145
 10
-22.3468536574
 20
-22.061087353
 10
-22.2837830307
 20
-22.1042550729
 10
-22.2236842704
 20
-22.1515697507
  0
LINE
  5
3EA
100
AcDbEntity
  8
0
100
AcDbLine
 62
253
  6
CONTINUOUS
 10
22.7919167296
 20
10.2385858653
 11
22.6970489519
 21
10.1925232515
  0
LINE
  5
3EB
100
AcDbEntity
  8
0
100
AcDbLine
 62
253
  6
CONTINUOUS
 10
-22.2409611005
 20
-11.3948986875
 11
-22.1443749376
 21
-11.3512998313
  0
LWPOLYLINE
  5
3EC
100
AcDbEntity
  8
RACCORDO
100
AcDbPolyline
 62
253
  6
CONTINUOUS
 90
16
 70
0
 10
-18.3624617602
 20
-7.5441127831
 10
-18.4229537743
 20
-7.5652241416
 10
-18.4803539764
 20
-7.5892432204
 10
-18.5346623666
 20
-7.6161700196
 10
-18.5858936373
 20
-7.6463047236
 10
-18.6340330961
 20
-7.6793471479
 10
-18.6790366656
 20
-7.7143967391
 10
-18.7206751199
 20
-7.7510663384
 10
-18.7591776848
 20
-7.7897431046
 10
-18.7951879609
 20
-7.8306879606
 10
-18.8288559163
 20
-7.8735148375
 10
-18.8600315829
 20
-7.9186098041
 10
-18.888908656
 20
-7.9673919902
 10
-18.9155517008
 20
-8.020334439
 10
-18.9398961521
 20
-8.0769641072
 10
-18.96194201
 20
-8.1372809948
  0
LINE
  5
3ED
100
AcDbEntity
  8
0
100
AcDbLine
 62
7
  6
CONTINUOUS
 10
12.4802765158
 20
0.5197234842
 11
11.9098050633
 21
0.35
  0
LINE
  5
3EE
100
AcDbEntity
  8
0
100
AcDbLine
 62
7
  6
CONTINUOUS
 10
-15.1420216575
 20
0.6
 11
-13.495840063
 21
0.6
  0
LINE
  5
3EF
100
AcDbEntity
  8
0
100
AcDbLine
 62
7
  6
CONTINUOUS
 10
-12.504159937
 20
0.6
 11
-10.8579783425
 21
0.6
  0
LINE
  5
3F0
100
AcDbEntity
  8
0
100
AcDbLine
 62
7
  6
CONTINUOUS
 10
10.8579783425
 20
0.6
 11
12.504159937
 21
0.6
  0
LINE
  5
3F1
100
AcDbEntity
  8
0
100
AcDbLine
 62
7
  6
CONTINUOUS
 10
13.495840063
 20
0.6
 11
15.1420216575
 21
0.6
  0
LINE
  5
3F2
100
AcDbEntity
  8
0
100
AcDbLine
 62
7
  6
CONTINUOUS
 10
-13.35
 20
1.2424112663
 11
-12.65
 21
1.2424112663
  0
LINE
  5
3F3
100
AcDbEntity
  8
0
100
AcDbLine
 62
7
  6
CONTINUOUS
 10
13.35
 20
1.2424112663
 11
12.65
 21
1.2424112663
  0
LINE
  5
3F4
100
AcDbEntity
  8
0
100
AcDbLine
 62
7
  6
CONTINUOUS
 10
-0.1639836735
 20
2.0446546939
 11
0.1560159184
 21
2.0446546939
  0
LWPOLYLINE
  5
3F5
100
AcDbEntity
  8
0
100
AcDbPolyline
 62
7
  6
CONTINUOUS
 90
10
 70
0
 10
-12.65
 20
1.9262640523
 10
-12.7276418929
 20
1.9280809817
 10
-12.8053517281
 20
1.9294436788
 10
-12.8831295055
 20
1.9303521435
 10
-12.9610205198
 20
1.9308063759
 10
-13.0389794765
 20
1.9308063759
 10
-13.1168704912
 20
1.9303521435
 10
-13.1946482694
 20
1.9294436788
 10
-13.2723581056
 20
1.9280809818
 10
-13.35
 20
1.9262640523
  0
LWPOLYLINE
  5
3F6
100
AcDbEntity
  8
0
100
AcDbPolyline
 62
7
  6
CONTINUOUS
 90
10
 70
0
 10
13.35
 20
1.9262640523
 10
13.2723581071
 20
1.9280809817
 10
13.1946482719
 20
1.9294436788
 10
13.1168704945
 20
1.9303521435
 10
13.0389794802
 20
1.9308063759
 10
12.9610205235
 20
1.9308063759
 10
12.8831295088
 20
1.9303521435
 10
12.8053517306
 20
1.9294436788
 10
12.7276418944
 20
1.9280809818
 10
12.65
 20
1.9262640523
  0
LINE
  5
3F7
100
AcDbEntity
  8
0
100
AcDbLine
 62
7
  6
CONTINUOUS
 10
11.9098050633
 20
-0.35
 11
12.4802765158
 21
-0.5197234842
  0
LINE
  5
3F8
100
AcDbEntity
  8
0
100
AcDbLine
 62
253
  6
CONTINUOUS
 10
-22.2409611005
 20
11.3948986875
 11
-22.1443749376
 21
11.3512998313
  0
LINE
  5
3F9
100
AcDbEntity
  8
0
100
AcDbLine
 62
253
  6
CONTINUOUS
 10
22.7919167296
 20
-10.2385858653
 11
22.6970489519
 21
-10.1925232515
  0
LINE
  5
3FA
100
AcDbEntity
  8
RACCORDO
100
AcDbLine
 62
253
  6
CONTINUOUS
 10
10.0
 20
-8.6999238476
 11
9.9125723589
 21
-8.6124962065
  0
LINE
  5
3FB
100
AcDbEntity
  8
RACCORDO
100
AcDbLine
 62
253
  6
CONTINUOUS
 10
-5.9614769947
 20
8.0653522937
 11
-6.0001218439
 21
8.1039971429
  0
LINE
  5
3FC
100
AcDbEntity
  8
RACCORDO
100
AcDbLine
 62
253
  6
CONTINUOUS
 10
10.4999238476
 20
-8.2
 11
10.4124962065
 21
-8.1125723589
  0
LINE
  5
3FD
100
AcDbEntity
  8
RACCORDO
100
AcDbLine
 62
7
  6
CONTINUOUS
 10
-4.9039971429
 20
8.1039971429
 11
-4.8915348911
 21
8.0915348911
  0
LINE
  5
3FE
100
AcDbEntity
  8
RACCORDO
100
AcDbLine
 62
253
  6
CONTINUOUS
 10
6.6294979096
 20
-9.9523133765
 11
6.3014466543
 21
-9.2228015956
  0
LINE
  5
3FF
100
AcDbEntity
  8
0
100
AcDbLine
 62
7
  6
CONTINUOUS
 10
-0.35
 20
9.9098050633
 11
-0.5197234842
 21
10.4802765158
  0
LINE
  5
400
100
AcDbEntity
  8
0
100
AcDbLine
 62
7
  6
CONTINUOUS
 10
7.65
 20
-14.0901949367
 11
7.4802765158
 21
-13.5197234842
  0
LWPOLYLINE
  5
401
100
AcDbEntity
  8
0
100
AcDbPolyline
 62
7
  6
CONTINUOUS
 90
5
 70
0
 10
4.4042872815
 20
-20.3848674893
 10
4.4038307475
 20
-20.3811090591
 10
4.4033887645
 20
-20.3722683671
 10
4.4029613323
 20
-20.3583454132
 10
4.4025440617
 20
-20.3390767483
  0
LWPOLYLINE
  5
402
100
AcDbEntity
  8
RACCORDO
100
AcDbPolyline
 62
253
  6
CONTINUOUS
 90
19
 70
0
 10
4.8915348911
 20
15.091656735
 10
4.888471063
 20
15.1613572294
 10
4.8793453467
 20
15.2305274666
 10
4.8642271677
 20
15.2986412232
 10
4.8432315397
 20
15.3651803133
 10
4.8165181902
 20
15.4296385305
 10
4.7842903453
 20
15.491525499
 10
4.7467931832
 20
15.5503704042
 10
4.7043119693
 20
15.6057255742
 10
4.6571698861
 20
15.6571698861
 10
4.6057255742
 20
15.7043119693
 10
4.5503704042
 20
15.7467931832
 10
4.491525499
 20
15.7842903453
 10
4.4296385305
 20
15.8165181902
 10
4.3651803133
 20
15.8432315397
 10
4.2986412232
 20
15.8642271677
 10
4.2305274666
 20
15.8793453467
 10
4.1613572294
 20
15.888471063
 10
4.091656735
 20
15.8915348911
  0
LWPOLYLINE
  5
403
100
AcDbEntity
  8
RACCORDO
100
AcDbPolyline
 62
7
  6
CONTINUOUS
 90
19
 70
0
 10
5.0
 20
15.2001218439
 10
4.9969898025
 20
15.2694633819
 10
4.9879583269
 20
15.3384110927
 10
4.9729398875
 20
15.4064398522
 10
4.951998232
 20
15.4730727973
 10
4.9252685744
 20
15.5377433867
 10
4.8929968863
 20
15.5998158839
 10
4.8554645583
 20
15.6587730654
 10
4.812938645
 20
15.7142163378
 10
4.7657358889
 20
15.7657358889
 10
4.7142163378
 20
15.812938645
 10
4.6587730654
 20
15.8554645583
 10
4.5998158839
 20
15.8929968863
 10
4.5377433867
 20
15.9252685744
 10
4.4730727973
 20
15.951998232
 10
4.4064398522
 20
15.9729398875
 10
4.3384110927
 20
15.9879583269
 10
4.2694633819
 20
15.9969898025
 10
4.2001218439
 20
16.0
  0
LWPOLYLINE
  5
404
100
AcDbEntity
  8
RACCORDO
100
AcDbPolyline
 62
7
  6
CONTINUOUS
 90
25
 70
0
 10
4.9039971429
 20
-8.2916828748
 10
4.9073495531
 20
-8.3741986958
 10
4.9173988129
 20
-8.455448485
 10
4.9341449223
 20
-8.5354322425
 10
4.9578690324
 20
-8.6149043677
 10
4.9882899921
 20
-8.6931104612
 10
5.0245643485
 20
-8.7677873244
 10
5.0665760512
 20
-8.8384417268
 10
5.1144411506
 20
-8.905566899
 10
5.1676643443
 20
-8.9683793336
 10
5.2265993743
 20
-9.0271309428
 10
5.2908924987
 20
-9.0815698144
 10
5.3589871888
 20
-9.130156704
 10
5.4310448259
 20
-9.1726437916
 10
5.5069040288
 20
-9.2092788973
 10
5.5845241245
 20
-9.2392662375
 10
5.6635098546
 20
-9.2623880614
 10
5.7442564774
 20
-9.2788621199
 10
5.8259090949
 20
-9.2885458817
 10
5.9090213048
 20
-9.2913425446
 10
5.9930395093
 20
-9.2873489109
 10
6.0754480172
 20
-9.2767128559
 10
6.1554082648
 20
-9.2594836713
 10
6.2337588158
 20
-9.2356120655
 10
6.3104996701
 20
-9.2050980383
  0
LINE
  5
405
100
AcDbEntity
  8
0
100
AcDbLine
 62
7
  6
CONTINUOUS
 10
4.4025440617
 20
-20.3390767483
 11
4.4017663413
 21
-20.2860829803
  0
LINE
  5
406
100
AcDbEntity
  8
0
100
AcDbLine
 62
7
  6
CONTINUOUS
 10
4.4017663413
 20
-20.2860829803
 11
4.4008208213
 21
-20.1751933173
  0
LINE
  5
407
100
AcDbEntity
  8
0
100
AcDbLine
 62
7
  6
CONTINUOUS
 10
4.4008208213
 20
-20.1751933173
 11
4.4000958367
 21
-19.9853335123
  0
LINE
  5
408
100
AcDbEntity
  8
0
100
AcDbLine
 62
7
  6
CONTINUOUS
 10
3.4207897551
 20
20.9707897551
 11
3.4207897551
 21
16.0
  0
LINE
  5
409
100
AcDbEntity
  8
0
100
AcDbLine
 62
7
  6
CONTINUOUS
 10
3.4207897551
 20
-16.0
 11
3.4207897551
 21
-20.9707897551
  0
LINE
  5
40A
100
AcDbEntity
  8
RACCORDO
100
AcDbLine
 62
253
  6
CONTINUOUS
 10
4.091656735
 20
-8.3109118689
 11
4.091656735
 21
-8.0778145455
  0
LINE
  5
40B
100
AcDbEntity
  8
RACCORDO
100
AcDbLine
 62
253
  6
CONTINUOUS
 10
4.091656735
 20
8.0778145455
 11
4.091656735
 21
15.8915348911
  0
LINE
  5
40C
100
AcDbEntity
  8
0
100
AcDbLine
 62
7
  6
CONTINUOUS
 10
4.324948937
 20
-21.1749870139
 11
4.324948937
 21
-16.0
  0
LINE
  5
40D
100
AcDbEntity
  8
0
100
AcDbLine
 62
7
  6
CONTINUOUS
 10
4.324948937
 20
15.9897217376
 11
4.324948937
 21
21.1749870139
  0
LINE
  5
40E
100
AcDbEntity
  8
0
100
AcDbLine
 62
7
  6
CONTINUOUS
 10
4.4000958367
 20
-19.9853335123
 11
4.4
 21
-16.0
  0
LINE
  5
40F
100
AcDbEntity
  8
0
100
AcDbLine
 62
7
  6
CONTINUOUS
 10
4.4541065803
 20
-21.3041446572
 11
4.4541065803
 21
-20.4783463468
  0
LINE
  5
410
100
AcDbEntity
  8
0
100
AcDbLine
 62
7
  6
CONTINUOUS
 10
4.4541065803
 20
20.4783463468
 11
4.4541065803
 21
21.3041446572
  0
LINE
  5
411
100
AcDbEntity
  8
RACCORDO
100
AcDbLine
 62
253
  6
CONTINUOUS
 10
4.8915348911
 20
-8.3109118689
 11
4.8915348911
 21
-8.0915348911
  0
LINE
  5
412
100
AcDbEntity
  8
RACCORDO
100
AcDbLine
 62
253
  6
CONTINUOUS
 10
4.8915348911
 20
8.0915348911
 11
4.8915348911
 21
15.091656735
  0
LINE
  5
413
100
AcDbEntity
  8
RACCORDO
100
AcDbLine
 62
7
  6
CONTINUOUS
 10
4.9039971429
 20
-8.1039971429
 11
4.9039971429
 21
-8.2916828748
  0
LINE
  5
414
100
AcDbEntity
  8
RACCORDO
100
AcDbLine
 62
7
  6
CONTINUOUS
 10
5.0
 20
15.2001218439
 11
5.0
 21
10.2709628074
  0
LINE
  5
415
100
AcDbEntity
  8
DRAFT
100
AcDbLine
 62
7
  6
CONTINUOUS
 10
5.0
 20
8.2
 11
5.0
 21
10.2709628074
  0
LINE
  5
416
100
AcDbEntity
  8
RACCORDO
100
AcDbLine
 62
253
  6
CONTINUOUS
 10
5.0960790211
 20
8.2
 11
5.0960790211
 21
8.3340245667
  0
LINE
  5
417
100
AcDbEntity
  8
RACCORDO
100
AcDbLine
 62
253
  6
CONTINUOUS
 10
5.4297449062
 20
8.5
 11
5.4297449062
 21
8.9911201511
  0
LINE
  5
418
100
AcDbEntity
  8
RACCORDO
100
AcDbLine
 62
253
  6
CONTINUOUS
 10
5.9614769947
 20
-8.0653522937
 11
5.9614769947
 21
8.0653522937
  0
LINE
  5
419
100
AcDbEntity
  8
0
100
AcDbLine
 62
7
  6
CONTINUOUS
 10
4.4
 20
15.9743615881
 11
4.400210419
 21
20.0353173265
  0
LINE
  5
41A
100
AcDbEntity
  8
0
100
AcDbLine
 62
7
  6
CONTINUOUS
 10
4.400210419
 20
20.0353173265
 11
4.4011019314
 21
20.2157343119
  0
LINE
  5
41B
100
AcDbEntity
  8
0
100
AcDbLine
 62
7
  6
CONTINUOUS
 10
4.4011019314
 20
20.2157343119
 11
4.4017663413
 21
20.2860829803
  0
LWPOLYLINE
  5
41C
100
AcDbEntity
  8
0
100
AcDbPolyline
 62
7
  6
CONTINUOUS
 90
6
 70
0
 10
4.4017663413
 20
20.2860829803
 10
4.4025440617
 20
20.3390767483
 10
4.4029613323
 20
20.3583454132
 10
4.4033887645
 20
20.3722683671
 10
4.4038307475
 20
20.3811090591
 10
4.4042872815
 20
20.3848674893
  0
LINE
  5
41D
100
AcDbEntity
  8
0
100
AcDbLine
 62
7
  6
CONTINUOUS
 10
-4.4042872815
 20
-20.3848674893
 11
-4.4541065803
 21
-20.4783463468
  0
LINE
  5
41E
100
AcDbEntity
  8
0
100
AcDbLine
 62
7
  6
CONTINUOUS
 10
15.15
 20
9.1
 11
15.1971252854
 21
9.1471252854
  0
LINE
  5
41F
100
AcDbEntity
  8
RACCORDO
100
AcDbLine
 62
253
  6
CONTINUOUS
 10
16.4912724559
 20
8.9911201511
 11
16.5001523048
 21
9.0
  0
LINE
  5
420
100
AcDbEntity
  8
0
100
AcDbLine
 62
253
  6
CONTINUOUS
 10
18.5476502163
 20
10.1476387933
 11
18.6000114231
 21
10.2
  0
LINE
  5
421
100
AcDbEntity
  8
0
100
AcDbLine
 62
7
  6
CONTINUOUS
 10
17.7
 20
9.1
 11
18.3523612067
 21
9.7523612067
  0
LWPOLYLINE
  5
422
100
AcDbEntity
  8
0
100
AcDbPolyline
 62
7
  6
CONTINUOUS
 90
34
 70
0
 10
-21.907266566
 20
-24.3666634878
 10
-21.8226181484
 20
-24.2947092216
 10
-21.7386820991
 20
-24.2130857951
 10
-21.6603916645
 20
-24.1260326375
 10
-21.5880972698
 20
-24.0339393957
 10
-21.5221225026
 20
-23.9372182757
 10
-21.4627626639
 20
-23.8363021977
 10
-21.4102834463
 20
-23.7316428586
 10
-21.3649197454
 20
-23.6237087098
 10
-21.3268746077
 20
-23.5129828608
 10
-21.2963183223
 20
-23.3999609166
 10
-21.2733876582
 20
-23.2851487596
 10
-21.2581852526
 20
-23.1690602849
 10
-21.2507791513
 20
-23.0522151008
 10
-21.251202504
 20
-22.9351362022
 10
-21.259453416
 20
-22.8183476303
 10
-21.2754949569
 20
-22.702372127
 10
-21.2992553255
 20
-22.5877287948
 10
-21.3306281714
 20
-22.4749307735
 10
-21.3694730712
 20
-22.3644829433
 10
-21.4156161567
 20
-22.2568796652
 10
-21.4688508931
 20
-22.1526025681
 10
-21.5289390039
 20
-22.0521183929
 10
-21.5956115369
 20
-21.9558769038
 10
-21.6685700683
 20
-21.8643088746
 10
-21.7474880382
 20
-21.7778241611
 10
-21.8320122127
 20
-21.6968098663
 10
-21.9217642645
 20
-21.6216286079
 10
-22.0163424665
 20
-21.5526168949
 10
-22.1153234899
 20
-21.4900836219
 10
-22.218264299
 20
-21.4343086862
 10
-22.324704134
 20
-21.3855417348
 10
-22.4341665739
 20
-21.3440010475
 10
-22.5461616683
 20
-21.3098725593
  0
LWPOLYLINE
  5
423
100
AcDbEntity
  8
0
100
AcDbPolyline
 62
7
  6
CONTINUOUS
 90
22
 70
0
 10
-22.3233204555
 20
-23.8463061671
 10
-22.3805592261
 20
-23.8929428677
 10
-22.441170818
 20
-23.9358023187
 10
-22.5049129689
 20
-23.9746306528
 10
-22.5716587719
 20
-24.0092531551
 10
-22.6410015958
 20
-24.0393645083
 10
-22.7122109708
 20
-24.0646230761
 10
-22.7848558805
 20
-24.0849110018
 10
-22.8586690485
 20
-24.1001882104
 10
-22.9331106386
 20
-24.1103879861
 10
-23.0076263532
 20
-24.1155191241
 10
-23.0820690334
 20
-24.1156557681
 10
-23.1565142711
 20
-24.1108210538
 10
-23.2306883485
 20
-24.1010088684
 10
-23.3041998741
 20
-24.0862469862
 10
-23.3769452444
 20
-24.0665139044
 10
-23.4487637785
 20
-24.0417655737
 10
-23.5191259977
 20
-24.0120943413
 10
-23.5873902782
 20
-23.9777358888
 10
-23.6531526402
 20
-23.9389086389
 10
-23.7162214257
 20
-23.8957416533
 10
-23.7763157296
 20
-23.8484302493
  0
LINE
  5
424
100
AcDbEntity
  8
RACCORDO
100
AcDbLine
 62
7
  6
CONTINUOUS
 10
-5.028007679
 20
-8.9165422164
 11
-5.0480496197
 21
-8.9285846293
  0
LINE
  5
425
100
AcDbEntity
  8
RACCORDO
100
AcDbLine
 62
253
  6
CONTINUOUS
 10
21.4075559685
 20
5.6456750709
 11
21.3201283274
 21
5.5962108915
  0
LINE
  5
426
100
AcDbEntity
  8
RACCORDO
100
AcDbLine
 62
253
  6
CONTINUOUS
 10
21.5877357088
 20
5.6061726685
 11
21.5110440036
 21
5.5627825894
  0
LINE
  5
427
100
AcDbEntity
  8
RACCORDO
100
AcDbLine
 62
253
  6
CONTINUOUS
 10
21.65
 20
5.2171566959
 11
21.5625723589
 21
5.1676925165
  0
LINE
  5
428
100
AcDbEntity
  8
RACCORDO
100
AcDbLine
 62
253
  6
CONTINUOUS
 10
21.8605528652
 20
5.1948385808
 11
21.7340245667
 21
5.1232523139
  0
LINE
  5
429
100
AcDbEntity
  8
0
100
AcDbLine
 62
7
  6
CONTINUOUS
 10
13.5197234842
 20
-0.5197234842
 11
14.0901949367
 21
-0.35
  0
LWPOLYLINE
  5
42A
100
AcDbEntity
  8
RACCORDO
100
AcDbPolyline
 62
253
  6
CONTINUOUS
 90
16
 70
0
 10
9.0752465016
 20
4.424677346
 10
9.0228366482
 20
4.4219065817
 10
8.9710045736
 20
4.4136567893
 10
8.9203215003
 20
4.4000189439
 10
8.8713402208
 20
4.3811408254
 10
8.8246068172
 20
4.3572319024
 10
8.7806517004
 20
4.3285669311
 10
8.7399647238
 20
4.2954747751
 10
8.7029793152
 20
4.2583181116
 10
8.670087734
 20
4.2174956618
 10
8.6416133341
 20
4.173390684
 10
8.6179202401
 20
4.126546279
 10
8.5993335486
 20
4.0776795566
 10
8.5860088976
 20
4.0274171402
 10
8.5779982696
 20
3.9762554271
 10
8.575322654
 20
3.9247534984
  0
LWPOLYLINE
  5
42B
100
AcDbEntity
  8
RACCORDO
100
AcDbPolyline
 62
253
  6
CONTINUOUS
 90
16
 70
0
 10
-16.9247534984
 20
4.424677346
 10
-16.9771633518
 20
4.4219065817
 10
-17.0289954264
 20
4.4136567893
 10
-17.0796784997
 20
4.4000189439
 10
-17.1286597792
 20
4.3811408254
 10
-17.1753931828
 20
4.3572319024
 10
-17.2193482996
 20
4.3285669311
 10
-17.2600352762
 20
4.2954747751
 10
-17.2970206848
 20
4.2583181116
 10
-17.329912266
 20
4.2174956618
 10
-17.3583866659
 20
4.173390684
 10
-17.3820797599
 20
4.126546279
 10
-17.4006664514
 20
4.0776795566
 10
-17.4139911024
 20
4.0274171402
 10
-17.4220017304
 20
3.9762554271
 10
-17.424677346
 20
3.9247534984
  0
LINE
  5
42C
100
AcDbEntity
  8
0
100
AcDbLine
 62
7
  6
CONTINUOUS
 10
-1.9708971429
 20
3.6618089796
 11
-0.1639836735
 21
3.6618089796
  0
LINE
  5
42D
100
AcDbEntity
  8
0
100
AcDbLine
 62
7
  6
CONTINUOUS
 10
0.1560159184
 20
3.6618089796
 11
1.9415632653
 21
3.6618089796
  0
LINE
  5
42E
100
AcDbEntity
  8
RACCORDO
100
AcDbLine
 62
253
  6
CONTINUOUS
 10
-8.575322654
 20
3.9247534984
 11
-17.424677346
 21
3.9247534984
  0
LINE
  5
42F
100
AcDbEntity
  8
RACCORDO
100
AcDbLine
 62
253
  6
CONTINUOUS
 10
8.575322654
 20
3.9247534984
 11
17.424677346
 21
3.9247534984
  0
LINE
  5
430
100
AcDbEntity
  8
0
100
AcDbLine
 62
7
  6
CONTINUOUS
 10
1.9415632653
 20
3.9864102041
 11
-1.9708971429
 21
3.9864102041
  0
LINE
  5
431
100
AcDbEntity
  8
RACCORDO
100
AcDbLine
 62
253
  6
CONTINUOUS
 10
16.9247534984
 20
4.424677346
 11
9.0752465016
 21
4.424677346
  0
LINE
  5
432
100
AcDbEntity
  8
RACCORDO
100
AcDbLine
 62
253
  6
CONTINUOUS
 10
-9.0752465016
 20
4.424677346
 11
-16.9247534984
 21
4.424677346
  0
LINE
  5
433
100
AcDbEntity
  8
0
100
AcDbLine
 62
7
  6
CONTINUOUS
 10
-1.32462
 20
4.489395102
 11
1.2949946939
 21
4.489395102
  0
LINE
  5
434
100
AcDbEntity
  8
RACCORDO
100
AcDbLine
 62
7
  6
CONTINUOUS
 10
17.1500761524
 20
4.65
 11
15.0843496491
 21
4.65
  0
LINE
  5
435
100
AcDbEntity
  8
DRAFT
100
AcDbLine
 62
7
  6
CONTINUOUS
 10
-15.0843496491
 20
4.65
 11
-10.9156503509
 21
4.65
  0
LINE
  5
436
100
AcDbEntity
  8
RACCORDO
100
AcDbLine
 62
7
  6
CONTINUOUS
 10
10.9156503509
 20
4.65
 11
8.8499238476
 21
4.65
  0
LINE
  5
437
100
AcDbEntity
  8
RACCORDO
100
AcDbLine
 62
7
  6
CONTINUOUS
 10
-8.8499238476
 20
4.65
 11
-10.9156503509
 21
4.65
  0
LINE
  5
438
100
AcDbEntity
  8
DRAFT
100
AcDbLine
 62
7
  6
CONTINUOUS
 10
10.9156503509
 20
4.65
 11
15.0843496491
 21
4.65
  0
LINE
  5
439
100
AcDbEntity
  8
RACCORDO
100
AcDbLine
 62
7
  6
CONTINUOUS
 10
-15.0843496491
 20
4.65
 11
-17.1500761524
 21
4.65
  0
LINE
  5
43A
100
AcDbEntity
  8
0
100
AcDbLine
 62
7
  6
CONTINUOUS
 10
1.2949946939
 20
4.813995102
 11
-1.32462
 21
4.813995102
  0
LINE
  5
43B
100
AcDbEntity
  8
RACCORDO
100
AcDbLine
 62
253
  6
CONTINUOUS
 10
-21.7340245667
 20
5.1232523139
 11
-21.65
 21
5.1232523139
  0
LINE
  5
43C
100
AcDbEntity
  8
RACCORDO
100
AcDbLine
 62
253
  6
CONTINUOUS
 10
21.65
 20
5.1232523139
 11
21.7340245667
 21
5.1232523139
  0
LINE
  5
43D
100
AcDbEntity
  8
RACCORDO
100
AcDbLine
 62
253
  6
CONTINUOUS
 10
-21.5625723589
 20
5.1676925165
 11
-21.0626485113
 21
5.1676925165
  0
LINE
  5
43E
100
AcDbEntity
  8
RACCORDO
100
AcDbLine
 62
253
  6
CONTINUOUS
 10
21.0626485113
 20
5.1676925165
 11
21.5625723589
 21
5.1676925165
  0
LINE
  5
43F
100
AcDbEntity
  8
0
100
AcDbLine
 62
7
  6
CONTINUOUS
 10
-0.6780514286
 20
5.31698
 11
0.648717551
 21
5.31698
  0
LINE
  5
440
100
AcDbEntity
  8
0
100
AcDbLine
 62
7
  6
CONTINUOUS
 10
0.648717551
 20
5.6369808163
 11
-0.6780514286
 21
5.6369808163
  0
LINE
  5
441
100
AcDbEntity
  8
0
100
AcDbLine
 62
7
  6
CONTINUOUS
 10
14.0901949367
 20
0.35
 11
13.5197234842
 21
0.5197234842
  0
LWPOLYLINE
  5
442
100
AcDbEntity
  8
RACCORDO
100
AcDbPolyline
 62
7
  6
CONTINUOUS
 90
4
 70
0
 10
-9.6188936155
 20
9.1735042152
 10
-9.5695557955
 20
9.1534626129
 10
-9.5183878305
 20
9.1336252272
 10
-9.4126485113
 20
9.0935800985
  0
LWPOLYLINE
  5
443
100
AcDbEntity
  8
RACCORDO
100
AcDbPolyline
 62
7
  6
CONTINUOUS
 90
4
 70
0
 10
-9.8462911226
 20
9.2737890519
 10
-9.7497339014
 20
9.2298647701
 10
-9.7095893943
 20
9.2122340553
 10
-9.6188936155
 20
9.1735042152
  0
LINE
  5
444
100
AcDbEntity
  8
RACCORDO
100
AcDbLine
 62
253
  6
CONTINUOUS
 10
21.3201283274
 20
-5.5962108915
 11
21.4075559685
 21
-5.6456750709
  0
LINE
  5
445
100
AcDbEntity
  8
RACCORDO
100
AcDbLine
 62
253
  6
CONTINUOUS
 10
21.5110440036
 20
-5.5627825894
 11
21.6575559685
 21
-5.6456750709
  0
LINE
  5
446
100
AcDbEntity
  8
RACCORDO
100
AcDbLine
 62
253
  6
CONTINUOUS
 10
21.5625723589
 20
-5.1676925165
 11
21.65
 21
-5.2171566959
  0
LINE
  5
447
100
AcDbEntity
  8
RACCORDO
100
AcDbLine
 62
253
  6
CONTINUOUS
 10
21.7340245667
 20
-5.1232523139
 11
21.9
 21
-5.2171566959
  0
LINE
  5
448
100
AcDbEntity
  8
0
100
AcDbLine
 62
7
  6
CONTINUOUS
 10
15.15
 20
-9.1
 11
15.1971252854
 21
-9.1471252854
  0
LINE
  5
449
100
AcDbEntity
  8
RACCORDO
100
AcDbLine
 62
253
  6
CONTINUOUS
 10
16.4912724559
 20
-8.9911201511
 11
16.5001523048
 21
-9.0
  0
LINE
  5
44A
100
AcDbEntity
  8
0
100
AcDbLine
 62
253
  6
CONTINUOUS
 10
18.5476502163
 20
-10.1476387933
 11
18.6000114231
 21
-10.2
  0
LINE
  5
44B
100
AcDbEntity
  8
0
100
AcDbLine
 62
7
  6
CONTINUOUS
 10
17.7
 20
-9.1
 11
18.3523612067
 21
-9.7523612067
  0
LINE
  5
44C
100
AcDbEntity
  8
0
100
AcDbLine
 62
7
  6
CONTINUOUS
 10
22.3233204555
 20
-22.1536938329
 11
21.9071435302
 21
-21.6331917705
  0
LINE
  5
44D
100
AcDbEntity
  8
0
100
AcDbLine
 62
7
  6
CONTINUOUS
 10
23.6766795445
 20
-23.8463061671
 11
24.0928564698
 21
-24.3668082295
  0
LINE
  5
44E
100
AcDbEntity
  8
0
100
AcDbLine
 62
7
  6
CONTINUOUS
 10
21.8868576488
 20
-22.9765403156
 11
21.9245557012
 21
-23.0327176049
  0
LINE
  5
44F
100
AcDbEntity
  8
0
100
AcDbLine
 62
7
  6
CONTINUOUS
 10
-4.4042872815
 20
20.3848674893
 11
-4.4541065803
 21
20.4783463468
  0
LINE
  5
450
100
AcDbEntity
  8
0
100
AcDbLine
 62
7
  6
CONTINUOUS
 10
0.5197234842
 20
11.5197234842
 11
0.35
 21
12.0901949367
  0
LINE
  5
451
100
AcDbEntity
  8
0
100
AcDbLine
 62
7
  6
CONTINUOUS
 10
8.5197234842
 20
-12.4802765158
 11
8.35
 21
-11.9098050633
  0
LWPOLYLINE
  5
452
100
AcDbEntity
  8
RACCORDO
100
AcDbPolyline
 62
253
  6
CONTINUOUS
 90
16
 70
0
 10
8.575322654
 20
-3.9247534984
 10
8.5780761416
 20
-3.9769996766
 10
8.5862746215
 20
-4.0286736566
 10
8.599828304
 20
-4.0792095066
 10
8.6185887498
 20
-4.1280537599
 10
8.6423504952
 20
-4.1746714759
 10
8.6708533023
 20
-4.2185520991
 10
8.7037850094
 20
-4.2592150504
 10
8.7407849496
 20
-4.2962149906
 10
8.7814479009
 20
-4.3291466977
 10
8.8253285241
 20
-4.3576495048
 10
8.8719462401
 20
-4.3814112502
 10
8.9207904934
 20
-4.400171696
 10
8.9713263434
 20
-4.4137253785
 10
9.0230003234
 20
-4.4219238584
 10
9.0752465016
 20
-4.424677346
  0
LWPOLYLINE
  5
453
100
AcDbEntity
  8
RACCORDO
100
AcDbPolyline
 62
253
  6
CONTINUOUS
 90
19
 70
0
 10
6.7613551508
 20
7.2654741376
 10
6.7582913227
 20
7.335174632
 10
6.7491656064
 20
7.4043448692
 10
6.7340474274
 20
7.4724586258
 10
6.7130517994
 20
7.5389977159
 10
6.68633845
 20
7.6034559331
 10
6.654110605
 20
7.6653429016
 10
6.6166134429
 20
7.7241878068
 10
6.574132229
 20
7.7795429768
 10
6.5269901458
 20
7.8309872887
 10
6.4755458339
 20
7.8781293719
 10
6.4201906639
 20
7.9206105858
 10
6.3613457587
 20
7.9581077479
 10
6.2994587902
 20
7.9903355928
 10
6.235000573
 20
8.0170489423
 10
6.1684614829
 20
8.0380445703
 10
6.1003477263
 20
8.0531627493
 10
6.0311774891
 20
8.0622884656
 10
5.9614769947
 20
8.0653522937
  0
LINE
  5
454
100
AcDbEntity
  8
0
100
AcDbLine
 62
7
  6
CONTINUOUS
 10
6.7575887337
 20
-13.35
 11
6.7575887337
 21
-12.65
  0
LINE
  5
455
100
AcDbEntity
  8
RACCORDO
100
AcDbLine
 62
253
  6
CONTINUOUS
 10
6.7613551508
 20
-7.2654741376
 11
6.7613551508
 21
7.2654741376
  0
LINE
  5
456
100
AcDbEntity
  8
RACCORDO
100
AcDbLine
 62
7
  6
CONTINUOUS
 10
6.8
 20
-7.3041189868
 11
6.8
 21
7.3041189868
  0
LINE
  5
457
100
AcDbEntity
  8
DRAFT
100
AcDbLine
 62
7
  6
CONTINUOUS
 10
7.5
 20
9.0
 11
7.5
 21
8.5
  0
LINE
  5
458
100
AcDbEntity
  8
0
100
AcDbLine
 62
7
  6
CONTINUOUS
 10
7.5
 20
-15.6627620703
 11
7.5
 21
-13.5860176963
  0
LINE
  5
459
100
AcDbEntity
  8
0
100
AcDbLine
 62
7
  6
CONTINUOUS
 10
7.5
 20
-12.4139823037
 11
7.5
 21
-10.3372379297
  0
LINE
  5
45A
100
AcDbEntity
  8
0
100
AcDbLine
 62
7
  6
CONTINUOUS
 10
7.65
 20
-14.6412765528
 11
7.65
 21
-14.0901949367
  0
LINE
  5
45B
100
AcDbEntity
  8
0
100
AcDbLine
 62
7
  6
CONTINUOUS
 10
7.65
 20
-11.9098050633
 11
7.65
 21
-11.3587234472
  0
LINE
  5
45C
100
AcDbEntity
  8
RACCORDO
100
AcDbLine
 62
7
  6
CONTINUOUS
 10
8.35
 20
4.1500761524
 11
8.35
 21
-4.1500761524
  0
LINE
  5
45D
100
AcDbEntity
  8
0
100
AcDbLine
 62
7
  6
CONTINUOUS
 10
8.35
 20
-14.6412765528
 11
8.35
 21
-14.0901949367
  0
LINE
  5
45E
100
AcDbEntity
  8
0
100
AcDbLine
 62
7
  6
CONTINUOUS
 10
8.35
 20
-11.9098050633
 11
8.35
 21
-11.3587234472
  0
LINE
  5
45F
100
AcDbEntity
  8
0
100
AcDbLine
 62
7
  6
CONTINUOUS
 10
8.5
 20
-10.3372379297
 11
8.5
 21
-12.4139823037
  0
LINE
  5
460
100
AcDbEntity
  8
0
100
AcDbLine
 62
7
  6
CONTINUOUS
 10
8.5
 20
-13.5860176963
 11
8.5
 21
-15.6627620703
  0
LINE
  5
461
100
AcDbEntity
  8
RACCORDO
100
AcDbLine
 62
253
  6
CONTINUOUS
 10
8.575322654
 20
3.9247534984
 11
8.575322654
 21
-3.9247534984
  0
LINE
  5
462
100
AcDbEntity
  8
RACCORDO
100
AcDbLine
 62
253
  6
CONTINUOUS
 10
9.0752465016
 20
-4.424677346
 11
9.0752465016
 21
4.424677346
  0
LWPOLYLINE
  5
463
100
AcDbEntity
  8
0
100
AcDbPolyline
 62
7
  6
CONTINUOUS
 90
10
 70
0
 10
6.0737359477
 20
-12.65
 10
6.0719190181
 20
-12.7276419278
 10
6.0705563208
 20
-12.8053517802
 10
6.069647856
 20
-12.8831295571
 10
6.0691936236
 20
-12.9610205413
 10
6.0691936236
 20
-13.03897945
 10
6.069647856
 20
-13.1168704351
 10
6.0705563208
 20
-13.1946482137
 10
6.071919018
 20
-13.2723580687
 10
6.0737359477
 20
-13.35
  0
LWPOLYLINE
  5
464
100
AcDbEntity
  8
0
100
AcDbPolyline
 62
7
  6
CONTINUOUS
 90
18
 70
0
 10
21.9071435302
 20
24.3668082295
 10
21.8631123209
 20
24.2807505107
 10
21.824976484
 20
24.1938573304
 10
21.7927015886
 20
24.106503915
 10
21.7662303914
 20
24.0190595458
 10
21.7454833676
 20
23.9318862151
 10
21.7303593174
 20
23.8453373212
 10
21.7207360486
 20
23.7597564082
 10
21.7164711305
 20
23.6754759526
 10
21.717402716
 20
23.5928162024
 10
21.72335043
 20
23.5120840711
 10
21.7341163182
 20
23.4335720921
 10
21.749485855
 20
23.357557435
 10
21.7692290049
 20
23.2843009877
 10
21.7931013336
 20
23.2140465079
 10
21.8208451652
 20
23.1470198452
 10
21.8521907798
 20
23.0834282377
 10
21.8868576488
 20
23.0234596844
  0
LINE
  5
465
100
AcDbEntity
  8
RACCORDO
100
AcDbLine
 62
253
  6
CONTINUOUS
 10
4.9039971429
 20
-8.2916828748
 11
4.8915348911
 21
-8.3109118689
  0
LINE
  5
466
100
AcDbEntity
  8
0
100
AcDbLine
 62
253
  6
CONTINUOUS
 10
18.8476387933
 20
9.8476502163
 11
18.9
 21
9.9000114231
  0
LINE
  5
467
100
AcDbEntity
  8
RACCORDO
100
AcDbLine
 62
253
  6
CONTINUOUS
 10
-5.0
 20
-15.2001218439
 11
-4.8915348911
 21
-15.091656735
  0
LINE
  5
468
100
AcDbEntity
  8
DRAFT
100
AcDbLine
 62
7
  6
CONTINUOUS
 10
15.0843496491
 20
4.65
 11
15.0496877751
 21
4.615338126
  0
LINE
  5
469
100
AcDbEntity
  8
RACCORDO
100
AcDbLine
 62
253
  6
CONTINUOUS
 10
-4.2001218439
 20
-16.0
 11
-4.091656735
 21
-15.8915348911
  0
LINE
  5
46A
100
AcDbEntity
  8
RACCORDO
100
AcDbLine
 62
253
  6
CONTINUOUS
 10
8.575322654
 20
-3.9247534984
 11
8.35
 21
-4.1500761524
  0
LINE
  5
46B
100
AcDbEntity
  8
RACCORDO
100
AcDbLine
 62
253
  6
CONTINUOUS
 10
16.9247534984
 20
4.424677346
 11
17.1500761524
 21
4.65
  0
LINE
  5
46C
100
AcDbEntity
  8
0
100
AcDbLine
 62
7
  6
CONTINUOUS
 10
-9.3
 20
-22.0
 11
-9.3261825974
 21
-22.0261825974
  0
LINE
  5
46D
100
AcDbEntity
  8
0
100
AcDbLine
 62
253
  6
CONTINUOUS
 10
21.7861103952
 20
11.0026304019
 11
22.1443749376
 21
11.3512998313
  0
LINE
  5
46E
100
AcDbEntity
  8
0
100
AcDbLine
 62
253
  6
CONTINUOUS
 10
22.2006159059
 20
10.133547967
 11
22.6970489536
 21
10.1925232378
  0
LWPOLYLINE
  5
46F
100
AcDbEntity
  8
RACCORDO
100
AcDbPolyline
 62
253
  6
CONTINUOUS
 90
3
 70
0
 10
5.0960790211
 20
8.3340245667
 10
5.0436691677
 20
8.3312538024
 10
5.0
 20
8.3243032497
  0
LWPOLYLINE
  5
470
100
AcDbEntity
  8
RACCORDO
100
AcDbPolyline
 62
253
  6
CONTINUOUS
 90
19
 70
0
 10
-5.9614769947
 20
8.0653522937
 10
-6.0312894661
 20
8.0622786287
 10
-6.1005700013
 20
8.053123464
 10
-6.1687897957
 20
8.0379564422
 10
-6.2354284192
 20
8.0168929836
 10
-6.2999768328
 20
7.9900936958
 10
-6.3619413835
 20
7.9577634215
 10
-6.4208530361
 20
7.9201462037
 10
-6.4762577241
 20
7.8775312673
 10
-6.5277216321
 20
7.8302548555
 10
-6.5748484064
 20
7.7786883364
 10
-6.6172893113
 20
7.723221228
 10
-6.6547313122
 20
7.6642661905
 10
-6.6869167468
 20
7.6022135317
 10
-6.7135627567
 20
7.5375906586
 10
-6.7344195354
 20
7.4710661835
 10
-6.7493635852
 20
7.403219095
 10
-6.7583489879
 20
7.3345145365
 10
-6.7613551508
 20
7.2654741376
  0
LWPOLYLINE
  5
471
100
AcDbEntity
  8
RACCORDO
100
AcDbPolyline
 62
253
  6
CONTINUOUS
 90
10
 70
0
 10
-16.9935584139
 20
8.1125723589
 10
-17.023630934
 20
8.1116647595
 10
-17.0535944692
 20
8.10895034
 10
-17.0833405304
 20
8.1044389464
 10
-17.1127733563
 20
8.0981439994
 10
-17.1417740912
 20
8.0900898041
 10
-17.1702031497
 20
8.0803185955
 10
-17.1979487132
 20
8.068877019
 10
-17.2249250928
 20
8.0558088009
 10
-17.2510382299
 20
8.0411668863
  0
LWPOLYLINE
  5
472
100
AcDbEntity
  8
RACCORDO
100
AcDbPolyline
 62
253
  6
CONTINUOUS
 90
10
 70
0
 10
-16.7224913385
 20
8.3340245667
 10
-16.7525638586
 20
8.3331169674
 10
-16.7825273939
 20
8.3304025478
 10
-16.812273455
 20
8.3258911542
 10
-16.841706281
 20
8.3195962072
 10
-16.8707070159
 20
8.3115420119
 10
-16.8991360743
 20
8.3017708033
 10
-16.9268816378
 20
8.2903292268
 10
-16.9538580175
 20
8.2772610087
 10
-16.9799711546
 20
8.2626190941
  0
LWPOLYLINE
  5
473
100
AcDbEntity
  8
RACCORDO
100
AcDbPolyline
 62
253
  6
CONTINUOUS
 90
19
 70
0
 10
5.4297449062
 20
8.9911201511
 10
5.4037857819
 20
8.9907820595
 10
5.3778888625
 20
8.9897725283
 10
5.3520714068
 20
8.9880957107
 10
5.3263554658
 20
8.9857567131
 10
5.3007528576
 20
8.9827602852
 10
5.2752653078
 20
8.9791095259
 10
5.2499100726
 20
8.9748092493
 10
5.2247028489
 20
8.9698644664
 10
5.199643138
 20
8.9642767363
 10
5.1747474397
 20
8.958050734
 10
5.1500317229
 20
8.9511914543
 10
5.1254950899
 20
8.9436989397
 10
5.1011537447
 20
8.9355777158
 10
5.077023906
 20
8.9268327675
 10
5.0531053542
 20
8.9174628693
 10
5.0294142676
 20
8.9074724644
 10
5.0059672402
 20
8.896866634
 10
5.0
 20
8.8939801106
  0
LINE
  5
474
100
AcDbEntity
  8
RACCORDO
100
AcDbLine
 62
253
  6
CONTINUOUS
 10
-6.7613551508
 20
7.2654741376
 11
6.7613551508
 21
7.2654741376
  0
LINE
  5
475
100
AcDbEntity
  8
RACCORDO
100
AcDbLine
 62
253
  6
CONTINUOUS
 10
16.9935584139
 20
7.6126485113
 11
6.7381144729
 21
7.6126485113
  0
LINE
  5
476
100
AcDbEntity
  8
RACCORDO
100
AcDbLine
 62
253
  6
CONTINUOUS
 10
-10.4124962065
 20
7.6126485113
 11
-16.9935584139
 21
7.6126485113
  0
LINE
  5
477
100
AcDbEntity
  8
0
100
AcDbLine
 62
7
  6
CONTINUOUS
 10
-26.5306533492
 20
7.95
 11
-23.0338928645
 21
7.95
  0
LINE
  5
478
100
AcDbEntity
  8
0
100
AcDbLine
 62
7
  6
CONTINUOUS
 10
23.4576155487
 20
7.95
 11
26.5306533492
 21
7.95
  0
LINE
  5
479
100
AcDbEntity
  8
0
100
AcDbLine
 62
7
  6
CONTINUOUS
 10
-26.522650148
 20
7.9761825974
 11
-23.0051775874
 21
7.9761825974
  0
LINE
  5
47A
100
AcDbEntity
  8
0
100
AcDbLine
 62
7
  6
CONTINUOUS
 10
23.4530933844
 20
7.9761825974
 11
26.522650148
 21
7.9761825974
  0
LINE
  5
47B
100
AcDbEntity
  8
RACCORDO
100
AcDbLine
 62
253
  6
CONTINUOUS
 10
5.9614769947
 20
8.0653522937
 11
-5.9614769947
 21
8.0653522937
  0
LINE
  5
47C
100
AcDbEntity
  8
RACCORDO
100
AcDbLine
 62
7
  6
CONTINUOUS
 10
4.091656735
 20
8.0778145455
 11
-4.091656735
 21
8.0778145455
  0
LINE
  5
47D
100
AcDbEntity
  8
RACCORDO
100
AcDbLine
 62
7
  6
CONTINUOUS
 10
-4.9039971429
 20
8.1039971429
 11
-6.0001218439
 21
8.1039971429
  0
LINE
  5
47E
100
AcDbEntity
  8
RACCORDO
100
AcDbLine
 62
253
  6
CONTINUOUS
 10
16.9935584139
 20
8.1125723589
 11
6.0086970599
 21
8.1125723589
  0
LINE
  5
47F
100
AcDbEntity
  8
RACCORDO
100
AcDbLine
 62
253
  6
CONTINUOUS
 10
-10.4124962065
 20
8.1125723589
 11
-16.9935584139
 21
8.1125723589
  0
LINE
  5
480
100
AcDbEntity
  8
RACCORDO
100
AcDbLine
 62
7
  6
CONTINUOUS
 10
-17.0178042446
 20
8.2
 11
-10.4999238476
 21
8.2
  0
LINE
  5
481
100
AcDbEntity
  8
RACCORDO
100
AcDbLine
 62
7
  6
CONTINUOUS
 10
5.0
 20
8.2
 11
17.0178042446
 21
8.2
  0
LINE
  5
482
100
AcDbEntity
  8
RACCORDO
100
AcDbLine
 62
253
  6
CONTINUOUS
 10
-4.8915348911
 20
8.3109118689
 11
-4.0916567354
 21
8.3109118677
  0
LINE
  5
483
100
AcDbEntity
  8
RACCORDO
100
AcDbLine
 62
253
  6
CONTINUOUS
 10
16.7224913385
 20
8.3340245667
 11
5.0960790211
 21
8.3340245667
  0
LINE
  5
484
100
AcDbEntity
  8
RACCORDO
100
AcDbLine
 62
253
  6
CONTINUOUS
 10
-10.1599145094
 20
8.3340245667
 11
-16.7224913385
 21
8.3340245667
  0
LINE
  5
485
100
AcDbEntity
  8
RACCORDO
100
AcDbLine
 62
7
  6
CONTINUOUS
 10
-16.7685203999
 20
8.5
 11
-10.0419819248
 21
8.5
  0
LINE
  5
486
100
AcDbEntity
  8
RACCORDO
100
AcDbLine
 62
7
  6
CONTINUOUS
 10
5.0700487402
 20
8.5
 11
16.7685203999
 21
8.5
  0
LINE
  5
487
100
AcDbEntity
  8
RACCORDO
100
AcDbLine
 62
253
  6
CONTINUOUS
 10
-9.4126485113
 20
8.6124962065
 11
-9.9125723589
 21
8.612496206
  0
LINE
  5
488
100
AcDbEntity
  8
0
100
AcDbLine
 62
7
  6
CONTINUOUS
 10
26.2188911121
 20
8.9238174026
 11
23.0531667634
 21
8.9238174026
  0
LINE
  5
489
100
AcDbEntity
  8
0
100
AcDbLine
 62
7
  6
CONTINUOUS
 10
-22.9121304186
 20
8.9238174026
 11
-26.2188911121
 21
8.9238174026
  0
LINE
  5
48A
100
AcDbEntity
  8
0
100
AcDbLine
 62
7
  6
CONTINUOUS
 10
26.2098740615
 20
8.95
 11
23.0354982429
 21
8.95
  0
LINE
  5
48B
100
AcDbEntity
  8
0
100
AcDbLine
 62
7
  6
CONTINUOUS
 10
-22.9357338552
 20
8.95
 11
-26.2098740615
 21
8.95
  0
LINE
  5
48C
100
AcDbEntity
  8
RACCORDO
100
AcDbLine
 62
253
  6
CONTINUOUS
 10
16.4912724559
 20
8.9911201511
 11
16.0088798489
 21
8.9911201511
  0
LINE
  5
48D
100
AcDbEntity
  8
RACCORDO
100
AcDbLine
 62
253
  6
CONTINUOUS
 10
7.4911201511
 20
8.9911201511
 11
5.4297449062
 21
8.9911201511
  0
LINE
  5
48E
100
AcDbEntity
  8
RACCORDO
100
AcDbLine
 62
253
  6
CONTINUOUS
 10
-10.0
 20
8.9911201511
 11
-16.4912724559
 21
8.9911201511
  0
LINE
  5
48F
100
AcDbEntity
  8
RACCORDO
100
AcDbLine
 62
7
  6
CONTINUOUS
 10
16.7000109662
 20
9.0
 11
5.3055651271
 21
9.0
  0
LINE
  5
490
100
AcDbEntity
  8
RACCORDO
100
AcDbLine
 62
7
  6
CONTINUOUS
 10
-10.0
 20
9.0
 11
-16.5001523048
 21
9.0
  0
LINE
  5
491
100
AcDbEntity
  8
RACCORDO
100
AcDbLine
 62
7
  6
CONTINUOUS
 10
-16.5523612067
 20
9.0
 11
-16.7000109662
 21
9.0
  0
LINE
  5
492
100
AcDbEntity
  8
0
100
AcDbLine
 62
7
  6
CONTINUOUS
 10
-17.7
 20
9.1
 11
-15.15
 21
9.1
  0
LINE
  5
493
100
AcDbEntity
  8
0
100
AcDbLine
 62
7
  6
CONTINUOUS
 10
15.15
 20
9.1
 11
17.7
 21
9.1
  0
LINE
  5
494
100
AcDbEntity
  8
0
100
AcDbLine
 62
7
  6
CONTINUOUS
 10
-17.7471252854
 20
9.1471252854
 11
-15.1971252854
 21
9.1471252854
  0
LINE
  5
495
100
AcDbEntity
  8
0
100
AcDbLine
 62
7
  6
CONTINUOUS
 10
15.1971252854
 20
9.1471252854
 11
17.7471252854
 21
9.1471252854
  0
LWPOLYLINE
  5
496
100
AcDbEntity
  8
0
100
AcDbPolyline
 62
7
  6
CONTINUOUS
 90
10
 70
0
 10
-0.35
 20
9.0737359477
 10
-0.2723581071
 20
9.0719190183
 10
-0.1946482719
 20
9.0705563212
 10
-0.1168704945
 20
9.0696478565
 10
-0.0389794802
 20
9.0691936241
 10
0.0389794765
 20
9.0691936241
 10
0.1168704912
 20
9.0696478565
 10
0.1946482694
 20
9.0705563212
 10
0.2723581056
 20
9.0719190182
 10
0.35
 20
9.0737359477
  0
LINE
  5
497
100
AcDbEntity
  8
0
100
AcDbLine
 62
253
  6
CONTINUOUS
 10
-22.2006159059
 20
10.133547967
 11
-22.6970489519
 21
10.1925232515
  0
LWPOLYLINE
  5
498
100
AcDbEntity
  8
RACCORDO
100
AcDbPolyline
 62
7
  6
CONTINUOUS
 90
6
 70
0
 10
-9.9125723589
 20
9.3028287009
 10
-9.9093103253
 20
9.3020481276
 10
-9.9011375145
 20
9.298794361
 10
-9.8879575131
 20
9.2930674012
 10
-9.8696566374
 20
9.2846648232
 10
-9.8462911226
 20
9.2737890519
  0
LINE
  5
499
100
AcDbEntity
  8
0
100
AcDbLine
 62
253
  6
CONTINUOUS
 10
21.7861103952
 20
-11.0026304019
 11
22.144374928
 21
-11.3512998413
  0
LINE
  5
49A
100
AcDbEntity
  8
0
100
AcDbLine
 62
253
  6
CONTINUOUS
 10
18.8476387933
 20
-9.8476502163
 11
18.9
 21
-9.9000114231
  0
LINE
  5
49B
100
AcDbEntity
  8
RACCORDO
100
AcDbLine
 62
253
  6
CONTINUOUS
 10
16.9247534984
 20
-4.424677346
 11
17.1500761524
 21
-4.65
  0
LINE
  5
49C
100
AcDbEntity
  8
RACCORDO
100
AcDbLine
 62
253
  6
CONTINUOUS
 10
8.575322654
 20
3.9247534984
 11
8.35
 21
4.1500761524
  0
LINE
  5
49D
100
AcDbEntity
  8
0
100
AcDbLine
 62
7
  6
CONTINUOUS
 10
24.1131423512
 20
-23.0234596844
 11
24.0754442988
 21
-22.9672823951
  0
LINE
  5
49E
100
AcDbEntity
  8
RACCORDO
100
AcDbLine
 62
253
  6
CONTINUOUS
 10
5.1240705592
 20
8.5
 11
5.0
 21
8.706488086
  0
LINE
  5
49F
100
AcDbEntity
  8
RACCORDO
100
AcDbLine
 62
253
  6
CONTINUOUS
 10
5.4272823062
 20
9.0
 11
5.4297449062
 21
8.9911201511
  0
LINE
  5
4A0
100
AcDbEntity
  8
0
100
AcDbLine
 62
7
  6
CONTINUOUS
 10
9.2424112663
 20
-13.35
 11
9.2424112663
 21
-12.65
  0
LINE
  5
4A1
100
AcDbEntity
  8
0
100
AcDbLine
 62
7
  6
CONTINUOUS
 10
9.3
 20
26.0893372148
 11
9.3
 21
19.3721152439
  0
LINE
  5
4A2
100
AcDbEntity
  8
0
100
AcDbLine
 62
7
  6
CONTINUOUS
 10
9.3
 20
-19.3721152439
 11
9.3
 21
-26.0893372148
  0
LINE
  5
4A3
100
AcDbEntity
  8
0
100
AcDbLine
 62
7
  6
CONTINUOUS
 10
9.3261825974
 20
26.0803201641
 11
9.3261825974
 21
19.3364128264
  0
LINE
  5
4A4
100
AcDbEntity
  8
0
100
AcDbLine
 62
7
  6
CONTINUOUS
 10
9.3261825974
 20
-19.3364128264
 11
9.3261825974
 21
-26.0803201641
  0
LINE
  5
4A5
100
AcDbEntity
  8
RACCORDO
100
AcDbLine
 62
253
  6
CONTINUOUS
 10
9.4126485113
 20
-9.0935800985
 11
9.4126485113
 21
-8.6124962065
  0
LINE
  5
4A6
100
AcDbEntity
  8
RACCORDO
100
AcDbLine
 62
253
  6
CONTINUOUS
 10
9.9125723589
 20
-9.3028287009
 11
9.9125723589
 21
-8.6124962065
  0
LINE
  5
4A7
100
AcDbEntity
  8
RACCORDO
100
AcDbLine
 62
7
  6
CONTINUOUS
 10
10.0
 20
-8.6999238476
 11
10.0
 21
-9.25
  0
LINE
  5
4A8
100
AcDbEntity
  8
0
100
AcDbLine
 62
7
  6
CONTINUOUS
 10
10.2738174026
 20
-25.7223749757
 11
10.2738174026
 21
-19.0203018545
  0
LINE
  5
4A9
100
AcDbEntity
  8
0
100
AcDbLine
 62
7
  6
CONTINUOUS
 10
10.2738174026
 20
19.0203018545
 11
10.2738174026
 21
25.7223749757
  0
LINE
  5
4AA
100
AcDbEntity
  8
0
100
AcDbLine
 62
7
  6
CONTINUOUS
 10
10.3
 20
-25.7123244183
 11
10.3
 21
-19.0388440264
  0
LINE
  5
4AB
100
AcDbEntity
  8
0
100
AcDbLine
 62
7
  6
CONTINUOUS
 10
10.3
 20
19.0388440264
 11
10.3
 21
25.7123244183
  0
LINE
  5
4AC
100
AcDbEntity
  8
RACCORDO
100
AcDbLine
 62
253
  6
CONTINUOUS
 10
10.4124962065
 20
-7.6126485113
 11
10.4124962065
 21
-8.1125723589
  0
LINE
  5
4AD
100
AcDbEntity
  8
0
100
AcDbLine
 62
7
  6
CONTINUOUS
 10
11.3587234472
 20
-0.35
 11
11.3587234472
 21
0.35
  0
LINE
  5
4AE
100
AcDbEntity
  8
0
100
AcDbLine
 62
7
  6
CONTINUOUS
 10
11.7575887337
 20
0.35
 11
11.7575887337
 21
-0.35
  0
LWPOLYLINE
  5
4AF
100
AcDbEntity
  8
0
100
AcDbPolyline
 62
7
  6
CONTINUOUS
 90
10
 70
0
 10
9.9262640523
 20
-13.35
 10
9.9280809819
 20
-13.2723580722
 10
9.9294436792
 20
-13.1946482198
 10
9.930352144
 20
-13.1168704429
 10
9.9308063764
 20
-13.0389794587
 10
9.9308063764
 20
-12.96102055
 10
9.930352144
 20
-12.8831295649
 10
9.9294436792
 20
-12.8053517863
 10
9.928080982
 20
-12.7276419313
 10
9.9262640523
 20
-12.65
  0
LWPOLYLINE
  5
4B0
100
AcDbEntity
  8
RACCORDO
100
AcDbPolyline
 62
253
  6
CONTINUOUS
 90
22
 70
0
 10
9.9125723589
 20
-8.6124962065
 10
9.9139006931
 20
-8.5759121236
 10
9.9178958531
 20
-8.5395631585
 10
9.9245281667
 20
-8.5036425872
 10
9.9337474782
 20
-8.4683619482
 10
9.9455000762
 20
-8.4338843893
 10
9.9597446468
 20
-8.4003290137
 10
9.9764404217
 20
-8.3678250367
 10
9.9954828501
 20
-8.3366042299
 10
10.0167085943
 20
-8.3069240577
 10
10.0398810465
 20
-8.2790545708
 10
10.0649555574
 20
-8.2529943663
 10
10.0920816819
 20
-8.2286229469
 10
10.1211814143
 20
-8.2061030224
 10
10.1521182467
 20
-8.1856282802
 10
10.1850260508
 20
-8.167231106
 10
10.2199929126
 20
-8.15104767
 10
10.2566763273
 20
-8.1374178641
 10
10.2945324345
 20
-8.1266465606
 10
10.3332164964
 20
-8.1188710689
 10
10.3726182839
 20
-8.1141522016
 10
10.4124962065
 20
-8.1125723589
  0
LWPOLYLINE
  5
4B1
100
AcDbEntity
  8
RACCORDO
100
AcDbPolyline
 62
253
  6
CONTINUOUS
 90
22
 70
0
 10
9.4126485113
 20
-8.6124962065
 10
9.4154716421
 20
-8.5387176062
 10
9.423461853
 20
-8.4661681815
 10
9.436619144
 20
-8.3948479326
 10
9.4550556629
 20
-8.3244333267
 10
9.4786592619
 20
-8.2552478965
 10
9.507093498
 20
-8.1882622401
 10
9.5404935516
 20
-8.1234150996
 10
9.5787242423
 20
-8.0607677329
 10
9.621043586
 20
-8.0014745109
 10
9.6672663417
 20
-7.9457865143
 10
9.7175777503
 20
-7.8934526623
 10
9.771791551
 20
-7.8448740841
 10
9.8299204776
 20
-7.7998957996
 10
9.8919517962
 20
-7.7586727889
 10
9.9576610434
 20
-7.7220711211
 10
10.0275736907
 20
-7.6899570023
 10
10.1011642665
 20
-7.6624642263
 10
10.1766318938
 20
-7.6408602442
 10
10.25337628
 20
-7.6255675395
 10
10.3319977176
 20
-7.6161636285
 10
10.4124962065
 20
-7.6126485113
  0
LINE
  5
4B2
100
AcDbEntity
  8
0
100
AcDbLine
 62
7
  6
CONTINUOUS
 10
7.4802765158
 20
-12.4802765158
 11
7.65
 21
-11.9098050633
  0
LINE
  5
4B3
100
AcDbEntity
  8
0
100
AcDbLine
 62
7
  6
CONTINUOUS
 10
12.4802765158
 20
0.5197234842
 11
12.65
 21
1.0901949367
  0
LINE
  5
4B4
100
AcDbEntity
  8
0
100
AcDbLine
 62
7
  6
CONTINUOUS
 10
8.35
 20
-14.0901949367
 11
8.5197234842
 21
-13.5197234842
  0
LINE
  5
4B5
100
AcDbEntity
  8
RACCORDO
100
AcDbLine
 62
7
  6
CONTINUOUS
 10
5.0349810746
 20
-15.8915348911
 11
5.0365377888
 21
-15.8877509342
  0
LINE
  5
4B6
100
AcDbEntity
  8
RACCORDO
100
AcDbLine
 62
7
  6
CONTINUOUS
 10
5.0349810746
 20
-15.8915348911
 11
4.9896013553
 21
-16.0
  0
LINE
  5
4B7
100
AcDbEntity
  8
RACCORDO
100
AcDbLine
 62
7
  6
CONTINUOUS
 10
5.0365377888
 20
-15.8877509342
 11
5.0790533648
 21
-15.7877716982
  0
LINE
  5
4B8
100
AcDbEntity
  8
RACCORDO
100
AcDbLine
 62
7
  6
CONTINUOUS
 10
5.0790533648
 20
-15.7877716982
 11
5.1317374159
 21
-15.6657721005
  0
LINE
  5
4B9
100
AcDbEntity
  8
RACCORDO
100
AcDbLine
 62
7
  6
CONTINUOUS
 10
5.1317374159
 20
-15.6657721005
 11
5.1777862694
 21
-15.5610947699
  0
LINE
  5
4BA
100
AcDbEntity
  8
RACCORDO
100
AcDbLine
 62
7
  6
CONTINUOUS
 10
5.1777862694
 20
-15.5610947699
 11
5.2317317577
 21
-15.4403029694
  0
LWPOLYLINE
  5
4BB
100
AcDbEntity
  8
RACCORDO
100
AcDbPolyline
 62
7
  6
CONTINUOUS
 90
5
 70
0
 10
5.2317317577
 20
-15.4403029694
 10
5.2927735027
 20
-15.3066301231
 10
5.3251401335
 20
-15.2363735921
 10
5.3588563443
 20
-15.1645241126
 10
5.3939221352
 20
-15.091656735
  0
LINE
  5
4BC
100
AcDbEntity
  8
0
100
AcDbLine
 62
7
  6
CONTINUOUS
 10
3.3317757036
 20
-19.1112481935
 11
3.2
 21
-19.3910491073
  0
LINE
  5
4BD
100
AcDbEntity
  8
RACCORDO
100
AcDbLine
 62
253
  6
CONTINUOUS
 10
6.3104996702
 20
-9.2050980383
 11
6.3014466548
 21
-9.2228015954
  0
LWPOLYLINE
  5
4BE
100
AcDbEntity
  8
0
100
AcDbPolyline
 62
7
  6
CONTINUOUS
 90
18
 70
0
 10
24.0928564698
 20
21.6331917705
 10
24.1368876791
 20
21.7192494893
 10
24.175023516
 20
21.8061426696
 10
24.2072984114
 20
21.893496085
 10
24.2337696086
 20
21.9809404542
 10
24.2545166324
 20
22.0681137849
 10
24.2696406826
 20
22.1546626788
 10
24.2792639514
 20
22.2402435918
 10
24.2835288695
 20
22.3245240474
 10
24.282597284
 20
22.4071837976
 10
24.27664957
 20
22.4879159289
 10
24.2658836818
 20
22.5664279079
 10
24.250514145
 20
22.642442565
 10
24.2307709951
 20
22.7156990123
 10
24.2068986664
 20
22.7859534921
 10
24.1791548348
 20
22.8529801548
 10
24.1478092202
 20
22.9165717623
 10
24.1131423512
 20
22.9765403156
  0
LINE
  5
4BF
100
AcDbEntity
  8
RACCORDO
100
AcDbLine
 62
253
  6
CONTINUOUS
 10
16.9423458069
 20
8.2
 11
16.9799711546
 21
8.2626190941
  0
LINE
  5
4C0
100
AcDbEntity
  8
RACCORDO
100
AcDbLine
 62
253
  6
CONTINUOUS
 10
16.9935584139
 20
7.6126485113
 11
17.2510382299
 21
8.0411668863
  0
LINE
  5
4C1
100
AcDbEntity
  8
RACCORDO
100
AcDbLine
 62
253
  6
CONTINUOUS
 10
9.0752465016
 20
-4.424677346
 11
8.8499238476
 21
-4.65
  0
LINE
  5
4C2
100
AcDbEntity
  8
RACCORDO
100
AcDbLine
 62
253
  6
CONTINUOUS
 10
17.424677346
 20
3.9247534984
 11
17.65
 21
4.1500761524
  0
LINE
  5
4C3
100
AcDbEntity
  8
0
100
AcDbLine
 62
253
  6
CONTINUOUS
 10
-8.326106445
 20
-22.0261825974
 11
-8.2999238476
 21
-22.0
  0
LINE
  5
4C4
100
AcDbEntity
  8
0
100
AcDbLine
 62
253
  6
CONTINUOUS
 10
-7.8261825974
 20
-22.526106445
 11
-7.8
 21
-22.4999238476
  0
LINE
  5
4C5
100
AcDbEntity
  8
0
100
AcDbLine
 62
253
  6
CONTINUOUS
 10
-4.324948937
 20
-21.1749870139
 11
-4.4541065803
 21
-21.3041446572
  0
LINE
  5
4C6
100
AcDbEntity
  8
0
100
AcDbLine
 62
7
  6
CONTINUOUS
 10
-10.2738174026
 20
-19.0203018545
 11
-10.3
 21
-19.0388440264
  0
LWPOLYLINE
  5
4C7
100
AcDbEntity
  8
RACCORDO
100
AcDbPolyline
 62
253
  6
CONTINUOUS
 90
31
 70
0
 10
6.3014466657
 20
-9.2228015739
 10
6.2394717727
 20
-9.2482417833
 10
6.1762889012
 20
-9.2693747224
 10
6.1122007795
 20
-9.286175829
 10
6.0476437688
 20
-9.2986199124
 10
5.9827765319
 20
-9.3067632798
 10
5.917467457
 20
-9.310652602
 10
5.8518335942
 20
-9.3102546494
 10
5.7863182762
 20
-9.3055458645
 10
5.7212709912
 20
-9.2965468181
 10
5.6569987331
 20
-9.2833053718
 10
5.5937498497
 20
-9.2658783204
 10
5.5317805852
 20
-9.2443368768
 10
5.4713538437
 20
-9.218771213
 10
5.4127341524
 20
-9.1892921648
 10
5.3561715247
 20
-9.1560241378
 10
5.3018922756
 20
-9.1190959841
 10
5.2501506304
 20
-9.0786764654
 10
5.2012164455
 20
-9.034982712
 10
5.1554500174
 20
-8.9883817707
 10
5.1128607433
 20
-8.9389312446
 10
5.0732577372
 20
-8.8863315366
 10
5.0367758585
 20
-8.8305321754
 10
5.0038276688
 20
-8.7719092649
 10
4.9747048615
 20
-8.7107667873
 10
4.9495777152
 20
-8.647203794
 10
4.9287214677
 20
-8.5816129764
 10
4.9124386252
 20
-8.5148135104
 10
4.9008155165
 20
-8.4473058595
 10
4.893841921
 20
-8.3792321422
 10
4.8915349086
 20
-8.3109118419
  0
LWPOLYLINE
  5
4C8
100
AcDbEntity
  8
RACCORDO
100
AcDbPolyline
 62
253
  6
CONTINUOUS
 90
31
 70
0
 10
6.6294979096
 20
-9.9523133765
 10
6.5170924393
 20
-9.9980484011
 10
6.4035868343
 20
-10.0360080663
 10
6.2889810947
 20
-10.0661923721
 10
6.1730069991
 20
-10.0885802476
 10
6.0559327688
 20
-10.1031927638
 10
5.9385630678
 20
-10.1100931334
 10
5.8206216206
 20
-10.1092703416
 10
5.7023847026
 20
-10.1007354032
 10
5.5854858038
 20
-10.0845845764
 10
5.4699911354
 20
-10.0607164223
 10
5.3558344863
 20
-10.0292323797
 10
5.2444507132
 20
-9.9905330233
 10
5.1358666179
 20
-9.9445268976
 10
5.0300553987
 20
-9.891305458
 10
4.9283715072
 20
-9.8315436448
 10
4.8308435746
 20
-9.7651252158
 10
4.7374429698
 20
-9.6921664131
 10
4.6494382505
 20
-9.6136909033
 10
4.5670916644
 20
-9.5299934619
 10
4.4901409638
 20
-9.4407793133
 10
4.4190679636
 20
-9.3461877975
 10
4.3535744864
 20
-9.2458304403
 10
4.2939587095
 20
-9.1400957158
 10
4.2415969797
 20
-9.0302883863
 10
4.1966094699
 20
-8.9160143856
 10
4.1588760072
 20
-8.79766778
 10
4.1294124196
 20
-8.6777355294
 10
4.1085573163
 20
-8.5570466208
 10
4.0959720881
 20
-8.4347720673
 10
4.091656735
 20
-8.3109118689
  0
LWPOLYLINE
  5
4C9
100
AcDbEntity
  8
RACCORDO
100
AcDbPolyline
 62
253
  6
CONTINUOUS
 90
18
 70
0
 10
-16.4912724559
 20
8.9911201511
 10
-16.5784125406
 20
8.9873030359
 10
-16.6648878761
 20
8.9759069462
 10
-16.7500406736
 20
8.9570187943
 10
-16.8332231955
 20
8.9307825562
 10
-16.913802741
 20
8.8973979482
 10
-16.9911664339
 20
8.8571188441
 10
-17.0647257606
 20
8.8102517417
 10
-17.1339212256
 20
8.7571533009
 10
-17.1982266035
 20
8.6982273022
 10
-17.2571526622
 20
8.633921992
 10
-17.3102511595
 20
8.5647266037
 10
-17.3571183185
 20
8.4911673614
 10
-17.3973974573
 20
8.4138038141
 10
-17.4307821158
 20
8.333224427
 10
-17.4570184707
 20
8.2500419033
 10
-17.4759067744
 20
8.1648888733
 10
-17.4768549982
 20
8.1576936438
  0
LINE
  5
4CA
100
AcDbEntity
  8
0
100
AcDbLine
 62
7
  6
CONTINUOUS
 10
-18.3523612067
 20
9.7523612067
 11
-15.2023612067
 21
9.7523612067
  0
LINE
  5
4CB
100
AcDbEntity
  8
0
100
AcDbLine
 62
7
  6
CONTINUOUS
 10
15.2023612067
 20
9.7523612067
 11
18.3523612067
 21
9.7523612067
  0
LINE
  5
4CC
100
AcDbEntity
  8
0
100
AcDbLine
 62
7
  6
CONTINUOUS
 10
0.35
 20
9.7575887337
 11
-0.35
 21
9.7575887337
  0
LINE
  5
4CD
100
AcDbEntity
  8
0
100
AcDbLine
 62
7
  6
CONTINUOUS
 10
18.5476502163
 20
10.1476387933
 11
15.2023612067
 21
10.1476387933
  0
LINE
  5
4CE
100
AcDbEntity
  8
0
100
AcDbLine
 62
7
  6
CONTINUOUS
 10
-15.2023612067
 20
10.1476387933
 11
-18.5476502163
 21
10.1476387933
  0
LINE
  5
4CF
100
AcDbEntity
  8
0
100
AcDbLine
 62
7
  6
CONTINUOUS
 10
18.6000114231
 20
10.2
 11
15.15
 21
10.2
  0
LINE
  5
4D0
100
AcDbEntity
  8
0
100
AcDbLine
 62
7
  6
CONTINUOUS
 10
-15.15
 20
10.2
 11
-18.6000114231
 21
10.2
  0
LINE
  5
4D1
100
AcDbEntity
  8
0
100
AcDbLine
 62
7
  6
CONTINUOUS
 10
2.1672241604
 20
10.4
 11
0.495840063
 21
10.4
  0
LINE
  5
4D2
100
AcDbEntity
  8
0
100
AcDbLine
 62
7
  6
CONTINUOUS
 10
-0.495840063
 20
10.4
 11
-2.1672241604
 21
10.4
  0
LINE
  5
4D3
100
AcDbEntity
  8
0
100
AcDbLine
 62
7
  6
CONTINUOUS
 10
1.6412765528
 20
10.65
 11
1.0901949367
 21
10.65
  0
LINE
  5
4D4
100
AcDbEntity
  8
0
100
AcDbLine
 62
7
  6
CONTINUOUS
 10
-1.0901949367
 20
10.65
 11
-1.6412765528
 21
10.65
  0
LINE
  5
4D5
100
AcDbEntity
  8
0
100
AcDbLine
 62
7
  6
CONTINUOUS
 10
1.6412765528
 20
11.35
 11
1.0901949367
 21
11.35
  0
LINE
  5
4D6
100
AcDbEntity
  8
0
100
AcDbLine
 62
7
  6
CONTINUOUS
 10
-1.0901949367
 20
11.35
 11
-1.6412765528
 21
11.35
  0
LINE
  5
4D7
100
AcDbEntity
  8
0
100
AcDbLine
 62
7
  6
CONTINUOUS
 10
-8.35
 20
11.3587234472
 11
-7.65
 21
11.3587234472
  0
LINE
  5
4D8
100
AcDbEntity
  8
0
100
AcDbLine
 62
7
  6
CONTINUOUS
 10
-2.1672241604
 20
11.6
 11
-0.495840063
 21
11.6
  0
LINE
  5
4D9
100
AcDbEntity
  8
0
100
AcDbLine
 62
7
  6
CONTINUOUS
 10
0.495840063
 20
11.6
 11
2.1672241604
 21
11.6
  0
LINE
  5
4DA
100
AcDbEntity
  8
0
100
AcDbLine
 62
7
  6
CONTINUOUS
 10
-7.65
 20
11.7575887337
 11
-8.35
 21
11.7575887337
  0
LINE
  5
4DB
100
AcDbEntity
  8
0
100
AcDbLine
 62
7
  6
CONTINUOUS
 10
-8.5197234842
 20
12.4802765158
 11
-9.0901949367
 21
12.65
  0
LINE
  5
4DC
100
AcDbEntity
  8
0
100
AcDbLine
 62
7
  6
CONTINUOUS
 10
-1.0901949367
 20
10.65
 11
-0.5197234842
 21
10.4802765158
  0
LINE
  5
4DD
100
AcDbEntity
  8
0
100
AcDbLine
 62
7
  6
CONTINUOUS
 10
-7.4802765158
 20
13.5197234842
 11
-6.9098050633
 21
13.35
  0
LINE
  5
4DE
100
AcDbEntity
  8
0
100
AcDbLine
 62
7
  6
CONTINUOUS
 10
1.0901949367
 20
11.35
 11
0.5197234842
 21
11.5197234842
  0
LINE
  5
4DF
100
AcDbEntity
  8
0
100
AcDbLine
 62
7
  6
CONTINUOUS
 10
-10.2738174026
 20
19.0203018545
 11
-10.3
 21
19.0388440264
  0
LINE
  5
4E0
100
AcDbEntity
  8
RACCORDO
100
AcDbLine
 62
253
  6
CONTINUOUS
 10
5.000076164
 20
8.4300274238
 11
5.0960790211
 21
8.3340245667
  0
LINE
  5
4E1
100
AcDbEntity
  8
RACCORDO
100
AcDbLine
 62
253
  6
CONTINUOUS
 10
17.424677346
 20
-3.9247534984
 11
17.65
 21
-4.1500761524
  0
LINE
  5
4E2
100
AcDbEntity
  8
RACCORDO
100
AcDbLine
 62
253
  6
CONTINUOUS
 10
9.0752465016
 20
4.424677346
 11
8.8499238476
 21
4.65
  0
LINE
  5
4E3
100
AcDbEntity
  8
DRAFT
100
AcDbLine
 62
7
  6
CONTINUOUS
 10
10.9156503509
 20
4.65
 11
10.9503122249
 21
4.615338126
  0
LINE
  5
4E4
100
AcDbEntity
  8
0
100
AcDbLine
 62
253
  6
CONTINUOUS
 10
-4.324948937
 20
21.1749870139
 11
-4.4541065803
 21
21.3041446572
  0
LINE
  5
4E5
100
AcDbEntity
  8
0
100
AcDbLine
 62
7
  6
CONTINUOUS
 10
22.9121304186
 20
-8.9238174026
 11
22.9357338552
 21
-8.95
  0
LINE
  5
4E6
100
AcDbEntity
  8
RACCORDO
100
AcDbLine
 62
253
  6
CONTINUOUS
 10
16.9799711546
 20
-8.2626190941
 11
16.9423458069
 21
-8.2
  0
LINE
  5
4E7
100
AcDbEntity
  8
RACCORDO
100
AcDbLine
 62
253
  6
CONTINUOUS
 10
17.2510382299
 20
-8.0411668863
 11
16.9935584139
 21
-7.6126485113
  0
LINE
  5
4E8
100
AcDbEntity
  8
0
100
AcDbLine
 62
7
  6
CONTINUOUS
 10
3.3317757036
 20
19.1112481935
 11
3.2
 21
19.3910491073
  0
LWPOLYLINE
  5
4E9
100
AcDbEntity
  8
RACCORDO
100
AcDbPolyline
 62
7
  6
CONTINUOUS
 90
25
 70
0
 10
6.7381144729
 20
7.6126485113
 10
6.7198697054
 20
7.6527490936
 10
6.6997230283
 20
7.6919088452
 10
6.6776744416
 20
7.729903475
 10
6.6534081431
 20
7.7667023885
 10
6.627239935
 20
7.8019607918
 10
6.6001172237
 20
7.8350639849
 10
6.5722555895
 20
7.8656845082
 10
6.5434394522
 20
7.894074703
 10
6.5139694772
 20
7.9205405377
 10
6.4840042231
 20
7.9450130711
 10
6.4533851314
 20
7.9675510352
 10
6.4219371917
 20
7.9885636159
 10
6.3894953814
 20
8.0081271132
 10
6.3562247231
 20
8.0260589844
 10
6.322445275
 20
8.0423197559
 10
6.2881522093
 20
8.0568907444
 10
6.2533503539
 20
8.0697571174
 10
6.2183742495
 20
8.08090431
 10
6.183218018
 20
8.0903427616
 10
6.1478875375
 20
8.0980832065
 10
6.1127349839
 20
8.1041364392
 10
6.0778777491
 20
8.1085372789
 10
6.0431984411
 20
8.111333259
 10
6.0086970599
 20
8.1125723589
  0
LINE
  5
4EA
100
AcDbEntity
  8
0
100
AcDbLine
 62
7
  6
CONTINUOUS
 10
12.65
 20
-1.0901949367
 11
12.4802765158
 21
-0.5197234842
  0
LINE
  5
4EB
100
AcDbEntity
  8
0
100
AcDbLine
 62
7
  6
CONTINUOUS
 10
15.2023612067
 20
-9.7523612067
 11
15.1971252854
 21
-9.1471252854
  0
LINE
  5
4EC
100
AcDbEntity
  8
0
100
AcDbLine
 62
7
  6
CONTINUOUS
 10
12.65
 20
1.9262640523
 11
12.65
 21
1.0901949367
  0
LINE
  5
4ED
100
AcDbEntity
  8
0
100
AcDbLine
 62
7
  6
CONTINUOUS
 10
12.65
 20
-1.0901949367
 11
12.65
 21
-1.9262640523
  0
LINE
  5
4EE
100
AcDbEntity
  8
0
100
AcDbLine
 62
7
  6
CONTINUOUS
 10
13.35
 20
1.9262640523
 11
13.35
 21
1.0901949367
  0
LINE
  5
4EF
100
AcDbEntity
  8
0
100
AcDbLine
 62
7
  6
CONTINUOUS
 10
13.35
 20
-1.0901949367
 11
13.35
 21
-1.9262640523
  0
LINE
  5
4F0
100
AcDbEntity
  8
0
100
AcDbLine
 62
7
  6
CONTINUOUS
 10
14.2424112663
 20
0.35
 11
14.2424112663
 21
-0.35
  0
LINE
  5
4F1
100
AcDbEntity
  8
0
100
AcDbLine
 62
7
  6
CONTINUOUS
 10
14.6412765528
 20
-0.35
 11
14.6412765528
 21
0.35
  0
LINE
  5
4F2
100
AcDbEntity
  8
0
100
AcDbLine
 62
7
  6
CONTINUOUS
 10
15.1971252854
 20
9.1471252854
 11
15.2023612067
 21
9.7523612067
  0
LINE
  5
4F3
100
AcDbEntity
  8
RACCORDO
100
AcDbLine
 62
253
  6
CONTINUOUS
 10
16.7224913385
 20
8.3340245667
 11
16.7685203999
 21
8.5
  0
LINE
  5
4F4
100
AcDbEntity
  8
RACCORDO
100
AcDbLine
 62
253
  6
CONTINUOUS
 10
16.9799711546
 20
8.2626190941
 11
17.0260002159
 21
8.4285945274
  0
LINE
  5
4F5
100
AcDbEntity
  8
RACCORDO
100
AcDbLine
 62
253
  6
CONTINUOUS
 10
16.9935584139
 20
8.1125723589
 11
17.0178042446
 21
8.2
  0
LINE
  5
4F6
100
AcDbEntity
  8
RACCORDO
100
AcDbLine
 62
253
  6
CONTINUOUS
 10
17.2510382299
 20
8.0411668863
 11
17.2752840606
 21
8.1285945274
  0
LINE
  5
4F7
100
AcDbEntity
  8
0
100
AcDbLine
 62
7
  6
CONTINUOUS
 10
13.5197234842
 20
-0.5197234842
 11
13.35
 21
-1.0901949367
  0
LINE
  5
4F8
100
AcDbEntity
  8
0
100
AcDbLine
 62
7
  6
CONTINUOUS
 10
-3.2043253562
 20
-20.7543253562
 11
-3.4207897551
 21
-20.9707897551
  0
LINE
  5
4F9
100
AcDbEntity
  8
0
100
AcDbLine
 62
253
  6
CONTINUOUS
 10
-3.3249870139
 20
-22.174948937
 11
-3.4541446572
 21
-22.3041065803
  0
LINE
  5
4FA
100
AcDbEntity
  8
RACCORDO
100
AcDbLine
 62
7
  6
CONTINUOUS
 10
9.9125723589
 20
-9.3028287009
 11
10.0
 21
-9.25
  0
LINE
  5
4FB
100
AcDbEntity
  8
0
100
AcDbLine
 62
7
  6
CONTINUOUS
 10
6.9098050633
 20
-12.65
 11
7.4802765158
 21
-12.4802765158
  0
LINE
  5
4FC
100
AcDbEntity
  8
0
100
AcDbLine
 62
7
  6
CONTINUOUS
 10
0.35
 20
12.2424112663
 11
-0.35
 21
12.2424112663
  0
LINE
  5
4FD
100
AcDbEntity
  8
0
100
AcDbLine
 62
7
  6
CONTINUOUS
 10
-6.0737359477
 20
12.65
 11
-6.9098050633
 21
12.65
  0
LINE
  5
4FE
100
AcDbEntity
  8
0
100
AcDbLine
 62
7
  6
CONTINUOUS
 10
-9.0901949367
 20
12.65
 11
-9.9262640523
 21
12.65
  0
LINE
  5
4FF
100
AcDbEntity
  8
0
100
AcDbLine
 62
7
  6
CONTINUOUS
 10
-6.0737359477
 20
13.35
 11
-6.9098050633
 21
13.35
  0
LINE
  5
500
100
AcDbEntity
  8
0
100
AcDbLine
 62
7
  6
CONTINUOUS
 10
-9.0901949367
 20
13.35
 11
-9.9262640523
 21
13.35
  0
LINE
  5
501
100
AcDbEntity
  8
0
100
AcDbLine
 62
7
  6
CONTINUOUS
 10
-7.65
 20
14.2424112663
 11
-8.35
 21
14.2424112663
  0
LINE
  5
502
100
AcDbEntity
  8
0
100
AcDbLine
 62
7
  6
CONTINUOUS
 10
-8.35
 20
14.6412765528
 11
-7.65
 21
14.6412765528
  0
LINE
  5
503
100
AcDbEntity
  8
RACCORDO
100
AcDbLine
 62
253
  6
CONTINUOUS
 10
4.8915348911
 20
15.091656735
 11
-5.3939221352
 21
15.091656735
  0
LWPOLYLINE
  5
504
100
AcDbEntity
  8
0
100
AcDbPolyline
 62
7
  6
CONTINUOUS
 90
10
 70
0
 10
0.35
 20
12.9262640523
 10
0.2723581071
 20
12.9280809817
 10
0.1946482719
 20
12.9294436788
 10
0.1168704945
 20
12.9303521435
 10
0.0389794802
 20
12.9308063759
 10
-0.0389794765
 20
12.9308063759
 10
-0.1168704912
 20
12.9303521435
 10
-0.1946482694
 20
12.9294436788
 10
-0.2723581056
 20
12.9280809818
 10
-0.35
 20
12.9262640523
  0
LINE
  5
505
100
AcDbEntity
  8
RACCORDO
100
AcDbLine
 62
253
  6
CONTINUOUS
 10
18.675657144
 20
8.2267994977
 11
18.96194201
 21
8.1372809948
  0
LINE
  5
506
100
AcDbEntity
  8
0
100
AcDbLine
 62
7
  6
CONTINUOUS
 10
-3.2043253562
 20
20.7543253562
 11
-3.4207897551
 21
20.9707897551
  0
LINE
  5
507
100
AcDbEntity
  8
0
100
AcDbLine
 62
253
  6
CONTINUOUS
 10
-3.3249870139
 20
22.174948937
 11
-3.4541446572
 21
22.3041065803
  0
LINE
  5
508
100
AcDbEntity
  8
0
100
AcDbLine
 62
7
  6
CONTINUOUS
 10
13.5197234842
 20
0.5197234842
 11
13.35
 21
1.0901949367
  0
LINE
  5
509
100
AcDbEntity
  8
RACCORDO
100
AcDbLine
 62
253
  6
CONTINUOUS
 10
16.7685203999
 20
-8.5
 11
16.7224913385
 21
-8.3340245667
  0
LINE
  5
50A
100
AcDbEntity
  8
RACCORDO
100
AcDbLine
 62
253
  6
CONTINUOUS
 10
17.0260002159
 20
-8.4285945274
 11
16.9799711546
 21
-8.2626190941
  0
LINE
  5
50B
100
AcDbEntity
  8
RACCORDO
100
AcDbLine
 62
253
  6
CONTINUOUS
 10
17.0178042446
 20
-8.2
 11
16.9935584139
 21
-8.1125723589
  0
LINE
  5
50C
100
AcDbEntity
  8
RACCORDO
100
AcDbLine
 62
253
  6
CONTINUOUS
 10
17.2752840606
 20
-8.1285945274
 11
17.2510382299
 21
-8.0411668863
  0
LWPOLYLINE
  5
50D
100
AcDbEntity
  8
RACCORDO
100
AcDbPolyline
 62
253
  6
CONTINUOUS
 90
16
 70
0
 10
17.424677346
 20
3.9247534984
 10
17.4219065817
 20
3.9771633518
 10
17.4136567893
 20
4.0289954264
 10
17.4000189439
 20
4.0796784997
 10
17.3811408254
 20
4.1286597792
 10
17.3572319024
 20
4.1753931828
 10
17.3285669311
 20
4.2193482996
 10
17.2954747751
 20
4.2600352762
 10
17.2583181116
 20
4.2970206848
 10
17.2174956618
 20
4.329912266
 10
17.173390684
 20
4.3583866659
 10
17.126546279
 20
4.3820797599
 10
17.0776795566
 20
4.4006664514
 10
17.0274171402
 20
4.4139911024
 10
16.9762554271
 20
4.4220017304
 10
16.9247534984
 20
4.424677346
  0
LINE
  5
50E
100
AcDbEntity
  8
0
100
AcDbLine
 62
7
  6
CONTINUOUS
 10
15.15
 20
10.2
 11
15.15
 21
9.1
  0
LINE
  5
50F
100
AcDbEntity
  8
0
100
AcDbLine
 62
7
  6
CONTINUOUS
 10
15.15
 20
-9.1
 11
15.15
 21
-10.2
  0
LINE
  5
510
100
AcDbEntity
  8
0
100
AcDbLine
 62
7
  6
CONTINUOUS
 10
15.2023612067
 20
10.1476387933
 11
15.2023612067
 21
9.7523612067
  0
LINE
  5
511
100
AcDbEntity
  8
0
100
AcDbLine
 62
7
  6
CONTINUOUS
 10
15.2023612067
 20
-9.7523612067
 11
15.2023612067
 21
-10.1476387933
  0
LINE
  5
512
100
AcDbEntity
  8
DRAFT
100
AcDbLine
 62
7
  6
CONTINUOUS
 10
16.0
 20
9.0
 11
16.0
 21
8.5
  0
LINE
  5
513
100
AcDbEntity
  8
RACCORDO
100
AcDbLine
 62
253
  6
CONTINUOUS
 10
16.4912724557
 20
-8.5
 11
16.4912724472
 21
-8.9911201511
  0
LINE
  5
514
100
AcDbEntity
  8
RACCORDO
100
AcDbLine
 62
253
  6
CONTINUOUS
 10
16.4912724559
 20
8.5
 11
16.4912724559
 21
8.9911201511
  0
LINE
  5
515
100
AcDbEntity
  8
RACCORDO
100
AcDbLine
 62
253
  6
CONTINUOUS
 10
16.7224913385
 20
8.3340245667
 11
16.7224913385
 21
8.2
  0
LINE
  5
516
100
AcDbEntity
  8
RACCORDO
100
AcDbLine
 62
253
  6
CONTINUOUS
 10
16.7224913385
 20
-8.2
 11
16.7224913385
 21
-8.3340245667
  0
LINE
  5
517
100
AcDbEntity
  8
RACCORDO
100
AcDbLine
 62
253
  6
CONTINUOUS
 10
16.9247534984
 20
-4.424677346
 11
16.9247534984
 21
4.424677346
  0
LINE
  5
518
100
AcDbEntity
  8
RACCORDO
100
AcDbLine
 62
253
  6
CONTINUOUS
 10
16.9935584139
 20
8.1125723589
 11
16.9935584139
 21
7.6126485113
  0
LINE
  5
519
100
AcDbEntity
  8
RACCORDO
100
AcDbLine
 62
253
  6
CONTINUOUS
 10
16.9935584139
 20
-7.6126485113
 11
16.9935584139
 21
-8.1125723589
  0
LINE
  5
51A
100
AcDbEntity
  8
RACCORDO
100
AcDbLine
 62
253
  6
CONTINUOUS
 10
17.424677346
 20
-3.9247534984
 11
17.424677346
 21
3.9247534984
  0
LINE
  5
51B
100
AcDbEntity
  8
RACCORDO
100
AcDbLine
 62
7
  6
CONTINUOUS
 10
17.5
 20
-8.2000109662
 11
17.5
 21
-8.1437867237
  0
LINE
  5
51C
100
AcDbEntity
  8
RACCORDO
100
AcDbLine
 62
7
  6
CONTINUOUS
 10
17.5
 20
8.1437867237
 11
17.5
 21
8.2000109662
  0
LINE
  5
51D
100
AcDbEntity
  8
RACCORDO
100
AcDbLine
 62
7
  6
CONTINUOUS
 10
17.65
 20
-4.1500761524
 11
17.65
 21
4.1500761524
  0
LINE
  5
51E
100
AcDbEntity
  8
0
100
AcDbLine
 62
7
  6
CONTINUOUS
 10
17.7
 20
9.1
 11
17.7
 21
8.0236145999
  0
LINE
  5
51F
100
AcDbEntity
  8
0
100
AcDbLine
 62
7
  6
CONTINUOUS
 10
17.7
 20
-8.0236145999
 11
17.7
 21
-9.1
  0
LINE
  5
520
100
AcDbEntity
  8
0
100
AcDbLine
 62
7
  6
CONTINUOUS
 10
17.7471252854
 20
9.1471252854
 11
17.7471252854
 21
7.9888343558
  0
LINE
  5
521
100
AcDbEntity
  8
0
100
AcDbLine
 62
7
  6
CONTINUOUS
 10
17.7471252854
 20
-7.9952988717
 11
17.7471252854
 21
-9.1471252854
  0
LINE
  5
522
100
AcDbEntity
  8
RACCORDO
100
AcDbLine
 62
253
  6
CONTINUOUS
 10
21.3201283274
 20
5.5962108915
 11
21.0626485113
 21
5.1676925165
  0
LINE
  5
523
100
AcDbEntity
  8
0
100
AcDbLine
 62
7
  6
CONTINUOUS
 10
15.15
 20
-10.2
 11
15.2023612067
 21
-10.1476387933
  0
LWPOLYLINE
  5
524
100
AcDbEntity
  8
RACCORDO
100
AcDbPolyline
 62
253
  6
CONTINUOUS
 90
13
 70
0
 10
21.3201283274
 20
-5.5962108915
 10
21.3559020077
 20
-5.5725619592
 10
21.3895183029
 20
-5.5459345141
 10
21.4207299073
 20
-5.5165244471
 10
21.4493072057
 20
-5.4845481199
 10
21.4750399629
 20
-5.4502407734
 10
21.49773887
 20
-5.4138547974
 10
21.5172369374
 20
-5.3756578735
 10
21.5333907232
 20
-5.3359310059
 10
21.5460813885
 20
-5.2949664541
 10
21.5552155716
 20
-5.2530655831
 10
21.5607260749
 20
-5.210536646
 10
21.5625723589
 20
-5.1676925165
  0
LINE
  5
525
100
AcDbEntity
  8
RACCORDO
100
AcDbLine
 62
253
  6
CONTINUOUS
 10
16.9935584139
 20
-7.6126485113
 11
21.0626485113
 21
-5.1676925165
  0
LINE
  5
526
100
AcDbEntity
  8
RACCORDO
100
AcDbLine
 62
253
  6
CONTINUOUS
 10
17.2510382299
 20
-8.0411668863
 11
21.3201283274
 21
-5.5962108915
  0
LINE
  5
527
100
AcDbEntity
  8
RACCORDO
100
AcDbLine
 62
253
  6
CONTINUOUS
 10
16.9799711546
 20
-8.2626190941
 11
17.0943824648
 21
-8.1938738434
  0
LINE
  5
528
100
AcDbEntity
  8
RACCORDO
100
AcDbLine
 62
7
  6
CONTINUOUS
 10
17.2752840606
 20
-8.1285945274
 11
21.4075559685
 21
-5.6456750709
  0
LINE
  5
529
100
AcDbEntity
  8
RACCORDO
100
AcDbLine
 62
7
  6
CONTINUOUS
 10
17.0260002159
 20
-8.4285945274
 11
21.6575559685
 21
-5.6456750709
  0
LINE
  5
52A
100
AcDbEntity
  8
0
100
AcDbLine
 62
7
  6
CONTINUOUS
 10
9.0901949367
 20
-13.35
 11
8.5197234842
 21
-13.5197234842
  0
LINE
  5
52B
100
AcDbEntity
  8
RACCORDO
100
AcDbLine
 62
253
  6
CONTINUOUS
 10
4.091656735
 20
15.8915348911
 11
-5.0349810746
 21
15.8915348911
  0
LINE
  5
52C
100
AcDbEntity
  8
RACCORDO
100
AcDbLine
 62
7
  6
CONTINUOUS
 10
-4.9896013553
 20
16.0
 11
4.2001218439
 21
16.0
  0
LINE
  5
52D
100
AcDbEntity
  8
0
100
AcDbLine
 62
253
  6
CONTINUOUS
 10
3.0
 20
17.4
 11
-3.0
 21
17.4
  0
LWPOLYLINE
  5
52E
100
AcDbEntity
  8
0
100
AcDbPolyline
 62
7
  6
CONTINUOUS
 90
14
 70
0
 10
-23.3398118692
 20
21.2833090288
 10
-23.2242644175
 20
21.2644293537
 10
-23.1077131633
 20
21.2533180393
 10
-22.9906797864
 20
21.2500248198
 10
-22.8736881246
 20
21.254564436
 10
-22.757261829
 20
21.2669165691
 10
-22.6419220202
 20
21.2870259317
 10
-22.5281849558
 20
21.3148025152
 10
-22.4165597196
 20
21.350121993
 10
-22.3075459428
 20
21.3928262764
 10
-22.2016315681
 20
21.4427242228
 10
-22.0992906652
 20
21.4995924908
 10
-22.0009813092
 20
21.56317654
 10
-21.9071435302
 20
21.6331917705
  0
LINE
  5
52F
100
AcDbEntity
  8
0
100
AcDbLine
 62
7
  6
CONTINUOUS
 10
-23.4538383317
 20
21.3098725593
 11
-23.3398118692
 21
21.2833090288
  0
LWPOLYLINE
  5
530
100
AcDbEntity
  8
RACCORDO
100
AcDbPolyline
 62
7
  6
CONTINUOUS
 90
19
 70
0
 10
17.7578840466
 20
7.9888343558
 10
17.810404777
 20
7.9607041584
 10
17.8646578288
 20
7.938169357
 10
17.920643202
 20
7.9212299514
 10
17.9791754454
 20
7.9098193848
 10
18.0394400102
 20
7.9040042141
 10
18.0989932504
 20
7.9039841105
 10
18.1573569321
 20
7.9099148451
 10
18.2150092893
 20
7.9216406469
 10
18.270941378
 20
7.9388938741
 10
18.3253517488
 20
7.9617743906
 10
18.3780418512
 20
7.9901823325
 10
18.4274070899
 20
8.023550467
 10
18.4735078793
 20
8.062350774
 10
18.5162838049
 20
8.1061112737
 10
18.5539490281
 20
8.1528487936
 10
18.5859082693
 20
8.2019022763
 10
18.6127568081
 20
8.2539327792
 10
18.6344946444
 20
8.3089403024
  0
LWPOLYLINE
  5
531
100
AcDbEntity
  8
RACCORDO
100
AcDbPolyline
 62
253
  6
CONTINUOUS
 90
25
 70
0
 10
17.794111631
 20
7.8916144593
 10
17.8353331625
 20
7.8689837151
 10
17.8781804947
 20
7.8496571453
 10
17.9223892687
 20
7.8337492916
 10
17.9676805984
 20
7.8213549552
 10
18.0137825713
 20
7.8125434289
 10
18.0604329818
 20
7.8073634239
 10
18.1073642543
 20
7.8058474174
 10
18.1542716123
 20
7.8080078865
 10
18.200835748
 20
7.8138272712
 10
18.2469084267
 20
7.8232967526
 10
18.2920686678
 20
7.8363393343
 10
18.3356247924
 20
7.8526930448
 10
18.3774483125
 20
7.8722037778
 10
18.4172380055
 20
7.8946221041
 10
18.4541933205
 20
7.9192709536
 10
18.4878116517
 20
7.9454049613
 10
18.5185902055
 20
7.9729925956
 10
18.5472309219
 20
8.0024530543
 10
18.5734507731
 20
8.0333786931
 10
18.5973830622
 20
8.0658032636
 10
18.6199265647
 20
8.101186451
 10
18.6409597945
 20
8.1401086503
 10
18.6596883557
 20
8.1820099394
 10
18.6756571435
 20
8.2267995
  0
LWPOLYLINE
  5
532
100
AcDbEntity
  8
RACCORDO
100
AcDbPolyline
 62
253
  6
CONTINUOUS
 90
10
 70
0
 10
17.2510382299
 20
8.0411668863
 10
17.2248266518
 20
8.055860173
 10
17.1977797733
 20
8.0689526566
 10
17.169995283
 20
8.0803970495
 10
17.1415735335
 20
8.0901520164
 10
17.1126171793
 20
8.0981823241
 10
17.0832308056
 20
8.1044589686
 10
17.053520551
 20
8.1089592797
 10
17.0235937236
 20
8.1116670031
 10
16.9935584139
 20
8.1125723589
  0
LWPOLYLINE
  5
533
100
AcDbEntity
  8
RACCORDO
100
AcDbPolyline
 62
253
  6
CONTINUOUS
 90
10
 70
0
 10
16.9799711546
 20
8.2626190941
 10
16.9537595765
 20
8.2773123808
 10
16.926712698
 20
8.2904048645
 10
16.8989282076
 20
8.3018492573
 10
16.8705064581
 20
8.3116042242
 10
16.8415501039
 20
8.3196345319
 10
16.8121637303
 20
8.3259111764
 10
16.7824534756
 20
8.3304114875
 10
16.7525266482
 20
8.3331192109
 10
16.7224913385
 20
8.3340245667
  0
LINE
  5
534
100
AcDbEntity
  8
RACCORDO
100
AcDbLine
 62
253
  6
CONTINUOUS
 10
21.0626485113
 20
5.1676925165
 11
16.9935584139
 21
7.6126485113
  0
LINE
  5
535
100
AcDbEntity
  8
RACCORDO
100
AcDbLine
 62
253
  6
CONTINUOUS
 10
21.3201283274
 20
5.5962108915
 11
17.2510382299
 21
8.0411668863
  0
LINE
  5
536
100
AcDbEntity
  8
RACCORDO
100
AcDbLine
 62
253
  6
CONTINUOUS
 10
17.0943824648
 20
8.1938738434
 11
16.9799711546
 21
8.2626190941
  0
LINE
  5
537
100
AcDbEntity
  8
RACCORDO
100
AcDbLine
 62
7
  6
CONTINUOUS
 10
21.4075559685
 20
5.6456750709
 11
17.2752840606
 21
8.1285945274
  0
LINE
  5
538
100
AcDbEntity
  8
RACCORDO
100
AcDbLine
 62
7
  6
CONTINUOUS
 10
17.7578840466
 20
7.9888343558
 11
17.0260002159
 21
8.4285945274
  0
LINE
  5
539
100
AcDbEntity
  8
RACCORDO
100
AcDbLine
 62
7
  6
CONTINUOUS
 10
21.5877357088
 20
5.6061726685
 11
18.2559621269
 21
7.6083725526
  0
LINE
  5
53A
100
AcDbEntity
  8
RACCORDO
100
AcDbLine
 62
7
  6
CONTINUOUS
 10
18.2559621269
 20
7.6083725526
 11
18.1058925627
 21
7.6997208471
  0
LINE
  5
53B
100
AcDbEntity
  8
RACCORDO
100
AcDbLine
 62
7
  6
CONTINUOUS
 10
18.1058925627
 20
7.6997208471
 11
17.9131520039
 21
7.818122712
  0
LINE
  5
53C
100
AcDbEntity
  8
RACCORDO
100
AcDbLine
 62
7
  6
CONTINUOUS
 10
17.9131520039
 20
7.818122712
 11
17.7941116314
 21
7.89161446
  0
LWPOLYLINE
  5
53D
100
AcDbEntity
  8
RACCORDO
100
AcDbPolyline
 62
7
  6
CONTINUOUS
 90
6
 70
0
 10
21.834332279
 20
5.2120540063
 10
21.8387958893
 20
5.2092527518
 10
21.8432235493
 20
5.2064235999
 10
21.8476141694
 20
5.203567062
 10
21.8519666578
 20
5.2006836716
 10
21.8562799213
 20
5.1977739849
  0
LINE
  5
53E
100
AcDbEntity
  8
RACCORDO
100
AcDbLine
 62
7
  6
CONTINUOUS
 10
21.8562799213
 20
5.1977739849
 11
21.9
 21
5.1676192421
  0
LINE
  5
53F
100
AcDbEntity
  8
RACCORDO
100
AcDbLine
 62
7
  6
CONTINUOUS
 10
16.0
 20
9.0
 11
16.0088798489
 21
8.9911201511
  0
LINE
  5
540
100
AcDbEntity
  8
0
100
AcDbLine
 62
7
  6
CONTINUOUS
 10
15.15
 20
10.2
 11
15.2023612067
 21
10.1476387933
  0
LINE
  5
541
100
AcDbEntity
  8
RACCORDO
100
AcDbLine
 62
253
  6
CONTINUOUS
 10
21.0626485113
 20
-5.1676925165
 11
21.3201283274
 21
-5.5962108915
  0
LINE
  5
542
100
AcDbEntity
  8
0
100
AcDbLine
 62
7
  6
CONTINUOUS
 10
18.3523612067
 20
9.7523612067
 11
18.3523612067
 21
7.9763365773
  0
LINE
  5
543
100
AcDbEntity
  8
0
100
AcDbLine
 62
7
  6
CONTINUOUS
 10
18.3523612067
 20
-7.6316364414
 11
18.3523612067
 21
-9.7523612067
  0
LINE
  5
544
100
AcDbEntity
  8
0
100
AcDbLine
 62
7
  6
CONTINUOUS
 10
18.8476387933
 20
-9.8476502163
 11
18.8476387933
 21
-7.3340436442
  0
LINE
  5
545
100
AcDbEntity
  8
0
100
AcDbLine
 62
7
  6
CONTINUOUS
 10
18.8476387933
 20
8.770581369
 11
18.8476387933
 21
9.8476502163
  0
LINE
  5
546
100
AcDbEntity
  8
0
100
AcDbLine
 62
7
  6
CONTINUOUS
 10
18.9
 20
-9.9000114231
 11
18.9
 21
-7.3025818571
  0
LINE
  5
547
100
AcDbEntity
  8
0
100
AcDbLine
 62
7
  6
CONTINUOUS
 10
18.9
 20
8.8535672184
 11
18.9
 21
9.9000114231
  0
LINE
  5
548
100
AcDbEntity
  8
0
100
AcDbLine
 62
7
  6
CONTINUOUS
 10
9.3261825974
 20
-19.3364128264
 11
9.3
 21
-19.3721152439
  0
LWPOLYLINE
  5
549
100
AcDbEntity
  8
RACCORDO
100
AcDbPolyline
 62
253
  6
CONTINUOUS
 90
7
 70
0
 10
21.5614143058
 20
-5.5010761324
 10
21.5921821151
 20
-5.4720842445
 10
21.6207594136
 20
-5.4401079173
 10
21.6464921707
 20
-5.4058005708
 10
21.6691910778
 20
-5.3694145948
 10
21.6886891452
 20
-5.3312176709
 10
21.704842931
 20
-5.2914908033
  0
LINE
  5
54A
100
AcDbEntity
  8
0
100
AcDbLine
 62
7
  6
CONTINUOUS
 10
3.0
 20
19.2
 11
-3.0
 21
19.2
  0
LINE
  5
54B
100
AcDbEntity
  8
0
100
AcDbLine
 62
253
  6
CONTINUOUS
 10
-3.2
 20
20.2543443947
 11
3.2
 21
20.2543443947
  0
LINE
  5
54C
100
AcDbEntity
  8
0
100
AcDbLine
 62
7
  6
CONTINUOUS
 10
-3.2043253562
 20
20.7543253562
 11
3.2043253562
 21
20.7543253562
  0
LINE
  5
54D
100
AcDbEntity
  8
0
100
AcDbLine
 62
7
  6
CONTINUOUS
 10
-3.4207897551
 20
20.9707897551
 11
3.4207897551
 21
20.9707897551
  0
LWPOLYLINE
  5
54E
100
AcDbEntity
  8
0
100
AcDbPolyline
 62
7
  6
CONTINUOUS
 90
14
 70
0
 10
-22.6601881308
 20
24.7166909712
 10
-22.7757355825
 20
24.7355706463
 10
-22.8922868367
 20
24.7466819607
 10
-23.0093202136
 20
24.7499751802
 10
-23.1263118754
 20
24.745435564
 10
-23.242738171
 20
24.7330834309
 10
-23.3580779798
 20
24.7129740683
 10
-23.4718150442
 20
24.6851974848
 10
-23.5834402804
 20
24.649878007
 10
-23.6924540572
 20
24.6071737236
 10
-23.7983684319
 20
24.5572757772
 10
-23.9007093348
 20
24.5004075092
 10
-23.9990186908
 20
24.43682346
 10
-24.0928564698
 20
24.3668082295
  0
LINE
  5
54F
100
AcDbEntity
  8
0
100
AcDbLine
 62
7
  6
CONTINUOUS
 10
-22.5461616683
 20
24.6901274407
 11
-22.6601881308
 21
24.7166909712
  0
LINE
  5
550
100
AcDbEntity
  8
0
100
AcDbLine
 62
7
  6
CONTINUOUS
 10
9.3261825974
 20
19.3364128264
 11
9.3
 21
19.3721152439
  0
LINE
  5
551
100
AcDbEntity
  8
RACCORDO
100
AcDbLine
 62
253
  6
CONTINUOUS
 10
18.6608940154
 20
8.2558964287
 11
18.6756571446
 21
8.2267994996
  0
LINE
  5
552
100
AcDbEntity
  8
RACCORDO
100
AcDbLine
 62
253
  6
CONTINUOUS
 10
18.6472769531
 20
8.283092488
 11
18.6608940154
 21
8.2558964287
  0
LINE
  5
553
100
AcDbEntity
  8
RACCORDO
100
AcDbLine
 62
253
  6
CONTINUOUS
 10
18.6344946445
 20
8.3089403025
 11
18.6472769531
 21
8.283092488
  0
LINE
  5
554
100
AcDbEntity
  8
RACCORDO
100
AcDbLine
 62
253
  6
CONTINUOUS
 10
17.7810760949
 20
7.926145512
 11
17.7941116314
 21
7.89161446
  0
LINE
  5
555
100
AcDbEntity
  8
RACCORDO
100
AcDbLine
 62
253
  6
CONTINUOUS
 10
17.7652720728
 20
7.9686831097
 11
17.7810760949
 21
7.926145512
  0
LINE
  5
556
100
AcDbEntity
  8
RACCORDO
100
AcDbLine
 62
253
  6
CONTINUOUS
 10
17.7578840466
 20
7.9888343558
 11
17.7652720728
 21
7.9686831097
  0
LWPOLYLINE
  5
557
100
AcDbEntity
  8
RACCORDO
100
AcDbPolyline
 62
253
  6
CONTINUOUS
 90
18
 70
0
 10
17.4768550359
 20
8.1576936212
 10
17.4759069462
 20
8.1648878761
 10
17.4570187943
 20
8.2500406736
 10
17.4307825562
 20
8.3332231955
 10
17.3973979482
 20
8.413802741
 10
17.3571188441
 20
8.4911664339
 10
17.3102517417
 20
8.5647257606
 10
17.2571533009
 20
8.6339212256
 10
17.1982273022
 20
8.6982266035
 10
17.133921992
 20
8.7571526622
 10
17.0647266037
 20
8.8102511595
 10
16.9911673614
 20
8.8571183185
 10
16.9138038141
 20
8.8973974573
 10
16.833224427
 20
8.9307821158
 10
16.7500419033
 20
8.9570184707
 10
16.6648888733
 20
8.9759067744
 10
16.5784131266
 20
8.9873029866
 10
16.4912724559
 20
8.9911201511
  0
LWPOLYLINE
  5
558
100
AcDbEntity
  8
RACCORDO
100
AcDbPolyline
 62
253
  6
CONTINUOUS
 90
13
 70
0
 10
21.5625723589
 20
5.1676925165
 10
21.5607269778
 20
5.2105261662
 10
21.5551995702
 20
5.2531577835
 10
21.5460017553
 20
5.2952684257
 10
21.5331385663
 20
5.3366347467
 10
21.516695618
 20
5.376836983
 10
21.4969209489
 20
5.4152948989
 10
21.4740815551
 20
5.4516346523
 10
21.4483319884
 20
5.4857346201
 10
21.419835827
 20
5.5174400694
 10
21.3887963334
 20
5.546557386
 10
21.355475136
 20
5.5728709053
 10
21.3201283274
 20
5.5962108915
  0
LWPOLYLINE
  5
559
100
AcDbEntity
  8
RACCORDO
100
AcDbPolyline
 62
253
  6
CONTINUOUS
 90
5
 70
0
 10
21.7340245667
 20
5.1232523139
 10
21.7321791856
 20
5.1660859636
 10
21.726651778
 20
5.2087175809
 10
21.7174539631
 20
5.2508282231
 10
21.7045907741
 20
5.2921945441
  0
LWPOLYLINE
  5
55A
100
AcDbEntity
  8
0
100
AcDbPolyline
 62
7
  6
CONTINUOUS
 90
7
 70
0
 10
21.9245557012
 20
-23.0327176049
 10
21.9243619529
 20
-23.0272669663
 10
21.9241958313
 20
-23.0218152228
 10
21.9240573426
 20
-23.0163625143
 10
21.9239464921
 20
-23.0109089809
 10
21.9238632845
 20
-23.0054547628
 10
21.9238077239
 20
-23.0
  0
LWPOLYLINE
  5
55B
100
AcDbEntity
  8
0
100
AcDbPolyline
 62
7
  6
CONTINUOUS
 90
7
 70
0
 10
21.9245557012
 20
22.9672823951
 10
21.9243619529
 20
22.9727330337
 10
21.9241958313
 20
22.9781847772
 10
21.9240573426
 20
22.9836374857
 10
21.9239464921
 20
22.9890910191
 10
21.9238632845
 20
22.9945452372
 10
21.9238077239
 20
23.0
  0
LWPOLYLINE
  5
55C
100
AcDbEntity
  8
0
100
AcDbPolyline
 62
7
  6
CONTINUOUS
 90
7
 70
0
 10
24.0754442988
 20
-22.9672823951
 10
24.0756380471
 20
-22.9727330337
 10
24.0758041687
 20
-22.9781847772
 10
24.0759426574
 20
-22.9836374857
 10
24.0760535079
 20
-22.9890910191
 10
24.0761367155
 20
-22.9945452372
 10
24.0761922761
 20
-23.0
  0
LINE
  5
55D
100
AcDbEntity
  8
RACCORDO
100
AcDbLine
 62
253
  6
CONTINUOUS
 10
21.0626485113
 20
-5.1676925165
 11
21.0626485113
 21
5.1676925165
  0
LINE
  5
55E
100
AcDbEntity
  8
RACCORDO
100
AcDbLine
 62
253
  6
CONTINUOUS
 10
21.5625723589
 20
-5.1676925165
 11
21.5625723589
 21
5.1676925165
  0
LINE
  5
55F
100
AcDbEntity
  8
RACCORDO
100
AcDbLine
 62
7
  6
CONTINUOUS
 10
21.65
 20
5.2171566959
 11
21.65
 21
-5.2171566959
  0
LINE
  5
560
100
AcDbEntity
  8
RACCORDO
100
AcDbLine
 62
253
  6
CONTINUOUS
 10
21.7340245667
 20
5.1232523139
 11
21.7340245667
 21
-5.1232523139
  0
LINE
  5
561
100
AcDbEntity
  8
RACCORDO
100
AcDbLine
 62
7
  6
CONTINUOUS
 10
21.9
 20
5.1676192421
 11
21.9
 21
-5.2171566959
  0
LWPOLYLINE
  5
562
100
AcDbEntity
  8
0
100
AcDbPolyline
 62
7
  6
CONTINUOUS
 90
16
 70
0
 10
21.9238077239
 20
23.0
 10
21.9252335059
 20
23.0642248261
 10
21.9304879004
 20
23.1282569878
 10
21.9395516603
 20
23.1918685907
 10
21.9523778446
 20
23.2547732315
 10
21.9689272884
 20
23.3168092397
 10
21.98920446
 20
23.3779312425
 10
22.0132180428
 20
23.4380260978
 10
22.0408765113
 20
23.4967460594
 10
22.0720139125
 20
23.553701555
 10
22.1065110589
 20
23.6086789507
 10
22.1442471955
 20
23.6614897636
 10
22.1849816989
 20
23.7118238487
 10
22.2285084754
 20
23.7594813111
 10
22.2746827509
 20
23.804354624
 10
22.3233204555
 20
23.8463061671
  0
LWPOLYLINE
  5
563
100
AcDbEntity
  8
0
100
AcDbPolyline
 62
7
  6
CONTINUOUS
 90
16
 70
0
 10
21.9238077239
 20
-23.0
 10
21.9252335059
 20
-22.9357751739
 10
21.9304879004
 20
-22.8717430122
 10
21.9395516603
 20
-22.8081314093
 10
21.9523778446
 20
-22.7452267685
 10
21.9689272884
 20
-22.6831907603
 10
21.98920446
 20
-22.6220687575
 10
22.0132180428
 20
-22.5619739022
 10
22.0408765113
 20
-22.5032539406
 10
22.0720139125
 20
-22.446298445
 10
22.1065110589
 20
-22.3913210493
 10
22.1442471955
 20
-22.3385102364
 10
22.1849816989
 20
-22.2881761513
 10
22.2285084754
 20
-22.2405186889
 10
22.2746827509
 20
-22.195645376
 10
22.3233204555
 20
-22.1536938329
  0
LWPOLYLINE
  5
564
100
AcDbEntity
  8
0
100
AcDbPolyline
 62
7
  6
CONTINUOUS
 90
16
 70
0
 10
24.0761922761
 20
23.0
 10
24.074766134
 20
22.9357682611
 10
24.0695105807
 20
22.8717294726
 10
24.0604449109
 20
22.8081115969
 10
24.0476159338
 20
22.7452003085
 10
24.0310629629
 20
22.68315815
 10
24.0107824242
 20
22.6220328478
 10
23.9867662497
 20
22.5619377778
 10
23.959106322
 20
22.5032201685
 10
23.9279697163
 20
22.446270527
 10
23.8934782947
 20
22.3913051628
 10
23.8557516807
 20
22.3385087595
 10
23.8150246109
 20
22.2881834879
 10
23.7715000225
 20
22.2405274536
 10
23.7253238758
 20
22.1956514436
 10
23.6766795445
 20
22.1536938329
  0
LWPOLYLINE
  5
565
100
AcDbEntity
  8
RACCORDO
100
AcDbPolyline
 62
253
  6
CONTINUOUS
 90
5
 70
0
 10
21.704842931
 20
-5.2914908033
 10
21.7175335964
 20
-5.2505262515
 10
21.7266677795
 20
-5.2086253805
 10
21.7321782827
 20
-5.1660964434
 10
21.7340245667
 20
-5.1232523139
  0
LWPOLYLINE
  5
566
100
AcDbEntity
  8
0
100
AcDbPolyline
 62
253
  6
CONTINUOUS
 90
10
 70
0
 10
21.7861103952
 20
-11.0026304019
 10
21.8595177194
 20
-10.9214639933
 10
21.9263304663
 20
-10.8359198797
 10
21.986548636
 20
-10.7459980611
 10
22.0404965108
 20
-10.6509943662
 10
22.0878498084
 20
-10.5516129663
 10
22.1276356814
 20
-10.4499663751
 10
22.1595298474
 20
-10.3467587638
 10
22.1838565889
 20
-10.2412859611
 10
22.2006159059
 20
-10.133547967
  0
LINE
  5
567
100
AcDbEntity
  8
0
100
AcDbLine
 62
7
  6
CONTINUOUS
 10
23.0051775874
 20
-7.9761825974
 11
23.0338928645
 21
-7.95
  0
LINE
  5
568
100
AcDbEntity
  8
0
100
AcDbLine
 62
7
  6
CONTINUOUS
 10
3.3249870139
 20
22.174948937
 11
-3.3249870139
 21
22.174948937
  0
LINE
  5
569
100
AcDbEntity
  8
0
100
AcDbLine
 62
7
  6
CONTINUOUS
 10
3.4541446572
 20
22.3041065803
 11
-3.4541446572
 21
22.3041065803
  0
LWPOLYLINE
  5
56A
100
AcDbEntity
  8
RACCORDO
100
AcDbPolyline
 62
253
  6
CONTINUOUS
 90
7
 70
0
 10
21.7045907741
 20
5.2921945441
 10
21.6881478258
 20
5.3323967804
 10
21.6683731567
 20
5.3708546963
 10
21.6455337629
 20
5.4071944497
 10
21.6197841962
 20
5.4412944175
 10
21.5912880348
 20
5.4729998668
 10
21.561547268
 20
5.5008988826
  0
LWPOLYLINE
  5
56B
100
AcDbEntity
  8
RACCORDO
100
AcDbPolyline
 62
7
  6
CONTINUOUS
 90
4
 70
0
 10
21.834332279
 20
5.2120540063
 10
21.8336051822
 20
5.2143567617
 10
21.8326465736
 20
5.21975018
 10
21.8295250204
 20
5.2399740404
  0
LWPOLYLINE
  5
56C
100
AcDbEntity
  8
RACCORDO
100
AcDbPolyline
 62
7
  6
CONTINUOUS
 90
12
 70
0
 10
21.8295250204
 20
5.2399740404
 10
21.8269687942
 20
5.2547537069
 10
21.8235406104
 20
5.2718897031
 10
21.8189943732
 20
5.2913011042
 10
21.8130442944
 20
5.3129100474
 10
21.8055792032
 20
5.336033371
 10
21.7963297789
 20
5.3606071118
 10
21.7850656423
 20
5.3863889013
 10
21.7719277202
 20
5.41245347
 10
21.756943371
 20
5.4383991741
 10
21.7398877568
 20
5.464287457
 10
21.7206653989
 20
5.4899132314
  0
LWPOLYLINE
  5
56D
100
AcDbEntity
  8
0
100
AcDbPolyline
 62
253
  6
CONTINUOUS
 90
10
 70
0
 10
22.2006159059
 20
10.133547967
 10
22.1837391428
 20
10.2416781902
 10
22.159310205
 20
10.3474382775
 10
22.1273290923
 20
10.4508282289
 10
22.0874527066
 20
10.5525430326
 10
22.040024146
 20
10.6518877005
 10
21.9860727052
 20
10.7467772678
 10
21.9259414822
 20
10.8365167464
 10
21.8592873788
 20
10.9218011244
 10
21.7861103952
 20
11.0026304019
  0
LWPOLYLINE
  5
56E
100
AcDbEntity
  8
0
100
AcDbPolyline
 62
7
  6
CONTINUOUS
 90
7
 70
0
 10
24.0754442988
 20
23.0327176049
 10
24.0756380471
 20
23.0272669663
 10
24.0758041687
 20
23.0218152228
 10
24.0759426574
 20
23.0163625143
 10
24.0760535079
 20
23.0109089809
 10
24.0761367155
 20
23.0054547628
 10
24.0761922761
 20
23.0
  0
LWPOLYLINE
  5
56F
100
AcDbEntity
  8
0
100
AcDbPolyline
 62
7
  6
CONTINUOUS
 90
16
 70
0
 10
24.0761922761
 20
-23.0
 10
24.074766134
 20
-23.0642317389
 10
24.0695105807
 20
-23.1282705274
 10
24.0604449109
 20
-23.1918884031
 10
24.0476159338
 20
-23.2547996915
 10
24.0310629629
 20
-23.31684185
 10
24.0107824242
 20
-23.3779671522
 10
23.9867662497
 20
-23.4380622222
 10
23.959106322
 20
-23.4967798315
 10
23.9279697163
 20
-23.553729473
 10
23.8934782947
 20
-23.6086948372
 10
23.8557516807
 20
-23.6614912405
 10
23.8150246109
 20
-23.7118165121
 10
23.7715000225
 20
-23.7594725464
 10
23.7253238758
 20
-23.8043485564
 10
23.6766795445
 20
-23.8463061671
  0
LWPOLYLINE
  5
570
100
AcDbEntity
  8
0
100
AcDbPolyline
 62
7
  6
CONTINUOUS
 90
10
 70
0
 10
22.7919167296
 20
-10.2385858653
 10
22.769471805
 20
-10.3822263394
 10
22.7370022559
 20
-10.5227657357
 10
22.6945080822
 20
-10.6602040541
 10
22.6415472404
 20
-10.7954602814
 10
22.5785617741
 20
-10.9276154308
 10
22.5068778139
 20
-11.0539125421
 10
22.4269374033
 20
-11.1734326287
 10
22.3382984989
 20
-11.2870946771
 10
22.2409611005
 20
-11.3948986875
  0
LWPOLYLINE
  5
571
100
AcDbEntity
  8
0
100
AcDbPolyline
 62
253
  6
CONTINUOUS
 90
10
 70
0
 10
22.1443749376
 20
-11.3512998313
 10
22.2419295661
 20
-11.243476099
 10
22.3313442305
 20
-11.1289148302
 10
22.412160731
 20
-11.0082317128
 10
22.4839514606
 20
-10.8821036576
 10
22.5463739371
 20
-10.7511754684
 10
22.5991498887
 20
-10.6160453987
 10
22.6420059902
 20
-10.4773892078
 10
22.6746980441
 20
-10.3359672406
 10
22.6970489519
 20
-10.1925232515
  0
LWPOLYLINE
  5
572
100
AcDbEntity
  8
0
100
AcDbPolyline
 62
7
  6
CONTINUOUS
 90
14
 70
0
 10
22.6601881308
 20
21.2833090288
 10
22.7757355825
 20
21.2644293537
 10
22.8922868367
 20
21.2533180393
 10
23.0093202136
 20
21.2500248198
 10
23.1263118754
 20
21.254564436
 10
23.242738171
 20
21.2669165691
 10
23.3580779798
 20
21.2870259317
 10
23.4718150442
 20
21.3148025152
 10
23.5834402804
 20
21.350121993
 10
23.6924540572
 20
21.3928262764
 10
23.7983684319
 20
21.4427242228
 10
23.9007093348
 20
21.4995924908
 10
23.9990186908
 20
21.56317654
 10
24.0928564698
 20
21.6331917705
  0
LINE
  5
573
100
AcDbEntity
  8
0
100
AcDbLine
 62
7
  6
CONTINUOUS
 10
22.5461616683
 20
21.3098725593
 11
22.6601881308
 21
21.2833090288
  0
LWPOLYLINE
  5
574
100
AcDbEntity
  8
0
100
AcDbPolyline
 62
7
  6
CONTINUOUS
 90
10
 70
0
 10
22.2409611005
 20
11.3948986875
 10
22.3383599849
 20
11.2870066312
 10
22.4270412243
 20
11.1732761391
 10
22.5070048187
 20
11.0537072111
 10
22.5786877721
 20
10.9273776483
 10
22.6416530804
 20
10.7952096496
 10
22.6945897316
 20
10.6599698122
 10
22.7370607215
 20
10.5225803352
 10
22.7695030541
 20
10.3821190196
 10
22.7919167296
 20
10.2385858653
  0
LWPOLYLINE
  5
575
100
AcDbEntity
  8
0
100
AcDbPolyline
 62
253
  6
CONTINUOUS
 90
10
 70
0
 10
22.6970489519
 20
10.1925232515
 10
22.6746541792
 20
10.3361941446
 10
22.6419006116
 20
10.4777796854
 10
22.5989783338
 20
10.6165363111
 10
22.5461442549
 20
10.7517057162
 10
22.4836839181
 20
10.8826159218
 10
22.4118871258
 20
11.0086741175
 10
22.3311070172
 20
11.1292425928
 10
22.241780778
 20
11.2436530672
 10
22.1443749376
 20
11.3512998313
  0
LWPOLYLINE
  5
576
100
AcDbEntity
  8
0
100
AcDbPolyline
 62
7
  6
CONTINUOUS
 90
18
 70
0
 10
21.9071435302
 20
-21.6331917705
 10
21.8631123209
 20
-21.7192494893
 10
21.824976484
 20
-21.8061426696
 10
21.7927015886
 20
-21.893496085
 10
21.7662303914
 20
-21.9809404542
 10
21.7454833676
 20
-22.0681137849
 10
21.7303593174
 20
-22.1546626788
 10
21.7207360486
 20
-22.2402435918
 10
21.7164711305
 20
-22.3245240474
 10
21.717402716
 20
-22.4071837976
 10
21.72335043
 20
-22.4879159289
 10
21.7341163182
 20
-22.5664279079
 10
21.749485855
 20
-22.642442565
 10
21.7692290049
 20
-22.7156990123
 10
21.7931013336
 20
-22.7859534921
 10
21.8208451652
 20
-22.8529801548
 10
21.8521907798
 20
-22.9165717623
 10
21.8868576488
 20
-22.9765403156
  0
LWPOLYLINE
  5
577
100
AcDbEntity
  8
0
100
AcDbPolyline
 62
7
  6
CONTINUOUS
 90
14
 70
0
 10
23.3398118692
 20
24.7166909712
 10
23.2242644175
 20
24.7355706463
 10
23.1077131633
 20
24.7466819607
 10
22.9906797864
 20
24.7499751802
 10
22.8736881246
 20
24.745435564
 10
22.757261829
 20
24.7330834309
 10
22.6419220202
 20
24.7129740683
 10
22.5281849558
 20
24.6851974848
 10
22.4165597196
 20
24.649878007
 10
22.3075459428
 20
24.6071737236
 10
22.2016315681
 20
24.5572757772
 10
22.0992906652
 20
24.5004075092
 10
22.0009813092
 20
24.43682346
 10
21.9071435302
 20
24.3668082295
  0
LINE
  5
578
100
AcDbEntity
  8
0
100
AcDbLine
 62
7
  6
CONTINUOUS
 10
23.4538383317
 20
24.6901274407
 11
23.3398118692
 21
24.7166909712
  0
LWPOLYLINE
  5
579
100
AcDbEntity
  8
0
100
AcDbPolyline
 62
7
  6
CONTINUOUS
 90
18
 70
0
 10
24.0928564698
 20
-24.3668082295
 10
24.1368876791
 20
-24.2807505107
 10
24.175023516
 20
-24.1938573304
 10
24.2072984114
 20
-24.106503915
 10
24.2337696086
 20
-24.0190595458
 10
24.2545166324
 20
-23.9318862151
 10
24.2696406826
 20
-23.8453373212
 10
24.2792639514
 20
-23.7597564082
 10
24.2835288695
 20
-23.6754759526
 10
24.282597284
 20
-23.5928162024
 10
24.27664957
 20
-23.5120840711
 10
24.2658836818
 20
-23.4335720921
 10
24.250514145
 20
-23.357557435
 10
24.2307709951
 20
-23.2843009877
 10
24.2068986664
 20
-23.2140465079
 10
24.1791548348
 20
-23.1470198452
 10
24.1478092202
 20
-23.0834282377
 10
24.1131423512
 20
-23.0234596844
  0
LWPOLYLINE
  5
57A
100
AcDbEntity
  8
0
100
AcDbPolyline
 62
7
  6
CONTINUOUS
 90
34
 70
0
 10
21.907266566
 20
-21.6333365122
 10
21.8226181484
 20
-21.7052907784
 10
21.7386820991
 20
-21.7869142049
 10
21.6603916645
 20
-21.8739673625
 10
21.5880972698
 20
-21.9660606043
 10
21.5221225026
 20
-22.0627817243
 10
21.4627626639
 20
-22.1636978023
 10
21.4102834463
 20
-22.2683571414
 10
21.3649197454
 20
-22.3762912902
 10
21.3268746077
 20
-22.4870171392
 10
21.2963183223
 20
-22.6000390834
 10
21.2733876582
 20
-22.7148512404
 10
21.2581852526
 20
-22.8309397151
 10
21.2507791513
 20
-22.9477848992
 10
21.251202504
 20
-23.0648637978
 10
21.259453416
 20
-23.1816523697
 10
21.2754949569
 20
-23.297627873
 10
21.2992553255
 20
-23.4122712052
 10
21.3306281714
 20
-23.5250692265
 10
21.3694730712
 20
-23.6355170567
 10
21.4156161567
 20
-23.7431203348
 10
21.4688508931
 20
-23.8473974319
 10
21.5289390039
 20
-23.9478816071
 10
21.5956115369
 20
-24.0441230962
 10
21.6685700683
 20
-24.1356911254
 10
21.7474880382
 20
-24.2221758389
 10
21.8320122127
 20
-24.3031901337
 10
21.9217642645
 20
-24.3783713921
 10
22.0163424665
 20
-24.4473831051
 10
22.1153234899
 20
-24.5099163781
 10
22.218264299
 20
-24.5656913138
 10
22.324704134
 20
-24.6144582652
 10
22.4341665739
 20
-24.6559989525
 10
22.5461616683
 20
-24.6901274407
  0
LWPOLYLINE
  5
57B
100
AcDbEntity
  8
0
100
AcDbPolyline
 62
7
  6
CONTINUOUS
 90
22
 70
0
 10
22.3233204555
 20
-22.1536938329
 10
22.3805492226
 20
-22.1070647315
 10
22.4411552229
 20
-22.0642079293
 10
22.5048970777
 20
-22.025378297
 10
22.5716484554
 20
-21.9907517541
 10
22.6410034789
 20
-21.96063475
 10
22.7122326466
 20
-21.9353700635
 10
22.7849131144
 20
-21.9150751048
 10
22.8587700609
 20
-21.8997944505
 10
22.9332395981
 20
-21.8895987791
 10
23.0077537291
 20
-21.884476397
 10
23.082177448
 20
-21.8843476538
 10
23.1566006787
 20
-21.8891874595
 10
23.2307523704
 20
-21.8990017838
 10
23.3042390918
 20
-21.9137622581
 10
23.3769645071
 20
-21.933492018
 10
23.4487705781
 20
-21.9582370278
 10
23.5191250612
 20
-21.9879052262
 10
23.5873851571
 20
-22.0222613145
 10
23.6531463426
 20
-22.061087353
 10
23.7162169693
 20
-22.1042550729
 10
23.7763157296
 20
-22.1515697507
  0
LINE
  5
57C
100
AcDbEntity
  8
0
100
AcDbLine
 62
7
  6
CONTINUOUS
 10
23.6766795445
 20
22.1536938329
 11
24.0928564698
 21
21.6331917705
  0
LINE
  5
57D
100
AcDbEntity
  8
0
100
AcDbLine
 62
7
  6
CONTINUOUS
 10
22.3233204555
 20
23.8463061671
 11
21.9071435302
 21
24.3668082295
  0
LINE
  5
57E
100
AcDbEntity
  8
0
100
AcDbLine
 62
7
  6
CONTINUOUS
 10
21.8868576488
 20
23.0234596844
 11
21.9245557012
 21
22.9672823951
  0
LWPOLYLINE
  5
57F
100
AcDbEntity
  8
0
100
AcDbPolyline
 62
7
  6
CONTINUOUS
 90
34
 70
0
 10
24.092733434
 20
-24.3666634878
 10
24.1773818516
 20
-24.2947092216
 10
24.2613179009
 20
-24.2130857951
 10
24.3396083355
 20
-24.1260326375
 10
24.4119027302
 20
-24.0339393957
 10
24.4778774974
 20
-23.9372182757
 10
24.5372373361
 20
-23.8363021977
 10
24.5897165537
 20
-23.7316428586
 10
24.6350802546
 20
-23.6237087098
 10
24.6731253923
 20
-23.5129828608
 10
24.7036816777
 20
-23.3999609166
 10
24.7266123418
 20
-23.2851487596
 10
24.7418147474
 20
-23.1690602849
 10
24.7492208487
 20
-23.0522151008
 10
24.748797496
 20
-22.9351362022
 10
24.740546584
 20
-22.8183476303
 10
24.7245050431
 20
-22.702372127
 10
24.7007446745
 20
-22.5877287948
 10
24.6693718286
 20
-22.4749307735
 10
24.6305269288
 20
-22.3644829433
 10
24.5843838433
 20
-22.2568796652
 10
24.5311491069
 20
-22.1526025681
 10
24.4710609961
 20
-22.0521183929
 10
24.4043884631
 20
-21.9558769038
 10
24.3314299317
 20
-21.8643088746
 10
24.2525119618
 20
-21.7778241611
 10
24.1679877873
 20
-21.6968098663
 10
24.0782357355
 20
-21.6216286079
 10
23.9836575335
 20
-21.5526168949
 10
23.8846765101
 20
-21.4900836219
 10
23.781735701
 20
-21.4343086862
 10
23.675295866
 20
-21.3855417348
 10
23.5658334261
 20
-21.3440010475
 10
23.4538383317
 20
-21.3098725593
  0
LWPOLYLINE
  5
580
100
AcDbEntity
  8
0
100
AcDbPolyline
 62
7
  6
CONTINUOUS
 90
22
 70
0
 10
23.6766795445
 20
-23.8463061671
 10
23.6194407739
 20
-23.8929428677
 10
23.558829182
 20
-23.9358023187
 10
23.4950870311
 20
-23.9746306528
 10
23.4283412281
 20
-24.0092531551
 10
23.3589984042
 20
-24.0393645083
 10
23.2877890292
 20
-24.0646230761
 10
23.2151441195
 20
-24.0849110018
 10
23.1413309515
 20
-24.1001882104
 10
23.0668893614
 20
-24.1103879861
 10
22.9923736468
 20
-24.1155191241
 10
22.9179309666
 20
-24.1156557681
 10
22.8434857289
 20
-24.1108210538
 10
22.7693116515
 20
-24.1010088684
 10
22.6958001259
 20
-24.0862469862
 10
22.6230547556
 20
-24.0665139044
 10
22.5512362215
 20
-24.0417655737
 10
22.4808740023
 20
-24.0120943413
 10
22.4126097218
 20
-23.9777358888
 10
22.3468473598
 20
-23.9389086389
 10
22.2837785743
 20
-23.8957416533
 10
22.2236842704
 20
-23.8484302493
  0
LINE
  5
581
100
AcDbEntity
  8
0
100
AcDbLine
 62
7
  6
CONTINUOUS
 10
24.1131423512
 20
22.9765403156
 11
24.0754442988
 21
23.0327176049
  0
ARC
  5
582
100
AcDbEntity
  8
RACCORDO
100
AcDbCircle
 62
7
  6
CONTINUOUS
 10
-23.5125276742
 20
-23.5125276742
 40
4.5
100
AcDbArc
 50
195.6796757936
 51
254.3203242064
  0
ARC
  5
583
100
AcDbEntity
  8
RACCORDO
100
AcDbCircle
 62
7
  6
CONTINUOUS
 10
-21.0
 20
-7.5
 40
2.5
100
AcDbArc
 50
111.1001960241
 51
341.1206679921
  0
ARC
  5
584
100
AcDbEntity
  8
RACCORDO
100
AcDbCircle
 62
253
  6
CONTINUOUS
 10
-21.0
 20
-7.5
 40
2.4353248699
100
AcDbArc
 50
110.035108553
 51
342.6360417846
  0
ARC
  5
585
100
AcDbEntity
  8
RACCORDO
100
AcDbCircle
 62
253
  6
CONTINUOUS
 10
-21.0
 20
-7.5
 40
2.1353705614
100
AcDbArc
 50
109.724001747
 51
342.6360417851
  0
CIRCLE
  5
586
100
AcDbEntity
  8
0
100
AcDbCircle
 62
7
  6
CONTINUOUS
 10
-21.0
 20
-7.5
 40
1.2690969831
  0
ARC
  5
587
100
AcDbEntity
  8
0
100
AcDbCircle
 62
7
  6
CONTINUOUS
 10
-23.0
 20
-23.0
 40
1.15
100
AcDbArc
 50
355.8924457641
 51
47.5414111331
  0
ARC
  5
588
100
AcDbEntity
  8
0
100
AcDbCircle
 62
7
  6
CONTINUOUS
 10
-23.0
 20
-23.0
 40
1.15
100
AcDbArc
 50
175.8924457641
 51
227.5414111331
  0
CIRCLE
  5
589
100
AcDbEntity
  8
0
100
AcDbCircle
 62
7
  6
CONTINUOUS
 10
-23.0
 20
-23.0
 40
1.0
  0
ARC
  5
58A
100
AcDbEntity
  8
RACCORDO
100
AcDbCircle
 62
7
  6
CONTINUOUS
 10
-60.25
 20
0.0
 40
91.5
100
AcDbArc
 50
344.3203242064
 51
15.6796757936
  0
ARC
  5
58B
100
AcDbEntity
  8
0
100
AcDbCircle
 62
7
  6
CONTINUOUS
 10
-63.1
 20
0.0
 40
86.5
100
AcDbArc
 50
6.039311833
 51
6.797760384
  0
ARC
  5
58C
100
AcDbEntity
  8
0
100
AcDbCircle
 62
7
  6
CONTINUOUS
 10
-63.1
 20
0.0
 40
86.5
100
AcDbArc
 50
354.7266454744
 51
4.1532777628
  0
ARC
  5
58D
100
AcDbEntity
  8
0
100
AcDbCircle
 62
7
  6
CONTINUOUS
 10
-63.1
 20
0.0
 40
86.5
100
AcDbArc
 50
353.202239616
 51
354.0610793543
  0
ARC
  5
58E
100
AcDbEntity
  8
0
100
AcDbCircle
 62
7
  6
CONTINUOUS
 10
-63.1
 20
0.0
 40
86.4738174026
100
AcDbArc
 50
354.0767161407
 51
354.7076221997
  0
ARC
  5
58F
100
AcDbEntity
  8
0
100
AcDbCircle
 62
253
  6
CONTINUOUS
 10
-63.1
 20
0.0
 40
86.4003538135
100
AcDbArc
 50
353.2251245187
 51
4.0580372363
  0
ARC
  5
590
100
AcDbEntity
  8
0
100
AcDbCircle
 62
253
  6
CONTINUOUS
 10
-63.1
 20
0.0
 40
86.4003538135
100
AcDbArc
 50
6.1375818011
 51
6.7748754813
  0
ARC
  5
591
100
AcDbEntity
  8
0
100
AcDbCircle
 62
253
  6
CONTINUOUS
 10
-63.1
 20
0.0
 40
85.9004299659
100
AcDbArc
 50
353.2251245187
 51
3.7347809976
  0
ARC
  5
592
100
AcDbEntity
  8
0
100
AcDbCircle
 62
253
  6
CONTINUOUS
 10
-63.1
 20
0.0
 40
85.9004299659
100
AcDbArc
 50
6.4600859868
 51
6.7748754813
  0
CIRCLE
  5
593
100
AcDbEntity
  8
DRAFT
100
AcDbCircle
 62
7
  6
CONTINUOUS
 10
-13.0
 20
0.0
 40
2.2616556363
  0
CIRCLE
  5
594
100
AcDbEntity
  8
DRAFT
100
AcDbCircle
 62
7
  6
CONTINUOUS
 10
-13.0
 20
0.0
 40
2.225
  0
ARC
  5
595
100
AcDbEntity
  8
0
100
AcDbCircle
 62
253
  6
CONTINUOUS
 10
-13.0
 20
0.0
 40
2.1380973484
100
AcDbArc
 50
16.2974105655
 51
163.7025894345
  0
ARC
  5
596
100
AcDbEntity
  8
0
100
AcDbCircle
 62
253
  6
CONTINUOUS
 10
-13.0
 20
0.0
 40
2.1380973484
100
AcDbArc
 50
196.2974105655
 51
343.7025894345
  0
ARC
  5
597
100
AcDbEntity
  8
RACCORDO
100
AcDbCircle
 62
7
  6
CONTINUOUS
 10
-23.5125276742
 20
23.5125276742
 40
4.5
100
AcDbArc
 50
105.6796757936
 51
164.3203242064
  0
ARC
  5
598
100
AcDbEntity
  8
DRAFT
100
AcDbCircle
 62
7
  6
CONTINUOUS
 10
-8.0
 20
13.0
 40
4.25
100
AcDbArc
 50
44.900872156
 51
241.9275130641
  0
ARC
  5
599
100
AcDbEntity
  8
RACCORDO
100
AcDbCircle
 62
7
  6
CONTINUOUS
 10
-8.0
 20
13.0
 40
4.1539971429
100
AcDbArc
 50
250.1188801196
 51
293.9987540481
  0
ARC
  5
59A
100
AcDbEntity
  8
RACCORDO
100
AcDbCircle
 62
253
  6
CONTINUOUS
 10
-8.0
 20
13.0
 40
4.1415348911
100
AcDbArc
 50
44.2811294448
 51
294.2127836383
  0
ARC
  5
59B
100
AcDbEntity
  8
RACCORDO
100
AcDbCircle
 62
253
  6
CONTINUOUS
 10
-8.0
 20
13.0
 40
3.341656735
100
AcDbArc
 50
38.7507771501
 51
294.2127836385
  0
CIRCLE
  5
59C
100
AcDbEntity
  8
DRAFT
100
AcDbCircle
 62
7
  6
CONTINUOUS
 10
-8.0
 20
13.0
 40
3.0158231168
  0
CIRCLE
  5
59D
100
AcDbEntity
  8
DRAFT
100
AcDbCircle
 62
7
  6
CONTINUOUS
 10
-8.0
 20
13.0
 40
2.85
  0
CIRCLE
  5
59E
100
AcDbEntity
  8
0
100
AcDbCircle
 62
7
  6
CONTINUOUS
 10
-8.0
 20
13.0
 40
2.7322348431
  0
CIRCLE
  5
59F
100
AcDbEntity
  8
0
100
AcDbCircle
 62
253
  6
CONTINUOUS
 10
-8.0
 20
13.0
 40
2.7132513006
  0
ARC
  5
5A0
100
AcDbEntity
  8
0
100
AcDbCircle
 62
7
  6
CONTINUOUS
 10
-8.0
 20
13.0
 40
2.7092991424
100
AcDbArc
 50
79.3651273349
 51
100.6348726651
  0
ARC
  5
5A1
100
AcDbEntity
  8
0
100
AcDbCircle
 62
7
  6
CONTINUOUS
 10
-8.0
 20
13.0
 40
2.7092991424
100
AcDbArc
 50
259.3651273349
 51
280.6348726651
  0
ARC
  5
5A2
100
AcDbEntity
  8
0
100
AcDbCircle
 62
253
  6
CONTINUOUS
 10
-8.0
 20
13.0
 40
2.4147882424
100
AcDbArc
 50
101.9499693247
 51
258.0500306753
  0
ARC
  5
5A3
100
AcDbEntity
  8
0
100
AcDbCircle
 62
253
  6
CONTINUOUS
 10
-8.0
 20
13.0
 40
2.4147882424
100
AcDbArc
 50
281.9499693247
 51
78.0500306753
  0
ARC
  5
5A4
100
AcDbEntity
  8
0
100
AcDbCircle
 62
7
  6
CONTINUOUS
 10
-23.0
 20
23.0
 40
1.15
100
AcDbArc
 50
355.8924457641
 51
47.5414111331
  0
ARC
  5
5A5
100
AcDbEntity
  8
0
100
AcDbCircle
 62
7
  6
CONTINUOUS
 10
-23.0
 20
23.0
 40
1.15
100
AcDbArc
 50
175.8924457641
 51
227.5414111331
  0
CIRCLE
  5
5A6
100
AcDbEntity
  8
0
100
AcDbCircle
 62
7
  6
CONTINUOUS
 10
-23.0
 20
23.0
 40
1.0
  0
ARC
  5
5A7
100
AcDbEntity
  8
RACCORDO
100
AcDbCircle
 62
7
  6
CONTINUOUS
 10
0.0
 20
-60.25
 40
91.5
100
AcDbArc
 50
74.3203242064
 51
105.6796757936
  0
ARC
  5
5A8
100
AcDbEntity
  8
0
100
AcDbCircle
 62
7
  6
CONTINUOUS
 10
0.0
 20
-10.2
 40
31.0
100
AcDbArc
 50
109.4058882505
 51
135.8443764969
  0
ARC
  5
5A9
100
AcDbEntity
  8
0
100
AcDbCircle
 62
7
  6
CONTINUOUS
 10
0.0
 20
-10.2
 40
31.0
100
AcDbArc
 50
98.2608980244
 51
107.4576031237
  0
ARC
  5
5AA
100
AcDbEntity
  8
0
100
AcDbCircle
 62
7
  6
CONTINUOUS
 10
0.0
 20
-10.2
 40
31.0
100
AcDbArc
 50
72.5423968763
 51
81.7391019756
  0
ARC
  5
5AB
100
AcDbEntity
  8
0
100
AcDbCircle
 62
7
  6
CONTINUOUS
 10
0.0
 20
-10.2
 40
31.0
100
AcDbArc
 50
44.1556235031
 51
70.5941117495
  0
ARC
  5
5AC
100
AcDbEntity
  8
0
100
AcDbCircle
 62
7
  6
CONTINUOUS
 10
0.0
 20
-10.2
 40
30.9738174026
100
AcDbArc
 50
107.5236180386
 51
109.3716031814
  0
ARC
  5
5AD
100
AcDbEntity
  8
0
100
AcDbCircle
 62
7
  6
CONTINUOUS
 10
0.0
 20
-10.2
 40
30.9738174026
100
AcDbArc
 50
70.6283968186
 51
72.4763819614
  0
ARC
  5
5AE
100
AcDbEntity
  8
0
100
AcDbCircle
 62
253
  6
CONTINUOUS
 10
0.0
 20
-10.2
 40
30.9003538135
100
AcDbArc
 50
98.1943851294
 51
135.7776196218
  0
ARC
  5
5AF
100
AcDbEntity
  8
0
100
AcDbCircle
 62
253
  6
CONTINUOUS
 10
0.0
 20
-10.2
 40
30.9003538135
100
AcDbArc
 50
44.2223803782
 51
81.8056148706
  0
ARC
  5
5B0
100
AcDbEntity
  8
0
100
AcDbCircle
 62
253
  6
CONTINUOUS
 10
0.0
 20
-10.2
 40
30.4004299659
100
AcDbArc
 50
44.2223803782
 51
81.6780779376
  0
ARC
  5
5B1
100
AcDbEntity
  8
0
100
AcDbCircle
 62
253
  6
CONTINUOUS
 10
0.0
 20
-10.2
 40
30.4004299659
100
AcDbArc
 50
98.3219220624
 51
135.7776196218
  0
ARC
  5
5B2
100
AcDbEntity
  8
0
100
AcDbCircle
 62
7
  6
CONTINUOUS
 10
0.0
 20
-10.2
 40
29.7635714804
100
AcDbArc
 50
83.8279729132
 51
96.1720270868
  0
CIRCLE
  5
5B3
100
AcDbEntity
  8
DRAFT
100
AcDbCircle
 62
7
  6
CONTINUOUS
 10
0.0
 20
-11.0
 40
2.2901466493
  0
CIRCLE
  5
5B4
100
AcDbEntity
  8
DRAFT
100
AcDbCircle
 62
7
  6
CONTINUOUS
 10
0.0
 20
-11.0
 40
2.25
  0
CIRCLE
  5
5B5
100
AcDbEntity
  8
ASSI
100
AcDbCircle
 62
7
  6
CONTINUOUS
 10
0.0
 20
-11.0
 40
1.25
  0
ARC
  5
5B6
100
AcDbEntity
  8
DRAFT
100
AcDbCircle
 62
7
  6
CONTINUOUS
 10
8.0
 20
-13.0
 40
4.25
100
AcDbArc
 50
224.900872156
 51
61.9275130641
  0
ARC
  5
5B7
100
AcDbEntity
  8
RACCORDO
100
AcDbCircle
 62
7
  6
CONTINUOUS
 10
8.0
 20
-13.0
 40
4.1539971429
100
AcDbArc
 50
70.1188801196
 51
113.9987540481
  0
ARC
  5
5B8
100
AcDbEntity
  8
RACCORDO
100
AcDbCircle
 62
253
  6
CONTINUOUS
 10
8.0
 20
-13.0
 40
4.1415348911
100
AcDbArc
 50
224.2811294448
 51
114.2127836383
  0
ARC
  5
5B9
100
AcDbEntity
  8
RACCORDO
100
AcDbCircle
 62
253
  6
CONTINUOUS
 10
8.0
 20
-13.0
 40
3.341656735
100
AcDbArc
 50
218.7507771501
 51
114.2127836385
  0
CIRCLE
  5
5BA
100
AcDbEntity
  8
DRAFT
100
AcDbCircle
 62
7
  6
CONTINUOUS
 10
8.0
 20
-13.0
 40
3.0158231168
  0
CIRCLE
  5
5BB
100
AcDbEntity
  8
DRAFT
100
AcDbCircle
 62
7
  6
CONTINUOUS
 10
8.0
 20
-13.0
 40
2.85
  0
CIRCLE
  5
5BC
100
AcDbEntity
  8
0
100
AcDbCircle
 62
7
  6
CONTINUOUS
 10
8.0
 20
-13.0
 40
2.7322348431
  0
CIRCLE
  5
5BD
100
AcDbEntity
  8
0
100
AcDbCircle
 62
253
  6
CONTINUOUS
 10
8.0
 20
-13.0
 40
2.7132513006
  0
ARC
  5
5BE
100
AcDbEntity
  8
0
100
AcDbCircle
 62
7
  6
CONTINUOUS
 10
8.0
 20
-13.0
 40
2.7092991424
100
AcDbArc
 50
79.3651273349
 51
100.6348726651
  0
ARC
  5
5BF
100
AcDbEntity
  8
0
100
AcDbCircle
 62
7
  6
CONTINUOUS
 10
8.0
 20
-13.0
 40
2.7092991424
100
AcDbArc
 50
259.3651273349
 51
280.6348726651
  0
ARC
  5
5C0
100
AcDbEntity
  8
0
100
AcDbCircle
 62
253
  6
CONTINUOUS
 10
8.0
 20
-13.0
 40
2.4147882424
100
AcDbArc
 50
101.9499693247
 51
258.0500306753
  0
ARC
  5
5C1
100
AcDbEntity
  8
0
100
AcDbCircle
 62
253
  6
CONTINUOUS
 10
8.0
 20
-13.0
 40
2.4147882424
100
AcDbArc
 50
281.9499693247
 51
78.0500306753
  0
ARC
  5
5C2
100
AcDbEntity
  8
RACCORDO
100
AcDbCircle
 62
7
  6
CONTINUOUS
 10
23.5125276742
 20
-23.5125276742
 40
4.5
100
AcDbArc
 50
285.6796757936
 51
344.3203242064
  0
ARC
  5
5C3
100
AcDbEntity
  8
0
100
AcDbCircle
 62
7
  6
CONTINUOUS
 10
23.0
 20
-23.0
 40
1.15
100
AcDbArc
 50
355.8924457641
 51
47.5414111331
  0
ARC
  5
5C4
100
AcDbEntity
  8
0
100
AcDbCircle
 62
7
  6
CONTINUOUS
 10
23.0
 20
-23.0
 40
1.15
100
AcDbArc
 50
175.8924457641
 51
227.5414111331
  0
CIRCLE
  5
5C5
100
AcDbEntity
  8
0
100
AcDbCircle
 62
7
  6
CONTINUOUS
 10
23.0
 20
-23.0
 40
1.0
  0
ARC
  5
5C6
100
AcDbEntity
  8
0
100
AcDbCircle
 62
7
  6
CONTINUOUS
 10
0.0
 20
10.2
 40
31.0
100
AcDbArc
 50
252.5423968763
 51
261.7391019756
  0
ARC
  5
5C7
100
AcDbEntity
  8
0
100
AcDbCircle
 62
7
  6
CONTINUOUS
 10
0.0
 20
10.2
 40
31.0
100
AcDbArc
 50
224.1556235031
 51
250.5941117495
  0
ARC
  5
5C8
100
AcDbEntity
  8
0
100
AcDbCircle
 62
7
  6
CONTINUOUS
 10
0.0
 20
10.2
 40
31.0
100
AcDbArc
 50
289.4058882505
 51
315.8443764969
  0
ARC
  5
5C9
100
AcDbEntity
  8
0
100
AcDbCircle
 62
7
  6
CONTINUOUS
 10
0.0
 20
10.2
 40
31.0
100
AcDbArc
 50
278.2608980244
 51
287.4576031237
  0
ARC
  5
5CA
100
AcDbEntity
  8
0
100
AcDbCircle
 62
7
  6
CONTINUOUS
 10
0.0
 20
10.2
 40
30.9738174026
100
AcDbArc
 50
250.6283968186
 51
252.4763819614
  0
ARC
  5
5CB
100
AcDbEntity
  8
0
100
AcDbCircle
 62
7
  6
CONTINUOUS
 10
0.0
 20
10.2
 40
30.9738174026
100
AcDbArc
 50
287.5236180386
 51
289.3716031814
  0
ARC
  5
5CC
100
AcDbEntity
  8
0
100
AcDbCircle
 62
253
  6
CONTINUOUS
 10
0.0
 20
10.2
 40
30.9003538135
100
AcDbArc
 50
224.2223803782
 51
261.8056148706
  0
ARC
  5
5CD
100
AcDbEntity
  8
0
100
AcDbCircle
 62
253
  6
CONTINUOUS
 10
0.0
 20
10.2
 40
30.9003538135
100
AcDbArc
 50
278.1943851294
 51
315.7776196218
  0
ARC
  5
5CE
100
AcDbEntity
  8
0
100
AcDbCircle
 62
253
  6
CONTINUOUS
 10
0.0
 20
10.2
 40
30.4004299659
100
AcDbArc
 50
278.3219220624
 51
315.7776196218
  0
ARC
  5
5CF
100
AcDbEntity
  8
0
100
AcDbCircle
 62
253
  6
CONTINUOUS
 10
0.0
 20
10.2
 40
30.4004299659
100
AcDbArc
 50
224.2223803782
 51
261.6780779376
  0
ARC
  5
5D0
100
AcDbEntity
  8
0
100
AcDbCircle
 62
7
  6
CONTINUOUS
 10
0.0
 20
10.2
 40
29.7635714804
100
AcDbArc
 50
263.8279729132
 51
276.1720270868
  0
CIRCLE
  5
5D1
100
AcDbEntity
  8
ASSI
100
AcDbCircle
 62
7
  6
CONTINUOUS
 10
0.0
 20
0.0
 40
27.7
  0
ARC
  5
5D2
100
AcDbEntity
  8
RACCORDO
100
AcDbCircle
 62
7
  6
CONTINUOUS
 10
23.5125276742
 20
23.5125276742
 40
4.5
100
AcDbArc
 50
15.6796757936
 51
74.3203242064
  0
ARC
  5
5D3
100
AcDbEntity
  8
RACCORDO
100
AcDbCircle
 62
7
  6
CONTINUOUS
 10
21.0
 20
7.5
 40
2.5
100
AcDbArc
 50
291.1001960241
 51
161.1206679921
  0
ARC
  5
5D4
100
AcDbEntity
  8
RACCORDO
100
AcDbCircle
 62
253
  6
CONTINUOUS
 10
21.0
 20
7.5
 40
2.4353248699
100
AcDbArc
 50
290.035108553
 51
162.6360417846
  0
CIRCLE
  5
5D5
100
AcDbEntity
  8
DRAFT
100
AcDbCircle
 62
7
  6
CONTINUOUS
 10
0.0
 20
11.0
 40
2.2901466493
  0
CIRCLE
  5
5D6
100
AcDbEntity
  8
DRAFT
100
AcDbCircle
 62
7
  6
CONTINUOUS
 10
13.0
 20
0.0
 40
2.2616556363
  0
CIRCLE
  5
5D7
100
AcDbEntity
  8
DRAFT
100
AcDbCircle
 62
7
  6
CONTINUOUS
 10
0.0
 20
11.0
 40
2.25
  0
CIRCLE
  5
5D8
100
AcDbEntity
  8
DRAFT
100
AcDbCircle
 62
7
  6
CONTINUOUS
 10
13.0
 20
0.0
 40
2.225
  0
ARC
  5
5D9
100
AcDbEntity
  8
0
100
AcDbCircle
 62
253
  6
CONTINUOUS
 10
0.0
 20
11.0
 40
2.1380973484
100
AcDbArc
 50
196.2974105655
 51
343.7025894345
  0
ARC
  5
5DA
100
AcDbEntity
  8
0
100
AcDbCircle
 62
253
  6
CONTINUOUS
 10
0.0
 20
11.0
 40
2.1380973484
100
AcDbArc
 50
16.2974105655
 51
163.7025894345
  0
ARC
  5
5DB
100
AcDbEntity
  8
0
100
AcDbCircle
 62
253
  6
CONTINUOUS
 10
13.0
 20
0.0
 40
2.1380973484
100
AcDbArc
 50
196.2974105655
 51
343.7025894345
  0
ARC
  5
5DC
100
AcDbEntity
  8
0
100
AcDbCircle
 62
253
  6
CONTINUOUS
 10
13.0
 20
0.0
 40
2.1380973484
100
AcDbArc
 50
16.2974105655
 51
163.7025894345
  0
ARC
  5
5DD
100
AcDbEntity
  8
RACCORDO
100
AcDbCircle
 62
253
  6
CONTINUOUS
 10
21.0
 20
7.5
 40
2.1353705614
100
AcDbArc
 50
289.724001747
 51
162.6360417851
  0
CIRCLE
  5
5DE
100
AcDbEntity
  8
0
100
AcDbCircle
 62
7
  6
CONTINUOUS
 10
21.0
 20
7.5
 40
1.2690969831
  0
ARC
  5
5DF
100
AcDbEntity
  8
0
100
AcDbCircle
 62
7
  6
CONTINUOUS
 10
23.0
 20
23.0
 40
1.15
100
AcDbArc
 50
355.8924457641
 51
47.5414111331
  0
ARC
  5
5E0
100
AcDbEntity
  8
0
100
AcDbCircle
 62
7
  6
CONTINUOUS
 10
23.0
 20
23.0
 40
1.15
100
AcDbArc
 50
175.8924457641
 51
227.5414111331
  0
CIRCLE
  5
5E1
100
AcDbEntity
  8
0
100
AcDbCircle
 62
7
  6
CONTINUOUS
 10
23.0
 20
23.0
 40
1.0
  0
ARC
  5
5E2
100
AcDbEntity
  8
RACCORDO
100
AcDbCircle
 62
7
  6
CONTINUOUS
 10
0.0
 20
60.25
 40
91.5
100
AcDbArc
 50
254.3203242064
 51
285.6796757936
  0
ARC
  5
5E3
100
AcDbEntity
  8
RACCORDO
100
AcDbCircle
 62
7
  6
CONTINUOUS
 10
60.25
 20
0.0
 40
91.5
100
AcDbArc
 50
164.3203242064
 51
195.6796757936
  0
ARC
  5
5E4
100
AcDbEntity
  8
0
100
AcDbCircle
 62
7
  6
CONTINUOUS
 10
63.1
 20
0.0
 40
86.5
100
AcDbArc
 50
186.039311833
 51
186.797760384
  0
ARC
  5
5E5
100
AcDbEntity
  8
0
100
AcDbCircle
 62
7
  6
CONTINUOUS
 10
63.1
 20
0.0
 40
86.5
100
AcDbArc
 50
174.7266454744
 51
184.1532777628
  0
ARC
  5
5E6
100
AcDbEntity
  8
0
100
AcDbCircle
 62
7
  6
CONTINUOUS
 10
63.1
 20
0.0
 40
86.5
100
AcDbArc
 50
173.202239616
 51
174.0610793543
  0
ARC
  5
5E7
100
AcDbEntity
  8
0
100
AcDbCircle
 62
7
  6
CONTINUOUS
 10
63.1
 20
0.0
 40
86.4738174026
100
AcDbArc
 50
174.0767161407
 51
174.7076221997
  0
ARC
  5
5E8
100
AcDbEntity
  8
0
100
AcDbCircle
 62
253
  6
CONTINUOUS
 10
63.1
 20
0.0
 40
86.4003538135
100
AcDbArc
 50
173.2251245187
 51
184.0580372363
  0
ARC
  5
5E9
100
AcDbEntity
  8
0
100
AcDbCircle
 62
253
  6
CONTINUOUS
 10
63.1
 20
0.0
 40
86.4003538135
100
AcDbArc
 50
186.1375818011
 51
186.7748754813
  0
ARC
  5
5EA
100
AcDbEntity
  8
0
100
AcDbCircle
 62
253
  6
CONTINUOUS
 10
63.1
 20
0.0
 40
85.9004299659
100
AcDbArc
 50
173.2251245187
 51
183.7347809976
  0
ARC
  5
5EB
100
AcDbEntity
  8
0
100
AcDbCircle
 62
253
  6
CONTINUOUS
 10
63.1
 20
0.0
 40
85.9004299659
100
AcDbArc
 50
186.4600859868
 51
186.7748754813
  0
ELLIPSE
  5
5EC
100
AcDbEntity
  8
RACCORDO
100
AcDbEllipse
 62
7
  6
CONTINUOUS
 10
5.3055689286
 20
8.499993146
 30
0.0
 11
-0.1336211606
 21
0.4818223393
 31
0.0
 40
0.999985238
 41
-0.2705222326
 42
0.2705222326
  0
ELLIPSE
  5
5ED
100
AcDbEntity
  8
RACCORDO
100
AcDbEllipse
 62
7
  6
CONTINUOUS
 10
16.6999890336
 20
8.1999890336
 30
0.0
 11
-0.5657009336
 21
-0.5657009336
 31
0.0
 40
0.9999725851
 41
2.3562081979
 42
3.9269771093
  0
ELLIPSE
  5
5EE
100
AcDbEntity
  8
RACCORDO
100
AcDbEllipse
 62
7
  6
CONTINUOUS
 10
16.6999890336
 20
-8.1999890336
 30
0.0
 11
-0.5657009336
 21
0.5657009336
 31
0.0
 40
0.9999725851
 41
2.3562081979
 42
3.9269771093
  0
ELLIPSE
  5
5EF
100
AcDbEntity
  8
RACCORDO
100
AcDbEllipse
 62
7
  6
CONTINUOUS
 10
-5.3055689286
 20
-8.499993146
 30
0.0
 11
0.1336211606
 21
-0.4818223393
 31
0.0
 40
0.999985238
 41
-0.2705222326
 42
0.2705222326
  0
ELLIPSE
  5
5F0
100
AcDbEntity
  8
RACCORDO
100
AcDbEllipse
 62
7
  6
CONTINUOUS
 10
-16.6999890336
 20
-8.1999890336
 30
0.0
 11
0.5657009336
 21
0.5657009336
 31
0.0
 40
0.9999725851
 41
2.3562081979
 42
3.9269771093
  0
ELLIPSE
  5
5F1
100
AcDbEntity
  8
RACCORDO
100
AcDbEllipse
 62
7
  6
CONTINUOUS
 10
-16.6999890336
 20
8.1999890336
 30
0.0
 11
0.5657009336
 21
-0.5657009336
 31
0.0
 40
0.9999725851
 41
2.3562081979
 42
3.9269771093
  0
ELLIPSE
  5
5F2
100
AcDbEntity
  8
RACCORDO
100
AcDbEllipse
 62
7
  6
CONTINUOUS
 10
-16.499847672
 20
7.999847672
 30
0.0
 11
0.7073221892
 21
-0.7073221892
 31
0.0
 40
0.9996954599
 41
2.6181134516
 42
3.7751191411
  0
ELLIPSE
  5
5F3
100
AcDbEntity
  8
RACCORDO
100
AcDbEllipse
 62
7
  6
CONTINUOUS
 10
-16.499847672
 20
7.999847672
 30
0.0
 11
-0.7073221892
 21
0.7073221892
 31
0.0
 40
0.9996954599
 41
-0.6098518034
 42
-0.523479202
  0
ELLIPSE
  5
5F4
100
AcDbEntity
  8
RACCORDO
100
AcDbEllipse
 62
7
  6
CONTINUOUS
 10
-16.499847672
 20
7.999847672
 30
0.0
 11
0.7073221892
 21
-0.7073221892
 31
0.0
 40
0.9996954599
 41
2.3563467834
 42
2.5317408501
  0
ELLIPSE
  5
5F5
100
AcDbEntity
  8
RACCORDO
100
AcDbEllipse
 62
7
  6
CONTINUOUS
 10
-16.499847672
 20
-7.999847672
 30
0.0
 11
0.7073221892
 21
0.7073221892
 31
0.0
 40
0.9996954599
 41
-3.7751191405
 42
-2.3563467834
  0
ELLIPSE
  5
5F6
100
AcDbEntity
  8
RACCORDO
100
AcDbEllipse
 62
7
  6
CONTINUOUS
 10
-5.4273667884
 20
-7.999847672
 30
0.0
 11
-0.2672822145
 21
0.9637885295
 31
0.0
 40
0.9998359844
 41
-3.41207645
 42
-2.9703840618
  0
ELLIPSE
  5
5F7
100
AcDbEntity
  8
RACCORDO
100
AcDbEllipse
 62
7
  6
CONTINUOUS
 10
16.499847672
 20
-7.999847672
 30
0.0
 11
0.7073221892
 21
-0.7073221892
 31
0.0
 40
0.9996954599
 41
-0.7852458701
 42
0.6335264876
  0
ELLIPSE
  5
5F8
100
AcDbEntity
  8
RACCORDO
100
AcDbEllipse
 62
7
  6
CONTINUOUS
 10
16.499847672
 20
7.999847672
 30
0.0
 11
0.7073221892
 21
0.7073221892
 31
0.0
 40
0.9996954599
 41
-0.6335264869
 42
0.7852458701
  0
ELLIPSE
  5
5F9
100
AcDbEntity
  8
RACCORDO
100
AcDbEllipse
 62
7
  6
CONTINUOUS
 10
5.4273667884
 20
7.999847672
 30
0.0
 11
-0.2672822145
 21
0.9637885295
 31
0.0
 40
0.9998359844
 41
-0.2704837964
 42
0.1712085918
  0
ELLIPSE
  5
5FA
100
AcDbEntity
  8
RACCORDO
100
AcDbEllipse
 62
7
  6
CONTINUOUS
 10
-16.0087275325
 20
-8.4911963035
 30
0.0
 11
-0.0
 21
0.5
 31
0.0
 40
0.0174550649
 41
-4.6947662105
 42
-3.1590459461
  0
ELLIPSE
  5
5FB
100
AcDbEntity
  8
RACCORDO
100
AcDbEllipse
 62
7
  6
CONTINUOUS
 10
-7.4912724675
 20
-8.4911963035
 30
0.0
 11
0.0
 21
0.5
 31
0.0
 40
0.0174550649
 41
-3.1241393611
 42
-1.5884190967
  0
ELLIPSE
  5
5FC
100
AcDbEntity
  8
RACCORDO
100
AcDbEllipse
 62
7
  6
CONTINUOUS
 10
16.0087275325
 20
8.4911963035
 30
0.0
 11
-0.0
 21
0.5
 31
0.0
 40
0.0174550649
 41
-1.5531735569
 42
-0.0174532925
  0
ELLIPSE
  5
5FD
100
AcDbEntity
  8
RACCORDO
100
AcDbEllipse
 62
7
  6
CONTINUOUS
 10
7.4912724675
 20
8.4911963035
 30
0.0
 11
0.0
 21
0.5
 31
0.0
 40
0.0174550649
 41
0.0174532925
 42
1.5531735569
  0
ELLIPSE
  5
5FE
100
AcDbEntity
  8
RACCORDO
100
AcDbEllipse
 62
7
  6
CONTINUOUS
 10
-5.0698964237
 20
-7.999923836
 30
0.0
 11
0.3536610946
 21
0.3536610946
 31
0.0
 40
0.9996954599
 41
-2.3563467834
 42
-2.215608268
  0
ELLIPSE
  5
5FF
100
AcDbEntity
  8
RACCORDO
100
AcDbEllipse
 62
7
  6
CONTINUOUS
 10
5.0698964237
 20
7.999923836
 30
0.0
 11
0.3536610946
 21
0.3536610946
 31
0.0
 40
0.9996954599
 41
0.7852458701
 42
0.9259843856
  0
ELLIPSE
  5
600
100
AcDbEntity
  8
RACCORDO
100
AcDbEllipse
 62
7
  6
CONTINUOUS
 10
-16.7684781588
 20
7.999923836
 30
0.0
 11
-0.1336411073
 21
0.4818942648
 31
0.0
 40
0.9998359844
 41
-0.2704837964
 42
0.2704837964
  0
ELLIPSE
  5
601
100
AcDbEntity
  8
RACCORDO
100
AcDbEllipse
 62
7
  6
CONTINUOUS
 10
-21.399923836
 20
5.2170705194
 30
0.0
 11
0.4352653549
 21
-0.2462612891
 31
0.0
 40
0.9997989573
 41
2.6268066921
 42
3.6563786151
  0
ELLIPSE
  5
602
100
AcDbEntity
  8
RACCORDO
100
AcDbEllipse
 62
7
  6
CONTINUOUS
 10
-16.7684781588
 20
-7.999923836
 30
0.0
 11
0.1336411073
 21
0.4818942648
 31
0.0
 40
0.9998359844
 41
-3.41207645
 42
-2.8711088572
  0
ELLIPSE
  5
603
100
AcDbEntity
  8
RACCORDO
100
AcDbEllipse
 62
7
  6
CONTINUOUS
 10
16.7684781588
 20
-7.999923836
 30
0.0
 11
-0.1336411073
 21
0.4818942648
 31
0.0
 40
0.9998359844
 41
-3.41207645
 42
-2.8711088572
  0
ELLIPSE
  5
604
100
AcDbEntity
  8
RACCORDO
100
AcDbEllipse
 62
7
  6
CONTINUOUS
 10
21.399923836
 20
-5.2170705194
 30
0.0
 11
0.4352653549
 21
-0.2462612891
 31
0.0
 40
0.9997989573
 41
-0.5147859615
 42
0.5147859615
  0
ELLIPSE
  5
605
100
AcDbEntity
  8
RACCORDO
100
AcDbEllipse
 62
7
  6
CONTINUOUS
 10
16.7684781588
 20
7.999923836
 30
0.0
 11
0.1336411073
 21
0.4818942648
 31
0.0
 40
0.9998359844
 41
-0.2704837964
 42
0.2704837964
  0
ELLIPSE
  5
606
100
AcDbEntity
  8
RACCORDO
100
AcDbEllipse
 62
7
  6
CONTINUOUS
 10
21.3301035763
 20
5.1775681171
 30
0.0
 11
0.4352653549
 21
0.2462612891
 31
0.0
 40
0.9997989573
 41
0.159737458
 42
0.5147859615
  0
ELLIPSE
  5
607
100
AcDbEntity
  8
RACCORDO
100
AcDbEllipse
 62
7
  6
CONTINUOUS
 10
-21.3301035763
 20
-5.1775681171
 30
0.0
 11
0.4352653549
 21
0.2462612891
 31
0.0
 40
0.9997989573
 41
-2.9818551956
 42
-2.6268066921
  0
ELLIPSE
  5
608
100
AcDbEntity
  8
RACCORDO
100
AcDbEllipse
 62
7
  6
CONTINUOUS
 10
-17.0177620035
 20
-7.699923836
 30
0.0
 11
0.1336411073
 21
0.4818942648
 31
0.0
 40
0.9998359844
 41
-3.41207645
 42
-2.8711088572
  0
ELLIPSE
  5
609
100
AcDbEntity
  8
RACCORDO
100
AcDbEllipse
 62
7
  6
CONTINUOUS
 10
-17.0177620035
 20
7.699923836
 30
0.0
 11
-0.1336411073
 21
0.4818942648
 31
0.0
 40
0.9998359844
 41
-0.2704837964
 42
0.2704837964
  0
ELLIPSE
  5
60A
100
AcDbEntity
  8
RACCORDO
100
AcDbEllipse
 62
7
  6
CONTINUOUS
 10
-21.149923836
 20
5.2170705194
 30
0.0
 11
0.4352653549
 21
-0.2462612891
 31
0.0
 40
0.9997989573
 41
2.6268066921
 42
3.6563786151
  0
ELLIPSE
  5
60B
100
AcDbEntity
  8
RACCORDO
100
AcDbEllipse
 62
7
  6
CONTINUOUS
 10
-21.149923836
 20
-5.2170705194
 30
0.0
 11
0.4352653549
 21
0.2462612891
 31
0.0
 40
0.9997989573
 41
2.6268066921
 42
3.6563786151
  0
ELLIPSE
  5
60C
100
AcDbEntity
  8
RACCORDO
100
AcDbEllipse
 62
7
  6
CONTINUOUS
 10
17.0177620035
 20
7.699923836
 30
0.0
 11
0.1336411073
 21
0.4818942648
 31
0.0
 40
0.9998359844
 41
-0.2704837964
 42
0.2704837964
  0
ELLIPSE
  5
60D
100
AcDbEntity
  8
RACCORDO
100
AcDbEllipse
 62
7
  6
CONTINUOUS
 10
17.0177620035
 20
-7.699923836
 30
0.0
 11
-0.1336411073
 21
0.4818942648
 31
0.0
 40
0.9998359844
 41
-3.41207645
 42
-2.8711088572
  0
ELLIPSE
  5
60E
100
AcDbEntity
  8
RACCORDO
100
AcDbEllipse
 62
7
  6
CONTINUOUS
 10
21.149923836
 20
-5.2170705194
 30
0.0
 11
0.4352653549
 21
-0.2462612891
 31
0.0
 40
0.9997989573
 41
-0.5147859615
 42
0.5147859615
  0
ELLIPSE
  5
60F
100
AcDbEntity
  8
RACCORDO
100
AcDbEllipse
 62
7
  6
CONTINUOUS
 10
21.149923836
 20
5.2170705194
 30
0.0
 11
0.4352653549
 21
0.2462612891
 31
0.0
 40
0.9997989573
 41
-0.5147859615
 42
0.5147859615
  0
ELLIPSE
  5
610
100
AcDbEntity
  8
RACCORDO
100
AcDbEllipse
 62
7
  6
CONTINUOUS
 10
10.500076164
 20
-8.700076164
 30
0.0
 11
0.3536610946
 21
-0.3536610946
 31
0.0
 40
0.9996954599
 41
2.3563467834
 42
3.9268385237
  0
ELLIPSE
  5
611
100
AcDbEntity
  8
RACCORDO
100
AcDbEllipse
 62
7
  6
CONTINUOUS
 10
-10.500076164
 20
8.700076164
 30
0.0
 11
-0.3536610946
 21
0.3536610946
 31
0.0
 40
0.9996954599
 41
2.3563467834
 42
3.9268385237
  0
ELLIPSE
  5
612
100
AcDbEntity
  8
DRAFT
100
AcDbEllipse
 62
7
  6
CONTINUOUS
 10
13.0
 20
4.6159626234
 30
0.0
 11
2.05
 21
0.0
 31
0.0
 40
0.0174550649
 41
-3.1241393611
 42
-0.0174532925
  0
ELLIPSE
  5
613
100
AcDbEntity
  8
DRAFT
100
AcDbEllipse
 62
7
  6
CONTINUOUS
 10
-13.0
 20
4.6159626234
 30
0.0
 11
2.05
 21
0.0
 31
0.0
 40
0.0174550649
 41
-3.1241393611
 42
-0.0174532925
  0
ELLIPSE
  5
614
100
AcDbEntity
  8
RACCORDO
100
AcDbEllipse
 62
7
  6
CONTINUOUS
 10
-4.091656735
 20
-8.0917785974
 30
0.0
 11
0.8
 21
0.0
 31
0.0
 40
0.0174550649
 41
1.5707963268
 42
3.1241393611
  0
ELLIPSE
  5
615
100
AcDbEntity
  8
RACCORDO
100
AcDbEllipse
 62
7
  6
CONTINUOUS
 10
4.091656735
 20
-8.0917785974
 30
0.0
 11
0.8
 21
-0.0
 31
0.0
 40
0.0174550649
 41
0.0174532925
 42
1.5707963268
  0
ELLIPSE
  5
616
100
AcDbEntity
  8
RACCORDO
100
AcDbEllipse
 62
7
  6
CONTINUOUS
 10
4.091656735
 20
8.0917785974
 30
0.0
 11
0.8
 21
-0.0
 31
0.0
 40
0.0174550649
 41
-1.5707963268
 42
-0.0174532925
  0
ELLIPSE
  5
617
100
AcDbEntity
  8
RACCORDO
100
AcDbEllipse
 62
7
  6
CONTINUOUS
 10
-4.091656735
 20
8.0917785974
 30
0.0
 11
0.8
 21
0.0
 31
0.0
 40
0.0174550649
 41
-3.1241393611
 42
-1.5707963268
  0
ELLIPSE
  5
618
100
AcDbEntity
  8
RACCORDO
100
AcDbEllipse
 62
7
  6
CONTINUOUS
 10
8.850076164
 20
-4.149923836
 30
0.0
 11
0.3536610946
 21
0.3536610946
 31
0.0
 40
0.9996954599
 41
-3.9268385237
 42
-2.3563467834
  0
ELLIPSE
  5
619
100
AcDbEntity
  8
RACCORDO
100
AcDbEllipse
 62
7
  6
CONTINUOUS
 10
8.850076164
 20
4.149923836
 30
0.0
 11
-0.3536610946
 21
0.3536610946
 31
0.0
 40
0.9996954599
 41
-0.7852458701
 42
0.7852458701
  0
ELLIPSE
  5
61A
100
AcDbEntity
  8
RACCORDO
100
AcDbEllipse
 62
7
  6
CONTINUOUS
 10
17.149923836
 20
4.149923836
 30
0.0
 11
0.3536610946
 21
0.3536610946
 31
0.0
 40
0.9996954599
 41
-0.7852458701
 42
0.7852458701
  0
ELLIPSE
  5
61B
100
AcDbEntity
  8
RACCORDO
100
AcDbEllipse
 62
7
  6
CONTINUOUS
 10
17.149923836
 20
-4.149923836
 30
0.0
 11
-0.3536610946
 21
0.3536610946
 31
0.0
 40
0.9996954599
 41
-3.9268385237
 42
-2.3563467834
  0
ELLIPSE
  5
61C
100
AcDbEntity
  8
RACCORDO
100
AcDbEllipse
 62
7
  6
CONTINUOUS
 10
-17.149923836
 20
4.149923836
 30
0.0
 11
-0.3536610946
 21
0.3536610946
 31
0.0
 40
0.9996954599
 41
-0.7852458701
 42
0.7852458701
  0
ELLIPSE
  5
61D
100
AcDbEntity
  8
RACCORDO
100
AcDbEllipse
 62
7
  6
CONTINUOUS
 10
-17.149923836
 20
-4.149923836
 30
0.0
 11
0.3536610946
 21
0.3536610946
 31
0.0
 40
0.9996954599
 41
-3.9268385237
 42
-2.3563467834
  0
ELLIPSE
  5
61E
100
AcDbEntity
  8
RACCORDO
100
AcDbEllipse
 62
7
  6
CONTINUOUS
 10
-8.850076164
 20
-4.149923836
 30
0.0
 11
0.3536610946
 21
-0.3536610946
 31
0.0
 40
0.9996954599
 41
-0.7852458701
 42
0.7852458701
  0
ELLIPSE
  5
61F
100
AcDbEntity
  8
RACCORDO
100
AcDbEllipse
 62
7
  6
CONTINUOUS
 10
-8.850076164
 20
4.149923836
 30
0.0
 11
0.3536610946
 21
0.3536610946
 31
0.0
 40
0.9996954599
 41
-0.7852458701
 42
0.7852458701
  0
ELLIPSE
  5
620
100
AcDbEntity
  8
RACCORDO
100
AcDbEllipse
 62
7
  6
CONTINUOUS
 10
-5.9998781376
 20
7.3038752805
 30
0.0
 11
0.5658577513
 21
-0.5658577513
 31
0.0
 40
0.9996954599
 41
2.3563467834
 42
3.9268385237
  0
ELLIPSE
  5
621
100
AcDbEntity
  8
RACCORDO
100
AcDbEllipse
 62
7
  6
CONTINUOUS
 10
-5.9998781376
 20
-7.3038752805
 30
0.0
 11
0.5658577513
 21
0.5658577513
 31
0.0
 40
0.9996954599
 41
-3.9268385237
 42
-3.5309515146
  0
ELLIPSE
  5
622
100
AcDbEntity
  8
RACCORDO
100
AcDbEllipse
 62
7
  6
CONTINUOUS
 10
5.9998781376
 20
-7.3038752805
 30
0.0
 11
0.5658577513
 21
-0.5658577513
 31
0.0
 40
0.9996954599
 41
-0.7852458701
 42
0.7852458701
  0
ELLIPSE
  5
623
100
AcDbEntity
  8
RACCORDO
100
AcDbEllipse
 62
7
  6
CONTINUOUS
 10
5.9998781376
 20
7.3038752805
 30
0.0
 11
0.5658577513
 21
0.5658577513
 31
0.0
 40
0.9996954599
 41
-0.7852458701
 42
-0.389358861
  0
ELLIPSE
  5
624
100
AcDbEntity
  8
0
100
AcDbEllipse
 62
7
  6
CONTINUOUS
 10
-8.300076164
 20
-22.500076164
 30
0.0
 11
0.3536610946
 21
0.3536610946
 31
0.0
 40
0.9996954599
 41
-0.7852458701
 42
0.7852458701
  0
ELLIPSE
  5
625
100
AcDbEntity
  8
0
100
AcDbEllipse
 62
7
  6
CONTINUOUS
 10
-8.300076164
 20
-25.999923836
 30
0.0
 11
0.3536610946
 21
-0.3536610946
 31
0.0
 40
0.9996954599
 41
-0.4589603074
 42
0.7852458701
  0
ELLIPSE
  5
626
100
AcDbEntity
  8
0
100
AcDbEllipse
 62
7
  6
CONTINUOUS
 10
-11.299923836
 20
-22.500076164
 30
0.0
 11
0.3536610946
 21
-0.3536610946
 31
0.0
 40
0.9996954599
 41
2.3563467834
 42
3.9268385237
  0
ELLIPSE
  5
627
100
AcDbEntity
  8
0
100
AcDbEllipse
 62
7
  6
CONTINUOUS
 10
18.5999885765
 20
9.8999885765
 30
0.0
 11
0.2121481893
 21
0.2121481893
 31
0.0
 40
0.9999238505
 41
-0.7853600872
 42
0.7853600872
  0
ELLIPSE
  5
628
100
AcDbEntity
  8
0
100
AcDbEllipse
 62
7
  6
CONTINUOUS
 10
18.5999885765
 20
-9.8999885765
 30
0.0
 11
0.2121481893
 21
-0.2121481893
 31
0.0
 40
0.9999238505
 41
-0.7853600872
 42
0.7853600872
  0
ELLIPSE
  5
629
100
AcDbEntity
  8
0
100
AcDbEllipse
 62
7
  6
CONTINUOUS
 10
-18.5999885765
 20
-9.8999885765
 30
0.0
 11
0.2121481893
 21
0.2121481893
 31
0.0
 40
0.9999238505
 41
-3.9269527408
 42
-2.3562325664
  0
ELLIPSE
  5
62A
100
AcDbEntity
  8
0
100
AcDbEllipse
 62
7
  6
CONTINUOUS
 10
-18.5999885765
 20
9.8999885765
 30
0.0
 11
0.2121481893
 21
-0.2121481893
 31
0.0
 40
0.9999238505
 41
2.3562325664
 42
3.9269527408
  0
ELLIPSE
  5
62B
100
AcDbEntity
  8
0
100
AcDbEllipse
 62
7
  6
CONTINUOUS
 10
3.4540685019
 20
-21.3040685019
 30
0.0
 11
0.7071606311
 21
-0.7071606311
 31
0.0
 40
0.9999238505
 41
-0.7853600872
 42
0.7853600872
  0
ELLIPSE
  5
62C
100
AcDbEntity
  8
0
100
AcDbEllipse
 62
7
  6
CONTINUOUS
 10
-3.4540685019
 20
-21.3040685019
 30
0.0
 11
0.7071606311
 21
0.7071606311
 31
0.0
 40
0.9999238505
 41
-3.9269527408
 42
-2.3562325664
  0
ELLIPSE
  5
62D
100
AcDbEntity
  8
0
100
AcDbEllipse
 62
7
  6
CONTINUOUS
 10
3.4540685019
 20
21.3040685019
 30
0.0
 11
0.7071606311
 21
0.7071606311
 31
0.0
 40
0.9999238505
 41
-0.7853600872
 42
0.7853600872
  0
ELLIPSE
  5
62E
100
AcDbEntity
  8
0
100
AcDbEllipse
 62
7
  6
CONTINUOUS
 10
-3.4540685019
 20
21.3040685019
 30
0.0
 11
0.7071606311
 21
-0.7071606311
 31
0.0
 40
0.9999238505
 41
2.3562325664
 42
3.9269527408
  0
ELLIPSE
  5
62F
100
AcDbEntity
  8
0
100
AcDbEllipse
 62
7
  6
CONTINUOUS
 10
-3.2043634339
 20
-20.2543443947
 30
0.0
 11
-0.0
 21
0.5
 31
0.0
 40
0.0087268678
 41
-3.1328660073
 42
-1.5707963268
  0
ELLIPSE
  5
630
100
AcDbEntity
  8
0
100
AcDbEllipse
 62
7
  6
CONTINUOUS
 10
3.2043634339
 20
-20.2543443947
 30
0.0
 11
-0.0
 21
0.5
 31
0.0
 40
0.0087268678
 41
-4.7123889804
 42
-3.1503192998
  0
ELLIPSE
  5
631
100
AcDbEntity
  8
0
100
AcDbEllipse
 62
7
  6
CONTINUOUS
 10
3.2043634339
 20
20.2543443947
 30
0.0
 11
0.0
 21
0.5
 31
0.0
 40
0.0087268678
 41
0.0087266463
 42
1.5707963268
  0
ELLIPSE
  5
632
100
AcDbEntity
  8
0
100
AcDbEllipse
 62
7
  6
CONTINUOUS
 10
-3.2043634339
 20
20.2543443947
 30
0.0
 11
-0.0
 21
0.5
 31
0.0
 40
0.0087268678
 41
-1.5707963268
 42
-0.0087266463
  0
ELLIPSE
  5
633
100
AcDbEntity
  8
0
100
AcDbEllipse
 62
7
  6
CONTINUOUS
 10
-8.3262587614
 20
-25.9737412386
 30
0.0
 11
0.3536610946
 21
-0.3536610946
 31
0.0
 40
0.9996954599
 41
-0.5185991825
 42
0.7852458701
  0
ELLIPSE
  5
634
100
AcDbEntity
  8
0
100
AcDbEllipse
 62
7
  6
CONTINUOUS
 10
-8.3262587614
 20
-22.5262587614
 30
0.0
 11
0.3536610946
 21
0.3536610946
 31
0.0
 40
0.9996954599
 41
-0.7852458701
 42
0.7852458701
  0
ELLIPSE
  5
635
100
AcDbEntity
  8
0
100
AcDbEllipse
 62
7
  6
CONTINUOUS
 10
-11.2737412386
 20
-22.5262587614
 30
0.0
 11
-0.3536610946
 21
0.3536610946
 31
0.0
 40
0.9996954599
 41
-0.7852458701
 42
0.7852458701
  0
ELLIPSE
  5
636
100
AcDbEntity
  8
0
100
AcDbEllipse
 62
7
  6
CONTINUOUS
 10
-3.3249108586
 20
21.1749108586
 30
0.0
 11
-0.7071606311
 21
0.7071606311
 31
0.0
 40
0.9999238505
 41
-0.7853600872
 42
0.7853600872
  0
ELLIPSE
  5
637
100
AcDbEntity
  8
0
100
AcDbEllipse
 62
7
  6
CONTINUOUS
 10
3.3249108586
 20
21.1749108586
 30
0.0
 11
0.7071606311
 21
0.7071606311
 31
0.0
 40
0.9999238505
 41
-0.7853600872
 42
0.7853600872
  0
ELLIPSE
  5
638
100
AcDbEntity
  8
0
100
AcDbEllipse
 62
7
  6
CONTINUOUS
 10
3.3249108586
 20
-21.1749108586
 30
0.0
 11
0.7071606311
 21
-0.7071606311
 31
0.0
 40
0.9999238505
 41
-0.7853600872
 42
0.7853600872
  0
ELLIPSE
  5
639
100
AcDbEntity
  8
0
100
AcDbEllipse
 62
7
  6
CONTINUOUS
 10
-3.3249108586
 20
-21.1749108586
 30
0.0
 11
-0.7071606311
 21
-0.7071606311
 31
0.0
 40
0.9999238505
 41
-0.7853600872
 42
0.7853600872
  0
ELLIPSE
  5
63A
100
AcDbEntity
  8
0
100
AcDbEllipse
 62
7
  6
CONTINUOUS
 10
18.5476273697
 20
9.8476273697
 30
0.0
 11
0.2121481893
 21
0.2121481893
 31
0.0
 40
0.9999238505
 41
-0.7853600872
 42
0.7853600872
  0
ELLIPSE
  5
63B
100
AcDbEntity
  8
0
100
AcDbEllipse
 62
7
  6
CONTINUOUS
 10
18.5476273697
 20
-9.8476273697
 30
0.0
 11
0.2121481893
 21
-0.2121481893
 31
0.0
 40
0.9999238505
 41
-0.7853600872
 42
0.7853600872
  0
ELLIPSE
  5
63C
100
AcDbEntity
  8
0
100
AcDbEllipse
 62
7
  6
CONTINUOUS
 10
-18.5476273697
 20
9.8476273697
 30
0.0
 11
-0.2121481893
 21
0.2121481893
 31
0.0
 40
0.9999238505
 41
-0.7853600872
 42
0.7853600872
  0
ELLIPSE
  5
63D
100
AcDbEntity
  8
0
100
AcDbEllipse
 62
7
  6
CONTINUOUS
 10
-18.5476273697
 20
-9.8476273697
 30
0.0
 11
-0.2121481893
 21
-0.2121481893
 31
0.0
 40
0.9999238505
 41
-0.7853600872
 42
0.7853600872
  0
ENDSEC
  0
SECTION
  2
OBJECTS
  0
DICTIONARY
  5
C
100
AcDbDictionary
280
0
281
1
  3
ACAD_GROUP
350
D
  3
ACAD_MLINESTYLE
350
17
  3
ACAD_LAYOUT
350
1A
  3
ACAD_PLOTSETTINGS
350
19
  3
ACAD_PLOTSTYLENAME
350
E
  0
DICTIONARY
  5
D
102
{ACAD_REACTORS
330
C
102
}
100
AcDbDictionary
280
0
281
1
  0
ACDBDICTIONARYWDFLT
  5
E
102
{ACAD_REACTORS
330
C
102
}
100
AcDbDictionary
281
1
  3
Normal
350
F
100
AcDbDictionaryWithDefault
340
F
  0
DICTIONARY
  5
17
102
{ACAD_REACTORS
330
C
102
}
100
AcDbDictionary
280
0
281
1
  3
Standard
350
18
  0
DICTIONARY
  5
19
102
{ACAD_REACTORS
330
C
102
}
100
AcDbDictionary
281
1
  0
DICTIONARY
  5
1A
102
{ACAD_REACTORS
330
C
102
}
100
AcDbDictionary
281
1
  3
Model
350
63E
  3
Layout1
350
63F
  0
ACDBPLACEHOLDER
  5
F
102
{ACAD_REACTORS
330
E
102
}
  0
MLINESTYLE
  5
18
102
{ACAD_REACTORS
330
17
102
}
100
AcDbMlineStyle
  2
STANDARD
 70
0
  3

 62
256
 51
90.0
 52
90.0
 71
2
 49
0.5
 62
256
  6
BYLAYER
 49
-0.5
 62
256
  6
BYLAYER
  0
LAYOUT
  5
63E
102
{ACAD_REACTORS
330
1A
102
}
100
AcDbPlotSettings
  1

  2
none_device
  4
ISO_A4_(297.00_x_210.00_MM)
  6

 40
0.0
 41
0.0
 42
0.0
 43
0.0
 44
297.0
 45
210.0
 46
0.0
 47
0.0
 48
0.0
 49
0.0
140
0.0
141
0.0
142
1.0
143
1.0
 70
1024
 72
1
 73
0
 74
0
  7

 75
0
147
1.0
148
0.0
149
0.0
100
AcDbLayout
  1
Model
 70
0
 71
0
 10
0.0
 20
0.0
 11
297.0
 21
210.0
 12
0.0
 22
0.0
 32
0.0
 14
0.0
 24
0.0
 34
0.0
 15
0.0
 25
0.0
 35
0.0
146
0.0
 13
0.0
 23
0.0
 33
0.0
 16
1.0
 26
0.0
 36
0.0
 17
0.0
 27
1.0
 37
0.0
 76
0
330
213
345
0
346
0
  0
LAYOUT
  5
63F
102
{ACAD_REACTORS
330
1A
102
}
100
AcDbPlotSettings
  1

  2
none_device
  4
ISO_A4_(297.00_x_210.00_MM)
  6

 40
0.0
 41
0.0
 42
0.0
 43
0.0
 44
297.0
 45
210.0
 46
0.0
 47
0.0
 48
0.0
 49
0.0
140
0.0
141
0.0
142
1.0
143
1.0
 70
0
 72
1
 73
0
 74
0
  7

 75
0
147
1.0
148
0.0
149
0.0
100
AcDbLayout
  1
Layout1
 70
0
 71
1
 10
0.0
 20
0.0
 11
297.0
 21
210.0
 12
0.0
 22
0.0
 32
0.0
 14
0.0
 24
0.0
 34
0.0
 15
0.0
 25
0.0
 35
0.0
146
0.0
 13
0.0
 23
0.0
 33
0.0
 16
1.0
 26
0.0
 36
0.0
 17
0.0
 27
1.0
 37
0.0
 76
0
330
214
345
0
346
0
  0
ENDSEC
  0
EOF
