  0
SECTION
  2
HEADER
  9
$ACADVER
  1
AC1021
  9
$DWGCODEPAGE
  3
ANSI_1252
  9
$EXTMAX
 10
297.0
 20
210.0
 30
0.0
  9
$EXTMIN
 10
0.0
 20
0.0
 30
0.0
  9
$LIMMIN
 10
0.0
 20
0.0
  9
$LIMMAX
 10
297.0
 20
210.0
  9
$VIEWCTR
 10
148.5
 20
105.0
  9
$VIEWSIZE
 40
210.0
  9
$CLAYER
  8
0
  9
$LTSCALE
 40
16.335
  9
$CELTYPE
  6
BYLAYER
  9
$DIMSCALE
 40
1.0
  9
$DIMASZ
 40
3.0
  9
$DIMEXO
 40
0.5
  9
$DIMDLI
 40
11.286
  9
$DIMEXE
 40
1.5
  9
$DIMCEN
 40
2.673
  9
$DIMLFAC
 40
1.0
  9
$DIMBLK
  1
_FILLED
  9
$DIMALT
 70
0
  9
$DIMALTF
 40
0.0393700787
  9
$DIMTXT
 40
3.0
  9
$DIMTOL
 70
1
  9
$DIMLIM
 70
0
  9
$DIMTFAC
 40
1.0
  9
$DIMTP
 40
0.01
  9
$DIMTM
 40
0.01
  9
$DIMGAP
 40
0.625
  9
$DIMDSEP
 70
44
  9
$AUNITS
 70
0
  9
$PDMODE
 70
3
  9
$PDSIZE
 40
3.0
  9
$HANDSEED
  5
566
  9
$TILEMODE
 70
1
  9
$MEASUREMENT
 70
1
  9
$INSUNITS
 70
4
  0
ENDSEC
  0
SECTION
  2
CLASSES
  0
CLASS
  1
ACDBDICTIONARYWDFLT
  2
AcDbDictionaryWithDefault
  3
AutoCAD 2000
 90
0
 91
1
280
0
281
0
  0
CLASS
  1
ACDBPLACEHOLDER
  2
AcDbPlaceHolder
  3
AutoCAD 2000
 90
0
 91
1
280
0
281
0
  0
CLASS
  1
LAYOUT
  2
AcDbLayout
  3
AutoCAD 2000
 90
0
 91
0
280
0
281
0
  0
ENDSEC
  0
SECTION
  2
TABLES
  0
TABLE
  2
VPORT
  5
8
100
AcDbSymbolTable
 70
2
  0
VPORT
  5
1F4
100
AcDbSymbolTableRecord
100
AcDbViewportTableRecord
  2
*ACTIVE
 70
0
 10
0.0
 20
0.0
 11
1.0
 21
1.0
 12
148.5
 22
105.0
 13
0.0
 23
0.0
 14
1.0
 24
1.0
 15
0.0
 25
0.0
 16
0.0
 26
0.0
 36
1.0
 17
0.0
 27
0.0
 37
0.0
 40
210.0
 41
1.4142857143
 42
50.0
 43
0.0
 44
0.0
 50
0.0
 51
0.0
 71
0
 72
100
 73
1
 74
1
 75
0
 76
0
 77
0
 78
0
  0
ENDTAB
  0
TABLE
  2
LTYPE
  5
5
100
AcDbSymbolTable
 70
6
  0
LTYPE
  5
14
100
AcDbSymbolTableRecord
100
AcDbLinetypeTableRecord
  2
BYBLOCK
 70
0
  3

 72
65
 73
0
 40
0.0
  0
LTYPE
  5
15
100
AcDbSymbolTableRecord
100
AcDbLinetypeTableRecord
  2
BYLAYER
 70
0
  3

 72
65
 73
0
 40
0.0
  0
LTYPE
  5
16
100
AcDbSymbolTableRecord
100
AcDbLinetypeTableRecord
  2
CONTINUOUS
 70
64
  3
Solid line
 72
65
 73
0
 40
0.0
  0
LTYPE
  5
1F5
100
AcDbSymbolTableRecord
100
AcDbLinetypeTableRecord
  2
CENTER
 70
64
  3
____ _ ____ _ ____ _ ____ _ ____ _ ____ _ ____
 72
65
 73
4
 40
0.6
 49
0.375
 74
0
 49
-0.075
 74
0
 49
0.075
 74
0
 49
-0.075
 74
0
  0
LTYPE
  5
1F6
100
AcDbSymbolTableRecord
100
AcDbLinetypeTableRecord
  2
HIDDEN
 70
64
  3
- - - - - - - - - - - - - - - - - - - -
 72
65
 73
2
 40
0.2
 49
0.1
 74
0
 49
-0.1
 74
0
  0
LTYPE
  5
1F7
100
AcDbSymbolTableRecord
100
AcDbLinetypeTableRecord
  2
PHANTOM
 70
64
  3
_____ _ _ _____ _ _ _____ _ _ _____
 72
65
 73
6
 40
0.8
 49
0.45
 74
0
 49
-0.05
 74
0
 49
0.1
 74
0
 49
-0.05
 74
0
 49
0.1
 74
0
 49
-0.05
 74
0
  0
LTYPE
  5
1F8
100
AcDbSymbolTableRecord
100
AcDbLinetypeTableRecord
  2
DOT
 70
64
  3
. . . . . . . . . . . . . . . . . . . .
 72
65
 73
2
 40
0.2
 49
0.1
 74
0
 49
-0.1
 74
0
  0
LTYPE
  5
1F9
100
AcDbSymbolTableRecord
100
AcDbLinetypeTableRecord
  2
DASHED
 70
64
  3
- - - - - - - - - - - - - - - - - - - -
 72
65
 73
2
 40
0.2
 49
0.1
 74
0
 49
-0.1
 74
0
  0
ENDTAB
  0
TABLE
  2
LAYER
  5
2
100
AcDbSymbolTable
 70
36
  0
LAYER
  5
10
100
AcDbSymbolTableRecord
100
AcDbLayerTableRecord
  2
0
 70
0
 62
7
  6
CONTINUOUS
370
-3
390
F
  0
LAYER
  5
1FA
100
AcDbSymbolTableRecord
100
AcDbLayerTableRecord
  2
DEFAULT_1
 70
0
 62
7
  6
CENTER
370
-3
390
F
  0
LAYER
  5
1FB
100
AcDbSymbolTableRecord
100
AcDbLayerTableRecord
  2
DEFAULT_2
 70
0
 62
7
  6
HIDDEN
370
-3
390
F
  0
LAYER
  5
1FC
100
AcDbSymbolTableRecord
100
AcDbLayerTableRecord
  2
DEFAULT_3
 70
0
 62
7
  6
PHANTOM
370
-3
390
F
  0
LAYER
  5
1FD
100
AcDbSymbolTableRecord
100
AcDbLayerTableRecord
  2
ASSI
 70
0
 62
7
  6
CONTINUOUS
370
-3
390
F
  0
LAYER
  5
1FE
100
AcDbSymbolTableRecord
100
AcDbLayerTableRecord
  2
COLOR5
 70
0
 62
7
  6
CONTINUOUS
370
-3
390
F
  0
LAYER
  5
1FF
100
AcDbSymbolTableRecord
100
AcDbLayerTableRecord
  2
COORDINATE
 70
0
 62
7
  6
CONTINUOUS
370
-3
390
F
  0
LAYER
  5
200
100
AcDbSymbolTableRecord
100
AcDbLayerTableRecord
  2
COORD_ORIGINE
 70
0
 62
7
  6
CONTINUOUS
370
-3
390
F
  0
LAYER
  5
201
100
AcDbSymbolTableRecord
100
AcDbLayerTableRecord
  2
COPY_PUBLISH
 70
0
 62
7
  6
CONTINUOUS
370
-3
390
F
  0
LAYER
  5
202
100
AcDbSymbolTableRecord
100
AcDbLayerTableRecord
  2
COSMETICHE
 70
0
 62
7
  6
CONTINUOUS
370
-3
390
F
  0
LAYER
  5
203
100
AcDbSymbolTableRecord
100
AcDbLayerTableRecord
  2
COSMETICI
 70
0
 62
7
  6
CONTINUOUS
370
-3
390
F
  0
LAYER
  5
204
100
AcDbSymbolTableRecord
100
AcDbLayerTableRecord
  2
CURVE
 70
0
 62
7
  6
CONTINUOUS
370
-3
390
F
  0
LAYER
  5
205
100
AcDbSymbolTableRecord
100
AcDbLayerTableRecord
  2
DRAFT
 70
0
 62
7
  6
CONTINUOUS
370
-3
390
F
  0
LAYER
  5
206
100
AcDbSymbolTableRecord
100
AcDbLayerTableRecord
  2
IMPORT_IGES
 70
0
 62
7
  6
CONTINUOUS
370
-3
390
F
  0
LAYER
  5
207
100
AcDbSymbolTableRecord
100
AcDbLayerTableRecord
  2
INTF_11
 70
0
 62
7
  6
CONTINUOUS
370
-3
390
F
  0
LAYER
  5
208
100
AcDbSymbolTableRecord
100
AcDbLayerTableRecord
  2
NOTE
 70
0
 62
7
  6
CONTINUOUS
370
-3
390
F
  0
LAYER
  5
209
100
AcDbSymbolTableRecord
100
AcDbLayerTableRecord
  2
PIANI
 70
0
 62
7
  6
CONTINUOUS
370
-3
390
F
  0
LAYER
  5
20A
100
AcDbSymbolTableRecord
100
AcDbLayerTableRecord
  2
PIANI_ORIGINE
 70
0
 62
7
  6
CONTINUOUS
370
-3
390
F
  0
LAYER
  5
20B
100
AcDbSymbolTableRecord
100
AcDbLayerTableRecord
  2
PUNTI
 70
0
 62
7
  6
CONTINUOUS
370
-3
390
F
  0
LAYER
  5
20C
100
AcDbSymbolTableRecord
100
AcDbLayerTableRecord
  2
RACCORDO
 70
0
 62
7
  6
CONTINUOUS
370
-3
390
F
  0
LAYER
  5
20D
100
AcDbSymbolTableRecord
100
AcDbLayerTableRecord
  2
SIMBOLI
 70
0
 62
7
  6
CONTINUOUS
370
-3
390
F
  0
LAYER
  5
20E
100
AcDbSymbolTableRecord
100
AcDbLayerTableRecord
  2
SMUSSO
 70
0
 62
7
  6
CONTINUOUS
370
-3
390
F
  0
LAYER
  5
20F
100
AcDbSymbolTableRecord
100
AcDbLayerTableRecord
  2
SUPERFICI
 70
0
 62
7
  6
CONTINUOUS
370
-3
390
F
  0
LAYER
  5
210
100
AcDbSymbolTableRecord
100
AcDbLayerTableRecord
  2
TRASH
 70
0
 62
7
  6
CONTINUOUS
370
-3
390
F
  0
ENDTAB
  0
TABLE
  2
STYLE
  5
3
100
AcDbSymbolTable
 70
1
  0
STYLE
  5
11
100
AcDbSymbolTableRecord
100
AcDbTextStyleTableRecord
  2
STANDARD
 70
0
 40
0.0
 41
0.8
 50
0.0
 71
0
 42
0.2
  3
txt
  4

  0
STYLE
  5
211
100
AcDbSymbolTableRecord
100
AcDbTextStyleTableRecord
  2
TEXTSTYLE_1
 70
0
 40
0.0
 41
0.8
 50
0.0
 71
0
 42
0.2
  3
gdt
  4

  0
ENDTAB
  0
TABLE
  2
VIEW
  5
6
100
AcDbSymbolTable
 70
0
  0
ENDTAB
  0
TABLE
  2
UCS
  5
7
100
AcDbSymbolTable
 70
0
  0
ENDTAB
  0
TABLE
  2
APPID
  5
9
100
AcDbSymbolTable
 70
1
  0
APPID
  5
212
100
AcDbSymbolTableRecord
100
AcDbRegAppTableRecord
  2
ACAD
 70
0
  0
ENDTAB
  0
TABLE
  2
BLOCK_RECORD
  5
1
100
AcDbSymbolTable
 70
0
  0
BLOCK_RECORD
  5
213
100
AcDbSymbolTableRecord
100
AcDbBlockTableRecord
  2
*Model_Space
  0
BLOCK_RECORD
  5
214
100
AcDbSymbolTableRecord
100
AcDbBlockTableRecord
  2
*Paper_Space
  0
ENDTAB
  0
TABLE
  2
DIMSTYLE
  5
A
100
AcDbSymbolTable
 70
1
100
AcDbDimStyleTable
 71
0
  0
DIMSTYLE
105
215
100
AcDbSymbolTableRecord
100
AcDbDimStyleTableRecord
  2
STANDARD
 70
0
  3

  4

 40
1.0
 41
3.0
 42
0.5
 43
0.38
 44
1.5
 45
0.0
 46
0.0
 47
0.01
 48
0.01
140
3.0
141
0.09
142
0.0
143
25.4
144
1.0
145
0.0
146
1.0
147
0.625
 71
1.0
 72
0.0
 73
0
 74
0
 75
0
 76
0
 77
1
 78
8
170
0
171
2
172
0
173
0
174
0
175
0
176
0
177
0
178
0
270
2
271
2
272
2
273
2
274
2
275
0
280
0
281
0
282
0
283
1
284
8
285
0
286
0
287
3
288
0
340
11
278
44
  0
ENDTAB
  0
ENDSEC
  0
SECTION
  2
BLOCKS
  0
BLOCK
  5
20
100
AcDbEntity
  8
0
100
AcDbBlockBegin
  2
*Model_Space
 70
0
 10
0.0
 20
0.0
 30
0.0
  3
*Model_Space
  1

  0
ENDBLK
  5
21
100
AcDbEntity
  8
0
100
AcDbBlockEnd
  0
BLOCK
  5
1C
100
AcDbEntity
  8
0
100
AcDbBlockBegin
  2
*Paper_Space
 70
0
 10
0.0
 20
0.0
 30
0.0
  3
*Paper_Space
  1

  0
ENDBLK
  5
1D
100
AcDbEntity
  8
0
100
AcDbBlockEnd
  0
ENDSEC
  0
SECTION
  2
ENTITIES
  0
LWPOLYLINE
  5
216
100
AcDbEntity
  8
RACCORDO
100
AcDbPolyline
 62
7
  6
CONTINUOUS
 90
31
 70
0
 10
7.4305021139
 20
-39.8098186119
 10
7.6819843499
 20
-39.8090727754
 10
7.9317983681
 20
-39.8077107981
 10
8.1765215544
 20
-39.805467897
 10
8.4157515146
 20
-39.8020000908
 10
8.6498906429
 20
-39.7969212457
 10
8.8767235084
 20
-39.7899022999
 10
9.0955154466
 20
-39.7805482557
 10
9.3070011221
 20
-39.7683680678
 10
9.5111690966
 20
-39.7529102466
 10
9.7085909397
 20
-39.7335999645
 10
9.898695082
 20
-39.7099186642
 10
10.0797553771
 20
-39.6815664415
 10
10.2516093262
 20
-39.6479901775
 10
10.414419428
 20
-39.6086806056
 10
10.5669470328
 20
-39.5636169328
 10
10.7086964475
 20
-39.5125103034
 10
10.840163365
 20
-39.4548344997
 10
10.9615962147
 20
-39.3904070846
 10
11.0728992651
 20
-39.3190078407
 10
11.1741682476
 20
-39.2401399245
 10
11.2659387859
 20
-39.153221343
 10
11.3484053437
 20
-39.0576668297
 10
11.4213734574
 20
-38.9532345616
 10
11.4847953598
 20
-38.8398829058
 10
11.5385089659
 20
-38.7175992258
 10
11.5826763607
 20
-38.5857976107
 10
11.6177360316
 20
-38.4435652464
 10
11.6438341412
 20
-38.2903195876
 10
11.6608245269
 20
-38.1259115449
 10
11.6687071888
 20
-37.9500202595
  0
LINE
  5
217
100
AcDbEntity
  8
RACCORDO
100
AcDbLine
 62
7
  6
CONTINUOUS
 10
6.6694687131
 20
-39.8103696431
 11
7.4305021139
 21
-39.8098186119
  0
LWPOLYLINE
  5
218
100
AcDbEntity
  8
0
100
AcDbPolyline
 62
7
  6
CONTINUOUS
 90
34
 70
0
 10
-24.092733434
 20
28.1485111187
 10
-24.1773818516
 20
28.0765568526
 10
-24.2613179009
 20
27.994933426
 10
-24.3396083355
 20
27.9078802684
 10
-24.4119027302
 20
27.8157870266
 10
-24.4778774974
 20
27.7190659066
 10
-24.5372373361
 20
27.6181498287
 10
-24.5897165537
 20
27.5134904895
 10
-24.6350802546
 20
27.4055563407
 10
-24.6731253923
 20
27.2948304917
 10
-24.7036816777
 20
27.1818085475
 10
-24.7266123418
 20
27.0669963905
 10
-24.7418147474
 20
26.9509079159
 10
-24.7492208487
 20
26.8340627317
 10
-24.748797496
 20
26.7169838331
 10
-24.740546584
 20
26.6001952613
 10
-24.7245050431
 20
26.484219758
 10
-24.7007446745
 20
26.3695764258
 10
-24.6693718286
 20
26.2567784044
 10
-24.6305269288
 20
26.1463305742
 10
-24.5843838433
 20
26.0387272961
 10
-24.5311491069
 20
25.934450199
 10
-24.4710609961
 20
25.8339660238
 10
-24.4043884631
 20
25.7377245347
 10
-24.3314299317
 20
25.6461565055
 10
-24.2525119618
 20
25.559671792
 10
-24.1679877873
 20
25.4786574972
 10
-24.0782357355
 20
25.4034762388
 10
-23.9836575335
 20
25.3344645258
 10
-23.8846765101
 20
25.2719312529
 10
-23.781735701
 20
25.2161563171
 10
-23.675295866
 20
25.1673893657
 10
-23.5658334261
 20
25.1258486784
 10
-23.4538383317
 20
25.0917201903
  0
LWPOLYLINE
  5
219
100
AcDbEntity
  8
0
100
AcDbPolyline
 62
7
  6
CONTINUOUS
 90
22
 70
0
 10
-23.6766795445
 20
27.628153798
 10
-23.6194507774
 20
27.6747828995
 10
-23.5588447771
 20
27.7176397016
 10
-23.4951029223
 20
27.7564693339
 10
-23.4283515446
 20
27.7910958768
 10
-23.3589965211
 20
27.8212128809
 10
-23.2877673534
 20
27.8464775674
 10
-23.2150868856
 20
27.8667725262
 10
-23.1412299391
 20
27.8820531804
 10
-23.0667604019
 20
27.8922488519
 10
-22.9922462709
 20
27.897371234
 10
-22.917822552
 20
27.8974999772
 10
-22.8433993213
 20
27.8926601714
 10
-22.7692476296
 20
27.8828458471
 10
-22.6957609082
 20
27.8680853728
 10
-22.6230354929
 20
27.848355613
 10
-22.5512294219
 20
27.8236106032
 10
-22.4808749388
 20
27.7939424047
 10
-22.4126148429
 20
27.7595863164
 10
-22.3468536574
 20
27.7207602779
 10
-22.2837830307
 20
27.677592558
 10
-22.2236842704
 20
27.6302778803
  0
LWPOLYLINE
  5
21A
100
AcDbEntity
  8
0
100
AcDbPolyline
 62
7
  6
CONTINUOUS
 90
18
 70
0
 10
-24.0928564698
 20
28.1486558605
 10
-24.1368876791
 20
28.0625981417
 10
-24.175023516
 20
27.9757049613
 10
-24.2072984114
 20
27.8883515459
 10
-24.2337696086
 20
27.8009071768
 10
-24.2545166324
 20
27.713733846
 10
-24.2696406826
 20
27.6271849521
 10
-24.2792639514
 20
27.5416040391
 10
-24.2835288695
 20
27.4573235836
 10
-24.282597284
 20
27.3746638333
 10
-24.27664957
 20
27.293931702
 10
-24.2658836818
 20
27.2154197231
 10
-24.250514145
 20
27.1394050659
 10
-24.2307709951
 20
27.0661486187
 10
-24.2068986664
 20
26.9958941388
 10
-24.1791548348
 20
26.9288674761
 10
-24.1478092202
 20
26.8652758686
 10
-24.1131423512
 20
26.8053073153
  0
LWPOLYLINE
  5
21B
100
AcDbEntity
  8
0
100
AcDbPolyline
 62
7
  6
CONTINUOUS
 90
34
 70
0
 10
-21.907266566
 20
25.4151841432
 10
-21.8226181484
 20
25.4871384093
 10
-21.7386820991
 20
25.5687618359
 10
-21.6603916645
 20
25.6558149934
 10
-21.5880972698
 20
25.7479082352
 10
-21.5221225026
 20
25.8446293553
 10
-21.4627626639
 20
25.9455454332
 10
-21.4102834463
 20
26.0502047723
 10
-21.3649197454
 20
26.1581389211
 10
-21.3268746077
 20
26.2688647701
 10
-21.2963183223
 20
26.3818867143
 10
-21.2733876582
 20
26.4966988714
 10
-21.2581852526
 20
26.612787346
 10
-21.2507791513
 20
26.7296325302
 10
-21.251202504
 20
26.8467114288
 10
-21.259453416
 20
26.9635000006
 10
-21.2754949569
 20
27.0794755039
 10
-21.2992553255
 20
27.1941188361
 10
-21.3306281714
 20
27.3069168574
 10
-21.3694730712
 20
27.4173646876
 10
-21.4156161567
 20
27.5249679657
 10
-21.4688508931
 20
27.6292450629
 10
-21.5289390039
 20
27.729729238
 10
-21.5956115369
 20
27.8259707272
 10
-21.6685700683
 20
27.9175387564
 10
-21.7474880382
 20
28.0040234699
 10
-21.8320122127
 20
28.0850377646
 10
-21.9217642645
 20
28.1602190231
 10
-22.0163424665
 20
28.229230736
 10
-22.1153234899
 20
28.291764009
 10
-22.218264299
 20
28.3475389448
 10
-22.324704134
 20
28.3963058961
 10
-22.4341665739
 20
28.4378465835
 10
-22.5461616683
 20
28.4719750716
  0
LWPOLYLINE
  5
21C
100
AcDbEntity
  8
0
100
AcDbPolyline
 62
7
  6
CONTINUOUS
 90
22
 70
0
 10
-22.3233204555
 20
25.9355414639
 10
-22.3805592261
 20
25.8889047633
 10
-22.441170818
 20
25.8460453122
 10
-22.5049129689
 20
25.8072169781
 10
-22.5716587719
 20
25.7725944758
 10
-22.6410015958
 20
25.7424831227
 10
-22.7122109708
 20
25.7172245549
 10
-22.7848558805
 20
25.6969366292
 10
-22.8586690485
 20
25.6816594206
 10
-22.9331106386
 20
25.6714596448
 10
-23.0076263532
 20
25.6663285069
 10
-23.0820690334
 20
25.6661918628
 10
-23.1565142711
 20
25.6710265772
 10
-23.2306883485
 20
25.6808387626
 10
-23.3041998741
 20
25.6956006447
 10
-23.3769452444
 20
25.7153337265
 10
-23.4487637785
 20
25.7400820573
 10
-23.5191259977
 20
25.7697532897
 10
-23.5873902782
 20
25.8041117422
 10
-23.6531526402
 20
25.8429389921
 10
-23.7162214257
 20
25.8861059777
 10
-23.7763157296
 20
25.9334173816
  0
LINE
  5
21D
100
AcDbEntity
  8
DRAFT
100
AcDbLine
 62
7
  6
CONTINUOUS
 10
7.3533628193
 20
-33.3759125072
 11
7.4358848514
 21
-33.3610117735
  0
LINE
  5
21E
100
AcDbEntity
  8
DRAFT
100
AcDbLine
 62
7
  6
CONTINUOUS
 10
9.5285418101
 20
-31.068127505
 11
9.5284639681
 21
-31.0681414429
  0
LWPOLYLINE
  5
21F
100
AcDbEntity
  8
0
100
AcDbPolyline
 62
7
  6
CONTINUOUS
 90
13
 70
0
 10
6.9360060052
 20
-32.0681518021
 10
7.0166679648
 20
-32.0612176021
 10
7.0870801887
 20
-32.0438821159
 10
7.1512704622
 20
-32.0184707037
 10
7.2086871249
 20
-31.9869990135
 10
7.2592269861
 20
-31.9510763217
 10
7.303390172
 20
-31.9116069593
 10
7.3408629455
 20
-31.870081085
 10
7.3711688876
 20
-31.8287890216
 10
7.3949353294
 20
-31.7893256199
 10
7.4138904092
 20
-31.751437268
 10
7.4294918662
 20
-31.7144530727
 10
7.4360760516
 20
-31.6962007126
  0
LWPOLYLINE
  5
220
100
AcDbEntity
  8
0
100
AcDbPolyline
 62
7
  6
CONTINUOUS
 90
13
 70
0
 10
-1.0639945127
 20
-32.0681517965
 10
-0.9843605553
 20
-32.0613926194
 10
-0.9140695612
 20
-32.0442513252
 10
-0.8496644348
 20
-32.0189112179
 10
-0.7918310115
 20
-31.9873243863
 10
-0.7409502899
 20
-31.9512180649
 10
-0.6965583726
 20
-31.9115555504
 10
-0.6589238336
 20
-31.8698179829
 10
-0.6285941948
 20
-31.8284309068
 10
-0.6049482155
 20
-31.7891123444
 10
-0.5861687526
 20
-31.7515665112
 10
-0.5707335814
 20
-31.7150325487
 10
-0.563890615
 20
-31.6961318269
  0
LWPOLYLINE
  5
221
100
AcDbEntity
  8
0
100
AcDbPolyline
 62
7
  6
CONTINUOUS
 90
13
 70
0
 10
-2.0639911024
 20
-32.0681518329
 10
-1.9854000756
 20
-32.0615672844
 10
-1.9155792409
 20
-32.0447316787
 10
-1.8516106099
 20
-32.0198212626
 10
-1.794130156
 20
-31.9887584931
 10
-1.7434319194
 20
-31.9531896352
 10
-1.6990560062
 20
-31.9140319532
 10
-1.6613172411
 20
-31.8727510728
 10
-1.6307838426
 20
-31.8317170475
 10
-1.6068607725
 20
-31.7925876294
 10
-1.5878051662
 20
-31.7551111892
 10
-1.5721503494
 20
-31.7186414063
 10
-1.5638898971
 20
-31.6961701227
  0
LWPOLYLINE
  5
222
100
AcDbEntity
  8
0
100
AcDbPolyline
 62
7
  6
CONTINUOUS
 90
13
 70
0
 10
4.9360048322
 20
-32.0681517894
 10
5.014529326
 20
-32.061579019
 10
5.0846987334
 20
-32.0446436102
 10
5.1493539557
 20
-32.0193714003
 10
5.2076592258
 20
-31.9876437139
 10
5.2589227694
 20
-31.9513194875
 10
5.3035688736
 20
-31.9114284387
 10
5.3413797796
 20
-31.8694427541
 10
5.3717289256
 20
-31.8279414787
 10
5.3952481085
 20
-31.7887522985
 10
5.4138367082
 20
-31.7515545571
 10
5.429048318
 20
-31.7155917707
 10
5.4361123369
 20
-31.6961608691
  0
LWPOLYLINE
  5
223
100
AcDbEntity
  8
0
100
AcDbPolyline
 62
7
  6
CONTINUOUS
 90
13
 70
0
 10
5.93601314
 20
-32.0681518765
 10
6.0139443207
 20
-32.0616762913
 10
6.0832716338
 20
-32.045093939
 10
6.1465968958
 20
-32.0206511408
 10
6.2034152819
 20
-31.9902722023
 10
6.2536871701
 20
-31.9554491264
 10
6.2978861659
 20
-31.9170201248
 10
6.3356276515
 20
-31.8764338848
 10
6.3663721596
 20
-31.8359078642
 10
6.3906917226
 20
-31.7969516306
 10
6.4101814218
 20
-31.7593950344
 10
6.4261937156
 20
-31.7227893035
 10
6.4361172601
 20
-31.696249829
  0
LWPOLYLINE
  5
224
100
AcDbEntity
  8
0
100
AcDbPolyline
 62
7
  6
CONTINUOUS
 90
13
 70
0
 10
-0.063986219
 20
-32.0681518829
 10
0.0122017679
 20
-32.0619615145
 10
0.0811901635
 20
-32.0457427143
 10
0.144627342
 20
-32.0215538528
 10
0.2018562281
 20
-31.9912244266
 10
0.2525124039
 20
-31.9563615706
 10
0.297022446
 20
-31.9178555324
 10
0.3350362932
 20
-31.8771389334
 10
0.365904426
 20
-31.8365889478
 10
0.3901831858
 20
-31.7978469312
 10
0.4095569264
 20
-31.7607067938
 10
0.4254343379
 20
-31.7246667056
 10
0.4360575118
 20
-31.6965274973
  0
LWPOLYLINE
  5
225
100
AcDbEntity
  8
0
100
AcDbPolyline
 62
7
  6
CONTINUOUS
 90
12
 70
0
 10
-3.0
 20
-33.8151206305
 10
-2.9250590024
 20
-33.8090837604
 10
-2.8540471125
 20
-33.7938952725
 10
-2.7869643304
 20
-33.7695551668
 10
-2.7220466354
 20
-33.7350349774
 10
-2.6610580482
 20
-33.6913631703
 10
-2.6092906309
 20
-33.6416251428
 10
-2.568075344
 20
-33.5857878738
 10
-2.5360812272
 20
-33.5238843844
 10
-2.5146074611
 20
-33.4590991352
 10
-2.504087105
 20
-33.3905724398
 10
-2.5027720582
 20
-33.3548681796
  0
LWPOLYLINE
  5
226
100
AcDbEntity
  8
0
100
AcDbPolyline
 62
7
  6
CONTINUOUS
 90
12
 70
0
 10
-3.0
 20
-32.894615777
 10
-3.074941001
 20
-32.9006526416
 10
-3.1459528935
 20
-32.9158411278
 10
-3.2130356775
 20
-32.9401812355
 10
-3.2779533733
 20
-32.9747014331
 10
-3.3389419607
 20
-33.0183732524
 10
-3.3907093783
 20
-33.0681112882
 10
-3.4319246673
 20
-33.1239485576
 10
-3.4639187865
 20
-33.1858520436
 10
-3.4853925517
 20
-33.2506372899
 10
-3.4959129004
 20
-33.3191639847
 10
-3.4972279418
 20
-33.3548681796
  0
LWPOLYLINE
  5
227
100
AcDbEntity
  8
0
100
AcDbPolyline
 62
7
  6
CONTINUOUS
 90
29
 70
0
 10
7.9360046541
 20
-32.0681517874
 10
8.0107418309
 20
-32.0621954562
 10
8.080324488
 20
-32.0460097323
 10
8.1455436168
 20
-32.0211350762
 10
8.2051119287
 20
-31.9892277997
 10
8.2573763788
 20
-31.9525500528
 10
8.3025143973
 20
-31.9124785786
 10
8.34063324
 20
-31.8703639019
 10
8.3711766178
 20
-31.8287773468
 10
8.3947972885
 20
-31.7895781444
 10
8.4134158265
 20
-31.7524717823
 10
8.4286287188
 20
-31.7166638771
 10
8.44110169
 20
-31.6825225559
 10
8.4515408069
 20
-31.6498306368
 10
8.4608789188
 20
-31.6168013384
 10
8.4693871656
 20
-31.5831440744
 10
8.4772081892
 20
-31.5488852854
 10
8.4847182154
 20
-31.5127597896
 10
8.4920324365
 20
-31.474367059
 10
8.4991676548
 20
-31.4337482918
 10
8.5062332224
 20
-31.390373432
 10
8.5132672537
 20
-31.3440395257
 10
8.5202847271
 20
-31.2946729789
 10
8.5273219152
 20
-31.2420340018
 10
8.534395816
 20
-31.1859970385
 10
8.541513151
 20
-31.1265144137
 10
8.5486799225
 20
-31.0635514558
 10
8.5559040923
 20
-30.9970621866
 10
8.5589121989
 20
-30.9681523691
  0
LWPOLYLINE
  5
228
100
AcDbEntity
  8
0
100
AcDbPolyline
 62
7
  6
CONTINUOUS
 90
12
 70
0
 10
1.9359966783
 20
-32.068151697
 10
2.0097500832
 20
-32.0623517903
 10
2.0798546551
 20
-32.0461539635
 10
2.1461521967
 20
-32.020855799
 10
2.2072523679
 20
-31.9878976843
 10
2.2614329464
 20
-31.9493023461
 10
2.3090906048
 20
-31.9058315433
 10
2.3495918936
 20
-31.8590213389
 10
2.3813749635
 20
-31.8127639493
 10
2.4051804655
 20
-31.7696829522
 10
2.423710521
 20
-31.7288718038
 10
2.4360338587
 20
-31.6964551247
  0
LWPOLYLINE
  5
229
100
AcDbEntity
  8
0
100
AcDbPolyline
 62
7
  6
CONTINUOUS
 90
12
 70
0
 10
2.9359976384
 20
-32.0681517082
 10
3.0092504842
 20
-32.0624298146
 10
3.0791976145
 20
-32.0463548521
 10
3.1454161499
 20
-32.0211934651
 10
3.2065041642
 20
-31.9883640697
 10
3.2607071759
 20
-31.9498880774
 10
3.3084127322
 20
-31.9065274384
 10
3.3489834554
 20
-31.8598121131
 10
3.3808351401
 20
-31.8136437331
 10
3.4046985549
 20
-31.7706488203
 10
3.423270526
 20
-31.7299328831
 10
3.4360305375
 20
-31.6965282124
  0
LWPOLYLINE
  5
22A
100
AcDbEntity
  8
0
100
AcDbPolyline
 62
7
  6
CONTINUOUS
 90
12
 70
0
 10
3.9359986091
 20
-32.0681517195
 10
4.0087615392
 20
-32.0625056663
 10
4.0785516221
 20
-32.0465514398
 10
4.1446872188
 20
-32.0215265532
 10
4.205756761
 20
-31.98882829
 10
4.2599774734
 20
-31.950474917
 10
4.3077283033
 20
-31.9072275094
 10
4.3483671691
 20
-31.8606099567
 10
4.3802881951
 20
-31.8145312822
 10
4.4042123898
 20
-31.7716188177
 10
4.4228298233
 20
-31.7309907186
 10
4.4360715065
 20
-31.6964902435
  0
LWPOLYLINE
  5
22B
100
AcDbEntity
  8
0
100
AcDbPolyline
 62
7
  6
CONTINUOUS
 90
13
 70
0
 10
0.936006079
 20
-32.0681518029
 10
1.006615901
 20
-32.0628326059
 10
1.0754309726
 20
-32.0474882449
 10
1.1406606453
 20
-32.02334306
 10
1.2010091695
 20
-31.9917385123
 10
1.2548833814
 20
-31.9545147316
 10
1.302655314
 20
-31.912337954
 10
1.343583497
 20
-31.8666983753
 10
1.3759948427
 20
-31.8213677018
 10
1.4005315702
 20
-31.7788229207
 10
1.4197248918
 20
-31.7383064015
 10
1.4353676587
 20
-31.6988235758
 10
1.4361182271
 20
-31.6965962748
  0
LINE
  5
22C
100
AcDbEntity
  8
DRAFT
100
AcDbLine
 62
7
  6
CONTINUOUS
 10
-11.7053068066
 20
-34.939045489
 11
11.7053068066
 21
-34.939045489
  0
LINE
  5
22D
100
AcDbEntity
  8
DRAFT
100
AcDbLine
 62
7
  6
CONTINUOUS
 10
7.45
 20
-34.7661320475
 11
9.5106325477
 21
-34.7661320475
  0
LINE
  5
22E
100
AcDbEntity
  8
RACCORDO
100
AcDbLine
 62
7
  6
CONTINUOUS
 10
-15.0
 20
-34.7181523691
 11
-12.0
 21
-34.7181523691
  0
LINE
  5
22F
100
AcDbEntity
  8
RACCORDO
100
AcDbLine
 62
7
  6
CONTINUOUS
 10
12.0
 20
-34.7181523691
 11
15.0
 21
-34.7181523691
  0
LINE
  5
230
100
AcDbEntity
  8
DRAFT
100
AcDbLine
 62
253
  6
CONTINUOUS
 10
-11.6262152228
 20
-34.7167603924
 11
7.4125794244
 21
-34.7167603924
  0
LINE
  5
231
100
AcDbEntity
  8
DRAFT
100
AcDbLine
 62
253
  6
CONTINUOUS
 10
9.5293414105
 20
-34.7167603924
 11
11.6262152228
 21
-34.7167603924
  0
LINE
  5
232
100
AcDbEntity
  8
RACCORDO
100
AcDbLine
 62
253
  6
CONTINUOUS
 10
-15.0
 20
-33.9122134739
 11
-12.0
 21
-33.9122134739
  0
LINE
  5
233
100
AcDbEntity
  8
RACCORDO
100
AcDbLine
 62
253
  6
CONTINUOUS
 10
12.0
 20
-33.9122134739
 11
15.0
 21
-33.9122134739
  0
LINE
  5
234
100
AcDbEntity
  8
DRAFT
100
AcDbLine
 62
7
  6
CONTINUOUS
 10
-9.5589474582
 20
-33.3759125072
 11
-5.2410525418
 21
-33.3759125072
  0
LINE
  5
235
100
AcDbEntity
  8
DRAFT
100
AcDbLine
 62
7
  6
CONTINUOUS
 10
-3.9589474582
 20
-33.3759125072
 11
-3.4972279418
 21
-33.3759125072
  0
LINE
  5
236
100
AcDbEntity
  8
DRAFT
100
AcDbLine
 62
7
  6
CONTINUOUS
 10
-2.5027720582
 20
-33.3759125072
 11
-0.2410525418
 21
-33.3759125072
  0
LINE
  5
237
100
AcDbEntity
  8
DRAFT
100
AcDbLine
 62
7
  6
CONTINUOUS
 10
1.0410525418
 20
-33.3759125072
 11
4.7589474582
 21
-33.3759125072
  0
LINE
  5
238
100
AcDbEntity
  8
DRAFT
100
AcDbLine
 62
7
  6
CONTINUOUS
 10
6.0410525418
 20
-33.3759125072
 11
7.3533628193
 21
-33.3759125072
  0
LINE
  5
239
100
AcDbEntity
  8
DRAFT
100
AcDbLine
 62
7
  6
CONTINUOUS
 10
9.5176895845
 20
-33.3610117735
 11
7.4358848514
 21
-33.3610117735
  0
LINE
  5
23A
100
AcDbEntity
  8
DRAFT
100
AcDbLine
 62
7
  6
CONTINUOUS
 10
-9.45
 20
-33.3365649376
 11
-5.35
 21
-33.3365649376
  0
LINE
  5
23B
100
AcDbEntity
  8
DRAFT
100
AcDbLine
 62
7
  6
CONTINUOUS
 10
-3.85
 20
-33.3365649376
 11
-3.4972279418
 21
-33.3365649376
  0
LINE
  5
23C
100
AcDbEntity
  8
DRAFT
100
AcDbLine
 62
7
  6
CONTINUOUS
 10
-2.5027720582
 20
-33.3365649376
 11
-0.35
 21
-33.3365649376
  0
LINE
  5
23D
100
AcDbEntity
  8
DRAFT
100
AcDbLine
 62
7
  6
CONTINUOUS
 10
1.15
 20
-33.3365649376
 11
4.65
 21
-33.3365649376
  0
LINE
  5
23E
100
AcDbEntity
  8
DRAFT
100
AcDbLine
 62
7
  6
CONTINUOUS
 10
6.15
 20
-33.3365649376
 11
9.45
 21
-33.3365649376
  0
LINE
  5
23F
100
AcDbEntity
  8
DRAFT
100
AcDbLine
 62
7
  6
CONTINUOUS
 10
-0.2334206473
 20
-32.3703226294
 11
1.0334206473
 21
-32.3703226294
  0
LINE
  5
240
100
AcDbEntity
  8
DRAFT
100
AcDbLine
 62
7
  6
CONTINUOUS
 10
4.7665793527
 20
-32.3703226294
 11
6.0334206473
 21
-32.3703226294
  0
LINE
  5
241
100
AcDbEntity
  8
DRAFT
100
AcDbLine
 62
253
  6
CONTINUOUS
 10
6.0718922587
 20
-32.3179513113
 11
4.7281077413
 21
-32.3179513113
  0
LINE
  5
242
100
AcDbEntity
  8
DRAFT
100
AcDbLine
 62
253
  6
CONTINUOUS
 10
1.0718922587
 20
-32.3179513113
 11
-0.2718922587
 21
-32.3179513113
  0
LINE
  5
243
100
AcDbEntity
  8
DRAFT
100
AcDbLine
 62
7
  6
CONTINUOUS
 10
-9.5285418101
 20
-31.068127505
 11
-9.5284639681
 21
-31.0681414429
  0
LINE
  5
244
100
AcDbEntity
  8
DRAFT
100
AcDbLine
 62
7
  6
CONTINUOUS
 10
-5.35
 20
-33.3365649376
 11
-5.2410525418
 21
-33.3759125072
  0
LWPOLYLINE
  5
245
100
AcDbEntity
  8
0
100
AcDbPolyline
 62
7
  6
CONTINUOUS
 90
18
 70
0
 10
-21.9071435302
 20
25.4150394014
 10
-21.8631123209
 20
25.5010971202
 10
-21.824976484
 20
25.5879903006
 10
-21.7927015886
 20
25.6753437159
 10
-21.7662303914
 20
25.7627880851
 10
-21.7454833676
 20
25.8499614159
 10
-21.7303593174
 20
25.9365103098
 10
-21.7207360486
 20
26.0220912227
 10
-21.7164711305
 20
26.1063716783
 10
-21.717402716
 20
26.1890314286
 10
-21.72335043
 20
26.2697635599
 10
-21.7341163182
 20
26.3482755388
 10
-21.749485855
 20
26.4242901959
 10
-21.7692290049
 20
26.4975466432
 10
-21.7931013336
 20
26.5678011231
 10
-21.8208451652
 20
26.6348277858
 10
-21.8521907798
 20
26.6984193932
 10
-21.8868576488
 20
26.7583879465
  0
LINE
  5
246
100
AcDbEntity
  8
DRAFT
100
AcDbLine
 62
7
  6
CONTINUOUS
 10
-11.6278145455
 20
-31.068127505
 11
-11.6279702414
 21
-31.0681414048
  0
LINE
  5
247
100
AcDbEntity
  8
SMUSSO
100
AcDbLine
 62
7
  6
CONTINUOUS
 10
-5.2280669015
 20
-31.1257058151
 11
-4.7719635519
 21
-31.1257058151
  0
LINE
  5
248
100
AcDbEntity
  8
SMUSSO
100
AcDbLine
 62
253
  6
CONTINUOUS
 10
-4.7283285758
 20
-31.0663056201
 11
-5.2717018776
 21
-31.0663056201
  0
LINE
  5
249
100
AcDbEntity
  8
0
100
AcDbLine
 62
7
  6
CONTINUOUS
 10
12.0
 20
-30.9681523691
 11
11.6182824861
 21
-30.9681523691
  0
LINE
  5
24A
100
AcDbEntity
  8
0
100
AcDbLine
 62
7
  6
CONTINUOUS
 10
9.5333074697
 20
-30.9681523691
 11
8.3123957668
 21
-30.9681523691
  0
LINE
  5
24B
100
AcDbEntity
  8
0
100
AcDbLine
 62
7
  6
CONTINUOUS
 10
-2.6867191582
 20
-30.9681523691
 11
-9.5333074697
 21
-30.9681523691
  0
LINE
  5
24C
100
AcDbEntity
  8
0
100
AcDbLine
 62
7
  6
CONTINUOUS
 10
-11.6182824861
 20
-30.9681523691
 11
-12.0
 21
-30.9681523691
  0
LINE
  5
24D
100
AcDbEntity
  8
0
100
AcDbLine
 62
7
  6
CONTINUOUS
 10
-15.0
 20
-30.9681523691
 11
-16.5
 21
-30.9681523691
  0
LINE
  5
24E
100
AcDbEntity
  8
0
100
AcDbLine
 62
7
  6
CONTINUOUS
 10
12.0
 20
-29.6374528576
 11
-12.0
 21
-29.6374528576
  0
LINE
  5
24F
100
AcDbEntity
  8
DRAFT
100
AcDbLine
 62
7
  6
CONTINUOUS
 10
11.6278145455
 20
-31.068127505
 11
11.6279702414
 21
-31.0681414048
  0
LWPOLYLINE
  5
250
100
AcDbEntity
  8
0
100
AcDbPolyline
 62
7
  6
CONTINUOUS
 90
4
 70
0
 10
-2.8384704571
 20
-30.9681523691
 10
-2.7895182826
 20
-30.9856734275
 10
-2.7239664361
 20
-31.0196292553
 10
-2.6776601242
 20
-31.0524497996
  0
LINE
  5
251
100
AcDbEntity
  8
DRAFT
100
AcDbLine
 62
7
  6
CONTINUOUS
 10
-0.35
 20
-33.3365649376
 11
-0.2410525418
 21
-33.3759125072
  0
LINE
  5
252
100
AcDbEntity
  8
DRAFT
100
AcDbLine
 62
7
  6
CONTINUOUS
 10
4.65
 20
-33.3365649376
 11
4.7589474582
 21
-33.3759125072
  0
LINE
  5
253
100
AcDbEntity
  8
DRAFT
100
AcDbLine
 62
7
  6
CONTINUOUS
 10
9.45
 20
-33.3365649376
 11
9.5176895845
 21
-33.3610117735
  0
LINE
  5
254
100
AcDbEntity
  8
0
100
AcDbLine
 62
7
  6
CONTINUOUS
 10
-22.3233204555
 20
-20.0644585361
 11
-21.9071435302
 21
-20.5849605986
  0
LINE
  5
255
100
AcDbEntity
  8
0
100
AcDbLine
 62
7
  6
CONTINUOUS
 10
-23.6766795445
 20
-18.371846202
 11
-24.0928564698
 21
-17.8513441395
  0
LINE
  5
256
100
AcDbEntity
  8
DRAFT
100
AcDbLine
 62
7
  6
CONTINUOUS
 10
-11.7053068066
 20
-34.939045489
 11
-11.75
 21
-34.8800785465
  0
LINE
  5
257
100
AcDbEntity
  8
0
100
AcDbLine
 62
7
  6
CONTINUOUS
 10
-24.1131423512
 20
-19.1946926847
 11
-24.0754442988
 21
-19.2508699739
  0
LINE
  5
258
100
AcDbEntity
  8
0
100
AcDbLine
 62
7
  6
CONTINUOUS
 10
-21.8868576488
 20
-19.2416120535
 11
-21.9245557012
 21
-19.1854347642
  0
LWPOLYLINE
  5
259
100
AcDbEntity
  8
0
100
AcDbPolyline
 62
7
  6
CONTINUOUS
 90
7
 70
0
 10
-24.0754442988
 20
-19.2508699739
 10
-24.0756380471
 20
-19.2454193354
 10
-24.0758041687
 20
-19.2399675918
 10
-24.0759426574
 20
-19.2345148833
 10
-24.0760535079
 20
-19.22906135
 10
-24.0761367155
 20
-19.2236071318
 10
-24.0761922761
 20
-19.2181523691
  0
LWPOLYLINE
  5
25A
100
AcDbEntity
  8
0
100
AcDbPolyline
 62
7
  6
CONTINUOUS
 90
16
 70
0
 10
-24.0761922761
 20
26.7818476309
 10
-24.0747664941
 20
26.846072457
 10
-24.0695120996
 20
26.9101046187
 10
-24.0604483397
 20
26.9737162217
 10
-24.0476221554
 20
27.0366208624
 10
-24.0310727116
 20
27.0986568706
 10
-24.01079554
 20
27.1597788734
 10
-23.9867819572
 20
27.2198737287
 10
-23.9591234887
 20
27.2785936904
 10
-23.9279860875
 20
27.3355491859
 10
-23.8934889411
 20
27.3905265817
 10
-23.8557528045
 20
27.4433373946
 10
-23.8150183011
 20
27.4936714796
 10
-23.7714915246
 20
27.541328942
 10
-23.7253172491
 20
27.5862022549
 10
-23.6766795445
 20
27.628153798
  0
LINE
  5
25B
100
AcDbEntity
  8
0
100
AcDbLine
 62
7
  6
CONTINUOUS
 10
-15.0
 20
-27.9681523691
 11
-16.5
 21
-27.9681523691
  0
LINE
  5
25C
100
AcDbEntity
  8
0
100
AcDbLine
 62
7
  6
CONTINUOUS
 10
-23.4538383317
 20
-20.9082798097
 11
-23.3398118692
 21
-20.9348433403
  0
LINE
  5
25D
100
AcDbEntity
  8
SMUSSO
100
AcDbLine
 62
253
  6
CONTINUOUS
 10
-3.9282371935
 20
-31.866332097
 11
-4.7283285758
 21
-31.0663056201
  0
LWPOLYLINE
  5
25E
100
AcDbEntity
  8
0
100
AcDbPolyline
 62
7
  6
CONTINUOUS
 90
7
 70
0
 10
-24.0754442988
 20
26.7491300261
 10
-24.0756380471
 20
26.7545806646
 10
-24.0758041687
 20
26.7600324082
 10
-24.0759426574
 20
26.7654851167
 10
-24.0760535079
 20
26.77093865
 10
-24.0761367155
 20
26.7763928682
 10
-24.0761922761
 20
26.7818476309
  0
LWPOLYLINE
  5
25F
100
AcDbEntity
  8
0
100
AcDbPolyline
 62
7
  6
CONTINUOUS
 90
7
 70
0
 10
-21.9245557012
 20
-19.1854347642
 10
-21.9243619529
 20
-19.1908854028
 10
-21.9241958313
 20
-19.1963371463
 10
-21.9240573426
 20
-19.2017898548
 10
-21.9239464921
 20
-19.2072433882
 10
-21.9238632845
 20
-19.2126976063
 10
-21.9238077239
 20
-19.2181523691
  0
LWPOLYLINE
  5
260
100
AcDbEntity
  8
0
100
AcDbPolyline
 62
7
  6
CONTINUOUS
 90
7
 70
0
 10
-21.9245557012
 20
26.8145652358
 10
-21.9243619529
 20
26.8091145972
 10
-21.9241958313
 20
26.8036628537
 10
-21.9240573426
 20
26.7982101452
 10
-21.9239464921
 20
26.7927566118
 10
-21.9238632845
 20
26.7873023937
 10
-21.9238077239
 20
26.7818476309
  0
LWPOLYLINE
  5
261
100
AcDbEntity
  8
0
100
AcDbPolyline
 62
7
  6
CONTINUOUS
 90
16
 70
0
 10
-24.0761922761
 20
-19.2181523691
 10
-24.0747664941
 20
-19.153927543
 10
-24.0695120996
 20
-19.0898953813
 10
-24.0604483397
 20
-19.0262837783
 10
-24.0476221554
 20
-18.9633791376
 10
-24.0310727116
 20
-18.9013431294
 10
-24.01079554
 20
-18.8402211266
 10
-23.9867819572
 20
-18.7801262713
 10
-23.9591234887
 20
-18.7214063096
 10
-23.9279860875
 20
-18.6644508141
 10
-23.8934889411
 20
-18.6094734183
 10
-23.8557528045
 20
-18.5566626054
 10
-23.8150183011
 20
-18.5063285204
 10
-23.7714915246
 20
-18.458671058
 10
-23.7253172491
 20
-18.4137977451
 10
-23.6766795445
 20
-18.371846202
  0
LWPOLYLINE
  5
262
100
AcDbEntity
  8
0
100
AcDbPolyline
 62
7
  6
CONTINUOUS
 90
16
 70
0
 10
-21.9238077239
 20
26.7818476309
 10
-21.925233866
 20
26.7176158921
 10
-21.9304894193
 20
26.6535771035
 10
-21.9395550891
 20
26.5899592279
 10
-21.9523840662
 20
26.5270479395
 10
-21.9689370371
 20
26.4650057809
 10
-21.9892175758
 20
26.4038804788
 10
-22.0132337503
 20
26.3437854087
 10
-22.040893678
 20
26.2850677995
 10
-22.0720302837
 20
26.2281181579
 10
-22.1065217053
 20
26.1731527938
 10
-22.1442483193
 20
26.1203563904
 10
-22.1849753891
 20
26.0700311188
 10
-22.2284999775
 20
26.0223750846
 10
-22.2746761242
 20
25.9774990746
 10
-22.3233204555
 20
25.9355414639
  0
LWPOLYLINE
  5
263
100
AcDbEntity
  8
0
100
AcDbPolyline
 62
7
  6
CONTINUOUS
 90
16
 70
0
 10
-21.9238077239
 20
-19.2181523691
 10
-21.925233866
 20
-19.2823841079
 10
-21.9304894193
 20
-19.3464228965
 10
-21.9395550891
 20
-19.4100407721
 10
-21.9523840662
 20
-19.4729520605
 10
-21.9689370371
 20
-19.5349942191
 10
-21.9892175758
 20
-19.5961195212
 10
-22.0132337503
 20
-19.6562145913
 10
-22.040893678
 20
-19.7149322005
 10
-22.0720302837
 20
-19.7718818421
 10
-22.1065217053
 20
-19.8268472062
 10
-22.1442483193
 20
-19.8796436096
 10
-22.1849753891
 20
-19.9299688812
 10
-22.2284999775
 20
-19.9776249154
 10
-22.2746761242
 20
-20.0225009254
 10
-22.3233204555
 20
-20.0644585361
  0
LWPOLYLINE
  5
264
100
AcDbEntity
  8
0
100
AcDbPolyline
 62
7
  6
CONTINUOUS
 90
14
 70
0
 10
-23.3398118692
 20
-20.9348433403
 10
-23.2242644175
 20
-20.9537230154
 10
-23.1077131633
 20
-20.9648343298
 10
-22.9906797864
 20
-20.9681275493
 10
-22.8736881246
 20
-20.9635879331
 10
-22.757261829
 20
-20.9512358
 10
-22.6419220202
 20
-20.9311264374
 10
-22.5281849558
 20
-20.9033498538
 10
-22.4165597196
 20
-20.8680303761
 10
-22.3075459428
 20
-20.8253260926
 10
-22.2016315681
 20
-20.7754281462
 10
-22.0992906652
 20
-20.7185598783
 10
-22.0009813092
 20
-20.6549758291
 10
-21.9071435302
 20
-20.5849605986
  0
LWPOLYLINE
  5
265
100
AcDbEntity
  8
0
100
AcDbPolyline
 62
7
  6
CONTINUOUS
 90
14
 70
0
 10
-22.6601881308
 20
-17.5014613978
 10
-22.7757355825
 20
-17.4825817227
 10
-22.8922868367
 20
-17.4714704083
 10
-23.0093202136
 20
-17.4681771889
 10
-23.1263118754
 20
-17.4727168051
 10
-23.242738171
 20
-17.4850689382
 10
-23.3580779798
 20
-17.5051783007
 10
-23.4718150442
 20
-17.5329548843
 10
-23.5834402804
 20
-17.5682743621
 10
-23.6924540572
 20
-17.6109786455
 10
-23.7983684319
 20
-17.6608765919
 10
-23.9007093348
 20
-17.7177448598
 10
-23.9990186908
 20
-17.7813289091
 10
-24.0928564698
 20
-17.8513441395
  0
LINE
  5
266
100
AcDbEntity
  8
0
100
AcDbLine
 62
7
  6
CONTINUOUS
 10
-22.5461616683
 20
-17.5280249284
 11
-22.6601881308
 21
-17.5014613978
  0
LWPOLYLINE
  5
267
100
AcDbEntity
  8
RACCORDO
100
AcDbPolyline
 62
7
  6
CONTINUOUS
 90
13
 70
0
 10
-18.4638486612
 20
-13.8931537581
 10
-18.3596515144
 20
-14.0095757894
 10
-18.250070047
 20
-14.119962956
 10
-18.1351042589
 20
-14.2243152579
 10
-18.0143845918
 20
-14.3229178168
 10
-17.888280604
 20
-14.4154855111
 10
-17.7579009705
 20
-14.5011629753
 10
-17.6231960499
 20
-14.5798701826
 10
-17.4842154835
 20
-14.6516871598
 10
-17.3422168705
 20
-14.7159986219
 10
-17.1976194108
 20
-14.7725994737
 10
-17.0500039044
 20
-14.8216948104
 10
-16.8993703515
 20
-14.863284632
  0
LINE
  5
268
100
AcDbEntity
  8
DRAFT
100
AcDbLine
 62
7
  6
CONTINUOUS
 10
-5.2280669015
 20
-31.1257058151
 11
-5.2717018776
 21
-31.0663056201
  0
LINE
  5
269
100
AcDbEntity
  8
RACCORDO
100
AcDbLine
 62
253
  6
CONTINUOUS
 10
-18.4707925851
 20
-14.1414430439
 11
-18.4675973179
 21
-14.0168539298
  0
LINE
  5
26A
100
AcDbEntity
  8
RACCORDO
100
AcDbLine
 62
253
  6
CONTINUOUS
 10
-18.4675973179
 20
-14.0168539298
 11
-18.4638480851
 21
-13.8931543385
  0
LWPOLYLINE
  5
26B
100
AcDbEntity
  8
RACCORDO
100
AcDbPolyline
 62
7
  6
CONTINUOUS
 90
13
 70
0
 10
16.8993703515
 20
-14.863284632
 10
17.0500039024
 20
-14.8216948062
 10
17.1976194063
 20
-14.7725994653
 10
17.3422168634
 20
-14.7159986092
 10
17.4842154735
 20
-14.6516871427
 10
17.6231960366
 20
-14.5798701611
 10
17.7579009535
 20
-14.5011629496
 10
17.8882805856
 20
-14.415485475
 10
18.0143845714
 20
-14.3229177704
 10
18.1351042272
 20
-14.2243152212
 10
18.2500699916
 20
-14.1199629555
 10
18.359651426
 20
-14.0095758451
 10
18.4638485303
 20
-13.89315389
  0
LWPOLYLINE
  5
26C
100
AcDbEntity
  8
RACCORDO
100
AcDbPolyline
 62
7
  6
CONTINUOUS
 90
13
 70
0
 10
-16.8998495341
 20
-15.099489421
 10
-17.0507134067
 20
-15.059019183
 10
-17.198617413
 20
-15.0110281605
 10
-17.3435615531
 20
-14.9555163534
 10
-17.4859661533
 20
-14.8922819275
 10
-17.6254108872
 20
-14.821526717
 10
-17.7606347753
 20
-14.743856225
 10
-17.8915887989
 20
-14.6591900936
 10
-18.0183219766
 20
-14.5676086806
 10
-18.1397203852
 20
-14.4699585631
 10
-18.2554127169
 20
-14.3665219333
 10
-18.3657702793
 20
-14.257016599
 10
-18.4707930727
 20
-14.14144256
  0
LINE
  5
26D
100
AcDbEntity
  8
DRAFT
100
AcDbLine
 62
7
  6
CONTINUOUS
 10
-0.2334206473
 20
-32.3703226294
 11
-0.2718922587
 21
-32.3179513113
  0
LWPOLYLINE
  5
26E
100
AcDbEntity
  8
0
100
AcDbPolyline
 62
7
  6
CONTINUOUS
 90
10
 70
0
 10
-2.518699489
 20
-31.7965454462
 10
-2.4939211282
 20
-31.836241325
 10
-2.4622459445
 20
-31.877813967
 10
-2.423080101
 20
-31.9195082266
 10
-2.3772129948
 20
-31.9587274548
 10
-2.3249210688
 20
-31.9940598274
 10
-2.2659215067
 20
-32.0244584552
 10
-2.2012356508
 20
-32.0480695814
 10
-2.131855512
 20
-32.0632068247
 10
-2.0637908296
 20
-32.0681518756
  0
LINE
  5
26F
100
AcDbEntity
  8
0
100
AcDbLine
 62
7
  6
CONTINUOUS
 10
-16.5
 20
-30.9667498179
 11
-16.5
 21
-27.9695549202
  0
LINE
  5
270
100
AcDbEntity
  8
RACCORDO
100
AcDbLine
 62
7
  6
CONTINUOUS
 10
-15.0
 20
-34.7181523691
 11
-15.0
 21
-26.2298749491
  0
LINE
  5
271
100
AcDbEntity
  8
RACCORDO
100
AcDbLine
 62
7
  6
CONTINUOUS
 10
-16.8998495341
 20
-15.099489421
 11
-16.8998526307
 21
-14.9678738055
  0
LINE
  5
272
100
AcDbEntity
  8
RACCORDO
100
AcDbLine
 62
7
  6
CONTINUOUS
 10
-16.8998526307
 20
-14.9678738055
 11
-16.8993703515
 21
-14.863284632
  0
LWPOLYLINE
  5
273
100
AcDbEntity
  8
0
100
AcDbPolyline
 62
7
  6
CONTINUOUS
 90
10
 70
0
 10
-13.6762640523
 20
4.6318476309
 10
-13.6780809819
 20
4.5542057031
 10
-13.6794436792
 20
4.4764958507
 10
-13.680352144
 20
4.3987180738
 10
-13.6808063764
 20
4.3208270896
 10
-13.6808063764
 20
4.2428681809
 10
-13.680352144
 20
4.1649771959
 10
-13.6794436792
 20
4.0871994172
 10
-13.678080982
 20
4.0094895622
 10
-13.6762640523
 20
3.9318476309
  0
LINE
  5
274
100
AcDbEntity
  8
RACCORDO
100
AcDbLine
 62
7
  6
CONTINUOUS
 10
3.968433063
 20
16.6704484583
 11
3.9028489943
 21
16.644909404
  0
LWPOLYLINE
  5
275
100
AcDbEntity
  8
RACCORDO
100
AcDbPolyline
 62
7
  6
CONTINUOUS
 90
3
 70
0
 10
4.2322445383
 20
16.7038609986
 10
4.2510703701
 20
16.7111242539
 10
4.3118296335
 20
16.7285032721
  0
LINE
  5
276
100
AcDbEntity
  8
RACCORDO
100
AcDbLine
 62
253
  6
CONTINUOUS
 10
-3.5467548755
 20
16.2184273413
 11
-4.0161256958
 21
16.0463700302
  0
LWPOLYLINE
  5
277
100
AcDbEntity
  8
RACCORDO
100
AcDbPolyline
 62
7
  6
CONTINUOUS
 90
10
 70
0
 10
3.1906020083
 20
-13.4140124179
 10
3.3376618712
 20
-13.3772787427
 10
3.4815024306
 20
-13.3295234015
 10
3.6212992879
 20
-13.2710241781
 10
3.7562493624
 20
-13.2021220092
 10
3.8855826418
 20
-13.1232144495
 10
4.0085654329
 20
-13.0347514399
 10
4.1244933977
 20
-12.9372418972
 10
4.2327027931
 20
-12.8312466055
 10
4.3328397901
 20
-12.7170464804
  0
LWPOLYLINE
  5
278
100
AcDbEntity
  8
0
100
AcDbPolyline
 62
7
  6
CONTINUOUS
 90
14
 70
0
 10
22.6601881308
 20
-20.9348433403
 10
22.7757355825
 20
-20.9537230154
 10
22.8922868367
 20
-20.9648343298
 10
23.0093202136
 20
-20.9681275493
 10
23.1263118754
 20
-20.9635879331
 10
23.242738171
 20
-20.9512358
 10
23.3580779798
 20
-20.9311264374
 10
23.4718150442
 20
-20.9033498538
 10
23.5834402804
 20
-20.8680303761
 10
23.6924540572
 20
-20.8253260926
 10
23.7983684319
 20
-20.7754281462
 10
23.9007093348
 20
-20.7185598783
 10
23.9990186908
 20
-20.6549758291
 10
24.0928564698
 20
-20.5849605986
  0
LINE
  5
279
100
AcDbEntity
  8
0
100
AcDbLine
 62
7
  6
CONTINUOUS
 10
22.5461616683
 20
-20.9082798097
 11
22.6601881308
 21
-20.9348433403
  0
LWPOLYLINE
  5
27A
100
AcDbEntity
  8
RACCORDO
100
AcDbPolyline
 62
7
  6
CONTINUOUS
 90
10
 70
0
 10
-3.0461221156
 20
-13.5688409549
 10
-3.1941544981
 20
-13.5337598447
 10
-3.338243018
 20
-13.4876756194
 10
-3.4783876752
 20
-13.4305882789
 10
-3.6158228826
 20
-13.361795812
 10
-3.7493142273
 20
-13.28200023
 10
-3.875158471
 20
-13.1933075665
 10
-3.9925490341
 20
-13.0959027738
 10
-4.1022924961
 20
-12.9896008997
 10
-4.2032742355
 20
-12.8757474477
  0
LWPOLYLINE
  5
27B
100
AcDbEntity
  8
RACCORDO
100
AcDbPolyline
 62
7
  6
CONTINUOUS
 90
10
 70
0
 10
-3.1906020083
 20
-13.414012418
 10
-3.3375476415
 20
-13.3773110138
 10
-3.4813114818
 20
-13.3295942034
 10
-3.6210680657
 20
-13.2711313797
 10
-3.756017055
 20
-13.2022521115
 10
-3.8853797445
 20
-13.1233488726
 10
-4.0084046135
 20
-13.0348766117
 10
-4.1243844599
 20
-12.9373409909
 10
-4.2326522708
 20
-12.8312998711
 10
-4.3325791734
 20
-12.7173674459
  0
LWPOLYLINE
  5
27C
100
AcDbEntity
  8
RACCORDO
100
AcDbPolyline
 62
7
  6
CONTINUOUS
 90
13
 70
0
 10
-11.6031067721
 20
-8.5367915935
 10
-11.5537204172
 20
-8.5869654724
 10
-11.4995474722
 20
-8.6319262992
 10
-11.4411357457
 20
-8.6712208099
 10
-11.3790760927
 20
-8.704453567
 10
-11.3139956891
 20
-8.7312895638
 10
-11.246551447
 20
-8.7514570255
 10
-11.1774247112
 20
-8.7647527687
 10
-11.1073141861
 20
-8.7710432046
 10
-11.0369279303
 20
-8.7702635235
 10
-10.9669771213
 20
-8.7624216632
 10
-10.8981688952
 20
-8.7475973141
 10
-10.8311987919
 20
-8.7259390812
  0
LINE
  5
27D
100
AcDbEntity
  8
DRAFT
100
AcDbLine
 62
7
  6
CONTINUOUS
 10
7.4125794244
 20
-34.7167603924
 11
7.45
 21
-34.7661320475
  0
LINE
  5
27E
100
AcDbEntity
  8
DRAFT
100
AcDbLine
 62
7
  6
CONTINUOUS
 10
4.7665793527
 20
-32.3703226294
 11
4.7281077413
 21
-32.3179513113
  0
LINE
  5
27F
100
AcDbEntity
  8
RACCORDO
100
AcDbLine
 62
253
  6
CONTINUOUS
 10
-11.6031067721
 20
-8.5367915935
 11
-11.6276067133
 21
-8.4749977326
  0
LWPOLYLINE
  5
280
100
AcDbEntity
  8
RACCORDO
100
AcDbPolyline
 62
7
  6
CONTINUOUS
 90
32
 70
0
 10
-11.6687071888
 20
-37.9500202595
 10
-11.6608245269
 20
-38.1259115449
 10
-11.6438341412
 20
-38.2903195876
 10
-11.6177360316
 20
-38.4435652464
 10
-11.5826763607
 20
-38.5857976107
 10
-11.5385089659
 20
-38.7175992258
 10
-11.4847953598
 20
-38.8398829058
 10
-11.4213734574
 20
-38.9532345616
 10
-11.3484053437
 20
-39.0576668297
 10
-11.2659387859
 20
-39.153221343
 10
-11.1741682476
 20
-39.2401399245
 10
-11.0728992651
 20
-39.3190078407
 10
-10.9615962147
 20
-39.3904070846
 10
-10.840163365
 20
-39.4548344997
 10
-10.7086964475
 20
-39.5125103034
 10
-10.5669470328
 20
-39.5636169328
 10
-10.414419428
 20
-39.6086806056
 10
-10.2516093262
 20
-39.6479901775
 10
-10.0797553771
 20
-39.6815664415
 10
-9.898695082
 20
-39.7099186642
 10
-9.7085909397
 20
-39.7335999645
 10
-9.5111690966
 20
-39.7529102466
 10
-9.3070011221
 20
-39.7683680678
 10
-9.0955154466
 20
-39.7805482557
 10
-8.8767235084
 20
-39.7899022999
 10
-8.6498906429
 20
-39.7969212457
 10
-8.4157515146
 20
-39.8020000908
 10
-8.1765215544
 20
-39.805467897
 10
-7.9317983681
 20
-39.8077107981
 10
-7.6819843499
 20
-39.8090727754
 10
-7.4305021139
 20
-39.8098186119
 10
6.6694687131
 20
-39.8103696431
  0
LINE
  5
281
100
AcDbEntity
  8
0
100
AcDbLine
 62
7
  6
CONTINUOUS
 10
-12.9924112663
 20
3.9318476309
 11
-12.9924112663
 21
4.6318476309
  0
LINE
  5
282
100
AcDbEntity
  8
0
100
AcDbLine
 62
7
  6
CONTINUOUS
 10
-12.25
 20
1.6190855606
 11
-12.25
 21
3.6958299346
  0
LINE
  5
283
100
AcDbEntity
  8
0
100
AcDbLine
 62
7
  6
CONTINUOUS
 10
-12.25
 20
4.8678653272
 11
-12.25
 21
6.9446097012
  0
LINE
  5
284
100
AcDbEntity
  8
0
100
AcDbLine
 62
7
  6
CONTINUOUS
 10
-12.1
 20
2.6405710782
 11
-12.1
 21
3.1916526942
  0
LINE
  5
285
100
AcDbEntity
  8
0
100
AcDbLine
 62
7
  6
CONTINUOUS
 10
-12.1
 20
5.3720425676
 11
-12.1
 21
5.9231241837
  0
LINE
  5
286
100
AcDbEntity
  8
RACCORDO
100
AcDbLine
 62
7
  6
CONTINUOUS
 10
-12.0
 20
-29.6374528576
 11
-12.0
 21
-34.7181523691
  0
LINE
  5
287
100
AcDbEntity
  8
DRAFT
100
AcDbLine
 62
7
  6
CONTINUOUS
 10
-11.75
 20
-34.8800785465
 11
-11.75
 21
-30.9681523691
  0
LINE
  5
288
100
AcDbEntity
  8
0
100
AcDbLine
 62
7
  6
CONTINUOUS
 10
-11.4
 20
2.6405710782
 11
-11.4
 21
3.1916526942
  0
LINE
  5
289
100
AcDbEntity
  8
0
100
AcDbLine
 62
7
  6
CONTINUOUS
 10
-11.4
 20
5.3720425676
 11
-11.4
 21
5.9231241837
  0
LINE
  5
28A
100
AcDbEntity
  8
0
100
AcDbLine
 62
7
  6
CONTINUOUS
 10
-11.25
 20
6.9446097012
 11
-11.25
 21
4.8678653272
  0
LINE
  5
28B
100
AcDbEntity
  8
0
100
AcDbLine
 62
7
  6
CONTINUOUS
 10
-11.25
 20
3.6958299346
 11
-11.25
 21
1.6190855606
  0
LINE
  5
28C
100
AcDbEntity
  8
RACCORDO
100
AcDbLine
 62
253
  6
CONTINUOUS
 10
-10.9027677484
 20
-6.0253846206
 11
-10.9027677484
 21
-8.0120043867
  0
LINE
  5
28D
100
AcDbEntity
  8
0
100
AcDbLine
 62
7
  6
CONTINUOUS
 10
-10.5075887337
 20
3.9318476309
 11
-10.5075887337
 21
4.6318476309
  0
LINE
  5
28E
100
AcDbEntity
  8
RACCORDO
100
AcDbLine
 62
253
  6
CONTINUOUS
 10
-10.4028439009
 20
-6.5253084682
 11
-10.4028439009
 21
-8.0120043867
  0
LINE
  5
28F
100
AcDbEntity
  8
RACCORDO
100
AcDbLine
 62
7
  6
CONTINUOUS
 10
-10.38
 20
-8.0722483923
 11
-10.38
 21
-6.5481523691
  0
LWPOLYLINE
  5
290
100
AcDbEntity
  8
RACCORDO
100
AcDbPolyline
 62
253
  6
CONTINUOUS
 90
28
 70
0
 10
-10.9027677484
 20
-8.0120043867
 10
-10.9038527352
 20
-8.0315926073
 10
-10.9065877519
 20
-8.0505085562
 10
-10.9109727984
 20
-8.0687522335
 10
-10.9170673994
 20
-8.0864025933
 10
-10.9248120303
 20
-8.1033806815
 10
-10.9340281169
 20
-8.1194496353
 10
-10.9447644458
 20
-8.1346620497
 10
-10.9569722305
 20
-8.1489653298
 10
-10.970326537
 20
-8.1619648281
 10
-10.9848562292
 20
-8.1736175552
 10
-11.0005324432
 20
-8.1839665006
 10
-11.0169436543
 20
-8.192745985
 10
-11.034188495
 20
-8.1999039243
 10
-11.0521683327
 20
-8.2054924026
 10
-11.0701757439
 20
-8.2094019935
 10
-11.0882245939
 20
-8.2114943818
 10
-11.1063010172
 20
-8.2119078828
 10
-11.1236559946
 20
-8.2109480154
 10
-11.1399799234
 20
-8.2086408601
 10
-11.1555824061
 20
-8.2049603366
 10
-11.1706432308
 20
-8.2001337229
 10
-11.1851220656
 20
-8.1943579825
 10
-11.1990592423
 20
-8.187436152
 10
-11.2127555438
 20
-8.1790046197
 10
-11.2263112312
 20
-8.1689421816
 10
-11.2396260435
 20
-8.1573700416
 10
-11.2526999806
 20
-8.1442881998
  0
LINE
  5
291
100
AcDbEntity
  8
0
100
AcDbLine
 62
7
  6
CONTINUOUS
 10
-12.2697234842
 20
4.8015711151
 11
-12.1
 21
5.3720425676
  0
LINE
  5
292
100
AcDbEntity
  8
0
100
AcDbLine
 62
7
  6
CONTINUOUS
 10
-11.4
 20
3.1916526942
 11
-11.2302765158
 21
3.7621241468
  0
LWPOLYLINE
  5
293
100
AcDbEntity
  8
0
100
AcDbPolyline
 62
7
  6
CONTINUOUS
 90
18
 70
0
 10
-24.0928564698
 20
-17.8513441395
 10
-24.1368876791
 20
-17.9374018583
 10
-24.175023516
 20
-18.0242950387
 10
-24.2072984114
 20
-18.1116484541
 10
-24.2337696086
 20
-18.1990928232
 10
-24.2545166324
 20
-18.286266154
 10
-24.2696406826
 20
-18.3728150479
 10
-24.2792639514
 20
-18.4583959609
 10
-24.2835288695
 20
-18.5426764164
 10
-24.282597284
 20
-18.6253361667
 10
-24.27664957
 20
-18.706068298
 10
-24.2658836818
 20
-18.7845802769
 10
-24.250514145
 20
-18.8605949341
 10
-24.2307709951
 20
-18.9338513813
 10
-24.2068986664
 20
-19.0041058612
 10
-24.1791548348
 20
-19.0711325239
 10
-24.1478092202
 20
-19.1347241314
 10
-24.1131423512
 20
-19.1946926847
  0
LINE
  5
294
100
AcDbEntity
  8
RACCORDO
100
AcDbLine
 62
253
  6
CONTINUOUS
 10
-4.4026105342
 20
16.6486272141
 11
-4.3859773824
 21
16.6773579263
  0
LINE
  5
295
100
AcDbEntity
  8
RACCORDO
100
AcDbLine
 62
253
  6
CONTINUOUS
 10
-3.5467548754
 20
16.2184273412
 11
-3.5291088655
 21
16.2412026926
  0
LINE
  5
296
100
AcDbEntity
  8
DRAFT
100
AcDbLine
 62
7
  6
CONTINUOUS
 10
5.3736923604
 20
25.3984266225
 11
5.5072614111
 21
25.5387715981
  0
LINE
  5
297
100
AcDbEntity
  8
RACCORDO
100
AcDbLine
 62
253
  6
CONTINUOUS
 10
4.6818869042
 20
16.7151136841
 11
4.5556595205
 21
16.6263412529
  0
LINE
  5
298
100
AcDbEntity
  8
DRAFT
100
AcDbLine
 62
7
  6
CONTINUOUS
 10
-16.0893261822
 20
5.6640803437
 11
-15.7212028313
 21
5.893572517
  0
LWPOLYLINE
  5
299
100
AcDbEntity
  8
RACCORDO
100
AcDbPolyline
 62
7
  6
CONTINUOUS
 90
9
 70
0
 10
3.9028489943
 20
16.644909404
 10
3.83949133
 20
16.612649513
 10
3.7802633293
 20
16.5746412829
 10
3.7252925938
 20
16.5307132904
 10
3.6744515219
 20
16.481036959
 10
3.6292605676
 20
16.4270990567
 10
3.5902265492
 20
16.3693951729
 10
3.5568426485
 20
16.3074297182
 10
3.5291088655
 20
16.2412026926
  0
LINE
  5
29A
100
AcDbEntity
  8
0
100
AcDbLine
 62
7
  6
CONTINUOUS
 10
-1.0901949367
 20
10.8818476309
 11
-0.5197234842
 21
11.0515711151
  0
LINE
  5
29B
100
AcDbEntity
  8
RACCORDO
100
AcDbLine
 62
253
  6
CONTINUOUS
 10
-4.7571560991
 20
-11.4389265572
 11
-4.2572322516
 21
-11.4389265572
  0
LINE
  5
29C
100
AcDbEntity
  8
RACCORDO
100
AcDbLine
 62
253
  6
CONTINUOUS
 10
4.7571560991
 20
-11.4389265572
 11
4.2572322516
 21
-11.4389265572
  0
LWPOLYLINE
  5
29D
100
AcDbEntity
  8
0
100
AcDbPolyline
 62
7
  6
CONTINUOUS
 90
14
 70
0
 10
23.3398118692
 20
-17.5014613978
 10
23.2242644175
 20
-17.4825817227
 10
23.1077131633
 20
-17.4714704083
 10
22.9906797864
 20
-17.4681771889
 10
22.8736881246
 20
-17.4727168051
 10
22.757261829
 20
-17.4850689382
 10
22.6419220202
 20
-17.5051783007
 10
22.5281849558
 20
-17.5329548843
 10
22.4165597196
 20
-17.5682743621
 10
22.3075459428
 20
-17.6109786455
 10
22.2016315681
 20
-17.6608765919
 10
22.0992906652
 20
-17.7177448598
 10
22.0009813092
 20
-17.7813289091
 10
21.9071435302
 20
-17.8513441395
  0
LINE
  5
29E
100
AcDbEntity
  8
0
100
AcDbLine
 62
7
  6
CONTINUOUS
 10
23.4538383317
 20
-17.5280249284
 11
23.3398118692
 21
-17.5014613978
  0
LWPOLYLINE
  5
29F
100
AcDbEntity
  8
RACCORDO
100
AcDbPolyline
 62
253
  6
CONTINUOUS
 90
22
 70
0
 10
-3.1657516426
 20
-13.3964965205
 10
-3.29411633
 20
-13.3652580973
 10
-3.4200400306
 20
-13.3256477173
 10
-3.542980425
 20
-13.2778574793
 10
-3.662368559
 20
-13.222135576
 10
-3.7777391961
 20
-13.1587267521
 10
-3.888718085
 20
-13.0878439585
 10
-3.9951462469
 20
-13.0095313529
 10
-4.0961978229
 20
-12.9243367012
 10
-4.1906564705
 20
-12.8334185093
 10
-4.2780170839
 20
-12.7376047305
 10
-4.358345298
 20
-12.6371857899
 10
-4.4314830954
 20
-12.5326849592
 10
-4.4970301675
 20
-12.4251110274
 10
-4.5552177229
 20
-12.3145611097
 10
-4.6066176541
 20
-12.2000382829
 10
-4.6509625008
 20
-12.0818358422
 10
-4.6879175464
 20
-11.96049087
 10
-4.7174809951
 20
-11.8351944802
 10
-4.7392331619
 20
-11.7059563177
 10
-4.7526026809
 20
-11.5736847744
 10
-4.7571560976
 20
-11.438926556
  0
LWPOLYLINE
  5
2A0
100
AcDbEntity
  8
RACCORDO
100
AcDbPolyline
 62
253
  6
CONTINUOUS
 90
19
 70
0
 10
-3.0636789105
 20
-12.9071040306
 10
-3.1768815676
 20
-12.8786782635
 10
-3.2862485813
 20
-12.8422968376
 10
-3.3917799517
 20
-12.797959753
 10
-3.4940316877
 20
-12.7452981128
 10
-3.5924477803
 20
-12.6846808138
 10
-3.6853602027
 20
-12.6172145465
 10
-3.7728856534
 20
-12.5423432137
 10
-3.8549074338
 20
-12.4606229126
 10
-3.9294074218
 20
-12.3748286253
 10
-3.995615
 20
-12.2857482392
 10
-4.0543007858
 20
-12.1925938669
 10
-4.105758509
 20
-12.0957768284
 10
-4.1503109215
 20
-11.9954288485
 10
-4.1876352714
 20
-11.8914182024
 10
-4.217057032
 20
-11.7837610356
 10
-4.2383513611
 20
-11.6724627301
 10
-4.251743101
 20
-11.557517904
 10
-4.2572322516
 20
-11.4389265572
  0
LINE
  5
2A1
100
AcDbEntity
  8
RACCORDO
100
AcDbLine
 62
7
  6
CONTINUOUS
 10
-10.4050727883
 20
-6.5231940647
 11
-10.4028439009
 21
-6.5253084682
  0
LINE
  5
2A2
100
AcDbEntity
  8
RACCORDO
100
AcDbLine
 62
7
  6
CONTINUOUS
 10
-10.38
 20
-6.5481523691
 11
-10.4028439009
 21
-6.5253084682
  0
LWPOLYLINE
  5
2A3
100
AcDbEntity
  8
RACCORDO
100
AcDbPolyline
 62
7
  6
CONTINUOUS
 90
3
 70
0
 10
-10.7178305537
 20
-6.2101806503
 10
-10.4191226412
 20
-6.5090297279
 10
-10.4050727883
 20
-6.5231940647
  0
LWPOLYLINE
  5
2A4
100
AcDbEntity
  8
RACCORDO
100
AcDbPolyline
 62
7
  6
CONTINUOUS
 90
3
 70
0
 10
-10.9027677484
 20
-6.0253846206
 10
-10.8539074305
 20
-6.0747969627
 10
-10.7178305537
 20
-6.2101806503
  0
LINE
  5
2A5
100
AcDbEntity
  8
RACCORDO
100
AcDbLine
 62
253
  6
CONTINUOUS
 10
-3.168263752
 20
-13.438055443
 11
-3.0461221159
 21
-13.5688409548
  0
LINE
  5
2A6
100
AcDbEntity
  8
RACCORDO
100
AcDbLine
 62
253
  6
CONTINUOUS
 10
-3.1906020083
 20
-13.4140124179
 11
-3.168263752
 21
-13.438055443
  0
LINE
  5
2A7
100
AcDbEntity
  8
RACCORDO
100
AcDbLine
 62
7
  6
CONTINUOUS
 10
-4.3051351845
 20
-12.7511319336
 11
-4.20327424
 21
-12.8757474514
  0
LINE
  5
2A8
100
AcDbEntity
  8
RACCORDO
100
AcDbLine
 62
7
  6
CONTINUOUS
 10
-4.3328397843
 20
-12.7170464892
 11
-4.3051351845
 21
-12.7511319336
  0
LINE
  5
2A9
100
AcDbEntity
  8
DRAFT
100
AcDbLine
 62
7
  6
CONTINUOUS
 10
11.6262152228
 20
-34.7167603924
 11
11.75
 21
-34.8800785465
  0
LWPOLYLINE
  5
2AA
100
AcDbEntity
  8
RACCORDO
100
AcDbPolyline
 62
7
  6
CONTINUOUS
 90
10
 70
0
 10
-4.3325791734
 20
-12.7173674459
 10
-4.4235913555
 20
-12.5961973452
 10
-4.5051661835
 20
-12.4684847596
 10
-4.5768308943
 20
-12.3349707709
 10
-4.638166988
 20
-12.1964438802
 10
-4.6888357263
 20
-12.0536795532
 10
-4.7285612149
 20
-11.9074386852
 10
-4.7571065464
 20
-11.7585378426
 10
-4.7742897898
 20
-11.6078496337
 10
-4.78
 20
-11.4562393441
  0
LINE
  5
2AB
100
AcDbEntity
  8
DRAFT
100
AcDbLine
 62
7
  6
CONTINUOUS
 10
-16.2761748238
 20
4.785891728
 11
-16.033364298
 21
4.4264136235
  0
LINE
  5
2AC
100
AcDbEntity
  8
RACCORDO
100
AcDbLine
 62
253
  6
CONTINUOUS
 10
-10.38
 20
-8.0722483923
 11
-10.4028439009
 21
-8.0120043867
  0
LINE
  5
2AD
100
AcDbEntity
  8
0
100
AcDbLine
 62
7
  6
CONTINUOUS
 10
-12.1
 20
3.1916526942
 11
-12.2697234842
 21
3.7621241468
  0
LINE
  5
2AE
100
AcDbEntity
  8
RACCORDO
100
AcDbLine
 62
7
  6
CONTINUOUS
 10
-7.0822423142
 20
-6.5253084682
 11
-7.0827838877
 21
-6.5167332522
  0
LINE
  5
2AF
100
AcDbEntity
  8
DRAFT
100
AcDbLine
 62
7
  6
CONTINUOUS
 10
-9.45
 20
-30.9681523691
 11
-9.45
 21
-33.3365649376
  0
LINE
  5
2B0
100
AcDbEntity
  8
0
100
AcDbLine
 62
7
  6
CONTINUOUS
 10
-8.8201335494
 20
-2.9431523691
 11
-8.8201335494
 21
-2.2431523691
  0
LINE
  5
2B1
100
AcDbEntity
  8
0
100
AcDbLine
 62
7
  6
CONTINUOUS
 10
-8.1777222831
 20
-4.7656047326
 11
-8.1777222831
 21
-3.0889924321
  0
LINE
  5
2B2
100
AcDbEntity
  8
0
100
AcDbLine
 62
7
  6
CONTINUOUS
 10
-8.1777222831
 20
-2.0973123061
 11
-8.1777222831
 21
-0.4307000055
  0
LINE
  5
2B3
100
AcDbEntity
  8
0
100
AcDbLine
 62
7
  6
CONTINUOUS
 10
-7.9277222831
 20
-4.2344289218
 11
-7.9277222831
 21
-3.6833473058
  0
LINE
  5
2B4
100
AcDbEntity
  8
0
100
AcDbLine
 62
7
  6
CONTINUOUS
 10
-7.9277222831
 20
-1.5029574324
 11
-7.9277222831
 21
-0.9518758163
  0
LINE
  5
2B5
100
AcDbEntity
  8
0
100
AcDbLine
 62
7
  6
CONTINUOUS
 10
-7.6
 20
5.7818476309
 11
-7.6
 21
2.7818476309
  0
LINE
  5
2B6
100
AcDbEntity
  8
0
100
AcDbLine
 62
7
  6
CONTINUOUS
 10
-7.2277222831
 20
-4.2344289218
 11
-7.2277222831
 21
-3.6833473058
  0
LINE
  5
2B7
100
AcDbEntity
  8
0
100
AcDbLine
 62
7
  6
CONTINUOUS
 10
-7.2277222831
 20
-1.5029574324
 11
-7.2277222831
 21
-0.9518758163
  0
LINE
  5
2B8
100
AcDbEntity
  8
0
100
AcDbLine
 62
7
  6
CONTINUOUS
 10
-7.225
 20
3.1648263534
 11
-7.225
 21
5.7818476309
  0
LINE
  5
2B9
100
AcDbEntity
  8
0
100
AcDbLine
 62
7
  6
CONTINUOUS
 10
-6.9777222831
 20
-0.4319258677
 11
-6.9777222831
 21
-2.0973123061
  0
LINE
  5
2BA
100
AcDbEntity
  8
0
100
AcDbLine
 62
7
  6
CONTINUOUS
 10
-6.9777222831
 20
-3.0889924321
 11
-6.9777222831
 21
-4.7643788704
  0
LWPOLYLINE
  5
2BB
100
AcDbEntity
  8
0
100
AcDbPolyline
 62
7
  6
CONTINUOUS
 90
10
 70
0
 10
-9.8237359477
 20
3.9318476309
 10
-9.8219190181
 20
4.0094895588
 10
-9.8205563208
 20
4.0871994111
 10
-9.819647856
 20
4.164977188
 10
-9.8191936236
 20
4.2428681722
 10
-9.8191936236
 20
4.3208270809
 10
-9.819647856
 20
4.398718066
 10
-9.8205563208
 20
4.4764958446
 10
-9.821919018
 20
4.5542056996
 10
-9.8237359477
 20
4.6318476309
  0
LWPOLYLINE
  5
2BC
100
AcDbEntity
  8
0
100
AcDbPolyline
 62
7
  6
CONTINUOUS
 90
10
 70
0
 10
-9.5039863354
 20
-2.2431523691
 10
-9.5058032649
 20
-2.320794262
 10
-9.5071659619
 20
-2.3985040971
 10
-9.5080744266
 20
-2.4762818745
 10
-9.508528659
 20
-2.5541728889
 10
-9.508528659
 20
-2.6321318455
 10
-9.5080744267
 20
-2.7100228603
 10
-9.507165962
 20
-2.7878006384
 10
-9.5058032649
 20
-2.8655104747
 10
-9.5039863354
 20
-2.9431523691
  0
LWPOLYLINE
  5
2BD
100
AcDbEntity
  8
RACCORDO
100
AcDbPolyline
 62
253
  6
CONTINUOUS
 90
31
 70
0
 10
-10.4028439009
 20
-8.0120043867
 10
-10.4055345164
 20
-8.0728964568
 10
-10.4134193049
 20
-8.1327741449
 10
-10.4262961997
 20
-8.1912103218
 10
-10.4438667838
 20
-8.2476292963
 10
-10.4659038147
 20
-8.3018583157
 10
-10.4924031181
 20
-8.3540689439
 10
-10.5232865993
 20
-8.4040490722
 10
-10.5582618113
 20
-8.451275148
 10
-10.5970929542
 20
-8.4954205316
 10
-10.6395120297
 20
-8.5361710333
 10
-10.6852224144
 20
-8.5732331506
 10
-10.7339100421
 20
-8.6063431888
 10
-10.7853404761
 20
-8.6353143965
 10
-10.8390564467
 20
-8.6598634455
 10
-10.8943446287
 20
-8.6797044296
 10
-10.9509530621
 20
-8.6948095343
 10
-11.0083084878
 20
-8.7050868878
 10
-11.0651452972
 20
-8.710498187
 10
-11.1208854129
 20
-8.7112969002
 10
-11.1753424096
 20
-8.707781179
 10
-11.227871259
 20
-8.7003066178
 10
-11.2776197058
 20
-8.6894099731
 10
-11.3250096457
 20
-8.6754061845
 10
-11.3712975157
 20
-8.6580919978
 10
-11.4161080641
 20
-8.637624627
 10
-11.4593714383
 20
-8.6140529
 10
-11.502516655
 20
-8.5863533087
 10
-11.5455901788
 20
-8.5538832599
 10
-11.5874824657
 20
-8.516805457
 10
-11.6276067098
 20
-8.4749977417
  0
LINE
  5
2BE
100
AcDbEntity
  8
RACCORDO
100
AcDbLine
 62
7
  6
CONTINUOUS
 10
-8.0777576858
 20
-6.5253084682
 11
-8.0772161123
 21
-6.5167332522
  0
LINE
  5
2BF
100
AcDbEntity
  8
0
100
AcDbLine
 62
7
  6
CONTINUOUS
 10
-7.9277222831
 20
-1.5029574324
 11
-8.0974457673
 21
-2.0734288849
  0
LWPOLYLINE
  5
2C0
100
AcDbEntity
  8
0
100
AcDbPolyline
 62
7
  6
CONTINUOUS
 90
18
 70
0
 10
-21.9071435302
 20
-20.5849605986
 10
-21.8631123209
 20
-20.4989028798
 10
-21.824976484
 20
-20.4120096994
 10
-21.7927015886
 20
-20.3246562841
 10
-21.7662303914
 20
-20.2372119149
 10
-21.7454833676
 20
-20.1500385841
 10
-21.7303593174
 20
-20.0634896902
 10
-21.7207360486
 20
-19.9779087773
 10
-21.7164711305
 20
-19.8936283217
 10
-21.717402716
 20
-19.8109685714
 10
-21.72335043
 20
-19.7302364401
 10
-21.7341163182
 20
-19.6517244612
 10
-21.749485855
 20
-19.5757098041
 10
-21.7692290049
 20
-19.5024533568
 10
-21.7931013336
 20
-19.4321988769
 10
-21.8208451652
 20
-19.3651722142
 10
-21.8521907798
 20
-19.3015806068
 10
-21.8868576488
 20
-19.2416120535
  0
LWPOLYLINE
  5
2C1
100
AcDbEntity
  8
0
100
AcDbPolyline
 62
7
  6
CONTINUOUS
 90
34
 70
0
 10
21.907266566
 20
28.1485111187
 10
21.8226181484
 20
28.0765568526
 10
21.7386820991
 20
27.994933426
 10
21.6603916645
 20
27.9078802684
 10
21.5880972698
 20
27.8157870266
 10
21.5221225026
 20
27.7190659066
 10
21.4627626639
 20
27.6181498287
 10
21.4102834463
 20
27.5134904895
 10
21.3649197454
 20
27.4055563407
 10
21.3268746077
 20
27.2948304917
 10
21.2963183223
 20
27.1818085475
 10
21.2733876582
 20
27.0669963905
 10
21.2581852526
 20
26.9509079159
 10
21.2507791513
 20
26.8340627317
 10
21.251202504
 20
26.7169838331
 10
21.259453416
 20
26.6001952613
 10
21.2754949569
 20
26.484219758
 10
21.2992553255
 20
26.3695764258
 10
21.3306281714
 20
26.2567784044
 10
21.3694730712
 20
26.1463305742
 10
21.4156161567
 20
26.0387272961
 10
21.4688508931
 20
25.934450199
 10
21.5289390039
 20
25.8339660238
 10
21.5956115369
 20
25.7377245347
 10
21.6685700683
 20
25.6461565055
 10
21.7474880382
 20
25.559671792
 10
21.8320122127
 20
25.4786574972
 10
21.9217642645
 20
25.4034762388
 10
22.0163424665
 20
25.3344645258
 10
22.1153234899
 20
25.2719312529
 10
22.218264299
 20
25.2161563171
 10
22.324704134
 20
25.1673893657
 10
22.4341665739
 20
25.1258486784
 10
22.5461616683
 20
25.0917201903
  0
LWPOLYLINE
  5
2C2
100
AcDbEntity
  8
0
100
AcDbPolyline
 62
7
  6
CONTINUOUS
 90
22
 70
0
 10
22.3233204555
 20
27.628153798
 10
22.3805492226
 20
27.6747828995
 10
22.4411552229
 20
27.7176397016
 10
22.5048970777
 20
27.7564693339
 10
22.5716484554
 20
27.7910958768
 10
22.6410034789
 20
27.8212128809
 10
22.7122326466
 20
27.8464775674
 10
22.7849131144
 20
27.8667725262
 10
22.8587700609
 20
27.8820531804
 10
22.9332395981
 20
27.8922488519
 10
23.0077537291
 20
27.897371234
 10
23.082177448
 20
27.8974999772
 10
23.1566006787
 20
27.8926601714
 10
23.2307523704
 20
27.8828458471
 10
23.3042390918
 20
27.8680853728
 10
23.3769645071
 20
27.848355613
 10
23.4487705781
 20
27.8236106032
 10
23.5191250612
 20
27.7939424047
 10
23.5873851571
 20
27.7595863164
 10
23.6531463426
 20
27.7207602779
 10
23.7162169693
 20
27.677592558
 10
23.7763157296
 20
27.6302778803
  0
LINE
  5
2C3
100
AcDbEntity
  8
0
100
AcDbLine
 62
7
  6
CONTINUOUS
 10
0.5197234842
 20
10.0121241468
 11
1.0901949367
 21
10.1818476309
  0
LINE
  5
2C4
100
AcDbEntity
  8
0
100
AcDbLine
 62
7
  6
CONTINUOUS
 10
-12.8401949367
 20
4.6318476309
 11
-12.2697234842
 21
4.8015711151
  0
LINE
  5
2C5
100
AcDbEntity
  8
0
100
AcDbLine
 62
7
  6
CONTINUOUS
 10
-10.6598050633
 20
3.9318476309
 11
-11.2302765158
 21
3.7621241468
  0
LWPOLYLINE
  5
2C6
100
AcDbEntity
  8
RACCORDO
100
AcDbPolyline
 62
7
  6
CONTINUOUS
 90
6
 70
0
 10
8.0777576858
 20
-6.5253084682
 10
8.0794489616
 20
-6.5249427993
 10
8.0827024133
 20
-6.5243072455
 10
8.0875180411
 20
-6.5234365558
 10
8.0941152833
 20
-6.5223690701
 10
8.1318413158
 20
-6.5165777403
  0
LWPOLYLINE
  5
2C7
100
AcDbEntity
  8
RACCORDO
100
AcDbPolyline
 62
7
  6
CONTINUOUS
 90
38
 70
0
 10
8.3116096557
 20
-6.485200447
 10
8.3306655618
 20
-6.4814115539
 10
8.3504691368
 20
-6.4773738783
 10
8.3710119413
 20
-6.4730815544
 10
8.3923606387
 20
-6.468501249
 10
8.414546168
 20
-6.4636146082
 10
8.4375375903
 20
-6.4584165116
 10
8.4613087517
 20
-6.4528901276
 10
8.4858747258
 20
-6.4470208035
 10
8.5112204391
 20
-6.4407994013
 10
8.537274517
 20
-6.4342172882
 10
8.5640416707
 20
-6.4272631038
 10
8.591517189
 20
-6.419926473
 10
8.6196155636
 20
-6.4122013687
 10
8.6483246253
 20
-6.4040824529
 10
8.6776565434
 20
-6.3955566377
 10
8.7075623165
 20
-6.3866066246
 10
8.737991969
 20
-6.3772403716
 10
8.7689954766
 20
-6.3674339555
 10
8.8006737649
 20
-6.3571177781
 10
8.8329932545
 20
-6.346294981
 10
8.8659875248
 20
-6.3349415684
 10
8.8998582408
 20
-6.3229362631
 10
8.9346101078
 20
-6.3102683499
 10
8.9702384204
 20
-6.2969193298
 10
9.0069307272
 20
-6.2827425587
 10
9.0446952301
 20
-6.2677286225
 10
9.0835237272
 20
-6.2518541844
 10
9.1235791617
 20
-6.2349382509
 10
9.164874266
 20
-6.2169796129
 10
9.2073963076
 20
-6.1979521877
 10
9.2512700324
 20
-6.1776258527
 10
9.2965121981
 20
-6.1560239628
 10
9.343106047
 20
-6.1331206599
 10
9.3911260522
 20
-6.1086059262
 10
9.4405970383
 20
-6.0823921455
 10
9.4914941808
 20
-6.0546295424
 10
9.5438174798
 20
-6.0253846206
  0
LINE
  5
2C8
100
AcDbEntity
  8
RACCORDO
100
AcDbLine
 62
7
  6
CONTINUOUS
 10
8.2756235498
 20
-6.4921031108
 11
8.3116096557
 21
-6.485200447
  0
LINE
  5
2C9
100
AcDbEntity
  8
RACCORDO
100
AcDbLine
 62
7
  6
CONTINUOUS
 10
8.2422420043
 20
-6.4982117123
 11
8.2756235498
 21
-6.4921031108
  0
LINE
  5
2CA
100
AcDbEntity
  8
RACCORDO
100
AcDbLine
 62
7
  6
CONTINUOUS
 10
8.2110295036
 20
-6.5036879016
 11
8.2422420043
 21
-6.4982117123
  0
LINE
  5
2CB
100
AcDbEntity
  8
RACCORDO
100
AcDbLine
 62
7
  6
CONTINUOUS
 10
8.1819771488
 20
-6.5085723226
 11
8.2110295036
 21
-6.5036879016
  0
LINE
  5
2CC
100
AcDbEntity
  8
RACCORDO
100
AcDbLine
 62
7
  6
CONTINUOUS
 10
8.1554762094
 20
-6.51285934
 11
8.1819771488
 21
-6.5085723226
  0
LINE
  5
2CD
100
AcDbEntity
  8
RACCORDO
100
AcDbLine
 62
7
  6
CONTINUOUS
 10
8.1318413158
 20
-6.5165777403
 11
8.1554762094
 21
-6.51285934
  0
LINE
  5
2CE
100
AcDbEntity
  8
RACCORDO
100
AcDbLine
 62
253
  6
CONTINUOUS
 10
10.4028439009
 20
-8.0120043866
 11
10.9027677484
 21
-8.0120043866
  0
LINE
  5
2CF
100
AcDbEntity
  8
RACCORDO
100
AcDbLine
 62
253
  6
CONTINUOUS
 10
-10.4028439009
 20
-8.0120043867
 11
-10.9027677484
 21
-8.0120043867
  0
LINE
  5
2D0
100
AcDbEntity
  8
RACCORDO
100
AcDbLine
 62
7
  6
CONTINUOUS
 10
-8.1334579275
 20
-6.5163310274
 11
-8.0940130196
 21
-6.5223949171
  0
LINE
  5
2D1
100
AcDbEntity
  8
RACCORDO
100
AcDbLine
 62
7
  6
CONTINUOUS
 10
-8.1712234964
 20
-6.5103325059
 11
-8.1334579275
 21
-6.5163310274
  0
LWPOLYLINE
  5
2D2
100
AcDbEntity
  8
RACCORDO
100
AcDbPolyline
 62
7
  6
CONTINUOUS
 90
4
 70
0
 10
-8.0940130196
 20
-6.5223949171
 10
-8.0872794166
 20
-6.5234751029
 10
-8.0824360502
 20
-6.5243362971
 10
-8.07926214
 20
-6.5249552925
  0
LINE
  5
2D3
100
AcDbEntity
  8
RACCORDO
100
AcDbLine
 62
7
  6
CONTINUOUS
 10
-8.1992801672
 20
-6.5056799069
 11
-8.1712234964
 21
-6.5103325059
  0
LINE
  5
2D4
100
AcDbEntity
  8
RACCORDO
100
AcDbLine
 62
7
  6
CONTINUOUS
 10
-8.229391885
 20
-6.5004967996
 11
-8.1992801672
 21
-6.5056799069
  0
LINE
  5
2D5
100
AcDbEntity
  8
RACCORDO
100
AcDbLine
 62
7
  6
CONTINUOUS
 10
-8.2612154744
 20
-6.4947759192
 11
-8.229391885
 21
-6.5004967996
  0
LINE
  5
2D6
100
AcDbEntity
  8
RACCORDO
100
AcDbLine
 62
7
  6
CONTINUOUS
 10
-8.07926214
 20
-6.5249552925
 11
-8.0777576858
 21
-6.5253084682
  0
LWPOLYLINE
  5
2D7
100
AcDbEntity
  8
RACCORDO
100
AcDbPolyline
 62
7
  6
CONTINUOUS
 90
43
 70
0
 10
-9.5438174798
 20
-6.0253846206
 10
-9.4932536494
 20
-6.0536732987
 10
-9.4440409328
 20
-6.0805605663
 10
-9.39617933
 20
-6.105985659
 10
-9.349681644
 20
-6.1298139345
 10
-9.3045350718
 20
-6.1521211063
 10
-9.2607012042
 20
-6.1731802807
 10
-9.2181955754
 20
-6.1930140126
 10
-9.1770026511
 20
-6.2116014274
 10
-9.1370374203
 20
-6.2291467336
 10
-9.0983116613
 20
-6.2456745648
 10
-9.0608135957
 20
-6.2611867387
 10
-9.0244228773
 20
-6.2758442789
 10
-8.9891468862
 20
-6.2896708025
 10
-8.9549782423
 20
-6.3026762462
 10
-8.9217744582
 20
-6.3149906759
 10
-8.8895428098
 20
-6.3266334137
 10
-8.8582760212
 20
-6.3376174877
 10
-8.8278097774
 20
-6.3480528501
 10
-8.7981397723
 20
-6.3579575576
 10
-8.7692703119
 20
-6.3673402898
 10
-8.7410499995
 20
-6.3762869094
 10
-8.7134526894
 20
-6.384817193
 10
-8.6865045273
 20
-6.3929315356
 10
-8.6601325535
 20
-6.400679368
 10
-8.6343162509
 20
-6.4080757097
 10
-8.6090761366
 20
-6.4151223946
 10
-8.5844008024
 20
-6.4218451876
 10
-8.5602934761
 20
-6.4282515516
 10
-8.5367509298
 20
-6.4343501403
 10
-8.5137520717
 20
-6.4401659291
 10
-8.4912983023
 20
-6.4457056122
 10
-8.4693882211
 20
-6.4509767177
 10
-8.4479965336
 20
-6.4560026073
 10
-8.4271235556
 20
-6.4607886806
 10
-8.4067689714
 20
-6.4653413917
 10
-8.386906539
 20
-6.4696825664
 10
-8.367535516
 20
-6.4738159466
 10
-8.3486566448
 20
-6.4777468537
 10
-8.3302459109
 20
-6.4814959929
 10
-8.3123016972
 20
-6.4850648647
 10
-8.2948256207
 20
-6.4884577196
 10
-8.2612154744
 20
-6.4947759192
  0
LINE
  5
2D8
100
AcDbEntity
  8
RACCORDO
100
AcDbLine
 62
253
  6
CONTINUOUS
 10
3.1906020083
 20
-13.4140124179
 11
3.1657516444
 21
-13.3964965218
  0
LINE
  5
2D9
100
AcDbEntity
  8
0
100
AcDbLine
 62
7
  6
CONTINUOUS
 10
-11.2302765158
 20
4.8015711151
 11
-11.4
 21
5.3720425676
  0
LINE
  5
2DA
100
AcDbEntity
  8
0
100
AcDbLine
 62
7
  6
CONTINUOUS
 10
-8.0974457673
 20
-3.1128758532
 11
-7.9277222831
 21
-3.6833473058
  0
LINE
  5
2DB
100
AcDbEntity
  8
0
100
AcDbLine
 62
7
  6
CONTINUOUS
 10
-7.0579987989
 20
-2.0734288849
 11
-7.2277222831
 21
-1.5029574324
  0
LWPOLYLINE
  5
2DC
100
AcDbEntity
  8
0
100
AcDbPolyline
 62
7
  6
CONTINUOUS
 90
5
 70
0
 10
-0.6818050354
 20
-31.0146220715
 10
-0.6745298109
 20
-31.0807864059
 10
-0.6672460815
 20
-31.1439184659
 10
-0.659962073
 20
-31.2038492368
 10
-0.6526722588
 20
-31.260544013
  0
LINE
  5
2DD
100
AcDbEntity
  8
0
100
AcDbLine
 62
7
  6
CONTINUOUS
 10
-1.6912868675
 20
-30.9352522155
 11
-1.7027068368
 21
-30.8276553993
  0
LINE
  5
2DE
100
AcDbEntity
  8
0
100
AcDbLine
 62
7
  6
CONTINUOUS
 10
-0.6913580286
 20
-30.9346064123
 11
-0.7028091053
 21
-30.826656888
  0
LINE
  5
2DF
100
AcDbEntity
  8
0
100
AcDbLine
 62
7
  6
CONTINUOUS
 10
-2.6935351594
 20
-30.9016784767
 11
-2.6791102904
 21
-31.0394848869
  0
LINE
  5
2E0
100
AcDbEntity
  8
0
100
AcDbLine
 62
7
  6
CONTINUOUS
 10
-1.6954685845
 20
-30.882348724
 11
-1.680921553
 21
-31.0228190562
  0
LINE
  5
2E1
100
AcDbEntity
  8
0
100
AcDbLine
 62
7
  6
CONTINUOUS
 10
-0.6963578785
 20
-30.8733920452
 11
-0.6818050354
 21
-31.0146220715
  0
LINE
  5
2E2
100
AcDbEntity
  8
0
100
AcDbLine
 62
7
  6
CONTINUOUS
 10
-1.7027068368
 20
-30.8276553993
 11
-1.7144731759
 21
-30.708944242
  0
LINE
  5
2E3
100
AcDbEntity
  8
0
100
AcDbLine
 62
7
  6
CONTINUOUS
 10
-0.7028091053
 20
-30.826656888
 11
-0.7146117547
 21
-30.7075015694
  0
LINE
  5
2E4
100
AcDbEntity
  8
0
100
AcDbLine
 62
7
  6
CONTINUOUS
 10
-2.70795103
 20
-30.7529588078
 11
-2.6935351594
 21
-30.9016784767
  0
LINE
  5
2E5
100
AcDbEntity
  8
0
100
AcDbLine
 62
7
  6
CONTINUOUS
 10
-1.7099759875
 20
-30.7312478567
 11
-1.6954685845
 21
-30.882348724
  0
LINE
  5
2E6
100
AcDbEntity
  8
0
100
AcDbLine
 62
7
  6
CONTINUOUS
 10
-0.7108579934
 20
-30.7217308448
 11
-0.6963578785
 21
-30.8733920452
  0
LINE
  5
2E7
100
AcDbEntity
  8
0
100
AcDbLine
 62
7
  6
CONTINUOUS
 10
-1.7144731759
 20
-30.708944242
 11
-1.726580993
 21
-30.5792485567
  0
LINE
  5
2E8
100
AcDbEntity
  8
0
100
AcDbLine
 62
7
  6
CONTINUOUS
 10
-0.7146117547
 20
-30.7075015694
 11
-0.7267598988
 21
-30.5772789084
  0
LINE
  5
2E9
100
AcDbEntity
  8
0
100
AcDbLine
 62
7
  6
CONTINUOUS
 10
-2.7223300399
 20
-30.5947398645
 11
-2.70795103
 21
-30.7529588078
  0
LINE
  5
2EA
100
AcDbEntity
  8
0
100
AcDbLine
 62
7
  6
CONTINUOUS
 10
-1.7244101306
 20
-30.5711041046
 11
-1.7099759875
 21
-30.7312478567
  0
LINE
  5
2EB
100
AcDbEntity
  8
0
100
AcDbLine
 62
7
  6
CONTINUOUS
 10
-0.7252717265
 20
-30.5612616088
 11
-0.7108579934
 21
-30.7217308448
  0
LINE
  5
2EC
100
AcDbEntity
  8
0
100
AcDbLine
 62
7
  6
CONTINUOUS
 10
-1.726580993
 20
-30.5792485567
 11
-1.7390277936
 21
-30.438810541
  0
LINE
  5
2ED
100
AcDbEntity
  8
0
100
AcDbLine
 62
7
  6
CONTINUOUS
 10
-0.7267598988
 20
-30.5772789084
 11
-0.7392502343
 21
-30.436240655
  0
LINE
  5
2EE
100
AcDbEntity
  8
0
100
AcDbLine
 62
7
  6
CONTINUOUS
 10
-2.7436712029
 20
-30.344306942
 11
-2.7223300399
 21
-30.5947398645
  0
LINE
  5
2EF
100
AcDbEntity
  8
0
100
AcDbLine
 62
7
  6
CONTINUOUS
 10
-1.7457484344
 20
-30.3190688405
 11
-1.7244101306
 21
-30.5711041046
  0
LINE
  5
2F0
100
AcDbEntity
  8
0
100
AcDbLine
 62
7
  6
CONTINUOUS
 10
-0.7465563027
 20
-30.3092163045
 11
-0.7252717265
 21
-30.5612616088
  0
LINE
  5
2F1
100
AcDbEntity
  8
0
100
AcDbLine
 62
7
  6
CONTINUOUS
 10
-1.7390277936
 20
-30.438810541
 11
-1.7583529422
 21
-30.2086187528
  0
LINE
  5
2F2
100
AcDbEntity
  8
0
100
AcDbLine
 62
7
  6
CONTINUOUS
 10
-0.7392502343
 20
-30.436240655
 11
-0.7586440343
 21
-30.2050533221
  0
LINE
  5
2F3
100
AcDbEntity
  8
0
100
AcDbLine
 62
7
  6
CONTINUOUS
 10
-1.7583529422
 20
-30.2086187528
 11
-1.7785034597
 21
-29.9562448413
  0
LWPOLYLINE
  5
2F4
100
AcDbEntity
  8
0
100
AcDbPolyline
 62
7
  6
CONTINUOUS
 90
3
 70
0
 10
-0.7586440343
 20
-30.2050533221
 10
-0.7788668878
 20
-29.9516022271
 10
-0.7858110385
 20
-29.8623941728
  0
LINE
  5
2F5
100
AcDbEntity
  8
0
100
AcDbLine
 62
7
  6
CONTINUOUS
 10
-2.7713913461
 20
-29.9976121484
 11
-2.7436712029
 21
-30.344306942
  0
LINE
  5
2F6
100
AcDbEntity
  8
0
100
AcDbLine
 62
7
  6
CONTINUOUS
 10
-0.7740807911
 20
-29.9630234341
 11
-0.7465563027
 21
-30.3092163045
  0
LINE
  5
2F7
100
AcDbEntity
  8
0
100
AcDbLine
 62
7
  6
CONTINUOUS
 10
-1.7800729478
 20
-29.8855093739
 11
-1.7457484344
 21
-30.3190688405
  0
LINE
  5
2F8
100
AcDbEntity
  8
0
100
AcDbLine
 62
7
  6
CONTINUOUS
 10
-1.7785034597
 20
-29.9562448413
 11
-1.8030652635
 21
-29.6374528576
  0
LINE
  5
2F9
100
AcDbEntity
  8
0
100
AcDbLine
 62
7
  6
CONTINUOUS
 10
-2.7990177478
 20
-29.6374528576
 11
-2.7713913461
 21
-29.9976121484
  0
LINE
  5
2FA
100
AcDbEntity
  8
0
100
AcDbLine
 62
7
  6
CONTINUOUS
 10
-1.7990173916
 20
-29.6374528576
 11
-1.7800729478
 21
-29.8855093739
  0
LWPOLYLINE
  5
2FB
100
AcDbEntity
  8
0
100
AcDbPolyline
 62
7
  6
CONTINUOUS
 90
12
 70
0
 10
-3.4972279418
 20
-33.3548681796
 10
-3.495912895
 20
-33.3905724398
 10
-3.4853925389
 20
-33.4590991352
 10
-3.4639187728
 20
-33.5238843844
 10
-3.431924656
 20
-33.5857878738
 10
-3.3907093691
 20
-33.6416251428
 10
-3.3389419518
 20
-33.6913631703
 10
-3.2779533646
 20
-33.7350349774
 10
-3.2130356696
 20
-33.7695551668
 10
-3.1459528875
 20
-33.7938952725
 10
-3.0749409976
 20
-33.8090837604
 10
-3.0
 20
-33.8151206305
  0
LWPOLYLINE
  5
2FC
100
AcDbEntity
  8
0
100
AcDbPolyline
 62
7
  6
CONTINUOUS
 90
12
 70
0
 10
-2.5027720582
 20
-33.3548681796
 10
-2.5040870996
 20
-33.3191639847
 10
-2.5146074483
 20
-33.2506372899
 10
-2.5360812135
 20
-33.1858520436
 10
-2.5680753327
 20
-33.1239485576
 10
-2.6092906217
 20
-33.0681112882
 10
-2.6610580393
 20
-33.0183732524
 10
-2.7220466267
 20
-32.9747014331
 10
-2.7869643225
 20
-32.9401812355
 10
-2.8540471065
 20
-32.9158411278
 10
-2.925058999
 20
-32.9006526416
 10
-3.0
 20
-32.894615777
  0
LINE
  5
2FD
100
AcDbEntity
  8
0
100
AcDbLine
 62
7
  6
CONTINUOUS
 10
-6.3353110168
 20
-2.9431523691
 11
-6.3353110168
 21
-2.2431523691
  0
LINE
  5
2FE
100
AcDbEntity
  8
DRAFT
100
AcDbLine
 62
7
  6
CONTINUOUS
 10
-5.35
 20
-33.3365649376
 11
-5.35
 21
-30.9681523691
  0
LINE
  5
2FF
100
AcDbEntity
  8
0
100
AcDbLine
 62
7
  6
CONTINUOUS
 10
-5.35
 20
2.7818476309
 11
-5.35
 21
3.1648263534
  0
LINE
  5
300
100
AcDbEntity
  8
RACCORDO
100
AcDbLine
 62
7
  6
CONTINUOUS
 10
-4.78
 20
-6.5481523691
 11
-4.78
 21
-11.4574844577
  0
LINE
  5
301
100
AcDbEntity
  8
RACCORDO
100
AcDbLine
 62
253
  6
CONTINUOUS
 10
-4.7571560991
 20
-11.4389265572
 11
-4.7571560991
 21
-6.5253084682
  0
LINE
  5
302
100
AcDbEntity
  8
RACCORDO
100
AcDbLine
 62
253
  6
CONTINUOUS
 10
-4.2572322516
 20
-11.4389265572
 11
-4.2572322516
 21
-6.0253846206
  0
LINE
  5
303
100
AcDbEntity
  8
DRAFT
100
AcDbLine
 62
7
  6
CONTINUOUS
 10
-3.85
 20
-30.9681523691
 11
-3.85
 21
-33.3365649376
  0
LINE
  5
304
100
AcDbEntity
  8
0
100
AcDbLine
 62
7
  6
CONTINUOUS
 10
-3.4976326461
 20
-31.4012125371
 11
-3.4976326461
 21
-33.3548681796
  0
LINE
  5
305
100
AcDbEntity
  8
0
100
AcDbLine
 62
7
  6
CONTINUOUS
 10
-3.1932287364
 20
4.4318476309
 11
-3.1932287364
 21
4.1318476309
  0
LINE
  5
306
100
AcDbEntity
  8
SMUSSO
100
AcDbLine
 62
7
  6
CONTINUOUS
 10
-3.9122039341
 20
-30.9681523691
 11
-3.9143762413
 21
-31.2369871473
  0
LINE
  5
307
100
AcDbEntity
  8
SMUSSO
100
AcDbLine
 62
7
  6
CONTINUOUS
 10
-3.9143762413
 20
-31.2369871473
 11
-3.917407438
 21
-31.5020136184
  0
LINE
  5
308
100
AcDbEntity
  8
SMUSSO
100
AcDbLine
 62
7
  6
CONTINUOUS
 10
-3.917407438
 20
-31.5020136184
 11
-3.9196490868
 21
-31.6417610967
  0
LWPOLYLINE
  5
309
100
AcDbEntity
  8
0
100
AcDbPolyline
 62
7
  6
CONTINUOUS
 90
10
 70
0
 10
-5.6514582308
 20
-2.9431523691
 10
-5.6496413014
 20
-2.8655104762
 10
-5.6482786043
 20
-2.787800641
 10
-5.6473701396
 20
-2.7100228636
 10
-5.6469159072
 20
-2.6321318492
 10
-5.6469159072
 20
-2.5541728926
 10
-5.6473701396
 20
-2.4762818778
 10
-5.6482786043
 20
-2.3985040997
 10
-5.6496413014
 20
-2.3207942634
 10
-5.6514582308
 20
-2.2431523691
  0
LWPOLYLINE
  5
30A
100
AcDbEntity
  8
SMUSSO
100
AcDbPolyline
 62
7
  6
CONTINUOUS
 90
7
 70
0
 10
-3.9196490868
 20
-31.6417610967
 10
-3.9220191193
 20
-31.7489206395
 10
-3.9232471817
 20
-31.7899549039
 10
-3.924484877
 20
-31.8222547644
 10
-3.9257260162
 20
-31.8456816125
 10
-3.9269767884
 20
-31.8603740567
 10
-3.9282371935
 20
-31.866332097
  0
LWPOLYLINE
  5
30B
100
AcDbEntity
  8
SMUSSO
100
AcDbPolyline
 62
7
  6
CONTINUOUS
 90
7
 70
0
 10
-4.7213838936
 20
-30.9681523691
 10
-4.7221105016
 20
-30.9881384036
 10
-4.723338564
 20
-31.0154550348
 10
-4.7245762593
 20
-31.0369222235
 10
-4.7258173986
 20
-31.0525206825
 10
-4.7270681707
 20
-31.0623012738
 10
-4.7283285758
 20
-31.0663056201
  0
LINE
  5
30C
100
AcDbEntity
  8
0
100
AcDbLine
 62
7
  6
CONTINUOUS
 10
-7.2277222831
 20
-3.6833473058
 11
-7.0579987989
 21
-3.1128758532
  0
LINE
  5
30D
100
AcDbEntity
  8
0
100
AcDbLine
 62
7
  6
CONTINUOUS
 10
-0.35
 20
11.6220425676
 11
-0.5197234842
 21
11.0515711151
  0
LINE
  5
30E
100
AcDbEntity
  8
0
100
AcDbLine
 62
7
  6
CONTINUOUS
 10
-3.9080892972
 20
5.7818476309
 11
-5.0
 21
2.7818476309
  0
LINE
  5
30F
100
AcDbEntity
  8
0
100
AcDbLine
 62
7
  6
CONTINUOUS
 10
-4.6807466683
 20
2.7818476309
 11
-3.5888359655
 21
5.7818476309
  0
LWPOLYLINE
  5
310
100
AcDbEntity
  8
0
100
AcDbPolyline
 62
7
  6
CONTINUOUS
 90
34
 70
0
 10
24.092733434
 20
25.4151841432
 10
24.1773818516
 20
25.4871384093
 10
24.2613179009
 20
25.5687618359
 10
24.3396083355
 20
25.6558149934
 10
24.4119027302
 20
25.7479082352
 10
24.4778774974
 20
25.8446293553
 10
24.5372373361
 20
25.9455454332
 10
24.5897165537
 20
26.0502047723
 10
24.6350802546
 20
26.1581389211
 10
24.6731253923
 20
26.2688647701
 10
24.7036816777
 20
26.3818867143
 10
24.7266123418
 20
26.4966988714
 10
24.7418147474
 20
26.612787346
 10
24.7492208487
 20
26.7296325302
 10
24.748797496
 20
26.8467114288
 10
24.740546584
 20
26.9635000006
 10
24.7245050431
 20
27.0794755039
 10
24.7007446745
 20
27.1941188361
 10
24.6693718286
 20
27.3069168574
 10
24.6305269288
 20
27.4173646876
 10
24.5843838433
 20
27.5249679657
 10
24.5311491069
 20
27.6292450629
 10
24.4710609961
 20
27.729729238
 10
24.4043884631
 20
27.8259707272
 10
24.3314299317
 20
27.9175387564
 10
24.2525119618
 20
28.0040234699
 10
24.1679877873
 20
28.0850377646
 10
24.0782357355
 20
28.1602190231
 10
23.9836575335
 20
28.229230736
 10
23.8846765101
 20
28.291764009
 10
23.781735701
 20
28.3475389448
 10
23.675295866
 20
28.3963058961
 10
23.5658334261
 20
28.4378465835
 10
23.4538383317
 20
28.4719750716
  0
LWPOLYLINE
  5
311
100
AcDbEntity
  8
0
100
AcDbPolyline
 62
7
  6
CONTINUOUS
 90
22
 70
0
 10
23.6766795445
 20
25.9355414639
 10
23.6194407739
 20
25.8889047633
 10
23.558829182
 20
25.8460453122
 10
23.4950870311
 20
25.8072169781
 10
23.4283412281
 20
25.7725944758
 10
23.3589984042
 20
25.7424831227
 10
23.2877890292
 20
25.7172245549
 10
23.2151441195
 20
25.6969366292
 10
23.1413309515
 20
25.6816594206
 10
23.0668893614
 20
25.6714596448
 10
22.9923736468
 20
25.6663285069
 10
22.9179309666
 20
25.6661918628
 10
22.8434857289
 20
25.6710265772
 10
22.7693116515
 20
25.6808387626
 10
22.6958001259
 20
25.6956006447
 10
22.6230547556
 20
25.7153337265
 10
22.5512362215
 20
25.7400820573
 10
22.4808740023
 20
25.7697532897
 10
22.4126097218
 20
25.8041117422
 10
22.3468473598
 20
25.8429389921
 10
22.2837785743
 20
25.8861059777
 10
22.2236842704
 20
25.9334173816
  0
LWPOLYLINE
  5
312
100
AcDbEntity
  8
RACCORDO
100
AcDbPolyline
 62
7
  6
CONTINUOUS
 90
6
 70
0
 10
-7.0822423142
 20
-6.5253084682
 10
-7.0805510384
 20
-6.5249427993
 10
-7.0772975867
 20
-6.5243072455
 10
-7.0724819589
 20
-6.5234365558
 10
-7.0658847167
 20
-6.5223690701
 10
-7.0281586842
 20
-6.5165777403
  0
LWPOLYLINE
  5
313
100
AcDbEntity
  8
RACCORDO
100
AcDbPolyline
 62
7
  6
CONTINUOUS
 90
38
 70
0
 10
-6.8483903443
 20
-6.485200447
 10
-6.8293344382
 20
-6.4814115539
 10
-6.8095308632
 20
-6.4773738783
 10
-6.7889880587
 20
-6.4730815544
 10
-6.7676393613
 20
-6.468501249
 10
-6.745453832
 20
-6.4636146082
 10
-6.7224624097
 20
-6.4584165116
 10
-6.6986912483
 20
-6.4528901276
 10
-6.6741252742
 20
-6.4470208035
 10
-6.6487795609
 20
-6.4407994013
 10
-6.622725483
 20
-6.4342172882
 10
-6.5959583293
 20
-6.4272631038
 10
-6.568482811
 20
-6.419926473
 10
-6.5403844364
 20
-6.4122013687
 10
-6.5116753747
 20
-6.4040824529
 10
-6.4823434566
 20
-6.3955566377
 10
-6.4524376835
 20
-6.3866066246
 10
-6.422008031
 20
-6.3772403716
 10
-6.3910045234
 20
-6.3674339555
 10
-6.3593262351
 20
-6.3571177781
 10
-6.3270067455
 20
-6.346294981
 10
-6.2940124752
 20
-6.3349415684
 10
-6.2601417592
 20
-6.3229362631
 10
-6.2253898922
 20
-6.3102683499
 10
-6.1897615796
 20
-6.2969193298
 10
-6.1530692728
 20
-6.2827425587
 10
-6.1153047699
 20
-6.2677286225
 10
-6.0764762728
 20
-6.2518541844
 10
-6.0364208383
 20
-6.2349382509
 10
-5.995125734
 20
-6.2169796129
 10
-5.9526036924
 20
-6.1979521877
 10
-5.9087299676
 20
-6.1776258527
 10
-5.8634878019
 20
-6.1560239628
 10
-5.816893953
 20
-6.1331206599
 10
-5.7688739478
 20
-6.1086059262
 10
-5.7194029617
 20
-6.0823921455
 10
-5.6685058192
 20
-6.0546295424
 10
-5.6161825202
 20
-6.0253846206
  0
LINE
  5
314
100
AcDbEntity
  8
RACCORDO
100
AcDbLine
 62
7
  6
CONTINUOUS
 10
-6.8843764502
 20
-6.4921031108
 11
-6.8483903443
 21
-6.485200447
  0
LINE
  5
315
100
AcDbEntity
  8
RACCORDO
100
AcDbLine
 62
7
  6
CONTINUOUS
 10
-6.9177579957
 20
-6.4982117123
 11
-6.8843764502
 21
-6.4921031108
  0
LINE
  5
316
100
AcDbEntity
  8
RACCORDO
100
AcDbLine
 62
7
  6
CONTINUOUS
 10
-6.9489704964
 20
-6.5036879016
 11
-6.9177579957
 21
-6.4982117123
  0
LINE
  5
317
100
AcDbEntity
  8
RACCORDO
100
AcDbLine
 62
7
  6
CONTINUOUS
 10
-6.9780228512
 20
-6.5085723226
 11
-6.9489704964
 21
-6.5036879016
  0
LINE
  5
318
100
AcDbEntity
  8
RACCORDO
100
AcDbLine
 62
7
  6
CONTINUOUS
 10
-7.0045237906
 20
-6.51285934
 11
-6.9780228512
 21
-6.5085723226
  0
LINE
  5
319
100
AcDbEntity
  8
RACCORDO
100
AcDbLine
 62
7
  6
CONTINUOUS
 10
-7.0281586842
 20
-6.5165777403
 11
-7.0045237906
 21
-6.51285934
  0
LINE
  5
31A
100
AcDbEntity
  8
DRAFT
100
AcDbLine
 62
7
  6
CONTINUOUS
 10
-10.38
 20
-6.5481523691
 11
-4.78
 21
-6.5481523691
  0
LINE
  5
31B
100
AcDbEntity
  8
DRAFT
100
AcDbLine
 62
7
  6
CONTINUOUS
 10
4.78
 20
-6.5481523691
 11
10.38
 21
-6.5481523691
  0
LINE
  5
31C
100
AcDbEntity
  8
RACCORDO
100
AcDbLine
 62
253
  6
CONTINUOUS
 10
-10.4028439009
 20
-6.5253084682
 11
-8.0777576858
 21
-6.5253084682
  0
LINE
  5
31D
100
AcDbEntity
  8
RACCORDO
100
AcDbLine
 62
253
  6
CONTINUOUS
 10
-7.0822423142
 20
-6.5253084682
 11
-4.7571560991
 21
-6.5253084682
  0
LINE
  5
31E
100
AcDbEntity
  8
RACCORDO
100
AcDbLine
 62
253
  6
CONTINUOUS
 10
4.7571560991
 20
-6.5253084682
 11
7.0822423142
 21
-6.5253084682
  0
LINE
  5
31F
100
AcDbEntity
  8
RACCORDO
100
AcDbLine
 62
253
  6
CONTINUOUS
 10
8.0777576858
 20
-6.5253084682
 11
10.4028439009
 21
-6.5253084682
  0
LINE
  5
320
100
AcDbEntity
  8
RACCORDO
100
AcDbLine
 62
253
  6
CONTINUOUS
 10
-10.9027677484
 20
-6.0253846206
 11
-9.5438174798
 21
-6.0253846206
  0
LINE
  5
321
100
AcDbEntity
  8
RACCORDO
100
AcDbLine
 62
253
  6
CONTINUOUS
 10
-5.6161825202
 20
-6.0253846206
 11
-4.2572322516
 21
-6.0253846206
  0
LINE
  5
322
100
AcDbEntity
  8
RACCORDO
100
AcDbLine
 62
253
  6
CONTINUOUS
 10
4.2572322516
 20
-6.0253846206
 11
5.6161825202
 21
-6.0253846206
  0
LINE
  5
323
100
AcDbEntity
  8
RACCORDO
100
AcDbLine
 62
253
  6
CONTINUOUS
 10
9.5438174798
 20
-6.0253846206
 11
10.9027677484
 21
-6.0253846206
  0
LINE
  5
324
100
AcDbEntity
  8
0
100
AcDbLine
 62
7
  6
CONTINUOUS
 10
-7.9277222831
 20
-4.2344289218
 11
-7.2277222831
 21
-4.2344289218
  0
LINE
  5
325
100
AcDbEntity
  8
0
100
AcDbLine
 62
7
  6
CONTINUOUS
 10
7.2277222831
 20
-4.2344289218
 11
7.9277222831
 21
-4.2344289218
  0
LINE
  5
326
100
AcDbEntity
  8
0
100
AcDbLine
 62
7
  6
CONTINUOUS
 10
7.9277222831
 20
-3.8355636354
 11
7.2277222831
 21
-3.8355636354
  0
LINE
  5
327
100
AcDbEntity
  8
0
100
AcDbLine
 62
7
  6
CONTINUOUS
 10
-7.2277222831
 20
-3.8355636354
 11
-7.9277222831
 21
-3.8355636354
  0
LINE
  5
328
100
AcDbEntity
  8
RACCORDO
100
AcDbLine
 62
7
  6
CONTINUOUS
 10
7.0265420725
 20
-6.5163310274
 11
7.0659869804
 21
-6.5223949171
  0
LINE
  5
329
100
AcDbEntity
  8
RACCORDO
100
AcDbLine
 62
7
  6
CONTINUOUS
 10
6.9887765036
 20
-6.5103325059
 11
7.0265420725
 21
-6.5163310274
  0
LWPOLYLINE
  5
32A
100
AcDbEntity
  8
RACCORDO
100
AcDbPolyline
 62
7
  6
CONTINUOUS
 90
4
 70
0
 10
7.0659869804
 20
-6.5223949171
 10
7.0727205834
 20
-6.5234751029
 10
7.0775639498
 20
-6.5243362971
 10
7.08073786
 20
-6.5249552925
  0
LINE
  5
32B
100
AcDbEntity
  8
RACCORDO
100
AcDbLine
 62
7
  6
CONTINUOUS
 10
6.9607198328
 20
-6.5056799069
 11
6.9887765036
 21
-6.5103325059
  0
LINE
  5
32C
100
AcDbEntity
  8
RACCORDO
100
AcDbLine
 62
7
  6
CONTINUOUS
 10
6.930608115
 20
-6.5004967996
 11
6.9607198328
 21
-6.5056799069
  0
LINE
  5
32D
100
AcDbEntity
  8
RACCORDO
100
AcDbLine
 62
7
  6
CONTINUOUS
 10
6.8987845256
 20
-6.4947759192
 11
6.930608115
 21
-6.5004967996
  0
LINE
  5
32E
100
AcDbEntity
  8
RACCORDO
100
AcDbLine
 62
7
  6
CONTINUOUS
 10
7.08073786
 20
-6.5249552925
 11
7.0822423142
 21
-6.5253084682
  0
LINE
  5
32F
100
AcDbEntity
  8
0
100
AcDbLine
 62
7
  6
CONTINUOUS
 10
-8.0974457673
 20
-3.1128758532
 11
-8.6679172198
 21
-2.9431523691
  0
LINE
  5
330
100
AcDbEntity
  8
0
100
AcDbLine
 62
7
  6
CONTINUOUS
 10
-7.0579987989
 20
-2.0734288849
 11
-6.4875273464
 21
-2.2431523691
  0
LINE
  5
331
100
AcDbEntity
  8
RACCORDO
100
AcDbLine
 62
253
  6
CONTINUOUS
 10
11.6031067721
 20
-8.5367915935
 11
11.7269537204
 21
-8.5816004651
  0
LINE
  5
332
100
AcDbEntity
  8
RACCORDO
100
AcDbLine
 62
7
  6
CONTINUOUS
 10
10.830962908
 20
-8.7258494149
 11
10.9544696124
 21
-8.7727128219
  0
LWPOLYLINE
  5
333
100
AcDbEntity
  8
RACCORDO
100
AcDbPolyline
 62
7
  6
CONTINUOUS
 90
13
 70
0
 10
10.830962908
 20
-8.7258494149
 10
10.7667190157
 20
-8.697653395
 10
10.7054089014
 20
-8.6630332262
 10
10.6478917009
 20
-8.6224305644
 10
10.5947492225
 20
-8.5762568061
 10
10.5465185578
 20
-8.5249794246
 10
10.5036887905
 20
-8.4691198644
 10
10.4666981062
 20
-8.4092547863
 10
10.4359114184
 20
-8.3459809157
 10
10.4116284024
 20
-8.2799061675
 10
10.3941007536
 20
-8.2116850237
 10
10.3835192337
 20
-8.142016828
 10
10.38
 20
-8.0716066271
  0
LINE
  5
334
100
AcDbEntity
  8
RACCORDO
100
AcDbLine
 62
253
  6
CONTINUOUS
 10
4.78
 20
-11.4574844577
 11
4.7571560991
 21
-11.4389265572
  0
LINE
  5
335
100
AcDbEntity
  8
0
100
AcDbLine
 62
7
  6
CONTINUOUS
 10
-24.1131423512
 20
26.8053073153
 11
-24.0754442988
 21
26.7491300261
  0
LINE
  5
336
100
AcDbEntity
  8
0
100
AcDbLine
 62
7
  6
CONTINUOUS
 10
-21.8868576488
 20
26.7583879465
 11
-21.9245557012
 21
26.8145652358
  0
LWPOLYLINE
  5
337
100
AcDbEntity
  8
0
100
AcDbPolyline
 62
7
  6
CONTINUOUS
 90
22
 70
0
 10
0.3494410628
 20
-31.2763569167
 10
0.3568159299
 20
-31.3293239548
 10
0.3642192345
 20
-31.379012713
 10
0.3716850754
 20
-31.4255876947
 10
0.3792965746
 20
-31.4694554095
 10
0.3870651283
 20
-31.5105468118
 10
0.3950948287
 20
-31.5492559409
 10
0.4037208528
 20
-31.586818492
 10
0.4130366245
 20
-31.6230807388
 10
0.4233269979
 20
-31.6585115286
 10
0.4356178816
 20
-31.6953991431
 10
0.4506594991
 20
-31.7340049421
 10
0.4692006577
 20
-31.7739762617
 10
0.4932393957
 20
-31.816634125
 10
0.5256286068
 20
-31.8628882685
 10
0.5670863057
 20
-31.9098558097
 10
0.6158239576
 20
-31.95332369
 10
0.671219195
 20
-31.9917421742
 10
0.7335883672
 20
-32.0242424572
 10
0.8006790535
 20
-32.048625601
 10
0.870846797
 20
-32.0635901123
 10
0.936222613
 20
-32.068151731
  0
LWPOLYLINE
  5
338
100
AcDbEntity
  8
0
100
AcDbPolyline
 62
7
  6
CONTINUOUS
 90
23
 70
0
 10
-1.6518376342
 20
-31.2668227356
 10
-1.644542945
 20
-31.3198240612
 10
-1.637200329
 20
-31.3697558471
 10
-1.6297938093
 20
-31.4166425748
 10
-1.6222827207
 20
-31.4606502107
 10
-1.6145584848
 20
-31.5022602905
 10
-1.6065706189
 20
-31.5415326915
 10
-1.5982144744
 20
-31.5787378101
 10
-1.5891668361
 20
-31.6148832184
 10
-1.5792804331
 20
-31.6499578454
 10
-1.5682326652
 20
-31.6844164967
 10
-1.5550442141
 20
-31.7201108091
 10
-1.5388874747
 20
-31.7574303184
 10
-1.5190599216
 20
-31.7959072681
 10
-1.4941014509
 20
-31.8359785726
 10
-1.4621660077
 20
-31.8779087675
 10
-1.4226692603
 20
-31.9199007931
 10
-1.3765261145
 20
-31.9592508267
 10
-1.3241232521
 20
-31.9945334412
 10
-1.2651492752
 20
-32.0247976029
 10
-1.2005651635
 20
-32.0482651955
 10
-1.1313375401
 20
-32.0632815165
 10
-1.0637916392
 20
-32.0681518837
  0
LWPOLYLINE
  5
339
100
AcDbEntity
  8
0
100
AcDbPolyline
 62
7
  6
CONTINUOUS
 90
23
 70
0
 10
-0.6526722588
 20
-31.260544013
 10
-0.6453586083
 20
-31.3140653351
 10
-0.6379946171
 20
-31.3645203044
 10
-0.6305661324
 20
-31.4119161044
 10
-0.6230316187
 20
-31.456420812
 10
-0.6152783036
 20
-31.4985359997
 10
-0.6072524087
 20
-31.5383253969
 10
-0.5988524405
 20
-31.5760310331
 10
-0.5897584977
 20
-31.6126431049
 10
-0.5798118251
 20
-31.6481804464
 10
-0.5686928329
 20
-31.6830706083
 10
-0.5554471783
 20
-31.7190965433
 10
-0.5392562604
 20
-31.7566448815
 10
-0.5194047508
 20
-31.7952948746
 10
-0.4944275808
 20
-31.8355025017
 10
-0.4624675598
 20
-31.8775509141
 10
-0.4229454673
 20
-31.9196369415
 10
-0.3768073435
 20
-31.9590367504
 10
-0.3245076438
 20
-31.99430546
 10
-0.2656938119
 20
-32.0245586054
 10
-0.2011773241
 20
-32.0480866371
 10
-0.1318576143
 20
-32.0632065265
 10
-0.0637914827
 20
-32.0681518821
  0
LINE
  5
33A
100
AcDbEntity
  8
0
100
AcDbLine
 62
7
  6
CONTINUOUS
 10
0.3227042513
 20
-31.055626296
 11
0.3204315483
 21
-31.0371331061
  0
LWPOLYLINE
  5
33B
100
AcDbEntity
  8
0
100
AcDbPolyline
 62
7
  6
CONTINUOUS
 90
4
 70
0
 10
-1.677329392
 20
-31.055305215
 10
-1.680236421
 20
-31.0315708501
 10
-1.6857143695
 20
-30.9848223654
 10
-1.6912868675
 20
-30.9352522155
  0
LWPOLYLINE
  5
33C
100
AcDbEntity
  8
0
100
AcDbPolyline
 62
7
  6
CONTINUOUS
 90
4
 70
0
 10
-0.6773516584
 20
-31.0551231893
 10
-0.6802829276
 20
-31.031182452
 10
-0.6857723233
 20
-30.984317155
 10
-0.6913580286
 20
-30.9346064123
  0
LINE
  5
33D
100
AcDbEntity
  8
0
100
AcDbLine
 62
7
  6
CONTINUOUS
 10
0.3204315483
 20
-31.0371331061
 11
0.3105636191
 21
-30.9519335881
  0
LWPOLYLINE
  5
33E
100
AcDbEntity
  8
0
100
AcDbPolyline
 62
7
  6
CONTINUOUS
 90
18
 70
0
 10
-2.6791102904
 20
-31.0394848869
 10
-2.6719120856
 20
-31.1038389579
 10
-2.664713723
 20
-31.1651215287
 10
-2.6575203501
 20
-31.2232082935
 10
-2.6503258478
 20
-31.2780837833
 10
-2.6431118501
 20
-31.3298255106
 10
-2.6358487639
 20
-31.3785722288
 10
-2.6285181252
 20
-31.4243668993
 10
-2.6210807611
 20
-31.4673655484
 10
-2.6134314351
 20
-31.508029181
 10
-2.6055232231
 20
-31.546408388
 10
-2.5972484448
 20
-31.5827956597
 10
-2.5882801814
 20
-31.61820916
 10
-2.5784787939
 20
-31.6526171817
 10
-2.5675237096
 20
-31.6864758468
 10
-2.5544302162
 20
-31.7216477236
 10
-2.5383840053
 20
-31.758498085
 10
-2.518699489
 20
-31.7965454462
  0
LWPOLYLINE
  5
33F
100
AcDbEntity
  8
0
100
AcDbPolyline
 62
7
  6
CONTINUOUS
 90
5
 70
0
 10
0.3200125215
 20
-31.0314371114
 10
0.3273795515
 20
-31.0976408036
 10
0.3347306015
 20
-31.1605023066
 10
0.3420838937
 20
-31.2200957046
 10
0.3494410628
 20
-31.2763569167
  0
LWPOLYLINE
  5
340
100
AcDbEntity
  8
0
100
AcDbPolyline
 62
7
  6
CONTINUOUS
 90
5
 70
0
 10
-1.680921553
 20
-31.0228190562
 10
-1.673654094
 20
-31.0885432337
 10
-1.6663812007
 20
-31.151203721
 10
-1.6591109898
 20
-31.2106389895
 10
-1.6518376342
 20
-31.2668227356
  0
LINE
  5
341
100
AcDbEntity
  8
0
100
AcDbLine
 62
7
  6
CONTINUOUS
 10
1.3141023619
 20
-30.9760769436
 11
1.3215523289
 21
-31.0455348058
  0
LINE
  5
342
100
AcDbEntity
  8
0
100
AcDbLine
 62
7
  6
CONTINUOUS
 10
2.3131982494
 20
-30.9674358341
 11
2.3206959703
 21
-31.037711218
  0
LINE
  5
343
100
AcDbEntity
  8
0
100
AcDbLine
 62
7
  6
CONTINUOUS
 10
0.312603809
 20
-30.9617298521
 11
0.3200125215
 21
-31.0314371114
  0
LINE
  5
344
100
AcDbEntity
  8
0
100
AcDbLine
 62
7
  6
CONTINUOUS
 10
3.3122787445
 20
-30.9586013662
 11
3.3198252253
 21
-31.0297130509
  0
LINE
  5
345
100
AcDbEntity
  8
0
100
AcDbLine
 62
7
  6
CONTINUOUS
 10
0.3105636191
 20
-30.9519335881
 11
0.3004533629
 21
-30.8582110238
  0
LINE
  5
346
100
AcDbEntity
  8
0
100
AcDbLine
 62
7
  6
CONTINUOUS
 10
1.3104561524
 20
-30.9509707598
 11
1.2999099158
 21
-30.8529980772
  0
LINE
  5
347
100
AcDbEntity
  8
0
100
AcDbLine
 62
7
  6
CONTINUOUS
 10
3.3094936989
 20
-30.9423151084
 11
3.2987542652
 21
-30.8418550117
  0
LINE
  5
348
100
AcDbEntity
  8
0
100
AcDbLine
 62
7
  6
CONTINUOUS
 10
2.3094139779
 20
-30.9415955207
 11
2.2986791273
 21
-30.8411278116
  0
LINE
  5
349
100
AcDbEntity
  8
0
100
AcDbLine
 62
7
  6
CONTINUOUS
 10
0.3004533629
 20
-30.8582110238
 11
0.2901245747
 21
-30.7562330009
  0
LINE
  5
34A
100
AcDbEntity
  8
0
100
AcDbLine
 62
7
  6
CONTINUOUS
 10
1.2999099158
 20
-30.8529980772
 11
1.2893373162
 21
-30.7482161558
  0
LINE
  5
34B
100
AcDbEntity
  8
0
100
AcDbLine
 62
7
  6
CONTINUOUS
 10
1.2990447665
 20
-30.8264385685
 11
1.3141023619
 21
-30.9760769436
  0
LINE
  5
34C
100
AcDbEntity
  8
0
100
AcDbLine
 62
7
  6
CONTINUOUS
 10
2.2986791273
 20
-30.8411278116
 11
2.2877456479
 21
-30.7319058598
  0
LINE
  5
34D
100
AcDbEntity
  8
0
100
AcDbLine
 62
7
  6
CONTINUOUS
 10
3.2987542652
 20
-30.8418550117
 11
3.287814181
 21
-30.7326109308
  0
LINE
  5
34E
100
AcDbEntity
  8
0
100
AcDbLine
 62
7
  6
CONTINUOUS
 10
2.298048896
 20
-30.816126099
 11
2.3131982494
 21
-30.9674358341
  0
LINE
  5
34F
100
AcDbEntity
  8
0
100
AcDbLine
 62
7
  6
CONTINUOUS
 10
0.2976314946
 20
-30.8117890392
 11
0.312603809
 21
-30.9617298521
  0
LINE
  5
350
100
AcDbEntity
  8
0
100
AcDbLine
 62
7
  6
CONTINUOUS
 10
0.2901245747
 20
-30.7562330009
 11
0.2795924568
 21
-30.6462825554
  0
LINE
  5
351
100
AcDbEntity
  8
0
100
AcDbLine
 62
7
  6
CONTINUOUS
 10
1.2893373162
 20
-30.7482161558
 11
1.2788358464
 21
-30.6381661459
  0
LWPOLYLINE
  5
352
100
AcDbEntity
  8
0
100
AcDbPolyline
 62
7
  6
CONTINUOUS
 90
3
 70
0
 10
3.2893811041
 20
-30.7243143508
 10
3.297038106
 20
-30.8056084165
 10
3.3122787445
 20
-30.9586013662
  0
LINE
  5
353
100
AcDbEntity
  8
0
100
AcDbLine
 62
7
  6
CONTINUOUS
 10
2.2877456479
 20
-30.7319058598
 11
2.2766376095
 21
-30.6144260964
  0
LINE
  5
354
100
AcDbEntity
  8
0
100
AcDbLine
 62
7
  6
CONTINUOUS
 10
3.287814181
 20
-30.7326109308
 11
3.2766976661
 21
-30.6150777944
  0
LINE
  5
355
100
AcDbEntity
  8
0
100
AcDbLine
 62
7
  6
CONTINUOUS
 10
1.2838704903
 20
-30.664103065
 11
1.2990447665
 21
-30.8264385685
  0
LINE
  5
356
100
AcDbEntity
  8
0
100
AcDbLine
 62
7
  6
CONTINUOUS
 10
2.2827951825
 20
-30.6521939751
 11
2.298048896
 21
-30.816126099
  0
LINE
  5
357
100
AcDbEntity
  8
0
100
AcDbLine
 62
7
  6
CONTINUOUS
 10
0.2824434744
 20
-30.6482876979
 11
0.2976314946
 21
-30.8117890392
  0
LINE
  5
358
100
AcDbEntity
  8
0
100
AcDbLine
 62
7
  6
CONTINUOUS
 10
0.2795924568
 20
-30.6462825554
 11
0.2634246309
 21
-30.4670090991
  0
LINE
  5
359
100
AcDbEntity
  8
0
100
AcDbLine
 62
7
  6
CONTINUOUS
 10
1.2788358464
 20
-30.6381661459
 11
1.2633705675
 21
-30.466390153
  0
LINE
  5
35A
100
AcDbEntity
  8
0
100
AcDbLine
 62
7
  6
CONTINUOUS
 10
2.2766376095
 20
-30.6144260964
 11
2.2596901649
 21
-30.4239714797
  0
LINE
  5
35B
100
AcDbEntity
  8
0
100
AcDbLine
 62
7
  6
CONTINUOUS
 10
1.2686261965
 20
-30.490704521
 11
1.2838704903
 21
-30.664103065
  0
LINE
  5
35C
100
AcDbEntity
  8
0
100
AcDbLine
 62
7
  6
CONTINUOUS
 10
0.2670253539
 20
-30.4719553768
 11
0.2824434744
 21
-30.6482876979
  0
LINE
  5
35D
100
AcDbEntity
  8
0
100
AcDbLine
 62
7
  6
CONTINUOUS
 10
2.267488333
 20
-30.4773877387
 11
2.2827951825
 21
-30.6521939751
  0
LINE
  5
35E
100
AcDbEntity
  8
0
100
AcDbLine
 62
7
  6
CONTINUOUS
 10
1.2633705675
 20
-30.466390153
 11
1.2484955326
 21
-30.2917122691
  0
LINE
  5
35F
100
AcDbEntity
  8
0
100
AcDbLine
 62
7
  6
CONTINUOUS
 10
0.2634246309
 20
-30.4670090991
 11
0.2468207761
 21
-30.2715360756
  0
LINE
  5
360
100
AcDbEntity
  8
0
100
AcDbLine
 62
7
  6
CONTINUOUS
 10
2.2596901649
 20
-30.4239714797
 11
2.2424335477
 21
-30.2182387781
  0
LINE
  5
361
100
AcDbEntity
  8
0
100
AcDbLine
 62
7
  6
CONTINUOUS
 10
1.2458430127
 20
-30.2155572301
 11
1.2686261965
 21
-30.490704521
  0
LINE
  5
362
100
AcDbEntity
  8
0
100
AcDbLine
 62
7
  6
CONTINUOUS
 10
2.2446550101
 20
-30.2007686591
 11
2.267488333
 21
-30.4773877387
  0
LINE
  5
363
100
AcDbEntity
  8
0
100
AcDbLine
 62
7
  6
CONTINUOUS
 10
1.2484955326
 20
-30.2917122691
 11
1.2313382422
 21
-30.080831082
  0
LINE
  5
364
100
AcDbEntity
  8
0
100
AcDbLine
 62
7
  6
CONTINUOUS
 10
0.241237006
 20
-30.1580103652
 11
0.2670253539
 21
-30.4719553768
  0
LINE
  5
365
100
AcDbEntity
  8
0
100
AcDbLine
 62
7
  6
CONTINUOUS
 10
0.2468207761
 20
-30.2715360756
 11
0.2297428632
 21
-30.0607936623
  0
LINE
  5
366
100
AcDbEntity
  8
0
100
AcDbLine
 62
7
  6
CONTINUOUS
 10
2.2424335477
 20
-30.2182387781
 11
2.2248947312
 21
-29.9995173979
  0
LINE
  5
367
100
AcDbEntity
  8
0
100
AcDbLine
 62
7
  6
CONTINUOUS
 10
0.2297428632
 20
-30.0607936623
 11
0.205914254
 21
-29.7550210298
  0
LWPOLYLINE
  5
368
100
AcDbEntity
  8
0
100
AcDbPolyline
 62
7
  6
CONTINUOUS
 90
3
 70
0
 10
1.2313382422
 20
-30.080831082
 10
1.2037572232
 20
-29.7268734246
 10
1.1969354721
 20
-29.6374528576
  0
LWPOLYLINE
  5
369
100
AcDbEntity
  8
0
100
AcDbPolyline
 62
7
  6
CONTINUOUS
 90
3
 70
0
 10
2.2248947312
 20
-29.9995173979
 10
2.2009932669
 20
-29.6907260367
 10
2.1969333204
 20
-29.6374528576
  0
LINE
  5
36A
100
AcDbEntity
  8
0
100
AcDbLine
 62
7
  6
CONTINUOUS
 10
-0.7858110385
 20
-29.8623941728
 11
-0.8030654152
 21
-29.6374528576
  0
LINE
  5
36B
100
AcDbEntity
  8
0
100
AcDbLine
 62
7
  6
CONTINUOUS
 10
0.205914254
 20
-29.7550210298
 11
0.1969336674
 21
-29.6374528576
  0
LINE
  5
36C
100
AcDbEntity
  8
0
100
AcDbLine
 62
7
  6
CONTINUOUS
 10
0.2009817591
 20
-29.6374528576
 11
0.241237006
 21
-30.1580103652
  0
LINE
  5
36D
100
AcDbEntity
  8
0
100
AcDbLine
 62
7
  6
CONTINUOUS
 10
-0.7990168257
 20
-29.6374528576
 11
-0.7740807911
 21
-29.9630234341
  0
LINE
  5
36E
100
AcDbEntity
  8
0
100
AcDbLine
 62
7
  6
CONTINUOUS
 10
2.2009826238
 20
-29.6374528576
 11
2.2446550101
 21
-30.2007686591
  0
LINE
  5
36F
100
AcDbEntity
  8
0
100
AcDbLine
 62
7
  6
CONTINUOUS
 10
1.2009818757
 20
-29.6374528576
 11
1.2458430127
 21
-30.2155572301
  0
LINE
  5
370
100
AcDbEntity
  8
0
100
AcDbLine
 62
253
  6
CONTINUOUS
 10
-3.0
 20
-30.9681523691
 11
-3.0
 21
-32.894615777
  0
LINE
  5
371
100
AcDbEntity
  8
0
100
AcDbLine
 62
7
  6
CONTINUOUS
 10
-2.5023673539
 20
-33.3548681796
 11
-2.5023673539
 21
-31.8227101493
  0
LINE
  5
372
100
AcDbEntity
  8
0
100
AcDbLine
 62
7
  6
CONTINUOUS
 10
-2.1
 20
5.5318476309
 11
-2.1
 21
4.4318476309
  0
LINE
  5
373
100
AcDbEntity
  8
0
100
AcDbLine
 62
7
  6
CONTINUOUS
 10
-2.1
 20
4.1318476309
 11
-2.1
 21
3.0318476309
  0
LINE
  5
374
100
AcDbEntity
  8
0
100
AcDbLine
 62
7
  6
CONTINUOUS
 10
-1.8
 20
3.0318476309
 11
-1.8
 21
4.1318476309
  0
LINE
  5
375
100
AcDbEntity
  8
0
100
AcDbLine
 62
7
  6
CONTINUOUS
 10
-1.8
 20
4.4318476309
 11
-1.8
 21
5.5318476309
  0
LINE
  5
376
100
AcDbEntity
  8
0
100
AcDbLine
 62
7
  6
CONTINUOUS
 10
-1.2424112663
 20
10.1818476309
 11
-1.2424112663
 21
10.8818476309
  0
LINE
  5
377
100
AcDbEntity
  8
0
100
AcDbLine
 62
7
  6
CONTINUOUS
 10
-0.6932287364
 20
4.1318476309
 11
-0.6932287364
 21
4.4318476309
  0
LINE
  5
378
100
AcDbEntity
  8
0
100
AcDbLine
 62
7
  6
CONTINUOUS
 10
-0.6
 20
8.3650081985
 11
-0.6
 21
10.0360075679
  0
LINE
  5
379
100
AcDbEntity
  8
0
100
AcDbLine
 62
7
  6
CONTINUOUS
 10
-0.6
 20
11.0276876939
 11
-0.6
 21
12.6986870634
  0
LINE
  5
37A
100
AcDbEntity
  8
DRAFT
100
AcDbLine
 62
7
  6
CONTINUOUS
 10
-0.35
 20
-33.3365649376
 11
-0.35
 21
-31.9771144911
  0
LINE
  5
37B
100
AcDbEntity
  8
0
100
AcDbLine
 62
7
  6
CONTINUOUS
 10
-0.35
 20
8.8905710782
 11
-0.35
 21
9.4416526942
  0
LINE
  5
37C
100
AcDbEntity
  8
0
100
AcDbLine
 62
7
  6
CONTINUOUS
 10
-0.35
 20
11.6220425676
 11
-0.35
 21
12.1731241837
  0
LINE
  5
37D
100
AcDbEntity
  8
0
100
AcDbLine
 62
7
  6
CONTINUOUS
 10
0.35
 20
8.8905710782
 11
0.35
 21
9.4416526942
  0
LINE
  5
37E
100
AcDbEntity
  8
0
100
AcDbLine
 62
7
  6
CONTINUOUS
 10
0.35
 20
11.6220425676
 11
0.35
 21
12.1731241837
  0
LWPOLYLINE
  5
37F
100
AcDbEntity
  8
0
100
AcDbPolyline
 62
7
  6
CONTINUOUS
 90
10
 70
0
 10
-1.9262640523
 20
10.8818476309
 10
-1.9280809817
 20
10.804205738
 10
-1.9294436788
 20
10.7264959029
 10
-1.9303521435
 20
10.6487181255
 10
-1.9308063759
 20
10.5708271111
 10
-1.9308063759
 20
10.4928681545
 10
-1.9303521435
 20
10.4149771397
 10
-1.9294436788
 20
10.3371993616
 10
-1.9280809818
 20
10.2594895253
 10
-1.9262640523
 20
10.1818476309
  0
LWPOLYLINE
  5
380
100
AcDbEntity
  8
0
100
AcDbPolyline
 62
7
  6
CONTINUOUS
 90
3
 70
0
 10
-3.4979628462
 20
-31.4012035063
 10
-3.4966469639
 20
-31.3668443519
 10
-3.4887367374
 20
-31.3107512922
  0
LWPOLYLINE
  5
381
100
AcDbEntity
  8
0
100
AcDbPolyline
 62
7
  6
CONTINUOUS
 90
7
 70
0
 10
-3.4402065849
 20
-30.9681523691
 10
-3.4485371463
 20
-31.0398519908
 10
-3.4582199944
 20
-31.1167543724
 10
-3.4676766172
 20
-31.1851859797
 10
-3.4767053645
 20
-31.2438857297
 10
-3.4851830692
 20
-31.292488226
 10
-3.4887367374
 20
-31.3107512922
  0
LINE
  5
382
100
AcDbEntity
  8
RACCORDO
100
AcDbLine
 62
253
  6
CONTINUOUS
 10
-3.1657516444
 20
-13.3964965218
 11
-3.0636789105
 21
-12.9071040306
  0
LINE
  5
383
100
AcDbEntity
  8
RACCORDO
100
AcDbLine
 62
253
  6
CONTINUOUS
 10
1.0735288774
 20
14.9019203705
 11
0.9542475743
 21
14.416355442
  0
LINE
  5
384
100
AcDbEntity
  8
RACCORDO
100
AcDbLine
 62
253
  6
CONTINUOUS
 10
4.4026105342
 20
16.6486272141
 11
4.2606579922
 21
16.1692804407
  0
LINE
  5
385
100
AcDbEntity
  8
0
100
AcDbLine
 62
7
  6
CONTINUOUS
 10
0.35
 20
9.4416526942
 11
0.5197234842
 21
10.0121241468
  0
LWPOLYLINE
  5
386
100
AcDbEntity
  8
RACCORDO
100
AcDbPolyline
 62
253
  6
CONTINUOUS
 90
22
 70
0
 10
3.5467548757
 20
16.2184273409
 10
3.5680681091
 20
16.2700589784
 10
3.5931670192
 20
16.3193570851
 10
3.6217811538
 20
16.3660715651
 10
3.6536349003
 20
16.4099915989
 10
3.6884297648
 20
16.4509163081
 10
3.7258402895
 20
16.4886604114
 10
3.7657154154
 20
16.523224674
 10
3.8076069444
 20
16.554361999
 10
3.8506514483
 20
16.5816787885
 10
3.8942441188
 20
16.6051384195
 10
3.9382599528
 20
16.6249980725
 10
3.9825205932
 20
16.6414372051
 10
4.0263643053
 20
16.6544836117
 10
4.0699117114
 20
16.6644338645
 10
4.114263316
 20
16.6716200382
 10
4.1591858012
 20
16.6759593472
 10
4.2045548824
 20
16.6773948297
 10
4.2516889442
 20
16.6757684969
 10
4.3008600097
 20
16.6706609445
 10
4.3512799045
 20
16.6617252513
 10
4.4026105337
 20
16.6486272151
  0
LWPOLYLINE
  5
387
100
AcDbEntity
  8
RACCORDO
100
AcDbPolyline
 62
253
  6
CONTINUOUS
 90
19
 70
0
 10
4.0161256958
 20
16.0463700302
 10
4.0235560652
 20
16.0636840895
 10
4.0321795149
 20
16.0798755216
 10
4.0419960449
 20
16.0949443264
 10
4.0531548034
 20
16.108958286
 10
4.0655066422
 20
16.1218496183
 10
4.0786041167
 20
16.1334149776
 10
4.0925326212
 20
16.143613751
 10
4.1072067614
 20
16.1524865515
 10
4.1219229098
 20
16.1599518712
 10
4.1364123401
 20
16.1658945616
 10
4.1509437786
 20
16.1704297714
 10
4.1656197771
 20
16.1738214388
 10
4.1803359508
 20
16.1762095615
 10
4.1951966846
 20
16.1774541419
 10
4.2106176849
 20
16.1773991254
 10
4.2267375208
 20
16.175992494
 10
4.2434176232
 20
16.1732862658
 10
4.2606579922
 20
16.1692804407
  0
LINE
  5
388
100
AcDbEntity
  8
RACCORDO
100
AcDbLine
 62
253
  6
CONTINUOUS
 10
-11.6276067133
 20
-8.4749977326
 11
-11.2526999806
 21
-8.1442881998
  0
LWPOLYLINE
  5
389
100
AcDbEntity
  8
0
100
AcDbPolyline
 62
7
  6
CONTINUOUS
 90
34
 70
0
 10
-24.092733434
 20
-17.8514888813
 10
-24.1773818516
 20
-17.9234431474
 10
-24.2613179009
 20
-18.005066574
 10
-24.3396083355
 20
-18.0921197316
 10
-24.4119027302
 20
-18.1842129734
 10
-24.4778774974
 20
-18.2809340934
 10
-24.5372373361
 20
-18.3818501713
 10
-24.5897165537
 20
-18.4865095105
 10
-24.6350802546
 20
-18.5944436593
 10
-24.6731253923
 20
-18.7051695083
 10
-24.7036816777
 20
-18.8181914525
 10
-24.7266123418
 20
-18.9330036095
 10
-24.7418147474
 20
-19.0490920841
 10
-24.7492208487
 20
-19.1659372683
 10
-24.748797496
 20
-19.2830161669
 10
-24.740546584
 20
-19.3998047387
 10
-24.7245050431
 20
-19.515780242
 10
-24.7007446745
 20
-19.6304235742
 10
-24.6693718286
 20
-19.7432215956
 10
-24.6305269288
 20
-19.8536694258
 10
-24.5843838433
 20
-19.9612727039
 10
-24.5311491069
 20
-20.065549801
 10
-24.4710609961
 20
-20.1660339762
 10
-24.4043884631
 20
-20.2622754653
 10
-24.3314299317
 20
-20.3538434945
 10
-24.2525119618
 20
-20.440328208
 10
-24.1679877873
 20
-20.5213425028
 10
-24.0782357355
 20
-20.5965237612
 10
-23.9836575335
 20
-20.6655354742
 10
-23.8846765101
 20
-20.7280687471
 10
-23.781735701
 20
-20.7838436829
 10
-23.675295866
 20
-20.8326106343
 10
-23.5658334261
 20
-20.8741513216
 10
-23.4538383317
 20
-20.9082798097
  0
LWPOLYLINE
  5
38A
100
AcDbEntity
  8
0
100
AcDbPolyline
 62
7
  6
CONTINUOUS
 90
22
 70
0
 10
-23.6766795445
 20
-18.371846202
 10
-23.6194507774
 20
-18.3252171005
 10
-23.5588447771
 20
-18.2823602984
 10
-23.4951029223
 20
-18.2435306661
 10
-23.4283515446
 20
-18.2089041232
 10
-23.3589965211
 20
-18.1787871191
 10
-23.2877673534
 20
-18.1535224326
 10
-23.2150868856
 20
-18.1332274738
 10
-23.1412299391
 20
-18.1179468196
 10
-23.0667604019
 20
-18.1077511481
 10
-22.9922462709
 20
-18.102628766
 10
-22.917822552
 20
-18.1025000228
 10
-22.8433993213
 20
-18.1073398286
 10
-22.7692476296
 20
-18.1171541529
 10
-22.6957609082
 20
-18.1319146272
 10
-22.6230354929
 20
-18.151644387
 10
-22.5512294219
 20
-18.1763893968
 10
-22.4808749388
 20
-18.2060575953
 10
-22.4126148429
 20
-18.2404136836
 10
-22.3468536574
 20
-18.2792397221
 10
-22.2837830307
 20
-18.322407442
 10
-22.2236842704
 20
-18.3697221197
  0
LINE
  5
38B
100
AcDbEntity
  8
0
100
AcDbLine
 62
7
  6
CONTINUOUS
 10
10.6598050633
 20
4.6318476309
 11
11.2302765158
 21
4.8015711151
  0
LINE
  5
38C
100
AcDbEntity
  8
0
100
AcDbLine
 62
7
  6
CONTINUOUS
 10
-8.0974457673
 20
-2.0734288849
 11
-8.6679172198
 21
-2.2431523691
  0
LINE
  5
38D
100
AcDbEntity
  8
0
100
AcDbLine
 62
7
  6
CONTINUOUS
 10
12.8401949367
 20
3.9318476309
 11
12.2697234842
 21
3.7621241468
  0
LINE
  5
38E
100
AcDbEntity
  8
0
100
AcDbLine
 62
7
  6
CONTINUOUS
 10
9.5039863354
 20
-2.9431523691
 11
8.6679172198
 21
-2.9431523691
  0
LINE
  5
38F
100
AcDbEntity
  8
0
100
AcDbLine
 62
7
  6
CONTINUOUS
 10
6.4875273464
 20
-2.9431523691
 11
5.6514582308
 21
-2.9431523691
  0
LINE
  5
390
100
AcDbEntity
  8
0
100
AcDbLine
 62
7
  6
CONTINUOUS
 10
-5.6514582308
 20
-2.9431523691
 11
-6.4875273464
 21
-2.9431523691
  0
LINE
  5
391
100
AcDbEntity
  8
0
100
AcDbLine
 62
7
  6
CONTINUOUS
 10
-8.6679172198
 20
-2.9431523691
 11
-9.5039863354
 21
-2.9431523691
  0
LINE
  5
392
100
AcDbEntity
  8
0
100
AcDbLine
 62
7
  6
CONTINUOUS
 10
9.5039863354
 20
-2.2431523691
 11
8.6679172198
 21
-2.2431523691
  0
LINE
  5
393
100
AcDbEntity
  8
0
100
AcDbLine
 62
7
  6
CONTINUOUS
 10
6.4875273464
 20
-2.2431523691
 11
5.6514582308
 21
-2.2431523691
  0
LINE
  5
394
100
AcDbEntity
  8
0
100
AcDbLine
 62
7
  6
CONTINUOUS
 10
-5.6514582308
 20
-2.2431523691
 11
-6.4875273464
 21
-2.2431523691
  0
LINE
  5
395
100
AcDbEntity
  8
0
100
AcDbLine
 62
7
  6
CONTINUOUS
 10
-8.6679172198
 20
-2.2431523691
 11
-9.5039863354
 21
-2.2431523691
  0
LINE
  5
396
100
AcDbEntity
  8
0
100
AcDbLine
 62
7
  6
CONTINUOUS
 10
7.9277222831
 20
-1.3507411028
 11
7.2277222831
 21
-1.3507411028
  0
LINE
  5
397
100
AcDbEntity
  8
0
100
AcDbLine
 62
7
  6
CONTINUOUS
 10
-7.2277222831
 20
-1.3507411028
 11
-7.9277222831
 21
-1.3507411028
  0
LINE
  5
398
100
AcDbEntity
  8
0
100
AcDbLine
 62
7
  6
CONTINUOUS
 10
-7.9277222831
 20
-0.9518758163
 11
-7.2277222831
 21
-0.9518758163
  0
LINE
  5
399
100
AcDbEntity
  8
0
100
AcDbLine
 62
7
  6
CONTINUOUS
 10
7.2277222831
 20
-0.9518758163
 11
7.9277222831
 21
-0.9518758163
  0
LINE
  5
39A
100
AcDbEntity
  8
0
100
AcDbLine
 62
7
  6
CONTINUOUS
 10
7.0579987989
 20
-3.1128758532
 11
6.4875273464
 21
-2.9431523691
  0
LINE
  5
39B
100
AcDbEntity
  8
0
100
AcDbLine
 62
7
  6
CONTINUOUS
 10
-12.2697234842
 20
3.7621241468
 11
-12.8401949367
 21
3.9318476309
  0
LINE
  5
39C
100
AcDbEntity
  8
0
100
AcDbLine
 62
7
  6
CONTINUOUS
 10
8.0974457673
 20
-2.0734288849
 11
8.6679172198
 21
-2.2431523691
  0
LWPOLYLINE
  5
39D
100
AcDbEntity
  8
RACCORDO
100
AcDbPolyline
 62
7
  6
CONTINUOUS
 90
43
 70
0
 10
5.6161825202
 20
-6.0253846206
 10
5.6667463506
 20
-6.0536732987
 10
5.7159590672
 20
-6.0805605663
 10
5.76382067
 20
-6.105985659
 10
5.810318356
 20
-6.1298139345
 10
5.8554649282
 20
-6.1521211063
 10
5.8992987958
 20
-6.1731802807
 10
5.9418044246
 20
-6.1930140126
 10
5.9829973489
 20
-6.2116014274
 10
6.0229625797
 20
-6.2291467336
 10
6.0616883387
 20
-6.2456745648
 10
6.0991864043
 20
-6.2611867387
 10
6.1355771227
 20
-6.2758442789
 10
6.1708531138
 20
-6.2896708025
 10
6.2050217577
 20
-6.3026762462
 10
6.2382255418
 20
-6.3149906759
 10
6.2704571902
 20
-6.3266334137
 10
6.3017239788
 20
-6.3376174877
 10
6.3321902226
 20
-6.3480528501
 10
6.3618602277
 20
-6.3579575576
 10
6.3907296881
 20
-6.3673402898
 10
6.4189500005
 20
-6.3762869094
 10
6.4465473106
 20
-6.384817193
 10
6.4734954727
 20
-6.3929315356
 10
6.4998674465
 20
-6.400679368
 10
6.5256837491
 20
-6.4080757097
 10
6.5509238634
 20
-6.4151223946
 10
6.5755991976
 20
-6.4218451876
 10
6.5997065239
 20
-6.4282515516
 10
6.6232490702
 20
-6.4343501403
 10
6.6462479283
 20
-6.4401659291
 10
6.6687016977
 20
-6.4457056122
 10
6.6906117789
 20
-6.4509767177
 10
6.7120034664
 20
-6.4560026073
 10
6.7328764444
 20
-6.4607886806
 10
6.7532310286
 20
-6.4653413917
 10
6.773093461
 20
-6.4696825664
 10
6.792464484
 20
-6.4738159466
 10
6.8113433552
 20
-6.4777468537
 10
6.8297540891
 20
-6.4814959929
 10
6.8476983028
 20
-6.4850648647
 10
6.8651743793
 20
-6.4884577196
 10
6.8987845256
 20
-6.4947759192
  0
LINE
  5
39E
100
AcDbEntity
  8
RACCORDO
100
AcDbLine
 62
7
  6
CONTINUOUS
 10
4.7549272117
 20
-6.5231940647
 11
4.7571560991
 21
-6.5253084682
  0
LINE
  5
39F
100
AcDbEntity
  8
RACCORDO
100
AcDbLine
 62
7
  6
CONTINUOUS
 10
4.78
 20
-6.5481523691
 11
4.7571560991
 21
-6.5253084682
  0
LINE
  5
3A0
100
AcDbEntity
  8
RACCORDO
100
AcDbLine
 62
7
  6
CONTINUOUS
 10
4.4421694463
 20
-6.2101806503
 11
4.7288680968
 21
-6.4969397579
  0
LINE
  5
3A1
100
AcDbEntity
  8
RACCORDO
100
AcDbLine
 62
7
  6
CONTINUOUS
 10
4.7288680968
 20
-6.4969397579
 11
4.7549272117
 21
-6.5231940647
  0
LWPOLYLINE
  5
3A2
100
AcDbEntity
  8
RACCORDO
100
AcDbPolyline
 62
7
  6
CONTINUOUS
 90
3
 70
0
 10
4.2572322516
 20
-6.0253846206
 10
4.3060925695
 20
-6.0747969627
 10
4.4421694463
 20
-6.2101806503
  0
LINE
  5
3A3
100
AcDbEntity
  8
0
100
AcDbLine
 62
7
  6
CONTINUOUS
 10
-22.3233204555
 20
25.9355414639
 11
-21.9071435302
 21
25.4150394014
  0
LINE
  5
3A4
100
AcDbEntity
  8
0
100
AcDbLine
 62
7
  6
CONTINUOUS
 10
-23.6766795445
 20
27.628153798
 11
-24.0928564698
 21
28.1486558605
  0
LWPOLYLINE
  5
3A5
100
AcDbEntity
  8
0
100
AcDbPolyline
 62
7
  6
CONTINUOUS
 90
17
 70
0
 10
8.3674175667
 20
-31.3428788328
 10
8.3687609926
 20
-31.3465064441
 10
8.3701694597
 20
-31.350646765
 10
8.369844369
 20
-31.3495247186
 10
8.3684563744
 20
-31.3443238326
 10
8.3662029177
 20
-31.3350554704
 10
8.363173452
 20
-31.3214192424
 10
8.3596790102
 20
-31.3043064654
 10
8.3558029724
 20
-31.2837986631
 10
8.3515644014
 20
-31.2596963826
 10
8.347098696
 20
-31.2325380811
 10
8.34244007
 20
-31.2023854691
 10
8.3375961678
 20
-31.1691566684
 10
8.332633779
 20
-31.1332162242
 10
8.327574589
 20
-31.094675194
 10
8.3224161658
 20
-31.0534785911
 10
8.3171775204
 20
-31.0097512914
  0
LINE
  5
3A6
100
AcDbEntity
  8
RACCORDO
100
AcDbLine
 62
253
  6
CONTINUOUS
 10
3.1657516444
 20
-13.3964965218
 11
3.0636789105
 21
-12.9071040306
  0
LWPOLYLINE
  5
3A7
100
AcDbEntity
  8
0
100
AcDbPolyline
 62
7
  6
CONTINUOUS
 90
22
 70
0
 10
1.3510365063
 20
-31.2881079982
 10
1.3583851906
 20
-31.340148243
 10
1.3657500607
 20
-31.3888512438
 10
1.3731677519
 20
-31.4344173478
 10
1.3807336961
 20
-31.4773340425
 10
1.3884598788
 20
-31.51754012
 10
1.3964526151
 20
-31.5554374588
 10
1.405064664
 20
-31.5923150533
 10
1.414394463
 20
-31.6280204796
 10
1.4247312593
 20
-31.6630066394
 10
1.4371244639
 20
-31.6995645036
 10
1.4523572593
 20
-31.7379814443
 10
1.4711766004
 20
-31.7778313542
 10
1.4955308951
 20
-31.8202740751
 10
1.5282097068
 20
-31.8661593663
 10
1.5698887433
 20
-31.9126571828
 10
1.6187141238
 20
-31.9555885438
 10
1.6740123581
 20
-31.9934234937
 10
1.7360881126
 20
-32.0253380341
 10
1.8027256754
 20
-32.0492111118
 10
1.8723142831
 20
-32.0637919285
 10
1.9362183237
 20
-32.0681517791
  0
LWPOLYLINE
  5
3A8
100
AcDbEntity
  8
0
100
AcDbPolyline
 62
7
  6
CONTINUOUS
 90
24
 70
0
 10
4.3510002411
 20
-31.287842709
 10
4.3575687595
 20
-31.3345363324
 10
4.3641575552
 20
-31.3786131476
 10
4.3708032511
 20
-31.4202706054
 10
4.3775167505
 20
-31.4595212819
 10
4.3843427146
 20
-31.4965625539
 10
4.3914093221
 20
-31.5319524117
 10
4.3987355616
 20
-31.5656012361
 10
4.4064431416
 20
-31.5978575568
 10
4.4149440425
 20
-31.6299960339
 10
4.4244099832
 20
-31.6619858436
 10
4.4351219096
 20
-31.6940116992
 10
4.4480389817
 20
-31.727726571
 10
4.463938026
 20
-31.7633557757
 10
4.4835068908
 20
-31.8004094652
 10
4.5082399014
 20
-31.8393642033
 10
4.5399641919
 20
-31.8804185731
 10
4.5792582993
 20
-31.9217317277
 10
4.6253434203
 20
-31.9606666674
 10
4.6781737236
 20
-31.9958869557
 10
4.737865546
 20
-32.026107875
 10
4.8027035566
 20
-32.0492048325
 10
4.8713879002
 20
-32.0636651926
 10
4.9362068526
 20
-32.0681518986
  0
LWPOLYLINE
  5
3A9
100
AcDbEntity
  8
0
100
AcDbPolyline
 62
7
  6
CONTINUOUS
 90
22
 70
0
 10
2.3503560655
 20
-31.2831159698
 10
2.3577417653
 20
-31.3357290717
 10
2.3651424956
 20
-31.3849643177
 10
2.3725935685
 20
-31.4310143915
 10
2.3801875299
 20
-31.4743548007
 10
2.3879359863
 20
-31.5149268092
 10
2.3959443953
 20
-31.553135767
 10
2.4045606233
 20
-31.5902642379
 10
2.4138801739
 20
-31.6261594174
 10
2.4241905123
 20
-31.6612847943
 10
2.436535086
 20
-31.6979435833
 10
2.4516837566
 20
-31.7364123741
 10
2.4703830947
 20
-31.7762916117
 10
2.4946050101
 20
-31.8188111323
 10
2.5271688916
 20
-31.8648466722
 10
2.568766807
 20
-31.9115406335
 10
2.6175676387
 20
-31.9546938669
 10
2.672919951
 20
-31.9927686239
 10
2.735131359
 20
-32.0249204947
 10
2.8019591501
 20
-32.0489928853
 10
2.8717734111
 20
-32.0637180717
 10
2.9362200341
 20
-32.0681517602
  0
LWPOLYLINE
  5
3AA
100
AcDbEntity
  8
0
100
AcDbPolyline
 62
7
  6
CONTINUOUS
 90
22
 70
0
 10
3.3496656281
 20
-31.2780206634
 10
3.3570889834
 20
-31.3312186731
 10
3.3645263995
 20
-31.3809988132
 10
3.3720117476
 20
-31.4275449962
 10
3.3796346255
 20
-31.4713201193
 10
3.3874062694
 20
-31.5122679452
 10
3.3954312841
 20
-31.5507973114
 10
3.4040525755
 20
-31.5881839534
 10
3.4133627118
 20
-31.6242747157
 10
3.4236473977
 20
-31.6595439338
 10
3.4359440632
 20
-31.6963070912
 10
3.451009316
 20
-31.7348300596
 10
3.4695892395
 20
-31.774739932
 10
3.4936785666
 20
-31.8173367632
 10
3.5261255921
 20
-31.8635222265
 10
3.567639268
 20
-31.9104118376
 10
3.6164127815
 20
-31.9537876686
 10
3.6718180744
 20
-31.9921045728
 10
3.734165564
 20
-32.0244967689
 10
3.80118497
 20
-32.0487711839
 10
3.8712268324
 20
-32.0636428093
 10
3.9362217762
 20
-32.0681517405
  0
LWPOLYLINE
  5
3AB
100
AcDbEntity
  8
0
100
AcDbPolyline
 62
7
  6
CONTINUOUS
 90
4
 70
0
 10
1.3224987722
 20
-31.0539536889
 10
1.3208608243
 20
-31.0406916335
 10
1.3156814024
 20
-30.9969233658
 10
1.3104561524
 20
-30.9509707598
  0
LWPOLYLINE
  5
3AC
100
AcDbEntity
  8
0
100
AcDbPolyline
 62
7
  6
CONTINUOUS
 90
4
 70
0
 10
3.3226984359
 20
-31.0555524374
 10
3.3199945385
 20
-31.033497524
 10
3.3147759575
 20
-30.9890879746
 10
3.3094936989
 20
-30.9423151084
  0
LWPOLYLINE
  5
3AD
100
AcDbEntity
  8
0
100
AcDbPolyline
 62
7
  6
CONTINUOUS
 90
4
 70
0
 10
2.3226119227
 20
-31.0548473891
 10
2.3199124948
 20
-31.0328135296
 10
2.3146947855
 20
-30.9883829063
 10
2.3094139779
 20
-30.9415955207
  0
LWPOLYLINE
  5
3AE
100
AcDbEntity
  8
0
100
AcDbPolyline
 62
7
  6
CONTINUOUS
 90
5
 70
0
 10
1.3215523289
 20
-31.0455348058
 10
1.3289627843
 20
-31.1114529229
 10
1.3363401198
 20
-31.1738302402
 10
1.3436946247
 20
-31.2327030128
 10
1.3510365063
 20
-31.2881079982
  0
LWPOLYLINE
  5
3AF
100
AcDbEntity
  8
0
100
AcDbPolyline
 62
7
  6
CONTINUOUS
 90
5
 70
0
 10
2.3206959703
 20
-31.037711218
 10
2.3281551822
 20
-31.1044259923
 10
2.3355786772
 20
-31.1675446604
 10
2.3429751096
 20
-31.2270912969
 10
2.3503560655
 20
-31.2831159698
  0
LWPOLYLINE
  5
3B0
100
AcDbEntity
  8
0
100
AcDbPolyline
 62
7
  6
CONTINUOUS
 90
5
 70
0
 10
3.3198252253
 20
-31.0297130509
 10
3.3273348091
 20
-31.0972483142
 10
3.3348058604
 20
-31.1611290217
 10
3.3422450217
 20
-31.2213641387
 10
3.3496656281
 20
-31.2780206634
  0
LWPOLYLINE
  5
3B1
100
AcDbEntity
  8
0
100
AcDbPolyline
 62
7
  6
CONTINUOUS
 90
6
 70
0
 10
5.3174708817
 20
-31.0078710088
 10
5.3244000543
 20
-31.0712464189
 10
5.3312995651
 20
-31.1315660412
 10
5.3381791915
 20
-31.1888650449
 10
5.3450465879
 20
-31.2431599098
 10
5.3519123472
 20
-31.2944904391
  0
LINE
  5
3B2
100
AcDbEntity
  8
0
100
AcDbLine
 62
7
  6
CONTINUOUS
 10
7.3126681604
 20
-30.9623484946
 11
7.3194526082
 21
-31.0262771526
  0
LINE
  5
3B3
100
AcDbEntity
  8
0
100
AcDbLine
 62
7
  6
CONTINUOUS
 10
4.3113770949
 20
-30.9498933981
 11
4.3246851265
 21
-31.0737943093
  0
LINE
  5
3B4
100
AcDbEntity
  8
0
100
AcDbLine
 62
7
  6
CONTINUOUS
 10
4.3095722586
 20
-30.9430238204
 11
4.2988278131
 21
-30.8425665052
  0
LINE
  5
3B5
100
AcDbEntity
  8
0
100
AcDbLine
 62
7
  6
CONTINUOUS
 10
5.3090782536
 20
-30.9385607628
 11
5.298789092
 21
-30.8421919623
  0
LINE
  5
3B6
100
AcDbEntity
  8
0
100
AcDbLine
 62
7
  6
CONTINUOUS
 10
6.3075202828
 20
-30.9243849162
 11
6.2965662568
 21
-30.8205451141
  0
LINE
  5
3B7
100
AcDbEntity
  8
0
100
AcDbLine
 62
7
  6
CONTINUOUS
 10
6.307650566
 20
-30.9134351728
 11
6.3212264213
 21
-31.0425623214
  0
LINE
  5
3B8
100
AcDbEntity
  8
0
100
AcDbLine
 62
7
  6
CONTINUOUS
 10
5.303530273
 20
-30.8722626275
 11
5.3174708817
 21
-31.0078710088
  0
LINE
  5
3B9
100
AcDbEntity
  8
0
100
AcDbLine
 62
7
  6
CONTINUOUS
 10
5.298789092
 20
-30.8421919623
 11
5.2882628749
 21
-30.7372209218
  0
LINE
  5
3BA
100
AcDbEntity
  8
0
100
AcDbLine
 62
7
  6
CONTINUOUS
 10
4.2988278131
 20
-30.8425665052
 11
4.2878806842
 21
-30.7332948789
  0
LINE
  5
3BB
100
AcDbEntity
  8
0
100
AcDbLine
 62
7
  6
CONTINUOUS
 10
4.2978265359
 20
-30.8138167231
 11
4.3113770949
 21
-30.9498933981
  0
LINE
  5
3BC
100
AcDbEntity
  8
0
100
AcDbLine
 62
7
  6
CONTINUOUS
 10
6.2965662568
 20
-30.8205451141
 11
6.2853693574
 21
-30.7073048598
  0
LINE
  5
3BD
100
AcDbEntity
  8
0
100
AcDbLine
 62
7
  6
CONTINUOUS
 10
6.2939501995
 20
-30.7731649717
 11
6.307650566
 21
-30.9134351728
  0
LINE
  5
3BE
100
AcDbEntity
  8
0
100
AcDbLine
 62
7
  6
CONTINUOUS
 10
5.2894943435
 20
-30.7255369958
 11
5.303530273
 21
-30.8722626275
  0
LINE
  5
3BF
100
AcDbEntity
  8
0
100
AcDbLine
 62
7
  6
CONTINUOUS
 10
5.2882628749
 20
-30.7372209218
 11
5.2775111555
 21
-30.6238881411
  0
LINE
  5
3C0
100
AcDbEntity
  8
0
100
AcDbLine
 62
7
  6
CONTINUOUS
 10
4.2878806842
 20
-30.7332948789
 11
4.2767552556
 21
-30.6157025575
  0
LINE
  5
3C1
100
AcDbEntity
  8
0
100
AcDbLine
 62
7
  6
CONTINUOUS
 10
6.2853693574
 20
-30.7073048598
 11
6.2739544362
 21
-30.5851343955
  0
LINE
  5
3C2
100
AcDbEntity
  8
0
100
AcDbLine
 62
7
  6
CONTINUOUS
 10
4.2839344227
 20
-30.6648095036
 11
4.2978265359
 21
-30.8138167231
  0
LINE
  5
3C3
100
AcDbEntity
  8
0
100
AcDbLine
 62
7
  6
CONTINUOUS
 10
6.2800883134
 20
-30.6219906268
 11
6.2939501995
 21
-30.7731649717
  0
LINE
  5
3C4
100
AcDbEntity
  8
0
100
AcDbLine
 62
7
  6
CONTINUOUS
 10
5.275407723
 20
-30.5690258778
 11
5.2894943435
 21
-30.7255369958
  0
LINE
  5
3C5
100
AcDbEntity
  8
0
100
AcDbLine
 62
7
  6
CONTINUOUS
 10
3.2740145304
 20
-30.5530852032
 11
3.2893811041
 21
-30.7243143508
  0
LINE
  5
3C6
100
AcDbEntity
  8
0
100
AcDbLine
 62
7
  6
CONTINUOUS
 10
6.2739544362
 20
-30.5851343955
 11
6.2623361416
 21
-30.4545240465
  0
LINE
  5
3C7
100
AcDbEntity
  8
0
100
AcDbLine
 62
7
  6
CONTINUOUS
 10
5.2775111555
 20
-30.6238881411
 11
5.2609638866
 21
-30.4387144573
  0
LINE
  5
3C8
100
AcDbEntity
  8
0
100
AcDbLine
 62
7
  6
CONTINUOUS
 10
3.2766976661
 20
-30.6150777944
 11
3.2597343467
 21
-30.4244839663
  0
LINE
  5
3C9
100
AcDbEntity
  8
0
100
AcDbLine
 62
7
  6
CONTINUOUS
 10
4.2767552556
 20
-30.6157025575
 11
4.2597754546
 21
-30.4249607262
  0
LINE
  5
3CA
100
AcDbEntity
  8
0
100
AcDbLine
 62
7
  6
CONTINUOUS
 10
4.2696394794
 20
-30.5025217962
 11
4.2839344227
 21
-30.6648095036
  0
LINE
  5
3CB
100
AcDbEntity
  8
0
100
AcDbLine
 62
7
  6
CONTINUOUS
 10
6.2590238652
 20
-30.3768417634
 11
6.2800883134
 21
-30.6219906268
  0
LINE
  5
3CC
100
AcDbEntity
  8
0
100
AcDbLine
 62
7
  6
CONTINUOUS
 10
6.2623361416
 20
-30.4545240465
 11
6.2445477859
 21
-30.2440016822
  0
LINE
  5
3CD
100
AcDbEntity
  8
0
100
AcDbLine
 62
7
  6
CONTINUOUS
 10
5.2609638866
 20
-30.4387144573
 11
5.2439207995
 21
-30.2363765984
  0
LINE
  5
3CE
100
AcDbEntity
  8
0
100
AcDbLine
 62
7
  6
CONTINUOUS
 10
5.2542615672
 20
-30.3191906879
 11
5.275407723
 21
-30.5690258778
  0
LINE
  5
3CF
100
AcDbEntity
  8
0
100
AcDbLine
 62
7
  6
CONTINUOUS
 10
3.2597343467
 20
-30.4244839663
 11
3.2424584846
 21
-30.2185434773
  0
LINE
  5
3D0
100
AcDbEntity
  8
0
100
AcDbLine
 62
7
  6
CONTINUOUS
 10
4.2597754546
 20
-30.4249607262
 11
4.2424802813
 21
-30.2188097917
  0
LINE
  5
3D1
100
AcDbEntity
  8
0
100
AcDbLine
 62
7
  6
CONTINUOUS
 10
3.2510551397
 20
-30.279967932
 11
3.2740145304
 21
-30.5530852032
  0
LINE
  5
3D2
100
AcDbEntity
  8
0
100
AcDbLine
 62
7
  6
CONTINUOUS
 10
4.2472769689
 20
-30.2333555129
 11
4.2696394794
 21
-30.5025217962
  0
LINE
  5
3D3
100
AcDbEntity
  8
0
100
AcDbLine
 62
7
  6
CONTINUOUS
 10
5.2439207995
 20
-30.2363765984
 11
5.2263681656
 21
-30.0181996078
  0
LINE
  5
3D4
100
AcDbEntity
  8
0
100
AcDbLine
 62
7
  6
CONTINUOUS
 10
6.2445477859
 20
-30.2440016822
 11
6.2263437808
 21
-30.0178908348
  0
LINE
  5
3D5
100
AcDbEntity
  8
0
100
AcDbLine
 62
7
  6
CONTINUOUS
 10
3.2424584846
 20
-30.2185434773
 11
3.2248954863
 21
-29.9995269848
  0
LINE
  5
3D6
100
AcDbEntity
  8
0
100
AcDbLine
 62
7
  6
CONTINUOUS
 10
4.2424802813
 20
-30.2188097917
 11
4.2248911499
 21
-29.999471928
  0
LINE
  5
3D7
100
AcDbEntity
  8
0
100
AcDbLine
 62
7
  6
CONTINUOUS
 10
6.2307035468
 20
-30.0244587611
 11
6.2590238652
 21
-30.3768417634
  0
LINE
  5
3D8
100
AcDbEntity
  8
0
100
AcDbLine
 62
7
  6
CONTINUOUS
 10
3.2210003046
 20
-29.8994351231
 11
3.2510551397
 21
-30.279967932
  0
LINE
  5
3D9
100
AcDbEntity
  8
0
100
AcDbLine
 62
7
  6
CONTINUOUS
 10
5.2194511077
 20
-29.8793283646
 11
5.2542615672
 21
-30.3191906879
  0
LINE
  5
3DA
100
AcDbEntity
  8
0
100
AcDbLine
 62
7
  6
CONTINUOUS
 10
4.2157251045
 20
-29.830829645
 11
4.2472769689
 21
-30.2333555129
  0
LWPOLYLINE
  5
3DB
100
AcDbEntity
  8
0
100
AcDbPolyline
 62
7
  6
CONTINUOUS
 90
3
 70
0
 10
3.2248954863
 20
-29.9995269848
 10
3.2009399127
 20
-29.690027446
 10
3.1969333708
 20
-29.6374528576
  0
LWPOLYLINE
  5
3DC
100
AcDbEntity
  8
0
100
AcDbPolyline
 62
7
  6
CONTINUOUS
 90
3
 70
0
 10
4.2248911499
 20
-29.999471928
 10
4.2008794842
 20
-29.6892361923
 10
4.1969334223
 20
-29.6374528576
  0
LWPOLYLINE
  5
3DD
100
AcDbEntity
  8
0
100
AcDbPolyline
 62
7
  6
CONTINUOUS
 90
3
 70
0
 10
5.2263681656
 20
-30.0181996078
 10
5.2020698745
 20
-29.704816116
 10
5.1969325769
 20
-29.6374528576
  0
LWPOLYLINE
  5
3DE
100
AcDbEntity
  8
0
100
AcDbPolyline
 62
7
  6
CONTINUOUS
 90
3
 70
0
 10
6.2263437808
 20
-30.0178908348
 10
6.2014385251
 20
-29.6965548442
 10
6.1969333662
 20
-29.6374528576
  0
LINE
  5
3DF
100
AcDbEntity
  8
0
100
AcDbLine
 62
7
  6
CONTINUOUS
 10
3.2009836728
 20
-29.6374528576
 11
3.2210003046
 21
-29.8994351231
  0
LINE
  5
3E0
100
AcDbEntity
  8
0
100
AcDbLine
 62
7
  6
CONTINUOUS
 10
4.2009839974
 20
-29.6374528576
 11
4.2157251045
 21
-29.830829645
  0
LINE
  5
3E1
100
AcDbEntity
  8
0
100
AcDbLine
 62
7
  6
CONTINUOUS
 10
5.2009833586
 20
-29.6374528576
 11
5.2194511077
 21
-29.8793283646
  0
LINE
  5
3E2
100
AcDbEntity
  8
0
100
AcDbLine
 62
7
  6
CONTINUOUS
 10
6.2009828671
 20
-29.6374528576
 11
6.2307035468
 21
-30.0244587611
  0
LINE
  5
3E3
100
AcDbEntity
  8
0
100
AcDbLine
 62
7
  6
CONTINUOUS
 10
0.6
 20
12.6986870634
 11
0.6
 21
11.0276876939
  0
LINE
  5
3E4
100
AcDbEntity
  8
0
100
AcDbLine
 62
7
  6
CONTINUOUS
 10
0.6
 20
10.0360075679
 11
0.6
 21
8.3650081985
  0
LINE
  5
3E5
100
AcDbEntity
  8
DRAFT
100
AcDbLine
 62
7
  6
CONTINUOUS
 10
1.15
 20
-32.018452036
 11
1.15
 21
-33.3365649376
  0
LINE
  5
3E6
100
AcDbEntity
  8
0
100
AcDbLine
 62
7
  6
CONTINUOUS
 10
1.2424112663
 20
10.1818476309
 11
1.2424112663
 21
10.8818476309
  0
LWPOLYLINE
  5
3E7
100
AcDbEntity
  8
0
100
AcDbPolyline
 62
7
  6
CONTINUOUS
 90
10
 70
0
 10
1.9262640523
 20
10.1818476309
 10
1.9280809817
 20
10.2594895238
 10
1.9294436788
 20
10.337199359
 10
1.9303521435
 20
10.4149771364
 10
1.9308063759
 20
10.4928681508
 10
1.9308063759
 20
10.5708271074
 10
1.9303521435
 20
10.6487181222
 10
1.9294436788
 20
10.7264959003
 10
1.9280809818
 20
10.8042057366
 10
1.9262640523
 20
10.8818476309
  0
LWPOLYLINE
  5
3E8
100
AcDbEntity
  8
0
100
AcDbPolyline
 62
7
  6
CONTINUOUS
 90
9
 70
0
 10
-3.4887367374
 20
-31.3107512922
 10
-3.4860631479
 20
-31.298680905
 10
-3.4645307733
 20
-31.2320985749
 10
-3.4318774378
 20
-31.1692876061
 10
-3.3885476553
 20
-31.1122841552
 10
-3.3358185994
 20
-31.0619564775
 10
-3.2753956943
 20
-31.0192522742
 10
-3.2098113407
 20
-30.9853906796
 10
-3.1614698313
 20
-30.9681523691
  0
LINE
  5
3E9
100
AcDbEntity
  8
RACCORDO
100
AcDbLine
 62
7
  6
CONTINUOUS
 10
-4.3060925695
 20
-6.0747969627
 11
-4.2572322516
 21
-6.0253846206
  0
LINE
  5
3EA
100
AcDbEntity
  8
RACCORDO
100
AcDbLine
 62
7
  6
CONTINUOUS
 10
-4.78
 20
-6.5481523691
 11
-4.7571560991
 21
-6.5253084682
  0
LINE
  5
3EB
100
AcDbEntity
  8
RACCORDO
100
AcDbLine
 62
7
  6
CONTINUOUS
 10
-4.7288680968
 20
-6.4969397579
 11
-4.4421694463
 21
-6.2101806503
  0
LINE
  5
3EC
100
AcDbEntity
  8
RACCORDO
100
AcDbLine
 62
7
  6
CONTINUOUS
 10
-4.4421694463
 20
-6.2101806503
 11
-4.3060925695
 21
-6.0747969627
  0
LWPOLYLINE
  5
3ED
100
AcDbEntity
  8
RACCORDO
100
AcDbPolyline
 62
7
  6
CONTINUOUS
 90
3
 70
0
 10
-4.7571560991
 20
-6.5253084682
 10
-4.7549272117
 20
-6.5231940647
 10
-4.7288680968
 20
-6.4969397579
  0
LWPOLYLINE
  5
3EE
100
AcDbEntity
  8
0
100
AcDbPolyline
 62
7
  6
CONTINUOUS
 90
34
 70
0
 10
-21.907266566
 20
-20.5848158568
 10
-21.8226181484
 20
-20.5128615907
 10
-21.7386820991
 20
-20.4312381641
 10
-21.6603916645
 20
-20.3441850066
 10
-21.5880972698
 20
-20.2520917648
 10
-21.5221225026
 20
-20.1553706447
 10
-21.4627626639
 20
-20.0544545668
 10
-21.4102834463
 20
-19.9497952277
 10
-21.3649197454
 20
-19.8418610789
 10
-21.3268746077
 20
-19.7311352299
 10
-21.2963183223
 20
-19.6181132857
 10
-21.2733876582
 20
-19.5033011286
 10
-21.2581852526
 20
-19.387212654
 10
-21.2507791513
 20
-19.2703674698
 10
-21.251202504
 20
-19.1532885712
 10
-21.259453416
 20
-19.0364999994
 10
-21.2754949569
 20
-18.9205244961
 10
-21.2992553255
 20
-18.8058811639
 10
-21.3306281714
 20
-18.6930831426
 10
-21.3694730712
 20
-18.5826353124
 10
-21.4156161567
 20
-18.4750320343
 10
-21.4688508931
 20
-18.3707549371
 10
-21.5289390039
 20
-18.270270762
 10
-21.5956115369
 20
-18.1740292728
 10
-21.6685700683
 20
-18.0824612436
 10
-21.7474880382
 20
-17.9959765301
 10
-21.8320122127
 20
-17.9149622354
 10
-21.9217642645
 20
-17.8397809769
 10
-22.0163424665
 20
-17.770769264
 10
-22.1153234899
 20
-17.708235991
 10
-22.218264299
 20
-17.6524610552
 10
-22.324704134
 20
-17.6036941039
 10
-22.4341665739
 20
-17.5621534165
 10
-22.5461616683
 20
-17.5280249284
  0
LWPOLYLINE
  5
3EF
100
AcDbEntity
  8
0
100
AcDbPolyline
 62
7
  6
CONTINUOUS
 90
22
 70
0
 10
-22.3233204555
 20
-20.0644585361
 10
-22.3805592261
 20
-20.1110952367
 10
-22.441170818
 20
-20.1539546878
 10
-22.5049129689
 20
-20.1927830219
 10
-22.5716587719
 20
-20.2274055242
 10
-22.6410015958
 20
-20.2575168773
 10
-22.7122109708
 20
-20.2827754451
 10
-22.7848558805
 20
-20.3030633708
 10
-22.8586690485
 20
-20.3183405794
 10
-22.9331106386
 20
-20.3285403552
 10
-23.0076263532
 20
-20.3336714931
 10
-23.0820690334
 20
-20.3338081372
 10
-23.1565142711
 20
-20.3289734228
 10
-23.2306883485
 20
-20.3191612374
 10
-23.3041998741
 20
-20.3043993553
 10
-23.3769452444
 20
-20.2846662735
 10
-23.4487637785
 20
-20.2599179427
 10
-23.5191259977
 20
-20.2302467103
 10
-23.5873902782
 20
-20.1958882578
 10
-23.6531526402
 20
-20.1570610079
 10
-23.7162214257
 20
-20.1138940223
 10
-23.7763157296
 20
-20.0665826184
  0
LWPOLYLINE
  5
3F0
100
AcDbEntity
  8
RACCORDO
100
AcDbPolyline
 62
7
  6
CONTINUOUS
 90
13
 70
0
 10
-10.8311987919
 20
-8.7259390812
 10
-10.7667439151
 20
-8.6976656186
 10
-10.7054559455
 20
-8.6630629137
 10
-10.6479546233
 20
-8.6224799009
 10
-10.5948218099
 20
-8.5763264412
 10
-10.546594886
 20
-8.5250690236
 10
-10.5037614232
 20
-8.4692251504
 10
-10.4667497655
 20
-8.4093485667
 10
-10.435942456
 20
-8.3460534731
 10
-10.4116616762
 20
-8.2800130027
 10
-10.3941462804
 20
-8.2119089946
 10
-10.3835598362
 20
-8.1424201825
 10
-10.38
 20
-8.0722483923
  0
LINE
  5
3F1
100
AcDbEntity
  8
0
100
AcDbLine
 62
7
  6
CONTINUOUS
 10
-6.4875273464
 20
-2.9431523691
 11
-7.0579987989
 21
-3.1128758532
  0
LINE
  5
3F2
100
AcDbEntity
  8
0
100
AcDbLine
 62
7
  6
CONTINUOUS
 10
6.4875273464
 20
-2.2431523691
 11
7.0579987989
 21
-2.0734288849
  0
LINE
  5
3F3
100
AcDbEntity
  8
DRAFT
100
AcDbLine
 62
7
  6
CONTINUOUS
 10
15.4455847736
 20
4.3013541502
 11
16.033364298
 21
4.4264136235
  0
LINE
  5
3F4
100
AcDbEntity
  8
DRAFT
100
AcDbLine
 62
7
  6
CONTINUOUS
 10
15.3907486979
 20
4.5975031906
 11
16.2761748238
 21
4.785891728
  0
LINE
  5
3F5
100
AcDbEntity
  8
DRAFT
100
AcDbLine
 62
7
  6
CONTINUOUS
 10
16.0893261822
 20
5.6640803437
 11
15.2047089575
 21
5.4758639129
  0
LINE
  5
3F6
100
AcDbEntity
  8
DRAFT
100
AcDbLine
 62
7
  6
CONTINUOUS
 10
15.7212028313
 20
5.893572517
 11
15.1313142562
 21
5.7680643095
  0
LINE
  5
3F7
100
AcDbEntity
  8
0
100
AcDbLine
 62
7
  6
CONTINUOUS
 10
-12.1
 20
2.6405710782
 11
-11.4
 21
2.6405710782
  0
LINE
  5
3F8
100
AcDbEntity
  8
0
100
AcDbLine
 62
7
  6
CONTINUOUS
 10
11.4
 20
2.6405710782
 11
12.1
 21
2.6405710782
  0
LINE
  5
3F9
100
AcDbEntity
  8
0
100
AcDbLine
 62
7
  6
CONTINUOUS
 10
-7.6
 20
2.7818476309
 11
-5.35
 21
2.7818476309
  0
LINE
  5
3FA
100
AcDbEntity
  8
0
100
AcDbLine
 62
7
  6
CONTINUOUS
 10
-5.0
 20
2.7818476309
 11
-4.6807466683
 21
2.7818476309
  0
LINE
  5
3FB
100
AcDbEntity
  8
0
100
AcDbLine
 62
7
  6
CONTINUOUS
 10
-2.1
 20
3.0318476309
 11
-1.8
 21
3.0318476309
  0
LINE
  5
3FC
100
AcDbEntity
  8
0
100
AcDbLine
 62
7
  6
CONTINUOUS
 10
12.1
 20
3.0394363646
 11
11.4
 21
3.0394363646
  0
LINE
  5
3FD
100
AcDbEntity
  8
0
100
AcDbLine
 62
7
  6
CONTINUOUS
 10
-11.4
 20
3.0394363646
 11
-12.1
 21
3.0394363646
  0
LINE
  5
3FE
100
AcDbEntity
  8
0
100
AcDbLine
 62
7
  6
CONTINUOUS
 10
-5.35
 20
3.1648263534
 11
-7.225
 21
3.1648263534
  0
LINE
  5
3FF
100
AcDbEntity
  8
0
100
AcDbLine
 62
7
  6
CONTINUOUS
 10
13.6762640523
 20
3.9318476309
 11
12.8401949367
 21
3.9318476309
  0
LINE
  5
400
100
AcDbEntity
  8
0
100
AcDbLine
 62
7
  6
CONTINUOUS
 10
10.6598050633
 20
3.9318476309
 11
9.8237359477
 21
3.9318476309
  0
LINE
  5
401
100
AcDbEntity
  8
0
100
AcDbLine
 62
7
  6
CONTINUOUS
 10
-9.8237359477
 20
3.9318476309
 11
-10.6598050633
 21
3.9318476309
  0
LINE
  5
402
100
AcDbEntity
  8
0
100
AcDbLine
 62
7
  6
CONTINUOUS
 10
-12.8401949367
 20
3.9318476309
 11
-13.6762640523
 21
3.9318476309
  0
LINE
  5
403
100
AcDbEntity
  8
DRAFT
100
AcDbLine
 62
7
  6
CONTINUOUS
 10
-16.033364298
 20
4.4264136235
 11
-15.445584773
 21
4.3013541501
  0
LINE
  5
404
100
AcDbEntity
  8
DRAFT
100
AcDbLine
 62
7
  6
CONTINUOUS
 10
-16.2761748238
 20
4.785891728
 11
-15.3907486978
 21
4.5975031905
  0
LINE
  5
405
100
AcDbEntity
  8
DRAFT
100
AcDbLine
 62
7
  6
CONTINUOUS
 10
-15.2047089577
 20
5.4758639129
 11
-16.0893261822
 21
5.6640803437
  0
LINE
  5
406
100
AcDbEntity
  8
DRAFT
100
AcDbLine
 62
7
  6
CONTINUOUS
 10
-15.1313142559
 20
5.7680643094
 11
-15.7212028313
 21
5.893572517
  0
LINE
  5
407
100
AcDbEntity
  8
0
100
AcDbLine
 62
7
  6
CONTINUOUS
 10
-11.2302765158
 20
4.8015711151
 11
-10.6598050633
 21
4.6318476309
  0
LINE
  5
408
100
AcDbEntity
  8
RACCORDO
100
AcDbLine
 62
253
  6
CONTINUOUS
 10
11.6276067134
 20
-8.4749977326
 11
11.2526999806
 21
-8.1442881998
  0
LWPOLYLINE
  5
409
100
AcDbEntity
  8
RACCORDO
100
AcDbPolyline
 62
7
  6
CONTINUOUS
 90
8
 70
0
 10
-3.5291088655
 20
16.2412026926
 10
-3.5568689078
 20
16.3074710806
 10
-3.5902749649
 20
16.3694659446
 10
-3.6293270368
 20
16.4271872848
 10
-3.6745332476
 20
16.4811278867
 10
-3.7253854732
 20
16.5307949647
 10
-3.7803593414
 20
16.5747101619
 10
-3.8395784684
 20
16.6127024277
  0
LWPOLYLINE
  5
40A
100
AcDbEntity
  8
RACCORDO
100
AcDbPolyline
 62
7
  6
CONTINUOUS
 90
21
 70
0
 10
-3.5291088655
 20
16.2412026926
 10
-3.4742095068
 20
16.1035824937
 10
-3.4108160671
 20
15.971537789
 10
-3.3389285464
 20
15.8450685786
 10
-3.2582994453
 20
15.7238138871
 10
-3.1691762633
 20
15.6081346898
 10
-3.0723014985
 20
15.499113913
 10
-2.9672372095
 20
15.3964759685
 10
-2.8544213377
 20
15.3004964444
 10
-2.7359102062
 20
15.2130850304
 10
-2.6116349502
 20
15.1345426774
 10
-2.4816644345
 20
15.0645684344
 10
-2.3482615768
 20
15.0041691387
 10
-2.2118361091
 20
14.9535671869
 10
-2.0719782994
 20
14.9125401823
 10
-1.92972187
 20
14.8814277727
 10
-1.7843167353
 20
14.860261562
 10
-1.636512981
 20
14.8490099463
 10
-1.4895945859
 20
14.8479177612
 10
-1.3446562097
 20
14.8570666188
 10
-1.2006031927
 20
14.8763749071
  0
LWPOLYLINE
  5
40B
100
AcDbEntity
  8
RACCORDO
100
AcDbPolyline
 62
253
  6
CONTINUOUS
 90
43
 70
0
 10
-4.0161256958
 20
16.0463700302
 10
-3.979233608
 20
15.9525110269
 10
-3.9400707173
 20
15.861985322
 10
-3.8986370239
 20
15.7747929154
 10
-3.8549055151
 20
15.6912032695
 10
-3.8089032034
 20
15.610946922
 10
-3.7607111265
 20
15.5332154855
 10
-3.710300869
 20
15.4577970162
 10
-3.6577008462
 20
15.3849034578
 10
-3.6030773415
 20
15.314362254
 10
-3.5464869113
 20
15.2461714288
 10
-3.4878729993
 20
15.1803329582
 10
-3.4272322202
 20
15.1166802131
 10
-3.3645329313
 20
15.055135293
 10
-3.2998067754
 20
14.9957760984
 10
-3.2331452953
 20
14.938669702
 10
-3.1644886823
 20
14.8837670848
 10
-3.0938967452
 20
14.8311172658
 10
-3.0216404526
 20
14.7809343734
 10
-2.9477161095
 20
14.7332339007
 10
-2.8721274111
 20
14.6880003547
 10
-2.7951564117
 20
14.6454013844
 10
-2.716815885
 20
14.6054548357
 10
-2.6370930574
 20
14.5681428628
 10
-2.5562316632
 20
14.5335795772
 10
-2.4742042313
 20
14.5017655625
 10
-2.3910382327
 20
14.4727002351
 10
-2.3070598146
 20
14.4464959562
 10
-2.2221891167
 20
14.4231619206
 10
-2.1365059992
 20
14.4026889335
 10
-2.0505761907
 20
14.3851617718
 10
-1.9645301314
 20
14.3706245974
 10
-1.8782373811
 20
14.3590332484
 10
-1.7918723468
 20
14.3503400163
 10
-1.7060240294
 20
14.3444679723
 10
-1.620103428
 20
14.341494045
 10
-1.5325179472
 20
14.3416013123
 10
-1.4432778267
 20
14.3445160115
 10
-1.3523728269
 20
14.3505119052
 10
-1.2581796331
 20
14.3605933586
 10
-1.1601571407
 20
14.3750951601
 10
-1.0588464545
 20
14.3936825212
 10
-0.9542475743
 20
14.416355442
  0
LWPOLYLINE
  5
40C
100
AcDbEntity
  8
RACCORDO
100
AcDbPolyline
 62
253
  6
CONTINUOUS
 90
42
 70
0
 10
-3.5467548754
 20
16.2184273412
 10
-3.5173010916
 20
16.14265355
 10
-3.4855977661
 20
16.0695257897
 10
-3.4518569142
 20
15.9990773613
 10
-3.4164187979
 20
15.9315722778
 10
-3.3793685845
 20
15.8667666111
 10
-3.3404501692
 20
15.803958342
 10
-3.2996785933
 20
15.7430369791
 10
-3.2572606315
 20
15.6841851861
 10
-3.2131238955
 20
15.6271938816
 10
-3.1673696048
 20
15.5721146048
 10
-3.1200765939
 20
15.5189669427
 10
-3.0710869608
 20
15.4675296011
 10
-3.0204166057
 20
15.4178080358
 10
-2.9681761784
 20
15.3699000046
 10
-2.9143147801
 20
15.3237542297
 10
-2.8588412114
 20
15.2793882595
 10
-2.8018631942
 20
15.236897988
 10
-2.7434728431
 20
15.1963553224
 10
-2.6837405897
 20
15.1578098865
 10
-2.6227305555
 20
15.1213037555
 10
-2.5605310115
 20
15.0868893985
 10
-2.4972281439
 20
15.0546120682
 10
-2.4328811829
 20
15.0244995731
 10
-2.3675397442
 20
14.9965751038
 10
-2.3012588027
 20
14.9708647835
 10
-2.2341325028
 20
14.9474077214
 10
-2.1662709262
 20
14.9262419115
 10
-2.0976928584
 20
14.9073742089
 10
-2.0285358814
 20
14.8908434468
 10
-1.9590955698
 20
14.8767065582
 10
-1.889561999
 20
14.8649718473
 10
-1.8199126689
 20
14.8556054298
 10
-1.7501264001
 20
14.84858523
 10
-1.6807576289
 20
14.8439292675
 10
-1.6114106125
 20
14.8415734965
 10
-1.5406313311
 20
14.8415310975
 10
-1.4685448695
 20
14.8439405022
 10
-1.3951961752
 20
14.8489413373
 10
-1.3190324706
 20
14.8568752056
 10
-1.2396419234
 20
14.8681523065
 10
-1.1928575071
 20
14.8762547065
  0
LINE
  5
40D
100
AcDbEntity
  8
0
100
AcDbLine
 62
7
  6
CONTINUOUS
 10
-0.5197234842
 20
10.0121241468
 11
-0.35
 21
9.4416526942
  0
LINE
  5
40E
100
AcDbEntity
  8
0
100
AcDbLine
 62
7
  6
CONTINUOUS
 10
0.5197234842
 20
11.0515711151
 11
0.35
 21
11.6220425676
  0
LINE
  5
40F
100
AcDbEntity
  8
RACCORDO
100
AcDbLine
 62
253
  6
CONTINUOUS
 10
-4.4026105342
 20
16.6486272141
 11
-4.2606579922
 21
16.1692804407
  0
LINE
  5
410
100
AcDbEntity
  8
RACCORDO
100
AcDbLine
 62
253
  6
CONTINUOUS
 10
-1.0735288775
 20
14.9019203705
 11
-0.9542475743
 21
14.416355442
  0
LWPOLYLINE
  5
411
100
AcDbEntity
  8
0
100
AcDbPolyline
 62
7
  6
CONTINUOUS
 90
23
 70
0
 10
5.3519123472
 20
-31.2944904391
 10
5.3587889554
 20
-31.3429078728
 10
5.3657012653
 20
-31.3885399414
 10
5.3726589448
 20
-31.4314029992
 10
5.3797035382
 20
-31.4716992887
 10
5.3869456379
 20
-31.5099423301
 10
5.3944072444
 20
-31.5460866307
 10
5.4021969029
 20
-31.5804717777
 10
5.4106735206
 20
-31.614280428
 10
5.4199576692
 20
-31.6474058424
 10
5.4303357723
 20
-31.6802050655
 10
5.442794547
 20
-31.714618212
 10
5.4580928904
 20
-31.7509145063
 10
5.4769037198
 20
-31.7886230514
 10
5.5008461425
 20
-31.828475873
 10
5.5319440322
 20
-31.870800474
 10
5.5708738632
 20
-31.9136329864
 10
5.6169197841
 20
-31.9541861242
 10
5.6700731665
 20
-31.9910460776
 10
5.7305321953
 20
-32.0228824382
 10
5.796612084
 20
-32.0474350363
 10
5.86698443
 20
-32.0630374215
 10
5.9362183146
 20
-32.0681517792
  0
LWPOLYLINE
  5
412
100
AcDbEntity
  8
0
100
AcDbPolyline
 62
7
  6
CONTINUOUS
 90
24
 70
0
 10
6.3480728055
 20
-31.2661510922
 10
6.354742374
 20
-31.3147806261
 10
6.3614174095
 20
-31.3606187431
 10
6.368135376
 20
-31.4038843906
 10
6.374903676
 20
-31.4445796211
 10
6.3817662749
 20
-31.4829165097
 10
6.388854487
 20
-31.519497854
 10
6.3961884094
 20
-31.5542431068
 10
6.403880549
 20
-31.5874761903
 10
6.4123264601
 20
-31.6204634726
 10
6.4216624655
 20
-31.6530830821
 10
6.432181425
 20
-31.6856212205
 10
6.4449175696
 20
-31.7200148092
 10
6.460713504
 20
-31.7565802682
 10
6.4802635462
 20
-31.794704096
 10
6.5051278021
 20
-31.8348516768
 10
6.5373895123
 20
-31.8773809136
 10
6.5776416439
 20
-31.920197148
 10
6.6246752065
 20
-31.9601620638
 10
6.6781375192
 20
-31.9958656604
 10
6.7382482048
 20
-32.0262726257
 10
6.8033176394
 20
-32.0493787685
 10
6.8720382669
 20
-32.0637544205
 10
6.9362082431
 20
-32.0681518849
  0
LWPOLYLINE
  5
413
100
AcDbEntity
  8
0
100
AcDbPolyline
 62
7
  6
CONTINUOUS
 90
24
 70
0
 10
7.3464749273
 20
-31.254083177
 10
7.3532687994
 20
-31.304279144
 10
7.3601047887
 20
-31.3518291985
 10
7.3670154477
 20
-31.3968712213
 10
7.3740274392
 20
-31.4394737278
 10
7.3811715146
 20
-31.479708959
 10
7.3885274218
 20
-31.5178758736
 10
7.3961164165
 20
-31.5539168779
 10
7.404060491
 20
-31.588216191
 10
7.4127134254
 20
-31.621892505
 10
7.4222132998
 20
-31.6548920774
 10
7.4328554998
 20
-31.6875703234
 10
7.4456012878
 20
-31.7217263061
 10
7.4612070051
 20
-31.7576311656
 10
7.4803377282
 20
-31.7948363863
 10
7.5045017819
 20
-31.8339317893
 10
7.5355435704
 20
-31.8751744511
 10
7.5740615767
 20
-31.9167536771
 10
7.619341948
 20
-31.9560763966
 10
7.6710761876
 20
-31.991655812
 10
7.729673943
 20
-32.0224964227
 10
7.7944940334
 20
-32.0468007004
 10
7.8647171019
 20
-32.0626983707
 10
7.9362127378
 20
-32.068151839
  0
LWPOLYLINE
  5
414
100
AcDbEntity
  8
0
100
AcDbPolyline
 62
7
  6
CONTINUOUS
 90
4
 70
0
 10
4.3225729239
 20
-31.0545287287
 10
4.3200758171
 20
-31.0341746873
 10
4.3148561704
 20
-30.9897842875
 10
4.3095722586
 20
-30.9430238204
  0
LWPOLYLINE
  5
415
100
AcDbEntity
  8
0
100
AcDbPolyline
 62
7
  6
CONTINUOUS
 90
5
 70
0
 10
7.3226426097
 20
-31.0551036593
 10
7.3191049641
 20
-31.0260567452
 10
7.3136674323
 20
-30.9794219207
 10
7.3081562911
 20
-30.9301902668
 10
7.302572196
 20
-30.8783684326
  0
LINE
  5
416
100
AcDbEntity
  8
0
100
AcDbLine
 62
7
  6
CONTINUOUS
 10
5.3226271189
 20
-31.0550308453
 11
5.3191093409
 21
-31.0260934859
  0
LWPOLYLINE
  5
417
100
AcDbEntity
  8
0
100
AcDbPolyline
 62
7
  6
CONTINUOUS
 90
4
 70
0
 10
6.3226313361
 20
-31.0551138242
 10
6.31819932
 20
-31.0184264749
 10
6.3128987454
 20
-30.9726721247
 10
6.3075202828
 20
-30.9243849162
  0
LWPOLYLINE
  5
418
100
AcDbEntity
  8
0
100
AcDbPolyline
 62
7
  6
CONTINUOUS
 90
5
 70
0
 10
4.3246851265
 20
-31.0737943093
 10
4.3312824595
 20
-31.1314199992
 10
4.3378669309
 20
-31.1863268867
 10
4.3444359735
 20
-31.2384511957
 10
4.3510002411
 20
-31.287842709
  0
LINE
  5
419
100
AcDbEntity
  8
0
100
AcDbLine
 62
7
  6
CONTINUOUS
 10
5.3191093409
 20
-31.0260934859
 11
5.3090782536
 21
-30.9385607628
  0
LWPOLYLINE
  5
41A
100
AcDbEntity
  8
0
100
AcDbPolyline
 62
7
  6
CONTINUOUS
 90
5
 70
0
 10
6.3212264213
 20
-31.0425623214
 10
6.3279692382
 20
-31.1028026208
 10
6.3346888406
 20
-31.1601543964
 10
6.3413897038
 20
-31.2146124303
 10
6.3480728055
 20
-31.2661510922
  0
LWPOLYLINE
  5
41B
100
AcDbEntity
  8
0
100
AcDbPolyline
 62
7
  6
CONTINUOUS
 90
5
 70
0
 10
7.3194526082
 20
-31.0262771526
 10
7.3262198061
 20
-31.0874290594
 10
7.3329695346
 20
-31.145738938
 10
7.339713386
 20
-31.2012483036
 10
7.3464749273
 20
-31.254083177
  0
LINE
  5
41C
100
AcDbEntity
  8
0
100
AcDbLine
 62
7
  6
CONTINUOUS
 10
8.306486468
 20
-30.9148947633
 11
8.2955198375
 21
-30.8102563941
  0
LINE
  5
41D
100
AcDbEntity
  8
0
100
AcDbLine
 62
7
  6
CONTINUOUS
 10
7.302572196
 20
-30.8783684326
 11
7.2912048531
 21
-30.7671788886
  0
LINE
  5
41E
100
AcDbEntity
  8
0
100
AcDbLine
 62
7
  6
CONTINUOUS
 10
7.2990462798
 20
-30.8264541995
 11
7.3126681604
 21
-30.9623484946
  0
LINE
  5
41F
100
AcDbEntity
  8
0
100
AcDbLine
 62
7
  6
CONTINUOUS
 10
8.2955198375
 20
-30.8102563941
 11
8.2842901666
 21
-30.6960347224
  0
LINE
  5
420
100
AcDbEntity
  8
0
100
AcDbLine
 62
7
  6
CONTINUOUS
 10
7.2912048531
 20
-30.7671788886
 11
7.2795857097
 21
-30.6462103016
  0
LINE
  5
421
100
AcDbEntity
  8
0
100
AcDbLine
 62
7
  6
CONTINUOUS
 10
7.2853441315
 20
-30.6803399622
 11
7.2990462798
 21
-30.8264541995
  0
LINE
  5
422
100
AcDbEntity
  8
0
100
AcDbLine
 62
7
  6
CONTINUOUS
 10
8.2842901666
 20
-30.6960347224
 11
8.2727939223
 21
-30.5723602592
  0
LINE
  5
423
100
AcDbEntity
  8
0
100
AcDbLine
 62
7
  6
CONTINUOUS
 10
7.2795857097
 20
-30.6462103016
 11
7.2677243224
 21
-30.5158360331
  0
LINE
  5
424
100
AcDbEntity
  8
0
100
AcDbLine
 62
7
  6
CONTINUOUS
 10
8.2727939223
 20
-30.5723602592
 11
8.2610177751
 21
-30.439336754
  0
LINE
  5
425
100
AcDbEntity
  8
0
100
AcDbLine
 62
7
  6
CONTINUOUS
 10
7.2646702387
 20
-30.4441985002
 11
7.2853441315
 21
-30.6803399622
  0
LINE
  5
426
100
AcDbEntity
  8
0
100
AcDbLine
 62
7
  6
CONTINUOUS
 10
7.2677243224
 20
-30.5158360331
 11
7.2494798012
 21
-30.3035248426
  0
LINE
  5
427
100
AcDbEntity
  8
0
100
AcDbLine
 62
7
  6
CONTINUOUS
 10
8.2610177751
 20
-30.439336754
 11
8.2428035016
 21
-30.2227571584
  0
LINE
  5
428
100
AcDbEntity
  8
0
100
AcDbLine
 62
7
  6
CONTINUOUS
 10
7.2494798012
 20
-30.3035248426
 11
7.230682305
 21
-30.072600629
  0
LINE
  5
429
100
AcDbEntity
  8
0
100
AcDbLine
 62
7
  6
CONTINUOUS
 10
7.2369920325
 20
-30.1044960633
 11
7.2646702387
 21
-30.4441985002
  0
LINE
  5
42A
100
AcDbEntity
  8
0
100
AcDbLine
 62
7
  6
CONTINUOUS
 10
8.2428035016
 20
-30.2227571584
 11
8.2238770884
 21
-29.9865853903
  0
LINE
  5
42B
100
AcDbEntity
  8
0
100
AcDbLine
 62
7
  6
CONTINUOUS
 10
7.230682305
 20
-30.072600629
 11
7.2047133279
 21
-29.7393569729
  0
LINE
  5
42C
100
AcDbEntity
  8
0
100
AcDbLine
 62
7
  6
CONTINUOUS
 10
7.2047133279
 20
-29.7393569729
 11
7.1969324056
 21
-29.6374528576
  0
LINE
  5
42D
100
AcDbEntity
  8
0
100
AcDbLine
 62
7
  6
CONTINUOUS
 10
8.2238770884
 20
-29.9865853903
 11
8.196931262
 21
-29.6374528576
  0
LINE
  5
42E
100
AcDbEntity
  8
0
100
AcDbLine
 62
7
  6
CONTINUOUS
 10
7.200982844
 20
-29.6374528576
 11
7.2369920325
 21
-30.1044960633
  0
LINE
  5
42F
100
AcDbEntity
  8
DRAFT
100
AcDbLine
 62
7
  6
CONTINUOUS
 10
7.45
 20
-34.7661320475
 11
7.4358848514
 21
-33.3610117735
  0
LINE
  5
430
100
AcDbEntity
  8
RACCORDO
100
AcDbLine
 62
253
  6
CONTINUOUS
 10
4.2572322516
 20
-6.0253846206
 11
4.2572322516
 21
-11.4389265572
  0
LINE
  5
431
100
AcDbEntity
  8
DRAFT
100
AcDbLine
 62
7
  6
CONTINUOUS
 10
4.65
 20
-33.3365649376
 11
4.65
 21
-31.9771044274
  0
LINE
  5
432
100
AcDbEntity
  8
RACCORDO
100
AcDbLine
 62
253
  6
CONTINUOUS
 10
4.7571560991
 20
-6.5253084682
 11
4.7571560991
 21
-11.4389265572
  0
LINE
  5
433
100
AcDbEntity
  8
RACCORDO
100
AcDbLine
 62
7
  6
CONTINUOUS
 10
4.78
 20
-11.4574844577
 11
4.78
 21
-6.5481523691
  0
LINE
  5
434
100
AcDbEntity
  8
DRAFT
100
AcDbLine
 62
7
  6
CONTINUOUS
 10
6.15
 20
-32.018831612
 11
6.15
 21
-33.3365649376
  0
LINE
  5
435
100
AcDbEntity
  8
0
100
AcDbLine
 62
7
  6
CONTINUOUS
 10
6.3353110168
 20
-2.9431523691
 11
6.3353110168
 21
-2.2431523691
  0
LINE
  5
436
100
AcDbEntity
  8
0
100
AcDbLine
 62
7
  6
CONTINUOUS
 10
6.5
 20
9.6318476309
 11
6.5
 21
9.3318476309
  0
LINE
  5
437
100
AcDbEntity
  8
0
100
AcDbLine
 62
7
  6
CONTINUOUS
 10
6.85
 20
10.4318476309
 11
6.85
 21
10.1318476309
  0
LINE
  5
438
100
AcDbEntity
  8
0
100
AcDbLine
 62
7
  6
CONTINUOUS
 10
6.9777222831
 20
-4.7643788704
 11
6.9777222831
 21
-3.0889924321
  0
LINE
  5
439
100
AcDbEntity
  8
0
100
AcDbLine
 62
7
  6
CONTINUOUS
 10
6.9777222831
 20
-2.0973123061
 11
6.9777222831
 21
-0.4319258677
  0
LINE
  5
43A
100
AcDbEntity
  8
0
100
AcDbLine
 62
7
  6
CONTINUOUS
 10
7.2277222831
 20
-4.2344289218
 11
7.2277222831
 21
-3.6833473058
  0
LINE
  5
43B
100
AcDbEntity
  8
0
100
AcDbLine
 62
7
  6
CONTINUOUS
 10
7.2277222831
 20
-1.5029574324
 11
7.2277222831
 21
-0.9518758163
  0
LINE
  5
43C
100
AcDbEntity
  8
0
100
AcDbLine
 62
7
  6
CONTINUOUS
 10
7.25
 20
11.2318476309
 11
7.25
 21
10.9318476309
  0
LWPOLYLINE
  5
43D
100
AcDbEntity
  8
0
100
AcDbPolyline
 62
7
  6
CONTINUOUS
 90
10
 70
0
 10
5.6514582308
 20
-2.2431523691
 10
5.6496413014
 20
-2.320794262
 10
5.6482786043
 20
-2.3985040971
 10
5.6473701396
 20
-2.4762818745
 10
5.6469159072
 20
-2.5541728889
 10
5.6469159072
 20
-2.6321318455
 10
5.6473701396
 20
-2.7100228603
 10
5.6482786043
 20
-2.7878006384
 10
5.6496413014
 20
-2.8655104747
 10
5.6514582308
 20
-2.9431523691
  0
LWPOLYLINE
  5
43E
100
AcDbEntity
  8
RACCORDO
100
AcDbPolyline
 62
253
  6
CONTINUOUS
 90
22
 70
0
 10
4.7571560975
 20
-11.4389265559
 10
4.752770692
 20
-11.5711781575
 10
4.7396639029
 20
-11.7027418725
 10
4.7179144173
 20
-11.8330449833
 10
4.6876531003
 20
-11.9614682997
 10
4.6490250309
 20
-12.0875136706
 10
4.6021531381
 20
-12.2107954691
 10
4.5470220118
 20
-12.331190628
 10
4.4840136985
 20
-12.4477253721
 10
4.4140832185
 20
-12.5588639327
 10
4.3379770173
 20
-12.6639265098
 10
4.2559931338
 20
-12.7629572313
 10
4.1686465451
 20
-12.8556879919
 10
4.0769040724
 20
-12.9415013485
 10
3.980882247
 20
-13.020667991
 10
3.8796103095
 20
-13.0940557901
 10
3.7733208857
 20
-13.1613404212
 10
3.6624598113
 20
-13.2220893557
 10
3.5460740205
 20
-13.2765328163
 10
3.4240165283
 20
-13.3242461969
 10
3.2970965577
 20
-13.3644250061
 10
3.1657516427
 20
-13.3964965205
  0
LWPOLYLINE
  5
43F
100
AcDbEntity
  8
RACCORDO
100
AcDbPolyline
 62
253
  6
CONTINUOUS
 90
19
 70
0
 10
4.2572322516
 20
-11.4389265572
 10
4.2525015615
 20
-11.55573792
 10
4.2391751046
 20
-11.6704060345
 10
4.2172528809
 20
-11.7829309009
 10
4.1864880509
 20
-11.8939309942
 10
4.1471274542
 20
-12.0027878393
 10
4.0999116089
 20
-12.1076460109
 10
4.044272539
 20
-12.2087729144
 10
3.9807782205
 20
-12.3059011444
 10
3.9118731003
 20
-12.3963730592
 10
3.8382358249
 20
-12.4791877883
 10
3.7591877478
 20
-12.5553462023
 10
3.6751373755
 20
-12.6251932716
 10
3.5863292118
 20
-12.6890411479
 10
3.4925187529
 20
-12.7465776795
 10
3.3933809938
 20
-12.797211382
 10
3.2888075996
 20
-12.840745094
 10
3.1789069051
 20
-12.8773759768
 10
3.0636789105
 20
-12.9071040306
  0
LINE
  5
440
100
AcDbEntity
  8
RACCORDO
100
AcDbLine
 62
7
  6
CONTINUOUS
 10
7.0822423142
 20
-6.5253084682
 11
7.0827838877
 21
-6.5167332522
  0
LINE
  5
441
100
AcDbEntity
  8
0
100
AcDbLine
 62
7
  6
CONTINUOUS
 10
7.2277222831
 20
-1.5029574324
 11
7.0579987989
 21
-2.0734288849
  0
LWPOLYLINE
  5
442
100
AcDbEntity
  8
0
100
AcDbPolyline
 62
7
  6
CONTINUOUS
 90
18
 70
0
 10
21.9071435302
 20
28.1486558605
 10
21.8631123209
 20
28.0625981417
 10
21.824976484
 20
27.9757049613
 10
21.7927015886
 20
27.8883515459
 10
21.7662303914
 20
27.8009071768
 10
21.7454833676
 20
27.713733846
 10
21.7303593174
 20
27.6271849521
 10
21.7207360486
 20
27.5416040391
 10
21.7164711305
 20
27.4573235836
 10
21.717402716
 20
27.3746638333
 10
21.72335043
 20
27.293931702
 10
21.7341163182
 20
27.2154197231
 10
21.749485855
 20
27.1394050659
 10
21.7692290049
 20
27.0661486187
 10
21.7931013336
 20
26.9958941388
 10
21.8208451652
 20
26.9288674761
 10
21.8521907798
 20
26.8652758686
 10
21.8868576488
 20
26.8053073153
  0
LINE
  5
443
100
AcDbEntity
  8
RACCORDO
100
AcDbLine
 62
253
  6
CONTINUOUS
 10
-4.7571560991
 20
-11.4389265572
 11
-4.78
 21
-11.4574844577
  0
LINE
  5
444
100
AcDbEntity
  8
RACCORDO
100
AcDbLine
 62
7
  6
CONTINUOUS
 10
-10.9544696123
 20
-8.7727128219
 11
-10.8309629079
 21
-8.7258494149
  0
LINE
  5
445
100
AcDbEntity
  8
RACCORDO
100
AcDbLine
 62
253
  6
CONTINUOUS
 10
-11.7269537204
 20
-8.5816004651
 11
-11.6031067721
 21
-8.5367915935
  0
LWPOLYLINE
  5
446
100
AcDbEntity
  8
RACCORDO
100
AcDbPolyline
 62
7
  6
CONTINUOUS
 90
15
 70
0
 10
-10.9545812983
 20
-8.7724179024
 10
-10.9841079369
 20
-8.7829008953
 10
-11.0456047268
 20
-8.8002901165
 10
-11.1075370916
 20
-8.8116430282
 10
-11.1702934611
 20
-8.8173041483
 10
-11.2326882553
 20
-8.8174082409
 10
-11.294696525
 20
-8.8119526464
 10
-11.3563432195
 20
-8.8009400244
 10
-11.416517607
 20
-8.7845131184
 10
-11.4754964918
 20
-8.7623838334
 10
-11.5330030697
 20
-8.7348402644
 10
-11.5870961959
 20
-8.7028894401
 10
-11.6371288223
 20
-8.666867037
 10
-11.6837479971
 20
-8.6264373787
 10
-11.7269537204
 20
-8.5816004651
  0
LINE
  5
447
100
AcDbEntity
  8
0
100
AcDbLine
 62
7
  6
CONTINUOUS
 10
8.0974457673
 20
-3.1128758532
 11
8.6679172198
 21
-2.9431523691
  0
LINE
  5
448
100
AcDbEntity
  8
0
100
AcDbLine
 62
7
  6
CONTINUOUS
 10
-3.1932287364
 20
4.1318476309
 11
-2.1
 21
4.1318476309
  0
LINE
  5
449
100
AcDbEntity
  8
0
100
AcDbLine
 62
7
  6
CONTINUOUS
 10
-1.8
 20
4.1318476309
 11
-0.6932287364
 21
4.1318476309
  0
LINE
  5
44A
100
AcDbEntity
  8
0
100
AcDbLine
 62
7
  6
CONTINUOUS
 10
-0.6932287364
 20
4.4318476309
 11
-1.8
 21
4.4318476309
  0
LINE
  5
44B
100
AcDbEntity
  8
0
100
AcDbLine
 62
7
  6
CONTINUOUS
 10
-2.1
 20
4.4318476309
 11
-3.1932287364
 21
4.4318476309
  0
LINE
  5
44C
100
AcDbEntity
  8
0
100
AcDbLine
 62
7
  6
CONTINUOUS
 10
13.6762640523
 20
4.6318476309
 11
12.8401949367
 21
4.6318476309
  0
LINE
  5
44D
100
AcDbEntity
  8
0
100
AcDbLine
 62
7
  6
CONTINUOUS
 10
10.6598050633
 20
4.6318476309
 11
9.8237359477
 21
4.6318476309
  0
LINE
  5
44E
100
AcDbEntity
  8
0
100
AcDbLine
 62
7
  6
CONTINUOUS
 10
-9.8237359477
 20
4.6318476309
 11
-10.6598050633
 21
4.6318476309
  0
LINE
  5
44F
100
AcDbEntity
  8
0
100
AcDbLine
 62
7
  6
CONTINUOUS
 10
-12.8401949367
 20
4.6318476309
 11
-13.6762640523
 21
4.6318476309
  0
LINE
  5
450
100
AcDbEntity
  8
0
100
AcDbLine
 62
7
  6
CONTINUOUS
 10
12.1
 20
5.5242588972
 11
11.4
 21
5.5242588972
  0
LINE
  5
451
100
AcDbEntity
  8
0
100
AcDbLine
 62
7
  6
CONTINUOUS
 10
-11.4
 20
5.5242588972
 11
-12.1
 21
5.5242588972
  0
LINE
  5
452
100
AcDbEntity
  8
0
100
AcDbLine
 62
7
  6
CONTINUOUS
 10
-1.8
 20
5.5318476309
 11
-2.1
 21
5.5318476309
  0
LINE
  5
453
100
AcDbEntity
  8
0
100
AcDbLine
 62
7
  6
CONTINUOUS
 10
-3.5888359655
 20
5.7818476309
 11
-3.9080892972
 21
5.7818476309
  0
LINE
  5
454
100
AcDbEntity
  8
0
100
AcDbLine
 62
7
  6
CONTINUOUS
 10
-7.225
 20
5.7818476309
 11
-7.6
 21
5.7818476309
  0
LINE
  5
455
100
AcDbEntity
  8
0
100
AcDbLine
 62
7
  6
CONTINUOUS
 10
-12.1
 20
5.9231241837
 11
-11.4
 21
5.9231241837
  0
LINE
  5
456
100
AcDbEntity
  8
0
100
AcDbLine
 62
7
  6
CONTINUOUS
 10
11.4
 20
5.9231241837
 11
12.1
 21
5.9231241837
  0
LINE
  5
457
100
AcDbEntity
  8
0
100
AcDbLine
 62
7
  6
CONTINUOUS
 10
11.2302765158
 20
3.7621241468
 11
10.6598050633
 21
3.9318476309
  0
LINE
  5
458
100
AcDbEntity
  8
0
100
AcDbLine
 62
7
  6
CONTINUOUS
 10
22.3233204555
 20
-18.371846202
 11
21.9071435302
 21
-17.8513441395
  0
LINE
  5
459
100
AcDbEntity
  8
0
100
AcDbLine
 62
7
  6
CONTINUOUS
 10
23.6766795445
 20
-20.0644585361
 11
24.0928564698
 21
-20.5849605986
  0
LINE
  5
45A
100
AcDbEntity
  8
0
100
AcDbLine
 62
7
  6
CONTINUOUS
 10
21.8868576488
 20
-19.1946926847
 11
21.9245557012
 21
-19.2508699739
  0
LINE
  5
45B
100
AcDbEntity
  8
0
100
AcDbLine
 62
7
  6
CONTINUOUS
 10
7.0579987989
 20
-3.1128758532
 11
7.2277222831
 21
-3.6833473058
  0
LINE
  5
45C
100
AcDbEntity
  8
0
100
AcDbLine
 62
7
  6
CONTINUOUS
 10
8.0974457673
 20
-2.0734288849
 11
7.9277222831
 21
-1.5029574324
  0
LINE
  5
45D
100
AcDbEntity
  8
0
100
AcDbLine
 62
7
  6
CONTINUOUS
 10
8.3171775204
 20
-31.0097512914
 11
8.306486468
 21
-30.9148947633
  0
LINE
  5
45E
100
AcDbEntity
  8
RACCORDO
100
AcDbLine
 62
7
  6
CONTINUOUS
 10
8.0777576858
 20
-6.5253084682
 11
8.0772161123
 21
-6.5167332522
  0
LINE
  5
45F
100
AcDbEntity
  8
0
100
AcDbLine
 62
7
  6
CONTINUOUS
 10
7.85
 20
9.3318476309
 11
7.85
 21
7.9818476309
  0
LINE
  5
460
100
AcDbEntity
  8
0
100
AcDbLine
 62
7
  6
CONTINUOUS
 10
7.9277222831
 20
-4.2344289218
 11
7.9277222831
 21
-3.6833473058
  0
LINE
  5
461
100
AcDbEntity
  8
0
100
AcDbLine
 62
7
  6
CONTINUOUS
 10
7.9277222831
 20
-1.5029574324
 11
7.9277222831
 21
-0.9518758163
  0
LINE
  5
462
100
AcDbEntity
  8
0
100
AcDbLine
 62
7
  6
CONTINUOUS
 10
8.15
 20
7.9818476309
 11
8.15
 21
9.3318476309
  0
LINE
  5
463
100
AcDbEntity
  8
0
100
AcDbLine
 62
7
  6
CONTINUOUS
 10
8.1777222831
 20
-0.4307000055
 11
8.1777222831
 21
-2.0973123061
  0
LINE
  5
464
100
AcDbEntity
  8
0
100
AcDbLine
 62
7
  6
CONTINUOUS
 10
8.1777222831
 20
-3.0889924321
 11
8.1777222831
 21
-4.7656047326
  0
LINE
  5
465
100
AcDbEntity
  8
0
100
AcDbLine
 62
7
  6
CONTINUOUS
 10
8.75
 20
10.9318476309
 11
8.75
 21
11.2318476309
  0
LINE
  5
466
100
AcDbEntity
  8
0
100
AcDbLine
 62
7
  6
CONTINUOUS
 10
8.8201335494
 20
-2.9431523691
 11
8.8201335494
 21
-2.2431523691
  0
LINE
  5
467
100
AcDbEntity
  8
0
100
AcDbLine
 62
7
  6
CONTINUOUS
 10
9.15
 20
10.1318476309
 11
9.15
 21
10.4318476309
  0
LINE
  5
468
100
AcDbEntity
  8
DRAFT
100
AcDbLine
 62
7
  6
CONTINUOUS
 10
9.45
 20
-33.3365649376
 11
9.45
 21
-30.9681523691
  0
LINE
  5
469
100
AcDbEntity
  8
0
100
AcDbLine
 62
7
  6
CONTINUOUS
 10
9.5
 20
9.3318476309
 11
9.5
 21
9.6318476309
  0
LINE
  5
46A
100
AcDbEntity
  8
RACCORDO
100
AcDbLine
 62
7
  6
CONTINUOUS
 10
10.38
 20
-6.5481523691
 11
10.38
 21
-8.0722483923
  0
LINE
  5
46B
100
AcDbEntity
  8
RACCORDO
100
AcDbLine
 62
253
  6
CONTINUOUS
 10
10.4028439009
 20
-8.0120043867
 11
10.4028439009
 21
-6.5253084682
  0
LINE
  5
46C
100
AcDbEntity
  8
0
100
AcDbLine
 62
7
  6
CONTINUOUS
 10
10.5075887337
 20
3.9318476309
 11
10.5075887337
 21
4.6318476309
  0
LINE
  5
46D
100
AcDbEntity
  8
RACCORDO
100
AcDbLine
 62
253
  6
CONTINUOUS
 10
10.9027677484
 20
-8.0120043866
 11
10.9027677484
 21
-6.0253846206
  0
LINE
  5
46E
100
AcDbEntity
  8
DRAFT
100
AcDbLine
 62
7
  6
CONTINUOUS
 10
9.5106325477
 20
-34.7661320475
 11
9.5176895845
 21
-33.3610117735
  0
LWPOLYLINE
  5
46F
100
AcDbEntity
  8
0
100
AcDbPolyline
 62
7
  6
CONTINUOUS
 90
10
 70
0
 10
9.5039863354
 20
-2.9431523691
 10
9.5058032649
 20
-2.8655104762
 10
9.5071659619
 20
-2.787800641
 10
9.5080744266
 20
-2.7100228636
 10
9.508528659
 20
-2.6321318492
 10
9.508528659
 20
-2.5541728926
 10
9.5080744267
 20
-2.4762818778
 10
9.507165962
 20
-2.3985040997
 10
9.5058032649
 20
-2.3207942634
 10
9.5039863354
 20
-2.2431523691
  0
LWPOLYLINE
  5
470
100
AcDbEntity
  8
0
100
AcDbPolyline
 62
7
  6
CONTINUOUS
 90
10
 70
0
 10
9.8237359477
 20
4.6318476309
 10
9.8219190181
 20
4.5542057031
 10
9.8205563208
 20
4.4764958507
 10
9.819647856
 20
4.3987180738
 10
9.8191936236
 20
4.3208270896
 10
9.8191936236
 20
4.2428681809
 10
9.819647856
 20
4.1649771959
 10
9.8205563208
 20
4.0871994172
 10
9.821919018
 20
4.0094895622
 10
9.8237359477
 20
3.9318476309
  0
LINE
  5
471
100
AcDbEntity
  8
0
100
AcDbLine
 62
7
  6
CONTINUOUS
 10
7.9277222831
 20
-3.6833473058
 11
8.0974457673
 21
-3.1128758532
  0
LINE
  5
472
100
AcDbEntity
  8
0
100
AcDbLine
 62
7
  6
CONTINUOUS
 10
11.2302765158
 20
4.8015711151
 11
11.4
 21
5.3720425676
  0
LINE
  5
473
100
AcDbEntity
  8
0
100
AcDbLine
 62
7
  6
CONTINUOUS
 10
12.1
 20
3.1916526942
 11
12.2697234842
 21
3.7621241468
  0
LWPOLYLINE
  5
474
100
AcDbEntity
  8
0
100
AcDbPolyline
 62
7
  6
CONTINUOUS
 90
18
 70
0
 10
24.0928564698
 20
25.4150394014
 10
24.1368876791
 20
25.5010971202
 10
24.175023516
 20
25.5879903006
 10
24.2072984114
 20
25.6753437159
 10
24.2337696086
 20
25.7627880851
 10
24.2545166324
 20
25.8499614159
 10
24.2696406826
 20
25.9365103098
 10
24.2792639514
 20
26.0220912227
 10
24.2835288695
 20
26.1063716783
 10
24.282597284
 20
26.1890314286
 10
24.27664957
 20
26.2697635599
 10
24.2658836818
 20
26.3482755388
 10
24.250514145
 20
26.4242901959
 10
24.2307709951
 20
26.4975466432
 10
24.2068986664
 20
26.5678011231
 10
24.1791548348
 20
26.6348277858
 10
24.1478092202
 20
26.6984193932
 10
24.1131423512
 20
26.7583879465
  0
LINE
  5
475
100
AcDbEntity
  8
DRAFT
100
AcDbLine
 62
7
  6
CONTINUOUS
 10
16.2761748238
 20
4.785891728
 11
16.033364298
 21
4.4264136235
  0
LWPOLYLINE
  5
476
100
AcDbEntity
  8
RACCORDO
100
AcDbPolyline
 62
7
  6
CONTINUOUS
 90
10
 70
0
 10
4.3328397901
 20
-12.7170464804
 10
4.4235493306
 20
-12.5962577689
 10
4.5050916197
 20
-12.4686119375
 10
4.5767412996
 20
-12.3351540082
 10
4.638093923
 20
-12.1966271717
 10
4.6887837739
 20
-12.0538456072
 10
4.7285037645
 20
-11.9076869558
 10
4.7570339956
 20
-11.7590125809
 10
4.7742284287
 20
-11.6086575909
 10
4.78
 20
-11.4574844577
  0
LINE
  5
477
100
AcDbEntity
  8
RACCORDO
100
AcDbLine
 62
253
  6
CONTINUOUS
 10
-3.1657516444
 20
-13.3964965218
 11
-3.1906020083
 21
-13.4140124179
  0
LINE
  5
478
100
AcDbEntity
  8
0
100
AcDbLine
 62
7
  6
CONTINUOUS
 10
7.85
 20
7.9818476309
 11
8.15
 21
7.9818476309
  0
LINE
  5
479
100
AcDbEntity
  8
0
100
AcDbLine
 62
7
  6
CONTINUOUS
 10
-0.35
 20
8.8905710782
 11
0.35
 21
8.8905710782
  0
LINE
  5
47A
100
AcDbEntity
  8
0
100
AcDbLine
 62
7
  6
CONTINUOUS
 10
0.35
 20
9.2894363646
 11
-0.35
 21
9.2894363646
  0
LINE
  5
47B
100
AcDbEntity
  8
0
100
AcDbLine
 62
7
  6
CONTINUOUS
 10
6.5
 20
9.3318476309
 11
7.85
 21
9.3318476309
  0
LINE
  5
47C
100
AcDbEntity
  8
0
100
AcDbLine
 62
7
  6
CONTINUOUS
 10
8.15
 20
9.3318476309
 11
9.5
 21
9.3318476309
  0
LINE
  5
47D
100
AcDbEntity
  8
0
100
AcDbLine
 62
7
  6
CONTINUOUS
 10
9.5
 20
9.6318476309
 11
6.5
 21
9.6318476309
  0
LINE
  5
47E
100
AcDbEntity
  8
0
100
AcDbLine
 62
7
  6
CONTINUOUS
 10
6.85
 20
10.1318476309
 11
9.15
 21
10.1318476309
  0
LINE
  5
47F
100
AcDbEntity
  8
0
100
AcDbLine
 62
7
  6
CONTINUOUS
 10
1.9262640523
 20
10.1818476309
 11
1.0901949367
 21
10.1818476309
  0
LINE
  5
480
100
AcDbEntity
  8
0
100
AcDbLine
 62
7
  6
CONTINUOUS
 10
-1.0901949367
 20
10.1818476309
 11
-1.9262640523
 21
10.1818476309
  0
LINE
  5
481
100
AcDbEntity
  8
0
100
AcDbLine
 62
7
  6
CONTINUOUS
 10
9.15
 20
10.4318476309
 11
6.85
 21
10.4318476309
  0
LINE
  5
482
100
AcDbEntity
  8
0
100
AcDbLine
 62
7
  6
CONTINUOUS
 10
1.9262640523
 20
10.8818476309
 11
1.0901949367
 21
10.8818476309
  0
LINE
  5
483
100
AcDbEntity
  8
0
100
AcDbLine
 62
7
  6
CONTINUOUS
 10
-1.0901949367
 20
10.8818476309
 11
-1.9262640523
 21
10.8818476309
  0
LINE
  5
484
100
AcDbEntity
  8
0
100
AcDbLine
 62
7
  6
CONTINUOUS
 10
7.25
 20
10.9318476309
 11
8.75
 21
10.9318476309
  0
LINE
  5
485
100
AcDbEntity
  8
0
100
AcDbLine
 62
7
  6
CONTINUOUS
 10
12.2697234842
 20
4.8015711151
 11
12.8401949367
 21
4.6318476309
  0
LINE
  5
486
100
AcDbEntity
  8
0
100
AcDbLine
 62
7
  6
CONTINUOUS
 10
-0.5197234842
 20
10.0121241468
 11
-1.0901949367
 21
10.1818476309
  0
LINE
  5
487
100
AcDbEntity
  8
0
100
AcDbLine
 62
7
  6
CONTINUOUS
 10
0.5197234842
 20
11.0515711151
 11
1.0901949367
 21
10.8818476309
  0
LINE
  5
488
100
AcDbEntity
  8
RACCORDO
100
AcDbLine
 62
253
  6
CONTINUOUS
 10
-4.5556595205
 20
16.6263412529
 11
-4.6818869042
 21
16.7151136841
  0
LINE
  5
489
100
AcDbEntity
  8
0
100
AcDbLine
 62
7
  6
CONTINUOUS
 10
24.1131423512
 20
-19.2416120535
 11
24.0754442988
 21
-19.1854347642
  0
LINE
  5
48A
100
AcDbEntity
  8
0
100
AcDbLine
 62
7
  6
CONTINUOUS
 10
11.25
 20
1.6190855606
 11
11.25
 21
3.6958299346
  0
LINE
  5
48B
100
AcDbEntity
  8
0
100
AcDbLine
 62
7
  6
CONTINUOUS
 10
11.25
 20
4.8678653272
 11
11.25
 21
6.9446097012
  0
LINE
  5
48C
100
AcDbEntity
  8
0
100
AcDbLine
 62
7
  6
CONTINUOUS
 10
11.4
 20
2.6405710782
 11
11.4
 21
3.1916526942
  0
LINE
  5
48D
100
AcDbEntity
  8
0
100
AcDbLine
 62
7
  6
CONTINUOUS
 10
11.4
 20
5.3720425676
 11
11.4
 21
5.9231241837
  0
LINE
  5
48E
100
AcDbEntity
  8
DRAFT
100
AcDbLine
 62
7
  6
CONTINUOUS
 10
11.75
 20
-30.9681523691
 11
11.75
 21
-34.8800785465
  0
LINE
  5
48F
100
AcDbEntity
  8
RACCORDO
100
AcDbLine
 62
7
  6
CONTINUOUS
 10
12.0
 20
-34.7181523691
 11
12.0
 21
-29.6374528576
  0
LINE
  5
490
100
AcDbEntity
  8
0
100
AcDbLine
 62
7
  6
CONTINUOUS
 10
12.1
 20
2.6405710782
 11
12.1
 21
3.1916526942
  0
LINE
  5
491
100
AcDbEntity
  8
0
100
AcDbLine
 62
7
  6
CONTINUOUS
 10
12.1
 20
5.3720425676
 11
12.1
 21
5.9231241837
  0
LINE
  5
492
100
AcDbEntity
  8
0
100
AcDbLine
 62
7
  6
CONTINUOUS
 10
12.25
 20
6.9446097012
 11
12.25
 21
4.8678653272
  0
LINE
  5
493
100
AcDbEntity
  8
0
100
AcDbLine
 62
7
  6
CONTINUOUS
 10
12.25
 20
3.6958299346
 11
12.25
 21
1.6190855606
  0
LINE
  5
494
100
AcDbEntity
  8
0
100
AcDbLine
 62
7
  6
CONTINUOUS
 10
12.9924112663
 20
3.9318476309
 11
12.9924112663
 21
4.6318476309
  0
LWPOLYLINE
  5
495
100
AcDbEntity
  8
0
100
AcDbPolyline
 62
7
  6
CONTINUOUS
 90
10
 70
0
 10
13.6762640523
 20
3.9318476309
 10
13.6780809819
 20
4.0094895588
 10
13.6794436792
 20
4.0871994111
 10
13.680352144
 20
4.164977188
 10
13.6808063764
 20
4.2428681722
 10
13.6808063764
 20
4.3208270809
 10
13.680352144
 20
4.398718066
 10
13.6794436792
 20
4.4764958446
 10
13.678080982
 20
4.5542056996
 10
13.6762640523
 20
4.6318476309
  0
LINE
  5
496
100
AcDbEntity
  8
RACCORDO
100
AcDbLine
 62
253
  6
CONTINUOUS
 10
10.4028439009
 20
-8.0120043867
 11
10.38
 21
-8.0722483923
  0
LINE
  5
497
100
AcDbEntity
  8
RACCORDO
100
AcDbLine
 62
253
  6
CONTINUOUS
 10
11.6276067134
 20
-8.4749977326
 11
11.6031067721
 21
-8.5367915935
  0
LINE
  5
498
100
AcDbEntity
  8
SMUSSO
100
AcDbLine
 62
7
  6
CONTINUOUS
 10
-4.7283285758
 20
-31.0663056201
 11
-4.7719635519
 21
-31.1257058151
  0
LINE
  5
499
100
AcDbEntity
  8
DRAFT
100
AcDbLine
 62
7
  6
CONTINUOUS
 10
-11.75
 20
-34.8800785465
 11
-11.6262152228
 21
-34.7167603924
  0
LINE
  5
49A
100
AcDbEntity
  8
RACCORDO
100
AcDbLine
 62
7
  6
CONTINUOUS
 10
4.2309606856
 20
-12.8419850383
 11
4.3328397901
 21
-12.7170464821
  0
LINE
  5
49B
100
AcDbEntity
  8
RACCORDO
100
AcDbLine
 62
7
  6
CONTINUOUS
 10
4.2032742439
 20
-12.8757474465
 11
4.2309606856
 21
-12.8419850383
  0
LWPOLYLINE
  5
49C
100
AcDbEntity
  8
RACCORDO
100
AcDbPolyline
 62
7
  6
CONTINUOUS
 90
10
 70
0
 10
4.2032742394
 20
-12.8757474428
 10
4.102292496
 20
-12.9896008996
 10
3.992549034
 20
-13.0959027737
 10
3.875158471
 20
-13.1933075665
 10
3.7493142272
 20
-13.2820002299
 10
3.6158228825
 20
-13.3617958119
 10
3.4783876752
 20
-13.4305882788
 10
3.338243018
 20
-13.4876756193
 10
3.1941544982
 20
-13.5337598446
 10
3.0461221158
 20
-13.5688409548
  0
LINE
  5
49D
100
AcDbEntity
  8
RACCORDO
100
AcDbLine
 62
253
  6
CONTINUOUS
 10
3.0685290972
 20
-13.544933238
 11
3.1906020083
 21
-13.4140124179
  0
LINE
  5
49E
100
AcDbEntity
  8
RACCORDO
100
AcDbLine
 62
253
  6
CONTINUOUS
 10
3.0461221159
 20
-13.5688409548
 11
3.0685290972
 21
-13.544933238
  0
LWPOLYLINE
  5
49F
100
AcDbEntity
  8
RACCORDO
100
AcDbPolyline
 62
253
  6
CONTINUOUS
 90
31
 70
0
 10
11.6276067134
 20
-8.4749977326
 10
11.5857453086
 20
-8.5184659609
 10
11.5407131134
 20
-8.5578275255
 10
11.4929301072
 20
-8.5928990223
 10
11.4429840842
 20
-8.6234484293
 10
11.3911490252
 20
-8.6494944592
 10
11.3373114068
 20
-8.6711660454
 10
11.2816553626
 20
-8.6883577537
 10
11.2247381119
 20
-8.7008669838
 10
11.166961257
 20
-8.7086004934
 10
11.1087331718
 20
-8.7115010954
 10
11.0504495917
 20
-8.7095466893
 10
10.9924992299
 20
-8.7027445485
 10
10.9352051217
 20
-8.6911144891
 10
10.8790510821
 20
-8.6747365161
 10
10.8246447578
 20
-8.6538101436
 10
10.7721843175
 20
-8.6284409382
 10
10.7221845771
 20
-8.5989085686
 10
10.675582386
 20
-8.5659367223
 10
10.63263797
 20
-8.5300205381
 10
10.5933748717
 20
-8.4915051731
 10
10.5581386181
 20
-8.4511225722
 10
10.5272451252
 20
-8.4098297985
 10
10.5001901967
 20
-8.3675861958
 10
10.4762186409
 20
-8.3234898768
 10
10.4555343882
 20
-8.277948036
 10
10.4381479696
 20
-8.2310199558
 10
10.4236602819
 20
-8.180977617
 10
10.4124799155
 20
-8.1273056458
 10
10.4053599846
 20
-8.0708775426
 10
10.4028438973
 20
-8.012004396
  0
LWPOLYLINE
  5
4A0
100
AcDbEntity
  8
RACCORDO
100
AcDbPolyline
 62
7
  6
CONTINUOUS
 90
15
 70
0
 10
11.7269537204
 20
-8.5816004651
 10
11.6838167564
 20
-8.6263724076
 10
11.6372740299
 20
-8.6667517622
 10
11.587325541
 20
-8.702738529
 10
11.5333272146
 20
-8.7346676102
 10
11.4759231257
 20
-8.7622041035
 10
11.4170454998
 20
-8.7843433028
 10
11.3569676628
 20
-8.800797817
 10
11.2954162887
 20
-8.8118550371
 10
11.2335036256
 20
-8.8173724295
 10
11.1712109014
 20
-8.817348005
 10
11.1085568882
 20
-8.8117837528
 10
11.0467101502
 20
-8.8005431069
 10
10.9852770968
 20
-8.7832833861
 10
10.9545812228
 20
-8.7724179805
  0
LWPOLYLINE
  5
4A1
100
AcDbEntity
  8
RACCORDO
100
AcDbPolyline
 62
253
  6
CONTINUOUS
 90
28
 70
0
 10
11.2526999806
 20
-8.1442881998
 10
11.2390771
 20
-8.1581285927
 10
11.2246693382
 20
-8.170406291
 10
11.2094766951
 20
-8.1811212945
 10
11.1934057826
 20
-8.1902938199
 10
11.1765499887
 20
-8.1979036507
 10
11.1591894786
 20
-8.2038901371
 10
11.1412516834
 20
-8.2082606551
 10
11.1228091718
 20
-8.2110078288
 10
11.1043598158
 20
-8.2120488804
 10
11.0859161054
 20
-8.2113352464
 10
11.0674655504
 20
-8.2089154904
 10
11.0494685523
 20
-8.2048525244
 10
11.0318918214
 20
-8.1990593745
 10
11.0147686473
 20
-8.1916230147
 10
10.9986593005
 20
-8.1828672795
 10
10.983612493
 20
-8.1726666337
 10
10.9695795127
 20
-8.1611466126
 10
10.9569744939
 20
-8.1490076561
 10
10.9460158338
 20
-8.1364559714
 10
10.9364851352
 20
-8.1232853514
 10
10.9281413405
 20
-8.1095776153
 10
10.9208949745
 20
-8.0955159997
 10
10.9148355123
 20
-8.0809172679
 10
10.9099903219
 20
-8.0653135297
 10
10.9063685257
 20
-8.0485488217
 10
10.9039610012
 20
-8.0307791074
 10
10.9027677484
 20
-8.0120043866
  0
LWPOLYLINE
  5
4A2
100
AcDbEntity
  8
RACCORDO
100
AcDbPolyline
 62
7
  6
CONTINUOUS
 90
13
 70
0
 10
11.6031067721
 20
-8.5367915935
 10
11.5537557398
 20
-8.5869314455
 10
11.4996157444
 20
-8.6318739463
 10
11.4412316366
 20
-8.6711630697
 10
11.3791906871
 20
-8.7043997738
 10
11.3141190543
 20
-8.7312455781
 10
11.2466757117
 20
-8.7514265652
 10
11.1775414384
 20
-8.7647366851
 10
11.1074148109
 20
-8.7710391276
 10
11.0370077517
 20
-8.7702684224
 10
10.9670320775
 20
-8.7624309384
 10
10.898195783
 20
-8.7476045214
 10
10.830962908
 20
-8.7258494149
  0
LINE
  5
4A3
100
AcDbEntity
  8
RACCORDO
100
AcDbLine
 62
7
  6
CONTINUOUS
 10
10.8539074305
 20
-6.0747969627
 11
10.9027677484
 21
-6.0253846206
  0
LINE
  5
4A4
100
AcDbEntity
  8
RACCORDO
100
AcDbLine
 62
7
  6
CONTINUOUS
 10
10.38
 20
-6.5481523691
 11
10.4028439009
 21
-6.5253084682
  0
LINE
  5
4A5
100
AcDbEntity
  8
RACCORDO
100
AcDbLine
 62
7
  6
CONTINUOUS
 10
10.4311319032
 20
-6.4969397579
 11
10.7178305537
 21
-6.2101806503
  0
LINE
  5
4A6
100
AcDbEntity
  8
RACCORDO
100
AcDbLine
 62
7
  6
CONTINUOUS
 10
10.7178305537
 20
-6.2101806503
 11
10.8539074305
 21
-6.0747969627
  0
LWPOLYLINE
  5
4A7
100
AcDbEntity
  8
RACCORDO
100
AcDbPolyline
 62
7
  6
CONTINUOUS
 90
3
 70
0
 10
10.4028439009
 20
-6.5253084682
 10
10.4050727883
 20
-6.5231940647
 10
10.4311319032
 20
-6.4969397579
  0
LINE
  5
4A8
100
AcDbEntity
  8
0
100
AcDbLine
 62
7
  6
CONTINUOUS
 10
8.75
 20
11.2318476309
 11
7.25
 21
11.2318476309
  0
LINE
  5
4A9
100
AcDbEntity
  8
0
100
AcDbLine
 62
7
  6
CONTINUOUS
 10
0.35
 20
11.7742588972
 11
-0.35
 21
11.7742588972
  0
LINE
  5
4AA
100
AcDbEntity
  8
0
100
AcDbLine
 62
7
  6
CONTINUOUS
 10
-0.35
 20
12.1731241837
 11
0.35
 21
12.1731241837
  0
LWPOLYLINE
  5
4AB
100
AcDbEntity
  8
RACCORDO
100
AcDbPolyline
 62
253
  6
CONTINUOUS
 90
43
 70
0
 10
0.9542475743
 20
14.416355442
 10
1.036768009
 20
14.3974954959
 10
1.1197630045
 20
14.3813523431
 10
1.2032325611
 20
14.3679259837
 10
1.2870912015
 20
14.3571906398
 10
1.3714244029
 20
14.3491720893
 10
1.4564885965
 20
14.3439476652
 10
1.5425820991
 20
14.3415014992
 10
1.6294065939
 20
14.3418494598
 10
1.716323561
 20
14.3451164848
 10
1.8032715331
 20
14.3513425809
 10
1.8903119775
 20
14.3604877414
 10
1.9769907768
 20
14.3725568845
 10
2.0632925609
 20
14.3875762139
 10
2.1492326999
 20
14.4055195259
 10
2.2344031867
 20
14.4263131276
 10
2.318756424
 20
14.4499617124
 10
2.4023400091
 20
14.4764605868
 10
2.4848887271
 20
14.5057219772
 10
2.5664055164
 20
14.5377563982
 10
2.6468874387
 20
14.5725533352
 10
2.7260604637
 20
14.6099934713
 10
2.8039362493
 20
14.6500984706
 10
2.8805031377
 20
14.6928466691
 10
2.9554521254
 20
14.7380537579
 10
3.0287224109
 20
14.7856869454
 10
3.1003747956
 20
14.8357790233
 10
3.1702826802
 20
14.888244058
 10
3.2384215768
 20
14.9430387203
 10
3.3048159732
 20
15.0002063395
 10
3.3694127332
 20
15.0597909703
 10
3.4321174823
 20
15.1216012896
 10
3.493024595
 20
15.1858286205
 10
3.552364059
 20
15.2530909865
 10
3.6101509909
 20
15.3231438898
 10
3.6663702743
 20
15.3962318282
 10
3.7212065471
 20
15.4737063187
 10
3.7749222644
 20
15.5555365285
 10
3.8272549713
 20
15.6417532904
 10
3.8776019406
 20
15.7338006199
 10
3.9257622632
 20
15.8321598557
 10
3.9719368483
 20
15.9363496591
 10
4.0161256958
 20
16.0463700302
  0
LWPOLYLINE
  5
4AC
100
AcDbEntity
  8
RACCORDO
100
AcDbPolyline
 62
7
  6
CONTINUOUS
 90
3
 70
0
 10
-3.8395784684
 20
16.6127024277
 10
-3.9029192381
 20
16.6449428127
 10
-3.96848643
 20
16.6704661112
  0
LINE
  5
4AD
100
AcDbEntity
  8
DRAFT
100
AcDbLine
 62
7
  6
CONTINUOUS
 10
16.0893261822
 20
5.6640803437
 11
15.7212028313
 21
5.893572517
  0
LINE
  5
4AE
100
AcDbEntity
  8
DRAFT
100
AcDbLine
 62
7
  6
CONTINUOUS
 10
-5.3736923604
 20
25.3984266225
 11
-5.5072614111
 21
25.5387715981
  0
LINE
  5
4AF
100
AcDbEntity
  8
RACCORDO
100
AcDbLine
 62
253
  6
CONTINUOUS
 10
3.5291088655
 20
16.2412026926
 11
3.5467548755
 21
16.2184273412
  0
LINE
  5
4B0
100
AcDbEntity
  8
RACCORDO
100
AcDbLine
 62
253
  6
CONTINUOUS
 10
4.3859773824
 20
16.6773579263
 11
4.4026105342
 21
16.6486272141
  0
LINE
  5
4B1
100
AcDbEntity
  8
0
100
AcDbLine
 62
7
  6
CONTINUOUS
 10
11.4
 20
3.1916526942
 11
11.2302765158
 21
3.7621241468
  0
LINE
  5
4B2
100
AcDbEntity
  8
0
100
AcDbLine
 62
7
  6
CONTINUOUS
 10
12.2697234842
 20
4.8015711151
 11
12.1
 21
5.3720425676
  0
LINE
  5
4B3
100
AcDbEntity
  8
RACCORDO
100
AcDbLine
 62
253
  6
CONTINUOUS
 10
18.4638480851
 20
-13.8931543385
 11
18.467601375
 21
-14.0170016431
  0
LINE
  5
4B4
100
AcDbEntity
  8
RACCORDO
100
AcDbLine
 62
253
  6
CONTINUOUS
 10
18.467601375
 20
-14.0170016431
 11
18.4707925851
 21
-14.1414430439
  0
LINE
  5
4B5
100
AcDbEntity
  8
RACCORDO
100
AcDbLine
 62
7
  6
CONTINUOUS
 10
16.8993703515
 20
-14.863284632
 11
16.8999059957
 21
-14.9941190123
  0
LINE
  5
4B6
100
AcDbEntity
  8
RACCORDO
100
AcDbLine
 62
7
  6
CONTINUOUS
 10
15.0
 20
-26.2298749491
 11
15.0
 21
-34.7181523691
  0
LINE
  5
4B7
100
AcDbEntity
  8
RACCORDO
100
AcDbLine
 62
7
  6
CONTINUOUS
 10
16.8999059957
 20
-14.9941190123
 11
16.8998495341
 21
-15.099489421
  0
LINE
  5
4B8
100
AcDbEntity
  8
SMUSSO
100
AcDbLine
 62
7
  6
CONTINUOUS
 10
-3.9282371935
 20
-31.866332097
 11
-3.9689266003
 21
-31.9217224951
  0
LWPOLYLINE
  5
4B9
100
AcDbEntity
  8
RACCORDO
100
AcDbPolyline
 62
7
  6
CONTINUOUS
 90
7
 70
0
 10
-4.6818869042
 20
16.7151136841
 10
-4.6224906749
 20
16.7311149376
 10
-4.5621824526
 20
16.7416083289
 10
-4.5009622373
 20
16.746593858
 10
-4.4380487663
 20
16.7460723392
 10
-4.3742233023
 20
16.7400429582
 10
-4.3118296335
 20
16.7285032722
  0
LWPOLYLINE
  5
4BA
100
AcDbEntity
  8
RACCORDO
100
AcDbPolyline
 62
253
  6
CONTINUOUS
 90
22
 70
0
 10
-4.4026105345
 20
16.6486272137
 10
-4.3486862401
 20
16.6622783836
 10
-4.2943626288
 20
16.6715377949
 10
-4.2399970212
 20
16.6764687065
 10
-4.1859236325
 20
16.6771616835
 10
-4.1324741757
 20
16.6737317271
 10
-4.079975984
 20
16.6663215855
 10
-4.0285131042
 20
16.6550436013
 10
-3.9785565149
 20
16.6401019878
 10
-3.9309400519
 20
16.6219461913
 10
-3.8860534178
 20
16.6010303899
 10
-3.8437721515
 20
16.5776038125
 10
-3.8040733938
 20
16.5519187368
 10
-3.7673332549
 20
16.52451969
 10
-3.7332448223
 20
16.4954852561
 10
-3.7008964046
 20
16.4641390308
 10
-3.6704988251
 20
16.4306221548
 10
-3.6421705858
 20
16.394997247
 10
-3.6152527181
 20
16.3561117332
 10
-3.5899222558
 20
16.3134965674
 10
-3.5669317996
 20
16.2675775532
 10
-3.5467548749
 20
16.218427342
  0
LWPOLYLINE
  5
4BB
100
AcDbEntity
  8
RACCORDO
100
AcDbPolyline
 62
253
  6
CONTINUOUS
 90
19
 70
0
 10
-4.2606579922
 20
16.1692804407
 10
-4.2424079308
 20
16.1736363029
 10
-4.2243375772
 20
16.1763749759
 10
-4.2064469314
 20
16.1774964598
 10
-4.1885948469
 20
16.176924959
 10
-4.1709224701
 20
16.1747362691
 10
-4.1538532408
 20
16.171157777
 10
-4.1373644207
 20
16.1660960521
 10
-4.1214787481
 20
16.1596445249
 10
-4.1066878772
 20
16.1523108741
 10
-4.093243463
 20
16.1442387326
 10
-4.0808938505
 20
16.1352844674
 10
-4.0693757298
 20
16.125524858
 10
-4.0586411832
 20
16.1151276647
 10
-4.0487381283
 20
16.1039251272
 10
-4.0395470079
 20
16.0914907451
 10
-4.0310279694
 20
16.0776823514
 10
-4.0232208654
 20
16.0626421131
 10
-4.0161256958
 20
16.0463700302
  0
LINE
  5
4BC
100
AcDbEntity
  8
RACCORDO
100
AcDbLine
 62
7
  6
CONTINUOUS
 10
-1.2006031927
 20
14.8763749071
 11
-1.057435535
 21
14.9058426261
  0
LWPOLYLINE
  5
4BD
100
AcDbEntity
  8
RACCORDO
100
AcDbPolyline
 62
7
  6
CONTINUOUS
 90
3
 70
0
 10
-1.1928575071
 20
14.8762547065
 10
-1.1577425652
 20
14.8830552099
 10
-1.0735282419
 20
14.9019177894
  0
LWPOLYLINE
  5
4BE
100
AcDbEntity
  8
RACCORDO
100
AcDbPolyline
 62
7
  6
CONTINUOUS
 90
7
 70
0
 10
4.3118296335
 20
16.7285032721
 10
4.3742233023
 20
16.7400429582
 10
4.4380487663
 20
16.7460723392
 10
4.5009622373
 20
16.746593858
 10
4.5621824526
 20
16.7416083289
 10
4.6224906749
 20
16.7311149376
 10
4.6818869042
 20
16.7151136841
  0
LWPOLYLINE
  5
4BF
100
AcDbEntity
  8
RACCORDO
100
AcDbPolyline
 62
7
  6
CONTINUOUS
 90
21
 70
0
 10
1.2005673903
 20
14.8763812412
 10
1.3445840017
 20
14.8570740198
 10
1.4894853716
 20
14.8479209614
 10
1.6363607919
 20
14.8490017879
 10
1.7841209707
 20
14.8602367775
 10
1.9294980324
 20
14.8813867644
 10
2.0717511054
 20
14.9124843523
 10
2.2116210612
 20
14.9534969376
 10
2.3480626387
 20
15.0040875439
 10
2.4814839344
 20
15.0644804641
 10
2.6114768518
 20
15.1344514054
 10
2.7357718405
 20
15.2129905123
 10
2.8542970747
 20
15.3003974747
 10
2.9671243803
 20
15.3963726026
 10
3.0721996839
 20
15.4990069713
 10
3.1690843116
 20
15.6080211871
 10
3.2582169374
 20
15.7236946435
 10
3.3388595107
 20
15.8449565966
 10
3.4107660148
 20
15.9714501319
 10
3.4741824663
 20
16.1035321639
 10
3.5291088655
 20
16.2412026926
  0
LWPOLYLINE
  5
4C0
100
AcDbEntity
  8
RACCORDO
100
AcDbPolyline
 62
253
  6
CONTINUOUS
 90
42
 70
0
 10
1.1656747201
 20
14.8814647618
 10
1.2071309226
 20
14.8736672267
 10
1.2746485021
 20
14.8627986191
 10
1.342409585
 20
14.8541413447
 10
1.4104823025
 20
14.8476862817
 10
1.4792180907
 20
14.8434274323
 10
1.5487824
 20
14.841414484
 10
1.6188646757
 20
14.8417167657
 10
1.689101458
 20
14.8443673928
 10
1.7593606436
 20
14.8493792129
 10
1.8296147052
 20
14.856768173
 10
1.8996566699
 20
14.8665267966
 10
1.9693955151
 20
14.8786497302
 10
2.0387614259
 20
14.8931322092
 10
2.1075823782
 20
14.9099414602
 10
2.1757454269
 20
14.9290461975
 10
2.2432093649
 20
14.9504311378
 10
2.3099124598
 20
14.9740757476
 10
2.3757840083
 20
14.9999550486
 10
2.440744251
 20
15.0280377885
 10
2.5047188651
 20
15.058291647
 10
2.5676499588
 20
15.0906898901
 10
2.6294510962
 20
15.1251886674
 10
2.6900094639
 20
15.1617218513
 10
2.7492129535
 20
15.2002122839
 10
2.8070457668
 20
15.2406399732
 10
2.8635378854
 20
15.2830266146
 10
2.9185914397
 20
15.3273043504
 10
2.9721718511
 20
15.3734511087
 10
3.0243837876
 20
15.4215812818
 10
3.0750268658
 20
15.4715393945
 10
3.1241499238
 20
15.523403987
 10
3.172160875
 20
15.5777061048
 10
3.2188153316
 20
15.6343195782
 10
3.264086558
 20
15.6933707531
 10
3.3085410218
 20
15.7558936326
 10
3.3519340621
 20
15.8219840777
 10
3.3939630718
 20
15.8916600516
 10
3.4348663437
 20
15.9659683624
 10
3.4743733085
 20
16.0453339546
 10
3.511831785
 20
16.1294794846
 10
3.5467548755
 20
16.2184273412
  0
LINE
  5
4C1
100
AcDbEntity
  8
RACCORDO
100
AcDbLine
 62
7
  6
CONTINUOUS
 10
1.0574355374
 20
14.9058426257
 11
1.2005673903
 21
14.8763812412
  0
LWPOLYLINE
  5
4C2
100
AcDbEntity
  8
RACCORDO
100
AcDbPolyline
 62
7
  6
CONTINUOUS
 90
3
 70
0
 10
1.073528242
 20
14.9019177894
 10
1.1400676095
 20
14.8867136647
 10
1.1656747201
 20
14.8814647618
  0
LWPOLYLINE
  5
4C3
100
AcDbEntity
  8
RACCORDO
100
AcDbPolyline
 62
7
  6
CONTINUOUS
 90
7
 70
0
 10
4.3859773824
 20
16.6773579263
 10
4.3160728926
 20
16.693909076
 10
4.2462939107
 20
16.7033791347
 10
4.1766404368
 20
16.7057681022
 10
4.1064121721
 20
16.7009558939
 10
4.0363094153
 20
16.6890625945
 10
3.968433063
 20
16.6704484583
  0
LWPOLYLINE
  5
4C4
100
AcDbEntity
  8
RACCORDO
100
AcDbPolyline
 62
7
  6
CONTINUOUS
 90
7
 70
0
 10
-3.96848643
 20
16.6704661112
 10
-4.0363474378
 20
16.6890712825
 10
-4.1064348677
 20
16.7009593675
 10
-4.1766513174
 20
16.7057682826
 10
-4.2462976527
 20
16.7033773336
 10
-4.3160730077
 20
16.6939072148
 10
-4.3859773824
 20
16.6773579263
  0
LWPOLYLINE
  5
4C5
100
AcDbEntity
  8
RACCORDO
100
AcDbPolyline
 62
7
  6
CONTINUOUS
 90
3
 70
0
 10
-4.3118296335
 20
16.7285032722
 10
-4.2510703701
 20
16.7111242539
 10
-4.2322416261
 20
16.703859875
  0
LINE
  5
4C6
100
AcDbEntity
  8
RACCORDO
100
AcDbLine
 62
253
  6
CONTINUOUS
 10
3.5467548741
 20
16.2184273366
 11
4.0161256958
 21
16.0463700302
  0
LWPOLYLINE
  5
4C7
100
AcDbEntity
  8
0
100
AcDbPolyline
 62
7
  6
CONTINUOUS
 90
7
 70
0
 10
21.9245557012
 20
-19.2508699739
 10
21.9243619529
 20
-19.2454193354
 10
21.9241958313
 20
-19.2399675918
 10
21.9240573426
 20
-19.2345148833
 10
21.9239464921
 20
-19.22906135
 10
21.9238632845
 20
-19.2236071318
 10
21.9238077239
 20
-19.2181523691
  0
LWPOLYLINE
  5
4C8
100
AcDbEntity
  8
0
100
AcDbPolyline
 62
7
  6
CONTINUOUS
 90
16
 70
0
 10
21.9238077239
 20
26.7818476309
 10
21.9252335059
 20
26.846072457
 10
21.9304879004
 20
26.9101046187
 10
21.9395516603
 20
26.9737162217
 10
21.9523778446
 20
27.0366208624
 10
21.9689272884
 20
27.0986568706
 10
21.98920446
 20
27.1597788734
 10
22.0132180428
 20
27.2198737287
 10
22.0408765113
 20
27.2785936904
 10
22.0720139125
 20
27.3355491859
 10
22.1065110589
 20
27.3905265817
 10
22.1442471955
 20
27.4433373946
 10
22.1849816989
 20
27.4936714796
 10
22.2285084754
 20
27.541328942
 10
22.2746827509
 20
27.5862022549
 10
22.3233204555
 20
27.628153798
  0
LINE
  5
4C9
100
AcDbEntity
  8
DRAFT
100
AcDbLine
 62
7
  6
CONTINUOUS
 10
9.5293414105
 20
-34.7167603924
 11
9.5106325477
 21
-34.7661320475
  0
LINE
  5
4CA
100
AcDbEntity
  8
DRAFT
100
AcDbLine
 62
7
  6
CONTINUOUS
 10
1.0334206473
 20
-32.3703226294
 11
1.0718922587
 21
-32.3179513113
  0
LWPOLYLINE
  5
4CB
100
AcDbEntity
  8
0
100
AcDbPolyline
 62
7
  6
CONTINUOUS
 90
14
 70
0
 10
-23.3398118692
 20
25.0651566597
 10
-23.2242644175
 20
25.0462769846
 10
-23.1077131633
 20
25.0351656702
 10
-22.9906797864
 20
25.0318724507
 10
-22.8736881246
 20
25.0364120669
 10
-22.757261829
 20
25.0487642
 10
-22.6419220202
 20
25.0688735626
 10
-22.5281849558
 20
25.0966501462
 10
-22.4165597196
 20
25.1319696239
 10
-22.3075459428
 20
25.1746739074
 10
-22.2016315681
 20
25.2245718538
 10
-22.0992906652
 20
25.2814401217
 10
-22.0009813092
 20
25.3450241709
 10
-21.9071435302
 20
25.4150394014
  0
LINE
  5
4CC
100
AcDbEntity
  8
0
100
AcDbLine
 62
7
  6
CONTINUOUS
 10
-23.4538383317
 20
25.0917201903
 11
-23.3398118692
 21
25.0651566597
  0
LWPOLYLINE
  5
4CD
100
AcDbEntity
  8
0
100
AcDbPolyline
 62
7
  6
CONTINUOUS
 90
7
 70
0
 10
21.9245557012
 20
26.7491300261
 10
21.9243619529
 20
26.7545806646
 10
21.9241958313
 20
26.7600324082
 10
21.9240573426
 20
26.7654851167
 10
21.9239464921
 20
26.77093865
 10
21.9238632845
 20
26.7763928682
 10
21.9238077239
 20
26.7818476309
  0
LWPOLYLINE
  5
4CE
100
AcDbEntity
  8
0
100
AcDbPolyline
 62
7
  6
CONTINUOUS
 90
7
 70
0
 10
24.0754442988
 20
-19.1854347642
 10
24.0756380471
 20
-19.1908854028
 10
24.0758041687
 20
-19.1963371463
 10
24.0759426574
 20
-19.2017898548
 10
24.0760535079
 20
-19.2072433882
 10
24.0761367155
 20
-19.2126976063
 10
24.0761922761
 20
-19.2181523691
  0
LWPOLYLINE
  5
4CF
100
AcDbEntity
  8
0
100
AcDbPolyline
 62
7
  6
CONTINUOUS
 90
7
 70
0
 10
24.0754442988
 20
26.8145652358
 10
24.0756380471
 20
26.8091145972
 10
24.0758041687
 20
26.8036628537
 10
24.0759426574
 20
26.7982101452
 10
24.0760535079
 20
26.7927566118
 10
24.0761367155
 20
26.7873023937
 10
24.0761922761
 20
26.7818476309
  0
LWPOLYLINE
  5
4D0
100
AcDbEntity
  8
0
100
AcDbPolyline
 62
7
  6
CONTINUOUS
 90
16
 70
0
 10
21.9238077239
 20
-19.2181523691
 10
21.9252335059
 20
-19.153927543
 10
21.9304879004
 20
-19.0898953813
 10
21.9395516603
 20
-19.0262837783
 10
21.9523778446
 20
-18.9633791376
 10
21.9689272884
 20
-18.9013431294
 10
21.98920446
 20
-18.8402211266
 10
22.0132180428
 20
-18.7801262713
 10
22.0408765113
 20
-18.7214063096
 10
22.0720139125
 20
-18.6644508141
 10
22.1065110589
 20
-18.6094734183
 10
22.1442471955
 20
-18.5566626054
 10
22.1849816989
 20
-18.5063285204
 10
22.2285084754
 20
-18.458671058
 10
22.2746827509
 20
-18.4137977451
 10
22.3233204555
 20
-18.371846202
  0
LWPOLYLINE
  5
4D1
100
AcDbEntity
  8
0
100
AcDbPolyline
 62
7
  6
CONTINUOUS
 90
16
 70
0
 10
24.0761922761
 20
26.7818476309
 10
24.074766134
 20
26.7176158921
 10
24.0695105807
 20
26.6535771035
 10
24.0604449109
 20
26.5899592279
 10
24.0476159338
 20
26.5270479395
 10
24.0310629629
 20
26.4650057809
 10
24.0107824242
 20
26.4038804788
 10
23.9867662497
 20
26.3437854087
 10
23.959106322
 20
26.2850677995
 10
23.9279697163
 20
26.2281181579
 10
23.8934782947
 20
26.1731527938
 10
23.8557516807
 20
26.1203563904
 10
23.8150246109
 20
26.0700311188
 10
23.7715000225
 20
26.0223750846
 10
23.7253238758
 20
25.9774990746
 10
23.6766795445
 20
25.9355414639
  0
LWPOLYLINE
  5
4D2
100
AcDbEntity
  8
0
100
AcDbPolyline
 62
7
  6
CONTINUOUS
 90
16
 70
0
 10
24.0761922761
 20
-19.2181523691
 10
24.074766134
 20
-19.2823841079
 10
24.0695105807
 20
-19.3464228965
 10
24.0604449109
 20
-19.4100407721
 10
24.0476159338
 20
-19.4729520605
 10
24.0310629629
 20
-19.5349942191
 10
24.0107824242
 20
-19.5961195212
 10
23.9867662497
 20
-19.6562145913
 10
23.959106322
 20
-19.7149322005
 10
23.9279697163
 20
-19.7718818421
 10
23.8934782947
 20
-19.8268472062
 10
23.8557516807
 20
-19.8796436096
 10
23.8150246109
 20
-19.9299688812
 10
23.7715000225
 20
-19.9776249154
 10
23.7253238758
 20
-20.0225009254
 10
23.6766795445
 20
-20.0644585361
  0
LINE
  5
4D3
100
AcDbEntity
  8
DRAFT
100
AcDbLine
 62
7
  6
CONTINUOUS
 10
6.0334206473
 20
-32.3703226294
 11
6.0718922587
 21
-32.3179513113
  0
LWPOLYLINE
  5
4D4
100
AcDbEntity
  8
RACCORDO
100
AcDbPolyline
 62
7
  6
CONTINUOUS
 90
13
 70
0
 10
18.4707930736
 20
-14.1414425591
 10
18.3657702806
 20
-14.2570165994
 10
18.2554127183
 20
-14.3665219348
 10
18.1397203867
 20
-14.4699585652
 10
18.018321978
 20
-14.5676086828
 10
17.8915888
 20
-14.6591900955
 10
17.7606347762
 20
-14.7438562266
 10
17.6254108879
 20
-14.8215267184
 10
17.4859661538
 20
-14.8922819286
 10
17.3435615535
 20
-14.9555163543
 10
17.1986174133
 20
-15.0110281611
 10
17.0507134069
 20
-15.0590191833
 10
16.8998495341
 20
-15.099489421
  0
LWPOLYLINE
  5
4D5
100
AcDbEntity
  8
0
100
AcDbPolyline
 62
7
  6
CONTINUOUS
 90
14
 70
0
 10
-22.6601881308
 20
28.4985386022
 10
-22.7757355825
 20
28.5174182773
 10
-22.8922868367
 20
28.5285295917
 10
-23.0093202136
 20
28.5318228111
 10
-23.1263118754
 20
28.5272831949
 10
-23.242738171
 20
28.5149310618
 10
-23.3580779798
 20
28.4948216993
 10
-23.4718150442
 20
28.4670451157
 10
-23.5834402804
 20
28.4317256379
 10
-23.6924540572
 20
28.3890213545
 10
-23.7983684319
 20
28.3391234081
 10
-23.9007093348
 20
28.2822551402
 10
-23.9990186908
 20
28.2186710909
 10
-24.0928564698
 20
28.1486558605
  0
LINE
  5
4D6
100
AcDbEntity
  8
0
100
AcDbLine
 62
7
  6
CONTINUOUS
 10
-22.5461616683
 20
28.4719750716
 11
-22.6601881308
 21
28.4985386022
  0
LWPOLYLINE
  5
4D7
100
AcDbEntity
  8
0
100
AcDbPolyline
 62
7
  6
CONTINUOUS
 90
18
 70
0
 10
21.9071435302
 20
-17.8513441395
 10
21.8631123209
 20
-17.9374018583
 10
21.824976484
 20
-18.0242950387
 10
21.7927015886
 20
-18.1116484541
 10
21.7662303914
 20
-18.1990928232
 10
21.7454833676
 20
-18.286266154
 10
21.7303593174
 20
-18.3728150479
 10
21.7207360486
 20
-18.4583959609
 10
21.7164711305
 20
-18.5426764164
 10
21.717402716
 20
-18.6253361667
 10
21.72335043
 20
-18.706068298
 10
21.7341163182
 20
-18.7845802769
 10
21.749485855
 20
-18.8605949341
 10
21.7692290049
 20
-18.9338513813
 10
21.7931013336
 20
-19.0041058612
 10
21.8208451652
 20
-19.0711325239
 10
21.8521907798
 20
-19.1347241314
 10
21.8868576488
 20
-19.1946926847
  0
LWPOLYLINE
  5
4D8
100
AcDbEntity
  8
0
100
AcDbPolyline
 62
7
  6
CONTINUOUS
 90
34
 70
0
 10
21.907266566
 20
-17.8514888813
 10
21.8226181484
 20
-17.9234431474
 10
21.7386820991
 20
-18.005066574
 10
21.6603916645
 20
-18.0921197316
 10
21.5880972698
 20
-18.1842129734
 10
21.5221225026
 20
-18.2809340934
 10
21.4627626639
 20
-18.3818501713
 10
21.4102834463
 20
-18.4865095105
 10
21.3649197454
 20
-18.5944436593
 10
21.3268746077
 20
-18.7051695083
 10
21.2963183223
 20
-18.8181914525
 10
21.2733876582
 20
-18.9330036095
 10
21.2581852526
 20
-19.0490920841
 10
21.2507791513
 20
-19.1659372683
 10
21.251202504
 20
-19.2830161669
 10
21.259453416
 20
-19.3998047387
 10
21.2754949569
 20
-19.515780242
 10
21.2992553255
 20
-19.6304235742
 10
21.3306281714
 20
-19.7432215956
 10
21.3694730712
 20
-19.8536694258
 10
21.4156161567
 20
-19.9612727039
 10
21.4688508931
 20
-20.065549801
 10
21.5289390039
 20
-20.1660339762
 10
21.5956115369
 20
-20.2622754653
 10
21.6685700683
 20
-20.3538434945
 10
21.7474880382
 20
-20.440328208
 10
21.8320122127
 20
-20.5213425028
 10
21.9217642645
 20
-20.5965237612
 10
22.0163424665
 20
-20.6655354742
 10
22.1153234899
 20
-20.7280687471
 10
22.218264299
 20
-20.7838436829
 10
22.324704134
 20
-20.8326106343
 10
22.4341665739
 20
-20.8741513216
 10
22.5461616683
 20
-20.9082798097
  0
LWPOLYLINE
  5
4D9
100
AcDbEntity
  8
0
100
AcDbPolyline
 62
7
  6
CONTINUOUS
 90
22
 70
0
 10
22.3233204555
 20
-18.371846202
 10
22.3805492226
 20
-18.3252171005
 10
22.4411552229
 20
-18.2823602984
 10
22.5048970777
 20
-18.2435306661
 10
22.5716484554
 20
-18.2089041232
 10
22.6410034789
 20
-18.1787871191
 10
22.7122326466
 20
-18.1535224326
 10
22.7849131144
 20
-18.1332274738
 10
22.8587700609
 20
-18.1179468196
 10
22.9332395981
 20
-18.1077511481
 10
23.0077537291
 20
-18.102628766
 10
23.082177448
 20
-18.1025000228
 10
23.1566006787
 20
-18.1073398286
 10
23.2307523704
 20
-18.1171541529
 10
23.3042390918
 20
-18.1319146272
 10
23.3769645071
 20
-18.151644387
 10
23.4487705781
 20
-18.1763893968
 10
23.5191250612
 20
-18.2060575953
 10
23.5873851571
 20
-18.2404136836
 10
23.6531463426
 20
-18.2792397221
 10
23.7162169693
 20
-18.322407442
 10
23.7763157296
 20
-18.3697221197
  0
LINE
  5
4DA
100
AcDbEntity
  8
DRAFT
100
AcDbLine
 62
7
  6
CONTINUOUS
 10
-9.45
 20
-33.3365649376
 11
-9.5589474582
 21
-33.3759125072
  0
LWPOLYLINE
  5
4DB
100
AcDbEntity
  8
0
100
AcDbPolyline
 62
7
  6
CONTINUOUS
 90
14
 70
0
 10
22.6601881308
 20
25.0651566597
 10
22.7757355825
 20
25.0462769846
 10
22.8922868367
 20
25.0351656702
 10
23.0093202136
 20
25.0318724507
 10
23.1263118754
 20
25.0364120669
 10
23.242738171
 20
25.0487642
 10
23.3580779798
 20
25.0688735626
 10
23.4718150442
 20
25.0966501462
 10
23.5834402804
 20
25.1319696239
 10
23.6924540572
 20
25.1746739074
 10
23.7983684319
 20
25.2245718538
 10
23.9007093348
 20
25.2814401217
 10
23.9990186908
 20
25.3450241709
 10
24.0928564698
 20
25.4150394014
  0
LWPOLYLINE
  5
4DC
100
AcDbEntity
  8
0
100
AcDbPolyline
 62
7
  6
CONTINUOUS
 90
18
 70
0
 10
24.0928564698
 20
-20.5849605986
 10
24.1368876791
 20
-20.4989028798
 10
24.175023516
 20
-20.4120096994
 10
24.2072984114
 20
-20.3246562841
 10
24.2337696086
 20
-20.2372119149
 10
24.2545166324
 20
-20.1500385841
 10
24.2696406826
 20
-20.0634896902
 10
24.2792639514
 20
-19.9779087773
 10
24.2835288695
 20
-19.8936283217
 10
24.282597284
 20
-19.8109685714
 10
24.27664957
 20
-19.7302364401
 10
24.2658836818
 20
-19.6517244612
 10
24.250514145
 20
-19.5757098041
 10
24.2307709951
 20
-19.5024533568
 10
24.2068986664
 20
-19.4321988769
 10
24.1791548348
 20
-19.3651722142
 10
24.1478092202
 20
-19.3015806068
 10
24.1131423512
 20
-19.2416120535
  0
LINE
  5
4DD
100
AcDbEntity
  8
DRAFT
100
AcDbLine
 62
7
  6
CONTINUOUS
 10
11.75
 20
-34.8800785465
 11
11.7053068066
 21
-34.939045489
  0
LWPOLYLINE
  5
4DE
100
AcDbEntity
  8
0
100
AcDbPolyline
 62
7
  6
CONTINUOUS
 90
34
 70
0
 10
24.092733434
 20
-20.5848158568
 10
24.1773818516
 20
-20.5128615907
 10
24.2613179009
 20
-20.4312381641
 10
24.3396083355
 20
-20.3441850066
 10
24.4119027302
 20
-20.2520917648
 10
24.4778774974
 20
-20.1553706447
 10
24.5372373361
 20
-20.0544545668
 10
24.5897165537
 20
-19.9497952277
 10
24.6350802546
 20
-19.8418610789
 10
24.6731253923
 20
-19.7311352299
 10
24.7036816777
 20
-19.6181132857
 10
24.7266123418
 20
-19.5033011286
 10
24.7418147474
 20
-19.387212654
 10
24.7492208487
 20
-19.2703674698
 10
24.748797496
 20
-19.1532885712
 10
24.740546584
 20
-19.0364999994
 10
24.7245050431
 20
-18.9205244961
 10
24.7007446745
 20
-18.8058811639
 10
24.6693718286
 20
-18.6930831426
 10
24.6305269288
 20
-18.5826353124
 10
24.5843838433
 20
-18.4750320343
 10
24.5311491069
 20
-18.3707549371
 10
24.4710609961
 20
-18.270270762
 10
24.4043884631
 20
-18.1740292728
 10
24.3314299317
 20
-18.0824612436
 10
24.2525119618
 20
-17.9959765301
 10
24.1679877873
 20
-17.9149622354
 10
24.0782357355
 20
-17.8397809769
 10
23.9836575335
 20
-17.770769264
 10
23.8846765101
 20
-17.708235991
 10
23.781735701
 20
-17.6524610552
 10
23.675295866
 20
-17.6036941039
 10
23.5658334261
 20
-17.5621534165
 10
23.4538383317
 20
-17.5280249284
  0
LWPOLYLINE
  5
4DF
100
AcDbEntity
  8
0
100
AcDbPolyline
 62
7
  6
CONTINUOUS
 90
22
 70
0
 10
23.6766795445
 20
-20.0644585361
 10
23.6194407739
 20
-20.1110952367
 10
23.558829182
 20
-20.1539546878
 10
23.4950870311
 20
-20.1927830219
 10
23.4283412281
 20
-20.2274055242
 10
23.3589984042
 20
-20.2575168773
 10
23.2877890292
 20
-20.2827754451
 10
23.2151441195
 20
-20.3030633708
 10
23.1413309515
 20
-20.3183405794
 10
23.0668893614
 20
-20.3285403552
 10
22.9923736468
 20
-20.3336714931
 10
22.9179309666
 20
-20.3338081372
 10
22.8434857289
 20
-20.3289734228
 10
22.7693116515
 20
-20.3191612374
 10
22.6958001259
 20
-20.3043993553
 10
22.6230547556
 20
-20.2846662735
 10
22.5512362215
 20
-20.2599179427
 10
22.4808740023
 20
-20.2302467103
 10
22.4126097218
 20
-20.1958882578
 10
22.3468473598
 20
-20.1570610079
 10
22.2837785743
 20
-20.1138940223
 10
22.2236842704
 20
-20.0665826184
  0
LINE
  5
4E0
100
AcDbEntity
  8
DRAFT
100
AcDbLine
 62
7
  6
CONTINUOUS
 10
-3.85
 20
-33.3365649376
 11
-3.9589474582
 21
-33.3759125072
  0
LINE
  5
4E1
100
AcDbEntity
  8
DRAFT
100
AcDbLine
 62
7
  6
CONTINUOUS
 10
1.15
 20
-33.3365649376
 11
1.0410525418
 21
-33.3759125072
  0
LWPOLYLINE
  5
4E2
100
AcDbEntity
  8
0
100
AcDbPolyline
 62
7
  6
CONTINUOUS
 90
14
 70
0
 10
23.3398118692
 20
28.4985386022
 10
23.2242644175
 20
28.5174182773
 10
23.1077131633
 20
28.5285295917
 10
22.9906797864
 20
28.5318228111
 10
22.8736881246
 20
28.5272831949
 10
22.757261829
 20
28.5149310618
 10
22.6419220202
 20
28.4948216993
 10
22.5281849558
 20
28.4670451157
 10
22.4165597196
 20
28.4317256379
 10
22.3075459428
 20
28.3890213545
 10
22.2016315681
 20
28.3391234081
 10
22.0992906652
 20
28.2822551402
 10
22.0009813092
 20
28.2186710909
 10
21.9071435302
 20
28.1486558605
  0
LINE
  5
4E3
100
AcDbEntity
  8
0
100
AcDbLine
 62
7
  6
CONTINUOUS
 10
22.5461616683
 20
25.0917201903
 11
22.6601881308
 21
25.0651566597
  0
LINE
  5
4E4
100
AcDbEntity
  8
DRAFT
100
AcDbLine
 62
7
  6
CONTINUOUS
 10
6.15
 20
-33.3365649376
 11
6.0410525418
 21
-33.3759125072
  0
LINE
  5
4E5
100
AcDbEntity
  8
0
100
AcDbLine
 62
7
  6
CONTINUOUS
 10
23.4538383317
 20
28.4719750716
 11
23.3398118692
 21
28.4985386022
  0
LINE
  5
4E6
100
AcDbEntity
  8
0
100
AcDbLine
 62
7
  6
CONTINUOUS
 10
23.6766795445
 20
25.9355414639
 11
24.0928564698
 21
25.4150394014
  0
LINE
  5
4E7
100
AcDbEntity
  8
0
100
AcDbLine
 62
7
  6
CONTINUOUS
 10
22.3233204555
 20
27.628153798
 11
21.9071435302
 21
28.1486558605
  0
LINE
  5
4E8
100
AcDbEntity
  8
0
100
AcDbLine
 62
7
  6
CONTINUOUS
 10
21.8868576488
 20
26.8053073153
 11
21.9245557012
 21
26.7491300261
  0
LINE
  5
4E9
100
AcDbEntity
  8
0
100
AcDbLine
 62
7
  6
CONTINUOUS
 10
24.1131423512
 20
26.7583879465
 11
24.0754442988
 21
26.8145652358
  0
ARC
  5
4EA
100
AcDbEntity
  8
DRAFT
100
AcDbCircle
 62
7
  6
CONTINUOUS
 10
-7.5777222831
 20
-2.5931523691
 40
7.4124433176
100
AcDbArc
 50
180.941647677
 51
292.1823573707
  0
ARC
  5
4EB
100
AcDbEntity
  8
DRAFT
100
AcDbCircle
 62
7
  6
CONTINUOUS
 10
-7.5777222831
 20
-2.5931523691
 40
6.975
100
AcDbArc
 50
198.54196365
 51
221.4182421467
  0
ARC
  5
4EC
100
AcDbEntity
  8
DRAFT
100
AcDbCircle
 62
7
  6
CONTINUOUS
 10
-7.5777222831
 20
-2.5931523691
 40
6.975
100
AcDbArc
 50
241.825640089
 51
293.6509523271
  0
ARC
  5
4ED
100
AcDbEntity
  8
ASSI
100
AcDbCircle
 62
7
  6
CONTINUOUS
 10
-7.5777222831
 20
-2.5931523691
 40
4.65
100
AcDbArc
 50
238.3033731928
 51
301.6966268072
  0
ARC
  5
4EE
100
AcDbEntity
  8
RACCORDO
100
AcDbCircle
 62
7
  6
CONTINUOUS
 10
-23.5125276742
 20
-19.7306800433
 40
4.5
100
AcDbArc
 50
195.6796757936
 51
254.3203242064
  0
ARC
  5
4EF
100
AcDbEntity
  8
RACCORDO
100
AcDbCircle
 62
7
  6
CONTINUOUS
 10
-7.58
 20
-2.5981523691
 40
3.95
100
AcDbArc
 50
262.7685670737
 51
277.2314329263
  0
ARC
  5
4F0
100
AcDbEntity
  8
RACCORDO
100
AcDbCircle
 62
7
  6
CONTINUOUS
 10
-7.58
 20
-2.5981523691
 40
3.95
100
AcDbArc
 50
299.8128774547
 51
360.0
  0
ARC
  5
4F1
100
AcDbEntity
  8
DRAFT
100
AcDbCircle
 62
7
  6
CONTINUOUS
 10
-7.58
 20
-2.5981523691
 40
3.95
100
AcDbArc
 50
0.0
 51
180.0
  0
ARC
  5
4F2
100
AcDbEntity
  8
RACCORDO
100
AcDbCircle
 62
7
  6
CONTINUOUS
 10
-7.58
 20
-2.5981523691
 40
3.95
100
AcDbArc
 50
180.0
 51
240.1871225453
  0
CIRCLE
  5
4F3
100
AcDbEntity
  8
RACCORDO
100
AcDbCircle
 62
253
  6
CONTINUOUS
 10
-7.58
 20
-2.5981523691
 40
3.8590813459
  0
CIRCLE
  5
4F4
100
AcDbEntity
  8
RACCORDO
100
AcDbCircle
 62
253
  6
CONTINUOUS
 10
-7.58
 20
-2.5981523691
 40
3.3591574984
  0
CIRCLE
  5
4F5
100
AcDbEntity
  8
DRAFT
100
AcDbCircle
 62
7
  6
CONTINUOUS
 10
-7.58
 20
-2.5981523691
 40
2.2709460779
  0
CIRCLE
  5
4F6
100
AcDbEntity
  8
DRAFT
100
AcDbCircle
 62
7
  6
CONTINUOUS
 10
-7.58
 20
-2.5981523691
 40
2.25
  0
ARC
  5
4F7
100
AcDbEntity
  8
0
100
AcDbCircle
 62
253
  6
CONTINUOUS
 10
-7.5777222831
 20
-2.5931523691
 40
2.1380973484
100
AcDbArc
 50
106.2974105655
 51
253.7025894345
  0
ARC
  5
4F8
100
AcDbEntity
  8
0
100
AcDbCircle
 62
253
  6
CONTINUOUS
 10
-7.5777222831
 20
-2.5931523691
 40
2.1380973484
100
AcDbArc
 50
286.2974105655
 51
73.7025894345
  0
ARC
  5
4F9
100
AcDbEntity
  8
0
100
AcDbCircle
 62
7
  6
CONTINUOUS
 10
-23.0
 20
-19.2181523691
 40
1.15
100
AcDbArc
 50
355.8924457641
 51
47.5414111331
  0
ARC
  5
4FA
100
AcDbEntity
  8
0
100
AcDbCircle
 62
7
  6
CONTINUOUS
 10
-23.0
 20
-19.2181523691
 40
1.15
100
AcDbArc
 50
175.8924457641
 51
227.5414111331
  0
CIRCLE
  5
4FB
100
AcDbEntity
  8
0
100
AcDbCircle
 62
7
  6
CONTINUOUS
 10
-23.0
 20
-19.2181523691
 40
1.0
  0
ARC
  5
4FC
100
AcDbEntity
  8
RACCORDO
100
AcDbCircle
 62
7
  6
CONTINUOUS
 10
-60.25
 20
3.7818476309
 40
91.5
100
AcDbArc
 50
344.3203242064
 51
15.6796757936
  0
ARC
  5
4FD
100
AcDbEntity
  8
RACCORDO
100
AcDbCircle
 62
7
  6
CONTINUOUS
 10
-23.5125276742
 20
27.2943753051
 40
4.5
100
AcDbArc
 50
105.6796757936
 51
164.3203242064
  0
CIRCLE
  5
4FE
100
AcDbEntity
  8
RACCORDO
100
AcDbCircle
 62
253
  6
CONTINUOUS
 10
-11.75
 20
4.2818476309
 40
2.9480395106
  0
CIRCLE
  5
4FF
100
AcDbEntity
  8
RACCORDO
100
AcDbCircle
 62
253
  6
CONTINUOUS
 10
-11.75
 20
4.2818476309
 40
2.6980775868
  0
ARC
  5
500
100
AcDbEntity
  8
0
100
AcDbCircle
 62
253
  6
CONTINUOUS
 10
-11.75
 20
4.2818476309
 40
2.4147882424
100
AcDbArc
 50
281.9499693247
 51
78.0500306753
  0
ARC
  5
501
100
AcDbEntity
  8
0
100
AcDbCircle
 62
253
  6
CONTINUOUS
 10
-11.75
 20
4.2818476309
 40
2.4147882424
100
AcDbArc
 50
101.9499693247
 51
258.0500306753
  0
ARC
  5
502
100
AcDbEntity
  8
0
100
AcDbCircle
 62
7
  6
CONTINUOUS
 10
-23.0
 20
26.7818476309
 40
1.15
100
AcDbArc
 50
355.8924457641
 51
47.5414111331
  0
ARC
  5
503
100
AcDbEntity
  8
0
100
AcDbCircle
 62
7
  6
CONTINUOUS
 10
-23.0
 20
26.7818476309
 40
1.15
100
AcDbArc
 50
175.8924457641
 51
227.5414111331
  0
CIRCLE
  5
504
100
AcDbEntity
  8
0
100
AcDbCircle
 62
7
  6
CONTINUOUS
 10
-23.0
 20
26.7818476309
 40
1.0
  0
ARC
  5
505
100
AcDbEntity
  8
RACCORDO
100
AcDbCircle
 62
7
  6
CONTINUOUS
 10
-0.0
 20
-56.4681523691
 40
91.5
100
AcDbArc
 50
74.3203242064
 51
105.6796757936
  0
ARC
  5
506
100
AcDbEntity
  8
RACCORDO
100
AcDbCircle
 62
7
  6
CONTINUOUS
 10
0.0
 20
1.7818476309
 40
24.3869096983
100
AcDbArc
 50
103.0516069593
 51
220.7639481355
  0
ARC
  5
507
100
AcDbEntity
  8
RACCORDO
100
AcDbCircle
 62
7
  6
CONTINUOUS
 10
0.0
 20
1.7818476309
 40
24.3869096983
100
AcDbArc
 50
319.2360518676
 51
76.9483930407
  0
ARC
  5
508
100
AcDbEntity
  8
RACCORDO
100
AcDbCircle
 62
7
  6
CONTINUOUS
 10
0.0
 20
1.7818476309
 40
24.2202265235
100
AcDbArc
 50
102.8187712683
 51
220.3298032811
  0
ARC
  5
509
100
AcDbEntity
  8
RACCORDO
100
AcDbCircle
 62
7
  6
CONTINUOUS
 10
0.0
 20
1.7818476309
 40
24.2202265235
100
AcDbArc
 50
319.6701962807
 51
77.1812287317
  0
ARC
  5
50A
100
AcDbEntity
  8
RACCORDO
100
AcDbCircle
 62
7
  6
CONTINUOUS
 10
0.0
 20
1.7818476309
 40
23.8869096983
100
AcDbArc
 50
224.9686012512
 51
315.0313987488
  0
ARC
  5
50B
100
AcDbEntity
  8
RACCORDO
100
AcDbCircle
 62
7
  6
CONTINUOUS
 10
0.0
 20
1.7818476309
 40
23.7202265235
100
AcDbArc
 50
224.5657562515
 51
315.4342437485
  0
CIRCLE
  5
50C
100
AcDbEntity
  8
DRAFT
100
AcDbCircle
 62
7
  6
CONTINUOUS
 10
0.0
 20
1.7818476309
 40
16.5947112777
  0
ARC
  5
50D
100
AcDbEntity
  8
DRAFT
100
AcDbCircle
 62
7
  6
CONTINUOUS
 10
0.0
 20
1.7818476309
 40
16.5510769388
100
AcDbArc
 50
10.4572259545
 51
13.5657308182
  0
ARC
  5
50E
100
AcDbEntity
  8
DRAFT
100
AcDbCircle
 62
7
  6
CONTINUOUS
 10
0.0
 20
1.7818476309
 40
16.5510769388
100
AcDbArc
 50
166.4342691818
 51
169.5427740455
  0
ARC
  5
50F
100
AcDbEntity
  8
DRAFT
100
AcDbCircle
 62
7
  6
CONTINUOUS
 10
0.0
 20
1.7818476309
 40
16.25
100
AcDbArc
 50
170.6338819552
 51
9.3661180448
  0
ARC
  5
510
100
AcDbEntity
  8
DRAFT
100
AcDbCircle
 62
7
  6
CONTINUOUS
 10
0.0
 20
1.7818476309
 40
16.25
100
AcDbArc
 50
14.6568387279
 51
165.3431612721
  0
ARC
  5
511
100
AcDbEntity
  8
RACCORDO
100
AcDbCircle
 62
7
  6
CONTINUOUS
 10
0.0
 20
1.7818476309
 40
15.65
100
AcDbArc
 50
258.7762830067
 51
281.223716994
  0
ARC
  5
512
100
AcDbEntity
  8
RACCORDO
100
AcDbCircle
 62
7
  6
CONTINUOUS
 10
0.0
 20
1.7818476309
 40
15.65
100
AcDbArc
 50
107.4072840182
 51
221.4679623183
  0
ARC
  5
513
100
AcDbEntity
  8
RACCORDO
100
AcDbCircle
 62
7
  6
CONTINUOUS
 10
0.0
 20
1.7818476309
 40
15.65
100
AcDbArc
 50
318.5320376817
 51
72.5927159819
  0
ARC
  5
514
100
AcDbEntity
  8
RACCORDO
100
AcDbCircle
 62
7
  6
CONTINUOUS
 10
0.0
 20
1.7818476309
 40
15.5278145455
100
AcDbArc
 50
106.4070451544
 51
107.0608423026
  0
ARC
  5
515
100
AcDbEntity
  8
RACCORDO
100
AcDbCircle
 62
7
  6
CONTINUOUS
 10
0.0
 20
1.7818476309
 40
15.5278145455
100
AcDbArc
 50
72.9391576974
 51
73.5929548456
  0
ARC
  5
516
100
AcDbEntity
  8
RACCORDO
100
AcDbCircle
 62
253
  6
CONTINUOUS
 10
0.0
 20
1.7818476309
 40
15.5049706447
100
AcDbArc
 50
258.2186998081
 51
281.7813001919
  0
ARC
  5
517
100
AcDbEntity
  8
RACCORDO
100
AcDbCircle
 62
253
  6
CONTINUOUS
 10
0.0
 20
1.7818476309
 40
15.5049706447
100
AcDbArc
 50
106.4959955226
 51
221.4158860264
  0
ARC
  5
518
100
AcDbEntity
  8
RACCORDO
100
AcDbCircle
 62
253
  6
CONTINUOUS
 10
0.0
 20
1.7818476309
 40
15.5049706447
100
AcDbArc
 50
318.5841139737
 51
73.5040044774
  0
ARC
  5
519
100
AcDbEntity
  8
RACCORDO
100
AcDbCircle
 62
253
  6
CONTINUOUS
 10
0.0
 20
1.7818476309
 40
15.0050467971
100
AcDbArc
 50
106.4959955226
 51
221.4158860263
  0
ARC
  5
51A
100
AcDbEntity
  8
RACCORDO
100
AcDbCircle
 62
253
  6
CONTINUOUS
 10
0.0
 20
1.7818476309
 40
15.0050467971
100
AcDbArc
 50
318.5841139737
 51
73.5040044774
  0
ARC
  5
51B
100
AcDbEntity
  8
RACCORDO
100
AcDbCircle
 62
253
  6
CONTINUOUS
 10
0.0
 20
1.7818476309
 40
15.0050467971
100
AcDbArc
 50
258.2186998081
 51
281.7813001919
  0
ARC
  5
51C
100
AcDbEntity
  8
DRAFT
100
AcDbCircle
 62
7
  6
CONTINUOUS
 10
7.5777222831
 20
-2.5931523691
 40
7.4124433176
100
AcDbArc
 50
247.8176426094
 51
359.0583523336
  0
ARC
  5
51D
100
AcDbEntity
  8
DRAFT
100
AcDbCircle
 62
7
  6
CONTINUOUS
 10
7.5777222831
 20
-2.5931523691
 40
6.975
100
AcDbArc
 50
246.3490476751
 51
298.1743598039
  0
ARC
  5
51E
100
AcDbEntity
  8
DRAFT
100
AcDbCircle
 62
7
  6
CONTINUOUS
 10
7.5777222831
 20
-2.5931523691
 40
6.975
100
AcDbArc
 50
318.5817578404
 51
341.4580363652
  0
ARC
  5
51F
100
AcDbEntity
  8
ASSI
100
AcDbCircle
 62
7
  6
CONTINUOUS
 10
7.5777222831
 20
-2.5931523691
 40
4.65
100
AcDbArc
 50
238.3033731928
 51
301.6966268072
  0
ARC
  5
520
100
AcDbEntity
  8
RACCORDO
100
AcDbCircle
 62
7
  6
CONTINUOUS
 10
7.58
 20
-2.5981523691
 40
3.95
100
AcDbArc
 50
262.7685670737
 51
277.2314329263
  0
ARC
  5
521
100
AcDbEntity
  8
RACCORDO
100
AcDbCircle
 62
7
  6
CONTINUOUS
 10
7.58
 20
-2.5981523691
 40
3.95
100
AcDbArc
 50
299.8128774547
 51
360.0
  0
ARC
  5
522
100
AcDbEntity
  8
DRAFT
100
AcDbCircle
 62
7
  6
CONTINUOUS
 10
7.58
 20
-2.5981523691
 40
3.95
100
AcDbArc
 50
0.0
 51
180.0
  0
ARC
  5
523
100
AcDbEntity
  8
RACCORDO
100
AcDbCircle
 62
7
  6
CONTINUOUS
 10
7.58
 20
-2.5981523691
 40
3.95
100
AcDbArc
 50
180.0
 51
240.1871225453
  0
CIRCLE
  5
524
100
AcDbEntity
  8
RACCORDO
100
AcDbCircle
 62
253
  6
CONTINUOUS
 10
7.58
 20
-2.5981523691
 40
3.8590813459
  0
CIRCLE
  5
525
100
AcDbEntity
  8
RACCORDO
100
AcDbCircle
 62
253
  6
CONTINUOUS
 10
7.58
 20
-2.5981523691
 40
3.3591574984
  0
CIRCLE
  5
526
100
AcDbEntity
  8
DRAFT
100
AcDbCircle
 62
7
  6
CONTINUOUS
 10
7.58
 20
-2.5981523691
 40
2.2709460779
  0
CIRCLE
  5
527
100
AcDbEntity
  8
DRAFT
100
AcDbCircle
 62
7
  6
CONTINUOUS
 10
7.58
 20
-2.5981523691
 40
2.25
  0
ARC
  5
528
100
AcDbEntity
  8
0
100
AcDbCircle
 62
253
  6
CONTINUOUS
 10
7.5777222831
 20
-2.5931523691
 40
2.1380973484
100
AcDbArc
 50
106.2974105655
 51
253.7025894345
  0
ARC
  5
529
100
AcDbEntity
  8
0
100
AcDbCircle
 62
253
  6
CONTINUOUS
 10
7.5777222831
 20
-2.5931523691
 40
2.1380973484
100
AcDbArc
 50
286.2974105655
 51
73.7025894345
  0
ARC
  5
52A
100
AcDbEntity
  8
RACCORDO
100
AcDbCircle
 62
7
  6
CONTINUOUS
 10
23.5125276742
 20
-19.7306800433
 40
4.5
100
AcDbArc
 50
285.6796757936
 51
344.3203242064
  0
ARC
  5
52B
100
AcDbEntity
  8
0
100
AcDbCircle
 62
7
  6
CONTINUOUS
 10
23.0
 20
-19.2181523691
 40
1.15
100
AcDbArc
 50
355.8924457641
 51
47.5414111331
  0
ARC
  5
52C
100
AcDbEntity
  8
0
100
AcDbCircle
 62
7
  6
CONTINUOUS
 10
23.0
 20
-19.2181523691
 40
1.15
100
AcDbArc
 50
175.8924457641
 51
227.5414111331
  0
CIRCLE
  5
52D
100
AcDbEntity
  8
0
100
AcDbCircle
 62
7
  6
CONTINUOUS
 10
23.0
 20
-19.2181523691
 40
1.0
  0
CIRCLE
  5
52E
100
AcDbEntity
  8
ASSI
100
AcDbCircle
 62
7
  6
CONTINUOUS
 10
0.0
 20
3.7818476309
 40
27.7
  0
ARC
  5
52F
100
AcDbEntity
  8
SMUSSO
100
AcDbCircle
 62
7
  6
CONTINUOUS
 10
0.0
 20
10.5318476309
 40
6.75
100
AcDbArc
 50
58.3257804948
 51
121.6742555032
  0
ARC
  5
530
100
AcDbEntity
  8
DRAFT
100
AcDbCircle
 62
7
  6
CONTINUOUS
 10
0.0
 20
23.9318476309
 40
5.7369096983
100
AcDbArc
 50
16.2663349979
 51
163.7336650021
  0
ARC
  5
531
100
AcDbEntity
  8
ASSI
100
AcDbCircle
 62
7
  6
CONTINUOUS
 10
0.0
 20
10.5318476309
 40
5.65
100
AcDbArc
 50
58.7858569435
 51
121.2141238918
  0
ARC
  5
532
100
AcDbEntity
  8
DRAFT
100
AcDbCircle
 62
7
  6
CONTINUOUS
 10
0.0
 20
23.9318476309
 40
5.5702265235
100
AcDbArc
 50
15.2653056086
 51
164.7346943914
  0
ARC
  5
533
100
AcDbEntity
  8
0
100
AcDbCircle
 62
7
  6
CONTINUOUS
 10
0.0
 20
10.5318476309
 40
4.65
100
AcDbArc
 50
68.4108861316
 51
111.5890252791
  0
ARC
  5
534
100
AcDbEntity
  8
RACCORDO
100
AcDbCircle
 62
7
  6
CONTINUOUS
 10
0.0
 20
10.5318476309
 40
4.5
100
AcDbArc
 50
76.198317632
 51
103.801682368
  0
ARC
  5
535
100
AcDbEntity
  8
RACCORDO
100
AcDbCircle
 62
7
  6
CONTINUOUS
 10
23.5125276742
 20
27.2943753051
 40
4.5
100
AcDbArc
 50
15.6796757936
 51
74.3203242064
  0
ARC
  5
536
100
AcDbEntity
  8
RACCORDO
100
AcDbCircle
 62
253
  6
CONTINUOUS
 10
0.0
 20
10.5318476309
 40
4.0
100
AcDbArc
 50
76.1983176264
 51
103.8016823736
  0
CIRCLE
  5
537
100
AcDbEntity
  8
DRAFT
100
AcDbCircle
 62
7
  6
CONTINUOUS
 10
0.0
 20
10.5318476309
 40
3.95
  0
CIRCLE
  5
538
100
AcDbEntity
  8
RACCORDO
100
AcDbCircle
 62
253
  6
CONTINUOUS
 10
0.0
 20
10.5318476309
 40
3.8590813459
  0
CIRCLE
  5
539
100
AcDbEntity
  8
RACCORDO
100
AcDbCircle
 62
253
  6
CONTINUOUS
 10
0.0
 20
10.5318476309
 40
3.3591574984
  0
CIRCLE
  5
53A
100
AcDbEntity
  8
RACCORDO
100
AcDbCircle
 62
253
  6
CONTINUOUS
 10
11.75
 20
4.2818476309
 40
2.9480395106
  0
CIRCLE
  5
53B
100
AcDbEntity
  8
ASSI
100
AcDbCircle
 62
7
  6
CONTINUOUS
 10
8.0
 20
9.7818476309
 40
2.8
  0
CIRCLE
  5
53C
100
AcDbEntity
  8
RACCORDO
100
AcDbCircle
 62
253
  6
CONTINUOUS
 10
11.75
 20
4.2818476309
 40
2.6980775868
  0
CIRCLE
  5
53D
100
AcDbEntity
  8
ASSI
100
AcDbCircle
 62
7
  6
CONTINUOUS
 10
8.0
 20
9.7818476309
 40
2.5
  0
ARC
  5
53E
100
AcDbEntity
  8
0
100
AcDbCircle
 62
253
  6
CONTINUOUS
 10
11.75
 20
4.2818476309
 40
2.4147882424
100
AcDbArc
 50
281.9499693247
 51
78.0500306753
  0
ARC
  5
53F
100
AcDbEntity
  8
0
100
AcDbCircle
 62
253
  6
CONTINUOUS
 10
11.75
 20
4.2818476309
 40
2.4147882424
100
AcDbArc
 50
101.9499693247
 51
258.0500306753
  0
CIRCLE
  5
540
100
AcDbEntity
  8
DRAFT
100
AcDbCircle
 62
7
  6
CONTINUOUS
 10
0.0
 20
10.5318476309
 40
2.2709460779
  0
CIRCLE
  5
541
100
AcDbEntity
  8
DRAFT
100
AcDbCircle
 62
7
  6
CONTINUOUS
 10
0.0
 20
10.5318476309
 40
2.25
  0
ARC
  5
542
100
AcDbEntity
  8
0
100
AcDbCircle
 62
253
  6
CONTINUOUS
 10
0.0
 20
10.5318476309
 40
2.1380973484
100
AcDbArc
 50
106.2974105655
 51
253.7025894345
  0
ARC
  5
543
100
AcDbEntity
  8
0
100
AcDbCircle
 62
253
  6
CONTINUOUS
 10
0.0
 20
10.5318476309
 40
2.1380973484
100
AcDbArc
 50
286.2974105655
 51
73.7025894345
  0
ARC
  5
544
100
AcDbEntity
  8
0
100
AcDbCircle
 62
7
  6
CONTINUOUS
 10
23.0
 20
26.7818476309
 40
1.15
100
AcDbArc
 50
355.8924457641
 51
47.5414111331
  0
ARC
  5
545
100
AcDbEntity
  8
0
100
AcDbCircle
 62
7
  6
CONTINUOUS
 10
23.0
 20
26.7818476309
 40
1.15
100
AcDbArc
 50
175.8924457641
 51
227.5414111331
  0
CIRCLE
  5
546
100
AcDbEntity
  8
0
100
AcDbCircle
 62
7
  6
CONTINUOUS
 10
23.0
 20
26.7818476309
 40
1.0
  0
ARC
  5
547
100
AcDbEntity
  8
RACCORDO
100
AcDbCircle
 62
7
  6
CONTINUOUS
 10
0.0
 20
64.0318476309
 40
91.5
100
AcDbArc
 50
254.3203242064
 51
285.6796757936
  0
ARC
  5
548
100
AcDbEntity
  8
RACCORDO
100
AcDbCircle
 62
7
  6
CONTINUOUS
 10
60.25
 20
3.7818476309
 40
91.5
100
AcDbArc
 50
164.3203242064
 51
195.6796757936
  0
ELLIPSE
  5
549
100
AcDbEntity
  8
DRAFT
100
AcDbEllipse
 62
7
  6
CONTINUOUS
 10
11.6278145455
 20
-29.4681523691
 30
0.0
 11
-0.0001557446
 21
1.6
 31
0.0
 40
0.0174547935
 41
-4.60632737
 42
-3.1471693097
  0
ELLIPSE
  5
54A
100
AcDbEntity
  8
DRAFT
100
AcDbEllipse
 62
7
  6
CONTINUOUS
 10
9.5285418101
 20
-29.4681523691
 30
0.0
 11
0.0000778486
 21
1.6
 31
0.0
 40
0.0087267322
 41
-3.136017272
 42
-1.6768592145
  0
ELLIPSE
  5
54B
100
AcDbEntity
  8
DRAFT
100
AcDbEllipse
 62
7
  6
CONTINUOUS
 10
-9.5285418101
 20
-29.4681523691
 30
0.0
 11
-0.0000778486
 21
1.6
 31
0.0
 40
0.0087267322
 41
-4.6063260927
 42
-3.1471680352
  0
ELLIPSE
  5
54C
100
AcDbEntity
  8
DRAFT
100
AcDbEllipse
 62
7
  6
CONTINUOUS
 10
-11.6278145455
 20
-29.4681523691
 30
0.0
 11
0.0001557446
 21
1.6
 31
0.0
 40
0.0174547935
 41
-3.1360159975
 42
-1.6768579372
  0
ELLIPSE
  5
54D
100
AcDbEntity
  8
RACCORDO
100
AcDbEllipse
 62
7
  6
CONTINUOUS
 10
11.5829550286
 20
-32.3104861934
 30
0.0
 11
0.0007300529
 21
7.5
 31
0.0
 40
0.0174547935
 41
-2.421791386
 42
-1.9288723958
  0
ELLIPSE
  5
54E
100
AcDbEntity
  8
RACCORDO
100
AcDbEllipse
 62
7
  6
CONTINUOUS
 10
-11.5829550286
 20
-32.3104861934
 30
0.0
 11
-0.0007300529
 21
7.5
 31
0.0
 40
0.0174547935
 41
-4.3543129114
 42
-3.8613939212
  0
ELLIPSE
  5
54F
100
AcDbEntity
  8
SMUSSO
100
AcDbEllipse
 62
7
  6
CONTINUOUS
 10
-6.3268994857
 20
-29.4681523691
 30
0.0
 11
5.2509208506
 21
-5.2497213351
 31
0.0
 40
0.0103013601
 41
-1.2598795997
 42
-1.0948125166
  0
ELLIPSE
  5
550
100
AcDbEntity
  8
SMUSSO
100
AcDbEllipse
 62
7
  6
CONTINUOUS
 10
-3.9285418101
 20
-29.4681523691
 30
0.0
 11
-0.0002554407
 21
5.25
 31
0.0
 40
0.0087267322
 41
-4.2261022455
 42
-3.8728505189
  0
ELLIPSE
  5
551
100
AcDbEntity
  8
DRAFT
100
AcDbEllipse
 62
7
  6
CONTINUOUS
 10
-0.2714581899
 20
-29.4681523691
 30
0.0
 11
0.0002554407
 21
5.25
 31
0.0
 40
0.0087267322
 41
-2.4103347882
 42
-2.1565096902
  0
ELLIPSE
  5
552
100
AcDbEntity
  8
DRAFT
100
AcDbEllipse
 62
7
  6
CONTINUOUS
 10
1.0714581899
 20
-29.4681523691
 30
0.0
 11
-0.0002554407
 21
5.25
 31
0.0
 40
0.0087267322
 41
-4.126675617
 42
-3.8728505189
  0
ELLIPSE
  5
553
100
AcDbEntity
  8
DRAFT
100
AcDbEllipse
 62
7
  6
CONTINUOUS
 10
4.7285418101
 20
-29.4681523691
 30
0.0
 11
0.0002554407
 21
5.25
 31
0.0
 40
0.0087267322
 41
-2.4103347882
 42
-2.1565096902
  0
ELLIPSE
  5
554
100
AcDbEntity
  8
DRAFT
100
AcDbEllipse
 62
7
  6
CONTINUOUS
 10
6.0714581899
 20
-29.4681523691
 30
0.0
 11
-0.0002554407
 21
5.25
 31
0.0
 40
0.0087267322
 41
-4.126675617
 42
-3.8728505189
  0
ELLIPSE
  5
555
100
AcDbEntity
  8
DRAFT
100
AcDbEllipse
 62
7
  6
CONTINUOUS
 10
7.414178747
 20
-29.4681523691
 30
0.0
 11
-0.000511037
 21
5.25
 31
0.0
 40
0.0174547935
 41
-3.8728517934
 42
-3.1646226022
  0
ELLIPSE
  5
556
100
AcDbEntity
  8
DRAFT
100
AcDbEllipse
 62
7
  6
CONTINUOUS
 10
-9.5285418101
 20
-29.4681523691
 30
0.0
 11
-0.0002554407
 21
5.25
 31
0.0
 40
0.0087267322
 41
-4.6801278338
 42
-3.8728505189
  0
ELLIPSE
  5
557
100
AcDbEntity
  8
DRAFT
100
AcDbEllipse
 62
7
  6
CONTINUOUS
 10
-5.2714581899
 20
-29.4681523691
 30
0.0
 11
0.0002554407
 21
5.25
 31
0.0
 40
0.0087267322
 41
-2.4103347882
 42
-1.8920159786
  0
ELLIPSE
  5
558
100
AcDbEntity
  8
DRAFT
100
AcDbEllipse
 62
7
  6
CONTINUOUS
 10
-11.6278145455
 20
-29.4681523691
 30
0.0
 11
0.000511037
 21
5.25
 31
0.0
 40
0.0174547935
 41
-3.118562705
 42
-1.6030555498
  0
ELLIPSE
  5
559
100
AcDbEntity
  8
DRAFT
100
AcDbEllipse
 62
7
  6
CONTINUOUS
 10
11.6278145455
 20
-29.4681523691
 30
0.0
 11
-0.000511037
 21
5.25
 31
0.0
 40
0.0174547935
 41
-4.6801297574
 42
-3.1646226022
  0
ELLIPSE
  5
55A
100
AcDbEntity
  8
DRAFT
100
AcDbEllipse
 62
7
  6
CONTINUOUS
 10
11.6278145455
 20
-29.4681523691
 30
0.0
 11
-0.0001557446
 21
1.6
 31
0.0
 40
0.0174547935
 41
-3.1415943604
 42
-2.7876933864
  0
ELLIPSE
  5
55B
100
AcDbEntity
  8
DRAFT
100
AcDbEllipse
 62
7
  6
CONTINUOUS
 10
9.5285418101
 20
-29.4681523691
 30
0.0
 11
0.0000778486
 21
1.6
 31
0.0
 40
0.0087267322
 41
-3.4954933198
 42
-3.1415922213
  0
ELLIPSE
  5
55C
100
AcDbEntity
  8
DRAFT
100
AcDbEllipse
 62
7
  6
CONTINUOUS
 10
-9.5285418101
 20
-29.4681523691
 30
0.0
 11
-0.0000778486
 21
1.6
 31
0.0
 40
0.0087267322
 41
-3.1415930859
 42
-2.7876919874
  0
ELLIPSE
  5
55D
100
AcDbEntity
  8
DRAFT
100
AcDbEllipse
 62
7
  6
CONTINUOUS
 10
-11.6278145455
 20
-29.4681523691
 30
0.0
 11
0.0001557446
 21
1.6
 31
0.0
 40
0.0174547935
 41
-3.4954919208
 42
-3.1415909468
  0
ELLIPSE
  5
55E
100
AcDbEntity
  8
DRAFT
100
AcDbEllipse
 62
7
  6
CONTINUOUS
 10
6.0714581899
 20
-29.4681523691
 30
0.0
 11
-0.0001386678
 21
2.85
 31
0.0
 40
0.0087267322
 41
-3.1297147427
 42
-2.7013502404
  0
ELLIPSE
  5
55F
100
AcDbEntity
  8
DRAFT
100
AcDbEllipse
 62
7
  6
CONTINUOUS
 10
9.5285418101
 20
-29.4681523691
 30
0.0
 11
0.0002554407
 21
5.25
 31
0.0
 40
0.0087267322
 41
-3.1185639794
 42
-1.6030568226
  0
ELLIPSE
  5
560
100
AcDbEntity
  8
DRAFT
100
AcDbEllipse
 62
7
  6
CONTINUOUS
 10
1.0714581899
 20
-29.4681523691
 30
0.0
 11
-0.0001386678
 21
2.85
 31
0.0
 40
0.0087267322
 41
-3.1297147427
 42
-2.7010497019
  0
ELLIPSE
  5
561
100
AcDbEntity
  8
DRAFT
100
AcDbEllipse
 62
7
  6
CONTINUOUS
 10
4.7285418101
 20
-29.4681523691
 30
0.0
 11
0.0001386678
 21
2.85
 31
0.0
 40
0.0087267322
 41
-3.6061114792
 42
-3.1534705645
  0
ELLIPSE
  5
562
100
AcDbEntity
  8
DRAFT
100
AcDbEllipse
 62
7
  6
CONTINUOUS
 10
-0.2714581899
 20
-29.4681523691
 30
0.0
 11
0.0001386678
 21
2.85
 31
0.0
 40
0.0087267322
 41
-3.6060167354
 42
-3.1534705645
  0
ELLIPSE
  5
563
100
AcDbEntity
  8
DRAFT
100
AcDbEllipse
 62
7
  6
CONTINUOUS
 10
-5.2714581899
 20
-29.4664184946
 30
0.0
 11
0.0000778486
 21
1.6
 31
0.0
 40
0.0087267322
 41
-3.4932568874
 42
-3.1534705645
  0
ENDSEC
  0
SECTION
  2
OBJECTS
  0
DICTIONARY
  5
C
100
AcDbDictionary
280
0
281
1
  3
ACAD_GROUP
350
D
  3
ACAD_MLINESTYLE
350
17
  3
ACAD_LAYOUT
350
1A
  3
ACAD_PLOTSETTINGS
350
19
  3
ACAD_PLOTSTYLENAME
350
E
  0
DICTIONARY
  5
D
102
{ACAD_REACTORS
330
C
102
}
100
AcDbDictionary
280
0
281
1
  0
ACDBDICTIONARYWDFLT
  5
E
102
{ACAD_REACTORS
330
C
102
}
100
AcDbDictionary
281
1
  3
Normal
350
F
100
AcDbDictionaryWithDefault
340
F
  0
DICTIONARY
  5
17
102
{ACAD_REACTORS
330
C
102
}
100
AcDbDictionary
280
0
281
1
  3
Standard
350
18
  0
DICTIONARY
  5
19
102
{ACAD_REACTORS
330
C
102
}
100
AcDbDictionary
281
1
  0
DICTIONARY
  5
1A
102
{ACAD_REACTORS
330
C
102
}
100
AcDbDictionary
281
1
  3
Model
350
564
  3
Layout1
350
565
  0
ACDBPLACEHOLDER
  5
F
102
{ACAD_REACTORS
330
E
102
}
  0
MLINESTYLE
  5
18
102
{ACAD_REACTORS
330
17
102
}
100
AcDbMlineStyle
  2
STANDARD
 70
0
  3

 62
256
 51
90.0
 52
90.0
 71
2
 49
0.5
 62
256
  6
BYLAYER
 49
-0.5
 62
256
  6
BYLAYER
  0
LAYOUT
  5
564
102
{ACAD_REACTORS
330
1A
102
}
100
AcDbPlotSettings
  1

  2
none_device
  4
ISO_A4_(297.00_x_210.00_MM)
  6

 40
0.0
 41
0.0
 42
0.0
 43
0.0
 44
297.0
 45
210.0
 46
0.0
 47
0.0
 48
0.0
 49
0.0
140
0.0
141
0.0
142
1.0
143
1.0
 70
1024
 72
1
 73
0
 74
0
  7

 75
0
147
1.0
148
0.0
149
0.0
100
AcDbLayout
  1
Model
 70
0
 71
0
 10
0.0
 20
0.0
 11
297.0
 21
210.0
 12
0.0
 22
0.0
 32
0.0
 14
0.0
 24
0.0
 34
0.0
 15
0.0
 25
0.0
 35
0.0
146
0.0
 13
0.0
 23
0.0
 33
0.0
 16
1.0
 26
0.0
 36
0.0
 17
0.0
 27
1.0
 37
0.0
 76
0
330
213
345
0
346
0
  0
LAYOUT
  5
565
102
{ACAD_REACTORS
330
1A
102
}
100
AcDbPlotSettings
  1

  2
none_device
  4
ISO_A4_(297.00_x_210.00_MM)
  6

 40
0.0
 41
0.0
 42
0.0
 43
0.0
 44
297.0
 45
210.0
 46
0.0
 47
0.0
 48
0.0
 49
0.0
140
0.0
141
0.0
142
1.0
143
1.0
 70
0
 72
1
 73
0
 74
0
  7

 75
0
147
1.0
148
0.0
149
0.0
100
AcDbLayout
  1
Layout1
 70
0
 71
1
 10
0.0
 20
0.0
 11
297.0
 21
210.0
 12
0.0
 22
0.0
 32
0.0
 14
0.0
 24
0.0
 34
0.0
 15
0.0
 25
0.0
 35
0.0
146
0.0
 13
0.0
 23
0.0
 33
0.0
 16
1.0
 26
0.0
 36
0.0
 17
0.0
 27
1.0
 37
0.0
 76
0
330
214
345
0
346
0
  0
ENDSEC
  0
EOF
