  0
SECTION
  2
HEADER
  9
$ACADVER
  1
AC1024
  9
$DWGCODEPAGE
  3
ANSI_1252
  9
$EXTMAX
 10
297.0
 20
210.0
 30
0.0
  9
$EXTMIN
 10
0.0
 20
0.0
 30
0.0
  9
$LIMMIN
 10
0.0
 20
0.0
  9
$LIMMAX
 10
297.0
 20
210.0
  9
$VIEWCTR
 10
148.5
 20
105.0
  9
$VIEWSIZE
 40
210.0
  9
$CLAYER
  8
0
  9
$LTSCALE
 40
16.335
  9
$CELTYPE
  6
BYLAYER
  9
$DIMSCALE
 40
1.0
  9
$DIMASZ
 40
3.0
  9
$DIMEXO
 40
0.5
  9
$DIMDLI
 40
11.286
  9
$DIMEXE
 40
1.5
  9
$DIMCEN
 40
2.673
  9
$DIMLFAC
 40
1.0
  9
$DIMBLK
  1
_FILLED
  9
$DIMALT
 70
0
  9
$DIMALTF
 40
0.0393700787
  9
$DIMTXT
 40
3.0
  9
$DIMTOL
 70
1
  9
$DIMLIM
 70
0
  9
$DIMTFAC
 40
1.0
  9
$DIMTP
 40
0.01
  9
$DIMTM
 40
0.01
  9
$DIMGAP
 40
0.625
  9
$DIMDSEP
 70
44
  9
$AUNITS
 70
0
  9
$PDMODE
 70
3
  9
$PDSIZE
 40
3.0
  9
$HANDSEED
  5
7DB
  9
$TILEMODE
 70
1
  9
$MEASUREMENT
 70
1
  9
$INSUNITS
 70
4
  0
ENDSEC
  0
SECTION
  2
CLASSES
  0
CLASS
  1
ACDBDICTIONARYWDFLT
  2
AcDbDictionaryWithDefault
  3
AutoCAD 2000
 90
0
 91
1
280
0
281
0
  0
CLASS
  1
ACDBPLACEHOLDER
  2
AcDbPlaceHolder
  3
AutoCAD 2000
 90
0
 91
1
280
0
281
0
  0
CLASS
  1
LAYOUT
  2
AcDbLayout
  3
AutoCAD 2000
 90
0
 91
0
280
0
281
0
  0
ENDSEC
  0
SECTION
  2
TABLES
  0
TABLE
  2
VPORT
  5
8
100
AcDbSymbolTable
 70
2
  0
VPORT
  5
1F4
100
AcDbSymbolTableRecord
100
AcDbViewportTableRecord
  2
*ACTIVE
 70
0
 10
0.0
 20
0.0
 11
1.0
 21
1.0
 12
148.5
 22
105.0
 13
0.0
 23
0.0
 14
1.0
 24
1.0
 15
0.0
 25
0.0
 16
0.0
 26
0.0
 36
1.0
 17
0.0
 27
0.0
 37
0.0
 40
210.0
 41
1.4142857143
 42
50.0
 43
0.0
 44
0.0
 50
0.0
 51
0.0
 71
0
 72
100
 73
1
 74
1
 75
0
 76
0
 77
0
 78
0
  0
ENDTAB
  0
TABLE
  2
LTYPE
  5
5
100
AcDbSymbolTable
 70
6
  0
LTYPE
  5
14
100
AcDbSymbolTableRecord
100
AcDbLinetypeTableRecord
  2
BYBLOCK
 70
0
  3

 72
65
 73
0
 40
0.0
  0
LTYPE
  5
15
100
AcDbSymbolTableRecord
100
AcDbLinetypeTableRecord
  2
BYLAYER
 70
0
  3

 72
65
 73
0
 40
0.0
  0
LTYPE
  5
16
100
AcDbSymbolTableRecord
100
AcDbLinetypeTableRecord
  2
CONTINUOUS
 70
64
  3
Solid line
 72
65
 73
0
 40
0.0
  0
LTYPE
  5
1F5
100
AcDbSymbolTableRecord
100
AcDbLinetypeTableRecord
  2
CENTER
 70
64
  3
____ _ ____ _ ____ _ ____ _ ____ _ ____ _ ____
 72
65
 73
4
 40
0.6
 49
0.375
 74
0
 49
-0.075
 74
0
 49
0.075
 74
0
 49
-0.075
 74
0
  0
LTYPE
  5
1F6
100
AcDbSymbolTableRecord
100
AcDbLinetypeTableRecord
  2
HIDDEN
 70
64
  3
- - - - - - - - - - - - - - - - - - - -
 72
65
 73
2
 40
0.2
 49
0.1
 74
0
 49
-0.1
 74
0
  0
LTYPE
  5
1F7
100
AcDbSymbolTableRecord
100
AcDbLinetypeTableRecord
  2
PHANTOM
 70
64
  3
_____ _ _ _____ _ _ _____ _ _ _____
 72
65
 73
6
 40
0.8
 49
0.45
 74
0
 49
-0.05
 74
0
 49
0.1
 74
0
 49
-0.05
 74
0
 49
0.1
 74
0
 49
-0.05
 74
0
  0
LTYPE
  5
1F8
100
AcDbSymbolTableRecord
100
AcDbLinetypeTableRecord
  2
DOT
 70
64
  3
. . . . . . . . . . . . . . . . . . . .
 72
65
 73
2
 40
0.2
 49
0.1
 74
0
 49
-0.1
 74
0
  0
LTYPE
  5
1F9
100
AcDbSymbolTableRecord
100
AcDbLinetypeTableRecord
  2
DASHED
 70
64
  3
- - - - - - - - - - - - - - - - - - - -
 72
65
 73
2
 40
0.2
 49
0.1
 74
0
 49
-0.1
 74
0
  0
ENDTAB
  0
TABLE
  2
LAYER
  5
2
100
AcDbSymbolTable
 70
36
  0
LAYER
  5
10
100
AcDbSymbolTableRecord
100
AcDbLayerTableRecord
  2
0
 70
0
 62
7
  6
CONTINUOUS
370
-3
390
F
  0
LAYER
  5
1FA
100
AcDbSymbolTableRecord
100
AcDbLayerTableRecord
  2
DEFAULT_1
 70
0
 62
7
  6
CENTER
370
-3
390
F
  0
LAYER
  5
1FB
100
AcDbSymbolTableRecord
100
AcDbLayerTableRecord
  2
DEFAULT_2
 70
0
 62
7
  6
HIDDEN
370
-3
390
F
  0
LAYER
  5
1FC
100
AcDbSymbolTableRecord
100
AcDbLayerTableRecord
  2
DEFAULT_3
 70
0
 62
7
  6
PHANTOM
370
-3
390
F
  0
LAYER
  5
1FD
100
AcDbSymbolTableRecord
100
AcDbLayerTableRecord
  2
200A_170000
 70
0
 62
7
  6
CONTINUOUS
370
-3
390
F
  0
LAYER
  5
1FE
100
AcDbSymbolTableRecord
100
AcDbLayerTableRecord
  2
200A_170000_1
 70
0
 62
7
  6
CONTINUOUS
370
-3
390
F
  0
LAYER
  5
1FF
100
AcDbSymbolTableRecord
100
AcDbLayerTableRecord
  2
200A_170000_2
 70
0
 62
7
  6
CONTINUOUS
370
-3
390
F
  0
LAYER
  5
200
100
AcDbSymbolTableRecord
100
AcDbLayerTableRecord
  2
200A_170000_3
 70
0
 62
7
  6
CONTINUOUS
370
-3
390
F
  0
LAYER
  5
201
100
AcDbSymbolTableRecord
100
AcDbLayerTableRecord
  2
200A_170000_4
 70
0
 62
7
  6
CONTINUOUS
370
-3
390
F
  0
LAYER
  5
202
100
AcDbSymbolTableRecord
100
AcDbLayerTableRecord
  2
200A_170000_5
 70
0
 62
7
  6
CONTINUOUS
370
-3
390
F
  0
LAYER
  5
203
100
AcDbSymbolTableRecord
100
AcDbLayerTableRecord
  2
200A_170000_6
 70
0
 62
7
  6
CONTINUOUS
370
-3
390
F
  0
LAYER
  5
204
100
AcDbSymbolTableRecord
100
AcDbLayerTableRecord
  2
201A_260000
 70
0
 62
7
  6
CONTINUOUS
370
-3
390
F
  0
LAYER
  5
205
100
AcDbSymbolTableRecord
100
AcDbLayerTableRecord
  2
201A_260000_1
 70
0
 62
7
  6
CONTINUOUS
370
-3
390
F
  0
LAYER
  5
206
100
AcDbSymbolTableRecord
100
AcDbLayerTableRecord
  2
201A_260000_2
 70
0
 62
7
  6
CONTINUOUS
370
-3
390
F
  0
LAYER
  5
207
100
AcDbSymbolTableRecord
100
AcDbLayerTableRecord
  2
201A_260000_3
 70
0
 62
7
  6
CONTINUOUS
370
-3
390
F
  0
LAYER
  5
208
100
AcDbSymbolTableRecord
100
AcDbLayerTableRecord
  2
201A_260000_4
 70
0
 62
7
  6
CONTINUOUS
370
-3
390
F
  0
LAYER
  5
209
100
AcDbSymbolTableRecord
100
AcDbLayerTableRecord
  2
2125-CC-RF-VIMAR_110000
 70
0
 62
7
  6
CONTINUOUS
370
-3
390
F
  0
LAYER
  5
20A
100
AcDbSymbolTableRecord
100
AcDbLayerTableRecord
  2
2125-CC-RF-VIMAR_110000_1
 70
0
 62
7
  6
CONTINUOUS
370
-3
390
F
  0
LAYER
  5
20B
100
AcDbSymbolTableRecord
100
AcDbLayerTableRecord
  2
2125-CC-RF-VIMAR_110000_10
 70
0
 62
7
  6
CONTINUOUS
370
-3
390
F
  0
LAYER
  5
20C
100
AcDbSymbolTableRecord
100
AcDbLayerTableRecord
  2
2125-CC-RF-VIMAR_110000_11
 70
0
 62
7
  6
CONTINUOUS
370
-3
390
F
  0
LAYER
  5
20D
100
AcDbSymbolTableRecord
100
AcDbLayerTableRecord
  2
2125-CC-RF-VIMAR_110000_12
 70
0
 62
7
  6
CONTINUOUS
370
-3
390
F
  0
LAYER
  5
20E
100
AcDbSymbolTableRecord
100
AcDbLayerTableRecord
  2
2125-CC-RF-VIMAR_110000_13
 70
0
 62
7
  6
CONTINUOUS
370
-3
390
F
  0
LAYER
  5
20F
100
AcDbSymbolTableRecord
100
AcDbLayerTableRecord
  2
2125-CC-RF-VIMAR_110000_14
 70
0
 62
7
  6
CONTINUOUS
370
-3
390
F
  0
LAYER
  5
210
100
AcDbSymbolTableRecord
100
AcDbLayerTableRecord
  2
2125-CC-RF-VIMAR_110000_15
 70
0
 62
7
  6
CONTINUOUS
370
-3
390
F
  0
LAYER
  5
211
100
AcDbSymbolTableRecord
100
AcDbLayerTableRecord
  2
2125-CC-RF-VIMAR_110000_16
 70
0
 62
7
  6
CONTINUOUS
370
-3
390
F
  0
LAYER
  5
212
100
AcDbSymbolTableRecord
100
AcDbLayerTableRecord
  2
2125-CC-RF-VIMAR_110000_17
 70
0
 62
7
  6
CONTINUOUS
370
-3
390
F
  0
LAYER
  5
213
100
AcDbSymbolTableRecord
100
AcDbLayerTableRecord
  2
2125-CC-RF-VIMAR_110000_18
 70
0
 62
7
  6
CONTINUOUS
370
-3
390
F
  0
LAYER
  5
214
100
AcDbSymbolTableRecord
100
AcDbLayerTableRecord
  2
2125-CC-RF-VIMAR_110000_19
 70
0
 62
7
  6
CONTINUOUS
370
-3
390
F
  0
LAYER
  5
215
100
AcDbSymbolTableRecord
100
AcDbLayerTableRecord
  2
2125-CC-RF-VIMAR_110000_2
 70
0
 62
7
  6
CONTINUOUS
370
-3
390
F
  0
LAYER
  5
216
100
AcDbSymbolTableRecord
100
AcDbLayerTableRecord
  2
2125-CC-RF-VIMAR_110000_20
 70
0
 62
7
  6
CONTINUOUS
370
-3
390
F
  0
LAYER
  5
217
100
AcDbSymbolTableRecord
100
AcDbLayerTableRecord
  2
2125-CC-RF-VIMAR_110000_21
 70
0
 62
7
  6
CONTINUOUS
370
-3
390
F
  0
LAYER
  5
218
100
AcDbSymbolTableRecord
100
AcDbLayerTableRecord
  2
2125-CC-RF-VIMAR_110000_22
 70
0
 62
7
  6
CONTINUOUS
370
-3
390
F
  0
LAYER
  5
219
100
AcDbSymbolTableRecord
100
AcDbLayerTableRecord
  2
2125-CC-RF-VIMAR_110000_3
 70
0
 62
7
  6
CONTINUOUS
370
-3
390
F
  0
LAYER
  5
21A
100
AcDbSymbolTableRecord
100
AcDbLayerTableRecord
  2
2125-CC-RF-VIMAR_110000_4
 70
0
 62
7
  6
CONTINUOUS
370
-3
390
F
  0
LAYER
  5
21B
100
AcDbSymbolTableRecord
100
AcDbLayerTableRecord
  2
2125-CC-RF-VIMAR_110000_5
 70
0
 62
7
  6
CONTINUOUS
370
-3
390
F
  0
LAYER
  5
21C
100
AcDbSymbolTableRecord
100
AcDbLayerTableRecord
  2
2125-CC-RF-VIMAR_110000_6
 70
0
 62
7
  6
CONTINUOUS
370
-3
390
F
  0
LAYER
  5
21D
100
AcDbSymbolTableRecord
100
AcDbLayerTableRecord
  2
2125-CC-RF-VIMAR_110000_7
 70
0
 62
7
  6
CONTINUOUS
370
-3
390
F
  0
LAYER
  5
21E
100
AcDbSymbolTableRecord
100
AcDbLayerTableRecord
  2
2125-CC-RF-VIMAR_110000_8
 70
0
 62
7
  6
CONTINUOUS
370
-3
390
F
  0
LAYER
  5
21F
100
AcDbSymbolTableRecord
100
AcDbLayerTableRecord
  2
2125-CC-RF-VIMAR_110000_9
 70
0
 62
7
  6
CONTINUOUS
370
-3
390
F
  0
LAYER
  5
220
100
AcDbSymbolTableRecord
100
AcDbLayerTableRecord
  2
2125-CC-RF-VIMAR_65000
 70
0
 62
7
  6
CONTINUOUS
370
-3
390
F
  0
LAYER
  5
221
100
AcDbSymbolTableRecord
100
AcDbLayerTableRecord
  2
2125-CC-RF-VIMAR_65000_1
 70
0
 62
7
  6
CONTINUOUS
370
-3
390
F
  0
LAYER
  5
222
100
AcDbSymbolTableRecord
100
AcDbLayerTableRecord
  2
2125-CC-RF-VIMAR_65000_10
 70
0
 62
7
  6
CONTINUOUS
370
-3
390
F
  0
LAYER
  5
223
100
AcDbSymbolTableRecord
100
AcDbLayerTableRecord
  2
2125-CC-RF-VIMAR_65000_11
 70
0
 62
7
  6
CONTINUOUS
370
-3
390
F
  0
LAYER
  5
224
100
AcDbSymbolTableRecord
100
AcDbLayerTableRecord
  2
2125-CC-RF-VIMAR_65000_12
 70
0
 62
7
  6
CONTINUOUS
370
-3
390
F
  0
LAYER
  5
225
100
AcDbSymbolTableRecord
100
AcDbLayerTableRecord
  2
2125-CC-RF-VIMAR_65000_13
 70
0
 62
7
  6
CONTINUOUS
370
-3
390
F
  0
LAYER
  5
226
100
AcDbSymbolTableRecord
100
AcDbLayerTableRecord
  2
2125-CC-RF-VIMAR_65000_14
 70
0
 62
7
  6
CONTINUOUS
370
-3
390
F
  0
LAYER
  5
227
100
AcDbSymbolTableRecord
100
AcDbLayerTableRecord
  2
2125-CC-RF-VIMAR_65000_15
 70
0
 62
7
  6
CONTINUOUS
370
-3
390
F
  0
LAYER
  5
228
100
AcDbSymbolTableRecord
100
AcDbLayerTableRecord
  2
2125-CC-RF-VIMAR_65000_16
 70
0
 62
7
  6
CONTINUOUS
370
-3
390
F
  0
LAYER
  5
229
100
AcDbSymbolTableRecord
100
AcDbLayerTableRecord
  2
2125-CC-RF-VIMAR_65000_17
 70
0
 62
7
  6
CONTINUOUS
370
-3
390
F
  0
LAYER
  5
22A
100
AcDbSymbolTableRecord
100
AcDbLayerTableRecord
  2
2125-CC-RF-VIMAR_65000_18
 70
0
 62
7
  6
CONTINUOUS
370
-3
390
F
  0
LAYER
  5
22B
100
AcDbSymbolTableRecord
100
AcDbLayerTableRecord
  2
2125-CC-RF-VIMAR_65000_19
 70
0
 62
7
  6
CONTINUOUS
370
-3
390
F
  0
LAYER
  5
22C
100
AcDbSymbolTableRecord
100
AcDbLayerTableRecord
  2
2125-CC-RF-VIMAR_65000_2
 70
0
 62
7
  6
CONTINUOUS
370
-3
390
F
  0
LAYER
  5
22D
100
AcDbSymbolTableRecord
100
AcDbLayerTableRecord
  2
2125-CC-RF-VIMAR_65000_20
 70
0
 62
7
  6
CONTINUOUS
370
-3
390
F
  0
LAYER
  5
22E
100
AcDbSymbolTableRecord
100
AcDbLayerTableRecord
  2
2125-CC-RF-VIMAR_65000_21
 70
0
 62
7
  6
CONTINUOUS
370
-3
390
F
  0
LAYER
  5
22F
100
AcDbSymbolTableRecord
100
AcDbLayerTableRecord
  2
2125-CC-RF-VIMAR_65000_22
 70
0
 62
7
  6
CONTINUOUS
370
-3
390
F
  0
LAYER
  5
230
100
AcDbSymbolTableRecord
100
AcDbLayerTableRecord
  2
2125-CC-RF-VIMAR_65000_23
 70
0
 62
7
  6
CONTINUOUS
370
-3
390
F
  0
LAYER
  5
231
100
AcDbSymbolTableRecord
100
AcDbLayerTableRecord
  2
2125-CC-RF-VIMAR_65000_24
 70
0
 62
7
  6
CONTINUOUS
370
-3
390
F
  0
LAYER
  5
232
100
AcDbSymbolTableRecord
100
AcDbLayerTableRecord
  2
2125-CC-RF-VIMAR_65000_25
 70
0
 62
7
  6
CONTINUOUS
370
-3
390
F
  0
LAYER
  5
233
100
AcDbSymbolTableRecord
100
AcDbLayerTableRecord
  2
2125-CC-RF-VIMAR_65000_3
 70
0
 62
7
  6
CONTINUOUS
370
-3
390
F
  0
LAYER
  5
234
100
AcDbSymbolTableRecord
100
AcDbLayerTableRecord
  2
2125-CC-RF-VIMAR_65000_4
 70
0
 62
7
  6
CONTINUOUS
370
-3
390
F
  0
LAYER
  5
235
100
AcDbSymbolTableRecord
100
AcDbLayerTableRecord
  2
2125-CC-RF-VIMAR_65000_5
 70
0
 62
7
  6
CONTINUOUS
370
-3
390
F
  0
LAYER
  5
236
100
AcDbSymbolTableRecord
100
AcDbLayerTableRecord
  2
2125-CC-RF-VIMAR_65000_6
 70
0
 62
7
  6
CONTINUOUS
370
-3
390
F
  0
LAYER
  5
237
100
AcDbSymbolTableRecord
100
AcDbLayerTableRecord
  2
2125-CC-RF-VIMAR_65000_7
 70
0
 62
7
  6
CONTINUOUS
370
-3
390
F
  0
LAYER
  5
238
100
AcDbSymbolTableRecord
100
AcDbLayerTableRecord
  2
2125-CC-RF-VIMAR_65000_8
 70
0
 62
7
  6
CONTINUOUS
370
-3
390
F
  0
LAYER
  5
239
100
AcDbSymbolTableRecord
100
AcDbLayerTableRecord
  2
2125-CC-RF-VIMAR_65000_9
 70
0
 62
7
  6
CONTINUOUS
370
-3
390
F
  0
LAYER
  5
23A
100
AcDbSymbolTableRecord
100
AcDbLayerTableRecord
  2
2125-R1-RF-VIMAR_60000
 70
0
 62
7
  6
CONTINUOUS
370
-3
390
F
  0
LAYER
  5
23B
100
AcDbSymbolTableRecord
100
AcDbLayerTableRecord
  2
2125-R1-RF-VIMAR_60000_1
 70
0
 62
7
  6
CONTINUOUS
370
-3
390
F
  0
LAYER
  5
23C
100
AcDbSymbolTableRecord
100
AcDbLayerTableRecord
  2
2125-R1-RF-VIMAR_60000_10
 70
0
 62
7
  6
CONTINUOUS
370
-3
390
F
  0
LAYER
  5
23D
100
AcDbSymbolTableRecord
100
AcDbLayerTableRecord
  2
2125-R1-RF-VIMAR_60000_11
 70
0
 62
7
  6
CONTINUOUS
370
-3
390
F
  0
LAYER
  5
23E
100
AcDbSymbolTableRecord
100
AcDbLayerTableRecord
  2
2125-R1-RF-VIMAR_60000_12
 70
0
 62
7
  6
CONTINUOUS
370
-3
390
F
  0
LAYER
  5
23F
100
AcDbSymbolTableRecord
100
AcDbLayerTableRecord
  2
2125-R1-RF-VIMAR_60000_13
 70
0
 62
7
  6
CONTINUOUS
370
-3
390
F
  0
LAYER
  5
240
100
AcDbSymbolTableRecord
100
AcDbLayerTableRecord
  2
2125-R1-RF-VIMAR_60000_14
 70
0
 62
7
  6
CONTINUOUS
370
-3
390
F
  0
LAYER
  5
241
100
AcDbSymbolTableRecord
100
AcDbLayerTableRecord
  2
2125-R1-RF-VIMAR_60000_15
 70
0
 62
7
  6
CONTINUOUS
370
-3
390
F
  0
LAYER
  5
242
100
AcDbSymbolTableRecord
100
AcDbLayerTableRecord
  2
2125-R1-RF-VIMAR_60000_16
 70
0
 62
7
  6
CONTINUOUS
370
-3
390
F
  0
LAYER
  5
243
100
AcDbSymbolTableRecord
100
AcDbLayerTableRecord
  2
2125-R1-RF-VIMAR_60000_17
 70
0
 62
7
  6
CONTINUOUS
370
-3
390
F
  0
LAYER
  5
244
100
AcDbSymbolTableRecord
100
AcDbLayerTableRecord
  2
2125-R1-RF-VIMAR_60000_18
 70
0
 62
7
  6
CONTINUOUS
370
-3
390
F
  0
LAYER
  5
245
100
AcDbSymbolTableRecord
100
AcDbLayerTableRecord
  2
2125-R1-RF-VIMAR_60000_19
 70
0
 62
7
  6
CONTINUOUS
370
-3
390
F
  0
LAYER
  5
246
100
AcDbSymbolTableRecord
100
AcDbLayerTableRecord
  2
2125-R1-RF-VIMAR_60000_2
 70
0
 62
7
  6
CONTINUOUS
370
-3
390
F
  0
LAYER
  5
247
100
AcDbSymbolTableRecord
100
AcDbLayerTableRecord
  2
2125-R1-RF-VIMAR_60000_20
 70
0
 62
7
  6
CONTINUOUS
370
-3
390
F
  0
LAYER
  5
248
100
AcDbSymbolTableRecord
100
AcDbLayerTableRecord
  2
2125-R1-RF-VIMAR_60000_21
 70
0
 62
7
  6
CONTINUOUS
370
-3
390
F
  0
LAYER
  5
249
100
AcDbSymbolTableRecord
100
AcDbLayerTableRecord
  2
2125-R1-RF-VIMAR_60000_22
 70
0
 62
7
  6
CONTINUOUS
370
-3
390
F
  0
LAYER
  5
24A
100
AcDbSymbolTableRecord
100
AcDbLayerTableRecord
  2
2125-R1-RF-VIMAR_60000_23
 70
0
 62
7
  6
CONTINUOUS
370
-3
390
F
  0
LAYER
  5
24B
100
AcDbSymbolTableRecord
100
AcDbLayerTableRecord
  2
2125-R1-RF-VIMAR_60000_24
 70
0
 62
7
  6
CONTINUOUS
370
-3
390
F
  0
LAYER
  5
24C
100
AcDbSymbolTableRecord
100
AcDbLayerTableRecord
  2
2125-R1-RF-VIMAR_60000_25
 70
0
 62
7
  6
CONTINUOUS
370
-3
390
F
  0
LAYER
  5
24D
100
AcDbSymbolTableRecord
100
AcDbLayerTableRecord
  2
2125-R1-RF-VIMAR_60000_26
 70
0
 62
7
  6
CONTINUOUS
370
-3
390
F
  0
LAYER
  5
24E
100
AcDbSymbolTableRecord
100
AcDbLayerTableRecord
  2
2125-R1-RF-VIMAR_60000_3
 70
0
 62
7
  6
CONTINUOUS
370
-3
390
F
  0
LAYER
  5
24F
100
AcDbSymbolTableRecord
100
AcDbLayerTableRecord
  2
2125-R1-RF-VIMAR_60000_4
 70
0
 62
7
  6
CONTINUOUS
370
-3
390
F
  0
LAYER
  5
250
100
AcDbSymbolTableRecord
100
AcDbLayerTableRecord
  2
2125-R1-RF-VIMAR_60000_5
 70
0
 62
7
  6
CONTINUOUS
370
-3
390
F
  0
LAYER
  5
251
100
AcDbSymbolTableRecord
100
AcDbLayerTableRecord
  2
2125-R1-RF-VIMAR_60000_6
 70
0
 62
7
  6
CONTINUOUS
370
-3
390
F
  0
LAYER
  5
252
100
AcDbSymbolTableRecord
100
AcDbLayerTableRecord
  2
2125-R1-RF-VIMAR_60000_7
 70
0
 62
7
  6
CONTINUOUS
370
-3
390
F
  0
LAYER
  5
253
100
AcDbSymbolTableRecord
100
AcDbLayerTableRecord
  2
2125-R1-RF-VIMAR_60000_8
 70
0
 62
7
  6
CONTINUOUS
370
-3
390
F
  0
LAYER
  5
254
100
AcDbSymbolTableRecord
100
AcDbLayerTableRecord
  2
2125-R1-RF-VIMAR_60000_9
 70
0
 62
7
  6
CONTINUOUS
370
-3
390
F
  0
LAYER
  5
255
100
AcDbSymbolTableRecord
100
AcDbLayerTableRecord
  2
3216-CF-RF-VIMAR_100000
 70
0
 62
7
  6
CONTINUOUS
370
-3
390
F
  0
LAYER
  5
256
100
AcDbSymbolTableRecord
100
AcDbLayerTableRecord
  2
3216-CF-RF-VIMAR_100000_1
 70
0
 62
7
  6
CONTINUOUS
370
-3
390
F
  0
LAYER
  5
257
100
AcDbSymbolTableRecord
100
AcDbLayerTableRecord
  2
3216-CF-RF-VIMAR_100000_2
 70
0
 62
7
  6
CONTINUOUS
370
-3
390
F
  0
LAYER
  5
258
100
AcDbSymbolTableRecord
100
AcDbLayerTableRecord
  2
3216-CF-RF-VIMAR_100000_3
 70
0
 62
7
  6
CONTINUOUS
370
-3
390
F
  0
LAYER
  5
259
100
AcDbSymbolTableRecord
100
AcDbLayerTableRecord
  2
3216-CF-RF-VIMAR_100000_4
 70
0
 62
7
  6
CONTINUOUS
370
-3
390
F
  0
LAYER
  5
25A
100
AcDbSymbolTableRecord
100
AcDbLayerTableRecord
  2
3216-CF-RF-VIMAR_100000_5
 70
0
 62
7
  6
CONTINUOUS
370
-3
390
F
  0
LAYER
  5
25B
100
AcDbSymbolTableRecord
100
AcDbLayerTableRecord
  2
3216-CS2-RF_1_180000
 70
0
 62
7
  6
CONTINUOUS
370
-3
390
F
  0
LAYER
  5
25C
100
AcDbSymbolTableRecord
100
AcDbLayerTableRecord
  2
3216-CS2-RF_1_180000_1
 70
0
 62
7
  6
CONTINUOUS
370
-3
390
F
  0
LAYER
  5
25D
100
AcDbSymbolTableRecord
100
AcDbLayerTableRecord
  2
3216-R1-RF-VIMAR_60000
 70
0
 62
7
  6
CONTINUOUS
370
-3
390
F
  0
LAYER
  5
25E
100
AcDbSymbolTableRecord
100
AcDbLayerTableRecord
  2
3216-R1-RF-VIMAR_60000_1
 70
0
 62
7
  6
CONTINUOUS
370
-3
390
F
  0
LAYER
  5
25F
100
AcDbSymbolTableRecord
100
AcDbLayerTableRecord
  2
3216-R1-RF-VIMAR_60000_10
 70
0
 62
7
  6
CONTINUOUS
370
-3
390
F
  0
LAYER
  5
260
100
AcDbSymbolTableRecord
100
AcDbLayerTableRecord
  2
3216-R1-RF-VIMAR_60000_11
 70
0
 62
7
  6
CONTINUOUS
370
-3
390
F
  0
LAYER
  5
261
100
AcDbSymbolTableRecord
100
AcDbLayerTableRecord
  2
3216-R1-RF-VIMAR_60000_12
 70
0
 62
7
  6
CONTINUOUS
370
-3
390
F
  0
LAYER
  5
262
100
AcDbSymbolTableRecord
100
AcDbLayerTableRecord
  2
3216-R1-RF-VIMAR_60000_13
 70
0
 62
7
  6
CONTINUOUS
370
-3
390
F
  0
LAYER
  5
263
100
AcDbSymbolTableRecord
100
AcDbLayerTableRecord
  2
3216-R1-RF-VIMAR_60000_14
 70
0
 62
7
  6
CONTINUOUS
370
-3
390
F
  0
LAYER
  5
264
100
AcDbSymbolTableRecord
100
AcDbLayerTableRecord
  2
3216-R1-RF-VIMAR_60000_15
 70
0
 62
7
  6
CONTINUOUS
370
-3
390
F
  0
LAYER
  5
265
100
AcDbSymbolTableRecord
100
AcDbLayerTableRecord
  2
3216-R1-RF-VIMAR_60000_16
 70
0
 62
7
  6
CONTINUOUS
370
-3
390
F
  0
LAYER
  5
266
100
AcDbSymbolTableRecord
100
AcDbLayerTableRecord
  2
3216-R1-RF-VIMAR_60000_17
 70
0
 62
7
  6
CONTINUOUS
370
-3
390
F
  0
LAYER
  5
267
100
AcDbSymbolTableRecord
100
AcDbLayerTableRecord
  2
3216-R1-RF-VIMAR_60000_18
 70
0
 62
7
  6
CONTINUOUS
370
-3
390
F
  0
LAYER
  5
268
100
AcDbSymbolTableRecord
100
AcDbLayerTableRecord
  2
3216-R1-RF-VIMAR_60000_2
 70
0
 62
7
  6
CONTINUOUS
370
-3
390
F
  0
LAYER
  5
269
100
AcDbSymbolTableRecord
100
AcDbLayerTableRecord
  2
3216-R1-RF-VIMAR_60000_3
 70
0
 62
7
  6
CONTINUOUS
370
-3
390
F
  0
LAYER
  5
26A
100
AcDbSymbolTableRecord
100
AcDbLayerTableRecord
  2
3216-R1-RF-VIMAR_60000_4
 70
0
 62
7
  6
CONTINUOUS
370
-3
390
F
  0
LAYER
  5
26B
100
AcDbSymbolTableRecord
100
AcDbLayerTableRecord
  2
3216-R1-RF-VIMAR_60000_5
 70
0
 62
7
  6
CONTINUOUS
370
-3
390
F
  0
LAYER
  5
26C
100
AcDbSymbolTableRecord
100
AcDbLayerTableRecord
  2
3216-R1-RF-VIMAR_60000_6
 70
0
 62
7
  6
CONTINUOUS
370
-3
390
F
  0
LAYER
  5
26D
100
AcDbSymbolTableRecord
100
AcDbLayerTableRecord
  2
3216-R1-RF-VIMAR_60000_7
 70
0
 62
7
  6
CONTINUOUS
370
-3
390
F
  0
LAYER
  5
26E
100
AcDbSymbolTableRecord
100
AcDbLayerTableRecord
  2
3216-R1-RF-VIMAR_60000_8
 70
0
 62
7
  6
CONTINUOUS
370
-3
390
F
  0
LAYER
  5
26F
100
AcDbSymbolTableRecord
100
AcDbLayerTableRecord
  2
3216-R1-RF-VIMAR_60000_9
 70
0
 62
7
  6
CONTINUOUS
370
-3
390
F
  0
LAYER
  5
270
100
AcDbSymbolTableRecord
100
AcDbLayerTableRecord
  2
43900635A0
 70
0
 62
7
  6
CONTINUOUS
370
-3
390
F
  0
LAYER
  5
271
100
AcDbSymbolTableRecord
100
AcDbLayerTableRecord
  2
43900635A0_1
 70
0
 62
7
  6
CONTINUOUS
370
-3
390
F
  0
LAYER
  5
272
100
AcDbSymbolTableRecord
100
AcDbLayerTableRecord
  2
43900635A0_1_1
 70
0
 62
7
  6
CONTINUOUS
370
-3
390
F
  0
LAYER
  5
273
100
AcDbSymbolTableRecord
100
AcDbLayerTableRecord
  2
43900636A0
 70
0
 62
7
  6
CONTINUOUS
370
-3
390
F
  0
LAYER
  5
274
100
AcDbSymbolTableRecord
100
AcDbLayerTableRecord
  2
43900636A0_1
 70
0
 62
7
  6
CONTINUOUS
370
-3
390
F
  0
LAYER
  5
275
100
AcDbSymbolTableRecord
100
AcDbLayerTableRecord
  2
43900636A0_1_1
 70
0
 62
7
  6
CONTINUOUS
370
-3
390
F
  0
LAYER
  5
276
100
AcDbSymbolTableRecord
100
AcDbLayerTableRecord
  2
ASSI
 70
0
 62
7
  6
CONTINUOUS
370
-3
390
F
  0
LAYER
  5
277
100
AcDbSymbolTableRecord
100
AcDbLayerTableRecord
  2
CN-1S-HEADER-PIH-1_254000
 70
0
 62
7
  6
CONTINUOUS
370
-3
390
F
  0
LAYER
  5
278
100
AcDbSymbolTableRecord
100
AcDbLayerTableRecord
  2
CN-1S-HEADER-PIH-1_254000_1
 70
0
 62
7
  6
CONTINUOUS
370
-3
390
F
  0
LAYER
  5
279
100
AcDbSymbolTableRecord
100
AcDbLayerTableRecord
  2
CN-1S-HEADER-PIH-1_254000_2
 70
0
 62
7
  6
CONTINUOUS
370
-3
390
F
  0
LAYER
  5
27A
100
AcDbSymbolTableRecord
100
AcDbLayerTableRecord
  2
CN-1S-HEADER-PIH-1_254000_3
 70
0
 62
7
  6
CONTINUOUS
370
-3
390
F
  0
LAYER
  5
27B
100
AcDbSymbolTableRecord
100
AcDbLayerTableRecord
  2
CN-MSM01002-VIMAR_1520000
 70
0
 62
7
  6
CONTINUOUS
370
-3
390
F
  0
LAYER
  5
27C
100
AcDbSymbolTableRecord
100
AcDbLayerTableRecord
  2
CN-MSM02001-VIMAR_1520000
 70
0
 62
7
  6
CONTINUOUS
370
-3
390
F
  0
LAYER
  5
27D
100
AcDbSymbolTableRecord
100
AcDbLayerTableRecord
  2
CN-MSM02001-VIMAR_1520000_1
 70
0
 62
7
  6
CONTINUOUS
370
-3
390
F
  0
LAYER
  5
27E
100
AcDbSymbolTableRecord
100
AcDbLayerTableRecord
  2
CN-MSM02001-VIMAR_1520000_2
 70
0
 62
7
  6
CONTINUOUS
370
-3
390
F
  0
LAYER
  5
27F
100
AcDbSymbolTableRecord
100
AcDbLayerTableRecord
  2
CN-MSM02001-VIMAR_1520000_3
 70
0
 62
7
  6
CONTINUOUS
370
-3
390
F
  0
LAYER
  5
280
100
AcDbSymbolTableRecord
100
AcDbLayerTableRecord
  2
CN-MSM03001-VIMAR_1520000
 70
0
 62
7
  6
CONTINUOUS
370
-3
390
F
  0
LAYER
  5
281
100
AcDbSymbolTableRecord
100
AcDbLayerTableRecord
  2
CN1-REF_RHOMBUSHOLE24_SPEA_0
 70
0
 62
7
  6
CONTINUOUS
370
-3
390
F
  0
LAYER
  5
282
100
AcDbSymbolTableRecord
100
AcDbLayerTableRecord
  2
CN1-REF_RHOMBUSHOLE24_SPEA_0_1
 70
0
 62
7
  6
CONTINUOUS
370
-3
390
F
  0
LAYER
  5
283
100
AcDbSymbolTableRecord
100
AcDbLayerTableRecord
  2
CN1-REF_RHOMBUSHOLE24_SPEA_0_2
 70
0
 62
7
  6
CONTINUOUS
370
-3
390
F
  0
LAYER
  5
284
100
AcDbSymbolTableRecord
100
AcDbLayerTableRecord
  2
CN1-REF_RHOMBUSHOLE24_SPEA_0_3
 70
0
 62
7
  6
CONTINUOUS
370
-3
390
F
  0
LAYER
  5
285
100
AcDbSymbolTableRecord
100
AcDbLayerTableRecord
  2
CN1-REF_SQUAREHOLE12_SPEA-VIMAR
 70
0
 62
7
  6
CONTINUOUS
370
-3
390
F
  0
LAYER
  5
286
100
AcDbSymbolTableRecord
100
AcDbLayerTableRecord
  2
CN1-REF_SQUAREHOLE12_SPEA-VIM_1
 70
0
 62
7
  6
CONTINUOUS
370
-3
390
F
  0
LAYER
  5
287
100
AcDbSymbolTableRecord
100
AcDbLayerTableRecord
  2
CN1-REF_SQUAREHOLE12_SPEA-VIM_2
 70
0
 62
7
  6
CONTINUOUS
370
-3
390
F
  0
LAYER
  5
288
100
AcDbSymbolTableRecord
100
AcDbLayerTableRecord
  2
CN1-REF_SQUAREHOLE12_SPEA-VIM_3
 70
0
 62
7
  6
CONTINUOUS
370
-3
390
F
  0
LAYER
  5
289
100
AcDbSymbolTableRecord
100
AcDbLayerTableRecord
  2
CN1-TP10_SMD-VIMAR_01_10000
 70
0
 62
7
  6
CONTINUOUS
370
-3
390
F
  0
LAYER
  5
28A
100
AcDbSymbolTableRecord
100
AcDbLayerTableRecord
  2
CN_STRIP_2_P2_54_1-VIMAR_254000
 70
0
 62
7
  6
CONTINUOUS
370
-3
390
F
  0
LAYER
  5
28B
100
AcDbSymbolTableRecord
100
AcDbLayerTableRecord
  2
CN_STRIP_2_P2_54_1-VIMAR_2540_1
 70
0
 62
7
  6
CONTINUOUS
370
-3
390
F
  0
LAYER
  5
28C
100
AcDbSymbolTableRecord
100
AcDbLayerTableRecord
  2
COLOR1
 70
0
 62
7
  6
CONTINUOUS
370
-3
390
F
  0
LAYER
  5
28D
100
AcDbSymbolTableRecord
100
AcDbLayerTableRecord
  2
COLOR14
 70
0
 62
7
  6
CONTINUOUS
370
-3
390
F
  0
LAYER
  5
28E
100
AcDbSymbolTableRecord
100
AcDbLayerTableRecord
  2
COLOR15
 70
0
 62
7
  6
CONTINUOUS
370
-3
390
F
  0
LAYER
  5
28F
100
AcDbSymbolTableRecord
100
AcDbLayerTableRecord
  2
COLOR6
 70
0
 62
7
  6
CONTINUOUS
370
-3
390
F
  0
LAYER
  5
290
100
AcDbSymbolTableRecord
100
AcDbLayerTableRecord
  2
COLOR7
 70
0
 62
7
  6
CONTINUOUS
370
-3
390
F
  0
LAYER
  5
291
100
AcDbSymbolTableRecord
100
AcDbLayerTableRecord
  2
COORDINATE
 70
0
 62
7
  6
CONTINUOUS
370
-3
390
F
  0
LAYER
  5
292
100
AcDbSymbolTableRecord
100
AcDbLayerTableRecord
  2
COPY_PUBLISH
 70
0
 62
7
  6
CONTINUOUS
370
-3
390
F
  0
LAYER
  5
293
100
AcDbSymbolTableRecord
100
AcDbLayerTableRecord
  2
COSMETIC
 70
0
 62
7
  6
CONTINUOUS
370
-3
390
F
  0
LAYER
  5
294
100
AcDbSymbolTableRecord
100
AcDbLayerTableRecord
  2
COSMETICI
 70
0
 62
7
  6
CONTINUOUS
370
-3
390
F
  0
LAYER
  5
295
100
AcDbSymbolTableRecord
100
AcDbLayerTableRecord
  2
CP-CE11-RF-VIMAR_630000
 70
0
 62
7
  6
CONTINUOUS
370
-3
390
F
  0
LAYER
  5
296
100
AcDbSymbolTableRecord
100
AcDbLayerTableRecord
  2
CP-DO-214AC-VIMAR_240000
 70
0
 62
7
  6
CONTINUOUS
370
-3
390
F
  0
LAYER
  5
297
100
AcDbSymbolTableRecord
100
AcDbLayerTableRecord
  2
CP-R0-213AB-VIMAR_254000
 70
0
 62
7
  6
CONTINUOUS
370
-3
390
F
  0
LAYER
  5
298
100
AcDbSymbolTableRecord
100
AcDbLayerTableRecord
  2
CURVE
 70
0
 62
7
  6
CONTINUOUS
370
-3
390
F
  0
LAYER
  5
299
100
AcDbSymbolTableRecord
100
AcDbLayerTableRecord
  2
DIOM5436X110N_110000
 70
0
 62
7
  6
CONTINUOUS
370
-3
390
F
  0
LAYER
  5
29A
100
AcDbSymbolTableRecord
100
AcDbLayerTableRecord
  2
DIOM5527X295M_295000
 70
0
 62
7
  6
CONTINUOUS
370
-3
390
F
  0
LAYER
  5
29B
100
AcDbSymbolTableRecord
100
AcDbLayerTableRecord
  2
DL_GREEN_574NM_RED_639NM_3X1X2_
 70
0
 62
7
  6
CONTINUOUS
370
-3
390
F
  0
LAYER
  5
29C
100
AcDbSymbolTableRecord
100
AcDbLayerTableRecord
  2
DRAFT
 70
0
 62
7
  6
CONTINUOUS
370
-3
390
F
  0
LAYER
  5
29D
100
AcDbSymbolTableRecord
100
AcDbLayerTableRecord
  2
E2_MARK_10000
 70
0
 62
7
  6
CONTINUOUS
370
-3
390
F
  0
LAYER
  5
29E
100
AcDbSymbolTableRecord
100
AcDbLayerTableRecord
  2
E2_MARK_10000_1
 70
0
 62
7
  6
CONTINUOUS
370
-3
390
F
  0
LAYER
  5
29F
100
AcDbSymbolTableRecord
100
AcDbLayerTableRecord
  2
EFD25_13_9_1290000
 70
0
 62
7
  6
CONTINUOUS
370
-3
390
F
  0
LAYER
  5
2A0
100
AcDbSymbolTableRecord
100
AcDbLayerTableRecord
  2
ESIP-7C_VIMAR_1000000
 70
0
 62
7
  6
CONTINUOUS
370
-3
390
F
  0
LAYER
  5
2A1
100
AcDbSymbolTableRecord
100
AcDbLayerTableRecord
  2
I3-TO-H12-VIMAR_1080000
 70
0
 62
7
  6
CONTINUOUS
370
-3
390
F
  0
LAYER
  5
2A2
100
AcDbSymbolTableRecord
100
AcDbLayerTableRecord
  2
I3-TO-H2-7C-VIMAR_2040000
 70
0
 62
7
  6
CONTINUOUS
370
-3
390
F
  0
LAYER
  5
2A3
100
AcDbSymbolTableRecord
100
AcDbLayerTableRecord
  2
IGES_HOLGER
 70
0
 62
7
  6
CONTINUOUS
370
-3
390
F
  0
LAYER
  5
2A4
100
AcDbSymbolTableRecord
100
AcDbLayerTableRecord
  2
IMPORT_IGES
 70
0
 62
7
  6
CONTINUOUS
370
-3
390
F
  0
LAYER
  5
2A5
100
AcDbSymbolTableRecord
100
AcDbLayerTableRecord
  2
INTFCLR_1
 70
0
 62
7
  6
CONTINUOUS
370
-3
390
F
  0
LAYER
  5
2A6
100
AcDbSymbolTableRecord
100
AcDbLayerTableRecord
  2
INTFCLR_11
 70
0
 62
7
  6
CONTINUOUS
370
-3
390
F
  0
LAYER
  5
2A7
100
AcDbSymbolTableRecord
100
AcDbLayerTableRecord
  2
INTFCLR_11_1
 70
0
 62
7
  6
CONTINUOUS
370
-3
390
F
  0
LAYER
  5
2A8
100
AcDbSymbolTableRecord
100
AcDbLayerTableRecord
  2
INTFCLR_11_10
 70
0
 62
7
  6
CONTINUOUS
370
-3
390
F
  0
LAYER
  5
2A9
100
AcDbSymbolTableRecord
100
AcDbLayerTableRecord
  2
INTFCLR_11_11
 70
0
 62
7
  6
CONTINUOUS
370
-3
390
F
  0
LAYER
  5
2AA
100
AcDbSymbolTableRecord
100
AcDbLayerTableRecord
  2
INTFCLR_11_12
 70
0
 62
7
  6
CONTINUOUS
370
-3
390
F
  0
LAYER
  5
2AB
100
AcDbSymbolTableRecord
100
AcDbLayerTableRecord
  2
INTFCLR_11_13
 70
0
 62
7
  6
CONTINUOUS
370
-3
390
F
  0
LAYER
  5
2AC
100
AcDbSymbolTableRecord
100
AcDbLayerTableRecord
  2
INTFCLR_11_14
 70
0
 62
7
  6
CONTINUOUS
370
-3
390
F
  0
LAYER
  5
2AD
100
AcDbSymbolTableRecord
100
AcDbLayerTableRecord
  2
INTFCLR_11_15
 70
0
 62
7
  6
CONTINUOUS
370
-3
390
F
  0
LAYER
  5
2AE
100
AcDbSymbolTableRecord
100
AcDbLayerTableRecord
  2
INTFCLR_11_16
 70
0
 62
7
  6
CONTINUOUS
370
-3
390
F
  0
LAYER
  5
2AF
100
AcDbSymbolTableRecord
100
AcDbLayerTableRecord
  2
INTFCLR_11_17
 70
0
 62
7
  6
CONTINUOUS
370
-3
390
F
  0
LAYER
  5
2B0
100
AcDbSymbolTableRecord
100
AcDbLayerTableRecord
  2
INTFCLR_11_18
 70
0
 62
7
  6
CONTINUOUS
370
-3
390
F
  0
LAYER
  5
2B1
100
AcDbSymbolTableRecord
100
AcDbLayerTableRecord
  2
INTFCLR_11_19
 70
0
 62
7
  6
CONTINUOUS
370
-3
390
F
  0
LAYER
  5
2B2
100
AcDbSymbolTableRecord
100
AcDbLayerTableRecord
  2
INTFCLR_11_2
 70
0
 62
7
  6
CONTINUOUS
370
-3
390
F
  0
LAYER
  5
2B3
100
AcDbSymbolTableRecord
100
AcDbLayerTableRecord
  2
INTFCLR_11_20
 70
0
 62
7
  6
CONTINUOUS
370
-3
390
F
  0
LAYER
  5
2B4
100
AcDbSymbolTableRecord
100
AcDbLayerTableRecord
  2
INTFCLR_11_21
 70
0
 62
7
  6
CONTINUOUS
370
-3
390
F
  0
LAYER
  5
2B5
100
AcDbSymbolTableRecord
100
AcDbLayerTableRecord
  2
INTFCLR_11_22
 70
0
 62
7
  6
CONTINUOUS
370
-3
390
F
  0
LAYER
  5
2B6
100
AcDbSymbolTableRecord
100
AcDbLayerTableRecord
  2
INTFCLR_11_23
 70
0
 62
7
  6
CONTINUOUS
370
-3
390
F
  0
LAYER
  5
2B7
100
AcDbSymbolTableRecord
100
AcDbLayerTableRecord
  2
INTFCLR_11_24
 70
0
 62
7
  6
CONTINUOUS
370
-3
390
F
  0
LAYER
  5
2B8
100
AcDbSymbolTableRecord
100
AcDbLayerTableRecord
  2
INTFCLR_11_25
 70
0
 62
7
  6
CONTINUOUS
370
-3
390
F
  0
LAYER
  5
2B9
100
AcDbSymbolTableRecord
100
AcDbLayerTableRecord
  2
INTFCLR_11_26
 70
0
 62
7
  6
CONTINUOUS
370
-3
390
F
  0
LAYER
  5
2BA
100
AcDbSymbolTableRecord
100
AcDbLayerTableRecord
  2
INTFCLR_11_27
 70
0
 62
7
  6
CONTINUOUS
370
-3
390
F
  0
LAYER
  5
2BB
100
AcDbSymbolTableRecord
100
AcDbLayerTableRecord
  2
INTFCLR_11_28
 70
0
 62
7
  6
CONTINUOUS
370
-3
390
F
  0
LAYER
  5
2BC
100
AcDbSymbolTableRecord
100
AcDbLayerTableRecord
  2
INTFCLR_11_29
 70
0
 62
7
  6
CONTINUOUS
370
-3
390
F
  0
LAYER
  5
2BD
100
AcDbSymbolTableRecord
100
AcDbLayerTableRecord
  2
INTFCLR_11_3
 70
0
 62
7
  6
CONTINUOUS
370
-3
390
F
  0
LAYER
  5
2BE
100
AcDbSymbolTableRecord
100
AcDbLayerTableRecord
  2
INTFCLR_11_30
 70
0
 62
7
  6
CONTINUOUS
370
-3
390
F
  0
LAYER
  5
2BF
100
AcDbSymbolTableRecord
100
AcDbLayerTableRecord
  2
INTFCLR_11_31
 70
0
 62
7
  6
CONTINUOUS
370
-3
390
F
  0
LAYER
  5
2C0
100
AcDbSymbolTableRecord
100
AcDbLayerTableRecord
  2
INTFCLR_11_32
 70
0
 62
7
  6
CONTINUOUS
370
-3
390
F
  0
LAYER
  5
2C1
100
AcDbSymbolTableRecord
100
AcDbLayerTableRecord
  2
INTFCLR_11_33
 70
0
 62
7
  6
CONTINUOUS
370
-3
390
F
  0
LAYER
  5
2C2
100
AcDbSymbolTableRecord
100
AcDbLayerTableRecord
  2
INTFCLR_11_34
 70
0
 62
7
  6
CONTINUOUS
370
-3
390
F
  0
LAYER
  5
2C3
100
AcDbSymbolTableRecord
100
AcDbLayerTableRecord
  2
INTFCLR_11_35
 70
0
 62
7
  6
CONTINUOUS
370
-3
390
F
  0
LAYER
  5
2C4
100
AcDbSymbolTableRecord
100
AcDbLayerTableRecord
  2
INTFCLR_11_36
 70
0
 62
7
  6
CONTINUOUS
370
-3
390
F
  0
LAYER
  5
2C5
100
AcDbSymbolTableRecord
100
AcDbLayerTableRecord
  2
INTFCLR_11_37
 70
0
 62
7
  6
CONTINUOUS
370
-3
390
F
  0
LAYER
  5
2C6
100
AcDbSymbolTableRecord
100
AcDbLayerTableRecord
  2
INTFCLR_11_38
 70
0
 62
7
  6
CONTINUOUS
370
-3
390
F
  0
LAYER
  5
2C7
100
AcDbSymbolTableRecord
100
AcDbLayerTableRecord
  2
INTFCLR_11_39
 70
0
 62
7
  6
CONTINUOUS
370
-3
390
F
  0
LAYER
  5
2C8
100
AcDbSymbolTableRecord
100
AcDbLayerTableRecord
  2
INTFCLR_11_4
 70
0
 62
7
  6
CONTINUOUS
370
-3
390
F
  0
LAYER
  5
2C9
100
AcDbSymbolTableRecord
100
AcDbLayerTableRecord
  2
INTFCLR_11_40
 70
0
 62
7
  6
CONTINUOUS
370
-3
390
F
  0
LAYER
  5
2CA
100
AcDbSymbolTableRecord
100
AcDbLayerTableRecord
  2
INTFCLR_11_41
 70
0
 62
7
  6
CONTINUOUS
370
-3
390
F
  0
LAYER
  5
2CB
100
AcDbSymbolTableRecord
100
AcDbLayerTableRecord
  2
INTFCLR_11_42
 70
0
 62
7
  6
CONTINUOUS
370
-3
390
F
  0
LAYER
  5
2CC
100
AcDbSymbolTableRecord
100
AcDbLayerTableRecord
  2
INTFCLR_11_43
 70
0
 62
7
  6
CONTINUOUS
370
-3
390
F
  0
LAYER
  5
2CD
100
AcDbSymbolTableRecord
100
AcDbLayerTableRecord
  2
INTFCLR_11_44
 70
0
 62
7
  6
CONTINUOUS
370
-3
390
F
  0
LAYER
  5
2CE
100
AcDbSymbolTableRecord
100
AcDbLayerTableRecord
  2
INTFCLR_11_45
 70
0
 62
7
  6
CONTINUOUS
370
-3
390
F
  0
LAYER
  5
2CF
100
AcDbSymbolTableRecord
100
AcDbLayerTableRecord
  2
INTFCLR_11_46
 70
0
 62
7
  6
CONTINUOUS
370
-3
390
F
  0
LAYER
  5
2D0
100
AcDbSymbolTableRecord
100
AcDbLayerTableRecord
  2
INTFCLR_11_47
 70
0
 62
7
  6
CONTINUOUS
370
-3
390
F
  0
LAYER
  5
2D1
100
AcDbSymbolTableRecord
100
AcDbLayerTableRecord
  2
INTFCLR_11_48
 70
0
 62
7
  6
CONTINUOUS
370
-3
390
F
  0
LAYER
  5
2D2
100
AcDbSymbolTableRecord
100
AcDbLayerTableRecord
  2
INTFCLR_11_49
 70
0
 62
7
  6
CONTINUOUS
370
-3
390
F
  0
LAYER
  5
2D3
100
AcDbSymbolTableRecord
100
AcDbLayerTableRecord
  2
INTFCLR_11_5
 70
0
 62
7
  6
CONTINUOUS
370
-3
390
F
  0
LAYER
  5
2D4
100
AcDbSymbolTableRecord
100
AcDbLayerTableRecord
  2
INTFCLR_11_50
 70
0
 62
7
  6
CONTINUOUS
370
-3
390
F
  0
LAYER
  5
2D5
100
AcDbSymbolTableRecord
100
AcDbLayerTableRecord
  2
INTFCLR_11_51
 70
0
 62
7
  6
CONTINUOUS
370
-3
390
F
  0
LAYER
  5
2D6
100
AcDbSymbolTableRecord
100
AcDbLayerTableRecord
  2
INTFCLR_11_52
 70
0
 62
7
  6
CONTINUOUS
370
-3
390
F
  0
LAYER
  5
2D7
100
AcDbSymbolTableRecord
100
AcDbLayerTableRecord
  2
INTFCLR_11_53
 70
0
 62
7
  6
CONTINUOUS
370
-3
390
F
  0
LAYER
  5
2D8
100
AcDbSymbolTableRecord
100
AcDbLayerTableRecord
  2
INTFCLR_11_54
 70
0
 62
7
  6
CONTINUOUS
370
-3
390
F
  0
LAYER
  5
2D9
100
AcDbSymbolTableRecord
100
AcDbLayerTableRecord
  2
INTFCLR_11_55
 70
0
 62
7
  6
CONTINUOUS
370
-3
390
F
  0
LAYER
  5
2DA
100
AcDbSymbolTableRecord
100
AcDbLayerTableRecord
  2
INTFCLR_11_56
 70
0
 62
7
  6
CONTINUOUS
370
-3
390
F
  0
LAYER
  5
2DB
100
AcDbSymbolTableRecord
100
AcDbLayerTableRecord
  2
INTFCLR_11_57
 70
0
 62
7
  6
CONTINUOUS
370
-3
390
F
  0
LAYER
  5
2DC
100
AcDbSymbolTableRecord
100
AcDbLayerTableRecord
  2
INTFCLR_11_58
 70
0
 62
7
  6
CONTINUOUS
370
-3
390
F
  0
LAYER
  5
2DD
100
AcDbSymbolTableRecord
100
AcDbLayerTableRecord
  2
INTFCLR_11_6
 70
0
 62
7
  6
CONTINUOUS
370
-3
390
F
  0
LAYER
  5
2DE
100
AcDbSymbolTableRecord
100
AcDbLayerTableRecord
  2
INTFCLR_11_7
 70
0
 62
7
  6
CONTINUOUS
370
-3
390
F
  0
LAYER
  5
2DF
100
AcDbSymbolTableRecord
100
AcDbLayerTableRecord
  2
INTFCLR_11_8
 70
0
 62
7
  6
CONTINUOUS
370
-3
390
F
  0
LAYER
  5
2E0
100
AcDbSymbolTableRecord
100
AcDbLayerTableRecord
  2
INTFCLR_11_9
 70
0
 62
7
  6
CONTINUOUS
370
-3
390
F
  0
LAYER
  5
2E1
100
AcDbSymbolTableRecord
100
AcDbLayerTableRecord
  2
INTFCLR_2
 70
0
 62
7
  6
CONTINUOUS
370
-3
390
F
  0
LAYER
  5
2E2
100
AcDbSymbolTableRecord
100
AcDbLayerTableRecord
  2
INTFCLR_3
 70
0
 62
7
  6
CONTINUOUS
370
-3
390
F
  0
LAYER
  5
2E3
100
AcDbSymbolTableRecord
100
AcDbLayerTableRecord
  2
INTFCLR_4
 70
0
 62
7
  6
CONTINUOUS
370
-3
390
F
  0
LAYER
  5
2E4
100
AcDbSymbolTableRecord
100
AcDbLayerTableRecord
  2
INTFCLR_5
 70
0
 62
7
  6
CONTINUOUS
370
-3
390
F
  0
LAYER
  5
2E5
100
AcDbSymbolTableRecord
100
AcDbLayerTableRecord
  2
INTFCLR_6
 70
0
 62
7
  6
CONTINUOUS
370
-3
390
F
  0
LAYER
  5
2E6
100
AcDbSymbolTableRecord
100
AcDbLayerTableRecord
  2
INTFCLR_7
 70
0
 62
7
  6
CONTINUOUS
370
-3
390
F
  0
LAYER
  5
2E7
100
AcDbSymbolTableRecord
100
AcDbLayerTableRecord
  2
INTF_1
 70
0
 62
7
  6
CONTINUOUS
370
-3
390
F
  0
LAYER
  5
2E8
100
AcDbSymbolTableRecord
100
AcDbLayerTableRecord
  2
INTF_12
 70
0
 62
7
  6
CONTINUOUS
370
-3
390
F
  0
LAYER
  5
2E9
100
AcDbSymbolTableRecord
100
AcDbLayerTableRecord
  2
INTF_16
 70
0
 62
7
  6
CONTINUOUS
370
-3
390
F
  0
LAYER
  5
2EA
100
AcDbSymbolTableRecord
100
AcDbLayerTableRecord
  2
INTF_2
 70
0
 62
7
  6
CONTINUOUS
370
-3
390
F
  0
LAYER
  5
2EB
100
AcDbSymbolTableRecord
100
AcDbLayerTableRecord
  2
INTF_3
 70
0
 62
7
  6
CONTINUOUS
370
-3
390
F
  0
LAYER
  5
2EC
100
AcDbSymbolTableRecord
100
AcDbLayerTableRecord
  2
INTF_4
 70
0
 62
7
  6
CONTINUOUS
370
-3
390
F
  0
LAYER
  5
2ED
100
AcDbSymbolTableRecord
100
AcDbLayerTableRecord
  2
INTF_6
 70
0
 62
7
  6
CONTINUOUS
370
-3
390
F
  0
LAYER
  5
2EE
100
AcDbSymbolTableRecord
100
AcDbLayerTableRecord
  2
INTF_8
 70
0
 62
7
  6
CONTINUOUS
370
-3
390
F
  0
LAYER
  5
2EF
100
AcDbSymbolTableRecord
100
AcDbLayerTableRecord
  2
INTF_GREEN
 70
0
 62
7
  6
CONTINUOUS
370
-3
390
F
  0
LAYER
  5
2F0
100
AcDbSymbolTableRecord
100
AcDbLayerTableRecord
  2
INTF_YELLOW
 70
0
 62
7
  6
CONTINUOUS
370
-3
390
F
  0
LAYER
  5
2F1
100
AcDbSymbolTableRecord
100
AcDbLayerTableRecord
  2
LIVELLO_1
 70
0
 62
7
  6
CONTINUOUS
370
-3
390
F
  0
LAYER
  5
2F2
100
AcDbSymbolTableRecord
100
AcDbLayerTableRecord
  2
LOGO_RESIST-RESTYLING_10000
 70
0
 62
7
  6
CONTINUOUS
370
-3
390
F
  0
LAYER
  5
2F3
100
AcDbSymbolTableRecord
100
AcDbLayerTableRecord
  2
LOGO_RESIST-RESTYLING_10000_1
 70
0
 62
7
  6
CONTINUOUS
370
-3
390
F
  0
LAYER
  5
2F4
100
AcDbSymbolTableRecord
100
AcDbLayerTableRecord
  2
L_B82791H_1760000
 70
0
 62
7
  6
CONTINUOUS
370
-3
390
F
  0
LAYER
  5
2F5
100
AcDbSymbolTableRecord
100
AcDbLayerTableRecord
  2
L_SMD_5X5X2-VIMAR_200000
 70
0
 62
7
  6
CONTINUOUS
370
-3
390
F
  0
LAYER
  5
2F6
100
AcDbSymbolTableRecord
100
AcDbLayerTableRecord
  2
MM3-MPAK-RF-VIMAR_120000
 70
0
 62
7
  6
CONTINUOUS
370
-3
390
F
  0
LAYER
  5
2F7
100
AcDbSymbolTableRecord
100
AcDbLayerTableRecord
  2
MM3-MPAK-RF-VIMAR_120000_1
 70
0
 62
7
  6
CONTINUOUS
370
-3
390
F
  0
LAYER
  5
2F8
100
AcDbSymbolTableRecord
100
AcDbLayerTableRecord
  2
MM3-MPAK-RF-VIMAR_120000_2
 70
0
 62
7
  6
CONTINUOUS
370
-3
390
F
  0
LAYER
  5
2F9
100
AcDbSymbolTableRecord
100
AcDbLayerTableRecord
  2
MM3-MPAK-RF-VIMAR_120000_3
 70
0
 62
7
  6
CONTINUOUS
370
-3
390
F
  0
LAYER
  5
2FA
100
AcDbSymbolTableRecord
100
AcDbLayerTableRecord
  2
MM3-MPAK-RF-VIMAR_120000_4
 70
0
 62
7
  6
CONTINUOUS
370
-3
390
F
  0
LAYER
  5
2FB
100
AcDbSymbolTableRecord
100
AcDbLayerTableRecord
  2
MM4-LSOP-1-VIMAR_230000
 70
0
 62
7
  6
CONTINUOUS
370
-3
390
F
  0
LAYER
  5
2FC
100
AcDbSymbolTableRecord
100
AcDbLayerTableRecord
  2
MSBR-1
 70
0
 62
7
  6
CONTINUOUS
370
-3
390
F
  0
LAYER
  5
2FD
100
AcDbSymbolTableRecord
100
AcDbLayerTableRecord
  2
MSBR-10
 70
0
 62
7
  6
CONTINUOUS
370
-3
390
F
  0
LAYER
  5
2FE
100
AcDbSymbolTableRecord
100
AcDbLayerTableRecord
  2
MSBR-100
 70
0
 62
7
  6
CONTINUOUS
370
-3
390
F
  0
LAYER
  5
2FF
100
AcDbSymbolTableRecord
100
AcDbLayerTableRecord
  2
MSBR-101
 70
0
 62
7
  6
CONTINUOUS
370
-3
390
F
  0
LAYER
  5
300
100
AcDbSymbolTableRecord
100
AcDbLayerTableRecord
  2
MSBR-102
 70
0
 62
7
  6
CONTINUOUS
370
-3
390
F
  0
LAYER
  5
301
100
AcDbSymbolTableRecord
100
AcDbLayerTableRecord
  2
MSBR-103
 70
0
 62
7
  6
CONTINUOUS
370
-3
390
F
  0
LAYER
  5
302
100
AcDbSymbolTableRecord
100
AcDbLayerTableRecord
  2
MSBR-104
 70
0
 62
7
  6
CONTINUOUS
370
-3
390
F
  0
LAYER
  5
303
100
AcDbSymbolTableRecord
100
AcDbLayerTableRecord
  2
MSBR-105
 70
0
 62
7
  6
CONTINUOUS
370
-3
390
F
  0
LAYER
  5
304
100
AcDbSymbolTableRecord
100
AcDbLayerTableRecord
  2
MSBR-106
 70
0
 62
7
  6
CONTINUOUS
370
-3
390
F
  0
LAYER
  5
305
100
AcDbSymbolTableRecord
100
AcDbLayerTableRecord
  2
MSBR-107
 70
0
 62
7
  6
CONTINUOUS
370
-3
390
F
  0
LAYER
  5
306
100
AcDbSymbolTableRecord
100
AcDbLayerTableRecord
  2
MSBR-108
 70
0
 62
7
  6
CONTINUOUS
370
-3
390
F
  0
LAYER
  5
307
100
AcDbSymbolTableRecord
100
AcDbLayerTableRecord
  2
MSBR-109
 70
0
 62
7
  6
CONTINUOUS
370
-3
390
F
  0
LAYER
  5
308
100
AcDbSymbolTableRecord
100
AcDbLayerTableRecord
  2
MSBR-11
 70
0
 62
7
  6
CONTINUOUS
370
-3
390
F
  0
LAYER
  5
309
100
AcDbSymbolTableRecord
100
AcDbLayerTableRecord
  2
MSBR-110
 70
0
 62
7
  6
CONTINUOUS
370
-3
390
F
  0
LAYER
  5
30A
100
AcDbSymbolTableRecord
100
AcDbLayerTableRecord
  2
MSBR-111
 70
0
 62
7
  6
CONTINUOUS
370
-3
390
F
  0
LAYER
  5
30B
100
AcDbSymbolTableRecord
100
AcDbLayerTableRecord
  2
MSBR-112
 70
0
 62
7
  6
CONTINUOUS
370
-3
390
F
  0
LAYER
  5
30C
100
AcDbSymbolTableRecord
100
AcDbLayerTableRecord
  2
MSBR-113
 70
0
 62
7
  6
CONTINUOUS
370
-3
390
F
  0
LAYER
  5
30D
100
AcDbSymbolTableRecord
100
AcDbLayerTableRecord
  2
MSBR-114
 70
0
 62
7
  6
CONTINUOUS
370
-3
390
F
  0
LAYER
  5
30E
100
AcDbSymbolTableRecord
100
AcDbLayerTableRecord
  2
MSBR-115
 70
0
 62
7
  6
CONTINUOUS
370
-3
390
F
  0
LAYER
  5
30F
100
AcDbSymbolTableRecord
100
AcDbLayerTableRecord
  2
MSBR-116
 70
0
 62
7
  6
CONTINUOUS
370
-3
390
F
  0
LAYER
  5
310
100
AcDbSymbolTableRecord
100
AcDbLayerTableRecord
  2
MSBR-117
 70
0
 62
7
  6
CONTINUOUS
370
-3
390
F
  0
LAYER
  5
311
100
AcDbSymbolTableRecord
100
AcDbLayerTableRecord
  2
MSBR-118
 70
0
 62
7
  6
CONTINUOUS
370
-3
390
F
  0
LAYER
  5
312
100
AcDbSymbolTableRecord
100
AcDbLayerTableRecord
  2
MSBR-119
 70
0
 62
7
  6
CONTINUOUS
370
-3
390
F
  0
LAYER
  5
313
100
AcDbSymbolTableRecord
100
AcDbLayerTableRecord
  2
MSBR-12
 70
0
 62
7
  6
CONTINUOUS
370
-3
390
F
  0
LAYER
  5
314
100
AcDbSymbolTableRecord
100
AcDbLayerTableRecord
  2
MSBR-120
 70
0
 62
7
  6
CONTINUOUS
370
-3
390
F
  0
LAYER
  5
315
100
AcDbSymbolTableRecord
100
AcDbLayerTableRecord
  2
MSBR-121
 70
0
 62
7
  6
CONTINUOUS
370
-3
390
F
  0
LAYER
  5
316
100
AcDbSymbolTableRecord
100
AcDbLayerTableRecord
  2
MSBR-122
 70
0
 62
7
  6
CONTINUOUS
370
-3
390
F
  0
LAYER
  5
317
100
AcDbSymbolTableRecord
100
AcDbLayerTableRecord
  2
MSBR-123
 70
0
 62
7
  6
CONTINUOUS
370
-3
390
F
  0
LAYER
  5
318
100
AcDbSymbolTableRecord
100
AcDbLayerTableRecord
  2
MSBR-124
 70
0
 62
7
  6
CONTINUOUS
370
-3
390
F
  0
LAYER
  5
319
100
AcDbSymbolTableRecord
100
AcDbLayerTableRecord
  2
MSBR-13
 70
0
 62
7
  6
CONTINUOUS
370
-3
390
F
  0
LAYER
  5
31A
100
AcDbSymbolTableRecord
100
AcDbLayerTableRecord
  2
MSBR-14
 70
0
 62
7
  6
CONTINUOUS
370
-3
390
F
  0
LAYER
  5
31B
100
AcDbSymbolTableRecord
100
AcDbLayerTableRecord
  2
MSBR-15
 70
0
 62
7
  6
CONTINUOUS
370
-3
390
F
  0
LAYER
  5
31C
100
AcDbSymbolTableRecord
100
AcDbLayerTableRecord
  2
MSBR-16
 70
0
 62
7
  6
CONTINUOUS
370
-3
390
F
  0
LAYER
  5
31D
100
AcDbSymbolTableRecord
100
AcDbLayerTableRecord
  2
MSBR-17
 70
0
 62
7
  6
CONTINUOUS
370
-3
390
F
  0
LAYER
  5
31E
100
AcDbSymbolTableRecord
100
AcDbLayerTableRecord
  2
MSBR-18
 70
0
 62
7
  6
CONTINUOUS
370
-3
390
F
  0
LAYER
  5
31F
100
AcDbSymbolTableRecord
100
AcDbLayerTableRecord
  2
MSBR-19
 70
0
 62
7
  6
CONTINUOUS
370
-3
390
F
  0
LAYER
  5
320
100
AcDbSymbolTableRecord
100
AcDbLayerTableRecord
  2
MSBR-2
 70
0
 62
7
  6
CONTINUOUS
370
-3
390
F
  0
LAYER
  5
321
100
AcDbSymbolTableRecord
100
AcDbLayerTableRecord
  2
MSBR-20
 70
0
 62
7
  6
CONTINUOUS
370
-3
390
F
  0
LAYER
  5
322
100
AcDbSymbolTableRecord
100
AcDbLayerTableRecord
  2
MSBR-21
 70
0
 62
7
  6
CONTINUOUS
370
-3
390
F
  0
LAYER
  5
323
100
AcDbSymbolTableRecord
100
AcDbLayerTableRecord
  2
MSBR-22
 70
0
 62
7
  6
CONTINUOUS
370
-3
390
F
  0
LAYER
  5
324
100
AcDbSymbolTableRecord
100
AcDbLayerTableRecord
  2
MSBR-23
 70
0
 62
7
  6
CONTINUOUS
370
-3
390
F
  0
LAYER
  5
325
100
AcDbSymbolTableRecord
100
AcDbLayerTableRecord
  2
MSBR-24
 70
0
 62
7
  6
CONTINUOUS
370
-3
390
F
  0
LAYER
  5
326
100
AcDbSymbolTableRecord
100
AcDbLayerTableRecord
  2
MSBR-25
 70
0
 62
7
  6
CONTINUOUS
370
-3
390
F
  0
LAYER
  5
327
100
AcDbSymbolTableRecord
100
AcDbLayerTableRecord
  2
MSBR-26
 70
0
 62
7
  6
CONTINUOUS
370
-3
390
F
  0
LAYER
  5
328
100
AcDbSymbolTableRecord
100
AcDbLayerTableRecord
  2
MSBR-27
 70
0
 62
7
  6
CONTINUOUS
370
-3
390
F
  0
LAYER
  5
329
100
AcDbSymbolTableRecord
100
AcDbLayerTableRecord
  2
MSBR-28
 70
0
 62
7
  6
CONTINUOUS
370
-3
390
F
  0
LAYER
  5
32A
100
AcDbSymbolTableRecord
100
AcDbLayerTableRecord
  2
MSBR-29
 70
0
 62
7
  6
CONTINUOUS
370
-3
390
F
  0
LAYER
  5
32B
100
AcDbSymbolTableRecord
100
AcDbLayerTableRecord
  2
MSBR-3
 70
0
 62
7
  6
CONTINUOUS
370
-3
390
F
  0
LAYER
  5
32C
100
AcDbSymbolTableRecord
100
AcDbLayerTableRecord
  2
MSBR-30
 70
0
 62
7
  6
CONTINUOUS
370
-3
390
F
  0
LAYER
  5
32D
100
AcDbSymbolTableRecord
100
AcDbLayerTableRecord
  2
MSBR-31
 70
0
 62
7
  6
CONTINUOUS
370
-3
390
F
  0
LAYER
  5
32E
100
AcDbSymbolTableRecord
100
AcDbLayerTableRecord
  2
MSBR-32
 70
0
 62
7
  6
CONTINUOUS
370
-3
390
F
  0
LAYER
  5
32F
100
AcDbSymbolTableRecord
100
AcDbLayerTableRecord
  2
MSBR-33
 70
0
 62
7
  6
CONTINUOUS
370
-3
390
F
  0
LAYER
  5
330
100
AcDbSymbolTableRecord
100
AcDbLayerTableRecord
  2
MSBR-34
 70
0
 62
7
  6
CONTINUOUS
370
-3
390
F
  0
LAYER
  5
331
100
AcDbSymbolTableRecord
100
AcDbLayerTableRecord
  2
MSBR-35
 70
0
 62
7
  6
CONTINUOUS
370
-3
390
F
  0
LAYER
  5
332
100
AcDbSymbolTableRecord
100
AcDbLayerTableRecord
  2
MSBR-36
 70
0
 62
7
  6
CONTINUOUS
370
-3
390
F
  0
LAYER
  5
333
100
AcDbSymbolTableRecord
100
AcDbLayerTableRecord
  2
MSBR-37
 70
0
 62
7
  6
CONTINUOUS
370
-3
390
F
  0
LAYER
  5
334
100
AcDbSymbolTableRecord
100
AcDbLayerTableRecord
  2
MSBR-38
 70
0
 62
7
  6
CONTINUOUS
370
-3
390
F
  0
LAYER
  5
335
100
AcDbSymbolTableRecord
100
AcDbLayerTableRecord
  2
MSBR-39
 70
0
 62
7
  6
CONTINUOUS
370
-3
390
F
  0
LAYER
  5
336
100
AcDbSymbolTableRecord
100
AcDbLayerTableRecord
  2
MSBR-4
 70
0
 62
7
  6
CONTINUOUS
370
-3
390
F
  0
LAYER
  5
337
100
AcDbSymbolTableRecord
100
AcDbLayerTableRecord
  2
MSBR-40
 70
0
 62
7
  6
CONTINUOUS
370
-3
390
F
  0
LAYER
  5
338
100
AcDbSymbolTableRecord
100
AcDbLayerTableRecord
  2
MSBR-41
 70
0
 62
7
  6
CONTINUOUS
370
-3
390
F
  0
LAYER
  5
339
100
AcDbSymbolTableRecord
100
AcDbLayerTableRecord
  2
MSBR-42
 70
0
 62
7
  6
CONTINUOUS
370
-3
390
F
  0
LAYER
  5
33A
100
AcDbSymbolTableRecord
100
AcDbLayerTableRecord
  2
MSBR-43
 70
0
 62
7
  6
CONTINUOUS
370
-3
390
F
  0
LAYER
  5
33B
100
AcDbSymbolTableRecord
100
AcDbLayerTableRecord
  2
MSBR-44
 70
0
 62
7
  6
CONTINUOUS
370
-3
390
F
  0
LAYER
  5
33C
100
AcDbSymbolTableRecord
100
AcDbLayerTableRecord
  2
MSBR-45
 70
0
 62
7
  6
CONTINUOUS
370
-3
390
F
  0
LAYER
  5
33D
100
AcDbSymbolTableRecord
100
AcDbLayerTableRecord
  2
MSBR-46
 70
0
 62
7
  6
CONTINUOUS
370
-3
390
F
  0
LAYER
  5
33E
100
AcDbSymbolTableRecord
100
AcDbLayerTableRecord
  2
MSBR-47
 70
0
 62
7
  6
CONTINUOUS
370
-3
390
F
  0
LAYER
  5
33F
100
AcDbSymbolTableRecord
100
AcDbLayerTableRecord
  2
MSBR-48
 70
0
 62
7
  6
CONTINUOUS
370
-3
390
F
  0
LAYER
  5
340
100
AcDbSymbolTableRecord
100
AcDbLayerTableRecord
  2
MSBR-49
 70
0
 62
7
  6
CONTINUOUS
370
-3
390
F
  0
LAYER
  5
341
100
AcDbSymbolTableRecord
100
AcDbLayerTableRecord
  2
MSBR-5
 70
0
 62
7
  6
CONTINUOUS
370
-3
390
F
  0
LAYER
  5
342
100
AcDbSymbolTableRecord
100
AcDbLayerTableRecord
  2
MSBR-50
 70
0
 62
7
  6
CONTINUOUS
370
-3
390
F
  0
LAYER
  5
343
100
AcDbSymbolTableRecord
100
AcDbLayerTableRecord
  2
MSBR-51
 70
0
 62
7
  6
CONTINUOUS
370
-3
390
F
  0
LAYER
  5
344
100
AcDbSymbolTableRecord
100
AcDbLayerTableRecord
  2
MSBR-52
 70
0
 62
7
  6
CONTINUOUS
370
-3
390
F
  0
LAYER
  5
345
100
AcDbSymbolTableRecord
100
AcDbLayerTableRecord
  2
MSBR-53
 70
0
 62
7
  6
CONTINUOUS
370
-3
390
F
  0
LAYER
  5
346
100
AcDbSymbolTableRecord
100
AcDbLayerTableRecord
  2
MSBR-54
 70
0
 62
7
  6
CONTINUOUS
370
-3
390
F
  0
LAYER
  5
347
100
AcDbSymbolTableRecord
100
AcDbLayerTableRecord
  2
MSBR-55
 70
0
 62
7
  6
CONTINUOUS
370
-3
390
F
  0
LAYER
  5
348
100
AcDbSymbolTableRecord
100
AcDbLayerTableRecord
  2
MSBR-56
 70
0
 62
7
  6
CONTINUOUS
370
-3
390
F
  0
LAYER
  5
349
100
AcDbSymbolTableRecord
100
AcDbLayerTableRecord
  2
MSBR-57
 70
0
 62
7
  6
CONTINUOUS
370
-3
390
F
  0
LAYER
  5
34A
100
AcDbSymbolTableRecord
100
AcDbLayerTableRecord
  2
MSBR-58
 70
0
 62
7
  6
CONTINUOUS
370
-3
390
F
  0
LAYER
  5
34B
100
AcDbSymbolTableRecord
100
AcDbLayerTableRecord
  2
MSBR-59
 70
0
 62
7
  6
CONTINUOUS
370
-3
390
F
  0
LAYER
  5
34C
100
AcDbSymbolTableRecord
100
AcDbLayerTableRecord
  2
MSBR-6
 70
0
 62
7
  6
CONTINUOUS
370
-3
390
F
  0
LAYER
  5
34D
100
AcDbSymbolTableRecord
100
AcDbLayerTableRecord
  2
MSBR-60
 70
0
 62
7
  6
CONTINUOUS
370
-3
390
F
  0
LAYER
  5
34E
100
AcDbSymbolTableRecord
100
AcDbLayerTableRecord
  2
MSBR-61
 70
0
 62
7
  6
CONTINUOUS
370
-3
390
F
  0
LAYER
  5
34F
100
AcDbSymbolTableRecord
100
AcDbLayerTableRecord
  2
MSBR-62
 70
0
 62
7
  6
CONTINUOUS
370
-3
390
F
  0
LAYER
  5
350
100
AcDbSymbolTableRecord
100
AcDbLayerTableRecord
  2
MSBR-63
 70
0
 62
7
  6
CONTINUOUS
370
-3
390
F
  0
LAYER
  5
351
100
AcDbSymbolTableRecord
100
AcDbLayerTableRecord
  2
MSBR-64
 70
0
 62
7
  6
CONTINUOUS
370
-3
390
F
  0
LAYER
  5
352
100
AcDbSymbolTableRecord
100
AcDbLayerTableRecord
  2
MSBR-65
 70
0
 62
7
  6
CONTINUOUS
370
-3
390
F
  0
LAYER
  5
353
100
AcDbSymbolTableRecord
100
AcDbLayerTableRecord
  2
MSBR-66
 70
0
 62
7
  6
CONTINUOUS
370
-3
390
F
  0
LAYER
  5
354
100
AcDbSymbolTableRecord
100
AcDbLayerTableRecord
  2
MSBR-67
 70
0
 62
7
  6
CONTINUOUS
370
-3
390
F
  0
LAYER
  5
355
100
AcDbSymbolTableRecord
100
AcDbLayerTableRecord
  2
MSBR-68
 70
0
 62
7
  6
CONTINUOUS
370
-3
390
F
  0
LAYER
  5
356
100
AcDbSymbolTableRecord
100
AcDbLayerTableRecord
  2
MSBR-69
 70
0
 62
7
  6
CONTINUOUS
370
-3
390
F
  0
LAYER
  5
357
100
AcDbSymbolTableRecord
100
AcDbLayerTableRecord
  2
MSBR-7
 70
0
 62
7
  6
CONTINUOUS
370
-3
390
F
  0
LAYER
  5
358
100
AcDbSymbolTableRecord
100
AcDbLayerTableRecord
  2
MSBR-70
 70
0
 62
7
  6
CONTINUOUS
370
-3
390
F
  0
LAYER
  5
359
100
AcDbSymbolTableRecord
100
AcDbLayerTableRecord
  2
MSBR-71
 70
0
 62
7
  6
CONTINUOUS
370
-3
390
F
  0
LAYER
  5
35A
100
AcDbSymbolTableRecord
100
AcDbLayerTableRecord
  2
MSBR-72
 70
0
 62
7
  6
CONTINUOUS
370
-3
390
F
  0
LAYER
  5
35B
100
AcDbSymbolTableRecord
100
AcDbLayerTableRecord
  2
MSBR-73
 70
0
 62
7
  6
CONTINUOUS
370
-3
390
F
  0
LAYER
  5
35C
100
AcDbSymbolTableRecord
100
AcDbLayerTableRecord
  2
MSBR-74
 70
0
 62
7
  6
CONTINUOUS
370
-3
390
F
  0
LAYER
  5
35D
100
AcDbSymbolTableRecord
100
AcDbLayerTableRecord
  2
MSBR-75
 70
0
 62
7
  6
CONTINUOUS
370
-3
390
F
  0
LAYER
  5
35E
100
AcDbSymbolTableRecord
100
AcDbLayerTableRecord
  2
MSBR-76
 70
0
 62
7
  6
CONTINUOUS
370
-3
390
F
  0
LAYER
  5
35F
100
AcDbSymbolTableRecord
100
AcDbLayerTableRecord
  2
MSBR-77
 70
0
 62
7
  6
CONTINUOUS
370
-3
390
F
  0
LAYER
  5
360
100
AcDbSymbolTableRecord
100
AcDbLayerTableRecord
  2
MSBR-78
 70
0
 62
7
  6
CONTINUOUS
370
-3
390
F
  0
LAYER
  5
361
100
AcDbSymbolTableRecord
100
AcDbLayerTableRecord
  2
MSBR-79
 70
0
 62
7
  6
CONTINUOUS
370
-3
390
F
  0
LAYER
  5
362
100
AcDbSymbolTableRecord
100
AcDbLayerTableRecord
  2
MSBR-8
 70
0
 62
7
  6
CONTINUOUS
370
-3
390
F
  0
LAYER
  5
363
100
AcDbSymbolTableRecord
100
AcDbLayerTableRecord
  2
MSBR-80
 70
0
 62
7
  6
CONTINUOUS
370
-3
390
F
  0
LAYER
  5
364
100
AcDbSymbolTableRecord
100
AcDbLayerTableRecord
  2
MSBR-81
 70
0
 62
7
  6
CONTINUOUS
370
-3
390
F
  0
LAYER
  5
365
100
AcDbSymbolTableRecord
100
AcDbLayerTableRecord
  2
MSBR-82
 70
0
 62
7
  6
CONTINUOUS
370
-3
390
F
  0
LAYER
  5
366
100
AcDbSymbolTableRecord
100
AcDbLayerTableRecord
  2
MSBR-83
 70
0
 62
7
  6
CONTINUOUS
370
-3
390
F
  0
LAYER
  5
367
100
AcDbSymbolTableRecord
100
AcDbLayerTableRecord
  2
MSBR-84
 70
0
 62
7
  6
CONTINUOUS
370
-3
390
F
  0
LAYER
  5
368
100
AcDbSymbolTableRecord
100
AcDbLayerTableRecord
  2
MSBR-85
 70
0
 62
7
  6
CONTINUOUS
370
-3
390
F
  0
LAYER
  5
369
100
AcDbSymbolTableRecord
100
AcDbLayerTableRecord
  2
MSBR-86
 70
0
 62
7
  6
CONTINUOUS
370
-3
390
F
  0
LAYER
  5
36A
100
AcDbSymbolTableRecord
100
AcDbLayerTableRecord
  2
MSBR-87
 70
0
 62
7
  6
CONTINUOUS
370
-3
390
F
  0
LAYER
  5
36B
100
AcDbSymbolTableRecord
100
AcDbLayerTableRecord
  2
MSBR-88
 70
0
 62
7
  6
CONTINUOUS
370
-3
390
F
  0
LAYER
  5
36C
100
AcDbSymbolTableRecord
100
AcDbLayerTableRecord
  2
MSBR-89
 70
0
 62
7
  6
CONTINUOUS
370
-3
390
F
  0
LAYER
  5
36D
100
AcDbSymbolTableRecord
100
AcDbLayerTableRecord
  2
MSBR-9
 70
0
 62
7
  6
CONTINUOUS
370
-3
390
F
  0
LAYER
  5
36E
100
AcDbSymbolTableRecord
100
AcDbLayerTableRecord
  2
MSBR-90
 70
0
 62
7
  6
CONTINUOUS
370
-3
390
F
  0
LAYER
  5
36F
100
AcDbSymbolTableRecord
100
AcDbLayerTableRecord
  2
MSBR-91
 70
0
 62
7
  6
CONTINUOUS
370
-3
390
F
  0
LAYER
  5
370
100
AcDbSymbolTableRecord
100
AcDbLayerTableRecord
  2
MSBR-92
 70
0
 62
7
  6
CONTINUOUS
370
-3
390
F
  0
LAYER
  5
371
100
AcDbSymbolTableRecord
100
AcDbLayerTableRecord
  2
MSBR-93
 70
0
 62
7
  6
CONTINUOUS
370
-3
390
F
  0
LAYER
  5
372
100
AcDbSymbolTableRecord
100
AcDbLayerTableRecord
  2
MSBR-94
 70
0
 62
7
  6
CONTINUOUS
370
-3
390
F
  0
LAYER
  5
373
100
AcDbSymbolTableRecord
100
AcDbLayerTableRecord
  2
MSBR-95
 70
0
 62
7
  6
CONTINUOUS
370
-3
390
F
  0
LAYER
  5
374
100
AcDbSymbolTableRecord
100
AcDbLayerTableRecord
  2
MSBR-96
 70
0
 62
7
  6
CONTINUOUS
370
-3
390
F
  0
LAYER
  5
375
100
AcDbSymbolTableRecord
100
AcDbLayerTableRecord
  2
MSBR-97
 70
0
 62
7
  6
CONTINUOUS
370
-3
390
F
  0
LAYER
  5
376
100
AcDbSymbolTableRecord
100
AcDbLayerTableRecord
  2
MSBR-98
 70
0
 62
7
  6
CONTINUOUS
370
-3
390
F
  0
LAYER
  5
377
100
AcDbSymbolTableRecord
100
AcDbLayerTableRecord
  2
MSBR-99
 70
0
 62
7
  6
CONTINUOUS
370
-3
390
F
  0
LAYER
  5
378
100
AcDbSymbolTableRecord
100
AcDbLayerTableRecord
  2
NO-PB_MARK_10000
 70
0
 62
7
  6
CONTINUOUS
370
-3
390
F
  0
LAYER
  5
379
100
AcDbSymbolTableRecord
100
AcDbLayerTableRecord
  2
NO-PB_MARK_10000_1
 70
0
 62
7
  6
CONTINUOUS
370
-3
390
F
  0
LAYER
  5
37A
100
AcDbSymbolTableRecord
100
AcDbLayerTableRecord
  2
NOTE
 70
0
 62
7
  6
CONTINUOUS
370
-3
390
F
  0
LAYER
  5
37B
100
AcDbSymbolTableRecord
100
AcDbLayerTableRecord
  2
PIANI
 70
0
 62
7
  6
CONTINUOUS
370
-3
390
F
  0
LAYER
  5
37C
100
AcDbSymbolTableRecord
100
AcDbLayerTableRecord
  2
PIANI_RIFERIMENTO
 70
0
 62
7
  6
CONTINUOUS
370
-3
390
F
  0
LAYER
  5
37D
100
AcDbSymbolTableRecord
100
AcDbLayerTableRecord
  2
PUNTI
 70
0
 62
7
  6
CONTINUOUS
370
-3
390
F
  0
LAYER
  5
37E
100
AcDbSymbolTableRecord
100
AcDbLayerTableRecord
  2
RACCORDO
 70
0
 62
7
  6
CONTINUOUS
370
-3
390
F
  0
LAYER
  5
37F
100
AcDbSymbolTableRecord
100
AcDbLayerTableRecord
  2
RD-C100-5-VIMAR_1250000
 70
0
 62
7
  6
CONTINUOUS
370
-3
390
F
  0
LAYER
  5
380
100
AcDbSymbolTableRecord
100
AcDbLayerTableRecord
  2
RD-C150-10-VIMAR_1400000
 70
0
 62
7
  6
CONTINUOUS
370
-3
390
F
  0
LAYER
  5
381
100
AcDbSymbolTableRecord
100
AcDbLayerTableRecord
  2
RD-C50-17-VIMAR_1300000
 70
0
 62
7
  6
CONTINUOUS
370
-3
390
F
  0
LAYER
  5
382
100
AcDbSymbolTableRecord
100
AcDbLayerTableRecord
  2
RD-C50-4-VIMAR_1600000
 70
0
 62
7
  6
CONTINUOUS
370
-3
390
F
  0
LAYER
  5
383
100
AcDbSymbolTableRecord
100
AcDbLayerTableRecord
  2
RD-CE20-1-VIMAR_1100000
 70
0
 62
7
  6
CONTINUOUS
370
-3
390
F
  0
LAYER
  5
384
100
AcDbSymbolTableRecord
100
AcDbLayerTableRecord
  2
RD-CE20-1-VIMAR_1100000_1
 70
0
 62
7
  6
CONTINUOUS
370
-3
390
F
  0
LAYER
  5
385
100
AcDbSymbolTableRecord
100
AcDbLayerTableRecord
  2
RD-CE20-1-VIMAR_1100000_2
 70
0
 62
7
  6
CONTINUOUS
370
-3
390
F
  0
LAYER
  5
386
100
AcDbSymbolTableRecord
100
AcDbLayerTableRecord
  2
RD-CE20-1-VIMAR_1100000_3
 70
0
 62
7
  6
CONTINUOUS
370
-3
390
F
  0
LAYER
  5
387
100
AcDbSymbolTableRecord
100
AcDbLayerTableRecord
  2
RD-CE35-5-VIMAR_2000000
 70
0
 62
7
  6
CONTINUOUS
370
-3
390
F
  0
LAYER
  5
388
100
AcDbSymbolTableRecord
100
AcDbLayerTableRecord
  2
RD-CE50-3-VIMAR_2000000
 70
0
 62
7
  6
CONTINUOUS
370
-3
390
F
  0
LAYER
  5
389
100
AcDbSymbolTableRecord
100
AcDbLayerTableRecord
  2
RD-CE50-5-VIMAR_2500000
 70
0
 62
7
  6
CONTINUOUS
370
-3
390
F
  0
LAYER
  5
38A
100
AcDbSymbolTableRecord
100
AcDbLayerTableRecord
  2
RD-ZNR50-1-VIMAR_1150000
 70
0
 62
7
  6
CONTINUOUS
370
-3
390
F
  0
LAYER
  5
38B
100
AcDbSymbolTableRecord
100
AcDbLayerTableRecord
  2
RESC5025X70N_70000
 70
0
 62
7
  6
CONTINUOUS
370
-3
390
F
  0
LAYER
  5
38C
100
AcDbSymbolTableRecord
100
AcDbLayerTableRecord
  2
RGB__255__255__255__
 70
0
 62
7
  6
CONTINUOUS
370
-3
390
F
  0
LAYER
  5
38D
100
AcDbSymbolTableRecord
100
AcDbLayerTableRecord
  2
RGB____0____0____0__
 70
0
 62
7
  6
CONTINUOUS
370
-3
390
F
  0
LAYER
  5
38E
100
AcDbSymbolTableRecord
100
AcDbLayerTableRecord
  2
RUBBERPAD-R-07X22_0
 70
0
 62
7
  6
CONTINUOUS
370
-3
390
F
  0
LAYER
  5
38F
100
AcDbSymbolTableRecord
100
AcDbLayerTableRecord
  2
RUBBERPAD-R-07X22_0_1
 70
0
 62
7
  6
CONTINUOUS
370
-3
390
F
  0
LAYER
  5
390
100
AcDbSymbolTableRecord
100
AcDbLayerTableRecord
  2
RUBBERPAD-R-07X22_0_2
 70
0
 62
7
  6
CONTINUOUS
370
-3
390
F
  0
LAYER
  5
391
100
AcDbSymbolTableRecord
100
AcDbLayerTableRecord
  2
RUBBERPAD-R-07X22_0_3
 70
0
 62
7
  6
CONTINUOUS
370
-3
390
F
  0
LAYER
  5
392
100
AcDbSymbolTableRecord
100
AcDbLayerTableRecord
  2
SIMBOLI
 70
0
 62
7
  6
CONTINUOUS
370
-3
390
F
  0
LAYER
  5
393
100
AcDbSymbolTableRecord
100
AcDbLayerTableRecord
  2
SMUSSO
 70
0
 62
7
  6
CONTINUOUS
370
-3
390
F
  0
LAYER
  5
394
100
AcDbSymbolTableRecord
100
AcDbLayerTableRecord
  2
SNAPLINE
 70
0
 62
7
  6
CONTINUOUS
370
-3
390
F
  0
LAYER
  5
395
100
AcDbSymbolTableRecord
100
AcDbLayerTableRecord
  2
SOP4-T1-RF-VIMAR_350000
 70
0
 62
7
  6
CONTINUOUS
370
-3
390
F
  0
LAYER
  5
396
100
AcDbSymbolTableRecord
100
AcDbLayerTableRecord
  2
SOP8-T1-RF-FINE-VIMAR_150000
 70
0
 62
7
  6
CONTINUOUS
370
-3
390
F
  0
LAYER
  5
397
100
AcDbSymbolTableRecord
100
AcDbLayerTableRecord
  2
SOP8-T1-RF-FINE-VIMAR_150000_1
 70
0
 62
7
  6
CONTINUOUS
370
-3
390
F
  0
LAYER
  5
398
100
AcDbSymbolTableRecord
100
AcDbLayerTableRecord
  2
SUPERFICI
 70
0
 62
7
  6
CONTINUOUS
370
-3
390
F
  0
LAYER
  5
399
100
AcDbSymbolTableRecord
100
AcDbLayerTableRecord
  2
SUPERFICI_FILL
 70
0
 62
7
  6
CONTINUOUS
370
-3
390
F
  0
LAYER
  5
39A
100
AcDbSymbolTableRecord
100
AcDbLayerTableRecord
  2
SUP_FILL
 70
0
 62
7
  6
CONTINUOUS
370
-3
390
F
  0
LAYER
  5
39B
100
AcDbSymbolTableRecord
100
AcDbLayerTableRecord
  2
TR-30V-VIMAR_2200000
 70
0
 62
7
  6
CONTINUOUS
370
-3
390
F
  0
LAYER
  5
39C
100
AcDbSymbolTableRecord
100
AcDbLayerTableRecord
  2
TR-30V-VIMAR_2550000
 70
0
 62
7
  6
CONTINUOUS
370
-3
390
F
  0
LAYER
  5
39D
100
AcDbSymbolTableRecord
100
AcDbLayerTableRecord
  2
TR-3266P_450000
 70
0
 62
7
  6
CONTINUOUS
370
-3
390
F
  0
LAYER
  5
39E
100
AcDbSymbolTableRecord
100
AcDbLayerTableRecord
  2
TRASH
 70
0
 62
7
  6
CONTINUOUS
370
-3
390
F
  0
LAYER
  5
39F
100
AcDbSymbolTableRecord
100
AcDbLayerTableRecord
  2
UMT-250-FLOW_300000
 70
0
 62
7
  6
CONTINUOUS
370
-3
390
F
  0
LAYER
  5
3A0
100
AcDbSymbolTableRecord
100
AcDbLayerTableRecord
  2
UMT-250_300000
 70
0
 62
7
  6
CONTINUOUS
370
-3
390
F
  0
LAYER
  5
3A1
100
AcDbSymbolTableRecord
100
AcDbLayerTableRecord
  2
WHITE
 70
0
 62
7
  6
CONTINUOUS
370
-3
390
F
  0
LAYER
  5
3A2
100
AcDbSymbolTableRecord
100
AcDbLayerTableRecord
  2
___SHELL
 70
0
 62
7
  6
CONTINUOUS
370
-3
390
F
  0
LAYER
  5
3A3
100
AcDbSymbolTableRecord
100
AcDbLayerTableRecord
  2
___SHELL_1
 70
0
 62
7
  6
CONTINUOUS
370
-3
390
F
  0
LAYER
  5
3A4
100
AcDbSymbolTableRecord
100
AcDbLayerTableRecord
  2
___SHELL_10
 70
0
 62
7
  6
CONTINUOUS
370
-3
390
F
  0
LAYER
  5
3A5
100
AcDbSymbolTableRecord
100
AcDbLayerTableRecord
  2
___SHELL_100
 70
0
 62
7
  6
CONTINUOUS
370
-3
390
F
  0
LAYER
  5
3A6
100
AcDbSymbolTableRecord
100
AcDbLayerTableRecord
  2
___SHELL_101
 70
0
 62
7
  6
CONTINUOUS
370
-3
390
F
  0
LAYER
  5
3A7
100
AcDbSymbolTableRecord
100
AcDbLayerTableRecord
  2
___SHELL_102
 70
0
 62
7
  6
CONTINUOUS
370
-3
390
F
  0
LAYER
  5
3A8
100
AcDbSymbolTableRecord
100
AcDbLayerTableRecord
  2
___SHELL_103
 70
0
 62
7
  6
CONTINUOUS
370
-3
390
F
  0
LAYER
  5
3A9
100
AcDbSymbolTableRecord
100
AcDbLayerTableRecord
  2
___SHELL_104
 70
0
 62
7
  6
CONTINUOUS
370
-3
390
F
  0
LAYER
  5
3AA
100
AcDbSymbolTableRecord
100
AcDbLayerTableRecord
  2
___SHELL_105
 70
0
 62
7
  6
CONTINUOUS
370
-3
390
F
  0
LAYER
  5
3AB
100
AcDbSymbolTableRecord
100
AcDbLayerTableRecord
  2
___SHELL_106
 70
0
 62
7
  6
CONTINUOUS
370
-3
390
F
  0
LAYER
  5
3AC
100
AcDbSymbolTableRecord
100
AcDbLayerTableRecord
  2
___SHELL_107
 70
0
 62
7
  6
CONTINUOUS
370
-3
390
F
  0
LAYER
  5
3AD
100
AcDbSymbolTableRecord
100
AcDbLayerTableRecord
  2
___SHELL_108
 70
0
 62
7
  6
CONTINUOUS
370
-3
390
F
  0
LAYER
  5
3AE
100
AcDbSymbolTableRecord
100
AcDbLayerTableRecord
  2
___SHELL_109
 70
0
 62
7
  6
CONTINUOUS
370
-3
390
F
  0
LAYER
  5
3AF
100
AcDbSymbolTableRecord
100
AcDbLayerTableRecord
  2
___SHELL_11
 70
0
 62
7
  6
CONTINUOUS
370
-3
390
F
  0
LAYER
  5
3B0
100
AcDbSymbolTableRecord
100
AcDbLayerTableRecord
  2
___SHELL_110
 70
0
 62
7
  6
CONTINUOUS
370
-3
390
F
  0
LAYER
  5
3B1
100
AcDbSymbolTableRecord
100
AcDbLayerTableRecord
  2
___SHELL_111
 70
0
 62
7
  6
CONTINUOUS
370
-3
390
F
  0
LAYER
  5
3B2
100
AcDbSymbolTableRecord
100
AcDbLayerTableRecord
  2
___SHELL_112
 70
0
 62
7
  6
CONTINUOUS
370
-3
390
F
  0
LAYER
  5
3B3
100
AcDbSymbolTableRecord
100
AcDbLayerTableRecord
  2
___SHELL_113
 70
0
 62
7
  6
CONTINUOUS
370
-3
390
F
  0
LAYER
  5
3B4
100
AcDbSymbolTableRecord
100
AcDbLayerTableRecord
  2
___SHELL_114
 70
0
 62
7
  6
CONTINUOUS
370
-3
390
F
  0
LAYER
  5
3B5
100
AcDbSymbolTableRecord
100
AcDbLayerTableRecord
  2
___SHELL_115
 70
0
 62
7
  6
CONTINUOUS
370
-3
390
F
  0
LAYER
  5
3B6
100
AcDbSymbolTableRecord
100
AcDbLayerTableRecord
  2
___SHELL_116
 70
0
 62
7
  6
CONTINUOUS
370
-3
390
F
  0
LAYER
  5
3B7
100
AcDbSymbolTableRecord
100
AcDbLayerTableRecord
  2
___SHELL_117
 70
0
 62
7
  6
CONTINUOUS
370
-3
390
F
  0
LAYER
  5
3B8
100
AcDbSymbolTableRecord
100
AcDbLayerTableRecord
  2
___SHELL_118
 70
0
 62
7
  6
CONTINUOUS
370
-3
390
F
  0
LAYER
  5
3B9
100
AcDbSymbolTableRecord
100
AcDbLayerTableRecord
  2
___SHELL_119
 70
0
 62
7
  6
CONTINUOUS
370
-3
390
F
  0
LAYER
  5
3BA
100
AcDbSymbolTableRecord
100
AcDbLayerTableRecord
  2
___SHELL_12
 70
0
 62
7
  6
CONTINUOUS
370
-3
390
F
  0
LAYER
  5
3BB
100
AcDbSymbolTableRecord
100
AcDbLayerTableRecord
  2
___SHELL_120
 70
0
 62
7
  6
CONTINUOUS
370
-3
390
F
  0
LAYER
  5
3BC
100
AcDbSymbolTableRecord
100
AcDbLayerTableRecord
  2
___SHELL_121
 70
0
 62
7
  6
CONTINUOUS
370
-3
390
F
  0
LAYER
  5
3BD
100
AcDbSymbolTableRecord
100
AcDbLayerTableRecord
  2
___SHELL_122
 70
0
 62
7
  6
CONTINUOUS
370
-3
390
F
  0
LAYER
  5
3BE
100
AcDbSymbolTableRecord
100
AcDbLayerTableRecord
  2
___SHELL_123
 70
0
 62
7
  6
CONTINUOUS
370
-3
390
F
  0
LAYER
  5
3BF
100
AcDbSymbolTableRecord
100
AcDbLayerTableRecord
  2
___SHELL_13
 70
0
 62
7
  6
CONTINUOUS
370
-3
390
F
  0
LAYER
  5
3C0
100
AcDbSymbolTableRecord
100
AcDbLayerTableRecord
  2
___SHELL_14
 70
0
 62
7
  6
CONTINUOUS
370
-3
390
F
  0
LAYER
  5
3C1
100
AcDbSymbolTableRecord
100
AcDbLayerTableRecord
  2
___SHELL_15
 70
0
 62
7
  6
CONTINUOUS
370
-3
390
F
  0
LAYER
  5
3C2
100
AcDbSymbolTableRecord
100
AcDbLayerTableRecord
  2
___SHELL_16
 70
0
 62
7
  6
CONTINUOUS
370
-3
390
F
  0
LAYER
  5
3C3
100
AcDbSymbolTableRecord
100
AcDbLayerTableRecord
  2
___SHELL_17
 70
0
 62
7
  6
CONTINUOUS
370
-3
390
F
  0
LAYER
  5
3C4
100
AcDbSymbolTableRecord
100
AcDbLayerTableRecord
  2
___SHELL_18
 70
0
 62
7
  6
CONTINUOUS
370
-3
390
F
  0
LAYER
  5
3C5
100
AcDbSymbolTableRecord
100
AcDbLayerTableRecord
  2
___SHELL_19
 70
0
 62
7
  6
CONTINUOUS
370
-3
390
F
  0
LAYER
  5
3C6
100
AcDbSymbolTableRecord
100
AcDbLayerTableRecord
  2
___SHELL_2
 70
0
 62
7
  6
CONTINUOUS
370
-3
390
F
  0
LAYER
  5
3C7
100
AcDbSymbolTableRecord
100
AcDbLayerTableRecord
  2
___SHELL_20
 70
0
 62
7
  6
CONTINUOUS
370
-3
390
F
  0
LAYER
  5
3C8
100
AcDbSymbolTableRecord
100
AcDbLayerTableRecord
  2
___SHELL_21
 70
0
 62
7
  6
CONTINUOUS
370
-3
390
F
  0
LAYER
  5
3C9
100
AcDbSymbolTableRecord
100
AcDbLayerTableRecord
  2
___SHELL_22
 70
0
 62
7
  6
CONTINUOUS
370
-3
390
F
  0
LAYER
  5
3CA
100
AcDbSymbolTableRecord
100
AcDbLayerTableRecord
  2
___SHELL_23
 70
0
 62
7
  6
CONTINUOUS
370
-3
390
F
  0
LAYER
  5
3CB
100
AcDbSymbolTableRecord
100
AcDbLayerTableRecord
  2
___SHELL_24
 70
0
 62
7
  6
CONTINUOUS
370
-3
390
F
  0
LAYER
  5
3CC
100
AcDbSymbolTableRecord
100
AcDbLayerTableRecord
  2
___SHELL_25
 70
0
 62
7
  6
CONTINUOUS
370
-3
390
F
  0
LAYER
  5
3CD
100
AcDbSymbolTableRecord
100
AcDbLayerTableRecord
  2
___SHELL_26
 70
0
 62
7
  6
CONTINUOUS
370
-3
390
F
  0
LAYER
  5
3CE
100
AcDbSymbolTableRecord
100
AcDbLayerTableRecord
  2
___SHELL_27
 70
0
 62
7
  6
CONTINUOUS
370
-3
390
F
  0
LAYER
  5
3CF
100
AcDbSymbolTableRecord
100
AcDbLayerTableRecord
  2
___SHELL_28
 70
0
 62
7
  6
CONTINUOUS
370
-3
390
F
  0
LAYER
  5
3D0
100
AcDbSymbolTableRecord
100
AcDbLayerTableRecord
  2
___SHELL_29
 70
0
 62
7
  6
CONTINUOUS
370
-3
390
F
  0
LAYER
  5
3D1
100
AcDbSymbolTableRecord
100
AcDbLayerTableRecord
  2
___SHELL_3
 70
0
 62
7
  6
CONTINUOUS
370
-3
390
F
  0
LAYER
  5
3D2
100
AcDbSymbolTableRecord
100
AcDbLayerTableRecord
  2
___SHELL_30
 70
0
 62
7
  6
CONTINUOUS
370
-3
390
F
  0
LAYER
  5
3D3
100
AcDbSymbolTableRecord
100
AcDbLayerTableRecord
  2
___SHELL_31
 70
0
 62
7
  6
CONTINUOUS
370
-3
390
F
  0
LAYER
  5
3D4
100
AcDbSymbolTableRecord
100
AcDbLayerTableRecord
  2
___SHELL_32
 70
0
 62
7
  6
CONTINUOUS
370
-3
390
F
  0
LAYER
  5
3D5
100
AcDbSymbolTableRecord
100
AcDbLayerTableRecord
  2
___SHELL_33
 70
0
 62
7
  6
CONTINUOUS
370
-3
390
F
  0
LAYER
  5
3D6
100
AcDbSymbolTableRecord
100
AcDbLayerTableRecord
  2
___SHELL_34
 70
0
 62
7
  6
CONTINUOUS
370
-3
390
F
  0
LAYER
  5
3D7
100
AcDbSymbolTableRecord
100
AcDbLayerTableRecord
  2
___SHELL_35
 70
0
 62
7
  6
CONTINUOUS
370
-3
390
F
  0
LAYER
  5
3D8
100
AcDbSymbolTableRecord
100
AcDbLayerTableRecord
  2
___SHELL_36
 70
0
 62
7
  6
CONTINUOUS
370
-3
390
F
  0
LAYER
  5
3D9
100
AcDbSymbolTableRecord
100
AcDbLayerTableRecord
  2
___SHELL_37
 70
0
 62
7
  6
CONTINUOUS
370
-3
390
F
  0
LAYER
  5
3DA
100
AcDbSymbolTableRecord
100
AcDbLayerTableRecord
  2
___SHELL_38
 70
0
 62
7
  6
CONTINUOUS
370
-3
390
F
  0
LAYER
  5
3DB
100
AcDbSymbolTableRecord
100
AcDbLayerTableRecord
  2
___SHELL_39
 70
0
 62
7
  6
CONTINUOUS
370
-3
390
F
  0
LAYER
  5
3DC
100
AcDbSymbolTableRecord
100
AcDbLayerTableRecord
  2
___SHELL_4
 70
0
 62
7
  6
CONTINUOUS
370
-3
390
F
  0
LAYER
  5
3DD
100
AcDbSymbolTableRecord
100
AcDbLayerTableRecord
  2
___SHELL_40
 70
0
 62
7
  6
CONTINUOUS
370
-3
390
F
  0
LAYER
  5
3DE
100
AcDbSymbolTableRecord
100
AcDbLayerTableRecord
  2
___SHELL_41
 70
0
 62
7
  6
CONTINUOUS
370
-3
390
F
  0
LAYER
  5
3DF
100
AcDbSymbolTableRecord
100
AcDbLayerTableRecord
  2
___SHELL_42
 70
0
 62
7
  6
CONTINUOUS
370
-3
390
F
  0
LAYER
  5
3E0
100
AcDbSymbolTableRecord
100
AcDbLayerTableRecord
  2
___SHELL_43
 70
0
 62
7
  6
CONTINUOUS
370
-3
390
F
  0
LAYER
  5
3E1
100
AcDbSymbolTableRecord
100
AcDbLayerTableRecord
  2
___SHELL_44
 70
0
 62
7
  6
CONTINUOUS
370
-3
390
F
  0
LAYER
  5
3E2
100
AcDbSymbolTableRecord
100
AcDbLayerTableRecord
  2
___SHELL_45
 70
0
 62
7
  6
CONTINUOUS
370
-3
390
F
  0
LAYER
  5
3E3
100
AcDbSymbolTableRecord
100
AcDbLayerTableRecord
  2
___SHELL_46
 70
0
 62
7
  6
CONTINUOUS
370
-3
390
F
  0
LAYER
  5
3E4
100
AcDbSymbolTableRecord
100
AcDbLayerTableRecord
  2
___SHELL_47
 70
0
 62
7
  6
CONTINUOUS
370
-3
390
F
  0
LAYER
  5
3E5
100
AcDbSymbolTableRecord
100
AcDbLayerTableRecord
  2
___SHELL_48
 70
0
 62
7
  6
CONTINUOUS
370
-3
390
F
  0
LAYER
  5
3E6
100
AcDbSymbolTableRecord
100
AcDbLayerTableRecord
  2
___SHELL_49
 70
0
 62
7
  6
CONTINUOUS
370
-3
390
F
  0
LAYER
  5
3E7
100
AcDbSymbolTableRecord
100
AcDbLayerTableRecord
  2
___SHELL_5
 70
0
 62
7
  6
CONTINUOUS
370
-3
390
F
  0
LAYER
  5
3E8
100
AcDbSymbolTableRecord
100
AcDbLayerTableRecord
  2
___SHELL_50
 70
0
 62
7
  6
CONTINUOUS
370
-3
390
F
  0
LAYER
  5
3E9
100
AcDbSymbolTableRecord
100
AcDbLayerTableRecord
  2
___SHELL_51
 70
0
 62
7
  6
CONTINUOUS
370
-3
390
F
  0
LAYER
  5
3EA
100
AcDbSymbolTableRecord
100
AcDbLayerTableRecord
  2
___SHELL_52
 70
0
 62
7
  6
CONTINUOUS
370
-3
390
F
  0
LAYER
  5
3EB
100
AcDbSymbolTableRecord
100
AcDbLayerTableRecord
  2
___SHELL_53
 70
0
 62
7
  6
CONTINUOUS
370
-3
390
F
  0
LAYER
  5
3EC
100
AcDbSymbolTableRecord
100
AcDbLayerTableRecord
  2
___SHELL_54
 70
0
 62
7
  6
CONTINUOUS
370
-3
390
F
  0
LAYER
  5
3ED
100
AcDbSymbolTableRecord
100
AcDbLayerTableRecord
  2
___SHELL_55
 70
0
 62
7
  6
CONTINUOUS
370
-3
390
F
  0
LAYER
  5
3EE
100
AcDbSymbolTableRecord
100
AcDbLayerTableRecord
  2
___SHELL_56
 70
0
 62
7
  6
CONTINUOUS
370
-3
390
F
  0
LAYER
  5
3EF
100
AcDbSymbolTableRecord
100
AcDbLayerTableRecord
  2
___SHELL_57
 70
0
 62
7
  6
CONTINUOUS
370
-3
390
F
  0
LAYER
  5
3F0
100
AcDbSymbolTableRecord
100
AcDbLayerTableRecord
  2
___SHELL_58
 70
0
 62
7
  6
CONTINUOUS
370
-3
390
F
  0
LAYER
  5
3F1
100
AcDbSymbolTableRecord
100
AcDbLayerTableRecord
  2
___SHELL_59
 70
0
 62
7
  6
CONTINUOUS
370
-3
390
F
  0
LAYER
  5
3F2
100
AcDbSymbolTableRecord
100
AcDbLayerTableRecord
  2
___SHELL_6
 70
0
 62
7
  6
CONTINUOUS
370
-3
390
F
  0
LAYER
  5
3F3
100
AcDbSymbolTableRecord
100
AcDbLayerTableRecord
  2
___SHELL_60
 70
0
 62
7
  6
CONTINUOUS
370
-3
390
F
  0
LAYER
  5
3F4
100
AcDbSymbolTableRecord
100
AcDbLayerTableRecord
  2
___SHELL_61
 70
0
 62
7
  6
CONTINUOUS
370
-3
390
F
  0
LAYER
  5
3F5
100
AcDbSymbolTableRecord
100
AcDbLayerTableRecord
  2
___SHELL_62
 70
0
 62
7
  6
CONTINUOUS
370
-3
390
F
  0
LAYER
  5
3F6
100
AcDbSymbolTableRecord
100
AcDbLayerTableRecord
  2
___SHELL_63
 70
0
 62
7
  6
CONTINUOUS
370
-3
390
F
  0
LAYER
  5
3F7
100
AcDbSymbolTableRecord
100
AcDbLayerTableRecord
  2
___SHELL_64
 70
0
 62
7
  6
CONTINUOUS
370
-3
390
F
  0
LAYER
  5
3F8
100
AcDbSymbolTableRecord
100
AcDbLayerTableRecord
  2
___SHELL_65
 70
0
 62
7
  6
CONTINUOUS
370
-3
390
F
  0
LAYER
  5
3F9
100
AcDbSymbolTableRecord
100
AcDbLayerTableRecord
  2
___SHELL_66
 70
0
 62
7
  6
CONTINUOUS
370
-3
390
F
  0
LAYER
  5
3FA
100
AcDbSymbolTableRecord
100
AcDbLayerTableRecord
  2
___SHELL_67
 70
0
 62
7
  6
CONTINUOUS
370
-3
390
F
  0
LAYER
  5
3FB
100
AcDbSymbolTableRecord
100
AcDbLayerTableRecord
  2
___SHELL_68
 70
0
 62
7
  6
CONTINUOUS
370
-3
390
F
  0
LAYER
  5
3FC
100
AcDbSymbolTableRecord
100
AcDbLayerTableRecord
  2
___SHELL_69
 70
0
 62
7
  6
CONTINUOUS
370
-3
390
F
  0
LAYER
  5
3FD
100
AcDbSymbolTableRecord
100
AcDbLayerTableRecord
  2
___SHELL_7
 70
0
 62
7
  6
CONTINUOUS
370
-3
390
F
  0
LAYER
  5
3FE
100
AcDbSymbolTableRecord
100
AcDbLayerTableRecord
  2
___SHELL_70
 70
0
 62
7
  6
CONTINUOUS
370
-3
390
F
  0
LAYER
  5
3FF
100
AcDbSymbolTableRecord
100
AcDbLayerTableRecord
  2
___SHELL_71
 70
0
 62
7
  6
CONTINUOUS
370
-3
390
F
  0
LAYER
  5
400
100
AcDbSymbolTableRecord
100
AcDbLayerTableRecord
  2
___SHELL_72
 70
0
 62
7
  6
CONTINUOUS
370
-3
390
F
  0
LAYER
  5
401
100
AcDbSymbolTableRecord
100
AcDbLayerTableRecord
  2
___SHELL_73
 70
0
 62
7
  6
CONTINUOUS
370
-3
390
F
  0
LAYER
  5
402
100
AcDbSymbolTableRecord
100
AcDbLayerTableRecord
  2
___SHELL_74
 70
0
 62
7
  6
CONTINUOUS
370
-3
390
F
  0
LAYER
  5
403
100
AcDbSymbolTableRecord
100
AcDbLayerTableRecord
  2
___SHELL_75
 70
0
 62
7
  6
CONTINUOUS
370
-3
390
F
  0
LAYER
  5
404
100
AcDbSymbolTableRecord
100
AcDbLayerTableRecord
  2
___SHELL_76
 70
0
 62
7
  6
CONTINUOUS
370
-3
390
F
  0
LAYER
  5
405
100
AcDbSymbolTableRecord
100
AcDbLayerTableRecord
  2
___SHELL_77
 70
0
 62
7
  6
CONTINUOUS
370
-3
390
F
  0
LAYER
  5
406
100
AcDbSymbolTableRecord
100
AcDbLayerTableRecord
  2
___SHELL_78
 70
0
 62
7
  6
CONTINUOUS
370
-3
390
F
  0
LAYER
  5
407
100
AcDbSymbolTableRecord
100
AcDbLayerTableRecord
  2
___SHELL_79
 70
0
 62
7
  6
CONTINUOUS
370
-3
390
F
  0
LAYER
  5
408
100
AcDbSymbolTableRecord
100
AcDbLayerTableRecord
  2
___SHELL_8
 70
0
 62
7
  6
CONTINUOUS
370
-3
390
F
  0
LAYER
  5
409
100
AcDbSymbolTableRecord
100
AcDbLayerTableRecord
  2
___SHELL_80
 70
0
 62
7
  6
CONTINUOUS
370
-3
390
F
  0
LAYER
  5
40A
100
AcDbSymbolTableRecord
100
AcDbLayerTableRecord
  2
___SHELL_81
 70
0
 62
7
  6
CONTINUOUS
370
-3
390
F
  0
LAYER
  5
40B
100
AcDbSymbolTableRecord
100
AcDbLayerTableRecord
  2
___SHELL_82
 70
0
 62
7
  6
CONTINUOUS
370
-3
390
F
  0
LAYER
  5
40C
100
AcDbSymbolTableRecord
100
AcDbLayerTableRecord
  2
___SHELL_83
 70
0
 62
7
  6
CONTINUOUS
370
-3
390
F
  0
LAYER
  5
40D
100
AcDbSymbolTableRecord
100
AcDbLayerTableRecord
  2
___SHELL_84
 70
0
 62
7
  6
CONTINUOUS
370
-3
390
F
  0
LAYER
  5
40E
100
AcDbSymbolTableRecord
100
AcDbLayerTableRecord
  2
___SHELL_85
 70
0
 62
7
  6
CONTINUOUS
370
-3
390
F
  0
LAYER
  5
40F
100
AcDbSymbolTableRecord
100
AcDbLayerTableRecord
  2
___SHELL_86
 70
0
 62
7
  6
CONTINUOUS
370
-3
390
F
  0
LAYER
  5
410
100
AcDbSymbolTableRecord
100
AcDbLayerTableRecord
  2
___SHELL_87
 70
0
 62
7
  6
CONTINUOUS
370
-3
390
F
  0
LAYER
  5
411
100
AcDbSymbolTableRecord
100
AcDbLayerTableRecord
  2
___SHELL_88
 70
0
 62
7
  6
CONTINUOUS
370
-3
390
F
  0
LAYER
  5
412
100
AcDbSymbolTableRecord
100
AcDbLayerTableRecord
  2
___SHELL_89
 70
0
 62
7
  6
CONTINUOUS
370
-3
390
F
  0
LAYER
  5
413
100
AcDbSymbolTableRecord
100
AcDbLayerTableRecord
  2
___SHELL_9
 70
0
 62
7
  6
CONTINUOUS
370
-3
390
F
  0
LAYER
  5
414
100
AcDbSymbolTableRecord
100
AcDbLayerTableRecord
  2
___SHELL_90
 70
0
 62
7
  6
CONTINUOUS
370
-3
390
F
  0
LAYER
  5
415
100
AcDbSymbolTableRecord
100
AcDbLayerTableRecord
  2
___SHELL_91
 70
0
 62
7
  6
CONTINUOUS
370
-3
390
F
  0
LAYER
  5
416
100
AcDbSymbolTableRecord
100
AcDbLayerTableRecord
  2
___SHELL_92
 70
0
 62
7
  6
CONTINUOUS
370
-3
390
F
  0
LAYER
  5
417
100
AcDbSymbolTableRecord
100
AcDbLayerTableRecord
  2
___SHELL_93
 70
0
 62
7
  6
CONTINUOUS
370
-3
390
F
  0
LAYER
  5
418
100
AcDbSymbolTableRecord
100
AcDbLayerTableRecord
  2
___SHELL_94
 70
0
 62
7
  6
CONTINUOUS
370
-3
390
F
  0
LAYER
  5
419
100
AcDbSymbolTableRecord
100
AcDbLayerTableRecord
  2
___SHELL_95
 70
0
 62
7
  6
CONTINUOUS
370
-3
390
F
  0
LAYER
  5
41A
100
AcDbSymbolTableRecord
100
AcDbLayerTableRecord
  2
___SHELL_96
 70
0
 62
7
  6
CONTINUOUS
370
-3
390
F
  0
LAYER
  5
41B
100
AcDbSymbolTableRecord
100
AcDbLayerTableRecord
  2
___SHELL_97
 70
0
 62
7
  6
CONTINUOUS
370
-3
390
F
  0
LAYER
  5
41C
100
AcDbSymbolTableRecord
100
AcDbLayerTableRecord
  2
___SHELL_98
 70
0
 62
7
  6
CONTINUOUS
370
-3
390
F
  0
LAYER
  5
41D
100
AcDbSymbolTableRecord
100
AcDbLayerTableRecord
  2
___SHELL_99
 70
0
 62
7
  6
CONTINUOUS
370
-3
390
F
  0
ENDTAB
  0
TABLE
  2
STYLE
  5
3
100
AcDbSymbolTable
 70
1
  0
STYLE
  5
11
100
AcDbSymbolTableRecord
100
AcDbTextStyleTableRecord
  2
STANDARD
 70
0
 40
0.0
 41
0.8
 50
0.0
 71
0
 42
0.2
  3
txt
  4

  0
STYLE
  5
41E
100
AcDbSymbolTableRecord
100
AcDbTextStyleTableRecord
  2
TEXTSTYLE_1
 70
0
 40
0.0
 41
0.8
 50
0.0
 71
0
 42
0.2
  3
gdt
  4

  0
ENDTAB
  0
TABLE
  2
VIEW
  5
6
100
AcDbSymbolTable
 70
0
  0
ENDTAB
  0
TABLE
  2
UCS
  5
7
100
AcDbSymbolTable
 70
0
  0
ENDTAB
  0
TABLE
  2
APPID
  5
9
100
AcDbSymbolTable
 70
1
  0
APPID
  5
41F
100
AcDbSymbolTableRecord
100
AcDbRegAppTableRecord
  2
ACAD
 70
0
  0
ENDTAB
  0
TABLE
  2
BLOCK_RECORD
  5
1
100
AcDbSymbolTable
 70
0
  0
BLOCK_RECORD
  5
420
100
AcDbSymbolTableRecord
100
AcDbBlockTableRecord
  2
*Model_Space
  0
BLOCK_RECORD
  5
421
100
AcDbSymbolTableRecord
100
AcDbBlockTableRecord
  2
*Paper_Space
  0
BLOCK_RECORD
  5
422
100
AcDbSymbolTableRecord
100
AcDbBlockTableRecord
  2
_FILLED
  0
ENDTAB
  0
TABLE
  2
DIMSTYLE
  5
A
100
AcDbSymbolTable
 70
1
100
AcDbDimStyleTable
 71
0
  0
DIMSTYLE
105
423
100
AcDbSymbolTableRecord
100
AcDbDimStyleTableRecord
  2
STANDARD
 70
0
  3

  4

 40
1.0
 41
3.0
 42
0.5
 43
0.38
 44
1.5
 45
0.0
 46
0.0
 47
0.01
 48
0.01
140
3.0
141
0.09
142
0.0
143
25.4
144
1.0
145
0.0
146
1.0
147
0.625
 71
1.0
 72
0.0
 73
0
 74
0
 75
0
 76
0
 77
1
 78
8
 79
2
170
0
171
1
172
0
173
0
174
0
175
0
176
0
177
0
178
0
270
2
179
2
271
2
272
2
273
2
274
2
275
0
280
0
281
0
282
0
283
1
284
8
285
0
286
0
287
3
288
0
340
11
278
44
341
422
342
422
343
422
344
422
  0
ENDTAB
  0
ENDSEC
  0
SECTION
  2
BLOCKS
  0
BLOCK
  5
20
100
AcDbEntity
  8
0
100
AcDbBlockBegin
  2
*Model_Space
 70
0
 10
0.0
 20
0.0
 30
0.0
  3
*Model_Space
  1

  0
ENDBLK
  5
21
100
AcDbEntity
  8
0
100
AcDbBlockEnd
  0
BLOCK
  5
1C
100
AcDbEntity
  8
0
100
AcDbBlockBegin
  2
*Paper_Space
 70
0
 10
0.0
 20
0.0
 30
0.0
  3
*Paper_Space
  1

  0
ENDBLK
  5
1D
100
AcDbEntity
  8
0
100
AcDbBlockEnd
  0
BLOCK
  5
424
100
AcDbEntity
  8
0
100
AcDbBlockBegin
  2
_FILLED
 70
64
 10
0.0
 20
0.0
  3
_FILLED
  1

  0
SOLID
  5
425
100
AcDbEntity
  8
0
  6
BYBLOCK
 62
0
100
AcDbTrace
 10
0.0
 20
0.0
 11
-1.0
 21
0.3166666667
 12
-1.0
 22
-0.3166666667
 13
-1.0
 23
-0.3166666667
  0
ENDBLK
  5
426
100
AcDbEntity
  8
0
  6
BYBLOCK
 62
0
100
AcDbBlockEnd
  0
ENDSEC
  0
SECTION
  2
ENTITIES
  0
LINE
  5
427
100
AcDbEntity
  8
RACCORDO
100
AcDbLine
 62
7
  6
CONTINUOUS
 10
25.8107696642
 20
-26.6827486597
 11
2.4629825542
 21
-26.6827486597
  0
LINE
  5
428
100
AcDbEntity
  8
RACCORDO
100
AcDbLine
 62
7
  6
CONTINUOUS
 10
-7.6417478354
 20
-26.6827486597
 11
-7.9895349455
 21
-26.6827486597
  0
LINE
  5
429
100
AcDbEntity
  8
DRAFT
100
AcDbLine
 62
7
  6
CONTINUOUS
 10
2.4106173594
 20
-26.6303834649
 11
-7.5893826406
 21
-26.6303834649
  0
LINE
  5
42A
100
AcDbEntity
  8
RACCORDO
100
AcDbLine
 62
7
  6
CONTINUOUS
 10
25.7060392747
 20
-26.5780182701
 11
-7.8848045559
 21
-26.5780182701
  0
LINE
  5
42B
100
AcDbEntity
  8
0
100
AcDbLine
 62
7
  6
CONTINUOUS
 10
13.4106173594
 20
-25.7827486597
 11
4.4106173594
 21
-25.7827486597
  0
LINE
  5
42C
100
AcDbEntity
  8
0
100
AcDbLine
 62
7
  6
CONTINUOUS
 10
25.3556173594
 20
-25.2827486597
 11
14.4106173594
 21
-25.2827486597
  0
LINE
  5
42D
100
AcDbEntity
  8
0
100
AcDbLine
 62
7
  6
CONTINUOUS
 10
-1.5893826406
 20
-24.6827486597
 11
-3.5893826406
 21
-24.6827486597
  0
LINE
  5
42E
100
AcDbEntity
  8
RACCORDO
100
AcDbLine
 62
7
  6
CONTINUOUS
 10
12.8106935118
 20
-21.8827486597
 11
5.010541207
 21
-21.8827486597
  0
LINE
  5
42F
100
AcDbEntity
  8
RACCORDO
100
AcDbLine
 62
7
  6
CONTINUOUS
 10
12.7356367326
 20
-21.8076918805
 11
5.0855979861
 21
-21.8076918805
  0
LINE
  5
430
100
AcDbEntity
  8
0
100
AcDbLine
 62
7
  6
CONTINUOUS
 10
-3.5893826406
 20
-20.6827486597
 11
-1.5893826406
 21
-20.6827486597
  0
LINE
  5
431
100
AcDbEntity
  8
DRAFT
100
AcDbLine
 62
7
  6
CONTINUOUS
 10
5.5995246321
 20
-20.3827486597
 11
12.2217100866
 21
-20.3827486597
  0
LINE
  5
432
100
AcDbEntity
  8
0
100
AcDbLine
 62
7
  6
CONTINUOUS
 10
25.3556173594
 20
-18.9827486597
 11
23.1556173594
 21
-18.9827486597
  0
LINE
  5
433
100
AcDbEntity
  8
RACCORDO
100
AcDbLine
 62
7
  6
CONTINUOUS
 10
13.4106173594
 20
-18.5327486597
 11
13.3106173594
 21
-18.5327486597
  0
LINE
  5
434
100
AcDbEntity
  8
RACCORDO
100
AcDbLine
 62
7
  6
CONTINUOUS
 10
12.1466533074
 20
-18.5327486597
 11
5.6745814113
 21
-18.5327486597
  0
LINE
  5
435
100
AcDbEntity
  8
RACCORDO
100
AcDbLine
 62
7
  6
CONTINUOUS
 10
4.5106173594
 20
-18.5327486597
 11
4.4106173594
 21
-18.5327486597
  0
LINE
  5
436
100
AcDbEntity
  8
DRAFT
100
AcDbLine
 62
7
  6
CONTINUOUS
 10
14.4106173594
 20
-18.3827486597
 11
25.3556173594
 21
-18.3827486597
  0
LINE
  5
437
100
AcDbEntity
  8
DRAFT
100
AcDbLine
 62
7
  6
CONTINUOUS
 10
12.1728359048
 20
-18.1827486597
 11
5.6483988139
 21
-18.1827486597
  0
LINE
  5
438
100
AcDbEntity
  8
DRAFT
100
AcDbLine
 62
7
  6
CONTINUOUS
 10
13.4106173594
 20
-17.0327486597
 11
13.3106173594
 21
-17.0327486597
  0
LINE
  5
439
100
AcDbEntity
  8
DRAFT
100
AcDbLine
 62
7
  6
CONTINUOUS
 10
4.5106173594
 20
-17.0327486597
 11
4.4106173594
 21
-17.0327486597
  0
LINE
  5
43A
100
AcDbEntity
  8
DRAFT
100
AcDbLine
 62
7
  6
CONTINUOUS
 10
13.4106173594
 20
-16.9821328265
 11
13.3106173594
 21
-16.9821328265
  0
LINE
  5
43B
100
AcDbEntity
  8
DRAFT
100
AcDbLine
 62
7
  6
CONTINUOUS
 10
4.5106173594
 20
-16.9821328265
 11
4.4106173594
 21
-16.9821328265
  0
LINE
  5
43C
100
AcDbEntity
  8
DRAFT
100
AcDbLine
 62
250
  6
CONTINUOUS
 10
21.6257072295
 20
-16.5327486597
 11
21.6606173594
 21
-16.5327486597
  0
LINE
  5
43D
100
AcDbEntity
  8
0
100
AcDbLine
 62
7
  6
CONTINUOUS
 10
4.4106173594
 20
-16.4827486597
 11
4.5106173594
 21
-16.4827486597
  0
LINE
  5
43E
100
AcDbEntity
  8
0
100
AcDbLine
 62
7
  6
CONTINUOUS
 10
13.3106173594
 20
-16.4827486597
 11
13.4106173594
 21
-16.4827486597
  0
LINE
  5
43F
100
AcDbEntity
  8
0
100
AcDbLine
 62
7
  6
CONTINUOUS
 10
4.4106173594
 20
-15.4827486597
 11
5.2606173594
 21
-15.4827486597
  0
LINE
  5
440
100
AcDbEntity
  8
0
100
AcDbLine
 62
7
  6
CONTINUOUS
 10
12.5606173594
 20
-15.4827486597
 11
13.4106173594
 21
-15.4827486597
  0
LINE
  5
441
100
AcDbEntity
  8
DRAFT
100
AcDbLine
 62
7
  6
CONTINUOUS
 10
2.4629825542
 20
-26.6827486597
 11
2.4106173594
 21
-26.6303834649
  0
LINE
  5
442
100
AcDbEntity
  8
DRAFT
100
AcDbLine
 62
7
  6
CONTINUOUS
 10
-8.8846522511
 20
64.3219817299
 11
-8.9893826406
 21
64.2172513403
  0
LINE
  5
443
100
AcDbEntity
  8
DRAFT
100
AcDbLine
 62
7
  6
CONTINUOUS
 10
5.6483988139
 20
-13.3827486597
 11
12.1728359048
 21
-13.3827486597
  0
LINE
  5
444
100
AcDbEntity
  8
DRAFT
100
AcDbLine
 62
7
  6
CONTINUOUS
 10
-8.8846522511
 20
-7.8874790493
 11
-8.9893826406
 21
-7.7827486597
  0
LINE
  5
445
100
AcDbEntity
  8
DRAFT
100
AcDbLine
 62
7
  6
CONTINUOUS
 10
26.7058869698
 20
-7.8874790493
 11
25.3990185022
 21
-7.8874790493
  0
LINE
  5
446
100
AcDbEntity
  8
DRAFT
100
AcDbLine
 62
7
  6
CONTINUOUS
 10
-8.8846522511
 20
-7.8874790493
 11
-7.5777837835
 21
-7.8874790493
  0
LINE
  5
447
100
AcDbEntity
  8
RACCORDO
100
AcDbLine
 62
7
  6
CONTINUOUS
 10
-7.7377506925
 20
-7.6827486597
 11
-8.9893826406
 21
-7.6827486597
  0
LINE
  5
448
100
AcDbEntity
  8
RACCORDO
100
AcDbLine
 62
7
  6
CONTINUOUS
 10
25.5589854113
 20
-7.6827486597
 11
26.8106173594
 21
-7.6827486597
  0
LINE
  5
449
100
AcDbEntity
  8
DRAFT
100
AcDbLine
 62
7
  6
CONTINUOUS
 10
25.4280724243
 20
-6.9827486597
 11
25.3990185022
 21
-6.9827486597
  0
LINE
  5
44A
100
AcDbEntity
  8
DRAFT
100
AcDbLine
 62
7
  6
CONTINUOUS
 10
-7.6068377056
 20
-6.9827486597
 11
-7.5777837835
 21
-6.9827486597
  0
LINE
  5
44B
100
AcDbEntity
  8
RACCORDO
100
AcDbLine
 62
250
  6
CONTINUOUS
 10
-8.888143264
 20
-6.6827486597
 11
-7.8215350042
 21
-6.6827486597
  0
LINE
  5
44C
100
AcDbEntity
  8
RACCORDO
100
AcDbLine
 62
250
  6
CONTINUOUS
 10
25.6427697229
 20
-6.6827486597
 11
26.7093779828
 21
-6.6827486597
  0
LINE
  5
44D
100
AcDbEntity
  8
DRAFT
100
AcDbLine
 62
7
  6
CONTINUOUS
 10
-7.619056251
 20
-6.2827486597
 11
-7.5777837835
 21
-6.2827486597
  0
LINE
  5
44E
100
AcDbEntity
  8
DRAFT
100
AcDbLine
 62
7
  6
CONTINUOUS
 10
25.3990185022
 20
-6.2827486597
 11
25.4402909698
 21
-6.2827486597
  0
LINE
  5
44F
100
AcDbEntity
  8
DRAFT
100
AcDbLine
 62
7
  6
CONTINUOUS
 10
5.5995246321
 20
-5.7940857267
 11
5.6606173594
 21
-5.7777159797
  0
LINE
  5
450
100
AcDbEntity
  8
DRAFT
100
AcDbLine
 62
7
  6
CONTINUOUS
 10
-8.9771640952
 20
-4.4327486597
 11
-8.9199986054
 21
-4.427754965
  0
LINE
  5
451
100
AcDbEntity
  8
0
100
AcDbLine
 62
7
  6
CONTINUOUS
 10
-7.809064767
 20
-4.4827486597
 11
-8.2215350042
 21
-4.4827486597
  0
LINE
  5
452
100
AcDbEntity
  8
0
100
AcDbLine
 62
7
  6
CONTINUOUS
 10
25.6302994858
 20
-4.4827486597
 11
26.0427697229
 21
-4.4827486597
  0
LINE
  5
453
100
AcDbEntity
  8
DRAFT
100
AcDbLine
 62
7
  6
CONTINUOUS
 10
26.7983988139
 20
-4.4327486597
 11
26.7407970997
 21
-4.4327486597
  0
LINE
  5
454
100
AcDbEntity
  8
DRAFT
100
AcDbLine
 62
7
  6
CONTINUOUS
 10
-8.9195623809
 20
-4.4327486597
 11
-8.9771640952
 21
-4.4327486597
  0
LINE
  5
455
100
AcDbEntity
  8
DRAFT
100
AcDbLine
 62
7
  6
CONTINUOUS
 10
-7.5009814978
 20
-4.2827486597
 11
-7.7883884486
 21
-4.2827486597
  0
LINE
  5
456
100
AcDbEntity
  8
DRAFT
100
AcDbLine
 62
7
  6
CONTINUOUS
 10
25.3222162165
 20
-4.2827486597
 11
25.6096231674
 21
-4.2827486597
  0
LINE
  5
457
100
AcDbEntity
  8
IMPORT_IGES
100
AcDbLine
 62
7
  6
CONTINUOUS
 10
5.7606173594
 20
-2.6827486597
 11
5.7106173594
 21
-2.6827486597
  0
LINE
  5
458
100
AcDbEntity
  8
DRAFT
100
AcDbLine
 62
7
  6
CONTINUOUS
 10
26.7983988139
 20
-4.4327486597
 11
26.7412333242
 21
-4.427754965
  0
LINE
  5
459
100
AcDbEntity
  8
DRAFT
100
AcDbLine
 62
7
  6
CONTINUOUS
 10
12.2217100866
 20
-5.7940857267
 11
12.1606173594
 21
-5.7777159797
  0
LINE
  5
45A
100
AcDbEntity
  8
RACCORDO
100
AcDbLine
 62
250
  6
CONTINUOUS
 10
12.8106935118
 20
-21.8827486597
 11
12.7356367326
 21
-21.8076918805
  0
LINE
  5
45B
100
AcDbEntity
  8
RACCORDO
100
AcDbLine
 62
250
  6
CONTINUOUS
 10
13.3106173594
 20
-21.3828248121
 11
13.2355605802
 21
-21.3077680329
  0
LINE
  5
45C
100
AcDbEntity
  8
DRAFT
100
AcDbLine
 62
7
  6
CONTINUOUS
 10
25.4629825542
 20
83.1172513403
 11
25.4106173594
 21
83.0648861455
  0
LINE
  5
45D
100
AcDbEntity
  8
RACCORDO
100
AcDbLine
 62
250
  6
CONTINUOUS
 10
25.8107696642
 20
83.1172513403
 11
25.7060392747
 21
83.0125209507
  0
LINE
  5
45E
100
AcDbEntity
  8
DRAFT
100
AcDbLine
 62
7
  6
CONTINUOUS
 10
12.2217100866
 20
-1.1714115927
 11
12.1606173594
 21
-1.1877813397
  0
LINE
  5
45F
100
AcDbEntity
  8
DRAFT
100
AcDbLine
 62
7
  6
CONTINUOUS
 10
25.5556467237
 20
0.7586906596
 11
25.6096231674
 21
0.7681353134
  0
LINE
  5
460
100
AcDbEntity
  8
DRAFT
100
AcDbLine
 62
7
  6
CONTINUOUS
 10
-7.7883884486
 20
-4.3336326329
 11
-7.734412005
 21
-4.324187979
  0
LINE
  5
461
100
AcDbEntity
  8
DRAFT
100
AcDbLine
 62
7
  6
CONTINUOUS
 10
26.7983988139
 20
0.8672513403
 11
26.7412333242
 21
0.8622576456
  0
LINE
  5
462
100
AcDbEntity
  8
IMPORT_IGES
100
AcDbLine
 62
7
  6
CONTINUOUS
 10
5.7106173594
 20
0.7172513403
 11
5.7606173594
 21
0.7172513403
  0
LINE
  5
463
100
AcDbEntity
  8
DRAFT
100
AcDbLine
 62
7
  6
CONTINUOUS
 10
-7.5009814978
 20
0.7172513403
 11
-7.7883884486
 21
0.7172513403
  0
LINE
  5
464
100
AcDbEntity
  8
DRAFT
100
AcDbLine
 62
7
  6
CONTINUOUS
 10
25.3222162165
 20
0.7172513403
 11
25.6096231674
 21
0.7172513403
  0
LINE
  5
465
100
AcDbEntity
  8
DRAFT
100
AcDbLine
 62
7
  6
CONTINUOUS
 10
-8.9771640952
 20
0.8672513403
 11
-8.9195623809
 21
0.8672513403
  0
LINE
  5
466
100
AcDbEntity
  8
DRAFT
100
AcDbLine
 62
7
  6
CONTINUOUS
 10
26.7407970997
 20
0.8672513403
 11
26.7983988139
 21
0.8672513403
  0
LINE
  5
467
100
AcDbEntity
  8
0
100
AcDbLine
 62
7
  6
CONTINUOUS
 10
-7.809064767
 20
0.9172513403
 11
-8.2215350042
 21
0.9172513403
  0
LINE
  5
468
100
AcDbEntity
  8
0
100
AcDbLine
 62
7
  6
CONTINUOUS
 10
25.6302994858
 20
0.9172513403
 11
26.0427697229
 21
0.9172513403
  0
LINE
  5
469
100
AcDbEntity
  8
DRAFT
100
AcDbLine
 62
7
  6
CONTINUOUS
 10
-8.9771640952
 20
0.8672513403
 11
-8.9199986054
 21
0.8622576456
  0
LINE
  5
46A
100
AcDbEntity
  8
DRAFT
100
AcDbLine
 62
7
  6
CONTINUOUS
 10
-7.734412005
 20
0.7586906596
 11
-7.7883884486
 21
0.7681353134
  0
LINE
  5
46B
100
AcDbEntity
  8
DRAFT
100
AcDbLine
 62
7
  6
CONTINUOUS
 10
25.6096231674
 20
-4.3336326329
 11
25.5556467237
 21
-4.324187979
  0
LINE
  5
46C
100
AcDbEntity
  8
DRAFT
100
AcDbLine
 62
7
  6
CONTINUOUS
 10
5.5995246321
 20
-1.1714115927
 11
5.6606173594
 21
-1.1877813397
  0
LINE
  5
46D
100
AcDbEntity
  8
RACCORDO
100
AcDbLine
 62
250
  6
CONTINUOUS
 10
25.7060392747
 20
-26.5780182701
 11
25.8107696642
 21
-26.6827486597
  0
LINE
  5
46E
100
AcDbEntity
  8
DRAFT
100
AcDbLine
 62
7
  6
CONTINUOUS
 10
-8.8846522511
 20
46.281698016
 11
-8.9893826406
 21
45.9672513403
  0
LINE
  5
46F
100
AcDbEntity
  8
RACCORDO
100
AcDbLine
 62
250
  6
CONTINUOUS
 10
26.8106173594
 20
82.1174036451
 11
26.7058869698
 21
82.0126732556
  0
LINE
  5
470
100
AcDbEntity
  8
RACCORDO
100
AcDbLine
 62
250
  6
CONTINUOUS
 10
-8.888143264
 20
3.1172513403
 11
-7.8215350042
 21
3.1172513403
  0
LINE
  5
471
100
AcDbEntity
  8
RACCORDO
100
AcDbLine
 62
250
  6
CONTINUOUS
 10
25.6427697229
 20
3.1172513403
 11
26.7093779828
 21
3.1172513403
  0
LINE
  5
472
100
AcDbEntity
  8
RACCORDO
100
AcDbLine
 62
7
  6
CONTINUOUS
 10
-7.7377506925
 20
4.1172513403
 11
-8.9893826406
 21
4.1172513403
  0
LINE
  5
473
100
AcDbEntity
  8
RACCORDO
100
AcDbLine
 62
7
  6
CONTINUOUS
 10
25.5589854113
 20
4.1172513403
 11
26.8106173594
 21
4.1172513403
  0
LINE
  5
474
100
AcDbEntity
  8
DRAFT
100
AcDbLine
 62
7
  6
CONTINUOUS
 10
26.7058869698
 20
4.3219817299
 11
25.3990185022
 21
4.3219817299
  0
LINE
  5
475
100
AcDbEntity
  8
DRAFT
100
AcDbLine
 62
7
  6
CONTINUOUS
 10
-8.8846522511
 20
4.3219817299
 11
-7.5777837835
 21
4.3219817299
  0
LINE
  5
476
100
AcDbEntity
  8
RACCORDO
100
AcDbLine
 62
250
  6
CONTINUOUS
 10
26.7058869698
 20
-25.578170575
 11
26.8106173594
 21
-25.6829009646
  0
LINE
  5
477
100
AcDbEntity
  8
DRAFT
100
AcDbLine
 62
7
  6
CONTINUOUS
 10
-8.8846522511
 20
7.6528046646
 11
-8.9457449783
 21
7.8362318921
  0
LINE
  5
478
100
AcDbEntity
  8
SMUSSO
100
AcDbLine
 62
7
  6
CONTINUOUS
 10
-8.9586392858
 20
10.3749462723
 11
-8.9893826406
 21
10.4672513403
  0
LINE
  5
479
100
AcDbEntity
  8
0
100
AcDbLine
 62
7
  6
CONTINUOUS
 10
4.4106173594
 20
6.9672513403
 11
5.2606173594
 21
6.9672513403
  0
LINE
  5
47A
100
AcDbEntity
  8
0
100
AcDbLine
 62
7
  6
CONTINUOUS
 10
5.6745814113
 20
6.9672513403
 11
5.7606173594
 21
6.9672513403
  0
LINE
  5
47B
100
AcDbEntity
  8
0
100
AcDbLine
 62
7
  6
CONTINUOUS
 10
12.0606173594
 20
6.9672513403
 11
12.1466533074
 21
6.9672513403
  0
LINE
  5
47C
100
AcDbEntity
  8
0
100
AcDbLine
 62
7
  6
CONTINUOUS
 10
12.5606173594
 20
6.9672513403
 11
13.4106173594
 21
6.9672513403
  0
LINE
  5
47D
100
AcDbEntity
  8
DRAFT
100
AcDbLine
 62
7
  6
CONTINUOUS
 10
26.7058869698
 20
7.6528046646
 11
13.4106173594
 21
7.6528046646
  0
LINE
  5
47E
100
AcDbEntity
  8
DRAFT
100
AcDbLine
 62
7
  6
CONTINUOUS
 10
4.4106173594
 20
7.6528046646
 11
-8.8846522511
 21
7.6528046646
  0
LINE
  5
47F
100
AcDbEntity
  8
DRAFT
100
AcDbLine
 62
7
  6
CONTINUOUS
 10
26.7669796971
 20
7.8362318921
 11
13.4106173594
 21
7.8362318921
  0
LINE
  5
480
100
AcDbEntity
  8
DRAFT
100
AcDbLine
 62
7
  6
CONTINUOUS
 10
4.4106173594
 20
7.8362318921
 11
-8.9457449783
 21
7.8362318921
  0
LINE
  5
481
100
AcDbEntity
  8
DRAFT
100
AcDbLine
 62
7
  6
CONTINUOUS
 10
12.2217100866
 20
8.9172513403
 11
5.5995246321
 21
8.9172513403
  0
LINE
  5
482
100
AcDbEntity
  8
DRAFT
100
AcDbLine
 62
7
  6
CONTINUOUS
 10
5.5995246321
 20
-5.7940857267
 11
5.2606173594
 21
-5.2070811112
  0
LINE
  5
483
100
AcDbEntity
  8
DRAFT
100
AcDbLine
 62
7
  6
CONTINUOUS
 10
5.2606173594
 20
-5.0848956567
 11
5.6606173594
 21
-5.7777159797
  0
LINE
  5
484
100
AcDbEntity
  8
SMUSSO
100
AcDbLine
 62
7
  6
CONTINUOUS
 10
-8.9457449783
 20
9.6362318921
 11
-8.9586392858
 21
10.3749462723
  0
LINE
  5
485
100
AcDbEntity
  8
DRAFT
100
AcDbLine
 62
7
  6
CONTINUOUS
 10
-7.619056251
 20
-6.2827486597
 11
-7.6068377056
 21
-6.9827486597
  0
LINE
  5
486
100
AcDbEntity
  8
RACCORDO
100
AcDbLine
 62
7
  6
CONTINUOUS
 10
-8.9893826406
 20
-25.6829009646
 11
-8.9893826406
 21
-7.6827486597
  0
LINE
  5
487
100
AcDbEntity
  8
RACCORDO
100
AcDbLine
 62
7
  6
CONTINUOUS
 10
-8.9893826406
 20
64.1172513403
 11
-8.9893826406
 21
82.1174036451
  0
LINE
  5
488
100
AcDbEntity
  8
DRAFT
100
AcDbLine
 62
7
  6
CONTINUOUS
 10
-8.9893826406
 20
-7.6827486597
 11
-8.9893826406
 21
64.1172513403
  0
LINE
  5
489
100
AcDbEntity
  8
DRAFT
100
AcDbLine
 62
7
  6
CONTINUOUS
 10
-8.9771640952
 20
-4.4327486597
 11
-8.9771640952
 21
0.8672513403
  0
LINE
  5
48A
100
AcDbEntity
  8
DRAFT
100
AcDbLine
 62
7
  6
CONTINUOUS
 10
-8.9771640952
 20
55.5672513403
 11
-8.9771640952
 21
60.8672513403
  0
LINE
  5
48B
100
AcDbEntity
  8
SMUSSO
100
AcDbLine
 62
7
  6
CONTINUOUS
 10
-8.9457449783
 20
7.8362318921
 11
-8.9457449783
 21
9.6362318921
  0
LINE
  5
48C
100
AcDbEntity
  8
DRAFT
100
AcDbLine
 62
7
  6
CONTINUOUS
 10
-8.9195623809
 20
60.8672513403
 11
-8.9195623809
 21
55.5672513403
  0
LINE
  5
48D
100
AcDbEntity
  8
DRAFT
100
AcDbLine
 62
7
  6
CONTINUOUS
 10
-8.9195623809
 20
0.8672513403
 11
-8.9195623809
 21
-4.4327486597
  0
LINE
  5
48E
100
AcDbEntity
  8
RACCORDO
100
AcDbLine
 62
7
  6
CONTINUOUS
 10
-8.888143264
 20
-6.6827486597
 11
-8.888143264
 21
3.1172513403
  0
LINE
  5
48F
100
AcDbEntity
  8
RACCORDO
100
AcDbLine
 62
7
  6
CONTINUOUS
 10
-8.888143264
 20
53.3172513403
 11
-8.888143264
 21
63.1172513403
  0
LINE
  5
490
100
AcDbEntity
  8
RACCORDO
100
AcDbLine
 62
7
  6
CONTINUOUS
 10
-8.8846522511
 20
-25.578170575
 11
-8.8846522511
 21
-7.8874790493
  0
LINE
  5
491
100
AcDbEntity
  8
DRAFT
100
AcDbLine
 62
7
  6
CONTINUOUS
 10
-8.8846522511
 20
4.3219817299
 11
-8.8846522511
 21
7.6528046646
  0
LINE
  5
492
100
AcDbEntity
  8
DRAFT
100
AcDbLine
 62
7
  6
CONTINUOUS
 10
-8.8846522511
 20
46.281698016
 11
-8.8846522511
 21
52.1125209507
  0
LINE
  5
493
100
AcDbEntity
  8
RACCORDO
100
AcDbLine
 62
7
  6
CONTINUOUS
 10
-8.8846522511
 20
64.3219817299
 11
-8.8846522511
 21
82.0126732556
  0
LINE
  5
494
100
AcDbEntity
  8
DRAFT
100
AcDbLine
 62
7
  6
CONTINUOUS
 10
-8.3282899134
 20
4.2172513403
 11
-8.3282899134
 21
4.1172513403
  0
LINE
  5
495
100
AcDbEntity
  8
DRAFT
100
AcDbLine
 62
7
  6
CONTINUOUS
 10
-8.3282899134
 20
-7.6827486597
 11
-8.3282899134
 21
-7.7827486597
  0
LINE
  5
496
100
AcDbEntity
  8
DRAFT
100
AcDbLine
 62
7
  6
CONTINUOUS
 10
-8.3282899134
 20
52.2172513403
 11
-8.3282899134
 21
52.3172513403
  0
LINE
  5
497
100
AcDbEntity
  8
DRAFT
100
AcDbLine
 62
7
  6
CONTINUOUS
 10
-8.3282899134
 20
64.1172513403
 11
-8.3282899134
 21
64.2172513403
  0
LINE
  5
498
100
AcDbEntity
  8
DRAFT
100
AcDbLine
 62
7
  6
CONTINUOUS
 10
-8.3108348484
 20
64.2434339377
 11
-8.3108348484
 21
64.1172513403
  0
LINE
  5
499
100
AcDbEntity
  8
DRAFT
100
AcDbLine
 62
7
  6
CONTINUOUS
 10
-8.3108348484
 20
52.3172513403
 11
-8.3108348484
 21
52.1963052624
  0
LINE
  5
49A
100
AcDbEntity
  8
DRAFT
100
AcDbLine
 62
7
  6
CONTINUOUS
 10
-8.3108348484
 20
4.2381974182
 11
-8.3108348484
 21
4.1172513403
  0
LINE
  5
49B
100
AcDbEntity
  8
DRAFT
100
AcDbLine
 62
7
  6
CONTINUOUS
 10
-8.3108348484
 20
-7.6827486597
 11
-8.3108348484
 21
-7.8089312571
  0
LINE
  5
49C
100
AcDbEntity
  8
0
100
AcDbLine
 62
7
  6
CONTINUOUS
 10
-8.2215350042
 20
60.9172513403
 11
-8.2215350042
 21
55.5172513403
  0
LINE
  5
49D
100
AcDbEntity
  8
0
100
AcDbLine
 62
7
  6
CONTINUOUS
 10
-8.2215350042
 20
-4.4827486597
 11
-8.2215350042
 21
0.9172513403
  0
LINE
  5
49E
100
AcDbEntity
  8
RACCORDO
100
AcDbLine
 62
7
  6
CONTINUOUS
 10
-7.8215350042
 20
-6.6827486597
 11
-7.8215350042
 21
-4.4827486597
  0
LINE
  5
49F
100
AcDbEntity
  8
RACCORDO
100
AcDbLine
 62
7
  6
CONTINUOUS
 10
-7.8215350042
 20
0.9172513403
 11
-7.8215350042
 21
3.1172513403
  0
LINE
  5
4A0
100
AcDbEntity
  8
RACCORDO
100
AcDbLine
 62
7
  6
CONTINUOUS
 10
-7.8215350042
 20
53.3172513403
 11
-7.8215350042
 21
55.5172513403
  0
LINE
  5
4A1
100
AcDbEntity
  8
RACCORDO
100
AcDbLine
 62
7
  6
CONTINUOUS
 10
-7.8215350042
 20
60.9172513403
 11
-7.8215350042
 21
63.1172513403
  0
LINE
  5
4A2
100
AcDbEntity
  8
0
100
AcDbLine
 62
7
  6
CONTINUOUS
 10
-7.809064767
 20
60.9172513403
 11
-7.809064767
 21
55.5172513403
  0
LINE
  5
4A3
100
AcDbEntity
  8
0
100
AcDbLine
 62
7
  6
CONTINUOUS
 10
-7.809064767
 20
-4.4827486597
 11
-7.809064767
 21
0.9172513403
  0
LINE
  5
4A4
100
AcDbEntity
  8
DRAFT
100
AcDbLine
 62
7
  6
CONTINUOUS
 10
-7.7883884486
 20
60.7681353134
 11
-7.7883884486
 21
55.6663673671
  0
LINE
  5
4A5
100
AcDbEntity
  8
DRAFT
100
AcDbLine
 62
7
  6
CONTINUOUS
 10
-7.7883884486
 20
0.7681353134
 11
-7.7883884486
 21
-4.3336326329
  0
LINE
  5
4A6
100
AcDbEntity
  8
DRAFT
100
AcDbLine
 62
7
  6
CONTINUOUS
 10
-7.7377506925
 20
64.2434339377
 11
-7.7377506925
 21
64.1172513403
  0
LINE
  5
4A7
100
AcDbEntity
  8
DRAFT
100
AcDbLine
 62
7
  6
CONTINUOUS
 10
-7.7377506925
 20
52.3172513403
 11
-7.7377506925
 21
52.1963052624
  0
LINE
  5
4A8
100
AcDbEntity
  8
DRAFT
100
AcDbLine
 62
7
  6
CONTINUOUS
 10
-7.7377506925
 20
4.2381974182
 11
-7.7377506925
 21
4.1172513403
  0
LINE
  5
4A9
100
AcDbEntity
  8
DRAFT
100
AcDbLine
 62
7
  6
CONTINUOUS
 10
-7.7377506925
 20
-7.6827486597
 11
-7.7377506925
 21
-7.8089312571
  0
LINE
  5
4AA
100
AcDbEntity
  8
DRAFT
100
AcDbLine
 62
7
  6
CONTINUOUS
 10
-7.734412005
 20
-4.324187979
 11
-7.734412005
 21
-4.2827486597
  0
LINE
  5
4AB
100
AcDbEntity
  8
DRAFT
100
AcDbLine
 62
7
  6
CONTINUOUS
 10
-7.734412005
 20
0.7172513403
 11
-7.734412005
 21
0.7586906596
  0
LINE
  5
4AC
100
AcDbEntity
  8
DRAFT
100
AcDbLine
 62
7
  6
CONTINUOUS
 10
-7.734412005
 20
55.675812021
 11
-7.734412005
 21
55.7172513403
  0
LINE
  5
4AD
100
AcDbEntity
  8
DRAFT
100
AcDbLine
 62
7
  6
CONTINUOUS
 10
-7.734412005
 20
60.7172513403
 11
-7.734412005
 21
60.7586906596
  0
LINE
  5
4AE
100
AcDbEntity
  8
0
100
AcDbLine
 62
7
  6
CONTINUOUS
 10
-7.6574573938
 20
55.7172513403
 11
-7.6574573938
 21
52.1963052624
  0
LINE
  5
4AF
100
AcDbEntity
  8
0
100
AcDbLine
 62
7
  6
CONTINUOUS
 10
-7.6574573938
 20
4.2381974182
 11
-7.6574573938
 21
0.7172513403
  0
LINE
  5
4B0
100
AcDbEntity
  8
DRAFT
100
AcDbLine
 62
7
  6
CONTINUOUS
 10
-7.619056251
 20
62.7172513403
 11
-7.619056251
 21
60.7172513403
  0
LINE
  5
4B1
100
AcDbEntity
  8
DRAFT
100
AcDbLine
 62
7
  6
CONTINUOUS
 10
-7.619056251
 20
-4.2827486597
 11
-7.619056251
 21
-6.2827486597
  0
LINE
  5
4B2
100
AcDbEntity
  8
DRAFT
100
AcDbLine
 62
7
  6
CONTINUOUS
 10
-7.6068377056
 20
64.2434339377
 11
-7.6068377056
 21
63.4172513403
  0
LINE
  5
4B3
100
AcDbEntity
  8
DRAFT
100
AcDbLine
 62
7
  6
CONTINUOUS
 10
-7.6068377056
 20
-6.9827486597
 11
-7.6068377056
 21
-7.8089312571
  0
LINE
  5
4B4
100
AcDbEntity
  8
DRAFT
100
AcDbLine
 62
7
  6
CONTINUOUS
 10
-7.5777837835
 20
64.3219817299
 11
-7.5777837835
 21
60.7172513403
  0
LINE
  5
4B5
100
AcDbEntity
  8
DRAFT
100
AcDbLine
 62
7
  6
CONTINUOUS
 10
-7.5777837835
 20
55.7172513403
 11
-7.5777837835
 21
52.1125209507
  0
LINE
  5
4B6
100
AcDbEntity
  8
DRAFT
100
AcDbLine
 62
7
  6
CONTINUOUS
 10
-7.5777837835
 20
4.3219817299
 11
-7.5777837835
 21
0.7172513403
  0
LINE
  5
4B7
100
AcDbEntity
  8
DRAFT
100
AcDbLine
 62
7
  6
CONTINUOUS
 10
-7.5777837835
 20
-4.2827486597
 11
-7.5777837835
 21
-7.8874790493
  0
LINE
  5
4B8
100
AcDbEntity
  8
DRAFT
100
AcDbLine
 62
7
  6
CONTINUOUS
 10
-7.5393826406
 20
60.7172513403
 11
-7.5393826406
 21
55.7172513403
  0
LINE
  5
4B9
100
AcDbEntity
  8
DRAFT
100
AcDbLine
 62
7
  6
CONTINUOUS
 10
-7.5393826406
 20
0.7172513403
 11
-7.5393826406
 21
-4.2827486597
  0
LINE
  5
4BA
100
AcDbEntity
  8
DRAFT
100
AcDbLine
 62
7
  6
CONTINUOUS
 10
-7.5343826406
 20
74.6919179747
 11
-7.5343826406
 21
81.7172513403
  0
LINE
  5
4BB
100
AcDbEntity
  8
DRAFT
100
AcDbLine
 62
7
  6
CONTINUOUS
 10
-7.5009814978
 20
60.7172513403
 11
-7.5009814978
 21
55.7172513403
  0
LINE
  5
4BC
100
AcDbEntity
  8
DRAFT
100
AcDbLine
 62
7
  6
CONTINUOUS
 10
-7.5009814978
 20
0.7172513403
 11
-7.5009814978
 21
-4.2827486597
  0
LINE
  5
4BD
100
AcDbEntity
  8
DRAFT
100
AcDbLine
 62
7
  6
CONTINUOUS
 10
-6.0893826406
 20
46.2348910672
 11
-6.0893826406
 21
44.1672513403
  0
LINE
  5
4BE
100
AcDbEntity
  8
DRAFT
100
AcDbLine
 62
7
  6
CONTINUOUS
 10
-7.6068377056
 20
63.4172513403
 11
-7.619056251
 21
62.7172513403
  0
LINE
  5
4BF
100
AcDbEntity
  8
SMUSSO
100
AcDbLine
 62
7
  6
CONTINUOUS
 10
26.7669796971
 20
9.6362318921
 11
13.4106173594
 21
9.6362318921
  0
LINE
  5
4C0
100
AcDbEntity
  8
SMUSSO
100
AcDbLine
 62
7
  6
CONTINUOUS
 10
4.4106173594
 20
9.6362318921
 11
-8.9457449783
 21
9.6362318921
  0
LINE
  5
4C1
100
AcDbEntity
  8
SMUSSO
100
AcDbLine
 62
7
  6
CONTINUOUS
 10
26.7798740045
 20
10.3749462723
 11
13.4106173594
 21
10.3749462723
  0
LINE
  5
4C2
100
AcDbEntity
  8
SMUSSO
100
AcDbLine
 62
7
  6
CONTINUOUS
 10
4.4106173594
 20
10.3749462723
 11
-8.9586392858
 21
10.3749462723
  0
LINE
  5
4C3
100
AcDbEntity
  8
DRAFT
100
AcDbLine
 62
7
  6
CONTINUOUS
 10
26.8106173594
 20
10.4672513403
 11
13.4106173594
 21
10.4672513403
  0
LINE
  5
4C4
100
AcDbEntity
  8
DRAFT
100
AcDbLine
 62
7
  6
CONTINUOUS
 10
4.4106173594
 20
10.4672513403
 11
-8.9893826406
 21
10.4672513403
  0
LINE
  5
4C5
100
AcDbEntity
  8
DRAFT
100
AcDbLine
 62
7
  6
CONTINUOUS
 10
4.5856741386
 20
10.6172513403
 11
13.2355605802
 21
10.6172513403
  0
LINE
  5
4C6
100
AcDbEntity
  8
DRAFT
100
AcDbLine
 62
7
  6
CONTINUOUS
 10
4.5507640087
 20
12.6172513403
 11
13.27047071
 21
12.6172513403
  0
LINE
  5
4C7
100
AcDbEntity
  8
0
100
AcDbLine
 62
7
  6
CONTINUOUS
 10
-5.3343826406
 20
81.7172513403
 11
-5.3343826406
 21
75.4172513403
  0
LINE
  5
4C8
100
AcDbEntity
  8
DRAFT
100
AcDbLine
 62
7
  6
CONTINUOUS
 10
-4.3393826406
 20
44.1672513403
 11
-4.3393826406
 21
46.2348910672
  0
LINE
  5
4C9
100
AcDbEntity
  8
DRAFT
100
AcDbLine
 62
7
  6
CONTINUOUS
 10
-3.8393826406
 20
72.9672513403
 11
-3.8393826406
 21
74.8172513403
  0
LINE
  5
4CA
100
AcDbEntity
  8
DRAFT
100
AcDbLine
 62
7
  6
CONTINUOUS
 10
-3.8044725108
 20
72.9672513403
 11
-3.8044725108
 21
74.8172513403
  0
LINE
  5
4CB
100
AcDbEntity
  8
DRAFT
100
AcDbLine
 62
7
  6
CONTINUOUS
 10
-2.8393826406
 20
46.2348910672
 11
-2.8393826406
 21
44.1672513403
  0
LINE
  5
4CC
100
AcDbEntity
  8
DRAFT
100
AcDbLine
 62
7
  6
CONTINUOUS
 10
12.5606173594
 20
-1.8806016627
 11
12.1606173594
 21
-1.1877813397
  0
LINE
  5
4CD
100
AcDbEntity
  8
DRAFT
100
AcDbLine
 62
7
  6
CONTINUOUS
 10
12.5606173594
 20
-1.7584162082
 11
12.2217100866
 21
-1.1714115927
  0
LINE
  5
4CE
100
AcDbEntity
  8
0
100
AcDbLine
 62
7
  6
CONTINUOUS
 10
-1.0893826406
 20
22.309420015
 11
-0.592583009
 21
21.0172513403
  0
LINE
  5
4CF
100
AcDbEntity
  8
0
100
AcDbLine
 62
7
  6
CONTINUOUS
 10
-0.5706796759
 20
21.3730872359
 11
-0.9062031201
 21
22.309420015
  0
LINE
  5
4D0
100
AcDbEntity
  8
0
100
AcDbLine
 62
7
  6
CONTINUOUS
 10
-1.0893826406
 20
18.509420015
 11
-1.0893826406
 21
17.2172513403
  0
LINE
  5
4D1
100
AcDbEntity
  8
DRAFT
100
AcDbLine
 62
7
  6
CONTINUOUS
 10
-1.0893826406
 20
44.1672513403
 11
-1.0893826406
 21
46.2348910672
  0
LINE
  5
4D2
100
AcDbEntity
  8
0
100
AcDbLine
 62
7
  6
CONTINUOUS
 10
-0.917093484
 20
17.2172513403
 11
-0.917093484
 21
18.509420015
  0
LINE
  5
4D3
100
AcDbEntity
  8
0
100
AcDbLine
 62
7
  6
CONTINUOUS
 10
-0.7056477009
 20
18.509420015
 11
-0.7056477009
 21
18.3606248343
  0
LINE
  5
4D4
100
AcDbEntity
  8
0
100
AcDbLine
 62
7
  6
CONTINUOUS
 10
-0.2827561346
 20
18.3606248343
 11
-0.2827561346
 21
17.2172513403
  0
LINE
  5
4D5
100
AcDbEntity
  8
0
100
AcDbLine
 62
7
  6
CONTINUOUS
 10
-0.110466978
 20
17.2172513403
 11
-0.110466978
 21
18.3606248343
  0
LINE
  5
4D6
100
AcDbEntity
  8
0
100
AcDbLine
 62
7
  6
CONTINUOUS
 10
0.2528330245
 20
24.2015886897
 11
0.2528330245
 21
22.909420015
  0
LINE
  5
4D7
100
AcDbEntity
  8
0
100
AcDbLine
 62
7
  6
CONTINUOUS
 10
0.2528330245
 20
22.309420015
 11
0.2528330245
 21
21.0172513403
  0
LINE
  5
4D8
100
AcDbEntity
  8
0
100
AcDbLine
 62
7
  6
CONTINUOUS
 10
0.3124245883
 20
18.3606248343
 11
0.3124245883
 21
18.509420015
  0
LINE
  5
4D9
100
AcDbEntity
  8
0
100
AcDbLine
 62
7
  6
CONTINUOUS
 10
0.4251221811
 20
21.0172513403
 11
0.4251221811
 21
22.309420015
  0
LINE
  5
4DA
100
AcDbEntity
  8
0
100
AcDbLine
 62
7
  6
CONTINUOUS
 10
0.4251221811
 20
22.909420015
 11
0.4251221811
 21
24.2015886897
  0
LINE
  5
4DB
100
AcDbEntity
  8
0
100
AcDbLine
 62
7
  6
CONTINUOUS
 10
0.7148812173
 20
24.2015886897
 11
0.7148812173
 21
22.909420015
  0
LINE
  5
4DC
100
AcDbEntity
  8
0
100
AcDbLine
 62
7
  6
CONTINUOUS
 10
0.8871703739
 20
22.909420015
 11
0.8871703739
 21
24.0058055572
  0
LINE
  5
4DD
100
AcDbEntity
  8
0
100
AcDbLine
 62
7
  6
CONTINUOUS
 10
1.6750751907
 20
18.509420015
 11
1.6750751907
 21
17.2172513403
  0
LINE
  5
4DE
100
AcDbEntity
  8
0
100
AcDbLine
 62
7
  6
CONTINUOUS
 10
-0.7564288892
 20
19.8847212198
 11
-0.7745388663
 21
19.7437573644
  0
LINE
  5
4DF
100
AcDbEntity
  8
0
100
AcDbLine
 62
7
  6
CONTINUOUS
 10
5.5378710076
 20
40.1282189621
 11
5.4321350076
 21
40.0224829621
  0
LINE
  5
4E0
100
AcDbEntity
  8
0
100
AcDbLine
 62
7
  6
CONTINUOUS
 10
13.5708583232
 20
20.0305797282
 11
13.7431474799
 21
20.07022582
  0
LINE
  5
4E1
100
AcDbEntity
  8
0
100
AcDbLine
 62
7
  6
CONTINUOUS
 10
3.0768824196
 20
19.4931549548
 11
2.9202559136
 21
19.4696609788
  0
LINE
  5
4E2
100
AcDbEntity
  8
0
100
AcDbLine
 62
7
  6
CONTINUOUS
 10
2.5835089256
 20
20.0961670029
 11
2.7401354317
 21
20.1118296535
  0
LINE
  5
4E3
100
AcDbEntity
  8
0
100
AcDbLine
 62
7
  6
CONTINUOUS
 10
0.5786896485
 20
20.0961670029
 11
0.7353161546
 21
20.1118296535
  0
LINE
  5
4E4
100
AcDbEntity
  8
0
100
AcDbLine
 62
7
  6
CONTINUOUS
 10
9.9997739859
 20
19.5636368825
 11
9.8353161546
 21
19.5558055572
  0
LINE
  5
4E5
100
AcDbEntity
  8
0
100
AcDbLine
 62
7
  6
CONTINUOUS
 10
10.6497739859
 20
20.0570103764
 11
10.8220631425
 21
20.0648417017
  0
LINE
  5
4E6
100
AcDbEntity
  8
0
100
AcDbLine
 62
7
  6
CONTINUOUS
 10
-1.0893826406
 20
17.2172513403
 11
-0.917093484
 21
17.2172513403
  0
LINE
  5
4E7
100
AcDbEntity
  8
0
100
AcDbLine
 62
7
  6
CONTINUOUS
 10
-0.2827561346
 20
17.2172513403
 11
-0.110466978
 21
17.2172513403
  0
LINE
  5
4E8
100
AcDbEntity
  8
0
100
AcDbLine
 62
7
  6
CONTINUOUS
 10
0.3420368804
 20
17.2172513403
 11
0.5238703714
 21
17.2172513403
  0
LINE
  5
4E9
100
AcDbEntity
  8
0
100
AcDbLine
 62
7
  6
CONTINUOUS
 10
1.3539908534
 20
17.2172513403
 11
1.5371704934
 21
17.2172513403
  0
LINE
  5
4EA
100
AcDbEntity
  8
0
100
AcDbLine
 62
7
  6
CONTINUOUS
 10
1.6750751907
 20
17.2172513403
 11
2.489533022
 21
17.2172513403
  0
LINE
  5
4EB
100
AcDbEntity
  8
0
100
AcDbLine
 62
7
  6
CONTINUOUS
 10
3.046536049
 20
17.2172513403
 11
3.2188252056
 21
17.2172513403
  0
LINE
  5
4EC
100
AcDbEntity
  8
0
100
AcDbLine
 62
7
  6
CONTINUOUS
 10
2.489533022
 20
17.366046521
 11
1.8473643473
 21
17.366046521
  0
LINE
  5
4ED
100
AcDbEntity
  8
0
100
AcDbLine
 62
7
  6
CONTINUOUS
 10
0.6600620597
 20
17.6088176054
 11
1.209845593
 21
17.6088176054
  0
LINE
  5
4EE
100
AcDbEntity
  8
0
100
AcDbLine
 62
7
  6
CONTINUOUS
 10
1.1578407413
 20
17.7497814608
 11
0.709130239
 21
17.7497814608
  0
LINE
  5
4EF
100
AcDbEntity
  8
0
100
AcDbLine
 62
7
  6
CONTINUOUS
 10
-0.7056477009
 20
18.3606248343
 11
-0.2827561346
 21
18.3606248343
  0
LINE
  5
4F0
100
AcDbEntity
  8
0
100
AcDbLine
 62
7
  6
CONTINUOUS
 10
-0.110466978
 20
18.3606248343
 11
0.3124245883
 21
18.3606248343
  0
LINE
  5
4F1
100
AcDbEntity
  8
0
100
AcDbLine
 62
7
  6
CONTINUOUS
 10
3.7356926755
 20
18.509420015
 11
3.5277955158
 21
18.509420015
  0
LINE
  5
4F2
100
AcDbEntity
  8
0
100
AcDbLine
 62
7
  6
CONTINUOUS
 10
2.7581230424
 20
18.509420015
 11
2.553162555
 21
18.509420015
  0
LINE
  5
4F3
100
AcDbEntity
  8
0
100
AcDbLine
 62
7
  6
CONTINUOUS
 10
1.8473643473
 20
18.509420015
 11
1.6750751907
 21
18.509420015
  0
LINE
  5
4F4
100
AcDbEntity
  8
0
100
AcDbLine
 62
7
  6
CONTINUOUS
 10
1.0195688256
 20
18.509420015
 11
0.8332077806
 21
18.509420015
  0
LINE
  5
4F5
100
AcDbEntity
  8
0
100
AcDbLine
 62
7
  6
CONTINUOUS
 10
0.3124245883
 20
18.509420015
 11
-0.7056477009
 21
18.509420015
  0
LINE
  5
4F6
100
AcDbEntity
  8
0
100
AcDbLine
 62
7
  6
CONTINUOUS
 10
-0.917093484
 20
18.509420015
 11
-1.0893826406
 21
18.509420015
  0
LINE
  5
4F7
100
AcDbEntity
  8
0
100
AcDbLine
 62
7
  6
CONTINUOUS
 10
4.4708583232
 20
19.1329139909
 11
4.6431474799
 21
19.1329139909
  0
LINE
  5
4F8
100
AcDbEntity
  8
0
100
AcDbLine
 62
7
  6
CONTINUOUS
 10
5.015747323
 20
19.1329139909
 11
5.1623399099
 21
19.1329139909
  0
LINE
  5
4F9
100
AcDbEntity
  8
0
100
AcDbLine
 62
7
  6
CONTINUOUS
 10
5.5437498895
 20
19.1329139909
 11
5.7160390461
 21
19.1329139909
  0
LINE
  5
4FA
100
AcDbEntity
  8
0
100
AcDbLine
 62
7
  6
CONTINUOUS
 10
5.8474585672
 20
19.1329139909
 11
6.0292920582
 21
19.1329139909
  0
LINE
  5
4FB
100
AcDbEntity
  8
0
100
AcDbLine
 62
7
  6
CONTINUOUS
 10
6.8594125401
 20
19.1329139909
 11
7.0425921802
 21
19.1329139909
  0
LINE
  5
4FC
100
AcDbEntity
  8
0
100
AcDbLine
 62
7
  6
CONTINUOUS
 10
7.1961595281
 20
19.1329139909
 11
7.3684486847
 21
19.1329139909
  0
LINE
  5
4FD
100
AcDbEntity
  8
0
100
AcDbLine
 62
7
  6
CONTINUOUS
 10
8.1138929842
 20
19.1329139909
 11
8.3162837788
 21
19.1329139909
  0
LINE
  5
4FE
100
AcDbEntity
  8
0
100
AcDbLine
 62
7
  6
CONTINUOUS
 10
11.4172438654
 20
19.1329139909
 11
11.589533022
 21
19.1329139909
  0
LINE
  5
4FF
100
AcDbEntity
  8
0
100
AcDbLine
 62
7
  6
CONTINUOUS
 10
12.2082077208
 20
19.1329139909
 11
12.3804968774
 21
19.1329139909
  0
LINE
  5
500
100
AcDbEntity
  8
0
100
AcDbLine
 62
7
  6
CONTINUOUS
 10
13.8432416997
 20
19.1329139909
 11
14.0250751907
 21
19.1329139909
  0
LINE
  5
501
100
AcDbEntity
  8
0
100
AcDbLine
 62
7
  6
CONTINUOUS
 10
14.8551956726
 20
19.1329139909
 11
15.0383753127
 21
19.1329139909
  0
LINE
  5
502
100
AcDbEntity
  8
0
100
AcDbLine
 62
7
  6
CONTINUOUS
 10
16.061586868
 20
19.1329139909
 11
16.2469691019
 21
19.1329139909
  0
LINE
  5
503
100
AcDbEntity
  8
0
100
AcDbLine
 62
7
  6
CONTINUOUS
 10
16.9070029015
 20
19.1329139909
 11
17.0792920582
 21
19.1329139909
  0
LINE
  5
504
100
AcDbEntity
  8
0
100
AcDbLine
 62
7
  6
CONTINUOUS
 10
6.1654837464
 20
19.524480256
 11
6.7152672797
 21
19.524480256
  0
LINE
  5
505
100
AcDbEntity
  8
0
100
AcDbLine
 62
7
  6
CONTINUOUS
 10
14.1612668789
 20
19.524480256
 11
14.7110504123
 21
19.524480256
  0
LINE
  5
506
100
AcDbEntity
  8
0
100
AcDbLine
 62
7
  6
CONTINUOUS
 10
14.6590455606
 20
19.6654441114
 11
14.2103350583
 21
19.6654441114
  0
LINE
  5
507
100
AcDbEntity
  8
0
100
AcDbLine
 62
7
  6
CONTINUOUS
 10
6.6632624281
 20
19.6654441114
 11
6.2145519257
 21
19.6654441114
  0
LINE
  5
508
100
AcDbEntity
  8
0
100
AcDbLine
 62
7
  6
CONTINUOUS
 10
7.3684486847
 20
20.2762874849
 11
7.773475126
 21
20.2762874849
  0
LINE
  5
509
100
AcDbEntity
  8
0
100
AcDbLine
 62
7
  6
CONTINUOUS
 10
10.9943522991
 20
20.2762874849
 11
11.4172438654
 21
20.2762874849
  0
LINE
  5
50A
100
AcDbEntity
  8
0
100
AcDbLine
 62
7
  6
CONTINUOUS
 10
11.589533022
 20
20.2762874849
 11
12.0124245883
 21
20.2762874849
  0
LINE
  5
50B
100
AcDbEntity
  8
0
100
AcDbLine
 62
7
  6
CONTINUOUS
 10
17.0792920582
 20
20.4250826656
 11
16.9070029015
 21
20.4250826656
  0
LINE
  5
50C
100
AcDbEntity
  8
0
100
AcDbLine
 62
7
  6
CONTINUOUS
 10
16.7623681759
 20
20.4250826656
 11
16.5780872389
 21
20.4250826656
  0
LINE
  5
50D
100
AcDbEntity
  8
0
100
AcDbLine
 62
7
  6
CONTINUOUS
 10
15.747966757
 20
20.4250826656
 11
15.5647872364
 21
20.4250826656
  0
LINE
  5
50E
100
AcDbEntity
  8
0
100
AcDbLine
 62
7
  6
CONTINUOUS
 10
14.5207736449
 20
20.4250826656
 11
14.3344125998
 21
20.4250826656
  0
LINE
  5
50F
100
AcDbEntity
  8
0
100
AcDbLine
 62
7
  6
CONTINUOUS
 10
12.3804968774
 20
20.4250826656
 11
12.2082077208
 21
20.4250826656
  0
LINE
  5
510
100
AcDbEntity
  8
0
100
AcDbLine
 62
7
  6
CONTINUOUS
 10
12.0124245883
 20
20.4250826656
 11
10.9943522991
 21
20.4250826656
  0
LINE
  5
511
100
AcDbEntity
  8
0
100
AcDbLine
 62
7
  6
CONTINUOUS
 10
7.766500365
 20
20.4250826656
 11
7.1961595281
 21
20.4250826656
  0
LINE
  5
512
100
AcDbEntity
  8
0
100
AcDbLine
 62
7
  6
CONTINUOUS
 10
6.5249905123
 20
20.4250826656
 11
6.3386294673
 21
20.4250826656
  0
LINE
  5
513
100
AcDbEntity
  8
0
100
AcDbLine
 62
7
  6
CONTINUOUS
 10
5.7160390461
 20
20.4250826656
 11
5.4918674042
 21
20.4250826656
  0
LINE
  5
514
100
AcDbEntity
  8
0
100
AcDbLine
 62
7
  6
CONTINUOUS
 10
4.7334525132
 20
20.4250826656
 11
4.4708583232
 21
20.4250826656
  0
LINE
  5
515
100
AcDbEntity
  8
0
100
AcDbLine
 62
7
  6
CONTINUOUS
 10
-0.592583009
 20
21.0172513403
 11
-0.4072007751
 21
21.0172513403
  0
LINE
  5
516
100
AcDbEntity
  8
0
100
AcDbLine
 62
7
  6
CONTINUOUS
 10
0.2528330245
 20
21.0172513403
 11
0.4251221811
 21
21.0172513403
  0
LINE
  5
517
100
AcDbEntity
  8
0
100
AcDbLine
 62
7
  6
CONTINUOUS
 10
0.5878670034
 20
21.0172513403
 11
0.7697004944
 21
21.0172513403
  0
LINE
  5
518
100
AcDbEntity
  8
0
100
AcDbLine
 62
7
  6
CONTINUOUS
 10
1.5998209763
 20
21.0172513403
 11
1.7830006164
 21
21.0172513403
  0
LINE
  5
519
100
AcDbEntity
  8
0
100
AcDbLine
 62
7
  6
CONTINUOUS
 10
1.9209053137
 20
21.0172513403
 11
2.735363145
 21
21.0172513403
  0
LINE
  5
51A
100
AcDbEntity
  8
0
100
AcDbLine
 62
7
  6
CONTINUOUS
 10
2.9389776028
 20
21.0172513403
 11
3.8943992896
 21
21.0172513403
  0
LINE
  5
51B
100
AcDbEntity
  8
0
100
AcDbLine
 62
7
  6
CONTINUOUS
 10
5.0068145813
 20
21.0172513403
 11
5.1921968152
 21
21.0172513403
  0
LINE
  5
51C
100
AcDbEntity
  8
0
100
AcDbLine
 62
7
  6
CONTINUOUS
 10
5.8522306149
 20
21.0172513403
 11
6.0245197715
 21
21.0172513403
  0
LINE
  5
51D
100
AcDbEntity
  8
0
100
AcDbLine
 62
7
  6
CONTINUOUS
 10
7.6377727835
 20
21.0172513403
 11
8.5931944703
 21
21.0172513403
  0
LINE
  5
51E
100
AcDbEntity
  8
0
100
AcDbLine
 62
7
  6
CONTINUOUS
 10
8.8359655546
 20
21.0172513403
 11
9.0082547113
 21
21.0172513403
  0
LINE
  5
51F
100
AcDbEntity
  8
0
100
AcDbLine
 62
7
  6
CONTINUOUS
 10
9.6551956726
 20
21.0172513403
 11
9.8383751932
 21
21.0172513403
  0
LINE
  5
520
100
AcDbEntity
  8
0
100
AcDbLine
 62
7
  6
CONTINUOUS
 10
10.0184956751
 20
21.0172513403
 11
11.0443992896
 21
21.0172513403
  0
LINE
  5
521
100
AcDbEntity
  8
0
100
AcDbLine
 62
7
  6
CONTINUOUS
 10
11.081842907
 20
21.0172513403
 11
11.263676398
 21
21.0172513403
  0
LINE
  5
522
100
AcDbEntity
  8
0
100
AcDbLine
 62
7
  6
CONTINUOUS
 10
12.0937968799
 20
21.0172513403
 11
12.27697652
 21
21.0172513403
  0
LINE
  5
523
100
AcDbEntity
  8
0
100
AcDbLine
 62
7
  6
CONTINUOUS
 10
13.2998209763
 20
21.0172513403
 11
13.4564474823
 21
21.0172513403
  0
LINE
  5
524
100
AcDbEntity
  8
0
100
AcDbLine
 62
7
  6
CONTINUOUS
 10
14.3805438679
 20
21.0172513403
 11
14.5371703739
 21
21.0172513403
  0
LINE
  5
525
100
AcDbEntity
  8
0
100
AcDbLine
 62
7
  6
CONTINUOUS
 10
-1.07371999
 20
20.0961670029
 11
-0.917093484
 21
20.072673027
  0
LINE
  5
526
100
AcDbEntity
  8
0
100
AcDbLine
 62
7
  6
CONTINUOUS
 10
2.9359185642
 20
20.0961670029
 11
3.0925450702
 21
20.072673027
  0
LINE
  5
527
100
AcDbEntity
  8
0
100
AcDbLine
 62
7
  6
CONTINUOUS
 10
13.7744727811
 20
19.5432020647
 11
13.6021836244
 21
19.5863967799
  0
LINE
  5
528
100
AcDbEntity
  8
0
100
AcDbLine
 62
7
  6
CONTINUOUS
 10
2.553162555
 20
18.509420015
 11
3.046536049
 21
17.7645876666
  0
LINE
  5
529
100
AcDbEntity
  8
0
100
AcDbLine
 62
7
  6
CONTINUOUS
 10
1.5371704934
 20
17.2172513403
 11
1.0195688256
 21
18.509420015
  0
LINE
  5
52A
100
AcDbEntity
  8
0
100
AcDbLine
 62
7
  6
CONTINUOUS
 10
1.7830006164
 20
21.0172513403
 11
1.2653989485
 21
22.309420015
  0
LINE
  5
52B
100
AcDbEntity
  8
0
100
AcDbLine
 62
7
  6
CONTINUOUS
 10
3.2866150742
 20
22.909420015
 11
2.7690134064
 21
24.2015886897
  0
LINE
  5
52C
100
AcDbEntity
  8
0
100
AcDbLine
 62
7
  6
CONTINUOUS
 10
-1.0893826406
 20
24.2015886897
 11
-0.592583009
 21
22.909420015
  0
LINE
  5
52D
100
AcDbEntity
  8
0
100
AcDbLine
 62
7
  6
CONTINUOUS
 10
1.209845593
 20
17.6088176054
 11
1.3539908534
 21
17.2172513403
  0
LINE
  5
52E
100
AcDbEntity
  8
0
100
AcDbLine
 62
7
  6
CONTINUOUS
 10
1.4556757159
 20
21.4088176054
 11
1.5998209763
 21
21.0172513403
  0
LINE
  5
52F
100
AcDbEntity
  8
0
100
AcDbLine
 62
7
  6
CONTINUOUS
 10
2.9592901738
 20
23.3009862801
 11
3.1034354341
 21
22.909420015
  0
LINE
  5
530
100
AcDbEntity
  8
0
100
AcDbLine
 62
7
  6
CONTINUOUS
 10
-0.5706796759
 20
23.2652559106
 11
-0.9062031201
 21
24.2015886897
  0
LINE
  5
531
100
AcDbEntity
  8
0
100
AcDbLine
 62
7
  6
CONTINUOUS
 10
0.8871703739
 20
24.0058055572
 11
1.2597702171
 21
22.909420015
  0
LINE
  5
532
100
AcDbEntity
  8
0
100
AcDbLine
 62
7
  6
CONTINUOUS
 10
1.2835089256
 20
23.2886275202
 11
0.9774754073
 21
24.2015886897
  0
LINE
  5
533
100
AcDbEntity
  8
DRAFT
100
AcDbLine
 62
7
  6
CONTINUOUS
 10
4.5856741386
 20
10.6172513403
 11
4.5507640087
 21
12.6172513403
  0
LINE
  5
534
100
AcDbEntity
  8
0
100
AcDbLine
 62
7
  6
CONTINUOUS
 10
1.7877727835
 20
23.9901429066
 11
1.7877727835
 21
22.909420015
  0
LINE
  5
535
100
AcDbEntity
  8
0
100
AcDbLine
 62
7
  6
CONTINUOUS
 10
1.8473643473
 20
17.366046521
 11
1.8473643473
 21
18.509420015
  0
LINE
  5
536
100
AcDbEntity
  8
0
100
AcDbLine
 62
7
  6
CONTINUOUS
 10
1.9209053137
 20
22.309420015
 11
1.9209053137
 21
21.0172513403
  0
LINE
  5
537
100
AcDbEntity
  8
0
100
AcDbLine
 62
7
  6
CONTINUOUS
 10
1.9600619402
 20
22.909420015
 11
1.9600619402
 21
24.2015886897
  0
LINE
  5
538
100
AcDbEntity
  8
0
100
AcDbLine
 62
7
  6
CONTINUOUS
 10
2.0931944703
 20
21.166046521
 11
2.0931944703
 21
22.309420015
  0
LINE
  5
539
100
AcDbEntity
  8
0
100
AcDbLine
 62
7
  6
CONTINUOUS
 10
2.489533022
 20
17.2172513403
 11
2.489533022
 21
17.366046521
  0
LINE
  5
53A
100
AcDbEntity
  8
0
100
AcDbLine
 62
7
  6
CONTINUOUS
 10
2.735363145
 20
21.0172513403
 11
2.735363145
 21
21.166046521
  0
LINE
  5
53B
100
AcDbEntity
  8
DRAFT
100
AcDbLine
 62
7
  6
CONTINUOUS
 10
2.9106173594
 20
29.7172513403
 11
2.9106173594
 21
26.7172513403
  0
LINE
  5
53C
100
AcDbEntity
  8
0
100
AcDbLine
 62
7
  6
CONTINUOUS
 10
2.9389776028
 20
22.309420015
 11
2.9389776028
 21
21.0172513403
  0
LINE
  5
53D
100
AcDbEntity
  8
RACCORDO
100
AcDbLine
 62
7
  6
CONTINUOUS
 10
2.9734747445
 20
27.2629531128
 11
2.9734747445
 21
29.1715495678
  0
LINE
  5
53E
100
AcDbEntity
  8
0
100
AcDbLine
 62
7
  6
CONTINUOUS
 10
3.046536049
 20
17.7645876666
 11
3.046536049
 21
17.2172513403
  0
LINE
  5
53F
100
AcDbEntity
  8
0
100
AcDbLine
 62
7
  6
CONTINUOUS
 10
3.1112667594
 20
21.166046521
 11
3.1112667594
 21
21.6124320632
  0
LINE
  5
540
100
AcDbEntity
  8
0
100
AcDbLine
 62
7
  6
CONTINUOUS
 10
3.1112667594
 20
21.7612272439
 11
3.1112667594
 21
22.1606248343
  0
LINE
  5
541
100
AcDbEntity
  8
0
100
AcDbLine
 62
7
  6
CONTINUOUS
 10
3.2188252056
 20
17.2172513403
 11
3.2188252056
 21
17.7645876666
  0
LINE
  5
542
100
AcDbEntity
  8
0
100
AcDbLine
 62
7
  6
CONTINUOUS
 10
3.4401824221
 20
24.2015886897
 11
3.4401824221
 21
22.909420015
  0
LINE
  5
543
100
AcDbEntity
  8
0
100
AcDbLine
 62
7
  6
CONTINUOUS
 10
3.6124715787
 20
22.909420015
 11
3.6124715787
 21
23.481106762
  0
LINE
  5
544
100
AcDbEntity
  8
0
100
AcDbLine
 62
7
  6
CONTINUOUS
 10
3.6124715787
 20
23.6299019427
 11
3.6124715787
 21
24.052793509
  0
LINE
  5
545
100
AcDbEntity
  8
0
100
AcDbLine
 62
7
  6
CONTINUOUS
 10
3.8160860366
 20
21.6124320632
 11
3.8160860366
 21
21.7612272439
  0
LINE
  5
546
100
AcDbEntity
  8
0
100
AcDbLine
 62
7
  6
CONTINUOUS
 10
3.8630739884
 20
22.1606248343
 11
3.8630739884
 21
22.309420015
  0
LINE
  5
547
100
AcDbEntity
  8
0
100
AcDbLine
 62
7
  6
CONTINUOUS
 10
3.8943992896
 20
21.0172513403
 11
3.8943992896
 21
21.166046521
  0
LINE
  5
548
100
AcDbEntity
  8
RACCORDO
100
AcDbLine
 62
7
  6
CONTINUOUS
 10
3.928308813
 20
27.2629531128
 11
3.928308813
 21
29.1715495678
  0
LINE
  5
549
100
AcDbEntity
  8
0
100
AcDbLine
 62
7
  6
CONTINUOUS
 10
4.4106173594
 20
-25.7827486597
 11
4.4106173594
 21
-15.4827486597
  0
LINE
  5
54A
100
AcDbEntity
  8
DRAFT
100
AcDbLine
 62
7
  6
CONTINUOUS
 10
4.4106173594
 20
6.9672513403
 11
4.4106173594
 21
7.8362318921
  0
LINE
  5
54B
100
AcDbEntity
  8
SMUSSO
100
AcDbLine
 62
7
  6
CONTINUOUS
 10
4.4106173594
 20
7.8362318921
 11
4.4106173594
 21
10.4672513403
  0
LINE
  5
54C
100
AcDbEntity
  8
DRAFT
100
AcDbLine
 62
7
  6
CONTINUOUS
 10
4.4106173594
 20
26.7172513403
 11
4.4106173594
 21
29.7172513403
  0
LINE
  5
54D
100
AcDbEntity
  8
0
100
AcDbLine
 62
7
  6
CONTINUOUS
 10
4.4708583232
 20
20.4250826656
 11
4.4708583232
 21
19.1329139909
  0
LINE
  5
54E
100
AcDbEntity
  8
RACCORDO
100
AcDbLine
 62
7
  6
CONTINUOUS
 10
4.5106173594
 20
-21.3828248121
 11
4.5106173594
 21
-15.4827486597
  0
LINE
  5
54F
100
AcDbEntity
  8
RACCORDO
100
AcDbLine
 62
7
  6
CONTINUOUS
 10
4.5106173594
 20
6.9672513403
 11
4.5106173594
 21
11.5172513403
  0
LINE
  5
550
100
AcDbEntity
  8
RACCORDO
100
AcDbLine
 62
7
  6
CONTINUOUS
 10
4.5315634373
 20
12.3172513403
 11
4.5315634373
 21
11.8172513403
  0
LINE
  5
551
100
AcDbEntity
  8
RACCORDO
100
AcDbLine
 62
7
  6
CONTINUOUS
 10
4.5856741386
 20
-21.3077680329
 11
4.5856741386
 21
-15.4827486597
  0
LINE
  5
552
100
AcDbEntity
  8
RACCORDO
100
AcDbLine
 62
7
  6
CONTINUOUS
 10
4.5856741386
 20
6.9672513403
 11
4.5856741386
 21
10.6172513403
  0
LINE
  5
553
100
AcDbEntity
  8
0
100
AcDbLine
 62
7
  6
CONTINUOUS
 10
4.6431474799
 20
19.1329139909
 11
4.6431474799
 21
20.2292995331
  0
LINE
  5
554
100
AcDbEntity
  8
0
100
AcDbLine
 62
7
  6
CONTINUOUS
 10
5.2606173594
 20
-15.4827486597
 11
5.2606173594
 21
6.9672513403
  0
LINE
  5
555
100
AcDbEntity
  8
0
100
AcDbLine
 62
7
  6
CONTINUOUS
 10
5.5437498895
 20
20.2136368825
 11
5.5437498895
 21
19.1329139909
  0
LINE
  5
556
100
AcDbEntity
  8
DRAFT
100
AcDbLine
 62
7
  6
CONTINUOUS
 10
4.5329665585
 20
12.6172513403
 11
4.5315634373
 21
12.3172513403
  0
LINE
  5
557
100
AcDbEntity
  8
0
100
AcDbLine
 62
7
  6
CONTINUOUS
 10
3.253209665
 20
19.8847212198
 11
3.2350996879
 21
19.7437573644
  0
LINE
  5
558
100
AcDbEntity
  8
0
100
AcDbLine
 62
7
  6
CONTINUOUS
 10
0.7697004944
 20
21.0172513403
 11
0.9058921826
 21
21.4088176054
  0
LINE
  5
559
100
AcDbEntity
  8
0
100
AcDbLine
 62
7
  6
CONTINUOUS
 10
2.2733149522
 20
22.909420015
 11
2.4095066405
 21
23.3009862801
  0
LINE
  5
55A
100
AcDbEntity
  8
0
100
AcDbLine
 62
7
  6
CONTINUOUS
 10
0.5238703714
 20
17.2172513403
 11
0.6600620597
 21
17.6088176054
  0
LINE
  5
55B
100
AcDbEntity
  8
0
100
AcDbLine
 62
7
  6
CONTINUOUS
 10
1.406362804
 20
22.909420015
 11
1.7877727835
 21
23.9901429066
  0
LINE
  5
55C
100
AcDbEntity
  8
0
100
AcDbLine
 62
7
  6
CONTINUOUS
 10
1.7358902982
 20
24.2015886897
 11
1.4162743568
 21
23.3045349035
  0
LINE
  5
55D
100
AcDbEntity
  8
0
100
AcDbLine
 62
7
  6
CONTINUOUS
 10
-0.0760826381
 20
24.2015886897
 11
-0.4319184143
 21
23.2652559106
  0
LINE
  5
55E
100
AcDbEntity
  8
0
100
AcDbLine
 62
7
  6
CONTINUOUS
 10
-0.0760826381
 20
22.309420015
 11
-0.4319184143
 21
21.3730872359
  0
LINE
  5
55F
100
AcDbEntity
  8
0
100
AcDbLine
 62
7
  6
CONTINUOUS
 10
1.0790379035
 20
22.309420015
 11
0.5878670034
 21
21.0172513403
  0
LINE
  5
560
100
AcDbEntity
  8
0
100
AcDbLine
 62
7
  6
CONTINUOUS
 10
2.5826523614
 20
24.2015886897
 11
2.0914814612
 21
22.909420015
  0
LINE
  5
561
100
AcDbEntity
  8
0
100
AcDbLine
 62
7
  6
CONTINUOUS
 10
0.8332077806
 20
18.509420015
 11
0.3420368804
 21
17.2172513403
  0
LINE
  5
562
100
AcDbEntity
  8
0
100
AcDbLine
 62
7
  6
CONTINUOUS
 10
-0.4072007751
 20
22.909420015
 11
0.1081982988
 21
24.2015886897
  0
LINE
  5
563
100
AcDbEntity
  8
0
100
AcDbLine
 62
7
  6
CONTINUOUS
 10
-0.4072007751
 20
21.0172513403
 11
0.1081982988
 21
22.309420015
  0
LINE
  5
564
100
AcDbEntity
  8
0
100
AcDbLine
 62
7
  6
CONTINUOUS
 10
8.7966220076
 20
36.6579969621
 11
7.6308280076
 21
35.4922039621
  0
LINE
  5
565
100
AcDbEntity
  8
0
100
AcDbLine
 62
7
  6
CONTINUOUS
 10
7.5618150076
 20
35.4231899621
 11
5.4321350076
 21
33.2935109621
  0
LINE
  5
566
100
AcDbEntity
  8
0
100
AcDbLine
 62
7
  6
CONTINUOUS
 10
10.9071260076
 20
38.7685009621
 11
10.4658530076
 21
38.3272279621
  0
LINE
  5
567
100
AcDbEntity
  8
0
100
AcDbLine
 62
7
  6
CONTINUOUS
 10
10.2107680076
 20
38.0721439621
 11
8.9023570076
 21
36.7637319621
  0
LINE
  5
568
100
AcDbEntity
  8
0
100
AcDbLine
 62
7
  6
CONTINUOUS
 10
12.2668430076
 20
40.1282189621
 11
10.9818930076
 21
38.8432679621
  0
LINE
  5
569
100
AcDbEntity
  8
0
100
AcDbLine
 62
7
  6
CONTINUOUS
 10
10.3836050076
 20
38.2449809621
 11
10.2855350076
 21
38.1469099621
  0
LINE
  5
56A
100
AcDbEntity
  8
0
100
AcDbLine
 62
7
  6
CONTINUOUS
 10
7.6478410076
 20
35.2977459621
 11
8.9023570076
 21
36.5522619621
  0
LINE
  5
56B
100
AcDbEntity
  8
0
100
AcDbLine
 62
7
  6
CONTINUOUS
 10
9.0080920076
 20
36.6579969621
 11
10.3633300076
 21
38.0132349621
  0
LINE
  5
56C
100
AcDbEntity
  8
0
100
AcDbLine
 62
7
  6
CONTINUOUS
 10
10.4457000076
 20
38.0956049621
 11
11.0331980076
 21
38.6831029621
  0
LINE
  5
56D
100
AcDbEntity
  8
0
100
AcDbLine
 62
7
  6
CONTINUOUS
 10
5.5378710076
 20
33.1877749621
 11
7.5788280076
 21
35.2287309621
  0
LINE
  5
56E
100
AcDbEntity
  8
0
100
AcDbLine
 62
7
  6
CONTINUOUS
 10
11.1079650076
 20
38.7578679621
 11
12.3725790076
 21
40.0224829621
  0
LINE
  5
56F
100
AcDbEntity
  8
DRAFT
100
AcDbLine
 62
7
  6
CONTINUOUS
 10
26.7058869698
 20
52.1125209507
 11
26.8106173594
 21
52.2172513403
  0
LINE
  5
570
100
AcDbEntity
  8
0
100
AcDbLine
 62
7
  6
CONTINUOUS
 10
7.2148812173
 20
21.9149170776
 11
7.3871703739
 21
21.9545631694
  0
LINE
  5
571
100
AcDbEntity
  8
0
100
AcDbLine
 62
7
  6
CONTINUOUS
 10
-0.9327561346
 20
19.4931549548
 11
-1.0893826406
 21
19.4696609788
  0
LINE
  5
572
100
AcDbEntity
  8
0
100
AcDbLine
 62
7
  6
CONTINUOUS
 10
5.3431944703
 20
23.3401429066
 11
5.178736639
 21
23.3323115813
  0
LINE
  5
573
100
AcDbEntity
  8
0
100
AcDbLine
 62
7
  6
CONTINUOUS
 10
5.9931944703
 20
23.8335164005
 11
6.1654836269
 21
23.8413477258
  0
LINE
  5
574
100
AcDbEntity
  8
0
100
AcDbLine
 62
7
  6
CONTINUOUS
 10
11.0443992896
 20
21.166046521
 11
10.2136670955
 21
21.166046521
  0
LINE
  5
575
100
AcDbEntity
  8
0
100
AcDbLine
 62
7
  6
CONTINUOUS
 10
8.5931944703
 20
21.166046521
 11
7.8100619402
 21
21.166046521
  0
LINE
  5
576
100
AcDbEntity
  8
0
100
AcDbLine
 62
7
  6
CONTINUOUS
 10
3.8943992896
 20
21.166046521
 11
3.1112667594
 21
21.166046521
  0
LINE
  5
577
100
AcDbEntity
  8
0
100
AcDbLine
 62
7
  6
CONTINUOUS
 10
2.735363145
 20
21.166046521
 11
2.0931944703
 21
21.166046521
  0
LINE
  5
578
100
AcDbEntity
  8
0
100
AcDbLine
 62
7
  6
CONTINUOUS
 10
13.8088571209
 20
21.322673027
 11
14.3805438679
 21
21.322673027
  0
LINE
  5
579
100
AcDbEntity
  8
0
100
AcDbLine
 62
7
  6
CONTINUOUS
 10
14.5371703739
 20
21.322673027
 11
14.7094595305
 21
21.322673027
  0
LINE
  5
57A
100
AcDbEntity
  8
0
100
AcDbLine
 62
7
  6
CONTINUOUS
 10
0.9058921826
 20
21.4088176054
 11
1.4556757159
 21
21.4088176054
  0
LINE
  5
57B
100
AcDbEntity
  8
0
100
AcDbLine
 62
7
  6
CONTINUOUS
 10
11.3998680862
 20
21.4088176054
 11
11.9496516196
 21
21.4088176054
  0
LINE
  5
57C
100
AcDbEntity
  8
0
100
AcDbLine
 62
7
  6
CONTINUOUS
 10
14.7094595305
 20
21.4714682078
 11
14.5371703739
 21
21.4714682078
  0
LINE
  5
57D
100
AcDbEntity
  8
0
100
AcDbLine
 62
7
  6
CONTINUOUS
 10
14.3805438679
 20
21.4714682078
 11
13.9657283596
 21
21.4714682078
  0
LINE
  5
57E
100
AcDbEntity
  8
0
100
AcDbLine
 62
7
  6
CONTINUOUS
 10
11.8976467679
 20
21.5497814608
 11
11.4489362656
 21
21.5497814608
  0
LINE
  5
57F
100
AcDbEntity
  8
0
100
AcDbLine
 62
7
  6
CONTINUOUS
 10
1.4036708643
 20
21.5497814608
 11
0.954960362
 21
21.5497814608
  0
LINE
  5
580
100
AcDbEntity
  8
0
100
AcDbLine
 62
7
  6
CONTINUOUS
 10
3.1112667594
 20
21.6124320632
 11
3.8160860366
 21
21.6124320632
  0
LINE
  5
581
100
AcDbEntity
  8
0
100
AcDbLine
 62
7
  6
CONTINUOUS
 10
7.8100619402
 20
21.6124320632
 11
8.5148812173
 21
21.6124320632
  0
LINE
  5
582
100
AcDbEntity
  8
0
100
AcDbLine
 62
7
  6
CONTINUOUS
 10
8.5148812173
 20
21.7612272439
 11
7.8100619402
 21
21.7612272439
  0
LINE
  5
583
100
AcDbEntity
  8
0
100
AcDbLine
 62
7
  6
CONTINUOUS
 10
3.8160860366
 20
21.7612272439
 11
3.1112667594
 21
21.7612272439
  0
LINE
  5
584
100
AcDbEntity
  8
0
100
AcDbLine
 62
7
  6
CONTINUOUS
 10
3.1112667594
 20
22.1606248343
 11
3.8630739884
 21
22.1606248343
  0
LINE
  5
585
100
AcDbEntity
  8
0
100
AcDbLine
 62
7
  6
CONTINUOUS
 10
7.8100619402
 20
22.1606248343
 11
8.5618691691
 21
22.1606248343
  0
LINE
  5
586
100
AcDbEntity
  8
0
100
AcDbLine
 62
7
  6
CONTINUOUS
 10
10.0968089281
 20
22.1606248343
 11
10.8128857876
 21
22.1606248343
  0
LINE
  5
587
100
AcDbEntity
  8
0
100
AcDbLine
 62
7
  6
CONTINUOUS
 10
14.5371703739
 20
22.309420015
 11
14.4118691691
 21
22.309420015
  0
LINE
  5
588
100
AcDbEntity
  8
0
100
AcDbLine
 62
7
  6
CONTINUOUS
 10
11.7593748522
 20
22.309420015
 11
11.5730138072
 21
22.309420015
  0
LINE
  5
589
100
AcDbEntity
  8
0
100
AcDbLine
 62
7
  6
CONTINUOUS
 10
11.0130739884
 20
22.309420015
 11
10.0968089281
 21
22.309420015
  0
LINE
  5
58A
100
AcDbEntity
  8
0
100
AcDbLine
 62
7
  6
CONTINUOUS
 10
9.8383751932
 20
22.309420015
 11
9.6660860366
 21
22.309420015
  0
LINE
  5
58B
100
AcDbEntity
  8
0
100
AcDbLine
 62
7
  6
CONTINUOUS
 10
9.0191451947
 20
22.309420015
 11
8.8359655546
 21
22.309420015
  0
LINE
  5
58C
100
AcDbEntity
  8
0
100
AcDbLine
 62
7
  6
CONTINUOUS
 10
8.5618691691
 20
22.309420015
 11
7.6377727835
 21
22.309420015
  0
LINE
  5
58D
100
AcDbEntity
  8
0
100
AcDbLine
 62
7
  6
CONTINUOUS
 10
6.0245197715
 20
22.309420015
 11
5.8522306149
 21
22.309420015
  0
LINE
  5
58E
100
AcDbEntity
  8
0
100
AcDbLine
 62
7
  6
CONTINUOUS
 10
5.7075958892
 20
22.309420015
 11
5.5233149522
 21
22.309420015
  0
LINE
  5
58F
100
AcDbEntity
  8
0
100
AcDbLine
 62
7
  6
CONTINUOUS
 10
4.6931944703
 20
22.309420015
 11
4.5100149497
 21
22.309420015
  0
LINE
  5
590
100
AcDbEntity
  8
0
100
AcDbLine
 62
7
  6
CONTINUOUS
 10
3.8630739884
 20
22.309420015
 11
2.9389776028
 21
22.309420015
  0
LINE
  5
591
100
AcDbEntity
  8
0
100
AcDbLine
 62
7
  6
CONTINUOUS
 10
2.0931944703
 20
22.309420015
 11
1.9209053137
 21
22.309420015
  0
LINE
  5
592
100
AcDbEntity
  8
0
100
AcDbLine
 62
7
  6
CONTINUOUS
 10
1.2653989485
 20
22.309420015
 11
1.0790379035
 21
22.309420015
  0
LINE
  5
593
100
AcDbEntity
  8
0
100
AcDbLine
 62
7
  6
CONTINUOUS
 10
0.4251221811
 20
22.309420015
 11
0.2528330245
 21
22.309420015
  0
LINE
  5
594
100
AcDbEntity
  8
0
100
AcDbLine
 62
7
  6
CONTINUOUS
 10
0.1081982988
 20
22.309420015
 11
-0.0760826381
 21
22.309420015
  0
LINE
  5
595
100
AcDbEntity
  8
0
100
AcDbLine
 62
7
  6
CONTINUOUS
 10
-0.9062031201
 20
22.309420015
 11
-1.0893826406
 21
22.309420015
  0
LINE
  5
596
100
AcDbEntity
  8
0
100
AcDbLine
 62
7
  6
CONTINUOUS
 10
13.4564474823
 20
22.3172513403
 11
13.3554968177
 21
22.3172513403
  0
LINE
  5
597
100
AcDbEntity
  8
0
100
AcDbLine
 62
7
  6
CONTINUOUS
 10
-0.592583009
 20
22.909420015
 11
-0.4072007751
 21
22.909420015
  0
LINE
  5
598
100
AcDbEntity
  8
0
100
AcDbLine
 62
7
  6
CONTINUOUS
 10
0.2528330245
 20
22.909420015
 11
0.4251221811
 21
22.909420015
  0
LINE
  5
599
100
AcDbEntity
  8
0
100
AcDbLine
 62
7
  6
CONTINUOUS
 10
0.7148812173
 20
22.909420015
 11
0.8871703739
 21
22.909420015
  0
LINE
  5
59A
100
AcDbEntity
  8
0
100
AcDbLine
 62
7
  6
CONTINUOUS
 10
1.2597702171
 20
22.909420015
 11
1.406362804
 21
22.909420015
  0
LINE
  5
59B
100
AcDbEntity
  8
0
100
AcDbLine
 62
7
  6
CONTINUOUS
 10
1.7877727835
 20
22.909420015
 11
1.9600619402
 21
22.909420015
  0
LINE
  5
59C
100
AcDbEntity
  8
0
100
AcDbLine
 62
7
  6
CONTINUOUS
 10
2.0914814612
 20
22.909420015
 11
2.2733149522
 21
22.909420015
  0
LINE
  5
59D
100
AcDbEntity
  8
0
100
AcDbLine
 62
7
  6
CONTINUOUS
 10
3.1034354341
 20
22.909420015
 11
3.2866150742
 21
22.909420015
  0
LINE
  5
59E
100
AcDbEntity
  8
0
100
AcDbLine
 62
7
  6
CONTINUOUS
 10
3.4401824221
 20
22.909420015
 11
3.6124715787
 21
22.909420015
  0
LINE
  5
59F
100
AcDbEntity
  8
0
100
AcDbLine
 62
7
  6
CONTINUOUS
 10
4.3579158782
 20
22.909420015
 11
4.5603066728
 21
22.909420015
  0
LINE
  5
5A0
100
AcDbEntity
  8
0
100
AcDbLine
 62
7
  6
CONTINUOUS
 10
6.4395800125
 20
22.909420015
 11
6.6118691691
 21
22.909420015
  0
LINE
  5
5A1
100
AcDbEntity
  8
0
100
AcDbLine
 62
7
  6
CONTINUOUS
 10
7.4872645938
 20
22.909420015
 11
7.6690980848
 21
22.909420015
  0
LINE
  5
5A2
100
AcDbEntity
  8
0
100
AcDbLine
 62
7
  6
CONTINUOUS
 10
8.4992185667
 20
22.909420015
 11
8.6823982067
 21
22.909420015
  0
LINE
  5
5A3
100
AcDbEntity
  8
0
100
AcDbLine
 62
7
  6
CONTINUOUS
 10
2.4095066405
 20
23.3009862801
 11
2.9592901738
 21
23.3009862801
  0
LINE
  5
5A4
100
AcDbEntity
  8
0
100
AcDbLine
 62
7
  6
CONTINUOUS
 10
7.805289773
 20
23.3009862801
 11
8.3550733063
 21
23.3009862801
  0
LINE
  5
5A5
100
AcDbEntity
  8
0
100
AcDbLine
 62
7
  6
CONTINUOUS
 10
8.3030684547
 20
23.4419501355
 11
7.8543579523
 21
23.4419501355
  0
LINE
  5
5A6
100
AcDbEntity
  8
0
100
AcDbLine
 62
7
  6
CONTINUOUS
 10
2.9072853221
 20
23.4419501355
 11
2.4585748198
 21
23.4419501355
  0
LINE
  5
5A7
100
AcDbEntity
  8
0
100
AcDbLine
 62
7
  6
CONTINUOUS
 10
6.6118691691
 20
23.4419501355
 11
6.9334429717
 21
23.4419501355
  0
LINE
  5
5A8
100
AcDbEntity
  8
0
100
AcDbLine
 62
7
  6
CONTINUOUS
 10
3.6124715787
 20
24.052793509
 11
4.01749802
 21
24.052793509
  0
LINE
  5
5A9
100
AcDbEntity
  8
0
100
AcDbLine
 62
7
  6
CONTINUOUS
 10
8.1647965389
 20
24.2015886897
 11
7.9784354939
 21
24.2015886897
  0
LINE
  5
5AA
100
AcDbEntity
  8
0
100
AcDbLine
 62
7
  6
CONTINUOUS
 10
6.9155778468
 20
24.2015886897
 11
6.4395800125
 21
24.2015886897
  0
LINE
  5
5AB
100
AcDbEntity
  8
0
100
AcDbLine
 62
7
  6
CONTINUOUS
 10
4.010523259
 20
24.2015886897
 11
3.4401824221
 21
24.2015886897
  0
LINE
  5
5AC
100
AcDbEntity
  8
0
100
AcDbLine
 62
7
  6
CONTINUOUS
 10
2.7690134064
 20
24.2015886897
 11
2.5826523614
 21
24.2015886897
  0
LINE
  5
5AD
100
AcDbEntity
  8
0
100
AcDbLine
 62
7
  6
CONTINUOUS
 10
1.9600619402
 20
24.2015886897
 11
1.7358902982
 21
24.2015886897
  0
LINE
  5
5AE
100
AcDbEntity
  8
0
100
AcDbLine
 62
7
  6
CONTINUOUS
 10
0.9774754073
 20
24.2015886897
 11
0.7148812173
 21
24.2015886897
  0
LINE
  5
5AF
100
AcDbEntity
  8
0
100
AcDbLine
 62
7
  6
CONTINUOUS
 10
0.4251221811
 20
24.2015886897
 11
0.2528330245
 21
24.2015886897
  0
LINE
  5
5B0
100
AcDbEntity
  8
0
100
AcDbLine
 62
7
  6
CONTINUOUS
 10
0.1081982988
 20
24.2015886897
 11
-0.0760826381
 21
24.2015886897
  0
LINE
  5
5B1
100
AcDbEntity
  8
0
100
AcDbLine
 62
7
  6
CONTINUOUS
 10
-0.9062031201
 20
24.2015886897
 11
-1.0893826406
 21
24.2015886897
  0
LINE
  5
5B2
100
AcDbEntity
  8
0
100
AcDbLine
 62
7
  6
CONTINUOUS
 10
7.4184956751
 20
21.4275394141
 11
7.2462065185
 21
21.4707341293
  0
LINE
  5
5B3
100
AcDbEntity
  8
DRAFT
100
AcDbLine
 62
7
  6
CONTINUOUS
 10
26.7058869698
 20
4.3219817299
 11
26.8106173594
 21
4.2172513403
  0
LINE
  5
5B4
100
AcDbEntity
  8
0
100
AcDbLine
 62
7
  6
CONTINUOUS
 10
7.0425921802
 20
19.1329139909
 11
6.5249905123
 21
20.4250826656
  0
LINE
  5
5B5
100
AcDbEntity
  8
0
100
AcDbLine
 62
7
  6
CONTINUOUS
 10
4.5100149497
 20
22.309420015
 11
5.0068145813
 21
21.0172513403
  0
LINE
  5
5B6
100
AcDbEntity
  8
0
100
AcDbLine
 62
7
  6
CONTINUOUS
 10
6.7152672797
 20
19.524480256
 11
6.8594125401
 21
19.1329139909
  0
LINE
  5
5B7
100
AcDbEntity
  8
0
100
AcDbLine
 62
7
  6
CONTINUOUS
 10
5.0287179145
 20
21.3730872359
 11
4.6931944703
 21
22.309420015
  0
LINE
  5
5B8
100
AcDbEntity
  8
0
100
AcDbLine
 62
7
  6
CONTINUOUS
 10
4.6431474799
 20
20.2292995331
 11
5.015747323
 21
19.1329139909
  0
LINE
  5
5B9
100
AcDbEntity
  8
0
100
AcDbLine
 62
7
  6
CONTINUOUS
 10
5.0394860316
 20
19.5121214961
 11
4.7334525132
 21
20.4250826656
  0
LINE
  5
5BA
100
AcDbEntity
  8
0
100
AcDbLine
 62
7
  6
CONTINUOUS
 10
7.5788280076
 20
35.2287309621
 11
7.6779630076
 21
34.0956049621
  0
LINE
  5
5BB
100
AcDbEntity
  8
0
100
AcDbLine
 62
7
  6
CONTINUOUS
 10
7.3250360076
 20
38.1295829621
 11
7.5618150076
 21
35.4231899621
  0
LINE
  5
5BC
100
AcDbEntity
  8
0
100
AcDbLine
 62
7
  6
CONTINUOUS
 10
7.2364310076
 20
39.1423329621
 11
7.3047610076
 21
38.3613289621
  0
LINE
  5
5BD
100
AcDbEntity
  8
0
100
AcDbLine
 62
7
  6
CONTINUOUS
 10
7.187603178
 20
39.700438553
 11
7.2102670076
 21
39.4413989621
  0
LINE
  5
5BE
100
AcDbEntity
  8
0
100
AcDbLine
 62
7
  6
CONTINUOUS
 10
7.2853190076
 20
39.4413989621
 11
7.2668900432
 21
39.6520498731
  0
LINE
  5
5BF
100
AcDbEntity
  8
0
100
AcDbLine
 62
7
  6
CONTINUOUS
 10
7.3870080076
 20
38.2790809621
 11
7.3114840076
 21
39.1423329621
  0
LINE
  5
5C0
100
AcDbEntity
  8
0
100
AcDbLine
 62
7
  6
CONTINUOUS
 10
7.6308280076
 20
35.4922039621
 11
7.4072830076
 21
38.0473349621
  0
LINE
  5
5C1
100
AcDbEntity
  8
0
100
AcDbLine
 62
7
  6
CONTINUOUS
 10
7.7464740076
 20
34.1703709621
 11
7.6478410076
 21
35.2977459621
  0
LINE
  5
5C2
100
AcDbEntity
  8
DRAFT
100
AcDbLine
 62
7
  6
CONTINUOUS
 10
5.5995246321
 20
8.9172513403
 11
5.5995246321
 21
-1.1714115927
  0
LINE
  5
5C3
100
AcDbEntity
  8
DRAFT
100
AcDbLine
 62
7
  6
CONTINUOUS
 10
5.5995246321
 20
-5.7940857267
 11
5.5995246321
 21
-20.3827486597
  0
LINE
  5
5C4
100
AcDbEntity
  8
DRAFT
100
AcDbLine
 62
7
  6
CONTINUOUS
 10
5.6483988139
 20
-18.1827486597
 11
5.6483988139
 21
-13.3827486597
  0
LINE
  5
5C5
100
AcDbEntity
  8
DRAFT
100
AcDbLine
 62
7
  6
CONTINUOUS
 10
5.6606173594
 20
-1.1877813397
 11
5.6606173594
 21
-5.7777159797
  0
LINE
  5
5C6
100
AcDbEntity
  8
DRAFT
100
AcDbLine
 62
7
  6
CONTINUOUS
 10
5.6745814113
 20
8.9172513403
 11
5.6745814113
 21
-13.3827486597
  0
LINE
  5
5C7
100
AcDbEntity
  8
DRAFT
100
AcDbLine
 62
7
  6
CONTINUOUS
 10
5.6745814113
 20
-18.1827486597
 11
5.6745814113
 21
-20.3827486597
  0
LINE
  5
5C8
100
AcDbEntity
  8
IMPORT_IGES
100
AcDbLine
 62
7
  6
CONTINUOUS
 10
5.7106173594
 20
-2.6827486597
 11
5.7106173594
 21
0.7172513403
  0
LINE
  5
5C9
100
AcDbEntity
  8
0
100
AcDbLine
 62
7
  6
CONTINUOUS
 10
5.7160390461
 20
19.1329139909
 11
5.7160390461
 21
20.4250826656
  0
LINE
  5
5CA
100
AcDbEntity
  8
0
100
AcDbLine
 62
7
  6
CONTINUOUS
 10
5.7606173594
 20
6.9672513403
 11
5.7606173594
 21
-13.3827486597
  0
LINE
  5
5CB
100
AcDbEntity
  8
0
100
AcDbLine
 62
7
  6
CONTINUOUS
 10
5.8522306149
 20
22.309420015
 11
5.8522306149
 21
21.0172513403
  0
LINE
  5
5CC
100
AcDbEntity
  8
0
100
AcDbLine
 62
7
  6
CONTINUOUS
 10
5.9106173594
 20
31.7446233403
 11
5.9106173594
 21
30.2446233403
  0
LINE
  5
5CD
100
AcDbEntity
  8
0
100
AcDbLine
 62
7
  6
CONTINUOUS
 10
6.0245197715
 20
21.0172513403
 11
6.0245197715
 21
22.309420015
  0
LINE
  5
5CE
100
AcDbEntity
  8
0
100
AcDbLine
 62
7
  6
CONTINUOUS
 10
6.4395800125
 20
24.2015886897
 11
6.4395800125
 21
22.909420015
  0
LINE
  5
5CF
100
AcDbEntity
  8
0
100
AcDbLine
 62
7
  6
CONTINUOUS
 10
6.6118691691
 20
22.909420015
 11
6.6118691691
 21
23.4419501355
  0
LINE
  5
5D0
100
AcDbEntity
  8
0
100
AcDbLine
 62
7
  6
CONTINUOUS
 10
6.6118691691
 20
23.5907453162
 11
6.6118691691
 21
24.052793509
  0
LINE
  5
5D1
100
AcDbEntity
  8
0
100
AcDbLine
 62
7
  6
CONTINUOUS
 10
6.6219840076
 20
39.4413989621
 11
6.6219840076
 21
39.1423329621
  0
LINE
  5
5D2
100
AcDbEntity
  8
0
100
AcDbLine
 62
7
  6
CONTINUOUS
 10
7.1961595281
 20
20.4250826656
 11
7.1961595281
 21
19.1329139909
  0
LINE
  5
5D3
100
AcDbEntity
  8
0
100
AcDbLine
 62
7
  6
CONTINUOUS
 10
7.3684486847
 20
19.1329139909
 11
7.3684486847
 21
19.7046007379
  0
LINE
  5
5D4
100
AcDbEntity
  8
0
100
AcDbLine
 62
7
  6
CONTINUOUS
 10
7.3684486847
 20
19.8533959186
 11
7.3684486847
 21
20.2762874849
  0
LINE
  5
5D5
100
AcDbEntity
  8
0
100
AcDbLine
 62
7
  6
CONTINUOUS
 10
7.4070300076
 20
40.0769129621
 11
7.407029862
 21
39.7842143806
  0
LINE
  5
5D6
100
AcDbEntity
  8
0
100
AcDbLine
 62
7
  6
CONTINUOUS
 10
7.4070300076
 20
39.704960064
 11
7.4070300076
 21
39.4413989621
  0
LINE
  5
5D7
100
AcDbEntity
  8
0
100
AcDbLine
 62
7
  6
CONTINUOUS
 10
7.4817970706
 20
39.8093857685
 11
7.4817970076
 21
40.0021459621
  0
LINE
  5
5D8
100
AcDbEntity
  8
0
100
AcDbLine
 62
7
  6
CONTINUOUS
 10
7.4817970076
 20
39.5161659621
 11
7.4817969078
 21
39.7306762624
  0
LINE
  5
5D9
100
AcDbEntity
  8
0
100
AcDbLine
 62
7
  6
CONTINUOUS
 10
7.6377727835
 20
22.309420015
 11
7.6377727835
 21
21.0172513403
  0
LINE
  5
5DA
100
AcDbEntity
  8
0
100
AcDbLine
 62
7
  6
CONTINUOUS
 10
7.6779630076
 20
34.0956049621
 11
7.6779630076
 21
33.4974729621
  0
LINE
  5
5DB
100
AcDbEntity
  8
0
100
AcDbLine
 62
7
  6
CONTINUOUS
 10
7.7060950076
 20
40.0021459621
 11
7.7060949563
 21
39.875079159
  0
LINE
  5
5DC
100
AcDbEntity
  8
0
100
AcDbLine
 62
7
  6
CONTINUOUS
 10
7.706095089
 20
39.7977596563
 11
7.7060950076
 21
39.5161659621
  0
LINE
  5
5DD
100
AcDbEntity
  8
0
100
AcDbLine
 62
7
  6
CONTINUOUS
 10
7.7808619769
 20
39.8937970899
 11
7.7808620076
 21
40.0769129621
  0
LINE
  5
5DE
100
AcDbEntity
  8
0
100
AcDbLine
 62
7
  6
CONTINUOUS
 10
7.7808620076
 20
39.4413989621
 11
7.7808620076
 21
39.8168660933
  0
LINE
  5
5DF
100
AcDbEntity
  8
0
100
AcDbLine
 62
7
  6
CONTINUOUS
 10
7.7901130076
 20
33.6096229621
 11
7.7901130076
 21
34.0582209621
  0
LINE
  5
5E0
100
AcDbEntity
  8
0
100
AcDbLine
 62
7
  6
CONTINUOUS
 10
7.8100619402
 20
21.166046521
 11
7.8100619402
 21
21.6124320632
  0
LINE
  5
5E1
100
AcDbEntity
  8
0
100
AcDbLine
 62
7
  6
CONTINUOUS
 10
7.8100619402
 20
21.7612272439
 11
7.8100619402
 21
22.1606248343
  0
LINE
  5
5E2
100
AcDbEntity
  8
0
100
AcDbLine
 62
7
  6
CONTINUOUS
 10
8.0144110076
 20
34.0582209621
 11
8.0144110076
 21
33.6096229621
  0
LINE
  5
5E3
100
AcDbEntity
  8
0
100
AcDbLine
 62
7
  6
CONTINUOUS
 10
8.1265610076
 20
33.4974729621
 11
8.1265610076
 21
34.0956049621
  0
LINE
  5
5E4
100
AcDbEntity
  8
0
100
AcDbLine
 62
7
  6
CONTINUOUS
 10
8.4163750076
 20
38.0208379621
 11
8.4163750076
 21
37.6470059621
  0
LINE
  5
5E5
100
AcDbEntity
  8
0
100
AcDbLine
 62
7
  6
CONTINUOUS
 10
8.4911420076
 20
37.7217729621
 11
8.4911420076
 21
37.9460729621
  0
LINE
  5
5E6
100
AcDbEntity
  8
0
100
AcDbLine
 62
7
  6
CONTINUOUS
 10
8.5148812173
 20
21.6124320632
 11
8.5148812173
 21
21.7612272439
  0
LINE
  5
5E7
100
AcDbEntity
  8
0
100
AcDbLine
 62
7
  6
CONTINUOUS
 10
8.5618691691
 20
22.1606248343
 11
8.5618691691
 21
22.309420015
  0
LINE
  5
5E8
100
AcDbEntity
  8
0
100
AcDbLine
 62
7
  6
CONTINUOUS
 10
8.565909012
 20
39.9251568336
 11
8.5659090076
 21
39.7404649621
  0
LINE
  5
5E9
100
AcDbEntity
  8
0
100
AcDbLine
 62
7
  6
CONTINUOUS
 10
8.5659090076
 20
40.1890629621
 11
8.565909012
 21
39.9999648307
  0
LINE
  5
5EA
100
AcDbEntity
  8
0
100
AcDbLine
 62
7
  6
CONTINUOUS
 10
8.5931944703
 20
21.0172513403
 11
8.5931944703
 21
21.166046521
  0
LINE
  5
5EB
100
AcDbEntity
  8
0
100
AcDbLine
 62
7
  6
CONTINUOUS
 10
8.6406750076
 20
39.8152309621
 11
8.6406750154
 21
39.9269714287
  0
LINE
  5
5EC
100
AcDbEntity
  8
0
100
AcDbLine
 62
7
  6
CONTINUOUS
 10
8.6406750093
 20
40.001745844
 11
8.6406750076
 21
40.1142959621
  0
LINE
  5
5ED
100
AcDbEntity
  8
0
100
AcDbLine
 62
7
  6
CONTINUOUS
 10
8.8359655546
 20
22.309420015
 11
8.8359655546
 21
21.0172513403
  0
LINE
  5
5EE
100
AcDbEntity
  8
0
100
AcDbLine
 62
7
  6
CONTINUOUS
 10
9.0082547113
 20
21.0172513403
 11
9.0082547113
 21
22.0082811496
  0
LINE
  5
5EF
100
AcDbEntity
  8
0
100
AcDbLine
 62
7
  6
CONTINUOUS
 10
6.0292920582
 20
19.1329139909
 11
6.1654837464
 21
19.524480256
  0
LINE
  5
5F0
100
AcDbEntity
  8
0
100
AcDbLine
 62
7
  6
CONTINUOUS
 10
5.1623399099
 20
19.1329139909
 11
5.5437498895
 21
20.2136368825
  0
LINE
  5
5F1
100
AcDbEntity
  8
0
100
AcDbLine
 62
7
  6
CONTINUOUS
 10
5.4918674042
 20
20.4250826656
 11
5.1722514627
 21
19.5280288794
  0
LINE
  5
5F2
100
AcDbEntity
  8
0
100
AcDbLine
 62
7
  6
CONTINUOUS
 10
5.5233149522
 20
22.309420015
 11
5.1674791761
 21
21.3730872359
  0
LINE
  5
5F3
100
AcDbEntity
  8
0
100
AcDbLine
 62
7
  6
CONTINUOUS
 10
6.3386294673
 20
20.4250826656
 11
5.8474585672
 21
19.1329139909
  0
LINE
  5
5F4
100
AcDbEntity
  8
0
100
AcDbLine
 62
7
  6
CONTINUOUS
 10
5.1921968152
 20
21.0172513403
 11
5.7075958892
 21
22.309420015
  0
LINE
  5
5F5
100
AcDbEntity
  8
RACCORDO
100
AcDbLine
 62
7
  6
CONTINUOUS
 10
2.9106173594
 20
26.7172513403
 11
2.9566237184
 21
26.7632576993
  0
LINE
  5
5F6
100
AcDbEntity
  8
0
100
AcDbLine
 62
7
  6
CONTINUOUS
 10
12.2668430076
 20
33.1877749621
 11
12.3725790076
 21
33.2935109621
  0
LINE
  5
5F7
100
AcDbEntity
  8
RACCORDO
100
AcDbLine
 62
7
  6
CONTINUOUS
 10
13.4106173594
 20
26.7172513403
 11
13.7636269555
 21
26.7632576993
  0
LINE
  5
5F8
100
AcDbEntity
  8
DRAFT
100
AcDbLine
 62
7
  6
CONTINUOUS
 10
2.9106173594
 20
26.7172513403
 11
4.4106173594
 21
26.7172513403
  0
LINE
  5
5F9
100
AcDbEntity
  8
DRAFT
100
AcDbLine
 62
7
  6
CONTINUOUS
 10
13.4106173594
 20
26.7172513403
 11
14.9106173594
 21
26.7172513403
  0
LINE
  5
5FA
100
AcDbEntity
  8
RACCORDO
100
AcDbLine
 62
250
  6
CONTINUOUS
 10
2.9566237184
 20
26.7632576993
 11
4.0576077632
 21
26.7632576993
  0
LINE
  5
5FB
100
AcDbEntity
  8
RACCORDO
100
AcDbLine
 62
250
  6
CONTINUOUS
 10
13.7636269555
 20
26.7632576993
 11
14.8646110004
 21
26.7632576993
  0
LINE
  5
5FC
100
AcDbEntity
  8
RACCORDO
100
AcDbLine
 62
250
  6
CONTINUOUS
 10
2.9734747445
 20
27.2629531128
 11
3.928308813
 21
27.2629531128
  0
LINE
  5
5FD
100
AcDbEntity
  8
RACCORDO
100
AcDbLine
 62
250
  6
CONTINUOUS
 10
13.8929259058
 20
27.2629531128
 11
14.8477599743
 21
27.2629531128
  0
LINE
  5
5FE
100
AcDbEntity
  8
RACCORDO
100
AcDbLine
 62
7
  6
CONTINUOUS
 10
4.4106173594
 20
26.7172513403
 11
4.0576077632
 21
26.7632576993
  0
LINE
  5
5FF
100
AcDbEntity
  8
RACCORDO
100
AcDbLine
 62
7
  6
CONTINUOUS
 10
2.9106173594
 20
29.7172513403
 11
2.9566237184
 21
29.6712449813
  0
LINE
  5
600
100
AcDbEntity
  8
0
100
AcDbLine
 62
7
  6
CONTINUOUS
 10
9.0082547113
 20
22.0082811496
 11
9.6551956726
 21
21.0172513403
  0
LINE
  5
601
100
AcDbEntity
  8
0
100
AcDbLine
 62
7
  6
CONTINUOUS
 10
9.6660860366
 20
21.3183903252
 11
9.0191451947
 21
22.309420015
  0
LINE
  5
602
100
AcDbEntity
  8
0
100
AcDbLine
 62
7
  6
CONTINUOUS
 10
8.6823982067
 20
22.909420015
 11
8.1647965389
 21
24.2015886897
  0
LINE
  5
603
100
AcDbEntity
  8
0
100
AcDbLine
 62
7
  6
CONTINUOUS
 10
12.27697652
 20
21.0172513403
 11
11.7593748522
 21
22.309420015
  0
LINE
  5
604
100
AcDbEntity
  8
0
100
AcDbLine
 62
7
  6
CONTINUOUS
 10
8.3550733063
 20
23.3009862801
 11
8.4992185667
 21
22.909420015
  0
LINE
  5
605
100
AcDbEntity
  8
0
100
AcDbLine
 62
7
  6
CONTINUOUS
 10
11.9496516196
 20
21.4088176054
 11
12.0937968799
 21
21.0172513403
  0
LINE
  5
606
100
AcDbEntity
  8
DRAFT
100
AcDbLine
 62
7
  6
CONTINUOUS
 10
13.2882681603
 20
12.6172513403
 11
13.2896712815
 21
12.3172513403
  0
LINE
  5
607
100
AcDbEntity
  8
0
100
AcDbLine
 62
7
  6
CONTINUOUS
 10
9.500487119
 20
39.8425604837
 11
9.5004870076
 21
39.8152309621
  0
LINE
  5
608
100
AcDbEntity
  8
0
100
AcDbLine
 62
7
  6
CONTINUOUS
 10
9.5004870076
 20
40.1142959621
 11
9.5004870318
 21
39.9189780776
  0
LINE
  5
609
100
AcDbEntity
  8
0
100
AcDbLine
 62
7
  6
CONTINUOUS
 10
9.5752540076
 20
39.7404649621
 11
9.5752540144
 21
39.8258229908
  0
LINE
  5
60A
100
AcDbEntity
  8
0
100
AcDbLine
 62
7
  6
CONTINUOUS
 10
9.5752540496
 20
39.9025751447
 11
9.5752540076
 21
40.1890629621
  0
LINE
  5
60B
100
AcDbEntity
  8
0
100
AcDbLine
 62
7
  6
CONTINUOUS
 10
9.6500200076
 20
37.9460729621
 11
9.6500200076
 21
37.7217729621
  0
LINE
  5
60C
100
AcDbEntity
  8
0
100
AcDbLine
 62
7
  6
CONTINUOUS
 10
9.6660860366
 20
22.309420015
 11
9.6660860366
 21
21.3183903252
  0
LINE
  5
60D
100
AcDbEntity
  8
0
100
AcDbLine
 62
7
  6
CONTINUOUS
 10
9.7247870076
 20
37.6470059621
 11
9.7247870076
 21
38.0208379621
  0
LINE
  5
60E
100
AcDbEntity
  8
0
100
AcDbLine
 62
7
  6
CONTINUOUS
 10
9.8383751932
 20
21.0172513403
 11
9.8383751932
 21
22.309420015
  0
LINE
  5
60F
100
AcDbEntity
  8
0
100
AcDbLine
 62
7
  6
CONTINUOUS
 10
10.0184956751
 20
21.1722872036
 11
10.0184956751
 21
21.0172513403
  0
LINE
  5
610
100
AcDbEntity
  8
0
100
AcDbLine
 62
7
  6
CONTINUOUS
 10
10.0968089281
 20
22.309420015
 11
10.0968089281
 21
22.1606248343
  0
LINE
  5
611
100
AcDbEntity
  8
0
100
AcDbLine
 62
7
  6
CONTINUOUS
 10
10.2107680076
 20
38.8432679621
 11
10.2107680076
 21
38.0721439621
  0
LINE
  5
612
100
AcDbEntity
  8
0
100
AcDbLine
 62
7
  6
CONTINUOUS
 10
10.2855350076
 20
38.1469099621
 11
10.2855350076
 21
38.7685009621
  0
LINE
  5
613
100
AcDbEntity
  8
0
100
AcDbLine
 62
7
  6
CONTINUOUS
 10
10.7715150076
 20
39.1423329621
 11
10.7715151288
 21
39.2364147807
  0
LINE
  5
614
100
AcDbEntity
  8
0
100
AcDbLine
 62
7
  6
CONTINUOUS
 10
10.9943522991
 20
20.4250826656
 11
10.9943522991
 21
20.2762874849
  0
LINE
  5
615
100
AcDbEntity
  8
0
100
AcDbLine
 62
7
  6
CONTINUOUS
 10
11.0130739884
 20
22.1606248343
 11
11.0130739884
 21
22.309420015
  0
LINE
  5
616
100
AcDbEntity
  8
0
100
AcDbLine
 62
7
  6
CONTINUOUS
 10
11.0331980076
 20
38.6831029621
 11
11.0331980076
 21
38.0956049621
  0
LINE
  5
617
100
AcDbEntity
  8
0
100
AcDbLine
 62
7
  6
CONTINUOUS
 10
11.0443992896
 20
21.0172513403
 11
11.0443992896
 21
21.166046521
  0
LINE
  5
618
100
AcDbEntity
  8
0
100
AcDbLine
 62
7
  6
CONTINUOUS
 10
11.1079650076
 20
38.0208379621
 11
11.1079650076
 21
38.7578679621
  0
LINE
  5
619
100
AcDbEntity
  8
0
100
AcDbLine
 62
7
  6
CONTINUOUS
 10
11.4172438654
 20
20.2762874849
 11
11.4172438654
 21
19.1329139909
  0
LINE
  5
61A
100
AcDbEntity
  8
0
100
AcDbLine
 62
7
  6
CONTINUOUS
 10
11.589533022
 20
19.1329139909
 11
11.589533022
 21
20.2762874849
  0
LINE
  5
61B
100
AcDbEntity
  8
0
100
AcDbLine
 62
7
  6
CONTINUOUS
 10
11.9106173594
 20
30.2446233403
 11
11.9106173594
 21
31.7446233403
  0
LINE
  5
61C
100
AcDbEntity
  8
0
100
AcDbLine
 62
7
  6
CONTINUOUS
 10
12.0124245883
 20
20.2762874849
 11
12.0124245883
 21
20.4250826656
  0
LINE
  5
61D
100
AcDbEntity
  8
0
100
AcDbLine
 62
7
  6
CONTINUOUS
 10
12.0606173594
 20
-13.3827486597
 11
12.0606173594
 21
6.9672513403
  0
LINE
  5
61E
100
AcDbEntity
  8
DRAFT
100
AcDbLine
 62
7
  6
CONTINUOUS
 10
12.1466533074
 20
-20.3827486597
 11
12.1466533074
 21
-18.1827486597
  0
LINE
  5
61F
100
AcDbEntity
  8
DRAFT
100
AcDbLine
 62
7
  6
CONTINUOUS
 10
12.1466533074
 20
-13.3827486597
 11
12.1466533074
 21
8.9172513403
  0
LINE
  5
620
100
AcDbEntity
  8
DRAFT
100
AcDbLine
 62
7
  6
CONTINUOUS
 10
12.1606173594
 20
-5.7777159797
 11
12.1606173594
 21
-1.1877813397
  0
LINE
  5
621
100
AcDbEntity
  8
DRAFT
100
AcDbLine
 62
7
  6
CONTINUOUS
 10
12.1728359048
 20
-18.1827486597
 11
12.1728359048
 21
-13.3827486597
  0
LINE
  5
622
100
AcDbEntity
  8
0
100
AcDbLine
 62
7
  6
CONTINUOUS
 10
12.2082077208
 20
20.4250826656
 11
12.2082077208
 21
19.1329139909
  0
LINE
  5
623
100
AcDbEntity
  8
DRAFT
100
AcDbLine
 62
7
  6
CONTINUOUS
 10
12.2217100866
 20
-20.3827486597
 11
12.2217100866
 21
-5.7940857267
  0
LINE
  5
624
100
AcDbEntity
  8
DRAFT
100
AcDbLine
 62
7
  6
CONTINUOUS
 10
12.2217100866
 20
-1.1714115927
 11
12.2217100866
 21
8.9172513403
  0
LINE
  5
625
100
AcDbEntity
  8
0
100
AcDbLine
 62
7
  6
CONTINUOUS
 10
12.3804968774
 20
19.1329139909
 11
12.3804968774
 21
20.4250826656
  0
LINE
  5
626
100
AcDbEntity
  8
0
100
AcDbLine
 62
7
  6
CONTINUOUS
 10
12.5606173594
 20
6.9672513403
 11
12.5606173594
 21
-15.4827486597
  0
LINE
  5
627
100
AcDbEntity
  8
0
100
AcDbLine
 62
7
  6
CONTINUOUS
 10
12.978736639
 20
21.9922514
 11
12.978736639
 21
21.8385616858
  0
LINE
  5
628
100
AcDbEntity
  8
RACCORDO
100
AcDbLine
 62
7
  6
CONTINUOUS
 10
13.2355605802
 20
10.6172513403
 11
13.2355605802
 21
6.9672513403
  0
LINE
  5
629
100
AcDbEntity
  8
RACCORDO
100
AcDbLine
 62
7
  6
CONTINUOUS
 10
13.2355605802
 20
-15.4827486597
 11
13.2355605802
 21
-21.3077680329
  0
LINE
  5
62A
100
AcDbEntity
  8
0
100
AcDbLine
 62
7
  6
CONTINUOUS
 10
10.4621140076
 20
39.1423329621
 11
10.4359480076
 21
38.8432679621
  0
LINE
  5
62B
100
AcDbEntity
  8
0
100
AcDbLine
 62
7
  6
CONTINUOUS
 10
10.1282590076
 20
35.3263589621
 11
10.0808699418
 21
34.7847042094
  0
LINE
  5
62C
100
AcDbEntity
  8
0
100
AcDbLine
 62
7
  6
CONTINUOUS
 10
10.3633300076
 20
38.0132349621
 11
10.1452710076
 21
35.5208179621
  0
LINE
  5
62D
100
AcDbEntity
  8
0
100
AcDbLine
 62
7
  6
CONTINUOUS
 10
10.4294070076
 20
38.7685009621
 11
10.3836050076
 21
38.2449809621
  0
LINE
  5
62E
100
AcDbEntity
  8
0
100
AcDbLine
 62
7
  6
CONTINUOUS
 10
10.4658530076
 20
38.3272279621
 11
10.5044600076
 21
38.7685009621
  0
LINE
  5
62F
100
AcDbEntity
  8
0
100
AcDbLine
 62
7
  6
CONTINUOUS
 10
10.5110000076
 20
38.8432679621
 11
10.5371650076
 21
39.1423329621
  0
LINE
  5
630
100
AcDbEntity
  8
0
100
AcDbLine
 62
7
  6
CONTINUOUS
 10
10.2142860076
 20
35.4518029621
 11
10.4390470076
 21
38.0208379621
  0
LINE
  5
631
100
AcDbEntity
  8
0
100
AcDbLine
 62
7
  6
CONTINUOUS
 10
10.1549788979
 20
34.773917426
 11
10.1972730076
 21
35.2573459621
  0
LINE
  5
632
100
AcDbEntity
  8
0
100
AcDbLine
 62
7
  6
CONTINUOUS
 10
7.6690980848
 20
22.909420015
 11
7.805289773
 21
23.3009862801
  0
LINE
  5
633
100
AcDbEntity
  8
0
100
AcDbLine
 62
7
  6
CONTINUOUS
 10
7.9784354939
 20
24.2015886897
 11
7.4872645938
 21
22.909420015
  0
LINE
  5
634
100
AcDbEntity
  8
0
100
AcDbLine
 62
7
  6
CONTINUOUS
 10
3.2188252056
 20
17.7645876666
 11
3.7356926755
 21
18.509420015
  0
LINE
  5
635
100
AcDbEntity
  8
RACCORDO
100
AcDbLine
 62
7
  6
CONTINUOUS
 10
14.9106173594
 20
29.7172513403
 11
14.8646110004
 21
29.6712449813
  0
LINE
  5
636
100
AcDbEntity
  8
DRAFT
100
AcDbLine
 62
7
  6
CONTINUOUS
 10
-8.8846522511
 20
4.3219817299
 11
-8.9893826406
 21
4.2172513403
  0
LINE
  5
637
100
AcDbEntity
  8
RACCORDO
100
AcDbLine
 62
7
  6
CONTINUOUS
 10
4.4106173594
 20
29.7172513403
 11
4.0576077632
 21
29.6712449813
  0
LINE
  5
638
100
AcDbEntity
  8
RACCORDO
100
AcDbLine
 62
250
  6
CONTINUOUS
 10
14.8477599743
 20
29.1715495678
 11
13.8929259058
 21
29.1715495678
  0
LINE
  5
639
100
AcDbEntity
  8
RACCORDO
100
AcDbLine
 62
250
  6
CONTINUOUS
 10
3.928308813
 20
29.1715495678
 11
2.9734747445
 21
29.1715495678
  0
LINE
  5
63A
100
AcDbEntity
  8
RACCORDO
100
AcDbLine
 62
250
  6
CONTINUOUS
 10
14.8646110004
 20
29.6712449813
 11
13.7636269555
 21
29.6712449813
  0
LINE
  5
63B
100
AcDbEntity
  8
RACCORDO
100
AcDbLine
 62
250
  6
CONTINUOUS
 10
4.0576077632
 20
29.6712449813
 11
2.9566237184
 21
29.6712449813
  0
LINE
  5
63C
100
AcDbEntity
  8
DRAFT
100
AcDbLine
 62
7
  6
CONTINUOUS
 10
14.9106173594
 20
29.7172513403
 11
13.4106173594
 21
29.7172513403
  0
LINE
  5
63D
100
AcDbEntity
  8
DRAFT
100
AcDbLine
 62
7
  6
CONTINUOUS
 10
4.4106173594
 20
29.7172513403
 11
2.9106173594
 21
29.7172513403
  0
LINE
  5
63E
100
AcDbEntity
  8
0
100
AcDbLine
 62
7
  6
CONTINUOUS
 10
5.9106173594
 20
30.2446233403
 11
11.9106173594
 21
30.2446233403
  0
LINE
  5
63F
100
AcDbEntity
  8
0
100
AcDbLine
 62
7
  6
CONTINUOUS
 10
11.9106173594
 20
31.7446233403
 11
5.9106173594
 21
31.7446233403
  0
LINE
  5
640
100
AcDbEntity
  8
RACCORDO
100
AcDbLine
 62
7
  6
CONTINUOUS
 10
13.4106173594
 20
29.7172513403
 11
13.7636269555
 21
29.6712449813
  0
LINE
  5
641
100
AcDbEntity
  8
0
100
AcDbLine
 62
7
  6
CONTINUOUS
 10
5.4321350076
 20
33.2935109621
 11
5.5378710076
 21
33.1877749621
  0
LINE
  5
642
100
AcDbEntity
  8
RACCORDO
100
AcDbLine
 62
7
  6
CONTINUOUS
 10
14.9106173594
 20
26.7172513403
 11
14.8646110004
 21
26.7632576993
  0
LINE
  5
643
100
AcDbEntity
  8
DRAFT
100
AcDbLine
 62
7
  6
CONTINUOUS
 10
-8.8846522511
 20
52.1125209507
 11
-8.9893826406
 21
52.2172513403
  0
LINE
  5
644
100
AcDbEntity
  8
0
100
AcDbLine
 62
7
  6
CONTINUOUS
 10
15.0383753127
 20
19.1329139909
 11
14.5207736449
 21
20.4250826656
  0
LINE
  5
645
100
AcDbEntity
  8
0
100
AcDbLine
 62
7
  6
CONTINUOUS
 10
15.5647872364
 20
20.4250826656
 11
16.061586868
 21
19.1329139909
  0
LINE
  5
646
100
AcDbEntity
  8
0
100
AcDbLine
 62
7
  6
CONTINUOUS
 10
14.7110504123
 20
19.524480256
 11
14.8551956726
 21
19.1329139909
  0
LINE
  5
647
100
AcDbEntity
  8
0
100
AcDbLine
 62
7
  6
CONTINUOUS
 10
16.0834902012
 20
19.4887498865
 11
15.747966757
 21
20.4250826656
  0
LINE
  5
648
100
AcDbEntity
  8
RACCORDO
100
AcDbLine
 62
7
  6
CONTINUOUS
 10
13.2896712815
 20
12.3172513403
 11
13.2896712815
 21
11.8172513403
  0
LINE
  5
649
100
AcDbEntity
  8
0
100
AcDbLine
 62
7
  6
CONTINUOUS
 10
13.2998209763
 20
22.0301843633
 11
13.2998209763
 21
21.0172513403
  0
LINE
  5
64A
100
AcDbEntity
  8
RACCORDO
100
AcDbLine
 62
7
  6
CONTINUOUS
 10
13.3106173594
 20
11.5172513403
 11
13.3106173594
 21
6.9672513403
  0
LINE
  5
64B
100
AcDbEntity
  8
RACCORDO
100
AcDbLine
 62
7
  6
CONTINUOUS
 10
13.3106173594
 20
-15.4827486597
 11
13.3106173594
 21
-21.3828248121
  0
LINE
  5
64C
100
AcDbEntity
  8
DRAFT
100
AcDbLine
 62
7
  6
CONTINUOUS
 10
13.4106173594
 20
29.7172513403
 11
13.4106173594
 21
26.7172513403
  0
LINE
  5
64D
100
AcDbEntity
  8
0
100
AcDbLine
 62
7
  6
CONTINUOUS
 10
13.4106173594
 20
-15.4827486597
 11
13.4106173594
 21
-25.7827486597
  0
LINE
  5
64E
100
AcDbEntity
  8
DRAFT
100
AcDbLine
 62
7
  6
CONTINUOUS
 10
13.4106173594
 20
6.9672513403
 11
13.4106173594
 21
7.8362318921
  0
LINE
  5
64F
100
AcDbEntity
  8
SMUSSO
100
AcDbLine
 62
7
  6
CONTINUOUS
 10
13.4106173594
 20
7.8362318921
 11
13.4106173594
 21
10.4672513403
  0
LINE
  5
650
100
AcDbEntity
  8
0
100
AcDbLine
 62
7
  6
CONTINUOUS
 10
13.4564474823
 20
21.0172513403
 11
13.4564474823
 21
22.3172513403
  0
LINE
  5
651
100
AcDbEntity
  8
0
100
AcDbLine
 62
7
  6
CONTINUOUS
 10
13.8088571209
 20
21.4714682078
 11
13.8088571209
 21
21.322673027
  0
LINE
  5
652
100
AcDbEntity
  8
RACCORDO
100
AcDbLine
 62
7
  6
CONTINUOUS
 10
13.8929259058
 20
27.2629531128
 11
13.8929259058
 21
29.1715495678
  0
LINE
  5
653
100
AcDbEntity
  8
0
100
AcDbLine
 62
7
  6
CONTINUOUS
 10
14.3805438679
 20
22.0480496078
 11
14.3805438679
 21
21.4714682078
  0
LINE
  5
654
100
AcDbEntity
  8
0
100
AcDbLine
 62
7
  6
CONTINUOUS
 10
14.3805438679
 20
21.322673027
 11
14.3805438679
 21
21.0172513403
  0
LINE
  5
655
100
AcDbEntity
  8
0
100
AcDbLine
 62
7
  6
CONTINUOUS
 10
14.4106173594
 20
-25.2827486597
 11
14.4106173594
 21
-18.3827486597
  0
LINE
  5
656
100
AcDbEntity
  8
ASSI
100
AcDbLine
 62
7
  6
CONTINUOUS
 10
14.4106173594
 20
74.8172513403
 11
14.4106173594
 21
81.7172513403
  0
LINE
  5
657
100
AcDbEntity
  8
0
100
AcDbLine
 62
7
  6
CONTINUOUS
 10
14.5371703739
 20
21.0172513403
 11
14.5371703739
 21
21.322673027
  0
LINE
  5
658
100
AcDbEntity
  8
0
100
AcDbLine
 62
7
  6
CONTINUOUS
 10
14.5371703739
 20
21.4714682078
 11
14.5371703739
 21
22.309420015
  0
LINE
  5
659
100
AcDbEntity
  8
0
100
AcDbLine
 62
7
  6
CONTINUOUS
 10
14.7094595305
 20
21.322673027
 11
14.7094595305
 21
21.4714682078
  0
LINE
  5
65A
100
AcDbEntity
  8
RACCORDO
100
AcDbLine
 62
7
  6
CONTINUOUS
 10
14.8477599743
 20
27.2629531128
 11
14.8477599743
 21
29.1715495678
  0
LINE
  5
65B
100
AcDbEntity
  8
DRAFT
100
AcDbLine
 62
7
  6
CONTINUOUS
 10
14.9106173594
 20
26.7172513403
 11
14.9106173594
 21
29.7172513403
  0
LINE
  5
65C
100
AcDbEntity
  8
0
100
AcDbLine
 62
7
  6
CONTINUOUS
 10
16.9070029015
 20
20.4250826656
 11
16.9070029015
 21
19.1329139909
  0
LINE
  5
65D
100
AcDbEntity
  8
0
100
AcDbLine
 62
7
  6
CONTINUOUS
 10
17.0792920582
 20
19.1329139909
 11
17.0792920582
 21
20.4250826656
  0
LINE
  5
65E
100
AcDbEntity
  8
DRAFT
100
AcDbLine
 62
7
  6
CONTINUOUS
 10
13.2355605802
 20
10.6172513403
 11
13.27047071
 21
12.6172513403
  0
LINE
  5
65F
100
AcDbEntity
  8
0
100
AcDbLine
 62
7
  6
CONTINUOUS
 10
11.263676398
 20
21.0172513403
 11
11.3998680862
 21
21.4088176054
  0
LINE
  5
660
100
AcDbEntity
  8
0
100
AcDbLine
 62
7
  6
CONTINUOUS
 10
14.0250751907
 20
19.1329139909
 11
14.1612668789
 21
19.524480256
  0
LINE
  5
661
100
AcDbEntity
  8
0
100
AcDbLine
 62
7
  6
CONTINUOUS
 10
11.5730138072
 20
22.309420015
 11
11.081842907
 21
21.0172513403
  0
LINE
  5
662
100
AcDbEntity
  8
0
100
AcDbLine
 62
7
  6
CONTINUOUS
 10
14.3344125998
 20
20.4250826656
 11
13.8432416997
 21
19.1329139909
  0
LINE
  5
663
100
AcDbEntity
  8
0
100
AcDbLine
 62
7
  6
CONTINUOUS
 10
14.4118691691
 20
22.309420015
 11
13.8088571209
 21
21.4714682078
  0
LINE
  5
664
100
AcDbEntity
  8
0
100
AcDbLine
 62
7
  6
CONTINUOUS
 10
13.9657283596
 20
21.4714682078
 11
14.3805438679
 21
22.0480496078
  0
LINE
  5
665
100
AcDbEntity
  8
0
100
AcDbLine
 62
7
  6
CONTINUOUS
 10
10.6784072279
 20
22.0058338231
 11
10.0184956751
 21
21.1722872036
  0
LINE
  5
666
100
AcDbEntity
  8
0
100
AcDbLine
 62
7
  6
CONTINUOUS
 10
7.6779630076
 20
33.4974729621
 11
8.1265610076
 21
33.4974729621
  0
LINE
  5
667
100
AcDbEntity
  8
0
100
AcDbLine
 62
7
  6
CONTINUOUS
 10
8.0144110076
 20
33.6096229621
 11
7.7901130076
 21
33.6096229621
  0
LINE
  5
668
100
AcDbEntity
  8
0
100
AcDbLine
 62
7
  6
CONTINUOUS
 10
7.7901130076
 20
34.0582209621
 11
8.0144110076
 21
34.0582209621
  0
LINE
  5
669
100
AcDbEntity
  8
0
100
AcDbLine
 62
7
  6
CONTINUOUS
 10
8.1265610076
 20
34.0956049621
 11
9.3707154613
 21
34.0956049308
  0
LINE
  5
66A
100
AcDbEntity
  8
0
100
AcDbLine
 62
7
  6
CONTINUOUS
 10
9.3707152533
 20
34.1703710052
 11
7.7464740076
 21
34.1703709621
  0
LINE
  5
66B
100
AcDbEntity
  8
0
100
AcDbLine
 62
7
  6
CONTINUOUS
 10
8.9023570076
 20
36.5522619621
 11
10.1282590076
 21
35.3263589621
  0
LINE
  5
66C
100
AcDbEntity
  8
0
100
AcDbLine
 62
7
  6
CONTINUOUS
 10
10.1972730076
 20
35.2573459621
 11
12.2668430076
 21
33.1877749621
  0
LINE
  5
66D
100
AcDbEntity
  8
0
100
AcDbLine
 62
7
  6
CONTINUOUS
 10
5.4321350076
 20
40.0224829621
 11
7.3250360076
 21
38.1295829621
  0
LINE
  5
66E
100
AcDbEntity
  8
0
100
AcDbLine
 62
7
  6
CONTINUOUS
 10
7.4072830076
 20
38.0473349621
 11
8.7966220076
 21
36.6579969621
  0
LINE
  5
66F
100
AcDbEntity
  8
0
100
AcDbLine
 62
7
  6
CONTINUOUS
 10
10.1452710076
 20
35.5208179621
 11
9.0080920076
 21
36.6579969621
  0
LINE
  5
670
100
AcDbEntity
  8
0
100
AcDbLine
 62
7
  6
CONTINUOUS
 10
8.9023570076
 20
36.7637319621
 11
7.3870080076
 21
38.2790809621
  0
LINE
  5
671
100
AcDbEntity
  8
0
100
AcDbLine
 62
7
  6
CONTINUOUS
 10
12.3725790076
 20
33.2935109621
 11
10.2142860076
 21
35.4518029621
  0
LINE
  5
672
100
AcDbEntity
  8
0
100
AcDbLine
 62
7
  6
CONTINUOUS
 10
7.3047610076
 20
38.3613289621
 11
5.5378710076
 21
40.1282189621
  0
LINE
  5
673
100
AcDbEntity
  8
DRAFT
100
AcDbLine
 62
7
  6
CONTINUOUS
 10
18.9106173594
 20
46.2348910672
 11
18.9106173594
 21
44.1672513403
  0
LINE
  5
674
100
AcDbEntity
  8
DRAFT
100
AcDbLine
 62
7
  6
CONTINUOUS
 10
20.6606173594
 20
44.1672513403
 11
20.6606173594
 21
46.2348910672
  0
LINE
  5
675
100
AcDbEntity
  8
0
100
AcDbLine
 62
7
  6
CONTINUOUS
 10
16.5780872389
 20
20.4250826656
 11
16.2222514627
 21
19.4887498865
  0
LINE
  5
676
100
AcDbEntity
  8
0
100
AcDbLine
 62
7
  6
CONTINUOUS
 10
16.2469691019
 20
19.1329139909
 11
16.7623681759
 21
20.4250826656
  0
LINE
  5
677
100
AcDbEntity
  8
DRAFT
100
AcDbLine
 62
7
  6
CONTINUOUS
 10
5.5995246321
 20
-1.1714115927
 11
5.2606173594
 21
-1.7584162082
  0
LINE
  5
678
100
AcDbEntity
  8
DRAFT
100
AcDbLine
 62
7
  6
CONTINUOUS
 10
5.6606173594
 20
-1.1877813397
 11
5.2606173594
 21
-1.8806016627
  0
LINE
  5
679
100
AcDbEntity
  8
0
100
AcDbLine
 62
7
  6
CONTINUOUS
 10
8.4163750076
 20
37.6470059621
 11
9.7247870076
 21
37.6470059621
  0
LINE
  5
67A
100
AcDbEntity
  8
0
100
AcDbLine
 62
7
  6
CONTINUOUS
 10
9.6500200076
 20
37.7217729621
 11
8.4911420076
 21
37.7217729621
  0
LINE
  5
67B
100
AcDbEntity
  8
0
100
AcDbLine
 62
7
  6
CONTINUOUS
 10
8.4911420076
 20
37.9460729621
 11
9.6500200076
 21
37.9460729621
  0
LINE
  5
67C
100
AcDbEntity
  8
0
100
AcDbLine
 62
7
  6
CONTINUOUS
 10
9.7247870076
 20
38.0208379621
 11
8.4163750076
 21
38.0208379621
  0
LINE
  5
67D
100
AcDbEntity
  8
0
100
AcDbLine
 62
7
  6
CONTINUOUS
 10
10.4390470076
 20
38.0208379621
 11
11.1079650076
 21
38.0208379621
  0
LINE
  5
67E
100
AcDbEntity
  8
0
100
AcDbLine
 62
7
  6
CONTINUOUS
 10
11.0331980076
 20
38.0956049621
 11
10.4457000076
 21
38.0956049621
  0
LINE
  5
67F
100
AcDbEntity
  8
0
100
AcDbLine
 62
7
  6
CONTINUOUS
 10
10.2855350076
 20
38.7685009621
 11
10.4294070076
 21
38.7685009621
  0
LINE
  5
680
100
AcDbEntity
  8
0
100
AcDbLine
 62
7
  6
CONTINUOUS
 10
10.5044600076
 20
38.7685009621
 11
10.9071260076
 21
38.7685009621
  0
LINE
  5
681
100
AcDbEntity
  8
0
100
AcDbLine
 62
7
  6
CONTINUOUS
 10
10.9818930076
 20
38.8432679621
 11
10.5110000076
 21
38.8432679621
  0
LINE
  5
682
100
AcDbEntity
  8
0
100
AcDbLine
 62
7
  6
CONTINUOUS
 10
10.4359480076
 20
38.8432679621
 11
10.2107680076
 21
38.8432679621
  0
LINE
  5
683
100
AcDbEntity
  8
0
100
AcDbLine
 62
7
  6
CONTINUOUS
 10
6.6219840076
 20
39.1423329621
 11
7.2364310076
 21
39.1423329621
  0
LINE
  5
684
100
AcDbEntity
  8
0
100
AcDbLine
 62
7
  6
CONTINUOUS
 10
7.3114840076
 20
39.1423329621
 11
10.4621140076
 21
39.1423329621
  0
LINE
  5
685
100
AcDbEntity
  8
0
100
AcDbLine
 62
7
  6
CONTINUOUS
 10
10.5371650076
 20
39.1423329621
 11
10.7715150076
 21
39.1423329621
  0
LINE
  5
686
100
AcDbEntity
  8
0
100
AcDbLine
 62
7
  6
CONTINUOUS
 10
10.2565639981
 20
39.4413989599
 11
7.7808620076
 21
39.4413989621
  0
LINE
  5
687
100
AcDbEntity
  8
0
100
AcDbLine
 62
7
  6
CONTINUOUS
 10
7.4070300076
 20
39.4413989621
 11
7.2853190076
 21
39.4413989621
  0
LINE
  5
688
100
AcDbEntity
  8
0
100
AcDbLine
 62
7
  6
CONTINUOUS
 10
7.2102670076
 20
39.4413989621
 11
6.6219840076
 21
39.4413989621
  0
LINE
  5
689
100
AcDbEntity
  8
0
100
AcDbLine
 62
7
  6
CONTINUOUS
 10
7.7060950076
 20
39.5161659621
 11
7.4817970076
 21
39.5161659621
  0
LINE
  5
68A
100
AcDbEntity
  8
0
100
AcDbLine
 62
7
  6
CONTINUOUS
 10
8.5659090076
 20
39.7404649621
 11
9.5752540076
 21
39.7404649621
  0
LINE
  5
68B
100
AcDbEntity
  8
0
100
AcDbLine
 62
7
  6
CONTINUOUS
 10
9.5004870076
 20
39.8152309621
 11
8.6406750076
 21
39.8152309621
  0
LINE
  5
68C
100
AcDbEntity
  8
0
100
AcDbLine
 62
7
  6
CONTINUOUS
 10
7.4817970076
 20
40.0021459621
 11
7.7060950076
 21
40.0021459621
  0
LINE
  5
68D
100
AcDbEntity
  8
0
100
AcDbLine
 62
7
  6
CONTINUOUS
 10
7.7808620076
 20
40.0769129621
 11
7.4070300076
 21
40.0769129621
  0
LINE
  5
68E
100
AcDbEntity
  8
0
100
AcDbLine
 62
7
  6
CONTINUOUS
 10
8.6406750076
 20
40.1142959621
 11
9.5004870076
 21
40.1142959621
  0
LINE
  5
68F
100
AcDbEntity
  8
0
100
AcDbLine
 62
7
  6
CONTINUOUS
 10
9.5752540076
 20
40.1890629621
 11
8.5659090076
 21
40.1890629621
  0
LINE
  5
690
100
AcDbEntity
  8
0
100
AcDbLine
 62
7
  6
CONTINUOUS
 10
12.3725790076
 20
40.0224829621
 11
12.2668430076
 21
40.1282189621
  0
LINE
  5
691
100
AcDbEntity
  8
DRAFT
100
AcDbLine
 62
7
  6
CONTINUOUS
 10
21.6257072295
 20
-16.5327486597
 11
21.6257072295
 21
-18.3827486597
  0
LINE
  5
692
100
AcDbEntity
  8
DRAFT
100
AcDbLine
 62
7
  6
CONTINUOUS
 10
21.6606173594
 20
-16.5327486597
 11
21.6606173594
 21
-18.3827486597
  0
LINE
  5
693
100
AcDbEntity
  8
DRAFT
100
AcDbLine
 62
7
  6
CONTINUOUS
 10
22.1606173594
 20
46.2348910672
 11
22.1606173594
 21
44.1672513403
  0
LINE
  5
694
100
AcDbEntity
  8
0
100
AcDbLine
 62
7
  6
CONTINUOUS
 10
23.1556173594
 20
-25.2827486597
 11
23.1556173594
 21
-18.9827486597
  0
LINE
  5
695
100
AcDbEntity
  8
DRAFT
100
AcDbLine
 62
7
  6
CONTINUOUS
 10
23.9106173594
 20
44.1672513403
 11
23.9106173594
 21
46.2348910672
  0
LINE
  5
696
100
AcDbEntity
  8
DRAFT
100
AcDbLine
 62
7
  6
CONTINUOUS
 10
25.4280724243
 20
63.4172513403
 11
25.4402909698
 21
62.7172513403
  0
LINE
  5
697
100
AcDbEntity
  8
DRAFT
100
AcDbLine
 62
7
  6
CONTINUOUS
 10
25.3222162165
 20
-4.2827486597
 11
25.3222162165
 21
0.7172513403
  0
LINE
  5
698
100
AcDbEntity
  8
DRAFT
100
AcDbLine
 62
7
  6
CONTINUOUS
 10
25.3222162165
 20
55.7172513403
 11
25.3222162165
 21
60.7172513403
  0
LINE
  5
699
100
AcDbEntity
  8
DRAFT
100
AcDbLine
 62
7
  6
CONTINUOUS
 10
25.3556173594
 20
-25.2827486597
 11
25.3556173594
 21
-18.2574152942
  0
LINE
  5
69A
100
AcDbEntity
  8
DRAFT
100
AcDbLine
 62
7
  6
CONTINUOUS
 10
25.3606173594
 20
60.7172513403
 11
25.3606173594
 21
55.7172513403
  0
LINE
  5
69B
100
AcDbEntity
  8
DRAFT
100
AcDbLine
 62
7
  6
CONTINUOUS
 10
25.3606173594
 20
0.7172513403
 11
25.3606173594
 21
-4.2827486597
  0
LINE
  5
69C
100
AcDbEntity
  8
DRAFT
100
AcDbLine
 62
7
  6
CONTINUOUS
 10
25.3990185022
 20
55.7172513403
 11
25.3990185022
 21
52.1125209507
  0
LINE
  5
69D
100
AcDbEntity
  8
DRAFT
100
AcDbLine
 62
7
  6
CONTINUOUS
 10
25.3990185022
 20
4.3219817299
 11
25.3990185022
 21
0.7172513403
  0
LINE
  5
69E
100
AcDbEntity
  8
DRAFT
100
AcDbLine
 62
7
  6
CONTINUOUS
 10
25.3990185022
 20
-7.8874790493
 11
25.3990185022
 21
-4.2827486597
  0
LINE
  5
69F
100
AcDbEntity
  8
DRAFT
100
AcDbLine
 62
7
  6
CONTINUOUS
 10
25.3990185022
 20
60.7172513403
 11
25.3990185022
 21
64.3219817299
  0
LINE
  5
6A0
100
AcDbEntity
  8
DRAFT
100
AcDbLine
 62
7
  6
CONTINUOUS
 10
25.4280724243
 20
64.2434339377
 11
25.4280724243
 21
63.4172513403
  0
LINE
  5
6A1
100
AcDbEntity
  8
DRAFT
100
AcDbLine
 62
7
  6
CONTINUOUS
 10
25.4280724243
 20
-6.9827486597
 11
25.4280724243
 21
-7.8089312571
  0
LINE
  5
6A2
100
AcDbEntity
  8
DRAFT
100
AcDbLine
 62
7
  6
CONTINUOUS
 10
25.4402909698
 20
62.7172513403
 11
25.4402909698
 21
60.7172513403
  0
LINE
  5
6A3
100
AcDbEntity
  8
DRAFT
100
AcDbLine
 62
7
  6
CONTINUOUS
 10
25.4402909698
 20
-4.2827486597
 11
25.4402909698
 21
-6.2827486597
  0
LINE
  5
6A4
100
AcDbEntity
  8
0
100
AcDbLine
 62
7
  6
CONTINUOUS
 10
25.4786921126
 20
55.7172513403
 11
25.4786921126
 21
52.1963052624
  0
LINE
  5
6A5
100
AcDbEntity
  8
0
100
AcDbLine
 62
7
  6
CONTINUOUS
 10
25.4786921126
 20
4.2381974182
 11
25.4786921126
 21
0.7172513403
  0
LINE
  5
6A6
100
AcDbEntity
  8
DRAFT
100
AcDbLine
 62
7
  6
CONTINUOUS
 10
25.5556467237
 20
-4.324187979
 11
25.5556467237
 21
-4.2827486597
  0
LINE
  5
6A7
100
AcDbEntity
  8
DRAFT
100
AcDbLine
 62
7
  6
CONTINUOUS
 10
25.5556467237
 20
0.7172513403
 11
25.5556467237
 21
0.7586906596
  0
LINE
  5
6A8
100
AcDbEntity
  8
DRAFT
100
AcDbLine
 62
7
  6
CONTINUOUS
 10
25.5556467237
 20
55.675812021
 11
25.5556467237
 21
55.7172513403
  0
LINE
  5
6A9
100
AcDbEntity
  8
DRAFT
100
AcDbLine
 62
7
  6
CONTINUOUS
 10
25.5556467237
 20
60.7172513403
 11
25.5556467237
 21
60.7586906596
  0
LINE
  5
6AA
100
AcDbEntity
  8
DRAFT
100
AcDbLine
 62
7
  6
CONTINUOUS
 10
25.5589854113
 20
64.2434339377
 11
25.5589854113
 21
64.1172513403
  0
LINE
  5
6AB
100
AcDbEntity
  8
DRAFT
100
AcDbLine
 62
7
  6
CONTINUOUS
 10
25.5589854113
 20
52.3172513403
 11
25.5589854113
 21
52.1963052624
  0
LINE
  5
6AC
100
AcDbEntity
  8
DRAFT
100
AcDbLine
 62
7
  6
CONTINUOUS
 10
25.5589854113
 20
4.2381974182
 11
25.5589854113
 21
4.1172513403
  0
LINE
  5
6AD
100
AcDbEntity
  8
DRAFT
100
AcDbLine
 62
7
  6
CONTINUOUS
 10
25.5589854113
 20
-7.6827486597
 11
25.5589854113
 21
-7.8089312571
  0
LINE
  5
6AE
100
AcDbEntity
  8
DRAFT
100
AcDbLine
 62
7
  6
CONTINUOUS
 10
25.6096231674
 20
60.7681353134
 11
25.6096231674
 21
55.6663673671
  0
LINE
  5
6AF
100
AcDbEntity
  8
DRAFT
100
AcDbLine
 62
7
  6
CONTINUOUS
 10
25.6096231674
 20
0.7681353134
 11
25.6096231674
 21
-4.3336326329
  0
LINE
  5
6B0
100
AcDbEntity
  8
0
100
AcDbLine
 62
7
  6
CONTINUOUS
 10
25.6302994858
 20
60.9172513403
 11
25.6302994858
 21
55.5172513403
  0
LINE
  5
6B1
100
AcDbEntity
  8
0
100
AcDbLine
 62
7
  6
CONTINUOUS
 10
25.6302994858
 20
-4.4827486597
 11
25.6302994858
 21
0.9172513403
  0
LINE
  5
6B2
100
AcDbEntity
  8
RACCORDO
100
AcDbLine
 62
7
  6
CONTINUOUS
 10
25.6427697229
 20
-6.6827486597
 11
25.6427697229
 21
-4.4827486597
  0
LINE
  5
6B3
100
AcDbEntity
  8
RACCORDO
100
AcDbLine
 62
7
  6
CONTINUOUS
 10
25.6427697229
 20
0.9172513403
 11
25.6427697229
 21
3.1172513403
  0
LINE
  5
6B4
100
AcDbEntity
  8
RACCORDO
100
AcDbLine
 62
7
  6
CONTINUOUS
 10
25.6427697229
 20
53.3172513403
 11
25.6427697229
 21
55.5172513403
  0
LINE
  5
6B5
100
AcDbEntity
  8
RACCORDO
100
AcDbLine
 62
7
  6
CONTINUOUS
 10
25.6427697229
 20
60.9172513403
 11
25.6427697229
 21
63.1172513403
  0
LINE
  5
6B6
100
AcDbEntity
  8
0
100
AcDbLine
 62
7
  6
CONTINUOUS
 10
26.0427697229
 20
60.9172513403
 11
26.0427697229
 21
55.5172513403
  0
LINE
  5
6B7
100
AcDbEntity
  8
0
100
AcDbLine
 62
7
  6
CONTINUOUS
 10
26.0427697229
 20
-4.4827486597
 11
26.0427697229
 21
0.9172513403
  0
LINE
  5
6B8
100
AcDbEntity
  8
DRAFT
100
AcDbLine
 62
7
  6
CONTINUOUS
 10
26.1320695672
 20
64.2434339377
 11
26.1320695672
 21
64.1172513403
  0
LINE
  5
6B9
100
AcDbEntity
  8
DRAFT
100
AcDbLine
 62
7
  6
CONTINUOUS
 10
26.1320695672
 20
52.3172513403
 11
26.1320695672
 21
52.1963052624
  0
LINE
  5
6BA
100
AcDbEntity
  8
DRAFT
100
AcDbLine
 62
7
  6
CONTINUOUS
 10
26.1320695672
 20
4.2381974182
 11
26.1320695672
 21
4.1172513403
  0
LINE
  5
6BB
100
AcDbEntity
  8
DRAFT
100
AcDbLine
 62
7
  6
CONTINUOUS
 10
26.1320695672
 20
-7.6827486597
 11
26.1320695672
 21
-7.8089312571
  0
LINE
  5
6BC
100
AcDbEntity
  8
DRAFT
100
AcDbLine
 62
7
  6
CONTINUOUS
 10
26.1495246321
 20
4.2172513403
 11
26.1495246321
 21
4.1172513403
  0
LINE
  5
6BD
100
AcDbEntity
  8
DRAFT
100
AcDbLine
 62
7
  6
CONTINUOUS
 10
26.1495246321
 20
-7.6827486597
 11
26.1495246321
 21
-7.7827486597
  0
LINE
  5
6BE
100
AcDbEntity
  8
DRAFT
100
AcDbLine
 62
7
  6
CONTINUOUS
 10
26.1495246321
 20
52.2172513403
 11
26.1495246321
 21
52.3172513403
  0
LINE
  5
6BF
100
AcDbEntity
  8
DRAFT
100
AcDbLine
 62
7
  6
CONTINUOUS
 10
26.1495246321
 20
64.1172513403
 11
26.1495246321
 21
64.2172513403
  0
LINE
  5
6C0
100
AcDbEntity
  8
RACCORDO
100
AcDbLine
 62
7
  6
CONTINUOUS
 10
26.7058869698
 20
-25.578170575
 11
26.7058869698
 21
-7.8874790493
  0
LINE
  5
6C1
100
AcDbEntity
  8
DRAFT
100
AcDbLine
 62
7
  6
CONTINUOUS
 10
26.7058869698
 20
4.3219817299
 11
26.7058869698
 21
7.6528046646
  0
LINE
  5
6C2
100
AcDbEntity
  8
DRAFT
100
AcDbLine
 62
7
  6
CONTINUOUS
 10
26.7058869698
 20
46.281698016
 11
26.7058869698
 21
52.1125209507
  0
LINE
  5
6C3
100
AcDbEntity
  8
RACCORDO
100
AcDbLine
 62
7
  6
CONTINUOUS
 10
26.7058869698
 20
64.3219817299
 11
26.7058869698
 21
82.0126732556
  0
LINE
  5
6C4
100
AcDbEntity
  8
RACCORDO
100
AcDbLine
 62
7
  6
CONTINUOUS
 10
26.7093779828
 20
-6.6827486597
 11
26.7093779828
 21
3.1172513403
  0
LINE
  5
6C5
100
AcDbEntity
  8
RACCORDO
100
AcDbLine
 62
7
  6
CONTINUOUS
 10
26.7093779828
 20
53.3172513403
 11
26.7093779828
 21
63.1172513403
  0
LINE
  5
6C6
100
AcDbEntity
  8
DRAFT
100
AcDbLine
 62
7
  6
CONTINUOUS
 10
26.7407970997
 20
-4.4327486597
 11
26.7407970997
 21
0.8672513403
  0
LINE
  5
6C7
100
AcDbEntity
  8
DRAFT
100
AcDbLine
 62
7
  6
CONTINUOUS
 10
26.7407970997
 20
55.5672513403
 11
26.7407970997
 21
60.8672513403
  0
LINE
  5
6C8
100
AcDbEntity
  8
SMUSSO
100
AcDbLine
 62
7
  6
CONTINUOUS
 10
26.7669796971
 20
9.6362318921
 11
26.7669796971
 21
7.8362318921
  0
LINE
  5
6C9
100
AcDbEntity
  8
DRAFT
100
AcDbLine
 62
7
  6
CONTINUOUS
 10
26.7983988139
 20
60.8672513403
 11
26.7983988139
 21
55.5672513403
  0
LINE
  5
6CA
100
AcDbEntity
  8
DRAFT
100
AcDbLine
 62
7
  6
CONTINUOUS
 10
26.7983988139
 20
0.8672513403
 11
26.7983988139
 21
-4.4327486597
  0
LINE
  5
6CB
100
AcDbEntity
  8
RACCORDO
100
AcDbLine
 62
7
  6
CONTINUOUS
 10
26.8106173594
 20
-25.6829009646
 11
26.8106173594
 21
-7.6827486597
  0
LINE
  5
6CC
100
AcDbEntity
  8
DRAFT
100
AcDbLine
 62
7
  6
CONTINUOUS
 10
26.8106173594
 20
-7.6827486597
 11
26.8106173594
 21
64.1172513403
  0
LINE
  5
6CD
100
AcDbEntity
  8
RACCORDO
100
AcDbLine
 62
7
  6
CONTINUOUS
 10
26.8106173594
 20
64.1172513403
 11
26.8106173594
 21
82.1174036451
  0
LINE
  5
6CE
100
AcDbEntity
  8
DRAFT
100
AcDbLine
 62
7
  6
CONTINUOUS
 10
25.4402909698
 20
-6.2827486597
 11
25.4280724243
 21
-6.9827486597
  0
LINE
  5
6CF
100
AcDbEntity
  8
SMUSSO
100
AcDbLine
 62
7
  6
CONTINUOUS
 10
26.7798740045
 20
10.3749462723
 11
26.7669796971
 21
9.6362318921
  0
LINE
  5
6D0
100
AcDbEntity
  8
0
100
AcDbLine
 62
7
  6
CONTINUOUS
 10
-1.0893826406
 20
44.1672513403
 11
-2.8393826406
 21
44.1672513403
  0
LINE
  5
6D1
100
AcDbEntity
  8
0
100
AcDbLine
 62
7
  6
CONTINUOUS
 10
-4.3393826406
 20
44.1672513403
 11
-6.0893826406
 21
44.1672513403
  0
LINE
  5
6D2
100
AcDbEntity
  8
0
100
AcDbLine
 62
7
  6
CONTINUOUS
 10
18.9106173594
 20
44.1672513403
 11
20.6606173594
 21
44.1672513403
  0
LINE
  5
6D3
100
AcDbEntity
  8
0
100
AcDbLine
 62
7
  6
CONTINUOUS
 10
22.1606173594
 20
44.1672513403
 11
23.9106173594
 21
44.1672513403
  0
LINE
  5
6D4
100
AcDbEntity
  8
DRAFT
100
AcDbLine
 62
7
  6
CONTINUOUS
 10
26.8106173594
 20
45.9672513403
 11
23.9106173594
 21
45.9672513403
  0
LINE
  5
6D5
100
AcDbEntity
  8
DRAFT
100
AcDbLine
 62
7
  6
CONTINUOUS
 10
22.1606173594
 20
45.9672513403
 11
20.6606173594
 21
45.9672513403
  0
LINE
  5
6D6
100
AcDbEntity
  8
DRAFT
100
AcDbLine
 62
7
  6
CONTINUOUS
 10
18.9106173594
 20
45.9672513403
 11
-1.0893826406
 21
45.9672513403
  0
LINE
  5
6D7
100
AcDbEntity
  8
DRAFT
100
AcDbLine
 62
7
  6
CONTINUOUS
 10
-2.8393826406
 20
45.9672513403
 11
-4.3393826406
 21
45.9672513403
  0
LINE
  5
6D8
100
AcDbEntity
  8
DRAFT
100
AcDbLine
 62
7
  6
CONTINUOUS
 10
-6.0893826406
 20
45.9672513403
 11
-8.9893826406
 21
45.9672513403
  0
LINE
  5
6D9
100
AcDbEntity
  8
DRAFT
100
AcDbLine
 62
7
  6
CONTINUOUS
 10
-1.0893826406
 20
46.2348910672
 11
-2.8393826406
 21
46.2348910672
  0
LINE
  5
6DA
100
AcDbEntity
  8
DRAFT
100
AcDbLine
 62
7
  6
CONTINUOUS
 10
-4.3393826406
 20
46.2348910672
 11
-6.0893826406
 21
46.2348910672
  0
LINE
  5
6DB
100
AcDbEntity
  8
DRAFT
100
AcDbLine
 62
7
  6
CONTINUOUS
 10
18.9106173594
 20
46.2348910672
 11
20.6606173594
 21
46.2348910672
  0
LINE
  5
6DC
100
AcDbEntity
  8
DRAFT
100
AcDbLine
 62
7
  6
CONTINUOUS
 10
22.1606173594
 20
46.2348910672
 11
23.9106173594
 21
46.2348910672
  0
LINE
  5
6DD
100
AcDbEntity
  8
DRAFT
100
AcDbLine
 62
7
  6
CONTINUOUS
 10
26.7058869698
 20
46.281698016
 11
-8.8846522511
 21
46.281698016
  0
LINE
  5
6DE
100
AcDbEntity
  8
SMUSSO
100
AcDbLine
 62
7
  6
CONTINUOUS
 10
26.7798740045
 20
10.3749462723
 11
26.8106173594
 21
10.4672513403
  0
LINE
  5
6DF
100
AcDbEntity
  8
DRAFT
100
AcDbLine
 62
7
  6
CONTINUOUS
 10
26.7058869698
 20
7.6528046646
 11
26.7669796971
 21
7.8362318921
  0
LINE
  5
6E0
100
AcDbEntity
  8
DRAFT
100
AcDbLine
 62
7
  6
CONTINUOUS
 10
12.1606173594
 20
-5.7777159797
 11
12.5606173594
 21
-5.0848956567
  0
LINE
  5
6E1
100
AcDbEntity
  8
DRAFT
100
AcDbLine
 62
7
  6
CONTINUOUS
 10
12.2217100866
 20
-5.7940857267
 11
12.5606173594
 21
-5.2070811112
  0
LINE
  5
6E2
100
AcDbEntity
  8
DRAFT
100
AcDbLine
 62
7
  6
CONTINUOUS
 10
26.7058869698
 20
46.281698016
 11
26.8106173594
 21
45.9672513403
  0
LINE
  5
6E3
100
AcDbEntity
  8
RACCORDO
100
AcDbLine
 62
250
  6
CONTINUOUS
 10
-8.9893826406
 20
-25.6829009646
 11
-8.8846522511
 21
-25.578170575
  0
LINE
  5
6E4
100
AcDbEntity
  8
RACCORDO
100
AcDbLine
 62
250
  6
CONTINUOUS
 10
-7.9895349455
 20
-26.6827486597
 11
-7.8848045559
 21
-26.5780182701
  0
LINE
  5
6E5
100
AcDbEntity
  8
DRAFT
100
AcDbLine
 62
7
  6
CONTINUOUS
 10
-7.6417478354
 20
-26.6827486597
 11
-7.5893826406
 21
-26.6303834649
  0
LINE
  5
6E6
100
AcDbEntity
  8
DRAFT
100
AcDbLine
 62
7
  6
CONTINUOUS
 10
26.7058869698
 20
52.1125209507
 11
25.3990185022
 21
52.1125209507
  0
LINE
  5
6E7
100
AcDbEntity
  8
DRAFT
100
AcDbLine
 62
7
  6
CONTINUOUS
 10
-8.8846522511
 20
52.1125209507
 11
-7.5777837835
 21
52.1125209507
  0
LINE
  5
6E8
100
AcDbEntity
  8
RACCORDO
100
AcDbLine
 62
7
  6
CONTINUOUS
 10
-7.7377506925
 20
52.3172513403
 11
-8.9893826406
 21
52.3172513403
  0
LINE
  5
6E9
100
AcDbEntity
  8
RACCORDO
100
AcDbLine
 62
7
  6
CONTINUOUS
 10
25.5589854113
 20
52.3172513403
 11
26.8106173594
 21
52.3172513403
  0
LINE
  5
6EA
100
AcDbEntity
  8
RACCORDO
100
AcDbLine
 62
250
  6
CONTINUOUS
 10
-8.888143264
 20
53.3172513403
 11
-7.8215350042
 21
53.3172513403
  0
LINE
  5
6EB
100
AcDbEntity
  8
RACCORDO
100
AcDbLine
 62
250
  6
CONTINUOUS
 10
25.6427697229
 20
53.3172513403
 11
26.7093779828
 21
53.3172513403
  0
LINE
  5
6EC
100
AcDbEntity
  8
0
100
AcDbLine
 62
7
  6
CONTINUOUS
 10
-7.809064767
 20
55.5172513403
 11
-8.2215350042
 21
55.5172513403
  0
LINE
  5
6ED
100
AcDbEntity
  8
0
100
AcDbLine
 62
7
  6
CONTINUOUS
 10
25.6302994858
 20
55.5172513403
 11
26.0427697229
 21
55.5172513403
  0
LINE
  5
6EE
100
AcDbEntity
  8
DRAFT
100
AcDbLine
 62
7
  6
CONTINUOUS
 10
26.7983988139
 20
55.5672513403
 11
26.7407970997
 21
55.5672513403
  0
LINE
  5
6EF
100
AcDbEntity
  8
DRAFT
100
AcDbLine
 62
7
  6
CONTINUOUS
 10
-8.9195623809
 20
55.5672513403
 11
-8.9771640952
 21
55.5672513403
  0
LINE
  5
6F0
100
AcDbEntity
  8
RACCORDO
100
AcDbLine
 62
250
  6
CONTINUOUS
 10
-8.8846522511
 20
82.0126732556
 11
-8.9893826406
 21
82.1174036451
  0
LINE
  5
6F1
100
AcDbEntity
  8
RACCORDO
100
AcDbLine
 62
250
  6
CONTINUOUS
 10
-7.8848045559
 20
83.0125209507
 11
-7.9895349455
 21
83.1172513403
  0
LINE
  5
6F2
100
AcDbEntity
  8
DRAFT
100
AcDbLine
 62
7
  6
CONTINUOUS
 10
25.5556467237
 20
60.7586906596
 11
25.6096231674
 21
60.7681353134
  0
LINE
  5
6F3
100
AcDbEntity
  8
DRAFT
100
AcDbLine
 62
7
  6
CONTINUOUS
 10
-7.7883884486
 20
55.6663673671
 11
-7.734412005
 21
55.675812021
  0
LINE
  5
6F4
100
AcDbEntity
  8
DRAFT
100
AcDbLine
 62
7
  6
CONTINUOUS
 10
-8.9771640952
 20
55.5672513403
 11
-8.9199986054
 21
55.572245035
  0
LINE
  5
6F5
100
AcDbEntity
  8
DRAFT
100
AcDbLine
 62
7
  6
CONTINUOUS
 10
26.7983988139
 20
60.8672513403
 11
26.7412333242
 21
60.8622576456
  0
LINE
  5
6F6
100
AcDbEntity
  8
DRAFT
100
AcDbLine
 62
7
  6
CONTINUOUS
 10
-7.5009814978
 20
55.7172513403
 11
-7.7883884486
 21
55.7172513403
  0
LINE
  5
6F7
100
AcDbEntity
  8
DRAFT
100
AcDbLine
 62
7
  6
CONTINUOUS
 10
25.3222162165
 20
55.7172513403
 11
25.6096231674
 21
55.7172513403
  0
LINE
  5
6F8
100
AcDbEntity
  8
DRAFT
100
AcDbLine
 62
7
  6
CONTINUOUS
 10
26.7983988139
 20
55.5672513403
 11
26.7412333242
 21
55.572245035
  0
LINE
  5
6F9
100
AcDbEntity
  8
DRAFT
100
AcDbLine
 62
7
  6
CONTINUOUS
 10
-8.9771640952
 20
60.8672513403
 11
-8.9199986054
 21
60.8622576456
  0
LINE
  5
6FA
100
AcDbEntity
  8
DRAFT
100
AcDbLine
 62
7
  6
CONTINUOUS
 10
-7.734412005
 20
60.7586906596
 11
-7.7883884486
 21
60.7681353134
  0
LINE
  5
6FB
100
AcDbEntity
  8
DRAFT
100
AcDbLine
 62
7
  6
CONTINUOUS
 10
25.6096231674
 20
55.6663673671
 11
25.5556467237
 21
55.675812021
  0
LINE
  5
6FC
100
AcDbEntity
  8
RACCORDO
100
AcDbLine
 62
250
  6
CONTINUOUS
 10
4.5106173594
 20
-21.3828248121
 11
4.5856741386
 21
-21.3077680329
  0
LINE
  5
6FD
100
AcDbEntity
  8
RACCORDO
100
AcDbLine
 62
250
  6
CONTINUOUS
 10
5.010541207
 20
-21.8827486597
 11
5.0855979861
 21
-21.8076918805
  0
LINE
  5
6FE
100
AcDbEntity
  8
DRAFT
100
AcDbLine
 62
7
  6
CONTINUOUS
 10
-7.5009814978
 20
60.7172513403
 11
-7.7883884486
 21
60.7172513403
  0
LINE
  5
6FF
100
AcDbEntity
  8
DRAFT
100
AcDbLine
 62
7
  6
CONTINUOUS
 10
25.3222162165
 20
60.7172513403
 11
25.6096231674
 21
60.7172513403
  0
LINE
  5
700
100
AcDbEntity
  8
DRAFT
100
AcDbLine
 62
7
  6
CONTINUOUS
 10
-8.9771640952
 20
60.8672513403
 11
-8.9195623809
 21
60.8672513403
  0
LINE
  5
701
100
AcDbEntity
  8
DRAFT
100
AcDbLine
 62
7
  6
CONTINUOUS
 10
26.7407970997
 20
60.8672513403
 11
26.7983988139
 21
60.8672513403
  0
LINE
  5
702
100
AcDbEntity
  8
0
100
AcDbLine
 62
7
  6
CONTINUOUS
 10
-7.809064767
 20
60.9172513403
 11
-8.2215350042
 21
60.9172513403
  0
LINE
  5
703
100
AcDbEntity
  8
0
100
AcDbLine
 62
7
  6
CONTINUOUS
 10
25.6302994858
 20
60.9172513403
 11
26.0427697229
 21
60.9172513403
  0
LINE
  5
704
100
AcDbEntity
  8
DRAFT
100
AcDbLine
 62
7
  6
CONTINUOUS
 10
25.4402909698
 20
62.7172513403
 11
25.3990185022
 21
62.7172513403
  0
LINE
  5
705
100
AcDbEntity
  8
DRAFT
100
AcDbLine
 62
7
  6
CONTINUOUS
 10
-7.5777837835
 20
62.7172513403
 11
-7.619056251
 21
62.7172513403
  0
LINE
  5
706
100
AcDbEntity
  8
RACCORDO
100
AcDbLine
 62
250
  6
CONTINUOUS
 10
-8.888143264
 20
63.1172513403
 11
-7.8215350042
 21
63.1172513403
  0
LINE
  5
707
100
AcDbEntity
  8
RACCORDO
100
AcDbLine
 62
250
  6
CONTINUOUS
 10
25.6427697229
 20
63.1172513403
 11
26.7093779828
 21
63.1172513403
  0
LINE
  5
708
100
AcDbEntity
  8
DRAFT
100
AcDbLine
 62
7
  6
CONTINUOUS
 10
26.7058869698
 20
-7.8874790493
 11
26.8106173594
 21
-7.7827486597
  0
LINE
  5
709
100
AcDbEntity
  8
DRAFT
100
AcDbLine
 62
7
  6
CONTINUOUS
 10
25.4280724243
 20
63.4172513403
 11
25.3990185022
 21
63.4172513403
  0
LINE
  5
70A
100
AcDbEntity
  8
DRAFT
100
AcDbLine
 62
7
  6
CONTINUOUS
 10
-7.6068377056
 20
63.4172513403
 11
-7.5777837835
 21
63.4172513403
  0
LINE
  5
70B
100
AcDbEntity
  8
RACCORDO
100
AcDbLine
 62
7
  6
CONTINUOUS
 10
-7.7377506925
 20
64.1172513403
 11
-8.9893826406
 21
64.1172513403
  0
LINE
  5
70C
100
AcDbEntity
  8
RACCORDO
100
AcDbLine
 62
7
  6
CONTINUOUS
 10
25.5589854113
 20
64.1172513403
 11
26.8106173594
 21
64.1172513403
  0
LINE
  5
70D
100
AcDbEntity
  8
DRAFT
100
AcDbLine
 62
7
  6
CONTINUOUS
 10
26.7058869698
 20
64.3219817299
 11
25.3990185022
 21
64.3219817299
  0
LINE
  5
70E
100
AcDbEntity
  8
DRAFT
100
AcDbLine
 62
7
  6
CONTINUOUS
 10
-8.8846522511
 20
64.3219817299
 11
-7.5777837835
 21
64.3219817299
  0
LINE
  5
70F
100
AcDbEntity
  8
DRAFT
100
AcDbLine
 62
7
  6
CONTINUOUS
 10
26.7058869698
 20
64.3219817299
 11
26.8106173594
 21
64.2172513403
  0
LINE
  5
710
100
AcDbEntity
  8
DRAFT
100
AcDbLine
 62
250
  6
CONTINUOUS
 10
-3.8044725108
 20
72.9672513403
 11
-3.8393826406
 21
72.9672513403
  0
LINE
  5
711
100
AcDbEntity
  8
DRAFT
100
AcDbLine
 62
7
  6
CONTINUOUS
 10
14.4106173594
 20
74.8172513403
 11
-7.5343826406
 21
74.8172513403
  0
LINE
  5
712
100
AcDbEntity
  8
DRAFT
100
AcDbLine
 62
7
  6
CONTINUOUS
 10
15.3582521646
 20
83.1172513403
 11
15.4106173594
 21
83.0648861455
  0
LINE
  5
713
100
AcDbEntity
  8
0
100
AcDbLine
 62
7
  6
CONTINUOUS
 10
-7.5343826406
 20
75.4172513403
 11
-5.3343826406
 21
75.4172513403
  0
LINE
  5
714
100
AcDbEntity
  8
0
100
AcDbLine
 62
7
  6
CONTINUOUS
 10
21.4106173594
 20
77.1172513403
 11
19.4106173594
 21
77.1172513403
  0
LINE
  5
715
100
AcDbEntity
  8
0
100
AcDbLine
 62
7
  6
CONTINUOUS
 10
19.4106173594
 20
81.1172513403
 11
21.4106173594
 21
81.1172513403
  0
LINE
  5
716
100
AcDbEntity
  8
ASSI
100
AcDbLine
 62
7
  6
CONTINUOUS
 10
14.4106173594
 20
81.7172513403
 11
-7.5343826406
 21
81.7172513403
  0
LINE
  5
717
100
AcDbEntity
  8
RACCORDO
100
AcDbLine
 62
7
  6
CONTINUOUS
 10
25.7060392747
 20
83.0125209507
 11
-7.8848045559
 21
83.0125209507
  0
LINE
  5
718
100
AcDbEntity
  8
DRAFT
100
AcDbLine
 62
7
  6
CONTINUOUS
 10
25.4106173594
 20
83.0648861455
 11
15.4106173594
 21
83.0648861455
  0
LINE
  5
719
100
AcDbEntity
  8
RACCORDO
100
AcDbLine
 62
7
  6
CONTINUOUS
 10
25.8107696642
 20
83.1172513403
 11
25.4629825542
 21
83.1172513403
  0
LINE
  5
71A
100
AcDbEntity
  8
RACCORDO
100
AcDbLine
 62
7
  6
CONTINUOUS
 10
15.3582521646
 20
83.1172513403
 11
-7.9895349455
 21
83.1172513403
  0
ARC
  5
71B
100
AcDbEntity
  8
0
100
AcDbCircle
 62
7
  6
CONTINUOUS
 10
7.6629040645
 20
20.4161425192
 40
2.6726182976
100
AcDbArc
 50
159.0191965858
 51
163.7921491218
  0
ARC
  5
71C
100
AcDbEntity
  8
0
100
AcDbCircle
 62
7
  6
CONTINUOUS
 10
2.0635064741
 20
20.4161425192
 40
2.6726182976
100
AcDbArc
 50
159.0191965858
 51
163.7921491218
  0
ARC
  5
71D
100
AcDbEntity
  8
0
100
AcDbCircle
 62
7
  6
CONTINUOUS
 10
2.0635064741
 20
22.3083111939
 40
2.6726182976
100
AcDbArc
 50
159.0191965858
 51
163.7921491218
  0
CIRCLE
  5
71E
100
AcDbEntity
  8
DRAFT
100
AcDbCircle
 62
7
  6
CONTINUOUS
 10
-6.0893826406
 20
-16.5327486597
 40
2.2849101299
  0
CIRCLE
  5
71F
100
AcDbEntity
  8
DRAFT
100
AcDbCircle
 62
7
  6
CONTINUOUS
 10
-6.0893826406
 20
-16.5327486597
 40
2.25
  0
ARC
  5
720
100
AcDbEntity
  8
0
100
AcDbCircle
 62
7
  6
CONTINUOUS
 10
-3.5893826406
 20
-22.6827486597
 40
2.0
100
AcDbArc
 50
90.0
 51
270.0
  0
ARC
  5
721
100
AcDbEntity
  8
0
100
AcDbCircle
 62
7
  6
CONTINUOUS
 10
-1.5893826406
 20
-22.6827486597
 40
2.0
100
AcDbArc
 50
270.0
 51
90.0
  0
CIRCLE
  5
722
100
AcDbEntity
  8
DRAFT
100
AcDbCircle
 62
7
  6
CONTINUOUS
 10
-6.0893826406
 20
-16.5327486597
 40
1.3198202597
  0
CIRCLE
  5
723
100
AcDbEntity
  8
DRAFT
100
AcDbCircle
 62
7
  6
CONTINUOUS
 10
-6.0893826406
 20
-16.5327486597
 40
1.25
  0
CIRCLE
  5
724
100
AcDbEntity
  8
DRAFT
100
AcDbCircle
 62
7
  6
CONTINUOUS
 10
-6.0893826406
 20
-16.5327486597
 40
1.0
  0
CIRCLE
  5
725
100
AcDbEntity
  8
DRAFT
100
AcDbCircle
 62
7
  6
CONTINUOUS
 10
-6.0893826406
 20
-16.5327486597
 40
0.9520022272
  0
ARC
  5
726
100
AcDbEntity
  8
0
100
AcDbCircle
 62
7
  6
CONTINUOUS
 10
8.6967489145
 20
36.0769082017
 40
3.9252386973
100
AcDbArc
 50
66.1507656662
 51
77.0671262523
  0
ARC
  5
727
100
AcDbEntity
  8
0
100
AcDbCircle
 62
7
  6
CONTINUOUS
 10
8.6967500076
 20
36.0769129621
 40
3.9252342465
100
AcDbArc
 50
104.6184599962
 51
108.0305274071
  0
ARC
  5
728
100
AcDbEntity
  8
0
100
AcDbCircle
 62
7
  6
CONTINUOUS
 10
8.6967500076
 20
36.0769129621
 40
3.9252339881
100
AcDbArc
 50
109.1820962274
 51
112.6110327739
  0
ARC
  5
729
100
AcDbEntity
  8
0
100
AcDbCircle
 62
7
  6
CONTINUOUS
 10
8.6967500076
 20
36.0769129621
 40
3.9252334397
100
AcDbArc
 50
78.1844571259
 51
90.8185424079
  0
ARC
  5
72A
100
AcDbEntity
  8
0
100
AcDbCircle
 62
7
  6
CONTINUOUS
 10
8.6967500076
 20
36.0769129621
 40
3.9252331561
100
AcDbArc
 50
91.9102115712
 51
103.4934032385
  0
ARC
  5
72B
100
AcDbEntity
  8
0
100
AcDbCircle
 62
7
  6
CONTINUOUS
 10
8.6967500076
 20
36.0769129621
 40
3.8504679521
100
AcDbArc
 50
109.5695884542
 51
111.7987181432
  0
ARC
  5
72C
100
AcDbEntity
  8
0
100
AcDbCircle
 62
7
  6
CONTINUOUS
 10
8.696749804
 20
36.076912093
 40
3.8504678375
100
AcDbArc
 50
66.0805562364
 51
76.8115157989
  0
ARC
  5
72D
100
AcDbEntity
  8
0
100
AcDbCircle
 62
7
  6
CONTINUOUS
 10
8.6967500076
 20
36.0769129621
 40
3.8504675379
100
AcDbArc
 50
91.9473168422
 51
103.7605121028
  0
ARC
  5
72E
100
AcDbEntity
  8
0
100
AcDbCircle
 62
7
  6
CONTINUOUS
 10
8.6967500076
 20
36.0769129621
 40
3.8504671521
100
AcDbArc
 50
104.9088315982
 51
108.3930507127
  0
ARC
  5
72F
100
AcDbEntity
  8
0
100
AcDbCircle
 62
7
  6
CONTINUOUS
 10
8.6967500076
 20
36.0769129621
 40
3.8504668031
100
AcDbArc
 50
77.9516186991
 51
90.8344375197
  0
ARC
  5
730
100
AcDbEntity
  8
DRAFT
100
AcDbCircle
 62
7
  6
CONTINUOUS
 10
-6.0893826406
 20
72.9672513403
 40
2.2849101299
100
AcDbArc
 50
129.2281521339
 51
360.0
  0
ARC
  5
731
100
AcDbEntity
  8
DRAFT
100
AcDbCircle
 62
7
  6
CONTINUOUS
 10
-6.0893826406
 20
72.9672513403
 40
2.25
100
AcDbArc
 50
129.957725307
 51
360.0
  0
CIRCLE
  5
732
100
AcDbEntity
  8
DRAFT
100
AcDbCircle
 62
7
  6
CONTINUOUS
 10
-6.0893826406
 20
72.9672513403
 40
1.3198202597
  0
CIRCLE
  5
733
100
AcDbEntity
  8
DRAFT
100
AcDbCircle
 62
7
  6
CONTINUOUS
 10
-6.0893826406
 20
72.9672513403
 40
1.25
  0
CIRCLE
  5
734
100
AcDbEntity
  8
DRAFT
100
AcDbCircle
 62
7
  6
CONTINUOUS
 10
-6.0893826406
 20
72.9672513403
 40
1.0
  0
CIRCLE
  5
735
100
AcDbEntity
  8
DRAFT
100
AcDbCircle
 62
7
  6
CONTINUOUS
 10
-6.0893826406
 20
72.9672513403
 40
0.9520022272
  0
ARC
  5
736
100
AcDbEntity
  8
0
100
AcDbCircle
 62
7
  6
CONTINUOUS
 10
18.7176763512
 20
18.5318051698
 40
2.6726182976
100
AcDbArc
 50
159.0191965858
 51
163.7921491218
  0
ARC
  5
737
100
AcDbEntity
  8
DRAFT
100
AcDbCircle
 62
7
  6
CONTINUOUS
 10
23.9106173594
 20
-16.5327486597
 40
2.2849101299
100
AcDbArc
 50
309.2281521339
 51
180.0
  0
ARC
  5
738
100
AcDbEntity
  8
DRAFT
100
AcDbCircle
 62
7
  6
CONTINUOUS
 10
23.9106173594
 20
-16.5327486597
 40
2.25
100
AcDbArc
 50
309.957725307
 51
180.0
  0
CIRCLE
  5
739
100
AcDbEntity
  8
DRAFT
100
AcDbCircle
 62
7
  6
CONTINUOUS
 10
23.9106173594
 20
-16.5327486597
 40
1.3198202597
  0
CIRCLE
  5
73A
100
AcDbEntity
  8
DRAFT
100
AcDbCircle
 62
7
  6
CONTINUOUS
 10
23.9106173594
 20
-16.5327486597
 40
1.25
  0
CIRCLE
  5
73B
100
AcDbEntity
  8
DRAFT
100
AcDbCircle
 62
7
  6
CONTINUOUS
 10
23.9106173594
 20
-16.5327486597
 40
1.0
  0
CIRCLE
  5
73C
100
AcDbEntity
  8
DRAFT
100
AcDbCircle
 62
7
  6
CONTINUOUS
 10
23.9106173594
 20
-16.5327486597
 40
0.9520022272
  0
CIRCLE
  5
73D
100
AcDbEntity
  8
DRAFT
100
AcDbCircle
 62
7
  6
CONTINUOUS
 10
23.9106173594
 20
72.9672513403
 40
2.2849101299
  0
CIRCLE
  5
73E
100
AcDbEntity
  8
DRAFT
100
AcDbCircle
 62
7
  6
CONTINUOUS
 10
23.9106173594
 20
72.9672513403
 40
2.25
  0
ARC
  5
73F
100
AcDbEntity
  8
0
100
AcDbCircle
 62
7
  6
CONTINUOUS
 10
21.4106173594
 20
79.1172513403
 40
2.0
100
AcDbArc
 50
270.0
 51
90.0
  0
ARC
  5
740
100
AcDbEntity
  8
0
100
AcDbCircle
 62
7
  6
CONTINUOUS
 10
19.4106173594
 20
79.1172513403
 40
2.0
100
AcDbArc
 50
90.0
 51
270.0
  0
CIRCLE
  5
741
100
AcDbEntity
  8
DRAFT
100
AcDbCircle
 62
7
  6
CONTINUOUS
 10
23.9106173594
 20
72.9672513403
 40
1.3198202597
  0
CIRCLE
  5
742
100
AcDbEntity
  8
DRAFT
100
AcDbCircle
 62
7
  6
CONTINUOUS
 10
23.9106173594
 20
72.9672513403
 40
1.25
  0
CIRCLE
  5
743
100
AcDbEntity
  8
DRAFT
100
AcDbCircle
 62
7
  6
CONTINUOUS
 10
23.9106173594
 20
72.9672513403
 40
1.0
  0
CIRCLE
  5
744
100
AcDbEntity
  8
DRAFT
100
AcDbCircle
 62
7
  6
CONTINUOUS
 10
23.9106173594
 20
72.9672513403
 40
0.9520022272
  0
ARC
  5
745
100
AcDbEntity
  8
0
100
AcDbCircle
 62
7
  6
CONTINUOUS
 10
10.0238520076
 20
34.1329879621
 40
0.6542057106
100
AcDbArc
 50
84.9999868542
 51
176.7241833468
  0
ARC
  5
746
100
AcDbEntity
  8
0
100
AcDbCircle
 62
7
  6
CONTINUOUS
 10
10.0238520076
 20
34.1329879621
 40
0.6542055022
100
AcDbArc
 50
183.2758166532
 51
78.4374939936
  0
CIRCLE
  5
747
100
AcDbEntity
  8
0
100
AcDbCircle
 62
7
  6
CONTINUOUS
 10
10.0238520076
 20
34.1329879621
 40
0.373832
  0
ARC
  5
748
100
AcDbEntity
  8
0
100
AcDbCircle
 62
7
  6
CONTINUOUS
 10
10.5845999766
 20
39.5161660085
 40
0.3364491397
100
AcDbArc
 50
303.748776311
 51
153.3682546595
  0
ARC
  5
749
100
AcDbEntity
  8
0
100
AcDbCircle
 62
7
  6
CONTINUOUS
 10
10.5846000759
 20
39.5161659776
 40
0.3364487707
100
AcDbArc
 50
166.153055358
 51
192.8396974407
  0
CIRCLE
  5
74A
100
AcDbEntity
  8
0
100
AcDbCircle
 62
7
  6
CONTINUOUS
 10
10.0238520076
 20
34.1329879621
 40
0.224299
  0
LINE
  5
74B
100
AcDbEntity
  8
0
100
AcDbLine
 62
7
  6
CONTINUOUS
 10
3.5277955158
 20
18.509420015
 11
3.1385542109
 21
17.9072645311
  0
SPLINE
  5
74C
100
AcDbEntity
  8
0
100
AcDbSpline
 62
7
  6
CONTINUOUS
 70
0
 71
3
 72
9
 73
5
 74
0
 42
0.0000001
 43
0.0000001
 44
0.0000000001
 40
0.0
 40
0.0
 40
0.0
 40
0.0
 40
0.3453104193
 40
1.0
 40
1.0
 40
1.0
 40
1.0
 10
3.1385542109
 20
17.9072645311
 30
0.0
 10
3.0995315944
 20
17.9793659163
 30
0.0
 10
2.9633246507
 20
18.1745765477
 30
0.0
 10
2.8411269249
 20
18.3780006134
 30
0.0
 10
2.7581230424
 20
18.509420015
 30
0.0
  0
SPLINE
  5
74D
100
AcDbEntity
  8
0
100
AcDbSpline
 62
7
  6
CONTINUOUS
 70
0
 71
3
 72
9
 73
5
 74
0
 42
0.0000001
 43
0.0000001
 44
0.0000000001
 40
0.0
 40
0.0
 40
0.0
 40
0.0
 40
0.6062073946
 40
1.0
 40
1.0
 40
1.0
 40
1.0
 10
0.709130239
 20
17.7497814608
 30
0.0
 10
0.7556695143
 20
17.8755313421
 30
0.0
 10
0.8329735615
 20
18.0823502465
 30
0.0
 10
0.9085196722
 20
18.2912085795
 30
0.0
 10
0.9271836842
 20
18.3762874849
 30
0.0
  0
SPLINE
  5
74E
100
AcDbEntity
  8
0
100
AcDbSpline
 62
7
  6
CONTINUOUS
 70
0
 71
3
 72
11
 73
7
 74
0
 42
0.0000001
 43
0.0000001
 44
0.0000000001
 40
0.0
 40
0.0
 40
0.0
 40
0.0
 40
0.1914546415
 40
0.4289323167
 40
0.7144661583
 40
1.0
 40
1.0
 40
1.0
 40
1.0
 10
0.9271836842
 20
18.3762874849
 30
0.0
 10
0.9391370319
 20
18.3353773981
 30
0.0
 10
0.9685878351
 20
18.2445203799
 30
0.0
 10
1.0211800173
 20
18.0943806714
 30
0.0
 10
1.0887183318
 20
17.9274991169
 30
0.0
 10
1.1346526613
 20
17.8089650771
 30
0.0
 10
1.1578407413
 20
17.7497814608
 30
0.0
  0
SPLINE
  5
74F
100
AcDbEntity
  8
0
100
AcDbSpline
 62
7
  6
CONTINUOUS
 70
0
 71
3
 72
8
 73
4
 74
0
 42
0.0000001
 43
0.0000001
 44
0.0000000001
 40
0.0
 40
0.0
 40
0.0
 40
0.0
 40
1.0
 40
1.0
 40
1.0
 40
1.0
 10
16.1512800697
 20
19.2777935687
 30
0.0
 10
16.1315619475
 20
19.3489731501
 30
0.0
 10
16.1085187547
 20
19.4192595372
 30
0.0
 10
16.0834902012
 20
19.4887498865
 30
0.0
  0
SPLINE
  5
750
100
AcDbEntity
  8
0
100
AcDbSpline
 62
7
  6
CONTINUOUS
 70
0
 71
3
 72
11
 73
7
 74
0
 42
0.0000001
 43
0.0000001
 44
0.0000000001
 40
0.0
 40
0.0
 40
0.0
 40
0.0
 40
0.1914546415
 40
0.4289323167
 40
0.7144661583
 40
1.0
 40
1.0
 40
1.0
 40
1.0
 10
14.4283885035
 20
20.2919501355
 30
0.0
 10
14.4403418512
 20
20.2510400487
 30
0.0
 10
14.4697926544
 20
20.1601830305
 30
0.0
 10
14.5223848366
 20
20.010043322
 30
0.0
 10
14.589923151
 20
19.8431617675
 30
0.0
 10
14.6358574806
 20
19.7246277277
 30
0.0
 10
14.6590455606
 20
19.6654441114
 30
0.0
  0
SPLINE
  5
751
100
AcDbEntity
  8
0
100
AcDbSpline
 62
7
  6
CONTINUOUS
 70
0
 71
3
 72
9
 73
5
 74
0
 42
0.0000001
 43
0.0000001
 44
0.0000000001
 40
0.0
 40
0.0
 40
0.0
 40
0.0
 40
0.6062073946
 40
1.0
 40
1.0
 40
1.0
 40
1.0
 10
14.2103350583
 20
19.6654441114
 30
0.0
 10
14.2568743336
 20
19.7911939927
 30
0.0
 10
14.3341783808
 20
19.9980128971
 30
0.0
 10
14.4097244914
 20
20.2068712301
 30
0.0
 10
14.4283885035
 20
20.2919501355
 30
0.0
  0
SPLINE
  5
752
100
AcDbEntity
  8
0
100
AcDbSpline
 62
7
  6
CONTINUOUS
 70
0
 71
3
 72
16
 73
12
 74
0
 42
0.0000001
 43
0.0000001
 44
0.0000000001
 40
0.0
 40
0.0
 40
0.0
 40
0.0
 40
0.1710231103
 40
0.2552638227
 40
0.3469531761
 40
0.4309012702
 40
0.5126967558
 40
0.6746082958
 40
0.7634329916
 40
0.8610175593
 40
1.0
 40
1.0
 40
1.0
 40
1.0
 10
13.7431474799
 20
20.07022582
 30
0.0
 10
13.7124560992
 20
20.1771366519
 30
0.0
 10
13.6182015599
 20
20.3325815408
 30
0.0
 10
13.4117160141
 20
20.4345844643
 30
0.0
 10
13.2414490815
 20
20.4554046056
 30
0.0
 10
13.0737603561
 20
20.435970584
 30
0.0
 10
12.8724910676
 20
20.3589948086
 30
0.0
 10
12.714304857
 20
20.1908677185
 30
0.0
 10
12.6422265697
 20
19.9738141986
 30
0.0
 10
12.6225177395
 20
19.7620371574
 30
0.0
 10
12.6438856582
 20
19.6062179888
 30
0.0
 10
12.6708140275
 20
19.5194147423
 30
0.0
  0
SPLINE
  5
753
100
AcDbEntity
  8
0
100
AcDbSpline
 62
7
  6
CONTINUOUS
 70
0
 71
3
 72
13
 73
9
 74
0
 42
0.0000001
 43
0.0000001
 44
0.0000000001
 40
0.0
 40
0.0
 40
0.0
 40
0.0
 40
0.1886241746
 40
0.362271941
 40
0.51614123
 40
0.675593281
 40
0.8715238011
 40
1.0
 40
1.0
 40
1.0
 40
1.0
 10
13.6021836244
 20
19.5863967799
 30
0.0
 10
13.5823400668
 20
19.4950750152
 30
0.0
 10
13.4981114411
 20
19.3144945444
 30
0.0
 10
13.2314648547
 20
19.2353970153
 30
0.0
 10
12.98515217
 20
19.2974937679
 30
0.0
 10
12.8203379915
 20
19.511547884
 30
0.0
 10
12.7957425706
 20
19.7563026058
 30
0.0
 10
12.8096127828
 20
19.9179278251
 30
0.0
 10
12.8254196072
 20
19.9797169887
 30
0.0
  0
SPLINE
  5
754
100
AcDbEntity
  8
0
100
AcDbSpline
 62
7
  6
CONTINUOUS
 70
0
 71
3
 72
17
 73
13
 74
0
 42
0.0000001
 43
0.0000001
 44
0.0000000001
 40
0.0
 40
0.0
 40
0.0
 40
0.0
 40
0.1918461854
 40
0.3020932929
 40
0.373263025
 40
0.4465167567
 40
0.620181125
 40
0.7317940353
 40
0.8004359869
 40
0.8796234665
 40
0.9561869079
 40
1.0
 40
1.0
 40
1.0
 40
1.0
 10
10.3543250351
 20
19.8954893369
 30
0.0
 10
10.2989245303
 20
19.908491329
 30
0.0
 10
10.2133485483
 20
19.9313959995
 30
0.0
 10
10.1075676436
 20
19.9748794708
 30
0.0
 10
10.0621777072
 20
20.0389655147
 30
0.0
 10
10.0443085783
 20
20.1339969669
 30
0.0
 10
10.1007813236
 20
20.2431281819
 30
0.0
 10
10.2002212253
 20
20.2851628093
 30
0.0
 10
10.2762012791
 20
20.2978362628
 30
0.0
 10
10.3428349694
 20
20.3008668966
 30
0.0
 10
10.4021157326
 20
20.2980062564
 30
0.0
 10
10.4373721683
 20
20.2923485914
 30
0.0
 10
10.4500893144
 20
20.2895979559
 30
0.0
  0
SPLINE
  5
755
100
AcDbEntity
  8
0
100
AcDbSpline
 62
7
  6
CONTINUOUS
 70
0
 71
3
 72
15
 73
11
 74
0
 42
0.0000001
 43
0.0000001
 44
0.0000000001
 40
0.0
 40
0.0
 40
0.0
 40
0.0
 40
0.1559224567
 40
0.3149148587
 40
0.4054123469
 40
0.5050778062
 40
0.6822531041
 40
0.8348387299
 40
0.9758992276
 40
1.0
 40
1.0
 40
1.0
 40
1.0
 10
10.8220631425
 20
20.0648417017
 30
0.0
 10
10.819310925
 20
20.1354828221
 30
0.0
 10
10.7777573229
 20
20.2822075667
 30
0.0
 10
10.6219446447
 20
20.3999687127
 30
0.0
 10
10.4683834794
 20
20.4417828455
 30
0.0
 10
10.3019224594
 20
20.4549789041
 30
0.0
 10
10.1039665101
 20
20.4271062762
 30
0.0
 10
9.9227217858
 20
20.2918495865
 30
0.0
 10
9.8785959966
 20
20.1450961205
 30
0.0
 10
9.8830099116
 20
20.0687470788
 30
0.0
 10
9.8842321555
 20
20.057677921
 30
0.0
  0
SPLINE
  5
756
100
AcDbEntity
  8
0
100
AcDbSpline
 62
7
  6
CONTINUOUS
 70
0
 71
3
 72
8
 73
4
 74
0
 42
0.0000001
 43
0.0000001
 44
0.0000000001
 40
0.0
 40
0.0
 40
0.0
 40
0.0
 40
1.0
 40
1.0
 40
1.0
 40
1.0
 10
10.3152907749
 20
19.7274217587
 30
0.0
 10
10.3905639172
 20
19.7086765937
 30
0.0
 10
10.467216914
 20
19.6928725273
 30
0.0
 10
10.5391566206
 20
19.6638534687
 30
0.0
  0
SPLINE
  5
757
100
AcDbEntity
  8
0
100
AcDbSpline
 62
7
  6
CONTINUOUS
 70
0
 71
3
 72
14
 73
10
 74
0
 42
0.0000001
 43
0.0000001
 44
0.0000000001
 40
0.0
 40
0.0
 40
0.0
 40
0.0
 40
0.1548130119
 40
0.2821889291
 40
0.4173170771
 40
0.573654791
 40
0.7697964875
 40
0.9960490302
 40
1.0
 40
1.0
 40
1.0
 40
1.0
 10
10.5391566206
 20
19.6638534687
 30
0.0
 10
10.5807863085
 20
19.6473952229
 30
0.0
 10
10.65851992
 20
19.6041527419
 30
0.0
 10
10.6924658039
 20
19.4787281911
 30
0.0
 10
10.653782715
 20
19.356045777
 30
0.0
 10
10.5299194553
 20
19.2720122192
 30
0.0
 10
10.3613166222
 20
19.2485494443
 30
0.0
 10
10.2363488499
 20
19.2707958424
 30
0.0
 10
10.1755415826
 20
19.2984384409
 30
0.0
 10
10.1745000129
 20
19.2989175161
 30
0.0
  0
SPLINE
  5
758
100
AcDbEntity
  8
0
100
AcDbSpline
 62
7
  6
CONTINUOUS
 70
0
 71
3
 72
17
 73
13
 74
0
 42
0.0000001
 43
0.0000001
 44
0.0000000001
 40
0.0
 40
0.0
 40
0.0
 40
0.0
 40
0.1670193422
 40
0.2489101089
 40
0.332249531
 40
0.4248500285
 40
0.5329631435
 40
0.621218419
 40
0.7038945942
 40
0.852442915
 40
0.989586782
 40
1.0
 40
1.0
 40
1.0
 40
1.0
 10
9.8353161546
 20
19.5558055572
 30
0.0
 10
9.8375270582
 20
19.4733934853
 30
0.0
 10
9.8727525917
 20
19.3474421135
 30
0.0
 10
9.9812990968
 20
19.2217061869
 30
0.0
 10
10.0914575876
 20
19.1540667636
 30
0.0
 10
10.227849439
 20
19.1163328443
 30
0.0
 10
10.3707151163
 20
19.1054993952
 30
0.0
 10
10.5088592084
 20
19.1169079933
 30
0.0
 10
10.6601813526
 20
19.1647723699
 30
0.0
 10
10.8101526046
 20
19.2852163391
 30
0.0
 10
10.8546594592
 20
19.4328669074
 30
0.0
 10
10.8533159685
 20
19.5071899361
 30
0.0
 10
10.8531039824
 20
19.5124318458
 30
0.0
  0
SPLINE
  5
759
100
AcDbEntity
  8
0
100
AcDbSpline
 62
7
  6
CONTINUOUS
 70
0
 71
3
 72
8
 73
4
 74
0
 42
0.0000001
 43
0.0000001
 44
0.0000000001
 40
0.0
 40
0.0
 40
0.0
 40
0.0
 40
1.0
 40
1.0
 40
1.0
 40
1.0
 10
10.6342337016
 20
19.8126486494
 30
0.0
 10
10.545738785
 20
19.8531034096
 30
0.0
 10
10.4490544918
 20
19.8732571993
 30
0.0
 10
10.3543250351
 20
19.8954893369
 30
0.0
  0
SPLINE
  5
75A
100
AcDbEntity
  8
0
100
AcDbSpline
 62
7
  6
CONTINUOUS
 70
0
 71
3
 72
16
 73
12
 74
0
 42
0.0000001
 43
0.0000001
 44
0.0000000001
 40
0.0
 40
0.0
 40
0.0
 40
0.0
 40
0.1849959594
 40
0.3236221971
 40
0.425291392
 40
0.4781303411
 40
0.5342446568
 40
0.6027870051
 40
0.690951619
 40
0.8454758095
 40
1.0
 40
1.0
 40
1.0
 40
1.0
 10
7.773475126
 20
20.2762874849
 30
0.0
 10
7.8460875335
 20
20.2762874849
 30
0.0
 10
7.9908649441
 20
20.2581765172
 30
0.0
 10
8.0673981306
 20
20.082668237
 30
0.0
 10
8.0311724097
 20
19.9666118077
 30
0.0
 10
7.9742601159
 20
19.9047032485
 30
0.0
 10
7.9110554839
 20
19.8725200252
 30
0.0
 10
7.8285538716
 20
19.8558870173
 30
0.0
 10
7.7062704467
 20
19.8520263658
 30
0.0
 10
7.5504199012
 20
19.8538754819
 30
0.0
 10
7.4291006769
 20
19.8533959186
 30
0.0
 10
7.3684486847
 20
19.8533959186
 30
0.0
  0
SPLINE
  5
75B
100
AcDbEntity
  8
0
100
AcDbSpline
 62
7
  6
CONTINUOUS
 70
0
 71
3
 72
12
 73
8
 74
0
 42
0.0000001
 43
0.0000001
 44
0.0000000001
 40
0.0
 40
0.0
 40
0.0
 40
0.0
 40
0.2757460797
 40
0.5514921594
 40
0.7028339668
 40
0.8421806437
 40
1.0
 40
1.0
 40
1.0
 40
1.0
 10
8.3162837788
 20
19.1329139909
 30
0.0
 10
8.2796968053
 20
19.1914654011
 30
0.0
 10
8.2054786149
 20
19.3078508723
 30
0.0
 10
8.1162165182
 20
19.4598319484
 30
0.0
 10
8.0326492206
 20
19.5743298038
 30
0.0
 10
7.9603237248
 20
19.6611938693
 30
0.0
 10
7.8966385828
 20
19.7020369825
 30
0.0
 10
7.8615775655
 20
19.7202633885
 30
0.0
  0
SPLINE
  5
75C
100
AcDbEntity
  8
0
100
AcDbSpline
 62
7
  6
CONTINUOUS
 70
0
 71
3
 72
14
 73
10
 74
0
 42
0.0000001
 43
0.0000001
 44
0.0000000001
 40
0.0
 40
0.0
 40
0.0
 40
0.0
 40
0.2475689294
 40
0.4540003985
 40
0.6221540562
 40
0.7031009836
 40
0.7808526016
 40
0.8745381942
 40
1.0
 40
1.0
 40
1.0
 40
1.0
 10
7.8615775655
 20
19.7202633885
 30
0.0
 10
7.9598281713
 20
19.7339075138
 30
0.0
 10
8.1541463448
 20
19.7963738273
 30
0.0
 10
8.2459847681
 20
20.0580581807
 30
0.0
 10
8.19481498
 20
20.2417531376
 30
0.0
 10
8.1114970364
 20
20.345487777
 30
0.0
 10
8.0225622917
 20
20.3981458472
 30
0.0
 10
7.9045449582
 20
20.4212555469
 30
0.0
 10
7.8167691583
 20
20.4250826656
 30
0.0
 10
7.766500365
 20
20.4250826656
 30
0.0
  0
SPLINE
  5
75D
100
AcDbEntity
  8
0
100
AcDbSpline
 62
7
  6
CONTINUOUS
 70
0
 71
3
 72
18
 73
14
 74
0
 42
0.0000001
 43
0.0000001
 44
0.0000000001
 40
0.0
 40
0.0
 40
0.0
 40
0.0
 40
0.0953181628
 40
0.1906363256
 40
0.2452929172
 40
0.2823714498
 40
0.3222654602
 40
0.364416291
 40
0.4822511244
 40
0.5724800097
 40
0.6917873716
 40
0.8458936858
 40
1.0
 40
1.0
 40
1.0
 40
1.0
 10
7.3684486847
 20
19.7046007379
 30
0.0
 10
7.4011811787
 20
19.7046007379
 30
0.0
 10
7.466635487
 20
19.7044775531
 30
0.0
 10
7.5509109095
 20
19.704953061
 30
0.0
 10
7.6150614958
 20
19.7039844264
 30
0.0
 10
7.6603713868
 20
19.7001030248
 30
0.0
 10
7.6991225875
 20
19.686045117
 30
0.0
 10
7.760369145
 20
19.6542185902
 30
0.0
 10
7.8180953919
 20
19.5875076298
 30
0.0
 10
7.8829978866
 20
19.4963664022
 30
0.0
 10
7.9514363156
 20
19.3916581558
 30
0.0
 10
8.0290516529
 20
19.2671259368
 30
0.0
 10
8.0856675901
 20
19.1776789943
 30
0.0
 10
8.1138929842
 20
19.1329139909
 30
0.0
  0
SPLINE
  5
75E
100
AcDbEntity
  8
0
100
AcDbSpline
 62
7
  6
CONTINUOUS
 70
0
 71
3
 72
9
 73
5
 74
0
 42
0.0000001
 43
0.0000001
 44
0.0000000001
 40
0.0
 40
0.0
 40
0.0
 40
0.0
 40
0.6062073946
 40
1.0
 40
1.0
 40
1.0
 40
1.0
 10
6.2145519257
 20
19.6654441114
 30
0.0
 10
6.261091201
 20
19.7911939927
 30
0.0
 10
6.3383952482
 20
19.9980128971
 30
0.0
 10
6.4139413589
 20
20.2068712301
 30
0.0
 10
6.4326053709
 20
20.2919501355
 30
0.0
  0
SPLINE
  5
75F
100
AcDbEntity
  8
0
100
AcDbSpline
 62
7
  6
CONTINUOUS
 70
0
 71
3
 72
11
 73
7
 74
0
 42
0.0000001
 43
0.0000001
 44
0.0000000001
 40
0.0
 40
0.0
 40
0.0
 40
0.0
 40
0.1914546415
 40
0.4289323167
 40
0.7144661583
 40
1.0
 40
1.0
 40
1.0
 40
1.0
 10
6.4326053709
 20
20.2919501355
 30
0.0
 10
6.4445587186
 20
20.2510400487
 30
0.0
 10
6.4740095218
 20
20.1601830305
 30
0.0
 10
6.5266017041
 20
20.010043322
 30
0.0
 10
6.5941400185
 20
19.8431617675
 30
0.0
 10
6.6400743481
 20
19.7246277277
 30
0.0
 10
6.6632624281
 20
19.6654441114
 30
0.0
  0
SPLINE
  5
760
100
AcDbEntity
  8
0
100
AcDbSpline
 62
7
  6
CONTINUOUS
 70
0
 71
3
 72
8
 73
4
 74
0
 42
0.0000001
 43
0.0000001
 44
0.0000000001
 40
0.0
 40
0.0
 40
0.0
 40
0.0
 40
1.0
 40
1.0
 40
1.0
 40
1.0
 10
5.1722514627
 20
19.5280288794
 30
0.0
 10
5.1479637249
 20
19.4593574602
 30
0.0
 10
5.1236984647
 20
19.3906594738
 30
0.0
 10
5.1012800697
 20
19.3213552634
 30
0.0
  0
SPLINE
  5
761
100
AcDbEntity
  8
0
100
AcDbSpline
 62
7
  6
CONTINUOUS
 70
0
 71
3
 72
8
 73
4
 74
0
 42
0.0000001
 43
0.0000001
 44
0.0000000001
 40
0.0
 40
0.0
 40
0.0
 40
0.0
 40
1.0
 40
1.0
 40
1.0
 40
1.0
 10
5.1012800697
 20
19.3213552634
 30
0.0
 10
5.0816315187
 20
19.3852437676
 30
0.0
 10
5.0605501125
 20
19.448685615
 30
0.0
 10
5.0394860316
 20
19.5121214961
 30
0.0
  0
SPLINE
  5
762
100
AcDbEntity
  8
0
100
AcDbSpline
 62
7
  6
CONTINUOUS
 70
0
 71
3
 72
15
 73
11
 74
0
 42
0.0000001
 43
0.0000001
 44
0.0000000001
 40
0.0
 40
0.0
 40
0.0
 40
0.0
 40
0.1335246329
 40
0.2535821357
 40
0.366856877
 40
0.4785372864
 40
0.5945725104
 40
0.8315268147
 40
0.9521167255
 40
1.0
 40
1.0
 40
1.0
 40
1.0
 10
3.2350996879
 20
19.7437573644
 30
0.0
 10
3.2726349766
 20
19.7533749505
 30
0.0
 10
3.3456744292
 20
19.7678247958
 30
0.0
 10
3.4536708772
 20
19.7510860651
 30
0.0
 10
3.5404245522
 20
19.6958848413
 30
0.0
 10
3.5983799459
 20
19.6119301547
 30
0.0
 10
3.6219066779
 20
19.4761868841
 30
0.0
 10
3.5667725155
 20
19.3332692439
 30
0.0
 10
3.4654499036
 20
19.2668732241
 30
0.0
 10
3.418360728
 20
19.2527593219
 30
0.0
 10
3.404731282
 20
19.2497447945
 30
0.0
  0
SPLINE
  5
763
100
AcDbEntity
  8
0
100
AcDbSpline
 62
7
  6
CONTINUOUS
 70
0
 71
3
 72
16
 73
12
 74
0
 42
0.0000001
 43
0.0000001
 44
0.0000000001
 40
0.0
 40
0.0
 40
0.0
 40
0.0
 40
0.218248714
 40
0.3292471686
 40
0.447902756
 40
0.5160583995
 40
0.5800475926
 40
0.7044824553
 40
0.8250661871
 40
0.9452223803
 40
1.0
 40
1.0
 40
1.0
 40
1.0
 10
2.9202559136
 20
19.4696609788
 30
0.0
 10
2.9298393575
 20
19.3735317321
 30
0.0
 10
2.999769961
 20
19.2259535682
 30
0.0
 10
3.1752268533
 20
19.1238852177
 30
0.0
 10
3.3085721567
 20
19.1052840051
 30
0.0
 10
3.4195545653
 20
19.1138793222
 30
0.0
 10
3.5301455294
 20
19.1428100912
 30
0.0
 10
3.648475012
 20
19.2184553779
 30
0.0
 10
3.7463952214
 20
19.3529092931
 30
0.0
 10
3.770316361
 20
19.4853464406
 30
0.0
 10
3.7641931109
 20
19.5633205143
 30
0.0
 10
3.7598207479
 20
19.587225838
 30
0.0
  0
SPLINE
  5
764
100
AcDbEntity
  8
0
100
AcDbSpline
 62
7
  6
CONTINUOUS
 70
0
 71
3
 72
14
 73
10
 74
0
 42
0.0000001
 43
0.0000001
 44
0.0000000001
 40
0.0
 40
0.0
 40
0.0
 40
0.0
 40
0.1607041894
 40
0.3094733236
 40
0.4714016958
 40
0.6425016116
 40
0.8273712566
 40
0.9591140569
 40
1.0
 40
1.0
 40
1.0
 40
1.0
 10
3.517883963
 20
19.8329611008
 30
0.0
 10
3.5700019296
 20
19.8570991922
 30
0.0
 10
3.6640881105
 20
19.9288610322
 30
0.0
 10
3.7113392984
 20
20.1008366205
 30
0.0
 10
3.6618098014
 20
20.2750093811
 30
0.0
 10
3.5168830711
 20
20.4051189243
 30
0.0
 10
3.3399039692
 20
20.4426854025
 30
0.0
 10
3.2114150899
 20
20.4243080014
 30
0.0
 10
3.1540293095
 20
20.400385455
 30
0.0
 10
3.1408329452
 20
20.3938978424
 30
0.0
  0
SPLINE
  5
765
100
AcDbEntity
  8
0
100
AcDbSpline
 62
7
  6
CONTINUOUS
 70
0
 71
3
 72
15
 73
11
 74
0
 42
0.0000001
 43
0.0000001
 44
0.0000000001
 40
0.0
 40
0.0
 40
0.0
 40
0.0
 40
0.2609354543
 40
0.3742214052
 40
0.493899204
 40
0.6136816708
 40
0.7250775901
 40
0.8339420113
 40
0.9463654256
 40
1.0
 40
1.0
 40
1.0
 40
1.0
 10
3.0925450702
 20
20.072673027
 30
0.0
 10
3.1021535261
 20
20.1345941146
 30
0.0
 10
3.1366345672
 20
20.2283138481
 30
0.0
 10
3.241436808
 20
20.291506836
 30
0.0
 10
3.3267045716
 20
20.3039715744
 30
0.0
 10
3.4119347622
 20
20.2918123914
 30
0.0
 10
3.4829403348
 20
20.2470102069
 30
0.0
 10
3.5301901349
 20
20.1793245108
 30
0.0
 10
3.5406945117
 20
20.1128656404
 30
0.0
 10
3.5382902113
 20
20.0721023468
 30
0.0
 10
3.536382694
 20
20.0591802574
 30
0.0
  0
SPLINE
  5
766
100
AcDbEntity
  8
0
100
AcDbSpline
 62
7
  6
CONTINUOUS
 70
0
 71
3
 72
8
 73
4
 74
0
 42
0.0000001
 43
0.0000001
 44
0.0000000001
 40
0.0
 40
0.0
 40
0.0
 40
0.0
 40
1.0
 40
1.0
 40
1.0
 40
1.0
 10
3.279028601
 20
19.8828858444
 30
0.0
 10
3.2704005714
 20
19.8828858444
 30
0.0
 10
3.2617833448
 20
19.8837543122
 30
0.0
 10
3.253209665
 20
19.8847212198
 30
0.0
  0
SPLINE
  5
767
100
AcDbEntity
  8
0
100
AcDbSpline
 62
7
  6
CONTINUOUS
 70
0
 71
3
 72
18
 73
14
 74
0
 42
0.0000001
 43
0.0000001
 44
0.0000000001
 40
0.0
 40
0.0
 40
0.0
 40
0.0
 40
0.1541551574
 40
0.2293297249
 40
0.3115665903
 40
0.3686681841
 40
0.4219325903
 40
0.5275216968
 40
0.671069752
 40
0.7599399783
 40
0.8626564229
 40
0.954247965
 40
1.0
 40
1.0
 40
1.0
 40
1.0
 10
2.7401354317
 20
20.1118296535
 30
0.0
 10
2.7289546935
 20
20.1987991128
 30
0.0
 10
2.6699511545
 20
20.3324116397
 30
0.0
 10
2.5109204737
 20
20.421141307
 30
0.0
 10
2.3877239201
 20
20.4370990498
 30
0.0
 10
2.2780748626
 20
20.4273994934
 30
0.0
 10
2.1598418489
 20
20.3903794071
 30
0.0
 10
2.020125468
 20
20.2780460558
 30
0.0
 10
1.9451232447
 20
20.0936990745
 30
0.0
 10
1.9146938163
 20
19.9056572488
 30
0.0
 10
1.9076222626
 20
19.7443313037
 30
0.0
 10
1.9134340103
 20
19.6076262476
 30
0.0
 10
1.9241763661
 20
19.5302801593
 30
0.0
 10
1.9289535882
 20
19.5046832349
 30
0.0
  0
SPLINE
  5
768
100
AcDbEntity
  8
0
100
AcDbSpline
 62
7
  6
CONTINUOUS
 70
0
 71
3
 72
15
 73
11
 74
0
 42
0.0000001
 43
0.0000001
 44
0.0000000001
 40
0.0
 40
0.0
 40
0.0
 40
0.0
 40
0.1769203741
 40
0.3121346196
 40
0.4205091276
 40
0.5163887928
 40
0.6646238317
 40
0.7561177362
 40
0.8470776167
 40
1.0
 40
1.0
 40
1.0
 40
1.0
 10
2.0666414558
 20
19.7994332058
 30
0.0
 10
2.0671484141
 20
19.856682436
 30
0.0
 10
2.0722454685
 20
19.9578087146
 30
0.0
 10
2.1036196275
 20
20.0916898786
 30
0.0
 10
2.1565848709
 20
20.1888418843
 30
0.0
 10
2.2334456373
 20
20.2760570864
 30
0.0
 10
2.3460166014
 20
20.308657842
 30
0.0
 10
2.4531069953
 20
20.288871556
 30
0.0
 10
2.5463055195
 20
20.2246818666
 30
0.0
 10
2.5725200387
 20
20.1444171924
 30
0.0
 10
2.5835089256
 20
20.0961670029
 30
0.0
  0
SPLINE
  5
769
100
AcDbEntity
  8
0
100
AcDbSpline
 62
7
  6
CONTINUOUS
 70
0
 71
3
 72
18
 73
14
 74
0
 42
0.0000001
 43
0.0000001
 44
0.0000000001
 40
0.0
 40
0.0
 40
0.0
 40
0.0
 40
0.1541551574
 40
0.2293297249
 40
0.3115665903
 40
0.3686681841
 40
0.4219325903
 40
0.5275216968
 40
0.671069752
 40
0.7599399783
 40
0.8626564229
 40
0.954247965
 40
1.0
 40
1.0
 40
1.0
 40
1.0
 10
0.7353161546
 20
20.1118296535
 30
0.0
 10
0.7241354164
 20
20.1987991128
 30
0.0
 10
0.6651318774
 20
20.3324116397
 30
0.0
 10
0.5061011966
 20
20.421141307
 30
0.0
 10
0.382904643
 20
20.4370990498
 30
0.0
 10
0.2732555855
 20
20.4273994934
 30
0.0
 10
0.1550225718
 20
20.3903794071
 30
0.0
 10
0.0153061909
 20
20.2780460558
 30
0.0
 10
-0.0596960324
 20
20.0936990745
 30
0.0
 10
-0.0901254608
 20
19.9056572488
 30
0.0
 10
-0.0971970145
 20
19.7443313037
 30
0.0
 10
-0.0913852668
 20
19.6076262476
 30
0.0
 10
-0.080642911
 20
19.5302801593
 30
0.0
 10
-0.0758656889
 20
19.5046832349
 30
0.0
  0
SPLINE
  5
76A
100
AcDbEntity
  8
0
100
AcDbSpline
 62
7
  6
CONTINUOUS
 70
0
 71
3
 72
15
 73
11
 74
0
 42
0.0000001
 43
0.0000001
 44
0.0000000001
 40
0.0
 40
0.0
 40
0.0
 40
0.0
 40
0.1769203741
 40
0.3121346196
 40
0.4205091276
 40
0.5163887928
 40
0.6646238317
 40
0.7561177362
 40
0.8470776167
 40
1.0
 40
1.0
 40
1.0
 40
1.0
 10
0.0618221787
 20
19.7994332058
 30
0.0
 10
0.062329137
 20
19.856682436
 30
0.0
 10
0.0674261914
 20
19.9578087146
 30
0.0
 10
0.0988003504
 20
20.0916898786
 30
0.0
 10
0.1517655938
 20
20.1888418843
 30
0.0
 10
0.2286263602
 20
20.2760570864
 30
0.0
 10
0.3411973243
 20
20.308657842
 30
0.0
 10
0.4482877182
 20
20.288871556
 30
0.0
 10
0.5414862424
 20
20.2246818666
 30
0.0
 10
0.5677007616
 20
20.1444171924
 30
0.0
 10
0.5786896485
 20
20.0961670029
 30
0.0
  0
SPLINE
  5
76B
100
AcDbEntity
  8
0
100
AcDbSpline
 62
7
  6
CONTINUOUS
 70
0
 71
3
 72
15
 73
11
 74
0
 42
0.0000001
 43
0.0000001
 44
0.0000000001
 40
0.0
 40
0.0
 40
0.0
 40
0.0
 40
0.1335246329
 40
0.2535821357
 40
0.366856877
 40
0.4785372864
 40
0.5945725104
 40
0.8315268147
 40
0.9521167255
 40
1.0
 40
1.0
 40
1.0
 40
1.0
 10
-0.7745388663
 20
19.7437573644
 30
0.0
 10
-0.7370035776
 20
19.7533749505
 30
0.0
 10
-0.663964125
 20
19.7678247958
 30
0.0
 10
-0.555967677
 20
19.7510860651
 30
0.0
 10
-0.469214002
 20
19.6958848413
 30
0.0
 10
-0.4112586083
 20
19.6119301547
 30
0.0
 10
-0.3877318763
 20
19.4761868841
 30
0.0
 10
-0.4428660387
 20
19.3332692439
 30
0.0
 10
-0.5441886506
 20
19.2668732241
 30
0.0
 10
-0.5912778263
 20
19.2527593219
 30
0.0
 10
-0.6049072722
 20
19.2497447945
 30
0.0
  0
SPLINE
  5
76C
100
AcDbEntity
  8
0
100
AcDbSpline
 62
7
  6
CONTINUOUS
 70
0
 71
3
 72
16
 73
12
 74
0
 42
0.0000001
 43
0.0000001
 44
0.0000000001
 40
0.0
 40
0.0
 40
0.0
 40
0.0
 40
0.218248714
 40
0.3292471686
 40
0.447902756
 40
0.5160583995
 40
0.5800475926
 40
0.7044824553
 40
0.8250661871
 40
0.9452223803
 40
1.0
 40
1.0
 40
1.0
 40
1.0
 10
-1.0893826406
 20
19.4696609788
 30
0.0
 10
-1.0797991967
 20
19.3735317321
 30
0.0
 10
-1.0098685933
 20
19.2259535682
 30
0.0
 10
-0.8344117009
 20
19.1238852177
 30
0.0
 10
-0.7010663975
 20
19.1052840051
 30
0.0
 10
-0.5900839889
 20
19.1138793222
 30
0.0
 10
-0.4794930248
 20
19.1428100912
 30
0.0
 10
-0.3611635422
 20
19.2184553779
 30
0.0
 10
-0.2632433329
 20
19.3529092931
 30
0.0
 10
-0.2393221932
 20
19.4853464406
 30
0.0
 10
-0.2454454433
 20
19.5633205143
 30
0.0
 10
-0.2498178063
 20
19.587225838
 30
0.0
  0
SPLINE
  5
76D
100
AcDbEntity
  8
0
100
AcDbSpline
 62
7
  6
CONTINUOUS
 70
0
 71
3
 72
14
 73
10
 74
0
 42
0.0000001
 43
0.0000001
 44
0.0000000001
 40
0.0
 40
0.0
 40
0.0
 40
0.0
 40
0.1607041894
 40
0.3094733236
 40
0.4714016958
 40
0.6425016116
 40
0.8273712566
 40
0.9591140569
 40
1.0
 40
1.0
 40
1.0
 40
1.0
 10
-0.4917545912
 20
19.8329611008
 30
0.0
 10
-0.4396366246
 20
19.8570991922
 30
0.0
 10
-0.3455504437
 20
19.9288610322
 30
0.0
 10
-0.2982992559
 20
20.1008366205
 30
0.0
 10
-0.3478287529
 20
20.2750093811
 30
0.0
 10
-0.4927554831
 20
20.4051189243
 30
0.0
 10
-0.669734585
 20
20.4426854025
 30
0.0
 10
-0.7982234643
 20
20.4243080014
 30
0.0
 10
-0.8556092447
 20
20.400385455
 30
0.0
 10
-0.868805609
 20
20.3938978424
 30
0.0
  0
SPLINE
  5
76E
100
AcDbEntity
  8
0
100
AcDbSpline
 62
7
  6
CONTINUOUS
 70
0
 71
3
 72
15
 73
11
 74
0
 42
0.0000001
 43
0.0000001
 44
0.0000000001
 40
0.0
 40
0.0
 40
0.0
 40
0.0
 40
0.2609354543
 40
0.3742214052
 40
0.493899204
 40
0.6136816708
 40
0.7250775901
 40
0.8339420113
 40
0.9463654256
 40
1.0
 40
1.0
 40
1.0
 40
1.0
 10
-0.917093484
 20
20.072673027
 30
0.0
 10
-0.9074850281
 20
20.1345941146
 30
0.0
 10
-0.873003987
 20
20.2283138481
 30
0.0
 10
-0.7682017462
 20
20.291506836
 30
0.0
 10
-0.6829339826
 20
20.3039715744
 30
0.0
 10
-0.597703792
 20
20.2918123914
 30
0.0
 10
-0.5266982195
 20
20.2470102069
 30
0.0
 10
-0.4794484194
 20
20.1793245108
 30
0.0
 10
-0.4689440425
 20
20.1128656404
 30
0.0
 10
-0.4713483429
 20
20.0721023468
 30
0.0
 10
-0.4732558603
 20
20.0591802574
 30
0.0
  0
SPLINE
  5
76F
100
AcDbEntity
  8
0
100
AcDbSpline
 62
7
  6
CONTINUOUS
 70
0
 71
3
 72
8
 73
4
 74
0
 42
0.0000001
 43
0.0000001
 44
0.0000000001
 40
0.0
 40
0.0
 40
0.0
 40
0.0
 40
1.0
 40
1.0
 40
1.0
 40
1.0
 10
-0.7306099532
 20
19.8828858444
 30
0.0
 10
-0.7392379828
 20
19.8828858444
 30
0.0
 10
-0.7478552094
 20
19.8837543122
 30
0.0
 10
-0.7564288892
 20
19.8847212198
 30
0.0
  0
SPLINE
  5
770
100
AcDbEntity
  8
0
100
AcDbSpline
 62
7
  6
CONTINUOUS
 70
0
 71
3
 72
9
 73
5
 74
0
 42
0.0000001
 43
0.0000001
 44
0.0000000001
 40
0.0
 40
0.0
 40
0.0
 40
0.0
 40
0.4449057075
 40
1.0
 40
1.0
 40
1.0
 40
1.0
 10
13.3554968177
 20
22.3172513403
 30
0.0
 10
13.3222598542
 20
22.250387435
 30
0.0
 10
13.2056396003
 20
22.1228688936
 30
0.0
 10
13.0631567064
 20
22.0316525569
 30
0.0
 10
12.978736639
 20
21.9922514
 30
0.0
  0
SPLINE
  5
771
100
AcDbEntity
  8
0
100
AcDbSpline
 62
7
  6
CONTINUOUS
 70
0
 71
3
 72
11
 73
7
 74
0
 42
0.0000001
 43
0.0000001
 44
0.0000000001
 40
0.0
 40
0.0
 40
0.0
 40
0.0
 40
0.2308286057
 40
0.5005232368
 40
0.769747873
 40
1.0
 40
1.0
 40
1.0
 40
1.0
 10
12.978736639
 20
21.8385616858
 30
0.0
 10
13.0058875041
 20
21.8484992268
 30
0.0
 10
13.0633864901
 20
21.8738051904
 30
0.0
 10
13.1482333314
 20
21.9197240879
 30
0.0
 10
13.2298074211
 20
21.9711778947
 30
0.0
 10
13.2788390965
 20
22.0103976303
 30
0.0
 10
13.2998209763
 20
22.0301843633
 30
0.0
  0
SPLINE
  5
772
100
AcDbEntity
  8
0
100
AcDbSpline
 62
7
  6
CONTINUOUS
 70
0
 71
3
 72
9
 73
5
 74
0
 42
0.0000001
 43
0.0000001
 44
0.0000000001
 40
0.0
 40
0.0
 40
0.0
 40
0.0
 40
0.6062073946
 40
1.0
 40
1.0
 40
1.0
 40
1.0
 10
11.4489362656
 20
21.5497814608
 30
0.0
 10
11.4954755409
 20
21.6755313421
 30
0.0
 10
11.5727795881
 20
21.8823502465
 30
0.0
 10
11.6483256987
 20
22.0912085795
 30
0.0
 10
11.6669897108
 20
22.1762874849
 30
0.0
  0
SPLINE
  5
773
100
AcDbEntity
  8
0
100
AcDbSpline
 62
7
  6
CONTINUOUS
 70
0
 71
3
 72
11
 73
7
 74
0
 42
0.0000001
 43
0.0000001
 44
0.0000000001
 40
0.0
 40
0.0
 40
0.0
 40
0.0
 40
0.1914546415
 40
0.4289323167
 40
0.7144661583
 40
1.0
 40
1.0
 40
1.0
 40
1.0
 10
11.6669897108
 20
22.1762874849
 30
0.0
 10
11.6789430585
 20
22.1353773981
 30
0.0
 10
11.7083938617
 20
22.0445203799
 30
0.0
 10
11.7609860439
 20
21.8943806714
 30
0.0
 10
11.8285243583
 20
21.7274991169
 30
0.0
 10
11.8744586879
 20
21.6089650771
 30
0.0
 10
11.8976467679
 20
21.5497814608
 30
0.0
  0
SPLINE
  5
774
100
AcDbEntity
  8
0
100
AcDbSpline
 62
7
  6
CONTINUOUS
 70
0
 71
3
 72
9
 73
5
 74
0
 42
0.0000001
 43
0.0000001
 44
0.0000000001
 40
0.0
 40
0.0
 40
0.0
 40
0.0
 40
0.0986341094
 40
1.0
 40
1.0
 40
1.0
 40
1.0
 10
10.2136670955
 20
21.166046521
 30
0.0
 10
10.2399346683
 20
21.1987586406
 30
0.0
 10
10.5062309073
 20
21.530423516
 30
0.0
 10
10.7728725969
 20
21.8618108494
 30
0.0
 10
11.0130739884
 20
22.1606248343
 30
0.0
  0
SPLINE
  5
775
100
AcDbEntity
  8
0
100
AcDbSpline
 62
7
  6
CONTINUOUS
 70
0
 71
3
 72
8
 73
4
 74
0
 42
0.0000001
 43
0.0000001
 44
0.0000000001
 40
0.0
 40
0.0
 40
0.0
 40
0.0
 40
1.0
 40
1.0
 40
1.0
 40
1.0
 10
10.8128857876
 20
22.1606248343
 30
0.0
 10
10.7656964631
 20
22.1111798603
 30
0.0
 10
10.7212134071
 20
22.0591186129
 30
0.0
 10
10.6784072279
 20
22.0058338231
 30
0.0
  0
SPLINE
  5
776
100
AcDbEntity
  8
0
100
AcDbSpline
 62
7
  6
CONTINUOUS
 70
0
 71
3
 72
13
 73
9
 74
0
 42
0.0000001
 43
0.0000001
 44
0.0000000001
 40
0.0
 40
0.0
 40
0.0
 40
0.0
 40
0.1886241746
 40
0.362271941
 40
0.51614123
 40
0.675593281
 40
0.8715238011
 40
1.0
 40
1.0
 40
1.0
 40
1.0
 10
7.2462065185
 20
21.4707341293
 30
0.0
 10
7.2263629608
 20
21.3794123646
 30
0.0
 10
7.1421343352
 20
21.1988318938
 30
0.0
 10
6.8754877488
 20
21.1197343647
 30
0.0
 10
6.629175064
 20
21.1818311173
 30
0.0
 10
6.4643608855
 20
21.3958852334
 30
0.0
 10
6.4397654647
 20
21.6406399552
 30
0.0
 10
6.4536356769
 20
21.8022651745
 30
0.0
 10
6.4694425012
 20
21.8640543381
 30
0.0
  0
SPLINE
  5
777
100
AcDbEntity
  8
0
100
AcDbSpline
 62
7
  6
CONTINUOUS
 70
0
 71
3
 72
16
 73
12
 74
0
 42
0.0000001
 43
0.0000001
 44
0.0000000001
 40
0.0
 40
0.0
 40
0.0
 40
0.0
 40
0.1710231103
 40
0.2552638227
 40
0.3469531761
 40
0.4309012702
 40
0.5126967558
 40
0.6746082958
 40
0.7634329916
 40
0.8610175593
 40
1.0
 40
1.0
 40
1.0
 40
1.0
 10
7.3871703739
 20
21.9545631694
 30
0.0
 10
7.3564789932
 20
22.0614740013
 30
0.0
 10
7.2622244539
 20
22.2169188902
 30
0.0
 10
7.0557389081
 20
22.3189218137
 30
0.0
 10
6.8854719755
 20
22.339741955
 30
0.0
 10
6.7177832501
 20
22.3203079334
 30
0.0
 10
6.5165139616
 20
22.243332158
 30
0.0
 10
6.358327751
 20
22.0752050679
 30
0.0
 10
6.2862494638
 20
21.858151548
 30
0.0
 10
6.2665406335
 20
21.6463745068
 30
0.0
 10
6.2879085523
 20
21.4905553382
 30
0.0
 10
6.3148369216
 20
21.4037520917
 30
0.0
  0
SPLINE
  5
778
100
AcDbEntity
  8
0
100
AcDbSpline
 62
7
  6
CONTINUOUS
 70
0
 71
3
 72
8
 73
4
 74
0
 42
0.0000001
 43
0.0000001
 44
0.0000000001
 40
0.0
 40
0.0
 40
0.0
 40
0.0
 40
1.0
 40
1.0
 40
1.0
 40
1.0
 10
5.0965077831
 20
21.1621309181
 30
0.0
 10
5.0767896608
 20
21.2333104995
 30
0.0
 10
5.053746468
 20
21.3035968866
 30
0.0
 10
5.0287179145
 20
21.3730872359
 30
0.0
  0
SPLINE
  5
779
100
AcDbEntity
  8
0
100
AcDbSpline
 62
7
  6
CONTINUOUS
 70
0
 71
3
 72
9
 73
5
 74
0
 42
0.0000001
 43
0.0000001
 44
0.0000000001
 40
0.0
 40
0.0
 40
0.0
 40
0.0
 40
0.6062073946
 40
1.0
 40
1.0
 40
1.0
 40
1.0
 10
0.954960362
 20
21.5497814608
 30
0.0
 10
1.0014996372
 20
21.6755313421
 30
0.0
 10
1.0788036844
 20
21.8823502465
 30
0.0
 10
1.1543497951
 20
22.0912085795
 30
0.0
 10
1.1730138072
 20
22.1762874849
 30
0.0
  0
SPLINE
  5
77A
100
AcDbEntity
  8
0
100
AcDbSpline
 62
7
  6
CONTINUOUS
 70
0
 71
3
 72
11
 73
7
 74
0
 42
0.0000001
 43
0.0000001
 44
0.0000000001
 40
0.0
 40
0.0
 40
0.0
 40
0.0
 40
0.1914546415
 40
0.4289323167
 40
0.7144661583
 40
1.0
 40
1.0
 40
1.0
 40
1.0
 10
1.1730138072
 20
22.1762874849
 30
0.0
 10
1.1849671548
 20
22.1353773981
 30
0.0
 10
1.2144179581
 20
22.0445203799
 30
0.0
 10
1.2670101403
 20
21.8943806714
 30
0.0
 10
1.3345484547
 20
21.7274991169
 30
0.0
 10
1.3804827843
 20
21.6089650771
 30
0.0
 10
1.4036708643
 20
21.5497814608
 30
0.0
  0
SPLINE
  5
77B
100
AcDbEntity
  8
0
100
AcDbSpline
 62
7
  6
CONTINUOUS
 70
0
 71
3
 72
8
 73
4
 74
0
 42
0.0000001
 43
0.0000001
 44
0.0000000001
 40
0.0
 40
0.0
 40
0.0
 40
0.0
 40
1.0
 40
1.0
 40
1.0
 40
1.0
 10
-0.5028898073
 20
21.1621309181
 30
0.0
 10
-0.5226079296
 20
21.2333104995
 30
0.0
 10
-0.5456511224
 20
21.3035968866
 30
0.0
 10
-0.5706796759
 20
21.3730872359
 30
0.0
  0
SPLINE
  5
77C
100
AcDbEntity
  8
0
100
AcDbSpline
 62
7
  6
CONTINUOUS
 70
0
 71
3
 72
11
 73
7
 74
0
 42
0.0000001
 43
0.0000001
 44
0.0000000001
 40
0.0
 40
0.0
 40
0.0
 40
0.0
 40
0.1914546415
 40
0.4289323167
 40
0.7144661583
 40
1.0
 40
1.0
 40
1.0
 40
1.0
 10
8.0724113975
 20
24.0684561596
 30
0.0
 10
8.0843647452
 20
24.0275460728
 30
0.0
 10
8.1138155484
 20
23.9366890546
 30
0.0
 10
8.1664077306
 20
23.7865493461
 30
0.0
 10
8.2339460451
 20
23.6196677916
 30
0.0
 10
8.2798803747
 20
23.5011337518
 30
0.0
 10
8.3030684547
 20
23.4419501355
 30
0.0
  0
SPLINE
  5
77D
100
AcDbEntity
  8
0
100
AcDbSpline
 62
7
  6
CONTINUOUS
 70
0
 71
3
 72
9
 73
5
 74
0
 42
0.0000001
 43
0.0000001
 44
0.0000000001
 40
0.0
 40
0.0
 40
0.0
 40
0.0
 40
0.6062073946
 40
1.0
 40
1.0
 40
1.0
 40
1.0
 10
7.8543579523
 20
23.4419501355
 30
0.0
 10
7.9008972276
 20
23.5677000168
 30
0.0
 10
7.9782012748
 20
23.7745189212
 30
0.0
 10
8.0537473855
 20
23.9833772542
 30
0.0
 10
8.0724113975
 20
24.0684561596
 30
0.0
  0
SPLINE
  5
77E
100
AcDbEntity
  8
0
100
AcDbSpline
 62
7
  6
CONTINUOUS
 70
0
 71
3
 72
17
 73
13
 74
0
 42
0.0000001
 43
0.0000001
 44
0.0000000001
 40
0.0
 40
0.0
 40
0.0
 40
0.0
 40
0.162866463
 40
0.2822094762
 40
0.3878291633
 40
0.4976552
 40
0.6261669659
 40
0.740930338
 40
0.798068872
 40
0.8616252876
 40
0.9203209906
 40
1.0
 40
1.0
 40
1.0
 40
1.0
 10
6.9334429717
 20
23.4419501355
 30
0.0
 10
7.0089861823
 20
23.4419501355
 30
0.0
 10
7.1421310518
 20
23.4496675319
 30
0.0
 10
7.3071073754
 20
23.5401504081
 30
0.0
 10
7.3868162128
 20
23.6799309618
 30
0.0
 10
7.4127872199
 20
23.839797062
 30
0.0
 10
7.3798402638
 20
24.0053203138
 30
0.0
 10
7.2897485184
 20
24.1205854396
 30
0.0
 10
7.1912671625
 20
24.1706135064
 30
0.0
 10
7.1100848421
 20
24.1910041346
 30
0.0
 10
7.0167614022
 20
24.200485263
 30
0.0
 10
6.952535782
 20
24.2015886897
 30
0.0
 10
6.9155778468
 20
24.2015886897
 30
0.0
  0
SPLINE
  5
77F
100
AcDbEntity
  8
0
100
AcDbSpline
 62
7
  6
CONTINUOUS
 70
0
 71
3
 72
21
 73
17
 74
0
 42
0.0000001
 43
0.0000001
 44
0.0000000001
 40
0.0
 40
0.0
 40
0.0
 40
0.0
 40
0.1061896513
 40
0.2123793026
 40
0.2754316013
 40
0.3153155964
 40
0.3584868507
 40
0.4025796005
 40
0.4491900436
 40
0.4995905693
 40
0.5665099719
 40
0.6261566494
 40
0.6937293696
 40
0.7853467005
 40
0.8926733502
 40
1.0
 40
1.0
 40
1.0
 40
1.0
 10
6.6118691691
 20
24.052793509
 30
0.0
 10
6.6651996957
 20
24.052793509
 30
0.0
 10
6.7718391253
 20
24.0525809157
 30
0.0
 10
6.910250411
 20
24.0534080429
 30
0.0
 10
7.015103894
 20
24.051700611
 30
0.0
 10
7.0886892786
 20
24.0444794829
 30
0.0
 10
7.1476974836
 20
24.0159517176
 30
0.0
 10
7.1946151539
 20
23.9660823586
 30
0.0
 10
7.2250009185
 20
23.9006041554
 30
0.0
 10
7.2341866367
 20
23.8179188971
 30
0.0
 10
7.2218950125
 20
23.728034193
 30
0.0
 10
7.1661523786
 20
23.6427524497
 30
0.0
 10
7.0617888897
 20
23.5954826045
 30
0.0
 10
6.9271907701
 20
23.5890385487
 30
0.0
 10
6.7736342268
 20
23.5912656014
 30
0.0
 10
6.6657707187
 20
23.5907453162
 30
0.0
 10
6.6118691691
 20
23.5907453162
 30
0.0
  0
SPLINE
  5
780
100
AcDbEntity
  8
0
100
AcDbSpline
 62
7
  6
CONTINUOUS
 70
0
 71
3
 72
17
 73
13
 74
0
 42
0.0000001
 43
0.0000001
 44
0.0000000001
 40
0.0
 40
0.0
 40
0.0
 40
0.0
 40
0.1670193422
 40
0.2489101089
 40
0.332249531
 40
0.4248500285
 40
0.5329631435
 40
0.621218419
 40
0.7038945942
 40
0.852442915
 40
0.989586782
 40
1.0
 40
1.0
 40
1.0
 40
1.0
 10
5.178736639
 20
23.3323115813
 30
0.0
 10
5.1809475426
 20
23.2498995094
 30
0.0
 10
5.2161730761
 20
23.1239481376
 30
0.0
 10
5.3247195812
 20
22.998212211
 30
0.0
 10
5.434878072
 20
22.9305727877
 30
0.0
 10
5.5712699234
 20
22.8928388684
 30
0.0
 10
5.7141356007
 20
22.8820054193
 30
0.0
 10
5.8522796928
 20
22.8934140173
 30
0.0
 10
6.003601837
 20
22.941278394
 30
0.0
 10
6.153573089
 20
23.0617223632
 30
0.0
 10
6.1980799436
 20
23.2093729315
 30
0.0
 10
6.196736453
 20
23.2836959602
 30
0.0
 10
6.1965244668
 20
23.2889378699
 30
0.0
  0
SPLINE
  5
781
100
AcDbEntity
  8
0
100
AcDbSpline
 62
7
  6
CONTINUOUS
 70
0
 71
3
 72
8
 73
4
 74
0
 42
0.0000001
 43
0.0000001
 44
0.0000000001
 40
0.0
 40
0.0
 40
0.0
 40
0.0
 40
1.0
 40
1.0
 40
1.0
 40
1.0
 10
5.977654186
 20
23.5891546735
 30
0.0
 10
5.8891592694
 20
23.6296094337
 30
0.0
 10
5.7924749762
 20
23.6497632234
 30
0.0
 10
5.6977455195
 20
23.671995361
 30
0.0
  0
SPLINE
  5
782
100
AcDbEntity
  8
0
100
AcDbSpline
 62
7
  6
CONTINUOUS
 70
0
 71
3
 72
17
 73
13
 74
0
 42
0.0000001
 43
0.0000001
 44
0.0000000001
 40
0.0
 40
0.0
 40
0.0
 40
0.0
 40
0.1918461854
 40
0.3020932929
 40
0.373263025
 40
0.4465167567
 40
0.620181125
 40
0.7317940353
 40
0.8004359869
 40
0.8796234665
 40
0.9561869079
 40
1.0
 40
1.0
 40
1.0
 40
1.0
 10
5.6977455195
 20
23.671995361
 30
0.0
 10
5.6423450147
 20
23.6849973531
 30
0.0
 10
5.5567690327
 20
23.7079020236
 30
0.0
 10
5.450988128
 20
23.7513854949
 30
0.0
 10
5.4055981917
 20
23.8154715388
 30
0.0
 10
5.3877290627
 20
23.910502991
 30
0.0
 10
5.444201808
 20
24.019634206
 30
0.0
 10
5.5436417097
 20
24.0616688334
 30
0.0
 10
5.6196217635
 20
24.0743422869
 30
0.0
 10
5.6862554538
 20
24.0773729207
 30
0.0
 10
5.745536217
 20
24.0745122805
 30
0.0
 10
5.7807926527
 20
24.0688546155
 30
0.0
 10
5.7935097988
 20
24.06610398
 30
0.0
  0
SPLINE
  5
783
100
AcDbEntity
  8
0
100
AcDbSpline
 62
7
  6
CONTINUOUS
 70
0
 71
3
 72
15
 73
11
 74
0
 42
0.0000001
 43
0.0000001
 44
0.0000000001
 40
0.0
 40
0.0
 40
0.0
 40
0.0
 40
0.1559224567
 40
0.3149148587
 40
0.4054123469
 40
0.5050778062
 40
0.6822531041
 40
0.8348387299
 40
0.9758992276
 40
1.0
 40
1.0
 40
1.0
 40
1.0
 10
6.1654836269
 20
23.8413477258
 30
0.0
 10
6.1627314094
 20
23.9119888462
 30
0.0
 10
6.1211778073
 20
24.0587135908
 30
0.0
 10
5.9653651291
 20
24.1764747368
 30
0.0
 10
5.8118039638
 20
24.2182888696
 30
0.0
 10
5.6453429438
 20
24.2314849282
 30
0.0
 10
5.4473869946
 20
24.2036123003
 30
0.0
 10
5.2661422702
 20
24.0683556106
 30
0.0
 10
5.2220164811
 20
23.9216021446
 30
0.0
 10
5.226430396
 20
23.8452531029
 30
0.0
 10
5.2276526399
 20
23.8341839451
 30
0.0
  0
SPLINE
  5
784
100
AcDbEntity
  8
0
100
AcDbSpline
 62
7
  6
CONTINUOUS
 70
0
 71
3
 72
8
 73
4
 74
0
 42
0.0000001
 43
0.0000001
 44
0.0000000001
 40
0.0
 40
0.0
 40
0.0
 40
0.0
 40
1.0
 40
1.0
 40
1.0
 40
1.0
 10
5.6587112594
 20
23.5039277828
 30
0.0
 10
5.7339844016
 20
23.4851826178
 30
0.0
 10
5.8106373984
 20
23.4693785514
 30
0.0
 10
5.882577105
 20
23.4403594927
 30
0.0
  0
SPLINE
  5
785
100
AcDbEntity
  8
0
100
AcDbSpline
 62
7
  6
CONTINUOUS
 70
0
 71
3
 72
14
 73
10
 74
0
 42
0.0000001
 43
0.0000001
 44
0.0000000001
 40
0.0
 40
0.0
 40
0.0
 40
0.0
 40
0.1548130119
 40
0.2821889291
 40
0.4173170771
 40
0.573654791
 40
0.7697964875
 40
0.9960490302
 40
1.0
 40
1.0
 40
1.0
 40
1.0
 10
5.882577105
 20
23.4403594927
 30
0.0
 10
5.9242067929
 20
23.423901247
 30
0.0
 10
6.0019404044
 20
23.380658766
 30
0.0
 10
6.0358862883
 20
23.2552342152
 30
0.0
 10
5.9972031994
 20
23.1325518011
 30
0.0
 10
5.8733399397
 20
23.0485182433
 30
0.0
 10
5.7047371066
 20
23.0250554684
 30
0.0
 10
5.5797693343
 20
23.0473018665
 30
0.0
 10
5.518962067
 20
23.074944465
 30
0.0
 10
5.5179204973
 20
23.0754235402
 30
0.0
  0
SPLINE
  5
786
100
AcDbEntity
  8
0
100
AcDbSpline
 62
7
  6
CONTINUOUS
 70
0
 71
3
 72
16
 73
12
 74
0
 42
0.0000001
 43
0.0000001
 44
0.0000000001
 40
0.0
 40
0.0
 40
0.0
 40
0.0
 40
0.1849959594
 40
0.3236221971
 40
0.425291392
 40
0.4781303411
 40
0.5342446568
 40
0.6027870051
 40
0.690951619
 40
0.8454758095
 40
1.0
 40
1.0
 40
1.0
 40
1.0
 10
4.01749802
 20
24.052793509
 30
0.0
 10
4.0901104276
 20
24.052793509
 30
0.0
 10
4.2348878382
 20
24.0346825413
 30
0.0
 10
4.3114210247
 20
23.8591742611
 30
0.0
 10
4.2751953037
 20
23.7431178318
 30
0.0
 10
4.2182830099
 20
23.6812092726
 30
0.0
 10
4.155078378
 20
23.6490260493
 30
0.0
 10
4.0725767657
 20
23.6323930414
 30
0.0
 10
3.9502933407
 20
23.6285323899
 30
0.0
 10
3.7944427952
 20
23.630381506
 30
0.0
 10
3.673123571
 20
23.6299019427
 30
0.0
 10
3.6124715787
 20
23.6299019427
 30
0.0
  0
SPLINE
  5
787
100
AcDbEntity
  8
0
100
AcDbSpline
 62
7
  6
CONTINUOUS
 70
0
 71
3
 72
12
 73
8
 74
0
 42
0.0000001
 43
0.0000001
 44
0.0000000001
 40
0.0
 40
0.0
 40
0.0
 40
0.0
 40
0.2757460797
 40
0.5514921594
 40
0.7028339668
 40
0.8421806437
 40
1.0
 40
1.0
 40
1.0
 40
1.0
 10
4.5603066728
 20
22.909420015
 30
0.0
 10
4.5237196993
 20
22.9679714252
 30
0.0
 10
4.449501509
 20
23.0843568964
 30
0.0
 10
4.3602394122
 20
23.2363379725
 30
0.0
 10
4.2766721146
 20
23.3508358279
 30
0.0
 10
4.2043466189
 20
23.4376998934
 30
0.0
 10
4.1406614769
 20
23.4785430066
 30
0.0
 10
4.1056004596
 20
23.4967694126
 30
0.0
  0
SPLINE
  5
788
100
AcDbEntity
  8
0
100
AcDbSpline
 62
7
  6
CONTINUOUS
 70
0
 71
3
 72
14
 73
10
 74
0
 42
0.0000001
 43
0.0000001
 44
0.0000000001
 40
0.0
 40
0.0
 40
0.0
 40
0.0
 40
0.2475689294
 40
0.4540003985
 40
0.6221540562
 40
0.7031009836
 40
0.7808526016
 40
0.8745381942
 40
1.0
 40
1.0
 40
1.0
 40
1.0
 10
4.1056004596
 20
23.4967694126
 30
0.0
 10
4.2038510653
 20
23.5104135379
 30
0.0
 10
4.3981692389
 20
23.5728798514
 30
0.0
 10
4.4900076622
 20
23.8345642048
 30
0.0
 10
4.438837874
 20
24.0182591617
 30
0.0
 10
4.3555199305
 20
24.1219938011
 30
0.0
 10
4.2665851857
 20
24.1746518713
 30
0.0
 10
4.1485678522
 20
24.197761571
 30
0.0
 10
4.0607920524
 20
24.2015886897
 30
0.0
 10
4.010523259
 20
24.2015886897
 30
0.0
  0
SPLINE
  5
789
100
AcDbEntity
  8
0
100
AcDbSpline
 62
7
  6
CONTINUOUS
 70
0
 71
3
 72
18
 73
14
 74
0
 42
0.0000001
 43
0.0000001
 44
0.0000000001
 40
0.0
 40
0.0
 40
0.0
 40
0.0
 40
0.0953181628
 40
0.1906363256
 40
0.2452929172
 40
0.2823714498
 40
0.3222654602
 40
0.364416291
 40
0.4822511244
 40
0.5724800097
 40
0.6917873716
 40
0.8458936858
 40
1.0
 40
1.0
 40
1.0
 40
1.0
 10
3.6124715787
 20
23.481106762
 30
0.0
 10
3.6452040728
 20
23.481106762
 30
0.0
 10
3.7106583811
 20
23.4809835772
 30
0.0
 10
3.7949338035
 20
23.4814590851
 30
0.0
 10
3.8590843899
 20
23.4804904505
 30
0.0
 10
3.9043942809
 20
23.4766090489
 30
0.0
 10
3.9431454816
 20
23.4625511411
 30
0.0
 10
4.004392039
 20
23.4307246143
 30
0.0
 10
4.0621182859
 20
23.3640136539
 30
0.0
 10
4.1270207806
 20
23.2728724263
 30
0.0
 10
4.1954592097
 20
23.1681641799
 30
0.0
 10
4.2730745469
 20
23.0436319609
 30
0.0
 10
4.3296904841
 20
22.9541850184
 30
0.0
 10
4.3579158782
 20
22.909420015
 30
0.0
  0
SPLINE
  5
78A
100
AcDbEntity
  8
0
100
AcDbSpline
 62
7
  6
CONTINUOUS
 70
0
 71
3
 72
9
 73
5
 74
0
 42
0.0000001
 43
0.0000001
 44
0.0000000001
 40
0.0
 40
0.0
 40
0.0
 40
0.0
 40
0.6062073946
 40
1.0
 40
1.0
 40
1.0
 40
1.0
 10
2.4585748198
 20
23.4419501355
 30
0.0
 10
2.5051140951
 20
23.5677000168
 30
0.0
 10
2.5824181423
 20
23.7745189212
 30
0.0
 10
2.657964253
 20
23.9833772542
 30
0.0
 10
2.676628265
 20
24.0684561596
 30
0.0
  0
SPLINE
  5
78B
100
AcDbEntity
  8
0
100
AcDbSpline
 62
7
  6
CONTINUOUS
 70
0
 71
3
 72
11
 73
7
 74
0
 42
0.0000001
 43
0.0000001
 44
0.0000000001
 40
0.0
 40
0.0
 40
0.0
 40
0.0
 40
0.1914546415
 40
0.4289323167
 40
0.7144661583
 40
1.0
 40
1.0
 40
1.0
 40
1.0
 10
2.676628265
 20
24.0684561596
 30
0.0
 10
2.6885816127
 20
24.0275460728
 30
0.0
 10
2.7180324159
 20
23.9366890546
 30
0.0
 10
2.7706245981
 20
23.7865493461
 30
0.0
 10
2.8381629126
 20
23.6196677916
 30
0.0
 10
2.8840972421
 20
23.5011337518
 30
0.0
 10
2.9072853221
 20
23.4419501355
 30
0.0
  0
SPLINE
  5
78C
100
AcDbEntity
  8
0
100
AcDbSpline
 62
7
  6
CONTINUOUS
 70
0
 71
3
 72
8
 73
4
 74
0
 42
0.0000001
 43
0.0000001
 44
0.0000000001
 40
0.0
 40
0.0
 40
0.0
 40
0.0
 40
1.0
 40
1.0
 40
1.0
 40
1.0
 10
1.4162743568
 20
23.3045349035
 30
0.0
 10
1.3919866189
 20
23.2358634843
 30
0.0
 10
1.3677213588
 20
23.1671654979
 30
0.0
 10
1.3453029638
 20
23.0978612875
 30
0.0
  0
SPLINE
  5
78D
100
AcDbEntity
  8
0
100
AcDbSpline
 62
7
  6
CONTINUOUS
 70
0
 71
3
 72
8
 73
4
 74
0
 42
0.0000001
 43
0.0000001
 44
0.0000000001
 40
0.0
 40
0.0
 40
0.0
 40
0.0
 40
1.0
 40
1.0
 40
1.0
 40
1.0
 10
1.3453029638
 20
23.0978612875
 30
0.0
 10
1.3256544127
 20
23.1617497917
 30
0.0
 10
1.3045730066
 20
23.2251916391
 30
0.0
 10
1.2835089256
 20
23.2886275202
 30
0.0
  0
SPLINE
  5
78E
100
AcDbEntity
  8
0
100
AcDbSpline
 62
7
  6
CONTINUOUS
 70
0
 71
3
 72
8
 73
4
 74
0
 42
0.0000001
 43
0.0000001
 44
0.0000000001
 40
0.0
 40
0.0
 40
0.0
 40
0.0
 40
1.0
 40
1.0
 40
1.0
 40
1.0
 10
-0.5028898073
 20
23.0542995928
 30
0.0
 10
-0.5226079296
 20
23.1254791742
 30
0.0
 10
-0.5456511224
 20
23.1957655613
 30
0.0
 10
-0.5706796759
 20
23.2652559106
 30
0.0
  0
SPLINE
  5
78F
100
AcDbEntity
  8
0
100
AcDbSpline
 62
7
  6
CONTINUOUS
 70
0
 71
3
 72
21
 73
17
 74
0
 42
0.0000001
 43
0.0000001
 44
0.0000000001
 40
0.0
 40
0.0
 40
0.0
 40
0.0
 40
0.079655535
 40
0.1647530378
 40
0.3239470633
 40
0.4050694934
 40
0.4890808579
 40
0.5531908156
 40
0.6133012092
 40
0.73132076
 40
0.7924786969
 40
0.8564070944
 40
0.9247623295
 40
0.961389452
 40
0.9804328891
 40
1.0
 40
1.0
 40
1.0
 40
1.0
 10
9.6627629535
 20
19.7999717305
 30
0.0
 10
9.6614857392
 20
19.8540138199
 30
0.0
 10
9.6492059015
 20
19.9655047352
 30
0.0
 10
9.5801693484
 20
20.1754953978
 30
0.0
 10
9.4236302445
 20
20.3498057975
 30
0.0
 10
9.2184437688
 20
20.4352558754
 30
0.0
 10
9.0625618337
 20
20.4534782327
 30
0.0
 10
8.9213845393
 20
20.4416968667
 30
0.0
 10
8.7626913274
 20
20.3966174542
 30
0.0
 10
8.6249358046
 20
20.3003847971
 30
0.0
 10
8.5261648788
 20
20.167583395
 30
0.0
 10
8.4711587525
 20
20.0476415854
 30
0.0
 10
8.4453069548
 20
19.9355564702
 30
0.0
 10
8.4364908757
 20
19.8520065368
 30
0.0
 10
8.43394208
 20
19.8011290314
 30
0.0
 10
8.4334722881
 20
19.7749917361
 30
0.0
 10
8.4335089256
 20
19.7617449752
 30
0.0
  0
SPLINE
  5
790
100
AcDbEntity
  8
0
100
AcDbSpline
 62
7
  6
CONTINUOUS
 70
0
 71
3
 72
19
 73
15
 74
0
 42
0.0000001
 43
0.0000001
 44
0.0000000001
 40
0.0
 40
0.0
 40
0.0
 40
0.0
 40
0.0209141588
 40
0.0417240353
 40
0.0830180143
 40
0.1643955278
 40
0.2449735334
 40
0.3254892549
 40
0.4910922648
 40
0.64978663
 40
0.8096116874
 40
0.8962681261
 40
0.9886160257
 40
1.0
 40
1.0
 40
1.0
 40
1.0
 10
8.4335089256
 20
19.7617449752
 30
0.0
 10
8.4335480854
 20
19.7475862748
 30
0.0
 10
8.4342523369
 20
19.719337504
 30
0.0
 10
8.4388637615
 20
19.663299834
 30
0.0
 10
8.4547644843
 20
19.5673154416
 30
0.0
 10
8.500658429
 20
19.4360861917
 30
0.0
 10
8.5929652068
 20
19.298110678
 30
0.0
 10
8.7638033908
 20
19.152703837
 30
0.0
 10
9.0438575335
 20
19.0821284983
 30
0.0
 10
9.3766663522
 20
19.1608607781
 30
0.0
 10
9.5762439228
 20
19.3735579931
 30
0.0
 10
9.6509992825
 20
19.5926277159
 30
0.0
 10
9.663741484
 20
19.7218460076
 30
0.0
 10
9.6629454867
 20
19.7922483029
 30
0.0
 10
9.6627629535
 20
19.7999717305
 30
0.0
  0
SPLINE
  5
791
100
AcDbEntity
  8
0
100
AcDbSpline
 62
7
  6
CONTINUOUS
 70
0
 71
3
 72
22
 73
18
 74
0
 42
0.0000001
 43
0.0000001
 44
0.0000000001
 40
0.0
 40
0.0
 40
0.0
 40
0.0
 40
0.0117996083
 40
0.0885180352
 40
0.1575257249
 40
0.2806013325
 40
0.3944812377
 40
0.4516059383
 40
0.512099861
 40
0.5716505626
 40
0.6281618623
 40
0.7415635922
 40
0.8620673557
 40
0.927859106
 40
0.9630046549
 40
0.9812572169
 40
1.0
 40
1.0
 40
1.0
 40
1.0
 10
9.4905313137
 20
19.7962725656
 30
0.0
 10
9.4906600828
 20
19.7902294173
 30
0.0
 10
9.4911700039
 20
19.7448871029
 30
0.0
 10
9.48624994
 20
19.6642790833
 30
0.0
 10
9.4573328041
 20
19.5293900438
 30
0.0
 10
9.3792447451
 20
19.3881511943
 30
0.0
 10
9.252871623
 20
19.297326473
 30
0.0
 10
9.1386766622
 20
19.2633196949
 30
0.0
 10
9.0478933808
 20
19.2555997738
 30
0.0
 10
8.9574324745
 20
19.2632921958
 30
0.0
 10
8.8442570806
 20
19.2971437526
 30
0.0
 10
8.7195582313
 20
19.3864561461
 30
0.0
 10
8.640164672
 20
19.5228625464
 30
0.0
 10
8.6144292177
 20
19.6336759446
 30
0.0
 10
8.6079832687
 20
19.6943248233
 30
0.0
 10
8.6060948609
 20
19.7311665716
 30
0.0
 10
8.6058149884
 20
19.7500819606
 30
0.0
 10
8.6057980823
 20
19.7596647476
 30
0.0
  0
SPLINE
  5
792
100
AcDbEntity
  8
0
100
AcDbSpline
 62
7
  6
CONTINUOUS
 70
0
 71
3
 72
19
 73
15
 74
0
 42
0.0000001
 43
0.0000001
 44
0.0000000001
 40
0.0
 40
0.0
 40
0.0
 40
0.0
 40
0.0233091563
 40
0.0457977915
 40
0.0883748527
 40
0.1645808439
 40
0.2311233139
 40
0.29133561
 40
0.4031464607
 40
0.5152941738
 40
0.6717093616
 40
0.8281712423
 40
0.9152610478
 40
1.0
 40
1.0
 40
1.0
 40
1.0
 10
8.6057980823
 20
19.7596647476
 30
0.0
 10
8.6057770572
 20
19.7715822244
 30
0.0
 10
8.6061152467
 20
19.7949969632
 30
0.0
 10
8.608016142
 20
19.8401482376
 30
0.0
 10
8.6145000506
 20
19.9121010426
 30
0.0
 10
8.6332349755
 20
20.0055725418
 30
0.0
 10
8.6756035104
 20
20.1013209829
 30
0.0
 10
8.7503086722
 20
20.1991155054
 30
0.0
 10
8.8773428624
 20
20.2793587891
 30
0.0
 10
9.0720501232
 20
20.314478761
 30
0.0
 10
9.2949758267
 20
20.2574276509
 30
0.0
 10
9.4334250306
 20
20.089564311
 30
0.0
 10
9.48137344
 20
19.9275622771
 30
0.0
 10
9.4896065574
 20
19.8396714683
 30
0.0
 10
9.4905313137
 20
19.7962725656
 30
0.0
  0
SPLINE
  5
793
100
AcDbEntity
  8
0
100
AcDbSpline
 62
7
  6
CONTINUOUS
 70
0
 71
3
 72
14
 73
10
 74
0
 42
0.0000001
 43
0.0000001
 44
0.0000000001
 40
0.0
 40
0.0
 40
0.0
 40
0.0
 40
0.1295677007
 40
0.2554335134
 40
0.4799358713
 40
0.6422530386
 40
0.8143253216
 40
0.906303648
 40
1.0
 40
1.0
 40
1.0
 40
1.0
 10
2.6068564205
 20
19.5297325593
 30
0.0
 10
2.6059548194
 20
19.4919431948
 30
0.0
 10
2.5958277225
 20
19.4178848579
 30
0.0
 10
2.5289064839
 20
19.2916052826
 30
0.0
 10
2.3760161604
 20
19.2219605522
 30
0.0
 10
2.2115752932
 20
19.2706000338
 30
0.0
 10
2.1298954762
 20
19.3720852727
 30
0.0
 10
2.0962863928
 20
19.4705575501
 30
0.0
 10
2.0901474076
 20
19.5244615137
 30
0.0
 10
2.0901354317
 20
19.5516452216
 30
0.0
  0
SPLINE
  5
794
100
AcDbEntity
  8
0
100
AcDbSpline
 62
7
  6
CONTINUOUS
 70
0
 71
3
 72
17
 73
13
 74
0
 42
0.0000001
 43
0.0000001
 44
0.0000000001
 40
0.0
 40
0.0
 40
0.0
 40
0.0
 40
0.0688132693
 40
0.1330454707
 40
0.2532644619
 40
0.3709723253
 40
0.4893342006
 40
0.6101708629
 40
0.725058694
 40
0.8462515886
 40
0.9850328568
 40
1.0
 40
1.0
 40
1.0
 40
1.0
 10
2.0901354317
 20
19.5516452216
 30
0.0
 10
2.0901266362
 20
19.5716097108
 30
0.0
 10
2.0933278184
 20
19.61019119
 30
0.0
 10
2.1127618066
 20
19.6812947508
 30
0.0
 10
2.1605814308
 20
19.7574492847
 30
0.0
 10
2.2482214707
 20
19.8177720857
 30
0.0
 10
2.3523931147
 20
19.8358102301
 30
0.0
 10
2.4562247258
 20
19.8187424951
 30
0.0
 10
2.5434011018
 20
19.7567960761
 30
0.0
 10
2.5983360422
 20
19.6593290723
 30
0.0
 10
2.6074498781
 20
19.5789703235
 30
0.0
 10
2.6069605699
 20
19.5340978357
 30
0.0
 10
2.6068564205
 20
19.5297325593
 30
0.0
  0
SPLINE
  5
795
100
AcDbEntity
  8
0
100
AcDbSpline
 62
7
  6
CONTINUOUS
 70
0
 71
3
 72
21
 73
17
 74
0
 42
0.0000001
 43
0.0000001
 44
0.0000000001
 40
0.0
 40
0.0
 40
0.0
 40
0.0
 40
0.0008503
 40
0.0985621227
 40
0.1748664531
 40
0.2372092315
 40
0.2927190958
 40
0.3930539986
 40
0.445077151
 40
0.5009691597
 40
0.5748174179
 40
0.6420615242
 40
0.7876364965
 40
0.8827503296
 40
0.9383292026
 40
1.0
 40
1.0
 40
1.0
 40
1.0
 10
1.7612164286
 20
19.7691706796
 30
0.0
 10
1.7612176877
 20
19.7696729845
 30
0.0
 10
1.7613467085
 20
19.8278975471
 30
0.0
 10
1.7581236745
 20
19.9312204657
 30
0.0
 10
1.7373742958
 20
20.0698217242
 30
0.0
 10
1.7013145866
 20
20.179090022
 30
0.0
 10
1.6459646744
 20
20.2958320006
 30
0.0
 10
1.5526727593
 20
20.3855419477
 30
0.0
 10
1.4353012683
 20
20.4267262064
 30
0.0
 10
1.3278132005
 20
20.4370169103
 30
0.0
 10
1.2104760687
 20
20.42292022
 30
0.0
 10
1.0566170445
 20
20.3426539745
 30
0.0
 10
0.96078317
 20
20.1728938299
 30
0.0
 10
0.9281809961
 20
20.001456675
 30
0.0
 10
0.9170893223
 20
19.8763351004
 30
0.0
 10
0.915409187
 20
19.8070988519
 30
0.0
 10
0.9154366365
 20
19.7706775974
 30
0.0
  0
SPLINE
  5
796
100
AcDbEntity
  8
0
100
AcDbSpline
 62
7
  6
CONTINUOUS
 70
0
 71
3
 72
22
 73
18
 74
0
 42
0.0000001
 43
0.0000001
 44
0.0000000001
 40
0.0
 40
0.0
 40
0.0
 40
0.0
 40
0.0497673689
 40
0.0961198857
 40
0.1792127511
 40
0.2508671585
 40
0.313246013
 40
0.4038271368
 40
0.4503451261
 40
0.5006593148
 40
0.5748837013
 40
0.6423422751
 40
0.7115605753
 40
0.7895545453
 40
0.8839946311
 40
0.9394875289
 40
1.0
 40
1.0
 40
1.0
 40
1.0
 10
0.9154366365
 20
19.7706775974
 30
0.0
 10
0.9154587878
 20
19.7412862147
 30
0.0
 10
0.9166475995
 20
19.6845145403
 30
0.0
 10
0.9242986439
 20
19.5789328092
 30
0.0
 10
0.9426219637
 20
19.461263735
 30
0.0
 10
0.9810533278
 20
19.3382797975
 30
0.0
 10
1.0469838589
 20
19.2215872888
 30
0.0
 10
1.1444998344
 20
19.1463521931
 30
0.0
 10
1.2512498999
 20
19.114175533
 30
0.0
 10
1.3523611573
 20
19.1058207314
 30
0.0
 10
1.4667979597
 20
19.1194090572
 30
0.0
 10
1.5798257286
 20
19.1786049156
 30
0.0
 10
1.6641955895
 20
19.276441362
 30
0.0
 10
1.7229166655
 20
19.4081395574
 30
0.0
 10
1.7488010898
 20
19.5410701204
 30
0.0
 10
1.759537292
 20
19.6649056327
 30
0.0
 10
1.761126824
 20
19.7334236377
 30
0.0
 10
1.7612164286
 20
19.7691706796
 30
0.0
  0
SPLINE
  5
797
100
AcDbEntity
  8
0
100
AcDbSpline
 62
7
  6
CONTINUOUS
 70
0
 71
3
 72
19
 73
15
 74
0
 42
0.0000001
 43
0.0000001
 44
0.0000000001
 40
0.0
 40
0.0
 40
0.0
 40
0.0
 40
0.1121022452
 40
0.203560995
 40
0.3311008693
 40
0.4188848515
 40
0.4999265114
 40
0.5809484622
 40
0.6685690187
 40
0.724946389
 40
0.7966552841
 40
0.888070902
 40
0.9415010003
 40
1.0
 40
1.0
 40
1.0
 40
1.0
 10
1.6045931855
 20
19.7720210387
 30
0.0
 10
1.6046081736
 20
19.722648689
 30
0.0
 10
1.6022259418
 20
19.6329908086
 30
0.0
 10
1.5866052823
 20
19.4888150918
 30
0.0
 10
1.5487575264
 20
19.3543142033
 30
0.0
 10
1.449255855
 20
19.2613883543
 30
0.0
 10
1.3383057057
 20
19.2335134392
 30
0.0
 10
1.22762066
 20
19.2613613457
 30
0.0
 10
1.1513578504
 20
19.3313246971
 30
0.0
 10
1.1109329774
 20
19.4180167489
 30
0.0
 10
1.0871912624
 20
19.5119968541
 30
0.0
 10
1.0770702115
 20
19.6068982663
 30
0.0
 10
1.0727246732
 20
19.6962129121
 30
0.0
 10
1.07204858
 20
19.7454391984
 30
0.0
 10
1.0720631425
 20
19.7711670627
 30
0.0
  0
SPLINE
  5
798
100
AcDbEntity
  8
0
100
AcDbSpline
 62
7
  6
CONTINUOUS
 70
0
 71
3
 72
19
 73
15
 74
0
 42
0.0000001
 43
0.0000001
 44
0.0000000001
 40
0.0
 40
0.0
 40
0.0
 40
0.0
 40
0.0578547042
 40
0.1109709189
 40
0.2035300567
 40
0.2792107381
 40
0.3404922826
 40
0.4207762732
 40
0.4999129982
 40
0.5829178199
 40
0.6712434165
 40
0.7987902594
 40
0.8898698366
 40
1.0
 40
1.0
 40
1.0
 40
1.0
 10
1.0720631425
 20
19.7711670627
 30
0.0
 10
1.0720775447
 20
19.7966115657
 30
0.0
 10
1.0727954127
 20
19.8454167201
 30
0.0
 10
1.0775643417
 20
19.9347975117
 30
0.0
 10
1.088812197
 20
20.0317060373
 30
0.0
 10
1.1135273097
 20
20.129883929
 30
0.0
 10
1.1539644558
 20
20.2175804744
 30
0.0
 10
1.2302518368
 20
20.2847437306
 30
0.0
 10
1.3382551077
 20
20.3079213958
 30
0.0
 10
1.4495880987
 20
20.2814811348
 30
0.0
 10
1.5496573893
 20
20.1869203129
 30
0.0
 10
1.5867155642
 20
20.0523115149
 30
0.0
 10
1.6022118389
 20
19.9091372385
 30
0.0
 10
1.6045784611
 20
19.8205248391
 30
0.0
 10
1.6045931855
 20
19.7720210387
 30
0.0
  0
SPLINE
  5
799
100
AcDbEntity
  8
0
100
AcDbSpline
 62
7
  6
CONTINUOUS
 70
0
 71
3
 72
14
 73
10
 74
0
 42
0.0000001
 43
0.0000001
 44
0.0000000001
 40
0.0
 40
0.0
 40
0.0
 40
0.0
 40
0.1295677007
 40
0.2554335134
 40
0.4799358713
 40
0.6422530386
 40
0.8143253216
 40
0.906303648
 40
1.0
 40
1.0
 40
1.0
 40
1.0
 10
0.6020371434
 20
19.5297325593
 30
0.0
 10
0.6011355423
 20
19.4919431948
 30
0.0
 10
0.5910084454
 20
19.4178848579
 30
0.0
 10
0.5240872068
 20
19.2916052826
 30
0.0
 10
0.3711968833
 20
19.2219605522
 30
0.0
 10
0.2067560161
 20
19.2706000338
 30
0.0
 10
0.1250761991
 20
19.3720852727
 30
0.0
 10
0.0914671157
 20
19.4705575501
 30
0.0
 10
0.0853281305
 20
19.5244615137
 30
0.0
 10
0.0853161546
 20
19.5516452216
 30
0.0
  0
SPLINE
  5
79A
100
AcDbEntity
  8
0
100
AcDbSpline
 62
7
  6
CONTINUOUS
 70
0
 71
3
 72
17
 73
13
 74
0
 42
0.0000001
 43
0.0000001
 44
0.0000000001
 40
0.0
 40
0.0
 40
0.0
 40
0.0
 40
0.0688132693
 40
0.1330454707
 40
0.2532644619
 40
0.3709723253
 40
0.4893342006
 40
0.6101708629
 40
0.725058694
 40
0.8462515886
 40
0.9850328568
 40
1.0
 40
1.0
 40
1.0
 40
1.0
 10
0.0853161546
 20
19.5516452216
 30
0.0
 10
0.0853073591
 20
19.5716097108
 30
0.0
 10
0.0885085413
 20
19.61019119
 30
0.0
 10
0.1079425295
 20
19.6812947508
 30
0.0
 10
0.1557621537
 20
19.7574492847
 30
0.0
 10
0.2434021936
 20
19.8177720857
 30
0.0
 10
0.3475738376
 20
19.8358102301
 30
0.0
 10
0.4514054487
 20
19.8187424951
 30
0.0
 10
0.5385818247
 20
19.7567960761
 30
0.0
 10
0.5935167651
 20
19.6593290723
 30
0.0
 10
0.602630601
 20
19.5789703235
 30
0.0
 10
0.6021412927
 20
19.5340978357
 30
0.0
 10
0.6020371434
 20
19.5297325593
 30
0.0
  0
SPLINE
  5
79B
100
AcDbEntity
  8
0
100
AcDbSpline
 62
7
  6
CONTINUOUS
 70
0
 71
3
 72
17
 73
13
 74
0
 42
0.0000001
 43
0.0000001
 44
0.0000000001
 40
0.0
 40
0.0
 40
0.0
 40
0.0
 40
0.0550987438
 40
0.165410931
 40
0.2690930076
 40
0.3781113287
 40
0.4389892583
 40
0.5055332482
 40
0.5704448647
 40
0.6316038737
 40
0.7491292803
 40
1.0
 40
1.0
 40
1.0
 40
1.0
 10
12.6708140275
 20
19.5194147423
 30
0.0
 10
12.6790215881
 20
19.492957778
 30
0.0
 10
12.7076703158
 20
19.4148537603
 30
0.0
 10
12.7747082733
 20
19.2964823887
 30
0.0
 10
12.8960215447
 20
19.1851346658
 30
0.0
 10
13.0251660065
 20
19.1323607697
 30
0.0
 10
13.1419389009
 20
19.1126152541
 30
0.0
 10
13.2381724475
 20
19.1075187498
 30
0.0
 10
13.334642623
 20
19.1135337313
 30
0.0
 10
13.4537810696
 20
19.140916566
 30
0.0
 10
13.6487006986
 20
19.2428922603
 30
0.0
 10
13.7435365882
 20
19.421636854
 30
0.0
 10
13.7744727811
 20
19.5432020647
 30
0.0
  0
SPLINE
  5
79C
100
AcDbEntity
  8
0
100
AcDbSpline
 62
7
  6
CONTINUOUS
 70
0
 71
3
 72
14
 73
10
 74
0
 42
0.0000001
 43
0.0000001
 44
0.0000000001
 40
0.0
 40
0.0
 40
0.0
 40
0.0
 40
0.0585457358
 40
0.2896066877
 40
0.4100139332
 40
0.5432572089
 40
0.6589324415
 40
0.7634313747
 40
1.0
 40
1.0
 40
1.0
 40
1.0
 10
12.8254196072
 20
19.9797169887
 30
0.0
 10
12.8303810577
 20
19.9991113888
 30
0.0
 10
12.8599501454
 20
20.0939672653
 30
0.0
 10
12.9429621506
 20
20.2187208117
 30
0.0
 10
13.09625952
 20
20.2899876989
 30
0.0
 10
13.2229431188
 20
20.3046263982
 30
0.0
 10
13.3441842285
 20
20.2911768722
 30
0.0
 10
13.4879900569
 20
20.22095821
 30
0.0
 10
13.5465571293
 20
20.1075670478
 30
0.0
 10
13.5708583232
 20
20.0305797282
 30
0.0
  0
SPLINE
  5
79D
100
AcDbEntity
  8
0
100
AcDbSpline
 62
7
  6
CONTINUOUS
 70
0
 71
3
 72
11
 73
7
 74
0
 42
0.0000001
 43
0.0000001
 44
0.0000000001
 40
0.0
 40
0.0
 40
0.0
 40
0.0
 40
0.0647111526
 40
0.3767647199
 40
0.6687741494
 40
1.0
 40
1.0
 40
1.0
 40
1.0
 10
10.4500893144
 20
20.2895979559
 30
0.0
 10
10.4570403301
 20
20.2880944968
 30
0.0
 10
10.4973108081
 20
20.2781382756
 30
0.0
 10
10.5662473235
 20
20.2463602837
 30
0.0
 10
10.6301552401
 20
20.1613506919
 30
0.0
 10
10.6459044758
 20
20.0931627893
 30
0.0
 10
10.6497739859
 20
20.0570103764
 30
0.0
  0
SPLINE
  5
79E
100
AcDbEntity
  8
0
100
AcDbSpline
 62
7
  6
CONTINUOUS
 70
0
 71
3
 72
12
 73
8
 74
0
 42
0.0000001
 43
0.0000001
 44
0.0000000001
 40
0.0
 40
0.0
 40
0.0
 40
0.0
 40
0.2325740671
 40
0.3843203229
 40
0.5540955725
 40
0.7354508684
 40
1.0
 40
1.0
 40
1.0
 40
1.0
 10
9.8842321555
 20
20.057677921
 30
0.0
 10
9.8892770107
 20
20.0119895809
 30
0.0
 10
9.9138898033
 20
19.9385153191
 30
0.0
 10
9.9869842881
 20
19.857712115
 30
0.0
 10
10.0697185583
 20
19.8042391888
 30
0.0
 10
10.1819895856
 20
19.7623223433
 30
0.0
 10
10.2655079297
 20
19.7398191109
 30
0.0
 10
10.3152907749
 20
19.7274217587
 30
0.0
  0
SPLINE
  5
79F
100
AcDbEntity
  8
0
100
AcDbSpline
 62
7
  6
CONTINUOUS
 70
0
 71
3
 72
10
 73
6
 74
0
 42
0.0000001
 43
0.0000001
 44
0.0000000001
 40
0.0
 40
0.0
 40
0.0
 40
0.0
 40
0.2516448607
 40
0.484948182
 40
1.0
 40
1.0
 40
1.0
 40
1.0
 10
10.1745000129
 20
19.2989175161
 30
0.0
 10
10.1490909317
 20
19.310604548
 30
0.0
 10
10.1024895019
 20
19.3384559577
 30
0.0
 10
10.0266411544
 20
19.4217877571
 30
0.0
 10
10.0061269362
 20
19.5069492958
 30
0.0
 10
9.9997739859
 20
19.5636368825
 30
0.0
  0
SPLINE
  5
7A0
100
AcDbEntity
  8
0
100
AcDbSpline
 62
7
  6
CONTINUOUS
 70
0
 71
3
 72
9
 73
5
 74
0
 42
0.0000001
 43
0.0000001
 44
0.0000000001
 40
0.0
 40
0.0
 40
0.0
 40
0.0
 40
0.4540593942
 40
1.0
 40
1.0
 40
1.0
 40
1.0
 10
10.8531039824
 20
19.5124318458
 30
0.0
 10
10.8506821212
 20
19.5723186626
 30
0.0
 10
10.811665715
 20
19.7033126273
 30
0.0
 10
10.6982670104
 20
19.7829014072
 30
0.0
 10
10.6342337016
 20
19.8126486494
 30
0.0
  0
SPLINE
  5
7A1
100
AcDbEntity
  8
0
100
AcDbSpline
 62
7
  6
CONTINUOUS
 70
0
 71
3
 72
11
 73
7
 74
0
 42
0.0000001
 43
0.0000001
 44
0.0000000001
 40
0.0
 40
0.0
 40
0.0
 40
0.0
 40
0.1481921383
 40
0.3499850632
 40
0.5371822993
 40
1.0
 40
1.0
 40
1.0
 40
1.0
 10
3.404731282
 20
19.2497447945
 30
0.0
 10
3.3823901406
 20
19.2448034359
 30
0.0
 10
3.3280672855
 20
19.2394595273
 30
0.0
 10
3.2449500312
 20
19.250729909
 30
0.0
 10
3.1281674056
 20
19.3190523658
 30
0.0
 10
3.0915337405
 20
19.4235453572
 30
0.0
 10
3.0768824196
 20
19.4931549548
 30
0.0
  0
SPLINE
  5
7A2
100
AcDbEntity
  8
0
100
AcDbSpline
 62
7
  6
CONTINUOUS
 70
0
 71
3
 72
10
 73
6
 74
0
 42
0.0000001
 43
0.0000001
 44
0.0000000001
 40
0.0
 40
0.0
 40
0.0
 40
0.0
 40
0.1197196058
 40
0.414064931
 40
1.0
 40
1.0
 40
1.0
 40
1.0
 10
3.7598207479
 20
19.587225838
 30
0.0
 10
3.7572182513
 20
19.601454648
 30
0.0
 10
3.7452090648
 20
19.6500406361
 30
0.0
 10
3.6882398522
 20
19.7592899452
 30
0.0
 10
3.5867014723
 20
19.8170461137
 30
0.0
 10
3.517883963
 20
19.8329611008
 30
0.0
  0
SPLINE
  5
7A3
100
AcDbEntity
  8
0
100
AcDbSpline
 62
7
  6
CONTINUOUS
 70
0
 71
3
 72
9
 73
5
 74
0
 42
0.0000001
 43
0.0000001
 44
0.0000000001
 40
0.0
 40
0.0
 40
0.0
 40
0.0
 40
0.2395227542
 40
1.0
 40
1.0
 40
1.0
 40
1.0
 10
3.1408329452
 20
20.3938978424
 30
0.0
 10
3.1141951126
 20
20.3808021191
 30
0.0
 10
3.009703678
 20
20.3121491964
 30
0.0
 10
2.9524425985
 20
20.1883497956
 30
0.0
 10
2.9359185642
 20
20.0961670029
 30
0.0
  0
SPLINE
  5
7A4
100
AcDbEntity
  8
0
100
AcDbSpline
 62
7
  6
CONTINUOUS
 70
0
 71
3
 72
11
 73
7
 74
0
 42
0.0000001
 43
0.0000001
 44
0.0000000001
 40
0.0
 40
0.0
 40
0.0
 40
0.0
 40
0.1743449046
 40
0.4400386908
 40
0.7168578295
 40
1.0
 40
1.0
 40
1.0
 40
1.0
 10
3.536382694
 20
20.0591802574
 30
0.0
 10
3.5334681083
 20
20.0394359883
 30
0.0
 10
3.519447667
 20
19.9910396665
 30
0.0
 10
3.4611267736
 20
19.9295361861
 30
0.0
 10
3.3744974786
 20
19.891664125
 30
0.0
 10
3.3109896166
 20
19.8828858444
 30
0.0
 10
3.279028601
 20
19.8828858444
 30
0.0
  0
SPLINE
  5
7A5
100
AcDbEntity
  8
0
100
AcDbSpline
 62
7
  6
CONTINUOUS
 70
0
 71
3
 72
16
 73
12
 74
0
 42
0.0000001
 43
0.0000001
 44
0.0000000001
 40
0.0
 40
0.0
 40
0.0
 40
0.0
 40
0.0396701491
 40
0.1911100705
 40
0.3181960187
 40
0.4474446106
 40
0.5255746268
 40
0.6004095975
 40
0.7520063255
 40
0.915500248
 40
1.0
 40
1.0
 40
1.0
 40
1.0
 10
1.9289535882
 20
19.5046832349
 30
0.0
 10
1.9324046264
 20
19.4861921615
 30
0.0
 10
1.9520435242
 20
19.3975358988
 30
0.0
 10
2.0143859438
 20
19.2543833887
 30
0.0
 10
2.1739984645
 20
19.132047138
 30
0.0
 10
2.334755844
 20
19.1023646552
 30
0.0
 10
2.4687256536
 20
19.1179305108
 30
0.0
 10
2.6038595674
 20
19.1745019849
 30
0.0
 10
2.7315935464
 20
19.3224619097
 30
0.0
 10
2.7717616099
 20
19.5138769107
 30
0.0
 10
2.7597101549
 20
19.6325069189
 30
0.0
 10
2.7503456174
 20
19.6715561788
 30
0.0
  0
SPLINE
  5
7A6
100
AcDbEntity
  8
0
100
AcDbSpline
 62
7
  6
CONTINUOUS
 70
0
 71
3
 72
12
 73
8
 74
0
 42
0.0000001
 43
0.0000001
 44
0.0000000001
 40
0.0
 40
0.0
 40
0.0
 40
0.0
 40
0.0577457583
 40
0.2387294898
 40
0.5764425315
 40
0.7815163432
 40
1.0
 40
1.0
 40
1.0
 40
1.0
 10
2.7503456174
 20
19.6715561788
 30
0.0
 10
2.7464142004
 20
19.6879498263
 30
0.0
 10
2.7263298177
 20
19.7547239254
 30
0.0
 10
2.6366415809
 20
19.901848829
 30
0.0
 10
2.4195458519
 20
19.9960271674
 30
0.0
 10
2.1961204425
 20
19.9413936045
 30
0.0
 10
2.1016654739
 20
19.8525292903
 30
0.0
 10
2.0666414558
 20
19.7994332058
 30
0.0
  0
SPLINE
  5
7A7
100
AcDbEntity
  8
0
100
AcDbSpline
 62
7
  6
CONTINUOUS
 70
0
 71
3
 72
16
 73
12
 74
0
 42
0.0000001
 43
0.0000001
 44
0.0000000001
 40
0.0
 40
0.0
 40
0.0
 40
0.0
 40
0.0396701491
 40
0.1911100705
 40
0.3181960187
 40
0.4474446106
 40
0.5255746268
 40
0.6004095975
 40
0.7520063255
 40
0.915500248
 40
1.0
 40
1.0
 40
1.0
 40
1.0
 10
-0.0758656889
 20
19.5046832349
 30
0.0
 10
-0.0724146507
 20
19.4861921615
 30
0.0
 10
-0.0527757529
 20
19.3975358988
 30
0.0
 10
0.0095666667
 20
19.2543833887
 30
0.0
 10
0.1691791874
 20
19.132047138
 30
0.0
 10
0.3299365669
 20
19.1023646552
 30
0.0
 10
0.4639063765
 20
19.1179305108
 30
0.0
 10
0.5990402903
 20
19.1745019849
 30
0.0
 10
0.7267742693
 20
19.3224619097
 30
0.0
 10
0.7669423328
 20
19.5138769107
 30
0.0
 10
0.7548908778
 20
19.6325069189
 30
0.0
 10
0.7455263403
 20
19.6715561788
 30
0.0
  0
SPLINE
  5
7A8
100
AcDbEntity
  8
0
100
AcDbSpline
 62
7
  6
CONTINUOUS
 70
0
 71
3
 72
12
 73
8
 74
0
 42
0.0000001
 43
0.0000001
 44
0.0000000001
 40
0.0
 40
0.0
 40
0.0
 40
0.0
 40
0.0577457583
 40
0.2387294898
 40
0.5764425315
 40
0.7815163432
 40
1.0
 40
1.0
 40
1.0
 40
1.0
 10
0.7455263403
 20
19.6715561788
 30
0.0
 10
0.7415949233
 20
19.6879498263
 30
0.0
 10
0.7215105406
 20
19.7547239254
 30
0.0
 10
0.6318223038
 20
19.901848829
 30
0.0
 10
0.4147265748
 20
19.9960271674
 30
0.0
 10
0.1913011654
 20
19.9413936045
 30
0.0
 10
0.0968461968
 20
19.8525292903
 30
0.0
 10
0.0618221787
 20
19.7994332058
 30
0.0
  0
SPLINE
  5
7A9
100
AcDbEntity
  8
0
100
AcDbSpline
 62
7
  6
CONTINUOUS
 70
0
 71
3
 72
11
 73
7
 74
0
 42
0.0000001
 43
0.0000001
 44
0.0000000001
 40
0.0
 40
0.0
 40
0.0
 40
0.0
 40
0.1481921383
 40
0.3499850632
 40
0.5371822993
 40
1.0
 40
1.0
 40
1.0
 40
1.0
 10
-0.6049072722
 20
19.2497447945
 30
0.0
 10
-0.6272484136
 20
19.2448034359
 30
0.0
 10
-0.6815712687
 20
19.2394595273
 30
0.0
 10
-0.7646885231
 20
19.250729909
 30
0.0
 10
-0.8814711486
 20
19.3190523658
 30
0.0
 10
-0.9181048137
 20
19.4235453572
 30
0.0
 10
-0.9327561346
 20
19.4931549548
 30
0.0
  0
SPLINE
  5
7AA
100
AcDbEntity
  8
0
100
AcDbSpline
 62
7
  6
CONTINUOUS
 70
0
 71
3
 72
10
 73
6
 74
0
 42
0.0000001
 43
0.0000001
 44
0.0000000001
 40
0.0
 40
0.0
 40
0.0
 40
0.0
 40
0.1197196058
 40
0.414064931
 40
1.0
 40
1.0
 40
1.0
 40
1.0
 10
-0.2498178063
 20
19.587225838
 30
0.0
 10
-0.2524203029
 20
19.601454648
 30
0.0
 10
-0.2644294894
 20
19.6500406361
 30
0.0
 10
-0.321398702
 20
19.7592899452
 30
0.0
 10
-0.4229370819
 20
19.8170461137
 30
0.0
 10
-0.4917545912
 20
19.8329611008
 30
0.0
  0
SPLINE
  5
7AB
100
AcDbEntity
  8
0
100
AcDbSpline
 62
7
  6
CONTINUOUS
 70
0
 71
3
 72
9
 73
5
 74
0
 42
0.0000001
 43
0.0000001
 44
0.0000000001
 40
0.0
 40
0.0
 40
0.0
 40
0.0
 40
0.2395227542
 40
1.0
 40
1.0
 40
1.0
 40
1.0
 10
-0.868805609
 20
20.3938978424
 30
0.0
 10
-0.8954434416
 20
20.3808021191
 30
0.0
 10
-0.9999348762
 20
20.3121491964
 30
0.0
 10
-1.0571959557
 20
20.1883497956
 30
0.0
 10
-1.07371999
 20
20.0961670029
 30
0.0
  0
SPLINE
  5
7AC
100
AcDbEntity
  8
0
100
AcDbSpline
 62
7
  6
CONTINUOUS
 70
0
 71
3
 72
11
 73
7
 74
0
 42
0.0000001
 43
0.0000001
 44
0.0000000001
 40
0.0
 40
0.0
 40
0.0
 40
0.0
 40
0.1743449046
 40
0.4400386908
 40
0.7168578295
 40
1.0
 40
1.0
 40
1.0
 40
1.0
 10
-0.4732558603
 20
20.0591802574
 30
0.0
 10
-0.4761704459
 20
20.0394359883
 30
0.0
 10
-0.4901908872
 20
19.9910396665
 30
0.0
 10
-0.5485117806
 20
19.9295361861
 30
0.0
 10
-0.6351410757
 20
19.891664125
 30
0.0
 10
-0.6986489376
 20
19.8828858444
 30
0.0
 10
-0.7306099532
 20
19.8828858444
 30
0.0
  0
SPLINE
  5
7AD
100
AcDbEntity
  8
0
100
AcDbSpline
 62
7
  6
CONTINUOUS
 70
0
 71
3
 72
14
 73
10
 74
0
 42
0.0000001
 43
0.0000001
 44
0.0000000001
 40
0.0
 40
0.0
 40
0.0
 40
0.0
 40
0.0585457358
 40
0.2896066877
 40
0.4100139332
 40
0.5432572089
 40
0.6589324415
 40
0.7634313747
 40
1.0
 40
1.0
 40
1.0
 40
1.0
 10
6.4694425012
 20
21.8640543381
 30
0.0
 10
6.4744039517
 20
21.8834487382
 30
0.0
 10
6.5039730394
 20
21.9783046147
 30
0.0
 10
6.5869850447
 20
22.1030581611
 30
0.0
 10
6.740282414
 20
22.1743250483
 30
0.0
 10
6.8669660128
 20
22.1889637476
 30
0.0
 10
6.9882071226
 20
22.1755142216
 30
0.0
 10
7.132012951
 20
22.1052955594
 30
0.0
 10
7.1905800233
 20
21.9919043972
 30
0.0
 10
7.2148812173
 20
21.9149170776
 30
0.0
  0
SPLINE
  5
7AE
100
AcDbEntity
  8
0
100
AcDbSpline
 62
7
  6
CONTINUOUS
 70
0
 71
3
 72
17
 73
13
 74
0
 42
0.0000001
 43
0.0000001
 44
0.0000000001
 40
0.0
 40
0.0
 40
0.0
 40
0.0
 40
0.0550987438
 40
0.165410931
 40
0.2690930076
 40
0.3781113287
 40
0.4389892583
 40
0.5055332482
 40
0.5704448647
 40
0.6316038737
 40
0.7491292803
 40
1.0
 40
1.0
 40
1.0
 40
1.0
 10
6.3148369216
 20
21.4037520917
 30
0.0
 10
6.3230444822
 20
21.3772951274
 30
0.0
 10
6.3516932098
 20
21.2991911097
 30
0.0
 10
6.4187311674
 20
21.1808197381
 30
0.0
 10
6.5400444387
 20
21.0694720152
 30
0.0
 10
6.6691889005
 20
21.0166981191
 30
0.0
 10
6.785961795
 20
20.9969526035
 30
0.0
 10
6.8821953415
 20
20.9918560992
 30
0.0
 10
6.9786655171
 20
20.9978710807
 30
0.0
 10
7.0978039637
 20
21.0252539154
 30
0.0
 10
7.2927235927
 20
21.1272296097
 30
0.0
 10
7.3875594823
 20
21.3059742034
 30
0.0
 10
7.4184956751
 20
21.4275394141
 30
0.0
  0
SPLINE
  5
7AF
100
AcDbEntity
  8
0
100
AcDbSpline
 62
7
  6
CONTINUOUS
 70
0
 71
3
 72
9
 73
5
 74
0
 42
0.0000001
 43
0.0000001
 44
0.0000000001
 40
0.0
 40
0.0
 40
0.0
 40
0.0
 40
0.4540593942
 40
1.0
 40
1.0
 40
1.0
 40
1.0
 10
6.1965244668
 20
23.2889378699
 30
0.0
 10
6.1941026056
 20
23.3488246867
 30
0.0
 10
6.1550861994
 20
23.4798186514
 30
0.0
 10
6.0416874949
 20
23.5594074313
 30
0.0
 10
5.977654186
 20
23.5891546735
 30
0.0
  0
SPLINE
  5
7B0
100
AcDbEntity
  8
0
100
AcDbSpline
 62
7
  6
CONTINUOUS
 70
0
 71
3
 72
11
 73
7
 74
0
 42
0.0000001
 43
0.0000001
 44
0.0000000001
 40
0.0
 40
0.0
 40
0.0
 40
0.0
 40
0.0647111526
 40
0.3767647199
 40
0.6687741494
 40
1.0
 40
1.0
 40
1.0
 40
1.0
 10
5.7935097988
 20
24.06610398
 30
0.0
 10
5.8004608145
 20
24.0646005208
 30
0.0
 10
5.8407312925
 20
24.0546442997
 30
0.0
 10
5.9096678079
 20
24.0228663078
 30
0.0
 10
5.9735757245
 20
23.937856716
 30
0.0
 10
5.9893249602
 20
23.8696688134
 30
0.0
 10
5.9931944703
 20
23.8335164005
 30
0.0
  0
SPLINE
  5
7B1
100
AcDbEntity
  8
0
100
AcDbSpline
 62
7
  6
CONTINUOUS
 70
0
 71
3
 72
12
 73
8
 74
0
 42
0.0000001
 43
0.0000001
 44
0.0000000001
 40
0.0
 40
0.0
 40
0.0
 40
0.0
 40
0.2325740671
 40
0.3843203229
 40
0.5540955725
 40
0.7354508684
 40
1.0
 40
1.0
 40
1.0
 40
1.0
 10
5.2276526399
 20
23.8341839451
 30
0.0
 10
5.2326974952
 20
23.788495605
 30
0.0
 10
5.2573102877
 20
23.7150213432
 30
0.0
 10
5.3304047725
 20
23.6342181391
 30
0.0
 10
5.4131390427
 20
23.5807452129
 30
0.0
 10
5.52541007
 20
23.5388283674
 30
0.0
 10
5.6089284141
 20
23.516325135
 30
0.0
 10
5.6587112594
 20
23.5039277828
 30
0.0
  0
SPLINE
  5
7B2
100
AcDbEntity
  8
0
100
AcDbSpline
 62
7
  6
CONTINUOUS
 70
0
 71
3
 72
10
 73
6
 74
0
 42
0.0000001
 43
0.0000001
 44
0.0000000001
 40
0.0
 40
0.0
 40
0.0
 40
0.0
 40
0.2516448607
 40
0.484948182
 40
1.0
 40
1.0
 40
1.0
 40
1.0
 10
5.5179204973
 20
23.0754235402
 30
0.0
 10
5.4925114161
 20
23.0871105721
 30
0.0
 10
5.4459099863
 20
23.1149619818
 30
0.0
 10
5.3700616388
 20
23.1982937812
 30
0.0
 10
5.3495474206
 20
23.2834553199
 30
0.0
 10
5.3431944703
 20
23.3401429066
 30
0.0
  0
ELLIPSE
  5
7B3
100
AcDbEntity
  8
RACCORDO
100
AcDbEllipse
 62
7
  6
CONTINUOUS
 10
13.2949078009
 20
11.8172513403
 30
0.0
 11
0.0
 21
0.3
 31
0.0
 40
0.0174550649
 41
-4.7123889804
 42
-3.1415926536
  0
ELLIPSE
  5
7B4
100
AcDbEntity
  8
RACCORDO
100
AcDbEllipse
 62
7
  6
CONTINUOUS
 10
4.5263269178
 20
11.8172513403
 30
0.0
 11
0.0
 21
0.3
 31
0.0
 40
0.0174550649
 41
-3.1415926536
 42
-1.5707963268
  0
ELLIPSE
  5
7B5
100
AcDbEntity
  8
RACCORDO
100
AcDbEllipse
 62
7
  6
CONTINUOUS
 10
5.0106935234
 20
-21.3826724957
 30
0.0
 11
0.3536610946
 21
0.3536610946
 31
0.0
 40
0.9996954599
 41
-3.9268385237
 42
-2.3563467834
  0
ELLIPSE
  5
7B6
100
AcDbEntity
  8
RACCORDO
100
AcDbEllipse
 62
7
  6
CONTINUOUS
 10
12.8105411954
 20
-21.3826724957
 30
0.0
 11
-0.3536610946
 21
0.3536610946
 31
0.0
 40
0.9996954599
 41
-3.9268385237
 42
-2.3563467834
  0
ELLIPSE
  5
7B7
100
AcDbEntity
  8
RACCORDO
100
AcDbEllipse
 62
7
  6
CONTINUOUS
 10
5.0857503026
 20
-21.3076157165
 30
0.0
 11
-0.3536610946
 21
-0.3536610946
 31
0.0
 40
0.9996954599
 41
-0.7852458701
 42
0.7852458701
  0
ELLIPSE
  5
7B8
100
AcDbEntity
  8
RACCORDO
100
AcDbEllipse
 62
7
  6
CONTINUOUS
 10
12.7354844162
 20
-21.3076157165
 30
0.0
 11
0.3536610946
 21
-0.3536610946
 31
0.0
 40
0.9996954599
 41
-0.7852458701
 42
0.7852458701
  0
ELLIPSE
  5
7B9
100
AcDbEntity
  8
RACCORDO
100
AcDbEllipse
 62
7
  6
CONTINUOUS
 10
-7.8040799392
 20
53.3172513403
 30
0.0
 11
0.0
 21
1.0
 31
0.0
 40
0.0174550649
 41
-4.7123889804
 42
-3.1415926536
  0
ELLIPSE
  5
7BA
100
AcDbEntity
  8
RACCORDO
100
AcDbEllipse
 62
7
  6
CONTINUOUS
 10
-7.8040799392
 20
-6.6827486597
 30
0.0
 11
0.0
 21
1.0
 31
0.0
 40
0.0174550649
 41
1.5707963268
 42
3.1415926536
  0
ELLIPSE
  5
7BB
100
AcDbEntity
  8
RACCORDO
100
AcDbEllipse
 62
7
  6
CONTINUOUS
 10
-7.8040799392
 20
63.1172513403
 30
0.0
 11
0.0
 21
1.0
 31
0.0
 40
0.0174550649
 41
0.0
 42
1.5707963268
  0
ELLIPSE
  5
7BC
100
AcDbEntity
  8
RACCORDO
100
AcDbEllipse
 62
7
  6
CONTINUOUS
 10
25.625314658
 20
3.1172513403
 30
0.0
 11
-0.0
 21
1.0
 31
0.0
 40
0.0174550649
 41
-1.5707963268
 42
0.0
  0
ELLIPSE
  5
7BD
100
AcDbEntity
  8
RACCORDO
100
AcDbEllipse
 62
7
  6
CONTINUOUS
 10
25.625314658
 20
53.3172513403
 30
0.0
 11
0.0
 21
1.0
 31
0.0
 40
0.0174550649
 41
-3.1415926536
 42
-1.5707963268
  0
ELLIPSE
  5
7BE
100
AcDbEntity
  8
RACCORDO
100
AcDbEllipse
 62
7
  6
CONTINUOUS
 10
25.625314658
 20
63.1172513403
 30
0.0
 11
0.0
 21
1.0
 31
0.0
 40
0.0174550649
 41
-1.5707963268
 42
0.0
  0
ELLIPSE
  5
7BF
100
AcDbEntity
  8
RACCORDO
100
AcDbEllipse
 62
7
  6
CONTINUOUS
 10
25.625314658
 20
-6.6827486597
 30
0.0
 11
0.0
 21
1.0
 31
0.0
 40
0.0174550649
 41
-3.1415926536
 42
-1.5707963268
  0
ELLIPSE
  5
7C0
100
AcDbEntity
  8
RACCORDO
100
AcDbEllipse
 62
7
  6
CONTINUOUS
 10
-8.905598329
 20
63.1172513403
 30
0.0
 11
0.0
 21
1.0
 31
0.0
 40
0.0174550649
 41
-1.5707963268
 42
-0.0
  0
ELLIPSE
  5
7C1
100
AcDbEntity
  8
RACCORDO
100
AcDbEllipse
 62
7
  6
CONTINUOUS
 10
-8.905598329
 20
53.3172513403
 30
0.0
 11
-0.0
 21
1.0
 31
0.0
 40
0.0174550649
 41
-3.1415926536
 42
-1.5707963268
  0
ELLIPSE
  5
7C2
100
AcDbEntity
  8
RACCORDO
100
AcDbEllipse
 62
7
  6
CONTINUOUS
 10
-8.905598329
 20
3.1172513403
 30
0.0
 11
0.0
 21
1.0
 31
0.0
 40
0.0174550649
 41
-1.5707963268
 42
-0.0
  0
ELLIPSE
  5
7C3
100
AcDbEntity
  8
RACCORDO
100
AcDbEllipse
 62
7
  6
CONTINUOUS
 10
-8.905598329
 20
-6.6827486597
 30
0.0
 11
-0.0
 21
1.0
 31
0.0
 40
0.0174550649
 41
-3.1415926536
 42
-1.5707963268
  0
ELLIPSE
  5
7C4
100
AcDbEntity
  8
RACCORDO
100
AcDbEllipse
 62
7
  6
CONTINUOUS
 10
26.7268330477
 20
53.3172513403
 30
0.0
 11
0.0
 21
1.0
 31
0.0
 40
0.0174550649
 41
-4.7123889804
 42
-3.1415926536
  0
ELLIPSE
  5
7C5
100
AcDbEntity
  8
RACCORDO
100
AcDbEllipse
 62
7
  6
CONTINUOUS
 10
26.7268330477
 20
-6.6827486597
 30
0.0
 11
-0.0
 21
1.0
 31
0.0
 40
0.0174550649
 41
-4.7123889804
 42
-3.1415926536
  0
ELLIPSE
  5
7C6
100
AcDbEntity
  8
RACCORDO
100
AcDbEllipse
 62
7
  6
CONTINUOUS
 10
-7.8040799392
 20
3.1172513403
 30
0.0
 11
0.0
 21
1.0
 31
0.0
 40
0.0174550649
 41
0.0
 42
1.5707963268
  0
ELLIPSE
  5
7C7
100
AcDbEntity
  8
RACCORDO
100
AcDbEllipse
 62
7
  6
CONTINUOUS
 10
26.7268330477
 20
63.1172513403
 30
0.0
 11
0.0
 21
1.0
 31
0.0
 40
0.0174550649
 41
0.0
 42
1.5707963268
  0
ELLIPSE
  5
7C8
100
AcDbEntity
  8
RACCORDO
100
AcDbEllipse
 62
7
  6
CONTINUOUS
 10
26.7268330477
 20
3.1172513403
 30
0.0
 11
-0.0
 21
1.0
 31
0.0
 40
0.0174550649
 41
0.0
 42
1.5707963268
  0
ELLIPSE
  5
7C9
100
AcDbEntity
  8
RACCORDO
100
AcDbEllipse
 62
7
  6
CONTINUOUS
 10
-7.9892303126
 20
-25.6825963317
 30
0.0
 11
0.7073221892
 21
0.7073221892
 31
0.0
 40
0.9996954599
 41
-3.9268385237
 42
-2.3563467834
  0
ELLIPSE
  5
7CA
100
AcDbEntity
  8
RACCORDO
100
AcDbEllipse
 62
7
  6
CONTINUOUS
 10
25.8104650313
 20
-25.6825963317
 30
0.0
 11
0.7073221892
 21
-0.7073221892
 31
0.0
 40
0.9996954599
 41
-0.7852458701
 42
0.7852458701
  0
ELLIPSE
  5
7CB
100
AcDbEntity
  8
RACCORDO
100
AcDbEllipse
 62
7
  6
CONTINUOUS
 10
-7.9892303126
 20
82.1170990122
 30
0.0
 11
0.7073221892
 21
-0.7073221892
 31
0.0
 40
0.9996954599
 41
2.3563467834
 42
3.9268385237
  0
ELLIPSE
  5
7CC
100
AcDbEntity
  8
RACCORDO
100
AcDbEllipse
 62
7
  6
CONTINUOUS
 10
25.8104650313
 20
82.1170990122
 30
0.0
 11
0.7073221892
 21
0.7073221892
 31
0.0
 40
0.9996954599
 41
-0.7852458701
 42
0.7852458701
  0
ELLIPSE
  5
7CD
100
AcDbEntity
  8
RACCORDO
100
AcDbEllipse
 62
7
  6
CONTINUOUS
 10
14.865220359
 20
29.1715495678
 30
0.0
 11
-0.0
 21
0.5
 31
0.0
 40
0.0349207695
 41
0.034906585
 42
1.5707963268
  0
ELLIPSE
  5
7CE
100
AcDbEntity
  8
RACCORDO
100
AcDbEllipse
 62
7
  6
CONTINUOUS
 10
4.0622834092
 20
29.1715495678
 30
0.0
 11
0.0
 21
0.5
 31
0.0
 40
0.2679491924
 41
0.034906585
 42
1.5707963268
  0
ELLIPSE
  5
7CF
100
AcDbEntity
  8
RACCORDO
100
AcDbEllipse
 62
7
  6
CONTINUOUS
 10
4.0622834092
 20
27.2629531128
 30
0.0
 11
0.0
 21
0.5
 31
0.0
 40
0.2679491924
 41
-4.7123889804
 42
-3.1764992386
  0
ELLIPSE
  5
7D0
100
AcDbEntity
  8
RACCORDO
100
AcDbEllipse
 62
7
  6
CONTINUOUS
 10
13.7589513095
 20
27.2629531128
 30
0.0
 11
-0.0
 21
0.5
 31
0.0
 40
0.2679491924
 41
-3.1066860685
 42
-1.5707963268
  0
ELLIPSE
  5
7D1
100
AcDbEntity
  8
RACCORDO
100
AcDbEllipse
 62
7
  6
CONTINUOUS
 10
13.7589513095
 20
29.1715495678
 30
0.0
 11
0.0
 21
0.5
 31
0.0
 40
0.2679491924
 41
-1.5707963268
 42
-0.034906585
  0
ELLIPSE
  5
7D2
100
AcDbEntity
  8
RACCORDO
100
AcDbEllipse
 62
7
  6
CONTINUOUS
 10
-7.884499923
 20
-25.5778659421
 30
0.0
 11
0.7073221892
 21
0.7073221892
 31
0.0
 40
0.9996954599
 41
2.3563467834
 42
3.9268385237
  0
ELLIPSE
  5
7D3
100
AcDbEntity
  8
RACCORDO
100
AcDbEllipse
 62
7
  6
CONTINUOUS
 10
2.9560143597
 20
29.1715495678
 30
0.0
 11
-0.0
 21
0.5
 31
0.0
 40
0.0349207695
 41
-1.5707963268
 42
-0.034906585
  0
ELLIPSE
  5
7D4
100
AcDbEntity
  8
RACCORDO
100
AcDbEllipse
 62
7
  6
CONTINUOUS
 10
2.9560143597
 20
27.2629531128
 30
0.0
 11
0.0
 21
0.5
 31
0.0
 40
0.0349207695
 41
-3.1066860685
 42
-1.5707963268
  0
ELLIPSE
  5
7D5
100
AcDbEntity
  8
RACCORDO
100
AcDbEllipse
 62
7
  6
CONTINUOUS
 10
25.7057346418
 20
-25.5778659421
 30
0.0
 11
0.7073221892
 21
-0.7073221892
 31
0.0
 40
0.9996954599
 41
-0.7852458701
 42
0.7852458701
  0
ELLIPSE
  5
7D6
100
AcDbEntity
  8
RACCORDO
100
AcDbEllipse
 62
7
  6
CONTINUOUS
 10
-7.884499923
 20
82.0123686227
 30
0.0
 11
-0.7073221892
 21
0.7073221892
 31
0.0
 40
0.9996954599
 41
-0.7852458701
 42
0.7852458701
  0
ELLIPSE
  5
7D7
100
AcDbEntity
  8
RACCORDO
100
AcDbEllipse
 62
7
  6
CONTINUOUS
 10
25.7057346418
 20
82.0123686227
 30
0.0
 11
-0.7073221892
 21
-0.7073221892
 31
0.0
 40
0.9996954599
 41
2.3563467834
 42
3.9268385237
  0
ELLIPSE
  5
7D8
100
AcDbEntity
  8
RACCORDO
100
AcDbEllipse
 62
7
  6
CONTINUOUS
 10
14.865220359
 20
27.2629531128
 30
0.0
 11
0.0
 21
0.5
 31
0.0
 40
0.0349207695
 41
-4.7123889804
 42
-3.1764992386
  0
ENDSEC
  0
SECTION
  2
OBJECTS
  0
DICTIONARY
  5
C
100
AcDbDictionary
280
0
281
1
  3
ACAD_GROUP
350
D
  3
ACAD_MLINESTYLE
350
17
  3
ACAD_LAYOUT
350
1A
  3
ACAD_PLOTSETTINGS
350
19
  3
ACAD_PLOTSTYLENAME
350
E
  0
DICTIONARY
  5
D
102
{ACAD_REACTORS
330
C
102
}
100
AcDbDictionary
280
0
281
1
  0
ACDBDICTIONARYWDFLT
  5
E
102
{ACAD_REACTORS
330
C
102
}
100
AcDbDictionary
281
1
  3
Normal
350
F
100
AcDbDictionaryWithDefault
340
F
  0
DICTIONARY
  5
17
102
{ACAD_REACTORS
330
C
102
}
100
AcDbDictionary
280
0
281
1
  3
Standard
350
18
  0
DICTIONARY
  5
19
102
{ACAD_REACTORS
330
C
102
}
100
AcDbDictionary
281
1
  0
DICTIONARY
  5
1A
102
{ACAD_REACTORS
330
C
102
}
100
AcDbDictionary
281
1
  3
Model
350
7D9
  3
Layout1
350
7DA
  0
ACDBPLACEHOLDER
  5
F
102
{ACAD_REACTORS
330
E
102
}
  0
MLINESTYLE
  5
18
102
{ACAD_REACTORS
330
17
102
}
100
AcDbMlineStyle
  2
STANDARD
 70
0
  3

 62
256
 51
90.0
 52
90.0
 71
2
 49
0.5
 62
256
  6
BYLAYER
 49
-0.5
 62
256
  6
BYLAYER
  0
LAYOUT
  5
7D9
102
{ACAD_REACTORS
330
1A
102
}
100
AcDbPlotSettings
  1

  2
none_device
  4
ISO_A4_(297.00_x_210.00_MM)
  6

 40
0.0
 41
0.0
 42
0.0
 43
0.0
 44
297.0
 45
210.0
 46
0.0
 47
0.0
 48
0.0
 49
0.0
140
0.0
141
0.0
142
1.0
143
1.0
 70
1024
 72
1
 73
0
 74
0
  7

 75
0
147
1.0
148
0.0
149
0.0
100
AcDbLayout
  1
Model
 70
0
 71
0
 10
0.0
 20
0.0
 11
297.0
 21
210.0
 12
0.0
 22
0.0
 32
0.0
 14
0.0
 24
0.0
 34
0.0
 15
0.0
 25
0.0
 35
0.0
146
0.0
 13
0.0
 23
0.0
 33
0.0
 16
1.0
 26
0.0
 36
0.0
 17
0.0
 27
1.0
 37
0.0
 76
0
330
420
345
0
346
0
  0
LAYOUT
  5
7DA
102
{ACAD_REACTORS
330
1A
102
}
100
AcDbPlotSettings
  1

  2
none_device
  4
ISO_A4_(297.00_x_210.00_MM)
  6

 40
0.0
 41
0.0
 42
0.0
 43
0.0
 44
297.0
 45
210.0
 46
0.0
 47
0.0
 48
0.0
 49
0.0
140
0.0
141
0.0
142
1.0
143
1.0
 70
0
 72
1
 73
0
 74
0
  7

 75
0
147
1.0
148
0.0
149
0.0
100
AcDbLayout
  1
Layout1
 70
0
 71
1
 10
0.0
 20
0.0
 11
297.0
 21
210.0
 12
0.0
 22
0.0
 32
0.0
 14
0.0
 24
0.0
 34
0.0
 15
0.0
 25
0.0
 35
0.0
146
0.0
 13
0.0
 23
0.0
 33
0.0
 16
1.0
 26
0.0
 36
0.0
 17
0.0
 27
1.0
 37
0.0
 76
0
330
421
345
0
346
0
  0
ENDSEC
  0
EOF
