  0
SECTION
  2
HEADER
  9
$ACADVER
  1
AC1024
  9
$DWGCODEPAGE
  3
ANSI_1252
  9
$EXTMAX
 10
297.0
 20
210.0
 30
0.0
  9
$EXTMIN
 10
0.0
 20
0.0
 30
0.0
  9
$LIMMIN
 10
0.0
 20
0.0
  9
$LIMMAX
 10
297.0
 20
210.0
  9
$VIEWCTR
 10
148.5
 20
105.0
  9
$VIEWSIZE
 40
210.0
  9
$CLAYER
  8
0
  9
$LTSCALE
 40
16.335
  9
$CELTYPE
  6
BYLAYER
  9
$DIMSCALE
 40
1.0
  9
$DIMASZ
 40
3.0
  9
$DIMEXO
 40
0.5
  9
$DIMDLI
 40
11.286
  9
$DIMEXE
 40
1.5
  9
$DIMCEN
 40
2.673
  9
$DIMLFAC
 40
1.0
  9
$DIMBLK
  1
_FILLED
  9
$DIMALT
 70
0
  9
$DIMALTF
 40
0.0393700787
  9
$DIMTXT
 40
3.0
  9
$DIMTOL
 70
1
  9
$DIMLIM
 70
0
  9
$DIMTFAC
 40
1.0
  9
$DIMTP
 40
0.01
  9
$DIMTM
 40
0.01
  9
$DIMGAP
 40
0.625
  9
$DIMDSEP
 70
44
  9
$AUNITS
 70
0
  9
$PDMODE
 70
3
  9
$PDSIZE
 40
3.0
  9
$HANDSEED
  5
779
  9
$TILEMODE
 70
1
  9
$MEASUREMENT
 70
1
  9
$INSUNITS
 70
4
  0
ENDSEC
  0
SECTION
  2
CLASSES
  0
CLASS
  1
ACDBDICTIONARYWDFLT
  2
AcDbDictionaryWithDefault
  3
AutoCAD 2000
 90
0
 91
1
280
0
281
0
  0
CLASS
  1
ACDBPLACEHOLDER
  2
AcDbPlaceHolder
  3
AutoCAD 2000
 90
0
 91
1
280
0
281
0
  0
CLASS
  1
LAYOUT
  2
AcDbLayout
  3
AutoCAD 2000
 90
0
 91
0
280
0
281
0
  0
ENDSEC
  0
SECTION
  2
TABLES
  0
TABLE
  2
VPORT
  5
8
100
AcDbSymbolTable
 70
2
  0
VPORT
  5
1F4
100
AcDbSymbolTableRecord
100
AcDbViewportTableRecord
  2
*ACTIVE
 70
0
 10
0.0
 20
0.0
 11
1.0
 21
1.0
 12
148.5
 22
105.0
 13
0.0
 23
0.0
 14
1.0
 24
1.0
 15
0.0
 25
0.0
 16
0.0
 26
0.0
 36
1.0
 17
0.0
 27
0.0
 37
0.0
 40
210.0
 41
1.4142857143
 42
50.0
 43
0.0
 44
0.0
 50
0.0
 51
0.0
 71
0
 72
100
 73
1
 74
1
 75
0
 76
0
 77
0
 78
0
  0
ENDTAB
  0
TABLE
  2
LTYPE
  5
5
100
AcDbSymbolTable
 70
6
  0
LTYPE
  5
14
100
AcDbSymbolTableRecord
100
AcDbLinetypeTableRecord
  2
BYBLOCK
 70
0
  3

 72
65
 73
0
 40
0.0
  0
LTYPE
  5
15
100
AcDbSymbolTableRecord
100
AcDbLinetypeTableRecord
  2
BYLAYER
 70
0
  3

 72
65
 73
0
 40
0.0
  0
LTYPE
  5
16
100
AcDbSymbolTableRecord
100
AcDbLinetypeTableRecord
  2
CONTINUOUS
 70
64
  3
Solid line
 72
65
 73
0
 40
0.0
  0
LTYPE
  5
1F5
100
AcDbSymbolTableRecord
100
AcDbLinetypeTableRecord
  2
CENTER
 70
64
  3
____ _ ____ _ ____ _ ____ _ ____ _ ____ _ ____
 72
65
 73
4
 40
0.6
 49
0.375
 74
0
 49
-0.075
 74
0
 49
0.075
 74
0
 49
-0.075
 74
0
  0
LTYPE
  5
1F6
100
AcDbSymbolTableRecord
100
AcDbLinetypeTableRecord
  2
HIDDEN
 70
64
  3
- - - - - - - - - - - - - - - - - - - -
 72
65
 73
2
 40
0.2
 49
0.1
 74
0
 49
-0.1
 74
0
  0
LTYPE
  5
1F7
100
AcDbSymbolTableRecord
100
AcDbLinetypeTableRecord
  2
PHANTOM
 70
64
  3
_____ _ _ _____ _ _ _____ _ _ _____
 72
65
 73
6
 40
0.8
 49
0.45
 74
0
 49
-0.05
 74
0
 49
0.1
 74
0
 49
-0.05
 74
0
 49
0.1
 74
0
 49
-0.05
 74
0
  0
LTYPE
  5
1F8
100
AcDbSymbolTableRecord
100
AcDbLinetypeTableRecord
  2
DOT
 70
64
  3
. . . . . . . . . . . . . . . . . . . .
 72
65
 73
2
 40
0.2
 49
0.1
 74
0
 49
-0.1
 74
0
  0
LTYPE
  5
1F9
100
AcDbSymbolTableRecord
100
AcDbLinetypeTableRecord
  2
DASHED
 70
64
  3
- - - - - - - - - - - - - - - - - - - -
 72
65
 73
2
 40
0.2
 49
0.1
 74
0
 49
-0.1
 74
0
  0
ENDTAB
  0
TABLE
  2
LAYER
  5
2
100
AcDbSymbolTable
 70
36
  0
LAYER
  5
10
100
AcDbSymbolTableRecord
100
AcDbLayerTableRecord
  2
0
 70
0
 62
7
  6
CONTINUOUS
370
-3
390
F
  0
LAYER
  5
1FA
100
AcDbSymbolTableRecord
100
AcDbLayerTableRecord
  2
DEFAULT_1
 70
0
 62
7
  6
CENTER
370
-3
390
F
  0
LAYER
  5
1FB
100
AcDbSymbolTableRecord
100
AcDbLayerTableRecord
  2
DEFAULT_2
 70
0
 62
7
  6
HIDDEN
370
-3
390
F
  0
LAYER
  5
1FC
100
AcDbSymbolTableRecord
100
AcDbLayerTableRecord
  2
DEFAULT_3
 70
0
 62
7
  6
PHANTOM
370
-3
390
F
  0
LAYER
  5
1FD
100
AcDbSymbolTableRecord
100
AcDbLayerTableRecord
  2
200A_170000
 70
0
 62
7
  6
CONTINUOUS
370
-3
390
F
  0
LAYER
  5
1FE
100
AcDbSymbolTableRecord
100
AcDbLayerTableRecord
  2
200A_170000_1
 70
0
 62
7
  6
CONTINUOUS
370
-3
390
F
  0
LAYER
  5
1FF
100
AcDbSymbolTableRecord
100
AcDbLayerTableRecord
  2
200A_170000_2
 70
0
 62
7
  6
CONTINUOUS
370
-3
390
F
  0
LAYER
  5
200
100
AcDbSymbolTableRecord
100
AcDbLayerTableRecord
  2
200A_170000_3
 70
0
 62
7
  6
CONTINUOUS
370
-3
390
F
  0
LAYER
  5
201
100
AcDbSymbolTableRecord
100
AcDbLayerTableRecord
  2
200A_170000_4
 70
0
 62
7
  6
CONTINUOUS
370
-3
390
F
  0
LAYER
  5
202
100
AcDbSymbolTableRecord
100
AcDbLayerTableRecord
  2
200A_170000_5
 70
0
 62
7
  6
CONTINUOUS
370
-3
390
F
  0
LAYER
  5
203
100
AcDbSymbolTableRecord
100
AcDbLayerTableRecord
  2
2125-CC-RF-VIMAR_110000
 70
0
 62
7
  6
CONTINUOUS
370
-3
390
F
  0
LAYER
  5
204
100
AcDbSymbolTableRecord
100
AcDbLayerTableRecord
  2
2125-CC-RF-VIMAR_110000_1
 70
0
 62
7
  6
CONTINUOUS
370
-3
390
F
  0
LAYER
  5
205
100
AcDbSymbolTableRecord
100
AcDbLayerTableRecord
  2
2125-CC-RF-VIMAR_110000_10
 70
0
 62
7
  6
CONTINUOUS
370
-3
390
F
  0
LAYER
  5
206
100
AcDbSymbolTableRecord
100
AcDbLayerTableRecord
  2
2125-CC-RF-VIMAR_110000_11
 70
0
 62
7
  6
CONTINUOUS
370
-3
390
F
  0
LAYER
  5
207
100
AcDbSymbolTableRecord
100
AcDbLayerTableRecord
  2
2125-CC-RF-VIMAR_110000_12
 70
0
 62
7
  6
CONTINUOUS
370
-3
390
F
  0
LAYER
  5
208
100
AcDbSymbolTableRecord
100
AcDbLayerTableRecord
  2
2125-CC-RF-VIMAR_110000_13
 70
0
 62
7
  6
CONTINUOUS
370
-3
390
F
  0
LAYER
  5
209
100
AcDbSymbolTableRecord
100
AcDbLayerTableRecord
  2
2125-CC-RF-VIMAR_110000_14
 70
0
 62
7
  6
CONTINUOUS
370
-3
390
F
  0
LAYER
  5
20A
100
AcDbSymbolTableRecord
100
AcDbLayerTableRecord
  2
2125-CC-RF-VIMAR_110000_15
 70
0
 62
7
  6
CONTINUOUS
370
-3
390
F
  0
LAYER
  5
20B
100
AcDbSymbolTableRecord
100
AcDbLayerTableRecord
  2
2125-CC-RF-VIMAR_110000_16
 70
0
 62
7
  6
CONTINUOUS
370
-3
390
F
  0
LAYER
  5
20C
100
AcDbSymbolTableRecord
100
AcDbLayerTableRecord
  2
2125-CC-RF-VIMAR_110000_17
 70
0
 62
7
  6
CONTINUOUS
370
-3
390
F
  0
LAYER
  5
20D
100
AcDbSymbolTableRecord
100
AcDbLayerTableRecord
  2
2125-CC-RF-VIMAR_110000_18
 70
0
 62
7
  6
CONTINUOUS
370
-3
390
F
  0
LAYER
  5
20E
100
AcDbSymbolTableRecord
100
AcDbLayerTableRecord
  2
2125-CC-RF-VIMAR_110000_19
 70
0
 62
7
  6
CONTINUOUS
370
-3
390
F
  0
LAYER
  5
20F
100
AcDbSymbolTableRecord
100
AcDbLayerTableRecord
  2
2125-CC-RF-VIMAR_110000_2
 70
0
 62
7
  6
CONTINUOUS
370
-3
390
F
  0
LAYER
  5
210
100
AcDbSymbolTableRecord
100
AcDbLayerTableRecord
  2
2125-CC-RF-VIMAR_110000_20
 70
0
 62
7
  6
CONTINUOUS
370
-3
390
F
  0
LAYER
  5
211
100
AcDbSymbolTableRecord
100
AcDbLayerTableRecord
  2
2125-CC-RF-VIMAR_110000_21
 70
0
 62
7
  6
CONTINUOUS
370
-3
390
F
  0
LAYER
  5
212
100
AcDbSymbolTableRecord
100
AcDbLayerTableRecord
  2
2125-CC-RF-VIMAR_110000_22
 70
0
 62
7
  6
CONTINUOUS
370
-3
390
F
  0
LAYER
  5
213
100
AcDbSymbolTableRecord
100
AcDbLayerTableRecord
  2
2125-CC-RF-VIMAR_110000_23
 70
0
 62
7
  6
CONTINUOUS
370
-3
390
F
  0
LAYER
  5
214
100
AcDbSymbolTableRecord
100
AcDbLayerTableRecord
  2
2125-CC-RF-VIMAR_110000_24
 70
0
 62
7
  6
CONTINUOUS
370
-3
390
F
  0
LAYER
  5
215
100
AcDbSymbolTableRecord
100
AcDbLayerTableRecord
  2
2125-CC-RF-VIMAR_110000_25
 70
0
 62
7
  6
CONTINUOUS
370
-3
390
F
  0
LAYER
  5
216
100
AcDbSymbolTableRecord
100
AcDbLayerTableRecord
  2
2125-CC-RF-VIMAR_110000_26
 70
0
 62
7
  6
CONTINUOUS
370
-3
390
F
  0
LAYER
  5
217
100
AcDbSymbolTableRecord
100
AcDbLayerTableRecord
  2
2125-CC-RF-VIMAR_110000_3
 70
0
 62
7
  6
CONTINUOUS
370
-3
390
F
  0
LAYER
  5
218
100
AcDbSymbolTableRecord
100
AcDbLayerTableRecord
  2
2125-CC-RF-VIMAR_110000_4
 70
0
 62
7
  6
CONTINUOUS
370
-3
390
F
  0
LAYER
  5
219
100
AcDbSymbolTableRecord
100
AcDbLayerTableRecord
  2
2125-CC-RF-VIMAR_110000_5
 70
0
 62
7
  6
CONTINUOUS
370
-3
390
F
  0
LAYER
  5
21A
100
AcDbSymbolTableRecord
100
AcDbLayerTableRecord
  2
2125-CC-RF-VIMAR_110000_6
 70
0
 62
7
  6
CONTINUOUS
370
-3
390
F
  0
LAYER
  5
21B
100
AcDbSymbolTableRecord
100
AcDbLayerTableRecord
  2
2125-CC-RF-VIMAR_110000_7
 70
0
 62
7
  6
CONTINUOUS
370
-3
390
F
  0
LAYER
  5
21C
100
AcDbSymbolTableRecord
100
AcDbLayerTableRecord
  2
2125-CC-RF-VIMAR_110000_8
 70
0
 62
7
  6
CONTINUOUS
370
-3
390
F
  0
LAYER
  5
21D
100
AcDbSymbolTableRecord
100
AcDbLayerTableRecord
  2
2125-CC-RF-VIMAR_110000_9
 70
0
 62
7
  6
CONTINUOUS
370
-3
390
F
  0
LAYER
  5
21E
100
AcDbSymbolTableRecord
100
AcDbLayerTableRecord
  2
2125-CC-RF-VIMAR_65000
 70
0
 62
7
  6
CONTINUOUS
370
-3
390
F
  0
LAYER
  5
21F
100
AcDbSymbolTableRecord
100
AcDbLayerTableRecord
  2
2125-CC-RF-VIMAR_65000_1
 70
0
 62
7
  6
CONTINUOUS
370
-3
390
F
  0
LAYER
  5
220
100
AcDbSymbolTableRecord
100
AcDbLayerTableRecord
  2
2125-CC-RF-VIMAR_65000_10
 70
0
 62
7
  6
CONTINUOUS
370
-3
390
F
  0
LAYER
  5
221
100
AcDbSymbolTableRecord
100
AcDbLayerTableRecord
  2
2125-CC-RF-VIMAR_65000_11
 70
0
 62
7
  6
CONTINUOUS
370
-3
390
F
  0
LAYER
  5
222
100
AcDbSymbolTableRecord
100
AcDbLayerTableRecord
  2
2125-CC-RF-VIMAR_65000_12
 70
0
 62
7
  6
CONTINUOUS
370
-3
390
F
  0
LAYER
  5
223
100
AcDbSymbolTableRecord
100
AcDbLayerTableRecord
  2
2125-CC-RF-VIMAR_65000_13
 70
0
 62
7
  6
CONTINUOUS
370
-3
390
F
  0
LAYER
  5
224
100
AcDbSymbolTableRecord
100
AcDbLayerTableRecord
  2
2125-CC-RF-VIMAR_65000_14
 70
0
 62
7
  6
CONTINUOUS
370
-3
390
F
  0
LAYER
  5
225
100
AcDbSymbolTableRecord
100
AcDbLayerTableRecord
  2
2125-CC-RF-VIMAR_65000_15
 70
0
 62
7
  6
CONTINUOUS
370
-3
390
F
  0
LAYER
  5
226
100
AcDbSymbolTableRecord
100
AcDbLayerTableRecord
  2
2125-CC-RF-VIMAR_65000_16
 70
0
 62
7
  6
CONTINUOUS
370
-3
390
F
  0
LAYER
  5
227
100
AcDbSymbolTableRecord
100
AcDbLayerTableRecord
  2
2125-CC-RF-VIMAR_65000_17
 70
0
 62
7
  6
CONTINUOUS
370
-3
390
F
  0
LAYER
  5
228
100
AcDbSymbolTableRecord
100
AcDbLayerTableRecord
  2
2125-CC-RF-VIMAR_65000_18
 70
0
 62
7
  6
CONTINUOUS
370
-3
390
F
  0
LAYER
  5
229
100
AcDbSymbolTableRecord
100
AcDbLayerTableRecord
  2
2125-CC-RF-VIMAR_65000_19
 70
0
 62
7
  6
CONTINUOUS
370
-3
390
F
  0
LAYER
  5
22A
100
AcDbSymbolTableRecord
100
AcDbLayerTableRecord
  2
2125-CC-RF-VIMAR_65000_2
 70
0
 62
7
  6
CONTINUOUS
370
-3
390
F
  0
LAYER
  5
22B
100
AcDbSymbolTableRecord
100
AcDbLayerTableRecord
  2
2125-CC-RF-VIMAR_65000_20
 70
0
 62
7
  6
CONTINUOUS
370
-3
390
F
  0
LAYER
  5
22C
100
AcDbSymbolTableRecord
100
AcDbLayerTableRecord
  2
2125-CC-RF-VIMAR_65000_21
 70
0
 62
7
  6
CONTINUOUS
370
-3
390
F
  0
LAYER
  5
22D
100
AcDbSymbolTableRecord
100
AcDbLayerTableRecord
  2
2125-CC-RF-VIMAR_65000_22
 70
0
 62
7
  6
CONTINUOUS
370
-3
390
F
  0
LAYER
  5
22E
100
AcDbSymbolTableRecord
100
AcDbLayerTableRecord
  2
2125-CC-RF-VIMAR_65000_3
 70
0
 62
7
  6
CONTINUOUS
370
-3
390
F
  0
LAYER
  5
22F
100
AcDbSymbolTableRecord
100
AcDbLayerTableRecord
  2
2125-CC-RF-VIMAR_65000_4
 70
0
 62
7
  6
CONTINUOUS
370
-3
390
F
  0
LAYER
  5
230
100
AcDbSymbolTableRecord
100
AcDbLayerTableRecord
  2
2125-CC-RF-VIMAR_65000_5
 70
0
 62
7
  6
CONTINUOUS
370
-3
390
F
  0
LAYER
  5
231
100
AcDbSymbolTableRecord
100
AcDbLayerTableRecord
  2
2125-CC-RF-VIMAR_65000_6
 70
0
 62
7
  6
CONTINUOUS
370
-3
390
F
  0
LAYER
  5
232
100
AcDbSymbolTableRecord
100
AcDbLayerTableRecord
  2
2125-CC-RF-VIMAR_65000_7
 70
0
 62
7
  6
CONTINUOUS
370
-3
390
F
  0
LAYER
  5
233
100
AcDbSymbolTableRecord
100
AcDbLayerTableRecord
  2
2125-CC-RF-VIMAR_65000_8
 70
0
 62
7
  6
CONTINUOUS
370
-3
390
F
  0
LAYER
  5
234
100
AcDbSymbolTableRecord
100
AcDbLayerTableRecord
  2
2125-CC-RF-VIMAR_65000_9
 70
0
 62
7
  6
CONTINUOUS
370
-3
390
F
  0
LAYER
  5
235
100
AcDbSymbolTableRecord
100
AcDbLayerTableRecord
  2
2125-DL-RF-FINE_VIMAR_110000
 70
0
 62
7
  6
CONTINUOUS
370
-3
390
F
  0
LAYER
  5
236
100
AcDbSymbolTableRecord
100
AcDbLayerTableRecord
  2
2125-DL-RF-FINE_VIMAR_110000_1
 70
0
 62
7
  6
CONTINUOUS
370
-3
390
F
  0
LAYER
  5
237
100
AcDbSymbolTableRecord
100
AcDbLayerTableRecord
  2
2125-DL-RF-FINE_VIMAR_110000_2
 70
0
 62
7
  6
CONTINUOUS
370
-3
390
F
  0
LAYER
  5
238
100
AcDbSymbolTableRecord
100
AcDbLayerTableRecord
  2
2125-R1-RF-VIMAR_60000
 70
0
 62
7
  6
CONTINUOUS
370
-3
390
F
  0
LAYER
  5
239
100
AcDbSymbolTableRecord
100
AcDbLayerTableRecord
  2
2125-R1-RF-VIMAR_60000_1
 70
0
 62
7
  6
CONTINUOUS
370
-3
390
F
  0
LAYER
  5
23A
100
AcDbSymbolTableRecord
100
AcDbLayerTableRecord
  2
2125-R1-RF-VIMAR_60000_10
 70
0
 62
7
  6
CONTINUOUS
370
-3
390
F
  0
LAYER
  5
23B
100
AcDbSymbolTableRecord
100
AcDbLayerTableRecord
  2
2125-R1-RF-VIMAR_60000_11
 70
0
 62
7
  6
CONTINUOUS
370
-3
390
F
  0
LAYER
  5
23C
100
AcDbSymbolTableRecord
100
AcDbLayerTableRecord
  2
2125-R1-RF-VIMAR_60000_12
 70
0
 62
7
  6
CONTINUOUS
370
-3
390
F
  0
LAYER
  5
23D
100
AcDbSymbolTableRecord
100
AcDbLayerTableRecord
  2
2125-R1-RF-VIMAR_60000_13
 70
0
 62
7
  6
CONTINUOUS
370
-3
390
F
  0
LAYER
  5
23E
100
AcDbSymbolTableRecord
100
AcDbLayerTableRecord
  2
2125-R1-RF-VIMAR_60000_14
 70
0
 62
7
  6
CONTINUOUS
370
-3
390
F
  0
LAYER
  5
23F
100
AcDbSymbolTableRecord
100
AcDbLayerTableRecord
  2
2125-R1-RF-VIMAR_60000_15
 70
0
 62
7
  6
CONTINUOUS
370
-3
390
F
  0
LAYER
  5
240
100
AcDbSymbolTableRecord
100
AcDbLayerTableRecord
  2
2125-R1-RF-VIMAR_60000_16
 70
0
 62
7
  6
CONTINUOUS
370
-3
390
F
  0
LAYER
  5
241
100
AcDbSymbolTableRecord
100
AcDbLayerTableRecord
  2
2125-R1-RF-VIMAR_60000_17
 70
0
 62
7
  6
CONTINUOUS
370
-3
390
F
  0
LAYER
  5
242
100
AcDbSymbolTableRecord
100
AcDbLayerTableRecord
  2
2125-R1-RF-VIMAR_60000_18
 70
0
 62
7
  6
CONTINUOUS
370
-3
390
F
  0
LAYER
  5
243
100
AcDbSymbolTableRecord
100
AcDbLayerTableRecord
  2
2125-R1-RF-VIMAR_60000_19
 70
0
 62
7
  6
CONTINUOUS
370
-3
390
F
  0
LAYER
  5
244
100
AcDbSymbolTableRecord
100
AcDbLayerTableRecord
  2
2125-R1-RF-VIMAR_60000_2
 70
0
 62
7
  6
CONTINUOUS
370
-3
390
F
  0
LAYER
  5
245
100
AcDbSymbolTableRecord
100
AcDbLayerTableRecord
  2
2125-R1-RF-VIMAR_60000_20
 70
0
 62
7
  6
CONTINUOUS
370
-3
390
F
  0
LAYER
  5
246
100
AcDbSymbolTableRecord
100
AcDbLayerTableRecord
  2
2125-R1-RF-VIMAR_60000_21
 70
0
 62
7
  6
CONTINUOUS
370
-3
390
F
  0
LAYER
  5
247
100
AcDbSymbolTableRecord
100
AcDbLayerTableRecord
  2
2125-R1-RF-VIMAR_60000_22
 70
0
 62
7
  6
CONTINUOUS
370
-3
390
F
  0
LAYER
  5
248
100
AcDbSymbolTableRecord
100
AcDbLayerTableRecord
  2
2125-R1-RF-VIMAR_60000_23
 70
0
 62
7
  6
CONTINUOUS
370
-3
390
F
  0
LAYER
  5
249
100
AcDbSymbolTableRecord
100
AcDbLayerTableRecord
  2
2125-R1-RF-VIMAR_60000_24
 70
0
 62
7
  6
CONTINUOUS
370
-3
390
F
  0
LAYER
  5
24A
100
AcDbSymbolTableRecord
100
AcDbLayerTableRecord
  2
2125-R1-RF-VIMAR_60000_25
 70
0
 62
7
  6
CONTINUOUS
370
-3
390
F
  0
LAYER
  5
24B
100
AcDbSymbolTableRecord
100
AcDbLayerTableRecord
  2
2125-R1-RF-VIMAR_60000_26
 70
0
 62
7
  6
CONTINUOUS
370
-3
390
F
  0
LAYER
  5
24C
100
AcDbSymbolTableRecord
100
AcDbLayerTableRecord
  2
2125-R1-RF-VIMAR_60000_27
 70
0
 62
7
  6
CONTINUOUS
370
-3
390
F
  0
LAYER
  5
24D
100
AcDbSymbolTableRecord
100
AcDbLayerTableRecord
  2
2125-R1-RF-VIMAR_60000_28
 70
0
 62
7
  6
CONTINUOUS
370
-3
390
F
  0
LAYER
  5
24E
100
AcDbSymbolTableRecord
100
AcDbLayerTableRecord
  2
2125-R1-RF-VIMAR_60000_29
 70
0
 62
7
  6
CONTINUOUS
370
-3
390
F
  0
LAYER
  5
24F
100
AcDbSymbolTableRecord
100
AcDbLayerTableRecord
  2
2125-R1-RF-VIMAR_60000_3
 70
0
 62
7
  6
CONTINUOUS
370
-3
390
F
  0
LAYER
  5
250
100
AcDbSymbolTableRecord
100
AcDbLayerTableRecord
  2
2125-R1-RF-VIMAR_60000_30
 70
0
 62
7
  6
CONTINUOUS
370
-3
390
F
  0
LAYER
  5
251
100
AcDbSymbolTableRecord
100
AcDbLayerTableRecord
  2
2125-R1-RF-VIMAR_60000_31
 70
0
 62
7
  6
CONTINUOUS
370
-3
390
F
  0
LAYER
  5
252
100
AcDbSymbolTableRecord
100
AcDbLayerTableRecord
  2
2125-R1-RF-VIMAR_60000_32
 70
0
 62
7
  6
CONTINUOUS
370
-3
390
F
  0
LAYER
  5
253
100
AcDbSymbolTableRecord
100
AcDbLayerTableRecord
  2
2125-R1-RF-VIMAR_60000_33
 70
0
 62
7
  6
CONTINUOUS
370
-3
390
F
  0
LAYER
  5
254
100
AcDbSymbolTableRecord
100
AcDbLayerTableRecord
  2
2125-R1-RF-VIMAR_60000_34
 70
0
 62
7
  6
CONTINUOUS
370
-3
390
F
  0
LAYER
  5
255
100
AcDbSymbolTableRecord
100
AcDbLayerTableRecord
  2
2125-R1-RF-VIMAR_60000_35
 70
0
 62
7
  6
CONTINUOUS
370
-3
390
F
  0
LAYER
  5
256
100
AcDbSymbolTableRecord
100
AcDbLayerTableRecord
  2
2125-R1-RF-VIMAR_60000_36
 70
0
 62
7
  6
CONTINUOUS
370
-3
390
F
  0
LAYER
  5
257
100
AcDbSymbolTableRecord
100
AcDbLayerTableRecord
  2
2125-R1-RF-VIMAR_60000_37
 70
0
 62
7
  6
CONTINUOUS
370
-3
390
F
  0
LAYER
  5
258
100
AcDbSymbolTableRecord
100
AcDbLayerTableRecord
  2
2125-R1-RF-VIMAR_60000_38
 70
0
 62
7
  6
CONTINUOUS
370
-3
390
F
  0
LAYER
  5
259
100
AcDbSymbolTableRecord
100
AcDbLayerTableRecord
  2
2125-R1-RF-VIMAR_60000_39
 70
0
 62
7
  6
CONTINUOUS
370
-3
390
F
  0
LAYER
  5
25A
100
AcDbSymbolTableRecord
100
AcDbLayerTableRecord
  2
2125-R1-RF-VIMAR_60000_4
 70
0
 62
7
  6
CONTINUOUS
370
-3
390
F
  0
LAYER
  5
25B
100
AcDbSymbolTableRecord
100
AcDbLayerTableRecord
  2
2125-R1-RF-VIMAR_60000_40
 70
0
 62
7
  6
CONTINUOUS
370
-3
390
F
  0
LAYER
  5
25C
100
AcDbSymbolTableRecord
100
AcDbLayerTableRecord
  2
2125-R1-RF-VIMAR_60000_5
 70
0
 62
7
  6
CONTINUOUS
370
-3
390
F
  0
LAYER
  5
25D
100
AcDbSymbolTableRecord
100
AcDbLayerTableRecord
  2
2125-R1-RF-VIMAR_60000_6
 70
0
 62
7
  6
CONTINUOUS
370
-3
390
F
  0
LAYER
  5
25E
100
AcDbSymbolTableRecord
100
AcDbLayerTableRecord
  2
2125-R1-RF-VIMAR_60000_7
 70
0
 62
7
  6
CONTINUOUS
370
-3
390
F
  0
LAYER
  5
25F
100
AcDbSymbolTableRecord
100
AcDbLayerTableRecord
  2
2125-R1-RF-VIMAR_60000_8
 70
0
 62
7
  6
CONTINUOUS
370
-3
390
F
  0
LAYER
  5
260
100
AcDbSymbolTableRecord
100
AcDbLayerTableRecord
  2
2125-R1-RF-VIMAR_60000_9
 70
0
 62
7
  6
CONTINUOUS
370
-3
390
F
  0
LAYER
  5
261
100
AcDbSymbolTableRecord
100
AcDbLayerTableRecord
  2
3216-CF-RF-VIMAR_100000
 70
0
 62
7
  6
CONTINUOUS
370
-3
390
F
  0
LAYER
  5
262
100
AcDbSymbolTableRecord
100
AcDbLayerTableRecord
  2
3216-CF-RF-VIMAR_100000_1
 70
0
 62
7
  6
CONTINUOUS
370
-3
390
F
  0
LAYER
  5
263
100
AcDbSymbolTableRecord
100
AcDbLayerTableRecord
  2
3216-CF-RF-VIMAR_100000_10
 70
0
 62
7
  6
CONTINUOUS
370
-3
390
F
  0
LAYER
  5
264
100
AcDbSymbolTableRecord
100
AcDbLayerTableRecord
  2
3216-CF-RF-VIMAR_100000_11
 70
0
 62
7
  6
CONTINUOUS
370
-3
390
F
  0
LAYER
  5
265
100
AcDbSymbolTableRecord
100
AcDbLayerTableRecord
  2
3216-CF-RF-VIMAR_100000_12
 70
0
 62
7
  6
CONTINUOUS
370
-3
390
F
  0
LAYER
  5
266
100
AcDbSymbolTableRecord
100
AcDbLayerTableRecord
  2
3216-CF-RF-VIMAR_100000_13
 70
0
 62
7
  6
CONTINUOUS
370
-3
390
F
  0
LAYER
  5
267
100
AcDbSymbolTableRecord
100
AcDbLayerTableRecord
  2
3216-CF-RF-VIMAR_100000_14
 70
0
 62
7
  6
CONTINUOUS
370
-3
390
F
  0
LAYER
  5
268
100
AcDbSymbolTableRecord
100
AcDbLayerTableRecord
  2
3216-CF-RF-VIMAR_100000_2
 70
0
 62
7
  6
CONTINUOUS
370
-3
390
F
  0
LAYER
  5
269
100
AcDbSymbolTableRecord
100
AcDbLayerTableRecord
  2
3216-CF-RF-VIMAR_100000_3
 70
0
 62
7
  6
CONTINUOUS
370
-3
390
F
  0
LAYER
  5
26A
100
AcDbSymbolTableRecord
100
AcDbLayerTableRecord
  2
3216-CF-RF-VIMAR_100000_4
 70
0
 62
7
  6
CONTINUOUS
370
-3
390
F
  0
LAYER
  5
26B
100
AcDbSymbolTableRecord
100
AcDbLayerTableRecord
  2
3216-CF-RF-VIMAR_100000_5
 70
0
 62
7
  6
CONTINUOUS
370
-3
390
F
  0
LAYER
  5
26C
100
AcDbSymbolTableRecord
100
AcDbLayerTableRecord
  2
3216-CF-RF-VIMAR_100000_6
 70
0
 62
7
  6
CONTINUOUS
370
-3
390
F
  0
LAYER
  5
26D
100
AcDbSymbolTableRecord
100
AcDbLayerTableRecord
  2
3216-CF-RF-VIMAR_100000_7
 70
0
 62
7
  6
CONTINUOUS
370
-3
390
F
  0
LAYER
  5
26E
100
AcDbSymbolTableRecord
100
AcDbLayerTableRecord
  2
3216-CF-RF-VIMAR_100000_8
 70
0
 62
7
  6
CONTINUOUS
370
-3
390
F
  0
LAYER
  5
26F
100
AcDbSymbolTableRecord
100
AcDbLayerTableRecord
  2
3216-CF-RF-VIMAR_100000_9
 70
0
 62
7
  6
CONTINUOUS
370
-3
390
F
  0
LAYER
  5
270
100
AcDbSymbolTableRecord
100
AcDbLayerTableRecord
  2
3216-CS2-RF_1_180000
 70
0
 62
7
  6
CONTINUOUS
370
-3
390
F
  0
LAYER
  5
271
100
AcDbSymbolTableRecord
100
AcDbLayerTableRecord
  2
3216-CS2-RF_1_180000_1
 70
0
 62
7
  6
CONTINUOUS
370
-3
390
F
  0
LAYER
  5
272
100
AcDbSymbolTableRecord
100
AcDbLayerTableRecord
  2
3216-R1-RF-VIMAR_60000
 70
0
 62
7
  6
CONTINUOUS
370
-3
390
F
  0
LAYER
  5
273
100
AcDbSymbolTableRecord
100
AcDbLayerTableRecord
  2
3216-R1-RF-VIMAR_60000_1
 70
0
 62
7
  6
CONTINUOUS
370
-3
390
F
  0
LAYER
  5
274
100
AcDbSymbolTableRecord
100
AcDbLayerTableRecord
  2
3216-R1-RF-VIMAR_60000_10
 70
0
 62
7
  6
CONTINUOUS
370
-3
390
F
  0
LAYER
  5
275
100
AcDbSymbolTableRecord
100
AcDbLayerTableRecord
  2
3216-R1-RF-VIMAR_60000_11
 70
0
 62
7
  6
CONTINUOUS
370
-3
390
F
  0
LAYER
  5
276
100
AcDbSymbolTableRecord
100
AcDbLayerTableRecord
  2
3216-R1-RF-VIMAR_60000_12
 70
0
 62
7
  6
CONTINUOUS
370
-3
390
F
  0
LAYER
  5
277
100
AcDbSymbolTableRecord
100
AcDbLayerTableRecord
  2
3216-R1-RF-VIMAR_60000_13
 70
0
 62
7
  6
CONTINUOUS
370
-3
390
F
  0
LAYER
  5
278
100
AcDbSymbolTableRecord
100
AcDbLayerTableRecord
  2
3216-R1-RF-VIMAR_60000_14
 70
0
 62
7
  6
CONTINUOUS
370
-3
390
F
  0
LAYER
  5
279
100
AcDbSymbolTableRecord
100
AcDbLayerTableRecord
  2
3216-R1-RF-VIMAR_60000_15
 70
0
 62
7
  6
CONTINUOUS
370
-3
390
F
  0
LAYER
  5
27A
100
AcDbSymbolTableRecord
100
AcDbLayerTableRecord
  2
3216-R1-RF-VIMAR_60000_16
 70
0
 62
7
  6
CONTINUOUS
370
-3
390
F
  0
LAYER
  5
27B
100
AcDbSymbolTableRecord
100
AcDbLayerTableRecord
  2
3216-R1-RF-VIMAR_60000_17
 70
0
 62
7
  6
CONTINUOUS
370
-3
390
F
  0
LAYER
  5
27C
100
AcDbSymbolTableRecord
100
AcDbLayerTableRecord
  2
3216-R1-RF-VIMAR_60000_18
 70
0
 62
7
  6
CONTINUOUS
370
-3
390
F
  0
LAYER
  5
27D
100
AcDbSymbolTableRecord
100
AcDbLayerTableRecord
  2
3216-R1-RF-VIMAR_60000_2
 70
0
 62
7
  6
CONTINUOUS
370
-3
390
F
  0
LAYER
  5
27E
100
AcDbSymbolTableRecord
100
AcDbLayerTableRecord
  2
3216-R1-RF-VIMAR_60000_3
 70
0
 62
7
  6
CONTINUOUS
370
-3
390
F
  0
LAYER
  5
27F
100
AcDbSymbolTableRecord
100
AcDbLayerTableRecord
  2
3216-R1-RF-VIMAR_60000_4
 70
0
 62
7
  6
CONTINUOUS
370
-3
390
F
  0
LAYER
  5
280
100
AcDbSymbolTableRecord
100
AcDbLayerTableRecord
  2
3216-R1-RF-VIMAR_60000_5
 70
0
 62
7
  6
CONTINUOUS
370
-3
390
F
  0
LAYER
  5
281
100
AcDbSymbolTableRecord
100
AcDbLayerTableRecord
  2
3216-R1-RF-VIMAR_60000_6
 70
0
 62
7
  6
CONTINUOUS
370
-3
390
F
  0
LAYER
  5
282
100
AcDbSymbolTableRecord
100
AcDbLayerTableRecord
  2
3216-R1-RF-VIMAR_60000_7
 70
0
 62
7
  6
CONTINUOUS
370
-3
390
F
  0
LAYER
  5
283
100
AcDbSymbolTableRecord
100
AcDbLayerTableRecord
  2
3216-R1-RF-VIMAR_60000_8
 70
0
 62
7
  6
CONTINUOUS
370
-3
390
F
  0
LAYER
  5
284
100
AcDbSymbolTableRecord
100
AcDbLayerTableRecord
  2
3216-R1-RF-VIMAR_60000_9
 70
0
 62
7
  6
CONTINUOUS
370
-3
390
F
  0
LAYER
  5
285
100
AcDbSymbolTableRecord
100
AcDbLayerTableRecord
  2
43000644A0
 70
0
 62
7
  6
CONTINUOUS
370
-3
390
F
  0
LAYER
  5
286
100
AcDbSymbolTableRecord
100
AcDbLayerTableRecord
  2
43000645A0
 70
0
 62
7
  6
CONTINUOUS
370
-3
390
F
  0
LAYER
  5
287
100
AcDbSymbolTableRecord
100
AcDbLayerTableRecord
  2
ASM0001
 70
0
 62
7
  6
CONTINUOUS
370
-3
390
F
  0
LAYER
  5
288
100
AcDbSymbolTableRecord
100
AcDbLayerTableRecord
  2
ASSI
 70
0
 62
7
  6
CONTINUOUS
370
-3
390
F
  0
LAYER
  5
289
100
AcDbSymbolTableRecord
100
AcDbLayerTableRecord
  2
AX-D100-1-VIMAR_300000
 70
0
 62
7
  6
CONTINUOUS
370
-3
390
F
  0
LAYER
  5
28A
100
AcDbSymbolTableRecord
100
AcDbLayerTableRecord
  2
AX-D100-1-VIMAR_300000_1
 70
0
 62
7
  6
CONTINUOUS
370
-3
390
F
  0
LAYER
  5
28B
100
AcDbSymbolTableRecord
100
AcDbLayerTableRecord
  2
AX-D50-7-VIMAR_1550000
 70
0
 62
7
  6
CONTINUOUS
370
-3
390
F
  0
LAYER
  5
28C
100
AcDbSymbolTableRecord
100
AcDbLayerTableRecord
  2
AX-R125-3-VIMAR_280000
 70
0
 62
7
  6
CONTINUOUS
370
-3
390
F
  0
LAYER
  5
28D
100
AcDbSymbolTableRecord
100
AcDbLayerTableRecord
  2
AX-R125-3-VIMAR_280000_1
 70
0
 62
7
  6
CONTINUOUS
370
-3
390
F
  0
LAYER
  5
28E
100
AcDbSymbolTableRecord
100
AcDbLayerTableRecord
  2
AX-R200-2-VIMAR_550000
 70
0
 62
7
  6
CONTINUOUS
370
-3
390
F
  0
LAYER
  5
28F
100
AcDbSymbolTableRecord
100
AcDbLayerTableRecord
  2
CN-MSM02001-VIMAR_1520000
 70
0
 62
7
  6
CONTINUOUS
370
-3
390
F
  0
LAYER
  5
290
100
AcDbSymbolTableRecord
100
AcDbLayerTableRecord
  2
CN-MSM02001-VIMAR_1520000_1
 70
0
 62
7
  6
CONTINUOUS
370
-3
390
F
  0
LAYER
  5
291
100
AcDbSymbolTableRecord
100
AcDbLayerTableRecord
  2
CN-MSM02001-VIMAR_1520000_2
 70
0
 62
7
  6
CONTINUOUS
370
-3
390
F
  0
LAYER
  5
292
100
AcDbSymbolTableRecord
100
AcDbLayerTableRecord
  2
CN-MSM02001-VIMAR_1520000_3
 70
0
 62
7
  6
CONTINUOUS
370
-3
390
F
  0
LAYER
  5
293
100
AcDbSymbolTableRecord
100
AcDbLayerTableRecord
  2
CN1-REF_SQUAREHOLE12_SPEA-VIMAR
 70
0
 62
7
  6
CONTINUOUS
370
-3
390
F
  0
LAYER
  5
294
100
AcDbSymbolTableRecord
100
AcDbLayerTableRecord
  2
CN1-REF_SQUAREHOLE12_SPEA-VIM_1
 70
0
 62
7
  6
CONTINUOUS
370
-3
390
F
  0
LAYER
  5
295
100
AcDbSymbolTableRecord
100
AcDbLayerTableRecord
  2
CN1-REF_SQUAREHOLE12_SPEA-VIM_2
 70
0
 62
7
  6
CONTINUOUS
370
-3
390
F
  0
LAYER
  5
296
100
AcDbSymbolTableRecord
100
AcDbLayerTableRecord
  2
CN1-REF_SQUAREHOLE12_SPEA-VIM_3
 70
0
 62
7
  6
CONTINUOUS
370
-3
390
F
  0
LAYER
  5
297
100
AcDbSymbolTableRecord
100
AcDbLayerTableRecord
  2
CN2-HEADER-PIH-P2_54-1_254000
 70
0
 62
7
  6
CONTINUOUS
370
-3
390
F
  0
LAYER
  5
298
100
AcDbSymbolTableRecord
100
AcDbLayerTableRecord
  2
CN2-HEADER-PIH-P2_54-1_254000_1
 70
0
 62
7
  6
CONTINUOUS
370
-3
390
F
  0
LAYER
  5
299
100
AcDbSymbolTableRecord
100
AcDbLayerTableRecord
  2
CN2-HEADER-PIH-P2_54-1_254000_2
 70
0
 62
7
  6
CONTINUOUS
370
-3
390
F
  0
LAYER
  5
29A
100
AcDbSymbolTableRecord
100
AcDbLayerTableRecord
  2
CN2-HEADER-PIH-P2_54-1_254000_3
 70
0
 62
7
  6
CONTINUOUS
370
-3
390
F
  0
LAYER
  5
29B
100
AcDbSymbolTableRecord
100
AcDbLayerTableRecord
  2
CN6-FSN-1_2540000
 70
0
 62
7
  6
CONTINUOUS
370
-3
390
F
  0
LAYER
  5
29C
100
AcDbSymbolTableRecord
100
AcDbLayerTableRecord
  2
COLOR5
 70
0
 62
7
  6
CONTINUOUS
370
-3
390
F
  0
LAYER
  5
29D
100
AcDbSymbolTableRecord
100
AcDbLayerTableRecord
  2
COLOR6
 70
0
 62
7
  6
CONTINUOUS
370
-3
390
F
  0
LAYER
  5
29E
100
AcDbSymbolTableRecord
100
AcDbLayerTableRecord
  2
COORDINATE
 70
0
 62
7
  6
CONTINUOUS
370
-3
390
F
  0
LAYER
  5
29F
100
AcDbSymbolTableRecord
100
AcDbLayerTableRecord
  2
COORD_ORIGINE
 70
0
 62
7
  6
CONTINUOUS
370
-3
390
F
  0
LAYER
  5
2A0
100
AcDbSymbolTableRecord
100
AcDbLayerTableRecord
  2
COPY_PUBLISH
 70
0
 62
7
  6
CONTINUOUS
370
-3
390
F
  0
LAYER
  5
2A1
100
AcDbSymbolTableRecord
100
AcDbLayerTableRecord
  2
COSMETICI
 70
0
 62
7
  6
CONTINUOUS
370
-3
390
F
  0
LAYER
  5
2A2
100
AcDbSymbolTableRecord
100
AcDbLayerTableRecord
  2
CP-DO-214AB-D-VIMAR-2_260000
 70
0
 62
7
  6
CONTINUOUS
370
-3
390
F
  0
LAYER
  5
2A3
100
AcDbSymbolTableRecord
100
AcDbLayerTableRecord
  2
CP-DO-214AB-D-VIMAR-2_260000_1
 70
0
 62
7
  6
CONTINUOUS
370
-3
390
F
  0
LAYER
  5
2A4
100
AcDbSymbolTableRecord
100
AcDbLayerTableRecord
  2
CP-DO-214AB-D-VIMAR-2_260000_2
 70
0
 62
7
  6
CONTINUOUS
370
-3
390
F
  0
LAYER
  5
2A5
100
AcDbSymbolTableRecord
100
AcDbLayerTableRecord
  2
CP-DO-214AB-D-VIMAR-2_260000_3
 70
0
 62
7
  6
CONTINUOUS
370
-3
390
F
  0
LAYER
  5
2A6
100
AcDbSymbolTableRecord
100
AcDbLayerTableRecord
  2
CP-DO-214AB-D-VIMAR_260000
 70
0
 62
7
  6
CONTINUOUS
370
-3
390
F
  0
LAYER
  5
2A7
100
AcDbSymbolTableRecord
100
AcDbLayerTableRecord
  2
CP-DO-214AB-D-VIMAR_260000_1
 70
0
 62
7
  6
CONTINUOUS
370
-3
390
F
  0
LAYER
  5
2A8
100
AcDbSymbolTableRecord
100
AcDbLayerTableRecord
  2
CP-DO-214AB-D-VIMAR_260000_2
 70
0
 62
7
  6
CONTINUOUS
370
-3
390
F
  0
LAYER
  5
2A9
100
AcDbSymbolTableRecord
100
AcDbLayerTableRecord
  2
CP-DO-214AB-D-VIMAR_260000_3
 70
0
 62
7
  6
CONTINUOUS
370
-3
390
F
  0
LAYER
  5
2AA
100
AcDbSymbolTableRecord
100
AcDbLayerTableRecord
  2
CP-DO-214AC-D-VIMAR_240000
 70
0
 62
7
  6
CONTINUOUS
370
-3
390
F
  0
LAYER
  5
2AB
100
AcDbSymbolTableRecord
100
AcDbLayerTableRecord
  2
CP-DO-214AC-VIMAR_240000
 70
0
 62
7
  6
CONTINUOUS
370
-3
390
F
  0
LAYER
  5
2AC
100
AcDbSymbolTableRecord
100
AcDbLayerTableRecord
  2
CP-DO-214AC-VIMAR_240000_1
 70
0
 62
7
  6
CONTINUOUS
370
-3
390
F
  0
LAYER
  5
2AD
100
AcDbSymbolTableRecord
100
AcDbLayerTableRecord
  2
CURVE
 70
0
 62
7
  6
CONTINUOUS
370
-3
390
F
  0
LAYER
  5
2AE
100
AcDbSymbolTableRecord
100
AcDbLayerTableRecord
  2
DRAFT
 70
0
 62
7
  6
CONTINUOUS
370
-3
390
F
  0
LAYER
  5
2AF
100
AcDbSymbolTableRecord
100
AcDbLayerTableRecord
  2
E2_MARK_10000
 70
0
 62
7
  6
CONTINUOUS
370
-3
390
F
  0
LAYER
  5
2B0
100
AcDbSymbolTableRecord
100
AcDbLayerTableRecord
  2
FUSE-2A-250V_800000
 70
0
 62
7
  6
CONTINUOUS
370
-3
390
F
  0
LAYER
  5
2B1
100
AcDbSymbolTableRecord
100
AcDbLayerTableRecord
  2
I3-TO-H12-VIMAR_1080000
 70
0
 62
7
  6
CONTINUOUS
370
-3
390
F
  0
LAYER
  5
2B2
100
AcDbSymbolTableRecord
100
AcDbLayerTableRecord
  2
I3-TO-H2-7C-VIMAR-2_2040000
 70
0
 62
7
  6
CONTINUOUS
370
-3
390
F
  0
LAYER
  5
2B3
100
AcDbSymbolTableRecord
100
AcDbLayerTableRecord
  2
I3-TO-H2-7C-VIMAR_2040000
 70
0
 62
7
  6
CONTINUOUS
370
-3
390
F
  0
LAYER
  5
2B4
100
AcDbSymbolTableRecord
100
AcDbLayerTableRecord
  2
I3-TO-H2-VIMAR_1130000
 70
0
 62
7
  6
CONTINUOUS
370
-3
390
F
  0
LAYER
  5
2B5
100
AcDbSymbolTableRecord
100
AcDbLayerTableRecord
  2
IMPORT_IGES
 70
0
 62
7
  6
CONTINUOUS
370
-3
390
F
  0
LAYER
  5
2B6
100
AcDbSymbolTableRecord
100
AcDbLayerTableRecord
  2
INDC3216X130N_130000
 70
0
 62
7
  6
CONTINUOUS
370
-3
390
F
  0
LAYER
  5
2B7
100
AcDbSymbolTableRecord
100
AcDbLayerTableRecord
  2
INDC3216X130N_130000_1
 70
0
 62
7
  6
CONTINUOUS
370
-3
390
F
  0
LAYER
  5
2B8
100
AcDbSymbolTableRecord
100
AcDbLayerTableRecord
  2
INDC3216X130N_130000_2
 70
0
 62
7
  6
CONTINUOUS
370
-3
390
F
  0
LAYER
  5
2B9
100
AcDbSymbolTableRecord
100
AcDbLayerTableRecord
  2
INDC3216X130N_130000_3
 70
0
 62
7
  6
CONTINUOUS
370
-3
390
F
  0
LAYER
  5
2BA
100
AcDbSymbolTableRecord
100
AcDbLayerTableRecord
  2
INDC3216X130N_130000_4
 70
0
 62
7
  6
CONTINUOUS
370
-3
390
F
  0
LAYER
  5
2BB
100
AcDbSymbolTableRecord
100
AcDbLayerTableRecord
  2
INTFCLR_3
 70
0
 62
7
  6
CONTINUOUS
370
-3
390
F
  0
LAYER
  5
2BC
100
AcDbSymbolTableRecord
100
AcDbLayerTableRecord
  2
INTFCLR_4
 70
0
 62
7
  6
CONTINUOUS
370
-3
390
F
  0
LAYER
  5
2BD
100
AcDbSymbolTableRecord
100
AcDbLayerTableRecord
  2
INTFCLR_5
 70
0
 62
7
  6
CONTINUOUS
370
-3
390
F
  0
LAYER
  5
2BE
100
AcDbSymbolTableRecord
100
AcDbLayerTableRecord
  2
INTF_1
 70
0
 62
7
  6
CONTINUOUS
370
-3
390
F
  0
LAYER
  5
2BF
100
AcDbSymbolTableRecord
100
AcDbLayerTableRecord
  2
INTF_11
 70
0
 62
7
  6
CONTINUOUS
370
-3
390
F
  0
LAYER
  5
2C0
100
AcDbSymbolTableRecord
100
AcDbLayerTableRecord
  2
INTF_12
 70
0
 62
7
  6
CONTINUOUS
370
-3
390
F
  0
LAYER
  5
2C1
100
AcDbSymbolTableRecord
100
AcDbLayerTableRecord
  2
INTF_BLANK
 70
0
 62
7
  6
CONTINUOUS
370
-3
390
F
  0
LAYER
  5
2C2
100
AcDbSymbolTableRecord
100
AcDbLayerTableRecord
  2
LOGO_RESIST-RESTYLING_10000
 70
0
 62
7
  6
CONTINUOUS
370
-3
390
F
  0
LAYER
  5
2C3
100
AcDbSymbolTableRecord
100
AcDbLayerTableRecord
  2
L_PCX13204_3770000
 70
0
 62
7
  6
CONTINUOUS
370
-3
390
F
  0
LAYER
  5
2C4
100
AcDbSymbolTableRecord
100
AcDbLayerTableRecord
  2
MM3-MPAK-RF-VIMAR_120000
 70
0
 62
7
  6
CONTINUOUS
370
-3
390
F
  0
LAYER
  5
2C5
100
AcDbSymbolTableRecord
100
AcDbLayerTableRecord
  2
MM3-MPAK-RF-VIMAR_120000_1
 70
0
 62
7
  6
CONTINUOUS
370
-3
390
F
  0
LAYER
  5
2C6
100
AcDbSymbolTableRecord
100
AcDbLayerTableRecord
  2
MM3-MPAK-RF-VIMAR_120000_2
 70
0
 62
7
  6
CONTINUOUS
370
-3
390
F
  0
LAYER
  5
2C7
100
AcDbSymbolTableRecord
100
AcDbLayerTableRecord
  2
MM3-MPAK-RF-VIMAR_120000_3
 70
0
 62
7
  6
CONTINUOUS
370
-3
390
F
  0
LAYER
  5
2C8
100
AcDbSymbolTableRecord
100
AcDbLayerTableRecord
  2
MM3-MPAK-RF-VIMAR_120000_4
 70
0
 62
7
  6
CONTINUOUS
370
-3
390
F
  0
LAYER
  5
2C9
100
AcDbSymbolTableRecord
100
AcDbLayerTableRecord
  2
MM3-MPAK-RF-VIMAR_120000_5
 70
0
 62
7
  6
CONTINUOUS
370
-3
390
F
  0
LAYER
  5
2CA
100
AcDbSymbolTableRecord
100
AcDbLayerTableRecord
  2
MM4-LSOP-1-VIMAR_230000
 70
0
 62
7
  6
CONTINUOUS
370
-3
390
F
  0
LAYER
  5
2CB
100
AcDbSymbolTableRecord
100
AcDbLayerTableRecord
  2
NO-PB_MARK_10000
 70
0
 62
7
  6
CONTINUOUS
370
-3
390
F
  0
LAYER
  5
2CC
100
AcDbSymbolTableRecord
100
AcDbLayerTableRecord
  2
NOTE
 70
0
 62
7
  6
CONTINUOUS
370
-3
390
F
  0
LAYER
  5
2CD
100
AcDbSymbolTableRecord
100
AcDbLayerTableRecord
  2
PIANI
 70
0
 62
7
  6
CONTINUOUS
370
-3
390
F
  0
LAYER
  5
2CE
100
AcDbSymbolTableRecord
100
AcDbLayerTableRecord
  2
PIANI_ORIGINE
 70
0
 62
7
  6
CONTINUOUS
370
-3
390
F
  0
LAYER
  5
2CF
100
AcDbSymbolTableRecord
100
AcDbLayerTableRecord
  2
PUNTI
 70
0
 62
7
  6
CONTINUOUS
370
-3
390
F
  0
LAYER
  5
2D0
100
AcDbSymbolTableRecord
100
AcDbLayerTableRecord
  2
RACCORDO
 70
0
 62
7
  6
CONTINUOUS
370
-3
390
F
  0
LAYER
  5
2D1
100
AcDbSymbolTableRecord
100
AcDbLayerTableRecord
  2
RD-3266W_790000
 70
0
 62
7
  6
CONTINUOUS
370
-3
390
F
  0
LAYER
  5
2D2
100
AcDbSymbolTableRecord
100
AcDbLayerTableRecord
  2
RD-C100-1-VIMAR_900000
 70
0
 62
7
  6
CONTINUOUS
370
-3
390
F
  0
LAYER
  5
2D3
100
AcDbSymbolTableRecord
100
AcDbLayerTableRecord
  2
RD-C100-5-VIMAR_1250000
 70
0
 62
7
  6
CONTINUOUS
370
-3
390
F
  0
LAYER
  5
2D4
100
AcDbSymbolTableRecord
100
AcDbLayerTableRecord
  2
RD-C100-5-VIMAR_1250000_1
 70
0
 62
7
  6
CONTINUOUS
370
-3
390
F
  0
LAYER
  5
2D5
100
AcDbSymbolTableRecord
100
AcDbLayerTableRecord
  2
RD-C100-5-VIMAR_1250000_2
 70
0
 62
7
  6
CONTINUOUS
370
-3
390
F
  0
LAYER
  5
2D6
100
AcDbSymbolTableRecord
100
AcDbLayerTableRecord
  2
RD-C150-10-VIMAR_1400000
 70
0
 62
7
  6
CONTINUOUS
370
-3
390
F
  0
LAYER
  5
2D7
100
AcDbSymbolTableRecord
100
AcDbLayerTableRecord
  2
RD-C150-10-VIMAR_1400000_1
 70
0
 62
7
  6
CONTINUOUS
370
-3
390
F
  0
LAYER
  5
2D8
100
AcDbSymbolTableRecord
100
AcDbLayerTableRecord
  2
RD-C50-4-VIMAR_1600000
 70
0
 62
7
  6
CONTINUOUS
370
-3
390
F
  0
LAYER
  5
2D9
100
AcDbSymbolTableRecord
100
AcDbLayerTableRecord
  2
RD-CE20-1-VIMAR_1100000
 70
0
 62
7
  6
CONTINUOUS
370
-3
390
F
  0
LAYER
  5
2DA
100
AcDbSymbolTableRecord
100
AcDbLayerTableRecord
  2
RD-CE20-1-VIMAR_1100000_1
 70
0
 62
7
  6
CONTINUOUS
370
-3
390
F
  0
LAYER
  5
2DB
100
AcDbSymbolTableRecord
100
AcDbLayerTableRecord
  2
RD-CE20-1-VIMAR_1100000_2
 70
0
 62
7
  6
CONTINUOUS
370
-3
390
F
  0
LAYER
  5
2DC
100
AcDbSymbolTableRecord
100
AcDbLayerTableRecord
  2
RD-CE50-4-VIMAR_2000000
 70
0
 62
7
  6
CONTINUOUS
370
-3
390
F
  0
LAYER
  5
2DD
100
AcDbSymbolTableRecord
100
AcDbLayerTableRecord
  2
RD-CE50-4-VIMAR_2000000_1
 70
0
 62
7
  6
CONTINUOUS
370
-3
390
F
  0
LAYER
  5
2DE
100
AcDbSymbolTableRecord
100
AcDbLayerTableRecord
  2
RD-CE75-5-VIMAR_2000000
 70
0
 62
7
  6
CONTINUOUS
370
-3
390
F
  0
LAYER
  5
2DF
100
AcDbSymbolTableRecord
100
AcDbLayerTableRecord
  2
RD-L2-1-VIMAR_2030000
 70
0
 62
7
  6
CONTINUOUS
370
-3
390
F
  0
LAYER
  5
2E0
100
AcDbSymbolTableRecord
100
AcDbLayerTableRecord
  2
RD-L50-10-VIMAR_0
 70
0
 62
7
  6
CONTINUOUS
370
-3
390
F
  0
LAYER
  5
2E1
100
AcDbSymbolTableRecord
100
AcDbLayerTableRecord
  2
RD-L50-10-VIMAR_0_1
 70
0
 62
7
  6
CONTINUOUS
370
-3
390
F
  0
LAYER
  5
2E2
100
AcDbSymbolTableRecord
100
AcDbLayerTableRecord
  2
RD-L50-10-VIMAR_0_2
 70
0
 62
7
  6
CONTINUOUS
370
-3
390
F
  0
LAYER
  5
2E3
100
AcDbSymbolTableRecord
100
AcDbLayerTableRecord
  2
RESC5025X70N_70000
 70
0
 62
7
  6
CONTINUOUS
370
-3
390
F
  0
LAYER
  5
2E4
100
AcDbSymbolTableRecord
100
AcDbLayerTableRecord
  2
RGB____0____0____0__
 70
0
 62
7
  6
CONTINUOUS
370
-3
390
F
  0
LAYER
  5
2E5
100
AcDbSymbolTableRecord
100
AcDbLayerTableRecord
  2
RUBBERPAD-R-06X22_0
 70
0
 62
7
  6
CONTINUOUS
370
-3
390
F
  0
LAYER
  5
2E6
100
AcDbSymbolTableRecord
100
AcDbLayerTableRecord
  2
RUBBERPAD-R-06X22_0_1
 70
0
 62
7
  6
CONTINUOUS
370
-3
390
F
  0
LAYER
  5
2E7
100
AcDbSymbolTableRecord
100
AcDbLayerTableRecord
  2
RUBBERPAD-R-06X22_0_10
 70
0
 62
7
  6
CONTINUOUS
370
-3
390
F
  0
LAYER
  5
2E8
100
AcDbSymbolTableRecord
100
AcDbLayerTableRecord
  2
RUBBERPAD-R-06X22_0_11
 70
0
 62
7
  6
CONTINUOUS
370
-3
390
F
  0
LAYER
  5
2E9
100
AcDbSymbolTableRecord
100
AcDbLayerTableRecord
  2
RUBBERPAD-R-06X22_0_2
 70
0
 62
7
  6
CONTINUOUS
370
-3
390
F
  0
LAYER
  5
2EA
100
AcDbSymbolTableRecord
100
AcDbLayerTableRecord
  2
RUBBERPAD-R-06X22_0_3
 70
0
 62
7
  6
CONTINUOUS
370
-3
390
F
  0
LAYER
  5
2EB
100
AcDbSymbolTableRecord
100
AcDbLayerTableRecord
  2
RUBBERPAD-R-06X22_0_4
 70
0
 62
7
  6
CONTINUOUS
370
-3
390
F
  0
LAYER
  5
2EC
100
AcDbSymbolTableRecord
100
AcDbLayerTableRecord
  2
RUBBERPAD-R-06X22_0_5
 70
0
 62
7
  6
CONTINUOUS
370
-3
390
F
  0
LAYER
  5
2ED
100
AcDbSymbolTableRecord
100
AcDbLayerTableRecord
  2
RUBBERPAD-R-06X22_0_6
 70
0
 62
7
  6
CONTINUOUS
370
-3
390
F
  0
LAYER
  5
2EE
100
AcDbSymbolTableRecord
100
AcDbLayerTableRecord
  2
RUBBERPAD-R-06X22_0_7
 70
0
 62
7
  6
CONTINUOUS
370
-3
390
F
  0
LAYER
  5
2EF
100
AcDbSymbolTableRecord
100
AcDbLayerTableRecord
  2
RUBBERPAD-R-06X22_0_8
 70
0
 62
7
  6
CONTINUOUS
370
-3
390
F
  0
LAYER
  5
2F0
100
AcDbSymbolTableRecord
100
AcDbLayerTableRecord
  2
RUBBERPAD-R-06X22_0_9
 70
0
 62
7
  6
CONTINUOUS
370
-3
390
F
  0
LAYER
  5
2F1
100
AcDbSymbolTableRecord
100
AcDbLayerTableRecord
  2
SIMBOLI
 70
0
 62
7
  6
CONTINUOUS
370
-3
390
F
  0
LAYER
  5
2F2
100
AcDbSymbolTableRecord
100
AcDbLayerTableRecord
  2
SMUSSO
 70
0
 62
7
  6
CONTINUOUS
370
-3
390
F
  0
LAYER
  5
2F3
100
AcDbSymbolTableRecord
100
AcDbLayerTableRecord
  2
SNAPLINE
 70
0
 62
7
  6
CONTINUOUS
370
-3
390
F
  0
LAYER
  5
2F4
100
AcDbSymbolTableRecord
100
AcDbLayerTableRecord
  2
SOP8-T1-RF-FINE-VIMAR_150000
 70
0
 62
7
  6
CONTINUOUS
370
-3
390
F
  0
LAYER
  5
2F5
100
AcDbSymbolTableRecord
100
AcDbLayerTableRecord
  2
SOP8-T1-RF-FINE-VIMAR_150000_1
 70
0
 62
7
  6
CONTINUOUS
370
-3
390
F
  0
LAYER
  5
2F6
100
AcDbSymbolTableRecord
100
AcDbLayerTableRecord
  2
SOP8-T1-RF-FINE-VIMAR_150000_2
 70
0
 62
7
  6
CONTINUOUS
370
-3
390
F
  0
LAYER
  5
2F7
100
AcDbSymbolTableRecord
100
AcDbLayerTableRecord
  2
SUPERFICI
 70
0
 62
7
  6
CONTINUOUS
370
-3
390
F
  0
LAYER
  5
2F8
100
AcDbSymbolTableRecord
100
AcDbLayerTableRecord
  2
TR-64W_850000
 70
0
 62
7
  6
CONTINUOUS
370
-3
390
F
  0
LAYER
  5
2F9
100
AcDbSymbolTableRecord
100
AcDbLayerTableRecord
  2
TR-PCX13227_3220000
 70
0
 62
7
  6
CONTINUOUS
370
-3
390
F
  0
LAYER
  5
2FA
100
AcDbSymbolTableRecord
100
AcDbLayerTableRecord
  2
TRASH
 70
0
 62
7
  6
CONTINUOUS
370
-3
390
F
  0
LAYER
  5
2FB
100
AcDbSymbolTableRecord
100
AcDbLayerTableRecord
  2
TR_T7YA_625000
 70
0
 62
7
  6
CONTINUOUS
370
-3
390
F
  0
LAYER
  5
2FC
100
AcDbSymbolTableRecord
100
AcDbLayerTableRecord
  2
WHITE
 70
0
 62
7
  6
CONTINUOUS
370
-3
390
F
  0
LAYER
  5
2FD
100
AcDbSymbolTableRecord
100
AcDbLayerTableRecord
  2
___SHELL
 70
0
 62
7
  6
CONTINUOUS
370
-3
390
F
  0
ENDTAB
  0
TABLE
  2
STYLE
  5
3
100
AcDbSymbolTable
 70
1
  0
STYLE
  5
11
100
AcDbSymbolTableRecord
100
AcDbTextStyleTableRecord
  2
STANDARD
 70
0
 40
0.0
 41
0.8
 50
0.0
 71
0
 42
0.2
  3
txt
  4

  0
STYLE
  5
2FE
100
AcDbSymbolTableRecord
100
AcDbTextStyleTableRecord
  2
TEXTSTYLE_1
 70
0
 40
0.0
 41
0.8
 50
0.0
 71
0
 42
0.2
  3
gdt
  4

  0
ENDTAB
  0
TABLE
  2
VIEW
  5
6
100
AcDbSymbolTable
 70
0
  0
ENDTAB
  0
TABLE
  2
UCS
  5
7
100
AcDbSymbolTable
 70
0
  0
ENDTAB
  0
TABLE
  2
APPID
  5
9
100
AcDbSymbolTable
 70
1
  0
APPID
  5
2FF
100
AcDbSymbolTableRecord
100
AcDbRegAppTableRecord
  2
ACAD
 70
0
  0
ENDTAB
  0
TABLE
  2
BLOCK_RECORD
  5
1
100
AcDbSymbolTable
 70
0
  0
BLOCK_RECORD
  5
300
100
AcDbSymbolTableRecord
100
AcDbBlockTableRecord
  2
*Model_Space
  0
BLOCK_RECORD
  5
301
100
AcDbSymbolTableRecord
100
AcDbBlockTableRecord
  2
*Paper_Space
  0
BLOCK_RECORD
  5
302
100
AcDbSymbolTableRecord
100
AcDbBlockTableRecord
  2
_FILLED
  0
ENDTAB
  0
TABLE
  2
DIMSTYLE
  5
A
100
AcDbSymbolTable
 70
1
100
AcDbDimStyleTable
 71
0
  0
DIMSTYLE
105
303
100
AcDbSymbolTableRecord
100
AcDbDimStyleTableRecord
  2
STANDARD
 70
0
  3

  4

 40
1.0
 41
3.0
 42
0.5
 43
0.38
 44
1.5
 45
0.0
 46
0.0
 47
0.01
 48
0.01
140
3.0
141
0.09
142
0.0
143
25.4
144
1.0
145
0.0
146
1.0
147
0.625
 71
1.0
 72
0.0
 73
0
 74
0
 75
0
 76
0
 77
1
 78
8
 79
2
170
0
171
1
172
0
173
0
174
0
175
0
176
0
177
0
178
0
270
2
179
2
271
2
272
2
273
2
274
2
275
0
280
0
281
0
282
0
283
1
284
8
285
0
286
0
287
3
288
0
340
11
278
44
341
302
342
302
343
302
344
302
  0
ENDTAB
  0
ENDSEC
  0
SECTION
  2
BLOCKS
  0
BLOCK
  5
20
100
AcDbEntity
  8
0
100
AcDbBlockBegin
  2
*Model_Space
 70
0
 10
0.0
 20
0.0
 30
0.0
  3
*Model_Space
  1

  0
ENDBLK
  5
21
100
AcDbEntity
  8
0
100
AcDbBlockEnd
  0
BLOCK
  5
1C
100
AcDbEntity
  8
0
100
AcDbBlockBegin
  2
*Paper_Space
 70
0
 10
0.0
 20
0.0
 30
0.0
  3
*Paper_Space
  1

  0
ENDBLK
  5
1D
100
AcDbEntity
  8
0
100
AcDbBlockEnd
  0
BLOCK
  5
304
100
AcDbEntity
  8
0
100
AcDbBlockBegin
  2
_FILLED
 70
64
 10
0.0
 20
0.0
  3
_FILLED
  1

  0
SOLID
  5
305
100
AcDbEntity
  8
0
  6
BYBLOCK
 62
0
100
AcDbTrace
 10
0.0
 20
0.0
 11
-1.0
 21
0.3166666667
 12
-1.0
 22
-0.3166666667
 13
-1.0
 23
-0.3166666667
  0
ENDBLK
  5
306
100
AcDbEntity
  8
0
  6
BYBLOCK
 62
0
100
AcDbBlockEnd
  0
ENDSEC
  0
SECTION
  2
ENTITIES
  0
LINE
  5
307
100
AcDbEntity
  8
RACCORDO
100
AcDbLine
 62
7
  6
CONTINUOUS
 10
-69.890101986
 20
-43.7220562046
 11
-69.890101986
 21
45.2779818723
  0
LINE
  5
308
100
AcDbEntity
  8
RACCORDO
100
AcDbLine
 62
250
  6
CONTINUOUS
 10
-69.7276175657
 20
-17.7133857977
 11
-69.7276175657
 21
19.2693114654
  0
LINE
  5
309
100
AcDbEntity
  8
RACCORDO
100
AcDbLine
 62
250
  6
CONTINUOUS
 10
-69.6228871762
 20
-43.4548985087
 11
-69.6228871762
 21
-17.8181161873
  0
LINE
  5
30A
100
AcDbEntity
  8
RACCORDO
100
AcDbLine
 62
250
  6
CONTINUOUS
 10
-69.6228871762
 20
19.374041855
 11
-69.6228871762
 21
45.0108241764
  0
LINE
  5
30B
100
AcDbEntity
  8
RACCORDO
100
AcDbLine
 62
250
  6
CONTINUOUS
 10
-69.2276937182
 20
-17.2221106951
 11
-69.2276937182
 21
18.7780363628
  0
LINE
  5
30C
100
AcDbEntity
  8
RACCORDO
100
AcDbLine
 62
250
  6
CONTINUOUS
 10
-69.1229633286
 20
-43.9548223563
 11
-69.1229633286
 21
-17.3181923397
  0
LINE
  5
30D
100
AcDbEntity
  8
RACCORDO
100
AcDbLine
 62
250
  6
CONTINUOUS
 10
-69.1229633286
 20
18.8741180074
 11
-69.1229633286
 21
45.510748024
  0
LINE
  5
30E
100
AcDbEntity
  8
DRAFT
100
AcDbLine
 62
7
  6
CONTINUOUS
 10
-67.6045786817
 20
18.7779628338
 11
-67.6045786817
 21
14.497161943
  0
LINE
  5
30F
100
AcDbEntity
  8
DRAFT
100
AcDbLine
 62
7
  6
CONTINUOUS
 10
-67.491284128
 20
18.7831993533
 11
-67.491284128
 21
14.497161943
  0
LINE
  5
310
100
AcDbEntity
  8
RACCORDO
100
AcDbLine
 62
7
  6
CONTINUOUS
 10
-67.290101986
 20
15.2799792188
 11
-67.290101986
 21
18.8022990371
  0
LINE
  5
311
100
AcDbEntity
  8
IMPORT_IGES
100
AcDbLine
 62
7
  6
CONTINUOUS
 10
-66.890101986
 20
14.7887142157
 11
-66.890101986
 21
14.497161943
  0
LINE
  5
312
100
AcDbEntity
  8
RACCORDO
100
AcDbLine
 62
250
  6
CONTINUOUS
 10
-67.2456892266
 20
15.6644430034
 11
-67.2197958061
 21
18.8743306111
  0
LINE
  5
313
100
AcDbEntity
  8
RACCORDO
100
AcDbLine
 62
250
  6
CONTINUOUS
 10
-66.745765379
 20
15.546890403
 11
-66.7201606751
 21
18.7209871511
  0
LINE
  5
314
100
AcDbEntity
  8
DRAFT
100
AcDbLine
 62
7
  6
CONTINUOUS
 10
-67.6045786817
 20
18.7779628338
 11
-67.6019606213
 21
18.7831993533
  0
LINE
  5
315
100
AcDbEntity
  8
RACCORDO
100
AcDbLine
 62
7
  6
CONTINUOUS
 10
-67.2199370113
 20
18.8741180074
 11
-67.290101986
 21
18.8022990371
  0
LINE
  5
316
100
AcDbEntity
  8
RACCORDO
100
AcDbLine
 62
250
  6
CONTINUOUS
 10
-69.7276175657
 20
19.2693114654
 11
-69.6228871762
 21
19.374041855
  0
LINE
  5
317
100
AcDbEntity
  8
RACCORDO
100
AcDbLine
 62
250
  6
CONTINUOUS
 10
-69.2191185021
 20
18.7779628338
 11
-69.1229633286
 21
18.8741180074
  0
LINE
  5
318
100
AcDbEntity
  8
RACCORDO
100
AcDbLine
 62
250
  6
CONTINUOUS
 10
-69.6228871762
 20
-17.8181161873
 11
-69.7276175657
 21
-17.7133857977
  0
LINE
  5
319
100
AcDbEntity
  8
RACCORDO
100
AcDbLine
 62
250
  6
CONTINUOUS
 10
-69.1229633286
 20
-17.3181923397
 11
-69.2191185021
 21
-17.2220371662
  0
LINE
  5
31A
100
AcDbEntity
  8
RACCORDO
100
AcDbLine
 62
250
  6
CONTINUOUS
 10
-59.0600432969
 20
18.7209871511
 11
-59.034438593
 21
15.546890403
  0
LINE
  5
31B
100
AcDbEntity
  8
RACCORDO
100
AcDbLine
 62
250
  6
CONTINUOUS
 10
-58.5604081659
 20
18.8743306111
 11
-58.5345147454
 21
15.6644430034
  0
LINE
  5
31C
100
AcDbEntity
  8
RACCORDO
100
AcDbLine
 62
7
  6
CONTINUOUS
 10
-58.490101986
 20
15.2799792188
 11
-58.490101986
 21
18.8022990371
  0
LINE
  5
31D
100
AcDbEntity
  8
DRAFT
100
AcDbLine
 62
7
  6
CONTINUOUS
 10
-58.2093010951
 20
18.7779628338
 11
-58.2093010951
 21
14.497161943
  0
LINE
  5
31E
100
AcDbEntity
  8
RACCORDO
100
AcDbLine
 62
7
  6
CONTINUOUS
 10
20.609928475
 20
-45.7220371662
 11
11.009867553
 21
-45.7220371662
  0
LINE
  5
31F
100
AcDbEntity
  8
RACCORDO
100
AcDbLine
 62
7
  6
CONTINUOUS
 10
69.6099170525
 20
-44.2220371662
 11
20.809898014
 21
-44.2220371662
  0
LINE
  5
320
100
AcDbEntity
  8
RACCORDO
100
AcDbLine
 62
7
  6
CONTINUOUS
 10
-69.3901781384
 20
-44.2220371662
 11
-3.690101986
 21
-44.2220371662
  0
LINE
  5
321
100
AcDbEntity
  8
DRAFT
100
AcDbLine
 62
7
  6
CONTINUOUS
 10
-3.690101986
 20
-44.2220371662
 11
3.909898014
 21
-44.2220371662
  0
LINE
  5
322
100
AcDbEntity
  8
RACCORDO
100
AcDbLine
 62
7
  6
CONTINUOUS
 10
3.909898014
 20
-44.2220371662
 11
10.809898014
 21
-44.2220371662
  0
LINE
  5
323
100
AcDbEntity
  8
RACCORDO
100
AcDbLine
 62
250
  6
CONTINUOUS
 10
21.3941510612
 20
-44.1119179407
 11
20.809898014
 21
-44.1119179407
  0
LINE
  5
324
100
AcDbEntity
  8
RACCORDO
100
AcDbLine
 62
250
  6
CONTINUOUS
 10
10.809898014
 20
-44.1119179407
 11
10.2256449668
 21
-44.1119179407
  0
LINE
  5
325
100
AcDbEntity
  8
RACCORDO
100
AcDbLine
 62
250
  6
CONTINUOUS
 10
69.3427593566
 20
-43.9548223563
 11
21.5512466455
 21
-43.9548223563
  0
LINE
  5
326
100
AcDbEntity
  8
RACCORDO
100
AcDbLine
 62
250
  6
CONTINUOUS
 10
10.0685493824
 20
-43.9548223563
 11
-69.1229633286
 21
-43.9548223563
  0
LWPOLYLINE
  5
327
100
AcDbEntity
  8
0
100
AcDbPolyline
 62
7
  6
CONTINUOUS
 90
21
 70
0
 10
19.1671214741
 20
-34.9220371662
 10
19.1754372327
 20
-34.9197400741
 10
19.1861121387
 20
-34.9165087675
 10
19.1976369044
 20
-34.9126572961
 10
19.2100028224
 20
-34.9080663666
 10
19.2237181175
 20
-34.9023675791
 10
19.2389251338
 20
-34.895229282
 10
19.2552616015
 20
-34.8864947966
 10
19.2724250919
 20
-34.8759752205
 10
19.2903232369
 20
-34.8633087867
 10
19.3085249047
 20
-34.8482983679
 10
19.3262270487
 20
-34.8311181952
 10
19.3430940223
 20
-34.8116834102
 10
19.3588740003
 20
-34.7899115825
 10
19.3730201749
 20
-34.7662180592
 10
19.3852429159
 20
-34.7408131953
 10
19.3953374108
 20
-34.7137460738
 10
19.4029869243
 20
-34.6853340156
 10
19.4079216334
 20
-34.6558457995
 10
19.4098772684
 20
-34.6254847851
 10
19.4098980008
 20
-34.6220289992
  0
LINE
  5
328
100
AcDbEntity
  8
RACCORDO
100
AcDbLine
 62
250
  6
CONTINUOUS
 10
20.9028759586
 20
-43.6119940931
 11
20.809898014
 21
-43.6119940931
  0
LINE
  5
329
100
AcDbEntity
  8
RACCORDO
100
AcDbLine
 62
250
  6
CONTINUOUS
 10
10.809898014
 20
-43.6119940931
 11
10.7169200694
 21
-43.6119940931
  0
LINE
  5
32A
100
AcDbEntity
  8
RACCORDO
100
AcDbLine
 62
250
  6
CONTINUOUS
 10
69.8426832041
 20
-43.4548985087
 11
21.0599715429
 21
-43.4548985087
  0
LINE
  5
32B
100
AcDbEntity
  8
RACCORDO
100
AcDbLine
 62
250
  6
CONTINUOUS
 10
10.5598244851
 20
-43.4548985087
 11
-69.6228871762
 21
-43.4548985087
  0
LINE
  5
32C
100
AcDbEntity
  8
DRAFT
100
AcDbLine
 62
7
  6
CONTINUOUS
 10
12.659898014
 20
-43.2220371662
 11
18.959898014
 21
-43.2220371662
  0
LINE
  5
32D
100
AcDbEntity
  8
DRAFT
100
AcDbLine
 62
7
  6
CONTINUOUS
 10
20.9028024296
 20
-41.8626944652
 11
20.809898014
 21
-41.8626944652
  0
LINE
  5
32E
100
AcDbEntity
  8
DRAFT
100
AcDbLine
 62
7
  6
CONTINUOUS
 10
18.959898014
 20
-41.8626944652
 11
12.659898014
 21
-41.8626944652
  0
LINE
  5
32F
100
AcDbEntity
  8
DRAFT
100
AcDbLine
 62
7
  6
CONTINUOUS
 10
10.809898014
 20
-41.8626944652
 11
10.7169935983
 21
-41.8626944652
  0
LINE
  5
330
100
AcDbEntity
  8
DRAFT
100
AcDbLine
 62
7
  6
CONTINUOUS
 10
17.0511704815
 20
-41.8155612701
 11
14.5686255465
 21
-41.8155612701
  0
LINE
  5
331
100
AcDbEntity
  8
DRAFT
100
AcDbLine
 62
7
  6
CONTINUOUS
 10
21.0180058582
 20
-41.8068337376
 11
17.059898014
 21
-41.8068337376
  0
LINE
  5
332
100
AcDbEntity
  8
DRAFT
100
AcDbLine
 62
7
  6
CONTINUOUS
 10
14.559898014
 20
-41.8068337376
 11
10.6017901698
 21
-41.8068337376
  0
LINE
  5
333
100
AcDbEntity
  8
RACCORDO
100
AcDbLine
 62
250
  6
CONTINUOUS
 10
10.5633281004
 20
-41.7683716682
 11
21.0564679276
 21
-41.7683716682
  0
LINE
  5
334
100
AcDbEntity
  8
RACCORDO
100
AcDbLine
 62
250
  6
CONTINUOUS
 10
10.559898014
 20
-41.5684021292
 11
21.059898014
 21
-41.5684021292
  0
LINE
  5
335
100
AcDbEntity
  8
RACCORDO
100
AcDbLine
 62
7
  6
CONTINUOUS
 10
19.809898014
 20
-39.3220371662
 11
11.809898014
 21
-39.3220371662
  0
LINE
  5
336
100
AcDbEntity
  8
DRAFT
100
AcDbLine
 62
7
  6
CONTINUOUS
 10
32.109898014
 20
-39.2220371662
 11
33.9714968711
 21
-39.2220371662
  0
LINE
  5
337
100
AcDbEntity
  8
0
100
AcDbLine
 62
7
  6
CONTINUOUS
 10
37.109898014
 20
-39.2220371662
 11
39.609898014
 21
-39.2220371662
  0
LINE
  5
338
100
AcDbEntity
  8
0
100
AcDbLine
 62
7
  6
CONTINUOUS
 10
42.109898014
 20
-39.2220371662
 11
44.609898014
 21
-39.2220371662
  0
LINE
  5
339
100
AcDbEntity
  8
0
100
AcDbLine
 62
7
  6
CONTINUOUS
 10
47.109898014
 20
-39.2220371662
 11
49.609898014
 21
-39.2220371662
  0
LINE
  5
33A
100
AcDbEntity
  8
0
100
AcDbLine
 62
7
  6
CONTINUOUS
 10
52.109898014
 20
-39.2220371662
 11
54.609898014
 21
-39.2220371662
  0
LINE
  5
33B
100
AcDbEntity
  8
DRAFT
100
AcDbLine
 62
7
  6
CONTINUOUS
 10
-58.2093010951
 20
18.7779628338
 11
-58.2119191555
 21
18.7831993533
  0
LINE
  5
33C
100
AcDbEntity
  8
0
100
AcDbLine
 62
7
  6
CONTINUOUS
 10
12.6889330416
 20
-34.5710636882
 11
12.7039266266
 21
-34.5668994612
  0
LWPOLYLINE
  5
33D
100
AcDbEntity
  8
0
100
AcDbPolyline
 62
7
  6
CONTINUOUS
 90
33
 70
0
 10
12.5372205278
 20
-33.9924107289
 10
12.5265500812
 20
-33.9953331278
 10
12.5162677109
 20
-33.9982047508
 10
12.5063193154
 20
-34.0010419565
 10
12.4966998687
 20
-34.0038479271
 10
12.4873925225
 20
-34.0066295378
 10
12.4783223417
 20
-34.0094121907
 10
12.4694946204
 20
-34.0121982317
 10
12.4608793073
 20
-34.0150016394
 10
12.4523448987
 20
-34.0178724878
 10
12.4439172618
 20
-34.0208117789
 10
12.4355465273
 20
-34.0238479768
 10
12.4269881325
 20
-34.0270887328
 10
12.4182977833
 20
-34.0305392114
 10
12.4094095679
 20
-34.0342559368
 10
12.3999068007
 20
-34.0384654384
 10
12.389813366
 20
-34.0432355798
 10
12.3791447158
 20
-34.0486519803
 10
12.367498513
 20
-34.0550560472
 10
12.354856529
 20
-34.0626596451
 10
12.3414092297
 20
-34.0715916548
 10
12.3271296772
 20
-34.0821722724
 10
12.3120381291
 20
-34.0947997636
 10
12.2965999971
 20
-34.1095908403
 10
12.2814654504
 20
-34.1263989532
 10
12.2668452245
 20
-34.1454019559
 10
12.2530829919
 20
-34.1666223272
 10
12.2408363673
 20
-34.1894234845
 10
12.2303489882
 20
-34.2135964019
 10
12.2217729862
 20
-34.2391270343
 10
12.2154118185
 20
-34.2654930126
 10
12.2114201521
 20
-34.2923771292
 10
12.2098990899
 20
-34.3212556345
  0
LINE
  5
33E
100
AcDbEntity
  8
0
100
AcDbLine
 62
7
  6
CONTINUOUS
 10
12.7039266266
 20
-34.5668994612
 11
12.720952144
 21
-34.5623131082
  0
LINE
  5
33F
100
AcDbEntity
  8
0
100
AcDbLine
 62
7
  6
CONTINUOUS
 10
12.5597797979
 20
-33.9863959124
 11
12.5372205278
 21
-33.9924107289
  0
LINE
  5
340
100
AcDbEntity
  8
0
100
AcDbLine
 62
7
  6
CONTINUOUS
 10
12.720952144
 20
-34.5623131082
 11
12.7400192812
 21
-34.5573137895
  0
LINE
  5
341
100
AcDbEntity
  8
0
100
AcDbLine
 62
7
  6
CONTINUOUS
 10
12.5840925166
 20
-33.9801167849
 11
12.5597797979
 21
-33.9863959124
  0
LINE
  5
342
100
AcDbEntity
  8
0
100
AcDbLine
 62
7
  6
CONTINUOUS
 10
12.7400192812
 20
-34.5573137895
 11
12.7611567664
 21
-34.5519032342
  0
LWPOLYLINE
  5
343
100
AcDbEntity
  8
0
100
AcDbPolyline
 62
7
  6
CONTINUOUS
 90
32
 70
0
 10
16.7238209807
 20
-33.6208414417
 10
16.8895596316
 20
-33.5792102367
 10
17.0520258244
 20
-33.5377179278
 10
17.2108352942
 20
-33.4963603963
 10
17.3656349279
 20
-33.4551299932
 10
17.515451065
 20
-33.4141958108
 10
17.6599924789
 20
-33.3735588899
 10
17.7990729955
 20
-33.3331983929
 10
17.9320438547
 20
-33.293241445
 10
18.0587239156
 20
-33.2536965684
 10
18.1791236686
 20
-33.2145217591
 10
18.2930435076
 20
-33.1757524676
 10
18.4004752915
 20
-33.1373737464
 10
18.5015130097
 20
-33.0993412741
 10
18.5962426964
 20
-33.061617558
 10
18.6847279774
 20
-33.0241802075
 10
18.7671886887
 20
-32.9869439006
 10
18.8440294295
 20
-32.9497227725
 10
18.9153720996
 20
-32.9124441371
 10
18.981430958
 20
-32.8749783207
 10
19.0427518851
 20
-32.8369575424
 10
19.0993779067
 20
-32.7982519201
 10
19.1514528684
 20
-32.7586306909
 10
19.1995583958
 20
-32.7173910264
 10
19.2436703806
 20
-32.6740983678
 10
19.2834563407
 20
-32.6285262256
 10
19.3188636287
 20
-32.5801027983
 10
19.3499923449
 20
-32.5275577436
 10
19.3755318597
 20
-32.471590341
 10
19.393948566
 20
-32.4150612303
 10
19.4052045619
 20
-32.3593786277
 10
19.4097738848
 20
-32.3040475802
  0
LINE
  5
344
100
AcDbEntity
  8
0
100
AcDbLine
 62
7
  6
CONTINUOUS
 10
12.6102733548
 20
-33.9735412322
 11
12.5840925166
 21
-33.9801167849
  0
LINE
  5
345
100
AcDbEntity
  8
0
100
AcDbLine
 62
7
  6
CONTINUOUS
 10
12.7611567664
 20
-34.5519032342
 11
12.7843915536
 21
-34.5460818464
  0
LINE
  5
346
100
AcDbEntity
  8
0
100
AcDbLine
 62
7
  6
CONTINUOUS
 10
16.5922798025
 20
-33.0524859693
 11
16.2545710161
 21
-33.1357545165
  0
LINE
  5
347
100
AcDbEntity
  8
0
100
AcDbLine
 62
7
  6
CONTINUOUS
 10
16.3864171376
 20
-33.7039837486
 11
16.7238209807
 21
-33.6208414417
  0
LINE
  5
348
100
AcDbEntity
  8
0
100
AcDbLine
 62
7
  6
CONTINUOUS
 10
14.9343046707
 20
-34.057261743
 11
15.2118088698
 21
-33.9887765346
  0
LINE
  5
349
100
AcDbEntity
  8
0
100
AcDbLine
 62
7
  6
CONTINUOUS
 10
12.6384331406
 20
-33.9666398374
 11
12.6102733548
 21
-33.9735412322
  0
LINE
  5
34A
100
AcDbEntity
  8
0
100
AcDbLine
 62
7
  6
CONTINUOUS
 10
15.3882459845
 20
-33.34528663
 11
14.9885113969
 21
-33.4429270235
  0
LINE
  5
34B
100
AcDbEntity
  8
0
100
AcDbLine
 62
7
  6
CONTINUOUS
 10
15.2118088698
 20
-33.9887765346
 11
15.5378850673
 21
-33.9091913175
  0
LINE
  5
34C
100
AcDbEntity
  8
0
100
AcDbLine
 62
7
  6
CONTINUOUS
 10
12.7843915536
 20
-34.5460818464
 11
12.823277201
 21
-34.5365664075
  0
LINE
  5
34D
100
AcDbEntity
  8
0
100
AcDbLine
 62
7
  6
CONTINUOUS
 10
15.5378850673
 20
-33.9091913175
 11
16.3864171376
 21
-33.7039837486
  0
LINE
  5
34E
100
AcDbEntity
  8
0
100
AcDbLine
 62
7
  6
CONTINUOUS
 10
16.2545710161
 20
-33.1357545165
 11
15.3882459845
 21
-33.34528663
  0
LINE
  5
34F
100
AcDbEntity
  8
0
100
AcDbLine
 62
7
  6
CONTINUOUS
 10
14.9885113969
 20
-33.4429270235
 11
14.8295937567
 21
-33.481215423
  0
LINE
  5
350
100
AcDbEntity
  8
0
100
AcDbLine
 62
7
  6
CONTINUOUS
 10
14.7165466575
 20
-34.1097514632
 11
14.9343046707
 21
-34.057261743
  0
LINE
  5
351
100
AcDbEntity
  8
0
100
AcDbLine
 62
7
  6
CONTINUOUS
 10
12.6686503423
 20
-33.9593920906
 11
12.6384331406
 21
-33.9666398374
  0
LINE
  5
352
100
AcDbEntity
  8
0
100
AcDbLine
 62
7
  6
CONTINUOUS
 10
12.823277201
 20
-34.5365664075
 11
12.8671646196
 21
-34.526083773
  0
LINE
  5
353
100
AcDbEntity
  8
0
100
AcDbLine
 62
7
  6
CONTINUOUS
 10
14.508056878
 20
-34.1588479161
 11
14.7165466575
 21
-34.1097514632
  0
LINE
  5
354
100
AcDbEntity
  8
0
100
AcDbLine
 62
7
  6
CONTINUOUS
 10
14.8295937567
 20
-33.481215423
 11
14.6240087896
 21
-33.5296473051
  0
LINE
  5
355
100
AcDbEntity
  8
0
100
AcDbLine
 62
7
  6
CONTINUOUS
 10
12.7179711184
 20
-33.9478348409
 11
12.6686503423
 21
-33.9593920906
  0
LINE
  5
356
100
AcDbEntity
  8
0
100
AcDbLine
 62
7
  6
CONTINUOUS
 10
12.8671646196
 20
-34.526083773
 11
12.9338220737
 21
-34.5105315715
  0
LINE
  5
357
100
AcDbEntity
  8
0
100
AcDbLine
 62
7
  6
CONTINUOUS
 10
14.2618212006
 20
-34.2155608374
 11
14.508056878
 21
-34.1588479161
  0
LINE
  5
358
100
AcDbEntity
  8
0
100
AcDbLine
 62
7
  6
CONTINUOUS
 10
14.6240087896
 20
-33.5296473051
 11
14.4262702142
 21
-33.5751769829
  0
LINE
  5
359
100
AcDbEntity
  8
0
100
AcDbLine
 62
7
  6
CONTINUOUS
 10
12.7722191359
 20
-33.9354173024
 11
12.7179711184
 21
-33.9478348409
  0
LINE
  5
35A
100
AcDbEntity
  8
0
100
AcDbLine
 62
7
  6
CONTINUOUS
 10
12.9338220737
 20
-34.5105315715
 11
13.0309815444
 21
-34.4883937743
  0
LINE
  5
35B
100
AcDbEntity
  8
0
100
AcDbLine
 62
7
  6
CONTINUOUS
 10
14.4262702142
 20
-33.5751769829
 11
14.236977695
 21
-33.6179042643
  0
LINE
  5
35C
100
AcDbEntity
  8
0
100
AcDbLine
 62
7
  6
CONTINUOUS
 10
13.9463022404
 20
-34.2865723745
 11
14.2618212006
 21
-34.2155608374
  0
LINE
  5
35D
100
AcDbEntity
  8
0
100
AcDbLine
 62
7
  6
CONTINUOUS
 10
12.8524095832
 20
-33.9174602712
 11
12.7722191359
 21
-33.9354173024
  0
LINE
  5
35E
100
AcDbEntity
  8
0
100
AcDbLine
 62
7
  6
CONTINUOUS
 10
13.0309815444
 20
-34.4883937743
 11
13.2210595277
 21
-34.4460863282
  0
LINE
  5
35F
100
AcDbEntity
  8
0
100
AcDbLine
 62
7
  6
CONTINUOUS
 10
14.236977695
 20
-33.6179042643
 11
14.0129863734
 21
-33.6675247893
  0
LINE
  5
360
100
AcDbEntity
  8
0
100
AcDbLine
 62
7
  6
CONTINUOUS
 10
13.2210595277
 20
-34.4460863282
 11
13.9463022404
 21
-34.2865723745
  0
LWPOLYLINE
  5
361
100
AcDbEntity
  8
0
100
AcDbPolyline
 62
7
  6
CONTINUOUS
 90
14
 70
0
 10
19.0180558183
 20
-34.341701205
 10
19.018127454
 20
-34.3416855468
 10
19.017850131
 20
-34.3417428329
 10
19.016758287
 20
-34.3419562367
 10
19.0150246899
 20
-34.3422753707
 10
19.0126615284
 20
-34.3426864921
 10
19.0096340921
 20
-34.3431851813
 10
19.0060506553
 20
-34.3437452885
 10
19.0019157898
 20
-34.3443600902
 10
18.9972096854
 20
-34.3450270122
 10
18.9920099377
 20
-34.3457306847
 10
18.9863253792
 20
-34.3464667802
 10
18.9801395471
 20
-34.3472345424
 10
18.9734955582
 20
-34.3480262102
  0
LINE
  5
362
100
AcDbEntity
  8
0
100
AcDbLine
 62
7
  6
CONTINUOUS
 10
12.9901930602
 20
-33.887310919
 11
12.8524095832
 21
-33.9174602712
  0
LINE
  5
363
100
AcDbEntity
  8
0
100
AcDbLine
 62
7
  6
CONTINUOUS
 10
14.0129863734
 20
-33.6675247893
 11
13.763683847
 21
-33.7217687577
  0
LWPOLYLINE
  5
364
100
AcDbEntity
  8
0
100
AcDbPolyline
 62
7
  6
CONTINUOUS
 90
3
 70
0
 10
13.763683847
 20
-33.7217687577
 10
13.3317871921
 20
-33.8141806797
 10
12.9901930602
 20
-33.887310919
  0
LWPOLYLINE
  5
365
100
AcDbEntity
  8
0
100
AcDbPolyline
 62
7
  6
CONTINUOUS
 90
36
 70
0
 10
12.5922761493
 20
-34.5987278464
 10
12.5815631975
 20
-34.5999411422
 10
12.5711736046
 20
-34.6011692246
 10
12.5611020318
 20
-34.6024138974
 10
12.5513390923
 20
-34.6036776319
 10
12.5418420363
 20
-34.6049677701
 10
12.5326135941
 20
-34.6062861889
 10
12.5236299904
 20
-34.6076388215
 10
12.5148028323
 20
-34.6090429609
 10
12.5061451266
 20
-34.6105017354
 10
12.4976194167
 20
-34.6120273315
 10
12.4890579188
 20
-34.6136594959
 10
12.4804982314
 20
-34.6154040742
 10
12.4718799997
 20
-34.6172881603
 10
12.4628888137
 20
-34.6194060014
 10
12.4535879935
 20
-34.6217784838
 10
12.4439058721
 20
-34.6244651868
 10
12.4333325665
 20
-34.6276772393
 10
12.4219017989
 20
-34.6315075963
 10
12.4096204697
 20
-34.6360756569
 10
12.3959685701
 20
-34.6417549071
 10
12.380795921
 20
-34.648882525
 10
12.3644771271
 20
-34.6576122687
 10
12.3473312073
 20
-34.6681252094
 10
12.3294513856
 20
-34.6807818537
 10
12.3112670667
 20
-34.6957795856
 10
12.2935894784
 20
-34.7129344976
 10
12.2767468151
 20
-34.7323345642
 10
12.2609926179
 20
-34.7540557632
 10
12.2468858221
 20
-34.7776520969
 10
12.2347027159
 20
-34.8029110718
 10
12.2246353719
 20
-34.8297793304
 10
12.2169939367
 20
-34.8579001773
 10
12.2120210641
 20
-34.8869926404
 10
12.2099445107
 20
-34.9168730256
 10
12.2098995199
 20
-34.9211124969
  0
LINE
  5
366
100
AcDbEntity
  8
0
100
AcDbLine
 62
7
  6
CONTINUOUS
 10
18.9734955582
 20
-34.3480262102
 11
18.9588363702
 21
-34.3496735985
  0
LINE
  5
367
100
AcDbEntity
  8
0
100
AcDbLine
 62
7
  6
CONTINUOUS
 10
12.6147665734
 20
-34.5963315914
 11
12.5922761493
 21
-34.5987278464
  0
LINE
  5
368
100
AcDbEntity
  8
0
100
AcDbLine
 62
7
  6
CONTINUOUS
 10
18.9588363702
 20
-34.3496735985
 11
18.94237326
 21
-34.3513934701
  0
LINE
  5
369
100
AcDbEntity
  8
0
100
AcDbLine
 62
7
  6
CONTINUOUS
 10
12.6387585846
 20
-34.5939635361
 11
12.6147665734
 21
-34.5963315914
  0
LINE
  5
36A
100
AcDbEntity
  8
0
100
AcDbLine
 62
7
  6
CONTINUOUS
 10
18.94237326
 20
-34.3513934701
 11
18.9241111565
 21
-34.3531752571
  0
LINE
  5
36B
100
AcDbEntity
  8
0
100
AcDbLine
 62
7
  6
CONTINUOUS
 10
12.6644538271
 20
-34.5916022478
 11
12.6387585846
 21
-34.5939635361
  0
LINE
  5
36C
100
AcDbEntity
  8
0
100
AcDbLine
 62
7
  6
CONTINUOUS
 10
18.9241111565
 20
-34.3531752571
 11
18.9040599124
 21
-34.3550098598
  0
LINE
  5
36D
100
AcDbEntity
  8
0
100
AcDbLine
 62
7
  6
CONTINUOUS
 10
18.9040599124
 20
-34.3550098598
 11
18.8822048776
 21
-34.3568918818
  0
LINE
  5
36E
100
AcDbEntity
  8
0
100
AcDbLine
 62
7
  6
CONTINUOUS
 10
12.6919719392
 20
-34.5892376736
 11
12.6644538271
 21
-34.5916022478
  0
LINE
  5
36F
100
AcDbEntity
  8
0
100
AcDbLine
 62
7
  6
CONTINUOUS
 10
18.8822048776
 20
-34.3568918818
 11
18.8585204979
 21
-34.35881768
  0
LINE
  5
370
100
AcDbEntity
  8
0
100
AcDbLine
 62
7
  6
CONTINUOUS
 10
12.7214186006
 20
-34.5868626578
 11
12.6919719392
 21
-34.5892376736
  0
LINE
  5
371
100
AcDbEntity
  8
0
100
AcDbLine
 62
7
  6
CONTINUOUS
 10
18.8585204979
 20
-34.35881768
 11
18.819499143
 21
-34.3617825213
  0
LINE
  5
372
100
AcDbEntity
  8
0
100
AcDbLine
 62
7
  6
CONTINUOUS
 10
12.7694704851
 20
-34.5832652505
 11
12.7214186006
 21
-34.5868626578
  0
LINE
  5
373
100
AcDbEntity
  8
0
100
AcDbLine
 62
7
  6
CONTINUOUS
 10
18.819499143
 20
-34.3617825213
 11
18.7761627316
 21
-34.3648343583
  0
LINE
  5
374
100
AcDbEntity
  8
0
100
AcDbLine
 62
7
  6
CONTINUOUS
 10
12.822509047
 20
-34.5796115818
 11
12.7694704851
 21
-34.5832652505
  0
LINE
  5
375
100
AcDbEntity
  8
0
100
AcDbLine
 62
7
  6
CONTINUOUS
 10
18.7761627316
 20
-34.3648343583
 11
18.7283521516
 21
-34.3679707058
  0
LINE
  5
376
100
AcDbEntity
  8
0
100
AcDbLine
 62
7
  6
CONTINUOUS
 10
12.8809057367
 20
-34.5758884474
 11
12.822509047
 21
-34.5796115818
  0
LINE
  5
377
100
AcDbEntity
  8
0
100
AcDbLine
 62
7
  6
CONTINUOUS
 10
18.7283521516
 20
-34.3679707058
 11
18.6573518767
 21
-34.3722818573
  0
LINE
  5
378
100
AcDbEntity
  8
0
100
AcDbLine
 62
7
  6
CONTINUOUS
 10
12.9676934691
 20
-34.5708008666
 11
12.8809057367
 21
-34.5758884474
  0
LINE
  5
379
100
AcDbEntity
  8
0
100
AcDbLine
 62
7
  6
CONTINUOUS
 10
18.6573518767
 20
-34.3722818573
 11
18.5565456548
 21
-34.3778677127
  0
LINE
  5
37A
100
AcDbEntity
  8
0
100
AcDbLine
 62
7
  6
CONTINUOUS
 10
13.0652884842
 20
-34.5655630977
 11
12.9676934691
 21
-34.5708008666
  0
LINE
  5
37B
100
AcDbEntity
  8
0
100
AcDbLine
 62
7
  6
CONTINUOUS
 10
18.5565456548
 20
-34.3778677127
 11
18.4173438932
 21
-34.3848396422
  0
LINE
  5
37C
100
AcDbEntity
  8
0
100
AcDbLine
 62
7
  6
CONTINUOUS
 10
13.2033849802
 20
-34.5587944809
 11
13.0652884842
 21
-34.5655630977
  0
LINE
  5
37D
100
AcDbEntity
  8
0
100
AcDbLine
 62
7
  6
CONTINUOUS
 10
18.4173438932
 20
-34.3848396422
 11
18.2291267779
 21
-34.3933193253
  0
LINE
  5
37E
100
AcDbEntity
  8
0
100
AcDbLine
 62
7
  6
CONTINUOUS
 10
13.394057507
 20
-34.5503347389
 11
13.2033849802
 21
-34.5587944809
  0
LINE
  5
37F
100
AcDbEntity
  8
0
100
AcDbLine
 62
7
  6
CONTINUOUS
 10
18.2291267779
 20
-34.3933193253
 11
17.9796225158
 21
-34.4034310619
  0
LINE
  5
380
100
AcDbEntity
  8
0
100
AcDbLine
 62
7
  6
CONTINUOUS
 10
13.6951706934
 20
-34.5383770823
 11
13.394057507
 21
-34.5503347389
  0
LINE
  5
381
100
AcDbEntity
  8
0
100
AcDbLine
 62
7
  6
CONTINUOUS
 10
17.9796225158
 20
-34.4034310619
 11
17.6942135973
 21
-34.4139454497
  0
LINE
  5
382
100
AcDbEntity
  8
0
100
AcDbLine
 62
7
  6
CONTINUOUS
 10
14.2119889891
 20
-34.5202692423
 11
13.6951706934
 21
-34.5383770823
  0
LINE
  5
383
100
AcDbEntity
  8
0
100
AcDbLine
 62
7
  6
CONTINUOUS
 10
17.6942135973
 20
-34.4139454497
 11
17.3328388095
 21
-34.4261985997
  0
LINE
  5
384
100
AcDbEntity
  8
0
100
AcDbLine
 62
7
  6
CONTINUOUS
 10
17.3328388095
 20
-34.4261985997
 11
16.8403116361
 21
-34.4416998506
  0
LINE
  5
385
100
AcDbEntity
  8
0
100
AcDbLine
 62
7
  6
CONTINUOUS
 10
16.8403116361
 20
-34.4416998506
 11
16.6974104421
 21
-34.4460255732
  0
LINE
  5
386
100
AcDbEntity
  8
0
100
AcDbLine
 62
7
  6
CONTINUOUS
 10
16.6974104421
 20
-34.4460255732
 11
16.5508310484
 21
-34.4504059241
  0
LINE
  5
387
100
AcDbEntity
  8
0
100
AcDbLine
 62
7
  6
CONTINUOUS
 10
15.1251786037
 20
-34.4919907356
 11
14.2119889891
 21
-34.5202692423
  0
LINE
  5
388
100
AcDbEntity
  8
0
100
AcDbLine
 62
7
  6
CONTINUOUS
 10
16.5508310484
 20
-34.4504059241
 11
16.4510388932
 21
-34.4533608964
  0
LINE
  5
389
100
AcDbEntity
  8
0
100
AcDbLine
 62
7
  6
CONTINUOUS
 10
16.4510388932
 20
-34.4533608964
 11
15.1251786037
 21
-34.4919907356
  0
LINE
  5
38A
100
AcDbEntity
  8
RACCORDO
100
AcDbLine
 62
7
  6
CONTINUOUS
 10
34.1714664102
 20
-35.9336360233
 11
34.609898014
 21
-35.9336360233
  0
LINE
  5
38B
100
AcDbEntity
  8
RACCORDO
100
AcDbLine
 62
250
  6
CONTINUOUS
 10
7.2950432996
 20
-35.864005486
 11
12.309898014
 21
-35.864005486
  0
LINE
  5
38C
100
AcDbEntity
  8
RACCORDO
100
AcDbLine
 62
250
  6
CONTINUOUS
 10
19.309898014
 20
-35.864005486
 11
24.3247527284
 21
-35.864005486
  0
LINE
  5
38D
100
AcDbEntity
  8
RACCORDO
100
AcDbLine
 62
250
  6
CONTINUOUS
 10
12.2592950371
 20
-35.623409333
 11
19.3605009908
 21
-35.623409333
  0
LINE
  5
38E
100
AcDbEntity
  8
RACCORDO
100
AcDbLine
 62
250
  6
CONTINUOUS
 10
23.8248098417
 20
-35.3640816384
 11
19.809898014
 21
-35.3640816384
  0
LINE
  5
38F
100
AcDbEntity
  8
RACCORDO
100
AcDbLine
 62
250
  6
CONTINUOUS
 10
11.809898014
 20
-35.3640816384
 11
7.7949861863
 21
-35.3640816384
  0
LINE
  5
390
100
AcDbEntity
  8
RACCORDO
100
AcDbLine
 62
250
  6
CONTINUOUS
 10
11.809898014
 20
-35.3347946163
 11
19.809898014
 21
-35.3347946163
  0
LINE
  5
391
100
AcDbEntity
  8
DRAFT
100
AcDbLine
 62
7
  6
CONTINUOUS
 10
7.809898014
 20
-35.3220371662
 11
23.809898014
 21
-35.3220371662
  0
LINE
  5
392
100
AcDbEntity
  8
RACCORDO
100
AcDbLine
 62
7
  6
CONTINUOUS
 10
23.7767359164
 20
-35.2220371662
 11
23.609898014
 21
-35.2220371662
  0
LINE
  5
393
100
AcDbEntity
  8
RACCORDO
100
AcDbLine
 62
7
  6
CONTINUOUS
 10
8.009898014
 20
-35.2220371662
 11
7.8430601116
 21
-35.2220371662
  0
LINE
  5
394
100
AcDbEntity
  8
DRAFT
100
AcDbLine
 62
7
  6
CONTINUOUS
 10
11.559898014
 20
-34.9220371662
 11
12.2098995199
 21
-34.9220371662
  0
LINE
  5
395
100
AcDbEntity
  8
DRAFT
100
AcDbLine
 62
7
  6
CONTINUOUS
 10
13.559898014
 20
-33.1220371662
 11
16.3105136188
 21
-33.1220371662
  0
LINE
  5
396
100
AcDbEntity
  8
0
100
AcDbLine
 62
7
  6
CONTINUOUS
 10
18.6571052528
 20
-34.271081929
 11
18.559898014
 21
-34.2658415476
  0
LINE
  5
397
100
AcDbEntity
  8
0
100
AcDbLine
 62
7
  6
CONTINUOUS
 10
18.7441497816
 20
-34.2762127223
 11
18.6571052528
 21
-34.271081929
  0
LINE
  5
398
100
AcDbEntity
  8
0
100
AcDbLine
 62
7
  6
CONTINUOUS
 10
18.802749691
 20
-34.2799747903
 11
18.7441497816
 21
-34.2762127223
  0
LINE
  5
399
100
AcDbEntity
  8
0
100
AcDbLine
 62
7
  6
CONTINUOUS
 10
18.8559659471
 20
-34.2836719429
 11
18.802749691
 21
-34.2799747903
  0
LWPOLYLINE
  5
39A
100
AcDbEntity
  8
0
100
AcDbPolyline
 62
7
  6
CONTINUOUS
 90
3
 70
0
 10
18.9041521221
 20
-34.2873170991
 10
18.8886257454
 20
-34.2861067937
 10
18.8559659471
 20
-34.2836719429
  0
LINE
  5
39B
100
AcDbEntity
  8
DRAFT
100
AcDbLine
 62
7
  6
CONTINUOUS
 10
10.7169935983
 20
-41.8626944652
 11
10.6052636341
 21
-41.8068337376
  0
LWPOLYLINE
  5
39C
100
AcDbEntity
  8
0
100
AcDbPolyline
 62
7
  6
CONTINUOUS
 90
31
 70
0
 10
16.6226029387
 20
-28.6459799301
 10
16.7975058156
 20
-28.6024101754
 10
16.9696766266
 20
-28.5588423224
 10
17.1386378319
 20
-28.515269783
 10
17.3030482354
 20
-28.4719192975
 10
17.4625131217
 20
-28.4287870509
 10
17.6167040152
 20
-28.3858585283
 10
17.7645771455
 20
-28.3433355805
 10
17.9058367805
 20
-28.301233364
 10
18.0404311173
 20
-28.2595055206
 10
18.1678997846
 20
-28.2182464075
 10
18.2881558553
 20
-28.1774535019
 10
18.4012920947
 20
-28.1370737368
 10
18.5073003428
 20
-28.0970974376
 10
18.6062327688
 20
-28.0575048953
 10
18.6983156923
 20
-28.0182128388
 10
18.7839260517
 20
-27.9790621586
 10
18.8631851413
 20
-27.9399958188
 10
18.9363741149
 20
-27.9008731549
 10
19.0041368247
 20
-27.8613074153
 10
19.0665586077
 20
-27.821161655
 10
19.1238302786
 20
-27.7801997581
 10
19.1766373984
 20
-27.7376920441
 10
19.2249401971
 20
-27.693251115
 10
19.2684873292
 20
-27.6465672685
 10
19.3074299625
 20
-27.5967778218
 10
19.3419290046
 20
-27.5423981231
 10
19.3704561294
 20
-27.4841357513
 10
19.3912505681
 20
-27.4249214489
 10
19.4041789679
 20
-27.366235285
 10
19.4096776126
 20
-27.3075930402
  0
LWPOLYLINE
  5
39D
100
AcDbEntity
  8
0
100
AcDbPolyline
 62
7
  6
CONTINUOUS
 90
31
 70
0
 10
15.0512009011
 20
-28.4276137312
 10
14.8798964743
 20
-28.4701021072
 10
14.7101902936
 20
-28.5128015646
 10
14.5429918179
 20
-28.555610707
 10
14.3787310818
 20
-28.5985465337
 10
14.2179059455
 20
-28.6416078213
 10
14.061431176
 20
-28.6846747403
 10
13.9096668072
 20
-28.7277687364
 10
13.7630111896
 20
-28.7708972196
 10
13.6222701998
 20
-28.8139351086
 10
13.4876028166
 20
-28.8569378317
 10
13.3593325807
 20
-28.8999045925
 10
13.2382433612
 20
-28.9426552227
 10
13.1243952621
 20
-28.9852296013
 10
13.0177680002
 20
-29.0276924317
 10
12.918679046
 20
-29.069956498
 10
12.827034382
 20
-29.1120780201
 10
12.7425425745
 20
-29.1542056852
 10
12.6649403903
 20
-29.1964943596
 10
12.5940605277
 20
-29.2390620792
 10
12.5295266824
 20
-29.282179118
 10
12.470701155
 20
-29.3264063142
 10
12.4176052824
 20
-29.3719582403
 10
12.3700911135
 20
-29.4192843087
 10
12.3275441832
 20
-29.4696054793
 10
12.2898464041
 20
-29.5241839029
 10
12.2582630412
 20
-29.5826583696
 10
12.2342048138
 20
-29.6434608178
 10
12.2182208152
 20
-29.7056512852
 10
12.210536503
 20
-29.7693011669
 10
12.209966109
 20
-29.7921723658
  0
LINE
  5
39E
100
AcDbEntity
  8
0
100
AcDbLine
 62
7
  6
CONTINUOUS
 10
16.589216131
 20
-28.0532502478
 11
16.2553047091
 21
-28.135575226
  0
LINE
  5
39F
100
AcDbEntity
  8
0
100
AcDbLine
 62
7
  6
CONTINUOUS
 10
15.0510178665
 20
-29.0285857759
 11
15.3893957255
 21
-28.9452810825
  0
LINE
  5
3A0
100
AcDbEntity
  8
0
100
AcDbLine
 62
7
  6
CONTINUOUS
 10
16.2675890089
 20
-28.7329008167
 11
16.6226029387
 21
-28.6459799301
  0
LINE
  5
3A1
100
AcDbEntity
  8
0
100
AcDbLine
 62
7
  6
CONTINUOUS
 10
15.3962476746
 20
-28.3433465815
 11
15.0512009011
 21
-28.4276137312
  0
LINE
  5
3A2
100
AcDbEntity
  8
0
100
AcDbLine
 62
7
  6
CONTINUOUS
 10
15.3893957255
 20
-28.9452810825
 11
16.2675890089
 21
-28.7329008167
  0
LINE
  5
3A3
100
AcDbEntity
  8
0
100
AcDbLine
 62
7
  6
CONTINUOUS
 10
16.2553047091
 20
-28.135575226
 11
15.3962476746
 21
-28.3433465815
  0
LINE
  5
3A4
100
AcDbEntity
  8
0
100
AcDbLine
 62
7
  6
CONTINUOUS
 10
11.309898014
 20
-30.9141245542
 11
11.0738816362
 21
-30.9141245542
  0
LINE
  5
3A5
100
AcDbEntity
  8
0
100
AcDbLine
 62
7
  6
CONTINUOUS
 10
9.3358188819
 20
-29.0805637298
 11
9.5718352746
 21
-29.0805637298
  0
LINE
  5
3A6
100
AcDbEntity
  8
0
100
AcDbLine
 62
7
  6
CONTINUOUS
 10
9.5268148135
 20
-27.7858843265
 11
9.3358188819
 21
-27.7858843265
  0
LINE
  5
3A7
100
AcDbEntity
  8
0
100
AcDbLine
 62
7
  6
CONTINUOUS
 10
10.4626947593
 20
-27.5703319965
 11
10.7096251797
 21
-27.5703319965
  0
LINE
  5
3A8
100
AcDbEntity
  8
DRAFT
100
AcDbLine
 62
7
  6
CONTINUOUS
 10
18.059898014
 20
-27.1220371662
 11
13.559898014
 21
-27.1220371662
  0
LINE
  5
3A9
100
AcDbEntity
  8
0
100
AcDbLine
 62
7
  6
CONTINUOUS
 10
18.933659273
 20
-34.289726437
 11
18.9041521221
 21
-34.2873170991
  0
LINE
  5
3AA
100
AcDbEntity
  8
0
100
AcDbLine
 62
7
  6
CONTINUOUS
 10
18.9612021917
 20
-34.2921266293
 11
18.933659273
 21
-34.289726437
  0
LINE
  5
3AB
100
AcDbEntity
  8
0
100
AcDbLine
 62
7
  6
CONTINUOUS
 10
18.986910475
 20
-34.2945273497
 11
18.9612021917
 21
-34.2921266293
  0
LINE
  5
3AC
100
AcDbEntity
  8
RACCORDO
100
AcDbLine
 62
7
  6
CONTINUOUS
 10
-58.5602669607
 20
18.8741180074
 11
-58.490101986
 21
18.8022990371
  0
LINE
  5
3AD
100
AcDbEntity
  8
ASSI
100
AcDbLine
 62
7
  6
CONTINUOUS
 10
-23.1212905272
 20
-8.5191791099
 11
-23.1212905272
 21
-10.2220371662
  0
LINE
  5
3AE
100
AcDbEntity
  8
ASSI
100
AcDbLine
 62
7
  6
CONTINUOUS
 10
-22.8942427863
 20
-10.2220371662
 11
-22.8942427863
 21
-8.5191791099
  0
LINE
  5
3AF
100
AcDbEntity
  8
ASSI
100
AcDbLine
 62
7
  6
CONTINUOUS
 10
-22.5123897677
 20
-8.5191791099
 11
-22.5123897677
 21
-10.2220371662
  0
LINE
  5
3B0
100
AcDbEntity
  8
ASSI
100
AcDbLine
 62
7
  6
CONTINUOUS
 10
-22.2853420268
 20
-10.2220371662
 11
-22.2853420268
 21
-8.7771879063
  0
LINE
  5
3B1
100
AcDbEntity
  8
0
100
AcDbLine
 62
7
  6
CONTINUOUS
 10
10.7096251797
 20
-26.8158978878
 11
10.4626947593
 21
-26.8158978878
  0
LINE
  5
3B2
100
AcDbEntity
  8
RACCORDO
100
AcDbLine
 62
7
  6
CONTINUOUS
 10
23.7767359164
 20
-26.2220371662
 11
23.609898014
 21
-26.2220371662
  0
LINE
  5
3B3
100
AcDbEntity
  8
RACCORDO
100
AcDbLine
 62
7
  6
CONTINUOUS
 10
12.0869959202
 20
-26.2220371662
 11
11.559898014
 21
-26.2220371662
  0
LINE
  5
3B4
100
AcDbEntity
  8
RACCORDO
100
AcDbLine
 62
7
  6
CONTINUOUS
 10
8.009898014
 20
-26.2220371662
 11
7.8430601116
 21
-26.2220371662
  0
LINE
  5
3B5
100
AcDbEntity
  8
DRAFT
100
AcDbLine
 62
7
  6
CONTINUOUS
 10
23.809898014
 20
-26.1220371662
 11
11.309898014
 21
-26.1220371662
  0
LINE
  5
3B6
100
AcDbEntity
  8
DRAFT
100
AcDbLine
 62
7
  6
CONTINUOUS
 10
11.0738816362
 20
-26.1220371662
 11
10.8676251116
 21
-26.1220371662
  0
LINE
  5
3B7
100
AcDbEntity
  8
DRAFT
100
AcDbLine
 62
7
  6
CONTINUOUS
 10
10.5617019208
 20
-26.1220371662
 11
9.5351605015
 21
-26.1220371662
  0
LINE
  5
3B8
100
AcDbEntity
  8
DRAFT
100
AcDbLine
 62
7
  6
CONTINUOUS
 10
9.3183205173
 20
-26.1220371662
 11
7.809898014
 21
-26.1220371662
  0
LINE
  5
3B9
100
AcDbEntity
  8
RACCORDO
100
AcDbLine
 62
250
  6
CONTINUOUS
 10
7.7949861863
 20
-26.0799926939
 11
23.8248098417
 21
-26.0799926939
  0
LINE
  5
3BA
100
AcDbEntity
  8
RACCORDO
100
AcDbLine
 62
250
  6
CONTINUOUS
 10
7.2950432996
 20
-25.5800688463
 11
24.3247527284
 21
-25.5800688463
  0
LINE
  5
3BB
100
AcDbEntity
  8
IMPORT_IGES
100
AcDbLine
 62
7
  6
CONTINUOUS
 10
38.579898014
 20
-24.3920371662
 11
37.939898014
 21
-24.3920371662
  0
LINE
  5
3BC
100
AcDbEntity
  8
IMPORT_IGES
100
AcDbLine
 62
7
  6
CONTINUOUS
 10
37.939898014
 20
-23.7520371662
 11
38.579898014
 21
-23.7520371662
  0
LINE
  5
3BD
100
AcDbEntity
  8
0
100
AcDbLine
 62
7
  6
CONTINUOUS
 10
54.609898014
 20
-22.2220371662
 11
52.109898014
 21
-22.2220371662
  0
LINE
  5
3BE
100
AcDbEntity
  8
0
100
AcDbLine
 62
7
  6
CONTINUOUS
 10
49.609898014
 20
-22.2220371662
 11
47.109898014
 21
-22.2220371662
  0
LINE
  5
3BF
100
AcDbEntity
  8
0
100
AcDbLine
 62
7
  6
CONTINUOUS
 10
44.609898014
 20
-22.2220371662
 11
42.109898014
 21
-22.2220371662
  0
LINE
  5
3C0
100
AcDbEntity
  8
0
100
AcDbLine
 62
7
  6
CONTINUOUS
 10
39.609898014
 20
-22.2220371662
 11
37.109898014
 21
-22.2220371662
  0
LINE
  5
3C1
100
AcDbEntity
  8
0
100
AcDbLine
 62
7
  6
CONTINUOUS
 10
34.609898014
 20
-22.2220371662
 11
32.109898014
 21
-22.2220371662
  0
LINE
  5
3C2
100
AcDbEntity
  8
RACCORDO
100
AcDbLine
 62
250
  6
CONTINUOUS
 10
23.3248669549
 20
-22.064005486
 11
8.2949290731
 21
-22.064005486
  0
LINE
  5
3C3
100
AcDbEntity
  8
RACCORDO
100
AcDbLine
 62
250
  6
CONTINUOUS
 10
23.3248669549
 20
-21.5640816384
 11
8.2949290731
 21
-21.5640816384
  0
LWPOLYLINE
  5
3C4
100
AcDbEntity
  8
0
100
AcDbPolyline
 62
7
  6
CONTINUOUS
 90
25
 70
0
 10
16.0596315355
 20
-31.4037933297
 10
16.3980215743
 20
-31.4863243449
 10
16.5642959608
 20
-31.5274699656
 10
16.7282277789
 20
-31.5685848688
 10
16.8891992457
 20
-31.6096237927
 10
17.0464392314
 20
-31.6504955938
 10
17.1997408052
 20
-31.6912493372
 10
17.3484798735
 20
-31.7318196955
 10
17.4913546438
 20
-31.7719360634
 10
17.6280196695
 20
-31.8115674488
 10
17.7582893113
 20
-31.8507179726
 10
17.8812703035
 20
-31.889157269
 10
17.9966304327
 20
-31.9267910585
 10
18.1045295923
 20
-31.9636675599
 10
18.2048839499
 20
-31.9997442742
 10
18.297689196
 20
-32.0349903964
 10
18.3829076399
 20
-32.0693452252
 10
18.4603677064
 20
-32.1026653233
 10
18.5302803344
 20
-32.1349429609
 10
18.5925166582
 20
-32.1659907777
 10
18.6464829875
 20
-32.1952926915
 10
18.6924604555
 20
-32.2226802727
 10
18.730743469
 20
-32.2479379228
 10
18.7610876662
 20
-32.2703483964
 10
18.7841704066
 20
-32.289657316
  0
LWPOLYLINE
  5
3C5
100
AcDbEntity
  8
0
100
AcDbPolyline
 62
7
  6
CONTINUOUS
 90
24
 70
0
 10
15.5534357494
 20
-30.6815090827
 10
15.2105692741
 20
-30.5978502296
 10
15.0421725312
 20
-30.556142005
 10
14.8764803991
 20
-30.5145312622
 10
14.7142453494
 20
-30.4730971478
 10
14.5558910248
 20
-30.4318420702
 10
14.4018551617
 20
-30.390777049
 10
14.2528744356
 20
-30.3500021454
 10
14.1092924547
 20
-30.3095227164
 10
13.9714746375
 20
-30.2693581611
 10
13.8401286561
 20
-30.2296433552
 10
13.7154862111
 20
-30.1903905679
 10
13.5978109663
 20
-30.1516338792
 10
13.4877728515
 20
-30.1135670831
 10
13.3854648257
 20
-30.0762199439
 10
13.2910173456
 20
-30.0396536009
 10
13.2050501008
 20
-30.0041623252
 10
13.1274901923
 20
-29.9698166546
 10
13.0583044916
 20
-29.9367339283
 10
12.9980347816
 20
-29.9053858082
 10
12.9464924123
 20
-29.875989683
 10
12.9032926382
 20
-29.8487126199
 10
12.8685455709
 20
-29.8241476584
 10
12.8415190816
 20
-29.8024570805
  0
LINE
  5
3C6
100
AcDbEntity
  8
RACCORDO
100
AcDbLine
 62
250
  6
CONTINUOUS
 10
10.2256449668
 20
-44.1119179407
 11
10.0685493824
 21
-43.9548223563
  0
LINE
  5
3C7
100
AcDbEntity
  8
RACCORDO
100
AcDbLine
 62
250
  6
CONTINUOUS
 10
10.7169935983
 20
-43.6034188771
 11
10.559898014
 21
-43.4463232927
  0
LINE
  5
3C8
100
AcDbEntity
  8
RACCORDO
100
AcDbLine
 62
7
  6
CONTINUOUS
 10
10.6017901698
 20
-41.8068337376
 11
10.5633281004
 21
-41.7683716682
  0
LINE
  5
3C9
100
AcDbEntity
  8
ASSI
100
AcDbLine
 62
7
  6
CONTINUOUS
 10
-19.12328291
 20
-10.2220371662
 11
-19.8053936802
 21
-8.5191791099
  0
LINE
  5
3CA
100
AcDbEntity
  8
ASSI
100
AcDbLine
 62
7
  6
CONTINUOUS
 10
-24.890101986
 20
-8.5191791099
 11
-24.2354047537
 21
-10.2220371662
  0
LINE
  5
3CB
100
AcDbEntity
  8
ASSI
100
AcDbLine
 62
7
  6
CONTINUOUS
 10
-19.5546413345
 20
-9.7060195734
 11
-19.3646824516
 21
-10.2220371662
  0
LINE
  5
3CC
100
AcDbEntity
  8
ASSI
100
AcDbLine
 62
7
  6
CONTINUOUS
 10
-24.2065398941
 20
-9.7531061098
 11
-24.6487026018
 21
-8.5191791099
  0
LINE
  5
3CD
100
AcDbEntity
  8
ASSI
100
AcDbLine
 62
7
  6
CONTINUOUS
 10
-22.2853420268
 20
-8.7771879063
 11
-21.7943189452
 21
-10.2220371662
  0
LINE
  5
3CE
100
AcDbEntity
  8
ASSI
100
AcDbLine
 62
7
  6
CONTINUOUS
 10
-21.7630353737
 20
-9.7223063122
 11
-22.1663353859
 21
-8.5191791099
  0
LINE
  5
3CF
100
AcDbEntity
  8
ASSI
100
AcDbLine
 62
7
  6
CONTINUOUS
 10
-21.0985015634
 20
-8.7978286101
 11
-21.0985015634
 21
-10.2220371662
  0
LINE
  5
3D0
100
AcDbEntity
  8
ASSI
100
AcDbLine
 62
7
  6
CONTINUOUS
 10
-20.8714538226
 20
-10.2220371662
 11
-20.8714538226
 21
-8.5191791099
  0
LINE
  5
3D1
100
AcDbEntity
  8
ASSI
100
AcDbLine
 62
7
  6
CONTINUOUS
 10
-18.9209073218
 20
-8.5191791099
 11
-18.9209073218
 21
-10.2220371662
  0
LINE
  5
3D2
100
AcDbEntity
  8
ASSI
100
AcDbLine
 62
7
  6
CONTINUOUS
 10
-18.693859581
 20
-10.2220371662
 11
-18.693859581
 21
-9.4686514807
  0
LINE
  5
3D3
100
AcDbEntity
  8
ASSI
100
AcDbLine
 62
7
  6
CONTINUOUS
 10
-18.693859581
 20
-9.2725647954
 11
-18.693859581
 21
-8.7152657952
  0
LINE
  5
3D4
100
AcDbEntity
  8
ASSI
100
AcDbLine
 62
7
  6
CONTINUOUS
 10
-20.4586397484
 20
-10.2220371662
 11
-20.2791623179
 21
-9.7060195734
  0
LINE
  5
3D5
100
AcDbEntity
  8
ASSI
100
AcDbLine
 62
7
  6
CONTINUOUS
 10
-21.6011349032
 20
-10.2220371662
 11
-21.0985015634
 21
-8.7978286101
  0
LINE
  5
3D6
100
AcDbEntity
  8
ASSI
100
AcDbLine
 62
7
  6
CONTINUOUS
 10
-21.1668738354
 20
-8.5191791099
 11
-21.588073166
 21
-9.7013430926
  0
LINE
  5
3D7
100
AcDbEntity
  8
ASSI
100
AcDbLine
 62
7
  6
CONTINUOUS
 10
-23.5547453051
 20
-8.5191791099
 11
-24.023676204
 21
-9.7531061098
  0
LINE
  5
3D8
100
AcDbEntity
  8
ASSI
100
AcDbLine
 62
7
  6
CONTINUOUS
 10
-23.9911025688
 20
-10.2220371662
 11
-23.3118944419
 21
-8.5191791099
  0
LINE
  5
3D9
100
AcDbEntity
  8
RACCORDO
100
AcDbLine
 62
250
  6
CONTINUOUS
 10
-69.890101986
 20
-43.7221133186
 11
-69.6228871762
 21
-43.4548985087
  0
LINE
  5
3DA
100
AcDbEntity
  8
RACCORDO
100
AcDbLine
 62
250
  6
CONTINUOUS
 10
-69.3901781384
 20
-44.2220371662
 11
-69.1229633286
 21
-43.9548223563
  0
LINE
  5
3DB
100
AcDbEntity
  8
RACCORDO
100
AcDbLine
 62
7
  6
CONTINUOUS
 10
8.3159497082
 20
-21.5220371662
 11
23.3038463198
 21
-21.5220371662
  0
LINE
  5
3DC
100
AcDbEntity
  8
RACCORDO
100
AcDbLine
 62
250
  6
CONTINUOUS
 10
24.3247527284
 20
-21.0640054802
 11
23.8247717669
 21
-21.0640054802
  0
LINE
  5
3DD
100
AcDbEntity
  8
RACCORDO
100
AcDbLine
 62
250
  6
CONTINUOUS
 10
7.7950242611
 20
-21.0640054802
 11
7.2950432996
 21
-21.0640054802
  0
LINE
  5
3DE
100
AcDbEntity
  8
DRAFT
100
AcDbLine
 62
7
  6
CONTINUOUS
 10
8.009898014
 20
-17.9220371662
 11
23.609898014
 21
-17.9220371662
  0
LINE
  5
3DF
100
AcDbEntity
  8
RACCORDO
100
AcDbLine
 62
250
  6
CONTINUOUS
 10
-69.6228871762
 20
-17.8181161873
 11
7.7950242611
 21
-17.8181161873
  0
LINE
  5
3E0
100
AcDbEntity
  8
RACCORDO
100
AcDbLine
 62
250
  6
CONTINUOUS
 10
23.8247717669
 20
-17.8181161873
 11
69.8426832041
 21
-17.8181161873
  0
LINE
  5
3E1
100
AcDbEntity
  8
RACCORDO
100
AcDbLine
 62
250
  6
CONTINUOUS
 10
-69.1229633286
 20
-17.3181923397
 11
7.2950432996
 21
-17.3181923397
  0
LINE
  5
3E2
100
AcDbEntity
  8
RACCORDO
100
AcDbLine
 62
250
  6
CONTINUOUS
 10
69.3427593566
 20
-17.3181923397
 11
24.3247527284
 21
-17.3181923397
  0
LINE
  5
3E3
100
AcDbEntity
  8
RACCORDO
100
AcDbLine
 62
7
  6
CONTINUOUS
 10
69.4389145301
 20
-17.2220371662
 11
24.2766788032
 21
-17.2220371662
  0
LINE
  5
3E4
100
AcDbEntity
  8
RACCORDO
100
AcDbLine
 62
7
  6
CONTINUOUS
 10
7.3431172248
 20
-17.2220371662
 11
-69.2191185021
 21
-17.2220371662
  0
LINE
  5
3E5
100
AcDbEntity
  8
DRAFT
100
AcDbLine
 62
7
  6
CONTINUOUS
 10
23.5714968711
 20
-16.3220371662
 11
8.0482991568
 21
-16.3220371662
  0
LWPOLYLINE
  5
3E6
100
AcDbEntity
  8
0
100
AcDbPolyline
 62
7
  6
CONTINUOUS
 90
10
 70
0
 10
18.3247160482
 20
-27.0458287235
 10
18.390570827
 20
-27.0725434917
 10
18.4665516843
 20
-27.1054266586
 10
18.5351810105
 20
-27.1372991297
 10
18.5962975749
 20
-27.1679621045
 10
18.649312384
 20
-27.1969042385
 10
18.6944987833
 20
-27.2239595769
 10
18.7321396427
 20
-27.2489137579
 10
18.7619850273
 20
-27.2710543551
 10
18.7846986701
 20
-27.2901312077
  0
LINE
  5
3E7
100
AcDbEntity
  8
DRAFT
100
AcDbLine
 62
7
  6
CONTINUOUS
 10
14.5686255465
 20
-41.8155612701
 11
14.559898014
 21
-41.8068337376
  0
LINE
  5
3E8
100
AcDbEntity
  8
RACCORDO
100
AcDbLine
 62
250
  6
CONTINUOUS
 10
-69.6228871762
 20
45.0108241764
 11
-69.890101986
 21
45.2780389863
  0
LINE
  5
3E9
100
AcDbEntity
  8
RACCORDO
100
AcDbLine
 62
250
  6
CONTINUOUS
 10
-69.1229633286
 20
45.510748024
 11
-69.3901781384
 21
45.7779628338
  0
LINE
  5
3EA
100
AcDbEntity
  8
ASSI
100
AcDbLine
 62
7
  6
CONTINUOUS
 10
-17.934668609
 20
-9.8680813019
 11
-17.7114910592
 21
-10.2220371662
  0
LINE
  5
3EB
100
AcDbEntity
  8
ASSI
100
AcDbLine
 62
7
  6
CONTINUOUS
 10
-14.968212561
 20
-8.5191791099
 11
-14.968212561
 21
-10.2220371662
  0
LINE
  5
3EC
100
AcDbEntity
  8
ASSI
100
AcDbLine
 62
7
  6
CONTINUOUS
 10
-14.7411648202
 20
-10.2220371662
 11
-14.7411648202
 21
-9.52025324
  0
LINE
  5
3ED
100
AcDbEntity
  8
ASSI
100
AcDbLine
 62
7
  6
CONTINUOUS
 10
-14.7411648202
 20
-9.3241665547
 11
-14.7411648202
 21
-8.7152657952
  0
LINE
  5
3EE
100
AcDbEntity
  8
ASSI
100
AcDbLine
 62
7
  6
CONTINUOUS
 10
-20.2144988214
 20
-9.52025324
 11
-20.0305063256
 21
-9.0231025133
  0
LINE
  5
3EF
100
AcDbEntity
  8
ASSI
100
AcDbLine
 62
7
  6
CONTINUOUS
 10
-20.0509857713
 20
-8.5191791099
 11
-20.698265295
 21
-10.2220371662
  0
LINE
  5
3F0
100
AcDbEntity
  8
ASSI
100
AcDbLine
 62
7
  6
CONTINUOUS
 10
29.6879499193
 20
-9.0390667363
 11
29.9149976601
 21
-8.9868199452
  0
LINE
  5
3F1
100
AcDbEntity
  8
ASSI
100
AcDbLine
 62
7
  6
CONTINUOUS
 10
15.8586784324
 20
-9.7473009808
 11
15.6522713953
 21
-9.7782620364
  0
LINE
  5
3F2
100
AcDbEntity
  8
ASSI
100
AcDbLine
 62
7
  6
CONTINUOUS
 10
10.5746582822
 20
-9.7473009808
 11
10.3682512451
 21
-9.7782620364
  0
LINE
  5
3F3
100
AcDbEntity
  8
ASSI
100
AcDbLine
 62
7
  6
CONTINUOUS
 10
15.2084962655
 20
-8.9526338879
 11
15.4149033026
 21
-8.9319931842
  0
LINE
  5
3F4
100
AcDbEntity
  8
ASSI
100
AcDbLine
 62
7
  6
CONTINUOUS
 10
24.981869473
 20
-9.6544178141
 11
24.765142084
 21
-9.6647381659
  0
LINE
  5
3F5
100
AcDbEntity
  8
RACCORDO
100
AcDbLine
 62
250
  6
CONTINUOUS
 10
8.0229734805
 20
-13.4988774229
 11
23.5968225475
 21
-13.4988774229
  0
LINE
  5
3F6
100
AcDbEntity
  8
RACCORDO
100
AcDbLine
 62
250
  6
CONTINUOUS
 10
8.0153633866
 20
-13.2275025388
 11
23.6044326413
 21
-13.2275025388
  0
LINE
  5
3F7
100
AcDbEntity
  8
DRAFT
100
AcDbLine
 62
7
  6
CONTINUOUS
 10
23.609898014
 20
-13.2220371662
 11
8.009898014
 21
-13.2220371662
  0
LINE
  5
3F8
100
AcDbEntity
  8
0
100
AcDbLine
 62
7
  6
CONTINUOUS
 10
12.8415190816
 20
-29.8024570805
 11
12.8318294349
 21
-29.7934672365
  0
LINE
  5
3F9
100
AcDbEntity
  8
ASSI
100
AcDbLine
 62
7
  6
CONTINUOUS
 10
-12.0125604813
 20
-10.2220371662
 11
-12.6946712515
 21
-8.5191791099
  0
LINE
  5
3FA
100
AcDbEntity
  8
ASSI
100
AcDbLine
 62
7
  6
CONTINUOUS
 10
-7.5335277759
 20
-10.2220371662
 11
-8.2156385461
 21
-8.5191791099
  0
LINE
  5
3FB
100
AcDbEntity
  8
ASSI
100
AcDbLine
 62
7
  6
CONTINUOUS
 10
-11.3188392955
 20
-8.5191791099
 11
-10.6641420633
 21
-10.2220371662
  0
LINE
  5
3FC
100
AcDbEntity
  8
ASSI
100
AcDbLine
 62
7
  6
CONTINUOUS
 10
-12.4439189058
 20
-9.7060195734
 11
-12.2539600229
 21
-10.2220371662
  0
LINE
  5
3FD
100
AcDbEntity
  8
ASSI
100
AcDbLine
 62
7
  6
CONTINUOUS
 10
-7.9648862003
 20
-9.7060195734
 11
-7.7749273175
 21
-10.2220371662
  0
LINE
  5
3FE
100
AcDbEntity
  8
ASSI
100
AcDbLine
 62
7
  6
CONTINUOUS
 10
-10.6352772037
 20
-9.7531061098
 11
-11.0774399114
 21
-8.5191791099
  0
LINE
  5
3FF
100
AcDbEntity
  8
ASSI
100
AcDbLine
 62
7
  6
CONTINUOUS
 10
-9.5500278367
 20
-8.5191791099
 11
-9.5500278367
 21
-10.2220371662
  0
LINE
  5
400
100
AcDbEntity
  8
ASSI
100
AcDbLine
 62
7
  6
CONTINUOUS
 10
-9.3229800959
 20
-10.2220371662
 11
-9.3229800959
 21
-8.5191791099
  0
LINE
  5
401
100
AcDbEntity
  8
ASSI
100
AcDbLine
 62
7
  6
CONTINUOUS
 10
-7.3517928914
 20
-8.5191791099
 11
-7.3517928914
 21
-10.2220371662
  0
LINE
  5
402
100
AcDbEntity
  8
ASSI
100
AcDbLine
 62
7
  6
CONTINUOUS
 10
-7.1247451506
 20
-10.0259504809
 11
-7.1247451506
 21
-8.5191791099
  0
LINE
  5
403
100
AcDbEntity
  8
ASSI
100
AcDbLine
 62
7
  6
CONTINUOUS
 10
-6.2784762984
 20
-10.2220371662
 11
-6.2784762984
 21
-10.0259504809
  0
LINE
  5
404
100
AcDbEntity
  8
ASSI
100
AcDbLine
 62
7
  6
CONTINUOUS
 10
-6.0101471502
 20
-8.5191791099
 11
-6.0101471502
 21
-10.2220371662
  0
LINE
  5
405
100
AcDbEntity
  8
ASSI
100
AcDbLine
 62
7
  6
CONTINUOUS
 10
-5.7830994093
 20
-10.0259504809
 11
-5.7830994093
 21
-9.4376904251
  0
LINE
  5
406
100
AcDbEntity
  8
ASSI
100
AcDbLine
 62
7
  6
CONTINUOUS
 10
-5.7830994093
 20
-9.2416037399
 11
-5.7830994093
 21
-8.7152657952
  0
LINE
  5
407
100
AcDbEntity
  8
ASSI
100
AcDbLine
 62
7
  6
CONTINUOUS
 10
-4.8542677423
 20
-9.4376904251
 11
-4.8542677423
 21
-9.2416037399
  0
LINE
  5
408
100
AcDbEntity
  8
ASSI
100
AcDbLine
 62
7
  6
CONTINUOUS
 10
-4.7923456312
 20
-8.7152657952
 11
-4.7923456312
 21
-8.5191791099
  0
LINE
  5
409
100
AcDbEntity
  8
ASSI
100
AcDbLine
 62
7
  6
CONTINUOUS
 10
-4.7510642237
 20
-10.2220371662
 11
-4.7510642237
 21
-10.0259504809
  0
LINE
  5
40A
100
AcDbEntity
  8
ASSI
100
AcDbLine
 62
7
  6
CONTINUOUS
 10
-13.3479173197
 20
-10.2220371662
 11
-13.1684398892
 21
-9.7060195734
  0
LINE
  5
40B
100
AcDbEntity
  8
ASSI
100
AcDbLine
 62
7
  6
CONTINUOUS
 10
-8.8688846142
 20
-10.2220371662
 11
-8.6894071837
 21
-9.7060195734
  0
LINE
  5
40C
100
AcDbEntity
  8
ASSI
100
AcDbLine
 62
7
  6
CONTINUOUS
 10
-13.1037763927
 20
-9.52025324
 11
-12.9197838969
 21
-9.0231025133
  0
LINE
  5
40D
100
AcDbEntity
  8
ASSI
100
AcDbLine
 62
7
  6
CONTINUOUS
 10
-8.6247436873
 20
-9.52025324
 11
-8.4407511914
 21
-9.0231025133
  0
LINE
  5
40E
100
AcDbEntity
  8
ASSI
100
AcDbLine
 62
7
  6
CONTINUOUS
 10
-12.9402633426
 20
-8.5191791099
 11
-13.5875428663
 21
-10.2220371662
  0
LINE
  5
40F
100
AcDbEntity
  8
ASSI
100
AcDbLine
 62
7
  6
CONTINUOUS
 10
-9.9834826147
 20
-8.5191791099
 11
-10.4524135135
 21
-9.7531061098
  0
LINE
  5
410
100
AcDbEntity
  8
ASSI
100
AcDbLine
 62
7
  6
CONTINUOUS
 10
-8.4612306372
 20
-8.5191791099
 11
-9.1085101608
 21
-10.2220371662
  0
LINE
  5
411
100
AcDbEntity
  8
ASSI
100
AcDbLine
 62
7
  6
CONTINUOUS
 10
-10.4198398784
 20
-10.2220371662
 11
-9.7406317514
 21
-8.5191791099
  0
LINE
  5
412
100
AcDbEntity
  8
ASSI
100
AcDbLine
 62
7
  6
CONTINUOUS
 10
-0.3752350368
 20
-9.0390667363
 11
-0.148187296
 21
-8.9868199452
  0
LINE
  5
413
100
AcDbEntity
  8
ASSI
100
AcDbLine
 62
7
  6
CONTINUOUS
 10
12.5664861904
 20
-8.9526338879
 11
12.7728932275
 21
-8.9319931842
  0
LINE
  5
414
100
AcDbEntity
  8
ASSI
100
AcDbLine
 62
7
  6
CONTINUOUS
 10
-16.4130618209
 20
-9.6544178141
 11
-16.6297892098
 21
-9.6647381659
  0
LINE
  5
415
100
AcDbEntity
  8
ASSI
100
AcDbLine
 62
7
  6
CONTINUOUS
 10
25.838458677
 20
-9.0042356472
 11
26.0655064179
 21
-8.9939152953
  0
LINE
  5
416
100
AcDbEntity
  8
ASSI
100
AcDbLine
 62
7
  6
CONTINUOUS
 10
-15.5564726168
 20
-9.0042356472
 11
-15.329424876
 21
-8.9939152953
  0
LINE
  5
417
100
AcDbEntity
  8
ASSI
100
AcDbLine
 62
7
  6
CONTINUOUS
 10
-24.2354047537
 20
-10.2220371662
 11
-23.9911025688
 21
-10.2220371662
  0
LINE
  5
418
100
AcDbEntity
  8
ASSI
100
AcDbLine
 62
7
  6
CONTINUOUS
 10
-23.1212905272
 20
-10.2220371662
 11
-22.8942427863
 21
-10.2220371662
  0
LINE
  5
419
100
AcDbEntity
  8
ASSI
100
AcDbLine
 62
7
  6
CONTINUOUS
 10
-22.5123897677
 20
-10.2220371662
 11
-22.2853420268
 21
-10.2220371662
  0
LINE
  5
41A
100
AcDbEntity
  8
ASSI
100
AcDbLine
 62
7
  6
CONTINUOUS
 10
-21.7943189452
 20
-10.2220371662
 11
-21.6011349032
 21
-10.2220371662
  0
LINE
  5
41B
100
AcDbEntity
  8
ASSI
100
AcDbLine
 62
7
  6
CONTINUOUS
 10
-21.0985015634
 20
-10.2220371662
 11
-20.8714538226
 21
-10.2220371662
  0
LINE
  5
41C
100
AcDbEntity
  8
ASSI
100
AcDbLine
 62
7
  6
CONTINUOUS
 10
-20.698265295
 20
-10.2220371662
 11
-20.4586397484
 21
-10.2220371662
  0
LINE
  5
41D
100
AcDbEntity
  8
ASSI
100
AcDbLine
 62
7
  6
CONTINUOUS
 10
-19.3646824516
 20
-10.2220371662
 11
-19.12328291
 21
-10.2220371662
  0
LINE
  5
41E
100
AcDbEntity
  8
ASSI
100
AcDbLine
 62
7
  6
CONTINUOUS
 10
-18.9209073218
 20
-10.2220371662
 11
-18.693859581
 21
-10.2220371662
  0
LINE
  5
41F
100
AcDbEntity
  8
ASSI
100
AcDbLine
 62
7
  6
CONTINUOUS
 10
-17.7114910592
 20
-10.2220371662
 11
-17.4447744905
 21
-10.2220371662
  0
LINE
  5
420
100
AcDbEntity
  8
ASSI
100
AcDbLine
 62
7
  6
CONTINUOUS
 10
-14.968212561
 20
-10.2220371662
 11
-14.7411648202
 21
-10.2220371662
  0
LINE
  5
421
100
AcDbEntity
  8
ASSI
100
AcDbLine
 62
7
  6
CONTINUOUS
 10
-13.5875428663
 20
-10.2220371662
 11
-13.3479173197
 21
-10.2220371662
  0
LINE
  5
422
100
AcDbEntity
  8
ASSI
100
AcDbLine
 62
7
  6
CONTINUOUS
 10
-12.2539600229
 20
-10.2220371662
 11
-12.0125604813
 21
-10.2220371662
  0
LINE
  5
423
100
AcDbEntity
  8
ASSI
100
AcDbLine
 62
7
  6
CONTINUOUS
 10
-10.6641420633
 20
-10.2220371662
 11
-10.4198398784
 21
-10.2220371662
  0
LINE
  5
424
100
AcDbEntity
  8
ASSI
100
AcDbLine
 62
7
  6
CONTINUOUS
 10
-9.5500278367
 20
-10.2220371662
 11
-9.3229800959
 21
-10.2220371662
  0
LINE
  5
425
100
AcDbEntity
  8
ASSI
100
AcDbLine
 62
7
  6
CONTINUOUS
 10
-9.1085101608
 20
-10.2220371662
 11
-8.8688846142
 21
-10.2220371662
  0
LINE
  5
426
100
AcDbEntity
  8
ASSI
100
AcDbLine
 62
7
  6
CONTINUOUS
 10
-7.7749273175
 20
-10.2220371662
 11
-7.5335277759
 21
-10.2220371662
  0
LINE
  5
427
100
AcDbEntity
  8
ASSI
100
AcDbLine
 62
7
  6
CONTINUOUS
 10
-7.3517928914
 20
-10.2220371662
 11
-6.2784762984
 21
-10.2220371662
  0
LINE
  5
428
100
AcDbEntity
  8
ASSI
100
AcDbLine
 62
7
  6
CONTINUOUS
 10
-6.0101471502
 20
-10.2220371662
 11
-4.7510642237
 21
-10.2220371662
  0
LINE
  5
429
100
AcDbEntity
  8
ASSI
100
AcDbLine
 62
7
  6
CONTINUOUS
 10
-3.2850904863
 20
-10.2220371662
 11
-3.0407883014
 21
-10.2220371662
  0
LINE
  5
42A
100
AcDbEntity
  8
ASSI
100
AcDbLine
 62
7
  6
CONTINUOUS
 10
-2.1709762598
 20
-10.2220371662
 11
-1.9439285189
 21
-10.2220371662
  0
LINE
  5
42B
100
AcDbEntity
  8
ASSI
100
AcDbLine
 62
7
  6
CONTINUOUS
 10
0.1820639634
 20
-10.2220371662
 11
1.4411468898
 21
-10.2220371662
  0
LINE
  5
42C
100
AcDbEntity
  8
ASSI
100
AcDbLine
 62
7
  6
CONTINUOUS
 10
1.7610777973
 20
-10.2220371662
 11
1.9881255381
 21
-10.2220371662
  0
LINE
  5
42D
100
AcDbEntity
  8
ASSI
100
AcDbLine
 62
7
  6
CONTINUOUS
 10
2.8406834507
 20
-10.2220371662
 11
3.0820828349
 21
-10.2220371662
  0
LINE
  5
42E
100
AcDbEntity
  8
ASSI
100
AcDbLine
 62
7
  6
CONTINUOUS
 10
3.3194509276
 20
-10.2220371662
 11
4.6714170207
 21
-10.2220371662
  0
LINE
  5
42F
100
AcDbEntity
  8
ASSI
100
AcDbLine
 62
7
  6
CONTINUOUS
 10
4.720761326
 20
-10.2220371662
 11
4.9603868726
 21
-10.2220371662
  0
LINE
  5
430
100
AcDbEntity
  8
ASSI
100
AcDbLine
 62
7
  6
CONTINUOUS
 10
6.0543441694
 20
-10.2220371662
 11
6.295743711
 21
-10.2220371662
  0
LINE
  5
431
100
AcDbEntity
  8
ASSI
100
AcDbLine
 62
7
  6
CONTINUOUS
 10
7.6436783552
 20
-10.2220371662
 11
7.8500853923
 21
-10.2220371662
  0
LINE
  5
432
100
AcDbEntity
  8
ASSI
100
AcDbLine
 62
7
  6
CONTINUOUS
 10
9.0678869113
 20
-10.2220371662
 11
9.2742939484
 21
-10.2220371662
  0
LINE
  5
433
100
AcDbEntity
  8
ASSI
100
AcDbLine
 62
7
  6
CONTINUOUS
 10
17.6957010628
 20
-10.2220371662
 11
17.9227488036
 21
-10.2220371662
  0
LINE
  5
434
100
AcDbEntity
  8
ASSI
100
AcDbLine
 62
7
  6
CONTINUOUS
 10
18.4137718853
 20
-10.2220371662
 11
18.6069559273
 21
-10.2220371662
  0
LINE
  5
435
100
AcDbEntity
  8
ASSI
100
AcDbLine
 62
7
  6
CONTINUOUS
 10
19.109589267
 20
-10.2220371662
 11
19.3366370079
 21
-10.2220371662
  0
LINE
  5
436
100
AcDbEntity
  8
ASSI
100
AcDbLine
 62
7
  6
CONTINUOUS
 10
19.5098255355
 20
-10.2220371662
 11
19.7494510821
 21
-10.2220371662
  0
LINE
  5
437
100
AcDbEntity
  8
ASSI
100
AcDbLine
 62
7
  6
CONTINUOUS
 10
20.8434083788
 20
-10.2220371662
 11
21.0848079205
 21
-10.2220371662
  0
LINE
  5
438
100
AcDbEntity
  8
ASSI
100
AcDbLine
 62
7
  6
CONTINUOUS
 10
21.2871835086
 20
-10.2220371662
 11
21.5142312494
 21
-10.2220371662
  0
LINE
  5
439
100
AcDbEntity
  8
ASSI
100
AcDbLine
 62
7
  6
CONTINUOUS
 10
22.4965997712
 20
-10.2220371662
 11
22.7633163399
 21
-10.2220371662
  0
LINE
  5
43A
100
AcDbEntity
  8
ASSI
100
AcDbLine
 62
7
  6
CONTINUOUS
 10
26.8498531589
 20
-10.2220371662
 11
27.0769008998
 21
-10.2220371662
  0
LINE
  5
43B
100
AcDbEntity
  8
ASSI
100
AcDbLine
 62
7
  6
CONTINUOUS
 10
27.8922086964
 20
-10.2220371662
 11
28.1192564372
 21
-10.2220371662
  0
LINE
  5
43C
100
AcDbEntity
  8
ASSI
100
AcDbLine
 62
7
  6
CONTINUOUS
 10
30.0469047803
 20
-10.2220371662
 11
30.2865303269
 21
-10.2220371662
  0
LINE
  5
43D
100
AcDbEntity
  8
ASSI
100
AcDbLine
 62
7
  6
CONTINUOUS
 10
31.3804876236
 20
-10.2220371662
 11
31.6218871653
 21
-10.2220371662
  0
LINE
  5
43E
100
AcDbEntity
  8
ASSI
100
AcDbLine
 62
7
  6
CONTINUOUS
 10
32.9703055833
 20
-10.2220371662
 11
33.2146077682
 21
-10.2220371662
  0
LINE
  5
43F
100
AcDbEntity
  8
ASSI
100
AcDbLine
 62
7
  6
CONTINUOUS
 10
34.0844198099
 20
-10.2220371662
 11
34.3114675507
 21
-10.2220371662
  0
LINE
  5
440
100
AcDbEntity
  8
ASSI
100
AcDbLine
 62
7
  6
CONTINUOUS
 10
35.4054248474
 20
-10.2220371662
 11
35.6324725883
 21
-10.2220371662
  0
LINE
  5
441
100
AcDbEntity
  8
ASSI
100
AcDbLine
 62
7
  6
CONTINUOUS
 10
36.4684210886
 20
-10.2220371662
 11
36.6954688294
 21
-10.2220371662
  0
LINE
  5
442
100
AcDbEntity
  8
ASSI
100
AcDbLine
 62
7
  6
CONTINUOUS
 10
37.2917917831
 20
-10.2220371662
 11
37.5314173297
 21
-10.2220371662
  0
LINE
  5
443
100
AcDbEntity
  8
ASSI
100
AcDbLine
 62
7
  6
CONTINUOUS
 10
38.6253746265
 20
-10.2220371662
 11
38.8667741681
 21
-10.2220371662
  0
LINE
  5
444
100
AcDbEntity
  8
ASSI
100
AcDbLine
 62
7
  6
CONTINUOUS
 10
39.0485090526
 20
-10.2220371662
 11
40.1218256456
 21
-10.2220371662
  0
LINE
  5
445
100
AcDbEntity
  8
ASSI
100
AcDbLine
 62
7
  6
CONTINUOUS
 10
40.855860691
 20
-10.2220371662
 11
41.0829084318
 21
-10.2220371662
  0
LINE
  5
446
100
AcDbEntity
  8
ASSI
100
AcDbLine
 62
7
  6
CONTINUOUS
 10
40.1218256456
 20
-10.0259504809
 11
39.2755567934
 21
-10.0259504809
  0
LINE
  5
447
100
AcDbEntity
  8
ASSI
100
AcDbLine
 62
7
  6
CONTINUOUS
 10
4.6714170207
 20
-10.0259504809
 11
3.5766535916
 21
-10.0259504809
  0
LINE
  5
448
100
AcDbEntity
  8
ASSI
100
AcDbLine
 62
7
  6
CONTINUOUS
 10
1.4411468898
 20
-10.0259504809
 11
0.4091117042
 21
-10.0259504809
  0
LINE
  5
449
100
AcDbEntity
  8
ASSI
100
AcDbLine
 62
7
  6
CONTINUOUS
 10
-4.7510642237
 20
-10.0259504809
 11
-5.7830994093
 21
-10.0259504809
  0
LINE
  5
44A
100
AcDbEntity
  8
ASSI
100
AcDbLine
 62
7
  6
CONTINUOUS
 10
-6.2784762984
 20
-10.0259504809
 11
-7.1247451506
 21
-10.0259504809
  0
LINE
  5
44B
100
AcDbEntity
  8
ASSI
100
AcDbLine
 62
7
  6
CONTINUOUS
 10
8.3145012258
 20
-9.8195434438
 11
9.0678869113
 21
-9.8195434438
  0
LINE
  5
44C
100
AcDbEntity
  8
ASSI
100
AcDbLine
 62
7
  6
CONTINUOUS
 10
9.2742939484
 20
-9.8195434438
 11
9.5013416892
 21
-9.8195434438
  0
LINE
  5
44D
100
AcDbEntity
  8
ASSI
100
AcDbLine
 62
7
  6
CONTINUOUS
 10
-20.2791623179
 20
-9.7060195734
 11
-19.5546413345
 21
-9.7060195734
  0
LINE
  5
44E
100
AcDbEntity
  8
ASSI
100
AcDbLine
 62
7
  6
CONTINUOUS
 10
-13.1684398892
 20
-9.7060195734
 11
-12.4439189058
 21
-9.7060195734
  0
LINE
  5
44F
100
AcDbEntity
  8
ASSI
100
AcDbLine
 62
7
  6
CONTINUOUS
 10
-8.6894071837
 20
-9.7060195734
 11
-7.9648862003
 21
-9.7060195734
  0
LINE
  5
450
100
AcDbEntity
  8
ASSI
100
AcDbLine
 62
7
  6
CONTINUOUS
 10
5.1398643031
 20
-9.7060195734
 11
5.8643852865
 21
-9.7060195734
  0
LINE
  5
451
100
AcDbEntity
  8
ASSI
100
AcDbLine
 62
7
  6
CONTINUOUS
 10
19.9289285126
 20
-9.7060195734
 11
20.653449496
 21
-9.7060195734
  0
LINE
  5
452
100
AcDbEntity
  8
ASSI
100
AcDbLine
 62
7
  6
CONTINUOUS
 10
30.4660077574
 20
-9.7060195734
 11
31.1905287408
 21
-9.7060195734
  0
LINE
  5
453
100
AcDbEntity
  8
ASSI
100
AcDbLine
 62
7
  6
CONTINUOUS
 10
37.7108947603
 20
-9.7060195734
 11
38.4354157436
 21
-9.7060195734
  0
LINE
  5
454
100
AcDbEntity
  8
ASSI
100
AcDbLine
 62
7
  6
CONTINUOUS
 10
9.5013416892
 20
-9.6234567585
 11
9.2742939484
 21
-9.6234567585
  0
LINE
  5
455
100
AcDbEntity
  8
ASSI
100
AcDbLine
 62
7
  6
CONTINUOUS
 10
9.0678869113
 20
-9.6234567585
 11
8.5212307788
 21
-9.6234567585
  0
LINE
  5
456
100
AcDbEntity
  8
ASSI
100
AcDbLine
 62
7
  6
CONTINUOUS
 10
38.3668822137
 20
-9.52025324
 11
37.7755582567
 21
-9.52025324
  0
LINE
  5
457
100
AcDbEntity
  8
ASSI
100
AcDbLine
 62
7
  6
CONTINUOUS
 10
31.1219952109
 20
-9.52025324
 11
30.5306712539
 21
-9.52025324
  0
LINE
  5
458
100
AcDbEntity
  8
ASSI
100
AcDbLine
 62
7
  6
CONTINUOUS
 10
20.584915966
 20
-9.52025324
 11
19.993592009
 21
-9.52025324
  0
LINE
  5
459
100
AcDbEntity
  8
ASSI
100
AcDbLine
 62
7
  6
CONTINUOUS
 10
-14.7411648202
 20
-9.52025324
 11
-14.3173853623
 21
-9.52025324
  0
LINE
  5
45A
100
AcDbEntity
  8
ASSI
100
AcDbLine
 62
7
  6
CONTINUOUS
 10
5.7958517566
 20
-9.52025324
 11
5.2045277996
 21
-9.52025324
  0
LINE
  5
45B
100
AcDbEntity
  8
ASSI
100
AcDbLine
 62
7
  6
CONTINUOUS
 10
-8.0334197303
 20
-9.52025324
 11
-8.6247436873
 21
-9.52025324
  0
LINE
  5
45C
100
AcDbEntity
  8
ASSI
100
AcDbLine
 62
7
  6
CONTINUOUS
 10
-12.5124524357
 20
-9.52025324
 11
-13.1037763927
 21
-9.52025324
  0
LINE
  5
45D
100
AcDbEntity
  8
ASSI
100
AcDbLine
 62
7
  6
CONTINUOUS
 10
-19.6231748644
 20
-9.52025324
 11
-20.2144988214
 21
-9.52025324
  0
LINE
  5
45E
100
AcDbEntity
  8
ASSI
100
AcDbLine
 62
7
  6
CONTINUOUS
 10
-18.693859581
 20
-9.4686514807
 11
-18.4350444948
 21
-9.4686514807
  0
LINE
  5
45F
100
AcDbEntity
  8
ASSI
100
AcDbLine
 62
7
  6
CONTINUOUS
 10
21.5142312494
 20
-9.4686514807
 11
21.7730463356
 21
-9.4686514807
  0
LINE
  5
460
100
AcDbEntity
  8
ASSI
100
AcDbLine
 62
7
  6
CONTINUOUS
 10
-5.7830994093
 20
-9.4376904251
 11
-4.8542677423
 21
-9.4376904251
  0
LINE
  5
461
100
AcDbEntity
  8
ASSI
100
AcDbLine
 62
7
  6
CONTINUOUS
 10
0.4091117042
 20
-9.4376904251
 11
1.3379433712
 21
-9.4376904251
  0
LINE
  5
462
100
AcDbEntity
  8
ASSI
100
AcDbLine
 62
7
  6
CONTINUOUS
 10
-14.3149664929
 20
-9.3241665547
 11
-14.7411648202
 21
-9.3241665547
  0
LINE
  5
463
100
AcDbEntity
  8
ASSI
100
AcDbLine
 62
7
  6
CONTINUOUS
 10
21.9938051736
 20
-9.2725647954
 11
21.5142312494
 21
-9.2725647954
  0
LINE
  5
464
100
AcDbEntity
  8
ASSI
100
AcDbLine
 62
7
  6
CONTINUOUS
 10
-18.2142856569
 20
-9.2725647954
 11
-18.693859581
 21
-9.2725647954
  0
LINE
  5
465
100
AcDbEntity
  8
ASSI
100
AcDbLine
 62
7
  6
CONTINUOUS
 10
1.3379433712
 20
-9.2416037399
 11
0.4091117042
 21
-9.2416037399
  0
LINE
  5
466
100
AcDbEntity
  8
ASSI
100
AcDbLine
 62
7
  6
CONTINUOUS
 10
-4.8542677423
 20
-9.2416037399
 11
-5.7830994093
 21
-9.2416037399
  0
LINE
  5
467
100
AcDbEntity
  8
ASSI
100
AcDbLine
 62
7
  6
CONTINUOUS
 10
-18.693859581
 20
-8.7152657952
 11
-18.1601037703
 21
-8.7152657952
  0
LINE
  5
468
100
AcDbEntity
  8
ASSI
100
AcDbLine
 62
7
  6
CONTINUOUS
 10
-14.7411648202
 20
-8.7152657952
 11
-14.3194815583
 21
-8.7152657952
  0
LINE
  5
469
100
AcDbEntity
  8
ASSI
100
AcDbLine
 62
7
  6
CONTINUOUS
 10
-5.7830994093
 20
-8.7152657952
 11
-4.7923456312
 21
-8.7152657952
  0
LINE
  5
46A
100
AcDbEntity
  8
ASSI
100
AcDbLine
 62
7
  6
CONTINUOUS
 10
0.4091117042
 20
-8.7152657952
 11
1.3998654824
 21
-8.7152657952
  0
LINE
  5
46B
100
AcDbEntity
  8
ASSI
100
AcDbLine
 62
7
  6
CONTINUOUS
 10
3.4226544461
 20
-8.7152657952
 11
4.3663216878
 21
-8.7152657952
  0
LINE
  5
46C
100
AcDbEntity
  8
ASSI
100
AcDbLine
 62
7
  6
CONTINUOUS
 10
21.5142312494
 20
-8.7152657952
 11
22.0479870602
 21
-8.7152657952
  0
LINE
  5
46D
100
AcDbEntity
  8
ASSI
100
AcDbLine
 62
7
  6
CONTINUOUS
 10
26.2925541587
 20
-8.7152657952
 11
26.8498531589
 21
-8.7152657952
  0
LINE
  5
46E
100
AcDbEntity
  8
ASSI
100
AcDbLine
 62
7
  6
CONTINUOUS
 10
27.0769008998
 20
-8.7152657952
 11
27.6341999
 21
-8.7152657952
  0
LINE
  5
46F
100
AcDbEntity
  8
ASSI
100
AcDbLine
 62
7
  6
CONTINUOUS
 10
35.9111220884
 20
-8.7152657952
 11
36.4684210886
 21
-8.7152657952
  0
LINE
  5
470
100
AcDbEntity
  8
ASSI
100
AcDbLine
 62
7
  6
CONTINUOUS
 10
36.6954688294
 20
-8.7152657952
 11
37.2527678296
 21
-8.7152657952
  0
LINE
  5
471
100
AcDbEntity
  8
ASSI
100
AcDbLine
 62
7
  6
CONTINUOUS
 10
41.7640516543
 20
-8.5191791099
 11
41.490078635
 21
-8.5191791099
  0
LINE
  5
472
100
AcDbEntity
  8
ASSI
100
AcDbLine
 62
7
  6
CONTINUOUS
 10
40.4757815099
 20
-8.5191791099
 11
40.2056785241
 21
-8.5191791099
  0
LINE
  5
473
100
AcDbEntity
  8
ASSI
100
AcDbLine
 62
7
  6
CONTINUOUS
 10
39.2755567934
 20
-8.5191791099
 11
39.0485090526
 21
-8.5191791099
  0
LINE
  5
474
100
AcDbEntity
  8
ASSI
100
AcDbLine
 62
7
  6
CONTINUOUS
 10
38.1846633979
 20
-8.5191791099
 11
37.9390713068
 21
-8.5191791099
  0
LINE
  5
475
100
AcDbEntity
  8
ASSI
100
AcDbLine
 62
7
  6
CONTINUOUS
 10
37.2527678296
 20
-8.5191791099
 11
35.9111220884
 21
-8.5191791099
  0
LINE
  5
476
100
AcDbEntity
  8
ASSI
100
AcDbLine
 62
7
  6
CONTINUOUS
 10
35.6324725883
 20
-8.5191791099
 11
35.4054248474
 21
-8.5191791099
  0
LINE
  5
477
100
AcDbEntity
  8
ASSI
100
AcDbLine
 62
7
  6
CONTINUOUS
 10
34.3114675507
 20
-8.5191791099
 11
34.0844198099
 21
-8.5191791099
  0
LINE
  5
478
100
AcDbEntity
  8
ASSI
100
AcDbLine
 62
7
  6
CONTINUOUS
 10
33.8938158952
 20
-8.5191791099
 11
33.6509650319
 21
-8.5191791099
  0
LINE
  5
479
100
AcDbEntity
  8
ASSI
100
AcDbLine
 62
7
  6
CONTINUOUS
 10
32.5570077352
 20
-8.5191791099
 11
32.3156083511
 21
-8.5191791099
  0
LINE
  5
47A
100
AcDbEntity
  8
ASSI
100
AcDbLine
 62
7
  6
CONTINUOUS
 10
30.9397763951
 20
-8.5191791099
 11
30.694184304
 21
-8.5191791099
  0
LINE
  5
47B
100
AcDbEntity
  8
ASSI
100
AcDbLine
 62
7
  6
CONTINUOUS
 10
28.1192564372
 20
-8.5191791099
 11
27.8922086964
 21
-8.5191791099
  0
LINE
  5
47C
100
AcDbEntity
  8
ASSI
100
AcDbLine
 62
7
  6
CONTINUOUS
 10
27.6341999
 20
-8.5191791099
 11
26.2925541587
 21
-8.5191791099
  0
LINE
  5
47D
100
AcDbEntity
  8
ASSI
100
AcDbLine
 62
7
  6
CONTINUOUS
 10
22.038795514
 20
-8.5191791099
 11
21.2871835086
 21
-8.5191791099
  0
LINE
  5
47E
100
AcDbEntity
  8
ASSI
100
AcDbLine
 62
7
  6
CONTINUOUS
 10
20.4026971502
 20
-8.5191791099
 11
20.1571050591
 21
-8.5191791099
  0
LINE
  5
47F
100
AcDbEntity
  8
ASSI
100
AcDbLine
 62
7
  6
CONTINUOUS
 10
19.3366370079
 20
-8.5191791099
 11
19.041216995
 21
-8.5191791099
  0
LINE
  5
480
100
AcDbEntity
  8
ASSI
100
AcDbLine
 62
7
  6
CONTINUOUS
 10
18.0417554446
 20
-8.5191791099
 11
17.6957010628
 21
-8.5191791099
  0
LINE
  5
481
100
AcDbEntity
  8
ASSI
100
AcDbLine
 62
7
  6
CONTINUOUS
 10
9.2742939484
 20
-8.5191791099
 11
9.1091683187
 21
-8.5191791099
  0
LINE
  5
482
100
AcDbEntity
  8
ASSI
100
AcDbLine
 62
7
  6
CONTINUOUS
 10
5.6136329408
 20
-8.5191791099
 11
5.3680408497
 21
-8.5191791099
  0
LINE
  5
483
100
AcDbEntity
  8
ASSI
100
AcDbLine
 62
7
  6
CONTINUOUS
 10
4.6301356132
 20
-8.5191791099
 11
3.4226544461
 21
-8.5191791099
  0
LINE
  5
484
100
AcDbEntity
  8
ASSI
100
AcDbLine
 62
7
  6
CONTINUOUS
 10
3.0820828349
 20
-8.5191791099
 11
2.855035094
 21
-8.5191791099
  0
LINE
  5
485
100
AcDbEntity
  8
ASSI
100
AcDbLine
 62
7
  6
CONTINUOUS
 10
2.002477339
 20
-8.5191791099
 11
1.7610777973
 21
-8.5191791099
  0
LINE
  5
486
100
AcDbEntity
  8
ASSI
100
AcDbLine
 62
7
  6
CONTINUOUS
 10
1.3998654824
 20
-8.5191791099
 11
0.1820639634
 21
-8.5191791099
  0
LINE
  5
487
100
AcDbEntity
  8
ASSI
100
AcDbLine
 62
7
  6
CONTINUOUS
 10
-1.9439285189
 20
-8.5191791099
 11
-2.1709762598
 21
-8.5191791099
  0
LINE
  5
488
100
AcDbEntity
  8
ASSI
100
AcDbLine
 62
7
  6
CONTINUOUS
 10
-2.3615801744
 20
-8.5191791099
 11
-2.6044310377
 21
-8.5191791099
  0
LINE
  5
489
100
AcDbEntity
  8
ASSI
100
AcDbLine
 62
7
  6
CONTINUOUS
 10
-3.6983883344
 20
-8.5191791099
 11
-3.9397877186
 21
-8.5191791099
  0
LINE
  5
48A
100
AcDbEntity
  8
ASSI
100
AcDbLine
 62
7
  6
CONTINUOUS
 10
-4.7923456312
 20
-8.5191791099
 11
-6.0101471502
 21
-8.5191791099
  0
LINE
  5
48B
100
AcDbEntity
  8
ASSI
100
AcDbLine
 62
7
  6
CONTINUOUS
 10
-7.1247451506
 20
-8.5191791099
 11
-7.3517928914
 21
-8.5191791099
  0
LINE
  5
48C
100
AcDbEntity
  8
ASSI
100
AcDbLine
 62
7
  6
CONTINUOUS
 10
-8.2156385461
 20
-8.5191791099
 11
-8.4612306372
 21
-8.5191791099
  0
LINE
  5
48D
100
AcDbEntity
  8
ASSI
100
AcDbLine
 62
7
  6
CONTINUOUS
 10
-9.3229800959
 20
-8.5191791099
 11
-9.5500278367
 21
-8.5191791099
  0
LINE
  5
48E
100
AcDbEntity
  8
ASSI
100
AcDbLine
 62
7
  6
CONTINUOUS
 10
-9.7406317514
 20
-8.5191791099
 11
-9.9834826147
 21
-8.5191791099
  0
LINE
  5
48F
100
AcDbEntity
  8
ASSI
100
AcDbLine
 62
7
  6
CONTINUOUS
 10
-11.0774399114
 20
-8.5191791099
 11
-11.3188392955
 21
-8.5191791099
  0
LINE
  5
490
100
AcDbEntity
  8
ASSI
100
AcDbLine
 62
7
  6
CONTINUOUS
 10
-12.6946712515
 20
-8.5191791099
 11
-12.9402633426
 21
-8.5191791099
  0
LINE
  5
491
100
AcDbEntity
  8
ASSI
100
AcDbLine
 62
7
  6
CONTINUOUS
 10
-14.3409285518
 20
-8.5191791099
 11
-14.968212561
 21
-8.5191791099
  0
LINE
  5
492
100
AcDbEntity
  8
ASSI
100
AcDbLine
 62
7
  6
CONTINUOUS
 10
-18.1692953164
 20
-8.5191791099
 11
-18.9209073218
 21
-8.5191791099
  0
LINE
  5
493
100
AcDbEntity
  8
ASSI
100
AcDbLine
 62
7
  6
CONTINUOUS
 10
-19.8053936802
 20
-8.5191791099
 11
-20.0509857713
 21
-8.5191791099
  0
LINE
  5
494
100
AcDbEntity
  8
ASSI
100
AcDbLine
 62
7
  6
CONTINUOUS
 10
-20.8714538226
 20
-8.5191791099
 11
-21.1668738354
 21
-8.5191791099
  0
LINE
  5
495
100
AcDbEntity
  8
ASSI
100
AcDbLine
 62
7
  6
CONTINUOUS
 10
-22.1663353859
 20
-8.5191791099
 11
-22.5123897677
 21
-8.5191791099
  0
LINE
  5
496
100
AcDbEntity
  8
ASSI
100
AcDbLine
 62
7
  6
CONTINUOUS
 10
-22.8942427863
 20
-8.5191791099
 11
-23.1212905272
 21
-8.5191791099
  0
LINE
  5
497
100
AcDbEntity
  8
ASSI
100
AcDbLine
 62
7
  6
CONTINUOUS
 10
-23.3118944419
 20
-8.5191791099
 11
-23.5547453051
 21
-8.5191791099
  0
LINE
  5
498
100
AcDbEntity
  8
ASSI
100
AcDbLine
 62
7
  6
CONTINUOUS
 10
-24.6487026018
 20
-8.5191791099
 11
-24.890101986
 21
-8.5191791099
  0
LINE
  5
499
100
AcDbEntity
  8
ASSI
100
AcDbLine
 62
7
  6
CONTINUOUS
 10
7.8500853923
 20
-8.5088587581
 11
7.7170496239
 21
-8.5088587581
  0
LINE
  5
49A
100
AcDbEntity
  8
0
100
AcDbLine
 62
7
  6
CONTINUOUS
 10
32.199898014
 20
-6.0220371662
 11
39.199898014
 21
-6.0220371662
  0
LINE
  5
49B
100
AcDbEntity
  8
ASSI
100
AcDbLine
 62
7
  6
CONTINUOUS
 10
10.3888919488
 20
-8.9526338879
 11
10.5952989859
 21
-8.9835949435
  0
LINE
  5
49C
100
AcDbEntity
  8
ASSI
100
AcDbLine
 62
7
  6
CONTINUOUS
 10
15.672912099
 20
-8.9526338879
 11
15.8793191361
 21
-8.9835949435
  0
LINE
  5
49D
100
AcDbEntity
  8
ASSI
100
AcDbLine
 62
7
  6
CONTINUOUS
 10
-0.1069058886
 20
-9.6813474207
 11
-0.3339536294
 21
-9.6244241488
  0
LINE
  5
49E
100
AcDbEntity
  8
0
100
AcDbLine
 62
7
  6
CONTINUOUS
 10
18.7841704066
 20
-32.289657316
 11
18.7881472626
 21
-32.2934799458
  0
LINE
  5
49F
100
AcDbEntity
  8
0
100
AcDbLine
 62
7
  6
CONTINUOUS
 10
18.7846986701
 20
-27.2901312077
 11
18.7881745479
 21
-27.2934840261
  0
LINE
  5
4A0
100
AcDbEntity
  8
ASSI
100
AcDbLine
 62
7
  6
CONTINUOUS
 10
-3.9397877186
 20
-8.5191791099
 11
-3.2850904863
 21
-10.2220371662
  0
LINE
  5
4A1
100
AcDbEntity
  8
ASSI
100
AcDbLine
 62
7
  6
CONTINUOUS
 10
-3.2562256267
 20
-9.7531061098
 11
-3.6983883344
 21
-8.5191791099
  0
LINE
  5
4A2
100
AcDbEntity
  8
ASSI
100
AcDbLine
 62
7
  6
CONTINUOUS
 10
-2.1709762598
 20
-8.5191791099
 11
-2.1709762598
 21
-10.2220371662
  0
LINE
  5
4A3
100
AcDbEntity
  8
ASSI
100
AcDbLine
 62
7
  6
CONTINUOUS
 10
-1.9439285189
 20
-10.2220371662
 11
-1.9439285189
 21
-8.5191791099
  0
LINE
  5
4A4
100
AcDbEntity
  8
ASSI
100
AcDbLine
 62
7
  6
CONTINUOUS
 10
0.1820639634
 20
-8.5191791099
 11
0.1820639634
 21
-10.2220371662
  0
LINE
  5
4A5
100
AcDbEntity
  8
ASSI
100
AcDbLine
 62
7
  6
CONTINUOUS
 10
0.4091117042
 20
-10.0259504809
 11
0.4091117042
 21
-9.4376904251
  0
LINE
  5
4A6
100
AcDbEntity
  8
ASSI
100
AcDbLine
 62
7
  6
CONTINUOUS
 10
0.4091117042
 20
-9.2416037399
 11
0.4091117042
 21
-8.7152657952
  0
LINE
  5
4A7
100
AcDbEntity
  8
ASSI
100
AcDbLine
 62
7
  6
CONTINUOUS
 10
-2.6044310377
 20
-8.5191791099
 11
-3.0733619366
 21
-9.7531061098
  0
LINE
  5
4A8
100
AcDbEntity
  8
0
100
AcDbLine
 62
7
  6
CONTINUOUS
 10
39.199898014
 20
-4.0220371662
 11
32.199898014
 21
-4.0220371662
  0
LINE
  5
4A9
100
AcDbEntity
  8
ASSI
100
AcDbLine
 62
7
  6
CONTINUOUS
 10
12.8222995888
 20
-2.2720371662
 11
13.8389655255
 21
-2.2720371662
  0
LINE
  5
4AA
100
AcDbEntity
  8
ASSI
100
AcDbLine
 62
7
  6
CONTINUOUS
 10
33.950764014
 20
-1.7370711662
 11
34.591618014
 21
-1.7370711662
  0
LINE
  5
4AB
100
AcDbEntity
  8
0
100
AcDbLine
 62
7
  6
CONTINUOUS
 10
34.381404014
 20
-1.5268571662
 11
34.160978014
 21
-1.5268571662
  0
LINE
  5
4AC
100
AcDbEntity
  8
0
100
AcDbLine
 62
7
  6
CONTINUOUS
 10
34.160978014
 20
-0.9860031662
 11
34.381404014
 21
-0.9860031662
  0
LINE
  5
4AD
100
AcDbEntity
  8
ASSI
100
AcDbLine
 62
7
  6
CONTINUOUS
 10
34.591618014
 20
-0.8825971662
 11
36.368982014
 21
-0.8825971662
  0
LINE
  5
4AE
100
AcDbEntity
  8
0
100
AcDbLine
 62
7
  6
CONTINUOUS
 10
36.4024636413
 20
-0.5757891662
 11
34.2318997411
 21
-0.5757891662
  0
LINE
  5
4AF
100
AcDbEntity
  8
ASSI
100
AcDbLine
 62
7
  6
CONTINUOUS
 10
6.681772014
 20
0.3954508338
 11
8.170308014
 21
0.3954508338
  0
LINE
  5
4B0
100
AcDbEntity
  8
ASSI
100
AcDbLine
 62
7
  6
CONTINUOUS
 10
29.9562790675
 20
-9.6813474207
 11
29.7292313267
 21
-9.6244241488
  0
LINE
  5
4B1
100
AcDbEntity
  8
RACCORDO
100
AcDbLine
 62
7
  6
CONTINUOUS
 10
8.0153633866
 20
-13.2275025388
 11
8.009898014
 21
-13.2220371662
  0
LINE
  5
4B2
100
AcDbEntity
  8
ASSI
100
AcDbLine
 62
7
  6
CONTINUOUS
 10
1.9881255381
 20
-8.9160288038
 11
2.8406834507
 21
-10.2220371662
  0
LINE
  5
4B3
100
AcDbEntity
  8
ASSI
100
AcDbLine
 62
7
  6
CONTINUOUS
 10
2.855035094
 20
-9.8251873149
 11
2.002477339
 21
-8.5191791099
  0
LINE
  5
4B4
100
AcDbEntity
  8
DRAFT
100
AcDbLine
 62
7
  6
CONTINUOUS
 10
7.8430601116
 20
-26.2220371662
 11
7.809898014
 21
-26.1557079194
  0
LINE
  5
4B5
100
AcDbEntity
  8
RACCORDO
100
AcDbLine
 62
7
  6
CONTINUOUS
 10
7.809898014
 20
-26.1098186207
 11
7.7949861863
 21
-26.0799926939
  0
LINE
  5
4B6
100
AcDbEntity
  8
ASSI
100
AcDbLine
 62
7
  6
CONTINUOUS
 10
1.3379433712
 20
-9.4376904251
 11
1.3379433712
 21
-9.2416037399
  0
LINE
  5
4B7
100
AcDbEntity
  8
ASSI
100
AcDbLine
 62
7
  6
CONTINUOUS
 10
1.3998654824
 20
-8.7152657952
 11
1.3998654824
 21
-8.5191791099
  0
LINE
  5
4B8
100
AcDbEntity
  8
ASSI
100
AcDbLine
 62
7
  6
CONTINUOUS
 10
1.4411468898
 20
-10.2220371662
 11
1.4411468898
 21
-10.0259504809
  0
LINE
  5
4B9
100
AcDbEntity
  8
ASSI
100
AcDbLine
 62
7
  6
CONTINUOUS
 10
1.7610777973
 20
-8.5191791099
 11
1.7610777973
 21
-10.2220371662
  0
LINE
  5
4BA
100
AcDbEntity
  8
ASSI
100
AcDbLine
 62
7
  6
CONTINUOUS
 10
1.9881255381
 20
-10.2220371662
 11
1.9881255381
 21
-8.9160288038
  0
LINE
  5
4BB
100
AcDbEntity
  8
ASSI
100
AcDbLine
 62
7
  6
CONTINUOUS
 10
2.855035094
 20
-8.5191791099
 11
2.855035094
 21
-9.8251873149
  0
LINE
  5
4BC
100
AcDbEntity
  8
ASSI
100
AcDbLine
 62
7
  6
CONTINUOUS
 10
3.0820828349
 20
-10.2220371662
 11
3.0820828349
 21
-8.5191791099
  0
LINE
  5
4BD
100
AcDbEntity
  8
ASSI
100
AcDbLine
 62
7
  6
CONTINUOUS
 10
3.3194509276
 20
-10.017726325
 11
3.3194509276
 21
-10.2220371662
  0
LINE
  5
4BE
100
AcDbEntity
  8
ASSI
100
AcDbLine
 62
7
  6
CONTINUOUS
 10
3.4226544461
 20
-8.5191791099
 11
3.4226544461
 21
-8.7152657952
  0
LINE
  5
4BF
100
AcDbEntity
  8
ASSI
100
AcDbLine
 62
7
  6
CONTINUOUS
 10
4.345308014
 20
-1.7592671662
 11
4.345308014
 21
-0.9887411662
  0
LINE
  5
4C0
100
AcDbEntity
  8
ASSI
100
AcDbLine
 62
7
  6
CONTINUOUS
 10
4.345308014
 20
2.5446428338
 11
4.345308014
 21
3.3151688338
  0
LINE
  5
4C1
100
AcDbEntity
  8
ASSI
100
AcDbLine
 62
7
  6
CONTINUOUS
 10
4.6301356132
 20
-8.7152657952
 11
4.6301356132
 21
-8.5191791099
  0
LINE
  5
4C2
100
AcDbEntity
  8
ASSI
100
AcDbLine
 62
7
  6
CONTINUOUS
 10
4.6714170207
 20
-10.2220371662
 11
4.6714170207
 21
-10.0259504809
  0
LINE
  5
4C3
100
AcDbEntity
  8
ASSI
100
AcDbLine
 62
7
  6
CONTINUOUS
 10
-3.0407883014
 20
-10.2220371662
 11
-2.3615801744
 21
-8.5191791099
  0
LINE
  5
4C4
100
AcDbEntity
  8
ASSI
100
AcDbLine
 62
7
  6
CONTINUOUS
 10
8.170308014
 20
1.1604508338
 11
6.6817715581
 21
1.1604508338
  0
LINE
  5
4C5
100
AcDbEntity
  8
0
100
AcDbLine
 62
7
  6
CONTINUOUS
 10
38.0807134927
 20
4.7248788338
 11
38.850766014
 21
4.7248788338
  0
LINE
  5
4C6
100
AcDbEntity
  8
0
100
AcDbLine
 62
7
  6
CONTINUOUS
 10
37.4978980901
 20
4.7270148338
 11
33.901896014
 21
4.7270148338
  0
LINE
  5
4C7
100
AcDbEntity
  8
ASSI
100
AcDbLine
 62
7
  6
CONTINUOUS
 10
38.670664014
 20
5.8997788338
 11
37.997960014
 21
5.8997788338
  0
LINE
  5
4C8
100
AcDbEntity
  8
0
100
AcDbLine
 62
7
  6
CONTINUOUS
 10
37.6899788495
 20
5.8997788338
 11
37.569056014
 21
5.8997788338
  0
LINE
  5
4C9
100
AcDbEntity
  8
0
100
AcDbLine
 62
7
  6
CONTINUOUS
 10
33.6454836094
 20
6.1270148338
 11
37.7098594372
 21
6.1270148338
  0
LINE
  5
4CA
100
AcDbEntity
  8
ASSI
100
AcDbLine
 62
7
  6
CONTINUOUS
 10
32.442222014
 20
6.3270148338
 11
33.320004014
 21
6.3270148338
  0
LINE
  5
4CB
100
AcDbEntity
  8
ASSI
100
AcDbLine
 62
7
  6
CONTINUOUS
 10
38.035338014
 20
6.3270148338
 11
38.370124014
 21
6.3270148338
  0
LINE
  5
4CC
100
AcDbEntity
  8
RACCORDO
100
AcDbLine
 62
7
  6
CONTINUOUS
 10
23.809898014
 20
-35.3342557116
 11
23.8248098417
 21
-35.3640816384
  0
LINE
  5
4CD
100
AcDbEntity
  8
ASSI
100
AcDbLine
 62
7
  6
CONTINUOUS
 10
6.295743711
 20
-10.2220371662
 11
5.6136329408
 21
-8.5191791099
  0
LINE
  5
4CE
100
AcDbEntity
  8
ASSI
100
AcDbLine
 62
7
  6
CONTINUOUS
 10
5.8643852865
 20
-9.7060195734
 11
6.0543441694
 21
-10.2220371662
  0
LINE
  5
4CF
100
AcDbEntity
  8
0
100
AcDbLine
 62
7
  6
CONTINUOUS
 10
9.8187656354
 20
-29.6208092628
 11
9.7996660423
 21
-29.3766073642
  0
LWPOLYLINE
  5
4D0
100
AcDbEntity
  8
0
100
AcDbPolyline
 62
7
  6
CONTINUOUS
 90
21
 70
0
 10
12.2098994983
 20
-34.3229551742
 10
12.2118018341
 20
-34.3552174607
 10
12.2166218006
 20
-34.384470924
 10
12.2241290408
 20
-34.4127130868
 10
12.234068557
 20
-34.4396711698
 10
12.2461302309
 20
-34.4650119258
 10
12.260116411
 20
-34.4886836428
 10
12.2757459558
 20
-34.5104743071
 10
12.2924723387
 20
-34.5299540707
 10
12.3100437126
 20
-34.5471967865
 10
12.328134237
 20
-34.5622833316
 10
12.3459478101
 20
-34.5750350934
 10
12.3630605294
 20
-34.5856479793
 10
12.3793712833
 20
-34.5944753437
 10
12.3945569204
 20
-34.6016937451
 10
12.4082484851
 20
-34.6074574424
 10
12.4205871913
 20
-34.6121008797
 10
12.4320673047
 20
-34.6159920014
 10
12.4426725166
 20
-34.61924992
 10
12.4523758632
 20
-34.6219720466
 10
12.4526426141
 20
-34.6220408182
  0
LWPOLYLINE
  5
4D1
100
AcDbEntity
  8
0
100
AcDbPolyline
 62
7
  6
CONTINUOUS
 90
33
 70
0
 10
12.2099027825
 20
-29.7921707865
 10
12.2103480775
 20
-29.8137196862
 10
12.2174655468
 20
-29.8771947982
 10
12.2328729766
 20
-29.9393244156
 10
12.2563782319
 20
-30.0001967151
 10
12.2874516151
 20
-30.0588238796
 10
12.3246531178
 20
-30.1135377131
 10
12.3666914562
 20
-30.1639479162
 10
12.4136729919
 20
-30.2113276087
 10
12.4661711061
 20
-30.2568756977
 10
12.5243026917
 20
-30.3010384224
 10
12.588038683
 20
-30.3440422805
 10
12.6580062354
 20
-30.3864570734
 10
12.7345536424
 20
-30.4285478758
 10
12.8178469901
 20
-30.4704409999
 10
12.9081941947
 20
-30.5123176987
 10
13.0058871238
 20
-30.5543271142
 10
13.1110243486
 20
-30.5965265343
 10
13.2233660114
 20
-30.6388549608
 10
13.3429573066
 20
-30.6813801934
 10
13.4697489181
 20
-30.724139831
 10
13.6030339299
 20
-30.7669713817
 10
13.7425437953
 20
-30.8098835269
 10
13.8881130551
 20
-30.8529227229
 10
14.0389217621
 20
-30.8959537563
 10
14.1945930747
 20
-30.9389861071
 10
14.3547736534
 20
-30.9820396666
 10
14.5185005696
 20
-31.0249790183
 10
14.6852844174
 20
-31.0678039839
 10
14.8546959514
 20
-31.1105309288
 10
15.0257553127
 20
-31.1530403277
 10
15.1977426619
 20
-31.1952818122
 10
16.0596315355
 20
-31.4037933297
  0
LINE
  5
4D2
100
AcDbEntity
  8
RACCORDO
100
AcDbLine
 62
7
  6
CONTINUOUS
 10
8.0482991568
 20
-16.3220371662
 11
8.0229734805
 21
-13.4988774229
  0
LINE
  5
4D3
100
AcDbEntity
  8
ASSI
100
AcDbLine
 62
7
  6
CONTINUOUS
 10
7.2205439291
 20
-8.9371532814
 11
7.2205439291
 21
-9.1396901275
  0
LINE
  5
4D4
100
AcDbEntity
  8
RACCORDO
100
AcDbLine
 62
250
  6
CONTINUOUS
 10
7.2950432996
 20
-35.864005486
 11
7.2950432996
 21
-25.5800688463
  0
LINE
  5
4D5
100
AcDbEntity
  8
RACCORDO
100
AcDbLine
 62
250
  6
CONTINUOUS
 10
7.2950432996
 20
-21.0640054802
 11
7.2950432996
 21
-17.3181923397
  0
LINE
  5
4D6
100
AcDbEntity
  8
ASSI
100
AcDbLine
 62
7
  6
CONTINUOUS
 10
7.6436783552
 20
-8.8871641017
 11
7.6436783552
 21
-10.2220371662
  0
LINE
  5
4D7
100
AcDbEntity
  8
RACCORDO
100
AcDbLine
 62
7
  6
CONTINUOUS
 10
7.7950242611
 20
-35.3640054831
 11
7.7950242611
 21
-26.0800688492
  0
LINE
  5
4D8
100
AcDbEntity
  8
RACCORDO
100
AcDbLine
 62
7
  6
CONTINUOUS
 10
7.7950242611
 20
-21.0640054802
 11
7.7950242611
 21
-17.8181161873
  0
LINE
  5
4D9
100
AcDbEntity
  8
DRAFT
100
AcDbLine
 62
7
  6
CONTINUOUS
 10
7.809898014
 20
-26.1557079194
 11
7.809898014
 21
-26.1098186207
  0
LINE
  5
4DA
100
AcDbEntity
  8
DRAFT
100
AcDbLine
 62
7
  6
CONTINUOUS
 10
7.809898014
 20
-35.3220371662
 11
7.809898014
 21
-35.3342557116
  0
LINE
  5
4DB
100
AcDbEntity
  8
RACCORDO
100
AcDbLine
 62
7
  6
CONTINUOUS
 10
7.8430601116
 20
-17.7220371691
 11
7.8430601116
 21
-21.1831847419
  0
LINE
  5
4DC
100
AcDbEntity
  8
DRAFT
100
AcDbLine
 62
7
  6
CONTINUOUS
 10
7.8430601116
 20
-26.2220371662
 11
7.8430601116
 21
-35.2220371662
  0
LINE
  5
4DD
100
AcDbEntity
  8
ASSI
100
AcDbLine
 62
7
  6
CONTINUOUS
 10
7.8500853923
 20
-10.2220371662
 11
7.8500853923
 21
-8.5088587581
  0
LINE
  5
4DE
100
AcDbEntity
  8
DRAFT
100
AcDbLine
 62
7
  6
CONTINUOUS
 10
8.009898014
 20
-13.2220371662
 11
8.009898014
 21
-17.9220371662
  0
LINE
  5
4DF
100
AcDbEntity
  8
RACCORDO
100
AcDbLine
 62
7
  6
CONTINUOUS
 10
8.009898014
 20
-35.3220371662
 11
8.009898014
 21
-26.1220371662
  0
LINE
  5
4E0
100
AcDbEntity
  8
RACCORDO
100
AcDbLine
 62
7
  6
CONTINUOUS
 10
8.009898014
 20
-21.4171321077
 11
8.009898014
 21
-17.9220371662
  0
LINE
  5
4E1
100
AcDbEntity
  8
DRAFT
100
AcDbLine
 62
7
  6
CONTINUOUS
 10
8.0482991568
 20
-17.9220371662
 11
8.0482991568
 21
-16.3220371662
  0
LINE
  5
4E2
100
AcDbEntity
  8
ASSI
100
AcDbLine
 62
7
  6
CONTINUOUS
 10
8.170308014
 20
0.3954508338
 11
8.170308014
 21
1.1604508338
  0
LINE
  5
4E3
100
AcDbEntity
  8
RACCORDO
100
AcDbLine
 62
250
  6
CONTINUOUS
 10
8.2949290728
 20
-22.064005486
 11
8.2949290729
 21
-21.5640816384
  0
LINE
  5
4E4
100
AcDbEntity
  8
ASSI
100
AcDbLine
 62
7
  6
CONTINUOUS
 10
8.3145012258
 20
-9.6234567585
 11
8.3145012258
 21
-9.8195434438
  0
LINE
  5
4E5
100
AcDbEntity
  8
ASSI
100
AcDbLine
 62
7
  6
CONTINUOUS
 10
8.680308014
 20
-1.7592671662
 11
8.680308014
 21
-0.9887407163
  0
LINE
  5
4E6
100
AcDbEntity
  8
ASSI
100
AcDbLine
 62
7
  6
CONTINUOUS
 10
8.680308014
 20
2.5446428338
 11
8.680308014
 21
3.3151688338
  0
LINE
  5
4E7
100
AcDbEntity
  8
ASSI
100
AcDbLine
 62
7
  6
CONTINUOUS
 10
9.0678869113
 20
-8.8636207547
 11
9.0678869113
 21
-9.6234567585
  0
LINE
  5
4E8
100
AcDbEntity
  8
ASSI
100
AcDbLine
 62
7
  6
CONTINUOUS
 10
9.0678869113
 20
-9.8195434438
 11
9.0678869113
 21
-10.2220371662
  0
LINE
  5
4E9
100
AcDbEntity
  8
ASSI
100
AcDbLine
 62
7
  6
CONTINUOUS
 10
9.2742939484
 20
-10.2220371662
 11
9.2742939484
 21
-9.8195434438
  0
LINE
  5
4EA
100
AcDbEntity
  8
ASSI
100
AcDbLine
 62
7
  6
CONTINUOUS
 10
9.2742939484
 20
-9.6234567585
 11
9.2742939484
 21
-8.5191791099
  0
LINE
  5
4EB
100
AcDbEntity
  8
0
100
AcDbLine
 62
7
  6
CONTINUOUS
 10
9.3358188819
 20
-27.7858843265
 11
9.3358188819
 21
-29.0805637298
  0
LINE
  5
4EC
100
AcDbEntity
  8
ASSI
100
AcDbLine
 62
7
  6
CONTINUOUS
 10
9.5013416892
 20
-9.8195434438
 11
9.5013416892
 21
-9.6234567585
  0
LINE
  5
4ED
100
AcDbEntity
  8
0
100
AcDbLine
 62
7
  6
CONTINUOUS
 10
9.5718352746
 20
-29.0805637298
 11
9.5718352746
 21
-28.1010274349
  0
LINE
  5
4EE
100
AcDbEntity
  8
0
100
AcDbLine
 62
7
  6
CONTINUOUS
 10
10.4626947593
 20
-26.8158978878
 11
10.4626947593
 21
-27.5703319965
  0
LINE
  5
4EF
100
AcDbEntity
  8
RACCORDO
100
AcDbLine
 62
7
  6
CONTINUOUS
 10
10.559898014
 20
-43.4463232927
 11
10.559898014
 21
-41.5684021292
  0
LINE
  5
4F0
100
AcDbEntity
  8
0
100
AcDbLine
 62
7
  6
CONTINUOUS
 10
10.7096251797
 20
-27.5703319965
 11
10.7096251797
 21
-26.8158978878
  0
LINE
  5
4F1
100
AcDbEntity
  8
RACCORDO
100
AcDbLine
 62
7
  6
CONTINUOUS
 10
10.7169935983
 20
-41.8626944652
 11
10.7169935983
 21
-43.6034188771
  0
LINE
  5
4F2
100
AcDbEntity
  8
RACCORDO
100
AcDbLine
 62
7
  6
CONTINUOUS
 10
10.809898014
 20
-45.5220676271
 11
10.809898014
 21
-41.8068337376
  0
LINE
  5
4F3
100
AcDbEntity
  8
0
100
AcDbLine
 62
7
  6
CONTINUOUS
 10
11.0738816362
 20
-26.1220371662
 11
11.0738816362
 21
-26.3029374538
  0
LINE
  5
4F4
100
AcDbEntity
  8
0
100
AcDbLine
 62
7
  6
CONTINUOUS
 10
11.0738816362
 20
-30.9141245542
 11
11.0738816362
 21
-31.8950249014
  0
LINE
  5
4F5
100
AcDbEntity
  8
0
100
AcDbLine
 62
7
  6
CONTINUOUS
 10
11.309898014
 20
-32.2360890342
 11
11.309898014
 21
-30.9141245542
  0
LINE
  5
4F6
100
AcDbEntity
  8
0
100
AcDbLine
 62
7
  6
CONTINUOUS
 10
11.309898014
 20
-28.8008911071
 11
11.309898014
 21
-28.5485038219
  0
LINE
  5
4F7
100
AcDbEntity
  8
0
100
AcDbLine
 62
7
  6
CONTINUOUS
 10
11.309898014
 20
-26.6440019069
 11
11.309898014
 21
-26.1220371662
  0
LINE
  5
4F8
100
AcDbEntity
  8
DRAFT
100
AcDbLine
 62
7
  6
CONTINUOUS
 10
11.559898014
 20
-26.1220371662
 11
11.559898014
 21
-34.9220371662
  0
LINE
  5
4F9
100
AcDbEntity
  8
RACCORDO
100
AcDbLine
 62
250
  6
CONTINUOUS
 10
11.809898014
 20
-35.3347946163
 11
11.809898014
 21
-39.3220371662
  0
LINE
  5
4FA
100
AcDbEntity
  8
ASSI
100
AcDbLine
 62
7
  6
CONTINUOUS
 10
10.8070275357
 20
-9.231283388
 11
10.7831616728
 21
-9.4170497214
  0
LINE
  5
4FB
100
AcDbEntity
  8
ASSI
100
AcDbLine
 62
7
  6
CONTINUOUS
 10
4.9603868726
 20
-10.2220371662
 11
5.1398643031
 21
-9.7060195734
  0
LINE
  5
4FC
100
AcDbEntity
  8
ASSI
100
AcDbLine
 62
7
  6
CONTINUOUS
 10
5.2045277996
 20
-9.52025324
 11
5.3885202954
 21
-9.0231025133
  0
LINE
  5
4FD
100
AcDbEntity
  8
ASSI
100
AcDbLine
 62
7
  6
CONTINUOUS
 10
5.3680408497
 20
-8.5191791099
 11
4.720761326
 21
-10.2220371662
  0
LINE
  5
4FE
100
AcDbEntity
  8
ASSI
100
AcDbLine
 62
7
  6
CONTINUOUS
 10
4.1891018687
 20
-8.919253963
 11
3.3194509276
 21
-10.017726325
  0
LINE
  5
4FF
100
AcDbEntity
  8
ASSI
100
AcDbLine
 62
7
  6
CONTINUOUS
 10
33.282626014
 20
6.7542508338
 11
32.442222014
 21
6.7542508338
  0
LINE
  5
500
100
AcDbEntity
  8
ASSI
100
AcDbLine
 62
7
  6
CONTINUOUS
 10
34.097762014
 20
7.6621288338
 11
33.563716014
 21
7.6621288338
  0
LINE
  5
501
100
AcDbEntity
  8
ASSI
100
AcDbLine
 62
7
  6
CONTINUOUS
 10
36.661180014
 20
7.8223428338
 11
35.219258014
 21
7.8223428338
  0
LINE
  5
502
100
AcDbEntity
  8
RACCORDO
100
AcDbLine
 62
250
  6
CONTINUOUS
 10
23.3038463198
 20
-21.5220371662
 11
23.3248669549
 21
-21.5640816384
  0
LINE
  5
503
100
AcDbEntity
  8
RACCORDO
100
AcDbLine
 62
250
  6
CONTINUOUS
 10
23.8037892065
 20
-21.0220371633
 11
23.8247717669
 21
-21.0640054802
  0
LINE
  5
504
100
AcDbEntity
  8
DRAFT
100
AcDbLine
 62
7
  6
CONTINUOUS
 10
23.809898014
 20
-35.3220371662
 11
23.7767359164
 21
-35.2220371662
  0
LWPOLYLINE
  5
505
100
AcDbEntity
  8
0
100
AcDbPolyline
 62
7
  6
CONTINUOUS
 90
18
 70
0
 10
19.4095529578
 20
-27.2757345004
 10
19.4036142047
 20
-27.2171790371
 10
19.3902809349
 20
-27.1586449737
 10
19.3691323783
 20
-27.0996648365
 10
19.3403142248
 20
-27.0416791342
 10
19.3055608568
 20
-26.9875308135
 10
19.266360327
 20
-26.937894442
 10
19.2225402531
 20
-26.8913131713
 10
19.1739474919
 20
-26.8469380667
 10
19.1208106514
 20
-26.8044519381
 10
19.0631716499
 20
-26.7634821687
 10
19.0004055235
 20
-26.7233458975
 10
18.9323461922
 20
-26.6838154072
 10
18.8589062792
 20
-26.6447454357
 10
18.7794888699
 20
-26.6057677672
 10
18.6939109689
 20
-26.5667768698
 10
18.6020036937
 20
-26.5276818185
 10
18.559898014
 20
-26.5108749235
  0
LINE
  5
506
100
AcDbEntity
  8
RACCORDO
100
AcDbLine
 62
250
  6
CONTINUOUS
 10
12.0869959202
 20
-34.9220371662
 11
12.0869959202
 21
-26.2220371662
  0
LINE
  5
507
100
AcDbEntity
  8
CURVE
100
AcDbLine
 62
2
  6
CONTINUOUS
 10
12.209898014
 20
-34.9220371662
 11
12.209898014
 21
-30.2220371662
  0
LINE
  5
508
100
AcDbEntity
  8
RACCORDO
100
AcDbLine
 62
250
  6
CONTINUOUS
 10
12.305990161
 20
-34.7009004681
 11
12.305990161
 21
-34.5432190533
  0
LINE
  5
509
100
AcDbEntity
  8
RACCORDO
100
AcDbLine
 62
250
  6
CONTINUOUS
 10
12.305990161
 20
-34.1005942444
 11
12.305990161
 21
-30.0860893081
  0
LINE
  5
50A
100
AcDbEntity
  8
RACCORDO
100
AcDbLine
 62
250
  6
CONTINUOUS
 10
12.305990161
 20
-29.5008111519
 11
12.305990161
 21
-26.2242960569
  0
LINE
  5
50B
100
AcDbEntity
  8
RACCORDO
100
AcDbLine
 62
7
  6
CONTINUOUS
 10
12.309898014
 20
-38.2497837059
 11
12.309898014
 21
-35.8444272545
  0
LINE
  5
50C
100
AcDbEntity
  8
DRAFT
100
AcDbLine
 62
7
  6
CONTINUOUS
 10
12.659898014
 20
-41.8068337376
 11
12.659898014
 21
-43.2220371662
  0
LINE
  5
50D
100
AcDbEntity
  8
DRAFT
100
AcDbLine
 62
7
  6
CONTINUOUS
 10
13.059898014
 20
-34.5658435623
 11
13.059898014
 21
-34.4818922376
  0
LINE
  5
50E
100
AcDbEntity
  8
DRAFT
100
AcDbLine
 62
7
  6
CONTINUOUS
 10
13.059898014
 20
-33.8722699162
 11
13.059898014
 21
-33.6220371662
  0
LINE
  5
50F
100
AcDbEntity
  8
DRAFT
100
AcDbLine
 62
7
  6
CONTINUOUS
 10
13.059898014
 20
-26.6220371662
 11
13.059898014
 21
-26.1220371662
  0
LINE
  5
510
100
AcDbEntity
  8
ASSI
100
AcDbLine
 62
7
  6
CONTINUOUS
 10
15.872299588
 20
-2.2720371662
 11
15.872299588
 21
-1.2553701349
  0
LINE
  5
511
100
AcDbEntity
  8
ASSI
100
AcDbLine
 62
7
  6
CONTINUOUS
 10
15.872299588
 20
2.8112968956
 11
15.872299588
 21
3.8279628323
  0
LINE
  5
512
100
AcDbEntity
  8
0
100
AcDbLine
 62
7
  6
CONTINUOUS
 10
12.2098990899
 20
-34.3212556345
 11
12.2098994983
 21
-34.3229551742
  0
LINE
  5
513
100
AcDbEntity
  8
0
100
AcDbLine
 62
7
  6
CONTINUOUS
 10
9.8801572274
 20
-26.5976170955
 11
9.9060780954
 21
-26.3452295719
  0
LINE
  5
514
100
AcDbEntity
  8
0
100
AcDbLine
 62
7
  6
CONTINUOUS
 10
9.8801572274
 20
-32.1897043196
 11
9.9060780954
 21
-31.9373168705
  0
LINE
  5
515
100
AcDbEntity
  8
ASSI
100
AcDbLine
 62
7
  6
CONTINUOUS
 10
16.0910476859
 20
-9.231283388
 11
16.067181823
 21
-9.4170497214
  0
LINE
  5
516
100
AcDbEntity
  8
ASSI
100
AcDbLine
 62
7
  6
CONTINUOUS
 10
14.4815808231
 20
1.4046001051
 11
13.9286233127
 21
0.1793569486
  0
LINE
  5
517
100
AcDbEntity
  8
ASSI
100
AcDbLine
 62
7
  6
CONTINUOUS
 10
13.3953984162
 20
-1.0021635584
 11
12.8222995888
 21
-2.2720371662
  0
LINE
  5
518
100
AcDbEntity
  8
ASSI
100
AcDbLine
 62
7
  6
CONTINUOUS
 10
14.560431171
 20
-0.7756215335
 11
14.7909433152
 21
-0.2975103111
  0
LINE
  5
519
100
AcDbEntity
  8
ASSI
100
AcDbLine
 62
7
  6
CONTINUOUS
 10
13.8389655255
 20
-2.2720371662
 11
14.1093530269
 21
-1.7112179333
  0
LINE
  5
51A
100
AcDbEntity
  8
RACCORDO
100
AcDbLine
 62
250
  6
CONTINUOUS
 10
7.2950432996
 20
-17.3181923397
 11
7.3431172248
 21
-17.2220371662
  0
LINE
  5
51B
100
AcDbEntity
  8
RACCORDO
100
AcDbLine
 62
250
  6
CONTINUOUS
 10
7.7950242611
 20
-17.8181161873
 11
7.8430601116
 21
-17.7220371691
  0
LINE
  5
51C
100
AcDbEntity
  8
RACCORDO
100
AcDbLine
 62
250
  6
CONTINUOUS
 10
7.7950242611
 20
-21.0640054802
 11
7.8160068214
 21
-21.0220371633
  0
LINE
  5
51D
100
AcDbEntity
  8
RACCORDO
100
AcDbLine
 62
250
  6
CONTINUOUS
 10
8.2949290731
 20
-21.5640816384
 11
8.3159497082
 21
-21.5220371662
  0
LINE
  5
51E
100
AcDbEntity
  8
ASSI
100
AcDbLine
 62
7
  6
CONTINUOUS
 10
9.1091683187
 20
-8.5191791099
 11
8.3145012258
 21
-9.6234567585
  0
LINE
  5
51F
100
AcDbEntity
  8
ASSI
100
AcDbLine
 62
7
  6
CONTINUOUS
 10
8.5212307788
 20
-9.6234567585
 11
9.0678869113
 21
-8.8636207547
  0
LINE
  5
520
100
AcDbEntity
  8
0
100
AcDbLine
 62
7
  6
CONTINUOUS
 10
30.6010199602
 20
7.4429527801
 11
30.893490014
 21
7.7354228338
  0
LINE
  5
521
100
AcDbEntity
  8
RACCORDO
100
AcDbLine
 62
250
  6
CONTINUOUS
 10
69.6099741664
 20
45.7779628338
 11
69.3427593566
 21
45.510748024
  0
LINE
  5
522
100
AcDbEntity
  8
DRAFT
100
AcDbLine
 62
7
  6
CONTINUOUS
 10
67.8243747096
 20
14.497161943
 11
58.4290971231
 21
14.497161943
  0
LINE
  5
523
100
AcDbEntity
  8
DRAFT
100
AcDbLine
 62
7
  6
CONTINUOUS
 10
-58.2093010951
 20
14.497161943
 11
-67.6045786817
 21
14.497161943
  0
LINE
  5
524
100
AcDbEntity
  8
RACCORDO
100
AcDbLine
 62
7
  6
CONTINUOUS
 10
-58.9921948422
 20
14.7779628338
 11
-66.7880091298
 21
14.7779628338
  0
LINE
  5
525
100
AcDbEntity
  8
RACCORDO
100
AcDbLine
 62
7
  6
CONTINUOUS
 10
59.2119908702
 20
14.7779628338
 11
67.0078051578
 21
14.7779628338
  0
LINE
  5
526
100
AcDbEntity
  8
RACCORDO
100
AcDbLine
 62
250
  6
CONTINUOUS
 10
-67.290101986
 20
15.2799792188
 11
-67.2555014473
 21
15.2799792188
  0
LINE
  5
527
100
AcDbEntity
  8
RACCORDO
100
AcDbLine
 62
250
  6
CONTINUOUS
 10
-58.5247025247
 20
15.2799792188
 11
-58.490101986
 21
15.2799792188
  0
LINE
  5
528
100
AcDbEntity
  8
RACCORDO
100
AcDbLine
 62
250
  6
CONTINUOUS
 10
58.709898014
 20
15.2799792188
 11
58.7444985527
 21
15.2799792188
  0
LINE
  5
529
100
AcDbEntity
  8
RACCORDO
100
AcDbLine
 62
250
  6
CONTINUOUS
 10
67.4752974753
 20
15.2799792188
 11
67.509898014
 21
15.2799792188
  0
LINE
  5
52A
100
AcDbEntity
  8
RACCORDO
100
AcDbLine
 62
250
  6
CONTINUOUS
 10
66.965561407
 20
15.546890403
 11
59.254234621
 21
15.546890403
  0
LINE
  5
52B
100
AcDbEntity
  8
RACCORDO
100
AcDbLine
 62
250
  6
CONTINUOUS
 10
-59.034438593
 20
15.546890403
 11
-66.745765379
 21
15.546890403
  0
LINE
  5
52C
100
AcDbEntity
  8
ASSI
100
AcDbLine
 62
7
  6
CONTINUOUS
 10
22.2734222214
 20
-9.8680813019
 11
22.4965997712
 21
-10.2220371662
  0
LINE
  5
52D
100
AcDbEntity
  8
RACCORDO
100
AcDbLine
 62
250
  6
CONTINUOUS
 10
23.7767359164
 20
-17.7220371691
 11
23.8247717669
 21
-17.8181161873
  0
LINE
  5
52E
100
AcDbEntity
  8
RACCORDO
100
AcDbLine
 62
250
  6
CONTINUOUS
 10
24.2766788032
 20
-17.2220371662
 11
24.3247527284
 21
-17.3181923397
  0
LINE
  5
52F
100
AcDbEntity
  8
ASSI
100
AcDbLine
 62
7
  6
CONTINUOUS
 10
21.0848079205
 20
-10.2220371662
 11
20.4026971502
 21
-8.5191791099
  0
LINE
  5
530
100
AcDbEntity
  8
ASSI
100
AcDbLine
 62
7
  6
CONTINUOUS
 10
20.653449496
 20
-9.7060195734
 11
20.8434083788
 21
-10.2220371662
  0
LINE
  5
531
100
AcDbEntity
  8
ASSI
100
AcDbLine
 62
7
  6
CONTINUOUS
 10
17.9227488036
 20
-8.7771879063
 11
18.4137718853
 21
-10.2220371662
  0
LINE
  5
532
100
AcDbEntity
  8
ASSI
100
AcDbLine
 62
7
  6
CONTINUOUS
 10
18.4450554568
 20
-9.7223063122
 11
18.0417554446
 21
-8.5191791099
  0
LWPOLYLINE
  5
533
100
AcDbEntity
  8
0
100
AcDbPolyline
 62
7
  6
CONTINUOUS
 90
34
 70
0
 10
19.409894232
 20
-32.2946196864
 10
19.4095388976
 20
-32.275375359
 10
19.4035064824
 20
-32.2165276115
 10
19.3900257665
 20
-32.1577746197
 10
19.368699583
 20
-32.0986540172
 10
19.3396970727
 20
-32.0405991141
 10
19.3047727649
 20
-31.9864342218
 10
19.2654370818
 20
-31.9368304252
 10
19.2215241113
 20
-31.8903176685
 10
19.1728667316
 20
-31.8460191061
 10
19.1196976938
 20
-31.8036164872
 10
19.0620670128
 20
-31.7627401177
 10
18.9993307813
 20
-31.7226931195
 10
18.9313235731
 20
-31.6832488321
 10
18.8579609801
 20
-31.6442639602
 10
18.7786193836
 20
-31.6053579953
 10
18.6931070518
 20
-31.5664242357
 10
18.601256306
 20
-31.5273750365
 10
18.5024694198
 20
-31.487961259
 10
18.3965332236
 20
-31.448115158
 10
18.2833419461
 20
-31.4078058928
 10
18.1624868377
 20
-31.366894489
 10
18.0335926152
 20
-31.3252634788
 10
17.8968729296
 20
-31.2829785002
 10
17.7529618233
 20
-31.240202308
 10
17.6015611198
 20
-31.196797648
 10
17.4432514659
 20
-31.1528711455
 10
17.2803468024
 20
-31.1089638872
 10
17.1135440649
 20
-31.06513272
 10
16.9430440864
 20
-31.0212996318
 10
16.7707308131
 20
-30.9778107749
 10
16.5977911703
 20
-30.9348183178
 10
16.4241252523
 20
-30.8921570416
 10
15.5534357494
 20
-30.6815090827
  0
LINE
  5
534
100
AcDbEntity
  8
0
100
AcDbLine
 62
7
  6
CONTINUOUS
 10
19.409894284
 20
-27.2946109284
 11
19.4095529578
 21
-27.2757345004
  0
LWPOLYLINE
  5
535
100
AcDbEntity
  8
0
100
AcDbPolyline
 62
7
  6
CONTINUOUS
 90
38
 70
0
 10
19.4098980009
 20
-34.6220453224
 10
19.4098458117
 20
-34.6165649779
 10
19.4077058216
 20
-34.5864248276
 10
19.4026298316
 20
-34.5571271464
 10
19.3948636662
 20
-34.5288647648
 10
19.3846641454
 20
-34.5019133311
 10
19.3723466948
 20
-34.4766115213
 10
19.3581101347
 20
-34.4530101693
 10
19.3422382389
 20
-34.4313193432
 10
19.3252869705
 20
-34.4119682447
 10
19.3075084983
 20
-34.3948729584
 10
19.289239231
 20
-34.3799435474
 10
19.2712940382
 20
-34.367359695
 10
19.2541068667
 20
-34.3569231519
 10
19.2377639294
 20
-34.3482676189
 10
19.2225674644
 20
-34.3412026976
 10
19.2088859662
 20
-34.3355727366
 10
19.1965682915
 20
-34.3310431548
 10
19.1850840517
 20
-34.3272407765
 10
19.1744334438
 20
-34.3240459758
 10
19.1646505798
 20
-34.321367511
 10
19.1552263441
 20
-34.3189974921
 10
19.1460847363
 20
-34.3168763822
 10
19.1372879404
 20
-34.31498361
 10
19.1285288125
 20
-34.3132280339
 10
19.1197459267
 20
-34.3115827456
 10
19.1109749692
 20
-34.3100416228
 10
19.1020571645
 20
-34.3085670927
 10
19.0929554811
 20
-34.3071470433
 10
19.0836829861
 20
-34.3057782211
 10
19.0741634019
 20
-34.3044451671
 10
19.064383352
 20
-34.3031430528
 10
19.0543402973
 20
-34.3018688999
 10
19.0439808732
 20
-34.3006139414
 10
19.0333004243
 20
-34.2993761925
 10
19.0222914769
 20
-34.298153507
 10
19.010897615
 20
-34.2969388203
 10
18.986910475
 20
-34.2945273497
  0
LINE
  5
536
100
AcDbEntity
  8
ASSI
100
AcDbLine
 62
7
  6
CONTINUOUS
 10
17.6957010628
 20
-8.5191791099
 11
17.6957010628
 21
-10.2220371662
  0
LINE
  5
537
100
AcDbEntity
  8
ASSI
100
AcDbLine
 62
7
  6
CONTINUOUS
 10
17.9227488036
 20
-10.2220371662
 11
17.9227488036
 21
-8.7771879063
  0
LINE
  5
538
100
AcDbEntity
  8
DRAFT
100
AcDbLine
 62
7
  6
CONTINUOUS
 10
18.559898014
 20
-26.1220371662
 11
18.559898014
 21
-26.6220371662
  0
LINE
  5
539
100
AcDbEntity
  8
DRAFT
100
AcDbLine
 62
7
  6
CONTINUOUS
 10
18.559898014
 20
-33.6220371662
 11
18.559898014
 21
-34.3776888372
  0
LINE
  5
53A
100
AcDbEntity
  8
DRAFT
100
AcDbLine
 62
7
  6
CONTINUOUS
 10
18.959898014
 20
-43.2220371662
 11
18.959898014
 21
-41.8068337376
  0
LINE
  5
53B
100
AcDbEntity
  8
ASSI
100
AcDbLine
 62
7
  6
CONTINUOUS
 10
19.109589267
 20
-8.7978286101
 11
19.109589267
 21
-10.2220371662
  0
LINE
  5
53C
100
AcDbEntity
  8
RACCORDO
100
AcDbLine
 62
7
  6
CONTINUOUS
 10
19.309898014
 20
-35.8444272545
 11
19.309898014
 21
-38.2497837059
  0
LINE
  5
53D
100
AcDbEntity
  8
RACCORDO
100
AcDbLine
 62
250
  6
CONTINUOUS
 10
19.313805867
 20
-34.4009283336
 11
19.313805867
 21
-32.5870198533
  0
LINE
  5
53E
100
AcDbEntity
  8
RACCORDO
100
AcDbLine
 62
250
  6
CONTINUOUS
 10
19.313805867
 20
-32.0004438624
 11
19.313805867
 21
-27.5867276946
  0
LINE
  5
53F
100
AcDbEntity
  8
ASSI
100
AcDbLine
 62
7
  6
CONTINUOUS
 10
19.3366370079
 20
-10.2220371662
 11
19.3366370079
 21
-8.5191791099
  0
LINE
  5
540
100
AcDbEntity
  8
CURVE
100
AcDbLine
 62
250
  6
CONTINUOUS
 10
19.409898014
 20
-34.9220371662
 11
19.409898014
 21
-26.2220371662
  0
LINE
  5
541
100
AcDbEntity
  8
RACCORDO
100
AcDbLine
 62
250
  6
CONTINUOUS
 10
19.809898014
 20
-35.3347946163
 11
19.809898014
 21
-39.3220371662
  0
LINE
  5
542
100
AcDbEntity
  8
RACCORDO
100
AcDbLine
 62
7
  6
CONTINUOUS
 10
20.809898014
 20
-45.5220676271
 11
20.809898014
 21
-41.8068337376
  0
LINE
  5
543
100
AcDbEntity
  8
RACCORDO
100
AcDbLine
 62
7
  6
CONTINUOUS
 10
20.9028024296
 20
-43.6034188771
 11
20.9028024296
 21
-41.8626944652
  0
LINE
  5
544
100
AcDbEntity
  8
RACCORDO
100
AcDbLine
 62
7
  6
CONTINUOUS
 10
21.059898014
 20
-41.5684021292
 11
21.059898014
 21
-43.4463232927
  0
LINE
  5
545
100
AcDbEntity
  8
ASSI
100
AcDbLine
 62
7
  6
CONTINUOUS
 10
21.2871835086
 20
-8.5191791099
 11
21.2871835086
 21
-10.2220371662
  0
LINE
  5
546
100
AcDbEntity
  8
ASSI
100
AcDbLine
 62
7
  6
CONTINUOUS
 10
21.5142312494
 20
-10.2220371662
 11
21.5142312494
 21
-9.4686514807
  0
LINE
  5
547
100
AcDbEntity
  8
ASSI
100
AcDbLine
 62
7
  6
CONTINUOUS
 10
21.5142312494
 20
-9.2725647954
 11
21.5142312494
 21
-8.7152657952
  0
LINE
  5
548
100
AcDbEntity
  8
0
100
AcDbLine
 62
7
  6
CONTINUOUS
 10
19.4097738848
 20
-32.3040475802
 11
19.4098803572
 21
-32.2938682491
  0
LINE
  5
549
100
AcDbEntity
  8
0
100
AcDbLine
 62
7
  6
CONTINUOUS
 10
19.4096776126
 20
-27.3075930402
 11
19.4098757056
 21
-27.2935834867
  0
LINE
  5
54A
100
AcDbEntity
  8
DRAFT
100
AcDbLine
 62
7
  6
CONTINUOUS
 10
7.809898014
 20
-35.3220371662
 11
7.8430601116
 21
-35.2220371662
  0
LINE
  5
54B
100
AcDbEntity
  8
ASSI
100
AcDbLine
 62
7
  6
CONTINUOUS
 10
19.7494510821
 20
-10.2220371662
 11
19.9289285126
 21
-9.7060195734
  0
LWPOLYLINE
  5
54C
100
AcDbEntity
  8
0
100
AcDbPolyline
 62
7
  6
CONTINUOUS
 90
6
 70
0
 10
12.8057875213
 20
-29.8184336169
 10
12.8055372795
 20
-29.8191467138
 10
12.8039959905
 20
-29.8231103868
 10
12.8045867956
 20
-29.8225824891
 10
12.80984575
 20
-29.8158112913
 10
12.8221487684
 20
-29.8024191459
  0
LINE
  5
54D
100
AcDbEntity
  8
ASSI
100
AcDbLine
 62
7
  6
CONTINUOUS
 10
18.6069559273
 20
-10.2220371662
 11
19.109589267
 21
-8.7978286101
  0
LINE
  5
54E
100
AcDbEntity
  8
ASSI
100
AcDbLine
 62
7
  6
CONTINUOUS
 10
19.041216995
 20
-8.5191791099
 11
18.6200176644
 21
-9.7013430926
  0
LINE
  5
54F
100
AcDbEntity
  8
ASSI
100
AcDbLine
 62
7
  6
CONTINUOUS
 10
19.993592009
 20
-9.52025324
 11
20.1775845049
 21
-9.0231025133
  0
LINE
  5
550
100
AcDbEntity
  8
ASSI
100
AcDbLine
 62
7
  6
CONTINUOUS
 10
20.1571050591
 20
-8.5191791099
 11
19.5098255355
 21
-10.2220371662
  0
LINE
  5
551
100
AcDbEntity
  8
RACCORDO
100
AcDbLine
 62
7
  6
CONTINUOUS
 10
7.7949861863
 20
-35.3640816384
 11
7.809898014
 21
-35.3342557116
  0
LINE
  5
552
100
AcDbEntity
  8
RACCORDO
100
AcDbLine
 62
250
  6
CONTINUOUS
 10
70.109898014
 20
45.2780389863
 11
69.8426832041
 21
45.0108241764
  0
LINE
  5
553
100
AcDbEntity
  8
RACCORDO
100
AcDbLine
 62
250
  6
CONTINUOUS
 10
-66.7201606751
 20
18.7209871511
 11
-59.0600432969
 21
18.7209871511
  0
LINE
  5
554
100
AcDbEntity
  8
RACCORDO
100
AcDbLine
 62
250
  6
CONTINUOUS
 10
59.2798393249
 20
18.7209871511
 11
66.9399567031
 21
18.7209871511
  0
LINE
  5
555
100
AcDbEntity
  8
RACCORDO
100
AcDbLine
 62
7
  6
CONTINUOUS
 10
-69.2191185021
 20
18.7779628338
 11
-67.6045786817
 21
18.7779628338
  0
LINE
  5
556
100
AcDbEntity
  8
DRAFT
100
AcDbLine
 62
7
  6
CONTINUOUS
 10
-58.2093010951
 20
18.7779628338
 11
58.4290971231
 21
18.7779628338
  0
LINE
  5
557
100
AcDbEntity
  8
RACCORDO
100
AcDbLine
 62
7
  6
CONTINUOUS
 10
67.8243747096
 20
18.7779628338
 11
69.4389145301
 21
18.7779628338
  0
LINE
  5
558
100
AcDbEntity
  8
DRAFT
100
AcDbLine
 62
7
  6
CONTINUOUS
 10
67.8217566493
 20
18.7831993533
 11
67.509898014
 21
18.7831993533
  0
LINE
  5
559
100
AcDbEntity
  8
DRAFT
100
AcDbLine
 62
7
  6
CONTINUOUS
 10
58.709898014
 20
18.7831993533
 11
58.4317151835
 21
18.7831993533
  0
LINE
  5
55A
100
AcDbEntity
  8
DRAFT
100
AcDbLine
 62
7
  6
CONTINUOUS
 10
-58.2119191555
 20
18.7831993533
 11
-58.490101986
 21
18.7831993533
  0
LINE
  5
55B
100
AcDbEntity
  8
DRAFT
100
AcDbLine
 62
7
  6
CONTINUOUS
 10
-67.290101986
 20
18.7831993533
 11
-67.6019606213
 21
18.7831993533
  0
LINE
  5
55C
100
AcDbEntity
  8
RACCORDO
100
AcDbLine
 62
250
  6
CONTINUOUS
 10
-66.8347936682
 20
18.8365233665
 11
-58.9454103038
 21
18.8365233665
  0
LINE
  5
55D
100
AcDbEntity
  8
RACCORDO
100
AcDbLine
 62
250
  6
CONTINUOUS
 10
59.1652063318
 20
18.8365233665
 11
67.0545896962
 21
18.8365233665
  0
LINE
  5
55E
100
AcDbEntity
  8
RACCORDO
100
AcDbLine
 62
250
  6
CONTINUOUS
 10
-69.1229633286
 20
18.8741180074
 11
-67.2199370113
 21
18.8741180074
  0
LINE
  5
55F
100
AcDbEntity
  8
RACCORDO
100
AcDbLine
 62
250
  6
CONTINUOUS
 10
69.3427593566
 20
18.8741180074
 11
67.4397330393
 21
18.8741180074
  0
LINE
  5
560
100
AcDbEntity
  8
RACCORDO
100
AcDbLine
 62
250
  6
CONTINUOUS
 10
58.7800629887
 20
18.8741180074
 11
-58.5602669607
 21
18.8741180074
  0
LINE
  5
561
100
AcDbEntity
  8
RACCORDO
100
AcDbLine
 62
250
  6
CONTINUOUS
 10
-69.6228871762
 20
19.374041855
 11
-67.059784177
 21
19.374041855
  0
LINE
  5
562
100
AcDbEntity
  8
RACCORDO
100
AcDbLine
 62
250
  6
CONTINUOUS
 10
-58.720419795
 20
19.374041855
 11
58.940215823
 21
19.374041855
  0
LINE
  5
563
100
AcDbEntity
  8
RACCORDO
100
AcDbLine
 62
250
  6
CONTINUOUS
 10
67.279580205
 20
19.374041855
 11
69.8426832041
 21
19.374041855
  0
LINE
  5
564
100
AcDbEntity
  8
RACCORDO
100
AcDbLine
 62
250
  6
CONTINUOUS
 10
69.3427593566
 20
-43.9548223563
 11
69.6099741664
 21
-44.2220371662
  0
LINE
  5
565
100
AcDbEntity
  8
RACCORDO
100
AcDbLine
 62
250
  6
CONTINUOUS
 10
69.8426832041
 20
-43.4548985087
 11
70.109898014
 21
-43.7221133186
  0
LINE
  5
566
100
AcDbEntity
  8
0
100
AcDbLine
 62
7
  6
CONTINUOUS
 10
31.0349113702
 20
-2.3209185224
 11
30.742438014
 21
-2.0284451662
  0
LINE
  5
567
100
AcDbEntity
  8
RACCORDO
100
AcDbLine
 62
250
  6
CONTINUOUS
 10
23.3248669551
 20
-21.5640816384
 11
23.3248669552
 21
-22.064005486
  0
LINE
  5
568
100
AcDbEntity
  8
DRAFT
100
AcDbLine
 62
7
  6
CONTINUOUS
 10
23.5714968711
 20
-17.9220371662
 11
23.5714968711
 21
-16.3220371662
  0
LINE
  5
569
100
AcDbEntity
  8
DRAFT
100
AcDbLine
 62
7
  6
CONTINUOUS
 10
23.609898014
 20
-13.2220371662
 11
23.609898014
 21
-17.9220371662
  0
LINE
  5
56A
100
AcDbEntity
  8
RACCORDO
100
AcDbLine
 62
7
  6
CONTINUOUS
 10
23.609898014
 20
-35.3220371662
 11
23.609898014
 21
-26.1220371662
  0
LINE
  5
56B
100
AcDbEntity
  8
RACCORDO
100
AcDbLine
 62
7
  6
CONTINUOUS
 10
23.609898014
 20
-21.4171321077
 11
23.609898014
 21
-17.9220371662
  0
LINE
  5
56C
100
AcDbEntity
  8
RACCORDO
100
AcDbLine
 62
7
  6
CONTINUOUS
 10
23.7767359164
 20
-17.7220371691
 11
23.7767359164
 21
-21.1831847419
  0
LINE
  5
56D
100
AcDbEntity
  8
DRAFT
100
AcDbLine
 62
7
  6
CONTINUOUS
 10
23.7767359164
 20
-26.2220371662
 11
23.7767359164
 21
-35.2220371662
  0
LINE
  5
56E
100
AcDbEntity
  8
DRAFT
100
AcDbLine
 62
7
  6
CONTINUOUS
 10
23.809898014
 20
-26.1557079194
 11
23.809898014
 21
-26.1098186207
  0
LINE
  5
56F
100
AcDbEntity
  8
DRAFT
100
AcDbLine
 62
7
  6
CONTINUOUS
 10
23.809898014
 20
-35.3220371662
 11
23.809898014
 21
-35.3342557116
  0
LINE
  5
570
100
AcDbEntity
  8
RACCORDO
100
AcDbLine
 62
7
  6
CONTINUOUS
 10
23.8247717669
 20
-17.8181161873
 11
23.8247717669
 21
-21.0640054802
  0
LINE
  5
571
100
AcDbEntity
  8
RACCORDO
100
AcDbLine
 62
7
  6
CONTINUOUS
 10
23.8247717669
 20
-26.0800688492
 11
23.8247717669
 21
-35.3640054831
  0
LINE
  5
572
100
AcDbEntity
  8
RACCORDO
100
AcDbLine
 62
250
  6
CONTINUOUS
 10
24.3247527284
 20
-21.0640054802
 11
24.3247527284
 21
-17.3181923397
  0
LINE
  5
573
100
AcDbEntity
  8
RACCORDO
100
AcDbLine
 62
250
  6
CONTINUOUS
 10
24.3247527284
 20
-25.5800688463
 11
24.3247527284
 21
-35.864005486
  0
LINE
  5
574
100
AcDbEntity
  8
ASSI
100
AcDbLine
 62
7
  6
CONTINUOUS
 10
26.2925541587
 20
-8.5191791099
 11
26.2925541587
 21
-8.7152657952
  0
LINE
  5
575
100
AcDbEntity
  8
ASSI
100
AcDbLine
 62
7
  6
CONTINUOUS
 10
26.8498531589
 20
-8.7152657952
 11
26.8498531589
 21
-10.2220371662
  0
LINE
  5
576
100
AcDbEntity
  8
ASSI
100
AcDbLine
 62
7
  6
CONTINUOUS
 10
27.0769008998
 20
-10.2220371662
 11
27.0769008998
 21
-8.7152657952
  0
LINE
  5
577
100
AcDbEntity
  8
ASSI
100
AcDbLine
 62
7
  6
CONTINUOUS
 10
27.6341999
 20
-8.7152657952
 11
27.6341999
 21
-8.5191791099
  0
LINE
  5
578
100
AcDbEntity
  8
ASSI
100
AcDbLine
 62
7
  6
CONTINUOUS
 10
27.8922086964
 20
-8.5191791099
 11
27.8922086964
 21
-10.2220371662
  0
LINE
  5
579
100
AcDbEntity
  8
ASSI
100
AcDbLine
 62
7
  6
CONTINUOUS
 10
28.1192564372
 20
-10.2220371662
 11
28.1192564372
 21
-8.5191791099
  0
LINE
  5
57A
100
AcDbEntity
  8
RACCORDO
100
AcDbLine
 62
7
  6
CONTINUOUS
 10
23.5714968711
 20
-16.3220371662
 11
23.5968225475
 21
-13.4988774229
  0
LWPOLYLINE
  5
57B
100
AcDbEntity
  8
0
100
AcDbPolyline
 62
7
  6
CONTINUOUS
 90
6
 70
0
 10
18.8143090935
 20
-27.2676428543
 10
18.8145728213
 20
-27.2669240709
 10
18.816132009
 20
-27.2631566736
 10
18.8157346461
 20
-27.2635688694
 10
18.8115240872
 20
-27.2691970523
 10
18.8016605849
 20
-27.2803843953
  0
LINE
  5
57C
100
AcDbEntity
  8
0
100
AcDbLine
 62
7
  6
CONTINUOUS
 10
35.4074272496
 20
2.6365422393
 11
34.0680391931
 21
1.2971557912
  0
LINE
  5
57D
100
AcDbEntity
  8
ASSI
100
AcDbLine
 62
7
  6
CONTINUOUS
 10
33.784838014
 20
1.0139528338
 11
30.742438014
 21
-2.0284451662
  0
LINE
  5
57E
100
AcDbEntity
  8
0
100
AcDbLine
 62
7
  6
CONTINUOUS
 10
37.569056014
 20
4.7981728338
 11
37.4978980901
 21
4.7270148338
  0
LINE
  5
57F
100
AcDbEntity
  8
ASSI
100
AcDbLine
 62
7
  6
CONTINUOUS
 10
40.506306014
 20
7.7354228338
 11
38.670664014
 21
5.8997788338
  0
LINE
  5
580
100
AcDbEntity
  8
0
100
AcDbLine
 62
7
  6
CONTINUOUS
 10
31.0349113702
 20
-2.3209185224
 11
33.8318968482
 21
0.4760650635
  0
LINE
  5
581
100
AcDbEntity
  8
0
100
AcDbLine
 62
7
  6
CONTINUOUS
 10
34.1150981752
 20
0.759266199
 11
35.6999011697
 21
2.3440681214
  0
LINE
  5
582
100
AcDbEntity
  8
0
100
AcDbLine
 62
7
  6
CONTINUOUS
 10
35.992372047
 20
2.6365388008
 11
37.5398707375
 21
4.1840364445
  0
LINE
  5
583
100
AcDbEntity
  8
0
100
AcDbLine
 62
7
  6
CONTINUOUS
 10
37.8773806989
 20
4.5215461775
 11
38.0807134927
 21
4.7248788338
  0
LINE
  5
584
100
AcDbEntity
  8
0
100
AcDbLine
 62
7
  6
CONTINUOUS
 10
38.850766014
 20
5.4949308342
 11
40.7987826727
 21
7.4429461751
  0
LINE
  5
585
100
AcDbEntity
  8
RACCORDO
100
AcDbLine
 62
7
  6
CONTINUOUS
 10
23.6044326413
 20
-13.2275025388
 11
23.609898014
 21
-13.2220371662
  0
LINE
  5
586
100
AcDbEntity
  8
0
100
AcDbLine
 62
7
  6
CONTINUOUS
 10
32.109898014
 20
23.7779628338
 11
34.609898014
 21
23.7779628338
  0
LINE
  5
587
100
AcDbEntity
  8
0
100
AcDbLine
 62
7
  6
CONTINUOUS
 10
37.109898014
 20
23.7779628338
 11
39.609898014
 21
23.7779628338
  0
LINE
  5
588
100
AcDbEntity
  8
0
100
AcDbLine
 62
7
  6
CONTINUOUS
 10
42.109898014
 20
23.7779628338
 11
44.609898014
 21
23.7779628338
  0
LINE
  5
589
100
AcDbEntity
  8
0
100
AcDbLine
 62
7
  6
CONTINUOUS
 10
47.109898014
 20
23.7779628338
 11
49.609898014
 21
23.7779628338
  0
LINE
  5
58A
100
AcDbEntity
  8
0
100
AcDbLine
 62
7
  6
CONTINUOUS
 10
52.109898014
 20
23.7779628338
 11
54.609898014
 21
23.7779628338
  0
LINE
  5
58B
100
AcDbEntity
  8
IMPORT_IGES
100
AcDbLine
 62
7
  6
CONTINUOUS
 10
54.609898014
 20
26.6779628338
 11
52.609898014
 21
26.6779628338
  0
LINE
  5
58C
100
AcDbEntity
  8
0
100
AcDbLine
 62
7
  6
CONTINUOUS
 10
30.6010199602
 20
7.4429527801
 11
33.4736998717
 21
4.5702709254
  0
LINE
  5
58D
100
AcDbEntity
  8
0
100
AcDbLine
 62
7
  6
CONTINUOUS
 10
33.8112083233
 20
4.2327622454
 11
35.4074272496
 21
2.6365422393
  0
LINE
  5
58E
100
AcDbEntity
  8
0
100
AcDbLine
 62
7
  6
CONTINUOUS
 10
35.6999011697
 20
2.3440681214
 11
37.243818784
 21
0.8001494626
  0
LINE
  5
58F
100
AcDbEntity
  8
0
100
AcDbLine
 62
7
  6
CONTINUOUS
 10
37.5270235088
 20
0.5169445463
 11
40.3648846578
 21
-2.3209185224
  0
LINE
  5
590
100
AcDbEntity
  8
ASSI
100
AcDbLine
 62
7
  6
CONTINUOUS
 10
40.657358014
 20
-2.0284451662
 11
37.574082014
 21
1.0548288338
  0
LINE
  5
591
100
AcDbEntity
  8
0
100
AcDbLine
 62
7
  6
CONTINUOUS
 10
37.290877554
 20
1.3380332939
 11
35.992372047
 21
2.6365388008
  0
LINE
  5
592
100
AcDbEntity
  8
0
100
AcDbLine
 62
7
  6
CONTINUOUS
 10
33.901896014
 20
4.7270148338
 11
33.755126462
 21
4.8737843858
  0
LINE
  5
593
100
AcDbEntity
  8
ASSI
100
AcDbLine
 62
7
  6
CONTINUOUS
 10
33.417618014
 20
5.2112948338
 11
30.893490014
 21
7.7354228338
  0
LINE
  5
594
100
AcDbEntity
  8
ASSI
100
AcDbLine
 62
7
  6
CONTINUOUS
 10
31.6218871653
 20
-10.2220371662
 11
30.9397763951
 21
-8.5191791099
  0
LINE
  5
595
100
AcDbEntity
  8
ASSI
100
AcDbLine
 62
7
  6
CONTINUOUS
 10
32.3156083511
 20
-8.5191791099
 11
32.9703055833
 21
-10.2220371662
  0
LINE
  5
596
100
AcDbEntity
  8
ASSI
100
AcDbLine
 62
7
  6
CONTINUOUS
 10
31.1905287408
 20
-9.7060195734
 11
31.3804876236
 21
-10.2220371662
  0
LINE
  5
597
100
AcDbEntity
  8
ASSI
100
AcDbLine
 62
7
  6
CONTINUOUS
 10
32.9991704429
 20
-9.7531061098
 11
32.5570077352
 21
-8.5191791099
  0
LINE
  5
598
100
AcDbEntity
  8
0
100
AcDbLine
 62
7
  6
CONTINUOUS
 10
33.4736998717
 20
4.5702709254
 11
33.784838014
 21
1.0139528338
  0
LINE
  5
599
100
AcDbEntity
  8
ASSI
100
AcDbLine
 62
7
  6
CONTINUOUS
 10
33.2502501424
 20
7.1243073667
 11
33.282626014
 21
6.7542508338
  0
LINE
  5
59A
100
AcDbEntity
  8
ASSI
100
AcDbLine
 62
7
  6
CONTINUOUS
 10
33.320004014
 20
6.3270148338
 11
33.417618014
 21
5.2112948338
  0
LINE
  5
59B
100
AcDbEntity
  8
0
100
AcDbLine
 62
7
  6
CONTINUOUS
 10
33.8318968482
 20
0.4760650635
 11
33.950764014
 21
-0.8825971662
  0
LINE
  5
59C
100
AcDbEntity
  8
0
100
AcDbLine
 62
7
  6
CONTINUOUS
 10
34.2318997411
 20
-0.5757891662
 11
34.1150981752
 21
0.759266199
  0
LINE
  5
59D
100
AcDbEntity
  8
0
100
AcDbLine
 62
7
  6
CONTINUOUS
 10
34.0680391931
 20
1.2971557912
 11
33.8112083233
 21
4.2327622454
  0
LINE
  5
59E
100
AcDbEntity
  8
0
100
AcDbLine
 62
7
  6
CONTINUOUS
 10
33.755126462
 20
4.8737843858
 11
33.6454836094
 21
6.1270148338
  0
LINE
  5
59F
100
AcDbEntity
  8
0
100
AcDbLine
 62
7
  6
CONTINUOUS
 10
32.109898014
 20
40.7779628338
 11
32.109898014
 21
23.7779628338
  0
LINE
  5
5A0
100
AcDbEntity
  8
0
100
AcDbLine
 62
7
  6
CONTINUOUS
 10
32.109898014
 20
-22.2220371662
 11
32.109898014
 21
-39.2220371662
  0
LINE
  5
5A1
100
AcDbEntity
  8
0
100
AcDbLine
 62
7
  6
CONTINUOUS
 10
32.199898014
 20
-4.0220371662
 11
32.199898014
 21
-6.0220371662
  0
LINE
  5
5A2
100
AcDbEntity
  8
IMPORT_IGES
100
AcDbLine
 62
7
  6
CONTINUOUS
 10
32.309898014
 20
36.2779628338
 11
32.309898014
 21
37.2779628338
  0
LINE
  5
5A3
100
AcDbEntity
  8
ASSI
100
AcDbLine
 62
7
  6
CONTINUOUS
 10
32.442222014
 20
6.7542508338
 11
32.442222014
 21
6.3270148338
  0
LINE
  5
5A4
100
AcDbEntity
  8
IMPORT_IGES
100
AcDbLine
 62
7
  6
CONTINUOUS
 10
33.309898014
 20
37.2779628338
 11
33.309898014
 21
36.2779628338
  0
LINE
  5
5A5
100
AcDbEntity
  8
ASSI
100
AcDbLine
 62
7
  6
CONTINUOUS
 10
33.563716014
 20
7.6621288338
 11
33.563716014
 21
7.2439868338
  0
LINE
  5
5A6
100
AcDbEntity
  8
ASSI
100
AcDbLine
 62
7
  6
CONTINUOUS
 10
33.950764014
 20
-0.8825971662
 11
33.950764014
 21
-1.7370711662
  0
LINE
  5
5A7
100
AcDbEntity
  8
RACCORDO
100
AcDbLine
 62
7
  6
CONTINUOUS
 10
33.9714968711
 20
-39.2220371662
 11
33.9714968711
 21
-36.1336055624
  0
LINE
  5
5A8
100
AcDbEntity
  8
RACCORDO
100
AcDbLine
 62
7
  6
CONTINUOUS
 10
33.9714968711
 20
37.68953123
 11
33.9714968711
 21
40.7779628338
  0
LINE
  5
5A9
100
AcDbEntity
  8
ASSI
100
AcDbLine
 62
7
  6
CONTINUOUS
 10
34.0844198099
 20
-8.5191791099
 11
34.0844198099
 21
-10.2220371662
  0
LINE
  5
5AA
100
AcDbEntity
  8
ASSI
100
AcDbLine
 62
7
  6
CONTINUOUS
 10
34.097762014
 20
7.4005345238
 11
34.097762014
 21
7.6621288338
  0
LINE
  5
5AB
100
AcDbEntity
  8
0
100
AcDbLine
 62
7
  6
CONTINUOUS
 10
34.160978014
 20
-1.5268571662
 11
34.160978014
 21
-0.9860031662
  0
LINE
  5
5AC
100
AcDbEntity
  8
ASSI
100
AcDbLine
 62
7
  6
CONTINUOUS
 10
30.2865303269
 20
-10.2220371662
 11
30.4660077574
 21
-9.7060195734
  0
LWPOLYLINE
  5
5AD
100
AcDbEntity
  8
0
100
AcDbPolyline
 62
7
  6
CONTINUOUS
 90
29
 70
0
 10
18.8141755348
 20
-32.2680168725
 10
18.8146358585
 20
-32.2667568638
 10
18.8161533214
 20
-32.2631097954
 10
18.8156444452
 20
-32.2637025752
 10
18.8112686101
 20
-32.2695149381
 10
18.8011953891
 20
-32.2808733187
 10
18.7848760065
 20
-32.296640515
 10
18.762127337
 20
-32.3157647693
 10
18.7322233886
 20
-32.3379589959
 10
18.6944885998
 20
-32.3629783048
 10
18.6491400045
 20
-32.3901257029
 10
18.5958686207
 20
-32.4191936489
 10
18.5344017493
 20
-32.4500080197
 10
18.4653249728
 20
-32.4820540239
 10
18.3887243946
 20
-32.5151605594
 10
18.3044210211
 20
-32.5493033403
 10
18.2127146692
 20
-32.5842896363
 10
18.1136899972
 20
-32.6200482673
 10
18.0073448782
 20
-32.6565572822
 10
17.8938413893
 20
-32.6937534621
 10
17.7731851849
 20
-32.7316403608
 10
17.6455920743
 20
-32.7701674858
 10
17.5115688103
 20
-32.809217344
 10
17.371287088
 20
-32.8487894184
 10
17.225042872
 20
-32.8888582375
 10
17.0736149096
 20
-32.9292823397
 10
16.9173513269
 20
-32.9700522278
 10
16.7566135072
 20
-33.0111625578
 10
16.5922798025
 20
-33.0524859693
  0
LINE
  5
5AE
100
AcDbEntity
  8
ASSI
100
AcDbLine
 62
7
  6
CONTINUOUS
 10
30.5306712539
 20
-9.52025324
 11
30.7146637497
 21
-9.0231025133
  0
LINE
  5
5AF
100
AcDbEntity
  8
ASSI
100
AcDbLine
 62
7
  6
CONTINUOUS
 10
30.694184304
 20
-8.5191791099
 11
30.0469047803
 21
-10.2220371662
  0
LINE
  5
5B0
100
AcDbEntity
  8
RACCORDO
100
AcDbLine
 62
7
  6
CONTINUOUS
 10
23.8248098417
 20
-26.0799926939
 11
23.809898014
 21
-26.1098186207
  0
LINE
  5
5B1
100
AcDbEntity
  8
DRAFT
100
AcDbLine
 62
7
  6
CONTINUOUS
 10
23.7767359164
 20
-26.2220371662
 11
23.809898014
 21
-26.1557079194
  0
LINE
  5
5B2
100
AcDbEntity
  8
RACCORDO
100
AcDbLine
 62
7
  6
CONTINUOUS
 10
58.7800629887
 20
18.8741180074
 11
58.709898014
 21
18.8022990371
  0
LINE
  5
5B3
100
AcDbEntity
  8
0
100
AcDbLine
 62
7
  6
CONTINUOUS
 10
40.657358014
 20
-2.0284451662
 11
40.3648846578
 21
-2.3209185224
  0
LINE
  5
5B4
100
AcDbEntity
  8
0
100
AcDbLine
 62
7
  6
CONTINUOUS
 10
18.8016605849
 20
-27.2803843953
 11
18.7855919777
 21
-27.2959925996
  0
LINE
  5
5B5
100
AcDbEntity
  8
0
100
AcDbLine
 62
7
  6
CONTINUOUS
 10
12.8221487684
 20
-29.8024191459
 11
12.8420239386
 21
-29.7840401715
  0
LWPOLYLINE
  5
5B6
100
AcDbEntity
  8
0
100
AcDbPolyline
 62
7
  6
CONTINUOUS
 90
23
 70
0
 10
18.7855919777
 20
-27.2959925996
 10
18.7631179163
 20
-27.3149797412
 10
18.7334917205
 20
-27.3370667916
 10
18.6960401886
 20
-27.3619988379
 10
18.651013608
 20
-27.3890529026
 10
18.5981266707
 20
-27.4180106189
 10
18.5371017191
 20
-27.4487041156
 10
18.4685278017
 20
-27.4806179449
 10
18.3925582189
 20
-27.513554386
 10
18.3089665977
 20
-27.5475142637
 10
18.2178423578
 20
-27.5823840656
 10
18.1192199058
 20
-27.6180989992
 10
18.0130786533
 20
-27.6546321637
 10
17.8993533134
 20
-27.6919838664
 10
17.7777927175
 20
-27.7302207552
 10
17.6487499582
 20
-27.7692304101
 10
17.513126515
 20
-27.8087704628
 10
17.3710415641
 20
-27.8488572407
 10
17.2228621433
 20
-27.8894472381
 10
17.0700565603
 20
-27.9302203889
 10
16.9133060896
 20
-27.9710961176
 10
16.7527631499
 20
-28.0121380579
 10
16.589216131
 20
-28.0532502478
  0
LWPOLYLINE
  5
5B7
100
AcDbEntity
  8
0
100
AcDbPolyline
 62
7
  6
CONTINUOUS
 90
22
 70
0
 10
12.8420239386
 20
-29.7840401715
 10
12.8692545407
 20
-29.762251468
 10
12.9042581939
 20
-29.7375754789
 10
12.9477682286
 20
-29.7101783052
 10
12.9996642213
 20
-29.6806604347
 10
13.0603272834
 20
-29.6491911847
 10
13.1299497589
 20
-29.6159858017
 10
13.2079813966
 20
-29.581518702
 10
13.2944499995
 20
-29.5459085064
 10
13.3894299573
 20
-29.5092241046
 10
13.492302209
 20
-29.471758128
 10
13.6029411196
 20
-29.4335693264
 10
13.7212458829
 20
-29.3946895119
 10
13.8465261061
 20
-29.3553175783
 10
13.9785296628
 20
-29.3154826527
 10
14.1170046299
 20
-29.2752018226
 10
14.2611653321
 20
-29.2346299049
 10
14.4106374553
 20
-29.1937856296
 10
14.5650645857
 20
-29.1526751155
 10
14.7236143467
 20
-29.1114206829
 10
14.8856986381
 20
-29.0700683392
 10
15.0510178665
 20
-29.0285857759
  0
LINE
  5
5B8
100
AcDbEntity
  8
IMPORT_IGES
100
AcDbLine
 62
7
  6
CONTINUOUS
 10
52.609898014
 20
28.6779628338
 11
54.609898014
 21
28.6779628338
  0
LINE
  5
5B9
100
AcDbEntity
  8
0
100
AcDbLine
 62
7
  6
CONTINUOUS
 10
40.506306014
 20
7.7354228338
 11
40.7987826727
 21
7.4429461751
  0
LINE
  5
5BA
100
AcDbEntity
  8
ASSI
100
AcDbLine
 62
7
  6
CONTINUOUS
 10
40.2056785241
 20
-8.5191791099
 11
40.855860691
 21
-9.5007411845
  0
LINE
  5
5BB
100
AcDbEntity
  8
ASSI
100
AcDbLine
 62
7
  6
CONTINUOUS
 10
40.8039364158
 20
-9.0387442203
 11
40.4757815099
 21
-8.5191791099
  0
LINE
  5
5BC
100
AcDbEntity
  8
ASSI
100
AcDbLine
 62
7
  6
CONTINUOUS
 10
38.8667741681
 20
-10.2220371662
 11
38.1846633979
 21
-8.5191791099
  0
LINE
  5
5BD
100
AcDbEntity
  8
ASSI
100
AcDbLine
 62
7
  6
CONTINUOUS
 10
38.4354157436
 20
-9.7060195734
 11
38.6253746265
 21
-10.2220371662
  0
LINE
  5
5BE
100
AcDbEntity
  8
ASSI
100
AcDbLine
 62
7
  6
CONTINUOUS
 10
34.3114675507
 20
-10.2220371662
 11
34.3114675507
 21
-8.5191791099
  0
LINE
  5
5BF
100
AcDbEntity
  8
0
100
AcDbLine
 62
7
  6
CONTINUOUS
 10
34.381404014
 20
-0.9860031662
 11
34.381404014
 21
-1.5268571662
  0
LINE
  5
5C0
100
AcDbEntity
  8
ASSI
100
AcDbLine
 62
7
  6
CONTINUOUS
 10
34.591618014
 20
-1.7370711662
 11
34.591618014
 21
-0.8825971662
  0
LINE
  5
5C1
100
AcDbEntity
  8
DRAFT
100
AcDbLine
 62
7
  6
CONTINUOUS
 10
34.609898014
 20
-35.9336360233
 11
34.609898014
 21
-22.2220371662
  0
LINE
  5
5C2
100
AcDbEntity
  8
DRAFT
100
AcDbLine
 62
7
  6
CONTINUOUS
 10
34.609898014
 20
23.7779628338
 11
34.609898014
 21
37.489561691
  0
LINE
  5
5C3
100
AcDbEntity
  8
ASSI
100
AcDbLine
 62
7
  6
CONTINUOUS
 10
35.219258014
 20
7.8223428338
 11
35.219258014
 21
7.5522028338
  0
LINE
  5
5C4
100
AcDbEntity
  8
ASSI
100
AcDbLine
 62
7
  6
CONTINUOUS
 10
35.4054248474
 20
-8.5191791099
 11
35.4054248474
 21
-10.2220371662
  0
LINE
  5
5C5
100
AcDbEntity
  8
ASSI
100
AcDbLine
 62
7
  6
CONTINUOUS
 10
35.6324725883
 20
-10.2220371662
 11
35.6324725883
 21
-8.5191791099
  0
LINE
  5
5C6
100
AcDbEntity
  8
ASSI
100
AcDbLine
 62
7
  6
CONTINUOUS
 10
35.9111220884
 20
-8.5191791099
 11
35.9111220884
 21
-8.7152657952
  0
LINE
  5
5C7
100
AcDbEntity
  8
ASSI
100
AcDbLine
 62
7
  6
CONTINUOUS
 10
36.4684210886
 20
-8.7152657952
 11
36.4684210886
 21
-10.2220371662
  0
LINE
  5
5C8
100
AcDbEntity
  8
ASSI
100
AcDbLine
 62
7
  6
CONTINUOUS
 10
36.661180014
 20
7.4130742052
 11
36.661180014
 21
7.8223428338
  0
LINE
  5
5C9
100
AcDbEntity
  8
ASSI
100
AcDbLine
 62
7
  6
CONTINUOUS
 10
36.6954688294
 20
-10.2220371662
 11
36.6954688294
 21
-8.7152657952
  0
LINE
  5
5CA
100
AcDbEntity
  8
0
100
AcDbLine
 62
7
  6
CONTINUOUS
 10
37.109898014
 20
40.7779628338
 11
37.109898014
 21
23.7779628338
  0
LINE
  5
5CB
100
AcDbEntity
  8
0
100
AcDbLine
 62
7
  6
CONTINUOUS
 10
37.109898014
 20
-22.2220371662
 11
37.109898014
 21
-39.2220371662
  0
LINE
  5
5CC
100
AcDbEntity
  8
ASSI
100
AcDbLine
 62
7
  6
CONTINUOUS
 10
37.2527678296
 20
-8.7152657952
 11
37.2527678296
 21
-8.5191791099
  0
LINE
  5
5CD
100
AcDbEntity
  8
ASSI
100
AcDbLine
 62
7
  6
CONTINUOUS
 10
37.569056014
 20
5.8997788338
 11
37.569056014
 21
4.7981728338
  0
LINE
  5
5CE
100
AcDbEntity
  8
IMPORT_IGES
100
AcDbLine
 62
7
  6
CONTINUOUS
 10
37.939898014
 20
-24.3920371662
 11
37.939898014
 21
-23.7520371662
  0
LINE
  5
5CF
100
AcDbEntity
  8
ASSI
100
AcDbLine
 62
7
  6
CONTINUOUS
 10
38.370124014
 20
6.3270148338
 11
38.370124014
 21
6.4614168338
  0
LINE
  5
5D0
100
AcDbEntity
  8
IMPORT_IGES
100
AcDbLine
 62
7
  6
CONTINUOUS
 10
38.579898014
 20
-23.7520371662
 11
38.579898014
 21
-24.3920371662
  0
LINE
  5
5D1
100
AcDbEntity
  8
0
100
AcDbLine
 62
7
  6
CONTINUOUS
 10
38.850766014
 20
4.7248788338
 11
38.850766014
 21
5.4949308342
  0
LINE
  5
5D2
100
AcDbEntity
  8
ASSI
100
AcDbLine
 62
7
  6
CONTINUOUS
 10
39.0485090526
 20
-8.5191791099
 11
39.0485090526
 21
-10.2220371662
  0
LINE
  5
5D3
100
AcDbEntity
  8
0
100
AcDbLine
 62
7
  6
CONTINUOUS
 10
39.199898014
 20
-6.0220371662
 11
39.199898014
 21
-4.0220371662
  0
LINE
  5
5D4
100
AcDbEntity
  8
ASSI
100
AcDbLine
 62
7
  6
CONTINUOUS
 10
39.2755567934
 20
-10.0259504809
 11
39.2755567934
 21
-8.5191791099
  0
LINE
  5
5D5
100
AcDbEntity
  8
0
100
AcDbLine
 62
7
  6
CONTINUOUS
 10
39.609898014
 20
-39.2220371662
 11
39.609898014
 21
-22.2220371662
  0
LINE
  5
5D6
100
AcDbEntity
  8
0
100
AcDbLine
 62
7
  6
CONTINUOUS
 10
39.609898014
 20
23.7779628338
 11
39.609898014
 21
40.7779628338
  0
LINE
  5
5D7
100
AcDbEntity
  8
0
100
AcDbLine
 62
7
  6
CONTINUOUS
 10
37.7098594372
 20
6.1270148338
 11
37.6899788495
 21
5.8997788338
  0
LINE
  5
5D8
100
AcDbEntity
  8
0
100
AcDbLine
 62
7
  6
CONTINUOUS
 10
37.5398707375
 20
4.1840364445
 11
37.290877554
 21
1.3380332939
  0
LINE
  5
5D9
100
AcDbEntity
  8
0
100
AcDbLine
 62
7
  6
CONTINUOUS
 10
37.243818784
 20
0.8001494626
 11
37.1823618138
 21
0.0976935622
  0
LINE
  5
5DA
100
AcDbEntity
  8
0
100
AcDbLine
 62
7
  6
CONTINUOUS
 10
37.574082014
 20
1.0548288338
 11
37.8773806989
 21
4.5215461775
  0
LINE
  5
5DB
100
AcDbEntity
  8
0
100
AcDbLine
 62
7
  6
CONTINUOUS
 10
37.4893579543
 20
0.0864201512
 11
37.5270235088
 21
0.5169445463
  0
LINE
  5
5DC
100
AcDbEntity
  8
ASSI
100
AcDbLine
 62
7
  6
CONTINUOUS
 10
37.997960014
 20
5.8997788338
 11
38.035338014
 21
6.3270148338
  0
LINE
  5
5DD
100
AcDbEntity
  8
ASSI
100
AcDbLine
 62
7
  6
CONTINUOUS
 10
37.5314173297
 20
-10.2220371662
 11
37.7108947603
 21
-9.7060195734
  0
LINE
  5
5DE
100
AcDbEntity
  8
ASSI
100
AcDbLine
 62
7
  6
CONTINUOUS
 10
37.7755582567
 20
-9.52025324
 11
37.9595507525
 21
-9.0231025133
  0
LINE
  5
5DF
100
AcDbEntity
  8
ASSI
100
AcDbLine
 62
7
  6
CONTINUOUS
 10
33.6509650319
 20
-8.5191791099
 11
33.1820341331
 21
-9.7531061098
  0
LINE
  5
5E0
100
AcDbEntity
  8
ASSI
100
AcDbLine
 62
7
  6
CONTINUOUS
 10
37.9390713068
 20
-8.5191791099
 11
37.2917917831
 21
-10.2220371662
  0
LINE
  5
5E1
100
AcDbEntity
  8
ASSI
100
AcDbLine
 62
7
  6
CONTINUOUS
 10
33.2146077682
 20
-10.2220371662
 11
33.8938158952
 21
-8.5191791099
  0
LINE
  5
5E2
100
AcDbEntity
  8
ASSI
100
AcDbLine
 62
7
  6
CONTINUOUS
 10
41.0829084318
 20
-9.5007411845
 11
41.7640516543
 21
-8.5191791099
  0
LWPOLYLINE
  5
5E3
100
AcDbEntity
  8
0
100
AcDbPolyline
 62
7
  6
CONTINUOUS
 90
15
 70
0
 10
12.6472186362
 20
-34.5837845036
 10
12.6464183749
 20
-34.5841170051
 10
12.6456520832
 20
-34.5844246168
 10
12.6458072477
 20
-34.5843656066
 10
12.6466529802
 20
-34.584054128
 10
12.6481662656
 20
-34.5835153756
 10
12.6503986743
 20
-34.5827459464
 10
12.6532248654
 20
-34.5818009159
 10
12.6566372715
 20
-34.5806912156
 10
12.6606654327
 20
-34.5794148842
 10
12.6652368958
 20
-34.5780011036
 10
12.6703513637
 20
-34.5764546473
 10
12.6760278445
 20
-34.5747740734
 10
12.6822210165
 20
-34.5729763677
 10
12.6889330416
 20
-34.5710636882
  0
LINE
  5
5E4
100
AcDbEntity
  8
IMPORT_IGES
100
AcDbLine
 62
7
  6
CONTINUOUS
 10
48.309898014
 20
36.2779628338
 11
47.309898014
 21
36.2779628338
  0
LINE
  5
5E5
100
AcDbEntity
  8
IMPORT_IGES
100
AcDbLine
 62
7
  6
CONTINUOUS
 10
33.309898014
 20
36.2779628338
 11
32.309898014
 21
36.2779628338
  0
LINE
  5
5E6
100
AcDbEntity
  8
IMPORT_IGES
100
AcDbLine
 62
7
  6
CONTINUOUS
 10
42.309898014
 20
36.2779628338
 11
43.309898014
 21
36.2779628338
  0
LINE
  5
5E7
100
AcDbEntity
  8
IMPORT_IGES
100
AcDbLine
 62
7
  6
CONTINUOUS
 10
43.309898014
 20
37.2779628338
 11
42.309898014
 21
37.2779628338
  0
LINE
  5
5E8
100
AcDbEntity
  8
IMPORT_IGES
100
AcDbLine
 62
7
  6
CONTINUOUS
 10
32.309898014
 20
37.2779628338
 11
33.309898014
 21
37.2779628338
  0
LINE
  5
5E9
100
AcDbEntity
  8
IMPORT_IGES
100
AcDbLine
 62
7
  6
CONTINUOUS
 10
47.309898014
 20
37.2779628338
 11
48.309898014
 21
37.2779628338
  0
LINE
  5
5EA
100
AcDbEntity
  8
RACCORDO
100
AcDbLine
 62
7
  6
CONTINUOUS
 10
34.609898014
 20
37.489561691
 11
34.1714664102
 21
37.489561691
  0
LINE
  5
5EB
100
AcDbEntity
  8
ASSI
100
AcDbLine
 62
7
  6
CONTINUOUS
 10
40.1218256456
 20
-10.2220371662
 11
40.1218256456
 21
-10.0259504809
  0
LINE
  5
5EC
100
AcDbEntity
  8
ASSI
100
AcDbLine
 62
7
  6
CONTINUOUS
 10
40.855860691
 20
-9.5007411845
 11
40.855860691
 21
-10.2220371662
  0
LINE
  5
5ED
100
AcDbEntity
  8
ASSI
100
AcDbLine
 62
7
  6
CONTINUOUS
 10
41.0829084318
 20
-10.2220371662
 11
41.0829084318
 21
-9.5007411845
  0
LINE
  5
5EE
100
AcDbEntity
  8
0
100
AcDbLine
 62
7
  6
CONTINUOUS
 10
42.109898014
 20
40.7779628338
 11
42.109898014
 21
23.7779628338
  0
LINE
  5
5EF
100
AcDbEntity
  8
0
100
AcDbLine
 62
7
  6
CONTINUOUS
 10
42.109898014
 20
-22.2220371662
 11
42.109898014
 21
-39.2220371662
  0
LINE
  5
5F0
100
AcDbEntity
  8
IMPORT_IGES
100
AcDbLine
 62
7
  6
CONTINUOUS
 10
42.309898014
 20
37.2779628338
 11
42.309898014
 21
36.2779628338
  0
LINE
  5
5F1
100
AcDbEntity
  8
IMPORT_IGES
100
AcDbLine
 62
7
  6
CONTINUOUS
 10
43.309898014
 20
36.2779628338
 11
43.309898014
 21
37.2779628338
  0
LINE
  5
5F2
100
AcDbEntity
  8
0
100
AcDbLine
 62
7
  6
CONTINUOUS
 10
44.609898014
 20
-39.2220371662
 11
44.609898014
 21
-22.2220371662
  0
LINE
  5
5F3
100
AcDbEntity
  8
0
100
AcDbLine
 62
7
  6
CONTINUOUS
 10
44.609898014
 20
23.7779628338
 11
44.609898014
 21
40.7779628338
  0
LINE
  5
5F4
100
AcDbEntity
  8
DRAFT
100
AcDbLine
 62
7
  6
CONTINUOUS
 10
58.4290971231
 20
18.7779628338
 11
58.4317151835
 21
18.7831993533
  0
LINE
  5
5F5
100
AcDbEntity
  8
DRAFT
100
AcDbLine
 62
7
  6
CONTINUOUS
 10
17.0511704815
 20
-41.8155612701
 11
17.059898014
 21
-41.8068337376
  0
LINE
  5
5F6
100
AcDbEntity
  8
RACCORDO
100
AcDbLine
 62
7
  6
CONTINUOUS
 10
21.0564679276
 20
-41.7683716682
 11
21.0180058582
 21
-41.8068337376
  0
LINE
  5
5F7
100
AcDbEntity
  8
IMPORT_IGES
100
AcDbLine
 62
7
  6
CONTINUOUS
 10
54.609898014
 20
39.9294328338
 11
54.461368014
 21
39.9294328338
  0
LINE
  5
5F8
100
AcDbEntity
  8
0
100
AcDbLine
 62
7
  6
CONTINUOUS
 10
54.609898014
 20
40.7779628338
 11
52.109898014
 21
40.7779628338
  0
LINE
  5
5F9
100
AcDbEntity
  8
0
100
AcDbLine
 62
7
  6
CONTINUOUS
 10
49.609898014
 20
40.7779628338
 11
47.109898014
 21
40.7779628338
  0
LINE
  5
5FA
100
AcDbEntity
  8
0
100
AcDbLine
 62
7
  6
CONTINUOUS
 10
44.609898014
 20
40.7779628338
 11
42.109898014
 21
40.7779628338
  0
LINE
  5
5FB
100
AcDbEntity
  8
0
100
AcDbLine
 62
7
  6
CONTINUOUS
 10
39.609898014
 20
40.7779628338
 11
37.109898014
 21
40.7779628338
  0
LINE
  5
5FC
100
AcDbEntity
  8
DRAFT
100
AcDbLine
 62
7
  6
CONTINUOUS
 10
33.9714968711
 20
40.7779628338
 11
32.109898014
 21
40.7779628338
  0
LINE
  5
5FD
100
AcDbEntity
  8
RACCORDO
100
AcDbLine
 62
250
  6
CONTINUOUS
 10
-69.6228871762
 20
45.0108241764
 11
69.8426832041
 21
45.0108241764
  0
LINE
  5
5FE
100
AcDbEntity
  8
0
100
AcDbLine
 62
7
  6
CONTINUOUS
 10
47.109898014
 20
40.7779628338
 11
47.109898014
 21
23.7779628338
  0
LINE
  5
5FF
100
AcDbEntity
  8
0
100
AcDbLine
 62
7
  6
CONTINUOUS
 10
47.109898014
 20
-22.2220371662
 11
47.109898014
 21
-39.2220371662
  0
LINE
  5
600
100
AcDbEntity
  8
IMPORT_IGES
100
AcDbLine
 62
7
  6
CONTINUOUS
 10
47.309898014
 20
36.2779628338
 11
47.309898014
 21
37.2779628338
  0
LINE
  5
601
100
AcDbEntity
  8
IMPORT_IGES
100
AcDbLine
 62
7
  6
CONTINUOUS
 10
48.309898014
 20
37.2779628338
 11
48.309898014
 21
36.2779628338
  0
LINE
  5
602
100
AcDbEntity
  8
0
100
AcDbLine
 62
7
  6
CONTINUOUS
 10
49.609898014
 20
-39.2220371662
 11
49.609898014
 21
-22.2220371662
  0
LINE
  5
603
100
AcDbEntity
  8
0
100
AcDbLine
 62
7
  6
CONTINUOUS
 10
49.609898014
 20
23.7779628338
 11
49.609898014
 21
40.7779628338
  0
LINE
  5
604
100
AcDbEntity
  8
RACCORDO
100
AcDbLine
 62
250
  6
CONTINUOUS
 10
21.059898014
 20
-43.4463232927
 11
20.9028024296
 21
-43.6034188771
  0
LINE
  5
605
100
AcDbEntity
  8
RACCORDO
100
AcDbLine
 62
250
  6
CONTINUOUS
 10
21.5512466455
 20
-43.9548223563
 11
21.3941510612
 21
-44.1119179407
  0
LINE
  5
606
100
AcDbEntity
  8
DRAFT
100
AcDbLine
 62
7
  6
CONTINUOUS
 10
21.0145323939
 20
-41.8068337376
 11
20.9028024296
 21
-41.8626944652
  0
LINE
  5
607
100
AcDbEntity
  8
RACCORDO
100
AcDbLine
 62
250
  6
CONTINUOUS
 10
69.3427593566
 20
45.510748024
 11
-69.1229633286
 21
45.510748024
  0
LINE
  5
608
100
AcDbEntity
  8
RACCORDO
100
AcDbLine
 62
7
  6
CONTINUOUS
 10
-69.3901781384
 20
45.7779628338
 11
-3.690101986
 21
45.7779628338
  0
LINE
  5
609
100
AcDbEntity
  8
DRAFT
100
AcDbLine
 62
7
  6
CONTINUOUS
 10
-3.690101986
 20
45.7779628338
 11
3.909898014
 21
45.7779628338
  0
LINE
  5
60A
100
AcDbEntity
  8
RACCORDO
100
AcDbLine
 62
7
  6
CONTINUOUS
 10
3.909898014
 20
45.7779628338
 11
69.6099170525
 21
45.7779628338
  0
LINE
  5
60B
100
AcDbEntity
  8
0
100
AcDbLine
 62
7
  6
CONTINUOUS
 10
52.109898014
 20
40.7779628338
 11
52.109898014
 21
23.7779628338
  0
LINE
  5
60C
100
AcDbEntity
  8
0
100
AcDbLine
 62
7
  6
CONTINUOUS
 10
52.109898014
 20
-22.2220371662
 11
52.109898014
 21
-39.2220371662
  0
LINE
  5
60D
100
AcDbEntity
  8
IMPORT_IGES
100
AcDbLine
 62
7
  6
CONTINUOUS
 10
52.609898014
 20
26.6779628338
 11
52.609898014
 21
28.6779628338
  0
LINE
  5
60E
100
AcDbEntity
  8
IMPORT_IGES
100
AcDbLine
 62
7
  6
CONTINUOUS
 10
54.461368014
 20
39.9294328338
 11
54.461368014
 21
40.7779628338
  0
LINE
  5
60F
100
AcDbEntity
  8
0
100
AcDbLine
 62
7
  6
CONTINUOUS
 10
54.609898014
 20
-39.2220371662
 11
54.609898014
 21
-22.2220371662
  0
LINE
  5
610
100
AcDbEntity
  8
0
100
AcDbLine
 62
7
  6
CONTINUOUS
 10
54.609898014
 20
23.7779628338
 11
54.609898014
 21
40.7779628338
  0
LINE
  5
611
100
AcDbEntity
  8
DRAFT
100
AcDbLine
 62
7
  6
CONTINUOUS
 10
58.4290971231
 20
18.7779628338
 11
58.4290971231
 21
14.497161943
  0
LINE
  5
612
100
AcDbEntity
  8
RACCORDO
100
AcDbLine
 62
7
  6
CONTINUOUS
 10
58.709898014
 20
15.2799792188
 11
58.709898014
 21
18.8022990371
  0
LINE
  5
613
100
AcDbEntity
  8
RACCORDO
100
AcDbLine
 62
250
  6
CONTINUOUS
 10
58.7543107734
 20
15.6644430034
 11
58.7802041939
 21
18.8743306111
  0
LINE
  5
614
100
AcDbEntity
  8
RACCORDO
100
AcDbLine
 62
250
  6
CONTINUOUS
 10
59.254234621
 20
15.546890403
 11
59.2798393249
 21
18.7209871511
  0
LINE
  5
615
100
AcDbEntity
  8
RACCORDO
100
AcDbLine
 62
250
  6
CONTINUOUS
 10
69.4389145301
 20
-17.2220371662
 11
69.3427593566
 21
-17.3181923397
  0
LINE
  5
616
100
AcDbEntity
  8
RACCORDO
100
AcDbLine
 62
250
  6
CONTINUOUS
 10
69.9474135937
 20
-17.7133857977
 11
69.8426832041
 21
-17.8181161873
  0
LINE
  5
617
100
AcDbEntity
  8
RACCORDO
100
AcDbLine
 62
7
  6
CONTINUOUS
 10
67.4397330393
 20
18.8741180074
 11
67.509898014
 21
18.8022990371
  0
LINE
  5
618
100
AcDbEntity
  8
RACCORDO
100
AcDbLine
 62
250
  6
CONTINUOUS
 10
66.9399567031
 20
18.7209871511
 11
66.965561407
 21
15.546890403
  0
LINE
  5
619
100
AcDbEntity
  8
RACCORDO
100
AcDbLine
 62
250
  6
CONTINUOUS
 10
67.4395918341
 20
18.8743306111
 11
67.4654852546
 21
15.6644430034
  0
LINE
  5
61A
100
AcDbEntity
  8
IMPORT_IGES
100
AcDbLine
 62
7
  6
CONTINUOUS
 10
67.109898014
 20
14.497161943
 11
67.109898014
 21
14.7887142157
  0
LINE
  5
61B
100
AcDbEntity
  8
RACCORDO
100
AcDbLine
 62
7
  6
CONTINUOUS
 10
67.509898014
 20
15.2799792188
 11
67.509898014
 21
18.8022990371
  0
LINE
  5
61C
100
AcDbEntity
  8
DRAFT
100
AcDbLine
 62
7
  6
CONTINUOUS
 10
67.711080156
 20
18.7831993533
 11
67.711080156
 21
14.497161943
  0
LINE
  5
61D
100
AcDbEntity
  8
RACCORDO
100
AcDbLine
 62
250
  6
CONTINUOUS
 10
69.3427593566
 20
18.8741180074
 11
69.4389145301
 21
18.7779628338
  0
LINE
  5
61E
100
AcDbEntity
  8
RACCORDO
100
AcDbLine
 62
250
  6
CONTINUOUS
 10
69.8426832041
 20
19.374041855
 11
69.9474135937
 21
19.2693114654
  0
LINE
  5
61F
100
AcDbEntity
  8
DRAFT
100
AcDbLine
 62
7
  6
CONTINUOUS
 10
67.8243747096
 20
18.7779628338
 11
67.8243747096
 21
14.497161943
  0
LINE
  5
620
100
AcDbEntity
  8
RACCORDO
100
AcDbLine
 62
250
  6
CONTINUOUS
 10
69.3427593566
 20
-17.3181923397
 11
69.3427593566
 21
-43.9548223563
  0
LINE
  5
621
100
AcDbEntity
  8
RACCORDO
100
AcDbLine
 62
250
  6
CONTINUOUS
 10
69.3427593566
 20
18.8741180074
 11
69.3427593566
 21
45.510748024
  0
LINE
  5
622
100
AcDbEntity
  8
RACCORDO
100
AcDbLine
 62
250
  6
CONTINUOUS
 10
69.4474897461
 20
18.7780363628
 11
69.4474897461
 21
-17.2221106951
  0
LINE
  5
623
100
AcDbEntity
  8
RACCORDO
100
AcDbLine
 62
250
  6
CONTINUOUS
 10
69.8426832041
 20
45.0108241764
 11
69.8426832041
 21
19.374041855
  0
LINE
  5
624
100
AcDbEntity
  8
RACCORDO
100
AcDbLine
 62
250
  6
CONTINUOUS
 10
69.8426832041
 20
-17.8181161873
 11
69.8426832041
 21
-43.4548985087
  0
LINE
  5
625
100
AcDbEntity
  8
RACCORDO
100
AcDbLine
 62
250
  6
CONTINUOUS
 10
69.9474135937
 20
19.2693114654
 11
69.9474135937
 21
-17.7133857977
  0
LINE
  5
626
100
AcDbEntity
  8
RACCORDO
100
AcDbLine
 62
7
  6
CONTINUOUS
 10
70.109898014
 20
-43.7220562046
 11
70.109898014
 21
45.2779818723
  0
LINE
  5
627
100
AcDbEntity
  8
DRAFT
100
AcDbLine
 62
7
  6
CONTINUOUS
 10
67.8243747096
 20
18.7779628338
 11
67.8217566493
 21
18.7831993533
  0
ARC
  5
628
100
AcDbEntity
  8
ASSI
100
AcDbCircle
 62
7
  6
CONTINUOUS
 10
-7.1638688691
 20
-11.0141961302
 40
3.5220553542
100
AcDbArc
 50
159.0191965858
 51
163.7921491218
  0
ARC
  5
629
100
AcDbEntity
  8
ASSI
100
AcDbCircle
 62
7
  6
CONTINUOUS
 10
-20.7351315595
 20
-11.0141961302
 40
3.5220553542
100
AcDbArc
 50
159.0191965858
 51
163.7921491218
  0
ARC
  5
62A
100
AcDbEntity
  8
ASSI
100
AcDbCircle
 62
7
  6
CONTINUOUS
 10
-10.224571842
 20
-8.2812704923
 40
1.9319241343
100
AcDbArc
 50
337.4191892411
 51
347.6454766647
  0
ARC
  5
62B
100
AcDbEntity
  8
ASSI
100
AcDbCircle
 62
7
  6
CONTINUOUS
 10
-14.7036045474
 20
-8.2812704923
 40
1.9319241343
100
AcDbArc
 50
337.4191892411
 51
347.6454766647
  0
ARC
  5
62C
100
AcDbEntity
  8
ASSI
100
AcDbCircle
 62
7
  6
CONTINUOUS
 10
-21.8143269761
 20
-8.2812704923
 40
1.9319241343
100
AcDbArc
 50
337.4191892411
 51
347.6454766647
  0
ARC
  5
62D
100
AcDbEntity
  8
RACCORDO
100
AcDbCircle
 62
250
  6
CONTINUOUS
 10
-69.1227756019
 20
-43.4547107821
 40
0.500113118
100
AcDbArc
 50
180.0215070915
 51
269.9784929084
  0
ARC
  5
62E
100
AcDbEntity
  8
RACCORDO
100
AcDbCircle
 62
250
  6
CONTINUOUS
 10
-69.1227797343
 20
-17.8182997816
 40
0.5001084232
100
AcDbArc
 50
90.0210338369
 51
179.9789661631
  0
ARC
  5
62F
100
AcDbEntity
  8
RACCORDO
100
AcDbCircle
 62
7
  6
CONTINUOUS
 10
-63.2250951032
 20
22.9681145415
 40
5.9485920703
100
AcDbArc
 50
314.4409967679
 51
316.0086772882
  0
ARC
  5
630
100
AcDbEntity
  8
RACCORDO
100
AcDbCircle
 62
7
  6
CONTINUOUS
 10
-62.5556315405
 20
22.967595956
 40
5.9478558536
100
AcDbArc
 50
223.9912256832
 51
225.5591002607
  0
ARC
  5
631
100
AcDbEntity
  8
RACCORDO
100
AcDbCircle
 62
250
  6
CONTINUOUS
 10
-69.1227756085
 20
45.0106364563
 40
0.5001131174
100
AcDbArc
 50
90.0215063346
 51
179.9784936654
  0
ARC
  5
632
100
AcDbEntity
  8
RACCORDO
100
AcDbCircle
 62
250
  6
CONTINUOUS
 10
-69.1227797343
 20
19.3742254493
 40
0.5001084232
100
AcDbArc
 50
180.0210338369
 51
269.9789661631
  0
ARC
  5
633
100
AcDbEntity
  8
RACCORDO
100
AcDbCircle
 62
250
  6
CONTINUOUS
 10
-59.0246651356
 20
15.2779246214
 40
0.4999643108
100
AcDbArc
 50
270.0044422802
 51
0.2354558037
  0
ARC
  5
634
100
AcDbEntity
  8
RACCORDO
100
AcDbCircle
 62
250
  6
CONTINUOUS
 10
-66.7555427149
 20
15.2779249193
 40
0.4999605851
100
AcDbArc
 50
179.7645765134
 51
266.2811164279
  0
ARC
  5
635
100
AcDbEntity
  8
RACCORDO
100
AcDbCircle
 62
250
  6
CONTINUOUS
 10
-66.7555402051
 20
15.2755856615
 40
0.4976228291
100
AcDbArc
 50
266.2633583581
 51
269.9956944187
  0
ARC
  5
636
100
AcDbEntity
  8
0
100
AcDbCircle
 62
7
  6
CONTINUOUS
 10
11.6734146677
 20
-25.3004041846
 40
3.284043665
100
AcDbArc
 50
240.7192386409
 51
253.8502740188
  0
CIRCLE
  5
637
100
AcDbEntity
  8
RACCORDO
100
AcDbCircle
 62
250
  6
CONTINUOUS
 10
0.109898014
 20
-40.2720371662
 40
2.4
  0
CIRCLE
  5
638
100
AcDbEntity
  8
RACCORDO
100
AcDbCircle
 62
7
  6
CONTINUOUS
 10
0.109898014
 20
-40.2720371662
 40
2.2
  0
CIRCLE
  5
639
100
AcDbEntity
  8
RACCORDO
100
AcDbCircle
 62
250
  6
CONTINUOUS
 10
4.109898014
 20
-22.6220371662
 40
2.1982622421
  0
CIRCLE
  5
63A
100
AcDbEntity
  8
RACCORDO
100
AcDbCircle
 62
7
  6
CONTINUOUS
 10
4.109898014
 20
-22.6220371662
 40
1.9982698575
  0
CIRCLE
  5
63B
100
AcDbEntity
  8
DRAFT
100
AcDbCircle
 62
7
  6
CONTINUOUS
 10
4.109898014
 20
-22.6220371662
 40
1.9476387933
  0
ARC
  5
63C
100
AcDbEntity
  8
DRAFT
100
AcDbCircle
 62
7
  6
CONTINUOUS
 10
18.059898014
 20
-26.6220371662
 40
0.5
100
AcDbArc
 50
270.0
 51
360.0
  0
ARC
  5
63D
100
AcDbEntity
  8
DRAFT
100
AcDbCircle
 62
7
  6
CONTINUOUS
 10
13.559898014
 20
-26.6220371662
 40
0.5
100
AcDbArc
 50
180.0
 51
270.0
  0
ARC
  5
63E
100
AcDbEntity
  8
DRAFT
100
AcDbCircle
 62
7
  6
CONTINUOUS
 10
13.559898014
 20
-33.6220371662
 40
0.5
100
AcDbArc
 50
90.0
 51
180.0
  0
ARC
  5
63F
100
AcDbEntity
  8
DRAFT
100
AcDbCircle
 62
7
  6
CONTINUOUS
 10
18.059898014
 20
-33.6220371662
 40
0.5
100
AcDbArc
 50
0.0
 51
62.825563434
  0
ARC
  5
640
100
AcDbEntity
  8
RACCORDO
100
AcDbCircle
 62
250
  6
CONTINUOUS
 10
11.8099336451
 20
-35.8640510629
 40
0.4999675693
100
AcDbArc
 50
0.0052230978
 51
90.0040832796
  0
ARC
  5
641
100
AcDbEntity
  8
RACCORDO
100
AcDbCircle
 62
250
  6
CONTINUOUS
 10
19.8098622603
 20
-35.8640511687
 40
0.499967567
100
AcDbArc
 50
89.9959026762
 51
179.9947647744
  0
ARC
  5
642
100
AcDbEntity
  8
0
100
AcDbCircle
 62
250
  6
CONTINUOUS
 10
12.5064124451
 20
-34.3134702766
 40
0.3089010644
100
AcDbArc
 50
294.5885227553
 51
301.049631624
  0
ARC
  5
643
100
AcDbEntity
  8
ASSI
100
AcDbCircle
 62
7
  6
CONTINUOUS
 10
0.2151827079
 20
-11.0141961302
 40
3.5220553542
100
AcDbArc
 50
159.0191965858
 51
163.7921491218
  0
ARC
  5
644
100
AcDbEntity
  8
ASSI
100
AcDbCircle
 62
7
  6
CONTINUOUS
 10
4.090308014
 20
0.7779508338
 40
2.5500000352
100
AcDbArc
 50
84.2608296022
 51
275.7391703978
  0
ARC
  5
645
100
AcDbEntity
  8
ASSI
100
AcDbCircle
 62
7
  6
CONTINUOUS
 10
8.425308014
 20
0.7779508338
 40
2.5500000352
100
AcDbArc
 50
84.2608296022
 51
275.7391703978
  0
ARC
  5
646
100
AcDbEntity
  8
ASSI
100
AcDbCircle
 62
7
  6
CONTINUOUS
 10
15.8697162764
 20
0.7710865639
 40
2.0264583454
100
AcDbArc
 50
229.7521569145
 51
270.073040185
  0
ARC
  5
647
100
AcDbEntity
  8
ASSI
100
AcDbCircle
 62
7
  6
CONTINUOUS
 10
28.9308430992
 20
-8.2812704923
 40
1.9319241343
100
AcDbArc
 50
337.4191892411
 51
347.6454766647
  0
ARC
  5
648
100
AcDbEntity
  8
ASSI
100
AcDbCircle
 62
7
  6
CONTINUOUS
 10
18.3937638544
 20
-8.2812704922
 40
1.9319241343
100
AcDbArc
 50
337.4191892411
 51
347.6454766647
  0
ARC
  5
649
100
AcDbEntity
  8
ASSI
100
AcDbCircle
 62
7
  6
CONTINUOUS
 10
3.6046996449
 20
-8.2812704923
 40
1.9319241343
100
AcDbArc
 50
337.4191892411
 51
347.6454766647
  0
ARC
  5
64A
100
AcDbEntity
  8
ASSI
100
AcDbCircle
 62
7
  6
CONTINUOUS
 10
8.425308014
 20
0.7779508338
 40
1.7850001745
100
AcDbArc
 50
81.7867901066
 51
167.6263761124
  0
ARC
  5
64B
100
AcDbEntity
  8
ASSI
100
AcDbCircle
 62
7
  6
CONTINUOUS
 10
4.090308014
 20
0.7779508338
 40
1.7850001745
100
AcDbArc
 50
81.7867901066
 51
278.2132098934
  0
ARC
  5
64C
100
AcDbEntity
  8
ASSI
100
AcDbCircle
 62
7
  6
CONTINUOUS
 10
8.425308014
 20
0.7779508338
 40
1.7849997292
100
AcDbArc
 50
192.373627023
 51
278.2132119563
  0
ARC
  5
64D
100
AcDbEntity
  8
ASSI
100
AcDbCircle
 62
7
  6
CONTINUOUS
 10
15.8720769652
 20
0.7776691166
 40
1.5252937324
100
AcDbArc
 50
89.9916374483
 51
155.7308838358
  0
ARC
  5
64E
100
AcDbEntity
  8
RACCORDO
100
AcDbCircle
 62
250
  6
CONTINUOUS
 10
8.2949724914
 20
-21.0640822978
 40
0.9999250702
100
AcDbArc
 50
179.9955983661
 51
269.9975121239
  0
ARC
  5
64F
100
AcDbEntity
  8
RACCORDO
100
AcDbCircle
 62
250
  6
CONTINUOUS
 10
23.324823508
 20
-21.0640822718
 40
0.9999250688
100
AcDbArc
 50
270.0024895148
 51
0.0044001439
  0
ARC
  5
650
100
AcDbEntity
  8
RACCORDO
100
AcDbCircle
 62
250
  6
CONTINUOUS
 10
24.3248186041
 20
-17.8182431349
 40
0.5000499768
100
AcDbArc
 50
90.0075480328
 51
179.9854542353
  0
ARC
  5
651
100
AcDbEntity
  8
RACCORDO
100
AcDbCircle
 62
250
  6
CONTINUOUS
 10
7.2949774341
 20
-17.8182431452
 40
0.5000499769
100
AcDbArc
 50
0.0145469411
 51
89.9924531465
  0
ARC
  5
652
100
AcDbEntity
  8
RACCORDO
100
AcDbCircle
 62
250
  6
CONTINUOUS
 10
23.3248939803
 20
-21.0642156966
 40
0.4998705403
100
AcDbArc
 50
269.9969022909
 51
0.0240949078
  0
ARC
  5
653
100
AcDbEntity
  8
RACCORDO
100
AcDbCircle
 62
250
  6
CONTINUOUS
 10
8.2949017792
 20
-21.0642159651
 40
0.4998702626
100
AcDbArc
 50
179.9758743034
 51
270.003128491
  0
CIRCLE
  5
654
100
AcDbEntity
  8
RACCORDO
100
AcDbCircle
 62
250
  6
CONTINUOUS
 10
61.609898014
 20
-22.6220371662
 40
2.1982622421
  0
CIRCLE
  5
655
100
AcDbEntity
  8
RACCORDO
100
AcDbCircle
 62
7
  6
CONTINUOUS
 10
61.609898014
 20
-22.6220371662
 40
1.9982698575
  0
CIRCLE
  5
656
100
AcDbEntity
  8
DRAFT
100
AcDbCircle
 62
7
  6
CONTINUOUS
 10
61.609898014
 20
-22.6220371662
 40
1.9476387933
  0
ARC
  5
657
100
AcDbEntity
  8
RACCORDO
100
AcDbCircle
 62
250
  6
CONTINUOUS
 10
69.3425714334
 20
-43.4547105855
 40
0.5001133674
100
AcDbArc
 50
270.0215295997
 51
359.9784704003
  0
ARC
  5
658
100
AcDbEntity
  8
ASSI
100
AcDbCircle
 62
7
  6
CONTINUOUS
 10
36.4705787775
 20
-11.0141961302
 40
3.5220553542
100
AcDbArc
 50
159.0191965858
 51
163.7921491218
  0
ARC
  5
659
100
AcDbEntity
  8
ASSI
100
AcDbCircle
 62
7
  6
CONTINUOUS
 10
36.175730102
 20
-8.2812704923
 40
1.9319241343
100
AcDbArc
 50
337.4191892411
 51
347.6454766647
  0
ARC
  5
65A
100
AcDbEntity
  8
0
100
AcDbCircle
 62
7
  6
CONTINUOUS
 10
37.302034014
 20
-0.8291931662
 40
0.9345803565
100
AcDbArc
 50
97.3568734265
 51
164.2677653708
  0
ARC
  5
65B
100
AcDbEntity
  8
ASSI
100
AcDbCircle
 62
7
  6
CONTINUOUS
 10
37.302034014
 20
-0.8291931662
 40
0.9345790614
100
AcDbArc
 50
183.2757971638
 51
78.4375028422
  0
CIRCLE
  5
65C
100
AcDbEntity
  8
ASSI
100
AcDbCircle
 62
7
  6
CONTINUOUS
 10
37.302034014
 20
-0.8291931662
 40
0.534046
  0
ARC
  5
65D
100
AcDbEntity
  8
RACCORDO
100
AcDbCircle
 62
250
  6
CONTINUOUS
 10
69.3425758499
 20
-17.818299694
 40
0.5001084232
100
AcDbArc
 50
0.0210238052
 51
89.9789761948
  0
ARC
  5
65E
100
AcDbEntity
  8
RACCORDO
100
AcDbCircle
 62
7
  6
CONTINUOUS
 10
62.7749048971
 20
22.9681145413
 40
5.94859207
100
AcDbArc
 50
314.4409967678
 51
316.0086772882
  0
ARC
  5
65F
100
AcDbEntity
  8
RACCORDO
100
AcDbCircle
 62
7
  6
CONTINUOUS
 10
63.4443684594
 20
22.9675959559
 40
5.9478558534
100
AcDbArc
 50
223.9912256832
 51
225.5591002608
  0
ARC
  5
660
100
AcDbEntity
  8
ASSI
100
AcDbCircle
 62
7
  6
CONTINUOUS
 10
35.406174014
 20
1.9478428338
 40
5.6074766208
100
AcDbArc
 50
66.1507510581
 51
77.0671232762
  0
ARC
  5
661
100
AcDbEntity
  8
ASSI
100
AcDbCircle
 62
7
  6
CONTINUOUS
 10
35.406174014
 20
1.9478428338
 40
5.6074765047
100
AcDbArc
 50
109.1821054584
 51
112.6110335093
  0
ARC
  5
662
100
AcDbEntity
  8
ASSI
100
AcDbCircle
 62
7
  6
CONTINUOUS
 10
35.406174014
 20
1.9478428338
 40
5.6074761346
100
AcDbArc
 50
91.9102144889
 51
103.4934082927
  0
CIRCLE
  5
663
100
AcDbEntity
  8
RACCORDO
100
AcDbCircle
 62
250
  6
CONTINUOUS
 10
0.109898014
 20
41.8279628338
 40
2.4
  0
CIRCLE
  5
664
100
AcDbEntity
  8
RACCORDO
100
AcDbCircle
 62
7
  6
CONTINUOUS
 10
0.109898014
 20
41.8279628338
 40
2.2
  0
CIRCLE
  5
665
100
AcDbEntity
  8
RACCORDO
100
AcDbCircle
 62
250
  6
CONTINUOUS
 10
4.109898014
 20
24.1779628338
 40
2.1982622421
  0
CIRCLE
  5
666
100
AcDbEntity
  8
RACCORDO
100
AcDbCircle
 62
250
  6
CONTINUOUS
 10
61.609898014
 20
24.1779628338
 40
2.1982622421
  0
CIRCLE
  5
667
100
AcDbEntity
  8
RACCORDO
100
AcDbCircle
 62
7
  6
CONTINUOUS
 10
61.609898014
 20
24.1779628338
 40
1.9982698575
  0
CIRCLE
  5
668
100
AcDbEntity
  8
RACCORDO
100
AcDbCircle
 62
7
  6
CONTINUOUS
 10
4.109898014
 20
24.1779628338
 40
1.9982698575
  0
CIRCLE
  5
669
100
AcDbEntity
  8
DRAFT
100
AcDbCircle
 62
7
  6
CONTINUOUS
 10
61.609898014
 20
24.1779628338
 40
1.9476387933
  0
CIRCLE
  5
66A
100
AcDbEntity
  8
DRAFT
100
AcDbCircle
 62
7
  6
CONTINUOUS
 10
4.109898014
 20
24.1779628338
 40
1.9476387933
  0
CIRCLE
  5
66B
100
AcDbEntity
  8
ASSI
100
AcDbCircle
 62
7
  6
CONTINUOUS
 10
15.872299014
 20
0.7779638338
 40
0.508333
  0
ARC
  5
66C
100
AcDbEntity
  8
RACCORDO
100
AcDbCircle
 62
250
  6
CONTINUOUS
 10
69.3425714267
 20
45.0106362466
 40
0.5001133679
100
AcDbArc
 50
0.0215303572
 51
89.9784696428
  0
ARC
  5
66D
100
AcDbEntity
  8
RACCORDO
100
AcDbCircle
 62
250
  6
CONTINUOUS
 10
69.3425758499
 20
19.3742253617
 40
0.5001084232
100
AcDbArc
 50
270.0210238052
 51
359.9789761948
  0
ARC
  5
66E
100
AcDbEntity
  8
RACCORDO
100
AcDbCircle
 62
250
  6
CONTINUOUS
 10
59.2444611635
 20
15.2779246213
 40
0.4999643107
100
AcDbArc
 50
179.7645441827
 51
269.9955577277
  0
ARC
  5
66F
100
AcDbEntity
  8
RACCORDO
100
AcDbCircle
 62
250
  6
CONTINUOUS
 10
66.9753348644
 20
15.2779246214
 40
0.4999643108
100
AcDbArc
 50
270.0044422802
 51
0.2354558037
  0
ARC
  5
670
100
AcDbEntity
  8
ASSI
100
AcDbCircle
 62
7
  6
CONTINUOUS
 10
38.103102014
 20
6.8610608338
 40
0.4806413166
100
AcDbArc
 50
303.7488518717
 51
153.3682031718
  0
SPLINE
  5
671
100
AcDbEntity
  8
0
100
AcDbSpline
 62
250
  6
CONTINUOUS
 70
0
 71
3
 72
15
 73
11
 74
0
 42
0.0000001
 43
0.0000001
 44
0.0000000001
 40
0.0
 40
0.0
 40
0.0
 40
0.0
 40
0.0481075313
 40
0.0805991654
 40
0.1194351114
 40
0.2163802327
 40
0.3388543637
 40
0.4838225439
 40
0.6459410333
 40
1.0
 40
1.0
 40
1.0
 40
1.0
 10
15.0720904019
 20
-33.4225214946
 30
0.0
 10
15.0671932449
 20
-33.4236913105
 30
0.0
 10
15.0601760777
 20
-33.4295178962
 30
0.0
 10
15.0529980504
 20
-33.4396281868
 30
0.0
 10
15.0446153674
 20
-33.4552138904
 30
0.0
 10
15.0353262237
 20
-33.4806811974
 30
0.0
 10
15.0261665282
 20
-33.5177503844
 30
0.0
 10
15.0187030555
 20
-33.5621174896
 30
0.0
 10
15.0110548144
 20
-33.6309098599
 30
0.0
 10
15.0088226517
 20
-33.6849813161
 30
0.0
 10
15.0088226517
 20
-33.7220371662
 30
0.0
  0
SPLINE
  5
672
100
AcDbEntity
  8
0
100
AcDbSpline
 62
250
  6
CONTINUOUS
 70
0
 71
3
 72
18
 73
14
 74
0
 42
0.0000001
 43
0.0000001
 44
0.0000000001
 40
0.0
 40
0.0
 40
0.0
 40
0.0
 40
0.1880209937
 40
0.3689317397
 40
0.5356314959
 40
0.6819172627
 40
0.8017339904
 40
0.8509003426
 40
0.8928607212
 40
0.9276977953
 40
0.9558868846
 40
0.9789251066
 40
1.0
 40
1.0
 40
1.0
 40
1.0
 10
15.0088226517
 20
-33.7220371662
 30
0.0
 10
15.0088226517
 20
-33.7421674616
 30
0.0
 10
15.0097545481
 20
-33.7816725468
 30
0.0
 10
15.0137015643
 20
-33.838902509
 30
0.0
 10
15.0200045333
 20
-33.8914345488
 30
0.0
 10
15.0283902406
 20
-33.9370372244
 30
0.0
 10
15.0373971692
 20
-33.9696579846
 30
0.0
 10
15.0457722345
 20
-33.9906568559
 30
0.0
 10
15.0519018702
 20
-34.0026980501
 30
0.0
 10
15.0582590849
 20
-34.0120187726
 30
0.0
 10
15.0648691198
 20
-34.0185632165
 30
0.0
 10
15.0719748003
 20
-34.0221131342
 30
0.0
 10
15.0769053586
 20
-34.0220740207
 30
0.0
 10
15.0790989007
 20
-34.0215452937
 30
0.0
  0
SPLINE
  5
673
100
AcDbEntity
  8
0
100
AcDbSpline
 62
250
  6
CONTINUOUS
 70
0
 71
3
 72
12
 73
8
 74
0
 42
0.0000001
 43
0.0000001
 44
0.0000000001
 40
0.0
 40
0.0
 40
0.0
 40
0.0
 40
0.2497877954
 40
0.4995206672
 40
0.6248560063
 40
0.7502030051
 40
1.0
 40
1.0
 40
1.0
 40
1.0
 10
12.2098995125
 20
-34.3229551742
 30
0.0
 10
12.2100148121
 20
-34.3582824145
 30
0.0
 10
12.2234787305
 20
-34.4293809905
 30
0.0
 10
12.2692551268
 20
-34.5071359518
 30
0.0
 10
12.3203858995
 20
-34.5566331443
 30
0.0
 10
12.3796300885
 20
-34.5958473889
 30
0.0
 10
12.4311712033
 20
-34.6134403238
 30
0.0
 10
12.466106367
 20
-34.6186989807
 30
0.0
  0
SPLINE
  5
674
100
AcDbEntity
  8
0
100
AcDbSpline
 62
7
  6
CONTINUOUS
 70
0
 71
3
 72
8
 73
4
 74
0
 42
0.0000001
 43
0.0000001
 44
0.0000000001
 40
0.0
 40
0.0
 40
0.0
 40
0.0
 40
1.0
 40
1.0
 40
1.0
 40
1.0
 10
11.0738816362
 20
-26.3029374538
 30
0.0
 10
11.0302254211
 20
-26.2756523548
 30
0.0
 10
10.98520496
 20
-26.2415461002
 30
0.0
 10
10.9412094513
 20
-26.1996129331
 30
0.0
  0
SPLINE
  5
675
100
AcDbEntity
  8
0
100
AcDbSpline
 62
7
  6
CONTINUOUS
 70
0
 71
3
 72
8
 73
4
 74
0
 42
0.0000001
 43
0.0000001
 44
0.0000000001
 40
0.0
 40
0.0
 40
0.0
 40
0.0
 40
1.0
 40
1.0
 40
1.0
 40
1.0
 10
10.9412094513
 20
-26.1996129331
 30
0.0
 10
10.9235180473
 20
-26.1827508345
 30
0.0
 10
10.8989430832
 20
-26.1568459292
 30
0.0
 10
10.8675930599
 20
-26.122066057
 30
0.0
  0
SPLINE
  5
676
100
AcDbEntity
  8
0
100
AcDbSpline
 62
7
  6
CONTINUOUS
 70
0
 71
3
 72
8
 73
4
 74
0
 42
0.0000001
 43
0.0000001
 44
0.0000000001
 40
0.0
 40
0.0
 40
0.0
 40
0.0
 40
1.0
 40
1.0
 40
1.0
 40
1.0
 10
9.3176501443
 20
-26.1221691344
 30
0.0
 10
9.3395953585
 20
-26.2336465384
 30
0.0
 10
9.3840517233
 20
-26.3271676151
 30
0.0
 10
9.4500779595
 20
-26.4028227426
 30
0.0
  0
SPLINE
  5
677
100
AcDbEntity
  8
0
100
AcDbSpline
 62
7
  6
CONTINUOUS
 70
0
 71
3
 72
8
 73
4
 74
0
 42
0.0000001
 43
0.0000001
 44
0.0000000001
 40
0.0
 40
0.0
 40
0.0
 40
0.0
 40
1.0
 40
1.0
 40
1.0
 40
1.0
 10
9.4500779595
 20
-26.4028227426
 30
0.0
 10
9.5486428689
 20
-26.5157617984
 30
0.0
 10
9.6918898772
 20
-26.5812458454
 30
0.0
 10
9.8801572274
 20
-26.5976170955
 30
0.0
  0
SPLINE
  5
678
100
AcDbEntity
  8
0
100
AcDbSpline
 62
7
  6
CONTINUOUS
 70
0
 71
3
 72
8
 73
4
 74
0
 42
0.0000001
 43
0.0000001
 44
0.0000000001
 40
0.0
 40
0.0
 40
0.0
 40
0.0
 40
1.0
 40
1.0
 40
1.0
 40
1.0
 10
9.9060780954
 20
-26.3452295719
 30
0.0
 10
9.7805664491
 20
-26.3452295719
 30
0.0
 10
9.6823400211
 20
-26.3083948551
 30
0.0
 10
9.6113986921
 20
-26.2374534069
 30
0.0
  0
SPLINE
  5
679
100
AcDbEntity
  8
0
100
AcDbSpline
 62
7
  6
CONTINUOUS
 70
0
 71
3
 72
8
 73
4
 74
0
 42
0.0000001
 43
0.0000001
 44
0.0000000001
 40
0.0
 40
0.0
 40
0.0
 40
0.0
 40
1.0
 40
1.0
 40
1.0
 40
1.0
 10
9.6113986921
 20
-26.2374534069
 30
0.0
 10
9.5781080009
 20
-26.2041626598
 30
0.0
 10
9.5526284706
 20
-26.1657645961
 30
0.0
 10
9.5349601133
 20
-26.1221182848
 30
0.0
  0
LINE
  5
67A
100
AcDbEntity
  8
0
100
AcDbLine
 62
7
  6
CONTINUOUS
 10
10.5617655675
 20
-26.121984973
 11
10.5703648853
 21
-26.132492298
  0
SPLINE
  5
67B
100
AcDbEntity
  8
0
100
AcDbSpline
 62
7
  6
CONTINUOUS
 70
0
 71
3
 72
8
 73
4
 74
0
 42
0.0000001
 43
0.0000001
 44
0.0000000001
 40
0.0
 40
0.0
 40
0.0
 40
0.0
 40
1.0
 40
1.0
 40
1.0
 40
1.0
 10
10.5703648853
 20
-26.132492298
 30
0.0
 10
10.6850685429
 20
-26.2729238925
 30
0.0
 10
10.7860235523
 20
-26.3807000576
 30
0.0
 10
10.8733359527
 20
-26.454369968
 30
0.0
  0
SPLINE
  5
67C
100
AcDbEntity
  8
0
100
AcDbSpline
 62
7
  6
CONTINUOUS
 70
0
 71
3
 72
8
 73
4
 74
0
 42
0.0000001
 43
0.0000001
 44
0.0000000001
 40
0.0
 40
0.0
 40
0.0
 40
0.0
 40
1.0
 40
1.0
 40
1.0
 40
1.0
 10
10.8733359527
 20
-26.454369968
 30
0.0
 10
10.960648353
 20
-26.5280398784
 30
0.0
 10
11.0493250143
 20
-26.5826100765
 30
0.0
 10
11.1389471529
 20
-26.61642971
 30
0.0
  0
SPLINE
  5
67D
100
AcDbEntity
  8
0
100
AcDbSpline
 62
7
  6
CONTINUOUS
 70
0
 71
3
 72
8
 73
4
 74
0
 42
0.0000001
 43
0.0000001
 44
0.0000000001
 40
0.0
 40
0.0
 40
0.0
 40
0.0
 40
1.0
 40
1.0
 40
1.0
 40
1.0
 10
11.1389471529
 20
-26.61642971
 30
0.0
 10
11.1939362165
 20
-26.6371802745
 30
0.0
 10
11.2512349848
 20
-26.6467303691
 30
0.0
 10
11.309898014
 20
-26.6440019069
 30
0.0
  0
SPLINE
  5
67E
100
AcDbEntity
  8
0
100
AcDbSpline
 62
7
  6
CONTINUOUS
 70
0
 71
3
 72
8
 73
4
 74
0
 42
0.0000001
 43
0.0000001
 44
0.0000000001
 40
0.0
 40
0.0
 40
0.0
 40
0.0
 40
1.0
 40
1.0
 40
1.0
 40
1.0
 10
9.5718352746
 20
-28.1010274349
 30
0.0
 10
9.7137179326
 20
-28.2265390811
 30
0.0
 10
9.8883427333
 20
-28.3438653408
 30
0.0
 10
10.0957097332
 20
-28.4543700856
 30
0.0
  0
SPLINE
  5
67F
100
AcDbEntity
  8
0
100
AcDbSpline
 62
7
  6
CONTINUOUS
 70
0
 71
3
 72
8
 73
4
 74
0
 42
0.0000001
 43
0.0000001
 44
0.0000000001
 40
0.0
 40
0.0
 40
0.0
 40
0.0
 40
1.0
 40
1.0
 40
1.0
 40
1.0
 10
10.0957097332
 20
-28.4543700856
 30
0.0
 10
10.3030767392
 20
-28.5648748336
 30
0.0
 10
10.517265017
 20
-28.6494588314
 30
0.0
 10
10.739513893
 20
-28.7085892371
 30
0.0
  0
SPLINE
  5
680
100
AcDbEntity
  8
0
100
AcDbSpline
 62
7
  6
CONTINUOUS
 70
0
 71
3
 72
8
 73
4
 74
0
 42
0.0000001
 43
0.0000001
 44
0.0000000001
 40
0.0
 40
0.0
 40
0.0
 40
0.0
 40
1.0
 40
1.0
 40
1.0
 40
1.0
 10
10.739513893
 20
-28.7085892371
 30
0.0
 10
10.9633768748
 20
-28.7681490837
 30
0.0
 10
11.1530085158
 20
-28.7981626449
 30
0.0
 10
11.309898014
 20
-28.8008911071
 30
0.0
  0
SPLINE
  5
681
100
AcDbEntity
  8
0
100
AcDbSpline
 62
7
  6
CONTINUOUS
 70
0
 71
3
 72
8
 73
4
 74
0
 42
0.0000001
 43
0.0000001
 44
0.0000000001
 40
0.0
 40
0.0
 40
0.0
 40
0.0
 40
1.0
 40
1.0
 40
1.0
 40
1.0
 10
11.309898014
 20
-28.5485038219
 30
0.0
 10
11.1107165616
 20
-28.5348612724
 30
0.0
 10
10.9279062103
 20
-28.5034832416
 30
0.0
 10
10.7599632037
 20
-28.4548532992
 30
0.0
  0
SPLINE
  5
682
100
AcDbEntity
  8
0
100
AcDbSpline
 62
7
  6
CONTINUOUS
 70
0
 71
3
 72
8
 73
4
 74
0
 42
0.0000001
 43
0.0000001
 44
0.0000000001
 40
0.0
 40
0.0
 40
0.0
 40
0.0
 40
1.0
 40
1.0
 40
1.0
 40
1.0
 10
10.0672230559
 20
-28.1648572389
 30
0.0
 10
9.8433222722
 20
-28.0396360813
 30
0.0
 10
9.6632404279
 20
-27.914124435
 30
0.0
 10
9.5268148135
 20
-27.7858843265
 30
0.0
  0
SPLINE
  5
683
100
AcDbEntity
  8
0
100
AcDbSpline
 62
7
  6
CONTINUOUS
 70
0
 71
3
 72
8
 73
4
 74
0
 42
0.0000001
 43
0.0000001
 44
0.0000000001
 40
0.0
 40
0.0
 40
0.0
 40
0.0
 40
1.0
 40
1.0
 40
1.0
 40
1.0
 10
10.3491213122
 20
-30.2637249789
 30
0.0
 10
10.2703345966
 20
-30.1869759021
 30
0.0
 10
10.2294068288
 20
-30.0928420482
 30
0.0
 10
10.2294068288
 20
-29.9809731899
 30
0.0
  0
SPLINE
  5
684
100
AcDbEntity
  8
0
100
AcDbSpline
 62
7
  6
CONTINUOUS
 70
0
 71
3
 72
8
 73
4
 74
0
 42
0.0000001
 43
0.0000001
 44
0.0000000001
 40
0.0
 40
0.0
 40
0.0
 40
0.0
 40
1.0
 40
1.0
 40
1.0
 40
1.0
 10
10.2294068288
 20
-29.9809731899
 30
0.0
 10
10.2294068288
 20
-29.8691040931
 30
0.0
 10
10.2703345966
 20
-29.7763347087
 30
0.0
 10
10.3494614453
 20
-29.7026648132
 30
0.0
  0
SPLINE
  5
685
100
AcDbEntity
  8
0
100
AcDbSpline
 62
7
  6
CONTINUOUS
 70
0
 71
3
 72
8
 73
4
 74
0
 42
0.0000001
 43
0.0000001
 44
0.0000000001
 40
0.0
 40
0.0
 40
0.0
 40
0.0
 40
1.0
 40
1.0
 40
1.0
 40
1.0
 10
10.3494614453
 20
-29.7026648132
 30
0.0
 10
10.4285883259
 20
-29.6289948879
 30
0.0
 10
10.5377288412
 20
-29.5921599327
 30
0.0
 10
10.6755187463
 20
-29.5921599327
 30
0.0
  0
SPLINE
  5
686
100
AcDbEntity
  8
0
100
AcDbSpline
 62
7
  6
CONTINUOUS
 70
0
 71
3
 72
8
 73
4
 74
0
 42
0.0000001
 43
0.0000001
 44
0.0000000001
 40
0.0
 40
0.0
 40
0.0
 40
0.0
 40
1.0
 40
1.0
 40
1.0
 40
1.0
 10
10.6755187463
 20
-29.5921599327
 30
0.0
 10
10.8201299261
 20
-29.5921599327
 30
0.0
 10
10.9333632242
 20
-29.630359119
 30
0.0
 10
11.0165443293
 20
-29.7040724996
 30
0.0
  0
SPLINE
  5
687
100
AcDbEntity
  8
0
100
AcDbSpline
 62
7
  6
CONTINUOUS
 70
0
 71
3
 72
8
 73
4
 74
0
 42
0.0000001
 43
0.0000001
 44
0.0000000001
 40
0.0
 40
0.0
 40
0.0
 40
0.0
 40
1.0
 40
1.0
 40
1.0
 40
1.0
 10
11.0165443293
 20
-29.7040724996
 30
0.0
 10
11.1011667799
 20
-29.779063171
 30
0.0
 10
11.1420944732
 20
-29.867739862
 30
0.0
 10
11.1420944732
 20
-29.9714233337
 30
0.0
  0
SPLINE
  5
688
100
AcDbEntity
  8
0
100
AcDbSpline
 62
7
  6
CONTINUOUS
 70
0
 71
3
 72
8
 73
4
 74
0
 42
0.0000001
 43
0.0000001
 44
0.0000000001
 40
0.0
 40
0.0
 40
0.0
 40
0.0
 40
1.0
 40
1.0
 40
1.0
 40
1.0
 10
11.1420944732
 20
-29.9714233337
 30
0.0
 10
11.1420944732
 20
-30.0423645435
 30
0.0
 10
11.12299488
 20
-30.1105775295
 30
0.0
 10
11.0823756052
 20
-30.1748913584
 30
0.0
  0
SPLINE
  5
689
100
AcDbEntity
  8
0
100
AcDbSpline
 62
7
  6
CONTINUOUS
 70
0
 71
3
 72
8
 73
4
 74
0
 42
0.0000001
 43
0.0000001
 44
0.0000000001
 40
0.0
 40
0.0
 40
0.0
 40
0.0
 40
1.0
 40
1.0
 40
1.0
 40
1.0
 10
11.0823756052
 20
-30.1748913584
 30
0.0
 10
11.0411394786
 20
-30.2401818691
 30
0.0
 10
10.982476468
 20
-30.2906593738
 30
0.0
 10
10.904833479
 20
-30.3263888213
 30
0.0
  0
SPLINE
  5
68A
100
AcDbEntity
  8
0
100
AcDbSpline
 62
7
  6
CONTINUOUS
 70
0
 71
3
 72
8
 73
4
 74
0
 42
0.0000001
 43
0.0000001
 44
0.0000000001
 40
0.0
 40
0.0
 40
0.0
 40
0.0
 40
1.0
 40
1.0
 40
1.0
 40
1.0
 10
10.904833479
 20
-30.3263888213
 30
0.0
 10
10.8283154618
 20
-30.3616005836
 30
0.0
 10
10.7464600753
 20
-30.3793359457
 30
0.0
 10
10.6618761968
 20
-30.3793359457
 30
0.0
  0
SPLINE
  5
68B
100
AcDbEntity
  8
0
100
AcDbSpline
 62
7
  6
CONTINUOUS
 70
0
 71
3
 72
8
 73
4
 74
0
 42
0.0000001
 43
0.0000001
 44
0.0000000001
 40
0.0
 40
0.0
 40
0.0
 40
0.0
 40
1.0
 40
1.0
 40
1.0
 40
1.0
 10
10.6618761968
 20
-30.3793359457
 30
0.0
 10
10.5336360883
 20
-30.3793359457
 30
0.0
 10
10.4285883259
 20
-30.3411367593
 30
0.0
 10
10.3491213122
 20
-30.2637249789
 30
0.0
  0
SPLINE
  5
68C
100
AcDbEntity
  8
0
100
AcDbSpline
 62
7
  6
CONTINUOUS
 70
0
 71
3
 72
8
 73
4
 74
0
 42
0.0000001
 43
0.0000001
 44
0.0000000001
 40
0.0
 40
0.0
 40
0.0
 40
0.0
 40
1.0
 40
1.0
 40
1.0
 40
1.0
 10
9.4344335617
 20
-29.5583907731
 30
0.0
 10
9.3467329692
 20
-29.6590084491
 30
0.0
 10
9.3017123889
 20
-29.7872485576
 30
0.0
 10
9.3017123889
 20
-29.9441382347
 30
0.0
  0
SPLINE
  5
68D
100
AcDbEntity
  8
0
100
AcDbSpline
 62
7
  6
CONTINUOUS
 70
0
 71
3
 72
8
 73
4
 74
0
 42
0.0000001
 43
0.0000001
 44
0.0000000001
 40
0.0
 40
0.0
 40
0.0
 40
0.0
 40
1.0
 40
1.0
 40
1.0
 40
1.0
 10
9.3017123889
 20
-29.9441382347
 30
0.0
 10
9.3017123889
 20
-30.1555978714
 30
0.0
 10
9.3781108808
 20
-30.3234013973
 30
0.0
 10
9.5308493636
 20
-30.4476202753
 30
0.0
  0
SPLINE
  5
68E
100
AcDbEntity
  8
0
100
AcDbSpline
 62
7
  6
CONTINUOUS
 70
0
 71
3
 72
8
 73
4
 74
0
 42
0.0000001
 43
0.0000001
 44
0.0000000001
 40
0.0
 40
0.0
 40
0.0
 40
0.0
 40
1.0
 40
1.0
 40
1.0
 40
1.0
 10
9.5308493636
 20
-30.4476202753
 30
0.0
 10
9.7068966579
 20
-30.5907957016
 30
0.0
 10
9.9879335117
 20
-30.6617370306
 30
0.0
 10
10.3740180682
 20
-30.6617370306
 30
0.0
  0
SPLINE
  5
68F
100
AcDbEntity
  8
0
100
AcDbSpline
 62
7
  6
CONTINUOUS
 70
0
 71
3
 72
8
 73
4
 74
0
 42
0.0000001
 43
0.0000001
 44
0.0000000001
 40
0.0
 40
0.0
 40
0.0
 40
0.0
 40
1.0
 40
1.0
 40
1.0
 40
1.0
 10
10.3740180682
 20
-30.6617370306
 30
0.0
 10
10.7205392074
 20
-30.6617370306
 30
0.0
 10
10.9688338887
 20
-30.5976169763
 30
0.0
 10
11.1192387562
 20
-30.4684055381
 30
0.0
  0
SPLINE
  5
690
100
AcDbEntity
  8
0
100
AcDbSpline
 62
7
  6
CONTINUOUS
 70
0
 71
3
 72
8
 73
4
 74
0
 42
0.0000001
 43
0.0000001
 44
0.0000000001
 40
0.0
 40
0.0
 40
0.0
 40
0.0
 40
1.0
 40
1.0
 40
1.0
 40
1.0
 10
11.1192387562
 20
-30.4684055381
 30
0.0
 10
11.2689703207
 20
-30.3397725282
 30
0.0
 10
11.344004425
 20
-30.1719688831
 30
0.0
 10
11.344004425
 20
-29.9673304019
 30
0.0
  0
SPLINE
  5
691
100
AcDbEntity
  8
0
100
AcDbSpline
 62
7
  6
CONTINUOUS
 70
0
 71
3
 72
8
 73
4
 74
0
 42
0.0000001
 43
0.0000001
 44
0.0000000001
 40
0.0
 40
0.0
 40
0.0
 40
0.0
 40
1.0
 40
1.0
 40
1.0
 40
1.0
 10
11.344004425
 20
-29.9673304019
 30
0.0
 10
11.344004425
 20
-29.8472759185
 30
0.0
 10
11.3153550399
 20
-29.7408639846
 30
0.0
 10
11.257754564
 20
-29.6455488837
 30
0.0
  0
SPLINE
  5
692
100
AcDbEntity
  8
0
100
AcDbSpline
 62
7
  6
CONTINUOUS
 70
0
 71
3
 72
8
 73
4
 74
0
 42
0.0000001
 43
0.0000001
 44
0.0000000001
 40
0.0
 40
0.0
 40
0.0
 40
0.0
 40
1.0
 40
1.0
 40
1.0
 40
1.0
 10
11.257754564
 20
-29.6455488837
 30
0.0
 10
11.2007574987
 20
-29.5512322841
 30
0.0
 10
11.1189021122
 20
-29.4775623737
 30
0.0
 10
11.0111258547
 20
-29.4229921816
 30
0.0
  0
SPLINE
  5
693
100
AcDbEntity
  8
0
100
AcDbSpline
 62
7
  6
CONTINUOUS
 70
0
 71
3
 72
8
 73
4
 74
0
 42
0.0000001
 43
0.0000001
 44
0.0000000001
 40
0.0
 40
0.0
 40
0.0
 40
0.0
 40
1.0
 40
1.0
 40
1.0
 40
1.0
 10
11.0111258547
 20
-29.4229921816
 30
0.0
 10
10.9033495735
 20
-29.3684219776
 30
0.0
 10
10.7860235523
 20
-29.3411368785
 30
0.0
 10
10.6605119061
 20
-29.3411368785
 30
0.0
  0
SPLINE
  5
694
100
AcDbEntity
  8
0
100
AcDbSpline
 62
7
  6
CONTINUOUS
 70
0
 71
3
 72
8
 73
4
 74
0
 42
0.0000001
 43
0.0000001
 44
0.0000000001
 40
0.0
 40
0.0
 40
0.0
 40
0.0
 40
1.0
 40
1.0
 40
1.0
 40
1.0
 10
10.6605119061
 20
-29.3411368785
 30
0.0
 10
10.469516034
 20
-29.3411368785
 30
0.0
 10
10.3139907669
 20
-29.3997997699
 30
0.0
 10
10.1939362097
 20
-29.514397314
 30
0.0
  0
SPLINE
  5
695
100
AcDbEntity
  8
0
100
AcDbSpline
 62
7
  6
CONTINUOUS
 70
0
 71
3
 72
8
 73
4
 74
0
 42
0.0000001
 43
0.0000001
 44
0.0000000001
 40
0.0
 40
0.0
 40
0.0
 40
0.0
 40
1.0
 40
1.0
 40
1.0
 40
1.0
 10
10.1939362097
 20
-29.514397314
 30
0.0
 10
10.0738816213
 20
-29.6289948879
 30
0.0
 10
10.0124901485
 20
-29.7681490837
 30
0.0
 10
10.0124901485
 20
-29.9318599163
 30
0.0
  0
SPLINE
  5
696
100
AcDbEntity
  8
0
100
AcDbSpline
 62
7
  6
CONTINUOUS
 70
0
 71
3
 72
8
 73
4
 74
0
 42
0.0000001
 43
0.0000001
 44
0.0000000001
 40
0.0
 40
0.0
 40
0.0
 40
0.0
 40
1.0
 40
1.0
 40
1.0
 40
1.0
 10
10.0124901485
 20
-29.9318599163
 30
0.0
 10
10.0124901485
 20
-30.0259935318
 30
0.0
 10
10.0343182038
 20
-30.1160344539
 30
0.0
 10
10.0776975474
 20
-30.2007596547
 30
0.0
  0
SPLINE
  5
697
100
AcDbEntity
  8
0
100
AcDbSpline
 62
7
  6
CONTINUOUS
 70
0
 71
3
 72
8
 73
4
 74
0
 42
0.0000001
 43
0.0000001
 44
0.0000000001
 40
0.0
 40
0.0
 40
0.0
 40
0.0
 40
1.0
 40
1.0
 40
1.0
 40
1.0
 10
10.0776975474
 20
-30.2007596547
 30
0.0
 10
10.1216306638
 20
-30.2865664421
 30
0.0
 10
10.1884791803
 20
-30.3588721214
 30
0.0
 10
10.2785201024
 20
-30.417535132
 30
0.0
  0
SPLINE
  5
698
100
AcDbEntity
  8
0
100
AcDbSpline
 62
7
  6
CONTINUOUS
 70
0
 71
3
 72
8
 73
4
 74
0
 42
0.0000001
 43
0.0000001
 44
0.0000000001
 40
0.0
 40
0.0
 40
0.0
 40
0.0
 40
1.0
 40
1.0
 40
1.0
 40
1.0
 10
10.2785201024
 20
-30.417535132
 30
0.0
 10
10.0793386649
 20
-30.4161709009
 30
0.0
 10
9.9251776885
 20
-30.3929784952
 30
0.0
 10
9.8158964569
 20
-30.3483038319
 30
0.0
  0
SPLINE
  5
699
100
AcDbEntity
  8
0
100
AcDbSpline
 62
7
  6
CONTINUOUS
 70
0
 71
3
 72
8
 73
4
 74
0
 42
0.0000001
 43
0.0000001
 44
0.0000000001
 40
0.0
 40
0.0
 40
0.0
 40
0.0
 40
1.0
 40
1.0
 40
1.0
 40
1.0
 10
9.8158964569
 20
-30.3483038319
 30
0.0
 10
9.708260889
 20
-30.3043019233
 30
0.0
 10
9.6264054727
 20
-30.2429103313
 30
0.0
 10
9.5689482443
 20
-30.1652653107
 30
0.0
  0
SPLINE
  5
69A
100
AcDbEntity
  8
0
100
AcDbSpline
 62
7
  6
CONTINUOUS
 70
0
 71
3
 72
8
 73
4
 74
0
 42
0.0000001
 43
0.0000001
 44
0.0000000001
 40
0.0
 40
0.0
 40
0.0
 40
0.0
 40
1.0
 40
1.0
 40
1.0
 40
1.0
 10
9.5689482443
 20
-30.1652653107
 30
0.0
 10
9.5254505824
 20
-30.1064845977
 30
0.0
 10
9.5036224078
 20
-30.0382718502
 30
0.0
 10
9.5036224078
 20
-29.9591450153
 30
0.0
  0
SPLINE
  5
69B
100
AcDbEntity
  8
0
100
AcDbSpline
 62
7
  6
CONTINUOUS
 70
0
 71
3
 72
8
 73
4
 74
0
 42
0.0000001
 43
0.0000001
 44
0.0000000001
 40
0.0
 40
0.0
 40
0.0
 40
0.0
 40
1.0
 40
1.0
 40
1.0
 40
1.0
 10
9.5036224078
 20
-29.9591450153
 30
0.0
 10
9.5036224078
 20
-29.8622826992
 30
0.0
 10
9.5390931319
 20
-29.7804274021
 30
0.0
 10
9.6093931967
 20
-29.7143622792
 30
0.0
  0
SPLINE
  5
69C
100
AcDbEntity
  8
0
100
AcDbSpline
 62
7
  6
CONTINUOUS
 70
0
 71
3
 72
8
 73
4
 74
0
 42
0.0000001
 43
0.0000001
 44
0.0000000001
 40
0.0
 40
0.0
 40
0.0
 40
0.0
 40
1.0
 40
1.0
 40
1.0
 40
1.0
 10
9.6093931967
 20
-29.7143622792
 30
0.0
 10
9.6523263406
 20
-29.6740154682
 30
0.0
 10
9.7232676696
 20
-29.6426374374
 30
0.0
 10
9.8187656354
 20
-29.6208092628
 30
0.0
  0
SPLINE
  5
69D
100
AcDbEntity
  8
0
100
AcDbSpline
 62
7
  6
CONTINUOUS
 70
0
 71
3
 72
8
 73
4
 74
0
 42
0.0000001
 43
0.0000001
 44
0.0000000001
 40
0.0
 40
0.0
 40
0.0
 40
0.0
 40
1.0
 40
1.0
 40
1.0
 40
1.0
 10
9.7996660423
 20
-29.3766073642
 30
0.0
 10
9.6441408347
 20
-29.3970713077
 30
0.0
 10
9.522722001
 20
-29.4570986686
 30
0.0
 10
9.4344335617
 20
-29.5583907731
 30
0.0
  0
SPLINE
  5
69E
100
AcDbEntity
  8
0
100
AcDbSpline
 62
7
  6
CONTINUOUS
 70
0
 71
3
 72
8
 73
4
 74
0
 42
0.0000001
 43
0.0000001
 44
0.0000000001
 40
0.0
 40
0.0
 40
0.0
 40
0.0
 40
1.0
 40
1.0
 40
1.0
 40
1.0
 10
11.0738816362
 20
-31.8950249014
 30
0.0
 10
11.0302254211
 20
-31.8677397726
 30
0.0
 10
10.98520496
 20
-31.833633369
 30
0.0
 10
10.9412095694
 20
-31.7917002543
 30
0.0
  0
SPLINE
  5
69F
100
AcDbEntity
  8
0
100
AcDbSpline
 62
7
  6
CONTINUOUS
 70
0
 71
3
 72
8
 73
4
 74
0
 42
0.0000001
 43
0.0000001
 44
0.0000000001
 40
0.0
 40
0.0
 40
0.0
 40
0.0
 40
1.0
 40
1.0
 40
1.0
 40
1.0
 10
10.9412095694
 20
-31.7917002543
 30
0.0
 10
10.8978925597
 20
-31.7504137216
 30
0.0
 10
10.8133086514
 20
-31.6549157558
 30
0.0
 10
10.6890503884
 20
-31.5076697067
 30
0.0
  0
SPLINE
  5
6A0
100
AcDbEntity
  8
0
100
AcDbSpline
 62
7
  6
CONTINUOUS
 70
0
 71
3
 72
8
 73
4
 74
0
 42
0.0000001
 43
0.0000001
 44
0.0000000001
 40
0.0
 40
0.0
 40
0.0
 40
0.0
 40
1.0
 40
1.0
 40
1.0
 40
1.0
 10
10.6890503884
 20
-31.5076697067
 30
0.0
 10
10.5404573631
 20
-31.3315869627
 30
0.0
 10
10.4231312823
 20
-31.2060753761
 30
0.0
 10
10.3374875907
 20
-31.1293386131
 30
0.0
  0
SPLINE
  5
6A1
100
AcDbEntity
  8
0
100
AcDbSpline
 62
7
  6
CONTINUOUS
 70
0
 71
3
 72
8
 73
4
 74
0
 42
0.0000001
 43
0.0000001
 44
0.0000000001
 40
0.0
 40
0.0
 40
0.0
 40
0.0
 40
1.0
 40
1.0
 40
1.0
 40
1.0
 10
10.3374875907
 20
-31.1293386131
 30
0.0
 10
10.2525992345
 20
-31.0532786308
 30
0.0
 10
10.1707438182
 20
-30.9987084327
 30
0.0
 10
10.0930858737
 20
-30.965720999
 30
0.0
  0
SPLINE
  5
6A2
100
AcDbEntity
  8
0
100
AcDbSpline
 62
7
  6
CONTINUOUS
 70
0
 71
3
 72
8
 73
4
 74
0
 42
0.0000001
 43
0.0000001
 44
0.0000000001
 40
0.0
 40
0.0
 40
0.0
 40
0.0
 40
1.0
 40
1.0
 40
1.0
 40
1.0
 10
10.0930858737
 20
-30.965720999
 30
0.0
 10
10.0165828418
 20
-30.9332241474
 30
0.0
 10
9.9374560069
 20
-30.9168530164
 30
0.0
 10
9.8569648217
 20
-30.9168530164
 30
0.0
  0
SPLINE
  5
6A3
100
AcDbEntity
  8
0
100
AcDbSpline
 62
7
  6
CONTINUOUS
 70
0
 71
3
 72
8
 73
4
 74
0
 42
0.0000001
 43
0.0000001
 44
0.0000000001
 40
0.0
 40
0.0
 40
0.0
 40
0.0
 40
1.0
 40
1.0
 40
1.0
 40
1.0
 10
9.8569648217
 20
-30.9168530164
 30
0.0
 10
9.7000753831
 20
-30.9168530164
 30
0.0
 10
9.5677424621
 20
-30.9727875648
 30
0.0
 10
9.4613305267
 20
-31.0846565409
 30
0.0
  0
SPLINE
  5
6A4
100
AcDbEntity
  8
0
100
AcDbSpline
 62
7
  6
CONTINUOUS
 70
0
 71
3
 72
8
 73
4
 74
0
 42
0.0000001
 43
0.0000001
 44
0.0000000001
 40
0.0
 40
0.0
 40
0.0
 40
0.0
 40
1.0
 40
1.0
 40
1.0
 40
1.0
 10
9.4613305267
 20
-31.0846565409
 30
0.0
 10
9.3549184751
 20
-31.1965256391
 30
0.0
 10
9.3017123889
 20
-31.3493223248
 30
0.0
 10
9.3017123889
 20
-31.5403182564
 30
0.0
  0
SPLINE
  5
6A5
100
AcDbEntity
  8
0
100
AcDbSpline
 62
7
  6
CONTINUOUS
 70
0
 71
3
 72
8
 73
4
 74
0
 42
0.0000001
 43
0.0000001
 44
0.0000000001
 40
0.0
 40
0.0
 40
0.0
 40
0.0
 40
1.0
 40
1.0
 40
1.0
 40
1.0
 10
9.3017123889
 20
-31.5403182564
 30
0.0
 10
9.3017123889
 20
-31.7313141284
 30
0.0
 10
9.3521900129
 20
-31.8827466128
 30
0.0
 10
9.4500780779
 20
-31.9949100579
 30
0.0
  0
SPLINE
  5
6A6
100
AcDbEntity
  8
0
100
AcDbSpline
 62
7
  6
CONTINUOUS
 70
0
 71
3
 72
8
 73
4
 74
0
 42
0.0000001
 43
0.0000001
 44
0.0000000001
 40
0.0
 40
0.0
 40
0.0
 40
0.0
 40
1.0
 40
1.0
 40
1.0
 40
1.0
 10
9.4500780779
 20
-31.9949100579
 30
0.0
 10
9.5486428689
 20
-32.1078489182
 30
0.0
 10
9.6918898772
 20
-32.1733332334
 30
0.0
 10
9.8801572274
 20
-32.1897043196
 30
0.0
  0
SPLINE
  5
6A7
100
AcDbEntity
  8
0
100
AcDbSpline
 62
7
  6
CONTINUOUS
 70
0
 71
3
 72
8
 73
4
 74
0
 42
0.0000001
 43
0.0000001
 44
0.0000000001
 40
0.0
 40
0.0
 40
0.0
 40
0.0
 40
1.0
 40
1.0
 40
1.0
 40
1.0
 10
9.9060780954
 20
-31.9373168705
 30
0.0
 10
9.7805664491
 20
-31.9373168705
 30
0.0
 10
9.6823400211
 20
-31.9004819451
 30
0.0
 10
9.6113986921
 20
-31.8295406161
 30
0.0
  0
SPLINE
  5
6A8
100
AcDbEntity
  8
0
100
AcDbSpline
 62
7
  6
CONTINUOUS
 70
0
 71
3
 72
8
 73
4
 74
0
 42
0.0000001
 43
0.0000001
 44
0.0000000001
 40
0.0
 40
0.0
 40
0.0
 40
0.0
 40
1.0
 40
1.0
 40
1.0
 40
1.0
 10
9.6113986921
 20
-31.8295406161
 30
0.0
 10
9.5404573631
 20
-31.7585992871
 30
0.0
 10
9.5049866389
 20
-31.6644655524
 30
0.0
 10
9.5049866389
 20
-31.5457752405
 30
0.0
  0
SPLINE
  5
6A9
100
AcDbEntity
  8
0
100
AcDbSpline
 62
7
  6
CONTINUOUS
 70
0
 71
3
 72
8
 73
4
 74
0
 42
0.0000001
 43
0.0000001
 44
0.0000000001
 40
0.0
 40
0.0
 40
0.0
 40
0.0
 40
1.0
 40
1.0
 40
1.0
 40
1.0
 10
9.5049866389
 20
-31.5457752405
 30
0.0
 10
9.5049866389
 20
-31.4339062033
 30
0.0
 10
9.5390931319
 20
-31.3438652812
 30
0.0
 10
9.6059416645
 20
-31.2742882583
 30
0.0
  0
SPLINE
  5
6AA
100
AcDbEntity
  8
0
100
AcDbSpline
 62
7
  6
CONTINUOUS
 70
0
 71
3
 72
8
 73
4
 74
0
 42
0.0000001
 43
0.0000001
 44
0.0000000001
 40
0.0
 40
0.0
 40
0.0
 40
0.0
 40
1.0
 40
1.0
 40
1.0
 40
1.0
 10
9.6059416645
 20
-31.2742882583
 30
0.0
 10
9.6727902841
 20
-31.204711145
 30
0.0
 10
9.7546455812
 20
-31.1692404209
 30
0.0
 10
9.8515077781
 20
-31.1692404209
 30
0.0
  0
SPLINE
  5
6AB
100
AcDbEntity
  8
0
100
AcDbSpline
 62
7
  6
CONTINUOUS
 70
0
 71
3
 72
8
 73
4
 74
0
 42
0.0000001
 43
0.0000001
 44
0.0000000001
 40
0.0
 40
0.0
 40
0.0
 40
0.0
 40
1.0
 40
1.0
 40
1.0
 40
1.0
 10
9.8515077781
 20
-31.1692404209
 30
0.0
 10
9.9442772817
 20
-31.1692404209
 30
0.0
 10
10.0438679408
 20
-31.2074396072
 30
0.0
 10
10.1475515107
 20
-31.2838380083
 30
0.0
  0
SPLINE
  5
6AC
100
AcDbEntity
  8
0
100
AcDbSpline
 62
7
  6
CONTINUOUS
 70
0
 71
3
 72
8
 73
4
 74
0
 42
0.0000001
 43
0.0000001
 44
0.0000000001
 40
0.0
 40
0.0
 40
0.0
 40
0.0
 40
1.0
 40
1.0
 40
1.0
 40
1.0
 10
10.1475515107
 20
-31.2838380083
 30
0.0
 10
10.2512350034
 20
-31.3602363525
 30
0.0
 10
10.3931176614
 20
-31.5075760541
 30
0.0
 10
10.5703647684
 20
-31.7245795429
 30
0.0
  0
SPLINE
  5
6AD
100
AcDbEntity
  8
0
100
AcDbSpline
 62
7
  6
CONTINUOUS
 70
0
 71
3
 72
8
 73
4
 74
0
 42
0.0000001
 43
0.0000001
 44
0.0000000001
 40
0.0
 40
0.0
 40
0.0
 40
0.0
 40
1.0
 40
1.0
 40
1.0
 40
1.0
 10
10.5703647684
 20
-31.7245795429
 30
0.0
 10
10.6850685429
 20
-31.8650112806
 30
0.0
 10
10.7860235523
 20
-31.972787535
 30
0.0
 10
10.8733359527
 20
-32.0464573858
 30
0.0
  0
SPLINE
  5
6AE
100
AcDbEntity
  8
0
100
AcDbSpline
 62
7
  6
CONTINUOUS
 70
0
 71
3
 72
8
 73
4
 74
0
 42
0.0000001
 43
0.0000001
 44
0.0000000001
 40
0.0
 40
0.0
 40
0.0
 40
0.0
 40
1.0
 40
1.0
 40
1.0
 40
1.0
 10
10.8733359527
 20
-32.0464573858
 30
0.0
 10
10.960648353
 20
-32.1201272367
 30
0.0
 10
11.0493250143
 20
-32.1746974943
 30
0.0
 10
11.1389471837
 20
-32.2085171764
 30
0.0
  0
SPLINE
  5
6AF
100
AcDbEntity
  8
0
100
AcDbSpline
 62
7
  6
CONTINUOUS
 70
0
 71
3
 72
8
 73
4
 74
0
 42
0.0000001
 43
0.0000001
 44
0.0000000001
 40
0.0
 40
0.0
 40
0.0
 40
0.0
 40
1.0
 40
1.0
 40
1.0
 40
1.0
 10
11.1389471837
 20
-32.2085171764
 30
0.0
 10
11.1939362165
 20
-32.229267752
 30
0.0
 10
11.2512349848
 20
-32.2388175486
 30
0.0
 10
11.309898014
 20
-32.2360890342
 30
0.0
  0
LINE
  5
6B0
100
AcDbEntity
  8
ASSI
100
AcDbLine
 62
7
  6
CONTINUOUS
 10
41.490078635
 20
-8.5191791099
 11
40.9771249434
 21
-9.3127173971
  0
SPLINE
  5
6B1
100
AcDbEntity
  8
ASSI
100
AcDbSpline
 62
7
  6
CONTINUOUS
 70
0
 71
3
 72
8
 73
4
 74
0
 42
0.0000001
 43
0.0000001
 44
0.0000000001
 40
0.0
 40
0.0
 40
0.0
 40
0.0
 40
1.0
 40
1.0
 40
1.0
 40
1.0
 10
40.9771249434
 20
-9.3127173971
 30
0.0
 10
40.9256997864
 20
-9.2177000614
 30
0.0
 10
40.8670893699
 20
-9.1264057584
 30
0.0
 10
40.8039364158
 20
-9.0387442203
 30
0.0
  0
SPLINE
  5
6B2
100
AcDbEntity
  8
ASSI
100
AcDbSpline
 62
7
  6
CONTINUOUS
 70
0
 71
3
 72
12
 73
8
 74
0
 42
0.0000001
 43
0.0000001
 44
0.0000000001
 40
0.0
 40
0.0
 40
0.0
 40
0.0
 40
0.1914546415
 40
0.4289323167
 40
0.5716992375
 40
0.7144661583
 40
1.0
 40
1.0
 40
1.0
 40
1.0
 10
38.0629155291
 20
-8.6946250915
 30
0.0
 10
38.0786680038
 20
-8.7485376126
 30
0.0
 10
38.11759817
 20
-8.8682267381
 30
0.0
 10
38.1725042408
 20
-9.0267570312
 30
0.0
 10
38.2295554704
 20
-9.169211152
 30
0.0
 10
38.2903769876
 20
-9.3253101187
 30
0.0
 10
38.3363242768
 20
-9.4422593219
 30
0.0
 10
38.3668822137
 20
-9.52025324
 30
0.0
  0
SPLINE
  5
6B3
100
AcDbEntity
  8
ASSI
100
AcDbSpline
 62
7
  6
CONTINUOUS
 70
0
 71
3
 72
8
 73
4
 74
0
 42
0.0000001
 43
0.0000001
 44
0.0000000001
 40
0.0
 40
0.0
 40
0.0
 40
0.0
 40
1.0
 40
1.0
 40
1.0
 40
1.0
 10
33.0885059345
 20
-10.0311105781
 30
0.0
 10
33.0625208104
 20
-9.9373080228
 30
0.0
 10
33.0321538102
 20
-9.8446825453
 30
0.0
 10
32.9991704429
 20
-9.7531061098
 30
0.0
  0
SPLINE
  5
6B4
100
AcDbEntity
  8
ASSI
100
AcDbSpline
 62
7
  6
CONTINUOUS
 70
0
 71
3
 72
12
 73
8
 74
0
 42
0.0000001
 43
0.0000001
 44
0.0000000001
 40
0.0
 40
0.0
 40
0.0
 40
0.0
 40
0.1914546415
 40
0.4289323167
 40
0.5716992375
 40
0.7144661583
 40
1.0
 40
1.0
 40
1.0
 40
1.0
 10
30.8180285262
 20
-8.6946250915
 30
0.0
 10
30.833781001
 20
-8.7485376126
 30
0.0
 10
30.8727111672
 20
-8.8682267381
 30
0.0
 10
30.927617238
 20
-9.0267570312
 30
0.0
 10
30.9846684676
 20
-9.169211152
 30
0.0
 10
31.0454899848
 20
-9.3253101187
 30
0.0
 10
31.0914372739
 20
-9.4422593219
 30
0.0
 10
31.1219952109
 20
-9.52025324
 30
0.0
  0
SPLINE
  5
6B5
100
AcDbEntity
  8
ASSI
100
AcDbSpline
 62
7
  6
CONTINUOUS
 70
0
 71
3
 72
17
 73
13
 74
0
 42
0.0000001
 43
0.0000001
 44
0.0000000001
 40
0.0
 40
0.0
 40
0.0
 40
0.0
 40
0.1875491303
 40
0.2727128802
 40
0.3166938817
 40
0.3632661881
 40
0.5162585148
 40
0.5943454668
 40
0.6770861857
 40
0.769400965
 40
0.8727544474
 40
1.0
 40
1.0
 40
1.0
 40
1.0
 10
29.7292313267
 20
-9.6244241488
 30
0.0
 10
29.7030809002
 20
-9.7447706684
 30
0.0
 10
29.6188739444
 20
-9.9237343018
 30
0.0
 10
29.4313721014
 20
-10.0259294019
 30
0.0
 10
29.3186750486
 20
-10.0527223172
 30
0.0
 10
29.1589237416
 20
-10.0644473737
 30
0.0
 10
28.9717990128
 20
-10.0161854194
 30
0.0
 10
28.8118345709
 20
-9.8803521738
 30
0.0
 10
28.7309835974
 20
-9.7316588729
 30
0.0
 10
28.6856974517
 20
-9.5533461306
 30
0.0
 10
28.6699929527
 20
-9.3413713121
 30
0.0
 10
28.6856624853
 20
-9.1884274449
 30
0.0
 10
28.7061303628
 20
-9.1071191974
 30
0.0
  0
SPLINE
  5
6B6
100
AcDbEntity
  8
ASSI
100
AcDbSpline
 62
7
  6
CONTINUOUS
 70
0
 71
3
 72
9
 73
5
 74
0
 42
0.0000001
 43
0.0000001
 44
0.0000000001
 40
0.0
 40
0.0
 40
0.0
 40
0.0
 40
0.4786249203
 40
1.0
 40
1.0
 40
1.0
 40
1.0
 10
29.2374021127
 20
-8.6843047396
 30
0.0
 10
29.3350691416
 20
-8.6843047396
 30
0.0
 10
29.554138859
 20
-8.7376649193
 30
0.0
 10
29.6559250879
 20
-8.937610572
 30
0.0
 10
29.6879499193
 20
-9.0390667363
 30
0.0
  0
SPLINE
  5
6B7
100
AcDbEntity
  8
ASSI
100
AcDbSpline
 62
7
  6
CONTINUOUS
 70
0
 71
3
 72
24
 73
20
 74
0
 42
0.0000001
 43
0.0000001
 44
0.0000000001
 40
0.0
 40
0.0
 40
0.0
 40
0.0
 40
0.1676627207
 40
0.2502482088
 40
0.2938487221
 40
0.3403860492
 40
0.3822049105
 40
0.4228418684
 40
0.4629479786
 40
0.5032000635
 40
0.5825325595
 40
0.6637839522
 40
0.7508633541
 40
0.7973895615
 40
0.8466669932
 40
0.8925718236
 40
0.9373933897
 40
0.9815759314
 40
1.0
 40
1.0
 40
1.0
 40
1.0
 10
29.9149976601
 20
-8.9868199452
 30
0.0
 10
29.8745516519
 20
-8.8459296923
 30
0.0
 10
29.7504049245
 20
-8.6411190593
 30
0.0
 10
29.5151717281
 20
-8.5248979617
 30
0.0
 10
29.3670424145
 20
-8.4931213342
 30
0.0
 10
29.2515105512
 20
-8.4859262564
 30
0.0
 10
29.1386815077
 20
-8.4923075552
 30
0.0
 10
29.0329789819
 20
-8.5116165451
 30
0.0
 10
28.9320014616
 20
-8.5441580445
 30
0.0
 10
28.8053398378
 20
-8.6035454571
 30
0.0
 10
28.6631093783
 20
-8.7115639428
 30
0.0
 10
28.5390044411
 20
-8.8928973743
 30
0.0
 10
28.4776210975
 20
-9.0726566823
 30
0.0
 10
28.453370331
 20
-9.2309491639
 30
0.0
 10
28.4476033425
 20
-9.3549262209
 30
0.0
 10
28.4531096908
 20
-9.4773681166
 30
0.0
 10
28.4699701462
 20
-9.5943072558
 30
0.0
 10
28.4928824034
 20
-9.6855692711
 30
0.0
 10
28.5099222643
 20
-9.7375994398
 30
0.0
 10
28.5152801297
 20
-9.7527927726
 30
0.0
  0
SPLINE
  5
6B8
100
AcDbEntity
  8
ASSI
100
AcDbSpline
 62
7
  6
CONTINUOUS
 70
0
 71
3
 72
11
 73
7
 74
0
 42
0.0000001
 43
0.0000001
 44
0.0000000001
 40
0.0
 40
0.0
 40
0.0
 40
0.0
 40
0.2525992429
 40
0.4888102636
 40
0.730558892
 40
1.0
 40
1.0
 40
1.0
 40
1.0
 10
29.2506251078
 20
-10.2529982217
 30
0.0
 10
29.3334399803
 20
-10.2529982217
 30
0.0
 10
29.4955576628
 20
-10.2320309995
 30
0.0
 10
29.7119144639
 20
-10.1171085167
 30
0.0
 10
29.874470668
 20
-9.9265399237
 30
0.0
 10
29.9344933639
 20
-9.7669553581
 30
0.0
 10
29.9562790675
 20
-9.6813474207
 30
0.0
  0
SPLINE
  5
6B9
100
AcDbEntity
  8
ASSI
100
AcDbSpline
 62
7
  6
CONTINUOUS
 70
0
 71
3
 72
12
 73
8
 74
0
 42
0.0000001
 43
0.0000001
 44
0.0000000001
 40
0.0
 40
0.0
 40
0.0
 40
0.0
 40
0.1606441131
 40
0.3160528741
 40
0.4695579901
 40
0.6257786262
 40
1.0
 40
1.0
 40
1.0
 40
1.0
 10
24.765142084
 20
-9.6647381659
 30
0.0
 10
24.7666370771
 20
-9.7204644651
 30
0.0
 10
24.782613059
 20
-9.8305108329
 30
0.0
 10
24.8508749174
 20
-9.9807295372
 30
0.0
 10
24.9574684174
 20
-10.1052168423
 30
0.0
 10
25.1630296815
 20
-10.2307497127
 30
0.0
 10
25.3538352441
 20
-10.2529982217
 30
0.0
 10
25.4836966804
 20
-10.2529982217
 30
0.0
  0
SPLINE
  5
6BA
100
AcDbEntity
  8
ASSI
100
AcDbSpline
 62
7
  6
CONTINUOUS
 70
0
 71
3
 72
14
 73
10
 74
0
 42
0.0000001
 43
0.0000001
 44
0.0000000001
 40
0.0
 40
0.0
 40
0.0
 40
0.0
 40
0.2324140172
 40
0.3379986706
 40
0.4377481205
 40
0.6253413849
 40
0.7167588502
 40
0.8043408137
 40
1.0
 40
1.0
 40
1.0
 40
1.0
 10
25.4836966804
 20
-10.2529982217
 30
0.0
 10
25.5942218012
 20
-10.2529982217
 30
0.0
 10
25.7590050292
 20
-10.2234904837
 30
0.0
 10
25.9385286763
 20
-10.1133435939
 30
0.0
 10
26.0637458754
 20
-9.9714692705
 30
0.0
 10
26.1192167694
 20
-9.7882564795
 30
0.0
 10
26.095842003
 20
-9.6135158127
 30
0.0
 10
26.0203799775
 20
-9.448658903
 30
0.0
 10
25.9023642175
 20
-9.3654645453
 30
0.0
 10
25.8179792313
 20
-9.3262627507
 30
0.0
  0
SPLINE
  5
6BB
100
AcDbEntity
  8
ASSI
100
AcDbSpline
 62
7
  6
CONTINUOUS
 70
0
 71
3
 72
9
 73
5
 74
0
 42
0.0000001
 43
0.0000001
 44
0.0000000001
 40
0.0
 40
0.0
 40
0.0
 40
0.0
 40
0.1708537376
 40
1.0
 40
1.0
 40
1.0
 40
1.0
 10
25.8179792313
 20
-9.3262627507
 30
0.0
 10
25.7980375702
 20
-9.317146576
 30
0.0
 10
25.6778654404
 20
-9.2715751411
 30
0.0
 10
25.5527013478
 20
-9.2414054164
 30
0.0
 10
25.4491073208
 20
-9.2170928451
 30
0.0
  0
SPLINE
  5
6BC
100
AcDbEntity
  8
ASSI
100
AcDbSpline
 62
7
  6
CONTINUOUS
 70
0
 71
3
 72
9
 73
5
 74
0
 42
0.0000001
 43
0.0000001
 44
0.0000000001
 40
0.0
 40
0.0
 40
0.0
 40
0.0
 40
0.6350560901
 40
1.0
 40
1.0
 40
1.0
 40
1.0
 10
25.4491073208
 20
-9.2170928451
 30
0.0
 10
25.3760988988
 20
-9.1999584358
 30
0.0
 10
25.2638365046
 20
-9.1691079742
 30
0.0
 10
25.1499140004
 20
-9.124161711
 30
0.0
 10
25.1186141745
 20
-9.0945386865
 30
0.0
  0
SPLINE
  5
6BD
100
AcDbEntity
  8
ASSI
100
AcDbSpline
 62
7
  6
CONTINUOUS
 70
0
 71
3
 72
13
 73
9
 74
0
 42
0.0000001
 43
0.0000001
 44
0.0000000001
 40
0.0
 40
0.0
 40
0.0
 40
0.0
 40
0.1223010007
 40
0.2481832321
 40
0.3968182834
 40
0.5546662969
 40
0.7464665216
 40
1.0
 40
1.0
 40
1.0
 40
1.0
 10
25.1186141745
 20
-9.0945386865
 30
0.0
 10
25.0982169243
 20
-9.0756202587
 30
0.0
 10
25.0637833267
 20
-9.0281998069
 30
0.0
 10
25.0479518576
 20
-8.9368746452
 30
0.0
 10
25.070043058
 20
-8.8376773024
 30
0.0
 10
25.145802643
 20
-8.7476306435
 30
0.0
 10
25.274920621
 20
-8.6908302025
 30
0.0
 10
25.3773258206
 20
-8.6843047396
 30
0.0
 10
25.4349975644
 20
-8.6843047396
 30
0.0
  0
SPLINE
  5
6BE
100
AcDbEntity
  8
ASSI
100
AcDbSpline
 62
7
  6
CONTINUOUS
 70
0
 71
3
 72
9
 73
5
 74
0
 42
0.0000001
 43
0.0000001
 44
0.0000000001
 40
0.0
 40
0.0
 40
0.0
 40
0.0
 40
0.5306823676
 40
1.0
 40
1.0
 40
1.0
 40
1.0
 10
25.4349975644
 20
-8.6843047396
 30
0.0
 10
25.534944042
 20
-8.6843047396
 30
0.0
 10
25.7476523589
 20
-8.7154632973
 30
0.0
 10
25.8290518127
 20
-8.9163483348
 30
0.0
 10
25.838458677
 20
-9.0042356472
 30
0.0
  0
SPLINE
  5
6BF
100
AcDbEntity
  8
ASSI
100
AcDbSpline
 62
7
  6
CONTINUOUS
 70
0
 71
3
 72
19
 73
15
 74
0
 42
0.0000001
 43
0.0000001
 44
0.0000000001
 40
0.0
 40
0.0
 40
0.0
 40
0.0
 40
0.1555209213
 40
0.2334607475
 40
0.3159149579
 40
0.4061793947
 40
0.4545691883
 40
0.5056885019
 40
0.5972584388
 40
0.6832767751
 40
0.7628430071
 40
0.8372735626
 40
0.9779707978
 40
1.0
 40
1.0
 40
1.0
 40
1.0
 10
26.0655064179
 20
-8.9939152953
 30
0.0
 10
26.0618794643
 20
-8.9008223399
 30
0.0
 10
26.0197881201
 20
-8.7576891048
 30
0.0
 10
25.8901812857
 20
-8.6160682331
 30
0.0
 10
25.7576135992
 20
-8.5411695959
 30
0.0
 10
25.6291094352
 20
-8.5051344338
 30
0.0
 10
25.516234256
 20
-8.4905672319
 30
0.0
 10
25.4017628449
 20
-8.4858942375
 30
0.0
 10
25.2643888282
 20
-8.4969673809
 30
0.0
 10
25.11535643
 20
-8.5396739244
 30
0.0
 10
24.9878555717
 20
-8.6105069937
 30
0.0
 10
24.8673411621
 20
-8.7429869728
 30
0.0
 10
24.823336195
 20
-8.8879606153
 30
0.0
 10
24.8275827824
 20
-8.985969448
 30
0.0
 10
24.8287999044
 20
-8.9991584773
 30
0.0
  0
SPLINE
  5
6C0
100
AcDbEntity
  8
ASSI
100
AcDbSpline
 62
7
  6
CONTINUOUS
 70
0
 71
3
 72
9
 73
5
 74
0
 42
0.0000001
 43
0.0000001
 44
0.0000000001
 40
0.0
 40
0.0
 40
0.0
 40
0.0
 40
0.1806469784
 40
1.0
 40
1.0
 40
1.0
 40
1.0
 10
25.0734627335
 20
-9.3315842633
 30
0.0
 10
25.09170476
 20
-9.3411191781
 30
0.0
 10
25.1963323664
 20
-9.3867717257
 30
0.0
 10
25.3070733053
 20
-9.4160168894
 30
0.0
 10
25.3976668195
 20
-9.4385772652
 30
0.0
  0
SPLINE
  5
6C1
100
AcDbEntity
  8
ASSI
100
AcDbSpline
 62
7
  6
CONTINUOUS
 70
0
 71
3
 72
9
 73
5
 74
0
 42
0.0000001
 43
0.0000001
 44
0.0000000001
 40
0.0
 40
0.0
 40
0.0
 40
0.0
 40
0.3500357027
 40
1.0
 40
1.0
 40
1.0
 40
1.0
 10
25.3976668195
 20
-9.4385772652
 30
0.0
 10
25.4323960817
 20
-9.4472258446
 30
0.0
 10
25.5312163989
 20
-9.4730371589
 30
0.0
 10
25.6310525445
 20
-9.497488585
 30
0.0
 10
25.6926838449
 20
-9.5223494359
 30
0.0
  0
SPLINE
  5
6C2
100
AcDbEntity
  8
ASSI
100
AcDbSpline
 62
7
  6
CONTINUOUS
 70
0
 71
3
 72
16
 73
12
 74
0
 42
0.0000001
 43
0.0000001
 44
0.0000000001
 40
0.0
 40
0.0
 40
0.0
 40
0.0
 40
0.1550744222
 40
0.2179795224
 40
0.2842221899
 40
0.4195785093
 40
0.5761802081
 40
0.6701186345
 40
0.773588932
 40
0.8913251353
 40
1.0
 40
1.0
 40
1.0
 40
1.0
 10
25.6926838449
 20
-9.5223494359
 30
0.0
 10
25.7475446776
 20
-9.5440385985
 30
0.0
 10
25.8267094361
 20
-9.5877567638
 30
0.0
 10
25.8733408235
 20
-9.6880710297
 30
0.0
 10
25.8870927234
 20
-9.7887128961
 30
0.0
 10
25.8438503225
 20
-9.928371225
 30
0.0
 10
25.7146222548
 20
-10.0158485864
 30
0.0
 10
25.5844574056
 20
-10.051224133
 30
0.0
 10
25.4642222502
 20
-10.0603212972
 30
0.0
 10
25.3383809449
 20
-10.049410058
 30
0.0
 10
25.2557159614
 20
-10.0229147677
 30
0.0
 10
25.2178881181
 20
-10.0058870948
 30
0.0
  0
SPLINE
  5
6C3
100
AcDbEntity
  8
ASSI
100
AcDbSpline
 62
7
  6
CONTINUOUS
 70
0
 71
3
 72
22
 73
18
 74
0
 42
0.0000001
 43
0.0000001
 44
0.0000000001
 40
0.0
 40
0.0
 40
0.0
 40
0.0
 40
0.1095257403
 40
0.1636199217
 40
0.2198830133
 40
0.2983633002
 40
0.3746812304
 40
0.4509415117
 40
0.5296565476
 40
0.6149664738
 40
0.6609044205
 40
0.7096408303
 40
0.7847913407
 40
0.8523887005
 40
0.9144750883
 40
0.9736658706
 40
1.0
 40
1.0
 40
1.0
 40
1.0
 10
23.3177127756
 20
-8.8483821926
 30
0.0
 10
23.3723516261
 20
-8.7965211736
 30
0.0
 10
23.4690336981
 20
-8.7320605351
 30
0.0
 10
23.6153988367
 20
-8.6907261511
 30
0.0
 10
23.7454353349
 20
-8.6796249356
 30
0.0
 10
23.8913880356
 20
-8.6975266827
 30
0.0
 10
24.0386885897
 20
-8.7630044637
 30
0.0
 10
24.1614747891
 20
-8.86797742
 30
0.0
 10
24.2492838512
 20
-9.0107355413
 30
0.0
 10
24.291466291
 20
-9.1502578423
 30
0.0
 10
24.3083887971
 20
-9.2730495147
 30
0.0
 10
24.3130929136
 20
-9.3898954939
 30
0.0
 10
24.3052671275
 20
-9.5217965701
 30
0.0
 10
24.2751146379
 20
-9.6601084659
 30
0.0
 10
24.22352503
 20
-9.7804116215
 30
0.0
 10
24.1630323846
 20
-9.8629980459
 30
0.0
 10
24.1212122732
 20
-9.9046281665
 30
0.0
 10
24.1077435954
 20
-9.9167878966
 30
0.0
  0
SPLINE
  5
6C4
100
AcDbEntity
  8
ASSI
100
AcDbSpline
 62
7
  6
CONTINUOUS
 70
0
 71
3
 72
9
 73
5
 74
0
 42
0.0000001
 43
0.0000001
 44
0.0000000001
 40
0.0
 40
0.0
 40
0.0
 40
0.0
 40
0.7911658617
 40
1.0
 40
1.0
 40
1.0
 40
1.0
 10
23.1448468427
 20
-9.3960865018
 30
0.0
 10
23.1448468427
 20
-9.2419912211
 30
0.0
 10
23.1675405543
 20
-9.0331851753
 30
0.0
 10
23.2882113441
 20
-8.8763837755
 30
0.0
 10
23.3177127756
 20
-8.8483821926
 30
0.0
  0
SPLINE
  5
6C5
100
AcDbEntity
  8
ASSI
100
AcDbSpline
 62
7
  6
CONTINUOUS
 70
0
 71
3
 72
14
 73
10
 74
0
 42
0.0000001
 43
0.0000001
 44
0.0000000001
 40
0.0
 40
0.0
 40
0.0
 40
0.0
 40
0.2665979089
 40
0.368288704
 40
0.4714152591
 40
0.6179308633
 40
0.694077139
 40
0.7749435498
 40
1.0
 40
1.0
 40
1.0
 40
1.0
 10
22.0479870602
 20
-8.7152657952
 30
0.0
 10
22.1436778361
 20
-8.7152657952
 30
0.0
 10
22.292567692
 20
-8.7361199662
 30
0.0
 10
22.398397018
 20
-8.8771526173
 30
0.0
 10
22.4225513045
 20
-9.004280167
 30
0.0
 10
22.3878507917
 20
-9.1235022737
 30
0.0
 10
22.3125558836
 20
-9.2049765469
 30
0.0
 10
22.1880511885
 20
-9.2679000564
 30
0.0
 10
22.0745853509
 20
-9.2725647954
 30
0.0
 10
21.9938051736
 20
-9.2725647954
 30
0.0
  0
SPLINE
  5
6C6
100
AcDbEntity
  8
ASSI
100
AcDbSpline
 62
7
  6
CONTINUOUS
 70
0
 71
3
 72
14
 73
10
 74
0
 42
0.0000001
 43
0.0000001
 44
0.0000000001
 40
0.0
 40
0.0
 40
0.0
 40
0.0
 40
0.1089885614
 40
0.1829254059
 40
0.2624764842
 40
0.3465277994
 40
0.4482203747
 40
0.5822701297
 40
1.0
 40
1.0
 40
1.0
 40
1.0
 10
21.7730463356
 20
-9.4686514807
 30
0.0
 10
21.7977809544
 20
-9.4686514807
 30
0.0
 10
21.8392203308
 20
-9.4695241075
 30
0.0
 10
21.8989358307
 20
-9.4745577043
 30
0.0
 10
21.9500068584
 20
-9.4931383499
 30
0.0
 10
22.0037087584
 20
-9.5208923923
 30
0.0
 10
22.0592627495
 20
-9.5685582798
 30
0.0
 10
22.1543065969
 20
-9.682719136
 30
0.0
 10
22.2223782155
 20
-9.7881937235
 30
0.0
 10
22.2734222214
 20
-9.8680813019
 30
0.0
  0
SPLINE
  5
6C7
100
AcDbEntity
  8
ASSI
100
AcDbSpline
 62
7
  6
CONTINUOUS
 70
0
 71
3
 72
12
 73
8
 74
0
 42
0.0000001
 43
0.0000001
 44
0.0000000001
 40
0.0
 40
0.0
 40
0.0
 40
0.0
 40
0.3274191609
 40
0.4911287414
 40
0.6548383219
 40
0.8345406322
 40
1.0
 40
1.0
 40
1.0
 40
1.0
 10
22.7633163399
 20
-10.2220371662
 30
0.0
 10
22.7151009453
 20
-10.1448763879
 30
0.0
 10
22.6430277594
 20
-10.0289750493
 30
0.0
 10
22.5459305539
 20
-9.8750806163
 30
0.0
 10
22.4733167403
 20
-9.7542474489
 30
0.0
 10
22.3901322699
 20
-9.6396117792
 30
0.0
 10
22.3262309794
 20
-9.5677834437
 30
0.0
 10
22.2935791513
 20
-9.5354111731
 30
0.0
  0
SPLINE
  5
6C8
100
AcDbEntity
  8
ASSI
100
AcDbSpline
 62
7
  6
CONTINUOUS
 70
0
 71
3
 72
9
 73
5
 74
0
 42
0.0000001
 43
0.0000001
 44
0.0000000001
 40
0.0
 40
0.0
 40
0.0
 40
0.0
 40
0.209446698
 40
1.0
 40
1.0
 40
1.0
 40
1.0
 10
22.2935791513
 20
-9.5354111731
 30
0.0
 10
22.2857513178
 20
-9.5277833236
 30
0.0
 10
22.246184251
 20
-9.4936132765
 30
0.0
 10
22.2006946694
 20
-9.4670390977
 30
0.0
 10
22.1640910579
 20
-9.448010777
 30
0.0
  0
SPLINE
  5
6C9
100
AcDbEntity
  8
ASSI
100
AcDbSpline
 62
7
  6
CONTINUOUS
 70
0
 71
3
 72
17
 73
13
 74
0
 42
0.0000001
 43
0.0000001
 44
0.0000000001
 40
0.0
 40
0.0
 40
0.0
 40
0.0
 40
0.2460836248
 40
0.3488272006
 40
0.4008361773
 40
0.4556648225
 40
0.540858721
 40
0.6244209655
 40
0.704882247
 40
0.7821673896
 40
0.8752909099
 40
1.0
 40
1.0
 40
1.0
 40
1.0
 10
22.1640910579
 20
-9.448010777
 30
0.0
 10
22.293568609
 20
-9.4300301456
 30
0.0
 10
22.4897710293
 20
-9.3652673148
 30
0.0
 10
22.6057150079
 20
-9.178275791
 30
0.0
 10
22.6347321099
 20
-9.0702819471
 30
0.0
 10
22.642709127
 20
-8.9681297287
 30
0.0
 10
22.6280635358
 20
-8.8487460837
 30
0.0
 10
22.5749806017
 20
-8.7257399968
 30
0.0
 10
22.493445666
 20
-8.6240383353
 30
0.0
 10
22.3762404065
 20
-8.5546879844
 30
0.0
 10
22.2207152115
 20
-8.5242180841
 30
0.0
 10
22.1050412151
 20
-8.5191791099
 30
0.0
 10
22.038795514
 20
-8.5191791099
 30
0.0
  0
SPLINE
  5
6CA
100
AcDbEntity
  8
ASSI
100
AcDbSpline
 62
7
  6
CONTINUOUS
 70
0
 71
3
 72
12
 73
8
 74
0
 42
0.0000001
 43
0.0000001
 44
0.0000000001
 40
0.0
 40
0.0
 40
0.0
 40
0.0
 40
0.1914546415
 40
0.4289323167
 40
0.5716992375
 40
0.7144661583
 40
1.0
 40
1.0
 40
1.0
 40
1.0
 10
20.2809492814
 20
-8.6946250915
 30
0.0
 10
20.2967017562
 20
-8.7485376126
 30
0.0
 10
20.3356319224
 20
-8.8682267381
 30
0.0
 10
20.3905379931
 20
-9.0267570312
 30
0.0
 10
20.4475892228
 20
-9.169211152
 30
0.0
 10
20.50841074
 20
-9.3253101187
 30
0.0
 10
20.5543580291
 20
-9.4422593219
 30
0.0
 10
20.584915966
 20
-9.52025324
 30
0.0
  0
SPLINE
  5
6CB
100
AcDbEntity
  8
ASSI
100
AcDbSpline
 62
7
  6
CONTINUOUS
 70
0
 71
3
 72
12
 73
8
 74
0
 42
0.0000001
 43
0.0000001
 44
0.0000000001
 40
0.0
 40
0.0
 40
0.0
 40
0.0
 40
0.160170272
 40
0.373833895
 40
0.5801046928
 40
0.7863141084
 40
1.0
 40
1.0
 40
1.0
 40
1.0
 10
13.9286233127
 20
0.1793569486
 30
0.0
 10
13.8693004824
 20
0.3721996421
 30
0.0
 10
13.7983258862
 20
0.8454635377
 30
0.0
 10
13.9458736272
 20
1.5817245519
 30
0.0
 10
14.3988782999
 20
2.2515533301
 30
0.0
 10
15.0679604649
 20
2.7036491921
 30
0.0
 10
15.6031267919
 20
2.8112968956
 30
0.0
 10
15.872299588
 20
2.8112968956
 30
0.0
  0
SPLINE
  5
6CC
100
AcDbEntity
  8
ASSI
100
AcDbSpline
 62
7
  6
CONTINUOUS
 70
0
 71
3
 72
13
 73
9
 74
0
 42
0.0000001
 43
0.0000001
 44
0.0000000001
 40
0.0
 40
0.0
 40
0.0
 40
0.0
 40
0.1820448067
 40
0.3577131209
 40
0.5334393081
 40
0.7154636694
 40
0.860240729
 40
1.0
 40
1.0
 40
1.0
 40
1.0
 10
15.872299588
 20
3.8279628323
 30
0.0
 10
15.4685371104
 20
3.8279628323
 30
0.0
 10
14.6658230451
 20
3.6663837015
 30
0.0
 10
13.6621719732
 20
2.9883275881
 30
0.0
 10
12.9825665697
 20
1.9837441603
 30
0.0
 10
12.7579632636
 20
0.8600916749
 30
0.0
 10
12.9221115489
 20
-0.1778181555
 30
0.0
 10
13.2142842975
 20
-0.7506026438
 30
0.0
 10
13.3953984162
 20
-1.0021635584
 30
0.0
  0
SPLINE
  5
6CD
100
AcDbEntity
  8
ASSI
100
AcDbSpline
 62
7
  6
CONTINUOUS
 70
0
 71
3
 72
9
 73
5
 74
0
 42
0.0000001
 43
0.0000001
 44
0.0000000001
 40
0.0
 40
0.0
 40
0.0
 40
0.0
 40
0.2458206488
 40
1.0
 40
1.0
 40
1.0
 40
1.0
 10
14.1093530269
 20
-1.7112179333
 30
0.0
 10
14.2340873996
 20
-1.7997206014
 30
0.0
 10
14.7673500713
 20
-2.1222496977
 30
0.0
 10
15.4030712261
 20
-2.2720371662
 30
0.0
 10
15.872299588
 20
-2.2720371662
 30
0.0
  0
SPLINE
  5
6CE
100
AcDbEntity
  8
ASSI
100
AcDbSpline
 62
7
  6
CONTINUOUS
 70
0
 71
3
 72
16
 73
12
 74
0
 42
0.0000001
 43
0.0000001
 44
0.0000000001
 40
0.0
 40
0.0
 40
0.0
 40
0.0
 40
0.1217141371
 40
0.2477154777
 40
0.3733508839
 40
0.4946392642
 40
0.6159276445
 40
0.7415630506
 40
0.8671984568
 40
0.9884868371
 40
1.0
 40
1.0
 40
1.0
 40
1.0
 10
14.7909433152
 20
-0.2975103111
 30
0.0
 10
14.9292238337
 20
-0.4357908296
 30
0.0
 10
15.268288025
 20
-0.6655752889
 30
0.0
 10
15.8715362514
 20
-0.7881815763
 30
0.0
 10
16.4751136327
 20
-0.6667418638
 30
0.0
 10
16.9774548718
 20
-0.3271938722
 30
0.0
 10
17.3169690145
 20
0.175189847
 30
0.0
 10
17.4384733781
 20
0.7779643252
 30
0.0
 10
17.3157842521
 20
1.3807299537
 30
0.0
 10
17.0815134979
 20
1.7333558373
 30
0.0
 10
16.9235268899
 20
1.8823819728
 30
0.0
 10
16.9095630788
 20
1.8950531307
 30
0.0
  0
SPLINE
  5
6CF
100
AcDbEntity
  8
ASSI
100
AcDbSpline
 62
7
  6
CONTINUOUS
 70
0
 71
3
 72
9
 73
5
 74
0
 42
0.0000001
 43
0.0000001
 44
0.0000000001
 40
0.0
 40
0.0
 40
0.0
 40
0.0
 40
0.3106214921
 40
1.0
 40
1.0
 40
1.0
 40
1.0
 10
18.6200176644
 20
-9.7013430926
 30
0.0
 10
18.6100754516
 20
-9.7294538153
 30
0.0
 10
18.5782520023
 20
-9.8200147662
 30
0.0
 10
18.546856451
 20
-9.9107412067
 30
0.0
 10
18.5264894659
 20
-9.9737036898
 30
0.0
  0
SPLINE
  5
6D0
100
AcDbEntity
  8
ASSI
100
AcDbSpline
 62
7
  6
CONTINUOUS
 70
0
 71
3
 72
9
 73
5
 74
0
 42
0.0000001
 43
0.0000001
 44
0.0000000001
 40
0.0
 40
0.0
 40
0.0
 40
0.0
 40
0.1862683768
 40
1.0
 40
1.0
 40
1.0
 40
1.0
 10
18.5264894659
 20
-9.9737036898
 30
0.0
 10
18.5216662826
 20
-9.9580208047
 30
0.0
 10
18.4952532503
 20
-9.8739857882
 30
0.0
 10
18.4676439789
 20
-9.7903331495
 30
0.0
 10
18.4450554568
 20
-9.7223063122
 30
0.0
  0
SPLINE
  5
6D1
100
AcDbEntity
  8
ASSI
100
AcDbSpline
 62
7
  6
CONTINUOUS
 70
0
 71
3
 72
22
 73
18
 74
0
 42
0.0000001
 43
0.0000001
 44
0.0000000001
 40
0.0
 40
0.0
 40
0.0
 40
0.0
 40
0.1135108362
 40
0.2231467139
 40
0.2791945928
 40
0.3350852325
 40
0.3929227838
 40
0.4546124985
 40
0.5230168685
 40
0.5872395832
 40
0.649637558
 40
0.7127724009
 40
0.7749634627
 40
0.8344233158
 40
0.8937740897
 40
0.9556517823
 40
1.0
 40
1.0
 40
1.0
 40
1.0
 10
15.6522713953
 20
-9.7782620364
 30
0.0
 10
15.6588160155
 20
-9.8439095654
 30
0.0
 10
15.6918075994
 20
-9.97296238
 30
0.0
 10
15.7941141605
 20
-10.1045658988
 30
0.0
 10
15.898263582
 20
-10.1813476274
 30
0.0
 10
15.9883076781
 20
-10.2233432052
 30
0.0
 10
16.0878105809
 20
-10.2480806889
 30
0.0
 10
16.1971862292
 20
-10.2557567676
 30
0.0
 10
16.3103134736
 20
-10.2471913722
 30
0.0
 10
16.4205985384
 20
-10.2180900802
 30
0.0
 10
16.5201016629
 20
-10.1686775564
 30
0.0
 10
16.6062168087
 20
-10.1005715732
 30
0.0
 10
16.6774710564
 20
-10.0193589504
 30
0.0
 10
16.7296936873
 20
-9.9271073569
 30
0.0
 10
16.7606213487
 20
-9.8258890072
 30
0.0
 10
16.7691404764
 20
-9.7294273821
 30
0.0
 10
16.7652548483
 20
-9.6676229082
 30
0.0
 10
16.7616377865
 20
-9.6420891246
 30
0.0
  0
SPLINE
  5
6D2
100
AcDbEntity
  8
ASSI
100
AcDbSpline
 62
7
  6
CONTINUOUS
 70
0
 71
3
 72
17
 73
13
 74
0
 42
0.0000001
 43
0.0000001
 44
0.0000000001
 40
0.0
 40
0.0
 40
0.0
 40
0.0
 40
0.1603982381
 40
0.3088841431
 40
0.4705042335
 40
0.5549198845
 40
0.643015559
 40
0.7346467782
 40
0.8288907367
 40
0.8969225672
 40
0.9608455849
 40
1.0
 40
1.0
 40
1.0
 40
1.0
 10
16.4398432955
 20
-9.299494402
 30
0.0
 10
16.5085258918
 20
-9.267684512
 30
0.0
 10
16.6324186116
 20
-9.1731365532
 30
0.0
 10
16.6951081967
 20
-8.9464068589
 30
0.0
 10
16.6401798459
 20
-8.7584088424
 30
0.0
 10
16.5400178809
 20
-8.6342563951
 30
0.0
 10
16.4353845422
 20
-8.563576344
 30
0.0
 10
16.3130103238
 20
-8.5182083266
 30
0.0
 10
16.1927294054
 20
-8.5055866482
 30
0.0
 10
16.0858678115
 20
-8.5132500363
 30
0.0
 10
16.0070747571
 20
-8.5323701307
 30
0.0
 10
15.9617998289
 20
-8.5510832461
 30
0.0
 10
15.9450740574
 20
-8.5591982417
 30
0.0
  0
SPLINE
  5
6D3
100
AcDbEntity
  8
ASSI
100
AcDbSpline
 62
7
  6
CONTINUOUS
 70
0
 71
3
 72
16
 73
12
 74
0
 42
0.0000001
 43
0.0000001
 44
0.0000000001
 40
0.0
 40
0.0
 40
0.0
 40
0.0
 40
0.2754465559
 40
0.3950325473
 40
0.4565247543
 40
0.5218606479
 40
0.5875789382
 40
0.6488150883
 40
0.7664059399
 40
0.8813245124
 40
1.0
 40
1.0
 40
1.0
 40
1.0
 10
15.8793191361
 20
-8.9835949435
 30
0.0
 10
15.8919814431
 20
-8.9019935048
 30
0.0
 10
15.9373853534
 20
-8.7784549205
 30
0.0
 10
16.0583984417
 20
-8.7056033653
 30
0.0
 10
16.1302438619
 20
-8.6871156288
 30
0.0
 10
16.1880819326
 20
-8.6828548787
 30
0.0
 10
16.2458149588
 20
-8.6871089982
 30
0.0
 10
16.3172267144
 20
-8.7054815445
 30
0.0
 10
16.3938357072
 20
-8.7539375873
 30
0.0
 10
16.4558931307
 20
-8.8427680754
 30
0.0
 10
16.4675791919
 20
-8.9141527044
 30
0.0
 10
16.4675791919
 20
-8.9497312446
 30
0.0
  0
SPLINE
  5
6D4
100
AcDbEntity
  8
ASSI
100
AcDbSpline
 62
7
  6
CONTINUOUS
 70
0
 71
3
 72
11
 73
7
 74
0
 42
0.0000001
 43
0.0000001
 44
0.0000000001
 40
0.0
 40
0.0
 40
0.0
 40
0.0
 40
0.2589066357
 40
0.4973886641
 40
0.7458566114
 40
1.0
 40
1.0
 40
1.0
 40
1.0
 10
16.4675791919
 20
-8.9497312446
 30
0.0
 10
16.4675791919
 20
-8.9926398279
 30
0.0
 10
16.4543304992
 20
-9.0785862332
 30
0.0
 10
16.364994547
 20
-9.172139694
 30
0.0
 10
16.2508999706
 20
-9.2221591999
 30
0.0
 10
16.1671918132
 20
-9.2337020999
 30
0.0
 10
16.1250726427
 20
-9.2337020999
 30
0.0
  0
SPLINE
  5
6D5
100
AcDbEntity
  8
ASSI
100
AcDbSpline
 62
7
  6
CONTINUOUS
 70
0
 71
3
 72
8
 73
4
 74
0
 42
0.0000001
 43
0.0000001
 44
0.0000000001
 40
0.0
 40
0.0
 40
0.0
 40
0.0
 40
1.0
 40
1.0
 40
1.0
 40
1.0
 10
16.1250726427
 20
-9.2337020999
 30
0.0
 10
16.1137023703
 20
-9.2337020999
 30
0.0
 10
16.1023463344
 20
-9.2325576074
 30
0.0
 10
16.0910476859
 20
-9.231283388
 30
0.0
  0
SPLINE
  5
6D6
100
AcDbEntity
  8
ASSI
100
AcDbSpline
 62
7
  6
CONTINUOUS
 70
0
 71
3
 72
9
 73
5
 74
0
 42
0.0000001
 43
0.0000001
 44
0.0000000001
 40
0.0
 40
0.0
 40
0.0
 40
0.0
 40
0.290916541
 40
1.0
 40
1.0
 40
1.0
 40
1.0
 10
16.067181823
 20
-9.4170497214
 30
0.0
 10
16.0815897904
 20
-9.413357999
 30
0.0
 10
16.1313098908
 20
-9.401688183
 30
0.0
 10
16.1823482125
 20
-9.3938288904
 30
0.0
 10
16.2186008412
 20
-9.3938288904
 30
0.0
  0
SPLINE
  5
6D7
100
AcDbEntity
  8
ASSI
100
AcDbSpline
 62
7
  6
CONTINUOUS
 70
0
 71
3
 72
21
 73
17
 74
0
 42
0.0000001
 43
0.0000001
 44
0.0000000001
 40
0.0
 40
0.0
 40
0.0
 40
0.0
 40
0.1238478802
 40
0.2406988581
 40
0.3559051688
 40
0.4142462253
 40
0.4761741765
 40
0.5412689882
 40
0.6030900831
 40
0.664138012
 40
0.7270056514
 40
0.7901305231
 40
0.8520740343
 40
0.9155324
 40
0.9830205194
 40
1.0
 40
1.0
 40
1.0
 40
1.0
 10
16.2186008412
 20
-9.3938288904
 30
0.0
 10
16.264513745
 20
-9.3938288904
 30
0.0
 10
16.3553251138
 20
-9.407176694
 30
0.0
 10
16.4694552866
 20
-9.4802255159
 30
0.0
 10
16.5328098743
 20
-9.5713708278
 30
0.0
 10
16.5568364932
 20
-9.6559261153
 30
0.0
 10
16.5623876354
 20
-9.7247736492
 30
0.0
 10
16.5565940362
 20
-9.7949072094
 30
0.0
 10
16.5373961924
 20
-9.862404668
 30
0.0
 10
16.5048545734
 20
-9.9236675003
 30
0.0
 10
16.4602604316
 20
-9.9773193363
 30
0.0
 10
16.4062806987
 20
-10.0220844906
 30
0.0
 10
16.3437996966
 20
-10.0545957858
 30
0.0
 10
16.2743937893
 20
-10.0737349873
 30
0.0
 10
16.2194586611
 20
-10.0780830661
 30
0.0
 10
16.1880900861
 20
-10.0774086947
 30
0.0
 10
16.1817921691
 20
-10.0771348137
 30
0.0
  0
SPLINE
  5
6D8
100
AcDbEntity
  8
ASSI
100
AcDbSpline
 62
7
  6
CONTINUOUS
 70
0
 71
3
 72
14
 73
10
 74
0
 42
0.0000001
 43
0.0000001
 44
0.0000000001
 40
0.0
 40
0.0
 40
0.0
 40
0.0
 40
0.1531755028
 40
0.3079996746
 40
0.4958433067
 40
0.5877948367
 40
0.6835810267
 40
0.8209533056
 40
1.0
 40
1.0
 40
1.0
 40
1.0
 10
14.7379527871
 20
-8.7400990484
 30
0.0
 10
14.7641496334
 20
-8.7220430794
 30
0.0
 10
14.8226740858
 20
-8.693181062
 30
0.0
 10
14.9258734347
 20
-8.678726446
 30
0.0
 10
15.0175910925
 20
-8.6947343282
 30
0.0
 10
15.0857452564
 20
-8.7336222935
 30
0.0
 10
15.1379438128
 20
-8.7775452768
 30
0.0
 10
15.182041576
 20
-8.8528713484
 30
0.0
 10
15.200237714
 20
-8.9163721014
 30
0.0
 10
15.2084962655
 20
-8.9526338879
 30
0.0
  0
SPLINE
  5
6D9
100
AcDbEntity
  8
ASSI
100
AcDbSpline
 62
7
  6
CONTINUOUS
 70
0
 71
3
 72
24
 73
20
 74
0
 42
0.0000001
 43
0.0000001
 44
0.0000000001
 40
0.0
 40
0.0
 40
0.0
 40
0.0
 40
0.0815586934
 40
0.1563332624
 40
0.2312571909
 40
0.2708704561
 40
0.3134993675
 40
0.3704105793
 40
0.423497397
 40
0.4755327201
 40
0.5294519185
 40
0.596789722
 40
0.6733620597
 40
0.7619359845
 40
0.8113334362
 40
0.8643458101
 40
0.9116751833
 40
0.9556650617
 40
1.0
 40
1.0
 40
1.0
 40
1.0
 10
15.4149033026
 20
-8.9319931842
 30
0.0
 10
15.4070817618
 20
-8.8711532679
 30
0.0
 10
15.3765770919
 20
-8.7547905713
 30
0.0
 10
15.2686853074
 20
-8.6125313688
 30
0.0
 10
15.1413888236
 20
-8.5402286634
 30
0.0
 10
15.0258298784
 20
-8.5130242103
 30
0.0
 10
14.9210469411
 20
-8.5060199956
 30
0.0
 10
14.8059537021
 20
-8.5160603074
 30
0.0
 10
14.6886475088
 20
-8.55303511
 30
0.0
 10
14.5856847138
 20
-8.616169793
 30
0.0
 10
14.4926486739
 20
-8.7090628793
 30
0.0
 10
14.4150979436
 20
-8.8378247969
 30
0.0
 10
14.3595032185
 20
-9.0046765067
 30
0.0
 10
14.333384108
 20
-9.1644316896
 30
0.0
 10
14.3226616002
 20
-9.3077145386
 30
0.0
 10
14.32010642
 20
-9.4203539172
 30
0.0
 10
14.3224699354
 20
-9.5289245234
 30
0.0
 10
14.3302226479
 20
-9.6306955666
 30
0.0
 10
14.3395373174
 20
-9.6965703856
 30
0.0
 10
14.345591795
 20
-9.7293871311
 30
0.0
  0
SPLINE
  5
6DA
100
AcDbEntity
  8
ASSI
100
AcDbSpline
 62
7
  6
CONTINUOUS
 70
0
 71
3
 72
11
 73
7
 74
0
 42
0.0000001
 43
0.0000001
 44
0.0000000001
 40
0.0
 40
0.0
 40
0.0
 40
0.0
 40
0.3426107936
 40
0.6044566108
 40
0.8143265955
 40
1.0
 40
1.0
 40
1.0
 40
1.0
 10
14.527353043
 20
-9.3436784527
 30
0.0
 10
14.5280211277
 20
-9.2682337257
 30
0.0
 10
14.5346658421
 20
-9.1348828515
 30
0.0
 10
14.5762580394
 20
-8.9587353379
 30
0.0
 10
14.6453976992
 20
-8.8299426417
 30
0.0
 10
14.7055047997
 20
-8.7649776885
 30
0.0
 10
14.7379527871
 20
-8.7400990484
 30
0.0
  0
SPLINE
  5
6DB
100
AcDbEntity
  8
ASSI
100
AcDbSpline
 62
7
  6
CONTINUOUS
 70
0
 71
3
 72
16
 73
12
 74
0
 42
0.0000001
 43
0.0000001
 44
0.0000000001
 40
0.0
 40
0.0
 40
0.0
 40
0.0
 40
0.3032052898
 40
0.5052272749
 40
0.5672959251
 40
0.6254877337
 40
0.6832430076
 40
0.7440761608
 40
0.8073340128
 40
0.8685784542
 40
1.0
 40
1.0
 40
1.0
 40
1.0
 10
13.2166683573
 20
-9.3809284112
 30
0.0
 10
13.2166683573
 20
-9.2628361648
 30
0.0
 10
13.2263569555
 20
-9.0679524463
 30
0.0
 10
13.2858174358
 20
-8.8453099709
 30
0.0
 10
13.3717938161
 20
-8.7518389937
 30
0.0
 10
13.4294554278
 20
-8.7122347933
 30
0.0
 10
13.4950709861
 20
-8.688911659
 30
0.0
 10
13.5660760209
 20
-8.6817698557
 30
0.0
 10
13.6385202338
 20
-8.6896526829
 30
0.0
 10
13.7325115521
 20
-8.7260476043
 30
0.0
 10
13.7885679716
 20
-8.7810180203
 30
0.0
 10
13.8185545531
 20
-8.822500684
 30
0.0
  0
SPLINE
  5
6DC
100
AcDbEntity
  8
ASSI
100
AcDbSpline
 62
7
  6
CONTINUOUS
 70
0
 71
3
 72
17
 73
13
 74
0
 42
0.0000001
 43
0.0000001
 44
0.0000000001
 40
0.0
 40
0.0
 40
0.0
 40
0.0
 40
0.0844580526
 40
0.1939587312
 40
0.3316668575
 40
0.4116386184
 40
0.4991820578
 40
0.5872976204
 40
0.6677250704
 40
0.8060064882
 40
0.915671004
 40
1.0
 40
1.0
 40
1.0
 40
1.0
 10
13.8185545531
 20
-8.822500684
 30
0.0
 10
13.8375191179
 20
-8.8487357738
 30
0.0
 10
13.8690992608
 20
-8.9173373215
 30
0.0
 10
13.8981917314
 20
-9.0413722181
 30
0.0
 10
13.9117830793
 20
-9.1663077224
 30
0.0
 10
13.9175502968
 20
-9.2831569854
 30
0.0
 10
13.9189265119
 20
-9.3811476505
 30
0.0
 10
13.9175397198
 20
-9.4793134178
 30
0.0
 10
13.9117030604
 20
-9.5967732299
 30
0.0
 10
13.8979560067
 20
-9.7221597996
 30
0.0
 10
13.868523567
 20
-9.8463583479
 30
0.0
 10
13.8364908117
 20
-9.9148251787
 30
0.0
 10
13.8172644894
 20
-9.9408075387
 30
0.0
  0
SPLINE
  5
6DD
100
AcDbEntity
  8
ASSI
100
AcDbSpline
 62
7
  6
CONTINUOUS
 70
0
 71
3
 72
13
 73
9
 74
0
 42
0.0000001
 43
0.0000001
 44
0.0000000001
 40
0.0
 40
0.0
 40
0.0
 40
0.0
 40
0.2591153923
 40
0.3783559876
 40
0.5002774492
 40
0.6221918058
 40
0.741366948
 40
1.0
 40
1.0
 40
1.0
 40
1.0
 10
13.8172644894
 20
-9.9408075387
 30
0.0
 10
13.7870041994
 20
-9.9817011502
 30
0.0
 10
13.7315220198
 20
-10.0358784969
 30
0.0
 10
13.6390860541
 20
-10.0721575614
 30
0.0
 10
13.5675612661
 20
-10.0802742934
 30
0.0
 10
13.4960525446
 20
-10.0721797166
 30
0.0
 10
13.4036709985
 20
-10.0360896537
 30
0.0
 10
13.3481409176
 20
-9.9821295706
 30
0.0
 10
13.3178562301
 20
-9.9413719416
 30
0.0
  0
SPLINE
  5
6DE
100
AcDbEntity
  8
ASSI
100
AcDbSpline
 62
7
  6
CONTINUOUS
 70
0
 71
3
 72
9
 73
5
 74
0
 42
0.0000001
 43
0.0000001
 44
0.0000000001
 40
0.0
 40
0.0
 40
0.0
 40
0.0
 40
0.3855604367
 40
1.0
 40
1.0
 40
1.0
 40
1.0
 10
13.3178562301
 20
-9.9413719416
 30
0.0
 10
13.2738004059
 20
-9.8820808909
 30
0.0
 10
13.2245356178
 20
-9.6880998547
 30
0.0
 10
13.2166683573
 20
-9.4986449796
 30
0.0
 10
13.2166683573
 20
-9.3809284112
 30
0.0
  0
SPLINE
  5
6DF
100
AcDbEntity
  8
ASSI
100
AcDbSpline
 62
7
  6
CONTINUOUS
 70
0
 71
3
 72
14
 73
10
 74
0
 42
0.0000001
 43
0.0000001
 44
0.0000000001
 40
0.0
 40
0.0
 40
0.0
 40
0.0
 40
0.1531755028
 40
0.3079996746
 40
0.4958433067
 40
0.5877948367
 40
0.6835810267
 40
0.8209533056
 40
1.0
 40
1.0
 40
1.0
 40
1.0
 10
12.095942712
 20
-8.7400990484
 30
0.0
 10
12.1221395583
 20
-8.7220430794
 30
0.0
 10
12.1806640107
 20
-8.693181062
 30
0.0
 10
12.2838633596
 20
-8.678726446
 30
0.0
 10
12.3755810174
 20
-8.6947343282
 30
0.0
 10
12.4437351813
 20
-8.7336222935
 30
0.0
 10
12.4959337377
 20
-8.7775452768
 30
0.0
 10
12.5400315009
 20
-8.8528713484
 30
0.0
 10
12.5582276389
 20
-8.9163721014
 30
0.0
 10
12.5664861904
 20
-8.9526338879
 30
0.0
  0
SPLINE
  5
6E0
100
AcDbEntity
  8
ASSI
100
AcDbSpline
 62
7
  6
CONTINUOUS
 70
0
 71
3
 72
24
 73
20
 74
0
 42
0.0000001
 43
0.0000001
 44
0.0000000001
 40
0.0
 40
0.0
 40
0.0
 40
0.0
 40
0.0815586934
 40
0.1563332624
 40
0.2312571909
 40
0.2708704561
 40
0.3134993675
 40
0.3704105793
 40
0.423497397
 40
0.4755327201
 40
0.5294519185
 40
0.596789722
 40
0.6733620597
 40
0.7619359845
 40
0.8113334362
 40
0.8643458101
 40
0.9116751833
 40
0.9556650617
 40
1.0
 40
1.0
 40
1.0
 40
1.0
 10
12.7728932275
 20
-8.9319931842
 30
0.0
 10
12.7650716867
 20
-8.8711532679
 30
0.0
 10
12.7345670168
 20
-8.7547905713
 30
0.0
 10
12.6266752323
 20
-8.6125313688
 30
0.0
 10
12.4993787485
 20
-8.5402286634
 30
0.0
 10
12.3838198033
 20
-8.5130242103
 30
0.0
 10
12.279036866
 20
-8.5060199956
 30
0.0
 10
12.163943627
 20
-8.5160603074
 30
0.0
 10
12.0466374337
 20
-8.55303511
 30
0.0
 10
11.9436746387
 20
-8.616169793
 30
0.0
 10
11.8506385988
 20
-8.7090628793
 30
0.0
 10
11.7730878685
 20
-8.8378247969
 30
0.0
 10
11.7174931434
 20
-9.0046765067
 30
0.0
 10
11.6913740329
 20
-9.1644316896
 30
0.0
 10
11.6806515251
 20
-9.3077145386
 30
0.0
 10
11.6780963449
 20
-9.4203539172
 30
0.0
 10
11.6804598603
 20
-9.5289245234
 30
0.0
 10
11.6882125728
 20
-9.6306955666
 30
0.0
 10
11.6975272423
 20
-9.6965703856
 30
0.0
 10
11.7035817199
 20
-9.7293871311
 30
0.0
  0
SPLINE
  5
6E1
100
AcDbEntity
  8
ASSI
100
AcDbSpline
 62
7
  6
CONTINUOUS
 70
0
 71
3
 72
11
 73
7
 74
0
 42
0.0000001
 43
0.0000001
 44
0.0000000001
 40
0.0
 40
0.0
 40
0.0
 40
0.0
 40
0.3426107936
 40
0.6044566108
 40
0.8143265955
 40
1.0
 40
1.0
 40
1.0
 40
1.0
 10
11.8853429679
 20
-9.3436784527
 30
0.0
 10
11.8860110526
 20
-9.2682337257
 30
0.0
 10
11.892655767
 20
-9.1348828515
 30
0.0
 10
11.9342479643
 20
-8.9587353379
 30
0.0
 10
12.0033876241
 20
-8.8299426417
 30
0.0
 10
12.0634947246
 20
-8.7649776885
 30
0.0
 10
12.095942712
 20
-8.7400990484
 30
0.0
  0
SPLINE
  5
6E2
100
AcDbEntity
  8
ASSI
100
AcDbSpline
 62
7
  6
CONTINUOUS
 70
0
 71
3
 72
16
 73
12
 74
0
 42
0.0000001
 43
0.0000001
 44
0.0000000001
 40
0.0
 40
0.0
 40
0.0
 40
0.0
 40
0.2754465559
 40
0.3950325473
 40
0.4565247543
 40
0.5218606479
 40
0.5875789382
 40
0.6488150883
 40
0.7664059399
 40
0.8813245124
 40
1.0
 40
1.0
 40
1.0
 40
1.0
 10
10.5952989859
 20
-8.9835949435
 30
0.0
 10
10.6079612929
 20
-8.9019935048
 30
0.0
 10
10.6533652032
 20
-8.7784549205
 30
0.0
 10
10.7743782915
 20
-8.7056033653
 30
0.0
 10
10.8462237117
 20
-8.6871156288
 30
0.0
 10
10.9040617824
 20
-8.6828548787
 30
0.0
 10
10.9617948086
 20
-8.6871089982
 30
0.0
 10
11.0332065642
 20
-8.7054815445
 30
0.0
 10
11.109815557
 20
-8.7539375873
 30
0.0
 10
11.1718729805
 20
-8.8427680754
 30
0.0
 10
11.1835590417
 20
-8.9141527044
 30
0.0
 10
11.1835590417
 20
-8.9497312446
 30
0.0
  0
SPLINE
  5
6E3
100
AcDbEntity
  8
ASSI
100
AcDbSpline
 62
7
  6
CONTINUOUS
 70
0
 71
3
 72
11
 73
7
 74
0
 42
0.0000001
 43
0.0000001
 44
0.0000000001
 40
0.0
 40
0.0
 40
0.0
 40
0.0
 40
0.2589066357
 40
0.4973886641
 40
0.7458566114
 40
1.0
 40
1.0
 40
1.0
 40
1.0
 10
11.1835590417
 20
-8.9497312446
 30
0.0
 10
11.1835590417
 20
-8.9926398279
 30
0.0
 10
11.1703103489
 20
-9.0785862332
 30
0.0
 10
11.0809743968
 20
-9.172139694
 30
0.0
 10
10.9668798204
 20
-9.2221591999
 30
0.0
 10
10.883171663
 20
-9.2337020999
 30
0.0
 10
10.8410524925
 20
-9.2337020999
 30
0.0
  0
SPLINE
  5
6E4
100
AcDbEntity
  8
ASSI
100
AcDbSpline
 62
7
  6
CONTINUOUS
 70
0
 71
3
 72
8
 73
4
 74
0
 42
0.0000001
 43
0.0000001
 44
0.0000000001
 40
0.0
 40
0.0
 40
0.0
 40
0.0
 40
1.0
 40
1.0
 40
1.0
 40
1.0
 10
10.8410524925
 20
-9.2337020999
 30
0.0
 10
10.8296822201
 20
-9.2337020999
 30
0.0
 10
10.8183261842
 20
-9.2325576074
 30
0.0
 10
10.8070275357
 20
-9.231283388
 30
0.0
  0
SPLINE
  5
6E5
100
AcDbEntity
  8
ASSI
100
AcDbSpline
 62
7
  6
CONTINUOUS
 70
0
 71
3
 72
9
 73
5
 74
0
 42
0.0000001
 43
0.0000001
 44
0.0000000001
 40
0.0
 40
0.0
 40
0.0
 40
0.0
 40
0.290916541
 40
1.0
 40
1.0
 40
1.0
 40
1.0
 10
10.7831616728
 20
-9.4170497214
 30
0.0
 10
10.7975696402
 20
-9.413357999
 30
0.0
 10
10.8472897406
 20
-9.401688183
 30
0.0
 10
10.8983280623
 20
-9.3938288904
 30
0.0
 10
10.934580691
 20
-9.3938288904
 30
0.0
  0
SPLINE
  5
6E6
100
AcDbEntity
  8
ASSI
100
AcDbSpline
 62
7
  6
CONTINUOUS
 70
0
 71
3
 72
21
 73
17
 74
0
 42
0.0000001
 43
0.0000001
 44
0.0000000001
 40
0.0
 40
0.0
 40
0.0
 40
0.0
 40
0.1238478802
 40
0.2406988581
 40
0.3559051688
 40
0.4142462253
 40
0.4761741765
 40
0.5412689882
 40
0.6030900831
 40
0.664138012
 40
0.7270056514
 40
0.7901305231
 40
0.8520740343
 40
0.9155324
 40
0.9830205194
 40
1.0
 40
1.0
 40
1.0
 40
1.0
 10
10.934580691
 20
-9.3938288904
 30
0.0
 10
10.9804935948
 20
-9.3938288904
 30
0.0
 10
11.0713049636
 20
-9.407176694
 30
0.0
 10
11.1854351364
 20
-9.4802255159
 30
0.0
 10
11.2487897241
 20
-9.5713708278
 30
0.0
 10
11.272816343
 20
-9.6559261153
 30
0.0
 10
11.2783674852
 20
-9.7247736492
 30
0.0
 10
11.272573886
 20
-9.7949072094
 30
0.0
 10
11.2533760422
 20
-9.862404668
 30
0.0
 10
11.2208344232
 20
-9.9236675003
 30
0.0
 10
11.1762402814
 20
-9.9773193363
 30
0.0
 10
11.1222605485
 20
-10.0220844906
 30
0.0
 10
11.0597795464
 20
-10.0545957858
 30
0.0
 10
10.9903736391
 20
-10.0737349873
 30
0.0
 10
10.9354385109
 20
-10.0780830661
 30
0.0
 10
10.9040699359
 20
-10.0774086947
 30
0.0
 10
10.8977720189
 20
-10.0771348137
 30
0.0
  0
SPLINE
  5
6E7
100
AcDbEntity
  8
ASSI
100
AcDbSpline
 62
7
  6
CONTINUOUS
 70
0
 71
3
 72
22
 73
18
 74
0
 42
0.0000001
 43
0.0000001
 44
0.0000000001
 40
0.0
 40
0.0
 40
0.0
 40
0.0
 40
0.1135108362
 40
0.2231467139
 40
0.2791945928
 40
0.3350852325
 40
0.3929227838
 40
0.4546124985
 40
0.5230168685
 40
0.5872395832
 40
0.649637558
 40
0.7127724009
 40
0.7749634627
 40
0.8344233158
 40
0.8937740897
 40
0.9556517823
 40
1.0
 40
1.0
 40
1.0
 40
1.0
 10
10.3682512451
 20
-9.7782620364
 30
0.0
 10
10.3747958653
 20
-9.8439095654
 30
0.0
 10
10.4077874492
 20
-9.97296238
 30
0.0
 10
10.5100940103
 20
-10.1045658988
 30
0.0
 10
10.6142434318
 20
-10.1813476274
 30
0.0
 10
10.7042875279
 20
-10.2233432052
 30
0.0
 10
10.8037904307
 20
-10.2480806889
 30
0.0
 10
10.913166079
 20
-10.2557567676
 30
0.0
 10
11.0262933234
 20
-10.2471913722
 30
0.0
 10
11.1365783882
 20
-10.2180900802
 30
0.0
 10
11.2360815127
 20
-10.1686775564
 30
0.0
 10
11.3221966585
 20
-10.1005715732
 30
0.0
 10
11.3934509062
 20
-10.0193589504
 30
0.0
 10
11.4456735371
 20
-9.9271073569
 30
0.0
 10
11.4766011985
 20
-9.8258890072
 30
0.0
 10
11.4851203262
 20
-9.7294273821
 30
0.0
 10
11.4812346981
 20
-9.6676229082
 30
0.0
 10
11.4776176363
 20
-9.6420891246
 30
0.0
  0
SPLINE
  5
6E8
100
AcDbEntity
  8
ASSI
100
AcDbSpline
 62
7
  6
CONTINUOUS
 70
0
 71
3
 72
17
 73
13
 74
0
 42
0.0000001
 43
0.0000001
 44
0.0000000001
 40
0.0
 40
0.0
 40
0.0
 40
0.0
 40
0.1603982381
 40
0.3088841431
 40
0.4705042335
 40
0.5549198845
 40
0.643015559
 40
0.7346467782
 40
0.8288907367
 40
0.8969225672
 40
0.9608455849
 40
1.0
 40
1.0
 40
1.0
 40
1.0
 10
11.1558231453
 20
-9.299494402
 30
0.0
 10
11.2245057416
 20
-9.267684512
 30
0.0
 10
11.3483984614
 20
-9.1731365532
 30
0.0
 10
11.4110880465
 20
-8.9464068589
 30
0.0
 10
11.3561596957
 20
-8.7584088424
 30
0.0
 10
11.2559977307
 20
-8.6342563951
 30
0.0
 10
11.151364392
 20
-8.563576344
 30
0.0
 10
11.0289901736
 20
-8.5182083266
 30
0.0
 10
10.9087092552
 20
-8.5055866482
 30
0.0
 10
10.8018476613
 20
-8.5132500363
 30
0.0
 10
10.7230546069
 20
-8.5323701307
 30
0.0
 10
10.6777796787
 20
-8.5510832461
 30
0.0
 10
10.6610539072
 20
-8.5591982417
 30
0.0
  0
SPLINE
  5
6E9
100
AcDbEntity
  8
ASSI
100
AcDbSpline
 62
7
  6
CONTINUOUS
 70
0
 71
3
 72
11
 73
7
 74
0
 42
0.0000001
 43
0.0000001
 44
0.0000000001
 40
0.0
 40
0.0
 40
0.0
 40
0.0
 40
0.2023283395
 40
0.445343536
 40
0.7157738534
 40
1.0
 40
1.0
 40
1.0
 40
1.0
 10
7.7170496239
 20
-8.5088587581
 30
0.0
 10
7.6970620776
 20
-8.5490683699
 30
0.0
 10
7.6402662889
 20
-8.6311717177
 30
0.0
 10
7.5277697022
 20
-8.7439976922
 30
0.0
 10
7.3862630839
 20
-8.8514169654
 30
0.0
 10
7.2777039476
 20
-8.9104751357
 30
0.0
 10
7.2205439291
 20
-8.9371532814
 30
0.0
  0
SPLINE
  5
6EA
100
AcDbEntity
  8
ASSI
100
AcDbSpline
 62
7
  6
CONTINUOUS
 70
0
 71
3
 72
11
 73
7
 74
0
 42
0.0000001
 43
0.0000001
 44
0.0000000001
 40
0.0
 40
0.0
 40
0.0
 40
0.0
 40
0.2308286057
 40
0.5005232368
 40
0.769747873
 40
1.0
 40
1.0
 40
1.0
 40
1.0
 10
7.2205439291
 20
-9.1396901275
 30
0.0
 10
7.2563241413
 20
-9.1265941424
 30
0.0
 10
7.3320980039
 20
-9.0932451959
 30
0.0
 10
7.4439116781
 20
-9.0327319161
 30
0.0
 10
7.5514124236
 20
-8.9649245693
 30
0.0
 10
7.616027814
 20
-8.913239643
 30
0.0
 10
7.6436783552
 20
-8.8871641017
 30
0.0
  0
SPLINE
  5
6EB
100
AcDbEntity
  8
ASSI
100
AcDbSpline
 62
7
  6
CONTINUOUS
 70
0
 71
3
 72
12
 73
8
 74
0
 42
0.0000001
 43
0.0000001
 44
0.0000000001
 40
0.0
 40
0.0
 40
0.0
 40
0.0
 40
0.1914546415
 40
0.4289323167
 40
0.5716992375
 40
0.7144661583
 40
1.0
 40
1.0
 40
1.0
 40
1.0
 10
5.4918850719
 20
-8.6946250915
 30
0.0
 10
5.5076375467
 20
-8.7485376126
 30
0.0
 10
5.5465677129
 20
-8.8682267381
 30
0.0
 10
5.6014737837
 20
-9.0267570312
 30
0.0
 10
5.6585250133
 20
-9.169211152
 30
0.0
 10
5.7193465305
 20
-9.3253101187
 30
0.0
 10
5.7652938196
 20
-9.4422593219
 30
0.0
 10
5.7958517566
 20
-9.52025324
 30
0.0
  0
SPLINE
  5
6EC
100
AcDbEntity
  8
ASSI
100
AcDbSpline
 62
7
  6
CONTINUOUS
 70
0
 71
3
 72
8
 73
4
 74
0
 42
0.0000001
 43
0.0000001
 44
0.0000000001
 40
0.0
 40
0.0
 40
0.0
 40
0.0
 40
1.0
 40
1.0
 40
1.0
 40
1.0
 10
4.3663216878
 20
-8.7152657952
 30
0.0
 10
4.3041342018
 20
-8.7804258427
 30
0.0
 10
4.2455131163
 20
-8.8490336927
 30
0.0
 10
4.1891018687
 20
-8.919253963
 30
0.0
  0
SPLINE
  5
6ED
100
AcDbEntity
  8
ASSI
100
AcDbSpline
 62
7
  6
CONTINUOUS
 70
0
 71
3
 72
9
 73
5
 74
0
 42
0.0000001
 43
0.0000001
 44
0.0000000001
 40
0.0
 40
0.0
 40
0.0
 40
0.0
 40
0.0986341094
 40
1.0
 40
1.0
 40
1.0
 40
1.0
 10
3.5766535916
 20
-10.0259504809
 30
0.0
 10
3.6112697751
 20
-9.9828414833
 30
0.0
 10
3.9622028265
 20
-9.5457637115
 30
0.0
 10
4.3135911228
 20
-9.1090516928
 30
0.0
 10
4.6301356132
 20
-8.7152657952
 30
0.0
  0
SPLINE
  5
6EE
100
AcDbEntity
  8
ASSI
100
AcDbSpline
 62
7
  6
CONTINUOUS
 70
0
 71
3
 72
24
 73
20
 74
0
 42
0.0000001
 43
0.0000001
 44
0.0000000001
 40
0.0
 40
0.0
 40
0.0
 40
0.0
 40
0.1676627207
 40
0.2502482088
 40
0.2938487221
 40
0.3403860492
 40
0.3822049105
 40
0.4228418684
 40
0.4629479786
 40
0.5032000635
 40
0.5825325595
 40
0.6637839522
 40
0.7508633541
 40
0.7973895615
 40
0.8466669932
 40
0.8925718236
 40
0.9373933897
 40
0.9815759314
 40
1.0
 40
1.0
 40
1.0
 40
1.0
 10
-0.148187296
 20
-8.9868199452
 30
0.0
 10
-0.1886333042
 20
-8.8459296923
 30
0.0
 10
-0.3127800316
 20
-8.6411190593
 30
0.0
 10
-0.548013228
 20
-8.5248979617
 30
0.0
 10
-0.6961425416
 20
-8.4931213342
 30
0.0
 10
-0.8116744049
 20
-8.4859262564
 30
0.0
 10
-0.9245034484
 20
-8.4923075552
 30
0.0
 10
-1.0302059743
 20
-8.5116165451
 30
0.0
 10
-1.1311834945
 20
-8.5441580445
 30
0.0
 10
-1.2578451184
 20
-8.6035454571
 30
0.0
 10
-1.4000755778
 20
-8.7115639428
 30
0.0
 10
-1.5241805151
 20
-8.8928973743
 30
0.0
 10
-1.5855638586
 20
-9.0726566823
 30
0.0
 10
-1.6098146251
 20
-9.2309491639
 30
0.0
 10
-1.6155816136
 20
-9.3549262209
 30
0.0
 10
-1.6100752653
 20
-9.4773681166
 30
0.0
 10
-1.59321481
 20
-9.5943072558
 30
0.0
 10
-1.5703025528
 20
-9.6855692711
 30
0.0
 10
-1.5532626919
 20
-9.7375994398
 30
0.0
 10
-1.5479048264
 20
-9.7527927726
 30
0.0
  0
SPLINE
  5
6EF
100
AcDbEntity
  8
ASSI
100
AcDbSpline
 62
7
  6
CONTINUOUS
 70
0
 71
3
 72
11
 73
7
 74
0
 42
0.0000001
 43
0.0000001
 44
0.0000000001
 40
0.0
 40
0.0
 40
0.0
 40
0.0
 40
0.2525992429
 40
0.4888102636
 40
0.730558892
 40
1.0
 40
1.0
 40
1.0
 40
1.0
 10
-0.8125598483
 20
-10.2529982217
 30
0.0
 10
-0.7297449758
 20
-10.2529982217
 30
0.0
 10
-0.5676272933
 20
-10.2320309995
 30
0.0
 10
-0.3512704922
 20
-10.1171085167
 30
0.0
 10
-0.1887142881
 20
-9.9265399237
 30
0.0
 10
-0.1286915923
 20
-9.7669553581
 30
0.0
 10
-0.1069058886
 20
-9.6813474207
 30
0.0
  0
SPLINE
  5
6F0
100
AcDbEntity
  8
ASSI
100
AcDbSpline
 62
7
  6
CONTINUOUS
 70
0
 71
3
 72
17
 73
13
 74
0
 42
0.0000001
 43
0.0000001
 44
0.0000000001
 40
0.0
 40
0.0
 40
0.0
 40
0.0
 40
0.1875491303
 40
0.2727128802
 40
0.3166938817
 40
0.3632661881
 40
0.5162585148
 40
0.5943454668
 40
0.6770861857
 40
0.769400965
 40
0.8727544474
 40
1.0
 40
1.0
 40
1.0
 40
1.0
 10
-0.3339536294
 20
-9.6244241488
 30
0.0
 10
-0.360104056
 20
-9.7447706684
 30
0.0
 10
-0.4443110117
 20
-9.9237343018
 30
0.0
 10
-0.6318128547
 20
-10.0259294019
 30
0.0
 10
-0.7445099076
 20
-10.0527223172
 30
0.0
 10
-0.9042612146
 20
-10.0644473737
 30
0.0
 10
-1.0913859433
 20
-10.0161854194
 30
0.0
 10
-1.2513503852
 20
-9.8803521738
 30
0.0
 10
-1.3322013587
 20
-9.7316588729
 30
0.0
 10
-1.3774875044
 20
-9.5533461306
 30
0.0
 10
-1.3931920034
 20
-9.3413713121
 30
0.0
 10
-1.3775224708
 20
-9.1884274449
 30
0.0
 10
-1.3570545933
 20
-9.1071191974
 30
0.0
  0
SPLINE
  5
6F1
100
AcDbEntity
  8
ASSI
100
AcDbSpline
 62
7
  6
CONTINUOUS
 70
0
 71
3
 72
9
 73
5
 74
0
 42
0.0000001
 43
0.0000001
 44
0.0000000001
 40
0.0
 40
0.0
 40
0.0
 40
0.0
 40
0.4786249203
 40
1.0
 40
1.0
 40
1.0
 40
1.0
 10
-0.8257828434
 20
-8.6843047396
 30
0.0
 10
-0.7281158146
 20
-8.6843047396
 30
0.0
 10
-0.5090460971
 20
-8.7376649193
 30
0.0
 10
-0.4072598682
 20
-8.937610572
 30
0.0
 10
-0.3752350368
 20
-9.0390667363
 30
0.0
  0
SPLINE
  5
6F2
100
AcDbEntity
  8
ASSI
100
AcDbSpline
 62
7
  6
CONTINUOUS
 70
0
 71
3
 72
8
 73
4
 74
0
 42
0.0000001
 43
0.0000001
 44
0.0000000001
 40
0.0
 40
0.0
 40
0.0
 40
0.0
 40
1.0
 40
1.0
 40
1.0
 40
1.0
 10
-3.1668901351
 20
-10.0311105781
 30
0.0
 10
-3.1928752592
 20
-9.9373080228
 30
0.0
 10
-3.2232422595
 20
-9.8446825453
 30
0.0
 10
-3.2562256267
 20
-9.7531061098
 30
0.0
  0
SPLINE
  5
6F3
100
AcDbEntity
  8
ASSI
100
AcDbSpline
 62
7
  6
CONTINUOUS
 70
0
 71
3
 72
12
 73
8
 74
0
 42
0.0000001
 43
0.0000001
 44
0.0000000001
 40
0.0
 40
0.0
 40
0.0
 40
0.0
 40
0.1914546415
 40
0.4289323167
 40
0.5716992375
 40
0.7144661583
 40
1.0
 40
1.0
 40
1.0
 40
1.0
 10
-8.3373864149
 20
-8.6946250915
 30
0.0
 10
-8.3216339402
 20
-8.7485376126
 30
0.0
 10
-8.2827037739
 20
-8.8682267381
 30
0.0
 10
-8.2277977032
 20
-9.0267570312
 30
0.0
 10
-8.1707464735
 20
-9.169211152
 30
0.0
 10
-8.1099249563
 20
-9.3253101187
 30
0.0
 10
-8.0639776672
 20
-9.4422593219
 30
0.0
 10
-8.0334197303
 20
-9.52025324
 30
0.0
  0
SPLINE
  5
6F4
100
AcDbEntity
  8
ASSI
100
AcDbSpline
 62
7
  6
CONTINUOUS
 70
0
 71
3
 72
8
 73
4
 74
0
 42
0.0000001
 43
0.0000001
 44
0.0000000001
 40
0.0
 40
0.0
 40
0.0
 40
0.0
 40
1.0
 40
1.0
 40
1.0
 40
1.0
 10
-10.5459417121
 20
-10.0311105781
 30
0.0
 10
-10.5719268362
 20
-9.9373080228
 30
0.0
 10
-10.6022938364
 20
-9.8446825453
 30
0.0
 10
-10.6352772037
 20
-9.7531061098
 30
0.0
  0
SPLINE
  5
6F5
100
AcDbEntity
  8
ASSI
100
AcDbSpline
 62
7
  6
CONTINUOUS
 70
0
 71
3
 72
12
 73
8
 74
0
 42
0.0000001
 43
0.0000001
 44
0.0000000001
 40
0.0
 40
0.0
 40
0.0
 40
0.0
 40
0.1914546415
 40
0.4289323167
 40
0.5716992375
 40
0.7144661583
 40
1.0
 40
1.0
 40
1.0
 40
1.0
 10
-12.8164191204
 20
-8.6946250915
 30
0.0
 10
-12.8006666456
 20
-8.7485376126
 30
0.0
 10
-12.7617364794
 20
-8.8682267381
 30
0.0
 10
-12.7068304086
 20
-9.0267570312
 30
0.0
 10
-12.649779179
 20
-9.169211152
 30
0.0
 10
-12.5889576618
 20
-9.3253101187
 30
0.0
 10
-12.5430103727
 20
-9.4422593219
 30
0.0
 10
-12.5124524357
 20
-9.52025324
 30
0.0
  0
SPLINE
  5
6F6
100
AcDbEntity
  8
ASSI
100
AcDbSpline
 62
7
  6
CONTINUOUS
 70
0
 71
3
 72
9
 73
5
 74
0
 42
0.0000001
 43
0.0000001
 44
0.0000000001
 40
0.0
 40
0.0
 40
0.0
 40
0.0
 40
0.1935112737
 40
1.0
 40
1.0
 40
1.0
 40
1.0
 10
-14.0879187521
 20
-8.5353045908
 30
0.0
 10
-14.1040130363
 20
-8.5323351755
 30
0.0
 10
-14.1878771065
 20
-8.5208244578
 30
0.0
 10
-14.272720992
 20
-8.5191791099
 30
0.0
 10
-14.3409285518
 20
-8.5191791099
 30
0.0
  0
SPLINE
  5
6F7
100
AcDbEntity
  8
ASSI
100
AcDbSpline
 62
7
  6
CONTINUOUS
 70
0
 71
3
 72
9
 73
5
 74
0
 42
0.0000001
 43
0.0000001
 44
0.0000000001
 40
0.0
 40
0.0
 40
0.0
 40
0.0
 40
0.3152731366
 40
1.0
 40
1.0
 40
1.0
 40
1.0
 10
-14.3173853623
 20
-9.52025324
 30
0.0
 10
-14.263401431
 20
-9.52025324
 30
0.0
 10
-14.095008237
 20
-9.51292261
 30
0.0
 10
-13.9113208702
 20
-9.4584054371
 30
0.0
 10
-13.8328932279
 20
-9.3712530912
 30
0.0
  0
SPLINE
  5
6F8
100
AcDbEntity
  8
ASSI
100
AcDbSpline
 62
7
  6
CONTINUOUS
 70
0
 71
3
 72
15
 73
11
 74
0
 42
0.0000001
 43
0.0000001
 44
0.0000000001
 40
0.0
 40
0.0
 40
0.0
 40
0.0
 40
0.1818234323
 40
0.2742230203
 40
0.3716340726
 40
0.4851660516
 40
0.5943000072
 40
0.6975375539
 40
0.7935178969
 40
1.0
 40
1.0
 40
1.0
 40
1.0
 10
-13.8328932279
 20
-9.3712530912
 30
0.0
 10
-13.7897073113
 20
-9.3232629459
 30
0.0
 10
-13.737104914
 20
-9.2376394078
 30
0.0
 10
-13.7039763487
 20
-9.1092901169
 30
0.0
 10
-13.6955922271
 20
-9.0014407376
 30
0.0
 10
-13.7064659993
 20
-8.8873984528
 30
0.0
 10
-13.7446297673
 20
-8.7770803831
 30
0.0
 10
-13.8025221562
 20
-8.6829384158
 30
0.0
 10
-13.9086716019
 20
-8.5828755532
 30
0.0
 10
-14.0156206877
 20
-8.5474811089
 30
0.0
 10
-14.0879187521
 20
-8.5353045908
 30
0.0
  0
SPLINE
  5
6F9
100
AcDbEntity
  8
ASSI
100
AcDbSpline
 62
7
  6
CONTINUOUS
 70
0
 71
3
 72
9
 73
5
 74
0
 42
0.0000001
 43
0.0000001
 44
0.0000000001
 40
0.0
 40
0.0
 40
0.0
 40
0.0
 40
0.8336714283
 40
1.0
 40
1.0
 40
1.0
 40
1.0
 10
-14.3194815583
 20
-8.7152657952
 30
0.0
 10
-14.2626887979
 20
-8.7152657952
 30
0.0
 10
-14.1941840899
 20
-8.7155694928
 30
0.0
 10
-14.1269006524
 20
-8.727412581
 30
0.0
 10
-14.1159771644
 20
-8.7304237283
 30
0.0
  0
SPLINE
  5
6FA
100
AcDbEntity
  8
ASSI
100
AcDbSpline
 62
7
  6
CONTINUOUS
 70
0
 71
3
 72
15
 73
11
 74
0
 42
0.0000001
 43
0.0000001
 44
0.0000000001
 40
0.0
 40
0.0
 40
0.0
 40
0.0
 40
0.1831476441
 40
0.2825427925
 40
0.39002016
 40
0.4650484773
 40
0.5333382897
 40
0.6605327543
 40
0.8046292292
 40
1.0
 40
1.0
 40
1.0
 40
1.0
 10
-14.1159771644
 20
-8.7304237283
 30
0.0
 10
-14.0613101949
 20
-8.7459986855
 30
0.0
 10
-13.9840311396
 20
-8.804080378
 30
0.0
 10
-13.9334040169
 20
-8.9157574032
 30
0.0
 10
-13.9232904274
 20
-9.0038859771
 30
0.0
 10
-13.9290756443
 20
-9.0818175352
 30
0.0
 10
-13.9503239191
 20
-9.163373566
 30
0.0
 10
-14.0107743092
 20
-9.2557352733
 30
0.0
 10
-14.1481799251
 20
-9.3175154469
 30
0.0
 10
-14.2543304917
 20
-9.3241665547
 30
0.0
 10
-14.3149664929
 20
-9.3241665547
 30
0.0
  0
SPLINE
  5
6FB
100
AcDbEntity
  8
ASSI
100
AcDbSpline
 62
7
  6
CONTINUOUS
 70
0
 71
3
 72
12
 73
8
 74
0
 42
0.0000001
 43
0.0000001
 44
0.0000000001
 40
0.0
 40
0.0
 40
0.0
 40
0.0
 40
0.1606441131
 40
0.3160528741
 40
0.4695579901
 40
0.6257786262
 40
1.0
 40
1.0
 40
1.0
 40
1.0
 10
-16.6297892098
 20
-9.6647381659
 30
0.0
 10
-16.6282942168
 20
-9.7204644651
 30
0.0
 10
-16.6123182349
 20
-9.8305108329
 30
0.0
 10
-16.5440563765
 20
-9.9807295372
 30
0.0
 10
-16.4374628765
 20
-10.1052168423
 30
0.0
 10
-16.2319016124
 20
-10.2307497127
 30
0.0
 10
-16.0410960498
 20
-10.2529982217
 30
0.0
 10
-15.9112346134
 20
-10.2529982217
 30
0.0
  0
SPLINE
  5
6FC
100
AcDbEntity
  8
ASSI
100
AcDbSpline
 62
7
  6
CONTINUOUS
 70
0
 71
3
 72
14
 73
10
 74
0
 42
0.0000001
 43
0.0000001
 44
0.0000000001
 40
0.0
 40
0.0
 40
0.0
 40
0.0
 40
0.2324140172
 40
0.3379986706
 40
0.4377481205
 40
0.6253413849
 40
0.7167588502
 40
0.8043408137
 40
1.0
 40
1.0
 40
1.0
 40
1.0
 10
-15.9112346134
 20
-10.2529982217
 30
0.0
 10
-15.8007094927
 20
-10.2529982217
 30
0.0
 10
-15.6359262646
 20
-10.2234904837
 30
0.0
 10
-15.4564026176
 20
-10.1133435939
 30
0.0
 10
-15.3311854185
 20
-9.9714692705
 30
0.0
 10
-15.2757145245
 20
-9.7882564795
 30
0.0
 10
-15.2990892909
 20
-9.6135158127
 30
0.0
 10
-15.3745513163
 20
-9.448658903
 30
0.0
 10
-15.4925670763
 20
-9.3654645453
 30
0.0
 10
-15.5769520626
 20
-9.3262627507
 30
0.0
  0
SPLINE
  5
6FD
100
AcDbEntity
  8
ASSI
100
AcDbSpline
 62
7
  6
CONTINUOUS
 70
0
 71
3
 72
9
 73
5
 74
0
 42
0.0000001
 43
0.0000001
 44
0.0000000001
 40
0.0
 40
0.0
 40
0.0
 40
0.0
 40
0.1708537376
 40
1.0
 40
1.0
 40
1.0
 40
1.0
 10
-15.5769520626
 20
-9.3262627507
 30
0.0
 10
-15.5968937236
 20
-9.317146576
 30
0.0
 10
-15.7170658535
 20
-9.2715751411
 30
0.0
 10
-15.8422299461
 20
-9.2414054164
 30
0.0
 10
-15.9458239731
 20
-9.2170928451
 30
0.0
  0
SPLINE
  5
6FE
100
AcDbEntity
  8
ASSI
100
AcDbSpline
 62
7
  6
CONTINUOUS
 70
0
 71
3
 72
9
 73
5
 74
0
 42
0.0000001
 43
0.0000001
 44
0.0000000001
 40
0.0
 40
0.0
 40
0.0
 40
0.0
 40
0.6350560901
 40
1.0
 40
1.0
 40
1.0
 40
1.0
 10
-15.9458239731
 20
-9.2170928451
 30
0.0
 10
-16.0188323951
 20
-9.1999584358
 30
0.0
 10
-16.1310947893
 20
-9.1691079742
 30
0.0
 10
-16.2450172935
 20
-9.124161711
 30
0.0
 10
-16.2763171194
 20
-9.0945386865
 30
0.0
  0
SPLINE
  5
6FF
100
AcDbEntity
  8
ASSI
100
AcDbSpline
 62
7
  6
CONTINUOUS
 70
0
 71
3
 72
13
 73
9
 74
0
 42
0.0000001
 43
0.0000001
 44
0.0000000001
 40
0.0
 40
0.0
 40
0.0
 40
0.0
 40
0.1223010007
 40
0.2481832321
 40
0.3968182834
 40
0.5546662969
 40
0.7464665216
 40
1.0
 40
1.0
 40
1.0
 40
1.0
 10
-16.2763171194
 20
-9.0945386865
 30
0.0
 10
-16.2967143696
 20
-9.0756202587
 30
0.0
 10
-16.3311479672
 20
-9.0281998069
 30
0.0
 10
-16.3469794362
 20
-8.9368746452
 30
0.0
 10
-16.3248882358
 20
-8.8376773024
 30
0.0
 10
-16.2491286509
 20
-8.7476306435
 30
0.0
 10
-16.1200106728
 20
-8.6908302025
 30
0.0
 10
-16.0176054733
 20
-8.6843047396
 30
0.0
 10
-15.9599337295
 20
-8.6843047396
 30
0.0
  0
SPLINE
  5
700
100
AcDbEntity
  8
ASSI
100
AcDbSpline
 62
7
  6
CONTINUOUS
 70
0
 71
3
 72
9
 73
5
 74
0
 42
0.0000001
 43
0.0000001
 44
0.0000000001
 40
0.0
 40
0.0
 40
0.0
 40
0.0
 40
0.5306823676
 40
1.0
 40
1.0
 40
1.0
 40
1.0
 10
-15.9599337295
 20
-8.6843047396
 30
0.0
 10
-15.8599872518
 20
-8.6843047396
 30
0.0
 10
-15.647278935
 20
-8.7154632973
 30
0.0
 10
-15.5658794812
 20
-8.9163483348
 30
0.0
 10
-15.5564726168
 20
-9.0042356472
 30
0.0
  0
SPLINE
  5
701
100
AcDbEntity
  8
ASSI
100
AcDbSpline
 62
7
  6
CONTINUOUS
 70
0
 71
3
 72
19
 73
15
 74
0
 42
0.0000001
 43
0.0000001
 44
0.0000000001
 40
0.0
 40
0.0
 40
0.0
 40
0.0
 40
0.1555209213
 40
0.2334607475
 40
0.3159149579
 40
0.4061793947
 40
0.4545691883
 40
0.5056885019
 40
0.5972584388
 40
0.6832767751
 40
0.7628430071
 40
0.8372735626
 40
0.9779707978
 40
1.0
 40
1.0
 40
1.0
 40
1.0
 10
-15.329424876
 20
-8.9939152953
 30
0.0
 10
-15.3330518295
 20
-8.9008223399
 30
0.0
 10
-15.3751431737
 20
-8.7576891048
 30
0.0
 10
-15.5047500082
 20
-8.6160682331
 30
0.0
 10
-15.6373176946
 20
-8.5411695959
 30
0.0
 10
-15.7658218587
 20
-8.5051344338
 30
0.0
 10
-15.8786970378
 20
-8.4905672319
 30
0.0
 10
-15.9931684489
 20
-8.4858942375
 30
0.0
 10
-16.1305424656
 20
-8.4969673809
 30
0.0
 10
-16.2795748639
 20
-8.5396739244
 30
0.0
 10
-16.4070757221
 20
-8.6105069937
 30
0.0
 10
-16.5275901318
 20
-8.7429869728
 30
0.0
 10
-16.5715950989
 20
-8.8879606153
 30
0.0
 10
-16.5673485115
 20
-8.985969448
 30
0.0
 10
-16.5661313894
 20
-8.9991584773
 30
0.0
  0
SPLINE
  5
702
100
AcDbEntity
  8
ASSI
100
AcDbSpline
 62
7
  6
CONTINUOUS
 70
0
 71
3
 72
9
 73
5
 74
0
 42
0.0000001
 43
0.0000001
 44
0.0000000001
 40
0.0
 40
0.0
 40
0.0
 40
0.0
 40
0.1806469784
 40
1.0
 40
1.0
 40
1.0
 40
1.0
 10
-16.3214685603
 20
-9.3315842633
 30
0.0
 10
-16.3032265339
 20
-9.3411191781
 30
0.0
 10
-16.1985989275
 20
-9.3867717257
 30
0.0
 10
-16.0878579886
 20
-9.4160168894
 30
0.0
 10
-15.9972644744
 20
-9.4385772652
 30
0.0
  0
SPLINE
  5
703
100
AcDbEntity
  8
ASSI
100
AcDbSpline
 62
7
  6
CONTINUOUS
 70
0
 71
3
 72
9
 73
5
 74
0
 42
0.0000001
 43
0.0000001
 44
0.0000000001
 40
0.0
 40
0.0
 40
0.0
 40
0.0
 40
0.3500357027
 40
1.0
 40
1.0
 40
1.0
 40
1.0
 10
-15.9972644744
 20
-9.4385772652
 30
0.0
 10
-15.9625352122
 20
-9.4472258446
 30
0.0
 10
-15.863714895
 20
-9.4730371589
 30
0.0
 10
-15.7638787494
 20
-9.497488585
 30
0.0
 10
-15.702247449
 20
-9.5223494359
 30
0.0
  0
SPLINE
  5
704
100
AcDbEntity
  8
ASSI
100
AcDbSpline
 62
7
  6
CONTINUOUS
 70
0
 71
3
 72
16
 73
12
 74
0
 42
0.0000001
 43
0.0000001
 44
0.0000000001
 40
0.0
 40
0.0
 40
0.0
 40
0.0
 40
0.1550744222
 40
0.2179795224
 40
0.2842221899
 40
0.4195785093
 40
0.5761802081
 40
0.6701186345
 40
0.773588932
 40
0.8913251353
 40
1.0
 40
1.0
 40
1.0
 40
1.0
 10
-15.702247449
 20
-9.5223494359
 30
0.0
 10
-15.6473866163
 20
-9.5440385985
 30
0.0
 10
-15.5682218578
 20
-9.5877567638
 30
0.0
 10
-15.5215904704
 20
-9.6880710297
 30
0.0
 10
-15.5078385705
 20
-9.7887128961
 30
0.0
 10
-15.5510809713
 20
-9.928371225
 30
0.0
 10
-15.6803090391
 20
-10.0158485864
 30
0.0
 10
-15.8104738883
 20
-10.051224133
 30
0.0
 10
-15.9307090436
 20
-10.0603212972
 30
0.0
 10
-16.056550349
 20
-10.049410058
 30
0.0
 10
-16.1392153325
 20
-10.0229147677
 30
0.0
 10
-16.1770431758
 20
-10.0058870948
 30
0.0
  0
SPLINE
  5
705
100
AcDbEntity
  8
ASSI
100
AcDbSpline
 62
7
  6
CONTINUOUS
 70
0
 71
3
 72
14
 73
10
 74
0
 42
0.0000001
 43
0.0000001
 44
0.0000000001
 40
0.0
 40
0.0
 40
0.0
 40
0.0
 40
0.2665979089
 40
0.368288704
 40
0.4714152591
 40
0.6179308633
 40
0.694077139
 40
0.7749435498
 40
1.0
 40
1.0
 40
1.0
 40
1.0
 10
-18.1601037703
 20
-8.7152657952
 30
0.0
 10
-18.0644129943
 20
-8.7152657952
 30
0.0
 10
-17.9155231385
 20
-8.7361199662
 30
0.0
 10
-17.8096938124
 20
-8.8771526173
 30
0.0
 10
-17.7855395259
 20
-9.004280167
 30
0.0
 10
-17.8202400387
 20
-9.1235022737
 30
0.0
 10
-17.8955349468
 20
-9.2049765469
 30
0.0
 10
-18.020039642
 20
-9.2679000564
 30
0.0
 10
-18.1335054795
 20
-9.2725647954
 30
0.0
 10
-18.2142856569
 20
-9.2725647954
 30
0.0
  0
SPLINE
  5
706
100
AcDbEntity
  8
ASSI
100
AcDbSpline
 62
7
  6
CONTINUOUS
 70
0
 71
3
 72
14
 73
10
 74
0
 42
0.0000001
 43
0.0000001
 44
0.0000000001
 40
0.0
 40
0.0
 40
0.0
 40
0.0
 40
0.1089885614
 40
0.1829254059
 40
0.2624764842
 40
0.3465277994
 40
0.4482203747
 40
0.5822701297
 40
1.0
 40
1.0
 40
1.0
 40
1.0
 10
-18.4350444948
 20
-9.4686514807
 30
0.0
 10
-18.4103098761
 20
-9.4686514807
 30
0.0
 10
-18.3688704997
 20
-9.4695241075
 30
0.0
 10
-18.3091549998
 20
-9.4745577043
 30
0.0
 10
-18.258083972
 20
-9.4931383499
 30
0.0
 10
-18.2043820721
 20
-9.5208923923
 30
0.0
 10
-18.1488280809
 20
-9.5685582798
 30
0.0
 10
-18.0537842335
 20
-9.682719136
 30
0.0
 10
-17.985712615
 20
-9.7881937235
 30
0.0
 10
-17.934668609
 20
-9.8680813019
 30
0.0
  0
SPLINE
  5
707
100
AcDbEntity
  8
ASSI
100
AcDbSpline
 62
7
  6
CONTINUOUS
 70
0
 71
3
 72
12
 73
8
 74
0
 42
0.0000001
 43
0.0000001
 44
0.0000000001
 40
0.0
 40
0.0
 40
0.0
 40
0.0
 40
0.3274191609
 40
0.4911287414
 40
0.6548383219
 40
0.8345406322
 40
1.0
 40
1.0
 40
1.0
 40
1.0
 10
-17.4447744905
 20
-10.2220371662
 30
0.0
 10
-17.4929898852
 20
-10.1448763879
 30
0.0
 10
-17.5650630711
 20
-10.0289750493
 30
0.0
 10
-17.6621602766
 20
-9.8750806163
 30
0.0
 10
-17.7347740902
 20
-9.7542474489
 30
0.0
 10
-17.8179585605
 20
-9.6396117792
 30
0.0
 10
-17.881859851
 20
-9.5677834437
 30
0.0
 10
-17.9145116792
 20
-9.5354111731
 30
0.0
  0
SPLINE
  5
708
100
AcDbEntity
  8
ASSI
100
AcDbSpline
 62
7
  6
CONTINUOUS
 70
0
 71
3
 72
9
 73
5
 74
0
 42
0.0000001
 43
0.0000001
 44
0.0000000001
 40
0.0
 40
0.0
 40
0.0
 40
0.0
 40
0.209446698
 40
1.0
 40
1.0
 40
1.0
 40
1.0
 10
-17.9145116792
 20
-9.5354111731
 30
0.0
 10
-17.9223395126
 20
-9.5277833236
 30
0.0
 10
-17.9619065794
 20
-9.4936132765
 30
0.0
 10
-18.0073961611
 20
-9.4670390977
 30
0.0
 10
-18.0439997725
 20
-9.448010777
 30
0.0
  0
SPLINE
  5
709
100
AcDbEntity
  8
ASSI
100
AcDbSpline
 62
7
  6
CONTINUOUS
 70
0
 71
3
 72
17
 73
13
 74
0
 42
0.0000001
 43
0.0000001
 44
0.0000000001
 40
0.0
 40
0.0
 40
0.0
 40
0.0
 40
0.2460836248
 40
0.3488272006
 40
0.4008361773
 40
0.4556648225
 40
0.540858721
 40
0.6244209655
 40
0.704882247
 40
0.7821673896
 40
0.8752909099
 40
1.0
 40
1.0
 40
1.0
 40
1.0
 10
-18.0439997725
 20
-9.448010777
 30
0.0
 10
-17.9145222214
 20
-9.4300301456
 30
0.0
 10
-17.7183198012
 20
-9.3652673148
 30
0.0
 10
-17.6023758226
 20
-9.178275791
 30
0.0
 10
-17.5733587206
 20
-9.0702819471
 30
0.0
 10
-17.5653817034
 20
-8.9681297287
 30
0.0
 10
-17.5800272946
 20
-8.8487460837
 30
0.0
 10
-17.6331102288
 20
-8.7257399968
 30
0.0
 10
-17.7146451645
 20
-8.6240383353
 30
0.0
 10
-17.831850424
 20
-8.5546879844
 30
0.0
 10
-17.9873756189
 20
-8.5242180841
 30
0.0
 10
-18.1030496153
 20
-8.5191791099
 30
0.0
 10
-18.1692953164
 20
-8.5191791099
 30
0.0
  0
SPLINE
  5
70A
100
AcDbEntity
  8
ASSI
100
AcDbSpline
 62
7
  6
CONTINUOUS
 70
0
 71
3
 72
12
 73
8
 74
0
 42
0.0000001
 43
0.0000001
 44
0.0000000001
 40
0.0
 40
0.0
 40
0.0
 40
0.0
 40
0.1914546415
 40
0.4289323167
 40
0.5716992375
 40
0.7144661583
 40
1.0
 40
1.0
 40
1.0
 40
1.0
 10
-19.927141549
 20
-8.6946250915
 30
0.0
 10
-19.9113890743
 20
-8.7485376126
 30
0.0
 10
-19.8724589081
 20
-8.8682267381
 30
0.0
 10
-19.8175528373
 20
-9.0267570312
 30
0.0
 10
-19.7605016077
 20
-9.169211152
 30
0.0
 10
-19.6996800905
 20
-9.3253101187
 30
0.0
 10
-19.6537328014
 20
-9.4422593219
 30
0.0
 10
-19.6231748644
 20
-9.52025324
 30
0.0
  0
SPLINE
  5
70B
100
AcDbEntity
  8
ASSI
100
AcDbSpline
 62
7
  6
CONTINUOUS
 70
0
 71
3
 72
9
 73
5
 74
0
 42
0.0000001
 43
0.0000001
 44
0.0000000001
 40
0.0
 40
0.0
 40
0.0
 40
0.0
 40
0.1862683768
 40
1.0
 40
1.0
 40
1.0
 40
1.0
 10
-21.6816013645
 20
-9.9737036898
 30
0.0
 10
-21.6864245479
 20
-9.9580208047
 30
0.0
 10
-21.7128375802
 20
-9.8739857882
 30
0.0
 10
-21.7404468516
 20
-9.7903331495
 30
0.0
 10
-21.7630353737
 20
-9.7223063122
 30
0.0
  0
SPLINE
  5
70C
100
AcDbEntity
  8
ASSI
100
AcDbSpline
 62
7
  6
CONTINUOUS
 70
0
 71
3
 72
9
 73
5
 74
0
 42
0.0000001
 43
0.0000001
 44
0.0000000001
 40
0.0
 40
0.0
 40
0.0
 40
0.0
 40
0.3106214921
 40
1.0
 40
1.0
 40
1.0
 40
1.0
 10
-21.588073166
 20
-9.7013430926
 30
0.0
 10
-21.5980153788
 20
-9.7294538153
 30
0.0
 10
-21.6298388282
 20
-9.8200147662
 30
0.0
 10
-21.6612343795
 20
-9.9107412067
 30
0.0
 10
-21.6816013645
 20
-9.9737036898
 30
0.0
  0
SPLINE
  5
70D
100
AcDbEntity
  8
ASSI
100
AcDbSpline
 62
7
  6
CONTINUOUS
 70
0
 71
3
 72
8
 73
4
 74
0
 42
0.0000001
 43
0.0000001
 44
0.0000000001
 40
0.0
 40
0.0
 40
0.0
 40
0.0
 40
1.0
 40
1.0
 40
1.0
 40
1.0
 10
-24.1172044025
 20
-10.0311105781
 30
0.0
 10
-24.1431895266
 20
-9.9373080228
 30
0.0
 10
-24.1735565269
 20
-9.8446825453
 30
0.0
 10
-24.2065398941
 20
-9.7531061098
 30
0.0
  0
SPLINE
  5
70E
100
AcDbEntity
  8
ASSI
100
AcDbSpline
 62
7
  6
CONTINUOUS
 70
0
 71
3
 72
29
 73
25
 74
0
 42
0.0000001
 43
0.0000001
 44
0.0000000001
 40
0.0
 40
0.0
 40
0.0
 40
0.0
 40
0.0355937351
 40
0.0799962023
 40
0.1647872018
 40
0.2454541378
 40
0.3251342714
 40
0.3656814677
 40
0.4061636494
 40
0.4473705763
 40
0.4900517958
 40
0.553930843
 40
0.6138247316
 40
0.672298714
 40
0.7321010455
 40
0.7934417861
 40
0.8247546384
 40
0.8568674109
 40
0.8901746441
 40
0.9249718061
 40
0.9615063193
 40
0.9804966154
 40
0.9901828374
 40
1.0
 40
1.0
 40
1.0
 40
1.0
 10
24.537776291
 20
-9.3443690962
 30
0.0
 10
24.5370657321
 20
-9.3124915476
 30
0.0
 10
24.532766404
 20
-9.2409190165
 30
0.0
 10
24.5101381345
 20
-9.0948952276
 30
0.0
 10
24.4496605136
 20
-8.9149621788
 30
0.0
 10
24.3269605222
 20
-8.7293837624
 30
0.0
 10
24.1845973195
 20
-8.6147842918
 30
0.0
 10
24.056051094
 20
-8.5493895768
 30
0.0
 10
23.9521570508
 20
-8.5138033282
 30
0.0
 10
23.8424766548
 20
-8.4926198216
 30
0.0
 10
23.7101161501
 20
-8.4849868006
 30
0.0
 10
23.5607423116
 20
-8.4971888756
 30
0.0
 10
23.4026901591
 20
-8.5423287551
 30
0.0
 10
23.2614820569
 20
-8.6192938245
 30
0.0
 10
23.1391869949
 20
-8.7254955836
 30
0.0
 10
23.0562902471
 20
-8.8353761512
 30
0.0
 10
23.0045274151
 20
-8.9345767874
 30
0.0
 10
22.9727259234
 20
-9.0152984451
 30
0.0
 10
22.9480524606
 20
-9.1016974923
 30
0.0
 10
22.9304693287
 20
-9.1938321916
 30
0.0
 10
22.9218490544
 20
-9.274324386
 30
0.0
 10
22.9188208755
 20
-9.3326398334
 30
0.0
 10
22.9179494082
 20
-9.3670939874
 30
0.0
 10
22.917787833
 20
-9.3845555598
 30
0.0
 10
22.9177991018
 20
-9.3933451165
 30
0.0
  0
SPLINE
  5
70F
100
AcDbEntity
  8
ASSI
100
AcDbSpline
 62
7
  6
CONTINUOUS
 70
0
 71
3
 72
25
 73
21
 74
0
 42
0.0000001
 43
0.0000001
 44
0.0000000001
 40
0.0
 40
0.0
 40
0.0
 40
0.0
 40
0.0104078563
 40
0.0207474892
 40
0.0412716006
 40
0.0820581221
 40
0.123007883
 40
0.1639100271
 40
0.2444382688
 40
0.3245725211
 40
0.4061842734
 40
0.4479717478
 40
0.4914182365
 40
0.649541018
 40
0.7289634834
 40
0.8106560421
 40
0.8970003625
 40
0.9420674742
 40
0.9891559287
 40
1.0
 40
1.0
 40
1.0
 40
1.0
 10
22.9177991018
 20
-9.3933451165
 30
0.0
 10
22.9178110487
 20
-9.4026635364
 30
0.0
 10
22.9180423364
 20
-9.4212396396
 30
0.0
 10
22.9195546827
 20
-9.4581639196
 30
0.0
 10
22.9248124925
 20
-9.5221272303
 30
0.0
 10
22.9400801272
 20
-9.6126081711
 30
0.0
 10
22.9705158568
 20
-9.7183708943
 30
0.0
 10
23.0264465741
 20
-9.8527739093
 30
0.0
 10
23.1262659148
 20
-10.0062153399
 30
0.0
 10
23.2961102455
 20
-10.1460248085
 30
0.0
 10
23.4655709843
 20
-10.2197998794
 30
0.0
 10
23.6126908333
 20
-10.2483656932
 30
0.0
 10
23.8302698976
 20
-10.2620564547
 30
0.0
 10
24.0876803413
 20
-10.1996455195
 30
0.0
 10
24.3182973387
 20
-10.0242012641
 30
0.0
 10
24.4449093338
 20
-9.8382479419
 30
0.0
 10
24.5086314939
 20
-9.6563320893
 30
0.0
 10
24.5340599041
 20
-9.4982560151
 30
0.0
 10
24.5385530484
 20
-9.40598083
 30
0.0
 10
24.5379927716
 20
-9.3540809853
 30
0.0
 10
24.537776291
 20
-9.3443690962
 30
0.0
  0
SPLINE
  5
710
100
AcDbEntity
  8
ASSI
100
AcDbSpline
 62
7
  6
CONTINUOUS
 70
0
 71
3
 72
20
 73
16
 74
0
 42
0.0000001
 43
0.0000001
 44
0.0000000001
 40
0.0
 40
0.0
 40
0.0
 40
0.0
 40
0.0572164243
 40
0.1259090416
 40
0.1899024107
 40
0.2516979518
 40
0.3666568775
 40
0.4226515948
 40
0.4811108566
 40
0.6424617623
 40
0.7260628317
 40
0.8152762586
 40
0.9077988128
 40
0.9537448232
 40
1.0
 40
1.0
 40
1.0
 40
1.0
 10
15.2391593762
 20
-9.7028235382
 30
0.0
 10
15.238496541
 20
-9.7247991537
 30
0.0
 10
15.2345597554
 20
-9.7730606093
 30
0.0
 10
15.218746543
 20
-9.8445663621
 30
0.0
 10
15.1890916139
 20
-9.9136965498
 30
0.0
 10
15.1352484517
 20
-9.9893207496
 30
0.0
 10
15.0623493346
 20
-10.046300659
 30
0.0
 10
14.9777941258
 20
-10.0734083714
 30
0.0
 10
14.8719770644
 20
-10.0836802114
 30
0.0
 10
14.7526271674
 20
-10.0501740384
 30
0.0
 10
14.6549764093
 20
-9.9643585911
 30
0.0
 10
14.6008661083
 20
-9.876660746
 30
0.0
 10
14.5719862124
 20
-9.7934552726
 30
0.0
 10
14.5601681189
 20
-9.7234001519
 30
0.0
 10
14.5583337428
 20
-9.6879836172
 30
0.0
 10
14.5583140986
 20
-9.6702207791
 30
0.0
  0
SPLINE
  5
711
100
AcDbEntity
  8
ASSI
100
AcDbSpline
 62
7
  6
CONTINUOUS
 70
0
 71
3
 72
22
 73
18
 74
0
 42
0.0000001
 43
0.0000001
 44
0.0000000001
 40
0.0
 40
0.0
 40
0.0
 40
0.0
 40
0.0347934713
 40
0.0680881394
 40
0.1313457496
 40
0.2521632748
 40
0.3120984002
 40
0.3697590662
 40
0.4275848594
 40
0.4879953648
 40
0.5503890856
 40
0.6087058281
 40
0.7229097408
 40
0.8433811834
 40
0.9093353186
 40
0.9817892272
 40
1.0
 40
1.0
 40
1.0
 40
1.0
 10
14.5583140986
 20
-9.6702207791
 30
0.0
 10
14.5582993221
 20
-9.6568594465
 30
0.0
 10
14.5592676228
 20
-9.6307176732
 30
0.0
 10
14.5652831665
 20
-9.580608106
 30
0.0
 10
14.5864327045
 20
-9.4993939806
 30
0.0
 10
14.6391030701
 20
-9.4181657632
 30
0.0
 10
14.709610255
 20
-9.3591582339
 30
0.0
 10
14.7691251647
 20
-9.3266179963
 30
0.0
 10
14.8343797322
 20
-9.307396589
 30
0.0
 10
14.9038377593
 20
-9.3015566779
 30
0.0
 10
14.9735044855
 20
-9.3073117554
 30
0.0
 10
15.0607520812
 20
-9.3323585353
 30
0.0
 10
15.1556233235
 20
-9.3999106556
 30
0.0
 10
15.2141242032
 20
-9.5034569419
 30
0.0
 10
15.2361132586
 20
-9.6007812181
 30
0.0
 10
15.2398527036
 20
-9.6609844301
 30
0.0
 10
15.2393703426
 20
-9.6958291664
 30
0.0
 10
15.2391593762
 20
-9.7028235382
 30
0.0
  0
SPLINE
  5
712
100
AcDbEntity
  8
ASSI
100
AcDbSpline
 62
7
  6
CONTINUOUS
 70
0
 71
3
 72
25
 73
21
 74
0
 42
0.0000001
 43
0.0000001
 44
0.0000000001
 40
0.0
 40
0.0
 40
0.0
 40
0.0
 40
0.0514335127
 40
0.0974753557
 40
0.1736419787
 40
0.2358722462
 40
0.2912819311
 40
0.3421630814
 40
0.3923662866
 40
0.4442955522
 40
0.5000866919
 40
0.5383619081
 40
0.5740179499
 40
0.6411406999
 40
0.7101280716
 40
0.7880107919
 40
0.8828187826
 40
0.9383827827
 40
0.9684100182
 40
1.0
 40
1.0
 40
1.0
 40
1.0
 10
14.1248594608
 20
-9.3813697904
 30
0.0
 10
14.1248855229
 20
-9.3412626165
 30
0.0
 10
14.1234730879
 20
-9.2652606617
 30
0.0
 10
14.114946825
 20
-9.1301511304
 30
0.0
 10
14.0933271547
 20
-8.9873637784
 30
0.0
 10
14.0461346257
 20
-8.843314818
 30
0.0
 10
13.9887941454
 20
-8.7244465671
 30
0.0
 10
13.9118197797
 20
-8.6279312589
 30
0.0
 10
13.8126636803
 20
-8.5587882966
 30
0.0
 10
13.6954606958
 20
-8.5168715867
 30
0.0
 10
13.5811835909
 20
-8.5060546496
 30
0.0
 10
13.4799861037
 20
-8.5125239831
 30
0.0
 10
13.3721352429
 20
-8.5359780556
 30
0.0
 10
13.2504762896
 20
-8.5995723534
 30
0.0
 10
13.1392068243
 20
-8.7280420945
 30
0.0
 10
13.0611163118
 20
-8.9017099019
 30
0.0
 10
13.0268866376
 20
-9.0774885842
 30
0.0
 10
13.0146085253
 20
-9.2176085792
 30
0.0
 10
13.0108697093
 20
-9.3089072048
 30
0.0
 10
13.010253776
 20
-9.356945208
 30
0.0
 10
13.0102613202
 20
-9.381573443
 30
0.0
  0
SPLINE
  5
713
100
AcDbEntity
  8
ASSI
100
AcDbSpline
 62
7
  6
CONTINUOUS
 70
0
 71
3
 72
25
 73
21
 74
0
 42
0.0000001
 43
0.0000001
 44
0.0000000001
 40
0.0
 40
0.0
 40
0.0
 40
0.0
 40
0.0252748524
 40
0.0496777713
 40
0.0959413722
 40
0.1788918516
 40
0.2504468259
 40
0.3126957994
 40
0.3587715651
 40
0.4037491419
 40
0.4501831796
 40
0.5004065656
 40
0.538895651
 40
0.5747150939
 40
0.6420519243
 40
0.7111453054
 40
0.7889985187
 40
0.8832681673
 40
0.9386609163
 40
1.0
 40
1.0
 40
1.0
 40
1.0
 10
13.0102613202
 20
-9.381573443
 30
0.0
 10
13.0102673563
 20
-9.4012782662
 30
0.0
 10
13.0106860257
 20
-9.4400082088
 30
0.0
 10
13.013301003
 20
-9.5147670835
 30
0.0
 10
13.0219508623
 20
-9.634250251
 30
0.0
 10
13.0461854783
 20
-9.7893338553
 30
0.0
 10
13.0964384113
 20
-9.951469423
 30
0.0
 10
13.1667423008
 20
-10.0748909968
 30
0.0
 10
13.2532025961
 20
-10.1591279202
 30
0.0
 10
13.3461698479
 20
-10.2144723905
 30
0.0
 10
13.4528036373
 20
-10.2467664734
 30
0.0
 10
13.5584231676
 20
-10.2554802186
 30
0.0
 10
13.6556008068
 20
-10.2493252669
 30
0.0
 10
13.7638984324
 20
-10.2257492639
 30
0.0
 10
13.8858268689
 20
-10.1617913299
 30
0.0
 10
13.99699427
 20
-10.0329026391
 30
0.0
 10
14.0743809734
 20
-9.8593335547
 30
0.0
 10
14.1085044148
 20
-9.6841561815
 30
0.0
 10
14.1226814648
 20
-9.5202386228
 30
0.0
 10
14.1248283794
 20
-9.4292011979
 30
0.0
 10
14.1248594608
 20
-9.3813697904
 30
0.0
  0
SPLINE
  5
714
100
AcDbEntity
  8
ASSI
100
AcDbSpline
 62
7
  6
CONTINUOUS
 70
0
 71
3
 72
20
 73
16
 74
0
 42
0.0000001
 43
0.0000001
 44
0.0000000001
 40
0.0
 40
0.0
 40
0.0
 40
0.0
 40
0.0572164243
 40
0.1259090416
 40
0.1899024107
 40
0.2516979518
 40
0.3666568775
 40
0.4226515948
 40
0.4811108566
 40
0.6424617623
 40
0.7260628317
 40
0.8152762586
 40
0.9077988128
 40
0.9537448232
 40
1.0
 40
1.0
 40
1.0
 40
1.0
 10
12.5971493011
 20
-9.7028235382
 30
0.0
 10
12.5964864659
 20
-9.7247991537
 30
0.0
 10
12.5925496802
 20
-9.7730606093
 30
0.0
 10
12.5767364679
 20
-9.8445663621
 30
0.0
 10
12.5470815388
 20
-9.9136965498
 30
0.0
 10
12.4932383766
 20
-9.9893207496
 30
0.0
 10
12.4203392595
 20
-10.046300659
 30
0.0
 10
12.3357840507
 20
-10.0734083714
 30
0.0
 10
12.2299669893
 20
-10.0836802114
 30
0.0
 10
12.1106170923
 20
-10.0501740384
 30
0.0
 10
12.0129663342
 20
-9.9643585911
 30
0.0
 10
11.9588560332
 20
-9.876660746
 30
0.0
 10
11.9299761373
 20
-9.7934552726
 30
0.0
 10
11.9181580438
 20
-9.7234001519
 30
0.0
 10
11.9163236677
 20
-9.6879836172
 30
0.0
 10
11.9163040235
 20
-9.6702207791
 30
0.0
  0
SPLINE
  5
715
100
AcDbEntity
  8
ASSI
100
AcDbSpline
 62
7
  6
CONTINUOUS
 70
0
 71
3
 72
22
 73
18
 74
0
 42
0.0000001
 43
0.0000001
 44
0.0000000001
 40
0.0
 40
0.0
 40
0.0
 40
0.0
 40
0.0347934713
 40
0.0680881394
 40
0.1313457496
 40
0.2521632748
 40
0.3120984002
 40
0.3697590662
 40
0.4275848594
 40
0.4879953648
 40
0.5503890856
 40
0.6087058281
 40
0.7229097408
 40
0.8433811834
 40
0.9093353186
 40
0.9817892272
 40
1.0
 40
1.0
 40
1.0
 40
1.0
 10
11.9163040235
 20
-9.6702207791
 30
0.0
 10
11.916289247
 20
-9.6568594465
 30
0.0
 10
11.9172575477
 20
-9.6307176732
 30
0.0
 10
11.9232730914
 20
-9.580608106
 30
0.0
 10
11.9444226294
 20
-9.4993939806
 30
0.0
 10
11.997092995
 20
-9.4181657632
 30
0.0
 10
12.0676001799
 20
-9.3591582339
 30
0.0
 10
12.1271150895
 20
-9.3266179963
 30
0.0
 10
12.1923696571
 20
-9.307396589
 30
0.0
 10
12.2618276842
 20
-9.3015566779
 30
0.0
 10
12.3314944104
 20
-9.3073117554
 30
0.0
 10
12.4187420061
 20
-9.3323585353
 30
0.0
 10
12.5136132484
 20
-9.3999106556
 30
0.0
 10
12.5721141281
 20
-9.5034569419
 30
0.0
 10
12.5941031835
 20
-9.6007812181
 30
0.0
 10
12.5978426285
 20
-9.6609844301
 30
0.0
 10
12.5973602675
 20
-9.6958291664
 30
0.0
 10
12.5971493011
 20
-9.7028235382
 30
0.0
  0
SPLINE
  5
716
100
AcDbEntity
  8
ASSI
100
AcDbSpline
 62
7
  6
CONTINUOUS
 70
0
 71
3
 72
11
 73
7
 74
0
 42
0.0000001
 43
0.0000001
 44
0.0000000001
 40
0.0
 40
0.0
 40
0.0
 40
0.0
 40
0.1090012812
 40
0.3263377791
 40
0.5394000676
 40
1.0
 40
1.0
 40
1.0
 40
1.0
 10
28.7061303628
 20
-9.1071191974
 30
0.0
 10
28.7126601608
 20
-9.081179701
 30
0.0
 10
28.7358117651
 20
-9.0044603169
 30
0.0
 10
28.7936528999
 20
-8.8840210183
 30
0.0
 10
28.951051203
 20
-8.7270140091
 30
0.0
 10
29.1247606027
 20
-8.6843047396
 30
0.0
 10
29.2374021127
 20
-8.6843047396
 30
0.0
  0
SPLINE
  5
717
100
AcDbEntity
  8
ASSI
100
AcDbSpline
 62
7
  6
CONTINUOUS
 70
0
 71
3
 72
11
 73
7
 74
0
 42
0.0000001
 43
0.0000001
 44
0.0000000001
 40
0.0
 40
0.0
 40
0.0
 40
0.0
 40
0.0704675362
 40
0.2994827486
 40
0.5147334237
 40
1.0
 40
1.0
 40
1.0
 40
1.0
 10
28.5152801297
 20
-9.7527927726
 30
0.0
 10
28.5227198825
 20
-9.7738897262
 30
0.0
 10
28.5571516915
 20
-9.8625813688
 30
0.0
 10
28.6388763278
 20
-10.0064255133
 30
0.0
 10
28.8600798371
 20
-10.2104499805
 30
0.0
 10
29.0966025857
 20
-10.2529982217
 30
0.0
 10
29.2506251078
 20
-10.2529982217
 30
0.0
  0
SPLINE
  5
718
100
AcDbEntity
  8
ASSI
100
AcDbSpline
 62
7
  6
CONTINUOUS
 70
0
 71
3
 72
10
 73
6
 74
0
 42
0.0000001
 43
0.0000001
 44
0.0000000001
 40
0.0
 40
0.0
 40
0.0
 40
0.0
 40
0.1717367156
 40
0.4299236835
 40
1.0
 40
1.0
 40
1.0
 40
1.0
 10
24.8287999044
 20
-8.9991584773
 30
0.0
 10
24.8310631697
 20
-9.023683767
 30
0.0
 10
24.8422883828
 20
-9.0843963903
 30
0.0
 10
24.9018058918
 20
-9.2167469629
 30
0.0
 10
25.0010810233
 20
-9.2942198866
 30
0.0
 10
25.0734627335
 20
-9.3315842633
 30
0.0
  0
SPLINE
  5
719
100
AcDbEntity
  8
ASSI
100
AcDbSpline
 62
7
  6
CONTINUOUS
 70
0
 71
3
 72
12
 73
8
 74
0
 42
0.0000001
 43
0.0000001
 44
0.0000000001
 40
0.0
 40
0.0
 40
0.0
 40
0.0
 40
0.00400947
 40
0.2614071442
 40
0.4906469709
 40
0.7269438429
 40
1.0
 40
1.0
 40
1.0
 40
1.0
 10
25.2178881181
 20
-10.0058870948
 30
0.0
 10
25.2173431774
 20
-10.0056417973
 30
0.0
 10
25.1818394795
 20
-9.9895907174
 30
0.0
 10
25.1182885925
 20
-9.9523288167
 30
0.0
 10
25.0445689535
 20
-9.8715786517
 30
0.0
 10
25.0006071942
 20
-9.7694795461
 30
0.0
 10
24.9863866447
 20
-9.6947246872
 30
0.0
 10
24.981869473
 20
-9.6544178141
 30
0.0
  0
SPLINE
  5
71A
100
AcDbEntity
  8
ASSI
100
AcDbSpline
 62
7
  6
CONTINUOUS
 70
0
 71
3
 72
18
 73
14
 74
0
 42
0.0000001
 43
0.0000001
 44
0.0000000001
 40
0.0
 40
0.0
 40
0.0
 40
0.0
 40
0.0451374535
 40
0.1263059963
 40
0.2086239826
 40
0.2957970941
 40
0.3816110027
 40
0.4630450643
 40
0.5437220143
 40
0.6273630241
 40
0.7134726961
 40
0.8020095538
 40
1.0
 40
1.0
 40
1.0
 40
1.0
 10
24.1077435954
 20
-9.9167878966
 30
0.0
 10
24.0920506488
 20
-9.9309557309
 30
0.0
 10
24.0458897988
 20
-9.968098737
 30
0.0
 10
23.9602809015
 20
-10.0164731383
 30
0.0
 10
23.8470586927
 20
-10.0501962305
 30
0.0
 10
23.7274549216
 20
-10.0603524714
 30
0.0
 10
23.6082642343
 20
-10.0502317397
 30
0.0
 10
23.4963253713
 20
-10.016737097
 30
0.0
 10
23.3954014551
 20
-9.9599416989
 30
0.0
 10
23.3069792261
 20
-9.881995511
 30
0.0
 10
23.2336262458
 20
-9.7848754794
 30
0.0
 10
23.1613492667
 20
-9.6250098116
 30
0.0
 10
23.1448468427
 20
-9.4886567097
 30
0.0
 10
23.1448468427
 20
-9.3960865018
 30
0.0
  0
SPLINE
  5
71B
100
AcDbEntity
  8
ASSI
100
AcDbSpline
 62
7
  6
CONTINUOUS
 70
0
 71
3
 72
8
 73
4
 74
0
 42
0.0000001
 43
0.0000001
 44
0.0000000001
 40
0.0
 40
0.0
 40
0.0
 40
0.0
 40
1.0
 40
1.0
 40
1.0
 40
1.0
 10
16.9095630788
 20
1.8950531307
 30
0.0
 10
16.6298345739
 20
2.148886704
 30
0.0
 10
16.2428628668
 20
2.3029628327
 30
0.0
 10
15.872299588
 20
2.3029628327
 30
0.0
  0
SPLINE
  5
71C
100
AcDbEntity
  8
ASSI
100
AcDbSpline
 62
7
  6
CONTINUOUS
 70
0
 71
3
 72
11
 73
7
 74
0
 42
0.0000001
 43
0.0000001
 44
0.0000000001
 40
0.0
 40
0.0
 40
0.0
 40
0.0
 40
0.0039886316
 40
0.1534624385
 40
0.4365249438
 40
1.0
 40
1.0
 40
1.0
 40
1.0
 10
16.7616377865
 20
-9.6420891246
 30
0.0
 10
16.7615453226
 20
-9.6414363976
 30
0.0
 10
16.7579376209
 20
-9.6163295147
 30
0.0
 10
16.7421606434
 20
-9.5456707922
 30
0.0
 10
16.6642987954
 20
-9.3965974722
 30
0.0
 10
16.5305330424
 20
-9.3204676423
 30
0.0
 10
16.4398432955
 20
-9.299494402
 30
0.0
  0
SPLINE
  5
71D
100
AcDbEntity
  8
ASSI
100
AcDbSpline
 62
7
  6
CONTINUOUS
 70
0
 71
3
 72
9
 73
5
 74
0
 42
0.0000001
 43
0.0000001
 44
0.0000000001
 40
0.0
 40
0.0
 40
0.0
 40
0.0
 40
0.2431620089
 40
1.0
 40
1.0
 40
1.0
 40
1.0
 10
15.9450740574
 20
-8.5591982417
 30
0.0
 10
15.9091794947
 20
-8.576613535
 30
0.0
 10
15.7705055893
 20
-8.6673016586
 30
0.0
 10
15.6946879596
 20
-8.8311526803
 30
0.0
 10
15.672912099
 20
-8.9526338879
 30
0.0
  0
SPLINE
  5
71E
100
AcDbEntity
  8
ASSI
100
AcDbSpline
 62
7
  6
CONTINUOUS
 70
0
 71
3
 72
11
 73
7
 74
0
 42
0.0000001
 43
0.0000001
 44
0.0000000001
 40
0.0
 40
0.0
 40
0.0
 40
0.0
 40
0.0896485733
 40
0.2087137576
 40
0.4365955941
 40
1.0
 40
1.0
 40
1.0
 40
1.0
 10
16.1817921691
 20
-10.0771348137
 30
0.0
 10
16.1668679802
 20
-10.0764857974
 30
0.0
 10
16.1322234332
 20
-10.0731664561
 30
0.0
 10
16.0614086681
 20
-10.0557950074
 30
0.0
 10
15.9262326436
 20
-9.9767288077
 30
0.0
 10
15.877986376
 20
-9.839034565
 30
0.0
 10
15.8586784324
 20
-9.7473009808
 30
0.0
  0
SPLINE
  5
71F
100
AcDbEntity
  8
ASSI
100
AcDbSpline
 62
7
  6
CONTINUOUS
 70
0
 71
3
 72
24
 73
20
 74
0
 42
0.0000001
 43
0.0000001
 44
0.0000000001
 40
0.0
 40
0.0
 40
0.0
 40
0.0
 40
0.0414046536
 40
0.1230930635
 40
0.1946031421
 40
0.2602199988
 40
0.3231289899
 40
0.3865919713
 40
0.4537901736
 40
0.493911878
 40
0.5324902465
 40
0.6077096632
 40
0.6829060629
 40
0.761648871
 40
0.8435102247
 40
0.8848867017
 40
0.9272674984
 40
0.9899688546
 40
1.0
 40
1.0
 40
1.0
 40
1.0
 10
14.345591795
 20
-9.7293871311
 30
0.0
 10
14.3502629565
 20
-9.7547059657
 30
0.0
 10
14.366590203
 20
-9.8295358042
 30
0.0
 10
14.4058217605
 20
-9.9447919453
 30
0.0
 10
14.4796245413
 20
-10.0606942527
 30
0.0
 10
14.5705819365
 20
-10.1469140907
 30
0.0
 10
14.6734818545
 20
-10.2092188898
 30
0.0
 10
14.7892127252
 20
-10.2457284596
 30
0.0
 10
14.8956192856
 20
-10.2553371036
 30
0.0
 10
14.9863199114
 20
-10.2501533052
 30
0.0
 10
15.0804872773
 20
-10.2320355362
 30
0.0
 10
15.1902103643
 20
-10.1856132467
 30
0.0
 10
15.3014566946
 20
-10.0933817543
 30
0.0
 10
15.3828769887
 20
-9.969475563
 30
0.0
 10
15.4258624784
 20
-9.8503126898
 30
0.0
 10
15.4431127999
 20
-9.7486399916
 30
0.0
 10
15.447852528
 20
-9.6576070933
 30
0.0
 10
15.4426170302
 20
-9.5859442664
 30
0.0
 10
15.4345204788
 20
-9.5414104255
 30
0.0
 10
15.4333104372
 20
-9.5352865579
 30
0.0
  0
SPLINE
  5
720
100
AcDbEntity
  8
ASSI
100
AcDbSpline
 62
7
  6
CONTINUOUS
 70
0
 71
3
 72
16
 73
12
 74
0
 42
0.0000001
 43
0.0000001
 44
0.0000000001
 40
0.0
 40
0.0
 40
0.0
 40
0.0
 40
0.0759295314
 40
0.164095546
 40
0.2524226365
 40
0.3389947111
 40
0.4215543551
 40
0.5037177442
 40
0.5891513863
 40
0.788071952
 40
1.0
 40
1.0
 40
1.0
 40
1.0
 10
15.4333104372
 20
-9.5352865579
 30
0.0
 10
15.4274798198
 20
-9.5057785424
 30
0.0
 10
15.4101933727
 20
-9.4429186364
 30
0.0
 10
15.366182318
 20
-9.3524617782
 30
0.0
 10
15.3014363949
 20
-9.2701271131
 30
0.0
 10
15.2244124922
 20
-9.2025988602
 30
0.0
 10
15.137394781
 20
-9.1530356942
 30
0.0
 10
15.0420224763
 20
-9.1237794302
 30
0.0
 10
14.897066046
 20
-9.1102832283
 30
0.0
 10
14.6975006924
 20
-9.155761645
 30
0.0
 10
14.5735087289
 20
-9.2737068639
 30
0.0
 10
14.527353043
 20
-9.3436784527
 30
0.0
  0
SPLINE
  5
721
100
AcDbEntity
  8
ASSI
100
AcDbSpline
 62
7
  6
CONTINUOUS
 70
0
 71
3
 72
24
 73
20
 74
0
 42
0.0000001
 43
0.0000001
 44
0.0000000001
 40
0.0
 40
0.0
 40
0.0
 40
0.0
 40
0.0414046536
 40
0.1230930635
 40
0.1946031421
 40
0.2602199988
 40
0.3231289899
 40
0.3865919713
 40
0.4537901736
 40
0.493911878
 40
0.5324902465
 40
0.6077096632
 40
0.6829060629
 40
0.761648871
 40
0.8435102247
 40
0.8848867017
 40
0.9272674984
 40
0.9899688546
 40
1.0
 40
1.0
 40
1.0
 40
1.0
 10
11.7035817199
 20
-9.7293871311
 30
0.0
 10
11.7082528814
 20
-9.7547059657
 30
0.0
 10
11.7245801279
 20
-9.8295358042
 30
0.0
 10
11.7638116854
 20
-9.9447919453
 30
0.0
 10
11.8376144662
 20
-10.0606942527
 30
0.0
 10
11.9285718614
 20
-10.1469140907
 30
0.0
 10
12.0314717794
 20
-10.2092188898
 30
0.0
 10
12.1472026501
 20
-10.2457284596
 30
0.0
 10
12.2536092105
 20
-10.2553371036
 30
0.0
 10
12.3443098363
 20
-10.2501533052
 30
0.0
 10
12.4384772022
 20
-10.2320355362
 30
0.0
 10
12.5482002892
 20
-10.1856132467
 30
0.0
 10
12.6594466195
 20
-10.0933817543
 30
0.0
 10
12.7408669136
 20
-9.969475563
 30
0.0
 10
12.7838524033
 20
-9.8503126898
 30
0.0
 10
12.8011027248
 20
-9.7486399916
 30
0.0
 10
12.8058424529
 20
-9.6576070933
 30
0.0
 10
12.8006069551
 20
-9.5859442664
 30
0.0
 10
12.7925104037
 20
-9.5414104255
 30
0.0
 10
12.7913003621
 20
-9.5352865579
 30
0.0
  0
SPLINE
  5
722
100
AcDbEntity
  8
ASSI
100
AcDbSpline
 62
7
  6
CONTINUOUS
 70
0
 71
3
 72
16
 73
12
 74
0
 42
0.0000001
 43
0.0000001
 44
0.0000000001
 40
0.0
 40
0.0
 40
0.0
 40
0.0
 40
0.0759295314
 40
0.164095546
 40
0.2524226365
 40
0.3389947111
 40
0.4215543551
 40
0.5037177442
 40
0.5891513863
 40
0.788071952
 40
1.0
 40
1.0
 40
1.0
 40
1.0
 10
12.7913003621
 20
-9.5352865579
 30
0.0
 10
12.7854697447
 20
-9.5057785424
 30
0.0
 10
12.7681832976
 20
-9.4429186364
 30
0.0
 10
12.7241722429
 20
-9.3524617782
 30
0.0
 10
12.6594263198
 20
-9.2701271131
 30
0.0
 10
12.5824024171
 20
-9.2025988602
 30
0.0
 10
12.4953847059
 20
-9.1530356942
 30
0.0
 10
12.4000124012
 20
-9.1237794302
 30
0.0
 10
12.2550559709
 20
-9.1102832283
 30
0.0
 10
12.0554906173
 20
-9.155761645
 30
0.0
 10
11.9314986538
 20
-9.2737068639
 30
0.0
 10
11.8853429679
 20
-9.3436784527
 30
0.0
  0
SPLINE
  5
723
100
AcDbEntity
  8
ASSI
100
AcDbSpline
 62
7
  6
CONTINUOUS
 70
0
 71
3
 72
11
 73
7
 74
0
 42
0.0000001
 43
0.0000001
 44
0.0000000001
 40
0.0
 40
0.0
 40
0.0
 40
0.0
 40
0.0896485733
 40
0.2087137576
 40
0.4365955941
 40
1.0
 40
1.0
 40
1.0
 40
1.0
 10
10.8977720189
 20
-10.0771348137
 30
0.0
 10
10.88284783
 20
-10.0764857974
 30
0.0
 10
10.848203283
 20
-10.0731664561
 30
0.0
 10
10.7773885179
 20
-10.0557950074
 30
0.0
 10
10.6422124934
 20
-9.9767288077
 30
0.0
 10
10.5939662258
 20
-9.839034565
 30
0.0
 10
10.5746582822
 20
-9.7473009808
 30
0.0
  0
SPLINE
  5
724
100
AcDbEntity
  8
ASSI
100
AcDbSpline
 62
7
  6
CONTINUOUS
 70
0
 71
3
 72
11
 73
7
 74
0
 42
0.0000001
 43
0.0000001
 44
0.0000000001
 40
0.0
 40
0.0
 40
0.0
 40
0.0
 40
0.0039886316
 40
0.1534624385
 40
0.4365249438
 40
1.0
 40
1.0
 40
1.0
 40
1.0
 10
11.4776176363
 20
-9.6420891246
 30
0.0
 10
11.4775251724
 20
-9.6414363976
 30
0.0
 10
11.4739174707
 20
-9.6163295147
 30
0.0
 10
11.4581404932
 20
-9.5456707922
 30
0.0
 10
11.3802786452
 20
-9.3965974722
 30
0.0
 10
11.2465128922
 20
-9.3204676423
 30
0.0
 10
11.1558231453
 20
-9.299494402
 30
0.0
  0
SPLINE
  5
725
100
AcDbEntity
  8
ASSI
100
AcDbSpline
 62
7
  6
CONTINUOUS
 70
0
 71
3
 72
9
 73
5
 74
0
 42
0.0000001
 43
0.0000001
 44
0.0000000001
 40
0.0
 40
0.0
 40
0.0
 40
0.0
 40
0.2431620089
 40
1.0
 40
1.0
 40
1.0
 40
1.0
 10
10.6610539072
 20
-8.5591982417
 30
0.0
 10
10.6251593445
 20
-8.576613535
 30
0.0
 10
10.4864854391
 20
-8.6673016586
 30
0.0
 10
10.4106678094
 20
-8.8311526803
 30
0.0
 10
10.3888919488
 20
-8.9526338879
 30
0.0
  0
SPLINE
  5
726
100
AcDbEntity
  8
ASSI
100
AcDbSpline
 62
7
  6
CONTINUOUS
 70
0
 71
3
 72
11
 73
7
 74
0
 42
0.0000001
 43
0.0000001
 44
0.0000000001
 40
0.0
 40
0.0
 40
0.0
 40
0.0
 40
0.0704675362
 40
0.2994827486
 40
0.5147334237
 40
1.0
 40
1.0
 40
1.0
 40
1.0
 10
-1.5479048264
 20
-9.7527927726
 30
0.0
 10
-1.5404650736
 20
-9.7738897262
 30
0.0
 10
-1.5060332646
 20
-9.8625813688
 30
0.0
 10
-1.4243086283
 20
-10.0064255133
 30
0.0
 10
-1.203105119
 20
-10.2104499805
 30
0.0
 10
-0.9665823705
 20
-10.2529982217
 30
0.0
 10
-0.8125598483
 20
-10.2529982217
 30
0.0
  0
SPLINE
  5
727
100
AcDbEntity
  8
ASSI
100
AcDbSpline
 62
7
  6
CONTINUOUS
 70
0
 71
3
 72
11
 73
7
 74
0
 42
0.0000001
 43
0.0000001
 44
0.0000000001
 40
0.0
 40
0.0
 40
0.0
 40
0.0
 40
0.1090012812
 40
0.3263377791
 40
0.5394000676
 40
1.0
 40
1.0
 40
1.0
 40
1.0
 10
-1.3570545933
 20
-9.1071191974
 30
0.0
 10
-1.3505247953
 20
-9.081179701
 30
0.0
 10
-1.3273731911
 20
-9.0044603169
 30
0.0
 10
-1.2695320563
 20
-8.8840210183
 30
0.0
 10
-1.1121337532
 20
-8.7270140091
 30
0.0
 10
-0.9384243534
 20
-8.6843047396
 30
0.0
 10
-0.8257828434
 20
-8.6843047396
 30
0.0
  0
SPLINE
  5
728
100
AcDbEntity
  8
ASSI
100
AcDbSpline
 62
7
  6
CONTINUOUS
 70
0
 71
3
 72
10
 73
6
 74
0
 42
0.0000001
 43
0.0000001
 44
0.0000000001
 40
0.0
 40
0.0
 40
0.0
 40
0.0
 40
0.1717367156
 40
0.4299236835
 40
1.0
 40
1.0
 40
1.0
 40
1.0
 10
-16.5661313894
 20
-8.9991584773
 30
0.0
 10
-16.5638681242
 20
-9.023683767
 30
0.0
 10
-16.552642911
 20
-9.0843963903
 30
0.0
 10
-16.4931254021
 20
-9.2167469629
 30
0.0
 10
-16.3938502706
 20
-9.2942198866
 30
0.0
 10
-16.3214685603
 20
-9.3315842633
 30
0.0
  0
SPLINE
  5
729
100
AcDbEntity
  8
ASSI
100
AcDbSpline
 62
7
  6
CONTINUOUS
 70
0
 71
3
 72
12
 73
8
 74
0
 42
0.0000001
 43
0.0000001
 44
0.0000000001
 40
0.0
 40
0.0
 40
0.0
 40
0.0
 40
0.00400947
 40
0.2614071442
 40
0.4906469709
 40
0.7269438429
 40
1.0
 40
1.0
 40
1.0
 40
1.0
 10
-16.1770431758
 20
-10.0058870948
 30
0.0
 10
-16.1775881165
 20
-10.0056417973
 30
0.0
 10
-16.2130918144
 20
-9.9895907174
 30
0.0
 10
-16.2766427014
 20
-9.9523288167
 30
0.0
 10
-16.3503623404
 20
-9.8715786517
 30
0.0
 10
-16.3943240997
 20
-9.7694795461
 30
0.0
 10
-16.4085446491
 20
-9.6947246872
 30
0.0
 10
-16.4130618209
 20
-9.6544178141
 30
0.0
  0
SPLINE
  5
72A
100
AcDbEntity
  8
RACCORDO
100
AcDbSpline
 62
7
  6
CONTINUOUS
 70
0
 71
3
 72
11
 73
7
 74
0
 42
0.0000001
 43
0.0000001
 44
0.0000000001
 40
0.0
 40
0.0
 40
0.0
 40
0.0
 40
0.2159064073
 40
0.4462375141
 40
0.7056197029
 40
1.0
 40
1.0
 40
1.0
 40
1.0
 10
69.9474135937
 20
19.2693114654
 30
0.0
 10
69.9464303985
 20
19.2139502869
 30
0.0
 10
69.9243362047
 20
19.0989856409
 30
0.0
 10
69.8293185258
 20
18.9406169631
 30
0.0
 10
69.6664419043
 20
18.8144272009
 30
0.0
 10
69.5229734412
 20
18.7793309442
 30
0.0
 10
69.4474897461
 20
18.7780363628
 30
0.0
  0
SPLINE
  5
72B
100
AcDbEntity
  8
RACCORDO
100
AcDbSpline
 62
250
  6
CONTINUOUS
 70
0
 71
3
 72
14
 73
10
 74
0
 42
0.0000001
 43
0.0000001
 44
0.0000000001
 40
0.0
 40
0.0
 40
0.0
 40
0.0
 40
0.0174780501
 40
0.0651160212
 40
0.1437242449
 40
0.2533552111
 40
0.393969139
 40
0.5654482696
 40
1.0
 40
1.0
 40
1.0
 40
1.0
 10
-66.7555775997
 20
14.7779628338
 30
0.0
 10
-66.7553520011
 20
14.7779636077
 30
0.0
 10
-66.7552221927
 20
14.7791662142
 30
0.0
 10
-66.7548848039
 20
14.7806507017
 30
0.0
 10
-66.7546477619
 20
14.7838805665
 30
0.0
 10
-66.7543370717
 20
14.7880285527
 30
0.0
 10
-66.7540483859
 20
14.793497654
 30
0.0
 10
-66.7536112391
 20
14.8031091226
 30
0.0
 10
-66.7533420486
 20
14.8109344231
 30
0.0
 10
-66.7531643619
 20
14.8165406329
 30
0.0
  0
SPLINE
  5
72C
100
AcDbEntity
  8
RACCORDO
100
AcDbSpline
 62
250
  6
CONTINUOUS
 70
0
 71
3
 72
10
 73
6
 74
0
 42
0.0000001
 43
0.0000001
 44
0.0000000001
 40
0.0
 40
0.0
 40
0.0
 40
0.0
 40
0.1444305632
 40
0.3705003819
 40
1.0
 40
1.0
 40
1.0
 40
1.0
 10
-66.7531643619
 20
14.8165406329
 30
0.0
 10
-66.7520504141
 20
14.8516868861
 30
0.0
 10
-66.7504766165
 20
14.9418821794
 30
0.0
 10
-66.7475298797
 20
15.1853274355
 30
0.0
 10
-66.746384283
 20
15.3936300278
 30
0.0
 10
-66.745765379
 20
15.546890403
 30
0.0
  0
SPLINE
  5
72D
100
AcDbEntity
  8
RACCORDO
100
AcDbSpline
 62
250
  6
CONTINUOUS
 70
0
 71
3
 72
20
 73
16
 74
0
 42
0.0000001
 43
0.0000001
 44
0.0000000001
 40
0.0
 40
0.0
 40
0.0
 40
0.0
 40
0.2062163737
 40
0.398306664
 40
0.5709216439
 40
0.7192464088
 40
0.7829780694
 40
0.8391532096
 40
0.8873710642
 40
0.9273092174
 40
0.9586852816
 40
0.9812972189
 40
0.9950034301
 40
0.9985328025
 40
1.0
 40
1.0
 40
1.0
 40
1.0
 10
-58.5345147454
 20
15.6644430034
 30
0.0
 10
-58.5343013829
 20
15.6379913876
 30
0.0
 10
-58.5338151393
 20
15.5869006616
 30
0.0
 10
-58.5328774852
 20
15.5136714252
 30
0.0
 10
-58.531777935
 20
15.447871055
 30
0.0
 10
-58.5307109999
 20
15.3985391119
 30
0.0
 10
-58.5297744424
 20
15.3641430367
 30
0.0
 10
-58.5290893953
 20
15.3425905619
 30
0.0
 10
-58.5283902885
 20
15.3240805756
 30
0.0
 10
-58.5276878778
 20
15.3087885244
 30
0.0
 10
-58.5269824949
 20
15.296694966
 30
0.0
 10
-58.526311933
 20
15.2881862563
 30
0.0
 10
-58.5256908755
 20
15.2828506704
 30
0.0
 10
-58.525203901
 20
15.2807563888
 30
0.0
 10
-58.5248907289
 20
15.279979852
 30
0.0
 10
-58.5247025247
 20
15.2799792188
 30
0.0
  0
SPLINE
  5
72E
100
AcDbEntity
  8
RACCORDO
100
AcDbSpline
 62
250
  6
CONTINUOUS
 70
0
 71
3
 72
20
 73
16
 74
0
 42
0.0000001
 43
0.0000001
 44
0.0000000001
 40
0.0
 40
0.0
 40
0.0
 40
0.0
 40
0.0014671974
 40
0.0049965698
 40
0.0187027812
 40
0.0413147185
 40
0.0726907825
 40
0.1126289358
 40
0.1608467904
 40
0.2170219306
 40
0.2807535912
 40
0.4290783561
 40
0.601693336
 40
0.7937836262
 40
1.0
 40
1.0
 40
1.0
 40
1.0
 10
-67.2555014473
 20
15.2799792188
 30
0.0
 10
-67.2553132431
 20
15.2799798519
 30
0.0
 10
-67.255000071
 20
15.2807563888
 30
0.0
 10
-67.2545130966
 20
15.2828506703
 30
0.0
 10
-67.2538920389
 20
15.2881862563
 30
0.0
 10
-67.2532214771
 20
15.296694966
 30
0.0
 10
-67.2525160942
 20
15.3087885244
 30
0.0
 10
-67.2518136835
 20
15.3240805756
 30
0.0
 10
-67.2511145767
 20
15.3425905619
 30
0.0
 10
-67.2504295296
 20
15.3641430367
 30
0.0
 10
-67.2494929721
 20
15.3985391119
 30
0.0
 10
-67.248426037
 20
15.447871055
 30
0.0
 10
-67.2473264869
 20
15.5136714252
 30
0.0
 10
-67.2463888327
 20
15.5869006616
 30
0.0
 10
-67.2459025891
 20
15.6379913876
 30
0.0
 10
-67.2456892266
 20
15.6644430034
 30
0.0
  0
SPLINE
  5
72F
100
AcDbEntity
  8
RACCORDO
100
AcDbSpline
 62
250
  6
CONTINUOUS
 70
0
 71
3
 72
20
 73
16
 74
0
 42
0.0000001
 43
0.0000001
 44
0.0000000001
 40
0.0
 40
0.0
 40
0.0
 40
0.0
 40
0.2062163737
 40
0.398306664
 40
0.5709216439
 40
0.7192464088
 40
0.7829780694
 40
0.8391532096
 40
0.8873710642
 40
0.9273092174
 40
0.9586852816
 40
0.9812972189
 40
0.9950034301
 40
0.9985328025
 40
1.0
 40
1.0
 40
1.0
 40
1.0
 10
67.4654852546
 20
15.6644430034
 30
0.0
 10
67.4656986171
 20
15.6379913876
 30
0.0
 10
67.4661848607
 20
15.5869006616
 30
0.0
 10
67.4671225148
 20
15.5136714252
 30
0.0
 10
67.468222065
 20
15.447871055
 30
0.0
 10
67.4692890001
 20
15.3985391119
 30
0.0
 10
67.4702255576
 20
15.3641430367
 30
0.0
 10
67.4709106047
 20
15.3425905619
 30
0.0
 10
67.4716097115
 20
15.3240805756
 30
0.0
 10
67.4723121222
 20
15.3087885244
 30
0.0
 10
67.4730175051
 20
15.296694966
 30
0.0
 10
67.473688067
 20
15.2881862563
 30
0.0
 10
67.4743091245
 20
15.2828506704
 30
0.0
 10
67.474796099
 20
15.2807563888
 30
0.0
 10
67.4751092711
 20
15.279979852
 30
0.0
 10
67.4752974753
 20
15.2799792188
 30
0.0
  0
SPLINE
  5
730
100
AcDbEntity
  8
RACCORDO
100
AcDbSpline
 62
250
  6
CONTINUOUS
 70
0
 71
3
 72
20
 73
16
 74
0
 42
0.0000001
 43
0.0000001
 44
0.0000000001
 40
0.0
 40
0.0
 40
0.0
 40
0.0
 40
0.0014671974
 40
0.0049965698
 40
0.0187027812
 40
0.0413147185
 40
0.0726907825
 40
0.1126289358
 40
0.1608467904
 40
0.2170219306
 40
0.2807535912
 40
0.4290783561
 40
0.601693336
 40
0.7937836262
 40
1.0
 40
1.0
 40
1.0
 40
1.0
 10
58.7444985527
 20
15.2799792188
 30
0.0
 10
58.7446867569
 20
15.2799798519
 30
0.0
 10
58.744999929
 20
15.2807563888
 30
0.0
 10
58.7454869034
 20
15.2828506703
 30
0.0
 10
58.7461079611
 20
15.2881862563
 30
0.0
 10
58.7467785229
 20
15.296694966
 30
0.0
 10
58.7474839058
 20
15.3087885244
 30
0.0
 10
58.7481863165
 20
15.3240805756
 30
0.0
 10
58.7488854233
 20
15.3425905619
 30
0.0
 10
58.7495704704
 20
15.3641430367
 30
0.0
 10
58.7505070279
 20
15.3985391119
 30
0.0
 10
58.751573963
 20
15.447871055
 30
0.0
 10
58.7526735131
 20
15.5136714252
 30
0.0
 10
58.7536111673
 20
15.5869006616
 30
0.0
 10
58.7540974109
 20
15.6379913876
 30
0.0
 10
58.7543107734
 20
15.6644430034
 30
0.0
  0
SPLINE
  5
731
100
AcDbEntity
  8
RACCORDO
100
AcDbSpline
 62
7
  6
CONTINUOUS
 70
0
 71
3
 72
11
 73
7
 74
0
 42
0.0000001
 43
0.0000001
 44
0.0000000001
 40
0.0
 40
0.0
 40
0.0
 40
0.0
 40
0.2285022798
 40
0.4655610363
 40
0.7196436051
 40
1.0
 40
1.0
 40
1.0
 40
1.0
 10
19.809898014
 20
-35.3347946163
 30
0.0
 10
19.7672324674
 20
-35.3355392327
 30
0.0
 10
19.6801100862
 20
-35.348293373
 30
0.0
 10
19.555174268
 20
-35.4017181905
 30
0.0
 10
19.4410938342
 20
-35.492589121
 30
0.0
 10
19.3832981088
 20
-35.5762775688
 30
0.0
 10
19.3605009908
 20
-35.623409333
 30
0.0
  0
SPLINE
  5
732
100
AcDbEntity
  8
RACCORDO
100
AcDbSpline
 62
7
  6
CONTINUOUS
 70
0
 71
3
 72
11
 73
7
 74
0
 42
0.0000001
 43
0.0000001
 44
0.0000000001
 40
0.0
 40
0.0
 40
0.0
 40
0.0
 40
0.2285022798
 40
0.4655610363
 40
0.7196436051
 40
1.0
 40
1.0
 40
1.0
 40
1.0
 10
11.809898014
 20
-35.3347946163
 30
0.0
 10
11.8525635606
 20
-35.3355392327
 30
0.0
 10
11.9396859418
 20
-35.348293373
 30
0.0
 10
12.06462176
 20
-35.4017181905
 30
0.0
 10
12.1787021938
 20
-35.492589121
 30
0.0
 10
12.2364979192
 20
-35.5762775688
 30
0.0
 10
12.2592950371
 20
-35.623409333
 30
0.0
  0
LINE
  5
733
100
AcDbEntity
  8
RACCORDO
100
AcDbLine
 62
7
  6
CONTINUOUS
 10
7.7949861863
 20
-35.3640816384
 11
7.2950432996
 21
-35.864005486
  0
LINE
  5
734
100
AcDbEntity
  8
RACCORDO
100
AcDbLine
 62
7
  6
CONTINUOUS
 10
7.7950242611
 20
-26.0800688492
 11
7.2950432996
 21
-25.5800688463
  0
LINE
  5
735
100
AcDbEntity
  8
RACCORDO
100
AcDbLine
 62
7
  6
CONTINUOUS
 10
23.8248098417
 20
-26.0799926939
 11
24.3247527284
 21
-25.5800688463
  0
LINE
  5
736
100
AcDbEntity
  8
RACCORDO
100
AcDbLine
 62
7
  6
CONTINUOUS
 10
23.8247717669
 20
-35.3640054831
 11
24.3247527284
 21
-35.864005486
  0
SPLINE
  5
737
100
AcDbEntity
  8
RACCORDO
100
AcDbSpline
 62
250
  6
CONTINUOUS
 70
0
 71
3
 72
15
 73
11
 74
0
 42
0.0000001
 43
0.0000001
 44
0.0000000001
 40
0.0
 40
0.0
 40
0.0
 40
0.0
 40
0.0469466225
 40
0.0781926403
 40
0.1159227481
 40
0.2116985335
 40
0.3337237242
 40
0.4787146324
 40
0.6419116645
 40
1.0
 40
1.0
 40
1.0
 40
1.0
 10
58.7543107734
 20
15.6644430034
 30
0.0
 10
58.7548688761
 20
15.6561666866
 30
0.0
 10
58.7626920148
 20
15.6431909401
 30
0.0
 10
58.778292477
 20
15.6301175472
 30
0.0
 10
58.8032252073
 20
15.6147832457
 30
0.0
 10
58.8453194327
 20
15.5979238298
 30
0.0
 10
58.9071962114
 20
15.580918227
 30
0.0
 10
58.9819556687
 20
15.5667673738
 30
0.0
 10
59.0987853378
 20
15.5519320079
 30
0.0
 10
59.1909649662
 20
15.547373533
 30
0.0
 10
59.254234621
 20
15.546890403
 30
0.0
  0
SPLINE
  5
738
100
AcDbEntity
  8
RACCORDO
100
AcDbSpline
 62
7
  6
CONTINUOUS
 70
0
 71
3
 72
18
 73
14
 74
0
 42
0.0000001
 43
0.0000001
 44
0.0000000001
 40
0.0
 40
0.0
 40
0.0
 40
0.0
 40
0.1809466735
 40
0.3548817628
 40
0.5167783841
 40
0.663817724
 40
0.7925045267
 40
0.8482941351
 40
0.8971271725
 40
0.9379299816
 40
0.969477081
 40
0.9905141024
 40
1.0
 40
1.0
 40
1.0
 40
1.0
 10
67.279580205
 20
19.374041855
 30
0.0
 10
67.2720353525
 20
19.3419730131
 30
0.0
 10
67.2621779163
 20
19.2775984076
 30
0.0
 10
67.2698421412
 20
19.1829119782
 30
0.0
 10
67.296374435
 20
19.0985246928
 30
0.0
 10
67.3317481698
 20
19.0269204752
 30
0.0
 10
67.3637728822
 20
18.9756781811
 30
0.0
 10
67.3881140987
 20
18.9408623679
 30
0.0
 10
67.4039027632
 20
18.9196001196
 30
0.0
 10
67.4173752527
 20
18.902138475
 30
0.0
 10
67.4281451608
 20
18.8889449165
 30
0.0
 10
67.4350172708
 20
18.8800417658
 30
0.0
 10
67.4388151266
 20
18.8758731721
 30
0.0
 10
67.4395918341
 20
18.8743306111
 30
0.0
  0
SPLINE
  5
739
100
AcDbEntity
  8
RACCORDO
100
AcDbSpline
 62
250
  6
CONTINUOUS
 70
0
 71
3
 72
15
 73
11
 74
0
 42
0.0000001
 43
0.0000001
 44
0.0000000001
 40
0.0
 40
0.0
 40
0.0
 40
0.0
 40
0.0469466131
 40
0.0781926269
 40
0.1159227303
 40
0.2116985104
 40
0.3337236979
 40
0.4787146065
 40
0.6419116435
 40
1.0
 40
1.0
 40
1.0
 40
1.0
 10
67.4654852546
 20
15.6644430034
 30
0.0
 10
67.4649271519
 20
15.6561666883
 30
0.0
 10
67.4571040141
 20
15.6431909443
 30
0.0
 10
67.4415035529
 20
15.6301175553
 30
0.0
 10
67.4165708247
 20
15.614783256
 30
0.0
 10
67.3744766014
 20
15.5979238421
 30
0.0
 10
67.3125998251
 20
15.5809182392
 30
0.0
 10
67.2378403685
 20
15.5667673846
 30
0.0
 10
67.1210106965
 20
15.5519320149
 30
0.0
 10
67.0288310648
 20
15.547373536
 30
0.0
 10
66.965561407
 20
15.5468904029
 30
0.0
  0
SPLINE
  5
73A
100
AcDbEntity
  8
RACCORDO
100
AcDbSpline
 62
7
  6
CONTINUOUS
 70
0
 71
3
 72
18
 73
14
 74
0
 42
0.0000001
 43
0.0000001
 44
0.0000000001
 40
0.0
 40
0.0
 40
0.0
 40
0.0
 40
0.1809466735
 40
0.3548817628
 40
0.5167783841
 40
0.663817724
 40
0.7925045267
 40
0.8482941351
 40
0.8971271725
 40
0.9379299816
 40
0.969477081
 40
0.9905141024
 40
1.0
 40
1.0
 40
1.0
 40
1.0
 10
-58.720419795
 20
19.374041855
 30
0.0
 10
-58.7279646475
 20
19.3419730131
 30
0.0
 10
-58.7378220837
 20
19.2775984076
 30
0.0
 10
-58.7301578588
 20
19.1829119782
 30
0.0
 10
-58.703625565
 20
19.0985246928
 30
0.0
 10
-58.6682518302
 20
19.0269204752
 30
0.0
 10
-58.6362271178
 20
18.9756781811
 30
0.0
 10
-58.6118859013
 20
18.9408623679
 30
0.0
 10
-58.5960972368
 20
18.9196001196
 30
0.0
 10
-58.5826247473
 20
18.902138475
 30
0.0
 10
-58.5718548392
 20
18.8889449165
 30
0.0
 10
-58.5649827292
 20
18.8800417658
 30
0.0
 10
-58.5611848734
 20
18.8758731721
 30
0.0
 10
-58.5604081659
 20
18.8743306111
 30
0.0
  0
SPLINE
  5
73B
100
AcDbEntity
  8
RACCORDO
100
AcDbSpline
 62
250
  6
CONTINUOUS
 70
0
 71
3
 72
15
 73
11
 74
0
 42
0.0000001
 43
0.0000001
 44
0.0000000001
 40
0.0
 40
0.0
 40
0.0
 40
0.0
 40
0.0469466131
 40
0.0781926269
 40
0.1159227303
 40
0.2116985104
 40
0.3337236979
 40
0.4787146065
 40
0.6419116435
 40
1.0
 40
1.0
 40
1.0
 40
1.0
 10
-58.5345147454
 20
15.6644430034
 30
0.0
 10
-58.5350728481
 20
15.6561666883
 30
0.0
 10
-58.5428959859
 20
15.6431909443
 30
0.0
 10
-58.5584964471
 20
15.6301175553
 30
0.0
 10
-58.5834291753
 20
15.614783256
 30
0.0
 10
-58.6255233986
 20
15.5979238421
 30
0.0
 10
-58.6874001749
 20
15.5809182392
 30
0.0
 10
-58.7621596315
 20
15.5667673846
 30
0.0
 10
-58.8789893035
 20
15.5519320149
 30
0.0
 10
-58.9711689352
 20
15.547373536
 30
0.0
 10
-59.034438593
 20
15.5468904029
 30
0.0
  0
SPLINE
  5
73C
100
AcDbEntity
  8
RACCORDO
100
AcDbSpline
 62
250
  6
CONTINUOUS
 70
0
 71
3
 72
15
 73
11
 74
0
 42
0.0000001
 43
0.0000001
 44
0.0000000001
 40
0.0
 40
0.0
 40
0.0
 40
0.0
 40
0.0469466225
 40
0.0781926403
 40
0.1159227481
 40
0.2116985335
 40
0.3337237242
 40
0.4787146324
 40
0.6419116645
 40
1.0
 40
1.0
 40
1.0
 40
1.0
 10
-67.2456892266
 20
15.6644430034
 30
0.0
 10
-67.2451311239
 20
15.6561666866
 30
0.0
 10
-67.2373079852
 20
15.6431909401
 30
0.0
 10
-67.221707523
 20
15.6301175472
 30
0.0
 10
-67.1967747927
 20
15.6147832457
 30
0.0
 10
-67.1546805673
 20
15.5979238298
 30
0.0
 10
-67.0928037886
 20
15.580918227
 30
0.0
 10
-67.0180443313
 20
15.5667673738
 30
0.0
 10
-66.9012146622
 20
15.5519320079
 30
0.0
 10
-66.8090350338
 20
15.547373533
 30
0.0
 10
-66.745765379
 20
15.546890403
 30
0.0
  0
SPLINE
  5
73D
100
AcDbEntity
  8
RACCORDO
100
AcDbSpline
 62
250
  6
CONTINUOUS
 70
0
 71
3
 72
14
 73
10
 74
0
 42
0.0000001
 43
0.0000001
 44
0.0000000001
 40
0.0
 40
0.0
 40
0.0
 40
0.0
 40
0.0174780501
 40
0.0651160212
 40
0.1437242449
 40
0.2533552111
 40
0.393969139
 40
0.5654482696
 40
1.0
 40
1.0
 40
1.0
 40
1.0
 10
59.2444224003
 20
14.7779628338
 30
0.0
 10
59.2446479989
 20
14.7779636077
 30
0.0
 10
59.2447778073
 20
14.7791662142
 30
0.0
 10
59.2451151961
 20
14.7806507017
 30
0.0
 10
59.2453522381
 20
14.7838805665
 30
0.0
 10
59.2456629283
 20
14.7880285527
 30
0.0
 10
59.2459516141
 20
14.793497654
 30
0.0
 10
59.2463887609
 20
14.8031091226
 30
0.0
 10
59.2466579514
 20
14.8109344231
 30
0.0
 10
59.2468356381
 20
14.8165406329
 30
0.0
  0
SPLINE
  5
73E
100
AcDbEntity
  8
RACCORDO
100
AcDbSpline
 62
250
  6
CONTINUOUS
 70
0
 71
3
 72
10
 73
6
 74
0
 42
0.0000001
 43
0.0000001
 44
0.0000000001
 40
0.0
 40
0.0
 40
0.0
 40
0.0
 40
0.1444305632
 40
0.3705003819
 40
1.0
 40
1.0
 40
1.0
 40
1.0
 10
59.2468356381
 20
14.8165406329
 30
0.0
 10
59.2479495859
 20
14.8516868861
 30
0.0
 10
59.2495233835
 20
14.9418821794
 30
0.0
 10
59.2524701203
 20
15.1853274355
 30
0.0
 10
59.253615717
 20
15.3936300278
 30
0.0
 10
59.254234621
 20
15.546890403
 30
0.0
  0
SPLINE
  5
73F
100
AcDbEntity
  8
RACCORDO
100
AcDbSpline
 62
250
  6
CONTINUOUS
 70
0
 71
3
 72
23
 73
19
 74
0
 42
0.0000001
 43
0.0000001
 44
0.0000000001
 40
0.0
 40
0.0
 40
0.0
 40
0.0
 40
0.2063434261
 40
0.398552066
 40
0.5712657855
 40
0.6487807753
 40
0.7196685601
 40
0.7834282808
 40
0.8396233195
 40
0.8878519901
 40
0.9277878494
 40
0.9591434547
 40
0.9715376758
 40
0.9817118987
 40
0.9896461966
 40
0.9953327265
 40
0.9987710091
 40
1.0
 40
1.0
 40
1.0
 40
1.0
 10
66.965561407
 20
15.546890403
 30
0.0
 10
66.9657750316
 20
15.4939901225
 30
0.0
 10
66.9662607271
 20
15.3918135707
 30
0.0
 10
66.9671988613
 20
15.2453598536
 30
0.0
 10
66.9681450707
 20
15.131935087
 30
0.0
 10
66.9689930023
 20
15.0496140639
 30
0.0
 10
66.9696350617
 20
14.9952253554
 30
0.0
 10
66.9703013922
 20
14.9463028686
 30
0.0
 10
66.9709870631
 20
14.9031915692
 30
0.0
 10
66.97168448
 20
14.8661857852
 30
0.0
 10
66.9723920799
 20
14.8355592352
 30
0.0
 10
66.9730089748
 20
14.8140969705
 30
0.0
 10
66.9735376384
 20
14.800307115
 30
0.0
 10
66.9738757827
 20
14.7924421388
 30
0.0
 10
66.9742721902
 20
14.7864887201
 30
0.0
 10
66.9745054057
 20
14.7818160737
 30
0.0
 10
66.9750016776
 20
14.7797334534
 30
0.0
 10
66.9750585505
 20
14.7779639147
 30
0.0
 10
66.9753736277
 20
14.7779628338
 30
0.0
  0
SPLINE
  5
740
100
AcDbEntity
  8
RACCORDO
100
AcDbSpline
 62
250
  6
CONTINUOUS
 70
0
 71
3
 72
23
 73
19
 74
0
 42
0.0000001
 43
0.0000001
 44
0.0000000001
 40
0.0
 40
0.0
 40
0.0
 40
0.0
 40
0.2063434261
 40
0.398552066
 40
0.5712657855
 40
0.6487807753
 40
0.7196685601
 40
0.7834282808
 40
0.8396233195
 40
0.8878519901
 40
0.9277878494
 40
0.9591434547
 40
0.9715376758
 40
0.9817118987
 40
0.9896461966
 40
0.9953327265
 40
0.9987710091
 40
1.0
 40
1.0
 40
1.0
 40
1.0
 10
-59.034438593
 20
15.546890403
 30
0.0
 10
-59.0342249684
 20
15.4939901225
 30
0.0
 10
-59.0337392729
 20
15.3918135707
 30
0.0
 10
-59.0328011387
 20
15.2453598536
 30
0.0
 10
-59.0318549293
 20
15.131935087
 30
0.0
 10
-59.0310069977
 20
15.0496140639
 30
0.0
 10
-59.0303649383
 20
14.9952253554
 30
0.0
 10
-59.0296986078
 20
14.9463028686
 30
0.0
 10
-59.0290129369
 20
14.9031915692
 30
0.0
 10
-59.02831552
 20
14.8661857852
 30
0.0
 10
-59.0276079201
 20
14.8355592352
 30
0.0
 10
-59.0269910252
 20
14.8140969705
 30
0.0
 10
-59.0264623616
 20
14.800307115
 30
0.0
 10
-59.0261242173
 20
14.7924421388
 30
0.0
 10
-59.0257278098
 20
14.7864887201
 30
0.0
 10
-59.0254945943
 20
14.7818160737
 30
0.0
 10
-59.0249983224
 20
14.7797334534
 30
0.0
 10
-59.0249414495
 20
14.7779639147
 30
0.0
 10
-59.0246263723
 20
14.7779628338
 30
0.0
  0
SPLINE
  5
741
100
AcDbEntity
  8
RACCORDO
100
AcDbSpline
 62
7
  6
CONTINUOUS
 70
0
 71
3
 72
18
 73
14
 74
0
 42
0.0000001
 43
0.0000001
 44
0.0000000001
 40
0.0
 40
0.0
 40
0.0
 40
0.0
 40
0.0094858976
 40
0.030522919
 40
0.0620700184
 40
0.1028728275
 40
0.1517058649
 40
0.2074954733
 40
0.336182276
 40
0.4832216159
 40
0.6451182372
 40
0.8190533265
 40
1.0
 40
1.0
 40
1.0
 40
1.0
 10
-67.2197958061
 20
18.8743306111
 30
0.0
 10
-67.2190190987
 20
18.8758731721
 30
0.0
 10
-67.2152212428
 20
18.8800417658
 30
0.0
 10
-67.2083491328
 20
18.8889449165
 30
0.0
 10
-67.1975792247
 20
18.902138475
 30
0.0
 10
-67.1841067353
 20
18.9196001196
 30
0.0
 10
-67.1683180707
 20
18.9408623679
 30
0.0
 10
-67.1439768542
 20
18.9756781811
 30
0.0
 10
-67.1119521418
 20
19.0269204752
 30
0.0
 10
-67.076578407
 20
19.0985246928
 30
0.0
 10
-67.0500461132
 20
19.1829119782
 30
0.0
 10
-67.0423818883
 20
19.2775984076
 30
0.0
 10
-67.0522393245
 20
19.3419730131
 30
0.0
 10
-67.059784177
 20
19.374041855
 30
0.0
  0
SPLINE
  5
742
100
AcDbEntity
  8
RACCORDO
100
AcDbSpline
 62
7
  6
CONTINUOUS
 70
0
 71
3
 72
18
 73
14
 74
0
 42
0.0000001
 43
0.0000001
 44
0.0000000001
 40
0.0
 40
0.0
 40
0.0
 40
0.0
 40
0.0094858976
 40
0.030522919
 40
0.0620700184
 40
0.1028728275
 40
0.1517058649
 40
0.2074954733
 40
0.336182276
 40
0.4832216159
 40
0.6451182372
 40
0.8190533265
 40
1.0
 40
1.0
 40
1.0
 40
1.0
 10
58.7802041939
 20
18.8743306111
 30
0.0
 10
58.7809809013
 20
18.8758731721
 30
0.0
 10
58.7847787572
 20
18.8800417658
 30
0.0
 10
58.7916508672
 20
18.8889449165
 30
0.0
 10
58.8024207753
 20
18.902138475
 30
0.0
 10
58.8158932647
 20
18.9196001196
 30
0.0
 10
58.8316819293
 20
18.9408623679
 30
0.0
 10
58.8560231458
 20
18.9756781811
 30
0.0
 10
58.8880478582
 20
19.0269204752
 30
0.0
 10
58.923421593
 20
19.0985246928
 30
0.0
 10
58.9499538868
 20
19.1829119782
 30
0.0
 10
58.9576181117
 20
19.2775984076
 30
0.0
 10
58.9477606755
 20
19.3419730131
 30
0.0
 10
58.940215823
 20
19.374041855
 30
0.0
  0
SPLINE
  5
743
100
AcDbEntity
  8
RACCORDO
100
AcDbSpline
 62
7
  6
CONTINUOUS
 70
0
 71
3
 72
11
 73
7
 74
0
 42
0.0000001
 43
0.0000001
 44
0.0000000001
 40
0.0
 40
0.0
 40
0.0
 40
0.0
 40
0.2159064073
 40
0.4462375141
 40
0.7056197029
 40
1.0
 40
1.0
 40
1.0
 40
1.0
 10
-69.7276175657
 20
19.2693114654
 30
0.0
 10
-69.7266343705
 20
19.2139502869
 30
0.0
 10
-69.7045401767
 20
19.0989856409
 30
0.0
 10
-69.6095224978
 20
18.9406169631
 30
0.0
 10
-69.4466458764
 20
18.8144272009
 30
0.0
 10
-69.3031774132
 20
18.7793309442
 30
0.0
 10
-69.2276937182
 20
18.7780363628
 30
0.0
  0
SPLINE
  5
744
100
AcDbEntity
  8
RACCORDO
100
AcDbSpline
 62
7
  6
CONTINUOUS
 70
0
 71
3
 72
11
 73
7
 74
0
 42
0.0000001
 43
0.0000001
 44
0.0000000001
 40
0.0
 40
0.0
 40
0.0
 40
0.0
 40
0.2159064073
 40
0.4462375141
 40
0.7056197029
 40
1.0
 40
1.0
 40
1.0
 40
1.0
 10
-69.7276175657
 20
-17.7133857977
 30
0.0
 10
-69.7266343705
 20
-17.6580246192
 30
0.0
 10
-69.7045401767
 20
-17.5430599732
 30
0.0
 10
-69.6095224978
 20
-17.3846912955
 30
0.0
 10
-69.4466458764
 20
-17.2585015332
 30
0.0
 10
-69.3031774132
 20
-17.2234052765
 30
0.0
 10
-69.2276937182
 20
-17.2221106951
 30
0.0
  0
SPLINE
  5
745
100
AcDbEntity
  8
RACCORDO
100
AcDbSpline
 62
7
  6
CONTINUOUS
 70
0
 71
3
 72
11
 73
7
 74
0
 42
0.0000001
 43
0.0000001
 44
0.0000000001
 40
0.0
 40
0.0
 40
0.0
 40
0.0
 40
0.2159064073
 40
0.4462375141
 40
0.7056197029
 40
1.0
 40
1.0
 40
1.0
 40
1.0
 10
10.0685493824
 20
-43.9548223563
 30
0.0
 10
10.1239105609
 20
-43.9538391611
 30
0.0
 10
10.2388752069
 20
-43.9317449673
 30
0.0
 10
10.3972438847
 20
-43.8367272884
 30
0.0
 10
10.523433647
 20
-43.673850667
 30
0.0
 10
10.5585299036
 20
-43.5303822038
 30
0.0
 10
10.5598244851
 20
-43.4548985087
 30
0.0
  0
SPLINE
  5
746
100
AcDbEntity
  8
RACCORDO
100
AcDbSpline
 62
7
  6
CONTINUOUS
 70
0
 71
3
 72
11
 73
7
 74
0
 42
0.0000001
 43
0.0000001
 44
0.0000000001
 40
0.0
 40
0.0
 40
0.0
 40
0.0
 40
0.2159064073
 40
0.4462375141
 40
0.7056197029
 40
1.0
 40
1.0
 40
1.0
 40
1.0
 10
10.2256449668
 20
-44.1119179407
 30
0.0
 10
10.2810061453
 20
-44.1109347455
 30
0.0
 10
10.3959707913
 20
-44.0888405516
 30
0.0
 10
10.554339469
 20
-43.9938228727
 30
0.0
 10
10.6805292313
 20
-43.8309462513
 30
0.0
 10
10.715625488
 20
-43.6874777882
 30
0.0
 10
10.7169200694
 20
-43.6119940931
 30
0.0
  0
SPLINE
  5
747
100
AcDbEntity
  8
RACCORDO
100
AcDbSpline
 62
7
  6
CONTINUOUS
 70
0
 71
3
 72
11
 73
7
 74
0
 42
0.0000001
 43
0.0000001
 44
0.0000000001
 40
0.0
 40
0.0
 40
0.0
 40
0.0
 40
0.2159064073
 40
0.4462375141
 40
0.7056197029
 40
1.0
 40
1.0
 40
1.0
 40
1.0
 10
21.3941510612
 20
-44.1119179407
 30
0.0
 10
21.3387898827
 20
-44.1109347455
 30
0.0
 10
21.2238252367
 20
-44.0888405516
 30
0.0
 10
21.0654565589
 20
-43.9938228727
 30
0.0
 10
20.9392667967
 20
-43.8309462513
 30
0.0
 10
20.90417054
 20
-43.6874777882
 30
0.0
 10
20.9028759586
 20
-43.6119940931
 30
0.0
  0
SPLINE
  5
748
100
AcDbEntity
  8
RACCORDO
100
AcDbSpline
 62
7
  6
CONTINUOUS
 70
0
 71
3
 72
11
 73
7
 74
0
 42
0.0000001
 43
0.0000001
 44
0.0000000001
 40
0.0
 40
0.0
 40
0.0
 40
0.0
 40
0.2159064073
 40
0.4462375141
 40
0.7056197029
 40
1.0
 40
1.0
 40
1.0
 40
1.0
 10
21.5512466455
 20
-43.9548223563
 30
0.0
 10
21.495885467
 20
-43.9538391611
 30
0.0
 10
21.3809208211
 20
-43.9317449673
 30
0.0
 10
21.2225521433
 20
-43.8367272884
 30
0.0
 10
21.096362381
 20
-43.673850667
 30
0.0
 10
21.0612661243
 20
-43.5303822038
 30
0.0
 10
21.0599715429
 20
-43.4548985087
 30
0.0
  0
SPLINE
  5
749
100
AcDbEntity
  8
RACCORDO
100
AcDbSpline
 62
7
  6
CONTINUOUS
 70
0
 71
3
 72
11
 73
7
 74
0
 42
0.0000001
 43
0.0000001
 44
0.0000000001
 40
0.0
 40
0.0
 40
0.0
 40
0.0
 40
0.2159064073
 40
0.4462375141
 40
0.7056197029
 40
1.0
 40
1.0
 40
1.0
 40
1.0
 10
69.9474135937
 20
-17.7133857977
 30
0.0
 10
69.9464303985
 20
-17.6580246192
 30
0.0
 10
69.9243362047
 20
-17.5430599732
 30
0.0
 10
69.8293185258
 20
-17.3846912955
 30
0.0
 10
69.6664419043
 20
-17.2585015332
 30
0.0
 10
69.5229734412
 20
-17.2234052765
 30
0.0
 10
69.4474897461
 20
-17.2221106951
 30
0.0
  0
ELLIPSE
  5
74A
100
AcDbEntity
  8
RACCORDO
100
AcDbEllipse
 62
7
  6
CONTINUOUS
 10
11.0099284796
 20
-45.5220067006
 30
0.0
 11
0.1414644378
 21
0.1414644378
 31
0.0
 40
0.9996954599
 41
2.3563467834
 42
3.9268385237
  0
ELLIPSE
  5
74B
100
AcDbEntity
  8
RACCORDO
100
AcDbEllipse
 62
7
  6
CONTINUOUS
 10
20.6098675484
 20
-45.5220067006
 30
0.0
 11
0.1414644378
 21
-0.1414644378
 31
0.0
 40
0.9996954599
 41
-0.7852458701
 42
0.7852458701
  0
ELLIPSE
  5
74C
100
AcDbEntity
  8
RACCORDO
100
AcDbEllipse
 62
7
  6
CONTINUOUS
 10
23.6045849578
 20
-13.7274263864
 30
0.0
 11
-0.0
 21
0.5
 31
0.0
 40
0.0174550649
 41
0.0174532925
 42
1.0960667703
  0
ELLIPSE
  5
74D
100
AcDbEntity
  8
RACCORDO
100
AcDbEllipse
 62
7
  6
CONTINUOUS
 10
8.0152110702
 20
-13.7274263864
 30
0.0
 11
0.0
 21
0.5
 31
0.0
 40
0.0174550649
 41
-1.0960667703
 42
-0.0174532925
  0
ELLIPSE
  5
74E
100
AcDbEntity
  8
RACCORDO
100
AcDbEllipse
 62
7
  6
CONTINUOUS
 10
69.6098789748
 20
-43.722018127
 30
0.0
 11
-0.3535803156
 21
0.3535803156
 31
0.0
 40
0.9999238505
 41
2.3562325664
 42
3.9269527408
  0
ELLIPSE
  5
74F
100
AcDbEntity
  8
RACCORDO
100
AcDbEllipse
 62
7
  6
CONTINUOUS
 10
-69.3900829468
 20
-43.722018127
 30
0.0
 11
-0.3535803156
 21
-0.3535803156
 31
0.0
 40
0.9999238505
 41
-0.7853600872
 42
0.7853600872
  0
ELLIPSE
  5
750
100
AcDbEntity
  8
RACCORDO
100
AcDbEllipse
 62
7
  6
CONTINUOUS
 10
-69.3900829468
 20
45.2779437946
 30
0.0
 11
0.3535803156
 21
-0.3535803156
 31
0.0
 40
0.9999238505
 41
2.3562325664
 42
3.9269527408
  0
ELLIPSE
  5
751
100
AcDbEntity
  8
RACCORDO
100
AcDbEllipse
 62
7
  6
CONTINUOUS
 10
34.1715273368
 20
-36.1336664889
 30
0.0
 11
-0.1414644378
 21
0.1414644378
 31
0.0
 40
0.9996954599
 41
-0.7852458701
 42
0.7852458701
  0
ELLIPSE
  5
752
100
AcDbEntity
  8
RACCORDO
100
AcDbEllipse
 62
7
  6
CONTINUOUS
 10
34.1715273368
 20
37.6895921566
 30
0.0
 11
-0.1414644378
 21
-0.1414644378
 31
0.0
 40
0.9996954599
 41
-0.7852458701
 42
0.7852458701
  0
ELLIPSE
  5
753
100
AcDbEntity
  8
RACCORDO
100
AcDbEllipse
 62
7
  6
CONTINUOUS
 10
-66.790025822
 20
15.2779628338
 30
0.0
 11
-0.3609171409
 21
0.3475427561
 31
0.0
 40
0.9959724651
 41
0.7645060574
 42
2.3393351651
  0
ELLIPSE
  5
754
100
AcDbEntity
  8
RACCORDO
100
AcDbEllipse
 62
7
  6
CONTINUOUS
 10
69.60982185
 20
-43.7219610021
 30
0.0
 11
0.3536610946
 21
-0.3536610946
 31
0.0
 40
0.9996954599
 41
-0.7852458701
 42
0.7852458701
  0
ELLIPSE
  5
755
100
AcDbEntity
  8
RACCORDO
100
AcDbEllipse
 62
7
  6
CONTINUOUS
 10
69.60982185
 20
45.2778866698
 30
0.0
 11
0.3536610946
 21
0.3536610946
 31
0.0
 40
0.9996954599
 41
-0.7852458701
 42
0.7852458701
  0
ELLIPSE
  5
756
100
AcDbEntity
  8
RACCORDO
100
AcDbEllipse
 62
7
  6
CONTINUOUS
 10
-69.390025822
 20
45.2778866698
 30
0.0
 11
-0.3536610946
 21
0.3536610946
 31
0.0
 40
0.9996954599
 41
-0.7852458701
 42
0.7852458701
  0
ELLIPSE
  5
757
100
AcDbEntity
  8
RACCORDO
100
AcDbEllipse
 62
7
  6
CONTINUOUS
 10
-69.390025822
 20
-43.7219610021
 30
0.0
 11
0.3536610946
 21
0.3536610946
 31
0.0
 40
0.9996954599
 41
-3.9268385237
 42
-2.3563467834
  0
ELLIPSE
  5
758
100
AcDbEntity
  8
RACCORDO
100
AcDbEllipse
 62
7
  6
CONTINUOUS
 10
8.3160258606
 20
-21.0219610021
 30
0.0
 11
-0.2236357461
 21
-0.4473055582
 31
0.0
 40
0.9998096356
 41
5.1760822795
 42
6.7467263073
  0
ELLIPSE
  5
759
100
AcDbEntity
  8
RACCORDO
100
AcDbEllipse
 62
7
  6
CONTINUOUS
 10
23.3037701673
 20
-21.0219610021
 30
0.0
 11
-0.2236357461
 21
0.4473055582
 31
0.0
 40
0.9998096356
 41
8.9612369607
 42
10.5318809884
  0
ELLIPSE
  5
75A
100
AcDbEntity
  8
RACCORDO
100
AcDbEllipse
 62
7
  6
CONTINUOUS
 10
67.00982185
 20
15.2779628338
 30
0.0
 11
0.3609171409
 21
0.3475427561
 31
0.0
 40
0.9959724651
 41
-2.3393351651
 42
-0.7645060574
  0
ELLIPSE
  5
75B
100
AcDbEntity
  8
RACCORDO
100
AcDbEllipse
 62
7
  6
CONTINUOUS
 10
59.209974178
 20
15.2779628338
 30
0.0
 11
-0.3609171409
 21
0.3475427561
 31
0.0
 40
0.9959724651
 41
0.7645060574
 42
2.3393351651
  0
ELLIPSE
  5
75C
100
AcDbEntity
  8
RACCORDO
100
AcDbEllipse
 62
7
  6
CONTINUOUS
 10
-58.99017815
 20
15.2779628338
 30
0.0
 11
0.3609171409
 21
0.3475427561
 31
0.0
 40
0.9959724651
 41
-2.3393351651
 42
-0.7645060574
  0
ELLIPSE
  5
75D
100
AcDbEntity
  8
RACCORDO
100
AcDbEllipse
 62
7
  6
CONTINUOUS
 10
12.0869959202
 20
-26.2264009324
 30
0.0
 11
0.25
 21
0.0
 31
0.0
 40
0.0174550649
 41
0.5033388086
 42
1.5707963268
  0
ELLIPSE
  5
75E
100
AcDbEntity
  8
RACCORDO
100
AcDbEllipse
 62
7
  6
CONTINUOUS
 10
15.809898014
 20
-26.1906180493
 30
0.0
 11
4.0
 21
-0.0
 31
0.0
 40
0.0174550649
 41
-2.6382538449
 42
-2.3291040079
  0
ELLIPSE
  5
75F
100
AcDbEntity
  8
RACCORDO
100
AcDbEllipse
 62
7
  6
CONTINUOUS
 10
-69.2189661857
 20
-17.7221133302
 30
0.0
 11
-0.3536610946
 21
0.3536610946
 31
0.0
 40
0.9996954599
 41
-0.7852458701
 42
-0.7680971641
  0
ELLIPSE
  5
760
100
AcDbEntity
  8
RACCORDO
100
AcDbEllipse
 62
7
  6
CONTINUOUS
 10
-69.2189661857
 20
19.2780389979
 30
0.0
 11
0.3536610946
 21
0.3536610946
 31
0.0
 40
0.9996954599
 41
-2.3734954895
 42
-2.3563467834
  0
ELLIPSE
  5
761
100
AcDbEntity
  8
RACCORDO
100
AcDbEllipse
 62
7
  6
CONTINUOUS
 10
69.4387622137
 20
19.2780389979
 30
0.0
 11
0.3536610946
 21
-0.3536610946
 31
0.0
 40
0.9996954599
 41
-0.7852458701
 42
-0.7680971641
  0
ELLIPSE
  5
762
100
AcDbEntity
  8
RACCORDO
100
AcDbEllipse
 62
7
  6
CONTINUOUS
 10
69.4387622137
 20
-17.7221133302
 30
0.0
 11
0.3536610946
 21
0.3536610946
 31
0.0
 40
0.9996954599
 41
0.7680971641
 42
0.7852458701
  0
ELLIPSE
  5
763
100
AcDbEntity
  8
RACCORDO
100
AcDbEllipse
 62
7
  6
CONTINUOUS
 10
10.05982185
 20
-43.4461709763
 30
0.0
 11
-0.3536610946
 21
0.3536610946
 31
0.0
 40
0.9996954599
 41
-2.3734954895
 42
-2.3563467834
  0
ELLIPSE
  5
764
100
AcDbEntity
  8
RACCORDO
100
AcDbEllipse
 62
7
  6
CONTINUOUS
 10
21.056407001
 20
-41.5684021292
 30
0.0
 11
-0.0
 21
0.2
 31
0.0
 40
0.0174550649
 41
-3.1241393611
 42
-1.5707963268
  0
ELLIPSE
  5
765
100
AcDbEntity
  8
RACCORDO
100
AcDbEllipse
 62
7
  6
CONTINUOUS
 10
10.563389027
 20
-41.5684021292
 30
0.0
 11
0.0
 21
0.2
 31
0.0
 40
0.0174550649
 41
-4.7123889804
 42
-3.1590459461
  0
ELLIPSE
  5
766
100
AcDbEntity
  8
RACCORDO
100
AcDbEllipse
 62
7
  6
CONTINUOUS
 10
19.809898014
 20
-38.2497837059
 30
0.0
 11
-0.0
 21
1.0722534603
 31
0.0
 40
0.4663076582
 41
1.5707963268
 42
3.1415926536
  0
ELLIPSE
  5
767
100
AcDbEntity
  8
RACCORDO
100
AcDbEllipse
 62
7
  6
CONTINUOUS
 10
11.809898014
 20
-35.8444272545
 30
0.0
 11
0.0
 21
0.5041799013
 31
0.0
 40
0.9917095044
 41
-1.5707963268
 42
-1.1170107213
  0
ELLIPSE
  5
768
100
AcDbEntity
  8
RACCORDO
100
AcDbEllipse
 62
7
  6
CONTINUOUS
 10
11.809898014
 20
-38.2497837059
 30
0.0
 11
-0.0
 21
1.0722534603
 31
0.0
 40
0.4663076582
 41
-3.1415926536
 42
-1.5707963268
  0
ELLIPSE
  5
769
100
AcDbEntity
  8
RACCORDO
100
AcDbEllipse
 62
7
  6
CONTINUOUS
 10
21.559974178
 20
-43.4461709763
 30
0.0
 11
-0.3536610946
 21
-0.3536610946
 31
0.0
 40
0.9996954599
 41
-0.7852458701
 42
-0.7680971641
  0
ELLIPSE
  5
76A
100
AcDbEntity
  8
RACCORDO
100
AcDbEllipse
 62
7
  6
CONTINUOUS
 10
59.2968219955
 20
20.9417865244
 30
0.0
 11
0.0174550346
 21
2.1638199317
 31
0.0
 40
0.2310653143
 41
2.383005471
 42
2.9102768012
  0
ELLIPSE
  5
76B
100
AcDbEntity
  8
RACCORDO
100
AcDbEllipse
 62
7
  6
CONTINUOUS
 10
-59.0770259675
 20
20.9417865244
 30
0.0
 11
0.0174550346
 21
-2.1638199317
 31
0.0
 40
0.2310653143
 41
0.2313158524
 42
0.7585871826
  0
ELLIPSE
  5
76C
100
AcDbEntity
  8
RACCORDO
100
AcDbEllipse
 62
7
  6
CONTINUOUS
 10
-66.7031780045
 20
20.9417865244
 30
0.0
 11
0.0174550346
 21
2.1638199317
 31
0.0
 40
0.2310653143
 41
2.383005471
 42
2.9102768012
  0
ELLIPSE
  5
76D
100
AcDbEntity
  8
RACCORDO
100
AcDbEllipse
 62
7
  6
CONTINUOUS
 10
66.9229740325
 20
20.9417865244
 30
0.0
 11
0.0174550346
 21
-2.1638199317
 31
0.0
 40
0.2310653143
 41
0.2313158524
 42
0.7585871826
  0
ELLIPSE
  5
76E
100
AcDbEntity
  8
RACCORDO
100
AcDbEllipse
 62
7
  6
CONTINUOUS
 10
19.809898014
 20
-35.8444272545
 30
0.0
 11
-0.0
 21
0.5041799013
 31
0.0
 40
0.9917095044
 41
1.1170107213
 42
1.5707963268
  0
ELLIPSE
  5
76F
100
AcDbEntity
  8
RACCORDO
100
AcDbEllipse
 62
7
  6
CONTINUOUS
 10
21.4028785937
 20
-43.6032665606
 30
0.0
 11
0.3536610946
 21
0.3536610946
 31
0.0
 40
0.9996954599
 41
-3.9268385237
 42
-3.9096898177
  0
ELLIPSE
  5
770
100
AcDbEntity
  8
RACCORDO
100
AcDbEllipse
 62
7
  6
CONTINUOUS
 10
10.2169174343
 20
-43.6032665606
 30
0.0
 11
0.3536610946
 21
-0.3536610946
 31
0.0
 40
0.9996954599
 41
0.7680971641
 42
0.7852458701
  0
ELLIPSE
  5
771
100
AcDbEntity
  8
RACCORDO
100
AcDbEllipse
 62
7
  6
CONTINUOUS
 10
24.2767549556
 20
-17.7221133302
 30
0.0
 11
-0.2236357461
 21
0.4473055582
 31
0.0
 40
0.9998096356
 41
-0.4635410001
 42
1.1071030277
  0
ELLIPSE
  5
772
100
AcDbEntity
  8
RACCORDO
100
AcDbEllipse
 62
7
  6
CONTINUOUS
 10
7.3430410724
 20
-17.7221133302
 30
0.0
 11
0.2236357461
 21
0.4473055582
 31
0.0
 40
0.9998096356
 41
-1.1071030277
 42
0.4635410001
  0
ELLIPSE
  5
773
100
AcDbEntity
  8
RACCORDO
100
AcDbEllipse
 62
7
  6
CONTINUOUS
 10
-67.2180688205
 20
19.374041855
 30
0.0
 11
0.0020172739
 21
0.4999999988
 31
0.0
 40
0.0169823943
 41
-3.1240708448
 42
-3.107536852
  0
ELLIPSE
  5
774
100
AcDbEntity
  8
RACCORDO
100
AcDbEllipse
 62
7
  6
CONTINUOUS
 10
67.4378648485
 20
19.374041855
 30
0.0
 11
-0.0020172739
 21
0.4999999988
 31
0.0
 40
0.0169823943
 41
-3.1756484552
 42
-3.1591144624
  0
ELLIPSE
  5
775
100
AcDbEntity
  8
RACCORDO
100
AcDbEllipse
 62
7
  6
CONTINUOUS
 10
-58.5621351515
 20
19.374041855
 30
0.0
 11
-0.0020172739
 21
0.4999999988
 31
0.0
 40
0.0169823943
 41
-3.1756484552
 42
-3.1591144624
  0
ELLIPSE
  5
776
100
AcDbEntity
  8
RACCORDO
100
AcDbEllipse
 62
7
  6
CONTINUOUS
 10
58.7819311795
 20
19.374041855
 30
0.0
 11
0.0020172739
 21
0.4999999988
 31
0.0
 40
0.0169823943
 41
-3.1240708448
 42
-3.107536852
  0
ENDSEC
  0
SECTION
  2
OBJECTS
  0
DICTIONARY
  5
C
100
AcDbDictionary
280
0
281
1
  3
ACAD_GROUP
350
D
  3
ACAD_MLINESTYLE
350
17
  3
ACAD_LAYOUT
350
1A
  3
ACAD_PLOTSETTINGS
350
19
  3
ACAD_PLOTSTYLENAME
350
E
  0
DICTIONARY
  5
D
102
{ACAD_REACTORS
330
C
102
}
100
AcDbDictionary
280
0
281
1
  0
ACDBDICTIONARYWDFLT
  5
E
102
{ACAD_REACTORS
330
C
102
}
100
AcDbDictionary
281
1
  3
Normal
350
F
100
AcDbDictionaryWithDefault
340
F
  0
DICTIONARY
  5
17
102
{ACAD_REACTORS
330
C
102
}
100
AcDbDictionary
280
0
281
1
  3
Standard
350
18
  0
DICTIONARY
  5
19
102
{ACAD_REACTORS
330
C
102
}
100
AcDbDictionary
281
1
  0
DICTIONARY
  5
1A
102
{ACAD_REACTORS
330
C
102
}
100
AcDbDictionary
281
1
  3
Model
350
777
  3
Layout1
350
778
  0
ACDBPLACEHOLDER
  5
F
102
{ACAD_REACTORS
330
E
102
}
  0
MLINESTYLE
  5
18
102
{ACAD_REACTORS
330
17
102
}
100
AcDbMlineStyle
  2
STANDARD
 70
0
  3

 62
256
 51
90.0
 52
90.0
 71
2
 49
0.5
 62
256
  6
BYLAYER
 49
-0.5
 62
256
  6
BYLAYER
  0
LAYOUT
  5
777
102
{ACAD_REACTORS
330
1A
102
}
100
AcDbPlotSettings
  1

  2
none_device
  4
ISO_A4_(297.00_x_210.00_MM)
  6

 40
0.0
 41
0.0
 42
0.0
 43
0.0
 44
297.0
 45
210.0
 46
0.0
 47
0.0
 48
0.0
 49
0.0
140
0.0
141
0.0
142
1.0
143
1.0
 70
1024
 72
1
 73
0
 74
0
  7

 75
0
147
1.0
148
0.0
149
0.0
100
AcDbLayout
  1
Model
 70
0
 71
0
 10
0.0
 20
0.0
 11
297.0
 21
210.0
 12
0.0
 22
0.0
 32
0.0
 14
0.0
 24
0.0
 34
0.0
 15
0.0
 25
0.0
 35
0.0
146
0.0
 13
0.0
 23
0.0
 33
0.0
 16
1.0
 26
0.0
 36
0.0
 17
0.0
 27
1.0
 37
0.0
 76
0
330
300
345
0
346
0
  0
LAYOUT
  5
778
102
{ACAD_REACTORS
330
1A
102
}
100
AcDbPlotSettings
  1

  2
none_device
  4
ISO_A4_(297.00_x_210.00_MM)
  6

 40
0.0
 41
0.0
 42
0.0
 43
0.0
 44
297.0
 45
210.0
 46
0.0
 47
0.0
 48
0.0
 49
0.0
140
0.0
141
0.0
142
1.0
143
1.0
 70
0
 72
1
 73
0
 74
0
  7

 75
0
147
1.0
148
0.0
149
0.0
100
AcDbLayout
  1
Layout1
 70
0
 71
1
 10
0.0
 20
0.0
 11
297.0
 21
210.0
 12
0.0
 22
0.0
 32
0.0
 14
0.0
 24
0.0
 34
0.0
 15
0.0
 25
0.0
 35
0.0
146
0.0
 13
0.0
 23
0.0
 33
0.0
 16
1.0
 26
0.0
 36
0.0
 17
0.0
 27
1.0
 37
0.0
 76
0
330
301
345
0
346
0
  0
ENDSEC
  0
EOF
