  0
SECTION
  2
HEADER
  9
$ACADVER
  1
AC1024
  9
$DWGCODEPAGE
  3
ANSI_1252
  9
$EXTMAX
 10
297.0
 20
210.0
 30
0.0
  9
$EXTMIN
 10
0.0
 20
0.0
 30
0.0
  9
$LIMMIN
 10
0.0
 20
0.0
  9
$LIMMAX
 10
297.0
 20
210.0
  9
$VIEWCTR
 10
148.5
 20
105.0
  9
$VIEWSIZE
 40
210.0
  9
$CLAYER
  8
0
  9
$LTSCALE
 40
16.335
  9
$CELTYPE
  6
BYLAYER
  9
$DIMSCALE
 40
1.0
  9
$DIMASZ
 40
3.0
  9
$DIMEXO
 40
0.5
  9
$DIMDLI
 40
11.286
  9
$DIMEXE
 40
1.5
  9
$DIMCEN
 40
2.673
  9
$DIMLFAC
 40
1.0
  9
$DIMBLK
  1
_FILLED
  9
$DIMALT
 70
0
  9
$DIMALTF
 40
0.0393700787
  9
$DIMTXT
 40
3.0
  9
$DIMTOL
 70
1
  9
$DIMLIM
 70
0
  9
$DIMTFAC
 40
1.0
  9
$DIMTP
 40
0.01
  9
$DIMTM
 40
0.01
  9
$DIMGAP
 40
0.625
  9
$DIMDSEP
 70
44
  9
$AUNITS
 70
0
  9
$PDMODE
 70
3
  9
$PDSIZE
 40
3.0
  9
$HANDSEED
  5
7AF
  9
$TILEMODE
 70
1
  9
$MEASUREMENT
 70
1
  9
$INSUNITS
 70
4
  0
ENDSEC
  0
SECTION
  2
CLASSES
  0
CLASS
  1
ACDBDICTIONARYWDFLT
  2
AcDbDictionaryWithDefault
  3
AutoCAD 2000
 90
0
 91
1
280
0
281
0
  0
CLASS
  1
ACDBPLACEHOLDER
  2
AcDbPlaceHolder
  3
AutoCAD 2000
 90
0
 91
1
280
0
281
0
  0
CLASS
  1
LAYOUT
  2
AcDbLayout
  3
AutoCAD 2000
 90
0
 91
0
280
0
281
0
  0
ENDSEC
  0
SECTION
  2
TABLES
  0
TABLE
  2
VPORT
  5
8
100
AcDbSymbolTable
 70
2
  0
VPORT
  5
1F4
100
AcDbSymbolTableRecord
100
AcDbViewportTableRecord
  2
*ACTIVE
 70
0
 10
0.0
 20
0.0
 11
1.0
 21
1.0
 12
148.5
 22
105.0
 13
0.0
 23
0.0
 14
1.0
 24
1.0
 15
0.0
 25
0.0
 16
0.0
 26
0.0
 36
1.0
 17
0.0
 27
0.0
 37
0.0
 40
210.0
 41
1.4142857143
 42
50.0
 43
0.0
 44
0.0
 50
0.0
 51
0.0
 71
0
 72
100
 73
1
 74
1
 75
0
 76
0
 77
0
 78
0
  0
ENDTAB
  0
TABLE
  2
LTYPE
  5
5
100
AcDbSymbolTable
 70
6
  0
LTYPE
  5
14
100
AcDbSymbolTableRecord
100
AcDbLinetypeTableRecord
  2
BYBLOCK
 70
0
  3

 72
65
 73
0
 40
0.0
  0
LTYPE
  5
15
100
AcDbSymbolTableRecord
100
AcDbLinetypeTableRecord
  2
BYLAYER
 70
0
  3

 72
65
 73
0
 40
0.0
  0
LTYPE
  5
16
100
AcDbSymbolTableRecord
100
AcDbLinetypeTableRecord
  2
CONTINUOUS
 70
64
  3
Solid line
 72
65
 73
0
 40
0.0
  0
LTYPE
  5
1F5
100
AcDbSymbolTableRecord
100
AcDbLinetypeTableRecord
  2
CENTER
 70
64
  3
____ _ ____ _ ____ _ ____ _ ____ _ ____ _ ____
 72
65
 73
4
 40
0.6
 49
0.375
 74
0
 49
-0.075
 74
0
 49
0.075
 74
0
 49
-0.075
 74
0
  0
LTYPE
  5
1F6
100
AcDbSymbolTableRecord
100
AcDbLinetypeTableRecord
  2
HIDDEN
 70
64
  3
- - - - - - - - - - - - - - - - - - - -
 72
65
 73
2
 40
0.2
 49
0.1
 74
0
 49
-0.1
 74
0
  0
LTYPE
  5
1F7
100
AcDbSymbolTableRecord
100
AcDbLinetypeTableRecord
  2
PHANTOM
 70
64
  3
_____ _ _ _____ _ _ _____ _ _ _____
 72
65
 73
6
 40
0.8
 49
0.45
 74
0
 49
-0.05
 74
0
 49
0.1
 74
0
 49
-0.05
 74
0
 49
0.1
 74
0
 49
-0.05
 74
0
  0
LTYPE
  5
1F8
100
AcDbSymbolTableRecord
100
AcDbLinetypeTableRecord
  2
DOT
 70
64
  3
. . . . . . . . . . . . . . . . . . . .
 72
65
 73
2
 40
0.2
 49
0.1
 74
0
 49
-0.1
 74
0
  0
LTYPE
  5
1F9
100
AcDbSymbolTableRecord
100
AcDbLinetypeTableRecord
  2
DASHED
 70
64
  3
- - - - - - - - - - - - - - - - - - - -
 72
65
 73
2
 40
0.2
 49
0.1
 74
0
 49
-0.1
 74
0
  0
ENDTAB
  0
TABLE
  2
LAYER
  5
2
100
AcDbSymbolTable
 70
36
  0
LAYER
  5
10
100
AcDbSymbolTableRecord
100
AcDbLayerTableRecord
  2
0
 70
0
 62
7
  6
CONTINUOUS
370
-3
390
F
  0
LAYER
  5
1FA
100
AcDbSymbolTableRecord
100
AcDbLayerTableRecord
  2
DEFAULT_1
 70
0
 62
7
  6
CENTER
370
-3
390
F
  0
LAYER
  5
1FB
100
AcDbSymbolTableRecord
100
AcDbLayerTableRecord
  2
DEFAULT_2
 70
0
 62
7
  6
HIDDEN
370
-3
390
F
  0
LAYER
  5
1FC
100
AcDbSymbolTableRecord
100
AcDbLayerTableRecord
  2
DEFAULT_3
 70
0
 62
7
  6
PHANTOM
370
-3
390
F
  0
LAYER
  5
1FD
100
AcDbSymbolTableRecord
100
AcDbLayerTableRecord
  2
0402_C_REF_70000
 70
0
 62
7
  6
CONTINUOUS
370
-3
390
F
  0
LAYER
  5
1FE
100
AcDbSymbolTableRecord
100
AcDbLayerTableRecord
  2
0402_C_REF_70000_1
 70
0
 62
7
  6
CONTINUOUS
370
-3
390
F
  0
LAYER
  5
1FF
100
AcDbSymbolTableRecord
100
AcDbLayerTableRecord
  2
0402_C_REF_70000_10
 70
0
 62
7
  6
CONTINUOUS
370
-3
390
F
  0
LAYER
  5
200
100
AcDbSymbolTableRecord
100
AcDbLayerTableRecord
  2
0402_C_REF_70000_11
 70
0
 62
7
  6
CONTINUOUS
370
-3
390
F
  0
LAYER
  5
201
100
AcDbSymbolTableRecord
100
AcDbLayerTableRecord
  2
0402_C_REF_70000_12
 70
0
 62
7
  6
CONTINUOUS
370
-3
390
F
  0
LAYER
  5
202
100
AcDbSymbolTableRecord
100
AcDbLayerTableRecord
  2
0402_C_REF_70000_13
 70
0
 62
7
  6
CONTINUOUS
370
-3
390
F
  0
LAYER
  5
203
100
AcDbSymbolTableRecord
100
AcDbLayerTableRecord
  2
0402_C_REF_70000_14
 70
0
 62
7
  6
CONTINUOUS
370
-3
390
F
  0
LAYER
  5
204
100
AcDbSymbolTableRecord
100
AcDbLayerTableRecord
  2
0402_C_REF_70000_15
 70
0
 62
7
  6
CONTINUOUS
370
-3
390
F
  0
LAYER
  5
205
100
AcDbSymbolTableRecord
100
AcDbLayerTableRecord
  2
0402_C_REF_70000_16
 70
0
 62
7
  6
CONTINUOUS
370
-3
390
F
  0
LAYER
  5
206
100
AcDbSymbolTableRecord
100
AcDbLayerTableRecord
  2
0402_C_REF_70000_17
 70
0
 62
7
  6
CONTINUOUS
370
-3
390
F
  0
LAYER
  5
207
100
AcDbSymbolTableRecord
100
AcDbLayerTableRecord
  2
0402_C_REF_70000_18
 70
0
 62
7
  6
CONTINUOUS
370
-3
390
F
  0
LAYER
  5
208
100
AcDbSymbolTableRecord
100
AcDbLayerTableRecord
  2
0402_C_REF_70000_19
 70
0
 62
7
  6
CONTINUOUS
370
-3
390
F
  0
LAYER
  5
209
100
AcDbSymbolTableRecord
100
AcDbLayerTableRecord
  2
0402_C_REF_70000_2
 70
0
 62
7
  6
CONTINUOUS
370
-3
390
F
  0
LAYER
  5
20A
100
AcDbSymbolTableRecord
100
AcDbLayerTableRecord
  2
0402_C_REF_70000_20
 70
0
 62
7
  6
CONTINUOUS
370
-3
390
F
  0
LAYER
  5
20B
100
AcDbSymbolTableRecord
100
AcDbLayerTableRecord
  2
0402_C_REF_70000_21
 70
0
 62
7
  6
CONTINUOUS
370
-3
390
F
  0
LAYER
  5
20C
100
AcDbSymbolTableRecord
100
AcDbLayerTableRecord
  2
0402_C_REF_70000_22
 70
0
 62
7
  6
CONTINUOUS
370
-3
390
F
  0
LAYER
  5
20D
100
AcDbSymbolTableRecord
100
AcDbLayerTableRecord
  2
0402_C_REF_70000_23
 70
0
 62
7
  6
CONTINUOUS
370
-3
390
F
  0
LAYER
  5
20E
100
AcDbSymbolTableRecord
100
AcDbLayerTableRecord
  2
0402_C_REF_70000_24
 70
0
 62
7
  6
CONTINUOUS
370
-3
390
F
  0
LAYER
  5
20F
100
AcDbSymbolTableRecord
100
AcDbLayerTableRecord
  2
0402_C_REF_70000_25
 70
0
 62
7
  6
CONTINUOUS
370
-3
390
F
  0
LAYER
  5
210
100
AcDbSymbolTableRecord
100
AcDbLayerTableRecord
  2
0402_C_REF_70000_26
 70
0
 62
7
  6
CONTINUOUS
370
-3
390
F
  0
LAYER
  5
211
100
AcDbSymbolTableRecord
100
AcDbLayerTableRecord
  2
0402_C_REF_70000_27
 70
0
 62
7
  6
CONTINUOUS
370
-3
390
F
  0
LAYER
  5
212
100
AcDbSymbolTableRecord
100
AcDbLayerTableRecord
  2
0402_C_REF_70000_28
 70
0
 62
7
  6
CONTINUOUS
370
-3
390
F
  0
LAYER
  5
213
100
AcDbSymbolTableRecord
100
AcDbLayerTableRecord
  2
0402_C_REF_70000_29
 70
0
 62
7
  6
CONTINUOUS
370
-3
390
F
  0
LAYER
  5
214
100
AcDbSymbolTableRecord
100
AcDbLayerTableRecord
  2
0402_C_REF_70000_3
 70
0
 62
7
  6
CONTINUOUS
370
-3
390
F
  0
LAYER
  5
215
100
AcDbSymbolTableRecord
100
AcDbLayerTableRecord
  2
0402_C_REF_70000_30
 70
0
 62
7
  6
CONTINUOUS
370
-3
390
F
  0
LAYER
  5
216
100
AcDbSymbolTableRecord
100
AcDbLayerTableRecord
  2
0402_C_REF_70000_31
 70
0
 62
7
  6
CONTINUOUS
370
-3
390
F
  0
LAYER
  5
217
100
AcDbSymbolTableRecord
100
AcDbLayerTableRecord
  2
0402_C_REF_70000_32
 70
0
 62
7
  6
CONTINUOUS
370
-3
390
F
  0
LAYER
  5
218
100
AcDbSymbolTableRecord
100
AcDbLayerTableRecord
  2
0402_C_REF_70000_33
 70
0
 62
7
  6
CONTINUOUS
370
-3
390
F
  0
LAYER
  5
219
100
AcDbSymbolTableRecord
100
AcDbLayerTableRecord
  2
0402_C_REF_70000_34
 70
0
 62
7
  6
CONTINUOUS
370
-3
390
F
  0
LAYER
  5
21A
100
AcDbSymbolTableRecord
100
AcDbLayerTableRecord
  2
0402_C_REF_70000_35
 70
0
 62
7
  6
CONTINUOUS
370
-3
390
F
  0
LAYER
  5
21B
100
AcDbSymbolTableRecord
100
AcDbLayerTableRecord
  2
0402_C_REF_70000_36
 70
0
 62
7
  6
CONTINUOUS
370
-3
390
F
  0
LAYER
  5
21C
100
AcDbSymbolTableRecord
100
AcDbLayerTableRecord
  2
0402_C_REF_70000_37
 70
0
 62
7
  6
CONTINUOUS
370
-3
390
F
  0
LAYER
  5
21D
100
AcDbSymbolTableRecord
100
AcDbLayerTableRecord
  2
0402_C_REF_70000_38
 70
0
 62
7
  6
CONTINUOUS
370
-3
390
F
  0
LAYER
  5
21E
100
AcDbSymbolTableRecord
100
AcDbLayerTableRecord
  2
0402_C_REF_70000_39
 70
0
 62
7
  6
CONTINUOUS
370
-3
390
F
  0
LAYER
  5
21F
100
AcDbSymbolTableRecord
100
AcDbLayerTableRecord
  2
0402_C_REF_70000_4
 70
0
 62
7
  6
CONTINUOUS
370
-3
390
F
  0
LAYER
  5
220
100
AcDbSymbolTableRecord
100
AcDbLayerTableRecord
  2
0402_C_REF_70000_40
 70
0
 62
7
  6
CONTINUOUS
370
-3
390
F
  0
LAYER
  5
221
100
AcDbSymbolTableRecord
100
AcDbLayerTableRecord
  2
0402_C_REF_70000_41
 70
0
 62
7
  6
CONTINUOUS
370
-3
390
F
  0
LAYER
  5
222
100
AcDbSymbolTableRecord
100
AcDbLayerTableRecord
  2
0402_C_REF_70000_42
 70
0
 62
7
  6
CONTINUOUS
370
-3
390
F
  0
LAYER
  5
223
100
AcDbSymbolTableRecord
100
AcDbLayerTableRecord
  2
0402_C_REF_70000_43
 70
0
 62
7
  6
CONTINUOUS
370
-3
390
F
  0
LAYER
  5
224
100
AcDbSymbolTableRecord
100
AcDbLayerTableRecord
  2
0402_C_REF_70000_44
 70
0
 62
7
  6
CONTINUOUS
370
-3
390
F
  0
LAYER
  5
225
100
AcDbSymbolTableRecord
100
AcDbLayerTableRecord
  2
0402_C_REF_70000_45
 70
0
 62
7
  6
CONTINUOUS
370
-3
390
F
  0
LAYER
  5
226
100
AcDbSymbolTableRecord
100
AcDbLayerTableRecord
  2
0402_C_REF_70000_46
 70
0
 62
7
  6
CONTINUOUS
370
-3
390
F
  0
LAYER
  5
227
100
AcDbSymbolTableRecord
100
AcDbLayerTableRecord
  2
0402_C_REF_70000_47
 70
0
 62
7
  6
CONTINUOUS
370
-3
390
F
  0
LAYER
  5
228
100
AcDbSymbolTableRecord
100
AcDbLayerTableRecord
  2
0402_C_REF_70000_48
 70
0
 62
7
  6
CONTINUOUS
370
-3
390
F
  0
LAYER
  5
229
100
AcDbSymbolTableRecord
100
AcDbLayerTableRecord
  2
0402_C_REF_70000_49
 70
0
 62
7
  6
CONTINUOUS
370
-3
390
F
  0
LAYER
  5
22A
100
AcDbSymbolTableRecord
100
AcDbLayerTableRecord
  2
0402_C_REF_70000_5
 70
0
 62
7
  6
CONTINUOUS
370
-3
390
F
  0
LAYER
  5
22B
100
AcDbSymbolTableRecord
100
AcDbLayerTableRecord
  2
0402_C_REF_70000_50
 70
0
 62
7
  6
CONTINUOUS
370
-3
390
F
  0
LAYER
  5
22C
100
AcDbSymbolTableRecord
100
AcDbLayerTableRecord
  2
0402_C_REF_70000_51
 70
0
 62
7
  6
CONTINUOUS
370
-3
390
F
  0
LAYER
  5
22D
100
AcDbSymbolTableRecord
100
AcDbLayerTableRecord
  2
0402_C_REF_70000_52
 70
0
 62
7
  6
CONTINUOUS
370
-3
390
F
  0
LAYER
  5
22E
100
AcDbSymbolTableRecord
100
AcDbLayerTableRecord
  2
0402_C_REF_70000_53
 70
0
 62
7
  6
CONTINUOUS
370
-3
390
F
  0
LAYER
  5
22F
100
AcDbSymbolTableRecord
100
AcDbLayerTableRecord
  2
0402_C_REF_70000_54
 70
0
 62
7
  6
CONTINUOUS
370
-3
390
F
  0
LAYER
  5
230
100
AcDbSymbolTableRecord
100
AcDbLayerTableRecord
  2
0402_C_REF_70000_55
 70
0
 62
7
  6
CONTINUOUS
370
-3
390
F
  0
LAYER
  5
231
100
AcDbSymbolTableRecord
100
AcDbLayerTableRecord
  2
0402_C_REF_70000_56
 70
0
 62
7
  6
CONTINUOUS
370
-3
390
F
  0
LAYER
  5
232
100
AcDbSymbolTableRecord
100
AcDbLayerTableRecord
  2
0402_C_REF_70000_57
 70
0
 62
7
  6
CONTINUOUS
370
-3
390
F
  0
LAYER
  5
233
100
AcDbSymbolTableRecord
100
AcDbLayerTableRecord
  2
0402_C_REF_70000_58
 70
0
 62
7
  6
CONTINUOUS
370
-3
390
F
  0
LAYER
  5
234
100
AcDbSymbolTableRecord
100
AcDbLayerTableRecord
  2
0402_C_REF_70000_59
 70
0
 62
7
  6
CONTINUOUS
370
-3
390
F
  0
LAYER
  5
235
100
AcDbSymbolTableRecord
100
AcDbLayerTableRecord
  2
0402_C_REF_70000_6
 70
0
 62
7
  6
CONTINUOUS
370
-3
390
F
  0
LAYER
  5
236
100
AcDbSymbolTableRecord
100
AcDbLayerTableRecord
  2
0402_C_REF_70000_60
 70
0
 62
7
  6
CONTINUOUS
370
-3
390
F
  0
LAYER
  5
237
100
AcDbSymbolTableRecord
100
AcDbLayerTableRecord
  2
0402_C_REF_70000_61
 70
0
 62
7
  6
CONTINUOUS
370
-3
390
F
  0
LAYER
  5
238
100
AcDbSymbolTableRecord
100
AcDbLayerTableRecord
  2
0402_C_REF_70000_62
 70
0
 62
7
  6
CONTINUOUS
370
-3
390
F
  0
LAYER
  5
239
100
AcDbSymbolTableRecord
100
AcDbLayerTableRecord
  2
0402_C_REF_70000_7
 70
0
 62
7
  6
CONTINUOUS
370
-3
390
F
  0
LAYER
  5
23A
100
AcDbSymbolTableRecord
100
AcDbLayerTableRecord
  2
0402_C_REF_70000_8
 70
0
 62
7
  6
CONTINUOUS
370
-3
390
F
  0
LAYER
  5
23B
100
AcDbSymbolTableRecord
100
AcDbLayerTableRecord
  2
0402_C_REF_70000_9
 70
0
 62
7
  6
CONTINUOUS
370
-3
390
F
  0
LAYER
  5
23C
100
AcDbSymbolTableRecord
100
AcDbLayerTableRecord
  2
0402_R_REF_30000
 70
0
 62
7
  6
CONTINUOUS
370
-3
390
F
  0
LAYER
  5
23D
100
AcDbSymbolTableRecord
100
AcDbLayerTableRecord
  2
0402_R_REF_30000_1
 70
0
 62
7
  6
CONTINUOUS
370
-3
390
F
  0
LAYER
  5
23E
100
AcDbSymbolTableRecord
100
AcDbLayerTableRecord
  2
0402_R_REF_30000_10
 70
0
 62
7
  6
CONTINUOUS
370
-3
390
F
  0
LAYER
  5
23F
100
AcDbSymbolTableRecord
100
AcDbLayerTableRecord
  2
0402_R_REF_30000_11
 70
0
 62
7
  6
CONTINUOUS
370
-3
390
F
  0
LAYER
  5
240
100
AcDbSymbolTableRecord
100
AcDbLayerTableRecord
  2
0402_R_REF_30000_12
 70
0
 62
7
  6
CONTINUOUS
370
-3
390
F
  0
LAYER
  5
241
100
AcDbSymbolTableRecord
100
AcDbLayerTableRecord
  2
0402_R_REF_30000_13
 70
0
 62
7
  6
CONTINUOUS
370
-3
390
F
  0
LAYER
  5
242
100
AcDbSymbolTableRecord
100
AcDbLayerTableRecord
  2
0402_R_REF_30000_14
 70
0
 62
7
  6
CONTINUOUS
370
-3
390
F
  0
LAYER
  5
243
100
AcDbSymbolTableRecord
100
AcDbLayerTableRecord
  2
0402_R_REF_30000_15
 70
0
 62
7
  6
CONTINUOUS
370
-3
390
F
  0
LAYER
  5
244
100
AcDbSymbolTableRecord
100
AcDbLayerTableRecord
  2
0402_R_REF_30000_16
 70
0
 62
7
  6
CONTINUOUS
370
-3
390
F
  0
LAYER
  5
245
100
AcDbSymbolTableRecord
100
AcDbLayerTableRecord
  2
0402_R_REF_30000_17
 70
0
 62
7
  6
CONTINUOUS
370
-3
390
F
  0
LAYER
  5
246
100
AcDbSymbolTableRecord
100
AcDbLayerTableRecord
  2
0402_R_REF_30000_18
 70
0
 62
7
  6
CONTINUOUS
370
-3
390
F
  0
LAYER
  5
247
100
AcDbSymbolTableRecord
100
AcDbLayerTableRecord
  2
0402_R_REF_30000_19
 70
0
 62
7
  6
CONTINUOUS
370
-3
390
F
  0
LAYER
  5
248
100
AcDbSymbolTableRecord
100
AcDbLayerTableRecord
  2
0402_R_REF_30000_2
 70
0
 62
7
  6
CONTINUOUS
370
-3
390
F
  0
LAYER
  5
249
100
AcDbSymbolTableRecord
100
AcDbLayerTableRecord
  2
0402_R_REF_30000_20
 70
0
 62
7
  6
CONTINUOUS
370
-3
390
F
  0
LAYER
  5
24A
100
AcDbSymbolTableRecord
100
AcDbLayerTableRecord
  2
0402_R_REF_30000_21
 70
0
 62
7
  6
CONTINUOUS
370
-3
390
F
  0
LAYER
  5
24B
100
AcDbSymbolTableRecord
100
AcDbLayerTableRecord
  2
0402_R_REF_30000_22
 70
0
 62
7
  6
CONTINUOUS
370
-3
390
F
  0
LAYER
  5
24C
100
AcDbSymbolTableRecord
100
AcDbLayerTableRecord
  2
0402_R_REF_30000_23
 70
0
 62
7
  6
CONTINUOUS
370
-3
390
F
  0
LAYER
  5
24D
100
AcDbSymbolTableRecord
100
AcDbLayerTableRecord
  2
0402_R_REF_30000_24
 70
0
 62
7
  6
CONTINUOUS
370
-3
390
F
  0
LAYER
  5
24E
100
AcDbSymbolTableRecord
100
AcDbLayerTableRecord
  2
0402_R_REF_30000_25
 70
0
 62
7
  6
CONTINUOUS
370
-3
390
F
  0
LAYER
  5
24F
100
AcDbSymbolTableRecord
100
AcDbLayerTableRecord
  2
0402_R_REF_30000_26
 70
0
 62
7
  6
CONTINUOUS
370
-3
390
F
  0
LAYER
  5
250
100
AcDbSymbolTableRecord
100
AcDbLayerTableRecord
  2
0402_R_REF_30000_27
 70
0
 62
7
  6
CONTINUOUS
370
-3
390
F
  0
LAYER
  5
251
100
AcDbSymbolTableRecord
100
AcDbLayerTableRecord
  2
0402_R_REF_30000_28
 70
0
 62
7
  6
CONTINUOUS
370
-3
390
F
  0
LAYER
  5
252
100
AcDbSymbolTableRecord
100
AcDbLayerTableRecord
  2
0402_R_REF_30000_29
 70
0
 62
7
  6
CONTINUOUS
370
-3
390
F
  0
LAYER
  5
253
100
AcDbSymbolTableRecord
100
AcDbLayerTableRecord
  2
0402_R_REF_30000_3
 70
0
 62
7
  6
CONTINUOUS
370
-3
390
F
  0
LAYER
  5
254
100
AcDbSymbolTableRecord
100
AcDbLayerTableRecord
  2
0402_R_REF_30000_30
 70
0
 62
7
  6
CONTINUOUS
370
-3
390
F
  0
LAYER
  5
255
100
AcDbSymbolTableRecord
100
AcDbLayerTableRecord
  2
0402_R_REF_30000_31
 70
0
 62
7
  6
CONTINUOUS
370
-3
390
F
  0
LAYER
  5
256
100
AcDbSymbolTableRecord
100
AcDbLayerTableRecord
  2
0402_R_REF_30000_32
 70
0
 62
7
  6
CONTINUOUS
370
-3
390
F
  0
LAYER
  5
257
100
AcDbSymbolTableRecord
100
AcDbLayerTableRecord
  2
0402_R_REF_30000_33
 70
0
 62
7
  6
CONTINUOUS
370
-3
390
F
  0
LAYER
  5
258
100
AcDbSymbolTableRecord
100
AcDbLayerTableRecord
  2
0402_R_REF_30000_34
 70
0
 62
7
  6
CONTINUOUS
370
-3
390
F
  0
LAYER
  5
259
100
AcDbSymbolTableRecord
100
AcDbLayerTableRecord
  2
0402_R_REF_30000_35
 70
0
 62
7
  6
CONTINUOUS
370
-3
390
F
  0
LAYER
  5
25A
100
AcDbSymbolTableRecord
100
AcDbLayerTableRecord
  2
0402_R_REF_30000_36
 70
0
 62
7
  6
CONTINUOUS
370
-3
390
F
  0
LAYER
  5
25B
100
AcDbSymbolTableRecord
100
AcDbLayerTableRecord
  2
0402_R_REF_30000_37
 70
0
 62
7
  6
CONTINUOUS
370
-3
390
F
  0
LAYER
  5
25C
100
AcDbSymbolTableRecord
100
AcDbLayerTableRecord
  2
0402_R_REF_30000_38
 70
0
 62
7
  6
CONTINUOUS
370
-3
390
F
  0
LAYER
  5
25D
100
AcDbSymbolTableRecord
100
AcDbLayerTableRecord
  2
0402_R_REF_30000_39
 70
0
 62
7
  6
CONTINUOUS
370
-3
390
F
  0
LAYER
  5
25E
100
AcDbSymbolTableRecord
100
AcDbLayerTableRecord
  2
0402_R_REF_30000_4
 70
0
 62
7
  6
CONTINUOUS
370
-3
390
F
  0
LAYER
  5
25F
100
AcDbSymbolTableRecord
100
AcDbLayerTableRecord
  2
0402_R_REF_30000_40
 70
0
 62
7
  6
CONTINUOUS
370
-3
390
F
  0
LAYER
  5
260
100
AcDbSymbolTableRecord
100
AcDbLayerTableRecord
  2
0402_R_REF_30000_41
 70
0
 62
7
  6
CONTINUOUS
370
-3
390
F
  0
LAYER
  5
261
100
AcDbSymbolTableRecord
100
AcDbLayerTableRecord
  2
0402_R_REF_30000_42
 70
0
 62
7
  6
CONTINUOUS
370
-3
390
F
  0
LAYER
  5
262
100
AcDbSymbolTableRecord
100
AcDbLayerTableRecord
  2
0402_R_REF_30000_43
 70
0
 62
7
  6
CONTINUOUS
370
-3
390
F
  0
LAYER
  5
263
100
AcDbSymbolTableRecord
100
AcDbLayerTableRecord
  2
0402_R_REF_30000_44
 70
0
 62
7
  6
CONTINUOUS
370
-3
390
F
  0
LAYER
  5
264
100
AcDbSymbolTableRecord
100
AcDbLayerTableRecord
  2
0402_R_REF_30000_45
 70
0
 62
7
  6
CONTINUOUS
370
-3
390
F
  0
LAYER
  5
265
100
AcDbSymbolTableRecord
100
AcDbLayerTableRecord
  2
0402_R_REF_30000_46
 70
0
 62
7
  6
CONTINUOUS
370
-3
390
F
  0
LAYER
  5
266
100
AcDbSymbolTableRecord
100
AcDbLayerTableRecord
  2
0402_R_REF_30000_47
 70
0
 62
7
  6
CONTINUOUS
370
-3
390
F
  0
LAYER
  5
267
100
AcDbSymbolTableRecord
100
AcDbLayerTableRecord
  2
0402_R_REF_30000_48
 70
0
 62
7
  6
CONTINUOUS
370
-3
390
F
  0
LAYER
  5
268
100
AcDbSymbolTableRecord
100
AcDbLayerTableRecord
  2
0402_R_REF_30000_5
 70
0
 62
7
  6
CONTINUOUS
370
-3
390
F
  0
LAYER
  5
269
100
AcDbSymbolTableRecord
100
AcDbLayerTableRecord
  2
0402_R_REF_30000_6
 70
0
 62
7
  6
CONTINUOUS
370
-3
390
F
  0
LAYER
  5
26A
100
AcDbSymbolTableRecord
100
AcDbLayerTableRecord
  2
0402_R_REF_30000_7
 70
0
 62
7
  6
CONTINUOUS
370
-3
390
F
  0
LAYER
  5
26B
100
AcDbSymbolTableRecord
100
AcDbLayerTableRecord
  2
0402_R_REF_30000_8
 70
0
 62
7
  6
CONTINUOUS
370
-3
390
F
  0
LAYER
  5
26C
100
AcDbSymbolTableRecord
100
AcDbLayerTableRecord
  2
0402_R_REF_30000_9
 70
0
 62
7
  6
CONTINUOUS
370
-3
390
F
  0
LAYER
  5
26D
100
AcDbSymbolTableRecord
100
AcDbLayerTableRecord
  2
0603_C_REF_90000
 70
0
 62
7
  6
CONTINUOUS
370
-3
390
F
  0
LAYER
  5
26E
100
AcDbSymbolTableRecord
100
AcDbLayerTableRecord
  2
0603_C_REF_90000_1
 70
0
 62
7
  6
CONTINUOUS
370
-3
390
F
  0
LAYER
  5
26F
100
AcDbSymbolTableRecord
100
AcDbLayerTableRecord
  2
0603_C_REF_90000_10
 70
0
 62
7
  6
CONTINUOUS
370
-3
390
F
  0
LAYER
  5
270
100
AcDbSymbolTableRecord
100
AcDbLayerTableRecord
  2
0603_C_REF_90000_11
 70
0
 62
7
  6
CONTINUOUS
370
-3
390
F
  0
LAYER
  5
271
100
AcDbSymbolTableRecord
100
AcDbLayerTableRecord
  2
0603_C_REF_90000_12
 70
0
 62
7
  6
CONTINUOUS
370
-3
390
F
  0
LAYER
  5
272
100
AcDbSymbolTableRecord
100
AcDbLayerTableRecord
  2
0603_C_REF_90000_13
 70
0
 62
7
  6
CONTINUOUS
370
-3
390
F
  0
LAYER
  5
273
100
AcDbSymbolTableRecord
100
AcDbLayerTableRecord
  2
0603_C_REF_90000_2
 70
0
 62
7
  6
CONTINUOUS
370
-3
390
F
  0
LAYER
  5
274
100
AcDbSymbolTableRecord
100
AcDbLayerTableRecord
  2
0603_C_REF_90000_3
 70
0
 62
7
  6
CONTINUOUS
370
-3
390
F
  0
LAYER
  5
275
100
AcDbSymbolTableRecord
100
AcDbLayerTableRecord
  2
0603_C_REF_90000_4
 70
0
 62
7
  6
CONTINUOUS
370
-3
390
F
  0
LAYER
  5
276
100
AcDbSymbolTableRecord
100
AcDbLayerTableRecord
  2
0603_C_REF_90000_5
 70
0
 62
7
  6
CONTINUOUS
370
-3
390
F
  0
LAYER
  5
277
100
AcDbSymbolTableRecord
100
AcDbLayerTableRecord
  2
0603_C_REF_90000_6
 70
0
 62
7
  6
CONTINUOUS
370
-3
390
F
  0
LAYER
  5
278
100
AcDbSymbolTableRecord
100
AcDbLayerTableRecord
  2
0603_C_REF_90000_7
 70
0
 62
7
  6
CONTINUOUS
370
-3
390
F
  0
LAYER
  5
279
100
AcDbSymbolTableRecord
100
AcDbLayerTableRecord
  2
0603_C_REF_90000_8
 70
0
 62
7
  6
CONTINUOUS
370
-3
390
F
  0
LAYER
  5
27A
100
AcDbSymbolTableRecord
100
AcDbLayerTableRecord
  2
0603_C_REF_90000_9
 70
0
 62
7
  6
CONTINUOUS
370
-3
390
F
  0
LAYER
  5
27B
100
AcDbSymbolTableRecord
100
AcDbLayerTableRecord
  2
0603_C_WAVE_90000
 70
0
 62
7
  6
CONTINUOUS
370
-3
390
F
  0
LAYER
  5
27C
100
AcDbSymbolTableRecord
100
AcDbLayerTableRecord
  2
0603_C_WAVE_90000_1
 70
0
 62
7
  6
CONTINUOUS
370
-3
390
F
  0
LAYER
  5
27D
100
AcDbSymbolTableRecord
100
AcDbLayerTableRecord
  2
0603_C_WAVE_90000_2
 70
0
 62
7
  6
CONTINUOUS
370
-3
390
F
  0
LAYER
  5
27E
100
AcDbSymbolTableRecord
100
AcDbLayerTableRecord
  2
0603_C_WAVE_90000_3
 70
0
 62
7
  6
CONTINUOUS
370
-3
390
F
  0
LAYER
  5
27F
100
AcDbSymbolTableRecord
100
AcDbLayerTableRecord
  2
0603_C_WAVE_90000_4
 70
0
 62
7
  6
CONTINUOUS
370
-3
390
F
  0
LAYER
  5
280
100
AcDbSymbolTableRecord
100
AcDbLayerTableRecord
  2
0603_C_WAVE_90000_5
 70
0
 62
7
  6
CONTINUOUS
370
-3
390
F
  0
LAYER
  5
281
100
AcDbSymbolTableRecord
100
AcDbLayerTableRecord
  2
0603_C_WAVE_90000_6
 70
0
 62
7
  6
CONTINUOUS
370
-3
390
F
  0
LAYER
  5
282
100
AcDbSymbolTableRecord
100
AcDbLayerTableRecord
  2
0603_C_WAVE_90000_7
 70
0
 62
7
  6
CONTINUOUS
370
-3
390
F
  0
LAYER
  5
283
100
AcDbSymbolTableRecord
100
AcDbLayerTableRecord
  2
0603_C_WAVE_90000_8
 70
0
 62
7
  6
CONTINUOUS
370
-3
390
F
  0
LAYER
  5
284
100
AcDbSymbolTableRecord
100
AcDbLayerTableRecord
  2
0603_C_WAVE_90000_9
 70
0
 62
7
  6
CONTINUOUS
370
-3
390
F
  0
LAYER
  5
285
100
AcDbSymbolTableRecord
100
AcDbLayerTableRecord
  2
0603_R_REF_55000
 70
0
 62
7
  6
CONTINUOUS
370
-3
390
F
  0
LAYER
  5
286
100
AcDbSymbolTableRecord
100
AcDbLayerTableRecord
  2
0603_R_REF_55000_1
 70
0
 62
7
  6
CONTINUOUS
370
-3
390
F
  0
LAYER
  5
287
100
AcDbSymbolTableRecord
100
AcDbLayerTableRecord
  2
0603_R_REF_55000_10
 70
0
 62
7
  6
CONTINUOUS
370
-3
390
F
  0
LAYER
  5
288
100
AcDbSymbolTableRecord
100
AcDbLayerTableRecord
  2
0603_R_REF_55000_11
 70
0
 62
7
  6
CONTINUOUS
370
-3
390
F
  0
LAYER
  5
289
100
AcDbSymbolTableRecord
100
AcDbLayerTableRecord
  2
0603_R_REF_55000_12
 70
0
 62
7
  6
CONTINUOUS
370
-3
390
F
  0
LAYER
  5
28A
100
AcDbSymbolTableRecord
100
AcDbLayerTableRecord
  2
0603_R_REF_55000_13
 70
0
 62
7
  6
CONTINUOUS
370
-3
390
F
  0
LAYER
  5
28B
100
AcDbSymbolTableRecord
100
AcDbLayerTableRecord
  2
0603_R_REF_55000_14
 70
0
 62
7
  6
CONTINUOUS
370
-3
390
F
  0
LAYER
  5
28C
100
AcDbSymbolTableRecord
100
AcDbLayerTableRecord
  2
0603_R_REF_55000_15
 70
0
 62
7
  6
CONTINUOUS
370
-3
390
F
  0
LAYER
  5
28D
100
AcDbSymbolTableRecord
100
AcDbLayerTableRecord
  2
0603_R_REF_55000_16
 70
0
 62
7
  6
CONTINUOUS
370
-3
390
F
  0
LAYER
  5
28E
100
AcDbSymbolTableRecord
100
AcDbLayerTableRecord
  2
0603_R_REF_55000_17
 70
0
 62
7
  6
CONTINUOUS
370
-3
390
F
  0
LAYER
  5
28F
100
AcDbSymbolTableRecord
100
AcDbLayerTableRecord
  2
0603_R_REF_55000_18
 70
0
 62
7
  6
CONTINUOUS
370
-3
390
F
  0
LAYER
  5
290
100
AcDbSymbolTableRecord
100
AcDbLayerTableRecord
  2
0603_R_REF_55000_2
 70
0
 62
7
  6
CONTINUOUS
370
-3
390
F
  0
LAYER
  5
291
100
AcDbSymbolTableRecord
100
AcDbLayerTableRecord
  2
0603_R_REF_55000_3
 70
0
 62
7
  6
CONTINUOUS
370
-3
390
F
  0
LAYER
  5
292
100
AcDbSymbolTableRecord
100
AcDbLayerTableRecord
  2
0603_R_REF_55000_4
 70
0
 62
7
  6
CONTINUOUS
370
-3
390
F
  0
LAYER
  5
293
100
AcDbSymbolTableRecord
100
AcDbLayerTableRecord
  2
0603_R_REF_55000_5
 70
0
 62
7
  6
CONTINUOUS
370
-3
390
F
  0
LAYER
  5
294
100
AcDbSymbolTableRecord
100
AcDbLayerTableRecord
  2
0603_R_REF_55000_6
 70
0
 62
7
  6
CONTINUOUS
370
-3
390
F
  0
LAYER
  5
295
100
AcDbSymbolTableRecord
100
AcDbLayerTableRecord
  2
0603_R_REF_55000_7
 70
0
 62
7
  6
CONTINUOUS
370
-3
390
F
  0
LAYER
  5
296
100
AcDbSymbolTableRecord
100
AcDbLayerTableRecord
  2
0603_R_REF_55000_8
 70
0
 62
7
  6
CONTINUOUS
370
-3
390
F
  0
LAYER
  5
297
100
AcDbSymbolTableRecord
100
AcDbLayerTableRecord
  2
0603_R_REF_55000_9
 70
0
 62
7
  6
CONTINUOUS
370
-3
390
F
  0
LAYER
  5
298
100
AcDbSymbolTableRecord
100
AcDbLayerTableRecord
  2
0603_R_WAVE_55000
 70
0
 62
7
  6
CONTINUOUS
370
-3
390
F
  0
LAYER
  5
299
100
AcDbSymbolTableRecord
100
AcDbLayerTableRecord
  2
0603_R_WAVE_55000_1
 70
0
 62
7
  6
CONTINUOUS
370
-3
390
F
  0
LAYER
  5
29A
100
AcDbSymbolTableRecord
100
AcDbLayerTableRecord
  2
0603_R_WAVE_55000_10
 70
0
 62
7
  6
CONTINUOUS
370
-3
390
F
  0
LAYER
  5
29B
100
AcDbSymbolTableRecord
100
AcDbLayerTableRecord
  2
0603_R_WAVE_55000_11
 70
0
 62
7
  6
CONTINUOUS
370
-3
390
F
  0
LAYER
  5
29C
100
AcDbSymbolTableRecord
100
AcDbLayerTableRecord
  2
0603_R_WAVE_55000_12
 70
0
 62
7
  6
CONTINUOUS
370
-3
390
F
  0
LAYER
  5
29D
100
AcDbSymbolTableRecord
100
AcDbLayerTableRecord
  2
0603_R_WAVE_55000_2
 70
0
 62
7
  6
CONTINUOUS
370
-3
390
F
  0
LAYER
  5
29E
100
AcDbSymbolTableRecord
100
AcDbLayerTableRecord
  2
0603_R_WAVE_55000_3
 70
0
 62
7
  6
CONTINUOUS
370
-3
390
F
  0
LAYER
  5
29F
100
AcDbSymbolTableRecord
100
AcDbLayerTableRecord
  2
0603_R_WAVE_55000_4
 70
0
 62
7
  6
CONTINUOUS
370
-3
390
F
  0
LAYER
  5
2A0
100
AcDbSymbolTableRecord
100
AcDbLayerTableRecord
  2
0603_R_WAVE_55000_5
 70
0
 62
7
  6
CONTINUOUS
370
-3
390
F
  0
LAYER
  5
2A1
100
AcDbSymbolTableRecord
100
AcDbLayerTableRecord
  2
0603_R_WAVE_55000_6
 70
0
 62
7
  6
CONTINUOUS
370
-3
390
F
  0
LAYER
  5
2A2
100
AcDbSymbolTableRecord
100
AcDbLayerTableRecord
  2
0603_R_WAVE_55000_7
 70
0
 62
7
  6
CONTINUOUS
370
-3
390
F
  0
LAYER
  5
2A3
100
AcDbSymbolTableRecord
100
AcDbLayerTableRecord
  2
0603_R_WAVE_55000_8
 70
0
 62
7
  6
CONTINUOUS
370
-3
390
F
  0
LAYER
  5
2A4
100
AcDbSymbolTableRecord
100
AcDbLayerTableRecord
  2
0603_R_WAVE_55000_9
 70
0
 62
7
  6
CONTINUOUS
370
-3
390
F
  0
LAYER
  5
2A5
100
AcDbSymbolTableRecord
100
AcDbLayerTableRecord
  2
06___PRT_ALL_SURFS_1
 70
0
 62
7
  6
CONTINUOUS
370
-3
390
F
  0
LAYER
  5
2A6
100
AcDbSymbolTableRecord
100
AcDbLayerTableRecord
  2
06___PRT_ALL_SURFS_10
 70
0
 62
7
  6
CONTINUOUS
370
-3
390
F
  0
LAYER
  5
2A7
100
AcDbSymbolTableRecord
100
AcDbLayerTableRecord
  2
06___PRT_ALL_SURFS_12
 70
0
 62
7
  6
CONTINUOUS
370
-3
390
F
  0
LAYER
  5
2A8
100
AcDbSymbolTableRecord
100
AcDbLayerTableRecord
  2
06___PRT_ALL_SURFS_14
 70
0
 62
7
  6
CONTINUOUS
370
-3
390
F
  0
LAYER
  5
2A9
100
AcDbSymbolTableRecord
100
AcDbLayerTableRecord
  2
06___PRT_ALL_SURFS_15
 70
0
 62
7
  6
CONTINUOUS
370
-3
390
F
  0
LAYER
  5
2AA
100
AcDbSymbolTableRecord
100
AcDbLayerTableRecord
  2
06___PRT_ALL_SURFS_16
 70
0
 62
7
  6
CONTINUOUS
370
-3
390
F
  0
LAYER
  5
2AB
100
AcDbSymbolTableRecord
100
AcDbLayerTableRecord
  2
06___PRT_ALL_SURFS_17
 70
0
 62
7
  6
CONTINUOUS
370
-3
390
F
  0
LAYER
  5
2AC
100
AcDbSymbolTableRecord
100
AcDbLayerTableRecord
  2
06___PRT_ALL_SURFS_18
 70
0
 62
7
  6
CONTINUOUS
370
-3
390
F
  0
LAYER
  5
2AD
100
AcDbSymbolTableRecord
100
AcDbLayerTableRecord
  2
06___PRT_ALL_SURFS_19
 70
0
 62
7
  6
CONTINUOUS
370
-3
390
F
  0
LAYER
  5
2AE
100
AcDbSymbolTableRecord
100
AcDbLayerTableRecord
  2
06___PRT_ALL_SURFS_2
 70
0
 62
7
  6
CONTINUOUS
370
-3
390
F
  0
LAYER
  5
2AF
100
AcDbSymbolTableRecord
100
AcDbLayerTableRecord
  2
06___PRT_ALL_SURFS_20
 70
0
 62
7
  6
CONTINUOUS
370
-3
390
F
  0
LAYER
  5
2B0
100
AcDbSymbolTableRecord
100
AcDbLayerTableRecord
  2
06___PRT_ALL_SURFS_21
 70
0
 62
7
  6
CONTINUOUS
370
-3
390
F
  0
LAYER
  5
2B1
100
AcDbSymbolTableRecord
100
AcDbLayerTableRecord
  2
06___PRT_ALL_SURFS_22
 70
0
 62
7
  6
CONTINUOUS
370
-3
390
F
  0
LAYER
  5
2B2
100
AcDbSymbolTableRecord
100
AcDbLayerTableRecord
  2
06___PRT_ALL_SURFS_23
 70
0
 62
7
  6
CONTINUOUS
370
-3
390
F
  0
LAYER
  5
2B3
100
AcDbSymbolTableRecord
100
AcDbLayerTableRecord
  2
06___PRT_ALL_SURFS_24
 70
0
 62
7
  6
CONTINUOUS
370
-3
390
F
  0
LAYER
  5
2B4
100
AcDbSymbolTableRecord
100
AcDbLayerTableRecord
  2
06___PRT_ALL_SURFS_25
 70
0
 62
7
  6
CONTINUOUS
370
-3
390
F
  0
LAYER
  5
2B5
100
AcDbSymbolTableRecord
100
AcDbLayerTableRecord
  2
06___PRT_ALL_SURFS_26
 70
0
 62
7
  6
CONTINUOUS
370
-3
390
F
  0
LAYER
  5
2B6
100
AcDbSymbolTableRecord
100
AcDbLayerTableRecord
  2
06___PRT_ALL_SURFS_28
 70
0
 62
7
  6
CONTINUOUS
370
-3
390
F
  0
LAYER
  5
2B7
100
AcDbSymbolTableRecord
100
AcDbLayerTableRecord
  2
06___PRT_ALL_SURFS_29
 70
0
 62
7
  6
CONTINUOUS
370
-3
390
F
  0
LAYER
  5
2B8
100
AcDbSymbolTableRecord
100
AcDbLayerTableRecord
  2
06___PRT_ALL_SURFS_3
 70
0
 62
7
  6
CONTINUOUS
370
-3
390
F
  0
LAYER
  5
2B9
100
AcDbSymbolTableRecord
100
AcDbLayerTableRecord
  2
06___PRT_ALL_SURFS_30
 70
0
 62
7
  6
CONTINUOUS
370
-3
390
F
  0
LAYER
  5
2BA
100
AcDbSymbolTableRecord
100
AcDbLayerTableRecord
  2
06___PRT_ALL_SURFS_31
 70
0
 62
7
  6
CONTINUOUS
370
-3
390
F
  0
LAYER
  5
2BB
100
AcDbSymbolTableRecord
100
AcDbLayerTableRecord
  2
06___PRT_ALL_SURFS_33
 70
0
 62
7
  6
CONTINUOUS
370
-3
390
F
  0
LAYER
  5
2BC
100
AcDbSymbolTableRecord
100
AcDbLayerTableRecord
  2
06___PRT_ALL_SURFS_34
 70
0
 62
7
  6
CONTINUOUS
370
-3
390
F
  0
LAYER
  5
2BD
100
AcDbSymbolTableRecord
100
AcDbLayerTableRecord
  2
06___PRT_ALL_SURFS_35
 70
0
 62
7
  6
CONTINUOUS
370
-3
390
F
  0
LAYER
  5
2BE
100
AcDbSymbolTableRecord
100
AcDbLayerTableRecord
  2
06___PRT_ALL_SURFS_37
 70
0
 62
7
  6
CONTINUOUS
370
-3
390
F
  0
LAYER
  5
2BF
100
AcDbSymbolTableRecord
100
AcDbLayerTableRecord
  2
06___PRT_ALL_SURFS_39
 70
0
 62
7
  6
CONTINUOUS
370
-3
390
F
  0
LAYER
  5
2C0
100
AcDbSymbolTableRecord
100
AcDbLayerTableRecord
  2
06___PRT_ALL_SURFS_4
 70
0
 62
7
  6
CONTINUOUS
370
-3
390
F
  0
LAYER
  5
2C1
100
AcDbSymbolTableRecord
100
AcDbLayerTableRecord
  2
06___PRT_ALL_SURFS_40
 70
0
 62
7
  6
CONTINUOUS
370
-3
390
F
  0
LAYER
  5
2C2
100
AcDbSymbolTableRecord
100
AcDbLayerTableRecord
  2
06___PRT_ALL_SURFS_41
 70
0
 62
7
  6
CONTINUOUS
370
-3
390
F
  0
LAYER
  5
2C3
100
AcDbSymbolTableRecord
100
AcDbLayerTableRecord
  2
06___PRT_ALL_SURFS_43
 70
0
 62
7
  6
CONTINUOUS
370
-3
390
F
  0
LAYER
  5
2C4
100
AcDbSymbolTableRecord
100
AcDbLayerTableRecord
  2
06___PRT_ALL_SURFS_44
 70
0
 62
7
  6
CONTINUOUS
370
-3
390
F
  0
LAYER
  5
2C5
100
AcDbSymbolTableRecord
100
AcDbLayerTableRecord
  2
06___PRT_ALL_SURFS_45
 70
0
 62
7
  6
CONTINUOUS
370
-3
390
F
  0
LAYER
  5
2C6
100
AcDbSymbolTableRecord
100
AcDbLayerTableRecord
  2
06___PRT_ALL_SURFS_5
 70
0
 62
7
  6
CONTINUOUS
370
-3
390
F
  0
LAYER
  5
2C7
100
AcDbSymbolTableRecord
100
AcDbLayerTableRecord
  2
06___PRT_ALL_SURFS_50
 70
0
 62
7
  6
CONTINUOUS
370
-3
390
F
  0
LAYER
  5
2C8
100
AcDbSymbolTableRecord
100
AcDbLayerTableRecord
  2
06___PRT_ALL_SURFS_52
 70
0
 62
7
  6
CONTINUOUS
370
-3
390
F
  0
LAYER
  5
2C9
100
AcDbSymbolTableRecord
100
AcDbLayerTableRecord
  2
06___PRT_ALL_SURFS_54
 70
0
 62
7
  6
CONTINUOUS
370
-3
390
F
  0
LAYER
  5
2CA
100
AcDbSymbolTableRecord
100
AcDbLayerTableRecord
  2
06___PRT_ALL_SURFS_56
 70
0
 62
7
  6
CONTINUOUS
370
-3
390
F
  0
LAYER
  5
2CB
100
AcDbSymbolTableRecord
100
AcDbLayerTableRecord
  2
06___PRT_ALL_SURFS_58
 70
0
 62
7
  6
CONTINUOUS
370
-3
390
F
  0
LAYER
  5
2CC
100
AcDbSymbolTableRecord
100
AcDbLayerTableRecord
  2
06___PRT_ALL_SURFS_6
 70
0
 62
7
  6
CONTINUOUS
370
-3
390
F
  0
LAYER
  5
2CD
100
AcDbSymbolTableRecord
100
AcDbLayerTableRecord
  2
06___PRT_ALL_SURFS_7
 70
0
 62
7
  6
CONTINUOUS
370
-3
390
F
  0
LAYER
  5
2CE
100
AcDbSymbolTableRecord
100
AcDbLayerTableRecord
  2
06___PRT_ALL_SURFS_8
 70
0
 62
7
  6
CONTINUOUS
370
-3
390
F
  0
LAYER
  5
2CF
100
AcDbSymbolTableRecord
100
AcDbLayerTableRecord
  2
06___PRT_ALL_SURFS_9
 70
0
 62
7
  6
CONTINUOUS
370
-3
390
F
  0
LAYER
  5
2D0
100
AcDbSymbolTableRecord
100
AcDbLayerTableRecord
  2
0805_C_REF_145000
 70
0
 62
7
  6
CONTINUOUS
370
-3
390
F
  0
LAYER
  5
2D1
100
AcDbSymbolTableRecord
100
AcDbLayerTableRecord
  2
0805_C_REF_145000_1
 70
0
 62
7
  6
CONTINUOUS
370
-3
390
F
  0
LAYER
  5
2D2
100
AcDbSymbolTableRecord
100
AcDbLayerTableRecord
  2
0805_R_REF_60000
 70
0
 62
7
  6
CONTINUOUS
370
-3
390
F
  0
LAYER
  5
2D3
100
AcDbSymbolTableRecord
100
AcDbLayerTableRecord
  2
0805_R_REF_60000_1
 70
0
 62
7
  6
CONTINUOUS
370
-3
390
F
  0
LAYER
  5
2D4
100
AcDbSymbolTableRecord
100
AcDbLayerTableRecord
  2
0805_R_REF_60000_10
 70
0
 62
7
  6
CONTINUOUS
370
-3
390
F
  0
LAYER
  5
2D5
100
AcDbSymbolTableRecord
100
AcDbLayerTableRecord
  2
0805_R_REF_60000_11
 70
0
 62
7
  6
CONTINUOUS
370
-3
390
F
  0
LAYER
  5
2D6
100
AcDbSymbolTableRecord
100
AcDbLayerTableRecord
  2
0805_R_REF_60000_12
 70
0
 62
7
  6
CONTINUOUS
370
-3
390
F
  0
LAYER
  5
2D7
100
AcDbSymbolTableRecord
100
AcDbLayerTableRecord
  2
0805_R_REF_60000_13
 70
0
 62
7
  6
CONTINUOUS
370
-3
390
F
  0
LAYER
  5
2D8
100
AcDbSymbolTableRecord
100
AcDbLayerTableRecord
  2
0805_R_REF_60000_2
 70
0
 62
7
  6
CONTINUOUS
370
-3
390
F
  0
LAYER
  5
2D9
100
AcDbSymbolTableRecord
100
AcDbLayerTableRecord
  2
0805_R_REF_60000_3
 70
0
 62
7
  6
CONTINUOUS
370
-3
390
F
  0
LAYER
  5
2DA
100
AcDbSymbolTableRecord
100
AcDbLayerTableRecord
  2
0805_R_REF_60000_4
 70
0
 62
7
  6
CONTINUOUS
370
-3
390
F
  0
LAYER
  5
2DB
100
AcDbSymbolTableRecord
100
AcDbLayerTableRecord
  2
0805_R_REF_60000_5
 70
0
 62
7
  6
CONTINUOUS
370
-3
390
F
  0
LAYER
  5
2DC
100
AcDbSymbolTableRecord
100
AcDbLayerTableRecord
  2
0805_R_REF_60000_6
 70
0
 62
7
  6
CONTINUOUS
370
-3
390
F
  0
LAYER
  5
2DD
100
AcDbSymbolTableRecord
100
AcDbLayerTableRecord
  2
0805_R_REF_60000_7
 70
0
 62
7
  6
CONTINUOUS
370
-3
390
F
  0
LAYER
  5
2DE
100
AcDbSymbolTableRecord
100
AcDbLayerTableRecord
  2
0805_R_REF_60000_8
 70
0
 62
7
  6
CONTINUOUS
370
-3
390
F
  0
LAYER
  5
2DF
100
AcDbSymbolTableRecord
100
AcDbLayerTableRecord
  2
0805_R_REF_60000_9
 70
0
 62
7
  6
CONTINUOUS
370
-3
390
F
  0
LAYER
  5
2E0
100
AcDbSymbolTableRecord
100
AcDbLayerTableRecord
  2
1206_C_REF_180000
 70
0
 62
7
  6
CONTINUOUS
370
-3
390
F
  0
LAYER
  5
2E1
100
AcDbSymbolTableRecord
100
AcDbLayerTableRecord
  2
1206_C_REF_180000_1
 70
0
 62
7
  6
CONTINUOUS
370
-3
390
F
  0
LAYER
  5
2E2
100
AcDbSymbolTableRecord
100
AcDbLayerTableRecord
  2
1206_C_WAVE_180000
 70
0
 62
7
  6
CONTINUOUS
370
-3
390
F
  0
LAYER
  5
2E3
100
AcDbSymbolTableRecord
100
AcDbLayerTableRecord
  2
1206_C_WAVE_180000_1
 70
0
 62
7
  6
CONTINUOUS
370
-3
390
F
  0
LAYER
  5
2E4
100
AcDbSymbolTableRecord
100
AcDbLayerTableRecord
  2
1206_C_WAVE_180000_2
 70
0
 62
7
  6
CONTINUOUS
370
-3
390
F
  0
LAYER
  5
2E5
100
AcDbSymbolTableRecord
100
AcDbLayerTableRecord
  2
1206_C_WAVE_180000_3
 70
0
 62
7
  6
CONTINUOUS
370
-3
390
F
  0
LAYER
  5
2E6
100
AcDbSymbolTableRecord
100
AcDbLayerTableRecord
  2
1206_R_REF_65000
 70
0
 62
7
  6
CONTINUOUS
370
-3
390
F
  0
LAYER
  5
2E7
100
AcDbSymbolTableRecord
100
AcDbLayerTableRecord
  2
1210_R_H1_REF_100000
 70
0
 62
7
  6
CONTINUOUS
370
-3
390
F
  0
LAYER
  5
2E8
100
AcDbSymbolTableRecord
100
AcDbLayerTableRecord
  2
2220_C_REF_310000
 70
0
 62
7
  6
CONTINUOUS
370
-3
390
F
  0
LAYER
  5
2E9
100
AcDbSymbolTableRecord
100
AcDbLayerTableRecord
  2
2220_C_REF_310000_1
 70
0
 62
7
  6
CONTINUOUS
370
-3
390
F
  0
LAYER
  5
2EA
100
AcDbSymbolTableRecord
100
AcDbLayerTableRecord
  2
2512_R_REF_65000
 70
0
 62
7
  6
CONTINUOUS
370
-3
390
F
  0
LAYER
  5
2EB
100
AcDbSymbolTableRecord
100
AcDbLayerTableRecord
  2
43000988A0
 70
0
 62
7
  6
CONTINUOUS
370
-3
390
F
  0
LAYER
  5
2EC
100
AcDbSymbolTableRecord
100
AcDbLayerTableRecord
  2
43000988B0
 70
0
 62
7
  6
CONTINUOUS
370
-3
390
F
  0
LAYER
  5
2ED
100
AcDbSymbolTableRecord
100
AcDbLayerTableRecord
  2
43000989A0
 70
0
 62
7
  6
CONTINUOUS
370
-3
390
F
  0
LAYER
  5
2EE
100
AcDbSymbolTableRecord
100
AcDbLayerTableRecord
  2
43000989B0
 70
0
 62
7
  6
CONTINUOUS
370
-3
390
F
  0
LAYER
  5
2EF
100
AcDbSymbolTableRecord
100
AcDbLayerTableRecord
  2
43000991A0
 70
0
 62
7
  6
CONTINUOUS
370
-3
390
F
  0
LAYER
  5
2F0
100
AcDbSymbolTableRecord
100
AcDbLayerTableRecord
  2
43001001A0
 70
0
 62
7
  6
CONTINUOUS
370
-3
390
F
  0
LAYER
  5
2F1
100
AcDbSymbolTableRecord
100
AcDbLayerTableRecord
  2
43001001B0
 70
0
 62
7
  6
CONTINUOUS
370
-3
390
F
  0
LAYER
  5
2F2
100
AcDbSymbolTableRecord
100
AcDbLayerTableRecord
  2
43900988A0
 70
0
 62
7
  6
CONTINUOUS
370
-3
390
F
  0
LAYER
  5
2F3
100
AcDbSymbolTableRecord
100
AcDbLayerTableRecord
  2
43900988B0
 70
0
 62
7
  6
CONTINUOUS
370
-3
390
F
  0
LAYER
  5
2F4
100
AcDbSymbolTableRecord
100
AcDbLayerTableRecord
  2
43900989A0
 70
0
 62
7
  6
CONTINUOUS
370
-3
390
F
  0
LAYER
  5
2F5
100
AcDbSymbolTableRecord
100
AcDbLayerTableRecord
  2
43900989B0
 70
0
 62
7
  6
CONTINUOUS
370
-3
390
F
  0
LAYER
  5
2F6
100
AcDbSymbolTableRecord
100
AcDbLayerTableRecord
  2
43900991A0
 70
0
 62
7
  6
CONTINUOUS
370
-3
390
F
  0
LAYER
  5
2F7
100
AcDbSymbolTableRecord
100
AcDbLayerTableRecord
  2
43901001A0
 70
0
 62
7
  6
CONTINUOUS
370
-3
390
F
  0
LAYER
  5
2F8
100
AcDbSymbolTableRecord
100
AcDbLayerTableRecord
  2
43901001B0
 70
0
 62
7
  6
CONTINUOUS
370
-3
390
F
  0
LAYER
  5
2F9
100
AcDbSymbolTableRecord
100
AcDbLayerTableRecord
  2
ASSI
 70
0
 62
7
  6
CONTINUOUS
370
-3
390
F
  0
LAYER
  5
2FA
100
AcDbSymbolTableRecord
100
AcDbLayerTableRecord
  2
CAP-E-SMD-6_6-6_3-7_7_810000
 70
0
 62
7
  6
CONTINUOUS
370
-3
390
F
  0
LAYER
  5
2FB
100
AcDbSymbolTableRecord
100
AcDbLayerTableRecord
  2
CAP-E-SMD-6_6-6_3-7_7_810000_1
 70
0
 62
7
  6
CONTINUOUS
370
-3
390
F
  0
LAYER
  5
2FC
100
AcDbSymbolTableRecord
100
AcDbLayerTableRecord
  2
CAP-E-SMD-6_6-6_3-7_7_810000_2
 70
0
 62
7
  6
CONTINUOUS
370
-3
390
F
  0
LAYER
  5
2FD
100
AcDbSymbolTableRecord
100
AcDbLayerTableRecord
  2
CAP-E-SMD-8_3-8_0-10_0_1050000
 70
0
 62
7
  6
CONTINUOUS
370
-3
390
F
  0
LAYER
  5
2FE
100
AcDbSymbolTableRecord
100
AcDbLayerTableRecord
  2
CAP-RND-8_0-12_5-7_0-10_0-0_0_1
 70
0
 62
7
  6
CONTINUOUS
370
-3
390
F
  0
LAYER
  5
2FF
100
AcDbSymbolTableRecord
100
AcDbLayerTableRecord
  2
CC-20MILS-VIMAR_1000
 70
0
 62
7
  6
CONTINUOUS
370
-3
390
F
  0
LAYER
  5
300
100
AcDbSymbolTableRecord
100
AcDbLayerTableRecord
  2
CN_STH_USB_TYPE-C_24P_90_SHORT
 70
0
 62
7
  6
CONTINUOUS
370
-3
390
F
  0
LAYER
  5
301
100
AcDbSymbolTableRecord
100
AcDbLayerTableRecord
  2
COLOR1
 70
0
 62
7
  6
CONTINUOUS
370
-3
390
F
  0
LAYER
  5
302
100
AcDbSymbolTableRecord
100
AcDbLayerTableRecord
  2
COLOR14
 70
0
 62
7
  6
CONTINUOUS
370
-3
390
F
  0
LAYER
  5
303
100
AcDbSymbolTableRecord
100
AcDbLayerTableRecord
  2
COLOR15
 70
0
 62
7
  6
CONTINUOUS
370
-3
390
F
  0
LAYER
  5
304
100
AcDbSymbolTableRecord
100
AcDbLayerTableRecord
  2
COLOR3
 70
0
 62
7
  6
CONTINUOUS
370
-3
390
F
  0
LAYER
  5
305
100
AcDbSymbolTableRecord
100
AcDbLayerTableRecord
  2
COLOR5
 70
0
 62
7
  6
CONTINUOUS
370
-3
390
F
  0
LAYER
  5
306
100
AcDbSymbolTableRecord
100
AcDbLayerTableRecord
  2
COLOR88
 70
0
 62
7
  6
CONTINUOUS
370
-3
390
F
  0
LAYER
  5
307
100
AcDbSymbolTableRecord
100
AcDbLayerTableRecord
  2
COLOR90
 70
0
 62
7
  6
CONTINUOUS
370
-3
390
F
  0
LAYER
  5
308
100
AcDbSymbolTableRecord
100
AcDbLayerTableRecord
  2
COLOR96
 70
0
 62
7
  6
CONTINUOUS
370
-3
390
F
  0
LAYER
  5
309
100
AcDbSymbolTableRecord
100
AcDbLayerTableRecord
  2
COLOR97
 70
0
 62
7
  6
CONTINUOUS
370
-3
390
F
  0
LAYER
  5
30A
100
AcDbSymbolTableRecord
100
AcDbLayerTableRecord
  2
COORDINATE
 70
0
 62
7
  6
CONTINUOUS
370
-3
390
F
  0
LAYER
  5
30B
100
AcDbSymbolTableRecord
100
AcDbLayerTableRecord
  2
COPY_PUBLISH
 70
0
 62
7
  6
CONTINUOUS
370
-3
390
F
  0
LAYER
  5
30C
100
AcDbSymbolTableRecord
100
AcDbLayerTableRecord
  2
COSMETIC
 70
0
 62
7
  6
CONTINUOUS
370
-3
390
F
  0
LAYER
  5
30D
100
AcDbSymbolTableRecord
100
AcDbLayerTableRecord
  2
COSMETICI
 70
0
 62
7
  6
CONTINUOUS
370
-3
390
F
  0
LAYER
  5
30E
100
AcDbSymbolTableRecord
100
AcDbLayerTableRecord
  2
CURVE
 70
0
 62
7
  6
CONTINUOUS
370
-3
390
F
  0
LAYER
  5
30F
100
AcDbSymbolTableRecord
100
AcDbLayerTableRecord
  2
DATAMATRIX_RESIST_10000
 70
0
 62
7
  6
CONTINUOUS
370
-3
390
F
  0
LAYER
  5
310
100
AcDbSymbolTableRecord
100
AcDbLayerTableRecord
  2
DATAMATRIX_RESIST_10000_1
 70
0
 62
7
  6
CONTINUOUS
370
-3
390
F
  0
LAYER
  5
311
100
AcDbSymbolTableRecord
100
AcDbLayerTableRecord
  2
DATAMATRIX_RESIST_10000_2
 70
0
 62
7
  6
CONTINUOUS
370
-3
390
F
  0
LAYER
  5
312
100
AcDbSymbolTableRecord
100
AcDbLayerTableRecord
  2
DATAMATRIX_RESIST_10000_3
 70
0
 62
7
  6
CONTINUOUS
370
-3
390
F
  0
LAYER
  5
313
100
AcDbSymbolTableRecord
100
AcDbLayerTableRecord
  2
DATAMATRIX_RESIST_10000_4
 70
0
 62
7
  6
CONTINUOUS
370
-3
390
F
  0
LAYER
  5
314
100
AcDbSymbolTableRecord
100
AcDbLayerTableRecord
  2
DATAMATRIX_RESIST_10000_5
 70
0
 62
7
  6
CONTINUOUS
370
-3
390
F
  0
LAYER
  5
315
100
AcDbSymbolTableRecord
100
AcDbLayerTableRecord
  2
DB-SMD-ABS_145000
 70
0
 62
7
  6
CONTINUOUS
370
-3
390
F
  0
LAYER
  5
316
100
AcDbSymbolTableRecord
100
AcDbLayerTableRecord
  2
DRAFT
 70
0
 62
7
  6
CONTINUOUS
370
-3
390
F
  0
LAYER
  5
317
100
AcDbSymbolTableRecord
100
AcDbLayerTableRecord
  2
E2_MARK_10000
 70
0
 62
7
  6
CONTINUOUS
370
-3
390
F
  0
LAYER
  5
318
100
AcDbSymbolTableRecord
100
AcDbLayerTableRecord
  2
E2_MARK_10000_1
 70
0
 62
7
  6
CONTINUOUS
370
-3
390
F
  0
LAYER
  5
319
100
AcDbSymbolTableRecord
100
AcDbLayerTableRecord
  2
E2_MARK_10000_2
 70
0
 62
7
  6
CONTINUOUS
370
-3
390
F
  0
LAYER
  5
31A
100
AcDbSymbolTableRecord
100
AcDbLayerTableRecord
  2
FIDUCIAL_1MM_0
 70
0
 62
7
  6
CONTINUOUS
370
-3
390
F
  0
LAYER
  5
31B
100
AcDbSymbolTableRecord
100
AcDbLayerTableRecord
  2
FIDUCIAL_1MM_0_1
 70
0
 62
7
  6
CONTINUOUS
370
-3
390
F
  0
LAYER
  5
31C
100
AcDbSymbolTableRecord
100
AcDbLayerTableRecord
  2
FIDUCIAL_1MM_0_2
 70
0
 62
7
  6
CONTINUOUS
370
-3
390
F
  0
LAYER
  5
31D
100
AcDbSymbolTableRecord
100
AcDbLayerTableRecord
  2
FIDUCIAL_1MM_0_3
 70
0
 62
7
  6
CONTINUOUS
370
-3
390
F
  0
LAYER
  5
31E
100
AcDbSymbolTableRecord
100
AcDbLayerTableRecord
  2
FIDUCIAL_1MM_0_4
 70
0
 62
7
  6
CONTINUOUS
370
-3
390
F
  0
LAYER
  5
31F
100
AcDbSymbolTableRecord
100
AcDbLayerTableRecord
  2
FIDUCIAL_1MM_0_5
 70
0
 62
7
  6
CONTINUOUS
370
-3
390
F
  0
LAYER
  5
320
100
AcDbSymbolTableRecord
100
AcDbLayerTableRecord
  2
FIDUCIAL_1_2_MM_RUOTATO_45_1000
 70
0
 62
7
  6
CONTINUOUS
370
-3
390
F
  0
LAYER
  5
321
100
AcDbSymbolTableRecord
100
AcDbLayerTableRecord
  2
FIDUCIAL_1_2_MM_RUOTATO_45_10_1
 70
0
 62
7
  6
CONTINUOUS
370
-3
390
F
  0
LAYER
  5
322
100
AcDbSymbolTableRecord
100
AcDbLayerTableRecord
  2
FIDUCIAL_1_2_MM_RUOTATO_45_10_2
 70
0
 62
7
  6
CONTINUOUS
370
-3
390
F
  0
LAYER
  5
323
100
AcDbSymbolTableRecord
100
AcDbLayerTableRecord
  2
FIDUCIAL_1_2_MM_RUOTATO_45_10_3
 70
0
 62
7
  6
CONTINUOUS
370
-3
390
F
  0
LAYER
  5
324
100
AcDbSymbolTableRecord
100
AcDbLayerTableRecord
  2
FIDUCIAL_1_2_MM_RUOTATO_45_10_4
 70
0
 62
7
  6
CONTINUOUS
370
-3
390
F
  0
LAYER
  5
325
100
AcDbSymbolTableRecord
100
AcDbLayerTableRecord
  2
FIDUCIAL_1_2_MM_RUOTATO_45_10_5
 70
0
 62
7
  6
CONTINUOUS
370
-3
390
F
  0
LAYER
  5
326
100
AcDbSymbolTableRecord
100
AcDbLayerTableRecord
  2
GEOMETRIA_SOLIDA
 70
0
 62
7
  6
CONTINUOUS
370
-3
390
F
  0
LAYER
  5
327
100
AcDbSymbolTableRecord
100
AcDbLayerTableRecord
  2
GEOMETRIA_SOLIDA_1
 70
0
 62
7
  6
CONTINUOUS
370
-3
390
F
  0
LAYER
  5
328
100
AcDbSymbolTableRecord
100
AcDbLayerTableRecord
  2
GEOMETRIA_SOLIDA_10
 70
0
 62
7
  6
CONTINUOUS
370
-3
390
F
  0
LAYER
  5
329
100
AcDbSymbolTableRecord
100
AcDbLayerTableRecord
  2
GEOMETRIA_SOLIDA_11
 70
0
 62
7
  6
CONTINUOUS
370
-3
390
F
  0
LAYER
  5
32A
100
AcDbSymbolTableRecord
100
AcDbLayerTableRecord
  2
GEOMETRIA_SOLIDA_12
 70
0
 62
7
  6
CONTINUOUS
370
-3
390
F
  0
LAYER
  5
32B
100
AcDbSymbolTableRecord
100
AcDbLayerTableRecord
  2
GEOMETRIA_SOLIDA_13
 70
0
 62
7
  6
CONTINUOUS
370
-3
390
F
  0
LAYER
  5
32C
100
AcDbSymbolTableRecord
100
AcDbLayerTableRecord
  2
GEOMETRIA_SOLIDA_14
 70
0
 62
7
  6
CONTINUOUS
370
-3
390
F
  0
LAYER
  5
32D
100
AcDbSymbolTableRecord
100
AcDbLayerTableRecord
  2
GEOMETRIA_SOLIDA_15
 70
0
 62
7
  6
CONTINUOUS
370
-3
390
F
  0
LAYER
  5
32E
100
AcDbSymbolTableRecord
100
AcDbLayerTableRecord
  2
GEOMETRIA_SOLIDA_16
 70
0
 62
7
  6
CONTINUOUS
370
-3
390
F
  0
LAYER
  5
32F
100
AcDbSymbolTableRecord
100
AcDbLayerTableRecord
  2
GEOMETRIA_SOLIDA_17
 70
0
 62
7
  6
CONTINUOUS
370
-3
390
F
  0
LAYER
  5
330
100
AcDbSymbolTableRecord
100
AcDbLayerTableRecord
  2
GEOMETRIA_SOLIDA_18
 70
0
 62
7
  6
CONTINUOUS
370
-3
390
F
  0
LAYER
  5
331
100
AcDbSymbolTableRecord
100
AcDbLayerTableRecord
  2
GEOMETRIA_SOLIDA_2
 70
0
 62
7
  6
CONTINUOUS
370
-3
390
F
  0
LAYER
  5
332
100
AcDbSymbolTableRecord
100
AcDbLayerTableRecord
  2
GEOMETRIA_SOLIDA_3
 70
0
 62
7
  6
CONTINUOUS
370
-3
390
F
  0
LAYER
  5
333
100
AcDbSymbolTableRecord
100
AcDbLayerTableRecord
  2
GEOMETRIA_SOLIDA_4
 70
0
 62
7
  6
CONTINUOUS
370
-3
390
F
  0
LAYER
  5
334
100
AcDbSymbolTableRecord
100
AcDbLayerTableRecord
  2
GEOMETRIA_SOLIDA_5
 70
0
 62
7
  6
CONTINUOUS
370
-3
390
F
  0
LAYER
  5
335
100
AcDbSymbolTableRecord
100
AcDbLayerTableRecord
  2
GEOMETRIA_SOLIDA_6
 70
0
 62
7
  6
CONTINUOUS
370
-3
390
F
  0
LAYER
  5
336
100
AcDbSymbolTableRecord
100
AcDbLayerTableRecord
  2
GEOMETRIA_SOLIDA_7
 70
0
 62
7
  6
CONTINUOUS
370
-3
390
F
  0
LAYER
  5
337
100
AcDbSymbolTableRecord
100
AcDbLayerTableRecord
  2
GEOMETRIA_SOLIDA_8
 70
0
 62
7
  6
CONTINUOUS
370
-3
390
F
  0
LAYER
  5
338
100
AcDbSymbolTableRecord
100
AcDbLayerTableRecord
  2
GEOMETRIA_SOLIDA_9
 70
0
 62
7
  6
CONTINUOUS
370
-3
390
F
  0
LAYER
  5
339
100
AcDbSymbolTableRecord
100
AcDbLayerTableRecord
  2
IGES_HOLGER
 70
0
 62
7
  6
CONTINUOUS
370
-3
390
F
  0
LAYER
  5
33A
100
AcDbSymbolTableRecord
100
AcDbLayerTableRecord
  2
IMPORT_IGES
 70
0
 62
7
  6
CONTINUOUS
370
-3
390
F
  0
LAYER
  5
33B
100
AcDbSymbolTableRecord
100
AcDbLayerTableRecord
  2
IMPORT_IGES_14
 70
0
 62
7
  6
CONTINUOUS
370
-3
390
F
  0
LAYER
  5
33C
100
AcDbSymbolTableRecord
100
AcDbLayerTableRecord
  2
IMPORT_IGES_3
 70
0
 62
7
  6
CONTINUOUS
370
-3
390
F
  0
LAYER
  5
33D
100
AcDbSymbolTableRecord
100
AcDbLayerTableRecord
  2
IND-CHIP-0504-H4_5_450000
 70
0
 62
7
  6
CONTINUOUS
370
-3
390
F
  0
LAYER
  5
33E
100
AcDbSymbolTableRecord
100
AcDbLayerTableRecord
  2
IND-CHIP-0603-H1_0_REF_100000
 70
0
 62
7
  6
CONTINUOUS
370
-3
390
F
  0
LAYER
  5
33F
100
AcDbSymbolTableRecord
100
AcDbLayerTableRecord
  2
IND-CHIP-0603-H1_0_REF_100000_1
 70
0
 62
7
  6
CONTINUOUS
370
-3
390
F
  0
LAYER
  5
340
100
AcDbSymbolTableRecord
100
AcDbLayerTableRecord
  2
IND-CHIP-0603-H1_0_REF_100000_2
 70
0
 62
7
  6
CONTINUOUS
370
-3
390
F
  0
LAYER
  5
341
100
AcDbSymbolTableRecord
100
AcDbLayerTableRecord
  2
IND-CHIP-0603-H1_0_REF_100000_3
 70
0
 62
7
  6
CONTINUOUS
370
-3
390
F
  0
LAYER
  5
342
100
AcDbSymbolTableRecord
100
AcDbLayerTableRecord
  2
IND-CHIP-0603-H1_0_WAVE_100000
 70
0
 62
7
  6
CONTINUOUS
370
-3
390
F
  0
LAYER
  5
343
100
AcDbSymbolTableRecord
100
AcDbLayerTableRecord
  2
IND-CHIP-0603-H1_0_WAVE_10000_1
 70
0
 62
7
  6
CONTINUOUS
370
-3
390
F
  0
LAYER
  5
344
100
AcDbSymbolTableRecord
100
AcDbLayerTableRecord
  2
IND-CHIP-1206-H1_8_REF_200000
 70
0
 62
7
  6
CONTINUOUS
370
-3
390
F
  0
LAYER
  5
345
100
AcDbSymbolTableRecord
100
AcDbLayerTableRecord
  2
IND-CHIP-1206-H1_8_REF_200000_1
 70
0
 62
7
  6
CONTINUOUS
370
-3
390
F
  0
LAYER
  5
346
100
AcDbSymbolTableRecord
100
AcDbLayerTableRecord
  2
IND-CHIP-1206-H1_8_REF_200000_2
 70
0
 62
7
  6
CONTINUOUS
370
-3
390
F
  0
LAYER
  5
347
100
AcDbSymbolTableRecord
100
AcDbLayerTableRecord
  2
IND-CHIP-1206-H1_8_REF_200000_3
 70
0
 62
7
  6
CONTINUOUS
370
-3
390
F
  0
LAYER
  5
348
100
AcDbSymbolTableRecord
100
AcDbLayerTableRecord
  2
IND-CHIP-1210-H2_4_240000
 70
0
 62
7
  6
CONTINUOUS
370
-3
390
F
  0
LAYER
  5
349
100
AcDbSymbolTableRecord
100
AcDbLayerTableRecord
  2
IND-RAD-7_8-9_5-5_0-0_7_950000
 70
0
 62
7
  6
CONTINUOUS
370
-3
390
F
  0
LAYER
  5
34A
100
AcDbSymbolTableRecord
100
AcDbLayerTableRecord
  2
IND-RAD-7_8-9_5-5_0-0_7_95000_1
 70
0
 62
7
  6
CONTINUOUS
370
-3
390
F
  0
LAYER
  5
34B
100
AcDbSymbolTableRecord
100
AcDbLayerTableRecord
  2
INTFCLR_1
 70
0
 62
7
  6
CONTINUOUS
370
-3
390
F
  0
LAYER
  5
34C
100
AcDbSymbolTableRecord
100
AcDbLayerTableRecord
  2
INTFCLR_2
 70
0
 62
7
  6
CONTINUOUS
370
-3
390
F
  0
LAYER
  5
34D
100
AcDbSymbolTableRecord
100
AcDbLayerTableRecord
  2
INTFCLR_3
 70
0
 62
7
  6
CONTINUOUS
370
-3
390
F
  0
LAYER
  5
34E
100
AcDbSymbolTableRecord
100
AcDbLayerTableRecord
  2
INTFCLR_4
 70
0
 62
7
  6
CONTINUOUS
370
-3
390
F
  0
LAYER
  5
34F
100
AcDbSymbolTableRecord
100
AcDbLayerTableRecord
  2
INTFCLR_5
 70
0
 62
7
  6
CONTINUOUS
370
-3
390
F
  0
LAYER
  5
350
100
AcDbSymbolTableRecord
100
AcDbLayerTableRecord
  2
INTFCLR_6
 70
0
 62
7
  6
CONTINUOUS
370
-3
390
F
  0
LAYER
  5
351
100
AcDbSymbolTableRecord
100
AcDbLayerTableRecord
  2
INTFCLR_7
 70
0
 62
7
  6
CONTINUOUS
370
-3
390
F
  0
LAYER
  5
352
100
AcDbSymbolTableRecord
100
AcDbLayerTableRecord
  2
INTF_1
 70
0
 62
7
  6
CONTINUOUS
370
-3
390
F
  0
LAYER
  5
353
100
AcDbSymbolTableRecord
100
AcDbLayerTableRecord
  2
INTF_12
 70
0
 62
7
  6
CONTINUOUS
370
-3
390
F
  0
LAYER
  5
354
100
AcDbSymbolTableRecord
100
AcDbLayerTableRecord
  2
INTF_16
 70
0
 62
7
  6
CONTINUOUS
370
-3
390
F
  0
LAYER
  5
355
100
AcDbSymbolTableRecord
100
AcDbLayerTableRecord
  2
INTF_2
 70
0
 62
7
  6
CONTINUOUS
370
-3
390
F
  0
LAYER
  5
356
100
AcDbSymbolTableRecord
100
AcDbLayerTableRecord
  2
INTF_3
 70
0
 62
7
  6
CONTINUOUS
370
-3
390
F
  0
LAYER
  5
357
100
AcDbSymbolTableRecord
100
AcDbLayerTableRecord
  2
INTF_4
 70
0
 62
7
  6
CONTINUOUS
370
-3
390
F
  0
LAYER
  5
358
100
AcDbSymbolTableRecord
100
AcDbLayerTableRecord
  2
INTF_6
 70
0
 62
7
  6
CONTINUOUS
370
-3
390
F
  0
LAYER
  5
359
100
AcDbSymbolTableRecord
100
AcDbLayerTableRecord
  2
INTF_8
 70
0
 62
7
  6
CONTINUOUS
370
-3
390
F
  0
LAYER
  5
35A
100
AcDbSymbolTableRecord
100
AcDbLayerTableRecord
  2
INTF_GREEN
 70
0
 62
7
  6
CONTINUOUS
370
-3
390
F
  0
LAYER
  5
35B
100
AcDbSymbolTableRecord
100
AcDbLayerTableRecord
  2
INTF_YELLOW
 70
0
 62
7
  6
CONTINUOUS
370
-3
390
F
  0
LAYER
  5
35C
100
AcDbSymbolTableRecord
100
AcDbLayerTableRecord
  2
LIVELLO_1
 70
0
 62
7
  6
CONTINUOUS
370
-3
390
F
  0
LAYER
  5
35D
100
AcDbSymbolTableRecord
100
AcDbLayerTableRecord
  2
LOGO_RESIST-RESTYLING_10000
 70
0
 62
7
  6
CONTINUOUS
370
-3
390
F
  0
LAYER
  5
35E
100
AcDbSymbolTableRecord
100
AcDbLayerTableRecord
  2
LOGO_RESIST-RESTYLING_10000_1
 70
0
 62
7
  6
CONTINUOUS
370
-3
390
F
  0
LAYER
  5
35F
100
AcDbSymbolTableRecord
100
AcDbLayerTableRecord
  2
LOGO_RESIST-RESTYLING_10000_2
 70
0
 62
7
  6
CONTINUOUS
370
-3
390
F
  0
LAYER
  5
360
100
AcDbSymbolTableRecord
100
AcDbLayerTableRecord
  2
LQFP48-7_0-7_0-9_0-9_0-1_6-0_5-
 70
0
 62
7
  6
CONTINUOUS
370
-3
390
F
  0
LAYER
  5
361
100
AcDbSymbolTableRecord
100
AcDbLayerTableRecord
  2
LQFP64-10_0-10_0-12_0-12_0-1_65
 70
0
 62
7
  6
CONTINUOUS
370
-3
390
F
  0
LAYER
  5
362
100
AcDbSymbolTableRecord
100
AcDbLayerTableRecord
  2
MINIMELF_R_REF_140000
 70
0
 62
7
  6
CONTINUOUS
370
-3
390
F
  0
LAYER
  5
363
100
AcDbSymbolTableRecord
100
AcDbLayerTableRecord
  2
MINIMELF_R_REF_140000_1
 70
0
 62
7
  6
CONTINUOUS
370
-3
390
F
  0
LAYER
  5
364
100
AcDbSymbolTableRecord
100
AcDbLayerTableRecord
  2
MR2P5_SAURO_MSM02001_STH_152000
 70
0
 62
7
  6
CONTINUOUS
370
-3
390
F
  0
LAYER
  5
365
100
AcDbSymbolTableRecord
100
AcDbLayerTableRecord
  2
MR2P5_SAURO_MSM02001_STH_1520_1
 70
0
 62
7
  6
CONTINUOUS
370
-3
390
F
  0
LAYER
  5
366
100
AcDbSymbolTableRecord
100
AcDbLayerTableRecord
  2
MR2P5_SAURO_MSM02001_STH_1520_2
 70
0
 62
7
  6
CONTINUOUS
370
-3
390
F
  0
LAYER
  5
367
100
AcDbSymbolTableRecord
100
AcDbLayerTableRecord
  2
MR2P5_SAURO_MSM02001_THT_CLEA_1
 70
0
 62
7
  6
CONTINUOUS
370
-3
390
F
  0
LAYER
  5
368
100
AcDbSymbolTableRecord
100
AcDbLayerTableRecord
  2
MR2P5_SAURO_MSM02001_THT_CLEA_2
 70
0
 62
7
  6
CONTINUOUS
370
-3
390
F
  0
LAYER
  5
369
100
AcDbSymbolTableRecord
100
AcDbLayerTableRecord
  2
MR2P5_SAURO_MSM02001_THT_CLEA_3
 70
0
 62
7
  6
CONTINUOUS
370
-3
390
F
  0
LAYER
  5
36A
100
AcDbSymbolTableRecord
100
AcDbLayerTableRecord
  2
NO-PB_MARK_10000
 70
0
 62
7
  6
CONTINUOUS
370
-3
390
F
  0
LAYER
  5
36B
100
AcDbSymbolTableRecord
100
AcDbLayerTableRecord
  2
NO-PB_MARK_10000_1
 70
0
 62
7
  6
CONTINUOUS
370
-3
390
F
  0
LAYER
  5
36C
100
AcDbSymbolTableRecord
100
AcDbLayerTableRecord
  2
NO-PB_MARK_10000_2
 70
0
 62
7
  6
CONTINUOUS
370
-3
390
F
  0
LAYER
  5
36D
100
AcDbSymbolTableRecord
100
AcDbLayerTableRecord
  2
NONE
 70
0
 62
7
  6
CONTINUOUS
370
-3
390
F
  0
LAYER
  5
36E
100
AcDbSymbolTableRecord
100
AcDbLayerTableRecord
  2
NONE_1
 70
0
 62
7
  6
CONTINUOUS
370
-3
390
F
  0
LAYER
  5
36F
100
AcDbSymbolTableRecord
100
AcDbLayerTableRecord
  2
NOTE
 70
0
 62
7
  6
CONTINUOUS
370
-3
390
F
  0
LAYER
  5
370
100
AcDbSymbolTableRecord
100
AcDbLayerTableRecord
  2
OPTO_VOL617A-3X001_LSOP4_230000
 70
0
 62
7
  6
CONTINUOUS
370
-3
390
F
  0
LAYER
  5
371
100
AcDbSymbolTableRecord
100
AcDbLayerTableRecord
  2
OPTO_VOL617A-3X001_LSOP4_2300_1
 70
0
 62
7
  6
CONTINUOUS
370
-3
390
F
  0
LAYER
  5
372
100
AcDbSymbolTableRecord
100
AcDbLayerTableRecord
  2
OPTO_VOL617A-3X001_LSOP4_2300_2
 70
0
 62
7
  6
CONTINUOUS
370
-3
390
F
  0
LAYER
  5
373
100
AcDbSymbolTableRecord
100
AcDbLayerTableRecord
  2
PIANI
 70
0
 62
7
  6
CONTINUOUS
370
-3
390
F
  0
LAYER
  5
374
100
AcDbSymbolTableRecord
100
AcDbLayerTableRecord
  2
PIANI_RIFERIMENTO
 70
0
 62
7
  6
CONTINUOUS
370
-3
390
F
  0
LAYER
  5
375
100
AcDbSymbolTableRecord
100
AcDbLayerTableRecord
  2
PTC_EPCOS_B57153S0100M051_13000
 70
0
 62
7
  6
CONTINUOUS
370
-3
390
F
  0
LAYER
  5
376
100
AcDbSymbolTableRecord
100
AcDbLayerTableRecord
  2
PUNTI
 70
0
 62
7
  6
CONTINUOUS
370
-3
390
F
  0
LAYER
  5
377
100
AcDbSymbolTableRecord
100
AcDbLayerTableRecord
  2
QFN24-4_0-4_0-4_0-4_0_0_9-0_5-0
 70
0
 62
7
  6
CONTINUOUS
370
-3
390
F
  0
LAYER
  5
378
100
AcDbSymbolTableRecord
100
AcDbLayerTableRecord
  2
RACCORDO
 70
0
 62
7
  6
CONTINUOUS
370
-3
390
F
  0
LAYER
  5
379
100
AcDbSymbolTableRecord
100
AcDbLayerTableRecord
  2
RGB__255__255__255__
 70
0
 62
7
  6
CONTINUOUS
370
-3
390
F
  0
LAYER
  5
37A
100
AcDbSymbolTableRecord
100
AcDbLayerTableRecord
  2
RGB____0____0____0__
 70
0
 62
7
  6
CONTINUOUS
370
-3
390
F
  0
LAYER
  5
37B
100
AcDbSymbolTableRecord
100
AcDbLayerTableRecord
  2
SIMBOLI
 70
0
 62
7
  6
CONTINUOUS
370
-3
390
F
  0
LAYER
  5
37C
100
AcDbSymbolTableRecord
100
AcDbLayerTableRecord
  2
SMUSSO
 70
0
 62
7
  6
CONTINUOUS
370
-3
390
F
  0
LAYER
  5
37D
100
AcDbSymbolTableRecord
100
AcDbLayerTableRecord
  2
SNAPLINE
 70
0
 62
7
  6
CONTINUOUS
370
-3
390
F
  0
LAYER
  5
37E
100
AcDbSymbolTableRecord
100
AcDbLayerTableRecord
  2
SOD123_REF_140000
 70
0
 62
7
  6
CONTINUOUS
370
-3
390
F
  0
LAYER
  5
37F
100
AcDbSymbolTableRecord
100
AcDbLayerTableRecord
  2
SOD80_SOD-213AA_MINIMELF_REF_16
 70
0
 62
7
  6
CONTINUOUS
370
-3
390
F
  0
LAYER
  5
380
100
AcDbSymbolTableRecord
100
AcDbLayerTableRecord
  2
SOT223_REF_H1_8_180000
 70
0
 62
7
  6
CONTINUOUS
370
-3
390
F
  0
LAYER
  5
381
100
AcDbSymbolTableRecord
100
AcDbLayerTableRecord
  2
SOT223_REF_H1_8_180000_1
 70
0
 62
7
  6
CONTINUOUS
370
-3
390
F
  0
LAYER
  5
382
100
AcDbSymbolTableRecord
100
AcDbLayerTableRecord
  2
SOT223_REF_H1_8_180000_2
 70
0
 62
7
  6
CONTINUOUS
370
-3
390
F
  0
LAYER
  5
383
100
AcDbSymbolTableRecord
100
AcDbLayerTableRecord
  2
SOT23-5_REF_H1_5_150000
 70
0
 62
7
  6
CONTINUOUS
370
-3
390
F
  0
LAYER
  5
384
100
AcDbSymbolTableRecord
100
AcDbLayerTableRecord
  2
SOT23-5_REF_H1_5_150000_1
 70
0
 62
7
  6
CONTINUOUS
370
-3
390
F
  0
LAYER
  5
385
100
AcDbSymbolTableRecord
100
AcDbLayerTableRecord
  2
SOT23-5_REF_H1_5_150000_2
 70
0
 62
7
  6
CONTINUOUS
370
-3
390
F
  0
LAYER
  5
386
100
AcDbSymbolTableRecord
100
AcDbLayerTableRecord
  2
SSOP28-10_2-7_8-2_0-REF_200000
 70
0
 62
7
  6
CONTINUOUS
370
-3
390
F
  0
LAYER
  5
387
100
AcDbSymbolTableRecord
100
AcDbLayerTableRecord
  2
SUB_SMA_143000
 70
0
 62
7
  6
CONTINUOUS
370
-3
390
F
  0
LAYER
  5
388
100
AcDbSymbolTableRecord
100
AcDbLayerTableRecord
  2
SUB_SMA_143000_1
 70
0
 62
7
  6
CONTINUOUS
370
-3
390
F
  0
LAYER
  5
389
100
AcDbSymbolTableRecord
100
AcDbLayerTableRecord
  2
SUB_SMA_143000_2
 70
0
 62
7
  6
CONTINUOUS
370
-3
390
F
  0
LAYER
  5
38A
100
AcDbSymbolTableRecord
100
AcDbLayerTableRecord
  2
SUB_SMA_143000_3
 70
0
 62
7
  6
CONTINUOUS
370
-3
390
F
  0
LAYER
  5
38B
100
AcDbSymbolTableRecord
100
AcDbLayerTableRecord
  2
SUPERFICI
 70
0
 62
7
  6
CONTINUOUS
370
-3
390
F
  0
LAYER
  5
38C
100
AcDbSymbolTableRecord
100
AcDbLayerTableRecord
  2
SUPERFICI_FILL
 70
0
 62
7
  6
CONTINUOUS
370
-3
390
F
  0
LAYER
  5
38D
100
AcDbSymbolTableRecord
100
AcDbLayerTableRecord
  2
SUP_FILL
 70
0
 62
7
  6
CONTINUOUS
370
-3
390
F
  0
LAYER
  5
38E
100
AcDbSymbolTableRecord
100
AcDbLayerTableRecord
  2
SYMBOL_DATA_10000
 70
0
 62
7
  6
CONTINUOUS
370
-3
390
F
  0
LAYER
  5
38F
100
AcDbSymbolTableRecord
100
AcDbLayerTableRecord
  2
SYMBOL_DATA_10000_1
 70
0
 62
7
  6
CONTINUOUS
370
-3
390
F
  0
LAYER
  5
390
100
AcDbSymbolTableRecord
100
AcDbLayerTableRecord
  2
SYMBOL_DATA_10000_2
 70
0
 62
7
  6
CONTINUOUS
370
-3
390
F
  0
LAYER
  5
391
100
AcDbSymbolTableRecord
100
AcDbLayerTableRecord
  2
TP-RND-1_0_3500
 70
0
 62
7
  6
CONTINUOUS
370
-3
390
F
  0
LAYER
  5
392
100
AcDbSymbolTableRecord
100
AcDbLayerTableRecord
  2
TP-RND-1_0_3500_1
 70
0
 62
7
  6
CONTINUOUS
370
-3
390
F
  0
LAYER
  5
393
100
AcDbSymbolTableRecord
100
AcDbLayerTableRecord
  2
TP10_SMD_0
 70
0
 62
7
  6
CONTINUOUS
370
-3
390
F
  0
LAYER
  5
394
100
AcDbSymbolTableRecord
100
AcDbLayerTableRecord
  2
TP10_SMD_0_1
 70
0
 62
7
  6
CONTINUOUS
370
-3
390
F
  0
LAYER
  5
395
100
AcDbSymbolTableRecord
100
AcDbLayerTableRecord
  2
TP10_SMD_0_2
 70
0
 62
7
  6
CONTINUOUS
370
-3
390
F
  0
LAYER
  5
396
100
AcDbSymbolTableRecord
100
AcDbLayerTableRecord
  2
TP_PROGRAMMAZIONE_SWD_1000
 70
0
 62
7
  6
CONTINUOUS
370
-3
390
F
  0
LAYER
  5
397
100
AcDbSymbolTableRecord
100
AcDbLayerTableRecord
  2
TP_PROGRAMMAZIONE_SWD_1000_1
 70
0
 62
7
  6
CONTINUOUS
370
-3
390
F
  0
LAYER
  5
398
100
AcDbSymbolTableRecord
100
AcDbLayerTableRecord
  2
TRASH
 70
0
 62
7
  6
CONTINUOUS
370
-3
390
F
  0
LAYER
  5
399
100
AcDbSymbolTableRecord
100
AcDbLayerTableRecord
  2
VAR_S07_D9_S3_6_H11_1100000
 70
0
 62
7
  6
CONTINUOUS
370
-3
390
F
  0
LAYER
  5
39A
100
AcDbSymbolTableRecord
100
AcDbLayerTableRecord
  2
VG_CAP-E-10_0-12_0-5_0-0_6_1400
 70
0
 62
7
  6
CONTINUOUS
370
-3
390
F
  0
LAYER
  5
39B
100
AcDbSymbolTableRecord
100
AcDbLayerTableRecord
  2
VG_CAP-E-10_0-12_0-5_0-0_6_14_1
 70
0
 62
7
  6
CONTINUOUS
370
-3
390
F
  0
LAYER
  5
39C
100
AcDbSymbolTableRecord
100
AcDbLayerTableRecord
  2
VG_CAP-E-10_0-12_0-5_0-0_6_14_2
 70
0
 62
7
  6
CONTINUOUS
370
-3
390
F
  0
LAYER
  5
39D
100
AcDbSymbolTableRecord
100
AcDbLayerTableRecord
  2
VG_CAP-E-8_0-12_0-3_5-0_6_14000
 70
0
 62
7
  6
CONTINUOUS
370
-3
390
F
  0
LAYER
  5
39E
100
AcDbSymbolTableRecord
100
AcDbLayerTableRecord
  2
VG_CAP-E-8_0-12_0-3_5-0_6_140_1
 70
0
 62
7
  6
CONTINUOUS
370
-3
390
F
  0
LAYER
  5
39F
100
AcDbSymbolTableRecord
100
AcDbLayerTableRecord
  2
VG_CAP-E-SMD-3_3-3_3-5_5_550000
 70
0
 62
7
  6
CONTINUOUS
370
-3
390
F
  0
LAYER
  5
3A0
100
AcDbSymbolTableRecord
100
AcDbLayerTableRecord
  2
VG_CAP-REC-18_0-5_0-11_0-15_0-0
 70
0
 62
7
  6
CONTINUOUS
370
-3
390
F
  0
LAYER
  5
3A1
100
AcDbSymbolTableRecord
100
AcDbLayerTableRecord
  2
VG_CN-MICROUSB-AB-F-SMT-P0_65-R
 70
0
 62
7
  6
CONTINUOUS
370
-3
390
F
  0
LAYER
  5
3A2
100
AcDbSymbolTableRecord
100
AcDbLayerTableRecord
  2
VG_CN-STRIP-M-THT-P2_54-R1-P2-S
 70
0
 62
7
  6
CONTINUOUS
370
-3
390
F
  0
LAYER
  5
3A3
100
AcDbSymbolTableRecord
100
AcDbLayerTableRecord
  2
VG_CN-STRIP-M-THT-P2_54-R1-P2_1
 70
0
 62
7
  6
CONTINUOUS
370
-3
390
F
  0
LAYER
  5
3A4
100
AcDbSymbolTableRecord
100
AcDbLayerTableRecord
  2
VG_CN_THT_HEADER_STRIP_10P_L4_P
 70
0
 62
7
  6
CONTINUOUS
370
-3
390
F
  0
LAYER
  5
3A5
100
AcDbSymbolTableRecord
100
AcDbLayerTableRecord
  2
VG_CN_THT_HEADER_STRIP_4P_P2_54
 70
0
 62
7
  6
CONTINUOUS
370
-3
390
F
  0
LAYER
  5
3A6
100
AcDbSymbolTableRecord
100
AcDbLayerTableRecord
  2
VG_DO-214AC-NP_230000
 70
0
 62
7
  6
CONTINUOUS
370
-3
390
F
  0
LAYER
  5
3A7
100
AcDbSymbolTableRecord
100
AcDbLayerTableRecord
  2
VG_DO-214AC-NP_230000_1
 70
0
 62
7
  6
CONTINUOUS
370
-3
390
F
  0
LAYER
  5
3A8
100
AcDbSymbolTableRecord
100
AcDbLayerTableRecord
  2
VG_FUSE_8_5X4_3_H7_85_805000
 70
0
 62
7
  6
CONTINUOUS
370
-3
390
F
  0
LAYER
  5
3A9
100
AcDbSymbolTableRecord
100
AcDbLayerTableRecord
  2
VG_INSOP24D-9_4-13_43-1_6-0_75-
 70
0
 62
7
  6
CONTINUOUS
370
-3
390
F
  0
LAYER
  5
3AA
100
AcDbSymbolTableRecord
100
AcDbLayerTableRecord
  2
VG_LED-SMT-1_6-1_2-0_6-SIDE_600
 70
0
 62
7
  6
CONTINUOUS
370
-3
390
F
  0
LAYER
  5
3AB
100
AcDbSymbolTableRecord
100
AcDbLayerTableRecord
  2
VG_LED-SMT-1_6-1_2-0_6-SIDE_6_1
 70
0
 62
7
  6
CONTINUOUS
370
-3
390
F
  0
LAYER
  5
3AC
100
AcDbSymbolTableRecord
100
AcDbLayerTableRecord
  2
VG_LED-SMT-1_6-1_2-0_6-SIDE_6_2
 70
0
 62
7
  6
CONTINUOUS
370
-3
390
F
  0
LAYER
  5
3AD
100
AcDbSymbolTableRecord
100
AcDbLayerTableRecord
  2
VG_LED-SMT-1_6-1_2-0_6-SIDE_6_3
 70
0
 62
7
  6
CONTINUOUS
370
-3
390
F
  0
LAYER
  5
3AE
100
AcDbSymbolTableRecord
100
AcDbLayerTableRecord
  2
VG_PB-2-7_15-6_3-6_5-SMT-SIDE_1
 70
0
 62
7
  6
CONTINUOUS
370
-3
390
F
  0
LAYER
  5
3AF
100
AcDbSymbolTableRecord
100
AcDbLayerTableRecord
  2
VG_PB-2-7_15-6_3-6_5-SMT-SIDE_6
 70
0
 62
7
  6
CONTINUOUS
370
-3
390
F
  0
LAYER
  5
3B0
100
AcDbSymbolTableRecord
100
AcDbLayerTableRecord
  2
VG_POWER56_110000
 70
0
 62
7
  6
CONTINUOUS
370
-3
390
F
  0
LAYER
  5
3B1
100
AcDbSymbolTableRecord
100
AcDbLayerTableRecord
  2
VG_SOD523_70000
 70
0
 62
7
  6
CONTINUOUS
370
-3
390
F
  0
LAYER
  5
3B2
100
AcDbSymbolTableRecord
100
AcDbLayerTableRecord
  2
VG_SOT23_H1_1_REF_110000
 70
0
 62
7
  6
CONTINUOUS
370
-3
390
F
  0
LAYER
  5
3B3
100
AcDbSymbolTableRecord
100
AcDbLayerTableRecord
  2
VG_SOT23_H1_1_REF_110000_1
 70
0
 62
7
  6
CONTINUOUS
370
-3
390
F
  0
LAYER
  5
3B4
100
AcDbSymbolTableRecord
100
AcDbLayerTableRecord
  2
VG_SOT23_H1_1_REF_110000_2
 70
0
 62
7
  6
CONTINUOUS
370
-3
390
F
  0
LAYER
  5
3B5
100
AcDbSymbolTableRecord
100
AcDbLayerTableRecord
  2
VG_SOT23_H1_1_REF_110000_3
 70
0
 62
7
  6
CONTINUOUS
370
-3
390
F
  0
LAYER
  5
3B6
100
AcDbSymbolTableRecord
100
AcDbLayerTableRecord
  2
VG_SOT23_H1_1_REF_110000_4
 70
0
 62
7
  6
CONTINUOUS
370
-3
390
F
  0
LAYER
  5
3B7
100
AcDbSymbolTableRecord
100
AcDbLayerTableRecord
  2
VG_SOT23_H1_2_REF_120000
 70
0
 62
7
  6
CONTINUOUS
370
-3
390
F
  0
LAYER
  5
3B8
100
AcDbSymbolTableRecord
100
AcDbLayerTableRecord
  2
VG_SOT23_H1_2_REF_120000_1
 70
0
 62
7
  6
CONTINUOUS
370
-3
390
F
  0
LAYER
  5
3B9
100
AcDbSymbolTableRecord
100
AcDbLayerTableRecord
  2
VG_SOT23_H1_2_REF_120000_2
 70
0
 62
7
  6
CONTINUOUS
370
-3
390
F
  0
LAYER
  5
3BA
100
AcDbSymbolTableRecord
100
AcDbLayerTableRecord
  2
VG_TRA_RM6S_7P_1250000
 70
0
 62
7
  6
CONTINUOUS
370
-3
390
F
  0
LAYER
  5
3BB
100
AcDbSymbolTableRecord
100
AcDbLayerTableRecord
  2
VG_X-SMT-4-5_0-3_2-1_5_150000
 70
0
 62
7
  6
CONTINUOUS
370
-3
390
F
  0
LAYER
  5
3BC
100
AcDbSymbolTableRecord
100
AcDbLayerTableRecord
  2
WHITE
 70
0
 62
7
  6
CONTINUOUS
370
-3
390
F
  0
LAYER
  5
3BD
100
AcDbSymbolTableRecord
100
AcDbLayerTableRecord
  2
X-SMD-3PIN-3_2-2_5_70000
 70
0
 62
7
  6
CONTINUOUS
370
-3
390
F
  0
LAYER
  5
3BE
100
AcDbSymbolTableRecord
100
AcDbLayerTableRecord
  2
X-SMD-3PIN-3_2-2_5_70000_1
 70
0
 62
7
  6
CONTINUOUS
370
-3
390
F
  0
LAYER
  5
3BF
100
AcDbSymbolTableRecord
100
AcDbLayerTableRecord
  2
___SHELL
 70
0
 62
7
  6
CONTINUOUS
370
-3
390
F
  0
ENDTAB
  0
TABLE
  2
STYLE
  5
3
100
AcDbSymbolTable
 70
1
  0
STYLE
  5
11
100
AcDbSymbolTableRecord
100
AcDbTextStyleTableRecord
  2
STANDARD
 70
0
 40
0.0
 41
0.8
 50
0.0
 71
0
 42
0.2
  3
txt
  4

  0
STYLE
  5
3C0
100
AcDbSymbolTableRecord
100
AcDbTextStyleTableRecord
  2
TEXTSTYLE_1
 70
0
 40
0.0
 41
0.8
 50
0.0
 71
0
 42
0.2
  3
gdt
  4

  0
ENDTAB
  0
TABLE
  2
VIEW
  5
6
100
AcDbSymbolTable
 70
0
  0
ENDTAB
  0
TABLE
  2
UCS
  5
7
100
AcDbSymbolTable
 70
0
  0
ENDTAB
  0
TABLE
  2
APPID
  5
9
100
AcDbSymbolTable
 70
1
  0
APPID
  5
3C1
100
AcDbSymbolTableRecord
100
AcDbRegAppTableRecord
  2
ACAD
 70
0
  0
ENDTAB
  0
TABLE
  2
BLOCK_RECORD
  5
1
100
AcDbSymbolTable
 70
0
  0
BLOCK_RECORD
  5
3C2
100
AcDbSymbolTableRecord
100
AcDbBlockTableRecord
  2
*Model_Space
  0
BLOCK_RECORD
  5
3C3
100
AcDbSymbolTableRecord
100
AcDbBlockTableRecord
  2
*Paper_Space
  0
BLOCK_RECORD
  5
3C4
100
AcDbSymbolTableRecord
100
AcDbBlockTableRecord
  2
_FILLED
  0
ENDTAB
  0
TABLE
  2
DIMSTYLE
  5
A
100
AcDbSymbolTable
 70
1
100
AcDbDimStyleTable
 71
0
  0
DIMSTYLE
105
3C5
100
AcDbSymbolTableRecord
100
AcDbDimStyleTableRecord
  2
STANDARD
 70
0
  3

  4

 40
1.0
 41
3.0
 42
0.5
 43
0.38
 44
1.5
 45
0.0
 46
0.0
 47
0.01
 48
0.01
140
3.0
141
0.09
142
0.0
143
25.4
144
1.0
145
0.0
146
1.0
147
0.625
 71
1
 72
0
 73
0
 74
0
 75
0
 76
0
 77
1
 78
8
 79
2
170
0
171
1
172
0
173
0
174
0
175
0
176
0
177
0
178
0
270
2
179
2
271
2
272
2
273
2
274
2
275
0
280
0
281
0
282
0
283
1
284
8
285
0
286
0
287
3
288
0
340
11
278
44
341
3C4
342
3C4
343
3C4
344
3C4
  0
ENDTAB
  0
ENDSEC
  0
SECTION
  2
BLOCKS
  0
BLOCK
  5
20
100
AcDbEntity
  8
0
100
AcDbBlockBegin
  2
*Model_Space
 70
0
 10
0.0
 20
0.0
 30
0.0
  3
*Model_Space
  1

  0
ENDBLK
  5
21
100
AcDbEntity
  8
0
100
AcDbBlockEnd
  0
BLOCK
  5
1C
100
AcDbEntity
  8
0
100
AcDbBlockBegin
  2
*Paper_Space
 70
0
 10
0.0
 20
0.0
 30
0.0
  3
*Paper_Space
  1

  0
ENDBLK
  5
1D
100
AcDbEntity
  8
0
100
AcDbBlockEnd
  0
BLOCK
  5
3C6
100
AcDbEntity
  8
0
100
AcDbBlockBegin
  2
_FILLED
 70
64
 10
0.0
 20
0.0
  3
_FILLED
  1

  0
SOLID
  5
3C7
100
AcDbEntity
  8
0
  6
BYBLOCK
 62
0
100
AcDbTrace
 10
0.0
 20
0.0
 11
-1.0
 21
0.3166666667
 12
-1.0
 22
-0.3166666667
 13
-1.0
 23
-0.3166666667
  0
ENDBLK
  5
3C8
100
AcDbEntity
  8
0
  6
BYBLOCK
 62
0
100
AcDbBlockEnd
  0
ENDSEC
  0
SECTION
  2
ENTITIES
  0
LINE
  5
3C9
100
AcDbEntity
  8
RACCORDO
100
AcDbLine
 62
7
  6
CONTINUOUS
 10
16.3430330614
 20
-54.8560484211
 11
-7.0047540486
 21
-54.8560484211
  0
LINE
  5
3CA
100
AcDbEntity
  8
RACCORDO
100
AcDbLine
 62
7
  6
CONTINUOUS
 10
-17.1094844382
 20
-54.8560484211
 11
-17.4572715483
 21
-54.8560484211
  0
LINE
  5
3CB
100
AcDbEntity
  8
DRAFT
100
AcDbLine
 62
7
  6
CONTINUOUS
 10
-7.0571192434
 20
-54.8036832263
 11
-17.0571192434
 21
-54.8036832263
  0
LINE
  5
3CC
100
AcDbEntity
  8
RACCORDO
100
AcDbLine
 62
7
  6
CONTINUOUS
 10
16.2383026719
 20
-54.7513180315
 11
-17.3525411587
 21
-54.7513180315
  0
LINE
  5
3CD
100
AcDbEntity
  8
0
100
AcDbLine
 62
7
  6
CONTINUOUS
 10
3.9428807566
 20
-53.9560484211
 11
-5.0571192434
 21
-53.9560484211
  0
LINE
  5
3CE
100
AcDbEntity
  8
0
100
AcDbLine
 62
7
  6
CONTINUOUS
 10
15.8878807566
 20
-53.4560484211
 11
4.9428807566
 21
-53.4560484211
  0
LINE
  5
3CF
100
AcDbEntity
  8
0
100
AcDbLine
 62
7
  6
CONTINUOUS
 10
-11.0571192434
 20
-52.8560484211
 11
-13.0571192434
 21
-52.8560484211
  0
LINE
  5
3D0
100
AcDbEntity
  8
RACCORDO
100
AcDbLine
 62
7
  6
CONTINUOUS
 10
3.342956909
 20
-50.0560484211
 11
-4.4571953958
 21
-50.0560484211
  0
LINE
  5
3D1
100
AcDbEntity
  8
RACCORDO
100
AcDbLine
 62
7
  6
CONTINUOUS
 10
3.2679001298
 20
-49.9809916419
 11
-4.3821386167
 21
-49.9809916419
  0
LINE
  5
3D2
100
AcDbEntity
  8
0
100
AcDbLine
 62
7
  6
CONTINUOUS
 10
-13.0571192434
 20
-48.8560484211
 11
-11.0571192434
 21
-48.8560484211
  0
LINE
  5
3D3
100
AcDbEntity
  8
DRAFT
100
AcDbLine
 62
7
  6
CONTINUOUS
 10
-3.8682119707
 20
-48.5560484211
 11
2.7539734838
 21
-48.5560484211
  0
LINE
  5
3D4
100
AcDbEntity
  8
0
100
AcDbLine
 62
7
  6
CONTINUOUS
 10
15.8878807566
 20
-47.1560484211
 11
13.6878807566
 21
-47.1560484211
  0
LINE
  5
3D5
100
AcDbEntity
  8
RACCORDO
100
AcDbLine
 62
7
  6
CONTINUOUS
 10
3.9428807566
 20
-46.7060484211
 11
3.8428807566
 21
-46.7060484211
  0
LINE
  5
3D6
100
AcDbEntity
  8
RACCORDO
100
AcDbLine
 62
7
  6
CONTINUOUS
 10
2.6789167046
 20
-46.7060484211
 11
-3.7931551915
 21
-46.7060484211
  0
LINE
  5
3D7
100
AcDbEntity
  8
RACCORDO
100
AcDbLine
 62
7
  6
CONTINUOUS
 10
-4.9571192434
 20
-46.7060484211
 11
-5.0571192434
 21
-46.7060484211
  0
LINE
  5
3D8
100
AcDbEntity
  8
DRAFT
100
AcDbLine
 62
7
  6
CONTINUOUS
 10
4.9428807566
 20
-46.5560484211
 11
15.8878807566
 21
-46.5560484211
  0
LINE
  5
3D9
100
AcDbEntity
  8
DRAFT
100
AcDbLine
 62
7
  6
CONTINUOUS
 10
2.705099302
 20
-46.3560484211
 11
-3.8193377889
 21
-46.3560484211
  0
LINE
  5
3DA
100
AcDbEntity
  8
DRAFT
100
AcDbLine
 62
7
  6
CONTINUOUS
 10
3.9428807566
 20
-45.2060484211
 11
3.8428807566
 21
-45.2060484211
  0
LINE
  5
3DB
100
AcDbEntity
  8
DRAFT
100
AcDbLine
 62
7
  6
CONTINUOUS
 10
-4.9571192434
 20
-45.2060484211
 11
-5.0571192434
 21
-45.2060484211
  0
LINE
  5
3DC
100
AcDbEntity
  8
DRAFT
100
AcDbLine
 62
7
  6
CONTINUOUS
 10
3.9428807566
 20
-45.1554325879
 11
3.8428807566
 21
-45.1554325879
  0
LINE
  5
3DD
100
AcDbEntity
  8
DRAFT
100
AcDbLine
 62
7
  6
CONTINUOUS
 10
-4.9571192434
 20
-45.1554325879
 11
-5.0571192434
 21
-45.1554325879
  0
LINE
  5
3DE
100
AcDbEntity
  8
DRAFT
100
AcDbLine
 62
250
  6
CONTINUOUS
 10
12.1579706267
 20
-44.7060484211
 11
12.1928807566
 21
-44.7060484211
  0
LINE
  5
3DF
100
AcDbEntity
  8
0
100
AcDbLine
 62
7
  6
CONTINUOUS
 10
-5.0571192434
 20
-44.6560484211
 11
-4.9571192434
 21
-44.6560484211
  0
LINE
  5
3E0
100
AcDbEntity
  8
0
100
AcDbLine
 62
7
  6
CONTINUOUS
 10
3.8428807566
 20
-44.6560484211
 11
3.9428807566
 21
-44.6560484211
  0
LINE
  5
3E1
100
AcDbEntity
  8
0
100
AcDbLine
 62
7
  6
CONTINUOUS
 10
-5.0571192434
 20
-43.6560484211
 11
-4.2071192434
 21
-43.6560484211
  0
LINE
  5
3E2
100
AcDbEntity
  8
0
100
AcDbLine
 62
7
  6
CONTINUOUS
 10
3.0928807566
 20
-43.6560484211
 11
3.9428807566
 21
-43.6560484211
  0
LINE
  5
3E3
100
AcDbEntity
  8
DRAFT
100
AcDbLine
 62
7
  6
CONTINUOUS
 10
-7.0047540486
 20
-54.8560484211
 11
-7.0571192434
 21
-54.8036832263
  0
LINE
  5
3E4
100
AcDbEntity
  8
DRAFT
100
AcDbLine
 62
7
  6
CONTINUOUS
 10
-18.3523888539
 20
36.1486819685
 11
-18.4571192434
 21
36.0439515789
  0
LINE
  5
3E5
100
AcDbEntity
  8
DRAFT
100
AcDbLine
 62
7
  6
CONTINUOUS
 10
-3.8193377889
 20
-41.5560484211
 11
2.705099302
 21
-41.5560484211
  0
LINE
  5
3E6
100
AcDbEntity
  8
DRAFT
100
AcDbLine
 62
7
  6
CONTINUOUS
 10
-18.3523888539
 20
-36.0607788106
 11
-18.4571192434
 21
-35.9560484211
  0
LINE
  5
3E7
100
AcDbEntity
  8
DRAFT
100
AcDbLine
 62
7
  6
CONTINUOUS
 10
-18.3523888539
 20
-36.0607788106
 11
-17.0455203863
 21
-36.0607788106
  0
LINE
  5
3E8
100
AcDbEntity
  8
DRAFT
100
AcDbLine
 62
7
  6
CONTINUOUS
 10
17.238150367
 20
-36.0607788106
 11
15.9312818994
 21
-36.0607788106
  0
LINE
  5
3E9
100
AcDbEntity
  8
DRAFT
100
AcDbLine
 62
7
  6
CONTINUOUS
 10
-17.7547540486
 20
-35.9822310184
 11
-17.0455203863
 21
-35.9822310184
  0
LINE
  5
3EA
100
AcDbEntity
  8
DRAFT
100
AcDbLine
 62
7
  6
CONTINUOUS
 10
16.6405155618
 20
-35.9822310184
 11
15.9312818994
 21
-35.9822310184
  0
LINE
  5
3EB
100
AcDbEntity
  8
DRAFT
100
AcDbLine
 62
7
  6
CONTINUOUS
 10
-18.4571192434
 20
-35.9560484211
 11
-17.780936646
 21
-35.9560484211
  0
LINE
  5
3EC
100
AcDbEntity
  8
DRAFT
100
AcDbLine
 62
7
  6
CONTINUOUS
 10
17.3428807566
 20
-35.9560484211
 11
16.6666981592
 21
-35.9560484211
  0
LINE
  5
3ED
100
AcDbEntity
  8
RACCORDO
100
AcDbLine
 62
7
  6
CONTINUOUS
 10
16.0912488085
 20
-35.8560484211
 11
17.3428807566
 21
-35.8560484211
  0
LINE
  5
3EE
100
AcDbEntity
  8
RACCORDO
100
AcDbLine
 62
7
  6
CONTINUOUS
 10
-17.2054872953
 20
-35.8560484211
 11
-18.4571192434
 21
-35.8560484211
  0
LINE
  5
3EF
100
AcDbEntity
  8
DRAFT
100
AcDbLine
 62
7
  6
CONTINUOUS
 10
-17.0745743083
 20
-35.1560484211
 11
-17.0455203863
 21
-35.1560484211
  0
LINE
  5
3F0
100
AcDbEntity
  8
DRAFT
100
AcDbLine
 62
7
  6
CONTINUOUS
 10
15.9603358215
 20
-35.1560484211
 11
15.9312818994
 21
-35.1560484211
  0
LINE
  5
3F1
100
AcDbEntity
  8
RACCORDO
100
AcDbLine
 62
250
  6
CONTINUOUS
 10
-18.3558798668
 20
-34.8560484211
 11
-17.289271607
 21
-34.8560484211
  0
LINE
  5
3F2
100
AcDbEntity
  8
RACCORDO
100
AcDbLine
 62
250
  6
CONTINUOUS
 10
16.1750331201
 20
-34.8560484211
 11
17.24164138
 21
-34.8560484211
  0
LINE
  5
3F3
100
AcDbEntity
  8
DRAFT
100
AcDbLine
 62
7
  6
CONTINUOUS
 10
-17.0867928538
 20
-34.4560484211
 11
-17.0455203863
 21
-34.4560484211
  0
LINE
  5
3F4
100
AcDbEntity
  8
DRAFT
100
AcDbLine
 62
7
  6
CONTINUOUS
 10
15.9312818994
 20
-34.4560484211
 11
15.972554367
 21
-34.4560484211
  0
LINE
  5
3F5
100
AcDbEntity
  8
DRAFT
100
AcDbLine
 62
7
  6
CONTINUOUS
 10
-3.8682119707
 20
-33.967385488
 11
-3.8071192434
 21
-33.9510157411
  0
LINE
  5
3F6
100
AcDbEntity
  8
0
100
AcDbLine
 62
7
  6
CONTINUOUS
 10
16.162562883
 20
-32.6560484211
 11
16.5750331201
 21
-32.6560484211
  0
LINE
  5
3F7
100
AcDbEntity
  8
0
100
AcDbLine
 62
7
  6
CONTINUOUS
 10
-17.2768013698
 20
-32.6560484211
 11
-17.689271607
 21
-32.6560484211
  0
LINE
  5
3F8
100
AcDbEntity
  8
DRAFT
100
AcDbLine
 62
7
  6
CONTINUOUS
 10
17.3306622111
 20
-32.6060484211
 11
17.2730604969
 21
-32.6060484211
  0
LINE
  5
3F9
100
AcDbEntity
  8
DRAFT
100
AcDbLine
 62
7
  6
CONTINUOUS
 10
-18.3872989837
 20
-32.6060484211
 11
-18.444900698
 21
-32.6060484211
  0
LINE
  5
3FA
100
AcDbEntity
  8
DRAFT
100
AcDbLine
 62
7
  6
CONTINUOUS
 10
15.8544796137
 20
-32.4560484211
 11
16.1418865646
 21
-32.4560484211
  0
LINE
  5
3FB
100
AcDbEntity
  8
DRAFT
100
AcDbLine
 62
7
  6
CONTINUOUS
 10
-16.9687181006
 20
-32.4560484211
 11
-17.2561250514
 21
-32.4560484211
  0
LINE
  5
3FC
100
AcDbEntity
  8
DRAFT
100
AcDbLine
 62
7
  6
CONTINUOUS
 10
2.7539734838
 20
-33.967385488
 11
2.6928807566
 21
-33.9510157411
  0
LINE
  5
3FD
100
AcDbEntity
  8
RACCORDO
100
AcDbLine
 62
250
  6
CONTINUOUS
 10
3.342956909
 20
-50.0560484211
 11
3.2679001298
 21
-49.9809916419
  0
LINE
  5
3FE
100
AcDbEntity
  8
RACCORDO
100
AcDbLine
 62
250
  6
CONTINUOUS
 10
3.8428807566
 20
-49.5561245735
 11
3.7678239774
 21
-49.4810677943
  0
LINE
  5
3FF
100
AcDbEntity
  8
DRAFT
100
AcDbLine
 62
7
  6
CONTINUOUS
 10
15.9952459514
 20
54.9439515789
 11
15.9428807566
 21
54.8915863842
  0
LINE
  5
400
100
AcDbEntity
  8
RACCORDO
100
AcDbLine
 62
250
  6
CONTINUOUS
 10
16.3430330614
 20
54.9439515789
 11
16.2383026719
 21
54.8392211894
  0
LINE
  5
401
100
AcDbEntity
  8
DRAFT
100
AcDbLine
 62
7
  6
CONTINUOUS
 10
2.7539734838
 20
-29.3447113541
 11
2.6928807566
 21
-29.361081101
  0
LINE
  5
402
100
AcDbEntity
  8
DRAFT
100
AcDbLine
 62
7
  6
CONTINUOUS
 10
16.0879101209
 20
-27.4146091017
 11
16.1418865646
 21
-27.4051644479
  0
LINE
  5
403
100
AcDbEntity
  8
DRAFT
100
AcDbLine
 62
7
  6
CONTINUOUS
 10
-17.2561250514
 20
-32.5069323942
 11
-17.2021486078
 21
-32.4974877404
  0
LINE
  5
404
100
AcDbEntity
  8
DRAFT
100
AcDbLine
 62
7
  6
CONTINUOUS
 10
15.8544796137
 20
-27.4560484211
 11
16.1418865646
 21
-27.4560484211
  0
LINE
  5
405
100
AcDbEntity
  8
DRAFT
100
AcDbLine
 62
7
  6
CONTINUOUS
 10
-16.9687181006
 20
-27.4560484211
 11
-17.2561250514
 21
-27.4560484211
  0
LINE
  5
406
100
AcDbEntity
  8
DRAFT
100
AcDbLine
 62
7
  6
CONTINUOUS
 10
-18.444900698
 20
-27.3060484211
 11
-18.3872989837
 21
-27.3060484211
  0
LINE
  5
407
100
AcDbEntity
  8
DRAFT
100
AcDbLine
 62
7
  6
CONTINUOUS
 10
17.2730604969
 20
-27.3060484211
 11
17.3306622111
 21
-27.3060484211
  0
LINE
  5
408
100
AcDbEntity
  8
0
100
AcDbLine
 62
7
  6
CONTINUOUS
 10
16.162562883
 20
-27.2560484211
 11
16.5750331201
 21
-27.2560484211
  0
LINE
  5
409
100
AcDbEntity
  8
0
100
AcDbLine
 62
7
  6
CONTINUOUS
 10
-17.2768013698
 20
-27.2560484211
 11
-17.689271607
 21
-27.2560484211
  0
LINE
  5
40A
100
AcDbEntity
  8
DRAFT
100
AcDbLine
 62
7
  6
CONTINUOUS
 10
-17.2021486078
 20
-27.4146091017
 11
-17.2561250514
 21
-27.4051644479
  0
LINE
  5
40B
100
AcDbEntity
  8
DRAFT
100
AcDbLine
 62
7
  6
CONTINUOUS
 10
16.1418865646
 20
-32.5069323942
 11
16.0879101209
 21
-32.4974877404
  0
LINE
  5
40C
100
AcDbEntity
  8
DRAFT
100
AcDbLine
 62
7
  6
CONTINUOUS
 10
-3.8682119707
 20
-29.3447113541
 11
-3.8071192434
 21
-29.361081101
  0
LINE
  5
40D
100
AcDbEntity
  8
RACCORDO
100
AcDbLine
 62
250
  6
CONTINUOUS
 10
16.2383026719
 20
-54.7513180315
 11
16.3430330614
 21
-54.8560484211
  0
LINE
  5
40E
100
AcDbEntity
  8
DRAFT
100
AcDbLine
 62
7
  6
CONTINUOUS
 10
-18.3523888539
 20
18.1083982546
 11
-18.4571192434
 21
17.7939515789
  0
LINE
  5
40F
100
AcDbEntity
  8
RACCORDO
100
AcDbLine
 62
250
  6
CONTINUOUS
 10
17.3428807566
 20
53.9441038838
 11
17.238150367
 21
53.8393734942
  0
LINE
  5
410
100
AcDbEntity
  8
RACCORDO
100
AcDbLine
 62
250
  6
CONTINUOUS
 10
-18.3558798668
 20
-25.0560484211
 11
-17.289271607
 21
-25.0560484211
  0
LINE
  5
411
100
AcDbEntity
  8
RACCORDO
100
AcDbLine
 62
250
  6
CONTINUOUS
 10
16.1750331201
 20
-25.0560484211
 11
17.24164138
 21
-25.0560484211
  0
LINE
  5
412
100
AcDbEntity
  8
RACCORDO
100
AcDbLine
 62
7
  6
CONTINUOUS
 10
16.0912488085
 20
-24.0560484211
 11
17.3428807566
 21
-24.0560484211
  0
LINE
  5
413
100
AcDbEntity
  8
RACCORDO
100
AcDbLine
 62
7
  6
CONTINUOUS
 10
-17.2054872953
 20
-24.0560484211
 11
-18.4571192434
 21
-24.0560484211
  0
LINE
  5
414
100
AcDbEntity
  8
DRAFT
100
AcDbLine
 62
7
  6
CONTINUOUS
 10
-18.4571192434
 20
-23.9560484211
 11
-17.780936646
 21
-23.9560484211
  0
LINE
  5
415
100
AcDbEntity
  8
DRAFT
100
AcDbLine
 62
7
  6
CONTINUOUS
 10
17.3428807566
 20
-23.9560484211
 11
16.6666981592
 21
-23.9560484211
  0
LINE
  5
416
100
AcDbEntity
  8
DRAFT
100
AcDbLine
 62
7
  6
CONTINUOUS
 10
-17.7599905681
 20
-23.9351023431
 11
-17.0455203863
 21
-23.9351023431
  0
LINE
  5
417
100
AcDbEntity
  8
DRAFT
100
AcDbLine
 62
7
  6
CONTINUOUS
 10
16.6457520813
 20
-23.9351023431
 11
15.9312818994
 21
-23.9351023431
  0
LINE
  5
418
100
AcDbEntity
  8
DRAFT
100
AcDbLine
 62
7
  6
CONTINUOUS
 10
-18.3523888539
 20
-23.8513180315
 11
-17.0455203863
 21
-23.8513180315
  0
LINE
  5
419
100
AcDbEntity
  8
DRAFT
100
AcDbLine
 62
7
  6
CONTINUOUS
 10
17.238150367
 20
-23.8513180315
 11
15.9312818994
 21
-23.8513180315
  0
LINE
  5
41A
100
AcDbEntity
  8
RACCORDO
100
AcDbLine
 62
250
  6
CONTINUOUS
 10
17.238150367
 20
-53.7514703363
 11
17.3428807566
 21
-53.8562007259
  0
LINE
  5
41B
100
AcDbEntity
  8
DRAFT
100
AcDbLine
 62
7
  6
CONTINUOUS
 10
-18.3523888539
 20
-20.5204950968
 11
-18.4134815811
 21
-20.3370678693
  0
LINE
  5
41C
100
AcDbEntity
  8
SMUSSO
100
AcDbLine
 62
7
  6
CONTINUOUS
 10
-18.4263758886
 20
-17.7983534891
 11
-18.4571192434
 21
-17.7060484211
  0
LINE
  5
41D
100
AcDbEntity
  8
0
100
AcDbLine
 62
7
  6
CONTINUOUS
 10
-5.0571192434
 20
-21.2060484211
 11
-4.2071192434
 21
-21.2060484211
  0
LINE
  5
41E
100
AcDbEntity
  8
0
100
AcDbLine
 62
7
  6
CONTINUOUS
 10
-3.7931551915
 20
-21.2060484211
 11
-3.7071192434
 21
-21.2060484211
  0
LINE
  5
41F
100
AcDbEntity
  8
0
100
AcDbLine
 62
7
  6
CONTINUOUS
 10
2.5928807566
 20
-21.2060484211
 11
2.6789167046
 21
-21.2060484211
  0
LINE
  5
420
100
AcDbEntity
  8
0
100
AcDbLine
 62
7
  6
CONTINUOUS
 10
3.0928807566
 20
-21.2060484211
 11
3.9428807566
 21
-21.2060484211
  0
LINE
  5
421
100
AcDbEntity
  8
DRAFT
100
AcDbLine
 62
7
  6
CONTINUOUS
 10
17.238150367
 20
-20.5204950968
 11
3.9428807566
 21
-20.5204950968
  0
LINE
  5
422
100
AcDbEntity
  8
DRAFT
100
AcDbLine
 62
7
  6
CONTINUOUS
 10
-5.0571192434
 20
-20.5204950968
 11
-18.3523888539
 21
-20.5204950968
  0
LINE
  5
423
100
AcDbEntity
  8
DRAFT
100
AcDbLine
 62
7
  6
CONTINUOUS
 10
17.2992430943
 20
-20.3370678693
 11
3.9428807566
 21
-20.3370678693
  0
LINE
  5
424
100
AcDbEntity
  8
DRAFT
100
AcDbLine
 62
7
  6
CONTINUOUS
 10
-5.0571192434
 20
-20.3370678693
 11
-18.4134815811
 21
-20.3370678693
  0
LINE
  5
425
100
AcDbEntity
  8
DRAFT
100
AcDbLine
 62
7
  6
CONTINUOUS
 10
2.7539734838
 20
-19.2560484211
 11
-3.8682119707
 21
-19.2560484211
  0
LINE
  5
426
100
AcDbEntity
  8
DRAFT
100
AcDbLine
 62
7
  6
CONTINUOUS
 10
-3.8682119707
 20
-33.967385488
 11
-4.2071192434
 21
-33.3803808726
  0
LINE
  5
427
100
AcDbEntity
  8
DRAFT
100
AcDbLine
 62
7
  6
CONTINUOUS
 10
-4.2071192434
 20
-33.2581954181
 11
-3.8071192434
 21
-33.9510157411
  0
LINE
  5
428
100
AcDbEntity
  8
SMUSSO
100
AcDbLine
 62
7
  6
CONTINUOUS
 10
-18.4134815811
 20
-18.5370678693
 11
-18.4263758886
 21
-17.7983534891
  0
LINE
  5
429
100
AcDbEntity
  8
DRAFT
100
AcDbLine
 62
7
  6
CONTINUOUS
 10
-17.0867928538
 20
-34.4560484211
 11
-17.0745743083
 21
-35.1560484211
  0
LINE
  5
42A
100
AcDbEntity
  8
RACCORDO
100
AcDbLine
 62
7
  6
CONTINUOUS
 10
-18.4571192434
 20
-35.8560484211
 11
-18.4571192434
 21
-53.8562007259
  0
LINE
  5
42B
100
AcDbEntity
  8
RACCORDO
100
AcDbLine
 62
7
  6
CONTINUOUS
 10
-18.4571192434
 20
35.9439515789
 11
-18.4571192434
 21
53.9441038838
  0
LINE
  5
42C
100
AcDbEntity
  8
DRAFT
100
AcDbLine
 62
7
  6
CONTINUOUS
 10
-18.4571192434
 20
-35.8560484211
 11
-18.4571192434
 21
35.9439515789
  0
LINE
  5
42D
100
AcDbEntity
  8
DRAFT
100
AcDbLine
 62
7
  6
CONTINUOUS
 10
-18.444900698
 20
-32.6060484211
 11
-18.444900698
 21
-27.3060484211
  0
LINE
  5
42E
100
AcDbEntity
  8
DRAFT
100
AcDbLine
 62
7
  6
CONTINUOUS
 10
-18.444900698
 20
27.3939515789
 11
-18.444900698
 21
32.6939515789
  0
LINE
  5
42F
100
AcDbEntity
  8
SMUSSO
100
AcDbLine
 62
7
  6
CONTINUOUS
 10
-18.4134815811
 20
-20.3370678693
 11
-18.4134815811
 21
-18.5370678693
  0
LINE
  5
430
100
AcDbEntity
  8
DRAFT
100
AcDbLine
 62
7
  6
CONTINUOUS
 10
-18.3872989837
 20
32.6939515789
 11
-18.3872989837
 21
27.3939515789
  0
LINE
  5
431
100
AcDbEntity
  8
DRAFT
100
AcDbLine
 62
7
  6
CONTINUOUS
 10
-18.3872989837
 20
-27.3060484211
 11
-18.3872989837
 21
-32.6060484211
  0
LINE
  5
432
100
AcDbEntity
  8
RACCORDO
100
AcDbLine
 62
7
  6
CONTINUOUS
 10
-18.3558798668
 20
-34.8560484211
 11
-18.3558798668
 21
-25.0560484211
  0
LINE
  5
433
100
AcDbEntity
  8
RACCORDO
100
AcDbLine
 62
7
  6
CONTINUOUS
 10
-18.3558798668
 20
25.1439515789
 11
-18.3558798668
 21
34.9439515789
  0
LINE
  5
434
100
AcDbEntity
  8
RACCORDO
100
AcDbLine
 62
7
  6
CONTINUOUS
 10
-18.3523888539
 20
-53.7514703363
 11
-18.3523888539
 21
-36.0607788106
  0
LINE
  5
435
100
AcDbEntity
  8
DRAFT
100
AcDbLine
 62
7
  6
CONTINUOUS
 10
-18.3523888539
 20
-23.8513180315
 11
-18.3523888539
 21
-20.5204950968
  0
LINE
  5
436
100
AcDbEntity
  8
DRAFT
100
AcDbLine
 62
7
  6
CONTINUOUS
 10
-18.3523888539
 20
18.1083982546
 11
-18.3523888539
 21
23.9392211894
  0
LINE
  5
437
100
AcDbEntity
  8
RACCORDO
100
AcDbLine
 62
7
  6
CONTINUOUS
 10
-18.3523888539
 20
36.1486819685
 11
-18.3523888539
 21
53.8393734942
  0
LINE
  5
438
100
AcDbEntity
  8
DRAFT
100
AcDbLine
 62
7
  6
CONTINUOUS
 10
-17.7960265162
 20
-23.9560484211
 11
-17.7960265162
 21
-24.0560484211
  0
LINE
  5
439
100
AcDbEntity
  8
DRAFT
100
AcDbLine
 62
7
  6
CONTINUOUS
 10
-17.7960265162
 20
-35.8560484211
 11
-17.7960265162
 21
-35.9560484211
  0
LINE
  5
43A
100
AcDbEntity
  8
DRAFT
100
AcDbLine
 62
7
  6
CONTINUOUS
 10
-17.7960265162
 20
24.0439515789
 11
-17.7960265162
 21
24.1439515789
  0
LINE
  5
43B
100
AcDbEntity
  8
DRAFT
100
AcDbLine
 62
7
  6
CONTINUOUS
 10
-17.7960265162
 20
35.9439515789
 11
-17.7960265162
 21
36.0439515789
  0
LINE
  5
43C
100
AcDbEntity
  8
DRAFT
100
AcDbLine
 62
7
  6
CONTINUOUS
 10
-17.7785714512
 20
36.0701341763
 11
-17.7785714512
 21
35.9439515789
  0
LINE
  5
43D
100
AcDbEntity
  8
DRAFT
100
AcDbLine
 62
7
  6
CONTINUOUS
 10
-17.7785714512
 20
24.1439515789
 11
-17.7785714512
 21
24.023005501
  0
LINE
  5
43E
100
AcDbEntity
  8
DRAFT
100
AcDbLine
 62
7
  6
CONTINUOUS
 10
-17.7785714512
 20
-23.9351023431
 11
-17.7785714512
 21
-24.0560484211
  0
LINE
  5
43F
100
AcDbEntity
  8
DRAFT
100
AcDbLine
 62
7
  6
CONTINUOUS
 10
-17.7785714512
 20
-35.8560484211
 11
-17.7785714512
 21
-35.9822310184
  0
LINE
  5
440
100
AcDbEntity
  8
0
100
AcDbLine
 62
7
  6
CONTINUOUS
 10
-17.689271607
 20
32.7439515789
 11
-17.689271607
 21
27.3439515789
  0
LINE
  5
441
100
AcDbEntity
  8
0
100
AcDbLine
 62
7
  6
CONTINUOUS
 10
-17.689271607
 20
-32.6560484211
 11
-17.689271607
 21
-27.2560484211
  0
LINE
  5
442
100
AcDbEntity
  8
RACCORDO
100
AcDbLine
 62
7
  6
CONTINUOUS
 10
-17.289271607
 20
-34.8560484211
 11
-17.289271607
 21
-32.6560484211
  0
LINE
  5
443
100
AcDbEntity
  8
RACCORDO
100
AcDbLine
 62
7
  6
CONTINUOUS
 10
-17.289271607
 20
-27.2560484211
 11
-17.289271607
 21
-25.0560484211
  0
LINE
  5
444
100
AcDbEntity
  8
RACCORDO
100
AcDbLine
 62
7
  6
CONTINUOUS
 10
-17.289271607
 20
25.1439515789
 11
-17.289271607
 21
27.3439515789
  0
LINE
  5
445
100
AcDbEntity
  8
RACCORDO
100
AcDbLine
 62
7
  6
CONTINUOUS
 10
-17.289271607
 20
32.7439515789
 11
-17.289271607
 21
34.9439515789
  0
LINE
  5
446
100
AcDbEntity
  8
0
100
AcDbLine
 62
7
  6
CONTINUOUS
 10
-17.2768013698
 20
32.7439515789
 11
-17.2768013698
 21
27.3439515789
  0
LINE
  5
447
100
AcDbEntity
  8
0
100
AcDbLine
 62
7
  6
CONTINUOUS
 10
-17.2768013698
 20
-32.6560484211
 11
-17.2768013698
 21
-27.2560484211
  0
LINE
  5
448
100
AcDbEntity
  8
DRAFT
100
AcDbLine
 62
7
  6
CONTINUOUS
 10
-17.2561250514
 20
32.5948355521
 11
-17.2561250514
 21
27.4930676058
  0
LINE
  5
449
100
AcDbEntity
  8
DRAFT
100
AcDbLine
 62
7
  6
CONTINUOUS
 10
-17.2561250514
 20
-27.4051644479
 11
-17.2561250514
 21
-32.5069323942
  0
LINE
  5
44A
100
AcDbEntity
  8
DRAFT
100
AcDbLine
 62
7
  6
CONTINUOUS
 10
-17.2054872953
 20
36.0701341763
 11
-17.2054872953
 21
35.9439515789
  0
LINE
  5
44B
100
AcDbEntity
  8
DRAFT
100
AcDbLine
 62
7
  6
CONTINUOUS
 10
-17.2054872953
 20
24.1439515789
 11
-17.2054872953
 21
24.023005501
  0
LINE
  5
44C
100
AcDbEntity
  8
DRAFT
100
AcDbLine
 62
7
  6
CONTINUOUS
 10
-17.2054872953
 20
-23.9351023431
 11
-17.2054872953
 21
-24.0560484211
  0
LINE
  5
44D
100
AcDbEntity
  8
DRAFT
100
AcDbLine
 62
7
  6
CONTINUOUS
 10
-17.2054872953
 20
-35.8560484211
 11
-17.2054872953
 21
-35.9822310184
  0
LINE
  5
44E
100
AcDbEntity
  8
DRAFT
100
AcDbLine
 62
7
  6
CONTINUOUS
 10
-17.2021486078
 20
-32.4974877404
 11
-17.2021486078
 21
-32.4560484211
  0
LINE
  5
44F
100
AcDbEntity
  8
DRAFT
100
AcDbLine
 62
7
  6
CONTINUOUS
 10
-17.2021486078
 20
-27.4560484211
 11
-17.2021486078
 21
-27.4146091017
  0
LINE
  5
450
100
AcDbEntity
  8
DRAFT
100
AcDbLine
 62
7
  6
CONTINUOUS
 10
-17.2021486078
 20
27.5025122596
 11
-17.2021486078
 21
27.5439515789
  0
LINE
  5
451
100
AcDbEntity
  8
DRAFT
100
AcDbLine
 62
7
  6
CONTINUOUS
 10
-17.2021486078
 20
32.5439515789
 11
-17.2021486078
 21
32.5853908983
  0
LINE
  5
452
100
AcDbEntity
  8
0
100
AcDbLine
 62
7
  6
CONTINUOUS
 10
-17.1251939966
 20
27.5439515789
 11
-17.1251939966
 21
24.023005501
  0
LINE
  5
453
100
AcDbEntity
  8
0
100
AcDbLine
 62
7
  6
CONTINUOUS
 10
-17.1251939966
 20
-23.9351023431
 11
-17.1251939966
 21
-27.4560484211
  0
LINE
  5
454
100
AcDbEntity
  8
DRAFT
100
AcDbLine
 62
7
  6
CONTINUOUS
 10
-17.0867928538
 20
34.5439515789
 11
-17.0867928538
 21
32.5439515789
  0
LINE
  5
455
100
AcDbEntity
  8
DRAFT
100
AcDbLine
 62
7
  6
CONTINUOUS
 10
-17.0867928538
 20
-32.4560484211
 11
-17.0867928538
 21
-34.4560484211
  0
LINE
  5
456
100
AcDbEntity
  8
DRAFT
100
AcDbLine
 62
7
  6
CONTINUOUS
 10
-17.0745743083
 20
36.0701341763
 11
-17.0745743083
 21
35.2439515789
  0
LINE
  5
457
100
AcDbEntity
  8
DRAFT
100
AcDbLine
 62
7
  6
CONTINUOUS
 10
-17.0745743083
 20
-35.1560484211
 11
-17.0745743083
 21
-35.9822310184
  0
LINE
  5
458
100
AcDbEntity
  8
DRAFT
100
AcDbLine
 62
7
  6
CONTINUOUS
 10
-17.0455203863
 20
36.1486819685
 11
-17.0455203863
 21
32.5439515789
  0
LINE
  5
459
100
AcDbEntity
  8
DRAFT
100
AcDbLine
 62
7
  6
CONTINUOUS
 10
-17.0455203863
 20
27.5439515789
 11
-17.0455203863
 21
23.9392211894
  0
LINE
  5
45A
100
AcDbEntity
  8
DRAFT
100
AcDbLine
 62
7
  6
CONTINUOUS
 10
-17.0455203863
 20
-23.8513180315
 11
-17.0455203863
 21
-27.4560484211
  0
LINE
  5
45B
100
AcDbEntity
  8
DRAFT
100
AcDbLine
 62
7
  6
CONTINUOUS
 10
-17.0455203863
 20
-32.4560484211
 11
-17.0455203863
 21
-36.0607788106
  0
LINE
  5
45C
100
AcDbEntity
  8
DRAFT
100
AcDbLine
 62
7
  6
CONTINUOUS
 10
-17.0071192434
 20
32.5439515789
 11
-17.0071192434
 21
27.5439515789
  0
LINE
  5
45D
100
AcDbEntity
  8
DRAFT
100
AcDbLine
 62
7
  6
CONTINUOUS
 10
-17.0071192434
 20
-27.4560484211
 11
-17.0071192434
 21
-32.4560484211
  0
LINE
  5
45E
100
AcDbEntity
  8
DRAFT
100
AcDbLine
 62
7
  6
CONTINUOUS
 10
-17.0021192434
 20
46.5186182134
 11
-17.0021192434
 21
53.5439515789
  0
LINE
  5
45F
100
AcDbEntity
  8
DRAFT
100
AcDbLine
 62
7
  6
CONTINUOUS
 10
-16.9687181006
 20
32.5439515789
 11
-16.9687181006
 21
27.5439515789
  0
LINE
  5
460
100
AcDbEntity
  8
DRAFT
100
AcDbLine
 62
7
  6
CONTINUOUS
 10
-16.9687181006
 20
-27.4560484211
 11
-16.9687181006
 21
-32.4560484211
  0
LINE
  5
461
100
AcDbEntity
  8
DRAFT
100
AcDbLine
 62
7
  6
CONTINUOUS
 10
-15.5571192434
 20
18.0615913058
 11
-15.5571192434
 21
15.9939515789
  0
LINE
  5
462
100
AcDbEntity
  8
DRAFT
100
AcDbLine
 62
7
  6
CONTINUOUS
 10
-17.0745743083
 20
35.2439515789
 11
-17.0867928538
 21
34.5439515789
  0
LINE
  5
463
100
AcDbEntity
  8
SMUSSO
100
AcDbLine
 62
7
  6
CONTINUOUS
 10
17.2992430943
 20
-18.5370678693
 11
3.9428807566
 21
-18.5370678693
  0
LINE
  5
464
100
AcDbEntity
  8
SMUSSO
100
AcDbLine
 62
7
  6
CONTINUOUS
 10
-5.0571192434
 20
-18.5370678693
 11
-18.4134815811
 21
-18.5370678693
  0
LINE
  5
465
100
AcDbEntity
  8
SMUSSO
100
AcDbLine
 62
7
  6
CONTINUOUS
 10
17.3121374017
 20
-17.7983534891
 11
3.9428807566
 21
-17.7983534891
  0
LINE
  5
466
100
AcDbEntity
  8
SMUSSO
100
AcDbLine
 62
7
  6
CONTINUOUS
 10
-5.0571192434
 20
-17.7983534891
 11
-18.4263758886
 21
-17.7983534891
  0
LINE
  5
467
100
AcDbEntity
  8
DRAFT
100
AcDbLine
 62
7
  6
CONTINUOUS
 10
17.3428807566
 20
-17.7060484211
 11
3.9428807566
 21
-17.7060484211
  0
LINE
  5
468
100
AcDbEntity
  8
DRAFT
100
AcDbLine
 62
7
  6
CONTINUOUS
 10
-5.0571192434
 20
-17.7060484211
 11
-18.4571192434
 21
-17.7060484211
  0
LINE
  5
469
100
AcDbEntity
  8
DRAFT
100
AcDbLine
 62
7
  6
CONTINUOUS
 10
-4.8820624642
 20
-17.5560484211
 11
3.7678239774
 21
-17.5560484211
  0
LINE
  5
46A
100
AcDbEntity
  8
DRAFT
100
AcDbLine
 62
7
  6
CONTINUOUS
 10
-4.9169725941
 20
-15.5560484211
 11
3.8027341072
 21
-15.5560484211
  0
LINE
  5
46B
100
AcDbEntity
  8
0
100
AcDbLine
 62
7
  6
CONTINUOUS
 10
-14.8021192434
 20
53.5439515789
 11
-14.8021192434
 21
47.2439515789
  0
LINE
  5
46C
100
AcDbEntity
  8
DRAFT
100
AcDbLine
 62
7
  6
CONTINUOUS
 10
-13.8071192434
 20
15.9939515789
 11
-13.8071192434
 21
18.0615913058
  0
LINE
  5
46D
100
AcDbEntity
  8
DRAFT
100
AcDbLine
 62
7
  6
CONTINUOUS
 10
-13.3071192434
 20
44.7939515789
 11
-13.3071192434
 21
46.6439515789
  0
LINE
  5
46E
100
AcDbEntity
  8
DRAFT
100
AcDbLine
 62
7
  6
CONTINUOUS
 10
-13.2722091136
 20
44.7939515789
 11
-13.2722091136
 21
46.6439515789
  0
LINE
  5
46F
100
AcDbEntity
  8
DRAFT
100
AcDbLine
 62
7
  6
CONTINUOUS
 10
-12.3071192434
 20
18.0615913058
 11
-12.3071192434
 21
15.9939515789
  0
LINE
  5
470
100
AcDbEntity
  8
DRAFT
100
AcDbLine
 62
7
  6
CONTINUOUS
 10
3.0928807566
 20
-30.0539014241
 11
2.6928807566
 21
-29.361081101
  0
LINE
  5
471
100
AcDbEntity
  8
DRAFT
100
AcDbLine
 62
7
  6
CONTINUOUS
 10
3.0928807566
 20
-29.9317159696
 11
2.7539734838
 21
-29.3447113541
  0
LINE
  5
472
100
AcDbEntity
  8
0
100
AcDbLine
 62
7
  6
CONTINUOUS
 10
-8.3675991586
 20
-10.277312825
 11
-8.3098958615
 21
-10.4235183006
  0
LINE
  5
473
100
AcDbEntity
  8
0
100
AcDbLine
 62
7
  6
CONTINUOUS
 10
-10.5571192434
 20
-5.8638797464
 11
-10.0603196118
 21
-7.1560484211
  0
LWPOLYLINE
  5
474
100
AcDbEntity
  8
0
100
AcDbPolyline
 62
7
  6
CONTINUOUS
 90
37
 70
0
 10
-10.5571192434
 20
-8.7036387825
 10
-10.5515280755
 20
-8.7407246188
 10
-10.5428300536
 20
-8.776741572
 10
-10.5310251777
 20
-8.8116896422
 10
-10.5157616959
 20
-8.8461259742
 10
-10.4973913602
 20
-8.8794934232
 10
-10.4769694255
 20
-8.9101205543
 10
-10.4548345227
 20
-8.9373959598
 10
-10.4306480209
 20
-8.9619310475
 10
-10.404449283
 20
-8.9838886056
 10
-10.3764399581
 20
-9.003347978
 10
-10.346418397
 20
-9.0202298209
 10
-10.3138190147
 20
-9.0344588915
 10
-10.2781246188
 20
-9.0461975695
 10
-10.2398524017
 20
-9.0552834751
 10
-10.1999883556
 20
-9.061154226
 10
-10.157818024
 20
-9.063627295
 10
-10.1140558635
 20
-9.0628852093
 10
-10.0718312359
 20
-9.0589131676
 10
-10.0320538248
 20
-9.0516476187
 10
-9.9938139466
 20
-9.041152114
 10
-9.9575119127
 20
-9.027602506
 10
-9.92321815
 20
-9.0108887251
 10
-9.8908622316
 20
-8.991120841
 10
-9.8606331887
 20
-8.9688049154
 10
-9.8322255629
 20
-8.9436375508
 10
-9.8059448127
 20
-8.9159221447
 10
-9.7828963438
 20
-8.887074952
 10
-9.7635279171
 20
-8.8576621905
 10
-9.7473917717
 20
-8.8271176424
 10
-9.734250031
 20
-8.7951589098
 10
-9.7240327331
 20
-8.7612129683
 10
-9.71680984
 20
-8.7258528422
 10
-9.7125533601
 20
-8.6905152071
 10
-9.7113608465
 20
-8.6550221463
 10
-9.7131347462
 20
-8.6195515765
 10
-9.7175544091
 20
-8.5860739234
  0
LWPOLYLINE
  5
475
100
AcDbEntity
  8
0
100
AcDbPolyline
 62
7
  6
CONTINUOUS
 90
46
 70
0
 10
-8.5522999663
 20
-8.402622164
 10
-8.5516410499
 20
-8.4553435721
 10
-8.5494933014
 20
-8.5062751406
 10
-8.5458567209
 20
-8.5554168692
 10
-8.540768282
 20
-8.6028197966
 10
-8.534191011
 20
-8.6484328842
 10
-8.5260139874
 20
-8.6921030165
 10
-8.51625116
 20
-8.7339084062
 10
-8.5048885799
 20
-8.7737708405
 10
-8.4917734811
 20
-8.8113025654
 10
-8.4768749584
 20
-8.8465335582
 10
-8.460223917
 20
-8.8794338416
 10
-8.4417603052
 20
-8.9095257292
 10
-8.4214236983
 20
-8.9365598892
 10
-8.3992745211
 20
-8.9607856534
 10
-8.3754339971
 20
-8.982473332
 10
-8.3500727172
 20
-9.0017166479
 10
-8.3230200905
 20
-9.018421878
 10
-8.2938855679
 20
-9.0325781632
 10
-8.2622929505
 20
-9.0442671086
 10
-8.2286184373
 20
-9.053407109
 10
-8.1936000762
 20
-9.0597424892
 10
-8.1566218395
 20
-9.0631838626
 10
-8.118299755
 20
-9.0638206157
 10
-8.0812199539
 20
-9.0616652328
 10
-8.046011349
 20
-9.0566725955
 10
-8.0120450275
 20
-9.048887822
 10
-7.9800203833
 20
-9.0384587521
 10
-7.950290712
 20
-9.0254757222
 10
-7.922502718
 20
-9.0098483958
 10
-7.8962959076
 20
-8.9914536031
 10
-7.8715427347
 20
-8.9702847021
 10
-7.8483707454
 20
-8.9463483348
 10
-7.8268020845
 20
-8.9195412571
 10
-7.8067425976
 20
-8.889730335
 10
-7.7882864391
 20
-8.8570487026
 10
-7.7717382168
 20
-8.8217925181
 10
-7.7572031179
 20
-8.7839133421
 10
-7.7445759553
 20
-8.743459614
 10
-7.7338457758
 20
-8.7008728104
 10
-7.7251111232
 20
-8.6562005076
 10
-7.7182734537
 20
-8.6093951292
 10
-7.7130261826
 20
-8.5607554227
 10
-7.7092671148
 20
-8.5103809706
 10
-7.7070984453
 20
-8.4581721902
 10
-7.7065201742
 20
-8.4041290817
  0
LWPOLYLINE
  5
476
100
AcDbEntity
  8
0
100
AcDbPolyline
 62
7
  6
CONTINUOUS
 90
46
 70
0
 10
-7.7065201742
 20
-8.4041290817
 10
-7.7067344268
 20
-8.3513019793
 10
-7.7085272846
 20
-8.3002848854
 10
-7.7118987476
 20
-8.2510777999
 10
-7.7167552068
 20
-8.2035791205
 10
-7.7231902713
 20
-8.1578904496
 10
-7.7314847681
 20
-8.1143165938
 10
-7.7418593634
 20
-8.07292973
 10
-7.754093391
 20
-8.0336576813
 10
-7.7678056799
 20
-7.9965887244
 10
-7.7826776725
 20
-7.9616893452
 10
-7.7990279264
 20
-7.9289930578
 10
-7.8174309422
 20
-7.8986886812
 10
-7.8382001012
 20
-7.8707190869
 10
-7.8610220223
 20
-7.8451414033
 10
-7.8855310627
 20
-7.8223158351
 10
-7.9116005494
 20
-7.8023427618
 10
-7.9393571555
 20
-7.7851218038
 10
-7.9688152575
 20
-7.7707120269
 10
-8.0001000356
 20
-7.7591619494
 10
-8.0330863097
 20
-7.750423053
 10
-8.0674129158
 20
-7.7444088486
 10
-8.1037371484
 20
-7.7410546324
 10
-8.141401713
 20
-7.7404251081
 10
-8.178073562
 20
-7.7426278989
 10
-8.2133179793
 20
-7.7477658727
 10
-8.247569681
 20
-7.7557361615
 10
-8.2797997681
 20
-7.7663377844
 10
-8.3095485767
 20
-7.7794895886
 10
-8.3372757706
 20
-7.7952727268
 10
-8.3633314427
 20
-7.8137296763
 10
-8.3877513255
 20
-7.8347386805
 10
-8.4104996865
 20
-7.858421496
 10
-8.4318194203
 20
-7.8851858704
 10
-8.4519661438
 20
-7.9153576095
 10
-8.4706842401
 20
-7.9486109076
 10
-8.487449753
 20
-7.9843760949
 10
-8.5020933933
 20
-8.0226367542
 10
-8.5147844503
 20
-8.0634093028
 10
-8.5255068352
 20
-8.1061733228
 10
-8.534113218
 20
-8.1507892431
 10
-8.5407509287
 20
-8.1973966348
 10
-8.5458458688
 20
-8.2458937932
 10
-8.5495400053
 20
-8.2962468167
 10
-8.5516913712
 20
-8.348489607
 10
-8.5522999663
 20
-8.402622164
  0
LINE
  5
477
100
AcDbEntity
  8
0
100
AcDbLine
 62
7
  6
CONTINUOUS
 10
-10.5571192434
 20
-9.6638797464
 11
-10.5571192434
 21
-10.9560484211
  0
LINE
  5
478
100
AcDbEntity
  8
DRAFT
100
AcDbLine
 62
7
  6
CONTINUOUS
 10
-10.5571192434
 20
15.9939515789
 11
-10.5571192434
 21
18.0615913058
  0
LINE
  5
479
100
AcDbEntity
  8
0
100
AcDbLine
 62
7
  6
CONTINUOUS
 10
-10.3848300868
 20
-10.9560484211
 11
-10.3848300868
 21
-9.6638797464
  0
LINE
  5
47A
100
AcDbEntity
  8
0
100
AcDbLine
 62
7
  6
CONTINUOUS
 10
-10.1733843037
 20
-9.6638797464
 11
-10.1733843037
 21
-9.8126749271
  0
LINE
  5
47B
100
AcDbEntity
  8
0
100
AcDbLine
 62
7
  6
CONTINUOUS
 10
-9.7504927374
 20
-9.8126749271
 11
-9.7504927374
 21
-10.9560484211
  0
LINE
  5
47C
100
AcDbEntity
  8
0
100
AcDbLine
 62
7
  6
CONTINUOUS
 10
-9.5782035808
 20
-10.9560484211
 11
-9.5782035808
 21
-9.8126749271
  0
LINE
  5
47D
100
AcDbEntity
  8
0
100
AcDbLine
 62
7
  6
CONTINUOUS
 10
-9.2149035783
 20
-3.9717110717
 11
-9.2149035783
 21
-5.2638797464
  0
LINE
  5
47E
100
AcDbEntity
  8
0
100
AcDbLine
 62
7
  6
CONTINUOUS
 10
-9.2149035783
 20
-5.8638797464
 11
-9.2149035783
 21
-7.1560484211
  0
LINE
  5
47F
100
AcDbEntity
  8
0
100
AcDbLine
 62
7
  6
CONTINUOUS
 10
-9.1553120145
 20
-9.8126749271
 11
-9.1553120145
 21
-9.6638797464
  0
LINE
  5
480
100
AcDbEntity
  8
0
100
AcDbLine
 62
7
  6
CONTINUOUS
 10
-9.0426144217
 20
-7.1560484211
 11
-9.0426144217
 21
-5.8638797464
  0
LINE
  5
481
100
AcDbEntity
  8
0
100
AcDbLine
 62
7
  6
CONTINUOUS
 10
-9.0426144217
 20
-5.2638797464
 11
-9.0426144217
 21
-3.9717110717
  0
LINE
  5
482
100
AcDbEntity
  8
0
100
AcDbLine
 62
7
  6
CONTINUOUS
 10
-8.7528553855
 20
-3.9717110717
 11
-8.7528553855
 21
-5.2638797464
  0
LINE
  5
483
100
AcDbEntity
  8
0
100
AcDbLine
 62
7
  6
CONTINUOUS
 10
-8.5805662289
 20
-5.2638797464
 11
-8.5805662289
 21
-4.1674942042
  0
LINE
  5
484
100
AcDbEntity
  8
0
100
AcDbLine
 62
7
  6
CONTINUOUS
 10
-7.7926614121
 20
-9.6638797464
 11
-7.7926614121
 21
-10.9560484211
  0
LWPOLYLINE
  5
485
100
AcDbEntity
  8
0
100
AcDbPolyline
 62
7
  6
CONTINUOUS
 90
46
 70
0
 10
-7.8631434173
 20
-8.4012787227
 10
-7.8633839456
 20
-8.4421018636
 10
-7.8643767251
 20
-8.481697
 10
-7.8661217559
 20
-8.5200641319
 10
-7.8685261709
 20
-8.5571815044
 10
-7.8716828371
 20
-8.5930708723
 10
-7.8758703556
 20
-8.6277975008
 10
-7.8810202566
 20
-8.6615620308
 10
-7.8872010099
 20
-8.6941638213
 10
-7.8948966258
 20
-8.7250662145
 10
-7.9042084568
 20
-8.7542805414
 10
-7.9150351504
 20
-8.781795471
 10
-7.9275566587
 20
-8.8070403523
 10
-7.9420008462
 20
-8.8298488967
 10
-7.9581398483
 20
-8.8503873927
 10
-7.9754700236
 20
-8.8685840551
 10
-7.9939393644
 20
-8.8844021064
 10
-8.0135998784
 20
-8.897878324
 10
-8.0341039474
 20
-8.9090512545
 10
-8.0555051372
 20
-8.9179628171
 10
-8.077749882
 20
-8.9245710926
 10
-8.1003298656
 20
-8.9287888699
 10
-8.1233191236
 20
-8.930585104
 10
-8.1466436205
 20
-8.92999084
 10
-8.1695729328
 20
-8.9270120017
 10
-8.1920591458
 20
-8.9215995473
 10
-8.2141501743
 20
-8.9138025186
 10
-8.235259339
 20
-8.9037739644
 10
-8.2553390497
 20
-8.8915403215
 10
-8.2744368967
 20
-8.8770751532
 10
-8.2921089713
 20
-8.8604521978
 10
-8.3082645895
 20
-8.8416411427
 10
-8.3229944353
 20
-8.8206723007
 10
-8.3361266525
 20
-8.7977103479
 10
-8.3475003196
 20
-8.772642871
 10
-8.357276358
 20
-8.7455822833
 10
-8.3657656757
 20
-8.7170305017
 10
-8.3729750224
 20
-8.687070183
 10
-8.3788976483
 20
-8.6556186703
 10
-8.383824212
 20
-8.6229299093
 10
-8.3877543458
 20
-8.5890585606
 10
-8.3906884173
 20
-8.5539499637
 10
-8.3929181883
 20
-8.5176940826
 10
-8.3945409128
 20
-8.4803209055
 10
-8.3954593368
 20
-8.4418004441
 10
-8.3956734603
 20
-8.4021326987
  0
LWPOLYLINE
  5
486
100
AcDbEntity
  8
0
100
AcDbPolyline
 62
7
  6
CONTINUOUS
 90
46
 70
0
 10
-8.3956734603
 20
-8.4021326987
 10
-8.3954068731
 20
-8.3633462087
 10
-8.394434349
 20
-8.3257117413
 10
-8.3927558879
 20
-8.2892292965
 10
-8.3904212265
 20
-8.2538839651
 10
-8.3873806282
 20
-8.2196906562
 10
-8.3834848833
 20
-8.1866940976
 10
-8.37874489
 20
-8.1548628077
 10
-8.3731497501
 20
-8.1242282681
 10
-8.3665175588
 20
-8.0949296513
 10
-8.3589168209
 20
-8.0668982084
 10
-8.3502790315
 20
-8.0402026883
 10
-8.3402167712
 20
-8.0151885104
 10
-8.3286766592
 20
-7.9918479121
 10
-8.3157120762
 20
-7.9701886559
 10
-8.3010957449
 20
-7.9505794489
 10
-8.2846260491
 20
-7.9330708484
 10
-8.2665046051
 20
-7.9176122969
 10
-8.2471089839
 20
-7.9044208291
 10
-8.2264176705
 20
-7.8935170169
 10
-8.2044521799
 20
-7.8848802883
 10
-8.1816546279
 20
-7.8786659617
 10
-8.1578128828
 20
-7.8748961856
 10
-8.1331390763
 20
-7.8735488114
 10
-8.1087117194
 20
-7.874712712
 10
-8.0846140903
 20
-7.8784397086
 10
-8.0607629107
 20
-7.8846779801
 10
-8.0379868568
 20
-7.893360936
 10
-8.0164639136
 20
-7.9045025132
 10
-7.9960160959
 20
-7.9180887749
 10
-7.9769381243
 20
-7.9340113203
 10
-7.9591964157
 20
-7.9522808707
 10
-7.9428245532
 20
-7.9728867047
 10
-7.9282180059
 20
-7.9956882573
 10
-7.915591738
 20
-8.0207891241
 10
-7.9047307853
 20
-8.0480857094
 10
-7.8953857245
 20
-8.0771266619
 10
-7.8876370206
 20
-8.1079463626
 10
-7.8814042084
 20
-8.1405104306
 10
-7.8761964688
 20
-8.1742643714
 10
-7.8719372879
 20
-8.2090006733
 10
-7.8687031796
 20
-8.2449268481
 10
-7.8662328661
 20
-8.2821109364
 10
-7.8644392549
 20
-8.3205756184
 10
-7.8634094386
 20
-8.3602982138
 10
-7.8631434173
 20
-8.4012787227
  0
LWPOLYLINE
  5
487
100
AcDbEntity
  8
0
100
AcDbPolyline
 62
7
  6
CONTINUOUS
 90
37
 70
0
 10
-9.4059144241
 20
-8.3738665556
 10
-9.4052664557
 20
-8.3320793588
 10
-9.4033171777
 20
-8.2917217838
 10
-9.4000665899
 20
-8.2527938305
 10
-9.3956053776
 20
-8.215183264
 10
-9.3898428555
 20
-8.1790023192
 10
-9.3825069686
 20
-8.1445877006
 10
-9.373450759
 20
-8.1119896168
 10
-9.3628211845
 20
-8.0811578591
 10
-9.3507870632
 20
-8.0522785058
 10
-9.337228132
 20
-8.0253561114
 10
-9.3222646541
 20
-8.0003861214
 10
-9.306426237
 20
-7.977540951
 10
-9.2899839427
 20
-7.9567938861
 10
-9.2726667093
 20
-7.9381716409
 10
-9.2541909593
 20
-7.9219267721
 10
-9.2344608119
 20
-7.9081867556
 10
-9.2135721479
 20
-7.8968241155
 10
-9.1915290316
 20
-7.8877089811
 10
-9.1679216774
 20
-7.8807259802
 10
-9.1431598709
 20
-7.875990485
 10
-9.1184770336
 20
-7.8737187415
 10
-9.0938662413
 20
-7.8740804607
 10
-9.0693344181
 20
-7.8769059316
 10
-9.0461357581
 20
-7.8819022672
 10
-9.0245640926
 20
-7.8891620847
 10
-9.0043255903
 20
-7.8985927669
 10
-8.9857929508
 20
-7.9096235754
 10
-8.9691359634
 20
-7.9220864206
 10
-8.9541848389
 20
-7.9361493922
 10
-8.9408029091
 20
-7.9517460211
 10
-8.9290981042
 20
-7.9688640365
 10
-8.9189624939
 20
-7.9875157092
 10
-8.9099356196
 20
-8.0076713833
 10
-8.9018639952
 20
-8.0293211736
 10
-8.8949011067
 20
-8.0524749653
 10
-8.8890469543
 20
-8.0771327584
  0
LWPOLYLINE
  5
488
100
AcDbEntity
  8
0
100
AcDbPolyline
 62
7
  6
CONTINUOUS
 90
34
 70
0
 10
-9.3824204482
 20
-8.6216545397
 10
-9.3808053792
 20
-8.5903435611
 10
-9.3768226623
 20
-8.5607356591
 10
-9.3704722974
 20
-8.5328308337
 10
-9.3615907143
 20
-8.5065870879
 10
-9.3503414832
 20
-8.4820464188
 10
-9.3372153153
 20
-8.4593348171
 10
-9.3222412344
 20
-8.4384331587
 10
-9.3053902167
 20
-8.4193605678
 10
-9.2870659027
 20
-8.4023004081
 10
-9.2673517909
 20
-8.3872308285
 10
-9.2461643829
 20
-8.37417368
 10
-9.2236568243
 20
-8.3633778794
 10
-9.1995786062
 20
-8.3548885168
 10
-9.1741802375
 20
-8.348660502
 10
-9.1483663909
 20
-8.344807481
 10
-9.1219441273
 20
-8.3433981358
 10
-9.0951063859
 20
-8.3443637845
 10
-9.069336656
 20
-8.3476120269
 10
-9.0450351593
 20
-8.3531657948
 10
-9.0218016741
 20
-8.3610021563
 10
-8.9999190248
 20
-8.370959916
 10
-8.9794217295
 20
-8.3830313632
 10
-8.9602752701
 20
-8.3972242085
 10
-8.9426589153
 20
-8.4134003881
 10
-8.9265132244
 20
-8.4315421852
 10
-8.9118976381
 20
-8.4516673167
 10
-8.8991697484
 20
-8.4736908691
 10
-8.8883546695
 20
-8.4976572045
 10
-8.8794272872
 20
-8.523521961
 10
-8.8726698501
 20
-8.5510671389
 10
-8.8681764413
 20
-8.5802200718
 10
-8.8658529777
 20
-8.6110534262
 10
-8.8656994594
 20
-8.6435672021
  0
LWPOLYLINE
  5
489
100
AcDbEntity
  8
0
100
AcDbPolyline
 62
7
  6
CONTINUOUS
 90
34
 70
0
 10
-8.8656994594
 20
-8.6435672021
 10
-8.8676151528
 20
-8.6757010939
 10
-8.8715820478
 20
-8.7060719403
 10
-8.8776001444
 20
-8.7346797413
 10
-8.8857907698
 20
-8.7616322338
 10
-8.8960325968
 20
-8.7868216809
 10
-8.9079616434
 20
-8.809924872
 10
-8.9214724307
 20
-8.8307471712
 10
-8.9366704376
 20
-8.8494832144
 10
-8.9535081188
 20
-8.8663936993
 10
-8.9721498011
 20
-8.8816389068
 10
-8.9924311576
 20
-8.8950585561
 10
-9.0138116625
 20
-8.9064325018
 10
-9.0364302714
 20
-8.9158083173
 10
-9.0601480288
 20
-8.9231384293
 10
-9.0840075419
 20
-8.9280599715
 10
-9.1078900083
 20
-8.9304242898
 10
-9.1319142305
 20
-8.9303800384
 10
-9.1554792232
 20
-8.9280103134
 10
-9.1785035253
 20
-8.9233153029
 10
-9.201068598
 20
-8.9162948188
 10
-9.2228178398
 20
-8.9070313933
 10
-9.2437032432
 20
-8.8956152528
 10
-9.2637728159
 20
-8.8819561708
 10
-9.2828139788
 20
-8.8658660002
 10
-9.3009664086
 20
-8.8472597404
 10
-9.3180904287
 20
-8.826222392
 10
-9.333554431
 20
-8.8028208092
 10
-9.3474365609
 20
-8.7767528903
 10
-9.359658673
 20
-8.7483207371
 10
-9.3693547223
 20
-8.7184975094
 10
-9.3762360271
 20
-8.687607594
 10
-9.3805912691
 20
-8.6553266041
 10
-9.3824204482
 20
-8.6216545397
  0
LINE
  5
48A
100
AcDbEntity
  8
0
100
AcDbLine
 62
7
  6
CONTINUOUS
 10
-10.224165492
 20
-8.2885785415
 11
-10.2422754691
 21
-8.429542397
  0
LWPOLYLINE
  5
48B
100
AcDbEntity
  8
0
100
AcDbPolyline
 62
7
  6
CONTINUOUS
 90
32
 70
0
 10
-10.3848300868
 20
-8.1006267343
 10
-10.379052256
 20
-8.0709203464
 10
-10.3715855841
 20
-8.0431555827
 10
-10.3624300713
 20
-8.0173324432
 10
-10.3515348764
 20
-7.9933465186
 10
-10.3389508405
 20
-7.9713022182
 10
-10.3248304869
 20
-7.9515127696
 10
-10.3092260274
 20
-7.9341233256
 10
-10.2920852502
 20
-7.9189887333
 10
-10.2734040438
 20
-7.905986762
 10
-10.2530212362
 20
-7.8950214159
 10
-10.2310979994
 20
-7.8861886907
 10
-10.2081137379
 20
-7.8796543438
 10
-10.1836534119
 20
-7.8755039004
 10
-10.1581320612
 20
-7.8736518353
 10
-10.1332742099
 20
-7.87400733
 10
-10.1094250716
 20
-7.8765645595
 10
-10.0862394326
 20
-7.8813293488
 10
-10.0644061755
 20
-7.8882283543
 10
-10.0440316874
 20
-7.8974245952
 10
-10.0250095811
 20
-7.9087550523
 10
-10.0077095783
 20
-7.9216573245
 10
-9.9921584916
 20
-7.9360700359
 10
-9.9783295083
 20
-7.9520545624
 10
-9.9665119121
 20
-7.9692326315
 10
-9.956786741
 20
-7.9876226379
 10
-9.949072957
 20
-8.0072061869
 10
-9.9434167288
 20
-8.0275498216
 10
-9.9398781263
 20
-8.0488617429
 10
-9.9383970796
 20
-8.0709337499
 10
-9.9388395479
 20
-8.092707783
 10
-9.9410621325
 20
-8.1141092196
  0
LWPOLYLINE
  5
48C
100
AcDbEntity
  8
0
100
AcDbPolyline
 62
7
  6
CONTINUOUS
 90
15
 70
0
 10
-9.9410621325
 20
-8.1141092196
 10
-9.9452082321
 20
-8.1352126822
 10
-9.9515740029
 20
-8.1551839786
 10
-9.9602133969
 20
-8.1737189319
 10
-9.971072462
 20
-8.1911217191
 10
-9.9842854978
 20
-8.2074706787
 10
-9.9999995521
 20
-8.2229562899
 10
-10.018067577
 20
-8.2373880735
 10
-10.0381827287
 20
-8.2502729312
 10
-10.0603502468
 20
-8.2615834049
 10
-10.0845648917
 20
-8.2713469527
 10
-10.1105041013
 20
-8.2791528502
 10
-10.1380603549
 20
-8.2848641894
 10
-10.1673411731
 20
-8.2886178783
 10
-10.198346556
 20
-8.2904139169
  0
LINE
  5
48D
100
AcDbEntity
  8
0
100
AcDbLine
 62
7
  6
CONTINUOUS
 10
-3.9298655952
 20
11.9549192007
 11
-4.0356015952
 21
11.8491832007
  0
LINE
  5
48E
100
AcDbEntity
  8
0
100
AcDbLine
 62
7
  6
CONTINUOUS
 10
4.1031217204
 20
-8.1427200331
 11
4.2754108771
 21
-8.1030739413
  0
LWPOLYLINE
  5
48F
100
AcDbEntity
  8
0
100
AcDbPolyline
 62
7
  6
CONTINUOUS
 90
37
 70
0
 10
-1.6061590373
 20
-8.4530363729
 10
-1.5651802034
 20
-8.4461694387
 10
-1.526529254
 20
-8.4373704506
 10
-1.490206189
 20
-8.4266394083
 10
-1.4560654426
 20
-8.4139155761
 10
-1.4242525807
 20
-8.3992596899
 10
-1.3952043011
 20
-8.3828539573
 10
-1.369233149
 20
-8.3649595626
 10
-1.3460265792
 20
-8.3453153215
 10
-1.3250836536
 20
-8.3233198892
 10
-1.3061473502
 20
-8.2987229869
 10
-1.2894746911
 20
-8.2717748933
 10
-1.2753358039
 20
-8.2426250997
 10
-1.2635780043
 20
-8.2108005267
 10
-1.2543539766
 20
-8.1767742535
 10
-1.2483919018
 20
-8.1421150091
 10
-1.2459472334
 20
-8.1068658116
 10
-1.2467645179
 20
-8.0709836428
 10
-1.2508055753
 20
-8.0359081776
 10
-1.2583951443
 20
-8.0016273667
 10
-1.2692084863
 20
-7.9681532593
 10
-1.2822332048
 20
-7.936961678
 10
-1.2972949243
 20
-7.9084536585
 10
-1.3145680204
 20
-7.882228165
 10
-1.3335632228
 20
-7.8585579127
 10
-1.3540125947
 20
-7.8376034979
 10
-1.376184073
 20
-7.8192043244
 10
-1.4003921979
 20
-7.8031513191
 10
-1.4268062425
 20
-7.7894777531
 10
-1.4552569336
 20
-7.7781503554
 10
-1.4855509916
 20
-7.7688602393
 10
-1.5177870732
 20
-7.7617662053
 10
-1.5518665218
 20
-7.756709453
 10
-1.5873000875
 20
-7.7529046947
 10
-1.6239246871
 20
-7.7500901678
 10
-1.6619034039
 20
-7.7485276348
 10
-1.7012362378
 20
-7.7482170958
  0
LWPOLYLINE
  5
490
100
AcDbEntity
  8
0
100
AcDbPolyline
 62
7
  6
CONTINUOUS
 90
18
 70
0
 10
-6.0630511417
 20
-8.9233477989
 10
-6.0926598404
 20
-8.928294007
 10
-6.1218090322
 20
-8.9306211037
 10
-6.1502141639
 20
-8.9302267325
 10
-6.1781597886
 20
-8.9272132499
 10
-6.2044077565
 20
-8.9218497113
 10
-6.22851812
 20
-8.9141718468
 10
-6.2509308267
 20
-8.9041439263
 10
-6.2717275703
 20
-8.8919278154
 10
-6.2908764974
 20
-8.8776778446
 10
-6.3084094613
 20
-8.8612396833
 10
-6.3245037165
 20
-8.842312206
 10
-6.3392315581
 20
-8.8206366911
 10
-6.352520691
 20
-8.7964718603
 10
-6.3643314831
 20
-8.7702927525
 10
-6.3746507239
 20
-8.7422577141
 10
-6.3834916239
 20
-8.7122083988
 10
-6.3908541832
 20
-8.6801448066
  0
LWPOLYLINE
  5
491
100
AcDbEntity
  8
0
100
AcDbPolyline
 62
7
  6
CONTINUOUS
 90
18
 70
0
 10
-10.0726896959
 20
-8.9233477989
 10
-10.1022983947
 20
-8.928294007
 10
-10.1314475864
 20
-8.9306211037
 10
-10.1598527181
 20
-8.9302267325
 10
-10.1877983428
 20
-8.9272132499
 10
-10.2140463107
 20
-8.9218497113
 10
-10.2381566742
 20
-8.9141718468
 10
-10.2605693809
 20
-8.9041439263
 10
-10.2813661246
 20
-8.8919278154
 10
-10.3005150516
 20
-8.8776778446
 10
-10.3180480156
 20
-8.8612396833
 10
-10.3341422707
 20
-8.842312206
 10
-10.3488701124
 20
-8.8206366911
 10
-10.3621592452
 20
-8.7964718603
 10
-10.3739700373
 20
-8.7702927525
 10
-10.3842892781
 20
-8.7422577141
 10
-10.3931301781
 20
-8.7122083988
 10
-10.4004927374
 20
-8.6801448066
  0
LINE
  5
492
100
AcDbEntity
  8
0
100
AcDbLine
 62
7
  6
CONTINUOUS
 10
-6.3908541832
 20
-8.6801448066
 11
-6.5474806892
 21
-8.7036387825
  0
LINE
  5
493
100
AcDbEntity
  8
0
100
AcDbLine
 62
7
  6
CONTINUOUS
 10
-6.8842276772
 20
-8.0771327584
 11
-6.7276011711
 21
-8.0614701078
  0
LINE
  5
494
100
AcDbEntity
  8
0
100
AcDbLine
 62
7
  6
CONTINUOUS
 10
-8.8890469543
 20
-8.0771327584
 11
-8.7324204482
 21
-8.0614701078
  0
LINE
  5
495
100
AcDbEntity
  8
0
100
AcDbLine
 62
7
  6
CONTINUOUS
 10
0.5320373831
 20
-8.6096628789
 11
0.3675795518
 21
-8.6174942042
  0
LINE
  5
496
100
AcDbEntity
  8
0
100
AcDbLine
 62
7
  6
CONTINUOUS
 10
1.1820373831
 20
-8.1162893849
 11
1.3543265397
 21
-8.1084580596
  0
LWPOLYLINE
  5
497
100
AcDbEntity
  8
0
100
AcDbPolyline
 62
7
  6
CONTINUOUS
 90
17
 70
0
 10
-1.9843368927
 20
-8.4686595035
 10
-1.9121653433
 20
-8.4679282506
 10
-1.8778391363
 20
-8.4690294388
 10
-1.8447670056
 20
-8.4712763987
 10
-1.8129848164
 20
-8.4749674257
 10
-1.7829508547
 20
-8.4823959786
 10
-1.7550038769
 20
-8.494435189
 10
-1.7288051264
 20
-8.5102119253
 10
-1.70379662
 20
-8.5294002512
 10
-1.6800739023
 20
-8.5524649283
 10
-1.6575414285
 20
-8.578941195
 10
-1.635354581
 20
-8.6071088297
 10
-1.6134248621
 20
-8.6365435893
 10
-1.5918407694
 20
-8.6676697169
 10
-1.5700231781
 20
-8.7000397207
 10
-1.5478495232
 20
-8.7335664454
 10
-1.5254423697
 20
-8.7683370462
  0
LINE
  5
498
100
AcDbEntity
  8
0
100
AcDbLine
 62
7
  6
CONTINUOUS
 10
-1.7475842362
 20
-8.3201440564
 11
-1.8109643974
 21
-8.3204107009
  0
LINE
  5
499
100
AcDbEntity
  8
0
100
AcDbLine
 62
7
  6
CONTINUOUS
 10
-10.5571192434
 20
-10.9560484211
 11
-10.3848300868
 21
-10.9560484211
  0
LINE
  5
49A
100
AcDbEntity
  8
0
100
AcDbLine
 62
7
  6
CONTINUOUS
 10
-9.7504927374
 20
-10.9560484211
 11
-9.5782035808
 21
-10.9560484211
  0
LINE
  5
49B
100
AcDbEntity
  8
0
100
AcDbLine
 62
7
  6
CONTINUOUS
 10
-9.1256997224
 20
-10.9560484211
 11
-8.9438662314
 21
-10.9560484211
  0
LINE
  5
49C
100
AcDbEntity
  8
0
100
AcDbLine
 62
7
  6
CONTINUOUS
 10
-8.1137457494
 20
-10.9560484211
 11
-7.9305661094
 21
-10.9560484211
  0
LINE
  5
49D
100
AcDbEntity
  8
0
100
AcDbLine
 62
7
  6
CONTINUOUS
 10
-7.7926614121
 20
-10.9560484211
 11
-6.9782035808
 21
-10.9560484211
  0
LINE
  5
49E
100
AcDbEntity
  8
0
100
AcDbLine
 62
7
  6
CONTINUOUS
 10
-6.4212005538
 20
-10.9560484211
 11
-6.2489113972
 21
-10.9560484211
  0
LINE
  5
49F
100
AcDbEntity
  8
0
100
AcDbLine
 62
7
  6
CONTINUOUS
 10
-6.9782035808
 20
-10.8072532403
 11
-7.6203722555
 21
-10.8072532403
  0
LINE
  5
4A0
100
AcDbEntity
  8
0
100
AcDbLine
 62
7
  6
CONTINUOUS
 10
-8.8076745431
 20
-10.564482156
 11
-8.2578910098
 21
-10.564482156
  0
LINE
  5
4A1
100
AcDbEntity
  8
0
100
AcDbLine
 62
7
  6
CONTINUOUS
 10
-8.3098958615
 20
-10.4235183006
 11
-8.7586063638
 21
-10.4235183006
  0
LINE
  5
4A2
100
AcDbEntity
  8
0
100
AcDbLine
 62
7
  6
CONTINUOUS
 10
-10.1733843037
 20
-9.8126749271
 11
-9.7504927374
 21
-9.8126749271
  0
LINE
  5
4A3
100
AcDbEntity
  8
0
100
AcDbLine
 62
7
  6
CONTINUOUS
 10
-9.5782035808
 20
-9.8126749271
 11
-9.1553120145
 21
-9.8126749271
  0
LINE
  5
4A4
100
AcDbEntity
  8
0
100
AcDbLine
 62
7
  6
CONTINUOUS
 10
-5.7320439273
 20
-9.6638797464
 11
-5.939941087
 21
-9.6638797464
  0
LINE
  5
4A5
100
AcDbEntity
  8
0
100
AcDbLine
 62
7
  6
CONTINUOUS
 10
-6.7096135604
 20
-9.6638797464
 11
-6.9145740478
 21
-9.6638797464
  0
LINE
  5
4A6
100
AcDbEntity
  8
0
100
AcDbLine
 62
7
  6
CONTINUOUS
 10
-7.6203722555
 20
-9.6638797464
 11
-7.7926614121
 21
-9.6638797464
  0
LINE
  5
4A7
100
AcDbEntity
  8
0
100
AcDbLine
 62
7
  6
CONTINUOUS
 10
-8.4481677772
 20
-9.6638797464
 11
-8.6345288222
 21
-9.6638797464
  0
LINE
  5
4A8
100
AcDbEntity
  8
0
100
AcDbLine
 62
7
  6
CONTINUOUS
 10
-9.1553120145
 20
-9.6638797464
 11
-10.1733843037
 21
-9.6638797464
  0
LINE
  5
4A9
100
AcDbEntity
  8
0
100
AcDbLine
 62
7
  6
CONTINUOUS
 10
-10.3848300868
 20
-9.6638797464
 11
-10.5571192434
 21
-9.6638797464
  0
LINE
  5
4AA
100
AcDbEntity
  8
0
100
AcDbLine
 62
7
  6
CONTINUOUS
 10
-4.9968782796
 20
-9.0403857705
 11
-4.8245891229
 21
-9.0403857705
  0
LINE
  5
4AB
100
AcDbEntity
  8
0
100
AcDbLine
 62
7
  6
CONTINUOUS
 10
-4.4519892798
 20
-9.0403857705
 11
-4.3053966929
 21
-9.0403857705
  0
LINE
  5
4AC
100
AcDbEntity
  8
0
100
AcDbLine
 62
7
  6
CONTINUOUS
 10
-3.9239867133
 20
-9.0403857705
 11
-3.7516975567
 21
-9.0403857705
  0
LINE
  5
4AD
100
AcDbEntity
  8
0
100
AcDbLine
 62
7
  6
CONTINUOUS
 10
-3.6202780356
 20
-9.0403857705
 11
-3.4384445446
 21
-9.0403857705
  0
LINE
  5
4AE
100
AcDbEntity
  8
0
100
AcDbLine
 62
7
  6
CONTINUOUS
 10
-2.6083240627
 20
-9.0403857705
 11
-2.4251444226
 21
-9.0403857705
  0
LINE
  5
4AF
100
AcDbEntity
  8
0
100
AcDbLine
 62
7
  6
CONTINUOUS
 10
-2.2715770747
 20
-9.0403857705
 11
-2.0992879181
 21
-9.0403857705
  0
LINE
  5
4B0
100
AcDbEntity
  8
0
100
AcDbLine
 62
7
  6
CONTINUOUS
 10
-1.3538436186
 20
-9.0403857705
 11
-1.151452824
 21
-9.0403857705
  0
LINE
  5
4B1
100
AcDbEntity
  8
0
100
AcDbLine
 62
7
  6
CONTINUOUS
 10
1.9495072626
 20
-9.0403857705
 11
2.1217964192
 21
-9.0403857705
  0
LINE
  5
4B2
100
AcDbEntity
  8
0
100
AcDbLine
 62
7
  6
CONTINUOUS
 10
2.740471118
 20
-9.0403857705
 11
2.9127602747
 21
-9.0403857705
  0
LINE
  5
4B3
100
AcDbEntity
  8
0
100
AcDbLine
 62
7
  6
CONTINUOUS
 10
4.3755050969
 20
-9.0403857705
 11
4.5573385879
 21
-9.0403857705
  0
LINE
  5
4B4
100
AcDbEntity
  8
0
100
AcDbLine
 62
7
  6
CONTINUOUS
 10
5.3874590698
 20
-9.0403857705
 11
5.5706387099
 21
-9.0403857705
  0
LINE
  5
4B5
100
AcDbEntity
  8
0
100
AcDbLine
 62
7
  6
CONTINUOUS
 10
6.5938502652
 20
-9.0403857705
 11
6.7792324991
 21
-9.0403857705
  0
LINE
  5
4B6
100
AcDbEntity
  8
0
100
AcDbLine
 62
7
  6
CONTINUOUS
 10
7.4392662987
 20
-9.0403857705
 11
7.6115554554
 21
-9.0403857705
  0
LINE
  5
4B7
100
AcDbEntity
  8
0
100
AcDbLine
 62
7
  6
CONTINUOUS
 10
-3.3022528564
 20
-8.6488195054
 11
-2.7524693231
 21
-8.6488195054
  0
LINE
  5
4B8
100
AcDbEntity
  8
0
100
AcDbLine
 62
7
  6
CONTINUOUS
 10
4.6935302761
 20
-8.6488195054
 11
5.2433138095
 21
-8.6488195054
  0
LINE
  5
4B9
100
AcDbEntity
  8
0
100
AcDbLine
 62
7
  6
CONTINUOUS
 10
5.1913089578
 20
-8.50785565
 11
4.7425984555
 21
-8.50785565
  0
LINE
  5
4BA
100
AcDbEntity
  8
0
100
AcDbLine
 62
7
  6
CONTINUOUS
 10
-2.8044741747
 20
-8.50785565
 11
-3.253184677
 21
-8.50785565
  0
LINE
  5
4BB
100
AcDbEntity
  8
0
100
AcDbLine
 62
7
  6
CONTINUOUS
 10
-2.0992879181
 20
-7.8970122765
 11
-1.6942614768
 21
-7.8970122765
  0
LINE
  5
4BC
100
AcDbEntity
  8
0
100
AcDbLine
 62
7
  6
CONTINUOUS
 10
1.5266156963
 20
-7.8970122765
 11
1.9495072626
 21
-7.8970122765
  0
LINE
  5
4BD
100
AcDbEntity
  8
0
100
AcDbLine
 62
7
  6
CONTINUOUS
 10
2.1217964192
 20
-7.8970122765
 11
2.5446879855
 21
-7.8970122765
  0
LINE
  5
4BE
100
AcDbEntity
  8
0
100
AcDbLine
 62
7
  6
CONTINUOUS
 10
7.6115554554
 20
-7.7482170958
 11
7.4392662987
 21
-7.7482170958
  0
LINE
  5
4BF
100
AcDbEntity
  8
0
100
AcDbLine
 62
7
  6
CONTINUOUS
 10
7.2946315731
 20
-7.7482170958
 11
7.1103506361
 21
-7.7482170958
  0
LINE
  5
4C0
100
AcDbEntity
  8
0
100
AcDbLine
 62
7
  6
CONTINUOUS
 10
6.2802301542
 20
-7.7482170958
 11
6.0970506336
 21
-7.7482170958
  0
LINE
  5
4C1
100
AcDbEntity
  8
0
100
AcDbLine
 62
7
  6
CONTINUOUS
 10
5.0530370421
 20
-7.7482170958
 11
4.8666759971
 21
-7.7482170958
  0
LINE
  5
4C2
100
AcDbEntity
  8
0
100
AcDbLine
 62
7
  6
CONTINUOUS
 10
2.9127602747
 20
-7.7482170958
 11
2.740471118
 21
-7.7482170958
  0
LINE
  5
4C3
100
AcDbEntity
  8
0
100
AcDbLine
 62
7
  6
CONTINUOUS
 10
2.5446879855
 20
-7.7482170958
 11
1.5266156963
 21
-7.7482170958
  0
LINE
  5
4C4
100
AcDbEntity
  8
0
100
AcDbLine
 62
7
  6
CONTINUOUS
 10
-1.7012362378
 20
-7.7482170958
 11
-2.2715770747
 21
-7.7482170958
  0
LINE
  5
4C5
100
AcDbEntity
  8
0
100
AcDbLine
 62
7
  6
CONTINUOUS
 10
-2.9427460905
 20
-7.7482170958
 11
-3.1291071355
 21
-7.7482170958
  0
LINE
  5
4C6
100
AcDbEntity
  8
0
100
AcDbLine
 62
7
  6
CONTINUOUS
 10
-3.7516975567
 20
-7.7482170958
 11
-3.9758691986
 21
-7.7482170958
  0
LINE
  5
4C7
100
AcDbEntity
  8
0
100
AcDbLine
 62
7
  6
CONTINUOUS
 10
-4.7342840896
 20
-7.7482170958
 11
-4.9968782796
 21
-7.7482170958
  0
LINE
  5
4C8
100
AcDbEntity
  8
0
100
AcDbLine
 62
7
  6
CONTINUOUS
 10
-10.0603196118
 20
-7.1560484211
 11
-9.8749373779
 21
-7.1560484211
  0
LINE
  5
4C9
100
AcDbEntity
  8
0
100
AcDbLine
 62
7
  6
CONTINUOUS
 10
-9.2149035783
 20
-7.1560484211
 11
-9.0426144217
 21
-7.1560484211
  0
LINE
  5
4CA
100
AcDbEntity
  8
0
100
AcDbLine
 62
7
  6
CONTINUOUS
 10
-8.8798695994
 20
-7.1560484211
 11
-8.6980361084
 21
-7.1560484211
  0
LINE
  5
4CB
100
AcDbEntity
  8
0
100
AcDbLine
 62
7
  6
CONTINUOUS
 10
-7.8679156265
 20
-7.1560484211
 11
-7.6847359864
 21
-7.1560484211
  0
LINE
  5
4CC
100
AcDbEntity
  8
0
100
AcDbLine
 62
7
  6
CONTINUOUS
 10
-7.5468312891
 20
-7.1560484211
 11
-6.7323734578
 21
-7.1560484211
  0
LINE
  5
4CD
100
AcDbEntity
  8
0
100
AcDbLine
 62
7
  6
CONTINUOUS
 10
-6.528759
 20
-7.1560484211
 11
-5.5733373132
 21
-7.1560484211
  0
LINE
  5
4CE
100
AcDbEntity
  8
0
100
AcDbLine
 62
7
  6
CONTINUOUS
 10
-4.4609220215
 20
-7.1560484211
 11
-4.2755397876
 21
-7.1560484211
  0
LINE
  5
4CF
100
AcDbEntity
  8
0
100
AcDbLine
 62
7
  6
CONTINUOUS
 10
-3.6155059879
 20
-7.1560484211
 11
-3.4432168313
 21
-7.1560484211
  0
LINE
  5
4D0
100
AcDbEntity
  8
0
100
AcDbLine
 62
7
  6
CONTINUOUS
 10
-1.8299638193
 20
-7.1560484211
 11
-0.8745421325
 21
-7.1560484211
  0
LINE
  5
4D1
100
AcDbEntity
  8
0
100
AcDbLine
 62
7
  6
CONTINUOUS
 10
-0.6317710482
 20
-7.1560484211
 11
-0.4594818915
 21
-7.1560484211
  0
LINE
  5
4D2
100
AcDbEntity
  8
0
100
AcDbLine
 62
7
  6
CONTINUOUS
 10
0.1874590698
 20
-7.1560484211
 11
0.3706385904
 21
-7.1560484211
  0
LINE
  5
4D3
100
AcDbEntity
  8
0
100
AcDbLine
 62
7
  6
CONTINUOUS
 10
0.5507590723
 20
-7.1560484211
 11
1.5766626868
 21
-7.1560484211
  0
LINE
  5
4D4
100
AcDbEntity
  8
0
100
AcDbLine
 62
7
  6
CONTINUOUS
 10
1.6141063042
 20
-7.1560484211
 11
1.7959397952
 21
-7.1560484211
  0
LINE
  5
4D5
100
AcDbEntity
  8
0
100
AcDbLine
 62
7
  6
CONTINUOUS
 10
2.6260602771
 20
-7.1560484211
 11
2.8092399172
 21
-7.1560484211
  0
LINE
  5
4D6
100
AcDbEntity
  8
0
100
AcDbLine
 62
7
  6
CONTINUOUS
 10
3.8320843735
 20
-7.1560484211
 11
3.9887108795
 21
-7.1560484211
  0
LINE
  5
4D7
100
AcDbEntity
  8
0
100
AcDbLine
 62
7
  6
CONTINUOUS
 10
4.9128072651
 20
-7.1560484211
 11
5.0694337711
 21
-7.1560484211
  0
LINE
  5
4D8
100
AcDbEntity
  8
0
100
AcDbLine
 62
7
  6
CONTINUOUS
 10
-2.0992879181
 20
-8.4686990235
 11
-1.9843368927
 21
-8.4686595035
  0
LINE
  5
4D9
100
AcDbEntity
  8
0
100
AcDbLine
 62
7
  6
CONTINUOUS
 10
-1.9478322161
 20
-8.3198733031
 11
-2.0992879181
 21
-8.3199038427
  0
LINE
  5
4DA
100
AcDbEntity
  8
0
100
AcDbLine
 62
7
  6
CONTINUOUS
 10
-1.8109643974
 20
-8.3204107009
 11
-1.9478322161
 21
-8.3198733031
  0
LWPOLYLINE
  5
4DB
100
AcDbEntity
  8
0
100
AcDbPolyline
 62
7
  6
CONTINUOUS
 90
10
 70
0
 10
-10.198346556
 20
-8.2904139169
 10
-10.2011456343
 20
-8.2903759367
 10
-10.2039631297
 20
-8.2902921786
 10
-10.2067990422
 20
-8.2901626427
 10
-10.2096546973
 20
-8.2899816088
 10
-10.2125287695
 20
-8.2897547971
 10
-10.2154172826
 20
-8.2894993684
 10
-10.2183189114
 20
-8.289221043
 10
-10.2212349812
 20
-8.2889141008
 10
-10.224165492
 20
-8.2885785415
  0
LWPOLYLINE
  5
4DC
100
AcDbEntity
  8
0
100
AcDbPolyline
 62
7
  6
CONTINUOUS
 90
10
 70
0
 10
-6.1887080018
 20
-8.2904139169
 10
-6.19150708
 20
-8.2903759367
 10
-6.1943245755
 20
-8.2902921786
 10
-6.197160488
 20
-8.2901626427
 10
-6.2000161431
 20
-8.2899816088
 10
-6.2028902152
 20
-8.2897547971
 10
-6.2057787284
 20
-8.2894993684
 10
-6.2086803572
 20
-8.289221043
 10
-6.211596427
 20
-8.2889141008
 10
-6.2145269378
 20
-8.2885785415
  0
LWPOLYLINE
  5
4DD
100
AcDbEntity
  8
0
100
AcDbPolyline
 62
7
  6
CONTINUOUS
 90
36
 70
0
 10
-1.6942614768
 20
-7.8970122765
 10
-1.6654671929
 20
-7.8974111668
 10
-1.6379393193
 20
-7.8992785684
 10
-1.6116778559
 20
-7.9026144812
 10
-1.5865027502
 20
-7.9073833648
 10
-1.5625940548
 20
-7.9136207596
 10
-1.5404919272
 20
-7.921433287
 10
-1.5204377099
 20
-7.9307533658
 10
-1.5021900604
 20
-7.9416485774
 10
-1.485565109
 20
-7.9544282869
 10
-1.4704174576
 20
-7.9693197401
 10
-1.4568925044
 20
-7.9860956912
 10
-1.4452425734
 20
-8.0043837687
 10
-1.4353790044
 20
-8.024459776
 10
-1.4273904576
 20
-8.0460479097
 10
-1.4217952383
 20
-8.0679483876
 10
-1.418766486
 20
-8.0900012541
 10
-1.4181310611
 20
-8.1123664648
 10
-1.4198878504
 20
-8.1343241048
 10
-1.4241333877
 20
-8.1558520611
 10
-1.4307711393
 20
-8.1769724467
 10
-1.4395103902
 20
-8.1970316857
 10
-1.4503272269
 20
-8.216030721
 10
-1.4632455629
 20
-8.2339686096
 10
-1.4780464238
 20
-8.2501889471
 10
-1.494700913
 20
-8.2644876906
 10
-1.513237927
 20
-8.2770688829
 10
-1.5335251804
 20
-8.2878882473
 10
-1.5556718421
 20
-8.296826599
 10
-1.5795687432
 20
-8.3040031228
 10
-1.6047560915
 20
-8.3097310967
 10
-1.631198424
 20
-8.3138917085
 10
-1.6589312036
 20
-8.3166037704
 10
-1.6876010272
 20
-8.318536997
 10
-1.7171241097
 20
-8.3197299443
 10
-1.7475842362
 20
-8.3201440564
  0
LINE
  5
4DE
100
AcDbEntity
  8
0
100
AcDbLine
 62
7
  6
CONTINUOUS
 10
-10.5414565928
 20
-8.0771327584
 11
-10.3848300868
 21
-8.1006267343
  0
LINE
  5
4DF
100
AcDbEntity
  8
0
100
AcDbLine
 62
7
  6
CONTINUOUS
 10
-6.5318180386
 20
-8.0771327584
 11
-6.3751915326
 21
-8.1006267343
  0
LWPOLYLINE
  5
4E0
100
AcDbEntity
  8
0
100
AcDbPolyline
 62
7
  6
CONTINUOUS
 90
3
 70
0
 10
0.8475541721
 20
-8.4458780026
 10
0.8743311059
 20
-8.4521825096
 10
0.9006719786
 20
-8.458592503
  0
LWPOLYLINE
  5
4E1
100
AcDbEntity
  8
0
100
AcDbPolyline
 62
7
  6
CONTINUOUS
 90
42
 70
0
 10
0.8865884323
 20
-8.2778104244
 10
0.8620788911
 20
-8.2719687986
 10
0.838289271
 20
-8.2659653702
 10
0.815219572
 20
-8.2598001393
 10
0.7928948024
 20
-8.2535022987
 10
0.7712899539
 20
-8.2470426556
 10
0.7503300013
 20
-8.2403336318
 10
0.7298123386
 20
-8.2334923879
 10
0.7099395718
 20
-8.2264017633
 10
0.6912444939
 20
-8.218622698
 10
0.6737671733
 20
-8.2101922349
 10
0.6574675416
 20
-8.2010733311
 10
0.642758187
 20
-8.190715798
 10
0.6297381364
 20
-8.1788763085
 10
0.6183083628
 20
-8.1657981897
 10
0.6085843744
 20
-8.1516612342
 10
0.6005126535
 20
-8.1364149757
 10
0.5941467176
 20
-8.1201098806
 10
0.5897626276
 20
-8.1030771402
 10
0.5873485997
 20
-8.0853053061
 10
0.5869164175
 20
-8.0668058268
 10
0.5887774933
 20
-8.0479442396
 10
0.5931198943
 20
-8.0284227548
 10
0.5997555531
 20
-8.0085391621
 10
0.6084316797
 20
-7.989552368
 10
0.6192478324
 20
-7.971594919
 10
0.6321044527
 20
-7.9545342686
 10
0.6464500757
 20
-7.9392316839
 10
0.6620675806
 20
-7.9260648662
 10
0.6791740882
 20
-7.9146561142
 10
0.6978694952
 20
-7.9047335904
 10
0.7183238128
 20
-7.896262266
 10
0.7403670299
 20
-7.88927717
 10
0.7635890093
 20
-7.8836115509
 10
0.7878956904
 20
-7.8792643426
 10
0.8133811338
 20
-7.8762366112
 10
0.839917384
 20
-7.8743648047
 10
0.8679132911
 20
-7.8734671454
 10
0.896960005
 20
-7.8737254109
 10
0.9257030212
 20
-7.8755213819
 10
0.9541645273
 20
-7.8789129605
 10
0.9823223355
 20
-7.8838422446
  0
LINE
  5
4E2
100
AcDbEntity
  8
0
100
AcDbLine
 62
7
  6
CONTINUOUS
 10
4.3067361783
 20
-8.6300976967
 11
4.1344470216
 21
-8.5869029814
  0
LWPOLYLINE
  5
4E3
100
AcDbEntity
  8
0
100
AcDbPolyline
 62
7
  6
CONTINUOUS
 90
14
 70
0
 10
0.9823223355
 20
-7.8838422446
 10
1.0087553782
 20
-7.8905173085
 10
1.0330191216
 20
-7.8989788152
 10
1.0555580993
 20
-7.9091861016
 10
1.0762848449
 20
-7.9212252528
 10
1.0951244566
 20
-7.9350530002
 10
1.1121518362
 20
-7.9507126123
 10
1.1275042222
 20
-7.9684199795
 10
1.1413266485
 20
-7.9883140813
 10
1.1534740812
 20
-8.0102559382
 10
1.1636486573
 20
-8.0340445018
 10
1.1717510892
 20
-8.0596127561
 10
1.1778806644
 20
-8.0870277171
 10
1.1820373831
 20
-8.1162893849
  0
LWPOLYLINE
  5
4E4
100
AcDbEntity
  8
0
100
AcDbPolyline
 62
7
  6
CONTINUOUS
 90
7
 70
0
 10
0.9006719786
 20
-8.458592503
 10
0.9520984431
 20
-8.4716167183
 10
0.9771840348
 20
-8.4782309403
 10
1.0016748588
 20
-8.4852873396
 10
1.0255180129
 20
-8.4928981466
 10
1.0487663992
 20
-8.500951131
 10
1.0714200178
 20
-8.5094462927
  0
LWPOLYLINE
  5
4E5
100
AcDbEntity
  8
0
100
AcDbPolyline
 62
7
  6
CONTINUOUS
 90
35
 70
0
 10
1.0714200178
 20
-8.5094462927
 10
1.0935526623
 20
-8.5187612624
 10
1.1138540061
 20
-8.5290002987
 10
1.1323240493
 20
-8.5401634016
 10
1.14899289
 20
-8.5521395045
 10
1.16383043
 20
-8.565039674
 10
1.1767463749
 20
-8.5791971103
 10
1.1877237602
 20
-8.5946730851
 10
1.1967795504
 20
-8.6114063267
 10
1.2038743445
 20
-8.62954622
 10
1.2091363112
 20
-8.6495113879
 10
1.2124372818
 20
-8.6708832075
 10
1.2133533492
 20
-8.692555195
 10
1.21170525
 20
-8.7145859058
 10
1.2076722476
 20
-8.7369167845
 10
1.2013682254
 20
-8.758265681
 10
1.1928704496
 20
-8.7782583543
 10
1.182101654
 20
-8.7972690454
 10
1.1689439233
 20
-8.815138327
 10
1.1533377892
 20
-8.8318837033
 10
1.1353427199
 20
-8.8474876701
 10
1.1150192049
 20
-8.8617382876
 10
1.0922042162
 20
-8.8747477914
 10
1.0670607818
 20
-8.8864039459
 10
1.0401384747
 20
-8.8961581042
 10
1.0115630961
 20
-8.9039046009
 10
0.9812088448
 20
-8.9097491014
 10
0.9492478897
 20
-8.9134599555
 10
0.9152309338
 20
-8.915084441
 10
0.8796072742
 20
-8.9145752801
 10
0.8438969711
 20
-8.9115589895
 10
0.8078237235
 20
-8.9058034224
 10
0.7716638324
 20
-8.8975407255
 10
0.7377662611
 20
-8.8870938559
 10
0.7067470319
 20
-8.8744178536
  0
LWPOLYLINE
  5
4E6
100
AcDbEntity
  8
0
100
AcDbPolyline
 62
7
  6
CONTINUOUS
 90
12
 70
0
 10
0.7067470319
 20
-8.8744178536
 10
0.6779901225
 20
-8.8595576784
 10
0.6519964291
 20
-8.8429711671
 10
0.6290412564
 20
-8.8248930446
 10
0.6088492998
 20
-8.8050885859
 10
0.5910955414
 20
-8.7833114534
 10
0.5757860023
 20
-8.7595190515
 10
0.5629146614
 20
-8.7337539758
 10
0.5521384372
 20
-8.7058976757
 10
0.5433429692
 20
-8.6759106344
 10
0.5366426178
 20
-8.6438323688
 10
0.5320373831
 20
-8.6096628789
  0
LINE
  5
4E7
100
AcDbEntity
  8
0
100
AcDbLine
 62
7
  6
CONTINUOUS
 10
-6.9145740478
 20
-9.6638797464
 11
-6.4212005538
 21
-10.4087120947
  0
LINE
  5
4E8
100
AcDbEntity
  8
0
100
AcDbLine
 62
7
  6
CONTINUOUS
 10
-6.4458427361
 20
-10.0802912123
 11
-6.530495041
 21
-9.9491429619
  0
LWPOLYLINE
  5
4E9
100
AcDbEntity
  8
0
100
AcDbPolyline
 62
7
  6
CONTINUOUS
 90
3
 70
0
 10
-6.530495041
 20
-9.9491429619
 10
-6.5742471902
 20
-9.8808587516
 10
-6.6185957674
 20
-9.8104820326
  0
LWPOLYLINE
  5
4EA
100
AcDbEntity
  8
0
100
AcDbPolyline
 62
7
  6
CONTINUOUS
 90
3
 70
0
 10
-6.3291823919
 20
-10.2660352303
 10
-6.3667642722
 20
-10.2056414957
 10
-6.4458427361
 20
-10.0802912123
  0
LINE
  5
4EB
100
AcDbEntity
  8
0
100
AcDbLine
 62
7
  6
CONTINUOUS
 10
-6.6185957674
 20
-9.8104820326
 11
-6.7096135604
 21
-9.6638797464
  0
LINE
  5
4EC
100
AcDbEntity
  8
0
100
AcDbLine
 62
7
  6
CONTINUOUS
 10
-7.9305661094
 20
-10.9560484211
 11
-8.4481677772
 21
-9.6638797464
  0
LINE
  5
4ED
100
AcDbEntity
  8
0
100
AcDbLine
 62
7
  6
CONTINUOUS
 10
-7.6847359864
 20
-7.1560484211
 11
-8.2023376543
 21
-5.8638797464
  0
LINE
  5
4EE
100
AcDbEntity
  8
0
100
AcDbLine
 62
7
  6
CONTINUOUS
 10
-6.1811215286
 20
-5.2638797464
 11
-6.6987231964
 21
-3.9717110717
  0
LINE
  5
4EF
100
AcDbEntity
  8
0
100
AcDbLine
 62
7
  6
CONTINUOUS
 10
-8.1217690356
 20
-6.477312825
 11
-8.0640657385
 21
-6.6235183006
  0
LINE
  5
4F0
100
AcDbEntity
  8
0
100
AcDbLine
 62
7
  6
CONTINUOUS
 10
-6.6181545778
 20
-4.5851441503
 11
-6.5604512807
 21
-4.7313496259
  0
LINE
  5
4F1
100
AcDbEntity
  8
0
100
AcDbLine
 62
7
  6
CONTINUOUS
 10
-10.5571192434
 20
-3.9717110717
 11
-10.0603196118
 21
-5.2638797464
  0
LINE
  5
4F2
100
AcDbEntity
  8
0
100
AcDbLine
 62
7
  6
CONTINUOUS
 10
-8.2578910098
 20
-10.564482156
 11
-8.1137457494
 21
-10.9560484211
  0
LINE
  5
4F3
100
AcDbEntity
  8
0
100
AcDbLine
 62
7
  6
CONTINUOUS
 10
-8.0120608869
 20
-6.764482156
 11
-7.8679156265
 21
-7.1560484211
  0
LINE
  5
4F4
100
AcDbEntity
  8
0
100
AcDbLine
 62
7
  6
CONTINUOUS
 10
-6.508446429
 20
-4.8723134813
 11
-6.3643011687
 21
-5.2638797464
  0
LINE
  5
4F5
100
AcDbEntity
  8
0
100
AcDbLine
 62
7
  6
CONTINUOUS
 10
-8.5805662289
 20
-4.1674942042
 11
-8.2079663857
 21
-5.2638797464
  0
LINE
  5
4F6
100
AcDbEntity
  8
0
100
AcDbLine
 62
7
  6
CONTINUOUS
 10
-8.1700276052
 20
-4.927431794
 11
-8.4902611955
 21
-3.9717110717
  0
LINE
  5
4F7
100
AcDbEntity
  8
0
100
AcDbLine
 62
7
  6
CONTINUOUS
 10
-8.1491183098
 20
-4.9911932776
 11
-8.1700276052
 21
-4.927431794
  0
LINE
  5
4F8
100
AcDbEntity
  8
0
100
AcDbLine
 62
7
  6
CONTINUOUS
 10
-8.1355793959
 20
-5.0334295098
 11
-8.1491183098
 21
-4.9911932776
  0
LINE
  5
4F9
100
AcDbEntity
  8
0
100
AcDbLine
 62
7
  6
CONTINUOUS
 10
-8.122433639
 20
-5.0754384738
 11
-8.1355793959
 21
-5.0334295098
  0
LWPOLYLINE
  5
4FA
100
AcDbEntity
  8
0
100
AcDbPolyline
 62
7
  6
CONTINUOUS
 90
6
 70
0
 10
-8.5405529186
 20
-9.7970122765
 10
-8.5201742428
 20
-9.8629398884
 10
-8.4982722395
 20
-9.9297474178
 10
-8.4748469087
 20
-9.9974348648
 10
-8.4496171092
 20
-10.0659473966
 10
-8.3675991586
 20
-10.277312825
  0
LWPOLYLINE
  5
4FB
100
AcDbEntity
  8
0
100
AcDbPolyline
 62
7
  6
CONTINUOUS
 90
6
 70
0
 10
-8.2947227956
 20
-5.9970122765
 10
-8.2743441198
 20
-6.0629398884
 10
-8.2524421165
 20
-6.1297474178
 10
-8.2290167858
 20
-6.1974348648
 10
-8.2037869863
 20
-6.2659473966
 10
-8.1217690356
 20
-6.477312825
  0
LWPOLYLINE
  5
4FC
100
AcDbEntity
  8
0
100
AcDbPolyline
 62
7
  6
CONTINUOUS
 90
25
 70
0
 10
-8.7222102625
 20
-8.5017435825
 10
-8.7334452263
 20
-8.4627533245
 10
-8.7480071156
 20
-8.4264900171
 10
-8.7652146498
 20
-8.3929046606
 10
-8.784845401
 20
-8.362073324
 10
-8.807121797
 20
-8.3339199383
 10
-8.8320298411
 20
-8.3081672954
 10
-8.8598216333
 20
-8.2845328242
 10
-8.8902450736
 20
-8.2632990959
 10
-8.9225298648
 20
-8.2450366162
 10
-8.9570250592
 20
-8.2297236891
 10
-8.9933816045
 20
-8.2173820107
 10
-9.0297820467
 20
-8.2086471748
 10
-9.0658672553
 20
-8.2037853728
 10
-9.1019963606
 20
-8.2025304133
 10
-9.1374293001
 20
-8.204719316
 10
-9.1720270457
 20
-8.2103158951
 10
-9.2059286255
 20
-8.2193563365
 10
-9.2388110607
 20
-8.2317862173
 10
-9.2708682938
 20
-8.2477195573
 10
-9.3019063825
 20
-8.2670423368
 10
-9.3310205205
 20
-8.2893580745
 10
-9.3579091057
 20
-8.31453461
 10
-9.3828737403
 20
-8.3427041037
 10
-9.4059144241
 20
-8.3738665556
  0
LWPOLYLINE
  5
4FD
100
AcDbEntity
  8
0
100
AcDbPolyline
 62
7
  6
CONTINUOUS
 90
25
 70
0
 10
-6.7173909854
 20
-8.5017435825
 10
-6.7286259492
 20
-8.4627533245
 10
-6.7431878385
 20
-8.4264900171
 10
-6.7603953727
 20
-8.3929046606
 10
-6.7800261239
 20
-8.362073324
 10
-6.8023025199
 20
-8.3339199383
 10
-6.827210564
 20
-8.3081672954
 10
-6.8550023562
 20
-8.2845328242
 10
-6.8854257965
 20
-8.2632990959
 10
-6.9177105877
 20
-8.2450366162
 10
-6.9522057821
 20
-8.2297236891
 10
-6.9885623274
 20
-8.2173820107
 10
-7.0249627696
 20
-8.2086471748
 10
-7.0610479782
 20
-8.2037853728
 10
-7.0971770835
 20
-8.2025304133
 10
-7.132610023
 20
-8.204719316
 10
-7.1672077686
 20
-8.2103158951
 10
-7.2011093484
 20
-8.2193563365
 10
-7.2339917836
 20
-8.2317862173
 10
-7.2660490167
 20
-8.2477195573
 10
-7.2970871054
 20
-8.2670423368
 10
-7.3262012434
 20
-8.2893580745
 10
-7.3530898286
 20
-8.31453461
 10
-7.3780544632
 20
-8.3427041037
 10
-7.401095147
 20
-8.3738665556
  0
LWPOLYLINE
  5
4FE
100
AcDbEntity
  8
0
100
AcDbPolyline
 62
7
  6
CONTINUOUS
 90
10
 70
0
 10
-9.9706264101
 20
-7.0111688432
 10
-9.9771267806
 20
-6.988179927
 10
-9.9838904375
 20
-6.9650768318
 10
-9.9909173808
 20
-6.9418595574
 10
-9.9982147133
 20
-6.9185260902
 10
-10.0057753321
 20
-6.8950784438
 10
-10.0135779289
 20
-6.87152266
 10
-10.0216154009
 20
-6.8478607526
 10
-10.0298948508
 20
-6.8240907077
 10
-10.3739397229
 20
-5.8638797464
  0
LWPOLYLINE
  5
4FF
100
AcDbEntity
  8
0
100
AcDbPolyline
 62
7
  6
CONTINUOUS
 90
10
 70
0
 10
-9.9706264101
 20
-5.1190001685
 10
-9.9771267806
 20
-5.0960112523
 10
-9.9838904375
 20
-5.0729081571
 10
-9.9909173808
 20
-5.0496908827
 10
-9.9982147133
 20
-5.0263574155
 10
-10.0057753321
 20
-5.0029097691
 10
-10.0135779289
 20
-4.9793539853
 10
-10.0216154009
 20
-4.9556920779
 10
-10.0298948508
 20
-4.931922033
 10
-10.3739397229
 20
-3.9717110717
  0
LWPOLYLINE
  5
500
100
AcDbEntity
  8
0
100
AcDbPolyline
 62
7
  6
CONTINUOUS
 90
13
 70
0
 10
-9.7175544091
 20
-8.5860739234
 10
-9.7246119643
 20
-8.5552849148
 10
-9.7343152828
 20
-8.5264888229
 10
-9.7463673276
 20
-8.4995688894
 10
-9.7606221475
 20
-8.4745551491
 10
-9.7772256937
 20
-8.4514175671
 10
-9.7963187833
 20
-8.4299492814
 10
-9.8180945838
 20
-8.4099125378
 10
-9.8423599276
 20
-8.3915450905
 10
-9.8686761292
 20
-8.3753533391
 10
-9.8968969598
 20
-8.3615060836
 10
-9.9271686481
 20
-8.3498345241
 10
-9.959491194
 20
-8.3403386605
  0
LWPOLYLINE
  5
501
100
AcDbEntity
  8
0
100
AcDbPolyline
 62
7
  6
CONTINUOUS
 90
36
 70
0
 10
-9.5434332071
 20
-8.6685849697
 10
-9.5329169644
 20
-8.7169339961
 10
-9.5197869836
 20
-8.7623115338
 10
-9.5038436116
 20
-8.8047526552
 10
-9.4852865015
 20
-8.8442222879
 10
-9.4644325879
 20
-8.8802601537
 10
-9.4413522276
 20
-8.9125538334
 10
-9.4159750637
 20
-8.9414157463
 10
-9.3884069601
 20
-8.9673228716
 10
-9.3586903014
 20
-8.990502247
 10
-9.3267827029
 20
-9.0107268349
 10
-9.2926628742
 20
-9.027792501
 10
-9.2558749404
 20
-9.0417627821
 10
-9.2168747763
 20
-9.0525741415
 10
-9.1770087165
 20
-9.0598318338
 10
-9.1358325507
 20
-9.0633354748
 10
-9.0937904891
 20
-9.0632854487
 10
-9.0535614971
 20
-9.0598881632
 10
-9.015964938
 20
-9.0530971361
 10
-8.9801814484
 20
-9.0429588494
 10
-8.946431903
 20
-9.0298191567
 10
-8.9149445277
 20
-9.0139096885
 10
-8.8854910966
 20
-8.9949988141
 10
-8.8576078072
 20
-8.972737495
 10
-8.8308307391
 20
-8.946887459
 10
-8.8056238127
 20
-8.9176869783
 10
-8.7829149876
 20
-8.8855018305
 10
-8.7627109866
 20
-8.8502805873
 10
-8.745005087
 20
-8.8120746771
 10
-8.7307050799
 20
-8.771404163
 10
-8.7199666771
 20
-8.7275135454
 10
-8.7126341668
 20
-8.6811583239
 10
-8.7091482046
 20
-8.6351250607
 10
-8.7098288833
 20
-8.5895409455
 10
-8.7143561101
 20
-8.5442787887
 10
-8.7222102625
 20
-8.5017435825
  0
LWPOLYLINE
  5
502
100
AcDbEntity
  8
0
100
AcDbPolyline
 62
7
  6
CONTINUOUS
 90
36
 70
0
 10
-7.53861393
 20
-8.6685849697
 10
-7.5280976873
 20
-8.7169339961
 10
-7.5149677065
 20
-8.7623115338
 10
-7.4990243345
 20
-8.8047526552
 10
-7.4804672244
 20
-8.8442222879
 10
-7.4596133108
 20
-8.8802601537
 10
-7.4365329505
 20
-8.9125538334
 10
-7.4111557866
 20
-8.9414157463
 10
-7.383587683
 20
-8.9673228716
 10
-7.3538710243
 20
-8.990502247
 10
-7.3219634258
 20
-9.0107268349
 10
-7.2878435971
 20
-9.027792501
 10
-7.2510556633
 20
-9.0417627821
 10
-7.2120554992
 20
-9.0525741415
 10
-7.1721894394
 20
-9.0598318338
 10
-7.1310132736
 20
-9.0633354748
 10
-7.088971212
 20
-9.0632854487
 10
-7.04874222
 20
-9.0598881632
 10
-7.0111456609
 20
-9.0530971361
 10
-6.9753621713
 20
-9.0429588494
 10
-6.9416126259
 20
-9.0298191567
 10
-6.9101252505
 20
-9.0139096885
 10
-6.8806718194
 20
-8.9949988141
 10
-6.8527885301
 20
-8.972737495
 10
-6.8260114619
 20
-8.946887459
 10
-6.8008045355
 20
-8.9176869783
 10
-6.7780957105
 20
-8.8855018305
 10
-6.7578917095
 20
-8.8502805873
 10
-6.7401858099
 20
-8.8120746771
 10
-6.7258858028
 20
-8.771404163
 10
-6.7151474
 20
-8.7275135454
 10
-6.7078148897
 20
-8.6811583239
 10
-6.7043289275
 20
-8.6351250607
 10
-6.7050096062
 20
-8.5895409455
 10
-6.709536833
 20
-8.5442787887
 10
-6.7173909854
 20
-8.5017435825
  0
LWPOLYLINE
  5
503
100
AcDbEntity
  8
0
100
AcDbPolyline
 62
7
  6
CONTINUOUS
 90
41
 70
0
 10
-8.7324204482
 20
-8.0614701078
 10
-8.7399351219
 20
-8.0216552145
 10
-8.7501028763
 20
-7.9842650271
 10
-8.7629237114
 20
-7.9492995456
 10
-8.7785837074
 20
-7.9165996134
 10
-8.7968967841
 20
-7.886324387
 10
-8.817304701
 20
-7.8589513361
 10
-8.8395495163
 20
-7.8347213503
 10
-8.8638891717
 20
-7.81339354
 10
-8.8905392526
 20
-7.7947227052
 10
-8.9194932311
 20
-7.7785388047
 10
-8.950757635
 20
-7.7650118797
 10
-8.9845676329
 20
-7.7544068542
 10
-9.0217070226
 20
-7.7466936485
 10
-9.0613920063
 20
-7.7419023423
 10
-9.1015063603
 20
-7.7403880985
 10
-9.1421090079
 20
-7.7422484354
 10
-9.1831410257
 20
-7.7473858348
 10
-9.2223094204
 20
-7.7558629053
 10
-9.2588668261
 20
-7.7677409156
 10
-9.2935606087
 20
-7.782958597
 10
-9.3263398728
 20
-7.8013947523
 10
-9.3572391601
 20
-7.8229848506
 10
-9.3862239289
 20
-7.8477934228
 10
-9.4131396593
 20
-7.8758928643
 10
-9.4380088786
 20
-7.907278284
 10
-9.4608090596
 20
-7.941954573
 10
-9.4813181006
 20
-7.9800087997
 10
-9.4994886733
 20
-8.0217470483
 10
-9.515368106
 20
-8.0668632346
 10
-9.5288762828
 20
-8.1145261752
 10
-9.5398941155
 20
-8.1645678322
 10
-9.5485406923
 20
-8.2171562434
 10
-9.5550931618
 20
-8.2719643383
 10
-9.5596205099
 20
-8.3299628197
 10
-9.5620537507
 20
-8.3901809848
 10
-9.5624630748
 20
-8.4493796548
 10
-9.5609744776
 20
-8.5070114143
 10
-9.5574619637
 20
-8.5636236788
 10
-9.551617737
 20
-8.6176195162
 10
-9.5434332071
 20
-8.6685849697
  0
LWPOLYLINE
  5
504
100
AcDbEntity
  8
0
100
AcDbPolyline
 62
7
  6
CONTINUOUS
 90
41
 70
0
 10
-6.7276011711
 20
-8.0614701078
 10
-6.7351158448
 20
-8.0216552145
 10
-6.7452835992
 20
-7.9842650271
 10
-6.7581044343
 20
-7.9492995456
 10
-6.7737644303
 20
-7.9165996134
 10
-6.792077507
 20
-7.886324387
 10
-6.8124854239
 20
-7.8589513361
 10
-6.8347302391
 20
-7.8347213503
 10
-6.8590698946
 20
-7.81339354
 10
-6.8857199755
 20
-7.7947227052
 10
-6.914673954
 20
-7.7785388047
 10
-6.9459383579
 20
-7.7650118797
 10
-6.9797483558
 20
-7.7544068542
 10
-7.0168877455
 20
-7.7466936485
 10
-7.0565727292
 20
-7.7419023423
 10
-7.0966870832
 20
-7.7403880985
 10
-7.1372897308
 20
-7.7422484354
 10
-7.1783217486
 20
-7.7473858348
 10
-7.2174901433
 20
-7.7558629053
 10
-7.254047549
 20
-7.7677409156
 10
-7.2887413316
 20
-7.782958597
 10
-7.3215205957
 20
-7.8013947523
 10
-7.352419883
 20
-7.8229848506
 10
-7.3814046517
 20
-7.8477934228
 10
-7.4083203822
 20
-7.8758928643
 10
-7.4331896015
 20
-7.907278284
 10
-7.4559897825
 20
-7.941954573
 10
-7.4764988235
 20
-7.9800087997
 10
-7.4946693961
 20
-8.0217470483
 10
-7.5105488289
 20
-8.0668632346
 10
-7.5240570057
 20
-8.1145261752
 10
-7.5350748384
 20
-8.1645678322
 10
-7.5437214152
 20
-8.2171562434
 10
-7.5502738847
 20
-8.2719643383
 10
-7.5548012328
 20
-8.3299628197
 10
-7.5572344736
 20
-8.3901809848
 10
-7.5576437976
 20
-8.4493796548
 10
-7.5561552005
 20
-8.5070114143
 10
-7.5526426866
 20
-8.5636236788
 10
-7.5467984599
 20
-8.6176195162
 10
-7.53861393
 20
-8.6685849697
  0
LWPOLYLINE
  5
505
100
AcDbEntity
  8
0
100
AcDbPolyline
 62
7
  6
CONTINUOUS
 90
37
 70
0
 10
-6.5474806892
 20
-8.7036387825
 10
-6.5418895213
 20
-8.7407246188
 10
-6.5331914994
 20
-8.776741572
 10
-6.5213866234
 20
-8.8116896422
 10
-6.5061231417
 20
-8.8461259742
 10
-6.487752806
 20
-8.8794934232
 10
-6.4673308713
 20
-8.9101205543
 10
-6.4451959684
 20
-8.9373959598
 10
-6.4210094667
 20
-8.9619310475
 10
-6.3948107288
 20
-8.9838886056
 10
-6.3668014039
 20
-9.003347978
 10
-6.3367798428
 20
-9.0202298209
 10
-6.3041804605
 20
-9.0344588915
 10
-6.2684860646
 20
-9.0461975695
 10
-6.2302138474
 20
-9.0552834751
 10
-6.1903498014
 20
-9.061154226
 10
-6.1481794698
 20
-9.063627295
 10
-6.1044173093
 20
-9.0628852093
 10
-6.0621926817
 20
-9.0589131676
 10
-6.0224152706
 20
-9.0516476187
 10
-5.9841753924
 20
-9.041152114
 10
-5.9478733585
 20
-9.027602506
 10
-5.9135795958
 20
-9.0108887251
 10
-5.8812236774
 20
-8.991120841
 10
-5.8509946344
 20
-8.9688049154
 10
-5.8225870087
 20
-8.9436375508
 10
-5.7963062585
 20
-8.9159221447
 10
-5.7732577896
 20
-8.887074952
 10
-5.7538893629
 20
-8.8576621905
 10
-5.7377532175
 20
-8.8271176424
 10
-5.7246114768
 20
-8.7951589098
 10
-5.7143941789
 20
-8.7612129683
 10
-5.7071712858
 20
-8.7258528422
 10
-5.7029148059
 20
-8.6905152071
 10
-5.7017222923
 20
-8.6550221463
 10
-5.703496192
 20
-8.6195515765
 10
-5.7079158549
 20
-8.5860739234
  0
LWPOLYLINE
  5
506
100
AcDbEntity
  8
0
100
AcDbPolyline
 62
7
  6
CONTINUOUS
 90
37
 70
0
 10
-4.2889999638
 20
-4.8409881801
 10
-4.2854654213
 20
-4.8853754148
 10
-4.2785779143
 20
-4.9279497429
 10
-4.2683374428
 20
-4.9687111644
 10
-4.2545217881
 20
-5.0079569946
 10
-4.237353169
 20
-5.0453899182
 10
-4.2174982418
 20
-5.0801179895
 10
-4.1952412835
 20
-5.111764035
 10
-4.1702980172
 20
-5.1407052282
 10
-4.1424822682
 20
-5.1671811444
 10
-4.1118296016
 20
-5.191349719
 10
-4.0783044522
 20
-5.2130530165
 10
-4.0416139509
 20
-5.2320568066
 10
-4.0014485431
 20
-5.2483388335
 10
-3.9581177832
 20
-5.2619213528
 10
-3.9122574658
 20
-5.2726369014
 10
-3.8631026067
 20
-5.2805078064
 10
-3.8114181901
 20
-5.2855117406
 10
-3.760134963
 20
-5.2874142592
 10
-3.7094519669
 20
-5.2861836248
 10
-3.6591701603
 20
-5.2818515749
 10
-3.6116231657
 20
-5.2742788767
 10
-3.5675408124
 20
-5.263256182
 10
-3.526193271
 20
-5.248992839
 10
-3.487724676
 20
-5.2319776602
 10
-3.452033428
 20
-5.2120285028
 10
-3.4192211264
 20
-5.1893275096
 10
-3.3897367041
 20
-5.164909922
 10
-3.3637859428
 20
-5.1390211648
 10
-3.3411630607
 20
-5.1114158131
 10
-3.3216996456
 20
-5.0823928343
 10
-3.3053291529
 20
-5.0518563591
 10
-3.2921181272
 20
-5.0199022568
 10
-3.2820977905
 20
-4.9871171014
 10
-3.2752707276
 20
-4.953214153
 10
-3.2716343536
 20
-4.9184801517
 10
-3.271212136
 20
-4.8843618915
  0
LINE
  5
507
100
AcDbEntity
  8
DRAFT
100
AcDbLine
 62
7
  6
CONTINUOUS
 10
-4.8820624642
 20
-17.5560484211
 11
-4.9169725941
 21
-15.5560484211
  0
LINE
  5
508
100
AcDbEntity
  8
0
100
AcDbLine
 62
7
  6
CONTINUOUS
 10
-7.6799638193
 20
-4.1831568548
 11
-7.6799638193
 21
-5.2638797464
  0
LINE
  5
509
100
AcDbEntity
  8
0
100
AcDbLine
 62
7
  6
CONTINUOUS
 10
-7.6203722555
 20
-10.8072532403
 11
-7.6203722555
 21
-9.6638797464
  0
LINE
  5
50A
100
AcDbEntity
  8
0
100
AcDbLine
 62
7
  6
CONTINUOUS
 10
-7.5468312891
 20
-5.8638797464
 11
-7.5468312891
 21
-7.1560484211
  0
LINE
  5
50B
100
AcDbEntity
  8
0
100
AcDbLine
 62
7
  6
CONTINUOUS
 10
-7.5076746626
 20
-5.2638797464
 11
-7.5076746626
 21
-3.9717110717
  0
LINE
  5
50C
100
AcDbEntity
  8
0
100
AcDbLine
 62
7
  6
CONTINUOUS
 10
-7.3745421325
 20
-7.0072532403
 11
-7.3745421325
 21
-5.8638797464
  0
LINE
  5
50D
100
AcDbEntity
  8
0
100
AcDbLine
 62
7
  6
CONTINUOUS
 10
-6.9782035808
 20
-10.9560484211
 11
-6.9782035808
 21
-10.8072532403
  0
LINE
  5
50E
100
AcDbEntity
  8
0
100
AcDbLine
 62
7
  6
CONTINUOUS
 10
-6.7323734578
 20
-7.1560484211
 11
-6.7323734578
 21
-7.0072532403
  0
LINE
  5
50F
100
AcDbEntity
  8
DRAFT
100
AcDbLine
 62
7
  6
CONTINUOUS
 10
-6.5571192434
 20
1.5439515789
 11
-6.5571192434
 21
-1.4560484211
  0
LINE
  5
510
100
AcDbEntity
  8
0
100
AcDbLine
 62
7
  6
CONTINUOUS
 10
-6.528759
 20
-5.8638797464
 11
-6.528759
 21
-7.1560484211
  0
LINE
  5
511
100
AcDbEntity
  8
RACCORDO
100
AcDbLine
 62
7
  6
CONTINUOUS
 10
-6.4942618583
 20
-0.9103466486
 11
-6.4942618583
 21
0.9982498065
  0
LINE
  5
512
100
AcDbEntity
  8
0
100
AcDbLine
 62
7
  6
CONTINUOUS
 10
-6.4212005538
 20
-10.4087120947
 11
-6.4212005538
 21
-10.9560484211
  0
LINE
  5
513
100
AcDbEntity
  8
0
100
AcDbLine
 62
7
  6
CONTINUOUS
 10
-6.3564698433
 20
-7.0072532403
 11
-6.3564698433
 21
-6.5608676982
  0
LINE
  5
514
100
AcDbEntity
  8
0
100
AcDbLine
 62
7
  6
CONTINUOUS
 10
-6.3564698433
 20
-6.4120725174
 11
-6.3564698433
 21
-6.0126749271
  0
LINE
  5
515
100
AcDbEntity
  8
0
100
AcDbLine
 62
7
  6
CONTINUOUS
 10
-6.2489113972
 20
-10.9560484211
 11
-6.2489113972
 21
-10.4087120947
  0
LINE
  5
516
100
AcDbEntity
  8
0
100
AcDbLine
 62
7
  6
CONTINUOUS
 10
-6.0275541807
 20
-3.9717110717
 11
-6.0275541807
 21
-5.2638797464
  0
LINE
  5
517
100
AcDbEntity
  8
0
100
AcDbLine
 62
7
  6
CONTINUOUS
 10
-5.8552650241
 20
-5.2638797464
 11
-5.8552650241
 21
-4.6921929994
  0
LINE
  5
518
100
AcDbEntity
  8
0
100
AcDbLine
 62
7
  6
CONTINUOUS
 10
-5.8552650241
 20
-4.5433978186
 11
-5.8552650241
 21
-4.1205062524
  0
LINE
  5
519
100
AcDbEntity
  8
0
100
AcDbLine
 62
7
  6
CONTINUOUS
 10
-5.6516505662
 20
-6.5608676982
 11
-5.6516505662
 21
-6.4120725174
  0
LINE
  5
51A
100
AcDbEntity
  8
0
100
AcDbLine
 62
7
  6
CONTINUOUS
 10
-5.6046626144
 20
-6.0126749271
 11
-5.6046626144
 21
-5.8638797464
  0
LINE
  5
51B
100
AcDbEntity
  8
0
100
AcDbLine
 62
7
  6
CONTINUOUS
 10
-5.5733373132
 20
-7.1560484211
 11
-5.5733373132
 21
-7.0072532403
  0
LINE
  5
51C
100
AcDbEntity
  8
RACCORDO
100
AcDbLine
 62
7
  6
CONTINUOUS
 10
-5.5394277898
 20
-0.9103466486
 11
-5.5394277898
 21
0.9982498065
  0
LINE
  5
51D
100
AcDbEntity
  8
0
100
AcDbLine
 62
7
  6
CONTINUOUS
 10
-5.0571192434
 20
-53.9560484211
 11
-5.0571192434
 21
-43.6560484211
  0
LINE
  5
51E
100
AcDbEntity
  8
DRAFT
100
AcDbLine
 62
7
  6
CONTINUOUS
 10
-5.0571192434
 20
-21.2060484211
 11
-5.0571192434
 21
-20.3370678693
  0
LINE
  5
51F
100
AcDbEntity
  8
SMUSSO
100
AcDbLine
 62
7
  6
CONTINUOUS
 10
-5.0571192434
 20
-20.3370678693
 11
-5.0571192434
 21
-17.7060484211
  0
LINE
  5
520
100
AcDbEntity
  8
DRAFT
100
AcDbLine
 62
7
  6
CONTINUOUS
 10
-5.0571192434
 20
-1.4560484211
 11
-5.0571192434
 21
1.5439515789
  0
LINE
  5
521
100
AcDbEntity
  8
0
100
AcDbLine
 62
7
  6
CONTINUOUS
 10
-4.9968782796
 20
-7.7482170958
 11
-4.9968782796
 21
-9.0403857705
  0
LINE
  5
522
100
AcDbEntity
  8
RACCORDO
100
AcDbLine
 62
7
  6
CONTINUOUS
 10
-4.9571192434
 20
-49.5561245735
 11
-4.9571192434
 21
-43.6560484211
  0
LINE
  5
523
100
AcDbEntity
  8
RACCORDO
100
AcDbLine
 62
7
  6
CONTINUOUS
 10
-4.9571192434
 20
-21.2060484211
 11
-4.9571192434
 21
-16.6560484211
  0
LINE
  5
524
100
AcDbEntity
  8
RACCORDO
100
AcDbLine
 62
7
  6
CONTINUOUS
 10
-4.9361731655
 20
-15.8560484211
 11
-4.9361731655
 21
-16.3560484211
  0
LINE
  5
525
100
AcDbEntity
  8
RACCORDO
100
AcDbLine
 62
7
  6
CONTINUOUS
 10
-4.8820624642
 20
-49.4810677943
 11
-4.8820624642
 21
-43.6560484211
  0
LINE
  5
526
100
AcDbEntity
  8
RACCORDO
100
AcDbLine
 62
7
  6
CONTINUOUS
 10
-4.8820624642
 20
-21.2060484211
 11
-4.8820624642
 21
-17.5560484211
  0
LINE
  5
527
100
AcDbEntity
  8
0
100
AcDbLine
 62
7
  6
CONTINUOUS
 10
-4.8245891229
 20
-9.0403857705
 11
-4.8245891229
 21
-7.9440002283
  0
LINE
  5
528
100
AcDbEntity
  8
0
100
AcDbLine
 62
7
  6
CONTINUOUS
 10
-4.2071192434
 20
-43.6560484211
 11
-4.2071192434
 21
-21.2060484211
  0
LINE
  5
529
100
AcDbEntity
  8
0
100
AcDbLine
 62
7
  6
CONTINUOUS
 10
-3.9239867133
 20
-7.9596628789
 11
-3.9239867133
 21
-9.0403857705
  0
LINE
  5
52A
100
AcDbEntity
  8
DRAFT
100
AcDbLine
 62
7
  6
CONTINUOUS
 10
-4.9347700443
 20
-15.5560484211
 11
-4.9361731655
 21
-15.8560484211
  0
LWPOLYLINE
  5
52B
100
AcDbEntity
  8
0
100
AcDbPolyline
 62
7
  6
CONTINUOUS
 90
37
 70
0
 10
-7.401095147
 20
-8.3738665556
 10
-7.4004471786
 20
-8.3320793588
 10
-7.3984979006
 20
-8.2917217838
 10
-7.3952473128
 20
-8.2527938305
 10
-7.3907861004
 20
-8.215183264
 10
-7.3850235784
 20
-8.1790023192
 10
-7.3776876915
 20
-8.1445877006
 10
-7.3686314819
 20
-8.1119896168
 10
-7.3580019074
 20
-8.0811578591
 10
-7.3459677861
 20
-8.0522785058
 10
-7.3324088549
 20
-8.0253561114
 10
-7.317445377
 20
-8.0003861214
 10
-7.3016069599
 20
-7.977540951
 10
-7.2851646656
 20
-7.9567938861
 10
-7.2678474322
 20
-7.9381716409
 10
-7.2493716822
 20
-7.9219267721
 10
-7.2296415348
 20
-7.9081867556
 10
-7.2087528708
 20
-7.8968241155
 10
-7.1867097545
 20
-7.8877089811
 10
-7.1631024003
 20
-7.8807259802
 10
-7.1383405938
 20
-7.875990485
 10
-7.1136577565
 20
-7.8737187415
 10
-7.0890469642
 20
-7.8740804607
 10
-7.064515141
 20
-7.8769059316
 10
-7.041316481
 20
-7.8819022672
 10
-7.0197448155
 20
-7.8891620847
 10
-6.9995063132
 20
-7.8985927669
 10
-6.9809736737
 20
-7.9096235754
 10
-6.9643166863
 20
-7.9220864206
 10
-6.9493655618
 20
-7.9361493922
 10
-6.935983632
 20
-7.9517460211
 10
-6.9242788271
 20
-7.9688640365
 10
-6.9141432168
 20
-7.9875157092
 10
-6.9051163425
 20
-8.0076713833
 10
-6.8970447181
 20
-8.0293211736
 10
-6.8900818296
 20
-8.0524749653
 10
-6.8842276772
 20
-8.0771327584
  0
LWPOLYLINE
  5
52C
100
AcDbEntity
  8
0
100
AcDbPolyline
 62
7
  6
CONTINUOUS
 90
34
 70
0
 10
-7.3776011711
 20
-8.6216545397
 10
-7.3759861021
 20
-8.5903435611
 10
-7.3720033852
 20
-8.5607356591
 10
-7.3656530203
 20
-8.5328308337
 10
-7.3567714371
 20
-8.5065870879
 10
-7.345522206
 20
-8.4820464188
 10
-7.3323960382
 20
-8.4593348171
 10
-7.3174219572
 20
-8.4384331587
 10
-7.3005709395
 20
-8.4193605678
 10
-7.2822466256
 20
-8.4023004081
 10
-7.2625325138
 20
-8.3872308285
 10
-7.2413451058
 20
-8.37417368
 10
-7.2188375472
 20
-8.3633778794
 10
-7.1947593291
 20
-8.3548885168
 10
-7.1693609604
 20
-8.348660502
 10
-7.1435471137
 20
-8.344807481
 10
-7.1171248502
 20
-8.3433981358
 10
-7.0902871088
 20
-8.3443637845
 10
-7.0645173789
 20
-8.3476120269
 10
-7.0402158822
 20
-8.3531657948
 10
-7.016982397
 20
-8.3610021563
 10
-6.9950997476
 20
-8.370959916
 10
-6.9746024524
 20
-8.3830313632
 10
-6.955455993
 20
-8.3972242085
 10
-6.9378396382
 20
-8.4134003881
 10
-6.9216939472
 20
-8.4315421852
 10
-6.907078361
 20
-8.4516673167
 10
-6.8943504713
 20
-8.4736908691
 10
-6.8835353924
 20
-8.4976572045
 10
-6.8746080101
 20
-8.523521961
 10
-6.867850573
 20
-8.5510671389
 10
-6.8633571642
 20
-8.5802200718
 10
-6.8610337006
 20
-8.6110534262
 10
-6.8608801823
 20
-8.6435672021
  0
LWPOLYLINE
  5
52D
100
AcDbEntity
  8
0
100
AcDbPolyline
 62
7
  6
CONTINUOUS
 90
34
 70
0
 10
-6.8608801823
 20
-8.6435672021
 10
-6.8627958757
 20
-8.6757010939
 10
-6.8667627707
 20
-8.7060719403
 10
-6.8727808672
 20
-8.7346797413
 10
-6.8809714927
 20
-8.7616322338
 10
-6.8912133197
 20
-8.7868216809
 10
-6.9031423663
 20
-8.809924872
 10
-6.9166531536
 20
-8.8307471712
 10
-6.9318511605
 20
-8.8494832144
 10
-6.9486888417
 20
-8.8663936993
 10
-6.967330524
 20
-8.8816389068
 10
-6.9876118805
 20
-8.8950585561
 10
-7.0089923854
 20
-8.9064325018
 10
-7.0316109943
 20
-8.9158083173
 10
-7.0553287517
 20
-8.9231384293
 10
-7.0791882648
 20
-8.9280599715
 10
-7.1030707312
 20
-8.9304242898
 10
-7.1270949534
 20
-8.9303800384
 10
-7.1506599461
 20
-8.9280103134
 10
-7.1736842482
 20
-8.9233153029
 10
-7.1962493209
 20
-8.9162948188
 10
-7.2179985627
 20
-8.9070313933
 10
-7.2388839661
 20
-8.8956152528
 10
-7.2589535387
 20
-8.8819561708
 10
-7.2779947017
 20
-8.8658660002
 10
-7.2961471315
 20
-8.8472597404
 10
-7.3132711516
 20
-8.826222392
 10
-7.3287351539
 20
-8.8028208092
 10
-7.3426172838
 20
-8.7767528903
 10
-7.3548393959
 20
-8.7483207371
 10
-7.3645354452
 20
-8.7184975094
 10
-7.37141675
 20
-8.687607594
 10
-7.375771992
 20
-8.6553266041
 10
-7.3776011711
 20
-8.6216545397
  0
LINE
  5
52E
100
AcDbEntity
  8
0
100
AcDbLine
 62
7
  6
CONTINUOUS
 10
-6.2145269378
 20
-8.2885785415
 11
-6.2326369149
 21
-8.429542397
  0
LWPOLYLINE
  5
52F
100
AcDbEntity
  8
0
100
AcDbPolyline
 62
7
  6
CONTINUOUS
 90
32
 70
0
 10
-6.3751915326
 20
-8.1006267343
 10
-6.3694137017
 20
-8.0709203464
 10
-6.3619470299
 20
-8.0431555827
 10
-6.3527915171
 20
-8.0173324432
 10
-6.3418963222
 20
-7.9933465186
 10
-6.3293122863
 20
-7.9713022182
 10
-6.3151919327
 20
-7.9515127696
 10
-6.2995874732
 20
-7.9341233256
 10
-6.282446696
 20
-7.9189887333
 10
-6.2637654896
 20
-7.905986762
 10
-6.243382682
 20
-7.8950214159
 10
-6.2214594452
 20
-7.8861886907
 10
-6.1984751837
 20
-7.8796543438
 10
-6.1740148577
 20
-7.8755039004
 10
-6.148493507
 20
-7.8736518353
 10
-6.1236356556
 20
-7.87400733
 10
-6.0997865174
 20
-7.8765645595
 10
-6.0766008784
 20
-7.8813293488
 10
-6.0547676213
 20
-7.8882283543
 10
-6.0343931331
 20
-7.8974245952
 10
-6.0153710269
 20
-7.9087550523
 10
-5.9980710241
 20
-7.9216573245
 10
-5.9825199374
 20
-7.9360700359
 10
-5.9686909541
 20
-7.9520545624
 10
-5.9568733579
 20
-7.9692326315
 10
-5.9471481868
 20
-7.9876226379
 10
-5.9394344028
 20
-8.0072061869
 10
-5.9337781746
 20
-8.0275498216
 10
-5.930239572
 20
-8.0488617429
 10
-5.9287585253
 20
-8.0709337499
 10
-5.9292009937
 20
-8.092707783
 10
-5.9314235783
 20
-8.1141092196
  0
LWPOLYLINE
  5
530
100
AcDbEntity
  8
0
100
AcDbPolyline
 62
7
  6
CONTINUOUS
 90
15
 70
0
 10
-5.9314235783
 20
-8.1141092196
 10
-5.9355696779
 20
-8.1352126822
 10
-5.9419354487
 20
-8.1551839786
 10
-5.9505748427
 20
-8.1737189319
 10
-5.9614339078
 20
-8.1911217191
 10
-5.9746469436
 20
-8.2074706787
 10
-5.9903609979
 20
-8.2229562899
 10
-6.0084290228
 20
-8.2373880735
 10
-6.0285441745
 20
-8.2502729312
 10
-6.0507116926
 20
-8.2615834049
 10
-6.0749263375
 20
-8.2713469527
 10
-6.1008655471
 20
-8.2791528502
 10
-6.1284218006
 20
-8.2848641894
 10
-6.1577026189
 20
-8.2886178783
 10
-6.1887080018
 20
-8.2904139169
  0
LWPOLYLINE
  5
531
100
AcDbEntity
  8
0
100
AcDbPolyline
 62
7
  6
CONTINUOUS
 90
3
 70
0
 10
-8.09975059
 20
-5.0071486254
 10
-8.1074363216
 20
-5.0299808353
 10
-8.122433639
 20
-5.0754384738
  0
LINE
  5
532
100
AcDbEntity
  8
0
100
AcDbLine
 62
7
  6
CONTINUOUS
 10
-8.0839720132
 20
-4.9612732056
 11
-8.09975059
 21
-5.0071486254
  0
LINE
  5
533
100
AcDbEntity
  8
0
100
AcDbLine
 62
7
  6
CONTINUOUS
 10
-8.6980361084
 20
-7.1560484211
 11
-8.5618444202
 21
-6.764482156
  0
LINE
  5
534
100
AcDbEntity
  8
0
100
AcDbLine
 62
7
  6
CONTINUOUS
 10
-7.1944216506
 20
-5.2638797464
 11
-7.0582299623
 21
-4.8723134813
  0
LINE
  5
535
100
AcDbEntity
  8
0
100
AcDbLine
 62
7
  6
CONTINUOUS
 10
-8.9438662314
 20
-10.9560484211
 11
-8.8076745431
 21
-10.564482156
  0
LINE
  5
536
100
AcDbEntity
  8
0
100
AcDbLine
 62
7
  6
CONTINUOUS
 10
-8.059698462
 20
-4.8919853148
 11
-8.0839720132
 21
-4.9612732056
  0
LINE
  5
537
100
AcDbEntity
  8
0
100
AcDbLine
 62
7
  6
CONTINUOUS
 10
-8.0613737988
 20
-5.2638797464
 11
-7.6799638193
 21
-4.1831568548
  0
LWPOLYLINE
  5
538
100
AcDbEntity
  8
0
100
AcDbPolyline
 62
7
  6
CONTINUOUS
 90
5
 70
0
 10
-8.3779293174
 20
-6.2613376977
 10
-8.3539513349
 20
-6.1933878491
 10
-8.3322984082
 20
-6.1266374105
 10
-8.3125555618
 20
-6.0611788863
 10
-8.2947227956
 20
-5.9970122765
  0
LWPOLYLINE
  5
539
100
AcDbEntity
  8
0
100
AcDbPolyline
 62
7
  6
CONTINUOUS
 90
5
 70
0
 10
-6.8743148596
 20
-4.369169023
 10
-6.850336877
 20
-4.3012191744
 10
-6.8286839504
 20
-4.2344687358
 10
-6.808941104
 20
-4.1690102116
 10
-6.7911083378
 20
-4.1048436018
  0
LWPOLYLINE
  5
53A
100
AcDbEntity
  8
0
100
AcDbPolyline
 62
7
  6
CONTINUOUS
 90
5
 70
0
 10
-8.6237594404
 20
-10.0613376977
 10
-8.5997814578
 20
-9.9933878491
 10
-8.5781285312
 20
-9.9266374105
 10
-8.5583856847
 20
-9.8611788863
 10
-8.5405529186
 20
-9.7970122765
  0
LINE
  5
53B
100
AcDbEntity
  8
0
100
AcDbLine
 62
7
  6
CONTINUOUS
 10
-7.7318463046
 20
-3.9717110717
 11
-8.059698462
 21
-4.8919853148
  0
LWPOLYLINE
  5
53C
100
AcDbEntity
  8
0
100
AcDbPolyline
 62
7
  6
CONTINUOUS
 90
9
 70
0
 10
-9.9086344405
 20
-4.9318375578
 10
-9.9173392188
 20
-4.9555454001
 10
-9.9257693519
 20
-4.9791673775
 10
-9.9339232174
 20
-5.0027070425
 10
-9.9418024378
 20
-5.0261608427
 10
-9.9494118805
 20
-5.049518121
 10
-9.956753168
 20
-5.0727753253
 10
-9.9638246779
 20
-5.0959360078
 10
-9.9706264101
 20
-5.1190001685
  0
LWPOLYLINE
  5
53D
100
AcDbEntity
  8
0
100
AcDbPolyline
 62
7
  6
CONTINUOUS
 90
9
 70
0
 10
-9.9086344405
 20
-6.8240062325
 10
-9.9173392188
 20
-6.8477140748
 10
-9.9257693519
 20
-6.8713360522
 10
-9.9339232174
 20
-6.8948757172
 10
-9.9418024378
 20
-6.9183295174
 10
-9.9494118805
 20
-6.9416867957
 10
-9.956753168
 20
-6.964944
 10
-9.9638246779
 20
-6.9881046825
 10
-9.9706264101
 20
-7.0111688432
  0
LINE
  5
53E
100
AcDbEntity
  8
0
100
AcDbLine
 62
7
  6
CONTINUOUS
 10
-8.5127762408
 20
-6.6235183006
 11
-8.4303705966
 21
-6.4013906513
  0
LINE
  5
53F
100
AcDbEntity
  8
0
100
AcDbLine
 62
7
  6
CONTINUOUS
 10
-7.009161783
 20
-4.7313496259
 11
-6.9267561387
 21
-4.5092219766
  0
LINE
  5
540
100
AcDbEntity
  8
0
100
AcDbLine
 62
7
  6
CONTINUOUS
 10
-8.7586063638
 20
-10.4235183006
 11
-8.6762007195
 21
-10.2013906513
  0
LINE
  5
541
100
AcDbEntity
  8
0
100
AcDbLine
 62
7
  6
CONTINUOUS
 10
-8.4303705966
 20
-6.4013906513
 11
-8.3779293174
 21
-6.2613376977
  0
LINE
  5
542
100
AcDbEntity
  8
0
100
AcDbLine
 62
7
  6
CONTINUOUS
 10
-6.9267561387
 20
-4.5092219766
 11
-6.8743148596
 21
-4.369169023
  0
LINE
  5
543
100
AcDbEntity
  8
0
100
AcDbLine
 62
7
  6
CONTINUOUS
 10
-8.6762007195
 20
-10.2013906513
 11
-8.6237594404
 21
-10.0613376977
  0
LINE
  5
544
100
AcDbEntity
  8
0
100
AcDbLine
 62
7
  6
CONTINUOUS
 10
-9.5438192409
 20
-3.9717110717
 11
-9.9086344405
 21
-4.9318375578
  0
LINE
  5
545
100
AcDbEntity
  8
0
100
AcDbLine
 62
7
  6
CONTINUOUS
 10
-9.5438192409
 20
-5.8638797464
 11
-9.9086344405
 21
-6.8240062325
  0
LINE
  5
546
100
AcDbEntity
  8
0
100
AcDbLine
 62
7
  6
CONTINUOUS
 10
-8.3886986993
 20
-5.8638797464
 11
-8.8798695994
 21
-7.1560484211
  0
LINE
  5
547
100
AcDbEntity
  8
0
100
AcDbLine
 62
7
  6
CONTINUOUS
 10
-6.8850842414
 20
-3.9717110717
 11
-7.3762551416
 21
-5.2638797464
  0
LINE
  5
548
100
AcDbEntity
  8
0
100
AcDbLine
 62
7
  6
CONTINUOUS
 10
-8.6345288222
 20
-9.6638797464
 11
-9.1256997224
 21
-10.9560484211
  0
LINE
  5
549
100
AcDbEntity
  8
0
100
AcDbLine
 62
7
  6
CONTINUOUS
 10
-9.8749373779
 20
-5.2638797464
 11
-9.359538304
 21
-3.9717110717
  0
LINE
  5
54A
100
AcDbEntity
  8
0
100
AcDbLine
 62
7
  6
CONTINUOUS
 10
-9.8749373779
 20
-7.1560484211
 11
-9.359538304
 21
-5.8638797464
  0
LINE
  5
54B
100
AcDbEntity
  8
0
100
AcDbLine
 62
7
  6
CONTINUOUS
 10
-0.6711145952
 20
8.4846972007
 11
-1.8369085952
 21
7.3189042007
  0
LINE
  5
54C
100
AcDbEntity
  8
0
100
AcDbLine
 62
7
  6
CONTINUOUS
 10
-1.9059215952
 20
7.2498902007
 11
-4.0356015952
 21
5.1202112007
  0
LINE
  5
54D
100
AcDbEntity
  8
0
100
AcDbLine
 62
7
  6
CONTINUOUS
 10
1.4393894048
 20
10.5952012007
 11
0.9981164048
 21
10.1539282007
  0
LINE
  5
54E
100
AcDbEntity
  8
0
100
AcDbLine
 62
7
  6
CONTINUOUS
 10
0.7430314048
 20
9.8988442007
 11
-0.5653795952
 21
8.5904322007
  0
LINE
  5
54F
100
AcDbEntity
  8
0
100
AcDbLine
 62
7
  6
CONTINUOUS
 10
2.7991064048
 20
11.9549192007
 11
1.5141564048
 21
10.6699682007
  0
LINE
  5
550
100
AcDbEntity
  8
0
100
AcDbLine
 62
7
  6
CONTINUOUS
 10
0.9158684048
 20
10.0716812007
 11
0.8177984048
 21
9.9736102007
  0
LINE
  5
551
100
AcDbEntity
  8
0
100
AcDbLine
 62
7
  6
CONTINUOUS
 10
-1.8198955952
 20
7.1244462007
 11
-0.5653795952
 21
8.3789622007
  0
LINE
  5
552
100
AcDbEntity
  8
0
100
AcDbLine
 62
7
  6
CONTINUOUS
 10
-0.4596445952
 20
8.4846972007
 11
0.8955934048
 21
9.8399352007
  0
LINE
  5
553
100
AcDbEntity
  8
0
100
AcDbLine
 62
7
  6
CONTINUOUS
 10
0.9779634048
 20
9.9223052007
 11
1.5654614048
 21
10.5098032007
  0
LINE
  5
554
100
AcDbEntity
  8
0
100
AcDbLine
 62
7
  6
CONTINUOUS
 10
-3.9298655952
 20
5.0144752007
 11
-1.8889085952
 21
7.0554312007
  0
LINE
  5
555
100
AcDbEntity
  8
0
100
AcDbLine
 62
7
  6
CONTINUOUS
 10
1.6402284048
 20
10.5845682007
 11
2.9048424048
 21
11.8491832007
  0
LINE
  5
556
100
AcDbEntity
  8
DRAFT
100
AcDbLine
 62
7
  6
CONTINUOUS
 10
17.238150367
 20
23.9392211894
 11
17.3428807566
 21
24.0439515789
  0
LWPOLYLINE
  5
557
100
AcDbEntity
  8
0
100
AcDbPolyline
 62
7
  6
CONTINUOUS
 90
32
 70
0
 10
-6.2326369149
 20
-8.429542397
 10
-6.1981879125
 20
-8.4210677013
 10
-6.164966782
 20
-8.4153652086
 10
-6.1329735234
 20
-8.4124349189
 10
-6.1020692594
 20
-8.4123215665
 10
-6.0723928673
 20
-8.414980417
 10
-6.0443609789
 20
-8.420277268
 10
-6.0181140106
 20
-8.4282671717
 10
-5.993511546
 20
-8.4388950759
 10
-5.9705489687
 20
-8.4518616209
 10
-5.9490110249
 20
-8.467287324
 10
-5.9291129683
 20
-8.4850516679
 10
-5.9114959436
 20
-8.5044937421
 10
-5.89624774
 20
-8.5255274589
 10
-5.8832805682
 20
-8.5482389061
 10
-5.8729722045
 20
-8.5722254361
 10
-5.8653616331
 20
-8.5974602277
 10
-5.8604098698
 20
-8.6239701021
 10
-5.8583777381
 20
-8.6514328759
 10
-5.8593782199
 20
-8.6803610101
 10
-5.8632983333
 20
-8.7102420438
 10
-5.8700599565
 20
-8.7392164106
 10
-5.8799005294
 20
-8.7671277169
 10
-5.892582612
 20
-8.7941323564
 10
-5.9073157625
 20
-8.8188399434
 10
-5.923915443
 20
-8.8407961308
 10
-5.9425661914
 20
-8.8604552657
 10
-5.9630311787
 20
-8.8777900038
 10
-5.9852921075
 20
-8.8928767973
 10
-6.0093672752
 20
-8.905639194
 10
-6.0350747452
 20
-8.9158204931
 10
-6.0630511417
 20
-8.9233477989
  0
LWPOLYLINE
  5
558
100
AcDbEntity
  8
0
100
AcDbPolyline
 62
7
  6
CONTINUOUS
 90
32
 70
0
 10
-10.2422754691
 20
-8.429542397
 10
-10.2078264668
 20
-8.4210677013
 10
-10.1746053363
 20
-8.4153652086
 10
-10.1426120777
 20
-8.4124349189
 10
-10.1117078136
 20
-8.4123215665
 10
-10.0820314215
 20
-8.414980417
 10
-10.0539995332
 20
-8.420277268
 10
-10.0277525648
 20
-8.4282671717
 10
-10.0031501002
 20
-8.4388950759
 10
-9.9801875229
 20
-8.4518616209
 10
-9.9586495791
 20
-8.467287324
 10
-9.9387515226
 20
-8.4850516679
 10
-9.9211344978
 20
-8.5044937421
 10
-9.9058862942
 20
-8.5255274589
 10
-9.8929191224
 20
-8.5482389061
 10
-9.8826107587
 20
-8.5722254361
 10
-9.8750001873
 20
-8.5974602277
 10
-9.870048424
 20
-8.6239701021
 10
-9.8680162923
 20
-8.6514328759
 10
-9.8690167741
 20
-8.6803610101
 10
-9.8729368876
 20
-8.7102420438
 10
-9.8796985107
 20
-8.7392164106
 10
-9.8895390836
 20
-8.7671277169
 10
-9.9022211662
 20
-8.7941323564
 10
-9.9169543167
 20
-8.8188399434
 10
-9.9335539972
 20
-8.8407961308
 10
-9.9522047456
 20
-8.8604552657
 10
-9.9726697329
 20
-8.8777900038
 10
-9.9949306617
 20
-8.8928767973
 10
-10.0190058295
 20
-8.905639194
 10
-10.0447132995
 20
-8.9158204931
 10
-10.0726896959
 20
-8.9233477989
  0
LINE
  5
559
100
AcDbEntity
  8
0
100
AcDbLine
 62
7
  6
CONTINUOUS
 10
-2.2528553855
 20
-6.2583826837
 11
-2.0805662289
 21
-6.2187365919
  0
LWPOLYLINE
  5
55A
100
AcDbEntity
  8
0
100
AcDbPolyline
 62
7
  6
CONTINUOUS
 90
37
 70
0
 10
-5.3621361432
 20
-4.6765303488
 10
-5.3211573093
 20
-4.6696634146
 10
-5.2825063599
 20
-4.6608644265
 10
-5.246183295
 20
-4.6501333842
 10
-5.2120425486
 20
-4.637409552
 10
-5.1802296867
 20
-4.6227536658
 10
-5.151181407
 20
-4.6063479332
 10
-5.125210255
 20
-4.5884535385
 10
-5.1020036851
 20
-4.5688092974
 10
-5.0810607595
 20
-4.5468138651
 10
-5.0621244562
 20
-4.5222169628
 10
-5.045451797
 20
-4.4952688692
 10
-5.0313129098
 20
-4.4661190756
 10
-5.0195551102
 20
-4.4342945026
 10
-5.0103310826
 20
-4.4002682294
 10
-5.0043690078
 20
-4.365608985
 10
-5.0019243394
 20
-4.3303597875
 10
-5.0027416239
 20
-4.2944776187
 10
-5.0067826812
 20
-4.2594021535
 10
-5.0143722503
 20
-4.2251213426
 10
-5.0251855922
 20
-4.1916472353
 10
-5.0382103107
 20
-4.1604556539
 10
-5.0532720303
 20
-4.1319476344
 10
-5.0705451263
 20
-4.1057221409
 10
-5.0895403287
 20
-4.0820518886
 10
-5.1099897007
 20
-4.0610974738
 10
-5.132161179
 20
-4.0426983003
 10
-5.1563693038
 20
-4.026645295
 10
-5.1827833484
 20
-4.012971729
 10
-5.2112340395
 20
-4.0016443313
 10
-5.2415280975
 20
-3.9923542152
 10
-5.2737641792
 20
-3.9852601813
 10
-5.3078436277
 20
-3.9802034289
 10
-5.3432771934
 20
-3.9763986706
 10
-5.379901793
 20
-3.9735841437
 10
-5.4178805098
 20
-3.9720216107
 10
-5.4572133438
 20
-3.9717110717
  0
LINE
  5
55B
100
AcDbEntity
  8
0
100
AcDbLine
 62
7
  6
CONTINUOUS
 10
-10.4004927374
 20
-8.6801448066
 11
-10.5571192434
 21
-8.7036387825
  0
LWPOLYLINE
  5
55C
100
AcDbEntity
  8
0
100
AcDbPolyline
 62
7
  6
CONTINUOUS
 90
38
 70
0
 10
-2.4902845424
 20
-4.7312185141
 10
-2.4480587758
 20
-4.7289689846
 10
-2.4076163313
 20
-4.7246010373
 10
-2.3687449479
 20
-4.7181393632
 10
-2.3316568866
 20
-4.7095592714
 10
-2.2969889302
 20
-4.698786689
 10
-2.2648720376
 20
-4.6856697532
 10
-2.2351752499
 20
-4.6703603268
 10
-2.2081424729
 20
-4.6532399259
 10
-2.1840764034
 20
-4.6346111255
 10
-2.1626743447
 20
-4.6141713505
 10
-2.1432721117
 20
-4.5913943915
 10
-2.1256087037
 20
-4.5661962796
 10
-2.1099451214
 20
-4.5386609838
 10
-2.0964001825
 20
-4.5085142014
 10
-2.0846725779
 20
-4.4752661833
 10
-2.0750636166
 20
-4.4394066785
 10
-2.0685960426
 20
-4.4021306318
 10
-2.0655548079
 20
-4.3629249657
 10
-2.0656549603
 20
-4.3223027577
 10
-2.0690643876
 20
-4.282998184
 10
-2.0761312489
 20
-4.2454710575
 10
-2.0865073849
 20
-4.2092615654
 10
-2.0993162055
 20
-4.1757244455
 10
-2.1144217702
 20
-4.1453386208
 10
-2.1319600195
 20
-4.1176251684
 10
-2.1514621847
 20
-4.092502057
 10
-2.1725832101
 20
-4.0700132584
 10
-2.1956681513
 20
-4.0501148008
 10
-2.2212834059
 20
-4.0325927377
 10
-2.2497279499
 20
-4.0174154479
 10
-2.2807028073
 20
-4.0046145525
 10
-2.3138774476
 20
-3.9940709686
 10
-2.3493750612
 20
-3.9859769932
 10
-2.3870724577
 20
-3.9801403291
 10
-2.4262695355
 20
-3.9758650024
 10
-2.4667329276
 20
-3.9729190215
 10
-2.5086960011
 20
-3.9715343779
  0
LINE
  5
55D
100
AcDbEntity
  8
0
100
AcDbLine
 62
7
  6
CONTINUOUS
 10
-4.1245421325
 20
-4.8331568548
 11
-4.2889999638
 21
-4.8409881801
  0
LINE
  5
55E
100
AcDbEntity
  8
0
100
AcDbLine
 62
7
  6
CONTINUOUS
 10
-3.4745421325
 20
-4.3397833608
 11
-3.3022529759
 21
-4.3319520355
  0
LWPOLYLINE
  5
55F
100
AcDbEntity
  8
0
100
AcDbPolyline
 62
7
  6
CONTINUOUS
 90
17
 70
0
 10
-5.7403139986
 20
-4.6921534794
 10
-5.6681424493
 20
-4.6914222265
 10
-5.6338162423
 20
-4.6925234147
 10
-5.6007441115
 20
-4.6947703746
 10
-5.5689619224
 20
-4.6984614016
 10
-5.5389279607
 20
-4.7058899545
 10
-5.5109809828
 20
-4.7179291649
 10
-5.4847822324
 20
-4.7337059012
 10
-5.4597737259
 20
-4.7528942271
 10
-5.4360510082
 20
-4.7759589042
 10
-5.4135185345
 20
-4.8024351709
 10
-5.391331687
 20
-4.8306028056
 10
-5.3694019681
 20
-4.8600375652
 10
-5.3478178754
 20
-4.8911636928
 10
-5.3260002841
 20
-4.9235336966
 10
-5.3038266292
 20
-4.9570604213
 10
-5.2814194757
 20
-4.9918310221
  0
LINE
  5
560
100
AcDbEntity
  8
0
100
AcDbLine
 62
7
  6
CONTINUOUS
 10
-5.5035613422
 20
-4.5436380323
 11
-5.5669415034
 21
-4.5439046768
  0
LINE
  5
561
100
AcDbEntity
  8
0
100
AcDbLine
 62
7
  6
CONTINUOUS
 10
1.5766626868
 20
-7.0072532403
 11
0.7459304927
 21
-7.0072532403
  0
LINE
  5
562
100
AcDbEntity
  8
0
100
AcDbLine
 62
7
  6
CONTINUOUS
 10
-0.8745421325
 20
-7.0072532403
 11
-1.6576746626
 21
-7.0072532403
  0
LINE
  5
563
100
AcDbEntity
  8
0
100
AcDbLine
 62
7
  6
CONTINUOUS
 10
-5.5733373132
 20
-7.0072532403
 11
-6.3564698433
 21
-7.0072532403
  0
LINE
  5
564
100
AcDbEntity
  8
0
100
AcDbLine
 62
7
  6
CONTINUOUS
 10
-6.7323734578
 20
-7.0072532403
 11
-7.3745421325
 21
-7.0072532403
  0
LINE
  5
565
100
AcDbEntity
  8
0
100
AcDbLine
 62
7
  6
CONTINUOUS
 10
4.3411205181
 20
-6.8506267343
 11
4.9128072651
 21
-6.8506267343
  0
LINE
  5
566
100
AcDbEntity
  8
0
100
AcDbLine
 62
7
  6
CONTINUOUS
 10
5.0694337711
 20
-6.8506267343
 11
5.2417229277
 21
-6.8506267343
  0
LINE
  5
567
100
AcDbEntity
  8
0
100
AcDbLine
 62
7
  6
CONTINUOUS
 10
-8.5618444202
 20
-6.764482156
 11
-8.0120608869
 21
-6.764482156
  0
LINE
  5
568
100
AcDbEntity
  8
0
100
AcDbLine
 62
7
  6
CONTINUOUS
 10
1.9321314835
 20
-6.764482156
 11
2.4819150168
 21
-6.764482156
  0
LINE
  5
569
100
AcDbEntity
  8
0
100
AcDbLine
 62
7
  6
CONTINUOUS
 10
5.2417229277
 20
-6.7018315536
 11
5.0694337711
 21
-6.7018315536
  0
LINE
  5
56A
100
AcDbEntity
  8
0
100
AcDbLine
 62
7
  6
CONTINUOUS
 10
4.9128072651
 20
-6.7018315536
 11
4.4979917568
 21
-6.7018315536
  0
LINE
  5
56B
100
AcDbEntity
  8
0
100
AcDbLine
 62
7
  6
CONTINUOUS
 10
2.4299101651
 20
-6.6235183006
 11
1.9811996628
 21
-6.6235183006
  0
LINE
  5
56C
100
AcDbEntity
  8
0
100
AcDbLine
 62
7
  6
CONTINUOUS
 10
-8.0640657385
 20
-6.6235183006
 11
-8.5127762408
 21
-6.6235183006
  0
LINE
  5
56D
100
AcDbEntity
  8
0
100
AcDbLine
 62
7
  6
CONTINUOUS
 10
-6.3564698433
 20
-6.5608676982
 11
-5.6516505662
 21
-6.5608676982
  0
LINE
  5
56E
100
AcDbEntity
  8
0
100
AcDbLine
 62
7
  6
CONTINUOUS
 10
-1.6576746626
 20
-6.5608676982
 11
-0.9528553855
 21
-6.5608676982
  0
LINE
  5
56F
100
AcDbEntity
  8
0
100
AcDbLine
 62
7
  6
CONTINUOUS
 10
-0.9528553855
 20
-6.4120725174
 11
-1.6576746626
 21
-6.4120725174
  0
LINE
  5
570
100
AcDbEntity
  8
0
100
AcDbLine
 62
7
  6
CONTINUOUS
 10
-5.6516505662
 20
-6.4120725174
 11
-6.3564698433
 21
-6.4120725174
  0
LINE
  5
571
100
AcDbEntity
  8
0
100
AcDbLine
 62
7
  6
CONTINUOUS
 10
-6.3564698433
 20
-6.0126749271
 11
-5.6046626144
 21
-6.0126749271
  0
LINE
  5
572
100
AcDbEntity
  8
0
100
AcDbLine
 62
7
  6
CONTINUOUS
 10
-1.6576746626
 20
-6.0126749271
 11
-0.9058674337
 21
-6.0126749271
  0
LINE
  5
573
100
AcDbEntity
  8
0
100
AcDbLine
 62
7
  6
CONTINUOUS
 10
0.6290723253
 20
-6.0126749271
 11
1.3451491848
 21
-6.0126749271
  0
LINE
  5
574
100
AcDbEntity
  8
0
100
AcDbLine
 62
7
  6
CONTINUOUS
 10
5.0694337711
 20
-5.8638797464
 11
4.9441325663
 21
-5.8638797464
  0
LINE
  5
575
100
AcDbEntity
  8
0
100
AcDbLine
 62
7
  6
CONTINUOUS
 10
2.2916382494
 20
-5.8638797464
 11
2.1052772044
 21
-5.8638797464
  0
LINE
  5
576
100
AcDbEntity
  8
0
100
AcDbLine
 62
7
  6
CONTINUOUS
 10
1.5453373856
 20
-5.8638797464
 11
0.6290723253
 21
-5.8638797464
  0
LINE
  5
577
100
AcDbEntity
  8
0
100
AcDbLine
 62
7
  6
CONTINUOUS
 10
0.3706385904
 20
-5.8638797464
 11
0.1983494338
 21
-5.8638797464
  0
LINE
  5
578
100
AcDbEntity
  8
0
100
AcDbLine
 62
7
  6
CONTINUOUS
 10
-0.4485914081
 20
-5.8638797464
 11
-0.6317710482
 21
-5.8638797464
  0
LINE
  5
579
100
AcDbEntity
  8
0
100
AcDbLine
 62
7
  6
CONTINUOUS
 10
-0.9058674337
 20
-5.8638797464
 11
-1.8299638193
 21
-5.8638797464
  0
LINE
  5
57A
100
AcDbEntity
  8
0
100
AcDbLine
 62
7
  6
CONTINUOUS
 10
-3.4432168313
 20
-5.8638797464
 11
-3.6155059879
 21
-5.8638797464
  0
LINE
  5
57B
100
AcDbEntity
  8
0
100
AcDbLine
 62
7
  6
CONTINUOUS
 10
-3.7601407136
 20
-5.8638797464
 11
-3.9444216506
 21
-5.8638797464
  0
LINE
  5
57C
100
AcDbEntity
  8
0
100
AcDbLine
 62
7
  6
CONTINUOUS
 10
-4.7745421325
 20
-5.8638797464
 11
-4.9577216531
 21
-5.8638797464
  0
LINE
  5
57D
100
AcDbEntity
  8
0
100
AcDbLine
 62
7
  6
CONTINUOUS
 10
-5.6046626144
 20
-5.8638797464
 11
-6.528759
 21
-5.8638797464
  0
LINE
  5
57E
100
AcDbEntity
  8
0
100
AcDbLine
 62
7
  6
CONTINUOUS
 10
-7.3745421325
 20
-5.8638797464
 11
-7.5468312891
 21
-5.8638797464
  0
LINE
  5
57F
100
AcDbEntity
  8
0
100
AcDbLine
 62
7
  6
CONTINUOUS
 10
-8.2023376543
 20
-5.8638797464
 11
-8.3886986993
 21
-5.8638797464
  0
LINE
  5
580
100
AcDbEntity
  8
0
100
AcDbLine
 62
7
  6
CONTINUOUS
 10
-9.0426144217
 20
-5.8638797464
 11
-9.2149035783
 21
-5.8638797464
  0
LINE
  5
581
100
AcDbEntity
  8
0
100
AcDbLine
 62
7
  6
CONTINUOUS
 10
-9.359538304
 20
-5.8638797464
 11
-9.5438192409
 21
-5.8638797464
  0
LINE
  5
582
100
AcDbEntity
  8
0
100
AcDbLine
 62
7
  6
CONTINUOUS
 10
-10.3739397229
 20
-5.8638797464
 11
-10.5571192434
 21
-5.8638797464
  0
LINE
  5
583
100
AcDbEntity
  8
0
100
AcDbLine
 62
7
  6
CONTINUOUS
 10
3.9887108795
 20
-5.8560484211
 11
3.8877602149
 21
-5.8560484211
  0
LINE
  5
584
100
AcDbEntity
  8
0
100
AcDbLine
 62
7
  6
CONTINUOUS
 10
-10.0603196118
 20
-5.2638797464
 11
-9.8749373779
 21
-5.2638797464
  0
LINE
  5
585
100
AcDbEntity
  8
0
100
AcDbLine
 62
7
  6
CONTINUOUS
 10
-9.2149035783
 20
-5.2638797464
 11
-9.0426144217
 21
-5.2638797464
  0
LINE
  5
586
100
AcDbEntity
  8
0
100
AcDbLine
 62
7
  6
CONTINUOUS
 10
-8.7528553855
 20
-5.2638797464
 11
-8.5805662289
 21
-5.2638797464
  0
LINE
  5
587
100
AcDbEntity
  8
0
100
AcDbLine
 62
7
  6
CONTINUOUS
 10
-8.2079663857
 20
-5.2638797464
 11
-8.0613737988
 21
-5.2638797464
  0
LINE
  5
588
100
AcDbEntity
  8
0
100
AcDbLine
 62
7
  6
CONTINUOUS
 10
-7.6799638193
 20
-5.2638797464
 11
-7.5076746626
 21
-5.2638797464
  0
LINE
  5
589
100
AcDbEntity
  8
0
100
AcDbLine
 62
7
  6
CONTINUOUS
 10
-7.3762551416
 20
-5.2638797464
 11
-7.1944216506
 21
-5.2638797464
  0
LINE
  5
58A
100
AcDbEntity
  8
0
100
AcDbLine
 62
7
  6
CONTINUOUS
 10
-6.3643011687
 20
-5.2638797464
 11
-6.1811215286
 21
-5.2638797464
  0
LINE
  5
58B
100
AcDbEntity
  8
0
100
AcDbLine
 62
7
  6
CONTINUOUS
 10
-6.0275541807
 20
-5.2638797464
 11
-5.8552650241
 21
-5.2638797464
  0
LINE
  5
58C
100
AcDbEntity
  8
0
100
AcDbLine
 62
7
  6
CONTINUOUS
 10
-5.1098207246
 20
-5.2638797464
 11
-4.90742993
 21
-5.2638797464
  0
LINE
  5
58D
100
AcDbEntity
  8
0
100
AcDbLine
 62
7
  6
CONTINUOUS
 10
-3.0281565903
 20
-5.2638797464
 11
-2.8558674337
 21
-5.2638797464
  0
LINE
  5
58E
100
AcDbEntity
  8
0
100
AcDbLine
 62
7
  6
CONTINUOUS
 10
-1.980472009
 20
-5.2638797464
 11
-1.798638518
 21
-5.2638797464
  0
LINE
  5
58F
100
AcDbEntity
  8
0
100
AcDbLine
 62
7
  6
CONTINUOUS
 10
-0.9685180361
 20
-5.2638797464
 11
-0.7853383961
 21
-5.2638797464
  0
LINE
  5
590
100
AcDbEntity
  8
0
100
AcDbLine
 62
7
  6
CONTINUOUS
 10
-7.0582299623
 20
-4.8723134813
 11
-6.508446429
 21
-4.8723134813
  0
LINE
  5
591
100
AcDbEntity
  8
0
100
AcDbLine
 62
7
  6
CONTINUOUS
 10
-1.6624468298
 20
-4.8723134813
 11
-1.1126632965
 21
-4.8723134813
  0
LINE
  5
592
100
AcDbEntity
  8
0
100
AcDbLine
 62
7
  6
CONTINUOUS
 10
-2.8558674337
 20
-4.7313496259
 11
-2.4902845424
 21
-4.7312185141
  0
LINE
  5
593
100
AcDbEntity
  8
0
100
AcDbLine
 62
7
  6
CONTINUOUS
 10
-1.1646681481
 20
-4.7313496259
 11
-1.6133786505
 21
-4.7313496259
  0
LINE
  5
594
100
AcDbEntity
  8
0
100
AcDbLine
 62
7
  6
CONTINUOUS
 10
-6.5604512807
 20
-4.7313496259
 11
-7.009161783
 21
-4.7313496259
  0
LINE
  5
595
100
AcDbEntity
  8
0
100
AcDbLine
 62
7
  6
CONTINUOUS
 10
-5.8552650241
 20
-4.1205062524
 11
-5.4502385828
 21
-4.1205062524
  0
LINE
  5
596
100
AcDbEntity
  8
0
100
AcDbLine
 62
7
  6
CONTINUOUS
 10
-1.3029400639
 20
-3.9717110717
 11
-1.4893011089
 21
-3.9717110717
  0
LINE
  5
597
100
AcDbEntity
  8
0
100
AcDbLine
 62
7
  6
CONTINUOUS
 10
-2.5086960011
 20
-3.9715343779
 11
-3.0281565903
 21
-3.9717110717
  0
LINE
  5
598
100
AcDbEntity
  8
0
100
AcDbLine
 62
7
  6
CONTINUOUS
 10
-5.4572133438
 20
-3.9717110717
 11
-6.0275541807
 21
-3.9717110717
  0
LINE
  5
599
100
AcDbEntity
  8
0
100
AcDbLine
 62
7
  6
CONTINUOUS
 10
-6.6987231964
 20
-3.9717110717
 11
-6.8850842414
 21
-3.9717110717
  0
LINE
  5
59A
100
AcDbEntity
  8
0
100
AcDbLine
 62
7
  6
CONTINUOUS
 10
-7.5076746626
 20
-3.9717110717
 11
-7.7318463046
 21
-3.9717110717
  0
LINE
  5
59B
100
AcDbEntity
  8
0
100
AcDbLine
 62
7
  6
CONTINUOUS
 10
-8.4902611955
 20
-3.9717110717
 11
-8.7528553855
 21
-3.9717110717
  0
LINE
  5
59C
100
AcDbEntity
  8
0
100
AcDbLine
 62
7
  6
CONTINUOUS
 10
-9.0426144217
 20
-3.9717110717
 11
-9.2149035783
 21
-3.9717110717
  0
LINE
  5
59D
100
AcDbEntity
  8
0
100
AcDbLine
 62
7
  6
CONTINUOUS
 10
-9.359538304
 20
-3.9717110717
 11
-9.5438192409
 21
-3.9717110717
  0
LINE
  5
59E
100
AcDbEntity
  8
0
100
AcDbLine
 62
7
  6
CONTINUOUS
 10
-10.3739397229
 20
-3.9717110717
 11
-10.5571192434
 21
-3.9717110717
  0
LINE
  5
59F
100
AcDbEntity
  8
0
100
AcDbLine
 62
7
  6
CONTINUOUS
 10
-2.7496238646
 20
-4.5824388993
 11
-2.8558674337
 21
-4.5825544451
  0
LINE
  5
5A0
100
AcDbEntity
  8
0
100
AcDbLine
 62
7
  6
CONTINUOUS
 10
-5.8552650241
 20
-4.6921929994
 11
-5.7403139986
 21
-4.6921534794
  0
LINE
  5
5A1
100
AcDbEntity
  8
0
100
AcDbLine
 62
7
  6
CONTINUOUS
 10
-2.8558674337
 20
-4.1205062524
 11
-2.5767976376
 21
-4.1203099995
  0
LINE
  5
5A2
100
AcDbEntity
  8
0
100
AcDbLine
 62
7
  6
CONTINUOUS
 10
-5.703809322
 20
-4.543367279
 11
-5.8552650241
 21
-4.5433978186
  0
LINE
  5
5A3
100
AcDbEntity
  8
0
100
AcDbLine
 62
7
  6
CONTINUOUS
 10
-5.5669415034
 20
-4.5439046768
 11
-5.703809322
 21
-4.543367279
  0
LINE
  5
5A4
100
AcDbEntity
  8
0
100
AcDbLine
 62
7
  6
CONTINUOUS
 10
-2.5899921551
 20
-4.5831225629
 11
-2.7496238646
 21
-4.5824388993
  0
LWPOLYLINE
  5
5A5
100
AcDbEntity
  8
0
100
AcDbPolyline
 62
7
  6
CONTINUOUS
 90
40
 70
0
 10
-2.5767976376
 20
-4.1203099995
 10
-2.5229750515
 20
-4.1205426947
 10
-2.4971142924
 20
-4.121037722
 10
-2.4718264662
 20
-4.1216398105
 10
-2.4472300715
 20
-4.1225739296
 10
-2.4236538315
 20
-4.1247537196
 10
-2.4011361942
 20
-4.1281777824
 10
-2.3796387116
 20
-4.132847516
 10
-2.3593747616
 20
-4.1396807557
 10
-2.3403842829
 20
-4.1489852543
 10
-2.322627337
 20
-4.1604532589
 10
-2.3061974856
 20
-4.1740793462
 10
-2.290925217
 20
-4.1899534042
 10
-2.276980043
 20
-4.207985545
 10
-2.2649640616
 20
-4.2279006818
 10
-2.25492983
 20
-4.2498738291
 10
-2.2468247909
 20
-4.2737299725
 10
-2.2410933702
 20
-4.2986689822
 10
-2.2379306634
 20
-4.3250793079
 10
-2.2371415749
 20
-4.3525725
 10
-2.2385852434
 20
-4.3791830797
 10
-2.2423429031
 20
-4.4046193188
 10
-2.2483333199
 20
-4.4291729455
 10
-2.2561719294
 20
-4.4517536662
 10
-2.2658482254
 20
-4.4719728416
 10
-2.2773727143
 20
-4.490219111
 10
-2.2903923503
 20
-4.5065680986
 10
-2.3047062982
 20
-4.5209049611
 10
-2.3205153933
 20
-4.5333445417
 10
-2.3380690959
 20
-4.5443069953
 10
-2.3575942978
 20
-4.5539194178
 10
-2.3788641073
 20
-4.5620547132
 10
-2.4014473096
 20
-4.5687517481
 10
-2.4253176351
 20
-4.5738703286
 10
-2.4505013534
 20
-4.5775506486
 10
-2.4766460585
 20
-4.5802521568
 10
-2.5036942617
 20
-4.5819057048
 10
-2.5317034518
 20
-4.5825804411
 10
-2.5604936891
 20
-4.5829432599
 10
-2.5899921551
 20
-4.5831225629
  0
LWPOLYLINE
  5
5A6
100
AcDbEntity
  8
0
100
AcDbPolyline
 62
7
  6
CONTINUOUS
 90
36
 70
0
 10
-5.4502385828
 20
-4.1205062524
 10
-5.4214442989
 20
-4.1209051427
 10
-5.3939164252
 20
-4.1227725443
 10
-5.3676549618
 20
-4.1261084571
 10
-5.3424798562
 20
-4.1308773407
 10
-5.3185711607
 20
-4.1371147355
 10
-5.2964690331
 20
-4.1449272629
 10
-5.2764148158
 20
-4.1542473417
 10
-5.2581671663
 20
-4.1651425533
 10
-5.2415422149
 20
-4.1779222628
 10
-5.2263945636
 20
-4.192813716
 10
-5.2128696103
 20
-4.2095896671
 10
-5.2012196794
 20
-4.2278777446
 10
-5.1913561103
 20
-4.2479537519
 10
-5.1833675636
 20
-4.2695418856
 10
-5.1777723443
 20
-4.2914423635
 10
-5.1747435919
 20
-4.31349523
 10
-5.174108167
 20
-4.3358604407
 10
-5.1758649563
 20
-4.3578180807
 10
-5.1801104937
 20
-4.379346037
 10
-5.1867482453
 20
-4.4004664226
 10
-5.1954874961
 20
-4.4205256616
 10
-5.2063043329
 20
-4.4395246969
 10
-5.2192226689
 20
-4.4574625855
 10
-5.2340235297
 20
-4.473682923
 10
-5.2506780189
 20
-4.4879816665
 10
-5.269215033
 20
-4.5005628588
 10
-5.2895022864
 20
-4.5113822233
 10
-5.3116489481
 20
-4.5203205749
 10
-5.3355458492
 20
-4.5274970987
 10
-5.3607331975
 20
-4.5332250726
 10
-5.3871755299
 20
-4.5373856844
 10
-5.4149083095
 20
-4.5400977463
 10
-5.4435781331
 20
-4.5420309729
 10
-5.4731012157
 20
-4.5432239202
 10
-5.5035613422
 20
-4.5436380323
  0
LWPOLYLINE
  5
5A7
100
AcDbEntity
  8
0
100
AcDbPolyline
 62
7
  6
CONTINUOUS
 90
3
 70
0
 10
-3.8090253434
 20
-4.6693719785
 10
-3.7822484097
 20
-4.6756764855
 10
-3.755907537
 20
-4.6820864789
  0
LWPOLYLINE
  5
5A8
100
AcDbEntity
  8
0
100
AcDbPolyline
 62
7
  6
CONTINUOUS
 90
42
 70
0
 10
-3.7699910833
 20
-4.5013044003
 10
-3.7945006245
 20
-4.4954627745
 10
-3.8182902446
 20
-4.4894593461
 10
-3.8413599436
 20
-4.4832941152
 10
-3.8636847132
 20
-4.4769962746
 10
-3.8852895617
 20
-4.4705366315
 10
-3.9062495143
 20
-4.4638276077
 10
-3.926767177
 20
-4.4569863638
 10
-3.9466399438
 20
-4.4498957392
 10
-3.9653350217
 20
-4.4421166739
 10
-3.9828123423
 20
-4.4336862108
 10
-3.999111974
 20
-4.424567307
 10
-4.0138213286
 20
-4.4142097739
 10
-4.0268413792
 20
-4.4023702844
 10
-4.0382711528
 20
-4.3892921656
 10
-4.0479951412
 20
-4.3751552101
 10
-4.0560668621
 20
-4.3599089516
 10
-4.062432798
 20
-4.3436038565
 10
-4.066816888
 20
-4.3265711161
 10
-4.0692309159
 20
-4.308799282
 10
-4.0696630981
 20
-4.2902998027
 10
-4.0678020223
 20
-4.2714382155
 10
-4.0634596213
 20
-4.2519167307
 10
-4.0568239625
 20
-4.232033138
 10
-4.0481478359
 20
-4.2130463439
 10
-4.0373316832
 20
-4.1950888949
 10
-4.0244750629
 20
-4.1780282445
 10
-4.0101294399
 20
-4.1627256598
 10
-3.9945119349
 20
-4.1495588421
 10
-3.9774054274
 20
-4.1381500901
 10
-3.9587100204
 20
-4.1282275663
 10
-3.9382557027
 20
-4.119756242
 10
-3.9162124856
 20
-4.1127711459
 10
-3.8929905063
 20
-4.1071055268
 10
-3.8686838252
 20
-4.1027583185
 10
-3.8431983818
 20
-4.0997305871
 10
-3.8166621315
 20
-4.0978587806
 10
-3.7886662245
 20
-4.0969611213
 10
-3.7596195105
 20
-4.0972193868
 10
-3.7308764944
 20
-4.0990153578
 10
-3.7024149883
 20
-4.1024069364
 10
-3.6742571801
 20
-4.1073362205
  0
LINE
  5
5A9
100
AcDbEntity
  8
0
100
AcDbLine
 62
7
  6
CONTINUOUS
 10
-2.0492409277
 20
-6.7457603473
 11
-2.2215300843
 21
-6.702565632
  0
LWPOLYLINE
  5
5AA
100
AcDbEntity
  8
0
100
AcDbPolyline
 62
7
  6
CONTINUOUS
 90
14
 70
0
 10
-3.6742571801
 20
-4.1073362205
 10
-3.6478241374
 20
-4.1140112844
 10
-3.623560394
 20
-4.1224727911
 10
-3.6010214163
 20
-4.1326800775
 10
-3.5802946707
 20
-4.1447192287
 10
-3.5614550589
 20
-4.1585469761
 10
-3.5444276794
 20
-4.1742065882
 10
-3.5290752934
 20
-4.1919139554
 10
-3.5152528671
 20
-4.2118080572
 10
-3.5031054344
 20
-4.2337499141
 10
-3.4929308583
 20
-4.2575384777
 10
-3.4848284264
 20
-4.283106732
 10
-3.4786988512
 20
-4.310521693
 10
-3.4745421325
 20
-4.3397833608
  0
LWPOLYLINE
  5
5AB
100
AcDbEntity
  8
0
100
AcDbPolyline
 62
7
  6
CONTINUOUS
 90
7
 70
0
 10
-3.755907537
 20
-4.6820864789
 10
-3.7044810725
 20
-4.6951106942
 10
-3.6793954808
 20
-4.7017249162
 10
-3.6549046568
 20
-4.7087813155
 10
-3.6310615027
 20
-4.7163921225
 10
-3.6078131164
 20
-4.7244451069
 10
-3.5851594978
 20
-4.7329402686
  0
LWPOLYLINE
  5
5AC
100
AcDbEntity
  8
0
100
AcDbPolyline
 62
7
  6
CONTINUOUS
 90
35
 70
0
 10
-3.5851594978
 20
-4.7329402686
 10
-3.5630268533
 20
-4.7422552383
 10
-3.5427255095
 20
-4.7524942746
 10
-3.5242554663
 20
-4.7636573775
 10
-3.5075866256
 20
-4.7756334804
 10
-3.4927490856
 20
-4.7885336499
 10
-3.4798331407
 20
-4.8026910862
 10
-3.4688557554
 20
-4.818167061
 10
-3.4597999652
 20
-4.8349003026
 10
-3.4527051711
 20
-4.8530401959
 10
-3.4474432044
 20
-4.8730053638
 10
-3.4441422338
 20
-4.8943771834
 10
-3.4432261664
 20
-4.9160491709
 10
-3.4448742656
 20
-4.9380798817
 10
-3.448907268
 20
-4.9604107604
 10
-3.4552112902
 20
-4.9817596569
 10
-3.463709066
 20
-5.0017523302
 10
-3.4744778616
 20
-5.0207630213
 10
-3.4876355923
 20
-5.0386323029
 10
-3.5032417264
 20
-5.0553776792
 10
-3.5212367957
 20
-5.070981646
 10
-3.5415603107
 20
-5.0852322635
 10
-3.5643752994
 20
-5.0982417673
 10
-3.5895187338
 20
-5.1098979218
 10
-3.6164410409
 20
-5.1196520801
 10
-3.6450164195
 20
-5.1273985768
 10
-3.6753706708
 20
-5.1332430773
 10
-3.7073316259
 20
-5.1369539314
 10
-3.7413485818
 20
-5.1385784169
 10
-3.7769722414
 20
-5.138069256
 10
-3.8126825445
 20
-5.1350529654
 10
-3.8487557921
 20
-5.1292973983
 10
-3.8849156832
 20
-5.1210347015
 10
-3.9188132545
 20
-5.1105878318
 10
-3.9498324837
 20
-5.0979118295
  0
LWPOLYLINE
  5
5AD
100
AcDbEntity
  8
0
100
AcDbPolyline
 62
7
  6
CONTINUOUS
 90
10
 70
0
 10
1.1664970988
 20
-8.360651112
 10
1.1389997139
 20
-8.3490148535
 10
1.1105317996
 20
-8.3380898884
 10
1.0810933558
 20
-8.3278762166
 10
1.0505915359
 20
-8.3185116503
 10
1.0191191866
 20
-8.3098583773
 10
0.9869548476
 20
-8.3015029618
 10
0.9541913655
 20
-8.2933075918
 10
0.9207358937
 20
-8.2854100794
 10
0.8865884323
 20
-8.2778104244
  0
LWPOLYLINE
  5
5AE
100
AcDbEntity
  8
0
100
AcDbPolyline
 62
7
  6
CONTINUOUS
 90
10
 70
0
 10
-3.4900824168
 20
-4.5841450879
 10
-3.5175798017
 20
-4.5725088294
 10
-3.546047716
 20
-4.5615838643
 10
-3.5754861598
 20
-4.5513701926
 10
-3.6059879797
 20
-4.5420056262
 10
-3.637460329
 20
-4.5333523532
 10
-3.669624668
 20
-4.5249969377
 10
-3.7023881501
 20
-4.5168015677
 10
-3.7358436218
 20
-4.5089040553
 10
-3.7699910833
 20
-4.5013044003
  0
LWPOLYLINE
  5
5AF
100
AcDbEntity
  8
0
100
AcDbPolyline
 62
7
  6
CONTINUOUS
 90
12
 70
0
 10
-3.9498324837
 20
-5.0979118295
 10
-3.9785893931
 20
-5.0830516543
 10
-4.0045830865
 20
-5.0664651431
 10
-4.0275382592
 20
-5.0483870205
 10
-4.0477302158
 20
-5.0285825618
 10
-4.0654839742
 20
-5.0068054293
 10
-4.0807935133
 20
-4.9830130274
 10
-4.0936648541
 20
-4.9572479517
 10
-4.1044410784
 20
-4.9293916516
 10
-4.1132365464
 20
-4.8994046103
 10
-4.1199368978
 20
-4.8673263447
 10
-4.1245421325
 20
-4.8331568548
  0
LINE
  5
5B0
100
AcDbEntity
  8
DRAFT
100
AcDbLine
 62
7
  6
CONTINUOUS
 10
17.238150367
 20
-23.8513180315
 11
17.3428807566
 21
-23.9560484211
  0
LWPOLYLINE
  5
5B1
100
AcDbEntity
  8
0
100
AcDbPolyline
 62
7
  6
CONTINUOUS
 90
3
 70
0
 10
-5.2814194757
 20
-4.9918310221
 10
-5.2352690855
 20
-5.0645057347
 10
-5.1098207246
 20
-5.2638797464
  0
LWPOLYLINE
  5
5B2
100
AcDbEntity
  8
0
100
AcDbPolyline
 62
7
  6
CONTINUOUS
 90
3
 70
0
 10
-1.5254423697
 20
-8.7683370462
 10
-1.4792919795
 20
-8.8410117588
 10
-1.3538436186
 20
-9.0403857705
  0
LWPOLYLINE
  5
5B3
100
AcDbEntity
  8
0
100
AcDbPolyline
 62
7
  6
CONTINUOUS
 90
3
 70
0
 10
-4.90742993
 20
-5.2638797464
 10
-4.9698034459
 20
-5.1646919429
 10
-4.9995552581
 20
-5.1168564133
  0
LWPOLYLINE
  5
5B4
100
AcDbEntity
  8
0
100
AcDbPolyline
 62
7
  6
CONTINUOUS
 90
3
 70
0
 10
-1.151452824
 20
-9.0403857705
 10
-1.2138263399
 20
-8.941197967
 10
-1.2435781522
 20
-8.8933624374
  0
LWPOLYLINE
  5
5B5
100
AcDbEntity
  8
0
100
AcDbPolyline
 62
7
  6
CONTINUOUS
 90
12
 70
0
 10
-4.9995552581
 20
-5.1168564133
 10
-5.055692311
 20
-5.0243514726
 10
-5.0830709123
 20
-4.9803833135
 10
-5.1102747743
 20
-4.9381928714
 10
-5.1372670264
 20
-4.8977006164
 10
-5.1646820781
 20
-4.8591938975
 10
-5.1918863567
 20
-4.8225423566
 10
-5.2195134348
 20
-4.7878763518
 10
-5.2500984399
 20
-4.7558743062
 10
-5.2844864141
 20
-4.7267623611
 10
-5.3218323153
 20
-4.7003143753
 10
-5.3621361432
 20
-4.6765303488
  0
LWPOLYLINE
  5
5B6
100
AcDbEntity
  8
0
100
AcDbPolyline
 62
7
  6
CONTINUOUS
 90
12
 70
0
 10
-1.2435781522
 20
-8.8933624374
 10
-1.299715205
 20
-8.8008574967
 10
-1.3270938064
 20
-8.7568893376
 10
-1.3542976683
 20
-8.7146988955
 10
-1.3812899204
 20
-8.6742066405
 10
-1.4087049721
 20
-8.6356999216
 10
-1.4359092507
 20
-8.5990483807
 10
-1.4635363289
 20
-8.5643823758
 10
-1.4941213339
 20
-8.5323803303
 10
-1.5285093082
 20
-8.5032683852
 10
-1.5658552093
 20
-8.4768203994
 10
-1.6061590373
 20
-8.4530363729
  0
LINE
  5
5B7
100
AcDbEntity
  8
0
100
AcDbLine
 62
7
  6
CONTINUOUS
 10
-2.4251444226
 20
-9.0403857705
 11
-2.9427460905
 21
-7.7482170958
  0
LINE
  5
5B8
100
AcDbEntity
  8
0
100
AcDbLine
 62
7
  6
CONTINUOUS
 10
-2.8621774718
 20
-8.3616501744
 11
-2.8044741747
 21
-8.50785565
  0
LINE
  5
5B9
100
AcDbEntity
  8
0
100
AcDbLine
 62
7
  6
CONTINUOUS
 10
-4.9577216531
 20
-5.8638797464
 11
-4.4609220215
 21
-7.1560484211
  0
LINE
  5
5BA
100
AcDbEntity
  8
0
100
AcDbLine
 62
7
  6
CONTINUOUS
 10
-2.7524693231
 20
-8.6488195054
 11
-2.6083240627
 21
-9.0403857705
  0
LWPOLYLINE
  5
5BB
100
AcDbEntity
  8
0
100
AcDbPolyline
 62
7
  6
CONTINUOUS
 90
32
 70
0
 10
-3.1527701564
 20
-6.7695074881
 10
-3.1343233982
 20
-6.822763913
 10
-3.1132650546
 20
-6.8719690841
 10
-3.0894223226
 20
-6.9174025361
 10
-3.0633166111
 20
-6.9589064891
 10
-3.03514322
 20
-6.9962794901
 10
-3.0047068495
 20
-7.0297229922
 10
-2.9719430095
 20
-7.0596835744
 10
-2.9370388039
 20
-7.0862345185
 10
-2.8998071289
 20
-7.1093025427
 10
-2.8596221829
 20
-7.1291143813
 10
-2.8160674419
 20
-7.1457823305
 10
-2.76955943
 20
-7.1591940941
 10
-2.720721918
 20
-7.1692395178
 10
-2.6685743936
 20
-7.1759756512
 10
-2.6140973691
 20
-7.1793454447
 10
-2.5608561529
 20
-7.1790675954
 10
-2.5094576827
 20
-7.1749854325
 10
-2.4592950207
 20
-7.1672556268
 10
-2.4121126622
 20
-7.1560668878
 10
-2.3686284395
 20
-7.1413663781
 10
-2.3281245203
 20
-7.1232069351
 10
-2.2901919027
 20
-7.1019357805
 10
-2.2549507629
 20
-7.0779793047
 10
-2.2222809246
 20
-7.0509111173
 10
-2.1914128579
 20
-7.0197992687
 10
-2.1618404847
 20
-6.9843548514
 10
-2.1340698831
 20
-6.9448667729
 10
-2.1088497562
 20
-6.901269806
 10
-2.0864296719
 20
-6.8535422082
 10
-2.0665600624
 20
-6.801705722
 10
-2.0492409277
 20
-6.7457603473
  0
LWPOLYLINE
  5
5BC
100
AcDbEntity
  8
0
100
AcDbPolyline
 62
7
  6
CONTINUOUS
 90
39
 70
0
 10
-2.0805662289
 20
-6.2187365919
 10
-2.0974804936
 20
-6.1696742935
 10
-2.1172339349
 20
-6.1238584304
 10
-2.1398265528
 20
-6.0812890028
 10
-2.1655405407
 20
-6.0417824164
 10
-2.1940937051
 20
-6.0055222654
 10
-2.2246394665
 20
-5.9730593321
 10
-2.2567149027
 20
-5.9447674771
 10
-2.2907829357
 20
-5.9202728398
 10
-2.3273857528
 20
-5.8990046208
 10
-2.3665784922
 20
-5.8806754647
 10
-2.4083060155
 20
-5.865572727
 10
-2.4529450952
 20
-5.8539876747
 10
-2.5012295865
 20
-5.8458209192
 10
-2.5524256341
 20
-5.8411718492
 10
-2.6047084437
 20
-5.8406298973
 10
-2.6587283602
 20
-5.8445061311
 10
-2.7138350387
 20
-5.8524894829
 10
-2.7662526503
 20
-5.8642361829
 10
-2.814714833
 20
-5.8797125437
 10
-2.8604879488
 20
-5.8989522525
 10
-2.9035952549
 20
-5.9217126012
 10
-2.9440396613
 20
-5.947992036
 10
-2.981818258
 20
-5.9777921107
 10
-3.0169455724
 20
-6.0108747776
 10
-3.0496746794
 20
-6.0471940143
 10
-3.079752504
 20
-6.0867958432
 10
-3.1064343488
 20
-6.1295802839
 10
-3.1295431042
 20
-6.1753403802
 10
-3.1492558798
 20
-6.2242830882
 10
-3.1653593064
 20
-6.2769292955
 10
-3.1779854502
 20
-6.3341543325
 10
-3.187002245
 20
-6.3950828688
 10
-3.1918001231
 20
-6.4576098005
 10
-3.1920443252
 20
-6.5224913367
 10
-3.1880696105
 20
-6.5889712683
 10
-3.1802706895
 20
-6.6526758649
 10
-3.1684325261
 20
-6.7124793441
 10
-3.1527701564
 20
-6.7695074881
  0
LINE
  5
5BD
100
AcDbEntity
  8
0
100
AcDbLine
 62
7
  6
CONTINUOUS
 10
-4.8245891229
 20
-7.9440002283
 11
-4.4519892798
 21
-9.0403857705
  0
LINE
  5
5BE
100
AcDbEntity
  8
0
100
AcDbLine
 62
7
  6
CONTINUOUS
 10
-4.4140504992
 20
-8.703937818
 11
-4.7342840896
 21
-7.7482170958
  0
LINE
  5
5BF
100
AcDbEntity
  8
0
100
AcDbLine
 62
7
  6
CONTINUOUS
 10
-4.3931412038
 20
-8.7676993017
 11
-4.4140504992
 21
-8.703937818
  0
LINE
  5
5C0
100
AcDbEntity
  8
0
100
AcDbLine
 62
7
  6
CONTINUOUS
 10
-4.37960229
 20
-8.8099355339
 11
-4.3931412038
 21
-8.7676993017
  0
LINE
  5
5C1
100
AcDbEntity
  8
0
100
AcDbLine
 62
7
  6
CONTINUOUS
 10
-4.3664565331
 20
-8.8519444979
 11
-4.37960229
 21
-8.8099355339
  0
LWPOLYLINE
  5
5C2
100
AcDbEntity
  8
0
100
AcDbPolyline
 62
7
  6
CONTINUOUS
 90
6
 70
0
 10
-6.7911083378
 20
-4.1048436018
 10
-6.770729662
 20
-4.1707712137
 10
-6.7488276587
 20
-4.2375787431
 10
-6.725402328
 20
-4.3052661901
 10
-6.7001725285
 20
-4.3737787219
 10
-6.6181545778
 20
-4.5851441503
  0
LWPOLYLINE
  5
5C3
100
AcDbEntity
  8
0
100
AcDbPolyline
 62
7
  6
CONTINUOUS
 90
6
 70
0
 10
-3.0351312319
 20
-7.8813496259
 10
-3.0147525561
 20
-7.9472772378
 10
-2.9928505528
 20
-8.0140847672
 10
-2.969425222
 20
-8.0817722142
 10
-2.9441954225
 20
-8.150284746
 10
-2.8621774718
 20
-8.3616501744
  0
LWPOLYLINE
  5
5C4
100
AcDbEntity
  8
0
100
AcDbPolyline
 62
7
  6
CONTINUOUS
 90
10
 70
0
 10
-4.3712288197
 20
-7.0111688432
 10
-4.3777291903
 20
-6.988179927
 10
-4.3844928472
 20
-6.9650768318
 10
-4.3915197905
 20
-6.9418595574
 10
-4.3988171229
 20
-6.9185260902
 10
-4.4063777417
 20
-6.8950784438
 10
-4.4141803385
 20
-6.87152266
 10
-4.4222178105
 20
-6.8478607526
 10
-4.4304972604
 20
-6.8240907077
 10
-4.7745421325
 20
-5.8638797464
  0
LWPOLYLINE
  5
5C5
100
AcDbEntity
  8
0
100
AcDbPolyline
 62
7
  6
CONTINUOUS
 90
13
 70
0
 10
-5.7079158549
 20
-8.5860739234
 10
-5.7149734101
 20
-8.5552849148
 10
-5.7246767286
 20
-8.5264888229
 10
-5.7367287734
 20
-8.4995688894
 10
-5.7509835933
 20
-8.4745551491
 10
-5.7675871395
 20
-8.4514175671
 10
-5.7866802291
 20
-8.4299492814
 10
-5.8084560296
 20
-8.4099125378
 10
-5.8327213734
 20
-8.3915450905
 10
-5.8590375749
 20
-8.3753533391
 10
-5.8872584056
 20
-8.3615060836
 10
-5.9175300939
 20
-8.3498345241
 10
-5.9498526398
 20
-8.3403386605
  0
LWPOLYLINE
  5
5C6
100
AcDbEntity
  8
0
100
AcDbPolyline
 62
7
  6
CONTINUOUS
 90
17
 70
0
 10
-4.2399626266
 20
-4.3391024184
 10
-4.2350108999
 20
-4.3705362449
 10
-4.227166611
 20
-4.4004091087
 10
-4.2163180271
 20
-4.4290990084
 10
-4.2023625102
 20
-4.4564016477
 10
-4.1853032055
 20
-4.4822878124
 10
-4.1651369678
 20
-4.5067867167
 10
-4.141751723
 20
-4.5297817069
 10
-4.1149228904
 20
-4.5513253151
 10
-4.0848750508
 20
-4.5713650092
 10
-4.0521698727
 20
-4.5896265393
 10
-4.016706901
 20
-4.6057197409
 10
-3.9785865908
 20
-4.6200347785
 10
-3.9386719765
 20
-4.6334678967
 10
-3.8972507362
 20
-4.6463178434
 10
-3.8540351919
 20
-4.6582858707
 10
-3.8090253434
 20
-4.6693719785
  0
LWPOLYLINE
  5
5C7
100
AcDbEntity
  8
0
100
AcDbPolyline
 62
7
  6
CONTINUOUS
 90
36
 70
0
 10
-3.3022529759
 20
-4.3319520355
 10
-3.3061328468
 20
-4.2915572801
 10
-3.3129826942
 20
-4.2534016911
 10
-3.3228025179
 20
-4.2174852684
 10
-3.3355703508
 20
-4.1838938578
 10
-3.3513081601
 20
-4.1525416136
 10
-3.3700818475
 20
-4.1231709985
 10
-3.3917866339
 20
-4.0957061438
 10
-3.4165272984
 20
-4.0702229182
 10
-3.4446840808
 20
-4.0466913904
 10
-3.4765307083
 20
-4.0247818057
 10
-3.5117934536
 20
-4.0048239189
 10
-3.5500313742
 20
-3.9877770629
 10
-3.5913462317
 20
-3.9739219242
 10
-3.6356362645
 20
-3.9629778164
 10
-3.6821552451
 20
-3.9550620125
 10
-3.7318866679
 20
-3.9501341688
 10
-3.7838470385
 20
-3.948234629
 10
-3.8343396471
 20
-3.9496016974
 10
-3.8826500623
 20
-3.9543840835
 10
-3.9294927155
 20
-3.9624330779
 10
-3.9733141908
 20
-3.9735408567
 10
-4.0137305241
 20
-3.9879613502
 10
-4.0511256795
 20
-4.0054406281
 10
-4.0850981339
 20
-4.0250090758
 10
-4.1154827287
 20
-4.0465450832
 10
-4.1424446224
 20
-4.0701702603
 10
-4.166077768
 20
-4.0952798235
 10
-4.1863223797
 20
-4.1217416437
 10
-4.2032382432
 20
-4.1496878498
 10
-4.2170986694
 20
-4.1789100448
 10
-4.2280552345
 20
-4.2097123164
 10
-4.2359563622
 20
-4.2417905769
 10
-4.2406206343
 20
-4.274024166
 10
-4.2419100582
 20
-4.3064856279
 10
-4.2399626266
 20
-4.3391024184
  0
LWPOLYLINE
  5
5C8
100
AcDbEntity
  8
0
100
AcDbPolyline
 62
7
  6
CONTINUOUS
 90
13
 70
0
 10
-3.271212136
 20
-4.8843618915
 10
-3.2741870227
 20
-4.850948244
 10
-3.2803760659
 20
-4.8181503377
 10
-3.2892538896
 20
-4.7871483518
 10
-3.3006489532
 20
-4.7584000762
 10
-3.3147327973
 20
-4.7314477209
 10
-3.3314946677
 20
-4.7060980955
 10
-3.3508643322
 20
-4.682402588
 10
-3.3729120231
 20
-4.6603098103
 10
-3.3978376827
 20
-4.639472407
 10
-3.4257079586
 20
-4.6197745929
 10
-3.4564562033
 20
-4.6013321532
 10
-3.4900824168
 20
-4.5841450879
  0
LINE
  5
5C9
100
AcDbEntity
  8
0
100
AcDbLine
 62
7
  6
CONTINUOUS
 10
-1.8889085952
 20
7.0554312007
 11
-1.7897735952
 21
5.9223052007
  0
LINE
  5
5CA
100
AcDbEntity
  8
0
100
AcDbLine
 62
7
  6
CONTINUOUS
 10
-2.1427005952
 20
9.9562832007
 11
-1.9059215952
 21
7.2498902007
  0
LINE
  5
5CB
100
AcDbEntity
  8
0
100
AcDbLine
 62
7
  6
CONTINUOUS
 10
-2.2313055952
 20
10.9690332007
 11
-2.1629755952
 21
10.1880292007
  0
LINE
  5
5CC
100
AcDbEntity
  8
0
100
AcDbLine
 62
7
  6
CONTINUOUS
 10
-2.2801334248
 20
11.5271387917
 11
-2.2574695952
 21
11.2680992007
  0
LINE
  5
5CD
100
AcDbEntity
  8
0
100
AcDbLine
 62
7
  6
CONTINUOUS
 10
-2.1824175952
 20
11.2680992007
 11
-2.2008465596
 21
11.4787501118
  0
LINE
  5
5CE
100
AcDbEntity
  8
0
100
AcDbLine
 62
7
  6
CONTINUOUS
 10
-2.0807285952
 20
10.1057812007
 11
-2.1562525952
 21
10.9690332007
  0
LINE
  5
5CF
100
AcDbEntity
  8
0
100
AcDbLine
 62
7
  6
CONTINUOUS
 10
-1.8369085952
 20
7.3189042007
 11
-2.0604535952
 21
9.8740352007
  0
LINE
  5
5D0
100
AcDbEntity
  8
0
100
AcDbLine
 62
7
  6
CONTINUOUS
 10
-1.7212625952
 20
5.9970712007
 11
-1.8198955952
 21
7.1244462007
  0
LWPOLYLINE
  5
5D1
100
AcDbEntity
  8
0
100
AcDbPolyline
 62
7
  6
CONTINUOUS
 90
37
 70
0
 10
0.3675795518
 20
-8.6174942042
 10
0.3711140943
 20
-8.6618814389
 10
0.3780016013
 20
-8.704455767
 10
0.3882420728
 20
-8.7452171885
 10
0.4020577275
 20
-8.7844630187
 10
0.4192263466
 20
-8.8218959423
 10
0.4390812738
 20
-8.8566240136
 10
0.4613382321
 20
-8.8882700591
 10
0.4862814984
 20
-8.9172112523
 10
0.5140972474
 20
-8.9436871685
 10
0.544749914
 20
-8.9678557431
 10
0.5782750633
 20
-8.9895590406
 10
0.6149655646
 20
-9.0085628307
 10
0.6551309725
 20
-9.0248448576
 10
0.6984617324
 20
-9.0384273769
 10
0.7443220498
 20
-9.0491429255
 10
0.7934769089
 20
-9.0570138305
 10
0.8451613255
 20
-9.0620177647
 10
0.8964445526
 20
-9.0639202833
 10
0.9471275487
 20
-9.0626896489
 10
0.9974093553
 20
-9.058357599
 10
1.0449563499
 20
-9.0507849008
 10
1.0890387032
 20
-9.0397622061
 10
1.1303862446
 20
-9.0254988631
 10
1.1688548396
 20
-9.0084836843
 10
1.2045460876
 20
-8.9885345269
 10
1.2373583892
 20
-8.9658335337
 10
1.2668428115
 20
-8.9414159461
 10
1.2927935728
 20
-8.9155271888
 10
1.3154164549
 20
-8.8879218372
 10
1.33487987
 20
-8.8588988584
 10
1.3512503627
 20
-8.8283623832
 10
1.3644613884
 20
-8.7964082809
 10
1.3744817251
 20
-8.7636231255
 10
1.381308788
 20
-8.7297201771
 10
1.384945162
 20
-8.6949861758
 10
1.3853673796
 20
-8.6608679156
  0
LWPOLYLINE
  5
5D2
100
AcDbEntity
  8
0
100
AcDbPolyline
 62
7
  6
CONTINUOUS
 90
40
 70
0
 10
0.1950263507
 20
-8.3733280309
 10
0.1909931293
 20
-8.3099832597
 10
0.1833612485
 20
-8.2499182405
 10
0.1721307081
 20
-8.1931329735
 10
0.1572392222
 20
-8.1397459984
 10
0.1387490769
 20
-8.0896387755
 10
0.1168471304
 20
-8.0424556848
 10
0.0913275765
 20
-7.9979848296
 10
0.0623962214
 20
-7.9564381066
 10
0.0308573423
 20
-7.9180955874
 10
-0.0032331486
 20
-7.882919359
 10
-0.0399311636
 20
-7.8509473342
 10
-0.0786001619
 20
-7.8225733231
 10
-0.118797986
 20
-7.7979709844
 10
-0.1609667934
 20
-7.7769666593
 10
-0.2057965169
 20
-7.7594331813
 10
-0.2539741077
 20
-7.7451578599
 10
-0.3048126146
 20
-7.7343533855
 10
-0.3569411152
 20
-7.7275306627
 10
-0.4110515069
 20
-7.7249322181
 10
-0.4664518925
 20
-7.726315525
 10
-0.5196956582
 20
-7.731463908
 10
-0.569634682
 20
-7.7403617319
 10
-0.617417086
 20
-7.753024632
 10
-0.6630406229
 20
-7.7692828385
 10
-0.7065537953
 20
-7.7891893644
 10
-0.7479081006
 20
-7.8126911966
 10
-0.7869557848
 20
-7.8394595266
 10
-0.8238035518
 20
-7.8694349666
 10
-0.8583446977
 20
-7.9026769043
 10
-0.8901113564
 20
-7.9390346939
 10
-0.9190865662
 20
-7.9783723317
 10
-0.9452872889
 20
-8.0208258215
 10
-0.9682965436
 20
-8.0666525287
 10
-0.9881334701
 20
-8.1159904744
 10
-1.0047789286
 20
-8.1687016375
 10
-1.0177585186
 20
-8.22462932
 10
-1.0269141066
 20
-8.2837212893
 10
-1.0324038261
 20
-8.346029778
 10
-1.0342276772
 20
-8.4115547862
  0
LWPOLYLINE
  5
5D3
100
AcDbEntity
  8
0
100
AcDbPolyline
 62
7
  6
CONTINUOUS
 90
40
 70
0
 10
-1.0342276772
 20
-8.4115547862
 10
-1.0312158046
 20
-8.4739705392
 10
-1.0241718272
 20
-8.533594622
 10
-1.0130957451
 20
-8.5904270345
 10
-0.9977289428
 20
-8.6445600876
 10
-0.9783300357
 20
-8.6959014704
 10
-0.95567487
 20
-8.7441742507
 10
-0.9297203527
 20
-8.7894419137
 10
-0.9005095768
 20
-8.8316409742
 10
-0.8689476664
 20
-8.8703040436
 10
-0.835302737
 20
-8.9052366572
 10
-0.7993066731
 20
-8.9366332797
 10
-0.761060253
 20
-8.9646099169
 10
-0.7207635622
 20
-8.9892011148
 10
-0.6782165151
 20
-9.0103723273
 10
-0.6329196334
 20
-9.0281359226
 10
-0.5841013557
 20
-9.0427372643
 10
-0.5325332433
 20
-9.0539309888
 10
-0.4800305018
 20
-9.0609933734
 10
-0.4263138415
 20
-9.0636333388
 10
-0.3716625521
 20
-9.0621419643
 10
-0.3187297087
 20
-9.056668765
 10
-0.2681715705
 20
-9.0471072142
 10
-0.2193318783
 20
-9.0335638386
 10
-0.17289493
 20
-9.016507733
 10
-0.1291450425
 20
-8.9960602268
 10
-0.0877978988
 20
-8.9720999906
 10
-0.0486848461
 20
-8.9447321312
 10
-0.011503854
 20
-8.9137837736
 10
0.0234430471
 20
-8.8794277929
 10
0.0554184191
 20
-8.8422879206
 10
0.0842872054
 20
-8.8026783499
 10
0.1101844626
 20
-8.7602848876
 10
0.1327779219
 20
-8.7147886869
 10
0.1520778656
 20
-8.6661830301
 10
0.1680740113
 20
-8.6144746347
 10
0.1804032443
 20
-8.5593648066
 10
0.188944526
 20
-8.5007539808
 10
0.1938188948
 20
-8.4387417223
 10
0.1950263507
 20
-8.3733280309
  0
LINE
  5
5D4
100
AcDbEntity
  8
DRAFT
100
AcDbLine
 62
7
  6
CONTINUOUS
 10
-3.8682119707
 20
-19.2560484211
 11
-3.8682119707
 21
-29.3447113541
  0
LINE
  5
5D5
100
AcDbEntity
  8
DRAFT
100
AcDbLine
 62
7
  6
CONTINUOUS
 10
-3.8682119707
 20
-33.967385488
 11
-3.8682119707
 21
-48.5560484211
  0
LINE
  5
5D6
100
AcDbEntity
  8
DRAFT
100
AcDbLine
 62
7
  6
CONTINUOUS
 10
-3.8193377889
 20
-46.3560484211
 11
-3.8193377889
 21
-41.5560484211
  0
LINE
  5
5D7
100
AcDbEntity
  8
DRAFT
100
AcDbLine
 62
7
  6
CONTINUOUS
 10
-3.8071192434
 20
-29.361081101
 11
-3.8071192434
 21
-33.9510157411
  0
LINE
  5
5D8
100
AcDbEntity
  8
DRAFT
100
AcDbLine
 62
7
  6
CONTINUOUS
 10
-3.7931551915
 20
-19.2560484211
 11
-3.7931551915
 21
-41.5560484211
  0
LINE
  5
5D9
100
AcDbEntity
  8
DRAFT
100
AcDbLine
 62
7
  6
CONTINUOUS
 10
-3.7931551915
 20
-46.3560484211
 11
-3.7931551915
 21
-48.5560484211
  0
LINE
  5
5DA
100
AcDbEntity
  8
0
100
AcDbLine
 62
7
  6
CONTINUOUS
 10
-3.7516975567
 20
-9.0403857705
 11
-3.7516975567
 21
-7.7482170958
  0
LINE
  5
5DB
100
AcDbEntity
  8
0
100
AcDbLine
 62
7
  6
CONTINUOUS
 10
-3.7071192434
 20
-21.2060484211
 11
-3.7071192434
 21
-41.5560484211
  0
LINE
  5
5DC
100
AcDbEntity
  8
0
100
AcDbLine
 62
7
  6
CONTINUOUS
 10
-3.6155059879
 20
-5.8638797464
 11
-3.6155059879
 21
-7.1560484211
  0
LINE
  5
5DD
100
AcDbEntity
  8
0
100
AcDbLine
 62
7
  6
CONTINUOUS
 10
-3.5571192434
 20
3.5713235789
 11
-3.5571192434
 21
2.0713235789
  0
LINE
  5
5DE
100
AcDbEntity
  8
0
100
AcDbLine
 62
7
  6
CONTINUOUS
 10
-3.4432168313
 20
-7.1560484211
 11
-3.4432168313
 21
-5.8638797464
  0
LINE
  5
5DF
100
AcDbEntity
  8
0
100
AcDbLine
 62
7
  6
CONTINUOUS
 10
-3.0281565903
 20
-3.9717110717
 11
-3.0281565903
 21
-5.2638797464
  0
LINE
  5
5E0
100
AcDbEntity
  8
0
100
AcDbLine
 62
7
  6
CONTINUOUS
 10
-2.8558674337
 20
-5.2638797464
 11
-2.8558674337
 21
-4.7313496259
  0
LINE
  5
5E1
100
AcDbEntity
  8
0
100
AcDbLine
 62
7
  6
CONTINUOUS
 10
-2.8558674337
 20
-4.5825544451
 11
-2.8558674337
 21
-4.1205062524
  0
LINE
  5
5E2
100
AcDbEntity
  8
0
100
AcDbLine
 62
7
  6
CONTINUOUS
 10
-2.8457525952
 20
11.2680992007
 11
-2.8457525952
 21
10.9690332007
  0
LINE
  5
5E3
100
AcDbEntity
  8
0
100
AcDbLine
 62
7
  6
CONTINUOUS
 10
-2.2715770747
 20
-7.7482170958
 11
-2.2715770747
 21
-9.0403857705
  0
LINE
  5
5E4
100
AcDbEntity
  8
0
100
AcDbLine
 62
7
  6
CONTINUOUS
 10
-2.0992879181
 20
-9.0403857705
 11
-2.0992879181
 21
-8.4686990235
  0
LINE
  5
5E5
100
AcDbEntity
  8
0
100
AcDbLine
 62
7
  6
CONTINUOUS
 10
-2.0992879181
 20
-8.3199038427
 11
-2.0992879181
 21
-7.8970122765
  0
LINE
  5
5E6
100
AcDbEntity
  8
0
100
AcDbLine
 62
7
  6
CONTINUOUS
 10
-2.0607065952
 20
11.9036132007
 11
-2.0607067408
 21
11.6109146192
  0
LINE
  5
5E7
100
AcDbEntity
  8
0
100
AcDbLine
 62
7
  6
CONTINUOUS
 10
-2.0607065952
 20
11.5316603026
 11
-2.0607065952
 21
11.2680992007
  0
LINE
  5
5E8
100
AcDbEntity
  8
0
100
AcDbLine
 62
7
  6
CONTINUOUS
 10
-1.9859395322
 20
11.6360860072
 11
-1.9859395952
 21
11.8288462007
  0
LINE
  5
5E9
100
AcDbEntity
  8
0
100
AcDbLine
 62
7
  6
CONTINUOUS
 10
-1.9859395952
 20
11.3428662007
 11
-1.985939695
 21
11.557376501
  0
LINE
  5
5EA
100
AcDbEntity
  8
0
100
AcDbLine
 62
7
  6
CONTINUOUS
 10
-1.8299638193
 20
-5.8638797464
 11
-1.8299638193
 21
-7.1560484211
  0
LINE
  5
5EB
100
AcDbEntity
  8
0
100
AcDbLine
 62
7
  6
CONTINUOUS
 10
-1.7897735952
 20
5.9223052007
 11
-1.7897735952
 21
5.3241732007
  0
LINE
  5
5EC
100
AcDbEntity
  8
0
100
AcDbLine
 62
7
  6
CONTINUOUS
 10
-1.7616415952
 20
11.8288462007
 11
-1.7616416465
 21
11.7017793976
  0
LINE
  5
5ED
100
AcDbEntity
  8
0
100
AcDbLine
 62
7
  6
CONTINUOUS
 10
-1.7616415138
 20
11.6244598949
 11
-1.7616415952
 21
11.3428662007
  0
LINE
  5
5EE
100
AcDbEntity
  8
0
100
AcDbLine
 62
7
  6
CONTINUOUS
 10
-1.6868746258
 20
11.7204973285
 11
-1.6868745952
 21
11.9036132007
  0
LINE
  5
5EF
100
AcDbEntity
  8
0
100
AcDbLine
 62
7
  6
CONTINUOUS
 10
-1.6868745952
 20
11.2680992007
 11
-1.6868745952
 21
11.643566332
  0
LINE
  5
5F0
100
AcDbEntity
  8
0
100
AcDbLine
 62
7
  6
CONTINUOUS
 10
-1.6776235952
 20
5.4363232007
 11
-1.6776235952
 21
5.8849212007
  0
LINE
  5
5F1
100
AcDbEntity
  8
0
100
AcDbLine
 62
7
  6
CONTINUOUS
 10
-1.6576746626
 20
-7.0072532403
 11
-1.6576746626
 21
-6.5608676982
  0
LINE
  5
5F2
100
AcDbEntity
  8
0
100
AcDbLine
 62
7
  6
CONTINUOUS
 10
-1.6576746626
 20
-6.4120725174
 11
-1.6576746626
 21
-6.0126749271
  0
LINE
  5
5F3
100
AcDbEntity
  8
0
100
AcDbLine
 62
7
  6
CONTINUOUS
 10
-1.4533255952
 20
5.8849212007
 11
-1.4533255952
 21
5.4363232007
  0
LINE
  5
5F4
100
AcDbEntity
  8
0
100
AcDbLine
 62
7
  6
CONTINUOUS
 10
-1.3411755952
 20
5.3241732007
 11
-1.3411755952
 21
5.9223052007
  0
LINE
  5
5F5
100
AcDbEntity
  8
0
100
AcDbLine
 62
7
  6
CONTINUOUS
 10
-1.0513615952
 20
9.8475382007
 11
-1.0513615952
 21
9.4737062007
  0
LINE
  5
5F6
100
AcDbEntity
  8
0
100
AcDbLine
 62
7
  6
CONTINUOUS
 10
-0.9765945952
 20
9.5484732007
 11
-0.9765945952
 21
9.7727732007
  0
LINE
  5
5F7
100
AcDbEntity
  8
0
100
AcDbLine
 62
7
  6
CONTINUOUS
 10
-0.9528553855
 20
-6.5608676982
 11
-0.9528553855
 21
-6.4120725174
  0
LINE
  5
5F8
100
AcDbEntity
  8
0
100
AcDbLine
 62
7
  6
CONTINUOUS
 10
-0.9058674337
 20
-6.0126749271
 11
-0.9058674337
 21
-5.8638797464
  0
LINE
  5
5F9
100
AcDbEntity
  8
0
100
AcDbLine
 62
7
  6
CONTINUOUS
 10
-0.9018275908
 20
11.7518570722
 11
-0.9018275952
 21
11.5671652007
  0
LINE
  5
5FA
100
AcDbEntity
  8
0
100
AcDbLine
 62
7
  6
CONTINUOUS
 10
-0.9018275952
 20
12.0157632007
 11
-0.9018275908
 21
11.8266650693
  0
LINE
  5
5FB
100
AcDbEntity
  8
0
100
AcDbLine
 62
7
  6
CONTINUOUS
 10
-0.8745421325
 20
-7.1560484211
 11
-0.8745421325
 21
-7.0072532403
  0
LINE
  5
5FC
100
AcDbEntity
  8
0
100
AcDbLine
 62
7
  6
CONTINUOUS
 10
-0.8270615952
 20
11.6419312007
 11
-0.8270615874
 21
11.7536716674
  0
LINE
  5
5FD
100
AcDbEntity
  8
0
100
AcDbLine
 62
7
  6
CONTINUOUS
 10
-0.8270615935
 20
11.8284460826
 11
-0.8270615952
 21
11.9409962007
  0
LINE
  5
5FE
100
AcDbEntity
  8
0
100
AcDbLine
 62
7
  6
CONTINUOUS
 10
-0.6317710482
 20
-5.8638797464
 11
-0.6317710482
 21
-7.1560484211
  0
LINE
  5
5FF
100
AcDbEntity
  8
0
100
AcDbLine
 62
7
  6
CONTINUOUS
 10
-0.4594818915
 20
-7.1560484211
 11
-0.4594818915
 21
-6.1650186117
  0
LWPOLYLINE
  5
600
100
AcDbEntity
  8
0
100
AcDbPolyline
 62
7
  6
CONTINUOUS
 90
37
 70
0
 10
-0.8619385205
 20
-8.4136350137
 10
-0.8611537544
 20
-8.3600688855
 10
-0.8576390144
 20
-8.3089703591
 10
-0.8513943004
 20
-8.2603394346
 10
-0.8424238122
 20
-8.2139313697
 10
-0.8307233501
 20
-8.1699909067
 10
-0.816280315
 20
-8.1292522723
 10
-0.7990352842
 20
-8.0920801348
 10
-0.7790476805
 20
-8.058109826
 10
-0.7564831729
 20
-8.0269815683
 10
-0.7314538383
 20
-7.9986565725
 10
-0.7038475998
 20
-7.9731736277
 10
-0.6734938958
 20
-7.9502893233
 10
-0.640023176
 20
-7.9296649979
 10
-0.6038049907
 20
-7.9116393129
 10
-0.5657774296
 20
-7.8969848419
 10
-0.5257549832
 20
-7.8858133275
 10
-0.4839231611
 20
-7.8780130272
 10
-0.4417765816
 20
-7.874021287
 10
-0.3990489011
 20
-7.8741378265
 10
-0.3560064633
 20
-7.8780629262
 10
-0.3149429179
 20
-7.8853347732
 10
-0.2765705668
 20
-7.8958938848
 10
-0.2401771081
 20
-7.9097997438
 10
-0.2059192864
 20
-7.9267689863
 10
-0.1739399032
 20
-7.9466050677
 10
-0.144096157
 20
-7.9695045325
 10
-0.1161163872
 20
-7.9957736504
 10
-0.0895828747
 20
-8.0255947247
 10
-0.0649133385
 20
-8.0587854519
 10
-0.0430892753
 20
-8.0951051912
 10
-0.0243140553
 20
-8.134519077
 10
-0.0083843082
 20
-8.1770619747
 10
0.0043285805
 20
-8.2225978399
 10
0.0137008157
 20
-8.2710813244
 10
0.0198561925
 20
-8.3225577764
 10
0.0227947109
 20
-8.3770271958
  0
LWPOLYLINE
  5
601
100
AcDbEntity
  8
0
100
AcDbPolyline
 62
7
  6
CONTINUOUS
 90
38
 70
0
 10
-2.2215300843
 20
-6.702565632
 10
-2.2328450817
 20
-6.7452060309
 10
-2.2463346612
 20
-6.7848695654
 10
-2.2619988229
 20
-6.8215562357
 10
-2.2799488442
 20
-6.8553296438
 10
-2.3000734476
 20
-6.8861261877
 10
-2.3220388011
 20
-6.913755061
 10
-2.3455654924
 20
-6.9379794218
 10
-2.3709329338
 20
-6.9590361122
 10
-2.3986455296
 20
-6.9774448519
 10
-2.4288713813
 20
-6.9934778109
 10
-2.4614423874
 20
-7.0068628191
 10
-2.4963586484
 20
-7.0173030867
 10
-2.5345237912
 20
-7.0248887281
 10
-2.5750341889
 20
-7.0295296287
 10
-2.6151790612
 20
-7.030658655
 10
-2.6547119141
 20
-7.0278878919
 10
-2.6938792416
 20
-7.0216052545
 10
-2.730709745
 20
-7.0124073548
 10
-2.7643197435
 20
-7.0005470584
 10
-2.795592918
 20
-6.9857714998
 10
-2.8252090121
 20
-6.9679186941
 10
-2.8533822642
 20
-6.9470891478
 10
-2.8798984359
 20
-6.9231823545
 10
-2.9047945558
 20
-6.8957348097
 10
-2.9284971237
 20
-6.864409746
 10
-2.9505796397
 20
-6.8295439309
 10
-2.9697996329
 20
-6.7916841623
 10
-2.9858221484
 20
-6.7508913448
 10
-2.998982141
 20
-6.7071045738
 10
-3.0090420045
 20
-6.6606879334
 10
-3.0157657148
 20
-6.6107665803
 10
-3.0193892959
 20
-6.5582153577
 10
-3.0203832136
 20
-6.5060228794
 10
-3.0189798462
 20
-6.454422651
 10
-3.0149468154
 20
-6.4031811669
 10
-3.0080574522
 20
-6.3545865233
 10
-2.9981200822
 20
-6.3092899406
  0
LWPOLYLINE
  5
602
100
AcDbEntity
  8
0
100
AcDbPolyline
 62
7
  6
CONTINUOUS
 90
30
 70
0
 10
-2.9981200822
 20
-6.3092899406
 10
-2.9853263798
 20
-6.2666401985
 10
-2.9700246986
 20
-6.2269717323
 10
-2.9520688343
 20
-6.1902927047
 10
-2.9316049911
 20
-6.1565949529
 10
-2.9094201359
 20
-6.126188424
 10
-2.8859677339
 20
-6.0993429789
 10
-2.8607943198
 20
-6.0757887567
 10
-2.8333264639
 20
-6.0550261211
 10
-2.8032495714
 20
-6.0368274871
 10
-2.7708782371
 20
-6.0214204398
 10
-2.7365828154
 20
-6.008988098
 10
-2.6996620478
 20
-5.9996183597
 10
-2.6608171928
 20
-5.9932233268
 10
-2.6225223795
 20
-5.9897224235
 10
-2.5850943726
 20
-5.9891640122
 10
-2.5482164075
 20
-5.9914997306
 10
-2.5134123191
 20
-5.9965039155
 10
-2.4811888909
 20
-6.0041447904
 10
-2.4510393393
 20
-6.014454132
 10
-2.4229671491
 20
-6.0273016069
 10
-2.397081769
 20
-6.0426211192
 10
-2.3732737501
 20
-6.0604787649
 10
-2.3512182308
 20
-6.0809424985
 10
-2.3308877569
 20
-6.1040426002
 10
-2.3123097825
 20
-6.1297487899
 10
-2.2952418081
 20
-6.1580381817
 10
-2.2796030006
 20
-6.188903147
 10
-2.265474193
 20
-6.2223513143
 10
-2.2528553855
 20
-6.2583826837
  0
LWPOLYLINE
  5
603
100
AcDbEntity
  8
0
100
AcDbPolyline
 62
7
  6
CONTINUOUS
 90
3
 70
0
 10
-4.343773484
 20
-8.7836546495
 10
-4.3514592156
 20
-8.8064868594
 10
-4.3664565331
 20
-8.8519444979
  0
LINE
  5
604
100
AcDbEntity
  8
0
100
AcDbLine
 62
7
  6
CONTINUOUS
 10
-4.3279949072
 20
-8.7377792297
 11
-4.343773484
 21
-8.7836546495
  0
LINE
  5
605
100
AcDbEntity
  8
0
100
AcDbLine
 62
7
  6
CONTINUOUS
 10
-3.4384445446
 20
-9.0403857705
 11
-3.3022528564
 21
-8.6488195054
  0
LINE
  5
606
100
AcDbEntity
  8
0
100
AcDbLine
 62
7
  6
CONTINUOUS
 10
-4.3037213561
 20
-8.6684913389
 11
-4.3279949072
 21
-8.7377792297
  0
LINE
  5
607
100
AcDbEntity
  8
0
100
AcDbLine
 62
7
  6
CONTINUOUS
 10
-4.3053966929
 20
-9.0403857705
 11
-3.9239867133
 21
-7.9596628789
  0
LWPOLYLINE
  5
608
100
AcDbEntity
  8
0
100
AcDbPolyline
 62
7
  6
CONTINUOUS
 90
5
 70
0
 10
-3.1183377536
 20
-8.1456750471
 10
-3.0943597711
 20
-8.0777251985
 10
-3.0727068444
 20
-8.0109747599
 10
-3.052963998
 20
-7.9455162357
 10
-3.0351312319
 20
-7.8813496259
  0
LINE
  5
609
100
AcDbEntity
  8
0
100
AcDbLine
 62
7
  6
CONTINUOUS
 10
-3.9758691986
 20
-7.7482170958
 11
-4.3037213561
 21
-8.6684913389
  0
LWPOLYLINE
  5
60A
100
AcDbEntity
  8
0
100
AcDbPolyline
 62
7
  6
CONTINUOUS
 90
9
 70
0
 10
-4.3092368501
 20
-6.8240062325
 10
-4.3179416284
 20
-6.8477140748
 10
-4.3263717615
 20
-6.8713360522
 10
-4.334525627
 20
-6.8948757172
 10
-4.3424048474
 20
-6.9183295174
 10
-4.3500142901
 20
-6.9416867957
 10
-4.3573555777
 20
-6.964944
 10
-4.3644270875
 20
-6.9881046825
 10
-4.3712288197
 20
-7.0111688432
  0
LINE
  5
60B
100
AcDbEntity
  8
0
100
AcDbLine
 62
7
  6
CONTINUOUS
 10
-3.253184677
 20
-8.50785565
 11
-3.1707790328
 21
-8.2857280007
  0
LINE
  5
60C
100
AcDbEntity
  8
0
100
AcDbLine
 62
7
  6
CONTINUOUS
 10
-3.1707790328
 20
-8.2857280007
 11
-3.1183377536
 21
-8.1456750471
  0
LINE
  5
60D
100
AcDbEntity
  8
0
100
AcDbLine
 62
7
  6
CONTINUOUS
 10
-3.9444216506
 20
-5.8638797464
 11
-4.3092368501
 21
-6.8240062325
  0
LINE
  5
60E
100
AcDbEntity
  8
0
100
AcDbLine
 62
7
  6
CONTINUOUS
 10
-3.1291071355
 20
-7.7482170958
 11
-3.6202780356
 21
-9.0403857705
  0
LINE
  5
60F
100
AcDbEntity
  8
0
100
AcDbLine
 62
7
  6
CONTINUOUS
 10
-4.2755397876
 20
-7.1560484211
 11
-3.7601407136
 21
-5.8638797464
  0
LINE
  5
610
100
AcDbEntity
  8
RACCORDO
100
AcDbLine
 62
7
  6
CONTINUOUS
 10
-6.5571192434
 20
-1.4560484211
 11
-6.5111128844
 21
-1.4100420621
  0
LINE
  5
611
100
AcDbEntity
  8
0
100
AcDbLine
 62
7
  6
CONTINUOUS
 10
2.7991064048
 20
5.0144752007
 11
2.9048424048
 21
5.1202112007
  0
LINE
  5
612
100
AcDbEntity
  8
RACCORDO
100
AcDbLine
 62
7
  6
CONTINUOUS
 10
3.9428807566
 20
-1.4560484211
 11
4.2958903527
 21
-1.4100420621
  0
LINE
  5
613
100
AcDbEntity
  8
DRAFT
100
AcDbLine
 62
7
  6
CONTINUOUS
 10
-6.5571192434
 20
-1.4560484211
 11
-5.0571192434
 21
-1.4560484211
  0
LINE
  5
614
100
AcDbEntity
  8
DRAFT
100
AcDbLine
 62
7
  6
CONTINUOUS
 10
3.9428807566
 20
-1.4560484211
 11
5.4428807566
 21
-1.4560484211
  0
LINE
  5
615
100
AcDbEntity
  8
RACCORDO
100
AcDbLine
 62
250
  6
CONTINUOUS
 10
-6.5111128844
 20
-1.4100420621
 11
-5.4101288396
 21
-1.4100420621
  0
LINE
  5
616
100
AcDbEntity
  8
RACCORDO
100
AcDbLine
 62
250
  6
CONTINUOUS
 10
4.2958903527
 20
-1.4100420621
 11
5.3968743976
 21
-1.4100420621
  0
LINE
  5
617
100
AcDbEntity
  8
RACCORDO
100
AcDbLine
 62
250
  6
CONTINUOUS
 10
-6.4942618583
 20
-0.9103466486
 11
-5.5394277898
 21
-0.9103466486
  0
LINE
  5
618
100
AcDbEntity
  8
RACCORDO
100
AcDbLine
 62
250
  6
CONTINUOUS
 10
4.425189303
 20
-0.9103466486
 11
5.3800233715
 21
-0.9103466486
  0
LINE
  5
619
100
AcDbEntity
  8
RACCORDO
100
AcDbLine
 62
7
  6
CONTINUOUS
 10
-5.0571192434
 20
-1.4560484211
 11
-5.4101288396
 21
-1.4100420621
  0
LINE
  5
61A
100
AcDbEntity
  8
RACCORDO
100
AcDbLine
 62
7
  6
CONTINUOUS
 10
-6.5571192434
 20
1.5439515789
 11
-6.5111128844
 21
1.49794522
  0
LINE
  5
61B
100
AcDbEntity
  8
0
100
AcDbLine
 62
7
  6
CONTINUOUS
 10
-0.4594818915
 20
-6.1650186117
 11
0.1874590698
 21
-7.1560484211
  0
LINE
  5
61C
100
AcDbEntity
  8
0
100
AcDbLine
 62
7
  6
CONTINUOUS
 10
0.1983494338
 20
-6.8549094362
 11
-0.4485914081
 21
-5.8638797464
  0
LINE
  5
61D
100
AcDbEntity
  8
0
100
AcDbLine
 62
7
  6
CONTINUOUS
 10
-0.7853383961
 20
-5.2638797464
 11
-1.3029400639
 21
-3.9717110717
  0
LINE
  5
61E
100
AcDbEntity
  8
0
100
AcDbLine
 62
7
  6
CONTINUOUS
 10
2.8092399172
 20
-7.1560484211
 11
2.2916382494
 21
-5.8638797464
  0
LINE
  5
61F
100
AcDbEntity
  8
0
100
AcDbLine
 62
7
  6
CONTINUOUS
 10
-1.2223714452
 20
-4.5851441503
 11
-1.1646681481
 21
-4.7313496259
  0
LINE
  5
620
100
AcDbEntity
  8
0
100
AcDbLine
 62
7
  6
CONTINUOUS
 10
2.372206868
 20
-6.477312825
 11
2.4299101651
 21
-6.6235183006
  0
LINE
  5
621
100
AcDbEntity
  8
0
100
AcDbLine
 62
7
  6
CONTINUOUS
 10
-1.1126632965
 20
-4.8723134813
 11
-0.9685180361
 21
-5.2638797464
  0
LINE
  5
622
100
AcDbEntity
  8
0
100
AcDbLine
 62
7
  6
CONTINUOUS
 10
2.4819150168
 20
-6.764482156
 11
2.6260602771
 21
-7.1560484211
  0
LWPOLYLINE
  5
623
100
AcDbEntity
  8
0
100
AcDbPolyline
 62
7
  6
CONTINUOUS
 90
6
 70
0
 10
-1.3953252053
 20
-4.1048436018
 10
-1.3749465295
 20
-4.1707712137
 10
-1.3530445262
 20
-4.2375787431
 10
-1.3296191954
 20
-4.3052661901
 10
-1.3043893959
 20
-4.3737787219
 10
-1.2223714452
 20
-4.5851441503
  0
LWPOLYLINE
  5
624
100
AcDbEntity
  8
0
100
AcDbPolyline
 62
7
  6
CONTINUOUS
 90
17
 70
0
 10
0.416616889
 20
-8.1156084425
 10
0.4215686157
 20
-8.147042269
 10
0.4294129046
 20
-8.1769151328
 10
0.4402614885
 20
-8.2056050325
 10
0.4542170054
 20
-8.2329076718
 10
0.4712763101
 20
-8.2587938365
 10
0.4914425478
 20
-8.2832927408
 10
0.5148277926
 20
-8.306287731
 10
0.5416566252
 20
-8.3278313391
 10
0.5717044648
 20
-8.3478710332
 10
0.6044096429
 20
-8.3661325634
 10
0.6398726146
 20
-8.382225765
 10
0.6779929248
 20
-8.3965408026
 10
0.7179075391
 20
-8.4099739208
 10
0.7593287794
 20
-8.4228238675
 10
0.8025443237
 20
-8.4347918948
 10
0.8475541721
 20
-8.4458780026
  0
LWPOLYLINE
  5
625
100
AcDbEntity
  8
0
100
AcDbPolyline
 62
7
  6
CONTINUOUS
 90
36
 70
0
 10
1.3543265397
 20
-8.1084580596
 10
1.3504466688
 20
-8.0680633042
 10
1.3435968214
 20
-8.0299077152
 10
1.3337769977
 20
-7.9939912925
 10
1.3210091648
 20
-7.9603998819
 10
1.3052713555
 20
-7.9290476377
 10
1.2864976681
 20
-7.8996770226
 10
1.2647928817
 20
-7.8722121679
 10
1.2400522172
 20
-7.8467289423
 10
1.2118954348
 20
-7.8231974145
 10
1.1800488073
 20
-7.8012878298
 10
1.144786062
 20
-7.781329943
 10
1.1065481414
 20
-7.7642830869
 10
1.0652332839
 20
-7.7504279483
 10
1.0209432511
 20
-7.7394838405
 10
0.9744242704
 20
-7.7315680366
 10
0.9246928477
 20
-7.7266401929
 10
0.8727324771
 20
-7.7247406531
 10
0.8222398685
 20
-7.7261077215
 10
0.7739294533
 20
-7.7308901076
 10
0.7270868001
 20
-7.738939102
 10
0.6832653248
 20
-7.7500468808
 10
0.6428489915
 20
-7.7644673743
 10
0.6054538361
 20
-7.7819466522
 10
0.5714813817
 20
-7.8015150999
 10
0.5410967869
 20
-7.8230511072
 10
0.5141348932
 20
-7.8466762844
 10
0.4905017475
 20
-7.8717858476
 10
0.4702571359
 20
-7.8982476678
 10
0.4533412724
 20
-7.9261938739
 10
0.4394808462
 20
-7.9554160689
 10
0.4285242811
 20
-7.9862183405
 10
0.4206231534
 20
-8.018296601
 10
0.4159588812
 20
-8.05053019
 10
0.4146694574
 20
-8.082991652
 10
0.416616889
 20
-8.1156084425
  0
LWPOLYLINE
  5
626
100
AcDbEntity
  8
0
100
AcDbPolyline
 62
7
  6
CONTINUOUS
 90
13
 70
0
 10
1.3853673796
 20
-8.6608679156
 10
1.3823924929
 20
-8.6274542681
 10
1.3762034497
 20
-8.5946563618
 10
1.367325626
 20
-8.5636543759
 10
1.3559305624
 20
-8.5349061003
 10
1.3418467183
 20
-8.507953745
 10
1.3250848479
 20
-8.4826041196
 10
1.3057151833
 20
-8.4589086121
 10
1.2836674925
 20
-8.4368158344
 10
1.2587418329
 20
-8.4159784311
 10
1.230871557
 20
-8.396280617
 10
1.2001233123
 20
-8.3778381773
 10
1.1664970988
 20
-8.360651112
  0
LINE
  5
627
100
AcDbEntity
  8
DRAFT
100
AcDbLine
 62
7
  6
CONTINUOUS
 10
3.8205315575
 20
-15.5560484211
 11
3.8219346787
 21
-15.8560484211
  0
LINE
  5
628
100
AcDbEntity
  8
0
100
AcDbLine
 62
7
  6
CONTINUOUS
 10
0.0327505162
 20
11.6692607224
 11
0.0327504048
 21
11.6419312007
  0
LINE
  5
629
100
AcDbEntity
  8
0
100
AcDbLine
 62
7
  6
CONTINUOUS
 10
0.0327504048
 20
11.9409962007
 11
0.032750429
 21
11.7456783163
  0
LINE
  5
62A
100
AcDbEntity
  8
0
100
AcDbLine
 62
7
  6
CONTINUOUS
 10
0.1075174048
 20
11.5671652007
 11
0.1075174116
 21
11.6525232295
  0
LINE
  5
62B
100
AcDbEntity
  8
0
100
AcDbLine
 62
7
  6
CONTINUOUS
 10
0.1075174468
 20
11.7292753833
 11
0.1075174048
 21
12.0157632007
  0
LINE
  5
62C
100
AcDbEntity
  8
0
100
AcDbLine
 62
7
  6
CONTINUOUS
 10
0.1822834048
 20
9.7727732007
 11
0.1822834048
 21
9.5484732007
  0
LINE
  5
62D
100
AcDbEntity
  8
0
100
AcDbLine
 62
7
  6
CONTINUOUS
 10
0.1983494338
 20
-5.8638797464
 11
0.1983494338
 21
-6.8549094362
  0
LINE
  5
62E
100
AcDbEntity
  8
0
100
AcDbLine
 62
7
  6
CONTINUOUS
 10
0.2570504048
 20
9.4737062007
 11
0.2570504048
 21
9.8475382007
  0
LINE
  5
62F
100
AcDbEntity
  8
0
100
AcDbLine
 62
7
  6
CONTINUOUS
 10
0.3706385904
 20
-7.1560484211
 11
0.3706385904
 21
-5.8638797464
  0
LINE
  5
630
100
AcDbEntity
  8
0
100
AcDbLine
 62
7
  6
CONTINUOUS
 10
0.5507590723
 20
-7.0010125578
 11
0.5507590723
 21
-7.1560484211
  0
LINE
  5
631
100
AcDbEntity
  8
0
100
AcDbLine
 62
7
  6
CONTINUOUS
 10
0.6290723253
 20
-5.8638797464
 11
0.6290723253
 21
-6.0126749271
  0
LINE
  5
632
100
AcDbEntity
  8
0
100
AcDbLine
 62
7
  6
CONTINUOUS
 10
0.7430314048
 20
10.6699682007
 11
0.7430314048
 21
9.8988442007
  0
LINE
  5
633
100
AcDbEntity
  8
0
100
AcDbLine
 62
7
  6
CONTINUOUS
 10
0.8177984048
 20
9.9736102007
 11
0.8177984048
 21
10.5952012007
  0
LINE
  5
634
100
AcDbEntity
  8
0
100
AcDbLine
 62
7
  6
CONTINUOUS
 10
1.3037784048
 20
10.9690332007
 11
1.303778526
 21
11.0631150194
  0
LINE
  5
635
100
AcDbEntity
  8
0
100
AcDbLine
 62
7
  6
CONTINUOUS
 10
1.5266156963
 20
-7.7482170958
 11
1.5266156963
 21
-7.8970122765
  0
LINE
  5
636
100
AcDbEntity
  8
0
100
AcDbLine
 62
7
  6
CONTINUOUS
 10
1.5453373856
 20
-6.0126749271
 11
1.5453373856
 21
-5.8638797464
  0
LINE
  5
637
100
AcDbEntity
  8
0
100
AcDbLine
 62
7
  6
CONTINUOUS
 10
1.5654614048
 20
10.5098032007
 11
1.5654614048
 21
9.9223052007
  0
LINE
  5
638
100
AcDbEntity
  8
0
100
AcDbLine
 62
7
  6
CONTINUOUS
 10
1.5766626868
 20
-7.1560484211
 11
1.5766626868
 21
-7.0072532403
  0
LINE
  5
639
100
AcDbEntity
  8
0
100
AcDbLine
 62
7
  6
CONTINUOUS
 10
1.6402284048
 20
9.8475382007
 11
1.6402284048
 21
10.5845682007
  0
LINE
  5
63A
100
AcDbEntity
  8
0
100
AcDbLine
 62
7
  6
CONTINUOUS
 10
1.9495072626
 20
-7.8970122765
 11
1.9495072626
 21
-9.0403857705
  0
LINE
  5
63B
100
AcDbEntity
  8
0
100
AcDbLine
 62
7
  6
CONTINUOUS
 10
2.1217964192
 20
-9.0403857705
 11
2.1217964192
 21
-7.8970122765
  0
LINE
  5
63C
100
AcDbEntity
  8
0
100
AcDbLine
 62
7
  6
CONTINUOUS
 10
2.4428807566
 20
2.0713235789
 11
2.4428807566
 21
3.5713235789
  0
LINE
  5
63D
100
AcDbEntity
  8
0
100
AcDbLine
 62
7
  6
CONTINUOUS
 10
2.5446879855
 20
-7.8970122765
 11
2.5446879855
 21
-7.7482170958
  0
LINE
  5
63E
100
AcDbEntity
  8
0
100
AcDbLine
 62
7
  6
CONTINUOUS
 10
2.5928807566
 20
-41.5560484211
 11
2.5928807566
 21
-21.2060484211
  0
LINE
  5
63F
100
AcDbEntity
  8
DRAFT
100
AcDbLine
 62
7
  6
CONTINUOUS
 10
2.6789167046
 20
-48.5560484211
 11
2.6789167046
 21
-46.3560484211
  0
LINE
  5
640
100
AcDbEntity
  8
DRAFT
100
AcDbLine
 62
7
  6
CONTINUOUS
 10
2.6789167046
 20
-41.5560484211
 11
2.6789167046
 21
-19.2560484211
  0
LINE
  5
641
100
AcDbEntity
  8
DRAFT
100
AcDbLine
 62
7
  6
CONTINUOUS
 10
2.6928807566
 20
-33.9510157411
 11
2.6928807566
 21
-29.361081101
  0
LINE
  5
642
100
AcDbEntity
  8
DRAFT
100
AcDbLine
 62
7
  6
CONTINUOUS
 10
2.705099302
 20
-46.3560484211
 11
2.705099302
 21
-41.5560484211
  0
LINE
  5
643
100
AcDbEntity
  8
0
100
AcDbLine
 62
7
  6
CONTINUOUS
 10
2.740471118
 20
-7.7482170958
 11
2.740471118
 21
-9.0403857705
  0
LINE
  5
644
100
AcDbEntity
  8
DRAFT
100
AcDbLine
 62
7
  6
CONTINUOUS
 10
2.7539734838
 20
-48.5560484211
 11
2.7539734838
 21
-33.967385488
  0
LINE
  5
645
100
AcDbEntity
  8
DRAFT
100
AcDbLine
 62
7
  6
CONTINUOUS
 10
2.7539734838
 20
-29.3447113541
 11
2.7539734838
 21
-19.2560484211
  0
LINE
  5
646
100
AcDbEntity
  8
0
100
AcDbLine
 62
7
  6
CONTINUOUS
 10
2.9127602747
 20
-9.0403857705
 11
2.9127602747
 21
-7.7482170958
  0
LINE
  5
647
100
AcDbEntity
  8
0
100
AcDbLine
 62
7
  6
CONTINUOUS
 10
3.0928807566
 20
-21.2060484211
 11
3.0928807566
 21
-43.6560484211
  0
LINE
  5
648
100
AcDbEntity
  8
0
100
AcDbLine
 62
7
  6
CONTINUOUS
 10
3.5110000362
 20
-6.1810483613
 11
3.5110000362
 21
-6.3347380755
  0
LINE
  5
649
100
AcDbEntity
  8
RACCORDO
100
AcDbLine
 62
7
  6
CONTINUOUS
 10
3.7678239774
 20
-17.5560484211
 11
3.7678239774
 21
-21.2060484211
  0
LINE
  5
64A
100
AcDbEntity
  8
RACCORDO
100
AcDbLine
 62
7
  6
CONTINUOUS
 10
3.7678239774
 20
-43.6560484211
 11
3.7678239774
 21
-49.4810677943
  0
LWPOLYLINE
  5
64B
100
AcDbEntity
  8
0
100
AcDbPolyline
 62
7
  6
CONTINUOUS
 90
37
 70
0
 10
0.0227947109
 20
-8.3770271958
 10
0.0223353285
 20
-8.4325751021
 10
0.0186092735
 20
-8.4853210085
 10
0.0116165456
 20
-8.535264915
 10
0.0012237839
 20
-8.5825549305
 10
-0.0124356506
 20
-8.627042946
 10
-0.0289616742
 20
-8.6682846353
 10
-0.048391964
 20
-8.7060614623
 10
-0.070688843
 20
-8.740591963
 10
-0.0953391966
 20
-8.7720874188
 10
-0.122348431
 20
-8.8006603457
 10
-0.1517111401
 20
-8.8261982276
 10
-0.1828979897
 20
-8.8485747979
 10
-0.2156583975
 20
-8.8677929989
 10
-0.250242946
 20
-8.8838498882
 10
-0.2868740483
 20
-8.8966103712
 10
-0.326228634
 20
-8.9061019429
 10
-0.3676297734
 20
-8.9122971083
 10
-0.4092690918
 20
-8.9149782876
 10
-0.4512473448
 20
-8.9140452837
 10
-0.4934637766
 20
-8.9095982937
 10
-0.5338077457
 20
-8.901720329
 10
-0.5715486198
 20
-8.8903801256
 10
-0.6074170313
 20
-8.8756089474
 10
-0.6414942351
 20
-8.857583598
 10
-0.6739762828
 20
-8.8362806236
 10
-0.704667123
 20
-8.811723478
 10
-0.7330598563
 20
-8.784159326
 10
-0.7592225015
 20
-8.7535366076
 10
-0.7830870399
 20
-8.7199068828
 10
-0.8039425155
 20
-8.6836719963
 10
-0.8216454473
 20
-8.6449185987
 10
-0.8363393162
 20
-8.6035600395
 10
-0.8477436093
 20
-8.5597382121
 10
-0.8557648222
 20
-8.5135004142
 10
-0.8604964593
 20
-8.4647993481
 10
-0.8619385205
 20
-8.4136350137
  0
LINE
  5
64C
100
AcDbEntity
  8
0
100
AcDbLine
 62
7
  6
CONTINUOUS
 10
0.9943774048
 20
10.9690332007
 11
0.9682114048
 21
10.6699682007
  0
LINE
  5
64D
100
AcDbEntity
  8
0
100
AcDbLine
 62
7
  6
CONTINUOUS
 10
0.6605224048
 20
7.1530592007
 11
0.613133339
 21
6.611404448
  0
LINE
  5
64E
100
AcDbEntity
  8
0
100
AcDbLine
 62
7
  6
CONTINUOUS
 10
0.8955934048
 20
9.8399352007
 11
0.6775344048
 21
7.3475182007
  0
LINE
  5
64F
100
AcDbEntity
  8
0
100
AcDbLine
 62
7
  6
CONTINUOUS
 10
0.9616704048
 20
10.5952012007
 11
0.9158684048
 21
10.0716812007
  0
LINE
  5
650
100
AcDbEntity
  8
0
100
AcDbLine
 62
7
  6
CONTINUOUS
 10
0.9981164048
 20
10.1539282007
 11
1.0367234048
 21
10.5952012007
  0
LINE
  5
651
100
AcDbEntity
  8
0
100
AcDbLine
 62
7
  6
CONTINUOUS
 10
1.0432634048
 20
10.6699682007
 11
1.0694284048
 21
10.9690332007
  0
LINE
  5
652
100
AcDbEntity
  8
0
100
AcDbLine
 62
7
  6
CONTINUOUS
 10
0.7465494048
 20
7.2785032007
 11
0.9713104048
 21
9.8475382007
  0
LINE
  5
653
100
AcDbEntity
  8
0
100
AcDbLine
 62
7
  6
CONTINUOUS
 10
0.6872422952
 20
6.6006176647
 11
0.7295364048
 21
7.0840462007
  0
LINE
  5
654
100
AcDbEntity
  8
0
100
AcDbLine
 62
7
  6
CONTINUOUS
 10
-1.798638518
 20
-5.2638797464
 11
-1.6624468298
 21
-4.8723134813
  0
LWPOLYLINE
  5
655
100
AcDbEntity
  8
0
100
AcDbPolyline
 62
7
  6
CONTINUOUS
 90
5
 70
0
 10
-1.478531727
 20
-4.369169023
 10
-1.4545537445
 20
-4.3012191744
 10
-1.4329008178
 20
-4.2344687358
 10
-1.4131579714
 20
-4.1690102116
 10
-1.3953252053
 20
-4.1048436018
  0
LINE
  5
656
100
AcDbEntity
  8
0
100
AcDbLine
 62
7
  6
CONTINUOUS
 10
-1.6133786505
 20
-4.7313496259
 11
-1.5309730062
 21
-4.5092219766
  0
LINE
  5
657
100
AcDbEntity
  8
0
100
AcDbLine
 62
7
  6
CONTINUOUS
 10
-1.5309730062
 20
-4.5092219766
 11
-1.478531727
 21
-4.369169023
  0
LINE
  5
658
100
AcDbEntity
  8
0
100
AcDbLine
 62
7
  6
CONTINUOUS
 10
-1.4893011089
 20
-3.9717110717
 11
-1.980472009
 21
-5.2638797464
  0
LINE
  5
659
100
AcDbEntity
  8
0
100
AcDbLine
 62
7
  6
CONTINUOUS
 10
-5.939941087
 20
-9.6638797464
 11
-6.3291823919
 21
-10.2660352303
  0
LINE
  5
65A
100
AcDbEntity
  8
0
100
AcDbLine
 62
7
  6
CONTINUOUS
 10
-6.2489113972
 20
-10.4087120947
 11
-5.7320439273
 21
-9.6638797464
  0
LINE
  5
65B
100
AcDbEntity
  8
RACCORDO
100
AcDbLine
 62
7
  6
CONTINUOUS
 10
5.4428807566
 20
1.5439515789
 11
5.3968743976
 21
1.49794522
  0
LINE
  5
65C
100
AcDbEntity
  8
DRAFT
100
AcDbLine
 62
7
  6
CONTINUOUS
 10
-18.3523888539
 20
-23.8513180315
 11
-18.4571192434
 21
-23.9560484211
  0
LWPOLYLINE
  5
65D
100
AcDbEntity
  8
0
100
AcDbPolyline
 62
7
  6
CONTINUOUS
 90
11
 70
0
 10
-10.3365514901
 20
-7.779383046
 10
-10.3667117171
 20
-7.796118371
 10
-10.3943597694
 20
-7.8151418637
 10
-10.4196733386
 20
-7.8367845917
 10
-10.4431373478
 20
-7.8615445917
 10
-10.4650835823
 20
-7.8895667875
 10
-10.4851802569
 20
-7.9207062553
 10
-10.5029169385
 20
-7.9550262598
 10
-10.5181234829
 20
-7.9925478893
 10
-10.5309700343
 20
-8.0332500555
 10
-10.5414565928
 20
-8.0771327584
  0
LWPOLYLINE
  5
65E
100
AcDbEntity
  8
0
100
AcDbPolyline
 62
7
  6
CONTINUOUS
 90
11
 70
0
 10
-6.3269129359
 20
-7.779383046
 10
-6.3570731629
 20
-7.796118371
 10
-6.3847212152
 20
-7.8151418637
 10
-6.4100347844
 20
-7.8367845917
 10
-6.4334987936
 20
-7.8615445917
 10
-6.4554450281
 20
-7.8895667875
 10
-6.4755417027
 20
-7.9207062553
 10
-6.4932783843
 20
-7.9550262598
 10
-6.5084849286
 20
-7.9925478893
 10
-6.5213314801
 20
-8.0332500555
 10
-6.5318180386
 20
-8.0771327584
  0
LWPOLYLINE
  5
65F
100
AcDbEntity
  8
0
100
AcDbPolyline
 62
7
  6
CONTINUOUS
 90
33
 70
0
 10
-9.959491194
 20
-8.3403386605
 10
-9.9287646654
 20
-8.3239157008
 10
-9.9010812119
 20
-8.3061189167
 10
-9.8764408336
 20
-8.2869483081
 10
-9.854960438
 20
-8.2664432115
 10
-9.8365231176
 20
-8.2445642904
 10
-9.8207781494
 20
-8.2211935358
 10
-9.8075831339
 20
-8.1962714614
 10
-9.7970804707
 20
-8.1698575535
 10
-9.7893466352
 20
-8.1420122612
 10
-9.7842713369
 20
-8.1123033326
 10
-9.7819648664
 20
-8.0811630197
 10
-9.7828345708
 20
-8.0499485269
 10
-9.7870389291
 20
-8.0187564505
 10
-9.7944194623
 20
-7.9874901942
 10
-9.8049080805
 20
-7.9572171738
 10
-9.818538099
 20
-7.9280591665
 10
-9.8352762024
 20
-7.8998943952
 10
-9.8549543546
 20
-7.8734249443
 10
-9.8776417288
 20
-7.8486267001
 10
-9.9032691518
 20
-7.8255237764
 10
-9.9314610679
 20
-7.8048905981
 10
-9.962183145
 20
-7.7867654276
 10
-9.9954697151
 20
-7.7711100025
 10
-10.0310482189
 20
-7.7585839619
 10
-10.0696733213
 20
-7.7492664003
 10
-10.1105903573
 20
-7.743078223
 10
-10.1512627724
 20
-7.7404417858
 10
-10.1915256188
 20
-7.7416436528
 10
-10.2315438443
 20
-7.7463972598
 10
-10.269275738
 20
-7.754265269
 10
-10.30405678
 20
-7.7652669564
 10
-10.3365514901
 20
-7.779383046
  0
LINE
  5
660
100
AcDbEntity
  8
RACCORDO
100
AcDbLine
 62
7
  6
CONTINUOUS
 10
-5.0571192434
 20
1.5439515789
 11
-5.4101288396
 21
1.49794522
  0
LINE
  5
661
100
AcDbEntity
  8
RACCORDO
100
AcDbLine
 62
250
  6
CONTINUOUS
 10
5.3800233715
 20
0.9982498065
 11
4.425189303
 21
0.9982498065
  0
LINE
  5
662
100
AcDbEntity
  8
RACCORDO
100
AcDbLine
 62
250
  6
CONTINUOUS
 10
-5.5394277898
 20
0.9982498065
 11
-6.4942618583
 21
0.9982498065
  0
LINE
  5
663
100
AcDbEntity
  8
RACCORDO
100
AcDbLine
 62
250
  6
CONTINUOUS
 10
5.3968743976
 20
1.49794522
 11
4.2958903527
 21
1.49794522
  0
LINE
  5
664
100
AcDbEntity
  8
RACCORDO
100
AcDbLine
 62
250
  6
CONTINUOUS
 10
-5.4101288396
 20
1.49794522
 11
-6.5111128844
 21
1.49794522
  0
LINE
  5
665
100
AcDbEntity
  8
DRAFT
100
AcDbLine
 62
7
  6
CONTINUOUS
 10
5.4428807566
 20
1.5439515789
 11
3.9428807566
 21
1.5439515789
  0
LINE
  5
666
100
AcDbEntity
  8
DRAFT
100
AcDbLine
 62
7
  6
CONTINUOUS
 10
-5.0571192434
 20
1.5439515789
 11
-6.5571192434
 21
1.5439515789
  0
LINE
  5
667
100
AcDbEntity
  8
0
100
AcDbLine
 62
7
  6
CONTINUOUS
 10
-3.5571192434
 20
2.0713235789
 11
2.4428807566
 21
2.0713235789
  0
LINE
  5
668
100
AcDbEntity
  8
0
100
AcDbLine
 62
7
  6
CONTINUOUS
 10
2.4428807566
 20
3.5713235789
 11
-3.5571192434
 21
3.5713235789
  0
LINE
  5
669
100
AcDbEntity
  8
RACCORDO
100
AcDbLine
 62
7
  6
CONTINUOUS
 10
3.9428807566
 20
1.5439515789
 11
4.2958903527
 21
1.49794522
  0
LINE
  5
66A
100
AcDbEntity
  8
0
100
AcDbLine
 62
7
  6
CONTINUOUS
 10
-4.0356015952
 20
5.1202112007
 11
-3.9298655952
 21
5.0144752007
  0
LINE
  5
66B
100
AcDbEntity
  8
RACCORDO
100
AcDbLine
 62
7
  6
CONTINUOUS
 10
5.4428807566
 20
-1.4560484211
 11
5.3968743976
 21
-1.4100420621
  0
LINE
  5
66C
100
AcDbEntity
  8
DRAFT
100
AcDbLine
 62
7
  6
CONTINUOUS
 10
-18.3523888539
 20
23.9392211894
 11
-18.4571192434
 21
24.0439515789
  0
LINE
  5
66D
100
AcDbEntity
  8
0
100
AcDbLine
 62
7
  6
CONTINUOUS
 10
5.5706387099
 20
-9.0403857705
 11
5.0530370421
 21
-7.7482170958
  0
LINE
  5
66E
100
AcDbEntity
  8
0
100
AcDbLine
 62
7
  6
CONTINUOUS
 10
5.1336056607
 20
-8.3616501744
 11
5.1913089578
 21
-8.50785565
  0
LINE
  5
66F
100
AcDbEntity
  8
0
100
AcDbLine
 62
7
  6
CONTINUOUS
 10
6.0970506336
 20
-7.7482170958
 11
6.5938502652
 21
-9.0403857705
  0
LINE
  5
670
100
AcDbEntity
  8
0
100
AcDbLine
 62
7
  6
CONTINUOUS
 10
5.2433138095
 20
-8.6488195054
 11
5.3874590698
 21
-9.0403857705
  0
LWPOLYLINE
  5
671
100
AcDbEntity
  8
0
100
AcDbPolyline
 62
7
  6
CONTINUOUS
 90
32
 70
0
 10
3.2032069496
 20
-8.6538448375
 10
3.2216537078
 20
-8.7071012624
 10
3.2427120514
 20
-8.7563064335
 10
3.2665547834
 20
-8.8017398855
 10
3.2926604948
 20
-8.8432438385
 10
3.3208338859
 20
-8.8806168395
 10
3.3512702565
 20
-8.9140603416
 10
3.3840340964
 20
-8.9440209238
 10
3.418938302
 20
-8.9705718679
 10
3.4561699771
 20
-8.9936398921
 10
3.496354923
 20
-9.0134517307
 10
3.5399096641
 20
-9.0301196799
 10
3.586417676
 20
-9.0435314435
 10
3.6352551879
 20
-9.0535768672
 10
3.6874027124
 20
-9.0603130006
 10
3.7418797368
 20
-9.0636827941
 10
3.795120953
 20
-9.0634049448
 10
3.8465194233
 20
-9.0593227819
 10
3.8966820853
 20
-9.0515929762
 10
3.9438644438
 20
-9.0404042372
 10
3.9873486665
 20
-9.0257037275
 10
4.0278525857
 20
-9.0075442845
 10
4.0657852032
 20
-8.9862731299
 10
4.1010263431
 20
-8.9623166541
 10
4.1336961813
 20
-8.9352484667
 10
4.1645642481
 20
-8.9041366181
 10
4.1941366212
 20
-8.8686922008
 10
4.2219072229
 20
-8.8292041223
 10
4.2471273497
 20
-8.7856071554
 10
4.269547434
 20
-8.7378795576
 10
4.2894170435
 20
-8.6860430714
 10
4.3067361783
 20
-8.6300976967
  0
LWPOLYLINE
  5
672
100
AcDbEntity
  8
0
100
AcDbPolyline
 62
7
  6
CONTINUOUS
 90
39
 70
0
 10
4.2754108771
 20
-8.1030739413
 10
4.2584966124
 20
-8.0540116429
 10
4.2387431711
 20
-8.0081957798
 10
4.2161505531
 20
-7.9656263522
 10
4.1904365653
 20
-7.9261197658
 10
4.1618834008
 20
-7.8898596148
 10
4.1313376394
 20
-7.8573966815
 10
4.0992622033
 20
-7.8291048265
 10
4.0651941702
 20
-7.8046101892
 10
4.0285913532
 20
-7.7833419702
 10
3.9893986138
 20
-7.7650128141
 10
3.9476710904
 20
-7.7499100764
 10
3.9030320108
 20
-7.7383250241
 10
3.8547475194
 20
-7.7301582686
 10
3.8035514718
 20
-7.7255091986
 10
3.7512686622
 20
-7.7249672467
 10
3.6972487457
 20
-7.7288434805
 10
3.6421420672
 20
-7.7368268323
 10
3.5897244556
 20
-7.7485735323
 10
3.5412622729
 20
-7.7640498931
 10
3.4954891572
 20
-7.7832896019
 10
3.452381851
 20
-7.8060499506
 10
3.4119374446
 20
-7.8323293854
 10
3.3741588479
 20
-7.8621294601
 10
3.3390315335
 20
-7.895212127
 10
3.3063024266
 20
-7.9315313637
 10
3.2762246019
 20
-7.9711331926
 10
3.2495427572
 20
-8.0139176333
 10
3.2264340017
 20
-8.0596777296
 10
3.2067212261
 20
-8.1086204376
 10
3.1906177995
 20
-8.1612666449
 10
3.1779916558
 20
-8.2184916819
 10
3.168974861
 20
-8.2794202181
 10
3.1641769829
 20
-8.3419471499
 10
3.1639327808
 20
-8.4068286861
 10
3.1679074954
 20
-8.4733086177
 10
3.1757064165
 20
-8.5370132143
 10
3.1875445798
 20
-8.5968166934
 10
3.2032069496
 20
-8.6538448375
  0
LWPOLYLINE
  5
673
100
AcDbEntity
  8
0
100
AcDbPolyline
 62
7
  6
CONTINUOUS
 90
6
 70
0
 10
2.199253108
 20
-5.9970122765
 10
2.2196317838
 20
-6.0629398884
 10
2.2415337871
 20
-6.1297474178
 10
2.2649591178
 20
-6.1974348648
 10
2.2901889173
 20
-6.2659473966
 10
2.372206868
 20
-6.477312825
  0
LWPOLYLINE
  5
674
100
AcDbEntity
  8
0
100
AcDbPolyline
 62
7
  6
CONTINUOUS
 90
6
 70
0
 10
4.9606519007
 20
-7.8813496259
 10
4.9810305765
 20
-7.9472772378
 10
5.0029325798
 20
-8.0140847672
 10
5.0263579105
 20
-8.0817722142
 10
5.05158771
 20
-8.150284746
 10
5.1336056607
 20
-8.3616501744
  0
LINE
  5
675
100
AcDbEntity
  8
RACCORDO
100
AcDbLine
 62
7
  6
CONTINUOUS
 10
3.8219346787
 20
-15.8560484211
 11
3.8219346787
 21
-16.3560484211
  0
LINE
  5
676
100
AcDbEntity
  8
0
100
AcDbLine
 62
7
  6
CONTINUOUS
 10
3.8320843735
 20
-6.143115398
 11
3.8320843735
 21
-7.1560484211
  0
LINE
  5
677
100
AcDbEntity
  8
RACCORDO
100
AcDbLine
 62
7
  6
CONTINUOUS
 10
3.8428807566
 20
-16.6560484211
 11
3.8428807566
 21
-21.2060484211
  0
LINE
  5
678
100
AcDbEntity
  8
RACCORDO
100
AcDbLine
 62
7
  6
CONTINUOUS
 10
3.8428807566
 20
-43.6560484211
 11
3.8428807566
 21
-49.5561245735
  0
LINE
  5
679
100
AcDbEntity
  8
DRAFT
100
AcDbLine
 62
7
  6
CONTINUOUS
 10
3.9428807566
 20
1.5439515789
 11
3.9428807566
 21
-1.4560484211
  0
LINE
  5
67A
100
AcDbEntity
  8
DRAFT
100
AcDbLine
 62
7
  6
CONTINUOUS
 10
3.9428807566
 20
-21.2060484211
 11
3.9428807566
 21
-20.3370678693
  0
LINE
  5
67B
100
AcDbEntity
  8
SMUSSO
100
AcDbLine
 62
7
  6
CONTINUOUS
 10
3.9428807566
 20
-20.3370678693
 11
3.9428807566
 21
-17.7060484211
  0
LINE
  5
67C
100
AcDbEntity
  8
0
100
AcDbLine
 62
7
  6
CONTINUOUS
 10
3.9428807566
 20
-43.6560484211
 11
3.9428807566
 21
-53.9560484211
  0
LINE
  5
67D
100
AcDbEntity
  8
0
100
AcDbLine
 62
7
  6
CONTINUOUS
 10
3.9887108795
 20
-7.1560484211
 11
3.9887108795
 21
-5.8560484211
  0
LINE
  5
67E
100
AcDbEntity
  8
0
100
AcDbLine
 62
7
  6
CONTINUOUS
 10
4.3411205181
 20
-6.7018315536
 11
4.3411205181
 21
-6.8506267343
  0
LINE
  5
67F
100
AcDbEntity
  8
RACCORDO
100
AcDbLine
 62
7
  6
CONTINUOUS
 10
4.425189303
 20
-0.9103466486
 11
4.425189303
 21
0.9982498065
  0
LINE
  5
680
100
AcDbEntity
  8
0
100
AcDbLine
 62
7
  6
CONTINUOUS
 10
4.9128072651
 20
-6.1252501536
 11
4.9128072651
 21
-6.7018315536
  0
LINE
  5
681
100
AcDbEntity
  8
0
100
AcDbLine
 62
7
  6
CONTINUOUS
 10
4.9128072651
 20
-6.8506267343
 11
4.9128072651
 21
-7.1560484211
  0
LINE
  5
682
100
AcDbEntity
  8
0
100
AcDbLine
 62
7
  6
CONTINUOUS
 10
4.9428807566
 20
-53.4560484211
 11
4.9428807566
 21
-46.5560484211
  0
LINE
  5
683
100
AcDbEntity
  8
ASSI
100
AcDbLine
 62
7
  6
CONTINUOUS
 10
4.9428807566
 20
46.6439515789
 11
4.9428807566
 21
53.5439515789
  0
LINE
  5
684
100
AcDbEntity
  8
0
100
AcDbLine
 62
7
  6
CONTINUOUS
 10
5.0694337711
 20
-7.1560484211
 11
5.0694337711
 21
-6.8506267343
  0
LINE
  5
685
100
AcDbEntity
  8
0
100
AcDbLine
 62
7
  6
CONTINUOUS
 10
5.0694337711
 20
-6.7018315536
 11
5.0694337711
 21
-5.8638797464
  0
LINE
  5
686
100
AcDbEntity
  8
0
100
AcDbLine
 62
7
  6
CONTINUOUS
 10
5.2417229277
 20
-6.8506267343
 11
5.2417229277
 21
-6.7018315536
  0
LINE
  5
687
100
AcDbEntity
  8
RACCORDO
100
AcDbLine
 62
7
  6
CONTINUOUS
 10
5.3800233715
 20
-0.9103466486
 11
5.3800233715
 21
0.9982498065
  0
LINE
  5
688
100
AcDbEntity
  8
DRAFT
100
AcDbLine
 62
7
  6
CONTINUOUS
 10
5.4428807566
 20
-1.4560484211
 11
5.4428807566
 21
1.5439515789
  0
LINE
  5
689
100
AcDbEntity
  8
0
100
AcDbLine
 62
7
  6
CONTINUOUS
 10
7.4392662987
 20
-7.7482170958
 11
7.4392662987
 21
-9.0403857705
  0
LINE
  5
68A
100
AcDbEntity
  8
0
100
AcDbLine
 62
7
  6
CONTINUOUS
 10
7.6115554554
 20
-9.0403857705
 11
7.6115554554
 21
-7.7482170958
  0
LINE
  5
68B
100
AcDbEntity
  8
DRAFT
100
AcDbLine
 62
7
  6
CONTINUOUS
 10
3.7678239774
 20
-17.5560484211
 11
3.8027341072
 21
-15.5560484211
  0
LWPOLYLINE
  5
68C
100
AcDbEntity
  8
0
100
AcDbPolyline
 62
7
  6
CONTINUOUS
 90
38
 70
0
 10
4.1344470216
 20
-8.5869029814
 10
4.1231320243
 20
-8.6295433803
 10
4.1096424447
 20
-8.6692069148
 10
4.093978283
 20
-8.7058935851
 10
4.0760282618
 20
-8.7396669932
 10
4.0559036584
 20
-8.7704635371
 10
4.0339383049
 20
-8.7980924104
 10
4.0104116136
 20
-8.8223167712
 10
3.9850441722
 20
-8.8433734616
 10
3.9573315763
 20
-8.8617822013
 10
3.9271057247
 20
-8.8778151603
 10
3.8945347185
 20
-8.8912001685
 10
3.8596184575
 20
-8.9016404361
 10
3.8214533147
 20
-8.9092260774
 10
3.780942917
 20
-8.9138669781
 10
3.7407980448
 20
-8.9149960044
 10
3.7012651919
 20
-8.9122252413
 10
3.6620978644
 20
-8.9059426039
 10
3.625267361
 20
-8.8967447042
 10
3.5916573624
 20
-8.8848844078
 10
3.560384188
 20
-8.8701088492
 10
3.5307680939
 20
-8.8522560435
 10
3.5025948417
 20
-8.8314264972
 10
3.47607867
 20
-8.8075197039
 10
3.4511825501
 20
-8.7800721591
 10
3.4274799823
 20
-8.7487470954
 10
3.4053974663
 20
-8.7138812803
 10
3.3861774731
 20
-8.6760215117
 10
3.3701549576
 20
-8.6352286942
 10
3.3569949649
 20
-8.5914419232
 10
3.3469351014
 20
-8.5450252828
 10
3.3402113912
 20
-8.4951039297
 10
3.3365878101
 20
-8.4425527071
 10
3.3355938924
 20
-8.3903602288
 10
3.3369972598
 20
-8.3387600004
 10
3.3410302906
 20
-8.2875185163
 10
3.3479196538
 20
-8.2389238727
 10
3.3578570237
 20
-8.19362729
  0
LWPOLYLINE
  5
68D
100
AcDbEntity
  8
0
100
AcDbPolyline
 62
7
  6
CONTINUOUS
 90
30
 70
0
 10
3.3578570237
 20
-8.19362729
 10
3.3706507261
 20
-8.1509775479
 10
3.3859524073
 20
-8.1113090817
 10
3.4039082717
 20
-8.0746300541
 10
3.4243721148
 20
-8.0409323023
 10
3.4465569701
 20
-8.0105257734
 10
3.4700093721
 20
-7.9836803283
 10
3.4951827861
 20
-7.9601261061
 10
3.5226506421
 20
-7.9393634705
 10
3.5527275345
 20
-7.9211648365
 10
3.5850988688
 20
-7.9057577892
 10
3.6193942906
 20
-7.8933254474
 10
3.6563150581
 20
-7.8839557091
 10
3.6951599132
 20
-7.8775606762
 10
3.7334547265
 20
-7.8740597729
 10
3.7708827333
 20
-7.8735013616
 10
3.8077606984
 20
-7.87583708
 10
3.8425647869
 20
-7.8808412649
 10
3.8747882151
 20
-7.8884821398
 10
3.9049377666
 20
-7.8987914814
 10
3.9330099569
 20
-7.9116389563
 10
3.958895337
 20
-7.9269584686
 10
3.9827033558
 20
-7.9448161143
 10
4.0047588751
 20
-7.9652798479
 10
4.025089349
 20
-7.9883799496
 10
4.0436673234
 20
-8.0140861393
 10
4.0607352978
 20
-8.0423755311
 10
4.0763741054
 20
-8.0732404964
 10
4.0905029129
 20
-8.1066886637
 10
4.1031217204
 20
-8.1427200331
  0
LINE
  5
68E
100
AcDbEntity
  8
0
100
AcDbLine
 62
7
  6
CONTINUOUS
 10
1.7959397952
 20
-7.1560484211
 11
1.9321314835
 21
-6.764482156
  0
LINE
  5
68F
100
AcDbEntity
  8
0
100
AcDbLine
 62
7
  6
CONTINUOUS
 10
4.5573385879
 20
-9.0403857705
 11
4.6935302761
 21
-8.6488195054
  0
LWPOLYLINE
  5
690
100
AcDbEntity
  8
0
100
AcDbPolyline
 62
7
  6
CONTINUOUS
 90
5
 70
0
 10
2.1160465862
 20
-6.2613376977
 10
2.1400245687
 20
-6.1933878491
 10
2.1616774954
 20
-6.1266374105
 10
2.1814203418
 20
-6.0611788863
 10
2.199253108
 20
-5.9970122765
  0
LWPOLYLINE
  5
691
100
AcDbEntity
  8
0
100
AcDbPolyline
 62
7
  6
CONTINUOUS
 90
5
 70
0
 10
4.8774453789
 20
-8.1456750471
 10
4.9014233614
 20
-8.0777251985
 10
4.9230762881
 20
-8.0109747599
 10
4.9428191345
 20
-7.9455162357
 10
4.9606519007
 20
-7.8813496259
  0
LINE
  5
692
100
AcDbEntity
  8
0
100
AcDbLine
 62
7
  6
CONTINUOUS
 10
1.9811996628
 20
-6.6235183006
 11
2.063605307
 21
-6.4013906513
  0
LINE
  5
693
100
AcDbEntity
  8
0
100
AcDbLine
 62
7
  6
CONTINUOUS
 10
4.7425984555
 20
-8.50785565
 11
4.8250040997
 21
-8.2857280007
  0
LINE
  5
694
100
AcDbEntity
  8
0
100
AcDbLine
 62
7
  6
CONTINUOUS
 10
2.063605307
 20
-6.4013906513
 11
2.1160465862
 21
-6.2613376977
  0
LINE
  5
695
100
AcDbEntity
  8
0
100
AcDbLine
 62
7
  6
CONTINUOUS
 10
4.8250040997
 20
-8.2857280007
 11
4.8774453789
 21
-8.1456750471
  0
LINE
  5
696
100
AcDbEntity
  8
0
100
AcDbLine
 62
7
  6
CONTINUOUS
 10
2.1052772044
 20
-5.8638797464
 11
1.6141063042
 21
-7.1560484211
  0
LINE
  5
697
100
AcDbEntity
  8
0
100
AcDbLine
 62
7
  6
CONTINUOUS
 10
4.8666759971
 20
-7.7482170958
 11
4.3755050969
 21
-9.0403857705
  0
LWPOLYLINE
  5
698
100
AcDbEntity
  8
0
100
AcDbPolyline
 62
7
  6
CONTINUOUS
 90
13
 70
0
 10
3.8877602149
 20
-5.8560484211
 10
3.8712353288
 20
-5.8858776894
 10
3.8518220567
 20
-5.9153384983
 10
3.8295203987
 20
-5.9444308477
 10
3.8041654717
 20
-5.973219739
 10
3.7759221588
 20
-6.0016401708
 10
3.7452851093
 20
-6.0294971393
 10
3.7124630436
 20
-6.0568503784
 10
3.6772472413
 20
-6.0836401541
 10
3.6395061906
 20
-6.1094922608
 10
3.5991960542
 20
-6.1342819633
 10
3.5563606694
 20
-6.1581339968
 10
3.5110000362
 20
-6.1810483613
  0
LINE
  5
699
100
AcDbEntity
  8
0
100
AcDbLine
 62
7
  6
CONTINUOUS
 10
4.9441325663
 20
-5.8638797464
 11
4.3411205181
 21
-6.7018315536
  0
LINE
  5
69A
100
AcDbEntity
  8
0
100
AcDbLine
 62
7
  6
CONTINUOUS
 10
4.4979917568
 20
-6.7018315536
 11
4.9128072651
 21
-6.1252501536
  0
LINE
  5
69B
100
AcDbEntity
  8
0
100
AcDbLine
 62
7
  6
CONTINUOUS
 10
1.2106706251
 20
-6.1674659382
 11
0.5507590723
 21
-7.0010125578
  0
LINE
  5
69C
100
AcDbEntity
  8
0
100
AcDbLine
 62
7
  6
CONTINUOUS
 10
0.7459304927
 20
-7.0072532403
 11
1.5453373856
 21
-6.0126749271
  0
LWPOLYLINE
  5
69D
100
AcDbEntity
  8
0
100
AcDbPolyline
 62
7
  6
CONTINUOUS
 90
10
 70
0
 10
1.3451491848
 20
-6.0126749271
 10
1.3300286736
 20
-6.0287221978
 10
1.314955125
 20
-6.04506464
 10
1.299928539
 20
-6.0617022537
 10
1.2849520493
 20
-6.0786446905
 10
1.2700225222
 20
-6.0958822988
 10
1.2551305564
 20
-6.1133861232
 10
1.2402730181
 20
-6.1311465121
 10
1.225453041
 20
-6.1491731171
 10
1.2106706251
 20
-6.1674659382
  0
LWPOLYLINE
  5
69E
100
AcDbEntity
  8
0
100
AcDbPolyline
 62
7
  6
CONTINUOUS
 90
33
 70
0
 10
-5.9498526398
 20
-8.3403386605
 10
-5.9191261112
 20
-8.3239157008
 10
-5.8914426577
 20
-8.3061189167
 10
-5.8668022793
 20
-8.2869483081
 10
-5.8453218838
 20
-8.2664432115
 10
-5.8268845633
 20
-8.2445642904
 10
-5.8111395951
 20
-8.2211935358
 10
-5.7979445797
 20
-8.1962714614
 10
-5.7874419164
 20
-8.1698575535
 10
-5.779708081
 20
-8.1420122612
 10
-5.7746327827
 20
-8.1123033326
 10
-5.7723263122
 20
-8.0811630197
 10
-5.7731960165
 20
-8.0499485269
 10
-5.7774003749
 20
-8.0187564505
 10
-5.7847809081
 20
-7.9874901942
 10
-5.7952695263
 20
-7.9572171738
 10
-5.8088995448
 20
-7.9280591665
 10
-5.8256376482
 20
-7.8998943952
 10
-5.8453158004
 20
-7.8734249443
 10
-5.8680031746
 20
-7.8486267001
 10
-5.8936305976
 20
-7.8255237764
 10
-5.9218225137
 20
-7.8048905981
 10
-5.9525445908
 20
-7.7867654276
 10
-5.9858311609
 20
-7.7711100025
 10
-6.0214096647
 20
-7.7585839619
 10
-6.0600347671
 20
-7.7492664003
 10
-6.100951803
 20
-7.743078223
 10
-6.1416242182
 20
-7.7404417858
 10
-6.1818870646
 20
-7.7416436528
 10
-6.2219052901
 20
-7.7463972598
 10
-6.2596371838
 20
-7.754265269
 10
-6.2944182258
 20
-7.7652669564
 10
-6.3269129359
 20
-7.779383046
  0
LWPOLYLINE
  5
69F
100
AcDbEntity
  8
0
100
AcDbPolyline
 62
7
  6
CONTINUOUS
 90
10
 70
0
 10
3.5110000362
 20
-6.3347380755
 10
3.5532599671
 20
-6.317071787
 10
3.5940344451
 20
-6.29839998
 10
3.6333234701
 20
-6.2787226546
 10
3.6713410695
 20
-6.2579074928
 10
3.707873216
 20
-6.2360868125
 10
3.7422778278
 20
-6.2136575676
 10
3.7743408777
 20
-6.1907520758
 10
3.804276393
 20
-6.1672380193
 10
3.8320843735
 20
-6.143115398
  0
LINE
  5
6A0
100
AcDbEntity
  8
0
100
AcDbLine
 62
7
  6
CONTINUOUS
 10
-1.7897735952
 20
5.3241732007
 11
-1.3411755952
 21
5.3241732007
  0
LINE
  5
6A1
100
AcDbEntity
  8
0
100
AcDbLine
 62
7
  6
CONTINUOUS
 10
-1.4533255952
 20
5.4363232007
 11
-1.6776235952
 21
5.4363232007
  0
LINE
  5
6A2
100
AcDbEntity
  8
0
100
AcDbLine
 62
7
  6
CONTINUOUS
 10
-1.6776235952
 20
5.8849212007
 11
-1.4533255952
 21
5.8849212007
  0
LINE
  5
6A3
100
AcDbEntity
  8
0
100
AcDbLine
 62
7
  6
CONTINUOUS
 10
-1.3411755952
 20
5.9223052007
 11
-0.0970211415
 21
5.9223051694
  0
LINE
  5
6A4
100
AcDbEntity
  8
0
100
AcDbLine
 62
7
  6
CONTINUOUS
 10
-0.0970213495
 20
5.9970712439
 11
-1.7212625952
 21
5.9970712007
  0
LINE
  5
6A5
100
AcDbEntity
  8
0
100
AcDbLine
 62
7
  6
CONTINUOUS
 10
-0.5653795952
 20
8.3789622007
 11
0.6605224048
 21
7.1530592007
  0
LINE
  5
6A6
100
AcDbEntity
  8
0
100
AcDbLine
 62
7
  6
CONTINUOUS
 10
0.7295364048
 20
7.0840462007
 11
2.7991064048
 21
5.0144752007
  0
LINE
  5
6A7
100
AcDbEntity
  8
0
100
AcDbLine
 62
7
  6
CONTINUOUS
 10
-4.0356015952
 20
11.8491832007
 11
-2.1427005952
 21
9.9562832007
  0
LINE
  5
6A8
100
AcDbEntity
  8
0
100
AcDbLine
 62
7
  6
CONTINUOUS
 10
-2.0604535952
 20
9.8740352007
 11
-0.6711145952
 21
8.4846972007
  0
LINE
  5
6A9
100
AcDbEntity
  8
0
100
AcDbLine
 62
7
  6
CONTINUOUS
 10
0.6775344048
 20
7.3475182007
 11
-0.4596445952
 21
8.4846972007
  0
LINE
  5
6AA
100
AcDbEntity
  8
0
100
AcDbLine
 62
7
  6
CONTINUOUS
 10
-0.5653795952
 20
8.5904322007
 11
-2.0807285952
 21
10.1057812007
  0
LINE
  5
6AB
100
AcDbEntity
  8
0
100
AcDbLine
 62
7
  6
CONTINUOUS
 10
2.9048424048
 20
5.1202112007
 11
0.7465494048
 21
7.2785032007
  0
LINE
  5
6AC
100
AcDbEntity
  8
0
100
AcDbLine
 62
7
  6
CONTINUOUS
 10
-2.1629755952
 20
10.1880292007
 11
-3.9298655952
 21
11.9549192007
  0
LWPOLYLINE
  5
6AD
100
AcDbEntity
  8
0
100
AcDbPolyline
 62
7
  6
CONTINUOUS
 90
10
 70
0
 10
6.6835434669
 20
-8.8955061926
 10
6.6770430964
 20
-8.8725172764
 10
6.6702794395
 20
-8.8494141811
 10
6.6632524962
 20
-8.8261969068
 10
6.6559551638
 20
-8.8028634396
 10
6.6483945449
 20
-8.7794157932
 10
6.6405919481
 20
-8.7558600094
 10
6.6325544762
 20
-8.732198102
 10
6.6242750263
 20
-8.7084280571
 10
6.2802301542
 20
-7.7482170958
  0
LINE
  5
6AE
100
AcDbEntity
  8
DRAFT
100
AcDbLine
 62
7
  6
CONTINUOUS
 10
9.4428807566
 20
18.0615913058
 11
9.4428807566
 21
15.9939515789
  0
LINE
  5
6AF
100
AcDbEntity
  8
DRAFT
100
AcDbLine
 62
7
  6
CONTINUOUS
 10
11.1928807566
 20
15.9939515789
 11
11.1928807566
 21
18.0615913058
  0
LWPOLYLINE
  5
6B0
100
AcDbEntity
  8
0
100
AcDbPolyline
 62
7
  6
CONTINUOUS
 90
9
 70
0
 10
6.7455354365
 20
-8.7083435819
 10
6.7368306583
 20
-8.7320514242
 10
6.7284005251
 20
-8.7556734016
 10
6.7202466596
 20
-8.7792130666
 10
6.7123674393
 20
-8.8026668668
 10
6.7047579965
 20
-8.8260241451
 10
6.697416709
 20
-8.8492813494
 10
6.6903451991
 20
-8.8724420319
 10
6.6835434669
 20
-8.8955061926
  0
LINE
  5
6B1
100
AcDbEntity
  8
0
100
AcDbLine
 62
7
  6
CONTINUOUS
 10
7.1103506361
 20
-7.7482170958
 11
6.7455354365
 21
-8.7083435819
  0
LINE
  5
6B2
100
AcDbEntity
  8
0
100
AcDbLine
 62
7
  6
CONTINUOUS
 10
6.7792324991
 20
-9.0403857705
 11
7.2946315731
 21
-7.7482170958
  0
LINE
  5
6B3
100
AcDbEntity
  8
DRAFT
100
AcDbLine
 62
7
  6
CONTINUOUS
 10
-3.8682119707
 20
-29.3447113541
 11
-4.2071192434
 21
-29.9317159696
  0
LINE
  5
6B4
100
AcDbEntity
  8
DRAFT
100
AcDbLine
 62
7
  6
CONTINUOUS
 10
-3.8071192434
 20
-29.361081101
 11
-4.2071192434
 21
-30.0539014241
  0
LINE
  5
6B5
100
AcDbEntity
  8
0
100
AcDbLine
 62
7
  6
CONTINUOUS
 10
-1.0513615952
 20
9.4737062007
 11
0.2570504048
 21
9.4737062007
  0
LINE
  5
6B6
100
AcDbEntity
  8
0
100
AcDbLine
 62
7
  6
CONTINUOUS
 10
0.1822834048
 20
9.5484732007
 11
-0.9765945952
 21
9.5484732007
  0
LINE
  5
6B7
100
AcDbEntity
  8
0
100
AcDbLine
 62
7
  6
CONTINUOUS
 10
-0.9765945952
 20
9.7727732007
 11
0.1822834048
 21
9.7727732007
  0
LINE
  5
6B8
100
AcDbEntity
  8
0
100
AcDbLine
 62
7
  6
CONTINUOUS
 10
0.9713104048
 20
9.8475382007
 11
1.6402284048
 21
9.8475382007
  0
LINE
  5
6B9
100
AcDbEntity
  8
0
100
AcDbLine
 62
7
  6
CONTINUOUS
 10
0.2570504048
 20
9.8475382007
 11
-1.0513615952
 21
9.8475382007
  0
LINE
  5
6BA
100
AcDbEntity
  8
0
100
AcDbLine
 62
7
  6
CONTINUOUS
 10
1.5654614048
 20
9.9223052007
 11
0.9779634048
 21
9.9223052007
  0
LINE
  5
6BB
100
AcDbEntity
  8
0
100
AcDbLine
 62
7
  6
CONTINUOUS
 10
0.8177984048
 20
10.5952012007
 11
0.9616704048
 21
10.5952012007
  0
LINE
  5
6BC
100
AcDbEntity
  8
0
100
AcDbLine
 62
7
  6
CONTINUOUS
 10
1.0367234048
 20
10.5952012007
 11
1.4393894048
 21
10.5952012007
  0
LINE
  5
6BD
100
AcDbEntity
  8
0
100
AcDbLine
 62
7
  6
CONTINUOUS
 10
1.5141564048
 20
10.6699682007
 11
1.0432634048
 21
10.6699682007
  0
LINE
  5
6BE
100
AcDbEntity
  8
0
100
AcDbLine
 62
7
  6
CONTINUOUS
 10
0.9682114048
 20
10.6699682007
 11
0.7430314048
 21
10.6699682007
  0
LINE
  5
6BF
100
AcDbEntity
  8
0
100
AcDbLine
 62
7
  6
CONTINUOUS
 10
-2.8457525952
 20
10.9690332007
 11
-2.2313055952
 21
10.9690332007
  0
LINE
  5
6C0
100
AcDbEntity
  8
0
100
AcDbLine
 62
7
  6
CONTINUOUS
 10
-2.1562525952
 20
10.9690332007
 11
0.9943774048
 21
10.9690332007
  0
LINE
  5
6C1
100
AcDbEntity
  8
0
100
AcDbLine
 62
7
  6
CONTINUOUS
 10
1.0694284048
 20
10.9690332007
 11
1.3037784048
 21
10.9690332007
  0
LINE
  5
6C2
100
AcDbEntity
  8
0
100
AcDbLine
 62
7
  6
CONTINUOUS
 10
0.7888273953
 20
11.2680991985
 11
-1.6868745952
 21
11.2680992007
  0
LINE
  5
6C3
100
AcDbEntity
  8
0
100
AcDbLine
 62
7
  6
CONTINUOUS
 10
-2.0607065952
 20
11.2680992007
 11
-2.1824175952
 21
11.2680992007
  0
LINE
  5
6C4
100
AcDbEntity
  8
0
100
AcDbLine
 62
7
  6
CONTINUOUS
 10
-2.2574695952
 20
11.2680992007
 11
-2.8457525952
 21
11.2680992007
  0
LINE
  5
6C5
100
AcDbEntity
  8
0
100
AcDbLine
 62
7
  6
CONTINUOUS
 10
-1.7616415952
 20
11.3428662007
 11
-1.9859395952
 21
11.3428662007
  0
LINE
  5
6C6
100
AcDbEntity
  8
0
100
AcDbLine
 62
7
  6
CONTINUOUS
 10
-0.9018275952
 20
11.5671652007
 11
0.1075174048
 21
11.5671652007
  0
LINE
  5
6C7
100
AcDbEntity
  8
0
100
AcDbLine
 62
7
  6
CONTINUOUS
 10
0.0327504048
 20
11.6419312007
 11
-0.8270615952
 21
11.6419312007
  0
LINE
  5
6C8
100
AcDbEntity
  8
0
100
AcDbLine
 62
7
  6
CONTINUOUS
 10
-1.9859395952
 20
11.8288462007
 11
-1.7616415952
 21
11.8288462007
  0
LINE
  5
6C9
100
AcDbEntity
  8
0
100
AcDbLine
 62
7
  6
CONTINUOUS
 10
-1.6868745952
 20
11.9036132007
 11
-2.0607065952
 21
11.9036132007
  0
LINE
  5
6CA
100
AcDbEntity
  8
0
100
AcDbLine
 62
7
  6
CONTINUOUS
 10
-0.8270615952
 20
11.9409962007
 11
0.0327504048
 21
11.9409962007
  0
LINE
  5
6CB
100
AcDbEntity
  8
0
100
AcDbLine
 62
7
  6
CONTINUOUS
 10
0.1075174048
 20
12.0157632007
 11
-0.9018275952
 21
12.0157632007
  0
LINE
  5
6CC
100
AcDbEntity
  8
0
100
AcDbLine
 62
7
  6
CONTINUOUS
 10
2.9048424048
 20
11.8491832007
 11
2.7991064048
 21
11.9549192007
  0
LINE
  5
6CD
100
AcDbEntity
  8
DRAFT
100
AcDbLine
 62
7
  6
CONTINUOUS
 10
12.1579706267
 20
-44.7060484211
 11
12.1579706267
 21
-46.5560484211
  0
LINE
  5
6CE
100
AcDbEntity
  8
DRAFT
100
AcDbLine
 62
7
  6
CONTINUOUS
 10
12.1928807566
 20
-44.7060484211
 11
12.1928807566
 21
-46.5560484211
  0
LINE
  5
6CF
100
AcDbEntity
  8
DRAFT
100
AcDbLine
 62
7
  6
CONTINUOUS
 10
12.6928807566
 20
18.0615913058
 11
12.6928807566
 21
15.9939515789
  0
LINE
  5
6D0
100
AcDbEntity
  8
0
100
AcDbLine
 62
7
  6
CONTINUOUS
 10
13.6878807566
 20
-53.4560484211
 11
13.6878807566
 21
-47.1560484211
  0
LINE
  5
6D1
100
AcDbEntity
  8
DRAFT
100
AcDbLine
 62
7
  6
CONTINUOUS
 10
14.4428807566
 20
15.9939515789
 11
14.4428807566
 21
18.0615913058
  0
LINE
  5
6D2
100
AcDbEntity
  8
DRAFT
100
AcDbLine
 62
7
  6
CONTINUOUS
 10
15.9603358215
 20
35.2439515789
 11
15.972554367
 21
34.5439515789
  0
LINE
  5
6D3
100
AcDbEntity
  8
DRAFT
100
AcDbLine
 62
7
  6
CONTINUOUS
 10
15.8544796137
 20
-32.4560484211
 11
15.8544796137
 21
-27.4560484211
  0
LINE
  5
6D4
100
AcDbEntity
  8
DRAFT
100
AcDbLine
 62
7
  6
CONTINUOUS
 10
15.8544796137
 20
27.5439515789
 11
15.8544796137
 21
32.5439515789
  0
LINE
  5
6D5
100
AcDbEntity
  8
DRAFT
100
AcDbLine
 62
7
  6
CONTINUOUS
 10
15.8878807566
 20
-46.4307150555
 11
15.8878807566
 21
-53.4560484211
  0
LINE
  5
6D6
100
AcDbEntity
  8
DRAFT
100
AcDbLine
 62
7
  6
CONTINUOUS
 10
15.8928807566
 20
32.5439515789
 11
15.8928807566
 21
27.5439515789
  0
LINE
  5
6D7
100
AcDbEntity
  8
DRAFT
100
AcDbLine
 62
7
  6
CONTINUOUS
 10
15.8928807566
 20
-27.4560484211
 11
15.8928807566
 21
-32.4560484211
  0
LINE
  5
6D8
100
AcDbEntity
  8
DRAFT
100
AcDbLine
 62
7
  6
CONTINUOUS
 10
15.9312818994
 20
27.5439515789
 11
15.9312818994
 21
23.9392211894
  0
LINE
  5
6D9
100
AcDbEntity
  8
DRAFT
100
AcDbLine
 62
7
  6
CONTINUOUS
 10
15.9312818994
 20
-36.0607788106
 11
15.9312818994
 21
-32.4560484211
  0
LINE
  5
6DA
100
AcDbEntity
  8
DRAFT
100
AcDbLine
 62
7
  6
CONTINUOUS
 10
15.9312818994
 20
-23.8513180315
 11
15.9312818994
 21
-27.4560484211
  0
LINE
  5
6DB
100
AcDbEntity
  8
DRAFT
100
AcDbLine
 62
7
  6
CONTINUOUS
 10
15.9312818994
 20
32.5439515789
 11
15.9312818994
 21
36.1486819685
  0
LINE
  5
6DC
100
AcDbEntity
  8
DRAFT
100
AcDbLine
 62
7
  6
CONTINUOUS
 10
15.9603358215
 20
36.0701341763
 11
15.9603358215
 21
35.2439515789
  0
LINE
  5
6DD
100
AcDbEntity
  8
DRAFT
100
AcDbLine
 62
7
  6
CONTINUOUS
 10
15.9603358215
 20
-35.1560484211
 11
15.9603358215
 21
-35.9822310184
  0
LINE
  5
6DE
100
AcDbEntity
  8
DRAFT
100
AcDbLine
 62
7
  6
CONTINUOUS
 10
15.972554367
 20
34.5439515789
 11
15.972554367
 21
32.5439515789
  0
LINE
  5
6DF
100
AcDbEntity
  8
DRAFT
100
AcDbLine
 62
7
  6
CONTINUOUS
 10
15.972554367
 20
-32.4560484211
 11
15.972554367
 21
-34.4560484211
  0
LINE
  5
6E0
100
AcDbEntity
  8
0
100
AcDbLine
 62
7
  6
CONTINUOUS
 10
16.0109555098
 20
27.5439515789
 11
16.0109555098
 21
24.023005501
  0
LINE
  5
6E1
100
AcDbEntity
  8
0
100
AcDbLine
 62
7
  6
CONTINUOUS
 10
16.0109555098
 20
-23.9351023431
 11
16.0109555098
 21
-27.4560484211
  0
LINE
  5
6E2
100
AcDbEntity
  8
DRAFT
100
AcDbLine
 62
7
  6
CONTINUOUS
 10
16.0879101209
 20
-32.4974877404
 11
16.0879101209
 21
-32.4560484211
  0
LINE
  5
6E3
100
AcDbEntity
  8
DRAFT
100
AcDbLine
 62
7
  6
CONTINUOUS
 10
16.0879101209
 20
-27.4560484211
 11
16.0879101209
 21
-27.4146091017
  0
LINE
  5
6E4
100
AcDbEntity
  8
DRAFT
100
AcDbLine
 62
7
  6
CONTINUOUS
 10
16.0879101209
 20
27.5025122596
 11
16.0879101209
 21
27.5439515789
  0
LINE
  5
6E5
100
AcDbEntity
  8
DRAFT
100
AcDbLine
 62
7
  6
CONTINUOUS
 10
16.0879101209
 20
32.5439515789
 11
16.0879101209
 21
32.5853908983
  0
LINE
  5
6E6
100
AcDbEntity
  8
DRAFT
100
AcDbLine
 62
7
  6
CONTINUOUS
 10
16.0912488085
 20
36.0701341763
 11
16.0912488085
 21
35.9439515789
  0
LINE
  5
6E7
100
AcDbEntity
  8
DRAFT
100
AcDbLine
 62
7
  6
CONTINUOUS
 10
16.0912488085
 20
24.1439515789
 11
16.0912488085
 21
24.023005501
  0
LINE
  5
6E8
100
AcDbEntity
  8
DRAFT
100
AcDbLine
 62
7
  6
CONTINUOUS
 10
16.0912488085
 20
-23.9351023431
 11
16.0912488085
 21
-24.0560484211
  0
LINE
  5
6E9
100
AcDbEntity
  8
DRAFT
100
AcDbLine
 62
7
  6
CONTINUOUS
 10
16.0912488085
 20
-35.8560484211
 11
16.0912488085
 21
-35.9822310184
  0
LINE
  5
6EA
100
AcDbEntity
  8
DRAFT
100
AcDbLine
 62
7
  6
CONTINUOUS
 10
16.1418865646
 20
32.5948355521
 11
16.1418865646
 21
27.4930676058
  0
LINE
  5
6EB
100
AcDbEntity
  8
DRAFT
100
AcDbLine
 62
7
  6
CONTINUOUS
 10
16.1418865646
 20
-27.4051644479
 11
16.1418865646
 21
-32.5069323942
  0
LINE
  5
6EC
100
AcDbEntity
  8
0
100
AcDbLine
 62
7
  6
CONTINUOUS
 10
16.162562883
 20
32.7439515789
 11
16.162562883
 21
27.3439515789
  0
LINE
  5
6ED
100
AcDbEntity
  8
0
100
AcDbLine
 62
7
  6
CONTINUOUS
 10
16.162562883
 20
-32.6560484211
 11
16.162562883
 21
-27.2560484211
  0
LINE
  5
6EE
100
AcDbEntity
  8
RACCORDO
100
AcDbLine
 62
7
  6
CONTINUOUS
 10
16.1750331201
 20
-34.8560484211
 11
16.1750331201
 21
-32.6560484211
  0
LINE
  5
6EF
100
AcDbEntity
  8
RACCORDO
100
AcDbLine
 62
7
  6
CONTINUOUS
 10
16.1750331201
 20
-27.2560484211
 11
16.1750331201
 21
-25.0560484211
  0
LINE
  5
6F0
100
AcDbEntity
  8
RACCORDO
100
AcDbLine
 62
7
  6
CONTINUOUS
 10
16.1750331201
 20
25.1439515789
 11
16.1750331201
 21
27.3439515789
  0
LINE
  5
6F1
100
AcDbEntity
  8
RACCORDO
100
AcDbLine
 62
7
  6
CONTINUOUS
 10
16.1750331201
 20
32.7439515789
 11
16.1750331201
 21
34.9439515789
  0
LINE
  5
6F2
100
AcDbEntity
  8
0
100
AcDbLine
 62
7
  6
CONTINUOUS
 10
16.5750331201
 20
32.7439515789
 11
16.5750331201
 21
27.3439515789
  0
LINE
  5
6F3
100
AcDbEntity
  8
0
100
AcDbLine
 62
7
  6
CONTINUOUS
 10
16.5750331201
 20
-32.6560484211
 11
16.5750331201
 21
-27.2560484211
  0
LINE
  5
6F4
100
AcDbEntity
  8
DRAFT
100
AcDbLine
 62
7
  6
CONTINUOUS
 10
16.6643329644
 20
36.0701341763
 11
16.6643329644
 21
35.9439515789
  0
LINE
  5
6F5
100
AcDbEntity
  8
DRAFT
100
AcDbLine
 62
7
  6
CONTINUOUS
 10
16.6643329644
 20
24.1439515789
 11
16.6643329644
 21
24.023005501
  0
LINE
  5
6F6
100
AcDbEntity
  8
DRAFT
100
AcDbLine
 62
7
  6
CONTINUOUS
 10
16.6643329644
 20
-23.9351023431
 11
16.6643329644
 21
-24.0560484211
  0
LINE
  5
6F7
100
AcDbEntity
  8
DRAFT
100
AcDbLine
 62
7
  6
CONTINUOUS
 10
16.6643329644
 20
-35.8560484211
 11
16.6643329644
 21
-35.9822310184
  0
LINE
  5
6F8
100
AcDbEntity
  8
DRAFT
100
AcDbLine
 62
7
  6
CONTINUOUS
 10
16.6817880293
 20
-23.9560484211
 11
16.6817880293
 21
-24.0560484211
  0
LINE
  5
6F9
100
AcDbEntity
  8
DRAFT
100
AcDbLine
 62
7
  6
CONTINUOUS
 10
16.6817880293
 20
-35.8560484211
 11
16.6817880293
 21
-35.9560484211
  0
LINE
  5
6FA
100
AcDbEntity
  8
DRAFT
100
AcDbLine
 62
7
  6
CONTINUOUS
 10
16.6817880293
 20
24.0439515789
 11
16.6817880293
 21
24.1439515789
  0
LINE
  5
6FB
100
AcDbEntity
  8
DRAFT
100
AcDbLine
 62
7
  6
CONTINUOUS
 10
16.6817880293
 20
35.9439515789
 11
16.6817880293
 21
36.0439515789
  0
LINE
  5
6FC
100
AcDbEntity
  8
RACCORDO
100
AcDbLine
 62
7
  6
CONTINUOUS
 10
17.238150367
 20
-53.7514703363
 11
17.238150367
 21
-36.0607788106
  0
LINE
  5
6FD
100
AcDbEntity
  8
DRAFT
100
AcDbLine
 62
7
  6
CONTINUOUS
 10
17.238150367
 20
-23.8513180315
 11
17.238150367
 21
-20.5204950968
  0
LINE
  5
6FE
100
AcDbEntity
  8
DRAFT
100
AcDbLine
 62
7
  6
CONTINUOUS
 10
17.238150367
 20
18.1083982546
 11
17.238150367
 21
23.9392211894
  0
LINE
  5
6FF
100
AcDbEntity
  8
RACCORDO
100
AcDbLine
 62
7
  6
CONTINUOUS
 10
17.238150367
 20
36.1486819685
 11
17.238150367
 21
53.8393734942
  0
LINE
  5
700
100
AcDbEntity
  8
RACCORDO
100
AcDbLine
 62
7
  6
CONTINUOUS
 10
17.24164138
 20
-34.8560484211
 11
17.24164138
 21
-25.0560484211
  0
LINE
  5
701
100
AcDbEntity
  8
RACCORDO
100
AcDbLine
 62
7
  6
CONTINUOUS
 10
17.24164138
 20
25.1439515789
 11
17.24164138
 21
34.9439515789
  0
LINE
  5
702
100
AcDbEntity
  8
DRAFT
100
AcDbLine
 62
7
  6
CONTINUOUS
 10
17.2730604969
 20
-32.6060484211
 11
17.2730604969
 21
-27.3060484211
  0
LINE
  5
703
100
AcDbEntity
  8
DRAFT
100
AcDbLine
 62
7
  6
CONTINUOUS
 10
17.2730604969
 20
27.3939515789
 11
17.2730604969
 21
32.6939515789
  0
LINE
  5
704
100
AcDbEntity
  8
SMUSSO
100
AcDbLine
 62
7
  6
CONTINUOUS
 10
17.2992430943
 20
-18.5370678693
 11
17.2992430943
 21
-20.3370678693
  0
LINE
  5
705
100
AcDbEntity
  8
DRAFT
100
AcDbLine
 62
7
  6
CONTINUOUS
 10
17.3306622111
 20
32.6939515789
 11
17.3306622111
 21
27.3939515789
  0
LINE
  5
706
100
AcDbEntity
  8
DRAFT
100
AcDbLine
 62
7
  6
CONTINUOUS
 10
17.3306622111
 20
-27.3060484211
 11
17.3306622111
 21
-32.6060484211
  0
LINE
  5
707
100
AcDbEntity
  8
RACCORDO
100
AcDbLine
 62
7
  6
CONTINUOUS
 10
17.3428807566
 20
-53.8562007259
 11
17.3428807566
 21
-35.8560484211
  0
LINE
  5
708
100
AcDbEntity
  8
DRAFT
100
AcDbLine
 62
7
  6
CONTINUOUS
 10
17.3428807566
 20
-35.8560484211
 11
17.3428807566
 21
35.9439515789
  0
LINE
  5
709
100
AcDbEntity
  8
RACCORDO
100
AcDbLine
 62
7
  6
CONTINUOUS
 10
17.3428807566
 20
35.9439515789
 11
17.3428807566
 21
53.9441038838
  0
LINE
  5
70A
100
AcDbEntity
  8
DRAFT
100
AcDbLine
 62
7
  6
CONTINUOUS
 10
15.972554367
 20
-34.4560484211
 11
15.9603358215
 21
-35.1560484211
  0
LINE
  5
70B
100
AcDbEntity
  8
SMUSSO
100
AcDbLine
 62
7
  6
CONTINUOUS
 10
17.3121374017
 20
-17.7983534891
 11
17.2992430943
 21
-18.5370678693
  0
LINE
  5
70C
100
AcDbEntity
  8
0
100
AcDbLine
 62
7
  6
CONTINUOUS
 10
9.4428807566
 20
15.9939515789
 11
11.1928807566
 21
15.9939515789
  0
LINE
  5
70D
100
AcDbEntity
  8
0
100
AcDbLine
 62
7
  6
CONTINUOUS
 10
-10.5571192434
 20
15.9939515789
 11
-12.3071192434
 21
15.9939515789
  0
LINE
  5
70E
100
AcDbEntity
  8
0
100
AcDbLine
 62
7
  6
CONTINUOUS
 10
12.6928807566
 20
15.9939515789
 11
14.4428807566
 21
15.9939515789
  0
LINE
  5
70F
100
AcDbEntity
  8
0
100
AcDbLine
 62
7
  6
CONTINUOUS
 10
-13.8071192434
 20
15.9939515789
 11
-15.5571192434
 21
15.9939515789
  0
LINE
  5
710
100
AcDbEntity
  8
DRAFT
100
AcDbLine
 62
7
  6
CONTINUOUS
 10
17.3428807566
 20
17.7939515789
 11
14.4428807566
 21
17.7939515789
  0
LINE
  5
711
100
AcDbEntity
  8
DRAFT
100
AcDbLine
 62
7
  6
CONTINUOUS
 10
12.6928807566
 20
17.7939515789
 11
11.1928807566
 21
17.7939515789
  0
LINE
  5
712
100
AcDbEntity
  8
DRAFT
100
AcDbLine
 62
7
  6
CONTINUOUS
 10
9.4428807566
 20
17.7939515789
 11
-10.5571192434
 21
17.7939515789
  0
LINE
  5
713
100
AcDbEntity
  8
DRAFT
100
AcDbLine
 62
7
  6
CONTINUOUS
 10
-12.3071192434
 20
17.7939515789
 11
-13.8071192434
 21
17.7939515789
  0
LINE
  5
714
100
AcDbEntity
  8
DRAFT
100
AcDbLine
 62
7
  6
CONTINUOUS
 10
-15.5571192434
 20
17.7939515789
 11
-18.4571192434
 21
17.7939515789
  0
LINE
  5
715
100
AcDbEntity
  8
DRAFT
100
AcDbLine
 62
7
  6
CONTINUOUS
 10
9.4428807566
 20
18.0615913058
 11
11.1928807566
 21
18.0615913058
  0
LINE
  5
716
100
AcDbEntity
  8
DRAFT
100
AcDbLine
 62
7
  6
CONTINUOUS
 10
-10.5571192434
 20
18.0615913058
 11
-12.3071192434
 21
18.0615913058
  0
LINE
  5
717
100
AcDbEntity
  8
DRAFT
100
AcDbLine
 62
7
  6
CONTINUOUS
 10
12.6928807566
 20
18.0615913058
 11
14.4428807566
 21
18.0615913058
  0
LINE
  5
718
100
AcDbEntity
  8
DRAFT
100
AcDbLine
 62
7
  6
CONTINUOUS
 10
-13.8071192434
 20
18.0615913058
 11
-15.5571192434
 21
18.0615913058
  0
LINE
  5
719
100
AcDbEntity
  8
DRAFT
100
AcDbLine
 62
7
  6
CONTINUOUS
 10
17.238150367
 20
18.1083982546
 11
-18.3523888539
 21
18.1083982546
  0
LINE
  5
71A
100
AcDbEntity
  8
SMUSSO
100
AcDbLine
 62
7
  6
CONTINUOUS
 10
17.3121374017
 20
-17.7983534891
 11
17.3428807566
 21
-17.7060484211
  0
LINE
  5
71B
100
AcDbEntity
  8
DRAFT
100
AcDbLine
 62
7
  6
CONTINUOUS
 10
17.238150367
 20
-20.5204950968
 11
17.2992430943
 21
-20.3370678693
  0
LINE
  5
71C
100
AcDbEntity
  8
DRAFT
100
AcDbLine
 62
7
  6
CONTINUOUS
 10
2.6928807566
 20
-33.9510157411
 11
3.0928807566
 21
-33.2581954181
  0
LINE
  5
71D
100
AcDbEntity
  8
DRAFT
100
AcDbLine
 62
7
  6
CONTINUOUS
 10
2.7539734838
 20
-33.967385488
 11
3.0928807566
 21
-33.3803808726
  0
LINE
  5
71E
100
AcDbEntity
  8
DRAFT
100
AcDbLine
 62
7
  6
CONTINUOUS
 10
17.238150367
 20
18.1083982546
 11
17.3428807566
 21
17.7939515789
  0
LINE
  5
71F
100
AcDbEntity
  8
RACCORDO
100
AcDbLine
 62
250
  6
CONTINUOUS
 10
-18.4571192434
 20
-53.8562007259
 11
-18.3523888539
 21
-53.7514703363
  0
LINE
  5
720
100
AcDbEntity
  8
RACCORDO
100
AcDbLine
 62
250
  6
CONTINUOUS
 10
-17.4572715483
 20
-54.8560484211
 11
-17.3525411587
 21
-54.7513180315
  0
LINE
  5
721
100
AcDbEntity
  8
DRAFT
100
AcDbLine
 62
7
  6
CONTINUOUS
 10
-17.1094844382
 20
-54.8560484211
 11
-17.0571192434
 21
-54.8036832263
  0
LINE
  5
722
100
AcDbEntity
  8
DRAFT
100
AcDbLine
 62
7
  6
CONTINUOUS
 10
-18.3523888539
 20
23.9392211894
 11
-17.0455203863
 21
23.9392211894
  0
LINE
  5
723
100
AcDbEntity
  8
DRAFT
100
AcDbLine
 62
7
  6
CONTINUOUS
 10
17.238150367
 20
23.9392211894
 11
15.9312818994
 21
23.9392211894
  0
LINE
  5
724
100
AcDbEntity
  8
DRAFT
100
AcDbLine
 62
7
  6
CONTINUOUS
 10
-17.7599905681
 20
24.023005501
 11
-17.0455203863
 21
24.023005501
  0
LINE
  5
725
100
AcDbEntity
  8
DRAFT
100
AcDbLine
 62
7
  6
CONTINUOUS
 10
16.6457520813
 20
24.023005501
 11
15.9312818994
 21
24.023005501
  0
LINE
  5
726
100
AcDbEntity
  8
DRAFT
100
AcDbLine
 62
7
  6
CONTINUOUS
 10
-18.4571192434
 20
24.0439515789
 11
-17.780936646
 21
24.0439515789
  0
LINE
  5
727
100
AcDbEntity
  8
DRAFT
100
AcDbLine
 62
7
  6
CONTINUOUS
 10
17.3428807566
 20
24.0439515789
 11
16.6666981592
 21
24.0439515789
  0
LINE
  5
728
100
AcDbEntity
  8
RACCORDO
100
AcDbLine
 62
7
  6
CONTINUOUS
 10
16.0912488085
 20
24.1439515789
 11
17.3428807566
 21
24.1439515789
  0
LINE
  5
729
100
AcDbEntity
  8
RACCORDO
100
AcDbLine
 62
7
  6
CONTINUOUS
 10
-17.2054872953
 20
24.1439515789
 11
-18.4571192434
 21
24.1439515789
  0
LINE
  5
72A
100
AcDbEntity
  8
RACCORDO
100
AcDbLine
 62
250
  6
CONTINUOUS
 10
-18.3558798668
 20
25.1439515789
 11
-17.289271607
 21
25.1439515789
  0
LINE
  5
72B
100
AcDbEntity
  8
RACCORDO
100
AcDbLine
 62
250
  6
CONTINUOUS
 10
16.1750331201
 20
25.1439515789
 11
17.24164138
 21
25.1439515789
  0
LINE
  5
72C
100
AcDbEntity
  8
0
100
AcDbLine
 62
7
  6
CONTINUOUS
 10
16.162562883
 20
27.3439515789
 11
16.5750331201
 21
27.3439515789
  0
LINE
  5
72D
100
AcDbEntity
  8
0
100
AcDbLine
 62
7
  6
CONTINUOUS
 10
-17.2768013698
 20
27.3439515789
 11
-17.689271607
 21
27.3439515789
  0
LINE
  5
72E
100
AcDbEntity
  8
DRAFT
100
AcDbLine
 62
7
  6
CONTINUOUS
 10
17.3306622111
 20
27.3939515789
 11
17.2730604969
 21
27.3939515789
  0
LINE
  5
72F
100
AcDbEntity
  8
DRAFT
100
AcDbLine
 62
7
  6
CONTINUOUS
 10
-18.3872989837
 20
27.3939515789
 11
-18.444900698
 21
27.3939515789
  0
LINE
  5
730
100
AcDbEntity
  8
RACCORDO
100
AcDbLine
 62
250
  6
CONTINUOUS
 10
-18.3523888539
 20
53.8393734942
 11
-18.4571192434
 21
53.9441038838
  0
LINE
  5
731
100
AcDbEntity
  8
RACCORDO
100
AcDbLine
 62
250
  6
CONTINUOUS
 10
-17.3525411587
 20
54.8392211894
 11
-17.4572715483
 21
54.9439515789
  0
LINE
  5
732
100
AcDbEntity
  8
DRAFT
100
AcDbLine
 62
7
  6
CONTINUOUS
 10
16.0879101209
 20
32.5853908983
 11
16.1418865646
 21
32.5948355521
  0
LINE
  5
733
100
AcDbEntity
  8
DRAFT
100
AcDbLine
 62
7
  6
CONTINUOUS
 10
-17.2561250514
 20
27.4930676058
 11
-17.2021486078
 21
27.5025122596
  0
LINE
  5
734
100
AcDbEntity
  8
DRAFT
100
AcDbLine
 62
7
  6
CONTINUOUS
 10
15.8544796137
 20
27.5439515789
 11
16.1418865646
 21
27.5439515789
  0
LINE
  5
735
100
AcDbEntity
  8
DRAFT
100
AcDbLine
 62
7
  6
CONTINUOUS
 10
-16.9687181006
 20
27.5439515789
 11
-17.2561250514
 21
27.5439515789
  0
LINE
  5
736
100
AcDbEntity
  8
DRAFT
100
AcDbLine
 62
7
  6
CONTINUOUS
 10
-17.2021486078
 20
32.5853908983
 11
-17.2561250514
 21
32.5948355521
  0
LINE
  5
737
100
AcDbEntity
  8
DRAFT
100
AcDbLine
 62
7
  6
CONTINUOUS
 10
16.1418865646
 20
27.4930676058
 11
16.0879101209
 21
27.5025122596
  0
LINE
  5
738
100
AcDbEntity
  8
RACCORDO
100
AcDbLine
 62
250
  6
CONTINUOUS
 10
-4.9571192434
 20
-49.5561245735
 11
-4.8820624642
 21
-49.4810677943
  0
LINE
  5
739
100
AcDbEntity
  8
RACCORDO
100
AcDbLine
 62
250
  6
CONTINUOUS
 10
-4.4571953958
 20
-50.0560484211
 11
-4.3821386167
 21
-49.9809916419
  0
LINE
  5
73A
100
AcDbEntity
  8
DRAFT
100
AcDbLine
 62
7
  6
CONTINUOUS
 10
15.8544796137
 20
32.5439515789
 11
16.1418865646
 21
32.5439515789
  0
LINE
  5
73B
100
AcDbEntity
  8
DRAFT
100
AcDbLine
 62
7
  6
CONTINUOUS
 10
-16.9687181006
 20
32.5439515789
 11
-17.2561250514
 21
32.5439515789
  0
LINE
  5
73C
100
AcDbEntity
  8
DRAFT
100
AcDbLine
 62
7
  6
CONTINUOUS
 10
-18.444900698
 20
32.6939515789
 11
-18.3872989837
 21
32.6939515789
  0
LINE
  5
73D
100
AcDbEntity
  8
DRAFT
100
AcDbLine
 62
7
  6
CONTINUOUS
 10
17.2730604969
 20
32.6939515789
 11
17.3306622111
 21
32.6939515789
  0
LINE
  5
73E
100
AcDbEntity
  8
0
100
AcDbLine
 62
7
  6
CONTINUOUS
 10
16.162562883
 20
32.7439515789
 11
16.5750331201
 21
32.7439515789
  0
LINE
  5
73F
100
AcDbEntity
  8
0
100
AcDbLine
 62
7
  6
CONTINUOUS
 10
-17.2768013698
 20
32.7439515789
 11
-17.689271607
 21
32.7439515789
  0
LINE
  5
740
100
AcDbEntity
  8
DRAFT
100
AcDbLine
 62
7
  6
CONTINUOUS
 10
15.972554367
 20
34.5439515789
 11
15.9312818994
 21
34.5439515789
  0
LINE
  5
741
100
AcDbEntity
  8
DRAFT
100
AcDbLine
 62
7
  6
CONTINUOUS
 10
-17.0455203863
 20
34.5439515789
 11
-17.0867928538
 21
34.5439515789
  0
LINE
  5
742
100
AcDbEntity
  8
RACCORDO
100
AcDbLine
 62
250
  6
CONTINUOUS
 10
-18.3558798668
 20
34.9439515789
 11
-17.289271607
 21
34.9439515789
  0
LINE
  5
743
100
AcDbEntity
  8
RACCORDO
100
AcDbLine
 62
250
  6
CONTINUOUS
 10
16.1750331201
 20
34.9439515789
 11
17.24164138
 21
34.9439515789
  0
LINE
  5
744
100
AcDbEntity
  8
DRAFT
100
AcDbLine
 62
7
  6
CONTINUOUS
 10
17.238150367
 20
-36.0607788106
 11
17.3428807566
 21
-35.9560484211
  0
LINE
  5
745
100
AcDbEntity
  8
DRAFT
100
AcDbLine
 62
7
  6
CONTINUOUS
 10
-17.0745743083
 20
35.2439515789
 11
-17.0455203863
 21
35.2439515789
  0
LINE
  5
746
100
AcDbEntity
  8
DRAFT
100
AcDbLine
 62
7
  6
CONTINUOUS
 10
15.9603358215
 20
35.2439515789
 11
15.9312818994
 21
35.2439515789
  0
LINE
  5
747
100
AcDbEntity
  8
RACCORDO
100
AcDbLine
 62
7
  6
CONTINUOUS
 10
16.0912488085
 20
35.9439515789
 11
17.3428807566
 21
35.9439515789
  0
LINE
  5
748
100
AcDbEntity
  8
RACCORDO
100
AcDbLine
 62
7
  6
CONTINUOUS
 10
-17.2054872953
 20
35.9439515789
 11
-18.4571192434
 21
35.9439515789
  0
LINE
  5
749
100
AcDbEntity
  8
DRAFT
100
AcDbLine
 62
7
  6
CONTINUOUS
 10
-18.4571192434
 20
36.0439515789
 11
-17.780936646
 21
36.0439515789
  0
LINE
  5
74A
100
AcDbEntity
  8
DRAFT
100
AcDbLine
 62
7
  6
CONTINUOUS
 10
17.3428807566
 20
36.0439515789
 11
16.6666981592
 21
36.0439515789
  0
LINE
  5
74B
100
AcDbEntity
  8
DRAFT
100
AcDbLine
 62
7
  6
CONTINUOUS
 10
-17.7547540486
 20
36.0701341763
 11
-17.0455203863
 21
36.0701341763
  0
LINE
  5
74C
100
AcDbEntity
  8
DRAFT
100
AcDbLine
 62
7
  6
CONTINUOUS
 10
16.6405155618
 20
36.0701341763
 11
15.9312818994
 21
36.0701341763
  0
LINE
  5
74D
100
AcDbEntity
  8
DRAFT
100
AcDbLine
 62
7
  6
CONTINUOUS
 10
-18.3523888539
 20
36.1486819685
 11
-17.0455203863
 21
36.1486819685
  0
LINE
  5
74E
100
AcDbEntity
  8
DRAFT
100
AcDbLine
 62
7
  6
CONTINUOUS
 10
17.238150367
 20
36.1486819685
 11
15.9312818994
 21
36.1486819685
  0
LINE
  5
74F
100
AcDbEntity
  8
DRAFT
100
AcDbLine
 62
7
  6
CONTINUOUS
 10
17.238150367
 20
36.1486819685
 11
17.3428807566
 21
36.0439515789
  0
LINE
  5
750
100
AcDbEntity
  8
DRAFT
100
AcDbLine
 62
250
  6
CONTINUOUS
 10
-13.2722091136
 20
44.7939515789
 11
-13.3071192434
 21
44.7939515789
  0
LINE
  5
751
100
AcDbEntity
  8
DRAFT
100
AcDbLine
 62
7
  6
CONTINUOUS
 10
4.9428807566
 20
46.6439515789
 11
-17.0021192434
 21
46.6439515789
  0
LINE
  5
752
100
AcDbEntity
  8
DRAFT
100
AcDbLine
 62
7
  6
CONTINUOUS
 10
5.8905155618
 20
54.9439515789
 11
5.9428807566
 21
54.8915863842
  0
LINE
  5
753
100
AcDbEntity
  8
0
100
AcDbLine
 62
7
  6
CONTINUOUS
 10
-17.0021192434
 20
47.2439515789
 11
-14.8021192434
 21
47.2439515789
  0
LINE
  5
754
100
AcDbEntity
  8
0
100
AcDbLine
 62
7
  6
CONTINUOUS
 10
11.9428807566
 20
48.9439515789
 11
9.9428807566
 21
48.9439515789
  0
LINE
  5
755
100
AcDbEntity
  8
0
100
AcDbLine
 62
7
  6
CONTINUOUS
 10
9.9428807566
 20
52.9439515789
 11
11.9428807566
 21
52.9439515789
  0
LINE
  5
756
100
AcDbEntity
  8
ASSI
100
AcDbLine
 62
7
  6
CONTINUOUS
 10
4.9428807566
 20
53.5439515789
 11
-17.0021192434
 21
53.5439515789
  0
LINE
  5
757
100
AcDbEntity
  8
RACCORDO
100
AcDbLine
 62
7
  6
CONTINUOUS
 10
16.2383026719
 20
54.8392211894
 11
-17.3525411587
 21
54.8392211894
  0
LINE
  5
758
100
AcDbEntity
  8
DRAFT
100
AcDbLine
 62
7
  6
CONTINUOUS
 10
15.9428807566
 20
54.8915863842
 11
5.9428807566
 21
54.8915863842
  0
LINE
  5
759
100
AcDbEntity
  8
RACCORDO
100
AcDbLine
 62
7
  6
CONTINUOUS
 10
16.3430330614
 20
54.9439515789
 11
15.9952459514
 21
54.9439515789
  0
LINE
  5
75A
100
AcDbEntity
  8
RACCORDO
100
AcDbLine
 62
7
  6
CONTINUOUS
 10
5.8905155618
 20
54.9439515789
 11
-17.4572715483
 21
54.9439515789
  0
CIRCLE
  5
75B
100
AcDbEntity
  8
DRAFT
100
AcDbCircle
 62
7
  6
CONTINUOUS
 10
-15.5571192434
 20
-44.7060484211
 40
2.2849101299
  0
CIRCLE
  5
75C
100
AcDbEntity
  8
DRAFT
100
AcDbCircle
 62
7
  6
CONTINUOUS
 10
-15.5571192434
 20
-44.7060484211
 40
2.25
  0
ARC
  5
75D
100
AcDbEntity
  8
0
100
AcDbCircle
 62
7
  6
CONTINUOUS
 10
-13.0571192434
 20
-50.8560484211
 40
2.0
100
AcDbArc
 50
90.0
 51
270.0
  0
ARC
  5
75E
100
AcDbEntity
  8
0
100
AcDbCircle
 62
7
  6
CONTINUOUS
 10
-11.0571192434
 20
-50.8560484211
 40
2.0
100
AcDbArc
 50
270.0
 51
90.0
  0
CIRCLE
  5
75F
100
AcDbEntity
  8
DRAFT
100
AcDbCircle
 62
7
  6
CONTINUOUS
 10
-15.5571192434
 20
-44.7060484211
 40
1.3198202597
  0
CIRCLE
  5
760
100
AcDbEntity
  8
DRAFT
100
AcDbCircle
 62
7
  6
CONTINUOUS
 10
-15.5571192434
 20
-44.7060484211
 40
1.25
  0
CIRCLE
  5
761
100
AcDbEntity
  8
DRAFT
100
AcDbCircle
 62
7
  6
CONTINUOUS
 10
-15.5571192434
 20
-44.7060484211
 40
1.0
  0
CIRCLE
  5
762
100
AcDbEntity
  8
DRAFT
100
AcDbCircle
 62
7
  6
CONTINUOUS
 10
-15.5571192434
 20
-44.7060484211
 40
0.9520022272
  0
ARC
  5
763
100
AcDbEntity
  8
0
100
AcDbCircle
 62
7
  6
CONTINUOUS
 10
-0.7709876883
 20
7.9036084404
 40
3.9252386973
100
AcDbArc
 50
66.1507656662
 51
77.0671262523
  0
ARC
  5
764
100
AcDbEntity
  8
0
100
AcDbCircle
 62
7
  6
CONTINUOUS
 10
-0.7709865952
 20
7.9036132007
 40
3.9252342465
100
AcDbArc
 50
104.6184599962
 51
108.0305274071
  0
ARC
  5
765
100
AcDbEntity
  8
0
100
AcDbCircle
 62
7
  6
CONTINUOUS
 10
-0.7709865952
 20
7.9036132007
 40
3.9252339881
100
AcDbArc
 50
109.1820962274
 51
112.6110327739
  0
ARC
  5
766
100
AcDbEntity
  8
0
100
AcDbCircle
 62
7
  6
CONTINUOUS
 10
-0.7709865952
 20
7.9036132007
 40
3.9252334397
100
AcDbArc
 50
78.1844571259
 51
90.8185424079
  0
ARC
  5
767
100
AcDbEntity
  8
0
100
AcDbCircle
 62
7
  6
CONTINUOUS
 10
-0.7709865952
 20
7.9036132007
 40
3.9252331561
100
AcDbArc
 50
91.9102115712
 51
103.4934032385
  0
ARC
  5
768
100
AcDbEntity
  8
0
100
AcDbCircle
 62
7
  6
CONTINUOUS
 10
-0.7709865952
 20
7.9036132007
 40
3.8504679521
100
AcDbArc
 50
109.5695884542
 51
111.7987181432
  0
ARC
  5
769
100
AcDbEntity
  8
0
100
AcDbCircle
 62
7
  6
CONTINUOUS
 10
-0.7709867988
 20
7.9036123316
 40
3.8504678375
100
AcDbArc
 50
66.0805562364
 51
76.8115157989
  0
ARC
  5
76A
100
AcDbEntity
  8
0
100
AcDbCircle
 62
7
  6
CONTINUOUS
 10
-0.7709865952
 20
7.9036132007
 40
3.8504675379
100
AcDbArc
 50
91.9473168422
 51
103.7605121028
  0
ARC
  5
76B
100
AcDbEntity
  8
0
100
AcDbCircle
 62
7
  6
CONTINUOUS
 10
-0.7709865952
 20
7.9036132007
 40
3.8504671521
100
AcDbArc
 50
104.9088315982
 51
108.3930507127
  0
ARC
  5
76C
100
AcDbEntity
  8
0
100
AcDbCircle
 62
7
  6
CONTINUOUS
 10
-0.7709865952
 20
7.9036132007
 40
3.8504668031
100
AcDbArc
 50
77.9516186991
 51
90.8344375197
  0
ARC
  5
76D
100
AcDbEntity
  8
DRAFT
100
AcDbCircle
 62
7
  6
CONTINUOUS
 10
-15.5571192434
 20
44.7939515789
 40
2.2849101299
100
AcDbArc
 50
129.2281521339
 51
360.0
  0
ARC
  5
76E
100
AcDbEntity
  8
DRAFT
100
AcDbCircle
 62
7
  6
CONTINUOUS
 10
-15.5571192434
 20
44.7939515789
 40
2.25
100
AcDbArc
 50
129.957725307
 51
360.0
  0
CIRCLE
  5
76F
100
AcDbEntity
  8
DRAFT
100
AcDbCircle
 62
7
  6
CONTINUOUS
 10
-15.5571192434
 20
44.7939515789
 40
1.3198202597
  0
CIRCLE
  5
770
100
AcDbEntity
  8
DRAFT
100
AcDbCircle
 62
7
  6
CONTINUOUS
 10
-15.5571192434
 20
44.7939515789
 40
1.25
  0
CIRCLE
  5
771
100
AcDbEntity
  8
DRAFT
100
AcDbCircle
 62
7
  6
CONTINUOUS
 10
-15.5571192434
 20
44.7939515789
 40
1.0
  0
CIRCLE
  5
772
100
AcDbEntity
  8
DRAFT
100
AcDbCircle
 62
7
  6
CONTINUOUS
 10
-15.5571192434
 20
44.7939515789
 40
0.9520022272
  0
ARC
  5
773
100
AcDbEntity
  8
DRAFT
100
AcDbCircle
 62
7
  6
CONTINUOUS
 10
14.4428807566
 20
-44.7060484211
 40
2.2849101299
100
AcDbArc
 50
309.2281521339
 51
180.0
  0
ARC
  5
774
100
AcDbEntity
  8
DRAFT
100
AcDbCircle
 62
7
  6
CONTINUOUS
 10
14.4428807566
 20
-44.7060484211
 40
2.25
100
AcDbArc
 50
309.957725307
 51
180.0
  0
CIRCLE
  5
775
100
AcDbEntity
  8
DRAFT
100
AcDbCircle
 62
7
  6
CONTINUOUS
 10
14.4428807566
 20
-44.7060484211
 40
1.3198202597
  0
CIRCLE
  5
776
100
AcDbEntity
  8
DRAFT
100
AcDbCircle
 62
7
  6
CONTINUOUS
 10
14.4428807566
 20
-44.7060484211
 40
1.25
  0
CIRCLE
  5
777
100
AcDbEntity
  8
DRAFT
100
AcDbCircle
 62
7
  6
CONTINUOUS
 10
14.4428807566
 20
-44.7060484211
 40
1.0
  0
CIRCLE
  5
778
100
AcDbEntity
  8
DRAFT
100
AcDbCircle
 62
7
  6
CONTINUOUS
 10
14.4428807566
 20
-44.7060484211
 40
0.9520022272
  0
CIRCLE
  5
779
100
AcDbEntity
  8
DRAFT
100
AcDbCircle
 62
7
  6
CONTINUOUS
 10
14.4428807566
 20
44.7939515789
 40
2.2849101299
  0
CIRCLE
  5
77A
100
AcDbEntity
  8
DRAFT
100
AcDbCircle
 62
7
  6
CONTINUOUS
 10
14.4428807566
 20
44.7939515789
 40
2.25
  0
ARC
  5
77B
100
AcDbEntity
  8
0
100
AcDbCircle
 62
7
  6
CONTINUOUS
 10
11.9428807566
 20
50.9439515789
 40
2.0
100
AcDbArc
 50
270.0
 51
90.0
  0
ARC
  5
77C
100
AcDbEntity
  8
0
100
AcDbCircle
 62
7
  6
CONTINUOUS
 10
9.9428807566
 20
50.9439515789
 40
2.0
100
AcDbArc
 50
90.0
 51
270.0
  0
CIRCLE
  5
77D
100
AcDbEntity
  8
DRAFT
100
AcDbCircle
 62
7
  6
CONTINUOUS
 10
14.4428807566
 20
44.7939515789
 40
1.3198202597
  0
CIRCLE
  5
77E
100
AcDbEntity
  8
DRAFT
100
AcDbCircle
 62
7
  6
CONTINUOUS
 10
14.4428807566
 20
44.7939515789
 40
1.25
  0
CIRCLE
  5
77F
100
AcDbEntity
  8
DRAFT
100
AcDbCircle
 62
7
  6
CONTINUOUS
 10
14.4428807566
 20
44.7939515789
 40
1.0
  0
CIRCLE
  5
780
100
AcDbEntity
  8
DRAFT
100
AcDbCircle
 62
7
  6
CONTINUOUS
 10
14.4428807566
 20
44.7939515789
 40
0.9520022272
  0
ARC
  5
781
100
AcDbEntity
  8
0
100
AcDbCircle
 62
7
  6
CONTINUOUS
 10
0.5561154048
 20
5.9596882007
 40
0.6542057106
100
AcDbArc
 50
84.9999868542
 51
176.7241833468
  0
ARC
  5
782
100
AcDbEntity
  8
0
100
AcDbCircle
 62
7
  6
CONTINUOUS
 10
0.5561154048
 20
5.9596882007
 40
0.6542055022
100
AcDbArc
 50
183.2758166532
 51
78.4374939936
  0
CIRCLE
  5
783
100
AcDbEntity
  8
0
100
AcDbCircle
 62
7
  6
CONTINUOUS
 10
0.5561154048
 20
5.9596882007
 40
0.373832
  0
ARC
  5
784
100
AcDbEntity
  8
0
100
AcDbCircle
 62
7
  6
CONTINUOUS
 10
1.1168633738
 20
11.3428662472
 40
0.3364491397
100
AcDbArc
 50
303.748776311
 51
153.3682546595
  0
ARC
  5
785
100
AcDbEntity
  8
0
100
AcDbCircle
 62
7
  6
CONTINUOUS
 10
1.1168634731
 20
11.3428662163
 40
0.3364487707
100
AcDbArc
 50
166.153055358
 51
192.8396974407
  0
CIRCLE
  5
786
100
AcDbEntity
  8
0
100
AcDbCircle
 62
7
  6
CONTINUOUS
 10
0.5561154048
 20
5.9596882007
 40
0.224299
  0
ELLIPSE
  5
787
100
AcDbEntity
  8
RACCORDO
100
AcDbEllipse
 62
7
  6
CONTINUOUS
 10
-4.941409685
 20
-16.3560484211
 30
0.0
 11
-0.0
 21
0.3
 31
0.0
 40
0.0174550649
 41
-3.1415926536
 42
-1.5707963268
  0
ELLIPSE
  5
788
100
AcDbEntity
  8
RACCORDO
100
AcDbEllipse
 62
7
  6
CONTINUOUS
 10
3.8271711981
 20
-16.3560484211
 30
0.0
 11
-0.0
 21
0.3
 31
0.0
 40
0.0174550649
 41
1.5707963268
 42
3.1415926536
  0
ELLIPSE
  5
789
100
AcDbEntity
  8
RACCORDO
100
AcDbEllipse
 62
7
  6
CONTINUOUS
 10
-4.4570430794
 20
-49.555972257
 30
0.0
 11
0.3536610946
 21
0.3536610946
 31
0.0
 40
0.9996954599
 41
-3.9268385237
 42
-2.3563467834
  0
ELLIPSE
  5
78A
100
AcDbEntity
  8
RACCORDO
100
AcDbEllipse
 62
7
  6
CONTINUOUS
 10
3.3428045926
 20
-49.555972257
 30
0.0
 11
0.3536610946
 21
-0.3536610946
 31
0.0
 40
0.9996954599
 41
-0.7852458701
 42
0.7852458701
  0
ELLIPSE
  5
78B
100
AcDbEntity
  8
RACCORDO
100
AcDbEllipse
 62
7
  6
CONTINUOUS
 10
-4.3819863002
 20
-49.4809154778
 30
0.0
 11
-0.3536610946
 21
-0.3536610946
 31
0.0
 40
0.9996954599
 41
-0.7852458701
 42
0.7852458701
  0
ELLIPSE
  5
78C
100
AcDbEntity
  8
RACCORDO
100
AcDbEllipse
 62
7
  6
CONTINUOUS
 10
3.2677478134
 20
-49.4809154778
 30
0.0
 11
0.3536610946
 21
-0.3536610946
 31
0.0
 40
0.9996954599
 41
-0.7852458701
 42
0.7852458701
  0
ELLIPSE
  5
78D
100
AcDbEntity
  8
RACCORDO
100
AcDbEllipse
 62
7
  6
CONTINUOUS
 10
16.1575780552
 20
-25.0560484211
 30
0.0
 11
-0.0
 21
1.0
 31
0.0
 40
0.0174550649
 41
-1.5707963268
 42
0.0
  0
ELLIPSE
  5
78E
100
AcDbEntity
  8
RACCORDO
100
AcDbEllipse
 62
7
  6
CONTINUOUS
 10
16.1575780552
 20
25.1439515789
 30
0.0
 11
0.0
 21
1.0
 31
0.0
 40
0.0174550649
 41
-3.1415926536
 42
-1.5707963268
  0
ELLIPSE
  5
78F
100
AcDbEntity
  8
RACCORDO
100
AcDbEllipse
 62
7
  6
CONTINUOUS
 10
16.1575780552
 20
34.9439515789
 30
0.0
 11
0.0
 21
1.0
 31
0.0
 40
0.0174550649
 41
-1.5707963268
 42
0.0
  0
ELLIPSE
  5
790
100
AcDbEntity
  8
RACCORDO
100
AcDbEllipse
 62
7
  6
CONTINUOUS
 10
16.1575780552
 20
-34.8560484211
 30
0.0
 11
-0.0
 21
1.0
 31
0.0
 40
0.0174550649
 41
-3.1415926536
 42
-1.5707963268
  0
ELLIPSE
  5
791
100
AcDbEntity
  8
RACCORDO
100
AcDbEllipse
 62
7
  6
CONTINUOUS
 10
-18.3733349318
 20
34.9439515789
 30
0.0
 11
0.0
 21
1.0
 31
0.0
 40
0.0174550649
 41
-1.5707963268
 42
-0.0
  0
ELLIPSE
  5
792
100
AcDbEntity
  8
RACCORDO
100
AcDbEllipse
 62
7
  6
CONTINUOUS
 10
-18.3733349318
 20
25.1439515789
 30
0.0
 11
0.0
 21
1.0
 31
0.0
 40
0.0174550649
 41
-3.1415926536
 42
-1.5707963268
  0
ELLIPSE
  5
793
100
AcDbEntity
  8
RACCORDO
100
AcDbEllipse
 62
7
  6
CONTINUOUS
 10
-18.3733349318
 20
-25.0560484211
 30
0.0
 11
0.0
 21
1.0
 31
0.0
 40
0.0174550649
 41
-1.5707963268
 42
-0.0
  0
ELLIPSE
  5
794
100
AcDbEntity
  8
RACCORDO
100
AcDbEllipse
 62
7
  6
CONTINUOUS
 10
-18.3733349318
 20
-34.8560484211
 30
0.0
 11
0.0
 21
1.0
 31
0.0
 40
0.0174550649
 41
-3.1415926536
 42
-1.5707963268
  0
ELLIPSE
  5
795
100
AcDbEntity
  8
RACCORDO
100
AcDbEllipse
 62
7
  6
CONTINUOUS
 10
17.2590964449
 20
25.1439515789
 30
0.0
 11
0.0
 21
1.0
 31
0.0
 40
0.0174550649
 41
-4.7123889804
 42
-3.1415926536
  0
ELLIPSE
  5
796
100
AcDbEntity
  8
RACCORDO
100
AcDbEllipse
 62
7
  6
CONTINUOUS
 10
17.2590964449
 20
34.9439515789
 30
0.0
 11
0.0
 21
1.0
 31
0.0
 40
0.0174550649
 41
0.0
 42
1.5707963268
  0
ELLIPSE
  5
797
100
AcDbEntity
  8
RACCORDO
100
AcDbEllipse
 62
7
  6
CONTINUOUS
 10
17.2590964449
 20
-25.0560484211
 30
0.0
 11
-0.0
 21
1.0
 31
0.0
 40
0.0174550649
 41
0.0
 42
1.5707963268
  0
ELLIPSE
  5
798
100
AcDbEntity
  8
RACCORDO
100
AcDbEllipse
 62
7
  6
CONTINUOUS
 10
17.2590964449
 20
-34.8560484211
 30
0.0
 11
0.0
 21
1.0
 31
0.0
 40
0.0174550649
 41
-4.7123889804
 42
-3.1415926536
  0
ELLIPSE
  5
799
100
AcDbEntity
  8
RACCORDO
100
AcDbEllipse
 62
7
  6
CONTINUOUS
 10
-17.271816542
 20
25.1439515789
 30
0.0
 11
0.0
 21
1.0
 31
0.0
 40
0.0174550649
 41
-4.7123889804
 42
-3.1415926536
  0
ELLIPSE
  5
79A
100
AcDbEntity
  8
RACCORDO
100
AcDbEllipse
 62
7
  6
CONTINUOUS
 10
-17.271816542
 20
-25.0560484211
 30
0.0
 11
0.0
 21
1.0
 31
0.0
 40
0.0174550649
 41
-0.0
 42
1.5707963268
  0
ELLIPSE
  5
79B
100
AcDbEntity
  8
RACCORDO
100
AcDbEllipse
 62
7
  6
CONTINUOUS
 10
-17.271816542
 20
-34.8560484211
 30
0.0
 11
0.0
 21
1.0
 31
0.0
 40
0.0174550649
 41
1.5707963268
 42
3.1415926536
  0
ELLIPSE
  5
79C
100
AcDbEntity
  8
RACCORDO
100
AcDbEllipse
 62
7
  6
CONTINUOUS
 10
-17.271816542
 20
34.9439515789
 30
0.0
 11
-0.0
 21
1.0
 31
0.0
 40
0.0174550649
 41
-0.0
 42
1.5707963268
  0
ELLIPSE
  5
79D
100
AcDbEntity
  8
RACCORDO
100
AcDbEllipse
 62
7
  6
CONTINUOUS
 10
-17.4569669154
 20
-53.855896093
 30
0.0
 11
0.7073221892
 21
0.7073221892
 31
0.0
 40
0.9996954599
 41
2.3563467834
 42
3.9268385237
  0
ELLIPSE
  5
79E
100
AcDbEntity
  8
RACCORDO
100
AcDbEllipse
 62
7
  6
CONTINUOUS
 10
16.3427284285
 20
-53.855896093
 30
0.0
 11
0.7073221892
 21
-0.7073221892
 31
0.0
 40
0.9996954599
 41
-0.7852458701
 42
0.7852458701
  0
ELLIPSE
  5
79F
100
AcDbEntity
  8
RACCORDO
100
AcDbEllipse
 62
7
  6
CONTINUOUS
 10
-17.4569669154
 20
53.9437992509
 30
0.0
 11
0.7073221892
 21
-0.7073221892
 31
0.0
 40
0.9996954599
 41
2.3563467834
 42
3.9268385237
  0
ELLIPSE
  5
7A0
100
AcDbEntity
  8
RACCORDO
100
AcDbEllipse
 62
7
  6
CONTINUOUS
 10
16.3427284285
 20
53.9437992509
 30
0.0
 11
0.7073221892
 21
0.7073221892
 31
0.0
 40
0.9996954599
 41
-0.7852458701
 42
0.7852458701
  0
ELLIPSE
  5
7A1
100
AcDbEntity
  8
RACCORDO
100
AcDbEllipse
 62
7
  6
CONTINUOUS
 10
5.3974837562
 20
-0.9103466486
 30
0.0
 11
-0.0
 21
0.5
 31
0.0
 40
0.0349207695
 41
-4.7123889804
 42
-3.1764992386
  0
ELLIPSE
  5
7A2
100
AcDbEntity
  8
RACCORDO
100
AcDbEllipse
 62
7
  6
CONTINUOUS
 10
5.3974837562
 20
0.9982498065
 30
0.0
 11
0.0
 21
0.5
 31
0.0
 40
0.0349207695
 41
0.034906585
 42
1.5707963268
  0
ELLIPSE
  5
7A3
100
AcDbEntity
  8
RACCORDO
100
AcDbEllipse
 62
7
  6
CONTINUOUS
 10
-5.4054531936
 20
0.9982498065
 30
0.0
 11
-0.0
 21
0.5
 31
0.0
 40
0.2679491924
 41
0.034906585
 42
1.5707963268
  0
ELLIPSE
  5
7A4
100
AcDbEntity
  8
RACCORDO
100
AcDbEllipse
 62
7
  6
CONTINUOUS
 10
-5.4054531936
 20
-0.9103466486
 30
0.0
 11
-0.0
 21
0.5
 31
0.0
 40
0.2679491924
 41
-4.7123889804
 42
-3.1764992386
  0
ELLIPSE
  5
7A5
100
AcDbEntity
  8
RACCORDO
100
AcDbEllipse
 62
7
  6
CONTINUOUS
 10
4.2912147067
 20
-0.9103466486
 30
0.0
 11
0.0
 21
0.5
 31
0.0
 40
0.2679491924
 41
-3.1066860685
 42
-1.5707963268
  0
ELLIPSE
  5
7A6
100
AcDbEntity
  8
RACCORDO
100
AcDbEllipse
 62
7
  6
CONTINUOUS
 10
4.2912147067
 20
0.9982498065
 30
0.0
 11
-0.0
 21
0.5
 31
0.0
 40
0.2679491924
 41
-1.5707963268
 42
-0.034906585
  0
ELLIPSE
  5
7A7
100
AcDbEntity
  8
RACCORDO
100
AcDbEllipse
 62
7
  6
CONTINUOUS
 10
-17.3522365258
 20
-53.7511657034
 30
0.0
 11
0.7073221892
 21
0.7073221892
 31
0.0
 40
0.9996954599
 41
2.3563467834
 42
3.9268385237
  0
ELLIPSE
  5
7A8
100
AcDbEntity
  8
RACCORDO
100
AcDbEllipse
 62
7
  6
CONTINUOUS
 10
-6.5117222431
 20
0.9982498065
 30
0.0
 11
-0.0
 21
0.5
 31
0.0
 40
0.0349207695
 41
-1.5707963268
 42
-0.034906585
  0
ELLIPSE
  5
7A9
100
AcDbEntity
  8
RACCORDO
100
AcDbEllipse
 62
7
  6
CONTINUOUS
 10
16.237998039
 20
-53.7511657034
 30
0.0
 11
0.7073221892
 21
-0.7073221892
 31
0.0
 40
0.9996954599
 41
-0.7852458701
 42
0.7852458701
  0
ELLIPSE
  5
7AA
100
AcDbEntity
  8
RACCORDO
100
AcDbEllipse
 62
7
  6
CONTINUOUS
 10
-17.3522365258
 20
53.8390688613
 30
0.0
 11
-0.7073221892
 21
0.7073221892
 31
0.0
 40
0.9996954599
 41
-0.7852458701
 42
0.7852458701
  0
ELLIPSE
  5
7AB
100
AcDbEntity
  8
RACCORDO
100
AcDbEllipse
 62
7
  6
CONTINUOUS
 10
16.237998039
 20
53.8390688613
 30
0.0
 11
-0.7073221892
 21
-0.7073221892
 31
0.0
 40
0.9996954599
 41
2.3563467834
 42
3.9268385237
  0
ELLIPSE
  5
7AC
100
AcDbEntity
  8
RACCORDO
100
AcDbEllipse
 62
7
  6
CONTINUOUS
 10
-6.5117222431
 20
-0.9103466486
 30
0.0
 11
0.0
 21
0.5
 31
0.0
 40
0.0349207695
 41
-3.1066860685
 42
-1.5707963268
  0
ENDSEC
  0
SECTION
  2
OBJECTS
  0
DICTIONARY
  5
C
100
AcDbDictionary
280
0
281
1
  3
ACAD_GROUP
350
D
  3
ACAD_MLINESTYLE
350
17
  3
ACAD_LAYOUT
350
1A
  3
ACAD_PLOTSETTINGS
350
19
  3
ACAD_PLOTSTYLENAME
350
E
  0
DICTIONARY
  5
D
102
{ACAD_REACTORS
330
C
102
}
100
AcDbDictionary
280
0
281
1
  0
ACDBDICTIONARYWDFLT
  5
E
102
{ACAD_REACTORS
330
C
102
}
100
AcDbDictionary
281
1
  3
Normal
350
F
100
AcDbDictionaryWithDefault
340
F
  0
DICTIONARY
  5
17
102
{ACAD_REACTORS
330
C
102
}
100
AcDbDictionary
280
0
281
1
  3
Standard
350
18
  0
DICTIONARY
  5
19
102
{ACAD_REACTORS
330
C
102
}
100
AcDbDictionary
281
1
  0
DICTIONARY
  5
1A
102
{ACAD_REACTORS
330
C
102
}
100
AcDbDictionary
281
1
  3
Model
350
7AD
  3
Layout1
350
7AE
  0
ACDBPLACEHOLDER
  5
F
102
{ACAD_REACTORS
330
E
102
}
  0
MLINESTYLE
  5
18
102
{ACAD_REACTORS
330
17
102
}
100
AcDbMlineStyle
  2
STANDARD
 70
0
  3

 62
256
 51
90.0
 52
90.0
 71
2
 49
0.5
 62
256
  6
BYLAYER
 49
-0.5
 62
256
  6
BYLAYER
  0
LAYOUT
  5
7AD
102
{ACAD_REACTORS
330
1A
102
}
100
AcDbPlotSettings
  1

  2
none_device
  4
ISO_A4_(297.00_x_210.00_MM)
  6

 40
0.0
 41
0.0
 42
0.0
 43
0.0
 44
297.0
 45
210.0
 46
0.0
 47
0.0
 48
0.0
 49
0.0
140
0.0
141
0.0
142
1.0
143
1.0
 70
1024
 72
1
 73
0
 74
0
  7

 75
0
147
1.0
148
0.0
149
0.0
100
AcDbLayout
  1
Model
 70
0
 71
0
 10
0.0
 20
0.0
 11
297.0
 21
210.0
 12
0.0
 22
0.0
 32
0.0
 14
0.0
 24
0.0
 34
0.0
 15
0.0
 25
0.0
 35
0.0
146
0.0
 13
0.0
 23
0.0
 33
0.0
 16
1.0
 26
0.0
 36
0.0
 17
0.0
 27
1.0
 37
0.0
 76
0
330
3C2
345
0
346
0
  0
LAYOUT
  5
7AE
102
{ACAD_REACTORS
330
1A
102
}
100
AcDbPlotSettings
  1

  2
none_device
  4
ISO_A4_(297.00_x_210.00_MM)
  6

 40
0.0
 41
0.0
 42
0.0
 43
0.0
 44
297.0
 45
210.0
 46
0.0
 47
0.0
 48
0.0
 49
0.0
140
0.0
141
0.0
142
1.0
143
1.0
 70
0
 72
1
 73
0
 74
0
  7

 75
0
147
1.0
148
0.0
149
0.0
100
AcDbLayout
  1
Layout1
 70
0
 71
1
 10
0.0
 20
0.0
 11
297.0
 21
210.0
 12
0.0
 22
0.0
 32
0.0
 14
0.0
 24
0.0
 34
0.0
 15
0.0
 25
0.0
 35
0.0
146
0.0
 13
0.0
 23
0.0
 33
0.0
 16
1.0
 26
0.0
 36
0.0
 17
0.0
 27
1.0
 37
0.0
 76
0
330
3C3
345
0
346
0
  0
ENDSEC
  0
EOF
