  0
SECTION
  2
HEADER
  9
$ACADVER
  1
AC1015
  9
$DWGCODEPAGE
  3
ANSI_1252
  9
$EXTMAX
 10
297.0
 20
210.0
 30
0.0
  9
$EXTMIN
 10
0.0
 20
0.0
 30
0.0
  9
$LIMMIN
 10
0.0
 20
0.0
  9
$LIMMAX
 10
297.0
 20
210.0
  9
$VIEWCTR
 10
148.5
 20
105.0
  9
$VIEWSIZE
 40
210.0
  9
$CLAYER
  8
0
  9
$LTSCALE
 40
16.335
  9
$CELTYPE
  6
BYLAYER
  9
$DIMSCALE
 40
1.0
  9
$DIMASZ
 40
3.0
  9
$DIMEXO
 40
0.5
  9
$DIMDLI
 40
11.286
  9
$DIMEXE
 40
1.5
  9
$DIMCEN
 40
2.673
  9
$DIMLFAC
 40
1.0
  9
$DIMBLK
  1
_FILLED
  9
$DIMTXT
 40
3.0
  9
$DIMTOL
 70
1
  9
$DIMLIM
 70
0
  9
$DIMTFAC
 40
1.0
  9
$DIMTP
 40
0.01
  9
$DIMTM
 40
0.01
  9
$DIMGAP
 40
0.625
  9
$DIMDSEP
 70
44
  9
$PDMODE
 70
3
  9
$PDSIZE
 40
3.0
  9
$HANDSEED
  5
50F
  9
$TILEMODE
 70
1
  9
$MEASUREMENT
 70
1
  9
$INSUNITS
 70
4
  0
ENDSEC
  0
SECTION
  2
CLASSES
  0
CLASS
  1
ACDBDICTIONARYWDFLT
  2
AcDbDictionaryWithDefault
  3
AutoCAD 2000
 90
0
280
0
281
0
  0
CLASS
  1
ACDBPLACEHOLDER
  2
AcDbPlaceHolder
  3
AutoCAD 2000
 90
0
280
0
281
0
  0
CLASS
  1
LAYOUT
  2
AcDbLayout
  3
AutoCAD 2000
 90
0
280
0
281
0
  0
ENDSEC
  0
SECTION
  2
TABLES
  0
TABLE
  2
VPORT
  5
8
100
AcDbSymbolTable
 70
2
  0
VPORT
  5
1F4
100
AcDbSymbolTableRecord
100
AcDbViewportTableRecord
  2
*ACTIVE
 70
0
 10
0.0
 20
0.0
 11
1.0
 21
1.0
 12
148.5
 22
105.0
 13
0.0
 23
0.0
 14
1.0
 24
1.0
 15
0.0
 25
0.0
 16
0.0
 26
0.0
 36
1.0
 17
0.0
 27
0.0
 37
0.0
 40
210.0
 41
1.4142857143
 42
50.0
 43
0.0
 44
0.0
 50
0.0
 51
0.0
 71
0
 72
100
 73
1
 74
1
 75
0
 76
0
 77
0
 78
0
  0
ENDTAB
  0
TABLE
  2
LTYPE
  5
5
100
AcDbSymbolTable
 70
6
  0
LTYPE
  5
14
100
AcDbSymbolTableRecord
100
AcDbLinetypeTableRecord
  2
BYBLOCK
 70
0
  3

 72
65
 73
0
 40
0.0
  0
LTYPE
  5
15
100
AcDbSymbolTableRecord
100
AcDbLinetypeTableRecord
  2
BYLAYER
 70
0
  3

 72
65
 73
0
 40
0.0
  0
LTYPE
  5
16
100
AcDbSymbolTableRecord
100
AcDbLinetypeTableRecord
  2
CONTINUOUS
 70
64
  3
Solid line
 72
65
 73
0
 40
0.0
  0
LTYPE
  5
1F5
100
AcDbSymbolTableRecord
100
AcDbLinetypeTableRecord
  2
CENTER
 70
64
  3
____ _ ____ _ ____ _ ____ _ ____ _ ____ _ ____
 72
65
 73
4
 40
0.6
 49
0.375
 74
0
 49
-0.075
 74
0
 49
0.075
 74
0
 49
-0.075
 74
0
  0
LTYPE
  5
1F6
100
AcDbSymbolTableRecord
100
AcDbLinetypeTableRecord
  2
HIDDEN
 70
64
  3
- - - - - - - - - - - - - - - - - - - -
 72
65
 73
2
 40
0.2
 49
0.1
 74
0
 49
-0.1
 74
0
  0
LTYPE
  5
1F7
100
AcDbSymbolTableRecord
100
AcDbLinetypeTableRecord
  2
PHANTOM
 70
64
  3
_____ _ _ _____ _ _ _____ _ _ _____
 72
65
 73
6
 40
0.8
 49
0.45
 74
0
 49
-0.05
 74
0
 49
0.1
 74
0
 49
-0.05
 74
0
 49
0.1
 74
0
 49
-0.05
 74
0
  0
LTYPE
  5
1F8
100
AcDbSymbolTableRecord
100
AcDbLinetypeTableRecord
  2
DOT
 70
64
  3
. . . . . . . . . . . . . . . . . . . .
 72
65
 73
2
 40
0.2
 49
0.1
 74
0
 49
-0.1
 74
0
  0
LTYPE
  5
1F9
100
AcDbSymbolTableRecord
100
AcDbLinetypeTableRecord
  2
DASHED
 70
64
  3
- - - - - - - - - - - - - - - - - - - -
 72
65
 73
2
 40
0.2
 49
0.1
 74
0
 49
-0.1
 74
0
  0
ENDTAB
  0
TABLE
  2
LAYER
  5
2
100
AcDbSymbolTable
 70
36
  0
LAYER
  5
10
100
AcDbSymbolTableRecord
100
AcDbLayerTableRecord
  2
0
 70
0
 62
7
  6
CONTINUOUS
370
-3
390
F
  0
LAYER
  5
1FA
100
AcDbSymbolTableRecord
100
AcDbLayerTableRecord
  2
DEFAULT_1
 70
0
 62
7
  6
CENTER
370
-3
390
F
  0
LAYER
  5
1FB
100
AcDbSymbolTableRecord
100
AcDbLayerTableRecord
  2
DEFAULT_2
 70
0
 62
7
  6
HIDDEN
370
-3
390
F
  0
LAYER
  5
1FC
100
AcDbSymbolTableRecord
100
AcDbLayerTableRecord
  2
DEFAULT_3
 70
0
 62
7
  6
PHANTOM
370
-3
390
F
  0
LAYER
  5
1FD
100
AcDbSymbolTableRecord
100
AcDbLayerTableRecord
  2
201A_260000
 70
0
 62
7
  6
CONTINUOUS
370
-3
390
F
  0
LAYER
  5
1FE
100
AcDbSymbolTableRecord
100
AcDbLayerTableRecord
  2
2125-CC-RF-VIMAR_65000
 70
0
 62
7
  6
CONTINUOUS
370
-3
390
F
  0
LAYER
  5
1FF
100
AcDbSymbolTableRecord
100
AcDbLayerTableRecord
  2
2125-CC-RF-VIMAR_65000_1
 70
0
 62
7
  6
CONTINUOUS
370
-3
390
F
  0
LAYER
  5
200
100
AcDbSymbolTableRecord
100
AcDbLayerTableRecord
  2
2125-CC-RF-VIMAR_65000_10
 70
0
 62
7
  6
CONTINUOUS
370
-3
390
F
  0
LAYER
  5
201
100
AcDbSymbolTableRecord
100
AcDbLayerTableRecord
  2
2125-CC-RF-VIMAR_65000_11
 70
0
 62
7
  6
CONTINUOUS
370
-3
390
F
  0
LAYER
  5
202
100
AcDbSymbolTableRecord
100
AcDbLayerTableRecord
  2
2125-CC-RF-VIMAR_65000_2
 70
0
 62
7
  6
CONTINUOUS
370
-3
390
F
  0
LAYER
  5
203
100
AcDbSymbolTableRecord
100
AcDbLayerTableRecord
  2
2125-CC-RF-VIMAR_65000_3
 70
0
 62
7
  6
CONTINUOUS
370
-3
390
F
  0
LAYER
  5
204
100
AcDbSymbolTableRecord
100
AcDbLayerTableRecord
  2
2125-CC-RF-VIMAR_65000_4
 70
0
 62
7
  6
CONTINUOUS
370
-3
390
F
  0
LAYER
  5
205
100
AcDbSymbolTableRecord
100
AcDbLayerTableRecord
  2
2125-CC-RF-VIMAR_65000_5
 70
0
 62
7
  6
CONTINUOUS
370
-3
390
F
  0
LAYER
  5
206
100
AcDbSymbolTableRecord
100
AcDbLayerTableRecord
  2
2125-CC-RF-VIMAR_65000_6
 70
0
 62
7
  6
CONTINUOUS
370
-3
390
F
  0
LAYER
  5
207
100
AcDbSymbolTableRecord
100
AcDbLayerTableRecord
  2
2125-CC-RF-VIMAR_65000_7
 70
0
 62
7
  6
CONTINUOUS
370
-3
390
F
  0
LAYER
  5
208
100
AcDbSymbolTableRecord
100
AcDbLayerTableRecord
  2
2125-CC-RF-VIMAR_65000_8
 70
0
 62
7
  6
CONTINUOUS
370
-3
390
F
  0
LAYER
  5
209
100
AcDbSymbolTableRecord
100
AcDbLayerTableRecord
  2
2125-CC-RF-VIMAR_65000_9
 70
0
 62
7
  6
CONTINUOUS
370
-3
390
F
  0
LAYER
  5
20A
100
AcDbSymbolTableRecord
100
AcDbLayerTableRecord
  2
2125-R1-RF-VIMAR_60000
 70
0
 62
7
  6
CONTINUOUS
370
-3
390
F
  0
LAYER
  5
20B
100
AcDbSymbolTableRecord
100
AcDbLayerTableRecord
  2
2125-R1-RF-VIMAR_60000_1
 70
0
 62
7
  6
CONTINUOUS
370
-3
390
F
  0
LAYER
  5
20C
100
AcDbSymbolTableRecord
100
AcDbLayerTableRecord
  2
2125-R1-RF-VIMAR_60000_10
 70
0
 62
7
  6
CONTINUOUS
370
-3
390
F
  0
LAYER
  5
20D
100
AcDbSymbolTableRecord
100
AcDbLayerTableRecord
  2
2125-R1-RF-VIMAR_60000_11
 70
0
 62
7
  6
CONTINUOUS
370
-3
390
F
  0
LAYER
  5
20E
100
AcDbSymbolTableRecord
100
AcDbLayerTableRecord
  2
2125-R1-RF-VIMAR_60000_12
 70
0
 62
7
  6
CONTINUOUS
370
-3
390
F
  0
LAYER
  5
20F
100
AcDbSymbolTableRecord
100
AcDbLayerTableRecord
  2
2125-R1-RF-VIMAR_60000_13
 70
0
 62
7
  6
CONTINUOUS
370
-3
390
F
  0
LAYER
  5
210
100
AcDbSymbolTableRecord
100
AcDbLayerTableRecord
  2
2125-R1-RF-VIMAR_60000_14
 70
0
 62
7
  6
CONTINUOUS
370
-3
390
F
  0
LAYER
  5
211
100
AcDbSymbolTableRecord
100
AcDbLayerTableRecord
  2
2125-R1-RF-VIMAR_60000_15
 70
0
 62
7
  6
CONTINUOUS
370
-3
390
F
  0
LAYER
  5
212
100
AcDbSymbolTableRecord
100
AcDbLayerTableRecord
  2
2125-R1-RF-VIMAR_60000_16
 70
0
 62
7
  6
CONTINUOUS
370
-3
390
F
  0
LAYER
  5
213
100
AcDbSymbolTableRecord
100
AcDbLayerTableRecord
  2
2125-R1-RF-VIMAR_60000_17
 70
0
 62
7
  6
CONTINUOUS
370
-3
390
F
  0
LAYER
  5
214
100
AcDbSymbolTableRecord
100
AcDbLayerTableRecord
  2
2125-R1-RF-VIMAR_60000_18
 70
0
 62
7
  6
CONTINUOUS
370
-3
390
F
  0
LAYER
  5
215
100
AcDbSymbolTableRecord
100
AcDbLayerTableRecord
  2
2125-R1-RF-VIMAR_60000_19
 70
0
 62
7
  6
CONTINUOUS
370
-3
390
F
  0
LAYER
  5
216
100
AcDbSymbolTableRecord
100
AcDbLayerTableRecord
  2
2125-R1-RF-VIMAR_60000_2
 70
0
 62
7
  6
CONTINUOUS
370
-3
390
F
  0
LAYER
  5
217
100
AcDbSymbolTableRecord
100
AcDbLayerTableRecord
  2
2125-R1-RF-VIMAR_60000_20
 70
0
 62
7
  6
CONTINUOUS
370
-3
390
F
  0
LAYER
  5
218
100
AcDbSymbolTableRecord
100
AcDbLayerTableRecord
  2
2125-R1-RF-VIMAR_60000_21
 70
0
 62
7
  6
CONTINUOUS
370
-3
390
F
  0
LAYER
  5
219
100
AcDbSymbolTableRecord
100
AcDbLayerTableRecord
  2
2125-R1-RF-VIMAR_60000_22
 70
0
 62
7
  6
CONTINUOUS
370
-3
390
F
  0
LAYER
  5
21A
100
AcDbSymbolTableRecord
100
AcDbLayerTableRecord
  2
2125-R1-RF-VIMAR_60000_23
 70
0
 62
7
  6
CONTINUOUS
370
-3
390
F
  0
LAYER
  5
21B
100
AcDbSymbolTableRecord
100
AcDbLayerTableRecord
  2
2125-R1-RF-VIMAR_60000_24
 70
0
 62
7
  6
CONTINUOUS
370
-3
390
F
  0
LAYER
  5
21C
100
AcDbSymbolTableRecord
100
AcDbLayerTableRecord
  2
2125-R1-RF-VIMAR_60000_25
 70
0
 62
7
  6
CONTINUOUS
370
-3
390
F
  0
LAYER
  5
21D
100
AcDbSymbolTableRecord
100
AcDbLayerTableRecord
  2
2125-R1-RF-VIMAR_60000_26
 70
0
 62
7
  6
CONTINUOUS
370
-3
390
F
  0
LAYER
  5
21E
100
AcDbSymbolTableRecord
100
AcDbLayerTableRecord
  2
2125-R1-RF-VIMAR_60000_27
 70
0
 62
7
  6
CONTINUOUS
370
-3
390
F
  0
LAYER
  5
21F
100
AcDbSymbolTableRecord
100
AcDbLayerTableRecord
  2
2125-R1-RF-VIMAR_60000_28
 70
0
 62
7
  6
CONTINUOUS
370
-3
390
F
  0
LAYER
  5
220
100
AcDbSymbolTableRecord
100
AcDbLayerTableRecord
  2
2125-R1-RF-VIMAR_60000_29
 70
0
 62
7
  6
CONTINUOUS
370
-3
390
F
  0
LAYER
  5
221
100
AcDbSymbolTableRecord
100
AcDbLayerTableRecord
  2
2125-R1-RF-VIMAR_60000_3
 70
0
 62
7
  6
CONTINUOUS
370
-3
390
F
  0
LAYER
  5
222
100
AcDbSymbolTableRecord
100
AcDbLayerTableRecord
  2
2125-R1-RF-VIMAR_60000_30
 70
0
 62
7
  6
CONTINUOUS
370
-3
390
F
  0
LAYER
  5
223
100
AcDbSymbolTableRecord
100
AcDbLayerTableRecord
  2
2125-R1-RF-VIMAR_60000_31
 70
0
 62
7
  6
CONTINUOUS
370
-3
390
F
  0
LAYER
  5
224
100
AcDbSymbolTableRecord
100
AcDbLayerTableRecord
  2
2125-R1-RF-VIMAR_60000_32
 70
0
 62
7
  6
CONTINUOUS
370
-3
390
F
  0
LAYER
  5
225
100
AcDbSymbolTableRecord
100
AcDbLayerTableRecord
  2
2125-R1-RF-VIMAR_60000_33
 70
0
 62
7
  6
CONTINUOUS
370
-3
390
F
  0
LAYER
  5
226
100
AcDbSymbolTableRecord
100
AcDbLayerTableRecord
  2
2125-R1-RF-VIMAR_60000_34
 70
0
 62
7
  6
CONTINUOUS
370
-3
390
F
  0
LAYER
  5
227
100
AcDbSymbolTableRecord
100
AcDbLayerTableRecord
  2
2125-R1-RF-VIMAR_60000_35
 70
0
 62
7
  6
CONTINUOUS
370
-3
390
F
  0
LAYER
  5
228
100
AcDbSymbolTableRecord
100
AcDbLayerTableRecord
  2
2125-R1-RF-VIMAR_60000_36
 70
0
 62
7
  6
CONTINUOUS
370
-3
390
F
  0
LAYER
  5
229
100
AcDbSymbolTableRecord
100
AcDbLayerTableRecord
  2
2125-R1-RF-VIMAR_60000_37
 70
0
 62
7
  6
CONTINUOUS
370
-3
390
F
  0
LAYER
  5
22A
100
AcDbSymbolTableRecord
100
AcDbLayerTableRecord
  2
2125-R1-RF-VIMAR_60000_38
 70
0
 62
7
  6
CONTINUOUS
370
-3
390
F
  0
LAYER
  5
22B
100
AcDbSymbolTableRecord
100
AcDbLayerTableRecord
  2
2125-R1-RF-VIMAR_60000_39
 70
0
 62
7
  6
CONTINUOUS
370
-3
390
F
  0
LAYER
  5
22C
100
AcDbSymbolTableRecord
100
AcDbLayerTableRecord
  2
2125-R1-RF-VIMAR_60000_4
 70
0
 62
7
  6
CONTINUOUS
370
-3
390
F
  0
LAYER
  5
22D
100
AcDbSymbolTableRecord
100
AcDbLayerTableRecord
  2
2125-R1-RF-VIMAR_60000_40
 70
0
 62
7
  6
CONTINUOUS
370
-3
390
F
  0
LAYER
  5
22E
100
AcDbSymbolTableRecord
100
AcDbLayerTableRecord
  2
2125-R1-RF-VIMAR_60000_41
 70
0
 62
7
  6
CONTINUOUS
370
-3
390
F
  0
LAYER
  5
22F
100
AcDbSymbolTableRecord
100
AcDbLayerTableRecord
  2
2125-R1-RF-VIMAR_60000_42
 70
0
 62
7
  6
CONTINUOUS
370
-3
390
F
  0
LAYER
  5
230
100
AcDbSymbolTableRecord
100
AcDbLayerTableRecord
  2
2125-R1-RF-VIMAR_60000_43
 70
0
 62
7
  6
CONTINUOUS
370
-3
390
F
  0
LAYER
  5
231
100
AcDbSymbolTableRecord
100
AcDbLayerTableRecord
  2
2125-R1-RF-VIMAR_60000_44
 70
0
 62
7
  6
CONTINUOUS
370
-3
390
F
  0
LAYER
  5
232
100
AcDbSymbolTableRecord
100
AcDbLayerTableRecord
  2
2125-R1-RF-VIMAR_60000_45
 70
0
 62
7
  6
CONTINUOUS
370
-3
390
F
  0
LAYER
  5
233
100
AcDbSymbolTableRecord
100
AcDbLayerTableRecord
  2
2125-R1-RF-VIMAR_60000_46
 70
0
 62
7
  6
CONTINUOUS
370
-3
390
F
  0
LAYER
  5
234
100
AcDbSymbolTableRecord
100
AcDbLayerTableRecord
  2
2125-R1-RF-VIMAR_60000_47
 70
0
 62
7
  6
CONTINUOUS
370
-3
390
F
  0
LAYER
  5
235
100
AcDbSymbolTableRecord
100
AcDbLayerTableRecord
  2
2125-R1-RF-VIMAR_60000_48
 70
0
 62
7
  6
CONTINUOUS
370
-3
390
F
  0
LAYER
  5
236
100
AcDbSymbolTableRecord
100
AcDbLayerTableRecord
  2
2125-R1-RF-VIMAR_60000_49
 70
0
 62
7
  6
CONTINUOUS
370
-3
390
F
  0
LAYER
  5
237
100
AcDbSymbolTableRecord
100
AcDbLayerTableRecord
  2
2125-R1-RF-VIMAR_60000_5
 70
0
 62
7
  6
CONTINUOUS
370
-3
390
F
  0
LAYER
  5
238
100
AcDbSymbolTableRecord
100
AcDbLayerTableRecord
  2
2125-R1-RF-VIMAR_60000_50
 70
0
 62
7
  6
CONTINUOUS
370
-3
390
F
  0
LAYER
  5
239
100
AcDbSymbolTableRecord
100
AcDbLayerTableRecord
  2
2125-R1-RF-VIMAR_60000_51
 70
0
 62
7
  6
CONTINUOUS
370
-3
390
F
  0
LAYER
  5
23A
100
AcDbSymbolTableRecord
100
AcDbLayerTableRecord
  2
2125-R1-RF-VIMAR_60000_52
 70
0
 62
7
  6
CONTINUOUS
370
-3
390
F
  0
LAYER
  5
23B
100
AcDbSymbolTableRecord
100
AcDbLayerTableRecord
  2
2125-R1-RF-VIMAR_60000_6
 70
0
 62
7
  6
CONTINUOUS
370
-3
390
F
  0
LAYER
  5
23C
100
AcDbSymbolTableRecord
100
AcDbLayerTableRecord
  2
2125-R1-RF-VIMAR_60000_7
 70
0
 62
7
  6
CONTINUOUS
370
-3
390
F
  0
LAYER
  5
23D
100
AcDbSymbolTableRecord
100
AcDbLayerTableRecord
  2
2125-R1-RF-VIMAR_60000_8
 70
0
 62
7
  6
CONTINUOUS
370
-3
390
F
  0
LAYER
  5
23E
100
AcDbSymbolTableRecord
100
AcDbLayerTableRecord
  2
2125-R1-RF-VIMAR_60000_9
 70
0
 62
7
  6
CONTINUOUS
370
-3
390
F
  0
LAYER
  5
23F
100
AcDbSymbolTableRecord
100
AcDbLayerTableRecord
  2
3216-CF-RF-1-VIMAR_180000
 70
0
 62
7
  6
CONTINUOUS
370
-3
390
F
  0
LAYER
  5
240
100
AcDbSymbolTableRecord
100
AcDbLayerTableRecord
  2
3216-CF-RF-1-VIMAR_180000_1
 70
0
 62
7
  6
CONTINUOUS
370
-3
390
F
  0
LAYER
  5
241
100
AcDbSymbolTableRecord
100
AcDbLayerTableRecord
  2
3216-CF-RF-VIMAR_100000
 70
0
 62
7
  6
CONTINUOUS
370
-3
390
F
  0
LAYER
  5
242
100
AcDbSymbolTableRecord
100
AcDbLayerTableRecord
  2
3216-CF-RF-VIMAR_100000_1
 70
0
 62
7
  6
CONTINUOUS
370
-3
390
F
  0
LAYER
  5
243
100
AcDbSymbolTableRecord
100
AcDbLayerTableRecord
  2
3216-CF-RF-VIMAR_100000_2
 70
0
 62
7
  6
CONTINUOUS
370
-3
390
F
  0
LAYER
  5
244
100
AcDbSymbolTableRecord
100
AcDbLayerTableRecord
  2
3216-CF-RF-VIMAR_100000_3
 70
0
 62
7
  6
CONTINUOUS
370
-3
390
F
  0
LAYER
  5
245
100
AcDbSymbolTableRecord
100
AcDbLayerTableRecord
  2
3216-CF-RF-VIMAR_100000_4
 70
0
 62
7
  6
CONTINUOUS
370
-3
390
F
  0
LAYER
  5
246
100
AcDbSymbolTableRecord
100
AcDbLayerTableRecord
  2
3216-CS2-RF_1_180000
 70
0
 62
7
  6
CONTINUOUS
370
-3
390
F
  0
LAYER
  5
247
100
AcDbSymbolTableRecord
100
AcDbLayerTableRecord
  2
3225-CF1-RF-VIMAR_260000
 70
0
 62
7
  6
CONTINUOUS
370
-3
390
F
  0
LAYER
  5
248
100
AcDbSymbolTableRecord
100
AcDbLayerTableRecord
  2
43000558A0
 70
0
 62
7
  6
CONTINUOUS
370
-3
390
F
  0
LAYER
  5
249
100
AcDbSymbolTableRecord
100
AcDbLayerTableRecord
  2
435120890
 70
0
 62
7
  6
CONTINUOUS
370
-3
390
F
  0
LAYER
  5
24A
100
AcDbSymbolTableRecord
100
AcDbLayerTableRecord
  2
5750-CC-RF-VIMAR_200000
 70
0
 62
7
  6
CONTINUOUS
370
-3
390
F
  0
LAYER
  5
24B
100
AcDbSymbolTableRecord
100
AcDbLayerTableRecord
  2
6032-CS-RF_280000
 70
0
 62
7
  6
CONTINUOUS
370
-3
390
F
  0
LAYER
  5
24C
100
AcDbSymbolTableRecord
100
AcDbLayerTableRecord
  2
6032-CS-RF_280000_1
 70
0
 62
7
  6
CONTINUOUS
370
-3
390
F
  0
LAYER
  5
24D
100
AcDbSymbolTableRecord
100
AcDbLayerTableRecord
  2
7343-CS3-RF_430000
 70
0
 62
7
  6
CONTINUOUS
370
-3
390
F
  0
LAYER
  5
24E
100
AcDbSymbolTableRecord
100
AcDbLayerTableRecord
  2
ASSI
 70
0
 62
7
  6
CONTINUOUS
370
-3
390
F
  0
LAYER
  5
24F
100
AcDbSymbolTableRecord
100
AcDbLayerTableRecord
  2
AX-R100-2-VIMAR_230000
 70
0
 62
7
  6
CONTINUOUS
370
-3
390
F
  0
LAYER
  5
250
100
AcDbSymbolTableRecord
100
AcDbLayerTableRecord
  2
AX-R125-3-VIMAR_280000
 70
0
 62
7
  6
CONTINUOUS
370
-3
390
F
  0
LAYER
  5
251
100
AcDbSymbolTableRecord
100
AcDbLayerTableRecord
  2
CAPC1005X60N_60000
 70
0
 62
7
  6
CONTINUOUS
370
-3
390
F
  0
LAYER
  5
252
100
AcDbSymbolTableRecord
100
AcDbLayerTableRecord
  2
CAPC1608N_80000
 70
0
 62
7
  6
CONTINUOUS
370
-3
390
F
  0
LAYER
  5
253
100
AcDbSymbolTableRecord
100
AcDbLayerTableRecord
  2
CAPC1608N_80000_1
 70
0
 62
7
  6
CONTINUOUS
370
-3
390
F
  0
LAYER
  5
254
100
AcDbSymbolTableRecord
100
AcDbLayerTableRecord
  2
CAPC1608N_80000_10
 70
0
 62
7
  6
CONTINUOUS
370
-3
390
F
  0
LAYER
  5
255
100
AcDbSymbolTableRecord
100
AcDbLayerTableRecord
  2
CAPC1608N_80000_11
 70
0
 62
7
  6
CONTINUOUS
370
-3
390
F
  0
LAYER
  5
256
100
AcDbSymbolTableRecord
100
AcDbLayerTableRecord
  2
CAPC1608N_80000_12
 70
0
 62
7
  6
CONTINUOUS
370
-3
390
F
  0
LAYER
  5
257
100
AcDbSymbolTableRecord
100
AcDbLayerTableRecord
  2
CAPC1608N_80000_13
 70
0
 62
7
  6
CONTINUOUS
370
-3
390
F
  0
LAYER
  5
258
100
AcDbSymbolTableRecord
100
AcDbLayerTableRecord
  2
CAPC1608N_80000_14
 70
0
 62
7
  6
CONTINUOUS
370
-3
390
F
  0
LAYER
  5
259
100
AcDbSymbolTableRecord
100
AcDbLayerTableRecord
  2
CAPC1608N_80000_15
 70
0
 62
7
  6
CONTINUOUS
370
-3
390
F
  0
LAYER
  5
25A
100
AcDbSymbolTableRecord
100
AcDbLayerTableRecord
  2
CAPC1608N_80000_16
 70
0
 62
7
  6
CONTINUOUS
370
-3
390
F
  0
LAYER
  5
25B
100
AcDbSymbolTableRecord
100
AcDbLayerTableRecord
  2
CAPC1608N_80000_17
 70
0
 62
7
  6
CONTINUOUS
370
-3
390
F
  0
LAYER
  5
25C
100
AcDbSymbolTableRecord
100
AcDbLayerTableRecord
  2
CAPC1608N_80000_18
 70
0
 62
7
  6
CONTINUOUS
370
-3
390
F
  0
LAYER
  5
25D
100
AcDbSymbolTableRecord
100
AcDbLayerTableRecord
  2
CAPC1608N_80000_19
 70
0
 62
7
  6
CONTINUOUS
370
-3
390
F
  0
LAYER
  5
25E
100
AcDbSymbolTableRecord
100
AcDbLayerTableRecord
  2
CAPC1608N_80000_2
 70
0
 62
7
  6
CONTINUOUS
370
-3
390
F
  0
LAYER
  5
25F
100
AcDbSymbolTableRecord
100
AcDbLayerTableRecord
  2
CAPC1608N_80000_20
 70
0
 62
7
  6
CONTINUOUS
370
-3
390
F
  0
LAYER
  5
260
100
AcDbSymbolTableRecord
100
AcDbLayerTableRecord
  2
CAPC1608N_80000_21
 70
0
 62
7
  6
CONTINUOUS
370
-3
390
F
  0
LAYER
  5
261
100
AcDbSymbolTableRecord
100
AcDbLayerTableRecord
  2
CAPC1608N_80000_22
 70
0
 62
7
  6
CONTINUOUS
370
-3
390
F
  0
LAYER
  5
262
100
AcDbSymbolTableRecord
100
AcDbLayerTableRecord
  2
CAPC1608N_80000_23
 70
0
 62
7
  6
CONTINUOUS
370
-3
390
F
  0
LAYER
  5
263
100
AcDbSymbolTableRecord
100
AcDbLayerTableRecord
  2
CAPC1608N_80000_24
 70
0
 62
7
  6
CONTINUOUS
370
-3
390
F
  0
LAYER
  5
264
100
AcDbSymbolTableRecord
100
AcDbLayerTableRecord
  2
CAPC1608N_80000_25
 70
0
 62
7
  6
CONTINUOUS
370
-3
390
F
  0
LAYER
  5
265
100
AcDbSymbolTableRecord
100
AcDbLayerTableRecord
  2
CAPC1608N_80000_26
 70
0
 62
7
  6
CONTINUOUS
370
-3
390
F
  0
LAYER
  5
266
100
AcDbSymbolTableRecord
100
AcDbLayerTableRecord
  2
CAPC1608N_80000_27
 70
0
 62
7
  6
CONTINUOUS
370
-3
390
F
  0
LAYER
  5
267
100
AcDbSymbolTableRecord
100
AcDbLayerTableRecord
  2
CAPC1608N_80000_28
 70
0
 62
7
  6
CONTINUOUS
370
-3
390
F
  0
LAYER
  5
268
100
AcDbSymbolTableRecord
100
AcDbLayerTableRecord
  2
CAPC1608N_80000_29
 70
0
 62
7
  6
CONTINUOUS
370
-3
390
F
  0
LAYER
  5
269
100
AcDbSymbolTableRecord
100
AcDbLayerTableRecord
  2
CAPC1608N_80000_3
 70
0
 62
7
  6
CONTINUOUS
370
-3
390
F
  0
LAYER
  5
26A
100
AcDbSymbolTableRecord
100
AcDbLayerTableRecord
  2
CAPC1608N_80000_30
 70
0
 62
7
  6
CONTINUOUS
370
-3
390
F
  0
LAYER
  5
26B
100
AcDbSymbolTableRecord
100
AcDbLayerTableRecord
  2
CAPC1608N_80000_31
 70
0
 62
7
  6
CONTINUOUS
370
-3
390
F
  0
LAYER
  5
26C
100
AcDbSymbolTableRecord
100
AcDbLayerTableRecord
  2
CAPC1608N_80000_32
 70
0
 62
7
  6
CONTINUOUS
370
-3
390
F
  0
LAYER
  5
26D
100
AcDbSymbolTableRecord
100
AcDbLayerTableRecord
  2
CAPC1608N_80000_33
 70
0
 62
7
  6
CONTINUOUS
370
-3
390
F
  0
LAYER
  5
26E
100
AcDbSymbolTableRecord
100
AcDbLayerTableRecord
  2
CAPC1608N_80000_34
 70
0
 62
7
  6
CONTINUOUS
370
-3
390
F
  0
LAYER
  5
26F
100
AcDbSymbolTableRecord
100
AcDbLayerTableRecord
  2
CAPC1608N_80000_35
 70
0
 62
7
  6
CONTINUOUS
370
-3
390
F
  0
LAYER
  5
270
100
AcDbSymbolTableRecord
100
AcDbLayerTableRecord
  2
CAPC1608N_80000_36
 70
0
 62
7
  6
CONTINUOUS
370
-3
390
F
  0
LAYER
  5
271
100
AcDbSymbolTableRecord
100
AcDbLayerTableRecord
  2
CAPC1608N_80000_37
 70
0
 62
7
  6
CONTINUOUS
370
-3
390
F
  0
LAYER
  5
272
100
AcDbSymbolTableRecord
100
AcDbLayerTableRecord
  2
CAPC1608N_80000_38
 70
0
 62
7
  6
CONTINUOUS
370
-3
390
F
  0
LAYER
  5
273
100
AcDbSymbolTableRecord
100
AcDbLayerTableRecord
  2
CAPC1608N_80000_39
 70
0
 62
7
  6
CONTINUOUS
370
-3
390
F
  0
LAYER
  5
274
100
AcDbSymbolTableRecord
100
AcDbLayerTableRecord
  2
CAPC1608N_80000_4
 70
0
 62
7
  6
CONTINUOUS
370
-3
390
F
  0
LAYER
  5
275
100
AcDbSymbolTableRecord
100
AcDbLayerTableRecord
  2
CAPC1608N_80000_40
 70
0
 62
7
  6
CONTINUOUS
370
-3
390
F
  0
LAYER
  5
276
100
AcDbSymbolTableRecord
100
AcDbLayerTableRecord
  2
CAPC1608N_80000_41
 70
0
 62
7
  6
CONTINUOUS
370
-3
390
F
  0
LAYER
  5
277
100
AcDbSymbolTableRecord
100
AcDbLayerTableRecord
  2
CAPC1608N_80000_42
 70
0
 62
7
  6
CONTINUOUS
370
-3
390
F
  0
LAYER
  5
278
100
AcDbSymbolTableRecord
100
AcDbLayerTableRecord
  2
CAPC1608N_80000_43
 70
0
 62
7
  6
CONTINUOUS
370
-3
390
F
  0
LAYER
  5
279
100
AcDbSymbolTableRecord
100
AcDbLayerTableRecord
  2
CAPC1608N_80000_44
 70
0
 62
7
  6
CONTINUOUS
370
-3
390
F
  0
LAYER
  5
27A
100
AcDbSymbolTableRecord
100
AcDbLayerTableRecord
  2
CAPC1608N_80000_45
 70
0
 62
7
  6
CONTINUOUS
370
-3
390
F
  0
LAYER
  5
27B
100
AcDbSymbolTableRecord
100
AcDbLayerTableRecord
  2
CAPC1608N_80000_46
 70
0
 62
7
  6
CONTINUOUS
370
-3
390
F
  0
LAYER
  5
27C
100
AcDbSymbolTableRecord
100
AcDbLayerTableRecord
  2
CAPC1608N_80000_47
 70
0
 62
7
  6
CONTINUOUS
370
-3
390
F
  0
LAYER
  5
27D
100
AcDbSymbolTableRecord
100
AcDbLayerTableRecord
  2
CAPC1608N_80000_48
 70
0
 62
7
  6
CONTINUOUS
370
-3
390
F
  0
LAYER
  5
27E
100
AcDbSymbolTableRecord
100
AcDbLayerTableRecord
  2
CAPC1608N_80000_49
 70
0
 62
7
  6
CONTINUOUS
370
-3
390
F
  0
LAYER
  5
27F
100
AcDbSymbolTableRecord
100
AcDbLayerTableRecord
  2
CAPC1608N_80000_5
 70
0
 62
7
  6
CONTINUOUS
370
-3
390
F
  0
LAYER
  5
280
100
AcDbSymbolTableRecord
100
AcDbLayerTableRecord
  2
CAPC1608N_80000_50
 70
0
 62
7
  6
CONTINUOUS
370
-3
390
F
  0
LAYER
  5
281
100
AcDbSymbolTableRecord
100
AcDbLayerTableRecord
  2
CAPC1608N_80000_51
 70
0
 62
7
  6
CONTINUOUS
370
-3
390
F
  0
LAYER
  5
282
100
AcDbSymbolTableRecord
100
AcDbLayerTableRecord
  2
CAPC1608N_80000_52
 70
0
 62
7
  6
CONTINUOUS
370
-3
390
F
  0
LAYER
  5
283
100
AcDbSymbolTableRecord
100
AcDbLayerTableRecord
  2
CAPC1608N_80000_6
 70
0
 62
7
  6
CONTINUOUS
370
-3
390
F
  0
LAYER
  5
284
100
AcDbSymbolTableRecord
100
AcDbLayerTableRecord
  2
CAPC1608N_80000_7
 70
0
 62
7
  6
CONTINUOUS
370
-3
390
F
  0
LAYER
  5
285
100
AcDbSymbolTableRecord
100
AcDbLayerTableRecord
  2
CAPC1608N_80000_8
 70
0
 62
7
  6
CONTINUOUS
370
-3
390
F
  0
LAYER
  5
286
100
AcDbSymbolTableRecord
100
AcDbLayerTableRecord
  2
CAPC1608N_80000_9
 70
0
 62
7
  6
CONTINUOUS
370
-3
390
F
  0
LAYER
  5
287
100
AcDbSymbolTableRecord
100
AcDbLayerTableRecord
  2
CC-0603-VIMAR_1000
 70
0
 62
7
  6
CONTINUOUS
370
-3
390
F
  0
LAYER
  5
288
100
AcDbSymbolTableRecord
100
AcDbLayerTableRecord
  2
CC-0603-VIMAR_1000_1
 70
0
 62
7
  6
CONTINUOUS
370
-3
390
F
  0
LAYER
  5
289
100
AcDbSymbolTableRecord
100
AcDbLayerTableRecord
  2
CC-0603-VIMAR_1000_2
 70
0
 62
7
  6
CONTINUOUS
370
-3
390
F
  0
LAYER
  5
28A
100
AcDbSymbolTableRecord
100
AcDbLayerTableRecord
  2
CC-0603-VIMAR_1000_3
 70
0
 62
7
  6
CONTINUOUS
370
-3
390
F
  0
LAYER
  5
28B
100
AcDbSymbolTableRecord
100
AcDbLayerTableRecord
  2
CC-0603-VIMAR_1000_4
 70
0
 62
7
  6
CONTINUOUS
370
-3
390
F
  0
LAYER
  5
28C
100
AcDbSymbolTableRecord
100
AcDbLayerTableRecord
  2
CC-0603-VIMAR_1000_5
 70
0
 62
7
  6
CONTINUOUS
370
-3
390
F
  0
LAYER
  5
28D
100
AcDbSymbolTableRecord
100
AcDbLayerTableRecord
  2
CC-0603-VIMAR_1000_6
 70
0
 62
7
  6
CONTINUOUS
370
-3
390
F
  0
LAYER
  5
28E
100
AcDbSymbolTableRecord
100
AcDbLayerTableRecord
  2
CN-CSF_CSM_2-VIMAR_1150000
 70
0
 62
7
  6
CONTINUOUS
370
-3
390
F
  0
LAYER
  5
28F
100
AcDbSymbolTableRecord
100
AcDbLayerTableRecord
  2
CN-CTM049M9-VIMAR_725000
 70
0
 62
7
  6
CONTINUOUS
370
-3
390
F
  0
LAYER
  5
290
100
AcDbSymbolTableRecord
100
AcDbLayerTableRecord
  2
CN-CTM059M1-VIMAR_725000
 70
0
 62
7
  6
CONTINUOUS
370
-3
390
F
  0
LAYER
  5
291
100
AcDbSymbolTableRecord
100
AcDbLayerTableRecord
  2
CN1-REF_SQUAREHOLE12_SPEA-VIMAR
 70
0
 62
7
  6
CONTINUOUS
370
-3
390
F
  0
LAYER
  5
292
100
AcDbSymbolTableRecord
100
AcDbLayerTableRecord
  2
CN1-REF_SQUAREHOLE12_SPEA-VIM_1
 70
0
 62
7
  6
CONTINUOUS
370
-3
390
F
  0
LAYER
  5
293
100
AcDbSymbolTableRecord
100
AcDbLayerTableRecord
  2
CN1-REF_SQUAREHOLE12_SPEA-VIM_2
 70
0
 62
7
  6
CONTINUOUS
370
-3
390
F
  0
LAYER
  5
294
100
AcDbSymbolTableRecord
100
AcDbLayerTableRecord
  2
CN1-REF_SQUAREHOLE12_SPEA-VIM_3
 70
0
 62
7
  6
CONTINUOUS
370
-3
390
F
  0
LAYER
  5
295
100
AcDbSymbolTableRecord
100
AcDbLayerTableRecord
  2
CN10-HEADER-SMD2_54-1-VIMAR_900
 70
0
 62
7
  6
CONTINUOUS
370
-3
390
F
  0
LAYER
  5
296
100
AcDbSymbolTableRecord
100
AcDbLayerTableRecord
  2
CN20-VASCHETTA_2500000
 70
0
 62
7
  6
CONTINUOUS
370
-3
390
F
  0
LAYER
  5
297
100
AcDbSymbolTableRecord
100
AcDbLayerTableRecord
  2
CN5-HEADER-PIH-P2_54-1_254000
 70
0
 62
7
  6
CONTINUOUS
370
-3
390
F
  0
LAYER
  5
298
100
AcDbSymbolTableRecord
100
AcDbLayerTableRecord
  2
CN_SMD_HEADER_3P_P1_25_H_4_05MM
 70
0
 62
7
  6
CONTINUOUS
370
-3
390
F
  0
LAYER
  5
299
100
AcDbSymbolTableRecord
100
AcDbLayerTableRecord
  2
CN_SMD_HEADER_3P_P1_25_H_4_05_1
 70
0
 62
7
  6
CONTINUOUS
370
-3
390
F
  0
LAYER
  5
29A
100
AcDbSymbolTableRecord
100
AcDbLayerTableRecord
  2
CN_SMD_HEADER_3P_P1_25_H_4_05_2
 70
0
 62
7
  6
CONTINUOUS
370
-3
390
F
  0
LAYER
  5
29B
100
AcDbSymbolTableRecord
100
AcDbLayerTableRecord
  2
CN_SOCKET_3P_SMD_P1_0_H_4_25MM_
 70
0
 62
7
  6
CONTINUOUS
370
-3
390
F
  0
LAYER
  5
29C
100
AcDbSymbolTableRecord
100
AcDbLayerTableRecord
  2
CN_SOCKET_3P_SMD_P1_0_H_4_25M_1
 70
0
 62
7
  6
CONTINUOUS
370
-3
390
F
  0
LAYER
  5
29D
100
AcDbSymbolTableRecord
100
AcDbLayerTableRecord
  2
CN_SOCKET_3P_SMD_P1_0_H_4_25M_2
 70
0
 62
7
  6
CONTINUOUS
370
-3
390
F
  0
LAYER
  5
29E
100
AcDbSymbolTableRecord
100
AcDbLayerTableRecord
  2
CN_STRIP_2_P2_54-VIMAR_0
 70
0
 62
7
  6
CONTINUOUS
370
-3
390
F
  0
LAYER
  5
29F
100
AcDbSymbolTableRecord
100
AcDbLayerTableRecord
  2
CN_STRIP_2_P2_54-VIMAR_0_1
 70
0
 62
7
  6
CONTINUOUS
370
-3
390
F
  0
LAYER
  5
2A0
100
AcDbSymbolTableRecord
100
AcDbLayerTableRecord
  2
CN_STRIP_2_P2_54-VIMAR_0_2
 70
0
 62
7
  6
CONTINUOUS
370
-3
390
F
  0
LAYER
  5
2A1
100
AcDbSymbolTableRecord
100
AcDbLayerTableRecord
  2
COLOR1
 70
0
 62
7
  6
CONTINUOUS
370
-3
390
F
  0
LAYER
  5
2A2
100
AcDbSymbolTableRecord
100
AcDbLayerTableRecord
  2
COLOR14
 70
0
 62
7
  6
CONTINUOUS
370
-3
390
F
  0
LAYER
  5
2A3
100
AcDbSymbolTableRecord
100
AcDbLayerTableRecord
  2
COLOR15
 70
0
 62
7
  6
CONTINUOUS
370
-3
390
F
  0
LAYER
  5
2A4
100
AcDbSymbolTableRecord
100
AcDbLayerTableRecord
  2
COLOR5
 70
0
 62
7
  6
CONTINUOUS
370
-3
390
F
  0
LAYER
  5
2A5
100
AcDbSymbolTableRecord
100
AcDbLayerTableRecord
  2
COLOR6
 70
0
 62
7
  6
CONTINUOUS
370
-3
390
F
  0
LAYER
  5
2A6
100
AcDbSymbolTableRecord
100
AcDbLayerTableRecord
  2
COORDINATE
 70
0
 62
7
  6
CONTINUOUS
370
-3
390
F
  0
LAYER
  5
2A7
100
AcDbSymbolTableRecord
100
AcDbLayerTableRecord
  2
COORD_ORIGINE
 70
0
 62
7
  6
CONTINUOUS
370
-3
390
F
  0
LAYER
  5
2A8
100
AcDbSymbolTableRecord
100
AcDbLayerTableRecord
  2
COPY_PUBLISH
 70
0
 62
7
  6
CONTINUOUS
370
-3
390
F
  0
LAYER
  5
2A9
100
AcDbSymbolTableRecord
100
AcDbLayerTableRecord
  2
COSMETIC
 70
0
 62
7
  6
CONTINUOUS
370
-3
390
F
  0
LAYER
  5
2AA
100
AcDbSymbolTableRecord
100
AcDbLayerTableRecord
  2
COSMETICI
 70
0
 62
7
  6
CONTINUOUS
370
-3
390
F
  0
LAYER
  5
2AB
100
AcDbSymbolTableRecord
100
AcDbLayerTableRecord
  2
CP-CE9-RF-VIMAR_1080000
 70
0
 62
7
  6
CONTINUOUS
370
-3
390
F
  0
LAYER
  5
2AC
100
AcDbSymbolTableRecord
100
AcDbLayerTableRecord
  2
CP-DO-214AC-D-VIMAR_240000
 70
0
 62
7
  6
CONTINUOUS
370
-3
390
F
  0
LAYER
  5
2AD
100
AcDbSymbolTableRecord
100
AcDbLayerTableRecord
  2
CP-DO-214AC-D-VIMAR_240000_1
 70
0
 62
7
  6
CONTINUOUS
370
-3
390
F
  0
LAYER
  5
2AE
100
AcDbSymbolTableRecord
100
AcDbLayerTableRecord
  2
CP-DO-214AC-D-VIMAR_240000_2
 70
0
 62
7
  6
CONTINUOUS
370
-3
390
F
  0
LAYER
  5
2AF
100
AcDbSymbolTableRecord
100
AcDbLayerTableRecord
  2
CP-DO-214AC-D-VIMAR_240000_3
 70
0
 62
7
  6
CONTINUOUS
370
-3
390
F
  0
LAYER
  5
2B0
100
AcDbSymbolTableRecord
100
AcDbLayerTableRecord
  2
CP-DO-214AC-VIMAR_240000
 70
0
 62
7
  6
CONTINUOUS
370
-3
390
F
  0
LAYER
  5
2B1
100
AcDbSymbolTableRecord
100
AcDbLayerTableRecord
  2
CURVE
 70
0
 62
7
  6
CONTINUOUS
370
-3
390
F
  0
LAYER
  5
2B2
100
AcDbSymbolTableRecord
100
AcDbLayerTableRecord
  2
CURVE_TA
 70
0
 62
7
  6
CONTINUOUS
370
-3
390
F
  0
LAYER
  5
2B3
100
AcDbSymbolTableRecord
100
AcDbLayerTableRecord
  2
DIOMELF3515N_160000
 70
0
 62
7
  6
CONTINUOUS
370
-3
390
F
  0
LAYER
  5
2B4
100
AcDbSymbolTableRecord
100
AcDbLayerTableRecord
  2
DIOMELF3515N_160000_1
 70
0
 62
7
  6
CONTINUOUS
370
-3
390
F
  0
LAYER
  5
2B5
100
AcDbSymbolTableRecord
100
AcDbLayerTableRecord
  2
DL_SIDELED_420000
 70
0
 62
7
  6
CONTINUOUS
370
-3
390
F
  0
LAYER
  5
2B6
100
AcDbSymbolTableRecord
100
AcDbLayerTableRecord
  2
DL_SIDELED_420000_1
 70
0
 62
7
  6
CONTINUOUS
370
-3
390
F
  0
LAYER
  5
2B7
100
AcDbSymbolTableRecord
100
AcDbLayerTableRecord
  2
DRAFT
 70
0
 62
7
  6
CONTINUOUS
370
-3
390
F
  0
LAYER
  5
2B8
100
AcDbSymbolTableRecord
100
AcDbLayerTableRecord
  2
E4_MARK_10000
 70
0
 62
7
  6
CONTINUOUS
370
-3
390
F
  0
LAYER
  5
2B9
100
AcDbSymbolTableRecord
100
AcDbLayerTableRecord
  2
IGES_HOLGER
 70
0
 62
7
  6
CONTINUOUS
370
-3
390
F
  0
LAYER
  5
2BA
100
AcDbSymbolTableRecord
100
AcDbLayerTableRecord
  2
IMPORT_IGES
 70
0
 62
7
  6
CONTINUOUS
370
-3
390
F
  0
LAYER
  5
2BB
100
AcDbSymbolTableRecord
100
AcDbLayerTableRecord
  2
IND_7X7_8X5_550000
 70
0
 62
7
  6
CONTINUOUS
370
-3
390
F
  0
LAYER
  5
2BC
100
AcDbSymbolTableRecord
100
AcDbLayerTableRecord
  2
INTFCLR_1
 70
0
 62
7
  6
CONTINUOUS
370
-3
390
F
  0
LAYER
  5
2BD
100
AcDbSymbolTableRecord
100
AcDbLayerTableRecord
  2
INTFCLR_2
 70
0
 62
7
  6
CONTINUOUS
370
-3
390
F
  0
LAYER
  5
2BE
100
AcDbSymbolTableRecord
100
AcDbLayerTableRecord
  2
INTFCLR_3
 70
0
 62
7
  6
CONTINUOUS
370
-3
390
F
  0
LAYER
  5
2BF
100
AcDbSymbolTableRecord
100
AcDbLayerTableRecord
  2
INTFCLR_4
 70
0
 62
7
  6
CONTINUOUS
370
-3
390
F
  0
LAYER
  5
2C0
100
AcDbSymbolTableRecord
100
AcDbLayerTableRecord
  2
INTFCLR_5
 70
0
 62
7
  6
CONTINUOUS
370
-3
390
F
  0
LAYER
  5
2C1
100
AcDbSymbolTableRecord
100
AcDbLayerTableRecord
  2
INTFCLR_6
 70
0
 62
7
  6
CONTINUOUS
370
-3
390
F
  0
LAYER
  5
2C2
100
AcDbSymbolTableRecord
100
AcDbLayerTableRecord
  2
INTFCLR_7
 70
0
 62
7
  6
CONTINUOUS
370
-3
390
F
  0
LAYER
  5
2C3
100
AcDbSymbolTableRecord
100
AcDbLayerTableRecord
  2
INTF_1
 70
0
 62
7
  6
CONTINUOUS
370
-3
390
F
  0
LAYER
  5
2C4
100
AcDbSymbolTableRecord
100
AcDbLayerTableRecord
  2
INTF_2
 70
0
 62
7
  6
CONTINUOUS
370
-3
390
F
  0
LAYER
  5
2C5
100
AcDbSymbolTableRecord
100
AcDbLayerTableRecord
  2
INTF_6
 70
0
 62
7
  6
CONTINUOUS
370
-3
390
F
  0
LAYER
  5
2C6
100
AcDbSymbolTableRecord
100
AcDbLayerTableRecord
  2
INTF_9
 70
0
 62
7
  6
CONTINUOUS
370
-3
390
F
  0
LAYER
  5
2C7
100
AcDbSymbolTableRecord
100
AcDbLayerTableRecord
  2
INTF_BLANK
 70
0
 62
7
  6
CONTINUOUS
370
-3
390
F
  0
LAYER
  5
2C8
100
AcDbSymbolTableRecord
100
AcDbLayerTableRecord
  2
INTF_CYAN
 70
0
 62
7
  6
CONTINUOUS
370
-3
390
F
  0
LAYER
  5
2C9
100
AcDbSymbolTableRecord
100
AcDbLayerTableRecord
  2
INTF_GREEN
 70
0
 62
7
  6
CONTINUOUS
370
-3
390
F
  0
LAYER
  5
2CA
100
AcDbSymbolTableRecord
100
AcDbLayerTableRecord
  2
INTF_YELLOW
 70
0
 62
7
  6
CONTINUOUS
370
-3
390
F
  0
LAYER
  5
2CB
100
AcDbSymbolTableRecord
100
AcDbLayerTableRecord
  2
LOGO_RESIST-RESTYLING_10000
 70
0
 62
7
  6
CONTINUOUS
370
-3
390
F
  0
LAYER
  5
2CC
100
AcDbSymbolTableRecord
100
AcDbLayerTableRecord
  2
MM2-SWITCH-1-RIGHT-VIMAR_0
 70
0
 62
7
  6
CONTINUOUS
370
-3
390
F
  0
LAYER
  5
2CD
100
AcDbSymbolTableRecord
100
AcDbLayerTableRecord
  2
MM2-X-1-VIMAR_430000
 70
0
 62
7
  6
CONTINUOUS
370
-3
390
F
  0
LAYER
  5
2CE
100
AcDbSymbolTableRecord
100
AcDbLayerTableRecord
  2
MM2-X-1-VIMAR_430000_1
 70
0
 62
7
  6
CONTINUOUS
370
-3
390
F
  0
LAYER
  5
2CF
100
AcDbSymbolTableRecord
100
AcDbLayerTableRecord
  2
MM3-MPAK-RF-VIMAR_120000
 70
0
 62
7
  6
CONTINUOUS
370
-3
390
F
  0
LAYER
  5
2D0
100
AcDbSymbolTableRecord
100
AcDbLayerTableRecord
  2
MM3-MPAK-RF-VIMAR_120000_1
 70
0
 62
7
  6
CONTINUOUS
370
-3
390
F
  0
LAYER
  5
2D1
100
AcDbSymbolTableRecord
100
AcDbLayerTableRecord
  2
MM3-MPAK-RF-VIMAR_120000_10
 70
0
 62
7
  6
CONTINUOUS
370
-3
390
F
  0
LAYER
  5
2D2
100
AcDbSymbolTableRecord
100
AcDbLayerTableRecord
  2
MM3-MPAK-RF-VIMAR_120000_2
 70
0
 62
7
  6
CONTINUOUS
370
-3
390
F
  0
LAYER
  5
2D3
100
AcDbSymbolTableRecord
100
AcDbLayerTableRecord
  2
MM3-MPAK-RF-VIMAR_120000_3
 70
0
 62
7
  6
CONTINUOUS
370
-3
390
F
  0
LAYER
  5
2D4
100
AcDbSymbolTableRecord
100
AcDbLayerTableRecord
  2
MM3-MPAK-RF-VIMAR_120000_4
 70
0
 62
7
  6
CONTINUOUS
370
-3
390
F
  0
LAYER
  5
2D5
100
AcDbSymbolTableRecord
100
AcDbLayerTableRecord
  2
MM3-MPAK-RF-VIMAR_120000_5
 70
0
 62
7
  6
CONTINUOUS
370
-3
390
F
  0
LAYER
  5
2D6
100
AcDbSymbolTableRecord
100
AcDbLayerTableRecord
  2
MM3-MPAK-RF-VIMAR_120000_6
 70
0
 62
7
  6
CONTINUOUS
370
-3
390
F
  0
LAYER
  5
2D7
100
AcDbSymbolTableRecord
100
AcDbLayerTableRecord
  2
MM3-MPAK-RF-VIMAR_120000_7
 70
0
 62
7
  6
CONTINUOUS
370
-3
390
F
  0
LAYER
  5
2D8
100
AcDbSymbolTableRecord
100
AcDbLayerTableRecord
  2
MM3-MPAK-RF-VIMAR_120000_8
 70
0
 62
7
  6
CONTINUOUS
370
-3
390
F
  0
LAYER
  5
2D9
100
AcDbSymbolTableRecord
100
AcDbLayerTableRecord
  2
MM3-MPAK-RF-VIMAR_120000_9
 70
0
 62
7
  6
CONTINUOUS
370
-3
390
F
  0
LAYER
  5
2DA
100
AcDbSymbolTableRecord
100
AcDbLayerTableRecord
  2
MM3-SOT-223-RF-VIMAR_180000
 70
0
 62
7
  6
CONTINUOUS
370
-3
390
F
  0
LAYER
  5
2DB
100
AcDbSymbolTableRecord
100
AcDbLayerTableRecord
  2
MM3-SOT-89-RF-VIMAR_150000
 70
0
 62
7
  6
CONTINUOUS
370
-3
390
F
  0
LAYER
  5
2DC
100
AcDbSymbolTableRecord
100
AcDbLayerTableRecord
  2
MM3-SOT-89-RF-VIMAR_150000_1
 70
0
 62
7
  6
CONTINUOUS
370
-3
390
F
  0
LAYER
  5
2DD
100
AcDbSymbolTableRecord
100
AcDbLayerTableRecord
  2
MM3-SOT323-RF-VIMAR_100000
 70
0
 62
7
  6
CONTINUOUS
370
-3
390
F
  0
LAYER
  5
2DE
100
AcDbSymbolTableRecord
100
AcDbLayerTableRecord
  2
MM3-SOT323-RF-VIMAR_100000_1
 70
0
 62
7
  6
CONTINUOUS
370
-3
390
F
  0
LAYER
  5
2DF
100
AcDbSymbolTableRecord
100
AcDbLayerTableRecord
  2
MM3-SOT323-RF-VIMAR_100000_2
 70
0
 62
7
  6
CONTINUOUS
370
-3
390
F
  0
LAYER
  5
2E0
100
AcDbSymbolTableRecord
100
AcDbLayerTableRecord
  2
MM3-SOT323-RF-VIMAR_100000_3
 70
0
 62
7
  6
CONTINUOUS
370
-3
390
F
  0
LAYER
  5
2E1
100
AcDbSymbolTableRecord
100
AcDbLayerTableRecord
  2
MM3-SOT323-RF-VIMAR_100000_4
 70
0
 62
7
  6
CONTINUOUS
370
-3
390
F
  0
LAYER
  5
2E2
100
AcDbSymbolTableRecord
100
AcDbLayerTableRecord
  2
MM3-SOT323-RF-VIMAR_100000_5
 70
0
 62
7
  6
CONTINUOUS
370
-3
390
F
  0
LAYER
  5
2E3
100
AcDbSymbolTableRecord
100
AcDbLayerTableRecord
  2
MM3-SOT323-RF-VIMAR_100000_6
 70
0
 62
7
  6
CONTINUOUS
370
-3
390
F
  0
LAYER
  5
2E4
100
AcDbSymbolTableRecord
100
AcDbLayerTableRecord
  2
MM3-SOT323-RF-VIMAR_100000_7
 70
0
 62
7
  6
CONTINUOUS
370
-3
390
F
  0
LAYER
  5
2E5
100
AcDbSymbolTableRecord
100
AcDbLayerTableRecord
  2
MM3-SOT323-RF-VIMAR_100000_8
 70
0
 62
7
  6
CONTINUOUS
370
-3
390
F
  0
LAYER
  5
2E6
100
AcDbSymbolTableRecord
100
AcDbLayerTableRecord
  2
MM3-SOT323-RF-VIMAR_100000_9
 70
0
 62
7
  6
CONTINUOUS
370
-3
390
F
  0
LAYER
  5
2E7
100
AcDbSymbolTableRecord
100
AcDbLayerTableRecord
  2
MM5-FMT-RF_120000
 70
0
 62
7
  6
CONTINUOUS
370
-3
390
F
  0
LAYER
  5
2E8
100
AcDbSymbolTableRecord
100
AcDbLayerTableRecord
  2
MM5-FMT-RF_120000_1
 70
0
 62
7
  6
CONTINUOUS
370
-3
390
F
  0
LAYER
  5
2E9
100
AcDbSymbolTableRecord
100
AcDbLayerTableRecord
  2
MM5-FMT-RF_120000_2
 70
0
 62
7
  6
CONTINUOUS
370
-3
390
F
  0
LAYER
  5
2EA
100
AcDbSymbolTableRecord
100
AcDbLayerTableRecord
  2
NO-PB_MARK_10000
 70
0
 62
7
  6
CONTINUOUS
370
-3
390
F
  0
LAYER
  5
2EB
100
AcDbSymbolTableRecord
100
AcDbLayerTableRecord
  2
NOTE
 70
0
 62
7
  6
CONTINUOUS
370
-3
390
F
  0
LAYER
  5
2EC
100
AcDbSymbolTableRecord
100
AcDbLayerTableRecord
  2
PIANI
 70
0
 62
7
  6
CONTINUOUS
370
-3
390
F
  0
LAYER
  5
2ED
100
AcDbSymbolTableRecord
100
AcDbLayerTableRecord
  2
PIANI_ORIGINE
 70
0
 62
7
  6
CONTINUOUS
370
-3
390
F
  0
LAYER
  5
2EE
100
AcDbSymbolTableRecord
100
AcDbLayerTableRecord
  2
PIANI_RIFERIMENTO
 70
0
 62
7
  6
CONTINUOUS
370
-3
390
F
  0
LAYER
  5
2EF
100
AcDbSymbolTableRecord
100
AcDbLayerTableRecord
  2
PUNTI
 70
0
 62
7
  6
CONTINUOUS
370
-3
390
F
  0
LAYER
  5
2F0
100
AcDbSymbolTableRecord
100
AcDbLayerTableRecord
  2
QFN50P400X400X80-25N_80000
 70
0
 62
7
  6
CONTINUOUS
370
-3
390
F
  0
LAYER
  5
2F1
100
AcDbSymbolTableRecord
100
AcDbLayerTableRecord
  2
QFN50P500X500X80-29N_100000
 70
0
 62
7
  6
CONTINUOUS
370
-3
390
F
  0
LAYER
  5
2F2
100
AcDbSymbolTableRecord
100
AcDbLayerTableRecord
  2
RACCORDO
 70
0
 62
7
  6
CONTINUOUS
370
-3
390
F
  0
LAYER
  5
2F3
100
AcDbSymbolTableRecord
100
AcDbLayerTableRecord
  2
RD-CE50-6_4-VIMAR_1000000
 70
0
 62
7
  6
CONTINUOUS
370
-3
390
F
  0
LAYER
  5
2F4
100
AcDbSymbolTableRecord
100
AcDbLayerTableRecord
  2
RD-ZNR50-1-VIMAR_1150000
 70
0
 62
7
  6
CONTINUOUS
370
-3
390
F
  0
LAYER
  5
2F5
100
AcDbSymbolTableRecord
100
AcDbLayerTableRecord
  2
RD-ZNR50-1-VIMAR_1150000_1
 70
0
 62
7
  6
CONTINUOUS
370
-3
390
F
  0
LAYER
  5
2F6
100
AcDbSymbolTableRecord
100
AcDbLayerTableRecord
  2
RD-ZNR50-1-VIMAR_1150000_2
 70
0
 62
7
  6
CONTINUOUS
370
-3
390
F
  0
LAYER
  5
2F7
100
AcDbSymbolTableRecord
100
AcDbLayerTableRecord
  2
RESC1005X40N_50000
 70
0
 62
7
  6
CONTINUOUS
370
-3
390
F
  0
LAYER
  5
2F8
100
AcDbSymbolTableRecord
100
AcDbLayerTableRecord
  2
RESC1005X40N_50000_1
 70
0
 62
7
  6
CONTINUOUS
370
-3
390
F
  0
LAYER
  5
2F9
100
AcDbSymbolTableRecord
100
AcDbLayerTableRecord
  2
RESC1005X40N_50000_2
 70
0
 62
7
  6
CONTINUOUS
370
-3
390
F
  0
LAYER
  5
2FA
100
AcDbSymbolTableRecord
100
AcDbLayerTableRecord
  2
RESC1005X40N_50000_3
 70
0
 62
7
  6
CONTINUOUS
370
-3
390
F
  0
LAYER
  5
2FB
100
AcDbSymbolTableRecord
100
AcDbLayerTableRecord
  2
RESC1005X40N_50000_4
 70
0
 62
7
  6
CONTINUOUS
370
-3
390
F
  0
LAYER
  5
2FC
100
AcDbSymbolTableRecord
100
AcDbLayerTableRecord
  2
RESC1005X40N_50000_5
 70
0
 62
7
  6
CONTINUOUS
370
-3
390
F
  0
LAYER
  5
2FD
100
AcDbSymbolTableRecord
100
AcDbLayerTableRecord
  2
RESC1005X40N_50000_6
 70
0
 62
7
  6
CONTINUOUS
370
-3
390
F
  0
LAYER
  5
2FE
100
AcDbSymbolTableRecord
100
AcDbLayerTableRecord
  2
RESC1608N_45000
 70
0
 62
7
  6
CONTINUOUS
370
-3
390
F
  0
LAYER
  5
2FF
100
AcDbSymbolTableRecord
100
AcDbLayerTableRecord
  2
RESC1608N_45000_1
 70
0
 62
7
  6
CONTINUOUS
370
-3
390
F
  0
LAYER
  5
300
100
AcDbSymbolTableRecord
100
AcDbLayerTableRecord
  2
RESC1608N_45000_10
 70
0
 62
7
  6
CONTINUOUS
370
-3
390
F
  0
LAYER
  5
301
100
AcDbSymbolTableRecord
100
AcDbLayerTableRecord
  2
RESC1608N_45000_11
 70
0
 62
7
  6
CONTINUOUS
370
-3
390
F
  0
LAYER
  5
302
100
AcDbSymbolTableRecord
100
AcDbLayerTableRecord
  2
RESC1608N_45000_12
 70
0
 62
7
  6
CONTINUOUS
370
-3
390
F
  0
LAYER
  5
303
100
AcDbSymbolTableRecord
100
AcDbLayerTableRecord
  2
RESC1608N_45000_13
 70
0
 62
7
  6
CONTINUOUS
370
-3
390
F
  0
LAYER
  5
304
100
AcDbSymbolTableRecord
100
AcDbLayerTableRecord
  2
RESC1608N_45000_14
 70
0
 62
7
  6
CONTINUOUS
370
-3
390
F
  0
LAYER
  5
305
100
AcDbSymbolTableRecord
100
AcDbLayerTableRecord
  2
RESC1608N_45000_15
 70
0
 62
7
  6
CONTINUOUS
370
-3
390
F
  0
LAYER
  5
306
100
AcDbSymbolTableRecord
100
AcDbLayerTableRecord
  2
RESC1608N_45000_16
 70
0
 62
7
  6
CONTINUOUS
370
-3
390
F
  0
LAYER
  5
307
100
AcDbSymbolTableRecord
100
AcDbLayerTableRecord
  2
RESC1608N_45000_17
 70
0
 62
7
  6
CONTINUOUS
370
-3
390
F
  0
LAYER
  5
308
100
AcDbSymbolTableRecord
100
AcDbLayerTableRecord
  2
RESC1608N_45000_18
 70
0
 62
7
  6
CONTINUOUS
370
-3
390
F
  0
LAYER
  5
309
100
AcDbSymbolTableRecord
100
AcDbLayerTableRecord
  2
RESC1608N_45000_19
 70
0
 62
7
  6
CONTINUOUS
370
-3
390
F
  0
LAYER
  5
30A
100
AcDbSymbolTableRecord
100
AcDbLayerTableRecord
  2
RESC1608N_45000_2
 70
0
 62
7
  6
CONTINUOUS
370
-3
390
F
  0
LAYER
  5
30B
100
AcDbSymbolTableRecord
100
AcDbLayerTableRecord
  2
RESC1608N_45000_20
 70
0
 62
7
  6
CONTINUOUS
370
-3
390
F
  0
LAYER
  5
30C
100
AcDbSymbolTableRecord
100
AcDbLayerTableRecord
  2
RESC1608N_45000_21
 70
0
 62
7
  6
CONTINUOUS
370
-3
390
F
  0
LAYER
  5
30D
100
AcDbSymbolTableRecord
100
AcDbLayerTableRecord
  2
RESC1608N_45000_22
 70
0
 62
7
  6
CONTINUOUS
370
-3
390
F
  0
LAYER
  5
30E
100
AcDbSymbolTableRecord
100
AcDbLayerTableRecord
  2
RESC1608N_45000_23
 70
0
 62
7
  6
CONTINUOUS
370
-3
390
F
  0
LAYER
  5
30F
100
AcDbSymbolTableRecord
100
AcDbLayerTableRecord
  2
RESC1608N_45000_24
 70
0
 62
7
  6
CONTINUOUS
370
-3
390
F
  0
LAYER
  5
310
100
AcDbSymbolTableRecord
100
AcDbLayerTableRecord
  2
RESC1608N_45000_25
 70
0
 62
7
  6
CONTINUOUS
370
-3
390
F
  0
LAYER
  5
311
100
AcDbSymbolTableRecord
100
AcDbLayerTableRecord
  2
RESC1608N_45000_26
 70
0
 62
7
  6
CONTINUOUS
370
-3
390
F
  0
LAYER
  5
312
100
AcDbSymbolTableRecord
100
AcDbLayerTableRecord
  2
RESC1608N_45000_27
 70
0
 62
7
  6
CONTINUOUS
370
-3
390
F
  0
LAYER
  5
313
100
AcDbSymbolTableRecord
100
AcDbLayerTableRecord
  2
RESC1608N_45000_28
 70
0
 62
7
  6
CONTINUOUS
370
-3
390
F
  0
LAYER
  5
314
100
AcDbSymbolTableRecord
100
AcDbLayerTableRecord
  2
RESC1608N_45000_29
 70
0
 62
7
  6
CONTINUOUS
370
-3
390
F
  0
LAYER
  5
315
100
AcDbSymbolTableRecord
100
AcDbLayerTableRecord
  2
RESC1608N_45000_3
 70
0
 62
7
  6
CONTINUOUS
370
-3
390
F
  0
LAYER
  5
316
100
AcDbSymbolTableRecord
100
AcDbLayerTableRecord
  2
RESC1608N_45000_30
 70
0
 62
7
  6
CONTINUOUS
370
-3
390
F
  0
LAYER
  5
317
100
AcDbSymbolTableRecord
100
AcDbLayerTableRecord
  2
RESC1608N_45000_31
 70
0
 62
7
  6
CONTINUOUS
370
-3
390
F
  0
LAYER
  5
318
100
AcDbSymbolTableRecord
100
AcDbLayerTableRecord
  2
RESC1608N_45000_32
 70
0
 62
7
  6
CONTINUOUS
370
-3
390
F
  0
LAYER
  5
319
100
AcDbSymbolTableRecord
100
AcDbLayerTableRecord
  2
RESC1608N_45000_33
 70
0
 62
7
  6
CONTINUOUS
370
-3
390
F
  0
LAYER
  5
31A
100
AcDbSymbolTableRecord
100
AcDbLayerTableRecord
  2
RESC1608N_45000_34
 70
0
 62
7
  6
CONTINUOUS
370
-3
390
F
  0
LAYER
  5
31B
100
AcDbSymbolTableRecord
100
AcDbLayerTableRecord
  2
RESC1608N_45000_35
 70
0
 62
7
  6
CONTINUOUS
370
-3
390
F
  0
LAYER
  5
31C
100
AcDbSymbolTableRecord
100
AcDbLayerTableRecord
  2
RESC1608N_45000_36
 70
0
 62
7
  6
CONTINUOUS
370
-3
390
F
  0
LAYER
  5
31D
100
AcDbSymbolTableRecord
100
AcDbLayerTableRecord
  2
RESC1608N_45000_37
 70
0
 62
7
  6
CONTINUOUS
370
-3
390
F
  0
LAYER
  5
31E
100
AcDbSymbolTableRecord
100
AcDbLayerTableRecord
  2
RESC1608N_45000_4
 70
0
 62
7
  6
CONTINUOUS
370
-3
390
F
  0
LAYER
  5
31F
100
AcDbSymbolTableRecord
100
AcDbLayerTableRecord
  2
RESC1608N_45000_5
 70
0
 62
7
  6
CONTINUOUS
370
-3
390
F
  0
LAYER
  5
320
100
AcDbSymbolTableRecord
100
AcDbLayerTableRecord
  2
RESC1608N_45000_6
 70
0
 62
7
  6
CONTINUOUS
370
-3
390
F
  0
LAYER
  5
321
100
AcDbSymbolTableRecord
100
AcDbLayerTableRecord
  2
RESC1608N_45000_7
 70
0
 62
7
  6
CONTINUOUS
370
-3
390
F
  0
LAYER
  5
322
100
AcDbSymbolTableRecord
100
AcDbLayerTableRecord
  2
RESC1608N_45000_8
 70
0
 62
7
  6
CONTINUOUS
370
-3
390
F
  0
LAYER
  5
323
100
AcDbSymbolTableRecord
100
AcDbLayerTableRecord
  2
RESC1608N_45000_9
 70
0
 62
7
  6
CONTINUOUS
370
-3
390
F
  0
LAYER
  5
324
100
AcDbSymbolTableRecord
100
AcDbLayerTableRecord
  2
RGB____0____0____0__
 70
0
 62
7
  6
CONTINUOUS
370
-3
390
F
  0
LAYER
  5
325
100
AcDbSymbolTableRecord
100
AcDbLayerTableRecord
  2
SCRITTE
 70
0
 62
7
  6
CONTINUOUS
370
-3
390
F
  0
LAYER
  5
326
100
AcDbSymbolTableRecord
100
AcDbLayerTableRecord
  2
SDIP6-VIMAR_400000
 70
0
 62
7
  6
CONTINUOUS
370
-3
390
F
  0
LAYER
  5
327
100
AcDbSymbolTableRecord
100
AcDbLayerTableRecord
  2
SDIP6-VIMAR_400000_1
 70
0
 62
7
  6
CONTINUOUS
370
-3
390
F
  0
LAYER
  5
328
100
AcDbSymbolTableRecord
100
AcDbLayerTableRecord
  2
SIMBOLI
 70
0
 62
7
  6
CONTINUOUS
370
-3
390
F
  0
LAYER
  5
329
100
AcDbSymbolTableRecord
100
AcDbLayerTableRecord
  2
SMD7-VIMAR_343000
 70
0
 62
7
  6
CONTINUOUS
370
-3
390
F
  0
LAYER
  5
32A
100
AcDbSymbolTableRecord
100
AcDbLayerTableRecord
  2
SMUSSO
 70
0
 62
7
  6
CONTINUOUS
370
-3
390
F
  0
LAYER
  5
32B
100
AcDbSymbolTableRecord
100
AcDbLayerTableRecord
  2
SNAPLINE
 70
0
 62
7
  6
CONTINUOUS
370
-3
390
F
  0
LAYER
  5
32C
100
AcDbSymbolTableRecord
100
AcDbLayerTableRecord
  2
SO8C-VIMAR_343000
 70
0
 62
7
  6
CONTINUOUS
370
-3
390
F
  0
LAYER
  5
32D
100
AcDbSymbolTableRecord
100
AcDbLayerTableRecord
  2
SUPERFICI
 70
0
 62
7
  6
CONTINUOUS
370
-3
390
F
  0
LAYER
  5
32E
100
AcDbSymbolTableRecord
100
AcDbLayerTableRecord
  2
TASSELLO
 70
0
 62
7
  6
CONTINUOUS
370
-3
390
F
  0
LAYER
  5
32F
100
AcDbSymbolTableRecord
100
AcDbLayerTableRecord
  2
TP10_SMD_0
 70
0
 62
7
  6
CONTINUOUS
370
-3
390
F
  0
LAYER
  5
330
100
AcDbSymbolTableRecord
100
AcDbLayerTableRecord
  2
TP10_SMD_0_1
 70
0
 62
7
  6
CONTINUOUS
370
-3
390
F
  0
LAYER
  5
331
100
AcDbSymbolTableRecord
100
AcDbLayerTableRecord
  2
TP10_SMD_0_2
 70
0
 62
7
  6
CONTINUOUS
370
-3
390
F
  0
LAYER
  5
332
100
AcDbSymbolTableRecord
100
AcDbLayerTableRecord
  2
TP10_SMD_0_3
 70
0
 62
7
  6
CONTINUOUS
370
-3
390
F
  0
LAYER
  5
333
100
AcDbSymbolTableRecord
100
AcDbLayerTableRecord
  2
TP10_SMD_0_4
 70
0
 62
7
  6
CONTINUOUS
370
-3
390
F
  0
LAYER
  5
334
100
AcDbSymbolTableRecord
100
AcDbLayerTableRecord
  2
TP10_SMD_0_5
 70
0
 62
7
  6
CONTINUOUS
370
-3
390
F
  0
LAYER
  5
335
100
AcDbSymbolTableRecord
100
AcDbLayerTableRecord
  2
TP10_SMD_0_6
 70
0
 62
7
  6
CONTINUOUS
370
-3
390
F
  0
LAYER
  5
336
100
AcDbSymbolTableRecord
100
AcDbLayerTableRecord
  2
TQFP48-F1-RF-VIMAR_160000
 70
0
 62
7
  6
CONTINUOUS
370
-3
390
F
  0
LAYER
  5
337
100
AcDbSymbolTableRecord
100
AcDbLayerTableRecord
  2
TRASH
 70
0
 62
7
  6
CONTINUOUS
370
-3
390
F
  0
LAYER
  5
338
100
AcDbSymbolTableRecord
100
AcDbLayerTableRecord
  2
TSSOP8-RF-VIMAR_110000
 70
0
 62
7
  6
CONTINUOUS
370
-3
390
F
  0
LAYER
  5
339
100
AcDbSymbolTableRecord
100
AcDbLayerTableRecord
  2
WHITE
 70
0
 62
7
  6
CONTINUOUS
370
-3
390
F
  0
LAYER
  5
33A
100
AcDbSymbolTableRecord
100
AcDbLayerTableRecord
  2
XSEC_DATUMS
 70
0
 62
7
  6
CONTINUOUS
370
-3
390
F
  0
LAYER
  5
33B
100
AcDbSymbolTableRecord
100
AcDbLayerTableRecord
  2
___SHELL
 70
0
 62
7
  6
CONTINUOUS
370
-3
390
F
  0
ENDTAB
  0
TABLE
  2
STYLE
  5
3
100
AcDbSymbolTable
 70
1
  0
STYLE
  5
11
100
AcDbSymbolTableRecord
100
AcDbTextStyleTableRecord
  2
STANDARD
 70
0
 40
0.0
 41
0.8
 50
0.0
 71
0
 42
0.2
  3
txt
  4

  0
STYLE
  5
33C
100
AcDbSymbolTableRecord
100
AcDbTextStyleTableRecord
  2
TEXTSTYLE_1
 70
0
 40
0.0
 41
0.8
 50
0.0
 71
0
 42
0.2
  3
gdt
  4

  0
ENDTAB
  0
TABLE
  2
VIEW
  5
6
100
AcDbSymbolTable
 70
0
  0
ENDTAB
  0
TABLE
  2
UCS
  5
7
100
AcDbSymbolTable
 70
0
  0
ENDTAB
  0
TABLE
  2
APPID
  5
9
100
AcDbSymbolTable
 70
1
  0
APPID
  5
33D
100
AcDbSymbolTableRecord
100
AcDbRegAppTableRecord
  2
ACAD
 70
0
  0
ENDTAB
  0
TABLE
  2
BLOCK_RECORD
  5
1
100
AcDbSymbolTable
 70
0
  0
BLOCK_RECORD
  5
33E
100
AcDbSymbolTableRecord
100
AcDbBlockTableRecord
  2
*Model_Space
  0
BLOCK_RECORD
  5
33F
100
AcDbSymbolTableRecord
100
AcDbBlockTableRecord
  2
*Paper_Space
  0
ENDTAB
  0
TABLE
  2
DIMSTYLE
  5
A
100
AcDbSymbolTable
 70
1
100
AcDbDimStyleTable
 71
0
  0
DIMSTYLE
105
340
100
AcDbSymbolTableRecord
100
AcDbDimStyleTableRecord
  2
STANDARD
 70
0
  3

  4

 40
1.0
 41
3.0
 42
0.5
 43
0.38
 44
1.5
 45
0.0
 46
0.0
 47
0.01
 48
0.01
140
3.0
141
0.09
142
0.0
143
25.4
144
1.0
145
0.0
146
1.0
147
0.625
 71
1.0
 72
0.0
 73
0
 74
0
 75
0
 76
0
 77
1
 78
8
170
0
171
2
172
0
173
0
174
0
175
0
176
0
177
0
178
0
270
2
271
2
272
2
273
2
274
2
275
0
280
0
281
0
282
0
283
1
284
8
285
0
286
0
287
3
288
0
340
11
278
44
  0
ENDTAB
  0
ENDSEC
  0
SECTION
  2
BLOCKS
  0
BLOCK
  5
20
100
AcDbEntity
  8
0
100
AcDbBlockBegin
  2
*Model_Space
 70
0
 10
0.0
 20
0.0
 30
0.0
  3
*Model_Space
  1

  0
ENDBLK
  5
21
100
AcDbEntity
  8
0
100
AcDbBlockEnd
  0
BLOCK
  5
1C
100
AcDbEntity
  8
0
100
AcDbBlockBegin
  2
*Paper_Space
 70
0
 10
0.0
 20
0.0
 30
0.0
  3
*Paper_Space
  1

  0
ENDBLK
  5
1D
100
AcDbEntity
  8
0
100
AcDbBlockEnd
  0
ENDSEC
  0
SECTION
  2
ENTITIES
  0
LINE
  5
341
100
AcDbEntity
  8
0
100
AcDbLine
 62
7
  6
CONTINUOUS
 10
26.4860503352
 20
-24.7867347358
 11
30.4860503352
 21
-24.7867347358
  0
LINE
  5
342
100
AcDbEntity
  8
0
100
AcDbLine
 62
7
  6
CONTINUOUS
 10
-6.5139496648
 20
-24.5045953567
 11
-15.1191853867
 21
-24.3543904085
  0
LINE
  5
343
100
AcDbEntity
  8
0
100
AcDbLine
 62
253
  6
CONTINUOUS
 10
-6.5139496648
 20
-24.0046715091
 11
-15.1191853867
 21
-23.8545191366
  0
LINE
  5
344
100
AcDbEntity
  8
0
100
AcDbLine
 62
7
  6
CONTINUOUS
 10
-6.5139496648
 20
-24.5045953567
 11
2.0912860572
 21
-24.3543904085
  0
LINE
  5
345
100
AcDbEntity
  8
0
100
AcDbLine
 62
253
  6
CONTINUOUS
 10
-6.5139496648
 20
-24.0046715091
 11
2.0912860572
 21
-23.8544665609
  0
LINE
  5
346
100
AcDbEntity
  8
0
100
AcDbLine
 62
7
  6
CONTINUOUS
 10
-6.5139496648
 20
-23.2045953567
 11
0.5947765385
 21
-23.0805120793
  0
LINE
  5
347
100
AcDbEntity
  8
0
100
AcDbLine
 62
253
  6
CONTINUOUS
 10
-6.5139496648
 20
-22.7046715091
 11
0.5947765385
 21
-22.5805882317
  0
LINE
  5
348
100
AcDbEntity
  8
0
100
AcDbLine
 62
253
  6
CONTINUOUS
 10
-15.4139496648
 20
-23.8544665609
 11
-15.1191853867
 21
-23.8544665609
  0
LINE
  5
349
100
AcDbEntity
  8
0
100
AcDbLine
 62
253
  6
CONTINUOUS
 10
2.3860503352
 20
-23.8544665609
 11
2.0912860572
 21
-23.8544665618
  0
LINE
  5
34A
100
AcDbEntity
  8
0
100
AcDbLine
 62
253
  6
CONTINUOUS
 10
-14.1139496648
 20
-22.5805882317
 11
-13.622675868
 21
-22.5805882317
  0
LINE
  5
34B
100
AcDbEntity
  8
0
100
AcDbLine
 62
253
  6
CONTINUOUS
 10
1.0860503352
 20
-22.5805882317
 11
0.5947765385
 21
-22.5805882317
  0
LINE
  5
34C
100
AcDbEntity
  8
0
100
AcDbLine
 62
7
  6
CONTINUOUS
 10
-13.622675868
 20
-23.0805120793
 11
-6.5139496648
 21
-23.2045953567
  0
LINE
  5
34D
100
AcDbEntity
  8
0
100
AcDbLine
 62
253
  6
CONTINUOUS
 10
-13.622675868
 20
-22.5805882317
 11
-6.5139496648
 21
-22.7046715091
  0
LINE
  5
34E
100
AcDbEntity
  8
0
100
AcDbLine
 62
253
  6
CONTINUOUS
 10
-6.5139496648
 20
-17.1045192043
 11
-13.622675868
 21
-17.2286024817
  0
LINE
  5
34F
100
AcDbEntity
  8
0
100
AcDbLine
 62
7
  6
CONTINUOUS
 10
-6.5139496648
 20
-16.6045953567
 11
-13.622675868
 21
-16.7286786342
  0
LINE
  5
350
100
AcDbEntity
  8
0
100
AcDbLine
 62
253
  6
CONTINUOUS
 10
-14.1139496648
 20
-17.2286024817
 11
-13.622675868
 21
-17.2286024817
  0
LINE
  5
351
100
AcDbEntity
  8
0
100
AcDbLine
 62
253
  6
CONTINUOUS
 10
1.0860503352
 20
-17.2286024817
 11
0.5947765385
 21
-17.2286024817
  0
LINE
  5
352
100
AcDbEntity
  8
0
100
AcDbLine
 62
253
  6
CONTINUOUS
 10
0.5947765385
 20
-17.2286024817
 11
-6.5139496648
 21
-17.1045192043
  0
LINE
  5
353
100
AcDbEntity
  8
0
100
AcDbLine
 62
7
  6
CONTINUOUS
 10
0.5947765385
 20
-16.7286786342
 11
-6.5139496648
 21
-16.6045953567
  0
LWPOLYLINE
  5
354
100
AcDbEntity
  8
0
100
AcDbPolyline
 62
253
  6
CONTINUOUS
 90
8
 70
0
 10
-13.622675868
 20
-23.0805120793
 10
-13.6233962629
 20
-23.0786332274
 10
-13.624047764
 20
-23.0730173507
 10
-13.6246249052
 20
-23.0636773196
 10
-13.6251231131
 20
-23.0506418329
 10
-13.6255374185
 20
-23.0339880767
 10
-13.6258632524
 20
-23.0138721801
 10
-13.6260979471
 20
-22.9904709295
  0
LWPOLYLINE
  5
355
100
AcDbEntity
  8
0
100
AcDbPolyline
 62
253
  6
CONTINUOUS
 90
6
 70
0
 10
-15.1191853867
 20
-24.3543904085
 10
-15.1195598879
 20
-24.3529860754
 10
-15.1199053931
 20
-24.3487944804
 10
-15.1202186875
 20
-24.3418390936
 10
-15.1204959919
 20
-24.3321588481
 10
-15.1207356032
 20
-24.3198078766
  0
LINE
  5
356
100
AcDbEntity
  8
0
100
AcDbLine
 62
7
  6
CONTINUOUS
 10
-12.566285621
 20
-7.6874058698
 11
-6.5139496648
 21
-8.0045953567
  0
LINE
  5
357
100
AcDbEntity
  8
0
100
AcDbLine
 62
7
  6
CONTINUOUS
 10
-6.5139496648
 20
-7.7045953567
 11
-10.9924535991
 21
-7.469886911
  0
LINE
  5
358
100
AcDbEntity
  8
0
100
AcDbLine
 62
7
  6
CONTINUOUS
 10
-6.6139496648
 20
-4.6033251252
 11
-9.6139496648
 21
-4.7080874337
  0
LINE
  5
359
100
AcDbEntity
  8
0
100
AcDbLine
 62
7
  6
CONTINUOUS
 10
-12.4139496648
 20
-4.8058655882
 11
-15.4139496648
 21
-4.9106278967
  0
LINE
  5
35A
100
AcDbEntity
  8
IMPORT_IGES
100
AcDbLine
 62
253
  6
CONTINUOUS
 10
-6.5139496648
 20
-3.6915838011
 11
-6.6139496648
 21
-3.6915838011
  0
LINE
  5
35B
100
AcDbEntity
  8
0
100
AcDbLine
 62
7
  6
CONTINUOUS
 10
2.3860503352
 20
-5.1140561359
 11
-9.6139496648
 21
-4.9045953567
  0
LINE
  5
35C
100
AcDbEntity
  8
0
100
AcDbLine
 62
253
  6
CONTINUOUS
 10
-13.6246386569
 20
-17.0990319654
 11
-13.622675868
 21
-17.2286024817
  0
LINE
  5
35D
100
AcDbEntity
  8
0
100
AcDbLine
 62
253
  6
CONTINUOUS
 10
-15.1207356032
 20
-24.3198078766
 11
-15.1211014389
 21
-24.287384446
  0
LINE
  5
35E
100
AcDbEntity
  8
0
100
AcDbLine
 62
253
  6
CONTINUOUS
 10
-15.1207356032
 20
51.8801921234
 11
-15.1211014389
 21
51.912615554
  0
LINE
  5
35F
100
AcDbEntity
  8
0
100
AcDbLine
 62
253
  6
CONTINUOUS
 10
-13.6258709689
 20
-16.9783122093
 11
-13.6246386569
 21
-17.0990319654
  0
LINE
  5
360
100
AcDbEntity
  8
0
100
AcDbLine
 62
253
  6
CONTINUOUS
 10
-15.1191853867
 20
12.7952758475
 11
-15.1209379095
 21
13.0121666691
  0
LINE
  5
361
100
AcDbEntity
  8
0
100
AcDbLine
 62
253
  6
CONTINUOUS
 10
-15.1191853867
 20
86.2452758475
 11
-15.1209379095
 21
86.4621666691
  0
LINE
  5
362
100
AcDbEntity
  8
0
100
AcDbLine
 62
253
  6
CONTINUOUS
 10
-13.6262428073
 20
-16.9068644938
 11
-13.6258709689
 21
-16.9783122093
  0
LINE
  5
363
100
AcDbEntity
  8
0
100
AcDbLine
 62
253
  6
CONTINUOUS
 10
-15.1211014389
 20
-24.287384446
 11
-15.121306617
 21
-24.2452929414
  0
LINE
  5
364
100
AcDbEntity
  8
0
100
AcDbLine
 62
253
  6
CONTINUOUS
 10
-15.1211014389
 20
51.912615554
 11
-15.121306617
 21
51.9547070586
  0
LINE
  5
365
100
AcDbEntity
  8
0
100
AcDbLine
 62
253
  6
CONTINUOUS
 10
-13.6260979471
 20
-22.9904709295
 11
-13.6262884904
 21
-22.9344911301
  0
LINE
  5
366
100
AcDbEntity
  8
0
100
AcDbLine
 62
253
  6
CONTINUOUS
 10
-15.1209379095
 20
13.0121666691
 11
-15.1213482055
 21
13.1352824824
  0
LINE
  5
367
100
AcDbEntity
  8
0
100
AcDbLine
 62
253
  6
CONTINUOUS
 10
-15.1209379095
 20
86.4621666691
 11
-15.1213482055
 21
86.5852824824
  0
LINE
  5
368
100
AcDbEntity
  8
0
100
AcDbLine
 62
7
  6
CONTINUOUS
 10
-15.4139496648
 20
-24.0544360999
 11
-15.4139496648
 21
86.4452453865
  0
LINE
  5
369
100
AcDbEntity
  8
0
100
AcDbLine
 62
253
  6
CONTINUOUS
 10
-15.1191853867
 20
-23.8545191366
 11
-15.1191853867
 21
-4.9003345013
  0
LINE
  5
36A
100
AcDbEntity
  8
0
100
AcDbLine
 62
253
  6
CONTINUOUS
 10
-15.1191853867
 20
-0.7088562121
 11
-15.1191853867
 21
12.7952758475
  0
LINE
  5
36B
100
AcDbEntity
  8
0
100
AcDbLine
 62
253
  6
CONTINUOUS
 10
-15.1191853867
 20
13.295199695
 11
-15.1191853867
 21
29.0996654987
  0
LINE
  5
36C
100
AcDbEntity
  8
0
100
AcDbLine
 62
253
  6
CONTINUOUS
 10
-15.1191853867
 20
33.2911437879
 11
-15.1191853867
 21
51.8456095915
  0
LINE
  5
36D
100
AcDbEntity
  8
0
100
AcDbLine
 62
253
  6
CONTINUOUS
 10
-15.1191853867
 20
52.3454808634
 11
-15.1191853867
 21
86.2452758475
  0
LINE
  5
36E
100
AcDbEntity
  8
0
100
AcDbLine
 62
7
  6
CONTINUOUS
 10
-14.1139496648
 20
-17.2286024817
 11
-14.1139496648
 21
-22.5805882317
  0
LINE
  5
36F
100
AcDbEntity
  8
0
100
AcDbLine
 62
253
  6
CONTINUOUS
 10
-13.622675868
 20
-17.2286024817
 11
-13.622675868
 21
-22.5805882317
  0
LINE
  5
370
100
AcDbEntity
  8
0
100
AcDbLine
 62
7
  6
CONTINUOUS
 10
-13.5139496648
 20
35.0795856216
 11
-13.5139496648
 21
33.2350877212
  0
LINE
  5
371
100
AcDbEntity
  8
0
100
AcDbLine
 62
7
  6
CONTINUOUS
 10
-13.5139496648
 20
29.1557215653
 11
-13.5139496648
 21
27.311223665
  0
LINE
  5
372
100
AcDbEntity
  8
0
100
AcDbLine
 62
7
  6
CONTINUOUS
 10
-13.5139496648
 20
1.0795856216
 11
-13.5139496648
 21
-0.7649122788
  0
LINE
  5
373
100
AcDbEntity
  8
0
100
AcDbLine
 62
7
  6
CONTINUOUS
 10
-13.5139496648
 20
-4.8442784347
 11
-13.5139496648
 21
-6.688776335
  0
LINE
  5
374
100
AcDbEntity
  8
0
100
AcDbLine
 62
253
  6
CONTINUOUS
 10
-15.121306617
 20
51.9547070586
 11
-15.1213065264
 21
52.0338617599
  0
LINE
  5
375
100
AcDbEntity
  8
0
100
AcDbLine
 62
253
  6
CONTINUOUS
 10
-15.121306617
 20
-24.2452929414
 11
-15.1213065264
 21
-24.1661382401
  0
LINE
  5
376
100
AcDbEntity
  8
0
100
AcDbLine
 62
253
  6
CONTINUOUS
 10
-15.1213482055
 20
86.5852824824
 11
-15.1212240865
 21
86.6583023522
  0
LINE
  5
377
100
AcDbEntity
  8
0
100
AcDbLine
 62
253
  6
CONTINUOUS
 10
-15.1213482055
 20
13.1352824824
 11
-15.1212240865
 21
13.2083023522
  0
LINE
  5
378
100
AcDbEntity
  8
0
100
AcDbLine
 62
253
  6
CONTINUOUS
 10
-13.6262884904
 20
-22.9344911301
 11
-13.6261032785
 21
-22.8676982576
  0
LINE
  5
379
100
AcDbEntity
  8
0
100
AcDbLine
 62
253
  6
CONTINUOUS
 10
-15.1213065264
 20
52.0338617599
 11
-15.1204957712
 21
52.1981931833
  0
LINE
  5
37A
100
AcDbEntity
  8
0
100
AcDbLine
 62
253
  6
CONTINUOUS
 10
-15.1213065264
 20
-24.1661382401
 11
-15.1204957712
 21
-24.0018068167
  0
LWPOLYLINE
  5
37B
100
AcDbEntity
  8
0
100
AcDbPolyline
 62
253
  6
CONTINUOUS
 90
8
 70
0
 10
-15.1212240865
 20
86.6583023522
 10
-15.120937606
 20
86.695664254
 10
-15.120735323
 20
86.7106176757
 10
-15.1204957712
 20
86.7229691364
 10
-15.1202185566
 20
86.7326482874
 10
-15.11990541
 20
86.7396019783
 10
-15.1195601397
 20
86.7437931613
 10
-15.1191859809
 20
86.7451996819
  0
LWPOLYLINE
  5
37C
100
AcDbEntity
  8
0
100
AcDbPolyline
 62
253
  6
CONTINUOUS
 90
8
 70
0
 10
-15.1212240865
 20
13.2083023522
 10
-15.120937606
 20
13.245664254
 10
-15.120735323
 20
13.2606176757
 10
-15.1204957712
 20
13.2729691364
 10
-15.1202185566
 20
13.2826482874
 10
-15.11990541
 20
13.2896019783
 10
-15.1195601397
 20
13.2937931613
 10
-15.1191859809
 20
13.2951996819
  0
LINE
  5
37D
100
AcDbEntity
  8
0
100
AcDbLine
 62
253
  6
CONTINUOUS
 10
-15.1204957712
 20
52.1981931833
 11
-15.1191859809
 21
52.3454808738
  0
LINE
  5
37E
100
AcDbEntity
  8
0
100
AcDbLine
 62
253
  6
CONTINUOUS
 10
-15.1204957712
 20
-24.0018068167
 11
-15.1191859809
 21
-23.8545191262
  0
LINE
  5
37F
100
AcDbEntity
  8
0
100
AcDbLine
 62
253
  6
CONTINUOUS
 10
-13.6261032785
 20
-22.8676982576
 11
-13.6251358552
 21
-22.751807872
  0
LWPOLYLINE
  5
380
100
AcDbEntity
  8
0
100
AcDbPolyline
 62
253
  6
CONTINUOUS
 90
3
 70
0
 10
-13.6251358552
 20
-22.751807872
 10
-13.6234039494
 20
-22.6242210263
 10
-13.622675868
 20
-22.5805882317
  0
LINE
  5
381
100
AcDbEntity
  8
0
100
AcDbLine
 62
7
  6
CONTINUOUS
 10
2.3860503352
 20
-0.4951345776
 11
-9.6139496648
 21
-0.7045953567
  0
LINE
  5
382
100
AcDbEntity
  8
IMPORT_IGES
100
AcDbLine
 62
253
  6
CONTINUOUS
 10
-6.5139496648
 20
-1.8798504854
 11
-6.6139496648
 21
-1.8798504854
  0
LINE
  5
383
100
AcDbEntity
  8
IMPORT_IGES
100
AcDbLine
 62
7
  6
CONTINUOUS
 10
-6.6139496648
 20
-1.8457763117
 11
-6.5139496648
 21
-1.8457763117
  0
LINE
  5
384
100
AcDbEntity
  8
0
100
AcDbLine
 62
7
  6
CONTINUOUS
 10
-6.6139496648
 20
-1.0058655882
 11
-9.6139496648
 21
-0.9011032798
  0
LINE
  5
385
100
AcDbEntity
  8
0
100
AcDbLine
 62
7
  6
CONTINUOUS
 10
-12.4139496648
 20
-0.8033251252
 11
-15.4139496648
 21
-0.6985628167
  0
LWPOLYLINE
  5
386
100
AcDbEntity
  8
0
100
AcDbPolyline
 62
253
  6
CONTINUOUS
 90
8
 70
0
 10
0.5947765385
 20
-16.7286786342
 10
0.5954969334
 20
-16.730557486
 10
0.5961484345
 20
-16.7361733627
 10
0.5967255757
 20
-16.7455133938
 10
0.5972237836
 20
-16.7585488805
 10
0.597638089
 20
-16.7752026367
 10
0.5979639229
 20
-16.7953185333
 10
0.5981986176
 20
-16.8187197839
  0
LINE
  5
387
100
AcDbEntity
  8
RACCORDO
100
AcDbLine
 62
7
  6
CONTINUOUS
 10
-10.8942279336
 20
51.48755424
 11
-10.8933362169
 21
51.399863231
  0
LINE
  5
388
100
AcDbEntity
  8
DRAFT
100
AcDbLine
 62
7
  6
CONTINUOUS
 10
-10.8916004657
 20
50.4954046433
 11
-10.8930035868
 21
50.7954046433
  0
LINE
  5
389
100
AcDbEntity
  8
RACCORDO
100
AcDbLine
 62
7
  6
CONTINUOUS
 10
-10.8933362169
 20
51.399863231
 11
-10.8930035868
 21
51.2954046433
  0
LINE
  5
38A
100
AcDbEntity
  8
0
100
AcDbLine
 62
7
  6
CONTINUOUS
 10
-12.4139496648
 20
-5.9719426089
 11
-12.4139496648
 21
0.3627518954
  0
LINE
  5
38B
100
AcDbEntity
  8
0
100
AcDbLine
 62
7
  6
CONTINUOUS
 10
-12.4139496648
 20
28.0280573911
 11
-12.4139496648
 21
34.3627518954
  0
LINE
  5
38C
100
AcDbEntity
  8
0
100
AcDbLine
 62
7
  6
CONTINUOUS
 10
-11.2139496648
 20
51.7774434484
 11
-11.2139496648
 21
46.9200967267
  0
LINE
  5
38D
100
AcDbEntity
  8
RACCORDO
100
AcDbLine
 62
7
  6
CONTINUOUS
 10
-10.9139496648
 20
51.5954046433
 11
-10.9139496648
 21
51.772206929
  0
LINE
  5
38E
100
AcDbEntity
  8
RACCORDO
100
AcDbLine
 62
7
  6
CONTINUOUS
 10
-10.8930035868
 20
50.7954046433
 11
-10.8930035868
 21
51.2954046433
  0
LINE
  5
38F
100
AcDbEntity
  8
0
100
AcDbLine
 62
7
  6
CONTINUOUS
 10
-9.6139496648
 20
33.2954046433
 11
-9.6139496648
 21
29.0954046433
  0
LINE
  5
390
100
AcDbEntity
  8
0
100
AcDbLine
 62
7
  6
CONTINUOUS
 10
-9.6139496648
 20
-0.7045953567
 11
-9.6139496648
 21
-4.9045953567
  0
LINE
  5
391
100
AcDbEntity
  8
0
100
AcDbLine
 62
7
  6
CONTINUOUS
 10
-9.5139496648
 20
-4.7045953567
 11
-9.5139496648
 21
-0.9045953567
  0
LINE
  5
392
100
AcDbEntity
  8
0
100
AcDbLine
 62
7
  6
CONTINUOUS
 10
-9.5139496648
 20
29.2954046433
 11
-9.5139496648
 21
33.0954046433
  0
LINE
  5
393
100
AcDbEntity
  8
0
100
AcDbLine
 62
7
  6
CONTINUOUS
 10
-8.5139496648
 20
-4.6696745872
 11
-8.5139496648
 21
-0.9395161262
  0
LINE
  5
394
100
AcDbEntity
  8
0
100
AcDbLine
 62
7
  6
CONTINUOUS
 10
-8.5139496648
 20
29.3303254128
 11
-8.5139496648
 21
33.0604838738
  0
LINE
  5
395
100
AcDbEntity
  8
DRAFT
100
AcDbLine
 62
7
  6
CONTINUOUS
 10
-10.851535365
 20
51.7711174833
 11
-10.8738030154
 21
50.4954046433
  0
LINE
  5
396
100
AcDbEntity
  8
0
100
AcDbLine
 62
7
  6
CONTINUOUS
 10
-6.5139496648
 20
2.0954046433
 11
-10.9924535991
 21
1.8606961976
  0
LINE
  5
397
100
AcDbEntity
  8
0
100
AcDbLine
 62
7
  6
CONTINUOUS
 10
-6.5139496648
 20
2.3954046433
 11
-12.566285621
 21
2.0782151563
  0
LWPOLYLINE
  5
398
100
AcDbEntity
  8
0
100
AcDbPolyline
 62
253
  6
CONTINUOUS
 90
6
 70
0
 10
-15.1191853867
 20
51.8456095915
 10
-15.1195598879
 20
51.8470139246
 10
-15.1199053931
 20
51.8512055196
 10
-15.1202186875
 20
51.8581609064
 10
-15.1204959919
 20
51.8678411519
 10
-15.1207356032
 20
51.8801921234
  0
LINE
  5
399
100
AcDbEntity
  8
0
100
AcDbLine
 62
7
  6
CONTINUOUS
 10
-6.6139496648
 20
-4.9569605515
 11
-6.6139496648
 21
-0.6522301619
  0
LINE
  5
39A
100
AcDbEntity
  8
0
100
AcDbLine
 62
7
  6
CONTINUOUS
 10
-6.6139496648
 20
29.0430394485
 11
-6.6139496648
 21
33.3477698381
  0
LINE
  5
39B
100
AcDbEntity
  8
0
100
AcDbLine
 62
7
  6
CONTINUOUS
 10
-6.5139496648
 20
86.8954046433
 11
-6.5139496648
 21
51.6954046433
  0
LINE
  5
39C
100
AcDbEntity
  8
0
100
AcDbLine
 62
7
  6
CONTINUOUS
 10
-6.5139496648
 20
-24.5045953567
 11
-6.5139496648
 21
-23.2045953567
  0
LINE
  5
39D
100
AcDbEntity
  8
0
100
AcDbLine
 62
7
  6
CONTINUOUS
 10
-6.5139496648
 20
-23.2025729832
 11
-6.5139496648
 21
-16.6066177302
  0
LINE
  5
39E
100
AcDbEntity
  8
0
100
AcDbLine
 62
7
  6
CONTINUOUS
 10
-6.5139496648
 20
-16.6045953567
 11
-6.5139496648
 21
50.4954046433
  0
LINE
  5
39F
100
AcDbEntity
  8
0
100
AcDbLine
 62
7
  6
CONTINUOUS
 10
30.4860503352
 20
8.8954046433
 11
26.4860503352
 21
8.8954046433
  0
LWPOLYLINE
  5
3A0
100
AcDbEntity
  8
RACCORDO
100
AcDbPolyline
 62
7
  6
CONTINUOUS
 90
6
 70
0
 10
-10.8982401063
 20
51.5954046433
 10
-10.897289327
 20
51.5897403833
 10
-10.896416523
 20
51.5763412428
 10
-10.8956216941
 20
51.555207222
 10
-10.8948858263
 20
51.5252481712
 10
-10.8942279336
 20
51.48755424
  0
LINE
  5
3A1
100
AcDbEntity
  8
DRAFT
100
AcDbLine
 62
7
  6
CONTINUOUS
 10
-2.1763639645
 20
51.7711174833
 11
-2.1540963141
 21
50.4954046433
  0
LINE
  5
3A2
100
AcDbEntity
  8
0
100
AcDbLine
 62
253
  6
CONTINUOUS
 10
0.5967393274
 20
-22.710158748
 11
0.5947765385
 21
-22.5805882317
  0
LINE
  5
3A3
100
AcDbEntity
  8
0
100
AcDbLine
 62
253
  6
CONTINUOUS
 10
0.5979716394
 20
-22.8308785041
 11
0.5967393274
 21
-22.710158748
  0
LINE
  5
3A4
100
AcDbEntity
  8
RACCORDO
100
AcDbLine
 62
7
  6
CONTINUOUS
 10
-2.1139496648
 20
51.772206929
 11
-2.1139496648
 21
51.5954046433
  0
LINE
  5
3A5
100
AcDbEntity
  8
0
100
AcDbLine
 62
7
  6
CONTINUOUS
 10
-1.8139496648
 20
46.9200967267
 11
-1.8139496648
 21
51.7774434484
  0
LINE
  5
3A6
100
AcDbEntity
  8
RACCORDO
100
AcDbLine
 62
7
  6
CONTINUOUS
 10
-2.1348957427
 20
50.7954046433
 11
-2.1347969367
 21
51.3498661531
  0
LINE
  5
3A7
100
AcDbEntity
  8
DRAFT
100
AcDbLine
 62
7
  6
CONTINUOUS
 10
-2.1362988638
 20
50.4954046433
 11
-2.1348957427
 21
50.7954046433
  0
LWPOLYLINE
  5
3A8
100
AcDbEntity
  8
RACCORDO
100
AcDbPolyline
 62
7
  6
CONTINUOUS
 90
8
 70
0
 10
-2.1347969367
 20
51.3498661531
 10
-2.1341942704
 20
51.4453958767
 10
-2.1336713959
 20
51.48755424
 10
-2.1330135032
 20
51.5252481712
 10
-2.1322776354
 20
51.555207222
 10
-2.1314828066
 20
51.5763412428
 10
-2.1306100025
 20
51.5897403833
 10
-2.1296592232
 20
51.5954046433
  0
LINE
  5
3A9
100
AcDbEntity
  8
0
100
AcDbLine
 62
253
  6
CONTINUOUS
 10
-6.5139496648
 20
12.9454807957
 11
-15.1191853867
 21
12.7952758475
  0
LINE
  5
3AA
100
AcDbEntity
  8
0
100
AcDbLine
 62
7
  6
CONTINUOUS
 10
-6.5139496648
 20
13.4454046433
 11
-15.1191853867
 21
13.295199695
  0
LINE
  5
3AB
100
AcDbEntity
  8
0
100
AcDbLine
 62
253
  6
CONTINUOUS
 10
-15.4139496648
 20
12.7952758475
 11
-15.1191853867
 21
12.7952758484
  0
LINE
  5
3AC
100
AcDbEntity
  8
0
100
AcDbLine
 62
253
  6
CONTINUOUS
 10
2.3860503352
 20
12.7952758475
 11
2.0912860572
 21
12.7952758475
  0
LINE
  5
3AD
100
AcDbEntity
  8
0
100
AcDbLine
 62
253
  6
CONTINUOUS
 10
-6.5139496648
 20
12.9454807957
 11
2.0912860572
 21
12.7953284231
  0
LINE
  5
3AE
100
AcDbEntity
  8
0
100
AcDbLine
 62
7
  6
CONTINUOUS
 10
-6.5139496648
 20
13.4454046433
 11
2.0912860572
 21
13.295199695
  0
LWPOLYLINE
  5
3AF
100
AcDbEntity
  8
0
100
AcDbPolyline
 62
253
  6
CONTINUOUS
 90
6
 70
0
 10
2.0912860572
 20
13.295199695
 10
2.0916605584
 20
13.2937953619
 10
2.0920060635
 20
13.289603767
 10
2.092319358
 20
13.2826483801
 10
2.0925966624
 20
13.2729681347
 10
2.0928362737
 20
13.2606171631
  0
LINE
  5
3B0
100
AcDbEntity
  8
0
100
AcDbLine
 62
253
  6
CONTINUOUS
 10
2.0928362737
 20
13.2606171631
 11
2.0932021094
 21
13.2281937326
  0
LINE
  5
3B1
100
AcDbEntity
  8
0
100
AcDbLine
 62
253
  6
CONTINUOUS
 10
2.0928362737
 20
86.7106171631
 11
2.0932021094
 21
86.6781937326
  0
LINE
  5
3B2
100
AcDbEntity
  8
0
100
AcDbLine
 62
253
  6
CONTINUOUS
 10
2.0912860572
 20
-23.8544665609
 11
2.09303858
 21
-24.0713573825
  0
LINE
  5
3B3
100
AcDbEntity
  8
0
100
AcDbLine
 62
253
  6
CONTINUOUS
 10
2.0912860572
 20
52.3455334391
 11
2.09303858
 21
52.1286426175
  0
LINE
  5
3B4
100
AcDbEntity
  8
0
100
AcDbLine
 62
253
  6
CONTINUOUS
 10
0.5983434778
 20
-22.9023262196
 11
0.5979716394
 21
-22.8308785041
  0
LINE
  5
3B5
100
AcDbEntity
  8
0
100
AcDbLine
 62
253
  6
CONTINUOUS
 10
2.0932021094
 20
13.2281937326
 11
2.0934072875
 21
13.186102228
  0
LINE
  5
3B6
100
AcDbEntity
  8
0
100
AcDbLine
 62
253
  6
CONTINUOUS
 10
2.0932021094
 20
86.6781937326
 11
2.0934072875
 21
86.636102228
  0
LINE
  5
3B7
100
AcDbEntity
  8
0
100
AcDbLine
 62
253
  6
CONTINUOUS
 10
0.5981986176
 20
-16.8187197839
 11
0.5983891609
 21
-16.8746995834
  0
LINE
  5
3B8
100
AcDbEntity
  8
0
100
AcDbLine
 62
253
  6
CONTINUOUS
 10
2.09303858
 20
-24.0713573825
 11
2.093448876
 21
-24.1944731959
  0
LINE
  5
3B9
100
AcDbEntity
  8
0
100
AcDbLine
 62
253
  6
CONTINUOUS
 10
2.09303858
 20
52.1286426175
 11
2.093448876
 21
52.0055268041
  0
LINE
  5
3BA
100
AcDbEntity
  8
0
100
AcDbLine
 62
253
  6
CONTINUOUS
 10
0.5947765385
 20
-22.5805882317
 11
0.5947765385
 21
-17.2286024817
  0
LINE
  5
3BB
100
AcDbEntity
  8
0
100
AcDbLine
 62
7
  6
CONTINUOUS
 10
1.0860503352
 20
-22.5805882317
 11
1.0860503352
 21
-17.2286024817
  0
LINE
  5
3BC
100
AcDbEntity
  8
0
100
AcDbLine
 62
253
  6
CONTINUOUS
 10
2.0912860572
 20
86.2453284231
 11
2.0912860572
 21
52.3455334391
  0
LINE
  5
3BD
100
AcDbEntity
  8
0
100
AcDbLine
 62
253
  6
CONTINUOUS
 10
2.0912860572
 20
51.8456095915
 11
2.0912860572
 21
33.4997202928
  0
LINE
  5
3BE
100
AcDbEntity
  8
0
100
AcDbLine
 62
253
  6
CONTINUOUS
 10
2.0912860572
 20
28.8910889938
 11
2.0912860572
 21
13.295199695
  0
LINE
  5
3BF
100
AcDbEntity
  8
0
100
AcDbLine
 62
253
  6
CONTINUOUS
 10
2.0912860572
 20
12.7953284231
 11
2.0912860572
 21
-0.5002797072
  0
LINE
  5
3C0
100
AcDbEntity
  8
0
100
AcDbLine
 62
253
  6
CONTINUOUS
 10
2.0912860572
 20
-5.1089110062
 11
2.0912860572
 21
-23.8544665609
  0
LINE
  5
3C1
100
AcDbEntity
  8
0
100
AcDbLine
 62
7
  6
CONTINUOUS
 10
2.3860503352
 20
86.4452453865
 11
2.3860503352
 21
-24.0544360999
  0
LINE
  5
3C2
100
AcDbEntity
  8
0
100
AcDbLine
 62
253
  6
CONTINUOUS
 10
2.0934072875
 20
86.636102228
 11
2.0934071968
 21
86.5569475267
  0
LINE
  5
3C3
100
AcDbEntity
  8
0
100
AcDbLine
 62
253
  6
CONTINUOUS
 10
2.0934072875
 20
13.186102228
 11
2.0934071968
 21
13.1069475267
  0
LINE
  5
3C4
100
AcDbEntity
  8
0
100
AcDbLine
 62
253
  6
CONTINUOUS
 10
2.093448876
 20
52.0055268041
 11
2.093324757
 21
51.9325069343
  0
LINE
  5
3C5
100
AcDbEntity
  8
0
100
AcDbLine
 62
253
  6
CONTINUOUS
 10
2.093448876
 20
-24.1944731959
 11
2.093324757
 21
-24.2674930657
  0
LINE
  5
3C6
100
AcDbEntity
  8
0
100
AcDbLine
 62
253
  6
CONTINUOUS
 10
0.5983891609
 20
-16.8746995834
 11
0.598203949
 21
-16.9414924559
  0
LINE
  5
3C7
100
AcDbEntity
  8
0
100
AcDbLine
 62
253
  6
CONTINUOUS
 10
2.0934071968
 20
86.5569475267
 11
2.0925964417
 21
86.3926161033
  0
LINE
  5
3C8
100
AcDbEntity
  8
0
100
AcDbLine
 62
253
  6
CONTINUOUS
 10
2.0934071968
 20
13.1069475267
 11
2.0925964417
 21
12.9426161033
  0
LWPOLYLINE
  5
3C9
100
AcDbEntity
  8
0
100
AcDbPolyline
 62
253
  6
CONTINUOUS
 90
8
 70
0
 10
2.093324757
 20
51.9325069343
 10
2.0930382764
 20
51.8951450326
 10
2.0928359935
 20
51.8801916109
 10
2.0925964417
 20
51.8678401502
 10
2.0923192271
 20
51.8581609992
 10
2.0920060805
 20
51.8512073082
 10
2.0916608102
 20
51.8470161253
 10
2.0912866514
 20
51.8456096047
  0
LWPOLYLINE
  5
3CA
100
AcDbEntity
  8
0
100
AcDbPolyline
 62
253
  6
CONTINUOUS
 90
8
 70
0
 10
2.093324757
 20
-24.2674930657
 10
2.0930382764
 20
-24.3048549674
 10
2.0928359935
 20
-24.3198083891
 10
2.0925964417
 20
-24.3321598498
 10
2.0923192271
 20
-24.3418390008
 10
2.0920060805
 20
-24.3487926918
 10
2.0916608102
 20
-24.3529838747
 10
2.0912866514
 20
-24.3543903953
  0
LINE
  5
3CB
100
AcDbEntity
  8
0
100
AcDbLine
 62
253
  6
CONTINUOUS
 10
2.0925964417
 20
86.3926161033
 11
2.0912866514
 21
86.2453284128
  0
LINE
  5
3CC
100
AcDbEntity
  8
0
100
AcDbLine
 62
253
  6
CONTINUOUS
 10
2.0925964417
 20
12.9426161033
 11
2.0912866514
 21
12.7953284128
  0
LINE
  5
3CD
100
AcDbEntity
  8
0
100
AcDbLine
 62
253
  6
CONTINUOUS
 10
0.598203949
 20
-16.9414924559
 11
0.5972365256
 21
-17.0573828414
  0
LWPOLYLINE
  5
3CE
100
AcDbEntity
  8
0
100
AcDbPolyline
 62
253
  6
CONTINUOUS
 90
3
 70
0
 10
0.5972365256
 20
-17.0573828414
 10
0.5955046198
 20
-17.1849696871
 10
0.5947765385
 20
-17.2286024817
  0
LINE
  5
3CF
100
AcDbEntity
  8
0
100
AcDbLine
 62
7
  6
CONTINUOUS
 10
-15.1191853867
 20
15.095199695
 11
-6.5139496648
 21
15.2454046433
  0
LINE
  5
3D0
100
AcDbEntity
  8
0
100
AcDbLine
 62
7
  6
CONTINUOUS
 10
2.0912860572
 20
15.095199695
 11
-6.5139496648
 21
15.2454046433
  0
LWPOLYLINE
  5
3D1
100
AcDbEntity
  8
0
100
AcDbPolyline
 62
253
  6
CONTINUOUS
 90
10
 70
0
 10
-13.622675868
 20
-16.7286786342
 10
-13.6233962625
 20
-16.730557484
 10
-13.6240477634
 20
-16.7361733556
 10
-13.6246249046
 20
-16.7455133799
 10
-13.6251231125
 20
-16.7585488596
 10
-13.6255374179
 20
-16.77520261
 10
-13.625863252
 20
-16.7953185021
 10
-13.6260979468
 20
-16.8187197502
 10
-13.6262400553
 20
-16.8452453159
 10
-13.6262428073
 20
-16.9068644938
  0
LWPOLYLINE
  5
3D2
100
AcDbEntity
  8
RACCORDO
100
AcDbPolyline
 62
253
  6
CONTINUOUS
 90
16
 70
0
 10
15.7853015455
 20
44.0140010903
 10
15.8140510988
 20
44.0321324397
 10
15.8438524728
 20
44.0485943514
 10
15.874321462
 20
44.0631745954
 10
15.9050652542
 20
44.0756852005
 10
15.935687494
 20
44.0859648776
 10
15.9657933938
 20
44.0938810985
 10
15.9949948221
 20
44.0993318061
 10
16.0229153083
 20
44.1022467288
 10
16.0491948957
 20
44.102588287
 10
16.0734947827
 20
44.1003520775
 10
16.0955016902
 20
44.0955669301
 10
16.1149319004
 20
44.0882945362
 10
16.1315349153
 20
44.0786286531
 10
16.1450966852
 20
44.0666938954
 10
16.1554423691
 20
44.0526441287
  0
LINE
  5
3D3
100
AcDbEntity
  8
RACCORDO
100
AcDbLine
 62
253
  6
CONTINUOUS
 10
23.5487007505
 20
47.6602068243
 11
23.2212990544
 21
47.4545962251
  0
LINE
  5
3D4
100
AcDbEntity
  8
RACCORDO
100
AcDbLine
 62
253
  6
CONTINUOUS
 10
23.2212990544
 20
47.4545962251
 11
22.8896842978
 21
47.247840196
  0
LINE
  5
3D5
100
AcDbEntity
  8
RACCORDO
100
AcDbLine
 62
7
  6
CONTINUOUS
 10
23.4068506802
 20
47.8928365076
 11
16.5652499903
 21
43.9428365076
  0
LINE
  5
3D6
100
AcDbEntity
  8
RACCORDO
100
AcDbLine
 62
253
  6
CONTINUOUS
 10
22.889684287
 20
47.2478401898
 11
17.3824163865
 21
44.0682175849
  0
LINE
  5
3D7
100
AcDbEntity
  8
RACCORDO
100
AcDbLine
 62
253
  6
CONTINUOUS
 10
17.3824163726
 20
44.0682175769
 11
17.0374930812
 21
43.8843769729
  0
LINE
  5
3D8
100
AcDbEntity
  8
RACCORDO
100
AcDbLine
 62
253
  6
CONTINUOUS
 10
17.0374930812
 20
43.8843769729
 11
16.6957881705
 21
43.7036759016
  0
LWPOLYLINE
  5
3D9
100
AcDbEntity
  8
RACCORDO
100
AcDbPolyline
 62
253
  6
CONTINUOUS
 90
16
 70
0
 10
23.7351935926
 20
48.6038775325
 10
23.7051167315
 20
48.588044398
 10
23.6759596963
 20
48.5704657229
 10
23.6480983945
 20
48.5513681346
 10
23.621892029
 20
48.5309978423
 10
23.5976784666
 20
48.509617463
 10
23.5757698825
 20
48.4875026357
 10
23.5564487353
 20
48.4649384677
 10
23.5399641258
 20
48.4422158588
 10
23.5265285848
 20
48.419627751
 10
23.5163153338
 20
48.3974653521
 10
23.5094560512
 20
48.3760143806
 10
23.506039175
 20
48.3555513828
 10
23.5061087624
 20
48.3363401674
 10
23.5096639216
 20
48.3186284039
 10
23.5166588237
 20
48.3026444304
  0
LWPOLYLINE
  5
3DA
100
AcDbEntity
  8
RACCORDO
100
AcDbPolyline
 62
253
  6
CONTINUOUS
 90
19
 70
0
 10
16.6957881705
 20
43.7036759016
 10
16.6521545343
 20
43.6829543663
 10
16.6064758412
 20
43.6663363466
 10
16.5587342979
 20
43.6537973287
 10
16.5086889223
 20
43.6450830555
 10
16.4565666764
 20
43.6403848516
 10
16.4030631684
 20
43.6403477227
 10
16.3480493865
 20
43.6449916847
 10
16.2917063355
 20
43.6542091001
 10
16.235215677
 20
43.6684652386
 10
16.1785947287
 20
43.6878572697
 10
16.1219870658
 20
43.712164318
 10
16.0667857246
 20
43.7413981837
 10
16.0131895514
 20
43.7755942335
 10
15.9612743407
 20
43.8145574689
 10
15.9122510475
 20
43.8579900879
 10
15.8666302126
 20
43.9057450406
 10
15.8242457615
 20
43.9577888636
 10
15.7852983314
 20
44.0140043345
  0
LWPOLYLINE
  5
3DB
100
AcDbEntity
  8
RACCORDO
100
AcDbPolyline
 62
253
  6
CONTINUOUS
 90
16
 70
0
 10
23.7351945662
 20
13.7869353207
 10
23.7051175803
 20
13.8027674896
 10
23.6759604596
 20
13.8203452806
 10
23.6480991032
 20
13.8394420774
 10
23.6218927053
 20
13.8598116798
 10
23.5976791239
 20
13.8811914789
 10
23.5757705256
 20
13.9033058424
 10
23.5564493603
 20
13.9258696675
 10
23.5399647201
 20
13.9485920564
 10
23.5265291282
 20
13.9711800676
 10
23.5163157989
 20
13.9933424918
 10
23.5094564044
 20
14.0147936064
 10
23.5060393772
 20
14.0352568591
 10
23.5061087701
 20
14.0544684333
 10
23.5096636885
 20
14.0721806494
 10
23.5166583014
 20
14.0881651578
  0
LINE
  5
3DC
100
AcDbEntity
  8
RACCORDO
100
AcDbLine
 62
253
  6
CONTINUOUS
 10
16.6957881705
 20
18.687133385
 11
17.0375530208
 21
18.5064004985
  0
LINE
  5
3DD
100
AcDbEntity
  8
RACCORDO
100
AcDbLine
 62
253
  6
CONTINUOUS
 10
17.0375530208
 20
18.5064004985
 11
17.3824163726
 21
18.3225917096
  0
LINE
  5
3DE
100
AcDbEntity
  8
RACCORDO
100
AcDbLine
 62
7
  6
CONTINUOUS
 10
16.5652499903
 20
18.4479727789
 11
23.4068506802
 21
14.4979727789
  0
LINE
  5
3DF
100
AcDbEntity
  8
RACCORDO
100
AcDbLine
 62
253
  6
CONTINUOUS
 10
17.3824163835
 20
18.3225917034
 11
22.889684284
 21
15.1429690985
  0
LINE
  5
3E0
100
AcDbEntity
  8
RACCORDO
100
AcDbLine
 62
253
  6
CONTINUOUS
 10
22.8896842978
 20
15.1429690905
 11
23.2213565769
 21
14.9361770598
  0
LINE
  5
3E1
100
AcDbEntity
  8
RACCORDO
100
AcDbLine
 62
253
  6
CONTINUOUS
 10
23.2213565769
 20
14.9361770598
 11
23.5487007505
 21
14.7306024622
  0
LWPOLYLINE
  5
3E2
100
AcDbEntity
  8
RACCORDO
100
AcDbPolyline
 62
253
  6
CONTINUOUS
 90
16
 70
0
 10
15.7852989434
 20
18.3768055698
 10
15.8140492707
 20
18.3586748113
 10
15.8438513675
 20
18.3422134156
 10
15.874321015
 20
18.3276336147
 10
15.9050653884
 20
18.3151233825
 10
15.9356881211
 20
18.304844012
 10
15.9657944154
 20
18.2969280353
 10
15.9949961317
 20
18.291477515
 10
16.0229167931
 20
18.2885627288
 10
16.0491964387
 20
18.2882212629
 10
16.0734962647
 20
18.2904575275
 10
16.0955029923
 20
18.2952427003
 10
16.1149329062
 20
18.3025150976
 10
16.1315355132
 20
18.3121809698
 10
16.1450967706
 20
18.3241157097
 10
16.1554418467
 20
18.3381654594
  0
LWPOLYLINE
  5
3E3
100
AcDbEntity
  8
RACCORDO
100
AcDbPolyline
 62
253
  6
CONTINUOUS
 90
19
 70
0
 10
23.5487007505
 20
14.7306024622
 10
23.5884629446
 20
14.7031753924
 10
23.6256939184
 20
14.6719254936
 10
23.660423798
 20
14.6368496132
 10
23.6929932678
 20
14.5978661832
 10
23.7231231547
 20
14.5550760961
 10
23.7499070632
 20
14.5087592635
 10
23.7733921651
 20
14.4587939498
 10
23.7935811747
 20
14.4053907286
 10
23.8094803259
 20
14.3493403141
 10
23.8209968084
 20
14.2906091189
 10
23.8282501186
 20
14.2294319206
 10
23.8305335189
 20
14.1670092239
 10
23.8277169576
 20
14.1034955515
 10
23.8199314113
 20
14.0390540425
 10
23.8068293065
 20
13.9748823157
 10
23.7882827217
 20
13.9114960374
 10
23.7644036745
 20
13.8487681145
 10
23.7351933636
 20
13.7869309152
  0
LINE
  5
3E4
100
AcDbEntity
  8
RACCORDO
100
AcDbLine
 62
7
  6
CONTINUOUS
 10
17.313251708
 20
12.6107133448
 11
16.45514409
 21
14.0969993375
  0
LWPOLYLINE
  5
3E5
100
AcDbEntity
  8
RACCORDO
100
AcDbPolyline
 62
253
  6
CONTINUOUS
 90
16
 70
0
 10
11.0344457764
 20
26.6055317678
 10
11.0331183438
 20
26.639495286
 10
11.0337625971
 20
26.6735349888
 10
11.03637023
 20
26.7072120295
 10
11.0409076242
 20
26.7400922371
 10
11.0473162827
 20
26.7717517132
 10
11.0555135841
 20
26.8017822977
 10
11.0653938471
 20
26.8297968302
 10
11.0768296931
 20
26.8554341419
 10
11.0896736887
 20
26.8783637113
 10
11.1037602464
 20
26.898289926
 10
11.1189077593
 20
26.9149558932
 10
11.1349209424
 20
26.928146752
 10
11.1515933502
 20
26.937692443
 10
11.1687100384
 20
26.9434699015
 10
11.1860503352
 20
26.9454046432
  0
LINE
  5
3E6
100
AcDbEntity
  8
RACCORDO
100
AcDbLine
 62
253
  6
CONTINUOUS
 10
11.7584385858
 20
35.1519355661
 11
11.7728017399
 21
34.7655920803
  0
LINE
  5
3E7
100
AcDbEntity
  8
RACCORDO
100
AcDbLine
 62
253
  6
CONTINUOUS
 10
11.7728017399
 20
34.7655920803
 11
11.7860503352
 21
34.3750272624
  0
LINE
  5
3E8
100
AcDbEntity
  8
RACCORDO
100
AcDbLine
 62
7
  6
CONTINUOUS
 10
11.4860503352
 20
35.1454046433
 11
11.4860503352
 21
27.2454046433
  0
LINE
  5
3E9
100
AcDbEntity
  8
RACCORDO
100
AcDbLine
 62
253
  6
CONTINUOUS
 10
11.7860503352
 20
34.3750272499
 11
11.7860503352
 21
28.0157820401
  0
LINE
  5
3EA
100
AcDbEntity
  8
RACCORDO
100
AcDbLine
 62
253
  6
CONTINUOUS
 10
11.7860503352
 20
28.0157820242
 11
11.7727993229
 21
27.6251493894
  0
LINE
  5
3EB
100
AcDbEntity
  8
RACCORDO
100
AcDbLine
 62
253
  6
CONTINUOUS
 10
11.7727993229
 20
27.6251493894
 11
11.7584385858
 21
27.2388737205
  0
LWPOLYLINE
  5
3EC
100
AcDbEntity
  8
RACCORDO
100
AcDbPolyline
 62
253
  6
CONTINUOUS
 90
16
 70
0
 10
11.0344422014
 20
35.7852784589
 10
11.0331156675
 20
35.7513145658
 10
11.033760729
 20
35.717274495
 10
11.0363690746
 20
35.6835971057
 10
11.0409070824
 20
35.6507165812
 10
11.0473162528
 20
35.6190568314
 10
11.0555139629
 20
35.5890260273
 10
11.065394532
 20
35.561011339
 10
11.0768305838
 20
35.5353739439
 10
11.0896746884
 20
35.5124443702
 10
11.1037612633
 20
35.4925182359
 10
11.1189087083
 20
35.4758524372
 10
11.1349217461
 20
35.4626618367
 10
11.1515939404
 20
35.4531164934
 10
11.168710357
 20
35.44733947
 10
11.1860503352
 20
35.4454052462
  0
LWPOLYLINE
  5
3ED
100
AcDbEntity
  8
RACCORDO
100
AcDbPolyline
 62
253
  6
CONTINUOUS
 90
19
 70
0
 10
11.7584385858
 20
27.2388737205
 10
11.7545671423
 20
27.190725114
 10
11.746119423
 20
27.142857196
 10
11.7331077608
 20
27.0952423002
 10
11.7156318583
 20
27.0475446027
 10
11.693639504
 20
27.0000563194
 10
11.6669199092
 20
26.9537023638
 10
11.6353912318
 20
26.9083810141
 10
11.5992371929
 20
26.8641952084
 10
11.5586456925
 20
26.822400934
 10
11.5135412447
 20
26.7830617765
 10
11.4641869141
 20
26.7461916345
 10
11.4112689839
 20
26.713002806
 10
11.3548562405
 20
26.6836851754
 10
11.2951554644
 20
26.6582068883
 10
11.2330300492
 20
26.6374677695
 10
11.1688626177
 20
26.6218364382
 10
11.1025991093
 20
26.6111523353
 10
11.0344413598
 20
26.6055306064
  0
LINE
  5
3EE
100
AcDbEntity
  8
RACCORDO
100
AcDbLine
 62
253
  6
CONTINUOUS
 10
11.0344413598
 20
26.6055306064
 11
10.4394155716
 21
26.5850144818
  0
LINE
  5
3EF
100
AcDbEntity
  8
RACCORDO
100
AcDbLine
 62
253
  6
CONTINUOUS
 10
10.4394155716
 20
26.5850144818
 11
10.0570536061
 21
26.5724099909
  0
LWPOLYLINE
  5
3F0
100
AcDbEntity
  8
RACCORDO
100
AcDbPolyline
 62
253
  6
CONTINUOUS
 90
8
 70
0
 10
45.3812052963
 20
27.2404233157
 10
45.4077298124
 20
27.2409854779
 10
45.4308928462
 20
27.2416146507
 10
45.4503431601
 20
27.2423012937
 10
45.4657858154
 20
27.2430349948
 10
45.4769866442
 20
27.2438046284
 10
45.4837758004
 20
27.244598524
 10
45.4860503352
 20
27.2454046433
  0
LINE
  5
3F1
100
AcDbEntity
  8
RACCORDO
100
AcDbLine
 62
253
  6
CONTINUOUS
 10
45.3197255303
 20
27.2395329757
 11
45.3812052963
 21
27.2404233157
  0
LWPOLYLINE
  5
3F2
100
AcDbEntity
  8
RACCORDO
100
AcDbPolyline
 62
253
  6
CONTINUOUS
 90
3
 70
0
 10
45.2136621022
 20
27.2388737164
 10
45.250168456
 20
27.2389974291
 10
45.3197255303
 20
27.2395329757
  0
LINE
  5
3F3
100
AcDbEntity
  8
RACCORDO
100
AcDbLine
 62
7
  6
CONTINUOUS
 10
46.6240629055
 20
26.9454046433
 11
45.7860503352
 21
26.9454046433
  0
LINE
  5
3F4
100
AcDbEntity
  8
RACCORDO
100
AcDbLine
 62
7
  6
CONTINUOUS
 10
11.1860503352
 20
26.9454046433
 11
10.348037765
 21
26.9454046433
  0
LINE
  5
3F5
100
AcDbEntity
  8
RACCORDO
100
AcDbLine
 62
253
  6
CONTINUOUS
 10
11.7584384249
 20
27.2388736824
 11
11.6863966645
 21
27.2392169728
  0
LWPOLYLINE
  5
3F6
100
AcDbEntity
  8
RACCORDO
100
AcDbPolyline
 62
253
  6
CONTINUOUS
 90
10
 70
0
 10
11.6863966645
 20
27.2392169728
 10
11.6203764157
 20
27.2399346917
 10
11.5908920877
 20
27.2404212049
 10
11.5643671414
 20
27.2409833887
 10
11.5412038133
 20
27.2416127058
 10
11.5217533626
 20
27.2422996
 10
11.5063107449
 20
27.2430336417
 10
11.495110139
 20
27.2438036854
 10
11.4883213961
 20
27.2445980395
 10
11.4860474637
 20
27.2454046434
  0
LINE
  5
3F7
100
AcDbEntity
  8
0
100
AcDbLine
 62
7
  6
CONTINUOUS
 10
-12.566285621
 20
26.3125941302
 11
-6.5139496648
 21
25.9954046433
  0
LINE
  5
3F8
100
AcDbEntity
  8
0
100
AcDbLine
 62
7
  6
CONTINUOUS
 10
-6.5139496648
 20
26.2954046433
 11
-10.9924535991
 21
26.530113089
  0
LINE
  5
3F9
100
AcDbEntity
  8
RACCORDO
100
AcDbLine
 62
253
  6
CONTINUOUS
 10
39.6588489625
 20
12.6107133448
 11
38.7928235587
 21
13.1107133448
  0
LINE
  5
3FA
100
AcDbEntity
  8
RACCORDO
100
AcDbLine
 62
253
  6
CONTINUOUS
 10
18.1792771118
 20
13.1107133448
 11
17.3211694938
 21
14.5969993375
  0
LINE
  5
3FB
100
AcDbEntity
  8
0
100
AcDbLine
 62
7
  6
CONTINUOUS
 10
-6.6139496648
 20
29.3966748748
 11
-9.6139496648
 21
29.2919125663
  0
LINE
  5
3FC
100
AcDbEntity
  8
0
100
AcDbLine
 62
7
  6
CONTINUOUS
 10
-12.4139496648
 20
29.1941344118
 11
-15.4139496648
 21
29.0893721033
  0
LINE
  5
3FD
100
AcDbEntity
  8
RACCORDO
100
AcDbLine
 62
253
  6
CONTINUOUS
 10
11.7860503352
 20
28.0157820242
 11
11.4860503352
 21
28.0157820242
  0
LINE
  5
3FE
100
AcDbEntity
  8
RACCORDO
100
AcDbLine
 62
253
  6
CONTINUOUS
 10
45.1860503352
 20
28.0157820242
 11
45.4860503352
 21
28.0157820242
  0
LINE
  5
3FF
100
AcDbEntity
  8
0
100
AcDbLine
 62
7
  6
CONTINUOUS
 10
2.3860503352
 20
28.8859438641
 11
-9.6139496648
 21
29.0954046433
  0
LINE
  5
400
100
AcDbEntity
  8
RACCORDO
100
AcDbLine
 62
253
  6
CONTINUOUS
 10
46.9150470644
 20
26.5724099909
 11
46.6569904414
 21
26.5808771135
  0
LINE
  5
401
100
AcDbEntity
  8
RACCORDO
100
AcDbLine
 62
253
  6
CONTINUOUS
 10
46.6569904414
 20
26.5808771135
 11
46.4626600052
 21
26.5873810704
  0
LINE
  5
402
100
AcDbEntity
  8
RACCORDO
100
AcDbLine
 62
253
  6
CONTINUOUS
 10
46.4626600052
 20
26.5873810704
 11
45.9376593107
 21
26.6055306064
  0
LWPOLYLINE
  5
403
100
AcDbEntity
  8
RACCORDO
100
AcDbPolyline
 62
253
  6
CONTINUOUS
 90
19
 70
0
 10
45.9376593107
 20
26.6055306064
 10
45.8692818141
 20
26.611221924
 10
45.8028682693
 20
26.6219546778
 10
45.7386261324
 20
26.6376120411
 10
45.6765262264
 20
26.6583584699
 10
45.6169352353
 20
26.6838190679
 10
45.5606574395
 20
26.7130784579
 10
45.5079053147
 20
26.7461417825
 10
45.4587432148
 20
26.7828468712
 10
45.4137778777
 20
26.8220482956
 10
45.3732319541
 20
26.8637508697
 10
45.3370664183
 20
26.9078723295
 10
45.3055031676
 20
26.9531669755
 10
45.2787252997
 20
26.9995387934
 10
45.2566506268
 20
27.0470818595
 10
45.2391036348
 20
27.0948598243
 10
45.2260439699
 20
27.1425767315
 10
45.2175593897
 20
27.1905721239
 10
45.2136620847
 20
27.2388737205
  0
LINE
  5
404
100
AcDbEntity
  8
RACCORDO
100
AcDbLine
 62
253
  6
CONTINUOUS
 10
40.5169565805
 20
14.0969993375
 11
39.6509311767
 21
14.5969993375
  0
LWPOLYLINE
  5
405
100
AcDbEntity
  8
0
100
AcDbPolyline
 62
253
  6
CONTINUOUS
 90
6
 70
0
 10
2.0912860572
 20
86.745199695
 10
2.0916605584
 20
86.7437953619
 10
2.0920060635
 20
86.739603767
 10
2.092319358
 20
86.7326483801
 10
2.0925966624
 20
86.7229681347
 10
2.0928362737
 20
86.7106171631
  0
LWPOLYLINE
  5
406
100
AcDbEntity
  8
0
100
AcDbPolyline
 62
253
  6
CONTINUOUS
 90
10
 70
0
 10
0.5947765385
 20
-23.0805120793
 10
0.595496933
 20
-23.0786332294
 10
0.5961484339
 20
-23.0730173578
 10
0.596725575
 20
-23.0636773335
 10
0.5972237829
 20
-23.0506418538
 10
0.5976380884
 20
-23.0339881034
 10
0.5979639225
 20
-23.0138722114
 10
0.5981986173
 20
-22.9904709632
 10
0.5983407257
 20
-22.9639453975
 10
0.5983434778
 20
-22.9023262196
  0
LINE
  5
407
100
AcDbEntity
  8
RACCORDO
100
AcDbLine
 62
253
  6
CONTINUOUS
 10
45.9376593107
 20
35.7852786802
 11
46.1304318982
 21
35.7920005982
  0
LINE
  5
408
100
AcDbEntity
  8
RACCORDO
100
AcDbLine
 62
253
  6
CONTINUOUS
 10
46.1304318982
 20
35.7920005982
 11
46.8344152057
 21
35.8157776715
  0
LWPOLYLINE
  5
409
100
AcDbEntity
  8
RACCORDO
100
AcDbPolyline
 62
253
  6
CONTINUOUS
 90
3
 70
0
 10
46.8344152057
 20
35.8157776715
 10
46.8633396311
 20
35.8167174468
 10
46.9020877463
 20
35.8179830996
  0
LINE
  5
40A
100
AcDbEntity
  8
RACCORDO
100
AcDbLine
 62
253
  6
CONTINUOUS
 10
46.9020877463
 20
35.8179830996
 11
46.9150470644
 21
35.8183992957
  0
LWPOLYLINE
  5
40B
100
AcDbEntity
  8
RACCORDO
100
AcDbPolyline
 62
253
  6
CONTINUOUS
 90
8
 70
0
 10
11.5908953742
 20
35.1503859709
 10
11.5643708581
 20
35.1498238087
 10
11.5412078243
 20
35.1491946358
 10
11.5217575104
 20
35.1485079928
 10
11.5063148551
 20
35.1477742918
 10
11.4951140263
 20
35.1470046582
 10
11.4883248701
 20
35.1462107626
 10
11.4860503352
 20
35.1454046433
  0
LINE
  5
40C
100
AcDbEntity
  8
0
100
AcDbLine
 62
7
  6
CONTINUOUS
 10
2.3860503352
 20
33.5048654224
 11
-9.6139496648
 21
33.2954046433
  0
LINE
  5
40D
100
AcDbEntity
  8
RACCORDO
100
AcDbLine
 62
253
  6
CONTINUOUS
 10
11.6523751402
 20
35.1512763109
 11
11.5908953742
 21
35.1503859709
  0
LWPOLYLINE
  5
40E
100
AcDbEntity
  8
RACCORDO
100
AcDbPolyline
 62
253
  6
CONTINUOUS
 90
3
 70
0
 10
11.7584385683
 20
35.1519355702
 10
11.7219322145
 20
35.1518118574
 10
11.6523751402
 20
35.1512763109
  0
LINE
  5
40F
100
AcDbEntity
  8
RACCORDO
100
AcDbLine
 62
253
  6
CONTINUOUS
 10
11.7860503352
 20
34.3750272624
 11
11.4860503352
 21
34.3750272624
  0
LINE
  5
410
100
AcDbEntity
  8
RACCORDO
100
AcDbLine
 62
253
  6
CONTINUOUS
 10
45.1860503352
 20
34.3750272624
 11
45.4860503352
 21
34.3750272624
  0
LINE
  5
411
100
AcDbEntity
  8
RACCORDO
100
AcDbLine
 62
7
  6
CONTINUOUS
 10
10.348037765
 20
35.4454046433
 11
11.1860503352
 21
35.4454046433
  0
LINE
  5
412
100
AcDbEntity
  8
RACCORDO
100
AcDbLine
 62
7
  6
CONTINUOUS
 10
45.7860503352
 20
35.4454046433
 11
46.6240629055
 21
35.4454046433
  0
LINE
  5
413
100
AcDbEntity
  8
RACCORDO
100
AcDbLine
 62
253
  6
CONTINUOUS
 10
45.2136622456
 20
35.1519356041
 11
45.285704006
 21
35.1515923138
  0
LWPOLYLINE
  5
414
100
AcDbEntity
  8
RACCORDO
100
AcDbPolyline
 62
253
  6
CONTINUOUS
 90
10
 70
0
 10
45.285704006
 20
35.1515923138
 10
45.3517242548
 20
35.1508745949
 10
45.3812085828
 20
35.1503880816
 10
45.4077335291
 20
35.1498258978
 10
45.4308968572
 20
35.1491965808
 10
45.4503473079
 20
35.1485096865
 10
45.4657899256
 20
35.1477756449
 10
45.4769905315
 20
35.1470056012
 10
45.4837792744
 20
35.146211247
 10
45.4860532068
 20
35.1454046432
  0
LINE
  5
415
100
AcDbEntity
  8
0
100
AcDbLine
 62
7
  6
CONTINUOUS
 10
-6.6139496648
 20
32.9941344118
 11
-9.6139496648
 21
33.0988967202
  0
LINE
  5
416
100
AcDbEntity
  8
0
100
AcDbLine
 62
7
  6
CONTINUOUS
 10
-12.4139496648
 20
33.1966748748
 11
-15.4139496648
 21
33.3014371833
  0
LWPOLYLINE
  5
417
100
AcDbEntity
  8
RACCORDO
100
AcDbPolyline
 62
253
  6
CONTINUOUS
 90
3
 70
0
 10
10.0570536061
 20
35.8183992957
 10
10.841696835
 20
35.7919996604
 10
11.0344413598
 20
35.7852786802
  0
LWPOLYLINE
  5
418
100
AcDbEntity
  8
RACCORDO
100
AcDbPolyline
 62
253
  6
CONTINUOUS
 90
19
 70
0
 10
11.0344413598
 20
35.7852786802
 10
11.1028342332
 20
35.7795796016
 10
11.1692511632
 20
35.7688458937
 10
11.2334838546
 20
35.7531945825
 10
11.2955483549
 20
35.7324684749
 10
11.3550894707
 20
35.7070354741
 10
11.4113409906
 20
35.6777894126
 10
11.4641174472
 20
35.644710169
 10
11.513330031
 20
35.6079746531
 10
11.558333053
 20
35.5687512274
 10
11.5988851788
 20
35.5270455716
 10
11.6350429444
 20
35.4829294414
 10
11.6665990142
 20
35.4376399754
 10
11.6933753729
 20
35.3912706956
 10
11.7154492165
 20
35.3437300328
 10
11.7329958057
 20
35.2959533419
 10
11.7460554223
 20
35.2482362543
 10
11.7545404088
 20
35.2002395668
 10
11.7584385858
 20
35.1519355661
  0
LINE
  5
419
100
AcDbEntity
  8
RACCORDO
100
AcDbLine
 62
253
  6
CONTINUOUS
 10
33.2369073069
 20
48.6038783714
 11
33.6422906984
 21
49.364729042
  0
LINE
  5
41A
100
AcDbEntity
  8
RACCORDO
100
AcDbLine
 62
253
  6
CONTINUOUS
 10
33.6422906984
 20
49.364729042
 11
33.6969178893
 21
49.4668813032
  0
LWPOLYLINE
  5
41B
100
AcDbEntity
  8
RACCORDO
100
AcDbPolyline
 62
253
  6
CONTINUOUS
 90
8
 70
0
 10
16.6133585535
 20
18.5412619099
 10
16.6005831422
 20
18.5180099241
 10
16.589546505
 20
18.497635562
 10
16.5804159983
 20
18.4804477745
 10
16.5733300744
 20
18.4667071921
 10
16.5683961823
 20
18.4566221731
 10
16.5656891379
 20
18.4503456435
 10
16.5652499903
 20
18.4479727789
  0
LINE
  5
41C
100
AcDbEntity
  8
RACCORDO
100
AcDbLine
 62
253
  6
CONTINUOUS
 10
16.6433273794
 20
18.5949501191
 11
16.6133585535
 21
18.5412619099
  0
LWPOLYLINE
  5
41D
100
AcDbEntity
  8
RACCORDO
100
AcDbPolyline
 62
253
  6
CONTINUOUS
 90
3
 70
0
 10
16.6957881582
 20
18.6871333719
 10
16.6776421197
 20
18.6554560857
 10
16.6433273794
 20
18.5949501191
  0
LINE
  5
41E
100
AcDbEntity
  8
RACCORDO
100
AcDbLine
 62
7
  6
CONTINUOUS
 10
15.736436084
 20
17.6124249832
 11
16.1554423692
 21
18.3381651578
  0
LINE
  5
41F
100
AcDbEntity
  8
RACCORDO
100
AcDbLine
 62
7
  6
CONTINUOUS
 10
33.4554423692
 20
48.3026441288
 11
33.8744486543
 21
49.0283843033
  0
LINE
  5
420
100
AcDbEntity
  8
RACCORDO
100
AcDbLine
 62
253
  6
CONTINUOUS
 10
17.3824163726
 20
18.3225917096
 11
17.2324163726
 21
18.0627840885
  0
LINE
  5
421
100
AcDbEntity
  8
RACCORDO
100
AcDbLine
 62
253
  6
CONTINUOUS
 10
34.0824163726
 20
47.247840196
 11
34.2324163726
 21
47.5076478172
  0
LINE
  5
422
100
AcDbEntity
  8
RACCORDO
100
AcDbLine
 62
253
  6
CONTINUOUS
 10
33.4233999879
 20
47.6602070508
 11
33.4597178058
 21
47.7224257396
  0
LWPOLYLINE
  5
423
100
AcDbEntity
  8
RACCORDO
100
AcDbPolyline
 62
253
  6
CONTINUOUS
 90
10
 70
0
 10
33.4597178058
 20
47.7224257396
 10
33.4933493231
 20
47.7792423004
 10
33.5085127995
 20
47.8045332714
 10
33.5222621553
 20
47.8272234714
 10
33.5343888739
 20
47.8469688229
 10
33.544709044
 20
47.8634699059
 10
33.5530661494
 20
47.8764764989
 10
33.559333442
 20
47.8857913726
 10
33.5634158641
 20
47.8912732814
 10
33.5652514903
 20
47.892839105
  0
LINE
  5
424
100
AcDbEntity
  8
RACCORDO
100
AcDbLine
 62
253
  6
CONTINUOUS
 10
15.2679211601
 20
17.5469226358
 11
15.7852983314
 21
18.3768049521
  0
LWPOLYLINE
  5
425
100
AcDbEntity
  8
RACCORDO
100
AcDbPolyline
 62
253
  6
CONTINUOUS
 90
19
 70
0
 10
15.7852983314
 20
18.3768049521
 10
15.8244304954
 20
18.4331855969
 10
15.8669348076
 20
18.4853376665
 10
15.9126057697
 20
18.5331392828
 10
15.9615875152
 20
18.5765257319
 10
16.0133838521
 20
18.6153733697
 10
16.0668376537
 20
18.6494655922
 10
16.1218736556
 20
18.678631749
 10
16.1782942018
 20
18.7028833568
 10
16.2347645479
 20
18.7222453676
 10
16.2911590885
 20
18.7365116003
 10
16.3474439671
 20
18.7457669118
 10
16.4024441095
 20
18.750450321
 10
16.455989663
 20
18.7504543409
 10
16.50819838
 20
18.7458001233
 10
16.5583473951
 20
18.7371073744
 10
16.606200673
 20
18.7245588718
 10
16.6520082949
 20
18.7079090116
 10
16.6957881705
 20
18.687133385
  0
LINE
  5
426
100
AcDbEntity
  8
RACCORDO
100
AcDbLine
 62
253
  6
CONTINUOUS
 10
15.3292930727
 20
15.4353082498
 11
15.970148273
 21
16.2029700322
  0
LINE
  5
427
100
AcDbEntity
  8
0
100
AcDbLine
 62
7
  6
CONTINUOUS
 10
-6.5139496648
 20
36.0954046433
 11
-10.9924535991
 21
35.8606961976
  0
LINE
  5
428
100
AcDbEntity
  8
0
100
AcDbLine
 62
7
  6
CONTINUOUS
 10
-6.5139496648
 20
36.3954046433
 11
-12.566285621
 21
36.0782151563
  0
LINE
  5
429
100
AcDbEntity
  8
RACCORDO
100
AcDbLine
 62
253
  6
CONTINUOUS
 10
41.6428075978
 20
15.4353082498
 11
41.0019523975
 21
16.2029700322
  0
LINE
  5
42A
100
AcDbEntity
  8
RACCORDO
100
AcDbLine
 62
253
  6
CONTINUOUS
 10
15.7852983314
 20
44.0140043345
 11
15.3760853401
 21
44.6699312294
  0
LINE
  5
42B
100
AcDbEntity
  8
RACCORDO
100
AcDbLine
 62
253
  6
CONTINUOUS
 10
15.3760853401
 20
44.6699312294
 11
15.2679211601
 21
44.8438866508
  0
LWPOLYLINE
  5
42C
100
AcDbEntity
  8
RACCORDO
100
AcDbPolyline
 62
253
  6
CONTINUOUS
 90
8
 70
0
 10
33.5085135146
 20
14.5862805823
 10
33.5222626194
 20
14.5635907586
 10
33.5343890159
 20
14.5438455694
 10
33.5447088232
 20
14.5273444249
 10
33.5530655546
 20
14.5143375437
 10
33.5593324912
 20
14.5050221582
 10
33.5634146031
 20
14.4995395243
 10
33.5652499903
 20
14.4979727789
  0
LINE
  5
42D
100
AcDbEntity
  8
RACCORDO
100
AcDbLine
 62
253
  6
CONTINUOUS
 10
33.4770025745
 20
14.6390784515
 11
33.5085135146
 21
14.5862805823
  0
LWPOLYLINE
  5
42E
100
AcDbEntity
  8
RACCORDO
100
AcDbPolyline
 62
253
  6
CONTINUOUS
 90
3
 70
0
 10
33.4233999251
 20
14.730602445
 10
33.4417602405
 20
14.6990488716
 10
33.4770025745
 20
14.6390784515
  0
LINE
  5
42F
100
AcDbEntity
  8
RACCORDO
100
AcDbLine
 62
7
  6
CONTINUOUS
 10
33.8744486543
 20
13.3624249832
 11
33.4554423692
 21
14.0881651578
  0
LINE
  5
430
100
AcDbEntity
  8
RACCORDO
100
AcDbLine
 62
7
  6
CONTINUOUS
 10
16.1554423692
 20
44.0526441288
 11
15.736436084
 21
44.7783843033
  0
LINE
  5
431
100
AcDbEntity
  8
RACCORDO
100
AcDbLine
 62
253
  6
CONTINUOUS
 10
34.0824163726
 20
15.1429690905
 11
34.2324163726
 21
14.8831614694
  0
LINE
  5
432
100
AcDbEntity
  8
RACCORDO
100
AcDbLine
 62
253
  6
CONTINUOUS
 10
17.3824163726
 20
44.0682175769
 11
17.2324163726
 21
44.3280251981
  0
LINE
  5
433
100
AcDbEntity
  8
RACCORDO
100
AcDbLine
 62
253
  6
CONTINUOUS
 10
16.6957880571
 20
43.7036760219
 11
16.6600644751
 21
43.7662376617
  0
LWPOLYLINE
  5
434
100
AcDbEntity
  8
RACCORDO
100
AcDbPolyline
 62
253
  6
CONTINUOUS
 90
10
 70
0
 10
16.6600644751
 20
43.7662376617
 10
16.6276759135
 20
43.8237717338
 10
16.6133550824
 20
43.8495491674
 10
16.6005794747
 20
43.8728015366
 10
16.5895428152
 20
43.8931762258
 10
16.5804124577
 20
43.9103642573
 10
16.5733268475
 20
43.9241049774
 10
16.568393422
 20
43.9341900085
 10
16.5656869814
 20
43.9404664094
 10
16.5652485546
 20
43.9428389945
  0
LINE
  5
435
100
AcDbEntity
  8
RACCORDO
100
AcDbLine
 62
253
  6
CONTINUOUS
 10
33.6969178893
 20
12.9239279834
 11
33.5751503225
 21
13.1517799882
  0
LINE
  5
436
100
AcDbEntity
  8
RACCORDO
100
AcDbLine
 62
253
  6
CONTINUOUS
 10
33.5751503225
 20
13.1517799882
 11
33.2369073069
 21
13.7869309152
  0
LWPOLYLINE
  5
437
100
AcDbEntity
  8
RACCORDO
100
AcDbPolyline
 62
253
  6
CONTINUOUS
 90
19
 70
0
 10
33.2369073069
 20
13.7869309152
 10
33.2076463182
 20
13.8490106857
 10
33.1837334572
 20
13.9118965347
 10
33.1651715241
 20
13.9753495562
 10
33.1520886298
 20
14.0394622167
 10
33.144343757
 20
14.1037429791
 10
33.1415459271
 20
14.1670814405
 10
33.1438052953
 20
14.2293270947
 10
33.1510130599
 20
14.2903145249
 10
33.1624802397
 20
14.3489002846
 10
33.1783225901
 20
14.4048725057
 10
33.1984496946
 20
14.4582442962
 10
33.2218938145
 20
14.5082175213
 10
33.2486631098
 20
14.5545913408
 10
33.278798139
 20
14.5974783073
 10
33.3114007879
 20
14.6365622539
 10
33.3461947489
 20
14.6717301569
 10
33.3835177617
 20
14.703075791
 10
33.42339992
 20
14.7306024622
  0
LINE
  5
438
100
AcDbEntity
  8
0
100
AcDbLine
 62
7
  6
CONTINUOUS
 10
26.4860503352
 20
8.8954046433
 11
26.4860503352
 21
-24.7867347358
  0
LINE
  5
439
100
AcDbEntity
  8
ASSI
100
AcDbLine
 62
7
  6
CONTINUOUS
 10
28.0360503352
 20
9.0311537664
 11
28.0360503352
 21
8.8954046433
  0
LINE
  5
43A
100
AcDbEntity
  8
0
100
AcDbLine
 62
7
  6
CONTINUOUS
 10
28.0360503352
 20
9.0311537664
 11
28.0360503352
 21
8.8954046433
  0
LINE
  5
43B
100
AcDbEntity
  8
ASSI
100
AcDbLine
 62
7
  6
CONTINUOUS
 10
28.9360503352
 20
9.0311537664
 11
28.9360503352
 21
8.8954046433
  0
LINE
  5
43C
100
AcDbEntity
  8
0
100
AcDbLine
 62
7
  6
CONTINUOUS
 10
28.9360503352
 20
9.0311537664
 11
28.9360503352
 21
8.8954046433
  0
LINE
  5
43D
100
AcDbEntity
  8
RACCORDO
100
AcDbLine
 62
253
  6
CONTINUOUS
 10
22.8896842978
 20
15.1429690905
 11
22.7396842978
 21
14.8831614694
  0
LINE
  5
43E
100
AcDbEntity
  8
RACCORDO
100
AcDbLine
 62
253
  6
CONTINUOUS
 10
39.5896842978
 20
44.0682175769
 11
39.7396842978
 21
44.3280251981
  0
LINE
  5
43F
100
AcDbEntity
  8
RACCORDO
100
AcDbLine
 62
253
  6
CONTINUOUS
 10
18.0263335118
 20
11.8897536795
 11
18.5358180137
 21
12.7502335121
  0
LWPOLYLINE
  5
440
100
AcDbEntity
  8
RACCORDO
100
AcDbPolyline
 62
253
  6
CONTINUOUS
 90
19
 70
0
 10
41.1868023391
 20
44.0140043345
 10
41.1476701751
 20
43.9576236897
 10
41.1051658629
 20
43.9054716201
 10
41.0594949008
 20
43.8576700038
 10
41.0105131553
 20
43.8142835547
 10
40.9587168184
 20
43.7754359169
 10
40.9052630167
 20
43.7413436944
 10
40.8502270148
 20
43.7121775375
 10
40.7938064687
 20
43.6879259298
 10
40.7373361226
 20
43.6685639189
 10
40.680941582
 20
43.6542976863
 10
40.6246567034
 20
43.6450423748
 10
40.569656561
 20
43.6403589656
 10
40.5161110075
 20
43.6403549456
 10
40.4639022905
 20
43.6450091633
 10
40.4137532754
 20
43.6537019121
 10
40.3658999975
 20
43.6662504148
 10
40.3200923756
 20
43.682900275
 10
40.2763125
 20
43.7036759016
  0
LINE
  5
441
100
AcDbEntity
  8
RACCORDO
100
AcDbLine
 62
253
  6
CONTINUOUS
 10
38.9457671587
 20
11.8897536795
 11
38.4362826568
 21
12.7502335121
  0
LINE
  5
442
100
AcDbEntity
  8
RACCORDO
100
AcDbLine
 62
253
  6
CONTINUOUS
 10
39.5896842978
 20
18.3225917096
 11
39.7396842978
 21
18.0627840885
  0
LINE
  5
443
100
AcDbEntity
  8
RACCORDO
100
AcDbLine
 62
253
  6
CONTINUOUS
 10
22.8896842978
 20
47.247840196
 11
22.7396842978
 21
47.5076478172
  0
LINE
  5
444
100
AcDbEntity
  8
0
100
AcDbLine
 62
7
  6
CONTINUOUS
 10
30.4860503352
 20
8.8954046433
 11
30.4860503352
 21
-24.7867347358
  0
LINE
  5
445
100
AcDbEntity
  8
RACCORDO
100
AcDbLine
 62
253
  6
CONTINUOUS
 10
23.7351933636
 20
13.7869309152
 11
23.6023333704
 21
13.5370437606
  0
LINE
  5
446
100
AcDbEntity
  8
RACCORDO
100
AcDbLine
 62
253
  6
CONTINUOUS
 10
23.6023333704
 20
13.5370437606
 11
23.3132283174
 21
12.9950680334
  0
LINE
  5
447
100
AcDbEntity
  8
RACCORDO
100
AcDbLine
 62
253
  6
CONTINUOUS
 10
23.3132283174
 20
12.9950680334
 11
23.2751827812
 21
12.9239279834
  0
LWPOLYLINE
  5
448
100
AcDbEntity
  8
RACCORDO
100
AcDbPolyline
 62
253
  6
CONTINUOUS
 90
8
 70
0
 10
40.3587421215
 20
43.8495473848
 10
40.3715175329
 20
43.8727993709
 10
40.38255417
 20
43.8931737328
 10
40.3916846763
 20
43.9103615196
 10
40.3987705995
 20
43.9241021008
 10
40.4037044908
 20
43.9341871182
 10
40.406411534
 20
43.9404636456
 10
40.4068506802
 20
43.9428365076
  0
LINE
  5
449
100
AcDbEntity
  8
RACCORDO
100
AcDbLine
 62
253
  6
CONTINUOUS
 10
40.3287732949
 20
43.795859174
 11
40.3587421215
 21
43.8495473848
  0
LWPOLYLINE
  5
44A
100
AcDbEntity
  8
RACCORDO
100
AcDbPolyline
 62
253
  6
CONTINUOUS
 90
3
 70
0
 10
40.2763125141
 20
43.7036759166
 10
40.2944585534
 20
43.7353532045
 10
40.3287732949
 20
43.795859174
  0
LINE
  5
44B
100
AcDbEntity
  8
RACCORDO
100
AcDbLine
 62
7
  6
CONTINUOUS
 10
41.2356645865
 20
44.7783843033
 11
40.8166583013
 21
44.0526441288
  0
LINE
  5
44C
100
AcDbEntity
  8
RACCORDO
100
AcDbLine
 62
7
  6
CONTINUOUS
 10
23.5166583013
 20
14.0881651578
 11
23.0976520162
 21
13.3624249832
  0
LINE
  5
44D
100
AcDbEntity
  8
RACCORDO
100
AcDbLine
 62
253
  6
CONTINUOUS
 10
23.548700703
 20
14.7306023039
 11
23.5123825246
 21
14.6683839544
  0
LWPOLYLINE
  5
44E
100
AcDbEntity
  8
RACCORDO
100
AcDbPolyline
 62
253
  6
CONTINUOUS
 90
10
 70
0
 10
23.5123825246
 20
14.6683839544
 10
23.4787508374
 20
14.6115676013
 10
23.4635873406
 20
14.5862766808
 10
23.449838002
 20
14.5635864954
 10
23.4377113334
 20
14.5438411233
 10
23.4273912402
 20
14.5273399861
 10
23.4190342326
 20
14.5143333076
 10
23.4127670523
 20
14.5050183202
 10
23.4086847499
 20
14.4995362735
 10
23.4068492443
 20
14.4979702922
  0
LWPOLYLINE
  5
44F
100
AcDbEntity
  8
RACCORDO
100
AcDbPolyline
 62
253
  6
CONTINUOUS
 90
3
 70
0
 10
41.7041795104
 20
44.8438866508
 10
41.2889951411
 20
44.1775654992
 10
41.1868023391
 20
44.0140043345
  0
LINE
  5
450
100
AcDbEntity
  8
RACCORDO
100
AcDbLine
 62
253
  6
CONTINUOUS
 10
16.45514409
 20
14.0969993375
 11
17.3211694938
 21
14.5969993375
  0
LINE
  5
451
100
AcDbEntity
  8
RACCORDO
100
AcDbLine
 62
253
  6
CONTINUOUS
 10
17.313251708
 20
12.6107133448
 11
18.1792771118
 21
13.1107133448
  0
LINE
  5
452
100
AcDbEntity
  8
0
100
AcDbLine
 62
7
  6
CONTINUOUS
 10
-6.5139496648
 20
46.8790804481
 11
-1.8139496648
 21
46.9200967267
  0
LINE
  5
453
100
AcDbEntity
  8
0
100
AcDbLine
 62
7
  6
CONTINUOUS
 10
-11.2139496648
 20
46.9200967267
 11
-6.5139496648
 21
46.8790804481
  0
LINE
  5
454
100
AcDbEntity
  8
0
100
AcDbLine
 62
7
  6
CONTINUOUS
 10
-15.1191853867
 20
49.0956095915
 11
-11.2139496648
 21
49.0274434484
  0
LINE
  5
455
100
AcDbEntity
  8
RACCORDO
100
AcDbLine
 62
253
  6
CONTINUOUS
 10
41.1868023391
 20
18.3768049521
 11
41.3367809665
 21
18.1368012455
  0
LINE
  5
456
100
AcDbEntity
  8
RACCORDO
100
AcDbLine
 62
253
  6
CONTINUOUS
 10
41.3367809665
 20
18.1368012455
 11
41.6615931879
 21
17.6154410617
  0
LINE
  5
457
100
AcDbEntity
  8
RACCORDO
100
AcDbLine
 62
253
  6
CONTINUOUS
 10
41.6615931879
 20
17.6154410617
 11
41.7041795104
 21
17.5469226358
  0
LWPOLYLINE
  5
458
100
AcDbEntity
  8
RACCORDO
100
AcDbPolyline
 62
253
  6
CONTINUOUS
 90
8
 70
0
 10
23.4635871559
 20
47.8045287042
 10
23.4498380511
 20
47.8272185279
 10
23.4377116546
 20
47.8469637171
 10
23.4273918473
 20
47.8634648616
 10
23.4190351159
 20
47.8764717429
 10
23.4127681792
 20
47.8857871284
 10
23.4086860674
 20
47.8912697623
 10
23.4068506802
 20
47.8928365076
  0
LINE
  5
459
100
AcDbEntity
  8
RACCORDO
100
AcDbLine
 62
253
  6
CONTINUOUS
 10
23.495098096
 20
47.7517308351
 11
23.4635871559
 21
47.8045287042
  0
LWPOLYLINE
  5
45A
100
AcDbEntity
  8
RACCORDO
100
AcDbPolyline
 62
253
  6
CONTINUOUS
 90
3
 70
0
 10
23.5487007453
 20
47.6602068416
 10
23.53034043
 20
47.691760415
 10
23.495098096
 20
47.7517308351
  0
LINE
  5
45B
100
AcDbEntity
  8
RACCORDO
100
AcDbLine
 62
7
  6
CONTINUOUS
 10
23.0976520162
 20
49.0283843033
 11
23.5166583013
 21
48.3026441288
  0
LINE
  5
45C
100
AcDbEntity
  8
RACCORDO
100
AcDbLine
 62
7
  6
CONTINUOUS
 10
40.8166583013
 20
18.3381651578
 11
41.2356645865
 21
17.6124249832
  0
LINE
  5
45D
100
AcDbEntity
  8
RACCORDO
100
AcDbLine
 62
253
  6
CONTINUOUS
 10
40.2763126134
 20
18.6871332647
 11
40.3120361954
 21
18.6245716249
  0
LWPOLYLINE
  5
45E
100
AcDbEntity
  8
RACCORDO
100
AcDbPolyline
 62
253
  6
CONTINUOUS
 90
10
 70
0
 10
40.3120361954
 20
18.6245716249
 10
40.3444247569
 20
18.5670375528
 10
40.3587455881
 20
18.5412601191
 10
40.3715211958
 20
18.5180077499
 10
40.3825578553
 20
18.4976330608
 10
40.3916882128
 20
18.4804450293
 10
40.398773823
 20
18.4667043092
 10
40.4037072485
 20
18.4566192781
 10
40.4064136891
 20
18.4503428772
 10
40.4068521159
 20
18.4479702921
  0
LWPOLYLINE
  5
45F
100
AcDbEntity
  8
RACCORDO
100
AcDbPolyline
 62
253
  6
CONTINUOUS
 90
3
 70
0
 10
23.2751827812
 20
49.4668813032
 10
23.6446416409
 20
48.7741605164
 10
23.7351933636
 20
48.6038783714
  0
LWPOLYLINE
  5
460
100
AcDbEntity
  8
RACCORDO
100
AcDbPolyline
 62
253
  6
CONTINUOUS
 90
19
 70
0
 10
23.7351933636
 20
48.6038783714
 10
23.7644543523
 20
48.5417986009
 10
23.7883672133
 20
48.4789127519
 10
23.8069291464
 20
48.4154597304
 10
23.8200120407
 20
48.3513470699
 10
23.8277569135
 20
48.2870663074
 10
23.8305547434
 20
48.223727846
 10
23.8282953752
 20
48.1614821918
 10
23.8210876106
 20
48.1004947617
 10
23.8096204307
 20
48.041909002
 10
23.7937780804
 20
47.9859367808
 10
23.7736509759
 20
47.9325649904
 10
23.750206856
 20
47.8825917652
 10
23.7234375607
 20
47.8362179457
 10
23.6933025315
 20
47.7933309793
 10
23.6606998826
 20
47.7542470327
 10
23.6259059216
 20
47.7190791297
 10
23.5885829088
 20
47.6877334955
 10
23.5487007505
 20
47.6602068243
  0
LINE
  5
461
100
AcDbEntity
  8
RACCORDO
100
AcDbLine
 62
253
  6
CONTINUOUS
 10
39.5896842978
 20
18.3225917096
 11
39.9346075893
 21
18.5064323137
  0
LINE
  5
462
100
AcDbEntity
  8
RACCORDO
100
AcDbLine
 62
253
  6
CONTINUOUS
 10
39.9346075893
 20
18.5064323137
 11
40.2763125
 21
18.687133385
  0
LWPOLYLINE
  5
463
100
AcDbEntity
  8
RACCORDO
100
AcDbPolyline
 62
253
  6
CONTINUOUS
 90
19
 70
0
 10
40.2763125
 20
18.687133385
 10
40.3199461362
 20
18.7078549203
 10
40.3656248293
 20
18.72447294
 10
40.4133663726
 20
18.7370119578
 10
40.4634117482
 20
18.745726231
 10
40.5155339941
 20
18.750424435
 10
40.5690375021
 20
18.7504615639
 10
40.6240512839
 20
18.7458176019
 10
40.680394335
 20
18.7366001865
 10
40.7368849934
 20
18.722344048
 10
40.7935059417
 20
18.7029520168
 10
40.8501136047
 20
18.6786449686
 10
40.9053149459
 20
18.6494111029
 10
40.9589111191
 20
18.615215053
 10
41.0108263298
 20
18.5762518176
 10
41.059849623
 20
18.5328191987
 10
41.1054704579
 20
18.485064246
 10
41.147854909
 20
18.433020423
 10
41.1868023391
 20
18.3768049521
  0
LWPOLYLINE
  5
464
100
AcDbEntity
  8
0
100
AcDbPolyline
 62
7
  6
CONTINUOUS
 90
19
 70
0
 10
2.0912860572
 20
50.00762157
 10
2.1185330336
 20
50.0084011259
 10
2.1453359537
 20
50.0101099054
 10
2.1714831175
 20
50.0127479086
 10
2.1967731424
 20
50.0163671049
 10
2.221022482
 20
50.0209155249
 10
2.244065685
 20
50.0262372601
 10
2.265745343
 20
50.0323444051
 10
2.2859219689
 20
50.0392248654
 10
2.3044783861
 20
50.0466864489
 10
2.3213043455
 20
50.0547348877
 10
2.3363087164
 20
50.0633644498
 10
2.3494231521
 20
50.0723657464
 10
2.3605844441
 20
50.0817391466
 10
2.3697476916
 20
50.0914842814
 10
2.3768881158
 20
50.1013906549
 10
2.3819872101
 20
50.1113881021
 10
2.3850379759
 20
50.121546788
 10
2.3860503352
 20
50.1318667127
  0
LINE
  5
465
100
AcDbEntity
  8
0
100
AcDbLine
 62
7
  6
CONTINUOUS
 10
2.0912860572
 20
49.0956095915
 11
-1.8139496648
 21
49.0274434484
  0
LINE
  5
466
100
AcDbEntity
  8
0
100
AcDbLine
 62
7
  6
CONTINUOUS
 10
-6.5139496648
 20
51.6954046433
 11
2.0912860572
 21
51.8456095915
  0
LINE
  5
467
100
AcDbEntity
  8
0
100
AcDbLine
 62
253
  6
CONTINUOUS
 10
-6.5139496648
 20
52.1953284909
 11
2.0912860572
 21
52.3455334391
  0
LINE
  5
468
100
AcDbEntity
  8
0
100
AcDbLine
 62
7
  6
CONTINUOUS
 10
2.0912860572
 20
50.00762157
 11
-1.8139496648
 21
49.979386229
  0
LINE
  5
469
100
AcDbEntity
  8
DRAFT
100
AcDbLine
 62
7
  6
CONTINUOUS
 10
-2.1540963141
 20
50.4954046433
 11
-10.8738030154
 21
50.4954046433
  0
LINE
  5
46A
100
AcDbEntity
  8
0
100
AcDbLine
 62
253
  6
CONTINUOUS
 10
-15.4139496648
 20
52.3455334391
 11
-15.1191853867
 21
52.3455334391
  0
LINE
  5
46B
100
AcDbEntity
  8
0
100
AcDbLine
 62
253
  6
CONTINUOUS
 10
2.3860503352
 20
52.3455334391
 11
2.0912860572
 21
52.3455334382
  0
LINE
  5
46C
100
AcDbEntity
  8
0
100
AcDbLine
 62
7
  6
CONTINUOUS
 10
-15.1191853867
 20
50.00762157
 11
-11.2139496648
 21
49.979386229
  0
LINE
  5
46D
100
AcDbEntity
  8
0
100
AcDbLine
 62
7
  6
CONTINUOUS
 10
-6.5139496648
 20
51.6954046433
 11
-15.1191853867
 21
51.8456095915
  0
LINE
  5
46E
100
AcDbEntity
  8
0
100
AcDbLine
 62
253
  6
CONTINUOUS
 10
-6.5139496648
 20
52.1953284909
 11
-15.1191853867
 21
52.3454808634
  0
LWPOLYLINE
  5
46F
100
AcDbEntity
  8
0
100
AcDbPolyline
 62
7
  6
CONTINUOUS
 90
19
 70
0
 10
-15.1191853867
 20
50.00762157
 10
-15.1464323631
 20
50.0082851756
 10
-15.1732352833
 20
50.0100132069
 10
-15.199382447
 20
50.0127479086
 10
-15.224672472
 20
50.0163819238
 10
-15.2489218115
 20
50.0208711627
 10
-15.2719650145
 20
50.0262372601
 10
-15.2936446725
 20
50.0323724511
 10
-15.3138212984
 20
50.0391793689
 10
-15.3323777156
 20
50.0466864489
 10
-15.349203675
 20
50.0547721412
 10
-15.3642080459
 20
50.0633206354
 10
-15.3773224816
 20
50.0723657464
 10
-15.3884837736
 20
50.0817814908
 10
-15.3976470212
 20
50.091443835
 10
-15.4047874453
 20
50.1013906549
 10
-15.4098865396
 20
50.1115524062
 10
-15.4129373054
 20
50.1217514953
 10
-15.4139496648
 20
50.1318667127
  0
LWPOLYLINE
  5
470
100
AcDbEntity
  8
RACCORDO
100
AcDbPolyline
 62
253
  6
CONTINUOUS
 90
16
 70
0
 10
41.186799125
 20
18.3768081963
 10
41.1580495717
 20
18.3586768469
 10
41.1282481977
 20
18.3422149351
 10
41.0977792084
 20
18.3276346911
 10
41.0670354163
 20
18.315124086
 10
41.0364131764
 20
18.304844409
 10
41.0063072767
 20
18.296928188
 10
40.9771058484
 20
18.2914774805
 10
40.9491853622
 20
18.2885625578
 10
40.9229057748
 20
18.2882209995
 10
40.8986058878
 20
18.290457209
 10
40.8765989803
 20
18.2952423564
 10
40.8571687701
 20
18.3025147504
 10
40.8405657552
 20
18.3121806335
 10
40.8270039853
 20
18.3241153912
 10
40.8166583014
 20
18.3381651579
  0
LINE
  5
471
100
AcDbEntity
  8
RACCORDO
100
AcDbLine
 62
253
  6
CONTINUOUS
 10
33.42339992
 20
14.7306024622
 11
33.7508016161
 21
14.9362130615
  0
LINE
  5
472
100
AcDbEntity
  8
RACCORDO
100
AcDbLine
 62
253
  6
CONTINUOUS
 10
33.7508016161
 20
14.9362130615
 11
34.0824163726
 21
15.1429690905
  0
LINE
  5
473
100
AcDbEntity
  8
RACCORDO
100
AcDbLine
 62
253
  6
CONTINUOUS
 10
34.0824163835
 20
15.1429690968
 11
39.589684284
 21
18.3225917017
  0
LINE
  5
474
100
AcDbEntity
  8
RACCORDO
100
AcDbLine
 62
7
  6
CONTINUOUS
 10
33.5652499903
 20
14.4979727789
 11
40.4068506802
 21
18.4479727789
  0
LWPOLYLINE
  5
475
100
AcDbEntity
  8
RACCORDO
100
AcDbPolyline
 62
253
  6
CONTINUOUS
 90
16
 70
0
 10
33.2369070779
 20
13.786931754
 10
33.2669839389
 20
13.8027648886
 10
33.2961409742
 20
13.8203435637
 10
33.324002276
 20
13.839441152
 10
33.3502086415
 20
13.8598114443
 10
33.3744222039
 20
13.8811918235
 10
33.396330788
 20
13.9033066508
 10
33.4156519351
 20
13.9258708189
 10
33.4321365447
 20
13.9485934278
 10
33.4455720857
 20
13.9711815355
 10
33.4557853367
 20
13.9933439345
 10
33.4626446193
 20
14.014794906
 10
33.4660614955
 20
14.0352579037
 10
33.4659919081
 20
14.0544691192
 10
33.4624367489
 20
14.0721808826
 10
33.4554418468
 20
14.0881648562
  0
LWPOLYLINE
  5
476
100
AcDbEntity
  8
RACCORDO
100
AcDbPolyline
 62
253
  6
CONTINUOUS
 90
16
 70
0
 10
33.2369053302
 20
48.6038711309
 10
33.2669819633
 20
48.5880391323
 10
33.2961387485
 20
48.5704615541
 10
33.3239997998
 20
48.5513650049
 10
33.3502059354
 20
48.5309956759
 10
33.3744193085
 20
48.5096161665
 10
33.3963277631
 20
48.4875020997
 10
33.4156488575
 20
48.4649385678
 10
33.4321335065
 20
48.4422164581
 10
33.4455691917
 20
48.419628702
 10
33.4557827018
 20
48.3974664988
 10
33.4626423655
 20
48.3760155618
 10
33.4660597488
 20
48.3555524346
 10
33.4659907954
 20
48.336340926
 10
33.4624363943
 20
48.3186287093
 10
33.4554423689
 20
48.3026441289
  0
LINE
  5
477
100
AcDbEntity
  8
RACCORDO
100
AcDbLine
 62
253
  6
CONTINUOUS
 10
40.2763125
 20
43.7036759016
 11
39.8113869642
 21
43.949795599
  0
LINE
  5
478
100
AcDbEntity
  8
RACCORDO
100
AcDbLine
 62
253
  6
CONTINUOUS
 10
39.8113869642
 20
43.949795599
 11
39.5896842978
 21
44.0682175769
  0
LINE
  5
479
100
AcDbEntity
  8
RACCORDO
100
AcDbLine
 62
253
  6
CONTINUOUS
 10
39.5896842959
 20
44.0682175781
 11
34.0824163865
 21
47.2478401881
  0
LINE
  5
47A
100
AcDbEntity
  8
RACCORDO
100
AcDbLine
 62
7
  6
CONTINUOUS
 10
40.4068506802
 20
43.9428365076
 11
33.5652499903
 21
47.8928365076
  0
LINE
  5
47B
100
AcDbEntity
  8
RACCORDO
100
AcDbLine
 62
253
  6
CONTINUOUS
 10
34.0824163726
 20
47.247840196
 11
33.7507440936
 21
47.4546322268
  0
LINE
  5
47C
100
AcDbEntity
  8
RACCORDO
100
AcDbLine
 62
253
  6
CONTINUOUS
 10
33.7507440936
 20
47.4546322268
 11
33.42339992
 21
47.6602068243
  0
LWPOLYLINE
  5
47D
100
AcDbEntity
  8
RACCORDO
100
AcDbPolyline
 62
253
  6
CONTINUOUS
 90
16
 70
0
 10
41.1868017271
 20
44.0140037168
 10
41.1580513998
 20
44.0321344752
 10
41.128249303
 20
44.0485958709
 10
41.0977796555
 20
44.0631756719
 10
41.0670352821
 20
44.0756859041
 10
41.0364125493
 20
44.0859652746
 10
41.0063062551
 20
44.0938812513
 10
40.9771045388
 20
44.0993317715
 10
40.9491838774
 20
44.1022465577
 10
40.9229042318
 20
44.1025880237
 10
40.8986044058
 20
44.1003517591
 10
40.8765976782
 20
44.0955665863
 10
40.8571677642
 20
44.0882941889
 10
40.8405651573
 20
44.0786283168
 10
40.8270038998
 20
44.0666935769
 10
40.8166588238
 20
44.0526438272
  0
LWPOLYLINE
  5
47E
100
AcDbEntity
  8
RACCORDO
100
AcDbPolyline
 62
253
  6
CONTINUOUS
 90
19
 70
0
 10
33.42339992
 20
47.6602068243
 10
33.3828105984
 20
47.6882486561
 10
33.344875331
 20
47.7202748149
 10
33.3095621198
 20
47.7562885245
 10
33.2765046996
 20
47.7963862682
 10
33.2460038657
 20
47.8404497585
 10
33.2190359539
 20
47.8881498111
 10
33.195561153
 20
47.9395962
 10
33.1755675035
 20
47.9945808162
 10
33.1600957217
 20
48.0522836799
 10
33.1492502382
 20
48.1127871238
 10
33.1428985017
 20
48.1757840484
 10
33.1417611112
 20
48.2398655002
 10
33.1464509308
 20
48.3056867478
 10
33.1563519952
 20
48.3722245238
 10
33.170407843
 20
48.4356996805
 10
33.1883150879
 20
48.4948936327
 10
33.2104692008
 20
48.5509672461
 10
33.2369073069
 20
48.6038783714
  0
LWPOLYLINE
  5
47F
100
AcDbEntity
  8
RACCORDO
100
AcDbPolyline
 62
253
  6
CONTINUOUS
 90
16
 70
0
 10
45.9376548941
 20
35.7852775188
 10
45.9389823266
 20
35.7513140006
 10
45.9383380734
 20
35.7172742978
 10
45.9357304405
 20
35.683597257
 10
45.9311930462
 20
35.6507170495
 10
45.9247843877
 20
35.6190575733
 10
45.9165870863
 20
35.5890269889
 10
45.9067068233
 20
35.5610124563
 10
45.8952709774
 20
35.5353751447
 10
45.8824269818
 20
35.5124455752
 10
45.868340424
 20
35.4925193605
 10
45.8531929111
 20
35.4758533933
 10
45.8371797281
 20
35.4626625346
 10
45.8205073203
 20
35.4531168435
 10
45.803390632
 20
35.4473393851
 10
45.7860503352
 20
35.4454046434
  0
LINE
  5
480
100
AcDbEntity
  8
RACCORDO
100
AcDbLine
 62
253
  6
CONTINUOUS
 10
45.2136620847
 20
27.2388737205
 11
45.1992989305
 21
27.6252172062
  0
LINE
  5
481
100
AcDbEntity
  8
RACCORDO
100
AcDbLine
 62
253
  6
CONTINUOUS
 10
45.1992989305
 20
27.6252172062
 11
45.1860503352
 21
28.0157820242
  0
LINE
  5
482
100
AcDbEntity
  8
RACCORDO
100
AcDbLine
 62
253
  6
CONTINUOUS
 10
45.1860503352
 20
28.0157820367
 11
45.1860503352
 21
34.3750272564
  0
LINE
  5
483
100
AcDbEntity
  8
RACCORDO
100
AcDbLine
 62
7
  6
CONTINUOUS
 10
45.4860503352
 20
27.2454046433
 11
45.4860503352
 21
35.1454046433
  0
LINE
  5
484
100
AcDbEntity
  8
RACCORDO
100
AcDbLine
 62
253
  6
CONTINUOUS
 10
45.1860503352
 20
34.3750272624
 11
45.1943508296
 21
34.6263673728
  0
LINE
  5
485
100
AcDbEntity
  8
RACCORDO
100
AcDbLine
 62
253
  6
CONTINUOUS
 10
45.1943508296
 20
34.6263673728
 11
45.2136620847
 21
35.1519355661
  0
LWPOLYLINE
  5
486
100
AcDbEntity
  8
RACCORDO
100
AcDbPolyline
 62
253
  6
CONTINUOUS
 90
16
 70
0
 10
45.9376584951
 20
26.6055308208
 10
45.9389850302
 20
26.6394947165
 10
45.9383399693
 20
26.6735347896
 10
45.9357316236
 20
26.7072121809
 10
45.9311936153
 20
26.740092707
 10
45.9247844438
 20
26.7717524581
 10
45.9165867321
 20
26.801783263
 10
45.906706161
 20
26.8297979516
 10
45.8952701069
 20
26.8554353466
 10
45.8824259997
 20
26.8783649196
 10
45.8683394218
 20
26.8982910527
 10
45.8531919739
 20
26.9149568497
 10
45.837178933
 20
26.9281474478
 10
45.8205067357
 20
26.9376927883
 10
45.8033903161
 20
26.9434698085
 10
45.7860503353
 20
26.9454040286
  0
LWPOLYLINE
  5
487
100
AcDbEntity
  8
RACCORDO
100
AcDbPolyline
 62
253
  6
CONTINUOUS
 90
19
 70
0
 10
45.2136620847
 20
35.1519355661
 10
45.2175335282
 20
35.2000841726
 10
45.2259812475
 20
35.2479520906
 10
45.2389929096
 20
35.2955669863
 10
45.2564688121
 20
35.3432646838
 10
45.2784611664
 20
35.3907529672
 10
45.3051807613
 20
35.4371069228
 10
45.3367094387
 20
35.4824282725
 10
45.3728634776
 20
35.5266140782
 10
45.413454978
 20
35.5684083526
 10
45.4585594258
 20
35.60774751
 10
45.5079137564
 20
35.644617652
 10
45.5608316866
 20
35.6778064805
 10
45.6172444299
 20
35.7071241112
 10
45.6769452061
 20
35.7326023983
 10
45.7390706213
 20
35.753341517
 10
45.8032380527
 20
35.7689728483
 10
45.8695015612
 20
35.7796569513
 10
45.9376593107
 20
35.7852786802
  0
LINE
  5
488
100
AcDbEntity
  8
RACCORDO
100
AcDbLine
 62
253
  6
CONTINUOUS
 10
39.6509311767
 20
14.5969993375
 11
38.7928235587
 21
13.1107133448
  0
LINE
  5
489
100
AcDbEntity
  8
RACCORDO
100
AcDbLine
 62
7
  6
CONTINUOUS
 10
40.5169565805
 20
14.0969993375
 11
39.6588489625
 21
12.6107133448
  0
LINE
  5
48A
100
AcDbEntity
  8
0
100
AcDbLine
 62
253
  6
CONTINUOUS
 10
-6.5139496648
 20
86.3954807957
 11
-15.1191853867
 21
86.2452758475
  0
LINE
  5
48B
100
AcDbEntity
  8
0
100
AcDbLine
 62
7
  6
CONTINUOUS
 10
-6.5139496648
 20
86.8954046433
 11
-15.1191853867
 21
86.745199695
  0
LINE
  5
48C
100
AcDbEntity
  8
0
100
AcDbLine
 62
253
  6
CONTINUOUS
 10
-15.4139496648
 20
86.2452758475
 11
-15.1191853867
 21
86.2452758484
  0
LINE
  5
48D
100
AcDbEntity
  8
0
100
AcDbLine
 62
253
  6
CONTINUOUS
 10
2.3860503352
 20
86.2452758475
 11
2.0912860572
 21
86.2452758475
  0
LINE
  5
48E
100
AcDbEntity
  8
0
100
AcDbLine
 62
253
  6
CONTINUOUS
 10
-6.5139496648
 20
86.3954807957
 11
2.0912860572
 21
86.2453284231
  0
LINE
  5
48F
100
AcDbEntity
  8
0
100
AcDbLine
 62
7
  6
CONTINUOUS
 10
-6.5139496648
 20
86.8954046433
 11
2.0912860572
 21
86.745199695
  0
LINE
  5
490
100
AcDbEntity
  8
0
100
AcDbLine
 62
7
  6
CONTINUOUS
 10
30.9860503352
 20
-37.6490873282
 11
25.9860503352
 21
-37.6490873282
  0
LINE
  5
491
100
AcDbEntity
  8
0
100
AcDbLine
 62
7
  6
CONTINUOUS
 10
30.9860503352
 20
-34.9490873282
 11
30.4860503352
 21
-34.9490873282
  0
LINE
  5
492
100
AcDbEntity
  8
0
100
AcDbLine
 62
7
  6
CONTINUOUS
 10
26.4860503352
 20
-34.9490873282
 11
25.9860503352
 21
-34.9490873282
  0
LWPOLYLINE
  5
493
100
AcDbEntity
  8
0
100
AcDbPolyline
 62
7
  6
CONTINUOUS
 90
7
 70
0
 10
27.0360503352
 20
-31.8633835986
 10
27.0220683791
 20
-31.8642514009
 10
27.009490714
 20
-31.8653494045
 10
26.9994900855
 20
-31.8665786586
 10
26.9924331321
 20
-31.8679076865
 10
26.9879532154
 20
-31.869367965
 10
26.9860503352
 20
-31.8709594941
  0
LWPOLYLINE
  5
494
100
AcDbEntity
  8
0
100
AcDbPolyline
 62
7
  6
CONTINUOUS
 90
7
 70
0
 10
26.9612324104
 20
-31.8520084548
 10
26.9260954448
 20
-31.8541892611
 10
26.8946512821
 20
-31.8569342701
 10
26.8696497109
 20
-31.8600074055
 10
26.8520073275
 20
-31.8633299753
 10
26.8408075356
 20
-31.8669806714
 10
26.8360503352
 20
-31.8709594941
  0
LINE
  5
495
100
AcDbEntity
  8
0
100
AcDbLine
 62
7
  6
CONTINUOUS
 10
30.9860503352
 20
-33.9490873282
 11
30.4860503352
 21
-33.9490873282
  0
LINE
  5
496
100
AcDbEntity
  8
0
100
AcDbLine
 62
7
  6
CONTINUOUS
 10
26.4860503352
 20
-33.9490873282
 11
25.9860503352
 21
-33.9490873282
  0
LINE
  5
497
100
AcDbEntity
  8
0
100
AcDbLine
 62
7
  6
CONTINUOUS
 10
30.0860503352
 20
-32.7490873282
 11
26.8860503352
 21
-32.7490873282
  0
LWPOLYLINE
  5
498
100
AcDbEntity
  8
0
100
AcDbPolyline
 62
7
  6
CONTINUOUS
 90
3
 70
0
 10
27.0360503352
 20
-31.8496068576
 10
26.9991455825
 20
-31.8504705433
 10
26.9612324104
 20
-31.8520084548
  0
LINE
  5
499
100
AcDbEntity
  8
0
100
AcDbLine
 62
7
  6
CONTINUOUS
 10
25.9860503352
 20
-31.9490873282
 11
30.9860503352
 21
-31.9490873282
  0
LINE
  5
49A
100
AcDbEntity
  8
RACCORDO
100
AcDbLine
 62
253
  6
CONTINUOUS
 10
30.1360503352
 20
-31.9285896393
 11
29.9860503352
 21
-31.9285896393
  0
LINE
  5
49B
100
AcDbEntity
  8
RACCORDO
100
AcDbLine
 62
253
  6
CONTINUOUS
 10
28.8860503352
 20
-31.9285896393
 11
28.7360503352
 21
-31.9285896393
  0
LINE
  5
49C
100
AcDbEntity
  8
RACCORDO
100
AcDbLine
 62
253
  6
CONTINUOUS
 10
28.2360503352
 20
-31.9285896393
 11
28.0860503352
 21
-31.9285896393
  0
LINE
  5
49D
100
AcDbEntity
  8
RACCORDO
100
AcDbLine
 62
253
  6
CONTINUOUS
 10
26.9860503352
 20
-31.9285896393
 11
26.8360503352
 21
-31.9285896393
  0
LINE
  5
49E
100
AcDbEntity
  8
0
100
AcDbLine
 62
7
  6
CONTINUOUS
 10
30.4860503352
 20
-31.7490873282
 11
26.4860503352
 21
-31.7490873282
  0
LINE
  5
49F
100
AcDbEntity
  8
0
100
AcDbLine
 62
7
  6
CONTINUOUS
 10
29.9729544182
 20
-31.850470505
 11
29.9360503352
 21
-31.8496068406
  0
LINE
  5
4A0
100
AcDbEntity
  8
0
100
AcDbLine
 62
7
  6
CONTINUOUS
 10
30.4860503352
 20
-27.7869367358
 11
26.4860503352
 21
-27.7869367358
  0
LINE
  5
4A1
100
AcDbEntity
  8
0
100
AcDbLine
 62
7
  6
CONTINUOUS
 10
25.9860503352
 20
-37.6490873282
 11
25.9860503352
 21
-31.9490873282
  0
LINE
  5
4A2
100
AcDbEntity
  8
0
100
AcDbLine
 62
7
  6
CONTINUOUS
 10
26.4860503352
 20
-27.7869367358
 11
26.4860503352
 21
-31.7490873282
  0
LINE
  5
4A3
100
AcDbEntity
  8
0
100
AcDbLine
 62
7
  6
CONTINUOUS
 10
26.4860503352
 20
-31.9490873282
 11
26.4860503352
 21
-37.6490873282
  0
LINE
  5
4A4
100
AcDbEntity
  8
RACCORDO
100
AcDbLine
 62
7
  6
CONTINUOUS
 10
26.8360503352
 20
-31.8709594941
 11
26.8360503352
 21
-31.9490873282
  0
LINE
  5
4A5
100
AcDbEntity
  8
0
100
AcDbLine
 62
7
  6
CONTINUOUS
 10
26.8860503352
 20
-37.6490873282
 11
26.8860503352
 21
-31.9490873282
  0
LINE
  5
4A6
100
AcDbEntity
  8
RACCORDO
100
AcDbLine
 62
7
  6
CONTINUOUS
 10
26.9860503352
 20
-31.8709594941
 11
26.9860503352
 21
-31.9490873282
  0
LINE
  5
4A7
100
AcDbEntity
  8
0
100
AcDbLine
 62
7
  6
CONTINUOUS
 10
27.0360503352
 20
-31.9490873282
 11
27.0360503352
 21
-31.7490873282
  0
LINE
  5
4A8
100
AcDbEntity
  8
ASSI
100
AcDbLine
 62
7
  6
CONTINUOUS
 10
27.0360503352
 20
-31.7490873282
 11
27.0360503352
 21
-31.9490873282
  0
LINE
  5
4A9
100
AcDbEntity
  8
RACCORDO
100
AcDbLine
 62
7
  6
CONTINUOUS
 10
27.4860503352
 20
-31.9490873282
 11
27.4860503352
 21
-31.9285896393
  0
LINE
  5
4AA
100
AcDbEntity
  8
RACCORDO
100
AcDbLine
 62
7
  6
CONTINUOUS
 10
27.6360503352
 20
-31.9285896393
 11
27.6360503352
 21
-31.9490873282
  0
LINE
  5
4AB
100
AcDbEntity
  8
0
100
AcDbLine
 62
7
  6
CONTINUOUS
 10
27.9360503352
 20
-31.9490873282
 11
27.9360503352
 21
-31.7490873282
  0
LINE
  5
4AC
100
AcDbEntity
  8
ASSI
100
AcDbLine
 62
7
  6
CONTINUOUS
 10
27.9360503352
 20
-31.7490873282
 11
27.9360503352
 21
-31.9490873282
  0
LWPOLYLINE
  5
4AD
100
AcDbEntity
  8
0
100
AcDbPolyline
 62
7
  6
CONTINUOUS
 90
7
 70
0
 10
29.9860503352
 20
-31.8709594941
 10
29.984147575
 20
-31.86936798
 10
29.9796677114
 20
-31.8679077096
 10
29.9726107444
 20
-31.8665786828
 10
29.9626099867
 20
-31.8653494185
 10
29.9500321257
 20
-31.8642513979
 10
29.9360503352
 20
-31.8633836019
  0
LWPOLYLINE
  5
4AE
100
AcDbEntity
  8
0
100
AcDbPolyline
 62
7
  6
CONTINUOUS
 90
8
 70
0
 10
30.1360503352
 20
-31.8709594941
 10
30.1312934345
 20
-31.8669807089
 10
30.1200937755
 20
-31.8633300328
 10
30.1024513582
 20
-31.8600074658
 10
30.0774494639
 20
-31.8569343052
 10
30.0460048113
 20
-31.8541892536
 10
30.0108675565
 20
-31.8520084193
 10
29.9729544182
 20
-31.850470505
  0
LINE
  5
4AF
100
AcDbEntity
  8
0
100
AcDbLine
 62
7
  6
CONTINUOUS
 10
28.0360503352
 20
-31.9490873282
 11
28.0360503352
 21
-31.7490873282
  0
LINE
  5
4B0
100
AcDbEntity
  8
ASSI
100
AcDbLine
 62
7
  6
CONTINUOUS
 10
28.0360503352
 20
-31.7490873282
 11
28.0360503352
 21
-31.9490873282
  0
LINE
  5
4B1
100
AcDbEntity
  8
RACCORDO
100
AcDbLine
 62
7
  6
CONTINUOUS
 10
28.0860503352
 20
-31.9490873282
 11
28.0860503352
 21
-31.9285896393
  0
LINE
  5
4B2
100
AcDbEntity
  8
RACCORDO
100
AcDbLine
 62
7
  6
CONTINUOUS
 10
28.2360503352
 20
-31.9285896393
 11
28.2360503352
 21
-31.9490873282
  0
LINE
  5
4B3
100
AcDbEntity
  8
RACCORDO
100
AcDbLine
 62
7
  6
CONTINUOUS
 10
28.7360503352
 20
-31.9490873282
 11
28.7360503352
 21
-31.9285896393
  0
LINE
  5
4B4
100
AcDbEntity
  8
RACCORDO
100
AcDbLine
 62
7
  6
CONTINUOUS
 10
28.8860503352
 20
-31.9285896393
 11
28.8860503352
 21
-31.9490873282
  0
LINE
  5
4B5
100
AcDbEntity
  8
0
100
AcDbLine
 62
7
  6
CONTINUOUS
 10
28.9360503352
 20
-31.9490873282
 11
28.9360503352
 21
-31.7490873282
  0
LINE
  5
4B6
100
AcDbEntity
  8
ASSI
100
AcDbLine
 62
7
  6
CONTINUOUS
 10
28.9360503352
 20
-31.7490873282
 11
28.9360503352
 21
-31.9490873282
  0
LINE
  5
4B7
100
AcDbEntity
  8
0
100
AcDbLine
 62
7
  6
CONTINUOUS
 10
29.0360503352
 20
-31.9490873282
 11
29.0360503352
 21
-31.7490873282
  0
LINE
  5
4B8
100
AcDbEntity
  8
ASSI
100
AcDbLine
 62
7
  6
CONTINUOUS
 10
29.0360503352
 20
-31.7490873282
 11
29.0360503352
 21
-31.9490873282
  0
LINE
  5
4B9
100
AcDbEntity
  8
RACCORDO
100
AcDbLine
 62
7
  6
CONTINUOUS
 10
29.3360503352
 20
-31.9490873282
 11
29.3360503352
 21
-31.9285896393
  0
LINE
  5
4BA
100
AcDbEntity
  8
RACCORDO
100
AcDbLine
 62
7
  6
CONTINUOUS
 10
29.4860503352
 20
-31.9285896393
 11
29.4860503352
 21
-31.9490873282
  0
LINE
  5
4BB
100
AcDbEntity
  8
0
100
AcDbLine
 62
7
  6
CONTINUOUS
 10
29.9360503352
 20
-31.9490873282
 11
29.9360503352
 21
-31.7490873282
  0
LINE
  5
4BC
100
AcDbEntity
  8
ASSI
100
AcDbLine
 62
7
  6
CONTINUOUS
 10
29.9360503352
 20
-31.7490873282
 11
29.9360503352
 21
-31.9490873282
  0
LINE
  5
4BD
100
AcDbEntity
  8
RACCORDO
100
AcDbLine
 62
7
  6
CONTINUOUS
 10
29.9860503352
 20
-31.8709594941
 11
29.9860503352
 21
-31.9490873282
  0
LINE
  5
4BE
100
AcDbEntity
  8
0
100
AcDbLine
 62
7
  6
CONTINUOUS
 10
30.0860503352
 20
-37.6490873282
 11
30.0860503352
 21
-31.9490873282
  0
LINE
  5
4BF
100
AcDbEntity
  8
RACCORDO
100
AcDbLine
 62
7
  6
CONTINUOUS
 10
30.1360503352
 20
-31.8709594941
 11
30.1360503352
 21
-31.9490873282
  0
LINE
  5
4C0
100
AcDbEntity
  8
0
100
AcDbLine
 62
7
  6
CONTINUOUS
 10
30.4860503352
 20
-27.7869367358
 11
30.4860503352
 21
-31.7490873282
  0
LINE
  5
4C1
100
AcDbEntity
  8
0
100
AcDbLine
 62
7
  6
CONTINUOUS
 10
30.4860503352
 20
-31.9490873282
 11
30.4860503352
 21
-37.6490873282
  0
LINE
  5
4C2
100
AcDbEntity
  8
0
100
AcDbLine
 62
7
  6
CONTINUOUS
 10
30.9860503352
 20
-37.6490873282
 11
30.9860503352
 21
-31.9490873282
  0
ARC
  5
4C3
100
AcDbEntity
  8
0
100
AcDbCircle
 62
7
  6
CONTINUOUS
 10
-10.9139496648
 20
-5.9719426089
 40
1.5
100
AcDbArc
 50
180.0
 51
267.0
  0
ARC
  5
4C4
100
AcDbEntity
  8
0
100
AcDbCircle
 62
7
  6
CONTINUOUS
 10
-10.9139496648
 20
0.3627518954
 40
1.5
100
AcDbArc
 50
93.0
 51
180.0
  0
ARC
  5
4C5
100
AcDbEntity
  8
0
100
AcDbCircle
 62
7
  6
CONTINUOUS
 10
-12.5139496648
 20
-6.688776335
 40
1.0
100
AcDbArc
 50
180.0
 51
267.0
  0
ARC
  5
4C6
100
AcDbEntity
  8
0
100
AcDbCircle
 62
7
  6
CONTINUOUS
 10
-12.5139496648
 20
1.0795856216
 40
1.0
100
AcDbArc
 50
93.0
 51
180.0
  0
ARC
  5
4C7
100
AcDbEntity
  8
0
100
AcDbCircle
 62
7
  6
CONTINUOUS
 10
-13.6139496648
 20
-22.5805882317
 40
0.5
100
AcDbArc
 50
180.0
 51
269.0
  0
ARC
  5
4C8
100
AcDbEntity
  8
0
100
AcDbCircle
 62
7
  6
CONTINUOUS
 10
-13.6139496648
 20
-17.2286024817
 40
0.5
100
AcDbArc
 50
91.0
 51
180.0
  0
ARC
  5
4C9
100
AcDbEntity
  8
0
100
AcDbCircle
 62
7
  6
CONTINUOUS
 10
-15.1139496648
 20
-24.0544360999
 40
0.3
100
AcDbArc
 50
180.0
 51
269.0
  0
ARC
  5
4CA
100
AcDbEntity
  8
0
100
AcDbCircle
 62
7
  6
CONTINUOUS
 10
-10.9139496648
 20
28.0280573911
 40
1.5
100
AcDbArc
 50
180.0
 51
267.0
  0
ARC
  5
4CB
100
AcDbEntity
  8
0
100
AcDbCircle
 62
7
  6
CONTINUOUS
 10
-12.5139496648
 20
27.311223665
 40
1.0
100
AcDbArc
 50
180.0
 51
267.0
  0
ARC
  5
4CC
100
AcDbEntity
  8
0
100
AcDbCircle
 62
7
  6
CONTINUOUS
 10
-15.1139496648
 20
12.9952453865
 40
0.3
100
AcDbArc
 50
91.0
 51
180.0
  0
ARC
  5
4CD
100
AcDbEntity
  8
0
100
AcDbCircle
 62
7
  6
CONTINUOUS
 10
-15.1139496648
 20
14.7952453865
 40
0.3
100
AcDbArc
 50
91.0
 51
180.0
  0
ARC
  5
4CE
100
AcDbEntity
  8
0
100
AcDbCircle
 62
7
  6
CONTINUOUS
 10
0.5860503352
 20
-22.5805882317
 40
0.5
100
AcDbArc
 50
271.0
 51
360.0
  0
ARC
  5
4CF
100
AcDbEntity
  8
0
100
AcDbCircle
 62
7
  6
CONTINUOUS
 10
0.5860503352
 20
-17.2286024817
 40
0.5
100
AcDbArc
 50
0.0
 51
89.0
  0
ARC
  5
4D0
100
AcDbEntity
  8
0
100
AcDbCircle
 62
7
  6
CONTINUOUS
 10
2.0860503352
 20
-24.0544360999
 40
0.3
100
AcDbArc
 50
271.0
 51
360.0
  0
ARC
  5
4D1
100
AcDbEntity
  8
RACCORDO
100
AcDbCircle
 62
253
  6
CONTINUOUS
 10
12.125017071
 20
11.5969993375
 40
6.0
100
AcDbArc
 50
30.0
 51
50.1443807693
  0
ARC
  5
4D2
100
AcDbEntity
  8
RACCORDO
100
AcDbCircle
 62
7
  6
CONTINUOUS
 10
12.125017071
 20
11.5969993375
 40
5.0
100
AcDbArc
 50
30.0
 51
50.1443807693
  0
ARC
  5
4D3
100
AcDbEntity
  8
0
100
AcDbCircle
 62
7
  6
CONTINUOUS
 10
2.0860503352
 20
14.7952453865
 40
0.3
100
AcDbArc
 50
0.0
 51
89.0
  0
ARC
  5
4D4
100
AcDbEntity
  8
0
100
AcDbCircle
 62
7
  6
CONTINUOUS
 10
2.0860503352
 20
12.9952415957
 40
0.3
100
AcDbArc
 50
0.0007239881
 51
89.000012634
  0
ARC
  5
4D5
100
AcDbEntity
  8
RACCORDO
100
AcDbCircle
 62
7
  6
CONTINUOUS
 10
10.348037765
 20
26.6454046433
 40
0.3
100
AcDbArc
 50
90.0
 51
194.0823073187
  0
ARC
  5
4D6
100
AcDbEntity
  8
RACCORDO
100
AcDbCircle
 62
7
  6
CONTINUOUS
 10
15.4766318514
 20
17.7624308523
 40
0.3
100
AcDbArc
 50
225.9180075982
 51
329.9987056977
  0
ARC
  5
4D7
100
AcDbEntity
  8
RACCORDO
100
AcDbCircle
 62
7
  6
CONTINUOUS
 10
11.1860503352
 20
27.2454046433
 40
0.3
100
AcDbArc
 50
270.0
 51
360.0
  0
ARC
  5
4D8
100
AcDbEntity
  8
0
100
AcDbCircle
 62
7
  6
CONTINUOUS
 10
-10.9139496648
 20
34.3627518954
 40
1.5
100
AcDbArc
 50
93.0
 51
180.0
  0
ARC
  5
4D9
100
AcDbEntity
  8
0
100
AcDbCircle
 62
7
  6
CONTINUOUS
 10
-12.5139496648
 20
35.0795856216
 40
1.0
100
AcDbArc
 50
93.0
 51
180.0
  0
ARC
  5
4DA
100
AcDbEntity
  8
0
100
AcDbCircle
 62
7
  6
CONTINUOUS
 10
-15.1139496648
 20
49.3955639001
 40
0.3
100
AcDbArc
 50
180.0
 51
269.0
  0
ARC
  5
4DB
100
AcDbEntity
  8
0
100
AcDbCircle
 62
7
  6
CONTINUOUS
 10
-15.1139496648
 20
86.4452453865
 40
0.3
100
AcDbArc
 50
91.0
 51
180.0
  0
ARC
  5
4DC
100
AcDbEntity
  8
0
100
AcDbCircle
 62
7
  6
CONTINUOUS
 10
-15.1139496648
 20
52.1455676909
 40
0.3
100
AcDbArc
 50
180.0007239881
 51
269.000012634
  0
ARC
  5
4DD
100
AcDbEntity
  8
0
100
AcDbCircle
 62
7
  6
CONTINUOUS
 10
2.0860503352
 20
52.1455639001
 40
0.3
100
AcDbArc
 50
271.0
 51
360.0
  0
ARC
  5
4DE
100
AcDbEntity
  8
0
100
AcDbCircle
 62
7
  6
CONTINUOUS
 10
2.0860503352
 20
86.4452453865
 40
0.3
100
AcDbArc
 50
0.0
 51
89.0
  0
ARC
  5
4DF
100
AcDbEntity
  8
0
100
AcDbCircle
 62
7
  6
CONTINUOUS
 10
2.0860503352
 20
49.3955639001
 40
0.3
100
AcDbArc
 50
271.0
 51
360.0
  0
ARC
  5
4E0
100
AcDbEntity
  8
RACCORDO
100
AcDbCircle
 62
7
  6
CONTINUOUS
 10
15.4766284629
 20
44.6283843033
 40
0.3
100
AcDbArc
 50
30.0
 51
134.0823073187
  0
ARC
  5
4E1
100
AcDbEntity
  8
RACCORDO
100
AcDbCircle
 62
7
  6
CONTINUOUS
 10
10.3480445419
 20
35.7454046433
 40
0.3
100
AcDbArc
 50
165.9180075982
 51
269.9987056977
  0
ARC
  5
4E2
100
AcDbEntity
  8
RACCORDO
100
AcDbCircle
 62
7
  6
CONTINUOUS
 10
11.1860503352
 20
35.1454046433
 40
0.3
100
AcDbArc
 50
0.0
 51
90.0
  0
ARC
  5
4E3
100
AcDbEntity
  8
RACCORDO
100
AcDbCircle
 62
7
  6
CONTINUOUS
 10
19.0453025156
 20
13.6107133448
 40
2.0
100
AcDbArc
 50
210.0
 51
239.3705012297
  0
ARC
  5
4E4
100
AcDbEntity
  8
RACCORDO
100
AcDbCircle
 62
253
  6
CONTINUOUS
 10
19.0453025156
 20
13.6107133448
 40
1.0
100
AcDbArc
 50
210.0
 51
239.3705012297
  0
ARC
  5
4E5
100
AcDbEntity
  8
RACCORDO
100
AcDbCircle
 62
7
  6
CONTINUOUS
 10
23.3574596373
 20
13.2124249832
 40
0.3
100
AcDbArc
 50
150.0
 51
254.0823073187
  0
ARC
  5
4E6
100
AcDbEntity
  8
RACCORDO
100
AcDbCircle
 62
7
  6
CONTINUOUS
 10
16.4152499903
 20
18.1881651578
 40
0.3
100
AcDbArc
 50
60.0
 51
150.0
  0
ARC
  5
4E7
100
AcDbEntity
  8
RACCORDO
100
AcDbCircle
 62
7
  6
CONTINUOUS
 10
23.2568506802
 20
14.2381651578
 40
0.3
100
AcDbArc
 50
330.0
 51
60.0
  0
ARC
  5
4E8
100
AcDbEntity
  8
RACCORDO
100
AcDbCircle
 62
7
  6
CONTINUOUS
 10
28.4860503352
 20
29.5554046433
 40
20.53
100
AcDbArc
 50
239.3705012297
 51
300.6294987703
  0
ARC
  5
4E9
100
AcDbEntity
  8
RACCORDO
100
AcDbCircle
 62
253
  6
CONTINUOUS
 10
28.4860503352
 20
29.5554046433
 40
19.53
100
AcDbArc
 50
239.3705012297
 51
300.6294987703
  0
ARC
  5
4EA
100
AcDbEntity
  8
RACCORDO
100
AcDbCircle
 62
253
  6
CONTINUOUS
 10
44.8470835994
 20
11.5969993375
 40
6.0
100
AcDbArc
 50
129.8556192307
 51
150.0
  0
ARC
  5
4EB
100
AcDbEntity
  8
RACCORDO
100
AcDbCircle
 62
7
  6
CONTINUOUS
 10
44.8470835994
 20
11.5969993375
 40
5.0
100
AcDbArc
 50
129.8556192307
 51
150.0
  0
ARC
  5
4EC
100
AcDbEntity
  8
RACCORDO
100
AcDbCircle
 62
7
  6
CONTINUOUS
 10
37.9267981549
 20
13.6107133448
 40
2.0
100
AcDbArc
 50
300.6294987703
 51
330.0
  0
ARC
  5
4ED
100
AcDbEntity
  8
RACCORDO
100
AcDbCircle
 62
253
  6
CONTINUOUS
 10
37.9267981549
 20
13.6107133448
 40
1.0
100
AcDbArc
 50
300.6294987703
 51
330.0
  0
ARC
  5
4EE
100
AcDbEntity
  8
RACCORDO
100
AcDbCircle
 62
7
  6
CONTINUOUS
 10
33.6146376447
 20
13.2124308523
 40
0.3
100
AcDbArc
 50
285.9180075982
 51
29.9987056977
  0
ARC
  5
4EF
100
AcDbEntity
  8
RACCORDO
100
AcDbCircle
 62
7
  6
CONTINUOUS
 10
41.4954722076
 20
17.7624249832
 40
0.3
100
AcDbArc
 50
210.0
 51
314.0823073187
  0
ARC
  5
4F0
100
AcDbEntity
  8
RACCORDO
100
AcDbCircle
 62
7
  6
CONTINUOUS
 10
33.7152499903
 20
14.2381651578
 40
0.3
100
AcDbArc
 50
120.0
 51
210.0
  0
ARC
  5
4F1
100
AcDbEntity
  8
RACCORDO
100
AcDbCircle
 62
7
  6
CONTINUOUS
 10
40.5568506802
 20
18.1881651578
 40
0.3
100
AcDbArc
 50
30.0
 51
120.0
  0
ARC
  5
4F2
100
AcDbEntity
  8
RACCORDO
100
AcDbCircle
 62
7
  6
CONTINUOUS
 10
46.6240561394
 20
26.6454046433
 40
0.3
100
AcDbArc
 50
345.9180070964
 51
89.9987077601
  0
ARC
  5
4F3
100
AcDbEntity
  8
RACCORDO
100
AcDbCircle
 62
7
  6
CONTINUOUS
 10
45.7860503352
 20
27.2454046433
 40
0.3
100
AcDbArc
 50
180.0
 51
270.0
  0
ARC
  5
4F4
100
AcDbEntity
  8
RACCORDO
100
AcDbCircle
 62
7
  6
CONTINUOUS
 10
28.4860503352
 20
31.1954046433
 40
20.53
100
AcDbArc
 50
309.8556192307
 51
230.1443807693
  0
ARC
  5
4F5
100
AcDbEntity
  8
RACCORDO
100
AcDbCircle
 62
253
  6
CONTINUOUS
 10
28.4860503352
 20
31.1954046433
 40
19.53
100
AcDbArc
 50
309.8556192307
 51
230.1443807693
  0
ARC
  5
4F6
100
AcDbEntity
  8
RACCORDO
100
AcDbCircle
 62
7
  6
CONTINUOUS
 10
28.4860503352
 20
31.1954046433
 40
19.0
100
AcDbArc
 50
314.0823073187
 51
345.9176926813
  0
ARC
  5
4F7
100
AcDbEntity
  8
RACCORDO
100
AcDbCircle
 62
7
  6
CONTINUOUS
 10
28.4860503352
 20
31.1954046433
 40
19.0
100
AcDbArc
 50
254.0823073187
 51
285.9176926813
  0
ARC
  5
4F8
100
AcDbEntity
  8
RACCORDO
100
AcDbCircle
 62
7
  6
CONTINUOUS
 10
28.4860503352
 20
31.1954046433
 40
19.0
100
AcDbArc
 50
194.0823073187
 51
225.9176926813
  0
ARC
  5
4F9
100
AcDbEntity
  8
RACCORDO
100
AcDbCircle
 62
7
  6
CONTINUOUS
 10
28.4860503352
 20
31.1954046433
 40
19.0
100
AcDbArc
 50
74.0823073187
 51
105.9176926813
  0
ARC
  5
4FA
100
AcDbEntity
  8
RACCORDO
100
AcDbCircle
 62
7
  6
CONTINUOUS
 10
28.4860503352
 20
31.1954046433
 40
19.0
100
AcDbArc
 50
134.0823073187
 51
165.9176926813
  0
ARC
  5
4FB
100
AcDbEntity
  8
RACCORDO
100
AcDbCircle
 62
7
  6
CONTINUOUS
 10
28.4860503352
 20
31.1954046433
 40
19.0
100
AcDbArc
 50
14.0823073187
 51
45.9176926813
  0
ARC
  5
4FC
100
AcDbEntity
  8
RACCORDO
100
AcDbCircle
 62
253
  6
CONTINUOUS
 10
28.4860503352
 20
31.1954046433
 40
17.0
100
AcDbArc
 50
310.7798952194
 51
349.2201047692
  0
ARC
  5
4FD
100
AcDbEntity
  8
RACCORDO
100
AcDbCircle
 62
253
  6
CONTINUOUS
 10
28.4860503352
 20
31.1954046433
 40
17.0
100
AcDbArc
 50
250.7798952194
 51
289.2201047691
  0
ARC
  5
4FE
100
AcDbEntity
  8
RACCORDO
100
AcDbCircle
 62
253
  6
CONTINUOUS
 10
28.4860503352
 20
31.1954046433
 40
17.0
100
AcDbArc
 50
190.7798952194
 51
229.2201047692
  0
ARC
  5
4FF
100
AcDbEntity
  8
RACCORDO
100
AcDbCircle
 62
253
  6
CONTINUOUS
 10
28.4860503352
 20
31.1954046433
 40
17.0
100
AcDbArc
 50
70.7798952194
 51
109.2201047691
  0
ARC
  5
500
100
AcDbEntity
  8
RACCORDO
100
AcDbCircle
 62
253
  6
CONTINUOUS
 10
28.4860503352
 20
31.1954046433
 40
17.0
100
AcDbArc
 50
130.7798952194
 51
169.2201047692
  0
ARC
  5
501
100
AcDbEntity
  8
RACCORDO
100
AcDbCircle
 62
253
  6
CONTINUOUS
 10
28.4860503352
 20
31.1954046433
 40
17.0
100
AcDbArc
 50
10.7798952525
 51
49.2201047353
  0
CIRCLE
  5
502
100
AcDbEntity
  8
RACCORDO
100
AcDbCircle
 62
253
  6
CONTINUOUS
 10
28.4860503352
 20
31.1954046433
 40
5.75
  0
CIRCLE
  5
503
100
AcDbEntity
  8
RACCORDO
100
AcDbCircle
 62
7
  6
CONTINUOUS
 10
28.4860503352
 20
31.1954046433
 40
3.75
  0
ARC
  5
504
100
AcDbEntity
  8
RACCORDO
100
AcDbCircle
 62
7
  6
CONTINUOUS
 10
23.3574630258
 20
49.1783784343
 40
0.3
100
AcDbArc
 50
105.9180075982
 51
209.9987056977
  0
ARC
  5
505
100
AcDbEntity
  8
RACCORDO
100
AcDbCircle
 62
7
  6
CONTINUOUS
 10
23.2568506802
 20
48.1526441288
 40
0.3
100
AcDbArc
 50
300.0
 51
30.0
  0
ARC
  5
506
100
AcDbEntity
  8
RACCORDO
100
AcDbCircle
 62
7
  6
CONTINUOUS
 10
16.4152499903
 20
44.2026441288
 40
0.3
100
AcDbArc
 50
210.0
 51
300.0
  0
ARC
  5
507
100
AcDbEntity
  8
RACCORDO
100
AcDbCircle
 62
7
  6
CONTINUOUS
 10
46.6240629055
 20
35.7454046433
 40
0.3
100
AcDbArc
 50
270.0
 51
14.0823073187
  0
ARC
  5
508
100
AcDbEntity
  8
RACCORDO
100
AcDbCircle
 62
7
  6
CONTINUOUS
 10
45.7860503352
 20
35.1454046433
 40
0.3
100
AcDbArc
 50
90.0
 51
180.0
  0
ARC
  5
509
100
AcDbEntity
  8
RACCORDO
100
AcDbCircle
 62
7
  6
CONTINUOUS
 10
41.4954688191
 20
44.6283784343
 40
0.3
100
AcDbArc
 50
45.9180075982
 51
149.9987056977
  0
ARC
  5
50A
100
AcDbEntity
  8
RACCORDO
100
AcDbCircle
 62
7
  6
CONTINUOUS
 10
33.6146410332
 20
49.1783843033
 40
0.3
100
AcDbArc
 50
330.0
 51
74.0823073187
  0
ARC
  5
50B
100
AcDbEntity
  8
RACCORDO
100
AcDbCircle
 62
7
  6
CONTINUOUS
 10
40.5568506802
 20
44.2026441288
 40
0.3
100
AcDbArc
 50
240.0
 51
330.0
  0
ARC
  5
50C
100
AcDbEntity
  8
RACCORDO
100
AcDbCircle
 62
7
  6
CONTINUOUS
 10
33.7152499903
 20
48.1526441288
 40
0.3
100
AcDbArc
 50
150.0
 51
240.0
  0
ENDSEC
  0
SECTION
  2
OBJECTS
  0
DICTIONARY
  5
C
100
AcDbDictionary
280
0
281
1
  3
ACAD_GROUP
350
D
  3
ACAD_MLINESTYLE
350
17
  3
ACAD_LAYOUT
350
1A
  3
ACAD_PLOTSETTINGS
350
19
  3
ACAD_PLOTSTYLENAME
350
E
  0
DICTIONARY
  5
D
102
{ACAD_REACTORS
330
C
102
}
100
AcDbDictionary
280
0
281
1
  0
ACDBDICTIONARYWDFLT
  5
E
102
{ACAD_REACTORS
330
C
102
}
100
AcDbDictionary
281
1
  3
Normal
350
F
100
AcDbDictionaryWithDefault
340
F
  0
DICTIONARY
  5
17
102
{ACAD_REACTORS
330
C
102
}
100
AcDbDictionary
280
0
281
1
  3
Standard
350
18
  0
DICTIONARY
  5
19
102
{ACAD_REACTORS
330
C
102
}
100
AcDbDictionary
281
1
  0
DICTIONARY
  5
1A
102
{ACAD_REACTORS
330
C
102
}
100
AcDbDictionary
281
1
  3
Model
350
50D
  3
Layout1
350
50E
  0
ACDBPLACEHOLDER
  5
F
102
{ACAD_REACTORS
330
E
102
}
  0
MLINESTYLE
  5
18
102
{ACAD_REACTORS
330
17
102
}
100
AcDbMlineStyle
  2
STANDARD
 70
0
  3

 62
256
 51
90.0
 52
90.0
 71
2
 49
0.5
 62
256
  6
BYLAYER
 49
-0.5
 62
256
  6
BYLAYER
  0
LAYOUT
  5
50D
102
{ACAD_REACTORS
330
1A
102
}
100
AcDbPlotSettings
  1

  2
none_device
  4
ISO_A4_(297.00_x_210.00_MM)
  6

 40
0.0
 41
0.0
 42
0.0
 43
0.0
 44
297.0
 45
210.0
 46
0.0
 47
0.0
 48
0.0
 49
0.0
140
0.0
141
0.0
142
1.0
143
1.0
 70
1024
 72
1
 73
0
 74
0
  7

 75
0
147
1.0
148
0.0
149
0.0
100
AcDbLayout
  1
Model
 70
0
 71
0
 10
0.0
 20
0.0
 11
297.0
 21
210.0
 12
0.0
 22
0.0
 32
0.0
 14
0.0
 24
0.0
 34
0.0
 15
0.0
 25
0.0
 35
0.0
146
0.0
 13
0.0
 23
0.0
 33
0.0
 16
1.0
 26
0.0
 36
0.0
 17
0.0
 27
1.0
 37
0.0
 76
0
330
33E
345
0
346
0
  0
LAYOUT
  5
50E
102
{ACAD_REACTORS
330
1A
102
}
100
AcDbPlotSettings
  1

  2
none_device
  4
ISO_A4_(297.00_x_210.00_MM)
  6

 40
0.0
 41
0.0
 42
0.0
 43
0.0
 44
297.0
 45
210.0
 46
0.0
 47
0.0
 48
0.0
 49
0.0
140
0.0
141
0.0
142
1.0
143
1.0
 70
0
 72
1
 73
0
 74
0
  7

 75
0
147
1.0
148
0.0
149
0.0
100
AcDbLayout
  1
Layout1
 70
0
 71
1
 10
0.0
 20
0.0
 11
297.0
 21
210.0
 12
0.0
 22
0.0
 32
0.0
 14
0.0
 24
0.0
 34
0.0
 15
0.0
 25
0.0
 35
0.0
146
0.0
 13
0.0
 23
0.0
 33
0.0
 16
1.0
 26
0.0
 36
0.0
 17
0.0
 27
1.0
 37
0.0
 76
0
330
33F
345
0
346
0
  0
ENDSEC
  0
EOF
