  0
SECTION
  2
HEADER
  9
$ACADVER
  1
AC1015
  9
$DWGCODEPAGE
  3
ANSI_1252
  9
$EXTMAX
 10
297.0
 20
210.0
 30
0.0
  9
$EXTMIN
 10
0.0
 20
0.0
 30
0.0
  9
$LIMMIN
 10
0.0
 20
0.0
  9
$LIMMAX
 10
297.0
 20
210.0
  9
$VIEWCTR
 10
148.5
 20
105.0
  9
$VIEWSIZE
 40
210.0
  9
$CLAYER
  8
0
  9
$LTSCALE
 40
16.335
  9
$CELTYPE
  6
BYLAYER
  9
$DIMSCALE
 40
1.0
  9
$DIMASZ
 40
3.0
  9
$DIMEXO
 40
0.5
  9
$DIMDLI
 40
11.286
  9
$DIMEXE
 40
1.5
  9
$DIMCEN
 40
2.673
  9
$DIMLFAC
 40
1.0
  9
$DIMBLK
  1
_FILLED
  9
$DIMTXT
 40
3.0
  9
$DIMTOL
 70
1
  9
$DIMLIM
 70
0
  9
$DIMTFAC
 40
1.0
  9
$DIMTP
 40
0.01
  9
$DIMTM
 40
0.01
  9
$DIMGAP
 40
0.625
  9
$DIMDSEP
 70
44
  9
$PDMODE
 70
3
  9
$PDSIZE
 40
3.0
  9
$HANDSEED
  5
8EC
  9
$TILEMODE
 70
1
  9
$MEASUREMENT
 70
1
  9
$INSUNITS
 70
4
  0
ENDSEC
  0
SECTION
  2
CLASSES
  0
CLASS
  1
ACDBDICTIONARYWDFLT
  2
AcDbDictionaryWithDefault
  3
AutoCAD 2000
 90
0
280
0
281
0
  0
CLASS
  1
ACDBPLACEHOLDER
  2
AcDbPlaceHolder
  3
AutoCAD 2000
 90
0
280
0
281
0
  0
CLASS
  1
LAYOUT
  2
AcDbLayout
  3
AutoCAD 2000
 90
0
280
0
281
0
  0
ENDSEC
  0
SECTION
  2
TABLES
  0
TABLE
  2
VPORT
  5
8
100
AcDbSymbolTable
 70
2
  0
VPORT
  5
1F4
100
AcDbSymbolTableRecord
100
AcDbViewportTableRecord
  2
*ACTIVE
 70
0
 10
0.0
 20
0.0
 11
1.0
 21
1.0
 12
148.5
 22
105.0
 13
0.0
 23
0.0
 14
1.0
 24
1.0
 15
0.0
 25
0.0
 16
0.0
 26
0.0
 36
1.0
 17
0.0
 27
0.0
 37
0.0
 40
210.0
 41
1.4142857143
 42
50.0
 43
0.0
 44
0.0
 50
0.0
 51
0.0
 71
0
 72
100
 73
1
 74
1
 75
0
 76
0
 77
0
 78
0
  0
ENDTAB
  0
TABLE
  2
LTYPE
  5
5
100
AcDbSymbolTable
 70
6
  0
LTYPE
  5
14
100
AcDbSymbolTableRecord
100
AcDbLinetypeTableRecord
  2
BYBLOCK
 70
0
  3

 72
65
 73
0
 40
0.0
  0
LTYPE
  5
15
100
AcDbSymbolTableRecord
100
AcDbLinetypeTableRecord
  2
BYLAYER
 70
0
  3

 72
65
 73
0
 40
0.0
  0
LTYPE
  5
16
100
AcDbSymbolTableRecord
100
AcDbLinetypeTableRecord
  2
CONTINUOUS
 70
64
  3
Solid line
 72
65
 73
0
 40
0.0
  0
LTYPE
  5
1F5
100
AcDbSymbolTableRecord
100
AcDbLinetypeTableRecord
  2
CENTER
 70
64
  3
____ _ ____ _ ____ _ ____ _ ____ _ ____ _ ____
 72
65
 73
4
 40
0.6
 49
0.375
 74
0
 49
-0.075
 74
0
 49
0.075
 74
0
 49
-0.075
 74
0
  0
LTYPE
  5
1F6
100
AcDbSymbolTableRecord
100
AcDbLinetypeTableRecord
  2
HIDDEN
 70
64
  3
- - - - - - - - - - - - - - - - - - - -
 72
65
 73
2
 40
0.2
 49
0.1
 74
0
 49
-0.1
 74
0
  0
LTYPE
  5
1F7
100
AcDbSymbolTableRecord
100
AcDbLinetypeTableRecord
  2
PHANTOM
 70
64
  3
_____ _ _ _____ _ _ _____ _ _ _____
 72
65
 73
6
 40
0.8
 49
0.45
 74
0
 49
-0.05
 74
0
 49
0.1
 74
0
 49
-0.05
 74
0
 49
0.1
 74
0
 49
-0.05
 74
0
  0
LTYPE
  5
1F8
100
AcDbSymbolTableRecord
100
AcDbLinetypeTableRecord
  2
DOT
 70
64
  3
. . . . . . . . . . . . . . . . . . . .
 72
65
 73
2
 40
0.2
 49
0.1
 74
0
 49
-0.1
 74
0
  0
LTYPE
  5
1F9
100
AcDbSymbolTableRecord
100
AcDbLinetypeTableRecord
  2
DASHED
 70
64
  3
- - - - - - - - - - - - - - - - - - - -
 72
65
 73
2
 40
0.2
 49
0.1
 74
0
 49
-0.1
 74
0
  0
ENDTAB
  0
TABLE
  2
LAYER
  5
2
100
AcDbSymbolTable
 70
36
  0
LAYER
  5
10
100
AcDbSymbolTableRecord
100
AcDbLayerTableRecord
  2
0
 70
0
 62
7
  6
CONTINUOUS
370
-3
390
F
  0
LAYER
  5
1FA
100
AcDbSymbolTableRecord
100
AcDbLayerTableRecord
  2
DEFAULT_1
 70
0
 62
7
  6
CENTER
370
-3
390
F
  0
LAYER
  5
1FB
100
AcDbSymbolTableRecord
100
AcDbLayerTableRecord
  2
DEFAULT_2
 70
0
 62
7
  6
HIDDEN
370
-3
390
F
  0
LAYER
  5
1FC
100
AcDbSymbolTableRecord
100
AcDbLayerTableRecord
  2
DEFAULT_3
 70
0
 62
7
  6
PHANTOM
370
-3
390
F
  0
LAYER
  5
1FD
100
AcDbSymbolTableRecord
100
AcDbLayerTableRecord
  2
0402-CC
 70
0
 62
7
  6
CONTINUOUS
370
-3
390
F
  0
LAYER
  5
1FE
100
AcDbSymbolTableRecord
100
AcDbLayerTableRecord
  2
0402-CC_1
 70
0
 62
7
  6
CONTINUOUS
370
-3
390
F
  0
LAYER
  5
1FF
100
AcDbSymbolTableRecord
100
AcDbLayerTableRecord
  2
0402-CC_10
 70
0
 62
7
  6
CONTINUOUS
370
-3
390
F
  0
LAYER
  5
200
100
AcDbSymbolTableRecord
100
AcDbLayerTableRecord
  2
0402-CC_11
 70
0
 62
7
  6
CONTINUOUS
370
-3
390
F
  0
LAYER
  5
201
100
AcDbSymbolTableRecord
100
AcDbLayerTableRecord
  2
0402-CC_12
 70
0
 62
7
  6
CONTINUOUS
370
-3
390
F
  0
LAYER
  5
202
100
AcDbSymbolTableRecord
100
AcDbLayerTableRecord
  2
0402-CC_13
 70
0
 62
7
  6
CONTINUOUS
370
-3
390
F
  0
LAYER
  5
203
100
AcDbSymbolTableRecord
100
AcDbLayerTableRecord
  2
0402-CC_14
 70
0
 62
7
  6
CONTINUOUS
370
-3
390
F
  0
LAYER
  5
204
100
AcDbSymbolTableRecord
100
AcDbLayerTableRecord
  2
0402-CC_2
 70
0
 62
7
  6
CONTINUOUS
370
-3
390
F
  0
LAYER
  5
205
100
AcDbSymbolTableRecord
100
AcDbLayerTableRecord
  2
0402-CC_3
 70
0
 62
7
  6
CONTINUOUS
370
-3
390
F
  0
LAYER
  5
206
100
AcDbSymbolTableRecord
100
AcDbLayerTableRecord
  2
0402-CC_4
 70
0
 62
7
  6
CONTINUOUS
370
-3
390
F
  0
LAYER
  5
207
100
AcDbSymbolTableRecord
100
AcDbLayerTableRecord
  2
0402-CC_5
 70
0
 62
7
  6
CONTINUOUS
370
-3
390
F
  0
LAYER
  5
208
100
AcDbSymbolTableRecord
100
AcDbLayerTableRecord
  2
0402-CC_6
 70
0
 62
7
  6
CONTINUOUS
370
-3
390
F
  0
LAYER
  5
209
100
AcDbSymbolTableRecord
100
AcDbLayerTableRecord
  2
0402-CC_7
 70
0
 62
7
  6
CONTINUOUS
370
-3
390
F
  0
LAYER
  5
20A
100
AcDbSymbolTableRecord
100
AcDbLayerTableRecord
  2
0402-CC_8
 70
0
 62
7
  6
CONTINUOUS
370
-3
390
F
  0
LAYER
  5
20B
100
AcDbSymbolTableRecord
100
AcDbLayerTableRecord
  2
0402-CC_9
 70
0
 62
7
  6
CONTINUOUS
370
-3
390
F
  0
LAYER
  5
20C
100
AcDbSymbolTableRecord
100
AcDbLayerTableRecord
  2
0402-R
 70
0
 62
7
  6
CONTINUOUS
370
-3
390
F
  0
LAYER
  5
20D
100
AcDbSymbolTableRecord
100
AcDbLayerTableRecord
  2
0402-R_1
 70
0
 62
7
  6
CONTINUOUS
370
-3
390
F
  0
LAYER
  5
20E
100
AcDbSymbolTableRecord
100
AcDbLayerTableRecord
  2
0402-R_2
 70
0
 62
7
  6
CONTINUOUS
370
-3
390
F
  0
LAYER
  5
20F
100
AcDbSymbolTableRecord
100
AcDbLayerTableRecord
  2
0402-R_3
 70
0
 62
7
  6
CONTINUOUS
370
-3
390
F
  0
LAYER
  5
210
100
AcDbSymbolTableRecord
100
AcDbLayerTableRecord
  2
0402-R_4
 70
0
 62
7
  6
CONTINUOUS
370
-3
390
F
  0
LAYER
  5
211
100
AcDbSymbolTableRecord
100
AcDbLayerTableRecord
  2
0402-R_5
 70
0
 62
7
  6
CONTINUOUS
370
-3
390
F
  0
LAYER
  5
212
100
AcDbSymbolTableRecord
100
AcDbLayerTableRecord
  2
1608-CC-0603
 70
0
 62
7
  6
CONTINUOUS
370
-3
390
F
  0
LAYER
  5
213
100
AcDbSymbolTableRecord
100
AcDbLayerTableRecord
  2
1608-CC-0603_1
 70
0
 62
7
  6
CONTINUOUS
370
-3
390
F
  0
LAYER
  5
214
100
AcDbSymbolTableRecord
100
AcDbLayerTableRecord
  2
1608-CC-0603_10
 70
0
 62
7
  6
CONTINUOUS
370
-3
390
F
  0
LAYER
  5
215
100
AcDbSymbolTableRecord
100
AcDbLayerTableRecord
  2
1608-CC-0603_11
 70
0
 62
7
  6
CONTINUOUS
370
-3
390
F
  0
LAYER
  5
216
100
AcDbSymbolTableRecord
100
AcDbLayerTableRecord
  2
1608-CC-0603_12
 70
0
 62
7
  6
CONTINUOUS
370
-3
390
F
  0
LAYER
  5
217
100
AcDbSymbolTableRecord
100
AcDbLayerTableRecord
  2
1608-CC-0603_13
 70
0
 62
7
  6
CONTINUOUS
370
-3
390
F
  0
LAYER
  5
218
100
AcDbSymbolTableRecord
100
AcDbLayerTableRecord
  2
1608-CC-0603_14
 70
0
 62
7
  6
CONTINUOUS
370
-3
390
F
  0
LAYER
  5
219
100
AcDbSymbolTableRecord
100
AcDbLayerTableRecord
  2
1608-CC-0603_15
 70
0
 62
7
  6
CONTINUOUS
370
-3
390
F
  0
LAYER
  5
21A
100
AcDbSymbolTableRecord
100
AcDbLayerTableRecord
  2
1608-CC-0603_16
 70
0
 62
7
  6
CONTINUOUS
370
-3
390
F
  0
LAYER
  5
21B
100
AcDbSymbolTableRecord
100
AcDbLayerTableRecord
  2
1608-CC-0603_17
 70
0
 62
7
  6
CONTINUOUS
370
-3
390
F
  0
LAYER
  5
21C
100
AcDbSymbolTableRecord
100
AcDbLayerTableRecord
  2
1608-CC-0603_18
 70
0
 62
7
  6
CONTINUOUS
370
-3
390
F
  0
LAYER
  5
21D
100
AcDbSymbolTableRecord
100
AcDbLayerTableRecord
  2
1608-CC-0603_19
 70
0
 62
7
  6
CONTINUOUS
370
-3
390
F
  0
LAYER
  5
21E
100
AcDbSymbolTableRecord
100
AcDbLayerTableRecord
  2
1608-CC-0603_2
 70
0
 62
7
  6
CONTINUOUS
370
-3
390
F
  0
LAYER
  5
21F
100
AcDbSymbolTableRecord
100
AcDbLayerTableRecord
  2
1608-CC-0603_20
 70
0
 62
7
  6
CONTINUOUS
370
-3
390
F
  0
LAYER
  5
220
100
AcDbSymbolTableRecord
100
AcDbLayerTableRecord
  2
1608-CC-0603_21
 70
0
 62
7
  6
CONTINUOUS
370
-3
390
F
  0
LAYER
  5
221
100
AcDbSymbolTableRecord
100
AcDbLayerTableRecord
  2
1608-CC-0603_22
 70
0
 62
7
  6
CONTINUOUS
370
-3
390
F
  0
LAYER
  5
222
100
AcDbSymbolTableRecord
100
AcDbLayerTableRecord
  2
1608-CC-0603_23
 70
0
 62
7
  6
CONTINUOUS
370
-3
390
F
  0
LAYER
  5
223
100
AcDbSymbolTableRecord
100
AcDbLayerTableRecord
  2
1608-CC-0603_24
 70
0
 62
7
  6
CONTINUOUS
370
-3
390
F
  0
LAYER
  5
224
100
AcDbSymbolTableRecord
100
AcDbLayerTableRecord
  2
1608-CC-0603_25
 70
0
 62
7
  6
CONTINUOUS
370
-3
390
F
  0
LAYER
  5
225
100
AcDbSymbolTableRecord
100
AcDbLayerTableRecord
  2
1608-CC-0603_26
 70
0
 62
7
  6
CONTINUOUS
370
-3
390
F
  0
LAYER
  5
226
100
AcDbSymbolTableRecord
100
AcDbLayerTableRecord
  2
1608-CC-0603_27
 70
0
 62
7
  6
CONTINUOUS
370
-3
390
F
  0
LAYER
  5
227
100
AcDbSymbolTableRecord
100
AcDbLayerTableRecord
  2
1608-CC-0603_28
 70
0
 62
7
  6
CONTINUOUS
370
-3
390
F
  0
LAYER
  5
228
100
AcDbSymbolTableRecord
100
AcDbLayerTableRecord
  2
1608-CC-0603_29
 70
0
 62
7
  6
CONTINUOUS
370
-3
390
F
  0
LAYER
  5
229
100
AcDbSymbolTableRecord
100
AcDbLayerTableRecord
  2
1608-CC-0603_3
 70
0
 62
7
  6
CONTINUOUS
370
-3
390
F
  0
LAYER
  5
22A
100
AcDbSymbolTableRecord
100
AcDbLayerTableRecord
  2
1608-CC-0603_30
 70
0
 62
7
  6
CONTINUOUS
370
-3
390
F
  0
LAYER
  5
22B
100
AcDbSymbolTableRecord
100
AcDbLayerTableRecord
  2
1608-CC-0603_31
 70
0
 62
7
  6
CONTINUOUS
370
-3
390
F
  0
LAYER
  5
22C
100
AcDbSymbolTableRecord
100
AcDbLayerTableRecord
  2
1608-CC-0603_32
 70
0
 62
7
  6
CONTINUOUS
370
-3
390
F
  0
LAYER
  5
22D
100
AcDbSymbolTableRecord
100
AcDbLayerTableRecord
  2
1608-CC-0603_33
 70
0
 62
7
  6
CONTINUOUS
370
-3
390
F
  0
LAYER
  5
22E
100
AcDbSymbolTableRecord
100
AcDbLayerTableRecord
  2
1608-CC-0603_4
 70
0
 62
7
  6
CONTINUOUS
370
-3
390
F
  0
LAYER
  5
22F
100
AcDbSymbolTableRecord
100
AcDbLayerTableRecord
  2
1608-CC-0603_5
 70
0
 62
7
  6
CONTINUOUS
370
-3
390
F
  0
LAYER
  5
230
100
AcDbSymbolTableRecord
100
AcDbLayerTableRecord
  2
1608-CC-0603_6
 70
0
 62
7
  6
CONTINUOUS
370
-3
390
F
  0
LAYER
  5
231
100
AcDbSymbolTableRecord
100
AcDbLayerTableRecord
  2
1608-CC-0603_7
 70
0
 62
7
  6
CONTINUOUS
370
-3
390
F
  0
LAYER
  5
232
100
AcDbSymbolTableRecord
100
AcDbLayerTableRecord
  2
1608-CC-0603_8
 70
0
 62
7
  6
CONTINUOUS
370
-3
390
F
  0
LAYER
  5
233
100
AcDbSymbolTableRecord
100
AcDbLayerTableRecord
  2
1608-CC-0603_9
 70
0
 62
7
  6
CONTINUOUS
370
-3
390
F
  0
LAYER
  5
234
100
AcDbSymbolTableRecord
100
AcDbLayerTableRecord
  2
1608-R
 70
0
 62
7
  6
CONTINUOUS
370
-3
390
F
  0
LAYER
  5
235
100
AcDbSymbolTableRecord
100
AcDbLayerTableRecord
  2
1608-R_1
 70
0
 62
7
  6
CONTINUOUS
370
-3
390
F
  0
LAYER
  5
236
100
AcDbSymbolTableRecord
100
AcDbLayerTableRecord
  2
1608-R_10
 70
0
 62
7
  6
CONTINUOUS
370
-3
390
F
  0
LAYER
  5
237
100
AcDbSymbolTableRecord
100
AcDbLayerTableRecord
  2
1608-R_11
 70
0
 62
7
  6
CONTINUOUS
370
-3
390
F
  0
LAYER
  5
238
100
AcDbSymbolTableRecord
100
AcDbLayerTableRecord
  2
1608-R_12
 70
0
 62
7
  6
CONTINUOUS
370
-3
390
F
  0
LAYER
  5
239
100
AcDbSymbolTableRecord
100
AcDbLayerTableRecord
  2
1608-R_13
 70
0
 62
7
  6
CONTINUOUS
370
-3
390
F
  0
LAYER
  5
23A
100
AcDbSymbolTableRecord
100
AcDbLayerTableRecord
  2
1608-R_14
 70
0
 62
7
  6
CONTINUOUS
370
-3
390
F
  0
LAYER
  5
23B
100
AcDbSymbolTableRecord
100
AcDbLayerTableRecord
  2
1608-R_15
 70
0
 62
7
  6
CONTINUOUS
370
-3
390
F
  0
LAYER
  5
23C
100
AcDbSymbolTableRecord
100
AcDbLayerTableRecord
  2
1608-R_16
 70
0
 62
7
  6
CONTINUOUS
370
-3
390
F
  0
LAYER
  5
23D
100
AcDbSymbolTableRecord
100
AcDbLayerTableRecord
  2
1608-R_17
 70
0
 62
7
  6
CONTINUOUS
370
-3
390
F
  0
LAYER
  5
23E
100
AcDbSymbolTableRecord
100
AcDbLayerTableRecord
  2
1608-R_18
 70
0
 62
7
  6
CONTINUOUS
370
-3
390
F
  0
LAYER
  5
23F
100
AcDbSymbolTableRecord
100
AcDbLayerTableRecord
  2
1608-R_19
 70
0
 62
7
  6
CONTINUOUS
370
-3
390
F
  0
LAYER
  5
240
100
AcDbSymbolTableRecord
100
AcDbLayerTableRecord
  2
1608-R_2
 70
0
 62
7
  6
CONTINUOUS
370
-3
390
F
  0
LAYER
  5
241
100
AcDbSymbolTableRecord
100
AcDbLayerTableRecord
  2
1608-R_20
 70
0
 62
7
  6
CONTINUOUS
370
-3
390
F
  0
LAYER
  5
242
100
AcDbSymbolTableRecord
100
AcDbLayerTableRecord
  2
1608-R_21
 70
0
 62
7
  6
CONTINUOUS
370
-3
390
F
  0
LAYER
  5
243
100
AcDbSymbolTableRecord
100
AcDbLayerTableRecord
  2
1608-R_22
 70
0
 62
7
  6
CONTINUOUS
370
-3
390
F
  0
LAYER
  5
244
100
AcDbSymbolTableRecord
100
AcDbLayerTableRecord
  2
1608-R_23
 70
0
 62
7
  6
CONTINUOUS
370
-3
390
F
  0
LAYER
  5
245
100
AcDbSymbolTableRecord
100
AcDbLayerTableRecord
  2
1608-R_24
 70
0
 62
7
  6
CONTINUOUS
370
-3
390
F
  0
LAYER
  5
246
100
AcDbSymbolTableRecord
100
AcDbLayerTableRecord
  2
1608-R_25
 70
0
 62
7
  6
CONTINUOUS
370
-3
390
F
  0
LAYER
  5
247
100
AcDbSymbolTableRecord
100
AcDbLayerTableRecord
  2
1608-R_26
 70
0
 62
7
  6
CONTINUOUS
370
-3
390
F
  0
LAYER
  5
248
100
AcDbSymbolTableRecord
100
AcDbLayerTableRecord
  2
1608-R_27
 70
0
 62
7
  6
CONTINUOUS
370
-3
390
F
  0
LAYER
  5
249
100
AcDbSymbolTableRecord
100
AcDbLayerTableRecord
  2
1608-R_28
 70
0
 62
7
  6
CONTINUOUS
370
-3
390
F
  0
LAYER
  5
24A
100
AcDbSymbolTableRecord
100
AcDbLayerTableRecord
  2
1608-R_29
 70
0
 62
7
  6
CONTINUOUS
370
-3
390
F
  0
LAYER
  5
24B
100
AcDbSymbolTableRecord
100
AcDbLayerTableRecord
  2
1608-R_3
 70
0
 62
7
  6
CONTINUOUS
370
-3
390
F
  0
LAYER
  5
24C
100
AcDbSymbolTableRecord
100
AcDbLayerTableRecord
  2
1608-R_30
 70
0
 62
7
  6
CONTINUOUS
370
-3
390
F
  0
LAYER
  5
24D
100
AcDbSymbolTableRecord
100
AcDbLayerTableRecord
  2
1608-R_31
 70
0
 62
7
  6
CONTINUOUS
370
-3
390
F
  0
LAYER
  5
24E
100
AcDbSymbolTableRecord
100
AcDbLayerTableRecord
  2
1608-R_32
 70
0
 62
7
  6
CONTINUOUS
370
-3
390
F
  0
LAYER
  5
24F
100
AcDbSymbolTableRecord
100
AcDbLayerTableRecord
  2
1608-R_33
 70
0
 62
7
  6
CONTINUOUS
370
-3
390
F
  0
LAYER
  5
250
100
AcDbSymbolTableRecord
100
AcDbLayerTableRecord
  2
1608-R_34
 70
0
 62
7
  6
CONTINUOUS
370
-3
390
F
  0
LAYER
  5
251
100
AcDbSymbolTableRecord
100
AcDbLayerTableRecord
  2
1608-R_4
 70
0
 62
7
  6
CONTINUOUS
370
-3
390
F
  0
LAYER
  5
252
100
AcDbSymbolTableRecord
100
AcDbLayerTableRecord
  2
1608-R_5
 70
0
 62
7
  6
CONTINUOUS
370
-3
390
F
  0
LAYER
  5
253
100
AcDbSymbolTableRecord
100
AcDbLayerTableRecord
  2
1608-R_6
 70
0
 62
7
  6
CONTINUOUS
370
-3
390
F
  0
LAYER
  5
254
100
AcDbSymbolTableRecord
100
AcDbLayerTableRecord
  2
1608-R_7
 70
0
 62
7
  6
CONTINUOUS
370
-3
390
F
  0
LAYER
  5
255
100
AcDbSymbolTableRecord
100
AcDbLayerTableRecord
  2
1608-R_8
 70
0
 62
7
  6
CONTINUOUS
370
-3
390
F
  0
LAYER
  5
256
100
AcDbSymbolTableRecord
100
AcDbLayerTableRecord
  2
1608-R_9
 70
0
 62
7
  6
CONTINUOUS
370
-3
390
F
  0
LAYER
  5
257
100
AcDbSymbolTableRecord
100
AcDbLayerTableRecord
  2
2125-CC
 70
0
 62
7
  6
CONTINUOUS
370
-3
390
F
  0
LAYER
  5
258
100
AcDbSymbolTableRecord
100
AcDbLayerTableRecord
  2
2125-CC_1
 70
0
 62
7
  6
CONTINUOUS
370
-3
390
F
  0
LAYER
  5
259
100
AcDbSymbolTableRecord
100
AcDbLayerTableRecord
  2
2125-R-0805
 70
0
 62
7
  6
CONTINUOUS
370
-3
390
F
  0
LAYER
  5
25A
100
AcDbSymbolTableRecord
100
AcDbLayerTableRecord
  2
2125-R-0805_1
 70
0
 62
7
  6
CONTINUOUS
370
-3
390
F
  0
LAYER
  5
25B
100
AcDbSymbolTableRecord
100
AcDbLayerTableRecord
  2
2125-R-0805_2
 70
0
 62
7
  6
CONTINUOUS
370
-3
390
F
  0
LAYER
  5
25C
100
AcDbSymbolTableRecord
100
AcDbLayerTableRecord
  2
2125-R-0805_3
 70
0
 62
7
  6
CONTINUOUS
370
-3
390
F
  0
LAYER
  5
25D
100
AcDbSymbolTableRecord
100
AcDbLayerTableRecord
  2
2125-R-0805_4
 70
0
 62
7
  6
CONTINUOUS
370
-3
390
F
  0
LAYER
  5
25E
100
AcDbSymbolTableRecord
100
AcDbLayerTableRecord
  2
2125-R-0805_5
 70
0
 62
7
  6
CONTINUOUS
370
-3
390
F
  0
LAYER
  5
25F
100
AcDbSymbolTableRecord
100
AcDbLayerTableRecord
  2
2125-R-0805_6
 70
0
 62
7
  6
CONTINUOUS
370
-3
390
F
  0
LAYER
  5
260
100
AcDbSymbolTableRecord
100
AcDbLayerTableRecord
  2
2125-R-0805_7
 70
0
 62
7
  6
CONTINUOUS
370
-3
390
F
  0
LAYER
  5
261
100
AcDbSymbolTableRecord
100
AcDbLayerTableRecord
  2
2125-R-0805_8
 70
0
 62
7
  6
CONTINUOUS
370
-3
390
F
  0
LAYER
  5
262
100
AcDbSymbolTableRecord
100
AcDbLayerTableRecord
  2
2125-R-0805_9
 70
0
 62
7
  6
CONTINUOUS
370
-3
390
F
  0
LAYER
  5
263
100
AcDbSymbolTableRecord
100
AcDbLayerTableRecord
  2
3216-CC-1206
 70
0
 62
7
  6
CONTINUOUS
370
-3
390
F
  0
LAYER
  5
264
100
AcDbSymbolTableRecord
100
AcDbLayerTableRecord
  2
3216-CC-1206_1
 70
0
 62
7
  6
CONTINUOUS
370
-3
390
F
  0
LAYER
  5
265
100
AcDbSymbolTableRecord
100
AcDbLayerTableRecord
  2
3216-R-MINIMELF
 70
0
 62
7
  6
CONTINUOUS
370
-3
390
F
  0
LAYER
  5
266
100
AcDbSymbolTableRecord
100
AcDbLayerTableRecord
  2
3216-R-MINIMELF_1
 70
0
 62
7
  6
CONTINUOUS
370
-3
390
F
  0
LAYER
  5
267
100
AcDbSymbolTableRecord
100
AcDbLayerTableRecord
  2
3216-R-MINIMELF_2
 70
0
 62
7
  6
CONTINUOUS
370
-3
390
F
  0
LAYER
  5
268
100
AcDbSymbolTableRecord
100
AcDbLayerTableRecord
  2
3216-R-MINIMELF_3
 70
0
 62
7
  6
CONTINUOUS
370
-3
390
F
  0
LAYER
  5
269
100
AcDbSymbolTableRecord
100
AcDbLayerTableRecord
  2
3216-R-MINIMELF_4
 70
0
 62
7
  6
CONTINUOUS
370
-3
390
F
  0
LAYER
  5
26A
100
AcDbSymbolTableRecord
100
AcDbLayerTableRecord
  2
3225-L_BODY
 70
0
 62
7
  6
CONTINUOUS
370
-3
390
F
  0
LAYER
  5
26B
100
AcDbSymbolTableRecord
100
AcDbLayerTableRecord
  2
3225-L_BODY_1
 70
0
 62
7
  6
CONTINUOUS
370
-3
390
F
  0
LAYER
  5
26C
100
AcDbSymbolTableRecord
100
AcDbLayerTableRecord
  2
3225-L_TERMINAL_1
 70
0
 62
7
  6
CONTINUOUS
370
-3
390
F
  0
LAYER
  5
26D
100
AcDbSymbolTableRecord
100
AcDbLayerTableRecord
  2
3225-L_TERMINAL_1_1
 70
0
 62
7
  6
CONTINUOUS
370
-3
390
F
  0
LAYER
  5
26E
100
AcDbSymbolTableRecord
100
AcDbLayerTableRecord
  2
3225-L_TERMINAL_2
 70
0
 62
7
  6
CONTINUOUS
370
-3
390
F
  0
LAYER
  5
26F
100
AcDbSymbolTableRecord
100
AcDbLayerTableRecord
  2
3225-L_TERMINAL_2_1
 70
0
 62
7
  6
CONTINUOUS
370
-3
390
F
  0
LAYER
  5
270
100
AcDbSymbolTableRecord
100
AcDbLayerTableRecord
  2
43000570A0
 70
0
 62
7
  6
CONTINUOUS
370
-3
390
F
  0
LAYER
  5
271
100
AcDbSymbolTableRecord
100
AcDbLayerTableRecord
  2
43000570A0_1
 70
0
 62
7
  6
CONTINUOUS
370
-3
390
F
  0
LAYER
  5
272
100
AcDbSymbolTableRecord
100
AcDbLayerTableRecord
  2
43000571A0
 70
0
 62
7
  6
CONTINUOUS
370
-3
390
F
  0
LAYER
  5
273
100
AcDbSymbolTableRecord
100
AcDbLayerTableRecord
  2
43000571A0_1
 70
0
 62
7
  6
CONTINUOUS
370
-3
390
F
  0
LAYER
  5
274
100
AcDbSymbolTableRecord
100
AcDbLayerTableRecord
  2
ASM0002
 70
0
 62
7
  6
CONTINUOUS
370
-3
390
F
  0
LAYER
  5
275
100
AcDbSymbolTableRecord
100
AcDbLayerTableRecord
  2
ASSI
 70
0
 62
7
  6
CONTINUOUS
370
-3
390
F
  0
LAYER
  5
276
100
AcDbSymbolTableRecord
100
AcDbLayerTableRecord
  2
CABLING_83000230A0
 70
0
 62
7
  6
CONTINUOUS
370
-3
390
F
  0
LAYER
  5
277
100
AcDbSymbolTableRecord
100
AcDbLayerTableRecord
  2
COLOR101
 70
0
 62
7
  6
CONTINUOUS
370
-3
390
F
  0
LAYER
  5
278
100
AcDbSymbolTableRecord
100
AcDbLayerTableRecord
  2
COLOR103
 70
0
 62
7
  6
CONTINUOUS
370
-3
390
F
  0
LAYER
  5
279
100
AcDbSymbolTableRecord
100
AcDbLayerTableRecord
  2
COLOR105
 70
0
 62
7
  6
CONTINUOUS
370
-3
390
F
  0
LAYER
  5
27A
100
AcDbSymbolTableRecord
100
AcDbLayerTableRecord
  2
COLOR107
 70
0
 62
7
  6
CONTINUOUS
370
-3
390
F
  0
LAYER
  5
27B
100
AcDbSymbolTableRecord
100
AcDbLayerTableRecord
  2
COLOR109
 70
0
 62
7
  6
CONTINUOUS
370
-3
390
F
  0
LAYER
  5
27C
100
AcDbSymbolTableRecord
100
AcDbLayerTableRecord
  2
COLOR11
 70
0
 62
7
  6
CONTINUOUS
370
-3
390
F
  0
LAYER
  5
27D
100
AcDbSymbolTableRecord
100
AcDbLayerTableRecord
  2
COLOR111
 70
0
 62
7
  6
CONTINUOUS
370
-3
390
F
  0
LAYER
  5
27E
100
AcDbSymbolTableRecord
100
AcDbLayerTableRecord
  2
COLOR113
 70
0
 62
7
  6
CONTINUOUS
370
-3
390
F
  0
LAYER
  5
27F
100
AcDbSymbolTableRecord
100
AcDbLayerTableRecord
  2
COLOR115
 70
0
 62
7
  6
CONTINUOUS
370
-3
390
F
  0
LAYER
  5
280
100
AcDbSymbolTableRecord
100
AcDbLayerTableRecord
  2
COLOR117
 70
0
 62
7
  6
CONTINUOUS
370
-3
390
F
  0
LAYER
  5
281
100
AcDbSymbolTableRecord
100
AcDbLayerTableRecord
  2
COLOR119
 70
0
 62
7
  6
CONTINUOUS
370
-3
390
F
  0
LAYER
  5
282
100
AcDbSymbolTableRecord
100
AcDbLayerTableRecord
  2
COLOR11_1
 70
0
 62
7
  6
CONTINUOUS
370
-3
390
F
  0
LAYER
  5
283
100
AcDbSymbolTableRecord
100
AcDbLayerTableRecord
  2
COLOR12
 70
0
 62
7
  6
CONTINUOUS
370
-3
390
F
  0
LAYER
  5
284
100
AcDbSymbolTableRecord
100
AcDbLayerTableRecord
  2
COLOR121
 70
0
 62
7
  6
CONTINUOUS
370
-3
390
F
  0
LAYER
  5
285
100
AcDbSymbolTableRecord
100
AcDbLayerTableRecord
  2
COLOR123
 70
0
 62
7
  6
CONTINUOUS
370
-3
390
F
  0
LAYER
  5
286
100
AcDbSymbolTableRecord
100
AcDbLayerTableRecord
  2
COLOR125
 70
0
 62
7
  6
CONTINUOUS
370
-3
390
F
  0
LAYER
  5
287
100
AcDbSymbolTableRecord
100
AcDbLayerTableRecord
  2
COLOR127
 70
0
 62
7
  6
CONTINUOUS
370
-3
390
F
  0
LAYER
  5
288
100
AcDbSymbolTableRecord
100
AcDbLayerTableRecord
  2
COLOR129
 70
0
 62
7
  6
CONTINUOUS
370
-3
390
F
  0
LAYER
  5
289
100
AcDbSymbolTableRecord
100
AcDbLayerTableRecord
  2
COLOR13
 70
0
 62
7
  6
CONTINUOUS
370
-3
390
F
  0
LAYER
  5
28A
100
AcDbSymbolTableRecord
100
AcDbLayerTableRecord
  2
COLOR131
 70
0
 62
7
  6
CONTINUOUS
370
-3
390
F
  0
LAYER
  5
28B
100
AcDbSymbolTableRecord
100
AcDbLayerTableRecord
  2
COLOR133
 70
0
 62
7
  6
CONTINUOUS
370
-3
390
F
  0
LAYER
  5
28C
100
AcDbSymbolTableRecord
100
AcDbLayerTableRecord
  2
COLOR135
 70
0
 62
7
  6
CONTINUOUS
370
-3
390
F
  0
LAYER
  5
28D
100
AcDbSymbolTableRecord
100
AcDbLayerTableRecord
  2
COLOR137
 70
0
 62
7
  6
CONTINUOUS
370
-3
390
F
  0
LAYER
  5
28E
100
AcDbSymbolTableRecord
100
AcDbLayerTableRecord
  2
COLOR13_1
 70
0
 62
7
  6
CONTINUOUS
370
-3
390
F
  0
LAYER
  5
28F
100
AcDbSymbolTableRecord
100
AcDbLayerTableRecord
  2
COLOR140
 70
0
 62
7
  6
CONTINUOUS
370
-3
390
F
  0
LAYER
  5
290
100
AcDbSymbolTableRecord
100
AcDbLayerTableRecord
  2
COLOR141
 70
0
 62
7
  6
CONTINUOUS
370
-3
390
F
  0
LAYER
  5
291
100
AcDbSymbolTableRecord
100
AcDbLayerTableRecord
  2
COLOR147
 70
0
 62
7
  6
CONTINUOUS
370
-3
390
F
  0
LAYER
  5
292
100
AcDbSymbolTableRecord
100
AcDbLayerTableRecord
  2
COLOR148
 70
0
 62
7
  6
CONTINUOUS
370
-3
390
F
  0
LAYER
  5
293
100
AcDbSymbolTableRecord
100
AcDbLayerTableRecord
  2
COLOR15
 70
0
 62
7
  6
CONTINUOUS
370
-3
390
F
  0
LAYER
  5
294
100
AcDbSymbolTableRecord
100
AcDbLayerTableRecord
  2
COLOR155
 70
0
 62
7
  6
CONTINUOUS
370
-3
390
F
  0
LAYER
  5
295
100
AcDbSymbolTableRecord
100
AcDbLayerTableRecord
  2
COLOR156
 70
0
 62
7
  6
CONTINUOUS
370
-3
390
F
  0
LAYER
  5
296
100
AcDbSymbolTableRecord
100
AcDbLayerTableRecord
  2
COLOR15_1
 70
0
 62
7
  6
CONTINUOUS
370
-3
390
F
  0
LAYER
  5
297
100
AcDbSymbolTableRecord
100
AcDbLayerTableRecord
  2
COLOR160
 70
0
 62
7
  6
CONTINUOUS
370
-3
390
F
  0
LAYER
  5
298
100
AcDbSymbolTableRecord
100
AcDbLayerTableRecord
  2
COLOR17
 70
0
 62
7
  6
CONTINUOUS
370
-3
390
F
  0
LAYER
  5
299
100
AcDbSymbolTableRecord
100
AcDbLayerTableRecord
  2
COLOR17_1
 70
0
 62
7
  6
CONTINUOUS
370
-3
390
F
  0
LAYER
  5
29A
100
AcDbSymbolTableRecord
100
AcDbLayerTableRecord
  2
COLOR187
 70
0
 62
7
  6
CONTINUOUS
370
-3
390
F
  0
LAYER
  5
29B
100
AcDbSymbolTableRecord
100
AcDbLayerTableRecord
  2
COLOR189
 70
0
 62
7
  6
CONTINUOUS
370
-3
390
F
  0
LAYER
  5
29C
100
AcDbSymbolTableRecord
100
AcDbLayerTableRecord
  2
COLOR19
 70
0
 62
7
  6
CONTINUOUS
370
-3
390
F
  0
LAYER
  5
29D
100
AcDbSymbolTableRecord
100
AcDbLayerTableRecord
  2
COLOR191
 70
0
 62
7
  6
CONTINUOUS
370
-3
390
F
  0
LAYER
  5
29E
100
AcDbSymbolTableRecord
100
AcDbLayerTableRecord
  2
COLOR193
 70
0
 62
7
  6
CONTINUOUS
370
-3
390
F
  0
LAYER
  5
29F
100
AcDbSymbolTableRecord
100
AcDbLayerTableRecord
  2
COLOR195
 70
0
 62
7
  6
CONTINUOUS
370
-3
390
F
  0
LAYER
  5
2A0
100
AcDbSymbolTableRecord
100
AcDbLayerTableRecord
  2
COLOR197
 70
0
 62
7
  6
CONTINUOUS
370
-3
390
F
  0
LAYER
  5
2A1
100
AcDbSymbolTableRecord
100
AcDbLayerTableRecord
  2
COLOR199
 70
0
 62
7
  6
CONTINUOUS
370
-3
390
F
  0
LAYER
  5
2A2
100
AcDbSymbolTableRecord
100
AcDbLayerTableRecord
  2
COLOR19_1
 70
0
 62
7
  6
CONTINUOUS
370
-3
390
F
  0
LAYER
  5
2A3
100
AcDbSymbolTableRecord
100
AcDbLayerTableRecord
  2
COLOR20
 70
0
 62
7
  6
CONTINUOUS
370
-3
390
F
  0
LAYER
  5
2A4
100
AcDbSymbolTableRecord
100
AcDbLayerTableRecord
  2
COLOR201
 70
0
 62
7
  6
CONTINUOUS
370
-3
390
F
  0
LAYER
  5
2A5
100
AcDbSymbolTableRecord
100
AcDbLayerTableRecord
  2
COLOR203
 70
0
 62
7
  6
CONTINUOUS
370
-3
390
F
  0
LAYER
  5
2A6
100
AcDbSymbolTableRecord
100
AcDbLayerTableRecord
  2
COLOR205
 70
0
 62
7
  6
CONTINUOUS
370
-3
390
F
  0
LAYER
  5
2A7
100
AcDbSymbolTableRecord
100
AcDbLayerTableRecord
  2
COLOR208
 70
0
 62
7
  6
CONTINUOUS
370
-3
390
F
  0
LAYER
  5
2A8
100
AcDbSymbolTableRecord
100
AcDbLayerTableRecord
  2
COLOR21
 70
0
 62
7
  6
CONTINUOUS
370
-3
390
F
  0
LAYER
  5
2A9
100
AcDbSymbolTableRecord
100
AcDbLayerTableRecord
  2
COLOR215
 70
0
 62
7
  6
CONTINUOUS
370
-3
390
F
  0
LAYER
  5
2AA
100
AcDbSymbolTableRecord
100
AcDbLayerTableRecord
  2
COLOR218
 70
0
 62
7
  6
CONTINUOUS
370
-3
390
F
  0
LAYER
  5
2AB
100
AcDbSymbolTableRecord
100
AcDbLayerTableRecord
  2
COLOR219
 70
0
 62
7
  6
CONTINUOUS
370
-3
390
F
  0
LAYER
  5
2AC
100
AcDbSymbolTableRecord
100
AcDbLayerTableRecord
  2
COLOR21_1
 70
0
 62
7
  6
CONTINUOUS
370
-3
390
F
  0
LAYER
  5
2AD
100
AcDbSymbolTableRecord
100
AcDbLayerTableRecord
  2
COLOR220
 70
0
 62
7
  6
CONTINUOUS
370
-3
390
F
  0
LAYER
  5
2AE
100
AcDbSymbolTableRecord
100
AcDbLayerTableRecord
  2
COLOR225
 70
0
 62
7
  6
CONTINUOUS
370
-3
390
F
  0
LAYER
  5
2AF
100
AcDbSymbolTableRecord
100
AcDbLayerTableRecord
  2
COLOR226
 70
0
 62
7
  6
CONTINUOUS
370
-3
390
F
  0
LAYER
  5
2B0
100
AcDbSymbolTableRecord
100
AcDbLayerTableRecord
  2
COLOR228
 70
0
 62
7
  6
CONTINUOUS
370
-3
390
F
  0
LAYER
  5
2B1
100
AcDbSymbolTableRecord
100
AcDbLayerTableRecord
  2
COLOR229
 70
0
 62
7
  6
CONTINUOUS
370
-3
390
F
  0
LAYER
  5
2B2
100
AcDbSymbolTableRecord
100
AcDbLayerTableRecord
  2
COLOR23
 70
0
 62
7
  6
CONTINUOUS
370
-3
390
F
  0
LAYER
  5
2B3
100
AcDbSymbolTableRecord
100
AcDbLayerTableRecord
  2
COLOR231
 70
0
 62
7
  6
CONTINUOUS
370
-3
390
F
  0
LAYER
  5
2B4
100
AcDbSymbolTableRecord
100
AcDbLayerTableRecord
  2
COLOR23_1
 70
0
 62
7
  6
CONTINUOUS
370
-3
390
F
  0
LAYER
  5
2B5
100
AcDbSymbolTableRecord
100
AcDbLayerTableRecord
  2
COLOR25
 70
0
 62
7
  6
CONTINUOUS
370
-3
390
F
  0
LAYER
  5
2B6
100
AcDbSymbolTableRecord
100
AcDbLayerTableRecord
  2
COLOR25_1
 70
0
 62
7
  6
CONTINUOUS
370
-3
390
F
  0
LAYER
  5
2B7
100
AcDbSymbolTableRecord
100
AcDbLayerTableRecord
  2
COLOR27
 70
0
 62
7
  6
CONTINUOUS
370
-3
390
F
  0
LAYER
  5
2B8
100
AcDbSymbolTableRecord
100
AcDbLayerTableRecord
  2
COLOR27_1
 70
0
 62
7
  6
CONTINUOUS
370
-3
390
F
  0
LAYER
  5
2B9
100
AcDbSymbolTableRecord
100
AcDbLayerTableRecord
  2
COLOR29
 70
0
 62
7
  6
CONTINUOUS
370
-3
390
F
  0
LAYER
  5
2BA
100
AcDbSymbolTableRecord
100
AcDbLayerTableRecord
  2
COLOR29_1
 70
0
 62
7
  6
CONTINUOUS
370
-3
390
F
  0
LAYER
  5
2BB
100
AcDbSymbolTableRecord
100
AcDbLayerTableRecord
  2
COLOR3
 70
0
 62
7
  6
CONTINUOUS
370
-3
390
F
  0
LAYER
  5
2BC
100
AcDbSymbolTableRecord
100
AcDbLayerTableRecord
  2
COLOR31
 70
0
 62
7
  6
CONTINUOUS
370
-3
390
F
  0
LAYER
  5
2BD
100
AcDbSymbolTableRecord
100
AcDbLayerTableRecord
  2
COLOR31_1
 70
0
 62
7
  6
CONTINUOUS
370
-3
390
F
  0
LAYER
  5
2BE
100
AcDbSymbolTableRecord
100
AcDbLayerTableRecord
  2
COLOR33
 70
0
 62
7
  6
CONTINUOUS
370
-3
390
F
  0
LAYER
  5
2BF
100
AcDbSymbolTableRecord
100
AcDbLayerTableRecord
  2
COLOR33_1
 70
0
 62
7
  6
CONTINUOUS
370
-3
390
F
  0
LAYER
  5
2C0
100
AcDbSymbolTableRecord
100
AcDbLayerTableRecord
  2
COLOR35
 70
0
 62
7
  6
CONTINUOUS
370
-3
390
F
  0
LAYER
  5
2C1
100
AcDbSymbolTableRecord
100
AcDbLayerTableRecord
  2
COLOR35_1
 70
0
 62
7
  6
CONTINUOUS
370
-3
390
F
  0
LAYER
  5
2C2
100
AcDbSymbolTableRecord
100
AcDbLayerTableRecord
  2
COLOR37
 70
0
 62
7
  6
CONTINUOUS
370
-3
390
F
  0
LAYER
  5
2C3
100
AcDbSymbolTableRecord
100
AcDbLayerTableRecord
  2
COLOR37_1
 70
0
 62
7
  6
CONTINUOUS
370
-3
390
F
  0
LAYER
  5
2C4
100
AcDbSymbolTableRecord
100
AcDbLayerTableRecord
  2
COLOR39
 70
0
 62
7
  6
CONTINUOUS
370
-3
390
F
  0
LAYER
  5
2C5
100
AcDbSymbolTableRecord
100
AcDbLayerTableRecord
  2
COLOR39_1
 70
0
 62
7
  6
CONTINUOUS
370
-3
390
F
  0
LAYER
  5
2C6
100
AcDbSymbolTableRecord
100
AcDbLayerTableRecord
  2
COLOR3_1
 70
0
 62
7
  6
CONTINUOUS
370
-3
390
F
  0
LAYER
  5
2C7
100
AcDbSymbolTableRecord
100
AcDbLayerTableRecord
  2
COLOR4
 70
0
 62
7
  6
CONTINUOUS
370
-3
390
F
  0
LAYER
  5
2C8
100
AcDbSymbolTableRecord
100
AcDbLayerTableRecord
  2
COLOR41
 70
0
 62
7
  6
CONTINUOUS
370
-3
390
F
  0
LAYER
  5
2C9
100
AcDbSymbolTableRecord
100
AcDbLayerTableRecord
  2
COLOR41_1
 70
0
 62
7
  6
CONTINUOUS
370
-3
390
F
  0
LAYER
  5
2CA
100
AcDbSymbolTableRecord
100
AcDbLayerTableRecord
  2
COLOR43
 70
0
 62
7
  6
CONTINUOUS
370
-3
390
F
  0
LAYER
  5
2CB
100
AcDbSymbolTableRecord
100
AcDbLayerTableRecord
  2
COLOR43_1
 70
0
 62
7
  6
CONTINUOUS
370
-3
390
F
  0
LAYER
  5
2CC
100
AcDbSymbolTableRecord
100
AcDbLayerTableRecord
  2
COLOR45
 70
0
 62
7
  6
CONTINUOUS
370
-3
390
F
  0
LAYER
  5
2CD
100
AcDbSymbolTableRecord
100
AcDbLayerTableRecord
  2
COLOR45_1
 70
0
 62
7
  6
CONTINUOUS
370
-3
390
F
  0
LAYER
  5
2CE
100
AcDbSymbolTableRecord
100
AcDbLayerTableRecord
  2
COLOR47
 70
0
 62
7
  6
CONTINUOUS
370
-3
390
F
  0
LAYER
  5
2CF
100
AcDbSymbolTableRecord
100
AcDbLayerTableRecord
  2
COLOR47_1
 70
0
 62
7
  6
CONTINUOUS
370
-3
390
F
  0
LAYER
  5
2D0
100
AcDbSymbolTableRecord
100
AcDbLayerTableRecord
  2
COLOR49
 70
0
 62
7
  6
CONTINUOUS
370
-3
390
F
  0
LAYER
  5
2D1
100
AcDbSymbolTableRecord
100
AcDbLayerTableRecord
  2
COLOR49_1
 70
0
 62
7
  6
CONTINUOUS
370
-3
390
F
  0
LAYER
  5
2D2
100
AcDbSymbolTableRecord
100
AcDbLayerTableRecord
  2
COLOR4_1
 70
0
 62
7
  6
CONTINUOUS
370
-3
390
F
  0
LAYER
  5
2D3
100
AcDbSymbolTableRecord
100
AcDbLayerTableRecord
  2
COLOR5
 70
0
 62
7
  6
CONTINUOUS
370
-3
390
F
  0
LAYER
  5
2D4
100
AcDbSymbolTableRecord
100
AcDbLayerTableRecord
  2
COLOR51
 70
0
 62
7
  6
CONTINUOUS
370
-3
390
F
  0
LAYER
  5
2D5
100
AcDbSymbolTableRecord
100
AcDbLayerTableRecord
  2
COLOR51_1
 70
0
 62
7
  6
CONTINUOUS
370
-3
390
F
  0
LAYER
  5
2D6
100
AcDbSymbolTableRecord
100
AcDbLayerTableRecord
  2
COLOR53
 70
0
 62
7
  6
CONTINUOUS
370
-3
390
F
  0
LAYER
  5
2D7
100
AcDbSymbolTableRecord
100
AcDbLayerTableRecord
  2
COLOR53_1
 70
0
 62
7
  6
CONTINUOUS
370
-3
390
F
  0
LAYER
  5
2D8
100
AcDbSymbolTableRecord
100
AcDbLayerTableRecord
  2
COLOR55
 70
0
 62
7
  6
CONTINUOUS
370
-3
390
F
  0
LAYER
  5
2D9
100
AcDbSymbolTableRecord
100
AcDbLayerTableRecord
  2
COLOR55_1
 70
0
 62
7
  6
CONTINUOUS
370
-3
390
F
  0
LAYER
  5
2DA
100
AcDbSymbolTableRecord
100
AcDbLayerTableRecord
  2
COLOR57
 70
0
 62
7
  6
CONTINUOUS
370
-3
390
F
  0
LAYER
  5
2DB
100
AcDbSymbolTableRecord
100
AcDbLayerTableRecord
  2
COLOR57_1
 70
0
 62
7
  6
CONTINUOUS
370
-3
390
F
  0
LAYER
  5
2DC
100
AcDbSymbolTableRecord
100
AcDbLayerTableRecord
  2
COLOR59
 70
0
 62
7
  6
CONTINUOUS
370
-3
390
F
  0
LAYER
  5
2DD
100
AcDbSymbolTableRecord
100
AcDbLayerTableRecord
  2
COLOR59_1
 70
0
 62
7
  6
CONTINUOUS
370
-3
390
F
  0
LAYER
  5
2DE
100
AcDbSymbolTableRecord
100
AcDbLayerTableRecord
  2
COLOR5_1
 70
0
 62
7
  6
CONTINUOUS
370
-3
390
F
  0
LAYER
  5
2DF
100
AcDbSymbolTableRecord
100
AcDbLayerTableRecord
  2
COLOR5_1_1
 70
0
 62
7
  6
CONTINUOUS
370
-3
390
F
  0
LAYER
  5
2E0
100
AcDbSymbolTableRecord
100
AcDbLayerTableRecord
  2
COLOR5_1_2
 70
0
 62
7
  6
CONTINUOUS
370
-3
390
F
  0
LAYER
  5
2E1
100
AcDbSymbolTableRecord
100
AcDbLayerTableRecord
  2
COLOR6
 70
0
 62
7
  6
CONTINUOUS
370
-3
390
F
  0
LAYER
  5
2E2
100
AcDbSymbolTableRecord
100
AcDbLayerTableRecord
  2
COLOR61
 70
0
 62
7
  6
CONTINUOUS
370
-3
390
F
  0
LAYER
  5
2E3
100
AcDbSymbolTableRecord
100
AcDbLayerTableRecord
  2
COLOR61_1
 70
0
 62
7
  6
CONTINUOUS
370
-3
390
F
  0
LAYER
  5
2E4
100
AcDbSymbolTableRecord
100
AcDbLayerTableRecord
  2
COLOR63
 70
0
 62
7
  6
CONTINUOUS
370
-3
390
F
  0
LAYER
  5
2E5
100
AcDbSymbolTableRecord
100
AcDbLayerTableRecord
  2
COLOR63_1
 70
0
 62
7
  6
CONTINUOUS
370
-3
390
F
  0
LAYER
  5
2E6
100
AcDbSymbolTableRecord
100
AcDbLayerTableRecord
  2
COLOR65
 70
0
 62
7
  6
CONTINUOUS
370
-3
390
F
  0
LAYER
  5
2E7
100
AcDbSymbolTableRecord
100
AcDbLayerTableRecord
  2
COLOR65_1
 70
0
 62
7
  6
CONTINUOUS
370
-3
390
F
  0
LAYER
  5
2E8
100
AcDbSymbolTableRecord
100
AcDbLayerTableRecord
  2
COLOR67
 70
0
 62
7
  6
CONTINUOUS
370
-3
390
F
  0
LAYER
  5
2E9
100
AcDbSymbolTableRecord
100
AcDbLayerTableRecord
  2
COLOR67_1
 70
0
 62
7
  6
CONTINUOUS
370
-3
390
F
  0
LAYER
  5
2EA
100
AcDbSymbolTableRecord
100
AcDbLayerTableRecord
  2
COLOR69
 70
0
 62
7
  6
CONTINUOUS
370
-3
390
F
  0
LAYER
  5
2EB
100
AcDbSymbolTableRecord
100
AcDbLayerTableRecord
  2
COLOR69_1
 70
0
 62
7
  6
CONTINUOUS
370
-3
390
F
  0
LAYER
  5
2EC
100
AcDbSymbolTableRecord
100
AcDbLayerTableRecord
  2
COLOR6_1
 70
0
 62
7
  6
CONTINUOUS
370
-3
390
F
  0
LAYER
  5
2ED
100
AcDbSymbolTableRecord
100
AcDbLayerTableRecord
  2
COLOR7
 70
0
 62
7
  6
CONTINUOUS
370
-3
390
F
  0
LAYER
  5
2EE
100
AcDbSymbolTableRecord
100
AcDbLayerTableRecord
  2
COLOR71
 70
0
 62
7
  6
CONTINUOUS
370
-3
390
F
  0
LAYER
  5
2EF
100
AcDbSymbolTableRecord
100
AcDbLayerTableRecord
  2
COLOR71_1
 70
0
 62
7
  6
CONTINUOUS
370
-3
390
F
  0
LAYER
  5
2F0
100
AcDbSymbolTableRecord
100
AcDbLayerTableRecord
  2
COLOR73
 70
0
 62
7
  6
CONTINUOUS
370
-3
390
F
  0
LAYER
  5
2F1
100
AcDbSymbolTableRecord
100
AcDbLayerTableRecord
  2
COLOR73_1
 70
0
 62
7
  6
CONTINUOUS
370
-3
390
F
  0
LAYER
  5
2F2
100
AcDbSymbolTableRecord
100
AcDbLayerTableRecord
  2
COLOR75
 70
0
 62
7
  6
CONTINUOUS
370
-3
390
F
  0
LAYER
  5
2F3
100
AcDbSymbolTableRecord
100
AcDbLayerTableRecord
  2
COLOR75_1
 70
0
 62
7
  6
CONTINUOUS
370
-3
390
F
  0
LAYER
  5
2F4
100
AcDbSymbolTableRecord
100
AcDbLayerTableRecord
  2
COLOR76
 70
0
 62
7
  6
CONTINUOUS
370
-3
390
F
  0
LAYER
  5
2F5
100
AcDbSymbolTableRecord
100
AcDbLayerTableRecord
  2
COLOR77
 70
0
 62
7
  6
CONTINUOUS
370
-3
390
F
  0
LAYER
  5
2F6
100
AcDbSymbolTableRecord
100
AcDbLayerTableRecord
  2
COLOR77_1
 70
0
 62
7
  6
CONTINUOUS
370
-3
390
F
  0
LAYER
  5
2F7
100
AcDbSymbolTableRecord
100
AcDbLayerTableRecord
  2
COLOR78
 70
0
 62
7
  6
CONTINUOUS
370
-3
390
F
  0
LAYER
  5
2F8
100
AcDbSymbolTableRecord
100
AcDbLayerTableRecord
  2
COLOR79
 70
0
 62
7
  6
CONTINUOUS
370
-3
390
F
  0
LAYER
  5
2F9
100
AcDbSymbolTableRecord
100
AcDbLayerTableRecord
  2
COLOR79_1
 70
0
 62
7
  6
CONTINUOUS
370
-3
390
F
  0
LAYER
  5
2FA
100
AcDbSymbolTableRecord
100
AcDbLayerTableRecord
  2
COLOR7_1
 70
0
 62
7
  6
CONTINUOUS
370
-3
390
F
  0
LAYER
  5
2FB
100
AcDbSymbolTableRecord
100
AcDbLayerTableRecord
  2
COLOR8
 70
0
 62
7
  6
CONTINUOUS
370
-3
390
F
  0
LAYER
  5
2FC
100
AcDbSymbolTableRecord
100
AcDbLayerTableRecord
  2
COLOR80
 70
0
 62
7
  6
CONTINUOUS
370
-3
390
F
  0
LAYER
  5
2FD
100
AcDbSymbolTableRecord
100
AcDbLayerTableRecord
  2
COLOR81
 70
0
 62
7
  6
CONTINUOUS
370
-3
390
F
  0
LAYER
  5
2FE
100
AcDbSymbolTableRecord
100
AcDbLayerTableRecord
  2
COLOR81_1
 70
0
 62
7
  6
CONTINUOUS
370
-3
390
F
  0
LAYER
  5
2FF
100
AcDbSymbolTableRecord
100
AcDbLayerTableRecord
  2
COLOR82
 70
0
 62
7
  6
CONTINUOUS
370
-3
390
F
  0
LAYER
  5
300
100
AcDbSymbolTableRecord
100
AcDbLayerTableRecord
  2
COLOR83
 70
0
 62
7
  6
CONTINUOUS
370
-3
390
F
  0
LAYER
  5
301
100
AcDbSymbolTableRecord
100
AcDbLayerTableRecord
  2
COLOR83_1
 70
0
 62
7
  6
CONTINUOUS
370
-3
390
F
  0
LAYER
  5
302
100
AcDbSymbolTableRecord
100
AcDbLayerTableRecord
  2
COLOR85
 70
0
 62
7
  6
CONTINUOUS
370
-3
390
F
  0
LAYER
  5
303
100
AcDbSymbolTableRecord
100
AcDbLayerTableRecord
  2
COLOR85_1
 70
0
 62
7
  6
CONTINUOUS
370
-3
390
F
  0
LAYER
  5
304
100
AcDbSymbolTableRecord
100
AcDbLayerTableRecord
  2
COLOR86
 70
0
 62
7
  6
CONTINUOUS
370
-3
390
F
  0
LAYER
  5
305
100
AcDbSymbolTableRecord
100
AcDbLayerTableRecord
  2
COLOR87
 70
0
 62
7
  6
CONTINUOUS
370
-3
390
F
  0
LAYER
  5
306
100
AcDbSymbolTableRecord
100
AcDbLayerTableRecord
  2
COLOR87_1
 70
0
 62
7
  6
CONTINUOUS
370
-3
390
F
  0
LAYER
  5
307
100
AcDbSymbolTableRecord
100
AcDbLayerTableRecord
  2
COLOR88
 70
0
 62
7
  6
CONTINUOUS
370
-3
390
F
  0
LAYER
  5
308
100
AcDbSymbolTableRecord
100
AcDbLayerTableRecord
  2
COLOR89
 70
0
 62
7
  6
CONTINUOUS
370
-3
390
F
  0
LAYER
  5
309
100
AcDbSymbolTableRecord
100
AcDbLayerTableRecord
  2
COLOR89_1
 70
0
 62
7
  6
CONTINUOUS
370
-3
390
F
  0
LAYER
  5
30A
100
AcDbSymbolTableRecord
100
AcDbLayerTableRecord
  2
COLOR8_1
 70
0
 62
7
  6
CONTINUOUS
370
-3
390
F
  0
LAYER
  5
30B
100
AcDbSymbolTableRecord
100
AcDbLayerTableRecord
  2
COLOR9
 70
0
 62
7
  6
CONTINUOUS
370
-3
390
F
  0
LAYER
  5
30C
100
AcDbSymbolTableRecord
100
AcDbLayerTableRecord
  2
COLOR91
 70
0
 62
7
  6
CONTINUOUS
370
-3
390
F
  0
LAYER
  5
30D
100
AcDbSymbolTableRecord
100
AcDbLayerTableRecord
  2
COLOR91_1
 70
0
 62
7
  6
CONTINUOUS
370
-3
390
F
  0
LAYER
  5
30E
100
AcDbSymbolTableRecord
100
AcDbLayerTableRecord
  2
COLOR93
 70
0
 62
7
  6
CONTINUOUS
370
-3
390
F
  0
LAYER
  5
30F
100
AcDbSymbolTableRecord
100
AcDbLayerTableRecord
  2
COLOR93_1
 70
0
 62
7
  6
CONTINUOUS
370
-3
390
F
  0
LAYER
  5
310
100
AcDbSymbolTableRecord
100
AcDbLayerTableRecord
  2
COLOR95
 70
0
 62
7
  6
CONTINUOUS
370
-3
390
F
  0
LAYER
  5
311
100
AcDbSymbolTableRecord
100
AcDbLayerTableRecord
  2
COLOR95_1
 70
0
 62
7
  6
CONTINUOUS
370
-3
390
F
  0
LAYER
  5
312
100
AcDbSymbolTableRecord
100
AcDbLayerTableRecord
  2
COLOR97
 70
0
 62
7
  6
CONTINUOUS
370
-3
390
F
  0
LAYER
  5
313
100
AcDbSymbolTableRecord
100
AcDbLayerTableRecord
  2
COLOR97_1
 70
0
 62
7
  6
CONTINUOUS
370
-3
390
F
  0
LAYER
  5
314
100
AcDbSymbolTableRecord
100
AcDbLayerTableRecord
  2
COLOR99
 70
0
 62
7
  6
CONTINUOUS
370
-3
390
F
  0
LAYER
  5
315
100
AcDbSymbolTableRecord
100
AcDbLayerTableRecord
  2
COLOR99_1
 70
0
 62
7
  6
CONTINUOUS
370
-3
390
F
  0
LAYER
  5
316
100
AcDbSymbolTableRecord
100
AcDbLayerTableRecord
  2
COLOR9_1
 70
0
 62
7
  6
CONTINUOUS
370
-3
390
F
  0
LAYER
  5
317
100
AcDbSymbolTableRecord
100
AcDbLayerTableRecord
  2
COORDINATE
 70
0
 62
7
  6
CONTINUOUS
370
-3
390
F
  0
LAYER
  5
318
100
AcDbSymbolTableRecord
100
AcDbLayerTableRecord
  2
COPY_PUBLISH
 70
0
 62
7
  6
CONTINUOUS
370
-3
390
F
  0
LAYER
  5
319
100
AcDbSymbolTableRecord
100
AcDbLayerTableRecord
  2
COSMETIC
 70
0
 62
7
  6
CONTINUOUS
370
-3
390
F
  0
LAYER
  5
31A
100
AcDbSymbolTableRecord
100
AcDbLayerTableRecord
  2
COSMETICI
 70
0
 62
7
  6
CONTINUOUS
370
-3
390
F
  0
LAYER
  5
31B
100
AcDbSymbolTableRecord
100
AcDbLayerTableRecord
  2
CP-DO-214AC-SMAJ
 70
0
 62
7
  6
CONTINUOUS
370
-3
390
F
  0
LAYER
  5
31C
100
AcDbSymbolTableRecord
100
AcDbLayerTableRecord
  2
CP-DO-214AC-SMAJ_1
 70
0
 62
7
  6
CONTINUOUS
370
-3
390
F
  0
LAYER
  5
31D
100
AcDbSymbolTableRecord
100
AcDbLayerTableRecord
  2
CP-DO-214AC-SMAJ_2
 70
0
 62
7
  6
CONTINUOUS
370
-3
390
F
  0
LAYER
  5
31E
100
AcDbSymbolTableRecord
100
AcDbLayerTableRecord
  2
CP-DO-214AC-SMAJ_3
 70
0
 62
7
  6
CONTINUOUS
370
-3
390
F
  0
LAYER
  5
31F
100
AcDbSymbolTableRecord
100
AcDbLayerTableRecord
  2
CP-DO-214AC-SMAJ_4
 70
0
 62
7
  6
CONTINUOUS
370
-3
390
F
  0
LAYER
  5
320
100
AcDbSymbolTableRecord
100
AcDbLayerTableRecord
  2
CURVE
 70
0
 62
7
  6
CONTINUOUS
370
-3
390
F
  0
LAYER
  5
321
100
AcDbSymbolTableRecord
100
AcDbLayerTableRecord
  2
DRAFT
 70
0
 62
7
  6
CONTINUOUS
370
-3
390
F
  0
LAYER
  5
322
100
AcDbSymbolTableRecord
100
AcDbLayerTableRecord
  2
ECAD_0402-CC
 70
0
 62
7
  6
CONTINUOUS
370
-3
390
F
  0
LAYER
  5
323
100
AcDbSymbolTableRecord
100
AcDbLayerTableRecord
  2
ECAD_0402-R
 70
0
 62
7
  6
CONTINUOUS
370
-3
390
F
  0
LAYER
  5
324
100
AcDbSymbolTableRecord
100
AcDbLayerTableRecord
  2
ECAD_1608-CC-0603
 70
0
 62
7
  6
CONTINUOUS
370
-3
390
F
  0
LAYER
  5
325
100
AcDbSymbolTableRecord
100
AcDbLayerTableRecord
  2
ECAD_1608-CC-0603_1
 70
0
 62
7
  6
CONTINUOUS
370
-3
390
F
  0
LAYER
  5
326
100
AcDbSymbolTableRecord
100
AcDbLayerTableRecord
  2
ECAD_1608-R
 70
0
 62
7
  6
CONTINUOUS
370
-3
390
F
  0
LAYER
  5
327
100
AcDbSymbolTableRecord
100
AcDbLayerTableRecord
  2
ECAD_1608-R_1
 70
0
 62
7
  6
CONTINUOUS
370
-3
390
F
  0
LAYER
  5
328
100
AcDbSymbolTableRecord
100
AcDbLayerTableRecord
  2
ECAD_2125-CC
 70
0
 62
7
  6
CONTINUOUS
370
-3
390
F
  0
LAYER
  5
329
100
AcDbSymbolTableRecord
100
AcDbLayerTableRecord
  2
ECAD_2125-R-0805
 70
0
 62
7
  6
CONTINUOUS
370
-3
390
F
  0
LAYER
  5
32A
100
AcDbSymbolTableRecord
100
AcDbLayerTableRecord
  2
ECAD_2125-R-0805_1
 70
0
 62
7
  6
CONTINUOUS
370
-3
390
F
  0
LAYER
  5
32B
100
AcDbSymbolTableRecord
100
AcDbLayerTableRecord
  2
ECAD_3216-CC-1206
 70
0
 62
7
  6
CONTINUOUS
370
-3
390
F
  0
LAYER
  5
32C
100
AcDbSymbolTableRecord
100
AcDbLayerTableRecord
  2
ECAD_3216-R
 70
0
 62
7
  6
CONTINUOUS
370
-3
390
F
  0
LAYER
  5
32D
100
AcDbSymbolTableRecord
100
AcDbLayerTableRecord
  2
ECAD_3216-R-MINIMELF
 70
0
 62
7
  6
CONTINUOUS
370
-3
390
F
  0
LAYER
  5
32E
100
AcDbSymbolTableRecord
100
AcDbLayerTableRecord
  2
ECAD_3216-R-MINIMELF_1
 70
0
 62
7
  6
CONTINUOUS
370
-3
390
F
  0
LAYER
  5
32F
100
AcDbSymbolTableRecord
100
AcDbLayerTableRecord
  2
ECAD_3225-L
 70
0
 62
7
  6
CONTINUOUS
370
-3
390
F
  0
LAYER
  5
330
100
AcDbSymbolTableRecord
100
AcDbLayerTableRecord
  2
ECAD_A_CASE_SMT_CAPACITOR
 70
0
 62
7
  6
CONTINUOUS
370
-3
390
F
  0
LAYER
  5
331
100
AcDbSymbolTableRecord
100
AcDbLayerTableRecord
  2
ECAD_CN-MRT4P5_2
 70
0
 62
7
  6
CONTINUOUS
370
-3
390
F
  0
LAYER
  5
332
100
AcDbSymbolTableRecord
100
AcDbLayerTableRecord
  2
ECAD_CN-MRT4P5_3
 70
0
 62
7
  6
CONTINUOUS
370
-3
390
F
  0
LAYER
  5
333
100
AcDbSymbolTableRecord
100
AcDbLayerTableRecord
  2
ECAD_CP-CE_8X10
 70
0
 62
7
  6
CONTINUOUS
370
-3
390
F
  0
LAYER
  5
334
100
AcDbSymbolTableRecord
100
AcDbLayerTableRecord
  2
ECAD_CP-DO-214AC-SMAJ
 70
0
 62
7
  6
CONTINUOUS
370
-3
390
F
  0
LAYER
  5
335
100
AcDbSymbolTableRecord
100
AcDbLayerTableRecord
  2
ECAD_C_CASE_SMT_CAPACITOR
 70
0
 62
7
  6
CONTINUOUS
370
-3
390
F
  0
LAYER
  5
336
100
AcDbSymbolTableRecord
100
AcDbLayerTableRecord
  2
ECAD_HC49US
 70
0
 62
7
  6
CONTINUOUS
370
-3
390
F
  0
LAYER
  5
337
100
AcDbSymbolTableRecord
100
AcDbLayerTableRecord
  2
ECAD_PLCC4-LED-DLHG
 70
0
 62
7
  6
CONTINUOUS
370
-3
390
F
  0
LAYER
  5
338
100
AcDbSymbolTableRecord
100
AcDbLayerTableRecord
  2
ECAD_QFN25-P50_400X400X85
 70
0
 62
7
  6
CONTINUOUS
370
-3
390
F
  0
LAYER
  5
339
100
AcDbSymbolTableRecord
100
AcDbLayerTableRecord
  2
ECAD_R-SHUNT-SMD
 70
0
 62
7
  6
CONTINUOUS
370
-3
390
F
  0
LAYER
  5
33A
100
AcDbSymbolTableRecord
100
AcDbLayerTableRecord
  2
ECAD_RES_AX_OX_15PITCH
 70
0
 62
7
  6
CONTINUOUS
370
-3
390
F
  0
LAYER
  5
33B
100
AcDbSymbolTableRecord
100
AcDbLayerTableRecord
  2
ECAD_SDIP6-TLP2766
 70
0
 62
7
  6
CONTINUOUS
370
-3
390
F
  0
LAYER
  5
33C
100
AcDbSymbolTableRecord
100
AcDbLayerTableRecord
  2
ECAD_SKRPAB
 70
0
 62
7
  6
CONTINUOUS
370
-3
390
F
  0
LAYER
  5
33D
100
AcDbSymbolTableRecord
100
AcDbLayerTableRecord
  2
ECAD_SO-8C
 70
0
 62
7
  6
CONTINUOUS
370
-3
390
F
  0
LAYER
  5
33E
100
AcDbSymbolTableRecord
100
AcDbLayerTableRecord
  2
ECAD_SOT-223-FZT
 70
0
 62
7
  6
CONTINUOUS
370
-3
390
F
  0
LAYER
  5
33F
100
AcDbSymbolTableRecord
100
AcDbLayerTableRecord
  2
ECAD_SOT-89-HT7550
 70
0
 62
7
  6
CONTINUOUS
370
-3
390
F
  0
LAYER
  5
340
100
AcDbSymbolTableRecord
100
AcDbLayerTableRecord
  2
ECAD_SOT-89-HT7550_1
 70
0
 62
7
  6
CONTINUOUS
370
-3
390
F
  0
LAYER
  5
341
100
AcDbSymbolTableRecord
100
AcDbLayerTableRecord
  2
ECAD_SOT23
 70
0
 62
7
  6
CONTINUOUS
370
-3
390
F
  0
LAYER
  5
342
100
AcDbSymbolTableRecord
100
AcDbLayerTableRecord
  2
ECAD_SOT323-5-FMT_IC_TS391IL
 70
0
 62
7
  6
CONTINUOUS
370
-3
390
F
  0
LAYER
  5
343
100
AcDbSymbolTableRecord
100
AcDbLayerTableRecord
  2
ECAD_SOT323BAV99W
 70
0
 62
7
  6
CONTINUOUS
370
-3
390
F
  0
LAYER
  5
344
100
AcDbSymbolTableRecord
100
AcDbLayerTableRecord
  2
ECAD_TQFP48-F1-RF-VIMAR_160000
 70
0
 62
7
  6
CONTINUOUS
370
-3
390
F
  0
LAYER
  5
345
100
AcDbSymbolTableRecord
100
AcDbLayerTableRecord
  2
ECAD_TSSOP8-RF-VIMAR_110000
 70
0
 62
7
  6
CONTINUOUS
370
-3
390
F
  0
LAYER
  5
346
100
AcDbSymbolTableRecord
100
AcDbLayerTableRecord
  2
ECAD_VARISTORSIOV-S07KXX
 70
0
 62
7
  6
CONTINUOUS
370
-3
390
F
  0
LAYER
  5
347
100
AcDbSymbolTableRecord
100
AcDbLayerTableRecord
  2
ECAD_WURTH-INDUCTOR-WE-PD2_7850
 70
0
 62
7
  6
CONTINUOUS
370
-3
390
F
  0
LAYER
  5
348
100
AcDbSymbolTableRecord
100
AcDbLayerTableRecord
  2
IMPORT_IGES
 70
0
 62
7
  6
CONTINUOUS
370
-3
390
F
  0
LAYER
  5
349
100
AcDbSymbolTableRecord
100
AcDbLayerTableRecord
  2
INDPD2A_7850
 70
0
 62
7
  6
CONTINUOUS
370
-3
390
F
  0
LAYER
  5
34A
100
AcDbSymbolTableRecord
100
AcDbLayerTableRecord
  2
INDPD2A_7850_1
 70
0
 62
7
  6
CONTINUOUS
370
-3
390
F
  0
LAYER
  5
34B
100
AcDbSymbolTableRecord
100
AcDbLayerTableRecord
  2
INTFCLR_3
 70
0
 62
7
  6
CONTINUOUS
370
-3
390
F
  0
LAYER
  5
34C
100
AcDbSymbolTableRecord
100
AcDbLayerTableRecord
  2
LAYER_802
 70
0
 62
7
  6
CONTINUOUS
370
-3
390
F
  0
LAYER
  5
34D
100
AcDbSymbolTableRecord
100
AcDbLayerTableRecord
  2
LAYER_802_1
 70
0
 62
7
  6
CONTINUOUS
370
-3
390
F
  0
LAYER
  5
34E
100
AcDbSymbolTableRecord
100
AcDbLayerTableRecord
  2
LQFP48GRID-0_5
 70
0
 62
7
  6
CONTINUOUS
370
-3
390
F
  0
LAYER
  5
34F
100
AcDbSymbolTableRecord
100
AcDbLayerTableRecord
  2
LQFP48_G
 70
0
 62
7
  6
CONTINUOUS
370
-3
390
F
  0
LAYER
  5
350
100
AcDbSymbolTableRecord
100
AcDbLayerTableRecord
  2
LQFP48_GRID_0_5_LQ
 70
0
 62
7
  6
CONTINUOUS
370
-3
390
F
  0
LAYER
  5
351
100
AcDbSymbolTableRecord
100
AcDbLayerTableRecord
  2
LQFP48_GRID_0_5_LQ_1
 70
0
 62
7
  6
CONTINUOUS
370
-3
390
F
  0
LAYER
  5
352
100
AcDbSymbolTableRecord
100
AcDbLayerTableRecord
  2
LQFP48_GRID_0_5_LQ_10
 70
0
 62
7
  6
CONTINUOUS
370
-3
390
F
  0
LAYER
  5
353
100
AcDbSymbolTableRecord
100
AcDbLayerTableRecord
  2
LQFP48_GRID_0_5_LQ_10_1
 70
0
 62
7
  6
CONTINUOUS
370
-3
390
F
  0
LAYER
  5
354
100
AcDbSymbolTableRecord
100
AcDbLayerTableRecord
  2
LQFP48_GRID_0_5_LQ_11
 70
0
 62
7
  6
CONTINUOUS
370
-3
390
F
  0
LAYER
  5
355
100
AcDbSymbolTableRecord
100
AcDbLayerTableRecord
  2
LQFP48_GRID_0_5_LQ_11_1
 70
0
 62
7
  6
CONTINUOUS
370
-3
390
F
  0
LAYER
  5
356
100
AcDbSymbolTableRecord
100
AcDbLayerTableRecord
  2
LQFP48_GRID_0_5_LQ_12
 70
0
 62
7
  6
CONTINUOUS
370
-3
390
F
  0
LAYER
  5
357
100
AcDbSymbolTableRecord
100
AcDbLayerTableRecord
  2
LQFP48_GRID_0_5_LQ_12_1
 70
0
 62
7
  6
CONTINUOUS
370
-3
390
F
  0
LAYER
  5
358
100
AcDbSymbolTableRecord
100
AcDbLayerTableRecord
  2
LQFP48_GRID_0_5_LQ_13
 70
0
 62
7
  6
CONTINUOUS
370
-3
390
F
  0
LAYER
  5
359
100
AcDbSymbolTableRecord
100
AcDbLayerTableRecord
  2
LQFP48_GRID_0_5_LQ_13_1
 70
0
 62
7
  6
CONTINUOUS
370
-3
390
F
  0
LAYER
  5
35A
100
AcDbSymbolTableRecord
100
AcDbLayerTableRecord
  2
LQFP48_GRID_0_5_LQ_14
 70
0
 62
7
  6
CONTINUOUS
370
-3
390
F
  0
LAYER
  5
35B
100
AcDbSymbolTableRecord
100
AcDbLayerTableRecord
  2
LQFP48_GRID_0_5_LQ_14_1
 70
0
 62
7
  6
CONTINUOUS
370
-3
390
F
  0
LAYER
  5
35C
100
AcDbSymbolTableRecord
100
AcDbLayerTableRecord
  2
LQFP48_GRID_0_5_LQ_15
 70
0
 62
7
  6
CONTINUOUS
370
-3
390
F
  0
LAYER
  5
35D
100
AcDbSymbolTableRecord
100
AcDbLayerTableRecord
  2
LQFP48_GRID_0_5_LQ_15_1
 70
0
 62
7
  6
CONTINUOUS
370
-3
390
F
  0
LAYER
  5
35E
100
AcDbSymbolTableRecord
100
AcDbLayerTableRecord
  2
LQFP48_GRID_0_5_LQ_16
 70
0
 62
7
  6
CONTINUOUS
370
-3
390
F
  0
LAYER
  5
35F
100
AcDbSymbolTableRecord
100
AcDbLayerTableRecord
  2
LQFP48_GRID_0_5_LQ_16_1
 70
0
 62
7
  6
CONTINUOUS
370
-3
390
F
  0
LAYER
  5
360
100
AcDbSymbolTableRecord
100
AcDbLayerTableRecord
  2
LQFP48_GRID_0_5_LQ_17
 70
0
 62
7
  6
CONTINUOUS
370
-3
390
F
  0
LAYER
  5
361
100
AcDbSymbolTableRecord
100
AcDbLayerTableRecord
  2
LQFP48_GRID_0_5_LQ_17_1
 70
0
 62
7
  6
CONTINUOUS
370
-3
390
F
  0
LAYER
  5
362
100
AcDbSymbolTableRecord
100
AcDbLayerTableRecord
  2
LQFP48_GRID_0_5_LQ_18
 70
0
 62
7
  6
CONTINUOUS
370
-3
390
F
  0
LAYER
  5
363
100
AcDbSymbolTableRecord
100
AcDbLayerTableRecord
  2
LQFP48_GRID_0_5_LQ_18_1
 70
0
 62
7
  6
CONTINUOUS
370
-3
390
F
  0
LAYER
  5
364
100
AcDbSymbolTableRecord
100
AcDbLayerTableRecord
  2
LQFP48_GRID_0_5_LQ_19
 70
0
 62
7
  6
CONTINUOUS
370
-3
390
F
  0
LAYER
  5
365
100
AcDbSymbolTableRecord
100
AcDbLayerTableRecord
  2
LQFP48_GRID_0_5_LQ_19_1
 70
0
 62
7
  6
CONTINUOUS
370
-3
390
F
  0
LAYER
  5
366
100
AcDbSymbolTableRecord
100
AcDbLayerTableRecord
  2
LQFP48_GRID_0_5_LQ_1_1
 70
0
 62
7
  6
CONTINUOUS
370
-3
390
F
  0
LAYER
  5
367
100
AcDbSymbolTableRecord
100
AcDbLayerTableRecord
  2
LQFP48_GRID_0_5_LQ_1_2
 70
0
 62
7
  6
CONTINUOUS
370
-3
390
F
  0
LAYER
  5
368
100
AcDbSymbolTableRecord
100
AcDbLayerTableRecord
  2
LQFP48_GRID_0_5_LQ_2
 70
0
 62
7
  6
CONTINUOUS
370
-3
390
F
  0
LAYER
  5
369
100
AcDbSymbolTableRecord
100
AcDbLayerTableRecord
  2
LQFP48_GRID_0_5_LQ_20
 70
0
 62
7
  6
CONTINUOUS
370
-3
390
F
  0
LAYER
  5
36A
100
AcDbSymbolTableRecord
100
AcDbLayerTableRecord
  2
LQFP48_GRID_0_5_LQ_20_1
 70
0
 62
7
  6
CONTINUOUS
370
-3
390
F
  0
LAYER
  5
36B
100
AcDbSymbolTableRecord
100
AcDbLayerTableRecord
  2
LQFP48_GRID_0_5_LQ_21
 70
0
 62
7
  6
CONTINUOUS
370
-3
390
F
  0
LAYER
  5
36C
100
AcDbSymbolTableRecord
100
AcDbLayerTableRecord
  2
LQFP48_GRID_0_5_LQ_21_1
 70
0
 62
7
  6
CONTINUOUS
370
-3
390
F
  0
LAYER
  5
36D
100
AcDbSymbolTableRecord
100
AcDbLayerTableRecord
  2
LQFP48_GRID_0_5_LQ_22
 70
0
 62
7
  6
CONTINUOUS
370
-3
390
F
  0
LAYER
  5
36E
100
AcDbSymbolTableRecord
100
AcDbLayerTableRecord
  2
LQFP48_GRID_0_5_LQ_22_1
 70
0
 62
7
  6
CONTINUOUS
370
-3
390
F
  0
LAYER
  5
36F
100
AcDbSymbolTableRecord
100
AcDbLayerTableRecord
  2
LQFP48_GRID_0_5_LQ_23
 70
0
 62
7
  6
CONTINUOUS
370
-3
390
F
  0
LAYER
  5
370
100
AcDbSymbolTableRecord
100
AcDbLayerTableRecord
  2
LQFP48_GRID_0_5_LQ_23_1
 70
0
 62
7
  6
CONTINUOUS
370
-3
390
F
  0
LAYER
  5
371
100
AcDbSymbolTableRecord
100
AcDbLayerTableRecord
  2
LQFP48_GRID_0_5_LQ_24
 70
0
 62
7
  6
CONTINUOUS
370
-3
390
F
  0
LAYER
  5
372
100
AcDbSymbolTableRecord
100
AcDbLayerTableRecord
  2
LQFP48_GRID_0_5_LQ_24_1
 70
0
 62
7
  6
CONTINUOUS
370
-3
390
F
  0
LAYER
  5
373
100
AcDbSymbolTableRecord
100
AcDbLayerTableRecord
  2
LQFP48_GRID_0_5_LQ_25
 70
0
 62
7
  6
CONTINUOUS
370
-3
390
F
  0
LAYER
  5
374
100
AcDbSymbolTableRecord
100
AcDbLayerTableRecord
  2
LQFP48_GRID_0_5_LQ_25_1
 70
0
 62
7
  6
CONTINUOUS
370
-3
390
F
  0
LAYER
  5
375
100
AcDbSymbolTableRecord
100
AcDbLayerTableRecord
  2
LQFP48_GRID_0_5_LQ_26
 70
0
 62
7
  6
CONTINUOUS
370
-3
390
F
  0
LAYER
  5
376
100
AcDbSymbolTableRecord
100
AcDbLayerTableRecord
  2
LQFP48_GRID_0_5_LQ_26_1
 70
0
 62
7
  6
CONTINUOUS
370
-3
390
F
  0
LAYER
  5
377
100
AcDbSymbolTableRecord
100
AcDbLayerTableRecord
  2
LQFP48_GRID_0_5_LQ_27
 70
0
 62
7
  6
CONTINUOUS
370
-3
390
F
  0
LAYER
  5
378
100
AcDbSymbolTableRecord
100
AcDbLayerTableRecord
  2
LQFP48_GRID_0_5_LQ_27_1
 70
0
 62
7
  6
CONTINUOUS
370
-3
390
F
  0
LAYER
  5
379
100
AcDbSymbolTableRecord
100
AcDbLayerTableRecord
  2
LQFP48_GRID_0_5_LQ_28
 70
0
 62
7
  6
CONTINUOUS
370
-3
390
F
  0
LAYER
  5
37A
100
AcDbSymbolTableRecord
100
AcDbLayerTableRecord
  2
LQFP48_GRID_0_5_LQ_28_1
 70
0
 62
7
  6
CONTINUOUS
370
-3
390
F
  0
LAYER
  5
37B
100
AcDbSymbolTableRecord
100
AcDbLayerTableRecord
  2
LQFP48_GRID_0_5_LQ_29
 70
0
 62
7
  6
CONTINUOUS
370
-3
390
F
  0
LAYER
  5
37C
100
AcDbSymbolTableRecord
100
AcDbLayerTableRecord
  2
LQFP48_GRID_0_5_LQ_29_1
 70
0
 62
7
  6
CONTINUOUS
370
-3
390
F
  0
LAYER
  5
37D
100
AcDbSymbolTableRecord
100
AcDbLayerTableRecord
  2
LQFP48_GRID_0_5_LQ_2_1
 70
0
 62
7
  6
CONTINUOUS
370
-3
390
F
  0
LAYER
  5
37E
100
AcDbSymbolTableRecord
100
AcDbLayerTableRecord
  2
LQFP48_GRID_0_5_LQ_3
 70
0
 62
7
  6
CONTINUOUS
370
-3
390
F
  0
LAYER
  5
37F
100
AcDbSymbolTableRecord
100
AcDbLayerTableRecord
  2
LQFP48_GRID_0_5_LQ_30
 70
0
 62
7
  6
CONTINUOUS
370
-3
390
F
  0
LAYER
  5
380
100
AcDbSymbolTableRecord
100
AcDbLayerTableRecord
  2
LQFP48_GRID_0_5_LQ_30_1
 70
0
 62
7
  6
CONTINUOUS
370
-3
390
F
  0
LAYER
  5
381
100
AcDbSymbolTableRecord
100
AcDbLayerTableRecord
  2
LQFP48_GRID_0_5_LQ_31
 70
0
 62
7
  6
CONTINUOUS
370
-3
390
F
  0
LAYER
  5
382
100
AcDbSymbolTableRecord
100
AcDbLayerTableRecord
  2
LQFP48_GRID_0_5_LQ_31_1
 70
0
 62
7
  6
CONTINUOUS
370
-3
390
F
  0
LAYER
  5
383
100
AcDbSymbolTableRecord
100
AcDbLayerTableRecord
  2
LQFP48_GRID_0_5_LQ_32
 70
0
 62
7
  6
CONTINUOUS
370
-3
390
F
  0
LAYER
  5
384
100
AcDbSymbolTableRecord
100
AcDbLayerTableRecord
  2
LQFP48_GRID_0_5_LQ_32_1
 70
0
 62
7
  6
CONTINUOUS
370
-3
390
F
  0
LAYER
  5
385
100
AcDbSymbolTableRecord
100
AcDbLayerTableRecord
  2
LQFP48_GRID_0_5_LQ_33
 70
0
 62
7
  6
CONTINUOUS
370
-3
390
F
  0
LAYER
  5
386
100
AcDbSymbolTableRecord
100
AcDbLayerTableRecord
  2
LQFP48_GRID_0_5_LQ_33_1
 70
0
 62
7
  6
CONTINUOUS
370
-3
390
F
  0
LAYER
  5
387
100
AcDbSymbolTableRecord
100
AcDbLayerTableRecord
  2
LQFP48_GRID_0_5_LQ_34
 70
0
 62
7
  6
CONTINUOUS
370
-3
390
F
  0
LAYER
  5
388
100
AcDbSymbolTableRecord
100
AcDbLayerTableRecord
  2
LQFP48_GRID_0_5_LQ_34_1
 70
0
 62
7
  6
CONTINUOUS
370
-3
390
F
  0
LAYER
  5
389
100
AcDbSymbolTableRecord
100
AcDbLayerTableRecord
  2
LQFP48_GRID_0_5_LQ_35
 70
0
 62
7
  6
CONTINUOUS
370
-3
390
F
  0
LAYER
  5
38A
100
AcDbSymbolTableRecord
100
AcDbLayerTableRecord
  2
LQFP48_GRID_0_5_LQ_35_1
 70
0
 62
7
  6
CONTINUOUS
370
-3
390
F
  0
LAYER
  5
38B
100
AcDbSymbolTableRecord
100
AcDbLayerTableRecord
  2
LQFP48_GRID_0_5_LQ_36
 70
0
 62
7
  6
CONTINUOUS
370
-3
390
F
  0
LAYER
  5
38C
100
AcDbSymbolTableRecord
100
AcDbLayerTableRecord
  2
LQFP48_GRID_0_5_LQ_36_1
 70
0
 62
7
  6
CONTINUOUS
370
-3
390
F
  0
LAYER
  5
38D
100
AcDbSymbolTableRecord
100
AcDbLayerTableRecord
  2
LQFP48_GRID_0_5_LQ_37
 70
0
 62
7
  6
CONTINUOUS
370
-3
390
F
  0
LAYER
  5
38E
100
AcDbSymbolTableRecord
100
AcDbLayerTableRecord
  2
LQFP48_GRID_0_5_LQ_37_1
 70
0
 62
7
  6
CONTINUOUS
370
-3
390
F
  0
LAYER
  5
38F
100
AcDbSymbolTableRecord
100
AcDbLayerTableRecord
  2
LQFP48_GRID_0_5_LQ_38
 70
0
 62
7
  6
CONTINUOUS
370
-3
390
F
  0
LAYER
  5
390
100
AcDbSymbolTableRecord
100
AcDbLayerTableRecord
  2
LQFP48_GRID_0_5_LQ_38_1
 70
0
 62
7
  6
CONTINUOUS
370
-3
390
F
  0
LAYER
  5
391
100
AcDbSymbolTableRecord
100
AcDbLayerTableRecord
  2
LQFP48_GRID_0_5_LQ_39
 70
0
 62
7
  6
CONTINUOUS
370
-3
390
F
  0
LAYER
  5
392
100
AcDbSymbolTableRecord
100
AcDbLayerTableRecord
  2
LQFP48_GRID_0_5_LQ_39_1
 70
0
 62
7
  6
CONTINUOUS
370
-3
390
F
  0
LAYER
  5
393
100
AcDbSymbolTableRecord
100
AcDbLayerTableRecord
  2
LQFP48_GRID_0_5_LQ_3_1
 70
0
 62
7
  6
CONTINUOUS
370
-3
390
F
  0
LAYER
  5
394
100
AcDbSymbolTableRecord
100
AcDbLayerTableRecord
  2
LQFP48_GRID_0_5_LQ_4
 70
0
 62
7
  6
CONTINUOUS
370
-3
390
F
  0
LAYER
  5
395
100
AcDbSymbolTableRecord
100
AcDbLayerTableRecord
  2
LQFP48_GRID_0_5_LQ_40
 70
0
 62
7
  6
CONTINUOUS
370
-3
390
F
  0
LAYER
  5
396
100
AcDbSymbolTableRecord
100
AcDbLayerTableRecord
  2
LQFP48_GRID_0_5_LQ_40_1
 70
0
 62
7
  6
CONTINUOUS
370
-3
390
F
  0
LAYER
  5
397
100
AcDbSymbolTableRecord
100
AcDbLayerTableRecord
  2
LQFP48_GRID_0_5_LQ_41
 70
0
 62
7
  6
CONTINUOUS
370
-3
390
F
  0
LAYER
  5
398
100
AcDbSymbolTableRecord
100
AcDbLayerTableRecord
  2
LQFP48_GRID_0_5_LQ_41_1
 70
0
 62
7
  6
CONTINUOUS
370
-3
390
F
  0
LAYER
  5
399
100
AcDbSymbolTableRecord
100
AcDbLayerTableRecord
  2
LQFP48_GRID_0_5_LQ_42
 70
0
 62
7
  6
CONTINUOUS
370
-3
390
F
  0
LAYER
  5
39A
100
AcDbSymbolTableRecord
100
AcDbLayerTableRecord
  2
LQFP48_GRID_0_5_LQ_42_1
 70
0
 62
7
  6
CONTINUOUS
370
-3
390
F
  0
LAYER
  5
39B
100
AcDbSymbolTableRecord
100
AcDbLayerTableRecord
  2
LQFP48_GRID_0_5_LQ_43
 70
0
 62
7
  6
CONTINUOUS
370
-3
390
F
  0
LAYER
  5
39C
100
AcDbSymbolTableRecord
100
AcDbLayerTableRecord
  2
LQFP48_GRID_0_5_LQ_43_1
 70
0
 62
7
  6
CONTINUOUS
370
-3
390
F
  0
LAYER
  5
39D
100
AcDbSymbolTableRecord
100
AcDbLayerTableRecord
  2
LQFP48_GRID_0_5_LQ_44
 70
0
 62
7
  6
CONTINUOUS
370
-3
390
F
  0
LAYER
  5
39E
100
AcDbSymbolTableRecord
100
AcDbLayerTableRecord
  2
LQFP48_GRID_0_5_LQ_44_1
 70
0
 62
7
  6
CONTINUOUS
370
-3
390
F
  0
LAYER
  5
39F
100
AcDbSymbolTableRecord
100
AcDbLayerTableRecord
  2
LQFP48_GRID_0_5_LQ_45
 70
0
 62
7
  6
CONTINUOUS
370
-3
390
F
  0
LAYER
  5
3A0
100
AcDbSymbolTableRecord
100
AcDbLayerTableRecord
  2
LQFP48_GRID_0_5_LQ_45_1
 70
0
 62
7
  6
CONTINUOUS
370
-3
390
F
  0
LAYER
  5
3A1
100
AcDbSymbolTableRecord
100
AcDbLayerTableRecord
  2
LQFP48_GRID_0_5_LQ_46
 70
0
 62
7
  6
CONTINUOUS
370
-3
390
F
  0
LAYER
  5
3A2
100
AcDbSymbolTableRecord
100
AcDbLayerTableRecord
  2
LQFP48_GRID_0_5_LQ_46_1
 70
0
 62
7
  6
CONTINUOUS
370
-3
390
F
  0
LAYER
  5
3A3
100
AcDbSymbolTableRecord
100
AcDbLayerTableRecord
  2
LQFP48_GRID_0_5_LQ_47
 70
0
 62
7
  6
CONTINUOUS
370
-3
390
F
  0
LAYER
  5
3A4
100
AcDbSymbolTableRecord
100
AcDbLayerTableRecord
  2
LQFP48_GRID_0_5_LQ_47_1
 70
0
 62
7
  6
CONTINUOUS
370
-3
390
F
  0
LAYER
  5
3A5
100
AcDbSymbolTableRecord
100
AcDbLayerTableRecord
  2
LQFP48_GRID_0_5_LQ_4_1
 70
0
 62
7
  6
CONTINUOUS
370
-3
390
F
  0
LAYER
  5
3A6
100
AcDbSymbolTableRecord
100
AcDbLayerTableRecord
  2
LQFP48_GRID_0_5_LQ_5
 70
0
 62
7
  6
CONTINUOUS
370
-3
390
F
  0
LAYER
  5
3A7
100
AcDbSymbolTableRecord
100
AcDbLayerTableRecord
  2
LQFP48_GRID_0_5_LQ_5_1
 70
0
 62
7
  6
CONTINUOUS
370
-3
390
F
  0
LAYER
  5
3A8
100
AcDbSymbolTableRecord
100
AcDbLayerTableRecord
  2
LQFP48_GRID_0_5_LQ_6
 70
0
 62
7
  6
CONTINUOUS
370
-3
390
F
  0
LAYER
  5
3A9
100
AcDbSymbolTableRecord
100
AcDbLayerTableRecord
  2
LQFP48_GRID_0_5_LQ_6_1
 70
0
 62
7
  6
CONTINUOUS
370
-3
390
F
  0
LAYER
  5
3AA
100
AcDbSymbolTableRecord
100
AcDbLayerTableRecord
  2
LQFP48_GRID_0_5_LQ_7
 70
0
 62
7
  6
CONTINUOUS
370
-3
390
F
  0
LAYER
  5
3AB
100
AcDbSymbolTableRecord
100
AcDbLayerTableRecord
  2
LQFP48_GRID_0_5_LQ_7_1
 70
0
 62
7
  6
CONTINUOUS
370
-3
390
F
  0
LAYER
  5
3AC
100
AcDbSymbolTableRecord
100
AcDbLayerTableRecord
  2
LQFP48_GRID_0_5_LQ_8
 70
0
 62
7
  6
CONTINUOUS
370
-3
390
F
  0
LAYER
  5
3AD
100
AcDbSymbolTableRecord
100
AcDbLayerTableRecord
  2
LQFP48_GRID_0_5_LQ_8_1
 70
0
 62
7
  6
CONTINUOUS
370
-3
390
F
  0
LAYER
  5
3AE
100
AcDbSymbolTableRecord
100
AcDbLayerTableRecord
  2
LQFP48_GRID_0_5_LQ_9
 70
0
 62
7
  6
CONTINUOUS
370
-3
390
F
  0
LAYER
  5
3AF
100
AcDbSymbolTableRecord
100
AcDbLayerTableRecord
  2
LQFP48_GRID_0_5_LQ_9_1
 70
0
 62
7
  6
CONTINUOUS
370
-3
390
F
  0
LAYER
  5
3B0
100
AcDbSymbolTableRecord
100
AcDbLayerTableRecord
  2
LQFP48_G_1
 70
0
 62
7
  6
CONTINUOUS
370
-3
390
F
  0
LAYER
  5
3B1
100
AcDbSymbolTableRecord
100
AcDbLayerTableRecord
  2
L_TPLATTE-135
 70
0
 62
7
  6
CONTINUOUS
370
-3
390
F
  0
LAYER
  5
3B2
100
AcDbSymbolTableRecord
100
AcDbLayerTableRecord
  2
L_TPLATTE-135_1
 70
0
 62
7
  6
CONTINUOUS
370
-3
390
F
  0
LAYER
  5
3B3
100
AcDbSymbolTableRecord
100
AcDbLayerTableRecord
  2
L_TPLATTE-138
 70
0
 62
7
  6
CONTINUOUS
370
-3
390
F
  0
LAYER
  5
3B4
100
AcDbSymbolTableRecord
100
AcDbLayerTableRecord
  2
L_TPLATTE-138_1
 70
0
 62
7
  6
CONTINUOUS
370
-3
390
F
  0
LAYER
  5
3B5
100
AcDbSymbolTableRecord
100
AcDbLayerTableRecord
  2
NONE
 70
0
 62
7
  6
CONTINUOUS
370
-3
390
F
  0
LAYER
  5
3B6
100
AcDbSymbolTableRecord
100
AcDbLayerTableRecord
  2
NONE_1
 70
0
 62
7
  6
CONTINUOUS
370
-3
390
F
  0
LAYER
  5
3B7
100
AcDbSymbolTableRecord
100
AcDbLayerTableRecord
  2
NOTE
 70
0
 62
7
  6
CONTINUOUS
370
-3
390
F
  0
LAYER
  5
3B8
100
AcDbSymbolTableRecord
100
AcDbLayerTableRecord
  2
PIANI
 70
0
 62
7
  6
CONTINUOUS
370
-3
390
F
  0
LAYER
  5
3B9
100
AcDbSymbolTableRecord
100
AcDbLayerTableRecord
  2
PRT0009
 70
0
 62
7
  6
CONTINUOUS
370
-3
390
F
  0
LAYER
  5
3BA
100
AcDbSymbolTableRecord
100
AcDbLayerTableRecord
  2
PRT0009_1
 70
0
 62
7
  6
CONTINUOUS
370
-3
390
F
  0
LAYER
  5
3BB
100
AcDbSymbolTableRecord
100
AcDbLayerTableRecord
  2
PRT0009_2
 70
0
 62
7
  6
CONTINUOUS
370
-3
390
F
  0
LAYER
  5
3BC
100
AcDbSymbolTableRecord
100
AcDbLayerTableRecord
  2
PRT0009_3
 70
0
 62
7
  6
CONTINUOUS
370
-3
390
F
  0
LAYER
  5
3BD
100
AcDbSymbolTableRecord
100
AcDbLayerTableRecord
  2
PRT0009_4
 70
0
 62
7
  6
CONTINUOUS
370
-3
390
F
  0
LAYER
  5
3BE
100
AcDbSymbolTableRecord
100
AcDbLayerTableRecord
  2
PRT0010
 70
0
 62
7
  6
CONTINUOUS
370
-3
390
F
  0
LAYER
  5
3BF
100
AcDbSymbolTableRecord
100
AcDbLayerTableRecord
  2
PRT0010_1
 70
0
 62
7
  6
CONTINUOUS
370
-3
390
F
  0
LAYER
  5
3C0
100
AcDbSymbolTableRecord
100
AcDbLayerTableRecord
  2
PRT0010_2
 70
0
 62
7
  6
CONTINUOUS
370
-3
390
F
  0
LAYER
  5
3C1
100
AcDbSymbolTableRecord
100
AcDbLayerTableRecord
  2
PRT0010_3
 70
0
 62
7
  6
CONTINUOUS
370
-3
390
F
  0
LAYER
  5
3C2
100
AcDbSymbolTableRecord
100
AcDbLayerTableRecord
  2
PRT0010_4
 70
0
 62
7
  6
CONTINUOUS
370
-3
390
F
  0
LAYER
  5
3C3
100
AcDbSymbolTableRecord
100
AcDbLayerTableRecord
  2
PRT0011
 70
0
 62
7
  6
CONTINUOUS
370
-3
390
F
  0
LAYER
  5
3C4
100
AcDbSymbolTableRecord
100
AcDbLayerTableRecord
  2
PRT0011_1
 70
0
 62
7
  6
CONTINUOUS
370
-3
390
F
  0
LAYER
  5
3C5
100
AcDbSymbolTableRecord
100
AcDbLayerTableRecord
  2
PRT0011_2
 70
0
 62
7
  6
CONTINUOUS
370
-3
390
F
  0
LAYER
  5
3C6
100
AcDbSymbolTableRecord
100
AcDbLayerTableRecord
  2
PRT0011_3
 70
0
 62
7
  6
CONTINUOUS
370
-3
390
F
  0
LAYER
  5
3C7
100
AcDbSymbolTableRecord
100
AcDbLayerTableRecord
  2
PRT0011_4
 70
0
 62
7
  6
CONTINUOUS
370
-3
390
F
  0
LAYER
  5
3C8
100
AcDbSymbolTableRecord
100
AcDbLayerTableRecord
  2
PRT0011_5
 70
0
 62
7
  6
CONTINUOUS
370
-3
390
F
  0
LAYER
  5
3C9
100
AcDbSymbolTableRecord
100
AcDbLayerTableRecord
  2
PRT0011_6
 70
0
 62
7
  6
CONTINUOUS
370
-3
390
F
  0
LAYER
  5
3CA
100
AcDbSymbolTableRecord
100
AcDbLayerTableRecord
  2
PRT0011_7
 70
0
 62
7
  6
CONTINUOUS
370
-3
390
F
  0
LAYER
  5
3CB
100
AcDbSymbolTableRecord
100
AcDbLayerTableRecord
  2
PRT0011_8
 70
0
 62
7
  6
CONTINUOUS
370
-3
390
F
  0
LAYER
  5
3CC
100
AcDbSymbolTableRecord
100
AcDbLayerTableRecord
  2
PRT0011_9
 70
0
 62
7
  6
CONTINUOUS
370
-3
390
F
  0
LAYER
  5
3CD
100
AcDbSymbolTableRecord
100
AcDbLayerTableRecord
  2
PRT0012
 70
0
 62
7
  6
CONTINUOUS
370
-3
390
F
  0
LAYER
  5
3CE
100
AcDbSymbolTableRecord
100
AcDbLayerTableRecord
  2
PRT0012_1
 70
0
 62
7
  6
CONTINUOUS
370
-3
390
F
  0
LAYER
  5
3CF
100
AcDbSymbolTableRecord
100
AcDbLayerTableRecord
  2
PRT0012_2
 70
0
 62
7
  6
CONTINUOUS
370
-3
390
F
  0
LAYER
  5
3D0
100
AcDbSymbolTableRecord
100
AcDbLayerTableRecord
  2
PRT0012_3
 70
0
 62
7
  6
CONTINUOUS
370
-3
390
F
  0
LAYER
  5
3D1
100
AcDbSymbolTableRecord
100
AcDbLayerTableRecord
  2
PRT0012_4
 70
0
 62
7
  6
CONTINUOUS
370
-3
390
F
  0
LAYER
  5
3D2
100
AcDbSymbolTableRecord
100
AcDbLayerTableRecord
  2
PRT0012_5
 70
0
 62
7
  6
CONTINUOUS
370
-3
390
F
  0
LAYER
  5
3D3
100
AcDbSymbolTableRecord
100
AcDbLayerTableRecord
  2
PRT0012_6
 70
0
 62
7
  6
CONTINUOUS
370
-3
390
F
  0
LAYER
  5
3D4
100
AcDbSymbolTableRecord
100
AcDbLayerTableRecord
  2
PRT0012_7
 70
0
 62
7
  6
CONTINUOUS
370
-3
390
F
  0
LAYER
  5
3D5
100
AcDbSymbolTableRecord
100
AcDbLayerTableRecord
  2
PRT0012_8
 70
0
 62
7
  6
CONTINUOUS
370
-3
390
F
  0
LAYER
  5
3D6
100
AcDbSymbolTableRecord
100
AcDbLayerTableRecord
  2
PRT0012_9
 70
0
 62
7
  6
CONTINUOUS
370
-3
390
F
  0
LAYER
  5
3D7
100
AcDbSymbolTableRecord
100
AcDbLayerTableRecord
  2
PRT0013
 70
0
 62
7
  6
CONTINUOUS
370
-3
390
F
  0
LAYER
  5
3D8
100
AcDbSymbolTableRecord
100
AcDbLayerTableRecord
  2
PRT0013_1
 70
0
 62
7
  6
CONTINUOUS
370
-3
390
F
  0
LAYER
  5
3D9
100
AcDbSymbolTableRecord
100
AcDbLayerTableRecord
  2
PRT0013_2
 70
0
 62
7
  6
CONTINUOUS
370
-3
390
F
  0
LAYER
  5
3DA
100
AcDbSymbolTableRecord
100
AcDbLayerTableRecord
  2
PRT0013_3
 70
0
 62
7
  6
CONTINUOUS
370
-3
390
F
  0
LAYER
  5
3DB
100
AcDbSymbolTableRecord
100
AcDbLayerTableRecord
  2
PRT0013_4
 70
0
 62
7
  6
CONTINUOUS
370
-3
390
F
  0
LAYER
  5
3DC
100
AcDbSymbolTableRecord
100
AcDbLayerTableRecord
  2
PRT0013_5
 70
0
 62
7
  6
CONTINUOUS
370
-3
390
F
  0
LAYER
  5
3DD
100
AcDbSymbolTableRecord
100
AcDbLayerTableRecord
  2
PRT0013_6
 70
0
 62
7
  6
CONTINUOUS
370
-3
390
F
  0
LAYER
  5
3DE
100
AcDbSymbolTableRecord
100
AcDbLayerTableRecord
  2
PRT0013_7
 70
0
 62
7
  6
CONTINUOUS
370
-3
390
F
  0
LAYER
  5
3DF
100
AcDbSymbolTableRecord
100
AcDbLayerTableRecord
  2
PRT0013_8
 70
0
 62
7
  6
CONTINUOUS
370
-3
390
F
  0
LAYER
  5
3E0
100
AcDbSymbolTableRecord
100
AcDbLayerTableRecord
  2
PRT0013_9
 70
0
 62
7
  6
CONTINUOUS
370
-3
390
F
  0
LAYER
  5
3E1
100
AcDbSymbolTableRecord
100
AcDbLayerTableRecord
  2
PRT0014
 70
0
 62
7
  6
CONTINUOUS
370
-3
390
F
  0
LAYER
  5
3E2
100
AcDbSymbolTableRecord
100
AcDbLayerTableRecord
  2
PRT0014_1
 70
0
 62
7
  6
CONTINUOUS
370
-3
390
F
  0
LAYER
  5
3E3
100
AcDbSymbolTableRecord
100
AcDbLayerTableRecord
  2
PRT0014_2
 70
0
 62
7
  6
CONTINUOUS
370
-3
390
F
  0
LAYER
  5
3E4
100
AcDbSymbolTableRecord
100
AcDbLayerTableRecord
  2
PRT0014_3
 70
0
 62
7
  6
CONTINUOUS
370
-3
390
F
  0
LAYER
  5
3E5
100
AcDbSymbolTableRecord
100
AcDbLayerTableRecord
  2
PRT0014_4
 70
0
 62
7
  6
CONTINUOUS
370
-3
390
F
  0
LAYER
  5
3E6
100
AcDbSymbolTableRecord
100
AcDbLayerTableRecord
  2
PRT0014_5
 70
0
 62
7
  6
CONTINUOUS
370
-3
390
F
  0
LAYER
  5
3E7
100
AcDbSymbolTableRecord
100
AcDbLayerTableRecord
  2
PRT0014_6
 70
0
 62
7
  6
CONTINUOUS
370
-3
390
F
  0
LAYER
  5
3E8
100
AcDbSymbolTableRecord
100
AcDbLayerTableRecord
  2
PRT0014_7
 70
0
 62
7
  6
CONTINUOUS
370
-3
390
F
  0
LAYER
  5
3E9
100
AcDbSymbolTableRecord
100
AcDbLayerTableRecord
  2
PRT0014_8
 70
0
 62
7
  6
CONTINUOUS
370
-3
390
F
  0
LAYER
  5
3EA
100
AcDbSymbolTableRecord
100
AcDbLayerTableRecord
  2
PRT0014_9
 70
0
 62
7
  6
CONTINUOUS
370
-3
390
F
  0
LAYER
  5
3EB
100
AcDbSymbolTableRecord
100
AcDbLayerTableRecord
  2
PRT0021
 70
0
 62
7
  6
CONTINUOUS
370
-3
390
F
  0
LAYER
  5
3EC
100
AcDbSymbolTableRecord
100
AcDbLayerTableRecord
  2
PRT0021_1
 70
0
 62
7
  6
CONTINUOUS
370
-3
390
F
  0
LAYER
  5
3ED
100
AcDbSymbolTableRecord
100
AcDbLayerTableRecord
  2
PRT0021_2
 70
0
 62
7
  6
CONTINUOUS
370
-3
390
F
  0
LAYER
  5
3EE
100
AcDbSymbolTableRecord
100
AcDbLayerTableRecord
  2
PRT0022
 70
0
 62
7
  6
CONTINUOUS
370
-3
390
F
  0
LAYER
  5
3EF
100
AcDbSymbolTableRecord
100
AcDbLayerTableRecord
  2
PRT0022_1
 70
0
 62
7
  6
CONTINUOUS
370
-3
390
F
  0
LAYER
  5
3F0
100
AcDbSymbolTableRecord
100
AcDbLayerTableRecord
  2
PRT0022_2
 70
0
 62
7
  6
CONTINUOUS
370
-3
390
F
  0
LAYER
  5
3F1
100
AcDbSymbolTableRecord
100
AcDbLayerTableRecord
  2
PRT0023
 70
0
 62
7
  6
CONTINUOUS
370
-3
390
F
  0
LAYER
  5
3F2
100
AcDbSymbolTableRecord
100
AcDbLayerTableRecord
  2
PRT0023_1
 70
0
 62
7
  6
CONTINUOUS
370
-3
390
F
  0
LAYER
  5
3F3
100
AcDbSymbolTableRecord
100
AcDbLayerTableRecord
  2
PRT0023_2
 70
0
 62
7
  6
CONTINUOUS
370
-3
390
F
  0
LAYER
  5
3F4
100
AcDbSymbolTableRecord
100
AcDbLayerTableRecord
  2
PRT0028
 70
0
 62
7
  6
CONTINUOUS
370
-3
390
F
  0
LAYER
  5
3F5
100
AcDbSymbolTableRecord
100
AcDbLayerTableRecord
  2
PRT0029
 70
0
 62
7
  6
CONTINUOUS
370
-3
390
F
  0
LAYER
  5
3F6
100
AcDbSymbolTableRecord
100
AcDbLayerTableRecord
  2
PRT0030
 70
0
 62
7
  6
CONTINUOUS
370
-3
390
F
  0
LAYER
  5
3F7
100
AcDbSymbolTableRecord
100
AcDbLayerTableRecord
  2
PRT0031
 70
0
 62
7
  6
CONTINUOUS
370
-3
390
F
  0
LAYER
  5
3F8
100
AcDbSymbolTableRecord
100
AcDbLayerTableRecord
  2
PRT0032
 70
0
 62
7
  6
CONTINUOUS
370
-3
390
F
  0
LAYER
  5
3F9
100
AcDbSymbolTableRecord
100
AcDbLayerTableRecord
  2
PRT0037
 70
0
 62
7
  6
CONTINUOUS
370
-3
390
F
  0
LAYER
  5
3FA
100
AcDbSymbolTableRecord
100
AcDbLayerTableRecord
  2
PRT0037_1
 70
0
 62
7
  6
CONTINUOUS
370
-3
390
F
  0
LAYER
  5
3FB
100
AcDbSymbolTableRecord
100
AcDbLayerTableRecord
  2
PRT0037_2
 70
0
 62
7
  6
CONTINUOUS
370
-3
390
F
  0
LAYER
  5
3FC
100
AcDbSymbolTableRecord
100
AcDbLayerTableRecord
  2
PRT0037_3
 70
0
 62
7
  6
CONTINUOUS
370
-3
390
F
  0
LAYER
  5
3FD
100
AcDbSymbolTableRecord
100
AcDbLayerTableRecord
  2
PRT0037_4
 70
0
 62
7
  6
CONTINUOUS
370
-3
390
F
  0
LAYER
  5
3FE
100
AcDbSymbolTableRecord
100
AcDbLayerTableRecord
  2
PRT0038
 70
0
 62
7
  6
CONTINUOUS
370
-3
390
F
  0
LAYER
  5
3FF
100
AcDbSymbolTableRecord
100
AcDbLayerTableRecord
  2
PRT0038_1
 70
0
 62
7
  6
CONTINUOUS
370
-3
390
F
  0
LAYER
  5
400
100
AcDbSymbolTableRecord
100
AcDbLayerTableRecord
  2
PRT0038_2
 70
0
 62
7
  6
CONTINUOUS
370
-3
390
F
  0
LAYER
  5
401
100
AcDbSymbolTableRecord
100
AcDbLayerTableRecord
  2
PRT0038_3
 70
0
 62
7
  6
CONTINUOUS
370
-3
390
F
  0
LAYER
  5
402
100
AcDbSymbolTableRecord
100
AcDbLayerTableRecord
  2
PRT0038_4
 70
0
 62
7
  6
CONTINUOUS
370
-3
390
F
  0
LAYER
  5
403
100
AcDbSymbolTableRecord
100
AcDbLayerTableRecord
  2
PRT0039
 70
0
 62
7
  6
CONTINUOUS
370
-3
390
F
  0
LAYER
  5
404
100
AcDbSymbolTableRecord
100
AcDbLayerTableRecord
  2
PRT0039_1
 70
0
 62
7
  6
CONTINUOUS
370
-3
390
F
  0
LAYER
  5
405
100
AcDbSymbolTableRecord
100
AcDbLayerTableRecord
  2
PRT0039_2
 70
0
 62
7
  6
CONTINUOUS
370
-3
390
F
  0
LAYER
  5
406
100
AcDbSymbolTableRecord
100
AcDbLayerTableRecord
  2
PRT0039_3
 70
0
 62
7
  6
CONTINUOUS
370
-3
390
F
  0
LAYER
  5
407
100
AcDbSymbolTableRecord
100
AcDbLayerTableRecord
  2
PRT0039_4
 70
0
 62
7
  6
CONTINUOUS
370
-3
390
F
  0
LAYER
  5
408
100
AcDbSymbolTableRecord
100
AcDbLayerTableRecord
  2
PUNTI
 70
0
 62
7
  6
CONTINUOUS
370
-3
390
F
  0
LAYER
  5
409
100
AcDbSymbolTableRecord
100
AcDbLayerTableRecord
  2
RACCORDO
 70
0
 62
7
  6
CONTINUOUS
370
-3
390
F
  0
LAYER
  5
40A
100
AcDbSymbolTableRecord
100
AcDbLayerTableRecord
  2
RES_OX_15PITCH_BODY
 70
0
 62
7
  6
CONTINUOUS
370
-3
390
F
  0
LAYER
  5
40B
100
AcDbSymbolTableRecord
100
AcDbLayerTableRecord
  2
RES_OX_15PITCH_BODY_1
 70
0
 62
7
  6
CONTINUOUS
370
-3
390
F
  0
LAYER
  5
40C
100
AcDbSymbolTableRecord
100
AcDbLayerTableRecord
  2
RES_OX_15PITCH_PIN
 70
0
 62
7
  6
CONTINUOUS
370
-3
390
F
  0
LAYER
  5
40D
100
AcDbSymbolTableRecord
100
AcDbLayerTableRecord
  2
RES_OX_15PITCH_PIN_1
 70
0
 62
7
  6
CONTINUOUS
370
-3
390
F
  0
LAYER
  5
40E
100
AcDbSymbolTableRecord
100
AcDbLayerTableRecord
  2
SDIP6-TLP2766
 70
0
 62
7
  6
CONTINUOUS
370
-3
390
F
  0
LAYER
  5
40F
100
AcDbSymbolTableRecord
100
AcDbLayerTableRecord
  2
SDIP6-TLP2766_1
 70
0
 62
7
  6
CONTINUOUS
370
-3
390
F
  0
LAYER
  5
410
100
AcDbSymbolTableRecord
100
AcDbLayerTableRecord
  2
SIMBOLI
 70
0
 62
7
  6
CONTINUOUS
370
-3
390
F
  0
LAYER
  5
411
100
AcDbSymbolTableRecord
100
AcDbLayerTableRecord
  2
SMUSSO
 70
0
 62
7
  6
CONTINUOUS
370
-3
390
F
  0
LAYER
  5
412
100
AcDbSymbolTableRecord
100
AcDbLayerTableRecord
  2
SNAPLINE
 70
0
 62
7
  6
CONTINUOUS
370
-3
390
F
  0
LAYER
  5
413
100
AcDbSymbolTableRecord
100
AcDbLayerTableRecord
  2
SOT23
 70
0
 62
7
  6
CONTINUOUS
370
-3
390
F
  0
LAYER
  5
414
100
AcDbSymbolTableRecord
100
AcDbLayerTableRecord
  2
SOT23_1
 70
0
 62
7
  6
CONTINUOUS
370
-3
390
F
  0
LAYER
  5
415
100
AcDbSymbolTableRecord
100
AcDbLayerTableRecord
  2
SOT23_2
 70
0
 62
7
  6
CONTINUOUS
370
-3
390
F
  0
LAYER
  5
416
100
AcDbSymbolTableRecord
100
AcDbLayerTableRecord
  2
SOT23_3
 70
0
 62
7
  6
CONTINUOUS
370
-3
390
F
  0
LAYER
  5
417
100
AcDbSymbolTableRecord
100
AcDbLayerTableRecord
  2
SOT23_4
 70
0
 62
7
  6
CONTINUOUS
370
-3
390
F
  0
LAYER
  5
418
100
AcDbSymbolTableRecord
100
AcDbLayerTableRecord
  2
SOT323-5-FMT_IC_TS391IL
 70
0
 62
7
  6
CONTINUOUS
370
-3
390
F
  0
LAYER
  5
419
100
AcDbSymbolTableRecord
100
AcDbLayerTableRecord
  2
SOT323-5-FMT_IC_TS391IL_1
 70
0
 62
7
  6
CONTINUOUS
370
-3
390
F
  0
LAYER
  5
41A
100
AcDbSymbolTableRecord
100
AcDbLayerTableRecord
  2
SOT323-5-FMT_IC_TS391IL_2
 70
0
 62
7
  6
CONTINUOUS
370
-3
390
F
  0
LAYER
  5
41B
100
AcDbSymbolTableRecord
100
AcDbLayerTableRecord
  2
SOT323BAV99W
 70
0
 62
7
  6
CONTINUOUS
370
-3
390
F
  0
LAYER
  5
41C
100
AcDbSymbolTableRecord
100
AcDbLayerTableRecord
  2
SOT323BAV99W_1
 70
0
 62
7
  6
CONTINUOUS
370
-3
390
F
  0
LAYER
  5
41D
100
AcDbSymbolTableRecord
100
AcDbLayerTableRecord
  2
SOT323BAV99W_2
 70
0
 62
7
  6
CONTINUOUS
370
-3
390
F
  0
LAYER
  5
41E
100
AcDbSymbolTableRecord
100
AcDbLayerTableRecord
  2
SOT323BAV99W_3
 70
0
 62
7
  6
CONTINUOUS
370
-3
390
F
  0
LAYER
  5
41F
100
AcDbSymbolTableRecord
100
AcDbLayerTableRecord
  2
SOT323BAV99W_4
 70
0
 62
7
  6
CONTINUOUS
370
-3
390
F
  0
LAYER
  5
420
100
AcDbSymbolTableRecord
100
AcDbLayerTableRecord
  2
SOT323BAV99W_5
 70
0
 62
7
  6
CONTINUOUS
370
-3
390
F
  0
LAYER
  5
421
100
AcDbSymbolTableRecord
100
AcDbLayerTableRecord
  2
SOT323BAV99W_6
 70
0
 62
7
  6
CONTINUOUS
370
-3
390
F
  0
LAYER
  5
422
100
AcDbSymbolTableRecord
100
AcDbLayerTableRecord
  2
SOT323BAV99W_7
 70
0
 62
7
  6
CONTINUOUS
370
-3
390
F
  0
LAYER
  5
423
100
AcDbSymbolTableRecord
100
AcDbLayerTableRecord
  2
SOT323BAV99W_8
 70
0
 62
7
  6
CONTINUOUS
370
-3
390
F
  0
LAYER
  5
424
100
AcDbSymbolTableRecord
100
AcDbLayerTableRecord
  2
SOT323BAV99W_9
 70
0
 62
7
  6
CONTINUOUS
370
-3
390
F
  0
LAYER
  5
425
100
AcDbSymbolTableRecord
100
AcDbLayerTableRecord
  2
SUPERFICI
 70
0
 62
7
  6
CONTINUOUS
370
-3
390
F
  0
LAYER
  5
426
100
AcDbSymbolTableRecord
100
AcDbLayerTableRecord
  2
THERMO01_83000230A0
 70
0
 62
7
  6
CONTINUOUS
370
-3
390
F
  0
LAYER
  5
427
100
AcDbSymbolTableRecord
100
AcDbLayerTableRecord
  2
THERMO01_83000230A0_1
 70
0
 62
7
  6
CONTINUOUS
370
-3
390
F
  0
LAYER
  5
428
100
AcDbSymbolTableRecord
100
AcDbLayerTableRecord
  2
THERMO01_83000230A0_2
 70
0
 62
7
  6
CONTINUOUS
370
-3
390
F
  0
LAYER
  5
429
100
AcDbSymbolTableRecord
100
AcDbLayerTableRecord
  2
THERMO01_83000230A0_3
 70
0
 62
7
  6
CONTINUOUS
370
-3
390
F
  0
LAYER
  5
42A
100
AcDbSymbolTableRecord
100
AcDbLayerTableRecord
  2
THERMO01_83000230A0_4
 70
0
 62
7
  6
CONTINUOUS
370
-3
390
F
  0
LAYER
  5
42B
100
AcDbSymbolTableRecord
100
AcDbLayerTableRecord
  2
THERMO01_83000230A0_5
 70
0
 62
7
  6
CONTINUOUS
370
-3
390
F
  0
LAYER
  5
42C
100
AcDbSymbolTableRecord
100
AcDbLayerTableRecord
  2
THERMO01_83000230A0_6
 70
0
 62
7
  6
CONTINUOUS
370
-3
390
F
  0
LAYER
  5
42D
100
AcDbSymbolTableRecord
100
AcDbLayerTableRecord
  2
TRASH
 70
0
 62
7
  6
CONTINUOUS
370
-3
390
F
  0
LAYER
  5
42E
100
AcDbSymbolTableRecord
100
AcDbLayerTableRecord
  2
TSSOP-8
 70
0
 62
7
  6
CONTINUOUS
370
-3
390
F
  0
LAYER
  5
42F
100
AcDbSymbolTableRecord
100
AcDbLayerTableRecord
  2
WHITE
 70
0
 62
7
  6
CONTINUOUS
370
-3
390
F
  0
LAYER
  5
430
100
AcDbSymbolTableRecord
100
AcDbLayerTableRecord
  2
_1018
 70
0
 62
7
  6
CONTINUOUS
370
-3
390
F
  0
LAYER
  5
431
100
AcDbSymbolTableRecord
100
AcDbLayerTableRecord
  2
_1018_1
 70
0
 62
7
  6
CONTINUOUS
370
-3
390
F
  0
LAYER
  5
432
100
AcDbSymbolTableRecord
100
AcDbLayerTableRecord
  2
_1039
 70
0
 62
7
  6
CONTINUOUS
370
-3
390
F
  0
LAYER
  5
433
100
AcDbSymbolTableRecord
100
AcDbLayerTableRecord
  2
_1039_1
 70
0
 62
7
  6
CONTINUOUS
370
-3
390
F
  0
LAYER
  5
434
100
AcDbSymbolTableRecord
100
AcDbLayerTableRecord
  2
_10508
 70
0
 62
7
  6
CONTINUOUS
370
-3
390
F
  0
LAYER
  5
435
100
AcDbSymbolTableRecord
100
AcDbLayerTableRecord
  2
_10508_1
 70
0
 62
7
  6
CONTINUOUS
370
-3
390
F
  0
LAYER
  5
436
100
AcDbSymbolTableRecord
100
AcDbLayerTableRecord
  2
_1051
 70
0
 62
7
  6
CONTINUOUS
370
-3
390
F
  0
LAYER
  5
437
100
AcDbSymbolTableRecord
100
AcDbLayerTableRecord
  2
_1051_1
 70
0
 62
7
  6
CONTINUOUS
370
-3
390
F
  0
LAYER
  5
438
100
AcDbSymbolTableRecord
100
AcDbLayerTableRecord
  2
_10585
 70
0
 62
7
  6
CONTINUOUS
370
-3
390
F
  0
LAYER
  5
439
100
AcDbSymbolTableRecord
100
AcDbLayerTableRecord
  2
_10585_1
 70
0
 62
7
  6
CONTINUOUS
370
-3
390
F
  0
LAYER
  5
43A
100
AcDbSymbolTableRecord
100
AcDbLayerTableRecord
  2
_1103
 70
0
 62
7
  6
CONTINUOUS
370
-3
390
F
  0
LAYER
  5
43B
100
AcDbSymbolTableRecord
100
AcDbLayerTableRecord
  2
_1103_1
 70
0
 62
7
  6
CONTINUOUS
370
-3
390
F
  0
LAYER
  5
43C
100
AcDbSymbolTableRecord
100
AcDbLayerTableRecord
  2
_1174
 70
0
 62
7
  6
CONTINUOUS
370
-3
390
F
  0
LAYER
  5
43D
100
AcDbSymbolTableRecord
100
AcDbLayerTableRecord
  2
_1174_1
 70
0
 62
7
  6
CONTINUOUS
370
-3
390
F
  0
LAYER
  5
43E
100
AcDbSymbolTableRecord
100
AcDbLayerTableRecord
  2
_1205
 70
0
 62
7
  6
CONTINUOUS
370
-3
390
F
  0
LAYER
  5
43F
100
AcDbSymbolTableRecord
100
AcDbLayerTableRecord
  2
_1205_1
 70
0
 62
7
  6
CONTINUOUS
370
-3
390
F
  0
LAYER
  5
440
100
AcDbSymbolTableRecord
100
AcDbLayerTableRecord
  2
_1229
 70
0
 62
7
  6
CONTINUOUS
370
-3
390
F
  0
LAYER
  5
441
100
AcDbSymbolTableRecord
100
AcDbLayerTableRecord
  2
_1229_1
 70
0
 62
7
  6
CONTINUOUS
370
-3
390
F
  0
LAYER
  5
442
100
AcDbSymbolTableRecord
100
AcDbLayerTableRecord
  2
_1279
 70
0
 62
7
  6
CONTINUOUS
370
-3
390
F
  0
LAYER
  5
443
100
AcDbSymbolTableRecord
100
AcDbLayerTableRecord
  2
_1279_1
 70
0
 62
7
  6
CONTINUOUS
370
-3
390
F
  0
LAYER
  5
444
100
AcDbSymbolTableRecord
100
AcDbLayerTableRecord
  2
_1308
 70
0
 62
7
  6
CONTINUOUS
370
-3
390
F
  0
LAYER
  5
445
100
AcDbSymbolTableRecord
100
AcDbLayerTableRecord
  2
_1308_1
 70
0
 62
7
  6
CONTINUOUS
370
-3
390
F
  0
LAYER
  5
446
100
AcDbSymbolTableRecord
100
AcDbLayerTableRecord
  2
_1339
 70
0
 62
7
  6
CONTINUOUS
370
-3
390
F
  0
LAYER
  5
447
100
AcDbSymbolTableRecord
100
AcDbLayerTableRecord
  2
_1339_1
 70
0
 62
7
  6
CONTINUOUS
370
-3
390
F
  0
LAYER
  5
448
100
AcDbSymbolTableRecord
100
AcDbLayerTableRecord
  2
_1387
 70
0
 62
7
  6
CONTINUOUS
370
-3
390
F
  0
LAYER
  5
449
100
AcDbSymbolTableRecord
100
AcDbLayerTableRecord
  2
_1387_1
 70
0
 62
7
  6
CONTINUOUS
370
-3
390
F
  0
LAYER
  5
44A
100
AcDbSymbolTableRecord
100
AcDbLayerTableRecord
  2
_1408
 70
0
 62
7
  6
CONTINUOUS
370
-3
390
F
  0
LAYER
  5
44B
100
AcDbSymbolTableRecord
100
AcDbLayerTableRecord
  2
_1408_1
 70
0
 62
7
  6
CONTINUOUS
370
-3
390
F
  0
LAYER
  5
44C
100
AcDbSymbolTableRecord
100
AcDbLayerTableRecord
  2
_1423
 70
0
 62
7
  6
CONTINUOUS
370
-3
390
F
  0
LAYER
  5
44D
100
AcDbSymbolTableRecord
100
AcDbLayerTableRecord
  2
_1423_1
 70
0
 62
7
  6
CONTINUOUS
370
-3
390
F
  0
LAYER
  5
44E
100
AcDbSymbolTableRecord
100
AcDbLayerTableRecord
  2
_1449
 70
0
 62
7
  6
CONTINUOUS
370
-3
390
F
  0
LAYER
  5
44F
100
AcDbSymbolTableRecord
100
AcDbLayerTableRecord
  2
_1449_1
 70
0
 62
7
  6
CONTINUOUS
370
-3
390
F
  0
LAYER
  5
450
100
AcDbSymbolTableRecord
100
AcDbLayerTableRecord
  2
_1478
 70
0
 62
7
  6
CONTINUOUS
370
-3
390
F
  0
LAYER
  5
451
100
AcDbSymbolTableRecord
100
AcDbLayerTableRecord
  2
_1478_1
 70
0
 62
7
  6
CONTINUOUS
370
-3
390
F
  0
LAYER
  5
452
100
AcDbSymbolTableRecord
100
AcDbLayerTableRecord
  2
_1566
 70
0
 62
7
  6
CONTINUOUS
370
-3
390
F
  0
LAYER
  5
453
100
AcDbSymbolTableRecord
100
AcDbLayerTableRecord
  2
_1566_1
 70
0
 62
7
  6
CONTINUOUS
370
-3
390
F
  0
LAYER
  5
454
100
AcDbSymbolTableRecord
100
AcDbLayerTableRecord
  2
_1598
 70
0
 62
7
  6
CONTINUOUS
370
-3
390
F
  0
LAYER
  5
455
100
AcDbSymbolTableRecord
100
AcDbLayerTableRecord
  2
_1598_1
 70
0
 62
7
  6
CONTINUOUS
370
-3
390
F
  0
LAYER
  5
456
100
AcDbSymbolTableRecord
100
AcDbLayerTableRecord
  2
_1632
 70
0
 62
7
  6
CONTINUOUS
370
-3
390
F
  0
LAYER
  5
457
100
AcDbSymbolTableRecord
100
AcDbLayerTableRecord
  2
_1632_1
 70
0
 62
7
  6
CONTINUOUS
370
-3
390
F
  0
LAYER
  5
458
100
AcDbSymbolTableRecord
100
AcDbLayerTableRecord
  2
_1646
 70
0
 62
7
  6
CONTINUOUS
370
-3
390
F
  0
LAYER
  5
459
100
AcDbSymbolTableRecord
100
AcDbLayerTableRecord
  2
_1646_1
 70
0
 62
7
  6
CONTINUOUS
370
-3
390
F
  0
LAYER
  5
45A
100
AcDbSymbolTableRecord
100
AcDbLayerTableRecord
  2
_1731
 70
0
 62
7
  6
CONTINUOUS
370
-3
390
F
  0
LAYER
  5
45B
100
AcDbSymbolTableRecord
100
AcDbLayerTableRecord
  2
_1731_1
 70
0
 62
7
  6
CONTINUOUS
370
-3
390
F
  0
LAYER
  5
45C
100
AcDbSymbolTableRecord
100
AcDbLayerTableRecord
  2
_1737
 70
0
 62
7
  6
CONTINUOUS
370
-3
390
F
  0
LAYER
  5
45D
100
AcDbSymbolTableRecord
100
AcDbLayerTableRecord
  2
_1737_1
 70
0
 62
7
  6
CONTINUOUS
370
-3
390
F
  0
LAYER
  5
45E
100
AcDbSymbolTableRecord
100
AcDbLayerTableRecord
  2
_1758
 70
0
 62
7
  6
CONTINUOUS
370
-3
390
F
  0
LAYER
  5
45F
100
AcDbSymbolTableRecord
100
AcDbLayerTableRecord
  2
_1758_1
 70
0
 62
7
  6
CONTINUOUS
370
-3
390
F
  0
LAYER
  5
460
100
AcDbSymbolTableRecord
100
AcDbLayerTableRecord
  2
_1768
 70
0
 62
7
  6
CONTINUOUS
370
-3
390
F
  0
LAYER
  5
461
100
AcDbSymbolTableRecord
100
AcDbLayerTableRecord
  2
_1768_1
 70
0
 62
7
  6
CONTINUOUS
370
-3
390
F
  0
LAYER
  5
462
100
AcDbSymbolTableRecord
100
AcDbLayerTableRecord
  2
_1797
 70
0
 62
7
  6
CONTINUOUS
370
-3
390
F
  0
LAYER
  5
463
100
AcDbSymbolTableRecord
100
AcDbLayerTableRecord
  2
_1797_1
 70
0
 62
7
  6
CONTINUOUS
370
-3
390
F
  0
LAYER
  5
464
100
AcDbSymbolTableRecord
100
AcDbLayerTableRecord
  2
_1819
 70
0
 62
7
  6
CONTINUOUS
370
-3
390
F
  0
LAYER
  5
465
100
AcDbSymbolTableRecord
100
AcDbLayerTableRecord
  2
_1819_1
 70
0
 62
7
  6
CONTINUOUS
370
-3
390
F
  0
LAYER
  5
466
100
AcDbSymbolTableRecord
100
AcDbLayerTableRecord
  2
_1854
 70
0
 62
7
  6
CONTINUOUS
370
-3
390
F
  0
LAYER
  5
467
100
AcDbSymbolTableRecord
100
AcDbLayerTableRecord
  2
_1854_1
 70
0
 62
7
  6
CONTINUOUS
370
-3
390
F
  0
LAYER
  5
468
100
AcDbSymbolTableRecord
100
AcDbLayerTableRecord
  2
_1879
 70
0
 62
7
  6
CONTINUOUS
370
-3
390
F
  0
LAYER
  5
469
100
AcDbSymbolTableRecord
100
AcDbLayerTableRecord
  2
_1879_1
 70
0
 62
7
  6
CONTINUOUS
370
-3
390
F
  0
LAYER
  5
46A
100
AcDbSymbolTableRecord
100
AcDbLayerTableRecord
  2
_1909
 70
0
 62
7
  6
CONTINUOUS
370
-3
390
F
  0
LAYER
  5
46B
100
AcDbSymbolTableRecord
100
AcDbLayerTableRecord
  2
_1909_1
 70
0
 62
7
  6
CONTINUOUS
370
-3
390
F
  0
LAYER
  5
46C
100
AcDbSymbolTableRecord
100
AcDbLayerTableRecord
  2
_1969
 70
0
 62
7
  6
CONTINUOUS
370
-3
390
F
  0
LAYER
  5
46D
100
AcDbSymbolTableRecord
100
AcDbLayerTableRecord
  2
_1969_1
 70
0
 62
7
  6
CONTINUOUS
370
-3
390
F
  0
LAYER
  5
46E
100
AcDbSymbolTableRecord
100
AcDbLayerTableRecord
  2
_2000
 70
0
 62
7
  6
CONTINUOUS
370
-3
390
F
  0
LAYER
  5
46F
100
AcDbSymbolTableRecord
100
AcDbLayerTableRecord
  2
_2000_1
 70
0
 62
7
  6
CONTINUOUS
370
-3
390
F
  0
LAYER
  5
470
100
AcDbSymbolTableRecord
100
AcDbLayerTableRecord
  2
_2029
 70
0
 62
7
  6
CONTINUOUS
370
-3
390
F
  0
LAYER
  5
471
100
AcDbSymbolTableRecord
100
AcDbLayerTableRecord
  2
_2029_1
 70
0
 62
7
  6
CONTINUOUS
370
-3
390
F
  0
LAYER
  5
472
100
AcDbSymbolTableRecord
100
AcDbLayerTableRecord
  2
_2050
 70
0
 62
7
  6
CONTINUOUS
370
-3
390
F
  0
LAYER
  5
473
100
AcDbSymbolTableRecord
100
AcDbLayerTableRecord
  2
_2050_1
 70
0
 62
7
  6
CONTINUOUS
370
-3
390
F
  0
LAYER
  5
474
100
AcDbSymbolTableRecord
100
AcDbLayerTableRecord
  2
_2109
 70
0
 62
7
  6
CONTINUOUS
370
-3
390
F
  0
LAYER
  5
475
100
AcDbSymbolTableRecord
100
AcDbLayerTableRecord
  2
_2109_1
 70
0
 62
7
  6
CONTINUOUS
370
-3
390
F
  0
LAYER
  5
476
100
AcDbSymbolTableRecord
100
AcDbLayerTableRecord
  2
_2138
 70
0
 62
7
  6
CONTINUOUS
370
-3
390
F
  0
LAYER
  5
477
100
AcDbSymbolTableRecord
100
AcDbLayerTableRecord
  2
_2138_1
 70
0
 62
7
  6
CONTINUOUS
370
-3
390
F
  0
LAYER
  5
478
100
AcDbSymbolTableRecord
100
AcDbLayerTableRecord
  2
_2215
 70
0
 62
7
  6
CONTINUOUS
370
-3
390
F
  0
LAYER
  5
479
100
AcDbSymbolTableRecord
100
AcDbLayerTableRecord
  2
_2215_1
 70
0
 62
7
  6
CONTINUOUS
370
-3
390
F
  0
LAYER
  5
47A
100
AcDbSymbolTableRecord
100
AcDbLayerTableRecord
  2
_2810
 70
0
 62
7
  6
CONTINUOUS
370
-3
390
F
  0
LAYER
  5
47B
100
AcDbSymbolTableRecord
100
AcDbLayerTableRecord
  2
_2810_1
 70
0
 62
7
  6
CONTINUOUS
370
-3
390
F
  0
LAYER
  5
47C
100
AcDbSymbolTableRecord
100
AcDbLayerTableRecord
  2
_2832
 70
0
 62
7
  6
CONTINUOUS
370
-3
390
F
  0
LAYER
  5
47D
100
AcDbSymbolTableRecord
100
AcDbLayerTableRecord
  2
_2832_1
 70
0
 62
7
  6
CONTINUOUS
370
-3
390
F
  0
LAYER
  5
47E
100
AcDbSymbolTableRecord
100
AcDbLayerTableRecord
  2
_2871
 70
0
 62
7
  6
CONTINUOUS
370
-3
390
F
  0
LAYER
  5
47F
100
AcDbSymbolTableRecord
100
AcDbLayerTableRecord
  2
_2871_1
 70
0
 62
7
  6
CONTINUOUS
370
-3
390
F
  0
LAYER
  5
480
100
AcDbSymbolTableRecord
100
AcDbLayerTableRecord
  2
_2901
 70
0
 62
7
  6
CONTINUOUS
370
-3
390
F
  0
LAYER
  5
481
100
AcDbSymbolTableRecord
100
AcDbLayerTableRecord
  2
_2901_1
 70
0
 62
7
  6
CONTINUOUS
370
-3
390
F
  0
LAYER
  5
482
100
AcDbSymbolTableRecord
100
AcDbLayerTableRecord
  2
_2933
 70
0
 62
7
  6
CONTINUOUS
370
-3
390
F
  0
LAYER
  5
483
100
AcDbSymbolTableRecord
100
AcDbLayerTableRecord
  2
_2933_1
 70
0
 62
7
  6
CONTINUOUS
370
-3
390
F
  0
LAYER
  5
484
100
AcDbSymbolTableRecord
100
AcDbLayerTableRecord
  2
_2956
 70
0
 62
7
  6
CONTINUOUS
370
-3
390
F
  0
LAYER
  5
485
100
AcDbSymbolTableRecord
100
AcDbLayerTableRecord
  2
_2956_1
 70
0
 62
7
  6
CONTINUOUS
370
-3
390
F
  0
LAYER
  5
486
100
AcDbSymbolTableRecord
100
AcDbLayerTableRecord
  2
_2984
 70
0
 62
7
  6
CONTINUOUS
370
-3
390
F
  0
LAYER
  5
487
100
AcDbSymbolTableRecord
100
AcDbLayerTableRecord
  2
_2984_1
 70
0
 62
7
  6
CONTINUOUS
370
-3
390
F
  0
LAYER
  5
488
100
AcDbSymbolTableRecord
100
AcDbLayerTableRecord
  2
_3014
 70
0
 62
7
  6
CONTINUOUS
370
-3
390
F
  0
LAYER
  5
489
100
AcDbSymbolTableRecord
100
AcDbLayerTableRecord
  2
_3014_1
 70
0
 62
7
  6
CONTINUOUS
370
-3
390
F
  0
LAYER
  5
48A
100
AcDbSymbolTableRecord
100
AcDbLayerTableRecord
  2
_3046
 70
0
 62
7
  6
CONTINUOUS
370
-3
390
F
  0
LAYER
  5
48B
100
AcDbSymbolTableRecord
100
AcDbLayerTableRecord
  2
_3046_1
 70
0
 62
7
  6
CONTINUOUS
370
-3
390
F
  0
LAYER
  5
48C
100
AcDbSymbolTableRecord
100
AcDbLayerTableRecord
  2
_3071
 70
0
 62
7
  6
CONTINUOUS
370
-3
390
F
  0
LAYER
  5
48D
100
AcDbSymbolTableRecord
100
AcDbLayerTableRecord
  2
_3071_1
 70
0
 62
7
  6
CONTINUOUS
370
-3
390
F
  0
LAYER
  5
48E
100
AcDbSymbolTableRecord
100
AcDbLayerTableRecord
  2
_3094
 70
0
 62
7
  6
CONTINUOUS
370
-3
390
F
  0
LAYER
  5
48F
100
AcDbSymbolTableRecord
100
AcDbLayerTableRecord
  2
_3094_1
 70
0
 62
7
  6
CONTINUOUS
370
-3
390
F
  0
LAYER
  5
490
100
AcDbSymbolTableRecord
100
AcDbLayerTableRecord
  2
_3129
 70
0
 62
7
  6
CONTINUOUS
370
-3
390
F
  0
LAYER
  5
491
100
AcDbSymbolTableRecord
100
AcDbLayerTableRecord
  2
_3129_1
 70
0
 62
7
  6
CONTINUOUS
370
-3
390
F
  0
LAYER
  5
492
100
AcDbSymbolTableRecord
100
AcDbLayerTableRecord
  2
_3158
 70
0
 62
7
  6
CONTINUOUS
370
-3
390
F
  0
LAYER
  5
493
100
AcDbSymbolTableRecord
100
AcDbLayerTableRecord
  2
_3158_1
 70
0
 62
7
  6
CONTINUOUS
370
-3
390
F
  0
LAYER
  5
494
100
AcDbSymbolTableRecord
100
AcDbLayerTableRecord
  2
_3185
 70
0
 62
7
  6
CONTINUOUS
370
-3
390
F
  0
LAYER
  5
495
100
AcDbSymbolTableRecord
100
AcDbLayerTableRecord
  2
_3185_1
 70
0
 62
7
  6
CONTINUOUS
370
-3
390
F
  0
LAYER
  5
496
100
AcDbSymbolTableRecord
100
AcDbLayerTableRecord
  2
_3211
 70
0
 62
7
  6
CONTINUOUS
370
-3
390
F
  0
LAYER
  5
497
100
AcDbSymbolTableRecord
100
AcDbLayerTableRecord
  2
_3211_1
 70
0
 62
7
  6
CONTINUOUS
370
-3
390
F
  0
LAYER
  5
498
100
AcDbSymbolTableRecord
100
AcDbLayerTableRecord
  2
_3239
 70
0
 62
7
  6
CONTINUOUS
370
-3
390
F
  0
LAYER
  5
499
100
AcDbSymbolTableRecord
100
AcDbLayerTableRecord
  2
_3239_1
 70
0
 62
7
  6
CONTINUOUS
370
-3
390
F
  0
LAYER
  5
49A
100
AcDbSymbolTableRecord
100
AcDbLayerTableRecord
  2
_3262
 70
0
 62
7
  6
CONTINUOUS
370
-3
390
F
  0
LAYER
  5
49B
100
AcDbSymbolTableRecord
100
AcDbLayerTableRecord
  2
_3262_1
 70
0
 62
7
  6
CONTINUOUS
370
-3
390
F
  0
LAYER
  5
49C
100
AcDbSymbolTableRecord
100
AcDbLayerTableRecord
  2
_3331
 70
0
 62
7
  6
CONTINUOUS
370
-3
390
F
  0
LAYER
  5
49D
100
AcDbSymbolTableRecord
100
AcDbLayerTableRecord
  2
_3331_1
 70
0
 62
7
  6
CONTINUOUS
370
-3
390
F
  0
LAYER
  5
49E
100
AcDbSymbolTableRecord
100
AcDbLayerTableRecord
  2
_3359
 70
0
 62
7
  6
CONTINUOUS
370
-3
390
F
  0
LAYER
  5
49F
100
AcDbSymbolTableRecord
100
AcDbLayerTableRecord
  2
_3359_1
 70
0
 62
7
  6
CONTINUOUS
370
-3
390
F
  0
LAYER
  5
4A0
100
AcDbSymbolTableRecord
100
AcDbLayerTableRecord
  2
_3394
 70
0
 62
7
  6
CONTINUOUS
370
-3
390
F
  0
LAYER
  5
4A1
100
AcDbSymbolTableRecord
100
AcDbLayerTableRecord
  2
_3394_1
 70
0
 62
7
  6
CONTINUOUS
370
-3
390
F
  0
LAYER
  5
4A2
100
AcDbSymbolTableRecord
100
AcDbLayerTableRecord
  2
_3423
 70
0
 62
7
  6
CONTINUOUS
370
-3
390
F
  0
LAYER
  5
4A3
100
AcDbSymbolTableRecord
100
AcDbLayerTableRecord
  2
_3423_1
 70
0
 62
7
  6
CONTINUOUS
370
-3
390
F
  0
LAYER
  5
4A4
100
AcDbSymbolTableRecord
100
AcDbLayerTableRecord
  2
_3455
 70
0
 62
7
  6
CONTINUOUS
370
-3
390
F
  0
LAYER
  5
4A5
100
AcDbSymbolTableRecord
100
AcDbLayerTableRecord
  2
_3455_1
 70
0
 62
7
  6
CONTINUOUS
370
-3
390
F
  0
LAYER
  5
4A6
100
AcDbSymbolTableRecord
100
AcDbLayerTableRecord
  2
_3476
 70
0
 62
7
  6
CONTINUOUS
370
-3
390
F
  0
LAYER
  5
4A7
100
AcDbSymbolTableRecord
100
AcDbLayerTableRecord
  2
_3476_1
 70
0
 62
7
  6
CONTINUOUS
370
-3
390
F
  0
LAYER
  5
4A8
100
AcDbSymbolTableRecord
100
AcDbLayerTableRecord
  2
_3498
 70
0
 62
7
  6
CONTINUOUS
370
-3
390
F
  0
LAYER
  5
4A9
100
AcDbSymbolTableRecord
100
AcDbLayerTableRecord
  2
_3498_1
 70
0
 62
7
  6
CONTINUOUS
370
-3
390
F
  0
LAYER
  5
4AA
100
AcDbSymbolTableRecord
100
AcDbLayerTableRecord
  2
_3528
 70
0
 62
7
  6
CONTINUOUS
370
-3
390
F
  0
LAYER
  5
4AB
100
AcDbSymbolTableRecord
100
AcDbLayerTableRecord
  2
_3528_1
 70
0
 62
7
  6
CONTINUOUS
370
-3
390
F
  0
LAYER
  5
4AC
100
AcDbSymbolTableRecord
100
AcDbLayerTableRecord
  2
_3544
 70
0
 62
7
  6
CONTINUOUS
370
-3
390
F
  0
LAYER
  5
4AD
100
AcDbSymbolTableRecord
100
AcDbLayerTableRecord
  2
_3544_1
 70
0
 62
7
  6
CONTINUOUS
370
-3
390
F
  0
LAYER
  5
4AE
100
AcDbSymbolTableRecord
100
AcDbLayerTableRecord
  2
_3583
 70
0
 62
7
  6
CONTINUOUS
370
-3
390
F
  0
LAYER
  5
4AF
100
AcDbSymbolTableRecord
100
AcDbLayerTableRecord
  2
_3583_1
 70
0
 62
7
  6
CONTINUOUS
370
-3
390
F
  0
LAYER
  5
4B0
100
AcDbSymbolTableRecord
100
AcDbLayerTableRecord
  2
_3635
 70
0
 62
7
  6
CONTINUOUS
370
-3
390
F
  0
LAYER
  5
4B1
100
AcDbSymbolTableRecord
100
AcDbLayerTableRecord
  2
_3635_1
 70
0
 62
7
  6
CONTINUOUS
370
-3
390
F
  0
LAYER
  5
4B2
100
AcDbSymbolTableRecord
100
AcDbLayerTableRecord
  2
_3656
 70
0
 62
7
  6
CONTINUOUS
370
-3
390
F
  0
LAYER
  5
4B3
100
AcDbSymbolTableRecord
100
AcDbLayerTableRecord
  2
_3656_1
 70
0
 62
7
  6
CONTINUOUS
370
-3
390
F
  0
LAYER
  5
4B4
100
AcDbSymbolTableRecord
100
AcDbLayerTableRecord
  2
_3667
 70
0
 62
7
  6
CONTINUOUS
370
-3
390
F
  0
LAYER
  5
4B5
100
AcDbSymbolTableRecord
100
AcDbLayerTableRecord
  2
_3667_1
 70
0
 62
7
  6
CONTINUOUS
370
-3
390
F
  0
LAYER
  5
4B6
100
AcDbSymbolTableRecord
100
AcDbLayerTableRecord
  2
_3692
 70
0
 62
7
  6
CONTINUOUS
370
-3
390
F
  0
LAYER
  5
4B7
100
AcDbSymbolTableRecord
100
AcDbLayerTableRecord
  2
_3692_1
 70
0
 62
7
  6
CONTINUOUS
370
-3
390
F
  0
LAYER
  5
4B8
100
AcDbSymbolTableRecord
100
AcDbLayerTableRecord
  2
_3764
 70
0
 62
7
  6
CONTINUOUS
370
-3
390
F
  0
LAYER
  5
4B9
100
AcDbSymbolTableRecord
100
AcDbLayerTableRecord
  2
_3764_1
 70
0
 62
7
  6
CONTINUOUS
370
-3
390
F
  0
LAYER
  5
4BA
100
AcDbSymbolTableRecord
100
AcDbLayerTableRecord
  2
_3775
 70
0
 62
7
  6
CONTINUOUS
370
-3
390
F
  0
LAYER
  5
4BB
100
AcDbSymbolTableRecord
100
AcDbLayerTableRecord
  2
_3775_1
 70
0
 62
7
  6
CONTINUOUS
370
-3
390
F
  0
LAYER
  5
4BC
100
AcDbSymbolTableRecord
100
AcDbLayerTableRecord
  2
_3800
 70
0
 62
7
  6
CONTINUOUS
370
-3
390
F
  0
LAYER
  5
4BD
100
AcDbSymbolTableRecord
100
AcDbLayerTableRecord
  2
_3800_1
 70
0
 62
7
  6
CONTINUOUS
370
-3
390
F
  0
LAYER
  5
4BE
100
AcDbSymbolTableRecord
100
AcDbLayerTableRecord
  2
_3807
 70
0
 62
7
  6
CONTINUOUS
370
-3
390
F
  0
LAYER
  5
4BF
100
AcDbSymbolTableRecord
100
AcDbLayerTableRecord
  2
_3807_1
 70
0
 62
7
  6
CONTINUOUS
370
-3
390
F
  0
LAYER
  5
4C0
100
AcDbSymbolTableRecord
100
AcDbLayerTableRecord
  2
_3831
 70
0
 62
7
  6
CONTINUOUS
370
-3
390
F
  0
LAYER
  5
4C1
100
AcDbSymbolTableRecord
100
AcDbLayerTableRecord
  2
_3831_1
 70
0
 62
7
  6
CONTINUOUS
370
-3
390
F
  0
LAYER
  5
4C2
100
AcDbSymbolTableRecord
100
AcDbLayerTableRecord
  2
_3858
 70
0
 62
7
  6
CONTINUOUS
370
-3
390
F
  0
LAYER
  5
4C3
100
AcDbSymbolTableRecord
100
AcDbLayerTableRecord
  2
_3858_1
 70
0
 62
7
  6
CONTINUOUS
370
-3
390
F
  0
LAYER
  5
4C4
100
AcDbSymbolTableRecord
100
AcDbLayerTableRecord
  2
_6908
 70
0
 62
7
  6
CONTINUOUS
370
-3
390
F
  0
LAYER
  5
4C5
100
AcDbSymbolTableRecord
100
AcDbLayerTableRecord
  2
_6908_1
 70
0
 62
7
  6
CONTINUOUS
370
-3
390
F
  0
LAYER
  5
4C6
100
AcDbSymbolTableRecord
100
AcDbLayerTableRecord
  2
_7982
 70
0
 62
7
  6
CONTINUOUS
370
-3
390
F
  0
LAYER
  5
4C7
100
AcDbSymbolTableRecord
100
AcDbLayerTableRecord
  2
_7982_1
 70
0
 62
7
  6
CONTINUOUS
370
-3
390
F
  0
LAYER
  5
4C8
100
AcDbSymbolTableRecord
100
AcDbLayerTableRecord
  2
_8048
 70
0
 62
7
  6
CONTINUOUS
370
-3
390
F
  0
LAYER
  5
4C9
100
AcDbSymbolTableRecord
100
AcDbLayerTableRecord
  2
_8048_1
 70
0
 62
7
  6
CONTINUOUS
370
-3
390
F
  0
LAYER
  5
4CA
100
AcDbSymbolTableRecord
100
AcDbLayerTableRecord
  2
_8132
 70
0
 62
7
  6
CONTINUOUS
370
-3
390
F
  0
LAYER
  5
4CB
100
AcDbSymbolTableRecord
100
AcDbLayerTableRecord
  2
_8132_1
 70
0
 62
7
  6
CONTINUOUS
370
-3
390
F
  0
LAYER
  5
4CC
100
AcDbSymbolTableRecord
100
AcDbLayerTableRecord
  2
_817
 70
0
 62
7
  6
CONTINUOUS
370
-3
390
F
  0
LAYER
  5
4CD
100
AcDbSymbolTableRecord
100
AcDbLayerTableRecord
  2
_817_1
 70
0
 62
7
  6
CONTINUOUS
370
-3
390
F
  0
LAYER
  5
4CE
100
AcDbSymbolTableRecord
100
AcDbLayerTableRecord
  2
_8191
 70
0
 62
7
  6
CONTINUOUS
370
-3
390
F
  0
LAYER
  5
4CF
100
AcDbSymbolTableRecord
100
AcDbLayerTableRecord
  2
_8191_1
 70
0
 62
7
  6
CONTINUOUS
370
-3
390
F
  0
LAYER
  5
4D0
100
AcDbSymbolTableRecord
100
AcDbLayerTableRecord
  2
_8232
 70
0
 62
7
  6
CONTINUOUS
370
-3
390
F
  0
LAYER
  5
4D1
100
AcDbSymbolTableRecord
100
AcDbLayerTableRecord
  2
_8232_1
 70
0
 62
7
  6
CONTINUOUS
370
-3
390
F
  0
LAYER
  5
4D2
100
AcDbSymbolTableRecord
100
AcDbLayerTableRecord
  2
_8352
 70
0
 62
7
  6
CONTINUOUS
370
-3
390
F
  0
LAYER
  5
4D3
100
AcDbSymbolTableRecord
100
AcDbLayerTableRecord
  2
_8352_1
 70
0
 62
7
  6
CONTINUOUS
370
-3
390
F
  0
LAYER
  5
4D4
100
AcDbSymbolTableRecord
100
AcDbLayerTableRecord
  2
_8414
 70
0
 62
7
  6
CONTINUOUS
370
-3
390
F
  0
LAYER
  5
4D5
100
AcDbSymbolTableRecord
100
AcDbLayerTableRecord
  2
_8414_1
 70
0
 62
7
  6
CONTINUOUS
370
-3
390
F
  0
LAYER
  5
4D6
100
AcDbSymbolTableRecord
100
AcDbLayerTableRecord
  2
_848
 70
0
 62
7
  6
CONTINUOUS
370
-3
390
F
  0
LAYER
  5
4D7
100
AcDbSymbolTableRecord
100
AcDbLayerTableRecord
  2
_848_1
 70
0
 62
7
  6
CONTINUOUS
370
-3
390
F
  0
LAYER
  5
4D8
100
AcDbSymbolTableRecord
100
AcDbLayerTableRecord
  2
_8658
 70
0
 62
7
  6
CONTINUOUS
370
-3
390
F
  0
LAYER
  5
4D9
100
AcDbSymbolTableRecord
100
AcDbLayerTableRecord
  2
_8658_1
 70
0
 62
7
  6
CONTINUOUS
370
-3
390
F
  0
LAYER
  5
4DA
100
AcDbSymbolTableRecord
100
AcDbLayerTableRecord
  2
_883
 70
0
 62
7
  6
CONTINUOUS
370
-3
390
F
  0
LAYER
  5
4DB
100
AcDbSymbolTableRecord
100
AcDbLayerTableRecord
  2
_883_1
 70
0
 62
7
  6
CONTINUOUS
370
-3
390
F
  0
LAYER
  5
4DC
100
AcDbSymbolTableRecord
100
AcDbLayerTableRecord
  2
_947
 70
0
 62
7
  6
CONTINUOUS
370
-3
390
F
  0
LAYER
  5
4DD
100
AcDbSymbolTableRecord
100
AcDbLayerTableRecord
  2
_947_1
 70
0
 62
7
  6
CONTINUOUS
370
-3
390
F
  0
LAYER
  5
4DE
100
AcDbSymbolTableRecord
100
AcDbLayerTableRecord
  2
_974
 70
0
 62
7
  6
CONTINUOUS
370
-3
390
F
  0
LAYER
  5
4DF
100
AcDbSymbolTableRecord
100
AcDbLayerTableRecord
  2
_974_1
 70
0
 62
7
  6
CONTINUOUS
370
-3
390
F
  0
LAYER
  5
4E0
100
AcDbSymbolTableRecord
100
AcDbLayerTableRecord
  2
_998
 70
0
 62
7
  6
CONTINUOUS
370
-3
390
F
  0
LAYER
  5
4E1
100
AcDbSymbolTableRecord
100
AcDbLayerTableRecord
  2
_998_1
 70
0
 62
7
  6
CONTINUOUS
370
-3
390
F
  0
LAYER
  5
4E2
100
AcDbSymbolTableRecord
100
AcDbLayerTableRecord
  2
___SHELL
 70
0
 62
7
  6
CONTINUOUS
370
-3
390
F
  0
LAYER
  5
4E3
100
AcDbSymbolTableRecord
100
AcDbLayerTableRecord
  2
___SHELL_1
 70
0
 62
7
  6
CONTINUOUS
370
-3
390
F
  0
LAYER
  5
4E4
100
AcDbSymbolTableRecord
100
AcDbLayerTableRecord
  2
___SHELL_1_1
 70
0
 62
7
  6
CONTINUOUS
370
-3
390
F
  0
LAYER
  5
4E5
100
AcDbSymbolTableRecord
100
AcDbLayerTableRecord
  2
___SHELL_1_2
 70
0
 62
7
  6
CONTINUOUS
370
-3
390
F
  0
LAYER
  5
4E6
100
AcDbSymbolTableRecord
100
AcDbLayerTableRecord
  2
___SHELL_2
 70
0
 62
7
  6
CONTINUOUS
370
-3
390
F
  0
LAYER
  5
4E7
100
AcDbSymbolTableRecord
100
AcDbLayerTableRecord
  2
___SHELL_2_1
 70
0
 62
7
  6
CONTINUOUS
370
-3
390
F
  0
LAYER
  5
4E8
100
AcDbSymbolTableRecord
100
AcDbLayerTableRecord
  2
___SHELL_3
 70
0
 62
7
  6
CONTINUOUS
370
-3
390
F
  0
LAYER
  5
4E9
100
AcDbSymbolTableRecord
100
AcDbLayerTableRecord
  2
___SHELL_3_1
 70
0
 62
7
  6
CONTINUOUS
370
-3
390
F
  0
ENDTAB
  0
TABLE
  2
STYLE
  5
3
100
AcDbSymbolTable
 70
1
  0
STYLE
  5
11
100
AcDbSymbolTableRecord
100
AcDbTextStyleTableRecord
  2
STANDARD
 70
0
 40
0.0
 41
0.8
 50
0.0
 71
0
 42
0.2
  3
txt
  4

  0
STYLE
  5
4EA
100
AcDbSymbolTableRecord
100
AcDbTextStyleTableRecord
  2
TEXTSTYLE_1
 70
0
 40
0.0
 41
0.8
 50
0.0
 71
0
 42
0.2
  3
gdt
  4

  0
ENDTAB
  0
TABLE
  2
VIEW
  5
6
100
AcDbSymbolTable
 70
0
  0
ENDTAB
  0
TABLE
  2
UCS
  5
7
100
AcDbSymbolTable
 70
0
  0
ENDTAB
  0
TABLE
  2
APPID
  5
9
100
AcDbSymbolTable
 70
1
  0
APPID
  5
4EB
100
AcDbSymbolTableRecord
100
AcDbRegAppTableRecord
  2
ACAD
 70
0
  0
ENDTAB
  0
TABLE
  2
BLOCK_RECORD
  5
1
100
AcDbSymbolTable
 70
0
  0
BLOCK_RECORD
  5
4EC
100
AcDbSymbolTableRecord
100
AcDbBlockTableRecord
  2
*Model_Space
  0
BLOCK_RECORD
  5
4ED
100
AcDbSymbolTableRecord
100
AcDbBlockTableRecord
  2
*Paper_Space
  0
ENDTAB
  0
TABLE
  2
DIMSTYLE
  5
A
100
AcDbSymbolTable
 70
1
100
AcDbDimStyleTable
 71
0
  0
DIMSTYLE
105
4EE
100
AcDbSymbolTableRecord
100
AcDbDimStyleTableRecord
  2
STANDARD
 70
0
  3

  4

 40
1.0
 41
3.0
 42
0.5
 43
0.38
 44
1.5
 45
0.0
 46
0.0
 47
0.01
 48
0.01
140
3.0
141
0.09
142
0.0
143
25.4
144
1.0
145
0.0
146
1.0
147
0.625
 71
1.0
 72
0.0
 73
0
 74
0
 75
0
 76
0
 77
1
 78
8
170
0
171
2
172
0
173
0
174
0
175
0
176
0
177
0
178
0
270
2
271
2
272
2
273
2
274
2
275
0
280
0
281
0
282
0
283
1
284
8
285
0
286
0
287
3
288
0
340
11
278
44
  0
ENDTAB
  0
ENDSEC
  0
SECTION
  2
BLOCKS
  0
BLOCK
  5
20
100
AcDbEntity
  8
0
100
AcDbBlockBegin
  2
*Model_Space
 70
0
 10
0.0
 20
0.0
 30
0.0
  3
*Model_Space
  1

  0
ENDBLK
  5
21
100
AcDbEntity
  8
0
100
AcDbBlockEnd
  0
BLOCK
  5
1C
100
AcDbEntity
  8
0
100
AcDbBlockBegin
  2
*Paper_Space
 70
0
 10
0.0
 20
0.0
 30
0.0
  3
*Paper_Space
  1

  0
ENDBLK
  5
1D
100
AcDbEntity
  8
0
100
AcDbBlockEnd
  0
ENDSEC
  0
SECTION
  2
ENTITIES
  0
LINE
  5
4EF
100
AcDbEntity
  8
RACCORDO
100
AcDbLine
 62
253
  6
CONTINUOUS
 10
-25.2924664809
 20
14.4465477105
 11
-25.327996609
 21
14.4110175824
  0
LINE
  5
4F0
100
AcDbEntity
  8
RACCORDO
100
AcDbLine
 62
7
  6
CONTINUOUS
 10
-25.327996609
 20
18.2182165828
 11
-25.327996609
 21
14.4110175824
  0
LINE
  5
4F1
100
AcDbEntity
  8
RACCORDO
100
AcDbLine
 62
253
  6
CONTINUOUS
 10
-25.2924664809
 20
14.4465477105
 11
-25.2924664809
 21
18.1826864547
  0
LINE
  5
4F2
100
AcDbEntity
  8
RACCORDO
100
AcDbLine
 62
253
  6
CONTINUOUS
 10
-24.7927710674
 20
14.4465477105
 11
-24.7927710674
 21
18.1826864547
  0
LWPOLYLINE
  5
4F3
100
AcDbEntity
  8
RACCORDO
100
AcDbPolyline
 62
253
  6
CONTINUOUS
 90
25
 70
0
 10
-25.2924664809
 20
18.1826864547
 10
-25.2881486053
 20
18.313458105
 10
-25.2752915939
 20
18.4436554447
 10
-25.2539521263
 20
18.5727221888
 10
-25.2242235505
 20
18.7001069035
 10
-25.1862341855
 20
18.8252656147
 10
-25.1401464901
 20
18.9476640507
 10
-25.0861587539
 20
19.0667791121
 10
-25.0245029493
 20
19.1821026758
 10
-24.9554418119
 20
19.293143724
 10
-24.8792711128
 20
19.3994277957
 10
-24.7963170589
 20
19.5005012721
 10
-24.7069325671
 20
19.5959342631
 10
-24.6114995756
 20
19.6853187474
 10
-24.5104261042
 20
19.7682727903
 10
-24.404142039
 20
19.8444434791
 10
-24.2931009977
 20
19.9135046077
 10
-24.1777774424
 20
19.9751604042
 10
-24.0586623893
 20
20.0291481339
 10
-23.9362639609
 20
20.0752358239
 10
-23.811105257
 20
20.1132251847
 10
-23.6837205487
 20
20.1429537575
 10
-23.5546538099
 20
20.1642932233
 10
-23.4244564743
 20
20.1771502336
 10
-23.2936848269
 20
20.1814681087
  0
LWPOLYLINE
  5
4F4
100
AcDbEntity
  8
RACCORDO
100
AcDbPolyline
 62
253
  6
CONTINUOUS
 90
25
 70
0
 10
-24.7927710674
 20
18.1826864547
 10
-24.7894976242
 20
18.28117422
 10
-24.7799387625
 20
18.3784960269
 10
-24.7640944823
 20
18.4746518752
 10
-24.7418428877
 20
18.5700719988
 10
-24.7133058747
 20
18.6643261639
 10
-24.6788491309
 20
18.7561236687
 10
-24.6383979557
 20
18.8454028157
 10
-24.5920270497
 20
18.9322253024
 10
-24.540326202
 20
19.0154855205
 10
-24.4832267472
 20
19.0951383967
 10
-24.4207973507
 20
19.1712290042
 10
-24.3538337983
 20
19.2427869549
 10
-24.2822775246
 20
19.3097545931
 10
-24.206187095
 20
19.3721895745
 10
-24.1265339917
 20
19.4292944777
 10
-24.0432734628
 20
19.4810001599
 10
-23.9564502601
 20
19.527375764
 10
-23.8671701214
 20
19.5678312974
 10
-23.7753727472
 20
19.60229196
 10
-23.6811184368
 20
19.6308325519
 10
-23.585693826
 20
19.6530874806
 10
-23.4895277934
 20
19.668934882
 10
-23.3921914603
 20
19.6784966202
 10
-23.2936848269
 20
19.6817726952
  0
LINE
  5
4F5
100
AcDbEntity
  8
DRAFT
100
AcDbLine
 62
7
  6
CONTINUOUS
 10
-16.2756154548
 20
20.7757305487
 11
-16.5548964937
 21
20.2169982368
  0
LINE
  5
4F6
100
AcDbEntity
  8
RACCORDO
100
AcDbLine
 62
253
  6
CONTINUOUS
 10
-23.2936848269
 20
12.4477660565
 11
-23.329214955
 21
12.4122359284
  0
LINE
  5
4F7
100
AcDbEntity
  8
SMUSSO
100
AcDbLine
 62
7
  6
CONTINUOUS
 10
-9.122411416
 20
25.6479551772
 11
-9.0255697703
 21
25.7447968229
  0
LINE
  5
4F8
100
AcDbEntity
  8
RACCORDO
100
AcDbLine
 62
7
  6
CONTINUOUS
 10
1.820785045
 20
-25.7377640716
 11
5.6279840454
 21
-25.7377640716
  0
LINE
  5
4F9
100
AcDbEntity
  8
RACCORDO
100
AcDbLine
 62
253
  6
CONTINUOUS
 10
5.5924539173
 20
-25.7022339435
 11
1.8563151731
 21
-25.7022339435
  0
LINE
  5
4FA
100
AcDbEntity
  8
RACCORDO
100
AcDbLine
 62
253
  6
CONTINUOUS
 10
5.5924539173
 20
-25.20253853
 11
1.8563151731
 21
-25.20253853
  0
LWPOLYLINE
  5
4FB
100
AcDbEntity
  8
RACCORDO
100
AcDbPolyline
 62
253
  6
CONTINUOUS
 90
25
 70
0
 10
1.8563151731
 20
-25.7022339435
 10
1.7255435228
 20
-25.6979160679
 10
1.5953461831
 20
-25.6850590565
 10
1.466279439
 20
-25.6637195889
 10
1.3388947243
 20
-25.6339910131
 10
1.2137360131
 20
-25.5960016481
 10
1.0913375771
 20
-25.5499139527
 10
0.9722225157
 20
-25.4959262165
 10
0.856898952
 20
-25.4342704119
 10
0.7458579038
 20
-25.3652092745
 10
0.639573832
 20
-25.2890385754
 10
0.5385003557
 20
-25.2060845215
 10
0.4430673647
 20
-25.1167000297
 10
0.3536828804
 20
-25.0212670382
 10
0.2707288375
 20
-24.9201935668
 10
0.1945581487
 20
-24.8139095016
 10
0.1254970201
 20
-24.7028684603
 10
0.0638412236
 20
-24.587544905
 10
0.0098534939
 20
-24.4684298519
 10
-0.0362341961
 20
-24.3460314235
 10
-0.0742235569
 20
-24.2208727196
 10
-0.1039521297
 20
-24.0934880113
 10
-0.1252915955
 20
-23.9644212725
 10
-0.1381486058
 20
-23.8342239369
 10
-0.1424664809
 20
-23.7034522895
  0
LWPOLYLINE
  5
4FC
100
AcDbEntity
  8
RACCORDO
100
AcDbPolyline
 62
253
  6
CONTINUOUS
 90
25
 70
0
 10
1.8563151731
 20
-25.20253853
 10
1.7578274077
 20
-25.1992650868
 10
1.6605056009
 20
-25.1897062251
 10
1.5643497526
 20
-25.1738619449
 10
1.468929629
 20
-25.1516103503
 10
1.3746754639
 20
-25.1230733373
 10
1.2828779591
 20
-25.0886165935
 10
1.1935988121
 20
-25.0481654183
 10
1.1067763254
 20
-25.0017945123
 10
1.0235161072
 20
-24.9500936646
 10
0.9438632311
 20
-24.8929942098
 10
0.8677726236
 20
-24.8305648133
 10
0.7962146729
 20
-24.7636012609
 10
0.7292470347
 20
-24.6920449872
 10
0.6668120533
 20
-24.6159545576
 10
0.6097071501
 20
-24.5363014543
 10
0.5580014678
 20
-24.4530409254
 10
0.5116258637
 20
-24.3662177227
 10
0.4711703304
 20
-24.276937584
 10
0.4367096678
 20
-24.1851402098
 10
0.4081690759
 20
-24.0908858994
 10
0.3859141472
 20
-23.9954612886
 10
0.3700667458
 20
-23.899295256
 10
0.3605050076
 20
-23.8019589229
 10
0.3572289326
 20
-23.7034522895
  0
LINE
  5
4FD
100
AcDbEntity
  8
RACCORDO
100
AcDbLine
 62
253
  6
CONTINUOUS
 10
-23.2936848269
 20
20.1814681087
 11
-23.2936848269
 21
19.6817726952
  0
LINE
  5
4FE
100
AcDbEntity
  8
RACCORDO
100
AcDbLine
 62
253
  6
CONTINUOUS
 10
-23.2936848269
 20
12.4477660565
 11
-23.2936848269
 21
12.94746147
  0
LINE
  5
4FF
100
AcDbEntity
  8
RACCORDO
100
AcDbLine
 62
253
  6
CONTINUOUS
 10
7.5912355713
 20
-23.7034522895
 11
7.0915401578
 21
-23.7034522895
  0
LINE
  5
500
100
AcDbEntity
  8
RACCORDO
100
AcDbLine
 62
253
  6
CONTINUOUS
 10
-0.1424664809
 20
-23.7034522895
 11
0.3572289326
 21
-23.7034522895
  0
LINE
  5
501
100
AcDbEntity
  8
RACCORDO
100
AcDbLine
 62
7
  6
CONTINUOUS
 10
-16.2756154548
 20
11.8535036165
 11
-15.9958774666
 21
12.4131501055
  0
LINE
  5
502
100
AcDbEntity
  8
SMUSSO
100
AcDbLine
 62
7
  6
CONTINUOUS
 10
-4.122411416
 20
25.6479551772
 11
-4.0255697703
 21
25.7447968229
  0
LINE
  5
503
100
AcDbEntity
  8
RACCORDO
100
AcDbLine
 62
253
  6
CONTINUOUS
 10
-16.5725017496
 20
11.2177003268
 11
-16.4755849938
 21
11.3146170826
  0
LINE
  5
504
100
AcDbEntity
  8
RACCORDO
100
AcDbLine
 62
253
  6
CONTINUOUS
 10
-16.3725322106
 20
11.0177307878
 11
-16.2756154548
 21
11.1146475436
  0
LWPOLYLINE
  5
505
100
AcDbEntity
  8
RACCORDO
100
AcDbPolyline
 62
253
  6
CONTINUOUS
 90
3
 70
0
 10
-13.5439474946
 20
-16.6155626577
 10
-13.5353520247
 20
-16.6172746842
 10
-13.5092557425
 20
-16.6189927441
  0
LWPOLYLINE
  5
506
100
AcDbEntity
  8
RACCORDO
100
AcDbPolyline
 62
7
  6
CONTINUOUS
 90
13
 70
0
 10
-17.7756154548
 20
-4.4854133784
 10
-17.7739051906
 20
-4.5115155052
 10
-17.7688030143
 20
-4.5371706835
 10
-17.760396033
 20
-4.5619402049
 10
-17.7488277919
 20
-4.5854006618
 10
-17.7342960048
 20
-4.6071504676
 10
-17.717049427
 20
-4.6268168896
 10
-17.697383005
 20
-4.6440634674
 10
-17.6756331992
 20
-4.6585952545
 10
-17.6521727423
 20
-4.6701634956
 10
-17.6274032209
 20
-4.6785704769
 10
-17.6017480426
 20
-4.6836726532
 10
-17.5756459158
 20
-4.6853829174
  0
LINE
  5
507
100
AcDbEntity
  8
RACCORDO
100
AcDbLine
 62
253
  6
CONTINUOUS
 10
-17.4609308527
 20
10.9910858095
 11
-17.4568486876
 21
10.8738648848
  0
LINE
  5
508
100
AcDbEntity
  8
RACCORDO
100
AcDbLine
 62
253
  6
CONTINUOUS
 10
-16.5903000569
 20
-4.3618516443
 11
-16.5943822221
 21
-4.2446307196
  0
LINE
  5
509
100
AcDbEntity
  8
RACCORDO
100
AcDbLine
 62
253
  6
CONTINUOUS
 10
-17.6588691249
 20
10.7553191619
 11
-17.6547546473
 21
10.6307095666
  0
LINE
  5
50A
100
AcDbEntity
  8
RACCORDO
100
AcDbLine
 62
253
  6
CONTINUOUS
 10
-17.4568486876
 20
10.8738648848
 11
-17.4527032289
 21
10.7239033326
  0
LINE
  5
50B
100
AcDbEntity
  8
RACCORDO
100
AcDbLine
 62
253
  6
CONTINUOUS
 10
-16.5943822221
 20
-4.2446307196
 11
-16.5985276808
 21
-4.0946691674
  0
LINE
  5
50C
100
AcDbEntity
  8
RACCORDO
100
AcDbLine
 62
253
  6
CONTINUOUS
 10
-17.6547546473
 20
10.6307095666
 11
-17.6506220522
 21
10.4749472434
  0
LINE
  5
50D
100
AcDbEntity
  8
RACCORDO
100
AcDbLine
 62
253
  6
CONTINUOUS
 10
-17.4527032289
 20
10.7239033326
 11
-17.4486138721
 21
10.5386933781
  0
LINE
  5
50E
100
AcDbEntity
  8
RACCORDO
100
AcDbLine
 62
253
  6
CONTINUOUS
 10
-16.5985276808
 20
-4.0946691674
 11
-16.6026170375
 21
-3.9094592129
  0
LINE
  5
50F
100
AcDbEntity
  8
RACCORDO
100
AcDbLine
 62
253
  6
CONTINUOUS
 10
-17.6506220522
 20
10.4749472434
 11
-17.6446641094
 21
10.1790677327
  0
LINE
  5
510
100
AcDbEntity
  8
RACCORDO
100
AcDbLine
 62
253
  6
CONTINUOUS
 10
-17.4486138721
 20
10.5386933781
 11
-17.4428979445
 21
10.2000103305
  0
LINE
  5
511
100
AcDbEntity
  8
RACCORDO
100
AcDbLine
 62
253
  6
CONTINUOUS
 10
-16.6026170375
 20
-3.9094592129
 11
-16.6083329651
 21
-3.5707761653
  0
LINE
  5
512
100
AcDbEntity
  8
RACCORDO
100
AcDbLine
 62
253
  6
CONTINUOUS
 10
-17.6446641094
 20
10.1790677327
 11
-17.6396183946
 21
9.8324927192
  0
LINE
  5
513
100
AcDbEntity
  8
RACCORDO
100
AcDbLine
 62
253
  6
CONTINUOUS
 10
-17.4428979445
 20
10.2000103305
 11
-17.4370151959
 21
9.6918772251
  0
LINE
  5
514
100
AcDbEntity
  8
RACCORDO
100
AcDbLine
 62
253
  6
CONTINUOUS
 10
-16.6083329651
 20
-3.5707761653
 11
-16.6142157137
 21
-3.0626430599
  0
LINE
  5
515
100
AcDbEntity
  8
RACCORDO
100
AcDbLine
 62
253
  6
CONTINUOUS
 10
-17.6396183946
 20
9.8324927192
 11
-17.634890383
 21
9.3559389083
  0
LINE
  5
516
100
AcDbEntity
  8
RACCORDO
100
AcDbLine
 62
253
  6
CONTINUOUS
 10
-17.4370151959
 20
9.6918772251
 11
-17.4321871001
 21
8.9500739572
  0
LINE
  5
517
100
AcDbEntity
  8
RACCORDO
100
AcDbLine
 62
253
  6
CONTINUOUS
 10
-16.6142157137
 20
-3.0626430599
 11
-16.6190438095
 21
-2.320839792
  0
LINE
  5
518
100
AcDbEntity
  8
RACCORDO
100
AcDbLine
 62
253
  6
CONTINUOUS
 10
-17.634890383
 20
9.3559389083
 11
-17.6313717218
 21
8.6894524958
  0
LINE
  5
519
100
AcDbEntity
  8
RACCORDO
100
AcDbLine
 62
7
  6
CONTINUOUS
 10
-17.7756154548
 20
-4.4854133784
 11
-17.7756154548
 21
-1.6853829174
  0
LINE
  5
51A
100
AcDbEntity
  8
RACCORDO
100
AcDbLine
 62
7
  6
CONTINUOUS
 10
-17.7756154548
 20
8.3146170826
 11
-17.7756154548
 21
11.1146475436
  0
LINE
  5
51B
100
AcDbEntity
  8
RACCORDO
100
AcDbLine
 62
7
  6
CONTINUOUS
 10
-17.6796125977
 20
7.7272655939
 11
-17.6796125977
 21
-1.0980314287
  0
LINE
  5
51C
100
AcDbEntity
  8
RACCORDO
100
AcDbLine
 62
253
  6
CONTINUOUS
 10
-17.6313717218
 20
8.6894524958
 11
-17.6306774893
 21
-1.5889230762
  0
LINE
  5
51D
100
AcDbEntity
  8
RACCORDO
100
AcDbLine
 62
253
  6
CONTINUOUS
 10
-17.4321871001
 20
8.9500739572
 11
-17.4307079503
 21
-1.5889230762
  0
LINE
  5
51E
100
AcDbEntity
  8
RACCORDO
100
AcDbLine
 62
253
  6
CONTINUOUS
 10
-16.6190438095
 20
-2.320839792
 11
-16.6205229593
 21
8.2181572414
  0
LINE
  5
51F
100
AcDbEntity
  8
RACCORDO
100
AcDbLine
 62
253
  6
CONTINUOUS
 10
-17.4307079503
 20
-1.5889230762
 11
-17.4321871002
 21
-2.320839792
  0
LINE
  5
520
100
AcDbEntity
  8
RACCORDO
100
AcDbLine
 62
253
  6
CONTINUOUS
 10
-16.6205229593
 20
8.2181572414
 11
-16.6190438094
 21
8.9500739572
  0
LINE
  5
521
100
AcDbEntity
  8
RACCORDO
100
AcDbLine
 62
253
  6
CONTINUOUS
 10
-17.6306774893
 20
-1.5889230762
 11
-17.6321556472
 21
-2.2717863765
  0
LINE
  5
522
100
AcDbEntity
  8
RACCORDO
100
AcDbLine
 62
253
  6
CONTINUOUS
 10
-17.6321556472
 20
-2.2717863765
 11
-17.6358690846
 21
-2.8447578919
  0
LINE
  5
523
100
AcDbEntity
  8
RACCORDO
100
AcDbLine
 62
253
  6
CONTINUOUS
 10
-17.4321871002
 20
-2.320839792
 11
-17.4370151959
 21
-3.0626430599
  0
LINE
  5
524
100
AcDbEntity
  8
RACCORDO
100
AcDbLine
 62
253
  6
CONTINUOUS
 10
-16.6190438094
 20
8.9500739572
 11
-16.6142157137
 21
9.6918772251
  0
LINE
  5
525
100
AcDbEntity
  8
RACCORDO
100
AcDbLine
 62
253
  6
CONTINUOUS
 10
-17.6358690846
 20
-2.8447578919
 11
-17.6411704834
 21
-3.3215445513
  0
LINE
  5
526
100
AcDbEntity
  8
RACCORDO
100
AcDbLine
 62
253
  6
CONTINUOUS
 10
-17.4370151959
 20
-3.0626430599
 11
-17.4428979445
 21
-3.5707761653
  0
LINE
  5
527
100
AcDbEntity
  8
RACCORDO
100
AcDbLine
 62
253
  6
CONTINUOUS
 10
-16.6142157137
 20
9.6918772251
 11
-16.6083329651
 21
10.2000103305
  0
LINE
  5
528
100
AcDbEntity
  8
RACCORDO
100
AcDbLine
 62
253
  6
CONTINUOUS
 10
-17.6411704834
 20
-3.3215445513
 11
-17.6465735831
 21
-3.6549530268
  0
LINE
  5
529
100
AcDbEntity
  8
RACCORDO
100
AcDbLine
 62
253
  6
CONTINUOUS
 10
-17.4428979445
 20
-3.5707761653
 11
-17.4486138721
 21
-3.9094592129
  0
LINE
  5
52A
100
AcDbEntity
  8
RACCORDO
100
AcDbLine
 62
253
  6
CONTINUOUS
 10
-16.6083329651
 20
10.2000103305
 11
-16.6026170375
 21
10.5386933781
  0
LINE
  5
52B
100
AcDbEntity
  8
RACCORDO
100
AcDbLine
 62
253
  6
CONTINUOUS
 10
-16.4083642926
 20
10.0677396414
 11
-16.4026464941
 21
10.3836738177
  0
LINE
  5
52C
100
AcDbEntity
  8
RACCORDO
100
AcDbLine
 62
253
  6
CONTINUOUS
 10
-17.6465735831
 20
-3.6549530268
 11
-17.6506220522
 21
-3.8457130781
  0
LINE
  5
52D
100
AcDbEntity
  8
RACCORDO
100
AcDbLine
 62
253
  6
CONTINUOUS
 10
-17.4486138721
 20
-3.9094592129
 11
-17.4527032289
 21
-4.0946691674
  0
LINE
  5
52E
100
AcDbEntity
  8
RACCORDO
100
AcDbLine
 62
253
  6
CONTINUOUS
 10
-16.6026170375
 20
10.5386933781
 11
-16.5985276808
 21
10.7239033326
  0
LINE
  5
52F
100
AcDbEntity
  8
RACCORDO
100
AcDbLine
 62
253
  6
CONTINUOUS
 10
-16.4026464941
 20
10.3836738177
 11
-16.398555962
 21
10.5569350055
  0
LINE
  5
530
100
AcDbEntity
  8
RACCORDO
100
AcDbLine
 62
253
  6
CONTINUOUS
 10
-17.6506220522
 20
-3.8457130781
 11
-17.6547546473
 21
-4.0014754024
  0
LINE
  5
531
100
AcDbEntity
  8
RACCORDO
100
AcDbLine
 62
253
  6
CONTINUOUS
 10
-17.4527032289
 20
-4.0946691674
 11
-17.4568486875
 21
-4.2446307196
  0
LINE
  5
532
100
AcDbEntity
  8
RACCORDO
100
AcDbLine
 62
253
  6
CONTINUOUS
 10
-16.5985276808
 20
10.7239033326
 11
-16.5943822221
 21
10.8738648848
  0
LWPOLYLINE
  5
533
100
AcDbEntity
  8
RACCORDO
100
AcDbPolyline
 62
253
  6
CONTINUOUS
 90
14
 70
0
 10
-16.398555962
 20
10.5569350055
 10
-16.3944096766
 20
10.6969079527
 10
-16.3923617847
 20
10.7553191612
 10
-16.3903270069
 20
10.8061541928
 10
-16.3883285218
 20
10.8506830693
 10
-16.3863690302
 20
10.8888946018
 10
-16.3844458315
 20
10.9207999792
 10
-16.382574002
 20
10.9477027908
 10
-16.380755594
 20
10.9696280172
 10
-16.3789885554
 20
10.9865506778
 10
-16.3772818057
 20
10.9996994204
 10
-16.3756383183
 20
11.0094837942
 10
-16.3740551199
 20
11.01549425
 10
-16.3725322106
 20
11.0177307878
  0
LWPOLYLINE
  5
534
100
AcDbEntity
  8
RACCORDO
100
AcDbPolyline
 62
253
  6
CONTINUOUS
 90
13
 70
0
 10
-17.6547546473
 20
-4.0014754024
 10
-17.6588691249
 20
-4.126084996
 10
-17.6609039028
 20
-4.1769200276
 10
-17.6629023878
 20
-4.2214489041
 10
-17.6648618794
 20
-4.2596604366
 10
-17.6667850781
 20
-4.291565814
 10
-17.6686569076
 20
-4.3184686257
 10
-17.6704753156
 20
-4.340393852
 10
-17.6722423543
 20
-4.3573165126
 10
-17.6739491039
 20
-4.3704652552
 10
-17.6755925913
 20
-4.380249629
 10
-17.6771757897
 20
-4.3862600848
 10
-17.678698699
 20
-4.3884966226
  0
LWPOLYLINE
  5
535
100
AcDbEntity
  8
RACCORDO
100
AcDbPolyline
 62
253
  6
CONTINUOUS
 90
12
 70
0
 10
-17.4568486875
 20
-4.2446307196
 10
-17.4609308527
 20
-4.3618516443
 10
-17.4629291689
 20
-4.4094050684
 10
-17.464888534
 20
-4.4501966205
 10
-17.466811652
 20
-4.4846908976
 10
-17.4686834268
 20
-4.513381631
 10
-17.4705016602
 20
-4.5367158727
 10
-17.4722685505
 20
-4.5551419996
 10
-17.4739755957
 20
-4.5691188584
 10
-17.4756199621
 20
-4.5790665864
 10
-17.4772044835
 20
-4.5853838391
 10
-17.47872916
 20
-4.5884661616
  0
LWPOLYLINE
  5
536
100
AcDbEntity
  8
RACCORDO
100
AcDbPolyline
 62
253
  6
CONTINUOUS
 90
12
 70
0
 10
-16.5943822221
 20
10.8738648848
 10
-16.5903000569
 20
10.9910858095
 10
-16.5883017407
 20
11.0386392336
 10
-16.5863423756
 20
11.0794307857
 10
-16.5844192576
 20
11.1139250628
 10
-16.5825474828
 20
11.1426157962
 10
-16.5807292494
 20
11.1659500379
 10
-16.5789623592
 20
11.1843761648
 10
-16.5772553139
 20
11.1983530236
 10
-16.5756109475
 20
11.2083007516
 10
-16.5740264261
 20
11.2146180043
 10
-16.5725017496
 20
11.2177003268
  0
LINE
  5
537
100
AcDbEntity
  8
SMUSSO
100
AcDbLine
 62
7
  6
CONTINUOUS
 10
0.877588584
 20
25.6479551772
 11
0.9744302297
 21
25.7447968229
  0
LINE
  5
538
100
AcDbEntity
  8
RACCORDO
100
AcDbLine
 62
7
  6
CONTINUOUS
 10
-16.3630430959
 20
8.2271894415
 11
-16.2756154548
 21
8.3146170826
  0
LINE
  5
539
100
AcDbEntity
  8
RACCORDO
100
AcDbLine
 62
7
  6
CONTINUOUS
 10
-14.4961059239
 20
12.94746147
 11
-14.6807232143
 21
12.8412801518
  0
LWPOLYLINE
  5
53A
100
AcDbEntity
  8
RACCORDO
100
AcDbPolyline
 62
7
  6
CONTINUOUS
 90
21
 70
0
 10
-14.6807232143
 20
12.8412801518
 10
-14.7863929088
 20
12.7814715501
 10
-14.83547492
 20
12.7541174593
 10
-14.8824656984
 20
12.7282636332
 10
-14.92736284
 20
12.7039234848
 10
-14.9713838942
 20
12.6804143874
 10
-15.0146109537
 20
12.6577899494
 10
-15.0569619257
 20
12.636114603
 10
-15.0994080818
 20
12.6148549478
 10
-15.1422865095
 20
12.5940278273
 10
-15.1852601212
 20
12.5739142212
 10
-15.2282889251
 20
12.5545006953
 10
-15.2715270348
 20
12.5359455349
 10
-15.3148203367
 20
12.5185147372
 10
-15.3576664981
 20
12.5024151397
 10
-15.4001227074
 20
12.4878727812
 10
-15.4421317762
 20
12.4751587993
 10
-15.4830198068
 20
12.4645502089
 10
-15.5225621668
 20
12.4562938245
 10
-15.5609834886
 20
12.4506208009
 10
-15.5982837723
 20
12.4477660565
  0
LWPOLYLINE
  5
53B
100
AcDbEntity
  8
RACCORDO
100
AcDbPolyline
 62
253
  6
CONTINUOUS
 90
8
 70
0
 10
21.8274362525
 20
25.1479246826
 10
21.8192271357
 20
25.1453067497
 10
21.8008216531
 20
25.1427153563
 10
21.7722600612
 20
25.1401505026
 10
21.7336132564
 20
25.1376036698
 10
21.6849905371
 20
25.1350833766
 10
21.6265463718
 20
25.1326151791
 10
21.5584553553
 20
25.1301994111
  0
LWPOLYLINE
  5
53C
100
AcDbEntity
  8
RACCORDO
100
AcDbPolyline
 62
253
  6
CONTINUOUS
 90
3
 70
0
 10
20.9580248329
 20
-16.6189927441
 10
20.9841210028
 20
-16.617274699
 10
20.9927165851
 20
-16.6155626577
  0
LWPOLYLINE
  5
53D
100
AcDbEntity
  8
RACCORDO
100
AcDbPolyline
 62
253
  6
CONTINUOUS
 90
19
 70
0
 10
19.3265775262
 20
-17.6333493676
 10
19.3499010313
 20
-17.6319713996
 10
19.3729125386
 20
-17.6278793567
 10
19.3952971474
 20
-17.6211268403
 10
19.4167568831
 20
-17.611799473
 10
19.4369873427
 20
-17.6000251091
 10
19.4556875543
 20
-17.5859821686
 10
19.4725896302
 20
-17.5698872071
 10
19.4874895412
 20
-17.5519514761
 10
19.5002130941
 20
-17.5323848871
 10
19.5105973476
 20
-17.5114102244
 10
19.5184677496
 20
-17.489345859
 10
19.5236951247
 20
-17.4665746373
 10
19.5262291047
 20
-17.4434131765
 10
19.5260569655
 20
-17.4201772377
 10
19.5232170564
 20
-17.3972598779
 10
19.5178039289
 20
-17.3749864615
 10
19.5099344197
 20
-17.3536112996
 10
19.499756227
 20
-17.333395059
  0
LWPOLYLINE
  5
53E
100
AcDbEntity
  8
RACCORDO
100
AcDbPolyline
 62
253
  6
CONTINUOUS
 90
25
 70
0
 10
21.4448221827
 20
-16.4056449556
 10
21.5756552356
 20
-16.4013393311
 10
21.7059114449
 20
-16.3884857345
 10
21.8350332083
 20
-16.3671424326
 10
21.9624625552
 20
-16.3374055311
 10
22.0876604324
 20
-16.2994046827
 10
22.2101079302
 20
-16.2532988708
 10
22.3292865586
 20
-16.1992824533
 10
22.4446801502
 20
-16.137588499
 10
22.5557933552
 20
-16.0684816972
 10
22.6621500911
 20
-15.9922583076
 10
22.7632957105
 20
-15.9092443727
 10
22.8587975635
 20
-15.8197950145
 10
22.9482468426
 20
-15.7242931187
 10
23.0312606854
 20
-15.6231474778
 10
23.1074839967
 20
-15.5167907105
 10
23.1765907357
 20
-15.4056774542
 10
23.2382846333
 20
-15.2902837964
 10
23.292301001
 20
-15.1711050729
 10
23.3384083302
 20
-15.048652835
 10
23.3764100802
 20
-14.923450001
 10
23.4061443939
 20
-14.7960298667
 10
23.4274837933
 20
-14.6669368418
 10
23.4403363085
 20
-14.5367242912
 10
23.444646557
 20
-14.4059495389
  0
LINE
  5
53F
100
AcDbEntity
  8
RACCORDO
100
AcDbLine
 62
7
  6
CONTINUOUS
 10
20.0309931326
 20
-17.7433772032
 11
16.4177759578
 21
-17.7433772032
  0
LINE
  5
540
100
AcDbEntity
  8
RACCORDO
100
AcDbLine
 62
7
  6
CONTINUOUS
 10
19.9960723631
 20
-17.7259221383
 11
19.4869182685
 21
-17.7259221383
  0
LINE
  5
541
100
AcDbEntity
  8
RACCORDO
100
AcDbLine
 62
7
  6
CONTINUOUS
 10
16.9618508219
 20
-17.7259221383
 11
16.4526967273
 21
-17.7259221383
  0
LINE
  5
542
100
AcDbEntity
  8
RACCORDO
100
AcDbLine
 62
253
  6
CONTINUOUS
 10
17.1221915642
 20
-17.6333493676
 11
19.3265775262
 21
-17.6333493676
  0
LINE
  5
543
100
AcDbEntity
  8
RACCORDO
100
AcDbLine
 62
253
  6
CONTINUOUS
 10
17.1221921081
 20
-17.4333798285
 11
19.3265775792
 21
-17.4333798285
  0
LINE
  5
544
100
AcDbEntity
  8
RACCORDO
100
AcDbLine
 62
7
  6
CONTINUOUS
 10
21.7246891549
 20
-16.6853829174
 11
20.3357554596
 21
-16.6853829174
  0
LINE
  5
545
100
AcDbEntity
  8
RACCORDO
100
AcDbLine
 62
7
  6
CONTINUOUS
 10
16.1130136307
 20
-16.6853829174
 11
7.9061318554
 21
-16.6853829174
  0
LINE
  5
546
100
AcDbEntity
  8
RACCORDO
100
AcDbLine
 62
7
  6
CONTINUOUS
 10
-0.457362765
 20
-16.6853829174
 11
-14.2759200645
 21
-16.6853829174
  0
LINE
  5
547
100
AcDbEntity
  8
RACCORDO
100
AcDbLine
 62
253
  6
CONTINUOUS
 10
-13.5092557425
 20
-16.6189927441
 11
-0.5970458429
 21
-16.6189927441
  0
LINE
  5
548
100
AcDbEntity
  8
RACCORDO
100
AcDbLine
 62
253
  6
CONTINUOUS
 10
8.0458149333
 20
-16.6189927441
 11
15.9733305528
 21
-16.6189927441
  0
LINE
  5
549
100
AcDbEntity
  8
RACCORDO
100
AcDbLine
 62
253
  6
CONTINUOUS
 10
20.4754385376
 20
-16.6189927441
 11
20.9580248329
 21
-16.6189927441
  0
LINE
  5
54A
100
AcDbEntity
  8
DRAFT
100
AcDbLine
 62
7
  6
CONTINUOUS
 10
-13.7930705197
 20
-16.6155626577
 11
-0.5970458429
 21
-16.6155626577
  0
LINE
  5
54B
100
AcDbEntity
  8
DRAFT
100
AcDbLine
 62
7
  6
CONTINUOUS
 10
8.0458149333
 20
-16.6155626577
 11
15.9733305528
 21
-16.6155626577
  0
LINE
  5
54C
100
AcDbEntity
  8
DRAFT
100
AcDbLine
 62
7
  6
CONTINUOUS
 10
20.4754385376
 20
-16.6155626577
 11
21.2418396101
 21
-16.6155626577
  0
LWPOLYLINE
  5
54D
100
AcDbEntity
  8
RACCORDO
100
AcDbPolyline
 62
253
  6
CONTINUOUS
 90
11
 70
0
 10
-16.5725014168
 20
-4.588466519
 10
-16.5740262412
 20
-4.5853843916
 10
-16.5756108736
 20
-4.579066955
 10
-16.577255314
 20
-4.5691188584
 10
-16.5789623838
 20
-4.5551417726
 10
-16.5807292617
 20
-4.5367157318
 10
-16.5825474827
 20
-4.513381631
 10
-16.5844192576
 20
-4.4846908976
 10
-16.5863423756
 20
-4.4501966205
 10
-16.5883017407
 20
-4.4094050684
 10
-16.5903000569
 20
-4.3618516443
  0
LWPOLYLINE
  5
54E
100
AcDbEntity
  8
RACCORDO
100
AcDbPolyline
 62
253
  6
CONTINUOUS
 90
25
 70
0
 10
-14.4961059239
 20
-14.4059495389
 10
-14.4950146266
 20
-14.4387811925
 10
-14.4918264122
 20
-14.471227006
 10
-14.4865412809
 20
-14.5032869794
 10
-14.4791189067
 20
-14.535104701
 10
-14.4695996156
 20
-14.5665365826
 10
-14.4581043846
 20
-14.5971518593
 10
-14.4446077762
 20
-14.6269306475
 10
-14.429135228
 20
-14.6558928308
 10
-14.4118840304
 20
-14.6836672954
 10
-14.3928307937
 20
-14.7102388478
 10
-14.3719989076
 20
-14.7356226815
 10
-14.3496558321
 20
-14.7594932636
 10
-14.3257825479
 20
-14.7818305581
 10
-14.3003980742
 20
-14.8026546011
 10
-14.2738269281
 20
-14.8216999677
 10
-14.2460538066
 20
-14.8389437095
 10
-14.2170940128
 20
-14.854408775
 10
-14.1873179728
 20
-14.8678985842
 10
-14.1567039524
 20
-14.8793879998
 10
-14.1252736858
 20
-14.8889021592
 10
-14.093462802
 20
-14.8963198943
 10
-14.0614165107
 20
-14.9016008159
 10
-14.0289896021
 20
-14.9047853133
 10
-13.9961820763
 20
-14.9058733865
  0
LWPOLYLINE
  5
54F
100
AcDbEntity
  8
RACCORDO
100
AcDbPolyline
 62
253
  6
CONTINUOUS
 90
25
 70
0
 10
-15.995877493
 20
-14.4058205549
 10
-15.9915718685
 20
-14.5366536079
 10
-15.9787182719
 20
-14.6669098171
 10
-15.95737497
 20
-14.7960315805
 10
-15.9276380685
 20
-14.9234609274
 10
-15.8896372201
 20
-15.0486588047
 10
-15.8435314082
 20
-15.1711063024
 10
-15.7895149907
 20
-15.2902849309
 10
-15.7278210364
 20
-15.4056785224
 10
-15.6587142346
 20
-15.5167917274
 10
-15.582490845
 20
-15.6231484633
 10
-15.4994769101
 20
-15.7242940827
 10
-15.4100275519
 20
-15.8197959357
 10
-15.3145256561
 20
-15.9092452148
 10
-15.2133800152
 20
-15.9922590577
 10
-15.1070232479
 20
-16.0684823689
 10
-14.9959099916
 20
-16.1375891079
 10
-14.8805163338
 20
-16.1992830056
 10
-14.7613376103
 20
-16.2532993732
 10
-14.6388853724
 20
-16.2994067024
 10
-14.5136825384
 20
-16.3374084524
 10
-14.3862624041
 20
-16.3671427661
 10
-14.2571693792
 20
-16.3884821655
 10
-14.1269568286
 20
-16.4013346807
 10
-13.9961820763
 20
-16.4056449292
  0
LINE
  5
550
100
AcDbEntity
  8
RACCORDO
100
AcDbLine
 62
253
  6
CONTINUOUS
 10
-16.3923617847
 20
-4.1260849967
 11
-16.3964762623
 21
-4.0014754014
  0
LINE
  5
551
100
AcDbEntity
  8
RACCORDO
100
AcDbLine
 62
253
  6
CONTINUOUS
 10
-16.3964762623
 20
-4.0014754014
 11
-16.4006088574
 21
-3.8457130782
  0
LINE
  5
552
100
AcDbEntity
  8
RACCORDO
100
AcDbLine
 62
253
  6
CONTINUOUS
 10
-16.4006088574
 20
-3.8457130782
 11
-16.4065668002
 21
-3.5498335675
  0
LINE
  5
553
100
AcDbEntity
  8
RACCORDO
100
AcDbLine
 62
253
  6
CONTINUOUS
 10
-16.4065668002
 20
-3.5498335675
 11
-16.411612515
 21
-3.203258554
  0
LINE
  5
554
100
AcDbEntity
  8
RACCORDO
100
AcDbLine
 62
253
  6
CONTINUOUS
 10
-16.411612515
 20
-3.203258554
 11
-16.4163405266
 21
-2.7267047432
  0
LINE
  5
555
100
AcDbEntity
  8
RACCORDO
100
AcDbLine
 62
253
  6
CONTINUOUS
 10
-16.4163405266
 20
-2.7267047432
 11
-16.4198591878
 21
-2.0602183306
  0
LINE
  5
556
100
AcDbEntity
  8
RACCORDO
100
AcDbLine
 62
253
  6
CONTINUOUS
 10
-16.4198591878
 20
-2.0602183306
 11
-16.4205534203
 21
8.2181572414
  0
LINE
  5
557
100
AcDbEntity
  8
RACCORDO
100
AcDbLine
 62
7
  6
CONTINUOUS
 10
-16.3716183119
 20
7.7272655939
 11
-16.3716183119
 21
-1.0980314287
  0
LINE
  5
558
100
AcDbEntity
  8
RACCORDO
100
AcDbLine
 62
7
  6
CONTINUOUS
 10
-16.2756154548
 20
21.3149216923
 11
-16.2756154548
 21
20.7757305487
  0
LINE
  5
559
100
AcDbEntity
  8
RACCORDO
100
AcDbLine
 62
7
  6
CONTINUOUS
 10
-16.2756154548
 20
11.8535036165
 11
-16.2756154548
 21
11.5145866216
  0
LINE
  5
55A
100
AcDbEntity
  8
RACCORDO
100
AcDbLine
 62
7
  6
CONTINUOUS
 10
-16.2756154548
 20
11.1146475436
 11
-16.2756154548
 21
8.3146170826
  0
LINE
  5
55B
100
AcDbEntity
  8
DRAFT
100
AcDbLine
 62
7
  6
CONTINUOUS
 10
-16.2756154548
 20
11.8535036165
 11
-16.2756154548
 21
8.0756852968
  0
LINE
  5
55C
100
AcDbEntity
  8
DRAFT
100
AcDbLine
 62
7
  6
CONTINUOUS
 10
-16.2756154548
 20
-1.4464511316
 11
-16.2756154548
 21
-1.6853829174
  0
LINE
  5
55D
100
AcDbEntity
  8
RACCORDO
100
AcDbLine
 62
7
  6
CONTINUOUS
 10
-16.2756154548
 20
-1.5736257035
 11
-16.2756154548
 21
-14.6856875271
  0
LINE
  5
55E
100
AcDbEntity
  8
RACCORDO
100
AcDbLine
 62
7
  6
CONTINUOUS
 10
-16.1796125977
 20
-1.0006935474
 11
-16.1796125977
 21
7.6299277126
  0
LINE
  5
55F
100
AcDbEntity
  8
RACCORDO
100
AcDbLine
 62
253
  6
CONTINUOUS
 10
-15.9958774666
 20
21.0351837041
 11
-15.9958774666
 21
20.2160840596
  0
LINE
  5
560
100
AcDbEntity
  8
RACCORDO
100
AcDbLine
 62
253
  6
CONTINUOUS
 10
-15.9958774666
 20
-14.4058205244
 11
-15.9958774666
 21
12.4131501055
  0
LINE
  5
561
100
AcDbEntity
  8
RACCORDO
100
AcDbLine
 62
7
  6
CONTINUOUS
 10
-14.6689651235
 20
1.36664926
 11
-14.6689651235
 21
-2.7374150948
  0
LINE
  5
562
100
AcDbEntity
  8
0
100
AcDbLine
 62
7
  6
CONTINUOUS
 10
-14.5696456887
 20
-2.5387156855
 11
-14.5696456887
 21
1.1679498507
  0
LINE
  5
563
100
AcDbEntity
  8
RACCORDO
100
AcDbLine
 62
253
  6
CONTINUOUS
 10
-14.4961059239
 20
21.0351837041
 11
-14.4961059239
 21
19.6817726952
  0
LINE
  5
564
100
AcDbEntity
  8
RACCORDO
100
AcDbLine
 62
253
  6
CONTINUOUS
 10
-14.4961059239
 20
12.94746147
 11
-14.4961059239
 21
1.3669982368
  0
LINE
  5
565
100
AcDbEntity
  8
RACCORDO
100
AcDbLine
 62
253
  6
CONTINUOUS
 10
-14.4961059239
 20
-2.7377640716
 11
-14.4961059239
 21
-14.4059495389
  0
LINE
  5
566
100
AcDbEntity
  8
RACCORDO
100
AcDbLine
 62
7
  6
CONTINUOUS
 10
-14.4756154548
 20
23.3940925605
 11
-14.4756154548
 21
25.2448729753
  0
LINE
  5
567
100
AcDbEntity
  8
RACCORDO
100
AcDbLine
 62
253
  6
CONTINUOUS
 10
-14.3786671621
 20
25.1479246826
 11
-14.3786671621
 21
23.2971442678
  0
LINE
  5
568
100
AcDbEntity
  8
0
100
AcDbLine
 62
253
  6
CONTINUOUS
 10
-14.1795364337
 20
-2.684274536
 11
-14.1795364337
 21
-2.5005508432
  0
LINE
  5
569
100
AcDbEntity
  8
0
100
AcDbLine
 62
253
  6
CONTINUOUS
 10
-14.1795364337
 20
1.1297850084
 11
-14.1795364337
 21
1.3135087012
  0
LINE
  5
56A
100
AcDbEntity
  8
RACCORDO
100
AcDbLine
 62
253
  6
CONTINUOUS
 10
-16.4205534203
 20
8.2181572414
 11
-16.4190752624
 21
8.9010205417
  0
LINE
  5
56B
100
AcDbEntity
  8
RACCORDO
100
AcDbLine
 62
253
  6
CONTINUOUS
 10
-16.4190752624
 20
8.9010205417
 11
-16.415361825
 21
9.4739920571
  0
LWPOLYLINE
  5
56C
100
AcDbEntity
  8
RACCORDO
100
AcDbPolyline
 62
253
  6
CONTINUOUS
 90
3
 70
0
 10
-16.415361825
 20
9.4739920571
 10
-16.4100604263
 20
9.9507787165
 10
-16.4083642926
 20
10.0677396414
  0
LWPOLYLINE
  5
56D
100
AcDbEntity
  8
RACCORDO
100
AcDbPolyline
 62
253
  6
CONTINUOUS
 90
16
 70
0
 10
-14.3786671621
 20
25.1479246826
 10
-14.3759136745
 20
25.2001708608
 10
-14.3677151947
 20
25.2518448408
 10
-14.3541615121
 20
25.3023806908
 10
-14.3354010663
 20
25.3512249441
 10
-14.311639321
 20
25.3978426601
 10
-14.2831365139
 20
25.4417232833
 10
-14.2502048068
 20
25.4823862346
 10
-14.2132048665
 20
25.5193861748
 10
-14.1725419152
 20
25.5523178819
 10
-14.128661292
 20
25.580820689
 10
-14.082043576
 20
25.6045824344
 10
-14.0331993227
 20
25.6233428802
 10
-13.9826634727
 20
25.6368965627
 10
-13.9309894927
 20
25.6450950426
 10
-13.8787433145
 20
25.6478485302
  0
LINE
  5
56E
100
AcDbEntity
  8
0
100
AcDbLine
 62
7
  6
CONTINUOUS
 10
-16.2756154548
 20
-1.5736257035
 11
-16.2332583765
 21
-1.4464511316
  0
LINE
  5
56F
100
AcDbEntity
  8
RACCORDO
100
AcDbLine
 62
7
  6
CONTINUOUS
 10
-16.2332583765
 20
-1.4464511316
 11
-16.1845750589
 21
-1.3002824078
  0
LWPOLYLINE
  5
570
100
AcDbEntity
  8
RACCORDO
100
AcDbPolyline
 62
253
  6
CONTINUOUS
 90
9
 70
0
 10
21.3275124049
 20
25.6478485302
 10
21.3205675657
 20
25.6452353798
 10
21.3051755589
 20
25.6426473115
 10
21.2813363846
 20
25.6400843252
 10
21.2489260498
 20
25.637537414
 10
21.2080685475
 20
25.6350155849
 10
21.1591358565
 20
25.6325458584
 10
21.1020333507
 20
25.6301290525
 10
21.0368556561
 20
25.6277643492
  0
LWPOLYLINE
  5
571
100
AcDbEntity
  8
RACCORDO
100
AcDbPolyline
 62
253
  6
CONTINUOUS
 90
25
 70
0
 10
21.4449511667
 20
-14.9058733865
 10
21.4777828203
 20
-14.9047820892
 10
21.5102286337
 20
-14.9015938748
 10
21.5422886072
 20
-14.8963087435
 10
21.5741063288
 20
-14.8888863693
 10
21.6055382104
 20
-14.8793670782
 10
21.6361534871
 20
-14.8678718472
 10
21.6659322753
 20
-14.8543752388
 10
21.6948944586
 20
-14.8389026906
 10
21.7226689232
 20
-14.821651493
 10
21.7492404756
 20
-14.8025982563
 10
21.7746243093
 20
-14.7817663702
 10
21.7984948914
 20
-14.7594232947
 10
21.8208321859
 20
-14.7355500105
 10
21.8416562289
 20
-14.7101655368
 10
21.8607015955
 20
-14.6835943907
 10
21.8779453373
 20
-14.6558212692
 10
21.8934104028
 20
-14.6268614754
 10
21.906900212
 20
-14.5970854354
 10
21.9183896276
 20
-14.566471415
 10
21.9279037869
 20
-14.5350411484
 10
21.9353215221
 20
-14.5032302646
 10
21.9406024437
 20
-14.4711839733
 10
21.9437869411
 20
-14.4387570647
 10
21.9448750143
 20
-14.4059495389
  0
LINE
  5
572
100
AcDbEntity
  8
RACCORDO
100
AcDbLine
 62
7
  6
CONTINUOUS
 10
16.2526967087
 20
-16.4759221383
 11
16.9908238553
 21
-16.4759221383
  0
LINE
  5
573
100
AcDbEntity
  8
RACCORDO
100
AcDbLine
 62
7
  6
CONTINUOUS
 10
19.4579452351
 20
-16.4759221383
 11
20.1960723817
 21
-16.4759221383
  0
LINE
  5
574
100
AcDbEntity
  8
RACCORDO
100
AcDbLine
 62
253
  6
CONTINUOUS
 10
19.3362243611
 20
-16.4056465589
 11
21.4448221522
 21
-16.4056449292
  0
LINE
  5
575
100
AcDbEntity
  8
RACCORDO
100
AcDbLine
 62
253
  6
CONTINUOUS
 10
-13.9961820763
 20
-16.4056449292
 11
-0.1770824318
 21
-16.4056449292
  0
LINE
  5
576
100
AcDbEntity
  8
RACCORDO
100
AcDbLine
 62
253
  6
CONTINUOUS
 10
7.6258515222
 20
-16.4056449292
 11
17.112547552
 21
-16.4056449292
  0
LINE
  5
577
100
AcDbEntity
  8
RACCORDO
100
AcDbLine
 62
253
  6
CONTINUOUS
 10
-13.9961820763
 20
-14.9058733865
 11
0.3572289326
 21
-14.9058733865
  0
LINE
  5
578
100
AcDbEntity
  8
RACCORDO
100
AcDbLine
 62
253
  6
CONTINUOUS
 10
7.0915401578
 20
-14.9058733865
 11
18.1275530533
 21
-14.9058805469
  0
LINE
  5
579
100
AcDbEntity
  8
RACCORDO
100
AcDbLine
 62
253
  6
CONTINUOUS
 10
18.3212039839
 20
-14.9058675108
 11
21.4449511667
 21
-14.9058733865
  0
LINE
  5
57A
100
AcDbEntity
  8
RACCORDO
100
AcDbLine
 62
7
  6
CONTINUOUS
 10
-13.5291826202
 20
-14.4388739304
 11
20.9779517106
 21
-14.4388739304
  0
LINE
  5
57B
100
AcDbEntity
  8
RACCORDO
100
AcDbLine
 62
7
  6
CONTINUOUS
 10
-13.5256916072
 20
-14.4353829174
 11
20.9744606976
 21
-14.4353829174
  0
LINE
  5
57C
100
AcDbEntity
  8
RACCORDO
100
AcDbLine
 62
253
  6
CONTINUOUS
 10
-14.4961059239
 20
-14.4059495389
 11
-15.9958774666
 21
-14.4059495381
  0
LINE
  5
57D
100
AcDbEntity
  8
RACCORDO
100
AcDbLine
 62
253
  6
CONTINUOUS
 10
21.9448750143
 20
-14.4059495389
 11
23.444646557
 21
-14.4059495389
  0
LWPOLYLINE
  5
57E
100
AcDbEntity
  8
RACCORDO
100
AcDbPolyline
 62
253
  6
CONTINUOUS
 90
16
 70
0
 10
17.112547552
 20
-16.4056449292
 10
17.1403625022
 20
-16.4076047146
 10
17.1676363384
 20
-16.4134165966
 10
17.1938384733
 20
-16.4229675107
 10
17.2184591686
 20
-16.4360716525
 10
17.2410194514
 20
-16.4524740933
 10
17.261080432
 20
-16.4718557384
 10
17.2782518425
 20
-16.493839536
 10
17.2921996292
 20
-16.5179978114
 10
17.3026524507
 20
-16.5438605878
 10
17.3094069572
 20
-16.5709247288
 10
17.312331746
 20
-16.5986637264
 10
17.311369918
 20
-16.6265379444
 10
17.3065401847
 20
-16.6540051155
 10
17.2979365041
 20
-16.6805308913
 10
17.2857262529
 20
-16.7055992374
  0
LINE
  5
57F
100
AcDbEntity
  8
DRAFT
100
AcDbLine
 62
7
  6
CONTINUOUS
 10
-0.177996609
 20
-16.8250234368
 11
-0.5970458429
 21
-16.6155626577
  0
LINE
  5
580
100
AcDbEntity
  8
RACCORDO
100
AcDbLine
 62
253
  6
CONTINUOUS
 10
-16.4755849938
 20
-4.6853829174
 11
-16.5725013922
 21
-4.5884665191
  0
LINE
  5
581
100
AcDbEntity
  8
RACCORDO
100
AcDbLine
 62
253
  6
CONTINUOUS
 10
-16.2756154548
 20
-4.4854133784
 11
-16.3725322106
 21
-4.3884966226
  0
LINE
  5
582
100
AcDbEntity
  8
RACCORDO
100
AcDbLine
 62
253
  6
CONTINUOUS
 10
5.5924539173
 20
-25.7022339435
 11
5.6279840454
 21
-25.7377640716
  0
LWPOLYLINE
  5
583
100
AcDbEntity
  8
RACCORDO
100
AcDbPolyline
 62
253
  6
CONTINUOUS
 90
12
 70
0
 10
-16.3725322106
 20
-4.3884966226
 10
-16.3740551199
 20
-4.3862600922
 10
-16.3756383183
 20
-4.3802496403
 10
-16.3772818057
 20
-4.3704652668
 10
-16.3789885554
 20
-4.3573165187
 10
-16.380755594
 20
-4.3403938491
 10
-16.382574002
 20
-4.3184686172
 10
-16.3844458315
 20
-4.2915658078
 10
-16.3863690302
 20
-4.2596604361
 10
-16.3883285218
 20
-4.2214489076
 10
-16.3903270069
 20
-4.1769200306
 10
-16.3923617847
 20
-4.1260849967
  0
LINE
  5
584
100
AcDbEntity
  8
RACCORDO
100
AcDbLine
 62
7
  6
CONTINUOUS
 10
-14.5696456887
 20
-2.5387156855
 11
-14.504909632
 21
-2.6682272584
  0
LINE
  5
585
100
AcDbEntity
  8
RACCORDO
100
AcDbLine
 62
7
  6
CONTINUOUS
 10
-14.0291064678
 20
20.568184248
 11
-14.0291064678
 21
1.3669982368
  0
LINE
  5
586
100
AcDbEntity
  8
RACCORDO
100
AcDbLine
 62
7
  6
CONTINUOUS
 10
-14.0291064678
 20
-2.7377640716
 11
-14.0291064678
 21
-13.9389500828
  0
LINE
  5
587
100
AcDbEntity
  8
RACCORDO
100
AcDbLine
 62
7
  6
CONTINUOUS
 10
-14.0256154548
 20
20.564693235
 11
-14.0256154548
 21
1.3600140829
  0
LINE
  5
588
100
AcDbEntity
  8
RACCORDO
100
AcDbLine
 62
7
  6
CONTINUOUS
 10
-14.0256154548
 20
-2.7307799177
 11
-14.0256154548
 21
-13.9354590698
  0
LINE
  5
589
100
AcDbEntity
  8
RACCORDO
100
AcDbLine
 62
7
  6
CONTINUOUS
 10
-14.0256154548
 20
-2.2388984374
 11
-14.0256154548
 21
0.8681326026
  0
LINE
  5
58A
100
AcDbEntity
  8
RACCORDO
100
AcDbLine
 62
253
  6
CONTINUOUS
 10
-13.9961820763
 20
-14.9058733865
 11
-13.9961820763
 21
-16.4056449292
  0
LINE
  5
58B
100
AcDbEntity
  8
RACCORDO
100
AcDbLine
 62
253
  6
CONTINUOUS
 10
-13.9961820763
 20
21.5351075517
 11
-13.9961820755
 21
23.0348790944
  0
LINE
  5
58C
100
AcDbEntity
  8
RACCORDO
100
AcDbLine
 62
253
  6
CONTINUOUS
 10
-13.5092557425
 20
-16.6155626577
 11
-13.5092557425
 21
-16.6189927441
  0
LINE
  5
58D
100
AcDbEntity
  8
DRAFT
100
AcDbLine
 62
7
  6
CONTINUOUS
 10
-12.7756154548
 20
1.3146170826
 11
-12.7756154548
 21
-2.6853829174
  0
LINE
  5
58E
100
AcDbEntity
  8
DRAFT
100
AcDbLine
 62
7
  6
CONTINUOUS
 10
-12.7302184545
 20
1.3600140829
 11
-12.7302184545
 21
-2.7307799177
  0
LINE
  5
58F
100
AcDbEntity
  8
RACCORDO
100
AcDbLine
 62
7
  6
CONTINUOUS
 10
-14.5696456887
 20
1.1679498507
 11
-14.504909632
 21
1.2974614236
  0
LINE
  5
590
100
AcDbEntity
  8
RACCORDO
100
AcDbLine
 62
7
  6
CONTINUOUS
 10
-14.5696456887
 20
-2.5387156855
 11
-14.6689651235
 21
-2.7374150948
  0
LINE
  5
591
100
AcDbEntity
  8
SMUSSO
100
AcDbLine
 62
7
  6
CONTINUOUS
 10
5.877588584
 20
25.6479551772
 11
5.9744302297
 21
25.7447968229
  0
LINE
  5
592
100
AcDbEntity
  8
RACCORDO
100
AcDbLine
 62
253
  6
CONTINUOUS
 10
16.8128595937
 20
24.0412373511
 11
16.639680893
 21
23.9412525816
  0
LINE
  5
593
100
AcDbEntity
  8
RACCORDO
100
AcDbLine
 62
253
  6
CONTINUOUS
 10
16.9490128634
 20
23.9626292242
 11
17.1221915642
 21
24.0626139937
  0
LINE
  5
594
100
AcDbEntity
  8
RACCORDO
100
AcDbLine
 62
7
  6
CONTINUOUS
 10
-16.3630430959
 20
-1.5979552763
 11
-16.2756154548
 21
-1.6853829174
  0
LINE
  5
595
100
AcDbEntity
  8
RACCORDO
100
AcDbLine
 62
7
  6
CONTINUOUS
 10
-14.5696456887
 20
1.1679498507
 11
-14.6689651235
 21
1.36664926
  0
LINE
  5
596
100
AcDbEntity
  8
DRAFT
100
AcDbLine
 62
7
  6
CONTINUOUS
 10
-14.0291064678
 20
1.3669982368
 11
-14.0256154548
 21
1.3600140829
  0
LINE
  5
597
100
AcDbEntity
  8
0
100
AcDbLine
 62
7
  6
CONTINUOUS
 10
-16.2756154548
 20
8.2028598687
 11
-16.2332583765
 21
8.0756852968
  0
LINE
  5
598
100
AcDbEntity
  8
RACCORDO
100
AcDbLine
 62
7
  6
CONTINUOUS
 10
-16.2332583765
 20
8.0756852968
 11
-16.1845750589
 21
7.929516573
  0
LINE
  5
599
100
AcDbEntity
  8
DRAFT
100
AcDbLine
 62
7
  6
CONTINUOUS
 10
-14.0291064678
 20
-2.7377640716
 11
-14.0256154548
 21
-2.7307799177
  0
LINE
  5
59A
100
AcDbEntity
  8
RACCORDO
100
AcDbLine
 62
7
  6
CONTINUOUS
 10
-17.6881878137
 20
-1.5979552763
 11
-17.7756154548
 21
-1.6853829174
  0
LINE
  5
59B
100
AcDbEntity
  8
SMUSSO
100
AcDbLine
 62
7
  6
CONTINUOUS
 10
10.877588584
 20
25.6479551772
 11
10.9744302297
 21
25.7447968229
  0
LINE
  5
59C
100
AcDbEntity
  8
DRAFT
100
AcDbLine
 62
7
  6
CONTINUOUS
 10
-12.7756154548
 20
1.3146170826
 11
-12.7302184545
 21
1.3600140829
  0
LINE
  5
59D
100
AcDbEntity
  8
RACCORDO
100
AcDbLine
 62
253
  6
CONTINUOUS
 10
-17.678698699
 20
-4.3884966226
 11
-17.7756154548
 21
-4.4854133784
  0
LINE
  5
59E
100
AcDbEntity
  8
RACCORDO
100
AcDbLine
 62
253
  6
CONTINUOUS
 10
17.1881900287
 20
23.3911459682
 11
17.0150113279
 21
23.2911611987
  0
LINE
  5
59F
100
AcDbEntity
  8
RACCORDO
100
AcDbLine
 62
253
  6
CONTINUOUS
 10
19.3265775262
 20
24.2625835328
 11
19.4652749863
 21
24.3426605487
  0
LINE
  5
5A0
100
AcDbEntity
  8
RACCORDO
100
AcDbLine
 62
253
  6
CONTINUOUS
 10
19.4997562376
 20
23.9626292303
 11
19.6415058854
 21
24.0444684276
  0
LINE
  5
5A1
100
AcDbEntity
  8
RACCORDO
100
AcDbLine
 62
253
  6
CONTINUOUS
 10
17.6651767112
 20
22.7221970505
 11
17.8383554291
 21
22.8221817
  0
LINE
  5
5A2
100
AcDbEntity
  8
RACCORDO
100
AcDbLine
 62
253
  6
CONTINUOUS
 10
19.1630428376
 20
23.334833403
 11
19.2629244826
 21
23.3925000976
  0
LINE
  5
5A3
100
AcDbEntity
  8
RACCORDO
100
AcDbLine
 62
253
  6
CONTINUOUS
 10
19.3362215384
 20
23.0348790944
 11
19.4361031834
 21
23.092545789
  0
LINE
  5
5A4
100
AcDbEntity
  8
RACCORDO
100
AcDbLine
 62
7
  6
CONTINUOUS
 10
8.0458149333
 20
-16.6155626577
 11
7.6258515222
 21
-16.4056449292
  0
LINE
  5
5A5
100
AcDbEntity
  8
RACCORDO
100
AcDbLine
 62
253
  6
CONTINUOUS
 10
7.5912355713
 20
-23.7034522895
 11
7.6267656994
 21
-23.7389824176
  0
LINE
  5
5A6
100
AcDbEntity
  8
DRAFT
100
AcDbLine
 62
7
  6
CONTINUOUS
 10
-12.7756154548
 20
-2.6853829174
 11
-12.7302184545
 21
-2.7307799177
  0
LWPOLYLINE
  5
5A7
100
AcDbEntity
  8
RACCORDO
100
AcDbPolyline
 62
253
  6
CONTINUOUS
 90
11
 70
0
 10
-17.4787294928
 20
11.2177006842
 10
-17.4772046684
 20
11.2146185568
 10
-17.475620036
 20
11.2083011202
 10
-17.4739755956
 20
11.1983530236
 10
-17.4722685258
 20
11.1843759378
 10
-17.4705016479
 20
11.165949897
 10
-17.4686834269
 20
11.1426157962
 10
-17.466811652
 20
11.1139250628
 10
-17.464888534
 20
11.0794307857
 10
-17.4629291689
 20
11.0386392336
 10
-17.4609308527
 20
10.9910858095
  0
LWPOLYLINE
  5
5A8
100
AcDbEntity
  8
RACCORDO
100
AcDbPolyline
 62
253
  6
CONTINUOUS
 90
16
 70
0
 10
-9.2879740413
 20
25.1138161695
 10
-9.2901433389
 20
25.1656326943
 10
-9.2957381261
 20
25.2168911476
 10
-9.3046981463
 20
25.267039468
 10
-9.3169268986
 20
25.3155375508
 10
-9.3322926777
 20
25.3618630642
 10
-9.3506299916
 20
25.4055170755
 10
-9.3717413449
 20
25.4460294245
 10
-9.3953993651
 20
25.4829637871
 10
-9.4213492517
 20
25.5159223746
 10
-9.4493115206
 20
25.5445502182
 10
-9.4789850139
 20
25.5685389917
 10
-9.5100501437
 20
25.5876303324
 10
-9.5421723338
 20
25.6016186237
 10
-9.5750056236
 20
25.6103532095
 10
-9.6081963935
 20
25.6137400171
  0
LINE
  5
5A9
100
AcDbEntity
  8
RACCORDO
100
AcDbLine
 62
253
  6
CONTINUOUS
 10
-9.2879729555
 20
23.304538926
 11
-9.2879729555
 21
25.1138161695
  0
LINE
  5
5AA
100
AcDbEntity
  8
RACCORDO
100
AcDbLine
 62
253
  6
CONTINUOUS
 10
-8.2632579541
 20
25.1138161695
 11
-8.2632579541
 21
23.304538926
  0
LWPOLYLINE
  5
5AB
100
AcDbEntity
  8
RACCORDO
100
AcDbPolyline
 62
253
  6
CONTINUOUS
 90
16
 70
0
 10
-8.2632653472
 20
25.1138161695
 10
-8.2610959666
 20
25.1656327229
 10
-8.2555009693
 20
25.2168911727
 10
-8.2465406173
 20
25.2670394293
 10
-8.2343114201
 20
25.3155373607
 10
-8.2189450946
 20
25.3618626098
 10
-8.200607147
 20
25.4055162212
 10
-8.17949509
 20
25.4460280146
 10
-8.1558363153
 20
25.4829616494
 10
-8.1298856446
 20
25.5159193244
 10
-8.1019225848
 20
25.5445460621
 10
-8.072248318
 20
25.5685335324
 10
-8.0411824568
 20
25.5876233734
 10
-8.0090596025
 20
25.6016099739
 10
-7.9762257409
 20
25.6103426884
 10
-7.9430345158
 20
25.6137274595
  0
LINE
  5
5AC
100
AcDbEntity
  8
RACCORDO
100
AcDbLine
 62
253
  6
CONTINUOUS
 10
-17.47872916
 20
-4.5884661616
 11
-17.5756459158
 21
-4.6853829174
  0
LINE
  5
5AD
100
AcDbEntity
  8
DRAFT
100
AcDbLine
 62
7
  6
CONTINUOUS
 10
16.2177759392
 20
-16.7377481122
 11
15.9733305528
 21
-16.6155626577
  0
LINE
  5
5AE
100
AcDbEntity
  8
RACCORDO
100
AcDbLine
 62
253
  6
CONTINUOUS
 10
19.9960723631
 20
-17.7259221383
 11
20.0309931326
 21
-17.7433772032
  0
LWPOLYLINE
  5
5AF
100
AcDbEntity
  8
RACCORDO
100
AcDbPolyline
 62
253
  6
CONTINUOUS
 90
12
 70
0
 10
-17.678698699
 20
11.0177307878
 10
-17.6771757897
 20
11.0154942574
 10
-17.6755925913
 20
11.0094838054
 10
-17.6739491039
 20
10.999699432
 10
-17.6722423543
 20
10.9865506839
 10
-17.6704753156
 20
10.9696280143
 10
-17.6686569076
 20
10.9477027824
 10
-17.6667850781
 20
10.920799973
 10
-17.6648618794
 20
10.8888946013
 10
-17.6629023878
 20
10.8506830728
 10
-17.6609039027
 20
10.8061541957
 10
-17.6588691249
 20
10.7553191619
  0
LINE
  5
5B0
100
AcDbEntity
  8
DRAFT
100
AcDbLine
 62
7
  6
CONTINUOUS
 10
-16.2756154548
 20
11.8535036165
 11
-16.5548964937
 21
12.4122359284
  0
LWPOLYLINE
  5
5B1
100
AcDbEntity
  8
RACCORDO
100
AcDbPolyline
 62
7
  6
CONTINUOUS
 90
13
 70
0
 10
25.0244150062
 20
-4.6853829174
 10
25.050517133
 20
-4.6836726532
 10
25.0761723113
 20
-4.6785704769
 10
25.1009418327
 20
-4.6701634956
 10
25.1244022896
 20
-4.6585952545
 10
25.1461520954
 20
-4.6440634674
 10
25.1658185174
 20
-4.6268168896
 10
25.1830650952
 20
-4.6071504676
 10
25.1975968823
 20
-4.5854006618
 10
25.2091651234
 20
-4.5619402049
 10
25.2175721046
 20
-4.5371706835
 10
25.222674281
 20
-4.5115155052
 10
25.2243845452
 20
-4.4854133784
  0
LINE
  5
5B2
100
AcDbEntity
  8
RACCORDO
100
AcDbLine
 62
7
  6
CONTINUOUS
 10
25.0244150062
 20
-4.6853829174
 11
23.9243540842
 21
-4.6853829174
  0
LINE
  5
5B3
100
AcDbEntity
  8
RACCORDO
100
AcDbLine
 62
7
  6
CONTINUOUS
 10
-16.4755849938
 20
-4.6853829174
 11
-17.5756459158
 21
-4.6853829174
  0
LINE
  5
5B4
100
AcDbEntity
  8
RACCORDO
100
AcDbLine
 62
253
  6
CONTINUOUS
 10
-17.47872916
 20
-4.5884661616
 11
-16.5725013922
 21
-4.5884665191
  0
LINE
  5
5B5
100
AcDbEntity
  8
RACCORDO
100
AcDbLine
 62
253
  6
CONTINUOUS
 10
24.02127084
 20
-4.5884661616
 11
24.9274982504
 21
-4.5884661616
  0
LWPOLYLINE
  5
5B6
100
AcDbEntity
  8
RACCORDO
100
AcDbPolyline
 62
253
  6
CONTINUOUS
 90
13
 70
0
 10
-17.47872916
 20
-4.5884661616
 10
-17.5048253915
 20
-4.5867481084
 10
-17.530475282
 20
-4.5816392308
 10
-17.555240125
 20
-4.5732269092
 10
-17.578696351
 20
-4.5616550252
 10
-17.600442773
 20
-4.5471215001
 10
-17.6201074478
 20
-4.5298749104
 10
-17.6373540375
 20
-4.5102102356
 10
-17.6518875626
 20
-4.4884638136
 10
-17.6634594466
 20
-4.4650075876
 10
-17.6718717682
 20
-4.4402427446
 10
-17.6769806458
 20
-4.4145928541
 10
-17.678698699
 20
-4.3884966226
  0
LINE
  5
5B7
100
AcDbEntity
  8
RACCORDO
100
AcDbLine
 62
253
  6
CONTINUOUS
 10
20.1960723817
 20
-17.5260135073
 11
20.2309931512
 21
-17.5434685722
  0
LINE
  5
5B8
100
AcDbEntity
  8
DRAFT
100
AcDbLine
 62
7
  6
CONTINUOUS
 10
20.1960723817
 20
-16.4759221383
 11
20.4754385376
 21
-16.6155626577
  0
LINE
  5
5B9
100
AcDbEntity
  8
RACCORDO
100
AcDbLine
 62
253
  6
CONTINUOUS
 10
17.1221915642
 20
-17.4333798285
 11
16.9490128634
 21
-17.333395059
  0
LINE
  5
5BA
100
AcDbEntity
  8
RACCORDO
100
AcDbLine
 62
253
  6
CONTINUOUS
 10
19.3265775262
 20
-17.6333493676
 11
19.4869182685
 21
-17.7259221383
  0
LINE
  5
5BB
100
AcDbEntity
  8
RACCORDO
100
AcDbLine
 62
253
  6
CONTINUOUS
 10
19.4997562294
 20
-17.3333950604
 11
19.6600969692
 21
-17.4259678297
  0
LINE
  5
5BC
100
AcDbEntity
  8
RACCORDO
100
AcDbLine
 62
253
  6
CONTINUOUS
 10
17.6651786309
 20
-16.0929595506
 11
17.8383580099
 21
-16.1929441135
  0
LINE
  5
5BD
100
AcDbEntity
  8
RACCORDO
100
AcDbLine
 62
253
  6
CONTINUOUS
 10
19.1630428376
 20
-16.7055992378
 11
19.2847665343
 21
-16.7758764468
  0
LINE
  5
5BE
100
AcDbEntity
  8
RACCORDO
100
AcDbLine
 62
253
  6
CONTINUOUS
 10
19.3362243611
 20
-16.4056465589
 11
19.4579452351
 21
-16.4759221383
  0
LINE
  5
5BF
100
AcDbEntity
  8
RACCORDO
100
AcDbLine
 62
7
  6
CONTINUOUS
 10
-17.6881878137
 20
8.2271894415
 11
-17.7756154548
 21
8.3146170826
  0
LINE
  5
5C0
100
AcDbEntity
  8
RACCORDO
100
AcDbLine
 62
253
  6
CONTINUOUS
 10
-25.2924664809
 20
18.1826864547
 11
-25.327996609
 21
18.2182165828
  0
LINE
  5
5C1
100
AcDbEntity
  8
RACCORDO
100
AcDbLine
 62
253
  6
CONTINUOUS
 10
-17.7756154548
 20
11.1146475436
 11
-17.678698699
 21
11.0177307878
  0
LINE
  5
5C2
100
AcDbEntity
  8
RACCORDO
100
AcDbLine
 62
7
  6
CONTINUOUS
 10
-16.2756154548
 20
20.7757305487
 11
-15.9958774666
 21
20.2160840596
  0
LWPOLYLINE
  5
5C3
100
AcDbEntity
  8
RACCORDO
100
AcDbPolyline
 62
253
  6
CONTINUOUS
 90
16
 70
0
 10
-4.2879760128
 20
25.1138161695
 10
-4.2901452933
 20
25.1656325072
 10
-4.2957400372
 20
25.2168907797
 10
-4.3046999888
 20
25.2670389319
 10
-4.3169286488
 20
25.3155368645
 10
-4.3322943135
 20
25.3618622513
 10
-4.3506314937
 20
25.4055161646
 10
-4.3717426966
 20
25.4460284486
 10
-4.3954005531
 20
25.4829627831
 10
-4.4213502663
 20
25.5159213826
 10
-4.449312356
 20
25.5445492806
 10
-4.4789856684
 20
25.5685381526
 10
-4.5100506199
 20
25.5876296369
 10
-4.5421726386
 20
25.6016181166
 10
-4.5750057682
 20
25.6103529349
 10
-4.6081963935
 20
25.6137400171
  0
LINE
  5
5C4
100
AcDbEntity
  8
RACCORDO
100
AcDbLine
 62
253
  6
CONTINUOUS
 10
-4.2879729555
 20
23.304538926
 11
-4.2879729555
 21
25.1138161695
  0
LINE
  5
5C5
100
AcDbEntity
  8
RACCORDO
100
AcDbLine
 62
253
  6
CONTINUOUS
 10
-3.2632579541
 20
25.1138161695
 11
-3.2632579541
 21
23.304538926
  0
LWPOLYLINE
  5
5C6
100
AcDbEntity
  8
RACCORDO
100
AcDbPolyline
 62
253
  6
CONTINUOUS
 90
16
 70
0
 10
-3.2632653472
 20
25.1138161695
 10
-3.2610959666
 20
25.1656327229
 10
-3.2555009693
 20
25.2168911727
 10
-3.2465406173
 20
25.2670394293
 10
-3.2343114201
 20
25.3155373607
 10
-3.2189450946
 20
25.3618626098
 10
-3.200607147
 20
25.4055162212
 10
-3.17949509
 20
25.4460280146
 10
-3.1558363153
 20
25.4829616494
 10
-3.1298856446
 20
25.5159193244
 10
-3.1019225848
 20
25.5445460621
 10
-3.072248318
 20
25.5685335324
 10
-3.0411824568
 20
25.5876233734
 10
-3.0090596025
 20
25.6016099739
 10
-2.9762257409
 20
25.6103426884
 10
-2.9430345158
 20
25.6137274595
  0
LINE
  5
5C7
100
AcDbEntity
  8
SMUSSO
100
AcDbLine
 62
7
  6
CONTINUOUS
 10
20.877588584
 20
25.6479551772
 11
20.9744302297
 21
25.7447968229
  0
LINE
  5
5C8
100
AcDbEntity
  8
RACCORDO
100
AcDbLine
 62
253
  6
CONTINUOUS
 10
21.4244606976
 20
25.7447968229
 11
21.3275124049
 21
25.6478485302
  0
LINE
  5
5C9
100
AcDbEntity
  8
RACCORDO
100
AcDbLine
 62
253
  6
CONTINUOUS
 10
21.9243845452
 20
25.2448729753
 11
21.8274362525
 21
25.1479246826
  0
LINE
  5
5CA
100
AcDbEntity
  8
0
100
AcDbLine
 62
7
  6
CONTINUOUS
 10
23.6820274669
 20
-1.4464511316
 11
23.8181128335
 21
-1.4340982633
  0
LWPOLYLINE
  5
5CB
100
AcDbEntity
  8
RACCORDO
100
AcDbPolyline
 62
253
  6
CONTINUOUS
 90
13
 70
0
 10
-16.5725017496
 20
-4.5884661616
 10
-16.5464054688
 20
-4.5867481019
 10
-16.5207555377
 20
-4.5816392067
 10
-16.4959906648
 20
-4.5732268596
 10
-16.4725344187
 20
-4.5616549444
 10
-16.4507879884
 20
-4.5471213863
 10
-16.4311233201
 20
-4.5298747686
 10
-16.4138767494
 20
-4.5102100757
 10
-16.3993432516
 20
-4.4884636483
 10
-16.3877713995
 20
-4.4650074345
 10
-16.3793591091
 20
-4.4402426239
 10
-16.3742502547
 20
-4.4145927849
 10
-16.3725322106
 20
-4.3884966226
  0
LINE
  5
5CC
100
AcDbEntity
  8
RACCORDO
100
AcDbLine
 62
7
  6
CONTINUOUS
 10
21.9448750143
 20
-2.7377640716
 11
21.4778755582
 21
-2.7377640716
  0
LINE
  5
5CD
100
AcDbEntity
  8
RACCORDO
100
AcDbLine
 62
7
  6
CONTINUOUS
 10
-14.0291064678
 20
-2.7377640716
 11
-14.4961059239
 21
-2.7377640716
  0
LINE
  5
5CE
100
AcDbEntity
  8
DRAFT
100
AcDbLine
 62
7
  6
CONTINUOUS
 10
-12.7302184545
 20
-2.7307799177
 11
-14.0256154548
 21
-2.7307799177
  0
LINE
  5
5CF
100
AcDbEntity
  8
DRAFT
100
AcDbLine
 62
7
  6
CONTINUOUS
 10
20.1789875449
 20
-2.7307799177
 11
21.4743845452
 21
-2.7307799177
  0
LINE
  5
5D0
100
AcDbEntity
  8
RACCORDO
100
AcDbLine
 62
7
  6
CONTINUOUS
 10
21.4537548748
 20
-2.6853829174
 11
20.2243845452
 21
-2.6853829174
  0
LINE
  5
5D1
100
AcDbEntity
  8
RACCORDO
100
AcDbLine
 62
7
  6
CONTINUOUS
 10
-14.0049857844
 20
-2.6853829174
 11
-12.7756154548
 21
-2.6853829174
  0
LINE
  5
5D2
100
AcDbEntity
  8
RACCORDO
100
AcDbLine
 62
7
  6
CONTINUOUS
 10
-14.5696456887
 20
-2.5387156855
 11
-14.3254327029
 21
-2.5387156855
  0
LINE
  5
5D3
100
AcDbEntity
  8
RACCORDO
100
AcDbLine
 62
7
  6
CONTINUOUS
 10
21.7742017933
 20
-2.5387156855
 11
22.018414779
 21
-2.5387156855
  0
LWPOLYLINE
  5
5D4
100
AcDbEntity
  8
RACCORDO
100
AcDbPolyline
 62
253
  6
CONTINUOUS
 90
13
 70
0
 10
24.02127084
 20
-4.5884661616
 10
23.9951746085
 20
-4.5867481084
 10
23.969524718
 20
-4.5816392308
 10
23.944759875
 20
-4.5732269092
 10
23.921303649
 20
-4.5616550252
 10
23.899557227
 20
-4.5471215001
 10
23.8798925522
 20
-4.5298749104
 10
23.8626459625
 20
-4.5102102356
 10
23.8481124374
 20
-4.4884638136
 10
23.8365405534
 20
-4.4650075876
 10
23.8281282318
 20
-4.4402427446
 10
23.8230193542
 20
-4.4145928541
 10
23.821301301
 20
-4.3884966226
  0
LINE
  5
5D5
100
AcDbEntity
  8
0
100
AcDbLine
 62
7
  6
CONTINUOUS
 10
-16.3693437431
 20
-1.4340982633
 11
-16.2332583765
 21
-1.4464511316
  0
LINE
  5
5D6
100
AcDbEntity
  8
RACCORDO
100
AcDbLine
 62
253
  6
CONTINUOUS
 10
-17.5756459158
 20
11.3146170826
 11
-17.4787295175
 21
11.2177006843
  0
LINE
  5
5D7
100
AcDbEntity
  8
RACCORDO
100
AcDbLine
 62
253
  6
CONTINUOUS
 10
-23.2936848269
 20
20.1814681087
 11
-23.329214955
 21
20.2169982368
  0
LINE
  5
5D8
100
AcDbEntity
  8
RACCORDO
100
AcDbLine
 62
7
  6
CONTINUOUS
 10
-0.177996609
 20
-23.7389824176
 11
-0.177996609
 21
-16.8250234368
  0
LINE
  5
5D9
100
AcDbEntity
  8
RACCORDO
100
AcDbLine
 62
253
  6
CONTINUOUS
 10
-0.1424664809
 20
-23.7034522895
 11
-0.1424664809
 21
-16.0080512349
  0
LINE
  5
5DA
100
AcDbEntity
  8
RACCORDO
100
AcDbLine
 62
253
  6
CONTINUOUS
 10
-16.2756154548
 20
-14.6856875271
 11
-15.9958774666
 21
-14.4058205244
  0
LINE
  5
5DB
100
AcDbEntity
  8
RACCORDO
100
AcDbLine
 62
253
  6
CONTINUOUS
 10
21.5284402818
 20
23.1183682095
 11
21.4449511667
 21
23.0348790944
  0
LINE
  5
5DC
100
AcDbEntity
  8
RACCORDO
100
AcDbLine
 62
253
  6
CONTINUOUS
 10
21.8274362525
 20
23.2971442678
 11
21.9243845452
 21
23.3940925605
  0
LINE
  5
5DD
100
AcDbEntity
  8
RACCORDO
100
AcDbLine
 62
7
  6
CONTINUOUS
 10
21.9677253528
 20
23.2698968054
 11
21.9939724485
 21
23.296143901
  0
LINE
  5
5DE
100
AcDbEntity
  8
RACCORDO
100
AcDbLine
 62
253
  6
CONTINUOUS
 10
21.984736913
 20
23.1017930312
 11
22.0816736125
 21
23.1987297307
  0
LINE
  5
5DF
100
AcDbEntity
  8
RACCORDO
100
AcDbLine
 62
253
  6
CONTINUOUS
 10
20.9779517106
 20
21.0681080956
 11
20.9744606976
 21
21.0646170826
  0
LINE
  5
5E0
100
AcDbEntity
  8
RACCORDO
100
AcDbLine
 62
253
  6
CONTINUOUS
 10
-14.0291064678
 20
-13.9389500828
 11
-14.0256154548
 21
-13.9354590698
  0
LINE
  5
5E1
100
AcDbEntity
  8
RACCORDO
100
AcDbLine
 62
253
  6
CONTINUOUS
 10
-16.4205534203
 20
-1.5889230762
 11
-17.6306774893
 21
-1.5889230762
  0
LINE
  5
5E2
100
AcDbEntity
  8
RACCORDO
100
AcDbLine
 62
253
  6
CONTINUOUS
 10
23.8693225107
 20
-1.5889230762
 11
25.0794465797
 21
-1.5889230762
  0
LINE
  5
5E3
100
AcDbEntity
  8
RACCORDO
100
AcDbLine
 62
253
  6
CONTINUOUS
 10
-16.3708694665
 20
-1.3002824078
 11
-16.1845750589
 21
-1.3002824078
  0
LINE
  5
5E4
100
AcDbEntity
  8
RACCORDO
100
AcDbLine
 62
253
  6
CONTINUOUS
 10
23.6333441493
 20
-1.3002824078
 11
23.8196385569
 21
-1.3002824078
  0
LINE
  5
5E5
100
AcDbEntity
  8
RACCORDO
100
AcDbLine
 62
253
  6
CONTINUOUS
 10
-16.3716183119
 20
-1.0006935474
 11
-16.1796125977
 21
-1.0006935474
  0
LINE
  5
5E6
100
AcDbEntity
  8
RACCORDO
100
AcDbLine
 62
253
  6
CONTINUOUS
 10
23.6283816881
 20
-1.0006935474
 11
23.8203874023
 21
-1.0006935474
  0
LINE
  5
5E7
100
AcDbEntity
  8
RACCORDO
100
AcDbLine
 62
7
  6
CONTINUOUS
 10
7.0915401578
 20
-14.9058733865
 11
7.197721476
 21
-15.0904906769
  0
LWPOLYLINE
  5
5E8
100
AcDbEntity
  8
RACCORDO
100
AcDbPolyline
 62
7
  6
CONTINUOUS
 90
21
 70
0
 10
7.197721476
 20
-15.0904906769
 10
7.2575300777
 20
-15.1961603714
 10
7.2848841685
 20
-15.2452423826
 10
7.3107379946
 20
-15.292233161
 10
7.335078143
 20
-15.3371303026
 10
7.3585872404
 20
-15.3811513568
 10
7.3812116784
 20
-15.4243784163
 10
7.4028870248
 20
-15.4667293883
 10
7.4241466799
 20
-15.5091755444
 10
7.4449738005
 20
-15.5520539721
 10
7.4650874066
 20
-15.5950275838
 10
7.4845009325
 20
-15.6380563877
 10
7.5030560929
 20
-15.6812944974
 10
7.5204868906
 20
-15.7245877993
 10
7.5365864881
 20
-15.7674339607
 10
7.5511288466
 20
-15.80989017
 10
7.5638428284
 20
-15.8518992388
 10
7.5744514189
 20
-15.8927872694
 10
7.5827078032
 20
-15.9323296294
 10
7.5883808268
 20
-15.9707509512
 10
7.5912355713
 20
-16.0080512349
  0
LWPOLYLINE
  5
5E9
100
AcDbEntity
  8
RACCORDO
100
AcDbPolyline
 62
253
  6
CONTINUOUS
 90
16
 70
0
 10
0.7120239872
 20
25.1138161695
 10
0.7098547067
 20
25.1656325072
 10
0.7042599628
 20
25.2168907797
 10
0.6953000112
 20
25.2670389319
 10
0.6830713512
 20
25.3155368645
 10
0.6677056865
 20
25.3618622513
 10
0.6493685063
 20
25.4055161646
 10
0.6282573034
 20
25.4460284486
 10
0.6045994469
 20
25.4829627831
 10
0.5786497337
 20
25.5159213826
 10
0.550687644
 20
25.5445492806
 10
0.5210143316
 20
25.5685381526
 10
0.4899493801
 20
25.5876296369
 10
0.4578273614
 20
25.6016181166
 10
0.4249942318
 20
25.6103529349
 10
0.3918036065
 20
25.6137400171
  0
LINE
  5
5EA
100
AcDbEntity
  8
RACCORDO
100
AcDbLine
 62
253
  6
CONTINUOUS
 10
0.3572289326
 20
-23.7034522895
 11
0.3572289326
 21
-14.9058733865
  0
LINE
  5
5EB
100
AcDbEntity
  8
RACCORDO
100
AcDbLine
 62
253
  6
CONTINUOUS
 10
0.7120270445
 20
23.304538926
 11
0.7120270445
 21
25.1138161695
  0
LINE
  5
5EC
100
AcDbEntity
  8
RACCORDO
100
AcDbLine
 62
253
  6
CONTINUOUS
 10
1.7367420459
 20
25.1138161695
 11
1.7367420459
 21
23.304538926
  0
LINE
  5
5ED
100
AcDbEntity
  8
RACCORDO
100
AcDbLine
 62
253
  6
CONTINUOUS
 10
1.8563151731
 20
-25.7022339435
 11
1.8563151731
 21
-25.20253853
  0
LWPOLYLINE
  5
5EE
100
AcDbEntity
  8
RACCORDO
100
AcDbPolyline
 62
253
  6
CONTINUOUS
 90
16
 70
0
 10
1.7367346528
 20
25.1138161695
 10
1.7389040334
 20
25.1656327229
 10
1.7444990307
 20
25.2168911727
 10
1.7534593827
 20
25.2670394293
 10
1.7656885799
 20
25.3155373607
 10
1.7810549054
 20
25.3618626098
 10
1.799392853
 20
25.4055162212
 10
1.82050491
 20
25.4460280146
 10
1.8441636847
 20
25.4829616494
 10
1.8701143554
 20
25.5159193244
 10
1.8980774152
 20
25.5445460621
 10
1.927751682
 20
25.5685335324
 10
1.9588175432
 20
25.5876233734
 10
1.9909403975
 20
25.6016099739
 10
2.0237742591
 20
25.6103426884
 10
2.0569654842
 20
25.6137274595
  0
LWPOLYLINE
  5
5EF
100
AcDbEntity
  8
RACCORDO
100
AcDbPolyline
 62
7
  6
CONTINUOUS
 90
16
 70
0
 10
-0.1424664809
 20
-16.0080512349
 10
-0.1394398725
 20
-15.96953227
 10
-0.1331745154
 20
-15.9283448951
 10
-0.1236932211
 20
-15.88448911
 10
-0.1110534009
 20
-15.8379623393
 10
-0.095313184
 20
-15.7887671585
 10
-0.0765031855
 20
-15.736911294
 10
-0.05470903
 20
-15.6823621298
 10
-0.0300366191
 20
-15.625152282
 10
-0.0025321771
 20
-15.5653873254
 10
0.0276122351
 20
-15.5031566176
 10
0.0602914058
 20
-15.4383708011
 10
0.0956319143
 20
-15.3708673775
 10
0.1334249516
 20
-15.3006876881
 10
0.1735147183
 20
-15.2277903917
 10
0.2161633405
 20
-15.1518889656
  0
LWPOLYLINE
  5
5F0
100
AcDbEntity
  8
RACCORDO
100
AcDbPolyline
 62
253
  6
CONTINUOUS
 90
8
 70
0
 10
19.222223063
 20
22.8827143826
 10
19.2666932859
 20
22.9455324449
 10
19.2851970782
 20
22.971183399
 10
19.3011443221
 20
22.9927035894
 10
19.3142489926
 20
23.0099361695
 10
19.324415748
 20
23.0227677106
 10
19.3317399299
 20
23.0311099985
 10
19.3362215384
 20
23.0348790944
  0
LINE
  5
5F1
100
AcDbEntity
  8
RACCORDO
100
AcDbLine
 62
253
  6
CONTINUOUS
 10
23.7243845452
 20
21.3149216923
 11
23.444646557
 21
21.0350546896
  0
LINE
  5
5F2
100
AcDbEntity
  8
RACCORDO
100
AcDbLine
 62
253
  6
CONTINUOUS
 10
21.4778755582
 20
20.568184248
 11
21.4743845452
 21
20.564693235
  0
LINE
  5
5F3
100
AcDbEntity
  8
RACCORDO
100
AcDbLine
 62
253
  6
CONTINUOUS
 10
-13.5291826202
 20
-14.4388739304
 11
-13.5256916072
 21
-14.4353829174
  0
LINE
  5
5F4
100
AcDbEntity
  8
RACCORDO
100
AcDbLine
 62
253
  6
CONTINUOUS
 10
-14.2759200645
 20
-16.6853829174
 11
-13.9961820763
 21
-16.4056449292
  0
LINE
  5
5F5
100
AcDbEntity
  8
DRAFT
100
AcDbLine
 62
7
  6
CONTINUOUS
 10
-13.7930705197
 20
-16.6155626577
 11
-13.8628907794
 21
-16.6853829174
  0
LINE
  5
5F6
100
AcDbEntity
  8
RACCORDO
100
AcDbLine
 62
253
  6
CONTINUOUS
 10
-13.5092557425
 20
-16.6189927441
 11
-13.5756459158
 21
-16.6853829174
  0
LINE
  5
5F7
100
AcDbEntity
  8
RACCORDO
100
AcDbLine
 62
7
  6
CONTINUOUS
 10
-14.5696456887
 20
1.1679498507
 11
-14.3254327029
 21
1.1679498507
  0
LINE
  5
5F8
100
AcDbEntity
  8
RACCORDO
100
AcDbLine
 62
7
  6
CONTINUOUS
 10
21.7742017933
 20
1.1679498507
 11
22.018414779
 21
1.1679498507
  0
LINE
  5
5F9
100
AcDbEntity
  8
RACCORDO
100
AcDbLine
 62
7
  6
CONTINUOUS
 10
21.4537548748
 20
1.3146170826
 11
20.2243845452
 21
1.3146170826
  0
LINE
  5
5FA
100
AcDbEntity
  8
RACCORDO
100
AcDbLine
 62
7
  6
CONTINUOUS
 10
-14.0049857844
 20
1.3146170826
 11
-12.7756154548
 21
1.3146170826
  0
LINE
  5
5FB
100
AcDbEntity
  8
DRAFT
100
AcDbLine
 62
7
  6
CONTINUOUS
 10
-12.7302184545
 20
1.3600140829
 11
-14.0256154548
 21
1.3600140829
  0
LINE
  5
5FC
100
AcDbEntity
  8
DRAFT
100
AcDbLine
 62
7
  6
CONTINUOUS
 10
20.1789875449
 20
1.3600140829
 11
21.4743845452
 21
1.3600140829
  0
LINE
  5
5FD
100
AcDbEntity
  8
RACCORDO
100
AcDbLine
 62
7
  6
CONTINUOUS
 10
-14.4961059239
 20
1.3669982368
 11
-14.0291064678
 21
1.3669982368
  0
LINE
  5
5FE
100
AcDbEntity
  8
RACCORDO
100
AcDbLine
 62
7
  6
CONTINUOUS
 10
21.4778755582
 20
1.3669982368
 11
21.9448750143
 21
1.3669982368
  0
LINE
  5
5FF
100
AcDbEntity
  8
RACCORDO
100
AcDbLine
 62
253
  6
CONTINUOUS
 10
19.3265769831
 20
24.0626139937
 11
18.6104110828
 21
22.8221782847
  0
LINE
  5
600
100
AcDbEntity
  8
RACCORDO
100
AcDbLine
 62
253
  6
CONTINUOUS
 10
19.4997562376
 20
23.9626292303
 11
18.7835910616
 21
22.7221947587
  0
LINE
  5
601
100
AcDbEntity
  8
RACCORDO
100
AcDbLine
 62
7
  6
CONTINUOUS
 10
19.6415058854
 20
24.0444684276
 11
19.2629244826
 21
23.3925000976
  0
LINE
  5
602
100
AcDbEntity
  8
RACCORDO
100
AcDbLine
 62
253
  6
CONTINUOUS
 10
18.7835910616
 20
22.7221947587
 11
18.9105441527
 21
22.9347146628
  0
LINE
  5
603
100
AcDbEntity
  8
RACCORDO
100
AcDbLine
 62
253
  6
CONTINUOUS
 10
18.9105441527
 20
22.9347146628
 11
18.9811266938
 21
23.0515256457
  0
LWPOLYLINE
  5
604
100
AcDbEntity
  8
RACCORDO
100
AcDbPolyline
 62
253
  6
CONTINUOUS
 90
10
 70
0
 10
18.9811266938
 20
23.0515256457
 10
19.040382264
 20
23.1483913496
 10
19.0657529687
 20
23.1893387644
 10
19.0883533132
 20
23.2254040919
 10
19.1083087299
 20
23.2567912197
 10
19.1254937864
 20
23.2832962601
 10
19.1395914307
 20
23.3044044726
 10
19.1504959786
 20
23.3199442772
 10
19.1583131143
 20
23.330087254
 10
19.1630428376
 20
23.334833403
  0
LINE
  5
605
100
AcDbEntity
  8
RACCORDO
100
AcDbLine
 62
253
  6
CONTINUOUS
 10
18.3212130089
 20
21.5351147121
 11
18.5700887514
 21
21.9139185189
  0
LINE
  5
606
100
AcDbEntity
  8
RACCORDO
100
AcDbLine
 62
253
  6
CONTINUOUS
 10
18.5700887514
 20
21.9139185189
 11
18.8458677024
 21
22.3289965208
  0
LINE
  5
607
100
AcDbEntity
  8
RACCORDO
100
AcDbLine
 62
253
  6
CONTINUOUS
 10
18.8458677024
 20
22.3289965208
 11
18.9851226074
 21
22.5363793932
  0
LINE
  5
608
100
AcDbEntity
  8
RACCORDO
100
AcDbLine
 62
253
  6
CONTINUOUS
 10
18.9851226074
 20
22.5363793932
 11
19.1023347
 21
22.7091176053
  0
LWPOLYLINE
  5
609
100
AcDbEntity
  8
RACCORDO
100
AcDbPolyline
 62
253
  6
CONTINUOUS
 90
4
 70
0
 10
19.1023347
 20
22.7091176053
 10
19.1674520238
 20
22.8039398233
 10
19.1961286439
 20
22.8453624198
 10
19.222223063
 20
22.8827143826
  0
LINE
  5
60A
100
AcDbEntity
  8
RACCORDO
100
AcDbLine
 62
253
  6
CONTINUOUS
 10
21.7246891549
 20
-16.6853829174
 11
21.4448221522
 21
-16.4056449292
  0
LINE
  5
60B
100
AcDbEntity
  8
RACCORDO
100
AcDbLine
 62
253
  6
CONTINUOUS
 10
21.0244150062
 20
-16.6853829174
 11
20.9580248329
 21
-16.6189927441
  0
LINE
  5
60C
100
AcDbEntity
  8
DRAFT
100
AcDbLine
 62
7
  6
CONTINUOUS
 10
21.2418396101
 20
-16.6155626577
 11
21.3116598698
 21
-16.6853829174
  0
LINE
  5
60D
100
AcDbEntity
  8
RACCORDO
100
AcDbLine
 62
253
  6
CONTINUOUS
 10
-16.2756154548
 20
21.3149216923
 11
-15.9958774666
 21
21.0351837041
  0
LINE
  5
60E
100
AcDbEntity
  8
RACCORDO
100
AcDbLine
 62
253
  6
CONTINUOUS
 10
-14.0291064678
 20
20.568184248
 11
-14.0256154548
 21
20.564693235
  0
LINE
  5
60F
100
AcDbEntity
  8
RACCORDO
100
AcDbLine
 62
253
  6
CONTINUOUS
 10
20.9779517106
 20
-14.4388739304
 11
20.9744606976
 21
-14.4353829174
  0
LWPOLYLINE
  5
610
100
AcDbEntity
  8
RACCORDO
100
AcDbPolyline
 62
253
  6
CONTINUOUS
 90
16
 70
0
 10
5.7120239872
 20
25.1138161695
 10
5.7098547067
 20
25.1656325072
 10
5.7042599628
 20
25.2168907797
 10
5.6953000112
 20
25.2670389319
 10
5.6830713512
 20
25.3155368645
 10
5.6677056865
 20
25.3618622513
 10
5.6493685063
 20
25.4055161646
 10
5.6282573034
 20
25.4460284486
 10
5.6045994469
 20
25.4829627831
 10
5.5786497337
 20
25.5159213826
 10
5.550687644
 20
25.5445492806
 10
5.5210143316
 20
25.5685381526
 10
5.4899493801
 20
25.5876296369
 10
5.4578273614
 20
25.6016181166
 10
5.4249942318
 20
25.6103529349
 10
5.3918036065
 20
25.6137400171
  0
LINE
  5
611
100
AcDbEntity
  8
RACCORDO
100
AcDbLine
 62
253
  6
CONTINUOUS
 10
5.5924539173
 20
-25.7022339435
 11
5.5924539173
 21
-25.20253853
  0
LINE
  5
612
100
AcDbEntity
  8
RACCORDO
100
AcDbLine
 62
253
  6
CONTINUOUS
 10
5.7120270445
 20
23.304538926
 11
5.7120270445
 21
25.1138161695
  0
LINE
  5
613
100
AcDbEntity
  8
RACCORDO
100
AcDbLine
 62
253
  6
CONTINUOUS
 10
6.7367420459
 20
25.1138161695
 11
6.7367420459
 21
23.304538926
  0
LINE
  5
614
100
AcDbEntity
  8
RACCORDO
100
AcDbLine
 62
253
  6
CONTINUOUS
 10
7.0915401578
 20
-14.9058733865
 11
7.0915401578
 21
-23.7034522895
  0
LWPOLYLINE
  5
615
100
AcDbEntity
  8
RACCORDO
100
AcDbPolyline
 62
253
  6
CONTINUOUS
 90
16
 70
0
 10
6.7367346528
 20
25.1138161695
 10
6.7389040334
 20
25.1656327229
 10
6.7444990307
 20
25.2168911727
 10
6.7534593827
 20
25.2670394293
 10
6.7656885799
 20
25.3155373607
 10
6.7810549054
 20
25.3618626098
 10
6.799392853
 20
25.4055162212
 10
6.82050491
 20
25.4460280146
 10
6.8441636847
 20
25.4829616494
 10
6.8701143554
 20
25.5159193244
 10
6.8980774152
 20
25.5445460621
 10
6.927751682
 20
25.5685335324
 10
6.9588175432
 20
25.5876233734
 10
6.9909403975
 20
25.6016099739
 10
7.0237742591
 20
25.6103426884
 10
7.0569654842
 20
25.6137274595
  0
LWPOLYLINE
  5
616
100
AcDbEntity
  8
RACCORDO
100
AcDbPolyline
 62
253
  6
CONTINUOUS
 90
19
 70
0
 10
19.499756227
 20
23.9626292242
 10
19.5102246243
 20
23.9835169561
 10
19.5181865648
 20
24.0054915275
 10
19.5235310184
 20
24.0282534255
 10
19.5261831493
 20
24.0515017854
 10
19.5261014808
 20
24.0749090593
 10
19.5232900434
 20
24.0981253879
 10
19.5178024358
 20
24.1208104958
 10
19.5097195927
 20
24.1426820627
 10
19.499136206
 20
24.1634842773
 10
19.486163742
 20
24.1829646359
 10
19.470990642
 20
24.2008127866
 10
19.4538838731
 20
24.2167254372
 10
19.4350924496
 20
24.2305006586
 10
19.4148834668
 20
24.2419695511
 10
19.3936164965
 20
24.2509687976
 10
19.3716205883
 20
24.2574175999
 10
19.3491744005
 20
24.2612899859
 10
19.3265775262
 20
24.2625835328
  0
LWPOLYLINE
  5
617
100
AcDbEntity
  8
RACCORDO
100
AcDbPolyline
 62
253
  6
CONTINUOUS
 90
19
 70
0
 10
19.2629244826
 20
23.3925000976
 10
19.2525043725
 20
23.3717245646
 10
19.2445658785
 20
23.349878397
 10
19.2392163019
 20
23.3272568788
 10
19.23652795
 20
23.3041657568
 10
19.2365371654
 20
23.2809171597
 10
19.2392438151
 20
23.2578253792
 10
19.2446112781
 20
23.2352025979
 10
19.2525669929
 20
23.2133545216
 10
19.2630034871
 20
23.1925763177
 10
19.2757797967
 20
23.1731487573
 10
19.2907232129
 20
23.1553345603
 10
19.3076316295
 20
23.1393746628
 10
19.3262764015
 20
23.1254848183
 10
19.3464055634
 20
23.1138526757
 10
19.3677471108
 20
23.1046354013
 10
19.3900126129
 20
23.0979575726
 10
19.4129010936
 20
23.0939094632
 10
19.4361031834
 20
23.092545789
  0
LWPOLYLINE
  5
618
100
AcDbEntity
  8
RACCORDO
100
AcDbPolyline
 62
253
  6
CONTINUOUS
 90
19
 70
0
 10
18.6104110828
 20
22.8221782847
 10
18.5822422458
 20
22.7703304374
 10
18.5557465181
 20
22.7160478278
 10
18.5309238999
 20
22.6593304559
 10
18.5078197064
 20
22.6001043735
 10
18.4863886224
 20
22.5384435288
 10
18.4664947014
 20
22.4745697661
 10
18.448172188
 20
22.408537188
 10
18.4313868375
 20
22.3402916921
 10
18.4158999699
 20
22.2698928151
 10
18.4017413759
 20
22.1973867865
 10
18.3888812647
 20
22.1227273769
 10
18.3769915837
 20
22.0458354356
 10
18.3661170706
 20
21.9667707867
 10
18.3562129877
 20
21.8854736061
 10
18.3468170695
 20
21.8016852707
 10
18.3377752274
 20
21.7153195727
 10
18.3292415499
 20
21.6264627198
 10
18.3212160371
 20
21.5351147121
  0
LINE
  5
619
100
AcDbEntity
  8
RACCORDO
100
AcDbLine
 62
253
  6
CONTINUOUS
 10
19.7486762924
 20
23.9444836581
 11
19.3930147388
 21
23.2925153281
  0
LWPOLYLINE
  5
61A
100
AcDbEntity
  8
RACCORDO
100
AcDbPolyline
 62
253
  6
CONTINUOUS
 90
17
 70
0
 10
18.7835899236
 20
22.7221946888
 10
18.7593136665
 20
22.679217174
 10
18.7350726867
 20
22.6335062451
 10
18.7108618112
 20
22.5851032205
 10
18.6866700443
 20
22.5340750411
 10
18.6624531607
 20
22.4804243178
 10
18.6381546829
 20
22.4240896851
 10
18.6137345959
 20
22.3651014732
 10
18.5891398098
 20
22.3034720715
 10
18.5643158162
 20
22.2391086821
 10
18.5392016128
 20
22.1720262878
 10
18.5137384408
 20
22.1022405425
 10
18.4879011496
 20
22.0296629762
 10
18.4616122274
 20
21.9543237927
 10
18.4347930703
 20
21.8762243838
 10
18.4074404915
 20
21.7952434599
 10
18.321217681
 20
21.5351218725
  0
LINE
  5
61B
100
AcDbEntity
  8
RACCORDO
100
AcDbLine
 62
253
  6
CONTINUOUS
 10
-14.0796711912
 20
23.1183682095
 11
-13.9960530618
 21
23.0348790944
  0
LINE
  5
61C
100
AcDbEntity
  8
RACCORDO
100
AcDbLine
 62
253
  6
CONTINUOUS
 10
-13.5291826202
 20
21.0681080956
 11
-13.5256916072
 21
21.0646170826
  0
LINE
  5
61D
100
AcDbEntity
  8
RACCORDO
100
AcDbLine
 62
253
  6
CONTINUOUS
 10
21.4778755582
 20
-13.9389500828
 11
21.4743845452
 21
-13.9354590698
  0
LINE
  5
61E
100
AcDbEntity
  8
RACCORDO
100
AcDbLine
 62
253
  6
CONTINUOUS
 10
-14.6329045221
 20
23.1987297307
 11
-14.5359678226
 21
23.1017930312
  0
LINE
  5
61F
100
AcDbEntity
  8
RACCORDO
100
AcDbLine
 62
7
  6
CONTINUOUS
 10
-14.5454357145
 20
23.2963762575
 11
-14.5189562624
 21
23.2698968054
  0
LINE
  5
620
100
AcDbEntity
  8
RACCORDO
100
AcDbLine
 62
253
  6
CONTINUOUS
 10
-14.4756154548
 20
23.3940925605
 11
-14.3786671621
 21
23.2971442678
  0
LINE
  5
621
100
AcDbEntity
  8
RACCORDO
100
AcDbLine
 62
253
  6
CONTINUOUS
 10
23.7243845452
 20
-14.6856875271
 11
23.444646557
 21
-14.4059495389
  0
LWPOLYLINE
  5
622
100
AcDbEntity
  8
RACCORDO
100
AcDbPolyline
 62
253
  6
CONTINUOUS
 90
7
 70
0
 10
19.2524059497
 20
-16.2962899974
 10
19.275121519
 20
-16.3280787252
 10
19.2945130988
 20
-16.3545688999
 10
19.3103434879
 20
-16.3756452191
 10
19.3225336194
 20
-16.391221713
 10
19.3311625603
 20
-16.4012366323
 10
19.3362303106
 20
-16.405646556
  0
LINE
  5
623
100
AcDbEntity
  8
RACCORDO
100
AcDbLine
 62
253
  6
CONTINUOUS
 10
19.1971951787
 20
-16.2176372168
 11
19.2524059497
 21
-16.2962899974
  0
LINE
  5
624
100
AcDbEntity
  8
RACCORDO
100
AcDbLine
 62
253
  6
CONTINUOUS
 10
19.1284861031
 20
-16.1180830883
 11
19.1971951787
 21
-16.2176372168
  0
LINE
  5
625
100
AcDbEntity
  8
RACCORDO
100
AcDbLine
 62
253
  6
CONTINUOUS
 10
19.0463214265
 20
-15.9975933436
 11
19.1284861031
 21
-16.1180830883
  0
LINE
  5
626
100
AcDbEntity
  8
RACCORDO
100
AcDbLine
 62
253
  6
CONTINUOUS
 10
18.8985587767
 20
-15.778452641
 11
19.0463214265
 21
-15.9975933436
  0
LWPOLYLINE
  5
627
100
AcDbEntity
  8
RACCORDO
100
AcDbPolyline
 62
253
  6
CONTINUOUS
 90
3
 70
0
 10
18.3217260829
 20
-14.9058675117
 10
18.5284730071
 20
-15.2214581806
 10
18.8985587767
 20
-15.778452641
  0
LWPOLYLINE
  5
628
100
AcDbEntity
  8
RACCORDO
100
AcDbPolyline
 62
253
  6
CONTINUOUS
 90
9
 70
0
 10
19.0419646828
 20
-16.5217202369
 10
19.0673608197
 20
-16.5626805856
 10
19.089888735
 20
-16.5986028068
 10
19.1096222289
 20
-16.6296049239
 10
19.1264875012
 20
-16.6555689135
 10
19.1402824121
 20
-16.676181652
 10
19.1509395819
 20
-16.691338765
 10
19.1585263904
 20
-16.7011446269
 10
19.1630428376
 20
-16.7055992378
  0
LINE
  5
629
100
AcDbEntity
  8
RACCORDO
100
AcDbLine
 62
253
  6
CONTINUOUS
 10
7.5912355713
 20
-16.0080512349
 11
7.5912355713
 21
-23.7034522895
  0
LINE
  5
62A
100
AcDbEntity
  8
RACCORDO
100
AcDbLine
 62
7
  6
CONTINUOUS
 10
7.6267656994
 20
-16.8250234368
 11
7.6267656994
 21
-23.7389824176
  0
LWPOLYLINE
  5
62B
100
AcDbEntity
  8
RACCORDO
100
AcDbPolyline
 62
253
  6
CONTINUOUS
 90
25
 70
0
 10
7.5912355713
 20
-23.7034522895
 10
7.5869176957
 20
-23.8342239398
 10
7.5740606843
 20
-23.9644212795
 10
7.5527212166
 20
-24.0934880236
 10
7.5229926409
 20
-24.2208727383
 10
7.4850032759
 20
-24.3460314495
 10
7.4389155805
 20
-24.4684298855
 10
7.3849278443
 20
-24.5875449469
 10
7.3232720397
 20
-24.7028685106
 10
7.2542109023
 20
-24.8139095588
 10
7.1780402031
 20
-24.9201936306
 10
7.0950861493
 20
-25.0212671069
 10
7.0057016575
 20
-25.1167000979
 10
6.910268666
 20
-25.2060845822
 10
6.8091951946
 20
-25.2890386251
 10
6.7029111294
 20
-25.3652093139
 10
6.5918700881
 20
-25.4342704425
 10
6.4765465328
 20
-25.495926239
 10
6.3574314797
 20
-25.5499139687
 10
6.2350330513
 20
-25.5960016587
 10
6.1098743474
 20
-25.6339910195
 10
5.9824896391
 20
-25.6637195923
 10
5.8534229003
 20
-25.6850590581
 10
5.7232255647
 20
-25.6979160684
 10
5.5924539173
 20
-25.7022339435
  0
LWPOLYLINE
  5
62C
100
AcDbEntity
  8
RACCORDO
100
AcDbPolyline
 62
253
  6
CONTINUOUS
 90
25
 70
0
 10
7.0915401578
 20
-23.7034522895
 10
7.0882667146
 20
-23.8019400549
 10
7.0787078529
 20
-23.8992618617
 10
7.0628635727
 20
-23.99541771
 10
7.0406119781
 20
-24.0908378336
 10
7.0120749651
 20
-24.1850919987
 10
6.9776182213
 20
-24.2768895035
 10
6.9371670461
 20
-24.3661686505
 10
6.8907961401
 20
-24.4529911372
 10
6.8390952924
 20
-24.5362513554
 10
6.7819958376
 20
-24.6159042315
 10
6.7195664411
 20
-24.6919948391
 10
6.6526028887
 20
-24.7635527897
 10
6.581046615
 20
-24.830520428
 10
6.5049561854
 20
-24.8929554093
 10
6.4253030821
 20
-24.9500603125
 10
6.3420425532
 20
-25.0017659948
 10
6.2552193505
 20
-25.0481415989
 10
6.1659392118
 20
-25.0885971322
 10
6.0741418376
 20
-25.1230577948
 10
5.9798875272
 20
-25.1515983867
 10
5.8844629164
 20
-25.1738533154
 10
5.7882968838
 20
-25.1897007168
 10
5.6909605507
 20
-25.199262455
 10
5.5924539173
 20
-25.20253853
  0
LINE
  5
62D
100
AcDbEntity
  8
RACCORDO
100
AcDbLine
 62
7
  6
CONTINUOUS
 10
0.2161633405
 20
-15.1518889656
 11
0.3572289326
 21
-14.9058733865
  0
LINE
  5
62E
100
AcDbEntity
  8
RACCORDO
100
AcDbLine
 62
253
  6
CONTINUOUS
 10
25.0244150062
 20
11.3146170826
 11
24.9274982504
 21
11.2177003268
  0
LINE
  5
62F
100
AcDbEntity
  8
0
100
AcDbLine
 62
7
  6
CONTINUOUS
 10
-16.3693437431
 20
8.0633324285
 11
-16.2332583765
 21
8.0756852968
  0
LWPOLYLINE
  5
630
100
AcDbEntity
  8
RACCORDO
100
AcDbPolyline
 62
253
  6
CONTINUOUS
 90
13
 70
0
 10
24.02127084
 20
11.2177003268
 10
23.9951745592
 20
11.2159822671
 10
23.9695246281
 20
11.2108733719
 10
23.9447597552
 20
11.2024610248
 10
23.9213035091
 20
11.1908891096
 10
23.8995570787
 20
11.1763555515
 10
23.8798924105
 20
11.1591089338
 10
23.8626458398
 20
11.1394442409
 10
23.8481123419
 20
11.1176978135
 10
23.8365404899
 20
11.0942415997
 10
23.8281281994
 20
11.0694767891
 10
23.8230193451
 20
11.0438269501
 10
23.821301301
 20
11.0177307878
  0
LINE
  5
631
100
AcDbEntity
  8
RACCORDO
100
AcDbLine
 62
253
  6
CONTINUOUS
 10
23.8203874023
 20
7.6299277126
 11
23.6283816881
 21
7.6299277126
  0
LINE
  5
632
100
AcDbEntity
  8
RACCORDO
100
AcDbLine
 62
253
  6
CONTINUOUS
 10
-16.1796125977
 20
7.6299277126
 11
-16.3716183119
 21
7.6299277126
  0
LINE
  5
633
100
AcDbEntity
  8
RACCORDO
100
AcDbLine
 62
253
  6
CONTINUOUS
 10
23.8196385569
 20
7.929516573
 11
23.6333441493
 21
7.929516573
  0
LINE
  5
634
100
AcDbEntity
  8
RACCORDO
100
AcDbLine
 62
253
  6
CONTINUOUS
 10
-16.1845750589
 20
7.929516573
 11
-16.3708694665
 21
7.929516573
  0
LINE
  5
635
100
AcDbEntity
  8
RACCORDO
100
AcDbLine
 62
253
  6
CONTINUOUS
 10
25.0794465797
 20
8.2181572414
 11
23.8693225107
 21
8.2181572414
  0
LINE
  5
636
100
AcDbEntity
  8
RACCORDO
100
AcDbLine
 62
253
  6
CONTINUOUS
 10
-16.4205534203
 20
8.2181572414
 11
-17.6306774893
 21
8.2181572414
  0
LINE
  5
637
100
AcDbEntity
  8
RACCORDO
100
AcDbLine
 62
7
  6
CONTINUOUS
 10
-14.742121503
 20
19.8228382873
 11
-14.4961059239
 21
19.6817726952
  0
LINE
  5
638
100
AcDbEntity
  8
RACCORDO
100
AcDbLine
 62
253
  6
CONTINUOUS
 10
-14.3786671621
 20
25.1479246826
 11
-14.4756154548
 21
25.2448729753
  0
LINE
  5
639
100
AcDbEntity
  8
RACCORDO
100
AcDbLine
 62
253
  6
CONTINUOUS
 10
-13.8787433145
 20
25.6478485302
 11
-13.9756916072
 21
25.7447968229
  0
LINE
  5
63A
100
AcDbEntity
  8
SMUSSO
100
AcDbLine
 62
7
  6
CONTINUOUS
 10
-13.5256611393
 20
25.7447968229
 11
-13.4288194936
 21
25.6479551772
  0
LINE
  5
63B
100
AcDbEntity
  8
RACCORDO
100
AcDbLine
 62
253
  6
CONTINUOUS
 10
18.9824928538
 20
-16.4245390098
 11
19.0419646828
 21
-16.5217202369
  0
LINE
  5
63C
100
AcDbEntity
  8
RACCORDO
100
AcDbLine
 62
253
  6
CONTINUOUS
 10
18.9114860428
 20
-16.3070471487
 11
18.9824928538
 21
-16.4245390098
  0
LINE
  5
63D
100
AcDbEntity
  8
RACCORDO
100
AcDbLine
 62
253
  6
CONTINUOUS
 10
18.7835921829
 20
-16.0929625453
 11
18.9114860428
 21
-16.3070471487
  0
LINE
  5
63E
100
AcDbEntity
  8
RACCORDO
100
AcDbLine
 62
253
  6
CONTINUOUS
 10
18.6104136613
 20
-16.1929475348
 11
19.3265775792
 21
-17.4333798285
  0
LINE
  5
63F
100
AcDbEntity
  8
RACCORDO
100
AcDbLine
 62
253
  6
CONTINUOUS
 10
18.7835921829
 20
-16.0929625453
 11
19.4997562294
 21
-17.3333950604
  0
LINE
  5
640
100
AcDbEntity
  8
RACCORDO
100
AcDbLine
 62
7
  6
CONTINUOUS
 10
19.6600969692
 20
-17.4259678297
 11
19.2847665343
 21
-16.7758764468
  0
LWPOLYLINE
  5
641
100
AcDbEntity
  8
RACCORDO
100
AcDbPolyline
 62
253
  6
CONTINUOUS
 90
16
 70
0
 10
10.7120239872
 20
25.1138161695
 10
10.7098547067
 20
25.1656325072
 10
10.7042599628
 20
25.2168907797
 10
10.6953000112
 20
25.2670389319
 10
10.6830713512
 20
25.3155368645
 10
10.6677056865
 20
25.3618622513
 10
10.6493685063
 20
25.4055161646
 10
10.6282573034
 20
25.4460284486
 10
10.6045994469
 20
25.4829627831
 10
10.5786497337
 20
25.5159213826
 10
10.550687644
 20
25.5445492806
 10
10.5210143316
 20
25.5685381526
 10
10.4899493801
 20
25.5876296369
 10
10.4578273614
 20
25.6016181166
 10
10.4249942318
 20
25.6103529349
 10
10.3918036065
 20
25.6137400171
  0
LINE
  5
642
100
AcDbEntity
  8
RACCORDO
100
AcDbLine
 62
253
  6
CONTINUOUS
 10
10.7120270445
 20
23.304538926
 11
10.7120270445
 21
25.1138161695
  0
LINE
  5
643
100
AcDbEntity
  8
RACCORDO
100
AcDbLine
 62
253
  6
CONTINUOUS
 10
11.7367420459
 20
25.1138161695
 11
11.7367420459
 21
23.304538926
  0
LWPOLYLINE
  5
644
100
AcDbEntity
  8
RACCORDO
100
AcDbPolyline
 62
253
  6
CONTINUOUS
 90
16
 70
0
 10
11.7367346528
 20
25.1138161695
 10
11.7389040334
 20
25.1656327229
 10
11.7444990307
 20
25.2168911727
 10
11.7534593827
 20
25.2670394293
 10
11.7656885799
 20
25.3155373607
 10
11.7810549054
 20
25.3618626098
 10
11.799392853
 20
25.4055162212
 10
11.82050491
 20
25.4460280146
 10
11.8441636847
 20
25.4829616494
 10
11.8701143554
 20
25.5159193244
 10
11.8980774152
 20
25.5445460621
 10
11.927751682
 20
25.5685335324
 10
11.9588175432
 20
25.5876233734
 10
11.9909403975
 20
25.6016099739
 10
12.0237742591
 20
25.6103426884
 10
12.0569654842
 20
25.6137274595
  0
LINE
  5
645
100
AcDbEntity
  8
RACCORDO
100
AcDbLine
 62
253
  6
CONTINUOUS
 10
25.2243845452
 20
11.1146475436
 11
25.1274677894
 21
11.0177307878
  0
LINE
  5
646
100
AcDbEntity
  8
RACCORDO
100
AcDbLine
 62
7
  6
CONTINUOUS
 10
25.1369569041
 20
8.2271894415
 11
25.2243845452
 21
8.3146170826
  0
LWPOLYLINE
  5
647
100
AcDbEntity
  8
RACCORDO
100
AcDbPolyline
 62
253
  6
CONTINUOUS
 90
13
 70
0
 10
-17.47872916
 20
11.2177003268
 10
-17.5048254408
 20
11.2159822671
 10
-17.5304753719
 20
11.2108733719
 10
-17.5552402448
 20
11.2024610248
 10
-17.5786964909
 20
11.1908891096
 10
-17.6004429213
 20
11.1763555515
 10
-17.6201075895
 20
11.1591089338
 10
-17.6373541602
 20
11.1394442409
 10
-17.6518876581
 20
11.1176978135
 10
-17.6634595101
 20
11.0942415997
 10
-17.6718718006
 20
11.0694767891
 10
-17.6769806549
 20
11.0438269501
 10
-17.678698699
 20
11.0177307878
  0
LINE
  5
648
100
AcDbEntity
  8
RACCORDO
100
AcDbLine
 62
253
  6
CONTINUOUS
 10
-16.5725017496
 20
11.2177003268
 11
-17.4787295175
 21
11.2177006843
  0
LINE
  5
649
100
AcDbEntity
  8
RACCORDO
100
AcDbLine
 62
253
  6
CONTINUOUS
 10
24.9274982504
 20
11.2177003268
 11
24.0212704825
 21
11.2177006843
  0
LINE
  5
64A
100
AcDbEntity
  8
RACCORDO
100
AcDbLine
 62
7
  6
CONTINUOUS
 10
-17.5756459158
 20
11.3146170826
 11
-16.4755849938
 21
11.3146170826
  0
LINE
  5
64B
100
AcDbEntity
  8
RACCORDO
100
AcDbLine
 62
7
  6
CONTINUOUS
 10
23.9243540842
 20
11.3146170826
 11
25.0244150062
 21
11.3146170826
  0
LWPOLYLINE
  5
64C
100
AcDbEntity
  8
RACCORDO
100
AcDbPolyline
 62
253
  6
CONTINUOUS
 90
25
 70
0
 10
-23.2936848269
 20
12.4477660565
 10
-23.4244564772
 20
12.4520839321
 10
-23.5546538169
 20
12.4649409435
 10
-23.683720561
 20
12.4862804111
 10
-23.8111052757
 20
12.5160089869
 10
-23.9362639869
 20
12.5539983519
 10
-24.0586624229
 20
12.6000860473
 10
-24.1777774843
 20
12.6540737835
 10
-24.293101048
 20
12.7157295881
 10
-24.4041420962
 20
12.7847907255
 10
-24.510426168
 20
12.8609614246
 10
-24.6114996443
 20
12.9439154785
 10
-24.7069326353
 20
13.0332999703
 10
-24.7963171196
 20
13.1287329618
 10
-24.8792711625
 20
13.2298064332
 10
-24.9554418513
 20
13.3360904984
 10
-25.0245029799
 20
13.4471315397
 10
-25.0861587764
 20
13.562455095
 10
-25.1401465061
 20
13.6815701481
 10
-25.1862341961
 20
13.8039685765
 10
-25.2242235569
 20
13.9291272804
 10
-25.2539521297
 20
14.0565119887
 10
-25.2752915955
 20
14.1855787275
 10
-25.2881486058
 20
14.3157760631
 10
-25.2924664809
 20
14.4465477105
  0
LWPOLYLINE
  5
64D
100
AcDbEntity
  8
RACCORDO
100
AcDbPolyline
 62
253
  6
CONTINUOUS
 90
25
 70
0
 10
-23.2936848269
 20
12.94746147
 10
-23.3921725923
 20
12.9507349132
 10
-23.4894943991
 20
12.9602937749
 10
-23.5856502474
 20
12.9761380551
 10
-23.681070371
 20
12.9983896497
 10
-23.7753245361
 20
13.0269266627
 10
-23.8671220409
 20
13.0613834065
 10
-23.9564011879
 20
13.1018345817
 10
-24.0432236746
 20
13.1482054877
 10
-24.1264838928
 20
13.1999063354
 10
-24.2061367689
 20
13.2570057902
 10
-24.2822273764
 20
13.3194351867
 10
-24.3537853271
 20
13.3863987391
 10
-24.4207529653
 20
13.4579550128
 10
-24.4831879467
 20
13.5340454424
 10
-24.5402928499
 20
13.6136985457
 10
-24.5919985322
 20
13.6969590746
 10
-24.6383741363
 20
13.7837822773
 10
-24.6788296696
 20
13.873062416
 10
-24.7132903322
 20
13.9648597902
 10
-24.7418309241
 20
14.0591141006
 10
-24.7640858528
 20
14.1545387114
 10
-24.7799332542
 20
14.250704744
 10
-24.7894949924
 20
14.3480410771
 10
-24.7927710674
 20
14.4465477105
  0
LWPOLYLINE
  5
64E
100
AcDbEntity
  8
RACCORDO
100
AcDbPolyline
 62
253
  6
CONTINUOUS
 90
13
 70
0
 10
-16.5725017496
 20
11.2177003268
 10
-16.5464055182
 20
11.2159822736
 10
-16.5207556276
 20
11.210873396
 10
-16.4959907846
 20
11.2024610744
 10
-16.4725345586
 20
11.1908891904
 10
-16.4507881366
 20
11.1763556653
 10
-16.4311234618
 20
11.1591090756
 10
-16.4138768721
 20
11.1394444008
 10
-16.399343347
 20
11.1176979788
 10
-16.387771463
 20
11.0942417528
 10
-16.3793591414
 20
11.0694769098
 10
-16.3742502638
 20
11.0438270192
 10
-16.3725322106
 20
11.0177307878
  0
LINE
  5
64F
100
AcDbEntity
  8
0
100
AcDbLine
 62
7
  6
CONTINUOUS
 10
23.8181128335
 20
8.0633324285
 11
23.6820274669
 21
8.0756852968
  0
LWPOLYLINE
  5
650
100
AcDbEntity
  8
RACCORDO
100
AcDbPolyline
 62
253
  6
CONTINUOUS
 90
10
 70
0
 10
-14.5359678226
 20
23.1017930312
 10
-14.5341861039
 20
23.1007052455
 10
-14.5309126631
 20
23.0999229541
 10
-14.5261464958
 20
23.0994415211
 10
-14.5199028789
 20
23.099244581
 10
-14.5121624685
 20
23.0993293122
 10
-14.5028711971
 20
23.0997057356
 10
-14.4919661331
 20
23.1003659561
 10
-14.4795019751
 20
23.101275629
 10
-14.465600528
 20
23.1024008753
  0
LINE
  5
651
100
AcDbEntity
  8
SMUSSO
100
AcDbLine
 62
7
  6
CONTINUOUS
 10
-8.5256611393
 20
25.7447968229
 11
-8.4288194936
 21
25.6479551772
  0
LWPOLYLINE
  5
652
100
AcDbEntity
  8
RACCORDO
100
AcDbPolyline
 62
253
  6
CONTINUOUS
 90
16
 70
0
 10
19.1630428376
 20
-16.7055992378
 10
19.1508325863
 20
-16.6805308915
 10
19.1422289057
 20
-16.6540051156
 10
19.1373991724
 20
-16.6265379445
 10
19.1364373444
 20
-16.5986637266
 10
19.1393621331
 20
-16.5709247292
 10
19.1461166394
 20
-16.5438605883
 10
19.1565694609
 20
-16.517997812
 10
19.1705172474
 20
-16.4938395365
 10
19.1876886579
 20
-16.4718557389
 10
19.2077496385
 20
-16.4524740936
 10
19.2303099214
 20
-16.4360716527
 10
19.2549306169
 20
-16.4229675107
 10
19.2811327522
 20
-16.4134165965
 10
19.3084065889
 20
-16.4076047145
 10
19.3362215397
 20
-16.4056449293
  0
LINE
  5
653
100
AcDbEntity
  8
RACCORDO
100
AcDbLine
 62
253
  6
CONTINUOUS
 10
13.7243845452
 20
23.0911916596
 11
13.7243845452
 21
25.6031969621
  0
LWPOLYLINE
  5
654
100
AcDbEntity
  8
RACCORDO
100
AcDbPolyline
 62
253
  6
CONTINUOUS
 90
14
 70
0
 10
25.1274677894
 20
11.0177307878
 10
25.1259335553
 20
11.0154695834
 10
25.1243389116
 20
11.0093831547
 10
25.1226838585
 20
10.9994715014
 10
25.1209654169
 20
10.9861494417
 10
25.1191865658
 20
10.9690021576
 10
25.1173562422
 20
10.9467851951
 10
25.115472367
 20
10.91952561
 10
25.1135370192
 20
10.8871963466
 10
25.1115653733
 20
10.8484717839
 10
25.1095544763
 20
10.8033346501
 10
25.1075072812
 20
10.751802217
 10
25.1054478213
 20
10.692600679
 10
25.1012797591
 20
10.5506834098
  0
LINE
  5
655
100
AcDbEntity
  8
RACCORDO
100
AcDbLine
 62
7
  6
CONTINUOUS
 10
-0.5970458429
 20
-16.6155626577
 11
-0.1770824318
 21
-16.4056449292
  0
LWPOLYLINE
  5
656
100
AcDbEntity
  8
RACCORDO
100
AcDbPolyline
 62
7
  6
CONTINUOUS
 90
13
 70
0
 10
-17.5756459158
 20
11.3146170826
 10
-17.6017480426
 20
11.3129068184
 10
-17.6274032209
 20
11.307804642
 10
-17.6521727423
 20
11.2993976608
 10
-17.6756331992
 20
11.2878294197
 10
-17.697383005
 20
11.2732976326
 10
-17.717049427
 20
11.2560510548
 10
-17.7342960048
 20
11.2363846328
 10
-17.7488277919
 20
11.214634827
 10
-17.760396033
 20
11.1911743701
 10
-17.7688030143
 20
11.1664048487
 10
-17.7739051906
 20
11.1407496704
 10
-17.7756154548
 20
11.1146475436
  0
LINE
  5
657
100
AcDbEntity
  8
RACCORDO
100
AcDbLine
 62
7
  6
CONTINUOUS
 10
-16.5548964937
 20
12.4122359284
 11
-23.329214955
 21
12.4122359284
  0
LINE
  5
658
100
AcDbEntity
  8
RACCORDO
100
AcDbLine
 62
253
  6
CONTINUOUS
 10
-15.5982837723
 20
12.4477660565
 11
-23.2936848269
 21
12.4477660565
  0
LINE
  5
659
100
AcDbEntity
  8
RACCORDO
100
AcDbLine
 62
253
  6
CONTINUOUS
 10
-14.4961059239
 20
12.94746147
 11
-23.2936848269
 21
12.94746147
  0
LINE
  5
65A
100
AcDbEntity
  8
RACCORDO
100
AcDbLine
 62
253
  6
CONTINUOUS
 10
-25.2924664809
 20
14.4465477105
 11
-24.7927710674
 21
14.4465477105
  0
LWPOLYLINE
  5
65B
100
AcDbEntity
  8
RACCORDO
100
AcDbPolyline
 62
253
  6
CONTINUOUS
 90
10
 70
0
 10
-14.3786671621
 20
23.2971442678
 10
-14.376843055
 20
23.2960837026
 10
-14.3735927395
 20
23.2953444058
 10
-14.3688578612
 20
23.2949263772
 10
-14.362562258
 20
23.2948375724
 10
-14.3546577701
 20
23.2950700359
 10
-14.3451624317
 20
23.2955999012
 10
-14.3340460095
 20
23.2964504134
 10
-14.3212912993
 20
23.2975983274
 10
-14.3070142266
 20
23.298950041
  0
LINE
  5
65C
100
AcDbEntity
  8
RACCORDO
100
AcDbLine
 62
253
  6
CONTINUOUS
 10
24.9274982504
 20
-4.5884661616
 11
25.0244150062
 21
-4.6853829174
  0
LINE
  5
65D
100
AcDbEntity
  8
RACCORDO
100
AcDbLine
 62
253
  6
CONTINUOUS
 10
25.1274677894
 20
-4.3884966226
 11
25.2243845452
 21
-4.4854133784
  0
LWPOLYLINE
  5
65E
100
AcDbEntity
  8
RACCORDO
100
AcDbPolyline
 62
253
  6
CONTINUOUS
 90
15
 70
0
 10
18.4359351574
 20
-15.2503421359
 10
18.4628936669
 20
-15.32879038
 10
18.4892804411
 20
-15.40433133
 10
18.5151640572
 20
-15.4769510401
 10
18.540620869
 20
-15.5466282342
 10
18.5657044927
 20
-15.6135242626
 10
18.5904766066
 20
-15.6776389377
 10
18.614990005
 20
-15.7389505548
 10
18.6393108713
 20
-15.7975849989
 10
18.663488141
 20
-15.8535332051
 10
18.6875551616
 20
-15.9067583635
 10
18.7115734405
 20
-15.9573349617
 10
18.735584159
 20
-16.0052662164
 10
18.7595902244
 20
-16.050487013
 10
18.7835925073
 20
-16.0929629183
  0
LINE
  5
65F
100
AcDbEntity
  8
RACCORDO
100
AcDbLine
 62
253
  6
CONTINUOUS
 10
18.3801761406
 20
-15.0841806975
 11
18.4359351574
 21
-15.2503421359
  0
LINE
  5
660
100
AcDbEntity
  8
RACCORDO
100
AcDbLine
 62
253
  6
CONTINUOUS
 10
18.3212026345
 20
-14.905861635
 11
18.3801761406
 21
-15.0841806975
  0
LWPOLYLINE
  5
661
100
AcDbEntity
  8
RACCORDO
100
AcDbPolyline
 62
253
  6
CONTINUOUS
 90
22
 70
0
 10
18.3212039839
 20
-14.9058675108
 10
18.3282382514
 20
-14.985333304
 10
18.3355878184
 20
-15.0628081298
 10
18.3432526849
 20
-15.1382919882
 10
18.3511288513
 20
-15.211721702
 10
18.3593203173
 20
-15.2831604484
 10
18.3681390814
 20
-15.3527977592
 10
18.3776139511
 20
-15.420654052
 10
18.387716119
 20
-15.4867089092
 10
18.3986711615
 20
-15.5510906101
 10
18.4104979397
 20
-15.6138290656
 10
18.4231775925
 20
-15.6748943649
 10
18.4368791133
 20
-15.7343250539
 10
18.4516193088
 20
-15.7921529195
 10
18.4673813723
 20
-15.848346175
 10
18.4842838771
 20
-15.9028480056
 10
18.5023467793
 20
-15.9556868031
 10
18.5215501229
 20
-16.0068341759
 10
18.5419526124
 20
-16.0561481343
 10
18.5635738161
 20
-16.1035813487
 10
18.5863941657
 20
-16.1491811489
 10
18.6104136613
 20
-16.1929475348
  0
LINE
  5
662
100
AcDbEntity
  8
RACCORDO
100
AcDbLine
 62
7
  6
CONTINUOUS
 10
16.2177759392
 20
-17.5434685722
 11
16.2177759392
 21
-16.7377481122
  0
LINE
  5
663
100
AcDbEntity
  8
RACCORDO
100
AcDbLine
 62
7
  6
CONTINUOUS
 10
16.2526967087
 20
-16.4759221383
 11
16.2526967087
 21
-17.5260135073
  0
LINE
  5
664
100
AcDbEntity
  8
RACCORDO
100
AcDbLine
 62
253
  6
CONTINUOUS
 10
16.9860382945
 20
24.3411916596
 11
16.9860382945
 21
24.5411611987
  0
LINE
  5
665
100
AcDbEntity
  8
RACCORDO
100
AcDbLine
 62
253
  6
CONTINUOUS
 10
17.0150113279
 20
23.0911916596
 11
17.0150113279
 21
23.2911611987
  0
LINE
  5
666
100
AcDbEntity
  8
DRAFT
100
AcDbLine
 62
7
  6
CONTINUOUS
 10
20.2243845452
 20
-2.6853829174
 11
20.1789875449
 21
-2.7307799177
  0
LINE
  5
667
100
AcDbEntity
  8
RACCORDO
100
AcDbLine
 62
253
  6
CONTINUOUS
 10
-0.1424664809
 20
-23.7034522895
 11
-0.177996609
 21
-23.7389824176
  0
LINE
  5
668
100
AcDbEntity
  8
DRAFT
100
AcDbLine
 62
7
  6
CONTINUOUS
 10
20.2243845452
 20
1.3146170826
 11
20.1789875449
 21
1.3600140829
  0
LINE
  5
669
100
AcDbEntity
  8
SMUSSO
100
AcDbLine
 62
7
  6
CONTINUOUS
 10
-3.5256611393
 20
25.7447968229
 11
-3.4288194936
 21
25.6479551772
  0
LINE
  5
66A
100
AcDbEntity
  8
RACCORDO
100
AcDbLine
 62
7
  6
CONTINUOUS
 10
25.1369569041
 20
-1.5979552763
 11
25.2243845452
 21
-1.6853829174
  0
LINE
  5
66B
100
AcDbEntity
  8
RACCORDO
100
AcDbLine
 62
253
  6
CONTINUOUS
 10
17.1221915642
 20
-17.6333493676
 11
17.1221915642
 21
-17.4333798285
  0
LINE
  5
66C
100
AcDbEntity
  8
RACCORDO
100
AcDbLine
 62
253
  6
CONTINUOUS
 10
17.1221915642
 20
24.0626139937
 11
17.1221915642
 21
24.2625835328
  0
LINE
  5
66D
100
AcDbEntity
  8
RACCORDO
100
AcDbLine
 62
253
  6
CONTINUOUS
 10
18.7243845452
 20
24.3411916596
 11
18.7243845452
 21
25.6031969621
  0
LINE
  5
66E
100
AcDbEntity
  8
RACCORDO
100
AcDbLine
 62
253
  6
CONTINUOUS
 10
19.3265775262
 20
24.2625835328
 11
19.3265775262
 21
24.0626139937
  0
LINE
  5
66F
100
AcDbEntity
  8
RACCORDO
100
AcDbLine
 62
253
  6
CONTINUOUS
 10
19.3265775262
 20
-17.4333798285
 11
19.3265775262
 21
-17.6333493676
  0
LWPOLYLINE
  5
670
100
AcDbEntity
  8
RACCORDO
100
AcDbPolyline
 62
253
  6
CONTINUOUS
 90
10
 70
0
 10
19.6415058723
 20
24.0444684352
 10
19.6412041294
 20
24.0390472856
 10
19.6443171935
 20
24.0317647363
 10
19.6507837866
 20
24.0227641379
 10
19.6604766197
 20
24.0122226589
 10
19.6732048982
 20
24.0003477989
 10
19.6887180772
 20
23.9873733039
 10
19.7067107939
 20
23.9735545651
 10
19.7268288778
 20
23.9591635921
 10
19.7486763225
 20
23.9444836581
  0
LWPOLYLINE
  5
671
100
AcDbEntity
  8
RACCORDO
100
AcDbPolyline
 62
253
  6
CONTINUOUS
 90
3
 70
0
 10
19.2629244826
 20
23.3925000976
 10
19.262579467
 20
23.38844857
 10
19.2651549911
 20
23.3843770748
  0
LWPOLYLINE
  5
672
100
AcDbEntity
  8
RACCORDO
100
AcDbPolyline
 62
253
  6
CONTINUOUS
 90
12
 70
0
 10
24.9274982504
 20
11.2177003268
 10
24.925962323
 20
11.214584612
 10
24.9243664042
 20
11.2081878221
 10
24.922710494
 20
11.1981099131
 10
24.9209917512
 20
11.1839484308
 10
24.9192130169
 20
11.1652784524
 10
24.9173828147
 20
11.1416337385
 10
24.9154989238
 20
11.112560654
 10
24.913563565
 20
11.077606266
 10
24.9115919243
 20
11.0362650162
 10
24.9095810422
 20
10.9880598254
 10
24.9054744965
 20
10.8692246711
  0
LINE
  5
673
100
AcDbEntity
  8
DRAFT
100
AcDbLine
 62
7
  6
CONTINUOUS
 10
21.4778755582
 20
1.3669982368
 11
21.4743845452
 21
1.3600140829
  0
LINE
  5
674
100
AcDbEntity
  8
RACCORDO
100
AcDbLine
 62
7
  6
CONTINUOUS
 10
22.1177342139
 20
1.36664926
 11
22.018414779
 21
1.1679498507
  0
LINE
  5
675
100
AcDbEntity
  8
RACCORDO
100
AcDbLine
 62
7
  6
CONTINUOUS
 10
23.8118121863
 20
-1.5979552763
 11
23.7243845452
 21
-1.6853829174
  0
LINE
  5
676
100
AcDbEntity
  8
RACCORDO
100
AcDbLine
 62
253
  6
CONTINUOUS
 10
1.8563151731
 20
-25.7022339435
 11
1.820785045
 21
-25.7377640716
  0
LINE
  5
677
100
AcDbEntity
  8
DRAFT
100
AcDbLine
 62
7
  6
CONTINUOUS
 10
7.6267656994
 20
-16.8250234368
 11
8.0458149333
 21
-16.6155626577
  0
LINE
  5
678
100
AcDbEntity
  8
RACCORDO
100
AcDbLine
 62
253
  6
CONTINUOUS
 10
-25.2924664809
 20
18.1826864547
 11
-24.7927710674
 21
18.1826864547
  0
LWPOLYLINE
  5
679
100
AcDbEntity
  8
RACCORDO
100
AcDbPolyline
 62
7
  6
CONTINUOUS
 90
16
 70
0
 10
-15.5982837723
 20
20.1814681087
 10
-15.5597648074
 20
20.1784415003
 10
-15.5185774325
 20
20.1721761432
 10
-15.4747216474
 20
20.1626948489
 10
-15.4281948767
 20
20.1500550287
 10
-15.3789996959
 20
20.1343148118
 10
-15.3271438314
 20
20.1155048133
 10
-15.2725946672
 20
20.0937106578
 10
-15.2153848194
 20
20.0690382469
 10
-15.1556198628
 20
20.0415338048
 10
-15.093389155
 20
20.0113893927
 10
-15.0286033385
 20
19.978710222
 10
-14.9610999149
 20
19.9433697135
 10
-14.8909202255
 20
19.9055766762
 10
-14.8180229291
 20
19.8654869095
 10
-14.742121503
 20
19.8228382873
  0
LWPOLYLINE
  5
67A
100
AcDbEntity
  8
SMUSSO
100
AcDbPolyline
 62
7
  6
CONTINUOUS
 90
11
 70
0
 10
-13.4288194936
 20
25.6479551772
 10
-13.4225224281
 20
25.6456017613
 10
-13.407443392
 20
25.6432579978
 10
-13.3835823854
 20
25.6409238868
 10
-13.3508764878
 20
25.6385851745
 10
-13.3093886196
 20
25.6362561148
 10
-13.2593075422
 20
25.6339794684
 10
-13.2003625644
 20
25.6317568759
 10
-13.1328243774
 20
25.6295866968
 10
-13.0576938164
 20
25.6275067705
 10
-12.8843497604
 20
25.6236244944
  0
LINE
  5
67B
100
AcDbEntity
  8
SMUSSO
100
AcDbLine
 62
7
  6
CONTINUOUS
 10
1.4743388607
 20
25.7447968229
 11
1.5711805064
 21
25.6479551772
  0
LINE
  5
67C
100
AcDbEntity
  8
DRAFT
100
AcDbLine
 62
7
  6
CONTINUOUS
 10
21.4778755582
 20
-2.7377640716
 11
21.4743845452
 21
-2.7307799177
  0
LINE
  5
67D
100
AcDbEntity
  8
RACCORDO
100
AcDbLine
 62
7
  6
CONTINUOUS
 10
22.1177342139
 20
-2.7374150948
 11
22.018414779
 21
-2.5387156855
  0
LWPOLYLINE
  5
67E
100
AcDbEntity
  8
RACCORDO
100
AcDbPolyline
 62
253
  6
CONTINUOUS
 90
22
 70
0
 10
18.1275651065
 20
21.535101676
 10
18.120530839
 20
21.6145674692
 10
18.113181272
 20
21.692042295
 10
18.1055164055
 20
21.7675261535
 10
18.0976402391
 20
21.8409558672
 10
18.0894487731
 20
21.9123946136
 10
18.080630009
 20
21.9820319244
 10
18.0711551393
 20
22.0498882172
 10
18.0610529714
 20
22.1159430744
 10
18.0500979289
 20
22.1803247753
 10
18.0382711507
 20
22.2430632308
 10
18.0255914979
 20
22.3041285301
 10
18.0118899771
 20
22.3635592191
 10
17.9971497816
 20
22.4213870847
 10
17.9813877181
 20
22.4775803402
 10
17.9644852133
 20
22.5320821708
 10
17.946422311
 20
22.5849209683
 10
17.9272189675
 20
22.6360683411
 10
17.906816478
 20
22.6853822995
 10
17.8851952743
 20
22.7328155139
 10
17.8623749247
 20
22.7784153141
 10
17.8383554291
 20
22.8221817
  0
LINE
  5
67F
100
AcDbEntity
  8
DRAFT
100
AcDbLine
 62
7
  6
CONTINUOUS
 10
20.1789875449
 20
-2.7307799177
 11
20.1789875449
 21
1.3600140829
  0
LINE
  5
680
100
AcDbEntity
  8
RACCORDO
100
AcDbLine
 62
7
  6
CONTINUOUS
 10
20.1960723817
 20
-17.5260135073
 11
20.1960723817
 21
-16.4759221383
  0
LINE
  5
681
100
AcDbEntity
  8
DRAFT
100
AcDbLine
 62
7
  6
CONTINUOUS
 10
20.2243845452
 20
-2.6853829174
 11
20.2243845452
 21
1.3146170826
  0
LINE
  5
682
100
AcDbEntity
  8
RACCORDO
100
AcDbLine
 62
7
  6
CONTINUOUS
 10
20.2309931512
 20
-16.7377481122
 11
20.2309931512
 21
-17.5434685722
  0
LINE
  5
683
100
AcDbEntity
  8
RACCORDO
100
AcDbLine
 62
253
  6
CONTINUOUS
 10
20.9580248329
 20
-16.6155626577
 11
20.9580248329
 21
-16.6189927441
  0
LINE
  5
684
100
AcDbEntity
  8
RACCORDO
100
AcDbLine
 62
253
  6
CONTINUOUS
 10
21.4449511667
 20
-14.9058733865
 11
21.4449511659
 21
-16.4056449292
  0
LINE
  5
685
100
AcDbEntity
  8
RACCORDO
100
AcDbLine
 62
253
  6
CONTINUOUS
 10
21.4449511667
 20
21.5351075517
 11
21.4449511667
 21
23.0348790944
  0
LINE
  5
686
100
AcDbEntity
  8
RACCORDO
100
AcDbLine
 62
7
  6
CONTINUOUS
 10
21.4743845452
 20
-13.9354590698
 11
21.4743845452
 21
-2.7307799177
  0
LINE
  5
687
100
AcDbEntity
  8
RACCORDO
100
AcDbLine
 62
7
  6
CONTINUOUS
 10
21.4743845452
 20
-2.2388984374
 11
21.4743845452
 21
0.8681326026
  0
LINE
  5
688
100
AcDbEntity
  8
RACCORDO
100
AcDbLine
 62
7
  6
CONTINUOUS
 10
21.4743845452
 20
1.3600140829
 11
21.4743845452
 21
20.564693235
  0
LINE
  5
689
100
AcDbEntity
  8
RACCORDO
100
AcDbLine
 62
7
  6
CONTINUOUS
 10
21.4778755582
 20
-13.9389500828
 11
21.4778755582
 21
-2.7377640716
  0
LINE
  5
68A
100
AcDbEntity
  8
RACCORDO
100
AcDbLine
 62
7
  6
CONTINUOUS
 10
21.4778755582
 20
1.3669982368
 11
21.4778755582
 21
20.568184248
  0
LINE
  5
68B
100
AcDbEntity
  8
0
100
AcDbLine
 62
253
  6
CONTINUOUS
 10
21.6283055241
 20
1.3135087012
 11
21.6283055241
 21
1.1297850084
  0
LINE
  5
68C
100
AcDbEntity
  8
0
100
AcDbLine
 62
253
  6
CONTINUOUS
 10
21.6283055241
 20
-2.5005508432
 11
21.6283055241
 21
-2.684274536
  0
LINE
  5
68D
100
AcDbEntity
  8
RACCORDO
100
AcDbLine
 62
253
  6
CONTINUOUS
 10
21.8274362525
 20
25.1479246826
 11
21.8274362525
 21
23.2971442678
  0
LINE
  5
68E
100
AcDbEntity
  8
0
100
AcDbLine
 62
7
  6
CONTINUOUS
 10
23.7243845452
 20
8.2028598687
 11
23.6820274669
 21
8.0756852968
  0
LINE
  5
68F
100
AcDbEntity
  8
RACCORDO
100
AcDbLine
 62
7
  6
CONTINUOUS
 10
23.6820274669
 20
8.0756852968
 11
23.6333441493
 21
7.929516573
  0
LINE
  5
690
100
AcDbEntity
  8
RACCORDO
100
AcDbLine
 62
7
  6
CONTINUOUS
 10
22.018414779
 20
-2.5387156855
 11
21.9536787224
 21
-2.6682272584
  0
LINE
  5
691
100
AcDbEntity
  8
RACCORDO
100
AcDbLine
 62
253
  6
CONTINUOUS
 10
23.821301301
 20
-4.3884966226
 11
23.7243845452
 21
-4.4854133784
  0
LINE
  5
692
100
AcDbEntity
  8
RACCORDO
100
AcDbLine
 62
253
  6
CONTINUOUS
 10
24.02127084
 20
-4.5884661616
 11
23.9243540842
 21
-4.6853829174
  0
LWPOLYLINE
  5
693
100
AcDbEntity
  8
RACCORDO
100
AcDbPolyline
 62
253
  6
CONTINUOUS
 90
13
 70
0
 10
11.6086526707
 20
23.1045696342
 10
11.625231456
 20
23.1065979684
 10
11.6415314111
 20
23.1119557101
 10
11.6572783676
 20
23.1205527409
 10
11.6722074584
 20
23.132244457
 10
11.6860675733
 20
23.1468342014
 10
11.6986255823
 20
23.1640765717
 10
11.7096702572
 20
23.1836815477
 10
11.7190158243
 20
23.2053193698
 10
11.7265050892
 20
23.2286260854
 10
11.7320120812
 20
23.2532096709
 10
11.7354441713
 20
23.2786566254
 10
11.7367436313
 20
23.304538926
  0
LINE
  5
694
100
AcDbEntity
  8
RACCORDO
100
AcDbLine
 62
253
  6
CONTINUOUS
 10
-23.2936848269
 20
19.6817726952
 11
-14.4961059239
 21
19.6817726952
  0
LINE
  5
695
100
AcDbEntity
  8
RACCORDO
100
AcDbLine
 62
253
  6
CONTINUOUS
 10
-23.2936848269
 20
20.1814681087
 11
-15.5982837723
 21
20.1814681087
  0
LINE
  5
696
100
AcDbEntity
  8
RACCORDO
100
AcDbLine
 62
7
  6
CONTINUOUS
 10
-23.329214955
 20
20.2169982368
 11
-16.5548964937
 21
20.2169982368
  0
LINE
  5
697
100
AcDbEntity
  8
RACCORDO
100
AcDbLine
 62
253
  6
CONTINUOUS
 10
-14.4961059239
 20
21.0351837041
 11
-15.9958774666
 21
21.0351837041
  0
LINE
  5
698
100
AcDbEntity
  8
RACCORDO
100
AcDbLine
 62
253
  6
CONTINUOUS
 10
21.9448750143
 20
21.0351837041
 11
23.444646557
 21
21.0351837033
  0
LINE
  5
699
100
AcDbEntity
  8
RACCORDO
100
AcDbLine
 62
7
  6
CONTINUOUS
 10
20.9744606976
 20
21.0646170826
 11
-13.5256916072
 21
21.0646170826
  0
LINE
  5
69A
100
AcDbEntity
  8
RACCORDO
100
AcDbLine
 62
7
  6
CONTINUOUS
 10
20.9779517106
 20
21.0681080956
 11
-13.5291826202
 21
21.0681080956
  0
LINE
  5
69B
100
AcDbEntity
  8
RACCORDO
100
AcDbLine
 62
253
  6
CONTINUOUS
 10
18.1275651065
 20
21.535101676
 11
-13.9961820763
 21
21.5351075517
  0
LINE
  5
69C
100
AcDbEntity
  8
RACCORDO
100
AcDbLine
 62
253
  6
CONTINUOUS
 10
21.4449511667
 20
21.5351075517
 11
18.3212160371
 21
21.5351147121
  0
LWPOLYLINE
  5
69D
100
AcDbEntity
  8
RACCORDO
100
AcDbPolyline
 62
253
  6
CONTINUOUS
 90
13
 70
0
 10
-9.1598835803
 20
23.1045693873
 10
-9.176461459
 20
23.1065991874
 10
-9.1927604102
 20
23.1119581094
 10
-9.2085063041
 20
23.1205560222
 10
-9.2234343122
 20
23.1322483186
 10
-9.2372933624
 20
23.1468383473
 10
-9.2498503609
 20
23.1640807204
 10
-9.2608941132
 20
23.1836854407
 10
-9.2702388756
 20
23.2053227787
 10
-9.2777274799
 20
23.2286288188
 10
-9.2832339761
 20
23.2532115795
 10
-9.2866657511
 20
23.2786576065
 10
-9.2879650863
 20
23.304538926
  0
LWPOLYLINE
  5
69E
100
AcDbEntity
  8
SMUSSO
100
AcDbPolyline
 62
7
  6
CONTINUOUS
 90
11
 70
0
 10
-8.4288194936
 20
25.6479551772
 10
-8.4225224281
 20
25.6456017613
 10
-8.407443392
 20
25.6432579978
 10
-8.3835823854
 20
25.6409238868
 10
-8.3508764878
 20
25.6385851745
 10
-8.3093886196
 20
25.6362561148
 10
-8.2593075422
 20
25.6339794684
 10
-8.2003625644
 20
25.6317568759
 10
-8.1328243774
 20
25.6295866968
 10
-8.0576938164
 20
25.6275067705
 10
-7.8843497604
 20
25.6236244944
  0
LINE
  5
69F
100
AcDbEntity
  8
RACCORDO
100
AcDbLine
 62
7
  6
CONTINUOUS
 10
22.018414779
 20
1.1679498507
 11
21.9536787224
 21
1.2974614236
  0
LWPOLYLINE
  5
6A0
100
AcDbEntity
  8
RACCORDO
100
AcDbPolyline
 62
253
  6
CONTINUOUS
 90
16
 70
0
 10
21.8274362525
 20
25.1479246826
 10
21.8246827426
 20
25.2001710722
 10
21.8164842005
 20
25.2518452377
 10
21.8029304231
 20
25.3023812424
 10
21.7841698554
 20
25.3512256204
 10
21.7604079704
 20
25.3978434235
 10
21.7319050236
 20
25.4417240823
 10
21.6989731899
 20
25.4823870199
 10
21.6619731463
 20
25.5193869046
 10
21.6213101325
 20
25.5523185163
 10
21.5774294991
 20
25.5808211991
 10
21.5308118303
 20
25.6045828067
 10
21.4819676891
 20
25.6233431156
 10
21.4314320185
 20
25.6368966786
 10
21.3797582818
 20
25.6450950743
 10
21.3275124049
 20
25.6478485302
  0
LWPOLYLINE
  5
6A1
100
AcDbEntity
  8
RACCORDO
100
AcDbPolyline
 62
253
  6
CONTINUOUS
 90
25
 70
0
 10
21.9448750143
 20
21.0351837041
 10
21.943783717
 20
21.0680153577
 10
21.9405955026
 20
21.1004611711
 10
21.9353103713
 20
21.1325211446
 10
21.9278879971
 20
21.1643388662
 10
21.918368706
 20
21.1957707478
 10
21.906873475
 20
21.2263860245
 10
21.8933768666
 20
21.2561648127
 10
21.8779043183
 20
21.285126996
 10
21.8606531208
 20
21.3129014606
 10
21.8415998841
 20
21.339473013
 10
21.820767998
 20
21.3648568467
 10
21.7984249225
 20
21.3887274288
 10
21.7745516383
 20
21.4110647233
 10
21.7491671646
 20
21.4318887663
 10
21.7225960185
 20
21.4509341328
 10
21.694822897
 20
21.4681778747
 10
21.6658631032
 20
21.4836429402
 10
21.6360870632
 20
21.4971327494
 10
21.6054730428
 20
21.508622165
 10
21.5740427762
 20
21.5181363243
 10
21.5422318924
 20
21.5255540595
 10
21.510185601
 20
21.5308349811
 10
21.4777586925
 20
21.5340194785
 10
21.4449511667
 20
21.5351075517
  0
LWPOLYLINE
  5
6A2
100
AcDbEntity
  8
RACCORDO
100
AcDbPolyline
 62
253
  6
CONTINUOUS
 90
25
 70
0
 10
23.4446465833
 20
21.0350547201
 10
23.4403409589
 20
21.165887773
 10
23.4274873623
 20
21.2961439823
 10
23.4061440604
 20
21.4252657457
 10
23.3764071589
 20
21.5526950926
 10
23.3384063104
 20
21.6778929698
 10
23.2923004986
 20
21.8003404676
 10
23.2382840811
 20
21.919519096
 10
23.1765901268
 20
22.0349126876
 10
23.107483325
 20
22.1460258926
 10
23.0312599354
 20
22.2523826285
 10
22.9482460005
 20
22.3535282479
 10
22.8587966423
 20
22.4490301009
 10
22.7632947465
 20
22.53847938
 10
22.6621491056
 20
22.6214932228
 10
22.5557923383
 20
22.6977165341
 10
22.4446790819
 20
22.7668232731
 10
22.3292854242
 20
22.8285171707
 10
22.2101067007
 20
22.8825335384
 10
22.0876544628
 20
22.9286408676
 10
21.9624516287
 20
22.9666426176
 10
21.8350314945
 20
22.9963769313
 10
21.7059384696
 20
23.0177163307
 10
21.575725919
 20
23.0305688459
 10
21.4449511667
 20
23.0348790944
  0
LINE
  5
6A3
100
AcDbEntity
  8
RACCORDO
100
AcDbLine
 62
253
  6
CONTINUOUS
 10
23.8411308751
 20
10.7553191619
 11
23.8452453527
 21
10.6307095666
  0
LINE
  5
6A4
100
AcDbEntity
  8
RACCORDO
100
AcDbLine
 62
253
  6
CONTINUOUS
 10
23.8452453527
 20
10.6307095666
 11
23.8493779478
 21
10.4749472434
  0
LINE
  5
6A5
100
AcDbEntity
  8
RACCORDO
100
AcDbLine
 62
253
  6
CONTINUOUS
 10
24.0452175224
 20
10.8031615498
 11
24.0493491422
 21
10.6360719022
  0
LINE
  5
6A6
100
AcDbEntity
  8
RACCORDO
100
AcDbLine
 62
253
  6
CONTINUOUS
 10
23.8493779478
 20
10.4749472434
 11
23.8553358906
 21
10.1790677327
  0
LINE
  5
6A7
100
AcDbEntity
  8
RACCORDO
100
AcDbLine
 62
253
  6
CONTINUOUS
 10
24.0493491422
 20
10.6360719022
 11
24.0553050726
 21
10.3191551668
  0
LINE
  5
6A8
100
AcDbEntity
  8
RACCORDO
100
AcDbLine
 62
253
  6
CONTINUOUS
 10
23.8553358906
 20
10.1790677327
 11
23.8603816054
 21
9.8324927192
  0
LINE
  5
6A9
100
AcDbEntity
  8
RACCORDO
100
AcDbLine
 62
253
  6
CONTINUOUS
 10
24.0553050726
 20
10.3191551668
 11
24.0617391413
 21
9.820274355
  0
LINE
  5
6AA
100
AcDbEntity
  8
RACCORDO
100
AcDbLine
 62
253
  6
CONTINUOUS
 10
23.8603816054
 20
9.8324927192
 11
23.865109617
 21
9.3559389083
  0
LINE
  5
6AB
100
AcDbEntity
  8
RACCORDO
100
AcDbLine
 62
253
  6
CONTINUOUS
 10
24.0617391413
 20
9.820274355
 11
24.0666629716
 21
9.1888388779
  0
LINE
  5
6AC
100
AcDbEntity
  8
RACCORDO
100
AcDbLine
 62
253
  6
CONTINUOUS
 10
23.865109617
 20
9.3559389083
 11
23.8686282782
 21
8.6894524958
  0
LINE
  5
6AD
100
AcDbEntity
  8
RACCORDO
100
AcDbLine
 62
253
  6
CONTINUOUS
 10
24.0666629716
 20
9.1888388779
 11
24.0692018516
 21
8.4089380871
  0
LINE
  5
6AE
100
AcDbEntity
  8
RACCORDO
100
AcDbLine
 62
7
  6
CONTINUOUS
 10
21.9243845452
 20
25.2448729753
 11
21.9243845452
 21
23.3940925605
  0
LINE
  5
6AF
100
AcDbEntity
  8
RACCORDO
100
AcDbLine
 62
253
  6
CONTINUOUS
 10
21.9448750143
 20
-14.4059495389
 11
21.9448750143
 21
-2.7377640716
  0
LINE
  5
6B0
100
AcDbEntity
  8
RACCORDO
100
AcDbLine
 62
253
  6
CONTINUOUS
 10
21.9448750143
 20
1.3669982368
 11
21.9448750143
 21
21.0351837041
  0
LINE
  5
6B1
100
AcDbEntity
  8
0
100
AcDbLine
 62
7
  6
CONTINUOUS
 10
22.018414779
 20
-2.5387156855
 11
22.018414779
 21
1.1679498507
  0
LINE
  5
6B2
100
AcDbEntity
  8
RACCORDO
100
AcDbLine
 62
7
  6
CONTINUOUS
 10
22.1177342139
 20
-2.7374150948
 11
22.1177342139
 21
1.36664926
  0
LINE
  5
6B3
100
AcDbEntity
  8
RACCORDO
100
AcDbLine
 62
253
  6
CONTINUOUS
 10
23.444646557
 20
21.0350546896
 11
23.444646557
 21
-14.4059495389
  0
LINE
  5
6B4
100
AcDbEntity
  8
RACCORDO
100
AcDbLine
 62
7
  6
CONTINUOUS
 10
23.6283816881
 20
-1.0006935474
 11
23.6283816881
 21
7.6299277126
  0
LINE
  5
6B5
100
AcDbEntity
  8
RACCORDO
100
AcDbLine
 62
7
  6
CONTINUOUS
 10
23.7243845452
 20
21.3149216923
 11
23.7243845452
 21
8.2028598687
  0
LINE
  5
6B6
100
AcDbEntity
  8
RACCORDO
100
AcDbLine
 62
7
  6
CONTINUOUS
 10
23.7243845452
 20
-1.5736257035
 11
23.7243845452
 21
-14.6856875271
  0
LINE
  5
6B7
100
AcDbEntity
  8
DRAFT
100
AcDbLine
 62
7
  6
CONTINUOUS
 10
23.7243845452
 20
-1.6853829174
 11
23.7243845452
 21
-1.4464511316
  0
LINE
  5
6B8
100
AcDbEntity
  8
DRAFT
100
AcDbLine
 62
7
  6
CONTINUOUS
 10
23.7243845452
 20
8.0756852968
 11
23.7243845452
 21
8.3146170826
  0
LINE
  5
6B9
100
AcDbEntity
  8
RACCORDO
100
AcDbLine
 62
7
  6
CONTINUOUS
 10
23.8203874023
 20
7.7272655939
 11
23.8203874023
 21
-1.0980314287
  0
LINE
  5
6BA
100
AcDbEntity
  8
RACCORDO
100
AcDbLine
 62
253
  6
CONTINUOUS
 10
23.8686282782
 20
8.6894524958
 11
23.8693225107
 21
-1.5889230762
  0
LINE
  5
6BB
100
AcDbEntity
  8
RACCORDO
100
AcDbLine
 62
253
  6
CONTINUOUS
 10
24.0692018516
 20
8.4089380871
 11
24.0692791932
 21
-1.6823387969
  0
LINE
  5
6BC
100
AcDbEntity
  8
RACCORDO
100
AcDbLine
 62
253
  6
CONTINUOUS
 10
23.8693225107
 20
-1.5889230762
 11
23.8678443528
 21
-2.2717863765
  0
LINE
  5
6BD
100
AcDbEntity
  8
RACCORDO
100
AcDbLine
 62
253
  6
CONTINUOUS
 10
24.0692791932
 20
-1.6823387969
 11
24.067292353
 21
-2.4388311115
  0
LINE
  5
6BE
100
AcDbEntity
  8
RACCORDO
100
AcDbLine
 62
253
  6
CONTINUOUS
 10
23.8678443528
 20
-2.2717863765
 11
23.8641309154
 21
-2.8447578919
  0
LINE
  5
6BF
100
AcDbEntity
  8
RACCORDO
100
AcDbLine
 62
253
  6
CONTINUOUS
 10
24.067292353
 20
-2.4388311115
 11
24.0629848041
 21
-3.0626430599
  0
LINE
  5
6C0
100
AcDbEntity
  8
RACCORDO
100
AcDbLine
 62
253
  6
CONTINUOUS
 10
23.8641309154
 20
-2.8447578919
 11
23.8588295166
 21
-3.3215445513
  0
LINE
  5
6C1
100
AcDbEntity
  8
RACCORDO
100
AcDbLine
 62
253
  6
CONTINUOUS
 10
24.0629848041
 20
-3.0626430599
 11
24.0571020555
 21
-3.5707761653
  0
LINE
  5
6C2
100
AcDbEntity
  8
RACCORDO
100
AcDbLine
 62
253
  6
CONTINUOUS
 10
23.8588295166
 20
-3.3215445513
 11
23.8534264169
 21
-3.6549530268
  0
LINE
  5
6C3
100
AcDbEntity
  8
RACCORDO
100
AcDbLine
 62
253
  6
CONTINUOUS
 10
24.0571020555
 20
-3.5707761653
 11
24.0513861279
 21
-3.9094592129
  0
LINE
  5
6C4
100
AcDbEntity
  8
RACCORDO
100
AcDbLine
 62
253
  6
CONTINUOUS
 10
23.8534264169
 20
-3.6549530268
 11
23.8493779478
 21
-3.8457130781
  0
LINE
  5
6C5
100
AcDbEntity
  8
RACCORDO
100
AcDbLine
 62
253
  6
CONTINUOUS
 10
24.0513861279
 20
-3.9094592129
 11
24.0472967711
 21
-4.0946691674
  0
LINE
  5
6C6
100
AcDbEntity
  8
RACCORDO
100
AcDbLine
 62
253
  6
CONTINUOUS
 10
23.8493779478
 20
-3.8457130781
 11
23.8452453527
 21
-4.0014754024
  0
LINE
  5
6C7
100
AcDbEntity
  8
RACCORDO
100
AcDbLine
 62
253
  6
CONTINUOUS
 10
24.0472967711
 20
-4.0946691674
 11
24.0431513125
 21
-4.2446307196
  0
LWPOLYLINE
  5
6C8
100
AcDbEntity
  8
RACCORDO
100
AcDbPolyline
 62
253
  6
CONTINUOUS
 90
13
 70
0
 10
23.8452453527
 20
-4.0014754024
 10
23.8411308751
 20
-4.126084996
 10
23.8390960972
 20
-4.1769200276
 10
23.8370976122
 20
-4.2214489041
 10
23.8351381206
 20
-4.2596604366
 10
23.8332149219
 20
-4.291565814
 10
23.8313430924
 20
-4.3184686257
 10
23.8295246844
 20
-4.340393852
 10
23.8277576457
 20
-4.3573165126
 10
23.8260508961
 20
-4.3704652552
 10
23.8244074087
 20
-4.380249629
 10
23.8228242103
 20
-4.3862600848
 10
23.821301301
 20
-4.3884966226
  0
LWPOLYLINE
  5
6C9
100
AcDbEntity
  8
RACCORDO
100
AcDbPolyline
 62
253
  6
CONTINUOUS
 90
12
 70
0
 10
24.0431513125
 20
-4.2446307196
 10
24.0390691473
 20
-4.3618516443
 10
24.0370708311
 20
-4.4094050684
 10
24.035111466
 20
-4.4501966205
 10
24.033188348
 20
-4.4846908976
 10
24.0313165732
 20
-4.513381631
 10
24.0294983398
 20
-4.5367158727
 10
24.0277314495
 20
-4.5551419996
 10
24.0260244043
 20
-4.5691188584
 10
24.0243800379
 20
-4.5790665864
 10
24.0227955165
 20
-4.5853838391
 10
24.02127084
 20
-4.5884661616
  0
LWPOLYLINE
  5
6CA
100
AcDbEntity
  8
RACCORDO
100
AcDbPolyline
 62
253
  6
CONTINUOUS
 90
19
 70
0
 10
16.9490128634
 20
-17.333395059
 10
16.9385444661
 20
-17.3542827909
 10
16.9305825256
 20
-17.3762573623
 10
16.9252380719
 20
-17.3990192603
 10
16.9225859411
 20
-17.4222676202
 10
16.9226676096
 20
-17.4456748941
 10
16.925479047
 20
-17.4688912227
 10
16.9309666545
 20
-17.4915763306
 10
16.9390494977
 20
-17.5134478975
 10
16.9496328844
 20
-17.5342501121
 10
16.9626053484
 20
-17.5537304707
 10
16.9777784484
 20
-17.5715786215
 10
16.9948852173
 20
-17.587491272
 10
17.0136766408
 20
-17.6012664934
 10
17.0338856236
 20
-17.6127353859
 10
17.0551525939
 20
-17.6217346324
 10
17.0771485021
 20
-17.6281834347
 10
17.0995946899
 20
-17.6320558207
 10
17.1221915642
 20
-17.6333493676
  0
LWPOLYLINE
  5
6CB
100
AcDbEntity
  8
RACCORDO
100
AcDbPolyline
 62
253
  6
CONTINUOUS
 90
19
 70
0
 10
17.8383580076
 20
-16.1929441195
 10
17.8665268446
 20
-16.1410962722
 10
17.8930225723
 20
-16.0868136627
 10
17.9178451905
 20
-16.0300962907
 10
17.9409493839
 20
-15.9708702083
 10
17.962380468
 20
-15.9092093636
 10
17.982274389
 20
-15.8453356009
 10
18.0005969024
 20
-15.7793030229
 10
18.0173822529
 20
-15.7110575269
 10
18.0328691205
 20
-15.6406586499
 10
18.0470277145
 20
-15.5681526213
 10
18.0598878257
 20
-15.4934932117
 10
18.0717775066
 20
-15.4166012704
 10
18.0826520198
 20
-15.3375366216
 10
18.0925561026
 20
-15.256239441
 10
18.1019520209
 20
-15.1724511055
 10
18.110993863
 20
-15.0860854075
 10
18.1195275405
 20
-14.9972285546
 10
18.1275530533
 20
-14.9058805469
  0
LWPOLYLINE
  5
6CC
100
AcDbEntity
  8
RACCORDO
100
AcDbPolyline
 62
253
  6
CONTINUOUS
 90
17
 70
0
 10
17.6651791668
 20
-16.0929605237
 10
17.6894554238
 20
-16.0499830088
 10
17.7136964037
 20
-16.0042720799
 10
17.7379072792
 20
-15.9558690554
 10
17.7620990461
 20
-15.9048408759
 10
17.7863159296
 20
-15.8511901526
 10
17.8106144075
 20
-15.79485552
 10
17.8350344945
 20
-15.735867308
 10
17.8596292806
 20
-15.6742379063
 10
17.8844532742
 20
-15.609874517
 10
17.9095674776
 20
-15.5427921226
 10
17.9350306496
 20
-15.4730063773
 10
17.9608679408
 20
-15.4004288111
 10
17.987156863
 20
-15.3250896275
 10
18.0139760201
 20
-15.2469902186
 10
18.0413285989
 20
-15.1660092947
 10
18.1275514094
 20
-14.9058877073
  0
LINE
  5
6CD
100
AcDbEntity
  8
RACCORDO
100
AcDbLine
 62
7
  6
CONTINUOUS
 10
17.1640025561
 20
-16.7758764468
 11
16.7886721212
 21
-17.4259678297
  0
LINE
  5
6CE
100
AcDbEntity
  8
RACCORDO
100
AcDbLine
 62
253
  6
CONTINUOUS
 10
16.9490128528
 20
-17.3333950652
 11
17.6651780288
 21
-16.0929605936
  0
LINE
  5
6CF
100
AcDbEntity
  8
RACCORDO
100
AcDbLine
 62
253
  6
CONTINUOUS
 10
17.1221921081
 20
-17.4333798285
 11
17.8383580076
 21
-16.1929441195
  0
LINE
  5
6D0
100
AcDbEntity
  8
RACCORDO
100
AcDbLine
 62
253
  6
CONTINUOUS
 10
17.6651780288
 20
-16.0929605936
 11
17.5382249377
 21
-16.3054804977
  0
LINE
  5
6D1
100
AcDbEntity
  8
RACCORDO
100
AcDbLine
 62
253
  6
CONTINUOUS
 10
17.5382249377
 20
-16.3054804977
 11
17.4676423966
 21
-16.4222914805
  0
LWPOLYLINE
  5
6D2
100
AcDbEntity
  8
RACCORDO
100
AcDbPolyline
 62
253
  6
CONTINUOUS
 90
10
 70
0
 10
17.4676423966
 20
-16.4222914805
 10
17.4083868263
 20
-16.5191571844
 10
17.3830161217
 20
-16.5601045992
 10
17.3604157772
 20
-16.5961699267
 10
17.3404603605
 20
-16.6275570545
 10
17.323275304
 20
-16.6540620949
 10
17.3091776597
 20
-16.6751703075
 10
17.2982731117
 20
-16.6907101121
 10
17.2904559761
 20
-16.7008530888
 10
17.2857262528
 20
-16.7055992378
  0
LINE
  5
6D3
100
AcDbEntity
  8
RACCORDO
100
AcDbLine
 62
253
  6
CONTINUOUS
 10
18.1275560815
 20
-14.9058805469
 11
17.8786803395
 21
-15.284684353
  0
LINE
  5
6D4
100
AcDbEntity
  8
RACCORDO
100
AcDbLine
 62
253
  6
CONTINUOUS
 10
17.8786803395
 20
-15.284684353
 11
17.6029013883
 21
-15.6997623552
  0
LINE
  5
6D5
100
AcDbEntity
  8
RACCORDO
100
AcDbLine
 62
253
  6
CONTINUOUS
 10
17.6029013883
 20
-15.6997623552
 11
17.4636464832
 21
-15.9071452277
  0
LINE
  5
6D6
100
AcDbEntity
  8
RACCORDO
100
AcDbLine
 62
253
  6
CONTINUOUS
 10
17.4636464832
 20
-15.9071452277
 11
17.3464343905
 21
-16.0798834399
  0
LINE
  5
6D7
100
AcDbEntity
  8
RACCORDO
100
AcDbLine
 62
253
  6
CONTINUOUS
 10
17.3464343905
 20
-16.0798834399
 11
17.2813170667
 21
-16.174705658
  0
LINE
  5
6D8
100
AcDbEntity
  8
RACCORDO
100
AcDbLine
 62
253
  6
CONTINUOUS
 10
17.2813170667
 20
-16.174705658
 11
17.2265460274
 21
-16.2534802173
  0
LWPOLYLINE
  5
6D9
100
AcDbEntity
  8
RACCORDO
100
AcDbPolyline
 62
253
  6
CONTINUOUS
 90
8
 70
0
 10
17.2265460274
 20
-16.2534802173
 10
17.1820758045
 20
-16.3162982796
 10
17.1635720122
 20
-16.3419492338
 10
17.1476247683
 20
-16.3634694242
 10
17.1345200978
 20
-16.3807020043
 10
17.1243533424
 20
-16.3935335454
 10
17.1170291605
 20
-16.4018758333
 10
17.112547552
 20
-16.4056449292
  0
LINE
  5
6DA
100
AcDbEntity
  8
RACCORDO
100
AcDbLine
 62
253
  6
CONTINUOUS
 10
17.112547552
 20
-16.4056449292
 11
16.9908238553
 21
-16.4759221383
  0
LINE
  5
6DB
100
AcDbEntity
  8
RACCORDO
100
AcDbLine
 62
253
  6
CONTINUOUS
 10
17.2857262528
 20
-16.7055992378
 11
17.1640025561
 21
-16.7758764468
  0
LINE
  5
6DC
100
AcDbEntity
  8
RACCORDO
100
AcDbLine
 62
253
  6
CONTINUOUS
 10
18.7835923792
 20
-16.0929628853
 11
18.6104136613
 21
-16.1929475348
  0
LINE
  5
6DD
100
AcDbEntity
  8
RACCORDO
100
AcDbLine
 62
253
  6
CONTINUOUS
 10
16.9490128528
 20
-17.3333950652
 11
16.7886721212
 21
-17.4259678297
  0
LINE
  5
6DE
100
AcDbEntity
  8
RACCORDO
100
AcDbLine
 62
253
  6
CONTINUOUS
 10
17.1221915642
 20
-17.6333493676
 11
16.9618508219
 21
-17.7259221383
  0
LINE
  5
6DF
100
AcDbEntity
  8
DRAFT
100
AcDbLine
 62
7
  6
CONTINUOUS
 10
15.9733305528
 20
-16.6155626577
 11
16.2526967087
 21
-16.4759221383
  0
LINE
  5
6E0
100
AcDbEntity
  8
RACCORDO
100
AcDbLine
 62
253
  6
CONTINUOUS
 10
16.2177759392
 20
-17.5434685722
 11
16.2526967087
 21
-17.5260135073
  0
LINE
  5
6E1
100
AcDbEntity
  8
RACCORDO
100
AcDbLine
 62
253
  6
CONTINUOUS
 10
16.4177759578
 20
-17.7433772032
 11
16.4526967273
 21
-17.7259221383
  0
LINE
  5
6E2
100
AcDbEntity
  8
DRAFT
100
AcDbLine
 62
7
  6
CONTINUOUS
 10
20.2309931512
 20
-16.7377481122
 11
20.4754385376
 21
-16.6155626577
  0
LWPOLYLINE
  5
6E3
100
AcDbEntity
  8
RACCORDO
100
AcDbPolyline
 62
253
  6
CONTINUOUS
 90
13
 70
0
 10
6.6086526707
 20
23.104569397
 10
6.6252313223
 20
23.1065980325
 10
6.6415311231
 20
23.1119560203
 10
6.6572779116
 20
23.1205532392
 10
6.672206828
 20
23.1322450848
 10
6.6860667688
 20
23.1468349009
 10
6.6986246108
 20
23.1640772879
 10
6.709669132
 20
23.18368223
 10
6.7190145642
 20
23.2053199735
 10
6.7265037181
 20
23.2286265729
 10
6.7320106264
 20
23.2532100129
 10
6.7354426635
 20
23.2786568017
 10
6.7367421026
 20
23.304538926
  0
LWPOLYLINE
  5
6E4
100
AcDbEntity
  8
RACCORDO
100
AcDbPolyline
 62
253
  6
CONTINUOUS
 90
13
 70
0
 10
1.6086526707
 20
23.104569397
 10
1.6252313223
 20
23.1065980325
 10
1.6415311231
 20
23.1119560203
 10
1.6572779116
 20
23.1205532392
 10
1.672206828
 20
23.1322450848
 10
1.6860667688
 20
23.1468349009
 10
1.6986246108
 20
23.1640772879
 10
1.709669132
 20
23.18368223
 10
1.7190145642
 20
23.2053199735
 10
1.7265037181
 20
23.2286265729
 10
1.7320106264
 20
23.2532100129
 10
1.7354426635
 20
23.2786568017
 10
1.7367421026
 20
23.304538926
  0
LWPOLYLINE
  5
6E5
100
AcDbEntity
  8
RACCORDO
100
AcDbPolyline
 62
253
  6
CONTINUOUS
 90
13
 70
0
 10
-3.3913473293
 20
23.104569397
 10
-3.3747686777
 20
23.1065980325
 10
-3.3584688769
 20
23.1119560203
 10
-3.3427220884
 20
23.1205532392
 10
-3.327793172
 20
23.1322450848
 10
-3.3139332312
 20
23.1468349009
 10
-3.3013753892
 20
23.1640772879
 10
-3.290330868
 20
23.18368223
 10
-3.2809854358
 20
23.2053199735
 10
-3.2734962819
 20
23.2286265729
 10
-3.2679893736
 20
23.2532100129
 10
-3.2645573365
 20
23.2786568017
 10
-3.2632578974
 20
23.304538926
  0
LWPOLYLINE
  5
6E6
100
AcDbEntity
  8
RACCORDO
100
AcDbPolyline
 62
253
  6
CONTINUOUS
 90
13
 70
0
 10
-8.3913473293
 20
23.104569397
 10
-8.3747686777
 20
23.1065980325
 10
-8.3584688769
 20
23.1119560203
 10
-8.3427220884
 20
23.1205532392
 10
-8.327793172
 20
23.1322450848
 10
-8.3139332312
 20
23.1468349009
 10
-8.3013753892
 20
23.1640772879
 10
-8.290330868
 20
23.18368223
 10
-8.2809854358
 20
23.2053199735
 10
-8.2734962819
 20
23.2286265729
 10
-8.2679893736
 20
23.2532100129
 10
-8.2645573365
 20
23.2786568017
 10
-8.2632578974
 20
23.304538926
  0
LWPOLYLINE
  5
6E7
100
AcDbEntity
  8
RACCORDO
100
AcDbPolyline
 62
253
  6
CONTINUOUS
 90
13
 70
0
 10
-14.0796711914
 20
23.1183684381
 10
-14.0576412122
 20
23.1202983824
 10
-14.0359837373
 20
23.1255772438
 10
-14.0150650023
 20
23.1341157548
 10
-13.9952387505
 20
23.1457695262
 10
-13.976840251
 20
23.1603414885
 10
-13.960180629
 20
23.1775852245
 10
-13.9455416047
 20
23.1972091366
 10
-13.9331707293
 20
23.2188813773
 10
-13.9232771986
 20
23.2422354613
 10
-13.9160283158
 20
23.2668764626
 10
-13.9115466622
 20
23.292387693
 10
-13.9099080242
 20
23.3183377485
  0
LWPOLYLINE
  5
6E8
100
AcDbEntity
  8
RACCORDO
100
AcDbPolyline
 62
253
  6
CONTINUOUS
 90
13
 70
0
 10
-14.465600528
 20
23.1024008753
 10
-14.3966719791
 20
23.1083562541
 10
-14.3769633458
 20
23.1099653682
 10
-14.3558645237
 20
23.1115871198
 10
-14.3334618709
 20
23.1131665084
 10
-14.30966239
 20
23.1146745653
 10
-14.2838330299
 20
23.1161036396
 10
-14.2559511
 20
23.1173755458
 10
-14.2260328262
 20
23.1184137781
 10
-14.1935013391
 20
23.1191585042
 10
-14.1581646258
 20
23.1194943871
 10
-14.1202184558
 20
23.1192780882
 10
-14.0796711912
 20
23.1183682095
  0
LWPOLYLINE
  5
6E9
100
AcDbEntity
  8
RACCORDO
100
AcDbPolyline
 62
253
  6
CONTINUOUS
 90
19
 70
0
 10
17.1221915642
 20
24.2625835328
 10
17.0988680591
 20
24.2612055648
 10
17.0758565518
 20
24.2571135218
 10
17.053471943
 20
24.2503610055
 10
17.0320122073
 20
24.2410336382
 10
17.0117817477
 20
24.2292592743
 10
16.9930815361
 20
24.2152163338
 10
16.9761794602
 20
24.1991213723
 10
16.9612795492
 20
24.1811856413
 10
16.9485559963
 20
24.1616190523
 10
16.9381717428
 20
24.1406443896
 10
16.9303013408
 20
24.1185800242
 10
16.9250739657
 20
24.0958088025
 10
16.9225399857
 20
24.0726473417
 10
16.9227121249
 20
24.0494114029
 10
16.925552034
 20
24.0264940431
 10
16.9309651615
 20
24.0042206267
 10
16.9388346707
 20
23.9828454648
 10
16.9490128634
 20
23.9626292242
  0
LWPOLYLINE
  5
6EA
100
AcDbEntity
  8
RACCORDO
100
AcDbPolyline
 62
253
  6
CONTINUOUS
 90
19
 70
0
 10
17.0150113279
 20
23.0911916596
 10
17.0382135266
 20
23.0925553466
 10
17.0611021124
 20
23.096603494
 10
17.0833677112
 20
23.1032813852
 10
17.1047093844
 20
23.1124987657
 10
17.1248386501
 20
23.1241310446
 10
17.1434833918
 20
23.1380209615
 10
17.1603915623
 20
23.1539807107
 10
17.1753346931
 20
23.171794599
 10
17.1881108977
 20
23.1912219693
 10
17.1985475036
 20
23.2120003578
 10
17.2065033427
 20
23.2338488341
 10
17.2118708112
 20
23.2564719012
 10
17.2145773834
 20
23.2795636701
 10
17.2145865336
 20
23.3028121077
 10
17.2118981535
 20
23.3259030674
 10
17.2065485717
 20
23.3485244722
 10
17.1986100969
 20
23.3703705324
 10
17.1881900287
 20
23.3911459682
  0
LWPOLYLINE
  5
6EB
100
AcDbEntity
  8
RACCORDO
100
AcDbPolyline
 62
253
  6
CONTINUOUS
 90
25
 70
0
 10
-13.9961820763
 20
21.5351075517
 10
-14.0290137299
 20
21.5340162544
 10
-14.0614595434
 20
21.53082804
 10
-14.0935195168
 20
21.5255429087
 10
-14.1253372384
 20
21.5181205345
 10
-14.15676912
 20
21.5086012434
 10
-14.1873843967
 20
21.4971060124
 10
-14.2171631849
 20
21.483609404
 10
-14.2461253682
 20
21.4681368557
 10
-14.2738998328
 20
21.4508856582
 10
-14.3004713852
 20
21.4318324215
 10
-14.3258552189
 20
21.4110005354
 10
-14.349725801
 20
21.3886574599
 10
-14.3720630955
 20
21.3647841757
 10
-14.3928871385
 20
21.339399702
 10
-14.4119325051
 20
21.3128285559
 10
-14.4291762469
 20
21.2850554344
 10
-14.4446413124
 20
21.2560956406
 10
-14.4581311216
 20
21.2263196006
 10
-14.4696205372
 20
21.1957055802
 10
-14.4791346966
 20
21.1642753136
 10
-14.4865524317
 20
21.1324644298
 10
-14.4918333533
 20
21.1004181384
 10
-14.4950178507
 20
21.0679912299
 10
-14.4961059239
 20
21.0351837041
  0
LWPOLYLINE
  5
6EC
100
AcDbEntity
  8
RACCORDO
100
AcDbPolyline
 62
253
  6
CONTINUOUS
 90
25
 70
0
 10
-13.9960530923
 20
23.0348791207
 10
-14.1268861453
 20
23.0305734963
 10
-14.2571423545
 20
23.0177198997
 10
-14.3862641179
 20
22.9963765978
 10
-14.5136934648
 20
22.9666396963
 10
-14.638891342
 20
22.9286388478
 10
-14.7613388398
 20
22.882533036
 10
-14.8805174683
 20
22.8285166185
 10
-14.9959110598
 20
22.7668226642
 10
-15.1070242648
 20
22.6977158624
 10
-15.2133810007
 20
22.6214924728
 10
-15.3145266201
 20
22.5384785379
 10
-15.4100284731
 20
22.4490291797
 10
-15.4994777522
 20
22.3535272839
 10
-15.5824915951
 20
22.252381643
 10
-15.6587149063
 20
22.1460248757
 10
-15.7278216453
 20
22.0349116193
 10
-15.789515543
 20
21.9195179616
 10
-15.8435319106
 20
21.8003392381
 10
-15.8896392398
 20
21.6778870002
 10
-15.9276409898
 20
21.5526841661
 10
-15.9573753035
 20
21.4252640319
 10
-15.9787147029
 20
21.296171007
 10
-15.9915672181
 20
21.1659584564
 10
-15.9958774666
 20
21.0351837041
  0
LINE
  5
6ED
100
AcDbEntity
  8
RACCORDO
100
AcDbLine
 62
253
  6
CONTINUOUS
 10
21.1586776519
 20
23.313045186
 11
21.3586788145
 21
23.3183377485
  0
LINE
  5
6EE
100
AcDbEntity
  8
RACCORDO
100
AcDbLine
 62
253
  6
CONTINUOUS
 10
21.3156514301
 20
23.1130875019
 11
21.5284402818
 21
23.1183682095
  0
LINE
  5
6EF
100
AcDbEntity
  8
RACCORDO
100
AcDbLine
 62
253
  6
CONTINUOUS
 10
20.9272423189
 20
23.308211663
 11
21.1586776519
 21
23.313045186
  0
LINE
  5
6F0
100
AcDbEntity
  8
RACCORDO
100
AcDbLine
 62
253
  6
CONTINUOUS
 10
20.9346419798
 20
23.1060077982
 11
21.3156514301
 21
23.1130875019
  0
LWPOLYLINE
  5
6F1
100
AcDbEntity
  8
RACCORDO
100
AcDbPolyline
 62
253
  6
CONTINUOUS
 90
8
 70
0
 10
21.5284402818
 20
23.1183682095
 10
21.5955485349
 20
23.1194698099
 10
21.6578973275
 20
23.1188425033
 10
21.7154522016
 20
23.1169192198
 10
21.768599584
 20
23.1140671688
 10
21.8169427506
 20
23.1106640988
 10
21.8593088027
 20
23.1071866156
 10
21.9256935738
 20
23.1014845488
  0
LINE
  5
6F2
100
AcDbEntity
  8
RACCORDO
100
AcDbLine
 62
253
  6
CONTINUOUS
 10
20.5322428583
 20
23.3019580369
 11
20.9272423189
 21
23.308211663
  0
LINE
  5
6F3
100
AcDbEntity
  8
RACCORDO
100
AcDbLine
 62
253
  6
CONTINUOUS
 10
20.4997903346
 20
23.100233936
 11
20.9346419798
 21
23.1060077982
  0
LINE
  5
6F4
100
AcDbEntity
  8
RACCORDO
100
AcDbLine
 62
253
  6
CONTINUOUS
 10
10.3426704042
 20
23.2996209146
 11
10.7120270445
 21
23.304538926
  0
LINE
  5
6F5
100
AcDbEntity
  8
RACCORDO
100
AcDbLine
 62
253
  6
CONTINUOUS
 10
5.3426704042
 20
23.2996209146
 11
5.7120270445
 21
23.304538926
  0
LINE
  5
6F6
100
AcDbEntity
  8
RACCORDO
100
AcDbLine
 62
253
  6
CONTINUOUS
 10
0.3426704042
 20
23.2996209146
 11
0.7120270445
 21
23.304538926
  0
LINE
  5
6F7
100
AcDbEntity
  8
RACCORDO
100
AcDbLine
 62
253
  6
CONTINUOUS
 10
-4.6573295958
 20
23.2996209146
 11
-4.2879729555
 21
23.304538926
  0
LINE
  5
6F8
100
AcDbEntity
  8
RACCORDO
100
AcDbLine
 62
253
  6
CONTINUOUS
 10
-9.7447834735
 20
23.2986640704
 11
-9.2879729555
 21
23.304538926
  0
LINE
  5
6F9
100
AcDbEntity
  8
RACCORDO
100
AcDbLine
 62
253
  6
CONTINUOUS
 10
10.3607665184
 20
23.0987667014
 11
10.938178284
 21
23.1057308049
  0
LINE
  5
6FA
100
AcDbEntity
  8
RACCORDO
100
AcDbLine
 62
253
  6
CONTINUOUS
 10
5.3607665184
 20
23.0987667014
 11
5.938178284
 21
23.1057308049
  0
LINE
  5
6FB
100
AcDbEntity
  8
RACCORDO
100
AcDbLine
 62
253
  6
CONTINUOUS
 10
0.3607665184
 20
23.0987667014
 11
0.938178284
 21
23.1057308049
  0
LINE
  5
6FC
100
AcDbEntity
  8
RACCORDO
100
AcDbLine
 62
253
  6
CONTINUOUS
 10
-4.6392334816
 20
23.0987667014
 11
-4.061821716
 21
23.1057308049
  0
LINE
  5
6FD
100
AcDbEntity
  8
RACCORDO
100
AcDbLine
 62
253
  6
CONTINUOUS
 10
-9.6450511436
 20
23.0987052269
 11
-9.061821716
 21
23.1057308049
  0
LINE
  5
6FE
100
AcDbEntity
  8
RACCORDO
100
AcDbLine
 62
253
  6
CONTINUOUS
 10
19.9608817923
 20
23.2959400354
 11
20.5322428583
 21
23.3019580369
  0
LINE
  5
6FF
100
AcDbEntity
  8
RACCORDO
100
AcDbLine
 62
253
  6
CONTINUOUS
 10
9.7821162756
 20
23.2946135194
 11
10.3426704042
 21
23.2996209146
  0
LINE
  5
700
100
AcDbEntity
  8
RACCORDO
100
AcDbLine
 62
253
  6
CONTINUOUS
 10
4.7821162756
 20
23.2946135194
 11
5.3426704042
 21
23.2996209146
  0
LINE
  5
701
100
AcDbEntity
  8
RACCORDO
100
AcDbLine
 62
253
  6
CONTINUOUS
 10
-0.2178837244
 20
23.2946135194
 11
0.3426704042
 21
23.2996209146
  0
LINE
  5
702
100
AcDbEntity
  8
RACCORDO
100
AcDbLine
 62
253
  6
CONTINUOUS
 10
-5.2178837244
 20
23.2946135194
 11
-4.6573295958
 21
23.2996209146
  0
LINE
  5
703
100
AcDbEntity
  8
RACCORDO
100
AcDbLine
 62
253
  6
CONTINUOUS
 10
19.7357280723
 20
23.0939453068
 11
20.4997903346
 21
23.100233936
  0
LINE
  5
704
100
AcDbEntity
  8
RACCORDO
100
AcDbLine
 62
253
  6
CONTINUOUS
 10
9.7340559136
 20
23.0939541645
 11
10.3607665184
 21
23.0987667014
  0
LINE
  5
705
100
AcDbEntity
  8
RACCORDO
100
AcDbLine
 62
253
  6
CONTINUOUS
 10
4.7340559136
 20
23.0939541645
 11
5.3607665184
 21
23.0987667014
  0
LINE
  5
706
100
AcDbEntity
  8
RACCORDO
100
AcDbLine
 62
253
  6
CONTINUOUS
 10
-0.2659440864
 20
23.0939541645
 11
0.3607665184
 21
23.0987667014
  0
LINE
  5
707
100
AcDbEntity
  8
RACCORDO
100
AcDbLine
 62
253
  6
CONTINUOUS
 10
-5.2659440864
 20
23.0939541645
 11
-4.6392334816
 21
23.0987667014
  0
LINE
  5
708
100
AcDbEntity
  8
RACCORDO
100
AcDbLine
 62
253
  6
CONTINUOUS
 10
10.7120270445
 20
23.304538926
 11
10.9230832503
 21
23.3061962593
  0
LINE
  5
709
100
AcDbEntity
  8
RACCORDO
100
AcDbLine
 62
253
  6
CONTINUOUS
 10
5.7120270445
 20
23.304538926
 11
5.9230832503
 21
23.3061962593
  0
LINE
  5
70A
100
AcDbEntity
  8
RACCORDO
100
AcDbLine
 62
253
  6
CONTINUOUS
 10
0.7120270445
 20
23.304538926
 11
0.9230832503
 21
23.3061962593
  0
LINE
  5
70B
100
AcDbEntity
  8
RACCORDO
100
AcDbLine
 62
253
  6
CONTINUOUS
 10
-4.2879729555
 20
23.304538926
 11
-4.0769167497
 21
23.3061962593
  0
LINE
  5
70C
100
AcDbEntity
  8
RACCORDO
100
AcDbLine
 62
253
  6
CONTINUOUS
 10
-10.4146280906
 20
23.2934235494
 11
-9.7447834735
 21
23.2986640704
  0
LINE
  5
70D
100
AcDbEntity
  8
RACCORDO
100
AcDbLine
 62
253
  6
CONTINUOUS
 10
-9.2879729555
 20
23.304538926
 11
-9.0769167497
 21
23.3061962593
  0
LINE
  5
70E
100
AcDbEntity
  8
RACCORDO
100
AcDbLine
 62
253
  6
CONTINUOUS
 10
-10.3579133547
 20
23.093458362
 11
-9.6450511436
 21
23.0987052269
  0
LINE
  5
70F
100
AcDbEntity
  8
RACCORDO
100
AcDbLine
 62
253
  6
CONTINUOUS
 10
10.938178284
 20
23.1057308049
 11
11.0863207905
 21
23.1067176862
  0
LINE
  5
710
100
AcDbEntity
  8
RACCORDO
100
AcDbLine
 62
253
  6
CONTINUOUS
 10
5.938178284
 20
23.1057308049
 11
6.0863207905
 21
23.1067176862
  0
LINE
  5
711
100
AcDbEntity
  8
RACCORDO
100
AcDbLine
 62
253
  6
CONTINUOUS
 10
0.938178284
 20
23.1057308049
 11
1.0863207905
 21
23.1067176862
  0
LINE
  5
712
100
AcDbEntity
  8
RACCORDO
100
AcDbLine
 62
253
  6
CONTINUOUS
 10
-4.061821716
 20
23.1057308049
 11
-3.9136792095
 21
23.1067176862
  0
LINE
  5
713
100
AcDbEntity
  8
RACCORDO
100
AcDbLine
 62
253
  6
CONTINUOUS
 10
-9.061821716
 20
23.1057308049
 11
-8.9136792095
 21
23.1067176862
  0
LINE
  5
714
100
AcDbEntity
  8
RACCORDO
100
AcDbLine
 62
253
  6
CONTINUOUS
 10
19.3930147388
 20
23.2925153281
 11
19.9608817923
 21
23.2959400354
  0
LINE
  5
715
100
AcDbEntity
  8
RACCORDO
100
AcDbLine
 62
253
  6
CONTINUOUS
 10
19.4361031834
 20
23.092545789
 11
19.7357280723
 21
23.0939453068
  0
LWPOLYLINE
  5
716
100
AcDbEntity
  8
RACCORDO
100
AcDbPolyline
 62
253
  6
CONTINUOUS
 90
6
 70
0
 10
21.3586788145
 20
23.3183377485
 10
21.4274453149
 20
23.3186001745
 10
21.4918199724
 20
23.3178431664
 10
21.5514970622
 20
23.3160667241
 10
21.6063584939
 20
23.3128360122
 10
21.6558695992
 20
23.3085858661
  0
LINE
  5
717
100
AcDbEntity
  8
RACCORDO
100
AcDbLine
 62
253
  6
CONTINUOUS
 10
9.0802724286
 20
23.2915416113
 11
9.7821162756
 21
23.2946135194
  0
LINE
  5
718
100
AcDbEntity
  8
RACCORDO
100
AcDbLine
 62
253
  6
CONTINUOUS
 10
4.0802724286
 20
23.2915416113
 11
4.7821162756
 21
23.2946135194
  0
LINE
  5
719
100
AcDbEntity
  8
RACCORDO
100
AcDbLine
 62
253
  6
CONTINUOUS
 10
-0.9197275714
 20
23.2915416113
 11
-0.2178837244
 21
23.2946135194
  0
LINE
  5
71A
100
AcDbEntity
  8
RACCORDO
100
AcDbLine
 62
253
  6
CONTINUOUS
 10
-5.9197275714
 20
23.2915416113
 11
-5.2178837244
 21
23.2946135194
  0
LINE
  5
71B
100
AcDbEntity
  8
RACCORDO
100
AcDbLine
 62
253
  6
CONTINUOUS
 10
8.8365125437
 20
23.0912263776
 11
9.7340559136
 21
23.0939541645
  0
LINE
  5
71C
100
AcDbEntity
  8
RACCORDO
100
AcDbLine
 62
253
  6
CONTINUOUS
 10
3.8365125437
 20
23.0912263776
 11
4.7340559136
 21
23.0939541645
  0
LINE
  5
71D
100
AcDbEntity
  8
RACCORDO
100
AcDbLine
 62
253
  6
CONTINUOUS
 10
-1.1634874563
 20
23.0912263776
 11
-0.2659440864
 21
23.0939541645
  0
LINE
  5
71E
100
AcDbEntity
  8
RACCORDO
100
AcDbLine
 62
253
  6
CONTINUOUS
 10
-6.1634874563
 20
23.0912263776
 11
-5.2659440864
 21
23.0939541645
  0
LINE
  5
71F
100
AcDbEntity
  8
RACCORDO
100
AcDbLine
 62
253
  6
CONTINUOUS
 10
-11.1957935724
 20
23.2911802747
 11
-10.4146280906
 21
23.2934235494
  0
LINE
  5
720
100
AcDbEntity
  8
RACCORDO
100
AcDbLine
 62
253
  6
CONTINUOUS
 10
10.9230832503
 20
23.3061962593
 11
11.2243846227
 21
23.3069685486
  0
LINE
  5
721
100
AcDbEntity
  8
RACCORDO
100
AcDbLine
 62
253
  6
CONTINUOUS
 10
5.9230832503
 20
23.3061962593
 11
6.2243846227
 21
23.3069685486
  0
LINE
  5
722
100
AcDbEntity
  8
RACCORDO
100
AcDbLine
 62
253
  6
CONTINUOUS
 10
0.9230832503
 20
23.3061962593
 11
1.2243846227
 21
23.3069685486
  0
LINE
  5
723
100
AcDbEntity
  8
RACCORDO
100
AcDbLine
 62
253
  6
CONTINUOUS
 10
-4.0769167497
 20
23.3061962593
 11
-3.7756153773
 21
23.3069685486
  0
LINE
  5
724
100
AcDbEntity
  8
RACCORDO
100
AcDbLine
 62
253
  6
CONTINUOUS
 10
-9.0769167497
 20
23.3061962593
 11
-8.7756153773
 21
23.3069685486
  0
LINE
  5
725
100
AcDbEntity
  8
RACCORDO
100
AcDbLine
 62
253
  6
CONTINUOUS
 10
21.4449511667
 20
23.0348790944
 11
19.3362215384
 21
23.0348790944
  0
LINE
  5
726
100
AcDbEntity
  8
RACCORDO
100
AcDbLine
 62
253
  6
CONTINUOUS
 10
17.1125447293
 20
23.0348807241
 11
-13.9960530618
 21
23.0348790944
  0
LINE
  5
727
100
AcDbEntity
  8
RACCORDO
100
AcDbLine
 62
253
  6
CONTINUOUS
 10
-11.3385930068
 20
23.0911951556
 11
-10.3579133547
 21
23.093458362
  0
LINE
  5
728
100
AcDbEntity
  8
RACCORDO
100
AcDbLine
 62
253
  6
CONTINUOUS
 10
-8.9136792095
 20
23.1067176862
 11
-8.7556153208
 21
23.106992951
  0
LINE
  5
729
100
AcDbEntity
  8
RACCORDO
100
AcDbLine
 62
253
  6
CONTINUOUS
 10
-3.9136792095
 20
23.1067176862
 11
-3.7556153208
 21
23.106992951
  0
LINE
  5
72A
100
AcDbEntity
  8
RACCORDO
100
AcDbLine
 62
253
  6
CONTINUOUS
 10
1.0863207905
 20
23.1067176862
 11
1.2443846792
 21
23.106992951
  0
LINE
  5
72B
100
AcDbEntity
  8
RACCORDO
100
AcDbLine
 62
253
  6
CONTINUOUS
 10
6.0863207905
 20
23.1067176862
 11
6.2443846792
 21
23.106992951
  0
LINE
  5
72C
100
AcDbEntity
  8
RACCORDO
100
AcDbLine
 62
253
  6
CONTINUOUS
 10
11.0863207905
 20
23.1067176862
 11
11.2443846792
 21
23.106992951
  0
LINE
  5
72D
100
AcDbEntity
  8
RACCORDO
100
AcDbLine
 62
253
  6
CONTINUOUS
 10
19.3265769831
 20
24.0626139937
 11
17.1221915113
 21
24.0626139937
  0
LINE
  5
72E
100
AcDbEntity
  8
RACCORDO
100
AcDbLine
 62
253
  6
CONTINUOUS
 10
19.3265775262
 20
24.2625835328
 11
17.1221915642
 21
24.2625835328
  0
LINE
  5
72F
100
AcDbEntity
  8
RACCORDO
100
AcDbLine
 62
253
  6
CONTINUOUS
 10
16.9860382945
 20
24.3411916596
 11
19.4652749863
 21
24.3426605487
  0
LINE
  5
730
100
AcDbEntity
  8
RACCORDO
100
AcDbLine
 62
253
  6
CONTINUOUS
 10
-6.6712135902
 20
23.2916316041
 11
-5.9197275714
 21
23.2915416113
  0
LINE
  5
731
100
AcDbEntity
  8
RACCORDO
100
AcDbLine
 62
253
  6
CONTINUOUS
 10
-1.6712135902
 20
23.2916316041
 11
-0.9197275714
 21
23.2915416113
  0
LINE
  5
732
100
AcDbEntity
  8
RACCORDO
100
AcDbLine
 62
253
  6
CONTINUOUS
 10
3.3287864098
 20
23.2916316041
 11
4.0802724286
 21
23.2915416113
  0
LINE
  5
733
100
AcDbEntity
  8
RACCORDO
100
AcDbLine
 62
253
  6
CONTINUOUS
 10
8.3287864098
 20
23.2916316041
 11
9.0802724286
 21
23.2915416113
  0
LINE
  5
734
100
AcDbEntity
  8
RACCORDO
100
AcDbLine
 62
253
  6
CONTINUOUS
 10
12.9878939875
 20
23.0926470494
 11
17.0150113279
 21
23.0911916596
  0
LINE
  5
735
100
AcDbEntity
  8
RACCORDO
100
AcDbLine
 62
253
  6
CONTINUOUS
 10
-11.9425877723
 20
23.2925085463
 11
-11.1957935724
 21
23.2911802747
  0
LINE
  5
736
100
AcDbEntity
  8
RACCORDO
100
AcDbLine
 62
253
  6
CONTINUOUS
 10
13.0321510014
 20
23.2926184541
 11
17.0150113279
 21
23.2911611987
  0
LINE
  5
737
100
AcDbEntity
  8
RACCORDO
100
AcDbLine
 62
253
  6
CONTINUOUS
 10
-7.0803709813
 20
23.0929288235
 11
-6.1634874563
 21
23.0912263776
  0
LINE
  5
738
100
AcDbEntity
  8
RACCORDO
100
AcDbLine
 62
253
  6
CONTINUOUS
 10
-2.0803709813
 20
23.0929288235
 11
-1.1634874563
 21
23.0912263776
  0
LINE
  5
739
100
AcDbEntity
  8
RACCORDO
100
AcDbLine
 62
253
  6
CONTINUOUS
 10
2.9196290187
 20
23.0929288235
 11
3.8365125437
 21
23.0912263776
  0
LINE
  5
73A
100
AcDbEntity
  8
RACCORDO
100
AcDbLine
 62
253
  6
CONTINUOUS
 10
7.9196290187
 20
23.0929288235
 11
8.8365125437
 21
23.0912263776
  0
LINE
  5
73B
100
AcDbEntity
  8
RACCORDO
100
AcDbLine
 62
253
  6
CONTINUOUS
 10
-8.7556153208
 20
23.106992951
 11
-8.5992549695
 21
23.1065363789
  0
LINE
  5
73C
100
AcDbEntity
  8
RACCORDO
100
AcDbLine
 62
253
  6
CONTINUOUS
 10
-3.7556153208
 20
23.106992951
 11
-3.5992549695
 21
23.1065363789
  0
LINE
  5
73D
100
AcDbEntity
  8
RACCORDO
100
AcDbLine
 62
253
  6
CONTINUOUS
 10
1.2443846792
 20
23.106992951
 11
1.4007450305
 21
23.1065363789
  0
LINE
  5
73E
100
AcDbEntity
  8
RACCORDO
100
AcDbLine
 62
253
  6
CONTINUOUS
 10
6.2443846792
 20
23.106992951
 11
6.4007450305
 21
23.1065363789
  0
LINE
  5
73F
100
AcDbEntity
  8
RACCORDO
100
AcDbLine
 62
253
  6
CONTINUOUS
 10
11.2443846792
 20
23.106992951
 11
11.4007450305
 21
23.1065363789
  0
LINE
  5
740
100
AcDbEntity
  8
RACCORDO
100
AcDbLine
 62
253
  6
CONTINUOUS
 10
-12.2076156089
 20
23.0935326976
 11
-11.3385930068
 21
23.0911951556
  0
LINE
  5
741
100
AcDbEntity
  8
RACCORDO
100
AcDbLine
 62
253
  6
CONTINUOUS
 10
-8.7756153773
 20
23.3069685486
 11
-8.4743141286
 21
23.3061962758
  0
LINE
  5
742
100
AcDbEntity
  8
RACCORDO
100
AcDbLine
 62
253
  6
CONTINUOUS
 10
-3.7756153773
 20
23.3069685486
 11
-3.4743141286
 21
23.3061962758
  0
LINE
  5
743
100
AcDbEntity
  8
RACCORDO
100
AcDbLine
 62
253
  6
CONTINUOUS
 10
1.2243846227
 20
23.3069685486
 11
1.5256858714
 21
23.3061962758
  0
LINE
  5
744
100
AcDbEntity
  8
RACCORDO
100
AcDbLine
 62
253
  6
CONTINUOUS
 10
6.2243846227
 20
23.3069685486
 11
6.5256858714
 21
23.3061962758
  0
LINE
  5
745
100
AcDbEntity
  8
RACCORDO
100
AcDbLine
 62
253
  6
CONTINUOUS
 10
11.2243846227
 20
23.3069685486
 11
11.5256858714
 21
23.3061962758
  0
LINE
  5
746
100
AcDbEntity
  8
RACCORDO
100
AcDbLine
 62
253
  6
CONTINUOUS
 10
-7.3646593407
 20
23.2948279754
 11
-6.6712135902
 21
23.2916316041
  0
LINE
  5
747
100
AcDbEntity
  8
RACCORDO
100
AcDbLine
 62
253
  6
CONTINUOUS
 10
-2.3646593407
 20
23.2948279754
 11
-1.6712135902
 21
23.2916316041
  0
LINE
  5
748
100
AcDbEntity
  8
RACCORDO
100
AcDbLine
 62
253
  6
CONTINUOUS
 10
2.6353406593
 20
23.2948279754
 11
3.3287864098
 21
23.2916316041
  0
LINE
  5
749
100
AcDbEntity
  8
RACCORDO
100
AcDbLine
 62
253
  6
CONTINUOUS
 10
7.6353406593
 20
23.2948279754
 11
8.3287864098
 21
23.2916316041
  0
LINE
  5
74A
100
AcDbEntity
  8
RACCORDO
100
AcDbLine
 62
253
  6
CONTINUOUS
 10
12.2242783459
 20
23.0974838674
 11
12.9878939875
 21
23.0926470494
  0
LINE
  5
74B
100
AcDbEntity
  8
RACCORDO
100
AcDbLine
 62
253
  6
CONTINUOUS
 10
-12.6304143478
 20
23.2969453543
 11
-11.9425877723
 21
23.2925085463
  0
LINE
  5
74C
100
AcDbEntity
  8
RACCORDO
100
AcDbLine
 62
253
  6
CONTINUOUS
 10
12.3150606275
 20
23.2974512436
 11
13.0321510014
 21
23.2926184541
  0
LINE
  5
74D
100
AcDbEntity
  8
RACCORDO
100
AcDbLine
 62
253
  6
CONTINUOUS
 10
-7.843881752
 20
23.0981014868
 11
-7.0803709813
 21
23.0929288235
  0
LINE
  5
74E
100
AcDbEntity
  8
RACCORDO
100
AcDbLine
 62
253
  6
CONTINUOUS
 10
-2.843881752
 20
23.0981014868
 11
-2.0803709813
 21
23.0929288235
  0
LINE
  5
74F
100
AcDbEntity
  8
RACCORDO
100
AcDbLine
 62
253
  6
CONTINUOUS
 10
2.156118248
 20
23.0981014868
 11
2.9196290187
 21
23.0929288235
  0
LINE
  5
750
100
AcDbEntity
  8
RACCORDO
100
AcDbLine
 62
253
  6
CONTINUOUS
 10
7.156118248
 20
23.0981014868
 11
7.9196290187
 21
23.0929288235
  0
LINE
  5
751
100
AcDbEntity
  8
RACCORDO
100
AcDbLine
 62
253
  6
CONTINUOUS
 10
-12.911454444
 20
23.09875764
 11
-12.2076156089
 21
23.0935326976
  0
LINE
  5
752
100
AcDbEntity
  8
RACCORDO
100
AcDbLine
 62
253
  6
CONTINUOUS
 10
-8.4743141286
 20
23.3061962758
 11
-8.2632579541
 21
23.304538926
  0
LINE
  5
753
100
AcDbEntity
  8
RACCORDO
100
AcDbLine
 62
253
  6
CONTINUOUS
 10
-3.4743141286
 20
23.3061962758
 11
-3.2632579541
 21
23.304538926
  0
LINE
  5
754
100
AcDbEntity
  8
RACCORDO
100
AcDbLine
 62
253
  6
CONTINUOUS
 10
1.5256858714
 20
23.3061962758
 11
1.7367420459
 21
23.304538926
  0
LINE
  5
755
100
AcDbEntity
  8
RACCORDO
100
AcDbLine
 62
253
  6
CONTINUOUS
 10
6.5256858714
 20
23.3061962758
 11
6.7367420459
 21
23.304538926
  0
LINE
  5
756
100
AcDbEntity
  8
RACCORDO
100
AcDbLine
 62
253
  6
CONTINUOUS
 10
11.5256858714
 20
23.3061962758
 11
11.7367420459
 21
23.304538926
  0
LINE
  5
757
100
AcDbEntity
  8
RACCORDO
100
AcDbLine
 62
253
  6
CONTINUOUS
 10
-8.5992549695
 20
23.1065363789
 11
-8.4555135778
 21
23.1053841417
  0
LINE
  5
758
100
AcDbEntity
  8
RACCORDO
100
AcDbLine
 62
253
  6
CONTINUOUS
 10
-3.5992549695
 20
23.1065363789
 11
-3.4555135778
 21
23.1053841417
  0
LINE
  5
759
100
AcDbEntity
  8
RACCORDO
100
AcDbLine
 62
253
  6
CONTINUOUS
 10
1.4007450305
 20
23.1065363789
 11
1.5444864222
 21
23.1053841417
  0
LINE
  5
75A
100
AcDbEntity
  8
RACCORDO
100
AcDbLine
 62
253
  6
CONTINUOUS
 10
6.4007450305
 20
23.1065363789
 11
6.5444864222
 21
23.1053841417
  0
LINE
  5
75B
100
AcDbEntity
  8
RACCORDO
100
AcDbLine
 62
253
  6
CONTINUOUS
 10
11.4007450305
 20
23.1065363789
 11
11.5444864222
 21
23.1053841417
  0
LINE
  5
75C
100
AcDbEntity
  8
RACCORDO
100
AcDbLine
 62
253
  6
CONTINUOUS
 10
-7.9109959999
 20
23.2998164228
 11
-7.3646593407
 21
23.2948279754
  0
LINE
  5
75D
100
AcDbEntity
  8
RACCORDO
100
AcDbLine
 62
253
  6
CONTINUOUS
 10
-2.9109959999
 20
23.2998164228
 11
-2.3646593407
 21
23.2948279754
  0
LINE
  5
75E
100
AcDbEntity
  8
RACCORDO
100
AcDbLine
 62
253
  6
CONTINUOUS
 10
2.0890040001
 20
23.2998164228
 11
2.6353406593
 21
23.2948279754
  0
LINE
  5
75F
100
AcDbEntity
  8
RACCORDO
100
AcDbLine
 62
253
  6
CONTINUOUS
 10
7.0890040001
 20
23.2998164228
 11
7.6353406593
 21
23.2948279754
  0
LINE
  5
760
100
AcDbEntity
  8
RACCORDO
100
AcDbLine
 62
253
  6
CONTINUOUS
 10
-13.3653712921
 20
23.1041957039
 11
-12.911454444
 21
23.09875764
  0
LINE
  5
761
100
AcDbEntity
  8
RACCORDO
100
AcDbLine
 62
253
  6
CONTINUOUS
 10
-13.1575253294
 20
23.3029717673
 11
-12.6304143478
 21
23.2969453543
  0
LWPOLYLINE
  5
762
100
AcDbEntity
  8
RACCORDO
100
AcDbPolyline
 62
253
  6
CONTINUOUS
 90
3
 70
0
 10
11.5444864222
 20
23.1053841417
 10
11.7146635587
 20
23.1030631897
 10
12.2242783459
 20
23.0974838674
  0
LINE
  5
763
100
AcDbEntity
  8
RACCORDO
100
AcDbLine
 62
253
  6
CONTINUOUS
 10
-8.4555135778
 20
23.1053841417
 11
-7.843881752
 21
23.0981014868
  0
LINE
  5
764
100
AcDbEntity
  8
RACCORDO
100
AcDbLine
 62
253
  6
CONTINUOUS
 10
-3.4555135778
 20
23.1053841417
 11
-2.843881752
 21
23.0981014868
  0
LINE
  5
765
100
AcDbEntity
  8
RACCORDO
100
AcDbLine
 62
253
  6
CONTINUOUS
 10
1.5444864222
 20
23.1053841417
 11
2.156118248
 21
23.0981014868
  0
LINE
  5
766
100
AcDbEntity
  8
RACCORDO
100
AcDbLine
 62
253
  6
CONTINUOUS
 10
6.5444864222
 20
23.1053841417
 11
7.156118248
 21
23.0981014868
  0
LWPOLYLINE
  5
767
100
AcDbEntity
  8
RACCORDO
100
AcDbPolyline
 62
253
  6
CONTINUOUS
 90
3
 70
0
 10
11.7367420459
 20
23.304538926
 10
11.8367868243
 20
23.3030303152
 10
12.3150606275
 20
23.2974512436
  0
LINE
  5
768
100
AcDbEntity
  8
RACCORDO
100
AcDbLine
 62
253
  6
CONTINUOUS
 10
-8.2632579541
 20
23.304538926
 11
-7.9109959999
 21
23.2998164228
  0
LINE
  5
769
100
AcDbEntity
  8
RACCORDO
100
AcDbLine
 62
253
  6
CONTINUOUS
 10
-3.2632579541
 20
23.304538926
 11
-2.9109959999
 21
23.2998164228
  0
LINE
  5
76A
100
AcDbEntity
  8
RACCORDO
100
AcDbLine
 62
253
  6
CONTINUOUS
 10
1.7367420459
 20
23.304538926
 11
2.0890040001
 21
23.2998164228
  0
LINE
  5
76B
100
AcDbEntity
  8
RACCORDO
100
AcDbLine
 62
253
  6
CONTINUOUS
 10
6.7367420459
 20
23.304538926
 11
7.0890040001
 21
23.2998164228
  0
LINE
  5
76C
100
AcDbEntity
  8
RACCORDO
100
AcDbLine
 62
253
  6
CONTINUOUS
 10
-13.6856650696
 20
23.1094167752
 11
-13.3653712921
 21
23.1041957039
  0
LINE
  5
76D
100
AcDbEntity
  8
RACCORDO
100
AcDbLine
 62
253
  6
CONTINUOUS
 10
-13.4682453894
 20
23.3080159705
 11
-13.1575253294
 21
23.3029717673
  0
LINE
  5
76E
100
AcDbEntity
  8
RACCORDO
100
AcDbLine
 62
253
  6
CONTINUOUS
 10
-13.7376749395
 20
23.3137180868
 11
-13.4682453894
 21
23.3080159705
  0
LINE
  5
76F
100
AcDbEntity
  8
RACCORDO
100
AcDbLine
 62
253
  6
CONTINUOUS
 10
-13.9605799737
 20
23.115258587
 11
-13.6856650696
 21
23.1094167752
  0
LINE
  5
770
100
AcDbEntity
  8
RACCORDO
100
AcDbLine
 62
253
  6
CONTINUOUS
 10
-14.0796711912
 20
23.1183682095
 11
-13.9605799737
 21
23.115258587
  0
LINE
  5
771
100
AcDbEntity
  8
RACCORDO
100
AcDbLine
 62
253
  6
CONTINUOUS
 10
-13.9099097241
 20
23.3183377485
 11
-13.7376749395
 21
23.3137180868
  0
LWPOLYLINE
  5
772
100
AcDbEntity
  8
RACCORDO
100
AcDbPolyline
 62
253
  6
CONTINUOUS
 90
16
 70
0
 10
19.3362215384
 20
23.0348790944
 10
19.3084065882
 20
23.0368388798
 10
19.281132752
 20
23.0426507618
 10
19.2549306171
 20
23.0522016759
 10
19.2303099218
 20
23.0653058177
 10
19.207749639
 20
23.0817082585
 10
19.1876886584
 20
23.1010899036
 10
19.1705172479
 20
23.1230737012
 10
19.1565694612
 20
23.1472319766
 10
19.1461166397
 20
23.173094753
 10
19.1393621332
 20
23.2001588939
 10
19.1364373444
 20
23.2278978916
 10
19.1373991724
 20
23.2557721096
 10
19.1422289057
 20
23.2832392807
 10
19.1508325862
 20
23.3097650565
 10
19.1630428375
 20
23.3348334026
  0
LWPOLYLINE
  5
773
100
AcDbEntity
  8
RACCORDO
100
AcDbPolyline
 62
253
  6
CONTINUOUS
 90
13
 70
0
 10
-4.1598835803
 20
23.1045693873
 10
-4.1764614591
 20
23.1065991874
 10
-4.1927604105
 20
23.1119581095
 10
-4.2085063045
 20
23.1205560224
 10
-4.2234343128
 20
23.132248319
 10
-4.2372933632
 20
23.1468383478
 10
-4.2498503618
 20
23.164080721
 10
-4.2608941143
 20
23.1836854414
 10
-4.2702388769
 20
23.2053227794
 10
-4.2777274811
 20
23.2286288194
 10
-4.2832339771
 20
23.25321158
 10
-4.2866657517
 20
23.2786576068
 10
-4.2879650863
 20
23.304538926
  0
LWPOLYLINE
  5
774
100
AcDbEntity
  8
RACCORDO
100
AcDbPolyline
 62
253
  6
CONTINUOUS
 90
13
 70
0
 10
0.8401164197
 20
23.1045693873
 10
0.8235385409
 20
23.1065991874
 10
0.8072395895
 20
23.1119581095
 10
0.7914936955
 20
23.1205560224
 10
0.7765656872
 20
23.132248319
 10
0.7627066368
 20
23.1468383478
 10
0.7501496382
 20
23.164080721
 10
0.7391058857
 20
23.1836854414
 10
0.7297611231
 20
23.2053227794
 10
0.7222725189
 20
23.2286288194
 10
0.7167660229
 20
23.25321158
 10
0.7133342483
 20
23.2786576068
 10
0.7120349137
 20
23.304538926
  0
LWPOLYLINE
  5
775
100
AcDbEntity
  8
RACCORDO
100
AcDbPolyline
 62
253
  6
CONTINUOUS
 90
13
 70
0
 10
5.8401164197
 20
23.1045693873
 10
5.8235385409
 20
23.1065991874
 10
5.8072395895
 20
23.1119581095
 10
5.7914936955
 20
23.1205560224
 10
5.7765656872
 20
23.132248319
 10
5.7627066368
 20
23.1468383478
 10
5.7501496382
 20
23.164080721
 10
5.7391058857
 20
23.1836854414
 10
5.7297611231
 20
23.2053227794
 10
5.7222725189
 20
23.2286288194
 10
5.7167660229
 20
23.25321158
 10
5.7133342483
 20
23.2786576068
 10
5.7120349137
 20
23.304538926
  0
LWPOLYLINE
  5
776
100
AcDbEntity
  8
RACCORDO
100
AcDbPolyline
 62
253
  6
CONTINUOUS
 90
13
 70
0
 10
10.8401164197
 20
23.1045693873
 10
10.8235385409
 20
23.1065991874
 10
10.8072395895
 20
23.1119581095
 10
10.7914936955
 20
23.1205560224
 10
10.7765656872
 20
23.132248319
 10
10.7627066368
 20
23.1468383478
 10
10.7501496382
 20
23.164080721
 10
10.7391058857
 20
23.1836854414
 10
10.7297611231
 20
23.2053227794
 10
10.7222725189
 20
23.2286288194
 10
10.7167660229
 20
23.25321158
 10
10.7133342483
 20
23.2786576068
 10
10.7120349137
 20
23.304538926
  0
LWPOLYLINE
  5
777
100
AcDbEntity
  8
SMUSSO
100
AcDbPolyline
 62
7
  6
CONTINUOUS
 90
11
 70
0
 10
-3.4288194936
 20
25.6479551772
 10
-3.4225224281
 20
25.6456017613
 10
-3.407443392
 20
25.6432579978
 10
-3.3835823854
 20
25.6409238868
 10
-3.3508764878
 20
25.6385851745
 10
-3.3093886196
 20
25.6362561148
 10
-3.2593075422
 20
25.6339794684
 10
-3.2003625644
 20
25.6317568759
 10
-3.1328243774
 20
25.6295866968
 10
-3.0576938164
 20
25.6275067705
 10
-2.8843497604
 20
25.6236244944
  0
LINE
  5
778
100
AcDbEntity
  8
RACCORDO
100
AcDbLine
 62
7
  6
CONTINUOUS
 10
23.8118121863
 20
8.2271894415
 11
23.7243845452
 21
8.3146170826
  0
LINE
  5
779
100
AcDbEntity
  8
SMUSSO
100
AcDbLine
 62
7
  6
CONTINUOUS
 10
6.4743388607
 20
25.7447968229
 11
6.5711805064
 21
25.6479551772
  0
LWPOLYLINE
  5
77A
100
AcDbEntity
  8
RACCORDO
100
AcDbPolyline
 62
253
  6
CONTINUOUS
 90
15
 70
0
 10
18.0128339329
 20
21.8795763011
 10
17.9858754235
 20
21.9580245452
 10
17.9594886493
 20
22.0335654952
 10
17.9336050332
 20
22.1061852053
 10
17.9081482214
 20
22.1758623994
 10
17.8830645977
 20
22.2427584278
 10
17.8582924838
 20
22.3068731029
 10
17.8337790853
 20
22.36818472
 10
17.809458219
 20
22.4268191641
 10
17.7852809494
 20
22.4827673703
 10
17.7612139288
 20
22.5359925287
 10
17.7371956499
 20
22.5865691269
 10
17.7131849313
 20
22.6345003816
 10
17.689178866
 20
22.6797211781
 10
17.6651765831
 20
22.7221970834
  0
LINE
  5
77B
100
AcDbEntity
  8
RACCORDO
100
AcDbLine
 62
253
  6
CONTINUOUS
 10
18.0685929498
 20
21.7134148628
 11
18.0128339329
 21
21.8795763011
  0
LINE
  5
77C
100
AcDbEntity
  8
0
100
AcDbLine
 62
7
  6
CONTINUOUS
 10
23.7243845452
 20
-1.5736257035
 11
23.6820274669
 21
-1.4464511316
  0
LINE
  5
77D
100
AcDbEntity
  8
RACCORDO
100
AcDbLine
 62
7
  6
CONTINUOUS
 10
23.6820274669
 20
-1.4464511316
 11
23.6333441493
 21
-1.3002824078
  0
LINE
  5
77E
100
AcDbEntity
  8
RACCORDO
100
AcDbLine
 62
253
  6
CONTINUOUS
 10
18.1275664559
 20
21.5350958002
 11
18.0685929498
 21
21.7134148628
  0
LWPOLYLINE
  5
77F
100
AcDbEntity
  8
RACCORDO
100
AcDbPolyline
 62
253
  6
CONTINUOUS
 90
13
 70
0
 10
25.1274677894
 20
11.0177307878
 10
25.1257497494
 20
11.0438269191
 10
25.1206409055
 20
11.069476735
 10
25.1122286289
 20
11.094241531
 10
25.1006567913
 20
11.1176977392
 10
25.0861233059
 20
11.1394441689
 10
25.0688767438
 20
11.1591088699
 10
25.0492120786
 20
11.1763555001
 10
25.0274656446
 20
11.190889073
 10
25.0040093895
 20
11.2024610023
 10
24.979244503
 20
11.2108733609
 10
24.9535945536
 20
11.2159822641
 10
24.9274982504
 20
11.2177003268
  0
LWPOLYLINE
  5
780
100
AcDbEntity
  8
RACCORDO
100
AcDbPolyline
 62
7
  6
CONTINUOUS
 90
13
 70
0
 10
25.2243845452
 20
11.1146475436
 10
25.222674281
 20
11.1407496704
 10
25.2175721046
 20
11.1664048487
 10
25.2091651234
 20
11.1911743701
 10
25.1975968823
 20
11.214634827
 10
25.1830650952
 20
11.2363846328
 10
25.1658185174
 20
11.2560510548
 10
25.1461520954
 20
11.2732976326
 10
25.1244022896
 20
11.2878294197
 10
25.1009418327
 20
11.2993976608
 10
25.0761723113
 20
11.307804642
 10
25.050517133
 20
11.3129068184
 10
25.0244150062
 20
11.3146170826
  0
LWPOLYLINE
  5
781
100
AcDbEntity
  8
RACCORDO
100
AcDbPolyline
 62
253
  6
CONTINUOUS
 90
11
 70
0
 10
24.9095810422
 20
-4.3588256602
 10
24.9115919243
 20
-4.4070308511
 10
24.913563565
 20
-4.4483721008
 10
24.9154989238
 20
-4.4833264888
 10
24.9173828146
 20
-4.5123995733
 10
24.9192130169
 20
-4.5360442872
 10
24.9209917512
 20
-4.5547142656
 10
24.9227104941
 20
-4.5688757479
 10
24.9243664043
 20
-4.5789536569
 10
24.9259623231
 20
-4.5853504468
 10
24.9274982504
 20
-4.5884661616
  0
LWPOLYLINE
  5
782
100
AcDbEntity
  8
RACCORDO
100
AcDbPolyline
 62
253
  6
CONTINUOUS
 90
12
 70
0
 10
25.1075072812
 20
-4.1225680511
 10
25.1095544764
 20
-4.1741004804
 10
25.1115653734
 20
-4.2192376132
 10
25.1135370192
 20
-4.2579621817
 10
25.1154723669
 20
-4.2902914537
 10
25.1173562421
 20
-4.3175510421
 10
25.1191865658
 20
-4.3397679966
 10
25.1209654169
 20
-4.3569152676
 10
25.1226838586
 20
-4.3702373192
 10
25.1243389117
 20
-4.380148973
 10
25.1259335553
 20
-4.3862354075
 10
25.1274677894
 20
-4.3884966226
  0
LWPOLYLINE
  5
783
100
AcDbEntity
  8
RACCORDO
100
AcDbPolyline
 62
253
  6
CONTINUOUS
 90
3
 70
0
 10
24.0390691473
 20
10.9910858095
 10
24.0431513124
 20
10.8738648848
 10
24.0452175224
 20
10.8031615498
  0
LINE
  5
784
100
AcDbEntity
  8
RACCORDO
100
AcDbLine
 62
253
  6
CONTINUOUS
 10
24.9054744965
 20
-4.239990506
 11
24.9095810422
 21
-4.3588256602
  0
LINE
  5
785
100
AcDbEntity
  8
RACCORDO
100
AcDbLine
 62
253
  6
CONTINUOUS
 10
25.1033699226
 20
-3.9962424334
 11
25.1075072812
 21
-4.1225680511
  0
LINE
  5
786
100
AcDbEntity
  8
RACCORDO
100
AcDbLine
 62
253
  6
CONTINUOUS
 10
24.9013066993
 20
-4.0879382793
 11
24.9054744965
 21
-4.239990506
  0
LINE
  5
787
100
AcDbEntity
  8
RACCORDO
100
AcDbLine
 62
253
  6
CONTINUOUS
 10
25.099219886
 20
-3.838473464
 11
25.1033699226
 21
-3.9962424334
  0
LINE
  5
788
100
AcDbEntity
  8
RACCORDO
100
AcDbLine
 62
253
  6
CONTINUOUS
 10
24.897207326
 20
-3.9005753978
 11
24.9013066993
 21
-4.0879382793
  0
LINE
  5
789
100
AcDbEntity
  8
RACCORDO
100
AcDbLine
 62
253
  6
CONTINUOUS
 10
25.0932645645
 20
-3.5399370787
 11
25.099219886
 21
-3.838473464
  0
LINE
  5
78A
100
AcDbEntity
  8
RACCORDO
100
AcDbLine
 62
253
  6
CONTINUOUS
 10
24.8915052251
 20
-3.5594433085
 11
24.897207326
 21
-3.9005753978
  0
LINE
  5
78B
100
AcDbEntity
  8
RACCORDO
100
AcDbLine
 62
253
  6
CONTINUOUS
 10
25.0882528915
 20
-3.1922760202
 11
25.0932645645
 21
-3.5399370787
  0
LINE
  5
78C
100
AcDbEntity
  8
RACCORDO
100
AcDbLine
 62
253
  6
CONTINUOUS
 10
24.885680388
 20
-3.0512948477
 11
24.8915052251
 21
-3.5594433085
  0
LINE
  5
78D
100
AcDbEntity
  8
RACCORDO
100
AcDbLine
 62
253
  6
CONTINUOUS
 10
25.0835857792
 20
-2.7171754627
 11
25.0882528915
 21
-3.1922760202
  0
LINE
  5
78E
100
AcDbEntity
  8
RACCORDO
100
AcDbLine
 62
253
  6
CONTINUOUS
 10
24.8809275859
 20
-2.3138333103
 11
24.885680388
 21
-3.0512948477
  0
LINE
  5
78F
100
AcDbEntity
  8
RACCORDO
100
AcDbLine
 62
253
  6
CONTINUOUS
 10
25.0801267214
 20
-2.0554664639
 11
25.0835857792
 21
-2.7171754627
  0
LINE
  5
790
100
AcDbEntity
  8
RACCORDO
100
AcDbLine
 62
7
  6
CONTINUOUS
 10
25.1283816881
 20
7.7272655939
 11
25.1283816881
 21
-1.0980314287
  0
LINE
  5
791
100
AcDbEntity
  8
RACCORDO
100
AcDbLine
 62
7
  6
CONTINUOUS
 10
25.2243845452
 20
11.1146475436
 11
25.2243845452
 21
8.3146170826
  0
LINE
  5
792
100
AcDbEntity
  8
RACCORDO
100
AcDbLine
 62
7
  6
CONTINUOUS
 10
25.2243845452
 20
-1.6853829174
 11
25.2243845452
 21
-4.4854133784
  0
LINE
  5
793
100
AcDbEntity
  8
RACCORDO
100
AcDbLine
 62
253
  6
CONTINUOUS
 10
24.8794894949
 20
8.3105516267
 11
24.8809275859
 21
-2.3138333103
  0
LINE
  5
794
100
AcDbEntity
  8
RACCORDO
100
AcDbLine
 62
253
  6
CONTINUOUS
 10
25.0796733627
 20
8.4875784025
 11
25.0801267214
 21
-2.0554664639
  0
LINE
  5
795
100
AcDbEntity
  8
RACCORDO
100
AcDbLine
 62
253
  6
CONTINUOUS
 10
24.8814388548
 20
9.0601603424
 11
24.8794894949
 21
8.3105516267
  0
LINE
  5
796
100
AcDbEntity
  8
RACCORDO
100
AcDbLine
 62
253
  6
CONTINUOUS
 10
25.0827520964
 20
9.2299497742
 11
25.0796733627
 21
8.4875784025
  0
LINE
  5
797
100
AcDbEntity
  8
RACCORDO
100
AcDbLine
 62
253
  6
CONTINUOUS
 10
24.885680388
 20
9.6805290129
 11
24.8814388548
 21
9.0601603424
  0
LINE
  5
798
100
AcDbEntity
  8
RACCORDO
100
AcDbLine
 62
253
  6
CONTINUOUS
 10
25.0868781079
 20
9.7026989488
 11
25.0827520964
 21
9.2299497742
  0
LINE
  5
799
100
AcDbEntity
  8
RACCORDO
100
AcDbLine
 62
253
  6
CONTINUOUS
 10
24.8915052251
 20
10.1886774737
 11
24.885680388
 21
9.6805290129
  0
LINE
  5
79A
100
AcDbEntity
  8
RACCORDO
100
AcDbLine
 62
253
  6
CONTINUOUS
 10
25.0914756201
 20
10.0572909212
 11
25.0868781079
 21
9.7026989488
  0
LINE
  5
79B
100
AcDbEntity
  8
RACCORDO
100
AcDbLine
 62
253
  6
CONTINUOUS
 10
24.897207326
 20
10.529809563
 11
24.8915052251
 21
10.1886774737
  0
LINE
  5
79C
100
AcDbEntity
  8
RACCORDO
100
AcDbLine
 62
253
  6
CONTINUOUS
 10
25.0971796353
 20
10.3754699953
 11
25.0914756201
 21
10.0572909212
  0
LINE
  5
79D
100
AcDbEntity
  8
RACCORDO
100
AcDbLine
 62
253
  6
CONTINUOUS
 10
24.9013066993
 20
10.7171724445
 11
24.897207326
 21
10.529809563
  0
LINE
  5
79E
100
AcDbEntity
  8
RACCORDO
100
AcDbLine
 62
253
  6
CONTINUOUS
 10
25.1012797591
 20
10.5506834098
 11
25.0971796353
 21
10.3754699953
  0
LINE
  5
79F
100
AcDbEntity
  8
RACCORDO
100
AcDbLine
 62
253
  6
CONTINUOUS
 10
24.9054744965
 20
10.8692246711
 11
24.9013066993
 21
10.7171724445
  0
LWPOLYLINE
  5
7A0
100
AcDbEntity
  8
RACCORDO
100
AcDbPolyline
 62
253
  6
CONTINUOUS
 90
13
 70
0
 10
25.1274677894
 20
-4.3884966226
 10
25.1257497362
 20
-4.4145928541
 10
25.1206408586
 20
-4.4402427446
 10
25.112228537
 20
-4.4650075876
 10
25.100656653
 20
-4.4884638136
 10
25.0861231279
 20
-4.5102102356
 10
25.0688765382
 20
-4.5298749104
 10
25.0492118634
 20
-4.5471215001
 10
25.0274654414
 20
-4.5616550252
 10
25.0040092154
 20
-4.5732269092
 10
24.9792443724
 20
-4.5816392308
 10
24.9535944818
 20
-4.5867481084
 10
24.9274982504
 20
-4.5884661616
  0
LINE
  5
7A1
100
AcDbEntity
  8
RACCORDO
100
AcDbLine
 62
253
  6
CONTINUOUS
 10
19.499756227
 20
-17.333395059
 11
19.3265775262
 21
-17.4333798285
  0
LWPOLYLINE
  5
7A2
100
AcDbEntity
  8
RACCORDO
100
AcDbPolyline
 62
253
  6
CONTINUOUS
 90
13
 70
0
 10
-14.5359678226
 20
23.1017930312
 10
-14.5142191717
 20
23.1078540926
 10
-14.4932915576
 20
23.1163277243
 10
-14.473451709
 20
23.1271059232
 10
-14.4549524893
 20
23.140051314
 10
-14.4380296758
 20
23.1549988998
 10
-14.4228989537
 20
23.171758164
 10
-14.4097531657
 20
23.1901155007
 10
-14.3987598545
 20
23.2098369382
 10
-14.3900591287
 20
23.2306711189
 10
-14.383761877
 20
23.2523525038
 10
-14.3799483549
 20
23.2746047571
 10
-14.3786671621
 20
23.2971442678
  0
LINE
  5
7A3
100
AcDbEntity
  8
RACCORDO
100
AcDbLine
 62
253
  6
CONTINUOUS
 10
-14.3070142266
 20
23.298950041
 11
-14.2554512043
 21
23.3041343767
  0
LWPOLYLINE
  5
7A4
100
AcDbEntity
  8
RACCORDO
100
AcDbPolyline
 62
253
  6
CONTINUOUS
 90
12
 70
0
 10
-14.2554512043
 20
23.3041343767
 10
-14.215953345
 20
23.3079058882
 10
-14.1943185031
 20
23.3097805469
 10
-14.1712386595
 20
23.3116357052
 10
-14.1467278198
 20
23.3134541089
 10
-14.120226545
 20
23.3150959267
 10
-14.0915403252
 20
23.3166116263
 10
-14.060672774
 20
23.31795074
 10
-14.0272396949
 20
23.3188220325
 10
-13.9910081802
 20
23.3191284256
 10
-13.9519414165
 20
23.3189669976
 10
-13.9099097241
 20
23.3183377485
  0
LWPOLYLINE
  5
7A5
100
AcDbEntity
  8
SMUSSO
100
AcDbPolyline
 62
7
  6
CONTINUOUS
 90
9
 70
0
 10
20.5810336902
 20
25.6295681687
 10
20.6485481478
 20
25.6317354643
 10
20.7074773507
 20
25.6339547313
 10
20.757615974
 20
25.6362268852
 10
20.7991693427
 20
25.6385510105
 10
20.8319609398
 20
25.6408896482
 10
20.8559319262
 20
25.6432303121
 10
20.8711411409
 20
25.6455854884
 10
20.877588584
 20
25.6479551772
  0
LWPOLYLINE
  5
7A6
100
AcDbEntity
  8
SMUSSO
100
AcDbPolyline
 62
7
  6
CONTINUOUS
 90
9
 70
0
 10
10.5817750865
 20
25.6295920334
 10
10.6492860294
 20
25.6317622513
 10
10.7082026532
 20
25.6339846442
 10
10.7582541613
 20
25.6362607799
 10
10.7997113503
 20
25.6385890906
 10
10.8323916446
 20
25.6409269484
 10
10.8562341858
 20
25.6432601441
 10
10.8712998322
 20
25.6456028871
 10
10.877588584
 20
25.6479551772
  0
LWPOLYLINE
  5
7A7
100
AcDbEntity
  8
SMUSSO
100
AcDbPolyline
 62
7
  6
CONTINUOUS
 90
9
 70
0
 10
5.5817750865
 20
25.6295920334
 10
5.6492860294
 20
25.6317622513
 10
5.7082026532
 20
25.6339846442
 10
5.7582541613
 20
25.6362607799
 10
5.7997113503
 20
25.6385890906
 10
5.8323916446
 20
25.6409269484
 10
5.8562341858
 20
25.6432601441
 10
5.8712998322
 20
25.6456028871
 10
5.877588584
 20
25.6479551772
  0
LWPOLYLINE
  5
7A8
100
AcDbEntity
  8
SMUSSO
100
AcDbPolyline
 62
7
  6
CONTINUOUS
 90
9
 70
0
 10
0.5817750865
 20
25.6295920334
 10
0.6492860294
 20
25.6317622513
 10
0.7082026532
 20
25.6339846442
 10
0.7582541613
 20
25.6362607799
 10
0.7997113503
 20
25.6385890906
 10
0.8323916446
 20
25.6409269484
 10
0.8562341858
 20
25.6432601441
 10
0.8712998322
 20
25.6456028871
 10
0.877588584
 20
25.6479551772
  0
LWPOLYLINE
  5
7A9
100
AcDbEntity
  8
SMUSSO
100
AcDbPolyline
 62
7
  6
CONTINUOUS
 90
9
 70
0
 10
-4.4182249135
 20
25.6295920334
 10
-4.3507139706
 20
25.6317622513
 10
-4.2917973468
 20
25.6339846442
 10
-4.2417458387
 20
25.6362607799
 10
-4.2002886497
 20
25.6385890906
 10
-4.1676083554
 20
25.6409269484
 10
-4.1437658142
 20
25.6432601441
 10
-4.1287001678
 20
25.6456028871
 10
-4.122411416
 20
25.6479551772
  0
LWPOLYLINE
  5
7AA
100
AcDbEntity
  8
SMUSSO
100
AcDbPolyline
 62
7
  6
CONTINUOUS
 90
9
 70
0
 10
-9.4182249135
 20
25.6295920334
 10
-9.3507139706
 20
25.6317622513
 10
-9.2917973468
 20
25.6339846442
 10
-9.2417458387
 20
25.6362607799
 10
-9.2002886497
 20
25.6385890906
 10
-9.1676083554
 20
25.6409269484
 10
-9.1437658142
 20
25.6432601441
 10
-9.1287001678
 20
25.6456028871
 10
-9.122411416
 20
25.6479551772
  0
LINE
  5
7AB
100
AcDbEntity
  8
RACCORDO
100
AcDbLine
 62
253
  6
CONTINUOUS
 10
21.0368556561
 20
25.6277643492
 11
20.8841697016
 21
25.623266054
  0
LINE
  5
7AC
100
AcDbEntity
  8
RACCORDO
100
AcDbLine
 62
253
  6
CONTINUOUS
 10
21.5584553553
 20
25.1301994111
 11
21.3942683159
 21
25.1255487166
  0
LINE
  5
7AD
100
AcDbEntity
  8
SMUSSO
100
AcDbLine
 62
7
  6
CONTINUOUS
 10
20.4224636132
 20
25.6254955369
 11
20.5810336902
 21
25.6295681687
  0
LINE
  5
7AE
100
AcDbEntity
  8
SMUSSO
100
AcDbLine
 62
7
  6
CONTINUOUS
 10
10.4237985263
 20
25.6255252738
 11
10.5817750865
 21
25.6295920334
  0
LINE
  5
7AF
100
AcDbEntity
  8
SMUSSO
100
AcDbLine
 62
7
  6
CONTINUOUS
 10
5.4237985263
 20
25.6255252738
 11
5.5817750865
 21
25.6295920334
  0
LINE
  5
7B0
100
AcDbEntity
  8
SMUSSO
100
AcDbLine
 62
7
  6
CONTINUOUS
 10
0.4237985263
 20
25.6255252738
 11
0.5817750865
 21
25.6295920334
  0
LINE
  5
7B1
100
AcDbEntity
  8
SMUSSO
100
AcDbLine
 62
7
  6
CONTINUOUS
 10
-4.5762014737
 20
25.6255252738
 11
-4.4182249135
 21
25.6295920334
  0
LINE
  5
7B2
100
AcDbEntity
  8
SMUSSO
100
AcDbLine
 62
7
  6
CONTINUOUS
 10
-9.5762014737
 20
25.6255252738
 11
-9.4182249135
 21
25.6295920334
  0
LINE
  5
7B3
100
AcDbEntity
  8
RACCORDO
100
AcDbLine
 62
253
  6
CONTINUOUS
 10
20.8841697016
 20
25.623266054
 11
20.7026074185
 21
25.6190968012
  0
LINE
  5
7B4
100
AcDbEntity
  8
RACCORDO
100
AcDbLine
 62
253
  6
CONTINUOUS
 10
21.3942683159
 20
25.1255487166
 11
21.1947066834
 21
25.1212068515
  0
LINE
  5
7B5
100
AcDbEntity
  8
RACCORDO
100
AcDbLine
 62
253
  6
CONTINUOUS
 10
10.7973784508
 20
25.1155825178
 11
10.7120270445
 21
25.1138161695
  0
LINE
  5
7B6
100
AcDbEntity
  8
RACCORDO
100
AcDbLine
 62
253
  6
CONTINUOUS
 10
5.7973784508
 20
25.1155825178
 11
5.7120270445
 21
25.1138161695
  0
LINE
  5
7B7
100
AcDbEntity
  8
RACCORDO
100
AcDbLine
 62
253
  6
CONTINUOUS
 10
0.7973784508
 20
25.1155825178
 11
0.7120270445
 21
25.1138161695
  0
LINE
  5
7B8
100
AcDbEntity
  8
RACCORDO
100
AcDbLine
 62
253
  6
CONTINUOUS
 10
-4.2026215492
 20
25.1155825178
 11
-4.2879729555
 21
25.1138161695
  0
LINE
  5
7B9
100
AcDbEntity
  8
RACCORDO
100
AcDbLine
 62
253
  6
CONTINUOUS
 10
-9.2026215492
 20
25.1155825178
 11
-9.2879729555
 21
25.1138161695
  0
LINE
  5
7BA
100
AcDbEntity
  8
SMUSSO
100
AcDbLine
 62
7
  6
CONTINUOUS
 10
20.2338407304
 20
25.6218005401
 11
20.4224636132
 21
25.6254955369
  0
LINE
  5
7BB
100
AcDbEntity
  8
SMUSSO
100
AcDbLine
 62
7
  6
CONTINUOUS
 10
10.2367327485
 20
25.621850072
 11
10.4237985263
 21
25.6255252738
  0
LINE
  5
7BC
100
AcDbEntity
  8
SMUSSO
100
AcDbLine
 62
7
  6
CONTINUOUS
 10
5.2367327485
 20
25.621850072
 11
5.4237985263
 21
25.6255252738
  0
LINE
  5
7BD
100
AcDbEntity
  8
SMUSSO
100
AcDbLine
 62
7
  6
CONTINUOUS
 10
0.2367327485
 20
25.621850072
 11
0.4237985263
 21
25.6255252738
  0
LINE
  5
7BE
100
AcDbEntity
  8
SMUSSO
100
AcDbLine
 62
7
  6
CONTINUOUS
 10
-4.7632672515
 20
25.621850072
 11
-4.5762014737
 21
25.6255252738
  0
LINE
  5
7BF
100
AcDbEntity
  8
SMUSSO
100
AcDbLine
 62
7
  6
CONTINUOUS
 10
-9.7632672515
 20
25.621850072
 11
-9.5762014737
 21
25.6255252738
  0
LINE
  5
7C0
100
AcDbEntity
  8
RACCORDO
100
AcDbLine
 62
253
  6
CONTINUOUS
 10
20.7026074185
 20
25.6190968012
 11
20.3820443377
 21
25.6135986653
  0
LINE
  5
7C1
100
AcDbEntity
  8
RACCORDO
100
AcDbLine
 62
253
  6
CONTINUOUS
 10
21.1947066834
 20
25.1212068515
 11
20.8349700982
 21
25.1153983217
  0
LINE
  5
7C2
100
AcDbEntity
  8
RACCORDO
100
AcDbLine
 62
253
  6
CONTINUOUS
 10
10.8904615101
 20
25.1170071454
 11
10.7973784508
 21
25.1155825178
  0
LINE
  5
7C3
100
AcDbEntity
  8
RACCORDO
100
AcDbLine
 62
253
  6
CONTINUOUS
 10
5.8904615101
 20
25.1170071454
 11
5.7973784508
 21
25.1155825178
  0
LINE
  5
7C4
100
AcDbEntity
  8
RACCORDO
100
AcDbLine
 62
253
  6
CONTINUOUS
 10
0.8904615101
 20
25.1170071454
 11
0.7973784508
 21
25.1155825178
  0
LINE
  5
7C5
100
AcDbEntity
  8
RACCORDO
100
AcDbLine
 62
253
  6
CONTINUOUS
 10
-4.1095384899
 20
25.1170071454
 11
-4.2026215492
 21
25.1155825178
  0
LINE
  5
7C6
100
AcDbEntity
  8
RACCORDO
100
AcDbLine
 62
253
  6
CONTINUOUS
 10
-9.1095384899
 20
25.1170071454
 11
-9.2026215492
 21
25.1155825178
  0
LINE
  5
7C7
100
AcDbEntity
  8
SMUSSO
100
AcDbLine
 62
7
  6
CONTINUOUS
 10
9.9115898177
 20
25.6172491638
 11
10.2367327485
 21
25.621850072
  0
LINE
  5
7C8
100
AcDbEntity
  8
SMUSSO
100
AcDbLine
 62
7
  6
CONTINUOUS
 10
4.9115898177
 20
25.6172491638
 11
5.2367327485
 21
25.621850072
  0
LINE
  5
7C9
100
AcDbEntity
  8
SMUSSO
100
AcDbLine
 62
7
  6
CONTINUOUS
 10
-0.0884101823
 20
25.6172491638
 11
0.2367327485
 21
25.621850072
  0
LINE
  5
7CA
100
AcDbEntity
  8
SMUSSO
100
AcDbLine
 62
7
  6
CONTINUOUS
 10
-5.0884101823
 20
25.6172491638
 11
-4.7632672515
 21
25.621850072
  0
LINE
  5
7CB
100
AcDbEntity
  8
SMUSSO
100
AcDbLine
 62
7
  6
CONTINUOUS
 10
-10.0884101823
 20
25.6172491638
 11
-9.7632672515
 21
25.621850072
  0
LINE
  5
7CC
100
AcDbEntity
  8
SMUSSO
100
AcDbLine
 62
7
  6
CONTINUOUS
 10
19.9033501937
 20
25.6171546039
 11
20.2338407304
 21
25.6218005401
  0
LINE
  5
7CD
100
AcDbEntity
  8
RACCORDO
100
AcDbLine
 62
253
  6
CONTINUOUS
 10
-9.3960824171
 20
25.6162530486
 11
-10.0173449111
 21
25.6088572828
  0
LINE
  5
7CE
100
AcDbEntity
  8
RACCORDO
100
AcDbLine
 62
253
  6
CONTINUOUS
 10
10.6039175829
 20
25.6162530486
 11
9.8916208405
 21
25.6080215753
  0
LINE
  5
7CF
100
AcDbEntity
  8
RACCORDO
100
AcDbLine
 62
253
  6
CONTINUOUS
 10
5.6039175829
 20
25.6162530486
 11
4.8916208405
 21
25.6080215753
  0
LINE
  5
7D0
100
AcDbEntity
  8
RACCORDO
100
AcDbLine
 62
253
  6
CONTINUOUS
 10
0.6039175829
 20
25.6162530486
 11
-0.1083791595
 21
25.6080215753
  0
LINE
  5
7D1
100
AcDbEntity
  8
RACCORDO
100
AcDbLine
 62
253
  6
CONTINUOUS
 10
-4.3960824171
 20
25.6162530486
 11
-5.1083791595
 21
25.6080215753
  0
LINE
  5
7D2
100
AcDbEntity
  8
RACCORDO
100
AcDbLine
 62
253
  6
CONTINUOUS
 10
20.3820443377
 20
25.6135986653
 11
19.8797227009
 21
25.6079175388
  0
LINE
  5
7D3
100
AcDbEntity
  8
RACCORDO
100
AcDbLine
 62
253
  6
CONTINUOUS
 10
20.8349700982
 20
25.1153983217
 11
20.259659026
 21
25.1092231354
  0
LINE
  5
7D4
100
AcDbEntity
  8
RACCORDO
100
AcDbLine
 62
253
  6
CONTINUOUS
 10
10.7120270445
 20
25.1138161695
 11
10.1150470532
 21
25.1080930697
  0
LINE
  5
7D5
100
AcDbEntity
  8
RACCORDO
100
AcDbLine
 62
253
  6
CONTINUOUS
 10
5.7120270445
 20
25.1138161695
 11
5.1150470532
 21
25.1080930697
  0
LINE
  5
7D6
100
AcDbEntity
  8
RACCORDO
100
AcDbLine
 62
253
  6
CONTINUOUS
 10
0.7120270445
 20
25.1138161695
 11
0.1150470532
 21
25.1080930697
  0
LINE
  5
7D7
100
AcDbEntity
  8
RACCORDO
100
AcDbLine
 62
253
  6
CONTINUOUS
 10
-4.2879729555
 20
25.1138161695
 11
-4.8849529468
 21
25.1080930697
  0
LINE
  5
7D8
100
AcDbEntity
  8
RACCORDO
100
AcDbLine
 62
253
  6
CONTINUOUS
 10
11.0407040791
 20
25.1184732522
 11
10.8904615101
 21
25.1170071454
  0
LINE
  5
7D9
100
AcDbEntity
  8
RACCORDO
100
AcDbLine
 62
253
  6
CONTINUOUS
 10
6.0407040791
 20
25.1184732522
 11
5.8904615101
 21
25.1170071454
  0
LINE
  5
7DA
100
AcDbEntity
  8
RACCORDO
100
AcDbLine
 62
253
  6
CONTINUOUS
 10
1.0407040791
 20
25.1184732522
 11
0.8904615101
 21
25.1170071454
  0
LINE
  5
7DB
100
AcDbEntity
  8
RACCORDO
100
AcDbLine
 62
253
  6
CONTINUOUS
 10
-3.9592959209
 20
25.1184732522
 11
-4.1095384899
 21
25.1170071454
  0
LINE
  5
7DC
100
AcDbEntity
  8
RACCORDO
100
AcDbLine
 62
253
  6
CONTINUOUS
 10
-9.2879729555
 20
25.1138161695
 11
-9.8754713652
 21
25.108160715
  0
LINE
  5
7DD
100
AcDbEntity
  8
RACCORDO
100
AcDbLine
 62
253
  6
CONTINUOUS
 10
-8.9592959209
 20
25.1184732522
 11
-9.1095384899
 21
25.1170071454
  0
LINE
  5
7DE
100
AcDbEntity
  8
SMUSSO
100
AcDbLine
 62
7
  6
CONTINUOUS
 10
9.4121649558
 20
25.6129911095
 11
9.9115898177
 21
25.6172491638
  0
LINE
  5
7DF
100
AcDbEntity
  8
SMUSSO
100
AcDbLine
 62
7
  6
CONTINUOUS
 10
4.4121649558
 20
25.6129911095
 11
4.9115898177
 21
25.6172491638
  0
LINE
  5
7E0
100
AcDbEntity
  8
SMUSSO
100
AcDbLine
 62
7
  6
CONTINUOUS
 10
-0.5878350442
 20
25.6129911095
 11
-0.0884101823
 21
25.6172491638
  0
LINE
  5
7E1
100
AcDbEntity
  8
SMUSSO
100
AcDbLine
 62
7
  6
CONTINUOUS
 10
-5.5878350442
 20
25.6129911095
 11
-5.0884101823
 21
25.6172491638
  0
LINE
  5
7E2
100
AcDbEntity
  8
SMUSSO
100
AcDbLine
 62
7
  6
CONTINUOUS
 10
-10.5878350442
 20
25.6129911095
 11
-10.0884101823
 21
25.6172491638
  0
LINE
  5
7E3
100
AcDbEntity
  8
SMUSSO
100
AcDbLine
 62
7
  6
CONTINUOUS
 10
19.3983319095
 20
25.6129105819
 11
19.9033501937
 21
25.6171546039
  0
LINE
  5
7E4
100
AcDbEntity
  8
RACCORDO
100
AcDbLine
 62
253
  6
CONTINUOUS
 10
-10.0173449111
 20
25.6088572828
 11
-10.6086940281
 21
25.6047132664
  0
LINE
  5
7E5
100
AcDbEntity
  8
RACCORDO
100
AcDbLine
 62
253
  6
CONTINUOUS
 10
9.8916208405
 20
25.6080215753
 11
9.3247870744
 21
25.6044228141
  0
LINE
  5
7E6
100
AcDbEntity
  8
RACCORDO
100
AcDbLine
 62
253
  6
CONTINUOUS
 10
10.9252507551
 20
25.6183950199
 11
10.6039175829
 21
25.6162530486
  0
LINE
  5
7E7
100
AcDbEntity
  8
RACCORDO
100
AcDbLine
 62
253
  6
CONTINUOUS
 10
4.8916208405
 20
25.6080215753
 11
4.3247870744
 21
25.6044228141
  0
LINE
  5
7E8
100
AcDbEntity
  8
RACCORDO
100
AcDbLine
 62
253
  6
CONTINUOUS
 10
5.9252507551
 20
25.6183950199
 11
5.6039175829
 21
25.6162530486
  0
LINE
  5
7E9
100
AcDbEntity
  8
RACCORDO
100
AcDbLine
 62
253
  6
CONTINUOUS
 10
-0.1083791595
 20
25.6080215753
 11
-0.6752129256
 21
25.6044228141
  0
LINE
  5
7EA
100
AcDbEntity
  8
RACCORDO
100
AcDbLine
 62
253
  6
CONTINUOUS
 10
0.9252507551
 20
25.6183950199
 11
0.6039175829
 21
25.6162530486
  0
LINE
  5
7EB
100
AcDbEntity
  8
RACCORDO
100
AcDbLine
 62
253
  6
CONTINUOUS
 10
-5.1083791595
 20
25.6080215753
 11
-5.6752129256
 21
25.6044228141
  0
LINE
  5
7EC
100
AcDbEntity
  8
RACCORDO
100
AcDbLine
 62
253
  6
CONTINUOUS
 10
-4.0747492449
 20
25.6183950199
 11
-4.3960824171
 21
25.6162530486
  0
LINE
  5
7ED
100
AcDbEntity
  8
RACCORDO
100
AcDbLine
 62
253
  6
CONTINUOUS
 10
-9.0747492449
 20
25.6183950199
 11
-9.3960824171
 21
25.6162530486
  0
LINE
  5
7EE
100
AcDbEntity
  8
RACCORDO
100
AcDbLine
 62
253
  6
CONTINUOUS
 10
19.8797227009
 20
25.6079175388
 11
19.3162476791
 21
25.6043879691
  0
LINE
  5
7EF
100
AcDbEntity
  8
RACCORDO
100
AcDbLine
 62
253
  6
CONTINUOUS
 10
20.259659026
 20
25.1092231354
 11
19.4308572271
 21
25.1044664121
  0
LINE
  5
7F0
100
AcDbEntity
  8
RACCORDO
100
AcDbLine
 62
253
  6
CONTINUOUS
 10
10.1150470532
 20
25.1080930697
 11
9.2633409469
 21
25.1039636127
  0
LINE
  5
7F1
100
AcDbEntity
  8
RACCORDO
100
AcDbLine
 62
253
  6
CONTINUOUS
 10
5.1150470532
 20
25.1080930697
 11
4.2633409469
 21
25.1039636127
  0
LINE
  5
7F2
100
AcDbEntity
  8
RACCORDO
100
AcDbLine
 62
253
  6
CONTINUOUS
 10
0.1150470532
 20
25.1080930697
 11
-0.7366590531
 21
25.1039636127
  0
LINE
  5
7F3
100
AcDbEntity
  8
RACCORDO
100
AcDbLine
 62
253
  6
CONTINUOUS
 10
-4.8849529468
 20
25.1080930697
 11
-5.7366590531
 21
25.1039636127
  0
LINE
  5
7F4
100
AcDbEntity
  8
RACCORDO
100
AcDbLine
 62
253
  6
CONTINUOUS
 10
-9.8754713652
 20
25.108160715
 11
-10.6849042754
 21
25.1041035527
  0
LINE
  5
7F5
100
AcDbEntity
  8
RACCORDO
100
AcDbLine
 62
253
  6
CONTINUOUS
 10
11.1979043531
 20
25.119067254
 11
11.0407040791
 21
25.1184732522
  0
LINE
  5
7F6
100
AcDbEntity
  8
RACCORDO
100
AcDbLine
 62
253
  6
CONTINUOUS
 10
6.1979043531
 20
25.119067254
 11
6.0407040791
 21
25.1184732522
  0
LINE
  5
7F7
100
AcDbEntity
  8
RACCORDO
100
AcDbLine
 62
253
  6
CONTINUOUS
 10
1.1979043531
 20
25.119067254
 11
1.0407040791
 21
25.1184732522
  0
LINE
  5
7F8
100
AcDbEntity
  8
RACCORDO
100
AcDbLine
 62
253
  6
CONTINUOUS
 10
-3.8020956469
 20
25.119067254
 11
-3.9592959209
 21
25.1184732522
  0
LINE
  5
7F9
100
AcDbEntity
  8
RACCORDO
100
AcDbLine
 62
253
  6
CONTINUOUS
 10
-8.8020956469
 20
25.119067254
 11
-8.9592959209
 21
25.1184732522
  0
LINE
  5
7FA
100
AcDbEntity
  8
SMUSSO
100
AcDbLine
 62
7
  6
CONTINUOUS
 10
8.8642965015
 20
25.6111017866
 11
9.4121649558
 21
25.6129911095
  0
LINE
  5
7FB
100
AcDbEntity
  8
SMUSSO
100
AcDbLine
 62
7
  6
CONTINUOUS
 10
3.8642965015
 20
25.6111017866
 11
4.4121649558
 21
25.6129911095
  0
LINE
  5
7FC
100
AcDbEntity
  8
SMUSSO
100
AcDbLine
 62
7
  6
CONTINUOUS
 10
-1.1357034985
 20
25.6111017866
 11
-0.5878350442
 21
25.6129911095
  0
LINE
  5
7FD
100
AcDbEntity
  8
SMUSSO
100
AcDbLine
 62
7
  6
CONTINUOUS
 10
-6.1357034985
 20
25.6111017866
 11
-5.5878350442
 21
25.6129911095
  0
LINE
  5
7FE
100
AcDbEntity
  8
SMUSSO
100
AcDbLine
 62
7
  6
CONTINUOUS
 10
-11.1357034985
 20
25.6111017866
 11
-10.5878350442
 21
25.6129911095
  0
LINE
  5
7FF
100
AcDbEntity
  8
SMUSSO
100
AcDbLine
 62
7
  6
CONTINUOUS
 10
18.8602365332
 20
25.6110923459
 11
19.3983319095
 21
25.6129105819
  0
LINE
  5
800
100
AcDbEntity
  8
RACCORDO
100
AcDbLine
 62
253
  6
CONTINUOUS
 10
16.9860382945
 20
24.5411611987
 11
19.4204204398
 21
24.5426300877
  0
LINE
  5
801
100
AcDbEntity
  8
RACCORDO
100
AcDbLine
 62
253
  6
CONTINUOUS
 10
19.4308572271
 20
25.1044664121
 11
13.7243845452
 21
25.1032731145
  0
LINE
  5
802
100
AcDbEntity
  8
RACCORDO
100
AcDbLine
 62
253
  6
CONTINUOUS
 10
19.3162476791
 20
25.6043879691
 11
13.7243845452
 21
25.6031969621
  0
LINE
  5
803
100
AcDbEntity
  8
RACCORDO
100
AcDbLine
 62
253
  6
CONTINUOUS
 10
-10.6086940281
 20
25.6047132664
 11
-11.3034032737
 21
25.6031983413
  0
LINE
  5
804
100
AcDbEntity
  8
RACCORDO
100
AcDbLine
 62
253
  6
CONTINUOUS
 10
11.2676658856
 20
25.6189909511
 11
10.9252507551
 21
25.6183950199
  0
LINE
  5
805
100
AcDbEntity
  8
RACCORDO
100
AcDbLine
 62
253
  6
CONTINUOUS
 10
6.2676658856
 20
25.6189909511
 11
5.9252507551
 21
25.6183950199
  0
LINE
  5
806
100
AcDbEntity
  8
RACCORDO
100
AcDbLine
 62
253
  6
CONTINUOUS
 10
1.2676658856
 20
25.6189909511
 11
0.9252507551
 21
25.6183950199
  0
LINE
  5
807
100
AcDbEntity
  8
RACCORDO
100
AcDbLine
 62
253
  6
CONTINUOUS
 10
-3.7323341144
 20
25.6189909511
 11
-4.0747492449
 21
25.6183950199
  0
LINE
  5
808
100
AcDbEntity
  8
RACCORDO
100
AcDbLine
 62
253
  6
CONTINUOUS
 10
-8.7323341144
 20
25.6189909511
 11
-9.0747492449
 21
25.6183950199
  0
LINE
  5
809
100
AcDbEntity
  8
RACCORDO
100
AcDbLine
 62
7
  6
CONTINUOUS
 10
-13.9756916072
 20
25.7447968229
 11
-13.5256611393
 21
25.7447968229
  0
LINE
  5
80A
100
AcDbEntity
  8
SMUSSO
100
AcDbLine
 62
7
  6
CONTINUOUS
 10
-9.0255697703
 20
25.7447968229
 11
-8.5256611393
 21
25.7447968229
  0
LINE
  5
80B
100
AcDbEntity
  8
SMUSSO
100
AcDbLine
 62
7
  6
CONTINUOUS
 10
-4.0255697703
 20
25.7447968229
 11
-3.5256611393
 21
25.7447968229
  0
LINE
  5
80C
100
AcDbEntity
  8
SMUSSO
100
AcDbLine
 62
7
  6
CONTINUOUS
 10
0.9744302297
 20
25.7447968229
 11
1.4743388607
 21
25.7447968229
  0
LINE
  5
80D
100
AcDbEntity
  8
SMUSSO
100
AcDbLine
 62
7
  6
CONTINUOUS
 10
5.9744302297
 20
25.7447968229
 11
6.4743388607
 21
25.7447968229
  0
LINE
  5
80E
100
AcDbEntity
  8
SMUSSO
100
AcDbLine
 62
7
  6
CONTINUOUS
 10
10.9744302297
 20
25.7447968229
 11
11.4743388607
 21
25.7447968229
  0
LINE
  5
80F
100
AcDbEntity
  8
RACCORDO
100
AcDbLine
 62
7
  6
CONTINUOUS
 10
20.9744302297
 20
25.7447968229
 11
21.4244606976
 21
25.7447968229
  0
LINE
  5
810
100
AcDbEntity
  8
RACCORDO
100
AcDbLine
 62
253
  6
CONTINUOUS
 10
-5.6752129256
 20
25.6044228141
 11
-6.4269141867
 21
25.6032746714
  0
LINE
  5
811
100
AcDbEntity
  8
RACCORDO
100
AcDbLine
 62
253
  6
CONTINUOUS
 10
-0.6752129256
 20
25.6044228141
 11
-1.4269141867
 21
25.6032746714
  0
LINE
  5
812
100
AcDbEntity
  8
RACCORDO
100
AcDbLine
 62
253
  6
CONTINUOUS
 10
4.3247870744
 20
25.6044228141
 11
3.5730858133
 21
25.6032746714
  0
LINE
  5
813
100
AcDbEntity
  8
RACCORDO
100
AcDbLine
 62
253
  6
CONTINUOUS
 10
9.3247870744
 20
25.6044228141
 11
8.5730858133
 21
25.6032746714
  0
LINE
  5
814
100
AcDbEntity
  8
RACCORDO
100
AcDbLine
 62
253
  6
CONTINUOUS
 10
-10.6849042754
 20
25.1041035527
 11
-11.5244036304
 21
25.1034202662
  0
LINE
  5
815
100
AcDbEntity
  8
RACCORDO
100
AcDbLine
 62
253
  6
CONTINUOUS
 10
-5.7366590531
 20
25.1039636127
 11
-6.6359239576
 21
25.1035817296
  0
LINE
  5
816
100
AcDbEntity
  8
RACCORDO
100
AcDbLine
 62
253
  6
CONTINUOUS
 10
-0.7366590531
 20
25.1039636127
 11
-1.6359239576
 21
25.1035817296
  0
LINE
  5
817
100
AcDbEntity
  8
RACCORDO
100
AcDbLine
 62
253
  6
CONTINUOUS
 10
4.2633409469
 20
25.1039636127
 11
3.3640760424
 21
25.1035817296
  0
LINE
  5
818
100
AcDbEntity
  8
RACCORDO
100
AcDbLine
 62
253
  6
CONTINUOUS
 10
9.2633409469
 20
25.1039636127
 11
8.3640760424
 21
25.1035817296
  0
LINE
  5
819
100
AcDbEntity
  8
SMUSSO
100
AcDbLine
 62
7
  6
CONTINUOUS
 10
13.3189536662
 20
25.6116938801
 11
18.8602365332
 21
25.6110923459
  0
LINE
  5
81A
100
AcDbEntity
  8
SMUSSO
100
AcDbLine
 62
7
  6
CONTINUOUS
 10
-11.692969297
 20
25.6117338361
 11
-11.1357034985
 21
25.6111017866
  0
LINE
  5
81B
100
AcDbEntity
  8
SMUSSO
100
AcDbLine
 62
7
  6
CONTINUOUS
 10
-6.692969297
 20
25.6117338361
 11
-6.1357034985
 21
25.6111017866
  0
LINE
  5
81C
100
AcDbEntity
  8
SMUSSO
100
AcDbLine
 62
7
  6
CONTINUOUS
 10
-1.692969297
 20
25.6117338361
 11
-1.1357034985
 21
25.6111017866
  0
LINE
  5
81D
100
AcDbEntity
  8
SMUSSO
100
AcDbLine
 62
7
  6
CONTINUOUS
 10
3.307030703
 20
25.6117338361
 11
3.8642965015
 21
25.6111017866
  0
LINE
  5
81E
100
AcDbEntity
  8
SMUSSO
100
AcDbLine
 62
7
  6
CONTINUOUS
 10
8.307030703
 20
25.6117338361
 11
8.8642965015
 21
25.6111017866
  0
LINE
  5
81F
100
AcDbEntity
  8
RACCORDO
100
AcDbLine
 62
253
  6
CONTINUOUS
 10
-8.6437655672
 20
25.1187701145
 11
-8.8020956469
 21
25.119067254
  0
LINE
  5
820
100
AcDbEntity
  8
RACCORDO
100
AcDbLine
 62
253
  6
CONTINUOUS
 10
-3.6437655672
 20
25.1187701145
 11
-3.8020956469
 21
25.119067254
  0
LINE
  5
821
100
AcDbEntity
  8
RACCORDO
100
AcDbLine
 62
253
  6
CONTINUOUS
 10
1.3562344328
 20
25.1187701145
 11
1.1979043531
 21
25.119067254
  0
LINE
  5
822
100
AcDbEntity
  8
RACCORDO
100
AcDbLine
 62
253
  6
CONTINUOUS
 10
6.3562344328
 20
25.1187701145
 11
6.1979043531
 21
25.119067254
  0
LINE
  5
823
100
AcDbEntity
  8
RACCORDO
100
AcDbLine
 62
253
  6
CONTINUOUS
 10
11.3562344328
 20
25.1187701145
 11
11.1979043531
 21
25.119067254
  0
LINE
  5
824
100
AcDbEntity
  8
RACCORDO
100
AcDbLine
 62
253
  6
CONTINUOUS
 10
13.7243845452
 20
25.1032731145
 11
12.8380712798
 21
25.1051672685
  0
LINE
  5
825
100
AcDbEntity
  8
RACCORDO
100
AcDbLine
 62
253
  6
CONTINUOUS
 10
-11.3034032737
 20
25.6031983413
 11
-11.948205495
 21
25.6047396042
  0
LINE
  5
826
100
AcDbEntity
  8
RACCORDO
100
AcDbLine
 62
253
  6
CONTINUOUS
 10
-8.3934089673
 20
25.6180014422
 11
-8.7323341144
 21
25.6189909511
  0
LINE
  5
827
100
AcDbEntity
  8
RACCORDO
100
AcDbLine
 62
253
  6
CONTINUOUS
 10
-3.3934089673
 20
25.6180014422
 11
-3.7323341144
 21
25.6189909511
  0
LINE
  5
828
100
AcDbEntity
  8
RACCORDO
100
AcDbLine
 62
253
  6
CONTINUOUS
 10
1.6065910327
 20
25.6180014422
 11
1.2676658856
 21
25.6189909511
  0
LINE
  5
829
100
AcDbEntity
  8
RACCORDO
100
AcDbLine
 62
253
  6
CONTINUOUS
 10
6.6065910327
 20
25.6180014422
 11
6.2676658856
 21
25.6189909511
  0
LINE
  5
82A
100
AcDbEntity
  8
RACCORDO
100
AcDbLine
 62
253
  6
CONTINUOUS
 10
13.7243845452
 20
25.6031969621
 11
12.9808547279
 21
25.6050905523
  0
LINE
  5
82B
100
AcDbEntity
  8
RACCORDO
100
AcDbLine
 62
253
  6
CONTINUOUS
 10
11.6065910327
 20
25.6180014422
 11
11.2676658856
 21
25.6189909511
  0
LINE
  5
82C
100
AcDbEntity
  8
RACCORDO
100
AcDbLine
 62
253
  6
CONTINUOUS
 10
-11.5244036304
 20
25.1034202662
 11
-12.2979156394
 21
25.1058100344
  0
LINE
  5
82D
100
AcDbEntity
  8
RACCORDO
100
AcDbLine
 62
253
  6
CONTINUOUS
 10
-6.4269141867
 20
25.6032746714
 11
-7.1658223656
 21
25.6059360446
  0
LINE
  5
82E
100
AcDbEntity
  8
RACCORDO
100
AcDbLine
 62
253
  6
CONTINUOUS
 10
-1.4269141867
 20
25.6032746714
 11
-2.1658223656
 21
25.6059360446
  0
LINE
  5
82F
100
AcDbEntity
  8
RACCORDO
100
AcDbLine
 62
253
  6
CONTINUOUS
 10
3.5730858133
 20
25.6032746714
 11
2.8341776344
 21
25.6059360446
  0
LINE
  5
830
100
AcDbEntity
  8
RACCORDO
100
AcDbLine
 62
253
  6
CONTINUOUS
 10
8.5730858133
 20
25.6032746714
 11
7.8341776344
 21
25.6059360446
  0
LINE
  5
831
100
AcDbEntity
  8
RACCORDO
100
AcDbLine
 62
253
  6
CONTINUOUS
 10
-6.6359239576
 20
25.1035817296
 11
-7.5034249841
 21
25.1069801446
  0
LINE
  5
832
100
AcDbEntity
  8
RACCORDO
100
AcDbLine
 62
253
  6
CONTINUOUS
 10
-1.6359239576
 20
25.1035817296
 11
-2.5034249841
 21
25.1069801446
  0
LINE
  5
833
100
AcDbEntity
  8
RACCORDO
100
AcDbLine
 62
253
  6
CONTINUOUS
 10
3.3640760424
 20
25.1035817296
 11
2.4965750159
 21
25.1069801446
  0
LINE
  5
834
100
AcDbEntity
  8
RACCORDO
100
AcDbLine
 62
253
  6
CONTINUOUS
 10
8.3640760424
 20
25.1035817296
 11
7.4965750159
 21
25.1069801446
  0
LINE
  5
835
100
AcDbEntity
  8
SMUSSO
100
AcDbLine
 62
7
  6
CONTINUOUS
 10
12.7914537038
 20
25.6147341376
 11
13.3189536662
 21
25.6116938801
  0
LINE
  5
836
100
AcDbEntity
  8
SMUSSO
100
AcDbLine
 62
7
  6
CONTINUOUS
 10
-12.2207000746
 20
25.6148347583
 11
-11.692969297
 21
25.6117338361
  0
LINE
  5
837
100
AcDbEntity
  8
SMUSSO
100
AcDbLine
 62
7
  6
CONTINUOUS
 10
-7.2207000746
 20
25.6148347583
 11
-6.692969297
 21
25.6117338361
  0
LINE
  5
838
100
AcDbEntity
  8
SMUSSO
100
AcDbLine
 62
7
  6
CONTINUOUS
 10
-2.2207000746
 20
25.6148347583
 11
-1.692969297
 21
25.6117338361
  0
LINE
  5
839
100
AcDbEntity
  8
SMUSSO
100
AcDbLine
 62
7
  6
CONTINUOUS
 10
2.7792999254
 20
25.6148347583
 11
3.307030703
 21
25.6117338361
  0
LINE
  5
83A
100
AcDbEntity
  8
SMUSSO
100
AcDbLine
 62
7
  6
CONTINUOUS
 10
7.7792999254
 20
25.6148347583
 11
8.307030703
 21
25.6117338361
  0
LINE
  5
83B
100
AcDbEntity
  8
RACCORDO
100
AcDbLine
 62
253
  6
CONTINUOUS
 10
12.8380712798
 20
25.1051672685
 11
12.0255914636
 21
25.1106797141
  0
LINE
  5
83C
100
AcDbEntity
  8
RACCORDO
100
AcDbLine
 62
253
  6
CONTINUOUS
 10
-11.948205495
 20
25.6047396042
 11
-12.4903517178
 21
25.6084466292
  0
LINE
  5
83D
100
AcDbEntity
  8
RACCORDO
100
AcDbLine
 62
253
  6
CONTINUOUS
 10
12.9808547279
 20
25.6050905523
 11
12.4273941879
 21
25.6092374012
  0
LINE
  5
83E
100
AcDbEntity
  8
RACCORDO
100
AcDbLine
 62
253
  6
CONTINUOUS
 10
-12.2979156394
 20
25.1058100344
 11
-13.020671918
 21
25.1111375293
  0
LINE
  5
83F
100
AcDbEntity
  8
RACCORDO
100
AcDbLine
 62
253
  6
CONTINUOUS
 10
-8.4906119769
 20
25.1175912347
 11
-8.6437655672
 21
25.1187701145
  0
LINE
  5
840
100
AcDbEntity
  8
RACCORDO
100
AcDbLine
 62
253
  6
CONTINUOUS
 10
-3.4906119769
 20
25.1175912347
 11
-3.6437655672
 21
25.1187701145
  0
LINE
  5
841
100
AcDbEntity
  8
RACCORDO
100
AcDbLine
 62
253
  6
CONTINUOUS
 10
1.5093880231
 20
25.1175912347
 11
1.3562344328
 21
25.1187701145
  0
LINE
  5
842
100
AcDbEntity
  8
RACCORDO
100
AcDbLine
 62
253
  6
CONTINUOUS
 10
6.5093880231
 20
25.1175912347
 11
6.3562344328
 21
25.1187701145
  0
LINE
  5
843
100
AcDbEntity
  8
RACCORDO
100
AcDbLine
 62
253
  6
CONTINUOUS
 10
11.5093880231
 20
25.1175912347
 11
11.3562344328
 21
25.1187701145
  0
LWPOLYLINE
  5
844
100
AcDbEntity
  8
RACCORDO
100
AcDbPolyline
 62
253
  6
CONTINUOUS
 90
3
 70
0
 10
-7.5034249841
 20
25.1069801446
 10
-8.1230862478
 20
25.112193485
 10
-8.2632579541
 20
25.1138161695
  0
LWPOLYLINE
  5
845
100
AcDbEntity
  8
RACCORDO
100
AcDbPolyline
 62
253
  6
CONTINUOUS
 90
3
 70
0
 10
-2.5034249841
 20
25.1069801446
 10
-3.1230862478
 20
25.112193485
 10
-3.2632579541
 20
25.1138161695
  0
LWPOLYLINE
  5
846
100
AcDbEntity
  8
RACCORDO
100
AcDbPolyline
 62
253
  6
CONTINUOUS
 90
3
 70
0
 10
2.4965750159
 20
25.1069801446
 10
1.8769137522
 20
25.112193485
 10
1.7367420459
 20
25.1138161695
  0
LWPOLYLINE
  5
847
100
AcDbEntity
  8
RACCORDO
100
AcDbPolyline
 62
253
  6
CONTINUOUS
 90
3
 70
0
 10
7.4965750159
 20
25.1069801446
 10
6.8769137522
 20
25.112193485
 10
6.7367420459
 20
25.1138161695
  0
LINE
  5
848
100
AcDbEntity
  8
RACCORDO
100
AcDbLine
 62
253
  6
CONTINUOUS
 10
-8.0814516544
 20
25.6154995156
 11
-8.3934089673
 21
25.6180014422
  0
LINE
  5
849
100
AcDbEntity
  8
RACCORDO
100
AcDbLine
 62
253
  6
CONTINUOUS
 10
-3.0814516544
 20
25.6154995156
 11
-3.3934089673
 21
25.6180014422
  0
LINE
  5
84A
100
AcDbEntity
  8
RACCORDO
100
AcDbLine
 62
253
  6
CONTINUOUS
 10
1.9185483456
 20
25.6154995156
 11
1.6065910327
 21
25.6180014422
  0
LINE
  5
84B
100
AcDbEntity
  8
RACCORDO
100
AcDbLine
 62
253
  6
CONTINUOUS
 10
6.9185483456
 20
25.6154995156
 11
6.6065910327
 21
25.6180014422
  0
LINE
  5
84C
100
AcDbEntity
  8
RACCORDO
100
AcDbLine
 62
253
  6
CONTINUOUS
 10
11.9185483456
 20
25.6154995156
 11
11.6065910327
 21
25.6180014422
  0
LINE
  5
84D
100
AcDbEntity
  8
RACCORDO
100
AcDbLine
 62
253
  6
CONTINUOUS
 10
-7.1658223656
 20
25.6059360446
 11
-7.702416385
 21
25.6106278396
  0
LINE
  5
84E
100
AcDbEntity
  8
RACCORDO
100
AcDbLine
 62
253
  6
CONTINUOUS
 10
-2.1658223656
 20
25.6059360446
 11
-2.702416385
 21
25.6106278396
  0
LINE
  5
84F
100
AcDbEntity
  8
RACCORDO
100
AcDbLine
 62
253
  6
CONTINUOUS
 10
2.8341776344
 20
25.6059360446
 11
2.297583615
 21
25.6106278396
  0
LINE
  5
850
100
AcDbEntity
  8
RACCORDO
100
AcDbLine
 62
253
  6
CONTINUOUS
 10
7.8341776344
 20
25.6059360446
 11
7.297583615
 21
25.6106278396
  0
LINE
  5
851
100
AcDbEntity
  8
RACCORDO
100
AcDbLine
 62
253
  6
CONTINUOUS
 10
12.0255914636
 20
25.1106797141
 11
11.7367420459
 21
25.1138161695
  0
LINE
  5
852
100
AcDbEntity
  8
SMUSSO
100
AcDbLine
 62
7
  6
CONTINUOUS
 10
-12.5762697338
 20
25.6186523018
 11
-12.2207000746
 21
25.6148347583
  0
LINE
  5
853
100
AcDbEntity
  8
SMUSSO
100
AcDbLine
 62
7
  6
CONTINUOUS
 10
-7.5762697338
 20
25.6186523018
 11
-7.2207000746
 21
25.6148347583
  0
LINE
  5
854
100
AcDbEntity
  8
SMUSSO
100
AcDbLine
 62
7
  6
CONTINUOUS
 10
-2.5762697338
 20
25.6186523018
 11
-2.2207000746
 21
25.6148347583
  0
LINE
  5
855
100
AcDbEntity
  8
SMUSSO
100
AcDbLine
 62
7
  6
CONTINUOUS
 10
2.4237302662
 20
25.6186523018
 11
2.7792999254
 21
25.6148347583
  0
LINE
  5
856
100
AcDbEntity
  8
SMUSSO
100
AcDbLine
 62
7
  6
CONTINUOUS
 10
7.4237302662
 20
25.6186523018
 11
7.7792999254
 21
25.6148347583
  0
LINE
  5
857
100
AcDbEntity
  8
SMUSSO
100
AcDbLine
 62
7
  6
CONTINUOUS
 10
12.4300821103
 20
25.6185701731
 11
12.7914537038
 21
25.6147341376
  0
LINE
  5
858
100
AcDbEntity
  8
RACCORDO
100
AcDbLine
 62
253
  6
CONTINUOUS
 10
-12.4903517178
 20
25.6084466292
 11
-12.8937234847
 21
25.6130413263
  0
LINE
  5
859
100
AcDbEntity
  8
RACCORDO
100
AcDbLine
 62
253
  6
CONTINUOUS
 10
-7.702416385
 20
25.6106278396
 11
-8.0814516544
 21
25.6154995156
  0
LINE
  5
85A
100
AcDbEntity
  8
RACCORDO
100
AcDbLine
 62
253
  6
CONTINUOUS
 10
-2.702416385
 20
25.6106278396
 11
-3.0814516544
 21
25.6154995156
  0
LINE
  5
85B
100
AcDbEntity
  8
RACCORDO
100
AcDbLine
 62
253
  6
CONTINUOUS
 10
2.297583615
 20
25.6106278396
 11
1.9185483456
 21
25.6154995156
  0
LINE
  5
85C
100
AcDbEntity
  8
RACCORDO
100
AcDbLine
 62
253
  6
CONTINUOUS
 10
7.297583615
 20
25.6106278396
 11
6.9185483456
 21
25.6154995156
  0
LINE
  5
85D
100
AcDbEntity
  8
RACCORDO
100
AcDbLine
 62
253
  6
CONTINUOUS
 10
12.4273941879
 20
25.6092374012
 11
11.9185483456
 21
25.6154995156
  0
LINE
  5
85E
100
AcDbEntity
  8
RACCORDO
100
AcDbLine
 62
253
  6
CONTINUOUS
 10
-13.020671918
 20
25.1111375293
 11
-13.4545061732
 21
25.1163572763
  0
LINE
  5
85F
100
AcDbEntity
  8
RACCORDO
100
AcDbLine
 62
253
  6
CONTINUOUS
 10
-8.3942205788
 20
25.1163357205
 11
-8.4906119769
 21
25.1175912347
  0
LINE
  5
860
100
AcDbEntity
  8
RACCORDO
100
AcDbLine
 62
253
  6
CONTINUOUS
 10
-3.3942205788
 20
25.1163357205
 11
-3.4906119769
 21
25.1175912347
  0
LINE
  5
861
100
AcDbEntity
  8
RACCORDO
100
AcDbLine
 62
253
  6
CONTINUOUS
 10
1.6057794212
 20
25.1163357205
 11
1.5093880231
 21
25.1175912347
  0
LINE
  5
862
100
AcDbEntity
  8
RACCORDO
100
AcDbLine
 62
253
  6
CONTINUOUS
 10
6.6057794212
 20
25.1163357205
 11
6.5093880231
 21
25.1175912347
  0
LINE
  5
863
100
AcDbEntity
  8
RACCORDO
100
AcDbLine
 62
253
  6
CONTINUOUS
 10
11.6057794212
 20
25.1163357205
 11
11.5093880231
 21
25.1175912347
  0
LINE
  5
864
100
AcDbEntity
  8
RACCORDO
100
AcDbLine
 62
253
  6
CONTINUOUS
 10
-12.8937234847
 20
25.6130413263
 11
-13.1674136174
 21
25.6174198195
  0
LINE
  5
865
100
AcDbEntity
  8
SMUSSO
100
AcDbLine
 62
7
  6
CONTINUOUS
 10
12.1175427536
 20
25.6235866392
 11
12.4300821103
 21
25.6185701731
  0
LINE
  5
866
100
AcDbEntity
  8
RACCORDO
100
AcDbLine
 62
253
  6
CONTINUOUS
 10
-13.4545061732
 20
25.1163572763
 11
-13.7370438792
 21
25.1210382832
  0
LINE
  5
867
100
AcDbEntity
  8
SMUSSO
100
AcDbLine
 62
7
  6
CONTINUOUS
 10
-12.8843497604
 20
25.6236244944
 11
-12.5762697338
 21
25.6186523018
  0
LINE
  5
868
100
AcDbEntity
  8
SMUSSO
100
AcDbLine
 62
7
  6
CONTINUOUS
 10
-7.8843497604
 20
25.6236244944
 11
-7.5762697338
 21
25.6186523018
  0
LINE
  5
869
100
AcDbEntity
  8
SMUSSO
100
AcDbLine
 62
7
  6
CONTINUOUS
 10
-2.8843497604
 20
25.6236244944
 11
-2.5762697338
 21
25.6186523018
  0
LINE
  5
86A
100
AcDbEntity
  8
SMUSSO
100
AcDbLine
 62
7
  6
CONTINUOUS
 10
2.1156502396
 20
25.6236244944
 11
2.4237302662
 21
25.6186523018
  0
LINE
  5
86B
100
AcDbEntity
  8
SMUSSO
100
AcDbLine
 62
7
  6
CONTINUOUS
 10
7.1156502396
 20
25.6236244944
 11
7.4237302662
 21
25.6186523018
  0
LINE
  5
86C
100
AcDbEntity
  8
RACCORDO
100
AcDbLine
 62
253
  6
CONTINUOUS
 10
-13.1674136174
 20
25.6174198195
 11
-13.3405541757
 21
25.6209635804
  0
LWPOLYLINE
  5
86D
100
AcDbEntity
  8
RACCORDO
100
AcDbPolyline
 62
253
  6
CONTINUOUS
 90
3
 70
0
 10
-8.2632579541
 20
25.1138161695
 10
-8.304858999
 20
25.1147420811
 10
-8.3942205788
 20
25.1163357205
  0
LWPOLYLINE
  5
86E
100
AcDbEntity
  8
RACCORDO
100
AcDbPolyline
 62
253
  6
CONTINUOUS
 90
3
 70
0
 10
-3.2632579541
 20
25.1138161695
 10
-3.304858999
 20
25.1147420811
 10
-3.3942205788
 20
25.1163357205
  0
LWPOLYLINE
  5
86F
100
AcDbEntity
  8
RACCORDO
100
AcDbPolyline
 62
253
  6
CONTINUOUS
 90
3
 70
0
 10
1.7367420459
 20
25.1138161695
 10
1.695141001
 20
25.1147420811
 10
1.6057794212
 20
25.1163357205
  0
LWPOLYLINE
  5
870
100
AcDbEntity
  8
RACCORDO
100
AcDbPolyline
 62
253
  6
CONTINUOUS
 90
3
 70
0
 10
6.7367420459
 20
25.1138161695
 10
6.695141001
 20
25.1147420811
 10
6.6057794212
 20
25.1163357205
  0
LWPOLYLINE
  5
871
100
AcDbEntity
  8
RACCORDO
100
AcDbPolyline
 62
253
  6
CONTINUOUS
 90
3
 70
0
 10
11.7367420459
 20
25.1138161695
 10
11.695141001
 20
25.1147420811
 10
11.6057794212
 20
25.1163357205
  0
LINE
  5
872
100
AcDbEntity
  8
RACCORDO
100
AcDbLine
 62
253
  6
CONTINUOUS
 10
-13.7370438792
 20
25.1210382832
 11
-13.914530312
 21
25.1248000669
  0
LINE
  5
873
100
AcDbEntity
  8
RACCORDO
100
AcDbLine
 62
253
  6
CONTINUOUS
 10
-13.3405541757
 20
25.6209635804
 11
-13.4894474028
 21
25.6247257466
  0
LINE
  5
874
100
AcDbEntity
  8
RACCORDO
100
AcDbLine
 62
253
  6
CONTINUOUS
 10
-13.914530312
 20
25.1248000669
 11
-14.0658600973
 21
25.1288206736
  0
LINE
  5
875
100
AcDbEntity
  8
RACCORDO
100
AcDbLine
 62
253
  6
CONTINUOUS
 10
-13.4894474028
 20
25.6247257466
 11
-13.5765396026
 21
25.6273759882
  0
LINE
  5
876
100
AcDbEntity
  8
RACCORDO
100
AcDbLine
 62
253
  6
CONTINUOUS
 10
-14.0658600973
 20
25.1288206736
 11
-14.1520965913
 21
25.1316560798
  0
LWPOLYLINE
  5
877
100
AcDbEntity
  8
RACCORDO
100
AcDbPolyline
 62
253
  6
CONTINUOUS
 90
13
 70
0
 10
-13.5765396026
 20
25.6273759882
 10
-13.6538315238
 20
25.6301490241
 10
-13.6887965134
 20
25.6315825561
 10
-13.7211054006
 20
25.6330496973
 10
-13.7508043102
 20
25.6345504718
 10
-13.7778471175
 20
25.6360848554
 10
-13.801910279
 20
25.6376550693
 10
-13.8230461799
 20
25.6392612872
 10
-13.8412024351
 20
25.6409033354
 10
-13.855898346
 20
25.6425829138
 10
-13.8669736798
 20
25.6443005891
 10
-13.8745886693
 20
25.6460557945
 10
-13.8787433145
 20
25.6478485302
  0
LWPOLYLINE
  5
878
100
AcDbEntity
  8
RACCORDO
100
AcDbPolyline
 62
253
  6
CONTINUOUS
 90
22
 70
0
 10
19.4652749863
 20
24.3426605487
 10
19.4852639188
 20
24.3418684067
 10
19.5051367323
 20
24.3391340338
 10
19.5246993119
 20
24.33446477
 10
19.543768488
 20
24.3278880664
 10
19.5621393676
 20
24.3194490317
 10
19.5795902275
 20
24.3092164023
 10
19.5959597728
 20
24.2972663571
 10
19.6110543589
 20
24.2837201172
 10
19.6246381565
 20
24.2687671782
 10
19.6365743905
 20
24.2525812182
 10
19.6467678403
 20
24.2353228833
 10
19.6551006902
 20
24.2172048799
 10
19.6615006332
 20
24.1984549189
 10
19.6659490887
 20
24.1792323602
 10
19.6684277553
 20
24.1596527418
 10
19.6689125233
 20
24.1399141927
 10
19.667403755
 20
24.1202024637
 10
19.6638972152
 20
24.1006133957
 10
19.6583892137
 20
24.0813127551
 10
19.6509097242
 20
24.062531822
 10
19.6415058854
 20
24.0444684276
  0
LWPOLYLINE
  5
879
100
AcDbEntity
  8
RACCORDO
100
AcDbPolyline
 62
253
  6
CONTINUOUS
 90
10
 70
0
 10
-14.1520965913
 20
25.1316560798
 10
-14.2261161059
 20
25.1346236207
 10
-14.2582414167
 20
25.1361578054
 10
-14.2870207644
 20
25.137727805
 10
-14.3122547482
 20
25.1393336041
 10
-14.3337548946
 20
25.1409752181
 10
-14.3513961296
 20
25.142654907
 10
-14.3649439936
 20
25.144373424
 10
-14.3741177844
 20
25.1461300159
 10
-14.3786671621
 20
25.1479246826
  0
LWPOLYLINE
  5
87A
100
AcDbEntity
  8
RACCORDO
100
AcDbPolyline
 62
253
  6
CONTINUOUS
 90
22
 70
0
 10
19.4204204398
 20
24.5426300877
 10
19.4582674886
 20
24.5407685589
 10
19.4951624715
 20
24.5351179531
 10
19.5311075427
 20
24.5256782704
 10
19.5664806768
 20
24.5123097159
 10
19.6009074082
 20
24.4951520845
 10
19.6332731771
 20
24.4746247604
 10
19.6635640566
 20
24.4505628628
 10
19.6918247951
 20
24.4231312724
 10
19.7170496303
 20
24.3932440157
 10
19.7391175186
 20
24.3608255989
 10
19.7581950509
 20
24.3259515158
 10
19.7737185897
 20
24.2897622733
 10
19.7855753821
 20
24.2523001539
 10
19.7939133372
 20
24.2135228752
 10
19.7985583183
 20
24.1744440972
 10
19.7994489216
 20
24.1350751736
 10
19.7966543116
 20
24.0954047507
 10
19.7901892007
 20
24.0564124278
 10
19.7800508879
 20
24.0184247379
 10
19.7662193909
 20
23.981115148
 10
19.7486762924
 20
23.9444836581
  0
LWPOLYLINE
  5
87B
100
AcDbEntity
  8
RACCORDO
100
AcDbPolyline
 62
253
  6
CONTINUOUS
 90
5
 70
0
 10
21.9256935738
 20
23.1014845488
 10
21.9497444565
 20
23.099806499
 10
21.9675290218
 20
23.0992180148
 10
21.9791872021
 20
23.0998518048
 10
21.984736913
 20
23.1017930312
  0
LWPOLYLINE
  5
87C
100
AcDbEntity
  8
RACCORDO
100
AcDbPolyline
 62
253
  6
CONTINUOUS
 90
13
 70
0
 10
21.5284402815
 20
23.1183722175
 10
21.5064102227
 20
23.1203012164
 10
21.484752554
 20
23.1255792208
 10
21.4638335193
 20
23.1341169766
 10
21.444006872
 20
23.1457701058
 10
21.4256078925
 20
23.1603415477
 10
21.4089477186
 20
23.1775848911
 10
21.3943080839
 20
23.1972085416
 10
21.3819365537
 20
23.2188806526
 10
21.3720423383
 20
23.2422347368
 10
21.3647927553
 20
23.2668758638
 10
21.3603104
 20
23.2923873386
 10
21.3586710727
 20
23.3183377482
  0
LWPOLYLINE
  5
87D
100
AcDbEntity
  8
RACCORDO
100
AcDbPolyline
 62
253
  6
CONTINUOUS
 90
7
 70
0
 10
21.6558695992
 20
23.3085858661
 10
21.7364654534
 20
23.3010897612
 10
21.7673977302
 20
23.2978438024
 10
21.7919347387
 20
23.2957405139
 10
21.8100763375
 20
23.2950657616
 10
21.8218944195
 20
23.2955336795
 10
21.8274362525
 20
23.2971442678
  0
LWPOLYLINE
  5
87E
100
AcDbEntity
  8
SMUSSO
100
AcDbPolyline
 62
7
  6
CONTINUOUS
 90
11
 70
0
 10
1.5711805064
 20
25.6479551772
 10
1.5774775719
 20
25.6456017613
 10
1.592556608
 20
25.6432579978
 10
1.6164176146
 20
25.6409238868
 10
1.6491235122
 20
25.6385851745
 10
1.6906113804
 20
25.6362561148
 10
1.7406924578
 20
25.6339794684
 10
1.7996374356
 20
25.6317568759
 10
1.8671756226
 20
25.6295866968
 10
1.9423061836
 20
25.6275067705
 10
2.1156502396
 20
25.6236244944
  0
LWPOLYLINE
  5
87F
100
AcDbEntity
  8
SMUSSO
100
AcDbPolyline
 62
7
  6
CONTINUOUS
 90
11
 70
0
 10
6.5711805064
 20
25.6479551772
 10
6.5774775719
 20
25.6456017613
 10
6.592556608
 20
25.6432579978
 10
6.6164176146
 20
25.6409238868
 10
6.6491235122
 20
25.6385851745
 10
6.6906113804
 20
25.6362561148
 10
6.7406924578
 20
25.6339794684
 10
6.7996374356
 20
25.6317568759
 10
6.8671756226
 20
25.6295866968
 10
6.9423061836
 20
25.6275067705
 10
7.1156502396
 20
25.6236244944
  0
LINE
  5
880
100
AcDbEntity
  8
RACCORDO
100
AcDbLine
 62
253
  6
CONTINUOUS
 10
23.7243845452
 20
11.1146475436
 11
23.821301301
 21
11.0177307878
  0
LINE
  5
881
100
AcDbEntity
  8
RACCORDO
100
AcDbLine
 62
253
  6
CONTINUOUS
 10
23.9243540842
 20
11.3146170826
 11
24.0212704825
 21
11.2177006843
  0
LINE
  5
882
100
AcDbEntity
  8
SMUSSO
100
AcDbLine
 62
7
  6
CONTINUOUS
 10
11.4743388607
 20
25.7447968229
 11
11.5711805064
 21
25.6479551772
  0
LWPOLYLINE
  5
883
100
AcDbEntity
  8
RACCORDO
100
AcDbPolyline
 62
253
  6
CONTINUOUS
 90
12
 70
0
 10
23.821301301
 20
11.0177307878
 10
23.8228242103
 20
11.0154942574
 10
23.8244074087
 20
11.0094838054
 10
23.8260508961
 20
10.999699432
 10
23.8277576457
 20
10.9865506839
 10
23.8295246844
 20
10.9696280143
 10
23.8313430924
 20
10.9477027824
 10
23.8332149219
 20
10.920799973
 10
23.8351381206
 20
10.8888946013
 10
23.8370976122
 20
10.8506830728
 10
23.8390960973
 20
10.8061541957
 10
23.8411308751
 20
10.7553191619
  0
LINE
  5
884
100
AcDbEntity
  8
RACCORDO
100
AcDbLine
 62
253
  6
CONTINUOUS
 10
17.0150113279
 20
23.2911611987
 11
16.639680893
 21
23.9412525816
  0
LINE
  5
885
100
AcDbEntity
  8
RACCORDO
100
AcDbLine
 62
253
  6
CONTINUOUS
 10
17.1881900287
 20
23.3911459682
 11
16.8128595937
 21
24.0412373511
  0
LINE
  5
886
100
AcDbEntity
  8
RACCORDO
100
AcDbLine
 62
253
  6
CONTINUOUS
 10
17.6651769076
 20
22.7221967102
 11
16.949012861
 21
23.9626292256
  0
LWPOLYLINE
  5
887
100
AcDbEntity
  8
RACCORDO
100
AcDbPolyline
 62
253
  6
CONTINUOUS
 90
22
 70
0
 10
16.8128595937
 20
24.0412373511
 10
16.803698066
 20
24.0590934793
 10
16.7963816694
 20
24.0777395163
 10
16.7909735085
 20
24.0969852094
 10
16.7875183012
 20
24.1166247874
 10
16.7860363709
 20
24.1364723178
 10
16.7865349452
 20
24.1563645331
 10
16.7890109009
 20
24.176117217
 10
16.7934394737
 20
24.1955223119
 10
16.7997753758
 20
24.2143840787
 10
16.8079524492
 20
24.2325121091
 10
16.8178896649
 20
24.2497323705
 10
16.8294939999
 20
24.2658834491
 10
16.8426553571
 20
24.2808078454
 10
16.8572422076
 20
24.294352984
 10
16.8731082687
 20
24.3063818119
 10
16.890085032
 20
24.3167679476
 10
16.9080154515
 20
24.3254168165
 10
16.9267580283
 20
24.3322536675
 10
16.9461430131
 20
24.3372018651
 10
16.9659686659
 20
24.3401952096
 10
16.9860382945
 20
24.3411916596
  0
LWPOLYLINE
  5
888
100
AcDbEntity
  8
RACCORDO
100
AcDbPolyline
 62
253
  6
CONTINUOUS
 90
22
 70
0
 10
16.639680893
 20
23.9412525816
 10
16.6212632579
 20
23.9775613994
 10
16.6067135807
 20
24.0146828365
 10
16.5960318613
 20
24.0526168931
 10
16.5891992819
 20
24.0917328085
 10
16.5862346603
 20
24.1316613433
 10
16.5871944502
 20
24.1712947793
 10
16.5921853486
 20
24.2106460952
 10
16.6011006586
 20
24.2497023124
 10
16.6136767421
 20
24.2873167768
 10
16.6300163193
 20
24.3234405143
 10
16.6500166701
 20
24.358122499
 10
16.6731059963
 20
24.3903629992
 10
16.6993816634
 20
24.420099341
 10
16.7287463059
 20
24.4473941981
 10
16.7603360294
 20
24.4714358608
 10
16.7941900906
 20
24.4921235414
 10
16.8302692329
 20
24.5095580275
 10
16.8675917909
 20
24.5232299711
 10
16.905830543
 20
24.5329695895
 10
16.9453127108
 20
24.5389466654
 10
16.9860382945
 20
24.5411611987
  0
LWPOLYLINE
  5
889
100
AcDbEntity
  8
RACCORDO
100
AcDbPolyline
 62
253
  6
CONTINUOUS
 90
11
 70
0
 10
24.0212705072
 20
11.2177006842
 10
24.0227953316
 20
11.2146185568
 10
24.024379964
 20
11.2083011202
 10
24.0260244044
 20
11.1983530236
 10
24.0277314742
 20
11.1843759378
 10
24.0294983521
 20
11.165949897
 10
24.0313165731
 20
11.1426157962
 10
24.033188348
 20
11.1139250628
 10
24.035111466
 20
11.0794307857
 10
24.0370708311
 20
11.0386392336
 10
24.0390691473
 20
10.9910858095
  0
LWPOLYLINE
  5
88A
100
AcDbEntity
  8
RACCORDO
100
AcDbPolyline
 62
253
  6
CONTINUOUS
 90
16
 70
0
 10
17.2857262528
 20
23.334833403
 10
17.2979365041
 20
23.3097650567
 10
17.3065401847
 20
23.2832392808
 10
17.311369918
 20
23.2557721097
 10
17.312331746
 20
23.2278978918
 10
17.3094069573
 20
23.2001588943
 10
17.3026524509
 20
23.1730947535
 10
17.2921996295
 20
23.1472319772
 10
17.278251843
 20
23.1230737017
 10
17.2610804325
 20
23.1010899041
 10
17.2410194519
 20
23.0817082588
 10
17.218459169
 20
23.0653058179
 10
17.1938384734
 20
23.0522016759
 10
17.1676363382
 20
23.0426507617
 10
17.1403625015
 20
23.0368388797
 10
17.1125475507
 20
23.0348790945
  0
LWPOLYLINE
  5
88B
100
AcDbEntity
  8
RACCORDO
100
AcDbPolyline
 62
253
  6
CONTINUOUS
 90
13
 70
0
 10
21.984736913
 20
23.1017930312
 10
21.9629883285
 20
23.10785407
 10
21.9420607641
 20
23.1163276696
 10
21.922220948
 20
23.1271058313
 10
21.9037217447
 20
23.1400511841
 10
21.8867989321
 20
23.1549987357
 10
21.8716681963
 20
23.1717579749
 10
21.8585223832
 20
23.1901153004
 10
21.8475290401
 20
23.2098367423
 10
21.8388282804
 20
23.2306709449
 10
21.8325309981
 20
23.2523523703
 10
21.8287174539
 20
23.2746046819
 10
21.8274362525
 20
23.2971442674
  0
LWPOLYLINE
  5
88C
100
AcDbEntity
  8
RACCORDO
100
AcDbPolyline
 62
253
  6
CONTINUOUS
 90
12
 70
0
 10
19.4361031837
 20
23.092545789
 10
19.4288209325
 20
23.0946443358
 10
19.4236432333
 20
23.1000649174
 10
19.4197813523
 20
23.1087341118
 10
19.415404076
 20
23.1204271011
 10
19.4101521582
 20
23.1349820099
 10
19.405891413
 20
23.1523052084
 10
19.4025645054
 20
23.1719597223
 10
19.3990607898
 20
23.1934958016
 10
19.3965029227
 20
23.2167671507
 10
19.3951376038
 20
23.2414202098
 10
19.3930147388
 20
23.2925153281
  0
LWPOLYLINE
  5
88D
100
AcDbEntity
  8
SMUSSO
100
AcDbPolyline
 62
7
  6
CONTINUOUS
 90
11
 70
0
 10
11.5711805064
 20
25.6479551772
 10
11.5776319244
 20
25.6455849024
 10
11.5928490949
 20
25.6432291462
 10
11.6168320178
 20
25.6408879086
 10
11.6496405848
 20
25.6385486592
 10
11.6912149043
 20
25.6362239283
 10
11.7413753017
 20
25.6339513076
 10
11.8003271939
 20
25.6317317672
 10
11.867865164
 20
25.629564337
 10
11.9431932864
 20
25.6274836978
 10
12.1175427536
 20
25.6235866392
  0
LINE
  5
88E
100
AcDbEntity
  8
RACCORDO
100
AcDbLine
 62
253
  6
CONTINUOUS
 10
17.1125447293
 20
23.0348807241
 11
17.0150113279
 21
23.0911916596
  0
LINE
  5
88F
100
AcDbEntity
  8
RACCORDO
100
AcDbLine
 62
253
  6
CONTINUOUS
 10
17.2857262528
 20
23.334833403
 11
17.1881900287
 21
23.3911459682
  0
LINE
  5
890
100
AcDbEntity
  8
RACCORDO
100
AcDbLine
 62
253
  6
CONTINUOUS
 10
18.7835904595
 20
22.7221937158
 11
18.6104110805
 21
22.8221782787
  0
LWPOLYLINE
  5
891
100
AcDbEntity
  8
RACCORDO
100
AcDbPolyline
 62
253
  6
CONTINUOUS
 90
7
 70
0
 10
17.1963631407
 20
22.9255241626
 10
17.1736475714
 20
22.9573128904
 10
17.1542559916
 20
22.9838030651
 10
17.1384256025
 20
23.0048793842
 10
17.126235471
 20
23.0204558782
 10
17.1176065301
 20
23.0304707975
 10
17.1125387798
 20
23.0348807212
  0
LINE
  5
892
100
AcDbEntity
  8
RACCORDO
100
AcDbLine
 62
253
  6
CONTINUOUS
 10
17.2515739116
 20
22.846871382
 11
17.1963631407
 21
22.9255241626
  0
LINE
  5
893
100
AcDbEntity
  8
RACCORDO
100
AcDbLine
 62
253
  6
CONTINUOUS
 10
17.3202829873
 20
22.7473172535
 11
17.2515739116
 21
22.846871382
  0
LINE
  5
894
100
AcDbEntity
  8
RACCORDO
100
AcDbLine
 62
253
  6
CONTINUOUS
 10
17.4024476639
 20
22.6268275088
 11
17.3202829873
 21
22.7473172535
  0
LINE
  5
895
100
AcDbEntity
  8
RACCORDO
100
AcDbLine
 62
253
  6
CONTINUOUS
 10
17.5502103137
 20
22.4076868061
 11
17.4024476639
 21
22.6268275088
  0
LWPOLYLINE
  5
896
100
AcDbEntity
  8
RACCORDO
100
AcDbPolyline
 62
253
  6
CONTINUOUS
 90
3
 70
0
 10
18.1270430081
 20
21.535101676
 10
17.9202960833
 20
21.8506923458
 10
17.5502103137
 20
22.4076868061
  0
LWPOLYLINE
  5
897
100
AcDbEntity
  8
RACCORDO
100
AcDbPolyline
 62
253
  6
CONTINUOUS
 90
8
 70
0
 10
17.3814082709
 20
23.1919147504
 10
17.3588803556
 20
23.2278369717
 10
17.3391468616
 20
23.2588390889
 10
17.3222815893
 20
23.2848030786
 10
17.3084866783
 20
23.3054158171
 10
17.2978295085
 20
23.3205729301
 10
17.2902427
 20
23.3303787921
 10
17.2857262528
 20
23.334833403
  0
LINE
  5
898
100
AcDbEntity
  8
RACCORDO
100
AcDbLine
 62
253
  6
CONTINUOUS
 10
17.4350880279
 20
23.1049149782
 11
17.3814082709
 21
23.1919147504
  0
LINE
  5
899
100
AcDbEntity
  8
RACCORDO
100
AcDbLine
 62
253
  6
CONTINUOUS
 10
17.5003519294
 20
22.9975522956
 11
17.4350880279
 21
23.1049149782
  0
LWPOLYLINE
  5
89A
100
AcDbEntity
  8
RACCORDO
100
AcDbPolyline
 62
253
  6
CONTINUOUS
 90
3
 70
0
 10
17.6651769076
 20
22.7221967102
 10
17.6196901946
 20
22.7986083486
 10
17.5003519294
 20
22.9975522956
  0
LINE
  5
89B
100
AcDbEntity
  8
RACCORDO
100
AcDbLine
 62
253
  6
CONTINUOUS
 10
17.8383554291
 20
22.8221817
 11
17.1221915113
 21
24.0626139937
  0
LWPOLYLINE
  5
89C
100
AcDbEntity
  8
RACCORDO
100
AcDbPolyline
 62
253
  6
CONTINUOUS
 90
13
 70
0
 10
19.4652749864
 20
24.342661583
 10
19.4594825322
 20
24.3447743869
 10
19.4537870316
 20
24.350199798
 10
19.4482838372
 20
24.3588469823
 10
19.4430650821
 20
24.3705711652
 10
19.438218137
 20
24.3851760564
 10
19.4338241481
 20
24.4024171354
 10
19.4299566778
 20
24.4220057458
 10
19.4266804737
 20
24.443613928
 10
19.4240503842
 20
24.4668799101
 10
19.4221104406
 20
24.4914141644
 10
19.4208931195
 20
24.5168059296
 10
19.4204187993
 20
24.5426300876
  0
LINE
  5
89D
100
AcDbEntity
  8
RACCORDO
100
AcDbLine
 62
253
  6
CONTINUOUS
 10
16.949012861
 20
23.9626292256
 11
16.8128595937
 21
24.0412373511
  0
LINE
  5
89E
100
AcDbEntity
  8
RACCORDO
100
AcDbLine
 62
253
  6
CONTINUOUS
 10
17.1221915642
 20
24.2625835328
 11
16.9860382945
 21
24.3411916596
  0
LINE
  5
89F
100
AcDbEntity
  8
RACCORDO
100
AcDbLine
 62
253
  6
CONTINUOUS
 10
19.3265775262
 20
24.0626139937
 11
19.499756227
 21
23.9626292242
  0
LWPOLYLINE
  5
8A0
100
AcDbEntity
  8
RACCORDO
100
AcDbPolyline
 62
253
  6
CONTINUOUS
 90
3
 70
0
 10
19.3392735532
 20
23.3267111204
 10
19.3746073723
 20
23.3045306821
 10
19.3930147388
 20
23.2925153281
  0
LWPOLYLINE
  5
8A1
100
AcDbEntity
  8
RACCORDO
100
AcDbPolyline
 62
253
  6
CONTINUOUS
 90
7
 70
0
 10
19.2651549911
 20
23.3843770748
 10
19.2771371251
 20
23.3735127872
 10
19.2857650699
 20
23.3655024722
 10
19.2967118259
 20
23.3569588374
 10
19.3095262581
 20
23.347818112
 10
19.3235697035
 20
23.3374455981
 10
19.3392735532
 20
23.3267111204
  0
CIRCLE
  5
8A2
100
AcDbEntity
  8
DRAFT
100
AcDbCircle
 62
7
  6
CONTINUOUS
 10
-21.2756154548
 20
16.3146170826
 40
1.4738174026
  0
CIRCLE
  5
8A3
100
AcDbEntity
  8
DRAFT
100
AcDbCircle
 62
7
  6
CONTINUOUS
 10
3.7243845452
 20
-21.6853829174
 40
1.4738174026
  0
ELLIPSE
  5
8A4
100
AcDbEntity
  8
0
100
AcDbEllipse
 62
7
  6
CONTINUOUS
 10
21.7240798891
 20
21.3143124265
 30
0.0
 11
-1.4146443783
 21
-1.4146443783
 31
0.0
 40
0.9996954599
 41
8.6395320906
 42
10.0982317394
  0
ELLIPSE
  5
8A5
100
AcDbEntity
  8
RACCORDO
100
AcDbEllipse
 62
7
  6
CONTINUOUS
 10
23.9244150108
 20
-4.885413383
 30
0.0
 11
0.1414644378
 21
-0.1414644378
 31
0.0
 40
0.9996954599
 41
2.3563467836
 42
3.9268385237
  0
ELLIPSE
  5
8A6
100
AcDbEntity
  8
RACCORDO
100
AcDbEllipse
 62
7
  6
CONTINUOUS
 10
21.7240798891
 20
-14.6850782613
 30
0.0
 11
-1.4146443783
 21
1.4146443783
 31
0.0
 40
0.9996954599
 41
8.6395320906
 42
10.2100238309
  0
ELLIPSE
  5
8A7
100
AcDbEntity
  8
RACCORDO
100
AcDbEllipse
 62
7
  6
CONTINUOUS
 10
-16.4756459204
 20
11.5146475482
 30
0.0
 11
0.1414644378
 21
-0.1414644378
 31
0.0
 40
0.9996954599
 41
-0.78524587
 42
0.7852458701
  0
ELLIPSE
  5
8A8
100
AcDbEntity
  8
0
100
AcDbEllipse
 62
7
  6
CONTINUOUS
 10
-14.2753107987
 20
21.3143124265
 30
0.0
 11
1.4146443783
 21
-1.4146443783
 31
0.0
 40
0.9996954599
 41
8.7513241822
 42
10.2100238309
  0
ELLIPSE
  5
8A9
100
AcDbEntity
  8
RACCORDO
100
AcDbEllipse
 62
7
  6
CONTINUOUS
 10
23.9244150108
 20
11.5146475482
 30
0.0
 11
0.1414644378
 21
0.1414644378
 31
0.0
 40
0.9996954599
 41
-3.9268385237
 42
-2.3563467836
  0
ELLIPSE
  5
8AA
100
AcDbEntity
  8
RACCORDO
100
AcDbEllipse
 62
7
  6
CONTINUOUS
 10
-16.4756459204
 20
-4.885413383
 30
0.0
 11
0.1414644378
 21
0.1414644378
 31
0.0
 40
0.9996954599
 41
-0.7852458701
 42
0.78524587
  0
ELLIPSE
  5
8AB
100
AcDbEntity
  8
RACCORDO
100
AcDbEllipse
 62
7
  6
CONTINUOUS
 10
-17.6883401302
 20
7.7272655939
 30
0.0
 11
0.0
 21
0.5
 31
0.0
 40
0.0174550649
 41
-1.5707963268
 42
-0.0174532925
  0
ELLIPSE
  5
8AC
100
AcDbEntity
  8
RACCORDO
100
AcDbEllipse
 62
7
  6
CONTINUOUS
 10
-16.3628907794
 20
7.7272655939
 30
0.0
 11
0.0
 21
0.5
 31
0.0
 40
0.0174550649
 41
0.0174532925
 42
1.5707963268
  0
ELLIPSE
  5
8AD
100
AcDbEntity
  8
RACCORDO
100
AcDbEllipse
 62
7
  6
CONTINUOUS
 10
-16.3628907794
 20
-1.0980314287
 30
0.0
 11
0.0
 21
0.5
 31
0.0
 40
0.0174550649
 41
-4.7123889804
 42
-3.1590459461
  0
ELLIPSE
  5
8AE
100
AcDbEntity
  8
RACCORDO
100
AcDbEllipse
 62
7
  6
CONTINUOUS
 10
-17.6883401302
 20
-1.0980314287
 30
0.0
 11
0.0
 21
0.5
 31
0.0
 40
0.0174550649
 41
-3.1241393611
 42
-1.5707963268
  0
ELLIPSE
  5
8AF
100
AcDbEntity
  8
RACCORDO
100
AcDbEllipse
 62
7
  6
CONTINUOUS
 10
25.1371092206
 20
-1.0980314287
 30
0.0
 11
0.0
 21
0.5
 31
0.0
 40
0.0174550649
 41
-4.7123889804
 42
-3.1590459461
  0
ELLIPSE
  5
8B0
100
AcDbEntity
  8
RACCORDO
100
AcDbEllipse
 62
7
  6
CONTINUOUS
 10
23.8116598698
 20
-1.0980314287
 30
0.0
 11
0.0
 21
0.5
 31
0.0
 40
0.0174550649
 41
-3.1241393611
 42
-1.5707963268
  0
ELLIPSE
  5
8B1
100
AcDbEntity
  8
RACCORDO
100
AcDbEllipse
 62
7
  6
CONTINUOUS
 10
23.8116598698
 20
7.7272655939
 30
0.0
 11
0.0
 21
0.5
 31
0.0
 40
0.0174550649
 41
-1.5707963268
 42
-0.0174532925
  0
ELLIPSE
  5
8B2
100
AcDbEntity
  8
RACCORDO
100
AcDbEllipse
 62
7
  6
CONTINUOUS
 10
25.1371092206
 20
7.7272655939
 30
0.0
 11
0.0
 21
0.5
 31
0.0
 40
0.0174550649
 41
0.0174532925
 42
1.5707963268
  0
ELLIPSE
  5
8B3
100
AcDbEntity
  8
RACCORDO
100
AcDbEllipse
 62
7
  6
CONTINUOUS
 10
23.9244150108
 20
11.114586617
 30
0.0
 11
-0.1414644378
 21
0.1414644378
 31
0.0
 40
0.9996954599
 41
-0.78524587
 42
0.7852458701
  0
ELLIPSE
  5
8B4
100
AcDbEntity
  8
RACCORDO
100
AcDbEllipse
 62
7
  6
CONTINUOUS
 10
-16.4756459204
 20
-4.4853524518
 30
0.0
 11
0.1414644378
 21
-0.1414644378
 31
0.0
 40
0.9996954599
 41
-0.78524587
 42
0.7852458701
  0
ELLIPSE
  5
8B5
100
AcDbEntity
  8
RACCORDO
100
AcDbEllipse
 62
7
  6
CONTINUOUS
 10
21.0243540796
 20
-16.4853524518
 30
0.0
 11
0.1414644378
 21
-0.1414644378
 31
0.0
 40
0.9996954599
 41
-0.1301103355
 42
0.0747198401
  0
ELLIPSE
  5
8B6
100
AcDbEntity
  8
RACCORDO
100
AcDbEllipse
 62
7
  6
CONTINUOUS
 10
21.0243540796
 20
-16.4853524518
 30
0.0
 11
-0.1414644378
 21
0.1414644378
 31
0.0
 40
0.9996954599
 41
-3.9268385144
 42
-3.2717029891
  0
ELLIPSE
  5
8B7
100
AcDbEntity
  8
RACCORDO
100
AcDbEllipse
 62
7
  6
CONTINUOUS
 10
-13.5755849892
 20
-16.4853524518
 30
0.0
 11
0.1414644378
 21
0.1414644378
 31
0.0
 40
0.9996954599
 41
-3.2163124937
 42
-2.3563467936
  0
ELLIPSE
  5
8B8
100
AcDbEntity
  8
RACCORDO
100
AcDbEllipse
 62
7
  6
CONTINUOUS
 10
23.9244150108
 20
-4.4853524518
 30
0.0
 11
0.1414644378
 21
0.1414644378
 31
0.0
 40
0.9996954599
 41
-3.9268385237
 42
-2.3563467836
  0
ELLIPSE
  5
8B9
100
AcDbEntity
  8
RACCORDO
100
AcDbEllipse
 62
7
  6
CONTINUOUS
 10
-16.4756459204
 20
11.114586617
 30
0.0
 11
0.1414644378
 21
0.1414644378
 31
0.0
 40
0.9996954599
 41
-0.7852458701
 42
0.78524587
  0
ELLIPSE
  5
8BA
100
AcDbEntity
  8
RACCORDO
100
AcDbEllipse
 62
7
  6
CONTINUOUS
 10
-14.2753107987
 20
21.3143124265
 30
0.0
 11
1.4146443783
 21
-1.4146443783
 31
0.0
 40
0.9996954599
 41
2.4914979338
 42
3.9268385237
  0
ELLIPSE
  5
8BB
100
AcDbEntity
  8
RACCORDO
100
AcDbEllipse
 62
7
  6
CONTINUOUS
 10
-14.6756459204
 20
23.394153487
 30
0.0
 11
0.1414644378
 21
-0.1414644378
 31
0.0
 40
0.9996954599
 41
5.7129695839
 42
7.0684311773
  0
ELLIPSE
  5
8BC
100
AcDbEntity
  8
RACCORDO
100
AcDbEllipse
 62
7
  6
CONTINUOUS
 10
-14.2753107987
 20
-14.6850782613
 30
0.0
 11
1.4146443783
 21
1.4146443783
 31
0.0
 40
0.9996954599
 41
-3.9268385237
 42
-2.3563467834
  0
ELLIPSE
  5
8BD
100
AcDbEntity
  8
RACCORDO
100
AcDbEllipse
 62
7
  6
CONTINUOUS
 10
21.7240798891
 20
21.3143124265
 30
0.0
 11
1.4146443783
 21
1.4146443783
 31
0.0
 40
0.9996954599
 41
-0.7852458701
 42
0.6500947198
  0
ELLIPSE
  5
8BE
100
AcDbEntity
  8
RACCORDO
100
AcDbEllipse
 62
7
  6
CONTINUOUS
 10
21.7240798891
 20
-14.6850782613
 30
0.0
 11
1.4146443783
 21
-1.4146443783
 31
0.0
 40
0.9996954599
 41
-0.7852458701
 42
0.7852458701
  0
ELLIPSE
  5
8BF
100
AcDbEntity
  8
RACCORDO
100
AcDbEllipse
 62
7
  6
CONTINUOUS
 10
22.1244150108
 20
23.394153487
 30
0.0
 11
0.1414644378
 21
0.1414644378
 31
0.0
 40
0.9996954599
 41
8.6395320906
 42
9.994993684
  0
ELLIPSE
  5
8C0
100
AcDbEntity
  8
RACCORDO
100
AcDbEllipse
 62
7
  6
CONTINUOUS
 10
21.4537548748
 20
-2.6679225327
 30
0.0
 11
0.5
 21
0.0
 31
0.0
 40
0.0349207695
 41
-1.5707963268
 42
-0.0174532925
  0
ELLIPSE
  5
8C1
100
AcDbEntity
  8
RACCORDO
100
AcDbEllipse
 62
7
  6
CONTINUOUS
 10
21.4537548748
 20
1.2971566978
 30
0.0
 11
0.5
 21
0.0
 31
0.0
 40
0.0349207695
 41
0.0174532925
 42
1.5707963268
  0
ELLIPSE
  5
8C2
100
AcDbEntity
  8
RACCORDO
100
AcDbEllipse
 62
7
  6
CONTINUOUS
 10
-14.0049857844
 20
1.2971566978
 30
0.0
 11
0.5
 21
-0.0
 31
0.0
 40
0.0349207695
 41
1.5707963268
 42
3.1241393611
  0
ELLIPSE
  5
8C3
100
AcDbEntity
  8
RACCORDO
100
AcDbEllipse
 62
7
  6
CONTINUOUS
 10
-14.0049857844
 20
-2.6679225327
 30
0.0
 11
0.5
 21
0.0
 31
0.0
 40
0.0349207695
 41
-3.1241393611
 42
-1.5707963268
  0
ELLIPSE
  5
8C4
100
AcDbEntity
  8
RACCORDO
100
AcDbEllipse
 62
7
  6
CONTINUOUS
 10
-14.3257983181
 20
-2.2385328223
 30
0.0
 11
-0.2123905634
 21
0.2123905634
 31
0.0
 40
0.998782766
 41
2.3568034778
 42
3.9263818294
  0
ELLIPSE
  5
8C5
100
AcDbEntity
  8
RACCORDO
100
AcDbEllipse
 62
7
  6
CONTINUOUS
 10
-14.3257983181
 20
0.8677669874
 30
0.0
 11
0.2123905634
 21
0.2123905634
 31
0.0
 40
0.998782766
 41
-0.7847891758
 42
0.7847891758
  0
ELLIPSE
  5
8C6
100
AcDbEntity
  8
RACCORDO
100
AcDbEllipse
 62
7
  6
CONTINUOUS
 10
21.7745674085
 20
-2.2385328223
 30
0.0
 11
-0.2123905634
 21
-0.2123905634
 31
0.0
 40
0.998782766
 41
-0.7847891758
 42
0.7847891758
  0
ELLIPSE
  5
8C7
100
AcDbEntity
  8
RACCORDO
100
AcDbEllipse
 62
7
  6
CONTINUOUS
 10
21.7745674085
 20
0.8677669874
 30
0.0
 11
0.2123905634
 21
-0.2123905634
 31
0.0
 40
0.998782766
 41
2.3568034778
 42
3.9263818294
  0
ELLIPSE
  5
8C8
100
AcDbEntity
  8
RACCORDO
100
AcDbEllipse
 62
7
  6
CONTINUOUS
 10
-23.3267775204
 20
18.2157791482
 30
0.0
 11
1.4159370892
 21
-1.4159370892
 31
0.0
 40
0.998782766
 41
2.3568034778
 42
3.9263818294
  0
ELLIPSE
  5
8C9
100
AcDbEntity
  8
RACCORDO
100
AcDbEllipse
 62
7
  6
CONTINUOUS
 10
-23.3267775204
 20
14.413455017
 30
0.0
 11
1.4159370892
 21
1.4159370892
 31
0.0
 40
0.998782766
 41
-3.9263818294
 42
-2.3568034778
  0
ELLIPSE
  5
8CA
100
AcDbEntity
  8
RACCORDO
100
AcDbEllipse
 62
7
  6
CONTINUOUS
 10
5.6255466108
 20
-23.736544983
 30
0.0
 11
1.4159370892
 21
-1.4159370892
 31
0.0
 40
0.998782766
 41
-0.7847891758
 42
0.7847891758
  0
ELLIPSE
  5
8CB
100
AcDbEntity
  8
RACCORDO
100
AcDbEllipse
 62
7
  6
CONTINUOUS
 10
1.8232224796
 20
-23.736544983
 30
0.0
 11
1.4159370892
 21
1.4159370892
 31
0.0
 40
0.998782766
 41
-3.9263818294
 42
-2.3568034778
  0
ELLIPSE
  5
8CC
100
AcDbEntity
  8
RACCORDO
100
AcDbEllipse
 62
7
  6
CONTINUOUS
 10
-13.9755392908
 20
25.2447206589
 30
0.0
 11
-0.3536610946
 21
0.3536610946
 31
0.0
 40
0.9996954599
 41
-0.7852458701
 42
0.7852458701
  0
ELLIPSE
  5
8CD
100
AcDbEntity
  8
RACCORDO
100
AcDbEllipse
 62
7
  6
CONTINUOUS
 10
21.4243083812
 20
25.2447206589
 30
0.0
 11
0.3536610946
 21
0.3536610946
 31
0.0
 40
0.9996954599
 41
-0.7852458701
 42
0.7852458701
  0
ELLIPSE
  5
8CE
100
AcDbEntity
  8
RACCORDO
100
AcDbEllipse
 62
7
  6
CONTINUOUS
 10
20.0308712423
 20
-17.5433467376
 30
0.0
 11
0.1790326176
 21
-0.0894890351
 31
0.0
 40
0.9992388003
 41
-1.1069659872
 42
0.4632212593
  0
ELLIPSE
  5
8CF
100
AcDbEntity
  8
RACCORDO
100
AcDbEllipse
 62
7
  6
CONTINUOUS
 10
16.4178978481
 20
-17.5433467376
 30
0.0
 11
0.1790326176
 21
0.0894890351
 31
0.0
 40
0.9992388003
 41
2.6783713943
 42
4.2485586408
  0
ELLIPSE
  5
8D0
100
AcDbEntity
  8
RACCORDO
100
AcDbEllipse
 62
7
  6
CONTINUOUS
 10
-14.4961059239
 20
12.4122359284
 30
0.0
 11
1.5
 21
0.0
 31
0.0
 40
0.0349207695
 41
2.3961463269
 42
3.1241393611
  0
ELLIPSE
  5
8D1
100
AcDbEntity
  8
RACCORDO
100
AcDbEllipse
 62
7
  6
CONTINUOUS
 10
-0.177996609
 20
-14.9058733865
 30
0.0
 11
0.0
 21
1.5
 31
0.0
 40
0.0349207695
 41
-3.1241393611
 42
-2.3961463269
  0
ELLIPSE
  5
8D2
100
AcDbEntity
  8
RACCORDO
100
AcDbEllipse
 62
7
  6
CONTINUOUS
 10
7.6267656994
 20
-14.9058733865
 30
0.0
 11
0.0
 21
1.5
 31
0.0
 40
0.0349207695
 41
-3.8870389802
 42
-3.1590459461
  0
ELLIPSE
  5
8D3
100
AcDbEntity
  8
RACCORDO
100
AcDbEllipse
 62
7
  6
CONTINUOUS
 10
-14.4961059239
 20
20.2169982368
 30
0.0
 11
1.5
 21
0.0
 31
0.0
 40
0.0349207695
 41
-3.1241393611
 42
-2.3961463269
  0
ELLIPSE
  5
8D4
100
AcDbEntity
  8
RACCORDO
100
AcDbEllipse
 62
7
  6
CONTINUOUS
 10
21.9448750143
 20
1.3146170826
 30
0.0
 11
1.5
 21
-0.0
 31
0.0
 40
0.0349207695
 41
1.455300258
 42
1.5707963268
  0
ELLIPSE
  5
8D5
100
AcDbEntity
  8
RACCORDO
100
AcDbEllipse
 62
7
  6
CONTINUOUS
 10
-14.4961059239
 20
1.3146170826
 30
0.0
 11
1.5
 21
-0.0
 31
0.0
 40
0.0349207695
 41
1.5707963268
 42
1.6862923956
  0
ELLIPSE
  5
8D6
100
AcDbEntity
  8
RACCORDO
100
AcDbEllipse
 62
7
  6
CONTINUOUS
 10
-14.4961059239
 20
-2.6853829174
 30
0.0
 11
1.5
 21
-0.0
 31
0.0
 40
0.0349207695
 41
-1.6862923956
 42
-1.5707963268
  0
ELLIPSE
  5
8D7
100
AcDbEntity
  8
RACCORDO
100
AcDbEllipse
 62
7
  6
CONTINUOUS
 10
21.9448750143
 20
-2.6853829174
 30
0.0
 11
1.5
 21
-0.0
 31
0.0
 40
0.0349207695
 41
-1.5707963268
 42
-1.455300258
  0
ELLIPSE
  5
8D8
100
AcDbEntity
  8
RACCORDO
100
AcDbEllipse
 62
7
  6
CONTINUOUS
 10
16.9619563499
 20
-17.5258916727
 30
0.0
 11
0.1733105926
 21
0.1000609173
 31
0.0
 40
0.9993911978
 41
2.0946588419
 42
4.1885264653
  0
ELLIPSE
  5
8D9
100
AcDbEntity
  8
RACCORDO
100
AcDbEllipse
 62
7
  6
CONTINUOUS
 10
19.4868127405
 20
-17.5258916727
 30
0.0
 11
0.1733105926
 21
-0.1000609173
 31
0.0
 40
0.9993911978
 41
-1.0469338117
 42
1.0469338117
  0
ELLIPSE
  5
8DA
100
AcDbEntity
  8
RACCORDO
100
AcDbEllipse
 62
7
  6
CONTINUOUS
 10
-13.5255392908
 20
-13.9353067534
 30
0.0
 11
0.3536610946
 21
0.3536610946
 31
0.0
 40
0.9996954599
 41
2.3563467834
 42
3.9268385237
  0
ELLIPSE
  5
8DB
100
AcDbEntity
  8
RACCORDO
100
AcDbEllipse
 62
7
  6
CONTINUOUS
 10
-13.5255392908
 20
20.5645409186
 30
0.0
 11
0.3536610946
 21
-0.3536610946
 31
0.0
 40
0.9996954599
 41
2.3563467834
 42
3.9268385237
  0
ELLIPSE
  5
8DC
100
AcDbEntity
  8
RACCORDO
100
AcDbEllipse
 62
7
  6
CONTINUOUS
 10
20.9743083812
 20
20.5645409186
 30
0.0
 11
-0.3536610946
 21
-0.3536610946
 31
0.0
 40
0.9996954599
 41
2.3563467834
 42
3.9268385237
  0
ELLIPSE
  5
8DD
100
AcDbEntity
  8
RACCORDO
100
AcDbEllipse
 62
7
  6
CONTINUOUS
 10
20.9743083812
 20
-13.9353067534
 30
0.0
 11
-0.3536610946
 21
0.3536610946
 31
0.0
 40
0.9996954599
 41
2.3563467834
 42
3.9268385237
  0
ELLIPSE
  5
8DE
100
AcDbEntity
  8
RACCORDO
100
AcDbEllipse
 62
7
  6
CONTINUOUS
 10
16.4528186176
 20
-17.5258916727
 30
0.0
 11
-0.1790326176
 21
-0.0894890351
 31
0.0
 40
0.9992388003
 41
-0.4632212593
 42
1.1069659872
  0
ELLIPSE
  5
8DF
100
AcDbEntity
  8
RACCORDO
100
AcDbEllipse
 62
7
  6
CONTINUOUS
 10
16.9907183274
 20
-16.6759526039
 30
0.0
 11
0.1733105926
 21
0.1000609173
 31
0.0
 40
0.9993911978
 41
-1.0469338117
 42
1.0469338117
  0
ELLIPSE
  5
8E0
100
AcDbEntity
  8
RACCORDO
100
AcDbEllipse
 62
7
  6
CONTINUOUS
 10
19.458050763
 20
-16.6759526039
 30
0.0
 11
-0.1733105926
 21
0.1000609173
 31
0.0
 40
0.9993911978
 41
-1.0469338117
 42
1.0469338117
  0
ELLIPSE
  5
8E1
100
AcDbEntity
  8
RACCORDO
100
AcDbEllipse
 62
7
  6
CONTINUOUS
 10
19.9959504728
 20
-17.5258916727
 30
0.0
 11
-0.1790326176
 21
0.0894890351
 31
0.0
 40
0.9992388003
 41
2.0346266664
 42
3.6048139129
  0
ELLIPSE
  5
8E2
100
AcDbEntity
  8
RACCORDO
100
AcDbEllipse
 62
7
  6
CONTINUOUS
 10
-13.5290303038
 20
20.5680319316
 30
0.0
 11
0.3536610946
 21
-0.3536610946
 31
0.0
 40
0.9996954599
 41
2.3563467834
 42
3.9268385237
  0
ELLIPSE
  5
8E3
100
AcDbEntity
  8
RACCORDO
100
AcDbEllipse
 62
7
  6
CONTINUOUS
 10
20.9777993942
 20
20.5680319316
 30
0.0
 11
0.3536610946
 21
0.3536610946
 31
0.0
 40
0.9996954599
 41
-0.7852458701
 42
0.7852458701
  0
ELLIPSE
  5
8E4
100
AcDbEntity
  8
RACCORDO
100
AcDbEllipse
 62
7
  6
CONTINUOUS
 10
20.9777993942
 20
-13.9387977664
 30
0.0
 11
0.3536610946
 21
-0.3536610946
 31
0.0
 40
0.9996954599
 41
-0.7852458701
 42
0.7852458701
  0
ELLIPSE
  5
8E5
100
AcDbEntity
  8
RACCORDO
100
AcDbEllipse
 62
7
  6
CONTINUOUS
 10
-13.5290303038
 20
-13.9387977664
 30
0.0
 11
0.3536610946
 21
0.3536610946
 31
0.0
 40
0.9996954599
 41
-3.9268385237
 42
-2.3563467834
  0
ELLIPSE
  5
8E6
100
AcDbEntity
  8
RACCORDO
100
AcDbEllipse
 62
7
  6
CONTINUOUS
 10
-16.1848491172
 20
-1.0006935474
 30
0.0
 11
0.0
 21
0.3
 31
0.0
 40
0.0174550649
 41
-3.089232776
 42
-1.5707963268
  0
ELLIPSE
  5
8E7
100
AcDbEntity
  8
RACCORDO
100
AcDbEllipse
 62
7
  6
CONTINUOUS
 10
-16.1848491172
 20
7.6299277126
 30
0.0
 11
0.0
 21
0.3
 31
0.0
 40
0.0174550649
 41
-1.5707963268
 42
-0.0523598776
  0
ELLIPSE
  5
8E8
100
AcDbEntity
  8
RACCORDO
100
AcDbEllipse
 62
7
  6
CONTINUOUS
 10
23.6336182076
 20
7.6299277126
 30
0.0
 11
0.0
 21
0.3
 31
0.0
 40
0.0174550649
 41
0.0523598776
 42
1.5707963268
  0
ELLIPSE
  5
8E9
100
AcDbEntity
  8
RACCORDO
100
AcDbEllipse
 62
7
  6
CONTINUOUS
 10
23.6336182076
 20
-1.0006935474
 30
0.0
 11
-0.0
 21
0.3
 31
0.0
 40
0.0174550649
 41
-4.7123889804
 42
-3.1939525312
  0
ENDSEC
  0
SECTION
  2
OBJECTS
  0
DICTIONARY
  5
C
100
AcDbDictionary
280
0
281
1
  3
ACAD_GROUP
350
D
  3
ACAD_MLINESTYLE
350
17
  3
ACAD_LAYOUT
350
1A
  3
ACAD_PLOTSETTINGS
350
19
  3
ACAD_PLOTSTYLENAME
350
E
  0
DICTIONARY
  5
D
102
{ACAD_REACTORS
330
C
102
}
100
AcDbDictionary
280
0
281
1
  0
ACDBDICTIONARYWDFLT
  5
E
102
{ACAD_REACTORS
330
C
102
}
100
AcDbDictionary
281
1
  3
Normal
350
F
100
AcDbDictionaryWithDefault
340
F
  0
DICTIONARY
  5
17
102
{ACAD_REACTORS
330
C
102
}
100
AcDbDictionary
280
0
281
1
  3
Standard
350
18
  0
DICTIONARY
  5
19
102
{ACAD_REACTORS
330
C
102
}
100
AcDbDictionary
281
1
  0
DICTIONARY
  5
1A
102
{ACAD_REACTORS
330
C
102
}
100
AcDbDictionary
281
1
  3
Model
350
8EA
  3
Layout1
350
8EB
  0
ACDBPLACEHOLDER
  5
F
102
{ACAD_REACTORS
330
E
102
}
  0
MLINESTYLE
  5
18
102
{ACAD_REACTORS
330
17
102
}
100
AcDbMlineStyle
  2
STANDARD
 70
0
  3

 62
256
 51
90.0
 52
90.0
 71
2
 49
0.5
 62
256
  6
BYLAYER
 49
-0.5
 62
256
  6
BYLAYER
  0
LAYOUT
  5
8EA
102
{ACAD_REACTORS
330
1A
102
}
100
AcDbPlotSettings
  1

  2
none_device
  4
ISO_A4_(297.00_x_210.00_MM)
  6

 40
0.0
 41
0.0
 42
0.0
 43
0.0
 44
297.0
 45
210.0
 46
0.0
 47
0.0
 48
0.0
 49
0.0
140
0.0
141
0.0
142
1.0
143
1.0
 70
1024
 72
1
 73
0
 74
0
  7

 75
0
147
1.0
148
0.0
149
0.0
100
AcDbLayout
  1
Model
 70
0
 71
0
 10
0.0
 20
0.0
 11
297.0
 21
210.0
 12
0.0
 22
0.0
 32
0.0
 14
0.0
 24
0.0
 34
0.0
 15
0.0
 25
0.0
 35
0.0
146
0.0
 13
0.0
 23
0.0
 33
0.0
 16
1.0
 26
0.0
 36
0.0
 17
0.0
 27
1.0
 37
0.0
 76
0
330
4EC
345
0
346
0
  0
LAYOUT
  5
8EB
102
{ACAD_REACTORS
330
1A
102
}
100
AcDbPlotSettings
  1

  2
none_device
  4
ISO_A4_(297.00_x_210.00_MM)
  6

 40
0.0
 41
0.0
 42
0.0
 43
0.0
 44
297.0
 45
210.0
 46
0.0
 47
0.0
 48
0.0
 49
0.0
140
0.0
141
0.0
142
1.0
143
1.0
 70
0
 72
1
 73
0
 74
0
  7

 75
0
147
1.0
148
0.0
149
0.0
100
AcDbLayout
  1
Layout1
 70
0
 71
1
 10
0.0
 20
0.0
 11
297.0
 21
210.0
 12
0.0
 22
0.0
 32
0.0
 14
0.0
 24
0.0
 34
0.0
 15
0.0
 25
0.0
 35
0.0
146
0.0
 13
0.0
 23
0.0
 33
0.0
 16
1.0
 26
0.0
 36
0.0
 17
0.0
 27
1.0
 37
0.0
 76
0
330
4ED
345
0
346
0
  0
ENDSEC
  0
EOF
