  0
SECTION
  2
HEADER
  9
$ACADVER
  1
AC1015
  9
$DWGCODEPAGE
  3
ANSI_1252
  9
$EXTMAX
 10
297.0
 20
210.0
 30
0.0
  9
$EXTMIN
 10
0.0
 20
0.0
 30
0.0
  9
$LIMMIN
 10
0.0
 20
0.0
  9
$LIMMAX
 10
297.0
 20
210.0
  9
$VIEWCTR
 10
148.5
 20
105.0
  9
$VIEWSIZE
 40
210.0
  9
$CLAYER
  8
0
  9
$LTSCALE
 40
16.335
  9
$CELTYPE
  6
BYLAYER
  9
$DIMSCALE
 40
1.0
  9
$DIMASZ
 40
3.0
  9
$DIMEXO
 40
0.5
  9
$DIMDLI
 40
11.286
  9
$DIMEXE
 40
1.5
  9
$DIMCEN
 40
2.673
  9
$DIMLFAC
 40
1.0
  9
$DIMBLK
  1
_FILLED
  9
$DIMTXT
 40
3.0
  9
$DIMTOL
 70
1
  9
$DIMLIM
 70
0
  9
$DIMTFAC
 40
1.0
  9
$DIMTP
 40
0.01
  9
$DIMTM
 40
0.01
  9
$DIMGAP
 40
0.625
  9
$DIMDSEP
 70
44
  9
$PDMODE
 70
3
  9
$PDSIZE
 40
3.0
  9
$HANDSEED
  5
7A9
  9
$TILEMODE
 70
1
  9
$MEASUREMENT
 70
1
  9
$INSUNITS
 70
4
  0
ENDSEC
  0
SECTION
  2
CLASSES
  0
CLASS
  1
ACDBDICTIONARYWDFLT
  2
AcDbDictionaryWithDefault
  3
AutoCAD 2000
 90
0
280
0
281
0
  0
CLASS
  1
ACDBPLACEHOLDER
  2
AcDbPlaceHolder
  3
AutoCAD 2000
 90
0
280
0
281
0
  0
CLASS
  1
LAYOUT
  2
AcDbLayout
  3
AutoCAD 2000
 90
0
280
0
281
0
  0
ENDSEC
  0
SECTION
  2
TABLES
  0
TABLE
  2
VPORT
  5
8
100
AcDbSymbolTable
 70
2
  0
VPORT
  5
1F4
100
AcDbSymbolTableRecord
100
AcDbViewportTableRecord
  2
*ACTIVE
 70
0
 10
0.0
 20
0.0
 11
1.0
 21
1.0
 12
148.5
 22
105.0
 13
0.0
 23
0.0
 14
1.0
 24
1.0
 15
0.0
 25
0.0
 16
0.0
 26
0.0
 36
1.0
 17
0.0
 27
0.0
 37
0.0
 40
210.0
 41
1.4142857143
 42
50.0
 43
0.0
 44
0.0
 50
0.0
 51
0.0
 71
0
 72
100
 73
1
 74
1
 75
0
 76
0
 77
0
 78
0
  0
ENDTAB
  0
TABLE
  2
LTYPE
  5
5
100
AcDbSymbolTable
 70
6
  0
LTYPE
  5
14
100
AcDbSymbolTableRecord
100
AcDbLinetypeTableRecord
  2
BYBLOCK
 70
0
  3

 72
65
 73
0
 40
0.0
  0
LTYPE
  5
15
100
AcDbSymbolTableRecord
100
AcDbLinetypeTableRecord
  2
BYLAYER
 70
0
  3

 72
65
 73
0
 40
0.0
  0
LTYPE
  5
16
100
AcDbSymbolTableRecord
100
AcDbLinetypeTableRecord
  2
CONTINUOUS
 70
64
  3
Solid line
 72
65
 73
0
 40
0.0
  0
LTYPE
  5
1F5
100
AcDbSymbolTableRecord
100
AcDbLinetypeTableRecord
  2
CENTER
 70
64
  3
____ _ ____ _ ____ _ ____ _ ____ _ ____ _ ____
 72
65
 73
4
 40
0.6
 49
0.375
 74
0
 49
-0.075
 74
0
 49
0.075
 74
0
 49
-0.075
 74
0
  0
LTYPE
  5
1F6
100
AcDbSymbolTableRecord
100
AcDbLinetypeTableRecord
  2
HIDDEN
 70
64
  3
- - - - - - - - - - - - - - - - - - - -
 72
65
 73
2
 40
0.2
 49
0.1
 74
0
 49
-0.1
 74
0
  0
LTYPE
  5
1F7
100
AcDbSymbolTableRecord
100
AcDbLinetypeTableRecord
  2
PHANTOM
 70
64
  3
_____ _ _ _____ _ _ _____ _ _ _____
 72
65
 73
6
 40
0.8
 49
0.45
 74
0
 49
-0.05
 74
0
 49
0.1
 74
0
 49
-0.05
 74
0
 49
0.1
 74
0
 49
-0.05
 74
0
  0
LTYPE
  5
1F8
100
AcDbSymbolTableRecord
100
AcDbLinetypeTableRecord
  2
DOT
 70
64
  3
. . . . . . . . . . . . . . . . . . . .
 72
65
 73
2
 40
0.2
 49
0.1
 74
0
 49
-0.1
 74
0
  0
LTYPE
  5
1F9
100
AcDbSymbolTableRecord
100
AcDbLinetypeTableRecord
  2
DASHED
 70
64
  3
- - - - - - - - - - - - - - - - - - - -
 72
65
 73
2
 40
0.2
 49
0.1
 74
0
 49
-0.1
 74
0
  0
ENDTAB
  0
TABLE
  2
LAYER
  5
2
100
AcDbSymbolTable
 70
36
  0
LAYER
  5
10
100
AcDbSymbolTableRecord
100
AcDbLayerTableRecord
  2
0
 70
0
 62
7
  6
CONTINUOUS
370
-3
390
F
  0
LAYER
  5
1FA
100
AcDbSymbolTableRecord
100
AcDbLayerTableRecord
  2
DEFAULT_1
 70
0
 62
7
  6
CENTER
370
-3
390
F
  0
LAYER
  5
1FB
100
AcDbSymbolTableRecord
100
AcDbLayerTableRecord
  2
DEFAULT_2
 70
0
 62
7
  6
HIDDEN
370
-3
390
F
  0
LAYER
  5
1FC
100
AcDbSymbolTableRecord
100
AcDbLayerTableRecord
  2
DEFAULT_3
 70
0
 62
7
  6
PHANTOM
370
-3
390
F
  0
LAYER
  5
1FD
100
AcDbSymbolTableRecord
100
AcDbLayerTableRecord
  2
0402-CC
 70
0
 62
7
  6
CONTINUOUS
370
-3
390
F
  0
LAYER
  5
1FE
100
AcDbSymbolTableRecord
100
AcDbLayerTableRecord
  2
0402-CC_1
 70
0
 62
7
  6
CONTINUOUS
370
-3
390
F
  0
LAYER
  5
1FF
100
AcDbSymbolTableRecord
100
AcDbLayerTableRecord
  2
0402-CC_2
 70
0
 62
7
  6
CONTINUOUS
370
-3
390
F
  0
LAYER
  5
200
100
AcDbSymbolTableRecord
100
AcDbLayerTableRecord
  2
0402-CC_3
 70
0
 62
7
  6
CONTINUOUS
370
-3
390
F
  0
LAYER
  5
201
100
AcDbSymbolTableRecord
100
AcDbLayerTableRecord
  2
0402-CC_4
 70
0
 62
7
  6
CONTINUOUS
370
-3
390
F
  0
LAYER
  5
202
100
AcDbSymbolTableRecord
100
AcDbLayerTableRecord
  2
0402-CC_5
 70
0
 62
7
  6
CONTINUOUS
370
-3
390
F
  0
LAYER
  5
203
100
AcDbSymbolTableRecord
100
AcDbLayerTableRecord
  2
0402-CC_6
 70
0
 62
7
  6
CONTINUOUS
370
-3
390
F
  0
LAYER
  5
204
100
AcDbSymbolTableRecord
100
AcDbLayerTableRecord
  2
0402-CC_7
 70
0
 62
7
  6
CONTINUOUS
370
-3
390
F
  0
LAYER
  5
205
100
AcDbSymbolTableRecord
100
AcDbLayerTableRecord
  2
0402-CC_8
 70
0
 62
7
  6
CONTINUOUS
370
-3
390
F
  0
LAYER
  5
206
100
AcDbSymbolTableRecord
100
AcDbLayerTableRecord
  2
0402-CC_9
 70
0
 62
7
  6
CONTINUOUS
370
-3
390
F
  0
LAYER
  5
207
100
AcDbSymbolTableRecord
100
AcDbLayerTableRecord
  2
0402-R
 70
0
 62
7
  6
CONTINUOUS
370
-3
390
F
  0
LAYER
  5
208
100
AcDbSymbolTableRecord
100
AcDbLayerTableRecord
  2
0402-R_1
 70
0
 62
7
  6
CONTINUOUS
370
-3
390
F
  0
LAYER
  5
209
100
AcDbSymbolTableRecord
100
AcDbLayerTableRecord
  2
0402-R_2
 70
0
 62
7
  6
CONTINUOUS
370
-3
390
F
  0
LAYER
  5
20A
100
AcDbSymbolTableRecord
100
AcDbLayerTableRecord
  2
0402-R_3
 70
0
 62
7
  6
CONTINUOUS
370
-3
390
F
  0
LAYER
  5
20B
100
AcDbSymbolTableRecord
100
AcDbLayerTableRecord
  2
0402-R_4
 70
0
 62
7
  6
CONTINUOUS
370
-3
390
F
  0
LAYER
  5
20C
100
AcDbSymbolTableRecord
100
AcDbLayerTableRecord
  2
0402-R_5
 70
0
 62
7
  6
CONTINUOUS
370
-3
390
F
  0
LAYER
  5
20D
100
AcDbSymbolTableRecord
100
AcDbLayerTableRecord
  2
1008CS-INDUCTOR-COILCRAFT
 70
0
 62
7
  6
CONTINUOUS
370
-3
390
F
  0
LAYER
  5
20E
100
AcDbSymbolTableRecord
100
AcDbLayerTableRecord
  2
1608-CC-0603
 70
0
 62
7
  6
CONTINUOUS
370
-3
390
F
  0
LAYER
  5
20F
100
AcDbSymbolTableRecord
100
AcDbLayerTableRecord
  2
1608-CC-0603_1
 70
0
 62
7
  6
CONTINUOUS
370
-3
390
F
  0
LAYER
  5
210
100
AcDbSymbolTableRecord
100
AcDbLayerTableRecord
  2
1608-CC-0603_10
 70
0
 62
7
  6
CONTINUOUS
370
-3
390
F
  0
LAYER
  5
211
100
AcDbSymbolTableRecord
100
AcDbLayerTableRecord
  2
1608-CC-0603_11
 70
0
 62
7
  6
CONTINUOUS
370
-3
390
F
  0
LAYER
  5
212
100
AcDbSymbolTableRecord
100
AcDbLayerTableRecord
  2
1608-CC-0603_12
 70
0
 62
7
  6
CONTINUOUS
370
-3
390
F
  0
LAYER
  5
213
100
AcDbSymbolTableRecord
100
AcDbLayerTableRecord
  2
1608-CC-0603_13
 70
0
 62
7
  6
CONTINUOUS
370
-3
390
F
  0
LAYER
  5
214
100
AcDbSymbolTableRecord
100
AcDbLayerTableRecord
  2
1608-CC-0603_14
 70
0
 62
7
  6
CONTINUOUS
370
-3
390
F
  0
LAYER
  5
215
100
AcDbSymbolTableRecord
100
AcDbLayerTableRecord
  2
1608-CC-0603_15
 70
0
 62
7
  6
CONTINUOUS
370
-3
390
F
  0
LAYER
  5
216
100
AcDbSymbolTableRecord
100
AcDbLayerTableRecord
  2
1608-CC-0603_16
 70
0
 62
7
  6
CONTINUOUS
370
-3
390
F
  0
LAYER
  5
217
100
AcDbSymbolTableRecord
100
AcDbLayerTableRecord
  2
1608-CC-0603_17
 70
0
 62
7
  6
CONTINUOUS
370
-3
390
F
  0
LAYER
  5
218
100
AcDbSymbolTableRecord
100
AcDbLayerTableRecord
  2
1608-CC-0603_18
 70
0
 62
7
  6
CONTINUOUS
370
-3
390
F
  0
LAYER
  5
219
100
AcDbSymbolTableRecord
100
AcDbLayerTableRecord
  2
1608-CC-0603_19
 70
0
 62
7
  6
CONTINUOUS
370
-3
390
F
  0
LAYER
  5
21A
100
AcDbSymbolTableRecord
100
AcDbLayerTableRecord
  2
1608-CC-0603_2
 70
0
 62
7
  6
CONTINUOUS
370
-3
390
F
  0
LAYER
  5
21B
100
AcDbSymbolTableRecord
100
AcDbLayerTableRecord
  2
1608-CC-0603_20
 70
0
 62
7
  6
CONTINUOUS
370
-3
390
F
  0
LAYER
  5
21C
100
AcDbSymbolTableRecord
100
AcDbLayerTableRecord
  2
1608-CC-0603_21
 70
0
 62
7
  6
CONTINUOUS
370
-3
390
F
  0
LAYER
  5
21D
100
AcDbSymbolTableRecord
100
AcDbLayerTableRecord
  2
1608-CC-0603_22
 70
0
 62
7
  6
CONTINUOUS
370
-3
390
F
  0
LAYER
  5
21E
100
AcDbSymbolTableRecord
100
AcDbLayerTableRecord
  2
1608-CC-0603_23
 70
0
 62
7
  6
CONTINUOUS
370
-3
390
F
  0
LAYER
  5
21F
100
AcDbSymbolTableRecord
100
AcDbLayerTableRecord
  2
1608-CC-0603_24
 70
0
 62
7
  6
CONTINUOUS
370
-3
390
F
  0
LAYER
  5
220
100
AcDbSymbolTableRecord
100
AcDbLayerTableRecord
  2
1608-CC-0603_25
 70
0
 62
7
  6
CONTINUOUS
370
-3
390
F
  0
LAYER
  5
221
100
AcDbSymbolTableRecord
100
AcDbLayerTableRecord
  2
1608-CC-0603_26
 70
0
 62
7
  6
CONTINUOUS
370
-3
390
F
  0
LAYER
  5
222
100
AcDbSymbolTableRecord
100
AcDbLayerTableRecord
  2
1608-CC-0603_3
 70
0
 62
7
  6
CONTINUOUS
370
-3
390
F
  0
LAYER
  5
223
100
AcDbSymbolTableRecord
100
AcDbLayerTableRecord
  2
1608-CC-0603_4
 70
0
 62
7
  6
CONTINUOUS
370
-3
390
F
  0
LAYER
  5
224
100
AcDbSymbolTableRecord
100
AcDbLayerTableRecord
  2
1608-CC-0603_5
 70
0
 62
7
  6
CONTINUOUS
370
-3
390
F
  0
LAYER
  5
225
100
AcDbSymbolTableRecord
100
AcDbLayerTableRecord
  2
1608-CC-0603_6
 70
0
 62
7
  6
CONTINUOUS
370
-3
390
F
  0
LAYER
  5
226
100
AcDbSymbolTableRecord
100
AcDbLayerTableRecord
  2
1608-CC-0603_7
 70
0
 62
7
  6
CONTINUOUS
370
-3
390
F
  0
LAYER
  5
227
100
AcDbSymbolTableRecord
100
AcDbLayerTableRecord
  2
1608-CC-0603_8
 70
0
 62
7
  6
CONTINUOUS
370
-3
390
F
  0
LAYER
  5
228
100
AcDbSymbolTableRecord
100
AcDbLayerTableRecord
  2
1608-CC-0603_9
 70
0
 62
7
  6
CONTINUOUS
370
-3
390
F
  0
LAYER
  5
229
100
AcDbSymbolTableRecord
100
AcDbLayerTableRecord
  2
1608-R
 70
0
 62
7
  6
CONTINUOUS
370
-3
390
F
  0
LAYER
  5
22A
100
AcDbSymbolTableRecord
100
AcDbLayerTableRecord
  2
1608-R_1
 70
0
 62
7
  6
CONTINUOUS
370
-3
390
F
  0
LAYER
  5
22B
100
AcDbSymbolTableRecord
100
AcDbLayerTableRecord
  2
1608-R_10
 70
0
 62
7
  6
CONTINUOUS
370
-3
390
F
  0
LAYER
  5
22C
100
AcDbSymbolTableRecord
100
AcDbLayerTableRecord
  2
1608-R_11
 70
0
 62
7
  6
CONTINUOUS
370
-3
390
F
  0
LAYER
  5
22D
100
AcDbSymbolTableRecord
100
AcDbLayerTableRecord
  2
1608-R_12
 70
0
 62
7
  6
CONTINUOUS
370
-3
390
F
  0
LAYER
  5
22E
100
AcDbSymbolTableRecord
100
AcDbLayerTableRecord
  2
1608-R_13
 70
0
 62
7
  6
CONTINUOUS
370
-3
390
F
  0
LAYER
  5
22F
100
AcDbSymbolTableRecord
100
AcDbLayerTableRecord
  2
1608-R_14
 70
0
 62
7
  6
CONTINUOUS
370
-3
390
F
  0
LAYER
  5
230
100
AcDbSymbolTableRecord
100
AcDbLayerTableRecord
  2
1608-R_15
 70
0
 62
7
  6
CONTINUOUS
370
-3
390
F
  0
LAYER
  5
231
100
AcDbSymbolTableRecord
100
AcDbLayerTableRecord
  2
1608-R_16
 70
0
 62
7
  6
CONTINUOUS
370
-3
390
F
  0
LAYER
  5
232
100
AcDbSymbolTableRecord
100
AcDbLayerTableRecord
  2
1608-R_17
 70
0
 62
7
  6
CONTINUOUS
370
-3
390
F
  0
LAYER
  5
233
100
AcDbSymbolTableRecord
100
AcDbLayerTableRecord
  2
1608-R_18
 70
0
 62
7
  6
CONTINUOUS
370
-3
390
F
  0
LAYER
  5
234
100
AcDbSymbolTableRecord
100
AcDbLayerTableRecord
  2
1608-R_19
 70
0
 62
7
  6
CONTINUOUS
370
-3
390
F
  0
LAYER
  5
235
100
AcDbSymbolTableRecord
100
AcDbLayerTableRecord
  2
1608-R_2
 70
0
 62
7
  6
CONTINUOUS
370
-3
390
F
  0
LAYER
  5
236
100
AcDbSymbolTableRecord
100
AcDbLayerTableRecord
  2
1608-R_20
 70
0
 62
7
  6
CONTINUOUS
370
-3
390
F
  0
LAYER
  5
237
100
AcDbSymbolTableRecord
100
AcDbLayerTableRecord
  2
1608-R_21
 70
0
 62
7
  6
CONTINUOUS
370
-3
390
F
  0
LAYER
  5
238
100
AcDbSymbolTableRecord
100
AcDbLayerTableRecord
  2
1608-R_22
 70
0
 62
7
  6
CONTINUOUS
370
-3
390
F
  0
LAYER
  5
239
100
AcDbSymbolTableRecord
100
AcDbLayerTableRecord
  2
1608-R_23
 70
0
 62
7
  6
CONTINUOUS
370
-3
390
F
  0
LAYER
  5
23A
100
AcDbSymbolTableRecord
100
AcDbLayerTableRecord
  2
1608-R_24
 70
0
 62
7
  6
CONTINUOUS
370
-3
390
F
  0
LAYER
  5
23B
100
AcDbSymbolTableRecord
100
AcDbLayerTableRecord
  2
1608-R_25
 70
0
 62
7
  6
CONTINUOUS
370
-3
390
F
  0
LAYER
  5
23C
100
AcDbSymbolTableRecord
100
AcDbLayerTableRecord
  2
1608-R_26
 70
0
 62
7
  6
CONTINUOUS
370
-3
390
F
  0
LAYER
  5
23D
100
AcDbSymbolTableRecord
100
AcDbLayerTableRecord
  2
1608-R_27
 70
0
 62
7
  6
CONTINUOUS
370
-3
390
F
  0
LAYER
  5
23E
100
AcDbSymbolTableRecord
100
AcDbLayerTableRecord
  2
1608-R_28
 70
0
 62
7
  6
CONTINUOUS
370
-3
390
F
  0
LAYER
  5
23F
100
AcDbSymbolTableRecord
100
AcDbLayerTableRecord
  2
1608-R_29
 70
0
 62
7
  6
CONTINUOUS
370
-3
390
F
  0
LAYER
  5
240
100
AcDbSymbolTableRecord
100
AcDbLayerTableRecord
  2
1608-R_3
 70
0
 62
7
  6
CONTINUOUS
370
-3
390
F
  0
LAYER
  5
241
100
AcDbSymbolTableRecord
100
AcDbLayerTableRecord
  2
1608-R_30
 70
0
 62
7
  6
CONTINUOUS
370
-3
390
F
  0
LAYER
  5
242
100
AcDbSymbolTableRecord
100
AcDbLayerTableRecord
  2
1608-R_31
 70
0
 62
7
  6
CONTINUOUS
370
-3
390
F
  0
LAYER
  5
243
100
AcDbSymbolTableRecord
100
AcDbLayerTableRecord
  2
1608-R_32
 70
0
 62
7
  6
CONTINUOUS
370
-3
390
F
  0
LAYER
  5
244
100
AcDbSymbolTableRecord
100
AcDbLayerTableRecord
  2
1608-R_33
 70
0
 62
7
  6
CONTINUOUS
370
-3
390
F
  0
LAYER
  5
245
100
AcDbSymbolTableRecord
100
AcDbLayerTableRecord
  2
1608-R_34
 70
0
 62
7
  6
CONTINUOUS
370
-3
390
F
  0
LAYER
  5
246
100
AcDbSymbolTableRecord
100
AcDbLayerTableRecord
  2
1608-R_35
 70
0
 62
7
  6
CONTINUOUS
370
-3
390
F
  0
LAYER
  5
247
100
AcDbSymbolTableRecord
100
AcDbLayerTableRecord
  2
1608-R_36
 70
0
 62
7
  6
CONTINUOUS
370
-3
390
F
  0
LAYER
  5
248
100
AcDbSymbolTableRecord
100
AcDbLayerTableRecord
  2
1608-R_37
 70
0
 62
7
  6
CONTINUOUS
370
-3
390
F
  0
LAYER
  5
249
100
AcDbSymbolTableRecord
100
AcDbLayerTableRecord
  2
1608-R_38
 70
0
 62
7
  6
CONTINUOUS
370
-3
390
F
  0
LAYER
  5
24A
100
AcDbSymbolTableRecord
100
AcDbLayerTableRecord
  2
1608-R_39
 70
0
 62
7
  6
CONTINUOUS
370
-3
390
F
  0
LAYER
  5
24B
100
AcDbSymbolTableRecord
100
AcDbLayerTableRecord
  2
1608-R_4
 70
0
 62
7
  6
CONTINUOUS
370
-3
390
F
  0
LAYER
  5
24C
100
AcDbSymbolTableRecord
100
AcDbLayerTableRecord
  2
1608-R_40
 70
0
 62
7
  6
CONTINUOUS
370
-3
390
F
  0
LAYER
  5
24D
100
AcDbSymbolTableRecord
100
AcDbLayerTableRecord
  2
1608-R_41
 70
0
 62
7
  6
CONTINUOUS
370
-3
390
F
  0
LAYER
  5
24E
100
AcDbSymbolTableRecord
100
AcDbLayerTableRecord
  2
1608-R_42
 70
0
 62
7
  6
CONTINUOUS
370
-3
390
F
  0
LAYER
  5
24F
100
AcDbSymbolTableRecord
100
AcDbLayerTableRecord
  2
1608-R_43
 70
0
 62
7
  6
CONTINUOUS
370
-3
390
F
  0
LAYER
  5
250
100
AcDbSymbolTableRecord
100
AcDbLayerTableRecord
  2
1608-R_5
 70
0
 62
7
  6
CONTINUOUS
370
-3
390
F
  0
LAYER
  5
251
100
AcDbSymbolTableRecord
100
AcDbLayerTableRecord
  2
1608-R_6
 70
0
 62
7
  6
CONTINUOUS
370
-3
390
F
  0
LAYER
  5
252
100
AcDbSymbolTableRecord
100
AcDbLayerTableRecord
  2
1608-R_7
 70
0
 62
7
  6
CONTINUOUS
370
-3
390
F
  0
LAYER
  5
253
100
AcDbSymbolTableRecord
100
AcDbLayerTableRecord
  2
1608-R_8
 70
0
 62
7
  6
CONTINUOUS
370
-3
390
F
  0
LAYER
  5
254
100
AcDbSymbolTableRecord
100
AcDbLayerTableRecord
  2
1608-R_9
 70
0
 62
7
  6
CONTINUOUS
370
-3
390
F
  0
LAYER
  5
255
100
AcDbSymbolTableRecord
100
AcDbLayerTableRecord
  2
2125-CC
 70
0
 62
7
  6
CONTINUOUS
370
-3
390
F
  0
LAYER
  5
256
100
AcDbSymbolTableRecord
100
AcDbLayerTableRecord
  2
2125-CC_1
 70
0
 62
7
  6
CONTINUOUS
370
-3
390
F
  0
LAYER
  5
257
100
AcDbSymbolTableRecord
100
AcDbLayerTableRecord
  2
2125-CC_2
 70
0
 62
7
  6
CONTINUOUS
370
-3
390
F
  0
LAYER
  5
258
100
AcDbSymbolTableRecord
100
AcDbLayerTableRecord
  2
2125-R-0805
 70
0
 62
7
  6
CONTINUOUS
370
-3
390
F
  0
LAYER
  5
259
100
AcDbSymbolTableRecord
100
AcDbLayerTableRecord
  2
2125-R-0805_1
 70
0
 62
7
  6
CONTINUOUS
370
-3
390
F
  0
LAYER
  5
25A
100
AcDbSymbolTableRecord
100
AcDbLayerTableRecord
  2
3216-CC-1206
 70
0
 62
7
  6
CONTINUOUS
370
-3
390
F
  0
LAYER
  5
25B
100
AcDbSymbolTableRecord
100
AcDbLayerTableRecord
  2
3216-CC-1206_1
 70
0
 62
7
  6
CONTINUOUS
370
-3
390
F
  0
LAYER
  5
25C
100
AcDbSymbolTableRecord
100
AcDbLayerTableRecord
  2
3216-CC-1206_2
 70
0
 62
7
  6
CONTINUOUS
370
-3
390
F
  0
LAYER
  5
25D
100
AcDbSymbolTableRecord
100
AcDbLayerTableRecord
  2
3216-CC-1206_3
 70
0
 62
7
  6
CONTINUOUS
370
-3
390
F
  0
LAYER
  5
25E
100
AcDbSymbolTableRecord
100
AcDbLayerTableRecord
  2
3216-CC-1206_4
 70
0
 62
7
  6
CONTINUOUS
370
-3
390
F
  0
LAYER
  5
25F
100
AcDbSymbolTableRecord
100
AcDbLayerTableRecord
  2
3216-CC-1206_5
 70
0
 62
7
  6
CONTINUOUS
370
-3
390
F
  0
LAYER
  5
260
100
AcDbSymbolTableRecord
100
AcDbLayerTableRecord
  2
43000590A0
 70
0
 62
7
  6
CONTINUOUS
370
-3
390
F
  0
LAYER
  5
261
100
AcDbSymbolTableRecord
100
AcDbLayerTableRecord
  2
43000590A0_1
 70
0
 62
7
  6
CONTINUOUS
370
-3
390
F
  0
LAYER
  5
262
100
AcDbSymbolTableRecord
100
AcDbLayerTableRecord
  2
43000591A0
 70
0
 62
7
  6
CONTINUOUS
370
-3
390
F
  0
LAYER
  5
263
100
AcDbSymbolTableRecord
100
AcDbLayerTableRecord
  2
43000591A0_1
 70
0
 62
7
  6
CONTINUOUS
370
-3
390
F
  0
LAYER
  5
264
100
AcDbSymbolTableRecord
100
AcDbLayerTableRecord
  2
4532-L-TDK
 70
0
 62
7
  6
CONTINUOUS
370
-3
390
F
  0
LAYER
  5
265
100
AcDbSymbolTableRecord
100
AcDbLayerTableRecord
  2
4532-L-TDK-A1
 70
0
 62
7
  6
CONTINUOUS
370
-3
390
F
  0
LAYER
  5
266
100
AcDbSymbolTableRecord
100
AcDbLayerTableRecord
  2
4532-L-TDK-A2
 70
0
 62
7
  6
CONTINUOUS
370
-3
390
F
  0
LAYER
  5
267
100
AcDbSymbolTableRecord
100
AcDbLayerTableRecord
  2
4532-L-TDK-A3
 70
0
 62
7
  6
CONTINUOUS
370
-3
390
F
  0
LAYER
  5
268
100
AcDbSymbolTableRecord
100
AcDbLayerTableRecord
  2
4532-L-TDK-A3_1
 70
0
 62
7
  6
CONTINUOUS
370
-3
390
F
  0
LAYER
  5
269
100
AcDbSymbolTableRecord
100
AcDbLayerTableRecord
  2
4532-L-TDK-A4
 70
0
 62
7
  6
CONTINUOUS
370
-3
390
F
  0
LAYER
  5
26A
100
AcDbSymbolTableRecord
100
AcDbLayerTableRecord
  2
4532-L-TDK-A4_1
 70
0
 62
7
  6
CONTINUOUS
370
-3
390
F
  0
LAYER
  5
26B
100
AcDbSymbolTableRecord
100
AcDbLayerTableRecord
  2
4532-L-TDK-B1
 70
0
 62
7
  6
CONTINUOUS
370
-3
390
F
  0
LAYER
  5
26C
100
AcDbSymbolTableRecord
100
AcDbLayerTableRecord
  2
4532-L-TDK-B2
 70
0
 62
7
  6
CONTINUOUS
370
-3
390
F
  0
LAYER
  5
26D
100
AcDbSymbolTableRecord
100
AcDbLayerTableRecord
  2
4532-L-TDK-B3
 70
0
 62
7
  6
CONTINUOUS
370
-3
390
F
  0
LAYER
  5
26E
100
AcDbSymbolTableRecord
100
AcDbLayerTableRecord
  2
4532-L-TDK-B4
 70
0
 62
7
  6
CONTINUOUS
370
-3
390
F
  0
LAYER
  5
26F
100
AcDbSymbolTableRecord
100
AcDbLayerTableRecord
  2
ASSI
 70
0
 62
7
  6
CONTINUOUS
370
-3
390
F
  0
LAYER
  5
270
100
AcDbSymbolTableRecord
100
AcDbLayerTableRecord
  2
CABLING_83000245A0
 70
0
 62
7
  6
CONTINUOUS
370
-3
390
F
  0
LAYER
  5
271
100
AcDbSymbolTableRecord
100
AcDbLayerTableRecord
  2
CAPACITOR-ELECTROLITIC-6_3X5_5
 70
0
 62
7
  6
CONTINUOUS
370
-3
390
F
  0
LAYER
  5
272
100
AcDbSymbolTableRecord
100
AcDbLayerTableRecord
  2
CN-MRT4P5_2
 70
0
 62
7
  6
CONTINUOUS
370
-3
390
F
  0
LAYER
  5
273
100
AcDbSymbolTableRecord
100
AcDbLayerTableRecord
  2
CN-MRT4P5_2_1
 70
0
 62
7
  6
CONTINUOUS
370
-3
390
F
  0
LAYER
  5
274
100
AcDbSymbolTableRecord
100
AcDbLayerTableRecord
  2
CN-MRT4P5_2_2
 70
0
 62
7
  6
CONTINUOUS
370
-3
390
F
  0
LAYER
  5
275
100
AcDbSymbolTableRecord
100
AcDbLayerTableRecord
  2
COLOR12
 70
0
 62
7
  6
CONTINUOUS
370
-3
390
F
  0
LAYER
  5
276
100
AcDbSymbolTableRecord
100
AcDbLayerTableRecord
  2
COLOR255
 70
0
 62
7
  6
CONTINUOUS
370
-3
390
F
  0
LAYER
  5
277
100
AcDbSymbolTableRecord
100
AcDbLayerTableRecord
  2
COLOR46
 70
0
 62
7
  6
CONTINUOUS
370
-3
390
F
  0
LAYER
  5
278
100
AcDbSymbolTableRecord
100
AcDbLayerTableRecord
  2
COLOR49
 70
0
 62
7
  6
CONTINUOUS
370
-3
390
F
  0
LAYER
  5
279
100
AcDbSymbolTableRecord
100
AcDbLayerTableRecord
  2
COORDINATE
 70
0
 62
7
  6
CONTINUOUS
370
-3
390
F
  0
LAYER
  5
27A
100
AcDbSymbolTableRecord
100
AcDbLayerTableRecord
  2
COPY_PUBLISH
 70
0
 62
7
  6
CONTINUOUS
370
-3
390
F
  0
LAYER
  5
27B
100
AcDbSymbolTableRecord
100
AcDbLayerTableRecord
  2
COSMETIC
 70
0
 62
7
  6
CONTINUOUS
370
-3
390
F
  0
LAYER
  5
27C
100
AcDbSymbolTableRecord
100
AcDbLayerTableRecord
  2
COSMETICI
 70
0
 62
7
  6
CONTINUOUS
370
-3
390
F
  0
LAYER
  5
27D
100
AcDbSymbolTableRecord
100
AcDbLayerTableRecord
  2
CP-DO-214AC-SMAJ
 70
0
 62
7
  6
CONTINUOUS
370
-3
390
F
  0
LAYER
  5
27E
100
AcDbSymbolTableRecord
100
AcDbLayerTableRecord
  2
CP-DO-214AC-SMAJ_1
 70
0
 62
7
  6
CONTINUOUS
370
-3
390
F
  0
LAYER
  5
27F
100
AcDbSymbolTableRecord
100
AcDbLayerTableRecord
  2
CP-DO-214AC-SMAJ_2
 70
0
 62
7
  6
CONTINUOUS
370
-3
390
F
  0
LAYER
  5
280
100
AcDbSymbolTableRecord
100
AcDbLayerTableRecord
  2
CP-DO-214AC-SMAJ_3
 70
0
 62
7
  6
CONTINUOUS
370
-3
390
F
  0
LAYER
  5
281
100
AcDbSymbolTableRecord
100
AcDbLayerTableRecord
  2
CP-DO-214AC-SMAJ_4
 70
0
 62
7
  6
CONTINUOUS
370
-3
390
F
  0
LAYER
  5
282
100
AcDbSymbolTableRecord
100
AcDbLayerTableRecord
  2
CP-DO-214AC-SMAJ_5
 70
0
 62
7
  6
CONTINUOUS
370
-3
390
F
  0
LAYER
  5
283
100
AcDbSymbolTableRecord
100
AcDbLayerTableRecord
  2
CURVE
 70
0
 62
7
  6
CONTINUOUS
370
-3
390
F
  0
LAYER
  5
284
100
AcDbSymbolTableRecord
100
AcDbLayerTableRecord
  2
DRAFT
 70
0
 62
7
  6
CONTINUOUS
370
-3
390
F
  0
LAYER
  5
285
100
AcDbSymbolTableRecord
100
AcDbLayerTableRecord
  2
ECAD_0402-CC
 70
0
 62
7
  6
CONTINUOUS
370
-3
390
F
  0
LAYER
  5
286
100
AcDbSymbolTableRecord
100
AcDbLayerTableRecord
  2
ECAD_0402-R
 70
0
 62
7
  6
CONTINUOUS
370
-3
390
F
  0
LAYER
  5
287
100
AcDbSymbolTableRecord
100
AcDbLayerTableRecord
  2
ECAD_1608-CC-0603
 70
0
 62
7
  6
CONTINUOUS
370
-3
390
F
  0
LAYER
  5
288
100
AcDbSymbolTableRecord
100
AcDbLayerTableRecord
  2
ECAD_1608-CC-0603_1
 70
0
 62
7
  6
CONTINUOUS
370
-3
390
F
  0
LAYER
  5
289
100
AcDbSymbolTableRecord
100
AcDbLayerTableRecord
  2
ECAD_1608-R
 70
0
 62
7
  6
CONTINUOUS
370
-3
390
F
  0
LAYER
  5
28A
100
AcDbSymbolTableRecord
100
AcDbLayerTableRecord
  2
ECAD_1608-R_1
 70
0
 62
7
  6
CONTINUOUS
370
-3
390
F
  0
LAYER
  5
28B
100
AcDbSymbolTableRecord
100
AcDbLayerTableRecord
  2
ECAD_2125-CC
 70
0
 62
7
  6
CONTINUOUS
370
-3
390
F
  0
LAYER
  5
28C
100
AcDbSymbolTableRecord
100
AcDbLayerTableRecord
  2
ECAD_2125-R-0805
 70
0
 62
7
  6
CONTINUOUS
370
-3
390
F
  0
LAYER
  5
28D
100
AcDbSymbolTableRecord
100
AcDbLayerTableRecord
  2
ECAD_3216-CC-1206
 70
0
 62
7
  6
CONTINUOUS
370
-3
390
F
  0
LAYER
  5
28E
100
AcDbSymbolTableRecord
100
AcDbLayerTableRecord
  2
ECAD_3216-CC-1206_1
 70
0
 62
7
  6
CONTINUOUS
370
-3
390
F
  0
LAYER
  5
28F
100
AcDbSymbolTableRecord
100
AcDbLayerTableRecord
  2
ECAD_CP-DO-214AC-SMAJ
 70
0
 62
7
  6
CONTINUOUS
370
-3
390
F
  0
LAYER
  5
290
100
AcDbSymbolTableRecord
100
AcDbLayerTableRecord
  2
ECAD_HC49US
 70
0
 62
7
  6
CONTINUOUS
370
-3
390
F
  0
LAYER
  5
291
100
AcDbSymbolTableRecord
100
AcDbLayerTableRecord
  2
ECAD_MM3-MPAK-RF-VIMAR_120000
 70
0
 62
7
  6
CONTINUOUS
370
-3
390
F
  0
LAYER
  5
292
100
AcDbSymbolTableRecord
100
AcDbLayerTableRecord
  2
ECAD_MM3-MPAK-RF-VIMAR_120000_1
 70
0
 62
7
  6
CONTINUOUS
370
-3
390
F
  0
LAYER
  5
293
100
AcDbSymbolTableRecord
100
AcDbLayerTableRecord
  2
ECAD_MM3-SOT323-RF-VIMAR_100000
 70
0
 62
7
  6
CONTINUOUS
370
-3
390
F
  0
LAYER
  5
294
100
AcDbSymbolTableRecord
100
AcDbLayerTableRecord
  2
ECAD_SOT-223-FZT
 70
0
 62
7
  6
CONTINUOUS
370
-3
390
F
  0
LAYER
  5
295
100
AcDbSymbolTableRecord
100
AcDbLayerTableRecord
  2
ECAD_SOT-89-HT7550
 70
0
 62
7
  6
CONTINUOUS
370
-3
390
F
  0
LAYER
  5
296
100
AcDbSymbolTableRecord
100
AcDbLayerTableRecord
  2
ECAD_SOT323-5-FMT_IC_TS391IL
 70
0
 62
7
  6
CONTINUOUS
370
-3
390
F
  0
LAYER
  5
297
100
AcDbSymbolTableRecord
100
AcDbLayerTableRecord
  2
ECAD_SOT323-5-FMT_IC_TS391IL_1
 70
0
 62
7
  6
CONTINUOUS
370
-3
390
F
  0
LAYER
  5
298
100
AcDbSymbolTableRecord
100
AcDbLayerTableRecord
  2
ECAD_WURTH-INDUCTOR_744744
 70
0
 62
7
  6
CONTINUOUS
370
-3
390
F
  0
LAYER
  5
299
100
AcDbSymbolTableRecord
100
AcDbLayerTableRecord
  2
IMPORT_IGES
 70
0
 62
7
  6
CONTINUOUS
370
-3
390
F
  0
LAYER
  5
29A
100
AcDbSymbolTableRecord
100
AcDbLayerTableRecord
  2
INTFCLR_3
 70
0
 62
7
  6
CONTINUOUS
370
-3
390
F
  0
LAYER
  5
29B
100
AcDbSymbolTableRecord
100
AcDbLayerTableRecord
  2
LAYER_802
 70
0
 62
7
  6
CONTINUOUS
370
-3
390
F
  0
LAYER
  5
29C
100
AcDbSymbolTableRecord
100
AcDbLayerTableRecord
  2
LQFP48GRID-0_5
 70
0
 62
7
  6
CONTINUOUS
370
-3
390
F
  0
LAYER
  5
29D
100
AcDbSymbolTableRecord
100
AcDbLayerTableRecord
  2
LQFP48_G
 70
0
 62
7
  6
CONTINUOUS
370
-3
390
F
  0
LAYER
  5
29E
100
AcDbSymbolTableRecord
100
AcDbLayerTableRecord
  2
LQFP48_GRID_0_5_LQ
 70
0
 62
7
  6
CONTINUOUS
370
-3
390
F
  0
LAYER
  5
29F
100
AcDbSymbolTableRecord
100
AcDbLayerTableRecord
  2
LQFP48_GRID_0_5_LQ_1
 70
0
 62
7
  6
CONTINUOUS
370
-3
390
F
  0
LAYER
  5
2A0
100
AcDbSymbolTableRecord
100
AcDbLayerTableRecord
  2
LQFP48_GRID_0_5_LQ_10
 70
0
 62
7
  6
CONTINUOUS
370
-3
390
F
  0
LAYER
  5
2A1
100
AcDbSymbolTableRecord
100
AcDbLayerTableRecord
  2
LQFP48_GRID_0_5_LQ_11
 70
0
 62
7
  6
CONTINUOUS
370
-3
390
F
  0
LAYER
  5
2A2
100
AcDbSymbolTableRecord
100
AcDbLayerTableRecord
  2
LQFP48_GRID_0_5_LQ_12
 70
0
 62
7
  6
CONTINUOUS
370
-3
390
F
  0
LAYER
  5
2A3
100
AcDbSymbolTableRecord
100
AcDbLayerTableRecord
  2
LQFP48_GRID_0_5_LQ_13
 70
0
 62
7
  6
CONTINUOUS
370
-3
390
F
  0
LAYER
  5
2A4
100
AcDbSymbolTableRecord
100
AcDbLayerTableRecord
  2
LQFP48_GRID_0_5_LQ_14
 70
0
 62
7
  6
CONTINUOUS
370
-3
390
F
  0
LAYER
  5
2A5
100
AcDbSymbolTableRecord
100
AcDbLayerTableRecord
  2
LQFP48_GRID_0_5_LQ_15
 70
0
 62
7
  6
CONTINUOUS
370
-3
390
F
  0
LAYER
  5
2A6
100
AcDbSymbolTableRecord
100
AcDbLayerTableRecord
  2
LQFP48_GRID_0_5_LQ_16
 70
0
 62
7
  6
CONTINUOUS
370
-3
390
F
  0
LAYER
  5
2A7
100
AcDbSymbolTableRecord
100
AcDbLayerTableRecord
  2
LQFP48_GRID_0_5_LQ_17
 70
0
 62
7
  6
CONTINUOUS
370
-3
390
F
  0
LAYER
  5
2A8
100
AcDbSymbolTableRecord
100
AcDbLayerTableRecord
  2
LQFP48_GRID_0_5_LQ_18
 70
0
 62
7
  6
CONTINUOUS
370
-3
390
F
  0
LAYER
  5
2A9
100
AcDbSymbolTableRecord
100
AcDbLayerTableRecord
  2
LQFP48_GRID_0_5_LQ_19
 70
0
 62
7
  6
CONTINUOUS
370
-3
390
F
  0
LAYER
  5
2AA
100
AcDbSymbolTableRecord
100
AcDbLayerTableRecord
  2
LQFP48_GRID_0_5_LQ_2
 70
0
 62
7
  6
CONTINUOUS
370
-3
390
F
  0
LAYER
  5
2AB
100
AcDbSymbolTableRecord
100
AcDbLayerTableRecord
  2
LQFP48_GRID_0_5_LQ_20
 70
0
 62
7
  6
CONTINUOUS
370
-3
390
F
  0
LAYER
  5
2AC
100
AcDbSymbolTableRecord
100
AcDbLayerTableRecord
  2
LQFP48_GRID_0_5_LQ_21
 70
0
 62
7
  6
CONTINUOUS
370
-3
390
F
  0
LAYER
  5
2AD
100
AcDbSymbolTableRecord
100
AcDbLayerTableRecord
  2
LQFP48_GRID_0_5_LQ_22
 70
0
 62
7
  6
CONTINUOUS
370
-3
390
F
  0
LAYER
  5
2AE
100
AcDbSymbolTableRecord
100
AcDbLayerTableRecord
  2
LQFP48_GRID_0_5_LQ_23
 70
0
 62
7
  6
CONTINUOUS
370
-3
390
F
  0
LAYER
  5
2AF
100
AcDbSymbolTableRecord
100
AcDbLayerTableRecord
  2
LQFP48_GRID_0_5_LQ_24
 70
0
 62
7
  6
CONTINUOUS
370
-3
390
F
  0
LAYER
  5
2B0
100
AcDbSymbolTableRecord
100
AcDbLayerTableRecord
  2
LQFP48_GRID_0_5_LQ_25
 70
0
 62
7
  6
CONTINUOUS
370
-3
390
F
  0
LAYER
  5
2B1
100
AcDbSymbolTableRecord
100
AcDbLayerTableRecord
  2
LQFP48_GRID_0_5_LQ_26
 70
0
 62
7
  6
CONTINUOUS
370
-3
390
F
  0
LAYER
  5
2B2
100
AcDbSymbolTableRecord
100
AcDbLayerTableRecord
  2
LQFP48_GRID_0_5_LQ_27
 70
0
 62
7
  6
CONTINUOUS
370
-3
390
F
  0
LAYER
  5
2B3
100
AcDbSymbolTableRecord
100
AcDbLayerTableRecord
  2
LQFP48_GRID_0_5_LQ_28
 70
0
 62
7
  6
CONTINUOUS
370
-3
390
F
  0
LAYER
  5
2B4
100
AcDbSymbolTableRecord
100
AcDbLayerTableRecord
  2
LQFP48_GRID_0_5_LQ_29
 70
0
 62
7
  6
CONTINUOUS
370
-3
390
F
  0
LAYER
  5
2B5
100
AcDbSymbolTableRecord
100
AcDbLayerTableRecord
  2
LQFP48_GRID_0_5_LQ_3
 70
0
 62
7
  6
CONTINUOUS
370
-3
390
F
  0
LAYER
  5
2B6
100
AcDbSymbolTableRecord
100
AcDbLayerTableRecord
  2
LQFP48_GRID_0_5_LQ_30
 70
0
 62
7
  6
CONTINUOUS
370
-3
390
F
  0
LAYER
  5
2B7
100
AcDbSymbolTableRecord
100
AcDbLayerTableRecord
  2
LQFP48_GRID_0_5_LQ_31
 70
0
 62
7
  6
CONTINUOUS
370
-3
390
F
  0
LAYER
  5
2B8
100
AcDbSymbolTableRecord
100
AcDbLayerTableRecord
  2
LQFP48_GRID_0_5_LQ_32
 70
0
 62
7
  6
CONTINUOUS
370
-3
390
F
  0
LAYER
  5
2B9
100
AcDbSymbolTableRecord
100
AcDbLayerTableRecord
  2
LQFP48_GRID_0_5_LQ_33
 70
0
 62
7
  6
CONTINUOUS
370
-3
390
F
  0
LAYER
  5
2BA
100
AcDbSymbolTableRecord
100
AcDbLayerTableRecord
  2
LQFP48_GRID_0_5_LQ_34
 70
0
 62
7
  6
CONTINUOUS
370
-3
390
F
  0
LAYER
  5
2BB
100
AcDbSymbolTableRecord
100
AcDbLayerTableRecord
  2
LQFP48_GRID_0_5_LQ_35
 70
0
 62
7
  6
CONTINUOUS
370
-3
390
F
  0
LAYER
  5
2BC
100
AcDbSymbolTableRecord
100
AcDbLayerTableRecord
  2
LQFP48_GRID_0_5_LQ_36
 70
0
 62
7
  6
CONTINUOUS
370
-3
390
F
  0
LAYER
  5
2BD
100
AcDbSymbolTableRecord
100
AcDbLayerTableRecord
  2
LQFP48_GRID_0_5_LQ_37
 70
0
 62
7
  6
CONTINUOUS
370
-3
390
F
  0
LAYER
  5
2BE
100
AcDbSymbolTableRecord
100
AcDbLayerTableRecord
  2
LQFP48_GRID_0_5_LQ_38
 70
0
 62
7
  6
CONTINUOUS
370
-3
390
F
  0
LAYER
  5
2BF
100
AcDbSymbolTableRecord
100
AcDbLayerTableRecord
  2
LQFP48_GRID_0_5_LQ_39
 70
0
 62
7
  6
CONTINUOUS
370
-3
390
F
  0
LAYER
  5
2C0
100
AcDbSymbolTableRecord
100
AcDbLayerTableRecord
  2
LQFP48_GRID_0_5_LQ_4
 70
0
 62
7
  6
CONTINUOUS
370
-3
390
F
  0
LAYER
  5
2C1
100
AcDbSymbolTableRecord
100
AcDbLayerTableRecord
  2
LQFP48_GRID_0_5_LQ_40
 70
0
 62
7
  6
CONTINUOUS
370
-3
390
F
  0
LAYER
  5
2C2
100
AcDbSymbolTableRecord
100
AcDbLayerTableRecord
  2
LQFP48_GRID_0_5_LQ_41
 70
0
 62
7
  6
CONTINUOUS
370
-3
390
F
  0
LAYER
  5
2C3
100
AcDbSymbolTableRecord
100
AcDbLayerTableRecord
  2
LQFP48_GRID_0_5_LQ_42
 70
0
 62
7
  6
CONTINUOUS
370
-3
390
F
  0
LAYER
  5
2C4
100
AcDbSymbolTableRecord
100
AcDbLayerTableRecord
  2
LQFP48_GRID_0_5_LQ_43
 70
0
 62
7
  6
CONTINUOUS
370
-3
390
F
  0
LAYER
  5
2C5
100
AcDbSymbolTableRecord
100
AcDbLayerTableRecord
  2
LQFP48_GRID_0_5_LQ_44
 70
0
 62
7
  6
CONTINUOUS
370
-3
390
F
  0
LAYER
  5
2C6
100
AcDbSymbolTableRecord
100
AcDbLayerTableRecord
  2
LQFP48_GRID_0_5_LQ_45
 70
0
 62
7
  6
CONTINUOUS
370
-3
390
F
  0
LAYER
  5
2C7
100
AcDbSymbolTableRecord
100
AcDbLayerTableRecord
  2
LQFP48_GRID_0_5_LQ_46
 70
0
 62
7
  6
CONTINUOUS
370
-3
390
F
  0
LAYER
  5
2C8
100
AcDbSymbolTableRecord
100
AcDbLayerTableRecord
  2
LQFP48_GRID_0_5_LQ_47
 70
0
 62
7
  6
CONTINUOUS
370
-3
390
F
  0
LAYER
  5
2C9
100
AcDbSymbolTableRecord
100
AcDbLayerTableRecord
  2
LQFP48_GRID_0_5_LQ_5
 70
0
 62
7
  6
CONTINUOUS
370
-3
390
F
  0
LAYER
  5
2CA
100
AcDbSymbolTableRecord
100
AcDbLayerTableRecord
  2
LQFP48_GRID_0_5_LQ_6
 70
0
 62
7
  6
CONTINUOUS
370
-3
390
F
  0
LAYER
  5
2CB
100
AcDbSymbolTableRecord
100
AcDbLayerTableRecord
  2
LQFP48_GRID_0_5_LQ_7
 70
0
 62
7
  6
CONTINUOUS
370
-3
390
F
  0
LAYER
  5
2CC
100
AcDbSymbolTableRecord
100
AcDbLayerTableRecord
  2
LQFP48_GRID_0_5_LQ_8
 70
0
 62
7
  6
CONTINUOUS
370
-3
390
F
  0
LAYER
  5
2CD
100
AcDbSymbolTableRecord
100
AcDbLayerTableRecord
  2
LQFP48_GRID_0_5_LQ_9
 70
0
 62
7
  6
CONTINUOUS
370
-3
390
F
  0
LAYER
  5
2CE
100
AcDbSymbolTableRecord
100
AcDbLayerTableRecord
  2
MANIFOLD_SOLID_BREP_36349
 70
0
 62
7
  6
CONTINUOUS
370
-3
390
F
  0
LAYER
  5
2CF
100
AcDbSymbolTableRecord
100
AcDbLayerTableRecord
  2
MANIFOLD_SOLID_BREP_36349_1
 70
0
 62
7
  6
CONTINUOUS
370
-3
390
F
  0
LAYER
  5
2D0
100
AcDbSymbolTableRecord
100
AcDbLayerTableRecord
  2
MANIFOLD_SOLID_BREP_36349_2
 70
0
 62
7
  6
CONTINUOUS
370
-3
390
F
  0
LAYER
  5
2D1
100
AcDbSymbolTableRecord
100
AcDbLayerTableRecord
  2
MANIFOLD_SOLID_BREP_36349_3
 70
0
 62
7
  6
CONTINUOUS
370
-3
390
F
  0
LAYER
  5
2D2
100
AcDbSymbolTableRecord
100
AcDbLayerTableRecord
  2
MANIFOLD_SOLID_BREP_36349_4
 70
0
 62
7
  6
CONTINUOUS
370
-3
390
F
  0
LAYER
  5
2D3
100
AcDbSymbolTableRecord
100
AcDbLayerTableRecord
  2
MANIFOLD_SOLID_BREP_36349_5
 70
0
 62
7
  6
CONTINUOUS
370
-3
390
F
  0
LAYER
  5
2D4
100
AcDbSymbolTableRecord
100
AcDbLayerTableRecord
  2
MANIFOLD_SOLID_BREP_36349_6
 70
0
 62
7
  6
CONTINUOUS
370
-3
390
F
  0
LAYER
  5
2D5
100
AcDbSymbolTableRecord
100
AcDbLayerTableRecord
  2
MANIFOLD_SOLID_BREP_36751
 70
0
 62
7
  6
CONTINUOUS
370
-3
390
F
  0
LAYER
  5
2D6
100
AcDbSymbolTableRecord
100
AcDbLayerTableRecord
  2
MANIFOLD_SOLID_BREP_36751_1
 70
0
 62
7
  6
CONTINUOUS
370
-3
390
F
  0
LAYER
  5
2D7
100
AcDbSymbolTableRecord
100
AcDbLayerTableRecord
  2
MANIFOLD_SOLID_BREP_36751_2
 70
0
 62
7
  6
CONTINUOUS
370
-3
390
F
  0
LAYER
  5
2D8
100
AcDbSymbolTableRecord
100
AcDbLayerTableRecord
  2
MANIFOLD_SOLID_BREP_36751_3
 70
0
 62
7
  6
CONTINUOUS
370
-3
390
F
  0
LAYER
  5
2D9
100
AcDbSymbolTableRecord
100
AcDbLayerTableRecord
  2
MANIFOLD_SOLID_BREP_36751_4
 70
0
 62
7
  6
CONTINUOUS
370
-3
390
F
  0
LAYER
  5
2DA
100
AcDbSymbolTableRecord
100
AcDbLayerTableRecord
  2
MANIFOLD_SOLID_BREP_36751_5
 70
0
 62
7
  6
CONTINUOUS
370
-3
390
F
  0
LAYER
  5
2DB
100
AcDbSymbolTableRecord
100
AcDbLayerTableRecord
  2
MANIFOLD_SOLID_BREP_36751_6
 70
0
 62
7
  6
CONTINUOUS
370
-3
390
F
  0
LAYER
  5
2DC
100
AcDbSymbolTableRecord
100
AcDbLayerTableRecord
  2
MANIFOLD_SOLID_BREP_37217
 70
0
 62
7
  6
CONTINUOUS
370
-3
390
F
  0
LAYER
  5
2DD
100
AcDbSymbolTableRecord
100
AcDbLayerTableRecord
  2
MANIFOLD_SOLID_BREP_37217_1
 70
0
 62
7
  6
CONTINUOUS
370
-3
390
F
  0
LAYER
  5
2DE
100
AcDbSymbolTableRecord
100
AcDbLayerTableRecord
  2
MANIFOLD_SOLID_BREP_37217_2
 70
0
 62
7
  6
CONTINUOUS
370
-3
390
F
  0
LAYER
  5
2DF
100
AcDbSymbolTableRecord
100
AcDbLayerTableRecord
  2
MANIFOLD_SOLID_BREP_37217_3
 70
0
 62
7
  6
CONTINUOUS
370
-3
390
F
  0
LAYER
  5
2E0
100
AcDbSymbolTableRecord
100
AcDbLayerTableRecord
  2
MANIFOLD_SOLID_BREP_37217_4
 70
0
 62
7
  6
CONTINUOUS
370
-3
390
F
  0
LAYER
  5
2E1
100
AcDbSymbolTableRecord
100
AcDbLayerTableRecord
  2
MANIFOLD_SOLID_BREP_37217_5
 70
0
 62
7
  6
CONTINUOUS
370
-3
390
F
  0
LAYER
  5
2E2
100
AcDbSymbolTableRecord
100
AcDbLayerTableRecord
  2
MANIFOLD_SOLID_BREP_37217_6
 70
0
 62
7
  6
CONTINUOUS
370
-3
390
F
  0
LAYER
  5
2E3
100
AcDbSymbolTableRecord
100
AcDbLayerTableRecord
  2
MANIFOLD_SOLID_BREP_37217_7
 70
0
 62
7
  6
CONTINUOUS
370
-3
390
F
  0
LAYER
  5
2E4
100
AcDbSymbolTableRecord
100
AcDbLayerTableRecord
  2
MANIFOLD_SOLID_BREP_37217_8
 70
0
 62
7
  6
CONTINUOUS
370
-3
390
F
  0
LAYER
  5
2E5
100
AcDbSymbolTableRecord
100
AcDbLayerTableRecord
  2
MANIFOLD_SOLID_BREP_37217_9
 70
0
 62
7
  6
CONTINUOUS
370
-3
390
F
  0
LAYER
  5
2E6
100
AcDbSymbolTableRecord
100
AcDbLayerTableRecord
  2
MANIFOLD_SOLID_BREP_37463
 70
0
 62
7
  6
CONTINUOUS
370
-3
390
F
  0
LAYER
  5
2E7
100
AcDbSymbolTableRecord
100
AcDbLayerTableRecord
  2
MANIFOLD_SOLID_BREP_37463_1
 70
0
 62
7
  6
CONTINUOUS
370
-3
390
F
  0
LAYER
  5
2E8
100
AcDbSymbolTableRecord
100
AcDbLayerTableRecord
  2
MANIFOLD_SOLID_BREP_37463_2
 70
0
 62
7
  6
CONTINUOUS
370
-3
390
F
  0
LAYER
  5
2E9
100
AcDbSymbolTableRecord
100
AcDbLayerTableRecord
  2
MANIFOLD_SOLID_BREP_37463_3
 70
0
 62
7
  6
CONTINUOUS
370
-3
390
F
  0
LAYER
  5
2EA
100
AcDbSymbolTableRecord
100
AcDbLayerTableRecord
  2
MANIFOLD_SOLID_BREP_37463_4
 70
0
 62
7
  6
CONTINUOUS
370
-3
390
F
  0
LAYER
  5
2EB
100
AcDbSymbolTableRecord
100
AcDbLayerTableRecord
  2
MANIFOLD_SOLID_BREP_37463_5
 70
0
 62
7
  6
CONTINUOUS
370
-3
390
F
  0
LAYER
  5
2EC
100
AcDbSymbolTableRecord
100
AcDbLayerTableRecord
  2
MANIFOLD_SOLID_BREP_37463_6
 70
0
 62
7
  6
CONTINUOUS
370
-3
390
F
  0
LAYER
  5
2ED
100
AcDbSymbolTableRecord
100
AcDbLayerTableRecord
  2
MANIFOLD_SOLID_BREP_37463_7
 70
0
 62
7
  6
CONTINUOUS
370
-3
390
F
  0
LAYER
  5
2EE
100
AcDbSymbolTableRecord
100
AcDbLayerTableRecord
  2
MANIFOLD_SOLID_BREP_37463_8
 70
0
 62
7
  6
CONTINUOUS
370
-3
390
F
  0
LAYER
  5
2EF
100
AcDbSymbolTableRecord
100
AcDbLayerTableRecord
  2
MANIFOLD_SOLID_BREP_37463_9
 70
0
 62
7
  6
CONTINUOUS
370
-3
390
F
  0
LAYER
  5
2F0
100
AcDbSymbolTableRecord
100
AcDbLayerTableRecord
  2
MANIFOLD_SOLID_BREP_37706
 70
0
 62
7
  6
CONTINUOUS
370
-3
390
F
  0
LAYER
  5
2F1
100
AcDbSymbolTableRecord
100
AcDbLayerTableRecord
  2
MANIFOLD_SOLID_BREP_37706_1
 70
0
 62
7
  6
CONTINUOUS
370
-3
390
F
  0
LAYER
  5
2F2
100
AcDbSymbolTableRecord
100
AcDbLayerTableRecord
  2
MANIFOLD_SOLID_BREP_37706_2
 70
0
 62
7
  6
CONTINUOUS
370
-3
390
F
  0
LAYER
  5
2F3
100
AcDbSymbolTableRecord
100
AcDbLayerTableRecord
  2
MANIFOLD_SOLID_BREP_37706_3
 70
0
 62
7
  6
CONTINUOUS
370
-3
390
F
  0
LAYER
  5
2F4
100
AcDbSymbolTableRecord
100
AcDbLayerTableRecord
  2
MANIFOLD_SOLID_BREP_37706_4
 70
0
 62
7
  6
CONTINUOUS
370
-3
390
F
  0
LAYER
  5
2F5
100
AcDbSymbolTableRecord
100
AcDbLayerTableRecord
  2
MANIFOLD_SOLID_BREP_37706_5
 70
0
 62
7
  6
CONTINUOUS
370
-3
390
F
  0
LAYER
  5
2F6
100
AcDbSymbolTableRecord
100
AcDbLayerTableRecord
  2
MANIFOLD_SOLID_BREP_37706_6
 70
0
 62
7
  6
CONTINUOUS
370
-3
390
F
  0
LAYER
  5
2F7
100
AcDbSymbolTableRecord
100
AcDbLayerTableRecord
  2
MANIFOLD_SOLID_BREP_37706_7
 70
0
 62
7
  6
CONTINUOUS
370
-3
390
F
  0
LAYER
  5
2F8
100
AcDbSymbolTableRecord
100
AcDbLayerTableRecord
  2
MANIFOLD_SOLID_BREP_37706_8
 70
0
 62
7
  6
CONTINUOUS
370
-3
390
F
  0
LAYER
  5
2F9
100
AcDbSymbolTableRecord
100
AcDbLayerTableRecord
  2
MANIFOLD_SOLID_BREP_37706_9
 70
0
 62
7
  6
CONTINUOUS
370
-3
390
F
  0
LAYER
  5
2FA
100
AcDbSymbolTableRecord
100
AcDbLayerTableRecord
  2
MANIFOLD_SOLID_BREP_37997
 70
0
 62
7
  6
CONTINUOUS
370
-3
390
F
  0
LAYER
  5
2FB
100
AcDbSymbolTableRecord
100
AcDbLayerTableRecord
  2
MANIFOLD_SOLID_BREP_37997_1
 70
0
 62
7
  6
CONTINUOUS
370
-3
390
F
  0
LAYER
  5
2FC
100
AcDbSymbolTableRecord
100
AcDbLayerTableRecord
  2
MANIFOLD_SOLID_BREP_37997_2
 70
0
 62
7
  6
CONTINUOUS
370
-3
390
F
  0
LAYER
  5
2FD
100
AcDbSymbolTableRecord
100
AcDbLayerTableRecord
  2
MANIFOLD_SOLID_BREP_37997_3
 70
0
 62
7
  6
CONTINUOUS
370
-3
390
F
  0
LAYER
  5
2FE
100
AcDbSymbolTableRecord
100
AcDbLayerTableRecord
  2
MANIFOLD_SOLID_BREP_37997_4
 70
0
 62
7
  6
CONTINUOUS
370
-3
390
F
  0
LAYER
  5
2FF
100
AcDbSymbolTableRecord
100
AcDbLayerTableRecord
  2
MANIFOLD_SOLID_BREP_37997_5
 70
0
 62
7
  6
CONTINUOUS
370
-3
390
F
  0
LAYER
  5
300
100
AcDbSymbolTableRecord
100
AcDbLayerTableRecord
  2
MANIFOLD_SOLID_BREP_37997_6
 70
0
 62
7
  6
CONTINUOUS
370
-3
390
F
  0
LAYER
  5
301
100
AcDbSymbolTableRecord
100
AcDbLayerTableRecord
  2
MANIFOLD_SOLID_BREP_37997_7
 70
0
 62
7
  6
CONTINUOUS
370
-3
390
F
  0
LAYER
  5
302
100
AcDbSymbolTableRecord
100
AcDbLayerTableRecord
  2
MANIFOLD_SOLID_BREP_37997_8
 70
0
 62
7
  6
CONTINUOUS
370
-3
390
F
  0
LAYER
  5
303
100
AcDbSymbolTableRecord
100
AcDbLayerTableRecord
  2
MANIFOLD_SOLID_BREP_37997_9
 70
0
 62
7
  6
CONTINUOUS
370
-3
390
F
  0
LAYER
  5
304
100
AcDbSymbolTableRecord
100
AcDbLayerTableRecord
  2
MANIFOLD_SOLID_BREP_39780
 70
0
 62
7
  6
CONTINUOUS
370
-3
390
F
  0
LAYER
  5
305
100
AcDbSymbolTableRecord
100
AcDbLayerTableRecord
  2
MANIFOLD_SOLID_BREP_39780_1
 70
0
 62
7
  6
CONTINUOUS
370
-3
390
F
  0
LAYER
  5
306
100
AcDbSymbolTableRecord
100
AcDbLayerTableRecord
  2
MANIFOLD_SOLID_BREP_40089
 70
0
 62
7
  6
CONTINUOUS
370
-3
390
F
  0
LAYER
  5
307
100
AcDbSymbolTableRecord
100
AcDbLayerTableRecord
  2
MANIFOLD_SOLID_BREP_40089_1
 70
0
 62
7
  6
CONTINUOUS
370
-3
390
F
  0
LAYER
  5
308
100
AcDbSymbolTableRecord
100
AcDbLayerTableRecord
  2
MANIFOLD_SOLID_BREP_40398
 70
0
 62
7
  6
CONTINUOUS
370
-3
390
F
  0
LAYER
  5
309
100
AcDbSymbolTableRecord
100
AcDbLayerTableRecord
  2
MANIFOLD_SOLID_BREP_40398_1
 70
0
 62
7
  6
CONTINUOUS
370
-3
390
F
  0
LAYER
  5
30A
100
AcDbSymbolTableRecord
100
AcDbLayerTableRecord
  2
MANIFOLD_SOLID_BREP_45105
 70
0
 62
7
  6
CONTINUOUS
370
-3
390
F
  0
LAYER
  5
30B
100
AcDbSymbolTableRecord
100
AcDbLayerTableRecord
  2
MANIFOLD_SOLID_BREP_45474
 70
0
 62
7
  6
CONTINUOUS
370
-3
390
F
  0
LAYER
  5
30C
100
AcDbSymbolTableRecord
100
AcDbLayerTableRecord
  2
MANIFOLD_SOLID_BREP_45843
 70
0
 62
7
  6
CONTINUOUS
370
-3
390
F
  0
LAYER
  5
30D
100
AcDbSymbolTableRecord
100
AcDbLayerTableRecord
  2
MANIFOLD_SOLID_BREP_46212
 70
0
 62
7
  6
CONTINUOUS
370
-3
390
F
  0
LAYER
  5
30E
100
AcDbSymbolTableRecord
100
AcDbLayerTableRecord
  2
MANIFOLD_SOLID_BREP_46581
 70
0
 62
7
  6
CONTINUOUS
370
-3
390
F
  0
LAYER
  5
30F
100
AcDbSymbolTableRecord
100
AcDbLayerTableRecord
  2
MANIFOLD_SOLID_BREP_85154
 70
0
 62
7
  6
CONTINUOUS
370
-3
390
F
  0
LAYER
  5
310
100
AcDbSymbolTableRecord
100
AcDbLayerTableRecord
  2
MANIFOLD_SOLID_BREP_85154_1
 70
0
 62
7
  6
CONTINUOUS
370
-3
390
F
  0
LAYER
  5
311
100
AcDbSymbolTableRecord
100
AcDbLayerTableRecord
  2
MANIFOLD_SOLID_BREP_85154_2
 70
0
 62
7
  6
CONTINUOUS
370
-3
390
F
  0
LAYER
  5
312
100
AcDbSymbolTableRecord
100
AcDbLayerTableRecord
  2
MANIFOLD_SOLID_BREP_85154_3
 70
0
 62
7
  6
CONTINUOUS
370
-3
390
F
  0
LAYER
  5
313
100
AcDbSymbolTableRecord
100
AcDbLayerTableRecord
  2
MANIFOLD_SOLID_BREP_85154_4
 70
0
 62
7
  6
CONTINUOUS
370
-3
390
F
  0
LAYER
  5
314
100
AcDbSymbolTableRecord
100
AcDbLayerTableRecord
  2
MANIFOLD_SOLID_BREP_85154_5
 70
0
 62
7
  6
CONTINUOUS
370
-3
390
F
  0
LAYER
  5
315
100
AcDbSymbolTableRecord
100
AcDbLayerTableRecord
  2
MANIFOLD_SOLID_BREP_85691
 70
0
 62
7
  6
CONTINUOUS
370
-3
390
F
  0
LAYER
  5
316
100
AcDbSymbolTableRecord
100
AcDbLayerTableRecord
  2
MANIFOLD_SOLID_BREP_85691_1
 70
0
 62
7
  6
CONTINUOUS
370
-3
390
F
  0
LAYER
  5
317
100
AcDbSymbolTableRecord
100
AcDbLayerTableRecord
  2
MANIFOLD_SOLID_BREP_85691_2
 70
0
 62
7
  6
CONTINUOUS
370
-3
390
F
  0
LAYER
  5
318
100
AcDbSymbolTableRecord
100
AcDbLayerTableRecord
  2
MANIFOLD_SOLID_BREP_85691_3
 70
0
 62
7
  6
CONTINUOUS
370
-3
390
F
  0
LAYER
  5
319
100
AcDbSymbolTableRecord
100
AcDbLayerTableRecord
  2
MANIFOLD_SOLID_BREP_85691_4
 70
0
 62
7
  6
CONTINUOUS
370
-3
390
F
  0
LAYER
  5
31A
100
AcDbSymbolTableRecord
100
AcDbLayerTableRecord
  2
MANIFOLD_SOLID_BREP_85691_5
 70
0
 62
7
  6
CONTINUOUS
370
-3
390
F
  0
LAYER
  5
31B
100
AcDbSymbolTableRecord
100
AcDbLayerTableRecord
  2
MANIFOLD_SOLID_BREP_86228
 70
0
 62
7
  6
CONTINUOUS
370
-3
390
F
  0
LAYER
  5
31C
100
AcDbSymbolTableRecord
100
AcDbLayerTableRecord
  2
MANIFOLD_SOLID_BREP_86228_1
 70
0
 62
7
  6
CONTINUOUS
370
-3
390
F
  0
LAYER
  5
31D
100
AcDbSymbolTableRecord
100
AcDbLayerTableRecord
  2
MANIFOLD_SOLID_BREP_86228_2
 70
0
 62
7
  6
CONTINUOUS
370
-3
390
F
  0
LAYER
  5
31E
100
AcDbSymbolTableRecord
100
AcDbLayerTableRecord
  2
MANIFOLD_SOLID_BREP_86228_3
 70
0
 62
7
  6
CONTINUOUS
370
-3
390
F
  0
LAYER
  5
31F
100
AcDbSymbolTableRecord
100
AcDbLayerTableRecord
  2
MANIFOLD_SOLID_BREP_86228_4
 70
0
 62
7
  6
CONTINUOUS
370
-3
390
F
  0
LAYER
  5
320
100
AcDbSymbolTableRecord
100
AcDbLayerTableRecord
  2
MANIFOLD_SOLID_BREP_86228_5
 70
0
 62
7
  6
CONTINUOUS
370
-3
390
F
  0
LAYER
  5
321
100
AcDbSymbolTableRecord
100
AcDbLayerTableRecord
  2
MSOP_8
 70
0
 62
7
  6
CONTINUOUS
370
-3
390
F
  0
LAYER
  5
322
100
AcDbSymbolTableRecord
100
AcDbLayerTableRecord
  2
NONE
 70
0
 62
7
  6
CONTINUOUS
370
-3
390
F
  0
LAYER
  5
323
100
AcDbSymbolTableRecord
100
AcDbLayerTableRecord
  2
NOTE
 70
0
 62
7
  6
CONTINUOUS
370
-3
390
F
  0
LAYER
  5
324
100
AcDbSymbolTableRecord
100
AcDbLayerTableRecord
  2
PIANI
 70
0
 62
7
  6
CONTINUOUS
370
-3
390
F
  0
LAYER
  5
325
100
AcDbSymbolTableRecord
100
AcDbLayerTableRecord
  2
PLCC4-LED-DLHG
 70
0
 62
7
  6
CONTINUOUS
370
-3
390
F
  0
LAYER
  5
326
100
AcDbSymbolTableRecord
100
AcDbLayerTableRecord
  2
PUNTI
 70
0
 62
7
  6
CONTINUOUS
370
-3
390
F
  0
LAYER
  5
327
100
AcDbSymbolTableRecord
100
AcDbLayerTableRecord
  2
RACCORDO
 70
0
 62
7
  6
CONTINUOUS
370
-3
390
F
  0
LAYER
  5
328
100
AcDbSymbolTableRecord
100
AcDbLayerTableRecord
  2
SIMBOLI
 70
0
 62
7
  6
CONTINUOUS
370
-3
390
F
  0
LAYER
  5
329
100
AcDbSymbolTableRecord
100
AcDbLayerTableRecord
  2
SKRPAB
 70
0
 62
7
  6
CONTINUOUS
370
-3
390
F
  0
LAYER
  5
32A
100
AcDbSymbolTableRecord
100
AcDbLayerTableRecord
  2
SMUSSO
 70
0
 62
7
  6
CONTINUOUS
370
-3
390
F
  0
LAYER
  5
32B
100
AcDbSymbolTableRecord
100
AcDbLayerTableRecord
  2
SNAPLINE
 70
0
 62
7
  6
CONTINUOUS
370
-3
390
F
  0
LAYER
  5
32C
100
AcDbSymbolTableRecord
100
AcDbLayerTableRecord
  2
SOD-123
 70
0
 62
7
  6
CONTINUOUS
370
-3
390
F
  0
LAYER
  5
32D
100
AcDbSymbolTableRecord
100
AcDbLayerTableRecord
  2
SOP-4
 70
0
 62
7
  6
CONTINUOUS
370
-3
390
F
  0
LAYER
  5
32E
100
AcDbSymbolTableRecord
100
AcDbLayerTableRecord
  2
SOT23
 70
0
 62
7
  6
CONTINUOUS
370
-3
390
F
  0
LAYER
  5
32F
100
AcDbSymbolTableRecord
100
AcDbLayerTableRecord
  2
SOT23_1
 70
0
 62
7
  6
CONTINUOUS
370
-3
390
F
  0
LAYER
  5
330
100
AcDbSymbolTableRecord
100
AcDbLayerTableRecord
  2
SOT23_2
 70
0
 62
7
  6
CONTINUOUS
370
-3
390
F
  0
LAYER
  5
331
100
AcDbSymbolTableRecord
100
AcDbLayerTableRecord
  2
SOT23_3
 70
0
 62
7
  6
CONTINUOUS
370
-3
390
F
  0
LAYER
  5
332
100
AcDbSymbolTableRecord
100
AcDbLayerTableRecord
  2
SOT23_4
 70
0
 62
7
  6
CONTINUOUS
370
-3
390
F
  0
LAYER
  5
333
100
AcDbSymbolTableRecord
100
AcDbLayerTableRecord
  2
SOT23_5
 70
0
 62
7
  6
CONTINUOUS
370
-3
390
F
  0
LAYER
  5
334
100
AcDbSymbolTableRecord
100
AcDbLayerTableRecord
  2
SOT23_6
 70
0
 62
7
  6
CONTINUOUS
370
-3
390
F
  0
LAYER
  5
335
100
AcDbSymbolTableRecord
100
AcDbLayerTableRecord
  2
SOT323BAV99W
 70
0
 62
7
  6
CONTINUOUS
370
-3
390
F
  0
LAYER
  5
336
100
AcDbSymbolTableRecord
100
AcDbLayerTableRecord
  2
SOT323BAV99W_1
 70
0
 62
7
  6
CONTINUOUS
370
-3
390
F
  0
LAYER
  5
337
100
AcDbSymbolTableRecord
100
AcDbLayerTableRecord
  2
SOT323BAV99W_2
 70
0
 62
7
  6
CONTINUOUS
370
-3
390
F
  0
LAYER
  5
338
100
AcDbSymbolTableRecord
100
AcDbLayerTableRecord
  2
SOT323BAV99W_3
 70
0
 62
7
  6
CONTINUOUS
370
-3
390
F
  0
LAYER
  5
339
100
AcDbSymbolTableRecord
100
AcDbLayerTableRecord
  2
SOT323BAV99W_4
 70
0
 62
7
  6
CONTINUOUS
370
-3
390
F
  0
LAYER
  5
33A
100
AcDbSymbolTableRecord
100
AcDbLayerTableRecord
  2
SOT323BAV99W_5
 70
0
 62
7
  6
CONTINUOUS
370
-3
390
F
  0
LAYER
  5
33B
100
AcDbSymbolTableRecord
100
AcDbLayerTableRecord
  2
SOT323BAV99W_6
 70
0
 62
7
  6
CONTINUOUS
370
-3
390
F
  0
LAYER
  5
33C
100
AcDbSymbolTableRecord
100
AcDbLayerTableRecord
  2
SOT323BAV99W_7
 70
0
 62
7
  6
CONTINUOUS
370
-3
390
F
  0
LAYER
  5
33D
100
AcDbSymbolTableRecord
100
AcDbLayerTableRecord
  2
SOT323BAV99W_8
 70
0
 62
7
  6
CONTINUOUS
370
-3
390
F
  0
LAYER
  5
33E
100
AcDbSymbolTableRecord
100
AcDbLayerTableRecord
  2
SOT323BAV99W_9
 70
0
 62
7
  6
CONTINUOUS
370
-3
390
F
  0
LAYER
  5
33F
100
AcDbSymbolTableRecord
100
AcDbLayerTableRecord
  2
STUART61110_MISURATORE_ASM_8300
 70
0
 62
7
  6
CONTINUOUS
370
-3
390
F
  0
LAYER
  5
340
100
AcDbSymbolTableRecord
100
AcDbLayerTableRecord
  2
SUPERFICI
 70
0
 62
7
  6
CONTINUOUS
370
-3
390
F
  0
LAYER
  5
341
100
AcDbSymbolTableRecord
100
AcDbLayerTableRecord
  2
THERMO01_83000245A0
 70
0
 62
7
  6
CONTINUOUS
370
-3
390
F
  0
LAYER
  5
342
100
AcDbSymbolTableRecord
100
AcDbLayerTableRecord
  2
THERMO01_83000245A0_1
 70
0
 62
7
  6
CONTINUOUS
370
-3
390
F
  0
LAYER
  5
343
100
AcDbSymbolTableRecord
100
AcDbLayerTableRecord
  2
THERMO01_83000245A0_2
 70
0
 62
7
  6
CONTINUOUS
370
-3
390
F
  0
LAYER
  5
344
100
AcDbSymbolTableRecord
100
AcDbLayerTableRecord
  2
THERMO01_83000245A0_3
 70
0
 62
7
  6
CONTINUOUS
370
-3
390
F
  0
LAYER
  5
345
100
AcDbSymbolTableRecord
100
AcDbLayerTableRecord
  2
THERMO01_83000245A0_4
 70
0
 62
7
  6
CONTINUOUS
370
-3
390
F
  0
LAYER
  5
346
100
AcDbSymbolTableRecord
100
AcDbLayerTableRecord
  2
THERMO01_83000245A0_5
 70
0
 62
7
  6
CONTINUOUS
370
-3
390
F
  0
LAYER
  5
347
100
AcDbSymbolTableRecord
100
AcDbLayerTableRecord
  2
TRASH
 70
0
 62
7
  6
CONTINUOUS
370
-3
390
F
  0
LAYER
  5
348
100
AcDbSymbolTableRecord
100
AcDbLayerTableRecord
  2
TSSOP_8
 70
0
 62
7
  6
CONTINUOUS
370
-3
390
F
  0
LAYER
  5
349
100
AcDbSymbolTableRecord
100
AcDbLayerTableRecord
  2
WHITE
 70
0
 62
7
  6
CONTINUOUS
370
-3
390
F
  0
LAYER
  5
34A
100
AcDbSymbolTableRecord
100
AcDbLayerTableRecord
  2
WHITE_1
 70
0
 62
7
  6
CONTINUOUS
370
-3
390
F
  0
LAYER
  5
34B
100
AcDbSymbolTableRecord
100
AcDbLayerTableRecord
  2
WHITE_2
 70
0
 62
7
  6
CONTINUOUS
370
-3
390
F
  0
LAYER
  5
34C
100
AcDbSymbolTableRecord
100
AcDbLayerTableRecord
  2
WHITE_3
 70
0
 62
7
  6
CONTINUOUS
370
-3
390
F
  0
LAYER
  5
34D
100
AcDbSymbolTableRecord
100
AcDbLayerTableRecord
  2
_1018
 70
0
 62
7
  6
CONTINUOUS
370
-3
390
F
  0
LAYER
  5
34E
100
AcDbSymbolTableRecord
100
AcDbLayerTableRecord
  2
_1039
 70
0
 62
7
  6
CONTINUOUS
370
-3
390
F
  0
LAYER
  5
34F
100
AcDbSymbolTableRecord
100
AcDbLayerTableRecord
  2
_10508
 70
0
 62
7
  6
CONTINUOUS
370
-3
390
F
  0
LAYER
  5
350
100
AcDbSymbolTableRecord
100
AcDbLayerTableRecord
  2
_1051
 70
0
 62
7
  6
CONTINUOUS
370
-3
390
F
  0
LAYER
  5
351
100
AcDbSymbolTableRecord
100
AcDbLayerTableRecord
  2
_10585
 70
0
 62
7
  6
CONTINUOUS
370
-3
390
F
  0
LAYER
  5
352
100
AcDbSymbolTableRecord
100
AcDbLayerTableRecord
  2
_1103
 70
0
 62
7
  6
CONTINUOUS
370
-3
390
F
  0
LAYER
  5
353
100
AcDbSymbolTableRecord
100
AcDbLayerTableRecord
  2
_1174
 70
0
 62
7
  6
CONTINUOUS
370
-3
390
F
  0
LAYER
  5
354
100
AcDbSymbolTableRecord
100
AcDbLayerTableRecord
  2
_1205
 70
0
 62
7
  6
CONTINUOUS
370
-3
390
F
  0
LAYER
  5
355
100
AcDbSymbolTableRecord
100
AcDbLayerTableRecord
  2
_1229
 70
0
 62
7
  6
CONTINUOUS
370
-3
390
F
  0
LAYER
  5
356
100
AcDbSymbolTableRecord
100
AcDbLayerTableRecord
  2
_1279
 70
0
 62
7
  6
CONTINUOUS
370
-3
390
F
  0
LAYER
  5
357
100
AcDbSymbolTableRecord
100
AcDbLayerTableRecord
  2
_1308
 70
0
 62
7
  6
CONTINUOUS
370
-3
390
F
  0
LAYER
  5
358
100
AcDbSymbolTableRecord
100
AcDbLayerTableRecord
  2
_1339
 70
0
 62
7
  6
CONTINUOUS
370
-3
390
F
  0
LAYER
  5
359
100
AcDbSymbolTableRecord
100
AcDbLayerTableRecord
  2
_1387
 70
0
 62
7
  6
CONTINUOUS
370
-3
390
F
  0
LAYER
  5
35A
100
AcDbSymbolTableRecord
100
AcDbLayerTableRecord
  2
_1408
 70
0
 62
7
  6
CONTINUOUS
370
-3
390
F
  0
LAYER
  5
35B
100
AcDbSymbolTableRecord
100
AcDbLayerTableRecord
  2
_1423
 70
0
 62
7
  6
CONTINUOUS
370
-3
390
F
  0
LAYER
  5
35C
100
AcDbSymbolTableRecord
100
AcDbLayerTableRecord
  2
_1449
 70
0
 62
7
  6
CONTINUOUS
370
-3
390
F
  0
LAYER
  5
35D
100
AcDbSymbolTableRecord
100
AcDbLayerTableRecord
  2
_1478
 70
0
 62
7
  6
CONTINUOUS
370
-3
390
F
  0
LAYER
  5
35E
100
AcDbSymbolTableRecord
100
AcDbLayerTableRecord
  2
_1566
 70
0
 62
7
  6
CONTINUOUS
370
-3
390
F
  0
LAYER
  5
35F
100
AcDbSymbolTableRecord
100
AcDbLayerTableRecord
  2
_1598
 70
0
 62
7
  6
CONTINUOUS
370
-3
390
F
  0
LAYER
  5
360
100
AcDbSymbolTableRecord
100
AcDbLayerTableRecord
  2
_1632
 70
0
 62
7
  6
CONTINUOUS
370
-3
390
F
  0
LAYER
  5
361
100
AcDbSymbolTableRecord
100
AcDbLayerTableRecord
  2
_1646
 70
0
 62
7
  6
CONTINUOUS
370
-3
390
F
  0
LAYER
  5
362
100
AcDbSymbolTableRecord
100
AcDbLayerTableRecord
  2
_1731
 70
0
 62
7
  6
CONTINUOUS
370
-3
390
F
  0
LAYER
  5
363
100
AcDbSymbolTableRecord
100
AcDbLayerTableRecord
  2
_1737
 70
0
 62
7
  6
CONTINUOUS
370
-3
390
F
  0
LAYER
  5
364
100
AcDbSymbolTableRecord
100
AcDbLayerTableRecord
  2
_1758
 70
0
 62
7
  6
CONTINUOUS
370
-3
390
F
  0
LAYER
  5
365
100
AcDbSymbolTableRecord
100
AcDbLayerTableRecord
  2
_1768
 70
0
 62
7
  6
CONTINUOUS
370
-3
390
F
  0
LAYER
  5
366
100
AcDbSymbolTableRecord
100
AcDbLayerTableRecord
  2
_1797
 70
0
 62
7
  6
CONTINUOUS
370
-3
390
F
  0
LAYER
  5
367
100
AcDbSymbolTableRecord
100
AcDbLayerTableRecord
  2
_1819
 70
0
 62
7
  6
CONTINUOUS
370
-3
390
F
  0
LAYER
  5
368
100
AcDbSymbolTableRecord
100
AcDbLayerTableRecord
  2
_1854
 70
0
 62
7
  6
CONTINUOUS
370
-3
390
F
  0
LAYER
  5
369
100
AcDbSymbolTableRecord
100
AcDbLayerTableRecord
  2
_1879
 70
0
 62
7
  6
CONTINUOUS
370
-3
390
F
  0
LAYER
  5
36A
100
AcDbSymbolTableRecord
100
AcDbLayerTableRecord
  2
_1909
 70
0
 62
7
  6
CONTINUOUS
370
-3
390
F
  0
LAYER
  5
36B
100
AcDbSymbolTableRecord
100
AcDbLayerTableRecord
  2
_1969
 70
0
 62
7
  6
CONTINUOUS
370
-3
390
F
  0
LAYER
  5
36C
100
AcDbSymbolTableRecord
100
AcDbLayerTableRecord
  2
_2000
 70
0
 62
7
  6
CONTINUOUS
370
-3
390
F
  0
LAYER
  5
36D
100
AcDbSymbolTableRecord
100
AcDbLayerTableRecord
  2
_2029
 70
0
 62
7
  6
CONTINUOUS
370
-3
390
F
  0
LAYER
  5
36E
100
AcDbSymbolTableRecord
100
AcDbLayerTableRecord
  2
_2050
 70
0
 62
7
  6
CONTINUOUS
370
-3
390
F
  0
LAYER
  5
36F
100
AcDbSymbolTableRecord
100
AcDbLayerTableRecord
  2
_2109
 70
0
 62
7
  6
CONTINUOUS
370
-3
390
F
  0
LAYER
  5
370
100
AcDbSymbolTableRecord
100
AcDbLayerTableRecord
  2
_2138
 70
0
 62
7
  6
CONTINUOUS
370
-3
390
F
  0
LAYER
  5
371
100
AcDbSymbolTableRecord
100
AcDbLayerTableRecord
  2
_2215
 70
0
 62
7
  6
CONTINUOUS
370
-3
390
F
  0
LAYER
  5
372
100
AcDbSymbolTableRecord
100
AcDbLayerTableRecord
  2
_2810
 70
0
 62
7
  6
CONTINUOUS
370
-3
390
F
  0
LAYER
  5
373
100
AcDbSymbolTableRecord
100
AcDbLayerTableRecord
  2
_2832
 70
0
 62
7
  6
CONTINUOUS
370
-3
390
F
  0
LAYER
  5
374
100
AcDbSymbolTableRecord
100
AcDbLayerTableRecord
  2
_2871
 70
0
 62
7
  6
CONTINUOUS
370
-3
390
F
  0
LAYER
  5
375
100
AcDbSymbolTableRecord
100
AcDbLayerTableRecord
  2
_2901
 70
0
 62
7
  6
CONTINUOUS
370
-3
390
F
  0
LAYER
  5
376
100
AcDbSymbolTableRecord
100
AcDbLayerTableRecord
  2
_2933
 70
0
 62
7
  6
CONTINUOUS
370
-3
390
F
  0
LAYER
  5
377
100
AcDbSymbolTableRecord
100
AcDbLayerTableRecord
  2
_2956
 70
0
 62
7
  6
CONTINUOUS
370
-3
390
F
  0
LAYER
  5
378
100
AcDbSymbolTableRecord
100
AcDbLayerTableRecord
  2
_2984
 70
0
 62
7
  6
CONTINUOUS
370
-3
390
F
  0
LAYER
  5
379
100
AcDbSymbolTableRecord
100
AcDbLayerTableRecord
  2
_3014
 70
0
 62
7
  6
CONTINUOUS
370
-3
390
F
  0
LAYER
  5
37A
100
AcDbSymbolTableRecord
100
AcDbLayerTableRecord
  2
_3046
 70
0
 62
7
  6
CONTINUOUS
370
-3
390
F
  0
LAYER
  5
37B
100
AcDbSymbolTableRecord
100
AcDbLayerTableRecord
  2
_3071
 70
0
 62
7
  6
CONTINUOUS
370
-3
390
F
  0
LAYER
  5
37C
100
AcDbSymbolTableRecord
100
AcDbLayerTableRecord
  2
_3094
 70
0
 62
7
  6
CONTINUOUS
370
-3
390
F
  0
LAYER
  5
37D
100
AcDbSymbolTableRecord
100
AcDbLayerTableRecord
  2
_3129
 70
0
 62
7
  6
CONTINUOUS
370
-3
390
F
  0
LAYER
  5
37E
100
AcDbSymbolTableRecord
100
AcDbLayerTableRecord
  2
_3158
 70
0
 62
7
  6
CONTINUOUS
370
-3
390
F
  0
LAYER
  5
37F
100
AcDbSymbolTableRecord
100
AcDbLayerTableRecord
  2
_3185
 70
0
 62
7
  6
CONTINUOUS
370
-3
390
F
  0
LAYER
  5
380
100
AcDbSymbolTableRecord
100
AcDbLayerTableRecord
  2
_3211
 70
0
 62
7
  6
CONTINUOUS
370
-3
390
F
  0
LAYER
  5
381
100
AcDbSymbolTableRecord
100
AcDbLayerTableRecord
  2
_3239
 70
0
 62
7
  6
CONTINUOUS
370
-3
390
F
  0
LAYER
  5
382
100
AcDbSymbolTableRecord
100
AcDbLayerTableRecord
  2
_3262
 70
0
 62
7
  6
CONTINUOUS
370
-3
390
F
  0
LAYER
  5
383
100
AcDbSymbolTableRecord
100
AcDbLayerTableRecord
  2
_3331
 70
0
 62
7
  6
CONTINUOUS
370
-3
390
F
  0
LAYER
  5
384
100
AcDbSymbolTableRecord
100
AcDbLayerTableRecord
  2
_3359
 70
0
 62
7
  6
CONTINUOUS
370
-3
390
F
  0
LAYER
  5
385
100
AcDbSymbolTableRecord
100
AcDbLayerTableRecord
  2
_3394
 70
0
 62
7
  6
CONTINUOUS
370
-3
390
F
  0
LAYER
  5
386
100
AcDbSymbolTableRecord
100
AcDbLayerTableRecord
  2
_3423
 70
0
 62
7
  6
CONTINUOUS
370
-3
390
F
  0
LAYER
  5
387
100
AcDbSymbolTableRecord
100
AcDbLayerTableRecord
  2
_3455
 70
0
 62
7
  6
CONTINUOUS
370
-3
390
F
  0
LAYER
  5
388
100
AcDbSymbolTableRecord
100
AcDbLayerTableRecord
  2
_3476
 70
0
 62
7
  6
CONTINUOUS
370
-3
390
F
  0
LAYER
  5
389
100
AcDbSymbolTableRecord
100
AcDbLayerTableRecord
  2
_3498
 70
0
 62
7
  6
CONTINUOUS
370
-3
390
F
  0
LAYER
  5
38A
100
AcDbSymbolTableRecord
100
AcDbLayerTableRecord
  2
_3528
 70
0
 62
7
  6
CONTINUOUS
370
-3
390
F
  0
LAYER
  5
38B
100
AcDbSymbolTableRecord
100
AcDbLayerTableRecord
  2
_3544
 70
0
 62
7
  6
CONTINUOUS
370
-3
390
F
  0
LAYER
  5
38C
100
AcDbSymbolTableRecord
100
AcDbLayerTableRecord
  2
_3583
 70
0
 62
7
  6
CONTINUOUS
370
-3
390
F
  0
LAYER
  5
38D
100
AcDbSymbolTableRecord
100
AcDbLayerTableRecord
  2
_3635
 70
0
 62
7
  6
CONTINUOUS
370
-3
390
F
  0
LAYER
  5
38E
100
AcDbSymbolTableRecord
100
AcDbLayerTableRecord
  2
_3656
 70
0
 62
7
  6
CONTINUOUS
370
-3
390
F
  0
LAYER
  5
38F
100
AcDbSymbolTableRecord
100
AcDbLayerTableRecord
  2
_3667
 70
0
 62
7
  6
CONTINUOUS
370
-3
390
F
  0
LAYER
  5
390
100
AcDbSymbolTableRecord
100
AcDbLayerTableRecord
  2
_3692
 70
0
 62
7
  6
CONTINUOUS
370
-3
390
F
  0
LAYER
  5
391
100
AcDbSymbolTableRecord
100
AcDbLayerTableRecord
  2
_3764
 70
0
 62
7
  6
CONTINUOUS
370
-3
390
F
  0
LAYER
  5
392
100
AcDbSymbolTableRecord
100
AcDbLayerTableRecord
  2
_3775
 70
0
 62
7
  6
CONTINUOUS
370
-3
390
F
  0
LAYER
  5
393
100
AcDbSymbolTableRecord
100
AcDbLayerTableRecord
  2
_3800
 70
0
 62
7
  6
CONTINUOUS
370
-3
390
F
  0
LAYER
  5
394
100
AcDbSymbolTableRecord
100
AcDbLayerTableRecord
  2
_3807
 70
0
 62
7
  6
CONTINUOUS
370
-3
390
F
  0
LAYER
  5
395
100
AcDbSymbolTableRecord
100
AcDbLayerTableRecord
  2
_3831
 70
0
 62
7
  6
CONTINUOUS
370
-3
390
F
  0
LAYER
  5
396
100
AcDbSymbolTableRecord
100
AcDbLayerTableRecord
  2
_3858
 70
0
 62
7
  6
CONTINUOUS
370
-3
390
F
  0
LAYER
  5
397
100
AcDbSymbolTableRecord
100
AcDbLayerTableRecord
  2
_6908
 70
0
 62
7
  6
CONTINUOUS
370
-3
390
F
  0
LAYER
  5
398
100
AcDbSymbolTableRecord
100
AcDbLayerTableRecord
  2
_7982
 70
0
 62
7
  6
CONTINUOUS
370
-3
390
F
  0
LAYER
  5
399
100
AcDbSymbolTableRecord
100
AcDbLayerTableRecord
  2
_8048
 70
0
 62
7
  6
CONTINUOUS
370
-3
390
F
  0
LAYER
  5
39A
100
AcDbSymbolTableRecord
100
AcDbLayerTableRecord
  2
_8132
 70
0
 62
7
  6
CONTINUOUS
370
-3
390
F
  0
LAYER
  5
39B
100
AcDbSymbolTableRecord
100
AcDbLayerTableRecord
  2
_817
 70
0
 62
7
  6
CONTINUOUS
370
-3
390
F
  0
LAYER
  5
39C
100
AcDbSymbolTableRecord
100
AcDbLayerTableRecord
  2
_8191
 70
0
 62
7
  6
CONTINUOUS
370
-3
390
F
  0
LAYER
  5
39D
100
AcDbSymbolTableRecord
100
AcDbLayerTableRecord
  2
_8232
 70
0
 62
7
  6
CONTINUOUS
370
-3
390
F
  0
LAYER
  5
39E
100
AcDbSymbolTableRecord
100
AcDbLayerTableRecord
  2
_8352
 70
0
 62
7
  6
CONTINUOUS
370
-3
390
F
  0
LAYER
  5
39F
100
AcDbSymbolTableRecord
100
AcDbLayerTableRecord
  2
_8414
 70
0
 62
7
  6
CONTINUOUS
370
-3
390
F
  0
LAYER
  5
3A0
100
AcDbSymbolTableRecord
100
AcDbLayerTableRecord
  2
_848
 70
0
 62
7
  6
CONTINUOUS
370
-3
390
F
  0
LAYER
  5
3A1
100
AcDbSymbolTableRecord
100
AcDbLayerTableRecord
  2
_8658
 70
0
 62
7
  6
CONTINUOUS
370
-3
390
F
  0
LAYER
  5
3A2
100
AcDbSymbolTableRecord
100
AcDbLayerTableRecord
  2
_883
 70
0
 62
7
  6
CONTINUOUS
370
-3
390
F
  0
LAYER
  5
3A3
100
AcDbSymbolTableRecord
100
AcDbLayerTableRecord
  2
_947
 70
0
 62
7
  6
CONTINUOUS
370
-3
390
F
  0
LAYER
  5
3A4
100
AcDbSymbolTableRecord
100
AcDbLayerTableRecord
  2
_974
 70
0
 62
7
  6
CONTINUOUS
370
-3
390
F
  0
LAYER
  5
3A5
100
AcDbSymbolTableRecord
100
AcDbLayerTableRecord
  2
_998
 70
0
 62
7
  6
CONTINUOUS
370
-3
390
F
  0
LAYER
  5
3A6
100
AcDbSymbolTableRecord
100
AcDbLayerTableRecord
  2
___SHELL
 70
0
 62
7
  6
CONTINUOUS
370
-3
390
F
  0
ENDTAB
  0
TABLE
  2
STYLE
  5
3
100
AcDbSymbolTable
 70
1
  0
STYLE
  5
11
100
AcDbSymbolTableRecord
100
AcDbTextStyleTableRecord
  2
STANDARD
 70
0
 40
0.0
 41
0.8
 50
0.0
 71
0
 42
0.2
  3
txt
  4

  0
STYLE
  5
3A7
100
AcDbSymbolTableRecord
100
AcDbTextStyleTableRecord
  2
TEXTSTYLE_1
 70
0
 40
0.0
 41
0.8
 50
0.0
 71
0
 42
0.2
  3
gdt
  4

  0
ENDTAB
  0
TABLE
  2
VIEW
  5
6
100
AcDbSymbolTable
 70
0
  0
ENDTAB
  0
TABLE
  2
UCS
  5
7
100
AcDbSymbolTable
 70
0
  0
ENDTAB
  0
TABLE
  2
APPID
  5
9
100
AcDbSymbolTable
 70
1
  0
APPID
  5
3A8
100
AcDbSymbolTableRecord
100
AcDbRegAppTableRecord
  2
ACAD
 70
0
  0
ENDTAB
  0
TABLE
  2
BLOCK_RECORD
  5
1
100
AcDbSymbolTable
 70
0
  0
BLOCK_RECORD
  5
3A9
100
AcDbSymbolTableRecord
100
AcDbBlockTableRecord
  2
*Model_Space
  0
BLOCK_RECORD
  5
3AA
100
AcDbSymbolTableRecord
100
AcDbBlockTableRecord
  2
*Paper_Space
  0
ENDTAB
  0
TABLE
  2
DIMSTYLE
  5
A
100
AcDbSymbolTable
 70
1
100
AcDbDimStyleTable
 71
0
  0
DIMSTYLE
105
3AB
100
AcDbSymbolTableRecord
100
AcDbDimStyleTableRecord
  2
STANDARD
 70
0
  3

  4

 40
1.0
 41
3.0
 42
0.5
 43
0.38
 44
1.5
 45
0.0
 46
0.0
 47
0.01
 48
0.01
140
3.0
141
0.09
142
0.0
143
25.4
144
1.0
145
0.0
146
1.0
147
0.625
 71
1.0
 72
0.0
 73
0
 74
0
 75
0
 76
0
 77
1
 78
8
170
0
171
2
172
0
173
0
174
0
175
0
176
0
177
0
178
0
270
2
271
2
272
2
273
2
274
2
275
0
280
0
281
0
282
0
283
1
284
8
285
0
286
0
287
3
288
0
340
11
278
44
  0
ENDTAB
  0
ENDSEC
  0
SECTION
  2
BLOCKS
  0
BLOCK
  5
20
100
AcDbEntity
  8
0
100
AcDbBlockBegin
  2
*Model_Space
 70
0
 10
0.0
 20
0.0
 30
0.0
  3
*Model_Space
  1

  0
ENDBLK
  5
21
100
AcDbEntity
  8
0
100
AcDbBlockEnd
  0
BLOCK
  5
1C
100
AcDbEntity
  8
0
100
AcDbBlockBegin
  2
*Paper_Space
 70
0
 10
0.0
 20
0.0
 30
0.0
  3
*Paper_Space
  1

  0
ENDBLK
  5
1D
100
AcDbEntity
  8
0
100
AcDbBlockEnd
  0
ENDSEC
  0
SECTION
  2
ENTITIES
  0
LINE
  5
3AC
100
AcDbEntity
  8
RACCORDO
100
AcDbLine
 62
253
  6
CONTINUOUS
 10
-27.8734374668
 20
11.3714581475
 11
-27.9089675949
 21
11.3359280194
  0
LINE
  5
3AD
100
AcDbEntity
  8
RACCORDO
100
AcDbLine
 62
7
  6
CONTINUOUS
 10
-27.9089675949
 20
15.1431270198
 11
-27.9089675949
 21
11.3359280194
  0
LINE
  5
3AE
100
AcDbEntity
  8
RACCORDO
100
AcDbLine
 62
253
  6
CONTINUOUS
 10
-27.8734374668
 20
11.3714581475
 11
-27.8734374668
 21
15.1075968916
  0
LINE
  5
3AF
100
AcDbEntity
  8
RACCORDO
100
AcDbLine
 62
253
  6
CONTINUOUS
 10
-27.3737420533
 20
11.3714581475
 11
-27.3737420533
 21
15.1075968916
  0
LWPOLYLINE
  5
3B0
100
AcDbEntity
  8
RACCORDO
100
AcDbPolyline
 62
253
  6
CONTINUOUS
 90
25
 70
0
 10
-27.8734374668
 20
15.1075968916
 10
-27.8691195912
 20
15.238368542
 10
-27.8562625798
 20
15.3685658817
 10
-27.8349231121
 20
15.4976326258
 10
-27.8051945363
 20
15.6250173404
 10
-27.7672051714
 20
15.7501760516
 10
-27.721117476
 20
15.8725744876
 10
-27.6671297397
 20
15.9916895491
 10
-27.6054739352
 20
16.1070131128
 10
-27.5364127977
 20
16.218054161
 10
-27.4602420986
 20
16.3243382327
 10
-27.3772880448
 20
16.4254117091
 10
-27.2879035529
 20
16.5208447001
 10
-27.1924705615
 20
16.6102291844
 10
-27.09139709
 20
16.6931832273
 10
-26.9851130248
 20
16.769353916
 10
-26.8740719836
 20
16.8384150447
 10
-26.7587484283
 20
16.9000708412
 10
-26.6396333751
 20
16.9540585708
 10
-26.5172349468
 20
17.0001462609
 10
-26.3920762429
 20
17.0381356217
 10
-26.2646915346
 20
17.0678641945
 10
-26.1356247957
 20
17.0892036603
 10
-26.0054274602
 20
17.1020606706
 10
-25.8746558127
 20
17.1063785457
  0
LWPOLYLINE
  5
3B1
100
AcDbEntity
  8
RACCORDO
100
AcDbPolyline
 62
253
  6
CONTINUOUS
 90
25
 70
0
 10
-27.3737420533
 20
15.1075968916
 10
-27.37046861
 20
15.206084657
 10
-27.3609097483
 20
15.3034064638
 10
-27.3450654681
 20
15.3995623121
 10
-27.3228138736
 20
15.4949824357
 10
-27.2942768606
 20
15.5892366008
 10
-27.2598201168
 20
15.6810341057
 10
-27.2193689416
 20
15.7703132526
 10
-27.1729980355
 20
15.8571357394
 10
-27.1212971879
 20
15.9403959575
 10
-27.064197733
 20
16.0200488337
 10
-27.0017683365
 20
16.0961394412
 10
-26.9348047842
 20
16.1676973919
 10
-26.8632485105
 20
16.2346650301
 10
-26.7871580809
 20
16.2971000115
 10
-26.7075049775
 20
16.3542049147
 10
-26.6242444486
 20
16.4059105969
 10
-26.537421246
 20
16.452286201
 10
-26.4481411073
 20
16.4927417344
 10
-26.356343733
 20
16.527202397
 10
-26.2620894227
 20
16.5557429889
 10
-26.1666648119
 20
16.5779979176
 10
-26.0704987793
 20
16.5938453189
 10
-25.9731624462
 20
16.6034070571
 10
-25.8746558127
 20
16.6066831322
  0
LINE
  5
3B2
100
AcDbEntity
  8
DRAFT
100
AcDbLine
 62
7
  6
CONTINUOUS
 10
-18.8565864407
 20
17.7006409857
 11
-19.1358674795
 21
17.1419086738
  0
LINE
  5
3B3
100
AcDbEntity
  8
RACCORDO
100
AcDbLine
 62
253
  6
CONTINUOUS
 10
-25.8746558127
 20
9.3726764935
 11
-25.9101859409
 21
9.3371463653
  0
LINE
  5
3B4
100
AcDbEntity
  8
SMUSSO
100
AcDbLine
 62
7
  6
CONTINUOUS
 10
-11.7033824019
 20
22.5728656142
 11
-11.6065407562
 21
22.6697072598
  0
LINE
  5
3B5
100
AcDbEntity
  8
RACCORDO
100
AcDbLine
 62
7
  6
CONTINUOUS
 10
-0.7601859409
 20
-28.8128536347
 11
3.0470130595
 21
-28.8128536347
  0
LINE
  5
3B6
100
AcDbEntity
  8
RACCORDO
100
AcDbLine
 62
253
  6
CONTINUOUS
 10
3.0114829314
 20
-28.7773235065
 11
-0.7246558127
 21
-28.7773235065
  0
LINE
  5
3B7
100
AcDbEntity
  8
RACCORDO
100
AcDbLine
 62
253
  6
CONTINUOUS
 10
3.0114829314
 20
-28.277628093
 11
-0.7246558127
 21
-28.277628093
  0
LWPOLYLINE
  5
3B8
100
AcDbEntity
  8
RACCORDO
100
AcDbPolyline
 62
253
  6
CONTINUOUS
 90
25
 70
0
 10
-0.7246558127
 20
-28.7773235065
 10
-0.8554274631
 20
-28.7730056309
 10
-0.9856248028
 20
-28.7601486196
 10
-1.1146915469
 20
-28.7388091519
 10
-1.2420762615
 20
-28.7090805761
 10
-1.3672349727
 20
-28.6710912112
 10
-1.4896334087
 20
-28.6250035158
 10
-1.6087484702
 20
-28.5710157795
 10
-1.7240720339
 20
-28.509359975
 10
-1.8351130821
 20
-28.4402988375
 10
-1.9413971538
 20
-28.3641281384
 10
-2.0424706302
 20
-28.2811740846
 10
-2.1379036212
 20
-28.1917895927
 10
-2.2272881055
 20
-28.0963566013
 10
-2.3102421484
 20
-27.9952831298
 10
-2.3864128371
 20
-27.8889990646
 10
-2.4554739658
 20
-27.7779580234
 10
-2.5171297623
 20
-27.662634468
 10
-2.5711174919
 20
-27.5435194149
 10
-2.617205182
 20
-27.4211209866
 10
-2.6551945428
 20
-27.2959622826
 10
-2.6849231156
 20
-27.1685775744
 10
-2.7062625814
 20
-27.0395108355
 10
-2.7191195917
 20
-26.9093134999
 10
-2.7234374668
 20
-26.7785418525
  0
LWPOLYLINE
  5
3B9
100
AcDbEntity
  8
RACCORDO
100
AcDbPolyline
 62
253
  6
CONTINUOUS
 90
25
 70
0
 10
-0.7246558127
 20
-28.277628093
 10
-0.8231435781
 20
-28.2743546498
 10
-0.9204653849
 20
-28.2647957881
 10
-1.0166212332
 20
-28.2489515079
 10
-1.1120413569
 20
-28.2266999134
 10
-1.2062955219
 20
-28.1981629004
 10
-1.2980930268
 20
-28.1637061565
 10
-1.3873721737
 20
-28.1232549813
 10
-1.4741946605
 20
-28.0768840753
 10
-1.5574548786
 20
-28.0251832276
 10
-1.6371077548
 20
-27.9680837728
 10
-1.7131983623
 20
-27.9056543763
 10
-1.784756313
 20
-27.838690824
 10
-1.8517239512
 20
-27.7671345502
 10
-1.9141589326
 20
-27.6910441206
 10
-1.9712638358
 20
-27.6113910173
 10
-2.022969518
 20
-27.5281304884
 10
-2.0693451221
 20
-27.4413072858
 10
-2.1098006555
 20
-27.352027147
 10
-2.1442613181
 20
-27.2602297728
 10
-2.17280191
 20
-27.1659754624
 10
-2.1950568387
 20
-27.0705508517
 10
-2.21090424
 20
-26.974384819
 10
-2.2204659782
 20
-26.877048486
 10
-2.2237420533
 20
-26.7785418525
  0
LINE
  5
3BA
100
AcDbEntity
  8
RACCORDO
100
AcDbLine
 62
253
  6
CONTINUOUS
 10
-25.8746558127
 20
17.1063785457
 11
-25.8746558127
 21
16.6066831322
  0
LINE
  5
3BB
100
AcDbEntity
  8
RACCORDO
100
AcDbLine
 62
253
  6
CONTINUOUS
 10
-25.8746558127
 20
9.3726764935
 11
-25.8746558127
 21
9.872371907
  0
LINE
  5
3BC
100
AcDbEntity
  8
RACCORDO
100
AcDbLine
 62
253
  6
CONTINUOUS
 10
5.0102645854
 20
-26.7785418525
 11
4.5105691719
 21
-26.7785418525
  0
LINE
  5
3BD
100
AcDbEntity
  8
RACCORDO
100
AcDbLine
 62
253
  6
CONTINUOUS
 10
-2.7234374668
 20
-26.7785418525
 11
-2.2237420533
 21
-26.7785418525
  0
LINE
  5
3BE
100
AcDbEntity
  8
RACCORDO
100
AcDbLine
 62
7
  6
CONTINUOUS
 10
-18.8565864407
 20
8.7784140535
 11
-18.5768484525
 21
9.3380605425
  0
LINE
  5
3BF
100
AcDbEntity
  8
SMUSSO
100
AcDbLine
 62
7
  6
CONTINUOUS
 10
-6.7033824019
 20
22.5728656142
 11
-6.6065407562
 21
22.6697072598
  0
LINE
  5
3C0
100
AcDbEntity
  8
RACCORDO
100
AcDbLine
 62
253
  6
CONTINUOUS
 10
-19.1534727355
 20
8.1426107638
 11
-19.0565559797
 21
8.2395275196
  0
LINE
  5
3C1
100
AcDbEntity
  8
RACCORDO
100
AcDbLine
 62
253
  6
CONTINUOUS
 10
-18.9535031964
 20
7.9426412248
 11
-18.8565864407
 21
8.0395579805
  0
LWPOLYLINE
  5
3C2
100
AcDbEntity
  8
RACCORDO
100
AcDbPolyline
 62
253
  6
CONTINUOUS
 90
3
 70
0
 10
-16.1249184804
 20
-19.6906522207
 10
-16.1163230105
 20
-19.6923642472
 10
-16.0902267283
 20
-19.6940823071
  0
LWPOLYLINE
  5
3C3
100
AcDbEntity
  8
RACCORDO
100
AcDbPolyline
 62
7
  6
CONTINUOUS
 90
13
 70
0
 10
-20.3565864407
 20
-7.5605029414
 10
-20.3548761765
 20
-7.5866050683
 10
-20.3497740001
 20
-7.6122602465
 10
-20.3413670189
 20
-7.6370297679
 10
-20.3297987778
 20
-7.6604902248
 10
-20.3152669906
 20
-7.6822400307
 10
-20.2980204129
 20
-7.7019064527
 10
-20.2783539909
 20
-7.7191530304
 10
-20.256604185
 20
-7.7336848176
 10
-20.2331437282
 20
-7.7452530587
 10
-20.2083742068
 20
-7.7536600399
 10
-20.1827190285
 20
-7.7587622162
 10
-20.1566169016
 20
-7.7604724804
  0
LINE
  5
3C4
100
AcDbEntity
  8
RACCORDO
100
AcDbLine
 62
253
  6
CONTINUOUS
 10
-20.0419018386
 20
7.9159962465
 11
-20.0378196734
 21
7.7987753218
  0
LINE
  5
3C5
100
AcDbEntity
  8
RACCORDO
100
AcDbLine
 62
253
  6
CONTINUOUS
 10
-19.1712710428
 20
-7.4369412073
 11
-19.1753532079
 21
-7.3197202827
  0
LINE
  5
3C6
100
AcDbEntity
  8
RACCORDO
100
AcDbLine
 62
253
  6
CONTINUOUS
 10
-20.2398401107
 20
7.6802295988
 11
-20.2357256332
 21
7.5556200035
  0
LINE
  5
3C7
100
AcDbEntity
  8
RACCORDO
100
AcDbLine
 62
253
  6
CONTINUOUS
 10
-20.0378196734
 20
7.7987753218
 11
-20.0336742147
 21
7.6488137695
  0
LINE
  5
3C8
100
AcDbEntity
  8
RACCORDO
100
AcDbLine
 62
253
  6
CONTINUOUS
 10
-19.1753532079
 20
-7.3197202827
 11
-19.1794986666
 21
-7.1697587304
  0
LINE
  5
3C9
100
AcDbEntity
  8
RACCORDO
100
AcDbLine
 62
253
  6
CONTINUOUS
 10
-20.2357256332
 20
7.5556200035
 11
-20.231593038
 21
7.3998576804
  0
LINE
  5
3CA
100
AcDbEntity
  8
RACCORDO
100
AcDbLine
 62
253
  6
CONTINUOUS
 10
-20.0336742147
 20
7.6488137695
 11
-20.029584858
 21
7.463603815
  0
LINE
  5
3CB
100
AcDbEntity
  8
RACCORDO
100
AcDbLine
 62
253
  6
CONTINUOUS
 10
-19.1794986666
 20
-7.1697587304
 11
-19.1835880233
 21
-6.9845487759
  0
LINE
  5
3CC
100
AcDbEntity
  8
RACCORDO
100
AcDbLine
 62
253
  6
CONTINUOUS
 10
-20.231593038
 20
7.3998576804
 11
-20.2256350953
 21
7.1039781697
  0
LINE
  5
3CD
100
AcDbEntity
  8
RACCORDO
100
AcDbLine
 62
253
  6
CONTINUOUS
 10
-20.029584858
 20
7.463603815
 11
-20.0238689304
 21
7.1249207675
  0
LINE
  5
3CE
100
AcDbEntity
  8
RACCORDO
100
AcDbLine
 62
253
  6
CONTINUOUS
 10
-19.1835880233
 20
-6.9845487759
 11
-19.189303951
 21
-6.6458657283
  0
LINE
  5
3CF
100
AcDbEntity
  8
RACCORDO
100
AcDbLine
 62
253
  6
CONTINUOUS
 10
-20.2256350953
 20
7.1039781697
 11
-20.2205893805
 21
6.7574031562
  0
LINE
  5
3D0
100
AcDbEntity
  8
RACCORDO
100
AcDbLine
 62
253
  6
CONTINUOUS
 10
-20.0238689304
 20
7.1249207675
 11
-20.0179861818
 21
6.616787662
  0
LINE
  5
3D1
100
AcDbEntity
  8
RACCORDO
100
AcDbLine
 62
253
  6
CONTINUOUS
 10
-19.189303951
 20
-6.6458657283
 11
-19.1951866996
 21
-6.1377326229
  0
LINE
  5
3D2
100
AcDbEntity
  8
RACCORDO
100
AcDbLine
 62
253
  6
CONTINUOUS
 10
-20.2205893805
 20
6.7574031562
 11
-20.2158613688
 21
6.2808493453
  0
LINE
  5
3D3
100
AcDbEntity
  8
RACCORDO
100
AcDbLine
 62
253
  6
CONTINUOUS
 10
-20.0179861818
 20
6.616787662
 11
-20.013158086
 21
5.8749843942
  0
LINE
  5
3D4
100
AcDbEntity
  8
RACCORDO
100
AcDbLine
 62
253
  6
CONTINUOUS
 10
-19.1951866996
 20
-6.1377326229
 11
-19.2000147954
 21
-5.395929355
  0
LINE
  5
3D5
100
AcDbEntity
  8
RACCORDO
100
AcDbLine
 62
253
  6
CONTINUOUS
 10
-20.2158613688
 20
6.2808493453
 11
-20.2123427077
 21
5.6143629328
  0
LINE
  5
3D6
100
AcDbEntity
  8
RACCORDO
100
AcDbLine
 62
7
  6
CONTINUOUS
 10
-20.3565864407
 20
-7.5605029414
 11
-20.3565864407
 21
-4.7604724804
  0
LINE
  5
3D7
100
AcDbEntity
  8
RACCORDO
100
AcDbLine
 62
7
  6
CONTINUOUS
 10
-20.3565864407
 20
5.2395275196
 11
-20.3565864407
 21
8.0395579805
  0
LINE
  5
3D8
100
AcDbEntity
  8
RACCORDO
100
AcDbLine
 62
7
  6
CONTINUOUS
 10
-20.2605835836
 20
4.6521760309
 11
-20.2605835836
 21
-4.1731209918
  0
LINE
  5
3D9
100
AcDbEntity
  8
RACCORDO
100
AcDbLine
 62
253
  6
CONTINUOUS
 10
-20.2123427077
 20
5.6143629328
 11
-20.2116484752
 21
-4.6640126392
  0
LINE
  5
3DA
100
AcDbEntity
  8
RACCORDO
100
AcDbLine
 62
253
  6
CONTINUOUS
 10
-20.013158086
 20
5.8749843942
 11
-20.0116789362
 21
-4.6640126392
  0
LINE
  5
3DB
100
AcDbEntity
  8
RACCORDO
100
AcDbLine
 62
253
  6
CONTINUOUS
 10
-19.2000147954
 20
-5.395929355
 11
-19.2014939452
 21
5.1430676783
  0
LINE
  5
3DC
100
AcDbEntity
  8
RACCORDO
100
AcDbLine
 62
253
  6
CONTINUOUS
 10
-20.0116789362
 20
-4.6640126392
 11
-20.0131580861
 21
-5.395929355
  0
LINE
  5
3DD
100
AcDbEntity
  8
RACCORDO
100
AcDbLine
 62
253
  6
CONTINUOUS
 10
-19.2014939452
 20
5.1430676783
 11
-19.2000147952
 21
5.8749843942
  0
LINE
  5
3DE
100
AcDbEntity
  8
RACCORDO
100
AcDbLine
 62
253
  6
CONTINUOUS
 10
-20.2116484752
 20
-4.6640126392
 11
-20.2131266331
 21
-5.3468759395
  0
LINE
  5
3DF
100
AcDbEntity
  8
RACCORDO
100
AcDbLine
 62
253
  6
CONTINUOUS
 10
-20.2131266331
 20
-5.3468759395
 11
-20.2168400704
 21
-5.919847455
  0
LINE
  5
3E0
100
AcDbEntity
  8
RACCORDO
100
AcDbLine
 62
253
  6
CONTINUOUS
 10
-20.0131580861
 20
-5.395929355
 11
-20.0179861818
 21
-6.1377326229
  0
LINE
  5
3E1
100
AcDbEntity
  8
RACCORDO
100
AcDbLine
 62
253
  6
CONTINUOUS
 10
-19.2000147952
 20
5.8749843942
 11
-19.1951866995
 21
6.616787662
  0
LINE
  5
3E2
100
AcDbEntity
  8
RACCORDO
100
AcDbLine
 62
253
  6
CONTINUOUS
 10
-20.2168400704
 20
-5.919847455
 11
-20.2221414692
 21
-6.3966341143
  0
LINE
  5
3E3
100
AcDbEntity
  8
RACCORDO
100
AcDbLine
 62
253
  6
CONTINUOUS
 10
-20.0179861818
 20
-6.1377326229
 11
-20.0238689304
 21
-6.6458657283
  0
LINE
  5
3E4
100
AcDbEntity
  8
RACCORDO
100
AcDbLine
 62
253
  6
CONTINUOUS
 10
-19.1951866995
 20
6.616787662
 11
-19.189303951
 21
7.1249207675
  0
LINE
  5
3E5
100
AcDbEntity
  8
RACCORDO
100
AcDbLine
 62
253
  6
CONTINUOUS
 10
-20.2221414692
 20
-6.3966341143
 11
-20.227544569
 21
-6.7300425898
  0
LINE
  5
3E6
100
AcDbEntity
  8
RACCORDO
100
AcDbLine
 62
253
  6
CONTINUOUS
 10
-20.0238689304
 20
-6.6458657283
 11
-20.029584858
 21
-6.9845487759
  0
LINE
  5
3E7
100
AcDbEntity
  8
RACCORDO
100
AcDbLine
 62
253
  6
CONTINUOUS
 10
-19.189303951
 20
7.1249207675
 11
-19.1835880233
 21
7.463603815
  0
LINE
  5
3E8
100
AcDbEntity
  8
RACCORDO
100
AcDbLine
 62
253
  6
CONTINUOUS
 10
-18.9893352784
 20
6.9926500783
 11
-18.9836174799
 21
7.3085842547
  0
LINE
  5
3E9
100
AcDbEntity
  8
RACCORDO
100
AcDbLine
 62
253
  6
CONTINUOUS
 10
-20.227544569
 20
-6.7300425898
 11
-20.231593038
 21
-6.9208026411
  0
LINE
  5
3EA
100
AcDbEntity
  8
RACCORDO
100
AcDbLine
 62
253
  6
CONTINUOUS
 10
-20.029584858
 20
-6.9845487759
 11
-20.0336742147
 21
-7.1697587304
  0
LINE
  5
3EB
100
AcDbEntity
  8
RACCORDO
100
AcDbLine
 62
253
  6
CONTINUOUS
 10
-19.1835880233
 20
7.463603815
 11
-19.1794986666
 21
7.6488137695
  0
LINE
  5
3EC
100
AcDbEntity
  8
RACCORDO
100
AcDbLine
 62
253
  6
CONTINUOUS
 10
-18.9836174799
 20
7.3085842547
 11
-18.9795269478
 21
7.4818454424
  0
LINE
  5
3ED
100
AcDbEntity
  8
RACCORDO
100
AcDbLine
 62
253
  6
CONTINUOUS
 10
-20.231593038
 20
-6.9208026411
 11
-20.2357256332
 21
-7.0765649654
  0
LINE
  5
3EE
100
AcDbEntity
  8
RACCORDO
100
AcDbLine
 62
253
  6
CONTINUOUS
 10
-20.0336742147
 20
-7.1697587304
 11
-20.0378196734
 21
-7.3197202827
  0
LINE
  5
3EF
100
AcDbEntity
  8
RACCORDO
100
AcDbLine
 62
253
  6
CONTINUOUS
 10
-19.1794986666
 20
7.6488137695
 11
-19.1753532079
 21
7.7987753218
  0
LWPOLYLINE
  5
3F0
100
AcDbEntity
  8
RACCORDO
100
AcDbPolyline
 62
253
  6
CONTINUOUS
 90
14
 70
0
 10
-18.9795269478
 20
7.4818454424
 10
-18.9753806625
 20
7.6218183896
 10
-18.9733327706
 20
7.6802295982
 10
-18.9712979927
 20
7.7310646297
 10
-18.9692995076
 20
7.7755935063
 10
-18.9673400161
 20
7.8138050387
 10
-18.9654168173
 20
7.8457104162
 10
-18.9635449879
 20
7.8726132278
 10
-18.9617265799
 20
7.8945384542
 10
-18.9599595412
 20
7.9114611148
 10
-18.9582527915
 20
7.9246098573
 10
-18.9566093042
 20
7.9343942312
 10
-18.9550261058
 20
7.940404687
 10
-18.9535031964
 20
7.9426412248
  0
LWPOLYLINE
  5
3F1
100
AcDbEntity
  8
RACCORDO
100
AcDbPolyline
 62
253
  6
CONTINUOUS
 90
13
 70
0
 10
-20.2357256332
 20
-7.0765649654
 10
-20.2398401107
 20
-7.2011745591
 10
-20.2418748886
 20
-7.2520095906
 10
-20.2438733737
 20
-7.2965384672
 10
-20.2458328652
 20
-7.3347499996
 10
-20.247756064
 20
-7.366655377
 10
-20.2496278935
 20
-7.3935581887
 10
-20.2514463014
 20
-7.4154834151
 10
-20.2532133401
 20
-7.4324060756
 10
-20.2549200898
 20
-7.4455548182
 10
-20.2565635772
 20
-7.455339192
 10
-20.2581467755
 20
-7.4613496478
 10
-20.2596696849
 20
-7.4635861856
  0
LWPOLYLINE
  5
3F2
100
AcDbEntity
  8
RACCORDO
100
AcDbPolyline
 62
253
  6
CONTINUOUS
 90
12
 70
0
 10
-20.0378196734
 20
-7.3197202827
 10
-20.0419018386
 20
-7.4369412073
 10
-20.0439001548
 20
-7.4844946314
 10
-20.0458595199
 20
-7.5252861835
 10
-20.0477826379
 20
-7.5597804607
 10
-20.0496544127
 20
-7.5884711941
 10
-20.0514726461
 20
-7.6118054357
 10
-20.0532395363
 20
-7.6302315627
 10
-20.0549465816
 20
-7.6442084215
 10
-20.056590948
 20
-7.6541561494
 10
-20.0581754694
 20
-7.6604734021
 10
-20.0597001459
 20
-7.6635557247
  0
LWPOLYLINE
  5
3F3
100
AcDbEntity
  8
RACCORDO
100
AcDbPolyline
 62
253
  6
CONTINUOUS
 90
12
 70
0
 10
-19.1753532079
 20
7.7987753218
 10
-19.1712710427
 20
7.9159962465
 10
-19.1692727265
 20
7.9635496706
 10
-19.1673133615
 20
8.0043412227
 10
-19.1653902435
 20
8.0388354998
 10
-19.1635184687
 20
8.0675262332
 10
-19.1617002352
 20
8.0908604749
 10
-19.159933345
 20
8.1092866018
 10
-19.1582262998
 20
8.1232634606
 10
-19.1565819334
 20
8.1332111885
 10
-19.1549974119
 20
8.1395284412
 10
-19.1534727355
 20
8.1426107638
  0
LINE
  5
3F4
100
AcDbEntity
  8
SMUSSO
100
AcDbLine
 62
7
  6
CONTINUOUS
 10
-1.7033824019
 20
22.5728656142
 11
-1.6065407562
 21
22.6697072598
  0
LINE
  5
3F5
100
AcDbEntity
  8
RACCORDO
100
AcDbLine
 62
7
  6
CONTINUOUS
 10
-18.9440140817
 20
5.1520998785
 11
-18.8565864407
 21
5.2395275196
  0
LINE
  5
3F6
100
AcDbEntity
  8
RACCORDO
100
AcDbLine
 62
7
  6
CONTINUOUS
 10
-17.0770769097
 20
9.872371907
 11
-17.2616942001
 21
9.7661905887
  0
LWPOLYLINE
  5
3F7
100
AcDbEntity
  8
RACCORDO
100
AcDbPolyline
 62
7
  6
CONTINUOUS
 90
21
 70
0
 10
-17.2616942001
 20
9.7661905887
 10
-17.3673638946
 20
9.7063819871
 10
-17.4164459059
 20
9.6790278962
 10
-17.4634366843
 20
9.6531740702
 10
-17.5083338259
 20
9.6288339217
 10
-17.5523548801
 20
9.6053248243
 10
-17.5955819395
 20
9.5827003864
 10
-17.6379329116
 20
9.5610250399
 10
-17.6803790676
 20
9.5397653848
 10
-17.7232574953
 20
9.5189382642
 10
-17.766231107
 20
9.4988246581
 10
-17.8092599109
 20
9.4794111323
 10
-17.8524980206
 20
9.4608559719
 10
-17.8957913226
 20
9.4434251742
 10
-17.938637484
 20
9.4273255767
 10
-17.9810936933
 20
9.4127832182
 10
-18.0231027621
 20
9.4000692363
 10
-18.0639907927
 20
9.3894606458
 10
-18.1035331527
 20
9.3812042615
 10
-18.1419544745
 20
9.3755312379
 10
-18.1792547582
 20
9.3726764935
  0
LWPOLYLINE
  5
3F8
100
AcDbEntity
  8
RACCORDO
100
AcDbPolyline
 62
253
  6
CONTINUOUS
 90
8
 70
0
 10
19.2464652666
 20
22.0728351196
 10
19.2382561499
 20
22.0702171866
 10
19.2198506673
 20
22.0676257933
 10
19.1912890753
 20
22.0650609396
 10
19.1526422706
 20
22.0625141068
 10
19.1040195512
 20
22.0599938136
 10
19.0455753859
 20
22.057525616
 10
18.9774843694
 20
22.0551098481
  0
LWPOLYLINE
  5
3F9
100
AcDbEntity
  8
RACCORDO
100
AcDbPolyline
 62
253
  6
CONTINUOUS
 90
3
 70
0
 10
18.377053847
 20
-19.6940823071
 10
18.4031500169
 20
-19.692364262
 10
18.4117455992
 20
-19.6906522207
  0
LWPOLYLINE
  5
3FA
100
AcDbEntity
  8
RACCORDO
100
AcDbPolyline
 62
253
  6
CONTINUOUS
 90
19
 70
0
 10
16.7456065403
 20
-20.7084389306
 10
16.7689300455
 20
-20.7070609627
 10
16.7919415528
 20
-20.7029689197
 10
16.8143261615
 20
-20.6962164033
 10
16.8357858972
 20
-20.6868890361
 10
16.8560163568
 20
-20.6751146721
 10
16.8747165684
 20
-20.6610717316
 10
16.8916186444
 20
-20.6449767701
 10
16.9065185553
 20
-20.6270410392
 10
16.9192421083
 20
-20.6074744501
 10
16.9296263617
 20
-20.5864997875
 10
16.9374967637
 20
-20.5644354221
 10
16.9427241389
 20
-20.5416642003
 10
16.9452581188
 20
-20.5185027395
 10
16.9450859796
 20
-20.4952668007
 10
16.9422460706
 20
-20.472349441
 10
16.9368329431
 20
-20.4500760245
 10
16.9289634338
 20
-20.4287008627
 10
16.9187852411
 20
-20.4084846221
  0
LWPOLYLINE
  5
3FB
100
AcDbEntity
  8
RACCORDO
100
AcDbPolyline
 62
253
  6
CONTINUOUS
 90
25
 70
0
 10
18.8638511968
 20
-19.4807345186
 10
18.9946842498
 20
-19.4764288942
 10
19.124940459
 20
-19.4635752976
 10
19.2540622225
 20
-19.4422319956
 10
19.3814915693
 20
-19.4124950941
 10
19.5066894466
 20
-19.3744942457
 10
19.6291369443
 20
-19.3283884339
 10
19.7483155728
 20
-19.2743720164
 10
19.8637091643
 20
-19.2126780621
 10
19.9748223693
 20
-19.1435712603
 10
20.0811791052
 20
-19.0673478706
 10
20.1823247246
 20
-18.9843339357
 10
20.2778265776
 20
-18.8948845775
 10
20.3672758567
 20
-18.7993826818
 10
20.4502896996
 20
-18.6982370409
 10
20.5265130108
 20
-18.5918802735
 10
20.5956197498
 20
-18.4807670172
 10
20.6573136475
 20
-18.3653733594
 10
20.7113300152
 20
-18.246194636
 10
20.7574373443
 20
-18.123742398
 10
20.7954390944
 20
-17.998539564
 10
20.825173408
 20
-17.8711194298
 10
20.8465128074
 20
-17.7420264048
 10
20.8593653226
 20
-17.6118138543
 10
20.8636755712
 20
-17.4810391019
  0
LINE
  5
3FC
100
AcDbEntity
  8
RACCORDO
100
AcDbLine
 62
7
  6
CONTINUOUS
 10
17.4500221467
 20
-20.8184667662
 11
13.8368049719
 21
-20.8184667662
  0
LINE
  5
3FD
100
AcDbEntity
  8
RACCORDO
100
AcDbLine
 62
7
  6
CONTINUOUS
 10
17.4151013773
 20
-20.8010117013
 11
16.9059472826
 21
-20.8010117013
  0
LINE
  5
3FE
100
AcDbEntity
  8
RACCORDO
100
AcDbLine
 62
7
  6
CONTINUOUS
 10
14.3808798361
 20
-20.8010117013
 11
13.8717257414
 21
-20.8010117013
  0
LINE
  5
3FF
100
AcDbEntity
  8
RACCORDO
100
AcDbLine
 62
253
  6
CONTINUOUS
 10
14.5412205783
 20
-20.7084389306
 11
16.7456065403
 21
-20.7084389306
  0
LINE
  5
400
100
AcDbEntity
  8
RACCORDO
100
AcDbLine
 62
253
  6
CONTINUOUS
 10
14.5412211223
 20
-20.5084693916
 11
16.7456065933
 21
-20.5084693916
  0
LINE
  5
401
100
AcDbEntity
  8
RACCORDO
100
AcDbLine
 62
7
  6
CONTINUOUS
 10
19.143718169
 20
-19.7604724804
 11
17.7547844738
 21
-19.7604724804
  0
LINE
  5
402
100
AcDbEntity
  8
RACCORDO
100
AcDbLine
 62
7
  6
CONTINUOUS
 10
13.5320426449
 20
-19.7604724804
 11
5.3251608695
 21
-19.7604724804
  0
LINE
  5
403
100
AcDbEntity
  8
RACCORDO
100
AcDbLine
 62
7
  6
CONTINUOUS
 10
-3.0383337508
 20
-19.7604724804
 11
-16.8568910504
 21
-19.7604724804
  0
LINE
  5
404
100
AcDbEntity
  8
RACCORDO
100
AcDbLine
 62
253
  6
CONTINUOUS
 10
-16.0902267283
 20
-19.6940823071
 11
-3.1780168288
 21
-19.6940823071
  0
LINE
  5
405
100
AcDbEntity
  8
RACCORDO
100
AcDbLine
 62
253
  6
CONTINUOUS
 10
5.4648439475
 20
-19.6940823071
 11
13.3923595669
 21
-19.6940823071
  0
LINE
  5
406
100
AcDbEntity
  8
RACCORDO
100
AcDbLine
 62
253
  6
CONTINUOUS
 10
17.8944675518
 20
-19.6940823071
 11
18.377053847
 21
-19.6940823071
  0
LINE
  5
407
100
AcDbEntity
  8
DRAFT
100
AcDbLine
 62
7
  6
CONTINUOUS
 10
-16.3740415056
 20
-19.6906522207
 11
-3.1780168288
 21
-19.6906522207
  0
LINE
  5
408
100
AcDbEntity
  8
DRAFT
100
AcDbLine
 62
7
  6
CONTINUOUS
 10
5.4648439475
 20
-19.6906522207
 11
13.3923595669
 21
-19.6906522207
  0
LINE
  5
409
100
AcDbEntity
  8
DRAFT
100
AcDbLine
 62
7
  6
CONTINUOUS
 10
17.8944675518
 20
-19.6906522207
 11
18.6608686243
 21
-19.6906522207
  0
LWPOLYLINE
  5
40A
100
AcDbEntity
  8
RACCORDO
100
AcDbPolyline
 62
253
  6
CONTINUOUS
 90
11
 70
0
 10
-19.1534724027
 20
-7.6635560821
 10
-19.1549972271
 20
-7.6604739546
 10
-19.1565818595
 20
-7.6541565181
 10
-19.1582262998
 20
-7.6442084215
 10
-19.1599333697
 20
-7.6302313356
 10
-19.1617002475
 20
-7.6118052948
 10
-19.1635184686
 20
-7.5884711941
 10
-19.1653902434
 20
-7.5597804607
 10
-19.1673133615
 20
-7.5252861835
 10
-19.1692727266
 20
-7.4844946314
 10
-19.1712710428
 20
-7.4369412073
  0
LWPOLYLINE
  5
40B
100
AcDbEntity
  8
RACCORDO
100
AcDbPolyline
 62
253
  6
CONTINUOUS
 90
25
 70
0
 10
-17.0770769097
 20
-17.4810391019
 10
-17.0759856124
 20
-17.5138707555
 10
-17.0727973981
 20
-17.546316569
 10
-17.0675122667
 20
-17.5783765424
 10
-17.0600898926
 20
-17.6101942641
 10
-17.0505706014
 20
-17.6416261456
 10
-17.0390753705
 20
-17.6722414223
 10
-17.025578762
 20
-17.7020202105
 10
-17.0101062138
 20
-17.7309823938
 10
-16.9928550163
 20
-17.7587568585
 10
-16.9738017795
 20
-17.7853284108
 10
-16.9529698935
 20
-17.8107122445
 10
-16.9306268179
 20
-17.8345828266
 10
-16.9067535337
 20
-17.8569201212
 10
-16.88136906
 20
-17.8777441641
 10
-16.854797914
 20
-17.8967895307
 10
-16.8270247925
 20
-17.9140332726
 10
-16.7980649986
 20
-17.9294983381
 10
-16.7682889586
 20
-17.9429881473
 10
-16.7376749382
 20
-17.9544775629
 10
-16.7062446717
 20
-17.9639917222
 10
-16.6744337879
 20
-17.9714094573
 10
-16.6423874965
 20
-17.9766903789
 10
-16.6099605879
 20
-17.9798748763
 10
-16.5771530622
 20
-17.9809629495
  0
LWPOLYLINE
  5
40C
100
AcDbEntity
  8
RACCORDO
100
AcDbPolyline
 62
253
  6
CONTINUOUS
 90
25
 70
0
 10
-18.5768484788
 20
-17.4809101179
 10
-18.5725428544
 20
-17.6117431709
 10
-18.5596892578
 20
-17.7419993801
 10
-18.5383459558
 20
-17.8711211436
 10
-18.5086090544
 20
-17.9985504904
 10
-18.4706082059
 20
-18.1237483677
 10
-18.4245023941
 20
-18.2461958654
 10
-18.3704859766
 20
-18.3653744939
 10
-18.3087920223
 20
-18.4807680854
 10
-18.2396852205
 20
-18.5918812904
 10
-18.1634618308
 20
-18.6982380264
 10
-18.080447896
 20
-18.7993836457
 10
-17.9909985377
 20
-18.8948854987
 10
-17.895496642
 20
-18.9843347778
 10
-17.7943510011
 20
-19.0673486207
 10
-17.6879942338
 20
-19.1435719319
 10
-17.5768809774
 20
-19.2126786709
 10
-17.4614873196
 20
-19.2743725686
 10
-17.3423085962
 20
-19.3283889363
 10
-17.2198563583
 20
-19.3744962654
 10
-17.0946535242
 20
-19.4124980155
 10
-16.96723339
 20
-19.4422323291
 10
-16.8381403651
 20
-19.4635717285
 10
-16.7079278145
 20
-19.4764242437
 10
-16.5771530622
 20
-19.4807344923
  0
LINE
  5
40D
100
AcDbEntity
  8
RACCORDO
100
AcDbLine
 62
253
  6
CONTINUOUS
 10
-18.9733327706
 20
-7.2011745597
 11
-18.9774472481
 21
-7.0765649644
  0
LINE
  5
40E
100
AcDbEntity
  8
RACCORDO
100
AcDbLine
 62
253
  6
CONTINUOUS
 10
-18.9774472481
 20
-7.0765649644
 11
-18.9815798433
 21
-6.9208026413
  0
LINE
  5
40F
100
AcDbEntity
  8
RACCORDO
100
AcDbLine
 62
253
  6
CONTINUOUS
 10
-18.9815798433
 20
-6.9208026413
 11
-18.9875377861
 21
-6.6249231306
  0
LINE
  5
410
100
AcDbEntity
  8
RACCORDO
100
AcDbLine
 62
253
  6
CONTINUOUS
 10
-18.9875377861
 20
-6.6249231306
 11
-18.9925835008
 21
-6.278348117
  0
LINE
  5
411
100
AcDbEntity
  8
RACCORDO
100
AcDbLine
 62
253
  6
CONTINUOUS
 10
-18.9925835008
 20
-6.278348117
 11
-18.9973115125
 21
-5.8017943062
  0
LINE
  5
412
100
AcDbEntity
  8
RACCORDO
100
AcDbLine
 62
253
  6
CONTINUOUS
 10
-18.9973115125
 20
-5.8017943062
 11
-19.0008301736
 21
-5.1353078937
  0
LINE
  5
413
100
AcDbEntity
  8
RACCORDO
100
AcDbLine
 62
253
  6
CONTINUOUS
 10
-19.0008301736
 20
-5.1353078937
 11
-19.0015244061
 21
5.1430676783
  0
LINE
  5
414
100
AcDbEntity
  8
RACCORDO
100
AcDbLine
 62
7
  6
CONTINUOUS
 10
-18.9525892978
 20
4.6521760309
 11
-18.9525892978
 21
-4.1731209918
  0
LINE
  5
415
100
AcDbEntity
  8
RACCORDO
100
AcDbLine
 62
7
  6
CONTINUOUS
 10
-18.8565864407
 20
18.2398321292
 11
-18.8565864407
 21
17.7006409857
  0
LINE
  5
416
100
AcDbEntity
  8
RACCORDO
100
AcDbLine
 62
7
  6
CONTINUOUS
 10
-18.8565864407
 20
8.7784140535
 11
-18.8565864407
 21
8.4394970586
  0
LINE
  5
417
100
AcDbEntity
  8
RACCORDO
100
AcDbLine
 62
7
  6
CONTINUOUS
 10
-18.8565864407
 20
8.0395579805
 11
-18.8565864407
 21
5.2395275196
  0
LINE
  5
418
100
AcDbEntity
  8
DRAFT
100
AcDbLine
 62
7
  6
CONTINUOUS
 10
-18.8565864407
 20
8.7784140535
 11
-18.8565864407
 21
5.0005957338
  0
LINE
  5
419
100
AcDbEntity
  8
DRAFT
100
AcDbLine
 62
7
  6
CONTINUOUS
 10
-18.8565864407
 20
-4.5215406947
 11
-18.8565864407
 21
-4.7604724804
  0
LINE
  5
41A
100
AcDbEntity
  8
RACCORDO
100
AcDbLine
 62
7
  6
CONTINUOUS
 10
-18.8565864407
 20
-4.6487152665
 11
-18.8565864407
 21
-17.7607770901
  0
LINE
  5
41B
100
AcDbEntity
  8
RACCORDO
100
AcDbLine
 62
7
  6
CONTINUOUS
 10
-18.7605835836
 20
-4.0757831104
 11
-18.7605835836
 21
4.5548381495
  0
LINE
  5
41C
100
AcDbEntity
  8
RACCORDO
100
AcDbLine
 62
253
  6
CONTINUOUS
 10
-18.5768484525
 20
17.9600941411
 11
-18.5768484525
 21
17.1409944966
  0
LINE
  5
41D
100
AcDbEntity
  8
RACCORDO
100
AcDbLine
 62
253
  6
CONTINUOUS
 10
-18.5768484525
 20
-17.4809100874
 11
-18.5768484525
 21
9.3380605425
  0
LINE
  5
41E
100
AcDbEntity
  8
RACCORDO
100
AcDbLine
 62
7
  6
CONTINUOUS
 10
-17.2499361093
 20
-1.7084403031
 11
-17.2499361093
 21
-5.8125046578
  0
LINE
  5
41F
100
AcDbEntity
  8
0
100
AcDbLine
 62
7
  6
CONTINUOUS
 10
-17.1506166745
 20
-5.6138052486
 11
-17.1506166745
 21
-1.9071397123
  0
LINE
  5
420
100
AcDbEntity
  8
RACCORDO
100
AcDbLine
 62
253
  6
CONTINUOUS
 10
-17.0770769097
 20
17.9600941411
 11
-17.0770769097
 21
16.6066831322
  0
LINE
  5
421
100
AcDbEntity
  8
RACCORDO
100
AcDbLine
 62
253
  6
CONTINUOUS
 10
-17.0770769097
 20
9.872371907
 11
-17.0770769097
 21
-1.7080913262
  0
LINE
  5
422
100
AcDbEntity
  8
RACCORDO
100
AcDbLine
 62
253
  6
CONTINUOUS
 10
-17.0770769097
 20
-5.8128536347
 11
-17.0770769097
 21
-17.4810391019
  0
LINE
  5
423
100
AcDbEntity
  8
RACCORDO
100
AcDbLine
 62
7
  6
CONTINUOUS
 10
-17.0565864407
 20
20.3190029974
 11
-17.0565864407
 21
22.1697834123
  0
LINE
  5
424
100
AcDbEntity
  8
RACCORDO
100
AcDbLine
 62
253
  6
CONTINUOUS
 10
-16.959638148
 20
22.0728351196
 11
-16.959638148
 21
20.2220547047
  0
LINE
  5
425
100
AcDbEntity
  8
0
100
AcDbLine
 62
253
  6
CONTINUOUS
 10
-16.7605074195
 20
-5.759364099
 11
-16.7605074195
 21
-5.5756404062
  0
LINE
  5
426
100
AcDbEntity
  8
0
100
AcDbLine
 62
253
  6
CONTINUOUS
 10
-16.7605074195
 20
-1.9453045547
 11
-16.7605074195
 21
-1.7615808619
  0
LINE
  5
427
100
AcDbEntity
  8
RACCORDO
100
AcDbLine
 62
253
  6
CONTINUOUS
 10
-19.0015244061
 20
5.1430676783
 11
-19.0000462483
 21
5.8259309787
  0
LINE
  5
428
100
AcDbEntity
  8
RACCORDO
100
AcDbLine
 62
253
  6
CONTINUOUS
 10
-19.0000462483
 20
5.8259309787
 11
-18.9963328109
 21
6.3989024941
  0
LWPOLYLINE
  5
429
100
AcDbEntity
  8
RACCORDO
100
AcDbPolyline
 62
253
  6
CONTINUOUS
 90
3
 70
0
 10
-18.9963328109
 20
6.3989024941
 10
-18.9910314121
 20
6.8756891534
 10
-18.9893352784
 20
6.9926500783
  0
LWPOLYLINE
  5
42A
100
AcDbEntity
  8
RACCORDO
100
AcDbPolyline
 62
253
  6
CONTINUOUS
 90
16
 70
0
 10
-16.959638148
 20
22.0728351196
 10
-16.9568846603
 20
22.1250812978
 10
-16.9486861805
 20
22.1767552777
 10
-16.935132498
 20
22.2272911278
 10
-16.9163720522
 20
22.2761353811
 10
-16.8926103068
 20
22.3227530971
 10
-16.8641074997
 20
22.3666337203
 10
-16.8311757926
 20
22.4072966716
 10
-16.7941758524
 20
22.4442966118
 10
-16.7535129011
 20
22.4772283189
 10
-16.7096322779
 20
22.505731126
 10
-16.6630145619
 20
22.5294928714
 10
-16.6141703086
 20
22.5482533172
 10
-16.5636344585
 20
22.5618069997
 10
-16.5119604786
 20
22.5700054795
 10
-16.4597143004
 20
22.5727589671
  0
LINE
  5
42B
100
AcDbEntity
  8
0
100
AcDbLine
 62
7
  6
CONTINUOUS
 10
-18.8565864407
 20
-4.6487152665
 11
-18.8142293624
 21
-4.5215406947
  0
LINE
  5
42C
100
AcDbEntity
  8
RACCORDO
100
AcDbLine
 62
7
  6
CONTINUOUS
 10
-18.8142293624
 20
-4.5215406947
 11
-18.7655460448
 21
-4.3753719709
  0
LWPOLYLINE
  5
42D
100
AcDbEntity
  8
RACCORDO
100
AcDbPolyline
 62
253
  6
CONTINUOUS
 90
9
 70
0
 10
18.7465414191
 20
22.5727589671
 10
18.7395965798
 20
22.5701458168
 10
18.7242045731
 20
22.5675577484
 10
18.7003653988
 20
22.5649947621
 10
18.667955064
 20
22.562447851
 10
18.6270975617
 20
22.5599260219
 10
18.5781648706
 20
22.5574562954
 10
18.5210623648
 20
22.5550394895
 10
18.4558846703
 20
22.5526747862
  0
LWPOLYLINE
  5
42E
100
AcDbEntity
  8
RACCORDO
100
AcDbPolyline
 62
253
  6
CONTINUOUS
 90
25
 70
0
 10
18.8639801808
 20
-17.9809629495
 10
18.8968118344
 20
-17.9798716522
 10
18.9292576479
 20
-17.9766834379
 10
18.9613176213
 20
-17.9713983065
 10
18.9931353429
 20
-17.9639759324
 10
19.0245672245
 20
-17.9544566412
 10
19.0551825012
 20
-17.9429614103
 10
19.0849612894
 20
-17.9294648018
 10
19.1139234727
 20
-17.9139922536
 10
19.1416979374
 20
-17.896741056
 10
19.1682694897
 20
-17.8776878193
 10
19.1936533234
 20
-17.8568559333
 10
19.2175239055
 20
-17.8345128577
 10
19.2398612001
 20
-17.8106395735
 10
19.260685243
 20
-17.7852550998
 10
19.2797306096
 20
-17.7586839537
 10
19.2969743515
 20
-17.7309108323
 10
19.312439417
 20
-17.7019510384
 10
19.3259292262
 20
-17.6721749984
 10
19.3374186418
 20
-17.641560978
 10
19.3469328011
 20
-17.6101307114
 10
19.3543505362
 20
-17.5783198276
 10
19.3596314578
 20
-17.5462735363
 10
19.3628159552
 20
-17.5138466277
 10
19.3639040284
 20
-17.4810391019
  0
LINE
  5
42F
100
AcDbEntity
  8
RACCORDO
100
AcDbLine
 62
7
  6
CONTINUOUS
 10
13.6717257228
 20
-19.5510117013
 11
14.4098528694
 21
-19.5510117013
  0
LINE
  5
430
100
AcDbEntity
  8
RACCORDO
100
AcDbLine
 62
7
  6
CONTINUOUS
 10
16.8769742492
 20
-19.5510117013
 11
17.6151013958
 21
-19.5510117013
  0
LINE
  5
431
100
AcDbEntity
  8
RACCORDO
100
AcDbLine
 62
253
  6
CONTINUOUS
 10
16.7552533752
 20
-19.4807361219
 11
18.8638511663
 21
-19.4807344923
  0
LINE
  5
432
100
AcDbEntity
  8
RACCORDO
100
AcDbLine
 62
253
  6
CONTINUOUS
 10
-16.5771530622
 20
-19.4807344923
 11
-2.7580534177
 21
-19.4807344923
  0
LINE
  5
433
100
AcDbEntity
  8
RACCORDO
100
AcDbLine
 62
253
  6
CONTINUOUS
 10
5.0448805364
 20
-19.4807344923
 11
14.5315765661
 21
-19.4807344923
  0
LINE
  5
434
100
AcDbEntity
  8
RACCORDO
100
AcDbLine
 62
253
  6
CONTINUOUS
 10
-16.5771530622
 20
-17.9809629495
 11
-2.2237420533
 21
-17.9809629495
  0
LINE
  5
435
100
AcDbEntity
  8
RACCORDO
100
AcDbLine
 62
253
  6
CONTINUOUS
 10
4.5105691719
 20
-17.9809629495
 11
15.5465820674
 21
-17.9809701099
  0
LINE
  5
436
100
AcDbEntity
  8
RACCORDO
100
AcDbLine
 62
253
  6
CONTINUOUS
 10
15.740232998
 20
-17.9809570738
 11
18.8639801808
 21
-17.9809629495
  0
LINE
  5
437
100
AcDbEntity
  8
RACCORDO
100
AcDbLine
 62
7
  6
CONTINUOUS
 10
-16.1101536061
 20
-17.5139634934
 11
18.3969807247
 21
-17.5139634934
  0
LINE
  5
438
100
AcDbEntity
  8
RACCORDO
100
AcDbLine
 62
7
  6
CONTINUOUS
 10
-16.1066625931
 20
-17.5104724804
 11
18.3934897118
 21
-17.5104724804
  0
LINE
  5
439
100
AcDbEntity
  8
RACCORDO
100
AcDbLine
 62
253
  6
CONTINUOUS
 10
-17.0770769097
 20
-17.4810391019
 11
-18.5768484525
 21
-17.4810391011
  0
LINE
  5
43A
100
AcDbEntity
  8
RACCORDO
100
AcDbLine
 62
253
  6
CONTINUOUS
 10
19.3639040284
 20
-17.4810391019
 11
20.8636755712
 21
-17.4810391019
  0
LWPOLYLINE
  5
43B
100
AcDbEntity
  8
RACCORDO
100
AcDbPolyline
 62
253
  6
CONTINUOUS
 90
16
 70
0
 10
14.5315765661
 20
-19.4807344923
 10
14.5593915163
 20
-19.4826942776
 10
14.5866653525
 20
-19.4885061597
 10
14.6128674874
 20
-19.4980570737
 10
14.6374881827
 20
-19.5111612156
 10
14.6600484655
 20
-19.5275636563
 10
14.6801094461
 20
-19.5469453015
 10
14.6972808567
 20
-19.568929099
 10
14.7112286433
 20
-19.5930873744
 10
14.7216814649
 20
-19.6189501508
 10
14.7284359713
 20
-19.6460142918
 10
14.7313607601
 20
-19.6737532895
 10
14.7303989321
 20
-19.7016275074
 10
14.7255691988
 20
-19.7290946785
 10
14.7169655183
 20
-19.7556204544
 10
14.7047552671
 20
-19.7806888005
  0
LINE
  5
43C
100
AcDbEntity
  8
DRAFT
100
AcDbLine
 62
7
  6
CONTINUOUS
 10
-2.7589675949
 20
-19.9001129999
 11
-3.1780168288
 21
-19.6906522207
  0
LINE
  5
43D
100
AcDbEntity
  8
RACCORDO
100
AcDbLine
 62
253
  6
CONTINUOUS
 10
-19.0565559797
 20
-7.7604724804
 11
-19.153472378
 21
-7.6635560821
  0
LINE
  5
43E
100
AcDbEntity
  8
RACCORDO
100
AcDbLine
 62
253
  6
CONTINUOUS
 10
-18.8565864407
 20
-7.5605029414
 11
-18.9535031964
 21
-7.4635861856
  0
LINE
  5
43F
100
AcDbEntity
  8
RACCORDO
100
AcDbLine
 62
253
  6
CONTINUOUS
 10
3.0114829314
 20
-28.7773235065
 11
3.0470130595
 21
-28.8128536347
  0
LWPOLYLINE
  5
440
100
AcDbEntity
  8
RACCORDO
100
AcDbPolyline
 62
253
  6
CONTINUOUS
 90
12
 70
0
 10
-18.9535031964
 20
-7.4635861856
 10
-18.9550261058
 20
-7.4613496552
 10
-18.9566093042
 20
-7.4553392033
 10
-18.9582527916
 20
-7.4455548298
 10
-18.9599595412
 20
-7.4324060817
 10
-18.9617265799
 20
-7.4154834121
 10
-18.9635449878
 20
-7.3935581803
 10
-18.9654168173
 20
-7.3666553708
 10
-18.9673400161
 20
-7.3347499991
 10
-18.9692995077
 20
-7.2965384706
 10
-18.9712979927
 20
-7.2520095936
 10
-18.9733327706
 20
-7.2011745597
  0
LINE
  5
441
100
AcDbEntity
  8
RACCORDO
100
AcDbLine
 62
7
  6
CONTINUOUS
 10
-17.1506166745
 20
-5.6138052486
 11
-17.0858806178
 21
-5.7433168214
  0
LINE
  5
442
100
AcDbEntity
  8
RACCORDO
100
AcDbLine
 62
7
  6
CONTINUOUS
 10
-16.6100774537
 20
17.493094685
 11
-16.6100774537
 21
-1.7080913262
  0
LINE
  5
443
100
AcDbEntity
  8
RACCORDO
100
AcDbLine
 62
7
  6
CONTINUOUS
 10
-16.6100774537
 20
-5.8128536347
 11
-16.6100774537
 21
-17.0140396458
  0
LINE
  5
444
100
AcDbEntity
  8
RACCORDO
100
AcDbLine
 62
7
  6
CONTINUOUS
 10
-16.6065864407
 20
17.489603672
 11
-16.6065864407
 21
-1.7150754801
  0
LINE
  5
445
100
AcDbEntity
  8
RACCORDO
100
AcDbLine
 62
7
  6
CONTINUOUS
 10
-16.6065864407
 20
-5.8058694808
 11
-16.6065864407
 21
-17.0105486329
  0
LINE
  5
446
100
AcDbEntity
  8
RACCORDO
100
AcDbLine
 62
7
  6
CONTINUOUS
 10
-16.6065864407
 20
-5.3139880005
 11
-16.6065864407
 21
-2.2069569604
  0
LINE
  5
447
100
AcDbEntity
  8
RACCORDO
100
AcDbLine
 62
253
  6
CONTINUOUS
 10
-16.5771530622
 20
-17.9809629495
 11
-16.5771530622
 21
-19.4807344923
  0
LINE
  5
448
100
AcDbEntity
  8
RACCORDO
100
AcDbLine
 62
253
  6
CONTINUOUS
 10
-16.5771530622
 20
18.4600179886
 11
-16.5771530614
 21
19.9597895314
  0
LINE
  5
449
100
AcDbEntity
  8
RACCORDO
100
AcDbLine
 62
253
  6
CONTINUOUS
 10
-16.0902267283
 20
-19.6906522207
 11
-16.0902267283
 21
-19.6940823071
  0
LINE
  5
44A
100
AcDbEntity
  8
DRAFT
100
AcDbLine
 62
7
  6
CONTINUOUS
 10
-15.3565864407
 20
-1.7604724804
 11
-15.3565864407
 21
-5.7604724804
  0
LINE
  5
44B
100
AcDbEntity
  8
DRAFT
100
AcDbLine
 62
7
  6
CONTINUOUS
 10
-15.3111894403
 20
-1.7150754801
 11
-15.3111894403
 21
-5.8058694808
  0
LINE
  5
44C
100
AcDbEntity
  8
RACCORDO
100
AcDbLine
 62
7
  6
CONTINUOUS
 10
-17.1506166745
 20
-1.9071397123
 11
-17.0858806178
 21
-1.7776281395
  0
LINE
  5
44D
100
AcDbEntity
  8
RACCORDO
100
AcDbLine
 62
7
  6
CONTINUOUS
 10
-17.1506166745
 20
-5.6138052486
 11
-17.2499361093
 21
-5.8125046578
  0
LINE
  5
44E
100
AcDbEntity
  8
SMUSSO
100
AcDbLine
 62
7
  6
CONTINUOUS
 10
3.2966175981
 20
22.5728656142
 11
3.3934592438
 21
22.6697072598
  0
LINE
  5
44F
100
AcDbEntity
  8
RACCORDO
100
AcDbLine
 62
253
  6
CONTINUOUS
 10
14.2318886079
 20
20.9661477881
 11
14.0587099071
 21
20.8661630186
  0
LINE
  5
450
100
AcDbEntity
  8
RACCORDO
100
AcDbLine
 62
253
  6
CONTINUOUS
 10
14.3680418775
 20
20.8875396612
 11
14.5412205783
 21
20.9875244307
  0
LINE
  5
451
100
AcDbEntity
  8
RACCORDO
100
AcDbLine
 62
7
  6
CONTINUOUS
 10
-18.9440140817
 20
-4.6730448394
 11
-18.8565864407
 21
-4.7604724804
  0
LINE
  5
452
100
AcDbEntity
  8
RACCORDO
100
AcDbLine
 62
7
  6
CONTINUOUS
 10
-17.1506166745
 20
-1.9071397123
 11
-17.2499361093
 21
-1.7084403031
  0
LINE
  5
453
100
AcDbEntity
  8
DRAFT
100
AcDbLine
 62
7
  6
CONTINUOUS
 10
-16.6100774537
 20
-1.7080913262
 11
-16.6065864407
 21
-1.7150754801
  0
LINE
  5
454
100
AcDbEntity
  8
0
100
AcDbLine
 62
7
  6
CONTINUOUS
 10
-18.8565864407
 20
5.1277703056
 11
-18.8142293624
 21
5.0005957338
  0
LINE
  5
455
100
AcDbEntity
  8
RACCORDO
100
AcDbLine
 62
7
  6
CONTINUOUS
 10
-18.8142293624
 20
5.0005957338
 11
-18.7655460448
 21
4.85442701
  0
LINE
  5
456
100
AcDbEntity
  8
DRAFT
100
AcDbLine
 62
7
  6
CONTINUOUS
 10
-16.6100774537
 20
-5.8128536347
 11
-16.6065864407
 21
-5.8058694808
  0
LINE
  5
457
100
AcDbEntity
  8
RACCORDO
100
AcDbLine
 62
7
  6
CONTINUOUS
 10
-20.2691587996
 20
-4.6730448394
 11
-20.3565864407
 21
-4.7604724804
  0
LINE
  5
458
100
AcDbEntity
  8
SMUSSO
100
AcDbLine
 62
7
  6
CONTINUOUS
 10
8.2966175981
 20
22.5728656142
 11
8.3934592438
 21
22.6697072598
  0
LINE
  5
459
100
AcDbEntity
  8
DRAFT
100
AcDbLine
 62
7
  6
CONTINUOUS
 10
-15.3565864407
 20
-1.7604724804
 11
-15.3111894403
 21
-1.7150754801
  0
LINE
  5
45A
100
AcDbEntity
  8
RACCORDO
100
AcDbLine
 62
253
  6
CONTINUOUS
 10
-20.2596696849
 20
-7.4635861856
 11
-20.3565864407
 21
-7.5605029414
  0
LINE
  5
45B
100
AcDbEntity
  8
RACCORDO
100
AcDbLine
 62
253
  6
CONTINUOUS
 10
14.6072190428
 20
20.3160564052
 11
14.434040342
 21
20.2160716356
  0
LINE
  5
45C
100
AcDbEntity
  8
RACCORDO
100
AcDbLine
 62
253
  6
CONTINUOUS
 10
16.7456065403
 20
21.1874939697
 11
16.8843040004
 21
21.2675709856
  0
LINE
  5
45D
100
AcDbEntity
  8
RACCORDO
100
AcDbLine
 62
253
  6
CONTINUOUS
 10
16.9187852517
 20
20.8875396673
 11
17.0605348995
 21
20.9693788646
  0
LINE
  5
45E
100
AcDbEntity
  8
RACCORDO
100
AcDbLine
 62
253
  6
CONTINUOUS
 10
15.0842057253
 20
19.6471074874
 11
15.2573844432
 21
19.747092137
  0
LINE
  5
45F
100
AcDbEntity
  8
RACCORDO
100
AcDbLine
 62
253
  6
CONTINUOUS
 10
16.5820718518
 20
20.2597438399
 11
16.6819534968
 21
20.3174105346
  0
LINE
  5
460
100
AcDbEntity
  8
RACCORDO
100
AcDbLine
 62
253
  6
CONTINUOUS
 10
16.7552505526
 20
19.9597895314
 11
16.8551321976
 21
20.017456226
  0
LINE
  5
461
100
AcDbEntity
  8
RACCORDO
100
AcDbLine
 62
7
  6
CONTINUOUS
 10
5.4648439475
 20
-19.6906522207
 11
5.0448805364
 21
-19.4807344923
  0
LINE
  5
462
100
AcDbEntity
  8
RACCORDO
100
AcDbLine
 62
253
  6
CONTINUOUS
 10
5.0102645854
 20
-26.7785418525
 11
5.0457947136
 21
-26.8140719806
  0
LINE
  5
463
100
AcDbEntity
  8
DRAFT
100
AcDbLine
 62
7
  6
CONTINUOUS
 10
-15.3565864407
 20
-5.7604724804
 11
-15.3111894403
 21
-5.8058694808
  0
LWPOLYLINE
  5
464
100
AcDbEntity
  8
RACCORDO
100
AcDbPolyline
 62
253
  6
CONTINUOUS
 90
11
 70
0
 10
-20.0597004787
 20
8.1426111212
 10
-20.0581756542
 20
8.1395289938
 10
-20.0565910219
 20
8.1332115572
 10
-20.0549465815
 20
8.1232634606
 10
-20.0532395116
 20
8.1092863747
 10
-20.0514726338
 20
8.090860334
 10
-20.0496544127
 20
8.0675262332
 10
-20.0477826379
 20
8.0388354998
 10
-20.0458595198
 20
8.0043412227
 10
-20.0439001547
 20
7.9635496706
 10
-20.0419018386
 20
7.9159962465
  0
LWPOLYLINE
  5
465
100
AcDbEntity
  8
RACCORDO
100
AcDbPolyline
 62
253
  6
CONTINUOUS
 90
16
 70
0
 10
-11.8689450272
 20
22.0387266065
 10
-11.8711143247
 20
22.0905431313
 10
-11.8767091119
 20
22.1418015845
 10
-11.8856691321
 20
22.191949905
 10
-11.8978978845
 20
22.2404479877
 10
-11.9132636635
 20
22.2867735011
 10
-11.9316009775
 20
22.3304275124
 10
-11.9527123308
 20
22.3709398614
 10
-11.9763703509
 20
22.407874224
 10
-12.0023202375
 20
22.4408328116
 10
-12.0302825064
 20
22.4694606552
 10
-12.0599559997
 20
22.4934494287
 10
-12.0910211295
 20
22.5125407694
 10
-12.1231433197
 20
22.5265290606
 10
-12.1559766095
 20
22.5352636465
 10
-12.1891673793
 20
22.5386504541
  0
LINE
  5
466
100
AcDbEntity
  8
RACCORDO
100
AcDbLine
 62
253
  6
CONTINUOUS
 10
-11.8689439414
 20
20.229449363
 11
-11.8689439414
 21
22.0387266065
  0
LINE
  5
467
100
AcDbEntity
  8
RACCORDO
100
AcDbLine
 62
253
  6
CONTINUOUS
 10
-10.8442289399
 20
22.0387266065
 11
-10.8442289399
 21
20.229449363
  0
LWPOLYLINE
  5
468
100
AcDbEntity
  8
RACCORDO
100
AcDbPolyline
 62
253
  6
CONTINUOUS
 90
16
 70
0
 10
-10.8442363331
 20
22.0387266065
 10
-10.8420669524
 20
22.0905431598
 10
-10.8364719551
 20
22.1418016096
 10
-10.8275116032
 20
22.1919498663
 10
-10.8152824059
 20
22.2404477976
 10
-10.7999160804
 20
22.2867730468
 10
-10.7815781329
 20
22.3304266582
 10
-10.7604660759
 20
22.3709384516
 10
-10.7368073012
 20
22.4078720864
 10
-10.7108566304
 20
22.4408297614
 10
-10.6828935707
 20
22.4694564991
 10
-10.6532193038
 20
22.4934439694
 10
-10.6221534426
 20
22.5125338103
 10
-10.5900305883
 20
22.5265204109
 10
-10.5571967267
 20
22.5352531254
 10
-10.5240055016
 20
22.5386378964
  0
LINE
  5
469
100
AcDbEntity
  8
RACCORDO
100
AcDbLine
 62
253
  6
CONTINUOUS
 10
-20.0597001459
 20
-7.6635557247
 11
-20.1566169016
 21
-7.7604724804
  0
LINE
  5
46A
100
AcDbEntity
  8
DRAFT
100
AcDbLine
 62
7
  6
CONTINUOUS
 10
13.6368049534
 20
-19.8128376752
 11
13.3923595669
 21
-19.6906522207
  0
LINE
  5
46B
100
AcDbEntity
  8
RACCORDO
100
AcDbLine
 62
253
  6
CONTINUOUS
 10
17.4151013773
 20
-20.8010117013
 11
17.4500221467
 21
-20.8184667662
  0
LWPOLYLINE
  5
46C
100
AcDbEntity
  8
RACCORDO
100
AcDbPolyline
 62
253
  6
CONTINUOUS
 90
12
 70
0
 10
-20.2596696849
 20
7.9426412248
 10
-20.2581467755
 20
7.9404046943
 10
-20.2565635772
 20
7.9343942424
 10
-20.2549200898
 20
7.9246098689
 10
-20.2532133401
 20
7.9114611208
 10
-20.2514463014
 20
7.8945384512
 10
-20.2496278935
 20
7.8726132194
 10
-20.247756064
 20
7.8457104099
 10
-20.2458328652
 20
7.8138050383
 10
-20.2438733737
 20
7.7755935097
 10
-20.2418748886
 20
7.7310646327
 10
-20.2398401107
 20
7.6802295988
  0
LINE
  5
46D
100
AcDbEntity
  8
DRAFT
100
AcDbLine
 62
7
  6
CONTINUOUS
 10
-18.8565864407
 20
8.7784140535
 11
-19.1358674795
 21
9.3371463653
  0
LWPOLYLINE
  5
46E
100
AcDbEntity
  8
RACCORDO
100
AcDbPolyline
 62
7
  6
CONTINUOUS
 90
13
 70
0
 10
22.4434440203
 20
-7.7604724804
 10
22.4695461472
 20
-7.7587622162
 10
22.4952013254
 20
-7.7536600399
 10
22.5199708468
 20
-7.7452530587
 10
22.5434313037
 20
-7.7336848176
 10
22.5651811096
 20
-7.7191530304
 10
22.5848475316
 20
-7.7019064527
 10
22.6020941093
 20
-7.6822400307
 10
22.6166258965
 20
-7.6604902248
 10
22.6281941376
 20
-7.6370297679
 10
22.6366011188
 20
-7.6122602465
 10
22.6417032951
 20
-7.5866050683
 10
22.6434135593
 20
-7.5605029414
  0
LINE
  5
46F
100
AcDbEntity
  8
RACCORDO
100
AcDbLine
 62
7
  6
CONTINUOUS
 10
22.4434440203
 20
-7.7604724804
 11
21.3433830984
 21
-7.7604724804
  0
LINE
  5
470
100
AcDbEntity
  8
RACCORDO
100
AcDbLine
 62
7
  6
CONTINUOUS
 10
-19.0565559797
 20
-7.7604724804
 11
-20.1566169016
 21
-7.7604724804
  0
LINE
  5
471
100
AcDbEntity
  8
RACCORDO
100
AcDbLine
 62
253
  6
CONTINUOUS
 10
-20.0597001459
 20
-7.6635557247
 11
-19.153472378
 21
-7.6635560821
  0
LINE
  5
472
100
AcDbEntity
  8
RACCORDO
100
AcDbLine
 62
253
  6
CONTINUOUS
 10
21.4402998541
 20
-7.6635557247
 11
22.3465272645
 21
-7.6635557247
  0
LWPOLYLINE
  5
473
100
AcDbEntity
  8
RACCORDO
100
AcDbPolyline
 62
253
  6
CONTINUOUS
 90
13
 70
0
 10
-20.0597001459
 20
-7.6635557247
 10
-20.0857963773
 20
-7.6618376714
 10
-20.1114462679
 20
-7.6567287938
 10
-20.1362111108
 20
-7.6483164723
 10
-20.1596673369
 20
-7.6367445882
 10
-20.1814137589
 20
-7.6222110631
 10
-20.2010784336
 20
-7.6049644734
 10
-20.2183250234
 20
-7.5852997986
 10
-20.2328585484
 20
-7.5635533766
 10
-20.2444304325
 20
-7.5400971506
 10
-20.252842754
 20
-7.5153323077
 10
-20.2579516317
 20
-7.4896824171
 10
-20.2596696849
 20
-7.4635861856
  0
LINE
  5
474
100
AcDbEntity
  8
RACCORDO
100
AcDbLine
 62
253
  6
CONTINUOUS
 10
17.6151013958
 20
-20.6011030703
 11
17.6500221653
 21
-20.6185581352
  0
LINE
  5
475
100
AcDbEntity
  8
DRAFT
100
AcDbLine
 62
7
  6
CONTINUOUS
 10
17.6151013958
 20
-19.5510117013
 11
17.8944675518
 21
-19.6906522207
  0
LINE
  5
476
100
AcDbEntity
  8
RACCORDO
100
AcDbLine
 62
253
  6
CONTINUOUS
 10
14.5412205783
 20
-20.5084693916
 11
14.3680418775
 21
-20.4084846221
  0
LINE
  5
477
100
AcDbEntity
  8
RACCORDO
100
AcDbLine
 62
253
  6
CONTINUOUS
 10
16.7456065403
 20
-20.7084389306
 11
16.9059472826
 21
-20.8010117013
  0
LINE
  5
478
100
AcDbEntity
  8
RACCORDO
100
AcDbLine
 62
253
  6
CONTINUOUS
 10
16.9187852435
 20
-20.4084846234
 11
17.0791259834
 21
-20.5010573928
  0
LINE
  5
479
100
AcDbEntity
  8
RACCORDO
100
AcDbLine
 62
253
  6
CONTINUOUS
 10
15.0842076451
 20
-19.1680491136
 11
15.2573870241
 21
-19.2680336765
  0
LINE
  5
47A
100
AcDbEntity
  8
RACCORDO
100
AcDbLine
 62
253
  6
CONTINUOUS
 10
16.5820718518
 20
-19.7806888008
 11
16.7037955485
 21
-19.8509660098
  0
LINE
  5
47B
100
AcDbEntity
  8
RACCORDO
100
AcDbLine
 62
253
  6
CONTINUOUS
 10
16.7552533752
 20
-19.4807361219
 11
16.8769742492
 21
-19.5510117013
  0
LINE
  5
47C
100
AcDbEntity
  8
RACCORDO
100
AcDbLine
 62
7
  6
CONTINUOUS
 10
-20.2691587996
 20
5.1520998785
 11
-20.3565864407
 21
5.2395275196
  0
LINE
  5
47D
100
AcDbEntity
  8
RACCORDO
100
AcDbLine
 62
253
  6
CONTINUOUS
 10
-27.8734374668
 20
15.1075968916
 11
-27.9089675949
 21
15.1431270198
  0
LINE
  5
47E
100
AcDbEntity
  8
RACCORDO
100
AcDbLine
 62
253
  6
CONTINUOUS
 10
-20.3565864407
 20
8.0395579805
 11
-20.2596696849
 21
7.9426412248
  0
LINE
  5
47F
100
AcDbEntity
  8
RACCORDO
100
AcDbLine
 62
7
  6
CONTINUOUS
 10
-18.8565864407
 20
17.7006409857
 11
-18.5768484525
 21
17.1409944966
  0
LWPOLYLINE
  5
480
100
AcDbEntity
  8
RACCORDO
100
AcDbPolyline
 62
253
  6
CONTINUOUS
 90
16
 70
0
 10
-6.8689469987
 20
22.0387266065
 10
-6.8711162791
 20
22.0905429441
 10
-6.8767110231
 20
22.1418012167
 10
-6.8856709747
 20
22.1919493688
 10
-6.8978996346
 20
22.2404473015
 10
-6.9132652994
 20
22.2867726883
 10
-6.9316024796
 20
22.3304266016
 10
-6.9527136825
 20
22.3709388856
 10
-6.976371539
 20
22.40787322
 10
-7.0023212522
 20
22.4408318195
 10
-7.0302833418
 20
22.4694597175
 10
-7.0599566543
 20
22.4934485896
 10
-7.0910216057
 20
22.5125400738
 10
-7.1231436245
 20
22.5265285536
 10
-7.1559767541
 20
22.5352633719
 10
-7.1891673793
 20
22.5386504541
  0
LINE
  5
481
100
AcDbEntity
  8
RACCORDO
100
AcDbLine
 62
253
  6
CONTINUOUS
 10
-6.8689439414
 20
20.229449363
 11
-6.8689439414
 21
22.0387266065
  0
LINE
  5
482
100
AcDbEntity
  8
RACCORDO
100
AcDbLine
 62
253
  6
CONTINUOUS
 10
-5.8442289399
 20
22.0387266065
 11
-5.8442289399
 21
20.229449363
  0
LWPOLYLINE
  5
483
100
AcDbEntity
  8
RACCORDO
100
AcDbPolyline
 62
253
  6
CONTINUOUS
 90
16
 70
0
 10
-5.8442363331
 20
22.0387266065
 10
-5.8420669524
 20
22.0905431598
 10
-5.8364719551
 20
22.1418016096
 10
-5.8275116032
 20
22.1919498663
 10
-5.8152824059
 20
22.2404477976
 10
-5.7999160804
 20
22.2867730468
 10
-5.7815781329
 20
22.3304266582
 10
-5.7604660759
 20
22.3709384516
 10
-5.7368073012
 20
22.4078720864
 10
-5.7108566304
 20
22.4408297614
 10
-5.6828935707
 20
22.4694564991
 10
-5.6532193038
 20
22.4934439694
 10
-5.6221534426
 20
22.5125338103
 10
-5.5900305883
 20
22.5265204109
 10
-5.5571967267
 20
22.5352531254
 10
-5.5240055016
 20
22.5386378964
  0
LINE
  5
484
100
AcDbEntity
  8
SMUSSO
100
AcDbLine
 62
7
  6
CONTINUOUS
 10
18.2966175981
 20
22.5728656142
 11
18.3934592438
 21
22.6697072598
  0
LINE
  5
485
100
AcDbEntity
  8
RACCORDO
100
AcDbLine
 62
253
  6
CONTINUOUS
 10
18.8434897118
 20
22.6697072598
 11
18.7465414191
 21
22.5727589671
  0
LINE
  5
486
100
AcDbEntity
  8
RACCORDO
100
AcDbLine
 62
253
  6
CONTINUOUS
 10
19.3434135593
 20
22.1697834123
 11
19.2464652666
 21
22.0728351196
  0
LINE
  5
487
100
AcDbEntity
  8
0
100
AcDbLine
 62
7
  6
CONTINUOUS
 10
21.1010564811
 20
-4.5215406947
 11
21.2371418477
 21
-4.5091878263
  0
LWPOLYLINE
  5
488
100
AcDbEntity
  8
RACCORDO
100
AcDbPolyline
 62
253
  6
CONTINUOUS
 90
13
 70
0
 10
-19.1534727355
 20
-7.6635557247
 10
-19.1273764547
 20
-7.6618376649
 10
-19.1017265236
 20
-7.6567287697
 10
-19.0769616507
 20
-7.6483164226
 10
-19.0535054046
 20
-7.6367445074
 10
-19.0317589742
 20
-7.6222109494
 10
-19.012094306
 20
-7.6049643317
 10
-18.9948477353
 20
-7.5852996388
 10
-18.9803142374
 20
-7.5635532113
 10
-18.9687423854
 20
-7.5400969975
 10
-18.9603300949
 20
-7.5153321869
 10
-18.9552212405
 20
-7.4896823479
 10
-18.9535031964
 20
-7.4635861856
  0
LINE
  5
489
100
AcDbEntity
  8
RACCORDO
100
AcDbLine
 62
7
  6
CONTINUOUS
 10
19.3639040284
 20
-5.8128536347
 11
18.8969045723
 21
-5.8128536347
  0
LINE
  5
48A
100
AcDbEntity
  8
RACCORDO
100
AcDbLine
 62
7
  6
CONTINUOUS
 10
-16.6100774537
 20
-5.8128536347
 11
-17.0770769097
 21
-5.8128536347
  0
LINE
  5
48B
100
AcDbEntity
  8
DRAFT
100
AcDbLine
 62
7
  6
CONTINUOUS
 10
-15.3111894403
 20
-5.8058694808
 11
-16.6065864407
 21
-5.8058694808
  0
LINE
  5
48C
100
AcDbEntity
  8
DRAFT
100
AcDbLine
 62
7
  6
CONTINUOUS
 10
17.598016559
 20
-5.8058694808
 11
18.8934135593
 21
-5.8058694808
  0
LINE
  5
48D
100
AcDbEntity
  8
RACCORDO
100
AcDbLine
 62
7
  6
CONTINUOUS
 10
18.8727838889
 20
-5.7604724804
 11
17.6434135593
 21
-5.7604724804
  0
LINE
  5
48E
100
AcDbEntity
  8
RACCORDO
100
AcDbLine
 62
7
  6
CONTINUOUS
 10
-16.5859567703
 20
-5.7604724804
 11
-15.3565864407
 21
-5.7604724804
  0
LINE
  5
48F
100
AcDbEntity
  8
RACCORDO
100
AcDbLine
 62
7
  6
CONTINUOUS
 10
-17.1506166745
 20
-5.6138052486
 11
-16.9064036888
 21
-5.6138052486
  0
LINE
  5
490
100
AcDbEntity
  8
RACCORDO
100
AcDbLine
 62
7
  6
CONTINUOUS
 10
19.1932308074
 20
-5.6138052486
 11
19.4374437932
 21
-5.6138052486
  0
LWPOLYLINE
  5
491
100
AcDbEntity
  8
RACCORDO
100
AcDbPolyline
 62
253
  6
CONTINUOUS
 90
13
 70
0
 10
21.4402998541
 20
-7.6635557247
 10
21.4142036227
 20
-7.6618376714
 10
21.3885537321
 20
-7.6567287938
 10
21.3637888892
 20
-7.6483164723
 10
21.3403326631
 20
-7.6367445882
 10
21.3185862411
 20
-7.6222110631
 10
21.2989215664
 20
-7.6049644734
 10
21.2816749766
 20
-7.5852997986
 10
21.2671414516
 20
-7.5635533766
 10
21.2555695675
 20
-7.5400971506
 10
21.247157246
 20
-7.5153323077
 10
21.2420483683
 20
-7.4896824171
 10
21.2403303151
 20
-7.4635861856
  0
LINE
  5
492
100
AcDbEntity
  8
0
100
AcDbLine
 62
7
  6
CONTINUOUS
 10
-18.950314729
 20
-4.5091878263
 11
-18.8142293624
 21
-4.5215406947
  0
LINE
  5
493
100
AcDbEntity
  8
RACCORDO
100
AcDbLine
 62
253
  6
CONTINUOUS
 10
-20.1566169016
 20
8.2395275196
 11
-20.0597005033
 21
8.1426111212
  0
LINE
  5
494
100
AcDbEntity
  8
RACCORDO
100
AcDbLine
 62
253
  6
CONTINUOUS
 10
-25.8746558127
 20
17.1063785457
 11
-25.9101859409
 21
17.1419086738
  0
LINE
  5
495
100
AcDbEntity
  8
RACCORDO
100
AcDbLine
 62
7
  6
CONTINUOUS
 10
-2.7589675949
 20
-26.8140719806
 11
-2.7589675949
 21
-19.9001129999
  0
LINE
  5
496
100
AcDbEntity
  8
RACCORDO
100
AcDbLine
 62
253
  6
CONTINUOUS
 10
-2.7234374668
 20
-26.7785418525
 11
-2.7234374668
 21
-19.083140798
  0
LINE
  5
497
100
AcDbEntity
  8
RACCORDO
100
AcDbLine
 62
253
  6
CONTINUOUS
 10
-18.8565864407
 20
-17.7607770901
 11
-18.5768484525
 21
-17.4809100874
  0
LINE
  5
498
100
AcDbEntity
  8
RACCORDO
100
AcDbLine
 62
253
  6
CONTINUOUS
 10
18.9474692959
 20
20.0432786464
 11
18.8639801808
 21
19.9597895314
  0
LINE
  5
499
100
AcDbEntity
  8
RACCORDO
100
AcDbLine
 62
253
  6
CONTINUOUS
 10
19.2464652666
 20
20.2220547047
 11
19.3434135593
 21
20.3190029974
  0
LINE
  5
49A
100
AcDbEntity
  8
RACCORDO
100
AcDbLine
 62
7
  6
CONTINUOUS
 10
19.386754367
 20
20.1948072424
 11
19.4130014626
 21
20.221054338
  0
LINE
  5
49B
100
AcDbEntity
  8
RACCORDO
100
AcDbLine
 62
253
  6
CONTINUOUS
 10
19.4037659272
 20
20.0267034681
 11
19.5007026266
 21
20.1236401676
  0
LINE
  5
49C
100
AcDbEntity
  8
RACCORDO
100
AcDbLine
 62
253
  6
CONTINUOUS
 10
18.3969807247
 20
17.9930185325
 11
18.3934897118
 21
17.9895275196
  0
LINE
  5
49D
100
AcDbEntity
  8
RACCORDO
100
AcDbLine
 62
253
  6
CONTINUOUS
 10
-16.6100774537
 20
-17.0140396458
 11
-16.6065864407
 21
-17.0105486329
  0
LINE
  5
49E
100
AcDbEntity
  8
RACCORDO
100
AcDbLine
 62
253
  6
CONTINUOUS
 10
-19.0015244061
 20
-4.6640126392
 11
-20.2116484752
 21
-4.6640126392
  0
LINE
  5
49F
100
AcDbEntity
  8
RACCORDO
100
AcDbLine
 62
253
  6
CONTINUOUS
 10
21.2883515248
 20
-4.6640126392
 11
22.4984755939
 21
-4.6640126392
  0
LINE
  5
4A0
100
AcDbEntity
  8
RACCORDO
100
AcDbLine
 62
253
  6
CONTINUOUS
 10
-18.9518404523
 20
-4.3753719709
 11
-18.7655460448
 21
-4.3753719709
  0
LINE
  5
4A1
100
AcDbEntity
  8
RACCORDO
100
AcDbLine
 62
253
  6
CONTINUOUS
 10
21.0523731635
 20
-4.3753719709
 11
21.238667571
 21
-4.3753719709
  0
LINE
  5
4A2
100
AcDbEntity
  8
RACCORDO
100
AcDbLine
 62
253
  6
CONTINUOUS
 10
-18.9525892978
 20
-4.0757831104
 11
-18.7605835836
 21
-4.0757831104
  0
LINE
  5
4A3
100
AcDbEntity
  8
RACCORDO
100
AcDbLine
 62
253
  6
CONTINUOUS
 10
21.0474107022
 20
-4.0757831104
 11
21.2394164164
 21
-4.0757831104
  0
LINE
  5
4A4
100
AcDbEntity
  8
RACCORDO
100
AcDbLine
 62
7
  6
CONTINUOUS
 10
4.5105691719
 20
-17.9809629495
 11
4.6167504902
 21
-18.1655802399
  0
LWPOLYLINE
  5
4A5
100
AcDbEntity
  8
RACCORDO
100
AcDbPolyline
 62
7
  6
CONTINUOUS
 90
21
 70
0
 10
4.6167504902
 20
-18.1655802399
 10
4.6765590918
 20
-18.2712499344
 10
4.7039131827
 20
-18.3203319456
 10
4.7297670087
 20
-18.3673227241
 10
4.7541071572
 20
-18.4122198657
 10
4.7776162546
 20
-18.4562409199
 10
4.8002406925
 20
-18.4994679793
 10
4.821916039
 20
-18.5418189514
 10
4.8431756941
 20
-18.5842651074
 10
4.8640028147
 20
-18.6271435351
 10
4.8841164208
 20
-18.6701171468
 10
4.9035299466
 20
-18.7131459507
 10
4.922085107
 20
-18.7563840604
 10
4.9395159047
 20
-18.7996773623
 10
4.9556155022
 20
-18.8425235238
 10
4.9701578607
 20
-18.884979733
 10
4.9828718426
 20
-18.9269888018
 10
4.9934804331
 20
-18.9678768325
 10
5.0017368174
 20
-19.0074191924
 10
5.007409841
 20
-19.0458405143
 10
5.0102645854
 20
-19.083140798
  0
LWPOLYLINE
  5
4A6
100
AcDbEntity
  8
RACCORDO
100
AcDbPolyline
 62
253
  6
CONTINUOUS
 90
16
 70
0
 10
-1.8689469987
 20
22.0387266065
 10
-1.8711162791
 20
22.0905429441
 10
-1.8767110231
 20
22.1418012167
 10
-1.8856709747
 20
22.1919493688
 10
-1.8978996346
 20
22.2404473015
 10
-1.9132652994
 20
22.2867726883
 10
-1.9316024796
 20
22.3304266016
 10
-1.9527136825
 20
22.3709388856
 10
-1.976371539
 20
22.40787322
 10
-2.0023212522
 20
22.4408318195
 10
-2.0302833418
 20
22.4694597175
 10
-2.0599566543
 20
22.4934485896
 10
-2.0910216057
 20
22.5125400738
 10
-2.1231436245
 20
22.5265285536
 10
-2.1559767541
 20
22.5352633719
 10
-2.1891673793
 20
22.5386504541
  0
LINE
  5
4A7
100
AcDbEntity
  8
RACCORDO
100
AcDbLine
 62
253
  6
CONTINUOUS
 10
-2.2237420533
 20
-26.7785418525
 11
-2.2237420533
 21
-17.9809629495
  0
LINE
  5
4A8
100
AcDbEntity
  8
RACCORDO
100
AcDbLine
 62
253
  6
CONTINUOUS
 10
-1.8689439414
 20
20.229449363
 11
-1.8689439414
 21
22.0387266065
  0
LINE
  5
4A9
100
AcDbEntity
  8
RACCORDO
100
AcDbLine
 62
253
  6
CONTINUOUS
 10
-0.8442289399
 20
22.0387266065
 11
-0.8442289399
 21
20.229449363
  0
LINE
  5
4AA
100
AcDbEntity
  8
RACCORDO
100
AcDbLine
 62
253
  6
CONTINUOUS
 10
-0.7246558127
 20
-28.7773235065
 11
-0.7246558127
 21
-28.277628093
  0
LWPOLYLINE
  5
4AB
100
AcDbEntity
  8
RACCORDO
100
AcDbPolyline
 62
253
  6
CONTINUOUS
 90
16
 70
0
 10
-0.8442363331
 20
22.0387266065
 10
-0.8420669524
 20
22.0905431598
 10
-0.8364719551
 20
22.1418016096
 10
-0.8275116032
 20
22.1919498663
 10
-0.8152824059
 20
22.2404477976
 10
-0.7999160804
 20
22.2867730468
 10
-0.7815781329
 20
22.3304266582
 10
-0.7604660759
 20
22.3709384516
 10
-0.7368073012
 20
22.4078720864
 10
-0.7108566304
 20
22.4408297614
 10
-0.6828935707
 20
22.4694564991
 10
-0.6532193038
 20
22.4934439694
 10
-0.6221534426
 20
22.5125338103
 10
-0.5900305883
 20
22.5265204109
 10
-0.5571967267
 20
22.5352531254
 10
-0.5240055016
 20
22.5386378964
  0
LWPOLYLINE
  5
4AC
100
AcDbEntity
  8
RACCORDO
100
AcDbPolyline
 62
7
  6
CONTINUOUS
 90
16
 70
0
 10
-2.7234374668
 20
-19.083140798
 10
-2.7204108584
 20
-19.0446218331
 10
-2.7141455013
 20
-19.0034344581
 10
-2.704664207
 20
-18.959578673
 10
-2.6920243867
 20
-18.9130519023
 10
-2.6762841699
 20
-18.8638567215
 10
-2.6574741714
 20
-18.812000857
 10
-2.6356800158
 20
-18.7574516929
 10
-2.611007605
 20
-18.700241845
 10
-2.5835031629
 20
-18.6404768884
 10
-2.5533587508
 20
-18.5782461807
 10
-2.5206795801
 20
-18.5134603641
 10
-2.4853390715
 20
-18.4459569405
 10
-2.4475460342
 20
-18.3757772512
 10
-2.4074562675
 20
-18.3028799547
 10
-2.3648076453
 20
-18.2269785286
  0
LWPOLYLINE
  5
4AD
100
AcDbEntity
  8
RACCORDO
100
AcDbPolyline
 62
253
  6
CONTINUOUS
 90
8
 70
0
 10
16.6412520772
 20
19.8076248196
 10
16.6857223
 20
19.8704428819
 10
16.7042260923
 20
19.896093836
 10
16.7201733362
 20
19.9176140264
 10
16.7332780067
 20
19.9348466065
 10
16.7434447621
 20
19.9476781475
 10
16.750768944
 20
19.9560204354
 10
16.7552505526
 20
19.9597895314
  0
LINE
  5
4AE
100
AcDbEntity
  8
RACCORDO
100
AcDbLine
 62
253
  6
CONTINUOUS
 10
21.1434135593
 20
18.2398321292
 11
20.8636755712
 21
17.9599651265
  0
LINE
  5
4AF
100
AcDbEntity
  8
RACCORDO
100
AcDbLine
 62
253
  6
CONTINUOUS
 10
18.8969045723
 20
17.493094685
 11
18.8934135593
 21
17.489603672
  0
LINE
  5
4B0
100
AcDbEntity
  8
RACCORDO
100
AcDbLine
 62
253
  6
CONTINUOUS
 10
-16.1101536061
 20
-17.5139634934
 11
-16.1066625931
 21
-17.5104724804
  0
LINE
  5
4B1
100
AcDbEntity
  8
RACCORDO
100
AcDbLine
 62
253
  6
CONTINUOUS
 10
-16.8568910504
 20
-19.7604724804
 11
-16.5771530622
 21
-19.4807344923
  0
LINE
  5
4B2
100
AcDbEntity
  8
DRAFT
100
AcDbLine
 62
7
  6
CONTINUOUS
 10
-16.3740415056
 20
-19.6906522207
 11
-16.4438617653
 21
-19.7604724804
  0
LINE
  5
4B3
100
AcDbEntity
  8
RACCORDO
100
AcDbLine
 62
253
  6
CONTINUOUS
 10
-16.0902267283
 20
-19.6940823071
 11
-16.1566169016
 21
-19.7604724804
  0
LINE
  5
4B4
100
AcDbEntity
  8
RACCORDO
100
AcDbLine
 62
7
  6
CONTINUOUS
 10
-17.1506166745
 20
-1.9071397123
 11
-16.9064036888
 21
-1.9071397123
  0
LINE
  5
4B5
100
AcDbEntity
  8
RACCORDO
100
AcDbLine
 62
7
  6
CONTINUOUS
 10
19.1932308074
 20
-1.9071397123
 11
19.4374437932
 21
-1.9071397123
  0
LINE
  5
4B6
100
AcDbEntity
  8
RACCORDO
100
AcDbLine
 62
7
  6
CONTINUOUS
 10
18.8727838889
 20
-1.7604724804
 11
17.6434135593
 21
-1.7604724804
  0
LINE
  5
4B7
100
AcDbEntity
  8
RACCORDO
100
AcDbLine
 62
7
  6
CONTINUOUS
 10
-16.5859567703
 20
-1.7604724804
 11
-15.3565864407
 21
-1.7604724804
  0
LINE
  5
4B8
100
AcDbEntity
  8
DRAFT
100
AcDbLine
 62
7
  6
CONTINUOUS
 10
-15.3111894403
 20
-1.7150754801
 11
-16.6065864407
 21
-1.7150754801
  0
LINE
  5
4B9
100
AcDbEntity
  8
DRAFT
100
AcDbLine
 62
7
  6
CONTINUOUS
 10
17.598016559
 20
-1.7150754801
 11
18.8934135593
 21
-1.7150754801
  0
LINE
  5
4BA
100
AcDbEntity
  8
RACCORDO
100
AcDbLine
 62
7
  6
CONTINUOUS
 10
-17.0770769097
 20
-1.7080913262
 11
-16.6100774537
 21
-1.7080913262
  0
LINE
  5
4BB
100
AcDbEntity
  8
RACCORDO
100
AcDbLine
 62
7
  6
CONTINUOUS
 10
18.8969045723
 20
-1.7080913262
 11
19.3639040284
 21
-1.7080913262
  0
LINE
  5
4BC
100
AcDbEntity
  8
RACCORDO
100
AcDbLine
 62
253
  6
CONTINUOUS
 10
16.7456059973
 20
20.9875244307
 11
16.0294400969
 21
19.7470887216
  0
LINE
  5
4BD
100
AcDbEntity
  8
RACCORDO
100
AcDbLine
 62
253
  6
CONTINUOUS
 10
16.9187852517
 20
20.8875396673
 11
16.2026200757
 21
19.6471051956
  0
LINE
  5
4BE
100
AcDbEntity
  8
RACCORDO
100
AcDbLine
 62
7
  6
CONTINUOUS
 10
17.0605348995
 20
20.9693788646
 11
16.6819534968
 21
20.3174105346
  0
LINE
  5
4BF
100
AcDbEntity
  8
RACCORDO
100
AcDbLine
 62
253
  6
CONTINUOUS
 10
16.2026200757
 20
19.6471051956
 11
16.3295731668
 21
19.8596250998
  0
LINE
  5
4C0
100
AcDbEntity
  8
RACCORDO
100
AcDbLine
 62
253
  6
CONTINUOUS
 10
16.3295731668
 20
19.8596250998
 11
16.4001557079
 21
19.9764360826
  0
LWPOLYLINE
  5
4C1
100
AcDbEntity
  8
RACCORDO
100
AcDbPolyline
 62
253
  6
CONTINUOUS
 90
10
 70
0
 10
16.4001557079
 20
19.9764360826
 10
16.4594112782
 20
20.0733017865
 10
16.4847819828
 20
20.1142492014
 10
16.5073823273
 20
20.1503145288
 10
16.527337744
 20
20.1817016566
 10
16.5445228006
 20
20.208206697
 10
16.5586204449
 20
20.2293149096
 10
16.5695249928
 20
20.2448547142
 10
16.5773421284
 20
20.254997691
 10
16.5820718518
 20
20.2597438399
  0
LINE
  5
4C2
100
AcDbEntity
  8
RACCORDO
100
AcDbLine
 62
253
  6
CONTINUOUS
 10
15.740242023
 20
18.4600251491
 11
15.9891177655
 21
18.8388289559
  0
LINE
  5
4C3
100
AcDbEntity
  8
RACCORDO
100
AcDbLine
 62
253
  6
CONTINUOUS
 10
15.9891177655
 20
18.8388289559
 11
16.2648967166
 21
19.2539069578
  0
LINE
  5
4C4
100
AcDbEntity
  8
RACCORDO
100
AcDbLine
 62
253
  6
CONTINUOUS
 10
16.2648967166
 20
19.2539069578
 11
16.4041516215
 21
19.4612898302
  0
LINE
  5
4C5
100
AcDbEntity
  8
RACCORDO
100
AcDbLine
 62
253
  6
CONTINUOUS
 10
16.4041516215
 20
19.4612898302
 11
16.5213637142
 21
19.6340280423
  0
LWPOLYLINE
  5
4C6
100
AcDbEntity
  8
RACCORDO
100
AcDbPolyline
 62
253
  6
CONTINUOUS
 90
4
 70
0
 10
16.5213637142
 20
19.6340280423
 10
16.5864810379
 20
19.7288502603
 10
16.615157658
 20
19.7702728568
 10
16.6412520772
 20
19.8076248196
  0
LINE
  5
4C7
100
AcDbEntity
  8
RACCORDO
100
AcDbLine
 62
253
  6
CONTINUOUS
 10
19.143718169
 20
-19.7604724804
 11
18.8638511663
 21
-19.4807344923
  0
LINE
  5
4C8
100
AcDbEntity
  8
RACCORDO
100
AcDbLine
 62
253
  6
CONTINUOUS
 10
18.4434440203
 20
-19.7604724804
 11
18.377053847
 21
-19.6940823071
  0
LINE
  5
4C9
100
AcDbEntity
  8
DRAFT
100
AcDbLine
 62
7
  6
CONTINUOUS
 10
18.6608686243
 20
-19.6906522207
 11
18.730688884
 21
-19.7604724804
  0
LINE
  5
4CA
100
AcDbEntity
  8
RACCORDO
100
AcDbLine
 62
253
  6
CONTINUOUS
 10
-18.8565864407
 20
18.2398321292
 11
-18.5768484525
 21
17.9600941411
  0
LINE
  5
4CB
100
AcDbEntity
  8
RACCORDO
100
AcDbLine
 62
253
  6
CONTINUOUS
 10
-16.6100774537
 20
17.493094685
 11
-16.6065864407
 21
17.489603672
  0
LINE
  5
4CC
100
AcDbEntity
  8
RACCORDO
100
AcDbLine
 62
253
  6
CONTINUOUS
 10
18.3969807247
 20
-17.5139634934
 11
18.3934897118
 21
-17.5104724804
  0
LWPOLYLINE
  5
4CD
100
AcDbEntity
  8
RACCORDO
100
AcDbPolyline
 62
253
  6
CONTINUOUS
 90
16
 70
0
 10
3.1310530013
 20
22.0387266065
 10
3.1288837209
 20
22.0905429441
 10
3.1232889769
 20
22.1418012167
 10
3.1143290253
 20
22.1919493688
 10
3.1021003654
 20
22.2404473015
 10
3.0867347006
 20
22.2867726883
 10
3.0683975204
 20
22.3304266016
 10
3.0472863175
 20
22.3709388856
 10
3.023628461
 20
22.40787322
 10
2.9976787478
 20
22.4408318195
 10
2.9697166582
 20
22.4694597175
 10
2.9400433457
 20
22.4934485896
 10
2.9089783943
 20
22.5125400738
 10
2.8768563755
 20
22.5265285536
 10
2.8440232459
 20
22.5352633719
 10
2.8108326207
 20
22.5386504541
  0
LINE
  5
4CE
100
AcDbEntity
  8
RACCORDO
100
AcDbLine
 62
253
  6
CONTINUOUS
 10
3.0114829314
 20
-28.7773235065
 11
3.0114829314
 21
-28.277628093
  0
LINE
  5
4CF
100
AcDbEntity
  8
RACCORDO
100
AcDbLine
 62
253
  6
CONTINUOUS
 10
3.1310560586
 20
20.229449363
 11
3.1310560586
 21
22.0387266065
  0
LINE
  5
4D0
100
AcDbEntity
  8
RACCORDO
100
AcDbLine
 62
253
  6
CONTINUOUS
 10
4.1557710601
 20
22.0387266065
 11
4.1557710601
 21
20.229449363
  0
LINE
  5
4D1
100
AcDbEntity
  8
RACCORDO
100
AcDbLine
 62
253
  6
CONTINUOUS
 10
4.5105691719
 20
-17.9809629495
 11
4.5105691719
 21
-26.7785418525
  0
LWPOLYLINE
  5
4D2
100
AcDbEntity
  8
RACCORDO
100
AcDbPolyline
 62
253
  6
CONTINUOUS
 90
16
 70
0
 10
4.1557636669
 20
22.0387266065
 10
4.1579330476
 20
22.0905431598
 10
4.1635280449
 20
22.1418016096
 10
4.1724883968
 20
22.1919498663
 10
4.1847175941
 20
22.2404477976
 10
4.2000839196
 20
22.2867730468
 10
4.2184218671
 20
22.3304266582
 10
4.2395339241
 20
22.3709384516
 10
4.2631926988
 20
22.4078720864
 10
4.2891433696
 20
22.4408297614
 10
4.3171064293
 20
22.4694564991
 10
4.3467806962
 20
22.4934439694
 10
4.3778465574
 20
22.5125338103
 10
4.4099694117
 20
22.5265204109
 10
4.4428032733
 20
22.5352531254
 10
4.4759944984
 20
22.5386378964
  0
LWPOLYLINE
  5
4D3
100
AcDbEntity
  8
RACCORDO
100
AcDbPolyline
 62
253
  6
CONTINUOUS
 90
19
 70
0
 10
16.9187852411
 20
20.8875396612
 10
16.9292536385
 20
20.9084273931
 10
16.9372155789
 20
20.9304019645
 10
16.9425600326
 20
20.9531638625
 10
16.9452121634
 20
20.9764122224
 10
16.945130495
 20
20.9998194963
 10
16.9423190575
 20
21.0230358249
 10
16.93683145
 20
21.0457209327
 10
16.9287486068
 20
21.0675924997
 10
16.9181652201
 20
21.0883947142
 10
16.9051927561
 20
21.1078750729
 10
16.8900196562
 20
21.1257232236
 10
16.8729128873
 20
21.1416358742
 10
16.8541214638
 20
21.1554110956
 10
16.8339124809
 20
21.1668799881
 10
16.8126455106
 20
21.1758792346
 10
16.7906496024
 20
21.1823280369
 10
16.7682034146
 20
21.1862004228
 10
16.7456065403
 20
21.1874939697
  0
LWPOLYLINE
  5
4D4
100
AcDbEntity
  8
RACCORDO
100
AcDbPolyline
 62
253
  6
CONTINUOUS
 90
19
 70
0
 10
16.6819534968
 20
20.3174105346
 10
16.6715333867
 20
20.2966350015
 10
16.6635948926
 20
20.2747888339
 10
16.658245316
 20
20.2521673157
 10
16.6555569641
 20
20.2290761938
 10
16.6555661795
 20
20.2058275967
 10
16.6582728293
 20
20.1827358162
 10
16.6636402923
 20
20.1601130349
 10
16.671596007
 20
20.1382649585
 10
16.6820325013
 20
20.1174867547
 10
16.6948088109
 20
20.0980591943
 10
16.709752227
 20
20.0802449973
 10
16.7266606436
 20
20.0642850997
 10
16.7453054157
 20
20.0503952553
 10
16.7654345775
 20
20.0387631126
 10
16.7867761249
 20
20.0295458383
 10
16.809041627
 20
20.0228680096
 10
16.8319301078
 20
20.0188199002
 10
16.8551321976
 20
20.017456226
  0
LWPOLYLINE
  5
4D5
100
AcDbEntity
  8
RACCORDO
100
AcDbPolyline
 62
253
  6
CONTINUOUS
 90
19
 70
0
 10
16.0294400969
 20
19.7470887216
 10
16.0012712599
 20
19.6952408744
 10
15.9747755323
 20
19.6409582648
 10
15.949952914
 20
19.5842408929
 10
15.9268487206
 20
19.5250148105
 10
15.9054176365
 20
19.4633539657
 10
15.8855237155
 20
19.3994802031
 10
15.8672012021
 20
19.333447625
 10
15.8504158517
 20
19.265202129
 10
15.8349289841
 20
19.1948032521
 10
15.8207703901
 20
19.1222972235
 10
15.8079102789
 20
19.0476378139
 10
15.7960205979
 20
18.9707458726
 10
15.7851460848
 20
18.8916812237
 10
15.7752420019
 20
18.8103840431
 10
15.7658460836
 20
18.7265957077
 10
15.7568042415
 20
18.6402300097
 10
15.7482705641
 20
18.5513731568
 10
15.7402450513
 20
18.4600251491
  0
LINE
  5
4D6
100
AcDbEntity
  8
RACCORDO
100
AcDbLine
 62
253
  6
CONTINUOUS
 10
17.1677053066
 20
20.8693940951
 11
16.812043753
 21
20.217425765
  0
LWPOLYLINE
  5
4D7
100
AcDbEntity
  8
RACCORDO
100
AcDbPolyline
 62
253
  6
CONTINUOUS
 90
17
 70
0
 10
16.2026189377
 20
19.6471051258
 10
16.1783426807
 20
19.6041276109
 10
16.1541017009
 20
19.5584166821
 10
16.1298908254
 20
19.5100136575
 10
16.1056990585
 20
19.458985478
 10
16.0814821749
 20
19.4053347548
 10
16.057183697
 20
19.3490001221
 10
16.0327636101
 20
19.2900119102
 10
16.008168824
 20
19.2283825084
 10
15.9833448303
 20
19.1640191191
 10
15.9582306269
 20
19.0969367247
 10
15.9327674549
 20
19.0271509795
 10
15.9069301637
 20
18.9545734132
 10
15.8806412416
 20
18.8792342296
 10
15.8538220845
 20
18.8011348208
 10
15.8264695057
 20
18.7201538969
 10
15.7402466951
 20
18.4600323095
  0
LINE
  5
4D8
100
AcDbEntity
  8
RACCORDO
100
AcDbLine
 62
253
  6
CONTINUOUS
 10
-16.6606421771
 20
20.0432786464
 11
-16.5770240476
 21
19.9597895314
  0
LINE
  5
4D9
100
AcDbEntity
  8
RACCORDO
100
AcDbLine
 62
253
  6
CONTINUOUS
 10
-16.1101536061
 20
17.9930185325
 11
-16.1066625931
 21
17.9895275196
  0
LINE
  5
4DA
100
AcDbEntity
  8
RACCORDO
100
AcDbLine
 62
253
  6
CONTINUOUS
 10
18.8969045723
 20
-17.0140396458
 11
18.8934135593
 21
-17.0105486329
  0
LINE
  5
4DB
100
AcDbEntity
  8
RACCORDO
100
AcDbLine
 62
253
  6
CONTINUOUS
 10
-17.213875508
 20
20.1236401676
 11
-17.1169388085
 21
20.0267034681
  0
LINE
  5
4DC
100
AcDbEntity
  8
RACCORDO
100
AcDbLine
 62
7
  6
CONTINUOUS
 10
-17.1264067004
 20
20.2212866944
 11
-17.0999272483
 21
20.1948072424
  0
LINE
  5
4DD
100
AcDbEntity
  8
RACCORDO
100
AcDbLine
 62
253
  6
CONTINUOUS
 10
-17.0565864407
 20
20.3190029974
 11
-16.959638148
 21
20.2220547047
  0
LINE
  5
4DE
100
AcDbEntity
  8
RACCORDO
100
AcDbLine
 62
253
  6
CONTINUOUS
 10
21.1434135593
 20
-17.7607770901
 11
20.8636755712
 21
-17.4810391019
  0
LWPOLYLINE
  5
4DF
100
AcDbEntity
  8
RACCORDO
100
AcDbPolyline
 62
253
  6
CONTINUOUS
 90
7
 70
0
 10
16.6714349638
 20
-19.3713795605
 10
16.6941505331
 20
-19.4031682882
 10
16.7135421129
 20
-19.4296584629
 10
16.729372502
 20
-19.4507347821
 10
16.7415626335
 20
-19.4663112761
 10
16.7501915744
 20
-19.4763261954
 10
16.7552593247
 20
-19.480736119
  0
LINE
  5
4E0
100
AcDbEntity
  8
RACCORDO
100
AcDbLine
 62
253
  6
CONTINUOUS
 10
16.6162241929
 20
-19.2927267799
 11
16.6714349638
 21
-19.3713795605
  0
LINE
  5
4E1
100
AcDbEntity
  8
RACCORDO
100
AcDbLine
 62
253
  6
CONTINUOUS
 10
16.5475151172
 20
-19.1931726513
 11
16.6162241929
 21
-19.2927267799
  0
LINE
  5
4E2
100
AcDbEntity
  8
RACCORDO
100
AcDbLine
 62
253
  6
CONTINUOUS
 10
16.4653504407
 20
-19.0726829066
 11
16.5475151172
 21
-19.1931726513
  0
LINE
  5
4E3
100
AcDbEntity
  8
RACCORDO
100
AcDbLine
 62
253
  6
CONTINUOUS
 10
16.3175877909
 20
-18.853542204
 11
16.4653504407
 21
-19.0726829066
  0
LWPOLYLINE
  5
4E4
100
AcDbEntity
  8
RACCORDO
100
AcDbPolyline
 62
253
  6
CONTINUOUS
 90
3
 70
0
 10
15.740755097
 20
-17.9809570748
 10
15.9475020212
 20
-18.2965477436
 10
16.3175877909
 20
-18.853542204
  0
LWPOLYLINE
  5
4E5
100
AcDbEntity
  8
RACCORDO
100
AcDbPolyline
 62
253
  6
CONTINUOUS
 90
9
 70
0
 10
16.460993697
 20
-19.5968097999
 10
16.4863898339
 20
-19.6377701486
 10
16.5089177491
 20
-19.6736923698
 10
16.5286512431
 20
-19.7046944869
 10
16.5455165153
 20
-19.7306584765
 10
16.5593114263
 20
-19.7512712151
 10
16.5699685961
 20
-19.766428328
 10
16.5775554046
 20
-19.7762341899
 10
16.5820718518
 20
-19.7806888008
  0
LINE
  5
4E6
100
AcDbEntity
  8
RACCORDO
100
AcDbLine
 62
253
  6
CONTINUOUS
 10
5.0102645854
 20
-19.083140798
 11
5.0102645854
 21
-26.7785418525
  0
LINE
  5
4E7
100
AcDbEntity
  8
RACCORDO
100
AcDbLine
 62
7
  6
CONTINUOUS
 10
5.0457947136
 20
-19.9001129999
 11
5.0457947136
 21
-26.8140719806
  0
LWPOLYLINE
  5
4E8
100
AcDbEntity
  8
RACCORDO
100
AcDbPolyline
 62
253
  6
CONTINUOUS
 90
25
 70
0
 10
5.0102645854
 20
-26.7785418525
 10
5.0059467098
 20
-26.9093135028
 10
4.9930896984
 20
-27.0395108426
 10
4.9717502308
 20
-27.1685775867
 10
4.942021655
 20
-27.2959623013
 10
4.9040322901
 20
-27.4211210125
 10
4.8579445947
 20
-27.5435194485
 10
4.8039568584
 20
-27.6626345099
 10
4.7423010539
 20
-27.7779580736
 10
4.6732399164
 20
-27.8889991219
 10
4.5970692173
 20
-27.9952831936
 10
4.5141151635
 20
-28.09635667
 10
4.4247306716
 20
-28.191789661
 10
4.3292976802
 20
-28.2811741453
 10
4.2282242087
 20
-28.3641281881
 10
4.1219401435
 20
-28.4402988769
 10
4.0108991023
 20
-28.5093600055
 10
3.8955755469
 20
-28.5710158021
 10
3.7764604938
 20
-28.6250035317
 10
3.6540620655
 20
-28.6710912218
 10
3.5289033615
 20
-28.7090805825
 10
3.4015186533
 20
-28.7388091554
 10
3.2724519144
 20
-28.7601486212
 10
3.1422545788
 20
-28.7730056315
 10
3.0114829314
 20
-28.7773235065
  0
LWPOLYLINE
  5
4E9
100
AcDbEntity
  8
RACCORDO
100
AcDbPolyline
 62
253
  6
CONTINUOUS
 90
25
 70
0
 10
4.5105691719
 20
-26.7785418525
 10
4.5072957287
 20
-26.8770296179
 10
4.497736867
 20
-26.9743514247
 10
4.4818925868
 20
-27.070507273
 10
4.4596409923
 20
-27.1659273966
 10
4.4311039793
 20
-27.2601815617
 10
4.3966472354
 20
-27.3519790666
 10
4.3561960602
 20
-27.4412582135
 10
4.3098251542
 20
-27.5280807003
 10
4.2581243065
 20
-27.6113409184
 10
4.2010248517
 20
-27.6909937945
 10
4.1385954552
 20
-27.7670844021
 10
4.0716319029
 20
-27.8386423528
 10
4.0000756291
 20
-27.905609991
 10
3.9239851995
 20
-27.9680449723
 10
3.8443320962
 20
-28.0251498756
 10
3.7610715673
 20
-28.0768555578
 10
3.6742483647
 20
-28.1232311619
 10
3.5849682259
 20
-28.1636866953
 10
3.4931708517
 20
-28.1981473579
 10
3.3989165413
 20
-28.2266879497
 10
3.3034919306
 20
-28.2489428784
 10
3.2073258979
 20
-28.2647902798
 10
3.1099895649
 20
-28.274352018
 10
3.0114829314
 20
-28.277628093
  0
LINE
  5
4EA
100
AcDbEntity
  8
RACCORDO
100
AcDbLine
 62
7
  6
CONTINUOUS
 10
-2.3648076453
 20
-18.2269785286
 11
-2.2237420533
 21
-17.9809629495
  0
LINE
  5
4EB
100
AcDbEntity
  8
RACCORDO
100
AcDbLine
 62
253
  6
CONTINUOUS
 10
22.4434440203
 20
8.2395275196
 11
22.3465272645
 21
8.1426107638
  0
LINE
  5
4EC
100
AcDbEntity
  8
0
100
AcDbLine
 62
7
  6
CONTINUOUS
 10
-18.950314729
 20
4.9882428655
 11
-18.8142293624
 21
5.0005957338
  0
LWPOLYLINE
  5
4ED
100
AcDbEntity
  8
RACCORDO
100
AcDbPolyline
 62
253
  6
CONTINUOUS
 90
13
 70
0
 10
21.4402998541
 20
8.1426107638
 10
21.4142035733
 20
8.140892704
 10
21.3885536423
 20
8.1357838088
 10
21.3637887693
 20
8.1273714617
 10
21.3403325232
 20
8.1157995465
 10
21.3185860929
 20
8.1012659885
 10
21.2989214246
 20
8.0840193708
 10
21.2816748539
 20
8.0643546779
 10
21.2671413561
 20
8.0426082505
 10
21.2555695041
 20
8.0191520366
 10
21.2471572136
 20
7.994387226
 10
21.2420483592
 20
7.968737387
 10
21.2403303151
 20
7.9426412248
  0
LINE
  5
4EE
100
AcDbEntity
  8
RACCORDO
100
AcDbLine
 62
253
  6
CONTINUOUS
 10
21.2394164164
 20
4.5548381495
 11
21.0474107022
 21
4.5548381495
  0
LINE
  5
4EF
100
AcDbEntity
  8
RACCORDO
100
AcDbLine
 62
253
  6
CONTINUOUS
 10
-18.7605835836
 20
4.5548381495
 11
-18.9525892978
 21
4.5548381495
  0
LINE
  5
4F0
100
AcDbEntity
  8
RACCORDO
100
AcDbLine
 62
253
  6
CONTINUOUS
 10
21.238667571
 20
4.85442701
 11
21.0523731635
 21
4.85442701
  0
LINE
  5
4F1
100
AcDbEntity
  8
RACCORDO
100
AcDbLine
 62
253
  6
CONTINUOUS
 10
-18.7655460448
 20
4.85442701
 11
-18.9518404523
 21
4.85442701
  0
LINE
  5
4F2
100
AcDbEntity
  8
RACCORDO
100
AcDbLine
 62
253
  6
CONTINUOUS
 10
22.4984755939
 20
5.1430676783
 11
21.2883515248
 21
5.1430676783
  0
LINE
  5
4F3
100
AcDbEntity
  8
RACCORDO
100
AcDbLine
 62
253
  6
CONTINUOUS
 10
-19.0015244061
 20
5.1430676783
 11
-20.2116484752
 21
5.1430676783
  0
LINE
  5
4F4
100
AcDbEntity
  8
RACCORDO
100
AcDbLine
 62
7
  6
CONTINUOUS
 10
-17.3230924888
 20
16.7477487242
 11
-17.0770769097
 21
16.6066831322
  0
LINE
  5
4F5
100
AcDbEntity
  8
RACCORDO
100
AcDbLine
 62
253
  6
CONTINUOUS
 10
-16.959638148
 20
22.0728351196
 11
-17.0565864407
 21
22.1697834123
  0
LINE
  5
4F6
100
AcDbEntity
  8
RACCORDO
100
AcDbLine
 62
253
  6
CONTINUOUS
 10
-16.4597143004
 20
22.5727589671
 11
-16.5566625931
 21
22.6697072598
  0
LINE
  5
4F7
100
AcDbEntity
  8
SMUSSO
100
AcDbLine
 62
7
  6
CONTINUOUS
 10
-16.1066321252
 20
22.6697072598
 11
-16.0097904795
 21
22.5728656142
  0
LINE
  5
4F8
100
AcDbEntity
  8
RACCORDO
100
AcDbLine
 62
253
  6
CONTINUOUS
 10
16.4015218679
 20
-19.4996285728
 11
16.460993697
 21
-19.5968097999
  0
LINE
  5
4F9
100
AcDbEntity
  8
RACCORDO
100
AcDbLine
 62
253
  6
CONTINUOUS
 10
16.3305150569
 20
-19.3821367117
 11
16.4015218679
 21
-19.4996285728
  0
LINE
  5
4FA
100
AcDbEntity
  8
RACCORDO
100
AcDbLine
 62
253
  6
CONTINUOUS
 10
16.2026211971
 20
-19.1680521084
 11
16.3305150569
 21
-19.3821367117
  0
LINE
  5
4FB
100
AcDbEntity
  8
RACCORDO
100
AcDbLine
 62
253
  6
CONTINUOUS
 10
16.0294426755
 20
-19.2680370978
 11
16.7456065933
 21
-20.5084693916
  0
LINE
  5
4FC
100
AcDbEntity
  8
RACCORDO
100
AcDbLine
 62
253
  6
CONTINUOUS
 10
16.2026211971
 20
-19.1680521084
 11
16.9187852435
 21
-20.4084846234
  0
LINE
  5
4FD
100
AcDbEntity
  8
RACCORDO
100
AcDbLine
 62
7
  6
CONTINUOUS
 10
17.0791259834
 20
-20.5010573928
 11
16.7037955485
 21
-19.8509660098
  0
LWPOLYLINE
  5
4FE
100
AcDbEntity
  8
RACCORDO
100
AcDbPolyline
 62
253
  6
CONTINUOUS
 90
16
 70
0
 10
8.1310530013
 20
22.0387266065
 10
8.1288837209
 20
22.0905429441
 10
8.1232889769
 20
22.1418012167
 10
8.1143290253
 20
22.1919493688
 10
8.1021003654
 20
22.2404473015
 10
8.0867347006
 20
22.2867726883
 10
8.0683975204
 20
22.3304266016
 10
8.0472863175
 20
22.3709388856
 10
8.023628461
 20
22.40787322
 10
7.9976787478
 20
22.4408318195
 10
7.9697166582
 20
22.4694597175
 10
7.9400433457
 20
22.4934485896
 10
7.9089783943
 20
22.5125400738
 10
7.8768563755
 20
22.5265285536
 10
7.8440232459
 20
22.5352633719
 10
7.8108326207
 20
22.5386504541
  0
LINE
  5
4FF
100
AcDbEntity
  8
RACCORDO
100
AcDbLine
 62
253
  6
CONTINUOUS
 10
8.1310560586
 20
20.229449363
 11
8.1310560586
 21
22.0387266065
  0
LINE
  5
500
100
AcDbEntity
  8
RACCORDO
100
AcDbLine
 62
253
  6
CONTINUOUS
 10
9.1557710601
 20
22.0387266065
 11
9.1557710601
 21
20.229449363
  0
LWPOLYLINE
  5
501
100
AcDbEntity
  8
RACCORDO
100
AcDbPolyline
 62
253
  6
CONTINUOUS
 90
16
 70
0
 10
9.1557636669
 20
22.0387266065
 10
9.1579330476
 20
22.0905431598
 10
9.1635280449
 20
22.1418016096
 10
9.1724883968
 20
22.1919498663
 10
9.1847175941
 20
22.2404477976
 10
9.2000839196
 20
22.2867730468
 10
9.2184218671
 20
22.3304266582
 10
9.2395339241
 20
22.3709384516
 10
9.2631926988
 20
22.4078720864
 10
9.2891433696
 20
22.4408297614
 10
9.3171064293
 20
22.4694564991
 10
9.3467806962
 20
22.4934439694
 10
9.3778465574
 20
22.5125338103
 10
9.4099694117
 20
22.5265204109
 10
9.4428032733
 20
22.5352531254
 10
9.4759944984
 20
22.5386378964
  0
LINE
  5
502
100
AcDbEntity
  8
RACCORDO
100
AcDbLine
 62
253
  6
CONTINUOUS
 10
22.6434135593
 20
8.0395579805
 11
22.5464968036
 21
7.9426412248
  0
LINE
  5
503
100
AcDbEntity
  8
RACCORDO
100
AcDbLine
 62
7
  6
CONTINUOUS
 10
22.5559859183
 20
5.1520998785
 11
22.6434135593
 21
5.2395275196
  0
LWPOLYLINE
  5
504
100
AcDbEntity
  8
RACCORDO
100
AcDbPolyline
 62
253
  6
CONTINUOUS
 90
13
 70
0
 10
-20.0597001459
 20
8.1426107638
 10
-20.0857964267
 20
8.140892704
 10
-20.1114463577
 20
8.1357838088
 10
-20.1362112307
 20
8.1273714617
 10
-20.1596674768
 20
8.1157995465
 10
-20.1814139071
 20
8.1012659885
 10
-20.2010785754
 20
8.0840193708
 10
-20.2183251461
 20
8.0643546779
 10
-20.2328586439
 20
8.0426082505
 10
-20.2444304959
 20
8.0191520366
 10
-20.2528427864
 20
7.994387226
 10
-20.2579516408
 20
7.968737387
 10
-20.2596696849
 20
7.9426412248
  0
LINE
  5
505
100
AcDbEntity
  8
RACCORDO
100
AcDbLine
 62
253
  6
CONTINUOUS
 10
-19.1534727355
 20
8.1426107638
 11
-20.0597005033
 21
8.1426111212
  0
LINE
  5
506
100
AcDbEntity
  8
RACCORDO
100
AcDbLine
 62
253
  6
CONTINUOUS
 10
22.3465272645
 20
8.1426107638
 11
21.4402994967
 21
8.1426111212
  0
LINE
  5
507
100
AcDbEntity
  8
RACCORDO
100
AcDbLine
 62
7
  6
CONTINUOUS
 10
-20.1566169016
 20
8.2395275196
 11
-19.0565559797
 21
8.2395275196
  0
LINE
  5
508
100
AcDbEntity
  8
RACCORDO
100
AcDbLine
 62
7
  6
CONTINUOUS
 10
21.3433830984
 20
8.2395275196
 11
22.4434440203
 21
8.2395275196
  0
LWPOLYLINE
  5
509
100
AcDbEntity
  8
RACCORDO
100
AcDbPolyline
 62
253
  6
CONTINUOUS
 90
25
 70
0
 10
-25.8746558127
 20
9.3726764935
 10
-26.0054274631
 20
9.3769943691
 10
-26.1356248028
 20
9.3898513804
 10
-26.2646915469
 20
9.4111908481
 10
-26.3920762615
 20
9.4409194239
 10
-26.5172349727
 20
9.4789087888
 10
-26.6396334087
 20
9.5249964842
 10
-26.7587484702
 20
9.5789842205
 10
-26.8740720339
 20
9.640640025
 10
-26.9851130821
 20
9.7097011625
 10
-27.0913971538
 20
9.7858718616
 10
-27.1924706302
 20
9.8688259154
 10
-27.2879036212
 20
9.9582104073
 10
-27.3772881055
 20
10.0536433987
 10
-27.4602421484
 20
10.1547168702
 10
-27.5364128371
 20
10.2610009354
 10
-27.6054739658
 20
10.3720419766
 10
-27.6671297623
 20
10.487365532
 10
-27.7211174919
 20
10.6064805851
 10
-27.767205182
 20
10.7288790134
 10
-27.8051945428
 20
10.8540377174
 10
-27.8349231156
 20
10.9814224256
 10
-27.8562625814
 20
11.1104891645
 10
-27.8691195917
 20
11.2406865001
 10
-27.8734374668
 20
11.3714581475
  0
LWPOLYLINE
  5
50A
100
AcDbEntity
  8
RACCORDO
100
AcDbPolyline
 62
253
  6
CONTINUOUS
 90
25
 70
0
 10
-25.8746558127
 20
9.872371907
 10
-25.9731435781
 20
9.8756453502
 10
-26.0704653849
 20
9.8852042119
 10
-26.1666212332
 20
9.9010484921
 10
-26.2620413569
 20
9.9233000866
 10
-26.3562955219
 20
9.9518370996
 10
-26.4480930268
 20
9.9862938435
 10
-26.5373721737
 20
10.0267450187
 10
-26.6241946605
 20
10.0731159247
 10
-26.7074548786
 20
10.1248167724
 10
-26.7871077548
 20
10.1819162272
 10
-26.8631983623
 20
10.2443456237
 10
-26.934756313
 20
10.311309176
 10
-27.0017239512
 20
10.3828654498
 10
-27.0641589326
 20
10.4589558794
 10
-27.1212638358
 20
10.5386089827
 10
-27.172969518
 20
10.6218695116
 10
-27.2193451221
 20
10.7086927142
 10
-27.2598006555
 20
10.797972853
 10
-27.2942613181
 20
10.8897702272
 10
-27.32280191
 20
10.9840245376
 10
-27.3450568387
 20
11.0794491483
 10
-27.36090424
 20
11.175615181
 10
-27.3704659782
 20
11.272951514
 10
-27.3737420533
 20
11.3714581475
  0
LWPOLYLINE
  5
50B
100
AcDbEntity
  8
RACCORDO
100
AcDbPolyline
 62
253
  6
CONTINUOUS
 90
13
 70
0
 10
-19.1534727355
 20
8.1426107638
 10
-19.127376504
 20
8.1408927105
 10
-19.1017266134
 20
8.1357838329
 10
-19.0769617705
 20
8.1273715114
 10
-19.0535055445
 20
8.1157996273
 10
-19.0317591224
 20
8.1012661023
 10
-19.0120944477
 20
8.0840195125
 10
-18.994847858
 20
8.0643548378
 10
-18.9803143329
 20
8.0426084158
 10
-18.9687424488
 20
8.0191521897
 10
-18.9603301273
 20
7.9943873468
 10
-18.9552212497
 20
7.9687374562
 10
-18.9535031964
 20
7.9426412248
  0
LINE
  5
50C
100
AcDbEntity
  8
0
100
AcDbLine
 62
7
  6
CONTINUOUS
 10
21.2371418477
 20
4.9882428655
 11
21.1010564811
 21
5.0005957338
  0
LWPOLYLINE
  5
50D
100
AcDbEntity
  8
RACCORDO
100
AcDbPolyline
 62
253
  6
CONTINUOUS
 90
10
 70
0
 10
-17.1169388085
 20
20.0267034681
 10
-17.1151570898
 20
20.0256156825
 10
-17.111883649
 20
20.0248333911
 10
-17.1071174817
 20
20.0243519581
 10
-17.1008738647
 20
20.024155018
 10
-17.0931334543
 20
20.0242397492
 10
-17.083842183
 20
20.0246161726
 10
-17.0729371189
 20
20.0252763931
 10
-17.060472961
 20
20.026186066
 10
-17.0465715139
 20
20.0273113123
  0
LINE
  5
50E
100
AcDbEntity
  8
SMUSSO
100
AcDbLine
 62
7
  6
CONTINUOUS
 10
-11.1066321252
 20
22.6697072598
 11
-11.0097904795
 21
22.5728656142
  0
LWPOLYLINE
  5
50F
100
AcDbEntity
  8
RACCORDO
100
AcDbPolyline
 62
253
  6
CONTINUOUS
 90
16
 70
0
 10
16.5820718518
 20
-19.7806888008
 10
16.5698616005
 20
-19.7556204545
 10
16.5612579198
 20
-19.7290946786
 10
16.5564281866
 20
-19.7016275075
 10
16.5554663586
 20
-19.6737532897
 10
16.5583911472
 20
-19.6460142922
 10
16.5651456536
 20
-19.6189501514
 10
16.575598475
 20
-19.593087375
 10
16.5895462616
 20
-19.5689290996
 10
16.606717672
 20
-19.5469453019
 10
16.6267786526
 20
-19.5275636566
 10
16.6493389355
 20
-19.5111612157
 10
16.6739596311
 20
-19.4980570737
 10
16.7001617663
 20
-19.4885061596
 10
16.727435603
 20
-19.4826942775
 10
16.7552505538
 20
-19.4807344923
  0
LINE
  5
510
100
AcDbEntity
  8
RACCORDO
100
AcDbLine
 62
253
  6
CONTINUOUS
 10
11.1434135593
 20
20.0161020966
 11
11.1434135593
 21
22.528107399
  0
LWPOLYLINE
  5
511
100
AcDbEntity
  8
RACCORDO
100
AcDbPolyline
 62
253
  6
CONTINUOUS
 90
14
 70
0
 10
22.5464968036
 20
7.9426412248
 10
22.5449625694
 20
7.9403800204
 10
22.5433679258
 20
7.9342935916
 10
22.5417128727
 20
7.9243819384
 10
22.539994431
 20
7.9110598787
 10
22.5382155799
 20
7.8939125946
 10
22.5363852563
 20
7.8716956321
 10
22.5345013811
 20
7.844436047
 10
22.5325660334
 20
7.8121067836
 10
22.5305943875
 20
7.7733822208
 10
22.5285834905
 20
7.7282450871
 10
22.5265362954
 20
7.676712654
 10
22.5244768354
 20
7.617511116
 10
22.5203087732
 20
7.4755938468
  0
LINE
  5
512
100
AcDbEntity
  8
RACCORDO
100
AcDbLine
 62
7
  6
CONTINUOUS
 10
-3.1780168288
 20
-19.6906522207
 11
-2.7580534177
 21
-19.4807344923
  0
LWPOLYLINE
  5
513
100
AcDbEntity
  8
RACCORDO
100
AcDbPolyline
 62
7
  6
CONTINUOUS
 90
13
 70
0
 10
-20.1566169016
 20
8.2395275196
 10
-20.1827190285
 20
8.2378172554
 10
-20.2083742068
 20
8.232715079
 10
-20.2331437282
 20
8.2243080978
 10
-20.256604185
 20
8.2127398567
 10
-20.2783539909
 20
8.1982080695
 10
-20.2980204129
 20
8.1809614918
 10
-20.3152669906
 20
8.1612950698
 10
-20.3297987778
 20
8.1395452639
 10
-20.3413670189
 20
8.1160848071
 10
-20.3497740001
 20
8.0913152856
 10
-20.3548761765
 20
8.0656601074
 10
-20.3565864407
 20
8.0395579805
  0
LINE
  5
514
100
AcDbEntity
  8
RACCORDO
100
AcDbLine
 62
7
  6
CONTINUOUS
 10
-19.1358674795
 20
9.3371463653
 11
-25.9101859409
 21
9.3371463653
  0
LINE
  5
515
100
AcDbEntity
  8
RACCORDO
100
AcDbLine
 62
253
  6
CONTINUOUS
 10
-18.1792547582
 20
9.3726764935
 11
-25.8746558127
 21
9.3726764935
  0
LINE
  5
516
100
AcDbEntity
  8
RACCORDO
100
AcDbLine
 62
253
  6
CONTINUOUS
 10
-17.0770769097
 20
9.872371907
 11
-25.8746558127
 21
9.872371907
  0
LINE
  5
517
100
AcDbEntity
  8
RACCORDO
100
AcDbLine
 62
253
  6
CONTINUOUS
 10
-27.8734374668
 20
11.3714581475
 11
-27.3737420533
 21
11.3714581475
  0
LWPOLYLINE
  5
518
100
AcDbEntity
  8
RACCORDO
100
AcDbPolyline
 62
253
  6
CONTINUOUS
 90
10
 70
0
 10
-16.959638148
 20
20.2220547047
 10
-16.9578140409
 20
20.2209941396
 10
-16.9545637254
 20
20.2202548428
 10
-16.9498288471
 20
20.2198368142
 10
-16.9435332439
 20
20.2197480094
 10
-16.935628756
 20
20.2199804729
 10
-16.9261334175
 20
20.2205103381
 10
-16.9150169953
 20
20.2213608504
 10
-16.9022622852
 20
20.2225087644
 10
-16.8879852124
 20
20.2238604779
  0
LINE
  5
519
100
AcDbEntity
  8
RACCORDO
100
AcDbLine
 62
253
  6
CONTINUOUS
 10
22.3465272645
 20
-7.6635557247
 11
22.4434440203
 21
-7.7604724804
  0
LINE
  5
51A
100
AcDbEntity
  8
RACCORDO
100
AcDbLine
 62
253
  6
CONTINUOUS
 10
22.5464968036
 20
-7.4635861856
 11
22.6434135593
 21
-7.5605029414
  0
LWPOLYLINE
  5
51B
100
AcDbEntity
  8
RACCORDO
100
AcDbPolyline
 62
253
  6
CONTINUOUS
 90
15
 70
0
 10
15.8549641716
 20
-18.3254316989
 10
15.881922681
 20
-18.403879943
 10
15.9083094552
 20
-18.479420893
 10
15.9341930713
 20
-18.5520406031
 10
15.9596498831
 20
-18.6217177973
 10
15.9847335068
 20
-18.6886138257
 10
16.0095056207
 20
-18.7527285007
 10
16.0340190192
 20
-18.8140401178
 10
16.0583398855
 20
-18.872674562
 10
16.0825171551
 20
-18.9286227681
 10
16.1065841758
 20
-18.9818479265
 10
16.1306024547
 20
-19.0324245247
 10
16.1546131732
 20
-19.0803557794
 10
16.1786192385
 20
-19.125576576
 10
16.2026215215
 20
-19.1680524813
  0
LINE
  5
51C
100
AcDbEntity
  8
RACCORDO
100
AcDbLine
 62
253
  6
CONTINUOUS
 10
15.7992051548
 20
-18.1592702606
 11
15.8549641716
 21
-18.3254316989
  0
LINE
  5
51D
100
AcDbEntity
  8
RACCORDO
100
AcDbLine
 62
253
  6
CONTINUOUS
 10
15.7402316487
 20
-17.9809511981
 11
15.7992051548
 21
-18.1592702606
  0
LWPOLYLINE
  5
51E
100
AcDbEntity
  8
RACCORDO
100
AcDbPolyline
 62
253
  6
CONTINUOUS
 90
22
 70
0
 10
15.740232998
 20
-17.9809570738
 10
15.7472672655
 20
-18.060422867
 10
15.7546168325
 20
-18.1378976928
 10
15.762281699
 20
-18.2133815513
 10
15.7701578654
 20
-18.2868112651
 10
15.7783493314
 20
-18.3582500114
 10
15.7871680955
 20
-18.4278873223
 10
15.7966429652
 20
-18.495743615
 10
15.8067451331
 20
-18.5617984722
 10
15.8177001756
 20
-18.6261801731
 10
15.8295269538
 20
-18.6889186287
 10
15.8422066066
 20
-18.7499839279
 10
15.8559081274
 20
-18.8094146169
 10
15.8706483229
 20
-18.8672424826
 10
15.8864103864
 20
-18.923435738
 10
15.9033128912
 20
-18.9779375687
 10
15.9213757935
 20
-19.0307763662
 10
15.940579137
 20
-19.0819237389
 10
15.9609816265
 20
-19.1312376974
 10
15.9826028302
 20
-19.1786709118
 10
16.0054231799
 20
-19.2242707119
 10
16.0294426755
 20
-19.2680370978
  0
LINE
  5
51F
100
AcDbEntity
  8
RACCORDO
100
AcDbLine
 62
7
  6
CONTINUOUS
 10
13.6368049534
 20
-20.6185581352
 11
13.6368049534
 21
-19.8128376752
  0
LINE
  5
520
100
AcDbEntity
  8
RACCORDO
100
AcDbLine
 62
7
  6
CONTINUOUS
 10
13.6717257228
 20
-19.5510117013
 11
13.6717257228
 21
-20.6011030703
  0
LINE
  5
521
100
AcDbEntity
  8
RACCORDO
100
AcDbLine
 62
253
  6
CONTINUOUS
 10
14.4050673087
 20
21.2661020966
 11
14.4050673087
 21
21.4660716356
  0
LINE
  5
522
100
AcDbEntity
  8
RACCORDO
100
AcDbLine
 62
253
  6
CONTINUOUS
 10
14.434040342
 20
20.0161020966
 11
14.434040342
 21
20.2160716356
  0
LINE
  5
523
100
AcDbEntity
  8
DRAFT
100
AcDbLine
 62
7
  6
CONTINUOUS
 10
17.6434135593
 20
-5.7604724804
 11
17.598016559
 21
-5.8058694808
  0
LINE
  5
524
100
AcDbEntity
  8
RACCORDO
100
AcDbLine
 62
253
  6
CONTINUOUS
 10
-2.7234374668
 20
-26.7785418525
 11
-2.7589675949
 21
-26.8140719806
  0
LINE
  5
525
100
AcDbEntity
  8
DRAFT
100
AcDbLine
 62
7
  6
CONTINUOUS
 10
17.6434135593
 20
-1.7604724804
 11
17.598016559
 21
-1.7150754801
  0
LINE
  5
526
100
AcDbEntity
  8
SMUSSO
100
AcDbLine
 62
7
  6
CONTINUOUS
 10
-6.1066321252
 20
22.6697072598
 11
-6.0097904795
 21
22.5728656142
  0
LINE
  5
527
100
AcDbEntity
  8
RACCORDO
100
AcDbLine
 62
7
  6
CONTINUOUS
 10
22.5559859183
 20
-4.6730448394
 11
22.6434135593
 21
-4.7604724804
  0
LINE
  5
528
100
AcDbEntity
  8
RACCORDO
100
AcDbLine
 62
253
  6
CONTINUOUS
 10
14.5412205783
 20
-20.7084389306
 11
14.5412205783
 21
-20.5084693916
  0
LINE
  5
529
100
AcDbEntity
  8
RACCORDO
100
AcDbLine
 62
253
  6
CONTINUOUS
 10
14.5412205783
 20
20.9875244307
 11
14.5412205783
 21
21.1874939697
  0
LINE
  5
52A
100
AcDbEntity
  8
RACCORDO
100
AcDbLine
 62
253
  6
CONTINUOUS
 10
16.1434135593
 20
21.2661020966
 11
16.1434135593
 21
22.528107399
  0
LINE
  5
52B
100
AcDbEntity
  8
RACCORDO
100
AcDbLine
 62
253
  6
CONTINUOUS
 10
16.7456065403
 20
21.1874939697
 11
16.7456065403
 21
20.9875244307
  0
LINE
  5
52C
100
AcDbEntity
  8
RACCORDO
100
AcDbLine
 62
253
  6
CONTINUOUS
 10
16.7456065403
 20
-20.5084693916
 11
16.7456065403
 21
-20.7084389306
  0
LWPOLYLINE
  5
52D
100
AcDbEntity
  8
RACCORDO
100
AcDbPolyline
 62
253
  6
CONTINUOUS
 90
10
 70
0
 10
17.0605348865
 20
20.9693788721
 10
17.0602331436
 20
20.9639577225
 10
17.0633462076
 20
20.9566751733
 10
17.0698128007
 20
20.9476745749
 10
17.0795056339
 20
20.9371330958
 10
17.0922339123
 20
20.9252582358
 10
17.1077470913
 20
20.9122837408
 10
17.1257398081
 20
20.8984650021
 10
17.145857892
 20
20.8840740291
 10
17.1677053367
 20
20.8693940951
  0
LWPOLYLINE
  5
52E
100
AcDbEntity
  8
RACCORDO
100
AcDbPolyline
 62
253
  6
CONTINUOUS
 90
3
 70
0
 10
16.6819534968
 20
20.3174105346
 10
16.6816084811
 20
20.3133590069
 10
16.6841840052
 20
20.3092875117
  0
LWPOLYLINE
  5
52F
100
AcDbEntity
  8
RACCORDO
100
AcDbPolyline
 62
253
  6
CONTINUOUS
 90
12
 70
0
 10
22.3465272645
 20
8.1426107638
 10
22.3449913372
 20
8.139495049
 10
22.3433954184
 20
8.1330982591
 10
22.3417395081
 20
8.12302035
 10
22.3400207653
 20
8.1088588678
 10
22.338242031
 20
8.0901888893
 10
22.3364118289
 20
8.0665441755
 10
22.3345279379
 20
8.0374710909
 10
22.3325925791
 20
8.0025167029
 10
22.3306209384
 20
7.9611754532
 10
22.3286100563
 20
7.9129702624
 10
22.3245035106
 20
7.7941351081
  0
LINE
  5
530
100
AcDbEntity
  8
DRAFT
100
AcDbLine
 62
7
  6
CONTINUOUS
 10
18.8969045723
 20
-1.7080913262
 11
18.8934135593
 21
-1.7150754801
  0
LINE
  5
531
100
AcDbEntity
  8
RACCORDO
100
AcDbLine
 62
7
  6
CONTINUOUS
 10
19.536763228
 20
-1.7084403031
 11
19.4374437932
 21
-1.9071397123
  0
LINE
  5
532
100
AcDbEntity
  8
RACCORDO
100
AcDbLine
 62
7
  6
CONTINUOUS
 10
21.2308412004
 20
-4.6730448394
 11
21.1434135593
 21
-4.7604724804
  0
LINE
  5
533
100
AcDbEntity
  8
RACCORDO
100
AcDbLine
 62
253
  6
CONTINUOUS
 10
-0.7246558127
 20
-28.7773235065
 11
-0.7601859409
 21
-28.8128536347
  0
LINE
  5
534
100
AcDbEntity
  8
DRAFT
100
AcDbLine
 62
7
  6
CONTINUOUS
 10
5.0457947136
 20
-19.9001129999
 11
5.4648439475
 21
-19.6906522207
  0
LINE
  5
535
100
AcDbEntity
  8
RACCORDO
100
AcDbLine
 62
253
  6
CONTINUOUS
 10
-27.8734374668
 20
15.1075968916
 11
-27.3737420533
 21
15.1075968916
  0
LWPOLYLINE
  5
536
100
AcDbEntity
  8
RACCORDO
100
AcDbPolyline
 62
7
  6
CONTINUOUS
 90
16
 70
0
 10
-18.1792547582
 20
17.1063785457
 10
-18.1407357933
 20
17.1033519373
 10
-18.0995484183
 20
17.0970865802
 10
-18.0556926332
 20
17.0876052858
 10
-18.0091658625
 20
17.0749654656
 10
-17.9599706817
 20
17.0592252488
 10
-17.9081148173
 20
17.0404152503
 10
-17.8535656531
 20
17.0186210947
 10
-17.7963558053
 20
16.9939486839
 10
-17.7365908486
 20
16.9664442418
 10
-17.6743601409
 20
16.9362998297
 10
-17.6095743244
 20
16.903620659
 10
-17.5420709007
 20
16.8682801504
 10
-17.4718912114
 20
16.8304871131
 10
-17.3989939149
 20
16.7903973464
 10
-17.3230924888
 20
16.7477487242
  0
LWPOLYLINE
  5
537
100
AcDbEntity
  8
SMUSSO
100
AcDbPolyline
 62
7
  6
CONTINUOUS
 90
11
 70
0
 10
-16.0097904795
 20
22.5728656142
 10
-16.0034934139
 20
22.5705121982
 10
-15.9884143779
 20
22.5681684348
 10
-15.9645533713
 20
22.5658343237
 10
-15.9318474736
 20
22.5634956115
 10
-15.8903596054
 20
22.5611665517
 10
-15.8402785281
 20
22.5588899053
 10
-15.7813335503
 20
22.5566673128
 10
-15.7137953633
 20
22.5544971337
 10
-15.6386648022
 20
22.5524172075
 10
-15.4653207463
 20
22.5485349313
  0
LINE
  5
538
100
AcDbEntity
  8
SMUSSO
100
AcDbLine
 62
7
  6
CONTINUOUS
 10
-1.1066321252
 20
22.6697072598
 11
-1.0097904795
 21
22.5728656142
  0
LINE
  5
539
100
AcDbEntity
  8
DRAFT
100
AcDbLine
 62
7
  6
CONTINUOUS
 10
18.8969045723
 20
-5.8128536347
 11
18.8934135593
 21
-5.8058694808
  0
LINE
  5
53A
100
AcDbEntity
  8
RACCORDO
100
AcDbLine
 62
7
  6
CONTINUOUS
 10
19.536763228
 20
-5.8125046578
 11
19.4374437932
 21
-5.6138052486
  0
LWPOLYLINE
  5
53B
100
AcDbEntity
  8
RACCORDO
100
AcDbPolyline
 62
253
  6
CONTINUOUS
 90
22
 70
0
 10
15.5465941206
 20
18.4600121129
 10
15.5395598531
 20
18.5394779061
 10
15.5322102862
 20
18.616952732
 10
15.5245454197
 20
18.6924365904
 10
15.5166692532
 20
18.7658663042
 10
15.5084777873
 20
18.8373050506
 10
15.4996590231
 20
18.9069423614
 10
15.4901841534
 20
18.9747986542
 10
15.4800819855
 20
19.0408535114
 10
15.469126943
 20
19.1052352122
 10
15.4573001649
 20
19.1679736678
 10
15.444620512
 20
19.229038967
 10
15.4309189912
 20
19.288469656
 10
15.4161787957
 20
19.3462975217
 10
15.4004167322
 20
19.4024907771
 10
15.3835142274
 20
19.4569926078
 10
15.3654513252
 20
19.5098314053
 10
15.3462479816
 20
19.560978778
 10
15.3258454921
 20
19.6102927365
 10
15.3042242885
 20
19.6577259509
 10
15.2814039388
 20
19.7033257511
 10
15.2573844432
 20
19.747092137
  0
LINE
  5
53C
100
AcDbEntity
  8
DRAFT
100
AcDbLine
 62
7
  6
CONTINUOUS
 10
17.598016559
 20
-5.8058694808
 11
17.598016559
 21
-1.7150754801
  0
LINE
  5
53D
100
AcDbEntity
  8
RACCORDO
100
AcDbLine
 62
7
  6
CONTINUOUS
 10
17.6151013958
 20
-20.6011030703
 11
17.6151013958
 21
-19.5510117013
  0
LINE
  5
53E
100
AcDbEntity
  8
DRAFT
100
AcDbLine
 62
7
  6
CONTINUOUS
 10
17.6434135593
 20
-5.7604724804
 11
17.6434135593
 21
-1.7604724804
  0
LINE
  5
53F
100
AcDbEntity
  8
RACCORDO
100
AcDbLine
 62
7
  6
CONTINUOUS
 10
17.6500221653
 20
-19.8128376752
 11
17.6500221653
 21
-20.6185581352
  0
LINE
  5
540
100
AcDbEntity
  8
RACCORDO
100
AcDbLine
 62
253
  6
CONTINUOUS
 10
18.377053847
 20
-19.6906522207
 11
18.377053847
 21
-19.6940823071
  0
LINE
  5
541
100
AcDbEntity
  8
RACCORDO
100
AcDbLine
 62
253
  6
CONTINUOUS
 10
18.8639801808
 20
-17.9809629495
 11
18.86398018
 21
-19.4807344923
  0
LINE
  5
542
100
AcDbEntity
  8
RACCORDO
100
AcDbLine
 62
253
  6
CONTINUOUS
 10
18.8639801808
 20
18.4600179886
 11
18.8639801808
 21
19.9597895314
  0
LINE
  5
543
100
AcDbEntity
  8
RACCORDO
100
AcDbLine
 62
7
  6
CONTINUOUS
 10
18.8934135593
 20
-17.0105486329
 11
18.8934135593
 21
-5.8058694808
  0
LINE
  5
544
100
AcDbEntity
  8
RACCORDO
100
AcDbLine
 62
7
  6
CONTINUOUS
 10
18.8934135593
 20
-5.3139880005
 11
18.8934135593
 21
-2.2069569604
  0
LINE
  5
545
100
AcDbEntity
  8
RACCORDO
100
AcDbLine
 62
7
  6
CONTINUOUS
 10
18.8934135593
 20
-1.7150754801
 11
18.8934135593
 21
17.489603672
  0
LINE
  5
546
100
AcDbEntity
  8
RACCORDO
100
AcDbLine
 62
7
  6
CONTINUOUS
 10
18.8969045723
 20
-17.0140396458
 11
18.8969045723
 21
-5.8128536347
  0
LINE
  5
547
100
AcDbEntity
  8
RACCORDO
100
AcDbLine
 62
7
  6
CONTINUOUS
 10
18.8969045723
 20
-1.7080913262
 11
18.8969045723
 21
17.493094685
  0
LINE
  5
548
100
AcDbEntity
  8
0
100
AcDbLine
 62
253
  6
CONTINUOUS
 10
19.0473345382
 20
-1.7615808619
 11
19.0473345382
 21
-1.9453045547
  0
LINE
  5
549
100
AcDbEntity
  8
0
100
AcDbLine
 62
253
  6
CONTINUOUS
 10
19.0473345382
 20
-5.5756404062
 11
19.0473345382
 21
-5.759364099
  0
LINE
  5
54A
100
AcDbEntity
  8
RACCORDO
100
AcDbLine
 62
253
  6
CONTINUOUS
 10
19.2464652666
 20
22.0728351196
 11
19.2464652666
 21
20.2220547047
  0
LINE
  5
54B
100
AcDbEntity
  8
0
100
AcDbLine
 62
7
  6
CONTINUOUS
 10
21.1434135593
 20
5.1277703056
 11
21.1010564811
 21
5.0005957338
  0
LINE
  5
54C
100
AcDbEntity
  8
RACCORDO
100
AcDbLine
 62
7
  6
CONTINUOUS
 10
21.1010564811
 20
5.0005957338
 11
21.0523731635
 21
4.85442701
  0
LINE
  5
54D
100
AcDbEntity
  8
RACCORDO
100
AcDbLine
 62
7
  6
CONTINUOUS
 10
19.4374437932
 20
-5.6138052486
 11
19.3727077365
 21
-5.7433168214
  0
LINE
  5
54E
100
AcDbEntity
  8
RACCORDO
100
AcDbLine
 62
253
  6
CONTINUOUS
 10
21.2403303151
 20
-7.4635861856
 11
21.1434135593
 21
-7.5605029414
  0
LINE
  5
54F
100
AcDbEntity
  8
RACCORDO
100
AcDbLine
 62
253
  6
CONTINUOUS
 10
21.4402998541
 20
-7.6635557247
 11
21.3433830984
 21
-7.7604724804
  0
LWPOLYLINE
  5
550
100
AcDbEntity
  8
RACCORDO
100
AcDbPolyline
 62
253
  6
CONTINUOUS
 90
13
 70
0
 10
9.0276816849
 20
20.0294800712
 10
9.0442604701
 20
20.0315084054
 10
9.0605604252
 20
20.0368661471
 10
9.0763073817
 20
20.0454631779
 10
9.0912364726
 20
20.057154894
 10
9.1050965874
 20
20.0717446384
 10
9.1176545964
 20
20.0889870087
 10
9.1286992713
 20
20.1085919847
 10
9.1380448384
 20
20.1302298068
 10
9.1455341034
 20
20.1535365224
 10
9.1510410953
 20
20.1781201079
 10
9.1544731855
 20
20.2035670624
 10
9.1557726454
 20
20.229449363
  0
LINE
  5
551
100
AcDbEntity
  8
RACCORDO
100
AcDbLine
 62
253
  6
CONTINUOUS
 10
-25.8746558127
 20
16.6066831322
 11
-17.0770769097
 21
16.6066831322
  0
LINE
  5
552
100
AcDbEntity
  8
RACCORDO
100
AcDbLine
 62
253
  6
CONTINUOUS
 10
-25.8746558127
 20
17.1063785457
 11
-18.1792547582
 21
17.1063785457
  0
LINE
  5
553
100
AcDbEntity
  8
RACCORDO
100
AcDbLine
 62
7
  6
CONTINUOUS
 10
-25.9101859409
 20
17.1419086738
 11
-19.1358674795
 21
17.1419086738
  0
LINE
  5
554
100
AcDbEntity
  8
RACCORDO
100
AcDbLine
 62
253
  6
CONTINUOUS
 10
-17.0770769097
 20
17.9600941411
 11
-18.5768484525
 21
17.9600941411
  0
LINE
  5
555
100
AcDbEntity
  8
RACCORDO
100
AcDbLine
 62
253
  6
CONTINUOUS
 10
19.3639040284
 20
17.9600941411
 11
20.8636755712
 21
17.9600941403
  0
LINE
  5
556
100
AcDbEntity
  8
RACCORDO
100
AcDbLine
 62
7
  6
CONTINUOUS
 10
18.3934897118
 20
17.9895275196
 11
-16.1066625931
 21
17.9895275196
  0
LINE
  5
557
100
AcDbEntity
  8
RACCORDO
100
AcDbLine
 62
7
  6
CONTINUOUS
 10
18.3969807247
 20
17.9930185325
 11
-16.1101536061
 21
17.9930185325
  0
LINE
  5
558
100
AcDbEntity
  8
RACCORDO
100
AcDbLine
 62
253
  6
CONTINUOUS
 10
15.5465941206
 20
18.4600121129
 11
-16.5771530622
 21
18.4600179886
  0
LINE
  5
559
100
AcDbEntity
  8
RACCORDO
100
AcDbLine
 62
253
  6
CONTINUOUS
 10
18.8639801808
 20
18.4600179886
 11
15.7402450513
 21
18.4600251491
  0
LWPOLYLINE
  5
55A
100
AcDbEntity
  8
RACCORDO
100
AcDbPolyline
 62
253
  6
CONTINUOUS
 90
13
 70
0
 10
-11.7408545662
 20
20.0294798242
 10
-11.7574324448
 20
20.0315096244
 10
-11.7737313961
 20
20.0368685464
 10
-11.7894772899
 20
20.0454664592
 10
-11.8044052981
 20
20.0571587556
 10
-11.8182643482
 20
20.0717487842
 10
-11.8308213468
 20
20.0889911574
 10
-11.841865099
 20
20.1085958776
 10
-11.8512098615
 20
20.1302332157
 10
-11.8586984658
 20
20.1535392558
 10
-11.864204962
 20
20.1781220165
 10
-11.867636737
 20
20.2035680434
 10
-11.8689360722
 20
20.229449363
  0
LWPOLYLINE
  5
55B
100
AcDbEntity
  8
SMUSSO
100
AcDbPolyline
 62
7
  6
CONTINUOUS
 90
11
 70
0
 10
-11.0097904795
 20
22.5728656142
 10
-11.0034934139
 20
22.5705121982
 10
-10.9884143779
 20
22.5681684348
 10
-10.9645533713
 20
22.5658343237
 10
-10.9318474736
 20
22.5634956115
 10
-10.8903596054
 20
22.5611665517
 10
-10.8402785281
 20
22.5588899053
 10
-10.7813335503
 20
22.5566673128
 10
-10.7137953633
 20
22.5544971337
 10
-10.6386648022
 20
22.5524172075
 10
-10.4653207463
 20
22.5485349313
  0
LINE
  5
55C
100
AcDbEntity
  8
RACCORDO
100
AcDbLine
 62
7
  6
CONTINUOUS
 10
19.4374437932
 20
-1.9071397123
 11
19.3727077365
 21
-1.7776281395
  0
LWPOLYLINE
  5
55D
100
AcDbEntity
  8
RACCORDO
100
AcDbPolyline
 62
253
  6
CONTINUOUS
 90
16
 70
0
 10
19.2464652666
 20
22.0728351196
 10
19.2437117567
 20
22.1250815091
 10
19.2355132147
 20
22.1767556747
 10
19.2219594372
 20
22.2272916794
 10
19.2031988695
 20
22.2761360574
 10
19.1794369845
 20
22.3227538605
 10
19.1509340377
 20
22.3666345192
 10
19.1180022041
 20
22.4072974568
 10
19.0810021604
 20
22.4442973416
 10
19.0403391466
 20
22.4772289532
 10
18.9964585133
 20
22.505731636
 10
18.9498408444
 20
22.5294932437
 10
18.9009967033
 20
22.5482535525
 10
18.8504610326
 20
22.5618071156
 10
18.7987872959
 20
22.5700055113
 10
18.7465414191
 20
22.5727589671
  0
LWPOLYLINE
  5
55E
100
AcDbEntity
  8
RACCORDO
100
AcDbPolyline
 62
253
  6
CONTINUOUS
 90
25
 70
0
 10
19.3639040284
 20
17.9600941411
 10
19.3628127311
 20
17.9929257946
 10
19.3596245168
 20
18.0253716081
 10
19.3543393854
 20
18.0574315815
 10
19.3469170113
 20
18.0892493032
 10
19.3373977201
 20
18.1206811847
 10
19.3259024892
 20
18.1512964614
 10
19.3124058807
 20
18.1810752496
 10
19.2969333325
 20
18.2100374329
 10
19.2796821349
 20
18.2378118976
 10
19.2606288982
 20
18.2643834499
 10
19.2397970122
 20
18.2897672836
 10
19.2174539366
 20
18.3136378657
 10
19.1935806524
 20
18.3359751603
 10
19.1681961787
 20
18.3567992032
 10
19.1416250326
 20
18.3758445698
 10
19.1138519112
 20
18.3930883117
 10
19.0848921173
 20
18.4085533772
 10
19.0551160773
 20
18.4220431864
 10
19.0245020569
 20
18.433532602
 10
18.9930717903
 20
18.4430467613
 10
18.9612609065
 20
18.4504644964
 10
18.9292146152
 20
18.455745418
 10
18.8967877066
 20
18.4589299154
 10
18.8639801808
 20
18.4600179886
  0
LWPOLYLINE
  5
55F
100
AcDbEntity
  8
RACCORDO
100
AcDbPolyline
 62
253
  6
CONTINUOUS
 90
25
 70
0
 10
20.8636755975
 20
17.959965157
 10
20.859369973
 20
18.09079821
 10
20.8465163765
 20
18.2210544192
 10
20.8251730745
 20
18.3501761827
 10
20.795436173
 20
18.4776055296
 10
20.7574353246
 20
18.6028034068
 10
20.7113295128
 20
18.7252509045
 10
20.6573130953
 20
18.844429533
 10
20.595619141
 20
18.9598231245
 10
20.5265123392
 20
19.0709363295
 10
20.4502889495
 20
19.1772930655
 10
20.3672750146
 20
19.2784386848
 10
20.2778256564
 20
19.3739405379
 10
20.1823237607
 20
19.463389817
 10
20.0811781198
 20
19.5464036598
 10
19.9748213524
 20
19.6226269711
 10
19.8637080961
 20
19.69173371
 10
19.7483144383
 20
19.7534276077
 10
19.6291357149
 20
19.8074439754
 10
19.5066834769
 20
19.8535513045
 10
19.3814806429
 20
19.8915530546
 10
19.2540605087
 20
19.9212873682
 10
19.1249674837
 20
19.9426267676
 10
18.9947549332
 20
19.9554792828
 10
18.8639801808
 20
19.9597895314
  0
LINE
  5
560
100
AcDbEntity
  8
RACCORDO
100
AcDbLine
 62
253
  6
CONTINUOUS
 10
21.2601598893
 20
7.6802295988
 11
21.2642743668
 21
7.5556200035
  0
LINE
  5
561
100
AcDbEntity
  8
RACCORDO
100
AcDbLine
 62
253
  6
CONTINUOUS
 10
21.2642743668
 20
7.5556200035
 11
21.268406962
 21
7.3998576804
  0
LINE
  5
562
100
AcDbEntity
  8
RACCORDO
100
AcDbLine
 62
253
  6
CONTINUOUS
 10
21.4642465366
 20
7.7280719868
 11
21.4683781563
 21
7.5609823392
  0
LINE
  5
563
100
AcDbEntity
  8
RACCORDO
100
AcDbLine
 62
253
  6
CONTINUOUS
 10
21.268406962
 20
7.3998576804
 11
21.2743649047
 21
7.1039781697
  0
LINE
  5
564
100
AcDbEntity
  8
RACCORDO
100
AcDbLine
 62
253
  6
CONTINUOUS
 10
21.4683781563
 20
7.5609823392
 11
21.4743340868
 21
7.2440656038
  0
LINE
  5
565
100
AcDbEntity
  8
RACCORDO
100
AcDbLine
 62
253
  6
CONTINUOUS
 10
21.2743649047
 20
7.1039781697
 11
21.2794106195
 21
6.7574031562
  0
LINE
  5
566
100
AcDbEntity
  8
RACCORDO
100
AcDbLine
 62
253
  6
CONTINUOUS
 10
21.4743340868
 20
7.2440656038
 11
21.4807681555
 21
6.745184792
  0
LINE
  5
567
100
AcDbEntity
  8
RACCORDO
100
AcDbLine
 62
253
  6
CONTINUOUS
 10
21.2794106195
 20
6.7574031562
 11
21.2841386312
 21
6.2808493453
  0
LINE
  5
568
100
AcDbEntity
  8
RACCORDO
100
AcDbLine
 62
253
  6
CONTINUOUS
 10
21.4807681555
 20
6.745184792
 11
21.4856919857
 21
6.1137493149
  0
LINE
  5
569
100
AcDbEntity
  8
RACCORDO
100
AcDbLine
 62
253
  6
CONTINUOUS
 10
21.2841386312
 20
6.2808493453
 11
21.2876572923
 21
5.6143629328
  0
LINE
  5
56A
100
AcDbEntity
  8
RACCORDO
100
AcDbLine
 62
253
  6
CONTINUOUS
 10
21.4856919857
 20
6.1137493149
 11
21.4882308658
 21
5.3338485241
  0
LINE
  5
56B
100
AcDbEntity
  8
RACCORDO
100
AcDbLine
 62
7
  6
CONTINUOUS
 10
19.3434135593
 20
22.1697834123
 11
19.3434135593
 21
20.3190029974
  0
LINE
  5
56C
100
AcDbEntity
  8
RACCORDO
100
AcDbLine
 62
253
  6
CONTINUOUS
 10
19.3639040284
 20
-17.4810391019
 11
19.3639040284
 21
-5.8128536347
  0
LINE
  5
56D
100
AcDbEntity
  8
RACCORDO
100
AcDbLine
 62
253
  6
CONTINUOUS
 10
19.3639040284
 20
-1.7080913262
 11
19.3639040284
 21
17.9600941411
  0
LINE
  5
56E
100
AcDbEntity
  8
0
100
AcDbLine
 62
7
  6
CONTINUOUS
 10
19.4374437932
 20
-5.6138052486
 11
19.4374437932
 21
-1.9071397123
  0
LINE
  5
56F
100
AcDbEntity
  8
RACCORDO
100
AcDbLine
 62
7
  6
CONTINUOUS
 10
19.536763228
 20
-5.8125046578
 11
19.536763228
 21
-1.7084403031
  0
LINE
  5
570
100
AcDbEntity
  8
RACCORDO
100
AcDbLine
 62
253
  6
CONTINUOUS
 10
20.8636755712
 20
17.9599651265
 11
20.8636755712
 21
-17.4810391019
  0
LINE
  5
571
100
AcDbEntity
  8
RACCORDO
100
AcDbLine
 62
7
  6
CONTINUOUS
 10
21.0474107022
 20
-4.0757831104
 11
21.0474107022
 21
4.5548381495
  0
LINE
  5
572
100
AcDbEntity
  8
RACCORDO
100
AcDbLine
 62
7
  6
CONTINUOUS
 10
21.1434135593
 20
18.2398321292
 11
21.1434135593
 21
5.1277703056
  0
LINE
  5
573
100
AcDbEntity
  8
RACCORDO
100
AcDbLine
 62
7
  6
CONTINUOUS
 10
21.1434135593
 20
-4.6487152665
 11
21.1434135593
 21
-17.7607770901
  0
LINE
  5
574
100
AcDbEntity
  8
DRAFT
100
AcDbLine
 62
7
  6
CONTINUOUS
 10
21.1434135593
 20
-4.7604724804
 11
21.1434135593
 21
-4.5215406947
  0
LINE
  5
575
100
AcDbEntity
  8
DRAFT
100
AcDbLine
 62
7
  6
CONTINUOUS
 10
21.1434135593
 20
5.0005957338
 11
21.1434135593
 21
5.2395275196
  0
LINE
  5
576
100
AcDbEntity
  8
RACCORDO
100
AcDbLine
 62
7
  6
CONTINUOUS
 10
21.2394164164
 20
4.6521760309
 11
21.2394164164
 21
-4.1731209918
  0
LINE
  5
577
100
AcDbEntity
  8
RACCORDO
100
AcDbLine
 62
253
  6
CONTINUOUS
 10
21.2876572923
 20
5.6143629328
 11
21.2883515248
 21
-4.6640126392
  0
LINE
  5
578
100
AcDbEntity
  8
RACCORDO
100
AcDbLine
 62
253
  6
CONTINUOUS
 10
21.4882308658
 20
5.3338485241
 11
21.4883082074
 21
-4.7574283599
  0
LINE
  5
579
100
AcDbEntity
  8
RACCORDO
100
AcDbLine
 62
253
  6
CONTINUOUS
 10
21.2883515248
 20
-4.6640126392
 11
21.2868733669
 21
-5.3468759395
  0
LINE
  5
57A
100
AcDbEntity
  8
RACCORDO
100
AcDbLine
 62
253
  6
CONTINUOUS
 10
21.4883082074
 20
-4.7574283599
 11
21.4863213671
 21
-5.5139206746
  0
LINE
  5
57B
100
AcDbEntity
  8
RACCORDO
100
AcDbLine
 62
253
  6
CONTINUOUS
 10
21.2868733669
 20
-5.3468759395
 11
21.2831599296
 21
-5.919847455
  0
LINE
  5
57C
100
AcDbEntity
  8
RACCORDO
100
AcDbLine
 62
253
  6
CONTINUOUS
 10
21.4863213671
 20
-5.5139206746
 11
21.4820138182
 21
-6.1377326229
  0
LINE
  5
57D
100
AcDbEntity
  8
RACCORDO
100
AcDbLine
 62
253
  6
CONTINUOUS
 10
21.2831599296
 20
-5.919847455
 11
21.2778585308
 21
-6.3966341143
  0
LINE
  5
57E
100
AcDbEntity
  8
RACCORDO
100
AcDbLine
 62
253
  6
CONTINUOUS
 10
21.4820138182
 20
-6.1377326229
 11
21.4761310696
 21
-6.6458657283
  0
LINE
  5
57F
100
AcDbEntity
  8
RACCORDO
100
AcDbLine
 62
253
  6
CONTINUOUS
 10
21.2778585308
 20
-6.3966341143
 11
21.272455431
 21
-6.7300425898
  0
LINE
  5
580
100
AcDbEntity
  8
RACCORDO
100
AcDbLine
 62
253
  6
CONTINUOUS
 10
21.4761310696
 20
-6.6458657283
 11
21.470415142
 21
-6.9845487759
  0
LINE
  5
581
100
AcDbEntity
  8
RACCORDO
100
AcDbLine
 62
253
  6
CONTINUOUS
 10
21.272455431
 20
-6.7300425898
 11
21.268406962
 21
-6.9208026411
  0
LINE
  5
582
100
AcDbEntity
  8
RACCORDO
100
AcDbLine
 62
253
  6
CONTINUOUS
 10
21.470415142
 20
-6.9845487759
 11
21.4663257853
 21
-7.1697587304
  0
LINE
  5
583
100
AcDbEntity
  8
RACCORDO
100
AcDbLine
 62
253
  6
CONTINUOUS
 10
21.268406962
 20
-6.9208026411
 11
21.2642743668
 21
-7.0765649654
  0
LINE
  5
584
100
AcDbEntity
  8
RACCORDO
100
AcDbLine
 62
253
  6
CONTINUOUS
 10
21.4663257853
 20
-7.1697587304
 11
21.4621803266
 21
-7.3197202827
  0
LWPOLYLINE
  5
585
100
AcDbEntity
  8
RACCORDO
100
AcDbPolyline
 62
253
  6
CONTINUOUS
 90
13
 70
0
 10
21.2642743668
 20
-7.0765649654
 10
21.2601598893
 20
-7.2011745591
 10
21.2581251114
 20
-7.2520095906
 10
21.2561266263
 20
-7.2965384672
 10
21.2541671348
 20
-7.3347499996
 10
21.252243936
 20
-7.366655377
 10
21.2503721065
 20
-7.3935581887
 10
21.2485536986
 20
-7.4154834151
 10
21.2467866599
 20
-7.4324060756
 10
21.2450799102
 20
-7.4455548182
 10
21.2434364228
 20
-7.455339192
 10
21.2418532245
 20
-7.4613496478
 10
21.2403303151
 20
-7.4635861856
  0
LWPOLYLINE
  5
586
100
AcDbEntity
  8
RACCORDO
100
AcDbPolyline
 62
253
  6
CONTINUOUS
 90
12
 70
0
 10
21.4621803266
 20
-7.3197202827
 10
21.4580981614
 20
-7.4369412073
 10
21.4560998452
 20
-7.4844946314
 10
21.4541404801
 20
-7.5252861835
 10
21.4522173621
 20
-7.5597804607
 10
21.4503455873
 20
-7.5884711941
 10
21.4485273539
 20
-7.6118054357
 10
21.4467604637
 20
-7.6302315627
 10
21.4450534184
 20
-7.6442084215
 10
21.443409052
 20
-7.6541561494
 10
21.4418245306
 20
-7.6604734021
 10
21.4402998541
 20
-7.6635557247
  0
LWPOLYLINE
  5
587
100
AcDbEntity
  8
RACCORDO
100
AcDbPolyline
 62
253
  6
CONTINUOUS
 90
19
 70
0
 10
14.3680418775
 20
-20.4084846221
 10
14.3575734802
 20
-20.429372354
 10
14.3496115397
 20
-20.4513469253
 10
14.3442670861
 20
-20.4741088234
 10
14.3416149552
 20
-20.4973571833
 10
14.3416966237
 20
-20.5207644572
 10
14.3445080612
 20
-20.5439807857
 10
14.3499956687
 20
-20.5666658936
 10
14.3580785119
 20
-20.5885374605
 10
14.3686618986
 20
-20.6093396751
 10
14.3816343625
 20
-20.6288200337
 10
14.3968074625
 20
-20.6466681845
 10
14.4139142314
 20
-20.6625808351
 10
14.4327056549
 20
-20.6763560565
 10
14.4529146377
 20
-20.687824949
 10
14.474181608
 20
-20.6968241954
 10
14.4961775163
 20
-20.7032729977
 10
14.518623704
 20
-20.7071453837
 10
14.5412205783
 20
-20.7084389306
  0
LWPOLYLINE
  5
588
100
AcDbEntity
  8
RACCORDO
100
AcDbPolyline
 62
253
  6
CONTINUOUS
 90
19
 70
0
 10
15.2573870217
 20
-19.2680336825
 10
15.2855558588
 20
-19.2161858353
 10
15.3120515864
 20
-19.1619032257
 10
15.3368742047
 20
-19.1051858538
 10
15.3599783981
 20
-19.0459597714
 10
15.3814094821
 20
-18.9842989266
 10
15.4013034032
 20
-18.920425164
 10
15.4196259166
 20
-18.8543925859
 10
15.436411267
 20
-18.7861470899
 10
15.4518981346
 20
-18.715748213
 10
15.4660567286
 20
-18.6432421843
 10
15.4789168398
 20
-18.5685827748
 10
15.4908065208
 20
-18.4916908335
 10
15.5016810339
 20
-18.4126261846
 10
15.5115851168
 20
-18.331329004
 10
15.520981035
 20
-18.2475406686
 10
15.5300228771
 20
-18.1611749705
 10
15.5385565546
 20
-18.0723181177
 10
15.5465820674
 20
-17.9809701099
  0
LWPOLYLINE
  5
589
100
AcDbEntity
  8
RACCORDO
100
AcDbPolyline
 62
253
  6
CONTINUOUS
 90
17
 70
0
 10
15.0842081809
 20
-19.1680500867
 10
15.108484438
 20
-19.1250725719
 10
15.1327254178
 20
-19.079361643
 10
15.1569362933
 20
-19.0309586184
 10
15.1811280602
 20
-18.9799304389
 10
15.2053449438
 20
-18.9262797157
 10
15.2296434217
 20
-18.869945083
 10
15.2540635086
 20
-18.810956871
 10
15.2786582947
 20
-18.7493274693
 10
15.3034822884
 20
-18.68496408
 10
15.3285964918
 20
-18.6178816856
 10
15.3540596637
 20
-18.5480959404
 10
15.3798969549
 20
-18.4755183741
 10
15.4061858771
 20
-18.4001791905
 10
15.4330050342
 20
-18.3220797817
 10
15.460357613
 20
-18.2410988578
 10
15.5465804235
 20
-17.9809772704
  0
LINE
  5
58A
100
AcDbEntity
  8
RACCORDO
100
AcDbLine
 62
7
  6
CONTINUOUS
 10
14.5830315702
 20
-19.8509660098
 11
14.2077011353
 21
-20.5010573928
  0
LINE
  5
58B
100
AcDbEntity
  8
RACCORDO
100
AcDbLine
 62
253
  6
CONTINUOUS
 10
14.3680418669
 20
-20.4084846282
 11
15.0842070429
 21
-19.1680501566
  0
LINE
  5
58C
100
AcDbEntity
  8
RACCORDO
100
AcDbLine
 62
253
  6
CONTINUOUS
 10
14.5412211223
 20
-20.5084693916
 11
15.2573870217
 21
-19.2680336825
  0
LINE
  5
58D
100
AcDbEntity
  8
RACCORDO
100
AcDbLine
 62
253
  6
CONTINUOUS
 10
15.0842070429
 20
-19.1680501566
 11
14.9572539518
 21
-19.3805700607
  0
LINE
  5
58E
100
AcDbEntity
  8
RACCORDO
100
AcDbLine
 62
253
  6
CONTINUOUS
 10
14.9572539518
 20
-19.3805700607
 11
14.8866714107
 21
-19.4973810435
  0
LWPOLYLINE
  5
58F
100
AcDbEntity
  8
RACCORDO
100
AcDbPolyline
 62
253
  6
CONTINUOUS
 90
10
 70
0
 10
14.8866714107
 20
-19.4973810435
 10
14.8274158405
 20
-19.5942467474
 10
14.8020451359
 20
-19.6351941623
 10
14.7794447913
 20
-19.6712594897
 10
14.7594893747
 20
-19.7026466175
 10
14.7423043181
 20
-19.7291516579
 10
14.7282066738
 20
-19.7502598705
 10
14.7173021259
 20
-19.7657996751
 10
14.7094849902
 20
-19.7759426519
 10
14.7047552669
 20
-19.7806888008
  0
LINE
  5
590
100
AcDbEntity
  8
RACCORDO
100
AcDbLine
 62
253
  6
CONTINUOUS
 10
15.5465850957
 20
-17.98097011
 11
15.2977093537
 21
-18.359773916
  0
LINE
  5
591
100
AcDbEntity
  8
RACCORDO
100
AcDbLine
 62
253
  6
CONTINUOUS
 10
15.2977093537
 20
-18.359773916
 11
15.0219304024
 21
-18.7748519182
  0
LINE
  5
592
100
AcDbEntity
  8
RACCORDO
100
AcDbLine
 62
253
  6
CONTINUOUS
 10
15.0219304024
 20
-18.7748519182
 11
14.8826754973
 21
-18.9822347908
  0
LINE
  5
593
100
AcDbEntity
  8
RACCORDO
100
AcDbLine
 62
253
  6
CONTINUOUS
 10
14.8826754973
 20
-18.9822347908
 11
14.7654634047
 21
-19.1549730029
  0
LINE
  5
594
100
AcDbEntity
  8
RACCORDO
100
AcDbLine
 62
253
  6
CONTINUOUS
 10
14.7654634047
 20
-19.1549730029
 11
14.7003460808
 21
-19.249795221
  0
LINE
  5
595
100
AcDbEntity
  8
RACCORDO
100
AcDbLine
 62
253
  6
CONTINUOUS
 10
14.7003460808
 20
-19.249795221
 11
14.6455750416
 21
-19.3285697803
  0
LWPOLYLINE
  5
596
100
AcDbEntity
  8
RACCORDO
100
AcDbPolyline
 62
253
  6
CONTINUOUS
 90
8
 70
0
 10
14.6455750416
 20
-19.3285697803
 10
14.6011048187
 20
-19.3913878427
 10
14.5826010264
 20
-19.4170387968
 10
14.5666537825
 20
-19.4385589872
 10
14.553549112
 20
-19.4557915673
 10
14.5433823566
 20
-19.4686231084
 10
14.5360581746
 20
-19.4769653963
 10
14.5315765661
 20
-19.4807344923
  0
LINE
  5
597
100
AcDbEntity
  8
RACCORDO
100
AcDbLine
 62
253
  6
CONTINUOUS
 10
14.5315765661
 20
-19.4807344923
 11
14.4098528694
 21
-19.5510117013
  0
LINE
  5
598
100
AcDbEntity
  8
RACCORDO
100
AcDbLine
 62
253
  6
CONTINUOUS
 10
14.7047552669
 20
-19.7806888008
 11
14.5830315702
 21
-19.8509660098
  0
LINE
  5
599
100
AcDbEntity
  8
RACCORDO
100
AcDbLine
 62
253
  6
CONTINUOUS
 10
16.2026213933
 20
-19.1680524483
 11
16.0294426755
 21
-19.2680370978
  0
LINE
  5
59A
100
AcDbEntity
  8
RACCORDO
100
AcDbLine
 62
253
  6
CONTINUOUS
 10
14.3680418669
 20
-20.4084846282
 11
14.2077011353
 21
-20.5010573928
  0
LINE
  5
59B
100
AcDbEntity
  8
RACCORDO
100
AcDbLine
 62
253
  6
CONTINUOUS
 10
14.5412205783
 20
-20.7084389306
 11
14.3808798361
 21
-20.8010117013
  0
LINE
  5
59C
100
AcDbEntity
  8
DRAFT
100
AcDbLine
 62
7
  6
CONTINUOUS
 10
13.3923595669
 20
-19.6906522207
 11
13.6717257228
 21
-19.5510117013
  0
LINE
  5
59D
100
AcDbEntity
  8
RACCORDO
100
AcDbLine
 62
253
  6
CONTINUOUS
 10
13.6368049534
 20
-20.6185581352
 11
13.6717257228
 21
-20.6011030703
  0
LINE
  5
59E
100
AcDbEntity
  8
RACCORDO
100
AcDbLine
 62
253
  6
CONTINUOUS
 10
13.8368049719
 20
-20.8184667662
 11
13.8717257414
 21
-20.8010117013
  0
LINE
  5
59F
100
AcDbEntity
  8
DRAFT
100
AcDbLine
 62
7
  6
CONTINUOUS
 10
17.6500221653
 20
-19.8128376752
 11
17.8944675518
 21
-19.6906522207
  0
LWPOLYLINE
  5
5A0
100
AcDbEntity
  8
RACCORDO
100
AcDbPolyline
 62
253
  6
CONTINUOUS
 90
13
 70
0
 10
4.0276816849
 20
20.029479834
 10
4.0442603364
 20
20.0315084695
 10
4.0605601373
 20
20.0368664572
 10
4.0763069258
 20
20.0454636762
 10
4.0912358421
 20
20.0571555218
 10
4.1050957829
 20
20.0717453379
 10
4.1176536249
 20
20.0889877249
 10
4.1286981461
 20
20.108592667
 10
4.1380435784
 20
20.1302304105
 10
4.1455327322
 20
20.1535370099
 10
4.1510396406
 20
20.1781204499
 10
4.1544716776
 20
20.2035672386
 10
4.1557711167
 20
20.229449363
  0
LWPOLYLINE
  5
5A1
100
AcDbEntity
  8
RACCORDO
100
AcDbPolyline
 62
253
  6
CONTINUOUS
 90
13
 70
0
 10
-0.9723183151
 20
20.029479834
 10
-0.9557396636
 20
20.0315084695
 10
-0.9394398627
 20
20.0368664572
 10
-0.9236930742
 20
20.0454636762
 10
-0.9087641579
 20
20.0571555218
 10
-0.8949042171
 20
20.0717453379
 10
-0.8823463751
 20
20.0889877249
 10
-0.8713018539
 20
20.108592667
 10
-0.8619564216
 20
20.1302304105
 10
-0.8544672678
 20
20.1535370099
 10
-0.8489603594
 20
20.1781204499
 10
-0.8455283224
 20
20.2035672386
 10
-0.8442288833
 20
20.229449363
  0
LWPOLYLINE
  5
5A2
100
AcDbEntity
  8
RACCORDO
100
AcDbPolyline
 62
253
  6
CONTINUOUS
 90
13
 70
0
 10
-5.9723183151
 20
20.029479834
 10
-5.9557396636
 20
20.0315084695
 10
-5.9394398627
 20
20.0368664572
 10
-5.9236930742
 20
20.0454636762
 10
-5.9087641579
 20
20.0571555218
 10
-5.8949042171
 20
20.0717453379
 10
-5.8823463751
 20
20.0889877249
 10
-5.8713018539
 20
20.108592667
 10
-5.8619564216
 20
20.1302304105
 10
-5.8544672678
 20
20.1535370099
 10
-5.8489603594
 20
20.1781204499
 10
-5.8455283224
 20
20.2035672386
 10
-5.8442288833
 20
20.229449363
  0
LWPOLYLINE
  5
5A3
100
AcDbEntity
  8
RACCORDO
100
AcDbPolyline
 62
253
  6
CONTINUOUS
 90
13
 70
0
 10
-10.9723183151
 20
20.029479834
 10
-10.9557396636
 20
20.0315084695
 10
-10.9394398627
 20
20.0368664572
 10
-10.9236930742
 20
20.0454636762
 10
-10.9087641579
 20
20.0571555218
 10
-10.8949042171
 20
20.0717453379
 10
-10.8823463751
 20
20.0889877249
 10
-10.8713018539
 20
20.108592667
 10
-10.8619564216
 20
20.1302304105
 10
-10.8544672678
 20
20.1535370099
 10
-10.8489603594
 20
20.1781204499
 10
-10.8455283224
 20
20.2035672386
 10
-10.8442288833
 20
20.229449363
  0
LWPOLYLINE
  5
5A4
100
AcDbEntity
  8
RACCORDO
100
AcDbPolyline
 62
253
  6
CONTINUOUS
 90
13
 70
0
 10
-16.6606421772
 20
20.0432788751
 10
-16.638612198
 20
20.0452088194
 10
-16.6169547231
 20
20.0504876808
 10
-16.5960359881
 20
20.0590261918
 10
-16.5762097364
 20
20.0706799631
 10
-16.5578112369
 20
20.0852519254
 10
-16.5411516149
 20
20.1024956615
 10
-16.5265125906
 20
20.1221195736
 10
-16.5141417151
 20
20.1437918143
 10
-16.5042481844
 20
20.1671458982
 10
-16.4969993017
 20
20.1917868995
 10
-16.4925176481
 20
20.2172981299
 10
-16.49087901
 20
20.2432481855
  0
LWPOLYLINE
  5
5A5
100
AcDbEntity
  8
RACCORDO
100
AcDbPolyline
 62
253
  6
CONTINUOUS
 90
13
 70
0
 10
-17.0465715139
 20
20.0273113123
 10
-16.977642965
 20
20.0332666911
 10
-16.9579343316
 20
20.0348758052
 10
-16.9368355096
 20
20.0364975568
 10
-16.9144328568
 20
20.0380769454
 10
-16.8906333758
 20
20.0395850022
 10
-16.8648040158
 20
20.0410140766
 10
-16.8369220858
 20
20.0422859828
 10
-16.8070038121
 20
20.043324215
 10
-16.774472325
 20
20.0440689412
 10
-16.7391356116
 20
20.0444048241
 10
-16.7011894416
 20
20.0441885251
 10
-16.6606421771
 20
20.0432786464
  0
LWPOLYLINE
  5
5A6
100
AcDbEntity
  8
RACCORDO
100
AcDbPolyline
 62
253
  6
CONTINUOUS
 90
19
 70
0
 10
14.5412205783
 20
21.1874939697
 10
14.5178970732
 20
21.1861160018
 10
14.4948855659
 20
21.1820239588
 10
14.4725009571
 20
21.1752714424
 10
14.4510412215
 20
21.1659440752
 10
14.4308107619
 20
21.1541697113
 10
14.4121105503
 20
21.1401267707
 10
14.3952084743
 20
21.1240318093
 10
14.3803085633
 20
21.1060960783
 10
14.3675850104
 20
21.0865294892
 10
14.3572007569
 20
21.0655548266
 10
14.349330355
 20
21.0434904612
 10
14.3441029798
 20
21.0207192394
 10
14.3415689998
 20
20.9975577786
 10
14.341741139
 20
20.9743218399
 10
14.3445810481
 20
20.9514044801
 10
14.3499941756
 20
20.9291310636
 10
14.3578636849
 20
20.9077559018
 10
14.3680418775
 20
20.8875396612
  0
LWPOLYLINE
  5
5A7
100
AcDbEntity
  8
RACCORDO
100
AcDbPolyline
 62
253
  6
CONTINUOUS
 90
19
 70
0
 10
14.434040342
 20
20.0161020966
 10
14.4572425408
 20
20.0174657836
 10
14.4801311266
 20
20.021513931
 10
14.5023967254
 20
20.0281918222
 10
14.5237383985
 20
20.0374092027
 10
14.5438676642
 20
20.0490414816
 10
14.5625124059
 20
20.0629313985
 10
14.5794205764
 20
20.0788911477
 10
14.5943637072
 20
20.096705036
 10
14.6071399119
 20
20.1161324063
 10
14.6175765177
 20
20.1369107947
 10
14.6255323568
 20
20.1587592711
 10
14.6308998254
 20
20.1813823382
 10
14.6336063976
 20
20.2044741071
 10
14.6336155477
 20
20.2277225446
 10
14.6309271676
 20
20.2508135044
 10
14.6255775858
 20
20.2734349092
 10
14.617639111
 20
20.2952809694
 10
14.6072190428
 20
20.3160564052
  0
LWPOLYLINE
  5
5A8
100
AcDbEntity
  8
RACCORDO
100
AcDbPolyline
 62
253
  6
CONTINUOUS
 90
25
 70
0
 10
-16.5771530622
 20
18.4600179886
 10
-16.6099847157
 20
18.4589266913
 10
-16.6424305292
 20
18.455738477
 10
-16.6744905026
 20
18.4504533456
 10
-16.7063082243
 20
18.4430309715
 10
-16.7377401058
 20
18.4335116803
 10
-16.7683553825
 20
18.4220164494
 10
-16.7981341707
 20
18.4085198409
 10
-16.827096354
 20
18.3930472927
 10
-16.8548708187
 20
18.3757960951
 10
-16.881442371
 20
18.3567428584
 10
-16.9068262047
 20
18.3359109724
 10
-16.9306967869
 20
18.3135678968
 10
-16.9530340814
 20
18.2896946126
 10
-16.9738581243
 20
18.2643101389
 10
-16.9929034909
 20
18.2377389928
 10
-17.0101472328
 20
18.2099658714
 10
-17.0256122983
 20
18.1810060775
 10
-17.0391021075
 20
18.1512300375
 10
-17.0505915231
 20
18.1206160171
 10
-17.0601056824
 20
18.0891857505
 10
-17.0675234175
 20
18.0573748668
 10
-17.0728043391
 20
18.0253285754
 10
-17.0759888365
 20
17.9929016668
 10
-17.0770769097
 20
17.9600941411
  0
LWPOLYLINE
  5
5A9
100
AcDbEntity
  8
RACCORDO
100
AcDbPolyline
 62
253
  6
CONTINUOUS
 90
25
 70
0
 10
-16.5770240782
 20
19.9597895577
 10
-16.7078571311
 20
19.9554839333
 10
-16.8381133404
 20
19.9426303367
 10
-16.9672351038
 20
19.9212870347
 10
-17.0946644507
 20
19.8915501333
 10
-17.2198623279
 20
19.8535492848
 10
-17.3423098256
 20
19.807443473
 10
-17.4614884541
 20
19.7534270555
 10
-17.5768820456
 20
19.6917331012
 10
-17.6879952506
 20
19.6226262994
 10
-17.7943519866
 20
19.5464029097
 10
-17.8954976059
 20
19.4633889749
 10
-17.990999459
 20
19.3739396166
 10
-18.0804487381
 20
19.2784377209
 10
-18.1634625809
 20
19.17729208
 10
-18.2396858922
 20
19.0709353127
 10
-18.3087926311
 20
18.9598220563
 10
-18.3704865288
 20
18.8444283985
 10
-18.4245028965
 20
18.7252496751
 10
-18.4706102256
 20
18.6027974372
 10
-18.5086119757
 20
18.4775946031
 10
-18.5383462893
 20
18.3501744689
 10
-18.5596856887
 20
18.221081444
 10
-18.5725382039
 20
18.0908688934
 10
-18.5768484525
 20
17.9600941411
  0
LINE
  5
5AA
100
AcDbEntity
  8
RACCORDO
100
AcDbLine
 62
253
  6
CONTINUOUS
 10
18.5777066661
 20
20.2379556229
 11
18.7777078287
 21
20.2432481855
  0
LINE
  5
5AB
100
AcDbEntity
  8
RACCORDO
100
AcDbLine
 62
253
  6
CONTINUOUS
 10
18.7346804442
 20
20.0379979388
 11
18.9474692959
 21
20.0432786464
  0
LINE
  5
5AC
100
AcDbEntity
  8
RACCORDO
100
AcDbLine
 62
253
  6
CONTINUOUS
 10
18.3462713331
 20
20.2331220999
 11
18.5777066661
 21
20.2379556229
  0
LINE
  5
5AD
100
AcDbEntity
  8
RACCORDO
100
AcDbLine
 62
253
  6
CONTINUOUS
 10
18.353670994
 20
20.0309182352
 11
18.7346804442
 21
20.0379979388
  0
LWPOLYLINE
  5
5AE
100
AcDbEntity
  8
RACCORDO
100
AcDbPolyline
 62
253
  6
CONTINUOUS
 90
8
 70
0
 10
18.9474692959
 20
20.0432786464
 10
19.014577549
 20
20.0443802469
 10
19.0769263417
 20
20.0437529403
 10
19.1344812157
 20
20.0418296568
 10
19.1876285981
 20
20.0389776058
 10
19.2359717647
 20
20.0355745358
 10
19.2783378168
 20
20.0320970526
 10
19.344722588
 20
20.0263949858
  0
LINE
  5
5AF
100
AcDbEntity
  8
RACCORDO
100
AcDbLine
 62
253
  6
CONTINUOUS
 10
17.9512718724
 20
20.2268684738
 11
18.3462713331
 21
20.2331220999
  0
LINE
  5
5B0
100
AcDbEntity
  8
RACCORDO
100
AcDbLine
 62
253
  6
CONTINUOUS
 10
17.9188193488
 20
20.0251443729
 11
18.353670994
 21
20.0309182352
  0
LINE
  5
5B1
100
AcDbEntity
  8
RACCORDO
100
AcDbLine
 62
253
  6
CONTINUOUS
 10
7.7616994183
 20
20.2245313515
 11
8.1310560586
 21
20.229449363
  0
LINE
  5
5B2
100
AcDbEntity
  8
RACCORDO
100
AcDbLine
 62
253
  6
CONTINUOUS
 10
2.7616994183
 20
20.2245313515
 11
3.1310560586
 21
20.229449363
  0
LINE
  5
5B3
100
AcDbEntity
  8
RACCORDO
100
AcDbLine
 62
253
  6
CONTINUOUS
 10
-2.2383005817
 20
20.2245313515
 11
-1.8689439414
 21
20.229449363
  0
LINE
  5
5B4
100
AcDbEntity
  8
RACCORDO
100
AcDbLine
 62
253
  6
CONTINUOUS
 10
-7.2383005817
 20
20.2245313515
 11
-6.8689439414
 21
20.229449363
  0
LINE
  5
5B5
100
AcDbEntity
  8
RACCORDO
100
AcDbLine
 62
253
  6
CONTINUOUS
 10
-12.3257544594
 20
20.2235745073
 11
-11.8689439414
 21
20.229449363
  0
LINE
  5
5B6
100
AcDbEntity
  8
RACCORDO
100
AcDbLine
 62
253
  6
CONTINUOUS
 10
7.7797955326
 20
20.0236771384
 11
8.3572072982
 21
20.0306412419
  0
LINE
  5
5B7
100
AcDbEntity
  8
RACCORDO
100
AcDbLine
 62
253
  6
CONTINUOUS
 10
2.7797955326
 20
20.0236771384
 11
3.3572072982
 21
20.0306412419
  0
LINE
  5
5B8
100
AcDbEntity
  8
RACCORDO
100
AcDbLine
 62
253
  6
CONTINUOUS
 10
-2.2202044674
 20
20.0236771384
 11
-1.6427927018
 21
20.0306412419
  0
LINE
  5
5B9
100
AcDbEntity
  8
RACCORDO
100
AcDbLine
 62
253
  6
CONTINUOUS
 10
-7.2202044674
 20
20.0236771384
 11
-6.6427927018
 21
20.0306412419
  0
LINE
  5
5BA
100
AcDbEntity
  8
RACCORDO
100
AcDbLine
 62
253
  6
CONTINUOUS
 10
-12.2260221295
 20
20.0236156639
 11
-11.6427927018
 21
20.0306412419
  0
LINE
  5
5BB
100
AcDbEntity
  8
RACCORDO
100
AcDbLine
 62
253
  6
CONTINUOUS
 10
17.3799108065
 20
20.2208504724
 11
17.9512718724
 21
20.2268684738
  0
LINE
  5
5BC
100
AcDbEntity
  8
RACCORDO
100
AcDbLine
 62
253
  6
CONTINUOUS
 10
7.2011452898
 20
20.2195239563
 11
7.7616994183
 21
20.2245313515
  0
LINE
  5
5BD
100
AcDbEntity
  8
RACCORDO
100
AcDbLine
 62
253
  6
CONTINUOUS
 10
2.2011452898
 20
20.2195239563
 11
2.7616994183
 21
20.2245313515
  0
LINE
  5
5BE
100
AcDbEntity
  8
RACCORDO
100
AcDbLine
 62
253
  6
CONTINUOUS
 10
-2.7988547102
 20
20.2195239563
 11
-2.2383005817
 21
20.2245313515
  0
LINE
  5
5BF
100
AcDbEntity
  8
RACCORDO
100
AcDbLine
 62
253
  6
CONTINUOUS
 10
-7.7988547102
 20
20.2195239563
 11
-7.2383005817
 21
20.2245313515
  0
LINE
  5
5C0
100
AcDbEntity
  8
RACCORDO
100
AcDbLine
 62
253
  6
CONTINUOUS
 10
17.1547570864
 20
20.0188557438
 11
17.9188193488
 21
20.0251443729
  0
LINE
  5
5C1
100
AcDbEntity
  8
RACCORDO
100
AcDbLine
 62
253
  6
CONTINUOUS
 10
7.1530849278
 20
20.0188646015
 11
7.7797955326
 21
20.0236771384
  0
LINE
  5
5C2
100
AcDbEntity
  8
RACCORDO
100
AcDbLine
 62
253
  6
CONTINUOUS
 10
2.1530849278
 20
20.0188646015
 11
2.7797955326
 21
20.0236771384
  0
LINE
  5
5C3
100
AcDbEntity
  8
RACCORDO
100
AcDbLine
 62
253
  6
CONTINUOUS
 10
-2.8469150722
 20
20.0188646015
 11
-2.2202044674
 21
20.0236771384
  0
LINE
  5
5C4
100
AcDbEntity
  8
RACCORDO
100
AcDbLine
 62
253
  6
CONTINUOUS
 10
-7.8469150722
 20
20.0188646015
 11
-7.2202044674
 21
20.0236771384
  0
LINE
  5
5C5
100
AcDbEntity
  8
RACCORDO
100
AcDbLine
 62
253
  6
CONTINUOUS
 10
8.1310560586
 20
20.229449363
 11
8.3421122644
 21
20.2311066963
  0
LINE
  5
5C6
100
AcDbEntity
  8
RACCORDO
100
AcDbLine
 62
253
  6
CONTINUOUS
 10
3.1310560586
 20
20.229449363
 11
3.3421122644
 21
20.2311066963
  0
LINE
  5
5C7
100
AcDbEntity
  8
RACCORDO
100
AcDbLine
 62
253
  6
CONTINUOUS
 10
-1.8689439414
 20
20.229449363
 11
-1.6578877356
 21
20.2311066963
  0
LINE
  5
5C8
100
AcDbEntity
  8
RACCORDO
100
AcDbLine
 62
253
  6
CONTINUOUS
 10
-6.8689439414
 20
20.229449363
 11
-6.6578877356
 21
20.2311066963
  0
LINE
  5
5C9
100
AcDbEntity
  8
RACCORDO
100
AcDbLine
 62
253
  6
CONTINUOUS
 10
-12.9955990764
 20
20.2183339864
 11
-12.3257544594
 21
20.2235745073
  0
LINE
  5
5CA
100
AcDbEntity
  8
RACCORDO
100
AcDbLine
 62
253
  6
CONTINUOUS
 10
-11.8689439414
 20
20.229449363
 11
-11.6578877356
 21
20.2311066963
  0
LINE
  5
5CB
100
AcDbEntity
  8
RACCORDO
100
AcDbLine
 62
253
  6
CONTINUOUS
 10
-12.9388843406
 20
20.018368799
 11
-12.2260221295
 21
20.0236156639
  0
LINE
  5
5CC
100
AcDbEntity
  8
RACCORDO
100
AcDbLine
 62
253
  6
CONTINUOUS
 10
8.3572072982
 20
20.0306412419
 11
8.5053498047
 21
20.0316281232
  0
LINE
  5
5CD
100
AcDbEntity
  8
RACCORDO
100
AcDbLine
 62
253
  6
CONTINUOUS
 10
3.3572072982
 20
20.0306412419
 11
3.5053498047
 21
20.0316281232
  0
LINE
  5
5CE
100
AcDbEntity
  8
RACCORDO
100
AcDbLine
 62
253
  6
CONTINUOUS
 10
-1.6427927018
 20
20.0306412419
 11
-1.4946501953
 21
20.0316281232
  0
LINE
  5
5CF
100
AcDbEntity
  8
RACCORDO
100
AcDbLine
 62
253
  6
CONTINUOUS
 10
-6.6427927018
 20
20.0306412419
 11
-6.4946501953
 21
20.0316281232
  0
LINE
  5
5D0
100
AcDbEntity
  8
RACCORDO
100
AcDbLine
 62
253
  6
CONTINUOUS
 10
-11.6427927018
 20
20.0306412419
 11
-11.4946501953
 21
20.0316281232
  0
LINE
  5
5D1
100
AcDbEntity
  8
RACCORDO
100
AcDbLine
 62
253
  6
CONTINUOUS
 10
16.812043753
 20
20.217425765
 11
17.3799108065
 21
20.2208504724
  0
LINE
  5
5D2
100
AcDbEntity
  8
RACCORDO
100
AcDbLine
 62
253
  6
CONTINUOUS
 10
16.8551321976
 20
20.017456226
 11
17.1547570864
 21
20.0188557438
  0
LWPOLYLINE
  5
5D3
100
AcDbEntity
  8
RACCORDO
100
AcDbPolyline
 62
253
  6
CONTINUOUS
 90
6
 70
0
 10
18.7777078287
 20
20.2432481855
 10
18.8464743291
 20
20.2435106115
 10
18.9108489866
 20
20.2427536034
 10
18.9705260764
 20
20.2409771611
 10
19.025387508
 20
20.2377464492
 10
19.0748986133
 20
20.2334963031
  0
LINE
  5
5D4
100
AcDbEntity
  8
RACCORDO
100
AcDbLine
 62
253
  6
CONTINUOUS
 10
6.4993014428
 20
20.2164520483
 11
7.2011452898
 21
20.2195239563
  0
LINE
  5
5D5
100
AcDbEntity
  8
RACCORDO
100
AcDbLine
 62
253
  6
CONTINUOUS
 10
1.4993014428
 20
20.2164520483
 11
2.2011452898
 21
20.2195239563
  0
LINE
  5
5D6
100
AcDbEntity
  8
RACCORDO
100
AcDbLine
 62
253
  6
CONTINUOUS
 10
-3.5006985572
 20
20.2164520483
 11
-2.7988547102
 21
20.2195239563
  0
LINE
  5
5D7
100
AcDbEntity
  8
RACCORDO
100
AcDbLine
 62
253
  6
CONTINUOUS
 10
-8.5006985572
 20
20.2164520483
 11
-7.7988547102
 21
20.2195239563
  0
LINE
  5
5D8
100
AcDbEntity
  8
RACCORDO
100
AcDbLine
 62
253
  6
CONTINUOUS
 10
6.2555415578
 20
20.0161368145
 11
7.1530849278
 21
20.0188646015
  0
LINE
  5
5D9
100
AcDbEntity
  8
RACCORDO
100
AcDbLine
 62
253
  6
CONTINUOUS
 10
1.2555415578
 20
20.0161368145
 11
2.1530849278
 21
20.0188646015
  0
LINE
  5
5DA
100
AcDbEntity
  8
RACCORDO
100
AcDbLine
 62
253
  6
CONTINUOUS
 10
-3.7444584422
 20
20.0161368145
 11
-2.8469150722
 21
20.0188646015
  0
LINE
  5
5DB
100
AcDbEntity
  8
RACCORDO
100
AcDbLine
 62
253
  6
CONTINUOUS
 10
-8.7444584422
 20
20.0161368145
 11
-7.8469150722
 21
20.0188646015
  0
LINE
  5
5DC
100
AcDbEntity
  8
RACCORDO
100
AcDbLine
 62
253
  6
CONTINUOUS
 10
-13.7767645583
 20
20.2160907116
 11
-12.9955990764
 21
20.2183339864
  0
LINE
  5
5DD
100
AcDbEntity
  8
RACCORDO
100
AcDbLine
 62
253
  6
CONTINUOUS
 10
8.3421122644
 20
20.2311066963
 11
8.6434136368
 21
20.2318789856
  0
LINE
  5
5DE
100
AcDbEntity
  8
RACCORDO
100
AcDbLine
 62
253
  6
CONTINUOUS
 10
3.3421122644
 20
20.2311066963
 11
3.6434136368
 21
20.2318789856
  0
LINE
  5
5DF
100
AcDbEntity
  8
RACCORDO
100
AcDbLine
 62
253
  6
CONTINUOUS
 10
-1.6578877356
 20
20.2311066963
 11
-1.3565863632
 21
20.2318789856
  0
LINE
  5
5E0
100
AcDbEntity
  8
RACCORDO
100
AcDbLine
 62
253
  6
CONTINUOUS
 10
-6.6578877356
 20
20.2311066963
 11
-6.3565863632
 21
20.2318789856
  0
LINE
  5
5E1
100
AcDbEntity
  8
RACCORDO
100
AcDbLine
 62
253
  6
CONTINUOUS
 10
-11.6578877356
 20
20.2311066963
 11
-11.3565863632
 21
20.2318789856
  0
LINE
  5
5E2
100
AcDbEntity
  8
RACCORDO
100
AcDbLine
 62
253
  6
CONTINUOUS
 10
18.8639801808
 20
19.9597895314
 11
16.7552505526
 21
19.9597895314
  0
LINE
  5
5E3
100
AcDbEntity
  8
RACCORDO
100
AcDbLine
 62
253
  6
CONTINUOUS
 10
14.5315737434
 20
19.9597911611
 11
-16.5770240476
 21
19.9597895314
  0
LINE
  5
5E4
100
AcDbEntity
  8
RACCORDO
100
AcDbLine
 62
253
  6
CONTINUOUS
 10
-13.9195639927
 20
20.0161055926
 11
-12.9388843406
 21
20.018368799
  0
LINE
  5
5E5
100
AcDbEntity
  8
RACCORDO
100
AcDbLine
 62
253
  6
CONTINUOUS
 10
-11.4946501953
 20
20.0316281232
 11
-11.3365863066
 21
20.0319033879
  0
LINE
  5
5E6
100
AcDbEntity
  8
RACCORDO
100
AcDbLine
 62
253
  6
CONTINUOUS
 10
-6.4946501953
 20
20.0316281232
 11
-6.3365863066
 21
20.0319033879
  0
LINE
  5
5E7
100
AcDbEntity
  8
RACCORDO
100
AcDbLine
 62
253
  6
CONTINUOUS
 10
-1.4946501953
 20
20.0316281232
 11
-1.3365863066
 21
20.0319033879
  0
LINE
  5
5E8
100
AcDbEntity
  8
RACCORDO
100
AcDbLine
 62
253
  6
CONTINUOUS
 10
3.5053498047
 20
20.0316281232
 11
3.6634136934
 21
20.0319033879
  0
LINE
  5
5E9
100
AcDbEntity
  8
RACCORDO
100
AcDbLine
 62
253
  6
CONTINUOUS
 10
8.5053498047
 20
20.0316281232
 11
8.6634136934
 21
20.0319033879
  0
LINE
  5
5EA
100
AcDbEntity
  8
RACCORDO
100
AcDbLine
 62
253
  6
CONTINUOUS
 10
16.7456059973
 20
20.9875244307
 11
14.5412205255
 21
20.9875244307
  0
LINE
  5
5EB
100
AcDbEntity
  8
RACCORDO
100
AcDbLine
 62
253
  6
CONTINUOUS
 10
16.7456065403
 20
21.1874939697
 11
14.5412205783
 21
21.1874939697
  0
LINE
  5
5EC
100
AcDbEntity
  8
RACCORDO
100
AcDbLine
 62
253
  6
CONTINUOUS
 10
14.4050673087
 20
21.2661020966
 11
16.8843040004
 21
21.2675709856
  0
LINE
  5
5ED
100
AcDbEntity
  8
RACCORDO
100
AcDbLine
 62
253
  6
CONTINUOUS
 10
-9.252184576
 20
20.216542041
 11
-8.5006985572
 21
20.2164520483
  0
LINE
  5
5EE
100
AcDbEntity
  8
RACCORDO
100
AcDbLine
 62
253
  6
CONTINUOUS
 10
-4.252184576
 20
20.216542041
 11
-3.5006985572
 21
20.2164520483
  0
LINE
  5
5EF
100
AcDbEntity
  8
RACCORDO
100
AcDbLine
 62
253
  6
CONTINUOUS
 10
0.747815424
 20
20.216542041
 11
1.4993014428
 21
20.2164520483
  0
LINE
  5
5F0
100
AcDbEntity
  8
RACCORDO
100
AcDbLine
 62
253
  6
CONTINUOUS
 10
5.747815424
 20
20.216542041
 11
6.4993014428
 21
20.2164520483
  0
LINE
  5
5F1
100
AcDbEntity
  8
RACCORDO
100
AcDbLine
 62
253
  6
CONTINUOUS
 10
10.4069230016
 20
20.0175574863
 11
14.434040342
 21
20.0161020966
  0
LINE
  5
5F2
100
AcDbEntity
  8
RACCORDO
100
AcDbLine
 62
253
  6
CONTINUOUS
 10
-14.5235587582
 20
20.2174189833
 11
-13.7767645583
 21
20.2160907116
  0
LINE
  5
5F3
100
AcDbEntity
  8
RACCORDO
100
AcDbLine
 62
253
  6
CONTINUOUS
 10
10.4511800156
 20
20.2175288911
 11
14.434040342
 21
20.2160716356
  0
LINE
  5
5F4
100
AcDbEntity
  8
RACCORDO
100
AcDbLine
 62
253
  6
CONTINUOUS
 10
-9.6613419672
 20
20.0178392605
 11
-8.7444584422
 21
20.0161368145
  0
LINE
  5
5F5
100
AcDbEntity
  8
RACCORDO
100
AcDbLine
 62
253
  6
CONTINUOUS
 10
-4.6613419672
 20
20.0178392605
 11
-3.7444584422
 21
20.0161368145
  0
LINE
  5
5F6
100
AcDbEntity
  8
RACCORDO
100
AcDbLine
 62
253
  6
CONTINUOUS
 10
0.3386580328
 20
20.0178392605
 11
1.2555415578
 21
20.0161368145
  0
LINE
  5
5F7
100
AcDbEntity
  8
RACCORDO
100
AcDbLine
 62
253
  6
CONTINUOUS
 10
5.3386580328
 20
20.0178392605
 11
6.2555415578
 21
20.0161368145
  0
LINE
  5
5F8
100
AcDbEntity
  8
RACCORDO
100
AcDbLine
 62
253
  6
CONTINUOUS
 10
-11.3365863066
 20
20.0319033879
 11
-11.1802259553
 21
20.0314468159
  0
LINE
  5
5F9
100
AcDbEntity
  8
RACCORDO
100
AcDbLine
 62
253
  6
CONTINUOUS
 10
-6.3365863066
 20
20.0319033879
 11
-6.1802259553
 21
20.0314468159
  0
LINE
  5
5FA
100
AcDbEntity
  8
RACCORDO
100
AcDbLine
 62
253
  6
CONTINUOUS
 10
-1.3365863066
 20
20.0319033879
 11
-1.1802259553
 21
20.0314468159
  0
LINE
  5
5FB
100
AcDbEntity
  8
RACCORDO
100
AcDbLine
 62
253
  6
CONTINUOUS
 10
3.6634136934
 20
20.0319033879
 11
3.8197740447
 21
20.0314468159
  0
LINE
  5
5FC
100
AcDbEntity
  8
RACCORDO
100
AcDbLine
 62
253
  6
CONTINUOUS
 10
8.6634136934
 20
20.0319033879
 11
8.8197740447
 21
20.0314468159
  0
LINE
  5
5FD
100
AcDbEntity
  8
RACCORDO
100
AcDbLine
 62
253
  6
CONTINUOUS
 10
-14.7885865947
 20
20.0184431346
 11
-13.9195639927
 21
20.0161055926
  0
LINE
  5
5FE
100
AcDbEntity
  8
RACCORDO
100
AcDbLine
 62
253
  6
CONTINUOUS
 10
-11.3565863632
 20
20.2318789856
 11
-11.0552851144
 21
20.2311067127
  0
LINE
  5
5FF
100
AcDbEntity
  8
RACCORDO
100
AcDbLine
 62
253
  6
CONTINUOUS
 10
-6.3565863632
 20
20.2318789856
 11
-6.0552851144
 21
20.2311067127
  0
LINE
  5
600
100
AcDbEntity
  8
RACCORDO
100
AcDbLine
 62
253
  6
CONTINUOUS
 10
-1.3565863632
 20
20.2318789856
 11
-1.0552851144
 21
20.2311067127
  0
LINE
  5
601
100
AcDbEntity
  8
RACCORDO
100
AcDbLine
 62
253
  6
CONTINUOUS
 10
3.6434136368
 20
20.2318789856
 11
3.9447148856
 21
20.2311067127
  0
LINE
  5
602
100
AcDbEntity
  8
RACCORDO
100
AcDbLine
 62
253
  6
CONTINUOUS
 10
8.6434136368
 20
20.2318789856
 11
8.9447148856
 21
20.2311067127
  0
LINE
  5
603
100
AcDbEntity
  8
RACCORDO
100
AcDbLine
 62
253
  6
CONTINUOUS
 10
-9.9456303266
 20
20.2197384124
 11
-9.252184576
 21
20.216542041
  0
LINE
  5
604
100
AcDbEntity
  8
RACCORDO
100
AcDbLine
 62
253
  6
CONTINUOUS
 10
-4.9456303266
 20
20.2197384124
 11
-4.252184576
 21
20.216542041
  0
LINE
  5
605
100
AcDbEntity
  8
RACCORDO
100
AcDbLine
 62
253
  6
CONTINUOUS
 10
0.0543696734
 20
20.2197384124
 11
0.747815424
 21
20.216542041
  0
LINE
  5
606
100
AcDbEntity
  8
RACCORDO
100
AcDbLine
 62
253
  6
CONTINUOUS
 10
5.0543696734
 20
20.2197384124
 11
5.747815424
 21
20.216542041
  0
LINE
  5
607
100
AcDbEntity
  8
RACCORDO
100
AcDbLine
 62
253
  6
CONTINUOUS
 10
9.64330736
 20
20.0223943044
 11
10.4069230016
 21
20.0175574863
  0
LINE
  5
608
100
AcDbEntity
  8
RACCORDO
100
AcDbLine
 62
253
  6
CONTINUOUS
 10
-15.2113853337
 20
20.2218557912
 11
-14.5235587582
 21
20.2174189833
  0
LINE
  5
609
100
AcDbEntity
  8
RACCORDO
100
AcDbLine
 62
253
  6
CONTINUOUS
 10
9.7340896416
 20
20.2223616806
 11
10.4511800156
 21
20.2175288911
  0
LINE
  5
60A
100
AcDbEntity
  8
RACCORDO
100
AcDbLine
 62
253
  6
CONTINUOUS
 10
-10.4248527379
 20
20.0230119237
 11
-9.6613419672
 21
20.0178392605
  0
LINE
  5
60B
100
AcDbEntity
  8
RACCORDO
100
AcDbLine
 62
253
  6
CONTINUOUS
 10
-5.4248527379
 20
20.0230119237
 11
-4.6613419672
 21
20.0178392605
  0
LINE
  5
60C
100
AcDbEntity
  8
RACCORDO
100
AcDbLine
 62
253
  6
CONTINUOUS
 10
-0.4248527379
 20
20.0230119237
 11
0.3386580328
 21
20.0178392605
  0
LINE
  5
60D
100
AcDbEntity
  8
RACCORDO
100
AcDbLine
 62
253
  6
CONTINUOUS
 10
4.5751472621
 20
20.0230119237
 11
5.3386580328
 21
20.0178392605
  0
LINE
  5
60E
100
AcDbEntity
  8
RACCORDO
100
AcDbLine
 62
253
  6
CONTINUOUS
 10
-15.4924254299
 20
20.0236680769
 11
-14.7885865947
 21
20.0184431346
  0
LINE
  5
60F
100
AcDbEntity
  8
RACCORDO
100
AcDbLine
 62
253
  6
CONTINUOUS
 10
-11.0552851144
 20
20.2311067127
 11
-10.8442289399
 21
20.229449363
  0
LINE
  5
610
100
AcDbEntity
  8
RACCORDO
100
AcDbLine
 62
253
  6
CONTINUOUS
 10
-6.0552851144
 20
20.2311067127
 11
-5.8442289399
 21
20.229449363
  0
LINE
  5
611
100
AcDbEntity
  8
RACCORDO
100
AcDbLine
 62
253
  6
CONTINUOUS
 10
-1.0552851144
 20
20.2311067127
 11
-0.8442289399
 21
20.229449363
  0
LINE
  5
612
100
AcDbEntity
  8
RACCORDO
100
AcDbLine
 62
253
  6
CONTINUOUS
 10
3.9447148856
 20
20.2311067127
 11
4.1557710601
 21
20.229449363
  0
LINE
  5
613
100
AcDbEntity
  8
RACCORDO
100
AcDbLine
 62
253
  6
CONTINUOUS
 10
8.9447148856
 20
20.2311067127
 11
9.1557710601
 21
20.229449363
  0
LINE
  5
614
100
AcDbEntity
  8
RACCORDO
100
AcDbLine
 62
253
  6
CONTINUOUS
 10
-11.1802259553
 20
20.0314468159
 11
-11.0364845637
 21
20.0302945787
  0
LINE
  5
615
100
AcDbEntity
  8
RACCORDO
100
AcDbLine
 62
253
  6
CONTINUOUS
 10
-6.1802259553
 20
20.0314468159
 11
-6.0364845637
 21
20.0302945787
  0
LINE
  5
616
100
AcDbEntity
  8
RACCORDO
100
AcDbLine
 62
253
  6
CONTINUOUS
 10
-1.1802259553
 20
20.0314468159
 11
-1.0364845637
 21
20.0302945787
  0
LINE
  5
617
100
AcDbEntity
  8
RACCORDO
100
AcDbLine
 62
253
  6
CONTINUOUS
 10
3.8197740447
 20
20.0314468159
 11
3.9635154363
 21
20.0302945787
  0
LINE
  5
618
100
AcDbEntity
  8
RACCORDO
100
AcDbLine
 62
253
  6
CONTINUOUS
 10
8.8197740447
 20
20.0314468159
 11
8.9635154363
 21
20.0302945787
  0
LINE
  5
619
100
AcDbEntity
  8
RACCORDO
100
AcDbLine
 62
253
  6
CONTINUOUS
 10
-10.4919669857
 20
20.2247268598
 11
-9.9456303266
 21
20.2197384124
  0
LINE
  5
61A
100
AcDbEntity
  8
RACCORDO
100
AcDbLine
 62
253
  6
CONTINUOUS
 10
-5.4919669857
 20
20.2247268598
 11
-4.9456303266
 21
20.2197384124
  0
LINE
  5
61B
100
AcDbEntity
  8
RACCORDO
100
AcDbLine
 62
253
  6
CONTINUOUS
 10
-0.4919669857
 20
20.2247268598
 11
0.0543696734
 21
20.2197384124
  0
LINE
  5
61C
100
AcDbEntity
  8
RACCORDO
100
AcDbLine
 62
253
  6
CONTINUOUS
 10
4.5080330143
 20
20.2247268598
 11
5.0543696734
 21
20.2197384124
  0
LINE
  5
61D
100
AcDbEntity
  8
RACCORDO
100
AcDbLine
 62
253
  6
CONTINUOUS
 10
-15.946342278
 20
20.0291061409
 11
-15.4924254299
 21
20.0236680769
  0
LINE
  5
61E
100
AcDbEntity
  8
RACCORDO
100
AcDbLine
 62
253
  6
CONTINUOUS
 10
-15.7384963153
 20
20.2278822043
 11
-15.2113853337
 21
20.2218557912
  0
LWPOLYLINE
  5
61F
100
AcDbEntity
  8
RACCORDO
100
AcDbPolyline
 62
253
  6
CONTINUOUS
 90
3
 70
0
 10
8.9635154363
 20
20.0302945787
 10
9.1336925728
 20
20.0279736266
 10
9.64330736
 20
20.0223943044
  0
LINE
  5
620
100
AcDbEntity
  8
RACCORDO
100
AcDbLine
 62
253
  6
CONTINUOUS
 10
-11.0364845637
 20
20.0302945787
 11
-10.4248527379
 21
20.0230119237
  0
LINE
  5
621
100
AcDbEntity
  8
RACCORDO
100
AcDbLine
 62
253
  6
CONTINUOUS
 10
-6.0364845637
 20
20.0302945787
 11
-5.4248527379
 21
20.0230119237
  0
LINE
  5
622
100
AcDbEntity
  8
RACCORDO
100
AcDbLine
 62
253
  6
CONTINUOUS
 10
-1.0364845637
 20
20.0302945787
 11
-0.4248527379
 21
20.0230119237
  0
LINE
  5
623
100
AcDbEntity
  8
RACCORDO
100
AcDbLine
 62
253
  6
CONTINUOUS
 10
3.9635154363
 20
20.0302945787
 11
4.5751472621
 21
20.0230119237
  0
LWPOLYLINE
  5
624
100
AcDbEntity
  8
RACCORDO
100
AcDbPolyline
 62
253
  6
CONTINUOUS
 90
3
 70
0
 10
9.1557710601
 20
20.229449363
 10
9.2558158384
 20
20.2279407521
 10
9.7340896416
 20
20.2223616806
  0
LINE
  5
625
100
AcDbEntity
  8
RACCORDO
100
AcDbLine
 62
253
  6
CONTINUOUS
 10
-10.8442289399
 20
20.229449363
 11
-10.4919669857
 21
20.2247268598
  0
LINE
  5
626
100
AcDbEntity
  8
RACCORDO
100
AcDbLine
 62
253
  6
CONTINUOUS
 10
-5.8442289399
 20
20.229449363
 11
-5.4919669857
 21
20.2247268598
  0
LINE
  5
627
100
AcDbEntity
  8
RACCORDO
100
AcDbLine
 62
253
  6
CONTINUOUS
 10
-0.8442289399
 20
20.229449363
 11
-0.4919669857
 21
20.2247268598
  0
LINE
  5
628
100
AcDbEntity
  8
RACCORDO
100
AcDbLine
 62
253
  6
CONTINUOUS
 10
4.1557710601
 20
20.229449363
 11
4.5080330143
 21
20.2247268598
  0
LINE
  5
629
100
AcDbEntity
  8
RACCORDO
100
AcDbLine
 62
253
  6
CONTINUOUS
 10
-16.2666360555
 20
20.0343272122
 11
-15.946342278
 21
20.0291061409
  0
LINE
  5
62A
100
AcDbEntity
  8
RACCORDO
100
AcDbLine
 62
253
  6
CONTINUOUS
 10
-16.0492163752
 20
20.2329264075
 11
-15.7384963153
 21
20.2278822043
  0
LINE
  5
62B
100
AcDbEntity
  8
RACCORDO
100
AcDbLine
 62
253
  6
CONTINUOUS
 10
-16.3186459253
 20
20.2386285238
 11
-16.0492163752
 21
20.2329264075
  0
LINE
  5
62C
100
AcDbEntity
  8
RACCORDO
100
AcDbLine
 62
253
  6
CONTINUOUS
 10
-16.5415509596
 20
20.040169024
 11
-16.2666360555
 21
20.0343272122
  0
LINE
  5
62D
100
AcDbEntity
  8
RACCORDO
100
AcDbLine
 62
253
  6
CONTINUOUS
 10
-16.6606421771
 20
20.0432786464
 11
-16.5415509596
 21
20.040169024
  0
LINE
  5
62E
100
AcDbEntity
  8
RACCORDO
100
AcDbLine
 62
253
  6
CONTINUOUS
 10
-16.49088071
 20
20.2432481855
 11
-16.3186459253
 21
20.2386285238
  0
LWPOLYLINE
  5
62F
100
AcDbEntity
  8
RACCORDO
100
AcDbPolyline
 62
253
  6
CONTINUOUS
 90
16
 70
0
 10
16.7552505526
 20
19.9597895314
 10
16.7274356024
 20
19.9617493167
 10
16.7001617662
 20
19.9675611988
 10
16.6739596313
 20
19.9771121128
 10
16.6493389359
 20
19.9902162547
 10
16.6267786532
 20
20.0066186954
 10
16.6067176726
 20
20.0260003406
 10
16.589546262
 20
20.0479841381
 10
16.5755984753
 20
20.0721424135
 10
16.5651456538
 20
20.09800519
 10
16.5583911473
 20
20.1250693309
 10
16.5554663586
 20
20.1528083286
 10
16.5564281866
 20
20.1806825465
 10
16.5612579198
 20
20.2081497177
 10
16.5698616004
 20
20.2346754935
 10
16.5820718516
 20
20.2597438396
  0
LWPOLYLINE
  5
630
100
AcDbEntity
  8
RACCORDO
100
AcDbPolyline
 62
253
  6
CONTINUOUS
 90
13
 70
0
 10
-6.7408545662
 20
20.0294798242
 10
-6.757432445
 20
20.0315096244
 10
-6.7737313964
 20
20.0368685465
 10
-6.7894772904
 20
20.0454664594
 10
-6.8044052987
 20
20.0571587559
 10
-6.818264349
 20
20.0717487848
 10
-6.8308213477
 20
20.088991158
 10
-6.8418651001
 20
20.1085958783
 10
-6.8512098627
 20
20.1302332164
 10
-6.858698467
 20
20.1535392564
 10
-6.864204963
 20
20.178122017
 10
-6.8676367375
 20
20.2035680437
 10
-6.8689360722
 20
20.229449363
  0
LWPOLYLINE
  5
631
100
AcDbEntity
  8
RACCORDO
100
AcDbPolyline
 62
253
  6
CONTINUOUS
 90
13
 70
0
 10
-1.7408545662
 20
20.0294798242
 10
-1.757432445
 20
20.0315096244
 10
-1.7737313964
 20
20.0368685465
 10
-1.7894772904
 20
20.0454664594
 10
-1.8044052987
 20
20.0571587559
 10
-1.818264349
 20
20.0717487848
 10
-1.8308213477
 20
20.088991158
 10
-1.8418651001
 20
20.1085958783
 10
-1.8512098627
 20
20.1302332164
 10
-1.858698467
 20
20.1535392564
 10
-1.864204963
 20
20.178122017
 10
-1.8676367375
 20
20.2035680437
 10
-1.8689360722
 20
20.229449363
  0
LWPOLYLINE
  5
632
100
AcDbEntity
  8
RACCORDO
100
AcDbPolyline
 62
253
  6
CONTINUOUS
 90
13
 70
0
 10
3.2591454338
 20
20.0294798242
 10
3.242567555
 20
20.0315096244
 10
3.2262686036
 20
20.0368685465
 10
3.2105227096
 20
20.0454664594
 10
3.1955947013
 20
20.0571587559
 10
3.181735651
 20
20.0717487848
 10
3.1691786523
 20
20.088991158
 10
3.1581348999
 20
20.1085958783
 10
3.1487901373
 20
20.1302332164
 10
3.141301533
 20
20.1535392564
 10
3.135795037
 20
20.178122017
 10
3.1323632625
 20
20.2035680437
 10
3.1310639278
 20
20.229449363
  0
LWPOLYLINE
  5
633
100
AcDbEntity
  8
RACCORDO
100
AcDbPolyline
 62
253
  6
CONTINUOUS
 90
13
 70
0
 10
8.2591454338
 20
20.0294798242
 10
8.242567555
 20
20.0315096244
 10
8.2262686036
 20
20.0368685465
 10
8.2105227096
 20
20.0454664594
 10
8.1955947013
 20
20.0571587559
 10
8.181735651
 20
20.0717487848
 10
8.1691786523
 20
20.088991158
 10
8.1581348999
 20
20.1085958783
 10
8.1487901373
 20
20.1302332164
 10
8.141301533
 20
20.1535392564
 10
8.135795037
 20
20.178122017
 10
8.1323632625
 20
20.2035680437
 10
8.1310639278
 20
20.229449363
  0
LWPOLYLINE
  5
634
100
AcDbEntity
  8
SMUSSO
100
AcDbPolyline
 62
7
  6
CONTINUOUS
 90
11
 70
0
 10
-6.0097904795
 20
22.5728656142
 10
-6.0034934139
 20
22.5705121982
 10
-5.9884143779
 20
22.5681684348
 10
-5.9645533713
 20
22.5658343237
 10
-5.9318474736
 20
22.5634956115
 10
-5.8903596054
 20
22.5611665517
 10
-5.8402785281
 20
22.5588899053
 10
-5.7813335503
 20
22.5566673128
 10
-5.7137953633
 20
22.5544971337
 10
-5.6386648022
 20
22.5524172075
 10
-5.4653207463
 20
22.5485349313
  0
LINE
  5
635
100
AcDbEntity
  8
RACCORDO
100
AcDbLine
 62
7
  6
CONTINUOUS
 10
21.2308412004
 20
5.1520998785
 11
21.1434135593
 21
5.2395275196
  0
LINE
  5
636
100
AcDbEntity
  8
SMUSSO
100
AcDbLine
 62
7
  6
CONTINUOUS
 10
3.8933678748
 20
22.6697072598
 11
3.9902095205
 21
22.5728656142
  0
LWPOLYLINE
  5
637
100
AcDbEntity
  8
RACCORDO
100
AcDbPolyline
 62
253
  6
CONTINUOUS
 90
15
 70
0
 10
15.4318629471
 20
18.8044867381
 10
15.4049044377
 20
18.8829349822
 10
15.3785176634
 20
18.9584759322
 10
15.3526340473
 20
19.0310956423
 10
15.3271772355
 20
19.1007728364
 10
15.3020936119
 20
19.1676688648
 10
15.277321498
 20
19.2317835399
 10
15.2528080995
 20
19.2930951569
 10
15.2284872332
 20
19.3517296011
 10
15.2043099636
 20
19.4076778072
 10
15.1802429429
 20
19.4609029656
 10
15.156224664
 20
19.5114795639
 10
15.1322139455
 20
19.5594108185
 10
15.1082078801
 20
19.6046316151
 10
15.0842055972
 20
19.6471075204
  0
LINE
  5
638
100
AcDbEntity
  8
RACCORDO
100
AcDbLine
 62
253
  6
CONTINUOUS
 10
15.4876219639
 20
18.6383252997
 11
15.4318629471
 21
18.8044867381
  0
LINE
  5
639
100
AcDbEntity
  8
0
100
AcDbLine
 62
7
  6
CONTINUOUS
 10
21.1434135593
 20
-4.6487152665
 11
21.1010564811
 21
-4.5215406947
  0
LINE
  5
63A
100
AcDbEntity
  8
RACCORDO
100
AcDbLine
 62
7
  6
CONTINUOUS
 10
21.1010564811
 20
-4.5215406947
 11
21.0523731635
 21
-4.3753719709
  0
LINE
  5
63B
100
AcDbEntity
  8
RACCORDO
100
AcDbLine
 62
253
  6
CONTINUOUS
 10
15.54659547
 20
18.4600062372
 11
15.4876219639
 21
18.6383252997
  0
LWPOLYLINE
  5
63C
100
AcDbEntity
  8
RACCORDO
100
AcDbPolyline
 62
253
  6
CONTINUOUS
 90
13
 70
0
 10
22.5464968036
 20
7.9426412248
 10
22.5447787635
 20
7.968737356
 10
22.5396699196
 20
7.9943871719
 10
22.5312576431
 20
8.019151968
 10
22.5196858055
 20
8.0426081762
 10
22.50515232
 20
8.0643546059
 10
22.487905758
 20
8.0840193068
 10
22.4682410928
 20
8.1012659371
 10
22.4464946587
 20
8.11579951
 10
22.4230384036
 20
8.1273714392
 10
22.3982735171
 20
8.1357837979
 10
22.3726235677
 20
8.1408927011
 10
22.3465272645
 20
8.1426107638
  0
LWPOLYLINE
  5
63D
100
AcDbEntity
  8
RACCORDO
100
AcDbPolyline
 62
7
  6
CONTINUOUS
 90
13
 70
0
 10
22.6434135593
 20
8.0395579805
 10
22.6417032951
 20
8.0656601074
 10
22.6366011188
 20
8.0913152856
 10
22.6281941376
 20
8.1160848071
 10
22.6166258965
 20
8.1395452639
 10
22.6020941093
 20
8.1612950698
 10
22.5848475316
 20
8.1809614918
 10
22.5651811096
 20
8.1982080695
 10
22.5434313037
 20
8.2127398567
 10
22.5199708468
 20
8.2243080978
 10
22.4952013254
 20
8.232715079
 10
22.4695461472
 20
8.2378172554
 10
22.4434440203
 20
8.2395275196
  0
LWPOLYLINE
  5
63E
100
AcDbEntity
  8
RACCORDO
100
AcDbPolyline
 62
253
  6
CONTINUOUS
 90
11
 70
0
 10
22.3286100564
 20
-7.4339152233
 10
22.3306209384
 20
-7.4821204141
 10
22.3325925791
 20
-7.5234616638
 10
22.3345279379
 20
-7.5584160518
 10
22.3364118288
 20
-7.5874891364
 10
22.338242031
 20
-7.6111338502
 10
22.3400207653
 20
-7.6298038287
 10
22.3417395082
 20
-7.6439653109
 10
22.3433954184
 20
-7.65404322
 10
22.3449913372
 20
-7.6604400099
 10
22.3465272645
 20
-7.6635557247
  0
LWPOLYLINE
  5
63F
100
AcDbEntity
  8
RACCORDO
100
AcDbPolyline
 62
253
  6
CONTINUOUS
 90
12
 70
0
 10
22.5265362954
 20
-7.1976576141
 10
22.5285834905
 20
-7.2491900434
 10
22.5305943875
 20
-7.2943271763
 10
22.5325660334
 20
-7.3330517447
 10
22.5345013811
 20
-7.3653810167
 10
22.5363852563
 20
-7.3926406052
 10
22.5382155799
 20
-7.4148575596
 10
22.5399944311
 20
-7.4320048306
 10
22.5417128727
 20
-7.4453268823
 10
22.5433679258
 20
-7.455238536
 10
22.5449625694
 20
-7.4613249705
 10
22.5464968036
 20
-7.4635861856
  0
LWPOLYLINE
  5
640
100
AcDbEntity
  8
RACCORDO
100
AcDbPolyline
 62
253
  6
CONTINUOUS
 90
3
 70
0
 10
21.4580981614
 20
7.9159962465
 10
21.4621803266
 20
7.7987753218
 10
21.4642465366
 20
7.7280719868
  0
LINE
  5
641
100
AcDbEntity
  8
RACCORDO
100
AcDbLine
 62
253
  6
CONTINUOUS
 10
22.3245035106
 20
-7.315080069
 11
22.3286100564
 21
-7.4339152233
  0
LINE
  5
642
100
AcDbEntity
  8
RACCORDO
100
AcDbLine
 62
253
  6
CONTINUOUS
 10
22.5223989367
 20
-7.0713319964
 11
22.5265362954
 21
-7.1976576141
  0
LINE
  5
643
100
AcDbEntity
  8
RACCORDO
100
AcDbLine
 62
253
  6
CONTINUOUS
 10
22.3203357134
 20
-7.1630278424
 11
22.3245035106
 21
-7.315080069
  0
LINE
  5
644
100
AcDbEntity
  8
RACCORDO
100
AcDbLine
 62
253
  6
CONTINUOUS
 10
22.5182489002
 20
-6.913563027
 11
22.5223989367
 21
-7.0713319964
  0
LINE
  5
645
100
AcDbEntity
  8
RACCORDO
100
AcDbLine
 62
253
  6
CONTINUOUS
 10
22.3162363401
 20
-6.9756649608
 11
22.3203357134
 21
-7.1630278424
  0
LINE
  5
646
100
AcDbEntity
  8
RACCORDO
100
AcDbLine
 62
253
  6
CONTINUOUS
 10
22.5122935787
 20
-6.6150266417
 11
22.5182489002
 21
-6.913563027
  0
LINE
  5
647
100
AcDbEntity
  8
RACCORDO
100
AcDbLine
 62
253
  6
CONTINUOUS
 10
22.3105342392
 20
-6.6345328715
 11
22.3162363401
 21
-6.9756649608
  0
LINE
  5
648
100
AcDbEntity
  8
RACCORDO
100
AcDbLine
 62
253
  6
CONTINUOUS
 10
22.5072819056
 20
-6.2673655832
 11
22.5122935787
 21
-6.6150266417
  0
LINE
  5
649
100
AcDbEntity
  8
RACCORDO
100
AcDbLine
 62
253
  6
CONTINUOUS
 10
22.3047094022
 20
-6.1263844107
 11
22.3105342392
 21
-6.6345328715
  0
LINE
  5
64A
100
AcDbEntity
  8
RACCORDO
100
AcDbLine
 62
253
  6
CONTINUOUS
 10
22.5026147933
 20
-5.7922650258
 11
22.5072819056
 21
-6.2673655832
  0
LINE
  5
64B
100
AcDbEntity
  8
RACCORDO
100
AcDbLine
 62
253
  6
CONTINUOUS
 10
22.2999566
 20
-5.3889228733
 11
22.3047094022
 21
-6.1263844107
  0
LINE
  5
64C
100
AcDbEntity
  8
RACCORDO
100
AcDbLine
 62
253
  6
CONTINUOUS
 10
22.4991557355
 20
-5.1305560269
 11
22.5026147933
 21
-5.7922650258
  0
LINE
  5
64D
100
AcDbEntity
  8
RACCORDO
100
AcDbLine
 62
7
  6
CONTINUOUS
 10
22.5474107022
 20
4.6521760309
 11
22.5474107022
 21
-4.1731209918
  0
LINE
  5
64E
100
AcDbEntity
  8
RACCORDO
100
AcDbLine
 62
7
  6
CONTINUOUS
 10
22.6434135593
 20
8.0395579805
 11
22.6434135593
 21
5.2395275196
  0
LINE
  5
64F
100
AcDbEntity
  8
RACCORDO
100
AcDbLine
 62
7
  6
CONTINUOUS
 10
22.6434135593
 20
-4.7604724804
 11
22.6434135593
 21
-7.5605029414
  0
LINE
  5
650
100
AcDbEntity
  8
RACCORDO
100
AcDbLine
 62
253
  6
CONTINUOUS
 10
22.2985185091
 20
5.2354620637
 11
22.2999566
 21
-5.3889228733
  0
LINE
  5
651
100
AcDbEntity
  8
RACCORDO
100
AcDbLine
 62
253
  6
CONTINUOUS
 10
22.4987023768
 20
5.4124888395
 11
22.4991557355
 21
-5.1305560269
  0
LINE
  5
652
100
AcDbEntity
  8
RACCORDO
100
AcDbLine
 62
253
  6
CONTINUOUS
 10
22.3004678689
 20
5.9850707793
 11
22.2985185091
 21
5.2354620637
  0
LINE
  5
653
100
AcDbEntity
  8
RACCORDO
100
AcDbLine
 62
253
  6
CONTINUOUS
 10
22.5017811105
 20
6.1548602111
 11
22.4987023768
 21
5.4124888395
  0
LINE
  5
654
100
AcDbEntity
  8
RACCORDO
100
AcDbLine
 62
253
  6
CONTINUOUS
 10
22.3047094022
 20
6.6054394499
 11
22.3004678689
 21
5.9850707793
  0
LINE
  5
655
100
AcDbEntity
  8
RACCORDO
100
AcDbLine
 62
253
  6
CONTINUOUS
 10
22.505907122
 20
6.6276093857
 11
22.5017811105
 21
6.1548602111
  0
LINE
  5
656
100
AcDbEntity
  8
RACCORDO
100
AcDbLine
 62
253
  6
CONTINUOUS
 10
22.3105342392
 20
7.1135879107
 11
22.3047094022
 21
6.6054394499
  0
LINE
  5
657
100
AcDbEntity
  8
RACCORDO
100
AcDbLine
 62
253
  6
CONTINUOUS
 10
22.5105046342
 20
6.9822013582
 11
22.505907122
 21
6.6276093857
  0
LINE
  5
658
100
AcDbEntity
  8
RACCORDO
100
AcDbLine
 62
253
  6
CONTINUOUS
 10
22.3162363401
 20
7.45472
 11
22.3105342392
 21
7.1135879107
  0
LINE
  5
659
100
AcDbEntity
  8
RACCORDO
100
AcDbLine
 62
253
  6
CONTINUOUS
 10
22.5162086494
 20
7.3003804323
 11
22.5105046342
 21
6.9822013582
  0
LINE
  5
65A
100
AcDbEntity
  8
RACCORDO
100
AcDbLine
 62
253
  6
CONTINUOUS
 10
22.3203357134
 20
7.6420828815
 11
22.3162363401
 21
7.45472
  0
LINE
  5
65B
100
AcDbEntity
  8
RACCORDO
100
AcDbLine
 62
253
  6
CONTINUOUS
 10
22.5203087732
 20
7.4755938468
 11
22.5162086494
 21
7.3003804323
  0
LINE
  5
65C
100
AcDbEntity
  8
RACCORDO
100
AcDbLine
 62
253
  6
CONTINUOUS
 10
22.3245035106
 20
7.7941351081
 11
22.3203357134
 21
7.6420828815
  0
LWPOLYLINE
  5
65D
100
AcDbEntity
  8
RACCORDO
100
AcDbPolyline
 62
253
  6
CONTINUOUS
 90
13
 70
0
 10
22.5464968036
 20
-7.4635861856
 10
22.5447787503
 20
-7.4896824171
 10
22.5396698727
 20
-7.5153323077
 10
22.5312575512
 20
-7.5400971506
 10
22.5196856671
 20
-7.5635533766
 10
22.505152142
 20
-7.5852997986
 10
22.4879055523
 20
-7.6049644734
 10
22.4682408776
 20
-7.6222110631
 10
22.4464944555
 20
-7.6367445882
 10
22.4230382295
 20
-7.6483164723
 10
22.3982733866
 20
-7.6567287938
 10
22.372623496
 20
-7.6618376714
 10
22.3465272645
 20
-7.6635557247
  0
LINE
  5
65E
100
AcDbEntity
  8
RACCORDO
100
AcDbLine
 62
253
  6
CONTINUOUS
 10
16.9187852411
 20
-20.4084846221
 11
16.7456065403
 21
-20.5084693916
  0
LWPOLYLINE
  5
65F
100
AcDbEntity
  8
RACCORDO
100
AcDbPolyline
 62
253
  6
CONTINUOUS
 90
13
 70
0
 10
-17.1169388085
 20
20.0267034681
 10
-17.0951901575
 20
20.0327645295
 10
-17.0742625435
 20
20.0412381613
 10
-17.0544226949
 20
20.0520163601
 10
-17.0359234752
 20
20.064961751
 10
-17.0190006616
 20
20.0799093367
 10
-17.0038699395
 20
20.0966686009
 10
-16.9907241516
 20
20.1150259377
 10
-16.9797308404
 20
20.1347473752
 10
-16.9710301146
 20
20.1555815558
 10
-16.9647328629
 20
20.1772629408
 10
-16.9609193408
 20
20.1995151941
 10
-16.959638148
 20
20.2220547047
  0
LINE
  5
660
100
AcDbEntity
  8
RACCORDO
100
AcDbLine
 62
253
  6
CONTINUOUS
 10
-16.8879852124
 20
20.2238604779
 11
-16.8364221901
 21
20.2290448137
  0
LWPOLYLINE
  5
661
100
AcDbEntity
  8
RACCORDO
100
AcDbPolyline
 62
253
  6
CONTINUOUS
 90
12
 70
0
 10
-16.8364221901
 20
20.2290448137
 10
-16.7969243309
 20
20.2328163251
 10
-16.775289489
 20
20.2346909839
 10
-16.7522096454
 20
20.2365461421
 10
-16.7276988056
 20
20.2383645459
 10
-16.7011975309
 20
20.2400063637
 10
-16.6725113111
 20
20.2415220633
 10
-16.6416437599
 20
20.2428611769
 10
-16.6082106808
 20
20.2437324695
 10
-16.571979166
 20
20.2440388626
 10
-16.5329124023
 20
20.2438774346
 10
-16.49088071
 20
20.2432481855
  0
LWPOLYLINE
  5
662
100
AcDbEntity
  8
SMUSSO
100
AcDbPolyline
 62
7
  6
CONTINUOUS
 90
9
 70
0
 10
18.0000627043
 20
22.5544786056
 10
18.0675771619
 20
22.5566459012
 10
18.1265063649
 20
22.5588651683
 10
18.1766449882
 20
22.5611373221
 10
18.2181983569
 20
22.5634614474
 10
18.2509899539
 20
22.5658000852
 10
18.2749609403
 20
22.5681407491
 10
18.2901701551
 20
22.5704959254
 10
18.2966175981
 20
22.5728656142
  0
LWPOLYLINE
  5
663
100
AcDbEntity
  8
SMUSSO
100
AcDbPolyline
 62
7
  6
CONTINUOUS
 90
9
 70
0
 10
8.0008041007
 20
22.5545024703
 10
8.0683150435
 20
22.5566726883
 10
8.1272316674
 20
22.5588950812
 10
8.1772831754
 20
22.5611712169
 10
8.2187403644
 20
22.5634995275
 10
8.2514206588
 20
22.5658373854
 10
8.2752631999
 20
22.5681705811
 10
8.2903288464
 20
22.570513324
 10
8.2966175981
 20
22.5728656142
  0
LWPOLYLINE
  5
664
100
AcDbEntity
  8
SMUSSO
100
AcDbPolyline
 62
7
  6
CONTINUOUS
 90
9
 70
0
 10
3.0008041007
 20
22.5545024703
 10
3.0683150435
 20
22.5566726883
 10
3.1272316674
 20
22.5588950812
 10
3.1772831754
 20
22.5611712169
 10
3.2187403644
 20
22.5634995275
 10
3.2514206588
 20
22.5658373854
 10
3.2752631999
 20
22.5681705811
 10
3.2903288464
 20
22.570513324
 10
3.2966175981
 20
22.5728656142
  0
LWPOLYLINE
  5
665
100
AcDbEntity
  8
SMUSSO
100
AcDbPolyline
 62
7
  6
CONTINUOUS
 90
9
 70
0
 10
-1.9991958993
 20
22.5545024703
 10
-1.9316849565
 20
22.5566726883
 10
-1.8727683326
 20
22.5588950812
 10
-1.8227168246
 20
22.5611712169
 10
-1.7812596356
 20
22.5634995275
 10
-1.7485793412
 20
22.5658373854
 10
-1.7247368001
 20
22.5681705811
 10
-1.7096711536
 20
22.570513324
 10
-1.7033824019
 20
22.5728656142
  0
LWPOLYLINE
  5
666
100
AcDbEntity
  8
SMUSSO
100
AcDbPolyline
 62
7
  6
CONTINUOUS
 90
9
 70
0
 10
-6.9991958993
 20
22.5545024703
 10
-6.9316849565
 20
22.5566726883
 10
-6.8727683326
 20
22.5588950812
 10
-6.8227168246
 20
22.5611712169
 10
-6.7812596356
 20
22.5634995275
 10
-6.7485793412
 20
22.5658373854
 10
-6.7247368001
 20
22.5681705811
 10
-6.7096711536
 20
22.570513324
 10
-6.7033824019
 20
22.5728656142
  0
LWPOLYLINE
  5
667
100
AcDbEntity
  8
SMUSSO
100
AcDbPolyline
 62
7
  6
CONTINUOUS
 90
9
 70
0
 10
-11.9991958993
 20
22.5545024703
 10
-11.9316849565
 20
22.5566726883
 10
-11.8727683326
 20
22.5588950812
 10
-11.8227168246
 20
22.5611712169
 10
-11.7812596356
 20
22.5634995275
 10
-11.7485793412
 20
22.5658373854
 10
-11.7247368001
 20
22.5681705811
 10
-11.7096711536
 20
22.570513324
 10
-11.7033824019
 20
22.5728656142
  0
LINE
  5
668
100
AcDbEntity
  8
RACCORDO
100
AcDbLine
 62
253
  6
CONTINUOUS
 10
18.4558846703
 20
22.5526747862
 11
18.3031987158
 21
22.548176491
  0
LINE
  5
669
100
AcDbEntity
  8
RACCORDO
100
AcDbLine
 62
253
  6
CONTINUOUS
 10
18.9774843694
 20
22.0551098481
 11
18.81329733
 21
22.0504591536
  0
LINE
  5
66A
100
AcDbEntity
  8
SMUSSO
100
AcDbLine
 62
7
  6
CONTINUOUS
 10
17.8414926274
 20
22.5504059738
 11
18.0000627043
 21
22.5544786056
  0
LINE
  5
66B
100
AcDbEntity
  8
SMUSSO
100
AcDbLine
 62
7
  6
CONTINUOUS
 10
7.8428275405
 20
22.5504357108
 11
8.0008041007
 21
22.5545024703
  0
LINE
  5
66C
100
AcDbEntity
  8
SMUSSO
100
AcDbLine
 62
7
  6
CONTINUOUS
 10
2.8428275405
 20
22.5504357108
 11
3.0008041007
 21
22.5545024703
  0
LINE
  5
66D
100
AcDbEntity
  8
SMUSSO
100
AcDbLine
 62
7
  6
CONTINUOUS
 10
-2.1571724595
 20
22.5504357108
 11
-1.9991958993
 21
22.5545024703
  0
LINE
  5
66E
100
AcDbEntity
  8
SMUSSO
100
AcDbLine
 62
7
  6
CONTINUOUS
 10
-7.1571724595
 20
22.5504357108
 11
-6.9991958993
 21
22.5545024703
  0
LINE
  5
66F
100
AcDbEntity
  8
SMUSSO
100
AcDbLine
 62
7
  6
CONTINUOUS
 10
-12.1571724595
 20
22.5504357108
 11
-11.9991958993
 21
22.5545024703
  0
LINE
  5
670
100
AcDbEntity
  8
RACCORDO
100
AcDbLine
 62
253
  6
CONTINUOUS
 10
18.3031987158
 20
22.548176491
 11
18.1216364326
 21
22.5440072381
  0
LINE
  5
671
100
AcDbEntity
  8
RACCORDO
100
AcDbLine
 62
253
  6
CONTINUOUS
 10
18.81329733
 20
22.0504591536
 11
18.6137356975
 21
22.0461172885
  0
LINE
  5
672
100
AcDbEntity
  8
RACCORDO
100
AcDbLine
 62
253
  6
CONTINUOUS
 10
8.2164074649
 20
22.0404929547
 11
8.1310560586
 21
22.0387266065
  0
LINE
  5
673
100
AcDbEntity
  8
RACCORDO
100
AcDbLine
 62
253
  6
CONTINUOUS
 10
3.2164074649
 20
22.0404929547
 11
3.1310560586
 21
22.0387266065
  0
LINE
  5
674
100
AcDbEntity
  8
RACCORDO
100
AcDbLine
 62
253
  6
CONTINUOUS
 10
-1.7835925351
 20
22.0404929547
 11
-1.8689439414
 21
22.0387266065
  0
LINE
  5
675
100
AcDbEntity
  8
RACCORDO
100
AcDbLine
 62
253
  6
CONTINUOUS
 10
-6.7835925351
 20
22.0404929547
 11
-6.8689439414
 21
22.0387266065
  0
LINE
  5
676
100
AcDbEntity
  8
RACCORDO
100
AcDbLine
 62
253
  6
CONTINUOUS
 10
-11.7835925351
 20
22.0404929547
 11
-11.8689439414
 21
22.0387266065
  0
LINE
  5
677
100
AcDbEntity
  8
SMUSSO
100
AcDbLine
 62
7
  6
CONTINUOUS
 10
17.6528697445
 20
22.5467109771
 11
17.8414926274
 21
22.5504059738
  0
LINE
  5
678
100
AcDbEntity
  8
SMUSSO
100
AcDbLine
 62
7
  6
CONTINUOUS
 10
7.6557617626
 20
22.546760509
 11
7.8428275405
 21
22.5504357108
  0
LINE
  5
679
100
AcDbEntity
  8
SMUSSO
100
AcDbLine
 62
7
  6
CONTINUOUS
 10
2.6557617626
 20
22.546760509
 11
2.8428275405
 21
22.5504357108
  0
LINE
  5
67A
100
AcDbEntity
  8
SMUSSO
100
AcDbLine
 62
7
  6
CONTINUOUS
 10
-2.3442382374
 20
22.546760509
 11
-2.1571724595
 21
22.5504357108
  0
LINE
  5
67B
100
AcDbEntity
  8
SMUSSO
100
AcDbLine
 62
7
  6
CONTINUOUS
 10
-7.3442382374
 20
22.546760509
 11
-7.1571724595
 21
22.5504357108
  0
LINE
  5
67C
100
AcDbEntity
  8
SMUSSO
100
AcDbLine
 62
7
  6
CONTINUOUS
 10
-12.3442382374
 20
22.546760509
 11
-12.1571724595
 21
22.5504357108
  0
LINE
  5
67D
100
AcDbEntity
  8
RACCORDO
100
AcDbLine
 62
253
  6
CONTINUOUS
 10
18.1216364326
 20
22.5440072381
 11
17.8010733519
 21
22.5385091022
  0
LINE
  5
67E
100
AcDbEntity
  8
RACCORDO
100
AcDbLine
 62
253
  6
CONTINUOUS
 10
18.6137356975
 20
22.0461172885
 11
18.2539991123
 21
22.0403087587
  0
LINE
  5
67F
100
AcDbEntity
  8
RACCORDO
100
AcDbLine
 62
253
  6
CONTINUOUS
 10
8.3094905242
 20
22.0419175824
 11
8.2164074649
 21
22.0404929547
  0
LINE
  5
680
100
AcDbEntity
  8
RACCORDO
100
AcDbLine
 62
253
  6
CONTINUOUS
 10
3.3094905242
 20
22.0419175824
 11
3.2164074649
 21
22.0404929547
  0
LINE
  5
681
100
AcDbEntity
  8
RACCORDO
100
AcDbLine
 62
253
  6
CONTINUOUS
 10
-1.6905094758
 20
22.0419175824
 11
-1.7835925351
 21
22.0404929547
  0
LINE
  5
682
100
AcDbEntity
  8
RACCORDO
100
AcDbLine
 62
253
  6
CONTINUOUS
 10
-6.6905094758
 20
22.0419175824
 11
-6.7835925351
 21
22.0404929547
  0
LINE
  5
683
100
AcDbEntity
  8
RACCORDO
100
AcDbLine
 62
253
  6
CONTINUOUS
 10
-11.6905094758
 20
22.0419175824
 11
-11.7835925351
 21
22.0404929547
  0
LINE
  5
684
100
AcDbEntity
  8
SMUSSO
100
AcDbLine
 62
7
  6
CONTINUOUS
 10
7.3306188318
 20
22.5421596007
 11
7.6557617626
 21
22.546760509
  0
LINE
  5
685
100
AcDbEntity
  8
SMUSSO
100
AcDbLine
 62
7
  6
CONTINUOUS
 10
2.3306188318
 20
22.5421596007
 11
2.6557617626
 21
22.546760509
  0
LINE
  5
686
100
AcDbEntity
  8
SMUSSO
100
AcDbLine
 62
7
  6
CONTINUOUS
 10
-2.6693811682
 20
22.5421596007
 11
-2.3442382374
 21
22.546760509
  0
LINE
  5
687
100
AcDbEntity
  8
SMUSSO
100
AcDbLine
 62
7
  6
CONTINUOUS
 10
-7.6693811682
 20
22.5421596007
 11
-7.3442382374
 21
22.546760509
  0
LINE
  5
688
100
AcDbEntity
  8
SMUSSO
100
AcDbLine
 62
7
  6
CONTINUOUS
 10
-12.6693811682
 20
22.5421596007
 11
-12.3442382374
 21
22.546760509
  0
LINE
  5
689
100
AcDbEntity
  8
SMUSSO
100
AcDbLine
 62
7
  6
CONTINUOUS
 10
17.3223792078
 20
22.5420650409
 11
17.6528697445
 21
22.5467109771
  0
LINE
  5
68A
100
AcDbEntity
  8
RACCORDO
100
AcDbLine
 62
253
  6
CONTINUOUS
 10
-11.977053403
 20
22.5411634856
 11
-12.5983158969
 21
22.5337677197
  0
LINE
  5
68B
100
AcDbEntity
  8
RACCORDO
100
AcDbLine
 62
253
  6
CONTINUOUS
 10
8.022946597
 20
22.5411634856
 11
7.3106498546
 21
22.5329320122
  0
LINE
  5
68C
100
AcDbEntity
  8
RACCORDO
100
AcDbLine
 62
253
  6
CONTINUOUS
 10
3.022946597
 20
22.5411634856
 11
2.3106498546
 21
22.5329320122
  0
LINE
  5
68D
100
AcDbEntity
  8
RACCORDO
100
AcDbLine
 62
253
  6
CONTINUOUS
 10
-1.977053403
 20
22.5411634856
 11
-2.6893501454
 21
22.5329320122
  0
LINE
  5
68E
100
AcDbEntity
  8
RACCORDO
100
AcDbLine
 62
253
  6
CONTINUOUS
 10
-6.977053403
 20
22.5411634856
 11
-7.6893501454
 21
22.5329320122
  0
LINE
  5
68F
100
AcDbEntity
  8
RACCORDO
100
AcDbLine
 62
253
  6
CONTINUOUS
 10
17.8010733519
 20
22.5385091022
 11
17.2987517151
 21
22.5328279758
  0
LINE
  5
690
100
AcDbEntity
  8
RACCORDO
100
AcDbLine
 62
253
  6
CONTINUOUS
 10
18.2539991123
 20
22.0403087587
 11
17.6786880402
 21
22.0341335724
  0
LINE
  5
691
100
AcDbEntity
  8
RACCORDO
100
AcDbLine
 62
253
  6
CONTINUOUS
 10
8.1310560586
 20
22.0387266065
 11
7.5340760674
 21
22.0330035067
  0
LINE
  5
692
100
AcDbEntity
  8
RACCORDO
100
AcDbLine
 62
253
  6
CONTINUOUS
 10
3.1310560586
 20
22.0387266065
 11
2.5340760674
 21
22.0330035067
  0
LINE
  5
693
100
AcDbEntity
  8
RACCORDO
100
AcDbLine
 62
253
  6
CONTINUOUS
 10
-1.8689439414
 20
22.0387266065
 11
-2.4659239326
 21
22.0330035067
  0
LINE
  5
694
100
AcDbEntity
  8
RACCORDO
100
AcDbLine
 62
253
  6
CONTINUOUS
 10
-6.8689439414
 20
22.0387266065
 11
-7.4659239326
 21
22.0330035067
  0
LINE
  5
695
100
AcDbEntity
  8
RACCORDO
100
AcDbLine
 62
253
  6
CONTINUOUS
 10
8.4597330932
 20
22.0433836892
 11
8.3094905242
 21
22.0419175824
  0
LINE
  5
696
100
AcDbEntity
  8
RACCORDO
100
AcDbLine
 62
253
  6
CONTINUOUS
 10
3.4597330932
 20
22.0433836892
 11
3.3094905242
 21
22.0419175824
  0
LINE
  5
697
100
AcDbEntity
  8
RACCORDO
100
AcDbLine
 62
253
  6
CONTINUOUS
 10
-1.5402669068
 20
22.0433836892
 11
-1.6905094758
 21
22.0419175824
  0
LINE
  5
698
100
AcDbEntity
  8
RACCORDO
100
AcDbLine
 62
253
  6
CONTINUOUS
 10
-6.5402669068
 20
22.0433836892
 11
-6.6905094758
 21
22.0419175824
  0
LINE
  5
699
100
AcDbEntity
  8
RACCORDO
100
AcDbLine
 62
253
  6
CONTINUOUS
 10
-11.8689439414
 20
22.0387266065
 11
-12.4564423511
 21
22.033071152
  0
LINE
  5
69A
100
AcDbEntity
  8
RACCORDO
100
AcDbLine
 62
253
  6
CONTINUOUS
 10
-11.5402669068
 20
22.0433836892
 11
-11.6905094758
 21
22.0419175824
  0
LINE
  5
69B
100
AcDbEntity
  8
SMUSSO
100
AcDbLine
 62
7
  6
CONTINUOUS
 10
6.83119397
 20
22.5379015465
 11
7.3306188318
 21
22.5421596007
  0
LINE
  5
69C
100
AcDbEntity
  8
SMUSSO
100
AcDbLine
 62
7
  6
CONTINUOUS
 10
1.83119397
 20
22.5379015465
 11
2.3306188318
 21
22.5421596007
  0
LINE
  5
69D
100
AcDbEntity
  8
SMUSSO
100
AcDbLine
 62
7
  6
CONTINUOUS
 10
-3.16880603
 20
22.5379015465
 11
-2.6693811682
 21
22.5421596007
  0
LINE
  5
69E
100
AcDbEntity
  8
SMUSSO
100
AcDbLine
 62
7
  6
CONTINUOUS
 10
-8.16880603
 20
22.5379015465
 11
-7.6693811682
 21
22.5421596007
  0
LINE
  5
69F
100
AcDbEntity
  8
SMUSSO
100
AcDbLine
 62
7
  6
CONTINUOUS
 10
-13.16880603
 20
22.5379015465
 11
-12.6693811682
 21
22.5421596007
  0
LINE
  5
6A0
100
AcDbEntity
  8
SMUSSO
100
AcDbLine
 62
7
  6
CONTINUOUS
 10
16.8173609236
 20
22.5378210189
 11
17.3223792078
 21
22.5420650409
  0
LINE
  5
6A1
100
AcDbEntity
  8
RACCORDO
100
AcDbLine
 62
253
  6
CONTINUOUS
 10
-12.5983158969
 20
22.5337677197
 11
-13.1896650139
 21
22.5296237034
  0
LINE
  5
6A2
100
AcDbEntity
  8
RACCORDO
100
AcDbLine
 62
253
  6
CONTINUOUS
 10
7.3106498546
 20
22.5329320122
 11
6.7438160885
 21
22.529333251
  0
LINE
  5
6A3
100
AcDbEntity
  8
RACCORDO
100
AcDbLine
 62
253
  6
CONTINUOUS
 10
8.3442797692
 20
22.5433054569
 11
8.022946597
 21
22.5411634856
  0
LINE
  5
6A4
100
AcDbEntity
  8
RACCORDO
100
AcDbLine
 62
253
  6
CONTINUOUS
 10
2.3106498546
 20
22.5329320122
 11
1.7438160885
 21
22.529333251
  0
LINE
  5
6A5
100
AcDbEntity
  8
RACCORDO
100
AcDbLine
 62
253
  6
CONTINUOUS
 10
3.3442797692
 20
22.5433054569
 11
3.022946597
 21
22.5411634856
  0
LINE
  5
6A6
100
AcDbEntity
  8
RACCORDO
100
AcDbLine
 62
253
  6
CONTINUOUS
 10
-2.6893501454
 20
22.5329320122
 11
-3.2561839115
 21
22.529333251
  0
LINE
  5
6A7
100
AcDbEntity
  8
RACCORDO
100
AcDbLine
 62
253
  6
CONTINUOUS
 10
-1.6557202308
 20
22.5433054569
 11
-1.977053403
 21
22.5411634856
  0
LINE
  5
6A8
100
AcDbEntity
  8
RACCORDO
100
AcDbLine
 62
253
  6
CONTINUOUS
 10
-7.6893501454
 20
22.5329320122
 11
-8.2561839115
 21
22.529333251
  0
LINE
  5
6A9
100
AcDbEntity
  8
RACCORDO
100
AcDbLine
 62
253
  6
CONTINUOUS
 10
-6.6557202308
 20
22.5433054569
 11
-6.977053403
 21
22.5411634856
  0
LINE
  5
6AA
100
AcDbEntity
  8
RACCORDO
100
AcDbLine
 62
253
  6
CONTINUOUS
 10
-11.6557202308
 20
22.5433054569
 11
-11.977053403
 21
22.5411634856
  0
LINE
  5
6AB
100
AcDbEntity
  8
RACCORDO
100
AcDbLine
 62
253
  6
CONTINUOUS
 10
17.2987517151
 20
22.5328279758
 11
16.7352766933
 21
22.5292984061
  0
LINE
  5
6AC
100
AcDbEntity
  8
RACCORDO
100
AcDbLine
 62
253
  6
CONTINUOUS
 10
17.6786880402
 20
22.0341335724
 11
16.8498862413
 21
22.0293768491
  0
LINE
  5
6AD
100
AcDbEntity
  8
RACCORDO
100
AcDbLine
 62
253
  6
CONTINUOUS
 10
7.5340760674
 20
22.0330035067
 11
6.682369961
 21
22.0288740496
  0
LINE
  5
6AE
100
AcDbEntity
  8
RACCORDO
100
AcDbLine
 62
253
  6
CONTINUOUS
 10
2.5340760674
 20
22.0330035067
 11
1.682369961
 21
22.0288740496
  0
LINE
  5
6AF
100
AcDbEntity
  8
RACCORDO
100
AcDbLine
 62
253
  6
CONTINUOUS
 10
-2.4659239326
 20
22.0330035067
 11
-3.317630039
 21
22.0288740496
  0
LINE
  5
6B0
100
AcDbEntity
  8
RACCORDO
100
AcDbLine
 62
253
  6
CONTINUOUS
 10
-7.4659239326
 20
22.0330035067
 11
-8.317630039
 21
22.0288740496
  0
LINE
  5
6B1
100
AcDbEntity
  8
RACCORDO
100
AcDbLine
 62
253
  6
CONTINUOUS
 10
-12.4564423511
 20
22.033071152
 11
-13.2658752613
 21
22.0290139896
  0
LINE
  5
6B2
100
AcDbEntity
  8
RACCORDO
100
AcDbLine
 62
253
  6
CONTINUOUS
 10
8.6169333673
 20
22.0439776909
 11
8.4597330932
 21
22.0433836892
  0
LINE
  5
6B3
100
AcDbEntity
  8
RACCORDO
100
AcDbLine
 62
253
  6
CONTINUOUS
 10
3.6169333673
 20
22.0439776909
 11
3.4597330932
 21
22.0433836892
  0
LINE
  5
6B4
100
AcDbEntity
  8
RACCORDO
100
AcDbLine
 62
253
  6
CONTINUOUS
 10
-1.3830666327
 20
22.0439776909
 11
-1.5402669068
 21
22.0433836892
  0
LINE
  5
6B5
100
AcDbEntity
  8
RACCORDO
100
AcDbLine
 62
253
  6
CONTINUOUS
 10
-6.3830666327
 20
22.0439776909
 11
-6.5402669068
 21
22.0433836892
  0
LINE
  5
6B6
100
AcDbEntity
  8
RACCORDO
100
AcDbLine
 62
253
  6
CONTINUOUS
 10
-11.3830666327
 20
22.0439776909
 11
-11.5402669068
 21
22.0433836892
  0
LINE
  5
6B7
100
AcDbEntity
  8
SMUSSO
100
AcDbLine
 62
7
  6
CONTINUOUS
 10
6.2833255156
 20
22.5360122236
 11
6.83119397
 21
22.5379015465
  0
LINE
  5
6B8
100
AcDbEntity
  8
SMUSSO
100
AcDbLine
 62
7
  6
CONTINUOUS
 10
1.2833255156
 20
22.5360122236
 11
1.83119397
 21
22.5379015465
  0
LINE
  5
6B9
100
AcDbEntity
  8
SMUSSO
100
AcDbLine
 62
7
  6
CONTINUOUS
 10
-3.7166744844
 20
22.5360122236
 11
-3.16880603
 21
22.5379015465
  0
LINE
  5
6BA
100
AcDbEntity
  8
SMUSSO
100
AcDbLine
 62
7
  6
CONTINUOUS
 10
-8.7166744844
 20
22.5360122236
 11
-8.16880603
 21
22.5379015465
  0
LINE
  5
6BB
100
AcDbEntity
  8
SMUSSO
100
AcDbLine
 62
7
  6
CONTINUOUS
 10
-13.7166744844
 20
22.5360122236
 11
-13.16880603
 21
22.5379015465
  0
LINE
  5
6BC
100
AcDbEntity
  8
SMUSSO
100
AcDbLine
 62
7
  6
CONTINUOUS
 10
16.2792655474
 20
22.5360027829
 11
16.8173609236
 21
22.5378210189
  0
LINE
  5
6BD
100
AcDbEntity
  8
RACCORDO
100
AcDbLine
 62
253
  6
CONTINUOUS
 10
14.4050673087
 20
21.4660716356
 11
16.839449454
 21
21.4675405247
  0
LINE
  5
6BE
100
AcDbEntity
  8
RACCORDO
100
AcDbLine
 62
253
  6
CONTINUOUS
 10
16.8498862413
 20
22.0293768491
 11
11.1434135593
 21
22.0281835515
  0
LINE
  5
6BF
100
AcDbEntity
  8
RACCORDO
100
AcDbLine
 62
253
  6
CONTINUOUS
 10
16.7352766933
 20
22.5292984061
 11
11.1434135593
 21
22.528107399
  0
LINE
  5
6C0
100
AcDbEntity
  8
RACCORDO
100
AcDbLine
 62
253
  6
CONTINUOUS
 10
-13.1896650139
 20
22.5296237034
 11
-13.8843742596
 21
22.5281087783
  0
LINE
  5
6C1
100
AcDbEntity
  8
RACCORDO
100
AcDbLine
 62
253
  6
CONTINUOUS
 10
8.6866948997
 20
22.5439013881
 11
8.3442797692
 21
22.5433054569
  0
LINE
  5
6C2
100
AcDbEntity
  8
RACCORDO
100
AcDbLine
 62
253
  6
CONTINUOUS
 10
3.6866948997
 20
22.5439013881
 11
3.3442797692
 21
22.5433054569
  0
LINE
  5
6C3
100
AcDbEntity
  8
RACCORDO
100
AcDbLine
 62
253
  6
CONTINUOUS
 10
-1.3133051003
 20
22.5439013881
 11
-1.6557202308
 21
22.5433054569
  0
LINE
  5
6C4
100
AcDbEntity
  8
RACCORDO
100
AcDbLine
 62
253
  6
CONTINUOUS
 10
-6.3133051003
 20
22.5439013881
 11
-6.6557202308
 21
22.5433054569
  0
LINE
  5
6C5
100
AcDbEntity
  8
RACCORDO
100
AcDbLine
 62
253
  6
CONTINUOUS
 10
-11.3133051003
 20
22.5439013881
 11
-11.6557202308
 21
22.5433054569
  0
LINE
  5
6C6
100
AcDbEntity
  8
RACCORDO
100
AcDbLine
 62
7
  6
CONTINUOUS
 10
-16.5566625931
 20
22.6697072598
 11
-16.1066321252
 21
22.6697072598
  0
LINE
  5
6C7
100
AcDbEntity
  8
SMUSSO
100
AcDbLine
 62
7
  6
CONTINUOUS
 10
-11.6065407562
 20
22.6697072598
 11
-11.1066321252
 21
22.6697072598
  0
LINE
  5
6C8
100
AcDbEntity
  8
SMUSSO
100
AcDbLine
 62
7
  6
CONTINUOUS
 10
-6.6065407562
 20
22.6697072598
 11
-6.1066321252
 21
22.6697072598
  0
LINE
  5
6C9
100
AcDbEntity
  8
SMUSSO
100
AcDbLine
 62
7
  6
CONTINUOUS
 10
-1.6065407562
 20
22.6697072598
 11
-1.1066321252
 21
22.6697072598
  0
LINE
  5
6CA
100
AcDbEntity
  8
SMUSSO
100
AcDbLine
 62
7
  6
CONTINUOUS
 10
3.3934592438
 20
22.6697072598
 11
3.8933678748
 21
22.6697072598
  0
LINE
  5
6CB
100
AcDbEntity
  8
SMUSSO
100
AcDbLine
 62
7
  6
CONTINUOUS
 10
8.3934592438
 20
22.6697072598
 11
8.8933678748
 21
22.6697072598
  0
LINE
  5
6CC
100
AcDbEntity
  8
RACCORDO
100
AcDbLine
 62
7
  6
CONTINUOUS
 10
18.3934592438
 20
22.6697072598
 11
18.8434897118
 21
22.6697072598
  0
LINE
  5
6CD
100
AcDbEntity
  8
RACCORDO
100
AcDbLine
 62
253
  6
CONTINUOUS
 10
-8.2561839115
 20
22.529333251
 11
-9.0078851726
 21
22.5281851084
  0
LINE
  5
6CE
100
AcDbEntity
  8
RACCORDO
100
AcDbLine
 62
253
  6
CONTINUOUS
 10
-3.2561839115
 20
22.529333251
 11
-4.0078851726
 21
22.5281851084
  0
LINE
  5
6CF
100
AcDbEntity
  8
RACCORDO
100
AcDbLine
 62
253
  6
CONTINUOUS
 10
1.7438160885
 20
22.529333251
 11
0.9921148274
 21
22.5281851084
  0
LINE
  5
6D0
100
AcDbEntity
  8
RACCORDO
100
AcDbLine
 62
253
  6
CONTINUOUS
 10
6.7438160885
 20
22.529333251
 11
5.9921148274
 21
22.5281851084
  0
LINE
  5
6D1
100
AcDbEntity
  8
RACCORDO
100
AcDbLine
 62
253
  6
CONTINUOUS
 10
-13.2658752613
 20
22.0290139896
 11
-14.1053746163
 21
22.0283307031
  0
LINE
  5
6D2
100
AcDbEntity
  8
RACCORDO
100
AcDbLine
 62
253
  6
CONTINUOUS
 10
-8.317630039
 20
22.0288740496
 11
-9.2168949435
 21
22.0284921666
  0
LINE
  5
6D3
100
AcDbEntity
  8
RACCORDO
100
AcDbLine
 62
253
  6
CONTINUOUS
 10
-3.317630039
 20
22.0288740496
 11
-4.2168949435
 21
22.0284921666
  0
LINE
  5
6D4
100
AcDbEntity
  8
RACCORDO
100
AcDbLine
 62
253
  6
CONTINUOUS
 10
1.682369961
 20
22.0288740496
 11
0.7831050565
 21
22.0284921666
  0
LINE
  5
6D5
100
AcDbEntity
  8
RACCORDO
100
AcDbLine
 62
253
  6
CONTINUOUS
 10
6.682369961
 20
22.0288740496
 11
5.7831050565
 21
22.0284921666
  0
LINE
  5
6D6
100
AcDbEntity
  8
SMUSSO
100
AcDbLine
 62
7
  6
CONTINUOUS
 10
10.7379826803
 20
22.5366043171
 11
16.2792655474
 21
22.5360027829
  0
LINE
  5
6D7
100
AcDbEntity
  8
SMUSSO
100
AcDbLine
 62
7
  6
CONTINUOUS
 10
-14.2739402829
 20
22.5366442731
 11
-13.7166744844
 21
22.5360122236
  0
LINE
  5
6D8
100
AcDbEntity
  8
SMUSSO
100
AcDbLine
 62
7
  6
CONTINUOUS
 10
-9.2739402829
 20
22.5366442731
 11
-8.7166744844
 21
22.5360122236
  0
LINE
  5
6D9
100
AcDbEntity
  8
SMUSSO
100
AcDbLine
 62
7
  6
CONTINUOUS
 10
-4.2739402829
 20
22.5366442731
 11
-3.7166744844
 21
22.5360122236
  0
LINE
  5
6DA
100
AcDbEntity
  8
SMUSSO
100
AcDbLine
 62
7
  6
CONTINUOUS
 10
0.7260597171
 20
22.5366442731
 11
1.2833255156
 21
22.5360122236
  0
LINE
  5
6DB
100
AcDbEntity
  8
SMUSSO
100
AcDbLine
 62
7
  6
CONTINUOUS
 10
5.7260597171
 20
22.5366442731
 11
6.2833255156
 21
22.5360122236
  0
LINE
  5
6DC
100
AcDbEntity
  8
RACCORDO
100
AcDbLine
 62
253
  6
CONTINUOUS
 10
-11.2247365531
 20
22.0436805515
 11
-11.3830666327
 21
22.0439776909
  0
LINE
  5
6DD
100
AcDbEntity
  8
RACCORDO
100
AcDbLine
 62
253
  6
CONTINUOUS
 10
-6.2247365531
 20
22.0436805515
 11
-6.3830666327
 21
22.0439776909
  0
LINE
  5
6DE
100
AcDbEntity
  8
RACCORDO
100
AcDbLine
 62
253
  6
CONTINUOUS
 10
-1.2247365531
 20
22.0436805515
 11
-1.3830666327
 21
22.0439776909
  0
LINE
  5
6DF
100
AcDbEntity
  8
RACCORDO
100
AcDbLine
 62
253
  6
CONTINUOUS
 10
3.7752634469
 20
22.0436805515
 11
3.6169333673
 21
22.0439776909
  0
LINE
  5
6E0
100
AcDbEntity
  8
RACCORDO
100
AcDbLine
 62
253
  6
CONTINUOUS
 10
8.7752634469
 20
22.0436805515
 11
8.6169333673
 21
22.0439776909
  0
LINE
  5
6E1
100
AcDbEntity
  8
RACCORDO
100
AcDbLine
 62
253
  6
CONTINUOUS
 10
11.1434135593
 20
22.0281835515
 11
10.2571002939
 21
22.0300777055
  0
LINE
  5
6E2
100
AcDbEntity
  8
RACCORDO
100
AcDbLine
 62
253
  6
CONTINUOUS
 10
-13.8843742596
 20
22.5281087783
 11
-14.5291764809
 21
22.5296500411
  0
LINE
  5
6E3
100
AcDbEntity
  8
RACCORDO
100
AcDbLine
 62
253
  6
CONTINUOUS
 10
-10.9743799531
 20
22.5429118792
 11
-11.3133051003
 21
22.5439013881
  0
LINE
  5
6E4
100
AcDbEntity
  8
RACCORDO
100
AcDbLine
 62
253
  6
CONTINUOUS
 10
-5.9743799531
 20
22.5429118792
 11
-6.3133051003
 21
22.5439013881
  0
LINE
  5
6E5
100
AcDbEntity
  8
RACCORDO
100
AcDbLine
 62
253
  6
CONTINUOUS
 10
-0.9743799531
 20
22.5429118792
 11
-1.3133051003
 21
22.5439013881
  0
LINE
  5
6E6
100
AcDbEntity
  8
RACCORDO
100
AcDbLine
 62
253
  6
CONTINUOUS
 10
4.0256200469
 20
22.5429118792
 11
3.6866948997
 21
22.5439013881
  0
LINE
  5
6E7
100
AcDbEntity
  8
RACCORDO
100
AcDbLine
 62
253
  6
CONTINUOUS
 10
11.1434135593
 20
22.528107399
 11
10.3998837421
 21
22.5300009893
  0
LINE
  5
6E8
100
AcDbEntity
  8
RACCORDO
100
AcDbLine
 62
253
  6
CONTINUOUS
 10
9.0256200469
 20
22.5429118792
 11
8.6866948997
 21
22.5439013881
  0
LINE
  5
6E9
100
AcDbEntity
  8
RACCORDO
100
AcDbLine
 62
253
  6
CONTINUOUS
 10
-14.1053746163
 20
22.0283307031
 11
-14.8788866253
 21
22.0307204714
  0
LINE
  5
6EA
100
AcDbEntity
  8
RACCORDO
100
AcDbLine
 62
253
  6
CONTINUOUS
 10
-9.0078851726
 20
22.5281851084
 11
-9.7467933514
 21
22.5308464816
  0
LINE
  5
6EB
100
AcDbEntity
  8
RACCORDO
100
AcDbLine
 62
253
  6
CONTINUOUS
 10
-4.0078851726
 20
22.5281851084
 11
-4.7467933514
 21
22.5308464816
  0
LINE
  5
6EC
100
AcDbEntity
  8
RACCORDO
100
AcDbLine
 62
253
  6
CONTINUOUS
 10
0.9921148274
 20
22.5281851084
 11
0.2532066486
 21
22.5308464816
  0
LINE
  5
6ED
100
AcDbEntity
  8
RACCORDO
100
AcDbLine
 62
253
  6
CONTINUOUS
 10
5.9921148274
 20
22.5281851084
 11
5.2532066486
 21
22.5308464816
  0
LINE
  5
6EE
100
AcDbEntity
  8
RACCORDO
100
AcDbLine
 62
253
  6
CONTINUOUS
 10
-9.2168949435
 20
22.0284921666
 11
-10.08439597
 21
22.0318905815
  0
LINE
  5
6EF
100
AcDbEntity
  8
RACCORDO
100
AcDbLine
 62
253
  6
CONTINUOUS
 10
-4.2168949435
 20
22.0284921666
 11
-5.08439597
 21
22.0318905815
  0
LINE
  5
6F0
100
AcDbEntity
  8
RACCORDO
100
AcDbLine
 62
253
  6
CONTINUOUS
 10
0.7831050565
 20
22.0284921666
 11
-0.08439597
 21
22.0318905815
  0
LINE
  5
6F1
100
AcDbEntity
  8
RACCORDO
100
AcDbLine
 62
253
  6
CONTINUOUS
 10
5.7831050565
 20
22.0284921666
 11
4.91560403
 21
22.0318905815
  0
LINE
  5
6F2
100
AcDbEntity
  8
SMUSSO
100
AcDbLine
 62
7
  6
CONTINUOUS
 10
10.210482718
 20
22.5396445746
 11
10.7379826803
 21
22.5366043171
  0
LINE
  5
6F3
100
AcDbEntity
  8
SMUSSO
100
AcDbLine
 62
7
  6
CONTINUOUS
 10
-14.8016710605
 20
22.5397451953
 11
-14.2739402829
 21
22.5366442731
  0
LINE
  5
6F4
100
AcDbEntity
  8
SMUSSO
100
AcDbLine
 62
7
  6
CONTINUOUS
 10
-9.8016710605
 20
22.5397451953
 11
-9.2739402829
 21
22.5366442731
  0
LINE
  5
6F5
100
AcDbEntity
  8
SMUSSO
100
AcDbLine
 62
7
  6
CONTINUOUS
 10
-4.8016710605
 20
22.5397451953
 11
-4.2739402829
 21
22.5366442731
  0
LINE
  5
6F6
100
AcDbEntity
  8
SMUSSO
100
AcDbLine
 62
7
  6
CONTINUOUS
 10
0.1983289395
 20
22.5397451953
 11
0.7260597171
 21
22.5366442731
  0
LINE
  5
6F7
100
AcDbEntity
  8
SMUSSO
100
AcDbLine
 62
7
  6
CONTINUOUS
 10
5.1983289395
 20
22.5397451953
 11
5.7260597171
 21
22.5366442731
  0
LINE
  5
6F8
100
AcDbEntity
  8
RACCORDO
100
AcDbLine
 62
253
  6
CONTINUOUS
 10
10.2571002939
 20
22.0300777055
 11
9.4446204777
 21
22.0355901511
  0
LINE
  5
6F9
100
AcDbEntity
  8
RACCORDO
100
AcDbLine
 62
253
  6
CONTINUOUS
 10
-14.5291764809
 20
22.5296500411
 11
-15.0713227037
 21
22.5333570662
  0
LINE
  5
6FA
100
AcDbEntity
  8
RACCORDO
100
AcDbLine
 62
253
  6
CONTINUOUS
 10
10.3998837421
 20
22.5300009893
 11
9.846423202
 21
22.5341478381
  0
LINE
  5
6FB
100
AcDbEntity
  8
RACCORDO
100
AcDbLine
 62
253
  6
CONTINUOUS
 10
-14.8788866253
 20
22.0307204714
 11
-15.6016429039
 21
22.0360479663
  0
LINE
  5
6FC
100
AcDbEntity
  8
RACCORDO
100
AcDbLine
 62
253
  6
CONTINUOUS
 10
-11.0715829627
 20
22.0425016717
 11
-11.2247365531
 21
22.0436805515
  0
LINE
  5
6FD
100
AcDbEntity
  8
RACCORDO
100
AcDbLine
 62
253
  6
CONTINUOUS
 10
-6.0715829627
 20
22.0425016717
 11
-6.2247365531
 21
22.0436805515
  0
LINE
  5
6FE
100
AcDbEntity
  8
RACCORDO
100
AcDbLine
 62
253
  6
CONTINUOUS
 10
-1.0715829627
 20
22.0425016717
 11
-1.2247365531
 21
22.0436805515
  0
LINE
  5
6FF
100
AcDbEntity
  8
RACCORDO
100
AcDbLine
 62
253
  6
CONTINUOUS
 10
3.9284170373
 20
22.0425016717
 11
3.7752634469
 21
22.0436805515
  0
LINE
  5
700
100
AcDbEntity
  8
RACCORDO
100
AcDbLine
 62
253
  6
CONTINUOUS
 10
8.9284170373
 20
22.0425016717
 11
8.7752634469
 21
22.0436805515
  0
LWPOLYLINE
  5
701
100
AcDbEntity
  8
RACCORDO
100
AcDbPolyline
 62
253
  6
CONTINUOUS
 90
3
 70
0
 10
-10.08439597
 20
22.0318905815
 10
-10.7040572337
 20
22.037103922
 10
-10.8442289399
 20
22.0387266065
  0
LWPOLYLINE
  5
702
100
AcDbEntity
  8
RACCORDO
100
AcDbPolyline
 62
253
  6
CONTINUOUS
 90
3
 70
0
 10
-5.08439597
 20
22.0318905815
 10
-5.7040572337
 20
22.037103922
 10
-5.8442289399
 20
22.0387266065
  0
LWPOLYLINE
  5
703
100
AcDbEntity
  8
RACCORDO
100
AcDbPolyline
 62
253
  6
CONTINUOUS
 90
3
 70
0
 10
-0.08439597
 20
22.0318905815
 10
-0.7040572337
 20
22.037103922
 10
-0.8442289399
 20
22.0387266065
  0
LWPOLYLINE
  5
704
100
AcDbEntity
  8
RACCORDO
100
AcDbPolyline
 62
253
  6
CONTINUOUS
 90
3
 70
0
 10
4.91560403
 20
22.0318905815
 10
4.2959427663
 20
22.037103922
 10
4.1557710601
 20
22.0387266065
  0
LINE
  5
705
100
AcDbEntity
  8
RACCORDO
100
AcDbLine
 62
253
  6
CONTINUOUS
 10
-10.6624226402
 20
22.5404099526
 11
-10.9743799531
 21
22.5429118792
  0
LINE
  5
706
100
AcDbEntity
  8
RACCORDO
100
AcDbLine
 62
253
  6
CONTINUOUS
 10
-5.6624226402
 20
22.5404099526
 11
-5.9743799531
 21
22.5429118792
  0
LINE
  5
707
100
AcDbEntity
  8
RACCORDO
100
AcDbLine
 62
253
  6
CONTINUOUS
 10
-0.6624226402
 20
22.5404099526
 11
-0.9743799531
 21
22.5429118792
  0
LINE
  5
708
100
AcDbEntity
  8
RACCORDO
100
AcDbLine
 62
253
  6
CONTINUOUS
 10
4.3375773598
 20
22.5404099526
 11
4.0256200469
 21
22.5429118792
  0
LINE
  5
709
100
AcDbEntity
  8
RACCORDO
100
AcDbLine
 62
253
  6
CONTINUOUS
 10
9.3375773598
 20
22.5404099526
 11
9.0256200469
 21
22.5429118792
  0
LINE
  5
70A
100
AcDbEntity
  8
RACCORDO
100
AcDbLine
 62
253
  6
CONTINUOUS
 10
-9.7467933514
 20
22.5308464816
 11
-10.2833873708
 21
22.5355382766
  0
LINE
  5
70B
100
AcDbEntity
  8
RACCORDO
100
AcDbLine
 62
253
  6
CONTINUOUS
 10
-4.7467933514
 20
22.5308464816
 11
-5.2833873708
 21
22.5355382766
  0
LINE
  5
70C
100
AcDbEntity
  8
RACCORDO
100
AcDbLine
 62
253
  6
CONTINUOUS
 10
0.2532066486
 20
22.5308464816
 11
-0.2833873708
 21
22.5355382766
  0
LINE
  5
70D
100
AcDbEntity
  8
RACCORDO
100
AcDbLine
 62
253
  6
CONTINUOUS
 10
5.2532066486
 20
22.5308464816
 11
4.7166126292
 21
22.5355382766
  0
LINE
  5
70E
100
AcDbEntity
  8
RACCORDO
100
AcDbLine
 62
253
  6
CONTINUOUS
 10
9.4446204777
 20
22.0355901511
 11
9.1557710601
 21
22.0387266065
  0
LINE
  5
70F
100
AcDbEntity
  8
SMUSSO
100
AcDbLine
 62
7
  6
CONTINUOUS
 10
-15.1572407196
 20
22.5435627387
 11
-14.8016710605
 21
22.5397451953
  0
LINE
  5
710
100
AcDbEntity
  8
SMUSSO
100
AcDbLine
 62
7
  6
CONTINUOUS
 10
-10.1572407196
 20
22.5435627387
 11
-9.8016710605
 21
22.5397451953
  0
LINE
  5
711
100
AcDbEntity
  8
SMUSSO
100
AcDbLine
 62
7
  6
CONTINUOUS
 10
-5.1572407196
 20
22.5435627387
 11
-4.8016710605
 21
22.5397451953
  0
LINE
  5
712
100
AcDbEntity
  8
SMUSSO
100
AcDbLine
 62
7
  6
CONTINUOUS
 10
-0.1572407196
 20
22.5435627387
 11
0.1983289395
 21
22.5397451953
  0
LINE
  5
713
100
AcDbEntity
  8
SMUSSO
100
AcDbLine
 62
7
  6
CONTINUOUS
 10
4.8427592804
 20
22.5435627387
 11
5.1983289395
 21
22.5397451953
  0
LINE
  5
714
100
AcDbEntity
  8
SMUSSO
100
AcDbLine
 62
7
  6
CONTINUOUS
 10
9.8491111245
 20
22.5434806101
 11
10.210482718
 21
22.5396445746
  0
LINE
  5
715
100
AcDbEntity
  8
RACCORDO
100
AcDbLine
 62
253
  6
CONTINUOUS
 10
-15.0713227037
 20
22.5333570662
 11
-15.4746944706
 21
22.5379517633
  0
LINE
  5
716
100
AcDbEntity
  8
RACCORDO
100
AcDbLine
 62
253
  6
CONTINUOUS
 10
-10.2833873708
 20
22.5355382766
 11
-10.6624226402
 21
22.5404099526
  0
LINE
  5
717
100
AcDbEntity
  8
RACCORDO
100
AcDbLine
 62
253
  6
CONTINUOUS
 10
-5.2833873708
 20
22.5355382766
 11
-5.6624226402
 21
22.5404099526
  0
LINE
  5
718
100
AcDbEntity
  8
RACCORDO
100
AcDbLine
 62
253
  6
CONTINUOUS
 10
-0.2833873708
 20
22.5355382766
 11
-0.6624226402
 21
22.5404099526
  0
LINE
  5
719
100
AcDbEntity
  8
RACCORDO
100
AcDbLine
 62
253
  6
CONTINUOUS
 10
4.7166126292
 20
22.5355382766
 11
4.3375773598
 21
22.5404099526
  0
LINE
  5
71A
100
AcDbEntity
  8
RACCORDO
100
AcDbLine
 62
253
  6
CONTINUOUS
 10
9.846423202
 20
22.5341478381
 11
9.3375773598
 21
22.5404099526
  0
LINE
  5
71B
100
AcDbEntity
  8
RACCORDO
100
AcDbLine
 62
253
  6
CONTINUOUS
 10
-15.6016429039
 20
22.0360479663
 11
-16.0354771591
 21
22.0412677132
  0
LINE
  5
71C
100
AcDbEntity
  8
RACCORDO
100
AcDbLine
 62
253
  6
CONTINUOUS
 10
-10.9751915647
 20
22.0412461575
 11
-11.0715829627
 21
22.0425016717
  0
LINE
  5
71D
100
AcDbEntity
  8
RACCORDO
100
AcDbLine
 62
253
  6
CONTINUOUS
 10
-5.9751915647
 20
22.0412461575
 11
-6.0715829627
 21
22.0425016717
  0
LINE
  5
71E
100
AcDbEntity
  8
RACCORDO
100
AcDbLine
 62
253
  6
CONTINUOUS
 10
-0.9751915647
 20
22.0412461575
 11
-1.0715829627
 21
22.0425016717
  0
LINE
  5
71F
100
AcDbEntity
  8
RACCORDO
100
AcDbLine
 62
253
  6
CONTINUOUS
 10
4.0248084353
 20
22.0412461575
 11
3.9284170373
 21
22.0425016717
  0
LINE
  5
720
100
AcDbEntity
  8
RACCORDO
100
AcDbLine
 62
253
  6
CONTINUOUS
 10
9.0248084353
 20
22.0412461575
 11
8.9284170373
 21
22.0425016717
  0
LINE
  5
721
100
AcDbEntity
  8
RACCORDO
100
AcDbLine
 62
253
  6
CONTINUOUS
 10
-15.4746944706
 20
22.5379517633
 11
-15.7483846032
 21
22.5423302565
  0
LINE
  5
722
100
AcDbEntity
  8
SMUSSO
100
AcDbLine
 62
7
  6
CONTINUOUS
 10
9.5365717678
 20
22.5484970761
 11
9.8491111245
 21
22.5434806101
  0
LINE
  5
723
100
AcDbEntity
  8
RACCORDO
100
AcDbLine
 62
253
  6
CONTINUOUS
 10
-16.0354771591
 20
22.0412677132
 11
-16.318014865
 21
22.0459487202
  0
LINE
  5
724
100
AcDbEntity
  8
SMUSSO
100
AcDbLine
 62
7
  6
CONTINUOUS
 10
-15.4653207463
 20
22.5485349313
 11
-15.1572407196
 21
22.5435627387
  0
LINE
  5
725
100
AcDbEntity
  8
SMUSSO
100
AcDbLine
 62
7
  6
CONTINUOUS
 10
-10.4653207463
 20
22.5485349313
 11
-10.1572407196
 21
22.5435627387
  0
LINE
  5
726
100
AcDbEntity
  8
SMUSSO
100
AcDbLine
 62
7
  6
CONTINUOUS
 10
-5.4653207463
 20
22.5485349313
 11
-5.1572407196
 21
22.5435627387
  0
LINE
  5
727
100
AcDbEntity
  8
SMUSSO
100
AcDbLine
 62
7
  6
CONTINUOUS
 10
-0.4653207463
 20
22.5485349313
 11
-0.1572407196
 21
22.5435627387
  0
LINE
  5
728
100
AcDbEntity
  8
SMUSSO
100
AcDbLine
 62
7
  6
CONTINUOUS
 10
4.5346792537
 20
22.5485349313
 11
4.8427592804
 21
22.5435627387
  0
LINE
  5
729
100
AcDbEntity
  8
RACCORDO
100
AcDbLine
 62
253
  6
CONTINUOUS
 10
-15.7483846032
 20
22.5423302565
 11
-15.9215251616
 21
22.5458740174
  0
LWPOLYLINE
  5
72A
100
AcDbEntity
  8
RACCORDO
100
AcDbPolyline
 62
253
  6
CONTINUOUS
 90
3
 70
0
 10
-10.8442289399
 20
22.0387266065
 10
-10.8858299849
 20
22.039652518
 10
-10.9751915647
 20
22.0412461575
  0
LWPOLYLINE
  5
72B
100
AcDbEntity
  8
RACCORDO
100
AcDbPolyline
 62
253
  6
CONTINUOUS
 90
3
 70
0
 10
-5.8442289399
 20
22.0387266065
 10
-5.8858299849
 20
22.039652518
 10
-5.9751915647
 20
22.0412461575
  0
LWPOLYLINE
  5
72C
100
AcDbEntity
  8
RACCORDO
100
AcDbPolyline
 62
253
  6
CONTINUOUS
 90
3
 70
0
 10
-0.8442289399
 20
22.0387266065
 10
-0.8858299849
 20
22.039652518
 10
-0.9751915647
 20
22.0412461575
  0
LWPOLYLINE
  5
72D
100
AcDbEntity
  8
RACCORDO
100
AcDbPolyline
 62
253
  6
CONTINUOUS
 90
3
 70
0
 10
4.1557710601
 20
22.0387266065
 10
4.1141700151
 20
22.039652518
 10
4.0248084353
 20
22.0412461575
  0
LWPOLYLINE
  5
72E
100
AcDbEntity
  8
RACCORDO
100
AcDbPolyline
 62
253
  6
CONTINUOUS
 90
3
 70
0
 10
9.1557710601
 20
22.0387266065
 10
9.1141700151
 20
22.039652518
 10
9.0248084353
 20
22.0412461575
  0
LINE
  5
72F
100
AcDbEntity
  8
RACCORDO
100
AcDbLine
 62
253
  6
CONTINUOUS
 10
-16.318014865
 20
22.0459487202
 11
-16.4955012979
 21
22.0497105038
  0
LINE
  5
730
100
AcDbEntity
  8
RACCORDO
100
AcDbLine
 62
253
  6
CONTINUOUS
 10
-15.9215251616
 20
22.5458740174
 11
-16.0704183887
 21
22.5496361835
  0
LINE
  5
731
100
AcDbEntity
  8
RACCORDO
100
AcDbLine
 62
253
  6
CONTINUOUS
 10
-16.4955012979
 20
22.0497105038
 11
-16.6468310832
 21
22.0537311106
  0
LINE
  5
732
100
AcDbEntity
  8
RACCORDO
100
AcDbLine
 62
253
  6
CONTINUOUS
 10
-16.0704183887
 20
22.5496361835
 11
-16.1575105884
 21
22.5522864251
  0
LINE
  5
733
100
AcDbEntity
  8
RACCORDO
100
AcDbLine
 62
253
  6
CONTINUOUS
 10
-16.6468310832
 20
22.0537311106
 11
-16.7330675771
 21
22.0565665168
  0
LWPOLYLINE
  5
734
100
AcDbEntity
  8
RACCORDO
100
AcDbPolyline
 62
253
  6
CONTINUOUS
 90
13
 70
0
 10
-16.1575105884
 20
22.5522864251
 10
-16.2348025096
 20
22.555059461
 10
-16.2697674992
 20
22.5564929931
 10
-16.3020763864
 20
22.5579601342
 10
-16.3317752961
 20
22.5594609088
 10
-16.3588181033
 20
22.5609952924
 10
-16.3828812649
 20
22.5625655063
 10
-16.4040171658
 20
22.5641717242
 10
-16.422173421
 20
22.5658137724
 10
-16.4368693319
 20
22.5674933508
 10
-16.4479446657
 20
22.5692110261
 10
-16.4555596552
 20
22.5709662315
 10
-16.4597143004
 20
22.5727589671
  0
LWPOLYLINE
  5
735
100
AcDbEntity
  8
RACCORDO
100
AcDbPolyline
 62
253
  6
CONTINUOUS
 90
22
 70
0
 10
16.8843040004
 20
21.2675709856
 10
16.9042929329
 20
21.2667788437
 10
16.9241657465
 20
21.2640444708
 10
16.9437283261
 20
21.259375207
 10
16.9627975022
 20
21.2527985034
 10
16.9811683817
 20
21.2443594687
 10
16.9986192417
 20
21.2341268392
 10
17.0149887869
 20
21.222176794
 10
17.0300833731
 20
21.2086305542
 10
17.0436671706
 20
21.1936776152
 10
17.0556034047
 20
21.1774916552
 10
17.0657968545
 20
21.1602333202
 10
17.0741297043
 20
21.1421153169
 10
17.0805296473
 20
21.1233653559
 10
17.0849781028
 20
21.1041427971
 10
17.0874567695
 20
21.0845631787
 10
17.0879415374
 20
21.0648246297
 10
17.0864327692
 20
21.0451129007
 10
17.0829262293
 20
21.0255238326
 10
17.0774182279
 20
21.0062231921
 10
17.0699387384
 20
20.987442259
 10
17.0605348995
 20
20.9693788646
  0
LWPOLYLINE
  5
736
100
AcDbEntity
  8
RACCORDO
100
AcDbPolyline
 62
253
  6
CONTINUOUS
 90
10
 70
0
 10
-16.7330675771
 20
22.0565665168
 10
-16.8070870918
 20
22.0595340577
 10
-16.8392124026
 20
22.0610682424
 10
-16.8679917503
 20
22.0626382419
 10
-16.8932257341
 20
22.0642440411
 10
-16.9147258805
 20
22.0658856551
 10
-16.9323671154
 20
22.0675653439
 10
-16.9459149795
 20
22.069283861
 10
-16.9550887703
 20
22.0710404528
 10
-16.959638148
 20
22.0728351196
  0
LWPOLYLINE
  5
737
100
AcDbEntity
  8
RACCORDO
100
AcDbPolyline
 62
253
  6
CONTINUOUS
 90
22
 70
0
 10
16.839449454
 20
21.4675405247
 10
16.8772965027
 20
21.4656789959
 10
16.9141914856
 20
21.4600283901
 10
16.9501365568
 20
21.4505887074
 10
16.9855096909
 20
21.4372201529
 10
17.0199364224
 20
21.4200625215
 10
17.0523021912
 20
21.3995351974
 10
17.0825930707
 20
21.3754732997
 10
17.1108538093
 20
21.3480417094
 10
17.1360786445
 20
21.3181544526
 10
17.1581465327
 20
21.2857360359
 10
17.177224065
 20
21.2508619527
 10
17.1927476038
 20
21.2146727103
 10
17.2046043962
 20
21.1772105909
 10
17.2129423513
 20
21.1384333121
 10
17.2175873325
 20
21.0993545341
 10
17.2184779357
 20
21.0599856105
 10
17.2156833258
 20
21.0203151876
 10
17.2092182149
 20
20.9813228647
 10
17.1990799021
 20
20.9433351749
 10
17.185248405
 20
20.906025585
 10
17.1677053066
 20
20.8693940951
  0
LWPOLYLINE
  5
738
100
AcDbEntity
  8
RACCORDO
100
AcDbPolyline
 62
253
  6
CONTINUOUS
 90
5
 70
0
 10
19.344722588
 20
20.0263949858
 10
19.3687734706
 20
20.024716936
 10
19.3865580359
 20
20.0241284518
 10
19.3982162163
 20
20.0247622418
 10
19.4037659272
 20
20.0267034681
  0
LWPOLYLINE
  5
739
100
AcDbEntity
  8
RACCORDO
100
AcDbPolyline
 62
253
  6
CONTINUOUS
 90
13
 70
0
 10
18.9474692957
 20
20.0432826545
 10
18.9254392369
 20
20.0452116534
 10
18.9037815682
 20
20.0504896577
 10
18.8828625335
 20
20.0590274136
 10
18.8630358862
 20
20.0706805428
 10
18.8446369066
 20
20.0852519846
 10
18.8279767327
 20
20.102495328
 10
18.813337098
 20
20.1221189786
 10
18.8009655678
 20
20.1437910896
 10
18.7910713524
 20
20.1671451738
 10
18.7838217694
 20
20.1917863008
 10
18.7793394142
 20
20.2172977756
 10
18.7777000868
 20
20.2432481852
  0
LWPOLYLINE
  5
73A
100
AcDbEntity
  8
RACCORDO
100
AcDbPolyline
 62
253
  6
CONTINUOUS
 90
7
 70
0
 10
19.0748986133
 20
20.2334963031
 10
19.1554944675
 20
20.2260001982
 10
19.1864267443
 20
20.2227542394
 10
19.2109637529
 20
20.2206509509
 10
19.2291053516
 20
20.2199761985
 10
19.2409234336
 20
20.2204441165
 10
19.2464652666
 20
20.2220547047
  0
LWPOLYLINE
  5
73B
100
AcDbEntity
  8
SMUSSO
100
AcDbPolyline
 62
7
  6
CONTINUOUS
 90
11
 70
0
 10
-1.0097904795
 20
22.5728656142
 10
-1.0034934139
 20
22.5705121982
 10
-0.9884143779
 20
22.5681684348
 10
-0.9645533713
 20
22.5658343237
 10
-0.9318474736
 20
22.5634956115
 10
-0.8903596054
 20
22.5611665517
 10
-0.8402785281
 20
22.5588899053
 10
-0.7813335503
 20
22.5566673128
 10
-0.7137953633
 20
22.5544971337
 10
-0.6386648022
 20
22.5524172075
 10
-0.4653207463
 20
22.5485349313
  0
LWPOLYLINE
  5
73C
100
AcDbEntity
  8
SMUSSO
100
AcDbPolyline
 62
7
  6
CONTINUOUS
 90
11
 70
0
 10
3.9902095205
 20
22.5728656142
 10
3.9965065861
 20
22.5705121982
 10
4.0115856221
 20
22.5681684348
 10
4.0354466287
 20
22.5658343237
 10
4.0681525264
 20
22.5634956115
 10
4.1096403946
 20
22.5611665517
 10
4.1597214719
 20
22.5588899053
 10
4.2186664497
 20
22.5566673128
 10
4.2862046367
 20
22.5544971337
 10
4.3613351978
 20
22.5524172075
 10
4.5346792537
 20
22.5485349313
  0
LINE
  5
73D
100
AcDbEntity
  8
RACCORDO
100
AcDbLine
 62
253
  6
CONTINUOUS
 10
21.1434135593
 20
8.0395579805
 11
21.2403303151
 21
7.9426412248
  0
LINE
  5
73E
100
AcDbEntity
  8
RACCORDO
100
AcDbLine
 62
253
  6
CONTINUOUS
 10
21.3433830984
 20
8.2395275196
 11
21.4402994967
 21
8.1426111212
  0
LINE
  5
73F
100
AcDbEntity
  8
SMUSSO
100
AcDbLine
 62
7
  6
CONTINUOUS
 10
8.8933678748
 20
22.6697072598
 11
8.9902095205
 21
22.5728656142
  0
LWPOLYLINE
  5
740
100
AcDbEntity
  8
RACCORDO
100
AcDbPolyline
 62
253
  6
CONTINUOUS
 90
12
 70
0
 10
21.2403303151
 20
7.9426412248
 10
21.2418532245
 20
7.9404046943
 10
21.2434364228
 20
7.9343942424
 10
21.2450799102
 20
7.9246098689
 10
21.2467866599
 20
7.9114611208
 10
21.2485536986
 20
7.8945384512
 10
21.2503721065
 20
7.8726132194
 10
21.252243936
 20
7.8457104099
 10
21.2541671348
 20
7.8138050383
 10
21.2561266263
 20
7.7755935097
 10
21.2581251114
 20
7.7310646327
 10
21.2601598893
 20
7.6802295988
  0
LINE
  5
741
100
AcDbEntity
  8
RACCORDO
100
AcDbLine
 62
253
  6
CONTINUOUS
 10
14.434040342
 20
20.2160716356
 11
14.0587099071
 21
20.8661630186
  0
LINE
  5
742
100
AcDbEntity
  8
RACCORDO
100
AcDbLine
 62
253
  6
CONTINUOUS
 10
14.6072190428
 20
20.3160564052
 11
14.2318886079
 21
20.9661477881
  0
LINE
  5
743
100
AcDbEntity
  8
RACCORDO
100
AcDbLine
 62
253
  6
CONTINUOUS
 10
15.0842059218
 20
19.6471071472
 11
14.3680418751
 21
20.8875396626
  0
LWPOLYLINE
  5
744
100
AcDbEntity
  8
RACCORDO
100
AcDbPolyline
 62
253
  6
CONTINUOUS
 90
22
 70
0
 10
14.2318886079
 20
20.9661477881
 10
14.2227270801
 20
20.9840039163
 10
14.2154106835
 20
21.0026499533
 10
14.2100025227
 20
21.0218956464
 10
14.2065473153
 20
21.0415352244
 10
14.2050653851
 20
21.0613827547
 10
14.2055639594
 20
21.0812749701
 10
14.208039915
 20
21.101027654
 10
14.2124684879
 20
21.1204327488
 10
14.2188043899
 20
21.1392945157
 10
14.2269814633
 20
21.157422546
 10
14.236918679
 20
21.1746428075
 10
14.2485230141
 20
21.1907938861
 10
14.2616843713
 20
21.2057182824
 10
14.2762712217
 20
21.2192634209
 10
14.2921372829
 20
21.2312922488
 10
14.3091140462
 20
21.2416783846
 10
14.3270444656
 20
21.2503272534
 10
14.3457870424
 20
21.2571641045
 10
14.3651720272
 20
21.2621123021
 10
14.38499768
 20
21.2651056466
 10
14.4050673087
 20
21.2661020966
  0
LWPOLYLINE
  5
745
100
AcDbEntity
  8
RACCORDO
100
AcDbPolyline
 62
253
  6
CONTINUOUS
 90
22
 70
0
 10
14.0587099071
 20
20.8661630186
 10
14.040292272
 20
20.9024718363
 10
14.0257425948
 20
20.9395932735
 10
14.0150608754
 20
20.9775273301
 10
14.008228296
 20
21.0166432455
 10
14.0052636744
 20
21.0565717802
 10
14.0062234643
 20
21.0962052163
 10
14.0112143628
 20
21.1355565322
 10
14.0201296727
 20
21.1746127494
 10
14.0327057562
 20
21.2122272138
 10
14.0490453334
 20
21.2483509513
 10
14.0690456842
 20
21.283032936
 10
14.0921350105
 20
21.3152734362
 10
14.1184106776
 20
21.3450097779
 10
14.1477753201
 20
21.3723046351
 10
14.1793650435
 20
21.3963462977
 10
14.2132191048
 20
21.4170339784
 10
14.249298247
 20
21.4344684645
 10
14.286620805
 20
21.4481404081
 10
14.3248595571
 20
21.4578800265
 10
14.364341725
 20
21.4638571023
 10
14.4050673087
 20
21.4660716356
  0
LWPOLYLINE
  5
746
100
AcDbEntity
  8
RACCORDO
100
AcDbPolyline
 62
253
  6
CONTINUOUS
 90
11
 70
0
 10
21.4402995213
 20
8.1426111212
 10
21.4418243458
 20
8.1395289938
 10
21.4434089781
 20
8.1332115572
 10
21.4450534185
 20
8.1232634606
 10
21.4467604884
 20
8.1092863747
 10
21.4485273662
 20
8.090860334
 10
21.4503455873
 20
8.0675262332
 10
21.4522173621
 20
8.0388354998
 10
21.4541404802
 20
8.0043412227
 10
21.4560998453
 20
7.9635496706
 10
21.4580981614
 20
7.9159962465
  0
LWPOLYLINE
  5
747
100
AcDbEntity
  8
RACCORDO
100
AcDbPolyline
 62
253
  6
CONTINUOUS
 90
16
 70
0
 10
14.7047552669
 20
20.2597438399
 10
14.7169655182
 20
20.2346754937
 10
14.7255691988
 20
20.2081497178
 10
14.7303989321
 20
20.1806825466
 10
14.7313607601
 20
20.1528083288
 10
14.7284359714
 20
20.1250693313
 10
14.7216814651
 20
20.0980051905
 10
14.7112286437
 20
20.0721424141
 10
14.6972808571
 20
20.0479841387
 10
14.6801094466
 20
20.0260003411
 10
14.660048466
 20
20.0066186957
 10
14.6374881831
 20
19.9902162548
 10
14.6128674876
 20
19.9771121128
 10
14.5866653523
 20
19.9675611987
 10
14.5593915156
 20
19.9617493166
 10
14.5315765648
 20
19.9597895314
  0
LWPOLYLINE
  5
748
100
AcDbEntity
  8
RACCORDO
100
AcDbPolyline
 62
253
  6
CONTINUOUS
 90
13
 70
0
 10
19.4037659272
 20
20.0267034681
 10
19.3820173426
 20
20.0327645069
 10
19.3610897782
 20
20.0412381065
 10
19.3412499622
 20
20.0520162682
 10
19.3227507589
 20
20.0649616211
 10
19.3058279462
 20
20.0799091727
 10
19.2906972104
 20
20.0966684119
 10
19.2775513973
 20
20.1150257373
 10
19.2665580542
 20
20.1347471792
 10
19.2578572946
 20
20.1555813819
 10
19.2515600123
 20
20.1772628072
 10
19.247746468
 20
20.1995151188
 10
19.2464652666
 20
20.2220547043
  0
LWPOLYLINE
  5
749
100
AcDbEntity
  8
RACCORDO
100
AcDbPolyline
 62
253
  6
CONTINUOUS
 90
12
 70
0
 10
16.8551321979
 20
20.017456226
 10
16.8478499467
 20
20.0195547727
 10
16.8426722474
 20
20.0249753543
 10
16.8388103664
 20
20.0336445488
 10
16.8344330901
 20
20.045337538
 10
16.8291811724
 20
20.0598924468
 10
16.8249204271
 20
20.0772156454
 10
16.8215935195
 20
20.0968701593
 10
16.8180898039
 20
20.1184062385
 10
16.8155319369
 20
20.1416775876
 10
16.8141666179
 20
20.1663306467
 10
16.812043753
 20
20.217425765
  0
LWPOLYLINE
  5
74A
100
AcDbEntity
  8
SMUSSO
100
AcDbPolyline
 62
7
  6
CONTINUOUS
 90
11
 70
0
 10
8.9902095205
 20
22.5728656142
 10
8.9966609385
 20
22.5704953393
 10
9.011878109
 20
22.5681395832
 10
9.035861032
 20
22.5657983456
 10
9.068669599
 20
22.5634590961
 10
9.1102439184
 20
22.5611343653
 10
9.1604043158
 20
22.5588617446
 10
9.2193562081
 20
22.5566422042
 10
9.2868941782
 20
22.554474774
 10
9.3622223005
 20
22.5523941348
 10
9.5365717678
 20
22.5484970761
  0
LINE
  5
74B
100
AcDbEntity
  8
RACCORDO
100
AcDbLine
 62
253
  6
CONTINUOUS
 10
14.5315737434
 20
19.9597911611
 11
14.434040342
 21
20.0161020966
  0
LINE
  5
74C
100
AcDbEntity
  8
RACCORDO
100
AcDbLine
 62
253
  6
CONTINUOUS
 10
14.7047552669
 20
20.2597438399
 11
14.6072190428
 21
20.3160564052
  0
LINE
  5
74D
100
AcDbEntity
  8
RACCORDO
100
AcDbLine
 62
253
  6
CONTINUOUS
 10
16.2026194736
 20
19.6471041527
 11
16.0294400946
 21
19.7470887156
  0
LWPOLYLINE
  5
74E
100
AcDbEntity
  8
RACCORDO
100
AcDbPolyline
 62
253
  6
CONTINUOUS
 90
7
 70
0
 10
14.6153921548
 20
19.8504345996
 10
14.5926765855
 20
19.8822233273
 10
14.5732850058
 20
19.908713502
 10
14.5574546166
 20
19.9297898212
 10
14.5452644851
 20
19.9453663152
 10
14.5366355442
 20
19.9553812345
 10
14.5315677939
 20
19.9597911581
  0
LINE
  5
74F
100
AcDbEntity
  8
RACCORDO
100
AcDbLine
 62
253
  6
CONTINUOUS
 10
14.6706029258
 20
19.771781819
 11
14.6153921548
 21
19.8504345996
  0
LINE
  5
750
100
AcDbEntity
  8
RACCORDO
100
AcDbLine
 62
253
  6
CONTINUOUS
 10
14.7393120015
 20
19.6722276904
 11
14.6706029258
 21
19.771781819
  0
LINE
  5
751
100
AcDbEntity
  8
RACCORDO
100
AcDbLine
 62
253
  6
CONTINUOUS
 10
14.821476678
 20
19.5517379457
 11
14.7393120015
 21
19.6722276904
  0
LINE
  5
752
100
AcDbEntity
  8
RACCORDO
100
AcDbLine
 62
253
  6
CONTINUOUS
 10
14.9692393278
 20
19.3325972431
 11
14.821476678
 21
19.5517379457
  0
LWPOLYLINE
  5
753
100
AcDbEntity
  8
RACCORDO
100
AcDbPolyline
 62
253
  6
CONTINUOUS
 90
3
 70
0
 10
15.5460720222
 20
18.460012113
 10
15.3393250974
 20
18.7756027828
 10
14.9692393278
 20
19.3325972431
  0
LWPOLYLINE
  5
754
100
AcDbEntity
  8
RACCORDO
100
AcDbPolyline
 62
253
  6
CONTINUOUS
 90
8
 70
0
 10
14.800437285
 20
20.1168251874
 10
14.7779093697
 20
20.1527474086
 10
14.7581758757
 20
20.1837495259
 10
14.7413106034
 20
20.2097135155
 10
14.7275156924
 20
20.2303262541
 10
14.7168585226
 20
20.2454833671
 10
14.7092717141
 20
20.2552892291
 10
14.7047552669
 20
20.2597438399
  0
LINE
  5
755
100
AcDbEntity
  8
RACCORDO
100
AcDbLine
 62
253
  6
CONTINUOUS
 10
14.854117042
 20
20.0298254151
 11
14.800437285
 21
20.1168251874
  0
LINE
  5
756
100
AcDbEntity
  8
RACCORDO
100
AcDbLine
 62
253
  6
CONTINUOUS
 10
14.9193809435
 20
19.9224627325
 11
14.854117042
 21
20.0298254151
  0
LWPOLYLINE
  5
757
100
AcDbEntity
  8
RACCORDO
100
AcDbPolyline
 62
253
  6
CONTINUOUS
 90
3
 70
0
 10
15.0842059218
 20
19.6471071472
 10
15.0387192087
 20
19.7235187855
 10
14.9193809435
 20
19.9224627325
  0
LINE
  5
758
100
AcDbEntity
  8
RACCORDO
100
AcDbLine
 62
253
  6
CONTINUOUS
 10
15.2573844432
 20
19.747092137
 11
14.5412205255
 21
20.9875244307
  0
LWPOLYLINE
  5
759
100
AcDbEntity
  8
RACCORDO
100
AcDbPolyline
 62
253
  6
CONTINUOUS
 90
13
 70
0
 10
16.8843040005
 20
21.26757202
 10
16.8785115463
 20
21.2696848239
 10
16.8728160457
 20
21.275110235
 10
16.8673128514
 20
21.2837574192
 10
16.8620940962
 20
21.2954816022
 10
16.8572471512
 20
21.3100864933
 10
16.8528531622
 20
21.3273275723
 10
16.848985692
 20
21.3469161828
 10
16.8457094878
 20
21.368524365
 10
16.8430793984
 20
21.391790347
 10
16.8411394547
 20
21.4163246014
 10
16.8399221336
 20
21.4417163666
 10
16.8394478135
 20
21.4675405246
  0
LINE
  5
75A
100
AcDbEntity
  8
RACCORDO
100
AcDbLine
 62
253
  6
CONTINUOUS
 10
14.3680418751
 20
20.8875396626
 11
14.2318886079
 21
20.9661477881
  0
LINE
  5
75B
100
AcDbEntity
  8
RACCORDO
100
AcDbLine
 62
253
  6
CONTINUOUS
 10
14.5412205783
 20
21.1874939697
 11
14.4050673087
 21
21.2661020966
  0
LINE
  5
75C
100
AcDbEntity
  8
RACCORDO
100
AcDbLine
 62
253
  6
CONTINUOUS
 10
16.7456065403
 20
20.9875244307
 11
16.9187852411
 21
20.8875396612
  0
LWPOLYLINE
  5
75D
100
AcDbEntity
  8
RACCORDO
100
AcDbPolyline
 62
253
  6
CONTINUOUS
 90
3
 70
0
 10
16.7583025674
 20
20.2516215573
 10
16.7936363865
 20
20.2294411191
 10
16.812043753
 20
20.217425765
  0
LWPOLYLINE
  5
75E
100
AcDbEntity
  8
RACCORDO
100
AcDbPolyline
 62
253
  6
CONTINUOUS
 90
7
 70
0
 10
16.6841840052
 20
20.3092875117
 10
16.6961661392
 20
20.2984232242
 10
16.704794084
 20
20.2904129092
 10
16.71574084
 20
20.2818692744
 10
16.7285552723
 20
20.272728549
 10
16.7425987177
 20
20.2623560351
 10
16.7583025674
 20
20.2516215573
  0
CIRCLE
  5
75F
100
AcDbEntity
  8
DRAFT
100
AcDbCircle
 62
7
  6
CONTINUOUS
 10
-23.8565864407
 20
13.2395275196
 40
1.4738174026
  0
CIRCLE
  5
760
100
AcDbEntity
  8
DRAFT
100
AcDbCircle
 62
7
  6
CONTINUOUS
 10
1.1434135593
 20
-24.7604724804
 40
1.4738174026
  0
ELLIPSE
  5
761
100
AcDbEntity
  8
0
100
AcDbEllipse
 62
7
  6
CONTINUOUS
 10
19.1431089032
 20
18.2392228635
 30
0.0
 11
-1.4146443783
 21
-1.4146443783
 31
0.0
 40
0.9996954599
 41
8.6395320906
 42
10.0982317394
  0
ELLIPSE
  5
762
100
AcDbEntity
  8
RACCORDO
100
AcDbEllipse
 62
7
  6
CONTINUOUS
 10
21.3434440249
 20
-7.960502946
 30
0.0
 11
0.1414644378
 21
-0.1414644378
 31
0.0
 40
0.9996954599
 41
2.3563467836
 42
3.9268385237
  0
ELLIPSE
  5
763
100
AcDbEntity
  8
RACCORDO
100
AcDbEllipse
 62
7
  6
CONTINUOUS
 10
19.1431089032
 20
-17.7601678244
 30
0.0
 11
-1.4146443783
 21
1.4146443783
 31
0.0
 40
0.9996954599
 41
8.6395320906
 42
10.2100238309
  0
ELLIPSE
  5
764
100
AcDbEntity
  8
RACCORDO
100
AcDbEllipse
 62
7
  6
CONTINUOUS
 10
-19.0566169063
 20
8.4395579852
 30
0.0
 11
0.1414644378
 21
-0.1414644378
 31
0.0
 40
0.9996954599
 41
-0.78524587
 42
0.7852458701
  0
ELLIPSE
  5
765
100
AcDbEntity
  8
0
100
AcDbEllipse
 62
7
  6
CONTINUOUS
 10
-16.8562817846
 20
18.2392228635
 30
0.0
 11
1.4146443783
 21
-1.4146443783
 31
0.0
 40
0.9996954599
 41
8.7513241822
 42
10.2100238309
  0
ELLIPSE
  5
766
100
AcDbEntity
  8
RACCORDO
100
AcDbEllipse
 62
7
  6
CONTINUOUS
 10
21.3434440249
 20
8.4395579852
 30
0.0
 11
0.1414644378
 21
0.1414644378
 31
0.0
 40
0.9996954599
 41
-3.9268385237
 42
-2.3563467836
  0
ELLIPSE
  5
767
100
AcDbEntity
  8
RACCORDO
100
AcDbEllipse
 62
7
  6
CONTINUOUS
 10
-19.0566169063
 20
-7.960502946
 30
0.0
 11
0.1414644378
 21
0.1414644378
 31
0.0
 40
0.9996954599
 41
-0.7852458701
 42
0.78524587
  0
ELLIPSE
  5
768
100
AcDbEntity
  8
RACCORDO
100
AcDbEllipse
 62
7
  6
CONTINUOUS
 10
-20.269311116
 20
4.6521760309
 30
0.0
 11
0.0
 21
0.5
 31
0.0
 40
0.0174550649
 41
-1.5707963268
 42
-0.0174532925
  0
ELLIPSE
  5
769
100
AcDbEntity
  8
RACCORDO
100
AcDbEllipse
 62
7
  6
CONTINUOUS
 10
-18.9438617653
 20
4.6521760309
 30
0.0
 11
0.0
 21
0.5
 31
0.0
 40
0.0174550649
 41
0.0174532925
 42
1.5707963268
  0
ELLIPSE
  5
76A
100
AcDbEntity
  8
RACCORDO
100
AcDbEllipse
 62
7
  6
CONTINUOUS
 10
-18.9438617653
 20
-4.1731209918
 30
0.0
 11
0.0
 21
0.5
 31
0.0
 40
0.0174550649
 41
-4.7123889804
 42
-3.1590459461
  0
ELLIPSE
  5
76B
100
AcDbEntity
  8
RACCORDO
100
AcDbEllipse
 62
7
  6
CONTINUOUS
 10
-20.269311116
 20
-4.1731209918
 30
0.0
 11
0.0
 21
0.5
 31
0.0
 40
0.0174550649
 41
-3.1241393611
 42
-1.5707963268
  0
ELLIPSE
  5
76C
100
AcDbEntity
  8
RACCORDO
100
AcDbEllipse
 62
7
  6
CONTINUOUS
 10
22.5561382347
 20
-4.1731209918
 30
0.0
 11
0.0
 21
0.5
 31
0.0
 40
0.0174550649
 41
-4.7123889804
 42
-3.1590459461
  0
ELLIPSE
  5
76D
100
AcDbEntity
  8
RACCORDO
100
AcDbEllipse
 62
7
  6
CONTINUOUS
 10
21.230688884
 20
-4.1731209918
 30
0.0
 11
0.0
 21
0.5
 31
0.0
 40
0.0174550649
 41
-3.1241393611
 42
-1.5707963268
  0
ELLIPSE
  5
76E
100
AcDbEntity
  8
RACCORDO
100
AcDbEllipse
 62
7
  6
CONTINUOUS
 10
21.230688884
 20
4.6521760309
 30
0.0
 11
0.0
 21
0.5
 31
0.0
 40
0.0174550649
 41
-1.5707963268
 42
-0.0174532925
  0
ELLIPSE
  5
76F
100
AcDbEntity
  8
RACCORDO
100
AcDbEllipse
 62
7
  6
CONTINUOUS
 10
22.5561382347
 20
4.6521760309
 30
0.0
 11
0.0
 21
0.5
 31
0.0
 40
0.0174550649
 41
0.0174532925
 42
1.5707963268
  0
ELLIPSE
  5
770
100
AcDbEntity
  8
RACCORDO
100
AcDbEllipse
 62
7
  6
CONTINUOUS
 10
21.3434440249
 20
8.039497054
 30
0.0
 11
-0.1414644378
 21
0.1414644378
 31
0.0
 40
0.9996954599
 41
-0.78524587
 42
0.7852458701
  0
ELLIPSE
  5
771
100
AcDbEntity
  8
RACCORDO
100
AcDbEllipse
 62
7
  6
CONTINUOUS
 10
-19.0566169063
 20
-7.5604420148
 30
0.0
 11
-0.1414644378
 21
0.1414644378
 31
0.0
 40
0.9996954599
 41
-3.9268385236
 42
-2.3563467834
  0
ELLIPSE
  5
772
100
AcDbEntity
  8
RACCORDO
100
AcDbEllipse
 62
7
  6
CONTINUOUS
 10
18.4433830937
 20
-19.5604420148
 30
0.0
 11
0.1414644378
 21
-0.1414644378
 31
0.0
 40
0.9996954599
 41
-0.7852458608
 42
0.0747198401
  0
ELLIPSE
  5
773
100
AcDbEntity
  8
RACCORDO
100
AcDbEllipse
 62
7
  6
CONTINUOUS
 10
-16.1565559751
 20
-19.5604420148
 30
0.0
 11
0.1414644378
 21
0.1414644378
 31
0.0
 40
0.9996954599
 41
-3.2163124937
 42
-2.3563467936
  0
ELLIPSE
  5
774
100
AcDbEntity
  8
RACCORDO
100
AcDbEllipse
 62
7
  6
CONTINUOUS
 10
21.3434440249
 20
-7.5604420148
 30
0.0
 11
0.1414644378
 21
0.1414644378
 31
0.0
 40
0.9996954599
 41
-3.9268385237
 42
-2.3563467836
  0
ELLIPSE
  5
775
100
AcDbEntity
  8
RACCORDO
100
AcDbEllipse
 62
7
  6
CONTINUOUS
 10
-19.0566169063
 20
8.039497054
 30
0.0
 11
0.1414644378
 21
0.1414644378
 31
0.0
 40
0.9996954599
 41
-0.7852458701
 42
0.78524587
  0
ELLIPSE
  5
776
100
AcDbEntity
  8
RACCORDO
100
AcDbEllipse
 62
7
  6
CONTINUOUS
 10
-16.8562817846
 20
18.2392228635
 30
0.0
 11
1.4146443783
 21
-1.4146443783
 31
0.0
 40
0.9996954599
 41
2.5515515866
 42
3.9268385237
  0
ELLIPSE
  5
777
100
AcDbEntity
  8
RACCORDO
100
AcDbEllipse
 62
7
  6
CONTINUOUS
 10
-16.8562817846
 20
18.2392228635
 30
0.0
 11
-1.4146443783
 21
1.4146443783
 31
0.0
 40
0.9996954599
 41
-0.6500947198
 42
-0.5900410669
  0
ELLIPSE
  5
778
100
AcDbEntity
  8
RACCORDO
100
AcDbEllipse
 62
7
  6
CONTINUOUS
 10
-17.2566169063
 20
20.319063924
 30
0.0
 11
0.1414644378
 21
-0.1414644378
 31
0.0
 40
0.9996954599
 41
5.7129695839
 42
7.0684311773
  0
ELLIPSE
  5
779
100
AcDbEntity
  8
RACCORDO
100
AcDbEllipse
 62
7
  6
CONTINUOUS
 10
-16.8562817846
 20
-17.7601678244
 30
0.0
 11
1.4146443783
 21
1.4146443783
 31
0.0
 40
0.9996954599
 41
-3.9268385237
 42
-2.3563467834
  0
ELLIPSE
  5
77A
100
AcDbEntity
  8
RACCORDO
100
AcDbEllipse
 62
7
  6
CONTINUOUS
 10
19.1431089032
 20
18.2392228635
 30
0.0
 11
1.4146443783
 21
1.4146443783
 31
0.0
 40
0.9996954599
 41
-0.7852458701
 42
0.6500947198
  0
ELLIPSE
  5
77B
100
AcDbEntity
  8
RACCORDO
100
AcDbEllipse
 62
7
  6
CONTINUOUS
 10
19.1431089032
 20
-17.7601678244
 30
0.0
 11
1.4146443783
 21
-1.4146443783
 31
0.0
 40
0.9996954599
 41
-0.7852458701
 42
0.7852458701
  0
ELLIPSE
  5
77C
100
AcDbEntity
  8
RACCORDO
100
AcDbEllipse
 62
7
  6
CONTINUOUS
 10
19.5434440249
 20
20.319063924
 30
0.0
 11
0.1414644378
 21
0.1414644378
 31
0.0
 40
0.9996954599
 41
8.6395320906
 42
9.994993684
  0
ELLIPSE
  5
77D
100
AcDbEntity
  8
RACCORDO
100
AcDbEllipse
 62
7
  6
CONTINUOUS
 10
18.8727838889
 20
-5.7430120957
 30
0.0
 11
0.5
 21
0.0
 31
0.0
 40
0.0349207695
 41
-1.5707963268
 42
-0.0174532925
  0
ELLIPSE
  5
77E
100
AcDbEntity
  8
RACCORDO
100
AcDbEllipse
 62
7
  6
CONTINUOUS
 10
18.8727838889
 20
-1.7779328652
 30
0.0
 11
0.5
 21
0.0
 31
0.0
 40
0.0349207695
 41
0.0174532925
 42
1.5707963268
  0
ELLIPSE
  5
77F
100
AcDbEntity
  8
RACCORDO
100
AcDbEllipse
 62
7
  6
CONTINUOUS
 10
-16.5859567703
 20
-1.7779328652
 30
0.0
 11
0.5
 21
0.0
 31
0.0
 40
0.0349207695
 41
1.5707963268
 42
3.1241393611
  0
ELLIPSE
  5
780
100
AcDbEntity
  8
RACCORDO
100
AcDbEllipse
 62
7
  6
CONTINUOUS
 10
-16.5859567703
 20
-5.7430120957
 30
0.0
 11
0.5
 21
-0.0
 31
0.0
 40
0.0349207695
 41
-3.1241393611
 42
-1.5707963268
  0
ELLIPSE
  5
781
100
AcDbEntity
  8
RACCORDO
100
AcDbEllipse
 62
7
  6
CONTINUOUS
 10
-16.906769304
 20
-5.3136223853
 30
0.0
 11
-0.2123905634
 21
0.2123905634
 31
0.0
 40
0.998782766
 41
2.3568034778
 42
3.9263818294
  0
ELLIPSE
  5
782
100
AcDbEntity
  8
RACCORDO
100
AcDbEllipse
 62
7
  6
CONTINUOUS
 10
-16.906769304
 20
-2.2073225756
 30
0.0
 11
0.2123905634
 21
0.2123905634
 31
0.0
 40
0.998782766
 41
-0.7847891758
 42
0.7847891758
  0
ELLIPSE
  5
783
100
AcDbEntity
  8
RACCORDO
100
AcDbEllipse
 62
7
  6
CONTINUOUS
 10
19.1935964226
 20
-5.3136223853
 30
0.0
 11
-0.2123905634
 21
-0.2123905634
 31
0.0
 40
0.998782766
 41
-0.7847891758
 42
0.7847891758
  0
ELLIPSE
  5
784
100
AcDbEntity
  8
RACCORDO
100
AcDbEllipse
 62
7
  6
CONTINUOUS
 10
19.1935964226
 20
-2.2073225756
 30
0.0
 11
0.2123905634
 21
-0.2123905634
 31
0.0
 40
0.998782766
 41
2.3568034778
 42
3.9263818294
  0
ELLIPSE
  5
785
100
AcDbEntity
  8
RACCORDO
100
AcDbEllipse
 62
7
  6
CONTINUOUS
 10
-25.9077485063
 20
15.1406895852
 30
0.0
 11
1.4159370892
 21
-1.4159370892
 31
0.0
 40
0.998782766
 41
2.3568034778
 42
3.9263818294
  0
ELLIPSE
  5
786
100
AcDbEntity
  8
RACCORDO
100
AcDbEllipse
 62
7
  6
CONTINUOUS
 10
-25.9077485063
 20
11.3383654539
 30
0.0
 11
1.4159370892
 21
1.4159370892
 31
0.0
 40
0.998782766
 41
-3.9263818294
 42
-2.3568034778
  0
ELLIPSE
  5
787
100
AcDbEntity
  8
RACCORDO
100
AcDbEllipse
 62
7
  6
CONTINUOUS
 10
3.044575625
 20
-26.8116345461
 30
0.0
 11
1.4159370892
 21
-1.4159370892
 31
0.0
 40
0.998782766
 41
-0.7847891758
 42
0.7847891758
  0
ELLIPSE
  5
788
100
AcDbEntity
  8
RACCORDO
100
AcDbEllipse
 62
7
  6
CONTINUOUS
 10
-0.7577485063
 20
-26.8116345461
 30
0.0
 11
1.4159370892
 21
1.4159370892
 31
0.0
 40
0.998782766
 41
-3.9263818294
 42
-2.3568034778
  0
ELLIPSE
  5
789
100
AcDbEntity
  8
RACCORDO
100
AcDbEllipse
 62
7
  6
CONTINUOUS
 10
-16.5565102766
 20
22.1696310958
 30
0.0
 11
0.3536610946
 21
-0.3536610946
 31
0.0
 40
0.9996954599
 41
2.3563467834
 42
3.9268385237
  0
ELLIPSE
  5
78A
100
AcDbEntity
  8
RACCORDO
100
AcDbEllipse
 62
7
  6
CONTINUOUS
 10
18.8433373953
 20
22.1696310958
 30
0.0
 11
0.3536610946
 21
0.3536610946
 31
0.0
 40
0.9996954599
 41
-0.7852458701
 42
0.7852458701
  0
ELLIPSE
  5
78B
100
AcDbEntity
  8
RACCORDO
100
AcDbEllipse
 62
7
  6
CONTINUOUS
 10
17.4499002565
 20
-20.6184363006
 30
0.0
 11
0.1790326176
 21
-0.0894890351
 31
0.0
 40
0.9992388003
 41
-1.1069659872
 42
0.4632212593
  0
ELLIPSE
  5
78C
100
AcDbEntity
  8
RACCORDO
100
AcDbEllipse
 62
7
  6
CONTINUOUS
 10
13.8369268622
 20
-20.6184363006
 30
0.0
 11
0.1790326176
 21
0.0894890351
 31
0.0
 40
0.9992388003
 41
2.6783713943
 42
4.2485586408
  0
ELLIPSE
  5
78D
100
AcDbEntity
  8
RACCORDO
100
AcDbEllipse
 62
7
  6
CONTINUOUS
 10
-17.0770769097
 20
9.3371463653
 30
0.0
 11
1.5
 21
0.0
 31
0.0
 40
0.0349207695
 41
2.3961463269
 42
3.1241393611
  0
ELLIPSE
  5
78E
100
AcDbEntity
  8
RACCORDO
100
AcDbEllipse
 62
7
  6
CONTINUOUS
 10
-2.7589675949
 20
-17.9809629495
 30
0.0
 11
0.0
 21
1.5
 31
0.0
 40
0.0349207695
 41
-3.1241393611
 42
-2.3961463269
  0
ELLIPSE
  5
78F
100
AcDbEntity
  8
RACCORDO
100
AcDbEllipse
 62
7
  6
CONTINUOUS
 10
5.0457947136
 20
-17.9809629495
 30
0.0
 11
0.0
 21
1.5
 31
0.0
 40
0.0349207695
 41
-3.8870389802
 42
-3.1590459461
  0
ELLIPSE
  5
790
100
AcDbEntity
  8
RACCORDO
100
AcDbEllipse
 62
7
  6
CONTINUOUS
 10
-17.0770769097
 20
17.1419086738
 30
0.0
 11
1.5
 21
0.0
 31
0.0
 40
0.0349207695
 41
-3.1241393611
 42
-2.3961463269
  0
ELLIPSE
  5
791
100
AcDbEntity
  8
RACCORDO
100
AcDbEllipse
 62
7
  6
CONTINUOUS
 10
19.3639040284
 20
-1.7604724804
 30
0.0
 11
1.5
 21
0.0
 31
0.0
 40
0.0349207695
 41
1.455300258
 42
1.5707963268
  0
ELLIPSE
  5
792
100
AcDbEntity
  8
RACCORDO
100
AcDbEllipse
 62
7
  6
CONTINUOUS
 10
-17.0770769097
 20
-1.7604724804
 30
0.0
 11
1.5
 21
-0.0
 31
0.0
 40
0.0349207695
 41
1.5707963268
 42
1.6862923956
  0
ELLIPSE
  5
793
100
AcDbEntity
  8
RACCORDO
100
AcDbEllipse
 62
7
  6
CONTINUOUS
 10
-17.0770769097
 20
-5.7604724804
 30
0.0
 11
1.5
 21
0.0
 31
0.0
 40
0.0349207695
 41
-1.6862923956
 42
-1.5707963268
  0
ELLIPSE
  5
794
100
AcDbEntity
  8
RACCORDO
100
AcDbEllipse
 62
7
  6
CONTINUOUS
 10
19.3639040284
 20
-5.7604724804
 30
0.0
 11
1.5
 21
0.0
 31
0.0
 40
0.0349207695
 41
-1.5707963268
 42
-1.455300258
  0
ELLIPSE
  5
795
100
AcDbEntity
  8
RACCORDO
100
AcDbEllipse
 62
7
  6
CONTINUOUS
 10
14.380985364
 20
-20.6009812357
 30
0.0
 11
0.1733105926
 21
0.1000609173
 31
0.0
 40
0.9993911978
 41
2.0946588419
 42
4.1885264653
  0
ELLIPSE
  5
796
100
AcDbEntity
  8
RACCORDO
100
AcDbEllipse
 62
7
  6
CONTINUOUS
 10
16.9058417547
 20
-20.6009812357
 30
0.0
 11
0.1733105926
 21
-0.1000609173
 31
0.0
 40
0.9993911978
 41
-1.0469338117
 42
1.0469338117
  0
ELLIPSE
  5
797
100
AcDbEntity
  8
RACCORDO
100
AcDbEllipse
 62
7
  6
CONTINUOUS
 10
-16.1065102766
 20
-17.0103963164
 30
0.0
 11
0.3536610946
 21
0.3536610946
 31
0.0
 40
0.9996954599
 41
2.3563467834
 42
3.9268385237
  0
ELLIPSE
  5
798
100
AcDbEntity
  8
RACCORDO
100
AcDbEllipse
 62
7
  6
CONTINUOUS
 10
-16.1065102766
 20
17.4894513555
 30
0.0
 11
0.3536610946
 21
-0.3536610946
 31
0.0
 40
0.9996954599
 41
2.3563467834
 42
3.9268385237
  0
ELLIPSE
  5
799
100
AcDbEntity
  8
RACCORDO
100
AcDbEllipse
 62
7
  6
CONTINUOUS
 10
18.3933373953
 20
17.4894513555
 30
0.0
 11
-0.3536610946
 21
-0.3536610946
 31
0.0
 40
0.9996954599
 41
2.3563467834
 42
3.9268385237
  0
ELLIPSE
  5
79A
100
AcDbEntity
  8
RACCORDO
100
AcDbEllipse
 62
7
  6
CONTINUOUS
 10
18.3933373953
 20
-17.0103963164
 30
0.0
 11
-0.3536610946
 21
0.3536610946
 31
0.0
 40
0.9996954599
 41
2.3563467834
 42
3.9268385237
  0
ELLIPSE
  5
79B
100
AcDbEntity
  8
RACCORDO
100
AcDbEllipse
 62
7
  6
CONTINUOUS
 10
13.8718476317
 20
-20.6009812357
 30
0.0
 11
-0.1790326176
 21
-0.0894890351
 31
0.0
 40
0.9992388003
 41
-0.4632212593
 42
1.1069659872
  0
ELLIPSE
  5
79C
100
AcDbEntity
  8
RACCORDO
100
AcDbEllipse
 62
7
  6
CONTINUOUS
 10
14.4097473415
 20
-19.7510421669
 30
0.0
 11
0.1733105926
 21
0.1000609173
 31
0.0
 40
0.9993911978
 41
-1.0469338117
 42
1.0469338117
  0
ELLIPSE
  5
79D
100
AcDbEntity
  8
RACCORDO
100
AcDbEllipse
 62
7
  6
CONTINUOUS
 10
16.8770797772
 20
-19.7510421669
 30
0.0
 11
-0.1733105926
 21
0.1000609173
 31
0.0
 40
0.9993911978
 41
-1.0469338117
 42
1.0469338117
  0
ELLIPSE
  5
79E
100
AcDbEntity
  8
RACCORDO
100
AcDbEllipse
 62
7
  6
CONTINUOUS
 10
17.414979487
 20
-20.6009812357
 30
0.0
 11
-0.1790326176
 21
0.0894890351
 31
0.0
 40
0.9992388003
 41
2.0346266664
 42
3.6048139129
  0
ELLIPSE
  5
79F
100
AcDbEntity
  8
RACCORDO
100
AcDbEllipse
 62
7
  6
CONTINUOUS
 10
-16.1100012896
 20
17.4929423685
 30
0.0
 11
0.3536610946
 21
-0.3536610946
 31
0.0
 40
0.9996954599
 41
2.3563467834
 42
3.9268385237
  0
ELLIPSE
  5
7A0
100
AcDbEntity
  8
RACCORDO
100
AcDbEllipse
 62
7
  6
CONTINUOUS
 10
18.3968284083
 20
17.4929423685
 30
0.0
 11
0.3536610946
 21
0.3536610946
 31
0.0
 40
0.9996954599
 41
-0.7852458701
 42
0.7852458701
  0
ELLIPSE
  5
7A1
100
AcDbEntity
  8
RACCORDO
100
AcDbEllipse
 62
7
  6
CONTINUOUS
 10
18.3968284083
 20
-17.0138873294
 30
0.0
 11
-0.3536610946
 21
0.3536610946
 31
0.0
 40
0.9996954599
 41
-3.9268385237
 42
-2.3563467834
  0
ELLIPSE
  5
7A2
100
AcDbEntity
  8
RACCORDO
100
AcDbEllipse
 62
7
  6
CONTINUOUS
 10
-16.1100012896
 20
-17.0138873294
 30
0.0
 11
0.3536610946
 21
0.3536610946
 31
0.0
 40
0.9996954599
 41
2.3563467834
 42
3.9268385237
  0
ELLIPSE
  5
7A3
100
AcDbEntity
  8
RACCORDO
100
AcDbEllipse
 62
7
  6
CONTINUOUS
 10
-18.765820103
 20
-4.0757831104
 30
0.0
 11
0.0
 21
0.3
 31
0.0
 40
0.0174550649
 41
-3.089232776
 42
-1.5707963268
  0
ELLIPSE
  5
7A4
100
AcDbEntity
  8
RACCORDO
100
AcDbEllipse
 62
7
  6
CONTINUOUS
 10
-18.765820103
 20
4.5548381495
 30
0.0
 11
0.0
 21
0.3
 31
0.0
 40
0.0174550649
 41
-1.5707963268
 42
-0.0523598776
  0
ELLIPSE
  5
7A5
100
AcDbEntity
  8
RACCORDO
100
AcDbEllipse
 62
7
  6
CONTINUOUS
 10
21.0526472217
 20
4.5548381495
 30
0.0
 11
0.0
 21
0.3
 31
0.0
 40
0.0174550649
 41
0.0523598776
 42
1.5707963268
  0
ELLIPSE
  5
7A6
100
AcDbEntity
  8
RACCORDO
100
AcDbEllipse
 62
7
  6
CONTINUOUS
 10
21.0526472217
 20
-4.0757831104
 30
0.0
 11
-0.0
 21
0.3
 31
0.0
 40
0.0174550649
 41
-4.7123889804
 42
-3.1939525312
  0
ENDSEC
  0
SECTION
  2
OBJECTS
  0
DICTIONARY
  5
C
100
AcDbDictionary
280
0
281
1
  3
ACAD_GROUP
350
D
  3
ACAD_MLINESTYLE
350
17
  3
ACAD_LAYOUT
350
1A
  3
ACAD_PLOTSETTINGS
350
19
  3
ACAD_PLOTSTYLENAME
350
E
  0
DICTIONARY
  5
D
102
{ACAD_REACTORS
330
C
102
}
100
AcDbDictionary
280
0
281
1
  0
ACDBDICTIONARYWDFLT
  5
E
102
{ACAD_REACTORS
330
C
102
}
100
AcDbDictionary
281
1
  3
Normal
350
F
100
AcDbDictionaryWithDefault
340
F
  0
DICTIONARY
  5
17
102
{ACAD_REACTORS
330
C
102
}
100
AcDbDictionary
280
0
281
1
  3
Standard
350
18
  0
DICTIONARY
  5
19
102
{ACAD_REACTORS
330
C
102
}
100
AcDbDictionary
281
1
  0
DICTIONARY
  5
1A
102
{ACAD_REACTORS
330
C
102
}
100
AcDbDictionary
281
1
  3
Model
350
7A7
  3
Layout1
350
7A8
  0
ACDBPLACEHOLDER
  5
F
102
{ACAD_REACTORS
330
E
102
}
  0
MLINESTYLE
  5
18
102
{ACAD_REACTORS
330
17
102
}
100
AcDbMlineStyle
  2
STANDARD
 70
0
  3

 62
256
 51
90.0
 52
90.0
 71
2
 49
0.5
 62
256
  6
BYLAYER
 49
-0.5
 62
256
  6
BYLAYER
  0
LAYOUT
  5
7A7
102
{ACAD_REACTORS
330
1A
102
}
100
AcDbPlotSettings
  1

  2
none_device
  4
ISO_A4_(297.00_x_210.00_MM)
  6

 40
0.0
 41
0.0
 42
0.0
 43
0.0
 44
297.0
 45
210.0
 46
0.0
 47
0.0
 48
0.0
 49
0.0
140
0.0
141
0.0
142
1.0
143
1.0
 70
1024
 72
1
 73
0
 74
0
  7

 75
0
147
1.0
148
0.0
149
0.0
100
AcDbLayout
  1
Model
 70
0
 71
0
 10
0.0
 20
0.0
 11
297.0
 21
210.0
 12
0.0
 22
0.0
 32
0.0
 14
0.0
 24
0.0
 34
0.0
 15
0.0
 25
0.0
 35
0.0
146
0.0
 13
0.0
 23
0.0
 33
0.0
 16
1.0
 26
0.0
 36
0.0
 17
0.0
 27
1.0
 37
0.0
 76
0
330
3A9
345
0
346
0
  0
LAYOUT
  5
7A8
102
{ACAD_REACTORS
330
1A
102
}
100
AcDbPlotSettings
  1

  2
none_device
  4
ISO_A4_(297.00_x_210.00_MM)
  6

 40
0.0
 41
0.0
 42
0.0
 43
0.0
 44
297.0
 45
210.0
 46
0.0
 47
0.0
 48
0.0
 49
0.0
140
0.0
141
0.0
142
1.0
143
1.0
 70
0
 72
1
 73
0
 74
0
  7

 75
0
147
1.0
148
0.0
149
0.0
100
AcDbLayout
  1
Layout1
 70
0
 71
1
 10
0.0
 20
0.0
 11
297.0
 21
210.0
 12
0.0
 22
0.0
 32
0.0
 14
0.0
 24
0.0
 34
0.0
 15
0.0
 25
0.0
 35
0.0
146
0.0
 13
0.0
 23
0.0
 33
0.0
 16
1.0
 26
0.0
 36
0.0
 17
0.0
 27
1.0
 37
0.0
 76
0
330
3AA
345
0
346
0
  0
ENDSEC
  0
EOF
