  0
SECTION
  2
HEADER
  9
$ACADVER
  1
AC1015
  9
$DWGCODEPAGE
  3
ANSI_1252
  9
$EXTMAX
 10
297.0
 20
210.0
 30
0.0
  9
$EXTMIN
 10
0.0
 20
0.0
 30
0.0
  9
$LIMMIN
 10
0.0
 20
0.0
  9
$LIMMAX
 10
297.0
 20
210.0
  9
$VIEWCTR
 10
148.5
 20
105.0
  9
$VIEWSIZE
 40
210.0
  9
$CLAYER
  8
0
  9
$LTSCALE
 40
16.335
  9
$CELTYPE
  6
BYLAYER
  9
$DIMSCALE
 40
1.0
  9
$DIMASZ
 40
3.0
  9
$DIMEXO
 40
0.5
  9
$DIMDLI
 40
11.286
  9
$DIMEXE
 40
1.5
  9
$DIMCEN
 40
2.673
  9
$DIMLFAC
 40
1.0
  9
$DIMBLK
  1
_FILLED
  9
$DIMTXT
 40
3.0
  9
$DIMTOL
 70
1
  9
$DIMLIM
 70
0
  9
$DIMTFAC
 40
1.0
  9
$DIMTP
 40
0.01
  9
$DIMTM
 40
0.01
  9
$DIMGAP
 40
0.625
  9
$DIMDSEP
 70
44
  9
$PDMODE
 70
3
  9
$PDSIZE
 40
3.0
  9
$HANDSEED
  5
515
  9
$TILEMODE
 70
1
  9
$MEASUREMENT
 70
1
  9
$INSUNITS
 70
4
  0
ENDSEC
  0
SECTION
  2
CLASSES
  0
CLASS
  1
ACDBDICTIONARYWDFLT
  2
AcDbDictionaryWithDefault
  3
AutoCAD 2000
 90
0
280
0
281
0
  0
CLASS
  1
ACDBPLACEHOLDER
  2
AcDbPlaceHolder
  3
AutoCAD 2000
 90
0
280
0
281
0
  0
CLASS
  1
LAYOUT
  2
AcDbLayout
  3
AutoCAD 2000
 90
0
280
0
281
0
  0
ENDSEC
  0
SECTION
  2
TABLES
  0
TABLE
  2
VPORT
  5
8
100
AcDbSymbolTable
 70
2
  0
VPORT
  5
1F4
100
AcDbSymbolTableRecord
100
AcDbViewportTableRecord
  2
*ACTIVE
 70
0
 10
0.0
 20
0.0
 11
1.0
 21
1.0
 12
148.5
 22
105.0
 13
0.0
 23
0.0
 14
1.0
 24
1.0
 15
0.0
 25
0.0
 16
0.0
 26
0.0
 36
1.0
 17
0.0
 27
0.0
 37
0.0
 40
210.0
 41
1.4142857143
 42
50.0
 43
0.0
 44
0.0
 50
0.0
 51
0.0
 71
0
 72
100
 73
1
 74
1
 75
0
 76
0
 77
0
 78
0
  0
ENDTAB
  0
TABLE
  2
LTYPE
  5
5
100
AcDbSymbolTable
 70
6
  0
LTYPE
  5
14
100
AcDbSymbolTableRecord
100
AcDbLinetypeTableRecord
  2
BYBLOCK
 70
0
  3

 72
65
 73
0
 40
0.0
  0
LTYPE
  5
15
100
AcDbSymbolTableRecord
100
AcDbLinetypeTableRecord
  2
BYLAYER
 70
0
  3

 72
65
 73
0
 40
0.0
  0
LTYPE
  5
16
100
AcDbSymbolTableRecord
100
AcDbLinetypeTableRecord
  2
CONTINUOUS
 70
64
  3
Solid line
 72
65
 73
0
 40
0.0
  0
LTYPE
  5
1F5
100
AcDbSymbolTableRecord
100
AcDbLinetypeTableRecord
  2
CENTER
 70
64
  3
____ _ ____ _ ____ _ ____ _ ____ _ ____ _ ____
 72
65
 73
4
 40
0.6
 49
0.375
 74
0
 49
-0.075
 74
0
 49
0.075
 74
0
 49
-0.075
 74
0
  0
LTYPE
  5
1F6
100
AcDbSymbolTableRecord
100
AcDbLinetypeTableRecord
  2
HIDDEN
 70
64
  3
- - - - - - - - - - - - - - - - - - - -
 72
65
 73
2
 40
0.2
 49
0.1
 74
0
 49
-0.1
 74
0
  0
LTYPE
  5
1F7
100
AcDbSymbolTableRecord
100
AcDbLinetypeTableRecord
  2
PHANTOM
 70
64
  3
_____ _ _ _____ _ _ _____ _ _ _____
 72
65
 73
6
 40
0.8
 49
0.45
 74
0
 49
-0.05
 74
0
 49
0.1
 74
0
 49
-0.05
 74
0
 49
0.1
 74
0
 49
-0.05
 74
0
  0
LTYPE
  5
1F8
100
AcDbSymbolTableRecord
100
AcDbLinetypeTableRecord
  2
DOT
 70
64
  3
. . . . . . . . . . . . . . . . . . . .
 72
65
 73
2
 40
0.2
 49
0.1
 74
0
 49
-0.1
 74
0
  0
LTYPE
  5
1F9
100
AcDbSymbolTableRecord
100
AcDbLinetypeTableRecord
  2
DASHED
 70
64
  3
- - - - - - - - - - - - - - - - - - - -
 72
65
 73
2
 40
0.2
 49
0.1
 74
0
 49
-0.1
 74
0
  0
ENDTAB
  0
TABLE
  2
LAYER
  5
2
100
AcDbSymbolTable
 70
36
  0
LAYER
  5
10
100
AcDbSymbolTableRecord
100
AcDbLayerTableRecord
  2
0
 70
0
 62
7
  6
CONTINUOUS
370
-3
390
F
  0
LAYER
  5
1FA
100
AcDbSymbolTableRecord
100
AcDbLayerTableRecord
  2
DEFAULT_1
 70
0
 62
7
  6
CENTER
370
-3
390
F
  0
LAYER
  5
1FB
100
AcDbSymbolTableRecord
100
AcDbLayerTableRecord
  2
DEFAULT_2
 70
0
 62
7
  6
HIDDEN
370
-3
390
F
  0
LAYER
  5
1FC
100
AcDbSymbolTableRecord
100
AcDbLayerTableRecord
  2
DEFAULT_3
 70
0
 62
7
  6
PHANTOM
370
-3
390
F
  0
LAYER
  5
1FD
100
AcDbSymbolTableRecord
100
AcDbLayerTableRecord
  2
201A_260000
 70
0
 62
7
  6
CONTINUOUS
370
-3
390
F
  0
LAYER
  5
1FE
100
AcDbSymbolTableRecord
100
AcDbLayerTableRecord
  2
2125-CC-RF-VIMAR_65000
 70
0
 62
7
  6
CONTINUOUS
370
-3
390
F
  0
LAYER
  5
1FF
100
AcDbSymbolTableRecord
100
AcDbLayerTableRecord
  2
2125-CC-RF-VIMAR_65000_1
 70
0
 62
7
  6
CONTINUOUS
370
-3
390
F
  0
LAYER
  5
200
100
AcDbSymbolTableRecord
100
AcDbLayerTableRecord
  2
2125-CC-RF-VIMAR_65000_10
 70
0
 62
7
  6
CONTINUOUS
370
-3
390
F
  0
LAYER
  5
201
100
AcDbSymbolTableRecord
100
AcDbLayerTableRecord
  2
2125-CC-RF-VIMAR_65000_11
 70
0
 62
7
  6
CONTINUOUS
370
-3
390
F
  0
LAYER
  5
202
100
AcDbSymbolTableRecord
100
AcDbLayerTableRecord
  2
2125-CC-RF-VIMAR_65000_2
 70
0
 62
7
  6
CONTINUOUS
370
-3
390
F
  0
LAYER
  5
203
100
AcDbSymbolTableRecord
100
AcDbLayerTableRecord
  2
2125-CC-RF-VIMAR_65000_3
 70
0
 62
7
  6
CONTINUOUS
370
-3
390
F
  0
LAYER
  5
204
100
AcDbSymbolTableRecord
100
AcDbLayerTableRecord
  2
2125-CC-RF-VIMAR_65000_4
 70
0
 62
7
  6
CONTINUOUS
370
-3
390
F
  0
LAYER
  5
205
100
AcDbSymbolTableRecord
100
AcDbLayerTableRecord
  2
2125-CC-RF-VIMAR_65000_5
 70
0
 62
7
  6
CONTINUOUS
370
-3
390
F
  0
LAYER
  5
206
100
AcDbSymbolTableRecord
100
AcDbLayerTableRecord
  2
2125-CC-RF-VIMAR_65000_6
 70
0
 62
7
  6
CONTINUOUS
370
-3
390
F
  0
LAYER
  5
207
100
AcDbSymbolTableRecord
100
AcDbLayerTableRecord
  2
2125-CC-RF-VIMAR_65000_7
 70
0
 62
7
  6
CONTINUOUS
370
-3
390
F
  0
LAYER
  5
208
100
AcDbSymbolTableRecord
100
AcDbLayerTableRecord
  2
2125-CC-RF-VIMAR_65000_8
 70
0
 62
7
  6
CONTINUOUS
370
-3
390
F
  0
LAYER
  5
209
100
AcDbSymbolTableRecord
100
AcDbLayerTableRecord
  2
2125-CC-RF-VIMAR_65000_9
 70
0
 62
7
  6
CONTINUOUS
370
-3
390
F
  0
LAYER
  5
20A
100
AcDbSymbolTableRecord
100
AcDbLayerTableRecord
  2
2125-R1-RF-VIMAR_60000
 70
0
 62
7
  6
CONTINUOUS
370
-3
390
F
  0
LAYER
  5
20B
100
AcDbSymbolTableRecord
100
AcDbLayerTableRecord
  2
2125-R1-RF-VIMAR_60000_1
 70
0
 62
7
  6
CONTINUOUS
370
-3
390
F
  0
LAYER
  5
20C
100
AcDbSymbolTableRecord
100
AcDbLayerTableRecord
  2
2125-R1-RF-VIMAR_60000_10
 70
0
 62
7
  6
CONTINUOUS
370
-3
390
F
  0
LAYER
  5
20D
100
AcDbSymbolTableRecord
100
AcDbLayerTableRecord
  2
2125-R1-RF-VIMAR_60000_11
 70
0
 62
7
  6
CONTINUOUS
370
-3
390
F
  0
LAYER
  5
20E
100
AcDbSymbolTableRecord
100
AcDbLayerTableRecord
  2
2125-R1-RF-VIMAR_60000_12
 70
0
 62
7
  6
CONTINUOUS
370
-3
390
F
  0
LAYER
  5
20F
100
AcDbSymbolTableRecord
100
AcDbLayerTableRecord
  2
2125-R1-RF-VIMAR_60000_13
 70
0
 62
7
  6
CONTINUOUS
370
-3
390
F
  0
LAYER
  5
210
100
AcDbSymbolTableRecord
100
AcDbLayerTableRecord
  2
2125-R1-RF-VIMAR_60000_14
 70
0
 62
7
  6
CONTINUOUS
370
-3
390
F
  0
LAYER
  5
211
100
AcDbSymbolTableRecord
100
AcDbLayerTableRecord
  2
2125-R1-RF-VIMAR_60000_15
 70
0
 62
7
  6
CONTINUOUS
370
-3
390
F
  0
LAYER
  5
212
100
AcDbSymbolTableRecord
100
AcDbLayerTableRecord
  2
2125-R1-RF-VIMAR_60000_16
 70
0
 62
7
  6
CONTINUOUS
370
-3
390
F
  0
LAYER
  5
213
100
AcDbSymbolTableRecord
100
AcDbLayerTableRecord
  2
2125-R1-RF-VIMAR_60000_17
 70
0
 62
7
  6
CONTINUOUS
370
-3
390
F
  0
LAYER
  5
214
100
AcDbSymbolTableRecord
100
AcDbLayerTableRecord
  2
2125-R1-RF-VIMAR_60000_18
 70
0
 62
7
  6
CONTINUOUS
370
-3
390
F
  0
LAYER
  5
215
100
AcDbSymbolTableRecord
100
AcDbLayerTableRecord
  2
2125-R1-RF-VIMAR_60000_19
 70
0
 62
7
  6
CONTINUOUS
370
-3
390
F
  0
LAYER
  5
216
100
AcDbSymbolTableRecord
100
AcDbLayerTableRecord
  2
2125-R1-RF-VIMAR_60000_2
 70
0
 62
7
  6
CONTINUOUS
370
-3
390
F
  0
LAYER
  5
217
100
AcDbSymbolTableRecord
100
AcDbLayerTableRecord
  2
2125-R1-RF-VIMAR_60000_20
 70
0
 62
7
  6
CONTINUOUS
370
-3
390
F
  0
LAYER
  5
218
100
AcDbSymbolTableRecord
100
AcDbLayerTableRecord
  2
2125-R1-RF-VIMAR_60000_21
 70
0
 62
7
  6
CONTINUOUS
370
-3
390
F
  0
LAYER
  5
219
100
AcDbSymbolTableRecord
100
AcDbLayerTableRecord
  2
2125-R1-RF-VIMAR_60000_22
 70
0
 62
7
  6
CONTINUOUS
370
-3
390
F
  0
LAYER
  5
21A
100
AcDbSymbolTableRecord
100
AcDbLayerTableRecord
  2
2125-R1-RF-VIMAR_60000_23
 70
0
 62
7
  6
CONTINUOUS
370
-3
390
F
  0
LAYER
  5
21B
100
AcDbSymbolTableRecord
100
AcDbLayerTableRecord
  2
2125-R1-RF-VIMAR_60000_24
 70
0
 62
7
  6
CONTINUOUS
370
-3
390
F
  0
LAYER
  5
21C
100
AcDbSymbolTableRecord
100
AcDbLayerTableRecord
  2
2125-R1-RF-VIMAR_60000_25
 70
0
 62
7
  6
CONTINUOUS
370
-3
390
F
  0
LAYER
  5
21D
100
AcDbSymbolTableRecord
100
AcDbLayerTableRecord
  2
2125-R1-RF-VIMAR_60000_26
 70
0
 62
7
  6
CONTINUOUS
370
-3
390
F
  0
LAYER
  5
21E
100
AcDbSymbolTableRecord
100
AcDbLayerTableRecord
  2
2125-R1-RF-VIMAR_60000_27
 70
0
 62
7
  6
CONTINUOUS
370
-3
390
F
  0
LAYER
  5
21F
100
AcDbSymbolTableRecord
100
AcDbLayerTableRecord
  2
2125-R1-RF-VIMAR_60000_28
 70
0
 62
7
  6
CONTINUOUS
370
-3
390
F
  0
LAYER
  5
220
100
AcDbSymbolTableRecord
100
AcDbLayerTableRecord
  2
2125-R1-RF-VIMAR_60000_29
 70
0
 62
7
  6
CONTINUOUS
370
-3
390
F
  0
LAYER
  5
221
100
AcDbSymbolTableRecord
100
AcDbLayerTableRecord
  2
2125-R1-RF-VIMAR_60000_3
 70
0
 62
7
  6
CONTINUOUS
370
-3
390
F
  0
LAYER
  5
222
100
AcDbSymbolTableRecord
100
AcDbLayerTableRecord
  2
2125-R1-RF-VIMAR_60000_30
 70
0
 62
7
  6
CONTINUOUS
370
-3
390
F
  0
LAYER
  5
223
100
AcDbSymbolTableRecord
100
AcDbLayerTableRecord
  2
2125-R1-RF-VIMAR_60000_31
 70
0
 62
7
  6
CONTINUOUS
370
-3
390
F
  0
LAYER
  5
224
100
AcDbSymbolTableRecord
100
AcDbLayerTableRecord
  2
2125-R1-RF-VIMAR_60000_32
 70
0
 62
7
  6
CONTINUOUS
370
-3
390
F
  0
LAYER
  5
225
100
AcDbSymbolTableRecord
100
AcDbLayerTableRecord
  2
2125-R1-RF-VIMAR_60000_33
 70
0
 62
7
  6
CONTINUOUS
370
-3
390
F
  0
LAYER
  5
226
100
AcDbSymbolTableRecord
100
AcDbLayerTableRecord
  2
2125-R1-RF-VIMAR_60000_34
 70
0
 62
7
  6
CONTINUOUS
370
-3
390
F
  0
LAYER
  5
227
100
AcDbSymbolTableRecord
100
AcDbLayerTableRecord
  2
2125-R1-RF-VIMAR_60000_35
 70
0
 62
7
  6
CONTINUOUS
370
-3
390
F
  0
LAYER
  5
228
100
AcDbSymbolTableRecord
100
AcDbLayerTableRecord
  2
2125-R1-RF-VIMAR_60000_36
 70
0
 62
7
  6
CONTINUOUS
370
-3
390
F
  0
LAYER
  5
229
100
AcDbSymbolTableRecord
100
AcDbLayerTableRecord
  2
2125-R1-RF-VIMAR_60000_37
 70
0
 62
7
  6
CONTINUOUS
370
-3
390
F
  0
LAYER
  5
22A
100
AcDbSymbolTableRecord
100
AcDbLayerTableRecord
  2
2125-R1-RF-VIMAR_60000_38
 70
0
 62
7
  6
CONTINUOUS
370
-3
390
F
  0
LAYER
  5
22B
100
AcDbSymbolTableRecord
100
AcDbLayerTableRecord
  2
2125-R1-RF-VIMAR_60000_39
 70
0
 62
7
  6
CONTINUOUS
370
-3
390
F
  0
LAYER
  5
22C
100
AcDbSymbolTableRecord
100
AcDbLayerTableRecord
  2
2125-R1-RF-VIMAR_60000_4
 70
0
 62
7
  6
CONTINUOUS
370
-3
390
F
  0
LAYER
  5
22D
100
AcDbSymbolTableRecord
100
AcDbLayerTableRecord
  2
2125-R1-RF-VIMAR_60000_40
 70
0
 62
7
  6
CONTINUOUS
370
-3
390
F
  0
LAYER
  5
22E
100
AcDbSymbolTableRecord
100
AcDbLayerTableRecord
  2
2125-R1-RF-VIMAR_60000_41
 70
0
 62
7
  6
CONTINUOUS
370
-3
390
F
  0
LAYER
  5
22F
100
AcDbSymbolTableRecord
100
AcDbLayerTableRecord
  2
2125-R1-RF-VIMAR_60000_42
 70
0
 62
7
  6
CONTINUOUS
370
-3
390
F
  0
LAYER
  5
230
100
AcDbSymbolTableRecord
100
AcDbLayerTableRecord
  2
2125-R1-RF-VIMAR_60000_43
 70
0
 62
7
  6
CONTINUOUS
370
-3
390
F
  0
LAYER
  5
231
100
AcDbSymbolTableRecord
100
AcDbLayerTableRecord
  2
2125-R1-RF-VIMAR_60000_44
 70
0
 62
7
  6
CONTINUOUS
370
-3
390
F
  0
LAYER
  5
232
100
AcDbSymbolTableRecord
100
AcDbLayerTableRecord
  2
2125-R1-RF-VIMAR_60000_45
 70
0
 62
7
  6
CONTINUOUS
370
-3
390
F
  0
LAYER
  5
233
100
AcDbSymbolTableRecord
100
AcDbLayerTableRecord
  2
2125-R1-RF-VIMAR_60000_46
 70
0
 62
7
  6
CONTINUOUS
370
-3
390
F
  0
LAYER
  5
234
100
AcDbSymbolTableRecord
100
AcDbLayerTableRecord
  2
2125-R1-RF-VIMAR_60000_47
 70
0
 62
7
  6
CONTINUOUS
370
-3
390
F
  0
LAYER
  5
235
100
AcDbSymbolTableRecord
100
AcDbLayerTableRecord
  2
2125-R1-RF-VIMAR_60000_48
 70
0
 62
7
  6
CONTINUOUS
370
-3
390
F
  0
LAYER
  5
236
100
AcDbSymbolTableRecord
100
AcDbLayerTableRecord
  2
2125-R1-RF-VIMAR_60000_49
 70
0
 62
7
  6
CONTINUOUS
370
-3
390
F
  0
LAYER
  5
237
100
AcDbSymbolTableRecord
100
AcDbLayerTableRecord
  2
2125-R1-RF-VIMAR_60000_5
 70
0
 62
7
  6
CONTINUOUS
370
-3
390
F
  0
LAYER
  5
238
100
AcDbSymbolTableRecord
100
AcDbLayerTableRecord
  2
2125-R1-RF-VIMAR_60000_50
 70
0
 62
7
  6
CONTINUOUS
370
-3
390
F
  0
LAYER
  5
239
100
AcDbSymbolTableRecord
100
AcDbLayerTableRecord
  2
2125-R1-RF-VIMAR_60000_51
 70
0
 62
7
  6
CONTINUOUS
370
-3
390
F
  0
LAYER
  5
23A
100
AcDbSymbolTableRecord
100
AcDbLayerTableRecord
  2
2125-R1-RF-VIMAR_60000_52
 70
0
 62
7
  6
CONTINUOUS
370
-3
390
F
  0
LAYER
  5
23B
100
AcDbSymbolTableRecord
100
AcDbLayerTableRecord
  2
2125-R1-RF-VIMAR_60000_6
 70
0
 62
7
  6
CONTINUOUS
370
-3
390
F
  0
LAYER
  5
23C
100
AcDbSymbolTableRecord
100
AcDbLayerTableRecord
  2
2125-R1-RF-VIMAR_60000_7
 70
0
 62
7
  6
CONTINUOUS
370
-3
390
F
  0
LAYER
  5
23D
100
AcDbSymbolTableRecord
100
AcDbLayerTableRecord
  2
2125-R1-RF-VIMAR_60000_8
 70
0
 62
7
  6
CONTINUOUS
370
-3
390
F
  0
LAYER
  5
23E
100
AcDbSymbolTableRecord
100
AcDbLayerTableRecord
  2
2125-R1-RF-VIMAR_60000_9
 70
0
 62
7
  6
CONTINUOUS
370
-3
390
F
  0
LAYER
  5
23F
100
AcDbSymbolTableRecord
100
AcDbLayerTableRecord
  2
3216-CF-RF-1-VIMAR_180000
 70
0
 62
7
  6
CONTINUOUS
370
-3
390
F
  0
LAYER
  5
240
100
AcDbSymbolTableRecord
100
AcDbLayerTableRecord
  2
3216-CF-RF-1-VIMAR_180000_1
 70
0
 62
7
  6
CONTINUOUS
370
-3
390
F
  0
LAYER
  5
241
100
AcDbSymbolTableRecord
100
AcDbLayerTableRecord
  2
3216-CF-RF-VIMAR_100000
 70
0
 62
7
  6
CONTINUOUS
370
-3
390
F
  0
LAYER
  5
242
100
AcDbSymbolTableRecord
100
AcDbLayerTableRecord
  2
3216-CF-RF-VIMAR_100000_1
 70
0
 62
7
  6
CONTINUOUS
370
-3
390
F
  0
LAYER
  5
243
100
AcDbSymbolTableRecord
100
AcDbLayerTableRecord
  2
3216-CF-RF-VIMAR_100000_2
 70
0
 62
7
  6
CONTINUOUS
370
-3
390
F
  0
LAYER
  5
244
100
AcDbSymbolTableRecord
100
AcDbLayerTableRecord
  2
3216-CF-RF-VIMAR_100000_3
 70
0
 62
7
  6
CONTINUOUS
370
-3
390
F
  0
LAYER
  5
245
100
AcDbSymbolTableRecord
100
AcDbLayerTableRecord
  2
3216-CF-RF-VIMAR_100000_4
 70
0
 62
7
  6
CONTINUOUS
370
-3
390
F
  0
LAYER
  5
246
100
AcDbSymbolTableRecord
100
AcDbLayerTableRecord
  2
3216-CS2-RF_1_180000
 70
0
 62
7
  6
CONTINUOUS
370
-3
390
F
  0
LAYER
  5
247
100
AcDbSymbolTableRecord
100
AcDbLayerTableRecord
  2
3225-CF1-RF-VIMAR_260000
 70
0
 62
7
  6
CONTINUOUS
370
-3
390
F
  0
LAYER
  5
248
100
AcDbSymbolTableRecord
100
AcDbLayerTableRecord
  2
43000558A0
 70
0
 62
7
  6
CONTINUOUS
370
-3
390
F
  0
LAYER
  5
249
100
AcDbSymbolTableRecord
100
AcDbLayerTableRecord
  2
435120890
 70
0
 62
7
  6
CONTINUOUS
370
-3
390
F
  0
LAYER
  5
24A
100
AcDbSymbolTableRecord
100
AcDbLayerTableRecord
  2
5750-CC-RF-VIMAR_200000
 70
0
 62
7
  6
CONTINUOUS
370
-3
390
F
  0
LAYER
  5
24B
100
AcDbSymbolTableRecord
100
AcDbLayerTableRecord
  2
6032-CS-RF_280000
 70
0
 62
7
  6
CONTINUOUS
370
-3
390
F
  0
LAYER
  5
24C
100
AcDbSymbolTableRecord
100
AcDbLayerTableRecord
  2
6032-CS-RF_280000_1
 70
0
 62
7
  6
CONTINUOUS
370
-3
390
F
  0
LAYER
  5
24D
100
AcDbSymbolTableRecord
100
AcDbLayerTableRecord
  2
7343-CS3-RF_430000
 70
0
 62
7
  6
CONTINUOUS
370
-3
390
F
  0
LAYER
  5
24E
100
AcDbSymbolTableRecord
100
AcDbLayerTableRecord
  2
ASSI
 70
0
 62
7
  6
CONTINUOUS
370
-3
390
F
  0
LAYER
  5
24F
100
AcDbSymbolTableRecord
100
AcDbLayerTableRecord
  2
AX-R100-2-VIMAR_230000
 70
0
 62
7
  6
CONTINUOUS
370
-3
390
F
  0
LAYER
  5
250
100
AcDbSymbolTableRecord
100
AcDbLayerTableRecord
  2
AX-R125-3-VIMAR_280000
 70
0
 62
7
  6
CONTINUOUS
370
-3
390
F
  0
LAYER
  5
251
100
AcDbSymbolTableRecord
100
AcDbLayerTableRecord
  2
CAPC1005X60N_60000
 70
0
 62
7
  6
CONTINUOUS
370
-3
390
F
  0
LAYER
  5
252
100
AcDbSymbolTableRecord
100
AcDbLayerTableRecord
  2
CAPC1608N_80000
 70
0
 62
7
  6
CONTINUOUS
370
-3
390
F
  0
LAYER
  5
253
100
AcDbSymbolTableRecord
100
AcDbLayerTableRecord
  2
CAPC1608N_80000_1
 70
0
 62
7
  6
CONTINUOUS
370
-3
390
F
  0
LAYER
  5
254
100
AcDbSymbolTableRecord
100
AcDbLayerTableRecord
  2
CAPC1608N_80000_10
 70
0
 62
7
  6
CONTINUOUS
370
-3
390
F
  0
LAYER
  5
255
100
AcDbSymbolTableRecord
100
AcDbLayerTableRecord
  2
CAPC1608N_80000_11
 70
0
 62
7
  6
CONTINUOUS
370
-3
390
F
  0
LAYER
  5
256
100
AcDbSymbolTableRecord
100
AcDbLayerTableRecord
  2
CAPC1608N_80000_12
 70
0
 62
7
  6
CONTINUOUS
370
-3
390
F
  0
LAYER
  5
257
100
AcDbSymbolTableRecord
100
AcDbLayerTableRecord
  2
CAPC1608N_80000_13
 70
0
 62
7
  6
CONTINUOUS
370
-3
390
F
  0
LAYER
  5
258
100
AcDbSymbolTableRecord
100
AcDbLayerTableRecord
  2
CAPC1608N_80000_14
 70
0
 62
7
  6
CONTINUOUS
370
-3
390
F
  0
LAYER
  5
259
100
AcDbSymbolTableRecord
100
AcDbLayerTableRecord
  2
CAPC1608N_80000_15
 70
0
 62
7
  6
CONTINUOUS
370
-3
390
F
  0
LAYER
  5
25A
100
AcDbSymbolTableRecord
100
AcDbLayerTableRecord
  2
CAPC1608N_80000_16
 70
0
 62
7
  6
CONTINUOUS
370
-3
390
F
  0
LAYER
  5
25B
100
AcDbSymbolTableRecord
100
AcDbLayerTableRecord
  2
CAPC1608N_80000_17
 70
0
 62
7
  6
CONTINUOUS
370
-3
390
F
  0
LAYER
  5
25C
100
AcDbSymbolTableRecord
100
AcDbLayerTableRecord
  2
CAPC1608N_80000_18
 70
0
 62
7
  6
CONTINUOUS
370
-3
390
F
  0
LAYER
  5
25D
100
AcDbSymbolTableRecord
100
AcDbLayerTableRecord
  2
CAPC1608N_80000_19
 70
0
 62
7
  6
CONTINUOUS
370
-3
390
F
  0
LAYER
  5
25E
100
AcDbSymbolTableRecord
100
AcDbLayerTableRecord
  2
CAPC1608N_80000_2
 70
0
 62
7
  6
CONTINUOUS
370
-3
390
F
  0
LAYER
  5
25F
100
AcDbSymbolTableRecord
100
AcDbLayerTableRecord
  2
CAPC1608N_80000_20
 70
0
 62
7
  6
CONTINUOUS
370
-3
390
F
  0
LAYER
  5
260
100
AcDbSymbolTableRecord
100
AcDbLayerTableRecord
  2
CAPC1608N_80000_21
 70
0
 62
7
  6
CONTINUOUS
370
-3
390
F
  0
LAYER
  5
261
100
AcDbSymbolTableRecord
100
AcDbLayerTableRecord
  2
CAPC1608N_80000_22
 70
0
 62
7
  6
CONTINUOUS
370
-3
390
F
  0
LAYER
  5
262
100
AcDbSymbolTableRecord
100
AcDbLayerTableRecord
  2
CAPC1608N_80000_23
 70
0
 62
7
  6
CONTINUOUS
370
-3
390
F
  0
LAYER
  5
263
100
AcDbSymbolTableRecord
100
AcDbLayerTableRecord
  2
CAPC1608N_80000_24
 70
0
 62
7
  6
CONTINUOUS
370
-3
390
F
  0
LAYER
  5
264
100
AcDbSymbolTableRecord
100
AcDbLayerTableRecord
  2
CAPC1608N_80000_25
 70
0
 62
7
  6
CONTINUOUS
370
-3
390
F
  0
LAYER
  5
265
100
AcDbSymbolTableRecord
100
AcDbLayerTableRecord
  2
CAPC1608N_80000_26
 70
0
 62
7
  6
CONTINUOUS
370
-3
390
F
  0
LAYER
  5
266
100
AcDbSymbolTableRecord
100
AcDbLayerTableRecord
  2
CAPC1608N_80000_27
 70
0
 62
7
  6
CONTINUOUS
370
-3
390
F
  0
LAYER
  5
267
100
AcDbSymbolTableRecord
100
AcDbLayerTableRecord
  2
CAPC1608N_80000_28
 70
0
 62
7
  6
CONTINUOUS
370
-3
390
F
  0
LAYER
  5
268
100
AcDbSymbolTableRecord
100
AcDbLayerTableRecord
  2
CAPC1608N_80000_29
 70
0
 62
7
  6
CONTINUOUS
370
-3
390
F
  0
LAYER
  5
269
100
AcDbSymbolTableRecord
100
AcDbLayerTableRecord
  2
CAPC1608N_80000_3
 70
0
 62
7
  6
CONTINUOUS
370
-3
390
F
  0
LAYER
  5
26A
100
AcDbSymbolTableRecord
100
AcDbLayerTableRecord
  2
CAPC1608N_80000_30
 70
0
 62
7
  6
CONTINUOUS
370
-3
390
F
  0
LAYER
  5
26B
100
AcDbSymbolTableRecord
100
AcDbLayerTableRecord
  2
CAPC1608N_80000_31
 70
0
 62
7
  6
CONTINUOUS
370
-3
390
F
  0
LAYER
  5
26C
100
AcDbSymbolTableRecord
100
AcDbLayerTableRecord
  2
CAPC1608N_80000_32
 70
0
 62
7
  6
CONTINUOUS
370
-3
390
F
  0
LAYER
  5
26D
100
AcDbSymbolTableRecord
100
AcDbLayerTableRecord
  2
CAPC1608N_80000_33
 70
0
 62
7
  6
CONTINUOUS
370
-3
390
F
  0
LAYER
  5
26E
100
AcDbSymbolTableRecord
100
AcDbLayerTableRecord
  2
CAPC1608N_80000_34
 70
0
 62
7
  6
CONTINUOUS
370
-3
390
F
  0
LAYER
  5
26F
100
AcDbSymbolTableRecord
100
AcDbLayerTableRecord
  2
CAPC1608N_80000_35
 70
0
 62
7
  6
CONTINUOUS
370
-3
390
F
  0
LAYER
  5
270
100
AcDbSymbolTableRecord
100
AcDbLayerTableRecord
  2
CAPC1608N_80000_36
 70
0
 62
7
  6
CONTINUOUS
370
-3
390
F
  0
LAYER
  5
271
100
AcDbSymbolTableRecord
100
AcDbLayerTableRecord
  2
CAPC1608N_80000_37
 70
0
 62
7
  6
CONTINUOUS
370
-3
390
F
  0
LAYER
  5
272
100
AcDbSymbolTableRecord
100
AcDbLayerTableRecord
  2
CAPC1608N_80000_38
 70
0
 62
7
  6
CONTINUOUS
370
-3
390
F
  0
LAYER
  5
273
100
AcDbSymbolTableRecord
100
AcDbLayerTableRecord
  2
CAPC1608N_80000_39
 70
0
 62
7
  6
CONTINUOUS
370
-3
390
F
  0
LAYER
  5
274
100
AcDbSymbolTableRecord
100
AcDbLayerTableRecord
  2
CAPC1608N_80000_4
 70
0
 62
7
  6
CONTINUOUS
370
-3
390
F
  0
LAYER
  5
275
100
AcDbSymbolTableRecord
100
AcDbLayerTableRecord
  2
CAPC1608N_80000_40
 70
0
 62
7
  6
CONTINUOUS
370
-3
390
F
  0
LAYER
  5
276
100
AcDbSymbolTableRecord
100
AcDbLayerTableRecord
  2
CAPC1608N_80000_41
 70
0
 62
7
  6
CONTINUOUS
370
-3
390
F
  0
LAYER
  5
277
100
AcDbSymbolTableRecord
100
AcDbLayerTableRecord
  2
CAPC1608N_80000_42
 70
0
 62
7
  6
CONTINUOUS
370
-3
390
F
  0
LAYER
  5
278
100
AcDbSymbolTableRecord
100
AcDbLayerTableRecord
  2
CAPC1608N_80000_43
 70
0
 62
7
  6
CONTINUOUS
370
-3
390
F
  0
LAYER
  5
279
100
AcDbSymbolTableRecord
100
AcDbLayerTableRecord
  2
CAPC1608N_80000_44
 70
0
 62
7
  6
CONTINUOUS
370
-3
390
F
  0
LAYER
  5
27A
100
AcDbSymbolTableRecord
100
AcDbLayerTableRecord
  2
CAPC1608N_80000_45
 70
0
 62
7
  6
CONTINUOUS
370
-3
390
F
  0
LAYER
  5
27B
100
AcDbSymbolTableRecord
100
AcDbLayerTableRecord
  2
CAPC1608N_80000_46
 70
0
 62
7
  6
CONTINUOUS
370
-3
390
F
  0
LAYER
  5
27C
100
AcDbSymbolTableRecord
100
AcDbLayerTableRecord
  2
CAPC1608N_80000_47
 70
0
 62
7
  6
CONTINUOUS
370
-3
390
F
  0
LAYER
  5
27D
100
AcDbSymbolTableRecord
100
AcDbLayerTableRecord
  2
CAPC1608N_80000_48
 70
0
 62
7
  6
CONTINUOUS
370
-3
390
F
  0
LAYER
  5
27E
100
AcDbSymbolTableRecord
100
AcDbLayerTableRecord
  2
CAPC1608N_80000_49
 70
0
 62
7
  6
CONTINUOUS
370
-3
390
F
  0
LAYER
  5
27F
100
AcDbSymbolTableRecord
100
AcDbLayerTableRecord
  2
CAPC1608N_80000_5
 70
0
 62
7
  6
CONTINUOUS
370
-3
390
F
  0
LAYER
  5
280
100
AcDbSymbolTableRecord
100
AcDbLayerTableRecord
  2
CAPC1608N_80000_50
 70
0
 62
7
  6
CONTINUOUS
370
-3
390
F
  0
LAYER
  5
281
100
AcDbSymbolTableRecord
100
AcDbLayerTableRecord
  2
CAPC1608N_80000_51
 70
0
 62
7
  6
CONTINUOUS
370
-3
390
F
  0
LAYER
  5
282
100
AcDbSymbolTableRecord
100
AcDbLayerTableRecord
  2
CAPC1608N_80000_52
 70
0
 62
7
  6
CONTINUOUS
370
-3
390
F
  0
LAYER
  5
283
100
AcDbSymbolTableRecord
100
AcDbLayerTableRecord
  2
CAPC1608N_80000_6
 70
0
 62
7
  6
CONTINUOUS
370
-3
390
F
  0
LAYER
  5
284
100
AcDbSymbolTableRecord
100
AcDbLayerTableRecord
  2
CAPC1608N_80000_7
 70
0
 62
7
  6
CONTINUOUS
370
-3
390
F
  0
LAYER
  5
285
100
AcDbSymbolTableRecord
100
AcDbLayerTableRecord
  2
CAPC1608N_80000_8
 70
0
 62
7
  6
CONTINUOUS
370
-3
390
F
  0
LAYER
  5
286
100
AcDbSymbolTableRecord
100
AcDbLayerTableRecord
  2
CAPC1608N_80000_9
 70
0
 62
7
  6
CONTINUOUS
370
-3
390
F
  0
LAYER
  5
287
100
AcDbSymbolTableRecord
100
AcDbLayerTableRecord
  2
CC-0603-VIMAR_1000
 70
0
 62
7
  6
CONTINUOUS
370
-3
390
F
  0
LAYER
  5
288
100
AcDbSymbolTableRecord
100
AcDbLayerTableRecord
  2
CC-0603-VIMAR_1000_1
 70
0
 62
7
  6
CONTINUOUS
370
-3
390
F
  0
LAYER
  5
289
100
AcDbSymbolTableRecord
100
AcDbLayerTableRecord
  2
CC-0603-VIMAR_1000_2
 70
0
 62
7
  6
CONTINUOUS
370
-3
390
F
  0
LAYER
  5
28A
100
AcDbSymbolTableRecord
100
AcDbLayerTableRecord
  2
CC-0603-VIMAR_1000_3
 70
0
 62
7
  6
CONTINUOUS
370
-3
390
F
  0
LAYER
  5
28B
100
AcDbSymbolTableRecord
100
AcDbLayerTableRecord
  2
CC-0603-VIMAR_1000_4
 70
0
 62
7
  6
CONTINUOUS
370
-3
390
F
  0
LAYER
  5
28C
100
AcDbSymbolTableRecord
100
AcDbLayerTableRecord
  2
CC-0603-VIMAR_1000_5
 70
0
 62
7
  6
CONTINUOUS
370
-3
390
F
  0
LAYER
  5
28D
100
AcDbSymbolTableRecord
100
AcDbLayerTableRecord
  2
CC-0603-VIMAR_1000_6
 70
0
 62
7
  6
CONTINUOUS
370
-3
390
F
  0
LAYER
  5
28E
100
AcDbSymbolTableRecord
100
AcDbLayerTableRecord
  2
CN-CSF_CSM_2-VIMAR_1150000
 70
0
 62
7
  6
CONTINUOUS
370
-3
390
F
  0
LAYER
  5
28F
100
AcDbSymbolTableRecord
100
AcDbLayerTableRecord
  2
CN-CTM049M9-VIMAR_725000
 70
0
 62
7
  6
CONTINUOUS
370
-3
390
F
  0
LAYER
  5
290
100
AcDbSymbolTableRecord
100
AcDbLayerTableRecord
  2
CN-CTM059M1-VIMAR_725000
 70
0
 62
7
  6
CONTINUOUS
370
-3
390
F
  0
LAYER
  5
291
100
AcDbSymbolTableRecord
100
AcDbLayerTableRecord
  2
CN1-REF_SQUAREHOLE12_SPEA-VIMAR
 70
0
 62
7
  6
CONTINUOUS
370
-3
390
F
  0
LAYER
  5
292
100
AcDbSymbolTableRecord
100
AcDbLayerTableRecord
  2
CN1-REF_SQUAREHOLE12_SPEA-VIM_1
 70
0
 62
7
  6
CONTINUOUS
370
-3
390
F
  0
LAYER
  5
293
100
AcDbSymbolTableRecord
100
AcDbLayerTableRecord
  2
CN1-REF_SQUAREHOLE12_SPEA-VIM_2
 70
0
 62
7
  6
CONTINUOUS
370
-3
390
F
  0
LAYER
  5
294
100
AcDbSymbolTableRecord
100
AcDbLayerTableRecord
  2
CN1-REF_SQUAREHOLE12_SPEA-VIM_3
 70
0
 62
7
  6
CONTINUOUS
370
-3
390
F
  0
LAYER
  5
295
100
AcDbSymbolTableRecord
100
AcDbLayerTableRecord
  2
CN10-HEADER-SMD2_54-1-VIMAR_900
 70
0
 62
7
  6
CONTINUOUS
370
-3
390
F
  0
LAYER
  5
296
100
AcDbSymbolTableRecord
100
AcDbLayerTableRecord
  2
CN20-VASCHETTA_2500000
 70
0
 62
7
  6
CONTINUOUS
370
-3
390
F
  0
LAYER
  5
297
100
AcDbSymbolTableRecord
100
AcDbLayerTableRecord
  2
CN5-HEADER-PIH-P2_54-1_254000
 70
0
 62
7
  6
CONTINUOUS
370
-3
390
F
  0
LAYER
  5
298
100
AcDbSymbolTableRecord
100
AcDbLayerTableRecord
  2
CN_SMD_HEADER_3P_P1_25_H_4_05MM
 70
0
 62
7
  6
CONTINUOUS
370
-3
390
F
  0
LAYER
  5
299
100
AcDbSymbolTableRecord
100
AcDbLayerTableRecord
  2
CN_SMD_HEADER_3P_P1_25_H_4_05_1
 70
0
 62
7
  6
CONTINUOUS
370
-3
390
F
  0
LAYER
  5
29A
100
AcDbSymbolTableRecord
100
AcDbLayerTableRecord
  2
CN_SMD_HEADER_3P_P1_25_H_4_05_2
 70
0
 62
7
  6
CONTINUOUS
370
-3
390
F
  0
LAYER
  5
29B
100
AcDbSymbolTableRecord
100
AcDbLayerTableRecord
  2
CN_SOCKET_3P_SMD_P1_0_H_4_25MM_
 70
0
 62
7
  6
CONTINUOUS
370
-3
390
F
  0
LAYER
  5
29C
100
AcDbSymbolTableRecord
100
AcDbLayerTableRecord
  2
CN_SOCKET_3P_SMD_P1_0_H_4_25M_1
 70
0
 62
7
  6
CONTINUOUS
370
-3
390
F
  0
LAYER
  5
29D
100
AcDbSymbolTableRecord
100
AcDbLayerTableRecord
  2
CN_SOCKET_3P_SMD_P1_0_H_4_25M_2
 70
0
 62
7
  6
CONTINUOUS
370
-3
390
F
  0
LAYER
  5
29E
100
AcDbSymbolTableRecord
100
AcDbLayerTableRecord
  2
CN_STRIP_2_P2_54-VIMAR_0
 70
0
 62
7
  6
CONTINUOUS
370
-3
390
F
  0
LAYER
  5
29F
100
AcDbSymbolTableRecord
100
AcDbLayerTableRecord
  2
CN_STRIP_2_P2_54-VIMAR_0_1
 70
0
 62
7
  6
CONTINUOUS
370
-3
390
F
  0
LAYER
  5
2A0
100
AcDbSymbolTableRecord
100
AcDbLayerTableRecord
  2
CN_STRIP_2_P2_54-VIMAR_0_2
 70
0
 62
7
  6
CONTINUOUS
370
-3
390
F
  0
LAYER
  5
2A1
100
AcDbSymbolTableRecord
100
AcDbLayerTableRecord
  2
COLOR1
 70
0
 62
7
  6
CONTINUOUS
370
-3
390
F
  0
LAYER
  5
2A2
100
AcDbSymbolTableRecord
100
AcDbLayerTableRecord
  2
COLOR14
 70
0
 62
7
  6
CONTINUOUS
370
-3
390
F
  0
LAYER
  5
2A3
100
AcDbSymbolTableRecord
100
AcDbLayerTableRecord
  2
COLOR15
 70
0
 62
7
  6
CONTINUOUS
370
-3
390
F
  0
LAYER
  5
2A4
100
AcDbSymbolTableRecord
100
AcDbLayerTableRecord
  2
COLOR5
 70
0
 62
7
  6
CONTINUOUS
370
-3
390
F
  0
LAYER
  5
2A5
100
AcDbSymbolTableRecord
100
AcDbLayerTableRecord
  2
COLOR6
 70
0
 62
7
  6
CONTINUOUS
370
-3
390
F
  0
LAYER
  5
2A6
100
AcDbSymbolTableRecord
100
AcDbLayerTableRecord
  2
COORDINATE
 70
0
 62
7
  6
CONTINUOUS
370
-3
390
F
  0
LAYER
  5
2A7
100
AcDbSymbolTableRecord
100
AcDbLayerTableRecord
  2
COORD_ORIGINE
 70
0
 62
7
  6
CONTINUOUS
370
-3
390
F
  0
LAYER
  5
2A8
100
AcDbSymbolTableRecord
100
AcDbLayerTableRecord
  2
COPY_PUBLISH
 70
0
 62
7
  6
CONTINUOUS
370
-3
390
F
  0
LAYER
  5
2A9
100
AcDbSymbolTableRecord
100
AcDbLayerTableRecord
  2
COSMETIC
 70
0
 62
7
  6
CONTINUOUS
370
-3
390
F
  0
LAYER
  5
2AA
100
AcDbSymbolTableRecord
100
AcDbLayerTableRecord
  2
COSMETICI
 70
0
 62
7
  6
CONTINUOUS
370
-3
390
F
  0
LAYER
  5
2AB
100
AcDbSymbolTableRecord
100
AcDbLayerTableRecord
  2
CP-CE9-RF-VIMAR_1080000
 70
0
 62
7
  6
CONTINUOUS
370
-3
390
F
  0
LAYER
  5
2AC
100
AcDbSymbolTableRecord
100
AcDbLayerTableRecord
  2
CP-DO-214AC-D-VIMAR_240000
 70
0
 62
7
  6
CONTINUOUS
370
-3
390
F
  0
LAYER
  5
2AD
100
AcDbSymbolTableRecord
100
AcDbLayerTableRecord
  2
CP-DO-214AC-D-VIMAR_240000_1
 70
0
 62
7
  6
CONTINUOUS
370
-3
390
F
  0
LAYER
  5
2AE
100
AcDbSymbolTableRecord
100
AcDbLayerTableRecord
  2
CP-DO-214AC-D-VIMAR_240000_2
 70
0
 62
7
  6
CONTINUOUS
370
-3
390
F
  0
LAYER
  5
2AF
100
AcDbSymbolTableRecord
100
AcDbLayerTableRecord
  2
CP-DO-214AC-D-VIMAR_240000_3
 70
0
 62
7
  6
CONTINUOUS
370
-3
390
F
  0
LAYER
  5
2B0
100
AcDbSymbolTableRecord
100
AcDbLayerTableRecord
  2
CP-DO-214AC-VIMAR_240000
 70
0
 62
7
  6
CONTINUOUS
370
-3
390
F
  0
LAYER
  5
2B1
100
AcDbSymbolTableRecord
100
AcDbLayerTableRecord
  2
CURVE
 70
0
 62
7
  6
CONTINUOUS
370
-3
390
F
  0
LAYER
  5
2B2
100
AcDbSymbolTableRecord
100
AcDbLayerTableRecord
  2
CURVE_TA
 70
0
 62
7
  6
CONTINUOUS
370
-3
390
F
  0
LAYER
  5
2B3
100
AcDbSymbolTableRecord
100
AcDbLayerTableRecord
  2
DIOMELF3515N_160000
 70
0
 62
7
  6
CONTINUOUS
370
-3
390
F
  0
LAYER
  5
2B4
100
AcDbSymbolTableRecord
100
AcDbLayerTableRecord
  2
DIOMELF3515N_160000_1
 70
0
 62
7
  6
CONTINUOUS
370
-3
390
F
  0
LAYER
  5
2B5
100
AcDbSymbolTableRecord
100
AcDbLayerTableRecord
  2
DL_SIDELED_420000
 70
0
 62
7
  6
CONTINUOUS
370
-3
390
F
  0
LAYER
  5
2B6
100
AcDbSymbolTableRecord
100
AcDbLayerTableRecord
  2
DL_SIDELED_420000_1
 70
0
 62
7
  6
CONTINUOUS
370
-3
390
F
  0
LAYER
  5
2B7
100
AcDbSymbolTableRecord
100
AcDbLayerTableRecord
  2
DRAFT
 70
0
 62
7
  6
CONTINUOUS
370
-3
390
F
  0
LAYER
  5
2B8
100
AcDbSymbolTableRecord
100
AcDbLayerTableRecord
  2
E4_MARK_10000
 70
0
 62
7
  6
CONTINUOUS
370
-3
390
F
  0
LAYER
  5
2B9
100
AcDbSymbolTableRecord
100
AcDbLayerTableRecord
  2
IGES_HOLGER
 70
0
 62
7
  6
CONTINUOUS
370
-3
390
F
  0
LAYER
  5
2BA
100
AcDbSymbolTableRecord
100
AcDbLayerTableRecord
  2
IMPORT_IGES
 70
0
 62
7
  6
CONTINUOUS
370
-3
390
F
  0
LAYER
  5
2BB
100
AcDbSymbolTableRecord
100
AcDbLayerTableRecord
  2
IND_7X7_8X5_550000
 70
0
 62
7
  6
CONTINUOUS
370
-3
390
F
  0
LAYER
  5
2BC
100
AcDbSymbolTableRecord
100
AcDbLayerTableRecord
  2
INTFCLR_1
 70
0
 62
7
  6
CONTINUOUS
370
-3
390
F
  0
LAYER
  5
2BD
100
AcDbSymbolTableRecord
100
AcDbLayerTableRecord
  2
INTFCLR_2
 70
0
 62
7
  6
CONTINUOUS
370
-3
390
F
  0
LAYER
  5
2BE
100
AcDbSymbolTableRecord
100
AcDbLayerTableRecord
  2
INTFCLR_3
 70
0
 62
7
  6
CONTINUOUS
370
-3
390
F
  0
LAYER
  5
2BF
100
AcDbSymbolTableRecord
100
AcDbLayerTableRecord
  2
INTFCLR_4
 70
0
 62
7
  6
CONTINUOUS
370
-3
390
F
  0
LAYER
  5
2C0
100
AcDbSymbolTableRecord
100
AcDbLayerTableRecord
  2
INTFCLR_5
 70
0
 62
7
  6
CONTINUOUS
370
-3
390
F
  0
LAYER
  5
2C1
100
AcDbSymbolTableRecord
100
AcDbLayerTableRecord
  2
INTFCLR_6
 70
0
 62
7
  6
CONTINUOUS
370
-3
390
F
  0
LAYER
  5
2C2
100
AcDbSymbolTableRecord
100
AcDbLayerTableRecord
  2
INTFCLR_7
 70
0
 62
7
  6
CONTINUOUS
370
-3
390
F
  0
LAYER
  5
2C3
100
AcDbSymbolTableRecord
100
AcDbLayerTableRecord
  2
INTF_1
 70
0
 62
7
  6
CONTINUOUS
370
-3
390
F
  0
LAYER
  5
2C4
100
AcDbSymbolTableRecord
100
AcDbLayerTableRecord
  2
INTF_2
 70
0
 62
7
  6
CONTINUOUS
370
-3
390
F
  0
LAYER
  5
2C5
100
AcDbSymbolTableRecord
100
AcDbLayerTableRecord
  2
INTF_6
 70
0
 62
7
  6
CONTINUOUS
370
-3
390
F
  0
LAYER
  5
2C6
100
AcDbSymbolTableRecord
100
AcDbLayerTableRecord
  2
INTF_BLANK
 70
0
 62
7
  6
CONTINUOUS
370
-3
390
F
  0
LAYER
  5
2C7
100
AcDbSymbolTableRecord
100
AcDbLayerTableRecord
  2
INTF_CYAN
 70
0
 62
7
  6
CONTINUOUS
370
-3
390
F
  0
LAYER
  5
2C8
100
AcDbSymbolTableRecord
100
AcDbLayerTableRecord
  2
INTF_GREEN
 70
0
 62
7
  6
CONTINUOUS
370
-3
390
F
  0
LAYER
  5
2C9
100
AcDbSymbolTableRecord
100
AcDbLayerTableRecord
  2
INTF_YELLOW
 70
0
 62
7
  6
CONTINUOUS
370
-3
390
F
  0
LAYER
  5
2CA
100
AcDbSymbolTableRecord
100
AcDbLayerTableRecord
  2
LOGO_RESIST-RESTYLING_10000
 70
0
 62
7
  6
CONTINUOUS
370
-3
390
F
  0
LAYER
  5
2CB
100
AcDbSymbolTableRecord
100
AcDbLayerTableRecord
  2
MM2-SWITCH-1-RIGHT-VIMAR_0
 70
0
 62
7
  6
CONTINUOUS
370
-3
390
F
  0
LAYER
  5
2CC
100
AcDbSymbolTableRecord
100
AcDbLayerTableRecord
  2
MM2-X-1-VIMAR_430000
 70
0
 62
7
  6
CONTINUOUS
370
-3
390
F
  0
LAYER
  5
2CD
100
AcDbSymbolTableRecord
100
AcDbLayerTableRecord
  2
MM2-X-1-VIMAR_430000_1
 70
0
 62
7
  6
CONTINUOUS
370
-3
390
F
  0
LAYER
  5
2CE
100
AcDbSymbolTableRecord
100
AcDbLayerTableRecord
  2
MM3-MPAK-RF-VIMAR_120000
 70
0
 62
7
  6
CONTINUOUS
370
-3
390
F
  0
LAYER
  5
2CF
100
AcDbSymbolTableRecord
100
AcDbLayerTableRecord
  2
MM3-MPAK-RF-VIMAR_120000_1
 70
0
 62
7
  6
CONTINUOUS
370
-3
390
F
  0
LAYER
  5
2D0
100
AcDbSymbolTableRecord
100
AcDbLayerTableRecord
  2
MM3-MPAK-RF-VIMAR_120000_10
 70
0
 62
7
  6
CONTINUOUS
370
-3
390
F
  0
LAYER
  5
2D1
100
AcDbSymbolTableRecord
100
AcDbLayerTableRecord
  2
MM3-MPAK-RF-VIMAR_120000_2
 70
0
 62
7
  6
CONTINUOUS
370
-3
390
F
  0
LAYER
  5
2D2
100
AcDbSymbolTableRecord
100
AcDbLayerTableRecord
  2
MM3-MPAK-RF-VIMAR_120000_3
 70
0
 62
7
  6
CONTINUOUS
370
-3
390
F
  0
LAYER
  5
2D3
100
AcDbSymbolTableRecord
100
AcDbLayerTableRecord
  2
MM3-MPAK-RF-VIMAR_120000_4
 70
0
 62
7
  6
CONTINUOUS
370
-3
390
F
  0
LAYER
  5
2D4
100
AcDbSymbolTableRecord
100
AcDbLayerTableRecord
  2
MM3-MPAK-RF-VIMAR_120000_5
 70
0
 62
7
  6
CONTINUOUS
370
-3
390
F
  0
LAYER
  5
2D5
100
AcDbSymbolTableRecord
100
AcDbLayerTableRecord
  2
MM3-MPAK-RF-VIMAR_120000_6
 70
0
 62
7
  6
CONTINUOUS
370
-3
390
F
  0
LAYER
  5
2D6
100
AcDbSymbolTableRecord
100
AcDbLayerTableRecord
  2
MM3-MPAK-RF-VIMAR_120000_7
 70
0
 62
7
  6
CONTINUOUS
370
-3
390
F
  0
LAYER
  5
2D7
100
AcDbSymbolTableRecord
100
AcDbLayerTableRecord
  2
MM3-MPAK-RF-VIMAR_120000_8
 70
0
 62
7
  6
CONTINUOUS
370
-3
390
F
  0
LAYER
  5
2D8
100
AcDbSymbolTableRecord
100
AcDbLayerTableRecord
  2
MM3-MPAK-RF-VIMAR_120000_9
 70
0
 62
7
  6
CONTINUOUS
370
-3
390
F
  0
LAYER
  5
2D9
100
AcDbSymbolTableRecord
100
AcDbLayerTableRecord
  2
MM3-SOT-223-RF-VIMAR_180000
 70
0
 62
7
  6
CONTINUOUS
370
-3
390
F
  0
LAYER
  5
2DA
100
AcDbSymbolTableRecord
100
AcDbLayerTableRecord
  2
MM3-SOT-89-RF-VIMAR_150000
 70
0
 62
7
  6
CONTINUOUS
370
-3
390
F
  0
LAYER
  5
2DB
100
AcDbSymbolTableRecord
100
AcDbLayerTableRecord
  2
MM3-SOT-89-RF-VIMAR_150000_1
 70
0
 62
7
  6
CONTINUOUS
370
-3
390
F
  0
LAYER
  5
2DC
100
AcDbSymbolTableRecord
100
AcDbLayerTableRecord
  2
MM3-SOT323-RF-VIMAR_100000
 70
0
 62
7
  6
CONTINUOUS
370
-3
390
F
  0
LAYER
  5
2DD
100
AcDbSymbolTableRecord
100
AcDbLayerTableRecord
  2
MM3-SOT323-RF-VIMAR_100000_1
 70
0
 62
7
  6
CONTINUOUS
370
-3
390
F
  0
LAYER
  5
2DE
100
AcDbSymbolTableRecord
100
AcDbLayerTableRecord
  2
MM3-SOT323-RF-VIMAR_100000_2
 70
0
 62
7
  6
CONTINUOUS
370
-3
390
F
  0
LAYER
  5
2DF
100
AcDbSymbolTableRecord
100
AcDbLayerTableRecord
  2
MM3-SOT323-RF-VIMAR_100000_3
 70
0
 62
7
  6
CONTINUOUS
370
-3
390
F
  0
LAYER
  5
2E0
100
AcDbSymbolTableRecord
100
AcDbLayerTableRecord
  2
MM3-SOT323-RF-VIMAR_100000_4
 70
0
 62
7
  6
CONTINUOUS
370
-3
390
F
  0
LAYER
  5
2E1
100
AcDbSymbolTableRecord
100
AcDbLayerTableRecord
  2
MM3-SOT323-RF-VIMAR_100000_5
 70
0
 62
7
  6
CONTINUOUS
370
-3
390
F
  0
LAYER
  5
2E2
100
AcDbSymbolTableRecord
100
AcDbLayerTableRecord
  2
MM3-SOT323-RF-VIMAR_100000_6
 70
0
 62
7
  6
CONTINUOUS
370
-3
390
F
  0
LAYER
  5
2E3
100
AcDbSymbolTableRecord
100
AcDbLayerTableRecord
  2
MM3-SOT323-RF-VIMAR_100000_7
 70
0
 62
7
  6
CONTINUOUS
370
-3
390
F
  0
LAYER
  5
2E4
100
AcDbSymbolTableRecord
100
AcDbLayerTableRecord
  2
MM3-SOT323-RF-VIMAR_100000_8
 70
0
 62
7
  6
CONTINUOUS
370
-3
390
F
  0
LAYER
  5
2E5
100
AcDbSymbolTableRecord
100
AcDbLayerTableRecord
  2
MM3-SOT323-RF-VIMAR_100000_9
 70
0
 62
7
  6
CONTINUOUS
370
-3
390
F
  0
LAYER
  5
2E6
100
AcDbSymbolTableRecord
100
AcDbLayerTableRecord
  2
MM5-FMT-RF_120000
 70
0
 62
7
  6
CONTINUOUS
370
-3
390
F
  0
LAYER
  5
2E7
100
AcDbSymbolTableRecord
100
AcDbLayerTableRecord
  2
MM5-FMT-RF_120000_1
 70
0
 62
7
  6
CONTINUOUS
370
-3
390
F
  0
LAYER
  5
2E8
100
AcDbSymbolTableRecord
100
AcDbLayerTableRecord
  2
MM5-FMT-RF_120000_2
 70
0
 62
7
  6
CONTINUOUS
370
-3
390
F
  0
LAYER
  5
2E9
100
AcDbSymbolTableRecord
100
AcDbLayerTableRecord
  2
NO-PB_MARK_10000
 70
0
 62
7
  6
CONTINUOUS
370
-3
390
F
  0
LAYER
  5
2EA
100
AcDbSymbolTableRecord
100
AcDbLayerTableRecord
  2
NOTE
 70
0
 62
7
  6
CONTINUOUS
370
-3
390
F
  0
LAYER
  5
2EB
100
AcDbSymbolTableRecord
100
AcDbLayerTableRecord
  2
PIANI
 70
0
 62
7
  6
CONTINUOUS
370
-3
390
F
  0
LAYER
  5
2EC
100
AcDbSymbolTableRecord
100
AcDbLayerTableRecord
  2
PIANI_ORIGINE
 70
0
 62
7
  6
CONTINUOUS
370
-3
390
F
  0
LAYER
  5
2ED
100
AcDbSymbolTableRecord
100
AcDbLayerTableRecord
  2
PIANI_RIFERIMENTO
 70
0
 62
7
  6
CONTINUOUS
370
-3
390
F
  0
LAYER
  5
2EE
100
AcDbSymbolTableRecord
100
AcDbLayerTableRecord
  2
PUNTI
 70
0
 62
7
  6
CONTINUOUS
370
-3
390
F
  0
LAYER
  5
2EF
100
AcDbSymbolTableRecord
100
AcDbLayerTableRecord
  2
QFN50P400X400X80-25N_80000
 70
0
 62
7
  6
CONTINUOUS
370
-3
390
F
  0
LAYER
  5
2F0
100
AcDbSymbolTableRecord
100
AcDbLayerTableRecord
  2
QFN50P500X500X80-29N_100000
 70
0
 62
7
  6
CONTINUOUS
370
-3
390
F
  0
LAYER
  5
2F1
100
AcDbSymbolTableRecord
100
AcDbLayerTableRecord
  2
RACCORDO
 70
0
 62
7
  6
CONTINUOUS
370
-3
390
F
  0
LAYER
  5
2F2
100
AcDbSymbolTableRecord
100
AcDbLayerTableRecord
  2
RD-CE50-6_4-VIMAR_1000000
 70
0
 62
7
  6
CONTINUOUS
370
-3
390
F
  0
LAYER
  5
2F3
100
AcDbSymbolTableRecord
100
AcDbLayerTableRecord
  2
RD-ZNR50-1-VIMAR_1150000
 70
0
 62
7
  6
CONTINUOUS
370
-3
390
F
  0
LAYER
  5
2F4
100
AcDbSymbolTableRecord
100
AcDbLayerTableRecord
  2
RD-ZNR50-1-VIMAR_1150000_1
 70
0
 62
7
  6
CONTINUOUS
370
-3
390
F
  0
LAYER
  5
2F5
100
AcDbSymbolTableRecord
100
AcDbLayerTableRecord
  2
RD-ZNR50-1-VIMAR_1150000_2
 70
0
 62
7
  6
CONTINUOUS
370
-3
390
F
  0
LAYER
  5
2F6
100
AcDbSymbolTableRecord
100
AcDbLayerTableRecord
  2
RESC1005X40N_50000
 70
0
 62
7
  6
CONTINUOUS
370
-3
390
F
  0
LAYER
  5
2F7
100
AcDbSymbolTableRecord
100
AcDbLayerTableRecord
  2
RESC1005X40N_50000_1
 70
0
 62
7
  6
CONTINUOUS
370
-3
390
F
  0
LAYER
  5
2F8
100
AcDbSymbolTableRecord
100
AcDbLayerTableRecord
  2
RESC1005X40N_50000_2
 70
0
 62
7
  6
CONTINUOUS
370
-3
390
F
  0
LAYER
  5
2F9
100
AcDbSymbolTableRecord
100
AcDbLayerTableRecord
  2
RESC1005X40N_50000_3
 70
0
 62
7
  6
CONTINUOUS
370
-3
390
F
  0
LAYER
  5
2FA
100
AcDbSymbolTableRecord
100
AcDbLayerTableRecord
  2
RESC1005X40N_50000_4
 70
0
 62
7
  6
CONTINUOUS
370
-3
390
F
  0
LAYER
  5
2FB
100
AcDbSymbolTableRecord
100
AcDbLayerTableRecord
  2
RESC1005X40N_50000_5
 70
0
 62
7
  6
CONTINUOUS
370
-3
390
F
  0
LAYER
  5
2FC
100
AcDbSymbolTableRecord
100
AcDbLayerTableRecord
  2
RESC1005X40N_50000_6
 70
0
 62
7
  6
CONTINUOUS
370
-3
390
F
  0
LAYER
  5
2FD
100
AcDbSymbolTableRecord
100
AcDbLayerTableRecord
  2
RESC1608N_45000
 70
0
 62
7
  6
CONTINUOUS
370
-3
390
F
  0
LAYER
  5
2FE
100
AcDbSymbolTableRecord
100
AcDbLayerTableRecord
  2
RESC1608N_45000_1
 70
0
 62
7
  6
CONTINUOUS
370
-3
390
F
  0
LAYER
  5
2FF
100
AcDbSymbolTableRecord
100
AcDbLayerTableRecord
  2
RESC1608N_45000_10
 70
0
 62
7
  6
CONTINUOUS
370
-3
390
F
  0
LAYER
  5
300
100
AcDbSymbolTableRecord
100
AcDbLayerTableRecord
  2
RESC1608N_45000_11
 70
0
 62
7
  6
CONTINUOUS
370
-3
390
F
  0
LAYER
  5
301
100
AcDbSymbolTableRecord
100
AcDbLayerTableRecord
  2
RESC1608N_45000_12
 70
0
 62
7
  6
CONTINUOUS
370
-3
390
F
  0
LAYER
  5
302
100
AcDbSymbolTableRecord
100
AcDbLayerTableRecord
  2
RESC1608N_45000_13
 70
0
 62
7
  6
CONTINUOUS
370
-3
390
F
  0
LAYER
  5
303
100
AcDbSymbolTableRecord
100
AcDbLayerTableRecord
  2
RESC1608N_45000_14
 70
0
 62
7
  6
CONTINUOUS
370
-3
390
F
  0
LAYER
  5
304
100
AcDbSymbolTableRecord
100
AcDbLayerTableRecord
  2
RESC1608N_45000_15
 70
0
 62
7
  6
CONTINUOUS
370
-3
390
F
  0
LAYER
  5
305
100
AcDbSymbolTableRecord
100
AcDbLayerTableRecord
  2
RESC1608N_45000_16
 70
0
 62
7
  6
CONTINUOUS
370
-3
390
F
  0
LAYER
  5
306
100
AcDbSymbolTableRecord
100
AcDbLayerTableRecord
  2
RESC1608N_45000_17
 70
0
 62
7
  6
CONTINUOUS
370
-3
390
F
  0
LAYER
  5
307
100
AcDbSymbolTableRecord
100
AcDbLayerTableRecord
  2
RESC1608N_45000_18
 70
0
 62
7
  6
CONTINUOUS
370
-3
390
F
  0
LAYER
  5
308
100
AcDbSymbolTableRecord
100
AcDbLayerTableRecord
  2
RESC1608N_45000_19
 70
0
 62
7
  6
CONTINUOUS
370
-3
390
F
  0
LAYER
  5
309
100
AcDbSymbolTableRecord
100
AcDbLayerTableRecord
  2
RESC1608N_45000_2
 70
0
 62
7
  6
CONTINUOUS
370
-3
390
F
  0
LAYER
  5
30A
100
AcDbSymbolTableRecord
100
AcDbLayerTableRecord
  2
RESC1608N_45000_20
 70
0
 62
7
  6
CONTINUOUS
370
-3
390
F
  0
LAYER
  5
30B
100
AcDbSymbolTableRecord
100
AcDbLayerTableRecord
  2
RESC1608N_45000_21
 70
0
 62
7
  6
CONTINUOUS
370
-3
390
F
  0
LAYER
  5
30C
100
AcDbSymbolTableRecord
100
AcDbLayerTableRecord
  2
RESC1608N_45000_22
 70
0
 62
7
  6
CONTINUOUS
370
-3
390
F
  0
LAYER
  5
30D
100
AcDbSymbolTableRecord
100
AcDbLayerTableRecord
  2
RESC1608N_45000_23
 70
0
 62
7
  6
CONTINUOUS
370
-3
390
F
  0
LAYER
  5
30E
100
AcDbSymbolTableRecord
100
AcDbLayerTableRecord
  2
RESC1608N_45000_24
 70
0
 62
7
  6
CONTINUOUS
370
-3
390
F
  0
LAYER
  5
30F
100
AcDbSymbolTableRecord
100
AcDbLayerTableRecord
  2
RESC1608N_45000_25
 70
0
 62
7
  6
CONTINUOUS
370
-3
390
F
  0
LAYER
  5
310
100
AcDbSymbolTableRecord
100
AcDbLayerTableRecord
  2
RESC1608N_45000_26
 70
0
 62
7
  6
CONTINUOUS
370
-3
390
F
  0
LAYER
  5
311
100
AcDbSymbolTableRecord
100
AcDbLayerTableRecord
  2
RESC1608N_45000_27
 70
0
 62
7
  6
CONTINUOUS
370
-3
390
F
  0
LAYER
  5
312
100
AcDbSymbolTableRecord
100
AcDbLayerTableRecord
  2
RESC1608N_45000_28
 70
0
 62
7
  6
CONTINUOUS
370
-3
390
F
  0
LAYER
  5
313
100
AcDbSymbolTableRecord
100
AcDbLayerTableRecord
  2
RESC1608N_45000_29
 70
0
 62
7
  6
CONTINUOUS
370
-3
390
F
  0
LAYER
  5
314
100
AcDbSymbolTableRecord
100
AcDbLayerTableRecord
  2
RESC1608N_45000_3
 70
0
 62
7
  6
CONTINUOUS
370
-3
390
F
  0
LAYER
  5
315
100
AcDbSymbolTableRecord
100
AcDbLayerTableRecord
  2
RESC1608N_45000_30
 70
0
 62
7
  6
CONTINUOUS
370
-3
390
F
  0
LAYER
  5
316
100
AcDbSymbolTableRecord
100
AcDbLayerTableRecord
  2
RESC1608N_45000_31
 70
0
 62
7
  6
CONTINUOUS
370
-3
390
F
  0
LAYER
  5
317
100
AcDbSymbolTableRecord
100
AcDbLayerTableRecord
  2
RESC1608N_45000_32
 70
0
 62
7
  6
CONTINUOUS
370
-3
390
F
  0
LAYER
  5
318
100
AcDbSymbolTableRecord
100
AcDbLayerTableRecord
  2
RESC1608N_45000_33
 70
0
 62
7
  6
CONTINUOUS
370
-3
390
F
  0
LAYER
  5
319
100
AcDbSymbolTableRecord
100
AcDbLayerTableRecord
  2
RESC1608N_45000_34
 70
0
 62
7
  6
CONTINUOUS
370
-3
390
F
  0
LAYER
  5
31A
100
AcDbSymbolTableRecord
100
AcDbLayerTableRecord
  2
RESC1608N_45000_35
 70
0
 62
7
  6
CONTINUOUS
370
-3
390
F
  0
LAYER
  5
31B
100
AcDbSymbolTableRecord
100
AcDbLayerTableRecord
  2
RESC1608N_45000_36
 70
0
 62
7
  6
CONTINUOUS
370
-3
390
F
  0
LAYER
  5
31C
100
AcDbSymbolTableRecord
100
AcDbLayerTableRecord
  2
RESC1608N_45000_37
 70
0
 62
7
  6
CONTINUOUS
370
-3
390
F
  0
LAYER
  5
31D
100
AcDbSymbolTableRecord
100
AcDbLayerTableRecord
  2
RESC1608N_45000_4
 70
0
 62
7
  6
CONTINUOUS
370
-3
390
F
  0
LAYER
  5
31E
100
AcDbSymbolTableRecord
100
AcDbLayerTableRecord
  2
RESC1608N_45000_5
 70
0
 62
7
  6
CONTINUOUS
370
-3
390
F
  0
LAYER
  5
31F
100
AcDbSymbolTableRecord
100
AcDbLayerTableRecord
  2
RESC1608N_45000_6
 70
0
 62
7
  6
CONTINUOUS
370
-3
390
F
  0
LAYER
  5
320
100
AcDbSymbolTableRecord
100
AcDbLayerTableRecord
  2
RESC1608N_45000_7
 70
0
 62
7
  6
CONTINUOUS
370
-3
390
F
  0
LAYER
  5
321
100
AcDbSymbolTableRecord
100
AcDbLayerTableRecord
  2
RESC1608N_45000_8
 70
0
 62
7
  6
CONTINUOUS
370
-3
390
F
  0
LAYER
  5
322
100
AcDbSymbolTableRecord
100
AcDbLayerTableRecord
  2
RESC1608N_45000_9
 70
0
 62
7
  6
CONTINUOUS
370
-3
390
F
  0
LAYER
  5
323
100
AcDbSymbolTableRecord
100
AcDbLayerTableRecord
  2
RGB____0____0____0__
 70
0
 62
7
  6
CONTINUOUS
370
-3
390
F
  0
LAYER
  5
324
100
AcDbSymbolTableRecord
100
AcDbLayerTableRecord
  2
SCRITTE
 70
0
 62
7
  6
CONTINUOUS
370
-3
390
F
  0
LAYER
  5
325
100
AcDbSymbolTableRecord
100
AcDbLayerTableRecord
  2
SDIP6-VIMAR_400000
 70
0
 62
7
  6
CONTINUOUS
370
-3
390
F
  0
LAYER
  5
326
100
AcDbSymbolTableRecord
100
AcDbLayerTableRecord
  2
SDIP6-VIMAR_400000_1
 70
0
 62
7
  6
CONTINUOUS
370
-3
390
F
  0
LAYER
  5
327
100
AcDbSymbolTableRecord
100
AcDbLayerTableRecord
  2
SIMBOLI
 70
0
 62
7
  6
CONTINUOUS
370
-3
390
F
  0
LAYER
  5
328
100
AcDbSymbolTableRecord
100
AcDbLayerTableRecord
  2
SMD7-VIMAR_343000
 70
0
 62
7
  6
CONTINUOUS
370
-3
390
F
  0
LAYER
  5
329
100
AcDbSymbolTableRecord
100
AcDbLayerTableRecord
  2
SMUSSO
 70
0
 62
7
  6
CONTINUOUS
370
-3
390
F
  0
LAYER
  5
32A
100
AcDbSymbolTableRecord
100
AcDbLayerTableRecord
  2
SNAPLINE
 70
0
 62
7
  6
CONTINUOUS
370
-3
390
F
  0
LAYER
  5
32B
100
AcDbSymbolTableRecord
100
AcDbLayerTableRecord
  2
SO8C-VIMAR_343000
 70
0
 62
7
  6
CONTINUOUS
370
-3
390
F
  0
LAYER
  5
32C
100
AcDbSymbolTableRecord
100
AcDbLayerTableRecord
  2
SUPERFICI
 70
0
 62
7
  6
CONTINUOUS
370
-3
390
F
  0
LAYER
  5
32D
100
AcDbSymbolTableRecord
100
AcDbLayerTableRecord
  2
TASSELLO
 70
0
 62
7
  6
CONTINUOUS
370
-3
390
F
  0
LAYER
  5
32E
100
AcDbSymbolTableRecord
100
AcDbLayerTableRecord
  2
TP10_SMD_0
 70
0
 62
7
  6
CONTINUOUS
370
-3
390
F
  0
LAYER
  5
32F
100
AcDbSymbolTableRecord
100
AcDbLayerTableRecord
  2
TP10_SMD_0_1
 70
0
 62
7
  6
CONTINUOUS
370
-3
390
F
  0
LAYER
  5
330
100
AcDbSymbolTableRecord
100
AcDbLayerTableRecord
  2
TP10_SMD_0_2
 70
0
 62
7
  6
CONTINUOUS
370
-3
390
F
  0
LAYER
  5
331
100
AcDbSymbolTableRecord
100
AcDbLayerTableRecord
  2
TP10_SMD_0_3
 70
0
 62
7
  6
CONTINUOUS
370
-3
390
F
  0
LAYER
  5
332
100
AcDbSymbolTableRecord
100
AcDbLayerTableRecord
  2
TP10_SMD_0_4
 70
0
 62
7
  6
CONTINUOUS
370
-3
390
F
  0
LAYER
  5
333
100
AcDbSymbolTableRecord
100
AcDbLayerTableRecord
  2
TP10_SMD_0_5
 70
0
 62
7
  6
CONTINUOUS
370
-3
390
F
  0
LAYER
  5
334
100
AcDbSymbolTableRecord
100
AcDbLayerTableRecord
  2
TP10_SMD_0_6
 70
0
 62
7
  6
CONTINUOUS
370
-3
390
F
  0
LAYER
  5
335
100
AcDbSymbolTableRecord
100
AcDbLayerTableRecord
  2
TQFP48-F1-RF-VIMAR_160000
 70
0
 62
7
  6
CONTINUOUS
370
-3
390
F
  0
LAYER
  5
336
100
AcDbSymbolTableRecord
100
AcDbLayerTableRecord
  2
TRASH
 70
0
 62
7
  6
CONTINUOUS
370
-3
390
F
  0
LAYER
  5
337
100
AcDbSymbolTableRecord
100
AcDbLayerTableRecord
  2
TSSOP8-RF-VIMAR_110000
 70
0
 62
7
  6
CONTINUOUS
370
-3
390
F
  0
LAYER
  5
338
100
AcDbSymbolTableRecord
100
AcDbLayerTableRecord
  2
WHITE
 70
0
 62
7
  6
CONTINUOUS
370
-3
390
F
  0
LAYER
  5
339
100
AcDbSymbolTableRecord
100
AcDbLayerTableRecord
  2
XSEC_DATUMS
 70
0
 62
7
  6
CONTINUOUS
370
-3
390
F
  0
LAYER
  5
33A
100
AcDbSymbolTableRecord
100
AcDbLayerTableRecord
  2
___SHELL
 70
0
 62
7
  6
CONTINUOUS
370
-3
390
F
  0
ENDTAB
  0
TABLE
  2
STYLE
  5
3
100
AcDbSymbolTable
 70
1
  0
STYLE
  5
11
100
AcDbSymbolTableRecord
100
AcDbTextStyleTableRecord
  2
STANDARD
 70
0
 40
0.0
 41
0.8
 50
0.0
 71
0
 42
0.2
  3
txt
  4

  0
STYLE
  5
33B
100
AcDbSymbolTableRecord
100
AcDbTextStyleTableRecord
  2
TEXTSTYLE_1
 70
0
 40
0.0
 41
0.8
 50
0.0
 71
0
 42
0.2
  3
gdt
  4

  0
ENDTAB
  0
TABLE
  2
VIEW
  5
6
100
AcDbSymbolTable
 70
0
  0
ENDTAB
  0
TABLE
  2
UCS
  5
7
100
AcDbSymbolTable
 70
0
  0
ENDTAB
  0
TABLE
  2
APPID
  5
9
100
AcDbSymbolTable
 70
1
  0
APPID
  5
33C
100
AcDbSymbolTableRecord
100
AcDbRegAppTableRecord
  2
ACAD
 70
0
  0
ENDTAB
  0
TABLE
  2
BLOCK_RECORD
  5
1
100
AcDbSymbolTable
 70
0
  0
BLOCK_RECORD
  5
33D
100
AcDbSymbolTableRecord
100
AcDbBlockTableRecord
  2
*Model_Space
  0
BLOCK_RECORD
  5
33E
100
AcDbSymbolTableRecord
100
AcDbBlockTableRecord
  2
*Paper_Space
  0
ENDTAB
  0
TABLE
  2
DIMSTYLE
  5
A
100
AcDbSymbolTable
 70
1
100
AcDbDimStyleTable
 71
0
  0
DIMSTYLE
105
33F
100
AcDbSymbolTableRecord
100
AcDbDimStyleTableRecord
  2
STANDARD
 70
0
  3

  4

 40
1.0
 41
3.0
 42
0.5
 43
0.38
 44
1.5
 45
0.0
 46
0.0
 47
0.01
 48
0.01
140
3.0
141
0.09
142
0.0
143
25.4
144
1.0
145
0.0
146
1.0
147
0.625
 71
1.0
 72
0.0
 73
0
 74
0
 75
0
 76
0
 77
1
 78
8
170
0
171
2
172
0
173
0
174
0
175
0
176
0
177
0
178
0
270
2
271
2
272
2
273
2
274
2
275
0
280
0
281
0
282
0
283
1
284
8
285
0
286
0
287
3
288
0
340
11
278
44
  0
ENDTAB
  0
ENDSEC
  0
SECTION
  2
BLOCKS
  0
BLOCK
  5
20
100
AcDbEntity
  8
0
100
AcDbBlockBegin
  2
*Model_Space
 70
0
 10
0.0
 20
0.0
 30
0.0
  3
*Model_Space
  1

  0
ENDBLK
  5
21
100
AcDbEntity
  8
0
100
AcDbBlockEnd
  0
BLOCK
  5
1C
100
AcDbEntity
  8
0
100
AcDbBlockBegin
  2
*Paper_Space
 70
0
 10
0.0
 20
0.0
 30
0.0
  3
*Paper_Space
  1

  0
ENDBLK
  5
1D
100
AcDbEntity
  8
0
100
AcDbBlockEnd
  0
ENDSEC
  0
SECTION
  2
ENTITIES
  0
LINE
  5
340
100
AcDbEntity
  8
0
100
AcDbLine
 62
7
  6
CONTINUOUS
 10
9.5268134184
 20
-57.2950696894
 11
13.5268134184
 21
-57.2950696894
  0
LINE
  5
341
100
AcDbEntity
  8
0
100
AcDbLine
 62
7
  6
CONTINUOUS
 10
-23.4731865816
 20
-54.4483482102
 11
-14.8679508596
 21
-54.2981432619
  0
LINE
  5
342
100
AcDbEntity
  8
0
100
AcDbLine
 62
253
  6
CONTINUOUS
 10
-23.4731865816
 20
-53.9484243626
 11
-14.8679508596
 21
-53.7982194144
  0
LINE
  5
343
100
AcDbEntity
  8
0
100
AcDbLine
 62
7
  6
CONTINUOUS
 10
-23.4731865816
 20
-53.1483482102
 11
-16.3644603784
 21
-53.0242649328
  0
LINE
  5
344
100
AcDbEntity
  8
0
100
AcDbLine
 62
253
  6
CONTINUOUS
 10
-23.4731865816
 20
-52.6484243626
 11
-16.3644603784
 21
-52.5243410852
  0
LINE
  5
345
100
AcDbEntity
  8
0
100
AcDbLine
 62
253
  6
CONTINUOUS
 10
-32.3731865816
 20
-53.7982194144
 11
-32.0784223035
 21
-53.7982194144
  0
LINE
  5
346
100
AcDbEntity
  8
0
100
AcDbLine
 62
253
  6
CONTINUOUS
 10
-14.5731865816
 20
-53.7982194144
 11
-14.8679508596
 21
-53.7982194153
  0
LINE
  5
347
100
AcDbEntity
  8
0
100
AcDbLine
 62
253
  6
CONTINUOUS
 10
-31.0731865816
 20
-52.5243410852
 11
-30.5819127848
 21
-52.5243410852
  0
LINE
  5
348
100
AcDbEntity
  8
0
100
AcDbLine
 62
253
  6
CONTINUOUS
 10
-15.8731865816
 20
-52.5243410852
 11
-16.3644603784
 21
-52.5243410852
  0
LINE
  5
349
100
AcDbEntity
  8
0
100
AcDbLine
 62
7
  6
CONTINUOUS
 10
-23.4731865816
 20
-54.4483482102
 11
-32.0784223035
 21
-54.2981432619
  0
LINE
  5
34A
100
AcDbEntity
  8
0
100
AcDbLine
 62
253
  6
CONTINUOUS
 10
-23.4731865816
 20
-53.9484243626
 11
-32.0784223035
 21
-53.79827199
  0
LINE
  5
34B
100
AcDbEntity
  8
0
100
AcDbLine
 62
7
  6
CONTINUOUS
 10
-30.5819127848
 20
-53.0242649328
 11
-23.4731865816
 21
-53.1483482102
  0
LINE
  5
34C
100
AcDbEntity
  8
0
100
AcDbLine
 62
253
  6
CONTINUOUS
 10
-30.5819127848
 20
-52.5243410852
 11
-23.4731865816
 21
-52.6484243626
  0
LINE
  5
34D
100
AcDbEntity
  8
0
100
AcDbLine
 62
253
  6
CONTINUOUS
 10
-23.4731865816
 20
-47.0482720578
 11
-30.5819127848
 21
-47.1723553352
  0
LINE
  5
34E
100
AcDbEntity
  8
0
100
AcDbLine
 62
7
  6
CONTINUOUS
 10
-23.4731865816
 20
-46.5483482102
 11
-30.5819127848
 21
-46.6724314876
  0
LINE
  5
34F
100
AcDbEntity
  8
0
100
AcDbLine
 62
253
  6
CONTINUOUS
 10
-31.0731865816
 20
-47.1723553352
 11
-30.5819127848
 21
-47.1723553352
  0
LINE
  5
350
100
AcDbEntity
  8
0
100
AcDbLine
 62
253
  6
CONTINUOUS
 10
-15.8731865816
 20
-47.1723553352
 11
-16.3644603784
 21
-47.1723553352
  0
LINE
  5
351
100
AcDbEntity
  8
0
100
AcDbLine
 62
253
  6
CONTINUOUS
 10
-16.3644603784
 20
-47.1723553352
 11
-23.4731865816
 21
-47.0482720578
  0
LINE
  5
352
100
AcDbEntity
  8
0
100
AcDbLine
 62
7
  6
CONTINUOUS
 10
-16.3644603784
 20
-46.6724314876
 11
-23.4731865816
 21
-46.5483482102
  0
LWPOLYLINE
  5
353
100
AcDbEntity
  8
0
100
AcDbPolyline
 62
253
  6
CONTINUOUS
 90
8
 70
0
 10
-30.5819127848
 20
-53.0242649328
 10
-30.5826331797
 20
-53.0223860809
 10
-30.5832846808
 20
-53.0167702042
 10
-30.583861822
 20
-53.0074301731
 10
-30.5843600299
 20
-52.9943946864
 10
-30.5847743353
 20
-52.9777409302
 10
-30.5851001693
 20
-52.9576250336
 10
-30.5853348639
 20
-52.934223783
  0
LWPOLYLINE
  5
354
100
AcDbEntity
  8
0
100
AcDbPolyline
 62
253
  6
CONTINUOUS
 90
6
 70
0
 10
-32.0784223035
 20
-54.2981432619
 10
-32.0787968047
 20
-54.2967389288
 10
-32.0791423099
 20
-54.2925473339
 10
-32.0794556044
 20
-54.285591947
 10
-32.0797329087
 20
-54.2759117016
 10
-32.07997252
 20
-54.26356073
  0
LINE
  5
355
100
AcDbEntity
  8
0
100
AcDbLine
 62
7
  6
CONTINUOUS
 10
-29.5255225378
 20
-37.6311587232
 11
-23.4731865816
 21
-37.9483482102
  0
LINE
  5
356
100
AcDbEntity
  8
0
100
AcDbLine
 62
7
  6
CONTINUOUS
 10
-14.5731865816
 20
-35.0578089893
 11
-26.5731865816
 21
-34.8483482102
  0
LINE
  5
357
100
AcDbEntity
  8
0
100
AcDbLine
 62
7
  6
CONTINUOUS
 10
-23.4731865816
 20
-37.6483482102
 11
-27.9516905159
 21
-37.4136397645
  0
LINE
  5
358
100
AcDbEntity
  8
0
100
AcDbLine
 62
253
  6
CONTINUOUS
 10
-30.5838755738
 20
-47.0427848189
 11
-30.5819127848
 21
-47.1723553352
  0
LINE
  5
359
100
AcDbEntity
  8
0
100
AcDbLine
 62
253
  6
CONTINUOUS
 10
-32.07997252
 20
-54.26356073
 11
-32.0803383557
 21
-54.2311372995
  0
LINE
  5
35A
100
AcDbEntity
  8
0
100
AcDbLine
 62
253
  6
CONTINUOUS
 10
-32.07997252
 20
21.93643927
 11
-32.0803383557
 21
21.9688627005
  0
LINE
  5
35B
100
AcDbEntity
  8
0
100
AcDbLine
 62
253
  6
CONTINUOUS
 10
-30.5851078857
 20
-46.9220650628
 11
-30.5838755738
 21
-47.0427848189
  0
LINE
  5
35C
100
AcDbEntity
  8
0
100
AcDbLine
 62
253
  6
CONTINUOUS
 10
-32.0784223035
 20
-17.148477006
 11
-32.0801748263
 21
-16.9315861844
  0
LINE
  5
35D
100
AcDbEntity
  8
0
100
AcDbLine
 62
253
  6
CONTINUOUS
 10
-32.0784223035
 20
56.301522994
 11
-32.0801748263
 21
56.5184138156
  0
LINE
  5
35E
100
AcDbEntity
  8
0
100
AcDbLine
 62
253
  6
CONTINUOUS
 10
-30.5854797242
 20
-46.8506173473
 11
-30.5851078857
 21
-46.9220650628
  0
LINE
  5
35F
100
AcDbEntity
  8
0
100
AcDbLine
 62
253
  6
CONTINUOUS
 10
-32.0803383557
 20
-54.2311372995
 11
-32.0805435338
 21
-54.1890457949
  0
LINE
  5
360
100
AcDbEntity
  8
0
100
AcDbLine
 62
253
  6
CONTINUOUS
 10
-32.0803383557
 20
21.9688627005
 11
-32.0805435338
 21
22.0109542051
  0
LINE
  5
361
100
AcDbEntity
  8
0
100
AcDbLine
 62
253
  6
CONTINUOUS
 10
-30.5853348639
 20
-52.934223783
 11
-30.5855254072
 21
-52.8782439835
  0
LINE
  5
362
100
AcDbEntity
  8
0
100
AcDbLine
 62
253
  6
CONTINUOUS
 10
-32.0801748263
 20
-16.9315861844
 11
-32.0805851223
 21
-16.808470371
  0
LINE
  5
363
100
AcDbEntity
  8
0
100
AcDbLine
 62
253
  6
CONTINUOUS
 10
-32.0801748263
 20
56.5184138156
 11
-32.0805851223
 21
56.641529629
  0
LINE
  5
364
100
AcDbEntity
  8
0
100
AcDbLine
 62
7
  6
CONTINUOUS
 10
-32.3731865816
 20
-53.9981889534
 11
-32.3731865816
 21
56.501492533
  0
LINE
  5
365
100
AcDbEntity
  8
0
100
AcDbLine
 62
253
  6
CONTINUOUS
 10
-32.0784223035
 20
-53.79827199
 11
-32.0784223035
 21
-34.8440873548
  0
LINE
  5
366
100
AcDbEntity
  8
0
100
AcDbLine
 62
253
  6
CONTINUOUS
 10
-32.0784223035
 20
-30.6526090656
 11
-32.0784223035
 21
-17.148477006
  0
LINE
  5
367
100
AcDbEntity
  8
0
100
AcDbLine
 62
253
  6
CONTINUOUS
 10
-32.0784223035
 20
-16.6485531584
 11
-32.0784223035
 21
-0.8440873548
  0
LINE
  5
368
100
AcDbEntity
  8
0
100
AcDbLine
 62
253
  6
CONTINUOUS
 10
-32.0784223035
 20
3.3473909344
 11
-32.0784223035
 21
21.9018567381
  0
LINE
  5
369
100
AcDbEntity
  8
0
100
AcDbLine
 62
253
  6
CONTINUOUS
 10
-32.0784223035
 20
22.40172801
 11
-32.0784223035
 21
56.301522994
  0
LINE
  5
36A
100
AcDbEntity
  8
0
100
AcDbLine
 62
7
  6
CONTINUOUS
 10
-31.0731865816
 20
-47.1723553352
 11
-31.0731865816
 21
-52.5243410852
  0
LINE
  5
36B
100
AcDbEntity
  8
0
100
AcDbLine
 62
253
  6
CONTINUOUS
 10
-30.5819127848
 20
-47.1723553352
 11
-30.5819127848
 21
-52.5243410852
  0
LINE
  5
36C
100
AcDbEntity
  8
0
100
AcDbLine
 62
7
  6
CONTINUOUS
 10
-30.4731865816
 20
5.1358327681
 11
-30.4731865816
 21
3.2913348678
  0
LINE
  5
36D
100
AcDbEntity
  8
0
100
AcDbLine
 62
7
  6
CONTINUOUS
 10
-30.4731865816
 20
-0.7880312882
 11
-30.4731865816
 21
-2.6325291885
  0
LINE
  5
36E
100
AcDbEntity
  8
0
100
AcDbLine
 62
7
  6
CONTINUOUS
 10
-30.4731865816
 20
-28.8641672319
 11
-30.4731865816
 21
-30.7086651322
  0
LINE
  5
36F
100
AcDbEntity
  8
0
100
AcDbLine
 62
7
  6
CONTINUOUS
 10
-30.4731865816
 20
-34.7880312882
 11
-30.4731865816
 21
-36.6325291885
  0
LINE
  5
370
100
AcDbEntity
  8
0
100
AcDbLine
 62
253
  6
CONTINUOUS
 10
-32.0805435338
 20
22.0109542051
 11
-32.0805434432
 21
22.0901089064
  0
LINE
  5
371
100
AcDbEntity
  8
0
100
AcDbLine
 62
253
  6
CONTINUOUS
 10
-32.0805435338
 20
-54.1890457949
 11
-32.0805434432
 21
-54.1098910936
  0
LINE
  5
372
100
AcDbEntity
  8
0
100
AcDbLine
 62
253
  6
CONTINUOUS
 10
-32.0805851223
 20
56.641529629
 11
-32.0804610033
 21
56.7145494988
  0
LINE
  5
373
100
AcDbEntity
  8
0
100
AcDbLine
 62
253
  6
CONTINUOUS
 10
-32.0805851223
 20
-16.808470371
 11
-32.0804610033
 21
-16.7354505012
  0
LWPOLYLINE
  5
374
100
AcDbEntity
  8
0
100
AcDbPolyline
 62
253
  6
CONTINUOUS
 90
3
 70
0
 10
-30.5855254072
 20
-52.8782439835
 10
-30.5853401954
 20
-52.811451111
 10
-30.5851078855
 20
-52.7746313282
  0
LINE
  5
375
100
AcDbEntity
  8
0
100
AcDbLine
 62
253
  6
CONTINUOUS
 10
-32.0805434432
 20
22.0901089064
 11
-32.0797326881
 21
22.2544403298
  0
LINE
  5
376
100
AcDbEntity
  8
0
100
AcDbLine
 62
253
  6
CONTINUOUS
 10
-32.0805434432
 20
-54.1098910936
 11
-32.0797326881
 21
-53.9455596702
  0
LWPOLYLINE
  5
377
100
AcDbEntity
  8
0
100
AcDbPolyline
 62
253
  6
CONTINUOUS
 90
8
 70
0
 10
-32.0804610033
 20
56.7145494988
 10
-32.0801745228
 20
56.7519114005
 10
-32.0799722399
 20
56.7668648222
 10
-32.0797326881
 20
56.7792162829
 10
-32.0794554734
 20
56.7888954339
 10
-32.0791423268
 20
56.7958491248
 10
-32.0787970565
 20
56.8000403078
 10
-32.0784228978
 20
56.8014468284
  0
LWPOLYLINE
  5
378
100
AcDbEntity
  8
0
100
AcDbPolyline
 62
253
  6
CONTINUOUS
 90
8
 70
0
 10
-32.0804610033
 20
-16.7354505012
 10
-32.0801745228
 20
-16.6980885995
 10
-32.0799722399
 20
-16.6831351778
 10
-32.0797326881
 20
-16.6707837171
 10
-32.0794554734
 20
-16.6611045661
 10
-32.0791423268
 20
-16.6541508752
 10
-32.0787970565
 20
-16.6499596922
 10
-32.0784228978
 20
-16.6485531716
  0
LINE
  5
379
100
AcDbEntity
  8
0
100
AcDbLine
 62
253
  6
CONTINUOUS
 10
-32.0797326881
 20
22.2544403298
 11
-32.0784228978
 21
22.4017280203
  0
LINE
  5
37A
100
AcDbEntity
  8
0
100
AcDbLine
 62
253
  6
CONTINUOUS
 10
-32.0797326881
 20
-53.9455596702
 11
-32.0784228978
 21
-53.7982719797
  0
LINE
  5
37B
100
AcDbEntity
  8
0
100
AcDbLine
 62
7
  6
CONTINUOUS
 10
-23.5731865816
 20
-34.5470779787
 11
-26.5731865816
 21
-34.6518402871
  0
LINE
  5
37C
100
AcDbEntity
  8
0
100
AcDbLine
 62
7
  6
CONTINUOUS
 10
-29.3731865816
 20
-34.7496184417
 11
-32.3731865816
 21
-34.8543807502
  0
LINE
  5
37D
100
AcDbEntity
  8
IMPORT_IGES
100
AcDbLine
 62
253
  6
CONTINUOUS
 10
-23.4731865816
 20
-33.6353366545
 11
-23.5731865816
 21
-33.6353366545
  0
LINE
  5
37E
100
AcDbEntity
  8
IMPORT_IGES
100
AcDbLine
 62
253
  6
CONTINUOUS
 10
-23.4731865816
 20
-31.8236033388
 11
-23.5731865816
 21
-31.8236033388
  0
LINE
  5
37F
100
AcDbEntity
  8
IMPORT_IGES
100
AcDbLine
 62
7
  6
CONTINUOUS
 10
-23.5731865816
 20
-31.7895291651
 11
-23.4731865816
 21
-31.7895291651
  0
LINE
  5
380
100
AcDbEntity
  8
0
100
AcDbLine
 62
7
  6
CONTINUOUS
 10
-23.5731865816
 20
-30.9496184417
 11
-26.5731865816
 21
-30.8448561332
  0
LINE
  5
381
100
AcDbEntity
  8
0
100
AcDbLine
 62
7
  6
CONTINUOUS
 10
-29.3731865816
 20
-30.7470779787
 11
-32.3731865816
 21
-30.6423156702
  0
LWPOLYLINE
  5
382
100
AcDbEntity
  8
0
100
AcDbPolyline
 62
253
  6
CONTINUOUS
 90
8
 70
0
 10
-16.3644603784
 20
-46.6724314876
 10
-16.3637399834
 20
-46.6743103395
 10
-16.3630884823
 20
-46.6799262162
 10
-16.3625113411
 20
-46.6892662473
 10
-16.3620131332
 20
-46.702301734
 10
-16.3615988279
 20
-46.7189554902
 10
-16.3612729939
 20
-46.7390713868
 10
-16.3610382992
 20
-46.7624726374
  0
LINE
  5
383
100
AcDbEntity
  8
RACCORDO
100
AcDbLine
 62
7
  6
CONTINUOUS
 10
-27.6534648504
 20
17.8438013865
 11
-27.6525731337
 21
17.7561103775
  0
LINE
  5
384
100
AcDbEntity
  8
DRAFT
100
AcDbLine
 62
7
  6
CONTINUOUS
 10
-27.6508373825
 20
16.8516517898
 11
-27.6522405037
 21
17.1516517898
  0
LINE
  5
385
100
AcDbEntity
  8
RACCORDO
100
AcDbLine
 62
7
  6
CONTINUOUS
 10
-27.6525731337
 20
17.7561103775
 11
-27.6522405037
 21
17.6516517898
  0
LINE
  5
386
100
AcDbEntity
  8
0
100
AcDbLine
 62
7
  6
CONTINUOUS
 10
-29.3731865816
 20
-35.9156954623
 11
-29.3731865816
 21
-29.581000958
  0
LINE
  5
387
100
AcDbEntity
  8
0
100
AcDbLine
 62
7
  6
CONTINUOUS
 10
-29.3731865816
 20
-1.9156954623
 11
-29.3731865816
 21
4.418999042
  0
LINE
  5
388
100
AcDbEntity
  8
0
100
AcDbLine
 62
7
  6
CONTINUOUS
 10
-28.1731865816
 20
21.833690595
 11
-28.1731865816
 21
16.9763438732
  0
LINE
  5
389
100
AcDbEntity
  8
RACCORDO
100
AcDbLine
 62
7
  6
CONTINUOUS
 10
-27.6731865816
 20
17.9516517898
 11
-27.6731865816
 21
21.8249630625
  0
LINE
  5
38A
100
AcDbEntity
  8
RACCORDO
100
AcDbLine
 62
7
  6
CONTINUOUS
 10
-27.6522405037
 20
17.1516517898
 11
-27.6522405037
 21
17.6516517898
  0
LINE
  5
38B
100
AcDbEntity
  8
RACCORDO
100
AcDbLine
 62
7
  6
CONTINUOUS
 10
-27.5981298024
 20
18.8516517898
 11
-27.5981298024
 21
21.8236529416
  0
LINE
  5
38C
100
AcDbEntity
  8
DRAFT
100
AcDbLine
 62
7
  6
CONTINUOUS
 10
-26.5842793088
 20
21.8059561154
 11
-26.5842793088
 21
20.5516517898
  0
LINE
  5
38D
100
AcDbEntity
  8
0
100
AcDbLine
 62
7
  6
CONTINUOUS
 10
-26.5731865816
 20
3.3516517898
 11
-26.5731865816
 21
-0.8483482102
  0
LINE
  5
38E
100
AcDbEntity
  8
0
100
AcDbLine
 62
7
  6
CONTINUOUS
 10
-26.5731865816
 20
-30.6483482102
 11
-26.5731865816
 21
-34.8483482102
  0
LINE
  5
38F
100
AcDbEntity
  8
DRAFT
100
AcDbLine
 62
7
  6
CONTINUOUS
 10
-26.5092225296
 20
21.8046459944
 11
-26.5092225296
 21
20.5516517898
  0
LINE
  5
390
100
AcDbEntity
  8
0
100
AcDbLine
 62
7
  6
CONTINUOUS
 10
-26.4731865816
 20
-34.6483482102
 11
-26.4731865816
 21
-30.8483482102
  0
LINE
  5
391
100
AcDbEntity
  8
0
100
AcDbLine
 62
7
  6
CONTINUOUS
 10
-26.4731865816
 20
-0.6483482102
 11
-26.4731865816
 21
3.1516517898
  0
LINE
  5
392
100
AcDbEntity
  8
0
100
AcDbLine
 62
253
  6
CONTINUOUS
 10
-30.5851078855
 20
-52.7746313282
 11
-30.5838755736
 21
-52.6539115858
  0
LINE
  5
393
100
AcDbEntity
  8
0
100
AcDbLine
 62
253
  6
CONTINUOUS
 10
-30.5838755736
 20
-52.6539115858
 11
-30.5819127848
 21
-52.5243410852
  0
LINE
  5
394
100
AcDbEntity
  8
DRAFT
100
AcDbLine
 62
7
  6
CONTINUOUS
 10
-27.5981298024
 20
18.8516517898
 11
-27.6330399322
 21
16.8516517898
  0
LINE
  5
395
100
AcDbEntity
  8
0
100
AcDbLine
 62
7
  6
CONTINUOUS
 10
-23.4731865816
 20
-27.8483482102
 11
-27.9516905159
 21
-28.0830566559
  0
LINE
  5
396
100
AcDbEntity
  8
0
100
AcDbLine
 62
7
  6
CONTINUOUS
 10
-23.4731865816
 20
-27.5483482102
 11
-29.5255225378
 21
-27.8655376971
  0
LINE
  5
397
100
AcDbEntity
  8
0
100
AcDbLine
 62
7
  6
CONTINUOUS
 10
-14.5731865816
 20
-30.4388874311
 11
-26.5731865816
 21
-30.6483482102
  0
LINE
  5
398
100
AcDbEntity
  8
0
100
AcDbLine
 62
7
  6
CONTINUOUS
 10
-25.4731865816
 20
-34.6134274407
 11
-25.4731865816
 21
-30.8832689797
  0
LINE
  5
399
100
AcDbEntity
  8
0
100
AcDbLine
 62
7
  6
CONTINUOUS
 10
-25.4731865816
 20
-0.6134274407
 11
-25.4731865816
 21
3.1167310203
  0
LINE
  5
39A
100
AcDbEntity
  8
0
100
AcDbLine
 62
7
  6
CONTINUOUS
 10
-23.5731865816
 20
-34.900713405
 11
-23.5731865816
 21
-30.5959830154
  0
LINE
  5
39B
100
AcDbEntity
  8
0
100
AcDbLine
 62
7
  6
CONTINUOUS
 10
-23.5731865816
 20
-0.900713405
 11
-23.5731865816
 21
3.4040169846
  0
LINE
  5
39C
100
AcDbEntity
  8
0
100
AcDbLine
 62
7
  6
CONTINUOUS
 10
-23.4731865816
 20
56.9516517898
 11
-23.4731865816
 21
20.5516517898
  0
LINE
  5
39D
100
AcDbEntity
  8
0
100
AcDbLine
 62
7
  6
CONTINUOUS
 10
-23.4731865816
 20
-54.4483482102
 11
-23.4731865816
 21
-53.1483482102
  0
LINE
  5
39E
100
AcDbEntity
  8
0
100
AcDbLine
 62
7
  6
CONTINUOUS
 10
-23.4731865816
 20
-53.1463258367
 11
-23.4731865816
 21
-46.5503705837
  0
LINE
  5
39F
100
AcDbEntity
  8
0
100
AcDbLine
 62
7
  6
CONTINUOUS
 10
-23.4731865816
 20
-46.5483482102
 11
-23.4731865816
 21
16.8516517898
  0
LWPOLYLINE
  5
3A0
100
AcDbEntity
  8
0
100
AcDbPolyline
 62
253
  6
CONTINUOUS
 90
6
 70
0
 10
-32.0784223035
 20
21.9018567381
 10
-32.0787968047
 20
21.9032610712
 10
-32.0791423099
 20
21.9074526661
 10
-32.0794556044
 20
21.914408053
 10
-32.0797329087
 20
21.9240882984
 10
-32.07997252
 20
21.93643927
  0
LWPOLYLINE
  5
3A1
100
AcDbEntity
  8
RACCORDO
100
AcDbPolyline
 62
7
  6
CONTINUOUS
 90
6
 70
0
 10
-27.6574770231
 20
17.9516517898
 10
-27.6565262438
 20
17.9459875298
 10
-27.6556534398
 20
17.9325883894
 10
-27.654858611
 20
17.9114543685
 10
-27.6541227431
 20
17.8814953177
 10
-27.6534648504
 20
17.8438013865
  0
LINE
  5
3A2
100
AcDbEntity
  8
DRAFT
100
AcDbLine
 62
7
  6
CONTINUOUS
 10
-18.9482433608
 20
18.8516517898
 11
-18.9133332309
 21
16.8516517898
  0
LINE
  5
3A3
100
AcDbEntity
  8
0
100
AcDbLine
 62
253
  6
CONTINUOUS
 10
-16.3624975894
 20
-52.6539116015
 11
-16.3644603784
 21
-52.5243410852
  0
LINE
  5
3A4
100
AcDbEntity
  8
DRAFT
100
AcDbLine
 62
7
  6
CONTINUOUS
 10
-20.0371506335
 20
20.5516517898
 11
-20.0371506335
 21
21.8116280204
  0
LINE
  5
3A5
100
AcDbEntity
  8
DRAFT
100
AcDbLine
 62
7
  6
CONTINUOUS
 10
-19.9620938543
 20
20.5516517898
 11
-19.9620938543
 21
21.8129381413
  0
LINE
  5
3A6
100
AcDbEntity
  8
RACCORDO
100
AcDbLine
 62
7
  6
CONTINUOUS
 10
-18.9482433608
 20
21.8306349675
 11
-18.9482433608
 21
18.8516517898
  0
LINE
  5
3A7
100
AcDbEntity
  8
RACCORDO
100
AcDbLine
 62
7
  6
CONTINUOUS
 10
-18.8731865816
 20
21.8319450885
 11
-18.8731865816
 21
17.9516517898
  0
LINE
  5
3A8
100
AcDbEntity
  8
0
100
AcDbLine
 62
7
  6
CONTINUOUS
 10
-18.7731865816
 20
16.9763438732
 11
-18.7731865816
 21
21.833690595
  0
LINE
  5
3A9
100
AcDbEntity
  8
RACCORDO
100
AcDbLine
 62
7
  6
CONTINUOUS
 10
-18.8941326595
 20
17.1516517898
 11
-18.8940338535
 21
17.7061132997
  0
LINE
  5
3AA
100
AcDbEntity
  8
DRAFT
100
AcDbLine
 62
7
  6
CONTINUOUS
 10
-18.8955357807
 20
16.8516517898
 11
-18.8941326595
 21
17.1516517898
  0
LWPOLYLINE
  5
3AB
100
AcDbEntity
  8
RACCORDO
100
AcDbPolyline
 62
7
  6
CONTINUOUS
 90
8
 70
0
 10
-18.8940338535
 20
17.7061132997
 10
-18.8934311873
 20
17.8016430233
 10
-18.8929083127
 20
17.8438013865
 10
-18.8922504201
 20
17.8814953177
 10
-18.8915145522
 20
17.9114543685
 10
-18.8907197234
 20
17.9325883894
 10
-18.8898469193
 20
17.9459875298
 10
-18.88889614
 20
17.9516517898
  0
LINE
  5
3AC
100
AcDbEntity
  8
0
100
AcDbLine
 62
7
  6
CONTINUOUS
 10
13.5268134184
 20
-21.0483482102
 11
9.5268134184
 21
-21.0483482102
  0
LINE
  5
3AD
100
AcDbEntity
  8
0
100
AcDbLine
 62
253
  6
CONTINUOUS
 10
-32.3731865816
 20
-17.148477006
 11
-32.0784223035
 21
-17.1484770051
  0
LINE
  5
3AE
100
AcDbEntity
  8
0
100
AcDbLine
 62
253
  6
CONTINUOUS
 10
-14.5731865816
 20
-17.148477006
 11
-14.8679508596
 21
-17.148477006
  0
LINE
  5
3AF
100
AcDbEntity
  8
0
100
AcDbLine
 62
253
  6
CONTINUOUS
 10
-23.4731865816
 20
-16.9982720578
 11
-14.8679508596
 21
-17.1484244303
  0
LWPOLYLINE
  5
3B0
100
AcDbEntity
  8
0
100
AcDbPolyline
 62
253
  6
CONTINUOUS
 90
6
 70
0
 10
-14.8679508596
 20
-16.6485531584
 10
-14.8675763585
 20
-16.6499574915
 10
-14.8672308533
 20
-16.6541490865
 10
-14.8669175588
 20
-16.6611044733
 10
-14.8666402545
 20
-16.6707847188
 10
-14.8664006431
 20
-16.6831356903
  0
LINE
  5
3B1
100
AcDbEntity
  8
0
100
AcDbLine
 62
253
  6
CONTINUOUS
 10
-14.8664006431
 20
-16.6831356903
 11
-14.8660348074
 21
-16.7155591209
  0
LINE
  5
3B2
100
AcDbEntity
  8
0
100
AcDbLine
 62
253
  6
CONTINUOUS
 10
-14.8664006431
 20
56.7668643097
 11
-14.8660348074
 21
56.7344408791
  0
LINE
  5
3B3
100
AcDbEntity
  8
0
100
AcDbLine
 62
253
  6
CONTINUOUS
 10
-16.3612652774
 20
-52.7746313576
 11
-16.3624975894
 21
-52.6539116015
  0
LINE
  5
3B4
100
AcDbEntity
  8
0
100
AcDbLine
 62
253
  6
CONTINUOUS
 10
-14.8679508596
 20
-53.7982194144
 11
-14.8661983368
 21
-54.015110236
  0
LINE
  5
3B5
100
AcDbEntity
  8
0
100
AcDbLine
 62
253
  6
CONTINUOUS
 10
-14.8679508596
 20
22.4017805856
 11
-14.8661983368
 21
22.184889764
  0
LINE
  5
3B6
100
AcDbEntity
  8
0
100
AcDbLine
 62
253
  6
CONTINUOUS
 10
-16.360893439
 20
-52.8460790731
 11
-16.3612652774
 21
-52.7746313576
  0
LINE
  5
3B7
100
AcDbEntity
  8
0
100
AcDbLine
 62
253
  6
CONTINUOUS
 10
-14.8660348074
 20
-16.7155591209
 11
-14.8658296293
 21
-16.7576506255
  0
LINE
  5
3B8
100
AcDbEntity
  8
0
100
AcDbLine
 62
253
  6
CONTINUOUS
 10
-14.8660348074
 20
56.7344408791
 11
-14.8658296293
 21
56.6923493745
  0
LINE
  5
3B9
100
AcDbEntity
  8
0
100
AcDbLine
 62
253
  6
CONTINUOUS
 10
-16.3610382992
 20
-46.7624726374
 11
-16.3608477559
 21
-46.8184524369
  0
LINE
  5
3BA
100
AcDbEntity
  8
0
100
AcDbLine
 62
253
  6
CONTINUOUS
 10
-14.8661983368
 20
-54.015110236
 11
-14.8657880408
 21
-54.1382260494
  0
LINE
  5
3BB
100
AcDbEntity
  8
0
100
AcDbLine
 62
253
  6
CONTINUOUS
 10
-14.8661983368
 20
22.184889764
 11
-14.8657880408
 21
22.0617739506
  0
LINE
  5
3BC
100
AcDbEntity
  8
0
100
AcDbLine
 62
253
  6
CONTINUOUS
 10
-16.3644603784
 20
-52.5243410852
 11
-16.3644603784
 21
-47.1723553352
  0
LINE
  5
3BD
100
AcDbEntity
  8
0
100
AcDbLine
 62
7
  6
CONTINUOUS
 10
-15.8731865816
 20
-52.5243410852
 11
-15.8731865816
 21
-47.1723553352
  0
LINE
  5
3BE
100
AcDbEntity
  8
0
100
AcDbLine
 62
253
  6
CONTINUOUS
 10
-14.8679508596
 20
56.3015755697
 11
-14.8679508596
 21
22.4017805856
  0
LINE
  5
3BF
100
AcDbEntity
  8
0
100
AcDbLine
 62
253
  6
CONTINUOUS
 10
-14.8679508596
 20
21.9018567381
 11
-14.8679508596
 21
3.5559674393
  0
LINE
  5
3C0
100
AcDbEntity
  8
0
100
AcDbLine
 62
253
  6
CONTINUOUS
 10
-14.8679508596
 20
-1.0526638597
 11
-14.8679508596
 21
-16.6485531584
  0
LINE
  5
3C1
100
AcDbEntity
  8
0
100
AcDbLine
 62
253
  6
CONTINUOUS
 10
-14.8679508596
 20
-17.1484244303
 11
-14.8679508596
 21
-30.4440325607
  0
LINE
  5
3C2
100
AcDbEntity
  8
0
100
AcDbLine
 62
253
  6
CONTINUOUS
 10
-14.8679508596
 20
-35.0526638597
 11
-14.8679508596
 21
-53.7982194144
  0
LINE
  5
3C3
100
AcDbEntity
  8
0
100
AcDbLine
 62
7
  6
CONTINUOUS
 10
-14.5731865816
 20
56.501492533
 11
-14.5731865816
 21
-53.9981889534
  0
LINE
  5
3C4
100
AcDbEntity
  8
0
100
AcDbLine
 62
253
  6
CONTINUOUS
 10
-14.8658296293
 20
56.6923493745
 11
-14.86582972
 21
56.6131946732
  0
LINE
  5
3C5
100
AcDbEntity
  8
0
100
AcDbLine
 62
253
  6
CONTINUOUS
 10
-14.8658296293
 20
-16.7576506255
 11
-14.86582972
 21
-16.8368053268
  0
LINE
  5
3C6
100
AcDbEntity
  8
0
100
AcDbLine
 62
253
  6
CONTINUOUS
 10
-14.8657880408
 20
22.0617739506
 11
-14.8659121598
 21
21.9887540809
  0
LINE
  5
3C7
100
AcDbEntity
  8
0
100
AcDbLine
 62
253
  6
CONTINUOUS
 10
-14.8657880408
 20
-54.1382260494
 11
-14.8659121598
 21
-54.2112459191
  0
LINE
  5
3C8
100
AcDbEntity
  8
0
100
AcDbLine
 62
253
  6
CONTINUOUS
 10
-16.3608477559
 20
-46.8184524369
 11
-16.3610329678
 21
-46.8852453093
  0
LINE
  5
3C9
100
AcDbEntity
  8
0
100
AcDbLine
 62
253
  6
CONTINUOUS
 10
-14.86582972
 20
56.6131946732
 11
-14.8666404751
 21
56.4488632498
  0
LINE
  5
3CA
100
AcDbEntity
  8
0
100
AcDbLine
 62
253
  6
CONTINUOUS
 10
-14.86582972
 20
-16.8368053268
 11
-14.8666404751
 21
-17.0011367502
  0
LWPOLYLINE
  5
3CB
100
AcDbEntity
  8
0
100
AcDbPolyline
 62
253
  6
CONTINUOUS
 90
8
 70
0
 10
-14.8659121598
 20
21.9887540809
 10
-14.8661986404
 20
21.9513921791
 10
-14.8664009233
 20
21.9364387574
 10
-14.8666404751
 20
21.9240872967
 10
-14.8669176897
 20
21.9144081457
 10
-14.8672308363
 20
21.9074544548
 10
-14.8675761066
 20
21.9032632718
 10
-14.8679502654
 20
21.9018567512
  0
LWPOLYLINE
  5
3CC
100
AcDbEntity
  8
0
100
AcDbPolyline
 62
253
  6
CONTINUOUS
 90
8
 70
0
 10
-14.8659121598
 20
-54.2112459191
 10
-14.8661986404
 20
-54.2486078209
 10
-14.8664009233
 20
-54.2635612426
 10
-14.8666404751
 20
-54.2759127033
 10
-14.8669176897
 20
-54.2855918543
 10
-14.8672308363
 20
-54.2925455452
 10
-14.8675761066
 20
-54.2967367282
 10
-14.8679502654
 20
-54.2981432488
  0
LINE
  5
3CD
100
AcDbEntity
  8
0
100
AcDbLine
 62
253
  6
CONTINUOUS
 10
-14.8666404751
 20
56.4488632498
 11
-14.8679502654
 21
56.3015755593
  0
LINE
  5
3CE
100
AcDbEntity
  8
0
100
AcDbLine
 62
253
  6
CONTINUOUS
 10
-14.8666404751
 20
-17.0011367502
 11
-14.8679502654
 21
-17.1484244407
  0
LINE
  5
3CF
100
AcDbEntity
  8
0
100
AcDbLine
 62
253
  6
CONTINUOUS
 10
-16.3610329678
 20
-46.8852453093
 11
-16.3620003912
 21
-47.0011356949
  0
LWPOLYLINE
  5
3D0
100
AcDbEntity
  8
0
100
AcDbPolyline
 62
253
  6
CONTINUOUS
 90
3
 70
0
 10
-16.3620003912
 20
-47.0011356949
 10
-16.363732297
 20
-47.1287225406
 10
-16.3644603784
 20
-47.1723553352
  0
LWPOLYLINE
  5
3D1
100
AcDbEntity
  8
RACCORDO
100
AcDbPolyline
 62
253
  6
CONTINUOUS
 90
16
 70
0
 10
-1.1739353714
 20
14.0702482368
 10
-1.145185818
 20
14.0883795862
 10
-1.1153844441
 20
14.104841498
 10
-1.0849154548
 20
14.119421742
 10
-1.0541716627
 20
14.1319323471
 10
-1.0235494228
 20
14.1422120241
 10
-0.993443523
 20
14.1501282451
 10
-0.9642420947
 20
14.1555789526
 10
-0.9363216085
 20
14.1584938753
 10
-0.9100420211
 20
14.1588354336
 10
-0.8857421341
 20
14.156599224
 10
-0.8637352267
 20
14.1518140767
 10
-0.8443050164
 20
14.1445416827
 10
-0.8277020015
 20
14.1348757996
 10
-0.8141402316
 20
14.1229410419
 10
-0.8037945478
 20
14.1088912752
  0
LWPOLYLINE
  5
3D2
100
AcDbEntity
  8
RACCORDO
100
AcDbPolyline
 62
253
  6
CONTINUOUS
 90
16
 70
0
 10
6.7759566758
 20
18.6601246791
 10
6.7458798147
 20
18.6442915445
 10
6.7167227795
 20
18.6267128694
 10
6.6888614777
 20
18.6076152811
 10
6.6626551121
 20
18.5872449888
 10
6.6384415498
 20
18.5658646096
 10
6.6165329657
 20
18.5437497823
 10
6.5972118185
 20
18.5211856142
 10
6.580727209
 20
18.4984630053
 10
6.567291668
 20
18.4758748976
 10
6.5570784169
 20
18.4537124986
 10
6.5502191344
 20
18.4322615271
 10
6.5468022582
 20
18.4117985294
 10
6.5468718456
 20
18.3925873139
 10
6.5504270048
 20
18.3748755505
 10
6.5574219069
 20
18.3588915769
  0
LWPOLYLINE
  5
3D3
100
AcDbEntity
  8
RACCORDO
100
AcDbPolyline
 62
253
  6
CONTINUOUS
 90
19
 70
0
 10
-0.2634487463
 20
13.7599230481
 10
-0.3070823826
 20
13.7392015128
 10
-0.3527610757
 20
13.7225834931
 10
-0.4005026189
 20
13.7100444753
 10
-0.4505479945
 20
13.7013302021
 10
-0.5026702404
 20
13.6966319981
 10
-0.5561737484
 20
13.6965948692
 10
-0.6111875303
 20
13.7012388312
 10
-0.6675305813
 20
13.7104562466
 10
-0.7240212398
 20
13.7247123851
 10
-0.7806421881
 20
13.7441044163
 10
-0.837249851
 20
13.7684114645
 10
-0.8924511922
 20
13.7976453302
 10
-0.9460473654
 20
13.8318413801
 10
-0.9979625761
 20
13.8708046155
 10
-1.0469858693
 20
13.9142372344
 10
-1.0926067042
 20
13.9619921871
 10
-1.1349911553
 20
14.0140360101
 10
-1.1739385854
 20
14.070251481
  0
LINE
  5
3D4
100
AcDbEntity
  8
0
100
AcDbLine
 62
253
  6
CONTINUOUS
 10
-23.4731865816
 20
-16.9982720578
 11
-32.0784223035
 21
-17.148477006
  0
LINE
  5
3D5
100
AcDbEntity
  8
0
100
AcDbLine
 62
7
  6
CONTINUOUS
 10
-23.4731865816
 20
-16.4983482102
 11
-32.0784223035
 21
-16.6485531584
  0
LINE
  5
3D6
100
AcDbEntity
  8
0
100
AcDbLine
 62
7
  6
CONTINUOUS
 10
-32.0784223035
 20
-14.8485531584
 11
-23.4731865816
 21
-14.6983482102
  0
LINE
  5
3D7
100
AcDbEntity
  8
0
100
AcDbLine
 62
7
  6
CONTINUOUS
 10
-23.4731865816
 20
-16.4983482102
 11
-14.8679508596
 21
-16.6485531584
  0
LINE
  5
3D8
100
AcDbEntity
  8
0
100
AcDbLine
 62
7
  6
CONTINUOUS
 10
-14.8679508596
 20
-14.8485531584
 11
-23.4731865816
 21
-14.6983482102
  0
LWPOLYLINE
  5
3D9
100
AcDbEntity
  8
0
100
AcDbPolyline
 62
253
  6
CONTINUOUS
 90
10
 70
0
 10
-30.5819127848
 20
-46.6724314876
 10
-30.5826331794
 20
-46.6743103375
 10
-30.5832846802
 20
-46.6799262091
 10
-30.5838618214
 20
-46.6892662334
 10
-30.5843600293
 20
-46.7023017131
 10
-30.5847743348
 20
-46.7189554635
 10
-30.5851001689
 20
-46.7390713556
 10
-30.5853348637
 20
-46.7624726037
 10
-30.5854769721
 20
-46.7889981694
 10
-30.5854797242
 20
-46.8506173473
  0
LINE
  5
3DA
100
AcDbEntity
  8
RACCORDO
100
AcDbLine
 62
253
  6
CONTINUOUS
 10
6.5894638337
 20
17.7164539709
 11
6.2620621375
 21
17.5108433716
  0
LINE
  5
3DB
100
AcDbEntity
  8
RACCORDO
100
AcDbLine
 62
253
  6
CONTINUOUS
 10
6.2620621375
 20
17.5108433716
 11
5.930447381
 21
17.3040873426
  0
LINE
  5
3DC
100
AcDbEntity
  8
RACCORDO
100
AcDbLine
 62
7
  6
CONTINUOUS
 10
6.4476137634
 20
17.9490836541
 11
-0.3939869265
 21
13.9990836541
  0
LINE
  5
3DD
100
AcDbEntity
  8
RACCORDO
100
AcDbLine
 62
253
  6
CONTINUOUS
 10
5.9304473702
 20
17.3040873363
 11
0.4231794696
 21
14.1244647314
  0
LINE
  5
3DE
100
AcDbEntity
  8
RACCORDO
100
AcDbLine
 62
253
  6
CONTINUOUS
 10
0.4231794558
 20
14.1244647235
 11
0.0782561644
 21
13.9406241194
  0
LINE
  5
3DF
100
AcDbEntity
  8
RACCORDO
100
AcDbLine
 62
253
  6
CONTINUOUS
 10
0.0782561644
 20
13.9406241194
 11
-0.2634487463
 21
13.7599230481
  0
LWPOLYLINE
  5
3E0
100
AcDbEntity
  8
RACCORDO
100
AcDbPolyline
 62
253
  6
CONTINUOUS
 90
16
 70
0
 10
6.7759576493
 20
-16.1568175327
 10
6.7458806635
 20
-16.1409853639
 10
6.7167235427
 20
-16.1234075728
 10
6.6888621864
 20
-16.1043107761
 10
6.6626557885
 20
-16.0839411737
 10
6.6384422071
 20
-16.0625613745
 10
6.6165336088
 20
-16.040447011
 10
6.5972124434
 20
-16.017883186
 10
6.5807278032
 20
-15.9951607971
 10
6.5672922114
 20
-15.9725727859
 10
6.5570788821
 20
-15.9504103617
 10
6.5502194876
 20
-15.9289592471
 10
6.5468024604
 20
-15.9084959944
 10
6.5468718533
 20
-15.8892844202
 10
6.5504267716
 20
-15.8715722041
 10
6.5574213846
 20
-15.8555876957
  0
LINE
  5
3E1
100
AcDbEntity
  8
RACCORDO
100
AcDbLine
 62
253
  6
CONTINUOUS
 10
-0.2634487463
 20
-11.2566194685
 11
0.078316104
 21
-11.437352355
  0
LINE
  5
3E2
100
AcDbEntity
  8
RACCORDO
100
AcDbLine
 62
253
  6
CONTINUOUS
 10
0.078316104
 20
-11.437352355
 11
0.4231794558
 21
-11.6211611438
  0
LINE
  5
3E3
100
AcDbEntity
  8
RACCORDO
100
AcDbLine
 62
7
  6
CONTINUOUS
 10
-0.3939869265
 20
-11.4957800745
 11
6.4476137634
 21
-15.4457800745
  0
LINE
  5
3E4
100
AcDbEntity
  8
RACCORDO
100
AcDbLine
 62
253
  6
CONTINUOUS
 10
0.4231794666
 20
-11.6211611501
 11
5.9304473672
 21
-14.800783755
  0
LINE
  5
3E5
100
AcDbEntity
  8
RACCORDO
100
AcDbLine
 62
253
  6
CONTINUOUS
 10
5.930447381
 20
-14.8007837629
 11
6.2621196601
 21
-15.0075757937
  0
LINE
  5
3E6
100
AcDbEntity
  8
RACCORDO
100
AcDbLine
 62
253
  6
CONTINUOUS
 10
6.2621196601
 20
-15.0075757937
 11
6.5894638337
 21
-15.2131503913
  0
LWPOLYLINE
  5
3E7
100
AcDbEntity
  8
RACCORDO
100
AcDbPolyline
 62
253
  6
CONTINUOUS
 90
16
 70
0
 10
-1.1739379734
 20
-11.5669472837
 10
-1.1451876462
 20
-11.5850780421
 10
-1.1153855494
 20
-11.6015394378
 10
-1.0849159018
 20
-11.6161192388
 10
-1.0541715285
 20
-11.628629471
 10
-1.0235487957
 20
-11.6389088415
 10
-0.9934425014
 20
-11.6468248182
 10
-0.9642407851
 20
-11.6522753384
 10
-0.9363201237
 20
-11.6551901246
 10
-0.9100404781
 20
-11.6555315906
 10
-0.8857406521
 20
-11.653295326
 10
-0.8637339246
 20
-11.6485101532
 10
-0.8443040106
 20
-11.6412377558
 10
-0.8277014036
 20
-11.6315718837
 10
-0.8141401462
 20
-11.6196371438
 10
-0.8037950701
 20
-11.6055873941
  0
LWPOLYLINE
  5
3E8
100
AcDbEntity
  8
RACCORDO
100
AcDbPolyline
 62
253
  6
CONTINUOUS
 90
19
 70
0
 10
6.5894638337
 20
-15.2131503913
 10
6.6292260278
 20
-15.2405774611
 10
6.6664570016
 20
-15.2718273598
 10
6.7011868812
 20
-15.3069032402
 10
6.7337563509
 20
-15.3458866702
 10
6.7638862379
 20
-15.3886767573
 10
6.7906701464
 20
-15.43499359
 10
6.8141552483
 20
-15.4849589036
 10
6.8343442579
 20
-15.5383621248
 10
6.850243409
 20
-15.5944125394
 10
6.8617598916
 20
-15.6531437346
 10
6.8690132018
 20
-15.7143209328
 10
6.871296602
 20
-15.7767436296
 10
6.8684800407
 20
-15.840257302
 10
6.8606944944
 20
-15.904698811
 10
6.8475923897
 20
-15.9688705377
 10
6.8290458049
 20
-16.0322568161
 10
6.8051667576
 20
-16.0949847389
 10
6.7759564468
 20
-16.1568219383
  0
LWPOLYLINE
  5
3E9
100
AcDbEntity
  8
RACCORDO
100
AcDbPolyline
 62
253
  6
CONTINUOUS
 90
16
 70
0
 10
-5.9247911405
 20
-3.3382210857
 10
-5.926118573
 20
-3.3042575675
 10
-5.9254743197
 20
-3.2702178647
 10
-5.9228666868
 20
-3.2365408239
 10
-5.9183292926
 20
-3.2036606164
 10
-5.9119206341
 20
-3.1720011402
 10
-5.9037233327
 20
-3.1419705558
 10
-5.8938430697
 20
-3.1139560232
 10
-5.8824072237
 20
-3.0883187116
 10
-5.8695632281
 20
-3.0653891421
 10
-5.8554766704
 20
-3.0454629274
 10
-5.8403291575
 20
-3.0287969602
 10
-5.8243159744
 20
-3.0156061015
 10
-5.8076435667
 20
-3.0060604104
 10
-5.7905268784
 20
-3.000282952
 10
-5.7731865816
 20
-2.9983482103
  0
LINE
  5
3EA
100
AcDbEntity
  8
RACCORDO
100
AcDbLine
 62
253
  6
CONTINUOUS
 10
-5.200798331
 20
5.2081827126
 11
-5.1864351769
 21
4.8218392269
  0
LINE
  5
3EB
100
AcDbEntity
  8
RACCORDO
100
AcDbLine
 62
253
  6
CONTINUOUS
 10
-5.1864351769
 20
4.8218392269
 11
-5.1731865816
 21
4.4312744089
  0
LINE
  5
3EC
100
AcDbEntity
  8
RACCORDO
100
AcDbLine
 62
7
  6
CONTINUOUS
 10
-5.4731865816
 20
5.2016517898
 11
-5.4731865816
 21
-2.6983482102
  0
LINE
  5
3ED
100
AcDbEntity
  8
RACCORDO
100
AcDbLine
 62
253
  6
CONTINUOUS
 10
-5.1731865816
 20
4.4312743964
 11
-5.1731865816
 21
-1.9279708134
  0
LINE
  5
3EE
100
AcDbEntity
  8
RACCORDO
100
AcDbLine
 62
253
  6
CONTINUOUS
 10
-5.1731865816
 20
-1.9279708293
 11
-5.1864375939
 21
-2.3186034641
  0
LINE
  5
3EF
100
AcDbEntity
  8
RACCORDO
100
AcDbLine
 62
253
  6
CONTINUOUS
 10
-5.1864375939
 20
-2.3186034641
 11
-5.200798331
 21
-2.704879133
  0
LWPOLYLINE
  5
3F0
100
AcDbEntity
  8
RACCORDO
100
AcDbPolyline
 62
253
  6
CONTINUOUS
 90
16
 70
0
 10
-5.9247947155
 20
5.8415256054
 10
-5.9261212493
 20
5.8075617124
 10
-5.9254761878
 20
5.7735216416
 10
-5.9228678422
 20
5.7398442523
 10
-5.9183298344
 20
5.7069637278
 10
-5.911920664
 20
5.675303978
 10
-5.9037229539
 20
5.6452731739
 10
-5.8938423848
 20
5.6172584856
 10
-5.882406333
 20
5.5916210904
 10
-5.8695622284
 20
5.5686915167
 10
-5.8554756535
 20
5.5487653824
 10
-5.8403282085
 20
5.5320995837
 10
-5.8243151707
 20
5.5189089833
 10
-5.8076429765
 20
5.50936364
 10
-5.7905265598
 20
5.5035866165
 10
-5.7731865816
 20
5.5016523927
  0
LWPOLYLINE
  5
3F1
100
AcDbEntity
  8
RACCORDO
100
AcDbPolyline
 62
253
  6
CONTINUOUS
 90
19
 70
0
 10
-5.200798331
 20
-2.704879133
 10
-5.2046697745
 20
-2.7530277395
 10
-5.2131174938
 20
-2.8008956575
 10
-5.226129156
 20
-2.8485105532
 10
-5.2436050585
 20
-2.8962082508
 10
-5.2655974128
 20
-2.9436965341
 10
-5.2923170076
 20
-2.9900504897
 10
-5.3238456851
 20
-3.0353718394
 10
-5.359999724
 20
-3.0795576451
 10
-5.4005912243
 20
-3.1213519195
 10
-5.4456956721
 20
-3.1606910769
 10
-5.4950500028
 20
-3.197561219
 10
-5.5479679329
 20
-3.2307500474
 10
-5.6043806763
 20
-3.2600676781
 10
-5.6640814524
 20
-3.2855459652
 10
-5.7262068677
 20
-3.3062850839
 10
-5.7903742991
 20
-3.3219164152
 10
-5.8566378075
 20
-3.3326005182
 10
-5.9247955571
 20
-3.3382222471
  0
LINE
  5
3F2
100
AcDbEntity
  8
0
100
AcDbLine
 62
7
  6
CONTINUOUS
 10
-29.5255225378
 20
-3.6311587232
 11
-23.4731865816
 21
-3.9483482102
  0
LINE
  5
3F3
100
AcDbEntity
  8
0
100
AcDbLine
 62
7
  6
CONTINUOUS
 10
-23.4731865816
 20
-3.6483482102
 11
-27.9516905159
 21
-3.4136397645
  0
LINE
  5
3F4
100
AcDbEntity
  8
RACCORDO
100
AcDbLine
 62
7
  6
CONTINUOUS
 10
0.3540147912
 20
-17.3330395087
 11
-0.5040928269
 21
-15.8467535159
  0
LINE
  5
3F5
100
AcDbEntity
  8
RACCORDO
100
AcDbLine
 62
253
  6
CONTINUOUS
 10
1.220040195
 20
-16.8330395087
 11
0.3619325769
 21
-15.3467535159
  0
LINE
  5
3F6
100
AcDbEntity
  8
0
100
AcDbLine
 62
7
  6
CONTINUOUS
 10
-23.5731865816
 20
-0.5470779787
 11
-26.5731865816
 21
-0.6518402871
  0
LINE
  5
3F7
100
AcDbEntity
  8
0
100
AcDbLine
 62
7
  6
CONTINUOUS
 10
-29.3731865816
 20
-0.7496184417
 11
-32.3731865816
 21
-0.8543807502
  0
LINE
  5
3F8
100
AcDbEntity
  8
RACCORDO
100
AcDbLine
 62
253
  6
CONTINUOUS
 10
-5.9247955571
 20
-3.3382222471
 11
-6.5198213453
 21
-3.3587383717
  0
LINE
  5
3F9
100
AcDbEntity
  8
RACCORDO
100
AcDbLine
 62
253
  6
CONTINUOUS
 10
-6.5198213453
 20
-3.3587383717
 11
-6.9021833107
 21
-3.3713428626
  0
LWPOLYLINE
  5
3FA
100
AcDbEntity
  8
RACCORDO
100
AcDbPolyline
 62
253
  6
CONTINUOUS
 90
8
 70
0
 10
28.4219683795
 20
-2.7033295378
 10
28.4484928956
 20
-2.7027673756
 10
28.4716559293
 20
-2.7021382027
 10
28.4911062433
 20
-2.7014515597
 10
28.5065488986
 20
-2.7007178587
 10
28.5177497274
 20
-2.6999482251
 10
28.5245388836
 20
-2.6991543295
 10
28.5268134184
 20
-2.6983482102
  0
LINE
  5
3FB
100
AcDbEntity
  8
RACCORDO
100
AcDbLine
 62
253
  6
CONTINUOUS
 10
28.3604886135
 20
-2.7042198778
 11
28.4219683795
 21
-2.7033295378
  0
LWPOLYLINE
  5
3FC
100
AcDbEntity
  8
RACCORDO
100
AcDbPolyline
 62
253
  6
CONTINUOUS
 90
3
 70
0
 10
28.2544251854
 20
-2.7048791371
 10
28.2909315392
 20
-2.7047554243
 10
28.3604886135
 20
-2.7042198778
  0
LINE
  5
3FD
100
AcDbEntity
  8
RACCORDO
100
AcDbLine
 62
7
  6
CONTINUOUS
 10
29.6648259887
 20
-2.9983482102
 11
28.8268134184
 21
-2.9983482102
  0
LINE
  5
3FE
100
AcDbEntity
  8
RACCORDO
100
AcDbLine
 62
7
  6
CONTINUOUS
 10
-5.7731865816
 20
-2.9983482102
 11
-6.6111991519
 21
-2.9983482102
  0
LINE
  5
3FF
100
AcDbEntity
  8
RACCORDO
100
AcDbLine
 62
253
  6
CONTINUOUS
 10
-5.1731865816
 20
-1.9279708293
 11
-5.4731865816
 21
-1.9279708293
  0
LINE
  5
400
100
AcDbEntity
  8
RACCORDO
100
AcDbLine
 62
253
  6
CONTINUOUS
 10
28.2268134184
 20
-1.9279708293
 11
28.5268134184
 21
-1.9279708293
  0
LINE
  5
401
100
AcDbEntity
  8
RACCORDO
100
AcDbLine
 62
253
  6
CONTINUOUS
 10
-5.2007984919
 20
-2.704879171
 11
-5.2728402524
 21
-2.7045358807
  0
LWPOLYLINE
  5
402
100
AcDbEntity
  8
RACCORDO
100
AcDbPolyline
 62
253
  6
CONTINUOUS
 90
10
 70
0
 10
-5.2728402524
 20
-2.7045358807
 10
-5.3388605011
 20
-2.7038181618
 10
-5.3683448291
 20
-2.7033316485
 10
-5.3948697754
 20
-2.7027694647
 10
-5.4180331035
 20
-2.7021401477
 10
-5.4374835542
 20
-2.7014532534
 10
-5.452926172
 20
-2.7007192118
 10
-5.4641267778
 20
-2.6999491681
 10
-5.4709155208
 20
-2.6991548139
 10
-5.4731894531
 20
-2.6983482101
  0
LINE
  5
403
100
AcDbEntity
  8
0
100
AcDbLine
 62
7
  6
CONTINUOUS
 10
-14.5731865816
 20
-1.0578089893
 11
-26.5731865816
 21
-0.8483482102
  0
LINE
  5
404
100
AcDbEntity
  8
RACCORDO
100
AcDbLine
 62
253
  6
CONTINUOUS
 10
29.9558101476
 20
-3.3713428626
 11
29.6977535246
 21
-3.36287574
  0
LINE
  5
405
100
AcDbEntity
  8
RACCORDO
100
AcDbLine
 62
253
  6
CONTINUOUS
 10
29.6977535246
 20
-3.36287574
 11
29.5034230884
 21
-3.356371783
  0
LINE
  5
406
100
AcDbEntity
  8
RACCORDO
100
AcDbLine
 62
253
  6
CONTINUOUS
 10
29.5034230884
 20
-3.356371783
 11
28.9784223939
 21
-3.3382222471
  0
LWPOLYLINE
  5
407
100
AcDbEntity
  8
RACCORDO
100
AcDbPolyline
 62
253
  6
CONTINUOUS
 90
19
 70
0
 10
28.9784223939
 20
-3.3382222471
 10
28.9100448972
 20
-3.3325309295
 10
28.8436313525
 20
-3.3217981757
 10
28.7793892156
 20
-3.3061408124
 10
28.7172893095
 20
-3.2853943836
 10
28.6576983185
 20
-3.2599337856
 10
28.6014205227
 20
-3.2306743955
 10
28.5486683979
 20
-3.197611071
 10
28.499506298
 20
-3.1609059822
 10
28.4545409609
 20
-3.1217045578
 10
28.4139950372
 20
-3.0800019838
 10
28.3778295015
 20
-3.035880524
 10
28.3462662508
 20
-2.990585878
 10
28.3194883829
 20
-2.9442140601
 10
28.29741371
 20
-2.896670994
 10
28.279866718
 20
-2.8488930292
 10
28.266807053
 20
-2.801176122
 10
28.2583224729
 20
-2.7531807296
 10
28.2544251679
 20
-2.704879133
  0
LINE
  5
408
100
AcDbEntity
  8
RACCORDO
100
AcDbLine
 62
253
  6
CONTINUOUS
 10
22.6996120457
 20
-17.3330395087
 11
21.8335866419
 21
-16.8330395087
  0
LINE
  5
409
100
AcDbEntity
  8
RACCORDO
100
AcDbLine
 62
253
  6
CONTINUOUS
 10
23.5577196637
 20
-15.8467535159
 11
22.6916942599
 21
-15.3467535159
  0
LWPOLYLINE
  5
40A
100
AcDbEntity
  8
0
100
AcDbPolyline
 62
253
  6
CONTINUOUS
 90
6
 70
0
 10
-14.8679508596
 20
56.8014468416
 10
-14.8675763585
 20
56.8000425085
 10
-14.8672308533
 20
56.7958509135
 10
-14.8669175588
 20
56.7888955267
 10
-14.8666402545
 20
56.7792152812
 10
-14.8664006431
 20
56.7668643097
  0
LWPOLYLINE
  5
40B
100
AcDbEntity
  8
0
100
AcDbPolyline
 62
253
  6
CONTINUOUS
 90
10
 70
0
 10
-16.3644603784
 20
-53.0242649328
 10
-16.3637399838
 20
-53.0223860829
 10
-16.3630884829
 20
-53.0167702113
 10
-16.3625113418
 20
-53.007430187
 10
-16.3620131339
 20
-52.9943947073
 10
-16.3615988284
 20
-52.9777409569
 10
-16.3612729943
 20
-52.9576250648
 10
-16.3610382995
 20
-52.9342238167
 10
-16.3608961911
 20
-52.907698251
 10
-16.360893439
 20
-52.8460790731
  0
LINE
  5
40C
100
AcDbEntity
  8
0
100
AcDbLine
 62
7
  6
CONTINUOUS
 10
-14.5731865816
 20
3.5611125689
 11
-26.5731865816
 21
3.3516517898
  0
LINE
  5
40D
100
AcDbEntity
  8
RACCORDO
100
AcDbLine
 62
253
  6
CONTINUOUS
 10
-5.1731865816
 20
4.4312744089
 11
-5.4731865816
 21
4.4312744089
  0
LINE
  5
40E
100
AcDbEntity
  8
RACCORDO
100
AcDbLine
 62
253
  6
CONTINUOUS
 10
28.2268134184
 20
4.4312744089
 11
28.5268134184
 21
4.4312744089
  0
LINE
  5
40F
100
AcDbEntity
  8
0
100
AcDbLine
 62
7
  6
CONTINUOUS
 10
-23.5731865816
 20
3.0503815583
 11
-26.5731865816
 21
3.1551438668
  0
LINE
  5
410
100
AcDbEntity
  8
0
100
AcDbLine
 62
7
  6
CONTINUOUS
 10
-29.3731865816
 20
3.2529220213
 11
-32.3731865816
 21
3.3576843298
  0
LINE
  5
411
100
AcDbEntity
  8
RACCORDO
100
AcDbLine
 62
253
  6
CONTINUOUS
 10
16.27767039
 20
18.6601255179
 11
16.6830537816
 21
19.4209761886
  0
LINE
  5
412
100
AcDbEntity
  8
RACCORDO
100
AcDbLine
 62
253
  6
CONTINUOUS
 10
16.6830537816
 20
19.4209761886
 11
16.7376809725
 21
19.5231284497
  0
LWPOLYLINE
  5
413
100
AcDbEntity
  8
RACCORDO
100
AcDbPolyline
 62
253
  6
CONTINUOUS
 90
8
 70
0
 10
-0.3458783633
 20
-11.4024909435
 10
-0.3586537746
 20
-11.4257429294
 10
-0.3696904118
 20
-11.4461172915
 10
-0.3788209185
 20
-11.463305079
 10
-0.3859068424
 20
-11.4770456613
 10
-0.3908407346
 20
-11.4871306804
 10
-0.3935477789
 20
-11.4934072099
 10
-0.3939869265
 20
-11.4957800745
  0
LINE
  5
414
100
AcDbEntity
  8
RACCORDO
100
AcDbLine
 62
253
  6
CONTINUOUS
 10
-0.3159095374
 20
-11.3488027344
 11
-0.3458783633
 21
-11.4024909435
  0
LWPOLYLINE
  5
415
100
AcDbEntity
  8
RACCORDO
100
AcDbPolyline
 62
253
  6
CONTINUOUS
 90
3
 70
0
 10
-0.2634487586
 20
-11.2566194815
 10
-0.2815947971
 20
-11.2882967678
 10
-0.3159095374
 20
-11.3488027344
  0
LINE
  5
416
100
AcDbEntity
  8
RACCORDO
100
AcDbLine
 62
7
  6
CONTINUOUS
 10
-1.2228008328
 20
-12.3313278702
 11
-0.8037945477
 21
-11.6055876957
  0
LINE
  5
417
100
AcDbEntity
  8
RACCORDO
100
AcDbLine
 62
7
  6
CONTINUOUS
 10
16.4962054523
 20
18.3588912753
 11
16.9152117375
 21
19.0846314498
  0
LINE
  5
418
100
AcDbEntity
  8
RACCORDO
100
AcDbLine
 62
253
  6
CONTINUOUS
 10
0.4231794558
 20
-11.6211611438
 11
0.2731794558
 21
-11.880968765
  0
LINE
  5
419
100
AcDbEntity
  8
RACCORDO
100
AcDbLine
 62
253
  6
CONTINUOUS
 10
17.1231794558
 20
17.3040873426
 11
17.2731794558
 21
17.5638949637
  0
LINE
  5
41A
100
AcDbEntity
  8
RACCORDO
100
AcDbLine
 62
253
  6
CONTINUOUS
 10
16.464163071
 20
17.7164541973
 11
16.500480889
 21
17.7786728862
  0
LWPOLYLINE
  5
41B
100
AcDbEntity
  8
RACCORDO
100
AcDbPolyline
 62
253
  6
CONTINUOUS
 90
10
 70
0
 10
16.500480889
 20
17.7786728862
 10
16.5341124062
 20
17.8354894469
 10
16.5492758827
 20
17.8607804179
 10
16.5630252385
 20
17.883470618
 10
16.575151957
 20
17.9032159694
 10
16.5854721272
 20
17.9197170525
 10
16.5938292326
 20
17.9327236454
 10
16.6000965251
 20
17.9420385191
 10
16.6041789473
 20
17.947520428
 10
16.6060145735
 20
17.9490862516
  0
LINE
  5
41C
100
AcDbEntity
  8
RACCORDO
100
AcDbLine
 62
253
  6
CONTINUOUS
 10
-1.6913157567
 20
-12.3968302177
 11
-1.1739385854
 21
-11.5669479014
  0
LWPOLYLINE
  5
41D
100
AcDbEntity
  8
RACCORDO
100
AcDbPolyline
 62
253
  6
CONTINUOUS
 90
19
 70
0
 10
-1.1739385854
 20
-11.5669479014
 10
-1.1348064214
 20
-11.5105672566
 10
-1.0923021092
 20
-11.458415187
 10
-1.0466311471
 20
-11.4106135707
 10
-0.9976494016
 20
-11.3672271216
 10
-0.9458530648
 20
-11.3283794838
 10
-0.8923992631
 20
-11.2942872613
 10
-0.8373632612
 20
-11.2651211045
 10
-0.780942715
 20
-11.2408694967
 10
-0.7244723689
 20
-11.2215074859
 10
-0.6680778283
 20
-11.2072412532
 10
-0.6117929497
 20
-11.1979859417
 10
-0.5567928073
 20
-11.1933025325
 10
-0.5032472539
 20
-11.1932985126
 10
-0.4510385368
 20
-11.1979527302
 10
-0.4008895217
 20
-11.2066454791
 10
-0.3530362438
 20
-11.2191939817
 10
-0.307228622
 20
-11.2358438419
 10
-0.2634487463
 20
-11.2566194685
  0
LINE
  5
41E
100
AcDbEntity
  8
RACCORDO
100
AcDbLine
 62
253
  6
CONTINUOUS
 10
-1.6299438442
 20
-14.5084446037
 11
-0.9890886438
 21
-13.7407828213
  0
LINE
  5
41F
100
AcDbEntity
  8
0
100
AcDbLine
 62
7
  6
CONTINUOUS
 10
-23.4731865816
 20
6.1516517898
 11
-27.9516905159
 21
5.9169433441
  0
LINE
  5
420
100
AcDbEntity
  8
0
100
AcDbLine
 62
7
  6
CONTINUOUS
 10
-23.4731865816
 20
6.4516517898
 11
-29.5255225378
 21
6.1344623029
  0
LINE
  5
421
100
AcDbEntity
  8
RACCORDO
100
AcDbLine
 62
253
  6
CONTINUOUS
 10
28.9784223939
 20
5.8415258267
 11
29.1711949814
 21
5.8482477448
  0
LINE
  5
422
100
AcDbEntity
  8
RACCORDO
100
AcDbLine
 62
253
  6
CONTINUOUS
 10
29.1711949814
 20
5.8482477448
 11
29.8751782889
 21
5.8720248181
  0
LWPOLYLINE
  5
423
100
AcDbEntity
  8
RACCORDO
100
AcDbPolyline
 62
253
  6
CONTINUOUS
 90
3
 70
0
 10
29.8751782889
 20
5.8720248181
 10
29.9041027143
 20
5.8729645934
 10
29.9428508294
 20
5.8742302461
  0
LINE
  5
424
100
AcDbEntity
  8
RACCORDO
100
AcDbLine
 62
253
  6
CONTINUOUS
 10
29.9428508294
 20
5.8742302461
 11
29.9558101476
 21
5.8746464422
  0
LWPOLYLINE
  5
425
100
AcDbEntity
  8
RACCORDO
100
AcDbPolyline
 62
253
  6
CONTINUOUS
 90
8
 70
0
 10
-5.3683415426
 20
5.2066331174
 10
-5.3948660588
 20
5.2060709552
 10
-5.4180290925
 20
5.2054417824
 10
-5.4374794064
 20
5.2047551394
 10
-5.4529220618
 20
5.2040214383
 10
-5.4641228905
 20
5.2032518047
 10
-5.4709120467
 20
5.2024579091
 10
-5.4731865816
 20
5.2016517898
  0
LINE
  5
426
100
AcDbEntity
  8
RACCORDO
100
AcDbLine
 62
253
  6
CONTINUOUS
 10
-5.3068617767
 20
5.2075234574
 11
-5.3683415426
 21
5.2066331174
  0
LWPOLYLINE
  5
427
100
AcDbEntity
  8
RACCORDO
100
AcDbPolyline
 62
253
  6
CONTINUOUS
 90
3
 70
0
 10
-5.2007983485
 20
5.2081827167
 10
-5.2373047024
 20
5.2080590039
 10
-5.3068617767
 20
5.2075234574
  0
LINE
  5
428
100
AcDbEntity
  8
RACCORDO
100
AcDbLine
 62
7
  6
CONTINUOUS
 10
-6.6111991519
 20
5.5016517898
 11
-5.7731865816
 21
5.5016517898
  0
LINE
  5
429
100
AcDbEntity
  8
RACCORDO
100
AcDbLine
 62
7
  6
CONTINUOUS
 10
28.8268134184
 20
5.5016517898
 11
29.6648259887
 21
5.5016517898
  0
LINE
  5
42A
100
AcDbEntity
  8
RACCORDO
100
AcDbLine
 62
253
  6
CONTINUOUS
 10
28.2544253288
 20
5.2081827507
 11
28.3264670892
 21
5.2078394603
  0
LWPOLYLINE
  5
42B
100
AcDbEntity
  8
RACCORDO
100
AcDbPolyline
 62
253
  6
CONTINUOUS
 90
10
 70
0
 10
28.3264670892
 20
5.2078394603
 10
28.392487338
 20
5.2071217414
 10
28.421971666
 20
5.2066352282
 10
28.4484966122
 20
5.2060730444
 10
28.4716599404
 20
5.2054437273
 10
28.4911103911
 20
5.204756833
 10
28.5065530088
 20
5.2040227914
 10
28.5177536147
 20
5.2032527477
 10
28.5245423576
 20
5.2024583936
 10
28.5268162899
 20
5.2016517897
  0
LWPOLYLINE
  5
42C
100
AcDbEntity
  8
RACCORDO
100
AcDbPolyline
 62
253
  6
CONTINUOUS
 90
3
 70
0
 10
-6.9021833107
 20
5.8746464422
 10
-6.1175400818
 20
5.8482468069
 10
-5.9247955571
 20
5.8415258267
  0
LWPOLYLINE
  5
42D
100
AcDbEntity
  8
RACCORDO
100
AcDbPolyline
 62
253
  6
CONTINUOUS
 90
19
 70
0
 10
-5.9247955571
 20
5.8415258267
 10
-5.8564026836
 20
5.8358267482
 10
-5.7899857537
 20
5.8250930402
 10
-5.7257530622
 20
5.809441729
 10
-5.663688562
 20
5.7887156215
 10
-5.6041474461
 20
5.7632826207
 10
-5.5478959263
 20
5.7340365591
 10
-5.4951194697
 20
5.7009573156
 10
-5.4459068859
 20
5.6642217997
 10
-5.4009038638
 20
5.6249983739
 10
-5.360351738
 20
5.5832927181
 10
-5.3241939725
 20
5.539176588
 10
-5.2926379026
 20
5.4938871219
 10
-5.2658615439
 20
5.4475178422
 10
-5.2437877003
 20
5.3999771794
 10
-5.2262411111
 20
5.3522004885
 10
-5.2131814945
 20
5.3044834008
 10
-5.204696508
 20
5.2564867133
 10
-5.200798331
 20
5.2081827126
  0
LINE
  5
42E
100
AcDbEntity
  8
RACCORDO
100
AcDbLine
 62
253
  6
CONTINUOUS
 10
-1.1739385854
 20
14.070251481
 11
-1.5831515768
 21
14.7261783759
  0
LINE
  5
42F
100
AcDbEntity
  8
RACCORDO
100
AcDbLine
 62
253
  6
CONTINUOUS
 10
-1.5831515768
 20
14.7261783759
 11
-1.6913157567
 21
14.9001337973
  0
LWPOLYLINE
  5
430
100
AcDbEntity
  8
RACCORDO
100
AcDbPolyline
 62
253
  6
CONTINUOUS
 90
8
 70
0
 10
16.5492765977
 20
-15.3574722711
 10
16.5630257025
 20
-15.3801620948
 10
16.5751520991
 20
-15.399907284
 10
16.5854719064
 20
-15.4164084285
 10
16.5938286378
 20
-15.4294153098
 10
16.6000955744
 20
-15.4387306953
 10
16.6041776863
 20
-15.4442133292
 10
16.6060130735
 20
-15.4457800745
  0
LINE
  5
431
100
AcDbEntity
  8
RACCORDO
100
AcDbLine
 62
253
  6
CONTINUOUS
 10
16.5177656577
 20
-15.304674402
 11
16.5492765977
 21
-15.3574722711
  0
LWPOLYLINE
  5
432
100
AcDbEntity
  8
RACCORDO
100
AcDbPolyline
 62
253
  6
CONTINUOUS
 90
3
 70
0
 10
16.4641630083
 20
-15.2131504085
 10
16.4825233237
 20
-15.2447039819
 10
16.5177656577
 20
-15.304674402
  0
LINE
  5
433
100
AcDbEntity
  8
RACCORDO
100
AcDbLine
 62
7
  6
CONTINUOUS
 10
16.9152117375
 20
-16.5813278702
 11
16.4962054523
 21
-15.8555876957
  0
LINE
  5
434
100
AcDbEntity
  8
RACCORDO
100
AcDbLine
 62
7
  6
CONTINUOUS
 10
-0.8037945477
 20
14.1088912753
 11
-1.2228008328
 21
14.8346314498
  0
LINE
  5
435
100
AcDbEntity
  8
RACCORDO
100
AcDbLine
 62
253
  6
CONTINUOUS
 10
17.1231794558
 20
-14.8007837629
 11
17.2731794558
 21
-15.0605913841
  0
LINE
  5
436
100
AcDbEntity
  8
RACCORDO
100
AcDbLine
 62
253
  6
CONTINUOUS
 10
0.4231794558
 20
14.1244647235
 11
0.2731794558
 21
14.3842723446
  0
LINE
  5
437
100
AcDbEntity
  8
RACCORDO
100
AcDbLine
 62
253
  6
CONTINUOUS
 10
-0.2634488597
 20
13.7599231684
 11
-0.2991724417
 21
13.8224848082
  0
LWPOLYLINE
  5
438
100
AcDbEntity
  8
RACCORDO
100
AcDbPolyline
 62
253
  6
CONTINUOUS
 90
10
 70
0
 10
-0.2991724417
 20
13.8224848082
 10
-0.3315610033
 20
13.8800188803
 10
-0.3458818345
 20
13.905796314
 10
-0.3586574421
 20
13.9290486832
 10
-0.3696941016
 20
13.9494233723
 10
-0.3788244591
 20
13.9666114038
 10
-0.3859100693
 20
13.9803521239
 10
-0.3908434948
 20
13.990437155
 10
-0.3935499354
 20
13.9967135559
 10
-0.3939883622
 20
13.999086141
  0
LINE
  5
439
100
AcDbEntity
  8
RACCORDO
100
AcDbLine
 62
253
  6
CONTINUOUS
 10
16.7376809725
 20
-17.0198248701
 11
16.27767039
 21
-16.1568219383
  0
LWPOLYLINE
  5
43A
100
AcDbEntity
  8
RACCORDO
100
AcDbPolyline
 62
253
  6
CONTINUOUS
 90
19
 70
0
 10
16.27767039
 20
-16.1568219383
 10
16.2484094013
 20
-16.0947421678
 10
16.2244965403
 20
-16.0318563188
 10
16.2059346073
 20
-15.9684032973
 10
16.192851713
 20
-15.9042906368
 10
16.1851068402
 20
-15.8400098743
 10
16.1823090103
 20
-15.7766714129
 10
16.1845683785
 20
-15.7144257587
 10
16.1917761431
 20
-15.6534383286
 10
16.2032433229
 20
-15.5948525689
 10
16.2190856733
 20
-15.5388803477
 10
16.2392127778
 20
-15.4855085573
 10
16.2626568976
 20
-15.4355353321
 10
16.289426193
 20
-15.3891615126
 10
16.3195612222
 20
-15.3462745462
 10
16.3521638711
 20
-15.3071905996
 10
16.3869578321
 20
-15.2720226966
 10
16.4242808449
 20
-15.2406770625
 10
16.4641630032
 20
-15.2131503913
  0
LINE
  5
43B
100
AcDbEntity
  8
0
100
AcDbLine
 62
7
  6
CONTINUOUS
 10
9.5268134184
 20
-21.0483482102
 11
9.5268134184
 21
-57.2950696894
  0
LINE
  5
43C
100
AcDbEntity
  8
ASSI
100
AcDbLine
 62
7
  6
CONTINUOUS
 10
11.0768134184
 20
-20.9125990871
 11
11.0768134184
 21
-21.0483482102
  0
LINE
  5
43D
100
AcDbEntity
  8
0
100
AcDbLine
 62
7
  6
CONTINUOUS
 10
11.0768134184
 20
-20.9125990871
 11
11.0768134184
 21
-21.0483482102
  0
LINE
  5
43E
100
AcDbEntity
  8
ASSI
100
AcDbLine
 62
7
  6
CONTINUOUS
 10
11.9768134184
 20
-20.9125990871
 11
11.9768134184
 21
-21.0483482102
  0
LINE
  5
43F
100
AcDbEntity
  8
0
100
AcDbLine
 62
7
  6
CONTINUOUS
 10
11.9768134184
 20
-20.9125990871
 11
11.9768134184
 21
-21.0483482102
  0
LINE
  5
440
100
AcDbEntity
  8
0
100
AcDbLine
 62
7
  6
CONTINUOUS
 10
13.5268134184
 20
-21.0483482102
 11
13.5268134184
 21
-57.2950696894
  0
LINE
  5
441
100
AcDbEntity
  8
RACCORDO
100
AcDbLine
 62
253
  6
CONTINUOUS
 10
6.7759564468
 20
-16.1568219383
 11
6.6430964536
 21
-16.4067090929
  0
LINE
  5
442
100
AcDbEntity
  8
RACCORDO
100
AcDbLine
 62
253
  6
CONTINUOUS
 10
6.6430964536
 20
-16.4067090929
 11
6.3539914006
 21
-16.9486848201
  0
LINE
  5
443
100
AcDbEntity
  8
RACCORDO
100
AcDbLine
 62
253
  6
CONTINUOUS
 10
6.3539914006
 20
-16.9486848201
 11
6.3159458644
 21
-17.0198248701
  0
LINE
  5
444
100
AcDbEntity
  8
RACCORDO
100
AcDbLine
 62
253
  6
CONTINUOUS
 10
23.3527974014
 20
13.8224842081
 11
23.3851847416
 21
13.8800175073
  0
LINE
  5
445
100
AcDbEntity
  8
RACCORDO
100
AcDbLine
 62
253
  6
CONTINUOUS
 10
23.3170755973
 20
13.7599230631
 11
23.3527974014
 21
13.8224842081
  0
LINE
  5
446
100
AcDbEntity
  8
RACCORDO
100
AcDbLine
 62
253
  6
CONTINUOUS
 10
5.930447381
 20
-14.8007837629
 11
5.780447381
 21
-15.0605913841
  0
LINE
  5
447
100
AcDbEntity
  8
RACCORDO
100
AcDbLine
 62
253
  6
CONTINUOUS
 10
22.630447381
 20
14.1244647235
 11
22.780447381
 21
14.3842723446
  0
LINE
  5
448
100
AcDbEntity
  8
RACCORDO
100
AcDbLine
 62
7
  6
CONTINUOUS
 10
24.2764276697
 20
14.8346314498
 11
23.8574213845
 21
14.1088912753
  0
LINE
  5
449
100
AcDbEntity
  8
RACCORDO
100
AcDbLine
 62
7
  6
CONTINUOUS
 10
6.5574213845
 20
-15.8555876957
 11
6.1384150994
 21
-16.5813278702
  0
LINE
  5
44A
100
AcDbEntity
  8
RACCORDO
100
AcDbLine
 62
253
  6
CONTINUOUS
 10
6.5894637862
 20
-15.2131505496
 11
6.5531456078
 21
-15.2753688991
  0
LINE
  5
44B
100
AcDbEntity
  8
RACCORDO
100
AcDbLine
 62
253
  6
CONTINUOUS
 10
1.067096595
 20
-18.053999174
 11
1.5765810969
 21
-17.1935193413
  0
LWPOLYLINE
  5
44C
100
AcDbEntity
  8
RACCORDO
100
AcDbPolyline
 62
253
  6
CONTINUOUS
 90
10
 70
0
 10
6.5531456078
 20
-15.2753688991
 10
6.5195139206
 20
-15.3321852522
 10
6.5043504238
 20
-15.3574761727
 10
6.4906010852
 20
-15.3801663581
 10
6.4784744166
 20
-15.3999117301
 10
6.4681543234
 20
-15.4164128674
 10
6.4597973158
 20
-15.4294195459
 10
6.4535301354
 20
-15.4387345332
 10
6.4494478331
 20
-15.44421658
 10
6.4476123275
 20
-15.4457825613
  0
LWPOLYLINE
  5
44D
100
AcDbEntity
  8
RACCORDO
100
AcDbPolyline
 62
253
  6
CONTINUOUS
 90
3
 70
0
 10
24.7449425936
 20
14.9001337973
 10
24.3297582243
 20
14.2338126458
 10
24.2275654223
 20
14.070251481
  0
LWPOLYLINE
  5
44E
100
AcDbEntity
  8
RACCORDO
100
AcDbPolyline
 62
253
  6
CONTINUOUS
 90
19
 70
0
 10
24.2275654223
 20
14.070251481
 10
24.1884332583
 20
14.0138708362
 10
24.145928946
 20
13.9617187666
 10
24.100257984
 20
13.9139171503
 10
24.0512762384
 20
13.8705307012
 10
23.9994799016
 20
13.8316830634
 10
23.9460260999
 20
13.7975908409
 10
23.890990098
 20
13.7684246841
 10
23.8345695519
 20
13.7441730763
 10
23.7780992058
 20
13.7248110655
 10
23.7217046652
 20
13.7105448328
 10
23.6654197865
 20
13.7012895213
 10
23.6104196441
 20
13.6966061121
 10
23.5568740907
 20
13.6966020922
 10
23.5046653737
 20
13.7012563098
 10
23.4545163585
 20
13.7099490587
 10
23.4066630807
 20
13.7224975613
 10
23.3608554588
 20
13.7391474215
 10
23.3170755831
 20
13.7599230481
  0
LINE
  5
44F
100
AcDbEntity
  8
RACCORDO
100
AcDbLine
 62
253
  6
CONTINUOUS
 10
-0.5040928269
 20
-15.8467535159
 11
0.3619325769
 21
-15.3467535159
  0
LINE
  5
450
100
AcDbEntity
  8
RACCORDO
100
AcDbLine
 62
253
  6
CONTINUOUS
 10
24.683570681
 20
-14.5084446037
 11
24.0427154807
 21
-13.7407828213
  0
LINE
  5
451
100
AcDbEntity
  8
RACCORDO
100
AcDbLine
 62
253
  6
CONTINUOUS
 10
21.9865302419
 20
-18.053999174
 11
21.47704574
 21
-17.1935193413
  0
LWPOLYLINE
  5
452
100
AcDbEntity
  8
RACCORDO
100
AcDbPolyline
 62
253
  6
CONTINUOUS
 90
9
 70
0
 10
23.3851847416
 20
13.8800175073
 10
23.3995052047
 20
13.9057945313
 10
23.4122806161
 20
13.9290465175
 10
23.4233172532
 20
13.9494208793
 10
23.4324477595
 20
13.9666086661
 10
23.4395336827
 20
13.9803492473
 10
23.444467574
 20
13.9904342647
 10
23.4471746171
 20
13.9967107921
 10
23.4476137634
 20
13.9990836541
  0
LINE
  5
453
100
AcDbEntity
  8
RACCORDO
100
AcDbLine
 62
253
  6
CONTINUOUS
 10
0.3540147912
 20
-17.3330395087
 11
1.220040195
 21
-16.8330395087
  0
LINE
  5
454
100
AcDbEntity
  8
0
100
AcDbLine
 62
7
  6
CONTINUOUS
 10
-18.8949575572
 20
16.975281194
 11
-18.7731865816
 21
16.9763438732
  0
LINE
  5
455
100
AcDbEntity
  8
DRAFT
100
AcDbLine
 62
7
  6
CONTINUOUS
 10
-18.9133332309
 20
16.8516517898
 11
-27.6330399322
 21
16.8516517898
  0
LINE
  5
456
100
AcDbEntity
  8
0
100
AcDbLine
 62
7
  6
CONTINUOUS
 10
-28.1731865816
 20
16.9763438732
 11
-27.6513992788
 21
16.9717903044
  0
LINE
  5
457
100
AcDbEntity
  8
RACCORDO
100
AcDbLine
 62
253
  6
CONTINUOUS
 10
24.2275654223
 20
-11.5669479014
 11
24.3775440497
 21
-11.806951608
  0
LINE
  5
458
100
AcDbEntity
  8
RACCORDO
100
AcDbLine
 62
253
  6
CONTINUOUS
 10
24.3775440497
 20
-11.806951608
 11
24.7023562711
 21
-12.3283117918
  0
LINE
  5
459
100
AcDbEntity
  8
RACCORDO
100
AcDbLine
 62
253
  6
CONTINUOUS
 10
24.7023562711
 20
-12.3283117918
 11
24.7449425936
 21
-12.3968302177
  0
LWPOLYLINE
  5
45A
100
AcDbEntity
  8
RACCORDO
100
AcDbPolyline
 62
253
  6
CONTINUOUS
 90
8
 70
0
 10
6.5043502391
 20
17.8607758508
 10
6.4906011343
 20
17.8834656745
 10
6.4784747377
 20
17.9032108637
 10
6.4681549305
 20
17.9197120082
 10
6.4597981991
 20
17.9327188894
 10
6.4535312624
 20
17.9420342749
 10
6.4494491506
 20
17.9475169088
 10
6.4476137634
 20
17.9490836541
  0
LINE
  5
45B
100
AcDbEntity
  8
RACCORDO
100
AcDbLine
 62
253
  6
CONTINUOUS
 10
6.5358611792
 20
17.8079779816
 11
6.5043502391
 21
17.8607758508
  0
LWPOLYLINE
  5
45C
100
AcDbEntity
  8
RACCORDO
100
AcDbPolyline
 62
253
  6
CONTINUOUS
 90
3
 70
0
 10
6.5894638285
 20
17.7164539881
 10
6.5711035132
 20
17.7480075615
 10
6.5358611792
 20
17.8079779816
  0
LINE
  5
45D
100
AcDbEntity
  8
RACCORDO
100
AcDbLine
 62
253
  6
CONTINUOUS
 10
22.630447381
 20
-11.6211611438
 11
22.780447381
 21
-11.880968765
  0
LINE
  5
45E
100
AcDbEntity
  8
RACCORDO
100
AcDbLine
 62
253
  6
CONTINUOUS
 10
5.930447381
 20
17.3040873426
 11
5.780447381
 21
17.5638949637
  0
LINE
  5
45F
100
AcDbEntity
  8
RACCORDO
100
AcDbLine
 62
7
  6
CONTINUOUS
 10
6.1384150994
 20
19.0846314498
 11
6.5574213845
 21
18.3588912753
  0
LINE
  5
460
100
AcDbEntity
  8
RACCORDO
100
AcDbLine
 62
7
  6
CONTINUOUS
 10
23.8574213845
 20
-11.6055876957
 11
24.2764276697
 21
-12.3313278702
  0
LINE
  5
461
100
AcDbEntity
  8
RACCORDO
100
AcDbLine
 62
253
  6
CONTINUOUS
 10
23.3170756966
 20
-11.2566195888
 11
23.3527992786
 21
-11.3191812286
  0
LWPOLYLINE
  5
462
100
AcDbEntity
  8
RACCORDO
100
AcDbPolyline
 62
253
  6
CONTINUOUS
 90
10
 70
0
 10
23.3527992786
 20
-11.3191812286
 10
23.3851878401
 20
-11.3767153007
 10
23.3995086713
 20
-11.4024927343
 10
23.412284279
 20
-11.4257451035
 10
23.4233209385
 20
-11.4461197927
 10
23.432451296
 20
-11.4633078242
 10
23.4395369061
 20
-11.4770485443
 10
23.4444703317
 20
-11.4871335754
 10
23.4471767723
 20
-11.4934099763
 10
23.447615199
 20
-11.4957825614
  0
LWPOLYLINE
  5
463
100
AcDbEntity
  8
RACCORDO
100
AcDbPolyline
 62
253
  6
CONTINUOUS
 90
3
 70
0
 10
6.3159458644
 20
19.5231284497
 10
6.6854047241
 20
18.8304076629
 10
6.7759564468
 20
18.6601255179
  0
LWPOLYLINE
  5
464
100
AcDbEntity
  8
RACCORDO
100
AcDbPolyline
 62
253
  6
CONTINUOUS
 90
19
 70
0
 10
6.7759564468
 20
18.6601255179
 10
6.8052174355
 20
18.5980457474
 10
6.8291302965
 20
18.5351598984
 10
6.8476922295
 20
18.4717068769
 10
6.8607751239
 20
18.4075942164
 10
6.8685199967
 20
18.343313454
 10
6.8713178266
 20
18.2799749925
 10
6.8690584584
 20
18.2177293384
 10
6.8618506937
 20
18.1567419082
 10
6.8503835139
 20
18.0981561485
 10
6.8345411635
 20
18.0421839274
 10
6.8144140591
 20
17.9888121369
 10
6.7909699392
 20
17.9388389118
 10
6.7642006439
 20
17.8924650923
 10
6.7340656147
 20
17.8495781258
 10
6.7014629657
 20
17.8104941792
 10
6.6666690047
 20
17.7753262762
 10
6.6293459919
 20
17.7439806421
 10
6.5894638337
 20
17.7164539709
  0
LINE
  5
465
100
AcDbEntity
  8
RACCORDO
100
AcDbLine
 62
253
  6
CONTINUOUS
 10
16.4641630032
 20
-15.2131503913
 11
16.7915646993
 21
-15.007539792
  0
LINE
  5
466
100
AcDbEntity
  8
RACCORDO
100
AcDbLine
 62
253
  6
CONTINUOUS
 10
16.7915646993
 20
-15.007539792
 11
17.1231794558
 21
-14.8007837629
  0
LINE
  5
467
100
AcDbEntity
  8
RACCORDO
100
AcDbLine
 62
253
  6
CONTINUOUS
 10
17.1231794666
 20
-14.8007837567
 11
22.6304473672
 21
-11.6211611518
  0
LINE
  5
468
100
AcDbEntity
  8
RACCORDO
100
AcDbLine
 62
7
  6
CONTINUOUS
 10
16.6060130735
 20
-15.4457800745
 11
23.4476137634
 21
-11.4957800745
  0
LINE
  5
469
100
AcDbEntity
  8
RACCORDO
100
AcDbLine
 62
253
  6
CONTINUOUS
 10
22.630447381
 20
-11.6211611438
 11
22.9753706724
 21
-11.4373205398
  0
LINE
  5
46A
100
AcDbEntity
  8
RACCORDO
100
AcDbLine
 62
253
  6
CONTINUOUS
 10
22.9753706724
 20
-11.4373205398
 11
23.3170755831
 21
-11.2566194685
  0
LWPOLYLINE
  5
46B
100
AcDbEntity
  8
RACCORDO
100
AcDbPolyline
 62
253
  6
CONTINUOUS
 90
16
 70
0
 10
16.277670161
 20
-16.1568210994
 10
16.3077470221
 20
-16.1409879649
 10
16.3369040574
 20
-16.1234092898
 10
16.3647653592
 20
-16.1043117015
 10
16.3909717247
 20
-16.0839414092
 10
16.4151852871
 20
-16.0625610299
 10
16.4370938712
 20
-16.0404462026
 10
16.4564150183
 20
-16.0178820346
 10
16.4728996279
 20
-15.9951594257
 10
16.4863351689
 20
-15.972571318
 10
16.4965484199
 20
-15.950408919
 10
16.5034077025
 20
-15.9289579475
 10
16.5068245786
 20
-15.9084949497
 10
16.5067549913
 20
-15.8892837343
 10
16.5031998321
 20
-15.8715719708
 10
16.4962049299
 20
-15.8555879973
  0
LWPOLYLINE
  5
46C
100
AcDbEntity
  8
RACCORDO
100
AcDbPolyline
 62
253
  6
CONTINUOUS
 90
19
 70
0
 10
23.3170755831
 20
-11.2566194685
 10
23.3607092194
 20
-11.2358979332
 10
23.4063879125
 20
-11.2192799135
 10
23.4541294558
 20
-11.2067408956
 10
23.5041748314
 20
-11.1980266224
 10
23.5562970773
 20
-11.1933284185
 10
23.6098005852
 20
-11.1932912896
 10
23.6648143671
 20
-11.1979352516
 10
23.7211574181
 20
-11.207152667
 10
23.7776480766
 20
-11.2214088055
 10
23.8342690249
 20
-11.2408008366
 10
23.8908766879
 20
-11.2651078849
 10
23.9460780291
 20
-11.2943417506
 10
23.9996742022
 20
-11.3285378005
 10
24.051589413
 20
-11.3675010358
 10
24.1006127061
 20
-11.4109336548
 10
24.1462335411
 20
-11.4586886075
 10
24.1886179922
 20
-11.5107324305
 10
24.2275654223
 20
-11.5669479014
  0
LWPOLYLINE
  5
46D
100
AcDbEntity
  8
0
100
AcDbPolyline
 62
7
  6
CONTINUOUS
 90
19
 70
0
 10
-14.8679508596
 20
20.0638687165
 10
-14.8407038832
 20
20.0646482724
 10
-14.8139009631
 20
20.0663570519
 10
-14.7877537994
 20
20.0689950551
 10
-14.7624637744
 20
20.0726142514
 10
-14.7382144348
 20
20.0771626714
 10
-14.7151712318
 20
20.0824844066
 10
-14.6934915738
 20
20.0885915516
 10
-14.673314948
 20
20.0954720119
 10
-14.6547585307
 20
20.1029335954
 10
-14.6379325713
 20
20.1109820343
 10
-14.6229282004
 20
20.1196115963
 10
-14.6098137647
 20
20.1286128929
 10
-14.5986524728
 20
20.1379862931
 10
-14.5894892252
 20
20.1477314279
 10
-14.582348801
 20
20.1576378015
 10
-14.5772497067
 20
20.1676352486
 10
-14.5741989409
 20
20.1777939345
 10
-14.5731865816
 20
20.1881138592
  0
LINE
  5
46E
100
AcDbEntity
  8
0
100
AcDbLine
 62
7
  6
CONTINUOUS
 10
-14.8679508596
 20
19.1518567381
 11
-18.7731865816
 21
19.083690595
  0
LINE
  5
46F
100
AcDbEntity
  8
0
100
AcDbLine
 62
7
  6
CONTINUOUS
 10
-23.4731865816
 20
21.7516517898
 11
-14.8679508596
 21
21.9018567381
  0
LINE
  5
470
100
AcDbEntity
  8
0
100
AcDbLine
 62
7
  6
CONTINUOUS
 10
-14.8679508596
 20
20.0638687165
 11
-18.7731865816
 21
20.0356333756
  0
LINE
  5
471
100
AcDbEntity
  8
DRAFT
100
AcDbLine
 62
7
  6
CONTINUOUS
 10
-18.9482433608
 20
18.8516517898
 11
-27.5981298024
 21
18.8516517898
  0
LINE
  5
472
100
AcDbEntity
  8
DRAFT
100
AcDbLine
 62
7
  6
CONTINUOUS
 10
-26.5842793088
 20
20.5516517898
 11
-19.9620938543
 21
20.5516517898
  0
LINE
  5
473
100
AcDbEntity
  8
0
100
AcDbLine
 62
7
  6
CONTINUOUS
 10
-32.0784223035
 20
20.0638687165
 11
-28.1731865816
 21
20.0356333756
  0
LINE
  5
474
100
AcDbEntity
  8
0
100
AcDbLine
 62
7
  6
CONTINUOUS
 10
-32.0784223035
 20
19.1518567381
 11
-28.1731865816
 21
19.083690595
  0
LINE
  5
475
100
AcDbEntity
  8
0
100
AcDbLine
 62
7
  6
CONTINUOUS
 10
-23.4731865816
 20
21.7516517898
 11
-32.0784223035
 21
21.9018567381
  0
LINE
  5
476
100
AcDbEntity
  8
0
100
AcDbLine
 62
253
  6
CONTINUOUS
 10
-23.4731865816
 20
22.2515756374
 11
-32.0784223035
 21
22.40172801
  0
LWPOLYLINE
  5
477
100
AcDbEntity
  8
0
100
AcDbPolyline
 62
7
  6
CONTINUOUS
 90
19
 70
0
 10
-32.0784223035
 20
20.0638687165
 10
-32.10566928
 20
20.0645323221
 10
-32.1324722001
 20
20.0662603534
 10
-32.1586193638
 20
20.0689950551
 10
-32.1839093888
 20
20.0726290703
 10
-32.2081587283
 20
20.0771183092
 10
-32.2312019313
 20
20.0824844066
 10
-32.2528815893
 20
20.0886195976
 10
-32.2730582152
 20
20.0954265155
 10
-32.2916146324
 20
20.1029335954
 10
-32.3084405919
 20
20.1110192877
 10
-32.3234449627
 20
20.119567782
 10
-32.3365593984
 20
20.1286128929
 10
-32.3477206904
 20
20.1380286374
 10
-32.356883938
 20
20.1476909815
 10
-32.3640243622
 20
20.1576378015
 10
-32.3691234565
 20
20.1677995527
 10
-32.3721742222
 20
20.1779986419
 10
-32.3731865816
 20
20.1881138592
  0
LWPOLYLINE
  5
478
100
AcDbEntity
  8
RACCORDO
100
AcDbPolyline
 62
253
  6
CONTINUOUS
 90
16
 70
0
 10
24.2275622082
 20
-11.5669446572
 10
24.1988126549
 20
-11.5850760066
 10
24.1690112809
 20
-11.6015379184
 10
24.1385422916
 20
-11.6161181623
 10
24.1077984995
 20
-11.6286287674
 10
24.0771762596
 20
-11.6389084445
 10
24.0470703599
 20
-11.6468246655
 10
24.0178689315
 20
-11.652275373
 10
23.9899484454
 20
-11.6551902957
 10
23.9636688579
 20
-11.6555318539
 10
23.9393689709
 20
-11.6532956444
 10
23.9173620635
 20
-11.648510497
 10
23.8979318532
 20
-11.6412381031
 10
23.8813288384
 20
-11.63157222
 10
23.8677670684
 20
-11.6196374623
 10
23.8574213846
 20
-11.6055876956
  0
LINE
  5
479
100
AcDbEntity
  8
0
100
AcDbLine
 62
253
  6
CONTINUOUS
 10
-23.4731865816
 20
22.2515756374
 11
-14.8679508596
 21
22.4017805856
  0
LINE
  5
47A
100
AcDbEntity
  8
0
100
AcDbLine
 62
253
  6
CONTINUOUS
 10
-32.3731865816
 20
22.4017805856
 11
-32.0784223035
 21
22.4017805856
  0
LINE
  5
47B
100
AcDbEntity
  8
0
100
AcDbLine
 62
253
  6
CONTINUOUS
 10
-14.5731865816
 20
22.4017805856
 11
-14.8679508596
 21
22.4017805847
  0
LWPOLYLINE
  5
47C
100
AcDbEntity
  8
RACCORDO
100
AcDbPolyline
 62
253
  6
CONTINUOUS
 90
16
 70
0
 10
16.2776684134
 20
18.6601182775
 10
16.3077450464
 20
18.6442862788
 10
16.3369018317
 20
18.6267087006
 10
16.364762883
 20
18.6076121515
 10
16.3909690185
 20
18.5872428224
 10
16.4151823917
 20
18.5658633131
 10
16.4370908463
 20
18.5437492462
 10
16.4564119407
 20
18.5211857144
 10
16.4728965897
 20
18.4984636047
 10
16.4863322749
 20
18.4758758485
 10
16.496545785
 20
18.4537136454
 10
16.5034054487
 20
18.4322627084
 10
16.506822832
 20
18.4117995811
 10
16.5067538785
 20
18.3925880725
 10
16.5031994775
 20
18.3748758558
 10
16.4962054521
 20
18.3588912754
  0
LINE
  5
47D
100
AcDbEntity
  8
RACCORDO
100
AcDbLine
 62
253
  6
CONTINUOUS
 10
23.3170755831
 20
13.7599230481
 11
22.8521500473
 21
14.0060427455
  0
LINE
  5
47E
100
AcDbEntity
  8
RACCORDO
100
AcDbLine
 62
253
  6
CONTINUOUS
 10
22.8521500473
 20
14.0060427455
 11
22.630447381
 21
14.1244647235
  0
LINE
  5
47F
100
AcDbEntity
  8
RACCORDO
100
AcDbLine
 62
253
  6
CONTINUOUS
 10
22.6304473791
 20
14.1244647246
 11
17.1231794696
 21
17.3040873346
  0
LINE
  5
480
100
AcDbEntity
  8
RACCORDO
100
AcDbLine
 62
7
  6
CONTINUOUS
 10
23.4476137634
 20
13.9990836541
 11
16.6060130735
 21
17.9490836541
  0
LINE
  5
481
100
AcDbEntity
  8
RACCORDO
100
AcDbLine
 62
253
  6
CONTINUOUS
 10
17.1231794558
 20
17.3040873426
 11
16.7915071768
 21
17.5108793733
  0
LINE
  5
482
100
AcDbEntity
  8
RACCORDO
100
AcDbLine
 62
253
  6
CONTINUOUS
 10
16.7915071768
 20
17.5108793733
 11
16.4641630032
 21
17.7164539709
  0
LWPOLYLINE
  5
483
100
AcDbEntity
  8
RACCORDO
100
AcDbPolyline
 62
253
  6
CONTINUOUS
 90
16
 70
0
 10
24.2275648103
 20
14.0702508633
 10
24.198814483
 20
14.0883816218
 10
24.1690123862
 20
14.1048430175
 10
24.1385427387
 20
14.1194228184
 10
24.1077983653
 20
14.1319330506
 10
24.0771756325
 20
14.1422124211
 10
24.0470693382
 20
14.1501283978
 10
24.0178676219
 20
14.1555789181
 10
23.9899469606
 20
14.1584937043
 10
23.963667315
 20
14.1588351702
 10
23.9393674889
 20
14.1565989056
 10
23.9173607614
 20
14.1518137328
 10
23.8979308474
 20
14.1445413355
 10
23.8813282405
 20
14.1348754633
 10
23.867766983
 20
14.1229407234
 10
23.8574219069
 20
14.1088909737
  0
LWPOLYLINE
  5
484
100
AcDbEntity
  8
RACCORDO
100
AcDbPolyline
 62
253
  6
CONTINUOUS
 90
19
 70
0
 10
16.4641630032
 20
17.7164539709
 10
16.4235736816
 20
17.7444958026
 10
16.3856384141
 20
17.7765219614
 10
16.350325203
 20
17.8125356711
 10
16.3172677828
 20
17.8526334147
 10
16.2867669489
 20
17.8966969051
 10
16.2597990371
 20
17.9443969577
 10
16.2363242361
 20
17.9958433465
 10
16.2163305867
 20
18.0508279628
 10
16.2008588049
 20
18.1085308265
 10
16.1900133214
 20
18.1690342703
 10
16.1836615849
 20
18.232031195
 10
16.1825241943
 20
18.2961126467
 10
16.187214014
 20
18.3619338943
 10
16.1971150784
 20
18.4284716704
 10
16.2111709261
 20
18.491946827
 10
16.229078171
 20
18.5511407793
 10
16.2512322839
 20
18.6072143926
 10
16.27767039
 20
18.6601255179
  0
LWPOLYLINE
  5
485
100
AcDbEntity
  8
RACCORDO
100
AcDbPolyline
 62
253
  6
CONTINUOUS
 90
16
 70
0
 10
28.9784179773
 20
5.8415246653
 10
28.9797454098
 20
5.8075611471
 10
28.9791011566
 20
5.7735214443
 10
28.9764935236
 20
5.7398444036
 10
28.9719561294
 20
5.706964196
 10
28.9655474709
 20
5.6753047199
 10
28.9573501695
 20
5.6452741354
 10
28.9474699065
 20
5.6172596029
 10
28.9360340606
 20
5.5916222912
 10
28.923190065
 20
5.5686927218
 10
28.9091035072
 20
5.5487665071
 10
28.8939559943
 20
5.5321005399
 10
28.8779428113
 20
5.5189096811
 10
28.8612704035
 20
5.5093639901
 10
28.8441537152
 20
5.5035865316
 10
28.8268134184
 20
5.5016517899
  0
LINE
  5
486
100
AcDbEntity
  8
RACCORDO
100
AcDbLine
 62
253
  6
CONTINUOUS
 10
28.2544251679
 20
-2.704879133
 11
28.2400620137
 21
-2.3185356472
  0
LINE
  5
487
100
AcDbEntity
  8
RACCORDO
100
AcDbLine
 62
253
  6
CONTINUOUS
 10
28.2400620137
 20
-2.3185356472
 11
28.2268134184
 21
-1.9279708293
  0
LINE
  5
488
100
AcDbEntity
  8
RACCORDO
100
AcDbLine
 62
253
  6
CONTINUOUS
 10
28.2268134184
 20
-1.9279708168
 11
28.2268134184
 21
4.431274403
  0
LINE
  5
489
100
AcDbEntity
  8
RACCORDO
100
AcDbLine
 62
7
  6
CONTINUOUS
 10
28.5268134184
 20
-2.6983482102
 11
28.5268134184
 21
5.2016517898
  0
LINE
  5
48A
100
AcDbEntity
  8
RACCORDO
100
AcDbLine
 62
253
  6
CONTINUOUS
 10
28.2268134184
 20
4.4312744089
 11
28.2351139128
 21
4.6826145193
  0
LINE
  5
48B
100
AcDbEntity
  8
RACCORDO
100
AcDbLine
 62
253
  6
CONTINUOUS
 10
28.2351139128
 20
4.6826145193
 11
28.2544251679
 21
5.2081827126
  0
LWPOLYLINE
  5
48C
100
AcDbEntity
  8
RACCORDO
100
AcDbPolyline
 62
253
  6
CONTINUOUS
 90
16
 70
0
 10
28.9784215783
 20
-3.3382220326
 10
28.9797481133
 20
-3.304258137
 10
28.9791030525
 20
-3.2702180639
 10
28.9764947068
 20
-3.2365406726
 10
28.9719566985
 20
-3.2036601464
 10
28.965547527
 20
-3.1720003954
 10
28.9573498153
 20
-3.1419695905
 10
28.9474692442
 20
-3.1139549018
 10
28.9360331901
 20
-3.0883175069
 10
28.9231890829
 20
-3.0653879339
 10
28.909102505
 20
-3.0454618007
 10
28.893955057
 20
-3.0287960038
 10
28.8779420162
 20
-3.0156054056
 10
28.8612698189
 20
-3.0060600651
 10
28.8441533993
 20
-3.0002830449
 10
28.8268134185
 20
-2.9983488248
  0
LWPOLYLINE
  5
48D
100
AcDbEntity
  8
RACCORDO
100
AcDbPolyline
 62
253
  6
CONTINUOUS
 90
19
 70
0
 10
28.2544251679
 20
5.2081827126
 10
28.2582966114
 20
5.2563313191
 10
28.2667443306
 20
5.3041992371
 10
28.2797559928
 20
5.3518141329
 10
28.2972318953
 20
5.3995118304
 10
28.3192242496
 20
5.4470001137
 10
28.3459438444
 20
5.4933540693
 10
28.3774725219
 20
5.538675419
 10
28.4136265608
 20
5.5828612247
 10
28.4542180612
 20
5.6246554991
 10
28.4993225089
 20
5.6639946566
 10
28.5486768396
 20
5.7008647986
 10
28.6015947698
 20
5.7340536271
 10
28.6580075131
 20
5.7633712577
 10
28.7177082893
 20
5.7888495448
 10
28.7798337045
 20
5.8095886636
 10
28.8440011359
 20
5.8252199949
 10
28.9102646444
 20
5.8359040978
 10
28.9784223939
 20
5.8415258267
  0
LINE
  5
48E
100
AcDbEntity
  8
RACCORDO
100
AcDbLine
 62
253
  6
CONTINUOUS
 10
22.6916942599
 20
-15.3467535159
 11
21.8335866419
 21
-16.8330395087
  0
LINE
  5
48F
100
AcDbEntity
  8
RACCORDO
100
AcDbLine
 62
7
  6
CONTINUOUS
 10
23.5577196637
 20
-15.8467535159
 11
22.6996120457
 21
-17.3330395087
  0
LINE
  5
490
100
AcDbEntity
  8
0
100
AcDbLine
 62
253
  6
CONTINUOUS
 10
-23.4731865816
 20
56.4517279422
 11
-32.0784223035
 21
56.301522994
  0
LINE
  5
491
100
AcDbEntity
  8
0
100
AcDbLine
 62
253
  6
CONTINUOUS
 10
-32.3731865816
 20
56.301522994
 11
-32.0784223035
 21
56.3015229949
  0
LINE
  5
492
100
AcDbEntity
  8
0
100
AcDbLine
 62
253
  6
CONTINUOUS
 10
-14.5731865816
 20
56.301522994
 11
-14.8679508596
 21
56.301522994
  0
LINE
  5
493
100
AcDbEntity
  8
0
100
AcDbLine
 62
253
  6
CONTINUOUS
 10
-23.4731865816
 20
56.4517279422
 11
-14.8679508596
 21
56.3015755697
  0
LINE
  5
494
100
AcDbEntity
  8
0
100
AcDbLine
 62
7
  6
CONTINUOUS
 10
-23.4731865816
 20
56.9516517898
 11
-14.8679508596
 21
56.8014468416
  0
LINE
  5
495
100
AcDbEntity
  8
0
100
AcDbLine
 62
7
  6
CONTINUOUS
 10
-23.4731865816
 20
56.9516517898
 11
-32.0784223035
 21
56.8014468416
  0
LINE
  5
496
100
AcDbEntity
  8
0
100
AcDbLine
 62
7
  6
CONTINUOUS
 10
14.0268134184
 20
-69.7551016949
 11
9.0268134184
 21
-69.7551016949
  0
LINE
  5
497
100
AcDbEntity
  8
0
100
AcDbLine
 62
7
  6
CONTINUOUS
 10
14.0268134184
 20
-67.0551016949
 11
13.5268134184
 21
-67.0551016949
  0
LINE
  5
498
100
AcDbEntity
  8
0
100
AcDbLine
 62
7
  6
CONTINUOUS
 10
9.5268134184
 20
-67.0551016949
 11
9.0268134184
 21
-67.0551016949
  0
LINE
  5
499
100
AcDbEntity
  8
0
100
AcDbLine
 62
7
  6
CONTINUOUS
 10
14.0268134184
 20
-66.0551016949
 11
13.5268134184
 21
-66.0551016949
  0
LINE
  5
49A
100
AcDbEntity
  8
0
100
AcDbLine
 62
7
  6
CONTINUOUS
 10
9.5268134184
 20
-66.0551016949
 11
9.0268134184
 21
-66.0551016949
  0
LINE
  5
49B
100
AcDbEntity
  8
0
100
AcDbLine
 62
7
  6
CONTINUOUS
 10
13.1268134184
 20
-64.8551016949
 11
9.9268134184
 21
-64.8551016949
  0
LWPOLYLINE
  5
49C
100
AcDbEntity
  8
0
100
AcDbPolyline
 62
7
  6
CONTINUOUS
 90
7
 70
0
 10
10.0768134184
 20
-63.9693979654
 10
10.0628314623
 20
-63.9702657676
 10
10.0502537972
 20
-63.9713637712
 10
10.0402531687
 20
-63.9725930254
 10
10.0331962153
 20
-63.9739220533
 10
10.0287162986
 20
-63.9753823318
 10
10.0268134184
 20
-63.9769738608
  0
LWPOLYLINE
  5
49D
100
AcDbEntity
  8
0
100
AcDbPolyline
 62
7
  6
CONTINUOUS
 90
7
 70
0
 10
10.0019954936
 20
-63.9580228215
 10
9.966858528
 20
-63.9602036278
 10
9.9354143653
 20
-63.9629486368
 10
9.9104127941
 20
-63.9660217722
 10
9.8927704107
 20
-63.969344342
 10
9.8815706188
 20
-63.9729950382
 10
9.8768134184
 20
-63.9769738608
  0
LWPOLYLINE
  5
49E
100
AcDbEntity
  8
0
100
AcDbPolyline
 62
7
  6
CONTINUOUS
 90
3
 70
0
 10
10.0768134184
 20
-63.9556212243
 10
10.0399086657
 20
-63.95648491
 10
10.0019954936
 20
-63.9580228215
  0
LINE
  5
49F
100
AcDbEntity
  8
0
100
AcDbLine
 62
7
  6
CONTINUOUS
 10
9.0268134184
 20
-64.0551016949
 11
14.0268134184
 21
-64.0551016949
  0
LINE
  5
4A0
100
AcDbEntity
  8
RACCORDO
100
AcDbLine
 62
253
  6
CONTINUOUS
 10
13.1768134184
 20
-64.034604006
 11
13.0268134184
 21
-64.034604006
  0
LINE
  5
4A1
100
AcDbEntity
  8
RACCORDO
100
AcDbLine
 62
253
  6
CONTINUOUS
 10
11.9268134184
 20
-64.034604006
 11
11.7768134184
 21
-64.034604006
  0
LINE
  5
4A2
100
AcDbEntity
  8
RACCORDO
100
AcDbLine
 62
253
  6
CONTINUOUS
 10
11.2768134184
 20
-64.034604006
 11
11.1268134184
 21
-64.034604006
  0
LINE
  5
4A3
100
AcDbEntity
  8
RACCORDO
100
AcDbLine
 62
253
  6
CONTINUOUS
 10
10.0268134184
 20
-64.034604006
 11
9.8768134184
 21
-64.034604006
  0
LINE
  5
4A4
100
AcDbEntity
  8
0
100
AcDbLine
 62
7
  6
CONTINUOUS
 10
13.5268134184
 20
-63.8551016949
 11
9.5268134184
 21
-63.8551016949
  0
LINE
  5
4A5
100
AcDbEntity
  8
0
100
AcDbLine
 62
7
  6
CONTINUOUS
 10
13.0137175014
 20
-63.9564848718
 11
12.9768134184
 21
-63.9556212074
  0
LINE
  5
4A6
100
AcDbEntity
  8
0
100
AcDbLine
 62
7
  6
CONTINUOUS
 10
13.5268134184
 20
-60.2952716894
 11
9.5268134184
 21
-60.2952716894
  0
LINE
  5
4A7
100
AcDbEntity
  8
0
100
AcDbLine
 62
7
  6
CONTINUOUS
 10
9.0268134184
 20
-69.7551016949
 11
9.0268134184
 21
-64.0551016949
  0
LINE
  5
4A8
100
AcDbEntity
  8
0
100
AcDbLine
 62
7
  6
CONTINUOUS
 10
9.5268134184
 20
-60.2952716894
 11
9.5268134184
 21
-63.8551016949
  0
LINE
  5
4A9
100
AcDbEntity
  8
0
100
AcDbLine
 62
7
  6
CONTINUOUS
 10
9.5268134184
 20
-64.0551016949
 11
9.5268134184
 21
-69.7551016949
  0
LINE
  5
4AA
100
AcDbEntity
  8
RACCORDO
100
AcDbLine
 62
7
  6
CONTINUOUS
 10
9.8768134184
 20
-63.9769738608
 11
9.8768134184
 21
-64.0551016949
  0
LINE
  5
4AB
100
AcDbEntity
  8
0
100
AcDbLine
 62
7
  6
CONTINUOUS
 10
9.9268134184
 20
-69.7551016949
 11
9.9268134184
 21
-64.0551016949
  0
LINE
  5
4AC
100
AcDbEntity
  8
RACCORDO
100
AcDbLine
 62
7
  6
CONTINUOUS
 10
10.0268134184
 20
-63.9769738608
 11
10.0268134184
 21
-64.0551016949
  0
LINE
  5
4AD
100
AcDbEntity
  8
0
100
AcDbLine
 62
7
  6
CONTINUOUS
 10
10.0768134184
 20
-64.0551016949
 11
10.0768134184
 21
-63.8551016949
  0
LINE
  5
4AE
100
AcDbEntity
  8
ASSI
100
AcDbLine
 62
7
  6
CONTINUOUS
 10
10.0768134184
 20
-63.8551016949
 11
10.0768134184
 21
-64.0551016949
  0
LINE
  5
4AF
100
AcDbEntity
  8
RACCORDO
100
AcDbLine
 62
7
  6
CONTINUOUS
 10
10.5268134184
 20
-64.0551016949
 11
10.5268134184
 21
-64.034604006
  0
LINE
  5
4B0
100
AcDbEntity
  8
RACCORDO
100
AcDbLine
 62
7
  6
CONTINUOUS
 10
10.6768134184
 20
-64.034604006
 11
10.6768134184
 21
-64.0551016949
  0
LINE
  5
4B1
100
AcDbEntity
  8
0
100
AcDbLine
 62
7
  6
CONTINUOUS
 10
10.9768134184
 20
-64.0551016949
 11
10.9768134184
 21
-63.8551016949
  0
LINE
  5
4B2
100
AcDbEntity
  8
ASSI
100
AcDbLine
 62
7
  6
CONTINUOUS
 10
10.9768134184
 20
-63.8551016949
 11
10.9768134184
 21
-64.0551016949
  0
LWPOLYLINE
  5
4B3
100
AcDbEntity
  8
0
100
AcDbPolyline
 62
7
  6
CONTINUOUS
 90
7
 70
0
 10
13.0268134184
 20
-63.9769738608
 10
13.0249106581
 20
-63.9753823467
 10
13.0204307945
 20
-63.9739220763
 10
13.0133738276
 20
-63.9725930495
 10
13.0033730699
 20
-63.9713637852
 10
12.9907952088
 20
-63.9702657646
 10
12.9768134184
 20
-63.9693979687
  0
LWPOLYLINE
  5
4B4
100
AcDbEntity
  8
0
100
AcDbPolyline
 62
7
  6
CONTINUOUS
 90
8
 70
0
 10
13.1768134184
 20
-63.9769738608
 10
13.1720565177
 20
-63.9729950756
 10
13.1608568587
 20
-63.9693443995
 10
13.1432144414
 20
-63.9660218325
 10
13.1182125471
 20
-63.9629486719
 10
13.0867678945
 20
-63.9602036204
 10
13.0516306397
 20
-63.9580227861
 10
13.0137175014
 20
-63.9564848718
  0
LINE
  5
4B5
100
AcDbEntity
  8
0
100
AcDbLine
 62
7
  6
CONTINUOUS
 10
11.0768134184
 20
-64.0551016949
 11
11.0768134184
 21
-63.8551016949
  0
LINE
  5
4B6
100
AcDbEntity
  8
ASSI
100
AcDbLine
 62
7
  6
CONTINUOUS
 10
11.0768134184
 20
-63.8551016949
 11
11.0768134184
 21
-64.0551016949
  0
LINE
  5
4B7
100
AcDbEntity
  8
RACCORDO
100
AcDbLine
 62
7
  6
CONTINUOUS
 10
11.1268134184
 20
-64.0551016949
 11
11.1268134184
 21
-64.034604006
  0
LINE
  5
4B8
100
AcDbEntity
  8
RACCORDO
100
AcDbLine
 62
7
  6
CONTINUOUS
 10
11.2768134184
 20
-64.034604006
 11
11.2768134184
 21
-64.0551016949
  0
LINE
  5
4B9
100
AcDbEntity
  8
RACCORDO
100
AcDbLine
 62
7
  6
CONTINUOUS
 10
11.7768134184
 20
-64.0551016949
 11
11.7768134184
 21
-64.034604006
  0
LINE
  5
4BA
100
AcDbEntity
  8
RACCORDO
100
AcDbLine
 62
7
  6
CONTINUOUS
 10
11.9268134184
 20
-64.034604006
 11
11.9268134184
 21
-64.0551016949
  0
LINE
  5
4BB
100
AcDbEntity
  8
0
100
AcDbLine
 62
7
  6
CONTINUOUS
 10
11.9768134184
 20
-64.0551016949
 11
11.9768134184
 21
-63.8551016949
  0
LINE
  5
4BC
100
AcDbEntity
  8
ASSI
100
AcDbLine
 62
7
  6
CONTINUOUS
 10
11.9768134184
 20
-63.8551016949
 11
11.9768134184
 21
-64.0551016949
  0
LINE
  5
4BD
100
AcDbEntity
  8
0
100
AcDbLine
 62
7
  6
CONTINUOUS
 10
12.0768134184
 20
-64.0551016949
 11
12.0768134184
 21
-63.8551016949
  0
LINE
  5
4BE
100
AcDbEntity
  8
ASSI
100
AcDbLine
 62
7
  6
CONTINUOUS
 10
12.0768134184
 20
-63.8551016949
 11
12.0768134184
 21
-64.0551016949
  0
LINE
  5
4BF
100
AcDbEntity
  8
RACCORDO
100
AcDbLine
 62
7
  6
CONTINUOUS
 10
12.3768134184
 20
-64.0551016949
 11
12.3768134184
 21
-64.034604006
  0
LINE
  5
4C0
100
AcDbEntity
  8
RACCORDO
100
AcDbLine
 62
7
  6
CONTINUOUS
 10
12.5268134184
 20
-64.034604006
 11
12.5268134184
 21
-64.0551016949
  0
LINE
  5
4C1
100
AcDbEntity
  8
0
100
AcDbLine
 62
7
  6
CONTINUOUS
 10
12.9768134184
 20
-64.0551016949
 11
12.9768134184
 21
-63.8551016949
  0
LINE
  5
4C2
100
AcDbEntity
  8
ASSI
100
AcDbLine
 62
7
  6
CONTINUOUS
 10
12.9768134184
 20
-63.8551016949
 11
12.9768134184
 21
-64.0551016949
  0
LINE
  5
4C3
100
AcDbEntity
  8
RACCORDO
100
AcDbLine
 62
7
  6
CONTINUOUS
 10
13.0268134184
 20
-63.9769738608
 11
13.0268134184
 21
-64.0551016949
  0
LINE
  5
4C4
100
AcDbEntity
  8
0
100
AcDbLine
 62
7
  6
CONTINUOUS
 10
13.1268134184
 20
-69.7551016949
 11
13.1268134184
 21
-64.0551016949
  0
LINE
  5
4C5
100
AcDbEntity
  8
RACCORDO
100
AcDbLine
 62
7
  6
CONTINUOUS
 10
13.1768134184
 20
-63.9769738608
 11
13.1768134184
 21
-64.0551016949
  0
LINE
  5
4C6
100
AcDbEntity
  8
0
100
AcDbLine
 62
7
  6
CONTINUOUS
 10
13.5268134184
 20
-60.2952716894
 11
13.5268134184
 21
-63.8551016949
  0
LINE
  5
4C7
100
AcDbEntity
  8
0
100
AcDbLine
 62
7
  6
CONTINUOUS
 10
13.5268134184
 20
-64.0551016949
 11
13.5268134184
 21
-69.7551016949
  0
LINE
  5
4C8
100
AcDbEntity
  8
0
100
AcDbLine
 62
7
  6
CONTINUOUS
 10
14.0268134184
 20
-69.7551016949
 11
14.0268134184
 21
-64.0551016949
  0
ARC
  5
4C9
100
AcDbEntity
  8
0
100
AcDbCircle
 62
7
  6
CONTINUOUS
 10
-27.8731865816
 20
-35.9156954623
 40
1.5
100
AcDbArc
 50
180.0
 51
267.0
  0
ARC
  5
4CA
100
AcDbEntity
  8
0
100
AcDbCircle
 62
7
  6
CONTINUOUS
 10
-27.8731865816
 20
-29.581000958
 40
1.5
100
AcDbArc
 50
93.0
 51
180.0
  0
ARC
  5
4CB
100
AcDbEntity
  8
0
100
AcDbCircle
 62
7
  6
CONTINUOUS
 10
-29.4731865816
 20
-36.6325291885
 40
1.0
100
AcDbArc
 50
180.0
 51
267.0
  0
ARC
  5
4CC
100
AcDbEntity
  8
0
100
AcDbCircle
 62
7
  6
CONTINUOUS
 10
-29.4731865816
 20
-28.8641672319
 40
1.0
100
AcDbArc
 50
93.0
 51
180.0
  0
ARC
  5
4CD
100
AcDbEntity
  8
0
100
AcDbCircle
 62
7
  6
CONTINUOUS
 10
-30.5731865816
 20
-52.5243410852
 40
0.5
100
AcDbArc
 50
180.0
 51
269.0
  0
ARC
  5
4CE
100
AcDbEntity
  8
0
100
AcDbCircle
 62
7
  6
CONTINUOUS
 10
-30.5731865816
 20
-47.1723553352
 40
0.5
100
AcDbArc
 50
91.0
 51
180.0
  0
ARC
  5
4CF
100
AcDbEntity
  8
0
100
AcDbCircle
 62
7
  6
CONTINUOUS
 10
-32.0731865816
 20
-53.9981889534
 40
0.3
100
AcDbArc
 50
180.0
 51
269.0
  0
ARC
  5
4D0
100
AcDbEntity
  8
0
100
AcDbCircle
 62
7
  6
CONTINUOUS
 10
-27.8731865816
 20
-1.9156954623
 40
1.5
100
AcDbArc
 50
180.0
 51
267.0
  0
ARC
  5
4D1
100
AcDbEntity
  8
0
100
AcDbCircle
 62
7
  6
CONTINUOUS
 10
-29.4731865816
 20
-2.6325291885
 40
1.0
100
AcDbArc
 50
180.0
 51
267.0
  0
ARC
  5
4D2
100
AcDbEntity
  8
0
100
AcDbCircle
 62
7
  6
CONTINUOUS
 10
-32.0731865816
 20
-16.948507467
 40
0.3
100
AcDbArc
 50
91.0
 51
180.0
  0
ARC
  5
4D3
100
AcDbEntity
  8
0
100
AcDbCircle
 62
7
  6
CONTINUOUS
 10
-32.0731865816
 20
-15.148507467
 40
0.3
100
AcDbArc
 50
91.0
 51
180.0
  0
ARC
  5
4D4
100
AcDbEntity
  8
0
100
AcDbCircle
 62
7
  6
CONTINUOUS
 10
-16.3731865816
 20
-52.5243410852
 40
0.5
100
AcDbArc
 50
271.0
 51
360.0
  0
ARC
  5
4D5
100
AcDbEntity
  8
0
100
AcDbCircle
 62
7
  6
CONTINUOUS
 10
-16.3731865816
 20
-47.1723553352
 40
0.5
100
AcDbArc
 50
0.0
 51
89.0
  0
ARC
  5
4D6
100
AcDbEntity
  8
0
100
AcDbCircle
 62
7
  6
CONTINUOUS
 10
-14.8731865816
 20
-53.9981889534
 40
0.3
100
AcDbArc
 50
271.0
 51
360.0
  0
ARC
  5
4D7
100
AcDbEntity
  8
RACCORDO
100
AcDbCircle
 62
253
  6
CONTINUOUS
 10
-4.8342198458
 20
-18.3467535159
 40
6.0
100
AcDbArc
 50
30.0
 51
50.1443807693
  0
ARC
  5
4D8
100
AcDbEntity
  8
RACCORDO
100
AcDbCircle
 62
7
  6
CONTINUOUS
 10
-4.8342198458
 20
-18.3467535159
 40
5.0
100
AcDbArc
 50
30.0
 51
50.1443807693
  0
ARC
  5
4D9
100
AcDbEntity
  8
0
100
AcDbCircle
 62
7
  6
CONTINUOUS
 10
-14.8731865816
 20
-15.148507467
 40
0.3
100
AcDbArc
 50
0.0
 51
89.0
  0
ARC
  5
4DA
100
AcDbEntity
  8
0
100
AcDbCircle
 62
7
  6
CONTINUOUS
 10
-14.8731865816
 20
-16.9485112578
 40
0.3
100
AcDbArc
 50
0.0007239881
 51
89.000012634
  0
ARC
  5
4DB
100
AcDbEntity
  8
RACCORDO
100
AcDbCircle
 62
7
  6
CONTINUOUS
 10
-6.6111991519
 20
-3.2983482102
 40
0.3
100
AcDbArc
 50
90.0
 51
194.0823073187
  0
ARC
  5
4DC
100
AcDbEntity
  8
RACCORDO
100
AcDbCircle
 62
7
  6
CONTINUOUS
 10
-1.4826050655
 20
-12.1813220012
 40
0.3
100
AcDbArc
 50
225.9180075982
 51
329.9987056977
  0
ARC
  5
4DD
100
AcDbEntity
  8
RACCORDO
100
AcDbCircle
 62
7
  6
CONTINUOUS
 10
-5.7731865816
 20
-2.6983482102
 40
0.3
100
AcDbArc
 50
270.0
 51
360.0
  0
ARC
  5
4DE
100
AcDbEntity
  8
0
100
AcDbCircle
 62
7
  6
CONTINUOUS
 10
-27.8731865816
 20
4.418999042
 40
1.5
100
AcDbArc
 50
93.0
 51
180.0
  0
ARC
  5
4DF
100
AcDbEntity
  8
0
100
AcDbCircle
 62
7
  6
CONTINUOUS
 10
-29.4731865816
 20
5.1358327681
 40
1.0
100
AcDbArc
 50
93.0
 51
180.0
  0
ARC
  5
4E0
100
AcDbEntity
  8
0
100
AcDbCircle
 62
7
  6
CONTINUOUS
 10
-32.0731865816
 20
19.4518110466
 40
0.3
100
AcDbArc
 50
180.0
 51
269.0
  0
ARC
  5
4E1
100
AcDbEntity
  8
0
100
AcDbCircle
 62
7
  6
CONTINUOUS
 10
-32.0731865816
 20
56.501492533
 40
0.3
100
AcDbArc
 50
91.0
 51
180.0
  0
ARC
  5
4E2
100
AcDbEntity
  8
0
100
AcDbCircle
 62
7
  6
CONTINUOUS
 10
-32.0731865816
 20
22.2018148374
 40
0.3
100
AcDbArc
 50
180.0007239881
 51
269.000012634
  0
ARC
  5
4E3
100
AcDbEntity
  8
0
100
AcDbCircle
 62
7
  6
CONTINUOUS
 10
-14.8731865816
 20
22.2018110466
 40
0.3
100
AcDbArc
 50
271.0
 51
360.0
  0
ARC
  5
4E4
100
AcDbEntity
  8
0
100
AcDbCircle
 62
7
  6
CONTINUOUS
 10
-14.8731865816
 20
56.501492533
 40
0.3
100
AcDbArc
 50
0.0
 51
89.0
  0
ARC
  5
4E5
100
AcDbEntity
  8
0
100
AcDbCircle
 62
7
  6
CONTINUOUS
 10
-14.8731865816
 20
19.4518110466
 40
0.3
100
AcDbArc
 50
271.0
 51
360.0
  0
ARC
  5
4E6
100
AcDbEntity
  8
RACCORDO
100
AcDbCircle
 62
7
  6
CONTINUOUS
 10
-1.4826084539
 20
14.6846314498
 40
0.3
100
AcDbArc
 50
30.0
 51
134.0823073187
  0
ARC
  5
4E7
100
AcDbEntity
  8
RACCORDO
100
AcDbCircle
 62
7
  6
CONTINUOUS
 10
-6.6111923749
 20
5.8016517898
 40
0.3
100
AcDbArc
 50
165.9180075982
 51
269.9987056977
  0
ARC
  5
4E8
100
AcDbEntity
  8
RACCORDO
100
AcDbCircle
 62
7
  6
CONTINUOUS
 10
-5.7731865816
 20
5.2016517898
 40
0.3
100
AcDbArc
 50
0.0
 51
90.0
  0
ARC
  5
4E9
100
AcDbEntity
  8
RACCORDO
100
AcDbCircle
 62
7
  6
CONTINUOUS
 10
2.0860655987
 20
-16.3330395087
 40
2.0
100
AcDbArc
 50
210.0
 51
239.3705012297
  0
ARC
  5
4EA
100
AcDbEntity
  8
RACCORDO
100
AcDbCircle
 62
253
  6
CONTINUOUS
 10
2.0860655987
 20
-16.3330395087
 40
1.0
100
AcDbArc
 50
210.0
 51
239.3705012297
  0
ARC
  5
4EB
100
AcDbEntity
  8
RACCORDO
100
AcDbCircle
 62
7
  6
CONTINUOUS
 10
6.3982227205
 20
-16.7313278702
 40
0.3
100
AcDbArc
 50
150.0
 51
254.0823073187
  0
ARC
  5
4EC
100
AcDbEntity
  8
RACCORDO
100
AcDbCircle
 62
7
  6
CONTINUOUS
 10
-0.5439869265
 20
-11.7555876957
 40
0.3
100
AcDbArc
 50
60.0
 51
150.0
  0
ARC
  5
4ED
100
AcDbEntity
  8
RACCORDO
100
AcDbCircle
 62
7
  6
CONTINUOUS
 10
6.2976137634
 20
-15.7055876957
 40
0.3
100
AcDbArc
 50
330.0
 51
60.0
  0
ARC
  5
4EE
100
AcDbEntity
  8
RACCORDO
100
AcDbCircle
 62
7
  6
CONTINUOUS
 10
11.5268134184
 20
-0.3883482102
 40
20.53
100
AcDbArc
 50
239.3705012297
 51
300.6294987703
  0
ARC
  5
4EF
100
AcDbEntity
  8
RACCORDO
100
AcDbCircle
 62
253
  6
CONTINUOUS
 10
11.5268134184
 20
-0.3883482102
 40
19.53
100
AcDbArc
 50
239.3705012297
 51
300.6294987703
  0
ARC
  5
4F0
100
AcDbEntity
  8
RACCORDO
100
AcDbCircle
 62
253
  6
CONTINUOUS
 10
27.8878466826
 20
-18.3467535159
 40
6.0
100
AcDbArc
 50
129.8556192307
 51
150.0
  0
ARC
  5
4F1
100
AcDbEntity
  8
RACCORDO
100
AcDbCircle
 62
7
  6
CONTINUOUS
 10
27.8878466826
 20
-18.3467535159
 40
5.0
100
AcDbArc
 50
129.8556192307
 51
150.0
  0
ARC
  5
4F2
100
AcDbEntity
  8
RACCORDO
100
AcDbCircle
 62
7
  6
CONTINUOUS
 10
20.9675612381
 20
-16.3330395087
 40
2.0
100
AcDbArc
 50
300.6294987703
 51
330.0
  0
ARC
  5
4F3
100
AcDbEntity
  8
RACCORDO
100
AcDbCircle
 62
253
  6
CONTINUOUS
 10
20.9675612381
 20
-16.3330395087
 40
1.0
100
AcDbArc
 50
300.6294987703
 51
330.0
  0
ARC
  5
4F4
100
AcDbEntity
  8
RACCORDO
100
AcDbCircle
 62
7
  6
CONTINUOUS
 10
16.6554007279
 20
-16.7313220012
 40
0.3
100
AcDbArc
 50
285.9180075982
 51
29.9987056977
  0
ARC
  5
4F5
100
AcDbEntity
  8
RACCORDO
100
AcDbCircle
 62
7
  6
CONTINUOUS
 10
24.5362352908
 20
-12.1813278702
 40
0.3
100
AcDbArc
 50
210.0
 51
314.0823073187
  0
ARC
  5
4F6
100
AcDbEntity
  8
RACCORDO
100
AcDbCircle
 62
7
  6
CONTINUOUS
 10
16.7560130735
 20
-15.7055876957
 40
0.3
100
AcDbArc
 50
120.0
 51
210.0
  0
ARC
  5
4F7
100
AcDbEntity
  8
RACCORDO
100
AcDbCircle
 62
7
  6
CONTINUOUS
 10
23.5976137634
 20
-11.7555876957
 40
0.3
100
AcDbArc
 50
30.0
 51
120.0
  0
ARC
  5
4F8
100
AcDbEntity
  8
RACCORDO
100
AcDbCircle
 62
7
  6
CONTINUOUS
 10
29.6648192226
 20
-3.2983482102
 40
0.3
100
AcDbArc
 50
345.9180070964
 51
89.9987077601
  0
ARC
  5
4F9
100
AcDbEntity
  8
RACCORDO
100
AcDbCircle
 62
7
  6
CONTINUOUS
 10
28.8268134184
 20
-2.6983482102
 40
0.3
100
AcDbArc
 50
180.0
 51
270.0
  0
ARC
  5
4FA
100
AcDbEntity
  8
RACCORDO
100
AcDbCircle
 62
7
  6
CONTINUOUS
 10
11.5268134184
 20
1.2516517898
 40
20.53
100
AcDbArc
 50
309.8556192307
 51
230.1443807693
  0
ARC
  5
4FB
100
AcDbEntity
  8
RACCORDO
100
AcDbCircle
 62
253
  6
CONTINUOUS
 10
11.5268134184
 20
1.2516517898
 40
19.53
100
AcDbArc
 50
309.8556192307
 51
230.1443807693
  0
ARC
  5
4FC
100
AcDbEntity
  8
RACCORDO
100
AcDbCircle
 62
7
  6
CONTINUOUS
 10
11.5268134184
 20
1.2516517898
 40
19.0
100
AcDbArc
 50
314.0823073187
 51
345.9176926813
  0
ARC
  5
4FD
100
AcDbEntity
  8
RACCORDO
100
AcDbCircle
 62
7
  6
CONTINUOUS
 10
11.5268134184
 20
1.2516517898
 40
19.0
100
AcDbArc
 50
254.0823073187
 51
285.9176926813
  0
ARC
  5
4FE
100
AcDbEntity
  8
RACCORDO
100
AcDbCircle
 62
7
  6
CONTINUOUS
 10
11.5268134184
 20
1.2516517898
 40
19.0
100
AcDbArc
 50
194.0823073187
 51
225.9176926813
  0
ARC
  5
4FF
100
AcDbEntity
  8
RACCORDO
100
AcDbCircle
 62
7
  6
CONTINUOUS
 10
11.5268134184
 20
1.2516517898
 40
19.0
100
AcDbArc
 50
74.0823073187
 51
105.9176926813
  0
ARC
  5
500
100
AcDbEntity
  8
RACCORDO
100
AcDbCircle
 62
7
  6
CONTINUOUS
 10
11.5268134184
 20
1.2516517898
 40
19.0
100
AcDbArc
 50
134.0823073187
 51
165.9176926813
  0
ARC
  5
501
100
AcDbEntity
  8
RACCORDO
100
AcDbCircle
 62
7
  6
CONTINUOUS
 10
11.5268134184
 20
1.2516517898
 40
19.0
100
AcDbArc
 50
14.0823073187
 51
45.9176926813
  0
ARC
  5
502
100
AcDbEntity
  8
RACCORDO
100
AcDbCircle
 62
253
  6
CONTINUOUS
 10
11.5268134184
 20
1.2516517898
 40
17.0
100
AcDbArc
 50
310.7798952194
 51
349.2201047692
  0
ARC
  5
503
100
AcDbEntity
  8
RACCORDO
100
AcDbCircle
 62
253
  6
CONTINUOUS
 10
11.5268134184
 20
1.2516517898
 40
17.0
100
AcDbArc
 50
250.7798952194
 51
289.2201047691
  0
ARC
  5
504
100
AcDbEntity
  8
RACCORDO
100
AcDbCircle
 62
253
  6
CONTINUOUS
 10
11.5268134184
 20
1.2516517898
 40
17.0
100
AcDbArc
 50
190.7798952194
 51
229.2201047692
  0
ARC
  5
505
100
AcDbEntity
  8
RACCORDO
100
AcDbCircle
 62
253
  6
CONTINUOUS
 10
11.5268134184
 20
1.2516517898
 40
17.0
100
AcDbArc
 50
70.7798952194
 51
109.2201047691
  0
ARC
  5
506
100
AcDbEntity
  8
RACCORDO
100
AcDbCircle
 62
253
  6
CONTINUOUS
 10
11.5268134184
 20
1.2516517898
 40
17.0
100
AcDbArc
 50
130.7798952194
 51
169.2201047692
  0
ARC
  5
507
100
AcDbEntity
  8
RACCORDO
100
AcDbCircle
 62
253
  6
CONTINUOUS
 10
11.5268134184
 20
1.2516517898
 40
17.0
100
AcDbArc
 50
10.7798952525
 51
49.2201047353
  0
CIRCLE
  5
508
100
AcDbEntity
  8
RACCORDO
100
AcDbCircle
 62
253
  6
CONTINUOUS
 10
11.5268134184
 20
1.2516517898
 40
5.75
  0
CIRCLE
  5
509
100
AcDbEntity
  8
RACCORDO
100
AcDbCircle
 62
7
  6
CONTINUOUS
 10
11.5268134184
 20
1.2516517898
 40
3.75
  0
ARC
  5
50A
100
AcDbEntity
  8
RACCORDO
100
AcDbCircle
 62
7
  6
CONTINUOUS
 10
6.398226109
 20
19.2346255808
 40
0.3
100
AcDbArc
 50
105.9180075982
 51
209.9987056977
  0
ARC
  5
50B
100
AcDbEntity
  8
RACCORDO
100
AcDbCircle
 62
7
  6
CONTINUOUS
 10
6.2976137634
 20
18.2088912753
 40
0.3
100
AcDbArc
 50
300.0
 51
30.0
  0
ARC
  5
50C
100
AcDbEntity
  8
RACCORDO
100
AcDbCircle
 62
7
  6
CONTINUOUS
 10
-0.5439869265
 20
14.2588912753
 40
0.3
100
AcDbArc
 50
210.0
 51
300.0
  0
ARC
  5
50D
100
AcDbEntity
  8
RACCORDO
100
AcDbCircle
 62
7
  6
CONTINUOUS
 10
29.6648259887
 20
5.8016517898
 40
0.3
100
AcDbArc
 50
270.0
 51
14.0823073187
  0
ARC
  5
50E
100
AcDbEntity
  8
RACCORDO
100
AcDbCircle
 62
7
  6
CONTINUOUS
 10
28.8268134184
 20
5.2016517898
 40
0.3
100
AcDbArc
 50
90.0
 51
180.0
  0
ARC
  5
50F
100
AcDbEntity
  8
RACCORDO
100
AcDbCircle
 62
7
  6
CONTINUOUS
 10
24.5362319023
 20
14.6846255808
 40
0.3
100
AcDbArc
 50
45.9180075982
 51
149.9987056977
  0
ARC
  5
510
100
AcDbEntity
  8
RACCORDO
100
AcDbCircle
 62
7
  6
CONTINUOUS
 10
16.6554041163
 20
19.2346314498
 40
0.3
100
AcDbArc
 50
330.0
 51
74.0823073187
  0
ARC
  5
511
100
AcDbEntity
  8
RACCORDO
100
AcDbCircle
 62
7
  6
CONTINUOUS
 10
23.5976137634
 20
14.2588912753
 40
0.3
100
AcDbArc
 50
240.0
 51
330.0
  0
ARC
  5
512
100
AcDbEntity
  8
RACCORDO
100
AcDbCircle
 62
7
  6
CONTINUOUS
 10
16.7560130735
 20
18.2088912753
 40
0.3
100
AcDbArc
 50
150.0
 51
240.0
  0
ENDSEC
  0
SECTION
  2
OBJECTS
  0
DICTIONARY
  5
C
100
AcDbDictionary
280
0
281
1
  3
ACAD_GROUP
350
D
  3
ACAD_MLINESTYLE
350
17
  3
ACAD_LAYOUT
350
1A
  3
ACAD_PLOTSETTINGS
350
19
  3
ACAD_PLOTSTYLENAME
350
E
  0
DICTIONARY
  5
D
102
{ACAD_REACTORS
330
C
102
}
100
AcDbDictionary
280
0
281
1
  0
ACDBDICTIONARYWDFLT
  5
E
102
{ACAD_REACTORS
330
C
102
}
100
AcDbDictionary
281
1
  3
Normal
350
F
100
AcDbDictionaryWithDefault
340
F
  0
DICTIONARY
  5
17
102
{ACAD_REACTORS
330
C
102
}
100
AcDbDictionary
280
0
281
1
  3
Standard
350
18
  0
DICTIONARY
  5
19
102
{ACAD_REACTORS
330
C
102
}
100
AcDbDictionary
281
1
  0
DICTIONARY
  5
1A
102
{ACAD_REACTORS
330
C
102
}
100
AcDbDictionary
281
1
  3
Model
350
513
  3
Layout1
350
514
  0
ACDBPLACEHOLDER
  5
F
102
{ACAD_REACTORS
330
E
102
}
  0
MLINESTYLE
  5
18
102
{ACAD_REACTORS
330
17
102
}
100
AcDbMlineStyle
  2
STANDARD
 70
0
  3

 62
256
 51
90.0
 52
90.0
 71
2
 49
0.5
 62
256
  6
BYLAYER
 49
-0.5
 62
256
  6
BYLAYER
  0
LAYOUT
  5
513
102
{ACAD_REACTORS
330
1A
102
}
100
AcDbPlotSettings
  1

  2
none_device
  4
ISO_A4_(297.00_x_210.00_MM)
  6

 40
0.0
 41
0.0
 42
0.0
 43
0.0
 44
297.0
 45
210.0
 46
0.0
 47
0.0
 48
0.0
 49
0.0
140
0.0
141
0.0
142
1.0
143
1.0
 70
1024
 72
1
 73
0
 74
0
  7

 75
0
147
1.0
148
0.0
149
0.0
100
AcDbLayout
  1
Model
 70
0
 71
0
 10
0.0
 20
0.0
 11
297.0
 21
210.0
 12
0.0
 22
0.0
 32
0.0
 14
0.0
 24
0.0
 34
0.0
 15
0.0
 25
0.0
 35
0.0
146
0.0
 13
0.0
 23
0.0
 33
0.0
 16
1.0
 26
0.0
 36
0.0
 17
0.0
 27
1.0
 37
0.0
 76
0
330
33D
345
0
346
0
  0
LAYOUT
  5
514
102
{ACAD_REACTORS
330
1A
102
}
100
AcDbPlotSettings
  1

  2
none_device
  4
ISO_A4_(297.00_x_210.00_MM)
  6

 40
0.0
 41
0.0
 42
0.0
 43
0.0
 44
297.0
 45
210.0
 46
0.0
 47
0.0
 48
0.0
 49
0.0
140
0.0
141
0.0
142
1.0
143
1.0
 70
0
 72
1
 73
0
 74
0
  7

 75
0
147
1.0
148
0.0
149
0.0
100
AcDbLayout
  1
Layout1
 70
0
 71
1
 10
0.0
 20
0.0
 11
297.0
 21
210.0
 12
0.0
 22
0.0
 32
0.0
 14
0.0
 24
0.0
 34
0.0
 15
0.0
 25
0.0
 35
0.0
146
0.0
 13
0.0
 23
0.0
 33
0.0
 16
1.0
 26
0.0
 36
0.0
 17
0.0
 27
1.0
 37
0.0
 76
0
330
33E
345
0
346
0
  0
ENDSEC
  0
EOF
