  0
SECTION
  2
HEADER
  9
$ACADVER
  1
AC1015
  9
$DWGCODEPAGE
  3
ANSI_1252
  9
$EXTMAX
 10
297.0
 20
210.0
 30
0.0
  9
$EXTMIN
 10
0.0
 20
0.0
 30
0.0
  9
$LIMMIN
 10
0.0
 20
0.0
  9
$LIMMAX
 10
297.0
 20
210.0
  9
$VIEWCTR
 10
148.5
 20
105.0
  9
$VIEWSIZE
 40
210.0
  9
$CLAYER
  8
0
  9
$LTSCALE
 40
16.335
  9
$CELTYPE
  6
BYLAYER
  9
$DIMSCALE
 40
1.0
  9
$DIMASZ
 40
3.0
  9
$DIMEXO
 40
0.5
  9
$DIMDLI
 40
11.286
  9
$DIMEXE
 40
1.5
  9
$DIMCEN
 40
2.673
  9
$DIMLFAC
 40
1.0
  9
$DIMBLK
  1
_FILLED
  9
$DIMTXT
 40
3.0
  9
$DIMTOL
 70
1
  9
$DIMLIM
 70
0
  9
$DIMTFAC
 40
1.0
  9
$DIMTP
 40
0.01
  9
$DIMTM
 40
0.01
  9
$DIMGAP
 40
0.625
  9
$DIMDSEP
 70
44
  9
$PDMODE
 70
3
  9
$PDSIZE
 40
3.0
  9
$HANDSEED
  5
306
  9
$TILEMODE
 70
1
  9
$MEASUREMENT
 70
1
  9
$INSUNITS
 70
4
  0
ENDSEC
  0
SECTION
  2
CLASSES
  0
CLASS
  1
ACDBDICTIONARYWDFLT
  2
AcDbDictionaryWithDefault
  3
AutoCAD 2000
 90
0
280
0
281
0
  0
CLASS
  1
ACDBPLACEHOLDER
  2
AcDbPlaceHolder
  3
AutoCAD 2000
 90
0
280
0
281
0
  0
CLASS
  1
LAYOUT
  2
AcDbLayout
  3
AutoCAD 2000
 90
0
280
0
281
0
  0
ENDSEC
  0
SECTION
  2
TABLES
  0
TABLE
  2
VPORT
  5
8
100
AcDbSymbolTable
 70
2
  0
VPORT
  5
1F4
100
AcDbSymbolTableRecord
100
AcDbViewportTableRecord
  2
*ACTIVE
 70
0
 10
0.0
 20
0.0
 11
1.0
 21
1.0
 12
148.5
 22
105.0
 13
0.0
 23
0.0
 14
1.0
 24
1.0
 15
0.0
 25
0.0
 16
0.0
 26
0.0
 36
1.0
 17
0.0
 27
0.0
 37
0.0
 40
210.0
 41
1.4142857143
 42
50.0
 43
0.0
 44
0.0
 50
0.0
 51
0.0
 71
0
 72
100
 73
1
 74
1
 75
0
 76
0
 77
0
 78
0
  0
ENDTAB
  0
TABLE
  2
LTYPE
  5
5
100
AcDbSymbolTable
 70
6
  0
LTYPE
  5
14
100
AcDbSymbolTableRecord
100
AcDbLinetypeTableRecord
  2
BYBLOCK
 70
0
  3

 72
65
 73
0
 40
0.0
  0
LTYPE
  5
15
100
AcDbSymbolTableRecord
100
AcDbLinetypeTableRecord
  2
BYLAYER
 70
0
  3

 72
65
 73
0
 40
0.0
  0
LTYPE
  5
16
100
AcDbSymbolTableRecord
100
AcDbLinetypeTableRecord
  2
CONTINUOUS
 70
64
  3
Solid line
 72
65
 73
0
 40
0.0
  0
LTYPE
  5
1F5
100
AcDbSymbolTableRecord
100
AcDbLinetypeTableRecord
  2
CENTER
 70
64
  3
____ _ ____ _ ____ _ ____ _ ____ _ ____ _ ____
 72
65
 73
4
 40
0.6
 49
0.375
 74
0
 49
-0.075
 74
0
 49
0.075
 74
0
 49
-0.075
 74
0
  0
LTYPE
  5
1F6
100
AcDbSymbolTableRecord
100
AcDbLinetypeTableRecord
  2
HIDDEN
 70
64
  3
- - - - - - - - - - - - - - - - - - - -
 72
65
 73
2
 40
0.2
 49
0.1
 74
0
 49
-0.1
 74
0
  0
LTYPE
  5
1F7
100
AcDbSymbolTableRecord
100
AcDbLinetypeTableRecord
  2
PHANTOM
 70
64
  3
_____ _ _ _____ _ _ _____ _ _ _____
 72
65
 73
6
 40
0.8
 49
0.45
 74
0
 49
-0.05
 74
0
 49
0.1
 74
0
 49
-0.05
 74
0
 49
0.1
 74
0
 49
-0.05
 74
0
  0
LTYPE
  5
1F8
100
AcDbSymbolTableRecord
100
AcDbLinetypeTableRecord
  2
DOT
 70
64
  3
. . . . . . . . . . . . . . . . . . . .
 72
65
 73
2
 40
0.2
 49
0.1
 74
0
 49
-0.1
 74
0
  0
LTYPE
  5
1F9
100
AcDbSymbolTableRecord
100
AcDbLinetypeTableRecord
  2
DASHED
 70
64
  3
- - - - - - - - - - - - - - - - - - - -
 72
65
 73
2
 40
0.2
 49
0.1
 74
0
 49
-0.1
 74
0
  0
ENDTAB
  0
TABLE
  2
LAYER
  5
2
100
AcDbSymbolTable
 70
36
  0
LAYER
  5
10
100
AcDbSymbolTableRecord
100
AcDbLayerTableRecord
  2
0
 70
0
 62
7
  6
CONTINUOUS
370
-3
390
F
  0
LAYER
  5
1FA
100
AcDbSymbolTableRecord
100
AcDbLayerTableRecord
  2
DEFAULT_1
 70
0
 62
7
  6
CENTER
370
-3
390
F
  0
LAYER
  5
1FB
100
AcDbSymbolTableRecord
100
AcDbLayerTableRecord
  2
DEFAULT_2
 70
0
 62
7
  6
HIDDEN
370
-3
390
F
  0
LAYER
  5
1FC
100
AcDbSymbolTableRecord
100
AcDbLayerTableRecord
  2
DEFAULT_3
 70
0
 62
7
  6
PHANTOM
370
-3
390
F
  0
LAYER
  5
1FD
100
AcDbSymbolTableRecord
100
AcDbLayerTableRecord
  2
ASSI
 70
0
 62
7
  6
CONTINUOUS
370
-3
390
F
  0
LAYER
  5
1FE
100
AcDbSymbolTableRecord
100
AcDbLayerTableRecord
  2
COORDINATE
 70
0
 62
7
  6
CONTINUOUS
370
-3
390
F
  0
LAYER
  5
1FF
100
AcDbSymbolTableRecord
100
AcDbLayerTableRecord
  2
COPY_PUBLISH
 70
0
 62
7
  6
CONTINUOUS
370
-3
390
F
  0
LAYER
  5
200
100
AcDbSymbolTableRecord
100
AcDbLayerTableRecord
  2
COSMETICI
 70
0
 62
7
  6
CONTINUOUS
370
-3
390
F
  0
LAYER
  5
201
100
AcDbSymbolTableRecord
100
AcDbLayerTableRecord
  2
CURVE
 70
0
 62
7
  6
CONTINUOUS
370
-3
390
F
  0
LAYER
  5
202
100
AcDbSymbolTableRecord
100
AcDbLayerTableRecord
  2
DRAFT
 70
0
 62
7
  6
CONTINUOUS
370
-3
390
F
  0
LAYER
  5
203
100
AcDbSymbolTableRecord
100
AcDbLayerTableRecord
  2
IMPORT_IGES
 70
0
 62
7
  6
CONTINUOUS
370
-3
390
F
  0
LAYER
  5
204
100
AcDbSymbolTableRecord
100
AcDbLayerTableRecord
  2
NOTE
 70
0
 62
7
  6
CONTINUOUS
370
-3
390
F
  0
LAYER
  5
205
100
AcDbSymbolTableRecord
100
AcDbLayerTableRecord
  2
PIANI
 70
0
 62
7
  6
CONTINUOUS
370
-3
390
F
  0
LAYER
  5
206
100
AcDbSymbolTableRecord
100
AcDbLayerTableRecord
  2
PUNTI
 70
0
 62
7
  6
CONTINUOUS
370
-3
390
F
  0
LAYER
  5
207
100
AcDbSymbolTableRecord
100
AcDbLayerTableRecord
  2
RACCORDO
 70
0
 62
7
  6
CONTINUOUS
370
-3
390
F
  0
LAYER
  5
208
100
AcDbSymbolTableRecord
100
AcDbLayerTableRecord
  2
SIMBOLI
 70
0
 62
7
  6
CONTINUOUS
370
-3
390
F
  0
LAYER
  5
209
100
AcDbSymbolTableRecord
100
AcDbLayerTableRecord
  2
SMUSSO
 70
0
 62
7
  6
CONTINUOUS
370
-3
390
F
  0
LAYER
  5
20A
100
AcDbSymbolTableRecord
100
AcDbLayerTableRecord
  2
SNAPLINE
 70
0
 62
7
  6
CONTINUOUS
370
-3
390
F
  0
LAYER
  5
20B
100
AcDbSymbolTableRecord
100
AcDbLayerTableRecord
  2
SUPERFICI
 70
0
 62
7
  6
CONTINUOUS
370
-3
390
F
  0
LAYER
  5
20C
100
AcDbSymbolTableRecord
100
AcDbLayerTableRecord
  2
TRASH
 70
0
 62
7
  6
CONTINUOUS
370
-3
390
F
  0
ENDTAB
  0
TABLE
  2
STYLE
  5
3
100
AcDbSymbolTable
 70
1
  0
STYLE
  5
11
100
AcDbSymbolTableRecord
100
AcDbTextStyleTableRecord
  2
STANDARD
 70
0
 40
0.0
 41
0.8
 50
0.0
 71
0
 42
0.2
  3
txt
  4

  0
STYLE
  5
20D
100
AcDbSymbolTableRecord
100
AcDbTextStyleTableRecord
  2
TEXTSTYLE_1
 70
0
 40
0.0
 41
0.8
 50
0.0
 71
0
 42
0.2
  3
gdt
  4

  0
ENDTAB
  0
TABLE
  2
VIEW
  5
6
100
AcDbSymbolTable
 70
0
  0
ENDTAB
  0
TABLE
  2
UCS
  5
7
100
AcDbSymbolTable
 70
0
  0
ENDTAB
  0
TABLE
  2
APPID
  5
9
100
AcDbSymbolTable
 70
1
  0
APPID
  5
20E
100
AcDbSymbolTableRecord
100
AcDbRegAppTableRecord
  2
ACAD
 70
0
  0
ENDTAB
  0
TABLE
  2
BLOCK_RECORD
  5
1
100
AcDbSymbolTable
 70
0
  0
BLOCK_RECORD
  5
20F
100
AcDbSymbolTableRecord
100
AcDbBlockTableRecord
  2
*Model_Space
  0
BLOCK_RECORD
  5
210
100
AcDbSymbolTableRecord
100
AcDbBlockTableRecord
  2
*Paper_Space
  0
ENDTAB
  0
TABLE
  2
DIMSTYLE
  5
A
100
AcDbSymbolTable
 70
1
100
AcDbDimStyleTable
 71
0
  0
DIMSTYLE
105
211
100
AcDbSymbolTableRecord
100
AcDbDimStyleTableRecord
  2
STANDARD
 70
0
  3

  4

 40
1.0
 41
3.0
 42
0.5
 43
0.38
 44
1.5
 45
0.0
 46
0.0
 47
0.01
 48
0.01
140
3.0
141
0.09
142
0.0
143
25.4
144
1.0
145
0.0
146
1.0
147
0.625
 71
1.0
 72
0.0
 73
0
 74
0
 75
0
 76
0
 77
1
 78
8
170
0
171
2
172
0
173
0
174
0
175
0
176
0
177
0
178
0
270
2
271
2
272
2
273
2
274
2
275
0
280
0
281
0
282
0
283
1
284
8
285
0
286
0
287
3
288
0
340
11
278
44
  0
ENDTAB
  0
ENDSEC
  0
SECTION
  2
BLOCKS
  0
BLOCK
  5
20
100
AcDbEntity
  8
0
100
AcDbBlockBegin
  2
*Model_Space
 70
0
 10
0.0
 20
0.0
 30
0.0
  3
*Model_Space
  1

  0
ENDBLK
  5
21
100
AcDbEntity
  8
0
100
AcDbBlockEnd
  0
BLOCK
  5
1C
100
AcDbEntity
  8
0
100
AcDbBlockBegin
  2
*Paper_Space
 70
0
 10
0.0
 20
0.0
 30
0.0
  3
*Paper_Space
  1

  0
ENDBLK
  5
1D
100
AcDbEntity
  8
0
100
AcDbBlockEnd
  0
ENDSEC
  0
SECTION
  2
ENTITIES
  0
LINE
  5
212
100
AcDbEntity
  8
0
100
AcDbLine
 62
7
  6
CONTINUOUS
 10
-2.0208737499
 20
-26.4390716928
 11
1.9791262501
 21
-26.4390716928
  0
LWPOLYLINE
  5
213
100
AcDbEntity
  8
RACCORDO
100
AcDbPolyline
 62
253
  6
CONTINUOUS
 90
16
 70
0
 10
-12.7216225397
 20
18.7442428085
 10
-12.6928729863
 20
18.7623741579
 10
-12.6630716124
 20
18.7788360696
 10
-12.6326026231
 20
18.7934163136
 10
-12.6018588309
 20
18.8059269187
 10
-12.5712365911
 20
18.8162065958
 10
-12.5411306913
 20
18.8241228167
 10
-12.511929263
 20
18.8295735243
 10
-12.4840087768
 20
18.832488447
 10
-12.4577291894
 20
18.8328300052
 10
-12.4334293024
 20
18.8305937957
 10
-12.411422395
 20
18.8258086483
 10
-12.3919921847
 20
18.8185362544
 10
-12.3753891698
 20
18.8088703713
 10
-12.3618273999
 20
18.7969356136
 10
-12.351481716
 20
18.7828858469
  0
LINE
  5
214
100
AcDbEntity
  8
RACCORDO
100
AcDbLine
 62
7
  6
CONTINUOUS
 10
-5.1000734049
 20
22.6230782258
 11
-11.9416740948
 21
18.6730782258
  0
LWPOLYLINE
  5
215
100
AcDbEntity
  8
RACCORDO
100
AcDbPolyline
 62
253
  6
CONTINUOUS
 90
16
 70
0
 10
-4.7717304925
 20
23.3341192507
 10
-4.8018073536
 20
23.3182861162
 10
-4.8309643888
 20
23.3007074411
 10
-4.8588256906
 20
23.2816098528
 10
-4.8850320562
 20
23.2612395605
 10
-4.9092456185
 20
23.2398591812
 10
-4.9311542026
 20
23.2177443539
 10
-4.9504753498
 20
23.1951801859
 10
-4.9669599593
 20
23.172457577
 10
-4.9803955003
 20
23.1498694693
 10
-4.9906087514
 20
23.1277070703
 10
-4.9974680339
 20
23.1062560988
 10
-5.0008849101
 20
23.085793101
 10
-5.0008153227
 20
23.0665818856
 10
-4.9972601635
 20
23.0488701221
 10
-4.9902652614
 20
23.0328861486
  0
LINE
  5
216
100
AcDbEntity
  8
RACCORDO
100
AcDbLine
 62
253
  6
CONTINUOUS
 10
-4.9582233346
 20
22.3904485425
 11
-5.3956864001
 21
22.1160581386
  0
LINE
  5
217
100
AcDbEntity
  8
RACCORDO
100
AcDbLine
 62
253
  6
CONTINUOUS
 10
-5.3956864001
 20
22.1160581386
 11
-5.6172397873
 21
21.9780819142
  0
LINE
  5
218
100
AcDbEntity
  8
RACCORDO
100
AcDbLine
 62
253
  6
CONTINUOUS
 10
-5.6172397981
 20
21.978081908
 11
-11.1245076987
 21
18.7984593031
  0
LWPOLYLINE
  5
219
100
AcDbEntity
  8
RACCORDO
100
AcDbPolyline
 62
253
  6
CONTINUOUS
 90
3
 70
0
 10
-11.1245077125
 20
18.7984592951
 10
-11.6975755026
 20
18.4938054764
 10
-11.8111359146
 20
18.4339176198
  0
LWPOLYLINE
  5
21A
100
AcDbEntity
  8
RACCORDO
100
AcDbPolyline
 62
253
  6
CONTINUOUS
 90
19
 70
0
 10
-11.8111359146
 20
18.4339176198
 10
-11.8547695508
 20
18.4131960845
 10
-11.900448244
 20
18.3965780648
 10
-11.9481897872
 20
18.3840390469
 10
-11.9982351628
 20
18.3753247737
 10
-12.0503574087
 20
18.3706265698
 10
-12.1038609167
 20
18.3705894409
 10
-12.1588746986
 20
18.3752334029
 10
-12.2152177496
 20
18.3844508183
 10
-12.2717084081
 20
18.3987069568
 10
-12.3283293564
 20
18.4180989879
 10
-12.3849370193
 20
18.4424060362
 10
-12.4401383605
 20
18.4716399019
 10
-12.4937345337
 20
18.5058359518
 10
-12.5456497444
 20
18.5447991871
 10
-12.5946730376
 20
18.5882318061
 10
-12.6402938725
 20
18.6359867588
 10
-12.6826783236
 20
18.6880305818
 10
-12.7216257537
 20
18.7442460527
  0
LWPOLYLINE
  5
21B
100
AcDbEntity
  8
RACCORDO
100
AcDbPolyline
 62
253
  6
CONTINUOUS
 90
16
 70
0
 10
-17.4724818837
 20
10.5155201771
 10
-17.4738084176
 20
10.481556284
 10
-17.4731633561
 20
10.4475162132
 10
-17.4705550105
 20
10.4138388239
 10
-17.4660170027
 20
10.3809582994
 10
-17.4596078323
 20
10.3492985496
 10
-17.4514101222
 20
10.3192677456
 10
-17.4415295531
 20
10.2912530572
 10
-17.4300935013
 20
10.2656156621
 10
-17.4172493967
 20
10.2426860884
 10
-17.4031628218
 20
10.2227599541
 10
-17.3880153768
 20
10.2060941554
 10
-17.372002339
 20
10.1929035549
 10
-17.3553301447
 20
10.1833582116
 10
-17.3382137281
 20
10.1775811882
 10
-17.3208737499
 20
10.1756469644
  0
LWPOLYLINE
  5
21C
100
AcDbEntity
  8
RACCORDO
100
AcDbPolyline
 62
253
  6
CONTINUOUS
 90
16
 70
0
 10
-17.4724783088
 20
1.335773486
 10
-17.4738057413
 20
1.3697370042
 10
-17.473161488
 20
1.403776707
 10
-17.4705538551
 20
1.4374537477
 10
-17.4660164609
 20
1.4703339553
 10
-17.4596078024
 20
1.5019934314
 10
-17.451410501
 20
1.5320240159
 10
-17.441530238
 20
1.5600385484
 10
-17.430094392
 20
1.5856758601
 10
-17.4172503964
 20
1.6086054295
 10
-17.4031638387
 20
1.6285316442
 10
-17.3880163258
 20
1.6451976114
 10
-17.3720031427
 20
1.6583884702
 10
-17.355330735
 20
1.6679341612
 10
-17.3382140467
 20
1.6737116197
 10
-17.3208737499
 20
1.6756463614
  0
LINE
  5
21D
100
AcDbEntity
  8
RACCORDO
100
AcDbLine
 62
253
  6
CONTINUOUS
 10
-16.7484854993
 20
9.8821772843
 11
-16.7295879717
 21
9.3661279543
  0
LINE
  5
21E
100
AcDbEntity
  8
RACCORDO
100
AcDbLine
 62
253
  6
CONTINUOUS
 10
-16.7295879717
 20
9.3661279543
 11
-16.7208737499
 21
9.1052689806
  0
LINE
  5
21F
100
AcDbEntity
  8
RACCORDO
100
AcDbLine
 62
7
  6
CONTINUOUS
 10
-17.0208737499
 20
9.8756463615
 11
-17.0208737499
 21
1.9756463615
  0
LINE
  5
220
100
AcDbEntity
  8
RACCORDO
100
AcDbLine
 62
253
  6
CONTINUOUS
 10
-16.7208737499
 20
9.1052689681
 11
-16.7208737499
 21
2.7460237583
  0
LWPOLYLINE
  5
221
100
AcDbEntity
  8
RACCORDO
100
AcDbPolyline
 62
253
  6
CONTINUOUS
 90
3
 70
0
 10
-16.7208737499
 20
2.7460237424
 10
-16.7435696986
 20
2.0974055686
 10
-16.7484854993
 20
1.9691154387
  0
LWPOLYLINE
  5
222
100
AcDbEntity
  8
RACCORDO
100
AcDbPolyline
 62
253
  6
CONTINUOUS
 90
19
 70
0
 10
-16.7484854993
 20
1.9691154387
 10
-16.7523569428
 20
1.9209668322
 10
-16.7608046621
 20
1.8730989142
 10
-16.7738163243
 20
1.8254840184
 10
-16.7912922268
 20
1.7777863209
 10
-16.8132845811
 20
1.7302980376
 10
-16.8400041759
 20
1.683944082
 10
-16.8715328534
 20
1.6386227323
 10
-16.9076868922
 20
1.5944369266
 10
-16.9482783926
 20
1.5526426522
 10
-16.9933828404
 20
1.5133034947
 10
-17.042737171
 20
1.4764333527
 10
-17.0956551012
 20
1.4432445242
 10
-17.1520678446
 20
1.4139268936
 10
-17.2117686207
 20
1.3884486065
 10
-17.2738940359
 20
1.3677094877
 10
-17.3380614674
 20
1.3520781564
 10
-17.4043249758
 20
1.3413940535
 10
-17.4724827253
 20
1.3357723246
  0
LINE
  5
223
100
AcDbEntity
  8
0
100
AcDbLine
 62
7
  6
CONTINUOUS
 10
1.9791262501
 20
-16.3743536385
 11
-2.0208737499
 21
-16.3743536385
  0
LINE
  5
224
100
AcDbEntity
  8
RACCORDO
100
AcDbLine
 62
7
  6
CONTINUOUS
 10
-11.1936723771
 20
-12.659044937
 11
-12.0517799951
 21
-11.1727589443
  0
LINE
  5
225
100
AcDbEntity
  8
RACCORDO
100
AcDbLine
 62
253
  6
CONTINUOUS
 10
-10.3276469733
 20
-12.159044937
 11
-11.1857545914
 21
-10.6727589443
  0
LWPOLYLINE
  5
226
100
AcDbEntity
  8
RACCORDO
100
AcDbPolyline
 62
253
  6
CONTINUOUS
 90
16
 70
0
 10
-4.771729519
 20
-11.4828229611
 10
-4.8018065048
 20
-11.4669907922
 10
-4.8309636256
 20
-11.4494130012
 10
-4.8588249819
 20
-11.4303162044
 10
-4.8850313798
 20
-11.409946602
 10
-4.9092449612
 20
-11.3885668029
 10
-4.9311535595
 20
-11.3664524394
 10
-4.9504747249
 20
-11.3438886143
 10
-4.9669593651
 20
-11.3211662254
 10
-4.9803949569
 20
-11.2985782142
 10
-4.9906082862
 20
-11.27641579
 10
-4.9974676807
 20
-11.2549646754
 10
-5.0008847079
 20
-11.2345014227
 10
-5.000815315
 20
-11.2152898485
 10
-4.9972603966
 20
-11.1975776324
 10
-4.9902657837
 20
-11.181593124
  0
LINE
  5
227
100
AcDbEntity
  8
RACCORDO
100
AcDbLine
 62
253
  6
CONTINUOUS
 10
-11.8111359146
 20
-6.5826248968
 11
-11.3547753214
 21
-6.8242838227
  0
LINE
  5
228
100
AcDbEntity
  8
RACCORDO
100
AcDbLine
 62
253
  6
CONTINUOUS
 10
-11.3547753214
 20
-6.8242838227
 11
-11.1245077125
 21
-6.9471665722
  0
LINE
  5
229
100
AcDbEntity
  8
RACCORDO
100
AcDbLine
 62
7
  6
CONTINUOUS
 10
-11.9416740948
 20
-6.8217855029
 11
-5.1000734049
 21
-10.7717855029
  0
LINE
  5
22A
100
AcDbEntity
  8
RACCORDO
100
AcDbLine
 62
253
  6
CONTINUOUS
 10
-11.1245077017
 20
-6.9471665784
 11
-5.6172398011
 21
-10.1267891833
  0
LWPOLYLINE
  5
22B
100
AcDbEntity
  8
RACCORDO
100
AcDbPolyline
 62
253
  6
CONTINUOUS
 90
3
 70
0
 10
-5.6172397873
 20
-10.1267891913
 10
-5.0668679458
 20
-10.4707535463
 10
-4.9582233346
 20
-10.5391558196
  0
LWPOLYLINE
  5
22C
100
AcDbEntity
  8
RACCORDO
100
AcDbPolyline
 62
253
  6
CONTINUOUS
 90
16
 70
0
 10
-12.7216251417
 20
-6.892952712
 10
-12.6928748144
 20
-6.9110834705
 10
-12.6630727177
 20
-6.9275448662
 10
-12.6326030701
 20
-6.9421246671
 10
-12.6018586968
 20
-6.9546348993
 10
-12.571235964
 20
-6.9649142698
 10
-12.5411296697
 20
-6.9728302465
 10
-12.5119279534
 20
-6.9782807668
 10
-12.484007292
 20
-6.981195553
 10
-12.4577276464
 20
-6.9815370189
 10
-12.4334278204
 20
-6.9793007543
 10
-12.4114210929
 20
-6.9745155815
 10
-12.3919911789
 20
-6.9672431842
 10
-12.3753885719
 20
-6.957577312
 10
-12.3618273145
 20
-6.9456425721
 10
-12.3514822384
 20
-6.9315928224
  0
LWPOLYLINE
  5
22D
100
AcDbEntity
  8
RACCORDO
100
AcDbPolyline
 62
253
  6
CONTINUOUS
 90
19
 70
0
 10
-4.9582233346
 20
-10.5391558196
 10
-4.9184611405
 20
-10.5665828894
 10
-4.8812301667
 20
-10.5978327882
 10
-4.8465002871
 20
-10.6329086686
 10
-4.8139308174
 20
-10.6718920986
 10
-4.7838009304
 20
-10.7146821857
 10
-4.7570170219
 20
-10.7609990183
 10
-4.73353192
 20
-10.810964332
 10
-4.7133429104
 20
-10.8643675532
 10
-4.6974437593
 20
-10.9204179677
 10
-4.6859272767
 20
-10.9791491629
 10
-4.6786739665
 20
-11.0403263612
 10
-4.6763905663
 20
-11.1027490579
 10
-4.6792071276
 20
-11.1662627303
 10
-4.6869926739
 20
-11.2307042393
 10
-4.7000947786
 20
-11.2948759661
 10
-4.7186413634
 20
-11.3582622444
 10
-4.7425204107
 20
-11.4209901673
 10
-4.7717307215
 20
-11.4828273666
  0
LINE
  5
22E
100
AcDbEntity
  8
RACCORDO
100
AcDbLine
 62
253
  6
CONTINUOUS
 10
4.7299832217
 20
23.3341200896
 11
5.1899938042
 21
24.1971230214
  0
LWPOLYLINE
  5
22F
100
AcDbEntity
  8
RACCORDO
100
AcDbPolyline
 62
253
  6
CONTINUOUS
 90
8
 70
0
 10
-11.8935655316
 20
-6.7284963719
 10
-11.9063409429
 20
-6.7517483577
 10
-11.9173775801
 20
-6.7721227198
 10
-11.9265080868
 20
-6.7893105073
 10
-11.9335940107
 20
-6.8030510897
 10
-11.9385279028
 20
-6.8131361087
 10
-11.9412349472
 20
-6.8194126383
 10
-11.9416740948
 20
-6.8217855029
  0
LINE
  5
230
100
AcDbEntity
  8
RACCORDO
100
AcDbLine
 62
253
  6
CONTINUOUS
 10
-11.8635967057
 20
-6.6748081627
 11
-11.8935655316
 21
-6.7284963719
  0
LWPOLYLINE
  5
231
100
AcDbEntity
  8
RACCORDO
100
AcDbPolyline
 62
253
  6
CONTINUOUS
 90
3
 70
0
 10
-11.8111359269
 20
-6.5826249099
 10
-11.8292819654
 20
-6.6143021961
 10
-11.8635967057
 20
-6.6748081627
  0
LINE
  5
232
100
AcDbEntity
  8
RACCORDO
100
AcDbLine
 62
7
  6
CONTINUOUS
 10
-12.7704880011
 20
-7.6573332985
 11
-12.351481716
 21
-6.931593124
  0
LINE
  5
233
100
AcDbEntity
  8
RACCORDO
100
AcDbLine
 62
7
  6
CONTINUOUS
 10
4.948518284
 20
23.032885847
 11
5.3675245692
 21
23.7586260215
  0
LINE
  5
234
100
AcDbEntity
  8
RACCORDO
100
AcDbLine
 62
253
  6
CONTINUOUS
 10
4.9164759027
 20
22.390448769
 11
4.9527937207
 21
22.4526674578
  0
LWPOLYLINE
  5
235
100
AcDbEntity
  8
RACCORDO
100
AcDbPolyline
 62
253
  6
CONTINUOUS
 90
10
 70
0
 10
4.9527937207
 20
22.4526674578
 10
4.9864252379
 20
22.5094840186
 10
5.0015887144
 20
22.5347749896
 10
5.0153380702
 20
22.5574651896
 10
5.0274647887
 20
22.5772105411
 10
5.0377849589
 20
22.5937116241
 10
5.0461420643
 20
22.6067182171
 10
5.0524093568
 20
22.6160330908
 10
5.056491779
 20
22.6215149996
 10
5.0583274052
 20
22.6230808232
  0
LINE
  5
236
100
AcDbEntity
  8
RACCORDO
100
AcDbLine
 62
253
  6
CONTINUOUS
 10
-13.239002925
 20
-7.722835646
 11
-12.7216257537
 21
-6.8929533297
  0
LWPOLYLINE
  5
237
100
AcDbEntity
  8
RACCORDO
100
AcDbPolyline
 62
253
  6
CONTINUOUS
 90
19
 70
0
 10
-12.7216257537
 20
-6.8929533297
 10
-12.6824935897
 20
-6.8365726849
 10
-12.6399892775
 20
-6.7844206153
 10
-12.5943183154
 20
-6.736618999
 10
-12.5453365699
 20
-6.6932325499
 10
-12.493540233
 20
-6.6543849121
 10
-12.4400864314
 20
-6.6202926896
 10
-12.3850504295
 20
-6.5911265328
 10
-12.3286298833
 20
-6.566874925
 10
-12.2721595372
 20
-6.5475129142
 10
-12.2157649966
 20
-6.5332466815
 10
-12.159480118
 20
-6.52399137
 10
-12.1044799756
 20
-6.5193079608
 10
-12.0509344222
 20
-6.5193039409
 10
-11.9987257051
 20
-6.5239581585
 10
-11.94857669
 20
-6.5326509074
 10
-11.9007234121
 20
-6.54519941
 10
-11.8549157903
 20
-6.5618492702
 10
-11.8111359146
 20
-6.5826248968
  0
LINE
  5
238
100
AcDbEntity
  8
RACCORDO
100
AcDbLine
 62
253
  6
CONTINUOUS
 10
-11.1245077125
 20
-6.9471665722
 11
-11.2745077125
 21
-7.2069741933
  0
LINE
  5
239
100
AcDbEntity
  8
RACCORDO
100
AcDbLine
 62
253
  6
CONTINUOUS
 10
5.5754922875
 20
21.9780819142
 11
5.7254922875
 21
22.2378895354
  0
LINE
  5
23A
100
AcDbEntity
  8
RACCORDO
100
AcDbLine
 62
253
  6
CONTINUOUS
 10
11.1519248774
 20
-12.659044937
 11
10.2858994736
 21
-12.159044937
  0
LINE
  5
23B
100
AcDbEntity
  8
0
100
AcDbLine
 62
7
  6
CONTINUOUS
 10
-2.0208737499
 20
-16.3743536385
 11
-2.0208737499
 21
-26.4390716928
  0
LINE
  5
23C
100
AcDbEntity
  8
RACCORDO
100
AcDbLine
 62
253
  6
CONTINUOUS
 10
-10.4805905733
 20
-13.3800046023
 11
-9.9711060714
 21
-12.5195247697
  0
LINE
  5
23D
100
AcDbEntity
  8
RACCORDO
100
AcDbLine
 62
253
  6
CONTINUOUS
 10
-13.1776310125
 20
-9.834450032
 11
-12.5367758121
 21
-9.0667882496
  0
LINE
  5
23E
100
AcDbEntity
  8
RACCORDO
100
AcDbLine
 62
253
  6
CONTINUOUS
 10
12.0100324954
 20
-11.1727589443
 11
11.1440070916
 21
-10.6727589443
  0
LINE
  5
23F
100
AcDbEntity
  8
ASSI
100
AcDbLine
 62
7
  6
CONTINUOUS
 10
-0.4708737499
 20
-16.2386045154
 11
-0.4708737499
 21
-16.3743536385
  0
LINE
  5
240
100
AcDbEntity
  8
0
100
AcDbLine
 62
7
  6
CONTINUOUS
 10
-0.4708737499
 20
-16.2386045154
 11
-0.4708737499
 21
-16.3743536385
  0
LINE
  5
241
100
AcDbEntity
  8
RACCORDO
100
AcDbLine
 62
253
  6
CONTINUOUS
 10
-5.6172397873
 20
-10.1267891913
 11
-5.7672397873
 21
-10.3865968124
  0
LINE
  5
242
100
AcDbEntity
  8
RACCORDO
100
AcDbLine
 62
253
  6
CONTINUOUS
 10
11.0827602127
 20
18.7984592951
 11
11.2327602127
 21
19.0582669163
  0
LWPOLYLINE
  5
243
100
AcDbEntity
  8
RACCORDO
100
AcDbPolyline
 62
253
  6
CONTINUOUS
 90
19
 70
0
 10
12.679878254
 20
18.7442460527
 10
12.64074609
 20
18.6878654079
 10
12.5982417777
 20
18.6357133383
 10
12.5525708157
 20
18.587911722
 10
12.5035890701
 20
18.5445252729
 10
12.4517927333
 20
18.5056776351
 10
12.3983389316
 20
18.4715854126
 10
12.3433029297
 20
18.4424192557
 10
12.2868823836
 20
18.418167648
 10
12.2304120375
 20
18.3988056371
 10
12.1740174969
 20
18.3845394045
 10
12.1177326182
 20
18.375284093
 10
12.0627324758
 20
18.3706006838
 10
12.0091869224
 20
18.3705966638
 10
11.9569782054
 20
18.3752508815
 10
11.9068291903
 20
18.3839436303
 10
11.8589759124
 20
18.396492133
 10
11.8131682905
 20
18.4131419932
 10
11.7693884148
 20
18.4339176198
  0
LINE
  5
244
100
AcDbEntity
  8
RACCORDO
100
AcDbLine
 62
253
  6
CONTINUOUS
 10
-12.7216257537
 20
18.7442460527
 11
-13.239002925
 21
19.574128369
  0
LWPOLYLINE
  5
245
100
AcDbEntity
  8
RACCORDO
100
AcDbPolyline
 62
253
  6
CONTINUOUS
 90
8
 70
0
 10
5.0015894295
 20
-10.6834776995
 10
5.0153385343
 20
-10.7061675232
 10
5.0274649308
 20
-10.7259127124
 10
5.0377847381
 20
-10.7424138569
 10
5.0461414695
 20
-10.7554207381
 10
5.0524084061
 20
-10.7647361236
 10
5.056490518
 20
-10.7702187575
 10
5.0583259052
 20
-10.7717855029
  0
LINE
  5
246
100
AcDbEntity
  8
RACCORDO
100
AcDbLine
 62
253
  6
CONTINUOUS
 10
4.9700784894
 20
-10.6306798303
 11
5.0015894295
 21
-10.6834776995
  0
LWPOLYLINE
  5
247
100
AcDbEntity
  8
RACCORDO
100
AcDbPolyline
 62
253
  6
CONTINUOUS
 90
3
 70
0
 10
4.91647584
 20
-10.5391558368
 10
4.9348361554
 20
-10.5707094102
 10
4.9700784894
 20
-10.6306798303
  0
LINE
  5
248
100
AcDbEntity
  8
RACCORDO
100
AcDbLine
 62
7
  6
CONTINUOUS
 10
5.3675245692
 20
-11.9073332985
 11
4.948518284
 21
-11.181593124
  0
LINE
  5
249
100
AcDbEntity
  8
RACCORDO
100
AcDbLine
 62
7
  6
CONTINUOUS
 10
-12.351481716
 20
18.782885847
 11
-12.7704880011
 21
19.5086260215
  0
LINE
  5
24A
100
AcDbEntity
  8
RACCORDO
100
AcDbLine
 62
253
  6
CONTINUOUS
 10
5.5754922875
 20
-10.1267891913
 11
5.7254922875
 21
-10.3865968124
  0
LINE
  5
24B
100
AcDbEntity
  8
RACCORDO
100
AcDbLine
 62
253
  6
CONTINUOUS
 10
-11.1245077125
 20
18.7984592951
 11
-11.2745077125
 21
19.0582669163
  0
LINE
  5
24C
100
AcDbEntity
  8
RACCORDO
100
AcDbLine
 62
253
  6
CONTINUOUS
 10
-11.811136028
 20
18.4339177401
 11
-11.84685961
 21
18.4964793799
  0
LWPOLYLINE
  5
24D
100
AcDbEntity
  8
RACCORDO
100
AcDbPolyline
 62
253
  6
CONTINUOUS
 90
10
 70
0
 10
-11.84685961
 20
18.4964793799
 10
-11.8792481716
 20
18.554013452
 10
-11.8935690028
 20
18.5797908856
 10
-11.9063446104
 20
18.6030432548
 10
-11.9173812699
 20
18.623417944
 10
-11.9265116274
 20
18.6406059755
 10
-11.9335972376
 20
18.6543466956
 10
-11.9385306631
 20
18.6644317267
 10
-11.9412371037
 20
18.6707081276
 10
-11.9416755305
 20
18.6730807127
  0
LINE
  5
24E
100
AcDbEntity
  8
RACCORDO
100
AcDbLine
 62
253
  6
CONTINUOUS
 10
5.1899938042
 20
-12.3458302984
 11
4.7299832217
 21
-11.4828273666
  0
LWPOLYLINE
  5
24F
100
AcDbEntity
  8
RACCORDO
100
AcDbPolyline
 62
253
  6
CONTINUOUS
 90
19
 70
0
 10
4.7299832217
 20
-11.4828273666
 10
4.7007222331
 20
-11.4207475961
 10
4.676809372
 20
-11.3578617471
 10
4.658247439
 20
-11.2944087256
 10
4.6451645447
 20
-11.2302960651
 10
4.6374196719
 20
-11.1660153027
 10
4.634621842
 20
-11.1026768412
 10
4.6368812102
 20
-11.0404311871
 10
4.6440889748
 20
-10.9794437569
 10
4.6555561546
 20
-10.9208579972
 10
4.671398505
 20
-10.8648857761
 10
4.6915256095
 20
-10.8115139856
 10
4.7149697293
 20
-10.7615407605
 10
4.7417390247
 20
-10.715166941
 10
4.7718740539
 20
-10.6722799745
 10
4.8044767028
 20
-10.6331960279
 10
4.8392706638
 20
-10.5980281249
 10
4.8765936766
 20
-10.5666824908
 10
4.9164758349
 20
-10.5391558196
  0
LINE
  5
250
100
AcDbEntity
  8
ASSI
100
AcDbLine
 62
7
  6
CONTINUOUS
 10
0.4291262501
 20
-16.2386045154
 11
0.4291262501
 21
-16.3743536385
  0
LINE
  5
251
100
AcDbEntity
  8
0
100
AcDbLine
 62
7
  6
CONTINUOUS
 10
0.4291262501
 20
-16.2386045154
 11
0.4291262501
 21
-16.3743536385
  0
LINE
  5
252
100
AcDbEntity
  8
0
100
AcDbLine
 62
7
  6
CONTINUOUS
 10
1.9791262501
 20
-16.3743536385
 11
1.9791262501
 21
-26.4390716928
  0
LINE
  5
253
100
AcDbEntity
  8
RACCORDO
100
AcDbLine
 62
253
  6
CONTINUOUS
 10
-4.7717307215
 20
-11.4828273666
 11
-5.2317413039
 21
-12.3458302984
  0
LWPOLYLINE
  5
254
100
AcDbEntity
  8
RACCORDO
100
AcDbPolyline
 62
253
  6
CONTINUOUS
 90
8
 70
0
 10
11.8518180364
 20
18.579789103
 10
11.8645934478
 20
18.6030410891
 10
11.8756300849
 20
18.623415451
 10
11.8847605912
 20
18.6406032378
 10
11.8918465144
 20
18.654343819
 10
11.8967804057
 20
18.6644288364
 10
11.8994874488
 20
18.6707053638
 10
11.8999265951
 20
18.6730782258
  0
LINE
  5
255
100
AcDbEntity
  8
RACCORDO
100
AcDbLine
 62
253
  6
CONTINUOUS
 10
11.8218492098
 20
18.5261008922
 11
11.8518180364
 21
18.579789103
  0
LWPOLYLINE
  5
256
100
AcDbEntity
  8
RACCORDO
100
AcDbPolyline
 62
253
  6
CONTINUOUS
 90
3
 70
0
 10
11.769388429
 20
18.4339176348
 10
11.7875344683
 20
18.4655949227
 10
11.8218492098
 20
18.5261008922
  0
LINE
  5
257
100
AcDbEntity
  8
RACCORDO
100
AcDbLine
 62
7
  6
CONTINUOUS
 10
12.7287405014
 20
19.5086260215
 11
12.3097342162
 21
18.782885847
  0
LINE
  5
258
100
AcDbEntity
  8
RACCORDO
100
AcDbLine
 62
7
  6
CONTINUOUS
 10
-4.9902657838
 20
-11.181593124
 11
-5.4092720689
 21
-11.9073332985
  0
LINE
  5
259
100
AcDbEntity
  8
RACCORDO
100
AcDbLine
 62
253
  6
CONTINUOUS
 10
-4.9582233821
 20
-10.5391559779
 11
-4.9945415605
 21
-10.6013743274
  0
LWPOLYLINE
  5
25A
100
AcDbEntity
  8
RACCORDO
100
AcDbPolyline
 62
253
  6
CONTINUOUS
 90
10
 70
0
 10
-4.9945415605
 20
-10.6013743274
 10
-5.0281732477
 20
-10.6581906805
 10
-5.0433367445
 20
-10.683481601
 10
-5.0570860831
 20
-10.7061717864
 10
-5.0692127517
 20
-10.7259171584
 10
-5.0795328449
 20
-10.7424182957
 10
-5.0878898525
 20
-10.7554249742
 10
-5.0941570329
 20
-10.7647399616
 10
-5.0982393352
 20
-10.7702220083
 10
-5.1000748408
 20
-10.7717879896
  0
LINE
  5
25B
100
AcDbEntity
  8
RACCORDO
100
AcDbLine
 62
253
  6
CONTINUOUS
 10
13.1972554253
 20
19.574128369
 11
12.679878254
 21
18.7442460527
  0
LINE
  5
25C
100
AcDbEntity
  8
RACCORDO
100
AcDbLine
 62
253
  6
CONTINUOUS
 10
-17.4724827253
 20
1.3357723246
 11
-18.449870479
 21
1.3026517091
  0
LWPOLYLINE
  5
25D
100
AcDbEntity
  8
RACCORDO
100
AcDbPolyline
 62
253
  6
CONTINUOUS
 90
8
 70
0
 10
16.8742812112
 20
1.9706650339
 10
16.9008057273
 20
1.9712271961
 10
16.9239687611
 20
1.9718563689
 10
16.943419075
 20
1.9725430119
 10
16.9588617303
 20
1.973276713
 10
16.9700625591
 20
1.9740463466
 10
16.9768517153
 20
1.9748402422
 10
16.9791262501
 20
1.9756463615
  0
LINE
  5
25E
100
AcDbEntity
  8
RACCORDO
100
AcDbLine
 62
253
  6
CONTINUOUS
 10
16.8128014452
 20
1.9697746939
 11
16.8742812112
 21
1.9706650339
  0
LWPOLYLINE
  5
25F
100
AcDbEntity
  8
RACCORDO
100
AcDbPolyline
 62
253
  6
CONTINUOUS
 90
3
 70
0
 10
16.7067380171
 20
1.9691154346
 10
16.7432443709
 20
1.9692391473
 10
16.8128014452
 20
1.9697746939
  0
LINE
  5
260
100
AcDbEntity
  8
RACCORDO
100
AcDbLine
 62
7
  6
CONTINUOUS
 10
18.1171388204
 20
1.6756463615
 11
17.2791262501
 21
1.6756463615
  0
LINE
  5
261
100
AcDbEntity
  8
RACCORDO
100
AcDbLine
 62
7
  6
CONTINUOUS
 10
-17.3208737499
 20
1.6756463615
 11
-18.1588863202
 21
1.6756463615
  0
LINE
  5
262
100
AcDbEntity
  8
RACCORDO
100
AcDbLine
 62
253
  6
CONTINUOUS
 10
-16.7484856602
 20
1.9691154006
 11
-16.8205274207
 21
1.969458691
  0
LWPOLYLINE
  5
263
100
AcDbEntity
  8
RACCORDO
100
AcDbPolyline
 62
253
  6
CONTINUOUS
 90
10
 70
0
 10
-16.8205274207
 20
1.969458691
 10
-16.8865476694
 20
1.9701764099
 10
-16.9160319974
 20
1.9706629231
 10
-16.9425569437
 20
1.9712251069
 10
-16.9657202718
 20
1.971854424
 10
-16.9851707225
 20
1.9725413182
 10
-17.0006133403
 20
1.9732753599
 10
-17.0118139461
 20
1.9740454036
 10
-17.018602689
 20
1.9748397577
 10
-17.0208766214
 20
1.9756463616
  0
LINE
  5
264
100
AcDbEntity
  8
RACCORDO
100
AcDbLine
 62
253
  6
CONTINUOUS
 10
18.4081229793
 20
1.3026517091
 11
17.4307352256
 21
1.3357723246
  0
LINE
  5
265
100
AcDbEntity
  8
RACCORDO
100
AcDbLine
 62
253
  6
CONTINUOUS
 10
10.4388430736
 20
-13.3800046023
 11
9.9293585717
 21
-12.5195247697
  0
LINE
  5
266
100
AcDbEntity
  8
RACCORDO
100
AcDbLine
 62
253
  6
CONTINUOUS
 10
-12.0517799951
 20
-11.1727589443
 11
-11.1857545914
 21
-10.6727589443
  0
LINE
  5
267
100
AcDbEntity
  8
RACCORDO
100
AcDbLine
 62
253
  6
CONTINUOUS
 10
16.6791262501
 20
2.7460237424
 11
16.9791262501
 21
2.7460237424
  0
LINE
  5
268
100
AcDbEntity
  8
RACCORDO
100
AcDbLine
 62
253
  6
CONTINUOUS
 10
-16.7208737499
 20
2.7460237424
 11
-17.0208737499
 21
2.7460237424
  0
LWPOLYLINE
  5
269
100
AcDbEntity
  8
RACCORDO
100
AcDbPolyline
 62
253
  6
CONTINUOUS
 90
19
 70
0
 10
17.4307352256
 20
1.3357723246
 10
17.3623577289
 20
1.3414636422
 10
17.2959441842
 20
1.352196396
 10
17.2317020473
 20
1.3678537593
 10
17.1696021413
 20
1.3886001881
 10
17.1100111502
 20
1.4140607861
 10
17.0537333544
 20
1.4433201761
 10
17.0009812296
 20
1.4763835007
 10
16.9518191297
 20
1.5130885894
 10
16.9068537926
 20
1.5522900138
 10
16.8663078689
 20
1.5939925879
 10
16.8301423332
 20
1.6381140477
 10
16.7985790825
 20
1.6834086937
 10
16.7718012146
 20
1.7297805116
 10
16.7497265417
 20
1.7773235777
 10
16.7321795497
 20
1.8251015425
 10
16.7191198847
 20
1.8728184497
 10
16.7106353046
 20
1.9208138421
 10
16.7067379996
 20
1.9691154387
  0
LINE
  5
26A
100
AcDbEntity
  8
RACCORDO
100
AcDbLine
 62
253
  6
CONTINUOUS
 10
13.1358835127
 20
-9.834450032
 11
12.4950283124
 21
-9.0667882496
  0
LINE
  5
26B
100
AcDbEntity
  8
RACCORDO
100
AcDbLine
 62
253
  6
CONTINUOUS
 10
-11.1936723771
 20
-12.659044937
 11
-10.3276469733
 21
-12.159044937
  0
LINE
  5
26C
100
AcDbEntity
  8
RACCORDO
100
AcDbLine
 62
253
  6
CONTINUOUS
 10
11.0827602127
 20
-6.9471665722
 11
11.2327602127
 21
-7.2069741933
  0
LINE
  5
26D
100
AcDbEntity
  8
RACCORDO
100
AcDbLine
 62
253
  6
CONTINUOUS
 10
-5.6172397873
 20
21.9780819142
 11
-5.7672397873
 21
22.2378895354
  0
LINE
  5
26E
100
AcDbEntity
  8
RACCORDO
100
AcDbLine
 62
253
  6
CONTINUOUS
 10
11.7693885283
 20
-6.5826250171
 11
11.7875355174
 21
-6.6143025016
  0
LINE
  5
26F
100
AcDbEntity
  8
RACCORDO
100
AcDbLine
 62
253
  6
CONTINUOUS
 10
-5.2317413039
 20
24.1971230214
 11
-4.7717307215
 21
23.3341200896
  0
LWPOLYLINE
  5
270
100
AcDbEntity
  8
RACCORDO
100
AcDbPolyline
 62
253
  6
CONTINUOUS
 90
19
 70
0
 10
-4.7717307215
 20
23.3341200896
 10
-4.7424697328
 20
23.2720403191
 10
-4.7185568718
 20
23.2091544701
 10
-4.6999949387
 20
23.1457014486
 10
-4.6869120444
 20
23.0815887881
 10
-4.6791671716
 20
23.0173080256
 10
-4.6763693417
 20
22.9539695642
 10
-4.6786287099
 20
22.89172391
 10
-4.6858364746
 20
22.8307364799
 10
-4.6973036544
 20
22.7721507202
 10
-4.7131460048
 20
22.716178499
 10
-4.7332731092
 20
22.6628067086
 10
-4.7567172291
 20
22.6128334834
 10
-4.7834865244
 20
22.5664596639
 10
-4.8136215536
 20
22.5235726975
 10
-4.8462242025
 20
22.4844887509
 10
-4.8810181636
 20
22.4493208479
 10
-4.9183411764
 20
22.4179752137
 10
-4.9582233346
 20
22.3904485425
  0
LINE
  5
271
100
AcDbEntity
  8
RACCORDO
100
AcDbLine
 62
253
  6
CONTINUOUS
 10
16.6791262501
 20
9.1052689806
 11
16.9791262501
 21
9.1052689806
  0
LINE
  5
272
100
AcDbEntity
  8
RACCORDO
100
AcDbLine
 62
253
  6
CONTINUOUS
 10
-16.7208737499
 20
9.1052689806
 11
-17.0208737499
 21
9.1052689806
  0
LWPOLYLINE
  5
273
100
AcDbEntity
  8
RACCORDO
100
AcDbPolyline
 62
253
  6
CONTINUOUS
 90
19
 70
0
 10
-17.4724827253
 20
10.5155203984
 10
-17.4040898519
 20
10.5098213198
 10
-17.337672922
 20
10.4990876119
 10
-17.2734402305
 20
10.4834363007
 10
-17.2113757302
 20
10.4627101931
 10
-17.1518346144
 20
10.4372771923
 10
-17.0955830945
 20
10.4080311308
 10
-17.042806638
 20
10.3749518872
 10
-16.9935940542
 20
10.3382163713
 10
-16.9485910321
 20
10.2989929456
 10
-16.9080389063
 20
10.2572872898
 10
-16.8718811408
 20
10.2131711596
 10
-16.8403250709
 20
10.1678816936
 10
-16.8135487122
 20
10.1215124138
 10
-16.7914748686
 20
10.073971751
 10
-16.7739282794
 20
10.0261950601
 10
-16.7608686628
 20
9.9784779725
 10
-16.7523836763
 20
9.930481285
 10
-16.7484854993
 20
9.8821772843
  0
LINE
  5
274
100
AcDbEntity
  8
RACCORDO
100
AcDbLine
 62
253
  6
CONTINUOUS
 10
12.679878254
 20
-6.8929533297
 11
13.1972554253
 21
-7.722835646
  0
LWPOLYLINE
  5
275
100
AcDbEntity
  8
RACCORDO
100
AcDbPolyline
 62
253
  6
CONTINUOUS
 90
8
 70
0
 10
-5.0433369292
 20
22.5347704224
 10
-5.057086034
 20
22.5574602461
 10
-5.0692124306
 20
22.5772054353
 10
-5.0795322378
 20
22.5937065798
 10
-5.0878889692
 20
22.6067134611
 10
-5.0941559059
 20
22.6160288466
 10
-5.0982380177
 20
22.6215114805
 10
-5.1000734049
 20
22.6230782258
  0
LINE
  5
276
100
AcDbEntity
  8
RACCORDO
100
AcDbLine
 62
253
  6
CONTINUOUS
 10
-5.0118259891
 20
22.4819725533
 11
-5.0433369292
 21
22.5347704224
  0
LWPOLYLINE
  5
277
100
AcDbEntity
  8
RACCORDO
100
AcDbPolyline
 62
253
  6
CONTINUOUS
 90
3
 70
0
 10
-4.9582233398
 20
22.3904485598
 10
-4.9765836551
 20
22.4220021332
 10
-5.0118259891
 20
22.4819725533
  0
LINE
  5
278
100
AcDbEntity
  8
RACCORDO
100
AcDbLine
 62
7
  6
CONTINUOUS
 10
-5.4092720689
 20
23.7586260215
 11
-4.9902657838
 21
23.032885847
  0
LINE
  5
279
100
AcDbEntity
  8
RACCORDO
100
AcDbLine
 62
7
  6
CONTINUOUS
 10
12.3097342162
 20
-6.931593124
 11
12.7287405014
 21
-7.6573332985
  0
LINE
  5
27A
100
AcDbEntity
  8
RACCORDO
100
AcDbLine
 62
253
  6
CONTINUOUS
 10
11.7875355174
 20
-6.6143025016
 11
11.8218517749
 21
-6.6748091373
  0
LWPOLYLINE
  5
27B
100
AcDbEntity
  8
RACCORDO
100
AcDbPolyline
 62
253
  6
CONTINUOUS
 90
9
 70
0
 10
11.8218517749
 20
-6.6748091373
 10
11.851821503
 20
-6.7284981627
 10
11.8645971107
 20
-6.7517505319
 10
11.8756337702
 20
-6.772125221
 10
11.8847641277
 20
-6.7893132525
 10
11.8918497378
 20
-6.8030539726
 10
11.8967831634
 20
-6.8131390037
 10
11.899489604
 20
-6.8194154046
 10
11.8999280307
 20
-6.8217879897
  0
LWPOLYLINE
  5
27C
100
AcDbEntity
  8
RACCORDO
100
AcDbPolyline
 62
253
  6
CONTINUOUS
 90
3
 70
0
 10
11.0827602127
 20
-6.9471665722
 10
11.6558280029
 20
-6.6425127534
 10
11.7693884148
 20
-6.5826248968
  0
LWPOLYLINE
  5
27D
100
AcDbEntity
  8
RACCORDO
100
AcDbPolyline
 62
253
  6
CONTINUOUS
 90
19
 70
0
 10
11.7693884148
 20
-6.5826248968
 10
11.8130220511
 20
-6.5619033615
 10
11.8587007442
 20
-6.5452853418
 10
11.9064422875
 20
-6.532746324
 10
11.9564876631
 20
-6.5240320508
 10
12.008609909
 20
-6.5193338468
 10
12.0621134169
 20
-6.5192967179
 10
12.1171271988
 20
-6.5239406799
 10
12.1734702499
 20
-6.5331580953
 10
12.2299609083
 20
-6.5474142338
 10
12.2865818566
 20
-6.566806265
 10
12.3431895196
 20
-6.5911133132
 10
12.3983908608
 20
-6.6203471789
 10
12.4519870339
 20
-6.6545432288
 10
12.5039022447
 20
-6.6935064642
 10
12.5529255378
 20
-6.7369390831
 10
12.5985463728
 20
-6.7846940358
 10
12.6409308239
 20
-6.8367378588
 10
12.679878254
 20
-6.8929533297
  0
LINE
  5
27E
100
AcDbEntity
  8
RACCORDO
100
AcDbLine
 62
253
  6
CONTINUOUS
 10
17.4307352256
 20
10.5155203984
 11
18.4081229793
 21
10.5486410139
  0
LWPOLYLINE
  5
27F
100
AcDbEntity
  8
RACCORDO
100
AcDbPolyline
 62
253
  6
CONTINUOUS
 90
8
 70
0
 10
-16.9160287109
 20
9.8806276891
 10
-16.942553227
 20
9.8800655269
 10
-16.9657162608
 20
9.879436354
 10
-16.9851665747
 20
9.878749711
 10
-17.0006092301
 20
9.87801601
 10
-17.0118100588
 20
9.8772463764
 10
-17.018599215
 20
9.8764524808
 10
-17.0208737499
 20
9.8756463615
  0
LINE
  5
280
100
AcDbEntity
  8
RACCORDO
100
AcDbLine
 62
253
  6
CONTINUOUS
 10
-16.8545489449
 20
9.8815180291
 11
-16.9160287109
 21
9.8806276891
  0
LWPOLYLINE
  5
281
100
AcDbEntity
  8
RACCORDO
100
AcDbPolyline
 62
253
  6
CONTINUOUS
 90
3
 70
0
 10
-16.7484855168
 20
9.8821772884
 10
-16.7849918706
 20
9.8820535756
 10
-16.8545489449
 20
9.8815180291
  0
LINE
  5
282
100
AcDbEntity
  8
RACCORDO
100
AcDbLine
 62
7
  6
CONTINUOUS
 10
-18.1588863202
 20
10.1756463615
 11
-17.3208737499
 21
10.1756463615
  0
LINE
  5
283
100
AcDbEntity
  8
RACCORDO
100
AcDbLine
 62
7
  6
CONTINUOUS
 10
17.2791262501
 20
10.1756463615
 11
18.1171388204
 21
10.1756463615
  0
LINE
  5
284
100
AcDbEntity
  8
RACCORDO
100
AcDbLine
 62
253
  6
CONTINUOUS
 10
16.7067381605
 20
9.8821773223
 11
16.7787799209
 21
9.881834032
  0
LWPOLYLINE
  5
285
100
AcDbEntity
  8
RACCORDO
100
AcDbPolyline
 62
253
  6
CONTINUOUS
 90
10
 70
0
 10
16.7787799209
 20
9.881834032
 10
16.8448001697
 20
9.8811163131
 10
16.8742844977
 20
9.8806297998
 10
16.9008094439
 20
9.880067616
 10
16.9239727721
 20
9.879438299
 10
16.9434232228
 20
9.8787514047
 10
16.9588658405
 20
9.8780173631
 10
16.9700664464
 20
9.8772473194
 10
16.9768551893
 20
9.8764529652
 10
16.9791291217
 20
9.8756463614
  0
LINE
  5
286
100
AcDbEntity
  8
RACCORDO
100
AcDbLine
 62
253
  6
CONTINUOUS
 10
-18.449870479
 20
10.5486410139
 11
-17.4724827253
 21
10.5155203984
  0
LWPOLYLINE
  5
287
100
AcDbEntity
  8
RACCORDO
100
AcDbPolyline
 62
253
  6
CONTINUOUS
 90
16
 70
0
 10
12.6798750399
 20
-6.8929500855
 10
12.6511254866
 20
-6.9110814349
 10
12.6213241126
 20
-6.9275433467
 10
12.5908551233
 20
-6.9421235907
 10
12.5601113312
 20
-6.9546341958
 10
12.5294890913
 20
-6.9649138728
 10
12.4993831916
 20
-6.9728300938
 10
12.4701817632
 20
-6.9782808013
 10
12.4422612771
 20
-6.981195724
 10
12.4159816896
 20
-6.9815372823
 10
12.3916818026
 20
-6.9793010728
 10
12.3696748952
 20
-6.9745159254
 10
12.3502446849
 20
-6.9672435314
 10
12.3336416701
 20
-6.9575776483
 10
12.3200799002
 20
-6.9456428906
 10
12.3097342163
 20
-6.9315931239
  0
LINE
  5
288
100
AcDbEntity
  8
RACCORDO
100
AcDbLine
 62
253
  6
CONTINUOUS
 10
4.9164758349
 20
-10.5391558196
 11
5.3539389003
 21
-10.2647654156
  0
LINE
  5
289
100
AcDbEntity
  8
RACCORDO
100
AcDbLine
 62
253
  6
CONTINUOUS
 10
5.3539389003
 20
-10.2647654156
 11
5.5754922875
 21
-10.1267891913
  0
LINE
  5
28A
100
AcDbEntity
  8
RACCORDO
100
AcDbLine
 62
253
  6
CONTINUOUS
 10
5.5754922983
 20
-10.126789185
 11
11.0827601989
 21
-6.9471665801
  0
LINE
  5
28B
100
AcDbEntity
  8
RACCORDO
100
AcDbLine
 62
7
  6
CONTINUOUS
 10
5.0583259052
 20
-10.7717855029
 11
11.8999265951
 21
-6.8217855029
  0
LWPOLYLINE
  5
28C
100
AcDbEntity
  8
RACCORDO
100
AcDbPolyline
 62
253
  6
CONTINUOUS
 90
16
 70
0
 10
4.7299829928
 20
-11.4828265278
 10
4.7600598538
 20
-11.4669933932
 10
4.7892168891
 20
-11.4494147181
 10
4.8170781909
 20
-11.4303171298
 10
4.8432845564
 20
-11.4099468375
 10
4.8674981188
 20
-11.3885664583
 10
4.8894067029
 20
-11.366451631
 10
4.90872785
 20
-11.3438874629
 10
4.9252124596
 20
-11.321164854
 10
4.9386480006
 20
-11.2985767463
 10
4.9488612516
 20
-11.2764143473
 10
4.9557205342
 20
-11.2549633758
 10
4.9591374104
 20
-11.2345003781
 10
4.959067823
 20
-11.2152891626
 10
4.9555126638
 20
-11.1975773992
 10
4.9485177616
 20
-11.1815934256
  0
LWPOLYLINE
  5
28D
100
AcDbEntity
  8
RACCORDO
100
AcDbPolyline
 62
253
  6
CONTINUOUS
 90
19
 70
0
 10
16.7067379996
 20
9.8821772843
 10
16.7106094431
 20
9.9303258908
 10
16.7190571623
 20
9.9781938088
 10
16.7320688245
 20
10.0258087045
 10
16.749544727
 20
10.073506402
 10
16.7715370813
 20
10.1209946854
 10
16.7982566761
 20
10.167348641
 10
16.8297853536
 20
10.2126699907
 10
16.8659393925
 20
10.2568557964
 10
16.9065308929
 20
10.2986500708
 10
16.9516353407
 20
10.3379892282
 10
17.0009896713
 20
10.3748593702
 10
17.0539076015
 20
10.4080481987
 10
17.1103203448
 20
10.4373658294
 10
17.170021121
 20
10.4628441165
 10
17.2321465362
 20
10.4835832352
 10
17.2963139676
 20
10.4992145665
 10
17.3625774761
 20
10.5098986695
 10
17.4307352256
 20
10.5155203984
  0
LINE
  5
28E
100
AcDbEntity
  8
RACCORDO
100
AcDbLine
 62
253
  6
CONTINUOUS
 10
11.1440070916
 20
-10.6727589443
 11
10.2858994736
 21
-12.159044937
  0
LWPOLYLINE
  5
28F
100
AcDbEntity
  8
RACCORDO
100
AcDbPolyline
 62
253
  6
CONTINUOUS
 90
16
 70
0
 10
17.430730809
 20
10.515519237
 10
17.4320582415
 20
10.4815557188
 10
17.4314139883
 20
10.447516016
 10
17.4288063553
 20
10.4138389752
 10
17.4242689611
 20
10.3809587677
 10
17.4178603026
 20
10.3492992915
 10
17.4096630012
 20
10.3192687071
 10
17.3997827382
 20
10.2912541745
 10
17.3883468923
 20
10.2656168629
 10
17.3755028967
 20
10.2426872934
 10
17.3614163389
 20
10.2227610787
 10
17.346268826
 20
10.2060951115
 10
17.330255643
 20
10.1929042528
 10
17.3135832352
 20
10.1833585617
 10
17.2964665469
 20
10.1775811033
 10
17.2791262501
 20
10.1756463616
  0
LINE
  5
290
100
AcDbEntity
  8
RACCORDO
100
AcDbLine
 62
253
  6
CONTINUOUS
 10
16.7067379996
 20
1.9691154387
 11
16.6878404719
 21
2.4851647686
  0
LINE
  5
291
100
AcDbEntity
  8
RACCORDO
100
AcDbLine
 62
253
  6
CONTINUOUS
 10
16.6878404719
 20
2.4851647686
 11
16.6791262501
 21
2.7460237424
  0
LINE
  5
292
100
AcDbEntity
  8
RACCORDO
100
AcDbLine
 62
253
  6
CONTINUOUS
 10
16.6791262501
 20
2.7460237549
 11
16.6791262501
 21
9.1052689746
  0
LINE
  5
293
100
AcDbEntity
  8
RACCORDO
100
AcDbLine
 62
7
  6
CONTINUOUS
 10
16.9791262501
 20
1.9756463615
 11
16.9791262501
 21
9.8756463615
  0
LINE
  5
294
100
AcDbEntity
  8
RACCORDO
100
AcDbLine
 62
253
  6
CONTINUOUS
 10
16.6791262501
 20
9.1052689806
 11
16.6919934676
 21
9.485103828
  0
LINE
  5
295
100
AcDbEntity
  8
RACCORDO
100
AcDbLine
 62
253
  6
CONTINUOUS
 10
16.6919934676
 20
9.485103828
 11
16.7067379996
 21
9.8821772843
  0
LWPOLYLINE
  5
296
100
AcDbEntity
  8
RACCORDO
100
AcDbPolyline
 62
253
  6
CONTINUOUS
 90
16
 70
0
 10
17.43073441
 20
1.335772539
 10
17.4320609451
 20
1.3697364347
 10
17.4314158842
 20
1.4037765078
 10
17.4288075385
 20
1.4374538991
 10
17.4242695302
 20
1.4703344252
 10
17.4178603587
 20
1.5019941763
 10
17.409662647
 20
1.5320249812
 10
17.3997820759
 20
1.5600396698
 10
17.3883460218
 20
1.5856770648
 10
17.3755019146
 20
1.6086066378
 10
17.3614153367
 20
1.6285327709
 10
17.3462678887
 20
1.6451985679
 10
17.3302548479
 20
1.658389166
 10
17.3135826506
 20
1.6679345065
 10
17.296466231
 20
1.6737115267
 10
17.2791262502
 20
1.6756457468
  0
LINE
  5
297
100
AcDbEntity
  8
RACCORDO
100
AcDbLine
 62
7
  6
CONTINUOUS
 10
12.0100324954
 20
-11.1727589443
 11
11.1519248774
 21
-12.659044937
  0
LWPOLYLINE
  5
298
100
AcDbEntity
  8
RACCORDO
100
AcDbPolyline
 62
253
  6
CONTINUOUS
 90
3
 70
0
 10
11.7693884148
 20
18.4339176198
 10
11.1927115163
 20
18.7395877307
 10
11.0827602127
 20
18.7984592951
  0
LINE
  5
299
100
AcDbEntity
  8
RACCORDO
100
AcDbLine
 62
253
  6
CONTINUOUS
 10
11.0827602108
 20
18.7984592963
 11
5.5754923013
 21
21.9780819063
  0
LINE
  5
29A
100
AcDbEntity
  8
RACCORDO
100
AcDbLine
 62
7
  6
CONTINUOUS
 10
11.8999265951
 20
18.6730782258
 11
5.0583259052
 21
22.6230782258
  0
LWPOLYLINE
  5
29B
100
AcDbEntity
  8
RACCORDO
100
AcDbPolyline
 62
253
  6
CONTINUOUS
 90
3
 70
0
 10
5.5754922875
 20
21.9780819142
 10
5.0251204461
 20
22.3220462693
 10
4.9164758349
 20
22.3904485425
  0
LWPOLYLINE
  5
29C
100
AcDbEntity
  8
RACCORDO
100
AcDbPolyline
 62
253
  6
CONTINUOUS
 90
19
 70
0
 10
4.9164758349
 20
22.3904485425
 10
4.8758865133
 20
22.4184903743
 10
4.8379512459
 20
22.4505165331
 10
4.8026380347
 20
22.4865302427
 10
4.7695806145
 20
22.5266279864
 10
4.7390797806
 20
22.5706914767
 10
4.7121118688
 20
22.6183915293
 10
4.6886370679
 20
22.6698379182
 10
4.6686434184
 20
22.7248225344
 10
4.6531716366
 20
22.7825253981
 10
4.6423261531
 20
22.843028842
 10
4.6359744166
 20
22.9060257666
 10
4.634837026
 20
22.9701072184
 10
4.6395268457
 20
23.035928466
 10
4.6494279101
 20
23.102466242
 10
4.6634837578
 20
23.1659413987
 10
4.6813910027
 20
23.2251353509
 10
4.7035451156
 20
23.2812089643
 10
4.7299832217
 20
23.3341200896
  0
LWPOLYLINE
  5
29D
100
AcDbEntity
  8
RACCORDO
100
AcDbPolyline
 62
253
  6
CONTINUOUS
 90
16
 70
0
 10
4.7299812451
 20
23.3341128491
 10
4.7600578781
 20
23.3182808505
 10
4.7892146634
 20
23.3007032723
 10
4.8170757147
 20
23.2816067231
 10
4.8432818502
 20
23.2612373941
 10
4.8674952234
 20
23.2398578847
 10
4.889403678
 20
23.2177438179
 10
4.9087247724
 20
23.195180286
 10
4.9252094214
 20
23.1724581763
 10
4.9386451066
 20
23.1498704202
 10
4.9488586167
 20
23.127708217
 10
4.9557182804
 20
23.10625728
 10
4.9591356637
 20
23.0857941528
 10
4.9590667103
 20
23.0665826442
 10
4.9555123092
 20
23.0488704275
 10
4.9485182838
 20
23.0328858471
  0
LWPOLYLINE
  5
29E
100
AcDbEntity
  8
RACCORDO
100
AcDbPolyline
 62
253
  6
CONTINUOUS
 90
16
 70
0
 10
12.679877642
 20
18.744245435
 10
12.6511273147
 20
18.7623761934
 10
12.6213252179
 20
18.7788375891
 10
12.5908555704
 20
18.7934173901
 10
12.560111197
 20
18.8059276223
 10
12.5294884642
 20
18.8162069928
 10
12.4993821699
 20
18.8241229695
 10
12.4701804536
 20
18.8295734897
 10
12.4422597923
 20
18.8324882759
 10
12.4159801467
 20
18.8328297419
 10
12.3916803207
 20
18.8305934773
 10
12.3696735931
 20
18.8258083045
 10
12.3502436791
 20
18.8185359071
 10
12.3336410722
 20
18.808870035
 10
12.3200798147
 20
18.7969352951
 10
12.3097347387
 20
18.7828855454
  0
LINE
  5
29F
100
AcDbEntity
  8
0
100
AcDbLine
 62
7
  6
CONTINUOUS
 10
2.4791262501
 20
-44.0711987222
 11
-2.5208737499
 21
-44.0711987222
  0
LINE
  5
2A0
100
AcDbEntity
  8
0
100
AcDbLine
 62
7
  6
CONTINUOUS
 10
2.4791262501
 20
-41.3711987222
 11
1.9791262501
 21
-41.3711987222
  0
LINE
  5
2A1
100
AcDbEntity
  8
0
100
AcDbLine
 62
7
  6
CONTINUOUS
 10
-2.0208737499
 20
-41.3711987222
 11
-2.5208737499
 21
-41.3711987222
  0
LINE
  5
2A2
100
AcDbEntity
  8
0
100
AcDbLine
 62
7
  6
CONTINUOUS
 10
2.4791262501
 20
-40.3711987222
 11
1.9791262501
 21
-40.3711987222
  0
LINE
  5
2A3
100
AcDbEntity
  8
0
100
AcDbLine
 62
7
  6
CONTINUOUS
 10
-2.0208737499
 20
-40.3711987222
 11
-2.5208737499
 21
-40.3711987222
  0
LINE
  5
2A4
100
AcDbEntity
  8
0
100
AcDbLine
 62
7
  6
CONTINUOUS
 10
-2.5208737499
 20
-44.0711987222
 11
-2.5208737499
 21
-38.3711987222
  0
LINE
  5
2A5
100
AcDbEntity
  8
0
100
AcDbLine
 62
7
  6
CONTINUOUS
 10
-2.0208737499
 20
-29.4392736928
 11
-2.0208737499
 21
-38.1711987222
  0
LINE
  5
2A6
100
AcDbEntity
  8
0
100
AcDbLine
 62
7
  6
CONTINUOUS
 10
-2.0208737499
 20
-38.3711987222
 11
-2.0208737499
 21
-44.0711987222
  0
LINE
  5
2A7
100
AcDbEntity
  8
RACCORDO
100
AcDbLine
 62
7
  6
CONTINUOUS
 10
-1.6708737499
 20
-38.2930708881
 11
-1.6708737499
 21
-38.3711987222
  0
LINE
  5
2A8
100
AcDbEntity
  8
0
100
AcDbLine
 62
7
  6
CONTINUOUS
 10
-1.6208737499
 20
-44.0711987222
 11
-1.6208737499
 21
-38.3711987222
  0
LINE
  5
2A9
100
AcDbEntity
  8
RACCORDO
100
AcDbLine
 62
7
  6
CONTINUOUS
 10
-1.5208737499
 20
-38.2930708881
 11
-1.5208737499
 21
-38.3711987222
  0
LINE
  5
2AA
100
AcDbEntity
  8
0
100
AcDbLine
 62
7
  6
CONTINUOUS
 10
-1.4708737499
 20
-38.3711987222
 11
-1.4708737499
 21
-38.1711987222
  0
LINE
  5
2AB
100
AcDbEntity
  8
ASSI
100
AcDbLine
 62
7
  6
CONTINUOUS
 10
-1.4708737499
 20
-38.1711987222
 11
-1.4708737499
 21
-38.3711987222
  0
LWPOLYLINE
  5
2AC
100
AcDbEntity
  8
0
100
AcDbPolyline
 62
7
  6
CONTINUOUS
 90
7
 70
0
 10
-1.4708737499
 20
-38.2854949927
 10
-1.484855706
 20
-38.2863627949
 10
-1.4974333711
 20
-38.2874607985
 10
-1.5074339996
 20
-38.2886900527
 10
-1.514490953
 20
-38.2900190806
 10
-1.5189708697
 20
-38.2914793591
 10
-1.5208737499
 20
-38.2930708881
  0
LWPOLYLINE
  5
2AD
100
AcDbEntity
  8
0
100
AcDbPolyline
 62
7
  6
CONTINUOUS
 90
7
 70
0
 10
-1.5456916747
 20
-38.2741198489
 10
-1.5808286403
 20
-38.2763006552
 10
-1.612272803
 20
-38.2790456641
 10
-1.6372743742
 20
-38.2821187995
 10
-1.6549167576
 20
-38.2854413693
 10
-1.6661165495
 20
-38.2890920655
 10
-1.6708737499
 20
-38.2930708881
  0
LWPOLYLINE
  5
2AE
100
AcDbEntity
  8
0
100
AcDbPolyline
 62
7
  6
CONTINUOUS
 90
3
 70
0
 10
-1.4708737499
 20
-38.2717182516
 10
-1.5077785026
 20
-38.2725819373
 10
-1.5456916747
 20
-38.2741198489
  0
LINE
  5
2AF
100
AcDbEntity
  8
0
100
AcDbLine
 62
7
  6
CONTINUOUS
 10
1.5791262501
 20
-39.1711987222
 11
-1.6208737499
 21
-39.1711987222
  0
LINE
  5
2B0
100
AcDbEntity
  8
0
100
AcDbLine
 62
7
  6
CONTINUOUS
 10
2.4791262501
 20
-38.3711987222
 11
-2.5208737499
 21
-38.3711987222
  0
LINE
  5
2B1
100
AcDbEntity
  8
RACCORDO
100
AcDbLine
 62
253
  6
CONTINUOUS
 10
1.6291262501
 20
-38.3507010334
 11
1.4791262501
 21
-38.3507010334
  0
LINE
  5
2B2
100
AcDbEntity
  8
RACCORDO
100
AcDbLine
 62
253
  6
CONTINUOUS
 10
0.3791262501
 20
-38.3507010334
 11
0.2291262501
 21
-38.3507010334
  0
LINE
  5
2B3
100
AcDbEntity
  8
RACCORDO
100
AcDbLine
 62
253
  6
CONTINUOUS
 10
-0.2708737499
 20
-38.3507010334
 11
-0.4208737499
 21
-38.3507010334
  0
LINE
  5
2B4
100
AcDbEntity
  8
RACCORDO
100
AcDbLine
 62
253
  6
CONTINUOUS
 10
-1.5208737499
 20
-38.3507010334
 11
-1.6708737499
 21
-38.3507010334
  0
LINE
  5
2B5
100
AcDbEntity
  8
0
100
AcDbLine
 62
7
  6
CONTINUOUS
 10
1.9791262501
 20
-38.1711987222
 11
-2.0208737499
 21
-38.1711987222
  0
LINE
  5
2B6
100
AcDbEntity
  8
0
100
AcDbLine
 62
7
  6
CONTINUOUS
 10
1.4660303331
 20
-38.2725818991
 11
1.4291262501
 21
-38.2717182347
  0
LINE
  5
2B7
100
AcDbEntity
  8
RACCORDO
100
AcDbLine
 62
7
  6
CONTINUOUS
 10
-1.0208737499
 20
-38.3711987222
 11
-1.0208737499
 21
-38.3507010334
  0
LINE
  5
2B8
100
AcDbEntity
  8
RACCORDO
100
AcDbLine
 62
7
  6
CONTINUOUS
 10
-0.8708737499
 20
-38.3507010334
 11
-0.8708737499
 21
-38.3711987222
  0
LINE
  5
2B9
100
AcDbEntity
  8
0
100
AcDbLine
 62
7
  6
CONTINUOUS
 10
-0.5708737499
 20
-38.3711987222
 11
-0.5708737499
 21
-38.1711987222
  0
LINE
  5
2BA
100
AcDbEntity
  8
ASSI
100
AcDbLine
 62
7
  6
CONTINUOUS
 10
-0.5708737499
 20
-38.1711987222
 11
-0.5708737499
 21
-38.3711987222
  0
LINE
  5
2BB
100
AcDbEntity
  8
0
100
AcDbLine
 62
7
  6
CONTINUOUS
 10
-0.4708737499
 20
-38.3711987222
 11
-0.4708737499
 21
-38.1711987222
  0
LINE
  5
2BC
100
AcDbEntity
  8
ASSI
100
AcDbLine
 62
7
  6
CONTINUOUS
 10
-0.4708737499
 20
-38.1711987222
 11
-0.4708737499
 21
-38.3711987222
  0
LINE
  5
2BD
100
AcDbEntity
  8
RACCORDO
100
AcDbLine
 62
7
  6
CONTINUOUS
 10
-0.4208737499
 20
-38.3711987222
 11
-0.4208737499
 21
-38.3507010334
  0
LINE
  5
2BE
100
AcDbEntity
  8
RACCORDO
100
AcDbLine
 62
7
  6
CONTINUOUS
 10
-0.2708737499
 20
-38.3507010334
 11
-0.2708737499
 21
-38.3711987222
  0
LWPOLYLINE
  5
2BF
100
AcDbEntity
  8
0
100
AcDbPolyline
 62
7
  6
CONTINUOUS
 90
7
 70
0
 10
1.4791262501
 20
-38.2930708881
 10
1.4772234899
 20
-38.2914793741
 10
1.4727436263
 20
-38.2900191036
 10
1.4656866593
 20
-38.2886900768
 10
1.4556859016
 20
-38.2874608126
 10
1.4431080405
 20
-38.2863627919
 10
1.4291262501
 20
-38.285494996
  0
LWPOLYLINE
  5
2C0
100
AcDbEntity
  8
0
100
AcDbPolyline
 62
7
  6
CONTINUOUS
 90
8
 70
0
 10
1.6291262501
 20
-38.2930708881
 10
1.6243693494
 20
-38.2890921029
 10
1.6131696904
 20
-38.2854414268
 10
1.5955272731
 20
-38.2821188598
 10
1.5705253788
 20
-38.2790456992
 10
1.5390807262
 20
-38.2763006477
 10
1.5039434714
 20
-38.2741198134
 10
1.4660303331
 20
-38.2725818991
  0
LINE
  5
2C1
100
AcDbEntity
  8
RACCORDO
100
AcDbLine
 62
7
  6
CONTINUOUS
 10
0.2291262501
 20
-38.3711987222
 11
0.2291262501
 21
-38.3507010334
  0
LINE
  5
2C2
100
AcDbEntity
  8
RACCORDO
100
AcDbLine
 62
7
  6
CONTINUOUS
 10
0.3791262501
 20
-38.3507010334
 11
0.3791262501
 21
-38.3711987222
  0
LINE
  5
2C3
100
AcDbEntity
  8
0
100
AcDbLine
 62
7
  6
CONTINUOUS
 10
0.4291262501
 20
-38.3711987222
 11
0.4291262501
 21
-38.1711987222
  0
LINE
  5
2C4
100
AcDbEntity
  8
ASSI
100
AcDbLine
 62
7
  6
CONTINUOUS
 10
0.4291262501
 20
-38.1711987222
 11
0.4291262501
 21
-38.3711987222
  0
LINE
  5
2C5
100
AcDbEntity
  8
0
100
AcDbLine
 62
7
  6
CONTINUOUS
 10
0.5291262501
 20
-38.3711987222
 11
0.5291262501
 21
-38.1711987222
  0
LINE
  5
2C6
100
AcDbEntity
  8
ASSI
100
AcDbLine
 62
7
  6
CONTINUOUS
 10
0.5291262501
 20
-38.1711987222
 11
0.5291262501
 21
-38.3711987222
  0
LINE
  5
2C7
100
AcDbEntity
  8
RACCORDO
100
AcDbLine
 62
7
  6
CONTINUOUS
 10
0.8291262501
 20
-38.3711987222
 11
0.8291262501
 21
-38.3507010334
  0
LINE
  5
2C8
100
AcDbEntity
  8
RACCORDO
100
AcDbLine
 62
7
  6
CONTINUOUS
 10
0.9791262501
 20
-38.3507010334
 11
0.9791262501
 21
-38.3711987222
  0
LINE
  5
2C9
100
AcDbEntity
  8
0
100
AcDbLine
 62
7
  6
CONTINUOUS
 10
1.4291262501
 20
-38.3711987222
 11
1.4291262501
 21
-38.1711987222
  0
LINE
  5
2CA
100
AcDbEntity
  8
ASSI
100
AcDbLine
 62
7
  6
CONTINUOUS
 10
1.4291262501
 20
-38.1711987222
 11
1.4291262501
 21
-38.3711987222
  0
LINE
  5
2CB
100
AcDbEntity
  8
RACCORDO
100
AcDbLine
 62
7
  6
CONTINUOUS
 10
1.4791262501
 20
-38.2930708881
 11
1.4791262501
 21
-38.3711987222
  0
LINE
  5
2CC
100
AcDbEntity
  8
0
100
AcDbLine
 62
7
  6
CONTINUOUS
 10
1.5791262501
 20
-44.0711987222
 11
1.5791262501
 21
-38.3711987222
  0
LINE
  5
2CD
100
AcDbEntity
  8
RACCORDO
100
AcDbLine
 62
7
  6
CONTINUOUS
 10
1.6291262501
 20
-38.2930708881
 11
1.6291262501
 21
-38.3711987222
  0
LINE
  5
2CE
100
AcDbEntity
  8
0
100
AcDbLine
 62
7
  6
CONTINUOUS
 10
1.9791262501
 20
-29.4392736928
 11
1.9791262501
 21
-38.1711987222
  0
LINE
  5
2CF
100
AcDbEntity
  8
0
100
AcDbLine
 62
7
  6
CONTINUOUS
 10
1.9791262501
 20
-38.3711987222
 11
1.9791262501
 21
-44.0711987222
  0
LINE
  5
2D0
100
AcDbEntity
  8
0
100
AcDbLine
 62
7
  6
CONTINUOUS
 10
2.4791262501
 20
-44.0711987222
 11
2.4791262501
 21
-38.3711987222
  0
LINE
  5
2D1
100
AcDbEntity
  8
0
100
AcDbLine
 62
7
  6
CONTINUOUS
 10
1.9791262501
 20
-29.4392736928
 11
-2.0208737499
 21
-29.4392736928
  0
ARC
  5
2D2
100
AcDbEntity
  8
RACCORDO
100
AcDbCircle
 62
253
  6
CONTINUOUS
 10
-16.3819070141
 20
-13.6727589443
 40
6.0
100
AcDbArc
 50
30.0
 51
50.1443807693
  0
ARC
  5
2D3
100
AcDbEntity
  8
RACCORDO
100
AcDbCircle
 62
7
  6
CONTINUOUS
 10
-16.3819070141
 20
-13.6727589443
 40
5.0
100
AcDbArc
 50
30.0
 51
50.1443807693
  0
ARC
  5
2D4
100
AcDbEntity
  8
RACCORDO
100
AcDbCircle
 62
7
  6
CONTINUOUS
 10
-13.0302922338
 20
-7.5073274295
 40
0.3
100
AcDbArc
 50
225.9180075982
 51
329.9987056977
  0
ARC
  5
2D5
100
AcDbEntity
  8
RACCORDO
100
AcDbCircle
 62
7
  6
CONTINUOUS
 10
-12.0916740948
 20
-7.081593124
 40
0.3
100
AcDbArc
 50
60.0
 51
150.0
  0
ARC
  5
2D6
100
AcDbEntity
  8
RACCORDO
100
AcDbCircle
 62
7
  6
CONTINUOUS
 10
-18.1588863202
 20
1.3756463615
 40
0.3
100
AcDbArc
 50
90.0
 51
194.0823073187
  0
ARC
  5
2D7
100
AcDbEntity
  8
RACCORDO
100
AcDbCircle
 62
7
  6
CONTINUOUS
 10
-17.3208737499
 20
1.9756463615
 40
0.3
100
AcDbArc
 50
270.0
 51
360.0
  0
ARC
  5
2D8
100
AcDbEntity
  8
RACCORDO
100
AcDbCircle
 62
7
  6
CONTINUOUS
 10
-9.4616215695
 20
-11.659044937
 40
2.0
100
AcDbArc
 50
210.0
 51
239.3705012297
  0
ARC
  5
2D9
100
AcDbEntity
  8
RACCORDO
100
AcDbCircle
 62
253
  6
CONTINUOUS
 10
-9.4616215695
 20
-11.659044937
 40
1.0
100
AcDbArc
 50
210.0
 51
239.3705012297
  0
ARC
  5
2DA
100
AcDbEntity
  8
RACCORDO
100
AcDbCircle
 62
7
  6
CONTINUOUS
 10
-5.1494644478
 20
-12.0573332985
 40
0.3
100
AcDbArc
 50
150.0
 51
254.0823073187
  0
ARC
  5
2DB
100
AcDbEntity
  8
RACCORDO
100
AcDbCircle
 62
7
  6
CONTINUOUS
 10
-5.2500734049
 20
-11.031593124
 40
0.3
100
AcDbArc
 50
330.0
 51
60.0
  0
ARC
  5
2DC
100
AcDbEntity
  8
RACCORDO
100
AcDbCircle
 62
7
  6
CONTINUOUS
 10
-5.1494610593
 20
23.9086201525
 40
0.3
100
AcDbArc
 50
105.9180075982
 51
209.9987056977
  0
ARC
  5
2DD
100
AcDbEntity
  8
RACCORDO
100
AcDbCircle
 62
7
  6
CONTINUOUS
 10
-13.0302956222
 20
19.3586260215
 40
0.3
100
AcDbArc
 50
30.0
 51
134.0823073187
  0
ARC
  5
2DE
100
AcDbEntity
  8
RACCORDO
100
AcDbCircle
 62
7
  6
CONTINUOUS
 10
-18.1588795432
 20
10.4756463615
 40
0.3
100
AcDbArc
 50
165.9180075982
 51
269.9987056977
  0
ARC
  5
2DF
100
AcDbEntity
  8
RACCORDO
100
AcDbCircle
 62
7
  6
CONTINUOUS
 10
-5.2500734049
 20
22.882885847
 40
0.3
100
AcDbArc
 50
300.0
 51
30.0
  0
ARC
  5
2E0
100
AcDbEntity
  8
RACCORDO
100
AcDbCircle
 62
7
  6
CONTINUOUS
 10
-12.0916740948
 20
18.932885847
 40
0.3
100
AcDbArc
 50
210.0
 51
300.0
  0
ARC
  5
2E1
100
AcDbEntity
  8
RACCORDO
100
AcDbCircle
 62
7
  6
CONTINUOUS
 10
-17.3208737499
 20
9.8756463615
 40
0.3
100
AcDbArc
 50
0.0
 51
90.0
  0
ARC
  5
2E2
100
AcDbEntity
  8
RACCORDO
100
AcDbCircle
 62
7
  6
CONTINUOUS
 10
5.1077135596
 20
-12.0573274295
 40
0.3
100
AcDbArc
 50
285.9180075982
 51
29.9987056977
  0
ARC
  5
2E3
100
AcDbEntity
  8
RACCORDO
100
AcDbCircle
 62
7
  6
CONTINUOUS
 10
5.2083259052
 20
-11.031593124
 40
0.3
100
AcDbArc
 50
120.0
 51
210.0
  0
ARC
  5
2E4
100
AcDbEntity
  8
RACCORDO
100
AcDbCircle
 62
7
  6
CONTINUOUS
 10
-0.0208737499
 20
4.2856463615
 40
20.53
100
AcDbArc
 50
239.3705012297
 51
300.6294987703
  0
ARC
  5
2E5
100
AcDbEntity
  8
RACCORDO
100
AcDbCircle
 62
253
  6
CONTINUOUS
 10
-0.0208737499
 20
4.2856463615
 40
19.53
100
AcDbArc
 50
239.3705012297
 51
300.6294987703
  0
ARC
  5
2E6
100
AcDbEntity
  8
RACCORDO
100
AcDbCircle
 62
253
  6
CONTINUOUS
 10
16.3401595143
 20
-13.6727589443
 40
6.0
100
AcDbArc
 50
129.8556192307
 51
150.0
  0
ARC
  5
2E7
100
AcDbEntity
  8
RACCORDO
100
AcDbCircle
 62
7
  6
CONTINUOUS
 10
16.3401595143
 20
-13.6727589443
 40
5.0
100
AcDbArc
 50
129.8556192307
 51
150.0
  0
ARC
  5
2E8
100
AcDbEntity
  8
RACCORDO
100
AcDbCircle
 62
7
  6
CONTINUOUS
 10
9.4198740698
 20
-11.659044937
 40
2.0
100
AcDbArc
 50
300.6294987703
 51
330.0
  0
ARC
  5
2E9
100
AcDbEntity
  8
RACCORDO
100
AcDbCircle
 62
253
  6
CONTINUOUS
 10
9.4198740698
 20
-11.659044937
 40
1.0
100
AcDbArc
 50
300.6294987703
 51
330.0
  0
ARC
  5
2EA
100
AcDbEntity
  8
RACCORDO
100
AcDbCircle
 62
7
  6
CONTINUOUS
 10
12.9885481225
 20
-7.5073332985
 40
0.3
100
AcDbArc
 50
210.0
 51
314.0823073187
  0
ARC
  5
2EB
100
AcDbEntity
  8
RACCORDO
100
AcDbCircle
 62
7
  6
CONTINUOUS
 10
12.0499265951
 20
-7.081593124
 40
0.3
100
AcDbArc
 50
30.0
 51
120.0
  0
ARC
  5
2EC
100
AcDbEntity
  8
RACCORDO
100
AcDbCircle
 62
7
  6
CONTINUOUS
 10
18.1171320543
 20
1.3756463615
 40
0.3
100
AcDbArc
 50
345.9180070964
 51
89.9987077601
  0
ARC
  5
2ED
100
AcDbEntity
  8
RACCORDO
100
AcDbCircle
 62
7
  6
CONTINUOUS
 10
17.2791262501
 20
1.9756463615
 40
0.3
100
AcDbArc
 50
180.0
 51
270.0
  0
ARC
  5
2EE
100
AcDbEntity
  8
RACCORDO
100
AcDbCircle
 62
7
  6
CONTINUOUS
 10
-0.0208737499
 20
5.9256463615
 40
20.53
100
AcDbArc
 50
309.8556192307
 51
230.1443807693
  0
ARC
  5
2EF
100
AcDbEntity
  8
RACCORDO
100
AcDbCircle
 62
253
  6
CONTINUOUS
 10
-0.0208737499
 20
5.9256463615
 40
19.53
100
AcDbArc
 50
309.8556192307
 51
230.1443807693
  0
ARC
  5
2F0
100
AcDbEntity
  8
RACCORDO
100
AcDbCircle
 62
7
  6
CONTINUOUS
 10
-0.0208737499
 20
5.9256463615
 40
19.0
100
AcDbArc
 50
314.0823073187
 51
345.9176926813
  0
ARC
  5
2F1
100
AcDbEntity
  8
RACCORDO
100
AcDbCircle
 62
7
  6
CONTINUOUS
 10
-0.0208737499
 20
5.9256463615
 40
19.0
100
AcDbArc
 50
254.0823073187
 51
285.9176926813
  0
ARC
  5
2F2
100
AcDbEntity
  8
RACCORDO
100
AcDbCircle
 62
7
  6
CONTINUOUS
 10
-0.0208737499
 20
5.9256463615
 40
19.0
100
AcDbArc
 50
194.0823073187
 51
225.9176926813
  0
ARC
  5
2F3
100
AcDbEntity
  8
RACCORDO
100
AcDbCircle
 62
7
  6
CONTINUOUS
 10
-0.0208737499
 20
5.9256463615
 40
19.0
100
AcDbArc
 50
74.0823073187
 51
105.9176926813
  0
ARC
  5
2F4
100
AcDbEntity
  8
RACCORDO
100
AcDbCircle
 62
7
  6
CONTINUOUS
 10
-0.0208737499
 20
5.9256463615
 40
19.0
100
AcDbArc
 50
134.0823073187
 51
165.9176926813
  0
ARC
  5
2F5
100
AcDbEntity
  8
RACCORDO
100
AcDbCircle
 62
7
  6
CONTINUOUS
 10
-0.0208737499
 20
5.9256463615
 40
19.0
100
AcDbArc
 50
14.0823073187
 51
45.9176926813
  0
ARC
  5
2F6
100
AcDbEntity
  8
RACCORDO
100
AcDbCircle
 62
253
  6
CONTINUOUS
 10
-0.0208737499
 20
5.9256463615
 40
17.0
100
AcDbArc
 50
310.7798952194
 51
349.2201047692
  0
ARC
  5
2F7
100
AcDbEntity
  8
RACCORDO
100
AcDbCircle
 62
253
  6
CONTINUOUS
 10
-0.0208737499
 20
5.9256463615
 40
17.0
100
AcDbArc
 50
250.7798952194
 51
289.2201047691
  0
ARC
  5
2F8
100
AcDbEntity
  8
RACCORDO
100
AcDbCircle
 62
253
  6
CONTINUOUS
 10
-0.0208737499
 20
5.9256463615
 40
17.0
100
AcDbArc
 50
190.7798952194
 51
229.2201047692
  0
ARC
  5
2F9
100
AcDbEntity
  8
RACCORDO
100
AcDbCircle
 62
253
  6
CONTINUOUS
 10
-0.0208737499
 20
5.9256463615
 40
17.0
100
AcDbArc
 50
70.7798952194
 51
109.2201047691
  0
ARC
  5
2FA
100
AcDbEntity
  8
RACCORDO
100
AcDbCircle
 62
253
  6
CONTINUOUS
 10
-0.0208737499
 20
5.9256463615
 40
17.0
100
AcDbArc
 50
130.7798952194
 51
169.2201047692
  0
ARC
  5
2FB
100
AcDbEntity
  8
RACCORDO
100
AcDbCircle
 62
253
  6
CONTINUOUS
 10
-0.0208737499
 20
5.9256463615
 40
17.0
100
AcDbArc
 50
10.7798952525
 51
49.2201047353
  0
CIRCLE
  5
2FC
100
AcDbEntity
  8
RACCORDO
100
AcDbCircle
 62
253
  6
CONTINUOUS
 10
-0.0208737499
 20
5.9256463615
 40
5.75
  0
CIRCLE
  5
2FD
100
AcDbEntity
  8
RACCORDO
100
AcDbCircle
 62
7
  6
CONTINUOUS
 10
-0.0208737499
 20
5.9256463615
 40
3.75
  0
ARC
  5
2FE
100
AcDbEntity
  8
RACCORDO
100
AcDbCircle
 62
7
  6
CONTINUOUS
 10
5.1077169481
 20
23.9086260215
 40
0.3
100
AcDbArc
 50
330.0
 51
74.0823073187
  0
ARC
  5
2FF
100
AcDbEntity
  8
RACCORDO
100
AcDbCircle
 62
7
  6
CONTINUOUS
 10
5.2083259052
 20
22.882885847
 40
0.3
100
AcDbArc
 50
150.0
 51
240.0
  0
ARC
  5
300
100
AcDbEntity
  8
RACCORDO
100
AcDbCircle
 62
7
  6
CONTINUOUS
 10
18.1171388204
 20
10.4756463615
 40
0.3
100
AcDbArc
 50
270.0
 51
14.0823073187
  0
ARC
  5
301
100
AcDbEntity
  8
RACCORDO
100
AcDbCircle
 62
7
  6
CONTINUOUS
 10
17.2791262501
 20
9.8756463615
 40
0.3
100
AcDbArc
 50
90.0
 51
180.0
  0
ARC
  5
302
100
AcDbEntity
  8
RACCORDO
100
AcDbCircle
 62
7
  6
CONTINUOUS
 10
12.988544734
 20
19.3586201525
 40
0.3
100
AcDbArc
 50
45.9180075982
 51
149.9987056977
  0
ARC
  5
303
100
AcDbEntity
  8
RACCORDO
100
AcDbCircle
 62
7
  6
CONTINUOUS
 10
12.0499265951
 20
18.932885847
 40
0.3
100
AcDbArc
 50
240.0
 51
330.0
  0
ENDSEC
  0
SECTION
  2
OBJECTS
  0
DICTIONARY
  5
C
100
AcDbDictionary
280
0
281
1
  3
ACAD_GROUP
350
D
  3
ACAD_MLINESTYLE
350
17
  3
ACAD_LAYOUT
350
1A
  3
ACAD_PLOTSETTINGS
350
19
  3
ACAD_PLOTSTYLENAME
350
E
  0
DICTIONARY
  5
D
102
{ACAD_REACTORS
330
C
102
}
100
AcDbDictionary
280
0
281
1
  0
ACDBDICTIONARYWDFLT
  5
E
102
{ACAD_REACTORS
330
C
102
}
100
AcDbDictionary
281
1
  3
Normal
350
F
100
AcDbDictionaryWithDefault
340
F
  0
DICTIONARY
  5
17
102
{ACAD_REACTORS
330
C
102
}
100
AcDbDictionary
280
0
281
1
  3
Standard
350
18
  0
DICTIONARY
  5
19
102
{ACAD_REACTORS
330
C
102
}
100
AcDbDictionary
281
1
  0
DICTIONARY
  5
1A
102
{ACAD_REACTORS
330
C
102
}
100
AcDbDictionary
281
1
  3
Model
350
304
  3
Layout1
350
305
  0
ACDBPLACEHOLDER
  5
F
102
{ACAD_REACTORS
330
E
102
}
  0
MLINESTYLE
  5
18
102
{ACAD_REACTORS
330
17
102
}
100
AcDbMlineStyle
  2
STANDARD
 70
0
  3

 62
256
 51
90.0
 52
90.0
 71
2
 49
0.5
 62
256
  6
BYLAYER
 49
-0.5
 62
256
  6
BYLAYER
  0
LAYOUT
  5
304
102
{ACAD_REACTORS
330
1A
102
}
100
AcDbPlotSettings
  1

  2
none_device
  4
ISO_A4_(297.00_x_210.00_MM)
  6

 40
0.0
 41
0.0
 42
0.0
 43
0.0
 44
297.0
 45
210.0
 46
0.0
 47
0.0
 48
0.0
 49
0.0
140
0.0
141
0.0
142
1.0
143
1.0
 70
1024
 72
1
 73
0
 74
0
  7

 75
0
147
1.0
148
0.0
149
0.0
100
AcDbLayout
  1
Model
 70
0
 71
0
 10
0.0
 20
0.0
 11
297.0
 21
210.0
 12
0.0
 22
0.0
 32
0.0
 14
0.0
 24
0.0
 34
0.0
 15
0.0
 25
0.0
 35
0.0
146
0.0
 13
0.0
 23
0.0
 33
0.0
 16
1.0
 26
0.0
 36
0.0
 17
0.0
 27
1.0
 37
0.0
 76
0
330
20F
345
0
346
0
  0
LAYOUT
  5
305
102
{ACAD_REACTORS
330
1A
102
}
100
AcDbPlotSettings
  1

  2
none_device
  4
ISO_A4_(297.00_x_210.00_MM)
  6

 40
0.0
 41
0.0
 42
0.0
 43
0.0
 44
297.0
 45
210.0
 46
0.0
 47
0.0
 48
0.0
 49
0.0
140
0.0
141
0.0
142
1.0
143
1.0
 70
0
 72
1
 73
0
 74
0
  7

 75
0
147
1.0
148
0.0
149
0.0
100
AcDbLayout
  1
Layout1
 70
0
 71
1
 10
0.0
 20
0.0
 11
297.0
 21
210.0
 12
0.0
 22
0.0
 32
0.0
 14
0.0
 24
0.0
 34
0.0
 15
0.0
 25
0.0
 35
0.0
146
0.0
 13
0.0
 23
0.0
 33
0.0
 16
1.0
 26
0.0
 36
0.0
 17
0.0
 27
1.0
 37
0.0
 76
0
330
210
345
0
346
0
  0
ENDSEC
  0
EOF
