  0
SECTION
  2
HEADER
  9
$ACADVER
  1
AC1015
  9
$DWGCODEPAGE
  3
ANSI_1252
  9
$EXTMAX
 10
297.0
 20
210.0
 30
0.0
  9
$EXTMIN
 10
0.0
 20
0.0
 30
0.0
  9
$LIMMIN
 10
0.0
 20
0.0
  9
$LIMMAX
 10
297.0
 20
210.0
  9
$VIEWCTR
 10
148.5
 20
105.0
  9
$VIEWSIZE
 40
210.0
  9
$CLAYER
  8
0
  9
$LTSCALE
 40
16.335
  9
$CELTYPE
  6
BYLAYER
  9
$DIMSCALE
 40
1.0
  9
$DIMASZ
 40
3.0
  9
$DIMEXO
 40
0.5
  9
$DIMDLI
 40
11.286
  9
$DIMEXE
 40
1.5
  9
$DIMCEN
 40
2.673
  9
$DIMLFAC
 40
1.0
  9
$DIMBLK
  1
_FILLED
  9
$DIMTXT
 40
3.0
  9
$DIMTOL
 70
1
  9
$DIMLIM
 70
0
  9
$DIMTFAC
 40
1.0
  9
$DIMTP
 40
0.01
  9
$DIMTM
 40
0.01
  9
$DIMGAP
 40
0.625
  9
$DIMDSEP
 70
44
  9
$PDMODE
 70
3
  9
$PDSIZE
 40
3.0
  9
$HANDSEED
  5
37B
  9
$TILEMODE
 70
1
  9
$MEASUREMENT
 70
1
  9
$INSUNITS
 70
4
  0
ENDSEC
  0
SECTION
  2
CLASSES
  0
CLASS
  1
ACDBDICTIONARYWDFLT
  2
AcDbDictionaryWithDefault
  3
AutoCAD 2000
 90
0
280
0
281
0
  0
CLASS
  1
ACDBPLACEHOLDER
  2
AcDbPlaceHolder
  3
AutoCAD 2000
 90
0
280
0
281
0
  0
CLASS
  1
LAYOUT
  2
AcDbLayout
  3
AutoCAD 2000
 90
0
280
0
281
0
  0
ENDSEC
  0
SECTION
  2
TABLES
  0
TABLE
  2
VPORT
  5
8
100
AcDbSymbolTable
 70
2
  0
VPORT
  5
1F4
100
AcDbSymbolTableRecord
100
AcDbViewportTableRecord
  2
*ACTIVE
 70
0
 10
0.0
 20
0.0
 11
1.0
 21
1.0
 12
148.5
 22
105.0
 13
0.0
 23
0.0
 14
1.0
 24
1.0
 15
0.0
 25
0.0
 16
0.0
 26
0.0
 36
1.0
 17
0.0
 27
0.0
 37
0.0
 40
210.0
 41
1.4142857143
 42
50.0
 43
0.0
 44
0.0
 50
0.0
 51
0.0
 71
0
 72
100
 73
1
 74
1
 75
0
 76
0
 77
0
 78
0
  0
ENDTAB
  0
TABLE
  2
LTYPE
  5
5
100
AcDbSymbolTable
 70
6
  0
LTYPE
  5
14
100
AcDbSymbolTableRecord
100
AcDbLinetypeTableRecord
  2
BYBLOCK
 70
0
  3

 72
65
 73
0
 40
0.0
  0
LTYPE
  5
15
100
AcDbSymbolTableRecord
100
AcDbLinetypeTableRecord
  2
BYLAYER
 70
0
  3

 72
65
 73
0
 40
0.0
  0
LTYPE
  5
16
100
AcDbSymbolTableRecord
100
AcDbLinetypeTableRecord
  2
CONTINUOUS
 70
64
  3
Solid line
 72
65
 73
0
 40
0.0
  0
LTYPE
  5
1F5
100
AcDbSymbolTableRecord
100
AcDbLinetypeTableRecord
  2
CENTER
 70
64
  3
____ _ ____ _ ____ _ ____ _ ____ _ ____ _ ____
 72
65
 73
4
 40
0.6
 49
0.375
 74
0
 49
-0.075
 74
0
 49
0.075
 74
0
 49
-0.075
 74
0
  0
LTYPE
  5
1F6
100
AcDbSymbolTableRecord
100
AcDbLinetypeTableRecord
  2
HIDDEN
 70
64
  3
- - - - - - - - - - - - - - - - - - - -
 72
65
 73
2
 40
0.2
 49
0.1
 74
0
 49
-0.1
 74
0
  0
LTYPE
  5
1F7
100
AcDbSymbolTableRecord
100
AcDbLinetypeTableRecord
  2
PHANTOM
 70
64
  3
_____ _ _ _____ _ _ _____ _ _ _____
 72
65
 73
6
 40
0.8
 49
0.45
 74
0
 49
-0.05
 74
0
 49
0.1
 74
0
 49
-0.05
 74
0
 49
0.1
 74
0
 49
-0.05
 74
0
  0
LTYPE
  5
1F8
100
AcDbSymbolTableRecord
100
AcDbLinetypeTableRecord
  2
DOT
 70
64
  3
. . . . . . . . . . . . . . . . . . . .
 72
65
 73
2
 40
0.2
 49
0.1
 74
0
 49
-0.1
 74
0
  0
LTYPE
  5
1F9
100
AcDbSymbolTableRecord
100
AcDbLinetypeTableRecord
  2
DASHED
 70
64
  3
- - - - - - - - - - - - - - - - - - - -
 72
65
 73
2
 40
0.2
 49
0.1
 74
0
 49
-0.1
 74
0
  0
ENDTAB
  0
TABLE
  2
LAYER
  5
2
100
AcDbSymbolTable
 70
36
  0
LAYER
  5
10
100
AcDbSymbolTableRecord
100
AcDbLayerTableRecord
  2
0
 70
0
 62
7
  6
CONTINUOUS
370
-3
390
F
  0
LAYER
  5
1FA
100
AcDbSymbolTableRecord
100
AcDbLayerTableRecord
  2
DEFAULT_1
 70
0
 62
7
  6
CENTER
370
-3
390
F
  0
LAYER
  5
1FB
100
AcDbSymbolTableRecord
100
AcDbLayerTableRecord
  2
DEFAULT_2
 70
0
 62
7
  6
HIDDEN
370
-3
390
F
  0
LAYER
  5
1FC
100
AcDbSymbolTableRecord
100
AcDbLayerTableRecord
  2
DEFAULT_3
 70
0
 62
7
  6
PHANTOM
370
-3
390
F
  0
LAYER
  5
1FD
100
AcDbSymbolTableRecord
100
AcDbLayerTableRecord
  2
ASSI
 70
0
 62
7
  6
CONTINUOUS
370
-3
390
F
  0
LAYER
  5
1FE
100
AcDbSymbolTableRecord
100
AcDbLayerTableRecord
  2
COORDINATE
 70
0
 62
7
  6
CONTINUOUS
370
-3
390
F
  0
LAYER
  5
1FF
100
AcDbSymbolTableRecord
100
AcDbLayerTableRecord
  2
COPY_PUBLISH
 70
0
 62
7
  6
CONTINUOUS
370
-3
390
F
  0
LAYER
  5
200
100
AcDbSymbolTableRecord
100
AcDbLayerTableRecord
  2
COSMETICI
 70
0
 62
7
  6
CONTINUOUS
370
-3
390
F
  0
LAYER
  5
201
100
AcDbSymbolTableRecord
100
AcDbLayerTableRecord
  2
CURVE
 70
0
 62
7
  6
CONTINUOUS
370
-3
390
F
  0
LAYER
  5
202
100
AcDbSymbolTableRecord
100
AcDbLayerTableRecord
  2
DRAFT
 70
0
 62
7
  6
CONTINUOUS
370
-3
390
F
  0
LAYER
  5
203
100
AcDbSymbolTableRecord
100
AcDbLayerTableRecord
  2
IMPORT_IGES
 70
0
 62
7
  6
CONTINUOUS
370
-3
390
F
  0
LAYER
  5
204
100
AcDbSymbolTableRecord
100
AcDbLayerTableRecord
  2
NOTE
 70
0
 62
7
  6
CONTINUOUS
370
-3
390
F
  0
LAYER
  5
205
100
AcDbSymbolTableRecord
100
AcDbLayerTableRecord
  2
PIANI
 70
0
 62
7
  6
CONTINUOUS
370
-3
390
F
  0
LAYER
  5
206
100
AcDbSymbolTableRecord
100
AcDbLayerTableRecord
  2
PUNTI
 70
0
 62
7
  6
CONTINUOUS
370
-3
390
F
  0
LAYER
  5
207
100
AcDbSymbolTableRecord
100
AcDbLayerTableRecord
  2
RACCORDO
 70
0
 62
7
  6
CONTINUOUS
370
-3
390
F
  0
LAYER
  5
208
100
AcDbSymbolTableRecord
100
AcDbLayerTableRecord
  2
SIMBOLI
 70
0
 62
7
  6
CONTINUOUS
370
-3
390
F
  0
LAYER
  5
209
100
AcDbSymbolTableRecord
100
AcDbLayerTableRecord
  2
SMUSSO
 70
0
 62
7
  6
CONTINUOUS
370
-3
390
F
  0
LAYER
  5
20A
100
AcDbSymbolTableRecord
100
AcDbLayerTableRecord
  2
SNAPLINE
 70
0
 62
7
  6
CONTINUOUS
370
-3
390
F
  0
LAYER
  5
20B
100
AcDbSymbolTableRecord
100
AcDbLayerTableRecord
  2
SUPERFICI
 70
0
 62
7
  6
CONTINUOUS
370
-3
390
F
  0
LAYER
  5
20C
100
AcDbSymbolTableRecord
100
AcDbLayerTableRecord
  2
TRASH
 70
0
 62
7
  6
CONTINUOUS
370
-3
390
F
  0
ENDTAB
  0
TABLE
  2
STYLE
  5
3
100
AcDbSymbolTable
 70
1
  0
STYLE
  5
11
100
AcDbSymbolTableRecord
100
AcDbTextStyleTableRecord
  2
STANDARD
 70
0
 40
0.0
 41
0.8
 50
0.0
 71
0
 42
0.2
  3
txt
  4

  0
STYLE
  5
20D
100
AcDbSymbolTableRecord
100
AcDbTextStyleTableRecord
  2
TEXTSTYLE_1
 70
0
 40
0.0
 41
0.8
 50
0.0
 71
0
 42
0.2
  3
gdt
  4

  0
ENDTAB
  0
TABLE
  2
VIEW
  5
6
100
AcDbSymbolTable
 70
0
  0
ENDTAB
  0
TABLE
  2
UCS
  5
7
100
AcDbSymbolTable
 70
0
  0
ENDTAB
  0
TABLE
  2
APPID
  5
9
100
AcDbSymbolTable
 70
1
  0
APPID
  5
20E
100
AcDbSymbolTableRecord
100
AcDbRegAppTableRecord
  2
ACAD
 70
0
  0
ENDTAB
  0
TABLE
  2
BLOCK_RECORD
  5
1
100
AcDbSymbolTable
 70
0
  0
BLOCK_RECORD
  5
20F
100
AcDbSymbolTableRecord
100
AcDbBlockTableRecord
  2
*Model_Space
  0
BLOCK_RECORD
  5
210
100
AcDbSymbolTableRecord
100
AcDbBlockTableRecord
  2
*Paper_Space
  0
ENDTAB
  0
TABLE
  2
DIMSTYLE
  5
A
100
AcDbSymbolTable
 70
1
100
AcDbDimStyleTable
 71
0
  0
DIMSTYLE
105
211
100
AcDbSymbolTableRecord
100
AcDbDimStyleTableRecord
  2
STANDARD
 70
0
  3

  4

 40
1.0
 41
3.0
 42
0.5
 43
0.38
 44
1.5
 45
0.0
 46
0.0
 47
0.01
 48
0.01
140
3.0
141
0.09
142
0.0
143
25.4
144
1.0
145
0.0
146
1.0
147
0.625
 71
1.0
 72
0.0
 73
0
 74
0
 75
0
 76
0
 77
1
 78
8
170
0
171
2
172
0
173
0
174
0
175
0
176
0
177
0
178
0
270
2
271
2
272
2
273
2
274
2
275
0
280
0
281
0
282
0
283
1
284
8
285
0
286
0
287
3
288
0
340
11
278
44
  0
ENDTAB
  0
ENDSEC
  0
SECTION
  2
BLOCKS
  0
BLOCK
  5
20
100
AcDbEntity
  8
0
100
AcDbBlockBegin
  2
*Model_Space
 70
0
 10
0.0
 20
0.0
 30
0.0
  3
*Model_Space
  1

  0
ENDBLK
  5
21
100
AcDbEntity
  8
0
100
AcDbBlockEnd
  0
BLOCK
  5
1C
100
AcDbEntity
  8
0
100
AcDbBlockBegin
  2
*Paper_Space
 70
0
 10
0.0
 20
0.0
 30
0.0
  3
*Paper_Space
  1

  0
ENDBLK
  5
1D
100
AcDbEntity
  8
0
100
AcDbBlockEnd
  0
ENDSEC
  0
SECTION
  2
ENTITIES
  0
LINE
  5
212
100
AcDbEntity
  8
0
100
AcDbLine
 62
7
  6
CONTINUOUS
 10
-2.2794802396
 20
-33.0689777817
 11
1.7205197604
 21
-33.0689777817
  0
LWPOLYLINE
  5
213
100
AcDbEntity
  8
RACCORDO
100
AcDbPolyline
 62
253
  6
CONTINUOUS
 90
16
 70
0
 10
-17.0083206546
 20
23.9462211992
 10
-17.0298882554
 20
23.919843018
 10
-17.049253314
 20
23.8917564223
 10
-17.0661652703
 20
23.86232481
 10
-17.0804053034
 20
23.8319289811
 10
-17.0917891632
 20
23.8009622114
 10
-17.1001695542
 20
23.7698251633
 10
-17.1054380409
 20
23.7389207023
 10
-17.1075264512
 20
23.7086486841
 10
-17.1064077581
 20
23.6794007813
 10
-17.1020964298
 20
23.6515554157
 10
-17.0946482424
 20
23.625472862
 10
-17.0841595579
 20
23.6014905865
 10
-17.070766078
 20
23.5799188804
 10
-17.054641088
 20
23.5610368459
 10
-17.0359932147
 20
23.5450887841
  0
LWPOLYLINE
  5
214
100
AcDbEntity
  8
RACCORDO
100
AcDbPolyline
 62
253
  6
CONTINUOUS
 90
16
 70
0
 10
-12.0661207202
 20
27.536909578
 10
-12.0343697516
 20
27.5492714941
 10
-12.0016745049
 20
27.5590108534
 10
-11.9684580198
 20
27.5660016397
 10
-11.9351500803
 20
27.5701534001
 10
-11.9021816538
 20
27.5714124156
 10
-11.8699793147
 20
27.569762396
 10
-11.8389597252
 20
27.5652246908
 10
-11.8095242437
 20
27.5578580128
 10
-11.7820537325
 20
27.5477576787
 10
-11.7569036291
 20
27.5350543757
 10
-11.7343993476
 20
27.5199124701
 10
-11.7148320682
 20
27.5025278815
 10
-11.6984549695
 20
27.4831255468
 10
-11.6854799527
 20
27.4619565108
 10
-11.6760749001
 20
27.4392946769
  0
LINE
  5
215
100
AcDbEntity
  8
RACCORDO
100
AcDbLine
 62
253
  6
CONTINUOUS
 10
-3.7056622154
 20
29.4958147471
 11
-4.6032494898
 21
29.1787340815
  0
LINE
  5
216
100
AcDbEntity
  8
RACCORDO
100
AcDbLine
 62
253
  6
CONTINUOUS
 10
-4.6032494898
 20
29.1787340815
 11
-5.417859925
 21
28.8970329921
  0
LINE
  5
217
100
AcDbEntity
  8
RACCORDO
100
AcDbLine
 62
253
  6
CONTINUOUS
 10
-5.417859925
 20
28.8970329921
 11
-6.035844005
 21
28.6870238359
  0
LINE
  5
218
100
AcDbEntity
  8
RACCORDO
100
AcDbLine
 62
253
  6
CONTINUOUS
 10
-6.035844005
 20
28.6870238359
 11
-6.6625244551
 21
28.4773289057
  0
LINE
  5
219
100
AcDbEntity
  8
RACCORDO
100
AcDbLine
 62
253
  6
CONTINUOUS
 10
-6.6625244551
 20
28.4773289057
 11
-7.2881284949
 21
28.2713874472
  0
LINE
  5
21A
100
AcDbEntity
  8
RACCORDO
100
AcDbLine
 62
7
  6
CONTINUOUS
 10
-3.7847063681
 20
29.6879170759
 11
-11.2980528468
 21
27.2466828204
  0
LINE
  5
21B
100
AcDbEntity
  8
RACCORDO
100
AcDbLine
 62
253
  6
CONTINUOUS
 10
-7.2881284949
 20
28.2713874472
 11
-7.9112935636
 21
28.0696594358
  0
LINE
  5
21C
100
AcDbEntity
  8
RACCORDO
100
AcDbLine
 62
253
  6
CONTINUOUS
 10
-7.9112935636
 20
28.0696594358
 11
-8.5350007689
 21
27.8711264907
  0
LINE
  5
21D
100
AcDbEntity
  8
RACCORDO
100
AcDbLine
 62
253
  6
CONTINUOUS
 10
-8.5350007689
 20
27.8711264907
 11
-9.1659075199
 21
27.6737392789
  0
LINE
  5
21E
100
AcDbEntity
  8
RACCORDO
100
AcDbLine
 62
253
  6
CONTINUOUS
 10
-9.1659075199
 20
27.6737392789
 11
-9.8022451602
 21
27.4780528504
  0
LINE
  5
21F
100
AcDbEntity
  8
RACCORDO
100
AcDbLine
 62
253
  6
CONTINUOUS
 10
-9.8022451602
 20
27.4780528504
 11
-10.4176710492
 21
27.2916055784
  0
LINE
  5
220
100
AcDbEntity
  8
RACCORDO
100
AcDbLine
 62
253
  6
CONTINUOUS
 10
-10.4176710492
 20
27.2916055784
 11
-11.2490859938
 21
27.0448077845
  0
LWPOLYLINE
  5
221
100
AcDbEntity
  8
RACCORDO
100
AcDbPolyline
 62
253
  6
CONTINUOUS
 90
16
 70
0
 10
-22.4051023244
 20
16.5181475267
 10
-22.3866814032
 20
16.546811278
 10
-22.3659550447
 20
16.5739083691
 10
-22.3431914248
 20
16.599088194
 10
-22.3186850793
 20
16.6220249544
 10
-22.2927530927
 20
16.6424218742
 10
-22.265730996
 20
16.6600150403
 10
-22.2379684246
 20
16.6745768169
 10
-22.2098245952
 20
16.6859187911
 10
-22.1816636574
 20
16.6938942106
 10
-22.1538499822
 20
16.6983998824
 10
-22.1267434472
 20
16.6993775082
 10
-22.1006947808
 20
16.6968144389
 10
-22.0760410235
 20
16.6907438375
 10
-22.0531011672
 20
16.6812442511
 10
-22.0321720281
 20
16.6684385936
  0
LINE
  5
222
100
AcDbEntity
  8
RACCORDO
100
AcDbLine
 62
253
  6
CONTINUOUS
 10
-16.7927648823
 20
23.0170893104
 11
-17.1511159646
 21
22.4956372005
  0
LINE
  5
223
100
AcDbEntity
  8
RACCORDO
100
AcDbLine
 62
253
  6
CONTINUOUS
 10
-17.1511159646
 20
22.4956372005
 11
-17.5275632859
 21
21.9529071266
  0
LINE
  5
224
100
AcDbEntity
  8
RACCORDO
100
AcDbLine
 62
253
  6
CONTINUOUS
 10
-17.5275632859
 20
21.9529071266
 11
-17.9121325024
 21
21.4039290573
  0
LINE
  5
225
100
AcDbEntity
  8
RACCORDO
100
AcDbLine
 62
253
  6
CONTINUOUS
 10
-17.9121325024
 20
21.4039290573
 11
-18.2923899576
 21
20.8665980617
  0
LINE
  5
226
100
AcDbEntity
  8
RACCORDO
100
AcDbLine
 62
253
  6
CONTINUOUS
 10
-18.2923899576
 20
20.8665980617
 11
-18.6537394687
 21
20.3610587405
  0
LINE
  5
227
100
AcDbEntity
  8
RACCORDO
100
AcDbLine
 62
253
  6
CONTINUOUS
 10
-18.6537394687
 20
20.3610587405
 11
-18.9951056813
 21
19.8879917831
  0
LINE
  5
228
100
AcDbEntity
  8
RACCORDO
100
AcDbLine
 62
7
  6
CONTINUOUS
 10
-16.9696278609
 20
23.1260423719
 11
-21.613131354
 21
16.7348081163
  0
LINE
  5
229
100
AcDbEntity
  8
RACCORDO
100
AcDbLine
 62
253
  6
CONTINUOUS
 10
-18.9951056813
 20
19.8879917831
 11
-19.4376172654
 21
19.2811323553
  0
LINE
  5
22A
100
AcDbEntity
  8
RACCORDO
100
AcDbLine
 62
253
  6
CONTINUOUS
 10
-19.4376172654
 20
19.2811323553
 11
-19.8899298186
 21
18.6682106453
  0
LINE
  5
22B
100
AcDbEntity
  8
RACCORDO
100
AcDbLine
 62
253
  6
CONTINUOUS
 10
-19.8899298186
 20
18.6682106453
 11
-20.367667986
 21
18.0286044405
  0
LINE
  5
22C
100
AcDbEntity
  8
RACCORDO
100
AcDbLine
 62
253
  6
CONTINUOUS
 10
-20.367667986
 20
18.0286044405
 11
-20.857729127
 21
17.3803134227
  0
LWPOLYLINE
  5
22D
100
AcDbEntity
  8
RACCORDO
100
AcDbPolyline
 62
253
  6
CONTINUOUS
 90
3
 70
0
 10
-20.857729127
 20
17.3803134227
 10
-21.338120458
 20
16.7518144099
 10
-21.4548571689
 20
16.6002697756
  0
LWPOLYLINE
  5
22E
100
AcDbEntity
  8
RACCORDO
100
AcDbPolyline
 62
253
  6
CONTINUOUS
 90
22
 70
0
 10
-21.4548571689
 20
16.6002697756
 10
-21.4814967592
 20
16.5681997814
 10
-21.510807151
 20
16.5383202865
 10
-21.542776404
 20
16.5106078481
 10
-21.5774041449
 20
16.4848471267
 10
-21.6146437136
 20
16.4611980926
 10
-21.6544007721
 20
16.4401962064
 10
-21.6966954527
 20
16.4217566173
 10
-21.7413970427
 20
16.4058874024
 10
-21.7881652369
 20
16.3932604746
 10
-21.8370036715
 20
16.3838559094
 10
-21.8877027127
 20
16.3775905593
 10
-21.9395817307
 20
16.3750444947
 10
-21.9925475748
 20
16.3762729291
 10
-22.046375152
 20
16.3810925503
 10
-22.1001828293
 20
16.3897393178
 10
-22.1537170685
 20
16.4022648545
 10
-22.2068245962
 20
16.4184732032
 10
-22.2587957086
 20
16.4382489965
 10
-22.3092518667
 20
16.4615068438
 10
-22.3581104803
 20
16.4881723952
 10
-22.40510886
 20
16.5181505991
  0
LWPOLYLINE
  5
22F
100
AcDbEntity
  8
RACCORDO
100
AcDbPolyline
 62
253
  6
CONTINUOUS
 90
16
 70
0
 10
-24.2928483144
 20
1.5266808596
 10
-24.2947936064
 20
1.5606978673
 10
-24.2939529006
 20
1.5948025223
 10
-24.2903370751
 20
1.6285535487
 10
-24.2839929145
 20
1.6615142461
 10
-24.2750025054
 20
1.6932581401
 10
-24.2634821734
 20
1.7233745004
 10
-24.249580979
 20
1.7514736552
 10
-24.2334787879
 20
1.777192033
 10
-24.2153839446
 20
1.8001968668
 10
-24.195530576
 20
1.8201905
 10
-24.1741755627
 20
1.8369142374
 10
-24.1515952145
 20
1.8501516926
 10
-24.1280816959
 20
1.859731588
 10
-24.1039392455
 20
1.8655299703
 10
-24.0794802396
 20
1.8674718151
  0
LINE
  5
230
100
AcDbEntity
  8
RACCORDO
100
AcDbLine
 62
253
  6
CONTINUOUS
 10
-23.5723540816
 20
10.0832843874
 11
-23.5572881917
 21
9.5209212893
  0
LINE
  5
231
100
AcDbEntity
  8
RACCORDO
100
AcDbLine
 62
253
  6
CONTINUOUS
 10
-23.5572881917
 20
9.5209212893
 11
-23.5385124187
 21
8.6377385488
  0
LINE
  5
232
100
AcDbEntity
  8
RACCORDO
100
AcDbLine
 62
253
  6
CONTINUOUS
 10
-23.5385124187
 20
8.6377385488
 11
-23.528586396
 21
8.0388083503
  0
LINE
  5
233
100
AcDbEntity
  8
RACCORDO
100
AcDbLine
 62
253
  6
CONTINUOUS
 10
-23.528586396
 20
8.0388083503
 11
-23.5213471268
 21
7.4417763058
  0
LINE
  5
234
100
AcDbEntity
  8
RACCORDO
100
AcDbLine
 62
253
  6
CONTINUOUS
 10
-23.5213471268
 20
7.4417763058
 11
-23.5167841949
 21
6.8521996133
  0
LINE
  5
235
100
AcDbEntity
  8
RACCORDO
100
AcDbLine
 62
253
  6
CONTINUOUS
 10
-23.5167841949
 20
6.8521996133
 11
-23.51482505
 21
6.2656127306
  0
LINE
  5
236
100
AcDbEntity
  8
RACCORDO
100
AcDbLine
 62
7
  6
CONTINUOUS
 10
-23.7794802396
 20
10.0674718152
 11
-23.7794802396
 21
2.1674718152
  0
LINE
  5
237
100
AcDbEntity
  8
RACCORDO
100
AcDbLine
 62
253
  6
CONTINUOUS
 10
-23.51482505
 20
6.2656127306
 11
-23.5154940344
 21
5.6798444529
  0
LINE
  5
238
100
AcDbEntity
  8
RACCORDO
100
AcDbLine
 62
253
  6
CONTINUOUS
 10
-23.5154940344
 20
5.6798444529
 11
-23.5186688995
 21
5.0920295593
  0
LINE
  5
239
100
AcDbEntity
  8
RACCORDO
100
AcDbLine
 62
253
  6
CONTINUOUS
 10
-23.5186688995
 20
5.0920295593
 11
-23.5246393549
 21
4.4986837895
  0
LINE
  5
23A
100
AcDbEntity
  8
RACCORDO
100
AcDbLine
 62
253
  6
CONTINUOUS
 10
-23.5246393549
 20
4.4986837895
 11
-23.5331011687
 21
3.9001752272
  0
LINE
  5
23B
100
AcDbEntity
  8
RACCORDO
100
AcDbLine
 62
253
  6
CONTINUOUS
 10
-23.5331011687
 20
3.9001752272
 11
-23.5505971047
 21
3.0050269207
  0
LWPOLYLINE
  5
23C
100
AcDbEntity
  8
RACCORDO
100
AcDbPolyline
 62
253
  6
CONTINUOUS
 90
3
 70
0
 10
-23.5505971047
 20
3.0050269207
 10
-23.5644850637
 20
2.4315689953
 10
-23.5723540816
 20
2.151659243
  0
LWPOLYLINE
  5
23D
100
AcDbEntity
  8
RACCORDO
100
AcDbPolyline
 62
253
  6
CONTINUOUS
 90
16
 70
0
 10
-24.2928723861
 20
10.7082673714
 10
-24.2948162358
 20
10.6742498569
 10
-24.2939740106
 20
10.6401448278
 10
-24.2903566029
 20
10.6063935547
 10
-24.2840108118
 20
10.5734327311
 10
-24.2750187373
 20
10.5416888232
 10
-24.2634967184
 20
10.511572552
 10
-24.2495938273
 20
10.483473579
 10
-24.2334899408
 20
10.4577554651
 10
-24.2153934132
 20
10.434750966
 10
-24.1955383801
 20
10.4147577271
 10
-24.1741817296
 20
10.3980344327
 10
-24.1515997777
 20
10.3847974582
 10
-24.1280846942
 20
10.3752180714
 10
-24.1039407218
 20
10.3694202159
 10
-24.0794802398
 20
10.3674789078
  0
LWPOLYLINE
  5
23E
100
AcDbEntity
  8
RACCORDO
100
AcDbPolyline
 62
253
  6
CONTINUOUS
 90
22
 70
0
 10
-23.5723540816
 20
2.151659243
 10
-23.5750010913
 20
2.1103817788
 10
-23.5810777452
 20
2.0692516318
 10
-23.5905606177
 20
2.028256902
 10
-23.6033086147
 20
1.9872254247
 10
-23.6193926086
 20
1.9463121296
 10
-23.6390937694
 20
1.9059998865
 10
-23.6623878194
 20
1.8661925299
 10
-23.6891632253
 20
1.826988488
 10
-23.7195518885
 20
1.7891717388
 10
-23.7535577437
 20
1.7527248233
 10
-23.7909471972
 20
1.717702785
 10
-23.8314821591
 20
1.685013065
 10
-23.875109668
 20
1.6547698447
 10
-23.9215498217
 20
1.6269426553
 10
-23.9702307395
 20
1.6022349469
 10
-24.020980538
 20
1.5808358359
 10
-24.0735554933
 20
1.5626790768
 10
-24.1273053587
 20
1.5480885847
 10
-24.1818709602
 20
1.5372178869
 10
-24.2371439091
 20
1.5300556269
 10
-24.2928554077
 20
1.5266795037
  0
LINE
  5
23F
100
AcDbEntity
  8
0
100
AcDbLine
 62
7
  6
CONTINUOUS
 10
1.7205197604
 20
-23.8825281848
 11
-2.2794802396
 21
-23.8825281848
  0
LWPOLYLINE
  5
240
100
AcDbEntity
  8
RACCORDO
100
AcDbPolyline
 62
253
  6
CONTINUOUS
 90
16
 70
0
 10
-17.0083038843
 20
-11.7112596978
 10
-17.029872354
 20
-11.6848827743
 10
-17.049238422
 20
-11.6567973744
 10
-17.0661515132
 20
-11.6273668916
 10
-17.0803927913
 20
-11.5969721232
 10
-17.0917779903
 20
-11.5660063436
 10
-17.1001597984
 20
-11.534870215
 10
-17.1054297646
 20
-11.5039666042
 10
-17.1075197016
 20
-11.4736953691
 10
-17.1064025679
 20
-11.4444481855
 10
-17.102092818
 20
-11.4166034793
 10
-17.0946462155
 20
-11.3905215296
 10
-17.0841591111
 20
-11.3665398076
 10
-17.0707671961
 20
-11.34496861
 10
-17.0546437471
 20
-11.3260870439
 10
-17.0359973834
 20
-11.3101394156
  0
LINE
  5
241
100
AcDbEntity
  8
RACCORDO
100
AcDbLine
 62
253
  6
CONTINUOUS
 10
-20.4922739842
 20
-5.6281435371
 11
-20.0102428873
 21
-6.2714950813
  0
LINE
  5
242
100
AcDbEntity
  8
RACCORDO
100
AcDbLine
 62
253
  6
CONTINUOUS
 10
-20.0102428873
 20
-6.2714950813
 11
-19.5525694081
 21
-6.889694411
  0
LINE
  5
243
100
AcDbEntity
  8
RACCORDO
100
AcDbLine
 62
253
  6
CONTINUOUS
 10
-19.5525694081
 20
-6.889694411
 11
-19.1107945738
 21
-7.4936177796
  0
LINE
  5
244
100
AcDbEntity
  8
RACCORDO
100
AcDbLine
 62
7
  6
CONTINUOUS
 10
-21.613131354
 20
-4.4998644859
 11
-16.9696278609
 21
-10.8910987414
  0
LINE
  5
245
100
AcDbEntity
  8
RACCORDO
100
AcDbLine
 62
253
  6
CONTINUOUS
 10
-19.1107945738
 20
-7.4936177796
 11
-18.7735807497
 21
-7.9594023668
  0
LINE
  5
246
100
AcDbEntity
  8
RACCORDO
100
AcDbLine
 62
253
  6
CONTINUOUS
 10
-18.7735807497
 20
-7.9594023668
 11
-18.4185580184
 21
-8.4545015595
  0
LINE
  5
247
100
AcDbEntity
  8
RACCORDO
100
AcDbLine
 62
253
  6
CONTINUOUS
 10
-18.4185580184
 20
-8.4545015595
 11
-18.0427415828
 21
-8.9838591723
  0
LINE
  5
248
100
AcDbEntity
  8
RACCORDO
100
AcDbLine
 62
253
  6
CONTINUOUS
 10
-18.0427415828
 20
-8.9838591723
 11
-17.6575928973
 21
-9.5318017753
  0
LINE
  5
249
100
AcDbEntity
  8
RACCORDO
100
AcDbLine
 62
253
  6
CONTINUOUS
 10
-17.6575928973
 20
-9.5318017753
 11
-17.2767426635
 21
-10.0790830521
  0
LWPOLYLINE
  5
24A
100
AcDbEntity
  8
RACCORDO
100
AcDbPolyline
 62
253
  6
CONTINUOUS
 90
3
 70
0
 10
-17.2767426635
 20
-10.0790830521
 10
-16.9107584857
 20
-10.609766564
 10
-16.7927648823
 20
-10.78214568
  0
LWPOLYLINE
  5
24B
100
AcDbEntity
  8
RACCORDO
100
AcDbPolyline
 62
253
  6
CONTINUOUS
 90
16
 70
0
 10
-22.405124477
 20
-4.2832143112
 10
-22.3867020931
 20
-4.3118776258
 10
-22.3659742872
 20
-4.3389741276
 10
-22.3432092441
 20
-4.3641532237
 10
-22.3187015068
 20
-4.3870891292
 10
-22.2927681663
 20
-4.4074850831
 10
-22.2657447584
 20
-4.4250771872
 10
-22.2379809225
 20
-4.4396378212
 10
-22.2098358778
 20
-4.4509785871
 10
-22.1816737751
 20
-4.4589527474
 10
-22.1538589861
 20
-4.4634571234
 10
-22.1267513879
 20
-4.46443343
 10
-22.1007017077
 20
-4.4618690304
 10
-22.0760469842
 20
-4.455797099
 10
-22.0531062072
 20
-4.4462961928
 10
-22.0321761904
 20
-4.4334892346
  0
LWPOLYLINE
  5
24C
100
AcDbEntity
  8
RACCORDO
100
AcDbPolyline
 62
253
  6
CONTINUOUS
 90
22
 70
0
 10
-16.7927648823
 20
-10.78214568
 10
-16.7706440494
 20
-10.8170957642
 10
-16.7513844548
 20
-10.8539425642
 10
-16.734960152
 20
-10.8926819382
 10
-16.721155797
 20
-10.9333702371
 10
-16.7101197925
 20
-10.9759237779
 10
-16.7023634354
 20
-11.0201171783
 10
-16.69781056
 20
-11.0660139694
 10
-16.6964287881
 20
-11.1134689613
 10
-16.6987856423
 20
-11.1619254271
 10
-16.7048740448
 20
-11.2113998041
 10
-16.7145373664
 20
-11.2617102574
 10
-16.728116365
 20
-11.3119826987
 10
-16.7456353116
 20
-11.362093624
 10
-16.7668498475
 20
-11.4119031591
 10
-16.7917107753
 20
-11.4605060477
 10
-16.8201902205
 20
-11.5076482746
 10
-16.8520520464
 20
-11.5532401626
 10
-16.8869605105
 20
-11.5966374082
 10
-16.9247152577
 20
-11.6375046803
 10
-16.9652219573
 20
-11.6757874809
 10
-17.0083088258
 20
-11.711264964
  0
LINE
  5
24D
100
AcDbEntity
  8
RACCORDO
100
AcDbLine
 62
7
  6
CONTINUOUS
 10
-13.0342491302
 20
-20.2213268617
 11
-14.7225146869
 21
-17.2971651409
  0
LINE
  5
24E
100
AcDbEntity
  8
RACCORDO
100
AcDbLine
 62
253
  6
CONTINUOUS
 10
-12.1682237264
 20
-19.7213268617
 11
-13.8564892831
 21
-16.7971651409
  0
LWPOLYLINE
  5
24F
100
AcDbEntity
  8
RACCORDO
100
AcDbPolyline
 62
253
  6
CONTINUOUS
 90
16
 70
0
 10
2.7749599975
 20
-18.1392551088
 10
2.807913259
 20
-18.1305918296
 10
2.8400888072
 20
-18.1192517922
 10
2.871070335
 20
-18.1053817161
 10
2.9004569837
 20
-18.0891610555
 10
2.9278685303
 20
-18.0707996774
 10
2.9529503067
 20
-18.0505351466
 10
2.9753777884
 20
-18.0286296513
 10
2.9948607936
 20
-18.0053666108
 10
3.0111472378
 20
-17.9810470091
 10
3.0240263953
 20
-17.9559855
 10
3.0333316255
 20
-17.9305063361
 10
3.0389425294
 20
-17.9049391735
 10
3.0407865072
 20
-17.8796148068
 10
3.0388396976
 20
-17.8548608886
 10
3.0331272868
 20
-17.8309976907
  0
LWPOLYLINE
  5
250
100
AcDbEntity
  8
RACCORDO
100
AcDbPolyline
 62
253
  6
CONTINUOUS
 90
22
 70
0
 10
10.6901255146
 20
-14.8098641541
 10
10.7302007332
 20
-14.7996261618
 10
10.7711956644
 20
-14.7926954863
 10
10.8131143872
 20
-14.789046171
 10
10.8560770393
 20
-14.788490825
 10
10.8999581745
 20
-14.7911447283
 10
10.9443854421
 20
-14.7974245062
 10
10.9894428002
 20
-14.8072773528
 10
11.0350021705
 20
-14.8206276085
 10
11.0803587
 20
-14.8378429814
 10
11.1255302088
 20
-14.8589218197
 10
11.1703921627
 20
-14.8836589697
 10
11.2140079542
 20
-14.9121084035
 10
11.2562526241
 20
-14.9442550393
 10
11.2970686549
 20
-14.9798232547
 10
11.3356102996
 20
-15.0184865207
 10
11.3716445892
 20
-15.0601398319
 10
11.4051592056
 20
-15.1045308972
 10
11.4356451302
 20
-15.1511413059
 10
11.4628453572
 20
-15.1996768858
 10
11.4867372056
 20
-15.2500310825
 10
11.5071637225
 20
-15.3019722747
  0
LWPOLYLINE
  5
251
100
AcDbEntity
  8
RACCORDO
100
AcDbPolyline
 62
253
  6
CONTINUOUS
 90
16
 70
0
 10
-3.3339174136
 20
-18.1392307934
 10
-3.3668706388
 20
-18.1305690425
 10
-3.3990463008
 20
-18.1192305659
 10
-3.4300280828
 20
-18.1053620707
 10
-3.4594151154
 20
-18.0891429998
 10
-3.4868271635
 20
-18.0707832099
 10
-3.5119095458
 20
-18.050520256
 10
-3.5343377248
 20
-18.028616318
 10
-3.5538215048
 20
-18.0053548085
 10
-3.5701087878
 20
-17.9810367052
 10
-3.5829888347
 20
-17.9559766573
 10
-3.5922949921
 20
-17.9304989136
 10
-3.5979068488
 20
-17.9049331277
 10
-3.5997517939
 20
-17.8796100921
 10
-3.5978059557
 20
-17.8548574587
 10
-3.5920945114
 20
-17.8309954988
  0
LINE
  5
252
100
AcDbEntity
  8
RACCORDO
100
AcDbLine
 62
253
  6
CONTINUOUS
 10
-11.2490859938
 20
-14.8098641541
 11
-10.4190888419
 21
-15.0562453806
  0
LINE
  5
253
100
AcDbEntity
  8
RACCORDO
100
AcDbLine
 62
253
  6
CONTINUOUS
 10
-10.4190888419
 20
-15.0562453806
 11
-9.8029082893
 21
-15.2429067543
  0
LINE
  5
254
100
AcDbEntity
  8
RACCORDO
100
AcDbLine
 62
253
  6
CONTINUOUS
 10
-9.8029082893
 20
-15.2429067543
 11
-9.1664435511
 21
-15.438627247
  0
LINE
  5
255
100
AcDbEntity
  8
RACCORDO
100
AcDbLine
 62
253
  6
CONTINUOUS
 10
-9.1664435511
 20
-15.438627247
 11
-8.5357321813
 21
-15.6359522655
  0
LINE
  5
256
100
AcDbEntity
  8
RACCORDO
100
AcDbLine
 62
253
  6
CONTINUOUS
 10
-8.5357321813
 20
-15.6359522655
 11
-7.9120620832
 21
-15.834469453
  0
LINE
  5
257
100
AcDbEntity
  8
RACCORDO
100
AcDbLine
 62
7
  6
CONTINUOUS
 10
-11.2980528468
 20
-15.01173919
 11
-3.7847063681
 21
-17.4529734455
  0
LINE
  5
258
100
AcDbEntity
  8
RACCORDO
100
AcDbLine
 62
253
  6
CONTINUOUS
 10
-7.9120620832
 20
-15.834469453
 11
-7.2888736717
 21
-16.0362006269
  0
LINE
  5
259
100
AcDbEntity
  8
RACCORDO
100
AcDbLine
 62
253
  6
CONTINUOUS
 10
-7.2888736717
 20
-16.0362006269
 11
-6.6632539074
 21
-16.242143613
  0
LINE
  5
25A
100
AcDbEntity
  8
RACCORDO
100
AcDbLine
 62
253
  6
CONTINUOUS
 10
-6.6632539074
 20
-16.242143613
 11
-6.0366546059
 21
-16.451805606
  0
LINE
  5
25B
100
AcDbEntity
  8
RACCORDO
100
AcDbLine
 62
253
  6
CONTINUOUS
 10
-6.0366546059
 20
-16.451805606
 11
-5.418899893
 21
-16.6617321496
  0
LINE
  5
25C
100
AcDbEntity
  8
RACCORDO
100
AcDbLine
 62
253
  6
CONTINUOUS
 10
-5.418899893
 20
-16.6617321496
 11
-4.604002994
 21
-16.9435281367
  0
LINE
  5
25D
100
AcDbEntity
  8
RACCORDO
100
AcDbLine
 62
253
  6
CONTINUOUS
 10
-4.604002994
 20
-16.9435281367
 11
-3.7056622154
 21
-17.2608711167
  0
LWPOLYLINE
  5
25E
100
AcDbEntity
  8
RACCORDO
100
AcDbPolyline
 62
253
  6
CONTINUOUS
 90
16
 70
0
 10
-12.0661325343
 20
-15.3019874197
 10
-12.034380638
 20
-15.3143481206
 10
-12.0016845659
 20
-15.3240861504
 10
-11.9684673573
 20
-15.3310755082
 10
-11.935158794
 20
-15.3352257569
 10
-11.9021898397
 20
-15.3364831928
 10
-11.869987064
 20
-15.3348315413
 10
-11.838967123
 20
-15.3302921662
 10
-11.8095313686
 20
-15.3229237943
 10
-11.7820606552
 20
-15.312821755
 10
-11.7569104125
 20
-15.300116747
 10
-11.7344060464
 20
-15.2849731474
 10
-11.7148387287
 20
-15.267586885
 10
-11.69846163
 20
-15.2481829049
 10
-11.685486644
 20
-15.2270122585
 10
-11.6760816456
 20
-15.204348855
  0
LWPOLYLINE
  5
25F
100
AcDbEntity
  8
RACCORDO
100
AcDbPolyline
 62
253
  6
CONTINUOUS
 90
22
 70
0
 10
-3.7056622154
 20
-17.2608711167
 10
-3.6672229416
 20
-17.2761440295
 10
-3.6299835967
 20
-17.2946332112
 10
-3.5939256239
 20
-17.3163200601
 10
-3.558841684
 20
-17.3411235891
 10
-3.5249010251
 20
-17.3690633261
 10
-3.4926497714
 20
-17.4002574658
 10
-3.4619889609
 20
-17.4347126368
 10
-3.4329777396
 20
-17.4722923465
 10
-3.4064024787
 20
-17.5128797749
 10
-3.3822477907
 20
-17.5564840599
 10
-3.3604938395
 20
-17.6028660296
 10
-3.3419300806
 20
-17.6515188241
 10
-3.3266487432
 20
-17.7023567927
 10
-3.3145343531
 20
-17.7551231443
 10
-3.3060792051
 20
-17.809056594
 10
-3.3014100545
 20
-17.8639352546
 10
-3.3003885737
 20
-17.9195477781
 10
-3.3031218535
 20
-17.9751755677
 10
-3.3096449057
 20
-18.0304295689
 10
-3.3199134485
 20
-18.0852102459
 10
-3.333918316
 20
-18.1392379585
  0
LINE
  5
260
100
AcDbEntity
  8
RACCORDO
100
AcDbLine
 62
253
  6
CONTINUOUS
 10
-21.4548571689
 20
-4.3653261452
 11
-21.1024862787
 21
-4.8243345634
  0
LWPOLYLINE
  5
261
100
AcDbEntity
  8
RACCORDO
100
AcDbPolyline
 62
253
  6
CONTINUOUS
 90
3
 70
0
 10
-21.1024862787
 20
-4.8243345634
 10
-20.6149799173
 20
-5.465560147
 10
-20.4922739842
 20
-5.6281435371
  0
LINE
  5
262
100
AcDbEntity
  8
RACCORDO
100
AcDbLine
 62
253
  6
CONTINUOUS
 10
12.475288651
 20
-20.2213268617
 11
11.6092632472
 21
-19.7213268617
  0
LWPOLYLINE
  5
263
100
AcDbEntity
  8
RACCORDO
100
AcDbPolyline
 62
253
  6
CONTINUOUS
 90
5
 70
0
 10
16.4493483466
 20
23.9462085944
 10
16.885080891
 20
24.280363816
 10
16.8896166743
 20
24.2837654354
 10
16.8921688863
 20
24.2857030226
 10
16.8929173216
 20
24.2863672687
  0
LWPOLYLINE
  5
264
100
AcDbEntity
  8
RACCORDO
100
AcDbPolyline
 62
253
  6
CONTINUOUS
 90
13
 70
0
 10
-21.4548572718
 20
-4.3653261961
 10
-21.4781909993
 20
-4.3830509689
 10
-21.5003451427
 20
-4.4001242173
 10
-21.5210772047
 20
-4.4163590589
 10
-21.5401602535
 20
-4.4315777886
 10
-21.5573854078
 20
-4.4456138233
 10
-21.5725641222
 20
-4.4583135257
 10
-21.5855302517
 20
-4.4695378859
 10
-21.59614187
 20
-4.479164043
 10
-21.6042828233
 20
-4.4870866299
 10
-21.6098640012
 20
-4.4932189265
 10
-21.6128243125
 20
-4.4974938094
 10
-21.613131354
 20
-4.4998644859
  0
LINE
  5
265
100
AcDbEntity
  8
RACCORDO
100
AcDbLine
 62
7
  6
CONTINUOUS
 10
-22.4183192503
 20
-4.7140473423
 11
-22.032172028
 21
-4.4334949633
  0
LINE
  5
266
100
AcDbEntity
  8
RACCORDO
100
AcDbLine
 62
7
  6
CONTINUOUS
 10
16.4770369043
 20
23.5450830459
 11
16.8631841266
 21
23.8256354249
  0
LWPOLYLINE
  5
267
100
AcDbEntity
  8
RACCORDO
100
AcDbPolyline
 62
253
  6
CONTINUOUS
 90
13
 70
0
 10
16.2338044862
 20
23.0170893955
 10
16.2578725162
 20
23.0338042797
 10
16.2809564268
 20
23.0495986077
 10
16.3028035324
 20
23.0642994914
 10
16.3231746857
 20
23.0777460119
 10
16.3418468956
 20
23.0897909811
 10
16.3586157682
 20
23.100302553
 10
16.3732977439
 20
23.109165667
 10
16.3857321069
 20
23.1162833069
 10
16.3957827446
 20
23.1215775633
 10
16.4033396371
 20
23.1249904864
 10
16.4083200621
 20
23.1264847202
 10
16.4106694999
 20
23.1260439112
  0
LWPOLYLINE
  5
268
100
AcDbEntity
  8
RACCORDO
100
AcDbPolyline
 62
253
  6
CONTINUOUS
 90
22
 70
0
 10
-22.40510886
 20
-4.2832069687
 10
-22.3586720383
 20
-4.2535054092
 10
-22.3102873803
 20
-4.2270393028
 10
-22.260199208
 20
-4.2038956339
 10
-22.2084550814
 20
-4.184112145
 10
-22.1554372658
 20
-4.1677969007
 10
-22.1019050054
 20
-4.1551501446
 10
-22.0480144743
 20
-4.146378042
 10
-21.9940092789
 20
-4.1414146206
 10
-21.9408122527
 20
-4.1400765809
 10
-21.8886275969
 20
-4.1425696242
 10
-21.8375704499
 20
-4.1488153875
 10
-21.7884332179
 20
-4.1582218396
 10
-21.741470396
 20
-4.1708847612
 10
-21.6966394402
 20
-4.1868150415
 10
-21.6542683401
 20
-4.2052978923
 10
-21.6145032893
 20
-4.2263065721
 10
-21.5773102707
 20
-4.2499461933
 10
-21.5427257986
 20
-4.2756957338
 10
-21.5107769582
 20
-4.3033997082
 10
-21.4814834454
 20
-4.3332687127
 10
-21.4548571689
 20
-4.3653261452
  0
LWPOLYLINE
  5
269
100
AcDbEntity
  8
RACCORDO
100
AcDbPolyline
 62
253
  6
CONTINUOUS
 90
5
 70
0
 10
2.7749578368
 20
30.3741815889
 10
2.931061359
 20
30.9006360055
 10
2.9327314631
 20
30.9060540399
 10
2.9336573608
 20
30.9091217335
 10
2.9338724236
 20
30.9100990391
  0
LWPOLYLINE
  5
26A
100
AcDbEntity
  8
RACCORDO
100
AcDbPolyline
 62
253
  6
CONTINUOUS
 90
13
 70
0
 10
-11.2490860602
 20
-14.8098642806
 10
-11.2575450825
 20
-14.8379191474
 10
-11.2654327576
 20
-14.8647535771
 10
-11.2726627475
 20
-14.890073842
 10
-11.2791559132
 20
-14.9136027886
 10
-11.284841181
 20
-14.9350828707
 10
-11.2896563202
 20
-14.9542789689
 10
-11.2935486248
 20
-14.9709809644
 10
-11.2964754897
 20
-14.9850060382
 10
-11.2984048777
 20
-14.996200673
 10
-11.2993156698
 20
-15.0044423332
 10
-11.2991978965
 20
-15.0096408062
 10
-11.2980528468
 20
-15.0117391899
  0
LINE
  5
26B
100
AcDbEntity
  8
RACCORDO
100
AcDbLine
 62
7
  6
CONTINUOUS
 10
-11.8235700143
 20
-15.6582943315
 11
-11.6760749
 21
-15.2043510465
  0
LINE
  5
26C
100
AcDbEntity
  8
RACCORDO
100
AcDbLine
 62
7
  6
CONTINUOUS
 10
3.0331340322
 20
30.0659391291
 11
3.1806291465
 21
30.5198824141
  0
LWPOLYLINE
  5
26D
100
AcDbEntity
  8
RACCORDO
100
AcDbPolyline
 62
253
  6
CONTINUOUS
 90
13
 70
0
 10
3.1467017534
 20
29.4958148649
 10
3.1563484363
 20
29.5234843233
 10
3.1657400392
 20
29.5498305853
 10
3.1747737563
 20
29.5745652565
 10
3.1833506991
 20
29.5974175836
 10
3.191376979
 20
29.618137418
 10
3.1987647349
 20
29.6364979543
 10
3.205433095
 20
29.6522982129
 10
3.2113090623
 20
29.6653652398
 10
3.2163283131
 20
29.6755559998
 10
3.2204359017
 20
29.6827589426
 10
3.2235868616
 20
29.6868952234
 10
3.2257466977
 20
29.6879195663
  0
LWPOLYLINE
  5
26E
100
AcDbEntity
  8
RACCORDO
100
AcDbPolyline
 62
253
  6
CONTINUOUS
 90
22
 70
0
 10
-12.0661242017
 20
-15.3019722747
 10
-12.0460105457
 20
-15.2506402684
 10
-12.0224184814
 20
-15.2007816078
 10
-11.9954946233
 20
-15.1526103998
 10
-11.965255511
 20
-15.10618543
 10
-11.9319467836
 20
-15.0618187394
 10
-11.8960645046
 20
-15.020118102
 10
-11.8576178568
 20
-14.9813433463
 10
-11.8168387771
 20
-14.9455832111
 10
-11.7745689807
 20
-14.9132272752
 10
-11.7308360622
 20
-14.884554757
 10
-11.6857955935
 20
-14.8595760123
 10
-11.6404738601
 20
-14.8382940522
 10
-11.5950385974
 20
-14.820947929
 10
-11.5494313442
 20
-14.8075112481
 10
-11.5043212434
 20
-14.7975819259
 10
-11.4598427791
 20
-14.791218213
 10
-11.4159060169
 20
-14.7884910388
 10
-11.3728285749
 20
-14.7890009218
 10
-11.3307176844
 20
-14.7926379789
 10
-11.2894715296
 20
-14.7995837871
 10
-11.2490859938
 20
-14.8098641541
  0
LWPOLYLINE
  5
26F
100
AcDbEntity
  8
RACCORDO
100
AcDbPolyline
 62
253
  6
CONTINUOUS
 90
6
 70
0
 10
-22.8656893351
 20
-4.5999513217
 10
-22.8648302854
 20
-4.5994482212
 10
-22.8622105372
 20
-4.5976275905
 10
-22.8575913677
 20
-4.5943765025
 10
-22.8507028517
 20
-4.5896164141
 10
-22.40510886
 20
-4.2832069687
  0
LINE
  5
270
100
AcDbEntity
  8
RACCORDO
100
AcDbLine
 62
253
  6
CONTINUOUS
 10
14.1635542076
 20
-17.2971651409
 11
13.2975288038
 21
-16.7971651409
  0
LWPOLYLINE
  5
271
100
AcDbEntity
  8
RACCORDO
100
AcDbPolyline
 62
253
  6
CONTINUOUS
 90
6
 70
0
 10
-12.252563974
 20
-15.82894625
 10
-12.2521647031
 20
-15.8280342964
 10
-12.2511154222
 20
-15.8250215259
 10
-12.2492893772
 20
-15.8196762607
 10
-12.2465143605
 20
-15.8117763002
 10
-12.0661242017
 20
-15.3019722747
  0
LINE
  5
272
100
AcDbEntity
  8
RACCORDO
100
AcDbLine
 62
253
  6
CONTINUOUS
 10
-16.1193352267
 20
-15.7480031165
 11
-15.5326739309
 21
-14.9381707116
  0
LWPOLYLINE
  5
273
100
AcDbEntity
  8
RACCORDO
100
AcDbPolyline
 62
253
  6
CONTINUOUS
 90
6
 70
0
 10
22.3067288559
 20
16.8348949521
 10
22.3058698061
 20
16.8343918516
 10
22.3032500579
 20
16.8325712209
 10
22.2986308884
 20
16.8293201329
 10
22.2917423725
 20
16.8245600445
 10
21.8461483807
 20
16.5181505991
  0
LWPOLYLINE
  5
274
100
AcDbEntity
  8
RACCORDO
100
AcDbPolyline
 62
253
  6
CONTINUOUS
 90
13
 70
0
 10
-11.2490860491
 20
27.0448078899
 10
-11.2575454183
 20
27.0728631299
 10
-11.2654333962
 20
27.0996979493
 10
-11.2726636405
 20
27.1250186043
 10
-11.2791570088
 20
27.1485479258
 10
-11.2848424251
 20
27.1700283529
 10
-11.2896576575
 20
27.1892247528
 10
-11.2935499998
 20
27.2059269943
 10
-11.2964768481
 20
27.2199522479
 10
-11.2984061674
 20
27.2311469876
 10
-11.2993168419
 20
27.2393886707
 10
-11.2991989067
 20
27.2445870799
 10
-11.2980536562
 20
27.2466853106
  0
LINE
  5
275
100
AcDbEntity
  8
0
100
AcDbLine
 62
7
  6
CONTINUOUS
 10
-2.2794802396
 20
-23.8825281848
 11
-2.2794802396
 21
-33.0689777817
  0
LINE
  5
276
100
AcDbEntity
  8
ASSI
100
AcDbLine
 62
7
  6
CONTINUOUS
 10
-0.7294802396
 20
-23.7786672879
 11
-0.7294802396
 21
-23.8825281848
  0
LINE
  5
277
100
AcDbEntity
  8
0
100
AcDbLine
 62
7
  6
CONTINUOUS
 10
-0.7294802396
 20
-23.7786672879
 11
-0.7294802396
 21
-23.8825281848
  0
LWPOLYLINE
  5
278
100
AcDbEntity
  8
RACCORDO
100
AcDbPolyline
 62
253
  6
CONTINUOUS
 90
6
 70
0
 10
11.6936034947
 20
28.0638898804
 10
11.6932042239
 20
28.0629779268
 10
11.692154943
 20
28.0599651563
 10
11.6903288979
 20
28.0546198911
 10
11.6875538812
 20
28.0467199306
 10
11.5071637225
 20
27.5369159051
  0
LINE
  5
279
100
AcDbEntity
  8
RACCORDO
100
AcDbLine
 62
253
  6
CONTINUOUS
 10
-12.1840157693
 20
-21.0164307559
 11
-11.7431070459
 21
-20.1188788088
  0
LWPOLYLINE
  5
27A
100
AcDbEntity
  8
RACCORDO
100
AcDbPolyline
 62
253
  6
CONTINUOUS
 90
5
 70
0
 10
-17.0083088258
 20
-11.711264964
 10
-17.4440413703
 20
-12.0454201856
 10
-17.4485771536
 20
-12.048821805
 10
-17.4511293656
 20
-12.0507593922
 10
-17.4518778008
 20
-12.0514236383
  0
LWPOLYLINE
  5
27B
100
AcDbEntity
  8
RACCORDO
100
AcDbPolyline
 62
253
  6
CONTINUOUS
 90
13
 70
0
 10
20.8958967926
 20
16.6002698265
 10
20.91923052
 20
16.6179945993
 10
20.9413846635
 20
16.6350678477
 10
20.9621167254
 20
16.6513026894
 10
20.9811997743
 20
16.666521419
 10
20.9984249285
 20
16.6805574537
 10
21.0136036429
 20
16.6932571561
 10
21.0265697724
 20
16.7044815163
 10
21.0371813908
 20
16.7141076734
 10
21.045322344
 20
16.7220302603
 10
21.0509035219
 20
16.728162557
 10
21.0538638333
 20
16.7324374398
 10
21.0541708747
 20
16.7348081163
  0
LINE
  5
27C
100
AcDbEntity
  8
RACCORDO
100
AcDbLine
 62
7
  6
CONTINUOUS
 10
21.859358771
 20
16.9489909727
 11
21.4732115487
 21
16.6684385937
  0
LINE
  5
27D
100
AcDbEntity
  8
RACCORDO
100
AcDbLine
 62
7
  6
CONTINUOUS
 10
-17.0359973835
 20
-11.3101394154
 11
-17.4221446058
 21
-11.5906917945
  0
LWPOLYLINE
  5
27E
100
AcDbEntity
  8
RACCORDO
100
AcDbPolyline
 62
253
  6
CONTINUOUS
 90
13
 70
0
 10
-16.7927649654
 20
-10.7821457651
 10
-16.8168329955
 20
-10.7988606493
 10
-16.8399169061
 20
-10.8146549773
 10
-16.8617640116
 20
-10.829355861
 10
-16.8821351649
 20
-10.8428023815
 10
-16.9008073749
 20
-10.8548473507
 10
-16.9175762474
 20
-10.8653589226
 10
-16.9322582231
 20
-10.8742220366
 10
-16.9446925861
 20
-10.8813396765
 10
-16.9547432238
 20
-10.8866339329
 10
-16.9623001163
 20
-10.890046856
 10
-16.9672805413
 20
-10.8915410898
 10
-16.9696299791
 20
-10.8911002808
  0
LWPOLYLINE
  5
27F
100
AcDbEntity
  8
RACCORDO
100
AcDbPolyline
 62
253
  6
CONTINUOUS
 90
22
 70
0
 10
21.8461483807
 20
16.5181505991
 10
21.7997115591
 20
16.4884490397
 10
21.7513269011
 20
16.4619829332
 10
21.7012387288
 20
16.4388392643
 10
21.6494946022
 20
16.4190557754
 10
21.5964767865
 20
16.4027405311
 10
21.5429445261
 20
16.390093775
 10
21.489053995
 20
16.3813216724
 10
21.4350487997
 20
16.3763582511
 10
21.3818517735
 20
16.3750202113
 10
21.3296671176
 20
16.3775132546
 10
21.2786099707
 20
16.3837590179
 10
21.2294727387
 20
16.39316547
 10
21.1825099167
 20
16.4058283916
 10
21.137678961
 20
16.4217586719
 10
21.0953078608
 20
16.4402415227
 10
21.0555428101
 20
16.4612502025
 10
21.0183497914
 20
16.4848898237
 10
20.9837653194
 20
16.5106393642
 10
20.9518164789
 20
16.5383433387
 10
20.9225229662
 20
16.5682123431
 10
20.8958966897
 20
16.6002697756
  0
LWPOLYLINE
  5
280
100
AcDbEntity
  8
RACCORDO
100
AcDbPolyline
 62
253
  6
CONTINUOUS
 90
5
 70
0
 10
-12.0661242017
 20
27.5369159051
 10
-12.2492759414
 20
28.0545818231
 10
-12.2511094395
 20
28.0599467676
 10
-12.2521635176
 20
28.0629728128
 10
-12.252563974
 20
28.0638898804
  0
LWPOLYLINE
  5
281
100
AcDbEntity
  8
RACCORDO
100
AcDbPolyline
 62
253
  6
CONTINUOUS
 90
13
 70
0
 10
3.1467017617
 20
-17.260871291
 10
3.1563485078
 20
-17.2885402472
 10
3.1657401284
 20
-17.3148860188
 10
3.1747738233
 20
-17.3396202267
 10
3.1833507106
 20
-17.3624721321
 10
3.1913769083
 20
-17.3831915995
 10
3.1987645622
 20
-17.4015518353
 10
3.2054328077
 20
-17.4173518695
 10
3.2113086547
 20
-17.430418756
 10
3.2163277867
 20
-17.4406094657
 10
3.2204352646
 20
-17.4478124517
 10
3.2235861283
 20
-17.4519488706
 10
3.2257458888
 20
-17.4529734455
  0
LINE
  5
282
100
AcDbEntity
  8
RACCORDO
100
AcDbLine
 62
7
  6
CONTINUOUS
 10
3.1806291465
 20
-18.2849387837
 11
3.0331340322
 21
-17.8309954987
  0
LINE
  5
283
100
AcDbEntity
  8
RACCORDO
100
AcDbLine
 62
7
  6
CONTINUOUS
 10
-11.6760749
 20
27.4392946769
 11
-11.8235700143
 21
27.8932379619
  0
LWPOLYLINE
  5
284
100
AcDbEntity
  8
RACCORDO
100
AcDbPolyline
 62
253
  6
CONTINUOUS
 90
22
 70
0
 10
2.7749578368
 20
-18.1392379585
 10
2.76105793
 20
-18.0858869827
 10
2.7508381256
 20
-18.0316834115
 10
2.7443056587
 20
-17.9768866388
 10
2.7414817018
 20
-17.9215539451
 10
2.742350942
 20
-17.8660821597
 10
2.7468692958
 20
-17.8112545609
 10
2.7551820576
 20
-17.757286752
 10
2.7671537461
 20
-17.7043868532
 10
2.7823323878
 20
-17.6533647883
 10
2.8008597787
 20
-17.6044626693
 10
2.8226161455
 20
-17.5577803171
 10
2.8467729758
 20
-17.5139234032
 10
2.87333508
 20
-17.4731839174
 10
2.90233424
 20
-17.4355061433
 10
2.9329927691
 20
-17.4009581009
 10
2.965236106
 20
-17.3696659637
 10
2.9991787006
 20
-17.3416342526
 10
3.0343287849
 20
-17.3167264714
 10
3.0705350195
 20
-17.2949167521
 10
3.1079865033
 20
-17.2762921475
 10
3.1467017361
 20
-17.2608711167
  0
LWPOLYLINE
  5
285
100
AcDbEntity
  8
RACCORDO
100
AcDbPolyline
 62
253
  6
CONTINUOUS
 90
6
 70
0
 10
2.9338724236
 20
-18.6751554087
 10
2.9336594076
 20
-18.6741829372
 10
2.9327374316
 20
-18.6711288028
 10
2.931072865
 20
-18.6657310701
 10
2.9286744204
 20
-18.6577087539
 10
2.7749578368
 20
-18.1392379585
  0
LINE
  5
286
100
AcDbEntity
  8
ASSI
100
AcDbLine
 62
7
  6
CONTINUOUS
 10
0.1705197604
 20
-23.7786672879
 11
0.1705197604
 21
-23.8825281848
  0
LINE
  5
287
100
AcDbEntity
  8
0
100
AcDbLine
 62
7
  6
CONTINUOUS
 10
0.1705197604
 20
-23.7786672879
 11
0.1705197604
 21
-23.8825281848
  0
LINE
  5
288
100
AcDbEntity
  8
0
100
AcDbLine
 62
7
  6
CONTINUOUS
 10
1.7205197604
 20
-23.8825281848
 11
1.7205197604
 21
-33.0689777817
  0
LWPOLYLINE
  5
289
100
AcDbEntity
  8
RACCORDO
100
AcDbPolyline
 62
253
  6
CONTINUOUS
 90
5
 70
0
 10
-3.333918316
 20
-18.1392379585
 10
-3.4900218383
 20
-18.6656923751
 10
-3.4916919423
 20
-18.6711104095
 10
-3.49261784
 20
-18.6741781031
 10
-3.4928329028
 20
-18.6751554087
  0
LWPOLYLINE
  5
28A
100
AcDbEntity
  8
RACCORDO
100
AcDbPolyline
 62
253
  6
CONTINUOUS
 90
13
 70
0
 10
10.6901255809
 20
27.0448079111
 10
10.6985846033
 20
27.0728627778
 10
10.7064722784
 20
27.0996972075
 10
10.7137022683
 20
27.1250174724
 10
10.720195434
 20
27.148546419
 10
10.7258807017
 20
27.1700265011
 10
10.730695841
 20
27.1892225993
 10
10.7345881455
 20
27.2059245948
 10
10.7375150105
 20
27.2199496686
 10
10.7394443985
 20
27.2311443034
 10
10.7403551905
 20
27.2393859636
 10
10.7402374172
 20
27.2445844366
 10
10.7390923676
 20
27.2466828204
  0
LINE
  5
28B
100
AcDbEntity
  8
RACCORDO
100
AcDbLine
 62
7
  6
CONTINUOUS
 10
11.264609535
 20
27.8932379619
 11
11.1171144208
 21
27.4392946769
  0
LINE
  5
28C
100
AcDbEntity
  8
RACCORDO
100
AcDbLine
 62
7
  6
CONTINUOUS
 10
-3.5920945115
 20
-17.8309954987
 11
-3.7395896257
 21
-18.2849387837
  0
LWPOLYLINE
  5
28D
100
AcDbEntity
  8
RACCORDO
100
AcDbPolyline
 62
253
  6
CONTINUOUS
 90
13
 70
0
 10
-3.7056622327
 20
-17.2608712345
 10
-3.7153089156
 20
-17.2885406929
 10
-3.7247005185
 20
-17.3148869549
 10
-3.7337342355
 20
-17.3396216261
 10
-3.7423111783
 20
-17.3624739532
 10
-3.7503374582
 20
-17.3831937876
 10
-3.7577252141
 20
-17.4015543239
 10
-3.7643935743
 20
-17.4173545825
 10
-3.7702695415
 20
-17.4304216093
 10
-3.7752887923
 20
-17.4406123694
 10
-3.7793963809
 20
-17.4478153122
 10
-3.7825473408
 20
-17.451951593
 10
-3.784707177
 20
-17.4529759359
  0
LWPOLYLINE
  5
28E
100
AcDbEntity
  8
RACCORDO
100
AcDbPolyline
 62
253
  6
CONTINUOUS
 90
22
 70
0
 10
11.5071637225
 20
27.5369159051
 10
11.4870500665
 20
27.4855838988
 10
11.4634580021
 20
27.4357252382
 10
11.436534144
 20
27.3875540302
 10
11.4062950318
 20
27.3411290604
 10
11.3729863043
 20
27.2967623699
 10
11.3371040253
 20
27.2550617324
 10
11.2986573775
 20
27.2162869767
 10
11.2578782978
 20
27.1805268415
 10
11.2156085014
 20
27.1481709056
 10
11.171875583
 20
27.1194983874
 10
11.1268351143
 20
27.0945196427
 10
11.0815133809
 20
27.0732376826
 10
11.0360781182
 20
27.0558915594
 10
10.990470865
 20
27.0424548785
 10
10.9453607641
 20
27.0325255563
 10
10.9008822998
 20
27.0261618434
 10
10.8569455376
 20
27.0234346692
 10
10.8138680956
 20
27.0239445522
 10
10.7717572051
 20
27.0275816093
 10
10.7305110504
 20
27.0345274175
 10
10.6901255146
 20
27.0448077845
  0
LWPOLYLINE
  5
28F
100
AcDbEntity
  8
RACCORDO
100
AcDbPolyline
 62
253
  6
CONTINUOUS
 90
5
 70
0
 10
-24.2928554077
 20
1.5266795037
 10
-24.8417819523
 20
1.5124594142
 10
-24.8474508998
 20
1.5123735129
 10
-24.8506545679
 20
1.5123061245
 10
-24.8516504988
 20
1.5122086573
  0
LWPOLYLINE
  5
290
100
AcDbEntity
  8
RACCORDO
100
AcDbPolyline
 62
253
  6
CONTINUOUS
 90
13
 70
0
 10
23.0133938518
 20
2.1516592005
 10
23.042689611
 20
2.1522836253
 10
23.0706481066
 20
2.1530742978
 10
23.0969633066
 20
2.1540225632
 10
23.1213471663
 20
2.1551180421
 10
23.1435327816
 20
2.1563487434
 10
23.1632773101
 20
2.1577011961
 10
23.1803646294
 20
2.1591605964
 10
23.1946077028
 20
2.1607109699
 10
23.2058506263
 20
2.1623353463
 10
23.2139703358
 20
2.1640159454
 10
23.2188779533
 20
2.1657343716
 10
23.2205197604
 20
2.1674718152
  0
LINE
  5
291
100
AcDbEntity
  8
RACCORDO
100
AcDbLine
 62
7
  6
CONTINUOUS
 10
23.9978239765
 20
1.8674718152
 11
23.5205197604
 21
1.8674718152
  0
LINE
  5
292
100
AcDbEntity
  8
RACCORDO
100
AcDbLine
 62
7
  6
CONTINUOUS
 10
-24.0794802396
 20
1.8674718152
 11
-24.5567844557
 21
1.8674718152
  0
LWPOLYLINE
  5
293
100
AcDbEntity
  8
RACCORDO
100
AcDbPolyline
 62
253
  6
CONTINUOUS
 90
13
 70
0
 10
-23.5723541989
 20
2.151659223
 10
-23.6016504066
 20
2.1522834308
 10
-23.6296093556
 20
2.1530739332
 10
-23.6559249979
 20
2.1540220749
 10
-23.6803092736
 20
2.1551174749
 10
-23.702495264
 20
2.1563481397
 10
-23.7222401139
 20
2.1577005954
 10
-23.7393276894
 20
2.1591600343
 10
-23.7535709441
 20
2.1607104779
 10
-23.7648139666
 20
2.162334951
 10
-23.772933687
 20
2.1640156682
 10
-23.777841224
 20
2.1657342281
 10
-23.7794828581
 20
2.1674718149
  0
LWPOLYLINE
  5
294
100
AcDbEntity
  8
RACCORDO
100
AcDbPolyline
 62
253
  6
CONTINUOUS
 90
22
 70
0
 10
23.7338949284
 20
1.5266795037
 10
23.6788612036
 20
1.5299461346
 10
23.6241537907
 20
1.5369760363
 10
23.5700216045
 20
1.547695938
 10
23.5165256613
 20
1.5621082682
 10
23.4640386078
 20
1.5800758534
 10
23.4132917053
 20
1.6013147645
 10
23.3645348683
 20
1.6258965618
 10
23.3179241708
 20
1.6536280875
 10
23.2740902301
 20
1.6838292558
 10
23.2333071077
 20
1.7165601262
 10
23.1956327297
 20
1.7516759235
 10
23.1613871369
 20
1.7882015105
 10
23.1308496114
 20
1.8260509294
 10
23.1039768881
 20
1.8652719268
 10
23.0805930757
 20
1.9051047528
 10
23.0607948363
 20
1.9454396582
 10
23.0446221075
 20
1.9863839333
 10
23.0317936891
 20
2.0275124802
 10
23.0222384059
 20
2.0686894992
 10
23.0160972871
 20
2.1100677901
 10
23.0133936023
 20
2.151659243
  0
LWPOLYLINE
  5
295
100
AcDbEntity
  8
RACCORDO
100
AcDbPolyline
 62
253
  6
CONTINUOUS
 90
5
 70
0
 10
-22.40510886
 20
16.5181505991
 10
-22.8575581221
 20
16.8292972326
 10
-22.8621948885
 20
16.8325598607
 10
-22.8648263203
 20
16.8343884112
 10
-22.8656893351
 20
16.8348949521
  0
LWPOLYLINE
  5
296
100
AcDbEntity
  8
RACCORDO
100
AcDbPolyline
 62
253
  6
CONTINUOUS
 90
13
 70
0
 10
16.2338044999
 20
-10.7821457792
 10
16.2578722816
 20
-10.798860218
 10
16.2809559148
 20
-10.8146541374
 10
16.3028027277
 20
-10.8293546585
 10
16.323173587
 20
-10.8428008704
 10
16.3418455147
 20
-10.8548455919
 10
16.3586141293
 20
-10.8653569822
 10
16.3732958829
 20
-10.8742199845
 10
16.3857300702
 20
-10.881337585
 10
16.3957805876
 20
-10.8866318749
 10
16.4033374227
 20
-10.8900449033
 10
16.4083178592
 20
-10.8915393114
 10
16.4106673816
 20
-10.8910987414
  0
LINE
  5
297
100
AcDbEntity
  8
RACCORDO
100
AcDbLine
 62
7
  6
CONTINUOUS
 10
16.8631841266
 20
-11.5906917945
 11
16.4770369043
 21
-11.3101394154
  0
LINE
  5
298
100
AcDbEntity
  8
RACCORDO
100
AcDbLine
 62
7
  6
CONTINUOUS
 10
-22.032172028
 20
16.6684385937
 11
-22.4183192503
 21
16.9489909727
  0
LWPOLYLINE
  5
299
100
AcDbEntity
  8
RACCORDO
100
AcDbPolyline
 62
253
  6
CONTINUOUS
 90
13
 70
0
 10
-21.4548572864
 20
16.6002698338
 10
-21.4781915523
 20
16.6179947003
 10
-21.5003462039
 20
16.6350680856
 10
-21.5210787301
 20
16.6513030964
 10
-21.5401621867
 20
16.666522016
 10
-21.5573876811
 20
16.6805582502
 10
-21.5725666587
 20
16.6932581508
 10
-21.5855329669
 20
16.7044826972
 10
-21.596144674
 20
16.7141090187
 10
-21.6042856226
 20
16.7220317389
 10
-21.6098667013
 20
16.7281641297
 10
-21.6128268202
 20
16.7324390604
 10
-21.613133579
 20
16.7348097325
  0
LWPOLYLINE
  5
29A
100
AcDbEntity
  8
RACCORDO
100
AcDbPolyline
 62
253
  6
CONTINUOUS
 90
22
 70
0
 10
16.4493483466
 20
-11.711264964
 10
16.406744169
 20
-11.6762732782
 10
16.3666161138
 20
-11.6384287182
 10
16.3291225022
 20
-11.5979368856
 10
16.2943141317
 20
-11.5548316762
 10
16.2624118644
 20
-11.5094431325
 10
16.2338404355
 20
-11.4624308516
 10
16.2088441189
 20
-11.4138838582
 10
16.1874356379
 20
-11.3640501592
 10
16.1697253997
 20
-11.3138506599
 10
16.1559704295
 20
-11.2633978874
 10
16.1461325018
 20
-11.2128429996
 10
16.1398973408
 20
-11.1631629823
 10
16.1374404656
 20
-11.1145912328
 10
16.138754839
 20
-11.0670639947
 10
16.1432512802
 20
-11.02109341
 10
16.1509436309
 20
-10.9768253813
 10
16.1619271404
 20
-10.9341962941
 10
16.1757237295
 20
-10.8933847747
 10
16.1921957572
 20
-10.8544588504
 10
16.2115473761
 20
-10.8173777989
 10
16.233804403
 20
-10.78214568
  0
LWPOLYLINE
  5
29B
100
AcDbEntity
  8
RACCORDO
100
AcDbPolyline
 62
253
  6
CONTINUOUS
 90
6
 70
0
 10
16.8929173216
 20
-12.0514236383
 10
16.8921733837
 20
-12.0507621
 10
16.8896323143
 20
-12.0488331772
 10
16.885112944
 20
-12.0454447274
 10
16.8784571623
 20
-12.0403643077
 10
16.4493483466
 20
-11.711264964
  0
LINE
  5
29C
100
AcDbEntity
  8
RACCORDO
100
AcDbLine
 62
253
  6
CONTINUOUS
 10
11.62505529
 20
-21.0164307558
 11
11.1841465667
 21
-20.1188788088
  0
LWPOLYLINE
  5
29D
100
AcDbEntity
  8
RACCORDO
100
AcDbPolyline
 62
253
  6
CONTINUOUS
 90
6
 70
0
 10
24.2926900196
 20
1.5122086573
 10
24.2916993187
 20
1.5123065773
 10
24.288509758
 20
1.5123735054
 10
24.2828618298
 20
1.5124583997
 10
24.2744909935
 20
1.5126563754
 10
23.7338949284
 20
1.5266795037
  0
LINE
  5
29E
100
AcDbEntity
  8
RACCORDO
100
AcDbLine
 62
253
  6
CONTINUOUS
 10
15.5603747475
 20
-15.7480031164
 11
14.9737134516
 21
-14.9381707116
  0
LWPOLYLINE
  5
29F
100
AcDbEntity
  8
RACCORDO
100
AcDbPolyline
 62
253
  6
CONTINUOUS
 90
5
 70
0
 10
11.5071637225
 20
-15.3019722747
 10
11.6903154621
 20
-15.8196381927
 10
11.6921489603
 20
-15.8250031372
 10
11.6932030384
 20
-15.8280291824
 10
11.6936034947
 20
-15.82894625
  0
LWPOLYLINE
  5
2A0
100
AcDbEntity
  8
RACCORDO
100
AcDbPolyline
 62
253
  6
CONTINUOUS
 90
22
 70
0
 10
-3.333918316
 20
30.3741815889
 10
-3.3200184092
 20
30.3208306131
 10
-3.3097986048
 20
30.2666270419
 10
-3.3032661379
 20
30.2118302692
 10
-3.300442181
 20
30.1564975755
 10
-3.3013114212
 20
30.1010257901
 10
-3.305829775
 20
30.0461981913
 10
-3.3141425369
 20
29.9922303824
 10
-3.3261142253
 20
29.9393304836
 10
-3.341292867
 20
29.8883084188
 10
-3.3598202579
 20
29.8394062997
 10
-3.3815766247
 20
29.7927239475
 10
-3.405733455
 20
29.7488670336
 10
-3.4322955593
 20
29.7081275478
 10
-3.4612947193
 20
29.6704497737
 10
-3.4919532484
 20
29.6359017314
 10
-3.5241965853
 20
29.6046095941
 10
-3.5581391798
 20
29.576577883
 10
-3.5932892641
 20
29.5516701019
 10
-3.6294954987
 20
29.5298603825
 10
-3.6669469825
 20
29.5112357779
 10
-3.7056622154
 20
29.4958147471
  0
LWPOLYLINE
  5
2A1
100
AcDbEntity
  8
RACCORDO
100
AcDbPolyline
 62
253
  6
CONTINUOUS
 90
6
 70
0
 10
-3.4928329028
 20
30.9100990391
 10
-3.4926198869
 20
30.9091265676
 10
-3.4916979109
 20
30.9060724332
 10
-3.4900333443
 20
30.9006747005
 10
-3.4876348997
 20
30.8926523843
 10
-3.333918316
 20
30.3741815889
  0
LINE
  5
2A2
100
AcDbEntity
  8
RACCORDO
100
AcDbLine
 62
253
  6
CONTINUOUS
 10
-14.7225146869
 20
-17.2971651409
 11
-13.8564892831
 21
-16.7971651409
  0
LWPOLYLINE
  5
2A3
100
AcDbEntity
  8
RACCORDO
100
AcDbPolyline
 62
253
  6
CONTINUOUS
 90
6
 70
0
 10
-24.8516504988
 20
10.7227349731
 10
-24.850659798
 20
10.7226370531
 10
-24.8474702373
 20
10.722570125
 10
-24.8418223091
 20
10.7224852307
 10
-24.8334514728
 20
10.722287255
 10
-24.2928554077
 20
10.7082641267
  0
LWPOLYLINE
  5
2A4
100
AcDbEntity
  8
RACCORDO
100
AcDbPolyline
 62
253
  6
CONTINUOUS
 90
22
 70
0
 10
-17.0083088258
 20
23.9462085944
 10
-16.9657046482
 20
23.9112169086
 10
-16.925576593
 20
23.8733723486
 10
-16.8880829814
 20
23.832880516
 10
-16.853274611
 20
23.7897753066
 10
-16.8213723437
 20
23.7443867629
 10
-16.7928009147
 20
23.697374482
 10
-16.7678045982
 20
23.6488274887
 10
-16.7463961172
 20
23.5989937896
 10
-16.728685879
 20
23.5487942903
 10
-16.7149309087
 20
23.4983415178
 10
-16.705092981
 20
23.44778663
 10
-16.6988578201
 20
23.3981066127
 10
-16.6964009449
 20
23.3495348632
 10
-16.6977153182
 20
23.3020076251
 10
-16.7022117595
 20
23.2560370405
 10
-16.7099041102
 20
23.2117690117
 10
-16.7208876196
 20
23.1691399246
 10
-16.7346842087
 20
23.1283284051
 10
-16.7511562365
 20
23.0894024808
 10
-16.7705078554
 20
23.0523214293
 10
-16.7927648823
 20
23.0170893104
  0
LWPOLYLINE
  5
2A5
100
AcDbEntity
  8
RACCORDO
100
AcDbPolyline
 62
253
  6
CONTINUOUS
 90
6
 70
0
 10
-17.4518778008
 20
24.2863672687
 10
-17.4511338629
 20
24.2857057304
 10
-17.4485927935
 20
24.2837768077
 10
-17.4440734232
 20
24.2803883579
 10
-17.4374176416
 20
24.2753079381
 10
-17.0083088258
 20
23.9462085944
  0
LWPOLYLINE
  5
2A6
100
AcDbEntity
  8
RACCORDO
100
AcDbPolyline
 62
253
  6
CONTINUOUS
 90
13
 70
0
 10
-3.7056622409
 20
29.4958149214
 10
-3.7153089871
 20
29.5234838776
 10
-3.7247006076
 20
29.5498296492
 10
-3.7337343026
 20
29.5745638571
 10
-3.7423111899
 20
29.5974157625
 10
-3.7503373875
 20
29.61813523
 10
-3.7577250415
 20
29.6364954657
 10
-3.764393287
 20
29.6522954999
 10
-3.770269134
 20
29.6653623864
 10
-3.7752882659
 20
29.6755530961
 10
-3.7793957438
 20
29.6827560821
 10
-3.7825466075
 20
29.686892501
 10
-3.7847063681
 20
29.6879170759
  0
LINE
  5
2A7
100
AcDbEntity
  8
RACCORDO
100
AcDbLine
 62
7
  6
CONTINUOUS
 10
-3.7395896257
 20
30.5198824141
 11
-3.5920945115
 21
30.0659391291
  0
LINE
  5
2A8
100
AcDbEntity
  8
RACCORDO
100
AcDbLine
 62
7
  6
CONTINUOUS
 10
11.1171144208
 20
-15.2043510465
 11
11.264609535
 21
-15.6582943315
  0
LWPOLYLINE
  5
2A9
100
AcDbEntity
  8
RACCORDO
100
AcDbPolyline
 62
253
  6
CONTINUOUS
 90
13
 70
0
 10
10.6901255698
 20
-14.8098642595
 10
10.698584939
 20
-14.8379194995
 10
10.7064729169
 20
-14.8647543189
 10
10.7137031613
 20
-14.8900749739
 10
10.7201965296
 20
-14.9136042953
 10
10.7258819459
 20
-14.9350847225
 10
10.7306971783
 20
-14.9542811224
 10
10.7345895206
 20
-14.9709833638
 10
10.7375163689
 20
-14.9850086175
 10
10.7394456881
 20
-14.9962033572
 10
10.7403563627
 20
-15.0044450403
 10
10.7402384274
 20
-15.0096434495
 10
10.739093177
 20
-15.0117416802
  0
LINE
  5
2AA
100
AcDbEntity
  8
RACCORDO
100
AcDbLine
 62
253
  6
CONTINUOUS
 10
-13.0342491302
 20
-20.2213268617
 11
-12.1682237264
 21
-19.7213268617
  0
LWPOLYLINE
  5
2AB
100
AcDbEntity
  8
RACCORDO
100
AcDbPolyline
 62
253
  6
CONTINUOUS
 90
5
 70
0
 10
23.7338949284
 20
10.7082641267
 10
24.2828214731
 20
10.7224842162
 10
24.2884904206
 20
10.7225701175
 10
24.2916940887
 20
10.7226375059
 10
24.2926900196
 20
10.7227349731
  0
LWPOLYLINE
  5
2AC
100
AcDbEntity
  8
RACCORDO
100
AcDbPolyline
 62
253
  6
CONTINUOUS
 90
13
 70
0
 10
-23.572354331
 20
10.0832844299
 10
-23.6016500903
 20
10.0826600051
 10
-23.6296085859
 20
10.0818693326
 10
-23.6559237858
 20
10.0809210672
 10
-23.6803076456
 20
10.0798255883
 10
-23.7024932609
 20
10.078594887
 10
-23.7222377894
 20
10.0772424343
 10
-23.7393251087
 20
10.075783034
 10
-23.753568182
 20
10.0742326605
 10
-23.7648111056
 20
10.0726082841
 10
-23.772930815
 20
10.070927685
 10
-23.7778384325
 20
10.0692092588
 10
-23.7794802396
 20
10.0674718152
  0
LINE
  5
2AD
100
AcDbEntity
  8
RACCORDO
100
AcDbLine
 62
7
  6
CONTINUOUS
 10
-24.5567844557
 20
10.3674718152
 11
-24.0794802396
 21
10.3674718152
  0
LINE
  5
2AE
100
AcDbEntity
  8
RACCORDO
100
AcDbLine
 62
7
  6
CONTINUOUS
 10
23.5205197604
 20
10.3674718152
 11
23.9978239765
 21
10.3674718152
  0
LWPOLYLINE
  5
2AF
100
AcDbEntity
  8
RACCORDO
100
AcDbPolyline
 62
253
  6
CONTINUOUS
 90
13
 70
0
 10
23.0133937196
 20
10.0832844074
 10
23.0426899273
 20
10.0826601996
 10
23.0706488764
 20
10.0818696972
 10
23.0969645187
 20
10.0809215555
 10
23.1213487943
 20
10.0798261555
 10
23.1435347847
 20
10.0785954907
 10
23.1632796346
 20
10.0772430351
 10
23.1803672101
 20
10.0757835961
 10
23.1946104649
 20
10.0742331525
 10
23.2058534874
 20
10.0726086794
 10
23.2139732078
 20
10.0709279622
 10
23.2188807448
 20
10.0692094023
 10
23.2205223788
 20
10.0674718155
  0
LWPOLYLINE
  5
2B0
100
AcDbEntity
  8
RACCORDO
100
AcDbPolyline
 62
253
  6
CONTINUOUS
 90
22
 70
0
 10
-24.2928554077
 20
10.7082641267
 10
-24.2378216828
 20
10.7049974958
 10
-24.1831142699
 20
10.6979675942
 10
-24.1289820838
 20
10.6872476924
 10
-24.0754861405
 20
10.6728353623
 10
-24.0229990871
 20
10.654867777
 10
-23.9722521845
 20
10.6336288659
 10
-23.9234953476
 20
10.6090470686
 10
-23.87688465
 20
10.5813155429
 10
-23.8330507094
 20
10.5511143746
 10
-23.7922675869
 20
10.5183835042
 10
-23.7545932089
 20
10.4832677069
 10
-23.7203476162
 20
10.4467421199
 10
-23.6898100906
 20
10.408892701
 10
-23.6629373674
 20
10.3696717036
 10
-23.6395535549
 20
10.3298388776
 10
-23.6197553155
 20
10.2895039722
 10
-23.6035825868
 20
10.2485596971
 10
-23.5907541684
 20
10.2074311502
 10
-23.5811988852
 20
10.1662541312
 10
-23.5750577664
 20
10.1248758403
 10
-23.5723540816
 20
10.0832843874
  0
LWPOLYLINE
  5
2B1
100
AcDbEntity
  8
RACCORDO
100
AcDbPolyline
 62
253
  6
CONTINUOUS
 90
5
 70
0
 10
21.8461483807
 20
-4.2832069687
 10
22.2985976428
 20
-4.5943536022
 10
22.3032344093
 20
-4.5976162303
 10
22.3058658411
 20
-4.5994447808
 10
22.3067288559
 20
-4.5999513217
  0
LWPOLYLINE
  5
2B2
100
AcDbEntity
  8
RACCORDO
100
AcDbPolyline
 62
253
  6
CONTINUOUS
 90
13
 70
0
 10
-16.7927649792
 20
23.0170894096
 10
-16.8168327609
 20
23.0338038484
 10
-16.839916394
 20
23.0495977678
 10
-16.861763207
 20
23.0642982889
 10
-16.8821340662
 20
23.0777445008
 10
-16.9008059939
 20
23.0897892223
 10
-16.9175746086
 20
23.1003006126
 10
-16.9322563622
 20
23.1091636149
 10
-16.9446905495
 20
23.1162812154
 10
-16.9547410668
 20
23.1215755053
 10
-16.962297902
 20
23.1249885337
 10
-16.9672783385
 20
23.1264829418
 10
-16.9696278609
 20
23.1260423719
  0
LINE
  5
2B3
100
AcDbEntity
  8
RACCORDO
100
AcDbLine
 62
7
  6
CONTINUOUS
 10
-17.4221446058
 20
23.8256354249
 11
-17.0359973835
 21
23.5450830459
  0
LINE
  5
2B4
100
AcDbEntity
  8
RACCORDO
100
AcDbLine
 62
7
  6
CONTINUOUS
 10
21.4732115487
 20
-4.4334949633
 11
21.859358771
 21
-4.7140473423
  0
LWPOLYLINE
  5
2B5
100
AcDbEntity
  8
RACCORDO
100
AcDbPolyline
 62
253
  6
CONTINUOUS
 90
13
 70
0
 10
20.8958968072
 20
-4.3653262033
 10
20.919231073
 20
-4.3830510699
 10
20.9413857247
 20
-4.4001244552
 10
20.9621182509
 20
-4.416359466
 10
20.9812017075
 20
-4.4315783855
 10
20.9984272018
 20
-4.4456146198
 10
21.0136061794
 20
-4.4583145204
 10
21.0265724876
 20
-4.4695390668
 10
21.0371841947
 20
-4.4791653883
 10
21.0453251433
 20
-4.4870881085
 10
21.0509062221
 20
-4.4932204993
 10
21.0538663409
 20
-4.49749543
 10
21.0541730997
 20
-4.4998661021
  0
LINE
  5
2B6
100
AcDbEntity
  8
RACCORDO
100
AcDbLine
 62
253
  6
CONTINUOUS
 10
3.1467017361
 20
-17.2608711167
 11
4.0442890106
 21
-16.9437904511
  0
LINE
  5
2B7
100
AcDbEntity
  8
RACCORDO
100
AcDbLine
 62
253
  6
CONTINUOUS
 10
4.0442890106
 20
-16.9437904511
 11
4.8588994457
 21
-16.6620893616
  0
LINE
  5
2B8
100
AcDbEntity
  8
RACCORDO
100
AcDbLine
 62
253
  6
CONTINUOUS
 10
4.8588994457
 20
-16.6620893616
 11
5.4768835258
 21
-16.4520802055
  0
LINE
  5
2B9
100
AcDbEntity
  8
RACCORDO
100
AcDbLine
 62
253
  6
CONTINUOUS
 10
5.4768835258
 20
-16.4520802055
 11
6.1035639759
 21
-16.2423852753
  0
LINE
  5
2BA
100
AcDbEntity
  8
RACCORDO
100
AcDbLine
 62
253
  6
CONTINUOUS
 10
6.1035639759
 20
-16.2423852753
 11
6.7291680156
 21
-16.0364438168
  0
LINE
  5
2BB
100
AcDbEntity
  8
RACCORDO
100
AcDbLine
 62
253
  6
CONTINUOUS
 10
6.7291680156
 20
-16.0364438168
 11
7.3523330843
 21
-15.8347158054
  0
LINE
  5
2BC
100
AcDbEntity
  8
RACCORDO
100
AcDbLine
 62
253
  6
CONTINUOUS
 10
7.3523330843
 20
-15.8347158054
 11
7.9760402897
 21
-15.6361828603
  0
LINE
  5
2BD
100
AcDbEntity
  8
RACCORDO
100
AcDbLine
 62
253
  6
CONTINUOUS
 10
7.9760402897
 20
-15.6361828603
 11
8.6069470407
 21
-15.4387956485
  0
LINE
  5
2BE
100
AcDbEntity
  8
RACCORDO
100
AcDbLine
 62
253
  6
CONTINUOUS
 10
8.6069470407
 20
-15.4387956485
 11
9.2432846809
 21
-15.24310922
  0
LINE
  5
2BF
100
AcDbEntity
  8
RACCORDO
100
AcDbLine
 62
253
  6
CONTINUOUS
 10
9.2432846809
 20
-15.24310922
 11
9.85871057
 21
-15.056661948
  0
LINE
  5
2C0
100
AcDbEntity
  8
RACCORDO
100
AcDbLine
 62
253
  6
CONTINUOUS
 10
9.85871057
 20
-15.056661948
 11
10.6901255146
 21
-14.8098641541
  0
LINE
  5
2C1
100
AcDbEntity
  8
RACCORDO
100
AcDbLine
 62
253
  6
CONTINUOUS
 10
13.2975288038
 20
-16.7971651409
 11
11.6092632472
 21
-19.7213268617
  0
LINE
  5
2C2
100
AcDbEntity
  8
RACCORDO
100
AcDbLine
 62
253
  6
CONTINUOUS
 10
16.233804403
 20
-10.78214568
 11
16.5921554853
 21
-10.2606935701
  0
LINE
  5
2C3
100
AcDbEntity
  8
RACCORDO
100
AcDbLine
 62
253
  6
CONTINUOUS
 10
16.5921554853
 20
-10.2606935701
 11
16.9686028066
 21
-9.7179634961
  0
LINE
  5
2C4
100
AcDbEntity
  8
RACCORDO
100
AcDbLine
 62
253
  6
CONTINUOUS
 10
16.9686028066
 20
-9.7179634961
 11
17.3531720231
 21
-9.1689854268
  0
LINE
  5
2C5
100
AcDbEntity
  8
RACCORDO
100
AcDbLine
 62
253
  6
CONTINUOUS
 10
17.3531720231
 20
-9.1689854268
 11
17.7334294784
 21
-8.6316544313
  0
LINE
  5
2C6
100
AcDbEntity
  8
RACCORDO
100
AcDbLine
 62
253
  6
CONTINUOUS
 10
17.7334294784
 20
-8.6316544313
 11
18.0947789894
 21
-8.1261151101
  0
LINE
  5
2C7
100
AcDbEntity
  8
RACCORDO
100
AcDbLine
 62
253
  6
CONTINUOUS
 10
18.0947789894
 20
-8.1261151101
 11
18.4361452021
 21
-7.6530481527
  0
LINE
  5
2C8
100
AcDbEntity
  8
RACCORDO
100
AcDbLine
 62
7
  6
CONTINUOUS
 10
16.4106673816
 20
-10.8910987414
 11
21.0541708747
 21
-4.4998644859
  0
LINE
  5
2C9
100
AcDbEntity
  8
RACCORDO
100
AcDbLine
 62
253
  6
CONTINUOUS
 10
18.4361452021
 20
-7.6530481527
 11
18.8786567862
 21
-7.0461887248
  0
LINE
  5
2CA
100
AcDbEntity
  8
RACCORDO
100
AcDbLine
 62
253
  6
CONTINUOUS
 10
18.8786567862
 20
-7.0461887248
 11
19.3309693394
 21
-6.4332670149
  0
LINE
  5
2CB
100
AcDbEntity
  8
RACCORDO
100
AcDbLine
 62
253
  6
CONTINUOUS
 10
19.3309693394
 20
-6.4332670149
 11
19.8087075067
 21
-5.7936608101
  0
LINE
  5
2CC
100
AcDbEntity
  8
RACCORDO
100
AcDbLine
 62
253
  6
CONTINUOUS
 10
19.8087075067
 20
-5.7936608101
 11
20.2987686478
 21
-5.1453697923
  0
LWPOLYLINE
  5
2CD
100
AcDbEntity
  8
RACCORDO
100
AcDbPolyline
 62
253
  6
CONTINUOUS
 90
3
 70
0
 10
20.2987686478
 20
-5.1453697923
 10
20.7791599787
 20
-4.5168707795
 10
20.8958966897
 20
-4.3653261452
  0
LWPOLYLINE
  5
2CE
100
AcDbEntity
  8
RACCORDO
100
AcDbPolyline
 62
253
  6
CONTINUOUS
 90
22
 70
0
 10
20.8958966897
 20
-4.3653261452
 10
20.9225362799
 20
-4.333256151
 10
20.9518466717
 20
-4.3033766561
 10
20.9838159248
 20
-4.2756642177
 10
21.0184436657
 20
-4.2499034963
 10
21.0556832343
 20
-4.2262544622
 10
21.0954402928
 20
-4.205252576
 10
21.1377349735
 20
-4.1868129868
 10
21.1824365635
 20
-4.170943772
 10
21.2292047576
 20
-4.1583168442
 10
21.2780431923
 20
-4.148912279
 10
21.3287422334
 20
-4.1426469289
 10
21.3806212515
 20
-4.1401008643
 10
21.4335870956
 20
-4.1413292987
 10
21.4874146727
 20
-4.1461489199
 10
21.54122235
 20
-4.1547956874
 10
21.5947565892
 20
-4.1673212241
 10
21.6478641169
 20
-4.1835295728
 10
21.6998352294
 20
-4.2033053661
 10
21.7502913874
 20
-4.2265632133
 10
21.7991500011
 20
-4.2532287648
 10
21.8461483807
 20
-4.2832069687
  0
LWPOLYLINE
  5
2CF
100
AcDbEntity
  8
RACCORDO
100
AcDbPolyline
 62
253
  6
CONTINUOUS
 90
16
 70
0
 10
11.507160241
 20
-15.3019659476
 10
11.4754092724
 20
-15.3143278637
 10
11.4427140256
 20
-15.324067223
 10
11.4094975405
 20
-15.3310580093
 10
11.3761896011
 20
-15.3352097697
 10
11.3432211746
 20
-15.3364687852
 10
11.3110188355
 20
-15.3348187656
 10
11.2799992459
 20
-15.3302810603
 10
11.2505637645
 20
-15.3229143824
 10
11.2230932533
 20
-15.3128140483
 10
11.1979431499
 20
-15.3001107453
 10
11.1754388684
 20
-15.2849688397
 10
11.155871589
 20
-15.2675842511
 10
11.1394944902
 20
-15.2481819164
 10
11.1265194735
 20
-15.2270128804
 10
11.1171144209
 20
-15.2043510465
  0
LINE
  5
2D0
100
AcDbEntity
  8
RACCORDO
100
AcDbLine
 62
7
  6
CONTINUOUS
 10
3.2257458888
 20
-17.4529734455
 11
10.7390923676
 21
-15.01173919
  0
LINE
  5
2D1
100
AcDbEntity
  8
RACCORDO
100
AcDbLine
 62
253
  6
CONTINUOUS
 10
22.9656788757
 20
7.7362598409
 11
22.9741406895
 21
8.3347684032
  0
LINE
  5
2D2
100
AcDbEntity
  8
RACCORDO
100
AcDbLine
 62
253
  6
CONTINUOUS
 10
22.9741406895
 20
8.3347684032
 11
22.9916366254
 21
9.2299167097
  0
LWPOLYLINE
  5
2D3
100
AcDbEntity
  8
RACCORDO
100
AcDbPolyline
 62
253
  6
CONTINUOUS
 90
3
 70
0
 10
22.9916366254
 20
9.2299167097
 10
23.0055245844
 20
9.8033746351
 10
23.0133936023
 20
10.0832843874
  0
LWPOLYLINE
  5
2D4
100
AcDbEntity
  8
RACCORDO
100
AcDbPolyline
 62
253
  6
CONTINUOUS
 90
22
 70
0
 10
23.0133936023
 20
10.0832843874
 10
23.016040612
 20
10.1245618516
 10
23.0221172659
 20
10.1656919986
 10
23.0316001384
 20
10.2066867285
 10
23.0443481355
 20
10.2477182058
 10
23.0604321294
 20
10.2886315008
 10
23.0801332901
 20
10.3289437439
 10
23.1034273402
 20
10.3687511005
 10
23.130202746
 20
10.4079551424
 10
23.1605914093
 20
10.4457718916
 10
23.1945972644
 20
10.4822188071
 10
23.2319867179
 20
10.5172408454
 10
23.2725216798
 20
10.5499305654
 10
23.3161491887
 20
10.5801737858
 10
23.3625893425
 20
10.6080009751
 10
23.4112702603
 20
10.6327086835
 10
23.4620200587
 20
10.6541077946
 10
23.5145950141
 20
10.6722645537
 10
23.5683448794
 20
10.6868550457
 10
23.6229104809
 20
10.6977257435
 10
23.6781834299
 20
10.7048880035
 10
23.7338949284
 20
10.7082641267
  0
LINE
  5
2D5
100
AcDbEntity
  8
RACCORDO
100
AcDbLine
 62
7
  6
CONTINUOUS
 10
14.1635542076
 20
-17.2971651409
 11
12.475288651
 21
-20.2213268617
  0
LWPOLYLINE
  5
2D6
100
AcDbEntity
  8
RACCORDO
100
AcDbPolyline
 62
253
  6
CONTINUOUS
 90
16
 70
0
 10
21.8461418452
 20
-4.2832038963
 10
21.8277209239
 20
-4.3118676476
 10
21.8069945655
 20
-4.3389647387
 10
21.7842309456
 20
-4.3641445636
 10
21.7597246001
 20
-4.387081324
 10
21.7337926135
 20
-4.4074782438
 10
21.7067705167
 20
-4.4250714099
 10
21.6790079454
 20
-4.4396331865
 10
21.650864116
 20
-4.4509751607
 10
21.6227031782
 20
-4.4589505802
 10
21.5948895029
 20
-4.463456252
 10
21.567782968
 20
-4.4644338778
 10
21.5417343016
 20
-4.4618708084
 10
21.5170805442
 20
-4.4558002071
 10
21.4941406879
 20
-4.4463006207
 10
21.4732115488
 20
-4.4334949632
  0
LWPOLYLINE
  5
2D7
100
AcDbEntity
  8
RACCORDO
100
AcDbPolyline
 62
253
  6
CONTINUOUS
 90
16
 70
0
 10
16.4493601754
 20
-11.7112775688
 10
16.4709277761
 20
-11.6848993876
 10
16.4902928347
 20
-11.6568127919
 10
16.507204791
 20
-11.6273811795
 10
16.5214448241
 20
-11.5969853507
 10
16.532828684
 20
-11.566018581
 10
16.5412090749
 20
-11.5348815329
 10
16.5464775617
 20
-11.5039770719
 10
16.5485659719
 20
-11.4737050537
 10
16.5474472788
 20
-11.4444571509
 10
16.5431359506
 20
-11.4166117853
 10
16.5356877632
 20
-11.3905292316
 10
16.5251990787
 20
-11.3665469561
 10
16.5118055988
 20
-11.34497525
 10
16.4956806088
 20
-11.3260932155
 10
16.4770327355
 20
-11.3101451536
  0
LWPOLYLINE
  5
2D8
100
AcDbEntity
  8
RACCORDO
100
AcDbPolyline
 62
253
  6
CONTINUOUS
 90
16
 70
0
 10
23.7338878352
 20
10.7082627708
 10
23.7358331271
 20
10.6742457631
 10
23.7349924214
 20
10.6401411081
 10
23.7313765958
 20
10.6063900817
 10
23.7250324353
 20
10.5734293843
 10
23.7160420261
 20
10.5416854903
 10
23.7045216942
 20
10.51156913
 10
23.6906204997
 20
10.4834699752
 10
23.6745183086
 20
10.4577515975
 10
23.6564234653
 20
10.4347467636
 10
23.6365700968
 20
10.4147531305
 10
23.6152150834
 20
10.398029393
 10
23.5926347352
 20
10.3847919378
 10
23.5691212166
 20
10.3752120424
 10
23.5449787662
 20
10.3694136601
 10
23.5205197604
 20
10.3674718153
  0
LINE
  5
2D9
100
AcDbEntity
  8
RACCORDO
100
AcDbLine
 62
253
  6
CONTINUOUS
 10
23.0133936023
 20
2.151659243
 11
22.9983277125
 21
2.7140223412
  0
LINE
  5
2DA
100
AcDbEntity
  8
RACCORDO
100
AcDbLine
 62
253
  6
CONTINUOUS
 10
22.9983277125
 20
2.7140223412
 11
22.9795519395
 21
3.5972050816
  0
LINE
  5
2DB
100
AcDbEntity
  8
RACCORDO
100
AcDbLine
 62
253
  6
CONTINUOUS
 10
22.9795519395
 20
3.5972050816
 11
22.9696259168
 21
4.1961352801
  0
LINE
  5
2DC
100
AcDbEntity
  8
RACCORDO
100
AcDbLine
 62
253
  6
CONTINUOUS
 10
22.9696259168
 20
4.1961352801
 11
22.9623866476
 21
4.7931673246
  0
LINE
  5
2DD
100
AcDbEntity
  8
RACCORDO
100
AcDbLine
 62
253
  6
CONTINUOUS
 10
22.9623866476
 20
4.7931673246
 11
22.9578237156
 21
5.3827440171
  0
LINE
  5
2DE
100
AcDbEntity
  8
RACCORDO
100
AcDbLine
 62
253
  6
CONTINUOUS
 10
22.9578237156
 20
5.3827440171
 11
22.9558645708
 21
5.9693308998
  0
LINE
  5
2DF
100
AcDbEntity
  8
RACCORDO
100
AcDbLine
 62
7
  6
CONTINUOUS
 10
23.2205197604
 20
2.1674718152
 11
23.2205197604
 21
10.0674718152
  0
LINE
  5
2E0
100
AcDbEntity
  8
RACCORDO
100
AcDbLine
 62
253
  6
CONTINUOUS
 10
22.9558645708
 20
5.9693308998
 11
22.9565335552
 21
6.5550991775
  0
LINE
  5
2E1
100
AcDbEntity
  8
RACCORDO
100
AcDbLine
 62
253
  6
CONTINUOUS
 10
22.9565335552
 20
6.5550991775
 11
22.9597084203
 21
7.1429140711
  0
LINE
  5
2E2
100
AcDbEntity
  8
RACCORDO
100
AcDbLine
 62
253
  6
CONTINUOUS
 10
22.9597084203
 20
7.1429140711
 11
22.9656788757
 21
7.7362598409
  0
LWPOLYLINE
  5
2E3
100
AcDbEntity
  8
RACCORDO
100
AcDbPolyline
 62
253
  6
CONTINUOUS
 90
16
 70
0
 10
23.7339119069
 20
1.526676259
 10
23.7358557566
 20
1.5606937735
 10
23.7350135313
 20
1.5947988026
 10
23.7313961237
 20
1.6285500757
 10
23.7250503326
 20
1.6615108993
 10
23.7160582581
 20
1.6932548072
 10
23.7045362392
 20
1.7233710785
 10
23.6906333481
 20
1.7514700514
 10
23.6745294616
 20
1.7771881653
 10
23.656432934
 20
1.8001926644
 10
23.6365779009
 20
1.8201859033
 10
23.6152212503
 20
1.8369091977
 10
23.5926392985
 20
1.8501461722
 10
23.5691242149
 20
1.859725559
 10
23.5449802425
 20
1.8655234145
 10
23.5205197606
 20
1.8674647226
  0
LWPOLYLINE
  5
2E4
100
AcDbEntity
  8
RACCORDO
100
AcDbPolyline
 62
253
  6
CONTINUOUS
 90
22
 70
0
 10
3.1467017361
 20
29.4958147471
 10
3.1082624624
 20
29.5110876599
 10
3.0710231175
 20
29.5295768416
 10
3.0349651446
 20
29.5512636906
 10
2.9998812048
 20
29.5760672196
 10
2.9659405459
 20
29.6040069565
 10
2.9336892922
 20
29.6352010962
 10
2.9030284817
 20
29.6696562672
 10
2.8740172603
 20
29.7072359769
 10
2.8474419994
 20
29.7478234053
 10
2.8232873114
 20
29.7914276903
 10
2.8015333603
 20
29.83780966
 10
2.7829696014
 20
29.8864624545
 10
2.7676882639
 20
29.9373004231
 10
2.7555738739
 20
29.9900667747
 10
2.7471187258
 20
30.0440002244
 10
2.7424495752
 20
30.098878885
 10
2.7414280945
 20
30.1544914085
 10
2.7441613742
 20
30.2101191981
 10
2.7506844265
 20
30.2653731993
 10
2.7609529692
 20
30.3201538763
 10
2.7749578368
 20
30.3741815889
  0
LWPOLYLINE
  5
2E5
100
AcDbEntity
  8
RACCORDO
100
AcDbPolyline
 62
253
  6
CONTINUOUS
 90
16
 70
0
 10
16.449343405
 20
23.9462033282
 10
16.4709118747
 20
23.9198264047
 10
16.4902779427
 20
23.8917410048
 10
16.507191034
 20
23.862310522
 10
16.5214323121
 20
23.8319157536
 10
16.5328175111
 20
23.800949974
 10
16.5411993192
 20
23.7698138454
 10
16.5464692854
 20
23.7389102346
 10
16.5485592223
 20
23.7086389995
 10
16.5474420886
 20
23.6793918159
 10
16.5431323388
 20
23.6515471097
 10
16.5356857363
 20
23.62546516
 10
16.5251986319
 20
23.6014834381
 10
16.5118067169
 20
23.5799122404
 10
16.4956832679
 20
23.5610306743
 10
16.4770369042
 20
23.545083046
  0
LINE
  5
2E6
100
AcDbEntity
  8
RACCORDO
100
AcDbLine
 62
253
  6
CONTINUOUS
 10
20.8958966897
 20
16.6002697756
 11
20.5435257994
 21
17.0592781938
  0
LINE
  5
2E7
100
AcDbEntity
  8
RACCORDO
100
AcDbLine
 62
253
  6
CONTINUOUS
 10
20.5435257994
 20
17.0592781938
 11
20.0560194381
 21
17.7005037774
  0
LINE
  5
2E8
100
AcDbEntity
  8
RACCORDO
100
AcDbLine
 62
253
  6
CONTINUOUS
 10
20.0560194381
 20
17.7005037774
 11
19.6902972882
 21
18.186442362
  0
LINE
  5
2E9
100
AcDbEntity
  8
RACCORDO
100
AcDbLine
 62
253
  6
CONTINUOUS
 10
19.6902972882
 20
18.186442362
 11
19.334533632
 21
18.6634072231
  0
LINE
  5
2EA
100
AcDbEntity
  8
RACCORDO
100
AcDbLine
 62
253
  6
CONTINUOUS
 10
19.334533632
 20
18.6634072231
 11
18.882951159
 21
19.2752781715
  0
LINE
  5
2EB
100
AcDbEntity
  8
RACCORDO
100
AcDbLine
 62
7
  6
CONTINUOUS
 10
21.0541708747
 20
16.7348081163
 11
16.4106673816
 21
23.1260423719
  0
LINE
  5
2EC
100
AcDbEntity
  8
RACCORDO
100
AcDbLine
 62
253
  6
CONTINUOUS
 10
18.882951159
 20
19.2752781715
 11
18.4405747261
 21
19.8818819382
  0
LINE
  5
2ED
100
AcDbEntity
  8
RACCORDO
100
AcDbLine
 62
253
  6
CONTINUOUS
 10
18.4405747261
 20
19.8818819382
 11
18.0989244052
 21
20.3552877831
  0
LINE
  5
2EE
100
AcDbEntity
  8
RACCORDO
100
AcDbLine
 62
253
  6
CONTINUOUS
 10
18.0989244052
 20
20.3552877831
 11
17.7367708572
 21
20.8619007302
  0
LINE
  5
2EF
100
AcDbEntity
  8
RACCORDO
100
AcDbLine
 62
253
  6
CONTINUOUS
 10
17.7367708572
 20
20.8619007302
 11
17.3557722358
 21
21.4002361476
  0
LINE
  5
2F0
100
AcDbEntity
  8
RACCORDO
100
AcDbLine
 62
253
  6
CONTINUOUS
 10
17.3557722358
 20
21.4002361476
 11
16.9706901423
 21
21.9499123693
  0
LINE
  5
2F1
100
AcDbEntity
  8
RACCORDO
100
AcDbLine
 62
253
  6
CONTINUOUS
 10
16.9706901423
 20
21.9499123693
 11
16.5936364574
 21
22.4934917063
  0
LINE
  5
2F2
100
AcDbEntity
  8
RACCORDO
100
AcDbLine
 62
253
  6
CONTINUOUS
 10
16.5936364574
 20
22.4934917063
 11
16.233804403
 21
23.0170893104
  0
LWPOLYLINE
  5
2F3
100
AcDbEntity
  8
RACCORDO
100
AcDbPolyline
 62
253
  6
CONTINUOUS
 90
16
 70
0
 10
21.8461639978
 20
16.5181579416
 10
21.8277416138
 20
16.5468212562
 10
21.807013808
 20
16.573917758
 10
21.7842487649
 20
16.5990968541
 10
21.7597410276
 20
16.6220327596
 10
21.733807687
 20
16.6424287135
 10
21.7067842791
 20
16.6600208176
 10
21.6790204433
 20
16.6745814516
 10
21.6508753985
 20
16.6859222175
 10
21.6227132959
 20
16.6938963778
 10
21.5948985068
 20
16.6984007538
 10
21.5677909087
 20
16.6993770604
 10
21.5417412285
 20
16.6968126608
 10
21.517086505
 20
16.6907407294
 10
21.494145728
 20
16.6812398233
 10
21.4732157111
 20
16.668432865
  0
LWPOLYLINE
  5
2F4
100
AcDbEntity
  8
RACCORDO
100
AcDbPolyline
 62
253
  6
CONTINUOUS
 90
22
 70
0
 10
16.233804403
 20
23.0170893104
 10
16.2116835702
 20
23.0520393946
 10
16.1924239756
 20
23.0888861946
 10
16.1759996728
 20
23.1276255686
 10
16.1621953178
 20
23.1683138675
 10
16.1511593133
 20
23.2108674083
 10
16.1434029562
 20
23.2550608088
 10
16.1388500808
 20
23.3009575998
 10
16.1374683088
 20
23.3484125917
 10
16.139825163
 20
23.3968690575
 10
16.1459135656
 20
23.4463434345
 10
16.1555768872
 20
23.4966538878
 10
16.1691558858
 20
23.5469263291
 10
16.1866748323
 20
23.5970372544
 10
16.2078893682
 20
23.6468467895
 10
16.2327502961
 20
23.6954496781
 10
16.2612297413
 20
23.7425919051
 10
16.2930915671
 20
23.788183793
 10
16.3280000312
 20
23.8315810386
 10
16.3657547784
 20
23.8724483107
 10
16.4062614781
 20
23.9107311114
 10
16.4493483466
 20
23.9462085944
  0
LWPOLYLINE
  5
2F5
100
AcDbEntity
  8
RACCORDO
100
AcDbPolyline
 62
253
  6
CONTINUOUS
 90
16
 70
0
 10
-3.3339204768
 20
30.3741987392
 10
-3.3668737382
 20
30.36553546
 10
-3.3990492865
 20
30.3541954226
 10
-3.4300308142
 20
30.3403253465
 10
-3.4594174629
 20
30.3241046859
 10
-3.4868290096
 20
30.3057433078
 10
-3.5119107859
 20
30.285478777
 10
-3.5343382677
 20
30.2635732817
 10
-3.5538212729
 20
30.2403102412
 10
-3.5701077171
 20
30.2159906395
 10
-3.5829868745
 20
30.1909291304
 10
-3.5922921047
 20
30.1654499665
 10
-3.5979030086
 20
30.1398828039
 10
-3.5997469864
 20
30.1145584372
 10
-3.5978001769
 20
30.089804519
 10
-3.592087766
 20
30.0659413211
  0
LWPOLYLINE
  5
2F6
100
AcDbEntity
  8
RACCORDO
100
AcDbPolyline
 62
253
  6
CONTINUOUS
 90
22
 70
0
 10
-11.2490859938
 20
27.0448077845
 10
-11.2891612124
 20
27.0345697922
 10
-11.3301561437
 20
27.0276391167
 10
-11.3720748664
 20
27.0239898014
 10
-11.4150375186
 20
27.0234344554
 10
-11.4589186538
 20
27.0260883587
 10
-11.5033459214
 20
27.0323681366
 10
-11.5484032795
 20
27.0422209832
 10
-11.5939626498
 20
27.0555712389
 10
-11.6393191793
 20
27.0727866118
 10
-11.6844906881
 20
27.0938654501
 10
-11.729352642
 20
27.1186026001
 10
-11.7729684335
 20
27.1470520339
 10
-11.8152131034
 20
27.1791986697
 10
-11.8560291341
 20
27.2147668851
 10
-11.8945707789
 20
27.2534301511
 10
-11.9306050684
 20
27.2950834623
 10
-11.9641196849
 20
27.3394745276
 10
-11.9946056095
 20
27.3860849363
 10
-12.0218058364
 20
27.4346205162
 10
-12.0456976848
 20
27.4849747129
 10
-12.0661242017
 20
27.5369159051
  0
LWPOLYLINE
  5
2F7
100
AcDbEntity
  8
RACCORDO
100
AcDbPolyline
 62
253
  6
CONTINUOUS
 90
16
 70
0
 10
2.7749569344
 20
30.3741744239
 10
2.8079101595
 20
30.365512673
 10
2.8400858215
 20
30.3541741963
 10
2.8710676036
 20
30.3403057011
 10
2.9004546362
 20
30.3240866302
 10
2.9278666842
 20
30.3057268403
 10
2.9529490666
 20
30.2854638864
 10
2.9753772455
 20
30.2635599485
 10
2.9948610256
 20
30.2402984389
 10
3.0111483086
 20
30.2159803357
 10
3.0240283554
 20
30.1909202877
 10
3.0333345128
 20
30.165442544
 10
3.0389463696
 20
30.1398767581
 10
3.0407913146
 20
30.1145537225
 10
3.0388454765
 20
30.0898010891
 10
3.0331340321
 20
30.0659391292
  0
LINE
  5
2F8
100
AcDbEntity
  8
RACCORDO
100
AcDbLine
 62
253
  6
CONTINUOUS
 10
10.6901255146
 20
27.0448077845
 11
9.8601283627
 21
27.291189011
  0
LINE
  5
2F9
100
AcDbEntity
  8
RACCORDO
100
AcDbLine
 62
253
  6
CONTINUOUS
 10
9.8601283627
 20
27.291189011
 11
9.24394781
 21
27.4778503847
  0
LINE
  5
2FA
100
AcDbEntity
  8
RACCORDO
100
AcDbLine
 62
253
  6
CONTINUOUS
 10
9.24394781
 20
27.4778503847
 11
8.6074830719
 21
27.6735708774
  0
LINE
  5
2FB
100
AcDbEntity
  8
RACCORDO
100
AcDbLine
 62
253
  6
CONTINUOUS
 10
8.6074830719
 20
27.6735708774
 11
7.976771702
 21
27.8708958959
  0
LINE
  5
2FC
100
AcDbEntity
  8
RACCORDO
100
AcDbLine
 62
253
  6
CONTINUOUS
 10
7.976771702
 20
27.8708958959
 11
7.353101604
 21
28.0694130834
  0
LINE
  5
2FD
100
AcDbEntity
  8
RACCORDO
100
AcDbLine
 62
7
  6
CONTINUOUS
 10
10.7390923676
 20
27.2466828204
 11
3.2257458888
 21
29.6879170759
  0
LINE
  5
2FE
100
AcDbEntity
  8
RACCORDO
100
AcDbLine
 62
253
  6
CONTINUOUS
 10
7.353101604
 20
28.0694130834
 11
6.7299131924
 21
28.2711442573
  0
LINE
  5
2FF
100
AcDbEntity
  8
RACCORDO
100
AcDbLine
 62
253
  6
CONTINUOUS
 10
6.7299131924
 20
28.2711442573
 11
6.1042934282
 21
28.4770872434
  0
LINE
  5
300
100
AcDbEntity
  8
RACCORDO
100
AcDbLine
 62
253
  6
CONTINUOUS
 10
6.1042934282
 20
28.4770872434
 11
5.4776941267
 21
28.6867492364
  0
LINE
  5
301
100
AcDbEntity
  8
RACCORDO
100
AcDbLine
 62
253
  6
CONTINUOUS
 10
5.4776941267
 20
28.6867492364
 11
4.8599394137
 21
28.89667578
  0
LINE
  5
302
100
AcDbEntity
  8
RACCORDO
100
AcDbLine
 62
253
  6
CONTINUOUS
 10
4.8599394137
 20
28.89667578
 11
4.0450425148
 21
29.1784717671
  0
LINE
  5
303
100
AcDbEntity
  8
RACCORDO
100
AcDbLine
 62
253
  6
CONTINUOUS
 10
4.0450425148
 20
29.1784717671
 11
3.1467017361
 21
29.4958147471
  0
LWPOLYLINE
  5
304
100
AcDbEntity
  8
RACCORDO
100
AcDbPolyline
 62
253
  6
CONTINUOUS
 90
16
 70
0
 10
11.507172055
 20
27.5369310501
 10
11.4754201587
 20
27.549291751
 10
11.4427240867
 20
27.5590297808
 10
11.409506878
 20
27.5660191387
 10
11.3761983147
 20
27.5701693873
 10
11.3432293604
 20
27.5714268232
 10
11.3110265847
 20
27.5697751717
 10
11.2800066438
 20
27.5652357967
 10
11.2505708893
 20
27.5578674247
 10
11.223100176
 20
27.5477653854
 10
11.1979499333
 20
27.5350603774
 10
11.1754455671
 20
27.5199167778
 10
11.1558782494
 20
27.5025305154
 10
11.1395011507
 20
27.4831265353
 10
11.1265261647
 20
27.4619558889
 10
11.1171211663
 20
27.4392924854
  0
LINE
  5
305
100
AcDbEntity
  8
0
100
AcDbLine
 62
7
  6
CONTINUOUS
 10
2.2205197604
 20
-49.3968493797
 11
-2.7794802396
 21
-49.3968493797
  0
LINE
  5
306
100
AcDbEntity
  8
0
100
AcDbLine
 62
7
  6
CONTINUOUS
 10
2.2205197604
 20
-46.6968493797
 11
1.7205197604
 21
-46.6968493797
  0
LINE
  5
307
100
AcDbEntity
  8
0
100
AcDbLine
 62
7
  6
CONTINUOUS
 10
-2.2794802396
 20
-46.6968493797
 11
-2.7794802396
 21
-46.6968493797
  0
LINE
  5
308
100
AcDbEntity
  8
0
100
AcDbLine
 62
7
  6
CONTINUOUS
 10
-2.7794802396
 20
-49.3968493797
 11
-2.7794802396
 21
-43.6968493797
  0
LINE
  5
309
100
AcDbEntity
  8
0
100
AcDbLine
 62
7
  6
CONTINUOUS
 10
-2.2794802396
 20
-36.0691797817
 11
-2.2794802396
 21
-43.3968493797
  0
LINE
  5
30A
100
AcDbEntity
  8
0
100
AcDbLine
 62
7
  6
CONTINUOUS
 10
-2.2794802396
 20
-43.6968493797
 11
-2.2794802396
 21
-49.3968493797
  0
LINE
  5
30B
100
AcDbEntity
  8
RACCORDO
100
AcDbLine
 62
7
  6
CONTINUOUS
 10
-1.9294802396
 20
-43.6187215456
 11
-1.9294802396
 21
-43.6968493797
  0
LINE
  5
30C
100
AcDbEntity
  8
0
100
AcDbLine
 62
7
  6
CONTINUOUS
 10
2.2205197604
 20
-45.6968493797
 11
1.7205197604
 21
-45.6968493797
  0
LINE
  5
30D
100
AcDbEntity
  8
0
100
AcDbLine
 62
7
  6
CONTINUOUS
 10
-2.2794802396
 20
-45.6968493797
 11
-2.7794802396
 21
-45.6968493797
  0
LINE
  5
30E
100
AcDbEntity
  8
0
100
AcDbLine
 62
7
  6
CONTINUOUS
 10
1.3205197604
 20
-44.4968493797
 11
-1.8794802396
 21
-44.4968493797
  0
LINE
  5
30F
100
AcDbEntity
  8
0
100
AcDbLine
 62
7
  6
CONTINUOUS
 10
-1.8794802396
 20
-49.3968493797
 11
-1.8794802396
 21
-43.6968493797
  0
LINE
  5
310
100
AcDbEntity
  8
RACCORDO
100
AcDbLine
 62
7
  6
CONTINUOUS
 10
-1.7794802396
 20
-43.6187215456
 11
-1.7794802396
 21
-43.6968493797
  0
LINE
  5
311
100
AcDbEntity
  8
0
100
AcDbLine
 62
7
  6
CONTINUOUS
 10
-1.7294802396
 20
-43.6968493797
 11
-1.7294802396
 21
-43.3968493797
  0
LINE
  5
312
100
AcDbEntity
  8
ASSI
100
AcDbLine
 62
7
  6
CONTINUOUS
 10
-1.7294802396
 20
-43.3968493797
 11
-1.7294802396
 21
-43.6968493797
  0
LINE
  5
313
100
AcDbEntity
  8
RACCORDO
100
AcDbLine
 62
7
  6
CONTINUOUS
 10
-1.2794802396
 20
-43.6968493797
 11
-1.2794802396
 21
-43.6763516908
  0
LINE
  5
314
100
AcDbEntity
  8
RACCORDO
100
AcDbLine
 62
7
  6
CONTINUOUS
 10
-1.1294802396
 20
-43.6763516908
 11
-1.1294802396
 21
-43.6968493797
  0
LINE
  5
315
100
AcDbEntity
  8
0
100
AcDbLine
 62
7
  6
CONTINUOUS
 10
-0.8294802396
 20
-43.6968493797
 11
-0.8294802396
 21
-43.3968493797
  0
LINE
  5
316
100
AcDbEntity
  8
ASSI
100
AcDbLine
 62
7
  6
CONTINUOUS
 10
-0.8294802396
 20
-43.3968493797
 11
-0.8294802396
 21
-43.6968493797
  0
LINE
  5
317
100
AcDbEntity
  8
0
100
AcDbLine
 62
7
  6
CONTINUOUS
 10
-0.7294802396
 20
-43.6968493797
 11
-0.7294802396
 21
-43.3968493797
  0
LINE
  5
318
100
AcDbEntity
  8
ASSI
100
AcDbLine
 62
7
  6
CONTINUOUS
 10
-0.7294802396
 20
-43.3968493797
 11
-0.7294802396
 21
-43.6968493797
  0
LINE
  5
319
100
AcDbEntity
  8
RACCORDO
100
AcDbLine
 62
7
  6
CONTINUOUS
 10
-0.6794802396
 20
-43.6968493797
 11
-0.6794802396
 21
-43.6763516908
  0
LINE
  5
31A
100
AcDbEntity
  8
RACCORDO
100
AcDbLine
 62
7
  6
CONTINUOUS
 10
-0.5294802396
 20
-43.6763516908
 11
-0.5294802396
 21
-43.6968493797
  0
LWPOLYLINE
  5
31B
100
AcDbEntity
  8
0
100
AcDbPolyline
 62
7
  6
CONTINUOUS
 90
7
 70
0
 10
-1.7294802396
 20
-43.6111456502
 10
-1.7434621958
 20
-43.6120134524
 10
-1.7560398609
 20
-43.613111456
 10
-1.7660404894
 20
-43.6143407102
 10
-1.7730974427
 20
-43.6156697381
 10
-1.7775773595
 20
-43.6171300166
 10
-1.7794802396
 20
-43.6187215456
  0
LWPOLYLINE
  5
31C
100
AcDbEntity
  8
0
100
AcDbPolyline
 62
7
  6
CONTINUOUS
 90
7
 70
0
 10
-1.8042981645
 20
-43.5997705063
 10
-1.83943513
 20
-43.6019513126
 10
-1.8708792928
 20
-43.6046963216
 10
-1.8958808639
 20
-43.607769457
 10
-1.9135232474
 20
-43.6110920268
 10
-1.9247230393
 20
-43.614742723
 10
-1.9294802396
 20
-43.6187215456
  0
LWPOLYLINE
  5
31D
100
AcDbEntity
  8
0
100
AcDbPolyline
 62
7
  6
CONTINUOUS
 90
3
 70
0
 10
-1.7294802396
 20
-43.5973689091
 10
-1.7663849924
 20
-43.5982325948
 10
-1.8042981645
 20
-43.5997705063
  0
LINE
  5
31E
100
AcDbEntity
  8
0
100
AcDbLine
 62
7
  6
CONTINUOUS
 10
2.2205197604
 20
-43.6968493797
 11
-2.7794802396
 21
-43.6968493797
  0
LINE
  5
31F
100
AcDbEntity
  8
RACCORDO
100
AcDbLine
 62
253
  6
CONTINUOUS
 10
1.3705197604
 20
-43.6763516908
 11
1.2205197604
 21
-43.6763516908
  0
LINE
  5
320
100
AcDbEntity
  8
RACCORDO
100
AcDbLine
 62
253
  6
CONTINUOUS
 10
0.1205197604
 20
-43.6763516908
 11
-0.0294802396
 21
-43.6763516908
  0
LINE
  5
321
100
AcDbEntity
  8
RACCORDO
100
AcDbLine
 62
253
  6
CONTINUOUS
 10
-0.5294802396
 20
-43.6763516908
 11
-0.6794802396
 21
-43.6763516908
  0
LINE
  5
322
100
AcDbEntity
  8
RACCORDO
100
AcDbLine
 62
253
  6
CONTINUOUS
 10
-1.7794802396
 20
-43.6763516908
 11
-1.9294802396
 21
-43.6763516908
  0
LINE
  5
323
100
AcDbEntity
  8
0
100
AcDbLine
 62
7
  6
CONTINUOUS
 10
1.7205197604
 20
-43.3968493797
 11
-2.2794802396
 21
-43.3968493797
  0
LINE
  5
324
100
AcDbEntity
  8
0
100
AcDbLine
 62
7
  6
CONTINUOUS
 10
1.2074238434
 20
-43.5982325566
 11
1.1705197604
 21
-43.5973688922
  0
LINE
  5
325
100
AcDbEntity
  8
RACCORDO
100
AcDbLine
 62
7
  6
CONTINUOUS
 10
-0.0294802396
 20
-43.6968493797
 11
-0.0294802396
 21
-43.6763516908
  0
LINE
  5
326
100
AcDbEntity
  8
RACCORDO
100
AcDbLine
 62
7
  6
CONTINUOUS
 10
0.1205197604
 20
-43.6763516908
 11
0.1205197604
 21
-43.6968493797
  0
LINE
  5
327
100
AcDbEntity
  8
0
100
AcDbLine
 62
7
  6
CONTINUOUS
 10
0.1705197604
 20
-43.6968493797
 11
0.1705197604
 21
-43.3968493797
  0
LINE
  5
328
100
AcDbEntity
  8
ASSI
100
AcDbLine
 62
7
  6
CONTINUOUS
 10
0.1705197604
 20
-43.3968493797
 11
0.1705197604
 21
-43.6968493797
  0
LINE
  5
329
100
AcDbEntity
  8
0
100
AcDbLine
 62
7
  6
CONTINUOUS
 10
0.2705197604
 20
-43.6968493797
 11
0.2705197604
 21
-43.3968493797
  0
LINE
  5
32A
100
AcDbEntity
  8
ASSI
100
AcDbLine
 62
7
  6
CONTINUOUS
 10
0.2705197604
 20
-43.3968493797
 11
0.2705197604
 21
-43.6968493797
  0
LINE
  5
32B
100
AcDbEntity
  8
RACCORDO
100
AcDbLine
 62
7
  6
CONTINUOUS
 10
0.5705197604
 20
-43.6968493797
 11
0.5705197604
 21
-43.6763516908
  0
LINE
  5
32C
100
AcDbEntity
  8
RACCORDO
100
AcDbLine
 62
7
  6
CONTINUOUS
 10
0.7205197604
 20
-43.6763516908
 11
0.7205197604
 21
-43.6968493797
  0
LINE
  5
32D
100
AcDbEntity
  8
0
100
AcDbLine
 62
7
  6
CONTINUOUS
 10
1.1705197604
 20
-43.6968493797
 11
1.1705197604
 21
-43.3968493797
  0
LINE
  5
32E
100
AcDbEntity
  8
ASSI
100
AcDbLine
 62
7
  6
CONTINUOUS
 10
1.1705197604
 20
-43.3968493797
 11
1.1705197604
 21
-43.6968493797
  0
LINE
  5
32F
100
AcDbEntity
  8
RACCORDO
100
AcDbLine
 62
7
  6
CONTINUOUS
 10
1.2205197604
 20
-43.6187215456
 11
1.2205197604
 21
-43.6968493797
  0
LINE
  5
330
100
AcDbEntity
  8
0
100
AcDbLine
 62
7
  6
CONTINUOUS
 10
1.3205197604
 20
-49.3968493797
 11
1.3205197604
 21
-43.6968493797
  0
LINE
  5
331
100
AcDbEntity
  8
RACCORDO
100
AcDbLine
 62
7
  6
CONTINUOUS
 10
1.3705197604
 20
-43.6187215456
 11
1.3705197604
 21
-43.6968493797
  0
LINE
  5
332
100
AcDbEntity
  8
0
100
AcDbLine
 62
7
  6
CONTINUOUS
 10
1.7205197604
 20
-36.0691797817
 11
1.7205197604
 21
-43.3968493797
  0
LINE
  5
333
100
AcDbEntity
  8
0
100
AcDbLine
 62
7
  6
CONTINUOUS
 10
1.7205197604
 20
-43.6968493797
 11
1.7205197604
 21
-49.3968493797
  0
LWPOLYLINE
  5
334
100
AcDbEntity
  8
0
100
AcDbPolyline
 62
7
  6
CONTINUOUS
 90
7
 70
0
 10
1.2205197604
 20
-43.6187215456
 10
1.2186170001
 20
-43.6171300315
 10
1.2141371365
 20
-43.6156697611
 10
1.2070801696
 20
-43.6143407343
 10
1.1970794118
 20
-43.61311147
 10
1.1845015508
 20
-43.6120134494
 10
1.1705197604
 20
-43.6111456535
  0
LWPOLYLINE
  5
335
100
AcDbEntity
  8
0
100
AcDbPolyline
 62
7
  6
CONTINUOUS
 90
8
 70
0
 10
1.3705197604
 20
-43.6187215456
 10
1.3657628597
 20
-43.6147427604
 10
1.3545632007
 20
-43.6110920843
 10
1.3369207834
 20
-43.6077695173
 10
1.311918889
 20
-43.6046963567
 10
1.2804742364
 20
-43.6019513051
 10
1.2453369816
 20
-43.5997704709
 10
1.2074238434
 20
-43.5982325566
  0
LINE
  5
336
100
AcDbEntity
  8
0
100
AcDbLine
 62
7
  6
CONTINUOUS
 10
2.2205197604
 20
-49.3968493797
 11
2.2205197604
 21
-43.6968493797
  0
LINE
  5
337
100
AcDbEntity
  8
0
100
AcDbLine
 62
7
  6
CONTINUOUS
 10
1.7205197604
 20
-36.0691797817
 11
-2.2794802396
 21
-36.0691797817
  0
ARC
  5
338
100
AcDbEntity
  8
RACCORDO
100
AcDbCircle
 62
253
  6
CONTINUOUS
 10
-19.0526417058
 20
-19.7971651409
 40
6.0
100
AcDbArc
 50
30.0
 51
54.0795601518
  0
ARC
  5
339
100
AcDbEntity
  8
RACCORDO
100
AcDbCircle
 62
7
  6
CONTINUOUS
 10
-19.0526417058
 20
-19.7971651409
 40
5.0
100
AcDbArc
 50
30.0
 51
54.0795601518
  0
ARC
  5
33A
100
AcDbEntity
  8
RACCORDO
100
AcDbCircle
 62
7
  6
CONTINUOUS
 10
-17.2458090301
 20
-11.8333968928
 40
0.3
100
AcDbArc
 50
126.0
 51
226.6151078507
  0
ARC
  5
33B
100
AcDbEntity
  8
RACCORDO
100
AcDbCircle
 62
7
  6
CONTINUOUS
 10
-17.2123329592
 20
-11.0674343171
 40
0.3
100
AcDbArc
 50
306.0
 51
36.0
  0
ARC
  5
33C
100
AcDbEntity
  8
RACCORDO
100
AcDbCircle
 62
7
  6
CONTINUOUS
 10
-22.5946538287
 20
-4.4713415195
 40
0.3
100
AcDbArc
 50
205.384935516
 51
305.9997645796
  0
ARC
  5
33D
100
AcDbEntity
  8
RACCORDO
100
AcDbCircle
 62
7
  6
CONTINUOUS
 10
-24.5567844557
 20
1.5674718152
 40
0.3
100
AcDbArc
 50
90.0
 51
190.6151078507
  0
ARC
  5
33E
100
AcDbEntity
  8
RACCORDO
100
AcDbCircle
 62
7
  6
CONTINUOUS
 10
-21.8558364523
 20
-4.6762000616
 40
0.3
100
AcDbArc
 50
36.0
 51
126.0
  0
ARC
  5
33F
100
AcDbEntity
  8
RACCORDO
100
AcDbCircle
 62
7
  6
CONTINUOUS
 10
-24.0794802396
 20
2.1674718152
 40
0.3
100
AcDbArc
 50
270.0
 51
360.0
  0
ARC
  5
340
100
AcDbEntity
  8
RACCORDO
100
AcDbCircle
 62
7
  6
CONTINUOUS
 10
-11.3021983226
 20
-19.2213268617
 40
2.0
100
AcDbArc
 50
210.0
 51
243.8381243599
  0
ARC
  5
341
100
AcDbEntity
  8
RACCORDO
100
AcDbCircle
 62
253
  6
CONTINUOUS
 10
-11.3021983226
 20
-19.2213268617
 40
1.0
100
AcDbArc
 50
210.0
 51
243.8381243599
  0
ARC
  5
342
100
AcDbEntity
  8
RACCORDO
100
AcDbCircle
 62
7
  6
CONTINUOUS
 10
-12.1088865882
 20
-15.5655880608
 40
0.3
100
AcDbArc
 50
241.384935516
 51
341.9997645796
  0
ARC
  5
343
100
AcDbEntity
  8
RACCORDO
100
AcDbCircle
 62
7
  6
CONTINUOUS
 10
-3.4542726709
 20
-18.377643882
 40
0.3
100
AcDbArc
 50
162.0
 51
262.6151078507
  0
ARC
  5
344
100
AcDbEntity
  8
RACCORDO
100
AcDbCircle
 62
7
  6
CONTINUOUS
 10
-3.8774114664
 20
-17.7382904004
 40
0.3
100
AcDbArc
 50
342.0
 51
72.0
  0
ARC
  5
345
100
AcDbEntity
  8
RACCORDO
100
AcDbCircle
 62
7
  6
CONTINUOUS
 10
-11.3907579451
 20
-15.2970561448
 40
0.3
100
AcDbArc
 50
72.0
 51
162.0
  0
ARC
  5
346
100
AcDbEntity
  8
RACCORDO
100
AcDbCircle
 62
7
  6
CONTINUOUS
 10
-3.4542722899
 20
30.6125863401
 40
0.3
100
AcDbArc
 50
97.384935516
 51
197.9997645796
  0
ARC
  5
347
100
AcDbEntity
  8
RACCORDO
100
AcDbCircle
 62
7
  6
CONTINUOUS
 10
-17.2458080329
 20
24.0683397987
 40
0.3
100
AcDbArc
 50
133.384935516
 51
233.9997645796
  0
ARC
  5
348
100
AcDbEntity
  8
RACCORDO
100
AcDbCircle
 62
7
  6
CONTINUOUS
 10
-24.556783223
 20
10.6674718152
 40
0.3
100
AcDbArc
 50
169.384935516
 51
269.9997645796
  0
ARC
  5
349
100
AcDbEntity
  8
RACCORDO
100
AcDbCircle
 62
7
  6
CONTINUOUS
 10
-12.1088869691
 20
27.8005328636
 40
0.3
100
AcDbArc
 50
18.0
 51
118.6151078507
  0
ARC
  5
34A
100
AcDbEntity
  8
RACCORDO
100
AcDbCircle
 62
7
  6
CONTINUOUS
 10
-22.594654826
 20
16.7062858744
 40
0.3
100
AcDbArc
 50
54.0
 51
154.6151078507
  0
ARC
  5
34B
100
AcDbEntity
  8
RACCORDO
100
AcDbCircle
 62
7
  6
CONTINUOUS
 10
-11.3907579451
 20
27.5319997752
 40
0.3
100
AcDbArc
 50
198.0
 51
288.0
  0
ARC
  5
34C
100
AcDbEntity
  8
RACCORDO
100
AcDbCircle
 62
7
  6
CONTINUOUS
 10
-3.8774114664
 20
29.9732340308
 40
0.3
100
AcDbArc
 50
288.0
 51
18.0
  0
ARC
  5
34D
100
AcDbEntity
  8
RACCORDO
100
AcDbCircle
 62
7
  6
CONTINUOUS
 10
-24.0794802396
 20
10.0674718152
 40
0.3
100
AcDbArc
 50
0.0
 51
90.0
  0
ARC
  5
34E
100
AcDbEntity
  8
RACCORDO
100
AcDbCircle
 62
7
  6
CONTINUOUS
 10
-21.8558364523
 20
16.911143692
 40
0.3
100
AcDbArc
 50
234.0
 51
324.0
  0
ARC
  5
34F
100
AcDbEntity
  8
RACCORDO
100
AcDbCircle
 62
7
  6
CONTINUOUS
 10
-17.2123329592
 20
23.3023779475
 40
0.3
100
AcDbArc
 50
324.0
 51
54.0
  0
ARC
  5
350
100
AcDbEntity
  8
RACCORDO
100
AcDbCircle
 62
7
  6
CONTINUOUS
 10
10.7432378434
 20
-19.2213268617
 40
2.0
100
AcDbArc
 50
296.1618756401
 51
330.0
  0
ARC
  5
351
100
AcDbEntity
  8
RACCORDO
100
AcDbCircle
 62
253
  6
CONTINUOUS
 10
10.7432378434
 20
-19.2213268617
 40
1.0
100
AcDbArc
 50
296.1618756401
 51
330.0
  0
ARC
  5
352
100
AcDbEntity
  8
RACCORDO
100
AcDbCircle
 62
7
  6
CONTINUOUS
 10
11.5499264899
 20
-15.5655892332
 40
0.3
100
AcDbArc
 50
198.0
 51
298.6151078507
  0
ARC
  5
353
100
AcDbEntity
  8
RACCORDO
100
AcDbCircle
 62
7
  6
CONTINUOUS
 10
2.8953118107
 20
-18.3776427097
 40
0.3
100
AcDbArc
 50
277.384935516
 51
17.9997645796
  0
ARC
  5
354
100
AcDbEntity
  8
RACCORDO
100
AcDbCircle
 62
7
  6
CONTINUOUS
 10
10.8317974659
 20
-15.2970561448
 40
0.3
100
AcDbArc
 50
18.0
 51
108.0
  0
ARC
  5
355
100
AcDbEntity
  8
RACCORDO
100
AcDbCircle
 62
7
  6
CONTINUOUS
 10
3.3184509871
 20
-17.7382904004
 40
0.3
100
AcDbArc
 50
108.0
 51
198.0
  0
ARC
  5
356
100
AcDbEntity
  8
RACCORDO
100
AcDbCircle
 62
7
  6
CONTINUOUS
 10
-0.2794802396
 20
3.2174718152
 40
27.0
100
AcDbArc
 50
243.8381243599
 51
296.1618756401
  0
ARC
  5
357
100
AcDbEntity
  8
RACCORDO
100
AcDbCircle
 62
253
  6
CONTINUOUS
 10
-0.2794802396
 20
3.2174718152
 40
26.0
100
AcDbArc
 50
243.8381243599
 51
296.1618756401
  0
ARC
  5
358
100
AcDbEntity
  8
RACCORDO
100
AcDbCircle
 62
253
  6
CONTINUOUS
 10
18.4936812265
 20
-19.7971651409
 40
6.0
100
AcDbArc
 50
125.9204398482
 51
150.0
  0
ARC
  5
359
100
AcDbEntity
  8
RACCORDO
100
AcDbCircle
 62
7
  6
CONTINUOUS
 10
18.4936812265
 20
-19.7971651409
 40
5.0
100
AcDbArc
 50
125.9204398482
 51
150.0
  0
ARC
  5
35A
100
AcDbEntity
  8
RACCORDO
100
AcDbCircle
 62
7
  6
CONTINUOUS
 10
16.6868475536
 20
-11.8333961683
 40
0.3
100
AcDbArc
 50
313.384935516
 51
53.9997645796
  0
ARC
  5
35B
100
AcDbEntity
  8
RACCORDO
100
AcDbCircle
 62
7
  6
CONTINUOUS
 10
16.6533724799
 20
-11.0674343171
 40
0.3
100
AcDbArc
 50
144.0
 51
234.0
  0
ARC
  5
35C
100
AcDbEntity
  8
RACCORDO
100
AcDbCircle
 62
7
  6
CONTINUOUS
 10
22.0356943467
 20
-4.471342244
 40
0.3
100
AcDbArc
 50
234.0
 51
334.6151078507
  0
ARC
  5
35D
100
AcDbEntity
  8
RACCORDO
100
AcDbCircle
 62
7
  6
CONTINUOUS
 10
23.9978227438
 20
1.5674718152
 40
0.3
100
AcDbArc
 50
349.384935516
 51
89.9997645796
  0
ARC
  5
35E
100
AcDbEntity
  8
RACCORDO
100
AcDbCircle
 62
7
  6
CONTINUOUS
 10
23.5205197604
 20
2.1674718152
 40
0.3
100
AcDbArc
 50
180.0
 51
270.0
  0
ARC
  5
35F
100
AcDbEntity
  8
RACCORDO
100
AcDbCircle
 62
7
  6
CONTINUOUS
 10
21.2968759731
 20
-4.6762000616
 40
0.3
100
AcDbArc
 50
54.0
 51
144.0
  0
ARC
  5
360
100
AcDbEntity
  8
RACCORDO
100
AcDbCircle
 62
7
  6
CONTINUOUS
 10
-0.2794802396
 20
6.1174718152
 40
27.0
100
AcDbArc
 50
305.9204398482
 51
234.0795601518
  0
ARC
  5
361
100
AcDbEntity
  8
RACCORDO
100
AcDbCircle
 62
253
  6
CONTINUOUS
 10
-0.2794802396
 20
6.1174718152
 40
26.0
100
AcDbArc
 50
305.9204398482
 51
234.0795601518
  0
ARC
  5
362
100
AcDbEntity
  8
RACCORDO
100
AcDbCircle
 62
7
  6
CONTINUOUS
 10
-0.2794802396
 20
6.1174718152
 40
25.0
100
AcDbArc
 50
46.6151078507
 51
61.3848921493
  0
ARC
  5
363
100
AcDbEntity
  8
RACCORDO
100
AcDbCircle
 62
7
  6
CONTINUOUS
 10
-0.2794802396
 20
6.1174718152
 40
25.0
100
AcDbArc
 50
10.6151078507
 51
25.3848921493
  0
ARC
  5
364
100
AcDbEntity
  8
RACCORDO
100
AcDbCircle
 62
7
  6
CONTINUOUS
 10
-0.2794802396
 20
6.1174718152
 40
25.0
100
AcDbArc
 50
334.6151078507
 51
349.3848921493
  0
ARC
  5
365
100
AcDbEntity
  8
RACCORDO
100
AcDbCircle
 62
7
  6
CONTINUOUS
 10
-0.2794802396
 20
6.1174718152
 40
25.0
100
AcDbArc
 50
298.6151078507
 51
313.3848921493
  0
ARC
  5
366
100
AcDbEntity
  8
RACCORDO
100
AcDbCircle
 62
7
  6
CONTINUOUS
 10
-0.2794802396
 20
6.1174718152
 40
25.0
100
AcDbArc
 50
262.6151078507
 51
277.3848921493
  0
ARC
  5
367
100
AcDbEntity
  8
RACCORDO
100
AcDbCircle
 62
7
  6
CONTINUOUS
 10
-0.2794802396
 20
6.1174718152
 40
25.0
100
AcDbArc
 50
226.6151078507
 51
241.3848921493
  0
ARC
  5
368
100
AcDbEntity
  8
RACCORDO
100
AcDbCircle
 62
7
  6
CONTINUOUS
 10
-0.2794802396
 20
6.1174718152
 40
25.0
100
AcDbArc
 50
190.6151078507
 51
205.3848921493
  0
ARC
  5
369
100
AcDbEntity
  8
RACCORDO
100
AcDbCircle
 62
7
  6
CONTINUOUS
 10
-0.2794802396
 20
6.1174718152
 40
25.0
100
AcDbArc
 50
154.6151078507
 51
169.3848921493
  0
ARC
  5
36A
100
AcDbEntity
  8
RACCORDO
100
AcDbCircle
 62
7
  6
CONTINUOUS
 10
-0.2794802396
 20
6.1174718152
 40
25.0
100
AcDbArc
 50
82.6151078507
 51
97.3848921493
  0
ARC
  5
36B
100
AcDbEntity
  8
RACCORDO
100
AcDbCircle
 62
7
  6
CONTINUOUS
 10
-0.2794802396
 20
6.1174718152
 40
25.0
100
AcDbArc
 50
118.6151078507
 51
133.3848921493
  0
CIRCLE
  5
36C
100
AcDbEntity
  8
RACCORDO
100
AcDbCircle
 62
253
  6
CONTINUOUS
 10
-0.2794802396
 20
6.1174718152
 40
23.0
  0
CIRCLE
  5
36D
100
AcDbEntity
  8
RACCORDO
100
AcDbCircle
 62
253
  6
CONTINUOUS
 10
-0.2794802396
 20
6.1174718152
 40
11.525
  0
CIRCLE
  5
36E
100
AcDbEntity
  8
RACCORDO
100
AcDbCircle
 62
7
  6
CONTINUOUS
 10
-0.2794802396
 20
6.1174718152
 40
9.525
  0
ARC
  5
36F
100
AcDbEntity
  8
RACCORDO
100
AcDbCircle
 62
7
  6
CONTINUOUS
 10
11.549926109
 20
27.8005316913
 40
0.3
100
AcDbArc
 50
61.384935516
 51
161.9997645796
  0
ARC
  5
370
100
AcDbEntity
  8
RACCORDO
100
AcDbCircle
 62
7
  6
CONTINUOUS
 10
2.8953121916
 20
30.6125875124
 40
0.3
100
AcDbArc
 50
342.0
 51
82.6151078507
  0
ARC
  5
371
100
AcDbEntity
  8
RACCORDO
100
AcDbCircle
 62
7
  6
CONTINUOUS
 10
3.3184509871
 20
29.9732340308
 40
0.3
100
AcDbArc
 50
162.0
 51
252.0
  0
ARC
  5
372
100
AcDbEntity
  8
RACCORDO
100
AcDbCircle
 62
7
  6
CONTINUOUS
 10
10.8317974659
 20
27.5319997752
 40
0.3
100
AcDbArc
 50
252.0
 51
342.0
  0
ARC
  5
373
100
AcDbEntity
  8
RACCORDO
100
AcDbCircle
 62
7
  6
CONTINUOUS
 10
23.9978239765
 20
10.6674718152
 40
0.3
100
AcDbArc
 50
270.0
 51
10.6151078507
  0
ARC
  5
374
100
AcDbEntity
  8
RACCORDO
100
AcDbCircle
 62
7
  6
CONTINUOUS
 10
22.0356933495
 20
16.7062851499
 40
0.3
100
AcDbArc
 50
25.384935516
 51
125.9997645796
  0
ARC
  5
375
100
AcDbEntity
  8
RACCORDO
100
AcDbCircle
 62
7
  6
CONTINUOUS
 10
21.2968759731
 20
16.911143692
 40
0.3
100
AcDbArc
 50
216.0
 51
306.0
  0
ARC
  5
376
100
AcDbEntity
  8
RACCORDO
100
AcDbCircle
 62
7
  6
CONTINUOUS
 10
23.5205197604
 20
10.0674718152
 40
0.3
100
AcDbArc
 50
90.0
 51
180.0
  0
ARC
  5
377
100
AcDbEntity
  8
RACCORDO
100
AcDbCircle
 62
7
  6
CONTINUOUS
 10
16.6868485509
 20
24.0683405232
 40
0.3
100
AcDbArc
 50
306.0
 51
46.6151078507
  0
ARC
  5
378
100
AcDbEntity
  8
RACCORDO
100
AcDbCircle
 62
7
  6
CONTINUOUS
 10
16.6533724799
 20
23.3023779475
 40
0.3
100
AcDbArc
 50
126.0
 51
216.0
  0
ENDSEC
  0
SECTION
  2
OBJECTS
  0
DICTIONARY
  5
C
100
AcDbDictionary
280
0
281
1
  3
ACAD_GROUP
350
D
  3
ACAD_MLINESTYLE
350
17
  3
ACAD_LAYOUT
350
1A
  3
ACAD_PLOTSETTINGS
350
19
  3
ACAD_PLOTSTYLENAME
350
E
  0
DICTIONARY
  5
D
102
{ACAD_REACTORS
330
C
102
}
100
AcDbDictionary
280
0
281
1
  0
ACDBDICTIONARYWDFLT
  5
E
102
{ACAD_REACTORS
330
C
102
}
100
AcDbDictionary
281
1
  3
Normal
350
F
100
AcDbDictionaryWithDefault
340
F
  0
DICTIONARY
  5
17
102
{ACAD_REACTORS
330
C
102
}
100
AcDbDictionary
280
0
281
1
  3
Standard
350
18
  0
DICTIONARY
  5
19
102
{ACAD_REACTORS
330
C
102
}
100
AcDbDictionary
281
1
  0
DICTIONARY
  5
1A
102
{ACAD_REACTORS
330
C
102
}
100
AcDbDictionary
281
1
  3
Model
350
379
  3
Layout1
350
37A
  0
ACDBPLACEHOLDER
  5
F
102
{ACAD_REACTORS
330
E
102
}
  0
MLINESTYLE
  5
18
102
{ACAD_REACTORS
330
17
102
}
100
AcDbMlineStyle
  2
STANDARD
 70
0
  3

 62
256
 51
90.0
 52
90.0
 71
2
 49
0.5
 62
256
  6
BYLAYER
 49
-0.5
 62
256
  6
BYLAYER
  0
LAYOUT
  5
379
102
{ACAD_REACTORS
330
1A
102
}
100
AcDbPlotSettings
  1

  2
none_device
  4
ISO_A4_(297.00_x_210.00_MM)
  6

 40
0.0
 41
0.0
 42
0.0
 43
0.0
 44
297.0
 45
210.0
 46
0.0
 47
0.0
 48
0.0
 49
0.0
140
0.0
141
0.0
142
1.0
143
1.0
 70
1024
 72
1
 73
0
 74
0
  7

 75
0
147
1.0
148
0.0
149
0.0
100
AcDbLayout
  1
Model
 70
0
 71
0
 10
0.0
 20
0.0
 11
297.0
 21
210.0
 12
0.0
 22
0.0
 32
0.0
 14
0.0
 24
0.0
 34
0.0
 15
0.0
 25
0.0
 35
0.0
146
0.0
 13
0.0
 23
0.0
 33
0.0
 16
1.0
 26
0.0
 36
0.0
 17
0.0
 27
1.0
 37
0.0
 76
0
330
20F
345
0
346
0
  0
LAYOUT
  5
37A
102
{ACAD_REACTORS
330
1A
102
}
100
AcDbPlotSettings
  1

  2
none_device
  4
ISO_A4_(297.00_x_210.00_MM)
  6

 40
0.0
 41
0.0
 42
0.0
 43
0.0
 44
297.0
 45
210.0
 46
0.0
 47
0.0
 48
0.0
 49
0.0
140
0.0
141
0.0
142
1.0
143
1.0
 70
0
 72
1
 73
0
 74
0
  7

 75
0
147
1.0
148
0.0
149
0.0
100
AcDbLayout
  1
Layout1
 70
0
 71
1
 10
0.0
 20
0.0
 11
297.0
 21
210.0
 12
0.0
 22
0.0
 32
0.0
 14
0.0
 24
0.0
 34
0.0
 15
0.0
 25
0.0
 35
0.0
146
0.0
 13
0.0
 23
0.0
 33
0.0
 16
1.0
 26
0.0
 36
0.0
 17
0.0
 27
1.0
 37
0.0
 76
0
330
210
345
0
346
0
  0
ENDSEC
  0
EOF
