  0
SECTION
  2
HEADER
  9
$ACADVER
  1
AC1024
  9
$DWGCODEPAGE
  3
ANSI_1252
  9
$EXTMAX
 10
297.0
 20
210.0
 30
0.0
  9
$EXTMIN
 10
0.0
 20
0.0
 30
0.0
  9
$LIMMIN
 10
0.0
 20
0.0
  9
$LIMMAX
 10
297.0
 20
210.0
  9
$VIEWCTR
 10
148.5
 20
105.0
  9
$VIEWSIZE
 40
210.0
  9
$CLAYER
  8
0
  9
$LTSCALE
 40
16.335
  9
$CELTYPE
  6
BYLAYER
  9
$DIMSCALE
 40
1.0
  9
$DIMASZ
 40
3.0
  9
$DIMEXO
 40
0.5
  9
$DIMDLI
 40
11.286
  9
$DIMEXE
 40
1.5
  9
$DIMCEN
 40
2.673
  9
$DIMLFAC
 40
1.0
  9
$DIMBLK
  1
_FILLED
  9
$DIMALT
 70
0
  9
$DIMALTF
 40
0.0393700787
  9
$DIMTXT
 40
3.0
  9
$DIMTOL
 70
1
  9
$DIMLIM
 70
0
  9
$DIMTFAC
 40
1.0
  9
$DIMTP
 40
0.01
  9
$DIMTM
 40
0.01
  9
$DIMGAP
 40
0.625
  9
$DIMDSEP
 70
44
  9
$AUNITS
 70
0
  9
$PDMODE
 70
3
  9
$PDSIZE
 40
3.0
  9
$HANDSEED
  5
859
  9
$TILEMODE
 70
1
  9
$MEASUREMENT
 70
1
  9
$INSUNITS
 70
4
  0
ENDSEC
  0
SECTION
  2
CLASSES
  0
CLASS
  1
ACDBDICTIONARYWDFLT
  2
AcDbDictionaryWithDefault
  3
AutoCAD 2000
 90
0
 91
1
280
0
281
0
  0
CLASS
  1
ACDBPLACEHOLDER
  2
AcDbPlaceHolder
  3
AutoCAD 2000
 90
0
 91
1
280
0
281
0
  0
CLASS
  1
LAYOUT
  2
AcDbLayout
  3
AutoCAD 2000
 90
0
 91
0
280
0
281
0
  0
ENDSEC
  0
SECTION
  2
TABLES
  0
TABLE
  2
VPORT
  5
8
100
AcDbSymbolTable
 70
2
  0
VPORT
  5
1F4
100
AcDbSymbolTableRecord
100
AcDbViewportTableRecord
  2
*ACTIVE
 70
0
 10
0.0
 20
0.0
 11
1.0
 21
1.0
 12
148.5
 22
105.0
 13
0.0
 23
0.0
 14
1.0
 24
1.0
 15
0.0
 25
0.0
 16
0.0
 26
0.0
 36
1.0
 17
0.0
 27
0.0
 37
0.0
 40
210.0
 41
1.4142857143
 42
50.0
 43
0.0
 44
0.0
 50
0.0
 51
0.0
 71
0
 72
100
 73
1
 74
1
 75
0
 76
0
 77
0
 78
0
  0
ENDTAB
  0
TABLE
  2
LTYPE
  5
5
100
AcDbSymbolTable
 70
6
  0
LTYPE
  5
14
100
AcDbSymbolTableRecord
100
AcDbLinetypeTableRecord
  2
BYBLOCK
 70
0
  3

 72
65
 73
0
 40
0.0
  0
LTYPE
  5
15
100
AcDbSymbolTableRecord
100
AcDbLinetypeTableRecord
  2
BYLAYER
 70
0
  3

 72
65
 73
0
 40
0.0
  0
LTYPE
  5
16
100
AcDbSymbolTableRecord
100
AcDbLinetypeTableRecord
  2
CONTINUOUS
 70
64
  3
Solid line
 72
65
 73
0
 40
0.0
  0
LTYPE
  5
1F5
100
AcDbSymbolTableRecord
100
AcDbLinetypeTableRecord
  2
CENTER
 70
64
  3
____ _ ____ _ ____ _ ____ _ ____ _ ____ _ ____
 72
65
 73
4
 40
0.6
 49
0.375
 74
0
 49
-0.075
 74
0
 49
0.075
 74
0
 49
-0.075
 74
0
  0
LTYPE
  5
1F6
100
AcDbSymbolTableRecord
100
AcDbLinetypeTableRecord
  2
HIDDEN
 70
64
  3
- - - - - - - - - - - - - - - - - - - -
 72
65
 73
2
 40
0.2
 49
0.1
 74
0
 49
-0.1
 74
0
  0
LTYPE
  5
1F7
100
AcDbSymbolTableRecord
100
AcDbLinetypeTableRecord
  2
PHANTOM
 70
64
  3
_____ _ _ _____ _ _ _____ _ _ _____
 72
65
 73
6
 40
0.8
 49
0.45
 74
0
 49
-0.05
 74
0
 49
0.1
 74
0
 49
-0.05
 74
0
 49
0.1
 74
0
 49
-0.05
 74
0
  0
LTYPE
  5
1F8
100
AcDbSymbolTableRecord
100
AcDbLinetypeTableRecord
  2
DOT
 70
64
  3
. . . . . . . . . . . . . . . . . . . .
 72
65
 73
2
 40
0.2
 49
0.1
 74
0
 49
-0.1
 74
0
  0
LTYPE
  5
1F9
100
AcDbSymbolTableRecord
100
AcDbLinetypeTableRecord
  2
DASHED
 70
64
  3
- - - - - - - - - - - - - - - - - - - -
 72
65
 73
2
 40
0.2
 49
0.1
 74
0
 49
-0.1
 74
0
  0
ENDTAB
  0
TABLE
  2
LAYER
  5
2
100
AcDbSymbolTable
 70
36
  0
LAYER
  5
10
100
AcDbSymbolTableRecord
100
AcDbLayerTableRecord
  2
0
 70
0
 62
7
  6
CONTINUOUS
370
-3
390
F
  0
LAYER
  5
1FA
100
AcDbSymbolTableRecord
100
AcDbLayerTableRecord
  2
DEFAULT_1
 70
0
 62
7
  6
CENTER
370
-3
390
F
  0
LAYER
  5
1FB
100
AcDbSymbolTableRecord
100
AcDbLayerTableRecord
  2
DEFAULT_2
 70
0
 62
7
  6
HIDDEN
370
-3
390
F
  0
LAYER
  5
1FC
100
AcDbSymbolTableRecord
100
AcDbLayerTableRecord
  2
DEFAULT_3
 70
0
 62
7
  6
PHANTOM
370
-3
390
F
  0
LAYER
  5
1FD
100
AcDbSymbolTableRecord
100
AcDbLayerTableRecord
  2
102A_65000
 70
0
 62
7
  6
CONTINUOUS
370
-3
390
F
  0
LAYER
  5
1FE
100
AcDbSymbolTableRecord
100
AcDbLayerTableRecord
  2
102A_65000_1
 70
0
 62
7
  6
CONTINUOUS
370
-3
390
F
  0
LAYER
  5
1FF
100
AcDbSymbolTableRecord
100
AcDbLayerTableRecord
  2
102A_65000_10
 70
0
 62
7
  6
CONTINUOUS
370
-3
390
F
  0
LAYER
  5
200
100
AcDbSymbolTableRecord
100
AcDbLayerTableRecord
  2
102A_65000_11
 70
0
 62
7
  6
CONTINUOUS
370
-3
390
F
  0
LAYER
  5
201
100
AcDbSymbolTableRecord
100
AcDbLayerTableRecord
  2
102A_65000_12
 70
0
 62
7
  6
CONTINUOUS
370
-3
390
F
  0
LAYER
  5
202
100
AcDbSymbolTableRecord
100
AcDbLayerTableRecord
  2
102A_65000_13
 70
0
 62
7
  6
CONTINUOUS
370
-3
390
F
  0
LAYER
  5
203
100
AcDbSymbolTableRecord
100
AcDbLayerTableRecord
  2
102A_65000_14
 70
0
 62
7
  6
CONTINUOUS
370
-3
390
F
  0
LAYER
  5
204
100
AcDbSymbolTableRecord
100
AcDbLayerTableRecord
  2
102A_65000_15
 70
0
 62
7
  6
CONTINUOUS
370
-3
390
F
  0
LAYER
  5
205
100
AcDbSymbolTableRecord
100
AcDbLayerTableRecord
  2
102A_65000_16
 70
0
 62
7
  6
CONTINUOUS
370
-3
390
F
  0
LAYER
  5
206
100
AcDbSymbolTableRecord
100
AcDbLayerTableRecord
  2
102A_65000_17
 70
0
 62
7
  6
CONTINUOUS
370
-3
390
F
  0
LAYER
  5
207
100
AcDbSymbolTableRecord
100
AcDbLayerTableRecord
  2
102A_65000_18
 70
0
 62
7
  6
CONTINUOUS
370
-3
390
F
  0
LAYER
  5
208
100
AcDbSymbolTableRecord
100
AcDbLayerTableRecord
  2
102A_65000_19
 70
0
 62
7
  6
CONTINUOUS
370
-3
390
F
  0
LAYER
  5
209
100
AcDbSymbolTableRecord
100
AcDbLayerTableRecord
  2
102A_65000_2
 70
0
 62
7
  6
CONTINUOUS
370
-3
390
F
  0
LAYER
  5
20A
100
AcDbSymbolTableRecord
100
AcDbLayerTableRecord
  2
102A_65000_20
 70
0
 62
7
  6
CONTINUOUS
370
-3
390
F
  0
LAYER
  5
20B
100
AcDbSymbolTableRecord
100
AcDbLayerTableRecord
  2
102A_65000_21
 70
0
 62
7
  6
CONTINUOUS
370
-3
390
F
  0
LAYER
  5
20C
100
AcDbSymbolTableRecord
100
AcDbLayerTableRecord
  2
102A_65000_22
 70
0
 62
7
  6
CONTINUOUS
370
-3
390
F
  0
LAYER
  5
20D
100
AcDbSymbolTableRecord
100
AcDbLayerTableRecord
  2
102A_65000_23
 70
0
 62
7
  6
CONTINUOUS
370
-3
390
F
  0
LAYER
  5
20E
100
AcDbSymbolTableRecord
100
AcDbLayerTableRecord
  2
102A_65000_24
 70
0
 62
7
  6
CONTINUOUS
370
-3
390
F
  0
LAYER
  5
20F
100
AcDbSymbolTableRecord
100
AcDbLayerTableRecord
  2
102A_65000_25
 70
0
 62
7
  6
CONTINUOUS
370
-3
390
F
  0
LAYER
  5
210
100
AcDbSymbolTableRecord
100
AcDbLayerTableRecord
  2
102A_65000_26
 70
0
 62
7
  6
CONTINUOUS
370
-3
390
F
  0
LAYER
  5
211
100
AcDbSymbolTableRecord
100
AcDbLayerTableRecord
  2
102A_65000_27
 70
0
 62
7
  6
CONTINUOUS
370
-3
390
F
  0
LAYER
  5
212
100
AcDbSymbolTableRecord
100
AcDbLayerTableRecord
  2
102A_65000_28
 70
0
 62
7
  6
CONTINUOUS
370
-3
390
F
  0
LAYER
  5
213
100
AcDbSymbolTableRecord
100
AcDbLayerTableRecord
  2
102A_65000_29
 70
0
 62
7
  6
CONTINUOUS
370
-3
390
F
  0
LAYER
  5
214
100
AcDbSymbolTableRecord
100
AcDbLayerTableRecord
  2
102A_65000_3
 70
0
 62
7
  6
CONTINUOUS
370
-3
390
F
  0
LAYER
  5
215
100
AcDbSymbolTableRecord
100
AcDbLayerTableRecord
  2
102A_65000_30
 70
0
 62
7
  6
CONTINUOUS
370
-3
390
F
  0
LAYER
  5
216
100
AcDbSymbolTableRecord
100
AcDbLayerTableRecord
  2
102A_65000_31
 70
0
 62
7
  6
CONTINUOUS
370
-3
390
F
  0
LAYER
  5
217
100
AcDbSymbolTableRecord
100
AcDbLayerTableRecord
  2
102A_65000_32
 70
0
 62
7
  6
CONTINUOUS
370
-3
390
F
  0
LAYER
  5
218
100
AcDbSymbolTableRecord
100
AcDbLayerTableRecord
  2
102A_65000_33
 70
0
 62
7
  6
CONTINUOUS
370
-3
390
F
  0
LAYER
  5
219
100
AcDbSymbolTableRecord
100
AcDbLayerTableRecord
  2
102A_65000_34
 70
0
 62
7
  6
CONTINUOUS
370
-3
390
F
  0
LAYER
  5
21A
100
AcDbSymbolTableRecord
100
AcDbLayerTableRecord
  2
102A_65000_35
 70
0
 62
7
  6
CONTINUOUS
370
-3
390
F
  0
LAYER
  5
21B
100
AcDbSymbolTableRecord
100
AcDbLayerTableRecord
  2
102A_65000_36
 70
0
 62
7
  6
CONTINUOUS
370
-3
390
F
  0
LAYER
  5
21C
100
AcDbSymbolTableRecord
100
AcDbLayerTableRecord
  2
102A_65000_37
 70
0
 62
7
  6
CONTINUOUS
370
-3
390
F
  0
LAYER
  5
21D
100
AcDbSymbolTableRecord
100
AcDbLayerTableRecord
  2
102A_65000_38
 70
0
 62
7
  6
CONTINUOUS
370
-3
390
F
  0
LAYER
  5
21E
100
AcDbSymbolTableRecord
100
AcDbLayerTableRecord
  2
102A_65000_39
 70
0
 62
7
  6
CONTINUOUS
370
-3
390
F
  0
LAYER
  5
21F
100
AcDbSymbolTableRecord
100
AcDbLayerTableRecord
  2
102A_65000_4
 70
0
 62
7
  6
CONTINUOUS
370
-3
390
F
  0
LAYER
  5
220
100
AcDbSymbolTableRecord
100
AcDbLayerTableRecord
  2
102A_65000_40
 70
0
 62
7
  6
CONTINUOUS
370
-3
390
F
  0
LAYER
  5
221
100
AcDbSymbolTableRecord
100
AcDbLayerTableRecord
  2
102A_65000_41
 70
0
 62
7
  6
CONTINUOUS
370
-3
390
F
  0
LAYER
  5
222
100
AcDbSymbolTableRecord
100
AcDbLayerTableRecord
  2
102A_65000_42
 70
0
 62
7
  6
CONTINUOUS
370
-3
390
F
  0
LAYER
  5
223
100
AcDbSymbolTableRecord
100
AcDbLayerTableRecord
  2
102A_65000_43
 70
0
 62
7
  6
CONTINUOUS
370
-3
390
F
  0
LAYER
  5
224
100
AcDbSymbolTableRecord
100
AcDbLayerTableRecord
  2
102A_65000_44
 70
0
 62
7
  6
CONTINUOUS
370
-3
390
F
  0
LAYER
  5
225
100
AcDbSymbolTableRecord
100
AcDbLayerTableRecord
  2
102A_65000_45
 70
0
 62
7
  6
CONTINUOUS
370
-3
390
F
  0
LAYER
  5
226
100
AcDbSymbolTableRecord
100
AcDbLayerTableRecord
  2
102A_65000_46
 70
0
 62
7
  6
CONTINUOUS
370
-3
390
F
  0
LAYER
  5
227
100
AcDbSymbolTableRecord
100
AcDbLayerTableRecord
  2
102A_65000_47
 70
0
 62
7
  6
CONTINUOUS
370
-3
390
F
  0
LAYER
  5
228
100
AcDbSymbolTableRecord
100
AcDbLayerTableRecord
  2
102A_65000_48
 70
0
 62
7
  6
CONTINUOUS
370
-3
390
F
  0
LAYER
  5
229
100
AcDbSymbolTableRecord
100
AcDbLayerTableRecord
  2
102A_65000_49
 70
0
 62
7
  6
CONTINUOUS
370
-3
390
F
  0
LAYER
  5
22A
100
AcDbSymbolTableRecord
100
AcDbLayerTableRecord
  2
102A_65000_5
 70
0
 62
7
  6
CONTINUOUS
370
-3
390
F
  0
LAYER
  5
22B
100
AcDbSymbolTableRecord
100
AcDbLayerTableRecord
  2
102A_65000_50
 70
0
 62
7
  6
CONTINUOUS
370
-3
390
F
  0
LAYER
  5
22C
100
AcDbSymbolTableRecord
100
AcDbLayerTableRecord
  2
102A_65000_51
 70
0
 62
7
  6
CONTINUOUS
370
-3
390
F
  0
LAYER
  5
22D
100
AcDbSymbolTableRecord
100
AcDbLayerTableRecord
  2
102A_65000_52
 70
0
 62
7
  6
CONTINUOUS
370
-3
390
F
  0
LAYER
  5
22E
100
AcDbSymbolTableRecord
100
AcDbLayerTableRecord
  2
102A_65000_53
 70
0
 62
7
  6
CONTINUOUS
370
-3
390
F
  0
LAYER
  5
22F
100
AcDbSymbolTableRecord
100
AcDbLayerTableRecord
  2
102A_65000_54
 70
0
 62
7
  6
CONTINUOUS
370
-3
390
F
  0
LAYER
  5
230
100
AcDbSymbolTableRecord
100
AcDbLayerTableRecord
  2
102A_65000_55
 70
0
 62
7
  6
CONTINUOUS
370
-3
390
F
  0
LAYER
  5
231
100
AcDbSymbolTableRecord
100
AcDbLayerTableRecord
  2
102A_65000_56
 70
0
 62
7
  6
CONTINUOUS
370
-3
390
F
  0
LAYER
  5
232
100
AcDbSymbolTableRecord
100
AcDbLayerTableRecord
  2
102A_65000_57
 70
0
 62
7
  6
CONTINUOUS
370
-3
390
F
  0
LAYER
  5
233
100
AcDbSymbolTableRecord
100
AcDbLayerTableRecord
  2
102A_65000_58
 70
0
 62
7
  6
CONTINUOUS
370
-3
390
F
  0
LAYER
  5
234
100
AcDbSymbolTableRecord
100
AcDbLayerTableRecord
  2
102A_65000_59
 70
0
 62
7
  6
CONTINUOUS
370
-3
390
F
  0
LAYER
  5
235
100
AcDbSymbolTableRecord
100
AcDbLayerTableRecord
  2
102A_65000_6
 70
0
 62
7
  6
CONTINUOUS
370
-3
390
F
  0
LAYER
  5
236
100
AcDbSymbolTableRecord
100
AcDbLayerTableRecord
  2
102A_65000_60
 70
0
 62
7
  6
CONTINUOUS
370
-3
390
F
  0
LAYER
  5
237
100
AcDbSymbolTableRecord
100
AcDbLayerTableRecord
  2
102A_65000_7
 70
0
 62
7
  6
CONTINUOUS
370
-3
390
F
  0
LAYER
  5
238
100
AcDbSymbolTableRecord
100
AcDbLayerTableRecord
  2
102A_65000_8
 70
0
 62
7
  6
CONTINUOUS
370
-3
390
F
  0
LAYER
  5
239
100
AcDbSymbolTableRecord
100
AcDbLayerTableRecord
  2
102A_65000_9
 70
0
 62
7
  6
CONTINUOUS
370
-3
390
F
  0
LAYER
  5
23A
100
AcDbSymbolTableRecord
100
AcDbLayerTableRecord
  2
133A_110000
 70
0
 62
7
  6
CONTINUOUS
370
-3
390
F
  0
LAYER
  5
23B
100
AcDbSymbolTableRecord
100
AcDbLayerTableRecord
  2
133A_110000_1
 70
0
 62
7
  6
CONTINUOUS
370
-3
390
F
  0
LAYER
  5
23C
100
AcDbSymbolTableRecord
100
AcDbLayerTableRecord
  2
133A_110000_10
 70
0
 62
7
  6
CONTINUOUS
370
-3
390
F
  0
LAYER
  5
23D
100
AcDbSymbolTableRecord
100
AcDbLayerTableRecord
  2
133A_110000_11
 70
0
 62
7
  6
CONTINUOUS
370
-3
390
F
  0
LAYER
  5
23E
100
AcDbSymbolTableRecord
100
AcDbLayerTableRecord
  2
133A_110000_12
 70
0
 62
7
  6
CONTINUOUS
370
-3
390
F
  0
LAYER
  5
23F
100
AcDbSymbolTableRecord
100
AcDbLayerTableRecord
  2
133A_110000_13
 70
0
 62
7
  6
CONTINUOUS
370
-3
390
F
  0
LAYER
  5
240
100
AcDbSymbolTableRecord
100
AcDbLayerTableRecord
  2
133A_110000_14
 70
0
 62
7
  6
CONTINUOUS
370
-3
390
F
  0
LAYER
  5
241
100
AcDbSymbolTableRecord
100
AcDbLayerTableRecord
  2
133A_110000_15
 70
0
 62
7
  6
CONTINUOUS
370
-3
390
F
  0
LAYER
  5
242
100
AcDbSymbolTableRecord
100
AcDbLayerTableRecord
  2
133A_110000_16
 70
0
 62
7
  6
CONTINUOUS
370
-3
390
F
  0
LAYER
  5
243
100
AcDbSymbolTableRecord
100
AcDbLayerTableRecord
  2
133A_110000_17
 70
0
 62
7
  6
CONTINUOUS
370
-3
390
F
  0
LAYER
  5
244
100
AcDbSymbolTableRecord
100
AcDbLayerTableRecord
  2
133A_110000_18
 70
0
 62
7
  6
CONTINUOUS
370
-3
390
F
  0
LAYER
  5
245
100
AcDbSymbolTableRecord
100
AcDbLayerTableRecord
  2
133A_110000_19
 70
0
 62
7
  6
CONTINUOUS
370
-3
390
F
  0
LAYER
  5
246
100
AcDbSymbolTableRecord
100
AcDbLayerTableRecord
  2
133A_110000_2
 70
0
 62
7
  6
CONTINUOUS
370
-3
390
F
  0
LAYER
  5
247
100
AcDbSymbolTableRecord
100
AcDbLayerTableRecord
  2
133A_110000_20
 70
0
 62
7
  6
CONTINUOUS
370
-3
390
F
  0
LAYER
  5
248
100
AcDbSymbolTableRecord
100
AcDbLayerTableRecord
  2
133A_110000_21
 70
0
 62
7
  6
CONTINUOUS
370
-3
390
F
  0
LAYER
  5
249
100
AcDbSymbolTableRecord
100
AcDbLayerTableRecord
  2
133A_110000_22
 70
0
 62
7
  6
CONTINUOUS
370
-3
390
F
  0
LAYER
  5
24A
100
AcDbSymbolTableRecord
100
AcDbLayerTableRecord
  2
133A_110000_23
 70
0
 62
7
  6
CONTINUOUS
370
-3
390
F
  0
LAYER
  5
24B
100
AcDbSymbolTableRecord
100
AcDbLayerTableRecord
  2
133A_110000_24
 70
0
 62
7
  6
CONTINUOUS
370
-3
390
F
  0
LAYER
  5
24C
100
AcDbSymbolTableRecord
100
AcDbLayerTableRecord
  2
133A_110000_25
 70
0
 62
7
  6
CONTINUOUS
370
-3
390
F
  0
LAYER
  5
24D
100
AcDbSymbolTableRecord
100
AcDbLayerTableRecord
  2
133A_110000_26
 70
0
 62
7
  6
CONTINUOUS
370
-3
390
F
  0
LAYER
  5
24E
100
AcDbSymbolTableRecord
100
AcDbLayerTableRecord
  2
133A_110000_27
 70
0
 62
7
  6
CONTINUOUS
370
-3
390
F
  0
LAYER
  5
24F
100
AcDbSymbolTableRecord
100
AcDbLayerTableRecord
  2
133A_110000_28
 70
0
 62
7
  6
CONTINUOUS
370
-3
390
F
  0
LAYER
  5
250
100
AcDbSymbolTableRecord
100
AcDbLayerTableRecord
  2
133A_110000_29
 70
0
 62
7
  6
CONTINUOUS
370
-3
390
F
  0
LAYER
  5
251
100
AcDbSymbolTableRecord
100
AcDbLayerTableRecord
  2
133A_110000_3
 70
0
 62
7
  6
CONTINUOUS
370
-3
390
F
  0
LAYER
  5
252
100
AcDbSymbolTableRecord
100
AcDbLayerTableRecord
  2
133A_110000_30
 70
0
 62
7
  6
CONTINUOUS
370
-3
390
F
  0
LAYER
  5
253
100
AcDbSymbolTableRecord
100
AcDbLayerTableRecord
  2
133A_110000_31
 70
0
 62
7
  6
CONTINUOUS
370
-3
390
F
  0
LAYER
  5
254
100
AcDbSymbolTableRecord
100
AcDbLayerTableRecord
  2
133A_110000_32
 70
0
 62
7
  6
CONTINUOUS
370
-3
390
F
  0
LAYER
  5
255
100
AcDbSymbolTableRecord
100
AcDbLayerTableRecord
  2
133A_110000_4
 70
0
 62
7
  6
CONTINUOUS
370
-3
390
F
  0
LAYER
  5
256
100
AcDbSymbolTableRecord
100
AcDbLayerTableRecord
  2
133A_110000_5
 70
0
 62
7
  6
CONTINUOUS
370
-3
390
F
  0
LAYER
  5
257
100
AcDbSymbolTableRecord
100
AcDbLayerTableRecord
  2
133A_110000_6
 70
0
 62
7
  6
CONTINUOUS
370
-3
390
F
  0
LAYER
  5
258
100
AcDbSymbolTableRecord
100
AcDbLayerTableRecord
  2
133A_110000_7
 70
0
 62
7
  6
CONTINUOUS
370
-3
390
F
  0
LAYER
  5
259
100
AcDbSymbolTableRecord
100
AcDbLayerTableRecord
  2
133A_110000_8
 70
0
 62
7
  6
CONTINUOUS
370
-3
390
F
  0
LAYER
  5
25A
100
AcDbSymbolTableRecord
100
AcDbLayerTableRecord
  2
133A_110000_9
 70
0
 62
7
  6
CONTINUOUS
370
-3
390
F
  0
LAYER
  5
25B
100
AcDbSymbolTableRecord
100
AcDbLayerTableRecord
  2
1608-R-RF-VIMAR_45000
 70
0
 62
7
  6
CONTINUOUS
370
-3
390
F
  0
LAYER
  5
25C
100
AcDbSymbolTableRecord
100
AcDbLayerTableRecord
  2
200A_170000
 70
0
 62
7
  6
CONTINUOUS
370
-3
390
F
  0
LAYER
  5
25D
100
AcDbSymbolTableRecord
100
AcDbLayerTableRecord
  2
200A_170000_1
 70
0
 62
7
  6
CONTINUOUS
370
-3
390
F
  0
LAYER
  5
25E
100
AcDbSymbolTableRecord
100
AcDbLayerTableRecord
  2
200A_170000_2
 70
0
 62
7
  6
CONTINUOUS
370
-3
390
F
  0
LAYER
  5
25F
100
AcDbSymbolTableRecord
100
AcDbLayerTableRecord
  2
200A_170000_3
 70
0
 62
7
  6
CONTINUOUS
370
-3
390
F
  0
LAYER
  5
260
100
AcDbSymbolTableRecord
100
AcDbLayerTableRecord
  2
200A_170000_4
 70
0
 62
7
  6
CONTINUOUS
370
-3
390
F
  0
LAYER
  5
261
100
AcDbSymbolTableRecord
100
AcDbLayerTableRecord
  2
200A_170000_5
 70
0
 62
7
  6
CONTINUOUS
370
-3
390
F
  0
LAYER
  5
262
100
AcDbSymbolTableRecord
100
AcDbLayerTableRecord
  2
200A_170000_6
 70
0
 62
7
  6
CONTINUOUS
370
-3
390
F
  0
LAYER
  5
263
100
AcDbSymbolTableRecord
100
AcDbLayerTableRecord
  2
200A_170000_7
 70
0
 62
7
  6
CONTINUOUS
370
-3
390
F
  0
LAYER
  5
264
100
AcDbSymbolTableRecord
100
AcDbLayerTableRecord
  2
200A_170000__200A_170000_101
 70
0
 62
7
  6
CONTINUOUS
370
-3
390
F
  0
LAYER
  5
265
100
AcDbSymbolTableRecord
100
AcDbLayerTableRecord
  2
200A_170000__200A_170000_101_1
 70
0
 62
7
  6
CONTINUOUS
370
-3
390
F
  0
LAYER
  5
266
100
AcDbSymbolTableRecord
100
AcDbLayerTableRecord
  2
200A_170000__200A_170000_101_2
 70
0
 62
7
  6
CONTINUOUS
370
-3
390
F
  0
LAYER
  5
267
100
AcDbSymbolTableRecord
100
AcDbLayerTableRecord
  2
200A_170000__200A_170000_101_3
 70
0
 62
7
  6
CONTINUOUS
370
-3
390
F
  0
LAYER
  5
268
100
AcDbSymbolTableRecord
100
AcDbLayerTableRecord
  2
200A_170000__200A_170000_101_4
 70
0
 62
7
  6
CONTINUOUS
370
-3
390
F
  0
LAYER
  5
269
100
AcDbSymbolTableRecord
100
AcDbLayerTableRecord
  2
200A_170000__200A_170000_101_5
 70
0
 62
7
  6
CONTINUOUS
370
-3
390
F
  0
LAYER
  5
26A
100
AcDbSymbolTableRecord
100
AcDbLayerTableRecord
  2
200A_170000__200A_170000_101_6
 70
0
 62
7
  6
CONTINUOUS
370
-3
390
F
  0
LAYER
  5
26B
100
AcDbSymbolTableRecord
100
AcDbLayerTableRecord
  2
200A_170000__200A_170000_101_7
 70
0
 62
7
  6
CONTINUOUS
370
-3
390
F
  0
LAYER
  5
26C
100
AcDbSymbolTableRecord
100
AcDbLayerTableRecord
  2
200A_170000__200A_170000_101_8
 70
0
 62
7
  6
CONTINUOUS
370
-3
390
F
  0
LAYER
  5
26D
100
AcDbSymbolTableRecord
100
AcDbLayerTableRecord
  2
200A_170000__200A_170000_101_9
 70
0
 62
7
  6
CONTINUOUS
370
-3
390
F
  0
LAYER
  5
26E
100
AcDbSymbolTableRecord
100
AcDbLayerTableRecord
  2
200A_170000__200A_170000_34
 70
0
 62
7
  6
CONTINUOUS
370
-3
390
F
  0
LAYER
  5
26F
100
AcDbSymbolTableRecord
100
AcDbLayerTableRecord
  2
200A_170000__200A_170000_34_1
 70
0
 62
7
  6
CONTINUOUS
370
-3
390
F
  0
LAYER
  5
270
100
AcDbSymbolTableRecord
100
AcDbLayerTableRecord
  2
200A_170000__200A_170000_34_2
 70
0
 62
7
  6
CONTINUOUS
370
-3
390
F
  0
LAYER
  5
271
100
AcDbSymbolTableRecord
100
AcDbLayerTableRecord
  2
201A_254000
 70
0
 62
7
  6
CONTINUOUS
370
-3
390
F
  0
LAYER
  5
272
100
AcDbSymbolTableRecord
100
AcDbLayerTableRecord
  2
201A_260000__201A_260000_77
 70
0
 62
7
  6
CONTINUOUS
370
-3
390
F
  0
LAYER
  5
273
100
AcDbSymbolTableRecord
100
AcDbLayerTableRecord
  2
201A_260000__201A_260000_77_1
 70
0
 62
7
  6
CONTINUOUS
370
-3
390
F
  0
LAYER
  5
274
100
AcDbSymbolTableRecord
100
AcDbLayerTableRecord
  2
201A_260000__201A_260000_77_2
 70
0
 62
7
  6
CONTINUOUS
370
-3
390
F
  0
LAYER
  5
275
100
AcDbSymbolTableRecord
100
AcDbLayerTableRecord
  2
210_120000
 70
0
 62
7
  6
CONTINUOUS
370
-3
390
F
  0
LAYER
  5
276
100
AcDbSymbolTableRecord
100
AcDbLayerTableRecord
  2
210_120000_1
 70
0
 62
7
  6
CONTINUOUS
370
-3
390
F
  0
LAYER
  5
277
100
AcDbSymbolTableRecord
100
AcDbLayerTableRecord
  2
210_120000_10
 70
0
 62
7
  6
CONTINUOUS
370
-3
390
F
  0
LAYER
  5
278
100
AcDbSymbolTableRecord
100
AcDbLayerTableRecord
  2
210_120000_11
 70
0
 62
7
  6
CONTINUOUS
370
-3
390
F
  0
LAYER
  5
279
100
AcDbSymbolTableRecord
100
AcDbLayerTableRecord
  2
210_120000_12
 70
0
 62
7
  6
CONTINUOUS
370
-3
390
F
  0
LAYER
  5
27A
100
AcDbSymbolTableRecord
100
AcDbLayerTableRecord
  2
210_120000_13
 70
0
 62
7
  6
CONTINUOUS
370
-3
390
F
  0
LAYER
  5
27B
100
AcDbSymbolTableRecord
100
AcDbLayerTableRecord
  2
210_120000_14
 70
0
 62
7
  6
CONTINUOUS
370
-3
390
F
  0
LAYER
  5
27C
100
AcDbSymbolTableRecord
100
AcDbLayerTableRecord
  2
210_120000_15
 70
0
 62
7
  6
CONTINUOUS
370
-3
390
F
  0
LAYER
  5
27D
100
AcDbSymbolTableRecord
100
AcDbLayerTableRecord
  2
210_120000_16
 70
0
 62
7
  6
CONTINUOUS
370
-3
390
F
  0
LAYER
  5
27E
100
AcDbSymbolTableRecord
100
AcDbLayerTableRecord
  2
210_120000_17
 70
0
 62
7
  6
CONTINUOUS
370
-3
390
F
  0
LAYER
  5
27F
100
AcDbSymbolTableRecord
100
AcDbLayerTableRecord
  2
210_120000_18
 70
0
 62
7
  6
CONTINUOUS
370
-3
390
F
  0
LAYER
  5
280
100
AcDbSymbolTableRecord
100
AcDbLayerTableRecord
  2
210_120000_19
 70
0
 62
7
  6
CONTINUOUS
370
-3
390
F
  0
LAYER
  5
281
100
AcDbSymbolTableRecord
100
AcDbLayerTableRecord
  2
210_120000_2
 70
0
 62
7
  6
CONTINUOUS
370
-3
390
F
  0
LAYER
  5
282
100
AcDbSymbolTableRecord
100
AcDbLayerTableRecord
  2
210_120000_3
 70
0
 62
7
  6
CONTINUOUS
370
-3
390
F
  0
LAYER
  5
283
100
AcDbSymbolTableRecord
100
AcDbLayerTableRecord
  2
210_120000_4
 70
0
 62
7
  6
CONTINUOUS
370
-3
390
F
  0
LAYER
  5
284
100
AcDbSymbolTableRecord
100
AcDbLayerTableRecord
  2
210_120000_5
 70
0
 62
7
  6
CONTINUOUS
370
-3
390
F
  0
LAYER
  5
285
100
AcDbSymbolTableRecord
100
AcDbLayerTableRecord
  2
210_120000_6
 70
0
 62
7
  6
CONTINUOUS
370
-3
390
F
  0
LAYER
  5
286
100
AcDbSymbolTableRecord
100
AcDbLayerTableRecord
  2
210_120000_7
 70
0
 62
7
  6
CONTINUOUS
370
-3
390
F
  0
LAYER
  5
287
100
AcDbSymbolTableRecord
100
AcDbLayerTableRecord
  2
210_120000_8
 70
0
 62
7
  6
CONTINUOUS
370
-3
390
F
  0
LAYER
  5
288
100
AcDbSymbolTableRecord
100
AcDbLayerTableRecord
  2
210_120000_9
 70
0
 62
7
  6
CONTINUOUS
370
-3
390
F
  0
LAYER
  5
289
100
AcDbSymbolTableRecord
100
AcDbLayerTableRecord
  2
2125-CC-RF-VIMAR_65000__-115618
 70
0
 62
7
  6
CONTINUOUS
370
-3
390
F
  0
LAYER
  5
28A
100
AcDbSymbolTableRecord
100
AcDbLayerTableRecord
  2
2125-CC-RF-VIMAR_65000__-1156_1
 70
0
 62
7
  6
CONTINUOUS
370
-3
390
F
  0
LAYER
  5
28B
100
AcDbSymbolTableRecord
100
AcDbLayerTableRecord
  2
2125-CC-RF-VIMAR_65000__-1156_2
 70
0
 62
7
  6
CONTINUOUS
370
-3
390
F
  0
LAYER
  5
28C
100
AcDbSymbolTableRecord
100
AcDbLayerTableRecord
  2
2125-CC-RF-VIMAR_65000__-1156_3
 70
0
 62
7
  6
CONTINUOUS
370
-3
390
F
  0
LAYER
  5
28D
100
AcDbSymbolTableRecord
100
AcDbLayerTableRecord
  2
2125-CC-RF-VIMAR_65000__-1156_4
 70
0
 62
7
  6
CONTINUOUS
370
-3
390
F
  0
LAYER
  5
28E
100
AcDbSymbolTableRecord
100
AcDbLayerTableRecord
  2
2125-CC-RF-VIMAR_65000__-1156_5
 70
0
 62
7
  6
CONTINUOUS
370
-3
390
F
  0
LAYER
  5
28F
100
AcDbSymbolTableRecord
100
AcDbLayerTableRecord
  2
2125-CC-RF-VIMAR_65000__-1156_6
 70
0
 62
7
  6
CONTINUOUS
370
-3
390
F
  0
LAYER
  5
290
100
AcDbSymbolTableRecord
100
AcDbLayerTableRecord
  2
2125-CC-RF-VIMAR_65000__-1156_7
 70
0
 62
7
  6
CONTINUOUS
370
-3
390
F
  0
LAYER
  5
291
100
AcDbSymbolTableRecord
100
AcDbLayerTableRecord
  2
2125-CC-RF-VIMAR_65000__-1156_8
 70
0
 62
7
  6
CONTINUOUS
370
-3
390
F
  0
LAYER
  5
292
100
AcDbSymbolTableRecord
100
AcDbLayerTableRecord
  2
2125-CC-RF-VIMAR_65000__-1156_9
 70
0
 62
7
  6
CONTINUOUS
370
-3
390
F
  0
LAYER
  5
293
100
AcDbSymbolTableRecord
100
AcDbLayerTableRecord
  2
2125-CC-RF-VIMAR_65000__-115_10
 70
0
 62
7
  6
CONTINUOUS
370
-3
390
F
  0
LAYER
  5
294
100
AcDbSymbolTableRecord
100
AcDbLayerTableRecord
  2
2125-CC-RF-VIMAR_65000__-133359
 70
0
 62
7
  6
CONTINUOUS
370
-3
390
F
  0
LAYER
  5
295
100
AcDbSymbolTableRecord
100
AcDbLayerTableRecord
  2
2125-CC-RF-VIMAR_65000__-1333_1
 70
0
 62
7
  6
CONTINUOUS
370
-3
390
F
  0
LAYER
  5
296
100
AcDbSymbolTableRecord
100
AcDbLayerTableRecord
  2
2125-CC-RF-VIMAR_65000__-1333_2
 70
0
 62
7
  6
CONTINUOUS
370
-3
390
F
  0
LAYER
  5
297
100
AcDbSymbolTableRecord
100
AcDbLayerTableRecord
  2
2125-CC-RF-VIMAR_65000__-1333_3
 70
0
 62
7
  6
CONTINUOUS
370
-3
390
F
  0
LAYER
  5
298
100
AcDbSymbolTableRecord
100
AcDbLayerTableRecord
  2
2125-DL-RF-FINE_VIMAR_110000__1
 70
0
 62
7
  6
CONTINUOUS
370
-3
390
F
  0
LAYER
  5
299
100
AcDbSymbolTableRecord
100
AcDbLayerTableRecord
  2
2125-DL-RF-FINE_VIMAR_110000__2
 70
0
 62
7
  6
CONTINUOUS
370
-3
390
F
  0
LAYER
  5
29A
100
AcDbSymbolTableRecord
100
AcDbLayerTableRecord
  2
2125-DL-RF-FINE_VIMAR_110000__3
 70
0
 62
7
  6
CONTINUOUS
370
-3
390
F
  0
LAYER
  5
29B
100
AcDbSymbolTableRecord
100
AcDbLayerTableRecord
  2
2125-DL-RF-FINE_VIMAR_110000__4
 70
0
 62
7
  6
CONTINUOUS
370
-3
390
F
  0
LAYER
  5
29C
100
AcDbSymbolTableRecord
100
AcDbLayerTableRecord
  2
2125-DL-RF-FINE_VIMAR_110000__5
 70
0
 62
7
  6
CONTINUOUS
370
-3
390
F
  0
LAYER
  5
29D
100
AcDbSymbolTableRecord
100
AcDbLayerTableRecord
  2
2125-R1-RF-VIMAR_60000
 70
0
 62
7
  6
CONTINUOUS
370
-3
390
F
  0
LAYER
  5
29E
100
AcDbSymbolTableRecord
100
AcDbLayerTableRecord
  2
2125-R1-RF-VIMAR_60000__-126050
 70
0
 62
7
  6
CONTINUOUS
370
-3
390
F
  0
LAYER
  5
29F
100
AcDbSymbolTableRecord
100
AcDbLayerTableRecord
  2
2125-R1-RF-VIMAR_60000__-1260_1
 70
0
 62
7
  6
CONTINUOUS
370
-3
390
F
  0
LAYER
  5
2A0
100
AcDbSymbolTableRecord
100
AcDbLayerTableRecord
  2
2125-R1-RF-VIMAR_60000__-1260_2
 70
0
 62
7
  6
CONTINUOUS
370
-3
390
F
  0
LAYER
  5
2A1
100
AcDbSymbolTableRecord
100
AcDbLayerTableRecord
  2
2125-R1-RF-VIMAR_60000__-1260_3
 70
0
 62
7
  6
CONTINUOUS
370
-3
390
F
  0
LAYER
  5
2A2
100
AcDbSymbolTableRecord
100
AcDbLayerTableRecord
  2
2125-R1-RF-VIMAR_60000__-1260_4
 70
0
 62
7
  6
CONTINUOUS
370
-3
390
F
  0
LAYER
  5
2A3
100
AcDbSymbolTableRecord
100
AcDbLayerTableRecord
  2
2125-R1-RF-VIMAR_60000__-1260_5
 70
0
 62
7
  6
CONTINUOUS
370
-3
390
F
  0
LAYER
  5
2A4
100
AcDbSymbolTableRecord
100
AcDbLayerTableRecord
  2
2125-R1-RF-VIMAR_60000__-1260_6
 70
0
 62
7
  6
CONTINUOUS
370
-3
390
F
  0
LAYER
  5
2A5
100
AcDbSymbolTableRecord
100
AcDbLayerTableRecord
  2
2125-R1-RF-VIMAR_60000__-136989
 70
0
 62
7
  6
CONTINUOUS
370
-3
390
F
  0
LAYER
  5
2A6
100
AcDbSymbolTableRecord
100
AcDbLayerTableRecord
  2
2125-R1-RF-VIMAR_60000__-1369_1
 70
0
 62
7
  6
CONTINUOUS
370
-3
390
F
  0
LAYER
  5
2A7
100
AcDbSymbolTableRecord
100
AcDbLayerTableRecord
  2
2125-R1-RF-VIMAR_60000__-1369_2
 70
0
 62
7
  6
CONTINUOUS
370
-3
390
F
  0
LAYER
  5
2A8
100
AcDbSymbolTableRecord
100
AcDbLayerTableRecord
  2
2125-R1-RF-VIMAR_60000__-1369_3
 70
0
 62
7
  6
CONTINUOUS
370
-3
390
F
  0
LAYER
  5
2A9
100
AcDbSymbolTableRecord
100
AcDbLayerTableRecord
  2
2125-R1-RF-VIMAR_60000__-1369_4
 70
0
 62
7
  6
CONTINUOUS
370
-3
390
F
  0
LAYER
  5
2AA
100
AcDbSymbolTableRecord
100
AcDbLayerTableRecord
  2
2125-R1-RF-VIMAR_60000__-1369_5
 70
0
 62
7
  6
CONTINUOUS
370
-3
390
F
  0
LAYER
  5
2AB
100
AcDbSymbolTableRecord
100
AcDbLayerTableRecord
  2
2125-R1-RF-VIMAR_60000__-1369_6
 70
0
 62
7
  6
CONTINUOUS
370
-3
390
F
  0
LAYER
  5
2AC
100
AcDbSymbolTableRecord
100
AcDbLayerTableRecord
  2
2125-R1-RF-VIMAR_60000__-1369_7
 70
0
 62
7
  6
CONTINUOUS
370
-3
390
F
  0
LAYER
  5
2AD
100
AcDbSymbolTableRecord
100
AcDbLayerTableRecord
  2
3216-CF-RF-1-VIMAR_180000__3216
 70
0
 62
7
  6
CONTINUOUS
370
-3
390
F
  0
LAYER
  5
2AE
100
AcDbSymbolTableRecord
100
AcDbLayerTableRecord
  2
3216-CF-RF-1-VIMAR_180000__32_1
 70
0
 62
7
  6
CONTINUOUS
370
-3
390
F
  0
LAYER
  5
2AF
100
AcDbSymbolTableRecord
100
AcDbLayerTableRecord
  2
3216-CF-RF-1-VIMAR_180000__32_2
 70
0
 62
7
  6
CONTINUOUS
370
-3
390
F
  0
LAYER
  5
2B0
100
AcDbSymbolTableRecord
100
AcDbLayerTableRecord
  2
3216-CF-RF-VIMAR_100000
 70
0
 62
7
  6
CONTINUOUS
370
-3
390
F
  0
LAYER
  5
2B1
100
AcDbSymbolTableRecord
100
AcDbLayerTableRecord
  2
3216-CF-RF-VIMAR_100000_1
 70
0
 62
7
  6
CONTINUOUS
370
-3
390
F
  0
LAYER
  5
2B2
100
AcDbSymbolTableRecord
100
AcDbLayerTableRecord
  2
3216-CF-RF-VIMAR_100000_2
 70
0
 62
7
  6
CONTINUOUS
370
-3
390
F
  0
LAYER
  5
2B3
100
AcDbSymbolTableRecord
100
AcDbLayerTableRecord
  2
3216-CF-RF-VIMAR_100000_3
 70
0
 62
7
  6
CONTINUOUS
370
-3
390
F
  0
LAYER
  5
2B4
100
AcDbSymbolTableRecord
100
AcDbLayerTableRecord
  2
3216-CF-RF-VIMAR_100000_4
 70
0
 62
7
  6
CONTINUOUS
370
-3
390
F
  0
LAYER
  5
2B5
100
AcDbSymbolTableRecord
100
AcDbLayerTableRecord
  2
3216-CF-RF-VIMAR_100000_5
 70
0
 62
7
  6
CONTINUOUS
370
-3
390
F
  0
LAYER
  5
2B6
100
AcDbSymbolTableRecord
100
AcDbLayerTableRecord
  2
3216-CF-RF-VIMAR_100000__3216-C
 70
0
 62
7
  6
CONTINUOUS
370
-3
390
F
  0
LAYER
  5
2B7
100
AcDbSymbolTableRecord
100
AcDbLayerTableRecord
  2
3216-R1-RF-VIMAR_60000
 70
0
 62
7
  6
CONTINUOUS
370
-3
390
F
  0
LAYER
  5
2B8
100
AcDbSymbolTableRecord
100
AcDbLayerTableRecord
  2
3216-R1-RF-VIMAR_60000__3216-R1
 70
0
 62
7
  6
CONTINUOUS
370
-3
390
F
  0
LAYER
  5
2B9
100
AcDbSymbolTableRecord
100
AcDbLayerTableRecord
  2
3216-R1-RF-VIMAR_60000__3216-_1
 70
0
 62
7
  6
CONTINUOUS
370
-3
390
F
  0
LAYER
  5
2BA
100
AcDbSymbolTableRecord
100
AcDbLayerTableRecord
  2
3216-R1-RF-VIMAR_60000__3216-_2
 70
0
 62
7
  6
CONTINUOUS
370
-3
390
F
  0
LAYER
  5
2BB
100
AcDbSymbolTableRecord
100
AcDbLayerTableRecord
  2
3216-R1-RF-VIMAR_60000__3216-_3
 70
0
 62
7
  6
CONTINUOUS
370
-3
390
F
  0
LAYER
  5
2BC
100
AcDbSymbolTableRecord
100
AcDbLayerTableRecord
  2
3216-R1-RF-VIMAR_60000__3216-_4
 70
0
 62
7
  6
CONTINUOUS
370
-3
390
F
  0
LAYER
  5
2BD
100
AcDbSymbolTableRecord
100
AcDbLayerTableRecord
  2
3225-L-RF-VIMAR_220000__3225-L-
 70
0
 62
7
  6
CONTINUOUS
370
-3
390
F
  0
LAYER
  5
2BE
100
AcDbSymbolTableRecord
100
AcDbLayerTableRecord
  2
43000101D0
 70
0
 62
7
  6
CONTINUOUS
370
-3
390
F
  0
LAYER
  5
2BF
100
AcDbSymbolTableRecord
100
AcDbLayerTableRecord
  2
43000620A0_CONTORNO
 70
0
 62
7
  6
CONTINUOUS
370
-3
390
F
  0
LAYER
  5
2C0
100
AcDbSymbolTableRecord
100
AcDbLayerTableRecord
  2
43000621A0_CONTORNO
 70
0
 62
7
  6
CONTINUOUS
370
-3
390
F
  0
LAYER
  5
2C1
100
AcDbSymbolTableRecord
100
AcDbLayerTableRecord
  2
ASSI
 70
0
 62
7
  6
CONTINUOUS
370
-3
390
F
  0
LAYER
  5
2C2
100
AcDbSymbolTableRecord
100
AcDbLayerTableRecord
  2
AX-D100-1-VIMAR_300000__AX-D100
 70
0
 62
7
  6
CONTINUOUS
370
-3
390
F
  0
LAYER
  5
2C3
100
AcDbSymbolTableRecord
100
AcDbLayerTableRecord
  2
CAPC1608N_80000__CAPC160-115873
 70
0
 62
7
  6
CONTINUOUS
370
-3
390
F
  0
LAYER
  5
2C4
100
AcDbSymbolTableRecord
100
AcDbLayerTableRecord
  2
CAPC1608N_80000__CAPC160-1158_1
 70
0
 62
7
  6
CONTINUOUS
370
-3
390
F
  0
LAYER
  5
2C5
100
AcDbSymbolTableRecord
100
AcDbLayerTableRecord
  2
CAPC1608N_80000__CAPC160-1158_2
 70
0
 62
7
  6
CONTINUOUS
370
-3
390
F
  0
LAYER
  5
2C6
100
AcDbSymbolTableRecord
100
AcDbLayerTableRecord
  2
CAPC1608N_80000__CAPC160-1158_3
 70
0
 62
7
  6
CONTINUOUS
370
-3
390
F
  0
LAYER
  5
2C7
100
AcDbSymbolTableRecord
100
AcDbLayerTableRecord
  2
CAPC1608N_80000__CAPC160-1158_4
 70
0
 62
7
  6
CONTINUOUS
370
-3
390
F
  0
LAYER
  5
2C8
100
AcDbSymbolTableRecord
100
AcDbLayerTableRecord
  2
CAPC1608N_80000__CAPC160-1158_5
 70
0
 62
7
  6
CONTINUOUS
370
-3
390
F
  0
LAYER
  5
2C9
100
AcDbSymbolTableRecord
100
AcDbLayerTableRecord
  2
CAPC1608N_80000__CAPC160-1158_6
 70
0
 62
7
  6
CONTINUOUS
370
-3
390
F
  0
LAYER
  5
2CA
100
AcDbSymbolTableRecord
100
AcDbLayerTableRecord
  2
CAPC1608N_80000__CAPC160-1158_7
 70
0
 62
7
  6
CONTINUOUS
370
-3
390
F
  0
LAYER
  5
2CB
100
AcDbSymbolTableRecord
100
AcDbLayerTableRecord
  2
CAPC1608N_80000__CAPC160-1158_8
 70
0
 62
7
  6
CONTINUOUS
370
-3
390
F
  0
LAYER
  5
2CC
100
AcDbSymbolTableRecord
100
AcDbLayerTableRecord
  2
CAPC1608N_80000__CAPC160-1158_9
 70
0
 62
7
  6
CONTINUOUS
370
-3
390
F
  0
LAYER
  5
2CD
100
AcDbSymbolTableRecord
100
AcDbLayerTableRecord
  2
CAPC1608N_80000__CAPC160-115_10
 70
0
 62
7
  6
CONTINUOUS
370
-3
390
F
  0
LAYER
  5
2CE
100
AcDbSymbolTableRecord
100
AcDbLayerTableRecord
  2
CAPC1608N_80000__CAPC160-115_11
 70
0
 62
7
  6
CONTINUOUS
370
-3
390
F
  0
LAYER
  5
2CF
100
AcDbSymbolTableRecord
100
AcDbLayerTableRecord
  2
CAPC1608N_80000__CAPC160-115_12
 70
0
 62
7
  6
CONTINUOUS
370
-3
390
F
  0
LAYER
  5
2D0
100
AcDbSymbolTableRecord
100
AcDbLayerTableRecord
  2
CAPC1608N_80000__CAPC160-115_13
 70
0
 62
7
  6
CONTINUOUS
370
-3
390
F
  0
LAYER
  5
2D1
100
AcDbSymbolTableRecord
100
AcDbLayerTableRecord
  2
CAPC1608N_80000__CAPC160-115_14
 70
0
 62
7
  6
CONTINUOUS
370
-3
390
F
  0
LAYER
  5
2D2
100
AcDbSymbolTableRecord
100
AcDbLayerTableRecord
  2
CAPC1608N_80000__CAPC160-115_15
 70
0
 62
7
  6
CONTINUOUS
370
-3
390
F
  0
LAYER
  5
2D3
100
AcDbSymbolTableRecord
100
AcDbLayerTableRecord
  2
CAPC1608N_80000__CAPC160-115_16
 70
0
 62
7
  6
CONTINUOUS
370
-3
390
F
  0
LAYER
  5
2D4
100
AcDbSymbolTableRecord
100
AcDbLayerTableRecord
  2
CAPC1608N_80000__CAPC160-115_17
 70
0
 62
7
  6
CONTINUOUS
370
-3
390
F
  0
LAYER
  5
2D5
100
AcDbSymbolTableRecord
100
AcDbLayerTableRecord
  2
CAPC1608N_80000__CAPC160-115_18
 70
0
 62
7
  6
CONTINUOUS
370
-3
390
F
  0
LAYER
  5
2D6
100
AcDbSymbolTableRecord
100
AcDbLayerTableRecord
  2
CAPC1608N_80000__CAPC160-115_19
 70
0
 62
7
  6
CONTINUOUS
370
-3
390
F
  0
LAYER
  5
2D7
100
AcDbSymbolTableRecord
100
AcDbLayerTableRecord
  2
CAPC1608N_80000__CAPC160-115_20
 70
0
 62
7
  6
CONTINUOUS
370
-3
390
F
  0
LAYER
  5
2D8
100
AcDbSymbolTableRecord
100
AcDbLayerTableRecord
  2
CAPC1608N_80000__CAPC160-115_21
 70
0
 62
7
  6
CONTINUOUS
370
-3
390
F
  0
LAYER
  5
2D9
100
AcDbSymbolTableRecord
100
AcDbLayerTableRecord
  2
CAPC1608N_80000__CAPC160-115_22
 70
0
 62
7
  6
CONTINUOUS
370
-3
390
F
  0
LAYER
  5
2DA
100
AcDbSymbolTableRecord
100
AcDbLayerTableRecord
  2
CAPC1608N_80000__CAPC160-115_23
 70
0
 62
7
  6
CONTINUOUS
370
-3
390
F
  0
LAYER
  5
2DB
100
AcDbSymbolTableRecord
100
AcDbLayerTableRecord
  2
CAPC1608N_80000__CAPC160-115_24
 70
0
 62
7
  6
CONTINUOUS
370
-3
390
F
  0
LAYER
  5
2DC
100
AcDbSymbolTableRecord
100
AcDbLayerTableRecord
  2
CAPC1608N_80000__CAPC160-115_25
 70
0
 62
7
  6
CONTINUOUS
370
-3
390
F
  0
LAYER
  5
2DD
100
AcDbSymbolTableRecord
100
AcDbLayerTableRecord
  2
CAPC1608N_80000__CAPC160-115_26
 70
0
 62
7
  6
CONTINUOUS
370
-3
390
F
  0
LAYER
  5
2DE
100
AcDbSymbolTableRecord
100
AcDbLayerTableRecord
  2
CAPC1608N_80000__CAPC160-115_27
 70
0
 62
7
  6
CONTINUOUS
370
-3
390
F
  0
LAYER
  5
2DF
100
AcDbSymbolTableRecord
100
AcDbLayerTableRecord
  2
CAPC1608N_80000__CAPC160-115_28
 70
0
 62
7
  6
CONTINUOUS
370
-3
390
F
  0
LAYER
  5
2E0
100
AcDbSymbolTableRecord
100
AcDbLayerTableRecord
  2
CAPC1608N_80000__CAPC160-115_29
 70
0
 62
7
  6
CONTINUOUS
370
-3
390
F
  0
LAYER
  5
2E1
100
AcDbSymbolTableRecord
100
AcDbLayerTableRecord
  2
CAPC1608N_80000__CAPC160-115_30
 70
0
 62
7
  6
CONTINUOUS
370
-3
390
F
  0
LAYER
  5
2E2
100
AcDbSymbolTableRecord
100
AcDbLayerTableRecord
  2
CAPC1608N_80000__CAPC160-115_31
 70
0
 62
7
  6
CONTINUOUS
370
-3
390
F
  0
LAYER
  5
2E3
100
AcDbSymbolTableRecord
100
AcDbLayerTableRecord
  2
CAPC1608N_80000__CAPC160-115_32
 70
0
 62
7
  6
CONTINUOUS
370
-3
390
F
  0
LAYER
  5
2E4
100
AcDbSymbolTableRecord
100
AcDbLayerTableRecord
  2
CAPC1608N_80000__CAPC160-115_33
 70
0
 62
7
  6
CONTINUOUS
370
-3
390
F
  0
LAYER
  5
2E5
100
AcDbSymbolTableRecord
100
AcDbLayerTableRecord
  2
CAPC1608N_80000__CAPC160-115_34
 70
0
 62
7
  6
CONTINUOUS
370
-3
390
F
  0
LAYER
  5
2E6
100
AcDbSymbolTableRecord
100
AcDbLayerTableRecord
  2
CAPC1608N_80000__CAPC160-115_35
 70
0
 62
7
  6
CONTINUOUS
370
-3
390
F
  0
LAYER
  5
2E7
100
AcDbSymbolTableRecord
100
AcDbLayerTableRecord
  2
CAPC1608N_80000__CAPC160-115_36
 70
0
 62
7
  6
CONTINUOUS
370
-3
390
F
  0
LAYER
  5
2E8
100
AcDbSymbolTableRecord
100
AcDbLayerTableRecord
  2
CAPC1608N_80000__CAPC160-115_37
 70
0
 62
7
  6
CONTINUOUS
370
-3
390
F
  0
LAYER
  5
2E9
100
AcDbSymbolTableRecord
100
AcDbLayerTableRecord
  2
CAPC1608N_80000__CAPC160-115_38
 70
0
 62
7
  6
CONTINUOUS
370
-3
390
F
  0
LAYER
  5
2EA
100
AcDbSymbolTableRecord
100
AcDbLayerTableRecord
  2
CAPC1608N_80000__CAPC160-115_39
 70
0
 62
7
  6
CONTINUOUS
370
-3
390
F
  0
LAYER
  5
2EB
100
AcDbSymbolTableRecord
100
AcDbLayerTableRecord
  2
CAPC1608N_80000__CAPC160-115_40
 70
0
 62
7
  6
CONTINUOUS
370
-3
390
F
  0
LAYER
  5
2EC
100
AcDbSymbolTableRecord
100
AcDbLayerTableRecord
  2
CAPC1608N_80000__CAPC160-115_41
 70
0
 62
7
  6
CONTINUOUS
370
-3
390
F
  0
LAYER
  5
2ED
100
AcDbSymbolTableRecord
100
AcDbLayerTableRecord
  2
CAPC1608N_80000__CAPC160-115_42
 70
0
 62
7
  6
CONTINUOUS
370
-3
390
F
  0
LAYER
  5
2EE
100
AcDbSymbolTableRecord
100
AcDbLayerTableRecord
  2
CAPC1608N_80000__CAPC160-115_43
 70
0
 62
7
  6
CONTINUOUS
370
-3
390
F
  0
LAYER
  5
2EF
100
AcDbSymbolTableRecord
100
AcDbLayerTableRecord
  2
CAPC1608N_80000__CAPC160-115_44
 70
0
 62
7
  6
CONTINUOUS
370
-3
390
F
  0
LAYER
  5
2F0
100
AcDbSymbolTableRecord
100
AcDbLayerTableRecord
  2
CAPC1608N_80000__CAPC160-115_45
 70
0
 62
7
  6
CONTINUOUS
370
-3
390
F
  0
LAYER
  5
2F1
100
AcDbSymbolTableRecord
100
AcDbLayerTableRecord
  2
CAPC1608N_80000__CAPC160-115_46
 70
0
 62
7
  6
CONTINUOUS
370
-3
390
F
  0
LAYER
  5
2F2
100
AcDbSymbolTableRecord
100
AcDbLayerTableRecord
  2
CAPC1608N_80000__CAPC160-115_47
 70
0
 62
7
  6
CONTINUOUS
370
-3
390
F
  0
LAYER
  5
2F3
100
AcDbSymbolTableRecord
100
AcDbLayerTableRecord
  2
CAPC1608N_80000__CAPC160-115_48
 70
0
 62
7
  6
CONTINUOUS
370
-3
390
F
  0
LAYER
  5
2F4
100
AcDbSymbolTableRecord
100
AcDbLayerTableRecord
  2
CAPC1608N_80000__CAPC160-115_49
 70
0
 62
7
  6
CONTINUOUS
370
-3
390
F
  0
LAYER
  5
2F5
100
AcDbSymbolTableRecord
100
AcDbLayerTableRecord
  2
CAPC1608N_80000__CAPC160-115_50
 70
0
 62
7
  6
CONTINUOUS
370
-3
390
F
  0
LAYER
  5
2F6
100
AcDbSymbolTableRecord
100
AcDbLayerTableRecord
  2
CAPC1608N_80000__CAPC160-115_51
 70
0
 62
7
  6
CONTINUOUS
370
-3
390
F
  0
LAYER
  5
2F7
100
AcDbSymbolTableRecord
100
AcDbLayerTableRecord
  2
CAPC1608N_80000__CAPC160-133131
 70
0
 62
7
  6
CONTINUOUS
370
-3
390
F
  0
LAYER
  5
2F8
100
AcDbSymbolTableRecord
100
AcDbLayerTableRecord
  2
CAPC1608N_80000__CAPC160-1331_1
 70
0
 62
7
  6
CONTINUOUS
370
-3
390
F
  0
LAYER
  5
2F9
100
AcDbSymbolTableRecord
100
AcDbLayerTableRecord
  2
CAPC1608N_80000__CAPC160-1331_2
 70
0
 62
7
  6
CONTINUOUS
370
-3
390
F
  0
LAYER
  5
2FA
100
AcDbSymbolTableRecord
100
AcDbLayerTableRecord
  2
CAPC1608N_80000__CAPC160-1331_3
 70
0
 62
7
  6
CONTINUOUS
370
-3
390
F
  0
LAYER
  5
2FB
100
AcDbSymbolTableRecord
100
AcDbLayerTableRecord
  2
CAPC1608N_80000__CAPC160-1331_4
 70
0
 62
7
  6
CONTINUOUS
370
-3
390
F
  0
LAYER
  5
2FC
100
AcDbSymbolTableRecord
100
AcDbLayerTableRecord
  2
CAPC1608N_80000__CAPC160-1331_5
 70
0
 62
7
  6
CONTINUOUS
370
-3
390
F
  0
LAYER
  5
2FD
100
AcDbSymbolTableRecord
100
AcDbLayerTableRecord
  2
CAPC1608N_80000__CAPC160-1331_6
 70
0
 62
7
  6
CONTINUOUS
370
-3
390
F
  0
LAYER
  5
2FE
100
AcDbSymbolTableRecord
100
AcDbLayerTableRecord
  2
CAPC1608N_80000__CAPC160-1331_7
 70
0
 62
7
  6
CONTINUOUS
370
-3
390
F
  0
LAYER
  5
2FF
100
AcDbSymbolTableRecord
100
AcDbLayerTableRecord
  2
CAPC1608N_80000__CAPC160-1331_8
 70
0
 62
7
  6
CONTINUOUS
370
-3
390
F
  0
LAYER
  5
300
100
AcDbSymbolTableRecord
100
AcDbLayerTableRecord
  2
CAPC1608N_80000__CAPC160-1331_9
 70
0
 62
7
  6
CONTINUOUS
370
-3
390
F
  0
LAYER
  5
301
100
AcDbSymbolTableRecord
100
AcDbLayerTableRecord
  2
CAPC1608N_80000__CAPC160-133_10
 70
0
 62
7
  6
CONTINUOUS
370
-3
390
F
  0
LAYER
  5
302
100
AcDbSymbolTableRecord
100
AcDbLayerTableRecord
  2
CAPC1608N_80000__CAPC160-133_11
 70
0
 62
7
  6
CONTINUOUS
370
-3
390
F
  0
LAYER
  5
303
100
AcDbSymbolTableRecord
100
AcDbLayerTableRecord
  2
CAPC1608N_80000__CAPC160-133_12
 70
0
 62
7
  6
CONTINUOUS
370
-3
390
F
  0
LAYER
  5
304
100
AcDbSymbolTableRecord
100
AcDbLayerTableRecord
  2
CAPC1608N_80000__CAPC160-133_13
 70
0
 62
7
  6
CONTINUOUS
370
-3
390
F
  0
LAYER
  5
305
100
AcDbSymbolTableRecord
100
AcDbLayerTableRecord
  2
CAPC1608N_80000__CAPC160-133_14
 70
0
 62
7
  6
CONTINUOUS
370
-3
390
F
  0
LAYER
  5
306
100
AcDbSymbolTableRecord
100
AcDbLayerTableRecord
  2
CAPC1608N_80000__CAPC160-133_15
 70
0
 62
7
  6
CONTINUOUS
370
-3
390
F
  0
LAYER
  5
307
100
AcDbSymbolTableRecord
100
AcDbLayerTableRecord
  2
CAPC1608N_80000__CAPC160-133_16
 70
0
 62
7
  6
CONTINUOUS
370
-3
390
F
  0
LAYER
  5
308
100
AcDbSymbolTableRecord
100
AcDbLayerTableRecord
  2
CAPC1608N_80000__CAPC160-133_17
 70
0
 62
7
  6
CONTINUOUS
370
-3
390
F
  0
LAYER
  5
309
100
AcDbSymbolTableRecord
100
AcDbLayerTableRecord
  2
CAPC1608N_80000__CAPC160-133_18
 70
0
 62
7
  6
CONTINUOUS
370
-3
390
F
  0
LAYER
  5
30A
100
AcDbSymbolTableRecord
100
AcDbLayerTableRecord
  2
CAPC1608N_80000__CAPC160-133_19
 70
0
 62
7
  6
CONTINUOUS
370
-3
390
F
  0
LAYER
  5
30B
100
AcDbSymbolTableRecord
100
AcDbLayerTableRecord
  2
CC-0603-VIMAR_1000
 70
0
 62
7
  6
CONTINUOUS
370
-3
390
F
  0
LAYER
  5
30C
100
AcDbSymbolTableRecord
100
AcDbLayerTableRecord
  2
CC-0603-VIMAR_1000_1
 70
0
 62
7
  6
CONTINUOUS
370
-3
390
F
  0
LAYER
  5
30D
100
AcDbSymbolTableRecord
100
AcDbLayerTableRecord
  2
CC-20MILS-VIMAR_1000__CC-20MILS
 70
0
 62
7
  6
CONTINUOUS
370
-3
390
F
  0
LAYER
  5
30E
100
AcDbSymbolTableRecord
100
AcDbLayerTableRecord
  2
CC-20MILS-VIMAR_1000__CC-20MI_1
 70
0
 62
7
  6
CONTINUOUS
370
-3
390
F
  0
LAYER
  5
30F
100
AcDbSymbolTableRecord
100
AcDbLayerTableRecord
  2
CC-20MILS-VIMAR_1000__CC-20MI_2
 70
0
 62
7
  6
CONTINUOUS
370
-3
390
F
  0
LAYER
  5
310
100
AcDbSymbolTableRecord
100
AcDbLayerTableRecord
  2
CN-MRT4P5_2-VIMAR_1750000__CN-M
 70
0
 62
7
  6
CONTINUOUS
370
-3
390
F
  0
LAYER
  5
311
100
AcDbSymbolTableRecord
100
AcDbLayerTableRecord
  2
CN-MRT4P5_2-VIMAR_1750000__CN_1
 70
0
 62
7
  6
CONTINUOUS
370
-3
390
F
  0
LAYER
  5
312
100
AcDbSymbolTableRecord
100
AcDbLayerTableRecord
  2
CN-MRT4P5_2-VIMAR_1750000__CN_2
 70
0
 62
7
  6
CONTINUOUS
370
-3
390
F
  0
LAYER
  5
313
100
AcDbSymbolTableRecord
100
AcDbLayerTableRecord
  2
CN-MRT4P5_2-VIMAR_1750000__CN_3
 70
0
 62
7
  6
CONTINUOUS
370
-3
390
F
  0
LAYER
  5
314
100
AcDbSymbolTableRecord
100
AcDbLayerTableRecord
  2
CN-MRT4P5_2-VIMAR_1750000__CN_4
 70
0
 62
7
  6
CONTINUOUS
370
-3
390
F
  0
LAYER
  5
315
100
AcDbSymbolTableRecord
100
AcDbLayerTableRecord
  2
CN-MRT4P5_2-VIMAR_1750000__CN_5
 70
0
 62
7
  6
CONTINUOUS
370
-3
390
F
  0
LAYER
  5
316
100
AcDbSymbolTableRecord
100
AcDbLayerTableRecord
  2
CN-MSM02001-VIMAR_1520000
 70
0
 62
7
  6
CONTINUOUS
370
-3
390
F
  0
LAYER
  5
317
100
AcDbSymbolTableRecord
100
AcDbLayerTableRecord
  2
CN-MSM02001-VIMAR_1520000_1
 70
0
 62
7
  6
CONTINUOUS
370
-3
390
F
  0
LAYER
  5
318
100
AcDbSymbolTableRecord
100
AcDbLayerTableRecord
  2
CN-MSM02001-VIMAR_1520000_2
 70
0
 62
7
  6
CONTINUOUS
370
-3
390
F
  0
LAYER
  5
319
100
AcDbSymbolTableRecord
100
AcDbLayerTableRecord
  2
CN1-REF_RHOMBUSHOLE24_SPEA_0__1
 70
0
 62
7
  6
CONTINUOUS
370
-3
390
F
  0
LAYER
  5
31A
100
AcDbSymbolTableRecord
100
AcDbLayerTableRecord
  2
CN1-REF_RHOMBUSHOLE24_SPEA_0__C
 70
0
 62
7
  6
CONTINUOUS
370
-3
390
F
  0
LAYER
  5
31B
100
AcDbSymbolTableRecord
100
AcDbLayerTableRecord
  2
CN1-REF_SQUAREHOLE12_SPEA-VIMAR
 70
0
 62
7
  6
CONTINUOUS
370
-3
390
F
  0
LAYER
  5
31C
100
AcDbSymbolTableRecord
100
AcDbLayerTableRecord
  2
CN1-REF_SQUAREHOLE12_SPEA-VIM_1
 70
0
 62
7
  6
CONTINUOUS
370
-3
390
F
  0
LAYER
  5
31D
100
AcDbSymbolTableRecord
100
AcDbLayerTableRecord
  2
CN1-TP10_SMD-VIMAR_10000
 70
0
 62
7
  6
CONTINUOUS
370
-3
390
F
  0
LAYER
  5
31E
100
AcDbSymbolTableRecord
100
AcDbLayerTableRecord
  2
CN1-TP10_SMD-VIMAR_10000_1
 70
0
 62
7
  6
CONTINUOUS
370
-3
390
F
  0
LAYER
  5
31F
100
AcDbSymbolTableRecord
100
AcDbLayerTableRecord
  2
CN1-TP10_SMD-VIMAR_10000_2
 70
0
 62
7
  6
CONTINUOUS
370
-3
390
F
  0
LAYER
  5
320
100
AcDbSymbolTableRecord
100
AcDbLayerTableRecord
  2
CN1-TP10_SMD-VIMAR_10000_3
 70
0
 62
7
  6
CONTINUOUS
370
-3
390
F
  0
LAYER
  5
321
100
AcDbSymbolTableRecord
100
AcDbLayerTableRecord
  2
CN1-TP15_SMD-VIMAR_5000__CN1-TP
 70
0
 62
7
  6
CONTINUOUS
370
-3
390
F
  0
LAYER
  5
322
100
AcDbSymbolTableRecord
100
AcDbLayerTableRecord
  2
CN1-TP15_SMD-VIMAR_5000__CN1-_1
 70
0
 62
7
  6
CONTINUOUS
370
-3
390
F
  0
LAYER
  5
323
100
AcDbSymbolTableRecord
100
AcDbLayerTableRecord
  2
CN1-TP15_SMD-VIMAR_5000__CN1-_2
 70
0
 62
7
  6
CONTINUOUS
370
-3
390
F
  0
LAYER
  5
324
100
AcDbSymbolTableRecord
100
AcDbLayerTableRecord
  2
CN1-TP15_SMD-VIMAR_5000__CN1-_3
 70
0
 62
7
  6
CONTINUOUS
370
-3
390
F
  0
LAYER
  5
325
100
AcDbSymbolTableRecord
100
AcDbLayerTableRecord
  2
CN1-TP15_SMD-VIMAR_5000__CN1-_4
 70
0
 62
7
  6
CONTINUOUS
370
-3
390
F
  0
LAYER
  5
326
100
AcDbSymbolTableRecord
100
AcDbLayerTableRecord
  2
CN1-TP15_SMD-VIMAR_5000__CN1-_5
 70
0
 62
7
  6
CONTINUOUS
370
-3
390
F
  0
LAYER
  5
327
100
AcDbSymbolTableRecord
100
AcDbLayerTableRecord
  2
CN10-FSN-1_2540000__CN10-128215
 70
0
 62
7
  6
CONTINUOUS
370
-3
390
F
  0
LAYER
  5
328
100
AcDbSymbolTableRecord
100
AcDbLayerTableRecord
  2
CN10-FSN-1_2540000__CN10-139277
 70
0
 62
7
  6
CONTINUOUS
370
-3
390
F
  0
LAYER
  5
329
100
AcDbSymbolTableRecord
100
AcDbLayerTableRecord
  2
CN12-ZIF_P0_5-VIMAR_200000__CN1
 70
0
 62
7
  6
CONTINUOUS
370
-3
390
F
  0
LAYER
  5
32A
100
AcDbSymbolTableRecord
100
AcDbLayerTableRecord
  2
CN2-FSN-1_2540000__CN2-F-130130
 70
0
 62
7
  6
CONTINUOUS
370
-3
390
F
  0
LAYER
  5
32B
100
AcDbSymbolTableRecord
100
AcDbLayerTableRecord
  2
CN2-FSN-1_2540000__CN2-F-138777
 70
0
 62
7
  6
CONTINUOUS
370
-3
390
F
  0
LAYER
  5
32C
100
AcDbSymbolTableRecord
100
AcDbLayerTableRecord
  2
CN9-FSN-1_2500000
 70
0
 62
7
  6
CONTINUOUS
370
-3
390
F
  0
LAYER
  5
32D
100
AcDbSymbolTableRecord
100
AcDbLayerTableRecord
  2
COLOR1
 70
0
 62
7
  6
CONTINUOUS
370
-3
390
F
  0
LAYER
  5
32E
100
AcDbSymbolTableRecord
100
AcDbLayerTableRecord
  2
COLOR10
 70
0
 62
7
  6
CONTINUOUS
370
-3
390
F
  0
LAYER
  5
32F
100
AcDbSymbolTableRecord
100
AcDbLayerTableRecord
  2
COLOR11
 70
0
 62
7
  6
CONTINUOUS
370
-3
390
F
  0
LAYER
  5
330
100
AcDbSymbolTableRecord
100
AcDbLayerTableRecord
  2
COLOR12
 70
0
 62
7
  6
CONTINUOUS
370
-3
390
F
  0
LAYER
  5
331
100
AcDbSymbolTableRecord
100
AcDbLayerTableRecord
  2
COLOR13
 70
0
 62
7
  6
CONTINUOUS
370
-3
390
F
  0
LAYER
  5
332
100
AcDbSymbolTableRecord
100
AcDbLayerTableRecord
  2
COLOR14
 70
0
 62
7
  6
CONTINUOUS
370
-3
390
F
  0
LAYER
  5
333
100
AcDbSymbolTableRecord
100
AcDbLayerTableRecord
  2
COLOR15
 70
0
 62
7
  6
CONTINUOUS
370
-3
390
F
  0
LAYER
  5
334
100
AcDbSymbolTableRecord
100
AcDbLayerTableRecord
  2
COLOR16
 70
0
 62
7
  6
CONTINUOUS
370
-3
390
F
  0
LAYER
  5
335
100
AcDbSymbolTableRecord
100
AcDbLayerTableRecord
  2
COLOR18
 70
0
 62
7
  6
CONTINUOUS
370
-3
390
F
  0
LAYER
  5
336
100
AcDbSymbolTableRecord
100
AcDbLayerTableRecord
  2
COLOR19
 70
0
 62
7
  6
CONTINUOUS
370
-3
390
F
  0
LAYER
  5
337
100
AcDbSymbolTableRecord
100
AcDbLayerTableRecord
  2
COLOR2
 70
0
 62
7
  6
CONTINUOUS
370
-3
390
F
  0
LAYER
  5
338
100
AcDbSymbolTableRecord
100
AcDbLayerTableRecord
  2
COLOR20
 70
0
 62
7
  6
CONTINUOUS
370
-3
390
F
  0
LAYER
  5
339
100
AcDbSymbolTableRecord
100
AcDbLayerTableRecord
  2
COLOR21
 70
0
 62
7
  6
CONTINUOUS
370
-3
390
F
  0
LAYER
  5
33A
100
AcDbSymbolTableRecord
100
AcDbLayerTableRecord
  2
COLOR22
 70
0
 62
7
  6
CONTINUOUS
370
-3
390
F
  0
LAYER
  5
33B
100
AcDbSymbolTableRecord
100
AcDbLayerTableRecord
  2
COLOR23
 70
0
 62
7
  6
CONTINUOUS
370
-3
390
F
  0
LAYER
  5
33C
100
AcDbSymbolTableRecord
100
AcDbLayerTableRecord
  2
COLOR25
 70
0
 62
7
  6
CONTINUOUS
370
-3
390
F
  0
LAYER
  5
33D
100
AcDbSymbolTableRecord
100
AcDbLayerTableRecord
  2
COLOR26
 70
0
 62
7
  6
CONTINUOUS
370
-3
390
F
  0
LAYER
  5
33E
100
AcDbSymbolTableRecord
100
AcDbLayerTableRecord
  2
COLOR28
 70
0
 62
7
  6
CONTINUOUS
370
-3
390
F
  0
LAYER
  5
33F
100
AcDbSymbolTableRecord
100
AcDbLayerTableRecord
  2
COLOR3
 70
0
 62
7
  6
CONTINUOUS
370
-3
390
F
  0
LAYER
  5
340
100
AcDbSymbolTableRecord
100
AcDbLayerTableRecord
  2
COLOR32
 70
0
 62
7
  6
CONTINUOUS
370
-3
390
F
  0
LAYER
  5
341
100
AcDbSymbolTableRecord
100
AcDbLayerTableRecord
  2
COLOR34
 70
0
 62
7
  6
CONTINUOUS
370
-3
390
F
  0
LAYER
  5
342
100
AcDbSymbolTableRecord
100
AcDbLayerTableRecord
  2
COLOR37
 70
0
 62
7
  6
CONTINUOUS
370
-3
390
F
  0
LAYER
  5
343
100
AcDbSymbolTableRecord
100
AcDbLayerTableRecord
  2
COLOR4
 70
0
 62
7
  6
CONTINUOUS
370
-3
390
F
  0
LAYER
  5
344
100
AcDbSymbolTableRecord
100
AcDbLayerTableRecord
  2
COLOR40
 70
0
 62
7
  6
CONTINUOUS
370
-3
390
F
  0
LAYER
  5
345
100
AcDbSymbolTableRecord
100
AcDbLayerTableRecord
  2
COLOR41
 70
0
 62
7
  6
CONTINUOUS
370
-3
390
F
  0
LAYER
  5
346
100
AcDbSymbolTableRecord
100
AcDbLayerTableRecord
  2
COLOR42
 70
0
 62
7
  6
CONTINUOUS
370
-3
390
F
  0
LAYER
  5
347
100
AcDbSymbolTableRecord
100
AcDbLayerTableRecord
  2
COLOR43
 70
0
 62
7
  6
CONTINUOUS
370
-3
390
F
  0
LAYER
  5
348
100
AcDbSymbolTableRecord
100
AcDbLayerTableRecord
  2
COLOR44
 70
0
 62
7
  6
CONTINUOUS
370
-3
390
F
  0
LAYER
  5
349
100
AcDbSymbolTableRecord
100
AcDbLayerTableRecord
  2
COLOR45
 70
0
 62
7
  6
CONTINUOUS
370
-3
390
F
  0
LAYER
  5
34A
100
AcDbSymbolTableRecord
100
AcDbLayerTableRecord
  2
COLOR46
 70
0
 62
7
  6
CONTINUOUS
370
-3
390
F
  0
LAYER
  5
34B
100
AcDbSymbolTableRecord
100
AcDbLayerTableRecord
  2
COLOR47
 70
0
 62
7
  6
CONTINUOUS
370
-3
390
F
  0
LAYER
  5
34C
100
AcDbSymbolTableRecord
100
AcDbLayerTableRecord
  2
COLOR48
 70
0
 62
7
  6
CONTINUOUS
370
-3
390
F
  0
LAYER
  5
34D
100
AcDbSymbolTableRecord
100
AcDbLayerTableRecord
  2
COLOR49
 70
0
 62
7
  6
CONTINUOUS
370
-3
390
F
  0
LAYER
  5
34E
100
AcDbSymbolTableRecord
100
AcDbLayerTableRecord
  2
COLOR5
 70
0
 62
7
  6
CONTINUOUS
370
-3
390
F
  0
LAYER
  5
34F
100
AcDbSymbolTableRecord
100
AcDbLayerTableRecord
  2
COLOR50
 70
0
 62
7
  6
CONTINUOUS
370
-3
390
F
  0
LAYER
  5
350
100
AcDbSymbolTableRecord
100
AcDbLayerTableRecord
  2
COORDINATE
 70
0
 62
7
  6
CONTINUOUS
370
-3
390
F
  0
LAYER
  5
351
100
AcDbSymbolTableRecord
100
AcDbLayerTableRecord
  2
COORD_ORIGINE
 70
0
 62
7
  6
CONTINUOUS
370
-3
390
F
  0
LAYER
  5
352
100
AcDbSymbolTableRecord
100
AcDbLayerTableRecord
  2
COPY_PUBLISH
 70
0
 62
7
  6
CONTINUOUS
370
-3
390
F
  0
LAYER
  5
353
100
AcDbSymbolTableRecord
100
AcDbLayerTableRecord
  2
COSMETIC
 70
0
 62
7
  6
CONTINUOUS
370
-3
390
F
  0
LAYER
  5
354
100
AcDbSymbolTableRecord
100
AcDbLayerTableRecord
  2
COSMETICI
 70
0
 62
7
  6
CONTINUOUS
370
-3
390
F
  0
LAYER
  5
355
100
AcDbSymbolTableRecord
100
AcDbLayerTableRecord
  2
CP-CE11-RF-VIMAR_630000__CP-CE1
 70
0
 62
7
  6
CONTINUOUS
370
-3
390
F
  0
LAYER
  5
356
100
AcDbSymbolTableRecord
100
AcDbLayerTableRecord
  2
CP-CE11-RF-VIMAR_630000__CP-C_1
 70
0
 62
7
  6
CONTINUOUS
370
-3
390
F
  0
LAYER
  5
357
100
AcDbSymbolTableRecord
100
AcDbLayerTableRecord
  2
CP-CE2-RF_570000__CP-CE2-RF_570
 70
0
 62
7
  6
CONTINUOUS
370
-3
390
F
  0
LAYER
  5
358
100
AcDbSymbolTableRecord
100
AcDbLayerTableRecord
  2
CP-CE3-RF_550000
 70
0
 62
7
  6
CONTINUOUS
370
-3
390
F
  0
LAYER
  5
359
100
AcDbSymbolTableRecord
100
AcDbLayerTableRecord
  2
CP-CE3-RF_550000_1
 70
0
 62
7
  6
CONTINUOUS
370
-3
390
F
  0
LAYER
  5
35A
100
AcDbSymbolTableRecord
100
AcDbLayerTableRecord
  2
CP-CE3-RF_550000_2
 70
0
 62
7
  6
CONTINUOUS
370
-3
390
F
  0
LAYER
  5
35B
100
AcDbSymbolTableRecord
100
AcDbLayerTableRecord
  2
CP-CE3-RF_550000_3
 70
0
 62
7
  6
CONTINUOUS
370
-3
390
F
  0
LAYER
  5
35C
100
AcDbSymbolTableRecord
100
AcDbLayerTableRecord
  2
CP-CE3-RF_550000_4
 70
0
 62
7
  6
CONTINUOUS
370
-3
390
F
  0
LAYER
  5
35D
100
AcDbSymbolTableRecord
100
AcDbLayerTableRecord
  2
CP-CE5-RF_650000
 70
0
 62
7
  6
CONTINUOUS
370
-3
390
F
  0
LAYER
  5
35E
100
AcDbSymbolTableRecord
100
AcDbLayerTableRecord
  2
CP-CE5-RF_650000_1
 70
0
 62
7
  6
CONTINUOUS
370
-3
390
F
  0
LAYER
  5
35F
100
AcDbSymbolTableRecord
100
AcDbLayerTableRecord
  2
CP-CE5-RF_650000_2
 70
0
 62
7
  6
CONTINUOUS
370
-3
390
F
  0
LAYER
  5
360
100
AcDbSymbolTableRecord
100
AcDbLayerTableRecord
  2
CP-CE5-RF_650000__CP-CE5-131557
 70
0
 62
7
  6
CONTINUOUS
370
-3
390
F
  0
LAYER
  5
361
100
AcDbSymbolTableRecord
100
AcDbLayerTableRecord
  2
CP-CE5-RF_650000__CP-CE5-133959
 70
0
 62
7
  6
CONTINUOUS
370
-3
390
F
  0
LAYER
  5
362
100
AcDbSymbolTableRecord
100
AcDbLayerTableRecord
  2
CP-CE5-RF_650000__CP-CE5-1339_1
 70
0
 62
7
  6
CONTINUOUS
370
-3
390
F
  0
LAYER
  5
363
100
AcDbSymbolTableRecord
100
AcDbLayerTableRecord
  2
CP-CE6-RF_820000
 70
0
 62
7
  6
CONTINUOUS
370
-3
390
F
  0
LAYER
  5
364
100
AcDbSymbolTableRecord
100
AcDbLayerTableRecord
  2
CP-CE8-RF-FINE-VIMAR_1080000__C
 70
0
 62
7
  6
CONTINUOUS
370
-3
390
F
  0
LAYER
  5
365
100
AcDbSymbolTableRecord
100
AcDbLayerTableRecord
  2
CP-DO-214AA-VIMAR_240000
 70
0
 62
7
  6
CONTINUOUS
370
-3
390
F
  0
LAYER
  5
366
100
AcDbSymbolTableRecord
100
AcDbLayerTableRecord
  2
CP-DO-214AC-D-VIMAR_2400-117556
 70
0
 62
7
  6
CONTINUOUS
370
-3
390
F
  0
LAYER
  5
367
100
AcDbSymbolTableRecord
100
AcDbLayerTableRecord
  2
CP-DO-214AC-D-VIMAR_2400-1175_1
 70
0
 62
7
  6
CONTINUOUS
370
-3
390
F
  0
LAYER
  5
368
100
AcDbSymbolTableRecord
100
AcDbLayerTableRecord
  2
CP-DO-214AC-D-VIMAR_2400-1175_2
 70
0
 62
7
  6
CONTINUOUS
370
-3
390
F
  0
LAYER
  5
369
100
AcDbSymbolTableRecord
100
AcDbLayerTableRecord
  2
CP-DO-214AC-D-VIMAR_2400-1175_3
 70
0
 62
7
  6
CONTINUOUS
370
-3
390
F
  0
LAYER
  5
36A
100
AcDbSymbolTableRecord
100
AcDbLayerTableRecord
  2
CP-DO-214AC-D-VIMAR_2400-1175_4
 70
0
 62
7
  6
CONTINUOUS
370
-3
390
F
  0
LAYER
  5
36B
100
AcDbSymbolTableRecord
100
AcDbLayerTableRecord
  2
CP-DO-214AC-D-VIMAR_2400-134565
 70
0
 62
7
  6
CONTINUOUS
370
-3
390
F
  0
LAYER
  5
36C
100
AcDbSymbolTableRecord
100
AcDbLayerTableRecord
  2
CP-DO-214AC-VIMAR_240000
 70
0
 62
7
  6
CONTINUOUS
370
-3
390
F
  0
LAYER
  5
36D
100
AcDbSymbolTableRecord
100
AcDbLayerTableRecord
  2
CP-DO-214AC-VIMAR_240000_1
 70
0
 62
7
  6
CONTINUOUS
370
-3
390
F
  0
LAYER
  5
36E
100
AcDbSymbolTableRecord
100
AcDbLayerTableRecord
  2
CP-DO-214AC-VIMAR_240000__CP-DO
 70
0
 62
7
  6
CONTINUOUS
370
-3
390
F
  0
LAYER
  5
36F
100
AcDbSymbolTableRecord
100
AcDbLayerTableRecord
  2
CP-DO-214AC-VIMAR_240000__CP-_1
 70
0
 62
7
  6
CONTINUOUS
370
-3
390
F
  0
LAYER
  5
370
100
AcDbSymbolTableRecord
100
AcDbLayerTableRecord
  2
CP-DO-214AC-VIMAR_240000__CP-_2
 70
0
 62
7
  6
CONTINUOUS
370
-3
390
F
  0
LAYER
  5
371
100
AcDbSymbolTableRecord
100
AcDbLayerTableRecord
  2
CP-DO-214AC-VIMAR_240000__CP-_3
 70
0
 62
7
  6
CONTINUOUS
370
-3
390
F
  0
LAYER
  5
372
100
AcDbSymbolTableRecord
100
AcDbLayerTableRecord
  2
CP-DO-214AC-VIMAR_240000__CP-_4
 70
0
 62
7
  6
CONTINUOUS
370
-3
390
F
  0
LAYER
  5
373
100
AcDbSymbolTableRecord
100
AcDbLayerTableRecord
  2
CP-L1-RF-VIMAR_340000__CP-L1-RF
 70
0
 62
7
  6
CONTINUOUS
370
-3
390
F
  0
LAYER
  5
374
100
AcDbSymbolTableRecord
100
AcDbLayerTableRecord
  2
CP-L3-RF-VIMAR_180000
 70
0
 62
7
  6
CONTINUOUS
370
-3
390
F
  0
LAYER
  5
375
100
AcDbSymbolTableRecord
100
AcDbLayerTableRecord
  2
CP-L4-RF-VIMAR_470000
 70
0
 62
7
  6
CONTINUOUS
370
-3
390
F
  0
LAYER
  5
376
100
AcDbSymbolTableRecord
100
AcDbLayerTableRecord
  2
CP-SDR1045-RF-VIMAR_450000__CP-
 70
0
 62
7
  6
CONTINUOUS
370
-3
390
F
  0
LAYER
  5
377
100
AcDbSymbolTableRecord
100
AcDbLayerTableRecord
  2
CURVE
 70
0
 62
7
  6
CONTINUOUS
370
-3
390
F
  0
LAYER
  5
378
100
AcDbSymbolTableRecord
100
AcDbLayerTableRecord
  2
DRAFT
 70
0
 62
7
  6
CONTINUOUS
370
-3
390
F
  0
LAYER
  5
379
100
AcDbSymbolTableRecord
100
AcDbLayerTableRecord
  2
EX_MARK_10000
 70
0
 62
7
  6
CONTINUOUS
370
-3
390
F
  0
LAYER
  5
37A
100
AcDbSymbolTableRecord
100
AcDbLayerTableRecord
  2
IGES_HOLGER
 70
0
 62
7
  6
CONTINUOUS
370
-3
390
F
  0
LAYER
  5
37B
100
AcDbSymbolTableRecord
100
AcDbLayerTableRecord
  2
IMPORT_IGES
 70
0
 62
7
  6
CONTINUOUS
370
-3
390
F
  0
LAYER
  5
37C
100
AcDbSymbolTableRecord
100
AcDbLayerTableRecord
  2
INTFCLR_1
 70
0
 62
7
  6
CONTINUOUS
370
-3
390
F
  0
LAYER
  5
37D
100
AcDbSymbolTableRecord
100
AcDbLayerTableRecord
  2
INTFCLR_2
 70
0
 62
7
  6
CONTINUOUS
370
-3
390
F
  0
LAYER
  5
37E
100
AcDbSymbolTableRecord
100
AcDbLayerTableRecord
  2
INTFCLR_3
 70
0
 62
7
  6
CONTINUOUS
370
-3
390
F
  0
LAYER
  5
37F
100
AcDbSymbolTableRecord
100
AcDbLayerTableRecord
  2
INTFCLR_4
 70
0
 62
7
  6
CONTINUOUS
370
-3
390
F
  0
LAYER
  5
380
100
AcDbSymbolTableRecord
100
AcDbLayerTableRecord
  2
INTFCLR_5
 70
0
 62
7
  6
CONTINUOUS
370
-3
390
F
  0
LAYER
  5
381
100
AcDbSymbolTableRecord
100
AcDbLayerTableRecord
  2
INTFCLR_6
 70
0
 62
7
  6
CONTINUOUS
370
-3
390
F
  0
LAYER
  5
382
100
AcDbSymbolTableRecord
100
AcDbLayerTableRecord
  2
INTFCLR_7
 70
0
 62
7
  6
CONTINUOUS
370
-3
390
F
  0
LAYER
  5
383
100
AcDbSymbolTableRecord
100
AcDbLayerTableRecord
  2
INTFCLR_9
 70
0
 62
7
  6
CONTINUOUS
370
-3
390
F
  0
LAYER
  5
384
100
AcDbSymbolTableRecord
100
AcDbLayerTableRecord
  2
INTF_1
 70
0
 62
7
  6
CONTINUOUS
370
-3
390
F
  0
LAYER
  5
385
100
AcDbSymbolTableRecord
100
AcDbLayerTableRecord
  2
INTF_17
 70
0
 62
7
  6
CONTINUOUS
370
-3
390
F
  0
LAYER
  5
386
100
AcDbSymbolTableRecord
100
AcDbLayerTableRecord
  2
INTF_2
 70
0
 62
7
  6
CONTINUOUS
370
-3
390
F
  0
LAYER
  5
387
100
AcDbSymbolTableRecord
100
AcDbLayerTableRecord
  2
INTF_401
 70
0
 62
7
  6
CONTINUOUS
370
-3
390
F
  0
LAYER
  5
388
100
AcDbSymbolTableRecord
100
AcDbLayerTableRecord
  2
INTF_6
 70
0
 62
7
  6
CONTINUOUS
370
-3
390
F
  0
LAYER
  5
389
100
AcDbSymbolTableRecord
100
AcDbLayerTableRecord
  2
INTF_8
 70
0
 62
7
  6
CONTINUOUS
370
-3
390
F
  0
LAYER
  5
38A
100
AcDbSymbolTableRecord
100
AcDbLayerTableRecord
  2
INTF_BLUE
 70
0
 62
7
  6
CONTINUOUS
370
-3
390
F
  0
LAYER
  5
38B
100
AcDbSymbolTableRecord
100
AcDbLayerTableRecord
  2
INTF_CYAN
 70
0
 62
7
  6
CONTINUOUS
370
-3
390
F
  0
LAYER
  5
38C
100
AcDbSymbolTableRecord
100
AcDbLayerTableRecord
  2
INTF_GREEN
 70
0
 62
7
  6
CONTINUOUS
370
-3
390
F
  0
LAYER
  5
38D
100
AcDbSymbolTableRecord
100
AcDbLayerTableRecord
  2
INTF_MAGENTA
 70
0
 62
7
  6
CONTINUOUS
370
-3
390
F
  0
LAYER
  5
38E
100
AcDbSymbolTableRecord
100
AcDbLayerTableRecord
  2
INTF_RED
 70
0
 62
7
  6
CONTINUOUS
370
-3
390
F
  0
LAYER
  5
38F
100
AcDbSymbolTableRecord
100
AcDbLayerTableRecord
  2
INTF_YELLOW
 70
0
 62
7
  6
CONTINUOUS
370
-3
390
F
  0
LAYER
  5
390
100
AcDbSymbolTableRecord
100
AcDbLayerTableRecord
  2
LIVELLO_1
 70
0
 62
7
  6
CONTINUOUS
370
-3
390
F
  0
LAYER
  5
391
100
AcDbSymbolTableRecord
100
AcDbLayerTableRecord
  2
LOGO_RESIST-A_VIMAR_1_10000
 70
0
 62
7
  6
CONTINUOUS
370
-3
390
F
  0
LAYER
  5
392
100
AcDbSymbolTableRecord
100
AcDbLayerTableRecord
  2
MM2-X-3-VIMAR_120000__MM2-X-3-V
 70
0
 62
7
  6
CONTINUOUS
370
-3
390
F
  0
LAYER
  5
393
100
AcDbSymbolTableRecord
100
AcDbLayerTableRecord
  2
MM3-MPAK-RF-VIMAR_120000-120301
 70
0
 62
7
  6
CONTINUOUS
370
-3
390
F
  0
LAYER
  5
394
100
AcDbSymbolTableRecord
100
AcDbLayerTableRecord
  2
MM3-MPAK-RF-VIMAR_120000-1203_1
 70
0
 62
7
  6
CONTINUOUS
370
-3
390
F
  0
LAYER
  5
395
100
AcDbSymbolTableRecord
100
AcDbLayerTableRecord
  2
MM3-MPAK-RF-VIMAR_120000-1203_2
 70
0
 62
7
  6
CONTINUOUS
370
-3
390
F
  0
LAYER
  5
396
100
AcDbSymbolTableRecord
100
AcDbLayerTableRecord
  2
MM3-MPAK-RF-VIMAR_120000-1203_3
 70
0
 62
7
  6
CONTINUOUS
370
-3
390
F
  0
LAYER
  5
397
100
AcDbSymbolTableRecord
100
AcDbLayerTableRecord
  2
MM3-MPAK-RF-VIMAR_120000-1203_4
 70
0
 62
7
  6
CONTINUOUS
370
-3
390
F
  0
LAYER
  5
398
100
AcDbSymbolTableRecord
100
AcDbLayerTableRecord
  2
MM3-MPAK-RF-VIMAR_120000-1203_5
 70
0
 62
7
  6
CONTINUOUS
370
-3
390
F
  0
LAYER
  5
399
100
AcDbSymbolTableRecord
100
AcDbLayerTableRecord
  2
MM3-MPAK-RF-VIMAR_120000-135057
 70
0
 62
7
  6
CONTINUOUS
370
-3
390
F
  0
LAYER
  5
39A
100
AcDbSymbolTableRecord
100
AcDbLayerTableRecord
  2
MM3-MPAK-RF-VIMAR_120000-1350_1
 70
0
 62
7
  6
CONTINUOUS
370
-3
390
F
  0
LAYER
  5
39B
100
AcDbSymbolTableRecord
100
AcDbLayerTableRecord
  2
MM3-MPAK-RF-VIMAR_120000-1350_2
 70
0
 62
7
  6
CONTINUOUS
370
-3
390
F
  0
LAYER
  5
39C
100
AcDbSymbolTableRecord
100
AcDbLayerTableRecord
  2
MM3-MPAK-RF-VIMAR_120000-1350_3
 70
0
 62
7
  6
CONTINUOUS
370
-3
390
F
  0
LAYER
  5
39D
100
AcDbSymbolTableRecord
100
AcDbLayerTableRecord
  2
MM3-MPAK-RF-VIMAR_120000-1350_4
 70
0
 62
7
  6
CONTINUOUS
370
-3
390
F
  0
LAYER
  5
39E
100
AcDbSymbolTableRecord
100
AcDbLayerTableRecord
  2
MM3-MPAK-RF-VIMAR_120000-1350_5
 70
0
 62
7
  6
CONTINUOUS
370
-3
390
F
  0
LAYER
  5
39F
100
AcDbSymbolTableRecord
100
AcDbLayerTableRecord
  2
MM3-MPAK-RF-VIMAR_120000-1350_6
 70
0
 62
7
  6
CONTINUOUS
370
-3
390
F
  0
LAYER
  5
3A0
100
AcDbSymbolTableRecord
100
AcDbLayerTableRecord
  2
MM3-MPAK-RF-VIMAR_120000-1350_7
 70
0
 62
7
  6
CONTINUOUS
370
-3
390
F
  0
LAYER
  5
3A1
100
AcDbSymbolTableRecord
100
AcDbLayerTableRecord
  2
MM3-MPAK-RF-VIMAR_120000-1350_8
 70
0
 62
7
  6
CONTINUOUS
370
-3
390
F
  0
LAYER
  5
3A2
100
AcDbSymbolTableRecord
100
AcDbLayerTableRecord
  2
MM3-MPAK-RF-VIMAR_120000-1350_9
 70
0
 62
7
  6
CONTINUOUS
370
-3
390
F
  0
LAYER
  5
3A3
100
AcDbSymbolTableRecord
100
AcDbLayerTableRecord
  2
MM3-MPAK-RF-VIMAR_120000-135_10
 70
0
 62
7
  6
CONTINUOUS
370
-3
390
F
  0
LAYER
  5
3A4
100
AcDbSymbolTableRecord
100
AcDbLayerTableRecord
  2
MM3-MPAK-RF-VIMAR_120000-135_11
 70
0
 62
7
  6
CONTINUOUS
370
-3
390
F
  0
LAYER
  5
3A5
100
AcDbSymbolTableRecord
100
AcDbLayerTableRecord
  2
MM3-MPAK-RF-VIMAR_120000-135_12
 70
0
 62
7
  6
CONTINUOUS
370
-3
390
F
  0
LAYER
  5
3A6
100
AcDbSymbolTableRecord
100
AcDbLayerTableRecord
  2
MM3-SOT-223-RF-VIMAR_180-126293
 70
0
 62
7
  6
CONTINUOUS
370
-3
390
F
  0
LAYER
  5
3A7
100
AcDbSymbolTableRecord
100
AcDbLayerTableRecord
  2
MM3-SOT-223-RF-VIMAR_180-1262_1
 70
0
 62
7
  6
CONTINUOUS
370
-3
390
F
  0
LAYER
  5
3A8
100
AcDbSymbolTableRecord
100
AcDbLayerTableRecord
  2
MM3-SOT-223-RF-VIMAR_180-1262_2
 70
0
 62
7
  6
CONTINUOUS
370
-3
390
F
  0
LAYER
  5
3A9
100
AcDbSymbolTableRecord
100
AcDbLayerTableRecord
  2
MM3-SOT-223-RF-VIMAR_180-1262_3
 70
0
 62
7
  6
CONTINUOUS
370
-3
390
F
  0
LAYER
  5
3AA
100
AcDbSymbolTableRecord
100
AcDbLayerTableRecord
  2
MM3-SOT-223-RF-VIMAR_180-1262_4
 70
0
 62
7
  6
CONTINUOUS
370
-3
390
F
  0
LAYER
  5
3AB
100
AcDbSymbolTableRecord
100
AcDbLayerTableRecord
  2
MM3-SOT-223-RF-VIMAR_180-1262_5
 70
0
 62
7
  6
CONTINUOUS
370
-3
390
F
  0
LAYER
  5
3AC
100
AcDbSymbolTableRecord
100
AcDbLayerTableRecord
  2
MM3-SOT-223-RF-VIMAR_180-1262_6
 70
0
 62
7
  6
CONTINUOUS
370
-3
390
F
  0
LAYER
  5
3AD
100
AcDbSymbolTableRecord
100
AcDbLayerTableRecord
  2
MM3-SOT-223-RF-VIMAR_180-1262_7
 70
0
 62
7
  6
CONTINUOUS
370
-3
390
F
  0
LAYER
  5
3AE
100
AcDbSymbolTableRecord
100
AcDbLayerTableRecord
  2
MM3-SOT-223-RF-VIMAR_180-137901
 70
0
 62
7
  6
CONTINUOUS
370
-3
390
F
  0
LAYER
  5
3AF
100
AcDbSymbolTableRecord
100
AcDbLayerTableRecord
  2
MM3-SOT-223-RF-VIMAR_180000
 70
0
 62
7
  6
CONTINUOUS
370
-3
390
F
  0
LAYER
  5
3B0
100
AcDbSymbolTableRecord
100
AcDbLayerTableRecord
  2
MM3-SOT-89-RF-VIMAR_1500-123875
 70
0
 62
7
  6
CONTINUOUS
370
-3
390
F
  0
LAYER
  5
3B1
100
AcDbSymbolTableRecord
100
AcDbLayerTableRecord
  2
MM3-SOT-89-RF-VIMAR_1500-136005
 70
0
 62
7
  6
CONTINUOUS
370
-3
390
F
  0
LAYER
  5
3B2
100
AcDbSymbolTableRecord
100
AcDbLayerTableRecord
  2
MM3-SOT-89-RF-VIMAR_150000
 70
0
 62
7
  6
CONTINUOUS
370
-3
390
F
  0
LAYER
  5
3B3
100
AcDbSymbolTableRecord
100
AcDbLayerTableRecord
  2
MM4-CHOKE-1-VIMAR_520000__MM4-C
 70
0
 62
7
  6
CONTINUOUS
370
-3
390
F
  0
LAYER
  5
3B4
100
AcDbSymbolTableRecord
100
AcDbLayerTableRecord
  2
MM4-SWITCH-8-VIMAR_500000__MM4-
 70
0
 62
7
  6
CONTINUOUS
370
-3
390
F
  0
LAYER
  5
3B5
100
AcDbSymbolTableRecord
100
AcDbLayerTableRecord
  2
MM5-FMT-RF_120000__MM5-FMT-RF_1
 70
0
 62
7
  6
CONTINUOUS
370
-3
390
F
  0
LAYER
  5
3B6
100
AcDbSymbolTableRecord
100
AcDbLayerTableRecord
  2
MM5-FMT-RF_120000__MM5-FMT-RF_2
 70
0
 62
7
  6
CONTINUOUS
370
-3
390
F
  0
LAYER
  5
3B7
100
AcDbSymbolTableRecord
100
AcDbLayerTableRecord
  2
MM5-FMT-RF_120000__MM5-FMT-RF_3
 70
0
 62
7
  6
CONTINUOUS
370
-3
390
F
  0
LAYER
  5
3B8
100
AcDbSymbolTableRecord
100
AcDbLayerTableRecord
  2
MSOP10-T1-RF-VIMAR_86000__MSOP1
 70
0
 62
7
  6
CONTINUOUS
370
-3
390
F
  0
LAYER
  5
3B9
100
AcDbSymbolTableRecord
100
AcDbLayerTableRecord
  2
NO-PB_MARK_10000
 70
0
 62
7
  6
CONTINUOUS
370
-3
390
F
  0
LAYER
  5
3BA
100
AcDbSymbolTableRecord
100
AcDbLayerTableRecord
  2
NOTE
 70
0
 62
7
  6
CONTINUOUS
370
-3
390
F
  0
LAYER
  5
3BB
100
AcDbSymbolTableRecord
100
AcDbLayerTableRecord
  2
PIANI
 70
0
 62
7
  6
CONTINUOUS
370
-3
390
F
  0
LAYER
  5
3BC
100
AcDbSymbolTableRecord
100
AcDbLayerTableRecord
  2
PIANI_ORIGINE
 70
0
 62
7
  6
CONTINUOUS
370
-3
390
F
  0
LAYER
  5
3BD
100
AcDbSymbolTableRecord
100
AcDbLayerTableRecord
  2
PTC-4X7_5X5_0-VIMAR_750000__PTC
 70
0
 62
7
  6
CONTINUOUS
370
-3
390
F
  0
LAYER
  5
3BE
100
AcDbSymbolTableRecord
100
AcDbLayerTableRecord
  2
PTC-4X7_5X5_0-VIMAR_750000__P_1
 70
0
 62
7
  6
CONTINUOUS
370
-3
390
F
  0
LAYER
  5
3BF
100
AcDbSymbolTableRecord
100
AcDbLayerTableRecord
  2
PTC-4X7_5X5_0-VIMAR_750000__P_2
 70
0
 62
7
  6
CONTINUOUS
370
-3
390
F
  0
LAYER
  5
3C0
100
AcDbSymbolTableRecord
100
AcDbLayerTableRecord
  2
PTC-4X7_5X5_0-VIMAR_750000__P_3
 70
0
 62
7
  6
CONTINUOUS
370
-3
390
F
  0
LAYER
  5
3C1
100
AcDbSymbolTableRecord
100
AcDbLayerTableRecord
  2
PUNTI
 70
0
 62
7
  6
CONTINUOUS
370
-3
390
F
  0
LAYER
  5
3C2
100
AcDbSymbolTableRecord
100
AcDbLayerTableRecord
  2
RACCORDO
 70
0
 62
7
  6
CONTINUOUS
370
-3
390
F
  0
LAYER
  5
3C3
100
AcDbSymbolTableRecord
100
AcDbLayerTableRecord
  2
RD-C50-14-VIMAR_950000
 70
0
 62
7
  6
CONTINUOUS
370
-3
390
F
  0
LAYER
  5
3C4
100
AcDbSymbolTableRecord
100
AcDbLayerTableRecord
  2
RD-CE20-1-VIMAR_1100000__RD-CE2
 70
0
 62
7
  6
CONTINUOUS
370
-3
390
F
  0
LAYER
  5
3C5
100
AcDbSymbolTableRecord
100
AcDbLayerTableRecord
  2
RD-CE20-1-VIMAR_1100000__RD-C_1
 70
0
 62
7
  6
CONTINUOUS
370
-3
390
F
  0
LAYER
  5
3C6
100
AcDbSymbolTableRecord
100
AcDbLayerTableRecord
  2
RD-CE20-1-VIMAR_1100000__RD-C_2
 70
0
 62
7
  6
CONTINUOUS
370
-3
390
F
  0
LAYER
  5
3C7
100
AcDbSymbolTableRecord
100
AcDbLayerTableRecord
  2
RD-CE20-1-VIMAR_1100000__RD-C_3
 70
0
 62
7
  6
CONTINUOUS
370
-3
390
F
  0
LAYER
  5
3C8
100
AcDbSymbolTableRecord
100
AcDbLayerTableRecord
  2
RD-CE50-11-VIMAR_1250000__RD-CE
 70
0
 62
7
  6
CONTINUOUS
370
-3
390
F
  0
LAYER
  5
3C9
100
AcDbSymbolTableRecord
100
AcDbLayerTableRecord
  2
RD-CE50-11-VIMAR_1250000__RD-_1
 70
0
 62
7
  6
CONTINUOUS
370
-3
390
F
  0
LAYER
  5
3CA
100
AcDbSymbolTableRecord
100
AcDbLayerTableRecord
  2
RD-L50-4-VIMAR_1000000__RD-L50-
 70
0
 62
7
  6
CONTINUOUS
370
-3
390
F
  0
LAYER
  5
3CB
100
AcDbSymbolTableRecord
100
AcDbLayerTableRecord
  2
RD-R40-1W-1-VIMAR_1700000__RD-R
 70
0
 62
7
  6
CONTINUOUS
370
-3
390
F
  0
LAYER
  5
3CC
100
AcDbSymbolTableRecord
100
AcDbLayerTableRecord
  2
RD-ZNR75-1-VIMAR_1450000__RD-ZN
 70
0
 62
7
  6
CONTINUOUS
370
-3
390
F
  0
LAYER
  5
3CD
100
AcDbSymbolTableRecord
100
AcDbLayerTableRecord
  2
RESC1608N_45000__RESC160-119683
 70
0
 62
7
  6
CONTINUOUS
370
-3
390
F
  0
LAYER
  5
3CE
100
AcDbSymbolTableRecord
100
AcDbLayerTableRecord
  2
RESC1608N_45000__RESC160-1196_1
 70
0
 62
7
  6
CONTINUOUS
370
-3
390
F
  0
LAYER
  5
3CF
100
AcDbSymbolTableRecord
100
AcDbLayerTableRecord
  2
RESC1608N_45000__RESC160-1196_2
 70
0
 62
7
  6
CONTINUOUS
370
-3
390
F
  0
LAYER
  5
3D0
100
AcDbSymbolTableRecord
100
AcDbLayerTableRecord
  2
RESC1608N_45000__RESC160-1196_3
 70
0
 62
7
  6
CONTINUOUS
370
-3
390
F
  0
LAYER
  5
3D1
100
AcDbSymbolTableRecord
100
AcDbLayerTableRecord
  2
RESC1608N_45000__RESC160-1196_4
 70
0
 62
7
  6
CONTINUOUS
370
-3
390
F
  0
LAYER
  5
3D2
100
AcDbSymbolTableRecord
100
AcDbLayerTableRecord
  2
RESC1608N_45000__RESC160-1196_5
 70
0
 62
7
  6
CONTINUOUS
370
-3
390
F
  0
LAYER
  5
3D3
100
AcDbSymbolTableRecord
100
AcDbLayerTableRecord
  2
RESC1608N_45000__RESC160-1196_6
 70
0
 62
7
  6
CONTINUOUS
370
-3
390
F
  0
LAYER
  5
3D4
100
AcDbSymbolTableRecord
100
AcDbLayerTableRecord
  2
RESC1608N_45000__RESC160-1196_7
 70
0
 62
7
  6
CONTINUOUS
370
-3
390
F
  0
LAYER
  5
3D5
100
AcDbSymbolTableRecord
100
AcDbLayerTableRecord
  2
RESC1608N_45000__RESC160-1196_8
 70
0
 62
7
  6
CONTINUOUS
370
-3
390
F
  0
LAYER
  5
3D6
100
AcDbSymbolTableRecord
100
AcDbLayerTableRecord
  2
RESC1608N_45000__RESC160-1196_9
 70
0
 62
7
  6
CONTINUOUS
370
-3
390
F
  0
LAYER
  5
3D7
100
AcDbSymbolTableRecord
100
AcDbLayerTableRecord
  2
RESC1608N_45000__RESC160-119_10
 70
0
 62
7
  6
CONTINUOUS
370
-3
390
F
  0
LAYER
  5
3D8
100
AcDbSymbolTableRecord
100
AcDbLayerTableRecord
  2
RESC1608N_45000__RESC160-119_11
 70
0
 62
7
  6
CONTINUOUS
370
-3
390
F
  0
LAYER
  5
3D9
100
AcDbSymbolTableRecord
100
AcDbLayerTableRecord
  2
RESC1608N_45000__RESC160-119_12
 70
0
 62
7
  6
CONTINUOUS
370
-3
390
F
  0
LAYER
  5
3DA
100
AcDbSymbolTableRecord
100
AcDbLayerTableRecord
  2
RESC1608N_45000__RESC160-119_13
 70
0
 62
7
  6
CONTINUOUS
370
-3
390
F
  0
LAYER
  5
3DB
100
AcDbSymbolTableRecord
100
AcDbLayerTableRecord
  2
RESC1608N_45000__RESC160-119_14
 70
0
 62
7
  6
CONTINUOUS
370
-3
390
F
  0
LAYER
  5
3DC
100
AcDbSymbolTableRecord
100
AcDbLayerTableRecord
  2
RESC1608N_45000__RESC160-119_15
 70
0
 62
7
  6
CONTINUOUS
370
-3
390
F
  0
LAYER
  5
3DD
100
AcDbSymbolTableRecord
100
AcDbLayerTableRecord
  2
RESC1608N_45000__RESC160-119_16
 70
0
 62
7
  6
CONTINUOUS
370
-3
390
F
  0
LAYER
  5
3DE
100
AcDbSymbolTableRecord
100
AcDbLayerTableRecord
  2
RESC1608N_45000__RESC160-119_17
 70
0
 62
7
  6
CONTINUOUS
370
-3
390
F
  0
LAYER
  5
3DF
100
AcDbSymbolTableRecord
100
AcDbLayerTableRecord
  2
RESC1608N_45000__RESC160-119_18
 70
0
 62
7
  6
CONTINUOUS
370
-3
390
F
  0
LAYER
  5
3E0
100
AcDbSymbolTableRecord
100
AcDbLayerTableRecord
  2
RESC1608N_45000__RESC160-119_19
 70
0
 62
7
  6
CONTINUOUS
370
-3
390
F
  0
LAYER
  5
3E1
100
AcDbSymbolTableRecord
100
AcDbLayerTableRecord
  2
RESC1608N_45000__RESC160-119_20
 70
0
 62
7
  6
CONTINUOUS
370
-3
390
F
  0
LAYER
  5
3E2
100
AcDbSymbolTableRecord
100
AcDbLayerTableRecord
  2
RESC1608N_45000__RESC160-119_21
 70
0
 62
7
  6
CONTINUOUS
370
-3
390
F
  0
LAYER
  5
3E3
100
AcDbSymbolTableRecord
100
AcDbLayerTableRecord
  2
RESC1608N_45000__RESC160-119_22
 70
0
 62
7
  6
CONTINUOUS
370
-3
390
F
  0
LAYER
  5
3E4
100
AcDbSymbolTableRecord
100
AcDbLayerTableRecord
  2
RESC1608N_45000__RESC160-119_23
 70
0
 62
7
  6
CONTINUOUS
370
-3
390
F
  0
LAYER
  5
3E5
100
AcDbSymbolTableRecord
100
AcDbLayerTableRecord
  2
RESC1608N_45000__RESC160-119_24
 70
0
 62
7
  6
CONTINUOUS
370
-3
390
F
  0
LAYER
  5
3E6
100
AcDbSymbolTableRecord
100
AcDbLayerTableRecord
  2
RESC1608N_45000__RESC160-119_25
 70
0
 62
7
  6
CONTINUOUS
370
-3
390
F
  0
LAYER
  5
3E7
100
AcDbSymbolTableRecord
100
AcDbLayerTableRecord
  2
RESC1608N_45000__RESC160-119_26
 70
0
 62
7
  6
CONTINUOUS
370
-3
390
F
  0
LAYER
  5
3E8
100
AcDbSymbolTableRecord
100
AcDbLayerTableRecord
  2
RESC1608N_45000__RESC160-119_27
 70
0
 62
7
  6
CONTINUOUS
370
-3
390
F
  0
LAYER
  5
3E9
100
AcDbSymbolTableRecord
100
AcDbLayerTableRecord
  2
RESC1608N_45000__RESC160-119_28
 70
0
 62
7
  6
CONTINUOUS
370
-3
390
F
  0
LAYER
  5
3EA
100
AcDbSymbolTableRecord
100
AcDbLayerTableRecord
  2
RESC1608N_45000__RESC160-119_29
 70
0
 62
7
  6
CONTINUOUS
370
-3
390
F
  0
LAYER
  5
3EB
100
AcDbSymbolTableRecord
100
AcDbLayerTableRecord
  2
RESC1608N_45000__RESC160-119_30
 70
0
 62
7
  6
CONTINUOUS
370
-3
390
F
  0
LAYER
  5
3EC
100
AcDbSymbolTableRecord
100
AcDbLayerTableRecord
  2
RESC1608N_45000__RESC160-119_31
 70
0
 62
7
  6
CONTINUOUS
370
-3
390
F
  0
LAYER
  5
3ED
100
AcDbSymbolTableRecord
100
AcDbLayerTableRecord
  2
RESC1608N_45000__RESC160-119_32
 70
0
 62
7
  6
CONTINUOUS
370
-3
390
F
  0
LAYER
  5
3EE
100
AcDbSymbolTableRecord
100
AcDbLayerTableRecord
  2
RESC1608N_45000__RESC160-119_33
 70
0
 62
7
  6
CONTINUOUS
370
-3
390
F
  0
LAYER
  5
3EF
100
AcDbSymbolTableRecord
100
AcDbLayerTableRecord
  2
RESC1608N_45000__RESC160-119_34
 70
0
 62
7
  6
CONTINUOUS
370
-3
390
F
  0
LAYER
  5
3F0
100
AcDbSymbolTableRecord
100
AcDbLayerTableRecord
  2
RESC1608N_45000__RESC160-119_35
 70
0
 62
7
  6
CONTINUOUS
370
-3
390
F
  0
LAYER
  5
3F1
100
AcDbSymbolTableRecord
100
AcDbLayerTableRecord
  2
RESC1608N_45000__RESC160-119_36
 70
0
 62
7
  6
CONTINUOUS
370
-3
390
F
  0
LAYER
  5
3F2
100
AcDbSymbolTableRecord
100
AcDbLayerTableRecord
  2
RESC1608N_45000__RESC160-119_37
 70
0
 62
7
  6
CONTINUOUS
370
-3
390
F
  0
LAYER
  5
3F3
100
AcDbSymbolTableRecord
100
AcDbLayerTableRecord
  2
RESC1608N_45000__RESC160-119_38
 70
0
 62
7
  6
CONTINUOUS
370
-3
390
F
  0
LAYER
  5
3F4
100
AcDbSymbolTableRecord
100
AcDbLayerTableRecord
  2
RESC1608N_45000__RESC160-119_39
 70
0
 62
7
  6
CONTINUOUS
370
-3
390
F
  0
LAYER
  5
3F5
100
AcDbSymbolTableRecord
100
AcDbLayerTableRecord
  2
RESC1608N_45000__RESC160-119_40
 70
0
 62
7
  6
CONTINUOUS
370
-3
390
F
  0
LAYER
  5
3F6
100
AcDbSymbolTableRecord
100
AcDbLayerTableRecord
  2
RESC1608N_45000__RESC160-119_41
 70
0
 62
7
  6
CONTINUOUS
370
-3
390
F
  0
LAYER
  5
3F7
100
AcDbSymbolTableRecord
100
AcDbLayerTableRecord
  2
RESC1608N_45000__RESC160-119_42
 70
0
 62
7
  6
CONTINUOUS
370
-3
390
F
  0
LAYER
  5
3F8
100
AcDbSymbolTableRecord
100
AcDbLayerTableRecord
  2
RESC1608N_45000__RESC160-119_43
 70
0
 62
7
  6
CONTINUOUS
370
-3
390
F
  0
LAYER
  5
3F9
100
AcDbSymbolTableRecord
100
AcDbLayerTableRecord
  2
RESC1608N_45000__RESC160-119_44
 70
0
 62
7
  6
CONTINUOUS
370
-3
390
F
  0
LAYER
  5
3FA
100
AcDbSymbolTableRecord
100
AcDbLayerTableRecord
  2
RESC1608N_45000__RESC160-119_45
 70
0
 62
7
  6
CONTINUOUS
370
-3
390
F
  0
LAYER
  5
3FB
100
AcDbSymbolTableRecord
100
AcDbLayerTableRecord
  2
RESC1608N_45000__RESC160-119_46
 70
0
 62
7
  6
CONTINUOUS
370
-3
390
F
  0
LAYER
  5
3FC
100
AcDbSymbolTableRecord
100
AcDbLayerTableRecord
  2
RESC1608N_45000__RESC160-119_47
 70
0
 62
7
  6
CONTINUOUS
370
-3
390
F
  0
LAYER
  5
3FD
100
AcDbSymbolTableRecord
100
AcDbLayerTableRecord
  2
RESC1608N_45000__RESC160-119_48
 70
0
 62
7
  6
CONTINUOUS
370
-3
390
F
  0
LAYER
  5
3FE
100
AcDbSymbolTableRecord
100
AcDbLayerTableRecord
  2
RESC1608N_45000__RESC160-119_49
 70
0
 62
7
  6
CONTINUOUS
370
-3
390
F
  0
LAYER
  5
3FF
100
AcDbSymbolTableRecord
100
AcDbLayerTableRecord
  2
RESC1608N_45000__RESC160-119_50
 70
0
 62
7
  6
CONTINUOUS
370
-3
390
F
  0
LAYER
  5
400
100
AcDbSymbolTableRecord
100
AcDbLayerTableRecord
  2
RESC1608N_45000__RESC160-119_51
 70
0
 62
7
  6
CONTINUOUS
370
-3
390
F
  0
LAYER
  5
401
100
AcDbSymbolTableRecord
100
AcDbLayerTableRecord
  2
RESC1608N_45000__RESC160-119_52
 70
0
 62
7
  6
CONTINUOUS
370
-3
390
F
  0
LAYER
  5
402
100
AcDbSymbolTableRecord
100
AcDbLayerTableRecord
  2
RESC1608N_45000__RESC160-119_53
 70
0
 62
7
  6
CONTINUOUS
370
-3
390
F
  0
LAYER
  5
403
100
AcDbSymbolTableRecord
100
AcDbLayerTableRecord
  2
RESC1608N_45000__RESC160-119_54
 70
0
 62
7
  6
CONTINUOUS
370
-3
390
F
  0
LAYER
  5
404
100
AcDbSymbolTableRecord
100
AcDbLayerTableRecord
  2
RESC1608N_45000__RESC160-119_55
 70
0
 62
7
  6
CONTINUOUS
370
-3
390
F
  0
LAYER
  5
405
100
AcDbSymbolTableRecord
100
AcDbLayerTableRecord
  2
RESC1608N_45000__RESC160-119_56
 70
0
 62
7
  6
CONTINUOUS
370
-3
390
F
  0
LAYER
  5
406
100
AcDbSymbolTableRecord
100
AcDbLayerTableRecord
  2
RESC1608N_45000__RESC160-119_57
 70
0
 62
7
  6
CONTINUOUS
370
-3
390
F
  0
LAYER
  5
407
100
AcDbSymbolTableRecord
100
AcDbLayerTableRecord
  2
RESC1608N_45000__RESC160-119_58
 70
0
 62
7
  6
CONTINUOUS
370
-3
390
F
  0
LAYER
  5
408
100
AcDbSymbolTableRecord
100
AcDbLayerTableRecord
  2
RESC1608N_45000__RESC160-119_59
 70
0
 62
7
  6
CONTINUOUS
370
-3
390
F
  0
LAYER
  5
409
100
AcDbSymbolTableRecord
100
AcDbLayerTableRecord
  2
RESC1608N_45000__RESC160-119_60
 70
0
 62
7
  6
CONTINUOUS
370
-3
390
F
  0
LAYER
  5
40A
100
AcDbSymbolTableRecord
100
AcDbLayerTableRecord
  2
RESC1608N_45000__RESC160-119_61
 70
0
 62
7
  6
CONTINUOUS
370
-3
390
F
  0
LAYER
  5
40B
100
AcDbSymbolTableRecord
100
AcDbLayerTableRecord
  2
RESC1608N_45000__RESC160-119_62
 70
0
 62
7
  6
CONTINUOUS
370
-3
390
F
  0
LAYER
  5
40C
100
AcDbSymbolTableRecord
100
AcDbLayerTableRecord
  2
RESC1608N_45000__RESC160-119_63
 70
0
 62
7
  6
CONTINUOUS
370
-3
390
F
  0
LAYER
  5
40D
100
AcDbSymbolTableRecord
100
AcDbLayerTableRecord
  2
RESC1608N_45000__RESC160-119_64
 70
0
 62
7
  6
CONTINUOUS
370
-3
390
F
  0
LAYER
  5
40E
100
AcDbSymbolTableRecord
100
AcDbLayerTableRecord
  2
RESC1608N_45000__RESC160-119_65
 70
0
 62
7
  6
CONTINUOUS
370
-3
390
F
  0
LAYER
  5
40F
100
AcDbSymbolTableRecord
100
AcDbLayerTableRecord
  2
RESC1608N_45000__RESC160-119_66
 70
0
 62
7
  6
CONTINUOUS
370
-3
390
F
  0
LAYER
  5
410
100
AcDbSymbolTableRecord
100
AcDbLayerTableRecord
  2
RESC1608N_45000__RESC160-119_67
 70
0
 62
7
  6
CONTINUOUS
370
-3
390
F
  0
LAYER
  5
411
100
AcDbSymbolTableRecord
100
AcDbLayerTableRecord
  2
RESC1608N_45000__RESC160-119_68
 70
0
 62
7
  6
CONTINUOUS
370
-3
390
F
  0
LAYER
  5
412
100
AcDbSymbolTableRecord
100
AcDbLayerTableRecord
  2
RESC1608N_45000__RESC160-119_69
 70
0
 62
7
  6
CONTINUOUS
370
-3
390
F
  0
LAYER
  5
413
100
AcDbSymbolTableRecord
100
AcDbLayerTableRecord
  2
RESC1608N_45000__RESC160-119_70
 70
0
 62
7
  6
CONTINUOUS
370
-3
390
F
  0
LAYER
  5
414
100
AcDbSymbolTableRecord
100
AcDbLayerTableRecord
  2
RESC1608N_45000__RESC160-119_71
 70
0
 62
7
  6
CONTINUOUS
370
-3
390
F
  0
LAYER
  5
415
100
AcDbSymbolTableRecord
100
AcDbLayerTableRecord
  2
RESC1608N_45000__RESC160-119_72
 70
0
 62
7
  6
CONTINUOUS
370
-3
390
F
  0
LAYER
  5
416
100
AcDbSymbolTableRecord
100
AcDbLayerTableRecord
  2
RESC1608N_45000__RESC160-119_73
 70
0
 62
7
  6
CONTINUOUS
370
-3
390
F
  0
LAYER
  5
417
100
AcDbSymbolTableRecord
100
AcDbLayerTableRecord
  2
RESC1608N_45000__RESC160-119_74
 70
0
 62
7
  6
CONTINUOUS
370
-3
390
F
  0
LAYER
  5
418
100
AcDbSymbolTableRecord
100
AcDbLayerTableRecord
  2
RESC1608N_45000__RESC160-119_75
 70
0
 62
7
  6
CONTINUOUS
370
-3
390
F
  0
LAYER
  5
419
100
AcDbSymbolTableRecord
100
AcDbLayerTableRecord
  2
RESC1608N_45000__RESC160-119_76
 70
0
 62
7
  6
CONTINUOUS
370
-3
390
F
  0
LAYER
  5
41A
100
AcDbSymbolTableRecord
100
AcDbLayerTableRecord
  2
RESC1608N_45000__RESC160-119_77
 70
0
 62
7
  6
CONTINUOUS
370
-3
390
F
  0
LAYER
  5
41B
100
AcDbSymbolTableRecord
100
AcDbLayerTableRecord
  2
RESC1608N_45000__RESC160-119_78
 70
0
 62
7
  6
CONTINUOUS
370
-3
390
F
  0
LAYER
  5
41C
100
AcDbSymbolTableRecord
100
AcDbLayerTableRecord
  2
RESC1608N_45000__RESC160-119_79
 70
0
 62
7
  6
CONTINUOUS
370
-3
390
F
  0
LAYER
  5
41D
100
AcDbSymbolTableRecord
100
AcDbLayerTableRecord
  2
RESC1608N_45000__RESC160-119_80
 70
0
 62
7
  6
CONTINUOUS
370
-3
390
F
  0
LAYER
  5
41E
100
AcDbSymbolTableRecord
100
AcDbLayerTableRecord
  2
RESC1608N_45000__RESC160-119_81
 70
0
 62
7
  6
CONTINUOUS
370
-3
390
F
  0
LAYER
  5
41F
100
AcDbSymbolTableRecord
100
AcDbLayerTableRecord
  2
RESC1608N_45000__RESC160-119_82
 70
0
 62
7
  6
CONTINUOUS
370
-3
390
F
  0
LAYER
  5
420
100
AcDbSymbolTableRecord
100
AcDbLayerTableRecord
  2
RESC1608N_45000__RESC160-119_83
 70
0
 62
7
  6
CONTINUOUS
370
-3
390
F
  0
LAYER
  5
421
100
AcDbSymbolTableRecord
100
AcDbLayerTableRecord
  2
RESC1608N_45000__RESC160-119_84
 70
0
 62
7
  6
CONTINUOUS
370
-3
390
F
  0
LAYER
  5
422
100
AcDbSymbolTableRecord
100
AcDbLayerTableRecord
  2
RESC1608N_45000__RESC160-119_85
 70
0
 62
7
  6
CONTINUOUS
370
-3
390
F
  0
LAYER
  5
423
100
AcDbSymbolTableRecord
100
AcDbLayerTableRecord
  2
RESC1608N_45000__RESC160-119_86
 70
0
 62
7
  6
CONTINUOUS
370
-3
390
F
  0
LAYER
  5
424
100
AcDbSymbolTableRecord
100
AcDbLayerTableRecord
  2
RESC1608N_45000__RESC160-119_87
 70
0
 62
7
  6
CONTINUOUS
370
-3
390
F
  0
LAYER
  5
425
100
AcDbSymbolTableRecord
100
AcDbLayerTableRecord
  2
RESC1608N_45000__RESC160-119_88
 70
0
 62
7
  6
CONTINUOUS
370
-3
390
F
  0
LAYER
  5
426
100
AcDbSymbolTableRecord
100
AcDbLayerTableRecord
  2
RESC1608N_45000__RESC160-119_89
 70
0
 62
7
  6
CONTINUOUS
370
-3
390
F
  0
LAYER
  5
427
100
AcDbSymbolTableRecord
100
AcDbLayerTableRecord
  2
RESC1608N_45000__RESC160-119_90
 70
0
 62
7
  6
CONTINUOUS
370
-3
390
F
  0
LAYER
  5
428
100
AcDbSymbolTableRecord
100
AcDbLayerTableRecord
  2
RESC1608N_45000__RESC160-119_91
 70
0
 62
7
  6
CONTINUOUS
370
-3
390
F
  0
LAYER
  5
429
100
AcDbSymbolTableRecord
100
AcDbLayerTableRecord
  2
RESC1608N_45000__RESC160-119_92
 70
0
 62
7
  6
CONTINUOUS
370
-3
390
F
  0
LAYER
  5
42A
100
AcDbSymbolTableRecord
100
AcDbLayerTableRecord
  2
RESC1608N_45000__RESC160-119_93
 70
0
 62
7
  6
CONTINUOUS
370
-3
390
F
  0
LAYER
  5
42B
100
AcDbSymbolTableRecord
100
AcDbLayerTableRecord
  2
RESC1608N_45000__RESC160-119_94
 70
0
 62
7
  6
CONTINUOUS
370
-3
390
F
  0
LAYER
  5
42C
100
AcDbSymbolTableRecord
100
AcDbLayerTableRecord
  2
RESC1608N_45000__RESC160-119_95
 70
0
 62
7
  6
CONTINUOUS
370
-3
390
F
  0
LAYER
  5
42D
100
AcDbSymbolTableRecord
100
AcDbLayerTableRecord
  2
RESC1608N_45000__RESC160-119_96
 70
0
 62
7
  6
CONTINUOUS
370
-3
390
F
  0
LAYER
  5
42E
100
AcDbSymbolTableRecord
100
AcDbLayerTableRecord
  2
RESC1608N_45000__RESC160-119_97
 70
0
 62
7
  6
CONTINUOUS
370
-3
390
F
  0
LAYER
  5
42F
100
AcDbSymbolTableRecord
100
AcDbLayerTableRecord
  2
RESC1608N_45000__RESC160-119_98
 70
0
 62
7
  6
CONTINUOUS
370
-3
390
F
  0
LAYER
  5
430
100
AcDbSymbolTableRecord
100
AcDbLayerTableRecord
  2
RESC1608N_45000__RESC160-119_99
 70
0
 62
7
  6
CONTINUOUS
370
-3
390
F
  0
LAYER
  5
431
100
AcDbSymbolTableRecord
100
AcDbLayerTableRecord
  2
RESC1608N_45000__RESC160-11_100
 70
0
 62
7
  6
CONTINUOUS
370
-3
390
F
  0
LAYER
  5
432
100
AcDbSymbolTableRecord
100
AcDbLayerTableRecord
  2
RESC1608N_45000__RESC160-11_101
 70
0
 62
7
  6
CONTINUOUS
370
-3
390
F
  0
LAYER
  5
433
100
AcDbSymbolTableRecord
100
AcDbLayerTableRecord
  2
RESC1608N_45000__RESC160-11_102
 70
0
 62
7
  6
CONTINUOUS
370
-3
390
F
  0
LAYER
  5
434
100
AcDbSymbolTableRecord
100
AcDbLayerTableRecord
  2
RESC1608N_45000__RESC160-11_103
 70
0
 62
7
  6
CONTINUOUS
370
-3
390
F
  0
LAYER
  5
435
100
AcDbSymbolTableRecord
100
AcDbLayerTableRecord
  2
RESC1608N_45000__RESC160-11_104
 70
0
 62
7
  6
CONTINUOUS
370
-3
390
F
  0
LAYER
  5
436
100
AcDbSymbolTableRecord
100
AcDbLayerTableRecord
  2
RESC1608N_45000__RESC160-11_105
 70
0
 62
7
  6
CONTINUOUS
370
-3
390
F
  0
LAYER
  5
437
100
AcDbSymbolTableRecord
100
AcDbLayerTableRecord
  2
RESC1608N_45000__RESC160-11_106
 70
0
 62
7
  6
CONTINUOUS
370
-3
390
F
  0
LAYER
  5
438
100
AcDbSymbolTableRecord
100
AcDbLayerTableRecord
  2
RESC1608N_45000__RESC160-11_107
 70
0
 62
7
  6
CONTINUOUS
370
-3
390
F
  0
LAYER
  5
439
100
AcDbSymbolTableRecord
100
AcDbLayerTableRecord
  2
RESC1608N_45000__RESC160-11_108
 70
0
 62
7
  6
CONTINUOUS
370
-3
390
F
  0
LAYER
  5
43A
100
AcDbSymbolTableRecord
100
AcDbLayerTableRecord
  2
RESC1608N_45000__RESC160-137217
 70
0
 62
7
  6
CONTINUOUS
370
-3
390
F
  0
LAYER
  5
43B
100
AcDbSymbolTableRecord
100
AcDbLayerTableRecord
  2
RESC1608N_45000__RESC160-1372_1
 70
0
 62
7
  6
CONTINUOUS
370
-3
390
F
  0
LAYER
  5
43C
100
AcDbSymbolTableRecord
100
AcDbLayerTableRecord
  2
RESC1608N_45000__RESC160-1372_2
 70
0
 62
7
  6
CONTINUOUS
370
-3
390
F
  0
LAYER
  5
43D
100
AcDbSymbolTableRecord
100
AcDbLayerTableRecord
  2
RESC1608N_45000__RESC160-1372_3
 70
0
 62
7
  6
CONTINUOUS
370
-3
390
F
  0
LAYER
  5
43E
100
AcDbSymbolTableRecord
100
AcDbLayerTableRecord
  2
RESC1608N_45000__RESC160-1372_4
 70
0
 62
7
  6
CONTINUOUS
370
-3
390
F
  0
LAYER
  5
43F
100
AcDbSymbolTableRecord
100
AcDbLayerTableRecord
  2
RESC1608N_45000__RESC160-1372_5
 70
0
 62
7
  6
CONTINUOUS
370
-3
390
F
  0
LAYER
  5
440
100
AcDbSymbolTableRecord
100
AcDbLayerTableRecord
  2
RESC1608N_45000__RESC160-1372_6
 70
0
 62
7
  6
CONTINUOUS
370
-3
390
F
  0
LAYER
  5
441
100
AcDbSymbolTableRecord
100
AcDbLayerTableRecord
  2
RESC1608N_45000__RESC160-1372_7
 70
0
 62
7
  6
CONTINUOUS
370
-3
390
F
  0
LAYER
  5
442
100
AcDbSymbolTableRecord
100
AcDbLayerTableRecord
  2
RESC1608N_45000__RESC160-1372_8
 70
0
 62
7
  6
CONTINUOUS
370
-3
390
F
  0
LAYER
  5
443
100
AcDbSymbolTableRecord
100
AcDbLayerTableRecord
  2
RESC1608N_45000__RESC160-1372_9
 70
0
 62
7
  6
CONTINUOUS
370
-3
390
F
  0
LAYER
  5
444
100
AcDbSymbolTableRecord
100
AcDbLayerTableRecord
  2
RESC1608N_45000__RESC160-137_10
 70
0
 62
7
  6
CONTINUOUS
370
-3
390
F
  0
LAYER
  5
445
100
AcDbSymbolTableRecord
100
AcDbLayerTableRecord
  2
RESC1608N_45000__RESC160-137_11
 70
0
 62
7
  6
CONTINUOUS
370
-3
390
F
  0
LAYER
  5
446
100
AcDbSymbolTableRecord
100
AcDbLayerTableRecord
  2
RESC1608N_45000__RESC160-137_12
 70
0
 62
7
  6
CONTINUOUS
370
-3
390
F
  0
LAYER
  5
447
100
AcDbSymbolTableRecord
100
AcDbLayerTableRecord
  2
RESC1608N_45000__RESC160-137_13
 70
0
 62
7
  6
CONTINUOUS
370
-3
390
F
  0
LAYER
  5
448
100
AcDbSymbolTableRecord
100
AcDbLayerTableRecord
  2
RESC1608N_45000__RESC160-137_14
 70
0
 62
7
  6
CONTINUOUS
370
-3
390
F
  0
LAYER
  5
449
100
AcDbSymbolTableRecord
100
AcDbLayerTableRecord
  2
RESC1608N_45000__RESC160-137_15
 70
0
 62
7
  6
CONTINUOUS
370
-3
390
F
  0
LAYER
  5
44A
100
AcDbSymbolTableRecord
100
AcDbLayerTableRecord
  2
RESC1608N_45000__RESC160-137_16
 70
0
 62
7
  6
CONTINUOUS
370
-3
390
F
  0
LAYER
  5
44B
100
AcDbSymbolTableRecord
100
AcDbLayerTableRecord
  2
RESC1608N_45000__RESC160-137_17
 70
0
 62
7
  6
CONTINUOUS
370
-3
390
F
  0
LAYER
  5
44C
100
AcDbSymbolTableRecord
100
AcDbLayerTableRecord
  2
RESC1608N_45000__RESC160-137_18
 70
0
 62
7
  6
CONTINUOUS
370
-3
390
F
  0
LAYER
  5
44D
100
AcDbSymbolTableRecord
100
AcDbLayerTableRecord
  2
RGB____0____0____0__
 70
0
 62
7
  6
CONTINUOUS
370
-3
390
F
  0
LAYER
  5
44E
100
AcDbSymbolTableRecord
100
AcDbLayerTableRecord
  2
SIMBOLI
 70
0
 62
7
  6
CONTINUOUS
370
-3
390
F
  0
LAYER
  5
44F
100
AcDbSymbolTableRecord
100
AcDbLayerTableRecord
  2
SMUSSO
 70
0
 62
7
  6
CONTINUOUS
370
-3
390
F
  0
LAYER
  5
450
100
AcDbSymbolTableRecord
100
AcDbLayerTableRecord
  2
SO8C-VIMAR_343000__SO8C-VIMAR_3
 70
0
 62
7
  6
CONTINUOUS
370
-3
390
F
  0
LAYER
  5
451
100
AcDbSymbolTableRecord
100
AcDbLayerTableRecord
  2
SOP14-N-RF_180000
 70
0
 62
7
  6
CONTINUOUS
370
-3
390
F
  0
LAYER
  5
452
100
AcDbSymbolTableRecord
100
AcDbLayerTableRecord
  2
SOP14-N-RF_180000__SOP14-N-RF_1
 70
0
 62
7
  6
CONTINUOUS
370
-3
390
F
  0
LAYER
  5
453
100
AcDbSymbolTableRecord
100
AcDbLayerTableRecord
  2
SOP14-N-RF_180000__SOP14-N-RF_2
 70
0
 62
7
  6
CONTINUOUS
370
-3
390
F
  0
LAYER
  5
454
100
AcDbSymbolTableRecord
100
AcDbLayerTableRecord
  2
SOP14-N-RF_180000__SOP14-N-RF_3
 70
0
 62
7
  6
CONTINUOUS
370
-3
390
F
  0
LAYER
  5
455
100
AcDbSymbolTableRecord
100
AcDbLayerTableRecord
  2
SOP14-N-RF_180000__SOP14-N-RF_4
 70
0
 62
7
  6
CONTINUOUS
370
-3
390
F
  0
LAYER
  5
456
100
AcDbSymbolTableRecord
100
AcDbLayerTableRecord
  2
SOP16-TI1-RF-VIMAR_180000__SOP1
 70
0
 62
7
  6
CONTINUOUS
370
-3
390
F
  0
LAYER
  5
457
100
AcDbSymbolTableRecord
100
AcDbLayerTableRecord
  2
SOP16-TI1-RF-VIMAR_180000__SO_1
 70
0
 62
7
  6
CONTINUOUS
370
-3
390
F
  0
LAYER
  5
458
100
AcDbSymbolTableRecord
100
AcDbLayerTableRecord
  2
SOP4-T1-RF-VIMAR_350000__SOP4-T
 70
0
 62
7
  6
CONTINUOUS
370
-3
390
F
  0
LAYER
  5
459
100
AcDbSymbolTableRecord
100
AcDbLayerTableRecord
  2
SOP4-T1-RF-VIMAR_350000__SOP4_1
 70
0
 62
7
  6
CONTINUOUS
370
-3
390
F
  0
LAYER
  5
45A
100
AcDbSymbolTableRecord
100
AcDbLayerTableRecord
  2
SOP8-T1-RF-FINE-VIMAR_150000__S
 70
0
 62
7
  6
CONTINUOUS
370
-3
390
F
  0
LAYER
  5
45B
100
AcDbSymbolTableRecord
100
AcDbLayerTableRecord
  2
SOP8-T1-RF-VIMAR_150000
 70
0
 62
7
  6
CONTINUOUS
370
-3
390
F
  0
LAYER
  5
45C
100
AcDbSymbolTableRecord
100
AcDbLayerTableRecord
  2
SOP8-T1-RF-VIMAR_150000_1
 70
0
 62
7
  6
CONTINUOUS
370
-3
390
F
  0
LAYER
  5
45D
100
AcDbSymbolTableRecord
100
AcDbLayerTableRecord
  2
SOP8-T1-RF-VIMAR_150000_2
 70
0
 62
7
  6
CONTINUOUS
370
-3
390
F
  0
LAYER
  5
45E
100
AcDbSymbolTableRecord
100
AcDbLayerTableRecord
  2
SOP8-T1-RF-VIMAR_150000_3
 70
0
 62
7
  6
CONTINUOUS
370
-3
390
F
  0
LAYER
  5
45F
100
AcDbSymbolTableRecord
100
AcDbLayerTableRecord
  2
SUPERFICI
 70
0
 62
7
  6
CONTINUOUS
370
-3
390
F
  0
LAYER
  5
460
100
AcDbSymbolTableRecord
100
AcDbLayerTableRecord
  2
TQFP48-F1-RF-VIMAR_160000__TQFP
 70
0
 62
7
  6
CONTINUOUS
370
-3
390
F
  0
LAYER
  5
461
100
AcDbSymbolTableRecord
100
AcDbLayerTableRecord
  2
TR-29V-1-VIMAR_1530000__TR-29V-
 70
0
 62
7
  6
CONTINUOUS
370
-3
390
F
  0
LAYER
  5
462
100
AcDbSymbolTableRecord
100
AcDbLayerTableRecord
  2
TR-EI30-15_5-VIMAR_2450000
 70
0
 62
7
  6
CONTINUOUS
370
-3
390
F
  0
LAYER
  5
463
100
AcDbSymbolTableRecord
100
AcDbLayerTableRecord
  2
TRASH
 70
0
 62
7
  6
CONTINUOUS
370
-3
390
F
  0
LAYER
  5
464
100
AcDbSymbolTableRecord
100
AcDbLayerTableRecord
  2
WHITE
 70
0
 62
7
  6
CONTINUOUS
370
-3
390
F
  0
LAYER
  5
465
100
AcDbSymbolTableRecord
100
AcDbLayerTableRecord
  2
XSEC_DATUMS
 70
0
 62
7
  6
CONTINUOUS
370
-3
390
F
  0
LAYER
  5
466
100
AcDbSymbolTableRecord
100
AcDbLayerTableRecord
  2
___SHELL
 70
0
 62
7
  6
CONTINUOUS
370
-3
390
F
  0
ENDTAB
  0
TABLE
  2
STYLE
  5
3
100
AcDbSymbolTable
 70
1
  0
STYLE
  5
11
100
AcDbSymbolTableRecord
100
AcDbTextStyleTableRecord
  2
STANDARD
 70
0
 40
0.0
 41
0.8
 50
0.0
 71
0
 42
0.2
  3
txt
  4

  0
STYLE
  5
467
100
AcDbSymbolTableRecord
100
AcDbTextStyleTableRecord
  2
TEXTSTYLE_1
 70
0
 40
0.0
 41
0.8
 50
0.0
 71
0
 42
0.2
  3
gdt
  4

  0
ENDTAB
  0
TABLE
  2
VIEW
  5
6
100
AcDbSymbolTable
 70
0
  0
ENDTAB
  0
TABLE
  2
UCS
  5
7
100
AcDbSymbolTable
 70
0
  0
ENDTAB
  0
TABLE
  2
APPID
  5
9
100
AcDbSymbolTable
 70
1
  0
APPID
  5
468
100
AcDbSymbolTableRecord
100
AcDbRegAppTableRecord
  2
ACAD
 70
0
  0
ENDTAB
  0
TABLE
  2
BLOCK_RECORD
  5
1
100
AcDbSymbolTable
 70
0
  0
BLOCK_RECORD
  5
469
100
AcDbSymbolTableRecord
100
AcDbBlockTableRecord
  2
*Model_Space
  0
BLOCK_RECORD
  5
46A
100
AcDbSymbolTableRecord
100
AcDbBlockTableRecord
  2
*Paper_Space
  0
BLOCK_RECORD
  5
46B
100
AcDbSymbolTableRecord
100
AcDbBlockTableRecord
  2
_FILLED
  0
ENDTAB
  0
TABLE
  2
DIMSTYLE
  5
A
100
AcDbSymbolTable
 70
1
100
AcDbDimStyleTable
 71
0
  0
DIMSTYLE
105
46C
100
AcDbSymbolTableRecord
100
AcDbDimStyleTableRecord
  2
STANDARD
 70
0
  3

  4

 40
1.0
 41
3.0
 42
0.5
 43
0.38
 44
1.5
 45
0.0
 46
0.0
 47
0.01
 48
0.01
140
3.0
141
0.09
142
0.0
143
25.4
144
1.0
145
0.0
146
1.0
147
0.625
 71
1.0
 72
0.0
 73
0
 74
0
 75
0
 76
0
 77
1
 78
8
 79
2
170
0
171
1
172
0
173
0
174
0
175
0
176
0
177
0
178
0
270
2
179
2
271
2
272
2
273
2
274
2
275
0
280
0
281
0
282
0
283
1
284
8
285
0
286
0
287
3
288
0
340
11
278
44
341
46B
342
46B
343
46B
344
46B
  0
ENDTAB
  0
ENDSEC
  0
SECTION
  2
BLOCKS
  0
BLOCK
  5
20
100
AcDbEntity
  8
0
100
AcDbBlockBegin
  2
*Model_Space
 70
0
 10
0.0
 20
0.0
 30
0.0
  3
*Model_Space
  1

  0
ENDBLK
  5
21
100
AcDbEntity
  8
0
100
AcDbBlockEnd
  0
BLOCK
  5
1C
100
AcDbEntity
  8
0
100
AcDbBlockBegin
  2
*Paper_Space
 70
0
 10
0.0
 20
0.0
 30
0.0
  3
*Paper_Space
  1

  0
ENDBLK
  5
1D
100
AcDbEntity
  8
0
100
AcDbBlockEnd
  0
BLOCK
  5
46D
100
AcDbEntity
  8
0
100
AcDbBlockBegin
  2
_FILLED
 70
64
 10
0.0
 20
0.0
  3
_FILLED
  1

  0
SOLID
  5
46E
100
AcDbEntity
  8
0
  6
BYBLOCK
 62
0
100
AcDbTrace
 10
0.0
 20
0.0
 11
-1.0
 21
0.3166666667
 12
-1.0
 22
-0.3166666667
 13
-1.0
 23
-0.3166666667
  0
ENDBLK
  5
46F
100
AcDbEntity
  8
0
  6
BYBLOCK
 62
0
100
AcDbBlockEnd
  0
ENDSEC
  0
SECTION
  2
ENTITIES
  0
LINE
  5
470
100
AcDbEntity
  8
RACCORDO
100
AcDbLine
 62
7
  6
CONTINUOUS
 10
122.9630652563
 20
43.2903872283
 11
123.3108523664
 21
43.2903872283
  0
LINE
  5
471
100
AcDbEntity
  8
RACCORDO
100
AcDbLine
 62
7
  6
CONTINUOUS
 10
133.4155827559
 20
43.2903872283
 11
192.763369866
 21
43.2903872283
  0
LINE
  5
472
100
AcDbEntity
  8
DRAFT
100
AcDbLine
 62
7
  6
CONTINUOUS
 10
123.3632175611
 20
43.342752423
 11
133.3632175611
 21
43.342752423
  0
LINE
  5
473
100
AcDbEntity
  8
RACCORDO
100
AcDbLine
 62
7
  6
CONTINUOUS
 10
123.0677956459
 20
43.3951176178
 11
192.6586394764
 21
43.3951176178
  0
LINE
  5
474
100
AcDbEntity
  8
ASSI
100
AcDbLine
 62
7
  6
CONTINUOUS
 10
134.3632175611
 20
44.6903872283
 11
192.3132175611
 21
44.6903872283
  0
LINE
  5
475
100
AcDbEntity
  8
0
100
AcDbLine
 62
7
  6
CONTINUOUS
 10
129.3632175611
 20
45.2903872283
 11
127.3632175611
 21
45.2903872283
  0
LINE
  5
476
100
AcDbEntity
  8
DRAFT
100
AcDbLine
 62
7
  6
CONTINUOUS
 10
133.4155827559
 20
43.2903872283
 11
133.3632175611
 21
43.342752423
  0
LINE
  5
477
100
AcDbEntity
  8
0
100
AcDbLine
 62
7
  6
CONTINUOUS
 10
127.3632175611
 20
49.2903872283
 11
129.3632175611
 21
49.2903872283
  0
LINE
  5
478
100
AcDbEntity
  8
0
100
AcDbLine
 62
7
  6
CONTINUOUS
 10
148.6632175611
 20
50.9903872283
 11
150.8632175611
 21
50.9903872283
  0
LINE
  5
479
100
AcDbEntity
  8
0
100
AcDbLine
 62
7
  6
CONTINUOUS
 10
164.8632175611
 20
50.9903872283
 11
167.0632175611
 21
50.9903872283
  0
LINE
  5
47A
100
AcDbEntity
  8
0
100
AcDbLine
 62
7
  6
CONTINUOUS
 10
187.8632175611
 20
50.9903872283
 11
190.0632175611
 21
50.9903872283
  0
LINE
  5
47B
100
AcDbEntity
  8
DRAFT
100
AcDbLine
 62
7
  6
CONTINUOUS
 10
134.3632175611
 20
51.5903872283
 11
192.3132175611
 21
51.5903872283
  0
LINE
  5
47C
100
AcDbEntity
  8
DRAFT
100
AcDbLine
 62
250
  6
CONTINUOUS
 10
188.5783074313
 20
53.4403872283
 11
188.6132175611
 21
53.4403872283
  0
LINE
  5
47D
100
AcDbEntity
  8
DRAFT
100
AcDbLine
 62
7
  6
CONTINUOUS
 10
122.0679479507
 20
118.754833904
 11
122.0068552235
 21
118.5714066765
  0
LINE
  5
47E
100
AcDbEntity
  8
SMUSSO
100
AcDbLine
 62
7
  6
CONTINUOUS
 10
121.993960916
 20
116.0326922963
 11
121.9632175611
 21
115.9403872283
  0
LINE
  5
47F
100
AcDbEntity
  8
DRAFT
100
AcDbLine
 62
7
  6
CONTINUOUS
 10
122.0679479507
 20
80.1259405526
 11
121.9632175611
 21
80.4403872283
  0
LINE
  5
480
100
AcDbEntity
  8
RACCORDO
100
AcDbLine
 62
7
  6
CONTINUOUS
 10
121.9632175611
 20
152.0905395331
 11
121.9632175611
 21
134.0903872283
  0
LINE
  5
481
100
AcDbEntity
  8
RACCORDO
100
AcDbLine
 62
7
  6
CONTINUOUS
 10
121.9632175611
 20
62.2903872283
 11
121.9632175611
 21
44.2902349234
  0
LINE
  5
482
100
AcDbEntity
  8
DRAFT
100
AcDbLine
 62
7
  6
CONTINUOUS
 10
121.9632175611
 20
62.2903872283
 11
121.9632175611
 21
134.0903872283
  0
LINE
  5
483
100
AcDbEntity
  8
DRAFT
100
AcDbLine
 62
7
  6
CONTINUOUS
 10
121.9754361066
 20
65.5403872283
 11
121.9754361066
 21
70.8403872283
  0
LINE
  5
484
100
AcDbEntity
  8
DRAFT
100
AcDbLine
 62
7
  6
CONTINUOUS
 10
121.9754361066
 20
125.5403872283
 11
121.9754361066
 21
130.8403872283
  0
LINE
  5
485
100
AcDbEntity
  8
SMUSSO
100
AcDbLine
 62
7
  6
CONTINUOUS
 10
122.0068552235
 20
116.7714066765
 11
122.0068552235
 21
118.5714066765
  0
LINE
  5
486
100
AcDbEntity
  8
DRAFT
100
AcDbLine
 62
7
  6
CONTINUOUS
 10
122.0330378209
 20
130.8403872283
 11
122.0330378209
 21
125.5403872283
  0
LINE
  5
487
100
AcDbEntity
  8
DRAFT
100
AcDbLine
 62
7
  6
CONTINUOUS
 10
122.0330378209
 20
70.8403872283
 11
122.0330378209
 21
65.5403872283
  0
LINE
  5
488
100
AcDbEntity
  8
RACCORDO
100
AcDbLine
 62
7
  6
CONTINUOUS
 10
122.0644569377
 20
133.0903872283
 11
122.0644569377
 21
123.2903872283
  0
LINE
  5
489
100
AcDbEntity
  8
RACCORDO
100
AcDbLine
 62
7
  6
CONTINUOUS
 10
122.0644569377
 20
73.0903872283
 11
122.0644569377
 21
63.2903872283
  0
LINE
  5
48A
100
AcDbEntity
  8
RACCORDO
100
AcDbLine
 62
7
  6
CONTINUOUS
 10
122.0679479507
 20
151.9858091435
 11
122.0679479507
 21
134.1903872283
  0
LINE
  5
48B
100
AcDbEntity
  8
DRAFT
100
AcDbLine
 62
7
  6
CONTINUOUS
 10
122.0679479507
 20
122.1903872283
 11
122.0679479507
 21
118.754833904
  0
LINE
  5
48C
100
AcDbEntity
  8
DRAFT
100
AcDbLine
 62
7
  6
CONTINUOUS
 10
122.0679479507
 20
80.1259405526
 11
122.0679479507
 21
74.1903872283
  0
LINE
  5
48D
100
AcDbEntity
  8
RACCORDO
100
AcDbLine
 62
7
  6
CONTINUOUS
 10
122.0679479507
 20
62.1903872283
 11
122.0679479507
 21
44.394965313
  0
LINE
  5
48E
100
AcDbEntity
  8
DRAFT
100
AcDbLine
 62
7
  6
CONTINUOUS
 10
122.7243102884
 20
74.1903872283
 11
122.7243102884
 21
74.0903872283
  0
LINE
  5
48F
100
AcDbEntity
  8
DRAFT
100
AcDbLine
 62
7
  6
CONTINUOUS
 10
122.7243102884
 20
62.2903872283
 11
122.7243102884
 21
62.1903872283
  0
LINE
  5
490
100
AcDbEntity
  8
DRAFT
100
AcDbLine
 62
7
  6
CONTINUOUS
 10
122.7243102884
 20
122.1903872283
 11
122.7243102884
 21
122.2903872283
  0
LINE
  5
491
100
AcDbEntity
  8
DRAFT
100
AcDbLine
 62
7
  6
CONTINUOUS
 10
122.7243102884
 20
134.0903872283
 11
122.7243102884
 21
134.1903872283
  0
LINE
  5
492
100
AcDbEntity
  8
DRAFT
100
AcDbLine
 62
7
  6
CONTINUOUS
 10
122.7417653533
 20
62.1903872283
 11
122.7417653533
 21
62.2903872283
  0
LINE
  5
493
100
AcDbEntity
  8
DRAFT
100
AcDbLine
 62
7
  6
CONTINUOUS
 10
122.7417653533
 20
74.0903872283
 11
122.7417653533
 21
74.1903872283
  0
LINE
  5
494
100
AcDbEntity
  8
DRAFT
100
AcDbLine
 62
7
  6
CONTINUOUS
 10
122.7417653533
 20
122.1903872283
 11
122.7417653533
 21
122.2903872283
  0
LINE
  5
495
100
AcDbEntity
  8
DRAFT
100
AcDbLine
 62
7
  6
CONTINUOUS
 10
122.7417653533
 20
134.0903872283
 11
122.7417653533
 21
134.1903872283
  0
LINE
  5
496
100
AcDbEntity
  8
0
100
AcDbLine
 62
7
  6
CONTINUOUS
 10
122.8310651976
 20
130.8903872283
 11
122.8310651976
 21
125.4903872283
  0
LINE
  5
497
100
AcDbEntity
  8
0
100
AcDbLine
 62
7
  6
CONTINUOUS
 10
122.8310651976
 20
65.4903872283
 11
122.8310651976
 21
70.8903872283
  0
LINE
  5
498
100
AcDbEntity
  8
RACCORDO
100
AcDbLine
 62
7
  6
CONTINUOUS
 10
123.2310651976
 20
133.0903872283
 11
123.2310651976
 21
130.8903872283
  0
LINE
  5
499
100
AcDbEntity
  8
RACCORDO
100
AcDbLine
 62
7
  6
CONTINUOUS
 10
123.2310651976
 20
125.4903872283
 11
123.2310651976
 21
123.2903872283
  0
LINE
  5
49A
100
AcDbEntity
  8
RACCORDO
100
AcDbLine
 62
7
  6
CONTINUOUS
 10
123.2310651976
 20
73.0903872283
 11
123.2310651976
 21
70.8903872283
  0
LINE
  5
49B
100
AcDbEntity
  8
RACCORDO
100
AcDbLine
 62
7
  6
CONTINUOUS
 10
123.2310651976
 20
65.4903872283
 11
123.2310651976
 21
63.2903872283
  0
LINE
  5
49C
100
AcDbEntity
  8
0
100
AcDbLine
 62
7
  6
CONTINUOUS
 10
123.2435354347
 20
130.8903872283
 11
123.2435354347
 21
125.4903872283
  0
LINE
  5
49D
100
AcDbEntity
  8
0
100
AcDbLine
 62
7
  6
CONTINUOUS
 10
123.2435354347
 20
65.4903872283
 11
123.2435354347
 21
70.8903872283
  0
LINE
  5
49E
100
AcDbEntity
  8
DRAFT
100
AcDbLine
 62
7
  6
CONTINUOUS
 10
123.2643646987
 20
65.6482788835
 11
123.2643646987
 21
70.732495573
  0
LINE
  5
49F
100
AcDbEntity
  8
DRAFT
100
AcDbLine
 62
7
  6
CONTINUOUS
 10
123.2643646987
 20
125.6482788835
 11
123.2643646987
 21
130.732495573
  0
LINE
  5
4A0
100
AcDbEntity
  8
DRAFT
100
AcDbLine
 62
7
  6
CONTINUOUS
 10
123.3148495093
 20
62.1903872283
 11
123.3148495093
 21
62.2903872283
  0
LINE
  5
4A1
100
AcDbEntity
  8
DRAFT
100
AcDbLine
 62
7
  6
CONTINUOUS
 10
123.3148495093
 20
74.0903872283
 11
123.3148495093
 21
74.1903872283
  0
LINE
  5
4A2
100
AcDbEntity
  8
DRAFT
100
AcDbLine
 62
7
  6
CONTINUOUS
 10
123.3148495093
 20
122.1903872283
 11
123.3148495093
 21
122.2903872283
  0
LINE
  5
4A3
100
AcDbEntity
  8
DRAFT
100
AcDbLine
 62
7
  6
CONTINUOUS
 10
123.3148495093
 20
134.0903872283
 11
123.3148495093
 21
134.1903872283
  0
LINE
  5
4A4
100
AcDbEntity
  8
DRAFT
100
AcDbLine
 62
7
  6
CONTINUOUS
 10
123.3180357176
 20
130.7231043616
 11
123.3180357176
 21
130.4903872283
  0
LINE
  5
4A5
100
AcDbEntity
  8
DRAFT
100
AcDbLine
 62
7
  6
CONTINUOUS
 10
123.3180357176
 20
125.8903872283
 11
123.3180357176
 21
125.6576700949
  0
LINE
  5
4A6
100
AcDbEntity
  8
DRAFT
100
AcDbLine
 62
7
  6
CONTINUOUS
 10
123.3180357176
 20
70.7231043616
 11
123.3180357176
 21
70.4903872283
  0
LINE
  5
4A7
100
AcDbEntity
  8
DRAFT
100
AcDbLine
 62
7
  6
CONTINUOUS
 10
123.3180357176
 20
65.8903872283
 11
123.3180357176
 21
65.6576700949
  0
LINE
  5
4A8
100
AcDbEntity
  8
DRAFT
100
AcDbLine
 62
7
  6
CONTINUOUS
 10
123.3748164183
 20
134.1903872283
 11
123.3748164183
 21
130.4903872283
  0
LINE
  5
4A9
100
AcDbEntity
  8
DRAFT
100
AcDbLine
 62
7
  6
CONTINUOUS
 10
123.3748164183
 20
125.8903872283
 11
123.3748164183
 21
122.1903872283
  0
LINE
  5
4AA
100
AcDbEntity
  8
DRAFT
100
AcDbLine
 62
7
  6
CONTINUOUS
 10
123.3748164183
 20
74.1903872283
 11
123.3748164183
 21
70.4903872283
  0
LINE
  5
4AB
100
AcDbEntity
  8
DRAFT
100
AcDbLine
 62
7
  6
CONTINUOUS
 10
123.3748164183
 20
62.1903872283
 11
123.3748164183
 21
65.8903872283
  0
LINE
  5
4AC
100
AcDbEntity
  8
DRAFT
100
AcDbLine
 62
7
  6
CONTINUOUS
 10
123.4132175611
 20
130.4903872283
 11
123.4132175611
 21
125.8903872283
  0
LINE
  5
4AD
100
AcDbEntity
  8
DRAFT
100
AcDbLine
 62
7
  6
CONTINUOUS
 10
123.4132175611
 20
70.4903872283
 11
123.4132175611
 21
65.8903872283
  0
LINE
  5
4AE
100
AcDbEntity
  8
DRAFT
100
AcDbLine
 62
7
  6
CONTINUOUS
 10
123.4132175611
 20
144.6608522817
 11
123.4132175611
 21
151.6903872283
  0
LINE
  5
4AF
100
AcDbEntity
  8
DRAFT
100
AcDbLine
 62
7
  6
CONTINUOUS
 10
123.451618704
 20
70.4903872283
 11
123.451618704
 21
65.8903872283
  0
LINE
  5
4B0
100
AcDbEntity
  8
DRAFT
100
AcDbLine
 62
7
  6
CONTINUOUS
 10
123.451618704
 20
125.8903872283
 11
123.451618704
 21
130.4903872283
  0
LINE
  5
4B1
100
AcDbEntity
  8
SMUSSO
100
AcDbLine
 62
7
  6
CONTINUOUS
 10
121.993960916
 20
116.0326922963
 11
122.0068552235
 21
116.7714066765
  0
LWPOLYLINE
  5
4B2
100
AcDbEntity
  8
0
100
AcDbPolyline
 62
7
  6
CONTINUOUS
 90
9
 70
0
 10
125.7178099937
 20
110.6279622344
 10
125.7063385797
 20
110.5967193394
 10
125.6952291012
 20
110.5655895996
 10
125.6844836963
 20
110.5345683337
 10
125.6741002269
 20
110.5036602229
 10
125.6640722785
 20
110.4728793113
 10
125.6543977129
 20
110.4422302804
 10
125.6450786683
 20
110.4117084487
 10
125.6361151446
 20
110.3813138163
  0
LINE
  5
4B3
100
AcDbEntity
  8
0
100
AcDbLine
 62
7
  6
CONTINUOUS
 10
126.198574242
 20
111.8932452845
 11
125.7178099937
 21
110.6279622344
  0
LINE
  5
4B4
100
AcDbEntity
  8
DRAFT
100
AcDbLine
 62
7
  6
CONTINUOUS
 10
121.9632175611
 20
62.1903872283
 11
123.3748164183
 21
62.1903872283
  0
LINE
  5
4B5
100
AcDbEntity
  8
DRAFT
100
AcDbLine
 62
7
  6
CONTINUOUS
 10
192.351618704
 20
62.1903872283
 11
193.7632175611
 21
62.1903872283
  0
LINE
  5
4B6
100
AcDbEntity
  8
RACCORDO
100
AcDbLine
 62
7
  6
CONTINUOUS
 10
121.9632175611
 20
62.2903872283
 11
123.3148495093
 21
62.2903872283
  0
LINE
  5
4B7
100
AcDbEntity
  8
RACCORDO
100
AcDbLine
 62
7
  6
CONTINUOUS
 10
192.411585613
 20
62.2903872283
 11
193.7632175611
 21
62.2903872283
  0
LINE
  5
4B8
100
AcDbEntity
  8
RACCORDO
100
AcDbLine
 62
250
  6
CONTINUOUS
 10
193.6619781846
 20
63.2903872283
 11
192.4953699247
 21
63.2903872283
  0
LINE
  5
4B9
100
AcDbEntity
  8
RACCORDO
100
AcDbLine
 62
250
  6
CONTINUOUS
 10
123.2310651976
 20
63.2903872283
 11
122.0644569377
 21
63.2903872283
  0
LINE
  5
4BA
100
AcDbEntity
  8
0
100
AcDbLine
 62
7
  6
CONTINUOUS
 10
125.6632175611
 20
151.6903872283
 11
125.6632175611
 21
145.3903872283
  0
LINE
  5
4BB
100
AcDbEntity
  8
0
100
AcDbLine
 62
7
  6
CONTINUOUS
 10
126.63202902
 20
111.8932452845
 11
126.63202902
 21
110.1903872283
  0
LINE
  5
4BC
100
AcDbEntity
  8
0
100
AcDbLine
 62
7
  6
CONTINUOUS
 10
126.8590767608
 20
110.1903872283
 11
126.8590767608
 21
111.8932452845
  0
LINE
  5
4BD
100
AcDbEntity
  8
DRAFT
100
AcDbLine
 62
7
  6
CONTINUOUS
 10
127.1132175611
 20
142.9403872283
 11
127.1132175611
 21
144.7903872283
  0
LINE
  5
4BE
100
AcDbEntity
  8
DRAFT
100
AcDbLine
 62
7
  6
CONTINUOUS
 10
127.148127691
 20
142.9403872283
 11
127.148127691
 21
144.7903872283
  0
LINE
  5
4BF
100
AcDbEntity
  8
0
100
AcDbLine
 62
7
  6
CONTINUOUS
 10
127.2409297795
 20
111.8932452845
 11
127.2409297795
 21
110.1903872283
  0
LINE
  5
4C0
100
AcDbEntity
  8
0
100
AcDbLine
 62
7
  6
CONTINUOUS
 10
127.4679775203
 20
110.1903872283
 11
127.4679775203
 21
111.6352364881
  0
LWPOLYLINE
  5
4C1
100
AcDbEntity
  8
0
100
AcDbPolyline
 62
7
  6
CONTINUOUS
 90
3
 70
0
 10
128.1016049579
 20
110.5285330119
 10
128.0914760384
 20
110.4984891124
 10
128.0717181826
 20
110.4387207046
  0
LINE
  5
4C2
100
AcDbEntity
  8
0
100
AcDbLine
 62
7
  6
CONTINUOUS
 10
128.1224095934
 20
110.5889365611
 11
128.1016049579
 21
110.5285330119
  0
LINE
  5
4C3
100
AcDbEntity
  8
0
100
AcDbLine
 62
7
  6
CONTINUOUS
 10
129.2946797988
 20
110.1903872283
 11
129.4741572293
 21
110.7064048211
  0
LINE
  5
4C4
100
AcDbEntity
  8
0
100
AcDbLine
 62
7
  6
CONTINUOUS
 10
128.152184644
 20
110.1903872283
 11
128.6548179837
 21
111.6145957844
  0
LINE
  5
4C5
100
AcDbEntity
  8
0
100
AcDbLine
 62
7
  6
CONTINUOUS
 10
128.1652463811
 20
110.7110813018
 11
128.1224095934
 21
110.5889365611
  0
LINE
  5
4C6
100
AcDbEntity
  8
0
100
AcDbLine
 62
7
  6
CONTINUOUS
 10
128.5864457117
 20
111.8932452845
 11
128.1652463811
 21
110.7110813018
  0
LINE
  5
4C7
100
AcDbEntity
  8
0
100
AcDbLine
 62
7
  6
CONTINUOUS
 10
129.5388207257
 20
110.8921711545
 11
129.7228132216
 21
111.3893218811
  0
LINE
  5
4C8
100
AcDbEntity
  8
0
100
AcDbLine
 62
7
  6
CONTINUOUS
 10
129.7023337758
 20
111.8932452845
 11
129.0550542522
 21
110.1903872283
  0
LINE
  5
4C9
100
AcDbEntity
  8
0
100
AcDbLine
 62
7
  6
CONTINUOUS
 10
125.7622169783
 20
110.1903872283
 11
126.4414251053
 21
111.8932452845
  0
LWPOLYLINE
  5
4CA
100
AcDbEntity
  8
0
100
AcDbPolyline
 62
7
  6
CONTINUOUS
 90
10
 70
0
 10
129.7228132216
 20
111.3893218811
 10
129.7370109743
 20
111.4243626087
 10
129.7505438933
 20
111.4598011109
 10
129.7634119785
 20
111.4956373876
 10
129.7756330442
 20
111.531916217
 10
129.7871892761
 20
111.568592821
 10
129.7980272318
 20
111.605532865
 10
129.8081290969
 20
111.642691571
 10
129.8175126857
 20
111.6801137169
 10
129.8261779981
 20
111.7177993029
  0
LINE
  5
4CB
100
AcDbEntity
  8
RACCORDO
100
AcDbLine
 62
250
  6
CONTINUOUS
 10
161.7632937136
 20
148.2903872283
 11
161.6882369344
 21
148.2153304491
  0
LINE
  5
4CC
100
AcDbEntity
  8
RACCORDO
100
AcDbLine
 62
250
  6
CONTINUOUS
 10
162.2632175611
 20
147.7904633807
 11
162.1881607819
 21
147.7154066015
  0
LINE
  5
4CD
100
AcDbEntity
  8
DRAFT
100
AcDbLine
 62
7
  6
CONTINUOUS
 10
192.4620704235
 20
70.732495573
 11
192.4083994047
 21
70.7231043616
  0
LINE
  5
4CE
100
AcDbEntity
  8
DRAFT
100
AcDbLine
 62
7
  6
CONTINUOUS
 10
192.4624781237
 20
70.7278284113
 11
192.4083994047
 21
70.7231043616
  0
LINE
  5
4CF
100
AcDbEntity
  8
0
100
AcDbLine
 62
7
  6
CONTINUOUS
 10
122.8310651976
 20
65.4903872283
 11
123.2435354347
 21
65.4903872283
  0
LINE
  5
4D0
100
AcDbEntity
  8
0
100
AcDbLine
 62
7
  6
CONTINUOUS
 10
192.4828996875
 20
65.4903872283
 11
192.8953699247
 21
65.4903872283
  0
LINE
  5
4D1
100
AcDbEntity
  8
DRAFT
100
AcDbLine
 62
7
  6
CONTINUOUS
 10
193.7509990157
 20
65.5403872283
 11
193.6933973014
 21
65.5403872283
  0
LINE
  5
4D2
100
AcDbEntity
  8
DRAFT
100
AcDbLine
 62
7
  6
CONTINUOUS
 10
122.0330378209
 20
65.5403872283
 11
121.9754361066
 21
65.5403872283
  0
LINE
  5
4D3
100
AcDbEntity
  8
DRAFT
100
AcDbLine
 62
7
  6
CONTINUOUS
 10
123.2643646987
 20
65.8903872283
 11
123.451618704
 21
65.8903872283
  0
LINE
  5
4D4
100
AcDbEntity
  8
DRAFT
100
AcDbLine
 62
7
  6
CONTINUOUS
 10
192.2748164183
 20
65.8903872283
 11
192.4620704235
 21
65.8903872283
  0
LINE
  5
4D5
100
AcDbEntity
  8
DRAFT
100
AcDbLine
 62
7
  6
CONTINUOUS
 10
123.2643646987
 20
70.732495573
 11
123.3180357176
 21
70.7231043616
  0
LINE
  5
4D6
100
AcDbEntity
  8
0
100
AcDbLine
 62
7
  6
CONTINUOUS
 10
127.8632175611
 20
151.6903872283
 11
127.8632175611
 21
145.3903872283
  0
LINE
  5
4D7
100
AcDbEntity
  8
0
100
AcDbLine
 62
7
  6
CONTINUOUS
 10
128.6548179837
 20
111.6145957844
 11
128.6548179837
 21
110.1903872283
  0
LINE
  5
4D8
100
AcDbEntity
  8
0
100
AcDbLine
 62
7
  6
CONTINUOUS
 10
128.8818657246
 20
110.1903872283
 11
128.8818657246
 21
111.8932452845
  0
LINE
  5
4D9
100
AcDbEntity
  8
DRAFT
100
AcDbLine
 62
7
  6
CONTINUOUS
 10
130.3632175611
 20
82.2403872283
 11
130.3632175611
 21
80.1727475014
  0
LINE
  5
4DA
100
AcDbEntity
  8
0
100
AcDbLine
 62
7
  6
CONTINUOUS
 10
130.8324122253
 20
111.8932452845
 11
130.8324122253
 21
110.1903872283
  0
LINE
  5
4DB
100
AcDbEntity
  8
0
100
AcDbLine
 62
7
  6
CONTINUOUS
 10
131.0594599661
 20
110.1903872283
 11
131.0594599661
 21
110.9437729137
  0
LINE
  5
4DC
100
AcDbEntity
  8
0
100
AcDbLine
 62
7
  6
CONTINUOUS
 10
131.0594599661
 20
111.139859599
 11
131.0594599661
 21
111.6971585992
  0
LINE
  5
4DD
100
AcDbEntity
  8
DRAFT
100
AcDbLine
 62
7
  6
CONTINUOUS
 10
132.1132175611
 20
80.1727475014
 11
132.1132175611
 21
82.2403872283
  0
LINE
  5
4DE
100
AcDbEntity
  8
DRAFT
100
AcDbLine
 62
7
  6
CONTINUOUS
 10
123.3180357176
 20
65.6576700949
 11
123.2643646987
 21
65.6482788835
  0
LINE
  5
4DF
100
AcDbEntity
  8
DRAFT
100
AcDbLine
 62
7
  6
CONTINUOUS
 10
123.2639569986
 20
65.6529460453
 11
123.3180357176
 21
65.6576700949
  0
LINE
  5
4E0
100
AcDbEntity
  8
DRAFT
100
AcDbLine
 62
7
  6
CONTINUOUS
 10
123.2643646987
 20
70.4903872283
 11
123.451618704
 21
70.4903872283
  0
LINE
  5
4E1
100
AcDbEntity
  8
DRAFT
100
AcDbLine
 62
7
  6
CONTINUOUS
 10
192.2748164183
 20
70.4903872283
 11
192.4620704235
 21
70.4903872283
  0
LINE
  5
4E2
100
AcDbEntity
  8
DRAFT
100
AcDbLine
 62
7
  6
CONTINUOUS
 10
121.9754361066
 20
70.8403872283
 11
122.0330378209
 21
70.8403872283
  0
LINE
  5
4E3
100
AcDbEntity
  8
DRAFT
100
AcDbLine
 62
7
  6
CONTINUOUS
 10
193.6933973014
 20
70.8403872283
 11
193.7509990157
 21
70.8403872283
  0
LINE
  5
4E4
100
AcDbEntity
  8
0
100
AcDbLine
 62
7
  6
CONTINUOUS
 10
122.8310651976
 20
70.8903872283
 11
123.2435354347
 21
70.8903872283
  0
LINE
  5
4E5
100
AcDbEntity
  8
0
100
AcDbLine
 62
7
  6
CONTINUOUS
 10
192.4828996875
 20
70.8903872283
 11
192.8953699247
 21
70.8903872283
  0
LINE
  5
4E6
100
AcDbEntity
  8
DRAFT
100
AcDbLine
 62
7
  6
CONTINUOUS
 10
192.4083994047
 20
65.6576700949
 11
192.4620704235
 21
65.6482788835
  0
LINE
  5
4E7
100
AcDbEntity
  8
0
100
AcDbLine
 62
7
  6
CONTINUOUS
 10
124.8632175611
 20
111.8932452845
 11
125.5179147934
 21
110.1903872283
  0
LWPOLYLINE
  5
4E8
100
AcDbEntity
  8
0
100
AcDbPolyline
 62
7
  6
CONTINUOUS
 90
10
 70
0
 10
125.6361151446
 20
110.3813138163
 10
125.627577301
 20
110.4115144775
 10
125.6186858249
 20
110.4418893885
 10
125.6094407165
 20
110.4724385492
 10
125.5998332398
 20
110.5031647179
 10
125.5898721307
 20
110.5340651364
 10
125.5795835967
 20
110.5651315299
 10
125.5689763737
 20
110.5963611399
 10
125.5580417258
 20
110.6277567248
 10
125.1046169453
 20
111.8932452845
  0
LWPOLYLINE
  5
4E9
100
AcDbEntity
  8
0
100
AcDbPolyline
 62
7
  6
CONTINUOUS
 90
41
 70
0
 10
134.4238946712
 20
111.4185090991
 10
134.4196981293
 20
111.4657053126
 10
134.4121025086
 20
111.5110384143
 10
134.401107809
 20
111.5545084045
 10
134.3865111948
 20
111.5963958779
 10
134.3685155017
 20
111.6364202397
 10
134.3477292371
 20
111.6737397048
 10
134.3244292713
 20
111.7079649145
 10
134.2983387339
 20
111.7394852276
 10
134.2692355208
 20
111.7686269348
 10
134.2371720666
 20
111.7954868812
 10
134.2020959366
 20
111.8199682218
 10
134.1636277229
 20
111.8421067129
 10
134.1215535392
 20
111.8620757958
 10
134.0760872718
 20
111.8797020293
 10
134.0274911711
 20
111.8945008459
 10
133.9752480667
 20
111.9064503571
 10
133.919875129
 20
111.9155724515
 10
133.8631861201
 20
111.921448227
 10
133.8044979917
 20
111.9239138056
 10
133.7444937921
 20
111.9231330654
 10
133.6870364281
 20
111.9191787391
 10
133.6332579205
 20
111.9118817696
 10
133.5820262485
 20
111.901411214
 10
133.5338082571
 20
111.8883469761
 10
133.488676774
 20
111.8727561111
 10
133.4465589714
 20
111.8545715638
 10
133.407703211
 20
111.8341720728
 10
133.3722913948
 20
111.811698864
 10
133.3401416206
 20
111.7870107115
 10
133.3109565437
 20
111.7600626762
 10
133.2846316976
 20
111.7307462483
 10
133.2612715487
 20
111.6991699377
 10
133.2408921508
 20
111.6656143349
 10
133.2233337356
 20
111.6296760535
 10
133.2087560715
 20
111.59175848
 10
133.1976545177
 20
111.553352365
 10
133.1902155498
 20
111.5144762073
 10
133.1862526922
 20
111.475111508
 10
133.1857018772
 20
111.4366935213
 10
133.1886567861
 20
111.3995283064
  0
LWPOLYLINE
  5
4EA
100
AcDbEntity
  8
0
100
AcDbPolyline
 62
7
  6
CONTINUOUS
 90
22
 70
0
 10
133.1235303373
 20
110.7476862285
 10
133.1270795599
 20
110.6959791956
 10
133.1340236803
 20
110.646417453
 10
133.1443626987
 20
110.5990010008
 10
133.1582584497
 20
110.5537030475
 10
133.1755490987
 20
110.5105503845
 10
133.1957491414
 20
110.4696233858
 10
133.2188407694
 20
110.4308039729
 10
133.2448417912
 20
110.3942102243
 10
133.2733201282
 20
110.3602767491
 10
133.3039484679
 20
110.3292256471
 10
133.3370541227
 20
110.3008348184
 10
133.3731869513
 20
110.2748725725
 10
133.4123916223
 20
110.2511736772
 10
133.4546234671
 20
110.2299033646
 10
133.500298339
 20
110.2113256409
 10
133.5497547786
 20
110.1954361191
 10
133.6026542455
 20
110.1822391861
 10
133.6583969712
 20
110.1720120083
 10
133.7167830331
 20
110.1648469745
 10
133.7780123539
 20
110.160651696
 10
133.8420849337
 20
110.1594261727
  0
LINE
  5
4EB
100
AcDbEntity
  8
DRAFT
100
AcDbLine
 62
7
  6
CONTINUOUS
 10
133.6132175611
 20
82.2403872283
 11
133.6132175611
 21
80.1727475014
  0
LINE
  5
4EC
100
AcDbEntity
  8
ASSI
100
AcDbLine
 62
7
  6
CONTINUOUS
 10
134.3632175611
 20
51.5903872283
 11
134.3632175611
 21
44.6903872283
  0
LINE
  5
4ED
100
AcDbEntity
  8
0
100
AcDbLine
 62
7
  6
CONTINUOUS
 10
134.7851069861
 20
111.8932452845
 11
134.7851069861
 21
110.1903872283
  0
LINE
  5
4EE
100
AcDbEntity
  8
0
100
AcDbLine
 62
7
  6
CONTINUOUS
 10
135.0121547269
 20
110.1903872283
 11
135.0121547269
 21
110.8921711545
  0
LINE
  5
4EF
100
AcDbEntity
  8
0
100
AcDbLine
 62
7
  6
CONTINUOUS
 10
135.0121547269
 20
111.0882578397
 11
135.0121547269
 21
111.6971585992
  0
LINE
  5
4F0
100
AcDbEntity
  8
DRAFT
100
AcDbLine
 62
7
  6
CONTINUOUS
 10
135.3632175611
 20
80.1727475014
 11
135.3632175611
 21
82.2403872283
  0
LINE
  5
4F1
100
AcDbEntity
  8
0
100
AcDbLine
 62
7
  6
CONTINUOUS
 10
136.4054022275
 20
110.1903872283
 11
136.584879658
 21
110.7064048211
  0
LWPOLYLINE
  5
4F2
100
AcDbEntity
  8
0
100
AcDbPolyline
 62
7
  6
CONTINUOUS
 90
9
 70
0
 10
139.2890726842
 20
110.6279622344
 10
139.2776012702
 20
110.5967193394
 10
139.2664917917
 20
110.5655895996
 10
139.2557463868
 20
110.5345683337
 10
139.2453629174
 20
110.5036602229
 10
139.235334969
 20
110.4728793113
 10
139.2256604034
 20
110.4422302804
 10
139.2163413587
 20
110.4117084487
 10
139.2073778351
 20
110.3813138163
  0
LINE
  5
4F3
100
AcDbEntity
  8
0
100
AcDbLine
 62
7
  6
CONTINUOUS
 10
136.6495431544
 20
110.8921711545
 11
136.8335356503
 21
111.3893218811
  0
LINE
  5
4F4
100
AcDbEntity
  8
0
100
AcDbLine
 62
7
  6
CONTINUOUS
 10
136.8130562045
 20
111.8932452845
 11
136.1657766809
 21
110.1903872283
  0
LINE
  5
4F5
100
AcDbEntity
  8
0
100
AcDbLine
 62
7
  6
CONTINUOUS
 10
139.7698369325
 20
111.8932452845
 11
139.2890726842
 21
110.6279622344
  0
LINE
  5
4F6
100
AcDbEntity
  8
0
100
AcDbLine
 62
7
  6
CONTINUOUS
 10
139.3334796688
 20
110.1903872283
 11
140.0126877958
 21
111.8932452845
  0
LWPOLYLINE
  5
4F7
100
AcDbEntity
  8
0
100
AcDbPolyline
 62
7
  6
CONTINUOUS
 90
10
 70
0
 10
136.8335356503
 20
111.3893218811
 10
136.847733403
 20
111.4243626087
 10
136.861266322
 20
111.4598011109
 10
136.8741344072
 20
111.4956373876
 10
136.8863554729
 20
111.531916217
 10
136.8979117048
 20
111.568592821
 10
136.9087496605
 20
111.605532865
 10
136.9188515256
 20
111.642691571
 10
136.9282351143
 20
111.6801137169
 10
136.9369004268
 20
111.7177993029
  0
LWPOLYLINE
  5
4F8
100
AcDbEntity
  8
0
100
AcDbPolyline
 62
7
  6
CONTINUOUS
 90
28
 70
0
 10
135.9204263192
 20
111.0411713033
 10
135.9475930174
 20
111.0739860643
 10
135.9717012957
 20
111.1083027057
 10
135.9927511541
 20
111.1441212276
 10
136.010757713
 20
111.1813658368
 10
136.0257058519
 20
111.2201123264
 10
136.0375502097
 20
111.2605880761
 10
136.0463168303
 20
111.3034696124
 10
136.0519796697
 20
111.3480804087
 10
136.0544152339
 20
111.3926182653
 10
136.0535160031
 20
111.4370993903
 10
136.0493894972
 20
111.4815075755
 10
136.0422347814
 20
111.5239919962
 10
136.0318423517
 20
111.5640807547
 10
136.0184217121
 20
111.6022457488
 10
136.0028004401
 20
111.6380518471
 10
135.9850585146
 20
111.6714822095
 10
135.9651159566
 20
111.7025536762
 10
135.9435604065
 20
111.7308816361
 10
135.9207079993
 20
111.7561711868
 10
135.8962426001
 20
111.7787172307
 10
135.8698034449
 20
111.7990198652
 10
135.8414035129
 20
111.8171570659
 10
135.8110298248
 20
111.8330508572
 10
135.7782826791
 20
111.8469674096
 10
135.743028842
 20
111.8589954465
 10
135.7054015473
 20
111.8690462445
 10
135.6654007951
 20
111.8771198036
  0
LINE
  5
4F9
100
AcDbEntity
  8
RACCORDO
100
AcDbLine
 62
250
  6
CONTINUOUS
 10
193.6619781846
 20
73.0903872283
 11
192.4953699247
 21
73.0903872283
  0
LINE
  5
4FA
100
AcDbEntity
  8
RACCORDO
100
AcDbLine
 62
250
  6
CONTINUOUS
 10
123.2310651976
 20
73.0903872283
 11
122.0644569377
 21
73.0903872283
  0
LINE
  5
4FB
100
AcDbEntity
  8
RACCORDO
100
AcDbLine
 62
7
  6
CONTINUOUS
 10
121.9632175611
 20
74.0903872283
 11
123.3148495093
 21
74.0903872283
  0
LINE
  5
4FC
100
AcDbEntity
  8
RACCORDO
100
AcDbLine
 62
7
  6
CONTINUOUS
 10
192.411585613
 20
74.0903872283
 11
193.7632175611
 21
74.0903872283
  0
LINE
  5
4FD
100
AcDbEntity
  8
DRAFT
100
AcDbLine
 62
7
  6
CONTINUOUS
 10
121.9632175611
 20
74.1903872283
 11
123.3748164183
 21
74.1903872283
  0
LINE
  5
4FE
100
AcDbEntity
  8
DRAFT
100
AcDbLine
 62
7
  6
CONTINUOUS
 10
192.351618704
 20
74.1903872283
 11
193.7632175611
 21
74.1903872283
  0
LINE
  5
4FF
100
AcDbEntity
  8
0
100
AcDbLine
 62
7
  6
CONTINUOUS
 10
130.1986782127
 20
110.7064048211
 11
130.3886370955
 21
110.1903872283
  0
LINE
  5
500
100
AcDbEntity
  8
0
100
AcDbLine
 62
7
  6
CONTINUOUS
 10
127.4679775203
 20
111.6352364881
 11
127.959000602
 21
110.1903872283
  0
LINE
  5
501
100
AcDbEntity
  8
0
100
AcDbLine
 62
7
  6
CONTINUOUS
 10
128.0090467869
 20
110.6335148771
 11
127.5869841613
 21
111.8932452845
  0
LINE
  5
502
100
AcDbEntity
  8
0
100
AcDbLine
 62
7
  6
CONTINUOUS
 10
128.0365841763
 20
110.5493887502
 11
128.0090467869
 21
110.6335148771
  0
LINE
  5
503
100
AcDbEntity
  8
0
100
AcDbLine
 62
7
  6
CONTINUOUS
 10
128.0544023918
 20
110.4938378234
 11
128.0365841763
 21
110.5493887502
  0
LINE
  5
504
100
AcDbEntity
  8
0
100
AcDbLine
 62
7
  6
CONTINUOUS
 10
128.0717181826
 20
110.4387207046
 11
128.0544023918
 21
110.4938378234
  0
LWPOLYLINE
  5
505
100
AcDbEntity
  8
0
100
AcDbPolyline
 62
7
  6
CONTINUOUS
 90
6
 70
0
 10
129.8261779981
 20
111.7177993029
 10
129.8525059528
 20
111.6320722262
 10
129.8810375561
 20
111.5448225158
 10
129.9117728081
 20
111.4560501719
 10
129.9451678662
 20
111.3657281443
 10
130.0540133555
 20
111.0858967606
  0
LWPOLYLINE
  5
506
100
AcDbEntity
  8
0
100
AcDbPolyline
 62
7
  6
CONTINUOUS
 90
12
 70
0
 10
133.1886567861
 20
111.3995283064
 10
133.1950237376
 20
111.3633098041
 10
133.2044576198
 20
111.3285550907
 10
133.2168014941
 20
111.2954594216
 10
133.2322122991
 20
111.2638275414
 10
133.2508157387
 20
111.2335907604
 10
133.2725752741
 20
111.2047443171
 10
133.297527444
 20
111.1772929728
 10
133.3259075683
 20
111.1511823226
 10
133.3577940868
 20
111.1263942314
 10
133.3931085596
 20
111.1029468343
 10
133.4318509868
 20
111.0808401311
  0
LINE
  5
507
100
AcDbEntity
  8
0
100
AcDbLine
 62
7
  6
CONTINUOUS
 10
140.2032917104
 20
111.8932452845
 11
140.2032917104
 21
110.1903872283
  0
LINE
  5
508
100
AcDbEntity
  8
0
100
AcDbLine
 62
7
  6
CONTINUOUS
 10
140.4303394513
 20
110.1903872283
 11
140.4303394513
 21
111.8932452845
  0
LINE
  5
509
100
AcDbEntity
  8
0
100
AcDbLine
 62
7
  6
CONTINUOUS
 10
140.8844349329
 20
110.1903872283
 11
141.0639123634
 21
110.7064048211
  0
LINE
  5
50A
100
AcDbEntity
  8
0
100
AcDbLine
 62
7
  6
CONTINUOUS
 10
141.1285758599
 20
110.8921711545
 11
141.3125683557
 21
111.3893218811
  0
LINE
  5
50B
100
AcDbEntity
  8
0
100
AcDbLine
 62
7
  6
CONTINUOUS
 10
141.29208891
 20
111.8932452845
 11
140.6448093863
 21
110.1903872283
  0
LWPOLYLINE
  5
50C
100
AcDbEntity
  8
0
100
AcDbPolyline
 62
7
  6
CONTINUOUS
 90
10
 70
0
 10
141.3125683557
 20
111.3893218811
 10
141.3267661084
 20
111.4243626087
 10
141.3402990274
 20
111.4598011109
 10
141.3531671126
 20
111.4956373876
 10
141.3653881783
 20
111.531916217
 10
141.3769444103
 20
111.568592821
 10
141.3877823659
 20
111.605532865
 10
141.397884231
 20
111.642691571
 10
141.4072678198
 20
111.6801137169
 10
141.4159331322
 20
111.7177993029
  0
LINE
  5
50D
100
AcDbEntity
  8
DRAFT
100
AcDbLine
 62
7
  6
CONTINUOUS
 10
154.5521248339
 20
132.2017242952
 11
154.2132175611
 21
131.6147196798
  0
LINE
  5
50E
100
AcDbEntity
  8
DRAFT
100
AcDbLine
 62
7
  6
CONTINUOUS
 10
154.6132175611
 20
132.1853545483
 11
154.2132175611
 21
131.4925342253
  0
LINE
  5
50F
100
AcDbEntity
  8
DRAFT
100
AcDbLine
 62
7
  6
CONTINUOUS
 10
122.0679479507
 20
80.1259405526
 11
193.6584871716
 21
80.1259405526
  0
LINE
  5
510
100
AcDbEntity
  8
DRAFT
100
AcDbLine
 62
7
  6
CONTINUOUS
 10
130.3632175611
 20
80.1727475014
 11
132.1132175611
 21
80.1727475014
  0
LINE
  5
511
100
AcDbEntity
  8
DRAFT
100
AcDbLine
 62
7
  6
CONTINUOUS
 10
133.6132175611
 20
80.1727475014
 11
135.3632175611
 21
80.1727475014
  0
LINE
  5
512
100
AcDbEntity
  8
DRAFT
100
AcDbLine
 62
7
  6
CONTINUOUS
 10
155.3632175611
 20
80.1727475014
 11
157.1132175611
 21
80.1727475014
  0
LINE
  5
513
100
AcDbEntity
  8
DRAFT
100
AcDbLine
 62
7
  6
CONTINUOUS
 10
158.6132175611
 20
80.1727475014
 11
160.3632175611
 21
80.1727475014
  0
LINE
  5
514
100
AcDbEntity
  8
DRAFT
100
AcDbLine
 62
7
  6
CONTINUOUS
 10
180.3632175611
 20
80.1727475014
 11
182.1132175611
 21
80.1727475014
  0
LINE
  5
515
100
AcDbEntity
  8
DRAFT
100
AcDbLine
 62
7
  6
CONTINUOUS
 10
183.6132175611
 20
80.1727475014
 11
185.3632175611
 21
80.1727475014
  0
LINE
  5
516
100
AcDbEntity
  8
DRAFT
100
AcDbLine
 62
7
  6
CONTINUOUS
 10
121.9632175611
 20
80.4403872283
 11
130.3632175611
 21
80.4403872283
  0
LINE
  5
517
100
AcDbEntity
  8
DRAFT
100
AcDbLine
 62
7
  6
CONTINUOUS
 10
132.1132175611
 20
80.4403872283
 11
133.6132175611
 21
80.4403872283
  0
LINE
  5
518
100
AcDbEntity
  8
DRAFT
100
AcDbLine
 62
7
  6
CONTINUOUS
 10
135.3632175611
 20
80.4403872283
 11
155.3632175611
 21
80.4403872283
  0
LINE
  5
519
100
AcDbEntity
  8
DRAFT
100
AcDbLine
 62
7
  6
CONTINUOUS
 10
157.1132175611
 20
80.4403872283
 11
158.6132175611
 21
80.4403872283
  0
LINE
  5
51A
100
AcDbEntity
  8
DRAFT
100
AcDbLine
 62
7
  6
CONTINUOUS
 10
160.3632175611
 20
80.4403872283
 11
180.3632175611
 21
80.4403872283
  0
LINE
  5
51B
100
AcDbEntity
  8
DRAFT
100
AcDbLine
 62
7
  6
CONTINUOUS
 10
182.1132175611
 20
80.4403872283
 11
183.6132175611
 21
80.4403872283
  0
LINE
  5
51C
100
AcDbEntity
  8
DRAFT
100
AcDbLine
 62
7
  6
CONTINUOUS
 10
185.3632175611
 20
80.4403872283
 11
193.7632175611
 21
80.4403872283
  0
LINE
  5
51D
100
AcDbEntity
  8
0
100
AcDbLine
 62
7
  6
CONTINUOUS
 10
130.6300366372
 20
110.1903872283
 11
129.9479258669
 21
111.8932452845
  0
LINE
  5
51E
100
AcDbEntity
  8
0
100
AcDbLine
 62
7
  6
CONTINUOUS
 10
130.0540133555
 20
111.0858967606
 11
130.1301446827
 21
110.8921711545
  0
LINE
  5
51F
100
AcDbEntity
  8
0
100
AcDbLine
 62
7
  6
CONTINUOUS
 10
142.4015266557
 20
111.8932452845
 11
142.4015266557
 21
110.1903872283
  0
LINE
  5
520
100
AcDbEntity
  8
0
100
AcDbLine
 62
7
  6
CONTINUOUS
 10
142.6285743966
 20
110.3864739135
 11
142.6285743966
 21
111.8932452845
  0
LINE
  5
521
100
AcDbEntity
  8
0
100
AcDbLine
 62
7
  6
CONTINUOUS
 10
143.4748432487
 20
110.1903872283
 11
143.4748432487
 21
110.3864739135
  0
LINE
  5
522
100
AcDbEntity
  8
0
100
AcDbLine
 62
7
  6
CONTINUOUS
 10
143.743172397
 20
111.8932452845
 11
143.743172397
 21
110.1903872283
  0
LINE
  5
523
100
AcDbEntity
  8
0
100
AcDbLine
 62
7
  6
CONTINUOUS
 10
143.9702201378
 20
110.3864739135
 11
143.9702201378
 21
110.9747339693
  0
LINE
  5
524
100
AcDbEntity
  8
0
100
AcDbLine
 62
7
  6
CONTINUOUS
 10
143.9702201378
 20
111.1708206546
 11
143.9702201378
 21
111.6971585992
  0
LINE
  5
525
100
AcDbEntity
  8
0
100
AcDbLine
 62
7
  6
CONTINUOUS
 10
144.8990518049
 20
110.9747339693
 11
144.8990518049
 21
111.1708206546
  0
LINE
  5
526
100
AcDbEntity
  8
0
100
AcDbLine
 62
7
  6
CONTINUOUS
 10
144.960973916
 20
111.6971585992
 11
144.960973916
 21
111.8932452845
  0
LINE
  5
527
100
AcDbEntity
  8
0
100
AcDbLine
 62
7
  6
CONTINUOUS
 10
145.0022553234
 20
110.1903872283
 11
145.0022553234
 21
110.3864739135
  0
LWPOLYLINE
  5
528
100
AcDbEntity
  8
0
100
AcDbPolyline
 62
7
  6
CONTINUOUS
 90
17
 70
0
 10
148.3949157627
 20
111.2994530153
 10
148.4090181285
 20
111.3505936705
 10
148.4255656603
 20
111.3983806565
 10
148.4446573597
 20
111.4429737971
 10
148.4661468928
 20
111.4840747959
 10
148.4899665612
 20
111.5214456878
 10
148.5161840633
 20
111.5553244378
 10
148.5448561612
 20
111.586126645
 10
148.5757927894
 20
111.6138971556
 10
148.6091840133
 20
111.6385911233
 10
148.6456567915
 20
111.6604896088
 10
148.685528381
 20
111.6798943677
 10
148.7284815248
 20
111.6965036444
 10
148.7741914102
 20
111.7096932321
 10
148.8225497664
 20
111.7192550619
 10
148.8736648642
 20
111.7253972028
 10
148.9275367037
 20
111.7281196548
  0
LWPOLYLINE
  5
529
100
AcDbEntity
  8
0
100
AcDbPolyline
 62
7
  6
CONTINUOUS
 90
9
 70
0
 10
146.6681242611
 20
110.6279622344
 10
146.6566528471
 20
110.5967193394
 10
146.6455433686
 20
110.5655895996
 10
146.6347979638
 20
110.5345683337
 10
146.6244144943
 20
110.5036602229
 10
146.6143865459
 20
110.4728793113
 10
146.6047119803
 20
110.4422302804
 10
146.5953929357
 20
110.4117084487
 10
146.586429412
 20
110.3813138163
  0
LINE
  5
52A
100
AcDbEntity
  8
0
100
AcDbLine
 62
7
  6
CONTINUOUS
 10
147.1488885094
 20
111.8932452845
 11
146.6681242611
 21
110.6279622344
  0
LINE
  5
52B
100
AcDbEntity
  8
0
100
AcDbLine
 62
7
  6
CONTINUOUS
 10
146.7125312457
 20
110.1903872283
 11
147.3917393727
 21
111.8932452845
  0
LINE
  5
52C
100
AcDbEntity
  8
DRAFT
100
AcDbLine
 62
7
  6
CONTINUOUS
 10
192.4155827559
 20
153.0903872283
 11
192.3632175611
 21
153.0380220335
  0
LINE
  5
52D
100
AcDbEntity
  8
RACCORDO
100
AcDbLine
 62
250
  6
CONTINUOUS
 10
192.763369866
 20
153.0903872283
 11
192.6586394764
 21
152.9856568387
  0
LINE
  5
52E
100
AcDbEntity
  8
RACCORDO
100
AcDbLine
 62
250
  6
CONTINUOUS
 10
193.7632175611
 20
152.0905395331
 11
193.6584871716
 21
151.9858091435
  0
LINE
  5
52F
100
AcDbEntity
  8
0
100
AcDbLine
 62
7
  6
CONTINUOUS
 10
130.3632175611
 20
82.2403872283
 11
132.1132175611
 21
82.2403872283
  0
LINE
  5
530
100
AcDbEntity
  8
0
100
AcDbLine
 62
7
  6
CONTINUOUS
 10
133.6132175611
 20
82.2403872283
 11
135.3632175611
 21
82.2403872283
  0
LINE
  5
531
100
AcDbEntity
  8
0
100
AcDbLine
 62
7
  6
CONTINUOUS
 10
155.3632175611
 20
82.2403872283
 11
157.1132175611
 21
82.2403872283
  0
LINE
  5
532
100
AcDbEntity
  8
0
100
AcDbLine
 62
7
  6
CONTINUOUS
 10
158.6132175611
 20
82.2403872283
 11
160.3632175611
 21
82.2403872283
  0
LINE
  5
533
100
AcDbEntity
  8
0
100
AcDbLine
 62
7
  6
CONTINUOUS
 10
180.3632175611
 20
82.2403872283
 11
182.1132175611
 21
82.2403872283
  0
LINE
  5
534
100
AcDbEntity
  8
0
100
AcDbLine
 62
7
  6
CONTINUOUS
 10
183.6132175611
 20
82.2403872283
 11
185.3632175611
 21
82.2403872283
  0
LINE
  5
535
100
AcDbEntity
  8
RACCORDO
100
AcDbLine
 62
250
  6
CONTINUOUS
 10
192.6586394764
 20
43.3951176178
 11
192.763369866
 21
43.2903872283
  0
LINE
  5
536
100
AcDbEntity
  8
RACCORDO
100
AcDbLine
 62
250
  6
CONTINUOUS
 10
193.6584871716
 20
44.394965313
 11
193.7632175611
 21
44.2902349234
  0
LWPOLYLINE
  5
537
100
AcDbEntity
  8
0
100
AcDbPolyline
 62
7
  6
CONTINUOUS
 90
5
 70
0
 10
132.0484078901
 20
110.6095289342
 10
131.9983298985
 20
110.6843401144
 10
131.9462968933
 20
110.7534342435
 10
131.8931228831
 20
110.8176586125
 10
131.838807868
 20
110.8770132213
  0
LINE
  5
538
100
AcDbEntity
  8
0
100
AcDbLine
 62
7
  6
CONTINUOUS
 10
131.7980682458
 20
110.5767292777
 11
132.0418284879
 21
110.1903872283
  0
LINE
  5
539
100
AcDbEntity
  8
0
100
AcDbLine
 62
7
  6
CONTINUOUS
 10
132.3085450566
 20
110.1903872283
 11
132.147582884
 21
110.4478391657
  0
LINE
  5
53A
100
AcDbEntity
  8
0
100
AcDbLine
 62
7
  6
CONTINUOUS
 10
132.147582884
 20
110.4478391657
 11
132.0484078901
 21
110.6095289342
  0
LINE
  5
53B
100
AcDbEntity
  8
0
100
AcDbLine
 62
7
  6
CONTINUOUS
 10
137.7407590658
 20
110.1903872283
 11
137.0586482956
 21
111.8932452845
  0
LINE
  5
53C
100
AcDbEntity
  8
0
100
AcDbLine
 62
7
  6
CONTINUOUS
 10
137.1647357842
 20
111.0858967606
 11
137.2408671114
 21
110.8921711545
  0
LINE
  5
53D
100
AcDbEntity
  8
0
100
AcDbLine
 62
7
  6
CONTINUOUS
 10
138.4344802516
 20
111.8932452845
 11
139.0891774839
 21
110.1903872283
  0
LINE
  5
53E
100
AcDbEntity
  8
0
100
AcDbLine
 62
7
  6
CONTINUOUS
 10
137.3094006414
 20
110.7064048211
 11
137.4993595242
 21
110.1903872283
  0
LWPOLYLINE
  5
53F
100
AcDbEntity
  8
0
100
AcDbPolyline
 62
7
  6
CONTINUOUS
 90
6
 70
0
 10
136.9369004268
 20
111.7177993029
 10
136.9632283815
 20
111.6320722262
 10
136.9917599848
 20
111.5448225158
 10
137.0224952367
 20
111.4560501719
 10
137.0558902949
 20
111.3657281443
 10
137.1647357842
 20
111.0858967606
  0
LWPOLYLINE
  5
540
100
AcDbEntity
  8
0
100
AcDbPolyline
 62
7
  6
CONTINUOUS
 90
10
 70
0
 10
139.2073778351
 20
110.3813138163
 10
139.1988399914
 20
110.4115144775
 10
139.1899485154
 20
110.4418893885
 10
139.180703407
 20
110.4724385492
 10
139.1710959303
 20
110.5031647179
 10
139.1611348211
 20
110.5340651364
 10
139.1508462872
 20
110.5651315299
 10
139.1402390641
 20
110.5963611399
 10
139.1293044162
 20
110.6277567248
 10
138.6758796358
 20
111.8932452845
  0
LINE
  5
541
100
AcDbEntity
  8
0
100
AcDbLine
 62
7
  6
CONTINUOUS
 10
147.5823432874
 20
111.8932452845
 11
147.5823432874
 21
110.1903872283
  0
LINE
  5
542
100
AcDbEntity
  8
0
100
AcDbLine
 62
7
  6
CONTINUOUS
 10
147.8093910282
 20
110.1903872283
 11
147.8093910282
 21
111.8932452845
  0
LINE
  5
543
100
AcDbEntity
  8
0
100
AcDbLine
 62
7
  6
CONTINUOUS
 10
148.6632175611
 20
151.6903872283
 11
148.6632175611
 21
145.3903872283
  0
LINE
  5
544
100
AcDbEntity
  8
0
100
AcDbLine
 62
7
  6
CONTINUOUS
 10
148.6632175611
 20
44.6903872283
 11
148.6632175611
 21
50.9903872283
  0
LWPOLYLINE
  5
545
100
AcDbEntity
  8
0
100
AcDbPolyline
 62
7
  6
CONTINUOUS
 90
42
 70
0
 10
149.4193659177
 20
110.7880002456
 10
149.4051798102
 20
110.7344537374
 10
149.3884673041
 20
110.6845376398
 10
149.3692283993
 20
110.6382519528
 10
149.3472317684
 20
110.5955261667
 10
149.3227087389
 20
110.5564307912
 10
149.2963532932
 20
110.5211773552
 10
149.2684783902
 20
110.4900745294
 10
149.238771071
 20
110.462813643
 10
149.2069864411
 20
110.438680213
 10
149.1731939528
 20
110.4174650306
 10
149.1373241538
 20
110.3993773046
 10
149.0989237928
 20
110.3843301784
 10
149.057557167
 20
110.3720633916
 10
149.013659979
 20
110.3628372044
 10
148.9680860851
 20
110.3573455412
 10
148.9202151571
 20
110.3557814948
 10
148.8706675232
 20
110.3579519722
 10
148.8221580232
 20
110.3639716187
 10
148.77500404
 20
110.3741563133
 10
148.7288881909
 20
110.3881901769
 10
148.6855731676
 20
110.4052402186
 10
148.6456106747
 20
110.4251513979
 10
148.6084490078
 20
110.4480787552
 10
148.5741957455
 20
110.4736544209
 10
148.5429969495
 20
110.501620189
 10
148.5147065582
 20
110.5322342655
 10
148.4889939657
 20
110.5659033987
 10
148.4658248665
 20
110.6027687752
 10
148.4452335661
 20
110.6426892085
 10
148.4269923758
 20
110.6856478873
 10
148.410988325
 20
110.7317418746
 10
148.3973343843
 20
110.7808741075
 10
148.3861417763
 20
110.832736586
 10
148.3773034898
 20
110.8876808167
 10
148.370926536
 20
110.945355293
 10
148.3674431717
 20
111.0043974951
 10
148.3669661769
 20
111.0656145176
 10
148.3693827716
 20
111.1281992658
 10
148.3747868724
 20
111.1883679356
 10
148.3833575644
 20
111.2451185146
 10
148.3949157627
 20
111.2994530153
  0
LINE
  5
546
100
AcDbEntity
  8
DRAFT
100
AcDbLine
 62
7
  6
CONTINUOUS
 10
161.1132175611
 20
127.5954199082
 11
161.5132175611
 21
128.2882402313
  0
LINE
  5
547
100
AcDbEntity
  8
DRAFT
100
AcDbLine
 62
7
  6
CONTINUOUS
 10
161.1743102884
 20
127.5790501613
 11
161.5132175611
 21
128.1660547768
  0
LINE
  5
548
100
AcDbEntity
  8
0
100
AcDbLine
 62
7
  6
CONTINUOUS
 10
153.9424214159
 20
111.4931704315
 11
153.0727704747
 21
110.3946980694
  0
LINE
  5
549
100
AcDbEntity
  8
0
100
AcDbLine
 62
7
  6
CONTINUOUS
 10
153.3299731388
 20
110.3864739135
 11
154.3834551604
 21
111.6971585992
  0
LWPOLYLINE
  5
54A
100
AcDbEntity
  8
0
100
AcDbPolyline
 62
7
  6
CONTINUOUS
 90
10
 70
0
 10
154.119641235
 20
111.6971585992
 10
154.0997817167
 20
111.6760847019
 10
154.0799670128
 20
111.6546037648
 10
154.0601971233
 20
111.6327157877
 10
154.0404756581
 20
111.6104085359
 10
154.0207990072
 20
111.5876942441
 10
154.0011563405
 20
111.5646096173
 10
153.9815440481
 20
111.5411668904
 10
153.9619657399
 20
111.5173538285
 10
153.9424214159
 20
111.4931704315
  0
LWPOLYLINE
  5
54B
100
AcDbEntity
  8
0
100
AcDbPolyline
 62
7
  6
CONTINUOUS
 90
25
 70
0
 10
161.8492622591
 20
111.6723253461
 10
161.8733923331
 20
111.6874497026
 10
161.8983369827
 20
111.7001909819
 10
161.9240962081
 20
111.7105491839
 10
161.9509308536
 20
111.7185212774
 10
161.9785800749
 20
111.7241102937
 10
162.0062613382
 20
111.7273253266
 10
162.0341021035
 20
111.728106813
 10
162.0619749107
 20
111.7265143161
 10
162.0887148468
 20
111.7227356192
 10
162.1140642756
 20
111.7166623485
 10
162.1382808333
 20
111.7084028778
 10
162.1609725145
 20
111.6984701114
 10
162.1820267756
 20
111.6869306316
 10
162.2015561602
 20
111.673717856
 10
162.2195062943
 20
111.6591449422
 10
162.2357605393
 20
111.643455051
 10
162.2504355338
 20
111.6264050216
 10
162.2638268193
 20
111.6075785289
 10
162.275958909
 20
111.5867142309
 10
162.2868072896
 20
111.5640734695
 10
162.2965939626
 20
111.5400239463
 10
162.3053929285
 20
111.5146882283
 10
162.3131301868
 20
111.4879437484
 10
162.3198057376
 20
111.4597905065
  0
LWPOLYLINE
  5
54C
100
AcDbEntity
  8
0
100
AcDbPolyline
 62
7
  6
CONTINUOUS
 90
12
 70
0
 10
160.4036236405
 20
111.8480057315
 10
160.3693430936
 20
111.8283179503
 10
160.3371942398
 20
111.8057864665
 10
160.3072268267
 20
111.7806441455
 10
160.2793911067
 20
111.7526581219
 10
160.2533772639
 20
111.7211747351
 10
160.2288124891
 20
111.6858920967
 10
160.2060695914
 20
111.6471120951
 10
160.1859571822
 20
111.6050867349
 10
160.1687447984
 20
111.5599000175
 10
160.154162903
 20
111.5114679413
 10
160.142211496
 20
111.4597905065
  0
LWPOLYLINE
  5
54D
100
AcDbEntity
  8
0
100
AcDbPolyline
 62
7
  6
CONTINUOUS
 90
38
 70
0
 10
160.9091426925
 20
111.1129299924
 10
160.9449803922
 20
111.1318308493
 10
160.9776420806
 20
111.1520735601
 10
161.0071277576
 20
111.1736581246
 10
161.0332924306
 20
111.196545372
 10
161.0562810921
 20
111.2207744732
 10
161.0765287203
 20
111.2464629413
 10
161.094145864
 20
111.273592629
 10
161.1090219743
 20
111.3021816836
 10
161.1212603824
 20
111.3324020597
 10
161.1310496396
 20
111.3645753964
 10
161.1382011945
 20
111.3983800545
 10
161.142252725
 20
111.4330230706
 10
161.1431172037
 20
111.4685524285
 10
161.1408816579
 20
111.5049201445
 10
161.1353448475
 20
111.5411893038
 10
161.1262974936
 20
111.5775258518
 10
161.1139488751
 20
111.6137638432
 10
161.0987255881
 20
111.6484685277
 10
161.0806656822
 20
111.6813668748
 10
161.0597311079
 20
111.712731915
 10
161.0362343127
 20
111.7419479896
 10
161.0103804904
 20
111.7687824665
 10
160.9819644473
 20
111.7934679778
 10
160.95068305
 20
111.8160867602
 10
160.9163203443
 20
111.836947144
 10
160.8790922845
 20
111.855740799
 10
160.8393435999
 20
111.8716249713
 10
160.796625451
 20
111.8845528104
 10
160.7513866774
 20
111.8945711668
 10
160.7053185272
 20
111.9009778383
 10
160.6580469263
 20
111.9034410982
 10
160.609945949
 20
111.9022926731
 10
160.5638290659
 20
111.8978255405
 10
160.5205313769
 20
111.889994003
 10
160.4792177822
 20
111.8788437578
 10
160.4401964539
 20
111.8648048746
 10
160.4036236405
 20
111.8480057315
  0
LWPOLYLINE
  5
54E
100
AcDbEntity
  8
0
100
AcDbPolyline
 62
7
  6
CONTINUOUS
 90
10
 70
0
 10
156.9738634762
 20
111.2727342669
 10
157.0296591217
 20
111.2960585005
 10
157.0835108079
 20
111.320727842
 10
157.1354185349
 20
111.3467422915
 10
157.1857172603
 20
111.3743172552
 10
157.2340720264
 20
111.4032373268
 10
157.2794779609
 20
111.4328562881
 10
157.3216001063
 20
111.4629587332
 10
157.3607734201
 20
111.4937600681
 10
157.3969979023
 20
111.5252602928
  0
LINE
  5
54F
100
AcDbEntity
  8
0
100
AcDbLine
 62
7
  6
CONTINUOUS
 10
172.0516007634
 20
89.5298272283
 11
184.7516007634
 21
89.5298272283
  0
LWPOLYLINE
  5
550
100
AcDbEntity
  8
0
100
AcDbPolyline
 62
7
  6
CONTINUOUS
 90
28
 70
0
 10
133.4770024277
 20
111.3178857079
 10
133.4623485242
 20
111.3328443488
 10
133.4495521763
 20
111.3488609851
 10
133.4386133842
 20
111.3659356167
 10
133.4294771388
 20
111.3840901949
 10
133.422198449
 20
111.4033027684
 10
133.4169423421
 20
111.4235074837
 10
133.4137271578
 20
111.4450491489
 10
133.4125345564
 20
111.4675829559
 10
133.4134745453
 20
111.4900086263
 10
133.4165981863
 20
111.5122022978
 10
133.4218544176
 20
111.5342878328
 10
133.4292000625
 20
111.5555365404
 10
133.4385573833
 20
111.5757172587
 10
133.4500041177
 20
111.5950611497
 10
133.463730302
 20
111.6135330078
 10
133.4797953742
 20
111.6313089806
 10
133.4981398964
 20
111.6482129206
 10
133.518775591
 20
111.66368118
 10
133.5418337763
 20
111.6776396163
 10
133.567183134
 20
111.690162372
 10
133.5944414309
 20
111.7009082265
 10
133.6236267615
 20
111.7097362671
 10
133.6547210313
 20
111.7167874065
 10
133.6872877235
 20
111.7221431632
 10
133.7211813325
 20
111.7258307098
 10
133.7565473639
 20
111.7278228737
 10
133.7933858177
 20
111.7281196548
  0
LINE
  5
551
100
AcDbEntity
  8
0
100
AcDbLine
 62
7
  6
CONTINUOUS
 10
142.2197917713
 20
110.1903872283
 11
141.5376810011
 21
111.8932452845
  0
LINE
  5
552
100
AcDbEntity
  8
0
100
AcDbLine
 62
7
  6
CONTINUOUS
 10
141.6437684897
 20
111.0858967606
 11
141.7198998169
 21
110.8921711545
  0
LINE
  5
553
100
AcDbEntity
  8
0
100
AcDbLine
 62
7
  6
CONTINUOUS
 10
141.7884333468
 20
110.7064048211
 11
141.9783922296
 21
110.1903872283
  0
LWPOLYLINE
  5
554
100
AcDbEntity
  8
0
100
AcDbPolyline
 62
7
  6
CONTINUOUS
 90
6
 70
0
 10
141.4159331322
 20
111.7177993029
 10
141.442261087
 20
111.6320722262
 10
141.4707926903
 20
111.5448225158
 10
141.5015279422
 20
111.4560501719
 10
141.5349230004
 20
111.3657281443
 10
141.6437684897
 20
111.0858967606
  0
LINE
  5
555
100
AcDbEntity
  8
DRAFT
100
AcDbLine
 62
7
  6
CONTINUOUS
 10
153.4855667602
 20
113.7903872283
 11
153.4841636391
 21
114.0903872283
  0
LINE
  5
556
100
AcDbEntity
  8
0
100
AcDbLine
 62
7
  6
CONTINUOUS
 10
149.9353835105
 20
111.8932452845
 11
149.9353835105
 21
110.1903872283
  0
LINE
  5
557
100
AcDbEntity
  8
0
100
AcDbLine
 62
7
  6
CONTINUOUS
 10
150.1624312513
 20
110.3864739135
 11
150.1624312513
 21
110.9747339693
  0
LINE
  5
558
100
AcDbEntity
  8
0
100
AcDbLine
 62
7
  6
CONTINUOUS
 10
150.1624312513
 20
111.1708206546
 11
150.1624312513
 21
111.6971585992
  0
LINE
  5
559
100
AcDbEntity
  8
0
100
AcDbLine
 62
7
  6
CONTINUOUS
 10
150.8632175611
 20
151.6903872283
 11
150.8632175611
 21
145.3903872283
  0
LINE
  5
55A
100
AcDbEntity
  8
0
100
AcDbLine
 62
7
  6
CONTINUOUS
 10
150.8632175611
 20
44.6903872283
 11
150.8632175611
 21
50.9903872283
  0
LINE
  5
55B
100
AcDbEntity
  8
0
100
AcDbLine
 62
7
  6
CONTINUOUS
 10
151.0912629184
 20
110.9747339693
 11
151.0912629184
 21
111.1708206546
  0
LINE
  5
55C
100
AcDbEntity
  8
0
100
AcDbLine
 62
7
  6
CONTINUOUS
 10
151.1531850295
 20
111.6971585992
 11
151.1531850295
 21
111.8932452845
  0
LINE
  5
55D
100
AcDbEntity
  8
0
100
AcDbLine
 62
7
  6
CONTINUOUS
 10
151.1944664369
 20
110.1903872283
 11
151.1944664369
 21
110.3864739135
  0
LINE
  5
55E
100
AcDbEntity
  8
0
100
AcDbLine
 62
7
  6
CONTINUOUS
 10
151.5143973445
 20
111.8932452845
 11
151.5143973445
 21
110.1903872283
  0
LINE
  5
55F
100
AcDbEntity
  8
0
100
AcDbLine
 62
7
  6
CONTINUOUS
 10
151.7414450853
 20
110.1903872283
 11
151.7414450853
 21
111.4963955906
  0
LINE
  5
560
100
AcDbEntity
  8
DRAFT
100
AcDbLine
 62
7
  6
CONTINUOUS
 10
151.8632175611
 20
99.6903872283
 11
151.8632175611
 21
96.6903872283
  0
LINE
  5
561
100
AcDbEntity
  8
RACCORDO
100
AcDbLine
 62
7
  6
CONTINUOUS
 10
151.9260749462
 20
99.1446854558
 11
151.9260749462
 21
97.2360890007
  0
LINE
  5
562
100
AcDbEntity
  8
0
100
AcDbLine
 62
7
  6
CONTINUOUS
 10
152.3632175611
 20
151.6903872283
 11
152.3632175611
 21
144.7903872283
  0
LINE
  5
563
100
AcDbEntity
  8
0
100
AcDbLine
 62
7
  6
CONTINUOUS
 10
152.6083546412
 20
111.8932452845
 11
152.6083546412
 21
110.5872370796
  0
LINE
  5
564
100
AcDbEntity
  8
0
100
AcDbLine
 62
7
  6
CONTINUOUS
 10
152.835402382
 20
110.1903872283
 11
152.835402382
 21
111.8932452845
  0
LINE
  5
565
100
AcDbEntity
  8
RACCORDO
100
AcDbLine
 62
7
  6
CONTINUOUS
 10
152.8809090148
 20
99.1446854558
 11
152.8809090148
 21
97.2360890007
  0
LINE
  5
566
100
AcDbEntity
  8
0
100
AcDbLine
 62
7
  6
CONTINUOUS
 10
153.0727704747
 20
110.3946980694
 11
153.0727704747
 21
110.1903872283
  0
LINE
  5
567
100
AcDbEntity
  8
0
100
AcDbLine
 62
7
  6
CONTINUOUS
 10
153.1759739933
 20
111.8932452845
 11
153.1759739933
 21
111.6971585992
  0
LINE
  5
568
100
AcDbEntity
  8
SMUSSO
100
AcDbLine
 62
7
  6
CONTINUOUS
 10
153.3632175611
 20
118.5714066765
 11
153.3632175611
 21
115.9403872283
  0
LINE
  5
569
100
AcDbEntity
  8
DRAFT
100
AcDbLine
 62
7
  6
CONTINUOUS
 10
153.3632175611
 20
96.6903872283
 11
153.3632175611
 21
99.6903872283
  0
LINE
  5
56A
100
AcDbEntity
  8
DRAFT
100
AcDbLine
 62
7
  6
CONTINUOUS
 10
153.3632175611
 20
118.5714066765
 11
153.3632175611
 21
119.4403872283
  0
LINE
  5
56B
100
AcDbEntity
  8
0
100
AcDbLine
 62
7
  6
CONTINUOUS
 10
153.3632175611
 20
141.8903872283
 11
153.3632175611
 21
152.1903872283
  0
LINE
  5
56C
100
AcDbEntity
  8
RACCORDO
100
AcDbLine
 62
7
  6
CONTINUOUS
 10
153.4632175611
 20
114.8903872283
 11
153.4632175611
 21
119.4403872283
  0
LINE
  5
56D
100
AcDbEntity
  8
RACCORDO
100
AcDbLine
 62
7
  6
CONTINUOUS
 10
153.4632175611
 20
141.8903872283
 11
153.4632175611
 21
147.7904633807
  0
LINE
  5
56E
100
AcDbEntity
  8
RACCORDO
100
AcDbLine
 62
7
  6
CONTINUOUS
 10
153.4841636391
 20
114.0903872283
 11
153.4841636391
 21
114.5903872283
  0
LINE
  5
56F
100
AcDbEntity
  8
RACCORDO
100
AcDbLine
 62
7
  6
CONTINUOUS
 10
153.5382743403
 20
115.7903872283
 11
153.5382743403
 21
119.4403872283
  0
LINE
  5
570
100
AcDbEntity
  8
RACCORDO
100
AcDbLine
 62
7
  6
CONTINUOUS
 10
153.5382743403
 20
141.8903872283
 11
153.5382743403
 21
147.7154066015
  0
LINE
  5
571
100
AcDbEntity
  8
DRAFT
100
AcDbLine
 62
7
  6
CONTINUOUS
 10
153.5382743403
 20
115.7903872283
 11
153.5033642105
 21
113.7903872283
  0
LINE
  5
572
100
AcDbEntity
  8
0
100
AcDbLine
 62
7
  6
CONTINUOUS
 10
154.7137064198
 20
110.1903872283
 11
154.8931838503
 21
110.7064048211
  0
LINE
  5
573
100
AcDbEntity
  8
0
100
AcDbLine
 62
7
  6
CONTINUOUS
 10
154.9578473467
 20
110.8921711545
 11
155.1418398426
 21
111.3893218811
  0
LINE
  5
574
100
AcDbEntity
  8
0
100
AcDbLine
 62
7
  6
CONTINUOUS
 10
155.1213603968
 20
111.8932452845
 11
154.4740808732
 21
110.1903872283
  0
LWPOLYLINE
  5
575
100
AcDbEntity
  8
0
100
AcDbPolyline
 62
7
  6
CONTINUOUS
 90
10
 70
0
 10
155.1418398426
 20
111.3893218811
 10
155.1560375953
 20
111.4243626087
 10
155.1695705143
 20
111.4598011109
 10
155.1824385995
 20
111.4956373876
 10
155.1946596652
 20
111.531916217
 10
155.2062158971
 20
111.568592821
 10
155.2170538528
 20
111.605532865
 10
155.2271557179
 20
111.642691571
 10
155.2365393066
 20
111.6801137169
 10
155.2452046191
 20
111.7177993029
  0
LWPOLYLINE
  5
576
100
AcDbEntity
  8
0
100
AcDbPolyline
 62
7
  6
CONTINUOUS
 90
16
 70
0
 10
157.470369171
 20
111.9035656363
 10
157.4535790883
 20
111.8730221371
 10
157.4343973633
 20
111.8426425491
 10
157.4128239961
 20
111.8124268722
 10
157.3887871247
 20
111.782349481
 10
157.362358611
 20
111.7524360009
 10
157.3337540411
 20
111.7227633084
 10
157.3030822503
 20
111.6932973097
 10
157.2702344032
 20
111.6640720984
 10
157.2350995801
 20
111.6352668319
 10
157.1977215049
 20
111.6068057208
 10
157.1580564537
 20
111.5787645544
 10
157.1158623344
 20
111.5515498579
 10
157.0710584497
 20
111.5252971397
 10
157.023725497
 20
111.4998708914
 10
156.9738634762
 20
111.4752711131
  0
LINE
  5
577
100
AcDbEntity
  8
0
100
AcDbLine
 62
7
  6
CONTINUOUS
 10
158.8624878658
 20
111.8932452845
 11
158.0678207729
 21
110.7889676359
  0
LINE
  5
578
100
AcDbEntity
  8
0
100
AcDbLine
 62
7
  6
CONTINUOUS
 10
158.274550326
 20
110.7889676359
 11
158.8212064584
 21
111.5488036397
  0
LWPOLYLINE
  5
579
100
AcDbEntity
  8
0
100
AcDbPolyline
 62
7
  6
CONTINUOUS
 90
25
 70
0
 10
164.4912723342
 20
111.6723253461
 10
164.5154024082
 20
111.6874497026
 10
164.5403470578
 20
111.7001909819
 10
164.5661062832
 20
111.7105491839
 10
164.5929409287
 20
111.7185212774
 10
164.62059015
 20
111.7241102937
 10
164.6482714133
 20
111.7273253266
 10
164.6761121786
 20
111.728106813
 10
164.7039849858
 20
111.7265143161
 10
164.7307249219
 20
111.7227356192
 10
164.7560743507
 20
111.7166623485
 10
164.7802909084
 20
111.7084028778
 10
164.8029825896
 20
111.6984701114
 10
164.8240368507
 20
111.6869306316
 10
164.8435662353
 20
111.673717856
 10
164.8615163694
 20
111.6591449422
 10
164.8777706144
 20
111.643455051
 10
164.8924456089
 20
111.6264050216
 10
164.9058368944
 20
111.6075785289
 10
164.9179689841
 20
111.5867142309
 10
164.9288173647
 20
111.5640734695
 10
164.9386040377
 20
111.5400239463
 10
164.9474030036
 20
111.5146882283
 10
164.9551402619
 20
111.4879437484
 10
164.9618158127
 20
111.4597905065
  0
LWPOLYLINE
  5
57A
100
AcDbEntity
  8
0
100
AcDbPolyline
 62
7
  6
CONTINUOUS
 90
12
 70
0
 10
165.6876437908
 20
111.8480057315
 10
165.6533632438
 20
111.8283179503
 10
165.6212143901
 20
111.8057864665
 10
165.5912469769
 20
111.7806441455
 10
165.5634112569
 20
111.7526581219
 10
165.5373974141
 20
111.7211747351
 10
165.5128326393
 20
111.6858920967
 10
165.4900897416
 20
111.6471120951
 10
165.4699773324
 20
111.6050867349
 10
165.4527649486
 20
111.5599000175
 10
165.4381830532
 20
111.5114679413
 10
165.4262316462
 20
111.4597905065
  0
LWPOLYLINE
  5
57B
100
AcDbEntity
  8
0
100
AcDbPolyline
 62
7
  6
CONTINUOUS
 90
38
 70
0
 10
166.1931628427
 20
111.1129299924
 10
166.2290005424
 20
111.1318308493
 10
166.2616622308
 20
111.1520735601
 10
166.2911479078
 20
111.1736581246
 10
166.3173125808
 20
111.196545372
 10
166.3403012423
 20
111.2207744732
 10
166.3605488705
 20
111.2464629413
 10
166.3781660142
 20
111.273592629
 10
166.3930421245
 20
111.3021816836
 10
166.4052805326
 20
111.3324020597
 10
166.4150697898
 20
111.3645753964
 10
166.4222213447
 20
111.3983800545
 10
166.4262728752
 20
111.4330230706
 10
166.4271373539
 20
111.4685524285
 10
166.4249018081
 20
111.5049201445
 10
166.4193649977
 20
111.5411893038
 10
166.4103176438
 20
111.5775258518
 10
166.3979690253
 20
111.6137638432
 10
166.3827457383
 20
111.6484685277
 10
166.3646858324
 20
111.6813668748
 10
166.3437512581
 20
111.712731915
 10
166.3202544629
 20
111.7419479896
 10
166.2944006406
 20
111.7687824665
 10
166.2659845975
 20
111.7934679778
 10
166.2347032002
 20
111.8160867602
 10
166.2003404945
 20
111.836947144
 10
166.1631124347
 20
111.855740799
 10
166.1233637501
 20
111.8716249713
 10
166.0806456012
 20
111.8845528104
 10
166.0354068276
 20
111.8945711668
 10
165.9893386774
 20
111.9009778383
 10
165.9420670765
 20
111.9034410982
 10
165.8939660992
 20
111.9022926731
 10
165.8478492161
 20
111.8978255405
 10
165.8045515271
 20
111.889994003
 10
165.7632379324
 20
111.8788437578
 10
165.7242166041
 20
111.8648048746
 10
165.6876437908
 20
111.8480057315
  0
LINE
  5
57C
100
AcDbEntity
  8
0
100
AcDbLine
 62
7
  6
CONTINUOUS
 10
184.7516007634
 20
91.5298272283
 11
172.0516007634
 21
91.5298272283
  0
LINE
  5
57D
100
AcDbEntity
  8
0
100
AcDbLine
 62
7
  6
CONTINUOUS
 10
176.1140835611
 20
92.6753532283
 11
176.7549375611
 21
92.6753532283
  0
LINE
  5
57E
100
AcDbEntity
  8
0
100
AcDbLine
 62
7
  6
CONTINUOUS
 10
176.5947235611
 20
92.8355672283
 11
176.2742975611
 21
92.8355672283
  0
LINE
  5
57F
100
AcDbEntity
  8
0
100
AcDbLine
 62
7
  6
CONTINUOUS
 10
176.2742975611
 20
93.4764212283
 11
176.5947235611
 21
93.4764212283
  0
LINE
  5
580
100
AcDbEntity
  8
0
100
AcDbLine
 62
7
  6
CONTINUOUS
 10
176.7549375611
 20
93.5298272283
 11
178.5323015611
 21
93.5298272283
  0
LINE
  5
581
100
AcDbEntity
  8
0
100
AcDbLine
 62
7
  6
CONTINUOUS
 10
178.5323002553
 20
93.6366352283
 11
176.2119555611
 21
93.6366352283
  0
LWPOLYLINE
  5
582
100
AcDbEntity
  8
0
100
AcDbPolyline
 62
7
  6
CONTINUOUS
 90
10
 70
0
 10
131.838807868
 20
110.8770132213
 10
131.8270429495
 20
110.8877336108
 10
131.8145928794
 20
110.8981880143
 10
131.8014576577
 20
110.9083764316
 10
131.7875979647
 20
110.9182806262
 10
131.7730531201
 20
110.9279188348
 10
131.757941083
 20
110.9373457672
 10
131.7423011728
 20
110.9465796601
 10
131.72609407
 20
110.9556022768
 10
131.7093197746
 20
110.9644136175
  0
LINE
  5
583
100
AcDbEntity
  8
0
100
AcDbLine
 62
7
  6
CONTINUOUS
 10
145.8135318285
 20
111.8932452845
 11
146.4682290608
 21
110.1903872283
  0
LWPOLYLINE
  5
584
100
AcDbEntity
  8
0
100
AcDbPolyline
 62
7
  6
CONTINUOUS
 90
18
 70
0
 10
148.1996699958
 20
110.6755102193
 10
148.2227130781
 20
110.6138353304
 10
148.2483722347
 20
110.5563984972
 10
148.2765461957
 20
110.5032491603
 10
148.307336231
 20
110.4543378791
 10
148.340207282
 20
110.4096539985
 10
148.3748484755
 20
110.3694171118
 10
148.4115706846
 20
110.3334076258
 10
148.4507714707
 20
110.3009561058
 10
148.4922629825
 20
110.2719633217
 10
148.5362330712
 20
110.2465285037
 10
148.5836428515
 20
110.2242799077
 10
148.6348681611
 20
110.2050021129
 10
148.6895331622
 20
110.1889105401
 10
148.7474714564
 20
110.1762797079
 10
148.8086275775
 20
110.1672011223
 10
148.8730569916
 20
110.1615832772
 10
148.9407596988
 20
110.1594261727
  0
LWPOLYLINE
  5
585
100
AcDbEntity
  8
0
100
AcDbPolyline
 62
7
  6
CONTINUOUS
 90
10
 70
0
 10
146.586429412
 20
110.3813138163
 10
146.5778915684
 20
110.4115144775
 10
146.5690000923
 20
110.4418893885
 10
146.5597549839
 20
110.4724385492
 10
146.5501475072
 20
110.5031647179
 10
146.5401863981
 20
110.5340651364
 10
146.5298978641
 20
110.5651315299
 10
146.5192906411
 20
110.5963611399
 10
146.5083559932
 20
110.6277567248
 10
146.0549312127
 20
111.8932452845
  0
LINE
  5
586
100
AcDbEntity
  8
0
100
AcDbLine
 62
7
  6
CONTINUOUS
 10
154.2132175611
 20
119.4403872283
 11
154.2132175611
 21
141.8903872283
  0
LINE
  5
587
100
AcDbEntity
  8
0
100
AcDbLine
 62
7
  6
CONTINUOUS
 10
154.3834551604
 20
111.6971585992
 11
154.3834551604
 21
111.8932452845
  0
LINE
  5
588
100
AcDbEntity
  8
0
100
AcDbLine
 62
7
  6
CONTINUOUS
 10
154.4247365678
 20
110.1903872283
 11
154.4247365678
 21
110.3864739135
  0
LINE
  5
589
100
AcDbEntity
  8
DRAFT
100
AcDbLine
 62
7
  6
CONTINUOUS
 10
154.5521248339
 20
146.7903872283
 11
154.5521248339
 21
132.2017242952
  0
LINE
  5
58A
100
AcDbEntity
  8
DRAFT
100
AcDbLine
 62
7
  6
CONTINUOUS
 10
154.5521248339
 20
127.5790501613
 11
154.5521248339
 21
117.4903872283
  0
LINE
  5
58B
100
AcDbEntity
  8
DRAFT
100
AcDbLine
 62
7
  6
CONTINUOUS
 10
154.6009990157
 20
144.5903872283
 11
154.6009990157
 21
139.7903872283
  0
LINE
  5
58C
100
AcDbEntity
  8
DRAFT
100
AcDbLine
 62
7
  6
CONTINUOUS
 10
154.6132175611
 20
132.1853545483
 11
154.6132175611
 21
127.5954199082
  0
LINE
  5
58D
100
AcDbEntity
  8
DRAFT
100
AcDbLine
 62
7
  6
CONTINUOUS
 10
154.6271816131
 20
146.7903872283
 11
154.6271816131
 21
144.5903872283
  0
LINE
  5
58E
100
AcDbEntity
  8
DRAFT
100
AcDbLine
 62
7
  6
CONTINUOUS
 10
154.6271816131
 20
139.7903872283
 11
154.6271816131
 21
117.4903872283
  0
LINE
  5
58F
100
AcDbEntity
  8
0
100
AcDbLine
 62
7
  6
CONTINUOUS
 10
154.7132175611
 20
139.7903872283
 11
154.7132175611
 21
119.4403872283
  0
LINE
  5
590
100
AcDbEntity
  8
DRAFT
100
AcDbLine
 62
7
  6
CONTINUOUS
 10
155.3632175611
 20
82.2403872283
 11
155.3632175611
 21
80.1727475014
  0
LINE
  5
591
100
AcDbEntity
  8
0
100
AcDbLine
 62
7
  6
CONTINUOUS
 10
156.9738634762
 20
111.4752711131
 11
156.9738634762
 21
111.2727342669
  0
LINE
  5
592
100
AcDbEntity
  8
DRAFT
100
AcDbLine
 62
7
  6
CONTINUOUS
 10
157.1132175611
 20
80.1727475014
 11
157.1132175611
 21
82.2403872283
  0
LINE
  5
593
100
AcDbEntity
  8
0
100
AcDbLine
 62
7
  6
CONTINUOUS
 10
157.3969979023
 20
111.5252602928
 11
157.3969979023
 21
110.1903872283
  0
LINE
  5
594
100
AcDbEntity
  8
0
100
AcDbLine
 62
7
  6
CONTINUOUS
 10
157.6034049394
 20
110.1903872283
 11
157.6034049394
 21
111.9035656363
  0
LINE
  5
595
100
AcDbEntity
  8
0
100
AcDbLine
 62
7
  6
CONTINUOUS
 10
158.0678207729
 20
110.7889676359
 11
158.0678207729
 21
110.5928809506
  0
LWPOLYLINE
  5
596
100
AcDbEntity
  8
0
100
AcDbPolyline
 62
7
  6
CONTINUOUS
 90
34
 70
0
 10
160.3486185331
 20
111.428829451
 10
160.3552300373
 20
111.4634405755
 10
160.3635206166
 20
111.4960186953
 10
160.373490271
 20
111.5265638102
 10
160.3852190908
 20
111.5551679608
 10
160.3986269856
 20
111.5817391067
 10
160.4134736844
 20
111.6060011263
 10
160.4296297863
 20
111.627775252
 10
160.4472246922
 20
111.6472402514
 10
160.4664063324
 20
111.6646563069
 10
160.4872242279
 20
111.6801430727
 10
160.5096288578
 20
111.6935808945
 10
160.5336195901
 20
111.7048709914
 10
160.5594641422
 20
111.7140563436
 10
160.5868947966
 20
111.7210939708
 10
160.6151077684
 20
111.7257561513
 10
160.6445006789
 20
111.7279256928
 10
160.6746759069
 20
111.7277197876
 10
160.7036368033
 20
111.7252622904
 10
160.7307973189
 20
111.7205551662
 10
160.756743503
 20
111.71359645
 10
160.7812368543
 20
111.7045041019
 10
160.8042599267
 20
111.6931898178
 10
160.8258301665
 20
111.6797419017
 10
160.8457614105
 20
111.6645432254
 10
160.8641484396
 20
111.6475624862
 10
160.8808964731
 20
111.6288309869
 10
160.8955350055
 20
111.6088255079
 10
160.90795339
 20
111.5877160676
 10
160.9182622735
 20
111.5653326476
 10
160.9263230916
 20
111.5416419733
 10
160.9320896561
 20
111.5166329531
 10
160.9356081552
 20
111.4903166786
 10
160.9368785889
 20
111.4626931498
  0
LWPOLYLINE
  5
597
100
AcDbEntity
  8
0
100
AcDbPolyline
 62
7
  6
CONTINUOUS
 90
22
 70
0
 10
163.5705840366
 20
110.4716168557
 10
163.5503032227
 20
110.4463793524
 10
163.5293649958
 20
110.4237812974
 10
163.507769356
 20
110.4038226907
 10
163.4855775524
 20
110.3865691837
 10
163.4627283358
 20
110.371955125
 10
163.4390379583
 20
110.3597835601
 10
163.4144204942
 20
110.3499892122
 10
163.3889618692
 20
110.3426373581
 10
163.3627361123
 20
110.3377268742
 10
163.3352647546
 20
110.3352565515
 10
163.307026265
 20
110.3352275989
 10
163.2795300789
 20
110.33764252
 10
163.2532431139
 20
110.3425037275
 10
163.2276984524
 20
110.3498088086
 10
163.2030047772
 20
110.3595530277
 10
163.1792633168
 20
110.3716673363
 10
163.1563728427
 20
110.386220783
 10
163.134138352
 20
110.403415777
 10
163.1124948437
 20
110.4233197882
 10
163.0915073188
 20
110.4458653468
 10
163.0711757773
 20
110.4710524528
  0
LINE
  5
598
100
AcDbEntity
  8
RACCORDO
100
AcDbLine
 62
7
  6
CONTINUOUS
 10
151.8632175611
 20
96.6903872283
 11
151.9092239201
 21
96.7363935872
  0
LWPOLYLINE
  5
599
100
AcDbEntity
  8
0
100
AcDbPolyline
 62
7
  6
CONTINUOUS
 90
42
 70
0
 10
173.0710323228
 20
111.5640422018
 10
173.1098867656
 20
111.5979054903
 10
173.1500712887
 20
111.6278250937
 10
173.1915858922
 20
111.6538010118
 10
173.2343336793
 20
111.6757892425
 10
173.2784115467
 20
111.693833788
 10
173.324110185
 20
111.7080666554
 10
173.3720401079
 20
111.7185511864
 10
173.4215908017
 20
111.7252240392
 10
173.4712214162
 20
111.7280271964
 10
173.5210911519
 20
111.7268819351
 10
173.5710408083
 20
111.7218669782
 10
173.6190519334
 20
111.713160477
 10
173.6645005541
 20
111.7006799477
 10
173.7080106434
 20
111.6845078741
 10
173.7494356688
 20
111.6650698582
 10
173.7888708085
 20
111.6424152372
 10
173.8262208843
 20
111.6164946739
 10
173.8610538286
 20
111.5875857592
 10
173.8932363884
 20
111.5559112807
 10
173.9229018168
 20
111.5212484507
 10
173.9500178056
 20
111.4832064968
 10
173.9747031071
 20
111.4417546588
 10
173.996838969
 20
111.3969236969
 10
174.0160368265
 20
111.3484151193
 10
174.0323655904
 20
111.2957328583
 10
174.0457563499
 20
111.2393729816
 10
174.0556138076
 20
111.1805252011
 10
174.0617123311
 20
111.1183522341
 10
174.0642775528
 20
111.0536913633
 10
174.063391073
 20
110.9902441485
 10
174.0590286539
 20
110.9285427074
 10
174.0512145332
 20
110.8680549223
 10
174.0401030242
 20
110.8108860008
 10
174.0256474685
 20
110.757714302
 10
174.0078945245
 20
110.7078614669
 10
173.9871384801
 20
110.6613976255
 10
173.9633131474
 20
110.6184560667
 10
173.9364847143
 20
110.5789035017
 10
173.9071460324
 20
110.5424101938
 10
173.8752567617
 20
110.5087805677
 10
173.8408572422
 20
110.4782101986
  0
LWPOLYLINE
  5
59A
100
AcDbEntity
  8
0
100
AcDbPolyline
 62
7
  6
CONTINUOUS
 90
29
 70
0
 10
173.8408572422
 20
110.4782101986
 10
173.8045613465
 20
110.4509560758
 10
173.7666628898
 20
110.4270660897
 10
173.7268680569
 20
110.4064923499
 10
173.6849092737
 20
110.3893481748
 10
173.6404166714
 20
110.3755878713
 10
173.5937601189
 20
110.3652571325
 10
173.5457816487
 20
110.3586063562
 10
173.4957850849
 20
110.3557107733
 10
173.4444666035
 20
110.3564951529
 10
173.3947567642
 20
110.3609842006
 10
173.3475150224
 20
110.3692372303
 10
173.3018819229
 20
110.381194928
 10
173.2582096597
 20
110.3967040581
 10
173.2166100862
 20
110.4157878276
 10
173.1769713491
 20
110.4384230295
 10
173.1393100824
 20
110.4643868066
 10
173.1033428381
 20
110.4938215581
 10
173.0693530643
 20
110.5265848848
 10
173.0382077384
 20
110.5620267322
 10
173.010121324
 20
110.5997346072
 10
172.9848793575
 20
110.6401210028
 10
172.9627054264
 20
110.6837733437
 10
172.9435396661
 20
110.730854445
 10
172.9274419411
 20
110.7812014915
 10
172.9148154329
 20
110.8349134616
 10
172.9057945352
 20
110.8920233483
 10
172.9002448541
 20
110.9524981586
 10
172.8981663898
 20
111.0163378926
  0
LINE
  5
59B
100
AcDbEntity
  8
RACCORDO
100
AcDbLine
 62
7
  6
CONTINUOUS
 10
162.3632175611
 20
96.6903872283
 11
162.7162271573
 21
96.7363935872
  0
LINE
  5
59C
100
AcDbEntity
  8
DRAFT
100
AcDbLine
 62
7
  6
CONTINUOUS
 10
151.8632175611
 20
96.6903872283
 11
153.3632175611
 21
96.6903872283
  0
LINE
  5
59D
100
AcDbEntity
  8
DRAFT
100
AcDbLine
 62
7
  6
CONTINUOUS
 10
162.3632175611
 20
96.6903872283
 11
163.8632175611
 21
96.6903872283
  0
LINE
  5
59E
100
AcDbEntity
  8
RACCORDO
100
AcDbLine
 62
250
  6
CONTINUOUS
 10
151.9092239201
 20
96.7363935872
 11
153.010207965
 21
96.7363935872
  0
LINE
  5
59F
100
AcDbEntity
  8
RACCORDO
100
AcDbLine
 62
250
  6
CONTINUOUS
 10
162.7162271573
 20
96.7363935872
 11
163.8172112022
 21
96.7363935872
  0
LINE
  5
5A0
100
AcDbEntity
  8
RACCORDO
100
AcDbLine
 62
250
  6
CONTINUOUS
 10
151.9260749462
 20
97.2360890007
 11
152.8809090148
 21
97.2360890007
  0
LINE
  5
5A1
100
AcDbEntity
  8
RACCORDO
100
AcDbLine
 62
250
  6
CONTINUOUS
 10
162.8455261075
 20
97.2360890007
 11
163.8003601761
 21
97.2360890007
  0
LINE
  5
5A2
100
AcDbEntity
  8
0
100
AcDbLine
 62
7
  6
CONTINUOUS
 10
177.1689575611
 20
98.6032572283
 11
179.0381175611
 21
98.6032572283
  0
LINE
  5
5A3
100
AcDbEntity
  8
0
100
AcDbLine
 62
7
  6
CONTINUOUS
 10
178.9313075611
 20
98.7100672283
 11
177.2757675611
 21
98.7100672283
  0
LINE
  5
5A4
100
AcDbEntity
  8
RACCORDO
100
AcDbLine
 62
7
  6
CONTINUOUS
 10
153.3632175611
 20
96.6903872283
 11
153.010207965
 21
96.7363935872
  0
LWPOLYLINE
  5
5A5
100
AcDbEntity
  8
0
100
AcDbPolyline
 62
7
  6
CONTINUOUS
 90
14
 70
0
 10
133.5824177338
 20
110.4037891554
 10
133.5483272649
 20
110.4201163839
 10
133.5172384499
 20
110.4379848046
 10
133.4889102491
 20
110.4575927467
 10
133.4633377746
 20
110.4787686827
 10
133.4407025368
 20
110.5012217729
 10
133.4208230254
 20
110.5252428569
 10
133.4031498219
 20
110.5515329262
 10
133.3875770648
 20
110.5803374011
 10
133.3742106155
 20
110.6114108612
 10
133.3628186404
 20
110.6447180362
 10
133.3533238615
 20
110.6802471694
 10
133.3458035568
 20
110.7180100174
 10
133.3402577263
 20
110.7580065803
  0
LINE
  5
5A6
100
AcDbEntity
  8
RACCORDO
100
AcDbLine
 62
7
  6
CONTINUOUS
 10
151.8632175611
 20
99.6903872283
 11
151.9092239201
 21
99.6443808693
  0
LWPOLYLINE
  5
5A7
100
AcDbEntity
  8
0
100
AcDbPolyline
 62
7
  6
CONTINUOUS
 90
44
 70
0
 10
149.6051322511
 20
111.4256044493
 10
149.5859142728
 20
111.4826132527
 10
149.5636617633
 20
111.5364032737
 10
149.5383747229
 20
111.5869745123
 10
149.5097568756
 20
111.6345431712
 10
149.4781044973
 20
111.6788930478
 10
149.4443064151
 20
111.7193755336
 10
149.4087539649
 20
111.755639014
 10
149.3710558108
 20
111.7880351037
 10
149.3309267725
 20
111.8169700388
 10
149.288514992
 20
111.8425540711
 10
149.2436723273
 20
111.8646769488
 10
149.1956691722
 20
111.8834141527
 10
149.1440087044
 20
111.8989793008
 10
149.0891877462
 20
111.9111587751
 10
149.0319671573
 20
111.9193872025
 10
148.9716991783
 20
111.9236057373
 10
148.9090315686
 20
111.9238732251
 10
148.846668466
 20
111.91980083
 10
148.784795159
 20
111.9111223695
 10
148.7232263592
 20
111.898104026
 10
148.6641103388
 20
111.8811555119
 10
148.6078870626
 20
111.8601646406
 10
148.5541165659
 20
111.8352435986
 10
148.5036272272
 20
111.8071386577
 10
148.4567459508
 20
111.7761213856
 10
148.4131458325
 20
111.7419202147
 10
148.3726745374
 20
111.7044667137
 10
148.3353894897
 20
111.6640010241
 10
148.3012332653
 20
111.6202830043
 10
148.2698812574
 20
111.5725237983
 10
148.2409500062
 20
111.5205319792
 10
148.2148229715
 20
111.4644989738
 10
148.192325926
 20
111.4042102058
 10
148.173450387
 20
111.3392090175
 10
148.1582048372
 20
111.2699520665
 10
148.1474404977
 20
111.1975947496
 10
148.1413885337
 20
111.1210173268
 10
148.1398177801
 20
111.041339538
 10
148.1428859629
 20
110.9630759991
 10
148.1510403221
 20
110.8868362022
 10
148.1638336178
 20
110.8120106552
 10
148.1800818563
 20
110.7412854973
 10
148.1996699958
 20
110.6755102193
  0
LINE
  5
5A8
100
AcDbEntity
  8
DRAFT
100
AcDbLine
 62
7
  6
CONTINUOUS
 10
162.1881607819
 20
115.7903872283
 11
162.2230709118
 21
113.7903872283
  0
LINE
  5
5A9
100
AcDbEntity
  8
DRAFT
100
AcDbLine
 62
7
  6
CONTINUOUS
 10
158.6132175611
 20
82.2403872283
 11
158.6132175611
 21
80.1727475014
  0
LINE
  5
5AA
100
AcDbEntity
  8
0
100
AcDbLine
 62
7
  6
CONTINUOUS
 10
158.8212064584
 20
111.5488036397
 11
158.8212064584
 21
110.7889676359
  0
LINE
  5
5AB
100
AcDbEntity
  8
0
100
AcDbLine
 62
7
  6
CONTINUOUS
 10
158.8212064584
 20
110.5928809506
 11
158.8212064584
 21
110.1903872283
  0
LINE
  5
5AC
100
AcDbEntity
  8
0
100
AcDbLine
 62
7
  6
CONTINUOUS
 10
159.0276134955
 20
110.1903872283
 11
159.0276134955
 21
110.5928809506
  0
LINE
  5
5AD
100
AcDbEntity
  8
0
100
AcDbLine
 62
7
  6
CONTINUOUS
 10
159.0276134955
 20
110.7889676359
 11
159.0276134955
 21
111.8932452845
  0
LINE
  5
5AE
100
AcDbEntity
  8
0
100
AcDbLine
 62
7
  6
CONTINUOUS
 10
159.2546612364
 20
110.5928809506
 11
159.2546612364
 21
110.7889676359
  0
LINE
  5
5AF
100
AcDbEntity
  8
DRAFT
100
AcDbLine
 62
7
  6
CONTINUOUS
 10
160.3632175611
 20
80.1727475014
 11
160.3632175611
 21
82.2403872283
  0
LINE
  5
5B0
100
AcDbEntity
  8
0
100
AcDbLine
 62
7
  6
CONTINUOUS
 10
161.0132175611
 20
119.4403872283
 11
161.0132175611
 21
139.7903872283
  0
LINE
  5
5B1
100
AcDbEntity
  8
DRAFT
100
AcDbLine
 62
7
  6
CONTINUOUS
 10
161.0992535092
 20
117.4903872283
 11
161.0992535092
 21
139.7903872283
  0
LINE
  5
5B2
100
AcDbEntity
  8
DRAFT
100
AcDbLine
 62
7
  6
CONTINUOUS
 10
161.0992535092
 20
144.5903872283
 11
161.0992535092
 21
146.7903872283
  0
LINE
  5
5B3
100
AcDbEntity
  8
DRAFT
100
AcDbLine
 62
7
  6
CONTINUOUS
 10
161.1132175611
 20
127.5954199082
 11
161.1132175611
 21
132.1853545483
  0
LINE
  5
5B4
100
AcDbEntity
  8
DRAFT
100
AcDbLine
 62
7
  6
CONTINUOUS
 10
161.1254361066
 20
144.5903872283
 11
161.1254361066
 21
139.7903872283
  0
LINE
  5
5B5
100
AcDbEntity
  8
DRAFT
100
AcDbLine
 62
7
  6
CONTINUOUS
 10
161.1743102884
 20
117.4903872283
 11
161.1743102884
 21
127.5790501613
  0
LINE
  5
5B6
100
AcDbEntity
  8
DRAFT
100
AcDbLine
 62
7
  6
CONTINUOUS
 10
161.1743102884
 20
132.2017242952
 11
161.1743102884
 21
146.7903872283
  0
LINE
  5
5B7
100
AcDbEntity
  8
0
100
AcDbLine
 62
7
  6
CONTINUOUS
 10
161.5132175611
 20
141.8903872283
 11
161.5132175611
 21
119.4403872283
  0
LINE
  5
5B8
100
AcDbEntity
  8
RACCORDO
100
AcDbLine
 62
7
  6
CONTINUOUS
 10
162.1881607819
 20
147.7154066015
 11
162.1881607819
 21
141.8903872283
  0
LINE
  5
5B9
100
AcDbEntity
  8
RACCORDO
100
AcDbLine
 62
7
  6
CONTINUOUS
 10
162.1881607819
 20
119.4403872283
 11
162.1881607819
 21
115.7903872283
  0
LINE
  5
5BA
100
AcDbEntity
  8
RACCORDO
100
AcDbLine
 62
7
  6
CONTINUOUS
 10
162.2422714832
 20
114.0903872283
 11
162.2422714832
 21
114.5903872283
  0
LINE
  5
5BB
100
AcDbEntity
  8
RACCORDO
100
AcDbLine
 62
7
  6
CONTINUOUS
 10
162.2632175611
 20
147.7904633807
 11
162.2632175611
 21
141.8903872283
  0
LINE
  5
5BC
100
AcDbEntity
  8
RACCORDO
100
AcDbLine
 62
7
  6
CONTINUOUS
 10
162.2632175611
 20
119.4403872283
 11
162.2632175611
 21
114.8903872283
  0
LINE
  5
5BD
100
AcDbEntity
  8
0
100
AcDbLine
 62
7
  6
CONTINUOUS
 10
162.3632175611
 20
152.1903872283
 11
162.3632175611
 21
141.8903872283
  0
LINE
  5
5BE
100
AcDbEntity
  8
DRAFT
100
AcDbLine
 62
7
  6
CONTINUOUS
 10
162.3632175611
 20
99.6903872283
 11
162.3632175611
 21
96.6903872283
  0
LINE
  5
5BF
100
AcDbEntity
  8
SMUSSO
100
AcDbLine
 62
7
  6
CONTINUOUS
 10
162.3632175611
 20
115.9403872283
 11
162.3632175611
 21
118.5714066765
  0
LINE
  5
5C0
100
AcDbEntity
  8
DRAFT
100
AcDbLine
 62
7
  6
CONTINUOUS
 10
162.3632175611
 20
118.5714066765
 11
162.3632175611
 21
119.4403872283
  0
LINE
  5
5C1
100
AcDbEntity
  8
DRAFT
100
AcDbLine
 62
7
  6
CONTINUOUS
 10
162.2408683621
 20
113.7903872283
 11
162.2422714832
 21
114.0903872283
  0
LWPOLYLINE
  5
5C2
100
AcDbEntity
  8
0
100
AcDbPolyline
 62
7
  6
CONTINUOUS
 90
16
 70
0
 10
161.6386625151
 20
111.0687459417
 10
161.6395370251
 20
111.1254807714
 10
161.6422509318
 20
111.1801854248
 10
161.6468042353
 20
111.2328599021
 10
161.6530855059
 20
111.283656109
 10
161.6612061733
 20
111.3324221397
 10
161.671500526
 20
111.3787022771
 10
161.684171054
 20
111.4224508506
 10
161.6990152673
 20
111.4637135306
 10
161.7157599842
 20
111.502171612
 10
161.7345485977
 20
111.5377581474
 10
161.7552377148
 20
111.570540084
 10
161.7771239755
 20
111.6003995585
 10
161.7999729265
 20
111.6272972831
 10
161.824019021
 20
111.6512725456
 10
161.8492622591
 20
111.6723253461
  0
LWPOLYLINE
  5
5C3
100
AcDbEntity
  8
0
100
AcDbPolyline
 62
7
  6
CONTINUOUS
 90
37
 70
0
 10
161.6696235706
 20
110.7422036154
 10
161.6708530842
 20
110.7781707049
 10
161.6745691826
 20
110.8124477636
 10
161.6807718659
 20
110.8450347913
 10
161.6894362177
 20
110.8758037982
 10
161.7005871544
 20
110.9048827742
 10
161.7142994249
 20
110.9326556887
 10
161.7308084266
 20
110.959510105
 10
161.7498787622
 20
110.9850584599
 10
161.7708789884
 20
111.008522032
 10
161.7938282623
 20
111.0298131364
 10
161.8187074269
 20
111.049019458
 10
161.8448275683
 20
111.0656253311
 10
161.8719557265
 20
111.0794909367
 10
161.9003248616
 20
111.0907560936
 10
161.9299449397
 20
111.0993245922
 10
161.9613965251
 20
111.1051291144
 10
161.9940990536
 20
111.1082369783
 10
162.0263207987
 20
111.108753928
 10
162.0578356542
 20
111.1066565089
 10
162.0888697263
 20
111.1019681757
 10
162.1183696078
 20
111.0948650364
 10
162.1459303741
 20
111.0853914909
 10
162.1719569497
 20
111.0735031393
 10
162.1966107009
 20
111.0592428903
 10
162.2200784872
 20
111.0425804579
 10
162.2421734491
 20
111.023546128
 10
162.262496375
 20
111.0022736666
 10
162.2810448333
 20
110.978855145
 10
162.2978212556
 20
110.9531984919
 10
162.3124337247
 20
110.9251612589
 10
162.3248780031
 20
110.8945870721
 10
162.3351583283
 20
110.8616323055
 10
162.3428954959
 20
110.8266236332
 10
162.3479631044
 20
110.7896699466
 10
162.3504875551
 20
110.7506623543
 10
162.3504688483
 20
110.7096008562
  0
LWPOLYLINE
  5
5C4
100
AcDbEntity
  8
0
100
AcDbPolyline
 62
7
  6
CONTINUOUS
 90
19
 70
0
 10
160.9368785889
 20
111.4626931498
 10
160.9358779812
 20
111.4347763669
 10
160.9328685705
 20
111.4084815535
 10
160.9278503566
 20
111.3838087095
 10
160.9208855809
 20
111.3609044033
 10
160.9119120021
 20
111.3396220665
 10
160.9007428961
 20
111.3195219942
 10
160.8873729143
 20
111.3005196415
 10
160.8718074054
 20
111.2826995533
 10
160.8538756903
 20
111.265875659
 10
160.8334322101
 20
111.2497917711
 10
160.8106225238
 20
111.2347040771
 10
160.7857126299
 20
111.2211950697
 10
160.7587285599
 20
111.209300992
 10
160.7296442821
 20
111.1989856009
 10
160.6986477008
 20
111.1907226593
 10
160.6658014507
 20
111.1846700882
 10
160.6310428969
 20
111.1806699666
 10
160.5943720396
 20
111.1787222945
  0
LWPOLYLINE
  5
5C5
100
AcDbEntity
  8
0
100
AcDbPolyline
 62
7
  6
CONTINUOUS
 90
37
 70
0
 10
162.3504688483
 20
110.7096008562
 10
162.3479869439
 20
110.6703418699
 10
162.3431679837
 20
110.6331000654
 10
162.3360119676
 20
110.5978754428
 10
162.3264456333
 20
110.5646325281
 10
162.3145422431
 20
110.5334067951
 10
162.3005215839
 20
110.504304666
 10
162.2842405038
 20
110.4773146059
 10
162.2658421546
 20
110.4524481495
 10
162.2459757796
 20
110.4298463238
 10
162.2246698728
 20
110.4094675042
 10
162.2018959401
 20
110.3913533152
 10
162.1782177426
 20
110.3757696571
 10
162.153850093
 20
110.3628423381
 10
162.1285781785
 20
110.35244555
 10
162.1023213219
 20
110.3444677688
 10
162.0749095647
 20
110.3388114361
 10
162.0465128653
 20
110.3355741103
 10
162.0175604222
 20
110.334936942
 10
161.9876981985
 20
110.3370033217
 10
161.9572802311
 20
110.3416698589
 10
161.9277978281
 20
110.348807533
 10
161.8995593564
 20
110.3584383047
 10
161.8722564492
 20
110.3705402133
 10
161.8464553148
 20
110.384918355
 10
161.8223729042
 20
110.4013994652
 10
161.7997922664
 20
110.4201568086
 10
161.7786287565
 20
110.441515276
 10
161.7587359421
 20
110.4656266119
 10
161.7402602555
 20
110.4923390718
 10
161.7235563494
 20
110.5215223126
 10
161.708432294
 20
110.5533567331
 10
161.6950800191
 20
110.5876619345
 10
161.6844299652
 20
110.6237663773
 10
161.6767922793
 20
110.6614462152
 10
161.6718568144
 20
110.7009252946
 10
161.6696235706
 20
110.7422036154
  0
LINE
  5
5C6
100
AcDbEntity
  8
0
100
AcDbLine
 62
7
  6
CONTINUOUS
 10
160.5603470828
 20
111.1811410064
 11
160.5364812199
 21
110.995374673
  0
LINE
  5
5C7
100
AcDbEntity
  8
RACCORDO
100
AcDbLine
 62
7
  6
CONTINUOUS
 10
163.8632175611
 20
99.6903872283
 11
163.8172112022
 21
99.6443808693
  0
LINE
  5
5C8
100
AcDbEntity
  8
RACCORDO
100
AcDbLine
 62
7
  6
CONTINUOUS
 10
153.3632175611
 20
99.6903872283
 11
153.010207965
 21
99.6443808693
  0
LINE
  5
5C9
100
AcDbEntity
  8
0
100
AcDbLine
 62
7
  6
CONTINUOUS
 10
177.2757675611
 20
99.0304952283
 11
178.9313075611
 21
99.0304952283
  0
LINE
  5
5CA
100
AcDbEntity
  8
0
100
AcDbLine
 62
7
  6
CONTINUOUS
 10
179.0381175611
 20
99.1373032283
 11
177.1689575611
 21
99.1373032283
  0
LINE
  5
5CB
100
AcDbEntity
  8
0
100
AcDbLine
 62
7
  6
CONTINUOUS
 10
180.0584895611
 20
99.1373032283
 11
181.0140855611
 21
99.1373032283
  0
LINE
  5
5CC
100
AcDbEntity
  8
RACCORDO
100
AcDbLine
 62
250
  6
CONTINUOUS
 10
163.8003601761
 20
99.1446854558
 11
162.8455261075
 21
99.1446854558
  0
LINE
  5
5CD
100
AcDbEntity
  8
RACCORDO
100
AcDbLine
 62
250
  6
CONTINUOUS
 10
152.8809090148
 20
99.1446854558
 11
151.9260749462
 21
99.1446854558
  0
LINE
  5
5CE
100
AcDbEntity
  8
0
100
AcDbLine
 62
7
  6
CONTINUOUS
 10
180.9072755611
 20
99.2441132283
 11
180.0679935611
 21
99.2441132283
  0
LINE
  5
5CF
100
AcDbEntity
  8
RACCORDO
100
AcDbLine
 62
250
  6
CONTINUOUS
 10
163.8172112022
 20
99.6443808693
 11
162.7162271573
 21
99.6443808693
  0
LINE
  5
5D0
100
AcDbEntity
  8
RACCORDO
100
AcDbLine
 62
250
  6
CONTINUOUS
 10
153.010207965
 20
99.6443808693
 11
151.9092239201
 21
99.6443808693
  0
LINE
  5
5D1
100
AcDbEntity
  8
DRAFT
100
AcDbLine
 62
7
  6
CONTINUOUS
 10
163.8632175611
 20
99.6903872283
 11
162.3632175611
 21
99.6903872283
  0
LINE
  5
5D2
100
AcDbEntity
  8
DRAFT
100
AcDbLine
 62
7
  6
CONTINUOUS
 10
153.3632175611
 20
99.6903872283
 11
151.8632175611
 21
99.6903872283
  0
LINE
  5
5D3
100
AcDbEntity
  8
0
100
AcDbLine
 62
7
  6
CONTINUOUS
 10
179.8391855611
 20
100.2053932283
 11
180.0447175611
 21
100.2053932283
  0
LINE
  5
5D4
100
AcDbEntity
  8
0
100
AcDbLine
 62
7
  6
CONTINUOUS
 10
180.1519355611
 20
100.2053932283
 11
180.7271735611
 21
100.2053932283
  0
LINE
  5
5D5
100
AcDbEntity
  8
0
100
AcDbLine
 62
7
  6
CONTINUOUS
 10
180.8339835611
 20
100.3122032283
 11
180.1612795611
 21
100.3122032283
  0
LINE
  5
5D6
100
AcDbEntity
  8
0
100
AcDbLine
 62
7
  6
CONTINUOUS
 10
180.0540615611
 20
100.3122032283
 11
179.7323755611
 21
100.3122032283
  0
LINE
  5
5D7
100
AcDbEntity
  8
0
100
AcDbLine
 62
7
  6
CONTINUOUS
 10
174.6055415611
 20
100.7394392283
 11
175.4833235611
 21
100.7394392283
  0
LINE
  5
5D8
100
AcDbEntity
  8
0
100
AcDbLine
 62
7
  6
CONTINUOUS
 10
175.5905415611
 20
100.7394392283
 11
180.0914415611
 21
100.7394392283
  0
LINE
  5
5D9
100
AcDbEntity
  8
0
100
AcDbLine
 62
7
  6
CONTINUOUS
 10
180.1986575611
 20
100.7394392283
 11
180.5334435611
 21
100.7394392283
  0
LINE
  5
5DA
100
AcDbEntity
  8
0
100
AcDbLine
 62
7
  6
CONTINUOUS
 10
179.7977993917
 20
101.1666752283
 11
176.2610815611
 21
101.1666752283
  0
LINE
  5
5DB
100
AcDbEntity
  8
0
100
AcDbLine
 62
7
  6
CONTINUOUS
 10
175.7270355611
 20
101.1666752283
 11
175.5531635611
 21
101.1666752283
  0
LINE
  5
5DC
100
AcDbEntity
  8
0
100
AcDbLine
 62
7
  6
CONTINUOUS
 10
175.4459455611
 20
101.1666752283
 11
174.6055415611
 21
101.1666752283
  0
LINE
  5
5DD
100
AcDbEntity
  8
0
100
AcDbLine
 62
7
  6
CONTINUOUS
 10
176.1542715611
 20
101.2734852283
 11
175.8338455611
 21
101.2734852283
  0
LINE
  5
5DE
100
AcDbEntity
  8
0
100
AcDbLine
 62
7
  6
CONTINUOUS
 10
177.3825775611
 20
101.5939132283
 11
178.8244995611
 21
101.5939132283
  0
LINE
  5
5DF
100
AcDbEntity
  8
0
100
AcDbLine
 62
7
  6
CONTINUOUS
 10
178.7176895611
 20
101.7007212283
 11
177.4893855611
 21
101.7007212283
  0
LINE
  5
5E0
100
AcDbEntity
  8
0
100
AcDbLine
 62
7
  6
CONTINUOUS
 10
175.8338455611
 20
101.9677432283
 11
176.1542715611
 21
101.9677432283
  0
LINE
  5
5E1
100
AcDbEntity
  8
0
100
AcDbLine
 62
7
  6
CONTINUOUS
 10
176.2610815611
 20
102.0745532283
 11
175.7270355611
 21
102.0745532283
  0
LINE
  5
5E2
100
AcDbEntity
  8
0
100
AcDbLine
 62
7
  6
CONTINUOUS
 10
177.4893855611
 20
102.1279572283
 11
178.7176895611
 21
102.1279572283
  0
LINE
  5
5E3
100
AcDbEntity
  8
0
100
AcDbLine
 62
7
  6
CONTINUOUS
 10
178.8244995611
 20
102.2347672283
 11
177.3825775611
 21
102.2347672283
  0
LINE
  5
5E4
100
AcDbEntity
  8
RACCORDO
100
AcDbLine
 62
7
  6
CONTINUOUS
 10
162.3632175611
 20
99.6903872283
 11
162.7162271573
 21
99.6443808693
  0
LWPOLYLINE
  5
5E5
100
AcDbEntity
  8
0
100
AcDbPolyline
 62
7
  6
CONTINUOUS
 90
10
 70
0
 10
134.1763674846
 20
111.0861616437
 10
134.1409449769
 20
111.1003966093
 10
134.1040825039
 20
111.1140240619
 10
134.0657800656
 20
111.1270440016
 10
134.0259721284
 20
111.1393480696
 10
133.9847242259
 20
111.1510446247
 10
133.9422329591
 20
111.1624587426
 10
133.8985638617
 20
111.173698782
 10
133.8536514
 20
111.1846563842
 10
133.8074955741
 20
111.1953315493
  0
LWPOLYLINE
  5
5E6
100
AcDbEntity
  8
0
100
AcDbPolyline
 62
7
  6
CONTINUOUS
 90
39
 70
0
 10
134.0510720982
 20
110.8900749585
 10
134.0767480896
 20
110.8793484996
 10
134.10056793
 20
110.8677339987
 10
134.1225316193
 20
110.8552314558
 10
134.1426450657
 20
110.8419865412
 10
134.160902361
 20
110.8278535845
 10
134.1772857802
 20
110.8123955748
 10
134.1918097675
 20
110.7955548222
 10
134.2044598786
 20
110.7773890166
 10
134.2151750562
 20
110.7576342155
 10
134.2240813074
 20
110.7359875926
 10
134.231052625
 20
110.7127519743
 10
134.2356499302
 20
110.688571897
 10
134.2377750404
 20
110.6632402155
 10
134.2375261383
 20
110.636964075
 10
134.2347586928
 20
110.6110094475
 10
134.2293620352
 20
110.5855011235
 10
134.2214468342
 20
110.5603143126
 10
134.211200566
 20
110.5363406155
 10
134.1987073523
 20
110.5138432173
 10
134.1838830714
 20
110.4925589329
 10
134.1666628338
 20
110.4725898076
 10
134.1470268004
 20
110.4539306093
 10
134.1249948103
 20
110.4365865702
 10
134.1005614908
 20
110.4206754318
 10
134.0735649954
 20
110.4060762295
 10
134.0441671706
 20
110.3929099279
 10
134.0128481833
 20
110.3816571627
 10
133.9797374018
 20
110.3724266129
 10
133.9447054579
 20
110.3651095994
 10
133.9078444136
 20
110.3598607219
 10
133.8688252855
 20
110.3565458736
 10
133.8279770571
 20
110.3552991612
 10
133.7863787413
 20
110.3566775035
 10
133.7434591858
 20
110.3609062129
 10
133.6997895429
 20
110.3677599769
 10
133.6581622824
 20
110.3771197779
 10
133.6192688169
 20
110.3892014482
 10
133.5824177338
 20
110.4037891554
  0
LWPOLYLINE
  5
5E7
100
AcDbEntity
  8
0
100
AcDbPolyline
 62
7
  6
CONTINUOUS
 90
10
 70
0
 10
133.4318509868
 20
111.0808401311
 10
133.4625443587
 20
111.0665766051
 10
133.4946220198
 20
111.05297933
 10
133.52808397
 20
111.0400483058
 10
133.5629994934
 20
111.0278800624
 10
133.5992993061
 20
111.0163780699
 10
133.6367755555
 20
111.0052527392
 10
133.6753589578
 20
110.9944075407
 10
133.7151187968
 20
110.9839390041
 10
133.7560550728
 20
110.9738471293
  0
LINE
  5
5E8
100
AcDbEntity
  8
RACCORDO
100
AcDbLine
 62
7
  6
CONTINUOUS
 10
163.8632175611
 20
96.6903872283
 11
163.8172112022
 21
96.7363935872
  0
LINE
  5
5E9
100
AcDbEntity
  8
0
100
AcDbLine
 62
7
  6
CONTINUOUS
 10
151.7414450853
 20
111.4963955906
 11
152.5940029979
 21
110.1903872283
  0
LINE
  5
5EA
100
AcDbEntity
  8
0
100
AcDbLine
 62
7
  6
CONTINUOUS
 10
152.6083546412
 20
110.5872370796
 11
151.7557968861
 21
111.8932452845
  0
LINE
  5
5EB
100
AcDbEntity
  8
0
100
AcDbLine
 62
7
  6
CONTINUOUS
 10
156.0490632581
 20
110.1903872283
 11
155.3669524879
 21
111.8932452845
  0
LINE
  5
5EC
100
AcDbEntity
  8
0
100
AcDbLine
 62
7
  6
CONTINUOUS
 10
155.4730399765
 20
111.0858967606
 11
155.5491713037
 21
110.8921711545
  0
LINE
  5
5ED
100
AcDbEntity
  8
0
100
AcDbLine
 62
7
  6
CONTINUOUS
 10
155.6177048337
 20
110.7064048211
 11
155.8076637165
 21
110.1903872283
  0
LWPOLYLINE
  5
5EE
100
AcDbEntity
  8
0
100
AcDbPolyline
 62
7
  6
CONTINUOUS
 90
6
 70
0
 10
155.2452046191
 20
111.7177993029
 10
155.2715325738
 20
111.6320722262
 10
155.3000641771
 20
111.5448225158
 10
155.330799429
 20
111.4560501719
 10
155.3641944872
 20
111.3657281443
 10
155.4730399765
 20
111.0858967606
  0
LWPOLYLINE
  5
5EF
100
AcDbEntity
  8
0
100
AcDbPolyline
 62
7
  6
CONTINUOUS
 90
39
 70
0
 10
160.1215707923
 20
110.6341623581
 10
160.1286882323
 20
110.584788171
 10
160.13907756
 20
110.5380874149
 10
160.1527387753
 20
110.4940600895
 10
160.169721652
 20
110.4528678836
 10
160.1899764162
 20
110.4143491085
 10
160.2133537471
 20
110.3780186986
 10
160.2400605945
 20
110.3434846986
 10
160.2698900084
 20
110.3111390639
 10
160.302071818
 20
110.2816725949
 10
160.3364103028
 20
110.2551898834
 10
160.3731011832
 20
110.2315863376
 10
160.4119614495
 20
110.2112389818
 10
160.4527266689
 20
110.1942057883
 10
160.4956612743
 20
110.1804287848
 10
160.5413755541
 20
110.1701110789
 10
160.5910433675
 20
110.1631933035
 10
160.6434908554
 20
110.1597348257
 10
160.6958067294
 20
110.1601168536
 10
160.7478916023
 20
110.164573603
 10
160.7998448612
 20
110.1728708581
 10
160.8490533795
 20
110.1846871798
 10
160.8944176659
 20
110.1999323629
 10
160.9370372116
 20
110.2186966127
 10
160.9775973635
 20
110.2409291051
 10
161.0166511015
 20
110.2670030737
 10
161.0536454456
 20
110.2965452851
 10
161.0876068029
 20
110.3283852148
 10
161.1184523497
 20
110.3624770833
 10
161.1462649098
 20
110.3988666701
 10
161.1703193609
 20
110.4365207894
 10
161.1903044335
 20
110.4750161794
 10
161.2065313971
 20
110.5147761019
 10
161.2192089382
 20
110.5560371559
 10
161.2283725723
 20
110.5995894419
 10
161.2339867839
 20
110.6446428593
 10
161.2361537125
 20
110.6890637059
 10
161.2347682279
 20
110.7327977936
 10
161.2299354603
 20
110.7758993105
  0
LWPOLYLINE
  5
5F0
100
AcDbEntity
  8
0
100
AcDbPolyline
 62
7
  6
CONTINUOUS
 90
49
 70
0
 10
162.7635808674
 20
111.0308509514
 10
162.7644183869
 20
110.9641179748
 10
162.7670178433
 20
110.8997033316
 10
162.7713792364
 20
110.8376070218
 10
162.7774871793
 20
110.7777911054
 10
162.785357059
 20
110.7202935223
 10
162.7950350363
 20
110.6652280926
 10
162.806486929
 20
110.6125192219
 10
162.8197469192
 20
110.5622425045
 10
162.834963714
 20
110.514738544
 10
162.8521435899
 20
110.4700135959
 10
162.8712802704
 20
110.4280614046
 10
162.8925036327
 20
110.3892038067
 10
162.9159075764
 20
110.3535626432
 10
162.9413982018
 20
110.3210160731
 10
162.9688236877
 20
110.2915204105
 10
162.9981328987
 20
110.265118193
 10
163.0293769701
 20
110.241766883
 10
163.0625574863
 20
110.2212951822
 10
163.0974507832
 20
110.2036110614
 10
163.1342805249
 20
110.1888065497
 10
163.1737192884
 20
110.1769864363
 10
163.2167403336
 20
110.1680789857
 10
163.2623704007
 20
110.1621559335
 10
163.3083622877
 20
110.159537275
 10
163.3549255597
 20
110.1603766611
 10
163.4018506517
 20
110.164520441
 10
163.4462616665
 20
110.1718276576
 10
163.4871188584
 20
110.1823658896
 10
163.5254619733
 20
110.1960675582
 10
163.5615343512
 20
110.2125889701
 10
163.5952106834
 20
110.2316944786
 10
163.6266162788
 20
110.2536197304
 10
163.6563704036
 20
110.2787279723
 10
163.6847034
 20
110.3070456524
 10
163.7113849259
 20
110.3385463228
 10
163.7363432209
 20
110.3735138862
 10
163.759713222
 20
110.4121696513
 10
163.7813599922
 20
110.4542923095
 10
163.8008069602
 20
110.4995018381
 10
163.8178943768
 20
110.5478012605
 10
163.8327819913
 20
110.5991875532
 10
163.8454724802
 20
110.6532716231
 10
163.8558668146
 20
110.7100199417
 10
163.8640640236
 20
110.7694660375
 10
163.870363871
 20
110.8313214024
 10
163.8748662782
 20
110.8954898671
 10
163.8774713238
 20
110.962067601
 10
163.878179008
 20
111.031054604
  0
LWPOLYLINE
  5
5F1
100
AcDbEntity
  8
0
100
AcDbPolyline
 62
7
  6
CONTINUOUS
 90
49
 70
0
 10
163.878179008
 20
111.031054604
 10
163.877810452
 20
111.0982956621
 10
163.8755552554
 20
111.1632127658
 10
163.8714134181
 20
111.2258059152
 10
163.8654982049
 20
111.2861944261
 10
163.8576963511
 20
111.3442589828
 10
163.8476680622
 20
111.3996416371
 10
163.8351257787
 20
111.4522309471
 10
163.8203570601
 20
111.5021383547
 10
163.8038847912
 20
111.5493402384
 10
163.7858682485
 20
111.5939990454
 10
163.7661481554
 20
111.6359523284
 10
163.7447695671
 20
111.6746891237
 10
163.7218088519
 20
111.7099880177
 10
163.6971896414
 20
111.7420704241
 10
163.6707278861
 20
111.7710896198
 10
163.6425294392
 20
111.7969420072
 10
163.6124884475
 20
111.8197311839
 10
163.5801033018
 20
111.8399212208
 10
163.5452642467
 20
111.8578141081
 10
163.5080810375
 20
111.8731078556
 10
163.4683813311
 20
111.8853605627
 10
163.4253891902
 20
111.8945306161
 10
163.3798805521
 20
111.9006596293
 10
163.3340108852
 20
111.9034305419
 10
163.2875546502
 20
111.9026759403
 10
163.2407373864
 20
111.8985632381
 10
163.1963911802
 20
111.891277616
 10
163.1555294168
 20
111.8807675738
 10
163.1171387109
 20
111.8670846117
 10
163.0810109931
 20
111.8505684112
 10
163.0472801805
 20
111.83145114
 10
163.0158123559
 20
111.8095006303
 10
162.9859976988
 20
111.7843600606
 10
162.9576109306
 20
111.7560027417
 10
162.9308773297
 20
111.7244553628
 10
162.9058629117
 20
111.6894411698
 10
162.8824256337
 20
111.6507453185
 10
162.8607075384
 20
111.6085826531
 10
162.8412007695
 20
111.5633209519
 10
162.8240734236
 20
111.5149507578
 10
162.809157404
 20
111.4634815279
 10
162.7964405634
 20
111.4093094117
 10
162.7860194866
 20
111.3524722906
 10
162.7777975888
 20
111.2929322831
 10
162.7714729682
 20
111.2309718948
 10
162.7669449907
 20
111.1666852944
 10
162.7643142905
 20
111.0999783133
 10
162.7635808674
 20
111.0308509514
  0
LINE
  5
5F2
100
AcDbEntity
  8
RACCORDO
100
AcDbLine
 62
7
  6
CONTINUOUS
 10
162.8455261075
 20
99.1446854558
 11
162.8455261075
 21
97.2360890007
  0
LINE
  5
5F3
100
AcDbEntity
  8
0
100
AcDbLine
 62
7
  6
CONTINUOUS
 10
163.3632175611
 20
144.7903872283
 11
163.3632175611
 21
151.6903872283
  0
LINE
  5
5F4
100
AcDbEntity
  8
RACCORDO
100
AcDbLine
 62
7
  6
CONTINUOUS
 10
163.8003601761
 20
99.1446854558
 11
163.8003601761
 21
97.2360890007
  0
LINE
  5
5F5
100
AcDbEntity
  8
DRAFT
100
AcDbLine
 62
7
  6
CONTINUOUS
 10
163.8632175611
 20
96.6903872283
 11
163.8632175611
 21
99.6903872283
  0
LINE
  5
5F6
100
AcDbEntity
  8
0
100
AcDbLine
 62
7
  6
CONTINUOUS
 10
164.8632175611
 20
151.6903872283
 11
164.8632175611
 21
145.3903872283
  0
LINE
  5
5F7
100
AcDbEntity
  8
0
100
AcDbLine
 62
7
  6
CONTINUOUS
 10
164.8632175611
 20
44.6903872283
 11
164.8632175611
 21
50.9903872283
  0
LINE
  5
5F8
100
AcDbEntity
  8
0
100
AcDbLine
 62
7
  6
CONTINUOUS
 10
167.0632175611
 20
151.6903872283
 11
167.0632175611
 21
145.3903872283
  0
LINE
  5
5F9
100
AcDbEntity
  8
0
100
AcDbLine
 62
7
  6
CONTINUOUS
 10
167.0632175611
 20
44.6903872283
 11
167.0632175611
 21
50.9903872283
  0
LWPOLYLINE
  5
5FA
100
AcDbEntity
  8
0
100
AcDbPolyline
 62
7
  6
CONTINUOUS
 90
37
 70
0
 10
162.9699879045
 20
111.0314959833
 10
162.9702591096
 20
111.0792407163
 10
162.9713593583
 20
111.1256115225
 10
162.9732886505
 20
111.1706084017
 10
162.9760334396
 20
111.2141860623
 10
162.9796072723
 20
111.2563897959
 10
162.9840507883
 20
111.2973554781
 10
162.9893013472
 20
111.3372040269
 10
162.9954215894
 20
111.3758145243
 10
163.002640076
 20
111.412960091
 10
163.010895067
 20
111.4488024961
 10
163.0202483022
 20
111.4831799705
 10
163.031113562
 20
111.5153803276
 10
163.0435522939
 20
111.5451426692
 10
163.0575030504
 20
111.5727278934
 10
163.0731952692
 20
111.5982065081
 10
163.0908966942
 20
111.6216880633
 10
163.1103395816
 20
111.6430630091
 10
163.1309501377
 20
111.6620732031
 10
163.1525599407
 20
111.6786431313
 10
163.1753374125
 20
111.6928483077
 10
163.1992140249
 20
111.7046571321
 10
163.2242887496
 20
111.7140582426
 10
163.250462615
 20
111.721063001
 10
163.2773701787
 20
111.7256738927
 10
163.3054064004
 20
111.7278928085
 10
163.3341763203
 20
111.7277178574
 10
163.3621296166
 20
111.725145852
 10
163.3887762324
 20
111.7201994447
 10
163.4146062245
 20
111.7128559831
 10
163.4395394418
 20
111.7030443211
 10
163.4634851701
 20
111.6908250449
 10
163.4865341235
 20
111.6761375684
 10
163.508878294
 20
111.6587289871
 10
163.530581679
 20
111.6385149997
 10
163.5515802811
 20
111.6155799074
 10
163.5718741003
 20
111.5899237104
  0
LWPOLYLINE
  5
5FB
100
AcDbEntity
  8
0
100
AcDbPolyline
 62
7
  6
CONTINUOUS
 90
16
 70
0
 10
164.2806725902
 20
111.0687459417
 10
164.2815471002
 20
111.1254807714
 10
164.2842610069
 20
111.1801854248
 10
164.2888143104
 20
111.2328599021
 10
164.295095581
 20
111.283656109
 10
164.3032162484
 20
111.3324221397
 10
164.3135106011
 20
111.3787022771
 10
164.3261811291
 20
111.4224508506
 10
164.3410253424
 20
111.4637135306
 10
164.3577700593
 20
111.502171612
 10
164.3765586728
 20
111.5377581474
 10
164.3972477899
 20
111.570540084
 10
164.4191340506
 20
111.6003995585
 10
164.4419830016
 20
111.6272972831
 10
164.4660290961
 20
111.6512725456
 10
164.4912723342
 20
111.6723253461
  0
LWPOLYLINE
  5
5FC
100
AcDbEntity
  8
0
100
AcDbPolyline
 62
7
  6
CONTINUOUS
 90
37
 70
0
 10
164.3116336457
 20
110.7422036154
 10
164.3128631593
 20
110.7781707049
 10
164.3165792577
 20
110.8124477636
 10
164.322781941
 20
110.8450347913
 10
164.3314462928
 20
110.8758037982
 10
164.3425972295
 20
110.9048827742
 10
164.3563095
 20
110.9326556887
 10
164.3728185017
 20
110.959510105
 10
164.3918888373
 20
110.9850584599
 10
164.4128890635
 20
111.008522032
 10
164.4358383374
 20
111.0298131364
 10
164.460717502
 20
111.049019458
 10
164.4868376434
 20
111.0656253311
 10
164.5139658016
 20
111.0794909367
 10
164.5423349367
 20
111.0907560936
 10
164.5719550148
 20
111.0993245922
 10
164.6034066002
 20
111.1051291144
 10
164.6361091287
 20
111.1082369783
 10
164.6683308738
 20
111.108753928
 10
164.6998457293
 20
111.1066565089
 10
164.7308798014
 20
111.1019681757
 10
164.7603796829
 20
111.0948650364
 10
164.7879404492
 20
111.0853914909
 10
164.8139670248
 20
111.0735031393
 10
164.838620776
 20
111.0592428903
 10
164.8620885623
 20
111.0425804579
 10
164.8841835242
 20
111.023546128
 10
164.9045064501
 20
111.0022736666
 10
164.9230549084
 20
110.978855145
 10
164.9398313307
 20
110.9531984919
 10
164.9544437998
 20
110.9251612589
 10
164.9668880782
 20
110.8945870721
 10
164.9771684035
 20
110.8616323055
 10
164.984905571
 20
110.8266236332
 10
164.9899731795
 20
110.7896699466
 10
164.9924976302
 20
110.7506623543
 10
164.9924789234
 20
110.7096008562
  0
LWPOLYLINE
  5
5FD
100
AcDbEntity
  8
0
100
AcDbPolyline
 62
7
  6
CONTINUOUS
 90
19
 70
0
 10
166.2208987391
 20
111.4626931498
 10
166.2198981314
 20
111.4347763669
 10
166.2168887207
 20
111.4084815535
 10
166.2118705068
 20
111.3838087095
 10
166.2049057311
 20
111.3609044033
 10
166.1959321523
 20
111.3396220665
 10
166.1847630463
 20
111.3195219942
 10
166.1713930645
 20
111.3005196415
 10
166.1558275556
 20
111.2826995533
 10
166.1378958405
 20
111.265875659
 10
166.1174523603
 20
111.2497917711
 10
166.094642674
 20
111.2347040771
 10
166.0697327801
 20
111.2211950697
 10
166.0427487101
 20
111.209300992
 10
166.0136644323
 20
111.1989856009
 10
165.982667851
 20
111.1907226593
 10
165.9498216009
 20
111.1846700882
 10
165.9150630471
 20
111.1806699666
 10
165.8783921898
 20
111.1787222945
  0
LWPOLYLINE
  5
5FE
100
AcDbEntity
  8
0
100
AcDbPolyline
 62
7
  6
CONTINUOUS
 90
37
 70
0
 10
164.9924789234
 20
110.7096008562
 10
164.989997019
 20
110.6703418699
 10
164.9851780588
 20
110.6331000654
 10
164.9780220427
 20
110.5978754428
 10
164.9684557084
 20
110.5646325281
 10
164.9565523182
 20
110.5334067951
 10
164.942531659
 20
110.504304666
 10
164.9262505789
 20
110.4773146059
 10
164.9078522297
 20
110.4524481495
 10
164.8879858547
 20
110.4298463238
 10
164.8666799479
 20
110.4094675042
 10
164.8439060152
 20
110.3913533152
 10
164.8202278177
 20
110.3757696571
 10
164.7958601681
 20
110.3628423381
 10
164.7705882536
 20
110.35244555
 10
164.744331397
 20
110.3444677688
 10
164.7169196398
 20
110.3388114361
 10
164.6885229404
 20
110.3355741103
 10
164.6595704973
 20
110.334936942
 10
164.6297082736
 20
110.3370033217
 10
164.5992903062
 20
110.3416698589
 10
164.5698079032
 20
110.348807533
 10
164.5415694315
 20
110.3584383047
 10
164.5142665243
 20
110.3705402133
 10
164.4884653899
 20
110.384918355
 10
164.4643829793
 20
110.4013994652
 10
164.4418023415
 20
110.4201568086
 10
164.4206388316
 20
110.441515276
 10
164.4007460172
 20
110.4656266119
 10
164.3822703306
 20
110.4923390718
 10
164.3655664245
 20
110.5215223126
 10
164.3504423692
 20
110.5533567331
 10
164.3370900942
 20
110.5876619345
 10
164.3264400403
 20
110.6237663773
 10
164.3188023544
 20
110.6614462152
 10
164.3138668895
 20
110.7009252946
 10
164.3116336457
 20
110.7422036154
  0
LINE
  5
5FF
100
AcDbEntity
  8
0
100
AcDbLine
 62
7
  6
CONTINUOUS
 10
165.844367233
 20
111.1811410064
 11
165.8205013702
 21
110.995374673
  0
LWPOLYLINE
  5
600
100
AcDbEntity
  8
0
100
AcDbPolyline
 62
7
  6
CONTINUOUS
 90
34
 70
0
 10
165.6326386833
 20
111.428829451
 10
165.6392501875
 20
111.4634405755
 10
165.6475407668
 20
111.4960186953
 10
165.6575104212
 20
111.5265638102
 10
165.669239241
 20
111.5551679608
 10
165.6826471358
 20
111.5817391067
 10
165.6974938346
 20
111.6060011263
 10
165.7136499365
 20
111.627775252
 10
165.7312448424
 20
111.6472402514
 10
165.7504264826
 20
111.6646563069
 10
165.7712443781
 20
111.6801430727
 10
165.793649008
 20
111.6935808945
 10
165.8176397403
 20
111.7048709914
 10
165.8434842924
 20
111.7140563436
 10
165.8709149468
 20
111.7210939708
 10
165.8991279186
 20
111.7257561513
 10
165.9285208291
 20
111.7279256928
 10
165.9586960571
 20
111.7277197876
 10
165.9876569535
 20
111.7252622904
 10
166.0148174691
 20
111.7205551662
 10
166.0407636532
 20
111.71359645
 10
166.0652570045
 20
111.7045041019
 10
166.0882800769
 20
111.6931898178
 10
166.1098503167
 20
111.6797419017
 10
166.1297815607
 20
111.6645432254
 10
166.1481685898
 20
111.6475624862
 10
166.1649166233
 20
111.6288309869
 10
166.1795551557
 20
111.6088255079
 10
166.1919735402
 20
111.5877160676
 10
166.2022824237
 20
111.5653326476
 10
166.2103432418
 20
111.5416419733
 10
166.2161098063
 20
111.5166329531
 10
166.2196283054
 20
111.4903166786
 10
166.2208987391
 20
111.4626931498
  0
LWPOLYLINE
  5
601
100
AcDbEntity
  8
0
100
AcDbPolyline
 62
7
  6
CONTINUOUS
 90
3
 70
0
 10
168.3096957883
 20
110.5285330119
 10
168.2995668688
 20
110.4984891124
 10
168.2798090131
 20
110.4387207046
  0
LINE
  5
602
100
AcDbEntity
  8
0
100
AcDbLine
 62
7
  6
CONTINUOUS
 10
168.3305004238
 20
110.5889365611
 11
168.3096957883
 21
110.5285330119
  0
LINE
  5
603
100
AcDbEntity
  8
0
100
AcDbLine
 62
7
  6
CONTINUOUS
 10
169.5027706292
 20
110.1903872283
 11
169.6822480597
 21
110.7064048211
  0
LINE
  5
604
100
AcDbEntity
  8
0
100
AcDbLine
 62
7
  6
CONTINUOUS
 10
168.3602754744
 20
110.1903872283
 11
168.8629088142
 21
111.6145957844
  0
LINE
  5
605
100
AcDbEntity
  8
0
100
AcDbLine
 62
7
  6
CONTINUOUS
 10
168.3733372116
 20
110.7110813018
 11
168.3305004238
 21
110.5889365611
  0
LINE
  5
606
100
AcDbEntity
  8
0
100
AcDbLine
 62
7
  6
CONTINUOUS
 10
168.7945365422
 20
111.8932452845
 11
168.3733372116
 21
110.7110813018
  0
LINE
  5
607
100
AcDbEntity
  8
0
100
AcDbLine
 62
7
  6
CONTINUOUS
 10
169.7469115562
 20
110.8921711545
 11
169.930904052
 21
111.3893218811
  0
LINE
  5
608
100
AcDbEntity
  8
0
100
AcDbLine
 62
7
  6
CONTINUOUS
 10
169.9104246063
 20
111.8932452845
 11
169.2631450826
 21
110.1903872283
  0
LWPOLYLINE
  5
609
100
AcDbEntity
  8
0
100
AcDbPolyline
 62
7
  6
CONTINUOUS
 90
10
 70
0
 10
169.930904052
 20
111.3893218811
 10
169.9451018047
 20
111.4243626087
 10
169.9586347237
 20
111.4598011109
 10
169.971502809
 20
111.4956373876
 10
169.9837238746
 20
111.531916217
 10
169.9952801066
 20
111.568592821
 10
170.0061180622
 20
111.605532865
 10
170.0162199273
 20
111.642691571
 10
170.0256035161
 20
111.6801137169
 10
170.0342688286
 20
111.7177993029
  0
LINE
  5
60A
100
AcDbEntity
  8
0
100
AcDbLine
 62
7
  6
CONTINUOUS
 10
173.0568095611
 20
102.1478472283
 11
172.9057575611
 21
101.9967952283
  0
LINE
  5
60B
100
AcDbEntity
  8
0
100
AcDbLine
 62
7
  6
CONTINUOUS
 10
179.4412694664
 20
111.3733576582
 11
179.6683172073
 21
111.4256044493
  0
LWPOLYLINE
  5
60C
100
AcDbEntity
  8
0
100
AcDbPolyline
 62
7
  6
CONTINUOUS
 90
16
 70
0
 10
133.8074955741
 20
111.1953315493
 10
133.7797048555
 20
111.2019961844
 10
133.7527102999
 20
111.2087742172
 10
133.7265119073
 20
111.2156656478
 10
133.7011512934
 20
111.2226640834
 10
133.6765868424
 20
111.2297759168
 10
133.6526937071
 20
111.237020326
 10
133.6293849997
 20
111.2443424099
 10
133.606747608
 20
111.2517970697
 10
133.5849173482
 20
111.2595681857
 10
133.5637230022
 20
111.2675438117
 10
133.5433357883
 20
111.275835894
 10
133.5244051768
 20
111.2849641527
 10
133.5071476579
 20
111.295101828
 10
133.4913467416
 20
111.3060756797
 10
133.4770024277
 20
111.3178857079
  0
LWPOLYLINE
  5
60D
100
AcDbEntity
  8
0
100
AcDbPolyline
 62
7
  6
CONTINUOUS
 90
3
 70
0
 10
133.7560550728
 20
110.9738471293
 10
133.8263376203
 20
110.956011511
 10
133.9274291709
 20
110.9300236952
  0
LWPOLYLINE
  5
60E
100
AcDbEntity
  8
0
100
AcDbPolyline
 62
7
  6
CONTINUOUS
 90
5
 70
0
 10
133.9274291709
 20
110.9300236952
 10
133.9596945714
 20
110.9209571213
 10
133.9910136546
 20
110.9111817866
 10
134.0214728302
 20
110.9008877323
 10
134.0510720982
 20
110.8900749585
  0
LWPOLYLINE
  5
60F
100
AcDbEntity
  8
0
100
AcDbPolyline
 62
7
  6
CONTINUOUS
 90
34
 70
0
 10
135.6373423827
 20
111.6820006661
 10
135.6599260066
 20
111.6743302168
 10
135.6817587455
 20
111.6642111803
 10
135.7028405995
 20
111.6516435567
 10
135.7235656281
 20
111.6364092119
 10
135.7435397718
 20
111.6187262799
 10
135.7615808518
 20
111.5992491631
 10
135.7773736871
 20
111.5782359375
 10
135.7912334587
 20
111.5554285271
 10
135.8029235312
 20
111.530707107
 10
135.8124496395
 20
111.5037818728
 10
135.8198060487
 20
111.4749426288
 10
135.8247389176
 20
111.4449389625
 10
135.8271482823
 20
111.4132505496
 10
135.8271341068
 20
111.3803977144
 10
135.824742441
 20
111.3486910173
 10
135.8198661619
 20
111.3185726675
 10
135.8126123926
 20
111.2896004559
 10
135.8033485529
 20
111.2627583147
 10
135.7920946617
 20
111.2384123501
 10
135.7788307001
 20
111.216196456
 10
135.7638640303
 20
111.1959962468
 10
135.7474899075
 20
111.177919417
 10
135.7294130766
 20
111.1618582722
 10
135.7090551347
 20
111.1473753429
 10
135.6860598733
 20
111.1342910266
 10
135.6607835009
 20
111.1227849258
 10
135.6337162395
 20
111.1129583795
 10
135.6048856222
 20
111.1048901517
 10
135.5742641161
 20
111.0985014783
 10
135.5422593439
 20
111.0936574057
 10
135.50900718
 20
111.0903129495
 10
135.4743717501
 20
111.0885130942
 10
135.4383530542
 20
111.0882578397
  0
LINE
  5
610
100
AcDbEntity
  8
0
100
AcDbLine
 62
7
  6
CONTINUOUS
 10
172.9057575611
 20
92.3839792283
 11
173.0568095611
 21
92.2329272283
  0
LWPOLYLINE
  5
611
100
AcDbEntity
  8
0
100
AcDbPolyline
 62
7
  6
CONTINUOUS
 90
14
 70
0
 10
161.2299354603
 20
110.7758993105
 10
161.2220729407
 20
110.8163971175
 10
161.211225538
 20
110.8535078718
 10
161.1973483832
 20
110.8880149162
 10
161.1807243995
 20
110.9202971413
 10
161.1615227462
 20
110.9503862178
 10
161.139574264
 20
110.978250475
 10
161.114654398
 20
111.0041737907
 10
161.0864343833
 20
111.0284949273
 10
161.0552429848
 20
111.0508751225
 10
161.0218419425
 20
111.0705819675
 10
160.9864851697
 20
111.087371326
 10
160.948918753
 20
111.1014873343
 10
160.9091426925
 20
111.1129299924
  0
LWPOLYLINE
  5
612
100
AcDbEntity
  8
0
100
AcDbPolyline
 62
7
  6
CONTINUOUS
 90
29
 70
0
 10
162.5490382125
 20
110.8510498021
 10
162.5396845055
 20
110.8998227624
 10
162.5271468412
 20
110.9448913932
 10
162.5112554751
 20
110.9871551685
 10
162.4920194837
 20
111.0273267057
 10
162.469207405
 20
111.0658133738
 10
162.443050701
 20
111.1022078039
 10
162.4142528343
 20
111.1360005065
 10
162.3825775513
 20
111.1673808688
 10
162.3482611055
 20
111.1961595036
 10
162.3127157197
 20
111.2212587599
 10
162.2764623617
 20
111.2422503063
 10
162.2389800636
 20
111.2595624742
 10
162.2001181444
 20
111.2734026066
 10
162.1595715655
 20
111.2838834454
 10
162.1176453656
 20
111.2908922488
 10
162.0751039791
 20
111.2942981335
 10
162.0314904759
 20
111.2939725633
 10
161.9872617861
 20
111.2900440745
 10
161.9445531356
 20
111.2827673928
 10
161.9040454694
 20
111.2722075171
 10
161.8650578425
 20
111.2582994485
 10
161.827682645
 20
111.2411029152
 10
161.7919067753
 20
111.2206466959
 10
161.7577433349
 20
111.1969020119
 10
161.7253240192
 20
111.1698422552
 10
161.6946927265
 20
111.1394585567
 10
161.6658055585
 20
111.1057597855
 10
161.6386625151
 20
111.0687459417
  0
LWPOLYLINE
  5
613
100
AcDbEntity
  8
0
100
AcDbPolyline
 62
7
  6
CONTINUOUS
 90
40
 70
0
 10
161.4524140539
 20
110.7086878974
 10
161.4633014075
 20
110.6508932497
 10
161.4766462054
 20
110.5959036483
 10
161.4924598817
 20
110.5438846963
 10
161.5109757393
 20
110.4952688695
 10
161.5322892229
 20
110.4502951997
 10
161.5563048879
 20
110.4087246551
 10
161.5829697038
 20
110.3702726162
 10
161.6124339115
 20
110.3348505052
 10
161.6445472701
 20
110.3025469
 10
161.6788060272
 20
110.2733429147
 10
161.7150812065
 20
110.2471108219
 10
161.7535017842
 20
110.2239783489
 10
161.7939509367
 20
110.2043097916
 10
161.8365828162
 20
110.1881637112
 10
161.8812432703
 20
110.1754815465
 10
161.9273530189
 20
110.1664519099
 10
161.9756997361
 20
110.1611321432
 10
162.0254957478
 20
110.1594649047
 10
162.0737987508
 20
110.1614667807
 10
162.1198632736
 20
110.1672760945
 10
162.1644347877
 20
110.1767545229
 10
162.2068074048
 20
110.1895036827
 10
162.2467343309
 20
110.2054947152
 10
162.2844623599
 20
110.2247564791
 10
162.3200259855
 20
110.2469771672
 10
162.3534311788
 20
110.2719661897
 10
162.3846719687
 20
110.2999141364
 10
162.4137649358
 20
110.3310809693
 10
162.4408434521
 20
110.3655252865
 10
162.4657741456
 20
110.40318849
 10
162.4881734809
 20
110.4441547481
 10
162.5083387125
 20
110.4889117343
 10
162.5259725859
 20
110.5369717751
 10
162.5397998022
 20
110.5869560192
 10
162.5494170471
 20
110.6393192675
 10
162.5552276349
 20
110.693606719
 10
162.5571662102
 20
110.7470751197
 10
162.5550382176
 20
110.7994719863
 10
162.5490382125
 20
110.8510498021
  0
LWPOLYLINE
  5
614
100
AcDbEntity
  8
0
100
AcDbPolyline
 62
7
  6
CONTINUOUS
 90
40
 70
0
 10
164.094424129
 20
110.7086878974
 10
164.1053114826
 20
110.6508932497
 10
164.1186562805
 20
110.5959036483
 10
164.1344699568
 20
110.5438846963
 10
164.1529858144
 20
110.4952688695
 10
164.174299298
 20
110.4502951997
 10
164.198314963
 20
110.4087246551
 10
164.2249797789
 20
110.3702726162
 10
164.2544439866
 20
110.3348505052
 10
164.2865573452
 20
110.3025469
 10
164.3208161023
 20
110.2733429147
 10
164.3570912816
 20
110.2471108219
 10
164.3955118593
 20
110.2239783489
 10
164.4359610118
 20
110.2043097916
 10
164.4785928913
 20
110.1881637112
 10
164.5232533454
 20
110.1754815465
 10
164.569363094
 20
110.1664519099
 10
164.6177098112
 20
110.1611321432
 10
164.6675058229
 20
110.1594649047
 10
164.7158088259
 20
110.1614667807
 10
164.7618733487
 20
110.1672760945
 10
164.8064448628
 20
110.1767545229
 10
164.8488174799
 20
110.1895036827
 10
164.888744406
 20
110.2054947152
 10
164.926472435
 20
110.2247564791
 10
164.9620360606
 20
110.2469771672
 10
164.9954412539
 20
110.2719661897
 10
165.0266820438
 20
110.2999141364
 10
165.0557750109
 20
110.3310809693
 10
165.0828535272
 20
110.3655252865
 10
165.1077842207
 20
110.40318849
 10
165.130183556
 20
110.4441547481
 10
165.1503487876
 20
110.4889117343
 10
165.167982661
 20
110.5369717751
 10
165.1818098773
 20
110.5869560192
 10
165.1914271222
 20
110.6393192675
 10
165.19723771
 20
110.693606719
 10
165.1991762853
 20
110.7470751197
 10
165.1970482927
 20
110.7994719863
 10
165.1910482876
 20
110.8510498021
  0
LWPOLYLINE
  5
615
100
AcDbEntity
  8
0
100
AcDbPolyline
 62
7
  6
CONTINUOUS
 90
45
 70
0
 10
162.5262127747
 20
111.4804312102
 10
162.5182166945
 20
111.5280375603
 10
162.5073487547
 20
111.5727425205
 10
162.4936089555
 20
111.6145460908
 10
162.4768431174
 20
111.6534098621
 10
162.4572054198
 20
111.6893722435
 10
162.4351584005
 20
111.7225484621
 10
162.4107873104
 20
111.752942347
 10
162.3840068986
 20
111.7805500691
 10
162.3550239503
 20
111.8054753689
 10
162.3239173069
 20
111.827818373
 10
162.2906081269
 20
111.8474789549
 10
162.2550666714
 20
111.8642604756
 10
162.2173639065
 20
111.8781822968
 10
162.1774288661
 20
111.8892250569
 10
162.1350189131
 20
111.8971340317
 10
162.0891419177
 20
111.9019537814
 10
162.0407900098
 20
111.9036397458
 10
161.9926969409
 20
111.901803521
 10
161.9450377401
 20
111.8962490275
 10
161.8976373783
 20
111.8871723447
 10
161.8527045213
 20
111.8747733063
 10
161.8111810982
 20
111.8591431008
 10
161.7721251798
 20
111.8401905396
 10
161.7349196437
 20
111.8178418908
 10
161.6993634229
 20
111.7922557561
 10
161.6656575844
 20
111.7632735338
 10
161.6337882067
 20
111.7303456862
 10
161.6035448121
 20
111.6933129965
 10
161.5751378783
 20
111.6523346814
 10
161.5491849168
 20
111.6073388541
 10
161.5258127776
 20
111.5580971378
 10
161.5048946107
 20
111.5048379092
 10
161.4866673781
 20
111.4481744118
 10
161.4712643663
 20
111.3881259386
 10
161.4585522889
 20
111.3246731966
 10
161.448368248
 20
111.2583715508
 10
161.4407386847
 20
111.1882428619
 10
161.4356371579
 20
111.1152652691
 10
161.4328214462
 20
111.0429285557
 10
161.4322161218
 20
110.9715979481
 10
161.4338966125
 20
110.9009082199
 10
161.4378469802
 20
110.8332534755
 10
161.4439955785
 20
110.7694531945
 10
161.4524140539
 20
110.7086878974
  0
LWPOLYLINE
  5
616
100
AcDbEntity
  8
0
100
AcDbPolyline
 62
7
  6
CONTINUOUS
 90
39
 70
0
 10
165.4055909425
 20
110.6341623581
 10
165.4127083825
 20
110.584788171
 10
165.4230977102
 20
110.5380874149
 10
165.4367589255
 20
110.4940600895
 10
165.4537418022
 20
110.4528678836
 10
165.4739965664
 20
110.4143491085
 10
165.4973738973
 20
110.3780186986
 10
165.5240807447
 20
110.3434846986
 10
165.5539101586
 20
110.3111390639
 10
165.5860919682
 20
110.2816725949
 10
165.620430453
 20
110.2551898834
 10
165.6571213334
 20
110.2315863376
 10
165.6959815997
 20
110.2112389818
 10
165.7367468191
 20
110.1942057883
 10
165.7796814245
 20
110.1804287848
 10
165.8253957043
 20
110.1701110789
 10
165.8750635177
 20
110.1631933035
 10
165.9275110056
 20
110.1597348257
 10
165.9798268796
 20
110.1601168536
 10
166.0319117525
 20
110.164573603
 10
166.0838650114
 20
110.1728708581
 10
166.1330735297
 20
110.1846871798
 10
166.1784378161
 20
110.1999323629
 10
166.2210573618
 20
110.2186966127
 10
166.2616175137
 20
110.2409291051
 10
166.3006712517
 20
110.2670030737
 10
166.3376655958
 20
110.2965452851
 10
166.3716269531
 20
110.3283852148
 10
166.4024725
 20
110.3624770833
 10
166.43028506
 20
110.3988666701
 10
166.4543395111
 20
110.4365207894
 10
166.4743245837
 20
110.4750161794
 10
166.4905515473
 20
110.5147761019
 10
166.5032290884
 20
110.5560371559
 10
166.5123927225
 20
110.5995894419
 10
166.5180069341
 20
110.6446428593
 10
166.5201738627
 20
110.6890637059
 10
166.5187883781
 20
110.7327977936
 10
166.5139556105
 20
110.7758993105
  0
LINE
  5
617
100
AcDbEntity
  8
0
100
AcDbLine
 62
7
  6
CONTINUOUS
 10
167.4490206099
 20
111.8932452845
 11
167.4490206099
 21
110.1903872283
  0
LINE
  5
618
100
AcDbEntity
  8
0
100
AcDbLine
 62
7
  6
CONTINUOUS
 10
167.6760683507
 20
110.1903872283
 11
167.6760683507
 21
111.6352364881
  0
LINE
  5
619
100
AcDbEntity
  8
0
100
AcDbLine
 62
7
  6
CONTINUOUS
 10
168.8629088142
 20
111.6145957844
 11
168.8629088142
 21
110.1903872283
  0
LINE
  5
61A
100
AcDbEntity
  8
0
100
AcDbLine
 62
7
  6
CONTINUOUS
 10
169.089956555
 20
110.1903872283
 11
169.089956555
 21
111.8932452845
  0
LINE
  5
61B
100
AcDbEntity
  8
0
100
AcDbLine
 62
7
  6
CONTINUOUS
 10
171.0405030558
 20
111.8932452845
 11
171.0405030558
 21
110.1903872283
  0
LINE
  5
61C
100
AcDbEntity
  8
0
100
AcDbLine
 62
7
  6
CONTINUOUS
 10
171.2675507966
 20
110.1903872283
 11
171.2675507966
 21
110.9437729137
  0
LINE
  5
61D
100
AcDbEntity
  8
0
100
AcDbLine
 62
7
  6
CONTINUOUS
 10
171.2675507966
 20
111.139859599
 11
171.2675507966
 21
111.6971585992
  0
LINE
  5
61E
100
AcDbEntity
  8
RACCORDO
100
AcDbLine
 62
250
  6
CONTINUOUS
 10
121.9632175611
 20
44.2902349234
 11
122.0679479507
 21
44.394965313
  0
LWPOLYLINE
  5
61F
100
AcDbEntity
  8
0
100
AcDbPolyline
 62
7
  6
CONTINUOUS
 90
10
 70
0
 10
165.8205013702
 20
110.995374673
 10
165.8382364431
 20
110.9998105942
 10
165.8557573017
 20
111.0038216409
 10
165.873063946
 20
111.0074078132
 10
165.890174336
 20
111.0106212214
 10
165.9070705117
 20
111.0134097552
 10
165.9236985928
 20
111.0156170835
 10
165.9400406192
 20
111.0171910959
 10
165.9561145511
 20
111.0181839027
 10
165.9719203883
 20
111.0185955041
  0
LWPOLYLINE
  5
620
100
AcDbEntity
  8
0
100
AcDbPolyline
 62
7
  6
CONTINUOUS
 90
10
 70
0
 10
160.5364812199
 20
110.995374673
 10
160.5542162929
 20
110.9998105942
 10
160.5717371515
 20
111.0038216409
 10
160.5890437958
 20
111.0074078132
 10
160.6061541858
 20
111.0106212214
 10
160.6230503615
 20
111.0134097552
 10
160.6396784426
 20
111.0156170835
 10
160.656020469
 20
111.0171910959
 10
160.6720944009
 20
111.0181839027
 10
160.6879002381
 20
111.0185955041
  0
LWPOLYLINE
  5
621
100
AcDbEntity
  8
0
100
AcDbPolyline
 62
7
  6
CONTINUOUS
 90
40
 70
0
 10
171.9174106051
 20
110.9644136175
 10
171.9695143527
 20
110.9732076298
 10
172.0187517918
 20
110.9843529143
 10
172.0651229222
 20
110.997849471
 10
172.1088305115
 20
111.0138536719
 10
172.1496717923
 20
111.0322091449
 10
172.1870384622
 20
111.0524467742
 10
172.2205642966
 20
111.074399748
 10
172.2506155202
 20
111.0982348782
 10
172.2776825048
 20
111.1239834844
 10
172.3018374155
 20
111.1516332566
 10
172.3230080872
 20
111.1811965048
 10
172.3414683962
 20
111.2127414795
 10
172.3574446591
 20
111.2462604952
 10
172.3707105593
 20
111.2817612374
 10
172.3808610234
 20
111.3193350124
 10
172.3878738686
 20
111.3596426308
 10
172.3917712777
 20
111.402023282
 10
172.3922147254
 20
111.4445858397
 10
172.3890213797
 20
111.4873258377
 10
172.3823740727
 20
111.5302477421
 10
172.3724827754
 20
111.5714738249
 10
172.3590821055
 20
111.6106931819
 10
172.3424374453
 20
111.6482167173
 10
172.3235549123
 20
111.6830994154
 10
172.302626438
 20
111.7151532857
 10
172.2794600909
 20
111.7445663187
 10
172.2544861938
 20
111.7709574706
 10
172.2280540676
 20
111.7940378263
 10
172.1998143914
 20
111.814096301
 10
172.1691495255
 20
111.8316185965
 10
172.1358010204
 20
111.8466446738
 10
172.1000273257
 20
111.8591345719
 10
172.0619861506
 20
111.8694541093
 10
172.0215197821
 20
111.8774763405
 10
171.9787859333
 20
111.8833282109
 10
171.9344154519
 20
111.8877563751
 10
171.8886186208
 20
111.8910097178
 10
171.8411851572
 20
111.8928393543
 10
171.7921150612
 20
111.8932452845
  0
LINE
  5
622
100
AcDbEntity
  8
0
100
AcDbLine
 62
7
  6
CONTINUOUS
 10
165.6119979796
 20
110.6651234136
 11
165.4055909425
 21
110.6341623581
  0
LINE
  5
623
100
AcDbEntity
  8
0
100
AcDbLine
 62
7
  6
CONTINUOUS
 10
160.3279778294
 20
110.6651234136
 11
160.1215707923
 21
110.6341623581
  0
LINE
  5
624
100
AcDbEntity
  8
0
100
AcDbLine
 62
7
  6
CONTINUOUS
 10
164.9618158127
 20
111.4597905065
 11
165.1682228498
 21
111.4804312102
  0
LINE
  5
625
100
AcDbEntity
  8
0
100
AcDbLine
 62
7
  6
CONTINUOUS
 10
162.3198057376
 20
111.4597905065
 11
162.5262127747
 21
111.4804312102
  0
LINE
  5
626
100
AcDbEntity
  8
0
100
AcDbLine
 62
7
  6
CONTINUOUS
 10
174.7351890202
 20
110.7580065803
 11
174.5184616312
 21
110.7476862285
  0
LINE
  5
627
100
AcDbEntity
  8
0
100
AcDbLine
 62
7
  6
CONTINUOUS
 10
175.5917782242
 20
111.4081887473
 11
175.818825965
 21
111.4185090991
  0
LWPOLYLINE
  5
628
100
AcDbEntity
  8
0
100
AcDbPolyline
 62
7
  6
CONTINUOUS
 90
34
 70
0
 10
175.2370162276
 20
110.1594261727
 10
175.2995416687
 20
110.1621545416
 10
175.3587966284
 20
110.1682885159
 10
175.4147811069
 20
110.1778280957
 10
175.4676138129
 20
110.1910965904
 10
175.5171760377
 20
110.2077706905
 10
175.5631116546
 20
110.2268804673
 10
175.6051863825
 20
110.2482334824
 10
175.6436345026
 20
110.272022174
 10
175.6788027316
 20
110.297853929
 10
175.7106723727
 20
110.3255726843
 10
175.7392621226
 20
110.3553345028
 10
175.7649747887
 20
110.3872149606
 10
175.7880627051
 20
110.4214904815
 10
175.8082735375
 20
110.4578846415
 10
175.8252530903
 20
110.4956437455
 10
175.8389782491
 20
110.5350246262
 10
175.8494721281
 20
110.5757704509
 10
175.8564498742
 20
110.6163570258
 10
175.8597248984
 20
110.656614787
 10
175.8594837897
 20
110.6967132985
 10
175.8560014621
 20
110.7356370583
 10
175.8492713692
 20
110.7732003915
 10
175.8393000574
 20
110.8095889731
 10
175.8263820807
 20
110.8443443255
 10
175.8106908493
 20
110.8772749161
 10
175.7920529529
 20
110.9085722776
 10
175.7702427145
 20
110.9383525307
 10
175.7452223888
 20
110.9666264333
 10
175.7170297212
 20
110.9933832276
 10
175.6855522705
 20
111.018706761
 10
175.6507525563
 20
111.0426249828
 10
175.6126680589
 20
111.0651099437
 10
175.5712987784
 20
111.0861616437
  0
LWPOLYLINE
  5
629
100
AcDbEntity
  8
0
100
AcDbPolyline
 62
7
  6
CONTINUOUS
 90
34
 70
0
 10
133.8420849337
 20
110.1594261727
 10
133.9046103748
 20
110.1621545416
 10
133.9638653346
 20
110.1682885159
 10
134.019849813
 20
110.1778280957
 10
134.0726825191
 20
110.1910965904
 10
134.1222447438
 20
110.2077706905
 10
134.1681803607
 20
110.2268804673
 10
134.2102550886
 20
110.2482334824
 10
134.2487032087
 20
110.272022174
 10
134.2838714377
 20
110.297853929
 10
134.3157410788
 20
110.3255726843
 10
134.3443308288
 20
110.3553345028
 10
134.3700434948
 20
110.3872149606
 10
134.3931314112
 20
110.4214904815
 10
134.4133422437
 20
110.4578846415
 10
134.4303217964
 20
110.4956437455
 10
134.4440469552
 20
110.5350246262
 10
134.4545408342
 20
110.5757704509
 10
134.4615185804
 20
110.6163570258
 10
134.4647936045
 20
110.656614787
 10
134.4645524958
 20
110.6967132985
 10
134.4610701682
 20
110.7356370583
 10
134.4543400753
 20
110.7732003915
 10
134.4443687636
 20
110.8095889731
 10
134.4314507868
 20
110.8443443255
 10
134.4157595554
 20
110.8772749161
 10
134.397121659
 20
110.9085722776
 10
134.3753114206
 20
110.9383525307
 10
134.350291095
 20
110.9666264333
 10
134.3220984274
 20
110.9933832276
 10
134.2906209766
 20
111.018706761
 10
134.2558212624
 20
111.0426249828
 10
134.2177367651
 20
111.0651099437
 10
134.1763674846
 20
111.0861616437
  0
LWPOLYLINE
  5
62A
100
AcDbEntity
  8
0
100
AcDbPolyline
 62
7
  6
CONTINUOUS
 90
19
 70
0
 10
179.003944655
 20
110.1594261727
 10
179.0657745803
 20
110.1618197055
 10
179.1245460152
 20
110.167804258
 10
179.1802589596
 20
110.1773798302
 10
179.2327132375
 20
110.1906707136
 10
179.282109025
 20
110.2075526167
 10
179.3290468502
 20
110.227652665
 10
179.3736393821
 20
110.2508159096
 10
179.4157739517
 20
110.2771972993
 10
179.455713081
 20
110.3068888067
 10
179.4936046652
 20
110.339861661
 10
179.5293008091
 20
110.376144633
 10
179.5626203478
 20
110.4159160081
 10
179.5936017055
 20
110.4591270786
 10
179.6222064581
 20
110.5058265524
 10
179.648138169
 20
110.5563388378
 10
179.671298026
 20
110.6107720713
 10
179.6917848412
 20
110.6690181166
 10
179.7095986147
 20
110.7310769737
  0
LWPOLYLINE
  5
62B
100
AcDbEntity
  8
0
100
AcDbPolyline
 62
7
  6
CONTINUOUS
 90
19
 70
0
 10
148.9407596988
 20
110.1594261727
 10
149.0025896242
 20
110.1618197055
 10
149.0613610591
 20
110.167804258
 10
149.1170740035
 20
110.1773798302
 10
149.1695282814
 20
110.1906707136
 10
149.2189240688
 20
110.2075526167
 10
149.2658618941
 20
110.227652665
 10
149.3104544259
 20
110.2508159096
 10
149.3525889956
 20
110.2771972993
 10
149.3925281248
 20
110.3068888067
 10
149.4304197091
 20
110.339861661
 10
149.4661158529
 20
110.376144633
 10
149.4994353917
 20
110.4159160081
 10
149.5304167494
 20
110.4591270786
 10
149.559021502
 20
110.5058265524
 10
149.5849532129
 20
110.5563388378
 10
149.6081130698
 20
110.6107720713
 10
149.6285998851
 20
110.6690181166
 10
149.6464136586
 20
110.7310769737
  0
LWPOLYLINE
  5
62C
100
AcDbEntity
  8
0
100
AcDbPolyline
 62
7
  6
CONTINUOUS
 90
21
 70
0
 10
171.5263658828
 20
110.9437729137
 10
171.5627044787
 20
110.9449108269
 10
171.5973117835
 20
110.9434059058
 10
171.6301877971
 20
110.9392581505
 10
171.6614420111
 20
110.9322748038
 10
171.6909649339
 20
110.9226486229
 10
171.7184280906
 20
110.9109578786
 10
171.7433999878
 20
110.8973165195
 10
171.7663121188
 20
110.8816105972
 10
171.7881304893
 20
110.8640765369
 10
171.8088634643
 20
110.8446648596
 10
171.8285026788
 20
110.8234250444
 10
171.8479890427
 20
110.800741954
 10
171.8675599047
 20
110.7766124382
 10
171.886977916
 20
110.7510396472
 10
171.9064719405
 20
110.7244178952
 10
171.9260719077
 20
110.6968454621
 10
171.9457478881
 20
110.6682240679
 10
171.9656389569
 20
110.6386531864
 10
171.9857914724
 20
110.6081659757
 10
172.0061590763
 20
110.5767292777
  0
LWPOLYLINE
  5
62D
100
AcDbEntity
  8
0
100
AcDbPolyline
 62
7
  6
CONTINUOUS
 90
21
 70
0
 10
131.3182750523
 20
110.9437729137
 10
131.3546136483
 20
110.9449108269
 10
131.389220953
 20
110.9434059058
 10
131.4220969666
 20
110.9392581505
 10
131.4533511806
 20
110.9322748038
 10
131.4828741034
 20
110.9226486229
 10
131.5103372602
 20
110.9109578786
 10
131.5353091573
 20
110.8973165195
 10
131.5582212884
 20
110.8816105972
 10
131.5800396588
 20
110.8640765369
 10
131.6007726339
 20
110.8446648596
 10
131.6204118484
 20
110.8234250444
 10
131.6398982123
 20
110.800741954
 10
131.6594690742
 20
110.7766124382
 10
131.6788870856
 20
110.7510396472
 10
131.6983811101
 20
110.7244178952
 10
131.7179810773
 20
110.6968454621
 10
131.7376570577
 20
110.6682240679
 10
131.7575481264
 20
110.6386531864
 10
131.7777006419
 20
110.6081659757
 10
131.7980682458
 20
110.5767292777
  0
LWPOLYLINE
  5
62E
100
AcDbEntity
  8
0
100
AcDbPolyline
 62
7
  6
CONTINUOUS
 90
16
 70
0
 10
135.4359341849
 20
110.8921711545
 10
135.4784300335
 20
110.8925531808
 10
135.5198815782
 20
110.8942897918
 10
135.5602888191
 20
110.8973809875
 10
135.5998048775
 20
110.9017897827
 10
135.638276632
 20
110.9075531626
 10
135.6752447186
 20
110.9147820825
 10
135.7107650943
 20
110.9235474926
 10
135.7447818021
 20
110.9337784428
 10
135.7766676067
 20
110.9453730374
 10
135.806270936
 20
110.9583788687
 10
135.833743362
 20
110.9727483445
 10
135.8589123653
 20
110.988236793
 10
135.8817204393
 20
111.004762657
 10
135.9022250906
 20
111.0224074938
 10
135.9204263192
 20
111.0411713033
  0
LWPOLYLINE
  5
62F
100
AcDbEntity
  8
0
100
AcDbPolyline
 62
7
  6
CONTINUOUS
 90
10
 70
0
 10
135.4338379889
 20
111.6971585992
 10
135.4593172288
 20
111.6972842636
 10
135.4840989165
 20
111.6970218014
 10
135.508183052
 20
111.6963712125
 10
135.5315954459
 20
111.6954182878
 10
135.5543102877
 20
111.6940772364
 10
135.5762501454
 20
111.6920906858
 10
135.5973892085
 20
111.6893728451
 10
135.6177532876
 20
111.6860095052
 10
135.6373423827
 20
111.6820006661
  0
LINE
  5
630
100
AcDbEntity
  8
0
100
AcDbLine
 62
7
  6
CONTINUOUS
 10
125.5179147934
 20
110.1903872283
 11
125.7622169783
 21
110.1903872283
  0
LINE
  5
631
100
AcDbEntity
  8
0
100
AcDbLine
 62
7
  6
CONTINUOUS
 10
126.63202902
 20
110.1903872283
 11
126.8590767608
 21
110.1903872283
  0
LINE
  5
632
100
AcDbEntity
  8
0
100
AcDbLine
 62
7
  6
CONTINUOUS
 10
127.2409297795
 20
110.1903872283
 11
127.4679775203
 21
110.1903872283
  0
LINE
  5
633
100
AcDbEntity
  8
0
100
AcDbLine
 62
7
  6
CONTINUOUS
 10
127.959000602
 20
110.1903872283
 11
128.152184644
 21
110.1903872283
  0
LINE
  5
634
100
AcDbEntity
  8
0
100
AcDbLine
 62
7
  6
CONTINUOUS
 10
128.6548179837
 20
110.1903872283
 11
128.8818657246
 21
110.1903872283
  0
LINE
  5
635
100
AcDbEntity
  8
0
100
AcDbLine
 62
7
  6
CONTINUOUS
 10
129.0550542522
 20
110.1903872283
 11
129.2946797988
 21
110.1903872283
  0
LINE
  5
636
100
AcDbEntity
  8
0
100
AcDbLine
 62
7
  6
CONTINUOUS
 10
130.3886370955
 20
110.1903872283
 11
130.6300366372
 21
110.1903872283
  0
LINE
  5
637
100
AcDbEntity
  8
0
100
AcDbLine
 62
7
  6
CONTINUOUS
 10
130.8324122253
 20
110.1903872283
 11
131.0594599661
 21
110.1903872283
  0
LINE
  5
638
100
AcDbEntity
  8
0
100
AcDbLine
 62
7
  6
CONTINUOUS
 10
132.0418284879
 20
110.1903872283
 11
132.3085450566
 21
110.1903872283
  0
LINE
  5
639
100
AcDbEntity
  8
0
100
AcDbLine
 62
7
  6
CONTINUOUS
 10
134.7851069861
 20
110.1903872283
 11
135.0121547269
 21
110.1903872283
  0
LINE
  5
63A
100
AcDbEntity
  8
0
100
AcDbLine
 62
7
  6
CONTINUOUS
 10
136.1657766809
 20
110.1903872283
 11
136.4054022275
 21
110.1903872283
  0
LINE
  5
63B
100
AcDbEntity
  8
0
100
AcDbLine
 62
7
  6
CONTINUOUS
 10
137.4993595242
 20
110.1903872283
 11
137.7407590658
 21
110.1903872283
  0
LINE
  5
63C
100
AcDbEntity
  8
0
100
AcDbLine
 62
7
  6
CONTINUOUS
 10
139.0891774839
 20
110.1903872283
 11
139.3334796688
 21
110.1903872283
  0
LINE
  5
63D
100
AcDbEntity
  8
0
100
AcDbLine
 62
7
  6
CONTINUOUS
 10
140.2032917104
 20
110.1903872283
 11
140.4303394513
 21
110.1903872283
  0
LINE
  5
63E
100
AcDbEntity
  8
0
100
AcDbLine
 62
7
  6
CONTINUOUS
 10
140.6448093863
 20
110.1903872283
 11
140.8844349329
 21
110.1903872283
  0
LINE
  5
63F
100
AcDbEntity
  8
0
100
AcDbLine
 62
7
  6
CONTINUOUS
 10
141.9783922296
 20
110.1903872283
 11
142.2197917713
 21
110.1903872283
  0
LINE
  5
640
100
AcDbEntity
  8
0
100
AcDbLine
 62
7
  6
CONTINUOUS
 10
142.4015266557
 20
110.1903872283
 11
143.4748432487
 21
110.1903872283
  0
LINE
  5
641
100
AcDbEntity
  8
0
100
AcDbLine
 62
7
  6
CONTINUOUS
 10
143.743172397
 20
110.1903872283
 11
145.0022553234
 21
110.1903872283
  0
LINE
  5
642
100
AcDbEntity
  8
0
100
AcDbLine
 62
7
  6
CONTINUOUS
 10
146.4682290608
 20
110.1903872283
 11
146.7125312457
 21
110.1903872283
  0
LINE
  5
643
100
AcDbEntity
  8
0
100
AcDbLine
 62
7
  6
CONTINUOUS
 10
147.5823432874
 20
110.1903872283
 11
147.8093910282
 21
110.1903872283
  0
LINE
  5
644
100
AcDbEntity
  8
0
100
AcDbLine
 62
7
  6
CONTINUOUS
 10
149.9353835105
 20
110.1903872283
 11
151.1944664369
 21
110.1903872283
  0
LINE
  5
645
100
AcDbEntity
  8
0
100
AcDbLine
 62
7
  6
CONTINUOUS
 10
151.5143973445
 20
110.1903872283
 11
151.7414450853
 21
110.1903872283
  0
LINE
  5
646
100
AcDbEntity
  8
0
100
AcDbLine
 62
7
  6
CONTINUOUS
 10
152.5940029979
 20
110.1903872283
 11
152.835402382
 21
110.1903872283
  0
LINE
  5
647
100
AcDbEntity
  8
0
100
AcDbLine
 62
7
  6
CONTINUOUS
 10
153.0727704747
 20
110.1903872283
 11
154.4247365678
 21
110.1903872283
  0
LINE
  5
648
100
AcDbEntity
  8
0
100
AcDbLine
 62
7
  6
CONTINUOUS
 10
154.4740808732
 20
110.1903872283
 11
154.7137064198
 21
110.1903872283
  0
LINE
  5
649
100
AcDbEntity
  8
0
100
AcDbLine
 62
7
  6
CONTINUOUS
 10
155.8076637165
 20
110.1903872283
 11
156.0490632581
 21
110.1903872283
  0
LINE
  5
64A
100
AcDbEntity
  8
0
100
AcDbLine
 62
7
  6
CONTINUOUS
 10
157.3969979023
 20
110.1903872283
 11
157.6034049394
 21
110.1903872283
  0
LINE
  5
64B
100
AcDbEntity
  8
0
100
AcDbLine
 62
7
  6
CONTINUOUS
 10
158.8212064584
 20
110.1903872283
 11
159.0276134955
 21
110.1903872283
  0
LINE
  5
64C
100
AcDbEntity
  8
0
100
AcDbLine
 62
7
  6
CONTINUOUS
 10
167.4490206099
 20
110.1903872283
 11
167.6760683507
 21
110.1903872283
  0
LINE
  5
64D
100
AcDbEntity
  8
0
100
AcDbLine
 62
7
  6
CONTINUOUS
 10
168.1670914324
 20
110.1903872283
 11
168.3602754744
 21
110.1903872283
  0
LINE
  5
64E
100
AcDbEntity
  8
0
100
AcDbLine
 62
7
  6
CONTINUOUS
 10
168.8629088142
 20
110.1903872283
 11
169.089956555
 21
110.1903872283
  0
LINE
  5
64F
100
AcDbEntity
  8
0
100
AcDbLine
 62
7
  6
CONTINUOUS
 10
169.2631450826
 20
110.1903872283
 11
169.5027706292
 21
110.1903872283
  0
LINE
  5
650
100
AcDbEntity
  8
0
100
AcDbLine
 62
7
  6
CONTINUOUS
 10
170.596727926
 20
110.1903872283
 11
170.8381274676
 21
110.1903872283
  0
LINE
  5
651
100
AcDbEntity
  8
0
100
AcDbLine
 62
7
  6
CONTINUOUS
 10
171.0405030558
 20
110.1903872283
 11
171.2675507966
 21
110.1903872283
  0
LINE
  5
652
100
AcDbEntity
  8
0
100
AcDbLine
 62
7
  6
CONTINUOUS
 10
172.2499193184
 20
110.1903872283
 11
172.5166358871
 21
110.1903872283
  0
LINE
  5
653
100
AcDbEntity
  8
0
100
AcDbLine
 62
7
  6
CONTINUOUS
 10
176.6031727061
 20
110.1903872283
 11
176.8302204469
 21
110.1903872283
  0
LINE
  5
654
100
AcDbEntity
  8
0
100
AcDbLine
 62
7
  6
CONTINUOUS
 10
177.6455282435
 20
110.1903872283
 11
177.8725759843
 21
110.1903872283
  0
LINE
  5
655
100
AcDbEntity
  8
0
100
AcDbLine
 62
7
  6
CONTINUOUS
 10
179.8002243275
 20
110.1903872283
 11
180.0398498741
 21
110.1903872283
  0
LINE
  5
656
100
AcDbEntity
  8
0
100
AcDbLine
 62
7
  6
CONTINUOUS
 10
181.1338071708
 20
110.1903872283
 11
181.3752067124
 21
110.1903872283
  0
LINE
  5
657
100
AcDbEntity
  8
0
100
AcDbLine
 62
7
  6
CONTINUOUS
 10
182.7236251305
 20
110.1903872283
 11
182.9679273154
 21
110.1903872283
  0
LINE
  5
658
100
AcDbEntity
  8
0
100
AcDbLine
 62
7
  6
CONTINUOUS
 10
183.837739357
 20
110.1903872283
 11
184.0647870979
 21
110.1903872283
  0
LINE
  5
659
100
AcDbEntity
  8
0
100
AcDbLine
 62
7
  6
CONTINUOUS
 10
185.1587443946
 20
110.1903872283
 11
185.3857921354
 21
110.1903872283
  0
LINE
  5
65A
100
AcDbEntity
  8
0
100
AcDbLine
 62
7
  6
CONTINUOUS
 10
186.2217406357
 20
110.1903872283
 11
186.4487883766
 21
110.1903872283
  0
LINE
  5
65B
100
AcDbEntity
  8
0
100
AcDbLine
 62
7
  6
CONTINUOUS
 10
187.0451113303
 20
110.1903872283
 11
187.2847368769
 21
110.1903872283
  0
LINE
  5
65C
100
AcDbEntity
  8
0
100
AcDbLine
 62
7
  6
CONTINUOUS
 10
188.3786941736
 20
110.1903872283
 11
188.6200937153
 21
110.1903872283
  0
LINE
  5
65D
100
AcDbEntity
  8
0
100
AcDbLine
 62
7
  6
CONTINUOUS
 10
188.8018285997
 20
110.1903872283
 11
189.8751451927
 21
110.1903872283
  0
LINE
  5
65E
100
AcDbEntity
  8
0
100
AcDbLine
 62
7
  6
CONTINUOUS
 10
190.6091802381
 20
110.1903872283
 11
190.836227979
 21
110.1903872283
  0
LINE
  5
65F
100
AcDbEntity
  8
0
100
AcDbLine
 62
7
  6
CONTINUOUS
 10
189.8751451927
 20
110.3864739135
 11
189.0288763405
 21
110.3864739135
  0
LINE
  5
660
100
AcDbEntity
  8
0
100
AcDbLine
 62
7
  6
CONTINUOUS
 10
154.4247365678
 20
110.3864739135
 11
153.3299731388
 21
110.3864739135
  0
LINE
  5
661
100
AcDbEntity
  8
0
100
AcDbLine
 62
7
  6
CONTINUOUS
 10
151.1944664369
 20
110.3864739135
 11
150.1624312513
 21
110.3864739135
  0
LINE
  5
662
100
AcDbEntity
  8
0
100
AcDbLine
 62
7
  6
CONTINUOUS
 10
145.0022553234
 20
110.3864739135
 11
143.9702201378
 21
110.3864739135
  0
LINE
  5
663
100
AcDbEntity
  8
0
100
AcDbLine
 62
7
  6
CONTINUOUS
 10
143.4748432487
 20
110.3864739135
 11
142.6285743966
 21
110.3864739135
  0
LINE
  5
664
100
AcDbEntity
  8
0
100
AcDbLine
 62
7
  6
CONTINUOUS
 10
158.0678207729
 20
110.5928809506
 11
158.8212064584
 21
110.5928809506
  0
LINE
  5
665
100
AcDbEntity
  8
0
100
AcDbLine
 62
7
  6
CONTINUOUS
 10
159.0276134955
 20
110.5928809506
 11
159.2546612364
 21
110.5928809506
  0
LINE
  5
666
100
AcDbEntity
  8
0
100
AcDbLine
 62
7
  6
CONTINUOUS
 10
129.4741572293
 20
110.7064048211
 11
130.1986782127
 21
110.7064048211
  0
LINE
  5
667
100
AcDbEntity
  8
0
100
AcDbLine
 62
7
  6
CONTINUOUS
 10
136.584879658
 20
110.7064048211
 11
137.3094006414
 21
110.7064048211
  0
LINE
  5
668
100
AcDbEntity
  8
0
100
AcDbLine
 62
7
  6
CONTINUOUS
 10
141.0639123634
 20
110.7064048211
 11
141.7884333468
 21
110.7064048211
  0
LINE
  5
669
100
AcDbEntity
  8
0
100
AcDbLine
 62
7
  6
CONTINUOUS
 10
154.8931838503
 20
110.7064048211
 11
155.6177048337
 21
110.7064048211
  0
LINE
  5
66A
100
AcDbEntity
  8
0
100
AcDbLine
 62
7
  6
CONTINUOUS
 10
169.6822480597
 20
110.7064048211
 11
170.4067690431
 21
110.7064048211
  0
LINE
  5
66B
100
AcDbEntity
  8
0
100
AcDbLine
 62
7
  6
CONTINUOUS
 10
180.2193273046
 20
110.7064048211
 11
180.943848288
 21
110.7064048211
  0
LINE
  5
66C
100
AcDbEntity
  8
0
100
AcDbLine
 62
7
  6
CONTINUOUS
 10
187.4642143074
 20
110.7064048211
 11
188.1887352908
 21
110.7064048211
  0
LINE
  5
66D
100
AcDbEntity
  8
0
100
AcDbLine
 62
7
  6
CONTINUOUS
 10
159.2546612364
 20
110.7889676359
 11
159.0276134955
 21
110.7889676359
  0
LINE
  5
66E
100
AcDbEntity
  8
0
100
AcDbLine
 62
7
  6
CONTINUOUS
 10
158.8212064584
 20
110.7889676359
 11
158.274550326
 21
110.7889676359
  0
LINE
  5
66F
100
AcDbEntity
  8
0
100
AcDbLine
 62
7
  6
CONTINUOUS
 10
188.1202017608
 20
110.8921711545
 11
187.5288778038
 21
110.8921711545
  0
LINE
  5
670
100
AcDbEntity
  8
0
100
AcDbLine
 62
7
  6
CONTINUOUS
 10
180.875314758
 20
110.8921711545
 11
180.283990801
 21
110.8921711545
  0
LINE
  5
671
100
AcDbEntity
  8
0
100
AcDbLine
 62
7
  6
CONTINUOUS
 10
170.3382355132
 20
110.8921711545
 11
169.7469115562
 21
110.8921711545
  0
LINE
  5
672
100
AcDbEntity
  8
0
100
AcDbLine
 62
7
  6
CONTINUOUS
 10
155.5491713037
 20
110.8921711545
 11
154.9578473467
 21
110.8921711545
  0
LINE
  5
673
100
AcDbEntity
  8
0
100
AcDbLine
 62
7
  6
CONTINUOUS
 10
141.7198998169
 20
110.8921711545
 11
141.1285758599
 21
110.8921711545
  0
LINE
  5
674
100
AcDbEntity
  8
0
100
AcDbLine
 62
7
  6
CONTINUOUS
 10
137.2408671114
 20
110.8921711545
 11
136.6495431544
 21
110.8921711545
  0
LINE
  5
675
100
AcDbEntity
  8
0
100
AcDbLine
 62
7
  6
CONTINUOUS
 10
130.1301446827
 20
110.8921711545
 11
129.5388207257
 21
110.8921711545
  0
LINE
  5
676
100
AcDbEntity
  8
0
100
AcDbLine
 62
7
  6
CONTINUOUS
 10
135.0121547269
 20
110.8921711545
 11
135.4359341849
 21
110.8921711545
  0
LINE
  5
677
100
AcDbEntity
  8
0
100
AcDbLine
 62
7
  6
CONTINUOUS
 10
131.0594599661
 20
110.9437729137
 11
131.3182750523
 21
110.9437729137
  0
LINE
  5
678
100
AcDbEntity
  8
0
100
AcDbLine
 62
7
  6
CONTINUOUS
 10
171.2675507966
 20
110.9437729137
 11
171.5263658828
 21
110.9437729137
  0
LINE
  5
679
100
AcDbEntity
  8
0
100
AcDbLine
 62
7
  6
CONTINUOUS
 10
143.9702201378
 20
110.9747339693
 11
144.8990518049
 21
110.9747339693
  0
LINE
  5
67A
100
AcDbEntity
  8
0
100
AcDbLine
 62
7
  6
CONTINUOUS
 10
150.1624312513
 20
110.9747339693
 11
151.0912629184
 21
110.9747339693
  0
LINE
  5
67B
100
AcDbEntity
  8
0
100
AcDbLine
 62
7
  6
CONTINUOUS
 10
135.4383530542
 20
111.0882578397
 11
135.0121547269
 21
111.0882578397
  0
LINE
  5
67C
100
AcDbEntity
  8
0
100
AcDbLine
 62
7
  6
CONTINUOUS
 10
151.0912629184
 20
111.1708206546
 11
150.1624312513
 21
111.1708206546
  0
LINE
  5
67D
100
AcDbEntity
  8
0
100
AcDbLine
 62
7
  6
CONTINUOUS
 10
144.8990518049
 20
111.1708206546
 11
143.9702201378
 21
111.1708206546
  0
LINE
  5
67E
100
AcDbEntity
  8
0
100
AcDbLine
 62
7
  6
CONTINUOUS
 10
131.0594599661
 20
111.6971585992
 11
131.5932157769
 21
111.6971585992
  0
LINE
  5
67F
100
AcDbEntity
  8
0
100
AcDbLine
 62
7
  6
CONTINUOUS
 10
135.0121547269
 20
111.6971585992
 11
135.4338379889
 21
111.6971585992
  0
LINE
  5
680
100
AcDbEntity
  8
0
100
AcDbLine
 62
7
  6
CONTINUOUS
 10
143.9702201378
 20
111.6971585992
 11
144.960973916
 21
111.6971585992
  0
LINE
  5
681
100
AcDbEntity
  8
0
100
AcDbLine
 62
7
  6
CONTINUOUS
 10
150.1624312513
 20
111.6971585992
 11
151.1531850295
 21
111.6971585992
  0
LINE
  5
682
100
AcDbEntity
  8
0
100
AcDbLine
 62
7
  6
CONTINUOUS
 10
153.1759739933
 20
111.6971585992
 11
154.119641235
 21
111.6971585992
  0
LINE
  5
683
100
AcDbEntity
  8
0
100
AcDbLine
 62
7
  6
CONTINUOUS
 10
171.2675507966
 20
111.6971585992
 11
171.8013066073
 21
111.6971585992
  0
LINE
  5
684
100
AcDbEntity
  8
0
100
AcDbLine
 62
7
  6
CONTINUOUS
 10
176.0458737059
 20
111.6971585992
 11
176.6031727061
 21
111.6971585992
  0
LINE
  5
685
100
AcDbEntity
  8
0
100
AcDbLine
 62
7
  6
CONTINUOUS
 10
176.8302204469
 20
111.6971585992
 11
177.3875194471
 21
111.6971585992
  0
LINE
  5
686
100
AcDbEntity
  8
0
100
AcDbLine
 62
7
  6
CONTINUOUS
 10
185.6644416355
 20
111.6971585992
 11
186.2217406357
 21
111.6971585992
  0
LINE
  5
687
100
AcDbEntity
  8
0
100
AcDbLine
 62
7
  6
CONTINUOUS
 10
186.4487883766
 20
111.6971585992
 11
187.0060873768
 21
111.6971585992
  0
LINE
  5
688
100
AcDbEntity
  8
0
100
AcDbLine
 62
7
  6
CONTINUOUS
 10
191.5173712015
 20
111.8932452845
 11
191.2433981821
 21
111.8932452845
  0
LINE
  5
689
100
AcDbEntity
  8
0
100
AcDbLine
 62
7
  6
CONTINUOUS
 10
190.229101057
 20
111.8932452845
 11
189.9589980712
 21
111.8932452845
  0
LINE
  5
68A
100
AcDbEntity
  8
0
100
AcDbLine
 62
7
  6
CONTINUOUS
 10
189.0288763405
 20
111.8932452845
 11
188.8018285997
 21
111.8932452845
  0
LINE
  5
68B
100
AcDbEntity
  8
0
100
AcDbLine
 62
7
  6
CONTINUOUS
 10
187.937982945
 20
111.8932452845
 11
187.6923908539
 21
111.8932452845
  0
LINE
  5
68C
100
AcDbEntity
  8
0
100
AcDbLine
 62
7
  6
CONTINUOUS
 10
187.0060873768
 20
111.8932452845
 11
185.6644416355
 21
111.8932452845
  0
LINE
  5
68D
100
AcDbEntity
  8
0
100
AcDbLine
 62
7
  6
CONTINUOUS
 10
185.3857921354
 20
111.8932452845
 11
185.1587443946
 21
111.8932452845
  0
LINE
  5
68E
100
AcDbEntity
  8
0
100
AcDbLine
 62
7
  6
CONTINUOUS
 10
184.0647870979
 20
111.8932452845
 11
183.837739357
 21
111.8932452845
  0
LINE
  5
68F
100
AcDbEntity
  8
0
100
AcDbLine
 62
7
  6
CONTINUOUS
 10
183.6471354424
 20
111.8932452845
 11
183.4042845791
 21
111.8932452845
  0
LINE
  5
690
100
AcDbEntity
  8
0
100
AcDbLine
 62
7
  6
CONTINUOUS
 10
182.3103272824
 20
111.8932452845
 11
182.0689278982
 21
111.8932452845
  0
LINE
  5
691
100
AcDbEntity
  8
0
100
AcDbLine
 62
7
  6
CONTINUOUS
 10
180.6930959422
 20
111.8932452845
 11
180.4475038511
 21
111.8932452845
  0
LINE
  5
692
100
AcDbEntity
  8
0
100
AcDbLine
 62
7
  6
CONTINUOUS
 10
177.8725759843
 20
111.8932452845
 11
177.6455282435
 21
111.8932452845
  0
LINE
  5
693
100
AcDbEntity
  8
0
100
AcDbLine
 62
7
  6
CONTINUOUS
 10
177.3875194471
 20
111.8932452845
 11
176.0458737059
 21
111.8932452845
  0
LINE
  5
694
100
AcDbEntity
  8
0
100
AcDbLine
 62
7
  6
CONTINUOUS
 10
171.7921150612
 20
111.8932452845
 11
171.0405030558
 21
111.8932452845
  0
LINE
  5
695
100
AcDbEntity
  8
0
100
AcDbLine
 62
7
  6
CONTINUOUS
 10
170.1560166974
 20
111.8932452845
 11
169.9104246063
 21
111.8932452845
  0
LINE
  5
696
100
AcDbEntity
  8
0
100
AcDbLine
 62
7
  6
CONTINUOUS
 10
169.089956555
 20
111.8932452845
 11
168.7945365422
 21
111.8932452845
  0
LINE
  5
697
100
AcDbEntity
  8
0
100
AcDbLine
 62
7
  6
CONTINUOUS
 10
167.7950749917
 20
111.8932452845
 11
167.4490206099
 21
111.8932452845
  0
LINE
  5
698
100
AcDbEntity
  8
0
100
AcDbLine
 62
7
  6
CONTINUOUS
 10
159.0276134955
 20
111.8932452845
 11
158.8624878658
 21
111.8932452845
  0
LINE
  5
699
100
AcDbEntity
  8
0
100
AcDbLine
 62
7
  6
CONTINUOUS
 10
155.3669524879
 20
111.8932452845
 11
155.1213603968
 21
111.8932452845
  0
LINE
  5
69A
100
AcDbEntity
  8
0
100
AcDbLine
 62
7
  6
CONTINUOUS
 10
154.3834551604
 20
111.8932452845
 11
153.1759739933
 21
111.8932452845
  0
LINE
  5
69B
100
AcDbEntity
  8
0
100
AcDbLine
 62
7
  6
CONTINUOUS
 10
152.835402382
 20
111.8932452845
 11
152.6083546412
 21
111.8932452845
  0
LINE
  5
69C
100
AcDbEntity
  8
0
100
AcDbLine
 62
7
  6
CONTINUOUS
 10
151.7557968861
 20
111.8932452845
 11
151.5143973445
 21
111.8932452845
  0
LINE
  5
69D
100
AcDbEntity
  8
0
100
AcDbLine
 62
7
  6
CONTINUOUS
 10
151.1531850295
 20
111.8932452845
 11
149.9353835105
 21
111.8932452845
  0
LINE
  5
69E
100
AcDbEntity
  8
0
100
AcDbLine
 62
7
  6
CONTINUOUS
 10
147.8093910282
 20
111.8932452845
 11
147.5823432874
 21
111.8932452845
  0
LINE
  5
69F
100
AcDbEntity
  8
0
100
AcDbLine
 62
7
  6
CONTINUOUS
 10
147.3917393727
 20
111.8932452845
 11
147.1488885094
 21
111.8932452845
  0
LINE
  5
6A0
100
AcDbEntity
  8
0
100
AcDbLine
 62
7
  6
CONTINUOUS
 10
146.0549312127
 20
111.8932452845
 11
145.8135318285
 21
111.8932452845
  0
LINE
  5
6A1
100
AcDbEntity
  8
0
100
AcDbLine
 62
7
  6
CONTINUOUS
 10
144.960973916
 20
111.8932452845
 11
143.743172397
 21
111.8932452845
  0
LINE
  5
6A2
100
AcDbEntity
  8
0
100
AcDbLine
 62
7
  6
CONTINUOUS
 10
142.6285743966
 20
111.8932452845
 11
142.4015266557
 21
111.8932452845
  0
LINE
  5
6A3
100
AcDbEntity
  8
0
100
AcDbLine
 62
7
  6
CONTINUOUS
 10
141.5376810011
 20
111.8932452845
 11
141.29208891
 21
111.8932452845
  0
LINE
  5
6A4
100
AcDbEntity
  8
0
100
AcDbLine
 62
7
  6
CONTINUOUS
 10
140.4303394513
 20
111.8932452845
 11
140.2032917104
 21
111.8932452845
  0
LINE
  5
6A5
100
AcDbEntity
  8
0
100
AcDbLine
 62
7
  6
CONTINUOUS
 10
140.0126877958
 20
111.8932452845
 11
139.7698369325
 21
111.8932452845
  0
LINE
  5
6A6
100
AcDbEntity
  8
0
100
AcDbLine
 62
7
  6
CONTINUOUS
 10
138.6758796358
 20
111.8932452845
 11
138.4344802516
 21
111.8932452845
  0
LINE
  5
6A7
100
AcDbEntity
  8
0
100
AcDbLine
 62
7
  6
CONTINUOUS
 10
137.0586482956
 20
111.8932452845
 11
136.8130562045
 21
111.8932452845
  0
LINE
  5
6A8
100
AcDbEntity
  8
0
100
AcDbLine
 62
7
  6
CONTINUOUS
 10
135.4123909954
 20
111.8932452845
 11
134.7851069861
 21
111.8932452845
  0
LINE
  5
6A9
100
AcDbEntity
  8
0
100
AcDbLine
 62
7
  6
CONTINUOUS
 10
131.5840242307
 20
111.8932452845
 11
130.8324122253
 21
111.8932452845
  0
LINE
  5
6AA
100
AcDbEntity
  8
0
100
AcDbLine
 62
7
  6
CONTINUOUS
 10
129.9479258669
 20
111.8932452845
 11
129.7023337758
 21
111.8932452845
  0
LINE
  5
6AB
100
AcDbEntity
  8
0
100
AcDbLine
 62
7
  6
CONTINUOUS
 10
128.8818657246
 20
111.8932452845
 11
128.5864457117
 21
111.8932452845
  0
LINE
  5
6AC
100
AcDbEntity
  8
0
100
AcDbLine
 62
7
  6
CONTINUOUS
 10
127.5869841613
 20
111.8932452845
 11
127.2409297795
 21
111.8932452845
  0
LINE
  5
6AD
100
AcDbEntity
  8
0
100
AcDbLine
 62
7
  6
CONTINUOUS
 10
126.8590767608
 20
111.8932452845
 11
126.63202902
 21
111.8932452845
  0
LINE
  5
6AE
100
AcDbEntity
  8
0
100
AcDbLine
 62
7
  6
CONTINUOUS
 10
126.4414251053
 20
111.8932452845
 11
126.198574242
 21
111.8932452845
  0
LINE
  5
6AF
100
AcDbEntity
  8
0
100
AcDbLine
 62
7
  6
CONTINUOUS
 10
125.1046169453
 20
111.8932452845
 11
124.8632175611
 21
111.8932452845
  0
LWPOLYLINE
  5
6B0
100
AcDbEntity
  8
0
100
AcDbPolyline
 62
7
  6
CONTINUOUS
 90
10
 70
0
 10
160.5943720396
 20
111.1787222945
 10
160.5906937384
 20
111.1787718536
 10
160.5869884736
 20
111.1788817984
 10
160.583256245
 20
111.1790521289
 10
160.5794951845
 20
111.1792902971
 10
160.5757071603
 20
111.179588851
 10
160.5718977775
 20
111.1799254344
 10
160.5680689045
 20
111.1802925955
 10
160.5642186729
 20
111.1806977862
 10
160.5603470828
 20
111.1811410064
  0
LWPOLYLINE
  5
6B1
100
AcDbEntity
  8
0
100
AcDbPolyline
 62
7
  6
CONTINUOUS
 90
10
 70
0
 10
165.8783921898
 20
111.1787222945
 10
165.8747138886
 20
111.1787718536
 10
165.8710086238
 20
111.1788817984
 10
165.8672763953
 20
111.1790521289
 10
165.8635153347
 20
111.1792902971
 10
165.8597273105
 20
111.179588851
 10
165.8559179277
 20
111.1799254344
 10
165.8520890547
 20
111.1802925955
 10
165.8482388231
 20
111.1806977862
 10
165.844367233
 20
111.1811410064
  0
LWPOLYLINE
  5
6B2
100
AcDbEntity
  8
0
100
AcDbPolyline
 62
7
  6
CONTINUOUS
 90
40
 70
0
 10
131.5932157769
 20
111.6971585992
 10
131.628116681
 20
111.6965847924
 10
131.6616258478
 20
111.6943972851
 10
131.6937432773
 20
111.6905960773
 10
131.7246977922
 20
111.6851585682
 10
131.7542605697
 20
111.6781073586
 10
131.7817451418
 20
111.6695102507
 10
131.8068640996
 20
111.6593910369
 10
131.8299048519
 20
111.6477259248
 10
131.8510431573
 20
111.6345113387
 10
131.8702933125
 20
111.6197362868
 10
131.8876410208
 20
111.6034117609
 10
131.9032191498
 20
111.5855671604
 10
131.9171987194
 20
111.5660952562
 10
131.9294087097
 20
111.5451032774
 10
131.9394689292
 20
111.5229423107
 10
131.9473327434
 20
111.4995736787
 10
131.9530467868
 20
111.4750360586
 10
131.9563707713
 20
111.4497965699
 10
131.9572230982
 20
111.423589854
 10
131.9556853662
 20
111.3966812694
 10
131.9517620839
 20
111.3703340102
 10
131.9452942535
 20
111.3446210478
 10
131.9364408727
 20
111.3194694108
 10
131.9256834429
 20
111.2959233794
 10
131.9131884374
 20
111.2743247989
 10
131.8987893828
 20
111.2543318241
 10
131.8824683602
 20
111.235963199
 10
131.8643038305
 20
111.2192346855
 10
131.8442173327
 20
111.2041305217
 10
131.8219555654
 20
111.1906221668
 10
131.7972762266
 20
111.1786760448
 10
131.7704216184
 20
111.1683257315
 10
131.7418653453
 20
111.1596434139
 10
131.711643278
 20
111.1527591614
 10
131.6797195459
 20
111.1475429046
 10
131.6464601418
 20
111.1436766221
 10
131.6119870633
 20
111.1410543067
 10
131.5761783128
 20
111.1397819657
 10
131.0594599661
 20
111.139859599
  0
LWPOLYLINE
  5
6B3
100
AcDbEntity
  8
0
100
AcDbPolyline
 62
7
  6
CONTINUOUS
 90
19
 70
0
 10
133.7933858177
 20
111.7281196548
 10
133.8321900244
 20
111.7273745119
 10
133.869299609
 20
111.7247096547
 10
133.9047145716
 20
111.7201250831
 10
133.9386837608
 20
111.7135899449
 10
133.9709583279
 20
111.7051350924
 10
134.000791727
 20
111.6948530824
 10
134.0278101296
 20
111.6828295974
 10
134.0523873641
 20
111.6689789548
 10
134.0748983699
 20
111.6531366643
 10
134.0952662093
 20
111.6354261295
 10
134.1135678199
 20
111.6157239467
 10
134.1304089535
 20
111.5934954141
 10
134.1461822796
 20
111.5684812876
 10
134.1604951287
 20
111.5409408113
 10
134.172775244
 20
111.511117016
 10
134.1828318733
 20
111.479090912
 10
134.1908557687
 20
111.4447814891
 10
134.1968469303
 20
111.4081887473
  0
LWPOLYLINE
  5
6B4
100
AcDbEntity
  8
0
100
AcDbPolyline
 62
7
  6
CONTINUOUS
 90
36
 70
0
 10
160.6879002381
 20
111.0185955041
 10
160.7239286989
 20
111.017061086
 10
160.7581636891
 20
111.0128306837
 10
160.7906052087
 20
111.005904297
 10
160.8212514529
 20
110.9961734622
 10
160.8501042265
 20
110.9837466431
 10
160.8771689441
 20
110.9689492314
 10
160.902610257
 20
110.9516481501
 10
160.9262635138
 20
110.9319764762
 10
160.9476401743
 20
110.9106588323
 10
160.9666612192
 20
110.8878867803
 10
160.9834056677
 20
110.8634687582
 10
160.9976220387
 20
110.8375547022
 10
161.009275698
 20
110.8102308969
 10
161.0184012796
 20
110.7814110575
 10
161.0248512043
 20
110.7509862658
 10
161.0286206886
 20
110.718180012
 10
161.029714516
 20
110.6837688058
 10
161.0279994572
 20
110.6499732578
 10
161.023390714
 20
110.6172402402
 10
161.0159730845
 20
110.5851228809
 10
161.005867734
 20
110.554501174
 10
160.9930265318
 20
110.5256422137
 10
160.9774976085
 20
110.4982789058
 10
160.9595465212
 20
110.4724899617
 10
160.9389861075
 20
110.4480094207
 10
160.9160035298
 20
110.4251032436
 10
160.891425832
 20
110.4046480241
 10
160.8655217473
 20
110.3868739991
 10
160.8380225424
 20
110.3715509319
 10
160.808949062
 20
110.3588647056
 10
160.7779412687
 20
110.3488595315
 10
160.7453591998
 20
110.3414911985
 10
160.7123038116
 20
110.336812956
 10
160.6784464265
 20
110.3348961141
 10
160.6441157222
 20
110.3356693627
  0
LWPOLYLINE
  5
6B5
100
AcDbEntity
  8
0
100
AcDbPolyline
 62
7
  6
CONTINUOUS
 90
36
 70
0
 10
165.9719203883
 20
111.0185955041
 10
166.0079488491
 20
111.017061086
 10
166.0421838393
 20
111.0128306837
 10
166.0746253589
 20
111.005904297
 10
166.1052716031
 20
110.9961734622
 10
166.1341243767
 20
110.9837466431
 10
166.1611890943
 20
110.9689492314
 10
166.1866304072
 20
110.9516481501
 10
166.210283664
 20
110.9319764762
 10
166.2316603245
 20
110.9106588323
 10
166.2506813694
 20
110.8878867803
 10
166.267425818
 20
110.8634687582
 10
166.2816421889
 20
110.8375547022
 10
166.2932958482
 20
110.8102308969
 10
166.3024214298
 20
110.7814110575
 10
166.3088713545
 20
110.7509862658
 10
166.3126408388
 20
110.718180012
 10
166.3137346662
 20
110.6837688058
 10
166.3120196074
 20
110.6499732578
 10
166.3074108642
 20
110.6172402402
 10
166.2999932347
 20
110.5851228809
 10
166.2898878842
 20
110.554501174
 10
166.277046682
 20
110.5256422137
 10
166.2615177587
 20
110.4982789058
 10
166.2435666714
 20
110.4724899617
 10
166.2230062577
 20
110.4480094207
 10
166.20002368
 20
110.4251032436
 10
166.1754459822
 20
110.4046480241
 10
166.1495418975
 20
110.3868739991
 10
166.1220426926
 20
110.3715509319
 10
166.0929692122
 20
110.3588647056
 10
166.0619614189
 20
110.3488595315
 10
166.02937935
 20
110.3414911985
 10
165.9963239618
 20
110.336812956
 10
165.9624665767
 20
110.3348961141
 10
165.9281358724
 20
110.3356693627
  0
LWPOLYLINE
  5
6B6
100
AcDbEntity
  8
0
100
AcDbPolyline
 62
7
  6
CONTINUOUS
 90
19
 70
0
 10
148.9275367037
 20
111.7281196548
 10
148.9682809234
 20
111.7263100505
 10
149.0070468841
 20
111.7222110598
 10
149.0438345858
 20
111.7158226827
 10
149.0787813466
 20
111.7069553477
 10
149.1117498484
 20
111.6957986263
 10
149.1423281371
 20
111.6829212331
 10
149.1701165913
 20
111.6685907574
 10
149.1955148323
 20
111.6525396099
 10
149.2193097696
 20
111.6345337382
 10
149.2415530997
 20
111.6146690382
 10
149.262193126
 20
111.592849614
 10
149.281861669
 20
111.5685537248
 10
149.300867517
 20
111.5414730679
 10
149.3189018816
 20
111.511915946
 10
149.3356702178
 20
111.4802855273
 10
149.3510743438
 20
111.4467162011
 10
149.3652124413
 20
111.411073578
 10
149.3780845103
 20
111.3733576582
  0
LWPOLYLINE
  5
6B7
100
AcDbEntity
  8
0
100
AcDbPolyline
 62
7
  6
CONTINUOUS
 90
17
 70
0
 10
160.6441157222
 20
110.3356693627
 10
160.6113986885
 20
110.3389720209
 10
160.5809054015
 20
110.3448688004
 10
160.552025785
 20
110.3532949895
 10
160.5250166002
 20
110.3638957719
 10
160.5000422528
 20
110.3765518214
 10
160.4769383371
 20
110.3913824642
 10
160.455468397
 20
110.4083908627
 10
160.435655881
 20
110.4274457323
 10
160.4174773408
 20
110.4486783575
 10
160.4006259748
 20
110.4724857536
 10
160.3849549605
 20
110.4991880715
 10
160.3706111206
 20
110.5284651604
 10
160.3577281208
 20
110.5597535827
 10
160.3463505168
 20
110.5928655262
 10
160.3364337529
 20
110.6279888031
 10
160.3279778294
 20
110.6651234136
  0
LWPOLYLINE
  5
6B8
100
AcDbEntity
  8
0
100
AcDbPolyline
 62
7
  6
CONTINUOUS
 90
17
 70
0
 10
165.9281358724
 20
110.3356693627
 10
165.8954188387
 20
110.3389720209
 10
165.8649255517
 20
110.3448688004
 10
165.8360459352
 20
110.3532949895
 10
165.8090367504
 20
110.3638957719
 10
165.784062403
 20
110.3765518214
 10
165.7609584873
 20
110.3913824642
 10
165.7394885472
 20
110.4083908627
 10
165.7196760312
 20
110.4274457323
 10
165.701497491
 20
110.4486783575
 10
165.684646125
 20
110.4724857536
 10
165.6689751107
 20
110.4991880715
 10
165.6546312708
 20
110.5284651604
 10
165.6417482711
 20
110.5597535827
 10
165.630370667
 20
110.5928655262
 10
165.6204539031
 20
110.6279888031
 10
165.6119979796
 20
110.6651234136
  0
LINE
  5
6B9
100
AcDbEntity
  8
0
100
AcDbLine
 62
7
  6
CONTINUOUS
 10
160.142211496
 20
111.4597905065
 11
160.3486185331
 21
111.428829451
  0
LWPOLYLINE
  5
6BA
100
AcDbEntity
  8
0
100
AcDbPolyline
 62
7
  6
CONTINUOUS
 90
10
 70
0
 10
135.6654007951
 20
111.8771198036
 10
135.6397015071
 20
111.8810757788
 10
135.6133802265
 20
111.8844453756
 10
135.5864369533
 20
111.8872285941
 10
135.558846668
 20
111.8893650149
 10
135.5306343901
 20
111.8909150573
 10
135.501875178
 20
111.8920599797
 10
135.4725940513
 20
111.8928602014
 10
135.4427659904
 20
111.893255303
 10
135.4123909954
 20
111.8932452845
  0
LINE
  5
6BB
100
AcDbEntity
  8
0
100
AcDbLine
 62
7
  6
CONTINUOUS
 10
149.6464136586
 20
110.7310769737
 11
149.4193659177
 21
110.7880002456
  0
LINE
  5
6BC
100
AcDbEntity
  8
RACCORDO
100
AcDbLine
 62
250
  6
CONTINUOUS
 10
122.0679479507
 20
151.9858091435
 11
121.9632175611
 21
152.0905395331
  0
LINE
  5
6BD
100
AcDbEntity
  8
0
100
AcDbLine
 62
7
  6
CONTINUOUS
 10
175.7273975611
 20
99.1751552283
 11
177.7121675611
 21
97.1903872283
  0
LINE
  5
6BE
100
AcDbEntity
  8
0
100
AcDbLine
 62
7
  6
CONTINUOUS
 10
172.9057575611
 20
101.9967952283
 11
175.6099015611
 21
99.2926532283
  0
LINE
  5
6BF
100
AcDbEntity
  8
0
100
AcDbLine
 62
7
  6
CONTINUOUS
 10
179.7130975611
 20
95.1894572283
 11
182.6696255611
 21
92.2329272283
  0
LINE
  5
6C0
100
AcDbEntity
  8
0
100
AcDbLine
 62
7
  6
CONTINUOUS
 10
177.8632175611
 20
97.0393372283
 11
179.6145055611
 21
95.2880472283
  0
LINE
  5
6C1
100
AcDbEntity
  8
0
100
AcDbLine
 62
7
  6
CONTINUOUS
 10
182.8206775611
 20
92.3839792283
 11
179.7374015611
 21
95.4672532283
  0
LINE
  5
6C2
100
AcDbEntity
  8
0
100
AcDbLine
 62
7
  6
CONTINUOUS
 10
179.6388095611
 20
95.5658452283
 11
178.0142675611
 21
97.1903872283
  0
LINE
  5
6C3
100
AcDbEntity
  8
0
100
AcDbLine
 62
7
  6
CONTINUOUS
 10
177.8632175611
 20
97.3414372283
 11
175.6984335611
 21
99.5062212283
  0
LINE
  5
6C4
100
AcDbEntity
  8
0
100
AcDbLine
 62
7
  6
CONTINUOUS
 10
175.5809375611
 20
99.6237192283
 11
173.0568095611
 21
102.1478472283
  0
LWPOLYLINE
  5
6C5
100
AcDbEntity
  8
0
100
AcDbPolyline
 62
7
  6
CONTINUOUS
 90
19
 70
0
 10
163.0711757773
 20
110.4710524528
 10
163.0576875752
 20
110.4910194007
 10
163.0453961946
 20
110.5126694289
 10
163.0343016355
 20
110.5360025375
 10
163.0244857631
 20
110.5611558638
 10
163.0158667122
 20
110.5879922705
 10
163.0081988867
 20
110.6161003461
 10
163.0015110569
 20
110.6454754058
 10
162.9957744526
 20
110.6761221343
 10
162.9906571669
 20
110.7076431742
 10
162.9860604186
 20
110.7398912377
 10
162.982082989
 20
110.7730136125
 10
162.9786893155
 20
110.8070548038
 10
162.9758870672
 20
110.8419996509
 10
162.973668575
 20
110.8778633145
 10
162.9719752695
 20
110.9147357809
 10
162.9707876278
 20
110.9526470455
 10
162.9701251727
 20
110.991567113
 10
162.9699879045
 20
111.0314959833
  0
LWPOLYLINE
  5
6C6
100
AcDbEntity
  8
0
100
AcDbPolyline
 62
7
  6
CONTINUOUS
 90
34
 70
0
 10
163.5718741003
 20
111.5899237104
 10
163.5858021715
 20
111.567787321
 10
163.5984753404
 20
111.5439142132
 10
163.6098936071
 20
111.5183043872
 10
163.6199576679
 20
111.4908689875
 10
163.6287668264
 20
111.4616968695
 10
163.6366189934
 20
111.4310545996
 10
163.6435444622
 20
111.3990700529
 10
163.6495129396
 20
111.3656153543
 10
163.6547314568
 20
111.3305734458
 10
163.6592449576
 20
111.293986523
 10
163.6630084983
 20
111.2558123902
 10
163.6660942795
 20
111.2158074025
 10
163.6685145591
 20
111.1732977184
 10
163.6702570793
 20
111.1289571793
 10
163.6713572673
 20
111.0845636645
 10
163.6718068214
 20
111.0402585126
 10
163.6716140433
 20
110.9959003851
 10
163.670839265
 20
110.952843146
 10
163.6695218244
 20
110.911555608
 10
163.6676223837
 20
110.8715689585
 10
163.6650832608
 20
110.8328306236
 10
163.6619199142
 20
110.7953175284
 10
163.6581168854
 20
110.759052748
 10
163.6535701169
 20
110.7240529334
 10
163.6483165421
 20
110.6902953971
 10
163.6423192275
 20
110.6578028267
 10
163.6353633153
 20
110.6266599365
 10
163.6274691693
 20
110.5967726851
 10
163.6186164258
 20
110.568235114
 10
163.6085291357
 20
110.5414140617
 10
163.5971153159
 20
110.5164318076
 10
163.5844669496
 20
110.4931660723
 10
163.5705840366
 20
110.4716168557
  0
LINE
  5
6C7
100
AcDbEntity
  8
DRAFT
100
AcDbLine
 62
7
  6
CONTINUOUS
 10
154.2132175611
 20
128.1660547768
 11
154.5521248339
 21
127.5790501613
  0
LINE
  5
6C8
100
AcDbEntity
  8
DRAFT
100
AcDbLine
 62
7
  6
CONTINUOUS
 10
154.2132175611
 20
128.2882402313
 11
154.6132175611
 21
127.5954199082
  0
LINE
  5
6C9
100
AcDbEntity
  8
0
100
AcDbLine
 62
7
  6
CONTINUOUS
 10
167.6760683507
 20
111.6352364881
 11
168.1670914324
 21
110.1903872283
  0
LINE
  5
6CA
100
AcDbEntity
  8
0
100
AcDbLine
 62
7
  6
CONTINUOUS
 10
168.253651688
 20
110.5215585673
 11
168.2355758996
 21
110.5773270561
  0
LWPOLYLINE
  5
6CB
100
AcDbEntity
  8
0
100
AcDbPolyline
 62
7
  6
CONTINUOUS
 90
3
 70
0
 10
168.2798090131
 20
110.4387207046
 10
168.2712123306
 20
110.4662252025
 10
168.253651688
 20
110.5215585673
  0
LWPOLYLINE
  5
6CC
100
AcDbEntity
  8
0
100
AcDbPolyline
 62
7
  6
CONTINUOUS
 90
14
 70
0
 10
166.5139556105
 20
110.7758993105
 10
166.5060930909
 20
110.8163971175
 10
166.4952456882
 20
110.8535078718
 10
166.4813685334
 20
110.8880149162
 10
166.4647445497
 20
110.9202971413
 10
166.4455428964
 20
110.9503862178
 10
166.4235944142
 20
110.978250475
 10
166.3986745482
 20
111.0041737907
 10
166.3704545335
 20
111.0284949273
 10
166.339263135
 20
111.0508751225
 10
166.3058620927
 20
111.0705819675
 10
166.2705053199
 20
111.087371326
 10
166.2329389032
 20
111.1014873343
 10
166.1931628427
 20
111.1129299924
  0
LWPOLYLINE
  5
6CD
100
AcDbEntity
  8
0
100
AcDbPolyline
 62
7
  6
CONTINUOUS
 90
29
 70
0
 10
165.1910482876
 20
110.8510498021
 10
165.1816945806
 20
110.8998227624
 10
165.1691569163
 20
110.9448913932
 10
165.1532655502
 20
110.9871551685
 10
165.1340295588
 20
111.0273267057
 10
165.1112174801
 20
111.0658133738
 10
165.0850607761
 20
111.1022078039
 10
165.0562629094
 20
111.1360005065
 10
165.0245876264
 20
111.1673808688
 10
164.9902711806
 20
111.1961595036
 10
164.9547257948
 20
111.2212587599
 10
164.9184724368
 20
111.2422503063
 10
164.8809901387
 20
111.2595624742
 10
164.8421282195
 20
111.2734026066
 10
164.8015816406
 20
111.2838834454
 10
164.7596554407
 20
111.2908922488
 10
164.7171140542
 20
111.2942981335
 10
164.673500551
 20
111.2939725633
 10
164.6292718612
 20
111.2900440745
 10
164.5865632107
 20
111.2827673928
 10
164.5460555445
 20
111.2722075171
 10
164.5070679176
 20
111.2582994485
 10
164.4696927201
 20
111.2411029152
 10
164.4339168504
 20
111.2206466959
 10
164.39975341
 20
111.1969020119
 10
164.3673340943
 20
111.1698422552
 10
164.3367028016
 20
111.1394585567
 10
164.3078156336
 20
111.1057597855
 10
164.2806725902
 20
111.0687459417
  0
LWPOLYLINE
  5
6CE
100
AcDbEntity
  8
0
100
AcDbPolyline
 62
7
  6
CONTINUOUS
 90
45
 70
0
 10
165.1682228498
 20
111.4804312102
 10
165.1602267696
 20
111.5280375603
 10
165.1493588298
 20
111.5727425205
 10
165.1356190306
 20
111.6145460908
 10
165.1188531925
 20
111.6534098621
 10
165.0992154949
 20
111.6893722435
 10
165.0771684756
 20
111.7225484621
 10
165.0527973855
 20
111.752942347
 10
165.0260169737
 20
111.7805500691
 10
164.9970340254
 20
111.8054753689
 10
164.965927382
 20
111.827818373
 10
164.932618202
 20
111.8474789549
 10
164.8970767465
 20
111.8642604756
 10
164.8593739816
 20
111.8781822968
 10
164.8194389412
 20
111.8892250569
 10
164.7770289882
 20
111.8971340317
 10
164.7311519929
 20
111.9019537814
 10
164.6828000849
 20
111.9036397458
 10
164.634707016
 20
111.901803521
 10
164.5870478152
 20
111.8962490275
 10
164.5396474534
 20
111.8871723447
 10
164.4947145964
 20
111.8747733063
 10
164.4531911733
 20
111.8591431008
 10
164.4141352549
 20
111.8401905396
 10
164.3769297188
 20
111.8178418908
 10
164.341373498
 20
111.7922557561
 10
164.3076676595
 20
111.7632735338
 10
164.2757982818
 20
111.7303456862
 10
164.2455548872
 20
111.6933129965
 10
164.2171479534
 20
111.6523346814
 10
164.1911949919
 20
111.6073388541
 10
164.1678228527
 20
111.5580971378
 10
164.1469046858
 20
111.5048379092
 10
164.1286774532
 20
111.4481744118
 10
164.1132744414
 20
111.3881259386
 10
164.100562364
 20
111.3246731966
 10
164.0903783231
 20
111.2583715508
 10
164.0827487598
 20
111.1882428619
 10
164.077647233
 20
111.1152652691
 10
164.0748315213
 20
111.0429285557
 10
164.0742261969
 20
110.9715979481
 10
164.0759066876
 20
110.9009082199
 10
164.0798570553
 20
110.8332534755
 10
164.0860056536
 20
110.7694531945
 10
164.094424129
 20
110.7086878974
  0
LINE
  5
6CF
100
AcDbEntity
  8
0
100
AcDbLine
 62
7
  6
CONTINUOUS
 10
175.6099015611
 20
99.2926532283
 11
175.9481575611
 21
95.4263772283
  0
LINE
  5
6D0
100
AcDbEntity
  8
0
100
AcDbLine
 62
7
  6
CONTINUOUS
 10
175.4135696895
 20
101.5367317611
 11
175.4459455611
 21
101.1666752283
  0
LINE
  5
6D1
100
AcDbEntity
  8
0
100
AcDbLine
 62
7
  6
CONTINUOUS
 10
175.4833235611
 20
100.7394392283
 11
175.5809375611
 21
99.6237192283
  0
LINE
  5
6D2
100
AcDbEntity
  8
0
100
AcDbLine
 62
7
  6
CONTINUOUS
 10
175.9724615611
 20
95.1485792283
 11
176.1140835611
 21
93.5298272283
  0
LINE
  5
6D3
100
AcDbEntity
  8
0
100
AcDbLine
 62
7
  6
CONTINUOUS
 10
176.2119555611
 20
93.6366352283
 11
176.0710515611
 21
95.2471712283
  0
LINE
  5
6D4
100
AcDbEntity
  8
0
100
AcDbLine
 62
7
  6
CONTINUOUS
 10
176.0467475611
 20
95.5249692283
 11
175.7273975611
 21
99.1751552283
  0
LINE
  5
6D5
100
AcDbEntity
  8
0
100
AcDbLine
 62
7
  6
CONTINUOUS
 10
175.6984335611
 20
99.5062212283
 11
175.5905415611
 21
100.7394392283
  0
LINE
  5
6D6
100
AcDbEntity
  8
0
100
AcDbLine
 62
7
  6
CONTINUOUS
 10
175.5531635611
 20
101.1666752283
 11
175.5268355651
 21
101.467605183
  0
LWPOLYLINE
  5
6D7
100
AcDbEntity
  8
0
100
AcDbPolyline
 62
7
  6
CONTINUOUS
 90
22
 70
0
 10
174.5184616312
 20
110.7476862285
 10
174.5220108537
 20
110.6959791956
 10
174.5289549742
 20
110.646417453
 10
174.5392939926
 20
110.5990010008
 10
174.5531897436
 20
110.5537030475
 10
174.5704803925
 20
110.5105503845
 10
174.5906804352
 20
110.4696233858
 10
174.6137720633
 20
110.4308039729
 10
174.6397730851
 20
110.3942102243
 10
174.6682514221
 20
110.3602767491
 10
174.6988797617
 20
110.3292256471
 10
174.7319854165
 20
110.3008348184
 10
174.7681182452
 20
110.2748725725
 10
174.8073229161
 20
110.2511736772
 10
174.8495547609
 20
110.2299033646
 10
174.8952296329
 20
110.2113256409
 10
174.9446860725
 20
110.1954361191
 10
174.9975855393
 20
110.1822391861
 10
175.0533282651
 20
110.1720120083
 10
175.111714327
 20
110.1648469745
 10
175.1729436478
 20
110.160651696
 10
175.2370162276
 20
110.1594261727
  0
LWPOLYLINE
  5
6D8
100
AcDbEntity
  8
0
100
AcDbPolyline
 62
7
  6
CONTINUOUS
 90
43
 70
0
 10
174.2910958382
 20
111.0680552982
 10
174.2860241115
 20
111.1492393429
 10
174.2765672254
 20
111.2262049376
 10
174.2627251797
 20
111.2989520825
 10
174.2441027085
 20
111.3675519483
 10
174.2210950778
 20
111.4319333642
 10
174.1948880855
 20
111.4918828177
 10
174.1657962032
 20
111.5471054128
 10
174.1335049594
 20
111.5978960454
 10
174.0982567367
 20
111.6449258911
 10
174.0602327351
 20
111.6882300978
 10
174.0192517547
 20
111.7277735175
 10
173.975012579
 20
111.7641218822
 10
173.927078604
 20
111.7977406973
 10
173.8758864337
 20
111.8281644573
 10
173.8224446629
 20
111.8545623776
 10
173.7672687985
 20
111.8767666954
 10
173.7098433337
 20
111.8949451735
 10
173.6496303424
 20
111.9087703155
 10
173.5854021324
 20
111.9182232111
 10
173.518386396
 20
111.9233227706
 10
173.4517282844
 20
111.9237982289
 10
173.3854415913
 20
111.919360824
 10
173.319512523
 20
111.9102993178
 10
173.2570448499
 20
111.8972092313
 10
173.1994373388
 20
111.8802584974
 10
173.145291223
 20
111.8592791833
 10
173.0935139726
 20
111.8343630113
 10
173.0436647201
 20
111.8054641186
 10
172.9961843332
 20
111.7726283682
 10
172.9513028848
 20
111.7360850707
 10
172.9087824524
 20
111.695685567
 10
172.8688609586
 20
111.6515785163
 10
172.8324822442
 20
111.604439207
 10
172.7999675719
 20
111.5548164265
 10
172.7709956788
 20
111.5021613875
 10
172.7455466175
 20
111.4455030162
 10
172.7234534856
 20
111.3845347095
 10
172.7048831854
 20
111.3195630704
 10
172.6903164757
 20
111.2505368342
 10
172.6799136096
 20
111.1774389126
 10
172.673514334
 20
111.1002863939
 10
172.671118649
 20
111.0190792779
  0
LWPOLYLINE
  5
6D9
100
AcDbEntity
  8
0
100
AcDbPolyline
 62
7
  6
CONTINUOUS
 90
43
 70
0
 10
172.671118649
 20
111.0190792779
 10
172.6743331793
 20
110.94435788
 10
172.6822852851
 20
110.8720780627
 10
172.6949749663
 20
110.8022398261
 10
172.7128658677
 20
110.7342990848
 10
172.7354943445
 20
110.6687999241
 10
172.761469463
 20
110.6073745998
 10
172.7904745818
 20
110.5506109419
 10
172.8228263423
 20
110.4979211202
 10
172.8580837345
 20
110.4491739003
 10
172.8960404032
 20
110.4045237309
 10
172.9369027036
 20
110.3638161632
 10
172.9808486918
 20
110.3264566167
 10
173.0281609601
 20
110.2920450181
 10
173.0785569162
 20
110.2609814407
 10
173.1313668384
 20
110.2338715235
 10
173.1863963614
 20
110.2107624066
 10
173.2438398505
 20
110.1916069499
 10
173.3036106807
 20
110.1768693717
 10
173.3664081942
 20
110.1665759306
 10
173.4315330487
 20
110.160700368
 10
173.4968005917
 20
110.1596281266
 10
173.5622331949
 20
110.163634642
 10
173.6278084866
 20
110.1724444786
 10
173.6912746982
 20
110.1856167722
 10
173.7523910945
 20
110.2033666585
 10
173.8113984106
 20
110.2254790017
 10
173.8667670843
 20
110.2508675307
 10
173.9178749711
 20
110.279230166
 10
173.9653442154
 20
110.310868987
 10
174.0095116884
 20
110.3456039606
 10
174.0502005673
 20
110.3829139128
 10
174.0875876748
 20
110.4233200176
 10
174.1225403509
 20
110.4682057641
 10
174.1557030777
 20
110.5181298738
 10
174.1864313731
 20
110.5725336252
 10
174.2136591306
 20
110.631124343
 10
174.2374119563
 20
110.6938768501
 10
174.2576642441
 20
110.7608163236
 10
174.2732730687
 20
110.8317256196
 10
174.283857455
 20
110.9065323567
 10
174.2897983782
 20
110.9853089163
 10
174.2910958382
 20
111.0680552982
  0
LINE
  5
6DA
100
AcDbEntity
  8
0
100
AcDbLine
 62
7
  6
CONTINUOUS
 10
172.0516007634
 20
91.5298272283
 11
172.0516007634
 21
89.5298272283
  0
LINE
  5
6DB
100
AcDbEntity
  8
0
100
AcDbLine
 62
7
  6
CONTINUOUS
 10
174.6055415611
 20
101.1666752283
 11
174.6055415611
 21
100.7394392283
  0
LINE
  5
6DC
100
AcDbEntity
  8
0
100
AcDbLine
 62
7
  6
CONTINUOUS
 10
175.7270355611
 20
102.0745532283
 11
175.7270355611
 21
101.6564112283
  0
LINE
  5
6DD
100
AcDbEntity
  8
0
100
AcDbLine
 62
7
  6
CONTINUOUS
 10
175.7270355611
 20
101.5431912283
 11
175.7270355611
 21
101.1666752283
  0
LINE
  5
6DE
100
AcDbEntity
  8
0
100
AcDbLine
 62
7
  6
CONTINUOUS
 10
175.8338455611
 20
101.2734852283
 11
175.8338455611
 21
101.5799297687
  0
LINE
  5
6DF
100
AcDbEntity
  8
0
100
AcDbLine
 62
7
  6
CONTINUOUS
 10
175.8338455611
 20
101.6923713562
 11
175.8338455611
 21
101.9677432283
  0
LWPOLYLINE
  5
6E0
100
AcDbEntity
  8
0
100
AcDbPolyline
 62
7
  6
CONTINUOUS
 90
16
 70
0
 10
172.8981663898
 20
111.0163378926
 10
172.8986582674
 20
111.065785913
 10
172.9007646851
 20
111.1136761082
 10
172.9044856429
 20
111.1600084784
 10
172.9097993727
 20
111.2049440759
 10
172.9167276427
 20
111.2483218484
 10
172.9253357573
 20
111.289658638
 10
172.9356996174
 20
111.3288377901
 10
172.947743322
 20
111.3659759593
 10
172.9613044725
 20
111.4009399512
 10
172.9764467366
 20
111.4337134265
 10
172.9931064467
 20
111.4643127244
 10
173.0109302005
 20
111.4926536686
 10
173.0298001975
 20
111.5187082001
 10
173.0498342382
 20
111.5425043779
 10
173.0710323228
 20
111.5640422018
  0
LWPOLYLINE
  5
6E1
100
AcDbEntity
  8
0
100
AcDbPolyline
 62
7
  6
CONTINUOUS
 90
42
 70
0
 10
179.4825508739
 20
110.7880002456
 10
179.4683647664
 20
110.7344537374
 10
179.4516522602
 20
110.6845376398
 10
179.4324133554
 20
110.6382519528
 10
179.4104167246
 20
110.5955261667
 10
179.385893695
 20
110.5564307912
 10
179.3595382493
 20
110.5211773552
 10
179.3316633463
 20
110.4900745294
 10
179.3019560271
 20
110.462813643
 10
179.2701713972
 20
110.438680213
 10
179.2363789089
 20
110.4174650306
 10
179.20050911
 20
110.3993773046
 10
179.1621087489
 20
110.3843301784
 10
179.1207421231
 20
110.3720633916
 10
179.0768449352
 20
110.3628372044
 10
179.0312710412
 20
110.3573455412
 10
178.9834001133
 20
110.3557814948
 10
178.9338524793
 20
110.3579519722
 10
178.8853429794
 20
110.3639716187
 10
178.8381889962
 20
110.3741563133
 10
178.792073147
 20
110.3881901769
 10
178.7487581238
 20
110.4052402186
 10
178.7087956309
 20
110.4251513979
 10
178.6716339639
 20
110.4480787552
 10
178.6373807016
 20
110.4736544209
 10
178.6061819056
 20
110.501620189
 10
178.5778915143
 20
110.5322342655
 10
178.5521789219
 20
110.5659033987
 10
178.5290098226
 20
110.6027687752
 10
178.5084185222
 20
110.6426892085
 10
178.4901773319
 20
110.6856478873
 10
178.4741732811
 20
110.7317418746
 10
178.4605193404
 20
110.7808741075
 10
178.4493267325
 20
110.832736586
 10
178.4404884459
 20
110.8876808167
 10
178.4341114921
 20
110.945355293
 10
178.4306281278
 20
111.0043974951
 10
178.430151133
 20
111.0656145176
 10
178.4325677277
 20
111.1281992658
 10
178.4379718285
 20
111.1883679356
 10
178.4465425206
 20
111.2451185146
 10
178.4581007188
 20
111.2994530153
  0
LWPOLYLINE
  5
6E2
100
AcDbEntity
  8
0
100
AcDbPolyline
 62
7
  6
CONTINUOUS
 90
17
 70
0
 10
178.4581007188
 20
111.2994530153
 10
178.4722030846
 20
111.3505936705
 10
178.4887506164
 20
111.3983806565
 10
178.5078423158
 20
111.4429737971
 10
178.5293318489
 20
111.4840747959
 10
178.5531515173
 20
111.5214456878
 10
178.5793690194
 20
111.5553244378
 10
178.6080411173
 20
111.586126645
 10
178.6389777455
 20
111.6138971556
 10
178.6723689694
 20
111.6385911233
 10
178.7088417477
 20
111.6604896088
 10
178.7487133372
 20
111.6798943677
 10
178.7916664809
 20
111.6965036444
 10
178.8373763663
 20
111.7096932321
 10
178.8857347225
 20
111.7192550619
 10
178.9368498204
 20
111.7253972028
 10
178.9907216599
 20
111.7281196548
  0
LINE
  5
6E3
100
AcDbEntity
  8
0
100
AcDbLine
 62
7
  6
CONTINUOUS
 10
180.0398498741
 20
110.1903872283
 11
180.2193273046
 21
110.7064048211
  0
LINE
  5
6E4
100
AcDbEntity
  8
0
100
AcDbLine
 62
7
  6
CONTINUOUS
 10
180.283990801
 20
110.8921711545
 11
180.4679832969
 21
111.3893218811
  0
LINE
  5
6E5
100
AcDbEntity
  8
0
100
AcDbLine
 62
7
  6
CONTINUOUS
 10
180.4475038511
 20
111.8932452845
 11
179.8002243275
 21
110.1903872283
  0
LWPOLYLINE
  5
6E6
100
AcDbEntity
  8
0
100
AcDbPolyline
 62
7
  6
CONTINUOUS
 90
10
 70
0
 10
180.4679832969
 20
111.3893218811
 10
180.4821810496
 20
111.4243626087
 10
180.4957139686
 20
111.4598011109
 10
180.5085820538
 20
111.4956373876
 10
180.5208031195
 20
111.531916217
 10
180.5323593514
 20
111.568592821
 10
180.5431973071
 20
111.605532865
 10
180.5532991722
 20
111.642691571
 10
180.5626827609
 20
111.6801137169
 10
180.5713480734
 20
111.7177993029
  0
LINE
  5
6E7
100
AcDbEntity
  8
RACCORDO
100
AcDbLine
 62
250
  6
CONTINUOUS
 10
122.9630652563
 20
43.2903872283
 11
123.0677956459
 21
43.3951176178
  0
LINE
  5
6E8
100
AcDbEntity
  8
DRAFT
100
AcDbLine
 62
7
  6
CONTINUOUS
 10
123.3108523664
 20
43.2903872283
 11
123.3632175611
 21
43.342752423
  0
LINE
  5
6E9
100
AcDbEntity
  8
0
100
AcDbLine
 62
7
  6
CONTINUOUS
 10
177.7121675611
 20
97.1903872283
 11
176.0467475611
 21
95.5249692283
  0
LINE
  5
6EA
100
AcDbEntity
  8
0
100
AcDbLine
 62
7
  6
CONTINUOUS
 10
175.9481575611
 20
95.4263772283
 11
172.9057575611
 21
92.3839792283
  0
LINE
  5
6EB
100
AcDbEntity
  8
0
100
AcDbLine
 62
7
  6
CONTINUOUS
 10
180.7271735611
 20
100.2053932283
 11
180.0967835611
 21
99.5750032283
  0
LINE
  5
6EC
100
AcDbEntity
  8
0
100
AcDbLine
 62
7
  6
CONTINUOUS
 10
179.7323755611
 20
99.2105972283
 11
177.8632175611
 21
97.3414372283
  0
LINE
  5
6ED
100
AcDbEntity
  8
0
100
AcDbLine
 62
7
  6
CONTINUOUS
 10
182.6696255611
 20
102.1478472283
 11
180.8339835611
 21
100.3122032283
  0
LINE
  5
6EE
100
AcDbEntity
  8
0
100
AcDbLine
 62
7
  6
CONTINUOUS
 10
179.9792855611
 20
99.4575072283
 11
179.8391855611
 21
99.3174052283
  0
LINE
  5
6EF
100
AcDbEntity
  8
0
100
AcDbLine
 62
7
  6
CONTINUOUS
 10
176.0710515611
 20
95.2471712283
 11
177.8632175611
 21
97.0393372283
  0
LINE
  5
6F0
100
AcDbEntity
  8
0
100
AcDbLine
 62
7
  6
CONTINUOUS
 10
178.0142675611
 20
97.1903872283
 11
179.9503215611
 21
99.1264412283
  0
LINE
  5
6F1
100
AcDbEntity
  8
0
100
AcDbLine
 62
7
  6
CONTINUOUS
 10
180.0679935611
 20
99.2441132283
 11
180.9072755611
 21
100.0833952283
  0
LINE
  5
6F2
100
AcDbEntity
  8
0
100
AcDbLine
 62
7
  6
CONTINUOUS
 10
173.0568095611
 20
92.2329272283
 11
175.9724615611
 21
95.1485792283
  0
LINE
  5
6F3
100
AcDbEntity
  8
0
100
AcDbLine
 62
7
  6
CONTINUOUS
 10
181.0140855611
 20
100.1902032283
 11
182.8206775611
 21
101.9967952283
  0
LINE
  5
6F4
100
AcDbEntity
  8
0
100
AcDbLine
 62
7
  6
CONTINUOUS
 10
149.3780845103
 20
111.3733576582
 11
149.6051322511
 21
111.4256044493
  0
LWPOLYLINE
  5
6F5
100
AcDbEntity
  8
0
100
AcDbPolyline
 62
7
  6
CONTINUOUS
 90
40
 70
0
 10
131.7093197746
 20
110.9644136175
 10
131.7614235223
 20
110.9732076298
 10
131.8106609613
 20
110.9843529143
 10
131.8570320918
 20
110.997849471
 10
131.9007396811
 20
111.0138536719
 10
131.9415809618
 20
111.0322091449
 10
131.9789476317
 20
111.0524467742
 10
132.0124734661
 20
111.074399748
 10
132.0425246897
 20
111.0982348782
 10
132.0695916743
 20
111.1239834844
 10
132.093746585
 20
111.1516332566
 10
132.1149172568
 20
111.1811965048
 10
132.1333775658
 20
111.2127414795
 10
132.1493538287
 20
111.2462604952
 10
132.1626197289
 20
111.2817612374
 10
132.172770193
 20
111.3193350124
 10
132.1797830382
 20
111.3596426308
 10
132.1836804472
 20
111.402023282
 10
132.184123895
 20
111.4445858397
 10
132.1809305493
 20
111.4873258377
 10
132.1742832423
 20
111.5302477421
 10
132.1643919449
 20
111.5714738249
 10
132.1509912751
 20
111.6106931819
 10
132.1343466149
 20
111.6482167173
 10
132.1154640819
 20
111.6830994154
 10
132.0945356076
 20
111.7151532857
 10
132.0713692605
 20
111.7445663187
 10
132.0463953634
 20
111.7709574706
 10
132.0199632371
 20
111.7940378263
 10
131.9917235609
 20
111.814096301
 10
131.9610586951
 20
111.8316185965
 10
131.92771019
 20
111.8466446738
 10
131.8919364953
 20
111.8591345719
 10
131.8538953201
 20
111.8694541093
 10
131.8134289517
 20
111.8774763405
 10
131.7706951028
 20
111.8833282109
 10
131.7263246215
 20
111.8877563751
 10
131.6805277904
 20
111.8910097178
 10
131.6330943268
 20
111.8928393543
 10
131.5840242307
 20
111.8932452845
  0
LINE
  5
6F6
100
AcDbEntity
  8
0
100
AcDbLine
 62
7
  6
CONTINUOUS
 10
133.3402577263
 20
110.7580065803
 11
133.1235303373
 21
110.7476862285
  0
LINE
  5
6F7
100
AcDbEntity
  8
0
100
AcDbLine
 62
7
  6
CONTINUOUS
 10
134.1968469303
 20
111.4081887473
 11
134.4238946712
 21
111.4185090991
  0
LINE
  5
6F8
100
AcDbEntity
  8
0
100
AcDbLine
 62
7
  6
CONTINUOUS
 10
157.6034049394
 20
111.9035656363
 11
157.470369171
 21
111.9035656363
  0
LINE
  5
6F9
100
AcDbEntity
  8
DRAFT
100
AcDbLine
 62
7
  6
CONTINUOUS
 10
162.2230709118
 20
113.7903872283
 11
153.5033642105
 21
113.7903872283
  0
LINE
  5
6FA
100
AcDbEntity
  8
DRAFT
100
AcDbLine
 62
7
  6
CONTINUOUS
 10
162.1881607819
 20
115.7903872283
 11
153.5382743403
 21
115.7903872283
  0
LINE
  5
6FB
100
AcDbEntity
  8
DRAFT
100
AcDbLine
 62
7
  6
CONTINUOUS
 10
121.9632175611
 20
115.9403872283
 11
153.3632175611
 21
115.9403872283
  0
LINE
  5
6FC
100
AcDbEntity
  8
DRAFT
100
AcDbLine
 62
7
  6
CONTINUOUS
 10
162.3632175611
 20
115.9403872283
 11
193.7632175611
 21
115.9403872283
  0
LINE
  5
6FD
100
AcDbEntity
  8
SMUSSO
100
AcDbLine
 62
7
  6
CONTINUOUS
 10
121.993960916
 20
116.0326922963
 11
153.3632175611
 21
116.0326922963
  0
LINE
  5
6FE
100
AcDbEntity
  8
SMUSSO
100
AcDbLine
 62
7
  6
CONTINUOUS
 10
162.3632175611
 20
116.0326922963
 11
193.7324742063
 21
116.0326922963
  0
LWPOLYLINE
  5
6FF
100
AcDbEntity
  8
0
100
AcDbPolyline
 62
7
  6
CONTINUOUS
 90
40
 70
0
 10
171.8013066073
 20
111.6971585992
 10
171.8362075115
 20
111.6965847924
 10
171.8697166783
 20
111.6943972851
 10
171.9018341077
 20
111.6905960773
 10
171.9327886226
 20
111.6851585682
 10
171.9623514001
 20
111.6781073586
 10
171.9898359722
 20
111.6695102507
 10
172.01495493
 20
111.6593910369
 10
172.0379956824
 20
111.6477259248
 10
172.0591339877
 20
111.6345113387
 10
172.078384143
 20
111.6197362868
 10
172.0957318512
 20
111.6034117609
 10
172.1113099802
 20
111.5855671604
 10
172.1252895498
 20
111.5660952562
 10
172.1374995402
 20
111.5451032774
 10
172.1475597597
 20
111.5229423107
 10
172.1554235739
 20
111.4995736787
 10
172.1611376172
 20
111.4750360586
 10
172.1644616017
 20
111.4497965699
 10
172.1653139286
 20
111.423589854
 10
172.1637761967
 20
111.3966812694
 10
172.1598529143
 20
111.3703340102
 10
172.1533850839
 20
111.3446210478
 10
172.1445317031
 20
111.3194694108
 10
172.1337742733
 20
111.2959233794
 10
172.1212792678
 20
111.2743247989
 10
172.1068802133
 20
111.2543318241
 10
172.0905591907
 20
111.235963199
 10
172.0723946609
 20
111.2192346855
 10
172.0523081631
 20
111.2041305217
 10
172.0300463959
 20
111.1906221668
 10
172.0053670571
 20
111.1786760448
 10
171.9785124488
 20
111.1683257315
 10
171.9499561757
 20
111.1596434139
 10
171.9197341085
 20
111.1527591614
 10
171.8878103764
 20
111.1475429046
 10
171.8545509723
 20
111.1436766221
 10
171.8200778938
 20
111.1410543067
 10
171.7842691432
 20
111.1397819657
 10
171.2675507966
 20
111.139859599
  0
LWPOLYLINE
  5
700
100
AcDbEntity
  8
0
100
AcDbPolyline
 62
7
  6
CONTINUOUS
 90
19
 70
0
 10
175.1883171115
 20
111.7281196548
 10
175.2271213182
 20
111.7273745119
 10
175.2642309029
 20
111.7247096547
 10
175.2996458654
 20
111.7201250831
 10
175.3336150546
 20
111.7135899449
 10
175.3658896218
 20
111.7051350924
 10
175.3957230208
 20
111.6948530824
 10
175.4227414234
 20
111.6828295974
 10
175.447318658
 20
111.6689789548
 10
175.4698296638
 20
111.6531366643
 10
175.4901975032
 20
111.6354261295
 10
175.5084991138
 20
111.6157239467
 10
175.5253402474
 20
111.5934954141
 10
175.5411135735
 20
111.5684812876
 10
175.5554264226
 20
111.5409408113
 10
175.5677065379
 20
111.511117016
 10
175.5777631671
 20
111.479090912
 10
175.5857870626
 20
111.4447814891
 10
175.5917782242
 20
111.4081887473
  0
LWPOLYLINE
  5
701
100
AcDbEntity
  8
0
100
AcDbPolyline
 62
7
  6
CONTINUOUS
 90
19
 70
0
 10
178.9907216599
 20
111.7281196548
 10
179.0314658795
 20
111.7263100505
 10
179.0702318402
 20
111.7222110598
 10
179.1070195419
 20
111.7158226827
 10
179.1419663027
 20
111.7069553477
 10
179.1749348045
 20
111.6957986263
 10
179.2055130932
 20
111.6829212331
 10
179.2333015474
 20
111.6685907574
 10
179.2586997884
 20
111.6525396099
 10
179.2824947257
 20
111.6345337382
 10
179.3047380558
 20
111.6146690382
 10
179.3253780822
 20
111.592849614
 10
179.3450466251
 20
111.5685537248
 10
179.3640524731
 20
111.5414730679
 10
179.3820868378
 20
111.511915946
 10
179.3988551739
 20
111.4802855273
 10
179.4142592999
 20
111.4467162011
 10
179.4283973974
 20
111.411073578
 10
179.4412694664
 20
111.3733576582
  0
LINE
  5
702
100
AcDbEntity
  8
0
100
AcDbLine
 62
7
  6
CONTINUOUS
 10
165.4262316462
 20
111.4597905065
 11
165.6326386833
 21
111.428829451
  0
LWPOLYLINE
  5
703
100
AcDbEntity
  8
0
100
AcDbPolyline
 62
7
  6
CONTINUOUS
 90
16
 70
0
 10
175.2024268679
 20
111.1953315493
 10
175.1746361494
 20
111.2019961844
 10
175.1476415938
 20
111.2087742172
 10
175.1214432011
 20
111.2156656478
 10
175.0960825872
 20
111.2226640834
 10
175.0715181363
 20
111.2297759168
 10
175.047625001
 20
111.237020326
 10
175.0243162936
 20
111.2443424099
 10
175.0016789018
 20
111.2517970697
 10
174.979848642
 20
111.2595681857
 10
174.9586542961
 20
111.2675438117
 10
174.9382670821
 20
111.275835894
 10
174.9193364706
 20
111.2849641527
 10
174.9020789518
 20
111.295101828
 10
174.8862780355
 20
111.3060756797
 10
174.8719337216
 20
111.3178857079
  0
LINE
  5
704
100
AcDbEntity
  8
0
100
AcDbLine
 62
7
  6
CONTINUOUS
 10
179.7095986147
 20
110.7310769737
 11
179.4825508739
 21
110.7880002456
  0
LWPOLYLINE
  5
705
100
AcDbEntity
  8
0
100
AcDbPolyline
 62
7
  6
CONTINUOUS
 90
3
 70
0
 10
175.1509863666
 20
110.9738471293
 10
175.2212689142
 20
110.956011511
 10
175.3223604648
 20
110.9300236952
  0
LWPOLYLINE
  5
706
100
AcDbEntity
  8
0
100
AcDbPolyline
 62
7
  6
CONTINUOUS
 90
5
 70
0
 10
175.3223604648
 20
110.9300236952
 10
175.3546258653
 20
110.9209571213
 10
175.3859449485
 20
110.9111817866
 10
175.4164041241
 20
110.9008877323
 10
175.446003392
 20
110.8900749585
  0
LINE
  5
707
100
AcDbEntity
  8
RACCORDO
100
AcDbLine
 62
250
  6
CONTINUOUS
 10
123.0677956459
 20
152.9856568387
 11
122.9630652563
 21
153.0903872283
  0
LINE
  5
708
100
AcDbEntity
  8
0
100
AcDbLine
 62
7
  6
CONTINUOUS
 10
170.8381274676
 20
110.1903872283
 11
170.1560166974
 21
111.8932452845
  0
LINE
  5
709
100
AcDbEntity
  8
0
100
AcDbLine
 62
7
  6
CONTINUOUS
 10
170.262104186
 20
111.0858967606
 11
170.3382355132
 21
110.8921711545
  0
LINE
  5
70A
100
AcDbEntity
  8
0
100
AcDbLine
 62
7
  6
CONTINUOUS
 10
170.4067690431
 20
110.7064048211
 11
170.596727926
 21
110.1903872283
  0
LINE
  5
70B
100
AcDbEntity
  8
0
100
AcDbLine
 62
7
  6
CONTINUOUS
 10
168.2171376173
 20
110.6335148771
 11
167.7950749917
 21
111.8932452845
  0
LINE
  5
70C
100
AcDbEntity
  8
0
100
AcDbLine
 62
7
  6
CONTINUOUS
 10
168.2355758996
 20
110.5773270561
 11
168.2171376173
 21
110.6335148771
  0
LWPOLYLINE
  5
70D
100
AcDbEntity
  8
0
100
AcDbPolyline
 62
7
  6
CONTINUOUS
 90
6
 70
0
 10
170.0342688286
 20
111.7177993029
 10
170.0605967833
 20
111.6320722262
 10
170.0891283866
 20
111.5448225158
 10
170.1198636385
 20
111.4560501719
 10
170.1532586967
 20
111.3657281443
 10
170.262104186
 20
111.0858967606
  0
LWPOLYLINE
  5
70E
100
AcDbEntity
  8
0
100
AcDbPolyline
 62
7
  6
CONTINUOUS
 90
41
 70
0
 10
175.818825965
 20
111.4185090991
 10
175.8146294232
 20
111.4657053126
 10
175.8070338025
 20
111.5110384143
 10
175.7960391029
 20
111.5545084045
 10
175.7814424887
 20
111.5963958779
 10
175.7634467956
 20
111.6364202397
 10
175.7426605309
 20
111.6737397048
 10
175.7193605652
 20
111.7079649145
 10
175.6932700278
 20
111.7394852276
 10
175.6641668147
 20
111.7686269348
 10
175.6321033605
 20
111.7954868812
 10
175.5970272305
 20
111.8199682218
 10
175.5585590168
 20
111.8421067129
 10
175.5164848331
 20
111.8620757958
 10
175.4710185657
 20
111.8797020293
 10
175.422422465
 20
111.8945008459
 10
175.3701793605
 20
111.9064503571
 10
175.3148064228
 20
111.9155724515
 10
175.2581174139
 20
111.921448227
 10
175.1994292855
 20
111.9239138056
 10
175.139425086
 20
111.9231330654
 10
175.081967722
 20
111.9191787391
 10
175.0281892144
 20
111.9118817696
 10
174.9769575424
 20
111.901411214
 10
174.928739551
 20
111.8883469761
 10
174.8836080679
 20
111.8727561111
 10
174.8414902653
 20
111.8545715638
 10
174.8026345049
 20
111.8341720728
 10
174.7672226886
 20
111.811698864
 10
174.7350729145
 20
111.7870107115
 10
174.7058878375
 20
111.7600626762
 10
174.6795629915
 20
111.7307462483
 10
174.6562028425
 20
111.6991699377
 10
174.6358234447
 20
111.6656143349
 10
174.6182650295
 20
111.6296760535
 10
174.6036873654
 20
111.59175848
 10
174.5925858116
 20
111.553352365
 10
174.5851468437
 20
111.5144762073
 10
174.5811839861
 20
111.475111508
 10
174.580633171
 20
111.4366935213
 10
174.58358808
 20
111.3995283064
  0
LINE
  5
70F
100
AcDbEntity
  8
0
100
AcDbLine
 62
7
  6
CONTINUOUS
 10
176.0458737059
 20
111.8932452845
 11
176.0458737059
 21
111.6971585992
  0
LINE
  5
710
100
AcDbEntity
  8
0
100
AcDbLine
 62
7
  6
CONTINUOUS
 10
176.1140835611
 20
93.5298272283
 11
176.1140835611
 21
92.6753532283
  0
LINE
  5
711
100
AcDbEntity
  8
0
100
AcDbLine
 62
7
  6
CONTINUOUS
 10
176.1542715611
 20
101.9677432283
 11
176.1542715611
 21
101.7862192283
  0
LINE
  5
712
100
AcDbEntity
  8
0
100
AcDbLine
 62
7
  6
CONTINUOUS
 10
176.1542715611
 20
101.6757632283
 11
176.1542715611
 21
101.2734852283
  0
LINE
  5
713
100
AcDbEntity
  8
0
100
AcDbLine
 62
7
  6
CONTINUOUS
 10
176.2610815611
 20
101.1666752283
 11
176.2610815611
 21
101.7030580575
  0
LINE
  5
714
100
AcDbEntity
  8
0
100
AcDbLine
 62
7
  6
CONTINUOUS
 10
176.2610815611
 20
101.8129589183
 11
176.2610815611
 21
102.0745532283
  0
LINE
  5
715
100
AcDbEntity
  8
0
100
AcDbLine
 62
7
  6
CONTINUOUS
 10
176.2742975611
 20
92.8355672283
 11
176.2742975611
 21
93.4764212283
  0
LINE
  5
716
100
AcDbEntity
  8
0
100
AcDbLine
 62
7
  6
CONTINUOUS
 10
176.5947235611
 20
93.4764212283
 11
176.5947235611
 21
92.8355672283
  0
LINE
  5
717
100
AcDbEntity
  8
0
100
AcDbLine
 62
7
  6
CONTINUOUS
 10
176.6031727061
 20
111.6971585992
 11
176.6031727061
 21
110.1903872283
  0
LINE
  5
718
100
AcDbEntity
  8
0
100
AcDbLine
 62
7
  6
CONTINUOUS
 10
176.7549375611
 20
92.6753532283
 11
176.7549375611
 21
93.5298272283
  0
LINE
  5
719
100
AcDbEntity
  8
0
100
AcDbLine
 62
7
  6
CONTINUOUS
 10
176.8302204469
 20
110.1903872283
 11
176.8302204469
 21
111.6971585992
  0
LINE
  5
71A
100
AcDbEntity
  8
0
100
AcDbLine
 62
7
  6
CONTINUOUS
 10
177.1689575611
 20
99.1373032283
 11
177.1689575611
 21
98.6032572283
  0
LINE
  5
71B
100
AcDbEntity
  8
0
100
AcDbLine
 62
7
  6
CONTINUOUS
 10
177.2757675611
 20
98.7100672283
 11
177.2757675611
 21
99.0304952283
  0
LINE
  5
71C
100
AcDbEntity
  8
0
100
AcDbLine
 62
7
  6
CONTINUOUS
 10
177.3825775611
 20
102.2347672283
 11
177.3825775611
 21
101.9646272283
  0
LINE
  5
71D
100
AcDbEntity
  8
0
100
AcDbLine
 62
7
  6
CONTINUOUS
 10
177.3825775611
 20
101.8577592283
 11
177.3825775611
 21
101.5939132283
  0
LINE
  5
71E
100
AcDbEntity
  8
0
100
AcDbLine
 62
7
  6
CONTINUOUS
 10
177.3875194471
 20
111.6971585992
 11
177.3875194471
 21
111.8932452845
  0
LINE
  5
71F
100
AcDbEntity
  8
0
100
AcDbLine
 62
7
  6
CONTINUOUS
 10
177.4893855611
 20
101.7007212283
 11
177.4893855611
 21
101.8603503169
  0
LINE
  5
720
100
AcDbEntity
  8
0
100
AcDbLine
 62
7
  6
CONTINUOUS
 10
177.4893855611
 20
101.9671709433
 11
177.4893855611
 21
102.1279572283
  0
LINE
  5
721
100
AcDbEntity
  8
0
100
AcDbLine
 62
7
  6
CONTINUOUS
 10
177.6455282435
 20
111.8932452845
 11
177.6455282435
 21
110.1903872283
  0
LINE
  5
722
100
AcDbEntity
  8
0
100
AcDbLine
 62
7
  6
CONTINUOUS
 10
177.8725759843
 20
110.1903872283
 11
177.8725759843
 21
111.8932452845
  0
LINE
  5
723
100
AcDbEntity
  8
0
100
AcDbLine
 62
7
  6
CONTINUOUS
 10
178.7176895611
 20
102.1279572283
 11
178.7176895611
 21
101.8489312283
  0
LINE
  5
724
100
AcDbEntity
  8
0
100
AcDbLine
 62
7
  6
CONTINUOUS
 10
178.7176895611
 20
101.7397632283
 11
178.7176895611
 21
101.7007212283
  0
LINE
  5
725
100
AcDbEntity
  8
0
100
AcDbLine
 62
7
  6
CONTINUOUS
 10
178.8244995611
 20
101.5939132283
 11
178.8244995611
 21
101.7158530801
  0
LINE
  5
726
100
AcDbEntity
  8
0
100
AcDbLine
 62
7
  6
CONTINUOUS
 10
178.8244995611
 20
101.8254985996
 11
178.8244995611
 21
102.2347672283
  0
LINE
  5
727
100
AcDbEntity
  8
0
100
AcDbLine
 62
7
  6
CONTINUOUS
 10
178.9313075611
 20
99.0304952283
 11
178.9313075611
 21
98.7100672283
  0
LINE
  5
728
100
AcDbEntity
  8
0
100
AcDbLine
 62
7
  6
CONTINUOUS
 10
179.0381175611
 20
98.6032572283
 11
179.0381175611
 21
99.1373032283
  0
LINE
  5
729
100
AcDbEntity
  8
0
100
AcDbLine
 62
7
  6
CONTINUOUS
 10
179.7323755611
 20
100.3122032283
 11
179.7323755611
 21
99.2105972283
  0
LINE
  5
72A
100
AcDbEntity
  8
0
100
AcDbLine
 62
7
  6
CONTINUOUS
 10
179.8391855611
 20
99.3174052283
 11
179.8391855611
 21
100.2053932283
  0
LINE
  5
72B
100
AcDbEntity
  8
0
100
AcDbLine
 62
7
  6
CONTINUOUS
 10
180.0914415611
 20
100.7394392283
 11
180.0540615611
 21
100.3122032283
  0
LINE
  5
72C
100
AcDbEntity
  8
0
100
AcDbLine
 62
7
  6
CONTINUOUS
 10
180.0447175611
 20
100.2053932283
 11
179.9792855611
 21
99.4575072283
  0
LINE
  5
72D
100
AcDbEntity
  8
0
100
AcDbLine
 62
7
  6
CONTINUOUS
 10
179.9503215611
 20
99.1264412283
 11
179.6388095611
 21
95.5658452283
  0
LINE
  5
72E
100
AcDbEntity
  8
0
100
AcDbLine
 62
7
  6
CONTINUOUS
 10
179.6145055611
 20
95.2880472283
 11
179.5468075611
 21
94.5142552283
  0
LINE
  5
72F
100
AcDbEntity
  8
0
100
AcDbLine
 62
7
  6
CONTINUOUS
 10
179.6526775014
 20
94.4988445452
 11
179.7130975611
 21
95.1894572283
  0
LINE
  5
730
100
AcDbEntity
  8
0
100
AcDbLine
 62
7
  6
CONTINUOUS
 10
179.7374015611
 20
95.4672532283
 11
180.0584895611
 21
99.1373032283
  0
LINE
  5
731
100
AcDbEntity
  8
0
100
AcDbLine
 62
7
  6
CONTINUOUS
 10
180.0967835611
 20
99.5750032283
 11
180.1519355611
 21
100.2053932283
  0
LINE
  5
732
100
AcDbEntity
  8
0
100
AcDbLine
 62
7
  6
CONTINUOUS
 10
180.1612795611
 20
100.3122032283
 11
180.1986575611
 21
100.7394392283
  0
LWPOLYLINE
  5
733
100
AcDbEntity
  8
0
100
AcDbPolyline
 62
7
  6
CONTINUOUS
 90
9
 70
0
 10
182.9235203308
 20
110.6279622344
 10
182.9120489168
 20
110.5967193394
 10
182.9009394383
 20
110.5655895996
 10
182.8901940334
 20
110.5345683337
 10
182.879810564
 20
110.5036602229
 10
182.8697826156
 20
110.4728793113
 10
182.86010805
 20
110.4422302804
 10
182.8507890053
 20
110.4117084487
 10
182.8418254817
 20
110.3813138163
  0
LINE
  5
734
100
AcDbEntity
  8
0
100
AcDbLine
 62
7
  6
CONTINUOUS
 10
183.4042845791
 20
111.8932452845
 11
182.9235203308
 21
110.6279622344
  0
LINE
  5
735
100
AcDbEntity
  8
0
100
AcDbLine
 62
7
  6
CONTINUOUS
 10
182.9679273154
 20
110.1903872283
 11
183.6471354424
 21
111.8932452845
  0
LWPOLYLINE
  5
736
100
AcDbEntity
  8
0
100
AcDbPolyline
 62
7
  6
CONTINUOUS
 90
4
 70
0
 10
191.2433981821
 20
111.8932452845
 10
190.8442087557
 20
111.2756411483
 10
190.7873097994
 20
111.1876422322
 10
190.7304444906
 20
111.0997069973
  0
LINE
  5
737
100
AcDbEntity
  8
0
100
AcDbLine
 62
7
  6
CONTINUOUS
 10
190.836227979
 20
110.9116832099
 11
191.5173712015
 21
111.8932452845
  0
LINE
  5
738
100
AcDbEntity
  8
0
100
AcDbLine
 62
7
  6
CONTINUOUS
 10
182.6696255611
 20
92.2329272283
 11
182.8206775611
 21
92.3839792283
  0
LINE
  5
739
100
AcDbEntity
  8
SMUSSO
100
AcDbLine
 62
7
  6
CONTINUOUS
 10
122.0068552235
 20
116.7714066765
 11
153.3632175611
 21
116.7714066765
  0
LINE
  5
73A
100
AcDbEntity
  8
SMUSSO
100
AcDbLine
 62
7
  6
CONTINUOUS
 10
162.3632175611
 20
116.7714066765
 11
193.7195798988
 21
116.7714066765
  0
LINE
  5
73B
100
AcDbEntity
  8
DRAFT
100
AcDbLine
 62
7
  6
CONTINUOUS
 10
154.5521248339
 20
117.4903872283
 11
161.1743102884
 21
117.4903872283
  0
LINE
  5
73C
100
AcDbEntity
  8
DRAFT
100
AcDbLine
 62
7
  6
CONTINUOUS
 10
122.0068552235
 20
118.5714066765
 11
153.3632175611
 21
118.5714066765
  0
LINE
  5
73D
100
AcDbEntity
  8
DRAFT
100
AcDbLine
 62
7
  6
CONTINUOUS
 10
162.3632175611
 20
118.5714066765
 11
193.7195798988
 21
118.5714066765
  0
LINE
  5
73E
100
AcDbEntity
  8
DRAFT
100
AcDbLine
 62
7
  6
CONTINUOUS
 10
122.0679479507
 20
118.754833904
 11
153.3632175611
 21
118.754833904
  0
LINE
  5
73F
100
AcDbEntity
  8
DRAFT
100
AcDbLine
 62
7
  6
CONTINUOUS
 10
162.3632175611
 20
118.754833904
 11
193.6584871716
 21
118.754833904
  0
LINE
  5
740
100
AcDbEntity
  8
0
100
AcDbLine
 62
7
  6
CONTINUOUS
 10
162.3632175611
 20
119.4403872283
 11
161.5132175611
 21
119.4403872283
  0
LINE
  5
741
100
AcDbEntity
  8
0
100
AcDbLine
 62
7
  6
CONTINUOUS
 10
161.0992535092
 20
119.4403872283
 11
161.0132175611
 21
119.4403872283
  0
LINE
  5
742
100
AcDbEntity
  8
0
100
AcDbLine
 62
7
  6
CONTINUOUS
 10
154.7132175611
 20
119.4403872283
 11
154.6271816131
 21
119.4403872283
  0
LINE
  5
743
100
AcDbEntity
  8
0
100
AcDbLine
 62
7
  6
CONTINUOUS
 10
154.2132175611
 20
119.4403872283
 11
153.3632175611
 21
119.4403872283
  0
LINE
  5
744
100
AcDbEntity
  8
RACCORDO
100
AcDbLine
 62
250
  6
CONTINUOUS
 10
154.6271816131
 20
120.3506559195
 11
154.7132175611
 21
120.3506559195
  0
LINE
  5
745
100
AcDbEntity
  8
RACCORDO
100
AcDbLine
 62
250
  6
CONTINUOUS
 10
161.0132175611
 20
120.3506559195
 11
161.0992535092
 21
120.3506559195
  0
LINE
  5
746
100
AcDbEntity
  8
RACCORDO
100
AcDbLine
 62
250
  6
CONTINUOUS
 10
154.6271816131
 20
120.5590534306
 11
154.7132175611
 21
120.5590534306
  0
LINE
  5
747
100
AcDbEntity
  8
RACCORDO
100
AcDbLine
 62
250
  6
CONTINUOUS
 10
161.0132175611
 20
120.5590534306
 11
161.0992535092
 21
120.5590534306
  0
LWPOLYLINE
  5
748
100
AcDbEntity
  8
0
100
AcDbPolyline
 62
7
  6
CONTINUOUS
 90
10
 70
0
 10
175.5712987784
 20
111.0861616437
 10
175.5358762707
 20
111.1003966093
 10
175.4990137978
 20
111.1140240619
 10
175.4607113595
 20
111.1270440016
 10
175.4209034223
 20
111.1393480696
 10
175.3796555197
 20
111.1510446247
 10
175.3371642529
 20
111.1624587426
 10
175.2934951555
 20
111.173698782
 10
175.2485826939
 20
111.1846563842
 10
175.2024268679
 20
111.1953315493
  0
LWPOLYLINE
  5
749
100
AcDbEntity
  8
0
100
AcDbPolyline
 62
7
  6
CONTINUOUS
 90
39
 70
0
 10
175.446003392
 20
110.8900749585
 10
175.4716793835
 20
110.8793484996
 10
175.4954992239
 20
110.8677339987
 10
175.5174629131
 20
110.8552314558
 10
175.5375763596
 20
110.8419865412
 10
175.5558336549
 20
110.8278535845
 10
175.5722170741
 20
110.8123955748
 10
175.5867410614
 20
110.7955548222
 10
175.5993911725
 20
110.7773890166
 10
175.6101063501
 20
110.7576342155
 10
175.6190126012
 20
110.7359875926
 10
175.6259839189
 20
110.7127519743
 10
175.6305812241
 20
110.688571897
 10
175.6327063343
 20
110.6632402155
 10
175.6324574321
 20
110.636964075
 10
175.6296899867
 20
110.6110094475
 10
175.624293329
 20
110.5855011235
 10
175.6163781281
 20
110.5603143126
 10
175.6061318599
 20
110.5363406155
 10
175.5936386462
 20
110.5138432173
 10
175.5788143653
 20
110.4925589329
 10
175.5615941276
 20
110.4725898076
 10
175.5419580943
 20
110.4539306093
 10
175.5199261042
 20
110.4365865702
 10
175.4954927847
 20
110.4206754318
 10
175.4684962893
 20
110.4060762295
 10
175.4390984645
 20
110.3929099279
 10
175.4077794772
 20
110.3816571627
 10
175.3746686957
 20
110.3724266129
 10
175.3396367517
 20
110.3651095994
 10
175.3027757075
 20
110.3598607219
 10
175.2637565793
 20
110.3565458736
 10
175.2229083509
 20
110.3552991612
 10
175.1813100351
 20
110.3566775035
 10
175.1383904797
 20
110.3609062129
 10
175.0947208368
 20
110.3677599769
 10
175.0530935763
 20
110.3771197779
 10
175.0142001108
 20
110.3892014482
 10
174.9773490277
 20
110.4037891554
  0
LWPOLYLINE
  5
74A
100
AcDbEntity
  8
0
100
AcDbPolyline
 62
7
  6
CONTINUOUS
 90
10
 70
0
 10
174.8267822807
 20
111.0808401311
 10
174.8574756526
 20
111.0665766051
 10
174.8895533136
 20
111.05297933
 10
174.9230152638
 20
111.0400483058
 10
174.9579307873
 20
111.0278800624
 10
174.9942305999
 20
111.0163780699
 10
175.0317068494
 20
111.0052527392
 10
175.0702902516
 20
110.9944075407
 10
175.1100500907
 20
110.9839390041
 10
175.1509863666
 20
110.9738471293
  0
LWPOLYLINE
  5
74B
100
AcDbEntity
  8
0
100
AcDbPolyline
 62
7
  6
CONTINUOUS
 90
14
 70
0
 10
174.9773490277
 20
110.4037891554
 10
174.9432585588
 20
110.4201163839
 10
174.9121697438
 20
110.4379848046
 10
174.8838415429
 20
110.4575927467
 10
174.8582690685
 20
110.4787686827
 10
174.8356338307
 20
110.5012217729
 10
174.8157543193
 20
110.5252428569
 10
174.7980811158
 20
110.5515329262
 10
174.7825083586
 20
110.5803374011
 10
174.7691419094
 20
110.6114108612
 10
174.7577499343
 20
110.6447180362
 10
174.7482551554
 20
110.6802471694
 10
174.7407348507
 20
110.7180100174
 10
174.7351890202
 20
110.7580065803
  0
LWPOLYLINE
  5
74C
100
AcDbEntity
  8
0
100
AcDbPolyline
 62
7
  6
CONTINUOUS
 90
10
 70
0
 10
172.0468986984
 20
110.8770132213
 10
172.0351337799
 20
110.8877336108
 10
172.0226837098
 20
110.8981880143
 10
172.0095484881
 20
110.9083764316
 10
171.9956887952
 20
110.9182806262
 10
171.9811439506
 20
110.9279188348
 10
171.9660319134
 20
110.9373457672
 10
171.9503920032
 20
110.9465796601
 10
171.9341849005
 20
110.9556022768
 10
171.9174106051
 20
110.9644136175
  0
LINE
  5
74D
100
AcDbEntity
  8
0
100
AcDbLine
 62
7
  6
CONTINUOUS
 10
182.8206775611
 20
101.9967952283
 11
182.6696255611
 21
102.1478472283
  0
LWPOLYLINE
  5
74E
100
AcDbEntity
  8
0
100
AcDbPolyline
 62
7
  6
CONTINUOUS
 90
28
 70
0
 10
174.8719337216
 20
111.3178857079
 10
174.8572798181
 20
111.3328443488
 10
174.8444834702
 20
111.3488609851
 10
174.8335446781
 20
111.3659356167
 10
174.8244084326
 20
111.3840901949
 10
174.8171297429
 20
111.4033027684
 10
174.811873636
 20
111.4235074837
 10
174.8086584517
 20
111.4450491489
 10
174.8074658503
 20
111.4675829559
 10
174.8084058392
 20
111.4900086263
 10
174.8115294801
 20
111.5122022978
 10
174.8167857115
 20
111.5342878328
 10
174.8241313564
 20
111.5555365404
 10
174.8334886772
 20
111.5757172587
 10
174.8449354115
 20
111.5950611497
 10
174.8586615958
 20
111.6135330078
 10
174.8747266681
 20
111.6313089806
 10
174.8930711903
 20
111.6482129206
 10
174.9137068848
 20
111.66368118
 10
174.9367650702
 20
111.6776396163
 10
174.9621144279
 20
111.690162372
 10
174.9893727248
 20
111.7009082265
 10
175.0185580554
 20
111.7097362671
 10
175.0496523252
 20
111.7167874065
 10
175.0822190174
 20
111.7221431632
 10
175.1161126264
 20
111.7258307098
 10
175.1514786578
 20
111.7278228737
 10
175.1883171115
 20
111.7281196548
  0
LWPOLYLINE
  5
74F
100
AcDbEntity
  8
0
100
AcDbPolyline
 62
7
  6
CONTINUOUS
 90
5
 70
0
 10
172.2564987205
 20
110.6095289342
 10
172.2064207289
 20
110.6843401144
 10
172.1543877238
 20
110.7534342435
 10
172.1012137136
 20
110.8176586125
 10
172.0468986984
 20
110.8770132213
  0
LINE
  5
750
100
AcDbEntity
  8
0
100
AcDbLine
 62
7
  6
CONTINUOUS
 10
172.0061590763
 20
110.5767292777
 11
172.2499193184
 21
110.1903872283
  0
LINE
  5
751
100
AcDbEntity
  8
0
100
AcDbLine
 62
7
  6
CONTINUOUS
 10
172.5166358871
 20
110.1903872283
 11
172.3556737145
 21
110.4478391657
  0
LINE
  5
752
100
AcDbEntity
  8
0
100
AcDbLine
 62
7
  6
CONTINUOUS
 10
172.3556737145
 20
110.4478391657
 11
172.2564987205
 21
110.6095289342
  0
LINE
  5
753
100
AcDbEntity
  8
DRAFT
100
AcDbLine
 62
7
  6
CONTINUOUS
 10
161.5132175611
 20
131.4925342253
 11
161.1132175611
 21
132.1853545483
  0
LINE
  5
754
100
AcDbEntity
  8
DRAFT
100
AcDbLine
 62
7
  6
CONTINUOUS
 10
161.1743102884
 20
132.2017242952
 11
161.5132175611
 21
131.6147196798
  0
LWPOLYLINE
  5
755
100
AcDbEntity
  8
0
100
AcDbPolyline
 62
7
  6
CONTINUOUS
 90
12
 70
0
 10
174.58358808
 20
111.3995283064
 10
174.5899550315
 20
111.3633098041
 10
174.5993889137
 20
111.3285550907
 10
174.611732788
 20
111.2954594216
 10
174.627143593
 20
111.2638275414
 10
174.6457470325
 20
111.2335907604
 10
174.6675065679
 20
111.2047443171
 10
174.6924587379
 20
111.1772929728
 10
174.7208388621
 20
111.1511823226
 10
174.7527253806
 20
111.1263942314
 10
174.7880398535
 20
111.1029468343
 10
174.8267822807
 20
111.0808401311
  0
LINE
  5
756
100
AcDbEntity
  8
DRAFT
100
AcDbLine
 62
7
  6
CONTINUOUS
 10
180.3632175611
 20
82.2403872283
 11
180.3632175611
 21
80.1727475014
  0
LINE
  5
757
100
AcDbEntity
  8
0
100
AcDbLine
 62
7
  6
CONTINUOUS
 10
180.5334435611
 20
100.7394392283
 11
180.5334435611
 21
100.8738412283
  0
LINE
  5
758
100
AcDbEntity
  8
0
100
AcDbLine
 62
7
  6
CONTINUOUS
 10
180.9072755611
 20
100.0833952283
 11
180.9072755611
 21
99.2441132283
  0
LINE
  5
759
100
AcDbEntity
  8
0
100
AcDbLine
 62
7
  6
CONTINUOUS
 10
181.0140855611
 20
99.1373032283
 11
181.0140855611
 21
100.1902032283
  0
LINE
  5
75A
100
AcDbEntity
  8
ASSI
100
AcDbLine
 62
7
  6
CONTINUOUS
 10
181.3632175611
 20
144.7903872283
 11
181.3632175611
 21
151.6903872283
  0
LINE
  5
75B
100
AcDbEntity
  8
DRAFT
100
AcDbLine
 62
7
  6
CONTINUOUS
 10
182.1132175611
 20
80.1727475014
 11
182.1132175611
 21
82.2403872283
  0
LINE
  5
75C
100
AcDbEntity
  8
DRAFT
100
AcDbLine
 62
7
  6
CONTINUOUS
 10
183.6132175611
 20
82.2403872283
 11
183.6132175611
 21
80.1727475014
  0
LINE
  5
75D
100
AcDbEntity
  8
0
100
AcDbLine
 62
7
  6
CONTINUOUS
 10
183.837739357
 20
111.8932452845
 11
183.837739357
 21
110.1903872283
  0
LINE
  5
75E
100
AcDbEntity
  8
0
100
AcDbLine
 62
7
  6
CONTINUOUS
 10
184.0647870979
 20
110.1903872283
 11
184.0647870979
 21
111.8932452845
  0
LINE
  5
75F
100
AcDbEntity
  8
0
100
AcDbLine
 62
7
  6
CONTINUOUS
 10
187.2847368769
 20
110.1903872283
 11
187.4642143074
 21
110.7064048211
  0
LINE
  5
760
100
AcDbEntity
  8
0
100
AcDbLine
 62
7
  6
CONTINUOUS
 10
187.5288778038
 20
110.8921711545
 11
187.7128702997
 21
111.3893218811
  0
LINE
  5
761
100
AcDbEntity
  8
0
100
AcDbLine
 62
7
  6
CONTINUOUS
 10
187.6923908539
 20
111.8932452845
 11
187.0451113303
 21
110.1903872283
  0
LWPOLYLINE
  5
762
100
AcDbEntity
  8
0
100
AcDbPolyline
 62
7
  6
CONTINUOUS
 90
10
 70
0
 10
187.7128702997
 20
111.3893218811
 10
187.7270680524
 20
111.4243626087
 10
187.7406009714
 20
111.4598011109
 10
187.7534690566
 20
111.4956373876
 10
187.7656901223
 20
111.531916217
 10
187.7772463542
 20
111.568592821
 10
187.7880843099
 20
111.605532865
 10
187.798186175
 20
111.642691571
 10
187.8075697638
 20
111.6801137169
 10
187.8162350762
 20
111.7177993029
  0
LINE
  5
763
100
AcDbEntity
  8
DRAFT
100
AcDbLine
 62
7
  6
CONTINUOUS
 10
192.4620704235
 20
130.732495573
 11
192.4083994047
 21
130.7231043616
  0
LINE
  5
764
100
AcDbEntity
  8
DRAFT
100
AcDbLine
 62
7
  6
CONTINUOUS
 10
121.9632175611
 20
122.1903872283
 11
123.3748164183
 21
122.1903872283
  0
LINE
  5
765
100
AcDbEntity
  8
DRAFT
100
AcDbLine
 62
7
  6
CONTINUOUS
 10
192.351618704
 20
122.1903872283
 11
193.7632175611
 21
122.1903872283
  0
LINE
  5
766
100
AcDbEntity
  8
RACCORDO
100
AcDbLine
 62
7
  6
CONTINUOUS
 10
121.9632175611
 20
122.2903872283
 11
123.3148495093
 21
122.2903872283
  0
LINE
  5
767
100
AcDbEntity
  8
RACCORDO
100
AcDbLine
 62
7
  6
CONTINUOUS
 10
192.411585613
 20
122.2903872283
 11
193.7632175611
 21
122.2903872283
  0
LINE
  5
768
100
AcDbEntity
  8
RACCORDO
100
AcDbLine
 62
250
  6
CONTINUOUS
 10
193.6619781846
 20
123.2903872283
 11
192.4953699247
 21
123.2903872283
  0
LINE
  5
769
100
AcDbEntity
  8
RACCORDO
100
AcDbLine
 62
250
  6
CONTINUOUS
 10
123.2310651976
 20
123.2903872283
 11
122.0644569377
 21
123.2903872283
  0
LINE
  5
76A
100
AcDbEntity
  8
DRAFT
100
AcDbLine
 62
7
  6
CONTINUOUS
 10
123.2643646987
 20
130.732495573
 11
123.3180357176
 21
130.7231043616
  0
LINE
  5
76B
100
AcDbEntity
  8
0
100
AcDbLine
 62
7
  6
CONTINUOUS
 10
181.3752067124
 20
110.1903872283
 11
180.6930959422
 21
111.8932452845
  0
LINE
  5
76C
100
AcDbEntity
  8
0
100
AcDbLine
 62
7
  6
CONTINUOUS
 10
180.7991834308
 20
111.0858967606
 11
180.875314758
 21
110.8921711545
  0
LWPOLYLINE
  5
76D
100
AcDbEntity
  8
0
100
AcDbPolyline
 62
7
  6
CONTINUOUS
 90
18
 70
0
 10
178.2628549519
 20
110.6755102193
 10
178.2858980342
 20
110.6138353304
 10
178.3115571908
 20
110.5563984972
 10
178.3397311518
 20
110.5032491603
 10
178.3705211872
 20
110.4543378791
 10
178.4033922382
 20
110.4096539985
 10
178.4380334316
 20
110.3694171118
 10
178.4747556407
 20
110.3334076258
 10
178.5139564268
 20
110.3009561058
 10
178.5554479386
 20
110.2719633217
 10
178.5994180273
 20
110.2465285037
 10
178.6468278076
 20
110.2242799077
 10
178.6980531172
 20
110.2050021129
 10
178.7527181183
 20
110.1889105401
 10
178.8106564125
 20
110.1762797079
 10
178.8718125336
 20
110.1672011223
 10
178.9362419478
 20
110.1615832772
 10
179.003944655
 20
110.1594261727
  0
LINE
  5
76E
100
AcDbEntity
  8
0
100
AcDbLine
 62
7
  6
CONTINUOUS
 10
180.943848288
 20
110.7064048211
 11
181.1338071708
 21
110.1903872283
  0
LWPOLYLINE
  5
76F
100
AcDbEntity
  8
0
100
AcDbPolyline
 62
7
  6
CONTINUOUS
 90
44
 70
0
 10
179.6683172073
 20
111.4256044493
 10
179.6490992289
 20
111.4826132527
 10
179.6268467195
 20
111.5364032737
 10
179.601559679
 20
111.5869745123
 10
179.5729418317
 20
111.6345431712
 10
179.5412894534
 20
111.6788930478
 10
179.5074913712
 20
111.7193755336
 10
179.471938921
 20
111.755639014
 10
179.4342407669
 20
111.7880351037
 10
179.3941117286
 20
111.8169700388
 10
179.3516999481
 20
111.8425540711
 10
179.3068572835
 20
111.8646769488
 10
179.2588541283
 20
111.8834141527
 10
179.2071936606
 20
111.8989793008
 10
179.1523727024
 20
111.9111587751
 10
179.0951521134
 20
111.9193872025
 10
179.0348841344
 20
111.9236057373
 10
178.9722165247
 20
111.9238732251
 10
178.9098534221
 20
111.91980083
 10
178.8479801151
 20
111.9111223695
 10
178.7864113153
 20
111.898104026
 10
178.727295295
 20
111.8811555119
 10
178.6710720187
 20
111.8601646406
 10
178.617301522
 20
111.8352435986
 10
178.5668121833
 20
111.8071386577
 10
178.519930907
 20
111.7761213856
 10
178.4763307886
 20
111.7419202147
 10
178.4358594935
 20
111.7044667137
 10
178.3985744458
 20
111.6640010241
 10
178.3644182215
 20
111.6202830043
 10
178.3330662136
 20
111.5725237983
 10
178.3041349624
 20
111.5205319792
 10
178.2780079276
 20
111.4644989738
 10
178.2555108822
 20
111.4042102058
 10
178.2366353431
 20
111.3392090175
 10
178.2213897933
 20
111.2699520665
 10
178.2106254539
 20
111.1975947496
 10
178.2045734899
 20
111.1210173268
 10
178.2030027362
 20
111.041339538
 10
178.206070919
 20
110.9630759991
 10
178.2142252783
 20
110.8868362022
 10
178.227018574
 20
110.8120106552
 10
178.2432668124
 20
110.7412854973
 10
178.2628549519
 20
110.6755102193
  0
LWPOLYLINE
  5
770
100
AcDbEntity
  8
0
100
AcDbPolyline
 62
7
  6
CONTINUOUS
 90
6
 70
0
 10
180.5713480734
 20
111.7177993029
 10
180.5976760281
 20
111.6320722262
 10
180.6262076314
 20
111.5448225158
 10
180.6569428833
 20
111.4560501719
 10
180.6903379415
 20
111.3657281443
 10
180.7991834308
 20
111.0858967606
  0
LINE
  5
771
100
AcDbEntity
  8
0
100
AcDbLine
 62
7
  6
CONTINUOUS
 10
184.7516007634
 20
89.5298272283
 11
184.7516007634
 21
91.5298272283
  0
LINE
  5
772
100
AcDbEntity
  8
0
100
AcDbLine
 62
7
  6
CONTINUOUS
 10
185.1587443946
 20
111.8932452845
 11
185.1587443946
 21
110.1903872283
  0
LINE
  5
773
100
AcDbEntity
  8
DRAFT
100
AcDbLine
 62
7
  6
CONTINUOUS
 10
185.3632175611
 20
80.1727475014
 11
185.3632175611
 21
82.2403872283
  0
LINE
  5
774
100
AcDbEntity
  8
0
100
AcDbLine
 62
7
  6
CONTINUOUS
 10
185.3857921354
 20
110.1903872283
 11
185.3857921354
 21
111.8932452845
  0
LINE
  5
775
100
AcDbEntity
  8
0
100
AcDbLine
 62
7
  6
CONTINUOUS
 10
185.6644416355
 20
111.8932452845
 11
185.6644416355
 21
111.6971585992
  0
LINE
  5
776
100
AcDbEntity
  8
0
100
AcDbLine
 62
7
  6
CONTINUOUS
 10
186.2217406357
 20
111.6971585992
 11
186.2217406357
 21
110.1903872283
  0
LINE
  5
777
100
AcDbEntity
  8
0
100
AcDbLine
 62
7
  6
CONTINUOUS
 10
186.4487883766
 20
110.1903872283
 11
186.4487883766
 21
111.6971585992
  0
LINE
  5
778
100
AcDbEntity
  8
0
100
AcDbLine
 62
7
  6
CONTINUOUS
 10
187.0060873768
 20
111.6971585992
 11
187.0060873768
 21
111.8932452845
  0
LINE
  5
779
100
AcDbEntity
  8
0
100
AcDbLine
 62
7
  6
CONTINUOUS
 10
187.8632175611
 20
44.6903872283
 11
187.8632175611
 21
50.9903872283
  0
LINE
  5
77A
100
AcDbEntity
  8
DRAFT
100
AcDbLine
 62
7
  6
CONTINUOUS
 10
188.5783074313
 20
53.4403872283
 11
188.5783074313
 21
51.5903872283
  0
LINE
  5
77B
100
AcDbEntity
  8
DRAFT
100
AcDbLine
 62
7
  6
CONTINUOUS
 10
188.6132175611
 20
53.4403872283
 11
188.6132175611
 21
51.5903872283
  0
LINE
  5
77C
100
AcDbEntity
  8
0
100
AcDbLine
 62
7
  6
CONTINUOUS
 10
188.8018285997
 20
111.8932452845
 11
188.8018285997
 21
110.1903872283
  0
LINE
  5
77D
100
AcDbEntity
  8
0
100
AcDbLine
 62
7
  6
CONTINUOUS
 10
189.0288763405
 20
110.3864739135
 11
189.0288763405
 21
111.8932452845
  0
LINE
  5
77E
100
AcDbEntity
  8
DRAFT
100
AcDbLine
 62
7
  6
CONTINUOUS
 10
154.5521248339
 20
127.5790501613
 11
154.6132175611
 21
127.5954199082
  0
LINE
  5
77F
100
AcDbEntity
  8
DRAFT
100
AcDbLine
 62
7
  6
CONTINUOUS
 10
192.4624781237
 20
130.7278284113
 11
192.4083994047
 21
130.7231043616
  0
LINE
  5
780
100
AcDbEntity
  8
DRAFT
100
AcDbLine
 62
7
  6
CONTINUOUS
 10
123.2639569986
 20
125.6529460453
 11
123.3180357176
 21
125.6576700949
  0
LINE
  5
781
100
AcDbEntity
  8
0
100
AcDbLine
 62
7
  6
CONTINUOUS
 10
161.0992535092
 20
125.4403872283
 11
161.0132175611
 21
125.4403872283
  0
LINE
  5
782
100
AcDbEntity
  8
0
100
AcDbLine
 62
7
  6
CONTINUOUS
 10
154.7132175611
 20
125.4403872283
 11
154.6271816131
 21
125.4403872283
  0
LINE
  5
783
100
AcDbEntity
  8
0
100
AcDbLine
 62
7
  6
CONTINUOUS
 10
122.8310651976
 20
125.4903872283
 11
123.2435354347
 21
125.4903872283
  0
LINE
  5
784
100
AcDbEntity
  8
0
100
AcDbLine
 62
7
  6
CONTINUOUS
 10
192.4828996875
 20
125.4903872283
 11
192.8953699247
 21
125.4903872283
  0
LINE
  5
785
100
AcDbEntity
  8
DRAFT
100
AcDbLine
 62
7
  6
CONTINUOUS
 10
193.7509990157
 20
125.5403872283
 11
193.6933973014
 21
125.5403872283
  0
LINE
  5
786
100
AcDbEntity
  8
DRAFT
100
AcDbLine
 62
7
  6
CONTINUOUS
 10
122.0330378209
 20
125.5403872283
 11
121.9754361066
 21
125.5403872283
  0
LINE
  5
787
100
AcDbEntity
  8
DRAFT
100
AcDbLine
 62
7
  6
CONTINUOUS
 10
123.2643646987
 20
125.8903872283
 11
123.451618704
 21
125.8903872283
  0
LINE
  5
788
100
AcDbEntity
  8
DRAFT
100
AcDbLine
 62
7
  6
CONTINUOUS
 10
192.2748164183
 20
125.8903872283
 11
192.4620704235
 21
125.8903872283
  0
LINE
  5
789
100
AcDbEntity
  8
RACCORDO
100
AcDbLine
 62
7
  6
CONTINUOUS
 10
154.6271816131
 20
127.4632428921
 11
154.7132175611
 21
127.4632428921
  0
LINE
  5
78A
100
AcDbEntity
  8
RACCORDO
100
AcDbLine
 62
7
  6
CONTINUOUS
 10
161.0132175611
 20
127.4632428921
 11
161.0992535092
 21
127.4632428921
  0
LINE
  5
78B
100
AcDbEntity
  8
DRAFT
100
AcDbLine
 62
7
  6
CONTINUOUS
 10
154.6271816131
 20
127.7303053855
 11
154.7132175611
 21
127.7303053855
  0
LINE
  5
78C
100
AcDbEntity
  8
DRAFT
100
AcDbLine
 62
7
  6
CONTINUOUS
 10
161.0132175611
 20
127.7303053855
 11
161.0992535092
 21
127.7303053855
  0
LINE
  5
78D
100
AcDbEntity
  8
DRAFT
100
AcDbLine
 62
7
  6
CONTINUOUS
 10
123.2639569986
 20
130.7278284113
 11
123.3180357176
 21
130.7231043616
  0
LINE
  5
78E
100
AcDbEntity
  8
DRAFT
100
AcDbLine
 62
7
  6
CONTINUOUS
 10
161.1743102884
 20
127.5790501613
 11
161.1132175611
 21
127.5954199082
  0
LINE
  5
78F
100
AcDbEntity
  8
0
100
AcDbLine
 62
7
  6
CONTINUOUS
 10
182.0689278982
 20
111.8932452845
 11
182.7236251305
 21
110.1903872283
  0
LWPOLYLINE
  5
790
100
AcDbEntity
  8
0
100
AcDbPolyline
 62
7
  6
CONTINUOUS
 90
10
 70
0
 10
182.8418254817
 20
110.3813138163
 10
182.833287638
 20
110.4115144775
 10
182.824396162
 20
110.4418893885
 10
182.8151510535
 20
110.4724385492
 10
182.8055435768
 20
110.5031647179
 10
182.7955824677
 20
110.5340651364
 10
182.7852939338
 20
110.5651315299
 10
182.7746867107
 20
110.5963611399
 10
182.7637520628
 20
110.6277567248
 10
182.3103272824
 20
111.8932452845
  0
LINE
  5
791
100
AcDbEntity
  8
0
100
AcDbLine
 62
7
  6
CONTINUOUS
 10
189.8751451927
 20
110.1903872283
 11
189.8751451927
 21
110.3864739135
  0
LINE
  5
792
100
AcDbEntity
  8
0
100
AcDbLine
 62
7
  6
CONTINUOUS
 10
190.0632175611
 20
44.6903872283
 11
190.0632175611
 21
50.9903872283
  0
LINE
  5
793
100
AcDbEntity
  8
0
100
AcDbLine
 62
7
  6
CONTINUOUS
 10
190.6091802381
 20
110.9116832099
 11
190.6091802381
 21
110.1903872283
  0
LINE
  5
794
100
AcDbEntity
  8
0
100
AcDbLine
 62
7
  6
CONTINUOUS
 10
190.836227979
 20
110.1903872283
 11
190.836227979
 21
110.9116832099
  0
LINE
  5
795
100
AcDbEntity
  8
DRAFT
100
AcDbLine
 62
7
  6
CONTINUOUS
 10
192.2748164183
 20
130.4903872283
 11
192.2748164183
 21
125.8903872283
  0
LINE
  5
796
100
AcDbEntity
  8
DRAFT
100
AcDbLine
 62
7
  6
CONTINUOUS
 10
192.2748164183
 20
65.8903872283
 11
192.2748164183
 21
70.4903872283
  0
LINE
  5
797
100
AcDbEntity
  8
DRAFT
100
AcDbLine
 62
7
  6
CONTINUOUS
 10
192.3132175611
 20
130.4903872283
 11
192.3132175611
 21
125.8903872283
  0
LINE
  5
798
100
AcDbEntity
  8
DRAFT
100
AcDbLine
 62
7
  6
CONTINUOUS
 10
192.3132175611
 20
70.4903872283
 11
192.3132175611
 21
65.8903872283
  0
LINE
  5
799
100
AcDbEntity
  8
DRAFT
100
AcDbLine
 62
7
  6
CONTINUOUS
 10
192.3132175611
 20
44.6903872283
 11
192.3132175611
 21
51.7199221749
  0
LINE
  5
79A
100
AcDbEntity
  8
DRAFT
100
AcDbLine
 62
7
  6
CONTINUOUS
 10
192.351618704
 20
134.1903872283
 11
192.351618704
 21
130.4903872283
  0
LINE
  5
79B
100
AcDbEntity
  8
DRAFT
100
AcDbLine
 62
7
  6
CONTINUOUS
 10
192.351618704
 20
125.8903872283
 11
192.351618704
 21
122.1903872283
  0
LINE
  5
79C
100
AcDbEntity
  8
DRAFT
100
AcDbLine
 62
7
  6
CONTINUOUS
 10
192.351618704
 20
74.1903872283
 11
192.351618704
 21
70.4903872283
  0
LINE
  5
79D
100
AcDbEntity
  8
DRAFT
100
AcDbLine
 62
7
  6
CONTINUOUS
 10
192.351618704
 20
62.1903872283
 11
192.351618704
 21
65.8903872283
  0
LINE
  5
79E
100
AcDbEntity
  8
DRAFT
100
AcDbLine
 62
7
  6
CONTINUOUS
 10
192.4083994047
 20
130.7231043616
 11
192.4083994047
 21
130.4903872283
  0
LINE
  5
79F
100
AcDbEntity
  8
DRAFT
100
AcDbLine
 62
7
  6
CONTINUOUS
 10
192.4083994047
 20
125.8903872283
 11
192.4083994047
 21
125.6576700949
  0
LINE
  5
7A0
100
AcDbEntity
  8
DRAFT
100
AcDbLine
 62
7
  6
CONTINUOUS
 10
192.4083994047
 20
70.7231043616
 11
192.4083994047
 21
70.4903872283
  0
LINE
  5
7A1
100
AcDbEntity
  8
DRAFT
100
AcDbLine
 62
7
  6
CONTINUOUS
 10
192.4083994047
 20
65.8903872283
 11
192.4083994047
 21
65.6576700949
  0
LINE
  5
7A2
100
AcDbEntity
  8
DRAFT
100
AcDbLine
 62
7
  6
CONTINUOUS
 10
192.411585613
 20
62.1903872283
 11
192.411585613
 21
62.2903872283
  0
LINE
  5
7A3
100
AcDbEntity
  8
DRAFT
100
AcDbLine
 62
7
  6
CONTINUOUS
 10
192.411585613
 20
74.0903872283
 11
192.411585613
 21
74.1903872283
  0
LINE
  5
7A4
100
AcDbEntity
  8
DRAFT
100
AcDbLine
 62
7
  6
CONTINUOUS
 10
192.411585613
 20
122.1903872283
 11
192.411585613
 21
122.2903872283
  0
LINE
  5
7A5
100
AcDbEntity
  8
DRAFT
100
AcDbLine
 62
7
  6
CONTINUOUS
 10
192.411585613
 20
134.0903872283
 11
192.411585613
 21
134.1903872283
  0
LINE
  5
7A6
100
AcDbEntity
  8
DRAFT
100
AcDbLine
 62
7
  6
CONTINUOUS
 10
192.4620704235
 20
65.6482788835
 11
192.4620704235
 21
70.732495573
  0
LINE
  5
7A7
100
AcDbEntity
  8
DRAFT
100
AcDbLine
 62
7
  6
CONTINUOUS
 10
192.4620704235
 20
125.6482788835
 11
192.4620704235
 21
130.732495573
  0
LINE
  5
7A8
100
AcDbEntity
  8
0
100
AcDbLine
 62
7
  6
CONTINUOUS
 10
192.4828996875
 20
130.8903872283
 11
192.4828996875
 21
125.4903872283
  0
LINE
  5
7A9
100
AcDbEntity
  8
0
100
AcDbLine
 62
7
  6
CONTINUOUS
 10
192.4828996875
 20
65.4903872283
 11
192.4828996875
 21
70.8903872283
  0
LINE
  5
7AA
100
AcDbEntity
  8
RACCORDO
100
AcDbLine
 62
7
  6
CONTINUOUS
 10
192.4953699247
 20
133.0903872283
 11
192.4953699247
 21
130.8903872283
  0
LINE
  5
7AB
100
AcDbEntity
  8
RACCORDO
100
AcDbLine
 62
7
  6
CONTINUOUS
 10
192.4953699247
 20
125.4903872283
 11
192.4953699247
 21
123.2903872283
  0
LINE
  5
7AC
100
AcDbEntity
  8
RACCORDO
100
AcDbLine
 62
7
  6
CONTINUOUS
 10
192.4953699247
 20
73.0903872283
 11
192.4953699247
 21
70.8903872283
  0
LINE
  5
7AD
100
AcDbEntity
  8
RACCORDO
100
AcDbLine
 62
7
  6
CONTINUOUS
 10
192.4953699247
 20
65.4903872283
 11
192.4953699247
 21
63.2903872283
  0
LINE
  5
7AE
100
AcDbEntity
  8
0
100
AcDbLine
 62
7
  6
CONTINUOUS
 10
192.8953699247
 20
130.8903872283
 11
192.8953699247
 21
125.4903872283
  0
LINE
  5
7AF
100
AcDbEntity
  8
0
100
AcDbLine
 62
7
  6
CONTINUOUS
 10
192.8953699247
 20
65.4903872283
 11
192.8953699247
 21
70.8903872283
  0
LINE
  5
7B0
100
AcDbEntity
  8
DRAFT
100
AcDbLine
 62
7
  6
CONTINUOUS
 10
192.984669769
 20
62.1903872283
 11
192.984669769
 21
62.2903872283
  0
LINE
  5
7B1
100
AcDbEntity
  8
DRAFT
100
AcDbLine
 62
7
  6
CONTINUOUS
 10
192.984669769
 20
74.0903872283
 11
192.984669769
 21
74.1903872283
  0
LINE
  5
7B2
100
AcDbEntity
  8
DRAFT
100
AcDbLine
 62
7
  6
CONTINUOUS
 10
192.984669769
 20
122.1903872283
 11
192.984669769
 21
122.2903872283
  0
LINE
  5
7B3
100
AcDbEntity
  8
DRAFT
100
AcDbLine
 62
7
  6
CONTINUOUS
 10
192.984669769
 20
134.0903872283
 11
192.984669769
 21
134.1903872283
  0
LINE
  5
7B4
100
AcDbEntity
  8
DRAFT
100
AcDbLine
 62
7
  6
CONTINUOUS
 10
193.0021248339
 20
74.1903872283
 11
193.0021248339
 21
74.0903872283
  0
LINE
  5
7B5
100
AcDbEntity
  8
DRAFT
100
AcDbLine
 62
7
  6
CONTINUOUS
 10
193.0021248339
 20
62.2903872283
 11
193.0021248339
 21
62.1903872283
  0
LINE
  5
7B6
100
AcDbEntity
  8
DRAFT
100
AcDbLine
 62
7
  6
CONTINUOUS
 10
193.0021248339
 20
122.1903872283
 11
193.0021248339
 21
122.2903872283
  0
LINE
  5
7B7
100
AcDbEntity
  8
DRAFT
100
AcDbLine
 62
7
  6
CONTINUOUS
 10
193.0021248339
 20
134.0903872283
 11
193.0021248339
 21
134.1903872283
  0
LINE
  5
7B8
100
AcDbEntity
  8
DRAFT
100
AcDbLine
 62
7
  6
CONTINUOUS
 10
161.1743102884
 20
132.2017242952
 11
161.1132175611
 21
132.1853545483
  0
LINE
  5
7B9
100
AcDbEntity
  8
DRAFT
100
AcDbLine
 62
7
  6
CONTINUOUS
 10
123.3180357176
 20
125.6576700949
 11
123.2643646987
 21
125.6482788835
  0
LINE
  5
7BA
100
AcDbEntity
  8
DRAFT
100
AcDbLine
 62
7
  6
CONTINUOUS
 10
154.6271816131
 20
130.1903872283
 11
154.7132175611
 21
130.1903872283
  0
LINE
  5
7BB
100
AcDbEntity
  8
DRAFT
100
AcDbLine
 62
7
  6
CONTINUOUS
 10
161.0132175611
 20
130.1903872283
 11
161.0992535092
 21
130.1903872283
  0
LINE
  5
7BC
100
AcDbEntity
  8
DRAFT
100
AcDbLine
 62
7
  6
CONTINUOUS
 10
123.2643646987
 20
130.4903872283
 11
123.451618704
 21
130.4903872283
  0
LINE
  5
7BD
100
AcDbEntity
  8
DRAFT
100
AcDbLine
 62
7
  6
CONTINUOUS
 10
192.2748164183
 20
130.4903872283
 11
192.4620704235
 21
130.4903872283
  0
LINE
  5
7BE
100
AcDbEntity
  8
DRAFT
100
AcDbLine
 62
7
  6
CONTINUOUS
 10
121.9754361066
 20
130.8403872283
 11
122.0330378209
 21
130.8403872283
  0
LINE
  5
7BF
100
AcDbEntity
  8
DRAFT
100
AcDbLine
 62
7
  6
CONTINUOUS
 10
193.6933973014
 20
130.8403872283
 11
193.7509990157
 21
130.8403872283
  0
LINE
  5
7C0
100
AcDbEntity
  8
0
100
AcDbLine
 62
7
  6
CONTINUOUS
 10
122.8310651976
 20
130.8903872283
 11
123.2435354347
 21
130.8903872283
  0
LINE
  5
7C1
100
AcDbEntity
  8
0
100
AcDbLine
 62
7
  6
CONTINUOUS
 10
192.4828996875
 20
130.8903872283
 11
192.8953699247
 21
130.8903872283
  0
LINE
  5
7C2
100
AcDbEntity
  8
RACCORDO
100
AcDbLine
 62
250
  6
CONTINUOUS
 10
193.6619781846
 20
133.0903872283
 11
192.4953699247
 21
133.0903872283
  0
LINE
  5
7C3
100
AcDbEntity
  8
RACCORDO
100
AcDbLine
 62
250
  6
CONTINUOUS
 10
123.2310651976
 20
133.0903872283
 11
122.0644569377
 21
133.0903872283
  0
LINE
  5
7C4
100
AcDbEntity
  8
DRAFT
100
AcDbLine
 62
7
  6
CONTINUOUS
 10
192.4083994047
 20
125.6576700949
 11
192.4620704235
 21
125.6482788835
  0
LINE
  5
7C5
100
AcDbEntity
  8
DRAFT
100
AcDbLine
 62
7
  6
CONTINUOUS
 10
154.5521248339
 20
132.2017242952
 11
154.6132175611
 21
132.1853545483
  0
LINE
  5
7C6
100
AcDbEntity
  8
RACCORDO
100
AcDbLine
 62
250
  6
CONTINUOUS
 10
153.4632175611
 20
147.7904633807
 11
153.5382743403
 21
147.7154066015
  0
LINE
  5
7C7
100
AcDbEntity
  8
RACCORDO
100
AcDbLine
 62
250
  6
CONTINUOUS
 10
153.9631414087
 20
148.2903872283
 11
154.0381981879
 21
148.2153304491
  0
LINE
  5
7C8
100
AcDbEntity
  8
0
100
AcDbLine
 62
7
  6
CONTINUOUS
 10
189.9589980712
 20
111.8932452845
 11
190.6091802381
 21
110.9116832099
  0
LINE
  5
7C9
100
AcDbEntity
  8
0
100
AcDbLine
 62
7
  6
CONTINUOUS
 10
190.557255963
 20
111.3736801741
 11
190.229101057
 21
111.8932452845
  0
LWPOLYLINE
  5
7CA
100
AcDbEntity
  8
0
100
AcDbPolyline
 62
7
  6
CONTINUOUS
 90
10
 70
0
 10
190.7304444906
 20
111.0997069973
 10
190.7138908634
 20
111.1297336891
 10
190.696661276
 20
111.159869685
 10
190.6787557284
 20
111.1901149848
 10
190.6601694545
 20
111.22047707
 10
190.6409072205
 20
111.2509484592
 10
190.6209833245
 20
111.2815067085
 10
190.6004025326
 20
111.3121443368
 10
190.5791600788
 20
111.3428688254
 10
190.557255963
 20
111.3736801741
  0
LINE
  5
7CB
100
AcDbEntity
  8
0
100
AcDbLine
 62
7
  6
CONTINUOUS
 10
188.6200937153
 20
110.1903872283
 11
187.937982945
 21
111.8932452845
  0
LINE
  5
7CC
100
AcDbEntity
  8
0
100
AcDbLine
 62
7
  6
CONTINUOUS
 10
188.0440704336
 20
111.0858967606
 11
188.1202017608
 21
110.8921711545
  0
LINE
  5
7CD
100
AcDbEntity
  8
0
100
AcDbLine
 62
7
  6
CONTINUOUS
 10
188.1887352908
 20
110.7064048211
 11
188.3786941736
 21
110.1903872283
  0
LWPOLYLINE
  5
7CE
100
AcDbEntity
  8
0
100
AcDbPolyline
 62
7
  6
CONTINUOUS
 90
6
 70
0
 10
187.8162350762
 20
111.7177993029
 10
187.8425630309
 20
111.6320722262
 10
187.8710946343
 20
111.5448225158
 10
187.9018298862
 20
111.4560501719
 10
187.9352249443
 20
111.3657281443
 10
188.0440704336
 20
111.0858967606
  0
LINE
  5
7CF
100
AcDbEntity
  8
SMUSSO
100
AcDbLine
 62
7
  6
CONTINUOUS
 10
193.7195798988
 20
116.7714066765
 11
193.7324742063
 21
116.0326922963
  0
LINE
  5
7D0
100
AcDbEntity
  8
RACCORDO
100
AcDbLine
 62
7
  6
CONTINUOUS
 10
193.6584871716
 20
151.9858091435
 11
193.6584871716
 21
134.1903872283
  0
LINE
  5
7D1
100
AcDbEntity
  8
DRAFT
100
AcDbLine
 62
7
  6
CONTINUOUS
 10
193.6584871716
 20
122.1903872283
 11
193.6584871716
 21
118.754833904
  0
LINE
  5
7D2
100
AcDbEntity
  8
DRAFT
100
AcDbLine
 62
7
  6
CONTINUOUS
 10
193.6584871716
 20
80.1259405526
 11
193.6584871716
 21
74.1903872283
  0
LINE
  5
7D3
100
AcDbEntity
  8
RACCORDO
100
AcDbLine
 62
7
  6
CONTINUOUS
 10
193.6584871716
 20
62.1903872283
 11
193.6584871716
 21
44.394965313
  0
LINE
  5
7D4
100
AcDbEntity
  8
RACCORDO
100
AcDbLine
 62
7
  6
CONTINUOUS
 10
193.6619781846
 20
133.0903872283
 11
193.6619781846
 21
123.2903872283
  0
LINE
  5
7D5
100
AcDbEntity
  8
RACCORDO
100
AcDbLine
 62
7
  6
CONTINUOUS
 10
193.6619781846
 20
73.0903872283
 11
193.6619781846
 21
63.2903872283
  0
LINE
  5
7D6
100
AcDbEntity
  8
DRAFT
100
AcDbLine
 62
7
  6
CONTINUOUS
 10
193.6933973014
 20
65.5403872283
 11
193.6933973014
 21
70.8403872283
  0
LINE
  5
7D7
100
AcDbEntity
  8
DRAFT
100
AcDbLine
 62
7
  6
CONTINUOUS
 10
193.6933973014
 20
125.5403872283
 11
193.6933973014
 21
130.8403872283
  0
LINE
  5
7D8
100
AcDbEntity
  8
SMUSSO
100
AcDbLine
 62
7
  6
CONTINUOUS
 10
193.7195798988
 20
118.5714066765
 11
193.7195798988
 21
116.7714066765
  0
LINE
  5
7D9
100
AcDbEntity
  8
DRAFT
100
AcDbLine
 62
7
  6
CONTINUOUS
 10
193.7509990157
 20
130.8403872283
 11
193.7509990157
 21
125.5403872283
  0
LINE
  5
7DA
100
AcDbEntity
  8
DRAFT
100
AcDbLine
 62
7
  6
CONTINUOUS
 10
193.7509990157
 20
70.8403872283
 11
193.7509990157
 21
65.5403872283
  0
LINE
  5
7DB
100
AcDbEntity
  8
DRAFT
100
AcDbLine
 62
7
  6
CONTINUOUS
 10
193.7632175611
 20
134.0903872283
 11
193.7632175611
 21
62.2903872283
  0
LINE
  5
7DC
100
AcDbEntity
  8
RACCORDO
100
AcDbLine
 62
7
  6
CONTINUOUS
 10
193.7632175611
 20
44.2902349234
 11
193.7632175611
 21
62.2903872283
  0
LINE
  5
7DD
100
AcDbEntity
  8
RACCORDO
100
AcDbLine
 62
7
  6
CONTINUOUS
 10
193.7632175611
 20
134.0903872283
 11
193.7632175611
 21
152.0905395331
  0
LINE
  5
7DE
100
AcDbEntity
  8
DRAFT
100
AcDbLine
 62
7
  6
CONTINUOUS
 10
193.6584871716
 20
80.1259405526
 11
193.7632175611
 21
80.4403872283
  0
LINE
  5
7DF
100
AcDbEntity
  8
RACCORDO
100
AcDbLine
 62
7
  6
CONTINUOUS
 10
121.9632175611
 20
134.0903872283
 11
123.3148495093
 21
134.0903872283
  0
LINE
  5
7E0
100
AcDbEntity
  8
RACCORDO
100
AcDbLine
 62
7
  6
CONTINUOUS
 10
192.411585613
 20
134.0903872283
 11
193.7632175611
 21
134.0903872283
  0
LINE
  5
7E1
100
AcDbEntity
  8
DRAFT
100
AcDbLine
 62
7
  6
CONTINUOUS
 10
121.9632175611
 20
134.1903872283
 11
123.3748164183
 21
134.1903872283
  0
LINE
  5
7E2
100
AcDbEntity
  8
DRAFT
100
AcDbLine
 62
7
  6
CONTINUOUS
 10
192.351618704
 20
134.1903872283
 11
193.7632175611
 21
134.1903872283
  0
LINE
  5
7E3
100
AcDbEntity
  8
SMUSSO
100
AcDbLine
 62
7
  6
CONTINUOUS
 10
193.7324742063
 20
116.0326922963
 11
193.7632175611
 21
115.9403872283
  0
LINE
  5
7E4
100
AcDbEntity
  8
DRAFT
100
AcDbLine
 62
7
  6
CONTINUOUS
 10
161.1254361066
 20
139.7903872283
 11
154.6009990157
 21
139.7903872283
  0
LINE
  5
7E5
100
AcDbEntity
  8
0
100
AcDbLine
 62
7
  6
CONTINUOUS
 10
162.3632175611
 20
141.8903872283
 11
161.5132175611
 21
141.8903872283
  0
LINE
  5
7E6
100
AcDbEntity
  8
0
100
AcDbLine
 62
7
  6
CONTINUOUS
 10
154.2132175611
 20
141.8903872283
 11
153.3632175611
 21
141.8903872283
  0
LINE
  5
7E7
100
AcDbEntity
  8
DRAFT
100
AcDbLine
 62
7
  6
CONTINUOUS
 10
193.6584871716
 20
118.754833904
 11
193.7195798988
 21
118.5714066765
  0
LINE
  5
7E8
100
AcDbEntity
  8
DRAFT
100
AcDbLine
 62
7
  6
CONTINUOUS
 10
162.3632175611
 20
142.8903872283
 11
162.2632175611
 21
142.8903872283
  0
LINE
  5
7E9
100
AcDbEntity
  8
DRAFT
100
AcDbLine
 62
7
  6
CONTINUOUS
 10
153.4632175611
 20
142.8903872283
 11
153.3632175611
 21
142.8903872283
  0
LINE
  5
7EA
100
AcDbEntity
  8
DRAFT
100
AcDbLine
 62
250
  6
CONTINUOUS
 10
127.148127691
 20
142.9403872283
 11
127.1132175611
 21
142.9403872283
  0
LINE
  5
7EB
100
AcDbEntity
  8
DRAFT
100
AcDbLine
 62
7
  6
CONTINUOUS
 10
153.3632175611
 20
143.3888987083
 11
153.4632175611
 21
143.3888987083
  0
LINE
  5
7EC
100
AcDbEntity
  8
DRAFT
100
AcDbLine
 62
7
  6
CONTINUOUS
 10
162.2632175611
 20
143.3888987083
 11
162.3632175611
 21
143.3888987083
  0
LINE
  5
7ED
100
AcDbEntity
  8
DRAFT
100
AcDbLine
 62
7
  6
CONTINUOUS
 10
153.3632175611
 20
143.4403872283
 11
153.4632175611
 21
143.4403872283
  0
LINE
  5
7EE
100
AcDbEntity
  8
DRAFT
100
AcDbLine
 62
7
  6
CONTINUOUS
 10
162.2632175611
 20
143.4403872283
 11
162.3632175611
 21
143.4403872283
  0
LINE
  5
7EF
100
AcDbEntity
  8
DRAFT
100
AcDbLine
 62
7
  6
CONTINUOUS
 10
154.6009990157
 20
144.5903872283
 11
161.1254361066
 21
144.5903872283
  0
LINE
  5
7F0
100
AcDbEntity
  8
DRAFT
100
AcDbLine
 62
7
  6
CONTINUOUS
 10
123.4132175611
 20
144.7903872283
 11
152.3632175611
 21
144.7903872283
  0
LINE
  5
7F1
100
AcDbEntity
  8
ASSI
100
AcDbLine
 62
7
  6
CONTINUOUS
 10
163.3632175611
 20
144.7903872283
 11
181.3632175611
 21
144.7903872283
  0
LINE
  5
7F2
100
AcDbEntity
  8
RACCORDO
100
AcDbLine
 62
7
  6
CONTINUOUS
 10
153.3632175611
 20
144.9403872283
 11
153.4632175611
 21
144.9403872283
  0
LINE
  5
7F3
100
AcDbEntity
  8
RACCORDO
100
AcDbLine
 62
7
  6
CONTINUOUS
 10
154.6271816131
 20
144.9403872283
 11
161.0992535092
 21
144.9403872283
  0
LINE
  5
7F4
100
AcDbEntity
  8
RACCORDO
100
AcDbLine
 62
7
  6
CONTINUOUS
 10
162.2632175611
 20
144.9403872283
 11
162.3632175611
 21
144.9403872283
  0
LINE
  5
7F5
100
AcDbEntity
  8
0
100
AcDbLine
 62
7
  6
CONTINUOUS
 10
167.0632175611
 20
145.3903872283
 11
164.8632175611
 21
145.3903872283
  0
LINE
  5
7F6
100
AcDbEntity
  8
0
100
AcDbLine
 62
7
  6
CONTINUOUS
 10
150.8632175611
 20
145.3903872283
 11
148.6632175611
 21
145.3903872283
  0
LINE
  5
7F7
100
AcDbEntity
  8
0
100
AcDbLine
 62
7
  6
CONTINUOUS
 10
127.8632175611
 20
145.3903872283
 11
125.6632175611
 21
145.3903872283
  0
LINE
  5
7F8
100
AcDbEntity
  8
DRAFT
100
AcDbLine
 62
7
  6
CONTINUOUS
 10
161.1743102884
 20
146.7903872283
 11
154.5521248339
 21
146.7903872283
  0
LINE
  5
7F9
100
AcDbEntity
  8
0
100
AcDbLine
 62
7
  6
CONTINUOUS
 10
188.3632175611
 20
147.0903872283
 11
186.3632175611
 21
147.0903872283
  0
LINE
  5
7FA
100
AcDbEntity
  8
RACCORDO
100
AcDbLine
 62
7
  6
CONTINUOUS
 10
154.0381981879
 20
148.2153304491
 11
161.6882369344
 21
148.2153304491
  0
LINE
  5
7FB
100
AcDbEntity
  8
RACCORDO
100
AcDbLine
 62
7
  6
CONTINUOUS
 10
153.9631414087
 20
148.2903872283
 11
161.7632937136
 21
148.2903872283
  0
LINE
  5
7FC
100
AcDbEntity
  8
0
100
AcDbLine
 62
7
  6
CONTINUOUS
 10
186.3632175611
 20
151.0903872283
 11
188.3632175611
 21
151.0903872283
  0
LINE
  5
7FD
100
AcDbEntity
  8
0
100
AcDbLine
 62
7
  6
CONTINUOUS
 10
123.4132175611
 20
151.6903872283
 11
152.3632175611
 21
151.6903872283
  0
LINE
  5
7FE
100
AcDbEntity
  8
ASSI
100
AcDbLine
 62
7
  6
CONTINUOUS
 10
163.3632175611
 20
151.6903872283
 11
181.3632175611
 21
151.6903872283
  0
LINE
  5
7FF
100
AcDbEntity
  8
0
100
AcDbLine
 62
7
  6
CONTINUOUS
 10
153.3632175611
 20
152.1903872283
 11
162.3632175611
 21
152.1903872283
  0
LINE
  5
800
100
AcDbEntity
  8
RACCORDO
100
AcDbLine
 62
7
  6
CONTINUOUS
 10
123.0677956459
 20
152.9856568387
 11
192.6586394764
 21
152.9856568387
  0
LINE
  5
801
100
AcDbEntity
  8
DRAFT
100
AcDbLine
 62
7
  6
CONTINUOUS
 10
182.3632175611
 20
153.0380220335
 11
192.3632175611
 21
153.0380220335
  0
LINE
  5
802
100
AcDbEntity
  8
RACCORDO
100
AcDbLine
 62
7
  6
CONTINUOUS
 10
122.9630652563
 20
153.0903872283
 11
182.3108523664
 21
153.0903872283
  0
LINE
  5
803
100
AcDbEntity
  8
RACCORDO
100
AcDbLine
 62
7
  6
CONTINUOUS
 10
192.4155827559
 20
153.0903872283
 11
192.763369866
 21
153.0903872283
  0
LINE
  5
804
100
AcDbEntity
  8
DRAFT
100
AcDbLine
 62
7
  6
CONTINUOUS
 10
182.3108523664
 20
153.0903872283
 11
182.3632175611
 21
153.0380220335
  0
CIRCLE
  5
805
100
AcDbEntity
  8
DRAFT
100
AcDbCircle
 62
7
  6
CONTINUOUS
 10
124.8632175611
 20
53.4403872283
 40
2.2849101299
  0
CIRCLE
  5
806
100
AcDbEntity
  8
DRAFT
100
AcDbCircle
 62
7
  6
CONTINUOUS
 10
124.8632175611
 20
53.4403872283
 40
2.25
  0
ARC
  5
807
100
AcDbEntity
  8
0
100
AcDbCircle
 62
7
  6
CONTINUOUS
 10
127.3632175611
 20
47.2903872283
 40
2.0
100
AcDbArc
 50
90.0
 51
270.0
  0
ARC
  5
808
100
AcDbEntity
  8
0
100
AcDbCircle
 62
7
  6
CONTINUOUS
 10
129.3632175611
 20
47.2903872283
 40
2.0
100
AcDbArc
 50
270.0
 51
90.0
  0
CIRCLE
  5
809
100
AcDbEntity
  8
DRAFT
100
AcDbCircle
 62
7
  6
CONTINUOUS
 10
124.8632175611
 20
53.4403872283
 40
1.3198202597
  0
CIRCLE
  5
80A
100
AcDbEntity
  8
DRAFT
100
AcDbCircle
 62
7
  6
CONTINUOUS
 10
124.8632175611
 20
53.4403872283
 40
1.25
  0
CIRCLE
  5
80B
100
AcDbEntity
  8
DRAFT
100
AcDbCircle
 62
7
  6
CONTINUOUS
 10
124.8632175611
 20
53.4403872283
 40
1.0
  0
CIRCLE
  5
80C
100
AcDbEntity
  8
DRAFT
100
AcDbCircle
 62
7
  6
CONTINUOUS
 10
124.8632175611
 20
53.4403872283
 40
0.9520022272
  0
ARC
  5
80D
100
AcDbEntity
  8
DRAFT
100
AcDbCircle
 62
7
  6
CONTINUOUS
 10
124.8632175611
 20
142.9403872283
 40
2.2849101299
100
AcDbArc
 50
129.3901947656
 51
360.0
  0
ARC
  5
80E
100
AcDbEntity
  8
DRAFT
100
AcDbCircle
 62
7
  6
CONTINUOUS
 10
124.8632175611
 20
142.9403872283
 40
2.25
100
AcDbArc
 50
130.1240345935
 51
360.0
  0
CIRCLE
  5
80F
100
AcDbEntity
  8
DRAFT
100
AcDbCircle
 62
7
  6
CONTINUOUS
 10
124.8632175611
 20
142.9403872283
 40
1.3198202597
  0
CIRCLE
  5
810
100
AcDbEntity
  8
DRAFT
100
AcDbCircle
 62
7
  6
CONTINUOUS
 10
124.8632175611
 20
142.9403872283
 40
1.25
  0
CIRCLE
  5
811
100
AcDbEntity
  8
DRAFT
100
AcDbCircle
 62
7
  6
CONTINUOUS
 10
124.8632175611
 20
142.9403872283
 40
1.0
  0
CIRCLE
  5
812
100
AcDbEntity
  8
DRAFT
100
AcDbCircle
 62
7
  6
CONTINUOUS
 10
124.8632175611
 20
142.9403872283
 40
0.9520022272
  0
ARC
  5
813
100
AcDbEntity
  8
0
100
AcDbCircle
 62
7
  6
CONTINUOUS
 10
177.5694935611
 20
96.3602672283
 40
5.6074779015
100
AcDbArc
 50
104.6184641724
 51
108.030536234
  0
ARC
  5
814
100
AcDbEntity
  8
0
100
AcDbCircle
 62
7
  6
CONTINUOUS
 10
177.5694935611
 20
96.3602672283
 40
5.6074766208
100
AcDbArc
 50
66.1507510578
 51
77.0671232762
  0
ARC
  5
815
100
AcDbEntity
  8
0
100
AcDbCircle
 62
7
  6
CONTINUOUS
 10
177.5694935611
 20
96.3602672283
 40
5.6074765047
100
AcDbArc
 50
109.1821054584
 51
112.6110335093
  0
ARC
  5
816
100
AcDbEntity
  8
0
100
AcDbCircle
 62
7
  6
CONTINUOUS
 10
177.5694935611
 20
96.3602672283
 40
5.6074761346
100
AcDbArc
 50
91.9102144889
 51
103.4934082927
  0
ARC
  5
817
100
AcDbEntity
  8
0
100
AcDbCircle
 62
7
  6
CONTINUOUS
 10
177.5694935611
 20
96.3602672283
 40
5.6074759526
100
AcDbArc
 50
78.1844536706
 51
90.8185512484
  0
ARC
  5
818
100
AcDbEntity
  8
0
100
AcDbCircle
 62
7
  6
CONTINUOUS
 10
177.5694935611
 20
96.3602672283
 40
5.5006686758
100
AcDbArc
 50
91.9473196142
 51
103.7605162941
  0
ARC
  5
819
100
AcDbEntity
  8
0
100
AcDbCircle
 62
7
  6
CONTINUOUS
 10
177.5694935611
 20
96.3602672283
 40
5.5006683841
100
AcDbArc
 50
109.5695983715
 51
111.7987287801
  0
ARC
  5
81A
100
AcDbEntity
  8
0
100
AcDbCircle
 62
7
  6
CONTINUOUS
 10
177.5694935611
 20
96.3602672283
 40
5.5006682353
100
AcDbArc
 50
104.9088365842
 51
108.3930555303
  0
ARC
  5
81B
100
AcDbEntity
  8
0
100
AcDbCircle
 62
7
  6
CONTINUOUS
 10
177.5694935611
 20
96.3602672283
 40
5.5006672221
100
AcDbArc
 50
66.0805511142
 51
76.8115132283
  0
ARC
  5
81C
100
AcDbEntity
  8
0
100
AcDbCircle
 62
7
  6
CONTINUOUS
 10
177.5694935611
 20
96.3602672283
 40
5.5006664386
100
AcDbArc
 50
77.9516164098
 51
90.8344466285
  0
ARC
  5
81D
100
AcDbEntity
  8
DRAFT
100
AcDbCircle
 62
7
  6
CONTINUOUS
 10
190.8632175611
 20
53.4403872283
 40
2.2849101299
100
AcDbArc
 50
309.3901947656
 51
180.0
  0
ARC
  5
81E
100
AcDbEntity
  8
DRAFT
100
AcDbCircle
 62
7
  6
CONTINUOUS
 10
190.8632175611
 20
53.4403872283
 40
2.25
100
AcDbArc
 50
310.1240345935
 51
180.0
  0
CIRCLE
  5
81F
100
AcDbEntity
  8
DRAFT
100
AcDbCircle
 62
7
  6
CONTINUOUS
 10
190.8632175611
 20
53.4403872283
 40
1.3198202597
  0
CIRCLE
  5
820
100
AcDbEntity
  8
DRAFT
100
AcDbCircle
 62
7
  6
CONTINUOUS
 10
190.8632175611
 20
53.4403872283
 40
1.25
  0
CIRCLE
  5
821
100
AcDbEntity
  8
DRAFT
100
AcDbCircle
 62
7
  6
CONTINUOUS
 10
190.8632175611
 20
53.4403872283
 40
1.0
  0
CIRCLE
  5
822
100
AcDbEntity
  8
DRAFT
100
AcDbCircle
 62
7
  6
CONTINUOUS
 10
190.8632175611
 20
53.4403872283
 40
0.9520022272
  0
ARC
  5
823
100
AcDbEntity
  8
0
100
AcDbCircle
 62
7
  6
CONTINUOUS
 10
179.4653535611
 20
93.5832312283
 40
0.9345803565
100
AcDbArc
 50
85.000002777
 51
176.7242074107
  0
ARC
  5
824
100
AcDbEntity
  8
0
100
AcDbCircle
 62
7
  6
CONTINUOUS
 10
179.4653535611
 20
93.5832312283
 40
0.9345790614
100
AcDbArc
 50
183.2757971638
 51
78.4375028389
  0
CIRCLE
  5
825
100
AcDbEntity
  8
0
100
AcDbCircle
 62
7
  6
CONTINUOUS
 10
179.4653535611
 20
93.5832312283
 40
0.534046
  0
CIRCLE
  5
826
100
AcDbEntity
  8
0
100
AcDbCircle
 62
7
  6
CONTINUOUS
 10
179.4653535611
 20
93.5832312283
 40
0.320428
  0
CIRCLE
  5
827
100
AcDbEntity
  8
DRAFT
100
AcDbCircle
 62
7
  6
CONTINUOUS
 10
190.8632175611
 20
142.9403872283
 40
2.2849101299
  0
CIRCLE
  5
828
100
AcDbEntity
  8
DRAFT
100
AcDbCircle
 62
7
  6
CONTINUOUS
 10
190.8632175611
 20
142.9403872283
 40
2.25
  0
ARC
  5
829
100
AcDbEntity
  8
0
100
AcDbCircle
 62
7
  6
CONTINUOUS
 10
186.3632175611
 20
149.0903872283
 40
2.0
100
AcDbArc
 50
90.0
 51
270.0
  0
ARC
  5
82A
100
AcDbEntity
  8
0
100
AcDbCircle
 62
7
  6
CONTINUOUS
 10
188.3632175611
 20
149.0903872283
 40
2.0
100
AcDbArc
 50
270.0
 51
90.0
  0
CIRCLE
  5
82B
100
AcDbEntity
  8
DRAFT
100
AcDbCircle
 62
7
  6
CONTINUOUS
 10
190.8632175611
 20
142.9403872283
 40
1.3198202597
  0
CIRCLE
  5
82C
100
AcDbEntity
  8
DRAFT
100
AcDbCircle
 62
7
  6
CONTINUOUS
 10
190.8632175611
 20
142.9403872283
 40
1.25
  0
CIRCLE
  5
82D
100
AcDbEntity
  8
DRAFT
100
AcDbCircle
 62
7
  6
CONTINUOUS
 10
190.8632175611
 20
142.9403872283
 40
1.0
  0
CIRCLE
  5
82E
100
AcDbEntity
  8
DRAFT
100
AcDbCircle
 62
7
  6
CONTINUOUS
 10
190.8632175611
 20
142.9403872283
 40
0.9520022272
  0
ARC
  5
82F
100
AcDbEntity
  8
0
100
AcDbCircle
 62
7
  6
CONTINUOUS
 10
180.2664215611
 20
101.2734852283
 40
0.4806413166
100
AcDbArc
 50
303.7488518717
 51
153.3682031715
  0
ARC
  5
830
100
AcDbEntity
  8
0
100
AcDbCircle
 62
7
  6
CONTINUOUS
 10
180.2664215611
 20
101.2734852283
 40
0.4806403194
100
AcDbArc
 50
166.1529569329
 51
192.8397156584
  0
ELLIPSE
  5
831
100
AcDbEntity
  8
RACCORDO
100
AcDbEllipse
 62
7
  6
CONTINUOUS
 10
162.2475080027
 20
114.5903872283
 30
0.0
 11
-0.0
 21
0.3
 31
0.0
 40
0.0174550649
 41
0.0
 42
1.5707963268
  0
ELLIPSE
  5
832
100
AcDbEntity
  8
RACCORDO
100
AcDbEllipse
 62
7
  6
CONTINUOUS
 10
153.4789271196
 20
114.5903872283
 30
0.0
 11
0.0
 21
0.3
 31
0.0
 40
0.0174550649
 41
-1.5707963268
 42
-0.0
  0
ELLIPSE
  5
833
100
AcDbEntity
  8
RACCORDO
100
AcDbEllipse
 62
7
  6
CONTINUOUS
 10
161.7631413971
 20
147.7903110642
 30
0.0
 11
0.3536610946
 21
0.3536610946
 31
0.0
 40
0.9996954599
 41
-0.7852458701
 42
0.7852458701
  0
ELLIPSE
  5
834
100
AcDbEntity
  8
RACCORDO
100
AcDbEllipse
 62
7
  6
CONTINUOUS
 10
153.9632937252
 20
147.7903110642
 30
0.0
 11
0.3536610946
 21
-0.3536610946
 31
0.0
 40
0.9996954599
 41
2.3563467834
 42
3.9268385237
  0
ELLIPSE
  5
835
100
AcDbEntity
  8
RACCORDO
100
AcDbEllipse
 62
7
  6
CONTINUOUS
 10
161.6880846179
 20
147.715254285
 30
0.0
 11
0.3536610946
 21
0.3536610946
 31
0.0
 40
0.9996954599
 41
-0.7852458701
 42
0.7852458701
  0
ELLIPSE
  5
836
100
AcDbEntity
  8
RACCORDO
100
AcDbEllipse
 62
7
  6
CONTINUOUS
 10
154.0383505044
 20
147.715254285
 30
0.0
 11
-0.3536610946
 21
0.3536610946
 31
0.0
 40
0.9996954599
 41
-0.7852458701
 42
0.7852458701
  0
ELLIPSE
  5
837
100
AcDbEntity
  8
RACCORDO
100
AcDbEllipse
 62
7
  6
CONTINUOUS
 10
192.4779148598
 20
63.2903872283
 30
0.0
 11
0.0
 21
1.0
 31
0.0
 40
0.0174550649
 41
-3.1415926536
 42
-1.5707963268
  0
ELLIPSE
  5
838
100
AcDbEntity
  8
RACCORDO
100
AcDbEllipse
 62
7
  6
CONTINUOUS
 10
192.4779148598
 20
73.0903872283
 30
0.0
 11
-0.0
 21
1.0
 31
0.0
 40
0.0174550649
 41
-1.5707963268
 42
-0.0
  0
ELLIPSE
  5
839
100
AcDbEntity
  8
RACCORDO
100
AcDbEllipse
 62
7
  6
CONTINUOUS
 10
192.4779148598
 20
123.2903872283
 30
0.0
 11
0.0
 21
1.0
 31
0.0
 40
0.0174550649
 41
-3.1415926536
 42
-1.5707963268
  0
ELLIPSE
  5
83A
100
AcDbEntity
  8
RACCORDO
100
AcDbEllipse
 62
7
  6
CONTINUOUS
 10
192.4779148598
 20
133.0903872283
 30
0.0
 11
0.0
 21
1.0
 31
0.0
 40
0.0174550649
 41
-1.5707963268
 42
-0.0
  0
ELLIPSE
  5
83B
100
AcDbEntity
  8
RACCORDO
100
AcDbEllipse
 62
7
  6
CONTINUOUS
 10
123.2485202625
 20
123.2903872283
 30
0.0
 11
0.0
 21
1.0
 31
0.0
 40
0.0174550649
 41
-4.7123889804
 42
-3.1415926536
  0
ELLIPSE
  5
83C
100
AcDbEntity
  8
RACCORDO
100
AcDbEllipse
 62
7
  6
CONTINUOUS
 10
123.2485202625
 20
73.0903872283
 30
0.0
 11
0.0
 21
1.0
 31
0.0
 40
0.0174550649
 41
-0.0
 42
1.5707963268
  0
ELLIPSE
  5
83D
100
AcDbEntity
  8
RACCORDO
100
AcDbEllipse
 62
7
  6
CONTINUOUS
 10
123.2485202625
 20
63.2903872283
 30
0.0
 11
-0.0
 21
1.0
 31
0.0
 40
0.0174550649
 41
-4.7123889804
 42
-3.1415926536
  0
ELLIPSE
  5
83E
100
AcDbEntity
  8
RACCORDO
100
AcDbEllipse
 62
7
  6
CONTINUOUS
 10
123.2485202625
 20
133.0903872283
 30
0.0
 11
0.0
 21
1.0
 31
0.0
 40
0.0174550649
 41
-0.0
 42
1.5707963268
  0
ELLIPSE
  5
83F
100
AcDbEntity
  8
RACCORDO
100
AcDbEllipse
 62
7
  6
CONTINUOUS
 10
193.6794332495
 20
63.2903872283
 30
0.0
 11
0.0
 21
1.0
 31
0.0
 40
0.0174550649
 41
1.5707963268
 42
3.1415926536
  0
ELLIPSE
  5
840
100
AcDbEntity
  8
RACCORDO
100
AcDbEllipse
 62
7
  6
CONTINUOUS
 10
193.6794332495
 20
73.0903872283
 30
0.0
 11
-0.0
 21
1.0
 31
0.0
 40
0.0174550649
 41
0.0
 42
1.5707963268
  0
ELLIPSE
  5
841
100
AcDbEntity
  8
RACCORDO
100
AcDbEllipse
 62
7
  6
CONTINUOUS
 10
193.6794332495
 20
123.2903872283
 30
0.0
 11
0.0
 21
1.0
 31
0.0
 40
0.0174550649
 41
1.5707963268
 42
3.1415926536
  0
ELLIPSE
  5
842
100
AcDbEntity
  8
RACCORDO
100
AcDbEllipse
 62
7
  6
CONTINUOUS
 10
193.6794332495
 20
133.0903872283
 30
0.0
 11
0.0
 21
1.0
 31
0.0
 40
0.0174550649
 41
0.0
 42
1.5707963268
  0
ELLIPSE
  5
843
100
AcDbEntity
  8
RACCORDO
100
AcDbEllipse
 62
7
  6
CONTINUOUS
 10
122.0470018728
 20
73.0903872283
 30
0.0
 11
-0.0
 21
1.0
 31
0.0
 40
0.0174550649
 41
-1.5707963268
 42
0.0
  0
ELLIPSE
  5
844
100
AcDbEntity
  8
RACCORDO
100
AcDbEllipse
 62
7
  6
CONTINUOUS
 10
122.0470018728
 20
63.2903872283
 30
0.0
 11
0.0
 21
1.0
 31
0.0
 40
0.0174550649
 41
-3.1415926536
 42
-1.5707963268
  0
ELLIPSE
  5
845
100
AcDbEntity
  8
RACCORDO
100
AcDbEllipse
 62
7
  6
CONTINUOUS
 10
122.0470018728
 20
123.2903872283
 30
0.0
 11
0.0
 21
1.0
 31
0.0
 40
0.0174550649
 41
-3.1415926536
 42
-1.5707963268
  0
ELLIPSE
  5
846
100
AcDbEntity
  8
RACCORDO
100
AcDbEllipse
 62
7
  6
CONTINUOUS
 10
122.0470018728
 20
133.0903872283
 30
0.0
 11
0.0
 21
1.0
 31
0.0
 40
0.0174550649
 41
-1.5707963268
 42
0.0
  0
ELLIPSE
  5
847
100
AcDbEntity
  8
RACCORDO
100
AcDbEllipse
 62
7
  6
CONTINUOUS
 10
192.7630652331
 20
152.0902349002
 30
0.0
 11
0.7073221892
 21
0.7073221892
 31
0.0
 40
0.9996954599
 41
-0.7852458701
 42
0.7852458701
  0
ELLIPSE
  5
848
100
AcDbEntity
  8
RACCORDO
100
AcDbEllipse
 62
7
  6
CONTINUOUS
 10
122.9633698892
 20
152.0902349002
 30
0.0
 11
0.7073221892
 21
-0.7073221892
 31
0.0
 40
0.9996954599
 41
2.3563467834
 42
3.9268385237
  0
ELLIPSE
  5
849
100
AcDbEntity
  8
RACCORDO
100
AcDbEllipse
 62
7
  6
CONTINUOUS
 10
192.7630652331
 20
44.2905395563
 30
0.0
 11
0.7073221892
 21
-0.7073221892
 31
0.0
 40
0.9996954599
 41
-0.7852458701
 42
0.7852458701
  0
ELLIPSE
  5
84A
100
AcDbEntity
  8
RACCORDO
100
AcDbEllipse
 62
7
  6
CONTINUOUS
 10
122.9633698892
 20
44.2905395563
 30
0.0
 11
0.7073221892
 21
0.7073221892
 31
0.0
 40
0.9996954599
 41
-3.9268385237
 42
-2.3563467834
  0
ELLIPSE
  5
84B
100
AcDbEntity
  8
RACCORDO
100
AcDbEllipse
 62
7
  6
CONTINUOUS
 10
123.0681002788
 20
44.3952699459
 30
0.0
 11
0.7073221892
 21
0.7073221892
 31
0.0
 40
0.9996954599
 41
2.3563467834
 42
3.9268385237
  0
ELLIPSE
  5
84C
100
AcDbEntity
  8
RACCORDO
100
AcDbEllipse
 62
7
  6
CONTINUOUS
 10
192.6583348435
 20
151.9855045106
 30
0.0
 11
-0.7073221892
 21
-0.7073221892
 31
0.0
 40
0.9996954599
 41
2.3563467834
 42
3.9268385237
  0
ELLIPSE
  5
84D
100
AcDbEntity
  8
RACCORDO
100
AcDbEllipse
 62
7
  6
CONTINUOUS
 10
163.8178205608
 20
97.2360890007
 30
0.0
 11
0.0
 21
0.5
 31
0.0
 40
0.0349207695
 41
-4.7123889804
 42
-3.1764992386
  0
ELLIPSE
  5
84E
100
AcDbEntity
  8
RACCORDO
100
AcDbEllipse
 62
7
  6
CONTINUOUS
 10
163.8178205608
 20
99.1446854558
 30
0.0
 11
-0.0
 21
0.5
 31
0.0
 40
0.0349207695
 41
0.034906585
 42
1.5707963268
  0
ELLIPSE
  5
84F
100
AcDbEntity
  8
RACCORDO
100
AcDbEllipse
 62
7
  6
CONTINUOUS
 10
151.9086145615
 20
99.1446854558
 30
0.0
 11
-0.0
 21
0.5
 31
0.0
 40
0.0349207695
 41
-1.5707963268
 42
-0.034906585
  0
ELLIPSE
  5
850
100
AcDbEntity
  8
RACCORDO
100
AcDbEllipse
 62
7
  6
CONTINUOUS
 10
151.9086145615
 20
97.2360890007
 30
0.0
 11
0.0
 21
0.5
 31
0.0
 40
0.0349207695
 41
-3.1066860686
 42
-1.5707963268
  0
ELLIPSE
  5
851
100
AcDbEntity
  8
RACCORDO
100
AcDbEllipse
 62
7
  6
CONTINUOUS
 10
162.7115515113
 20
97.2360890007
 30
0.0
 11
-0.0
 21
0.5
 31
0.0
 40
0.2679491924
 41
-3.1066860686
 42
-1.5707963268
  0
ELLIPSE
  5
852
100
AcDbEntity
  8
RACCORDO
100
AcDbEllipse
 62
7
  6
CONTINUOUS
 10
162.7115515113
 20
99.1446854558
 30
0.0
 11
-0.0
 21
0.5
 31
0.0
 40
0.2679491924
 41
-1.5707963268
 42
-0.034906585
  0
ELLIPSE
  5
853
100
AcDbEntity
  8
RACCORDO
100
AcDbEllipse
 62
7
  6
CONTINUOUS
 10
153.014883611
 20
99.1446854558
 30
0.0
 11
-0.0
 21
0.5
 31
0.0
 40
0.2679491924
 41
0.034906585
 42
1.5707963268
  0
ELLIPSE
  5
854
100
AcDbEntity
  8
RACCORDO
100
AcDbEllipse
 62
7
  6
CONTINUOUS
 10
153.014883611
 20
97.2360890007
 30
0.0
 11
-0.0
 21
0.5
 31
0.0
 40
0.2679491924
 41
-4.7123889804
 42
-3.1764992386
  0
ELLIPSE
  5
855
100
AcDbEntity
  8
RACCORDO
100
AcDbEllipse
 62
7
  6
CONTINUOUS
 10
123.0681002788
 20
151.9855045106
 30
0.0
 11
-0.7073221892
 21
0.7073221892
 31
0.0
 40
0.9996954599
 41
-0.7852458701
 42
0.7852458701
  0
ELLIPSE
  5
856
100
AcDbEntity
  8
RACCORDO
100
AcDbEllipse
 62
7
  6
CONTINUOUS
 10
192.6583348435
 20
44.3952699459
 30
0.0
 11
0.7073221892
 21
-0.7073221892
 31
0.0
 40
0.9996954599
 41
-0.7852458701
 42
0.7852458701
  0
ENDSEC
  0
SECTION
  2
OBJECTS
  0
DICTIONARY
  5
C
100
AcDbDictionary
280
0
281
1
  3
ACAD_GROUP
350
D
  3
ACAD_MLINESTYLE
350
17
  3
ACAD_LAYOUT
350
1A
  3
ACAD_PLOTSETTINGS
350
19
  3
ACAD_PLOTSTYLENAME
350
E
  0
DICTIONARY
  5
D
102
{ACAD_REACTORS
330
C
102
}
100
AcDbDictionary
280
0
281
1
  0
ACDBDICTIONARYWDFLT
  5
E
102
{ACAD_REACTORS
330
C
102
}
100
AcDbDictionary
281
1
  3
Normal
350
F
100
AcDbDictionaryWithDefault
340
F
  0
DICTIONARY
  5
17
102
{ACAD_REACTORS
330
C
102
}
100
AcDbDictionary
280
0
281
1
  3
Standard
350
18
  0
DICTIONARY
  5
19
102
{ACAD_REACTORS
330
C
102
}
100
AcDbDictionary
281
1
  0
DICTIONARY
  5
1A
102
{ACAD_REACTORS
330
C
102
}
100
AcDbDictionary
281
1
  3
Model
350
857
  3
Layout1
350
858
  0
ACDBPLACEHOLDER
  5
F
102
{ACAD_REACTORS
330
E
102
}
  0
MLINESTYLE
  5
18
102
{ACAD_REACTORS
330
17
102
}
100
AcDbMlineStyle
  2
STANDARD
 70
0
  3

 62
256
 51
90.0
 52
90.0
 71
2
 49
0.5
 62
256
  6
BYLAYER
 49
-0.5
 62
256
  6
BYLAYER
  0
LAYOUT
  5
857
102
{ACAD_REACTORS
330
1A
102
}
100
AcDbPlotSettings
  1

  2
none_device
  4
ISO_A4_(297.00_x_210.00_MM)
  6

 40
0.0
 41
0.0
 42
0.0
 43
0.0
 44
297.0
 45
210.0
 46
0.0
 47
0.0
 48
0.0
 49
0.0
140
0.0
141
0.0
142
1.0
143
1.0
 70
1024
 72
1
 73
0
 74
0
  7

 75
0
147
1.0
148
0.0
149
0.0
100
AcDbLayout
  1
Model
 70
0
 71
0
 10
0.0
 20
0.0
 11
297.0
 21
210.0
 12
0.0
 22
0.0
 32
0.0
 14
0.0
 24
0.0
 34
0.0
 15
0.0
 25
0.0
 35
0.0
146
0.0
 13
0.0
 23
0.0
 33
0.0
 16
1.0
 26
0.0
 36
0.0
 17
0.0
 27
1.0
 37
0.0
 76
0
330
469
345
0
346
0
  0
LAYOUT
  5
858
102
{ACAD_REACTORS
330
1A
102
}
100
AcDbPlotSettings
  1

  2
none_device
  4
ISO_A4_(297.00_x_210.00_MM)
  6

 40
0.0
 41
0.0
 42
0.0
 43
0.0
 44
297.0
 45
210.0
 46
0.0
 47
0.0
 48
0.0
 49
0.0
140
0.0
141
0.0
142
1.0
143
1.0
 70
0
 72
1
 73
0
 74
0
  7

 75
0
147
1.0
148
0.0
149
0.0
100
AcDbLayout
  1
Layout1
 70
0
 71
1
 10
0.0
 20
0.0
 11
297.0
 21
210.0
 12
0.0
 22
0.0
 32
0.0
 14
0.0
 24
0.0
 34
0.0
 15
0.0
 25
0.0
 35
0.0
146
0.0
 13
0.0
 23
0.0
 33
0.0
 16
1.0
 26
0.0
 36
0.0
 17
0.0
 27
1.0
 37
0.0
 76
0
330
46A
345
0
346
0
  0
ENDSEC
  0
EOF
