  0
SECTION
  2
HEADER
  9
$ACADVER
  1
AC1021
  9
$DWGCODEPAGE
  3
ANSI_1252
  9
$EXTMAX
 10
297.0
 20
210.0
 30
0.0
  9
$EXTMIN
 10
0.0
 20
0.0
 30
0.0
  9
$LIMMIN
 10
0.0
 20
0.0
  9
$LIMMAX
 10
297.0
 20
210.0
  9
$VIEWCTR
 10
148.5
 20
105.0
  9
$VIEWSIZE
 40
210.0
  9
$CLAYER
  8
0
  9
$LTSCALE
 40
16.335
  9
$CELTYPE
  6
BYLAYER
  9
$DIMSCALE
 40
1.0
  9
$DIMASZ
 40
3.0
  9
$DIMEXO
 40
0.5
  9
$DIMDLI
 40
11.286
  9
$DIMEXE
 40
1.5
  9
$DIMCEN
 40
2.673
  9
$DIMLFAC
 40
1.0
  9
$DIMBLK
  1
_FILLED
  9
$DIMALT
 70
0
  9
$DIMALTF
 40
0.0393700787
  9
$DIMTXT
 40
3.0
  9
$DIMTOL
 70
1
  9
$DIMLIM
 70
0
  9
$DIMTFAC
 40
1.0
  9
$DIMTP
 40
0.01
  9
$DIMTM
 40
0.01
  9
$DIMGAP
 40
0.625
  9
$DIMDSEP
 70
44
  9
$AUNITS
 70
0
  9
$PDMODE
 70
3
  9
$PDSIZE
 40
3.0
  9
$HANDSEED
  5
3D8
  9
$TILEMODE
 70
1
  9
$MEASUREMENT
 70
1
  9
$INSUNITS
 70
4
  0
ENDSEC
  0
SECTION
  2
CLASSES
  0
CLASS
  1
ACDBDICTIONARYWDFLT
  2
AcDbDictionaryWithDefault
  3
AutoCAD 2000
 90
0
 91
1
280
0
281
0
  0
CLASS
  1
ACDBPLACEHOLDER
  2
AcDbPlaceHolder
  3
AutoCAD 2000
 90
0
 91
1
280
0
281
0
  0
CLASS
  1
LAYOUT
  2
AcDbLayout
  3
AutoCAD 2000
 90
0
 91
0
280
0
281
0
  0
ENDSEC
  0
SECTION
  2
TABLES
  0
TABLE
  2
VPORT
  5
8
100
AcDbSymbolTable
 70
2
  0
VPORT
  5
1F4
100
AcDbSymbolTableRecord
100
AcDbViewportTableRecord
  2
*ACTIVE
 70
0
 10
0.0
 20
0.0
 11
1.0
 21
1.0
 12
148.5
 22
105.0
 13
0.0
 23
0.0
 14
1.0
 24
1.0
 15
0.0
 25
0.0
 16
0.0
 26
0.0
 36
1.0
 17
0.0
 27
0.0
 37
0.0
 40
210.0
 41
1.4142857143
 42
50.0
 43
0.0
 44
0.0
 50
0.0
 51
0.0
 71
0
 72
100
 73
1
 74
1
 75
0
 76
0
 77
0
 78
0
  0
ENDTAB
  0
TABLE
  2
LTYPE
  5
5
100
AcDbSymbolTable
 70
6
  0
LTYPE
  5
14
100
AcDbSymbolTableRecord
100
AcDbLinetypeTableRecord
  2
BYBLOCK
 70
0
  3

 72
65
 73
0
 40
0.0
  0
LTYPE
  5
15
100
AcDbSymbolTableRecord
100
AcDbLinetypeTableRecord
  2
BYLAYER
 70
0
  3

 72
65
 73
0
 40
0.0
  0
LTYPE
  5
16
100
AcDbSymbolTableRecord
100
AcDbLinetypeTableRecord
  2
CONTINUOUS
 70
64
  3
Solid line
 72
65
 73
0
 40
0.0
  0
LTYPE
  5
1F5
100
AcDbSymbolTableRecord
100
AcDbLinetypeTableRecord
  2
CENTER
 70
64
  3
____ _ ____ _ ____ _ ____ _ ____ _ ____ _ ____
 72
65
 73
4
 40
0.6
 49
0.375
 74
0
 49
-0.075
 74
0
 49
0.075
 74
0
 49
-0.075
 74
0
  0
LTYPE
  5
1F6
100
AcDbSymbolTableRecord
100
AcDbLinetypeTableRecord
  2
HIDDEN
 70
64
  3
- - - - - - - - - - - - - - - - - - - -
 72
65
 73
2
 40
0.2
 49
0.1
 74
0
 49
-0.1
 74
0
  0
LTYPE
  5
1F7
100
AcDbSymbolTableRecord
100
AcDbLinetypeTableRecord
  2
PHANTOM
 70
64
  3
_____ _ _ _____ _ _ _____ _ _ _____
 72
65
 73
6
 40
0.8
 49
0.45
 74
0
 49
-0.05
 74
0
 49
0.1
 74
0
 49
-0.05
 74
0
 49
0.1
 74
0
 49
-0.05
 74
0
  0
LTYPE
  5
1F8
100
AcDbSymbolTableRecord
100
AcDbLinetypeTableRecord
  2
DOT
 70
64
  3
. . . . . . . . . . . . . . . . . . . .
 72
65
 73
2
 40
0.2
 49
0.1
 74
0
 49
-0.1
 74
0
  0
LTYPE
  5
1F9
100
AcDbSymbolTableRecord
100
AcDbLinetypeTableRecord
  2
DASHED
 70
64
  3
- - - - - - - - - - - - - - - - - - - -
 72
65
 73
2
 40
0.2
 49
0.1
 74
0
 49
-0.1
 74
0
  0
ENDTAB
  0
TABLE
  2
LAYER
  5
2
100
AcDbSymbolTable
 70
36
  0
LAYER
  5
10
100
AcDbSymbolTableRecord
100
AcDbLayerTableRecord
  2
0
 70
0
 62
7
  6
CONTINUOUS
370
-3
390
F
  0
LAYER
  5
1FA
100
AcDbSymbolTableRecord
100
AcDbLayerTableRecord
  2
DEFAULT_1
 70
0
 62
7
  6
CENTER
370
-3
390
F
  0
LAYER
  5
1FB
100
AcDbSymbolTableRecord
100
AcDbLayerTableRecord
  2
DEFAULT_2
 70
0
 62
7
  6
HIDDEN
370
-3
390
F
  0
LAYER
  5
1FC
100
AcDbSymbolTableRecord
100
AcDbLayerTableRecord
  2
DEFAULT_3
 70
0
 62
7
  6
PHANTOM
370
-3
390
F
  0
LAYER
  5
1FD
100
AcDbSymbolTableRecord
100
AcDbLayerTableRecord
  2
ASSI
 70
0
 62
7
  6
CONTINUOUS
370
-3
390
F
  0
LAYER
  5
1FE
100
AcDbSymbolTableRecord
100
AcDbLayerTableRecord
  2
COLOR1
 70
0
 62
7
  6
CONTINUOUS
370
-3
390
F
  0
LAYER
  5
1FF
100
AcDbSymbolTableRecord
100
AcDbLayerTableRecord
  2
COLOR14
 70
0
 62
7
  6
CONTINUOUS
370
-3
390
F
  0
LAYER
  5
200
100
AcDbSymbolTableRecord
100
AcDbLayerTableRecord
  2
COLOR5
 70
0
 62
7
  6
CONTINUOUS
370
-3
390
F
  0
LAYER
  5
201
100
AcDbSymbolTableRecord
100
AcDbLayerTableRecord
  2
COORDINATE
 70
0
 62
7
  6
CONTINUOUS
370
-3
390
F
  0
LAYER
  5
202
100
AcDbSymbolTableRecord
100
AcDbLayerTableRecord
  2
COORD_ORIGINE
 70
0
 62
7
  6
CONTINUOUS
370
-3
390
F
  0
LAYER
  5
203
100
AcDbSymbolTableRecord
100
AcDbLayerTableRecord
  2
COPY_PUBLISH
 70
0
 62
7
  6
CONTINUOUS
370
-3
390
F
  0
LAYER
  5
204
100
AcDbSymbolTableRecord
100
AcDbLayerTableRecord
  2
COSMETIC
 70
0
 62
7
  6
CONTINUOUS
370
-3
390
F
  0
LAYER
  5
205
100
AcDbSymbolTableRecord
100
AcDbLayerTableRecord
  2
CURVE
 70
0
 62
7
  6
CONTINUOUS
370
-3
390
F
  0
LAYER
  5
206
100
AcDbSymbolTableRecord
100
AcDbLayerTableRecord
  2
DRAFT
 70
0
 62
7
  6
CONTINUOUS
370
-3
390
F
  0
LAYER
  5
207
100
AcDbSymbolTableRecord
100
AcDbLayerTableRecord
  2
IGES_HOLGER
 70
0
 62
7
  6
CONTINUOUS
370
-3
390
F
  0
LAYER
  5
208
100
AcDbSymbolTableRecord
100
AcDbLayerTableRecord
  2
IMPORT_IGES
 70
0
 62
7
  6
CONTINUOUS
370
-3
390
F
  0
LAYER
  5
209
100
AcDbSymbolTableRecord
100
AcDbLayerTableRecord
  2
INTFCLR_1
 70
0
 62
7
  6
CONTINUOUS
370
-3
390
F
  0
LAYER
  5
20A
100
AcDbSymbolTableRecord
100
AcDbLayerTableRecord
  2
INTFCLR_2
 70
0
 62
7
  6
CONTINUOUS
370
-3
390
F
  0
LAYER
  5
20B
100
AcDbSymbolTableRecord
100
AcDbLayerTableRecord
  2
INTFCLR_3
 70
0
 62
7
  6
CONTINUOUS
370
-3
390
F
  0
LAYER
  5
20C
100
AcDbSymbolTableRecord
100
AcDbLayerTableRecord
  2
INTFCLR_4
 70
0
 62
7
  6
CONTINUOUS
370
-3
390
F
  0
LAYER
  5
20D
100
AcDbSymbolTableRecord
100
AcDbLayerTableRecord
  2
INTFCLR_5
 70
0
 62
7
  6
CONTINUOUS
370
-3
390
F
  0
LAYER
  5
20E
100
AcDbSymbolTableRecord
100
AcDbLayerTableRecord
  2
INTFCLR_6
 70
0
 62
7
  6
CONTINUOUS
370
-3
390
F
  0
LAYER
  5
20F
100
AcDbSymbolTableRecord
100
AcDbLayerTableRecord
  2
INTF_6
 70
0
 62
7
  6
CONTINUOUS
370
-3
390
F
  0
LAYER
  5
210
100
AcDbSymbolTableRecord
100
AcDbLayerTableRecord
  2
INTF_8
 70
0
 62
7
  6
CONTINUOUS
370
-3
390
F
  0
LAYER
  5
211
100
AcDbSymbolTableRecord
100
AcDbLayerTableRecord
  2
INTF_GREEN
 70
0
 62
7
  6
CONTINUOUS
370
-3
390
F
  0
LAYER
  5
212
100
AcDbSymbolTableRecord
100
AcDbLayerTableRecord
  2
INTF_YELLOW
 70
0
 62
7
  6
CONTINUOUS
370
-3
390
F
  0
LAYER
  5
213
100
AcDbSymbolTableRecord
100
AcDbLayerTableRecord
  2
LIVELLO_1
 70
0
 62
7
  6
CONTINUOUS
370
-3
390
F
  0
LAYER
  5
214
100
AcDbSymbolTableRecord
100
AcDbLayerTableRecord
  2
NOTE
 70
0
 62
7
  6
CONTINUOUS
370
-3
390
F
  0
LAYER
  5
215
100
AcDbSymbolTableRecord
100
AcDbLayerTableRecord
  2
PIANI
 70
0
 62
7
  6
CONTINUOUS
370
-3
390
F
  0
LAYER
  5
216
100
AcDbSymbolTableRecord
100
AcDbLayerTableRecord
  2
PIANI_ORIGINE
 70
0
 62
7
  6
CONTINUOUS
370
-3
390
F
  0
LAYER
  5
217
100
AcDbSymbolTableRecord
100
AcDbLayerTableRecord
  2
PUNTI
 70
0
 62
7
  6
CONTINUOUS
370
-3
390
F
  0
LAYER
  5
218
100
AcDbSymbolTableRecord
100
AcDbLayerTableRecord
  2
RACCORDO
 70
0
 62
7
  6
CONTINUOUS
370
-3
390
F
  0
LAYER
  5
219
100
AcDbSymbolTableRecord
100
AcDbLayerTableRecord
  2
SMUSSO
 70
0
 62
7
  6
CONTINUOUS
370
-3
390
F
  0
LAYER
  5
21A
100
AcDbSymbolTableRecord
100
AcDbLayerTableRecord
  2
SNAPLINE
 70
0
 62
7
  6
CONTINUOUS
370
-3
390
F
  0
LAYER
  5
21B
100
AcDbSymbolTableRecord
100
AcDbLayerTableRecord
  2
SUPERFICI
 70
0
 62
7
  6
CONTINUOUS
370
-3
390
F
  0
LAYER
  5
21C
100
AcDbSymbolTableRecord
100
AcDbLayerTableRecord
  2
TRASH
 70
0
 62
7
  6
CONTINUOUS
370
-3
390
F
  0
LAYER
  5
21D
100
AcDbSymbolTableRecord
100
AcDbLayerTableRecord
  2
WHITE
 70
0
 62
7
  6
CONTINUOUS
370
-3
390
F
  0
LAYER
  5
21E
100
AcDbSymbolTableRecord
100
AcDbLayerTableRecord
  2
XSEC_DATUMS
 70
0
 62
7
  6
CONTINUOUS
370
-3
390
F
  0
ENDTAB
  0
TABLE
  2
STYLE
  5
3
100
AcDbSymbolTable
 70
1
  0
STYLE
  5
11
100
AcDbSymbolTableRecord
100
AcDbTextStyleTableRecord
  2
STANDARD
 70
0
 40
0.0
 41
0.8
 50
0.0
 71
0
 42
0.2
  3
txt
  4

  0
STYLE
  5
21F
100
AcDbSymbolTableRecord
100
AcDbTextStyleTableRecord
  2
TEXTSTYLE_1
 70
0
 40
0.0
 41
0.8
 50
0.0
 71
0
 42
0.2
  3
gdt
  4

  0
ENDTAB
  0
TABLE
  2
VIEW
  5
6
100
AcDbSymbolTable
 70
0
  0
ENDTAB
  0
TABLE
  2
UCS
  5
7
100
AcDbSymbolTable
 70
0
  0
ENDTAB
  0
TABLE
  2
APPID
  5
9
100
AcDbSymbolTable
 70
1
  0
APPID
  5
220
100
AcDbSymbolTableRecord
100
AcDbRegAppTableRecord
  2
ACAD
 70
0
  0
ENDTAB
  0
TABLE
  2
BLOCK_RECORD
  5
1
100
AcDbSymbolTable
 70
0
  0
BLOCK_RECORD
  5
221
100
AcDbSymbolTableRecord
100
AcDbBlockTableRecord
  2
*Model_Space
  0
BLOCK_RECORD
  5
222
100
AcDbSymbolTableRecord
100
AcDbBlockTableRecord
  2
*Paper_Space
  0
ENDTAB
  0
TABLE
  2
DIMSTYLE
  5
A
100
AcDbSymbolTable
 70
1
100
AcDbDimStyleTable
 71
0
  0
DIMSTYLE
105
223
100
AcDbSymbolTableRecord
100
AcDbDimStyleTableRecord
  2
STANDARD
 70
0
  3

  4

 40
1.0
 41
3.0
 42
0.5
 43
0.38
 44
1.5
 45
0.0
 46
0.0
 47
0.01
 48
0.01
140
3.0
141
0.09
142
0.0
143
25.4
144
1.0
145
0.0
146
1.0
147
0.625
 71
1.0
 72
0.0
 73
0
 74
0
 75
0
 76
0
 77
1
 78
8
170
0
171
2
172
0
173
0
174
0
175
0
176
0
177
0
178
0
270
2
271
2
272
2
273
2
274
2
275
0
280
0
281
0
282
0
283
1
284
8
285
0
286
0
287
3
288
0
340
11
278
44
  0
ENDTAB
  0
ENDSEC
  0
SECTION
  2
BLOCKS
  0
BLOCK
  5
20
100
AcDbEntity
  8
0
100
AcDbBlockBegin
  2
*Model_Space
 70
0
 10
0.0
 20
0.0
 30
0.0
  3
*Model_Space
  1

  0
ENDBLK
  5
21
100
AcDbEntity
  8
0
100
AcDbBlockEnd
  0
BLOCK
  5
1C
100
AcDbEntity
  8
0
100
AcDbBlockBegin
  2
*Paper_Space
 70
0
 10
0.0
 20
0.0
 30
0.0
  3
*Paper_Space
  1

  0
ENDBLK
  5
1D
100
AcDbEntity
  8
0
100
AcDbBlockEnd
  0
ENDSEC
  0
SECTION
  2
ENTITIES
  0
LINE
  5
224
100
AcDbEntity
  8
RACCORDO
100
AcDbLine
 62
7
  6
CONTINUOUS
 10
187.4933918622
 20
35.4143313591
 11
128.1456047521
 21
35.4143313591
  0
LINE
  5
225
100
AcDbEntity
  8
RACCORDO
100
AcDbLine
 62
7
  6
CONTINUOUS
 10
118.0408743626
 20
35.4143313591
 11
117.6930872525
 21
35.4143313591
  0
LINE
  5
226
100
AcDbEntity
  8
DRAFT
100
AcDbLine
 62
7
  6
CONTINUOUS
 10
128.0932395574
 20
35.4666965539
 11
118.0932395574
 21
35.4666965539
  0
LINE
  5
227
100
AcDbEntity
  8
RACCORDO
100
AcDbLine
 62
7
  6
CONTINUOUS
 10
187.3886614726
 20
35.5190617487
 11
117.7978176421
 21
35.5190617487
  0
LINE
  5
228
100
AcDbEntity
  8
0
100
AcDbLine
 62
7
  6
CONTINUOUS
 10
157.0932395574
 20
36.3143313591
 11
148.0932395574
 21
36.3143313591
  0
LINE
  5
229
100
AcDbEntity
  8
0
100
AcDbLine
 62
7
  6
CONTINUOUS
 10
187.0432395574
 20
36.8143313591
 11
158.0932395574
 21
36.8143313591
  0
LINE
  5
22A
100
AcDbEntity
  8
ASSI
100
AcDbLine
 62
7
  6
CONTINUOUS
 10
147.0932395574
 20
36.8143313591
 11
129.0932395574
 21
36.8143313591
  0
LINE
  5
22B
100
AcDbEntity
  8
0
100
AcDbLine
 62
7
  6
CONTINUOUS
 10
124.0932395574
 20
37.4143313591
 11
122.0932395574
 21
37.4143313591
  0
LINE
  5
22C
100
AcDbEntity
  8
DRAFT
100
AcDbLine
 62
7
  6
CONTINUOUS
 10
128.1456047521
 20
35.4143313591
 11
128.0932395574
 21
35.4666965539
  0
LINE
  5
22D
100
AcDbEntity
  8
RACCORDO
100
AcDbLine
 62
7
  6
CONTINUOUS
 10
156.4933157098
 20
40.2143313591
 11
148.6931634049
 21
40.2143313591
  0
LINE
  5
22E
100
AcDbEntity
  8
RACCORDO
100
AcDbLine
 62
7
  6
CONTINUOUS
 10
156.4182589306
 20
40.2893881383
 11
148.7682201841
 21
40.2893881383
  0
LINE
  5
22F
100
AcDbEntity
  8
0
100
AcDbLine
 62
7
  6
CONTINUOUS
 10
122.0932395574
 20
41.4143313591
 11
124.0932395574
 21
41.4143313591
  0
LINE
  5
230
100
AcDbEntity
  8
DRAFT
100
AcDbLine
 62
7
  6
CONTINUOUS
 10
149.2821468301
 20
41.7143313591
 11
155.9043322846
 21
41.7143313591
  0
LINE
  5
231
100
AcDbEntity
  8
0
100
AcDbLine
 62
7
  6
CONTINUOUS
 10
143.3932395574
 20
43.1143313591
 11
145.5932395574
 21
43.1143313591
  0
LINE
  5
232
100
AcDbEntity
  8
0
100
AcDbLine
 62
7
  6
CONTINUOUS
 10
159.5932395574
 20
43.1143313591
 11
161.7932395574
 21
43.1143313591
  0
LINE
  5
233
100
AcDbEntity
  8
0
100
AcDbLine
 62
7
  6
CONTINUOUS
 10
182.5932395574
 20
43.1143313591
 11
184.7932395574
 21
43.1143313591
  0
LINE
  5
234
100
AcDbEntity
  8
RACCORDO
100
AcDbLine
 62
7
  6
CONTINUOUS
 10
157.0932395574
 20
43.5643313591
 11
156.9932395574
 21
43.5643313591
  0
LINE
  5
235
100
AcDbEntity
  8
RACCORDO
100
AcDbLine
 62
7
  6
CONTINUOUS
 10
155.8292755054
 20
43.5643313591
 11
149.3572036093
 21
43.5643313591
  0
LINE
  5
236
100
AcDbEntity
  8
RACCORDO
100
AcDbLine
 62
7
  6
CONTINUOUS
 10
148.1932395574
 20
43.5643313591
 11
148.0932395574
 21
43.5643313591
  0
LINE
  5
237
100
AcDbEntity
  8
DRAFT
100
AcDbLine
 62
7
  6
CONTINUOUS
 10
187.0432395574
 20
43.7143313591
 11
183.3432395574
 21
43.7143313591
  0
LINE
  5
238
100
AcDbEntity
  8
DRAFT
100
AcDbLine
 62
7
  6
CONTINUOUS
 10
183.3083294275
 20
43.7143313591
 11
158.0932395574
 21
43.7143313591
  0
LINE
  5
239
100
AcDbEntity
  8
ASSI
100
AcDbLine
 62
7
  6
CONTINUOUS
 10
147.0932395574
 20
43.7143313591
 11
129.0932395574
 21
43.7143313591
  0
LINE
  5
23A
100
AcDbEntity
  8
DRAFT
100
AcDbLine
 62
7
  6
CONTINUOUS
 10
155.8554581028
 20
43.9143313591
 11
149.3310210119
 21
43.9143313591
  0
LINE
  5
23B
100
AcDbEntity
  8
DRAFT
100
AcDbLine
 62
7
  6
CONTINUOUS
 10
157.0932395574
 20
45.0643313591
 11
156.9932395574
 21
45.0643313591
  0
LINE
  5
23C
100
AcDbEntity
  8
DRAFT
100
AcDbLine
 62
7
  6
CONTINUOUS
 10
148.1932395574
 20
45.0643313591
 11
148.0932395574
 21
45.0643313591
  0
LINE
  5
23D
100
AcDbEntity
  8
DRAFT
100
AcDbLine
 62
7
  6
CONTINUOUS
 10
157.0932395574
 20
45.1158198791
 11
156.9932395574
 21
45.1158198791
  0
LINE
  5
23E
100
AcDbEntity
  8
DRAFT
100
AcDbLine
 62
7
  6
CONTINUOUS
 10
148.1932395574
 20
45.1158198791
 11
148.0932395574
 21
45.1158198791
  0
LINE
  5
23F
100
AcDbEntity
  8
DRAFT
100
AcDbLine
 62
7
  6
CONTINUOUS
 10
148.0932395574
 20
45.6143313591
 11
148.1932395574
 21
45.6143313591
  0
LINE
  5
240
100
AcDbEntity
  8
DRAFT
100
AcDbLine
 62
7
  6
CONTINUOUS
 10
156.9932395574
 20
45.6143313591
 11
157.0932395574
 21
45.6143313591
  0
LINE
  5
241
100
AcDbEntity
  8
0
100
AcDbLine
 62
7
  6
CONTINUOUS
 10
148.0932395574
 20
46.6143313591
 11
148.9432395574
 21
46.6143313591
  0
LINE
  5
242
100
AcDbEntity
  8
0
100
AcDbLine
 62
7
  6
CONTINUOUS
 10
156.2432395574
 20
46.6143313591
 11
157.0932395574
 21
46.6143313591
  0
LINE
  5
243
100
AcDbEntity
  8
DRAFT
100
AcDbLine
 62
7
  6
CONTINUOUS
 10
116.6932395574
 20
108.0643313591
 11
116.7979699469
 21
108.3787780348
  0
LINE
  5
244
100
AcDbEntity
  8
DRAFT
100
AcDbLine
 62
7
  6
CONTINUOUS
 10
149.3310210119
 20
48.7143313591
 11
155.8554581028
 21
48.7143313591
  0
LINE
  5
245
100
AcDbEntity
  8
DRAFT
100
AcDbLine
 62
7
  6
CONTINUOUS
 10
116.7979699469
 20
69.7498846834
 11
116.7368772197
 21
69.9333119109
  0
LINE
  5
246
100
AcDbEntity
  8
SMUSSO
100
AcDbLine
 62
7
  6
CONTINUOUS
 10
116.7239829122
 20
72.4720262911
 11
116.6932395574
 21
72.5643313591
  0
LINE
  5
247
100
AcDbEntity
  8
SMUSSO
100
AcDbLine
 62
7
  6
CONTINUOUS
 10
116.7368772197
 20
71.7333119109
 11
116.7239829122
 21
72.4720262911
  0
LINE
  5
248
100
AcDbEntity
  8
RACCORDO
100
AcDbLine
 62
7
  6
CONTINUOUS
 10
116.6932395574
 20
36.4141790543
 11
116.6932395574
 21
54.4143313591
  0
LINE
  5
249
100
AcDbEntity
  8
DRAFT
100
AcDbLine
 62
7
  6
CONTINUOUS
 10
116.6932395574
 20
54.4143313591
 11
116.6932395574
 21
69.0081210368
  0
LINE
  5
24A
100
AcDbEntity
  8
RACCORDO
100
AcDbLine
 62
7
  6
CONTINUOUS
 10
116.6932395574
 20
126.2143313591
 11
116.6932395574
 21
144.2144836639
  0
LINE
  5
24B
100
AcDbEntity
  8
DRAFT
100
AcDbLine
 62
7
  6
CONTINUOUS
 10
116.6932395574
 20
72.5643313591
 11
116.6932395574
 21
126.2143313591
  0
LINE
  5
24C
100
AcDbEntity
  8
DRAFT
100
AcDbLine
 62
7
  6
CONTINUOUS
 10
116.7054581028
 20
57.6643313591
 11
116.7054581028
 21
62.9643313591
  0
LINE
  5
24D
100
AcDbEntity
  8
DRAFT
100
AcDbLine
 62
7
  6
CONTINUOUS
 10
116.7054581028
 20
117.6643313591
 11
116.7054581028
 21
122.9643313591
  0
LINE
  5
24E
100
AcDbEntity
  8
SMUSSO
100
AcDbLine
 62
7
  6
CONTINUOUS
 10
116.7368772197
 20
71.7333119109
 11
116.7368772197
 21
69.9333119109
  0
LINE
  5
24F
100
AcDbEntity
  8
DRAFT
100
AcDbLine
 62
7
  6
CONTINUOUS
 10
116.7630598171
 20
122.9643313591
 11
116.7630598171
 21
117.6643313591
  0
LINE
  5
250
100
AcDbEntity
  8
DRAFT
100
AcDbLine
 62
7
  6
CONTINUOUS
 10
116.7630598171
 20
62.9643313591
 11
116.7630598171
 21
57.6643313591
  0
LINE
  5
251
100
AcDbEntity
  8
RACCORDO
100
AcDbLine
 62
7
  6
CONTINUOUS
 10
116.7944789339
 20
55.4143313591
 11
116.7944789339
 21
65.2143313591
  0
LINE
  5
252
100
AcDbEntity
  8
RACCORDO
100
AcDbLine
 62
7
  6
CONTINUOUS
 10
116.7944789339
 20
115.4143313591
 11
116.7944789339
 21
125.2143313591
  0
LINE
  5
253
100
AcDbEntity
  8
RACCORDO
100
AcDbLine
 62
7
  6
CONTINUOUS
 10
116.7979699469
 20
36.5189094438
 11
116.7979699469
 21
54.3143313591
  0
LINE
  5
254
100
AcDbEntity
  8
DRAFT
100
AcDbLine
 62
7
  6
CONTINUOUS
 10
116.7979699469
 20
66.3143313591
 11
116.7979699469
 21
69.7498846834
  0
LINE
  5
255
100
AcDbEntity
  8
DRAFT
100
AcDbLine
 62
7
  6
CONTINUOUS
 10
116.7979699469
 20
108.3787780348
 11
116.7979699469
 21
114.3143313591
  0
LINE
  5
256
100
AcDbEntity
  8
RACCORDO
100
AcDbLine
 62
7
  6
CONTINUOUS
 10
116.7979699469
 20
126.3143313591
 11
116.7979699469
 21
144.1097532744
  0
LINE
  5
257
100
AcDbEntity
  8
DRAFT
100
AcDbLine
 62
7
  6
CONTINUOUS
 10
117.4543322846
 20
66.3143313591
 11
117.4543322846
 21
66.2143313591
  0
LINE
  5
258
100
AcDbEntity
  8
DRAFT
100
AcDbLine
 62
7
  6
CONTINUOUS
 10
117.4543322846
 20
54.4143313591
 11
117.4543322846
 21
54.3143313591
  0
LINE
  5
259
100
AcDbEntity
  8
DRAFT
100
AcDbLine
 62
7
  6
CONTINUOUS
 10
117.4543322846
 20
114.3143313591
 11
117.4543322846
 21
114.4143313591
  0
LINE
  5
25A
100
AcDbEntity
  8
DRAFT
100
AcDbLine
 62
7
  6
CONTINUOUS
 10
117.4543322846
 20
126.2143313591
 11
117.4543322846
 21
126.3143313591
  0
LINE
  5
25B
100
AcDbEntity
  8
DRAFT
100
AcDbLine
 62
7
  6
CONTINUOUS
 10
117.4717873495
 20
126.3143313591
 11
117.4717873495
 21
126.2143313591
  0
LINE
  5
25C
100
AcDbEntity
  8
DRAFT
100
AcDbLine
 62
7
  6
CONTINUOUS
 10
117.4717873495
 20
114.4143313591
 11
117.4717873495
 21
114.3143313591
  0
LINE
  5
25D
100
AcDbEntity
  8
DRAFT
100
AcDbLine
 62
7
  6
CONTINUOUS
 10
117.4717873495
 20
66.3143313591
 11
117.4717873495
 21
66.2143313591
  0
LINE
  5
25E
100
AcDbEntity
  8
DRAFT
100
AcDbLine
 62
7
  6
CONTINUOUS
 10
117.4717873495
 20
54.4143313591
 11
117.4717873495
 21
54.3143313591
  0
LINE
  5
25F
100
AcDbEntity
  8
0
100
AcDbLine
 62
7
  6
CONTINUOUS
 10
117.5610871938
 20
123.0143313591
 11
117.5610871938
 21
117.6143313591
  0
LINE
  5
260
100
AcDbEntity
  8
0
100
AcDbLine
 62
7
  6
CONTINUOUS
 10
117.5610871938
 20
57.6143313591
 11
117.5610871938
 21
63.0143313591
  0
LINE
  5
261
100
AcDbEntity
  8
RACCORDO
100
AcDbLine
 62
7
  6
CONTINUOUS
 10
117.9610871938
 20
55.4143313591
 11
117.9610871938
 21
57.6143313591
  0
LINE
  5
262
100
AcDbEntity
  8
RACCORDO
100
AcDbLine
 62
7
  6
CONTINUOUS
 10
117.9610871938
 20
63.0143313591
 11
117.9610871938
 21
65.2143313591
  0
LINE
  5
263
100
AcDbEntity
  8
RACCORDO
100
AcDbLine
 62
7
  6
CONTINUOUS
 10
117.9610871938
 20
115.4143313591
 11
117.9610871938
 21
117.6143313591
  0
LINE
  5
264
100
AcDbEntity
  8
RACCORDO
100
AcDbLine
 62
7
  6
CONTINUOUS
 10
117.9610871938
 20
123.0143313591
 11
117.9610871938
 21
125.2143313591
  0
LINE
  5
265
100
AcDbEntity
  8
0
100
AcDbLine
 62
7
  6
CONTINUOUS
 10
117.973557431
 20
123.0143313591
 11
117.973557431
 21
117.6143313591
  0
LINE
  5
266
100
AcDbEntity
  8
0
100
AcDbLine
 62
7
  6
CONTINUOUS
 10
117.973557431
 20
57.6143313591
 11
117.973557431
 21
63.0143313591
  0
LINE
  5
267
100
AcDbEntity
  8
DRAFT
100
AcDbLine
 62
7
  6
CONTINUOUS
 10
117.994386695
 20
122.8564397039
 11
117.994386695
 21
117.7722230143
  0
LINE
  5
268
100
AcDbEntity
  8
DRAFT
100
AcDbLine
 62
7
  6
CONTINUOUS
 10
117.994386695
 20
62.8564397039
 11
117.994386695
 21
57.7722230143
  0
LINE
  5
269
100
AcDbEntity
  8
DRAFT
100
AcDbLine
 62
7
  6
CONTINUOUS
 10
118.0448715055
 20
126.3143313591
 11
118.0448715055
 21
126.2143313591
  0
LINE
  5
26A
100
AcDbEntity
  8
DRAFT
100
AcDbLine
 62
7
  6
CONTINUOUS
 10
118.0448715055
 20
114.4143313591
 11
118.0448715055
 21
114.3143313591
  0
LINE
  5
26B
100
AcDbEntity
  8
DRAFT
100
AcDbLine
 62
7
  6
CONTINUOUS
 10
118.0448715055
 20
66.3143313591
 11
118.0448715055
 21
66.2143313591
  0
LINE
  5
26C
100
AcDbEntity
  8
DRAFT
100
AcDbLine
 62
7
  6
CONTINUOUS
 10
118.0448715055
 20
54.4143313591
 11
118.0448715055
 21
54.3143313591
  0
LINE
  5
26D
100
AcDbEntity
  8
DRAFT
100
AcDbLine
 62
7
  6
CONTINUOUS
 10
118.0480577138
 20
57.7816142257
 11
118.0480577138
 21
58.0143313591
  0
LINE
  5
26E
100
AcDbEntity
  8
DRAFT
100
AcDbLine
 62
7
  6
CONTINUOUS
 10
118.0480577138
 20
62.6143313591
 11
118.0480577138
 21
62.8470484925
  0
LINE
  5
26F
100
AcDbEntity
  8
DRAFT
100
AcDbLine
 62
7
  6
CONTINUOUS
 10
118.0480577138
 20
117.7816142257
 11
118.0480577138
 21
118.0143313591
  0
LINE
  5
270
100
AcDbEntity
  8
DRAFT
100
AcDbLine
 62
7
  6
CONTINUOUS
 10
118.0480577138
 20
122.6143313591
 11
118.0480577138
 21
122.8470484925
  0
LINE
  5
271
100
AcDbEntity
  8
DRAFT
100
AcDbLine
 62
7
  6
CONTINUOUS
 10
118.1048384145
 20
126.3143313591
 11
118.1048384145
 21
122.6143313591
  0
LINE
  5
272
100
AcDbEntity
  8
DRAFT
100
AcDbLine
 62
7
  6
CONTINUOUS
 10
118.1048384145
 20
54.3143313591
 11
118.1048384145
 21
58.0143313591
  0
LINE
  5
273
100
AcDbEntity
  8
DRAFT
100
AcDbLine
 62
7
  6
CONTINUOUS
 10
118.1048384145
 20
62.6143313591
 11
118.1048384145
 21
66.3143313591
  0
LINE
  5
274
100
AcDbEntity
  8
DRAFT
100
AcDbLine
 62
7
  6
CONTINUOUS
 10
118.1048384145
 20
114.3143313591
 11
118.1048384145
 21
118.0143313591
  0
LINE
  5
275
100
AcDbEntity
  8
DRAFT
100
AcDbLine
 62
7
  6
CONTINUOUS
 10
118.1432395574
 20
136.8302062985
 11
118.1432395574
 21
143.8143313591
  0
LINE
  5
276
100
AcDbEntity
  8
DRAFT
100
AcDbLine
 62
7
  6
CONTINUOUS
 10
118.1816297997
 20
122.6143313591
 11
118.1816297997
 21
118.0143313591
  0
LINE
  5
277
100
AcDbEntity
  8
DRAFT
100
AcDbLine
 62
7
  6
CONTINUOUS
 10
118.1816297997
 20
58.0143313591
 11
118.1816297997
 21
62.6143313591
  0
LINE
  5
278
100
AcDbEntity
  8
DRAFT
100
AcDbLine
 62
7
  6
CONTINUOUS
 10
116.6932395574
 20
54.3143313591
 11
118.1048384145
 21
54.3143313591
  0
LINE
  5
279
100
AcDbEntity
  8
DRAFT
100
AcDbLine
 62
7
  6
CONTINUOUS
 10
187.0816407002
 20
54.3143313591
 11
188.4932395574
 21
54.3143313591
  0
LINE
  5
27A
100
AcDbEntity
  8
RACCORDO
100
AcDbLine
 62
7
  6
CONTINUOUS
 10
116.6932395574
 20
54.4143313591
 11
118.0448715055
 21
54.4143313591
  0
LINE
  5
27B
100
AcDbEntity
  8
RACCORDO
100
AcDbLine
 62
7
  6
CONTINUOUS
 10
187.1416076092
 20
54.4143313591
 11
188.4932395574
 21
54.4143313591
  0
LINE
  5
27C
100
AcDbEntity
  8
RACCORDO
100
AcDbLine
 62
253
  6
CONTINUOUS
 10
116.7944789339
 20
55.4143313591
 11
117.9610871938
 21
55.4143313591
  0
LINE
  5
27D
100
AcDbEntity
  8
RACCORDO
100
AcDbLine
 62
253
  6
CONTINUOUS
 10
187.2253919209
 20
55.4143313591
 11
188.3920001808
 21
55.4143313591
  0
LINE
  5
27E
100
AcDbEntity
  8
0
100
AcDbLine
 62
7
  6
CONTINUOUS
 10
120.3932395574
 20
143.8143313591
 11
120.3932395574
 21
137.5143313591
  0
LINE
  5
27F
100
AcDbEntity
  8
DRAFT
100
AcDbLine
 62
7
  6
CONTINUOUS
 10
121.8781496872
 20
135.0643313591
 11
121.8781496872
 21
136.9143313591
  0
LINE
  5
280
100
AcDbEntity
  8
DRAFT
100
AcDbLine
 62
7
  6
CONTINUOUS
 10
149.2821468301
 20
56.3029942921
 11
149.3432395574
 21
56.3193640391
  0
LINE
  5
281
100
AcDbEntity
  8
DRAFT
100
AcDbLine
 62
7
  6
CONTINUOUS
 10
187.1384214009
 20
62.8470484925
 11
187.1920924198
 21
62.8564397039
  0
LINE
  5
282
100
AcDbEntity
  8
DRAFT
100
AcDbLine
 62
7
  6
CONTINUOUS
 10
188.4810210119
 20
62.9643313591
 11
188.4238555221
 21
62.9593376644
  0
LINE
  5
283
100
AcDbEntity
  8
DRAFT
100
AcDbLine
 62
7
  6
CONTINUOUS
 10
187.1925001199
 20
62.8517725421
 11
187.1384214009
 21
62.8470484925
  0
LINE
  5
284
100
AcDbEntity
  8
0
100
AcDbLine
 62
7
  6
CONTINUOUS
 10
117.5610871938
 20
57.6143313591
 11
117.973557431
 21
57.6143313591
  0
LINE
  5
285
100
AcDbEntity
  8
0
100
AcDbLine
 62
7
  6
CONTINUOUS
 10
187.2129216838
 20
57.6143313591
 11
187.6253919209
 21
57.6143313591
  0
LINE
  5
286
100
AcDbEntity
  8
DRAFT
100
AcDbLine
 62
7
  6
CONTINUOUS
 10
188.4810210119
 20
57.6643313591
 11
188.4234192976
 21
57.6643313591
  0
LINE
  5
287
100
AcDbEntity
  8
DRAFT
100
AcDbLine
 62
7
  6
CONTINUOUS
 10
116.7630598171
 20
57.6643313591
 11
116.7054581028
 21
57.6643313591
  0
LINE
  5
288
100
AcDbEntity
  8
DRAFT
100
AcDbLine
 62
7
  6
CONTINUOUS
 10
187.1920924198
 20
58.0143313591
 11
187.004849315
 21
58.0143313591
  0
LINE
  5
289
100
AcDbEntity
  8
DRAFT
100
AcDbLine
 62
7
  6
CONTINUOUS
 10
117.994386695
 20
58.0143313591
 11
118.1816297997
 21
58.0143313591
  0
LINE
  5
28A
100
AcDbEntity
  8
DRAFT
100
AcDbLine
 62
7
  6
CONTINUOUS
 10
116.7054581028
 20
62.9643313591
 11
116.7626235926
 21
62.9593376644
  0
LINE
  5
28B
100
AcDbEntity
  8
DRAFT
100
AcDbLine
 62
7
  6
CONTINUOUS
 10
118.0480577138
 20
62.8470484925
 11
117.994386695
 21
62.8564397039
  0
LINE
  5
28C
100
AcDbEntity
  8
DRAFT
100
AcDbLine
 62
7
  6
CONTINUOUS
 10
155.9043322846
 20
56.3029942921
 11
155.8432395574
 21
56.3193640391
  0
LINE
  5
28D
100
AcDbEntity
  8
RACCORDO
100
AcDbLine
 62
253
  6
CONTINUOUS
 10
156.4933157098
 20
40.2143313591
 11
156.4182589306
 21
40.2893881383
  0
LINE
  5
28E
100
AcDbEntity
  8
RACCORDO
100
AcDbLine
 62
253
  6
CONTINUOUS
 10
156.9932395574
 20
40.7142552067
 11
156.9181827782
 21
40.7893119859
  0
LINE
  5
28F
100
AcDbEntity
  8
0
100
AcDbLine
 62
7
  6
CONTINUOUS
 10
122.5932395574
 20
143.8143313591
 11
122.5932395574
 21
137.5143313591
  0
LINE
  5
290
100
AcDbEntity
  8
DRAFT
100
AcDbLine
 62
7
  6
CONTINUOUS
 10
125.0932395574
 20
106.2643313591
 11
125.0932395574
 21
108.331971086
  0
LINE
  5
291
100
AcDbEntity
  8
DRAFT
100
AcDbLine
 62
7
  6
CONTINUOUS
 10
126.8432395574
 20
106.2643313591
 11
126.8432395574
 21
108.331971086
  0
LINE
  5
292
100
AcDbEntity
  8
DRAFT
100
AcDbLine
 62
7
  6
CONTINUOUS
 10
155.9043322846
 20
60.9256684261
 11
155.8432395574
 21
60.9092986791
  0
LINE
  5
293
100
AcDbEntity
  8
DRAFT
100
AcDbLine
 62
7
  6
CONTINUOUS
 10
117.994386695
 20
57.7722230143
 11
118.0480577138
 21
57.7816142257
  0
LINE
  5
294
100
AcDbEntity
  8
DRAFT
100
AcDbLine
 62
7
  6
CONTINUOUS
 10
116.7054581028
 20
57.6643313591
 11
116.7626235926
 21
57.6693250538
  0
LINE
  5
295
100
AcDbEntity
  8
DRAFT
100
AcDbLine
 62
7
  6
CONTINUOUS
 10
117.9939789948
 20
57.7768901761
 11
118.0480577138
 21
57.7816142257
  0
LINE
  5
296
100
AcDbEntity
  8
DRAFT
100
AcDbLine
 62
7
  6
CONTINUOUS
 10
187.1920924198
 20
62.6143313591
 11
187.004849315
 21
62.6143313591
  0
LINE
  5
297
100
AcDbEntity
  8
DRAFT
100
AcDbLine
 62
7
  6
CONTINUOUS
 10
117.994386695
 20
62.6143313591
 11
118.1816297997
 21
62.6143313591
  0
LINE
  5
298
100
AcDbEntity
  8
DRAFT
100
AcDbLine
 62
7
  6
CONTINUOUS
 10
116.7054581028
 20
62.9643313591
 11
116.7630598171
 21
62.9643313591
  0
LINE
  5
299
100
AcDbEntity
  8
DRAFT
100
AcDbLine
 62
7
  6
CONTINUOUS
 10
188.4234192976
 20
62.9643313591
 11
188.4810210119
 21
62.9643313591
  0
LINE
  5
29A
100
AcDbEntity
  8
0
100
AcDbLine
 62
7
  6
CONTINUOUS
 10
117.5610871938
 20
63.0143313591
 11
117.973557431
 21
63.0143313591
  0
LINE
  5
29B
100
AcDbEntity
  8
0
100
AcDbLine
 62
7
  6
CONTINUOUS
 10
187.2129216838
 20
63.0143313591
 11
187.6253919209
 21
63.0143313591
  0
LINE
  5
29C
100
AcDbEntity
  8
DRAFT
100
AcDbLine
 62
7
  6
CONTINUOUS
 10
188.4810210119
 20
57.6643313591
 11
188.4238555221
 21
57.6693250538
  0
LINE
  5
29D
100
AcDbEntity
  8
DRAFT
100
AcDbLine
 62
7
  6
CONTINUOUS
 10
187.1925001199
 20
57.7768901761
 11
187.1384214009
 21
57.7816142257
  0
LINE
  5
29E
100
AcDbEntity
  8
DRAFT
100
AcDbLine
 62
7
  6
CONTINUOUS
 10
187.1920924198
 20
57.7722230143
 11
187.1384214009
 21
57.7816142257
  0
LINE
  5
29F
100
AcDbEntity
  8
DRAFT
100
AcDbLine
 62
7
  6
CONTINUOUS
 10
149.2821468301
 20
60.9256684261
 11
149.3432395574
 21
60.9092986791
  0
LINE
  5
2A0
100
AcDbEntity
  8
DRAFT
100
AcDbLine
 62
7
  6
CONTINUOUS
 10
128.3432395574
 20
106.2643313591
 11
128.3432395574
 21
108.331971086
  0
LINE
  5
2A1
100
AcDbEntity
  8
ASSI
100
AcDbLine
 62
7
  6
CONTINUOUS
 10
129.0932395574
 20
43.7143313591
 11
129.0932395574
 21
36.8143313591
  0
LINE
  5
2A2
100
AcDbEntity
  8
DRAFT
100
AcDbLine
 62
7
  6
CONTINUOUS
 10
130.0932395574
 20
106.2643313591
 11
130.0932395574
 21
108.331971086
  0
LINE
  5
2A3
100
AcDbEntity
  8
RACCORDO
100
AcDbLine
 62
253
  6
CONTINUOUS
 10
116.7944789339
 20
65.2143313591
 11
117.9610871938
 21
65.2143313591
  0
LINE
  5
2A4
100
AcDbEntity
  8
RACCORDO
100
AcDbLine
 62
253
  6
CONTINUOUS
 10
187.2253919209
 20
65.2143313591
 11
188.3920001808
 21
65.2143313591
  0
LINE
  5
2A5
100
AcDbEntity
  8
RACCORDO
100
AcDbLine
 62
7
  6
CONTINUOUS
 10
116.6932395574
 20
66.2143313591
 11
118.0448715055
 21
66.2143313591
  0
LINE
  5
2A6
100
AcDbEntity
  8
RACCORDO
100
AcDbLine
 62
7
  6
CONTINUOUS
 10
187.1416076092
 20
66.2143313591
 11
188.4932395574
 21
66.2143313591
  0
LINE
  5
2A7
100
AcDbEntity
  8
DRAFT
100
AcDbLine
 62
7
  6
CONTINUOUS
 10
116.6932395574
 20
66.3143313591
 11
118.1048384145
 21
66.3143313591
  0
LINE
  5
2A8
100
AcDbEntity
  8
DRAFT
100
AcDbLine
 62
7
  6
CONTINUOUS
 10
187.0816407002
 20
66.3143313591
 11
188.4932395574
 21
66.3143313591
  0
LINE
  5
2A9
100
AcDbEntity
  8
0
100
AcDbLine
 62
7
  6
CONTINUOUS
 10
148.0932395574
 20
69.0643313591
 11
148.9432395574
 21
69.0643313591
  0
LINE
  5
2AA
100
AcDbEntity
  8
0
100
AcDbLine
 62
7
  6
CONTINUOUS
 10
149.3572036093
 20
69.0643313591
 11
149.4432395574
 21
69.0643313591
  0
LINE
  5
2AB
100
AcDbEntity
  8
0
100
AcDbLine
 62
7
  6
CONTINUOUS
 10
155.7432395574
 20
69.0643313591
 11
155.8292755054
 21
69.0643313591
  0
LINE
  5
2AC
100
AcDbEntity
  8
0
100
AcDbLine
 62
7
  6
CONTINUOUS
 10
156.2432395574
 20
69.0643313591
 11
157.0932395574
 21
69.0643313591
  0
LINE
  5
2AD
100
AcDbEntity
  8
DRAFT
100
AcDbLine
 62
7
  6
CONTINUOUS
 10
188.3885091678
 20
69.7498846834
 11
157.0932395574
 21
69.7498846834
  0
LINE
  5
2AE
100
AcDbEntity
  8
DRAFT
100
AcDbLine
 62
7
  6
CONTINUOUS
 10
148.0932395574
 20
69.7498846834
 11
116.7979699469
 21
69.7498846834
  0
LINE
  5
2AF
100
AcDbEntity
  8
DRAFT
100
AcDbLine
 62
7
  6
CONTINUOUS
 10
188.449601895
 20
69.9333119109
 11
157.0932395574
 21
69.9333119109
  0
LINE
  5
2B0
100
AcDbEntity
  8
DRAFT
100
AcDbLine
 62
7
  6
CONTINUOUS
 10
148.0932395574
 20
69.9333119109
 11
116.7368772197
 21
69.9333119109
  0
LINE
  5
2B1
100
AcDbEntity
  8
DRAFT
100
AcDbLine
 62
7
  6
CONTINUOUS
 10
155.9043322846
 20
71.0143313591
 11
149.2821468301
 21
71.0143313591
  0
LINE
  5
2B2
100
AcDbEntity
  8
SMUSSO
100
AcDbLine
 62
7
  6
CONTINUOUS
 10
116.7368772197
 20
71.7333119109
 11
148.0932395574
 21
71.7333119109
  0
LINE
  5
2B3
100
AcDbEntity
  8
SMUSSO
100
AcDbLine
 62
7
  6
CONTINUOUS
 10
157.0932395574
 20
71.7333119109
 11
188.449601895
 21
71.7333119109
  0
LINE
  5
2B4
100
AcDbEntity
  8
SMUSSO
100
AcDbLine
 62
7
  6
CONTINUOUS
 10
116.7239829122
 20
72.4720262911
 11
148.0932395574
 21
72.4720262911
  0
LINE
  5
2B5
100
AcDbEntity
  8
SMUSSO
100
AcDbLine
 62
7
  6
CONTINUOUS
 10
157.0932395574
 20
72.4720262911
 11
188.4624962025
 21
72.4720262911
  0
LINE
  5
2B6
100
AcDbEntity
  8
DRAFT
100
AcDbLine
 62
7
  6
CONTINUOUS
 10
188.4932395574
 20
72.5643313591
 11
157.0932395574
 21
72.5643313591
  0
LINE
  5
2B7
100
AcDbEntity
  8
DRAFT
100
AcDbLine
 62
7
  6
CONTINUOUS
 10
148.0932395574
 20
72.5643313591
 11
116.6932395574
 21
72.5643313591
  0
LINE
  5
2B8
100
AcDbEntity
  8
DRAFT
100
AcDbLine
 62
7
  6
CONTINUOUS
 10
148.2682963365
 20
72.7143313591
 11
156.9181827782
 21
72.7143313591
  0
LINE
  5
2B9
100
AcDbEntity
  8
DRAFT
100
AcDbLine
 62
7
  6
CONTINUOUS
 10
149.2821468301
 20
56.3029942921
 11
148.9432395574
 21
56.8899989076
  0
LINE
  5
2BA
100
AcDbEntity
  8
DRAFT
100
AcDbLine
 62
7
  6
CONTINUOUS
 10
148.9432395574
 20
57.0121843621
 11
149.3432395574
 21
56.3193640391
  0
LINE
  5
2BB
100
AcDbEntity
  8
DRAFT
100
AcDbLine
 62
7
  6
CONTINUOUS
 10
187.1456047521
 20
145.2143313591
 11
187.0932395574
 21
145.1619661643
  0
LINE
  5
2BC
100
AcDbEntity
  8
RACCORDO
100
AcDbLine
 62
253
  6
CONTINUOUS
 10
187.4933918622
 20
145.2143313591
 11
187.3886614726
 21
145.1096009695
  0
LINE
  5
2BD
100
AcDbEntity
  8
RACCORDO
100
AcDbLine
 62
253
  6
CONTINUOUS
 10
188.4932395574
 20
144.2144836639
 11
188.3885091678
 21
144.1097532744
  0
LINE
  5
2BE
100
AcDbEntity
  8
DRAFT
100
AcDbLine
 62
7
  6
CONTINUOUS
 10
148.2333862067
 20
74.7143313591
 11
156.953092908
 21
74.7143313591
  0
LINE
  5
2BF
100
AcDbEntity
  8
RACCORDO
100
AcDbLine
 62
253
  6
CONTINUOUS
 10
187.3886614726
 20
35.5190617487
 11
187.4933918622
 21
35.4143313591
  0
LINE
  5
2C0
100
AcDbEntity
  8
RACCORDO
100
AcDbLine
 62
253
  6
CONTINUOUS
 10
188.3885091678
 20
36.5189094438
 11
188.4932395574
 21
36.4141790543
  0
LINE
  5
2C1
100
AcDbEntity
  8
0
100
AcDbLine
 62
7
  6
CONTINUOUS
 10
143.3932395574
 20
143.8143313591
 11
143.3932395574
 21
137.5143313591
  0
LINE
  5
2C2
100
AcDbEntity
  8
0
100
AcDbLine
 62
7
  6
CONTINUOUS
 10
143.3932395574
 20
36.8143313591
 11
143.3932395574
 21
43.1143313591
  0
LINE
  5
2C3
100
AcDbEntity
  8
DRAFT
100
AcDbLine
 62
7
  6
CONTINUOUS
 10
156.2432395574
 20
60.2164783561
 11
155.8432395574
 21
60.9092986791
  0
LINE
  5
2C4
100
AcDbEntity
  8
DRAFT
100
AcDbLine
 62
7
  6
CONTINUOUS
 10
156.2432395574
 20
60.3386638106
 11
155.9043322846
 21
60.9256684261
  0
LINE
  5
2C5
100
AcDbEntity
  8
DRAFT
100
AcDbLine
 62
7
  6
CONTINUOUS
 10
148.2682963365
 20
72.7143313591
 11
148.2333862067
 21
74.7143313591
  0
LINE
  5
2C6
100
AcDbEntity
  8
0
100
AcDbLine
 62
7
  6
CONTINUOUS
 10
145.5932395574
 20
143.8143313591
 11
145.5932395574
 21
137.5143313591
  0
LINE
  5
2C7
100
AcDbEntity
  8
0
100
AcDbLine
 62
7
  6
CONTINUOUS
 10
145.5932395574
 20
36.8143313591
 11
145.5932395574
 21
43.1143313591
  0
LINE
  5
2C8
100
AcDbEntity
  8
DRAFT
100
AcDbLine
 62
7
  6
CONTINUOUS
 10
146.5932395574
 20
91.8143313591
 11
146.5932395574
 21
88.8143313591
  0
LINE
  5
2C9
100
AcDbEntity
  8
RACCORDO
100
AcDbLine
 62
7
  6
CONTINUOUS
 10
146.6560969424
 20
91.2686295866
 11
146.6560969424
 21
89.3600331316
  0
LINE
  5
2CA
100
AcDbEntity
  8
0
100
AcDbLine
 62
7
  6
CONTINUOUS
 10
147.0932395574
 20
43.7143313591
 11
147.0932395574
 21
36.8143313591
  0
LINE
  5
2CB
100
AcDbEntity
  8
RACCORDO
100
AcDbLine
 62
7
  6
CONTINUOUS
 10
147.610931011
 20
89.3600331316
 11
147.610931011
 21
91.2686295866
  0
LINE
  5
2CC
100
AcDbEntity
  8
0
100
AcDbLine
 62
7
  6
CONTINUOUS
 10
148.0932395574
 20
36.3143313591
 11
148.0932395574
 21
46.6143313591
  0
LINE
  5
2CD
100
AcDbEntity
  8
DRAFT
100
AcDbLine
 62
7
  6
CONTINUOUS
 10
148.0932395574
 20
69.0643313591
 11
148.0932395574
 21
69.9333119109
  0
LINE
  5
2CE
100
AcDbEntity
  8
SMUSSO
100
AcDbLine
 62
7
  6
CONTINUOUS
 10
148.0932395574
 20
69.9333119109
 11
148.0932395574
 21
72.5643313591
  0
LINE
  5
2CF
100
AcDbEntity
  8
DRAFT
100
AcDbLine
 62
7
  6
CONTINUOUS
 10
148.0932395574
 20
88.8143313591
 11
148.0932395574
 21
91.8143313591
  0
LINE
  5
2D0
100
AcDbEntity
  8
RACCORDO
100
AcDbLine
 62
7
  6
CONTINUOUS
 10
148.1932395574
 20
40.7142552067
 11
148.1932395574
 21
46.6143313591
  0
LINE
  5
2D1
100
AcDbEntity
  8
RACCORDO
100
AcDbLine
 62
7
  6
CONTINUOUS
 10
148.1932395574
 20
69.0643313591
 11
148.1932395574
 21
73.6143313591
  0
LINE
  5
2D2
100
AcDbEntity
  8
RACCORDO
100
AcDbLine
 62
7
  6
CONTINUOUS
 10
148.2141856353
 20
74.4143313591
 11
148.2141856353
 21
73.9143313591
  0
LINE
  5
2D3
100
AcDbEntity
  8
RACCORDO
100
AcDbLine
 62
7
  6
CONTINUOUS
 10
148.2682963365
 20
40.7893119859
 11
148.2682963365
 21
46.6143313591
  0
LINE
  5
2D4
100
AcDbEntity
  8
RACCORDO
100
AcDbLine
 62
7
  6
CONTINUOUS
 10
148.2682963365
 20
69.0643313591
 11
148.2682963365
 21
72.7143313591
  0
LINE
  5
2D5
100
AcDbEntity
  8
DRAFT
100
AcDbLine
 62
7
  6
CONTINUOUS
 10
148.2155887564
 20
74.7143313591
 11
148.2141856353
 21
74.4143313591
  0
LINE
  5
2D6
100
AcDbEntity
  8
0
100
AcDbLine
 62
7
  6
CONTINUOUS
 10
148.9432395574
 20
46.6143313591
 11
148.9432395574
 21
69.0643313591
  0
LINE
  5
2D7
100
AcDbEntity
  8
DRAFT
100
AcDbLine
 62
7
  6
CONTINUOUS
 10
149.2821468301
 20
71.0143313591
 11
149.2821468301
 21
60.9256684261
  0
LINE
  5
2D8
100
AcDbEntity
  8
DRAFT
100
AcDbLine
 62
7
  6
CONTINUOUS
 10
149.2821468301
 20
56.3029942921
 11
149.2821468301
 21
41.7143313591
  0
LINE
  5
2D9
100
AcDbEntity
  8
DRAFT
100
AcDbLine
 62
7
  6
CONTINUOUS
 10
149.3310210119
 20
43.9143313591
 11
149.3310210119
 21
48.7143313591
  0
LINE
  5
2DA
100
AcDbEntity
  8
DRAFT
100
AcDbLine
 62
7
  6
CONTINUOUS
 10
149.3432395574
 20
60.9092986791
 11
149.3432395574
 21
56.3193640391
  0
LINE
  5
2DB
100
AcDbEntity
  8
DRAFT
100
AcDbLine
 62
7
  6
CONTINUOUS
 10
149.3572036093
 20
71.0143313591
 11
149.3572036093
 21
48.7143313591
  0
LINE
  5
2DC
100
AcDbEntity
  8
DRAFT
100
AcDbLine
 62
7
  6
CONTINUOUS
 10
149.3572036093
 20
43.9143313591
 11
149.3572036093
 21
41.7143313591
  0
LINE
  5
2DD
100
AcDbEntity
  8
0
100
AcDbLine
 62
7
  6
CONTINUOUS
 10
149.4432395574
 20
69.0643313591
 11
149.4432395574
 21
48.7143313591
  0
LINE
  5
2DE
100
AcDbEntity
  8
DRAFT
100
AcDbLine
 62
7
  6
CONTINUOUS
 10
150.0932395574
 20
106.2643313591
 11
150.0932395574
 21
108.331971086
  0
LINE
  5
2DF
100
AcDbEntity
  8
DRAFT
100
AcDbLine
 62
7
  6
CONTINUOUS
 10
151.8432395574
 20
106.2643313591
 11
151.8432395574
 21
108.331971086
  0
LINE
  5
2E0
100
AcDbEntity
  8
RACCORDO
100
AcDbLine
 62
7
  6
CONTINUOUS
 10
146.5932395574
 20
88.8143313591
 11
146.6392459163
 21
88.8603377181
  0
LINE
  5
2E1
100
AcDbEntity
  8
RACCORDO
100
AcDbLine
 62
7
  6
CONTINUOUS
 10
157.0932395574
 20
88.8143313591
 11
157.4462491535
 21
88.8603377181
  0
LINE
  5
2E2
100
AcDbEntity
  8
DRAFT
100
AcDbLine
 62
7
  6
CONTINUOUS
 10
146.5932395574
 20
88.8143313591
 11
148.0932395574
 21
88.8143313591
  0
LINE
  5
2E3
100
AcDbEntity
  8
DRAFT
100
AcDbLine
 62
7
  6
CONTINUOUS
 10
157.0932395574
 20
88.8143313591
 11
158.5932395574
 21
88.8143313591
  0
LINE
  5
2E4
100
AcDbEntity
  8
RACCORDO
100
AcDbLine
 62
253
  6
CONTINUOUS
 10
146.6392459163
 20
88.8603377181
 11
147.7402299612
 21
88.8603377181
  0
LINE
  5
2E5
100
AcDbEntity
  8
RACCORDO
100
AcDbLine
 62
253
  6
CONTINUOUS
 10
157.4462491535
 20
88.8603377181
 11
158.5472331984
 21
88.8603377181
  0
LINE
  5
2E6
100
AcDbEntity
  8
RACCORDO
100
AcDbLine
 62
253
  6
CONTINUOUS
 10
146.6560969424
 20
89.3600331316
 11
147.610931011
 21
89.3600331316
  0
LINE
  5
2E7
100
AcDbEntity
  8
RACCORDO
100
AcDbLine
 62
253
  6
CONTINUOUS
 10
157.5755481037
 20
89.3600331316
 11
158.5303821723
 21
89.3600331316
  0
LINE
  5
2E8
100
AcDbEntity
  8
RACCORDO
100
AcDbLine
 62
7
  6
CONTINUOUS
 10
148.0932395574
 20
88.8143313591
 11
147.7402299612
 21
88.8603377181
  0
LINE
  5
2E9
100
AcDbEntity
  8
RACCORDO
100
AcDbLine
 62
7
  6
CONTINUOUS
 10
146.5932395574
 20
91.8143313591
 11
146.6392459163
 21
91.7683250001
  0
LINE
  5
2EA
100
AcDbEntity
  8
DRAFT
100
AcDbLine
 62
7
  6
CONTINUOUS
 10
156.9708903583
 20
74.7143313591
 11
156.9722934794
 21
74.4143313591
  0
LINE
  5
2EB
100
AcDbEntity
  8
DRAFT
100
AcDbLine
 62
7
  6
CONTINUOUS
 10
153.3432395574
 20
106.2643313591
 11
153.3432395574
 21
108.331971086
  0
LINE
  5
2EC
100
AcDbEntity
  8
DRAFT
100
AcDbLine
 62
7
  6
CONTINUOUS
 10
155.0932395574
 20
106.2643313591
 11
155.0932395574
 21
108.331971086
  0
LINE
  5
2ED
100
AcDbEntity
  8
0
100
AcDbLine
 62
7
  6
CONTINUOUS
 10
155.7432395574
 20
48.7143313591
 11
155.7432395574
 21
69.0643313591
  0
LINE
  5
2EE
100
AcDbEntity
  8
DRAFT
100
AcDbLine
 62
7
  6
CONTINUOUS
 10
155.8292755054
 20
41.7143313591
 11
155.8292755054
 21
43.9143313591
  0
LINE
  5
2EF
100
AcDbEntity
  8
DRAFT
100
AcDbLine
 62
7
  6
CONTINUOUS
 10
155.8292755054
 20
48.7143313591
 11
155.8292755054
 21
71.0143313591
  0
LINE
  5
2F0
100
AcDbEntity
  8
DRAFT
100
AcDbLine
 62
7
  6
CONTINUOUS
 10
155.8432395574
 20
56.3193640391
 11
155.8432395574
 21
60.9092986791
  0
LINE
  5
2F1
100
AcDbEntity
  8
DRAFT
100
AcDbLine
 62
7
  6
CONTINUOUS
 10
155.8554581028
 20
43.9143313591
 11
155.8554581028
 21
48.7143313591
  0
LINE
  5
2F2
100
AcDbEntity
  8
DRAFT
100
AcDbLine
 62
7
  6
CONTINUOUS
 10
155.9043322846
 20
41.7143313591
 11
155.9043322846
 21
56.3029942921
  0
LINE
  5
2F3
100
AcDbEntity
  8
DRAFT
100
AcDbLine
 62
7
  6
CONTINUOUS
 10
155.9043322846
 20
60.9256684261
 11
155.9043322846
 21
71.0143313591
  0
LINE
  5
2F4
100
AcDbEntity
  8
0
100
AcDbLine
 62
7
  6
CONTINUOUS
 10
156.2432395574
 20
69.0643313591
 11
156.2432395574
 21
46.6143313591
  0
LINE
  5
2F5
100
AcDbEntity
  8
RACCORDO
100
AcDbLine
 62
7
  6
CONTINUOUS
 10
156.9181827782
 20
72.7143313591
 11
156.9181827782
 21
69.0643313591
  0
LINE
  5
2F6
100
AcDbEntity
  8
RACCORDO
100
AcDbLine
 62
7
  6
CONTINUOUS
 10
156.9181827782
 20
46.6143313591
 11
156.9181827782
 21
40.7893119859
  0
LINE
  5
2F7
100
AcDbEntity
  8
RACCORDO
100
AcDbLine
 62
7
  6
CONTINUOUS
 10
156.9722934794
 20
74.4143313591
 11
156.9722934794
 21
73.9143313591
  0
LINE
  5
2F8
100
AcDbEntity
  8
RACCORDO
100
AcDbLine
 62
7
  6
CONTINUOUS
 10
156.9932395574
 20
73.6143313591
 11
156.9932395574
 21
69.0643313591
  0
LINE
  5
2F9
100
AcDbEntity
  8
RACCORDO
100
AcDbLine
 62
7
  6
CONTINUOUS
 10
156.9932395574
 20
46.6143313591
 11
156.9932395574
 21
40.7142552067
  0
LINE
  5
2FA
100
AcDbEntity
  8
DRAFT
100
AcDbLine
 62
7
  6
CONTINUOUS
 10
157.0932395574
 20
91.8143313591
 11
157.0932395574
 21
88.8143313591
  0
LINE
  5
2FB
100
AcDbEntity
  8
0
100
AcDbLine
 62
7
  6
CONTINUOUS
 10
157.0932395574
 20
46.6143313591
 11
157.0932395574
 21
36.3143313591
  0
LINE
  5
2FC
100
AcDbEntity
  8
DRAFT
100
AcDbLine
 62
7
  6
CONTINUOUS
 10
157.0932395574
 20
69.0643313591
 11
157.0932395574
 21
69.9333119109
  0
LINE
  5
2FD
100
AcDbEntity
  8
SMUSSO
100
AcDbLine
 62
7
  6
CONTINUOUS
 10
157.0932395574
 20
69.9333119109
 11
157.0932395574
 21
72.5643313591
  0
LINE
  5
2FE
100
AcDbEntity
  8
DRAFT
100
AcDbLine
 62
7
  6
CONTINUOUS
 10
156.9181827782
 20
72.7143313591
 11
156.953092908
 21
74.7143313591
  0
LINE
  5
2FF
100
AcDbEntity
  8
RACCORDO
100
AcDbLine
 62
7
  6
CONTINUOUS
 10
158.5932395574
 20
91.8143313591
 11
158.5472331984
 21
91.7683250001
  0
LINE
  5
300
100
AcDbEntity
  8
RACCORDO
100
AcDbLine
 62
7
  6
CONTINUOUS
 10
148.0932395574
 20
91.8143313591
 11
147.7402299612
 21
91.7683250001
  0
LINE
  5
301
100
AcDbEntity
  8
RACCORDO
100
AcDbLine
 62
253
  6
CONTINUOUS
 10
158.5303821723
 20
91.2686295866
 11
157.5755481037
 21
91.2686295866
  0
LINE
  5
302
100
AcDbEntity
  8
RACCORDO
100
AcDbLine
 62
253
  6
CONTINUOUS
 10
147.610931011
 20
91.2686295866
 11
146.6560969424
 21
91.2686295866
  0
LINE
  5
303
100
AcDbEntity
  8
RACCORDO
100
AcDbLine
 62
253
  6
CONTINUOUS
 10
158.5472331984
 20
91.7683250001
 11
157.4462491535
 21
91.7683250001
  0
LINE
  5
304
100
AcDbEntity
  8
RACCORDO
100
AcDbLine
 62
253
  6
CONTINUOUS
 10
147.7402299612
 20
91.7683250001
 11
146.6392459163
 21
91.7683250001
  0
LINE
  5
305
100
AcDbEntity
  8
DRAFT
100
AcDbLine
 62
7
  6
CONTINUOUS
 10
158.5932395574
 20
91.8143313591
 11
157.0932395574
 21
91.8143313591
  0
LINE
  5
306
100
AcDbEntity
  8
DRAFT
100
AcDbLine
 62
7
  6
CONTINUOUS
 10
148.0932395574
 20
91.8143313591
 11
146.5932395574
 21
91.8143313591
  0
LINE
  5
307
100
AcDbEntity
  8
RACCORDO
100
AcDbLine
 62
7
  6
CONTINUOUS
 10
157.0932395574
 20
91.8143313591
 11
157.4462491535
 21
91.7683250001
  0
LINE
  5
308
100
AcDbEntity
  8
RACCORDO
100
AcDbLine
 62
7
  6
CONTINUOUS
 10
158.5932395574
 20
88.8143313591
 11
158.5472331984
 21
88.8603377181
  0
LINE
  5
309
100
AcDbEntity
  8
RACCORDO
100
AcDbLine
 62
7
  6
CONTINUOUS
 10
157.5755481037
 20
91.2686295866
 11
157.5755481037
 21
89.3600331316
  0
LINE
  5
30A
100
AcDbEntity
  8
0
100
AcDbLine
 62
7
  6
CONTINUOUS
 10
158.0932395574
 20
36.8143313591
 11
158.0932395574
 21
43.7143313591
  0
LINE
  5
30B
100
AcDbEntity
  8
RACCORDO
100
AcDbLine
 62
7
  6
CONTINUOUS
 10
158.5303821723
 20
89.3600331316
 11
158.5303821723
 21
91.2686295866
  0
LINE
  5
30C
100
AcDbEntity
  8
DRAFT
100
AcDbLine
 62
7
  6
CONTINUOUS
 10
158.5932395574
 20
88.8143313591
 11
158.5932395574
 21
91.8143313591
  0
LINE
  5
30D
100
AcDbEntity
  8
0
100
AcDbLine
 62
7
  6
CONTINUOUS
 10
159.5932395574
 20
143.8143313591
 11
159.5932395574
 21
137.5143313591
  0
LINE
  5
30E
100
AcDbEntity
  8
0
100
AcDbLine
 62
7
  6
CONTINUOUS
 10
159.5932395574
 20
36.8143313591
 11
159.5932395574
 21
43.1143313591
  0
LINE
  5
30F
100
AcDbEntity
  8
0
100
AcDbLine
 62
7
  6
CONTINUOUS
 10
161.7932395574
 20
143.8143313591
 11
161.7932395574
 21
137.5143313591
  0
LINE
  5
310
100
AcDbEntity
  8
0
100
AcDbLine
 62
7
  6
CONTINUOUS
 10
161.7932395574
 20
36.8143313591
 11
161.7932395574
 21
43.1143313591
  0
LINE
  5
311
100
AcDbEntity
  8
DRAFT
100
AcDbLine
 62
7
  6
CONTINUOUS
 10
149.2821468301
 20
60.9256684261
 11
148.9432395574
 21
60.3386638106
  0
LINE
  5
312
100
AcDbEntity
  8
DRAFT
100
AcDbLine
 62
7
  6
CONTINUOUS
 10
149.3432395574
 20
60.9092986791
 11
148.9432395574
 21
60.2164783561
  0
LINE
  5
313
100
AcDbEntity
  8
RACCORDO
100
AcDbLine
 62
253
  6
CONTINUOUS
 10
116.6932395574
 20
36.4141790543
 11
116.7979699469
 21
36.5189094438
  0
LINE
  5
314
100
AcDbEntity
  8
RACCORDO
100
AcDbLine
 62
253
  6
CONTINUOUS
 10
116.7979699469
 20
144.1097532744
 11
116.6932395574
 21
144.2144836639
  0
LINE
  5
315
100
AcDbEntity
  8
RACCORDO
100
AcDbLine
 62
253
  6
CONTINUOUS
 10
117.6930872525
 20
35.4143313591
 11
117.7978176421
 21
35.5190617487
  0
LINE
  5
316
100
AcDbEntity
  8
DRAFT
100
AcDbLine
 62
7
  6
CONTINUOUS
 10
118.0408743626
 20
35.4143313591
 11
118.0932395574
 21
35.4666965539
  0
LINE
  5
317
100
AcDbEntity
  8
0
100
AcDbLine
 62
7
  6
CONTINUOUS
 10
180.0932395574
 20
106.2643313591
 11
178.3432395574
 21
106.2643313591
  0
LINE
  5
318
100
AcDbEntity
  8
0
100
AcDbLine
 62
7
  6
CONTINUOUS
 10
176.8432395574
 20
106.2643313591
 11
175.0932395574
 21
106.2643313591
  0
LINE
  5
319
100
AcDbEntity
  8
0
100
AcDbLine
 62
7
  6
CONTINUOUS
 10
155.0932395574
 20
106.2643313591
 11
153.3432395574
 21
106.2643313591
  0
LINE
  5
31A
100
AcDbEntity
  8
0
100
AcDbLine
 62
7
  6
CONTINUOUS
 10
151.8432395574
 20
106.2643313591
 11
150.0932395574
 21
106.2643313591
  0
LINE
  5
31B
100
AcDbEntity
  8
0
100
AcDbLine
 62
7
  6
CONTINUOUS
 10
130.0932395574
 20
106.2643313591
 11
128.3432395574
 21
106.2643313591
  0
LINE
  5
31C
100
AcDbEntity
  8
0
100
AcDbLine
 62
7
  6
CONTINUOUS
 10
126.8432395574
 20
106.2643313591
 11
125.0932395574
 21
106.2643313591
  0
LINE
  5
31D
100
AcDbEntity
  8
DRAFT
100
AcDbLine
 62
7
  6
CONTINUOUS
 10
188.4932395574
 20
108.0643313591
 11
180.0932395574
 21
108.0643313591
  0
LINE
  5
31E
100
AcDbEntity
  8
DRAFT
100
AcDbLine
 62
7
  6
CONTINUOUS
 10
178.3432395574
 20
108.0643313591
 11
176.8432395574
 21
108.0643313591
  0
LINE
  5
31F
100
AcDbEntity
  8
DRAFT
100
AcDbLine
 62
7
  6
CONTINUOUS
 10
175.0932395574
 20
108.0643313591
 11
155.0932395574
 21
108.0643313591
  0
LINE
  5
320
100
AcDbEntity
  8
DRAFT
100
AcDbLine
 62
7
  6
CONTINUOUS
 10
153.3432395574
 20
108.0643313591
 11
151.8432395574
 21
108.0643313591
  0
LINE
  5
321
100
AcDbEntity
  8
DRAFT
100
AcDbLine
 62
7
  6
CONTINUOUS
 10
150.0932395574
 20
108.0643313591
 11
130.0932395574
 21
108.0643313591
  0
LINE
  5
322
100
AcDbEntity
  8
DRAFT
100
AcDbLine
 62
7
  6
CONTINUOUS
 10
128.3432395574
 20
108.0643313591
 11
126.8432395574
 21
108.0643313591
  0
LINE
  5
323
100
AcDbEntity
  8
DRAFT
100
AcDbLine
 62
7
  6
CONTINUOUS
 10
125.0932395574
 20
108.0643313591
 11
116.6932395574
 21
108.0643313591
  0
LINE
  5
324
100
AcDbEntity
  8
DRAFT
100
AcDbLine
 62
7
  6
CONTINUOUS
 10
188.3885091678
 20
108.3787780348
 11
116.7979699469
 21
108.3787780348
  0
LINE
  5
325
100
AcDbEntity
  8
RACCORDO
100
AcDbLine
 62
253
  6
CONTINUOUS
 10
117.7978176421
 20
145.1096009695
 11
117.6930872525
 21
145.2143313591
  0
LINE
  5
326
100
AcDbEntity
  8
DRAFT
100
AcDbLine
 62
7
  6
CONTINUOUS
 10
155.8432395574
 20
56.3193640391
 11
156.2432395574
 21
57.0121843621
  0
LINE
  5
327
100
AcDbEntity
  8
DRAFT
100
AcDbLine
 62
7
  6
CONTINUOUS
 10
155.9043322846
 20
56.3029942921
 11
156.2432395574
 21
56.8899989076
  0
LINE
  5
328
100
AcDbEntity
  8
DRAFT
100
AcDbLine
 62
7
  6
CONTINUOUS
 10
175.0932395574
 20
106.2643313591
 11
175.0932395574
 21
108.331971086
  0
LINE
  5
329
100
AcDbEntity
  8
ASSI
100
AcDbLine
 62
7
  6
CONTINUOUS
 10
176.0932395574
 20
136.9143313591
 11
176.0932395574
 21
143.8143313591
  0
LINE
  5
32A
100
AcDbEntity
  8
DRAFT
100
AcDbLine
 62
7
  6
CONTINUOUS
 10
176.8432395574
 20
106.2643313591
 11
176.8432395574
 21
108.331971086
  0
LINE
  5
32B
100
AcDbEntity
  8
DRAFT
100
AcDbLine
 62
7
  6
CONTINUOUS
 10
178.3432395574
 20
106.2643313591
 11
178.3432395574
 21
108.331971086
  0
LINE
  5
32C
100
AcDbEntity
  8
DRAFT
100
AcDbLine
 62
7
  6
CONTINUOUS
 10
187.1384214009
 20
122.8470484925
 11
187.1920924198
 21
122.8564397039
  0
LINE
  5
32D
100
AcDbEntity
  8
DRAFT
100
AcDbLine
 62
7
  6
CONTINUOUS
 10
116.6932395574
 20
114.3143313591
 11
118.1048384145
 21
114.3143313591
  0
LINE
  5
32E
100
AcDbEntity
  8
DRAFT
100
AcDbLine
 62
7
  6
CONTINUOUS
 10
187.0816407002
 20
114.3143313591
 11
188.4932395574
 21
114.3143313591
  0
LINE
  5
32F
100
AcDbEntity
  8
RACCORDO
100
AcDbLine
 62
7
  6
CONTINUOUS
 10
116.6932395574
 20
114.4143313591
 11
118.0448715055
 21
114.4143313591
  0
LINE
  5
330
100
AcDbEntity
  8
RACCORDO
100
AcDbLine
 62
7
  6
CONTINUOUS
 10
187.1416076092
 20
114.4143313591
 11
188.4932395574
 21
114.4143313591
  0
LINE
  5
331
100
AcDbEntity
  8
RACCORDO
100
AcDbLine
 62
253
  6
CONTINUOUS
 10
116.7944789339
 20
115.4143313591
 11
117.9610871938
 21
115.4143313591
  0
LINE
  5
332
100
AcDbEntity
  8
RACCORDO
100
AcDbLine
 62
253
  6
CONTINUOUS
 10
187.2253919209
 20
115.4143313591
 11
188.3920001808
 21
115.4143313591
  0
LINE
  5
333
100
AcDbEntity
  8
DRAFT
100
AcDbLine
 62
7
  6
CONTINUOUS
 10
118.0480577138
 20
122.8470484925
 11
117.994386695
 21
122.8564397039
  0
LINE
  5
334
100
AcDbEntity
  8
DRAFT
100
AcDbLine
 62
7
  6
CONTINUOUS
 10
180.0932395574
 20
106.2643313591
 11
180.0932395574
 21
108.331971086
  0
LINE
  5
335
100
AcDbEntity
  8
0
100
AcDbLine
 62
7
  6
CONTINUOUS
 10
182.5932395574
 20
36.8143313591
 11
182.5932395574
 21
43.1143313591
  0
LINE
  5
336
100
AcDbEntity
  8
DRAFT
100
AcDbLine
 62
7
  6
CONTINUOUS
 10
183.3083294275
 20
45.5643313591
 11
183.3083294275
 21
43.7143313591
  0
LINE
  5
337
100
AcDbEntity
  8
DRAFT
100
AcDbLine
 62
7
  6
CONTINUOUS
 10
188.4810210119
 20
122.9643313591
 11
188.4238555221
 21
122.9593376644
  0
LINE
  5
338
100
AcDbEntity
  8
DRAFT
100
AcDbLine
 62
7
  6
CONTINUOUS
 10
187.1925001199
 20
122.8517725421
 11
187.1384214009
 21
122.8470484925
  0
LINE
  5
339
100
AcDbEntity
  8
DRAFT
100
AcDbLine
 62
7
  6
CONTINUOUS
 10
116.7054581028
 20
117.6643313591
 11
116.7626235926
 21
117.6693250538
  0
LINE
  5
33A
100
AcDbEntity
  8
DRAFT
100
AcDbLine
 62
7
  6
CONTINUOUS
 10
117.9939789948
 20
117.7768901761
 11
118.0480577138
 21
117.7816142257
  0
LINE
  5
33B
100
AcDbEntity
  8
0
100
AcDbLine
 62
7
  6
CONTINUOUS
 10
117.5610871938
 20
117.6143313591
 11
117.973557431
 21
117.6143313591
  0
LINE
  5
33C
100
AcDbEntity
  8
0
100
AcDbLine
 62
7
  6
CONTINUOUS
 10
187.2129216838
 20
117.6143313591
 11
187.6253919209
 21
117.6143313591
  0
LINE
  5
33D
100
AcDbEntity
  8
DRAFT
100
AcDbLine
 62
7
  6
CONTINUOUS
 10
188.4810210119
 20
117.6643313591
 11
188.4234192976
 21
117.6643313591
  0
LINE
  5
33E
100
AcDbEntity
  8
DRAFT
100
AcDbLine
 62
7
  6
CONTINUOUS
 10
116.7630598171
 20
117.6643313591
 11
116.7054581028
 21
117.6643313591
  0
LINE
  5
33F
100
AcDbEntity
  8
DRAFT
100
AcDbLine
 62
7
  6
CONTINUOUS
 10
187.1920924198
 20
118.0143313591
 11
187.004849315
 21
118.0143313591
  0
LINE
  5
340
100
AcDbEntity
  8
DRAFT
100
AcDbLine
 62
7
  6
CONTINUOUS
 10
117.994386695
 20
118.0143313591
 11
118.1816297997
 21
118.0143313591
  0
LINE
  5
341
100
AcDbEntity
  8
DRAFT
100
AcDbLine
 62
7
  6
CONTINUOUS
 10
116.7054581028
 20
122.9643313591
 11
116.7626235926
 21
122.9593376644
  0
LINE
  5
342
100
AcDbEntity
  8
DRAFT
100
AcDbLine
 62
7
  6
CONTINUOUS
 10
188.4810210119
 20
117.6643313591
 11
188.4238555221
 21
117.6693250538
  0
LINE
  5
343
100
AcDbEntity
  8
DRAFT
100
AcDbLine
 62
7
  6
CONTINUOUS
 10
187.1925001199
 20
117.7768901761
 11
187.1384214009
 21
117.7816142257
  0
LINE
  5
344
100
AcDbEntity
  8
0
100
AcDbLine
 62
7
  6
CONTINUOUS
 10
184.7932395574
 20
36.8143313591
 11
184.7932395574
 21
43.1143313591
  0
LINE
  5
345
100
AcDbEntity
  8
DRAFT
100
AcDbLine
 62
7
  6
CONTINUOUS
 10
187.004849315
 20
62.6143313591
 11
187.004849315
 21
58.0143313591
  0
LINE
  5
346
100
AcDbEntity
  8
DRAFT
100
AcDbLine
 62
7
  6
CONTINUOUS
 10
187.004849315
 20
118.0143313591
 11
187.004849315
 21
122.6143313591
  0
LINE
  5
347
100
AcDbEntity
  8
DRAFT
100
AcDbLine
 62
7
  6
CONTINUOUS
 10
187.0432395574
 20
43.7984564197
 11
187.0432395574
 21
36.8143313591
  0
LINE
  5
348
100
AcDbEntity
  8
DRAFT
100
AcDbLine
 62
7
  6
CONTINUOUS
 10
187.0816407002
 20
126.3143313591
 11
187.0816407002
 21
122.6143313591
  0
LINE
  5
349
100
AcDbEntity
  8
DRAFT
100
AcDbLine
 62
7
  6
CONTINUOUS
 10
187.0816407002
 20
54.3143313591
 11
187.0816407002
 21
58.0143313591
  0
LINE
  5
34A
100
AcDbEntity
  8
DRAFT
100
AcDbLine
 62
7
  6
CONTINUOUS
 10
187.0816407002
 20
62.6143313591
 11
187.0816407002
 21
66.3143313591
  0
LINE
  5
34B
100
AcDbEntity
  8
DRAFT
100
AcDbLine
 62
7
  6
CONTINUOUS
 10
187.0816407002
 20
114.3143313591
 11
187.0816407002
 21
118.0143313591
  0
LINE
  5
34C
100
AcDbEntity
  8
DRAFT
100
AcDbLine
 62
7
  6
CONTINUOUS
 10
187.1384214009
 20
57.7816142257
 11
187.1384214009
 21
58.0143313591
  0
LINE
  5
34D
100
AcDbEntity
  8
DRAFT
100
AcDbLine
 62
7
  6
CONTINUOUS
 10
187.1384214009
 20
62.6143313591
 11
187.1384214009
 21
62.8470484925
  0
LINE
  5
34E
100
AcDbEntity
  8
DRAFT
100
AcDbLine
 62
7
  6
CONTINUOUS
 10
187.1384214009
 20
117.7816142257
 11
187.1384214009
 21
118.0143313591
  0
LINE
  5
34F
100
AcDbEntity
  8
DRAFT
100
AcDbLine
 62
7
  6
CONTINUOUS
 10
187.1384214009
 20
122.6143313591
 11
187.1384214009
 21
122.8470484925
  0
LINE
  5
350
100
AcDbEntity
  8
DRAFT
100
AcDbLine
 62
7
  6
CONTINUOUS
 10
187.1416076092
 20
126.3143313591
 11
187.1416076092
 21
126.2143313591
  0
LINE
  5
351
100
AcDbEntity
  8
DRAFT
100
AcDbLine
 62
7
  6
CONTINUOUS
 10
187.1416076092
 20
114.4143313591
 11
187.1416076092
 21
114.3143313591
  0
LINE
  5
352
100
AcDbEntity
  8
DRAFT
100
AcDbLine
 62
7
  6
CONTINUOUS
 10
187.1416076092
 20
66.3143313591
 11
187.1416076092
 21
66.2143313591
  0
LINE
  5
353
100
AcDbEntity
  8
DRAFT
100
AcDbLine
 62
7
  6
CONTINUOUS
 10
187.1416076092
 20
54.4143313591
 11
187.1416076092
 21
54.3143313591
  0
LINE
  5
354
100
AcDbEntity
  8
DRAFT
100
AcDbLine
 62
7
  6
CONTINUOUS
 10
187.1920924198
 20
122.8564397039
 11
187.1920924198
 21
117.7722230143
  0
LINE
  5
355
100
AcDbEntity
  8
DRAFT
100
AcDbLine
 62
7
  6
CONTINUOUS
 10
187.1920924198
 20
62.8564397039
 11
187.1920924198
 21
57.7722230143
  0
LINE
  5
356
100
AcDbEntity
  8
0
100
AcDbLine
 62
7
  6
CONTINUOUS
 10
187.2129216838
 20
123.0143313591
 11
187.2129216838
 21
117.6143313591
  0
LINE
  5
357
100
AcDbEntity
  8
0
100
AcDbLine
 62
7
  6
CONTINUOUS
 10
187.2129216838
 20
57.6143313591
 11
187.2129216838
 21
63.0143313591
  0
LINE
  5
358
100
AcDbEntity
  8
RACCORDO
100
AcDbLine
 62
7
  6
CONTINUOUS
 10
187.2253919209
 20
55.4143313591
 11
187.2253919209
 21
57.6143313591
  0
LINE
  5
359
100
AcDbEntity
  8
RACCORDO
100
AcDbLine
 62
7
  6
CONTINUOUS
 10
187.2253919209
 20
63.0143313591
 11
187.2253919209
 21
65.2143313591
  0
LINE
  5
35A
100
AcDbEntity
  8
RACCORDO
100
AcDbLine
 62
7
  6
CONTINUOUS
 10
187.2253919209
 20
115.4143313591
 11
187.2253919209
 21
117.6143313591
  0
LINE
  5
35B
100
AcDbEntity
  8
RACCORDO
100
AcDbLine
 62
7
  6
CONTINUOUS
 10
187.2253919209
 20
123.0143313591
 11
187.2253919209
 21
125.2143313591
  0
LINE
  5
35C
100
AcDbEntity
  8
0
100
AcDbLine
 62
7
  6
CONTINUOUS
 10
187.6253919209
 20
123.0143313591
 11
187.6253919209
 21
117.6143313591
  0
LINE
  5
35D
100
AcDbEntity
  8
0
100
AcDbLine
 62
7
  6
CONTINUOUS
 10
187.6253919209
 20
57.6143313591
 11
187.6253919209
 21
63.0143313591
  0
LINE
  5
35E
100
AcDbEntity
  8
DRAFT
100
AcDbLine
 62
7
  6
CONTINUOUS
 10
187.7146917652
 20
126.3143313591
 11
187.7146917652
 21
126.2143313591
  0
LINE
  5
35F
100
AcDbEntity
  8
DRAFT
100
AcDbLine
 62
7
  6
CONTINUOUS
 10
187.7146917652
 20
114.4143313591
 11
187.7146917652
 21
114.3143313591
  0
LINE
  5
360
100
AcDbEntity
  8
DRAFT
100
AcDbLine
 62
7
  6
CONTINUOUS
 10
187.7146917652
 20
66.3143313591
 11
187.7146917652
 21
66.2143313591
  0
LINE
  5
361
100
AcDbEntity
  8
DRAFT
100
AcDbLine
 62
7
  6
CONTINUOUS
 10
187.7146917652
 20
54.4143313591
 11
187.7146917652
 21
54.3143313591
  0
LINE
  5
362
100
AcDbEntity
  8
DRAFT
100
AcDbLine
 62
7
  6
CONTINUOUS
 10
187.7321468301
 20
66.3143313591
 11
187.7321468301
 21
66.2143313591
  0
LINE
  5
363
100
AcDbEntity
  8
DRAFT
100
AcDbLine
 62
7
  6
CONTINUOUS
 10
187.7321468301
 20
54.4143313591
 11
187.7321468301
 21
54.3143313591
  0
LINE
  5
364
100
AcDbEntity
  8
DRAFT
100
AcDbLine
 62
7
  6
CONTINUOUS
 10
187.7321468301
 20
114.3143313591
 11
187.7321468301
 21
114.4143313591
  0
LINE
  5
365
100
AcDbEntity
  8
DRAFT
100
AcDbLine
 62
7
  6
CONTINUOUS
 10
187.7321468301
 20
126.2143313591
 11
187.7321468301
 21
126.3143313591
  0
LINE
  5
366
100
AcDbEntity
  8
RACCORDO
100
AcDbLine
 62
253
  6
CONTINUOUS
 10
148.1932395574
 20
40.7142552067
 11
148.2682963365
 21
40.7893119859
  0
LINE
  5
367
100
AcDbEntity
  8
RACCORDO
100
AcDbLine
 62
253
  6
CONTINUOUS
 10
148.6931634049
 20
40.2143313591
 11
148.7682201841
 21
40.2893881383
  0
LINE
  5
368
100
AcDbEntity
  8
DRAFT
100
AcDbLine
 62
7
  6
CONTINUOUS
 10
117.994386695
 20
117.7722230143
 11
118.0480577138
 21
117.7816142257
  0
LINE
  5
369
100
AcDbEntity
  8
DRAFT
100
AcDbLine
 62
7
  6
CONTINUOUS
 10
187.1920924198
 20
122.6143313591
 11
187.004849315
 21
122.6143313591
  0
LINE
  5
36A
100
AcDbEntity
  8
DRAFT
100
AcDbLine
 62
7
  6
CONTINUOUS
 10
117.994386695
 20
122.6143313591
 11
118.1816297997
 21
122.6143313591
  0
LINE
  5
36B
100
AcDbEntity
  8
DRAFT
100
AcDbLine
 62
7
  6
CONTINUOUS
 10
116.7054581028
 20
122.9643313591
 11
116.7630598171
 21
122.9643313591
  0
LINE
  5
36C
100
AcDbEntity
  8
DRAFT
100
AcDbLine
 62
7
  6
CONTINUOUS
 10
188.4234192976
 20
122.9643313591
 11
188.4810210119
 21
122.9643313591
  0
LINE
  5
36D
100
AcDbEntity
  8
0
100
AcDbLine
 62
7
  6
CONTINUOUS
 10
117.5610871938
 20
123.0143313591
 11
117.973557431
 21
123.0143313591
  0
LINE
  5
36E
100
AcDbEntity
  8
0
100
AcDbLine
 62
7
  6
CONTINUOUS
 10
187.2129216838
 20
123.0143313591
 11
187.6253919209
 21
123.0143313591
  0
LINE
  5
36F
100
AcDbEntity
  8
RACCORDO
100
AcDbLine
 62
253
  6
CONTINUOUS
 10
116.7944789339
 20
125.2143313591
 11
117.9610871938
 21
125.2143313591
  0
LINE
  5
370
100
AcDbEntity
  8
RACCORDO
100
AcDbLine
 62
253
  6
CONTINUOUS
 10
187.2253919209
 20
125.2143313591
 11
188.3920001808
 21
125.2143313591
  0
LINE
  5
371
100
AcDbEntity
  8
DRAFT
100
AcDbLine
 62
7
  6
CONTINUOUS
 10
187.1920924198
 20
117.7722230143
 11
187.1384214009
 21
117.7816142257
  0
LINE
  5
372
100
AcDbEntity
  8
RACCORDO
100
AcDbLine
 62
7
  6
CONTINUOUS
 10
188.3885091678
 20
36.5189094438
 11
188.3885091678
 21
54.3143313591
  0
LINE
  5
373
100
AcDbEntity
  8
DRAFT
100
AcDbLine
 62
7
  6
CONTINUOUS
 10
188.3885091678
 20
66.3143313591
 11
188.3885091678
 21
69.7498846834
  0
LINE
  5
374
100
AcDbEntity
  8
DRAFT
100
AcDbLine
 62
7
  6
CONTINUOUS
 10
188.3885091678
 20
108.3787780348
 11
188.3885091678
 21
114.3143313591
  0
LINE
  5
375
100
AcDbEntity
  8
RACCORDO
100
AcDbLine
 62
7
  6
CONTINUOUS
 10
188.3885091678
 20
126.3143313591
 11
188.3885091678
 21
144.1097532744
  0
LINE
  5
376
100
AcDbEntity
  8
RACCORDO
100
AcDbLine
 62
7
  6
CONTINUOUS
 10
188.3920001808
 20
55.4143313591
 11
188.3920001808
 21
65.2143313591
  0
LINE
  5
377
100
AcDbEntity
  8
RACCORDO
100
AcDbLine
 62
7
  6
CONTINUOUS
 10
188.3920001808
 20
115.4143313591
 11
188.3920001808
 21
125.2143313591
  0
LINE
  5
378
100
AcDbEntity
  8
DRAFT
100
AcDbLine
 62
7
  6
CONTINUOUS
 10
188.4234192976
 20
57.6643313591
 11
188.4234192976
 21
62.9643313591
  0
LINE
  5
379
100
AcDbEntity
  8
DRAFT
100
AcDbLine
 62
7
  6
CONTINUOUS
 10
188.4234192976
 20
117.6643313591
 11
188.4234192976
 21
122.9643313591
  0
LINE
  5
37A
100
AcDbEntity
  8
SMUSSO
100
AcDbLine
 62
7
  6
CONTINUOUS
 10
188.449601895
 20
71.7333119109
 11
188.449601895
 21
69.9333119109
  0
LINE
  5
37B
100
AcDbEntity
  8
DRAFT
100
AcDbLine
 62
7
  6
CONTINUOUS
 10
188.4810210119
 20
122.9643313591
 11
188.4810210119
 21
117.6643313591
  0
LINE
  5
37C
100
AcDbEntity
  8
DRAFT
100
AcDbLine
 62
7
  6
CONTINUOUS
 10
188.4810210119
 20
62.9643313591
 11
188.4810210119
 21
57.6643313591
  0
LINE
  5
37D
100
AcDbEntity
  8
RACCORDO
100
AcDbLine
 62
7
  6
CONTINUOUS
 10
188.4932395574
 20
36.4141790543
 11
188.4932395574
 21
54.4143313591
  0
LINE
  5
37E
100
AcDbEntity
  8
DRAFT
100
AcDbLine
 62
7
  6
CONTINUOUS
 10
188.4932395574
 20
54.4143313591
 11
188.4932395574
 21
69.0081210368
  0
LINE
  5
37F
100
AcDbEntity
  8
DRAFT
100
AcDbLine
 62
7
  6
CONTINUOUS
 10
188.4932395574
 20
72.5643313591
 11
188.4932395574
 21
126.2143313591
  0
LINE
  5
380
100
AcDbEntity
  8
RACCORDO
100
AcDbLine
 62
7
  6
CONTINUOUS
 10
188.4932395574
 20
126.2143313591
 11
188.4932395574
 21
144.2144836639
  0
LINE
  5
381
100
AcDbEntity
  8
SMUSSO
100
AcDbLine
 62
7
  6
CONTINUOUS
 10
188.4624962025
 20
72.4720262911
 11
188.449601895
 21
71.7333119109
  0
LINE
  5
382
100
AcDbEntity
  8
SMUSSO
100
AcDbLine
 62
7
  6
CONTINUOUS
 10
188.4624962025
 20
72.4720262911
 11
188.4932395574
 21
72.5643313591
  0
LINE
  5
383
100
AcDbEntity
  8
RACCORDO
100
AcDbLine
 62
7
  6
CONTINUOUS
 10
116.6932395574
 20
126.2143313591
 11
118.0448715055
 21
126.2143313591
  0
LINE
  5
384
100
AcDbEntity
  8
RACCORDO
100
AcDbLine
 62
7
  6
CONTINUOUS
 10
187.1416076092
 20
126.2143313591
 11
188.4932395574
 21
126.2143313591
  0
LINE
  5
385
100
AcDbEntity
  8
DRAFT
100
AcDbLine
 62
7
  6
CONTINUOUS
 10
116.6932395574
 20
126.3143313591
 11
118.1048384145
 21
126.3143313591
  0
LINE
  5
386
100
AcDbEntity
  8
DRAFT
100
AcDbLine
 62
7
  6
CONTINUOUS
 10
187.0816407002
 20
126.3143313591
 11
188.4932395574
 21
126.3143313591
  0
LINE
  5
387
100
AcDbEntity
  8
DRAFT
100
AcDbLine
 62
7
  6
CONTINUOUS
 10
188.4932395574
 20
108.0643313591
 11
188.3885091678
 21
108.3787780348
  0
LINE
  5
388
100
AcDbEntity
  8
DRAFT
100
AcDbLine
 62
7
  6
CONTINUOUS
 10
188.3885091678
 20
69.7498846834
 11
188.449601895
 21
69.9333119109
  0
LINE
  5
389
100
AcDbEntity
  8
DRAFT
100
AcDbLine
 62
7
  6
CONTINUOUS
 10
176.0932395574
 20
136.9143313591
 11
121.8781496872
 21
136.9143313591
  0
LINE
  5
38A
100
AcDbEntity
  8
DRAFT
100
AcDbLine
 62
7
  6
CONTINUOUS
 10
121.8432395574
 20
136.9143313591
 11
118.1432395574
 21
136.9143313591
  0
LINE
  5
38B
100
AcDbEntity
  8
0
100
AcDbLine
 62
7
  6
CONTINUOUS
 10
161.7932395574
 20
137.5143313591
 11
159.5932395574
 21
137.5143313591
  0
LINE
  5
38C
100
AcDbEntity
  8
0
100
AcDbLine
 62
7
  6
CONTINUOUS
 10
145.5932395574
 20
137.5143313591
 11
143.3932395574
 21
137.5143313591
  0
LINE
  5
38D
100
AcDbEntity
  8
0
100
AcDbLine
 62
7
  6
CONTINUOUS
 10
122.5932395574
 20
137.5143313591
 11
120.3932395574
 21
137.5143313591
  0
LINE
  5
38E
100
AcDbEntity
  8
0
100
AcDbLine
 62
7
  6
CONTINUOUS
 10
183.0932395574
 20
139.2143313591
 11
181.0932395574
 21
139.2143313591
  0
LINE
  5
38F
100
AcDbEntity
  8
0
100
AcDbLine
 62
7
  6
CONTINUOUS
 10
181.0932395574
 20
143.2143313591
 11
183.0932395574
 21
143.2143313591
  0
LINE
  5
390
100
AcDbEntity
  8
ASSI
100
AcDbLine
 62
7
  6
CONTINUOUS
 10
176.0932395574
 20
143.8143313591
 11
118.1432395574
 21
143.8143313591
  0
LINE
  5
391
100
AcDbEntity
  8
RACCORDO
100
AcDbLine
 62
7
  6
CONTINUOUS
 10
187.3886614726
 20
145.1096009695
 11
117.7978176421
 21
145.1096009695
  0
LINE
  5
392
100
AcDbEntity
  8
DRAFT
100
AcDbLine
 62
7
  6
CONTINUOUS
 10
187.0932395574
 20
145.1619661643
 11
177.0932395574
 21
145.1619661643
  0
LINE
  5
393
100
AcDbEntity
  8
RACCORDO
100
AcDbLine
 62
7
  6
CONTINUOUS
 10
187.4933918622
 20
145.2143313591
 11
187.1456047521
 21
145.2143313591
  0
LINE
  5
394
100
AcDbEntity
  8
RACCORDO
100
AcDbLine
 62
7
  6
CONTINUOUS
 10
177.0408743626
 20
145.2143313591
 11
117.6930872525
 21
145.2143313591
  0
LINE
  5
395
100
AcDbEntity
  8
DRAFT
100
AcDbLine
 62
7
  6
CONTINUOUS
 10
177.0408743626
 20
145.2143313591
 11
177.0932395574
 21
145.1619661643
  0
CIRCLE
  5
396
100
AcDbEntity
  8
DRAFT
100
AcDbCircle
 62
7
  6
CONTINUOUS
 10
119.5932395574
 20
45.5643313591
 40
2.2849101299
  0
ARC
  5
397
100
AcDbEntity
  8
0
100
AcDbCircle
 62
7
  6
CONTINUOUS
 10
124.0932395574
 20
39.4143313591
 40
2.0
100
AcDbArc
 50
270.0
 51
90.0
  0
ARC
  5
398
100
AcDbEntity
  8
0
100
AcDbCircle
 62
7
  6
CONTINUOUS
 10
122.0932395574
 20
39.4143313591
 40
2.0
100
AcDbArc
 50
90.0
 51
270.0
  0
CIRCLE
  5
399
100
AcDbEntity
  8
DRAFT
100
AcDbCircle
 62
7
  6
CONTINUOUS
 10
119.5932395574
 20
45.5643313591
 40
1.3198202597
  0
CIRCLE
  5
39A
100
AcDbEntity
  8
DRAFT
100
AcDbCircle
 62
7
  6
CONTINUOUS
 10
119.5932395574
 20
45.5643313591
 40
1.25
  0
CIRCLE
  5
39B
100
AcDbEntity
  8
DRAFT
100
AcDbCircle
 62
7
  6
CONTINUOUS
 10
119.5932395574
 20
45.5643313591
 40
1.0
  0
CIRCLE
  5
39C
100
AcDbEntity
  8
DRAFT
100
AcDbCircle
 62
7
  6
CONTINUOUS
 10
119.5932395574
 20
45.5643313591
 40
0.9520022272
  0
ARC
  5
39D
100
AcDbEntity
  8
DRAFT
100
AcDbCircle
 62
7
  6
CONTINUOUS
 10
119.5932395574
 20
135.0643313591
 40
2.2849101299
100
AcDbArc
 50
129.3901947656
 51
360.0
  0
ARC
  5
39E
100
AcDbEntity
  8
DRAFT
100
AcDbCircle
 62
7
  6
CONTINUOUS
 10
119.5932395574
 20
135.0643313591
 40
2.25
100
AcDbArc
 50
315.7440798202
 51
360.0
  0
CIRCLE
  5
39F
100
AcDbEntity
  8
DRAFT
100
AcDbCircle
 62
7
  6
CONTINUOUS
 10
119.5932395574
 20
135.0643313591
 40
1.3198202597
  0
CIRCLE
  5
3A0
100
AcDbEntity
  8
DRAFT
100
AcDbCircle
 62
7
  6
CONTINUOUS
 10
119.5932395574
 20
135.0643313591
 40
1.25
  0
CIRCLE
  5
3A1
100
AcDbEntity
  8
DRAFT
100
AcDbCircle
 62
7
  6
CONTINUOUS
 10
119.5932395574
 20
135.0643313591
 40
1.0
  0
CIRCLE
  5
3A2
100
AcDbEntity
  8
DRAFT
100
AcDbCircle
 62
7
  6
CONTINUOUS
 10
119.5932395574
 20
135.0643313591
 40
0.9520022272
  0
ARC
  5
3A3
100
AcDbEntity
  8
DRAFT
100
AcDbCircle
 62
7
  6
CONTINUOUS
 10
185.5932395574
 20
45.5643313591
 40
2.2849101299
100
AcDbArc
 50
309.3901947656
 51
180.0
  0
ARC
  5
3A4
100
AcDbEntity
  8
DRAFT
100
AcDbCircle
 62
7
  6
CONTINUOUS
 10
185.5932395574
 20
45.5643313591
 40
2.25
100
AcDbArc
 50
135.7440798202
 51
180.0
  0
CIRCLE
  5
3A5
100
AcDbEntity
  8
DRAFT
100
AcDbCircle
 62
7
  6
CONTINUOUS
 10
185.5932395574
 20
45.5643313591
 40
1.3198202597
  0
CIRCLE
  5
3A6
100
AcDbEntity
  8
DRAFT
100
AcDbCircle
 62
7
  6
CONTINUOUS
 10
185.5932395574
 20
45.5643313591
 40
1.25
  0
CIRCLE
  5
3A7
100
AcDbEntity
  8
DRAFT
100
AcDbCircle
 62
7
  6
CONTINUOUS
 10
185.5932395574
 20
45.5643313591
 40
1.0
  0
CIRCLE
  5
3A8
100
AcDbEntity
  8
DRAFT
100
AcDbCircle
 62
7
  6
CONTINUOUS
 10
185.5932395574
 20
45.5643313591
 40
0.9520022272
  0
CIRCLE
  5
3A9
100
AcDbEntity
  8
DRAFT
100
AcDbCircle
 62
7
  6
CONTINUOUS
 10
185.5932395574
 20
135.0643313591
 40
2.2849101299
  0
ARC
  5
3AA
100
AcDbEntity
  8
0
100
AcDbCircle
 62
7
  6
CONTINUOUS
 10
183.0932395574
 20
141.2143313591
 40
2.0
100
AcDbArc
 50
270.0
 51
90.0
  0
ARC
  5
3AB
100
AcDbEntity
  8
0
100
AcDbCircle
 62
7
  6
CONTINUOUS
 10
181.0932395574
 20
141.2143313591
 40
2.0
100
AcDbArc
 50
90.0
 51
270.0
  0
CIRCLE
  5
3AC
100
AcDbEntity
  8
DRAFT
100
AcDbCircle
 62
7
  6
CONTINUOUS
 10
185.5932395574
 20
135.0643313591
 40
1.3198202597
  0
CIRCLE
  5
3AD
100
AcDbEntity
  8
DRAFT
100
AcDbCircle
 62
7
  6
CONTINUOUS
 10
185.5932395574
 20
135.0643313591
 40
1.25
  0
CIRCLE
  5
3AE
100
AcDbEntity
  8
DRAFT
100
AcDbCircle
 62
7
  6
CONTINUOUS
 10
185.5932395574
 20
135.0643313591
 40
1.0
  0
CIRCLE
  5
3AF
100
AcDbEntity
  8
DRAFT
100
AcDbCircle
 62
7
  6
CONTINUOUS
 10
185.5932395574
 20
135.0643313591
 40
0.9520022272
  0
ELLIPSE
  5
3B0
100
AcDbEntity
  8
RACCORDO
100
AcDbEllipse
 62
7
  6
CONTINUOUS
 10
148.2089491158
 20
73.9143313591
 30
0.0
 11
0.0
 21
0.3
 31
0.0
 40
0.0174550649
 41
-3.1415926536
 42
-1.5707963268
  0
ELLIPSE
  5
3B1
100
AcDbEntity
  8
RACCORDO
100
AcDbEllipse
 62
7
  6
CONTINUOUS
 10
156.9775299989
 20
73.9143313591
 30
0.0
 11
0.0
 21
0.3
 31
0.0
 40
0.0174550649
 41
-4.7123889804
 42
-3.1415926536
  0
ELLIPSE
  5
3B2
100
AcDbEntity
  8
RACCORDO
100
AcDbEllipse
 62
7
  6
CONTINUOUS
 10
148.6933157214
 20
40.7144075231
 30
0.0
 11
0.3536610946
 21
0.3536610946
 31
0.0
 40
0.9996954599
 41
2.3563467834
 42
3.9268385237
  0
ELLIPSE
  5
3B3
100
AcDbEntity
  8
RACCORDO
100
AcDbEllipse
 62
7
  6
CONTINUOUS
 10
156.4931633933
 20
40.7144075231
 30
0.0
 11
0.3536610946
 21
-0.3536610946
 31
0.0
 40
0.9996954599
 41
-0.7852458701
 42
0.7852458701
  0
ELLIPSE
  5
3B4
100
AcDbEntity
  8
RACCORDO
100
AcDbEllipse
 62
7
  6
CONTINUOUS
 10
148.7683725006
 20
40.7894643023
 30
0.0
 11
-0.3536610946
 21
-0.3536610946
 31
0.0
 40
0.9996954599
 41
-0.7852458701
 42
0.7852458701
  0
ELLIPSE
  5
3B5
100
AcDbEntity
  8
RACCORDO
100
AcDbEllipse
 62
7
  6
CONTINUOUS
 10
156.4181066141
 20
40.7894643023
 30
0.0
 11
0.3536610946
 21
-0.3536610946
 31
0.0
 40
0.9996954599
 41
-0.7852458701
 42
0.7852458701
  0
ELLIPSE
  5
3B6
100
AcDbEntity
  8
RACCORDO
100
AcDbEllipse
 62
7
  6
CONTINUOUS
 10
117.9785422587
 20
125.2143313591
 30
0.0
 11
0.0
 21
1.0
 31
0.0
 40
0.0174550649
 41
-0.0
 42
1.5707963268
  0
ELLIPSE
  5
3B7
100
AcDbEntity
  8
RACCORDO
100
AcDbEllipse
 62
7
  6
CONTINUOUS
 10
117.9785422587
 20
115.4143313591
 30
0.0
 11
0.0
 21
1.0
 31
0.0
 40
0.0174550649
 41
-4.7123889804
 42
-3.1415926536
  0
ELLIPSE
  5
3B8
100
AcDbEntity
  8
RACCORDO
100
AcDbEllipse
 62
7
  6
CONTINUOUS
 10
117.9785422587
 20
65.2143313591
 30
0.0
 11
-0.0
 21
1.0
 31
0.0
 40
0.0174550649
 41
-0.0
 42
1.5707963268
  0
ELLIPSE
  5
3B9
100
AcDbEntity
  8
RACCORDO
100
AcDbEllipse
 62
7
  6
CONTINUOUS
 10
117.9785422587
 20
55.4143313591
 30
0.0
 11
0.0
 21
1.0
 31
0.0
 40
0.0174550649
 41
-4.7123889804
 42
-3.1415926536
  0
ELLIPSE
  5
3BA
100
AcDbEntity
  8
RACCORDO
100
AcDbEllipse
 62
7
  6
CONTINUOUS
 10
187.207936856
 20
65.2143313591
 30
0.0
 11
0.0
 21
1.0
 31
0.0
 40
0.0174550649
 41
-1.5707963268
 42
-0.0
  0
ELLIPSE
  5
3BB
100
AcDbEntity
  8
RACCORDO
100
AcDbEllipse
 62
7
  6
CONTINUOUS
 10
187.207936856
 20
115.4143313591
 30
0.0
 11
0.0
 21
1.0
 31
0.0
 40
0.0174550649
 41
-3.1415926536
 42
-1.5707963268
  0
ELLIPSE
  5
3BC
100
AcDbEntity
  8
RACCORDO
100
AcDbEllipse
 62
7
  6
CONTINUOUS
 10
187.207936856
 20
125.2143313591
 30
0.0
 11
0.0
 21
1.0
 31
0.0
 40
0.0174550649
 41
-1.5707963268
 42
-0.0
  0
ELLIPSE
  5
3BD
100
AcDbEntity
  8
RACCORDO
100
AcDbEllipse
 62
7
  6
CONTINUOUS
 10
187.207936856
 20
55.4143313591
 30
0.0
 11
0.0
 21
1.0
 31
0.0
 40
0.0174550649
 41
-3.1415926536
 42
-1.5707963268
  0
ELLIPSE
  5
3BE
100
AcDbEntity
  8
RACCORDO
100
AcDbEllipse
 62
7
  6
CONTINUOUS
 10
116.777023869
 20
125.2143313591
 30
0.0
 11
-0.0
 21
1.0
 31
0.0
 40
0.0174550649
 41
-1.5707963268
 42
0.0
  0
ELLIPSE
  5
3BF
100
AcDbEntity
  8
RACCORDO
100
AcDbEllipse
 62
7
  6
CONTINUOUS
 10
116.777023869
 20
115.4143313591
 30
0.0
 11
0.0
 21
1.0
 31
0.0
 40
0.0174550649
 41
-3.1415926536
 42
-1.5707963268
  0
ELLIPSE
  5
3C0
100
AcDbEntity
  8
RACCORDO
100
AcDbEllipse
 62
7
  6
CONTINUOUS
 10
116.777023869
 20
65.2143313591
 30
0.0
 11
0.0
 21
1.0
 31
0.0
 40
0.0174550649
 41
-1.5707963268
 42
0.0
  0
ELLIPSE
  5
3C1
100
AcDbEntity
  8
RACCORDO
100
AcDbEllipse
 62
7
  6
CONTINUOUS
 10
116.777023869
 20
55.4143313591
 30
0.0
 11
0.0
 21
1.0
 31
0.0
 40
0.0174550649
 41
-3.1415926536
 42
-1.5707963268
  0
ELLIPSE
  5
3C2
100
AcDbEntity
  8
RACCORDO
100
AcDbEllipse
 62
7
  6
CONTINUOUS
 10
188.4094552457
 20
115.4143313591
 30
0.0
 11
0.0
 21
1.0
 31
0.0
 40
0.0174550649
 41
-4.7123889804
 42
-3.1415926536
  0
ELLIPSE
  5
3C3
100
AcDbEntity
  8
RACCORDO
100
AcDbEllipse
 62
7
  6
CONTINUOUS
 10
188.4094552457
 20
125.2143313591
 30
0.0
 11
0.0
 21
1.0
 31
0.0
 40
0.0174550649
 41
0.0
 42
1.5707963268
  0
ELLIPSE
  5
3C4
100
AcDbEntity
  8
RACCORDO
100
AcDbEllipse
 62
7
  6
CONTINUOUS
 10
188.4094552457
 20
65.2143313591
 30
0.0
 11
0.0
 21
1.0
 31
0.0
 40
0.0174550649
 41
0.0
 42
1.5707963268
  0
ELLIPSE
  5
3C5
100
AcDbEntity
  8
RACCORDO
100
AcDbEllipse
 62
7
  6
CONTINUOUS
 10
188.4094552457
 20
55.4143313591
 30
0.0
 11
0.0
 21
1.0
 31
0.0
 40
0.0174550649
 41
-4.7123889804
 42
-3.1415926536
  0
ELLIPSE
  5
3C6
100
AcDbEntity
  8
RACCORDO
100
AcDbEllipse
 62
7
  6
CONTINUOUS
 10
117.6933918854
 20
36.4144836871
 30
0.0
 11
0.7073221892
 21
0.7073221892
 31
0.0
 40
0.9996954599
 41
-3.9268385237
 42
-2.3563467834
  0
ELLIPSE
  5
3C7
100
AcDbEntity
  8
RACCORDO
100
AcDbEllipse
 62
7
  6
CONTINUOUS
 10
187.4930872293
 20
36.4144836871
 30
0.0
 11
-0.7073221892
 21
0.7073221892
 31
0.0
 40
0.9996954599
 41
-3.9268385237
 42
-2.3563467834
  0
ELLIPSE
  5
3C8
100
AcDbEntity
  8
RACCORDO
100
AcDbEllipse
 62
7
  6
CONTINUOUS
 10
117.6933918854
 20
144.2141790311
 30
0.0
 11
0.7073221892
 21
-0.7073221892
 31
0.0
 40
0.9996954599
 41
2.3563467834
 42
3.9268385237
  0
ELLIPSE
  5
3C9
100
AcDbEntity
  8
RACCORDO
100
AcDbEllipse
 62
7
  6
CONTINUOUS
 10
187.4930872293
 20
144.2141790311
 30
0.0
 11
0.7073221892
 21
0.7073221892
 31
0.0
 40
0.9996954599
 41
-0.7852458701
 42
0.7852458701
  0
ELLIPSE
  5
3CA
100
AcDbEntity
  8
RACCORDO
100
AcDbEllipse
 62
7
  6
CONTINUOUS
 10
117.798122275
 20
144.1094486415
 30
0.0
 11
-0.7073221892
 21
0.7073221892
 31
0.0
 40
0.9996954599
 41
-0.7852458701
 42
0.7852458701
  0
ELLIPSE
  5
3CB
100
AcDbEntity
  8
RACCORDO
100
AcDbEllipse
 62
7
  6
CONTINUOUS
 10
187.3883568397
 20
144.1094486415
 30
0.0
 11
-0.7073221892
 21
-0.7073221892
 31
0.0
 40
0.9996954599
 41
2.3563467834
 42
3.9268385237
  0
ELLIPSE
  5
3CC
100
AcDbEntity
  8
RACCORDO
100
AcDbEllipse
 62
7
  6
CONTINUOUS
 10
147.7449056072
 20
91.2686295866
 30
0.0
 11
0.0
 21
0.5
 31
0.0
 40
0.2679491924
 41
0.034906585
 42
1.5707963268
  0
ELLIPSE
  5
3CD
100
AcDbEntity
  8
RACCORDO
100
AcDbEllipse
 62
7
  6
CONTINUOUS
 10
147.7449056072
 20
89.3600331316
 30
0.0
 11
-0.0
 21
0.5
 31
0.0
 40
0.2679491924
 41
-4.7123889804
 42
-3.1764992386
  0
ELLIPSE
  5
3CE
100
AcDbEntity
  8
RACCORDO
100
AcDbEllipse
 62
7
  6
CONTINUOUS
 10
146.6386365577
 20
91.2686295866
 30
0.0
 11
-0.0
 21
0.5
 31
0.0
 40
0.0349207695
 41
-1.5707963268
 42
-0.034906585
  0
ELLIPSE
  5
3CF
100
AcDbEntity
  8
RACCORDO
100
AcDbEllipse
 62
7
  6
CONTINUOUS
 10
146.6386365577
 20
89.3600331316
 30
0.0
 11
-0.0
 21
0.5
 31
0.0
 40
0.0349207695
 41
-3.1066860686
 42
-1.5707963268
  0
ELLIPSE
  5
3D0
100
AcDbEntity
  8
RACCORDO
100
AcDbEllipse
 62
7
  6
CONTINUOUS
 10
158.547842557
 20
89.3600331316
 30
0.0
 11
-0.0
 21
0.5
 31
0.0
 40
0.0349207695
 41
-4.7123889804
 42
-3.1764992386
  0
ELLIPSE
  5
3D1
100
AcDbEntity
  8
RACCORDO
100
AcDbEllipse
 62
7
  6
CONTINUOUS
 10
158.547842557
 20
91.2686295866
 30
0.0
 11
0.0
 21
0.5
 31
0.0
 40
0.0349207695
 41
0.034906585
 42
1.5707963268
  0
ELLIPSE
  5
3D2
100
AcDbEntity
  8
RACCORDO
100
AcDbEllipse
 62
7
  6
CONTINUOUS
 10
157.4415735075
 20
89.3600331316
 30
0.0
 11
-0.0
 21
0.5
 31
0.0
 40
0.2679491924
 41
-3.1066860686
 42
-1.5707963268
  0
ELLIPSE
  5
3D3
100
AcDbEntity
  8
RACCORDO
100
AcDbEllipse
 62
7
  6
CONTINUOUS
 10
157.4415735075
 20
91.2686295866
 30
0.0
 11
0.0
 21
0.5
 31
0.0
 40
0.2679491924
 41
-1.5707963268
 42
-0.034906585
  0
ELLIPSE
  5
3D4
100
AcDbEntity
  8
RACCORDO
100
AcDbEllipse
 62
7
  6
CONTINUOUS
 10
117.798122275
 20
36.5192140767
 30
0.0
 11
0.7073221892
 21
0.7073221892
 31
0.0
 40
0.9996954599
 41
2.3563467834
 42
3.9268385237
  0
ELLIPSE
  5
3D5
100
AcDbEntity
  8
RACCORDO
100
AcDbEllipse
 62
7
  6
CONTINUOUS
 10
187.3883568397
 20
36.5192140767
 30
0.0
 11
0.7073221892
 21
-0.7073221892
 31
0.0
 40
0.9996954599
 41
-0.7852458701
 42
0.7852458701
  0
ENDSEC
  0
SECTION
  2
OBJECTS
  0
DICTIONARY
  5
C
100
AcDbDictionary
280
0
281
1
  3
ACAD_GROUP
350
D
  3
ACAD_MLINESTYLE
350
17
  3
ACAD_LAYOUT
350
1A
  3
ACAD_PLOTSETTINGS
350
19
  3
ACAD_PLOTSTYLENAME
350
E
  0
DICTIONARY
  5
D
102
{ACAD_REACTORS
330
C
102
}
100
AcDbDictionary
280
0
281
1
  0
ACDBDICTIONARYWDFLT
  5
E
102
{ACAD_REACTORS
330
C
102
}
100
AcDbDictionary
281
1
  3
Normal
350
F
100
AcDbDictionaryWithDefault
340
F
  0
DICTIONARY
  5
17
102
{ACAD_REACTORS
330
C
102
}
100
AcDbDictionary
280
0
281
1
  3
Standard
350
18
  0
DICTIONARY
  5
19
102
{ACAD_REACTORS
330
C
102
}
100
AcDbDictionary
281
1
  0
DICTIONARY
  5
1A
102
{ACAD_REACTORS
330
C
102
}
100
AcDbDictionary
281
1
  3
Model
350
3D6
  3
Layout1
350
3D7
  0
ACDBPLACEHOLDER
  5
F
102
{ACAD_REACTORS
330
E
102
}
  0
MLINESTYLE
  5
18
102
{ACAD_REACTORS
330
17
102
}
100
AcDbMlineStyle
  2
STANDARD
 70
0
  3

 62
256
 51
90.0
 52
90.0
 71
2
 49
0.5
 62
256
  6
BYLAYER
 49
-0.5
 62
256
  6
BYLAYER
  0
LAYOUT
  5
3D6
102
{ACAD_REACTORS
330
1A
102
}
100
AcDbPlotSettings
  1

  2
none_device
  4
ISO_A4_(297.00_x_210.00_MM)
  6

 40
0.0
 41
0.0
 42
0.0
 43
0.0
 44
297.0
 45
210.0
 46
0.0
 47
0.0
 48
0.0
 49
0.0
140
0.0
141
0.0
142
1.0
143
1.0
 70
1024
 72
1
 73
0
 74
0
  7

 75
0
147
1.0
148
0.0
149
0.0
100
AcDbLayout
  1
Model
 70
0
 71
0
 10
0.0
 20
0.0
 11
297.0
 21
210.0
 12
0.0
 22
0.0
 32
0.0
 14
0.0
 24
0.0
 34
0.0
 15
0.0
 25
0.0
 35
0.0
146
0.0
 13
0.0
 23
0.0
 33
0.0
 16
1.0
 26
0.0
 36
0.0
 17
0.0
 27
1.0
 37
0.0
 76
0
330
221
345
0
346
0
  0
LAYOUT
  5
3D7
102
{ACAD_REACTORS
330
1A
102
}
100
AcDbPlotSettings
  1

  2
none_device
  4
ISO_A4_(297.00_x_210.00_MM)
  6

 40
0.0
 41
0.0
 42
0.0
 43
0.0
 44
297.0
 45
210.0
 46
0.0
 47
0.0
 48
0.0
 49
0.0
140
0.0
141
0.0
142
1.0
143
1.0
 70
0
 72
1
 73
0
 74
0
  7

 75
0
147
1.0
148
0.0
149
0.0
100
AcDbLayout
  1
Layout1
 70
0
 71
1
 10
0.0
 20
0.0
 11
297.0
 21
210.0
 12
0.0
 22
0.0
 32
0.0
 14
0.0
 24
0.0
 34
0.0
 15
0.0
 25
0.0
 35
0.0
146
0.0
 13
0.0
 23
0.0
 33
0.0
 16
1.0
 26
0.0
 36
0.0
 17
0.0
 27
1.0
 37
0.0
 76
0
330
222
345
0
346
0
  0
ENDSEC
  0
EOF
