  0
SECTION
  2
HEADER
  9
$ACADVER
  1
AC1021
  9
$DWGCODEPAGE
  3
ANSI_1252
  9
$EXTMAX
 10
297.0
 20
210.0
 30
0.0
  9
$EXTMIN
 10
0.0
 20
0.0
 30
0.0
  9
$LIMMIN
 10
0.0
 20
0.0
  9
$LIMMAX
 10
297.0
 20
210.0
  9
$VIEWCTR
 10
148.5
 20
105.0
  9
$VIEWSIZE
 40
210.0
  9
$CLAYER
  8
0
  9
$LTSCALE
 40
16.335
  9
$CELTYPE
  6
BYLAYER
  9
$DIMSCALE
 40
1.0
  9
$DIMASZ
 40
3.0
  9
$DIMEXO
 40
0.5
  9
$DIMDLI
 40
11.286
  9
$DIMEXE
 40
1.5
  9
$DIMCEN
 40
2.673
  9
$DIMLFAC
 40
1.0
  9
$DIMBLK
  1
_FILLED
  9
$DIMALT
 70
0
  9
$DIMALTF
 40
0.0393700787
  9
$DIMTXT
 40
3.0
  9
$DIMTOL
 70
1
  9
$DIMLIM
 70
0
  9
$DIMTFAC
 40
1.0
  9
$DIMTP
 40
0.01
  9
$DIMTM
 40
0.01
  9
$DIMGAP
 40
0.625
  9
$DIMDSEP
 70
44
  9
$AUNITS
 70
0
  9
$PDMODE
 70
3
  9
$PDSIZE
 40
3.0
  9
$HANDSEED
  5
5FC
  9
$TILEMODE
 70
1
  9
$MEASUREMENT
 70
1
  9
$INSUNITS
 70
4
  0
ENDSEC
  0
SECTION
  2
CLASSES
  0
CLASS
  1
ACDBDICTIONARYWDFLT
  2
AcDbDictionaryWithDefault
  3
AutoCAD 2000
 90
0
 91
1
280
0
281
0
  0
CLASS
  1
ACDBPLACEHOLDER
  2
AcDbPlaceHolder
  3
AutoCAD 2000
 90
0
 91
1
280
0
281
0
  0
CLASS
  1
LAYOUT
  2
AcDbLayout
  3
AutoCAD 2000
 90
0
 91
0
280
0
281
0
  0
ENDSEC
  0
SECTION
  2
TABLES
  0
TABLE
  2
VPORT
  5
8
100
AcDbSymbolTable
 70
2
  0
VPORT
  5
1F4
100
AcDbSymbolTableRecord
100
AcDbViewportTableRecord
  2
*ACTIVE
 70
0
 10
0.0
 20
0.0
 11
1.0
 21
1.0
 12
148.5
 22
105.0
 13
0.0
 23
0.0
 14
1.0
 24
1.0
 15
0.0
 25
0.0
 16
0.0
 26
0.0
 36
1.0
 17
0.0
 27
0.0
 37
0.0
 40
210.0
 41
1.4142857143
 42
50.0
 43
0.0
 44
0.0
 50
0.0
 51
0.0
 71
0
 72
100
 73
1
 74
1
 75
0
 76
0
 77
0
 78
0
  0
ENDTAB
  0
TABLE
  2
LTYPE
  5
5
100
AcDbSymbolTable
 70
6
  0
LTYPE
  5
14
100
AcDbSymbolTableRecord
100
AcDbLinetypeTableRecord
  2
BYBLOCK
 70
0
  3

 72
65
 73
0
 40
0.0
  0
LTYPE
  5
15
100
AcDbSymbolTableRecord
100
AcDbLinetypeTableRecord
  2
BYLAYER
 70
0
  3

 72
65
 73
0
 40
0.0
  0
LTYPE
  5
16
100
AcDbSymbolTableRecord
100
AcDbLinetypeTableRecord
  2
CONTINUOUS
 70
64
  3
Solid line
 72
65
 73
0
 40
0.0
  0
LTYPE
  5
1F5
100
AcDbSymbolTableRecord
100
AcDbLinetypeTableRecord
  2
CENTER
 70
64
  3
____ _ ____ _ ____ _ ____ _ ____ _ ____ _ ____
 72
65
 73
4
 40
0.6
 49
0.375
 74
0
 49
-0.075
 74
0
 49
0.075
 74
0
 49
-0.075
 74
0
  0
LTYPE
  5
1F6
100
AcDbSymbolTableRecord
100
AcDbLinetypeTableRecord
  2
HIDDEN
 70
64
  3
- - - - - - - - - - - - - - - - - - - -
 72
65
 73
2
 40
0.2
 49
0.1
 74
0
 49
-0.1
 74
0
  0
LTYPE
  5
1F7
100
AcDbSymbolTableRecord
100
AcDbLinetypeTableRecord
  2
PHANTOM
 70
64
  3
_____ _ _ _____ _ _ _____ _ _ _____
 72
65
 73
6
 40
0.8
 49
0.45
 74
0
 49
-0.05
 74
0
 49
0.1
 74
0
 49
-0.05
 74
0
 49
0.1
 74
0
 49
-0.05
 74
0
  0
LTYPE
  5
1F8
100
AcDbSymbolTableRecord
100
AcDbLinetypeTableRecord
  2
DOT
 70
64
  3
. . . . . . . . . . . . . . . . . . . .
 72
65
 73
2
 40
0.2
 49
0.1
 74
0
 49
-0.1
 74
0
  0
LTYPE
  5
1F9
100
AcDbSymbolTableRecord
100
AcDbLinetypeTableRecord
  2
DASHED
 70
64
  3
- - - - - - - - - - - - - - - - - - - -
 72
65
 73
2
 40
0.2
 49
0.1
 74
0
 49
-0.1
 74
0
  0
ENDTAB
  0
TABLE
  2
LAYER
  5
2
100
AcDbSymbolTable
 70
36
  0
LAYER
  5
10
100
AcDbSymbolTableRecord
100
AcDbLayerTableRecord
  2
0
 70
0
 62
7
  6
CONTINUOUS
370
-3
390
F
  0
LAYER
  5
1FA
100
AcDbSymbolTableRecord
100
AcDbLayerTableRecord
  2
DEFAULT_1
 70
0
 62
7
  6
CENTER
370
-3
390
F
  0
LAYER
  5
1FB
100
AcDbSymbolTableRecord
100
AcDbLayerTableRecord
  2
DEFAULT_2
 70
0
 62
7
  6
HIDDEN
370
-3
390
F
  0
LAYER
  5
1FC
100
AcDbSymbolTableRecord
100
AcDbLayerTableRecord
  2
DEFAULT_3
 70
0
 62
7
  6
PHANTOM
370
-3
390
F
  0
LAYER
  5
1FD
100
AcDbSymbolTableRecord
100
AcDbLayerTableRecord
  2
1615-LED-1-1-VIMAR_110000
 70
0
 62
7
  6
CONTINUOUS
370
-3
390
F
  0
LAYER
  5
1FE
100
AcDbSymbolTableRecord
100
AcDbLayerTableRecord
  2
200A_170000
 70
0
 62
7
  6
CONTINUOUS
370
-3
390
F
  0
LAYER
  5
1FF
100
AcDbSymbolTableRecord
100
AcDbLayerTableRecord
  2
2125-R1-RF-VIMAR_60000
 70
0
 62
7
  6
CONTINUOUS
370
-3
390
F
  0
LAYER
  5
200
100
AcDbSymbolTableRecord
100
AcDbLayerTableRecord
  2
2125-R1-RF-VIMAR_60000_1
 70
0
 62
7
  6
CONTINUOUS
370
-3
390
F
  0
LAYER
  5
201
100
AcDbSymbolTableRecord
100
AcDbLayerTableRecord
  2
2125-R1-RF-VIMAR_60000_2
 70
0
 62
7
  6
CONTINUOUS
370
-3
390
F
  0
LAYER
  5
202
100
AcDbSymbolTableRecord
100
AcDbLayerTableRecord
  2
2125-R1-RF-VIMAR_60000_3
 70
0
 62
7
  6
CONTINUOUS
370
-3
390
F
  0
LAYER
  5
203
100
AcDbSymbolTableRecord
100
AcDbLayerTableRecord
  2
2125-R1-RF-VIMAR_60000_4
 70
0
 62
7
  6
CONTINUOUS
370
-3
390
F
  0
LAYER
  5
204
100
AcDbSymbolTableRecord
100
AcDbLayerTableRecord
  2
2125-R1-RF-VIMAR_60000_5
 70
0
 62
7
  6
CONTINUOUS
370
-3
390
F
  0
LAYER
  5
205
100
AcDbSymbolTableRecord
100
AcDbLayerTableRecord
  2
3216-CF-RF-VIMAR_100000
 70
0
 62
7
  6
CONTINUOUS
370
-3
390
F
  0
LAYER
  5
206
100
AcDbSymbolTableRecord
100
AcDbLayerTableRecord
  2
3216-CF-RF-VIMAR_100000_1
 70
0
 62
7
  6
CONTINUOUS
370
-3
390
F
  0
LAYER
  5
207
100
AcDbSymbolTableRecord
100
AcDbLayerTableRecord
  2
3216-CF-RF-VIMAR_100000_2
 70
0
 62
7
  6
CONTINUOUS
370
-3
390
F
  0
LAYER
  5
208
100
AcDbSymbolTableRecord
100
AcDbLayerTableRecord
  2
43000460A0
 70
0
 62
7
  6
CONTINUOUS
370
-3
390
F
  0
LAYER
  5
209
100
AcDbSymbolTableRecord
100
AcDbLayerTableRecord
  2
43000460A0_
 70
0
 62
7
  6
CONTINUOUS
370
-3
390
F
  0
LAYER
  5
20A
100
AcDbSymbolTableRecord
100
AcDbLayerTableRecord
  2
43000689A0
 70
0
 62
7
  6
CONTINUOUS
370
-3
390
F
  0
LAYER
  5
20B
100
AcDbSymbolTableRecord
100
AcDbLayerTableRecord
  2
43900681A0
 70
0
 62
7
  6
CONTINUOUS
370
-3
390
F
  0
LAYER
  5
20C
100
AcDbSymbolTableRecord
100
AcDbLayerTableRecord
  2
43900681A0_1
 70
0
 62
7
  6
CONTINUOUS
370
-3
390
F
  0
LAYER
  5
20D
100
AcDbSymbolTableRecord
100
AcDbLayerTableRecord
  2
43900682A0
 70
0
 62
7
  6
CONTINUOUS
370
-3
390
F
  0
LAYER
  5
20E
100
AcDbSymbolTableRecord
100
AcDbLayerTableRecord
  2
43900682A0_1
 70
0
 62
7
  6
CONTINUOUS
370
-3
390
F
  0
LAYER
  5
20F
100
AcDbSymbolTableRecord
100
AcDbLayerTableRecord
  2
7343-CS3-RF_430000
 70
0
 62
7
  6
CONTINUOUS
370
-3
390
F
  0
LAYER
  5
210
100
AcDbSymbolTableRecord
100
AcDbLayerTableRecord
  2
7343-CS3-RF_430000_1
 70
0
 62
7
  6
CONTINUOUS
370
-3
390
F
  0
LAYER
  5
211
100
AcDbSymbolTableRecord
100
AcDbLayerTableRecord
  2
ASM0001
 70
0
 62
7
  6
CONTINUOUS
370
-3
390
F
  0
LAYER
  5
212
100
AcDbSymbolTableRecord
100
AcDbLayerTableRecord
  2
ASSI
 70
0
 62
7
  6
CONTINUOUS
370
-3
390
F
  0
LAYER
  5
213
100
AcDbSymbolTableRecord
100
AcDbLayerTableRecord
  2
CAPC1005X60N_60000
 70
0
 62
7
  6
CONTINUOUS
370
-3
390
F
  0
LAYER
  5
214
100
AcDbSymbolTableRecord
100
AcDbLayerTableRecord
  2
CAPC1005X60N_60000_1
 70
0
 62
7
  6
CONTINUOUS
370
-3
390
F
  0
LAYER
  5
215
100
AcDbSymbolTableRecord
100
AcDbLayerTableRecord
  2
CAPC1005X60N_60000_10
 70
0
 62
7
  6
CONTINUOUS
370
-3
390
F
  0
LAYER
  5
216
100
AcDbSymbolTableRecord
100
AcDbLayerTableRecord
  2
CAPC1005X60N_60000_11
 70
0
 62
7
  6
CONTINUOUS
370
-3
390
F
  0
LAYER
  5
217
100
AcDbSymbolTableRecord
100
AcDbLayerTableRecord
  2
CAPC1005X60N_60000_12
 70
0
 62
7
  6
CONTINUOUS
370
-3
390
F
  0
LAYER
  5
218
100
AcDbSymbolTableRecord
100
AcDbLayerTableRecord
  2
CAPC1005X60N_60000_13
 70
0
 62
7
  6
CONTINUOUS
370
-3
390
F
  0
LAYER
  5
219
100
AcDbSymbolTableRecord
100
AcDbLayerTableRecord
  2
CAPC1005X60N_60000_14
 70
0
 62
7
  6
CONTINUOUS
370
-3
390
F
  0
LAYER
  5
21A
100
AcDbSymbolTableRecord
100
AcDbLayerTableRecord
  2
CAPC1005X60N_60000_15
 70
0
 62
7
  6
CONTINUOUS
370
-3
390
F
  0
LAYER
  5
21B
100
AcDbSymbolTableRecord
100
AcDbLayerTableRecord
  2
CAPC1005X60N_60000_16
 70
0
 62
7
  6
CONTINUOUS
370
-3
390
F
  0
LAYER
  5
21C
100
AcDbSymbolTableRecord
100
AcDbLayerTableRecord
  2
CAPC1005X60N_60000_17
 70
0
 62
7
  6
CONTINUOUS
370
-3
390
F
  0
LAYER
  5
21D
100
AcDbSymbolTableRecord
100
AcDbLayerTableRecord
  2
CAPC1005X60N_60000_18
 70
0
 62
7
  6
CONTINUOUS
370
-3
390
F
  0
LAYER
  5
21E
100
AcDbSymbolTableRecord
100
AcDbLayerTableRecord
  2
CAPC1005X60N_60000_19
 70
0
 62
7
  6
CONTINUOUS
370
-3
390
F
  0
LAYER
  5
21F
100
AcDbSymbolTableRecord
100
AcDbLayerTableRecord
  2
CAPC1005X60N_60000_2
 70
0
 62
7
  6
CONTINUOUS
370
-3
390
F
  0
LAYER
  5
220
100
AcDbSymbolTableRecord
100
AcDbLayerTableRecord
  2
CAPC1005X60N_60000_20
 70
0
 62
7
  6
CONTINUOUS
370
-3
390
F
  0
LAYER
  5
221
100
AcDbSymbolTableRecord
100
AcDbLayerTableRecord
  2
CAPC1005X60N_60000_21
 70
0
 62
7
  6
CONTINUOUS
370
-3
390
F
  0
LAYER
  5
222
100
AcDbSymbolTableRecord
100
AcDbLayerTableRecord
  2
CAPC1005X60N_60000_3
 70
0
 62
7
  6
CONTINUOUS
370
-3
390
F
  0
LAYER
  5
223
100
AcDbSymbolTableRecord
100
AcDbLayerTableRecord
  2
CAPC1005X60N_60000_4
 70
0
 62
7
  6
CONTINUOUS
370
-3
390
F
  0
LAYER
  5
224
100
AcDbSymbolTableRecord
100
AcDbLayerTableRecord
  2
CAPC1005X60N_60000_5
 70
0
 62
7
  6
CONTINUOUS
370
-3
390
F
  0
LAYER
  5
225
100
AcDbSymbolTableRecord
100
AcDbLayerTableRecord
  2
CAPC1005X60N_60000_6
 70
0
 62
7
  6
CONTINUOUS
370
-3
390
F
  0
LAYER
  5
226
100
AcDbSymbolTableRecord
100
AcDbLayerTableRecord
  2
CAPC1005X60N_60000_7
 70
0
 62
7
  6
CONTINUOUS
370
-3
390
F
  0
LAYER
  5
227
100
AcDbSymbolTableRecord
100
AcDbLayerTableRecord
  2
CAPC1005X60N_60000_8
 70
0
 62
7
  6
CONTINUOUS
370
-3
390
F
  0
LAYER
  5
228
100
AcDbSymbolTableRecord
100
AcDbLayerTableRecord
  2
CAPC1005X60N_60000_9
 70
0
 62
7
  6
CONTINUOUS
370
-3
390
F
  0
LAYER
  5
229
100
AcDbSymbolTableRecord
100
AcDbLayerTableRecord
  2
CAPC1608N_80000
 70
0
 62
7
  6
CONTINUOUS
370
-3
390
F
  0
LAYER
  5
22A
100
AcDbSymbolTableRecord
100
AcDbLayerTableRecord
  2
CAPC1608N_80000_1
 70
0
 62
7
  6
CONTINUOUS
370
-3
390
F
  0
LAYER
  5
22B
100
AcDbSymbolTableRecord
100
AcDbLayerTableRecord
  2
CAPC1608N_80000_2
 70
0
 62
7
  6
CONTINUOUS
370
-3
390
F
  0
LAYER
  5
22C
100
AcDbSymbolTableRecord
100
AcDbLayerTableRecord
  2
CAPC1608N_80000_3
 70
0
 62
7
  6
CONTINUOUS
370
-3
390
F
  0
LAYER
  5
22D
100
AcDbSymbolTableRecord
100
AcDbLayerTableRecord
  2
CAPC1608N_80000_4
 70
0
 62
7
  6
CONTINUOUS
370
-3
390
F
  0
LAYER
  5
22E
100
AcDbSymbolTableRecord
100
AcDbLayerTableRecord
  2
CAPC1608N_80000_5
 70
0
 62
7
  6
CONTINUOUS
370
-3
390
F
  0
LAYER
  5
22F
100
AcDbSymbolTableRecord
100
AcDbLayerTableRecord
  2
CAPC1608N_80000_6
 70
0
 62
7
  6
CONTINUOUS
370
-3
390
F
  0
LAYER
  5
230
100
AcDbSymbolTableRecord
100
AcDbLayerTableRecord
  2
CC-20MILS-VIMAR_1000
 70
0
 62
7
  6
CONTINUOUS
370
-3
390
F
  0
LAYER
  5
231
100
AcDbSymbolTableRecord
100
AcDbLayerTableRecord
  2
CN-MSB02001-VIMAR_1000000
 70
0
 62
7
  6
CONTINUOUS
370
-3
390
F
  0
LAYER
  5
232
100
AcDbSymbolTableRecord
100
AcDbLayerTableRecord
  2
CN-MSB02001-VIMAR_1000000_1
 70
0
 62
7
  6
CONTINUOUS
370
-3
390
F
  0
LAYER
  5
233
100
AcDbSymbolTableRecord
100
AcDbLayerTableRecord
  2
CN-MSB02001-VIMAR_1000000_2
 70
0
 62
7
  6
CONTINUOUS
370
-3
390
F
  0
LAYER
  5
234
100
AcDbSymbolTableRecord
100
AcDbLayerTableRecord
  2
CN1-REF_SQUAREHOLE12_SPEA-VIMAR
 70
0
 62
7
  6
CONTINUOUS
370
-3
390
F
  0
LAYER
  5
235
100
AcDbSymbolTableRecord
100
AcDbLayerTableRecord
  2
CN1-REF_SQUAREHOLE12_SPEA-VIM_1
 70
0
 62
7
  6
CONTINUOUS
370
-3
390
F
  0
LAYER
  5
236
100
AcDbSymbolTableRecord
100
AcDbLayerTableRecord
  2
CN1-REF_SQUAREHOLE12_SPEA-VIM_2
 70
0
 62
7
  6
CONTINUOUS
370
-3
390
F
  0
LAYER
  5
237
100
AcDbSymbolTableRecord
100
AcDbLayerTableRecord
  2
CN1-REF_SQUAREHOLE12_SPEA-VIM_3
 70
0
 62
7
  6
CONTINUOUS
370
-3
390
F
  0
LAYER
  5
238
100
AcDbSymbolTableRecord
100
AcDbLayerTableRecord
  2
CN1-REF_SQUAREHOLE14_SPEA-VIMAR
 70
0
 62
7
  6
CONTINUOUS
370
-3
390
F
  0
LAYER
  5
239
100
AcDbSymbolTableRecord
100
AcDbLayerTableRecord
  2
CN1-REF_SQUAREHOLE14_SPEA-VIM_1
 70
0
 62
7
  6
CONTINUOUS
370
-3
390
F
  0
LAYER
  5
23A
100
AcDbSymbolTableRecord
100
AcDbLayerTableRecord
  2
CN1-REF_SQUAREHOLE14_SPEA-VIM_2
 70
0
 62
7
  6
CONTINUOUS
370
-3
390
F
  0
LAYER
  5
23B
100
AcDbSymbolTableRecord
100
AcDbLayerTableRecord
  2
CN1-REF_SQUAREHOLE14_SPEA-VIM_3
 70
0
 62
7
  6
CONTINUOUS
370
-3
390
F
  0
LAYER
  5
23C
100
AcDbSymbolTableRecord
100
AcDbLayerTableRecord
  2
CN1-TP10_SMD-VIMAR_01_10000
 70
0
 62
7
  6
CONTINUOUS
370
-3
390
F
  0
LAYER
  5
23D
100
AcDbSymbolTableRecord
100
AcDbLayerTableRecord
  2
CN1-TP10_SMD-VIMAR_01_10000_1
 70
0
 62
7
  6
CONTINUOUS
370
-3
390
F
  0
LAYER
  5
23E
100
AcDbSymbolTableRecord
100
AcDbLayerTableRecord
  2
CN1-TP10_SMD-VIMAR_01_10000_2
 70
0
 62
7
  6
CONTINUOUS
370
-3
390
F
  0
LAYER
  5
23F
100
AcDbSymbolTableRecord
100
AcDbLayerTableRecord
  2
CN1-TP10_SMD-VIMAR_01_10000_3
 70
0
 62
7
  6
CONTINUOUS
370
-3
390
F
  0
LAYER
  5
240
100
AcDbSymbolTableRecord
100
AcDbLayerTableRecord
  2
CN1-TP10_SMD-VIMAR_01_10000_4
 70
0
 62
7
  6
CONTINUOUS
370
-3
390
F
  0
LAYER
  5
241
100
AcDbSymbolTableRecord
100
AcDbLayerTableRecord
  2
CN1-TP10_SMD-VIMAR_01_10000_5
 70
0
 62
7
  6
CONTINUOUS
370
-3
390
F
  0
LAYER
  5
242
100
AcDbSymbolTableRecord
100
AcDbLayerTableRecord
  2
CN1-TP10_SMD-VIMAR_10000
 70
0
 62
7
  6
CONTINUOUS
370
-3
390
F
  0
LAYER
  5
243
100
AcDbSymbolTableRecord
100
AcDbLayerTableRecord
  2
CN1-TP10_SMD-VIMAR_10000_1
 70
0
 62
7
  6
CONTINUOUS
370
-3
390
F
  0
LAYER
  5
244
100
AcDbSymbolTableRecord
100
AcDbLayerTableRecord
  2
CN1-TP10_SMD-VIMAR_10000_2
 70
0
 62
7
  6
CONTINUOUS
370
-3
390
F
  0
LAYER
  5
245
100
AcDbSymbolTableRecord
100
AcDbLayerTableRecord
  2
CN1-TP10_SMD-VIMAR_10000_3
 70
0
 62
7
  6
CONTINUOUS
370
-3
390
F
  0
LAYER
  5
246
100
AcDbSymbolTableRecord
100
AcDbLayerTableRecord
  2
CN1-TP15_SMD-VIMAR_5000
 70
0
 62
7
  6
CONTINUOUS
370
-3
390
F
  0
LAYER
  5
247
100
AcDbSymbolTableRecord
100
AcDbLayerTableRecord
  2
CN1-TP15_SMD-VIMAR_5000_1
 70
0
 62
7
  6
CONTINUOUS
370
-3
390
F
  0
LAYER
  5
248
100
AcDbSymbolTableRecord
100
AcDbLayerTableRecord
  2
CN1-TP15_SMD-VIMAR_5000_10
 70
0
 62
7
  6
CONTINUOUS
370
-3
390
F
  0
LAYER
  5
249
100
AcDbSymbolTableRecord
100
AcDbLayerTableRecord
  2
CN1-TP15_SMD-VIMAR_5000_11
 70
0
 62
7
  6
CONTINUOUS
370
-3
390
F
  0
LAYER
  5
24A
100
AcDbSymbolTableRecord
100
AcDbLayerTableRecord
  2
CN1-TP15_SMD-VIMAR_5000_12
 70
0
 62
7
  6
CONTINUOUS
370
-3
390
F
  0
LAYER
  5
24B
100
AcDbSymbolTableRecord
100
AcDbLayerTableRecord
  2
CN1-TP15_SMD-VIMAR_5000_13
 70
0
 62
7
  6
CONTINUOUS
370
-3
390
F
  0
LAYER
  5
24C
100
AcDbSymbolTableRecord
100
AcDbLayerTableRecord
  2
CN1-TP15_SMD-VIMAR_5000_14
 70
0
 62
7
  6
CONTINUOUS
370
-3
390
F
  0
LAYER
  5
24D
100
AcDbSymbolTableRecord
100
AcDbLayerTableRecord
  2
CN1-TP15_SMD-VIMAR_5000_15
 70
0
 62
7
  6
CONTINUOUS
370
-3
390
F
  0
LAYER
  5
24E
100
AcDbSymbolTableRecord
100
AcDbLayerTableRecord
  2
CN1-TP15_SMD-VIMAR_5000_2
 70
0
 62
7
  6
CONTINUOUS
370
-3
390
F
  0
LAYER
  5
24F
100
AcDbSymbolTableRecord
100
AcDbLayerTableRecord
  2
CN1-TP15_SMD-VIMAR_5000_3
 70
0
 62
7
  6
CONTINUOUS
370
-3
390
F
  0
LAYER
  5
250
100
AcDbSymbolTableRecord
100
AcDbLayerTableRecord
  2
CN1-TP15_SMD-VIMAR_5000_4
 70
0
 62
7
  6
CONTINUOUS
370
-3
390
F
  0
LAYER
  5
251
100
AcDbSymbolTableRecord
100
AcDbLayerTableRecord
  2
CN1-TP15_SMD-VIMAR_5000_5
 70
0
 62
7
  6
CONTINUOUS
370
-3
390
F
  0
LAYER
  5
252
100
AcDbSymbolTableRecord
100
AcDbLayerTableRecord
  2
CN1-TP15_SMD-VIMAR_5000_6
 70
0
 62
7
  6
CONTINUOUS
370
-3
390
F
  0
LAYER
  5
253
100
AcDbSymbolTableRecord
100
AcDbLayerTableRecord
  2
CN1-TP15_SMD-VIMAR_5000_7
 70
0
 62
7
  6
CONTINUOUS
370
-3
390
F
  0
LAYER
  5
254
100
AcDbSymbolTableRecord
100
AcDbLayerTableRecord
  2
CN1-TP15_SMD-VIMAR_5000_8
 70
0
 62
7
  6
CONTINUOUS
370
-3
390
F
  0
LAYER
  5
255
100
AcDbSymbolTableRecord
100
AcDbLayerTableRecord
  2
CN1-TP15_SMD-VIMAR_5000_9
 70
0
 62
7
  6
CONTINUOUS
370
-3
390
F
  0
LAYER
  5
256
100
AcDbSymbolTableRecord
100
AcDbLayerTableRecord
  2
CN12-ZIF_P0_5-VIMAR_200000
 70
0
 62
7
  6
CONTINUOUS
370
-3
390
F
  0
LAYER
  5
257
100
AcDbSymbolTableRecord
100
AcDbLayerTableRecord
  2
CN_MKDSN1_5_2_1000000
 70
0
 62
7
  6
CONTINUOUS
370
-3
390
F
  0
LAYER
  5
258
100
AcDbSymbolTableRecord
100
AcDbLayerTableRecord
  2
CN_SAURO_MTB_R1_P7_850000
 70
0
 62
7
  6
CONTINUOUS
370
-3
390
F
  0
LAYER
  5
259
100
AcDbSymbolTableRecord
100
AcDbLayerTableRecord
  2
COLOR27
 70
0
 62
7
  6
CONTINUOUS
370
-3
390
F
  0
LAYER
  5
25A
100
AcDbSymbolTableRecord
100
AcDbLayerTableRecord
  2
COLOR5
 70
0
 62
7
  6
CONTINUOUS
370
-3
390
F
  0
LAYER
  5
25B
100
AcDbSymbolTableRecord
100
AcDbLayerTableRecord
  2
COLOR7
 70
0
 62
7
  6
CONTINUOUS
370
-3
390
F
  0
LAYER
  5
25C
100
AcDbSymbolTableRecord
100
AcDbLayerTableRecord
  2
COLOR8
 70
0
 62
7
  6
CONTINUOUS
370
-3
390
F
  0
LAYER
  5
25D
100
AcDbSymbolTableRecord
100
AcDbLayerTableRecord
  2
COORDINATE
 70
0
 62
7
  6
CONTINUOUS
370
-3
390
F
  0
LAYER
  5
25E
100
AcDbSymbolTableRecord
100
AcDbLayerTableRecord
  2
COPY_PUBLISH
 70
0
 62
7
  6
CONTINUOUS
370
-3
390
F
  0
LAYER
  5
25F
100
AcDbSymbolTableRecord
100
AcDbLayerTableRecord
  2
COSMETIC
 70
0
 62
7
  6
CONTINUOUS
370
-3
390
F
  0
LAYER
  5
260
100
AcDbSymbolTableRecord
100
AcDbLayerTableRecord
  2
COSMETICI
 70
0
 62
7
  6
CONTINUOUS
370
-3
390
F
  0
LAYER
  5
261
100
AcDbSymbolTableRecord
100
AcDbLayerTableRecord
  2
CP-CE4-RF_550000
 70
0
 62
7
  6
CONTINUOUS
370
-3
390
F
  0
LAYER
  5
262
100
AcDbSymbolTableRecord
100
AcDbLayerTableRecord
  2
CP-DO-214AC-VIMAR_240000
 70
0
 62
7
  6
CONTINUOUS
370
-3
390
F
  0
LAYER
  5
263
100
AcDbSymbolTableRecord
100
AcDbLayerTableRecord
  2
CURVE
 70
0
 62
7
  6
CONTINUOUS
370
-3
390
F
  0
LAYER
  5
264
100
AcDbSymbolTableRecord
100
AcDbLayerTableRecord
  2
DL_1X0_5X0_6MM_60000
 70
0
 62
7
  6
CONTINUOUS
370
-3
390
F
  0
LAYER
  5
265
100
AcDbSymbolTableRecord
100
AcDbLayerTableRecord
  2
DL_1X0_5X0_6MM_60000_1
 70
0
 62
7
  6
CONTINUOUS
370
-3
390
F
  0
LAYER
  5
266
100
AcDbSymbolTableRecord
100
AcDbLayerTableRecord
  2
DL_1X0_5X0_6MM_60000_2
 70
0
 62
7
  6
CONTINUOUS
370
-3
390
F
  0
LAYER
  5
267
100
AcDbSymbolTableRecord
100
AcDbLayerTableRecord
  2
DRAFT
 70
0
 62
7
  6
CONTINUOUS
370
-3
390
F
  0
LAYER
  5
268
100
AcDbSymbolTableRecord
100
AcDbLayerTableRecord
  2
E2_MARK_10000
 70
0
 62
7
  6
CONTINUOUS
370
-3
390
F
  0
LAYER
  5
269
100
AcDbSymbolTableRecord
100
AcDbLayerTableRecord
  2
E4_MARK_10000
 70
0
 62
7
  6
CONTINUOUS
370
-3
390
F
  0
LAYER
  5
26A
100
AcDbSymbolTableRecord
100
AcDbLayerTableRecord
  2
IMPORT_IGES
 70
0
 62
7
  6
CONTINUOUS
370
-3
390
F
  0
LAYER
  5
26B
100
AcDbSymbolTableRecord
100
AcDbLayerTableRecord
  2
INTFCLR_3
 70
0
 62
7
  6
CONTINUOUS
370
-3
390
F
  0
LAYER
  5
26C
100
AcDbSymbolTableRecord
100
AcDbLayerTableRecord
  2
INTFCLR_4
 70
0
 62
7
  6
CONTINUOUS
370
-3
390
F
  0
LAYER
  5
26D
100
AcDbSymbolTableRecord
100
AcDbLayerTableRecord
  2
INTF_1
 70
0
 62
7
  6
CONTINUOUS
370
-3
390
F
  0
LAYER
  5
26E
100
AcDbSymbolTableRecord
100
AcDbLayerTableRecord
  2
INTF_BLANK
 70
0
 62
7
  6
CONTINUOUS
370
-3
390
F
  0
LAYER
  5
26F
100
AcDbSymbolTableRecord
100
AcDbLayerTableRecord
  2
LOGO_RESIST-RESTYLING_10000
 70
0
 62
7
  6
CONTINUOUS
370
-3
390
F
  0
LAYER
  5
270
100
AcDbSymbolTableRecord
100
AcDbLayerTableRecord
  2
L_SRR0604-RF-VIMAR_480000
 70
0
 62
7
  6
CONTINUOUS
370
-3
390
F
  0
LAYER
  5
271
100
AcDbSymbolTableRecord
100
AcDbLayerTableRecord
  2
L_SRR0604-RF-VIMAR_480000_1
 70
0
 62
7
  6
CONTINUOUS
370
-3
390
F
  0
LAYER
  5
272
100
AcDbSymbolTableRecord
100
AcDbLayerTableRecord
  2
L_SRR0604-RF-VIMAR_480000_10
 70
0
 62
7
  6
CONTINUOUS
370
-3
390
F
  0
LAYER
  5
273
100
AcDbSymbolTableRecord
100
AcDbLayerTableRecord
  2
L_SRR0604-RF-VIMAR_480000_11
 70
0
 62
7
  6
CONTINUOUS
370
-3
390
F
  0
LAYER
  5
274
100
AcDbSymbolTableRecord
100
AcDbLayerTableRecord
  2
L_SRR0604-RF-VIMAR_480000_2
 70
0
 62
7
  6
CONTINUOUS
370
-3
390
F
  0
LAYER
  5
275
100
AcDbSymbolTableRecord
100
AcDbLayerTableRecord
  2
L_SRR0604-RF-VIMAR_480000_3
 70
0
 62
7
  6
CONTINUOUS
370
-3
390
F
  0
LAYER
  5
276
100
AcDbSymbolTableRecord
100
AcDbLayerTableRecord
  2
L_SRR0604-RF-VIMAR_480000_4
 70
0
 62
7
  6
CONTINUOUS
370
-3
390
F
  0
LAYER
  5
277
100
AcDbSymbolTableRecord
100
AcDbLayerTableRecord
  2
L_SRR0604-RF-VIMAR_480000_5
 70
0
 62
7
  6
CONTINUOUS
370
-3
390
F
  0
LAYER
  5
278
100
AcDbSymbolTableRecord
100
AcDbLayerTableRecord
  2
L_SRR0604-RF-VIMAR_480000_6
 70
0
 62
7
  6
CONTINUOUS
370
-3
390
F
  0
LAYER
  5
279
100
AcDbSymbolTableRecord
100
AcDbLayerTableRecord
  2
L_SRR0604-RF-VIMAR_480000_7
 70
0
 62
7
  6
CONTINUOUS
370
-3
390
F
  0
LAYER
  5
27A
100
AcDbSymbolTableRecord
100
AcDbLayerTableRecord
  2
L_SRR0604-RF-VIMAR_480000_8
 70
0
 62
7
  6
CONTINUOUS
370
-3
390
F
  0
LAYER
  5
27B
100
AcDbSymbolTableRecord
100
AcDbLayerTableRecord
  2
L_SRR0604-RF-VIMAR_480000_9
 70
0
 62
7
  6
CONTINUOUS
370
-3
390
F
  0
LAYER
  5
27C
100
AcDbSymbolTableRecord
100
AcDbLayerTableRecord
  2
MM3-MPAK-RF-VIMAR_120000
 70
0
 62
7
  6
CONTINUOUS
370
-3
390
F
  0
LAYER
  5
27D
100
AcDbSymbolTableRecord
100
AcDbLayerTableRecord
  2
MM3-SOT323-RF-VIMAR_100000
 70
0
 62
7
  6
CONTINUOUS
370
-3
390
F
  0
LAYER
  5
27E
100
AcDbSymbolTableRecord
100
AcDbLayerTableRecord
  2
MM3-SOT323-RF-VIMAR_100000_1
 70
0
 62
7
  6
CONTINUOUS
370
-3
390
F
  0
LAYER
  5
27F
100
AcDbSymbolTableRecord
100
AcDbLayerTableRecord
  2
MM3-SOT323-RF-VIMAR_100000_2
 70
0
 62
7
  6
CONTINUOUS
370
-3
390
F
  0
LAYER
  5
280
100
AcDbSymbolTableRecord
100
AcDbLayerTableRecord
  2
MM3-SOT323-RF-VIMAR_100000_3
 70
0
 62
7
  6
CONTINUOUS
370
-3
390
F
  0
LAYER
  5
281
100
AcDbSymbolTableRecord
100
AcDbLayerTableRecord
  2
MM3-SOT323-RF-VIMAR_100000_4
 70
0
 62
7
  6
CONTINUOUS
370
-3
390
F
  0
LAYER
  5
282
100
AcDbSymbolTableRecord
100
AcDbLayerTableRecord
  2
MM4-X-3-VIMAR_130000
 70
0
 62
7
  6
CONTINUOUS
370
-3
390
F
  0
LAYER
  5
283
100
AcDbSymbolTableRecord
100
AcDbLayerTableRecord
  2
MM4-X-7-VIMAR_130000
 70
0
 62
7
  6
CONTINUOUS
370
-3
390
F
  0
LAYER
  5
284
100
AcDbSymbolTableRecord
100
AcDbLayerTableRecord
  2
MM5-FMT-RF_120000
 70
0
 62
7
  6
CONTINUOUS
370
-3
390
F
  0
LAYER
  5
285
100
AcDbSymbolTableRecord
100
AcDbLayerTableRecord
  2
MM5-FMT-RF_120000_1
 70
0
 62
7
  6
CONTINUOUS
370
-3
390
F
  0
LAYER
  5
286
100
AcDbSymbolTableRecord
100
AcDbLayerTableRecord
  2
MM5-FMT-RF_120000_2
 70
0
 62
7
  6
CONTINUOUS
370
-3
390
F
  0
LAYER
  5
287
100
AcDbSymbolTableRecord
100
AcDbLayerTableRecord
  2
MM5-FMT-RF_120000_3
 70
0
 62
7
  6
CONTINUOUS
370
-3
390
F
  0
LAYER
  5
288
100
AcDbSymbolTableRecord
100
AcDbLayerTableRecord
  2
MM6-SC70-1-VIMAR_110000
 70
0
 62
7
  6
CONTINUOUS
370
-3
390
F
  0
LAYER
  5
289
100
AcDbSymbolTableRecord
100
AcDbLayerTableRecord
  2
MM6-SC70-1-VIMAR_110000_1
 70
0
 62
7
  6
CONTINUOUS
370
-3
390
F
  0
LAYER
  5
28A
100
AcDbSymbolTableRecord
100
AcDbLayerTableRecord
  2
MM6-SC70-1-VIMAR_110000_2
 70
0
 62
7
  6
CONTINUOUS
370
-3
390
F
  0
LAYER
  5
28B
100
AcDbSymbolTableRecord
100
AcDbLayerTableRecord
  2
MM6-SC70-1-VIMAR_110000_3
 70
0
 62
7
  6
CONTINUOUS
370
-3
390
F
  0
LAYER
  5
28C
100
AcDbSymbolTableRecord
100
AcDbLayerTableRecord
  2
MM6-SC70-1-VIMAR_110000_4
 70
0
 62
7
  6
CONTINUOUS
370
-3
390
F
  0
LAYER
  5
28D
100
AcDbSymbolTableRecord
100
AcDbLayerTableRecord
  2
MM6-SC70-1-VIMAR_110000_5
 70
0
 62
7
  6
CONTINUOUS
370
-3
390
F
  0
LAYER
  5
28E
100
AcDbSymbolTableRecord
100
AcDbLayerTableRecord
  2
MM6-SC70-1-VIMAR_110000_6
 70
0
 62
7
  6
CONTINUOUS
370
-3
390
F
  0
LAYER
  5
28F
100
AcDbSymbolTableRecord
100
AcDbLayerTableRecord
  2
MM6-SC70-1-VIMAR_110000_7
 70
0
 62
7
  6
CONTINUOUS
370
-3
390
F
  0
LAYER
  5
290
100
AcDbSymbolTableRecord
100
AcDbLayerTableRecord
  2
MM6-SC70-1-VIMAR_110000_8
 70
0
 62
7
  6
CONTINUOUS
370
-3
390
F
  0
LAYER
  5
291
100
AcDbSymbolTableRecord
100
AcDbLayerTableRecord
  2
NO-PB_MARK_10000
 70
0
 62
7
  6
CONTINUOUS
370
-3
390
F
  0
LAYER
  5
292
100
AcDbSymbolTableRecord
100
AcDbLayerTableRecord
  2
NOTE
 70
0
 62
7
  6
CONTINUOUS
370
-3
390
F
  0
LAYER
  5
293
100
AcDbSymbolTableRecord
100
AcDbLayerTableRecord
  2
PIANI
 70
0
 62
7
  6
CONTINUOUS
370
-3
390
F
  0
LAYER
  5
294
100
AcDbSymbolTableRecord
100
AcDbLayerTableRecord
  2
PIANI_RIFERIMENTO
 70
0
 62
7
  6
CONTINUOUS
370
-3
390
F
  0
LAYER
  5
295
100
AcDbSymbolTableRecord
100
AcDbLayerTableRecord
  2
PUNTI
 70
0
 62
7
  6
CONTINUOUS
370
-3
390
F
  0
LAYER
  5
296
100
AcDbSymbolTableRecord
100
AcDbLayerTableRecord
  2
RACCORDO
 70
0
 62
7
  6
CONTINUOUS
370
-3
390
F
  0
LAYER
  5
297
100
AcDbSymbolTableRecord
100
AcDbLayerTableRecord
  2
RESC1005X40N_50000
 70
0
 62
7
  6
CONTINUOUS
370
-3
390
F
  0
LAYER
  5
298
100
AcDbSymbolTableRecord
100
AcDbLayerTableRecord
  2
RESC1005X40N_50000_1
 70
0
 62
7
  6
CONTINUOUS
370
-3
390
F
  0
LAYER
  5
299
100
AcDbSymbolTableRecord
100
AcDbLayerTableRecord
  2
RESC1005X40N_50000_10
 70
0
 62
7
  6
CONTINUOUS
370
-3
390
F
  0
LAYER
  5
29A
100
AcDbSymbolTableRecord
100
AcDbLayerTableRecord
  2
RESC1005X40N_50000_11
 70
0
 62
7
  6
CONTINUOUS
370
-3
390
F
  0
LAYER
  5
29B
100
AcDbSymbolTableRecord
100
AcDbLayerTableRecord
  2
RESC1005X40N_50000_12
 70
0
 62
7
  6
CONTINUOUS
370
-3
390
F
  0
LAYER
  5
29C
100
AcDbSymbolTableRecord
100
AcDbLayerTableRecord
  2
RESC1005X40N_50000_13
 70
0
 62
7
  6
CONTINUOUS
370
-3
390
F
  0
LAYER
  5
29D
100
AcDbSymbolTableRecord
100
AcDbLayerTableRecord
  2
RESC1005X40N_50000_14
 70
0
 62
7
  6
CONTINUOUS
370
-3
390
F
  0
LAYER
  5
29E
100
AcDbSymbolTableRecord
100
AcDbLayerTableRecord
  2
RESC1005X40N_50000_15
 70
0
 62
7
  6
CONTINUOUS
370
-3
390
F
  0
LAYER
  5
29F
100
AcDbSymbolTableRecord
100
AcDbLayerTableRecord
  2
RESC1005X40N_50000_16
 70
0
 62
7
  6
CONTINUOUS
370
-3
390
F
  0
LAYER
  5
2A0
100
AcDbSymbolTableRecord
100
AcDbLayerTableRecord
  2
RESC1005X40N_50000_17
 70
0
 62
7
  6
CONTINUOUS
370
-3
390
F
  0
LAYER
  5
2A1
100
AcDbSymbolTableRecord
100
AcDbLayerTableRecord
  2
RESC1005X40N_50000_18
 70
0
 62
7
  6
CONTINUOUS
370
-3
390
F
  0
LAYER
  5
2A2
100
AcDbSymbolTableRecord
100
AcDbLayerTableRecord
  2
RESC1005X40N_50000_19
 70
0
 62
7
  6
CONTINUOUS
370
-3
390
F
  0
LAYER
  5
2A3
100
AcDbSymbolTableRecord
100
AcDbLayerTableRecord
  2
RESC1005X40N_50000_2
 70
0
 62
7
  6
CONTINUOUS
370
-3
390
F
  0
LAYER
  5
2A4
100
AcDbSymbolTableRecord
100
AcDbLayerTableRecord
  2
RESC1005X40N_50000_20
 70
0
 62
7
  6
CONTINUOUS
370
-3
390
F
  0
LAYER
  5
2A5
100
AcDbSymbolTableRecord
100
AcDbLayerTableRecord
  2
RESC1005X40N_50000_21
 70
0
 62
7
  6
CONTINUOUS
370
-3
390
F
  0
LAYER
  5
2A6
100
AcDbSymbolTableRecord
100
AcDbLayerTableRecord
  2
RESC1005X40N_50000_22
 70
0
 62
7
  6
CONTINUOUS
370
-3
390
F
  0
LAYER
  5
2A7
100
AcDbSymbolTableRecord
100
AcDbLayerTableRecord
  2
RESC1005X40N_50000_23
 70
0
 62
7
  6
CONTINUOUS
370
-3
390
F
  0
LAYER
  5
2A8
100
AcDbSymbolTableRecord
100
AcDbLayerTableRecord
  2
RESC1005X40N_50000_24
 70
0
 62
7
  6
CONTINUOUS
370
-3
390
F
  0
LAYER
  5
2A9
100
AcDbSymbolTableRecord
100
AcDbLayerTableRecord
  2
RESC1005X40N_50000_25
 70
0
 62
7
  6
CONTINUOUS
370
-3
390
F
  0
LAYER
  5
2AA
100
AcDbSymbolTableRecord
100
AcDbLayerTableRecord
  2
RESC1005X40N_50000_26
 70
0
 62
7
  6
CONTINUOUS
370
-3
390
F
  0
LAYER
  5
2AB
100
AcDbSymbolTableRecord
100
AcDbLayerTableRecord
  2
RESC1005X40N_50000_27
 70
0
 62
7
  6
CONTINUOUS
370
-3
390
F
  0
LAYER
  5
2AC
100
AcDbSymbolTableRecord
100
AcDbLayerTableRecord
  2
RESC1005X40N_50000_28
 70
0
 62
7
  6
CONTINUOUS
370
-3
390
F
  0
LAYER
  5
2AD
100
AcDbSymbolTableRecord
100
AcDbLayerTableRecord
  2
RESC1005X40N_50000_29
 70
0
 62
7
  6
CONTINUOUS
370
-3
390
F
  0
LAYER
  5
2AE
100
AcDbSymbolTableRecord
100
AcDbLayerTableRecord
  2
RESC1005X40N_50000_3
 70
0
 62
7
  6
CONTINUOUS
370
-3
390
F
  0
LAYER
  5
2AF
100
AcDbSymbolTableRecord
100
AcDbLayerTableRecord
  2
RESC1005X40N_50000_30
 70
0
 62
7
  6
CONTINUOUS
370
-3
390
F
  0
LAYER
  5
2B0
100
AcDbSymbolTableRecord
100
AcDbLayerTableRecord
  2
RESC1005X40N_50000_31
 70
0
 62
7
  6
CONTINUOUS
370
-3
390
F
  0
LAYER
  5
2B1
100
AcDbSymbolTableRecord
100
AcDbLayerTableRecord
  2
RESC1005X40N_50000_32
 70
0
 62
7
  6
CONTINUOUS
370
-3
390
F
  0
LAYER
  5
2B2
100
AcDbSymbolTableRecord
100
AcDbLayerTableRecord
  2
RESC1005X40N_50000_33
 70
0
 62
7
  6
CONTINUOUS
370
-3
390
F
  0
LAYER
  5
2B3
100
AcDbSymbolTableRecord
100
AcDbLayerTableRecord
  2
RESC1005X40N_50000_34
 70
0
 62
7
  6
CONTINUOUS
370
-3
390
F
  0
LAYER
  5
2B4
100
AcDbSymbolTableRecord
100
AcDbLayerTableRecord
  2
RESC1005X40N_50000_35
 70
0
 62
7
  6
CONTINUOUS
370
-3
390
F
  0
LAYER
  5
2B5
100
AcDbSymbolTableRecord
100
AcDbLayerTableRecord
  2
RESC1005X40N_50000_36
 70
0
 62
7
  6
CONTINUOUS
370
-3
390
F
  0
LAYER
  5
2B6
100
AcDbSymbolTableRecord
100
AcDbLayerTableRecord
  2
RESC1005X40N_50000_37
 70
0
 62
7
  6
CONTINUOUS
370
-3
390
F
  0
LAYER
  5
2B7
100
AcDbSymbolTableRecord
100
AcDbLayerTableRecord
  2
RESC1005X40N_50000_38
 70
0
 62
7
  6
CONTINUOUS
370
-3
390
F
  0
LAYER
  5
2B8
100
AcDbSymbolTableRecord
100
AcDbLayerTableRecord
  2
RESC1005X40N_50000_39
 70
0
 62
7
  6
CONTINUOUS
370
-3
390
F
  0
LAYER
  5
2B9
100
AcDbSymbolTableRecord
100
AcDbLayerTableRecord
  2
RESC1005X40N_50000_4
 70
0
 62
7
  6
CONTINUOUS
370
-3
390
F
  0
LAYER
  5
2BA
100
AcDbSymbolTableRecord
100
AcDbLayerTableRecord
  2
RESC1005X40N_50000_40
 70
0
 62
7
  6
CONTINUOUS
370
-3
390
F
  0
LAYER
  5
2BB
100
AcDbSymbolTableRecord
100
AcDbLayerTableRecord
  2
RESC1005X40N_50000_41
 70
0
 62
7
  6
CONTINUOUS
370
-3
390
F
  0
LAYER
  5
2BC
100
AcDbSymbolTableRecord
100
AcDbLayerTableRecord
  2
RESC1005X40N_50000_42
 70
0
 62
7
  6
CONTINUOUS
370
-3
390
F
  0
LAYER
  5
2BD
100
AcDbSymbolTableRecord
100
AcDbLayerTableRecord
  2
RESC1005X40N_50000_43
 70
0
 62
7
  6
CONTINUOUS
370
-3
390
F
  0
LAYER
  5
2BE
100
AcDbSymbolTableRecord
100
AcDbLayerTableRecord
  2
RESC1005X40N_50000_44
 70
0
 62
7
  6
CONTINUOUS
370
-3
390
F
  0
LAYER
  5
2BF
100
AcDbSymbolTableRecord
100
AcDbLayerTableRecord
  2
RESC1005X40N_50000_5
 70
0
 62
7
  6
CONTINUOUS
370
-3
390
F
  0
LAYER
  5
2C0
100
AcDbSymbolTableRecord
100
AcDbLayerTableRecord
  2
RESC1005X40N_50000_6
 70
0
 62
7
  6
CONTINUOUS
370
-3
390
F
  0
LAYER
  5
2C1
100
AcDbSymbolTableRecord
100
AcDbLayerTableRecord
  2
RESC1005X40N_50000_7
 70
0
 62
7
  6
CONTINUOUS
370
-3
390
F
  0
LAYER
  5
2C2
100
AcDbSymbolTableRecord
100
AcDbLayerTableRecord
  2
RESC1005X40N_50000_8
 70
0
 62
7
  6
CONTINUOUS
370
-3
390
F
  0
LAYER
  5
2C3
100
AcDbSymbolTableRecord
100
AcDbLayerTableRecord
  2
RESC1005X40N_50000_9
 70
0
 62
7
  6
CONTINUOUS
370
-3
390
F
  0
LAYER
  5
2C4
100
AcDbSymbolTableRecord
100
AcDbLayerTableRecord
  2
RESC1608N_45000
 70
0
 62
7
  6
CONTINUOUS
370
-3
390
F
  0
LAYER
  5
2C5
100
AcDbSymbolTableRecord
100
AcDbLayerTableRecord
  2
RESC1608N_45000_1
 70
0
 62
7
  6
CONTINUOUS
370
-3
390
F
  0
LAYER
  5
2C6
100
AcDbSymbolTableRecord
100
AcDbLayerTableRecord
  2
RESC1608N_45000_2
 70
0
 62
7
  6
CONTINUOUS
370
-3
390
F
  0
LAYER
  5
2C7
100
AcDbSymbolTableRecord
100
AcDbLayerTableRecord
  2
RESC1608N_45000_3
 70
0
 62
7
  6
CONTINUOUS
370
-3
390
F
  0
LAYER
  5
2C8
100
AcDbSymbolTableRecord
100
AcDbLayerTableRecord
  2
RESC1608N_45000_4
 70
0
 62
7
  6
CONTINUOUS
370
-3
390
F
  0
LAYER
  5
2C9
100
AcDbSymbolTableRecord
100
AcDbLayerTableRecord
  2
RESC1608N_45000_5
 70
0
 62
7
  6
CONTINUOUS
370
-3
390
F
  0
LAYER
  5
2CA
100
AcDbSymbolTableRecord
100
AcDbLayerTableRecord
  2
RESC1608N_45000_6
 70
0
 62
7
  6
CONTINUOUS
370
-3
390
F
  0
LAYER
  5
2CB
100
AcDbSymbolTableRecord
100
AcDbLayerTableRecord
  2
RESC1608N_45000_7
 70
0
 62
7
  6
CONTINUOUS
370
-3
390
F
  0
LAYER
  5
2CC
100
AcDbSymbolTableRecord
100
AcDbLayerTableRecord
  2
RY-S12CO-4-VIMAR_1910000
 70
0
 62
7
  6
CONTINUOUS
370
-3
390
F
  0
LAYER
  5
2CD
100
AcDbSymbolTableRecord
100
AcDbLayerTableRecord
  2
S-PB_SKRP_VIMAR_250000
 70
0
 62
7
  6
CONTINUOUS
370
-3
390
F
  0
LAYER
  5
2CE
100
AcDbSymbolTableRecord
100
AcDbLayerTableRecord
  2
SIMBOLI
 70
0
 62
7
  6
CONTINUOUS
370
-3
390
F
  0
LAYER
  5
2CF
100
AcDbSymbolTableRecord
100
AcDbLayerTableRecord
  2
SMUSSO
 70
0
 62
7
  6
CONTINUOUS
370
-3
390
F
  0
LAYER
  5
2D0
100
AcDbSymbolTableRecord
100
AcDbLayerTableRecord
  2
SNAPLINE
 70
0
 62
7
  6
CONTINUOUS
370
-3
390
F
  0
LAYER
  5
2D1
100
AcDbSymbolTableRecord
100
AcDbLayerTableRecord
  2
SODFL1608X70N_70000
 70
0
 62
7
  6
CONTINUOUS
370
-3
390
F
  0
LAYER
  5
2D2
100
AcDbSymbolTableRecord
100
AcDbLayerTableRecord
  2
SODFL1608X70N_70000_1
 70
0
 62
7
  6
CONTINUOUS
370
-3
390
F
  0
LAYER
  5
2D3
100
AcDbSymbolTableRecord
100
AcDbLayerTableRecord
  2
SODFL1608X70N_70000_2
 70
0
 62
7
  6
CONTINUOUS
370
-3
390
F
  0
LAYER
  5
2D4
100
AcDbSymbolTableRecord
100
AcDbLayerTableRecord
  2
SODFL1608X70N_70000_3
 70
0
 62
7
  6
CONTINUOUS
370
-3
390
F
  0
LAYER
  5
2D5
100
AcDbSymbolTableRecord
100
AcDbLayerTableRecord
  2
SODFL1608X70N_70000_4
 70
0
 62
7
  6
CONTINUOUS
370
-3
390
F
  0
LAYER
  5
2D6
100
AcDbSymbolTableRecord
100
AcDbLayerTableRecord
  2
SODFL1608X70N_70000_5
 70
0
 62
7
  6
CONTINUOUS
370
-3
390
F
  0
LAYER
  5
2D7
100
AcDbSymbolTableRecord
100
AcDbLayerTableRecord
  2
SODFL1608X70N_70000_6
 70
0
 62
7
  6
CONTINUOUS
370
-3
390
F
  0
LAYER
  5
2D8
100
AcDbSymbolTableRecord
100
AcDbLayerTableRecord
  2
SOT1061_65000
 70
0
 62
7
  6
CONTINUOUS
370
-3
390
F
  0
LAYER
  5
2D9
100
AcDbSymbolTableRecord
100
AcDbLayerTableRecord
  2
SOT95P280X110-6N_110000
 70
0
 62
7
  6
CONTINUOUS
370
-3
390
F
  0
LAYER
  5
2DA
100
AcDbSymbolTableRecord
100
AcDbLayerTableRecord
  2
SOT95P280X110-6N_110000_1
 70
0
 62
7
  6
CONTINUOUS
370
-3
390
F
  0
LAYER
  5
2DB
100
AcDbSymbolTableRecord
100
AcDbLayerTableRecord
  2
SUPERFICI
 70
0
 62
7
  6
CONTINUOUS
370
-3
390
F
  0
LAYER
  5
2DC
100
AcDbSymbolTableRecord
100
AcDbLayerTableRecord
  2
TP10_SMD_0
 70
0
 62
7
  6
CONTINUOUS
370
-3
390
F
  0
LAYER
  5
2DD
100
AcDbSymbolTableRecord
100
AcDbLayerTableRecord
  2
TP10_SMD_0_1
 70
0
 62
7
  6
CONTINUOUS
370
-3
390
F
  0
LAYER
  5
2DE
100
AcDbSymbolTableRecord
100
AcDbLayerTableRecord
  2
TP10_SMD_0_2
 70
0
 62
7
  6
CONTINUOUS
370
-3
390
F
  0
LAYER
  5
2DF
100
AcDbSymbolTableRecord
100
AcDbLayerTableRecord
  2
TP10_SMD_0_3
 70
0
 62
7
  6
CONTINUOUS
370
-3
390
F
  0
LAYER
  5
2E0
100
AcDbSymbolTableRecord
100
AcDbLayerTableRecord
  2
TP10_SMD_0_4
 70
0
 62
7
  6
CONTINUOUS
370
-3
390
F
  0
LAYER
  5
2E1
100
AcDbSymbolTableRecord
100
AcDbLayerTableRecord
  2
TP10_SMD_0_5
 70
0
 62
7
  6
CONTINUOUS
370
-3
390
F
  0
LAYER
  5
2E2
100
AcDbSymbolTableRecord
100
AcDbLayerTableRecord
  2
TQFP48-F1-RF-VIMAR_160000
 70
0
 62
7
  6
CONTINUOUS
370
-3
390
F
  0
LAYER
  5
2E3
100
AcDbSymbolTableRecord
100
AcDbLayerTableRecord
  2
TRASH
 70
0
 62
7
  6
CONTINUOUS
370
-3
390
F
  0
LAYER
  5
2E4
100
AcDbSymbolTableRecord
100
AcDbLayerTableRecord
  2
WHITE
 70
0
 62
7
  6
CONTINUOUS
370
-3
390
F
  0
LAYER
  5
2E5
100
AcDbSymbolTableRecord
100
AcDbLayerTableRecord
  2
WIRE_0_5MMQ_0
 70
0
 62
7
  6
CONTINUOUS
370
-3
390
F
  0
LAYER
  5
2E6
100
AcDbSymbolTableRecord
100
AcDbLayerTableRecord
  2
WIRE_0_5MMQ_0_1
 70
0
 62
7
  6
CONTINUOUS
370
-3
390
F
  0
LAYER
  5
2E7
100
AcDbSymbolTableRecord
100
AcDbLayerTableRecord
  2
WIRE_0_5MMQ_0_2
 70
0
 62
7
  6
CONTINUOUS
370
-3
390
F
  0
LAYER
  5
2E8
100
AcDbSymbolTableRecord
100
AcDbLayerTableRecord
  2
WIRE_0_5MMQ_0_3
 70
0
 62
7
  6
CONTINUOUS
370
-3
390
F
  0
LAYER
  5
2E9
100
AcDbSymbolTableRecord
100
AcDbLayerTableRecord
  2
WIRE_0_5MMQ_0_4
 70
0
 62
7
  6
CONTINUOUS
370
-3
390
F
  0
LAYER
  5
2EA
100
AcDbSymbolTableRecord
100
AcDbLayerTableRecord
  2
WIRE_0_5MMQ_0_5
 70
0
 62
7
  6
CONTINUOUS
370
-3
390
F
  0
LAYER
  5
2EB
100
AcDbSymbolTableRecord
100
AcDbLayerTableRecord
  2
WIRE_0_5MMQ_0_6
 70
0
 62
7
  6
CONTINUOUS
370
-3
390
F
  0
LAYER
  5
2EC
100
AcDbSymbolTableRecord
100
AcDbLayerTableRecord
  2
WIRE_0_5MMQ_0_7
 70
0
 62
7
  6
CONTINUOUS
370
-3
390
F
  0
LAYER
  5
2ED
100
AcDbSymbolTableRecord
100
AcDbLayerTableRecord
  2
WIRE_0_5MMQ_0_8
 70
0
 62
7
  6
CONTINUOUS
370
-3
390
F
  0
LAYER
  5
2EE
100
AcDbSymbolTableRecord
100
AcDbLayerTableRecord
  2
WIRE_0_5MMQ_0_9
 70
0
 62
7
  6
CONTINUOUS
370
-3
390
F
  0
LAYER
  5
2EF
100
AcDbSymbolTableRecord
100
AcDbLayerTableRecord
  2
___SHELL
 70
0
 62
7
  6
CONTINUOUS
370
-3
390
F
  0
ENDTAB
  0
TABLE
  2
STYLE
  5
3
100
AcDbSymbolTable
 70
1
  0
STYLE
  5
11
100
AcDbSymbolTableRecord
100
AcDbTextStyleTableRecord
  2
STANDARD
 70
0
 40
0.0
 41
0.8
 50
0.0
 71
0
 42
0.2
  3
txt
  4

  0
STYLE
  5
2F0
100
AcDbSymbolTableRecord
100
AcDbTextStyleTableRecord
  2
TEXTSTYLE_1
 70
0
 40
0.0
 41
0.8
 50
0.0
 71
0
 42
0.2
  3
gdt
  4

  0
ENDTAB
  0
TABLE
  2
VIEW
  5
6
100
AcDbSymbolTable
 70
0
  0
ENDTAB
  0
TABLE
  2
UCS
  5
7
100
AcDbSymbolTable
 70
0
  0
ENDTAB
  0
TABLE
  2
APPID
  5
9
100
AcDbSymbolTable
 70
1
  0
APPID
  5
2F1
100
AcDbSymbolTableRecord
100
AcDbRegAppTableRecord
  2
ACAD
 70
0
  0
ENDTAB
  0
TABLE
  2
BLOCK_RECORD
  5
1
100
AcDbSymbolTable
 70
0
  0
BLOCK_RECORD
  5
2F2
100
AcDbSymbolTableRecord
100
AcDbBlockTableRecord
  2
*Model_Space
  0
BLOCK_RECORD
  5
2F3
100
AcDbSymbolTableRecord
100
AcDbBlockTableRecord
  2
*Paper_Space
  0
ENDTAB
  0
TABLE
  2
DIMSTYLE
  5
A
100
AcDbSymbolTable
 70
1
100
AcDbDimStyleTable
 71
0
  0
DIMSTYLE
105
2F4
100
AcDbSymbolTableRecord
100
AcDbDimStyleTableRecord
  2
STANDARD
 70
0
  3

  4

 40
1.0
 41
3.0
 42
0.5
 43
0.38
 44
1.5
 45
0.0
 46
0.0
 47
0.01
 48
0.01
140
3.0
141
0.09
142
0.0
143
25.4
144
1.0
145
0.0
146
1.0
147
0.625
 71
1.0
 72
0.0
 73
0
 74
0
 75
0
 76
0
 77
1
 78
8
170
0
171
2
172
0
173
0
174
0
175
0
176
0
177
0
178
0
270
2
271
2
272
2
273
2
274
2
275
0
280
0
281
0
282
0
283
1
284
8
285
0
286
0
287
3
288
0
340
11
278
44
  0
ENDTAB
  0
ENDSEC
  0
SECTION
  2
BLOCKS
  0
BLOCK
  5
20
100
AcDbEntity
  8
0
100
AcDbBlockBegin
  2
*Model_Space
 70
0
 10
0.0
 20
0.0
 30
0.0
  3
*Model_Space
  1

  0
ENDBLK
  5
21
100
AcDbEntity
  8
0
100
AcDbBlockEnd
  0
BLOCK
  5
1C
100
AcDbEntity
  8
0
100
AcDbBlockBegin
  2
*Paper_Space
 70
0
 10
0.0
 20
0.0
 30
0.0
  3
*Paper_Space
  1

  0
ENDBLK
  5
1D
100
AcDbEntity
  8
0
100
AcDbBlockEnd
  0
ENDSEC
  0
SECTION
  2
ENTITIES
  0
LINE
  5
2F5
100
AcDbEntity
  8
RACCORDO
100
AcDbLine
 62
253
  6
CONTINUOUS
 10
-19.6779356006
 20
41.8789251286
 11
-19.5047568999
 21
41.9789098981
  0
LINE
  5
2F6
100
AcDbEntity
  8
RACCORDO
100
AcDbLine
 62
253
  6
CONTINUOUS
 10
-16.8468750483
 20
42.1788794371
 11
-16.7016508357
 21
42.2627246754
  0
LINE
  5
2F7
100
AcDbEntity
  8
RACCORDO
100
AcDbLine
 62
253
  6
CONTINUOUS
 10
-18.7885904725
 20
40.7384732592
 11
-18.9617693437
 21
40.6384887772
  0
LINE
  5
2F8
100
AcDbEntity
  8
RACCORDO
100
AcDbLine
 62
253
  6
CONTINUOUS
 10
-16.6736963475
 20
41.8789251286
 11
-16.5284721349
 21
41.9627703668
  0
LINE
  5
2F9
100
AcDbEntity
  8
RACCORDO
100
AcDbLine
 62
253
  6
CONTINUOUS
 10
-17.0104097368
 20
41.2511293073
 11
-16.9038025698
 21
41.3126789839
  0
LINE
  5
2FA
100
AcDbEntity
  8
RACCORDO
100
AcDbLine
 62
253
  6
CONTINUOUS
 10
-16.837231036
 20
40.9511749988
 11
-16.730623869
 21
41.0127246754
  0
LINE
  5
2FB
100
AcDbEntity
  8
ASSI
100
AcDbLine
 62
7
  6
CONTINUOUS
 10
-13.4558159741
 20
-42.9
 11
-11.8958159741
 21
-42.9
  0
LINE
  5
2FC
100
AcDbEntity
  8
ASSI
100
AcDbLine
 62
7
  6
CONTINUOUS
 10
-11.4558159741
 20
-42.9
 11
-9.8958159741
 21
-42.9
  0
LINE
  5
2FD
100
AcDbEntity
  8
ASSI
100
AcDbLine
 62
7
  6
CONTINUOUS
 10
-9.4558159741
 20
-42.9
 11
-7.8958159741
 21
-42.9
  0
LINE
  5
2FE
100
AcDbEntity
  8
0
100
AcDbLine
 62
7
  6
CONTINUOUS
 10
-7.4558159741
 20
-42.9
 11
-5.8958159741
 21
-42.9
  0
LINE
  5
2FF
100
AcDbEntity
  8
0
100
AcDbLine
 62
7
  6
CONTINUOUS
 10
-5.4558159741
 20
-42.9
 11
-3.8958159741
 21
-42.9
  0
LINE
  5
300
100
AcDbEntity
  8
0
100
AcDbLine
 62
7
  6
CONTINUOUS
 10
-3.4558159741
 20
-42.9
 11
-1.8958159741
 21
-42.9
  0
LINE
  5
301
100
AcDbEntity
  8
0
100
AcDbLine
 62
7
  6
CONTINUOUS
 10
-1.4558159741
 20
-42.9
 11
0.1041840259
 21
-42.9
  0
LINE
  5
302
100
AcDbEntity
  8
0
100
AcDbLine
 62
7
  6
CONTINUOUS
 10
0.5441840259
 20
-42.9
 11
2.1041840259
 21
-42.9
  0
LINE
  5
303
100
AcDbEntity
  8
0
100
AcDbLine
 62
7
  6
CONTINUOUS
 10
2.5441840259
 20
-42.9
 11
4.1041840259
 21
-42.9
  0
LINE
  5
304
100
AcDbEntity
  8
ASSI
100
AcDbLine
 62
7
  6
CONTINUOUS
 10
4.5441840259
 20
-42.9
 11
6.1041840259
 21
-42.9
  0
LWPOLYLINE
  5
305
100
AcDbEntity
  8
RACCORDO
100
AcDbPolyline
 62
253
  6
CONTINUOUS
 90
9
 70
0
 10
-17.1618146622
 20
41.0178715236
 10
-17.1082392121
 20
41.1047687432
 10
-17.0855968356
 20
41.1409109474
 10
-17.0655728941
 20
41.1724184999
 10
-17.0482966388
 20
41.1990802329
 10
-17.0341081839
 20
41.2203379952
 10
-17.0231209011
 20
41.2360057366
 10
-17.0152214187
 20
41.2462695073
 10
-17.0104097368
 20
41.2511293073
  0
LINE
  5
306
100
AcDbEntity
  8
RACCORDO
100
AcDbLine
 62
253
  6
CONTINUOUS
 10
-17.8522338262
 20
39.4514177618
 11
-17.5740221661
 21
39.8746893317
  0
LINE
  5
307
100
AcDbEntity
  8
RACCORDO
100
AcDbLine
 62
253
  6
CONTINUOUS
 10
-17.5740221661
 20
39.8746893317
 11
-17.2735590821
 21
40.3259737617
  0
LINE
  5
308
100
AcDbEntity
  8
RACCORDO
100
AcDbLine
 62
253
  6
CONTINUOUS
 10
-17.2735590821
 20
40.3259737617
 11
-17.1275987207
 21
40.5424344573
  0
LINE
  5
309
100
AcDbEntity
  8
RACCORDO
100
AcDbLine
 62
253
  6
CONTINUOUS
 10
-17.1275987207
 20
40.5424344573
 11
-17.0461799767
 21
40.661853712
  0
LINE
  5
30A
100
AcDbEntity
  8
RACCORDO
100
AcDbLine
 62
253
  6
CONTINUOUS
 10
-17.0461799767
 20
40.661853712
 11
-16.9780121509
 21
40.7605888211
  0
LWPOLYLINE
  5
30B
100
AcDbEntity
  8
RACCORDO
100
AcDbPolyline
 62
253
  6
CONTINUOUS
 90
8
 70
0
 10
-16.9780121509
 20
40.7605888211
 10
-16.9230539556
 20
40.8389900638
 10
-16.9001114322
 20
40.8711515592
 10
-16.8803219722
 20
40.8981783154
 10
-16.8640979637
 20
40.9198786177
 10
-16.8515768696
 20
40.9360609211
 10
-16.842621227
 20
40.9465450805
 10
-16.837231036
 20
40.9511749988
  0
LINE
  5
30C
100
AcDbEntity
  8
0
100
AcDbLine
 62
253
  6
CONTINUOUS
 10
-23.9814298013
 20
28.9943557118
 11
-23.8757855131
 21
29.1
  0
LINE
  5
30D
100
AcDbEntity
  8
0
100
AcDbLine
 62
253
  6
CONTINUOUS
 10
-23.7814602623
 20
28.7943861727
 11
-23.6758159741
 21
28.900030461
  0
LINE
  5
30E
100
AcDbEntity
  8
0
100
AcDbLine
 62
7
  6
CONTINUOUS
 10
-5.8006261279
 20
41.0177784429
 11
-5.7758159741
 21
41.0301797403
  0
LWPOLYLINE
  5
30F
100
AcDbEntity
  8
RACCORDO
100
AcDbPolyline
 62
253
  6
CONTINUOUS
 90
19
 70
0
 10
-16.6736963475
 20
41.8789251286
 10
-16.6632762497
 20
41.8997006329
 10
-16.6553377617
 20
41.9215467678
 10
-16.6499881838
 20
41.9441682503
 10
-16.6472998235
 20
41.9672593177
 10
-16.6473090181
 20
41.9905078599
 10
-16.6500156431
 20
42.0135996385
 10
-16.6553831147
 20
42.0362225339
 10
-16.6633388833
 20
42.058070764
 10
-16.6737754151
 20
42.0788490179
 10
-16.6865516449
 20
42.0982764465
 10
-16.7014948829
 20
42.1160904593
 10
-16.7184031493
 20
42.1320502737
 10
-16.7370479036
 20
42.1459401691
 10
-16.7571771345
 20
42.1575724029
 10
-16.7785187656
 20
42.1667897483
 10
-16.8007843331
 20
42.1734676192
 10
-16.8236728849
 20
42.1775157543
 10
-16.8468750483
 20
42.1788794371
  0
LWPOLYLINE
  5
310
100
AcDbEntity
  8
RACCORDO
100
AcDbPolyline
 62
253
  6
CONTINUOUS
 90
13
 70
0
 10
-17.5630444704
 20
40.7384680721
 10
-17.5920309686
 20
40.6850041035
 10
-17.6192435694
 20
40.6289727126
 10
-17.6446822727
 20
40.5703738993
 10
-17.668294906
 20
40.5091304736
 10
-17.6901336418
 20
40.4453196255
 10
-17.7103549975
 20
40.3791729255
 10
-17.7289223032
 20
40.3107482107
 10
-17.7458722289
 20
40.239987644
 10
-17.7614713012
 20
40.1669492836
 10
-17.7758083624
 20
40.0916524823
 10
-17.7887945703
 20
40.0140778874
 10
-17.8004299249
 20
39.9342254987
  0
LINE
  5
311
100
AcDbEntity
  8
RACCORDO
100
AcDbLine
 62
253
  6
CONTINUOUS
 10
-16.8468750483
 20
41.9789098981
 11
-17.5630444704
 21
40.7384680721
  0
LINE
  5
312
100
AcDbEntity
  8
RACCORDO
100
AcDbLine
 62
253
  6
CONTINUOUS
 10
-16.6736963475
 20
41.8789251286
 11
-17.3898162287
 21
40.6385690978
  0
LINE
  5
313
100
AcDbEntity
  8
RACCORDO
100
AcDbLine
 62
7
  6
CONTINUOUS
 10
-16.9038025698
 20
41.3126789839
 11
-16.5284721349
 21
41.9627703668
  0
LINE
  5
314
100
AcDbEntity
  8
RACCORDO
100
AcDbLine
 62
253
  6
CONTINUOUS
 10
-17.3898162287
 20
40.6385690978
 11
-17.2631904125
 21
40.8505415511
  0
LWPOLYLINE
  5
315
100
AcDbEntity
  8
RACCORDO
100
AcDbPolyline
 62
253
  6
CONTINUOUS
 90
3
 70
0
 10
-17.2631904125
 20
40.8505415511
 10
-17.1928078415
 20
40.9670290727
 10
-17.1618146622
 20
41.0178715236
  0
LINE
  5
316
100
AcDbEntity
  8
RACCORDO
100
AcDbLine
 62
7
  6
CONTINUOUS
 10
-23.7641163684
 20
26.0116996057
 11
-23.6758159741
 21
26.1
  0
LINE
  5
317
100
AcDbEntity
  8
0
100
AcDbLine
 62
253
  6
CONTINUOUS
 10
-6.2755113876
 20
42.9
 11
-6.3003215414
 21
42.8751898462
  0
LINE
  5
318
100
AcDbEntity
  8
0
100
AcDbLine
 62
253
  6
CONTINUOUS
 10
-5.7758159741
 20
42.4003045865
 11
-5.8006261279
 21
42.3754944327
  0
LINE
  5
319
100
AcDbEntity
  8
0
100
AcDbLine
 62
7
  6
CONTINUOUS
 10
-13.4558159741
 20
-32.9
 11
-11.8958159741
 21
-32.9
  0
LINE
  5
31A
100
AcDbEntity
  8
0
100
AcDbLine
 62
7
  6
CONTINUOUS
 10
-11.4558159741
 20
-32.9
 11
-9.8958159741
 21
-32.9
  0
LINE
  5
31B
100
AcDbEntity
  8
0
100
AcDbLine
 62
7
  6
CONTINUOUS
 10
-9.4558159741
 20
-32.9
 11
-7.8958159741
 21
-32.9
  0
LINE
  5
31C
100
AcDbEntity
  8
0
100
AcDbLine
 62
7
  6
CONTINUOUS
 10
-7.4558159741
 20
-32.9
 11
-5.8958159741
 21
-32.9
  0
LINE
  5
31D
100
AcDbEntity
  8
ASSI
100
AcDbLine
 62
7
  6
CONTINUOUS
 10
6.1041840259
 20
-32.9
 11
4.5441840259
 21
-32.9
  0
LINE
  5
31E
100
AcDbEntity
  8
0
100
AcDbLine
 62
7
  6
CONTINUOUS
 10
-5.4558159741
 20
-32.9
 11
-3.8958159741
 21
-32.9
  0
LINE
  5
31F
100
AcDbEntity
  8
0
100
AcDbLine
 62
7
  6
CONTINUOUS
 10
-3.4558159741
 20
-32.9
 11
-1.8958159741
 21
-32.9
  0
LINE
  5
320
100
AcDbEntity
  8
0
100
AcDbLine
 62
7
  6
CONTINUOUS
 10
-1.4558159741
 20
-32.9
 11
0.1041840259
 21
-32.9
  0
LINE
  5
321
100
AcDbEntity
  8
0
100
AcDbLine
 62
7
  6
CONTINUOUS
 10
0.5441840259
 20
-32.9
 11
2.1041840259
 21
-32.9
  0
LINE
  5
322
100
AcDbEntity
  8
0
100
AcDbLine
 62
7
  6
CONTINUOUS
 10
2.5441840259
 20
-32.9
 11
4.1041840259
 21
-32.9
  0
LINE
  5
323
100
AcDbEntity
  8
RACCORDO
100
AcDbLine
 62
253
  6
CONTINUOUS
 10
-17.7969114808
 20
39.6190186806
 11
-17.7445643058
 21
39.77507116
  0
LWPOLYLINE
  5
324
100
AcDbEntity
  8
RACCORDO
100
AcDbPolyline
 62
253
  6
CONTINUOUS
 90
3
 70
0
 10
-17.7445643058
 20
39.77507116
 10
-17.7111337438
 20
39.872673636
 10
-17.6948416516
 20
39.9194981165
  0
LWPOLYLINE
  5
325
100
AcDbEntity
  8
RACCORDO
100
AcDbPolyline
 62
253
  6
CONTINUOUS
 90
13
 70
0
 10
-17.6948435548
 20
39.9194983821
 10
-17.6681241918
 20
39.9950567423
 10
-17.641800246
 20
40.067818282
 10
-17.6158293395
 20
40.137730795
 10
-17.5901879628
 20
40.2047079197
 10
-17.5648286771
 20
40.2687731007
 10
-17.5396574893
 20
40.3300373526
 10
-17.5146160501
 20
40.3884886794
 10
-17.4896752994
 20
40.4440956736
 10
-17.464769405
 20
40.4969231868
 10
-17.4398441504
 20
40.5469574775
 10
-17.4148820438
 20
40.5941497304
 10
-17.3898679363
 20
40.6384930554
  0
LINE
  5
326
100
AcDbEntity
  8
RACCORDO
100
AcDbLine
 62
7
  6
CONTINUOUS
 10
-22.0360231382
 20
23.6560085242
 11
-22.0920316624
 21
23.6
  0
LINE
  5
327
100
AcDbEntity
  8
DRAFT
100
AcDbLine
 62
7
  6
CONTINUOUS
 10
-20.1112322338
 20
23.6645837402
 11
-20.0885406494
 21
23.6872753246
  0
LINE
  5
328
100
AcDbEntity
  8
0
100
AcDbLine
 62
7
  6
CONTINUOUS
 10
-13.4558159741
 20
-31.9
 11
-11.8958159741
 21
-31.9
  0
LINE
  5
329
100
AcDbEntity
  8
0
100
AcDbLine
 62
7
  6
CONTINUOUS
 10
-11.4558159741
 20
-31.9
 11
-9.8958159741
 21
-31.9
  0
LINE
  5
32A
100
AcDbEntity
  8
0
100
AcDbLine
 62
7
  6
CONTINUOUS
 10
-9.4558159741
 20
-31.9
 11
-7.8958159741
 21
-31.9
  0
LINE
  5
32B
100
AcDbEntity
  8
0
100
AcDbLine
 62
7
  6
CONTINUOUS
 10
-7.4558159741
 20
-31.9
 11
-5.8958159741
 21
-31.9
  0
LINE
  5
32C
100
AcDbEntity
  8
0
100
AcDbLine
 62
7
  6
CONTINUOUS
 10
-5.4558159741
 20
-31.9
 11
-3.8958159741
 21
-31.9
  0
LINE
  5
32D
100
AcDbEntity
  8
0
100
AcDbLine
 62
7
  6
CONTINUOUS
 10
-3.4558159741
 20
-31.9
 11
-1.8958159741
 21
-31.9
  0
LINE
  5
32E
100
AcDbEntity
  8
0
100
AcDbLine
 62
7
  6
CONTINUOUS
 10
-1.4558159741
 20
-31.9
 11
0.1041840259
 21
-31.9
  0
LINE
  5
32F
100
AcDbEntity
  8
0
100
AcDbLine
 62
7
  6
CONTINUOUS
 10
0.5441840259
 20
-31.9
 11
2.1041840259
 21
-31.9
  0
LINE
  5
330
100
AcDbEntity
  8
0
100
AcDbLine
 62
7
  6
CONTINUOUS
 10
2.5441840259
 20
-31.9
 11
4.1041840259
 21
-31.9
  0
LINE
  5
331
100
AcDbEntity
  8
ASSI
100
AcDbLine
 62
7
  6
CONTINUOUS
 10
4.5441840259
 20
-31.9
 11
6.1041840259
 21
-31.9
  0
LINE
  5
332
100
AcDbEntity
  8
RACCORDO
100
AcDbLine
 62
253
  6
CONTINUOUS
 10
-17.8522431494
 20
39.451403456
 11
-17.7969114808
 21
39.6190186806
  0
LINE
  5
333
100
AcDbEntity
  8
RACCORDO
100
AcDbLine
 62
7
  6
CONTINUOUS
 10
-25.0875155797
 20
16.1883003943
 11
-25.1758159741
 21
16.1
  0
LINE
  5
334
100
AcDbEntity
  8
RACCORDO
100
AcDbLine
 62
7
  6
CONTINUOUS
 10
-22.1826570442
 20
18.5093746182
 11
-22.0920316624
 21
18.6
  0
LINE
  5
335
100
AcDbEntity
  8
RACCORDO
100
AcDbLine
 62
7
  6
CONTINUOUS
 10
-23.5849582466
 20
16.4408577275
 11
-23.6334588958
 21
16.3923570783
  0
LINE
  5
336
100
AcDbEntity
  8
DRAFT
100
AcDbLine
 62
7
  6
CONTINUOUS
 10
-23.6758159741
 20
16.35
 11
-23.6334588958
 21
16.3923570783
  0
LINE
  5
337
100
AcDbEntity
  8
0
100
AcDbLine
 62
253
  6
CONTINUOUS
 10
-25.0701716858
 20
13.4056138273
 11
-25.1758159741
 21
13.299969539
  0
LINE
  5
338
100
AcDbEntity
  8
0
100
AcDbLine
 62
253
  6
CONTINUOUS
 10
-24.8702021468
 20
13.2056442882
 11
-24.975846435
 21
13.1
  0
LWPOLYLINE
  5
339
100
AcDbEntity
  8
0
100
AcDbPolyline
 62
7
  6
CONTINUOUS
 90
13
 70
0
 10
-25.1758159741
 20
13.299969539
 10
-25.1741057099
 20
13.2738674122
 10
-25.1690035335
 20
13.2482122339
 10
-25.1605965523
 20
13.2234427125
 10
-25.1490283112
 20
13.1999822556
 10
-25.134496524
 20
13.1782324498
 10
-25.1172499463
 20
13.1585660278
 10
-25.0975835243
 20
13.14131945
 10
-25.0758337184
 20
13.1267876629
 10
-25.0523732616
 20
13.1152194218
 10
-25.0276037401
 20
13.1068124405
 10
-25.0019485619
 20
13.1017102642
 10
-24.975846435
 20
13.1
  0
LWPOLYLINE
  5
33A
100
AcDbEntity
  8
RACCORDO
100
AcDbPolyline
 62
253
  6
CONTINUOUS
 90
25
 70
0
 10
-23.5269909992
 20
3.2486493597
 10
-23.5226856409
 20
3.1178203723
 10
-23.5098326132
 20
2.9875664469
 10
-23.488489838
 20
2.8584451893
 10
-23.4587528219
 20
2.7310136544
 10
-23.4207510198
 20
2.6058119903
 10
-23.374644249
 20
2.4833620222
 10
-23.3206277794
 20
2.3641835449
 10
-23.2589344156
 20
2.2487911879
 10
-23.1898281923
 20
2.1376788786
 10
-23.1136049377
 20
2.0313222315
 10
-23.0305909526
 20
1.9301764592
 10
-22.9411415202
 20
1.8346744569
 10
-22.8456395163
 20
1.745225026
 10
-22.7444937423
 20
1.6622110423
 10
-22.6381370937
 20
1.5859877885
 10
-22.5270247837
 20
1.5168815651
 10
-22.4116324263
 20
1.4551882006
 10
-22.292453948
 20
1.4011717304
 10
-22.1699994535
 20
1.3550634234
 10
-22.0447930808
 20
1.3170606834
 10
-21.9173707721
 20
1.2873261413
 10
-21.7882779309
 20
1.2659871116
 10
-21.6580670908
 20
1.2531350364
 10
-21.5272955825
 20
1.2488250012
  0
LINE
  5
33B
100
AcDbEntity
  8
0
100
AcDbLine
 62
253
  6
CONTINUOUS
 10
-24.8523993061
 20
28.767626225
 11
-24.8483175423
 21
28.6503869858
  0
LINE
  5
33C
100
AcDbEntity
  8
0
100
AcDbLine
 62
253
  6
CONTINUOUS
 10
-23.999232642
 20
13.432373775
 11
-24.0033144058
 21
13.5496130142
  0
LINE
  5
33D
100
AcDbEntity
  8
0
100
AcDbLine
 62
253
  6
CONTINUOUS
 10
-25.0503377108
 20
28.5318560339
 11
-25.0462239231
 21
28.4072401481
  0
LINE
  5
33E
100
AcDbEntity
  8
0
100
AcDbLine
 62
253
  6
CONTINUOUS
 10
-23.8012942374
 20
13.6681439661
 11
-23.805408025
 21
13.7927598519
  0
LINE
  5
33F
100
AcDbEntity
  8
0
100
AcDbLine
 62
253
  6
CONTINUOUS
 10
-24.8483175423
 20
28.6503869858
 11
-24.8441730641
 21
28.500430897
  0
LINE
  5
340
100
AcDbEntity
  8
0
100
AcDbLine
 62
253
  6
CONTINUOUS
 10
-24.0033144058
 20
13.5496130142
 11
-24.007458884
 21
13.699569103
  0
LINE
  5
341
100
AcDbEntity
  8
0
100
AcDbLine
 62
253
  6
CONTINUOUS
 10
-25.0462239231
 20
28.4072401481
 11
-25.0420925382
 21
28.2514974059
  0
LINE
  5
342
100
AcDbEntity
  8
0
100
AcDbLine
 62
253
  6
CONTINUOUS
 10
-23.805408025
 20
13.7927598519
 11
-23.8095394099
 21
13.9485025941
  0
LINE
  5
343
100
AcDbEntity
  8
0
100
AcDbLine
 62
253
  6
CONTINUOUS
 10
-24.8441730641
 20
28.500430897
 11
-24.8400851489
 21
28.315263603
  0
LINE
  5
344
100
AcDbEntity
  8
0
100
AcDbLine
 62
253
  6
CONTINUOUS
 10
-24.007458884
 20
13.699569103
 11
-24.0115467992
 21
13.884736397
  0
LINE
  5
345
100
AcDbEntity
  8
0
100
AcDbLine
 62
253
  6
CONTINUOUS
 10
-25.0420925382
 20
28.2514974059
 11
-25.0361370745
 21
27.9557218514
  0
LINE
  5
346
100
AcDbEntity
  8
0
100
AcDbLine
 62
253
  6
CONTINUOUS
 10
-23.8095394099
 20
13.9485025941
 11
-23.8154948736
 21
14.2442781486
  0
LINE
  5
347
100
AcDbEntity
  8
0
100
AcDbLine
 62
253
  6
CONTINUOUS
 10
-24.8400851489
 20
28.315263603
 11
-24.8343716055
 21
27.9767138828
  0
LINE
  5
348
100
AcDbEntity
  8
0
100
AcDbLine
 62
253
  6
CONTINUOUS
 10
-24.0115467992
 20
13.884736397
 11
-24.0172603426
 21
14.2232861172
  0
LINE
  5
349
100
AcDbEntity
  8
0
100
AcDbLine
 62
253
  6
CONTINUOUS
 10
-25.0361370745
 20
27.9557218514
 11
-25.0310931306
 21
27.6092901081
  0
LINE
  5
34A
100
AcDbEntity
  8
0
100
AcDbLine
 62
253
  6
CONTINUOUS
 10
-23.8154948736
 20
14.2442781486
 11
-23.8205388176
 21
14.5907098919
  0
LINE
  5
34B
100
AcDbEntity
  8
0
100
AcDbLine
 62
253
  6
CONTINUOUS
 10
-24.8343716055
 20
27.9767138828
 11
-24.8284902583
 21
27.4687592579
  0
LINE
  5
34C
100
AcDbEntity
  8
0
100
AcDbLine
 62
253
  6
CONTINUOUS
 10
-24.0172603426
 20
14.2232861172
 11
-24.0231416898
 21
14.7312407421
  0
LINE
  5
34D
100
AcDbEntity
  8
0
100
AcDbLine
 62
253
  6
CONTINUOUS
 10
-25.0310931306
 20
27.6092901081
 11
-25.0263653312
 21
27.1328452876
  0
LINE
  5
34E
100
AcDbEntity
  8
0
100
AcDbLine
 62
253
  6
CONTINUOUS
 10
-23.8205388176
 20
14.5907098919
 11
-23.825266617
 21
15.0671547124
  0
LINE
  5
34F
100
AcDbEntity
  8
0
100
AcDbLine
 62
253
  6
CONTINUOUS
 10
-24.8284902583
 20
27.4687592579
 11
-24.8236611233
 21
26.7269820871
  0
LINE
  5
350
100
AcDbEntity
  8
0
100
AcDbLine
 62
253
  6
CONTINUOUS
 10
-24.0231416898
 20
14.7312407421
 11
-24.0279708248
 21
15.4730179129
  0
LINE
  5
351
100
AcDbEntity
  8
0
100
AcDbLine
 62
253
  6
CONTINUOUS
 10
-25.0263653312
 20
27.1328452876
 11
-25.0228452764
 21
26.466296377
  0
LINE
  5
352
100
AcDbEntity
  8
0
100
AcDbLine
 62
253
  6
CONTINUOUS
 10
-23.825266617
 20
15.0671547124
 11
-23.8287866717
 21
15.733703623
  0
LINE
  5
353
100
AcDbEntity
  8
0
100
AcDbLine
 62
7
  6
CONTINUOUS
 10
-25.1758159741
 20
13.299969539
 11
-25.1758159741
 21
16.1
  0
LINE
  5
354
100
AcDbEntity
  8
0
100
AcDbLine
 62
7
  6
CONTINUOUS
 10
-25.1758159741
 20
26.1
 11
-25.1758159741
 21
28.900030461
  0
LINE
  5
355
100
AcDbEntity
  8
RACCORDO
100
AcDbLine
 62
7
  6
CONTINUOUS
 10
-25.0789403637
 20
25.5117757581
 11
-25.0789403637
 21
16.6882242419
  0
LINE
  5
356
100
AcDbEntity
  8
0
100
AcDbLine
 62
253
  6
CONTINUOUS
 10
-25.0228452764
 20
26.466296377
 11
-25.0221504761
 21
16.2051873737
  0
LINE
  5
357
100
AcDbEntity
  8
0
100
AcDbLine
 62
253
  6
CONTINUOUS
 10
-24.8236611233
 20
26.7269820871
 11
-24.8221809371
 21
16.2051873737
  0
LINE
  5
358
100
AcDbEntity
  8
0
100
AcDbLine
 62
253
  6
CONTINUOUS
 10
-24.0279708248
 20
15.4730179129
 11
-24.029451011
 21
25.9948126263
  0
LINE
  5
359
100
AcDbEntity
  8
0
100
AcDbLine
 62
253
  6
CONTINUOUS
 10
-23.8287866717
 20
15.733703623
 11
-23.829481472
 21
25.9948126263
  0
LINE
  5
35A
100
AcDbEntity
  8
RACCORDO
100
AcDbLine
 62
7
  6
CONTINUOUS
 10
-23.7726915844
 20
25.5117757581
 11
-23.7726915844
 21
16.6882242419
  0
LINE
  5
35B
100
AcDbEntity
  8
0
100
AcDbLine
 62
7
  6
CONTINUOUS
 10
-23.6758159741
 20
28.900030461
 11
-23.6758159741
 21
26.1
  0
LINE
  5
35C
100
AcDbEntity
  8
DRAFT
100
AcDbLine
 62
7
  6
CONTINUOUS
 10
-23.6758159741
 20
26.1
 11
-23.6758159741
 21
25.8076429217
  0
LINE
  5
35D
100
AcDbEntity
  8
DRAFT
100
AcDbLine
 62
7
  6
CONTINUOUS
 10
-23.6758159741
 20
16.3923570783
 11
-23.6758159741
 21
16.1
  0
LINE
  5
35E
100
AcDbEntity
  8
0
100
AcDbLine
 62
7
  6
CONTINUOUS
 10
-23.6758159741
 20
16.1
 11
-23.6758159741
 21
13.299969539
  0
LINE
  5
35F
100
AcDbEntity
  8
0
100
AcDbLine
 62
7
  6
CONTINUOUS
 10
-23.6758159741
 20
3.0996953903
 11
-23.6758159741
 21
12.900030461
  0
LINE
  5
360
100
AcDbEntity
  8
RACCORDO
100
AcDbLine
 62
7
  6
CONTINUOUS
 10
-23.6758159741
 20
3.0996953903
 11
-23.6758159741
 21
16.35
  0
LINE
  5
361
100
AcDbEntity
  8
0
100
AcDbLine
 62
7
  6
CONTINUOUS
 10
-23.6758159741
 20
29.299969539
 11
-23.6758159741
 21
39.1003046097
  0
LINE
  5
362
100
AcDbEntity
  8
RACCORDO
100
AcDbLine
 62
7
  6
CONTINUOUS
 10
-23.6758159741
 20
25.85
 11
-23.6758159741
 21
39.1003046097
  0
LINE
  5
363
100
AcDbEntity
  8
RACCORDO
100
AcDbLine
 62
7
  6
CONTINUOUS
 10
-23.5798131169
 20
25.459187964
 11
-23.5798131169
 21
16.740812036
  0
LINE
  5
364
100
AcDbEntity
  8
RACCORDO
100
AcDbLine
 62
253
  6
CONTINUOUS
 10
-23.5269909728
 20
3.2486493902
 11
-23.5269909728
 21
38.9514796085
  0
LINE
  5
365
100
AcDbEntity
  8
0
100
AcDbLine
 62
253
  6
CONTINUOUS
 10
-24.8221809371
 20
16.2051873737
 11
-24.8236611234
 21
15.4730179129
  0
LINE
  5
366
100
AcDbEntity
  8
0
100
AcDbLine
 62
253
  6
CONTINUOUS
 10
-24.029451011
 20
25.9948126263
 11
-24.0279708247
 21
26.7269820871
  0
LINE
  5
367
100
AcDbEntity
  8
0
100
AcDbLine
 62
253
  6
CONTINUOUS
 10
-25.0221504761
 20
16.2051873737
 11
-25.0236296692
 21
15.5220884838
  0
LINE
  5
368
100
AcDbEntity
  8
0
100
AcDbLine
 62
253
  6
CONTINUOUS
 10
-23.829481472
 20
25.9948126263
 11
-23.8280022789
 21
26.6779115162
  0
LINE
  5
369
100
AcDbEntity
  8
0
100
AcDbLine
 62
253
  6
CONTINUOUS
 10
-25.0236296692
 20
15.5220884838
 11
-25.0273441364
 21
14.9491168318
  0
LINE
  5
36A
100
AcDbEntity
  8
0
100
AcDbLine
 62
253
  6
CONTINUOUS
 10
-23.8280022789
 20
26.6779115162
 11
-23.8242878118
 21
27.2508831682
  0
LINE
  5
36B
100
AcDbEntity
  8
0
100
AcDbLine
 62
253
  6
CONTINUOUS
 10
-24.8236611234
 20
15.4730179129
 11
-24.8284902583
 21
14.7312407421
  0
LINE
  5
36C
100
AcDbEntity
  8
0
100
AcDbLine
 62
253
  6
CONTINUOUS
 10
-24.0279708247
 20
26.7269820871
 11
-24.0231416898
 21
27.4687592579
  0
LINE
  5
36D
100
AcDbEntity
  8
0
100
AcDbLine
 62
253
  6
CONTINUOUS
 10
-25.0273441364
 20
14.9491168318
 11
-25.032644763
 21
14.4724694373
  0
LINE
  5
36E
100
AcDbEntity
  8
0
100
AcDbLine
 62
253
  6
CONTINUOUS
 10
-23.8242878118
 20
27.2508831682
 11
-23.8189871851
 21
27.7275305627
  0
LINE
  5
36F
100
AcDbEntity
  8
0
100
AcDbLine
 62
253
  6
CONTINUOUS
 10
-24.8284902583
 20
14.7312407421
 11
-24.8343716055
 21
14.2232861172
  0
LINE
  5
370
100
AcDbEntity
  8
0
100
AcDbLine
 62
253
  6
CONTINUOUS
 10
-24.0231416898
 20
27.4687592579
 11
-24.0172603426
 21
27.9767138828
  0
LINE
  5
371
100
AcDbEntity
  8
0
100
AcDbLine
 62
253
  6
CONTINUOUS
 10
-25.032644763
 20
14.4724694373
 11
-25.038045743
 21
14.1391993937
  0
LINE
  5
372
100
AcDbEntity
  8
0
100
AcDbLine
 62
253
  6
CONTINUOUS
 10
-23.8189871851
 20
27.7275305627
 11
-23.8135862052
 21
28.0608006063
  0
LINE
  5
373
100
AcDbEntity
  8
0
100
AcDbLine
 62
253
  6
CONTINUOUS
 10
-24.8343716055
 20
14.2232861172
 11
-24.8400851489
 21
13.884736397
  0
LINE
  5
374
100
AcDbEntity
  8
0
100
AcDbLine
 62
253
  6
CONTINUOUS
 10
-24.0172603426
 20
27.9767138828
 11
-24.0115467992
 21
28.315263603
  0
LINE
  5
375
100
AcDbEntity
  8
0
100
AcDbLine
 62
253
  6
CONTINUOUS
 10
-25.038045743
 20
14.1391993937
 11
-25.0420925382
 21
13.9485025943
  0
LINE
  5
376
100
AcDbEntity
  8
0
100
AcDbLine
 62
253
  6
CONTINUOUS
 10
-23.8135862052
 20
28.0608006063
 11
-23.8095394099
 21
28.2514974057
  0
LINE
  5
377
100
AcDbEntity
  8
0
100
AcDbLine
 62
253
  6
CONTINUOUS
 10
-24.8400851489
 20
13.884736397
 11
-24.8441730641
 21
13.699569103
  0
LINE
  5
378
100
AcDbEntity
  8
0
100
AcDbLine
 62
253
  6
CONTINUOUS
 10
-24.0115467992
 20
28.315263603
 11
-24.007458884
 21
28.500430897
  0
LINE
  5
379
100
AcDbEntity
  8
0
100
AcDbLine
 62
253
  6
CONTINUOUS
 10
-25.0420925382
 20
13.9485025943
 11
-25.0462239231
 21
13.7927598509
  0
LINE
  5
37A
100
AcDbEntity
  8
0
100
AcDbLine
 62
253
  6
CONTINUOUS
 10
-23.8095394099
 20
28.2514974057
 11
-23.805408025
 21
28.4072401491
  0
LINE
  5
37B
100
AcDbEntity
  8
0
100
AcDbLine
 62
253
  6
CONTINUOUS
 10
-24.8441730641
 20
13.699569103
 11
-24.8483175423
 21
13.5496130142
  0
LINE
  5
37C
100
AcDbEntity
  8
0
100
AcDbLine
 62
253
  6
CONTINUOUS
 10
-24.007458884
 20
28.500430897
 11
-24.0033144058
 21
28.6503869858
  0
LWPOLYLINE
  5
37D
100
AcDbEntity
  8
0
100
AcDbPolyline
 62
253
  6
CONTINUOUS
 90
13
 70
0
 10
-25.0462239231
 20
13.7927598509
 10
-25.0503377108
 20
13.6681439667
 10
-25.0523723568
 20
13.6172975643
 10
-25.0543708384
 20
13.5727557206
 10
-25.0563304621
 20
13.5345300498
 10
-25.0582539213
 20
13.5026089378
 10
-25.0601261099
 20
13.475691412
 10
-25.0619449798
 20
13.4537529185
 10
-25.063712579
 20
13.4368180112
 10
-25.0654199454
 20
13.4236593794
 10
-25.0670640917
 20
13.4138679198
 10
-25.0686480051
 20
13.4078527357
 10
-25.0701716858
 20
13.4056138273
  0
LWPOLYLINE
  5
37E
100
AcDbEntity
  8
0
100
AcDbPolyline
 62
253
  6
CONTINUOUS
 90
13
 70
0
 10
-23.805408025
 20
28.4072401491
 10
-23.8012942374
 20
28.5318560333
 10
-23.7992595913
 20
28.5827024357
 10
-23.7972611097
 20
28.6272442794
 10
-23.795301486
 20
28.6654699502
 10
-23.7933780268
 20
28.6973910622
 10
-23.7915058382
 20
28.724308588
 10
-23.7896869683
 20
28.7462470815
 10
-23.7879193691
 20
28.7631819888
 10
-23.7862120027
 20
28.7763406206
 10
-23.7845678564
 20
28.7861320802
 10
-23.782983943
 20
28.7921472643
 10
-23.7814602623
 20
28.7943861727
  0
LWPOLYLINE
  5
37F
100
AcDbEntity
  8
0
100
AcDbPolyline
 62
253
  6
CONTINUOUS
 90
12
 70
0
 10
-24.8483175423
 20
13.5496130142
 10
-24.8523993061
 20
13.432373775
 10
-24.8543976182
 20
13.3848063392
 10
-24.8563571147
 20
13.343999139
 10
-24.8582804926
 20
13.3094884959
 10
-24.860152626
 20
13.2807820115
 10
-24.8619713208
 20
13.2574331862
 10
-24.8637387711
 20
13.2389941672
 10
-24.8654464332
 20
13.225006829
 10
-24.8670914592
 20
13.21505128
 10
-24.8686766971
 20
13.2087289072
 10
-24.8702021468
 20
13.2056442882
  0
LWPOLYLINE
  5
380
100
AcDbEntity
  8
0
100
AcDbPolyline
 62
253
  6
CONTINUOUS
 90
12
 70
0
 10
-24.0033144058
 20
28.6503869858
 10
-23.999232642
 20
28.767626225
 10
-23.9972343299
 20
28.8151936608
 10
-23.9952748334
 20
28.856000861
 10
-23.9933514555
 20
28.8905115041
 10
-23.9914793221
 20
28.9192179885
 10
-23.9896606273
 20
28.9425668138
 10
-23.987893177
 20
28.9610058328
 10
-23.9861855149
 20
28.974993171
 10
-23.9845404889
 20
28.98494872
 10
-23.982955251
 20
28.9912710928
 10
-23.9814298013
 20
28.9943557118
  0
LWPOLYLINE
  5
381
100
AcDbEntity
  8
RACCORDO
100
AcDbPolyline
 62
253
  6
CONTINUOUS
 90
7
 70
0
 10
-17.8004299249
 20
39.9342254987
 10
-17.8069900724
 20
39.8851621704
 10
-17.8133172009
 20
39.8349648399
 10
-17.8194113103
 20
39.7836335071
 10
-17.8252294654
 20
39.7311834945
 10
-17.8308146013
 20
39.6775994795
 10
-17.8417151688
 20
39.5668762201
  0
LINE
  5
382
100
AcDbEntity
  8
RACCORDO
100
AcDbLine
 62
7
  6
CONTINUOUS
 10
14.675587482
 20
37.4341007192
 11
14.8803826706
 21
37.5517969428
  0
LWPOLYLINE
  5
383
100
AcDbEntity
  8
RACCORDO
100
AcDbPolyline
 62
7
  6
CONTINUOUS
 90
20
 70
0
 10
14.8803826706
 20
37.5517969428
 10
14.9797116562
 20
37.607834583
 10
15.0287262305
 20
37.6350705013
 10
15.0772968338
 20
37.6616519083
 10
15.1254489493
 20
37.6876358495
 10
15.1731857713
 20
37.7129026694
 10
15.2205041054
 20
37.7373513476
 10
15.2674198526
 20
37.761029832
 10
15.3139716608
 20
37.7838023611
 10
15.3601208821
 20
37.80552509
 10
15.4057674721
 20
37.8261791449
 10
15.4509437401
 20
37.8455821204
 10
15.4956173769
 20
37.8635575378
 10
15.5395914112
 20
37.8800226073
 10
15.5828963058
 20
37.8947377711
 10
15.6255015978
 20
37.9074786732
 10
15.667118928
 20
37.9180809963
 10
15.7076521764
 20
37.9262588732
 10
15.7471974631
 20
37.9316745515
 10
15.7857547878
 20
37.9340245667
  0
LWPOLYLINE
  5
384
100
AcDbEntity
  8
RACCORDO
100
AcDbPolyline
 62
253
  6
CONTINUOUS
 90
25
 70
0
 10
-22.0272194301
 20
3.2485203915
 10
-22.0261283412
 20
3.2156897428
 10
-22.0229402413
 20
3.1832445063
 10
-22.0176551303
 20
3.1511846822
 10
-22.0102326222
 20
3.1193664403
 10
-22.000713103
 20
3.0879336108
 10
-21.9892177307
 20
3.0573176839
 10
-21.9757211669
 20
3.0275389073
 10
-21.96024875
 20
2.9985770333
 10
-21.9429976528
 20
2.970802809
 10
-21.9239444373
 20
2.9442312828
 10
-21.9031125415
 20
2.9188474062
 10
-21.8807694524
 20
2.894976781
 10
-21.8568961346
 20
2.872639455
 10
-21.8315116234
 20
2.8518153803
 10
-21.8049405121
 20
2.8327700149
 10
-21.7771676437
 20
2.8155263578
 10
-21.7482081752
 20
2.8000614099
 10
-21.7184321703
 20
2.7865716319
 10
-21.6878175547
 20
2.7750820627
 10
-21.6563864028
 20
2.7655676634
 10
-21.624575001
 20
2.7581497775
 10
-21.592528778
 20
2.7528688529
 10
-21.5601023052
 20
2.7496844417
 10
-21.5272955825
 20
2.748596544
  0
LINE
  5
385
100
AcDbEntity
  8
RACCORDO
100
AcDbLine
 62
7
  6
CONTINUOUS
 10
-22.1826570442
 20
23.6906253818
 11
-22.1826570442
 21
18.5093746182
  0
LINE
  5
386
100
AcDbEntity
  8
DRAFT
100
AcDbLine
 62
7
  6
CONTINUOUS
 10
-22.0920316624
 20
23.6
 11
-22.0920316624
 21
18.6
  0
LINE
  5
387
100
AcDbEntity
  8
RACCORDO
100
AcDbLine
 62
253
  6
CONTINUOUS
 10
-22.0272194301
 20
38.9514796085
 11
-22.0272194301
 21
23.6907663376
  0
LINE
  5
388
100
AcDbEntity
  8
RACCORDO
100
AcDbLine
 62
253
  6
CONTINUOUS
 10
-22.0272194301
 20
18.5092336624
 11
-22.0272194301
 21
3.2485203915
  0
LINE
  5
389
100
AcDbEntity
  8
RACCORDO
100
AcDbLine
 62
253
  6
CONTINUOUS
 10
-21.6844673425
 20
18.535818189
 11
-21.6844673425
 21
18.6
  0
LINE
  5
38A
100
AcDbEntity
  8
RACCORDO
100
AcDbLine
 62
253
  6
CONTINUOUS
 10
-21.6844673425
 20
23.6
 11
-21.6844673425
 21
23.664181811
  0
LINE
  5
38B
100
AcDbEntity
  8
RACCORDO
100
AcDbLine
 62
253
  6
CONTINUOUS
 10
-21.5272955825
 20
2.748596544
 11
-21.5272955825
 21
1.2488250012
  0
LINE
  5
38C
100
AcDbEntity
  8
RACCORDO
100
AcDbLine
 62
253
  6
CONTINUOUS
 10
-21.5272955825
 20
39.451403456
 11
-21.5272955817
 21
40.9511749988
  0
LINE
  5
38D
100
AcDbEntity
  8
RACCORDO
100
AcDbLine
 62
7
  6
CONTINUOUS
 10
-21.4610813702
 20
38.3928615196
 11
-21.4610813702
 21
23.6907663376
  0
LINE
  5
38E
100
AcDbEntity
  8
RACCORDO
100
AcDbLine
 62
7
  6
CONTINUOUS
 10
-21.4610813702
 20
18.5092336624
 11
-21.4610813702
 21
3.8071384804
  0
LINE
  5
38F
100
AcDbEntity
  8
RACCORDO
100
AcDbLine
 62
7
  6
CONTINUOUS
 10
-21.4258159741
 20
38.3575961235
 11
-21.4258159741
 21
23.6872753246
  0
LINE
  5
390
100
AcDbEntity
  8
RACCORDO
100
AcDbLine
 62
7
  6
CONTINUOUS
 10
-21.4258159741
 20
18.5127246754
 11
-21.4258159741
 21
3.8424038765
  0
LINE
  5
391
100
AcDbEntity
  8
DRAFT
100
AcDbLine
 62
7
  6
CONTINUOUS
 10
-21.1758159741
 20
23.6
 11
-21.1758159741
 21
18.6
  0
LINE
  5
392
100
AcDbEntity
  8
RACCORDO
100
AcDbLine
 62
7
  6
CONTINUOUS
 10
-21.1275614805
 20
23.6645837402
 11
-21.1275614805
 21
18.5354162598
  0
LINE
  5
393
100
AcDbEntity
  8
0
100
AcDbLine
 62
253
  6
CONTINUOUS
 10
-21.060298554
 20
23.6645837402
 11
-21.060298554
 21
18.5354162598
  0
LINE
  5
394
100
AcDbEntity
  8
0
100
AcDbLine
 62
253
  6
CONTINUOUS
 10
-20.860329015
 20
23.6645837402
 11
-20.860329015
 21
18.5354162598
  0
LINE
  5
395
100
AcDbEntity
  8
0
100
AcDbLine
 62
7
  6
CONTINUOUS
 10
-20.7758159741
 20
41.0301797403
 11
-20.7758159741
 21
42.4003045865
  0
LINE
  5
396
100
AcDbEntity
  8
0
100
AcDbLine
 62
253
  6
CONTINUOUS
 10
-20.7603442455
 20
1.1698202597
 11
-20.7603442454
 21
1.1655174201
  0
LINE
  5
397
100
AcDbEntity
  8
0
100
AcDbLine
 62
253
  6
CONTINUOUS
 10
-20.7510058202
 20
41.0177784429
 11
-20.7510058202
 21
42.3754944327
  0
LINE
  5
398
100
AcDbEntity
  8
0
100
AcDbLine
 62
253
  6
CONTINUOUS
 10
-20.5103828455
 20
18.5354162598
 11
-20.5103828455
 21
23.6645837402
  0
LINE
  5
399
100
AcDbEntity
  8
0
100
AcDbLine
 62
253
  6
CONTINUOUS
 10
-20.4511885721
 20
41.0127246754
 11
-20.4511885721
 21
42.3754944327
  0
LINE
  5
39A
100
AcDbEntity
  8
0
100
AcDbLine
 62
253
  6
CONTINUOUS
 10
-20.3105046801
 20
18.5354162598
 11
-20.3105046801
 21
23.6645837402
  0
LINE
  5
39B
100
AcDbEntity
  8
0
100
AcDbLine
 62
253
  6
CONTINUOUS
 10
-20.2513104067
 20
42.8751898462
 11
-20.2513104067
 21
42.5753725981
  0
LINE
  5
39C
100
AcDbEntity
  8
RACCORDO
100
AcDbLine
 62
7
  6
CONTINUOUS
 10
-20.1758159741
 20
23.6645837402
 11
-20.1758159741
 21
18.5354162598
  0
LINE
  5
39D
100
AcDbEntity
  8
DRAFT
100
AcDbLine
 62
7
  6
CONTINUOUS
 10
-20.1112322338
 20
18.5354162598
 11
-20.1112322338
 21
23.6645837402
  0
LINE
  5
39E
100
AcDbEntity
  8
DRAFT
100
AcDbLine
 62
7
  6
CONTINUOUS
 10
-20.0885406494
 20
18.5127246754
 11
-20.0885406494
 21
23.6872753246
  0
LINE
  5
39F
100
AcDbEntity
  8
0
100
AcDbLine
 62
7
  6
CONTINUOUS
 10
-20.0776835508
 20
0.2197745683
 11
-20.0776835508
 21
1.1698202597
  0
LINE
  5
3A0
100
AcDbEntity
  8
0
100
AcDbLine
 62
7
  6
CONTINUOUS
 10
-20.0602284859
 20
0.2372296332
 11
-20.0602284859
 21
1.1872753246
  0
LINE
  5
3A1
100
AcDbEntity
  8
RACCORDO
100
AcDbLine
 62
253
  6
CONTINUOUS
 10
-19.5047568999
 20
0.0211205629
 11
-19.5047568999
 21
0.2210901019
  0
LINE
  5
3A2
100
AcDbEntity
  8
RACCORDO
100
AcDbLine
 62
253
  6
CONTINUOUS
 10
-19.5047568999
 20
41.9789098981
 11
-19.5047568999
 21
42.1788794371
  0
LWPOLYLINE
  5
3A3
100
AcDbEntity
  8
0
100
AcDbPolyline
 62
253
  6
CONTINUOUS
 90
19
 70
0
 10
-20.7510058202
 20
42.3754944327
 10
-20.7490745467
 20
42.4190348757
 10
-20.7433584649
 20
42.4622417083
 10
-20.7339013144
 20
42.5047867445
 10
-20.7207753516
 20
42.546346853
 10
-20.7040804836
 20
42.5866063591
 10
-20.6839434482
 20
42.6252594187
 10
-20.6605174064
 20
42.6620123354
 10
-20.6339805262
 20
42.6965860661
 10
-20.6045341791
 20
42.7287182005
 10
-20.5724020689
 20
42.7581645312
 10
-20.5378283869
 20
42.7847013839
 10
-20.5010755046
 20
42.8081274167
 10
-20.4624224389
 20
42.8282644671
 10
-20.4221629042
 20
42.8449593555
 10
-20.3806027674
 20
42.858085332
 10
-20.3380577126
 20
42.8675424889
 10
-20.2948508635
 20
42.8732585732
 10
-20.2513104067
 20
42.8751898462
  0
LWPOLYLINE
  5
3A4
100
AcDbEntity
  8
0
100
AcDbPolyline
 62
253
  6
CONTINUOUS
 90
19
 70
0
 10
-20.4511885721
 20
42.3754944327
 10
-20.4503972467
 20
42.3930659751
 10
-20.448140193
 20
42.4102680131
 10
-20.4444174111
 20
42.4271005466
 10
-20.4391781926
 20
42.4436933525
 10
-20.4324732458
 20
42.459916654
 10
-20.4244546959
 20
42.4753811201
 10
-20.4150932018
 20
42.4900617883
 10
-20.4044181045
 20
42.5039836212
 10
-20.3926695519
 20
42.5168321745
 10
-20.379822801
 20
42.5285827079
 10
-20.3659025949
 20
42.5392599617
 10
-20.3512233099
 20
42.5486237127
 10
-20.3357610454
 20
42.556644613
 10
-20.3195397021
 20
42.5633520105
 10
-20.3029453587
 20
42.5685937257
 10
-20.2861067082
 20
42.5723190321
 10
-20.2688950575
 20
42.5745786562
 10
-20.2513104067
 20
42.5753725981
  0
LINE
  5
3A5
100
AcDbEntity
  8
RACCORDO
100
AcDbLine
 62
253
  6
CONTINUOUS
 10
-17.8417151688
 20
39.5668762201
 11
-17.8522418186
 21
39.4514177618
  0
LINE
  5
3A6
100
AcDbEntity
  8
0
100
AcDbLine
 62
253
  6
CONTINUOUS
 10
13.4742297174
 20
41.1
 11
13.4087122973
 21
41.0344825799
  0
LWPOLYLINE
  5
3A7
100
AcDbEntity
  8
RACCORDO
100
AcDbPolyline
 62
253
  6
CONTINUOUS
 90
7
 70
0
 10
-17.8522428097
 20
2.7485929858
 10
-17.844697426
 20
2.6629119778
 10
-17.8367159222
 20
2.5793153333
 10
-17.8282982983
 20
2.4978030523
 10
-17.8194445543
 20
2.4183751348
 10
-17.8101546903
 20
2.3410315808
 10
-17.8004287062
 20
2.2657723904
  0
LINE
  5
3A8
100
AcDbEntity
  8
RACCORDO
100
AcDbLine
 62
253
  6
CONTINUOUS
 10
-16.8468750483
 20
42.1788794371
 11
-16.8468750483
 21
41.9789098981
  0
LINE
  5
3A9
100
AcDbEntity
  8
RACCORDO
100
AcDbLine
 62
253
  6
CONTINUOUS
 10
-16.8468750483
 20
0.2210901019
 11
-16.8468750483
 21
0.0211205629
  0
LINE
  5
3AA
100
AcDbEntity
  8
0
100
AcDbLine
 62
7
  6
CONTINUOUS
 10
-16.2914034622
 20
1.1872753246
 11
-16.2914034622
 21
0.2372296332
  0
LINE
  5
3AB
100
AcDbEntity
  8
0
100
AcDbLine
 62
7
  6
CONTINUOUS
 10
-16.2739483973
 20
1.1698202597
 11
-16.2739483973
 21
0.2197745683
  0
LWPOLYLINE
  5
3AC
100
AcDbEntity
  8
RACCORDO
100
AcDbPolyline
 62
253
  6
CONTINUOUS
 90
7
 70
0
 10
-18.5512020232
 20
2.2657745013
 10
-18.541469912
 20
2.3411053624
 10
-18.5321765213
 20
2.4184910616
 10
-18.5233218512
 20
2.4979315988
 10
-18.5149059017
 20
2.5794269739
 10
-18.5069286728
 20
2.662977187
 10
-18.4993901646
 20
2.7485822382
  0
LINE
  5
3AD
100
AcDbEntity
  8
RACCORDO
100
AcDbLine
 62
253
  6
CONTINUOUS
 10
-18.4993887987
 20
2.748596544
 11
-18.580443924
 21
2.5038866068
  0
LWPOLYLINE
  5
3AE
100
AcDbEntity
  8
RACCORDO
100
AcDbPolyline
 62
253
  6
CONTINUOUS
 90
3
 70
0
 10
-18.580443924
 20
2.5038866068
 10
-18.6318193024
 20
2.3524734438
 10
-18.6567900343
 20
2.2805018469
  0
LWPOLYLINE
  5
3AF
100
AcDbEntity
  8
RACCORDO
100
AcDbPolyline
 62
253
  6
CONTINUOUS
 90
13
 70
0
 10
-18.6567883933
 20
2.2805016179
 10
-18.6835077563
 20
2.2049432577
 10
-18.7098317021
 20
2.132181718
 10
-18.7358026086
 20
2.062269205
 10
-18.7614439853
 20
1.9952920803
 10
-18.786803271
 20
1.9312268993
 10
-18.8119744588
 20
1.8699626474
 10
-18.837015898
 20
1.8115113206
 10
-18.8619566487
 20
1.7559043264
 10
-18.8868625431
 20
1.7030768132
 10
-18.9117877977
 20
1.6530425225
 10
-18.9367499043
 20
1.6058502696
 10
-18.9617640119
 20
1.5615069446
  0
LWPOLYLINE
  5
3B0
100
AcDbEntity
  8
RACCORDO
100
AcDbPolyline
 62
253
  6
CONTINUOUS
 90
19
 70
0
 10
-19.6779356006
 20
0.3210748714
 10
-19.688403998
 20
0.3001871395
 10
-19.6963659384
 20
0.2782125681
 10
-19.7017103921
 20
0.2554506701
 10
-19.7043625229
 20
0.2322023102
 10
-19.7042808545
 20
0.2087950363
 10
-19.701469417
 20
0.1855787077
 10
-19.6959818095
 20
0.1628935998
 10
-19.6878989663
 20
0.1410220329
 10
-19.6773155796
 20
0.1202198184
 10
-19.6643431156
 20
0.1007394597
 10
-19.6491700157
 20
0.082891309
 10
-19.6320632468
 20
0.0669786584
 10
-19.6132718233
 20
0.053203437
 10
-19.5930628404
 20
0.0417345445
 10
-19.5717958702
 20
0.032735298
 10
-19.5497999619
 20
0.0262864957
 10
-19.5273537741
 20
0.0224141098
 10
-19.5047568999
 20
0.0211205629
  0
LWPOLYLINE
  5
3B1
100
AcDbEntity
  8
RACCORDO
100
AcDbPolyline
 62
253
  6
CONTINUOUS
 90
13
 70
0
 10
-18.7885874777
 20
1.4615319279
 10
-18.7596009795
 20
1.5149958965
 10
-18.7323883787
 20
1.5710272874
 10
-18.7069496754
 20
1.6296261007
 10
-18.6833370421
 20
1.6908695264
 10
-18.6614983063
 20
1.7546803745
 10
-18.6412769506
 20
1.8208270745
 10
-18.6227096449
 20
1.8892517893
 10
-18.6057597192
 20
1.960012356
 10
-18.5901606469
 20
2.0330507164
 10
-18.5758235857
 20
2.1083475177
 10
-18.5628373778
 20
2.1859221126
 10
-18.5512020232
 20
2.2657745013
  0
LINE
  5
3B2
100
AcDbEntity
  8
RACCORDO
100
AcDbLine
 62
7
  6
CONTINUOUS
 10
-19.4478293783
 20
0.8873210161
 11
-19.8231598132
 21
0.2372296332
  0
LINE
  5
3B3
100
AcDbEntity
  8
RACCORDO
100
AcDbLine
 62
253
  6
CONTINUOUS
 10
-19.6779356006
 20
0.3210748714
 11
-18.9618157194
 21
1.5614309022
  0
LINE
  5
3B4
100
AcDbEntity
  8
RACCORDO
100
AcDbLine
 62
253
  6
CONTINUOUS
 10
-19.5047568999
 20
0.2210901019
 11
-18.7885874777
 21
1.4615319279
  0
LINE
  5
3B5
100
AcDbEntity
  8
RACCORDO
100
AcDbLine
 62
253
  6
CONTINUOUS
 10
-18.9618157194
 20
1.5614309022
 11
-19.0884415357
 21
1.3494584489
  0
LINE
  5
3B6
100
AcDbEntity
  8
RACCORDO
100
AcDbLine
 62
253
  6
CONTINUOUS
 10
-19.0884415357
 20
1.3494584489
 11
-19.1588241066
 21
1.2329709273
  0
LWPOLYLINE
  5
3B7
100
AcDbEntity
  8
RACCORDO
100
AcDbPolyline
 62
253
  6
CONTINUOUS
 90
10
 70
0
 10
-19.1588241066
 20
1.2329709273
 10
-19.2180026734
 20
1.1362192806
 10
-19.243392736
 20
1.0952312568
 10
-19.2660351126
 20
1.0590890526
 10
-19.286059054
 20
1.0275815001
 10
-19.3033353093
 20
1.0009197671
 10
-19.3175237642
 20
0.9796620048
 10
-19.328511047
 20
0.9639942634
 10
-19.3364105294
 20
0.9537304927
 10
-19.3412222113
 20
0.9488706927
  0
LINE
  5
3B8
100
AcDbEntity
  8
RACCORDO
100
AcDbLine
 62
253
  6
CONTINUOUS
 10
-18.499398122
 20
2.7485822382
 11
-18.777609782
 21
2.3253106683
  0
LINE
  5
3B9
100
AcDbEntity
  8
RACCORDO
100
AcDbLine
 62
253
  6
CONTINUOUS
 10
-18.777609782
 20
2.3253106683
 11
-19.078072866
 21
1.8740262383
  0
LINE
  5
3BA
100
AcDbEntity
  8
RACCORDO
100
AcDbLine
 62
253
  6
CONTINUOUS
 10
-19.078072866
 20
1.8740262383
 11
-19.2240332274
 21
1.6575655427
  0
LINE
  5
3BB
100
AcDbEntity
  8
RACCORDO
100
AcDbLine
 62
253
  6
CONTINUOUS
 10
-19.2240332274
 20
1.6575655427
 11
-19.3054519714
 21
1.538146288
  0
LINE
  5
3BC
100
AcDbEntity
  8
RACCORDO
100
AcDbLine
 62
253
  6
CONTINUOUS
 10
-19.3054519714
 20
1.538146288
 11
-19.3736197972
 21
1.4394111789
  0
LWPOLYLINE
  5
3BD
100
AcDbEntity
  8
RACCORDO
100
AcDbPolyline
 62
253
  6
CONTINUOUS
 90
8
 70
0
 10
-19.3736197972
 20
1.4394111789
 10
-19.4285779925
 20
1.3610099362
 10
-19.4515205159
 20
1.3288484408
 10
-19.4713099759
 20
1.3018216846
 10
-19.4875339844
 20
1.2801213823
 10
-19.5000550785
 20
1.2639390789
 10
-19.5090107211
 20
1.2534549195
 10
-19.5144009121
 20
1.2488250012
  0
LINE
  5
3BE
100
AcDbEntity
  8
RACCORDO
100
AcDbLine
 62
253
  6
CONTINUOUS
 10
-23.6758159741
 20
3.0996953903
 11
-23.5269909728
 21
3.2486493902
  0
LINE
  5
3BF
100
AcDbEntity
  8
RACCORDO
100
AcDbLine
 62
7
  6
CONTINUOUS
 10
13.7577938526
 20
41.0336098267
 11
13.8241840259
 21
41.1
  0
LINE
  5
3C0
100
AcDbEntity
  8
RACCORDO
100
AcDbLine
 62
253
  6
CONTINUOUS
 10
14.3244886356
 20
41.1
 11
14.1756636344
 21
40.9511749988
  0
LINE
  5
3C1
100
AcDbEntity
  8
RACCORDO
100
AcDbLine
 62
253
  6
CONTINUOUS
 10
13.6170455456
 20
38.8852653961
 11
13.5817801494
 21
38.85
  0
LINE
  5
3C2
100
AcDbEntity
  8
RACCORDO
100
AcDbLine
 62
253
  6
CONTINUOUS
 10
-21.4610813702
 20
3.8071384804
 11
-21.4258159741
 21
3.8424038765
  0
LINE
  5
3C3
100
AcDbEntity
  8
RACCORDO
100
AcDbLine
 62
253
  6
CONTINUOUS
 10
14.1094494221
 20
38.3928615196
 11
14.0741840259
 21
38.3575961235
  0
LINE
  5
3C4
100
AcDbEntity
  8
RACCORDO
100
AcDbLine
 62
253
  6
CONTINUOUS
 10
-20.9686774937
 20
3.3147346039
 11
-20.9334120975
 21
3.35
  0
LWPOLYLINE
  5
3C5
100
AcDbEntity
  8
RACCORDO
100
AcDbPolyline
 62
253
  6
CONTINUOUS
 90
13
 70
0
 10
-17.8004287062
 20
2.2657723904
 10
-17.7887204911
 20
2.1855011003
 10
-17.7756701951
 20
2.1076041574
 10
-17.7612778183
 20
2.0320815616
 10
-17.7456298446
 20
1.9589280535
 10
-17.72863979
 20
1.8881488926
 10
-17.7100482028
 20
1.8197598568
 10
-17.6898167346
 20
1.7536962756
 10
-17.6679837337
 20
1.6900228194
 10
-17.6444047939
 20
1.6289492776
 10
-17.6190317796
 20
1.5705455798
 10
-17.5919128263
 20
1.5147417962
 10
-17.563047934
 20
1.461537927
  0
LINE
  5
3C6
100
AcDbEntity
  8
RACCORDO
100
AcDbLine
 62
253
  6
CONTINUOUS
 10
-18.515344159
 20
39.6229515149
 11
-18.526415188
 21
39.7313126484
  0
LWPOLYLINE
  5
3C7
100
AcDbEntity
  8
RACCORDO
100
AcDbPolyline
 62
253
  6
CONTINUOUS
 90
3
 70
0
 10
-18.4993891155
 20
39.4514068628
 10
-18.5046036277
 20
39.5097824856
 10
-18.515344159
 20
39.6229515149
  0
LINE
  5
3C8
100
AcDbEntity
  8
DRAFT
100
AcDbLine
 62
253
  6
CONTINUOUS
 10
-13.4614757692
 20
1.1698202597
 11
-13.4610719979
 21
1.1505494334
  0
LINE
  5
3C9
100
AcDbEntity
  8
0
100
AcDbLine
 62
7
  6
CONTINUOUS
 10
-13.4558159741
 20
1.1698202597
 11
-13.4558159741
 21
-31.9
  0
LINE
  5
3CA
100
AcDbEntity
  8
0
100
AcDbLine
 62
7
  6
CONTINUOUS
 10
-13.4558159741
 20
-32.9
 11
-13.4558159741
 21
-42.9
  0
LINE
  5
3CB
100
AcDbEntity
  8
0
100
AcDbLine
 62
7
  6
CONTINUOUS
 10
-13.0658159741
 20
-32.9
 11
-13.0658159741
 21
-31.9
  0
LINE
  5
3CC
100
AcDbEntity
  8
RACCORDO
100
AcDbLine
 62
253
  6
CONTINUOUS
 10
16.3241840259
 20
39.1003046097
 11
16.1753590247
 21
38.9513506098
  0
LINE
  5
3CD
100
AcDbEntity
  8
RACCORDO
100
AcDbLine
 62
253
  6
CONTINUOUS
 10
-21.6761205837
 20
1.1
 11
-21.5272955825
 21
1.2488250012
  0
LINE
  5
3CE
100
AcDbEntity
  8
RACCORDO
100
AcDbLine
 62
7
  6
CONTINUOUS
 10
-21.1094258008
 20
1.1663901733
 11
-21.1758159741
 21
1.1
  0
LINE
  5
3CF
100
AcDbEntity
  8
0
100
AcDbLine
 62
253
  6
CONTINUOUS
 10
-20.8258616655
 20
1.1
 11
-20.7603442454
 21
1.1655174201
  0
LINE
  5
3D0
100
AcDbEntity
  8
DRAFT
100
AcDbLine
 62
7
  6
CONTINUOUS
 10
16.3241840259
 20
38.1
 11
16.1758159741
 21
37.9516319481
  0
LINE
  5
3D1
100
AcDbEntity
  8
RACCORDO
100
AcDbLine
 62
7
  6
CONTINUOUS
 10
16.1753590247
 20
37.9511749988
 11
16.1758159741
 21
37.9516319481
  0
LINE
  5
3D2
100
AcDbEntity
  8
DRAFT
100
AcDbLine
 62
7
  6
CONTINUOUS
 10
-20.0602284859
 20
1.1872753246
 11
-20.0776835508
 21
1.1698202597
  0
LINE
  5
3D3
100
AcDbEntity
  8
0
100
AcDbLine
 62
253
  6
CONTINUOUS
 10
-20.0602284859
 20
0.2372296332
 11
-20.0776835508
 21
0.2197745683
  0
LINE
  5
3D4
100
AcDbEntity
  8
0
100
AcDbLine
 62
253
  6
CONTINUOUS
 10
-19.7602741774
 20
-0.0627246754
 11
-19.7777292423
 21
-0.0801797403
  0
LINE
  5
3D5
100
AcDbEntity
  8
RACCORDO
100
AcDbLine
 62
253
  6
CONTINUOUS
 10
-16.9698047819
 20
1.4275123754
 11
-17.038468562
 21
1.5268622702
  0
LINE
  5
3D6
100
AcDbEntity
  8
RACCORDO
100
AcDbLine
 62
253
  6
CONTINUOUS
 10
-17.038468562
 20
1.5268622702
 11
-17.1215594208
 21
1.6486665006
  0
LINE
  5
3D7
100
AcDbEntity
  8
RACCORDO
100
AcDbLine
 62
253
  6
CONTINUOUS
 10
-17.1215594208
 20
1.6486665006
 11
-17.218533756
 21
1.7920093246
  0
LINE
  5
3D8
100
AcDbEntity
  8
RACCORDO
100
AcDbLine
 62
253
  6
CONTINUOUS
 10
-17.218533756
 20
1.7920093246
 11
-17.3878134775
 21
2.0447442759
  0
LWPOLYLINE
  5
3D9
100
AcDbEntity
  8
RACCORDO
100
AcDbPolyline
 62
253
  6
CONTINUOUS
 90
4
 70
0
 10
-17.3878134775
 20
2.0447442759
 10
-17.6471248146
 20
2.436266289
 10
-17.714658691
 20
2.539513756
 10
-17.8522408298
 20
2.7485929858
  0
LINE
  5
3DA
100
AcDbEntity
  8
RACCORDO
100
AcDbLine
 62
253
  6
CONTINUOUS
 10
-17.1265770948
 20
1.1247998026
 11
-17.1862942477
 21
1.2222643326
  0
LINE
  5
3DB
100
AcDbEntity
  8
RACCORDO
100
AcDbLine
 62
253
  6
CONTINUOUS
 10
-17.1862942477
 20
1.2222643326
 11
-17.2585955149
 21
1.3418182499
  0
LINE
  5
3DC
100
AcDbEntity
  8
RACCORDO
100
AcDbLine
 62
253
  6
CONTINUOUS
 10
-17.2585955149
 20
1.3418182499
 11
-17.3898234236
 21
1.5614433605
  0
LINE
  5
3DD
100
AcDbEntity
  8
RACCORDO
100
AcDbLine
 62
253
  6
CONTINUOUS
 10
-17.563047934
 20
1.461537927
 11
-16.8468750483
 21
0.2210901019
  0
LINE
  5
3DE
100
AcDbEntity
  8
RACCORDO
100
AcDbLine
 62
253
  6
CONTINUOUS
 10
-17.3898234236
 20
1.5614433605
 11
-16.6736963475
 21
0.3210748714
  0
LINE
  5
3DF
100
AcDbEntity
  8
RACCORDO
100
AcDbLine
 62
7
  6
CONTINUOUS
 10
-16.5284721349
 20
0.2372296332
 11
-16.9038025698
 21
0.8873210161
  0
LWPOLYLINE
  5
3E0
100
AcDbEntity
  8
RACCORDO
100
AcDbPolyline
 62
253
  6
CONTINUOUS
 90
13
 70
0
 10
-17.3898688041
 20
1.5615078952
 10
-17.4147669656
 20
1.6056376393
 10
-17.4396348357
 20
1.6526340643
 10
-17.4644858035
 20
1.7024939312
 10
-17.4893344135
 20
1.7551656414
 10
-17.5142357843
 20
1.8106435518
 10
-17.5392594604
 20
1.8690113431
 10
-17.5644293381
 20
1.9302324188
 10
-17.5898047964
 20
1.9943031683
 10
-17.6154924158
 20
2.0613754276
 10
-17.6415445462
 20
2.1314887646
 10
-17.667980759
 20
2.2045467917
 10
-17.6948428755
 20
2.2804996185
  0
LWPOLYLINE
  5
3E1
100
AcDbEntity
  8
0
100
AcDbPolyline
 62
253
  6
CONTINUOUS
 90
11
 70
0
 10
-23.9814298013
 20
13.2056442882
 10
-23.982955251
 20
13.2087289072
 10
-23.9845404889
 20
13.21505128
 10
-23.986185515
 20
13.225006829
 10
-23.987893177
 20
13.2389941672
 10
-23.9896606272
 20
13.2574331862
 10
-23.991479322
 20
13.2807820115
 10
-23.9933514554
 20
13.3094884959
 10
-23.9952748334
 20
13.343999139
 10
-23.99723433
 20
13.3848063392
 10
-23.999232642
 20
13.432373775
  0
LINE
  5
3E2
100
AcDbEntity
  8
RACCORDO
100
AcDbLine
 62
253
  6
CONTINUOUS
 10
-17.6948409716
 20
2.2804998842
 11
-17.7197892717
 21
2.352404464
  0
LINE
  5
3E3
100
AcDbEntity
  8
RACCORDO
100
AcDbLine
 62
253
  6
CONTINUOUS
 10
-17.7197892717
 20
2.352404464
 11
-17.771147556
 21
2.5037630492
  0
LINE
  5
3E4
100
AcDbEntity
  8
RACCORDO
100
AcDbLine
 62
253
  6
CONTINUOUS
 10
-17.771147556
 20
2.5037630492
 11
-17.8522431494
 21
2.748596544
  0
LWPOLYLINE
  5
3E5
100
AcDbEntity
  8
RACCORDO
100
AcDbPolyline
 62
253
  6
CONTINUOUS
 90
5
 70
0
 10
-18.526415188
 20
39.7313126484
 10
-18.5322337237
 20
39.7837495178
 10
-18.5383257854
 20
39.8350555297
 10
-18.5446489505
 20
39.8852148804
 10
-18.551203219
 20
39.9342275698
  0
LINE
  5
3E6
100
AcDbEntity
  8
0
100
AcDbLine
 62
7
  6
CONTINUOUS
 10
-12.2858159741
 20
-32.9
 11
-12.2858159741
 21
-31.9
  0
LINE
  5
3E7
100
AcDbEntity
  8
0
100
AcDbLine
 62
7
  6
CONTINUOUS
 10
-11.8958159741
 20
1.1698202597
 11
-11.8958159741
 21
-31.9
  0
LINE
  5
3E8
100
AcDbEntity
  8
0
100
AcDbLine
 62
7
  6
CONTINUOUS
 10
-11.8958159741
 20
-32.9
 11
-11.8958159741
 21
-42.9
  0
LINE
  5
3E9
100
AcDbEntity
  8
0
100
AcDbLine
 62
7
  6
CONTINUOUS
 10
-11.4558159741
 20
1.1698202597
 11
-11.4558159741
 21
-31.9
  0
LINE
  5
3EA
100
AcDbEntity
  8
0
100
AcDbLine
 62
7
  6
CONTINUOUS
 10
-11.4558159741
 20
-32.9
 11
-11.4558159741
 21
-42.9
  0
LINE
  5
3EB
100
AcDbEntity
  8
0
100
AcDbLine
 62
7
  6
CONTINUOUS
 10
-11.0658159741
 20
-32.9
 11
-11.0658159741
 21
-31.9
  0
LINE
  5
3EC
100
AcDbEntity
  8
0
100
AcDbLine
 62
7
  6
CONTINUOUS
 10
-10.2858159741
 20
-32.9
 11
-10.2858159741
 21
-31.9
  0
LINE
  5
3ED
100
AcDbEntity
  8
0
100
AcDbLine
 62
7
  6
CONTINUOUS
 10
-9.8958159741
 20
1.1698202597
 11
-9.8958159741
 21
-31.9
  0
LINE
  5
3EE
100
AcDbEntity
  8
0
100
AcDbLine
 62
7
  6
CONTINUOUS
 10
-9.8958159741
 20
-32.9
 11
-9.8958159741
 21
-42.9
  0
LINE
  5
3EF
100
AcDbEntity
  8
RACCORDO
100
AcDbLine
 62
253
  6
CONTINUOUS
 10
23.1583707393
 20
37.9340245667
 11
23.1761205837
 21
37.9516319481
  0
LINE
  5
3F0
100
AcDbEntity
  8
RACCORDO
100
AcDbLine
 62
253
  6
CONTINUOUS
 10
-19.5144009121
 20
1.2488250012
 11
-19.6210080791
 21
1.1872753246
  0
LINE
  5
3F1
100
AcDbEntity
  8
RACCORDO
100
AcDbLine
 62
253
  6
CONTINUOUS
 10
-19.3412222113
 20
0.9488706927
 11
-19.4478293783
 21
0.8873210161
  0
LINE
  5
3F2
100
AcDbEntity
  8
RACCORDO
100
AcDbLine
 62
253
  6
CONTINUOUS
 10
-19.6779356006
 20
0.3210748714
 11
-19.8231598132
 21
0.2372296332
  0
LINE
  5
3F3
100
AcDbEntity
  8
RACCORDO
100
AcDbLine
 62
253
  6
CONTINUOUS
 10
-17.5630415983
 20
1.4615269533
 11
-17.3898627124
 21
1.5615114106
  0
LINE
  5
3F4
100
AcDbEntity
  8
RACCORDO
100
AcDbLine
 62
253
  6
CONTINUOUS
 10
-19.5047568999
 20
0.0211205629
 11
-19.6499811124
 21
-0.0627246754
  0
LINE
  5
3F5
100
AcDbEntity
  8
RACCORDO
100
AcDbLine
 62
253
  6
CONTINUOUS
 10
-19.5047568999
 20
0.2210901019
 11
-19.6779356006
 21
0.3210748714
  0
LWPOLYLINE
  5
3F6
100
AcDbEntity
  8
RACCORDO
100
AcDbPolyline
 62
253
  6
CONTINUOUS
 90
9
 70
0
 10
-16.83721631
 20
1.2488221962
 10
-16.8418706749
 20
1.252888285
 10
-16.8498956911
 20
1.2620906262
 10
-16.8612913584
 20
1.2764639138
 10
-16.8759899712
 20
1.2959629331
 10
-16.8940592351
 20
1.3206184098
 10
-16.9157022673
 20
1.3506768103
 10
-16.9409666405
 20
1.3863119934
 10
-16.9698047819
 20
1.4275123754
  0
LWPOLYLINE
  5
3F7
100
AcDbEntity
  8
RACCORDO
100
AcDbPolyline
 62
253
  6
CONTINUOUS
 90
9
 70
0
 10
-17.0104097368
 20
0.9488706927
 10
-17.0146168221
 20
0.9529299772
 10
-17.0217450208
 20
0.9620668742
 10
-17.0317943329
 20
0.9762813838
 10
-17.0447131869
 20
0.9954803261
 10
-17.0605531543
 20
1.019756881
 10
-17.0794689497
 20
1.0493905875
 10
-17.1014851083
 20
1.0844166192
 10
-17.1265770948
 20
1.1247998026
  0
LINE
  5
3F8
100
AcDbEntity
  8
0
100
AcDbLine
 62
253
  6
CONTINUOUS
 10
-16.5739027058
 20
-0.0801797403
 11
-16.5913577708
 21
-0.0627246754
  0
LINE
  5
3F9
100
AcDbEntity
  8
0
100
AcDbLine
 62
253
  6
CONTINUOUS
 10
-16.2739483973
 20
0.2197745683
 11
-16.2914034622
 21
0.2372296332
  0
LINE
  5
3FA
100
AcDbEntity
  8
DRAFT
100
AcDbLine
 62
7
  6
CONTINUOUS
 10
-16.2914034622
 20
1.1872753246
 11
-16.2739483973
 21
1.1698202597
  0
LWPOLYLINE
  5
3FB
100
AcDbEntity
  8
0
100
AcDbPolyline
 62
253
  6
CONTINUOUS
 90
12
 70
0
 10
-23.7814602623
 20
13.4056138273
 10
-23.782983943
 20
13.4078527283
 10
-23.7845678565
 20
13.4138679085
 10
-23.7862120027
 20
13.4236593678
 10
-23.7879193691
 20
13.4368180051
 10
-23.7896869683
 20
13.4537529214
 10
-23.7915058382
 20
13.4756914205
 10
-23.7933780268
 20
13.5026089441
 10
-23.795301486
 20
13.5345300503
 10
-23.7972611097
 20
13.5727557171
 10
-23.7992595913
 20
13.6172975613
 10
-23.8012942374
 20
13.6681439661
  0
LWPOLYLINE
  5
3FC
100
AcDbEntity
  8
RACCORDO
100
AcDbPolyline
 62
253
  6
CONTINUOUS
 90
13
 70
0
 10
-18.551203219
 20
39.9342275698
 10
-18.5629119726
 20
40.0145019044
 10
-18.5759627599
 20
40.0924012543
 10
-18.5903555809
 20
40.1679256197
 10
-18.606003979
 20
40.2410802084
 10
-18.6229944107
 20
40.3118598126
 10
-18.6415862457
 20
40.380248808
 10
-18.6618178396
 20
40.4463118525
 10
-18.6836508367
 20
40.5099842882
 10
-18.7072295397
 20
40.5710565177
 10
-18.7326020494
 20
40.6294586752
 10
-18.759720265
 20
40.6852606263
 10
-18.7885841863
 20
40.7384623713
  0
LINE
  5
3FD
100
AcDbEntity
  8
0
100
AcDbLine
 62
7
  6
CONTINUOUS
 10
-9.4558159741
 20
1.1698202597
 11
-9.4558159741
 21
-31.9
  0
LINE
  5
3FE
100
AcDbEntity
  8
0
100
AcDbLine
 62
7
  6
CONTINUOUS
 10
-9.4558159741
 20
-32.9
 11
-9.4558159741
 21
-42.9
  0
LINE
  5
3FF
100
AcDbEntity
  8
0
100
AcDbLine
 62
7
  6
CONTINUOUS
 10
-9.0658159741
 20
-32.9
 11
-9.0658159741
 21
-31.9
  0
LINE
  5
400
100
AcDbEntity
  8
0
100
AcDbLine
 62
7
  6
CONTINUOUS
 10
-8.2858159741
 20
-32.9
 11
-8.2858159741
 21
-31.9
  0
LINE
  5
401
100
AcDbEntity
  8
0
100
AcDbLine
 62
7
  6
CONTINUOUS
 10
-7.8958159741
 20
1.1698202597
 11
-7.8958159741
 21
-31.9
  0
LINE
  5
402
100
AcDbEntity
  8
0
100
AcDbLine
 62
7
  6
CONTINUOUS
 10
-7.8958159741
 20
-32.9
 11
-7.8958159741
 21
-42.9
  0
LINE
  5
403
100
AcDbEntity
  8
RACCORDO
100
AcDbLine
 62
7
  6
CONTINUOUS
 10
-7.5274479222
 20
-5.7519365578
 11
-7.5274479222
 21
1.2483680519
  0
LINE
  5
404
100
AcDbEntity
  8
RACCORDO
100
AcDbLine
 62
253
  6
CONTINUOUS
 10
-7.5098405408
 20
-5.7341877139
 11
-7.5098405408
 21
1.6384292381
  0
LINE
  5
405
100
AcDbEntity
  8
0
100
AcDbLine
 62
7
  6
CONTINUOUS
 10
-7.4558159741
 20
-6.2808664765
 11
-7.4558159741
 21
-31.9
  0
LINE
  5
406
100
AcDbEntity
  8
0
100
AcDbLine
 62
7
  6
CONTINUOUS
 10
-7.4558159741
 20
-32.9
 11
-7.4558159741
 21
-42.9
  0
LINE
  5
407
100
AcDbEntity
  8
0
100
AcDbLine
 62
7
  6
CONTINUOUS
 10
-7.0658159741
 20
-32.9
 11
-7.0658159741
 21
-31.9
  0
LINE
  5
408
100
AcDbEntity
  8
RACCORDO
100
AcDbLine
 62
253
  6
CONTINUOUS
 10
-7.0099166932
 20
-5.7343291764
 11
-7.0099166932
 21
2.748596544
  0
LINE
  5
409
100
AcDbEntity
  8
0
100
AcDbLine
 62
253
  6
CONTINUOUS
 10
-6.3003215414
 20
42.8751898462
 11
-6.3003215414
 21
42.5753725981
  0
LINE
  5
40A
100
AcDbEntity
  8
0
100
AcDbLine
 62
7
  6
CONTINUOUS
 10
-6.2858159741
 20
-32.9
 11
-6.2858159741
 21
-31.9
  0
LWPOLYLINE
  5
40B
100
AcDbEntity
  8
RACCORDO
100
AcDbPolyline
 62
7
  6
CONTINUOUS
 90
19
 70
0
 10
-7.5098405408
 20
1.6384292381
 10
-7.5073581662
 20
1.6783425365
 10
-7.5016271709
 20
1.7191825706
 10
-7.4929995571
 20
1.7609493405
 10
-7.4818431512
 20
1.8038460145
 10
-7.4684975842
 20
1.8476694242
 10
-7.4532389656
 20
1.8918100648
 10
-7.4364414657
 20
1.9360061716
 10
-7.4183362325
 20
1.9805195093
 10
-7.3988473884
 20
2.025525867
 10
-7.3781021364
 20
2.0710431967
 10
-7.3563160127
 20
2.1170535465
 10
-7.333402384
 20
2.1636788493
 10
-7.3094066581
 20
2.211037565
 10
-7.2845216076
 20
2.2590112336
 10
-7.2588316864
 20
2.3073664092
 10
-7.2324349442
 20
2.3561318379
 10
-7.2054636428
 20
2.4052787735
 10
-7.1780482234
 20
2.4544875312
  0
LINE
  5
40C
100
AcDbEntity
  8
RACCORDO
100
AcDbLine
 62
7
  6
CONTINUOUS
 10
-7.1780482234
 20
2.4544875312
 11
-7.1223668744
 21
2.5530109026
  0
LINE
  5
40D
100
AcDbEntity
  8
RACCORDO
100
AcDbLine
 62
7
  6
CONTINUOUS
 10
-7.1223668744
 20
2.5530109026
 11
-7.0099166932
 21
2.748596544
  0
LINE
  5
40E
100
AcDbEntity
  8
RACCORDO
100
AcDbLine
 62
253
  6
CONTINUOUS
 10
25.1582085927
 20
35.9341877139
 11
25.1758159741
 21
35.9519365578
  0
LINE
  5
40F
100
AcDbEntity
  8
0
100
AcDbLine
 62
253
  6
CONTINUOUS
 10
17.5185701987
 20
28.9943557118
 11
17.6242144869
 21
29.1
  0
LINE
  5
410
100
AcDbEntity
  8
0
100
AcDbLine
 62
253
  6
CONTINUOUS
 10
17.7185397377
 20
28.7943861727
 11
17.8241840259
 21
28.900030461
  0
LINE
  5
411
100
AcDbEntity
  8
DRAFT
100
AcDbLine
 62
7
  6
CONTINUOUS
 10
16.3241840259
 20
25.85
 11
16.2818269477
 21
25.8076429217
  0
LINE
  5
412
100
AcDbEntity
  8
RACCORDO
100
AcDbLine
 62
7
  6
CONTINUOUS
 10
16.2333262985
 20
25.7591422725
 11
16.2818269477
 21
25.8076429217
  0
LINE
  5
413
100
AcDbEntity
  8
RACCORDO
100
AcDbLine
 62
7
  6
CONTINUOUS
 10
14.7403997143
 20
23.6
 11
14.8310250961
 21
23.6906253818
  0
LINE
  5
414
100
AcDbEntity
  8
RACCORDO
100
AcDbLine
 62
7
  6
CONTINUOUS
 10
-7.5269909728
 20
1.2488250012
 11
-7.5274479222
 21
1.2483680519
  0
LINE
  5
415
100
AcDbEntity
  8
DRAFT
100
AcDbLine
 62
7
  6
CONTINUOUS
 10
-7.6059957143
 20
1.1698202597
 11
-7.5274479222
 21
1.2483680519
  0
LINE
  5
416
100
AcDbEntity
  8
RACCORDO
100
AcDbLine
 62
253
  6
CONTINUOUS
 10
-16.6736963475
 20
0.3210748714
 11
-16.8468750483
 21
0.2210901019
  0
LINE
  5
417
100
AcDbEntity
  8
RACCORDO
100
AcDbLine
 62
7
  6
CONTINUOUS
 10
-1.8238794163
 20
-7.7516319481
 11
-5.5277525319
 21
-7.7516319481
  0
LINE
  5
418
100
AcDbEntity
  8
RACCORDO
100
AcDbLine
 62
253
  6
CONTINUOUS
 10
-1.8416282601
 20
-7.7340245667
 11
-5.5100026874
 21
-7.7340245667
  0
LINE
  5
419
100
AcDbEntity
  8
RACCORDO
100
AcDbLine
 62
253
  6
CONTINUOUS
 10
-1.8414867976
 20
-7.2341007192
 11
-5.5101451505
 21
-7.2341007192
  0
LWPOLYLINE
  5
41A
100
AcDbEntity
  8
RACCORDO
100
AcDbPolyline
 62
253
  6
CONTINUOUS
 90
25
 70
0
 10
-5.5100027017
 20
-7.7340245759
 10
-5.6408637573
 20
-7.729738655
 10
-5.7711452406
 20
-7.7169022578
 10
-5.9002894764
 20
-7.695573886
 10
-6.0277388948
 20
-7.6658498371
 10
-6.1529539722
 20
-7.6278599989
 10
-6.2754145322
 20
-7.5817638809
 10
-6.3946012381
 20
-7.5277567392
 10
-6.5099991723
 20
-7.4660717386
 10
-6.6211148294
 20
-7.3969727325
 10
-6.7274726313
 20
-7.3207556486
 10
-6.8286175462
 20
-7.2377468577
 10
-6.9241172132
 20
-7.1483012214
 10
-7.0135628478
 20
-7.0528015539
 10
-7.0965716364
 20
-6.9516566397
 10
-7.1727887179
 20
-6.8452988387
 10
-7.241887722
 20
-6.7341831826
 10
-7.3035727207
 20
-6.6187852499
 10
-7.3575798605
 20
-6.499598546
 10
-7.4036759883
 20
-6.377137954
 10
-7.4416658321
 20
-6.2519228438
 10
-7.4713898608
 20
-6.1244734999
 10
-7.4927182031
 20
-5.9953294862
 10
-7.5055545927
 20
-5.865048338
 10
-7.5098405499
 20
-5.7341877282
  0
LWPOLYLINE
  5
41B
100
AcDbEntity
  8
RACCORDO
100
AcDbPolyline
 62
253
  6
CONTINUOUS
 90
25
 70
0
 10
-5.5101451505
 20
-7.2341007192
 10
-5.6086316357
 20
-7.2308271925
 10
-5.7059602253
 20
-7.2212642804
 10
-5.8021309192
 20
-7.2054119828
 10
-5.8975749579
 20
-7.1831487315
 10
-5.9918611008
 20
-7.1545960948
 10
-6.0836956265
 20
-7.120118777
 10
-6.1730170795
 20
-7.079641538
 10
-6.2598869151
 20
-7.033239618
 10
-6.3431957783
 20
-6.9815034424
 10
-6.4228984711
 20
-6.9243638139
 10
-6.4990401913
 20
-6.8618899297
 10
-6.570647178
 20
-6.7948798075
 10
-6.637661397
 20
-6.7232745003
 10
-6.7001408823
 20
-6.6471329551
 10
-6.7572859754
 20
-6.5674300301
 10
-6.8090270002
 20
-6.4841208495
 10
-6.8554336327
 20
-6.397250289
 10
-6.8959152428
 20
-6.3079278352
 10
-6.93039649
 20
-6.2160934333
 10
-6.9589527148
 20
-6.1218071379
 10
-6.9812193084
 20
-6.0263585995
 10
-6.9970747345
 20
-5.9301777015
 10
-7.0066405295
 20
-5.8328345605
 10
-7.0099166932
 20
-5.7343291764
  0
LINE
  5
41C
100
AcDbEntity
  8
RACCORDO
100
AcDbLine
 62
253
  6
CONTINUOUS
 10
-16.8468750483
 20
0.0211205629
 11
-16.7016508357
 21
-0.0627246754
  0
LINE
  5
41D
100
AcDbEntity
  8
RACCORDO
100
AcDbLine
 62
253
  6
CONTINUOUS
 10
-18.9617698659
 20
1.5615103228
 11
-18.7885909094
 21
1.4615259841
  0
LINE
  5
41E
100
AcDbEntity
  8
RACCORDO
100
AcDbLine
 62
253
  6
CONTINUOUS
 10
-16.6736963475
 20
0.3210748714
 11
-16.5284721349
 21
0.2372296332
  0
LINE
  5
41F
100
AcDbEntity
  8
RACCORDO
100
AcDbLine
 62
253
  6
CONTINUOUS
 10
-16.9038025698
 20
0.8873210161
 11
-17.0104097368
 21
0.9488706927
  0
LINE
  5
420
100
AcDbEntity
  8
RACCORDO
100
AcDbLine
 62
253
  6
CONTINUOUS
 10
-16.730623869
 20
1.1872753246
 11
-16.8372261626
 21
1.2488221876
  0
LINE
  5
421
100
AcDbEntity
  8
RACCORDO
100
AcDbLine
 62
253
  6
CONTINUOUS
 10
-1.8416282601
 20
-7.7340245667
 11
-1.8238794163
 21
-7.7516319481
  0
LINE
  5
422
100
AcDbEntity
  8
0
100
AcDbLine
 62
253
  6
CONTINUOUS
 10
-23.8757855131
 20
13.1
 11
-23.9814298013
 21
13.2056442882
  0
LINE
  5
423
100
AcDbEntity
  8
0
100
AcDbLine
 62
253
  6
CONTINUOUS
 10
-23.6758159741
 20
13.299969539
 11
-23.7814602623
 21
13.4056138273
  0
LWPOLYLINE
  5
424
100
AcDbEntity
  8
0
100
AcDbPolyline
 62
253
  6
CONTINUOUS
 90
11
 70
0
 10
-24.8702021468
 20
28.9943557118
 10
-24.8686766971
 20
28.9912710928
 10
-24.8670914592
 20
28.98494872
 10
-24.8654464331
 20
28.974993171
 10
-24.8637387711
 20
28.9610058328
 10
-24.8619713209
 20
28.9425668138
 10
-24.8601526261
 20
28.9192179885
 10
-24.8582804927
 20
28.8905115041
 10
-24.8563571147
 20
28.856000861
 10
-24.8543976181
 20
28.8151936608
 10
-24.8523993061
 20
28.767626225
  0
LINE
  5
425
100
AcDbEntity
  8
0
100
AcDbLine
 62
253
  6
CONTINUOUS
 10
-6.100443376
 20
42.3754944327
 11
-6.100443376
 21
41.0127246754
  0
LINE
  5
426
100
AcDbEntity
  8
0
100
AcDbLine
 62
7
  6
CONTINUOUS
 10
-5.8958159741
 20
-7.7168550756
 11
-5.8958159741
 21
-31.9
  0
LINE
  5
427
100
AcDbEntity
  8
0
100
AcDbLine
 62
7
  6
CONTINUOUS
 10
-5.8958159741
 20
-32.9
 11
-5.8958159741
 21
-42.9
  0
LINE
  5
428
100
AcDbEntity
  8
0
100
AcDbLine
 62
253
  6
CONTINUOUS
 10
-5.8006261279
 20
42.3754944327
 11
-5.8006261279
 21
41.0177784429
  0
LINE
  5
429
100
AcDbEntity
  8
0
100
AcDbLine
 62
7
  6
CONTINUOUS
 10
-5.7758159741
 20
42.4003045865
 11
-5.7758159741
 21
41.0301797403
  0
LINE
  5
42A
100
AcDbEntity
  8
RACCORDO
100
AcDbLine
 62
253
  6
CONTINUOUS
 10
-5.5101451505
 20
-7.7340245667
 11
-5.5101451505
 21
-7.2341007192
  0
LINE
  5
42B
100
AcDbEntity
  8
0
100
AcDbLine
 62
7
  6
CONTINUOUS
 10
-5.4558159741
 20
-7.7516319481
 11
-5.4558159741
 21
-31.9
  0
LINE
  5
42C
100
AcDbEntity
  8
0
100
AcDbLine
 62
7
  6
CONTINUOUS
 10
-5.4558159741
 20
-32.9
 11
-5.4558159741
 21
-42.9
  0
LINE
  5
42D
100
AcDbEntity
  8
0
100
AcDbLine
 62
7
  6
CONTINUOUS
 10
-5.0658159741
 20
-32.9
 11
-5.0658159741
 21
-31.9
  0
LINE
  5
42E
100
AcDbEntity
  8
0
100
AcDbLine
 62
7
  6
CONTINUOUS
 10
-4.2858159741
 20
-32.9
 11
-4.2858159741
 21
-31.9
  0
LINE
  5
42F
100
AcDbEntity
  8
0
100
AcDbLine
 62
7
  6
CONTINUOUS
 10
-3.8958159741
 20
-1.9427502263
 11
-3.8958159741
 21
-4.8572497737
  0
LINE
  5
430
100
AcDbEntity
  8
0
100
AcDbLine
 62
7
  6
CONTINUOUS
 10
-3.8958159741
 20
-7.7516319481
 11
-3.8958159741
 21
-31.9
  0
LINE
  5
431
100
AcDbEntity
  8
0
100
AcDbLine
 62
7
  6
CONTINUOUS
 10
-3.8958159741
 20
-32.9
 11
-3.8958159741
 21
-42.9
  0
LINE
  5
432
100
AcDbEntity
  8
0
100
AcDbLine
 62
7
  6
CONTINUOUS
 10
-3.4558159741
 20
-1.9427502263
 11
-3.4558159741
 21
-4.8572497737
  0
LINE
  5
433
100
AcDbEntity
  8
0
100
AcDbLine
 62
7
  6
CONTINUOUS
 10
-3.4558159741
 20
-7.7516319481
 11
-3.4558159741
 21
-31.9
  0
LINE
  5
434
100
AcDbEntity
  8
0
100
AcDbLine
 62
7
  6
CONTINUOUS
 10
-3.4558159741
 20
-32.9
 11
-3.4558159741
 21
-42.9
  0
LINE
  5
435
100
AcDbEntity
  8
0
100
AcDbLine
 62
7
  6
CONTINUOUS
 10
-3.0658159741
 20
-32.9
 11
-3.0658159741
 21
-31.9
  0
LINE
  5
436
100
AcDbEntity
  8
RACCORDO
100
AcDbLine
 62
7
  6
CONTINUOUS
 10
17.7358836316
 20
26.0116996057
 11
17.8241840259
 21
26.1
  0
LINE
  5
437
100
AcDbEntity
  8
DRAFT
100
AcDbLine
 62
7
  6
CONTINUOUS
 10
12.7596002857
 20
18.5354162598
 11
12.7369087013
 21
18.5127246754
  0
LINE
  5
438
100
AcDbEntity
  8
RACCORDO
100
AcDbLine
 62
253
  6
CONTINUOUS
 10
-7.5098405408
 20
-5.7343291764
 11
-7.0099166932
 21
-5.7343291764
  0
LINE
  5
439
100
AcDbEntity
  8
RACCORDO
100
AcDbLine
 62
253
  6
CONTINUOUS
 10
0.1582085927
 20
-5.7343291764
 11
-0.3417152549
 21
-5.7343291764
  0
LINE
  5
43A
100
AcDbEntity
  8
0
100
AcDbLine
 62
7
  6
CONTINUOUS
 10
-13.4610719979
 20
1.1505494334
 11
-13.4910170949
 21
1.1655174201
  0
LINE
  5
43B
100
AcDbEntity
  8
RACCORDO
100
AcDbLine
 62
7
  6
CONTINUOUS
 10
-23.7641163684
 20
16.1883003943
 11
-23.6758159741
 21
16.1
  0
LINE
  5
43C
100
AcDbEntity
  8
RACCORDO
100
AcDbLine
 62
253
  6
CONTINUOUS
 10
0.1582085927
 20
-5.7341867133
 11
0.1758159741
 21
-5.7519365578
  0
LWPOLYLINE
  5
43D
100
AcDbEntity
  8
0
100
AcDbPolyline
 62
253
  6
CONTINUOUS
 90
12
 70
0
 10
-25.0701716858
 20
28.7943861727
 10
-25.0686480051
 20
28.7921472717
 10
-25.0670640917
 20
28.7861320915
 10
-25.0654199454
 20
28.7763406322
 10
-25.063712579
 20
28.7631819949
 10
-25.0619449798
 20
28.7462470786
 10
-25.0601261099
 20
28.7243085795
 10
-25.0582539213
 20
28.6973910559
 10
-25.0563304621
 20
28.6654699497
 10
-25.0543708384
 20
28.6272442829
 10
-25.0523723568
 20
28.5827024387
 10
-25.0503377108
 20
28.5318560339
  0
LINE
  5
43E
100
AcDbEntity
  8
RACCORDO
100
AcDbLine
 62
253
  6
CONTINUOUS
 10
-18.6567911372
 20
39.9195000364
 11
-18.6239540644
 21
39.8246131611
  0
LINE
  5
43F
100
AcDbEntity
  8
RACCORDO
100
AcDbLine
 62
253
  6
CONTINUOUS
 10
-18.6239540644
 20
39.8246131611
 11
-18.5899654461
 21
39.724462847
  0
LINE
  5
440
100
AcDbEntity
  8
RACCORDO
100
AcDbLine
 62
253
  6
CONTINUOUS
 10
-18.5899654461
 20
39.724462847
 11
-18.5366465044
 21
39.5644855229
  0
LINE
  5
441
100
AcDbEntity
  8
RACCORDO
100
AcDbLine
 62
253
  6
CONTINUOUS
 10
-18.5366465044
 20
39.5644855229
 11
-18.4993887987
 21
39.451403456
  0
LINE
  5
442
100
AcDbEntity
  8
0
100
AcDbLine
 62
7
  6
CONTINUOUS
 10
-2.2858159741
 20
-32.9
 11
-2.2858159741
 21
-31.9
  0
LINE
  5
443
100
AcDbEntity
  8
0
100
AcDbLine
 62
7
  6
CONTINUOUS
 10
-1.8958159741
 20
-7.7516319481
 11
-1.8958159741
 21
-31.9
  0
LINE
  5
444
100
AcDbEntity
  8
0
100
AcDbLine
 62
7
  6
CONTINUOUS
 10
-1.8958159741
 20
-32.9
 11
-1.8958159741
 21
-42.9
  0
LINE
  5
445
100
AcDbEntity
  8
RACCORDO
100
AcDbLine
 62
253
  6
CONTINUOUS
 10
-1.8414867976
 20
-7.7340245667
 11
-1.8414867976
 21
-7.2341007192
  0
LINE
  5
446
100
AcDbEntity
  8
0
100
AcDbLine
 62
7
  6
CONTINUOUS
 10
-1.4558159741
 20
-7.7168550766
 11
-1.4558159741
 21
-31.9
  0
LINE
  5
447
100
AcDbEntity
  8
0
100
AcDbLine
 62
7
  6
CONTINUOUS
 10
-1.4558159741
 20
-32.9
 11
-1.4558159741
 21
-42.9
  0
LINE
  5
448
100
AcDbEntity
  8
0
100
AcDbLine
 62
7
  6
CONTINUOUS
 10
-1.0658159741
 20
-32.9
 11
-1.0658159741
 21
-31.9
  0
LINE
  5
449
100
AcDbEntity
  8
RACCORDO
100
AcDbLine
 62
253
  6
CONTINUOUS
 10
-0.3417152549
 20
2.748596544
 11
-0.3417152549
 21
-5.7343291764
  0
LINE
  5
44A
100
AcDbEntity
  8
0
100
AcDbLine
 62
7
  6
CONTINUOUS
 10
-0.2858159741
 20
-32.9
 11
-0.2858159741
 21
-31.9
  0
LINE
  5
44B
100
AcDbEntity
  8
0
100
AcDbLine
 62
7
  6
CONTINUOUS
 10
0.1041840259
 20
-6.2808664802
 11
0.1041840259
 21
-31.9
  0
LINE
  5
44C
100
AcDbEntity
  8
0
100
AcDbLine
 62
7
  6
CONTINUOUS
 10
0.1041840259
 20
-32.9
 11
0.1041840259
 21
-42.9
  0
LINE
  5
44D
100
AcDbEntity
  8
RACCORDO
100
AcDbLine
 62
253
  6
CONTINUOUS
 10
0.1582085927
 20
1.6384292381
 11
0.1582085927
 21
-5.7341867133
  0
LINE
  5
44E
100
AcDbEntity
  8
RACCORDO
100
AcDbLine
 62
7
  6
CONTINUOUS
 10
0.1758159741
 20
1.2483680519
 11
0.1758159741
 21
-5.7519365578
  0
LWPOLYLINE
  5
44F
100
AcDbEntity
  8
RACCORDO
100
AcDbPolyline
 62
253
  6
CONTINUOUS
 90
25
 70
0
 10
0.1582086018
 20
-5.7341867277
 10
0.1539226809
 20
-5.8650477833
 10
0.1410862838
 20
-5.9953292665
 10
0.119757912
 20
-6.1244735023
 10
0.090033863
 20
-6.2519229207
 10
0.0520440248
 20
-6.3771379981
 10
0.0059479069
 20
-6.4995985581
 10
-0.0480592349
 20
-6.618785264
 10
-0.1097442355
 20
-6.7341831982
 10
-0.1788432416
 20
-6.8452988554
 10
-0.2550603255
 20
-6.9516566573
 10
-0.3380691164
 20
-7.0528015721
 10
-0.4275147527
 20
-7.1483012391
 10
-0.5230144201
 20
-7.2377468737
 10
-0.6241593344
 20
-7.3207556623
 10
-0.7305171354
 20
-7.3969727439
 10
-0.8416327914
 20
-7.466071748
 10
-0.9570307242
 20
-7.5277567466
 10
-1.0762174281
 20
-7.5817638865
 10
-1.1986780201
 20
-7.6278600143
 10
-1.3238931302
 20
-7.665849858
 10
-1.4513424741
 20
-7.6955738867
 10
-1.5804864878
 20
-7.7169022291
 10
-1.710767636
 20
-7.7297386187
 10
-1.8416282459
 20
-7.7340245759
  0
LWPOLYLINE
  5
450
100
AcDbEntity
  8
RACCORDO
100
AcDbPolyline
 62
253
  6
CONTINUOUS
 90
25
 70
0
 10
-0.3417152549
 20
-5.7343291764
 10
-0.3449887815
 20
-5.8328156617
 10
-0.3545516936
 20
-5.9301442513
 10
-0.3704039912
 20
-6.0263149451
 10
-0.3926672425
 20
-6.1217589838
 10
-0.4212198793
 20
-6.2160451268
 10
-0.455697197
 20
-6.3078796525
 10
-0.496174436
 20
-6.3972011054
 10
-0.542576356
 20
-6.4840709411
 10
-0.5943125316
 20
-6.5673798043
 10
-0.6514521602
 20
-6.647082497
 10
-0.7139260443
 20
-6.7232242173
 10
-0.7809361665
 20
-6.794831204
 10
-0.8525414737
 20
-6.8618454229
 10
-0.9286830189
 20
-6.9243249082
 10
-1.0083859439
 20
-6.9814700013
 10
-1.0916951246
 20
-7.0332110261
 10
-1.178565685
 20
-7.0796176587
 10
-1.2678881389
 20
-7.1200992688
 10
-1.3597225408
 20
-7.154580516
 10
-1.4540088362
 20
-7.1831367407
 10
-1.5494573746
 20
-7.2054033343
 10
-1.6456382725
 20
-7.2212587605
 10
-1.7429814136
 20
-7.2308245554
 10
-1.8414867976
 20
-7.2341007192
  0
LINE
  5
451
100
AcDbEntity
  8
RACCORDO
100
AcDbLine
 62
253
  6
CONTINUOUS
 10
-7.5098405408
 20
-5.7341877139
 11
-7.5274479222
 21
-5.7519365578
  0
LINE
  5
452
100
AcDbEntity
  8
RACCORDO
100
AcDbLine
 62
7
  6
CONTINUOUS
 10
14.6843911901
 20
18.5439914758
 11
14.7403997143
 21
18.6
  0
LINE
  5
453
100
AcDbEntity
  8
RACCORDO
100
AcDbLine
 62
7
  6
CONTINUOUS
 10
16.4124844203
 20
16.1883003943
 11
16.3241840259
 21
16.1
  0
LINE
  5
454
100
AcDbEntity
  8
0
100
AcDbLine
 62
7
  6
CONTINUOUS
 10
-16.5739027058
 20
-0.0801797403
 11
-19.7777292423
 21
-0.0801797403
  0
LINE
  5
455
100
AcDbEntity
  8
0
100
AcDbLine
 62
7
  6
CONTINUOUS
 10
-16.5913577708
 20
-0.0627246754
 11
-16.7016508357
 21
-0.0627246754
  0
LINE
  5
456
100
AcDbEntity
  8
0
100
AcDbLine
 62
7
  6
CONTINUOUS
 10
-19.6499811124
 20
-0.0627246754
 11
-19.7602741774
 21
-0.0627246754
  0
LINE
  5
457
100
AcDbEntity
  8
RACCORDO
100
AcDbLine
 62
253
  6
CONTINUOUS
 10
-19.5047568999
 20
0.0211205629
 11
-16.8468750483
 21
0.0211205629
  0
LINE
  5
458
100
AcDbEntity
  8
RACCORDO
100
AcDbLine
 62
253
  6
CONTINUOUS
 10
-19.5047568999
 20
0.2210901019
 11
-16.8468750483
 21
0.2210901019
  0
LWPOLYLINE
  5
459
100
AcDbEntity
  8
RACCORDO
100
AcDbPolyline
 62
253
  6
CONTINUOUS
 90
16
 70
0
 10
-19.5144009121
 20
1.2488250012
 10
-19.4865859619
 20
1.2468652159
 10
-19.4593121257
 20
1.2410533338
 10
-19.4331099908
 20
1.2315024198
 10
-19.4084892955
 20
1.2183982779
 10
-19.3859290126
 20
1.2019958371
 10
-19.365868032
 20
1.182614192
 10
-19.3486966215
 20
1.1606303944
 10
-19.3347488348
 20
1.136472119
 10
-19.3242960133
 20
1.1106093426
 10
-19.3175415068
 20
1.0835452016
 10
-19.3146167181
 20
1.055806204
 10
-19.3155785461
 20
1.027931986
 10
-19.3204082793
 20
1.0004648149
 10
-19.3290119599
 20
0.9739390391
 10
-19.3412222111
 20
0.948870693
  0
LWPOLYLINE
  5
45A
100
AcDbEntity
  8
0
100
AcDbPolyline
 62
253
  6
CONTINUOUS
 90
3
 70
0
 10
-20.8084319622
 20
1.1698202597
 10
-20.7916954845
 20
1.1671665031
 10
-20.7603442454
 20
1.1655174201
  0
LINE
  5
45B
100
AcDbEntity
  8
RACCORDO
100
AcDbLine
 62
7
  6
CONTINUOUS
 10
-22.0360231382
 20
18.5439914758
 11
-22.0920316624
 21
18.6
  0
LINE
  5
45C
100
AcDbEntity
  8
DRAFT
100
AcDbLine
 62
7
  6
CONTINUOUS
 10
-20.1112322338
 20
18.5354162598
 11
-20.0885406494
 21
18.5127246754
  0
LINE
  5
45D
100
AcDbEntity
  8
0
100
AcDbLine
 62
7
  6
CONTINUOUS
 10
0.5441840259
 20
1.1698202597
 11
0.5441840259
 21
-31.9
  0
LINE
  5
45E
100
AcDbEntity
  8
0
100
AcDbLine
 62
7
  6
CONTINUOUS
 10
0.5441840259
 20
-32.9
 11
0.5441840259
 21
-42.9
  0
LINE
  5
45F
100
AcDbEntity
  8
0
100
AcDbLine
 62
7
  6
CONTINUOUS
 10
0.9341840259
 20
-32.9
 11
0.9341840259
 21
-31.9
  0
LINE
  5
460
100
AcDbEntity
  8
0
100
AcDbLine
 62
7
  6
CONTINUOUS
 10
1.7141840259
 20
-32.9
 11
1.7141840259
 21
-31.9
  0
LINE
  5
461
100
AcDbEntity
  8
0
100
AcDbLine
 62
7
  6
CONTINUOUS
 10
2.1041840259
 20
1.1698202597
 11
2.1041840259
 21
-31.9
  0
LINE
  5
462
100
AcDbEntity
  8
0
100
AcDbLine
 62
7
  6
CONTINUOUS
 10
2.1041840259
 20
-32.9
 11
2.1041840259
 21
-42.9
  0
LINE
  5
463
100
AcDbEntity
  8
0
100
AcDbLine
 62
7
  6
CONTINUOUS
 10
2.5441840259
 20
1.1698202597
 11
2.5441840259
 21
-31.9
  0
LINE
  5
464
100
AcDbEntity
  8
0
100
AcDbLine
 62
7
  6
CONTINUOUS
 10
2.5441840259
 20
-32.9
 11
2.5441840259
 21
-42.9
  0
LINE
  5
465
100
AcDbEntity
  8
0
100
AcDbLine
 62
7
  6
CONTINUOUS
 10
2.9341840259
 20
-32.9
 11
2.9341840259
 21
-31.9
  0
LINE
  5
466
100
AcDbEntity
  8
0
100
AcDbLine
 62
7
  6
CONTINUOUS
 10
3.7141840259
 20
-32.9
 11
3.7141840259
 21
-31.9
  0
LINE
  5
467
100
AcDbEntity
  8
0
100
AcDbLine
 62
253
  6
CONTINUOUS
 10
16.4298283142
 20
13.4056138273
 11
16.3241840259
 21
13.299969539
  0
LINE
  5
468
100
AcDbEntity
  8
0
100
AcDbLine
 62
253
  6
CONTINUOUS
 10
16.6297978532
 20
13.2056442882
 11
16.524153565
 21
13.1
  0
LINE
  5
469
100
AcDbEntity
  8
RACCORDO
100
AcDbLine
 62
253
  6
CONTINUOUS
 10
-5.5100026874
 20
-7.7340245667
 11
-5.5277525319
 21
-7.7516319481
  0
LINE
  5
46A
100
AcDbEntity
  8
0
100
AcDbLine
 62
7
  6
CONTINUOUS
 10
6.1094400498
 20
1.1505494334
 11
6.1393851467
 21
1.1655174201
  0
LWPOLYLINE
  5
46B
100
AcDbEntity
  8
RACCORDO
100
AcDbPolyline
 62
253
  6
CONTINUOUS
 90
16
 70
0
 10
-16.837231036
 20
1.2488250012
 10
-16.8650448092
 20
1.2468653826
 10
-16.8923175959
 20
1.2410539749
 10
-16.9185188668
 20
1.2315037999
 10
-16.9431388804
 20
1.2184006407
 10
-16.9656987586
 20
1.2019993489
 10
-16.9857597558
 20
1.1826188206
 10
-17.0029315755
 20
1.1606359648
 10
-17.0168800626
 20
1.1364783839
 10
-17.0273338034
 20
1.1106159135
 10
-17.0340893141
 20
1.0835516075
 10
-17.0370150293
 20
1.0558119883
 10
-17.0360539019
 20
1.0279367369
 10
-17.0312245103
 20
1.0004681902
 10
-17.0226206946
 20
0.9739407879
 10
-17.0104097368
 20
0.9488706927
  0
LWPOLYLINE
  5
46C
100
AcDbEntity
  8
RACCORDO
100
AcDbPolyline
 62
253
  6
CONTINUOUS
 90
19
 70
0
 10
-16.8468750483
 20
0.0211205629
 10
-16.8235515431
 20
0.0224985308
 10
-16.8005400358
 20
0.0265905738
 10
-16.7781554271
 20
0.0333430902
 10
-16.7566956914
 20
0.0426704574
 10
-16.7364652318
 20
0.0544448213
 10
-16.7177650202
 20
0.0684877619
 10
-16.7008629442
 20
0.0845827233
 10
-16.6859630333
 20
0.1025184543
 10
-16.6732394803
 20
0.1220850434
 10
-16.6628552269
 20
0.143059706
 10
-16.6549848249
 20
0.1651240714
 10
-16.6497574497
 20
0.1878952932
 10
-16.6472234698
 20
0.211056754
 10
-16.647395609
 20
0.2342926927
 10
-16.650235518
 20
0.2572100525
 10
-16.6556486455
 20
0.279483469
 10
-16.6635181548
 20
0.3008586308
 10
-16.6736963475
 20
0.3210748714
  0
LWPOLYLINE
  5
46D
100
AcDbEntity
  8
0
100
AcDbPolyline
 62
253
  6
CONTINUOUS
 90
3
 70
0
 10
13.4087122973
 20
1.1655174201
 10
13.4400629318
 20
1.1671664395
 10
13.4568000908
 20
1.1698202597
  0
LINE
  5
46E
100
AcDbEntity
  8
RACCORDO
100
AcDbLine
 62
7
  6
CONTINUOUS
 10
14.3244886356
 20
1.1
 11
13.8241840259
 21
1.1
  0
LINE
  5
46F
100
AcDbEntity
  8
0
100
AcDbLine
 62
7
  6
CONTINUOUS
 10
14.3244886356
 20
1.1
 11
6.1041840259
 21
1.1
  0
LINE
  5
470
100
AcDbEntity
  8
0
100
AcDbLine
 62
7
  6
CONTINUOUS
 10
4.5441840259
 20
1.1
 11
4.1041840259
 21
1.1
  0
LINE
  5
471
100
AcDbEntity
  8
0
100
AcDbLine
 62
7
  6
CONTINUOUS
 10
2.5441840259
 20
1.1
 11
2.1041840259
 21
1.1
  0
LINE
  5
472
100
AcDbEntity
  8
0
100
AcDbLine
 62
7
  6
CONTINUOUS
 10
0.5441840259
 20
1.1
 11
0.1758159741
 21
1.1
  0
LINE
  5
473
100
AcDbEntity
  8
0
100
AcDbLine
 62
7
  6
CONTINUOUS
 10
-7.5274479222
 20
1.1
 11
-7.8958159741
 21
1.1
  0
LINE
  5
474
100
AcDbEntity
  8
0
100
AcDbLine
 62
7
  6
CONTINUOUS
 10
-9.4558159741
 20
1.1
 11
-9.8958159741
 21
1.1
  0
LINE
  5
475
100
AcDbEntity
  8
0
100
AcDbLine
 62
7
  6
CONTINUOUS
 10
-11.4558159741
 20
1.1
 11
-11.8958159741
 21
1.1
  0
LINE
  5
476
100
AcDbEntity
  8
0
100
AcDbLine
 62
7
  6
CONTINUOUS
 10
-13.4558159741
 20
1.1
 11
-16.2739483973
 21
1.1
  0
LINE
  5
477
100
AcDbEntity
  8
0
100
AcDbLine
 62
7
  6
CONTINUOUS
 10
-20.0776835508
 20
1.1
 11
-21.6761205837
 21
1.1
  0
LINE
  5
478
100
AcDbEntity
  8
RACCORDO
100
AcDbLine
 62
7
  6
CONTINUOUS
 10
-21.1758159741
 20
1.1
 11
-21.6761205837
 21
1.1
  0
LINE
  5
479
100
AcDbEntity
  8
DRAFT
100
AcDbLine
 62
7
  6
CONTINUOUS
 10
-11.8958159741
 20
1.1405715568
 11
-11.4558159741
 21
1.1405715568
  0
LINE
  5
47A
100
AcDbEntity
  8
DRAFT
100
AcDbLine
 62
7
  6
CONTINUOUS
 10
-9.8958159741
 20
1.1405715568
 11
-9.4558159741
 21
1.1405715568
  0
LINE
  5
47B
100
AcDbEntity
  8
DRAFT
100
AcDbLine
 62
7
  6
CONTINUOUS
 10
-7.8958159741
 20
1.1405715568
 11
-7.5274479222
 21
1.1405715568
  0
LINE
  5
47C
100
AcDbEntity
  8
DRAFT
100
AcDbLine
 62
7
  6
CONTINUOUS
 10
0.1758159741
 20
1.1405715568
 11
0.5441840259
 21
1.1405715568
  0
LINE
  5
47D
100
AcDbEntity
  8
DRAFT
100
AcDbLine
 62
7
  6
CONTINUOUS
 10
2.1041840259
 20
1.1405715568
 11
2.5441840259
 21
1.1405715568
  0
LINE
  5
47E
100
AcDbEntity
  8
DRAFT
100
AcDbLine
 62
7
  6
CONTINUOUS
 10
4.1041840259
 20
1.1405715568
 11
4.5441840259
 21
1.1405715568
  0
LINE
  5
47F
100
AcDbEntity
  8
0
100
AcDbLine
 62
253
  6
CONTINUOUS
 10
-20.7603442454
 20
1.1655174201
 11
-20.0776835508
 21
1.1655174201
  0
LINE
  5
480
100
AcDbEntity
  8
0
100
AcDbLine
 62
253
  6
CONTINUOUS
 10
-16.2739483973
 20
1.1655174201
 11
-13.4910170949
 21
1.1655174201
  0
LINE
  5
481
100
AcDbEntity
  8
0
100
AcDbLine
 62
253
  6
CONTINUOUS
 10
6.1393851467
 20
1.1655174201
 11
13.4087122973
 21
1.1655174201
  0
LINE
  5
482
100
AcDbEntity
  8
DRAFT
100
AcDbLine
 62
7
  6
CONTINUOUS
 10
-16.2739483973
 20
1.1698202597
 11
-7.6059957143
 21
1.1698202597
  0
LINE
  5
483
100
AcDbEntity
  8
RACCORDO
100
AcDbLine
 62
7
  6
CONTINUOUS
 10
0.2543637662
 20
1.1698202597
 11
13.5578243136
 21
1.1698202597
  0
LINE
  5
484
100
AcDbEntity
  8
RACCORDO
100
AcDbLine
 62
7
  6
CONTINUOUS
 10
-20.0776835508
 20
1.1698202597
 11
-20.9094562617
 21
1.1698202597
  0
LINE
  5
485
100
AcDbEntity
  8
RACCORDO
100
AcDbLine
 62
7
  6
CONTINUOUS
 10
-16.2914034622
 20
1.1872753246
 11
-16.730623869
 21
1.1872753246
  0
LINE
  5
486
100
AcDbEntity
  8
RACCORDO
100
AcDbLine
 62
7
  6
CONTINUOUS
 10
-19.6210080791
 20
1.1872753246
 11
-20.0602284859
 21
1.1872753246
  0
LINE
  5
487
100
AcDbEntity
  8
RACCORDO
100
AcDbLine
 62
253
  6
CONTINUOUS
 10
-21.5272955825
 20
1.2488250012
 11
-19.5144009121
 21
1.2488250012
  0
LINE
  5
488
100
AcDbEntity
  8
RACCORDO
100
AcDbLine
 62
253
  6
CONTINUOUS
 10
14.1755366826
 20
1.2488250012
 11
0.1753590247
 21
1.2488250012
  0
LINE
  5
489
100
AcDbEntity
  8
RACCORDO
100
AcDbLine
 62
253
  6
CONTINUOUS
 10
-7.5269909728
 20
1.2488250012
 11
-16.8372261626
 21
1.2488221876
  0
LINE
  5
48A
100
AcDbEntity
  8
RACCORDO
100
AcDbLine
 62
253
  6
CONTINUOUS
 10
-21.5272955825
 20
2.748596544
 11
-18.4993901646
 21
2.7485822382
  0
LINE
  5
48B
100
AcDbEntity
  8
RACCORDO
100
AcDbLine
 62
253
  6
CONTINUOUS
 10
-0.3417152549
 20
2.748596544
 11
14.1756636344
 21
2.748596544
  0
LINE
  5
48C
100
AcDbEntity
  8
RACCORDO
100
AcDbLine
 62
253
  6
CONTINUOUS
 10
-17.8522428097
 20
2.7485929858
 11
-7.0099166932
 21
2.748596544
  0
LINE
  5
48D
100
AcDbEntity
  8
RACCORDO
100
AcDbLine
 62
253
  6
CONTINUOUS
 10
16.1753590247
 20
3.2485203915
 11
14.675587482
 21
3.2485203915
  0
LINE
  5
48E
100
AcDbEntity
  8
RACCORDO
100
AcDbLine
 62
253
  6
CONTINUOUS
 10
-22.0272194301
 20
3.2485203915
 11
-23.5269909728
 21
3.2485203923
  0
LINE
  5
48F
100
AcDbEntity
  8
RACCORDO
100
AcDbLine
 62
7
  6
CONTINUOUS
 10
-20.9686774937
 20
3.3147346039
 11
13.6170455456
 21
3.3147346039
  0
LINE
  5
490
100
AcDbEntity
  8
RACCORDO
100
AcDbLine
 62
7
  6
CONTINUOUS
 10
-20.9334120975
 20
3.35
 11
13.5817801494
 21
3.35
  0
LINE
  5
491
100
AcDbEntity
  8
RACCORDO
100
AcDbLine
 62
7
  6
CONTINUOUS
 10
-25.0875155797
 20
26.0116996057
 11
-25.1758159741
 21
26.1
  0
LINE
  5
492
100
AcDbEntity
  8
RACCORDO
100
AcDbLine
 62
7
  6
CONTINUOUS
 10
0.1753590247
 20
1.2488250012
 11
0.1758159741
 21
1.2483680519
  0
LINE
  5
493
100
AcDbEntity
  8
DRAFT
100
AcDbLine
 62
7
  6
CONTINUOUS
 10
0.2543637662
 20
1.1698202597
 11
0.1758159741
 21
1.2483680519
  0
LINE
  5
494
100
AcDbEntity
  8
RACCORDO
100
AcDbLine
 62
7
  6
CONTINUOUS
 10
-22.1826570442
 20
23.6906253818
 11
-22.0920316624
 21
23.6
  0
LINE
  5
495
100
AcDbEntity
  8
DRAFT
100
AcDbLine
 62
7
  6
CONTINUOUS
 10
-23.6758159741
 20
25.85
 11
-23.6334588958
 21
25.8076429217
  0
LINE
  5
496
100
AcDbEntity
  8
RACCORDO
100
AcDbLine
 62
7
  6
CONTINUOUS
 10
-23.5849582466
 20
25.7591422725
 11
-23.6334588958
 21
25.8076429217
  0
LINE
  5
497
100
AcDbEntity
  8
0
100
AcDbLine
 62
253
  6
CONTINUOUS
 10
-25.1758159741
 20
28.900030461
 11
-25.0701716858
 21
28.7943861727
  0
LINE
  5
498
100
AcDbEntity
  8
0
100
AcDbLine
 62
253
  6
CONTINUOUS
 10
-24.975846435
 20
29.1
 11
-24.8702021468
 21
28.9943557118
  0
LINE
  5
499
100
AcDbEntity
  8
RACCORDO
100
AcDbLine
 62
7
  6
CONTINUOUS
 10
-0.3417152549
 20
2.748596544
 11
-0.2240190313
 21
2.5438013554
  0
LWPOLYLINE
  5
49A
100
AcDbEntity
  8
RACCORDO
100
AcDbPolyline
 62
253
  6
CONTINUOUS
 90
13
 70
0
 10
-18.9617632626
 20
40.6384922865
 10
-18.9368660665
 20
40.5943643524
 10
-18.9119989809
 20
40.5473695737
 10
-18.8871486234
 20
40.4975111455
 10
-18.8623004641
 20
40.4448406664
 10
-18.8373993677
 20
40.3893636994
 10
-18.8123757632
 20
40.3309964234
 10
-18.7872057835
 20
40.2697754342
 10
-18.7618300754
 20
40.2057043436
 10
-18.7361420231
 20
40.138631165
 10
-18.7100892535
 20
40.0685162561
 10
-18.6836522007
 20
39.9954560205
 10
-18.6567890442
 20
39.9195003283
  0
LWPOLYLINE
  5
49B
100
AcDbEntity
  8
RACCORDO
100
AcDbPolyline
 62
7
  6
CONTINUOUS
 90
20
 70
0
 10
-0.2240190313
 20
2.5438013554
 10
-0.1679813911
 20
2.4444723697
 10
-0.1407454727
 20
2.3954577955
 10
-0.1141640657
 20
2.3468871922
 10
-0.0881801245
 20
2.2987350766
 10
-0.0629133047
 20
2.2509982547
 10
-0.0384646265
 20
2.2036799205
 10
-0.0147861421
 20
2.1567641734
 10
0.0079863871
 20
2.1102123651
 10
0.029709116
 20
2.0640631439
 10
0.0503631708
 20
2.0184165538
 10
0.0697661464
 20
1.9732402859
 10
0.0877415637
 20
1.928566649
 10
0.1042066333
 20
1.8845926147
 10
0.118921797
 20
1.8412877202
 10
0.1316626991
 20
1.7986824282
 10
0.1422650223
 20
1.757065098
 10
0.1504428991
 20
1.7165318495
 10
0.1558585774
 20
1.6769865629
 10
0.1582085927
 20
1.6384292381
  0
LINE
  5
49C
100
AcDbEntity
  8
0
100
AcDbLine
 62
7
  6
CONTINUOUS
 10
4.1041840259
 20
1.1698202597
 11
4.1041840259
 21
-31.9
  0
LINE
  5
49D
100
AcDbEntity
  8
0
100
AcDbLine
 62
7
  6
CONTINUOUS
 10
4.1041840259
 20
-32.9
 11
4.1041840259
 21
-42.9
  0
LINE
  5
49E
100
AcDbEntity
  8
ASSI
100
AcDbLine
 62
7
  6
CONTINUOUS
 10
4.5441840259
 20
1.1698202597
 11
4.5441840259
 21
-31.9
  0
LINE
  5
49F
100
AcDbEntity
  8
ASSI
100
AcDbLine
 62
7
  6
CONTINUOUS
 10
4.5441840259
 20
-32.9
 11
4.5441840259
 21
-42.9
  0
LINE
  5
4A0
100
AcDbEntity
  8
ASSI
100
AcDbLine
 62
7
  6
CONTINUOUS
 10
4.9341840259
 20
-32.9
 11
4.9341840259
 21
-31.9
  0
LINE
  5
4A1
100
AcDbEntity
  8
ASSI
100
AcDbLine
 62
7
  6
CONTINUOUS
 10
5.7141840259
 20
-32.9
 11
5.7141840259
 21
-31.9
  0
LINE
  5
4A2
100
AcDbEntity
  8
ASSI
100
AcDbLine
 62
7
  6
CONTINUOUS
 10
6.1041840259
 20
1.1698202597
 11
6.1041840259
 21
-31.9
  0
LINE
  5
4A3
100
AcDbEntity
  8
ASSI
100
AcDbLine
 62
7
  6
CONTINUOUS
 10
6.1041840259
 20
-32.9
 11
6.1041840259
 21
-42.9
  0
LINE
  5
4A4
100
AcDbEntity
  8
DRAFT
100
AcDbLine
 62
253
  6
CONTINUOUS
 10
6.1094400498
 20
1.1505494334
 11
6.1098438211
 21
1.1698202597
  0
LINE
  5
4A5
100
AcDbEntity
  8
RACCORDO
100
AcDbLine
 62
253
  6
CONTINUOUS
 10
-19.313522084
 20
40.6736604259
 11
-19.2306340739
 21
40.5521606676
  0
LINE
  5
4A6
100
AcDbEntity
  8
RACCORDO
100
AcDbLine
 62
253
  6
CONTINUOUS
 10
-19.2306340739
 20
40.5521606676
 11
-19.1339138842
 21
40.4091963086
  0
LINE
  5
4A7
100
AcDbEntity
  8
RACCORDO
100
AcDbLine
 62
253
  6
CONTINUOUS
 10
-19.1339138842
 20
40.4091963086
 11
-18.9648216319
 21
40.1567606013
  0
LWPOLYLINE
  5
4A8
100
AcDbEntity
  8
RACCORDO
100
AcDbPolyline
 62
253
  6
CONTINUOUS
 90
4
 70
0
 10
-18.9648216319
 20
40.1567606013
 10
-18.7050874884
 20
39.764614104
 10
-18.6373802233
 20
39.6611008511
 10
-18.4993910156
 20
39.4514068628
  0
LINE
  5
4A9
100
AcDbEntity
  8
RACCORDO
100
AcDbLine
 62
253
  6
CONTINUOUS
 10
-19.2249762859
 20
41.0750731271
 11
-19.1652725509
 21
40.977628554
  0
LINE
  5
4AA
100
AcDbEntity
  8
RACCORDO
100
AcDbLine
 62
253
  6
CONTINUOUS
 10
-19.1652725509
 20
40.977628554
 11
-19.0929922976
 21
40.8581083859
  0
LINE
  5
4AB
100
AcDbEntity
  8
RACCORDO
100
AcDbLine
 62
253
  6
CONTINUOUS
 10
-19.0929922976
 20
40.8581083859
 11
-18.9618108067
 21
40.6385605931
  0
LINE
  5
4AC
100
AcDbEntity
  8
RACCORDO
100
AcDbLine
 62
7
  6
CONTINUOUS
 10
-19.8231598132
 20
41.9627703668
 11
-19.4478293783
 21
41.3126789839
  0
LINE
  5
4AD
100
AcDbEntity
  8
RACCORDO
100
AcDbLine
 62
253
  6
CONTINUOUS
 10
-18.9618108067
 20
40.6385605931
 11
-19.6779356006
 21
41.8789251286
  0
LINE
  5
4AE
100
AcDbEntity
  8
RACCORDO
100
AcDbLine
 62
253
  6
CONTINUOUS
 10
-18.7885841863
 20
40.7384623713
 11
-19.5047568999
 21
41.9789098981
  0
LINE
  5
4AF
100
AcDbEntity
  8
0
100
AcDbLine
 62
253
  6
CONTINUOUS
 10
13.4087122973
 20
1.1655174201
 11
13.4742297174
 21
1.1
  0
LINE
  5
4B0
100
AcDbEntity
  8
RACCORDO
100
AcDbLine
 62
253
  6
CONTINUOUS
 10
-19.3820221495
 20
40.7727670872
 11
-19.313522084
 21
40.6736604259
  0
LINE
  5
4B1
100
AcDbEntity
  8
DRAFT
100
AcDbLine
 62
7
  6
CONTINUOUS
 10
12.7369087013
 20
23.6872753246
 11
12.7369087013
 21
18.5127246754
  0
LINE
  5
4B2
100
AcDbEntity
  8
DRAFT
100
AcDbLine
 62
7
  6
CONTINUOUS
 10
12.7596002857
 20
23.6645837402
 11
12.7596002857
 21
18.5354162598
  0
LINE
  5
4B3
100
AcDbEntity
  8
RACCORDO
100
AcDbLine
 62
7
  6
CONTINUOUS
 10
12.8241840259
 20
23.6645837402
 11
12.8241840259
 21
18.5354162598
  0
LINE
  5
4B4
100
AcDbEntity
  8
0
100
AcDbLine
 62
253
  6
CONTINUOUS
 10
12.9588727319
 20
23.6645837402
 11
12.9588727319
 21
18.5354162598
  0
LINE
  5
4B5
100
AcDbEntity
  8
0
100
AcDbLine
 62
253
  6
CONTINUOUS
 10
13.1587508973
 20
23.6645837402
 11
13.1587508973
 21
18.5354162598
  0
LINE
  5
4B6
100
AcDbEntity
  8
0
100
AcDbLine
 62
253
  6
CONTINUOUS
 10
13.4087122967
 20
1.1698202597
 11
13.4087122974
 21
1.1655174201
  0
LINE
  5
4B7
100
AcDbEntity
  8
0
100
AcDbLine
 62
253
  6
CONTINUOUS
 10
13.4087122973
 20
41.0301797403
 11
13.4087122973
 21
41.0344825799
  0
LINE
  5
4B8
100
AcDbEntity
  8
0
100
AcDbLine
 62
253
  6
CONTINUOUS
 10
13.5086970669
 20
18.5354162598
 11
13.5086970669
 21
23.6645837402
  0
LINE
  5
4B9
100
AcDbEntity
  8
0
100
AcDbLine
 62
253
  6
CONTINUOUS
 10
13.7086666059
 20
18.5354162598
 11
13.7086666059
 21
23.6645837402
  0
LWPOLYLINE
  5
4BA
100
AcDbEntity
  8
0
100
AcDbPolyline
 62
253
  6
CONTINUOUS
 90
13
 70
0
 10
17.5185701987
 20
13.2056442882
 10
17.5446664796
 20
13.207362348
 10
17.5703164107
 20
13.2124712432
 10
17.5950812837
 20
13.2208835904
 10
17.6185375298
 20
13.2324555056
 10
17.6402839602
 20
13.2469890637
 10
17.6599486284
 20
13.2642356815
 10
17.6771951991
 20
13.2839003744
 10
17.6917286969
 20
13.3056468018
 10
17.7033005488
 20
13.3291030156
 10
17.7117128393
 20
13.3538678262
 10
17.7168216936
 20
13.3795176651
 10
17.7185397377
 20
13.4056138273
  0
LWPOLYLINE
  5
4BB
100
AcDbEntity
  8
0
100
AcDbPolyline
 62
7
  6
CONTINUOUS
 90
13
 70
0
 10
17.6242144869
 20
13.1
 10
17.6503166138
 20
13.1017102642
 10
17.675971792
 20
13.1068124405
 10
17.7007413134
 20
13.1152194218
 10
17.7242017703
 20
13.1267876629
 10
17.7459515762
 20
13.14131945
 10
17.7656179982
 20
13.1585660278
 10
17.7828645759
 20
13.1782324498
 10
17.7973963631
 20
13.1999822556
 10
17.8089646042
 20
13.2234427125
 10
17.8173715854
 20
13.2482122339
 10
17.8224737618
 20
13.2738674122
 10
17.8241840259
 20
13.299969539
  0
LINE
  5
4BC
100
AcDbEntity
  8
0
100
AcDbLine
 62
7
  6
CONTINUOUS
 10
17.6242144869
 20
13.1
 11
16.524153565
 21
13.1
  0
LINE
  5
4BD
100
AcDbEntity
  8
0
100
AcDbLine
 62
7
  6
CONTINUOUS
 10
-23.8757855131
 20
13.1
 11
-24.975846435
 21
13.1
  0
LINE
  5
4BE
100
AcDbEntity
  8
0
100
AcDbLine
 62
253
  6
CONTINUOUS
 10
-24.8702021468
 20
13.2056442882
 11
-23.9814298013
 21
13.2056442882
  0
LINE
  5
4BF
100
AcDbEntity
  8
0
100
AcDbLine
 62
253
  6
CONTINUOUS
 10
16.6297978532
 20
13.2056442882
 11
17.5185701987
 21
13.2056442882
  0
LWPOLYLINE
  5
4C0
100
AcDbEntity
  8
0
100
AcDbPolyline
 62
253
  6
CONTINUOUS
 90
13
 70
0
 10
-24.8702021468
 20
13.2056442882
 10
-24.8962983782
 20
13.2073623415
 10
-24.9219482688
 20
13.2124712191
 10
-24.9467131118
 20
13.2208835406
 10
-24.9701693378
 20
13.2324554247
 10
-24.9919157598
 20
13.2469889498
 10
-25.0115804346
 20
13.2642355395
 10
-25.0288270243
 20
13.2839002143
 10
-25.0433605494
 20
13.3056466363
 10
-25.0549324334
 20
13.3291028623
 10
-25.063344755
 20
13.3538677052
 10
-25.0684536326
 20
13.3795175958
 10
-25.0701716858
 20
13.4056138273
  0
LINE
  5
4C1
100
AcDbEntity
  8
RACCORDO
100
AcDbLine
 62
253
  6
CONTINUOUS
 10
14.3244886356
 20
1.1
 11
14.1755366826
 21
1.2488250012
  0
LINE
  5
4C2
100
AcDbEntity
  8
RACCORDO
100
AcDbLine
 62
7
  6
CONTINUOUS
 10
13.7577938526
 20
1.1663901733
 11
13.8241840259
 21
1.1
  0
LINE
  5
4C3
100
AcDbEntity
  8
RACCORDO
100
AcDbLine
 62
253
  6
CONTINUOUS
 10
-23.6758159741
 20
39.1003046097
 11
-23.5269909728
 21
38.9514796085
  0
LINE
  5
4C4
100
AcDbEntity
  8
RACCORDO
100
AcDbLine
 62
253
  6
CONTINUOUS
 10
-21.4610813702
 20
38.3928615196
 11
-21.4258159741
 21
38.3575961235
  0
LINE
  5
4C5
100
AcDbEntity
  8
RACCORDO
100
AcDbLine
 62
253
  6
CONTINUOUS
 10
13.6170455456
 20
3.3147346039
 11
13.5817801494
 21
3.35
  0
LINE
  5
4C6
100
AcDbEntity
  8
RACCORDO
100
AcDbLine
 62
253
  6
CONTINUOUS
 10
-20.9686774937
 20
38.8852653961
 11
-20.9334120975
 21
38.85
  0
LINE
  5
4C7
100
AcDbEntity
  8
RACCORDO
100
AcDbLine
 62
253
  6
CONTINUOUS
 10
14.1094494221
 20
3.8071384804
 11
14.0741840259
 21
3.8424038765
  0
LWPOLYLINE
  5
4C8
100
AcDbEntity
  8
RACCORDO
100
AcDbPolyline
 62
253
  6
CONTINUOUS
 90
25
 70
0
 10
14.675587482
 20
38.9514796085
 10
14.6744963931
 20
38.9843102572
 10
14.6713082932
 20
39.0167554937
 10
14.6660231822
 20
39.0488153178
 10
14.6586006741
 20
39.0806335597
 10
14.6490811549
 20
39.1120663892
 10
14.6375857826
 20
39.1426823161
 10
14.6240892188
 20
39.1724610927
 10
14.6086168019
 20
39.2014229667
 10
14.5913657047
 20
39.229197191
 10
14.5723124892
 20
39.2557687172
 10
14.5514805934
 20
39.2811525938
 10
14.5291375043
 20
39.305023219
 10
14.5052641865
 20
39.327360545
 10
14.4798796753
 20
39.3481846197
 10
14.453308564
 20
39.3672299851
 10
14.4255356956
 20
39.3844736422
 10
14.3965762271
 20
39.3999385901
 10
14.3668002222
 20
39.4134283681
 10
14.3361856066
 20
39.4249179373
 10
14.3047544547
 20
39.4344323366
 10
14.2729430528
 20
39.4418502225
 10
14.2408968299
 20
39.4471311471
 10
14.2084703571
 20
39.4503155583
 10
14.1756636344
 20
39.451403456
  0
LINE
  5
4C9
100
AcDbEntity
  8
0
100
AcDbLine
 62
253
  6
CONTINUOUS
 10
16.461954257
 20
28.0608006065
 11
16.467355237
 21
27.7275305625
  0
LINE
  5
4CA
100
AcDbEntity
  8
0
100
AcDbLine
 62
253
  6
CONTINUOUS
 10
16.467355237
 20
27.7275305625
 11
16.4726558637
 21
27.2508831688
  0
LINE
  5
4CB
100
AcDbEntity
  8
0
100
AcDbLine
 62
253
  6
CONTINUOUS
 10
16.6673234883
 20
27.8518351416
 11
16.6726237419
 21
27.3408059998
  0
LINE
  5
4CC
100
AcDbEntity
  8
0
100
AcDbLine
 62
253
  6
CONTINUOUS
 10
16.4726558637
 20
27.2508831688
 11
16.476805159
 21
26.5705485835
  0
LINE
  5
4CD
100
AcDbEntity
  8
0
100
AcDbLine
 62
253
  6
CONTINUOUS
 10
16.6726237419
 20
27.3408059998
 11
16.676773862
 21
26.6119165557
  0
LINE
  5
4CE
100
AcDbEntity
  8
RACCORDO
100
AcDbLine
 62
7
  6
CONTINUOUS
 10
13.7759295324
 20
23.6645837402
 11
13.7759295324
 21
18.5354162598
  0
LINE
  5
4CF
100
AcDbEntity
  8
DRAFT
100
AcDbLine
 62
7
  6
CONTINUOUS
 10
13.8241840259
 20
23.6
 11
13.8241840259
 21
18.6
  0
LINE
  5
4D0
100
AcDbEntity
  8
RACCORDO
100
AcDbLine
 62
7
  6
CONTINUOUS
 10
14.0741840259
 20
3.8424038765
 11
14.0741840259
 21
18.5127246754
  0
LINE
  5
4D1
100
AcDbEntity
  8
RACCORDO
100
AcDbLine
 62
7
  6
CONTINUOUS
 10
14.0741840259
 20
23.6872753246
 11
14.0741840259
 21
38.3575961235
  0
LINE
  5
4D2
100
AcDbEntity
  8
RACCORDO
100
AcDbLine
 62
7
  6
CONTINUOUS
 10
14.1094494221
 20
3.8071384804
 11
14.1094494221
 21
18.5092336624
  0
LINE
  5
4D3
100
AcDbEntity
  8
RACCORDO
100
AcDbLine
 62
7
  6
CONTINUOUS
 10
14.1094494221
 20
23.6907663376
 11
14.1094494221
 21
38.3928615196
  0
LINE
  5
4D4
100
AcDbEntity
  8
RACCORDO
100
AcDbLine
 62
253
  6
CONTINUOUS
 10
14.1756636344
 20
1.2488250012
 11
14.1756636344
 21
2.748596544
  0
LINE
  5
4D5
100
AcDbEntity
  8
RACCORDO
100
AcDbLine
 62
253
  6
CONTINUOUS
 10
14.1756636344
 20
39.451403456
 11
14.1756636344
 21
40.9511749988
  0
LINE
  5
4D6
100
AcDbEntity
  8
RACCORDO
100
AcDbLine
 62
253
  6
CONTINUOUS
 10
14.3328353944
 20
23.664181811
 11
14.3328353944
 21
23.6
  0
LINE
  5
4D7
100
AcDbEntity
  8
RACCORDO
100
AcDbLine
 62
253
  6
CONTINUOUS
 10
14.3328353944
 20
18.6
 11
14.3328353944
 21
18.535818189
  0
LINE
  5
4D8
100
AcDbEntity
  8
RACCORDO
100
AcDbLine
 62
253
  6
CONTINUOUS
 10
14.675587482
 20
18.5092336624
 11
14.675587482
 21
3.2485203915
  0
LINE
  5
4D9
100
AcDbEntity
  8
RACCORDO
100
AcDbLine
 62
253
  6
CONTINUOUS
 10
14.675587482
 20
23.6907663376
 11
14.675587482
 21
30.7658992808
  0
LINE
  5
4DA
100
AcDbEntity
  8
RACCORDO
100
AcDbLine
 62
253
  6
CONTINUOUS
 10
14.675587482
 20
37.4341007192
 11
14.675587482
 21
38.9514796085
  0
LINE
  5
4DB
100
AcDbEntity
  8
DRAFT
100
AcDbLine
 62
7
  6
CONTINUOUS
 10
14.7403997143
 20
23.6
 11
14.7403997143
 21
18.6
  0
LINE
  5
4DC
100
AcDbEntity
  8
RACCORDO
100
AcDbLine
 62
7
  6
CONTINUOUS
 10
14.8310250961
 20
18.5093746182
 11
14.8310250961
 21
23.6906253818
  0
LINE
  5
4DD
100
AcDbEntity
  8
RACCORDO
100
AcDbLine
 62
253
  6
CONTINUOUS
 10
16.1753590247
 20
30.2488250012
 11
16.1753590247
 21
3.2486447308
  0
LINE
  5
4DE
100
AcDbEntity
  8
RACCORDO
100
AcDbLine
 62
253
  6
CONTINUOUS
 10
16.1753590247
 20
37.9511749988
 11
16.1753590247
 21
38.9513506098
  0
LINE
  5
4DF
100
AcDbEntity
  8
RACCORDO
100
AcDbLine
 62
7
  6
CONTINUOUS
 10
16.2281811688
 20
25.459187964
 11
16.2281811688
 21
16.740812036
  0
LINE
  5
4E0
100
AcDbEntity
  8
0
100
AcDbLine
 62
7
  6
CONTINUOUS
 10
16.3241840259
 20
39.1003046097
 11
16.3241840259
 21
37.9516319481
  0
LINE
  5
4E1
100
AcDbEntity
  8
0
100
AcDbLine
 62
7
  6
CONTINUOUS
 10
16.3241840259
 20
30.2483680519
 11
16.3241840259
 21
29.299969539
  0
LINE
  5
4E2
100
AcDbEntity
  8
0
100
AcDbLine
 62
7
  6
CONTINUOUS
 10
16.3241840259
 20
12.900030461
 11
16.3241840259
 21
3.0996953903
  0
LINE
  5
4E3
100
AcDbEntity
  8
0
100
AcDbLine
 62
7
  6
CONTINUOUS
 10
16.3241840259
 20
13.299969539
 11
16.3241840259
 21
16.1
  0
LINE
  5
4E4
100
AcDbEntity
  8
DRAFT
100
AcDbLine
 62
7
  6
CONTINUOUS
 10
16.3241840259
 20
16.1
 11
16.3241840259
 21
16.3923570783
  0
LINE
  5
4E5
100
AcDbEntity
  8
RACCORDO
100
AcDbLine
 62
7
  6
CONTINUOUS
 10
16.3241840259
 20
3.0996953903
 11
16.3241840259
 21
16.35
  0
LINE
  5
4E6
100
AcDbEntity
  8
0
100
AcDbLine
 62
7
  6
CONTINUOUS
 10
16.3241840259
 20
26.1
 11
16.3241840259
 21
28.900030461
  0
LINE
  5
4E7
100
AcDbEntity
  8
DRAFT
100
AcDbLine
 62
7
  6
CONTINUOUS
 10
16.3241840259
 20
25.8076429217
 11
16.3241840259
 21
30.1
  0
LINE
  5
4E8
100
AcDbEntity
  8
RACCORDO
100
AcDbLine
 62
7
  6
CONTINUOUS
 10
16.3241840259
 20
38.1
 11
16.3241840259
 21
39.1003046097
  0
LINE
  5
4E9
100
AcDbEntity
  8
RACCORDO
100
AcDbLine
 62
7
  6
CONTINUOUS
 10
16.4210596363
 20
25.5117757581
 11
16.4210596363
 21
16.6882242419
  0
LINE
  5
4EA
100
AcDbEntity
  8
0
100
AcDbLine
 62
253
  6
CONTINUOUS
 10
16.476805159
 20
26.5705485835
 11
16.4778495239
 21
16.2051873737
  0
LINE
  5
4EB
100
AcDbEntity
  8
0
100
AcDbLine
 62
253
  6
CONTINUOUS
 10
16.676773862
 20
26.6119165557
 11
16.6778190629
 21
16.2051873737
  0
LINE
  5
4EC
100
AcDbEntity
  8
0
100
AcDbLine
 62
253
  6
CONTINUOUS
 10
16.6778190629
 20
16.2051873737
 11
16.6763388766
 21
15.4730179129
  0
LINE
  5
4ED
100
AcDbEntity
  8
0
100
AcDbLine
 62
253
  6
CONTINUOUS
 10
16.4778495239
 20
16.2051873737
 11
16.4763703308
 21
15.5220884838
  0
LINE
  5
4EE
100
AcDbEntity
  8
0
100
AcDbLine
 62
253
  6
CONTINUOUS
 10
16.4763703308
 20
15.5220884838
 11
16.4726558636
 21
14.9491168318
  0
LINE
  5
4EF
100
AcDbEntity
  8
0
100
AcDbLine
 62
253
  6
CONTINUOUS
 10
16.6763388766
 20
15.4730179129
 11
16.6715097417
 21
14.7312407421
  0
LINE
  5
4F0
100
AcDbEntity
  8
0
100
AcDbLine
 62
253
  6
CONTINUOUS
 10
16.4726558636
 20
14.9491168318
 11
16.467355237
 21
14.4724694373
  0
LINE
  5
4F1
100
AcDbEntity
  8
0
100
AcDbLine
 62
253
  6
CONTINUOUS
 10
16.6715097417
 20
14.7312407421
 11
16.6656283945
 21
14.2232861172
  0
LINE
  5
4F2
100
AcDbEntity
  8
0
100
AcDbLine
 62
253
  6
CONTINUOUS
 10
16.467355237
 20
14.4724694373
 11
16.461954257
 21
14.1391993937
  0
LINE
  5
4F3
100
AcDbEntity
  8
0
100
AcDbLine
 62
253
  6
CONTINUOUS
 10
16.6656283945
 20
14.2232861172
 11
16.6599148511
 21
13.884736397
  0
LINE
  5
4F4
100
AcDbEntity
  8
0
100
AcDbLine
 62
253
  6
CONTINUOUS
 10
17.484535944
 20
28.0958091711
 11
17.4904893972
 21
28.4126146032
  0
LINE
  5
4F5
100
AcDbEntity
  8
0
100
AcDbLine
 62
253
  6
CONTINUOUS
 10
16.461954257
 20
14.1391993937
 11
16.4579074618
 21
13.9485025943
  0
LINE
  5
4F6
100
AcDbEntity
  8
0
100
AcDbLine
 62
253
  6
CONTINUOUS
 10
16.6599148511
 20
13.884736397
 11
16.6558269359
 21
13.699569103
  0
LINE
  5
4F7
100
AcDbEntity
  8
0
100
AcDbLine
 62
253
  6
CONTINUOUS
 10
17.4904893972
 20
28.4126146032
 11
17.4946198063
 21
28.5796828092
  0
LINE
  5
4F8
100
AcDbEntity
  8
0
100
AcDbLine
 62
253
  6
CONTINUOUS
 10
16.4579074618
 20
13.9485025943
 11
16.4537760769
 21
13.7927598509
  0
LINE
  5
4F9
100
AcDbEntity
  8
0
100
AcDbLine
 62
253
  6
CONTINUOUS
 10
17.6904605901
 20
28.2514974057
 11
17.694591975
 21
28.4072401491
  0
LINE
  5
4FA
100
AcDbEntity
  8
0
100
AcDbLine
 62
253
  6
CONTINUOUS
 10
16.6558269359
 20
13.699569103
 11
16.6516824577
 21
13.5496130142
  0
LWPOLYLINE
  5
4FB
100
AcDbEntity
  8
0
100
AcDbPolyline
 62
253
  6
CONTINUOUS
 90
13
 70
0
 10
17.4946198063
 20
28.5796828092
 10
17.4987329273
 20
28.7128513895
 10
17.500767358
 20
28.767626225
 10
17.5027656701
 20
28.8151936608
 10
17.5047251666
 20
28.856000861
 10
17.5066485445
 20
28.8905115041
 10
17.5085206779
 20
28.9192179885
 10
17.5103393727
 20
28.9425668138
 10
17.512106823
 20
28.9610058328
 10
17.5138144851
 20
28.974993171
 10
17.5154595111
 20
28.98494872
 10
17.517044749
 20
28.9912710928
 10
17.5185701987
 20
28.9943557118
  0
LWPOLYLINE
  5
4FC
100
AcDbEntity
  8
RACCORDO
100
AcDbPolyline
 62
253
  6
CONTINUOUS
 90
25
 70
0
 10
16.1753590502
 20
3.2486447014
 10
16.1710535229
 20
3.1178177889
 10
16.1582005293
 20
2.9875654185
 10
16.1368578888
 20
2.8584451863
 10
16.1071209615
 20
2.7310139835
 10
16.0691191247
 20
2.6058121483
 10
16.0230122977
 20
2.4833620165
 10
15.9689958278
 20
2.3641835406
 10
15.9073024641
 20
2.2487911857
 10
15.8381962413
 20
2.1376788778
 10
15.7619729872
 20
2.0313222309
 10
15.6789590027
 20
1.9301764583
 10
15.5895095711
 20
1.8346744556
 10
15.4940075681
 20
1.7452250243
 10
15.3928617951
 20
1.66221104
 10
15.2865051478
 20
1.5859877861
 10
15.1753928398
 20
1.5168815633
 10
15.0600004848
 20
1.4551881995
 10
14.9408220086
 20
1.4011717295
 10
14.8183719678
 20
1.3550649336
 10
14.693170227
 20
1.317063116
 10
14.565738837
 20
1.2873261385
 10
14.4366180297
 20
1.265983422
 10
14.3063647877
 20
1.2531304086
 10
14.1755367126
 20
1.2488249752
  0
LWPOLYLINE
  5
4FD
100
AcDbEntity
  8
RACCORDO
100
AcDbPolyline
 62
253
  6
CONTINUOUS
 90
25
 70
0
 10
14.675587482
 20
3.2485203915
 10
14.6744956559
 20
3.2156869468
 10
14.671307317
 20
3.1832405386
 10
14.6660224652
 20
3.1511811669
 10
14.658600642
 20
3.1193654986
 10
14.649082306
 20
3.0879368668
 10
14.6375888333
 20
3.0573252706
 10
14.6240950741
 20
3.0275507068
 10
14.6086261782
 20
2.9985931786
 10
14.591378971
 20
2.9708226941
 10
14.5723301816
 20
2.9442542123
 10
14.5515030808
 20
2.9188727741
 10
14.5291643068
 20
2.8950035111
 10
14.5052944838
 20
2.8726661033
 10
14.4799129875
 20
2.8518408706
 10
14.4533445834
 20
2.8327939036
 10
14.4255742052
 20
2.8155483137
 10
14.3966169192
 20
2.8000809895
 10
14.3668426899
 20
2.7865886881
 10
14.3362310534
 20
2.7750965258
 10
14.3048024736
 20
2.7655793863
 10
14.2729883063
 20
2.7581586776
 10
14.2409323365
 20
2.752874869
 10
14.2084907793
 20
2.7496874911
 10
14.1756636344
 20
2.748596544
  0
LWPOLYLINE
  5
4FE
100
AcDbEntity
  8
0
100
AcDbPolyline
 62
253
  6
CONTINUOUS
 90
13
 70
0
 10
16.4537760769
 20
13.7927598509
 10
16.4496622892
 20
13.6681439667
 10
16.4476276432
 20
13.6172975643
 10
16.4456291616
 20
13.5727557206
 10
16.4436695379
 20
13.5345300498
 10
16.4417460787
 20
13.5026089378
 10
16.4398738901
 20
13.475691412
 10
16.4380550202
 20
13.4537529185
 10
16.436287421
 20
13.4368180112
 10
16.4345800546
 20
13.4236593794
 10
16.4329359083
 20
13.4138679198
 10
16.4313519949
 20
13.4078527357
 10
16.4298283142
 20
13.4056138273
  0
LWPOLYLINE
  5
4FF
100
AcDbEntity
  8
0
100
AcDbPolyline
 62
253
  6
CONTINUOUS
 90
13
 70
0
 10
17.694591975
 20
28.4072401491
 10
17.6987057626
 20
28.5318560333
 10
17.7007404087
 20
28.5827024357
 10
17.7027388903
 20
28.6272442794
 10
17.704698514
 20
28.6654699502
 10
17.7066219732
 20
28.6973910622
 10
17.7084941618
 20
28.724308588
 10
17.7103130317
 20
28.7462470815
 10
17.7120806309
 20
28.7631819888
 10
17.7137879973
 20
28.7763406206
 10
17.7154321436
 20
28.7861320802
 10
17.717016057
 20
28.7921472643
 10
17.7185397377
 20
28.7943861727
  0
LWPOLYLINE
  5
500
100
AcDbEntity
  8
0
100
AcDbPolyline
 62
253
  6
CONTINUOUS
 90
12
 70
0
 10
16.6516824577
 20
13.5496130142
 10
16.6476006939
 20
13.432373775
 10
16.6456023818
 20
13.3848063392
 10
16.6436428853
 20
13.343999139
 10
16.6417195074
 20
13.3094884959
 10
16.639847374
 20
13.2807820115
 10
16.6380286792
 20
13.2574331862
 10
16.6362612289
 20
13.2389941672
 10
16.6345535668
 20
13.225006829
 10
16.6329085408
 20
13.21505128
 10
16.6313233029
 20
13.2087289072
 10
16.6297978532
 20
13.2056442882
  0
LWPOLYLINE
  5
501
100
AcDbEntity
  8
0
100
AcDbPolyline
 62
253
  6
CONTINUOUS
 90
13
 70
0
 10
-23.9814298013
 20
13.2056442882
 10
-23.9553335204
 20
13.207362348
 10
-23.9296835893
 20
13.2124712432
 10
-23.9049187163
 20
13.2208835904
 10
-23.8814624702
 20
13.2324555056
 10
-23.8597160398
 20
13.2469890637
 10
-23.8400513716
 20
13.2642356815
 10
-23.8228048009
 20
13.2839003744
 10
-23.8082713031
 20
13.3056468018
 10
-23.7966994512
 20
13.3291030156
 10
-23.7882871607
 20
13.3538678262
 10
-23.7831783064
 20
13.3795176651
 10
-23.7814602623
 20
13.4056138273
  0
LINE
  5
502
100
AcDbEntity
  8
0
100
AcDbLine
 62
7
  6
CONTINUOUS
 10
16.2818269477
 20
16.3923570783
 11
16.4194194276
 21
16.3965169199
  0
LINE
  5
503
100
AcDbEntity
  8
0
100
AcDbLine
 62
253
  6
CONTINUOUS
 10
16.4778495239
 20
16.2051873737
 11
17.670518528
 21
16.2051873737
  0
LINE
  5
504
100
AcDbEntity
  8
0
100
AcDbLine
 62
253
  6
CONTINUOUS
 10
-23.829481472
 20
16.2051873737
 11
-25.0221504761
 21
16.2051873737
  0
LINE
  5
505
100
AcDbEntity
  8
RACCORDO
100
AcDbLine
 62
253
  6
CONTINUOUS
 10
-23.7715467076
 20
16.4408577275
 11
-23.5849582466
 21
16.4408577275
  0
LINE
  5
506
100
AcDbEntity
  8
RACCORDO
100
AcDbLine
 62
253
  6
CONTINUOUS
 10
16.2333262985
 20
16.4408577275
 11
16.4199147594
 21
16.4408577275
  0
LINE
  5
507
100
AcDbEntity
  8
RACCORDO
100
AcDbLine
 62
253
  6
CONTINUOUS
 10
-23.7726915844
 20
16.740812036
 11
-23.5798131169
 21
16.740812036
  0
LINE
  5
508
100
AcDbEntity
  8
RACCORDO
100
AcDbLine
 62
253
  6
CONTINUOUS
 10
16.2281811688
 20
16.740812036
 11
16.4210596363
 21
16.740812036
  0
LINE
  5
509
100
AcDbEntity
  8
0
100
AcDbLine
 62
7
  6
CONTINUOUS
 10
-23.7710513757
 20
16.3965169199
 11
-23.6334588958
 21
16.3923570783
  0
LWPOLYLINE
  5
50A
100
AcDbEntity
  8
0
100
AcDbPolyline
 62
253
  6
CONTINUOUS
 90
13
 70
0
 10
16.6297978532
 20
13.2056442882
 10
16.6037016218
 20
13.2073623415
 10
16.5780517312
 20
13.2124712191
 10
16.5532868882
 20
13.2208835406
 10
16.5298306622
 20
13.2324554247
 10
16.5080842402
 20
13.2469889498
 10
16.4884195654
 20
13.2642355395
 10
16.4711729757
 20
13.2839002143
 10
16.4566394506
 20
13.3056466363
 10
16.4450675666
 20
13.3291028623
 10
16.436655245
 20
13.3538677052
 10
16.4315463674
 20
13.3795175958
 10
16.4298283142
 20
13.4056138273
  0
LWPOLYLINE
  5
50B
100
AcDbEntity
  8
RACCORDO
100
AcDbPolyline
 62
253
  6
CONTINUOUS
 90
9
 70
0
 10
-19.3412222113
 20
41.2511293073
 10
-19.3369914632
 20
41.2470367609
 10
-19.3298435566
 20
41.237871205
 10
-19.3197784916
 20
41.2236326398
 10
-19.3068479146
 20
41.2044136846
 10
-19.2910001792
 20
41.18012172
 10
-19.2720803458
 20
41.1504788877
 10
-19.2500643648
 20
41.1154514412
 10
-19.2249762859
 20
41.0750731271
  0
LINE
  5
50C
100
AcDbEntity
  8
RACCORDO
100
AcDbLine
 62
253
  6
CONTINUOUS
 10
-21.6761205837
 20
41.1
 11
-21.5271665839
 21
40.9511749988
  0
LINE
  5
50D
100
AcDbEntity
  8
RACCORDO
100
AcDbLine
 62
7
  6
CONTINUOUS
 10
-21.1094258008
 20
41.0336098267
 11
-21.1758159741
 21
41.1
  0
LINE
  5
50E
100
AcDbEntity
  8
0
100
AcDbLine
 62
253
  6
CONTINUOUS
 10
-20.7758159741
 20
41.0499543085
 11
-20.8258616655
 21
41.1
  0
LINE
  5
50F
100
AcDbEntity
  8
0
100
AcDbLine
 62
253
  6
CONTINUOUS
 10
-20.7758159741
 20
42.4003045865
 11
-20.7510058202
 21
42.3754944327
  0
LINE
  5
510
100
AcDbEntity
  8
0
100
AcDbLine
 62
253
  6
CONTINUOUS
 10
-20.2761205605
 20
42.9
 11
-20.2513104067
 21
42.8751898462
  0
LINE
  5
511
100
AcDbEntity
  8
RACCORDO
100
AcDbLine
 62
253
  6
CONTINUOUS
 10
16.3241840259
 20
3.0996953903
 11
16.1753590247
 21
3.2486447308
  0
LWPOLYLINE
  5
512
100
AcDbEntity
  8
0
100
AcDbPolyline
 62
7
  6
CONTINUOUS
 90
13
 70
0
 10
17.8241840259
 20
28.900030461
 10
17.8224737618
 20
28.9261325878
 10
17.8173715854
 20
28.9517877661
 10
17.8089646042
 20
28.9765572875
 10
17.7973963631
 20
29.0000177444
 10
17.7828645759
 20
29.0217675502
 10
17.7656179982
 20
29.0414339722
 10
17.7459515762
 20
29.05868055
 10
17.7242017703
 20
29.0732123371
 10
17.7007413134
 20
29.0847805782
 10
17.675971792
 20
29.0931875595
 10
17.6503166138
 20
29.0982897358
 10
17.6242144869
 20
29.1
  0
LWPOLYLINE
  5
513
100
AcDbEntity
  8
RACCORDO
100
AcDbPolyline
 62
253
  6
CONTINUOUS
 90
25
 70
0
 10
16.175359051
 20
38.9513506403
 10
16.1710536928
 20
39.0821796277
 10
16.1582006651
 20
39.2124335531
 10
16.1368578898
 20
39.3415548107
 10
16.1071208738
 20
39.4689863456
 10
16.0691190717
 20
39.5941880097
 10
16.0230123009
 20
39.7166379778
 10
15.9689958313
 20
39.8358164551
 10
15.9073024674
 20
39.9512088121
 10
15.8381962442
 20
40.0623211214
 10
15.7619729896
 20
40.1686777685
 10
15.6789590045
 20
40.2698235408
 10
15.5895095721
 20
40.3653255431
 10
15.4940075682
 20
40.454774974
 10
15.3928617942
 20
40.5377889577
 10
15.2865051455
 20
40.6140122115
 10
15.1753928356
 20
40.6831184349
 10
15.0600004782
 20
40.7448117994
 10
14.9408219999
 20
40.7988282696
 10
14.8183675054
 20
40.8449365766
 10
14.6931611327
 20
40.8829393166
 10
14.565738824
 20
40.9126738587
 10
14.4366459827
 20
40.9340128884
 10
14.3064351427
 20
40.9468649636
 10
14.1756636344
 20
40.9511749988
  0
LINE
  5
514
100
AcDbEntity
  8
0
100
AcDbLine
 62
253
  6
CONTINUOUS
 10
16.6476006939
 20
28.767626225
 11
16.6516824577
 21
28.6503869858
  0
LINE
  5
515
100
AcDbEntity
  8
0
100
AcDbLine
 62
253
  6
CONTINUOUS
 10
17.500767358
 20
13.432373775
 11
17.4966855942
 21
13.5496130142
  0
LINE
  5
516
100
AcDbEntity
  8
0
100
AcDbLine
 62
253
  6
CONTINUOUS
 10
16.4496622892
 20
28.5318560339
 11
16.4537760769
 21
28.4072401481
  0
LINE
  5
517
100
AcDbEntity
  8
0
100
AcDbLine
 62
253
  6
CONTINUOUS
 10
17.6987057626
 20
13.6681439661
 11
17.694591975
 21
13.7927598519
  0
LINE
  5
518
100
AcDbEntity
  8
0
100
AcDbLine
 62
253
  6
CONTINUOUS
 10
16.6516824577
 20
28.6503869858
 11
16.6558269359
 21
28.500430897
  0
LINE
  5
519
100
AcDbEntity
  8
0
100
AcDbLine
 62
253
  6
CONTINUOUS
 10
17.4966855942
 20
13.5496130142
 11
17.492541116
 21
13.699569103
  0
LINE
  5
51A
100
AcDbEntity
  8
0
100
AcDbLine
 62
253
  6
CONTINUOUS
 10
16.4537760769
 20
28.4072401481
 11
16.4579074618
 21
28.2514974059
  0
LINE
  5
51B
100
AcDbEntity
  8
0
100
AcDbLine
 62
253
  6
CONTINUOUS
 10
17.694591975
 20
13.7927598519
 11
17.6904605901
 21
13.9485025941
  0
LINE
  5
51C
100
AcDbEntity
  8
0
100
AcDbLine
 62
253
  6
CONTINUOUS
 10
16.6558269359
 20
28.500430897
 11
16.6599148511
 21
28.315263603
  0
LINE
  5
51D
100
AcDbEntity
  8
0
100
AcDbLine
 62
253
  6
CONTINUOUS
 10
17.492541116
 20
13.699569103
 11
17.4884532008
 21
13.884736397
  0
LINE
  5
51E
100
AcDbEntity
  8
0
100
AcDbLine
 62
253
  6
CONTINUOUS
 10
16.4579074618
 20
28.2514974059
 11
16.461954257
 21
28.0608006065
  0
LINE
  5
51F
100
AcDbEntity
  8
0
100
AcDbLine
 62
253
  6
CONTINUOUS
 10
17.6904605901
 20
13.9485025941
 11
17.6845051264
 21
14.2442781486
  0
LWPOLYLINE
  5
520
100
AcDbEntity
  8
0
100
AcDbPolyline
 62
253
  6
CONTINUOUS
 90
3
 70
0
 10
16.6599148511
 20
28.315263603
 10
16.6656283945
 20
27.9767138828
 10
16.6673234883
 20
27.8518351416
  0
LINE
  5
521
100
AcDbEntity
  8
0
100
AcDbLine
 62
253
  6
CONTINUOUS
 10
17.4884532008
 20
13.884736397
 11
17.4827396574
 21
14.2232861172
  0
LINE
  5
522
100
AcDbEntity
  8
0
100
AcDbLine
 62
253
  6
CONTINUOUS
 10
17.6845051264
 20
14.2442781486
 11
17.6794611824
 21
14.5907098919
  0
LINE
  5
523
100
AcDbEntity
  8
0
100
AcDbLine
 62
253
  6
CONTINUOUS
 10
17.4827396574
 20
14.2232861172
 11
17.4768583102
 21
14.7312407421
  0
LINE
  5
524
100
AcDbEntity
  8
0
100
AcDbLine
 62
253
  6
CONTINUOUS
 10
17.6794611824
 20
14.5907098919
 11
17.674733383
 21
15.0671547124
  0
LINE
  5
525
100
AcDbEntity
  8
0
100
AcDbLine
 62
253
  6
CONTINUOUS
 10
17.4768583102
 20
14.7312407421
 11
17.4720291752
 21
15.4730179129
  0
LINE
  5
526
100
AcDbEntity
  8
0
100
AcDbLine
 62
253
  6
CONTINUOUS
 10
17.674733383
 20
15.0671547124
 11
17.6712133283
 21
15.733703623
  0
LINE
  5
527
100
AcDbEntity
  8
0
100
AcDbLine
 62
253
  6
CONTINUOUS
 10
17.4720291752
 20
15.4730179129
 11
17.470548989
 21
25.9948126263
  0
LINE
  5
528
100
AcDbEntity
  8
0
100
AcDbLine
 62
253
  6
CONTINUOUS
 10
17.6712133283
 20
15.733703623
 11
17.670518528
 21
25.9948126263
  0
LINE
  5
529
100
AcDbEntity
  8
RACCORDO
100
AcDbLine
 62
7
  6
CONTINUOUS
 10
17.7273084156
 20
25.5117757581
 11
17.7273084156
 21
16.6882242419
  0
LINE
  5
52A
100
AcDbEntity
  8
0
100
AcDbLine
 62
7
  6
CONTINUOUS
 10
17.8241840259
 20
28.900030461
 11
17.8241840259
 21
26.1
  0
LINE
  5
52B
100
AcDbEntity
  8
0
100
AcDbLine
 62
7
  6
CONTINUOUS
 10
17.8241840259
 20
16.1
 11
17.8241840259
 21
13.299969539
  0
LINE
  5
52C
100
AcDbEntity
  8
0
100
AcDbLine
 62
253
  6
CONTINUOUS
 10
17.470548989
 20
25.9948126263
 11
17.4720291753
 21
26.7269820871
  0
LINE
  5
52D
100
AcDbEntity
  8
0
100
AcDbLine
 62
253
  6
CONTINUOUS
 10
17.670518528
 20
25.9948126263
 11
17.6719977211
 21
26.6779115162
  0
LINE
  5
52E
100
AcDbEntity
  8
0
100
AcDbLine
 62
253
  6
CONTINUOUS
 10
17.6719977211
 20
26.6779115162
 11
17.6757121882
 21
27.2508831682
  0
LINE
  5
52F
100
AcDbEntity
  8
0
100
AcDbLine
 62
253
  6
CONTINUOUS
 10
17.4720291753
 20
26.7269820871
 11
17.4768583102
 21
27.4687592579
  0
LINE
  5
530
100
AcDbEntity
  8
0
100
AcDbLine
 62
253
  6
CONTINUOUS
 10
17.6757121882
 20
27.2508831682
 11
17.6810128149
 21
27.7275305627
  0
LWPOLYLINE
  5
531
100
AcDbEntity
  8
0
100
AcDbPolyline
 62
253
  6
CONTINUOUS
 90
3
 70
0
 10
17.4768583102
 20
27.4687592579
 10
17.4827396574
 20
27.9767138828
 10
17.484535944
 20
28.0958091711
  0
LINE
  5
532
100
AcDbEntity
  8
0
100
AcDbLine
 62
253
  6
CONTINUOUS
 10
17.6810128149
 20
27.7275305627
 11
17.6864137948
 21
28.0608006063
  0
LINE
  5
533
100
AcDbEntity
  8
0
100
AcDbLine
 62
253
  6
CONTINUOUS
 10
17.6864137948
 20
28.0608006063
 11
17.6904605901
 21
28.2514974057
  0
LINE
  5
534
100
AcDbEntity
  8
RACCORDO
100
AcDbLine
 62
7
  6
CONTINUOUS
 10
14.675587482
 20
18.5092336624
 11
14.1094494221
 21
18.5092336624
  0
LINE
  5
535
100
AcDbEntity
  8
RACCORDO
100
AcDbLine
 62
7
  6
CONTINUOUS
 10
-21.4610813702
 20
18.5092336624
 11
-22.0272194301
 21
18.5092336624
  0
LINE
  5
536
100
AcDbEntity
  8
DRAFT
100
AcDbLine
 62
7
  6
CONTINUOUS
 10
-21.4258159741
 20
18.5127246754
 11
-20.0885406494
 21
18.5127246754
  0
LINE
  5
537
100
AcDbEntity
  8
DRAFT
100
AcDbLine
 62
7
  6
CONTINUOUS
 10
14.0741840259
 20
18.5127246754
 11
12.7369087013
 21
18.5127246754
  0
LINE
  5
538
100
AcDbEntity
  8
RACCORDO
100
AcDbLine
 62
7
  6
CONTINUOUS
 10
-21.5360992906
 20
18.5354162598
 11
-20.1112322338
 21
18.5354162598
  0
LINE
  5
539
100
AcDbEntity
  8
RACCORDO
100
AcDbLine
 62
7
  6
CONTINUOUS
 10
14.1844673425
 20
18.5354162598
 11
12.7596002857
 21
18.5354162598
  0
LINE
  5
53A
100
AcDbEntity
  8
0
100
AcDbLine
 62
7
  6
CONTINUOUS
 10
14.7403997143
 20
18.6
 11
13.8241840259
 21
18.6
  0
LINE
  5
53B
100
AcDbEntity
  8
0
100
AcDbLine
 62
7
  6
CONTINUOUS
 10
-21.1758159741
 20
18.6
 11
-22.0920316624
 21
18.6
  0
LINE
  5
53C
100
AcDbEntity
  8
DRAFT
100
AcDbLine
 62
7
  6
CONTINUOUS
 10
14.0741840259
 20
18.5127246754
 11
14.1094494221
 21
18.5092336624
  0
LWPOLYLINE
  5
53D
100
AcDbEntity
  8
RACCORDO
100
AcDbPolyline
 62
253
  6
CONTINUOUS
 90
9
 70
0
 10
-19.5144009121
 20
40.9511749988
 10
-19.5097337527
 20
40.9470968119
 10
-19.5017070267
 20
40.9378841403
 10
-19.490320734
 20
40.9235100539
 10
-19.475642506
 20
40.9040308372
 10
-19.4576047114
 20
40.8794213716
 10
-19.4360044567
 20
40.8494277647
 10
-19.4107945331
 20
40.813871103
 10
-19.3820221495
 20
40.7727670872
  0
LINE
  5
53E
100
AcDbEntity
  8
RACCORDO
100
AcDbLine
 62
253
  6
CONTINUOUS
 10
23.1585132024
 20
37.9340245667
 11
23.1585132024
 21
37.4341007192
  0
LINE
  5
53F
100
AcDbEntity
  8
RACCORDO
100
AcDbLine
 62
253
  6
CONTINUOUS
 10
23.1585132024
 20
30.2659754333
 11
23.1585132024
 21
30.7658992808
  0
LWPOLYLINE
  5
540
100
AcDbEntity
  8
RACCORDO
100
AcDbPolyline
 62
253
  6
CONTINUOUS
 90
25
 70
0
 10
24.6582847451
 20
32.2656708236
 10
24.6550112185
 20
32.1671843383
 10
24.6454483064
 20
32.0698557487
 10
24.6295960088
 20
31.9736850549
 10
24.6073327575
 20
31.8782410162
 10
24.5787801207
 20
31.7839548732
 10
24.544302803
 20
31.6921203475
 10
24.503825564
 20
31.6027988946
 10
24.457423644
 20
31.5159290589
 10
24.4056874684
 20
31.4326201957
 10
24.3485478398
 20
31.352917503
 10
24.2860739557
 20
31.2767757827
 10
24.2190638335
 20
31.205168796
 10
24.1474585263
 20
31.1381545771
 10
24.0713169811
 20
31.0756750918
 10
23.9916140561
 20
31.0185299987
 10
23.9083048754
 20
30.9667889739
 10
23.821434315
 20
30.9203823413
 10
23.7321118611
 20
30.8799007312
 10
23.6402774592
 20
30.845419484
 10
23.5459911638
 20
30.8168632593
 10
23.4505426254
 20
30.7945966657
 10
23.3543617275
 20
30.7787412395
 10
23.2570185864
 20
30.7691754446
 10
23.1585132024
 20
30.7658992808
  0
LINE
  5
541
100
AcDbEntity
  8
DRAFT
100
AcDbLine
 62
7
  6
CONTINUOUS
 10
-21.4258159741
 20
18.5127246754
 11
-21.4610813702
 21
18.5092336624
  0
LINE
  5
542
100
AcDbEntity
  8
DRAFT
100
AcDbLine
 62
7
  6
CONTINUOUS
 10
14.0741840259
 20
23.6872753246
 11
14.1094494221
 21
23.6907663376
  0
LINE
  5
543
100
AcDbEntity
  8
0
100
AcDbLine
 62
7
  6
CONTINUOUS
 10
14.7403997143
 20
23.6
 11
13.8241840259
 21
23.6
  0
LINE
  5
544
100
AcDbEntity
  8
0
100
AcDbLine
 62
7
  6
CONTINUOUS
 10
-21.1758159741
 20
23.6
 11
-22.0920316624
 21
23.6
  0
LINE
  5
545
100
AcDbEntity
  8
DRAFT
100
AcDbLine
 62
7
  6
CONTINUOUS
 10
-21.4258159741
 20
23.6872753246
 11
-21.4610813702
 21
23.6907663376
  0
LINE
  5
546
100
AcDbEntity
  8
0
100
AcDbLine
 62
253
  6
CONTINUOUS
 10
17.6242144869
 20
13.1
 11
17.5185701987
 21
13.2056442882
  0
LINE
  5
547
100
AcDbEntity
  8
0
100
AcDbLine
 62
253
  6
CONTINUOUS
 10
17.8241840259
 20
13.299969539
 11
17.7185397377
 21
13.4056138273
  0
LINE
  5
548
100
AcDbEntity
  8
RACCORDO
100
AcDbLine
 62
7
  6
CONTINUOUS
 10
16.2333262985
 20
16.4408577275
 11
16.2818269477
 21
16.3923570783
  0
LINE
  5
549
100
AcDbEntity
  8
DRAFT
100
AcDbLine
 62
7
  6
CONTINUOUS
 10
16.3241840259
 20
16.35
 11
16.2818269477
 21
16.3923570783
  0
LINE
  5
54A
100
AcDbEntity
  8
RACCORDO
100
AcDbLine
 62
7
  6
CONTINUOUS
 10
14.7403997143
 20
18.6
 11
14.8310250961
 21
18.5093746182
  0
LWPOLYLINE
  5
54B
100
AcDbEntity
  8
0
100
AcDbPolyline
 62
253
  6
CONTINUOUS
 90
12
 70
0
 10
17.7185397377
 20
13.4056138273
 10
17.717016057
 20
13.4078527283
 10
17.7154321435
 20
13.4138679085
 10
17.7137879973
 20
13.4236593678
 10
17.7120806309
 20
13.4368180051
 10
17.7103130317
 20
13.4537529214
 10
17.7084941618
 20
13.4756914205
 10
17.7066219732
 20
13.5026089441
 10
17.704698514
 20
13.5345300503
 10
17.7027388903
 20
13.5727557171
 10
17.7007404087
 20
13.6172975613
 10
17.6987057626
 20
13.6681439661
  0
LWPOLYLINE
  5
54C
100
AcDbEntity
  8
0
100
AcDbPolyline
 62
253
  6
CONTINUOUS
 90
11
 70
0
 10
17.5185701987
 20
13.2056442882
 10
17.517044749
 20
13.2087289072
 10
17.5154595111
 20
13.21505128
 10
17.513814485
 20
13.225006829
 10
17.512106823
 20
13.2389941672
 10
17.5103393728
 20
13.2574331862
 10
17.508520678
 20
13.2807820115
 10
17.5066485446
 20
13.3094884959
 10
17.5047251666
 20
13.343999139
 10
17.50276567
 20
13.3848063392
 10
17.500767358
 20
13.432373775
  0
LINE
  5
54D
100
AcDbEntity
  8
RACCORDO
100
AcDbLine
 62
253
  6
CONTINUOUS
 10
24.6582847451
 20
35.9343291764
 11
24.6582847451
 21
32.2656708236
  0
LINE
  5
54E
100
AcDbEntity
  8
RACCORDO
100
AcDbLine
 62
253
  6
CONTINUOUS
 10
25.1582085927
 20
35.9341877139
 11
25.1582085927
 21
32.2658132867
  0
LINE
  5
54F
100
AcDbEntity
  8
RACCORDO
100
AcDbLine
 62
7
  6
CONTINUOUS
 10
25.1758159741
 20
35.9519365578
 11
25.1758159741
 21
32.2480634422
  0
LWPOLYLINE
  5
550
100
AcDbEntity
  8
RACCORDO
100
AcDbPolyline
 62
253
  6
CONTINUOUS
 90
25
 70
0
 10
25.1582086018
 20
32.2658132723
 10
25.1539226809
 20
32.1349522167
 10
25.1410862838
 20
32.0046707335
 10
25.119757912
 20
31.8755264977
 10
25.090033863
 20
31.7480770793
 10
25.0520440248
 20
31.6228620019
 10
25.0059479069
 20
31.5004014419
 10
24.9519407651
 20
31.381214736
 10
24.8902557645
 20
31.2658168018
 10
24.8211567584
 20
31.1547011446
 10
24.7449396745
 20
31.0483433427
 10
24.6619308836
 20
30.9471984279
 10
24.5724852473
 20
30.8516987609
 10
24.4769855799
 20
30.7622531263
 10
24.3758406656
 20
30.6792443377
 10
24.2694828646
 20
30.6030272561
 10
24.1583672086
 20
30.533928252
 10
24.0429692758
 20
30.4722432534
 10
23.9237825719
 20
30.4182361135
 10
23.8013219799
 20
30.3721399857
 10
23.6761068698
 20
30.334150142
 10
23.5486575259
 20
30.3044261133
 10
23.4195135122
 20
30.2830977709
 10
23.289232364
 20
30.2702613813
 10
23.1583717541
 20
30.2659754241
  0
LINE
  5
551
100
AcDbEntity
  8
0
100
AcDbLine
 62
7
  6
CONTINUOUS
 10
-23.7710513757
 20
25.8034830801
 11
-23.6334588958
 21
25.8076429217
  0
LINE
  5
552
100
AcDbEntity
  8
RACCORDO
100
AcDbLine
 62
7
  6
CONTINUOUS
 10
-21.5360992906
 20
23.6645837402
 11
-20.1112322338
 21
23.6645837402
  0
LINE
  5
553
100
AcDbEntity
  8
RACCORDO
100
AcDbLine
 62
7
  6
CONTINUOUS
 10
14.1844673425
 20
23.6645837402
 11
12.7596002857
 21
23.6645837402
  0
LINE
  5
554
100
AcDbEntity
  8
DRAFT
100
AcDbLine
 62
7
  6
CONTINUOUS
 10
-21.4258159741
 20
23.6872753246
 11
-20.0885406494
 21
23.6872753246
  0
LINE
  5
555
100
AcDbEntity
  8
DRAFT
100
AcDbLine
 62
7
  6
CONTINUOUS
 10
14.0741840259
 20
23.6872753246
 11
12.7369087013
 21
23.6872753246
  0
LINE
  5
556
100
AcDbEntity
  8
RACCORDO
100
AcDbLine
 62
7
  6
CONTINUOUS
 10
-22.0272194301
 20
23.6907663376
 11
-21.4610813702
 21
23.6907663376
  0
LINE
  5
557
100
AcDbEntity
  8
RACCORDO
100
AcDbLine
 62
7
  6
CONTINUOUS
 10
14.1094494221
 20
23.6907663376
 11
14.675587482
 21
23.6907663376
  0
LINE
  5
558
100
AcDbEntity
  8
RACCORDO
100
AcDbLine
 62
253
  6
CONTINUOUS
 10
16.4210596363
 20
25.459187964
 11
16.2281811688
 21
25.459187964
  0
LINE
  5
559
100
AcDbEntity
  8
RACCORDO
100
AcDbLine
 62
253
  6
CONTINUOUS
 10
-23.5798131169
 20
25.459187964
 11
-23.7726915844
 21
25.459187964
  0
LINE
  5
55A
100
AcDbEntity
  8
RACCORDO
100
AcDbLine
 62
253
  6
CONTINUOUS
 10
16.4199147594
 20
25.7591422725
 11
16.2333262985
 21
25.7591422725
  0
LINE
  5
55B
100
AcDbEntity
  8
RACCORDO
100
AcDbLine
 62
253
  6
CONTINUOUS
 10
-23.5849582466
 20
25.7591422725
 11
-23.7715467076
 21
25.7591422725
  0
LINE
  5
55C
100
AcDbEntity
  8
0
100
AcDbLine
 62
253
  6
CONTINUOUS
 10
16.4778495239
 20
25.9948126263
 11
17.670518528
 21
25.9948126263
  0
LINE
  5
55D
100
AcDbEntity
  8
0
100
AcDbLine
 62
253
  6
CONTINUOUS
 10
-23.829481472
 20
25.9948126263
 11
-25.0221504761
 21
25.9948126263
  0
LINE
  5
55E
100
AcDbEntity
  8
0
100
AcDbLine
 62
7
  6
CONTINUOUS
 10
16.2818269477
 20
25.8076429217
 11
16.4194194276
 21
25.8034830801
  0
LINE
  5
55F
100
AcDbEntity
  8
RACCORDO
100
AcDbLine
 62
253
  6
CONTINUOUS
 10
-19.6210080791
 20
41.0127246754
 11
-19.5144009121
 21
40.9511749988
  0
LINE
  5
560
100
AcDbEntity
  8
RACCORDO
100
AcDbLine
 62
253
  6
CONTINUOUS
 10
-19.4478293783
 20
41.3126789839
 11
-19.3412222113
 21
41.2511293073
  0
LINE
  5
561
100
AcDbEntity
  8
RACCORDO
100
AcDbLine
 62
253
  6
CONTINUOUS
 10
-19.6779356006
 20
41.8789251286
 11
-19.8231598132
 21
41.9627703668
  0
LINE
  5
562
100
AcDbEntity
  8
RACCORDO
100
AcDbLine
 62
253
  6
CONTINUOUS
 10
-17.3898620822
 20
40.6384896772
 11
-17.5630410387
 21
40.7384740159
  0
LINE
  5
563
100
AcDbEntity
  8
RACCORDO
100
AcDbLine
 62
253
  6
CONTINUOUS
 10
-19.5047568999
 20
42.1788794371
 11
-19.6499811124
 21
42.2627246754
  0
LINE
  5
564
100
AcDbEntity
  8
RACCORDO
100
AcDbLine
 62
7
  6
CONTINUOUS
 10
17.7358836316
 20
16.1883003943
 11
17.8241840259
 21
16.1
  0
LINE
  5
565
100
AcDbEntity
  8
DRAFT
100
AcDbLine
 62
7
  6
CONTINUOUS
 10
12.7596002857
 20
23.6645837402
 11
12.7369087013
 21
23.6872753246
  0
LWPOLYLINE
  5
566
100
AcDbEntity
  8
0
100
AcDbPolyline
 62
253
  6
CONTINUOUS
 90
13
 70
0
 10
16.6297978532
 20
28.9943557118
 10
16.6037015723
 20
28.992637652
 10
16.5780516412
 20
28.9875287568
 10
16.5532867682
 20
28.9791164096
 10
16.5298305221
 20
28.9675444944
 10
16.5080840917
 20
28.9530109363
 10
16.4884194235
 20
28.9357643185
 10
16.4711728528
 20
28.9160996256
 10
16.456639355
 20
28.8943531982
 10
16.445067503
 20
28.8708969844
 10
16.4366552126
 20
28.8461321738
 10
16.4315463583
 20
28.8204823349
 10
16.4298283142
 20
28.7943861727
  0
LINE
  5
567
100
AcDbEntity
  8
0
100
AcDbLine
 62
253
  6
CONTINUOUS
 10
17.5185701987
 20
28.9943557118
 11
16.6297978532
 21
28.9943557118
  0
LINE
  5
568
100
AcDbEntity
  8
0
100
AcDbLine
 62
253
  6
CONTINUOUS
 10
-23.9814298013
 20
28.9943557118
 11
-24.8702021468
 21
28.9943557118
  0
LINE
  5
569
100
AcDbEntity
  8
0
100
AcDbLine
 62
7
  6
CONTINUOUS
 10
-24.975846435
 20
29.1
 11
-23.8757855131
 21
29.1
  0
LINE
  5
56A
100
AcDbEntity
  8
0
100
AcDbLine
 62
7
  6
CONTINUOUS
 10
16.524153565
 20
29.1
 11
17.6242144869
 21
29.1
  0
LINE
  5
56B
100
AcDbEntity
  8
RACCORDO
100
AcDbLine
 62
7
  6
CONTINUOUS
 10
23.1761205837
 20
30.2483680519
 11
16.1758159741
 21
30.2483680519
  0
LINE
  5
56C
100
AcDbEntity
  8
RACCORDO
100
AcDbLine
 62
253
  6
CONTINUOUS
 10
23.1583717399
 20
30.2659754333
 11
15.7857547878
 21
30.2659754333
  0
LWPOLYLINE
  5
56D
100
AcDbEntity
  8
0
100
AcDbPolyline
 62
253
  6
CONTINUOUS
 90
13
 70
0
 10
-23.9814298013
 20
28.9943557118
 10
-23.9553335699
 20
28.9926376585
 10
-23.9296836793
 20
28.9875287809
 10
-23.9049188363
 20
28.9791164594
 10
-23.8814626103
 20
28.9675445753
 10
-23.8597161883
 20
28.9530110502
 10
-23.8400515136
 20
28.9357644605
 10
-23.8228049238
 20
28.9160997857
 10
-23.8082713987
 20
28.8943533637
 10
-23.7966995147
 20
28.8708971377
 10
-23.7882871932
 20
28.8461322948
 10
-23.7831783155
 20
28.8204824042
 10
-23.7814602623
 20
28.7943861727
  0
LWPOLYLINE
  5
56E
100
AcDbEntity
  8
0
100
AcDbPolyline
 62
253
  6
CONTINUOUS
 90
13
 70
0
 10
17.5185701987
 20
28.9943557118
 10
17.5446664301
 20
28.9926376585
 10
17.5703163207
 20
28.9875287809
 10
17.5950811637
 20
28.9791164594
 10
17.6185373897
 20
28.9675445753
 10
17.6402838117
 20
28.9530110502
 10
17.6599484864
 20
28.9357644605
 10
17.6771950762
 20
28.9160997857
 10
17.6917286013
 20
28.8943533637
 10
17.7033004853
 20
28.8708971377
 10
17.7117128068
 20
28.8461322948
 10
17.7168216845
 20
28.8204824042
 10
17.7185397377
 20
28.7943861727
  0
LINE
  5
56F
100
AcDbEntity
  8
0
100
AcDbLine
 62
7
  6
CONTINUOUS
 10
-20.7510058202
 20
41.0177784429
 11
-20.7758159741
 21
41.0301797403
  0
LINE
  5
570
100
AcDbEntity
  8
RACCORDO
100
AcDbLine
 62
253
  6
CONTINUOUS
 10
-16.8468750483
 20
41.9789098981
 11
-16.6736963475
 21
41.8789251286
  0
LINE
  5
571
100
AcDbEntity
  8
RACCORDO
100
AcDbLine
 62
7
  6
CONTINUOUS
 10
14.6843911901
 20
23.6560085242
 11
14.7403997143
 21
23.6
  0
LINE
  5
572
100
AcDbEntity
  8
RACCORDO
100
AcDbLine
 62
7
  6
CONTINUOUS
 10
16.4124844203
 20
26.0116996057
 11
16.3241840259
 21
26.1
  0
LWPOLYLINE
  5
573
100
AcDbEntity
  8
0
100
AcDbPolyline
 62
253
  6
CONTINUOUS
 90
12
 70
0
 10
16.4298283142
 20
28.7943861727
 10
16.4313519949
 20
28.7921472717
 10
16.4329359083
 20
28.7861320915
 10
16.4345800546
 20
28.7763406322
 10
16.436287421
 20
28.7631819949
 10
16.4380550202
 20
28.7462470786
 10
16.4398738901
 20
28.7243085795
 10
16.4417460787
 20
28.6973910559
 10
16.4436695379
 20
28.6654699497
 10
16.4456291616
 20
28.6272442829
 10
16.4476276432
 20
28.5827024387
 10
16.4496622892
 20
28.5318560339
  0
LWPOLYLINE
  5
574
100
AcDbEntity
  8
0
100
AcDbPolyline
 62
253
  6
CONTINUOUS
 90
11
 70
0
 10
16.6297978532
 20
28.9943557118
 10
16.6313233029
 20
28.9912710928
 10
16.6329085408
 20
28.98494872
 10
16.6345535669
 20
28.974993171
 10
16.6362612289
 20
28.9610058328
 10
16.6380286791
 20
28.9425668138
 10
16.6398473739
 20
28.9192179885
 10
16.6417195073
 20
28.8905115041
 10
16.6436428853
 20
28.856000861
 10
16.6456023819
 20
28.8151936608
 10
16.6476006939
 20
28.767626225
  0
LWPOLYLINE
  5
575
100
AcDbEntity
  8
0
100
AcDbPolyline
 62
253
  6
CONTINUOUS
 90
13
 70
0
 10
-24.8702021468
 20
28.9943557118
 10
-24.8962984277
 20
28.992637652
 10
-24.9219483588
 20
28.9875287568
 10
-24.9467132318
 20
28.9791164096
 10
-24.9701694779
 20
28.9675444944
 10
-24.9919159083
 20
28.9530109363
 10
-25.0115805765
 20
28.9357643185
 10
-25.0288271472
 20
28.9160996256
 10
-25.043360645
 20
28.8943531982
 10
-25.054932497
 20
28.8708969844
 10
-25.0633447874
 20
28.8461321738
 10
-25.0684536417
 20
28.8204823349
 10
-25.0701716858
 20
28.7943861727
  0
LWPOLYLINE
  5
576
100
AcDbEntity
  8
0
100
AcDbPolyline
 62
7
  6
CONTINUOUS
 90
13
 70
0
 10
-24.975846435
 20
29.1
 10
-25.0019485619
 20
29.0982897358
 10
-25.0276037401
 20
29.0931875595
 10
-25.0523732616
 20
29.0847805782
 10
-25.0758337184
 20
29.0732123371
 10
-25.0975835243
 20
29.05868055
 10
-25.1172499463
 20
29.0414339722
 10
-25.134496524
 20
29.0217675502
 10
-25.1490283112
 20
29.0000177444
 10
-25.1605965523
 20
28.9765572875
 10
-25.1690035335
 20
28.9517877661
 10
-25.1741057099
 20
28.9261325878
 10
-25.1758159741
 20
28.900030461
  0
LINE
  5
577
100
AcDbEntity
  8
RACCORDO
100
AcDbLine
 62
253
  6
CONTINUOUS
 10
23.1585132024
 20
30.7658992808
 11
14.675587482
 21
30.7658992808
  0
LINE
  5
578
100
AcDbEntity
  8
RACCORDO
100
AcDbLine
 62
253
  6
CONTINUOUS
 10
25.1582085927
 20
32.2656708236
 11
24.6582847451
 21
32.2656708236
  0
LWPOLYLINE
  5
579
100
AcDbEntity
  8
RACCORDO
100
AcDbPolyline
 62
7
  6
CONTINUOUS
 90
19
 70
0
 10
15.7857547878
 20
30.2659754333
 10
15.7458414894
 20
30.2684578079
 10
15.7050014553
 20
30.2741888032
 10
15.6632346854
 20
30.2828164169
 10
15.6203380115
 20
30.2939728228
 10
15.5765146017
 20
30.3073183898
 10
15.5323739611
 20
30.3225770085
 10
15.4881778543
 20
30.3393745083
 10
15.4436645167
 20
30.3574797415
 10
15.398658159
 20
30.3769685857
 10
15.3531408292
 20
30.3977138377
 10
15.3071304794
 20
30.4194999614
 10
15.2605051766
 20
30.44241359
 10
15.213146461
 20
30.4664093159
 10
15.1651727923
 20
30.4912943664
 10
15.1168176167
 20
30.5169842877
 10
15.068052188
 20
30.5433810298
 10
15.0189052524
 20
30.5703523312
 10
14.9696964947
 20
30.5977677507
  0
LINE
  5
57A
100
AcDbEntity
  8
0
100
AcDbLine
 62
253
  6
CONTINUOUS
 10
16.3241840259
 20
28.900030461
 11
16.4298283142
 21
28.7943861727
  0
LINE
  5
57B
100
AcDbEntity
  8
0
100
AcDbLine
 62
253
  6
CONTINUOUS
 10
16.524153565
 20
29.1
 11
16.6297978532
 21
28.9943557118
  0
LINE
  5
57C
100
AcDbEntity
  8
RACCORDO
100
AcDbLine
 62
7
  6
CONTINUOUS
 10
16.1753590247
 20
30.2488250012
 11
16.1758159741
 21
30.2483680519
  0
LINE
  5
57D
100
AcDbEntity
  8
DRAFT
100
AcDbLine
 62
7
  6
CONTINUOUS
 10
16.3241840259
 20
30.1
 11
16.1758159741
 21
30.2483680519
  0
LINE
  5
57E
100
AcDbEntity
  8
RACCORDO
100
AcDbLine
 62
253
  6
CONTINUOUS
 10
25.1582085927
 20
35.9343291764
 11
24.6582847451
 21
35.9343291764
  0
LINE
  5
57F
100
AcDbEntity
  8
RACCORDO
100
AcDbLine
 62
7
  6
CONTINUOUS
 10
14.9696964947
 20
30.5977677507
 11
14.8711731233
 21
30.6534490996
  0
LINE
  5
580
100
AcDbEntity
  8
RACCORDO
100
AcDbLine
 62
7
  6
CONTINUOUS
 10
14.8711731233
 20
30.6534490996
 11
14.675587482
 21
30.7658992808
  0
LWPOLYLINE
  5
581
100
AcDbEntity
  8
RACCORDO
100
AcDbPolyline
 62
253
  6
CONTINUOUS
 90
25
 70
0
 10
-21.5272955825
 20
39.451403456
 10
-21.5601262313
 20
39.4503123672
 10
-21.5925714677
 20
39.4471242672
 10
-21.6246312918
 20
39.4418391562
 10
-21.6564495337
 20
39.4344166481
 10
-21.6878823632
 20
39.424897129
 10
-21.7184982902
 20
39.4134017567
 10
-21.7482770667
 20
39.3999051929
 10
-21.7772389407
 20
39.384432776
 10
-21.805013165
 20
39.3671816788
 10
-21.8315846912
 20
39.3481284633
 10
-21.8569685678
 20
39.3272965675
 10
-21.8808391931
 20
39.3049534784
 10
-21.9031765191
 20
39.2810801605
 10
-21.9240005938
 20
39.2556956494
 10
-21.9430459592
 20
39.229124538
 10
-21.9602896163
 20
39.2013516697
 10
-21.9757545641
 20
39.1723922011
 10
-21.9892443421
 20
39.1426161962
 10
-22.0007339113
 20
39.1120015807
 10
-22.0102483106
 20
39.0805704287
 10
-22.0176661966
 20
39.0487590269
 10
-22.0229471212
 20
39.016712804
 10
-22.0261315323
 20
38.9842863312
 10
-22.0272194301
 20
38.9514796085
  0
LINE
  5
582
100
AcDbEntity
  8
RACCORDO
100
AcDbLine
 62
253
  6
CONTINUOUS
 10
14.675587482
 20
37.4341007192
 11
23.1585132024
 21
37.4341007192
  0
LINE
  5
583
100
AcDbEntity
  8
RACCORDO
100
AcDbLine
 62
253
  6
CONTINUOUS
 10
15.7857547878
 20
37.9340245667
 11
23.1583707393
 21
37.9340245667
  0
LINE
  5
584
100
AcDbEntity
  8
RACCORDO
100
AcDbLine
 62
7
  6
CONTINUOUS
 10
16.1758159741
 20
37.9516319481
 11
23.1761205837
 21
37.9516319481
  0
LINE
  5
585
100
AcDbEntity
  8
RACCORDO
100
AcDbLine
 62
7
  6
CONTINUOUS
 10
13.5817801494
 20
38.85
 11
-20.9334120975
 21
38.85
  0
LINE
  5
586
100
AcDbEntity
  8
RACCORDO
100
AcDbLine
 62
7
  6
CONTINUOUS
 10
13.6170455456
 20
38.8852653961
 11
-20.9686774937
 21
38.8852653961
  0
LINE
  5
587
100
AcDbEntity
  8
RACCORDO
100
AcDbLine
 62
253
  6
CONTINUOUS
 10
14.675587482
 20
38.9514796085
 11
16.1753590247
 21
38.9514796077
  0
LINE
  5
588
100
AcDbEntity
  8
RACCORDO
100
AcDbLine
 62
253
  6
CONTINUOUS
 10
-22.0272194301
 20
38.9514796085
 11
-23.5269909728
 21
38.9514796085
  0
LINE
  5
589
100
AcDbEntity
  8
RACCORDO
100
AcDbLine
 62
253
  6
CONTINUOUS
 10
14.1756636344
 20
39.451403456
 11
-17.8522418186
 21
39.4514177618
  0
LINE
  5
58A
100
AcDbEntity
  8
RACCORDO
100
AcDbLine
 62
253
  6
CONTINUOUS
 10
-18.4993891155
 20
39.4514068628
 11
-21.5272955825
 21
39.451403456
  0
LWPOLYLINE
  5
58B
100
AcDbEntity
  8
RACCORDO
100
AcDbPolyline
 62
253
  6
CONTINUOUS
 90
25
 70
0
 10
23.1583707536
 20
37.9340245759
 10
23.2892318092
 20
37.929738655
 10
23.4195132924
 20
37.9169022578
 10
23.5486575283
 20
37.895573886
 10
23.6761069467
 20
37.8658498371
 10
23.8013220241
 20
37.8278599989
 10
23.9237825841
 20
37.7817638809
 10
24.04296929
 20
37.7277567392
 10
24.1583672242
 20
37.6660717386
 10
24.2694828813
 20
37.5969727325
 10
24.3758406832
 20
37.5207556486
 10
24.4769855981
 20
37.4377468577
 10
24.5724852651
 20
37.3483012214
 10
24.6619308997
 20
37.2528015539
 10
24.7449396883
 20
37.1516566397
 10
24.8211567698
 20
37.0452988387
 10
24.8902557739
 20
36.9341831826
 10
24.9519407726
 20
36.8187852499
 10
25.0059479124
 20
36.699598546
 10
25.0520440402
 20
36.577137954
 10
25.090033884
 20
36.4519228438
 10
25.1197579127
 20
36.3244734999
 10
25.141086255
 20
36.1953294862
 10
25.1539226446
 20
36.065048338
 10
25.1582086018
 20
35.9341877282
  0
LWPOLYLINE
  5
58C
100
AcDbEntity
  8
RACCORDO
100
AcDbPolyline
 62
253
  6
CONTINUOUS
 90
25
 70
0
 10
23.1585132024
 20
37.4341007192
 10
23.2569996876
 20
37.4308271925
 10
23.3543282772
 20
37.4212642804
 10
23.4504989711
 20
37.4054119828
 10
23.5459430098
 20
37.3831487315
 10
23.6402291527
 20
37.3545960948
 10
23.7320636784
 20
37.320118777
 10
23.8213851314
 20
37.279641538
 10
23.908254967
 20
37.233239618
 10
23.9915638302
 20
37.1815034424
 10
24.0712665229
 20
37.1243638139
 10
24.1474082432
 20
37.0618899297
 10
24.2190152299
 20
36.9948798075
 10
24.2860294488
 20
36.9232745003
 10
24.3485089342
 20
36.8471329551
 10
24.4056540273
 20
36.7674300301
 10
24.457395052
 20
36.6841208495
 10
24.5038016846
 20
36.597250289
 10
24.5442832947
 20
36.5079278352
 10
24.5787645419
 20
36.4160934333
 10
24.6073207667
 20
36.3218071379
 10
24.6295873603
 20
36.2263585995
 10
24.6454427864
 20
36.1301777015
 10
24.6550085813
 20
36.0328345605
 10
24.6582847451
 20
35.9343291764
  0
LWPOLYLINE
  5
58D
100
AcDbEntity
  8
RACCORDO
100
AcDbPolyline
 62
253
  6
CONTINUOUS
 90
16
 70
0
 10
-16.837231036
 20
40.9511749988
 10
-16.8650459862
 20
40.9531347841
 10
-16.8923198224
 20
40.9589466662
 10
-16.9185219573
 20
40.9684975802
 10
-16.9431426527
 20
40.9816017221
 10
-16.9657029355
 20
40.9980041629
 10
-16.9857639161
 20
41.017385808
 10
-17.0029353266
 20
41.0393696056
 10
-17.0168831133
 20
41.063527881
 10
-17.0273359348
 20
41.0893906574
 10
-17.0340904413
 20
41.1164547984
 10
-17.03701523
 20
41.144193796
 10
-17.036053402
 20
41.172068014
 10
-17.0312236688
 20
41.1995351851
 10
-17.0226199882
 20
41.2260609609
 10
-17.010409737
 20
41.251129307
  0
LINE
  5
58E
100
AcDbEntity
  8
RACCORDO
100
AcDbLine
 62
253
  6
CONTINUOUS
 10
23.1583717399
 20
30.2659754333
 11
23.1761205837
 21
30.2483680519
  0
LWPOLYLINE
  5
58F
100
AcDbEntity
  8
RACCORDO
100
AcDbPolyline
 62
253
  6
CONTINUOUS
 90
16
 70
0
 10
-19.5144009121
 20
40.9511749988
 10
-19.4865870051
 20
40.9531346363
 10
-19.4593141004
 20
40.9589460975
 10
-19.4331127336
 20
40.9684963552
 10
-19.4084926459
 20
40.9815996232
 10
-19.3859327253
 20
40.9980010409
 10
-19.3658717324
 20
41.0173816905
 10
-19.3486999602
 20
41.0393646468
 10
-19.3347515522
 20
41.0635222997
 10
-19.324297913
 20
41.0893847995
 10
-19.3175425121
 20
41.1164490835
 10
-19.314616897
 20
41.1441886313
 10
-19.3155780992
 20
41.1720637688
 10
-19.3204075269
 20
41.1995321676
 10
-19.3290113281
 20
41.2260593968
 10
-19.3412222113
 20
41.2511293073
  0
LWPOLYLINE
  5
590
100
AcDbEntity
  8
RACCORDO
100
AcDbPolyline
 62
253
  6
CONTINUOUS
 90
19
 70
0
 10
-19.5047568999
 20
42.1788794371
 10
-19.528080405
 20
42.1775014692
 10
-19.5510919123
 20
42.1734094262
 10
-19.573476521
 20
42.1666569098
 10
-19.5949362567
 20
42.1573295426
 10
-19.6151667163
 20
42.1455551787
 10
-19.6338669279
 20
42.1315122381
 10
-19.6507690039
 20
42.1154172767
 10
-19.6656689148
 20
42.0974815457
 10
-19.6783924678
 20
42.0779149566
 10
-19.6887767212
 20
42.056940294
 10
-19.6966471232
 20
42.0348759286
 10
-19.7018744984
 20
42.0121047068
 10
-19.7044084783
 20
41.988943246
 10
-19.7042363392
 20
41.9657073073
 10
-19.7013964301
 20
41.9427899475
 10
-19.6959833026
 20
41.920516531
 10
-19.6881137933
 20
41.8991413692
 10
-19.6779356006
 20
41.8789251286
  0
LWPOLYLINE
  5
591
100
AcDbEntity
  8
0
100
AcDbPolyline
 62
253
  6
CONTINUOUS
 90
3
 70
0
 10
-20.7758159741
 20
41.0336687788
 10
-20.7916948799
 20
41.0328335605
 10
-20.808432039
 20
41.0301797403
  0
LWPOLYLINE
  5
592
100
AcDbEntity
  8
RACCORDO
100
AcDbPolyline
 62
253
  6
CONTINUOUS
 90
25
 70
0
 10
-21.5271666144
 20
40.9511750251
 10
-21.6579956017
 20
40.9468696669
 10
-21.7882495272
 20
40.9340166392
 10
-21.9173707847
 20
40.9126738639
 10
-22.0448023196
 20
40.8829368478
 10
-22.1700039837
 20
40.8449350458
 10
-22.2924539519
 20
40.798828275
 10
-22.4116324291
 20
40.7448118054
 10
-22.5270247861
 20
40.6831184415
 10
-22.6381370954
 20
40.6140122182
 10
-22.7444937426
 20
40.5377889637
 10
-22.8456395148
 20
40.4547749785
 10
-22.9411415172
 20
40.3653255462
 10
-23.030590948
 20
40.2698235422
 10
-23.1136049318
 20
40.1686777682
 10
-23.1898281856
 20
40.0623211196
 10
-23.2589344089
 20
39.9512088096
 10
-23.3206277734
 20
39.8358164523
 10
-23.3746442436
 20
39.7166379739
 10
-23.4207525507
 20
39.5941834794
 10
-23.4587552907
 20
39.4689771068
 10
-23.4884898327
 20
39.341554798
 10
-23.5098288624
 20
39.2124619568
 10
-23.5226809377
 20
39.0822511168
 10
-23.5269909728
 20
38.9514796085
  0
LINE
  5
593
100
AcDbEntity
  8
RACCORDO
100
AcDbLine
 62
253
  6
CONTINUOUS
 10
14.1756636344
 20
40.9511749988
 11
-16.837231036
 21
40.9511749988
  0
LINE
  5
594
100
AcDbEntity
  8
RACCORDO
100
AcDbLine
 62
253
  6
CONTINUOUS
 10
-19.5144009121
 20
40.9511749988
 11
-21.5271665839
 21
40.9511749988
  0
LINE
  5
595
100
AcDbEntity
  8
0
100
AcDbLine
 62
7
  6
CONTINUOUS
 10
-6.100443376
 20
41.0127246754
 11
-16.730623869
 21
41.0127246754
  0
LINE
  5
596
100
AcDbEntity
  8
0
100
AcDbLine
 62
7
  6
CONTINUOUS
 10
-19.6210080791
 20
41.0127246754
 11
-20.4511885721
 21
41.0127246754
  0
LINE
  5
597
100
AcDbEntity
  8
RACCORDO
100
AcDbLine
 62
7
  6
CONTINUOUS
 10
13.5578243136
 20
41.0301797403
 11
-5.7758159741
 21
41.0301797403
  0
LINE
  5
598
100
AcDbEntity
  8
RACCORDO
100
AcDbLine
 62
7
  6
CONTINUOUS
 10
-20.7758159741
 20
41.0301797403
 11
-20.9094562617
 21
41.0301797403
  0
LINE
  5
599
100
AcDbEntity
  8
0
100
AcDbLine
 62
253
  6
CONTINUOUS
 10
13.4087122973
 20
41.0344825799
 11
-5.7758159741
 21
41.0344825799
  0
LINE
  5
59A
100
AcDbEntity
  8
0
100
AcDbLine
 62
7
  6
CONTINUOUS
 10
-21.6761205837
 20
41.1
 11
-20.7758159741
 21
41.1
  0
LINE
  5
59B
100
AcDbEntity
  8
RACCORDO
100
AcDbLine
 62
7
  6
CONTINUOUS
 10
14.3244886356
 20
41.1
 11
13.8241840259
 21
41.1
  0
LINE
  5
59C
100
AcDbEntity
  8
0
100
AcDbLine
 62
7
  6
CONTINUOUS
 10
-5.7758159741
 20
41.1
 11
14.3244886356
 21
41.1
  0
LINE
  5
59D
100
AcDbEntity
  8
RACCORDO
100
AcDbLine
 62
7
  6
CONTINUOUS
 10
-21.1758159741
 20
41.1
 11
-21.6761205837
 21
41.1
  0
LINE
  5
59E
100
AcDbEntity
  8
RACCORDO
100
AcDbLine
 62
253
  6
CONTINUOUS
 10
-16.8468750483
 20
41.9789098981
 11
-19.5047568999
 21
41.9789098981
  0
LINE
  5
59F
100
AcDbEntity
  8
RACCORDO
100
AcDbLine
 62
253
  6
CONTINUOUS
 10
-16.8468750483
 20
42.1788794371
 11
-19.5047568999
 21
42.1788794371
  0
LINE
  5
5A0
100
AcDbEntity
  8
RACCORDO
100
AcDbLine
 62
7
  6
CONTINUOUS
 10
-16.7016508357
 20
42.2627246754
 11
-19.6499811124
 21
42.2627246754
  0
LINE
  5
5A1
100
AcDbEntity
  8
0
100
AcDbLine
 62
253
  6
CONTINUOUS
 10
-20.7510058202
 20
42.3754944327
 11
-20.4511885721
 21
42.3754944327
  0
LINE
  5
5A2
100
AcDbEntity
  8
0
100
AcDbLine
 62
253
  6
CONTINUOUS
 10
-5.8006261279
 20
42.3754944327
 11
-6.100443376
 21
42.3754944327
  0
LINE
  5
5A3
100
AcDbEntity
  8
0
100
AcDbLine
 62
253
  6
CONTINUOUS
 10
-20.2513104067
 20
42.5753725981
 11
-6.3003215414
 21
42.5753725981
  0
LINE
  5
5A4
100
AcDbEntity
  8
0
100
AcDbLine
 62
253
  6
CONTINUOUS
 10
-20.2513104067
 20
42.8751898462
 11
-6.3003215414
 21
42.8751898462
  0
LINE
  5
5A5
100
AcDbEntity
  8
0
100
AcDbLine
 62
7
  6
CONTINUOUS
 10
-20.2761205605
 20
42.9
 11
-6.2755113876
 21
42.9
  0
LWPOLYLINE
  5
5A6
100
AcDbEntity
  8
0
100
AcDbPolyline
 62
253
  6
CONTINUOUS
 90
19
 70
0
 10
-6.3003215414
 20
42.8751898462
 10
-6.2567810984
 20
42.8732585727
 10
-6.2135742658
 20
42.8675424909
 10
-6.1710292296
 20
42.8580853403
 10
-6.1294691211
 20
42.8449593776
 10
-6.089209615
 20
42.8282645095
 10
-6.0505565553
 20
42.8081274741
 10
-6.0138036387
 20
42.7847014324
 10
-5.9792299079
 20
42.7581645522
 10
-5.9470977735
 20
42.728718205
 10
-5.9176514429
 20
42.6965860949
 10
-5.8911145902
 20
42.6620124129
 10
-5.8676885574
 20
42.6252595305
 10
-5.8475515069
 20
42.5866064649
 10
-5.8308566185
 20
42.5463469302
 10
-5.8177306421
 20
42.5047867934
 10
-5.8082734851
 20
42.4622417385
 10
-5.8025574009
 20
42.4190348894
 10
-5.8006261279
 20
42.3754944327
  0
LWPOLYLINE
  5
5A7
100
AcDbEntity
  8
0
100
AcDbPolyline
 62
253
  6
CONTINUOUS
 90
19
 70
0
 10
-6.3003215414
 20
42.5753725981
 10
-6.2827499989
 20
42.5745812726
 10
-6.265547961
 20
42.5723242189
 10
-6.2487154275
 20
42.568601437
 10
-6.2321226215
 20
42.5633622185
 10
-6.21589932
 20
42.5566572718
 10
-6.200434854
 20
42.5486387218
 10
-6.1857541857
 20
42.5392772277
 10
-6.1718323529
 20
42.5286021304
 10
-6.1589837996
 20
42.5168535778
 10
-6.1472332662
 20
42.504006827
 10
-6.1365560124
 20
42.4900866208
 10
-6.1271922614
 20
42.4754073358
 10
-6.1191713611
 20
42.4599450713
 10
-6.1124639636
 20
42.4437237281
 10
-6.1072222483
 20
42.4271293847
 10
-6.1034969419
 20
42.4102907341
 10
-6.1012373178
 20
42.3930790834
 10
-6.100443376
 20
42.3754944327
  0
LWPOLYLINE
  5
5A8
100
AcDbEntity
  8
0
100
AcDbPolyline
 62
253
  6
CONTINUOUS
 90
3
 70
0
 10
13.4568000141
 20
41.0301797403
 10
13.4400635364
 20
41.0328334969
 10
13.4087122973
 20
41.0344825799
  0
LINE
  5
5A9
100
AcDbEntity
  8
RACCORDO
100
AcDbLine
 62
253
  6
CONTINUOUS
 10
25.1582085927
 20
32.2658132867
 11
25.1758159741
 21
32.2480634422
  0
CIRCLE
  5
5AA
100
AcDbEntity
  8
DRAFT
100
AcDbCircle
 62
7
  6
CONTINUOUS
 10
-3.6758159741
 20
-3.4
 40
1.4738174026
  0
CIRCLE
  5
5AB
100
AcDbEntity
  8
DRAFT
100
AcDbCircle
 62
7
  6
CONTINUOUS
 10
20.8241840259
 20
34.1
 40
1.4738174026
  0
ELLIPSE
  5
5AC
100
AcDbEntity
  8
RACCORDO
100
AcDbEllipse
 62
7
  6
CONTINUOUS
 10
14.3238793699
 20
3.1003046561
 30
0.0
 11
-1.4146443783
 21
1.4146443783
 31
0.0
 40
0.9996954599
 41
8.6395320906
 42
10.2100238309
  0
ELLIPSE
  5
5AD
100
AcDbEntity
  8
RACCORDO
100
AcDbEllipse
 62
7
  6
CONTINUOUS
 10
14.3238793699
 20
39.0996953439
 30
0.0
 11
-1.4146443783
 21
-1.4146443783
 31
0.0
 40
0.9996954599
 41
8.6395320906
 42
10.2100238309
  0
ELLIPSE
  5
5AE
100
AcDbEntity
  8
0
100
AcDbEllipse
 62
7
  6
CONTINUOUS
 10
-23.8758464397
 20
12.8999695344
 30
0.0
 11
0.1414644378
 21
0.1414644378
 31
0.0
 40
0.9996954599
 41
-0.7852458701
 42
0.7852458701
  0
ELLIPSE
  5
5AF
100
AcDbEntity
  8
0
100
AcDbEllipse
 62
7
  6
CONTINUOUS
 10
-23.8758464397
 20
29.3000304656
 30
0.0
 11
0.1414644378
 21
-0.1414644378
 31
0.0
 40
0.9996954599
 41
-0.7852458701
 42
0.7852458701
  0
ELLIPSE
  5
5B0
100
AcDbEntity
  8
0
100
AcDbEllipse
 62
7
  6
CONTINUOUS
 10
16.5242144916
 20
29.3000304656
 30
0.0
 11
0.1414644378
 21
0.1414644378
 31
0.0
 40
0.9996954599
 41
-3.9268385237
 42
-2.3563467834
  0
ELLIPSE
  5
5B1
100
AcDbEntity
  8
0
100
AcDbEllipse
 62
7
  6
CONTINUOUS
 10
16.5242144916
 20
12.8999695344
 30
0.0
 11
0.1414644378
 21
-0.1414644378
 31
0.0
 40
0.9996954599
 41
2.3563467834
 42
3.9268385237
  0
ELLIPSE
  5
5B2
100
AcDbEntity
  8
RACCORDO
100
AcDbEllipse
 62
7
  6
CONTINUOUS
 10
-25.0876678962
 20
25.5117757581
 30
0.0
 11
0.0
 21
0.5
 31
0.0
 40
0.0174550649
 41
-1.5707963268
 42
-0.0174532925
  0
ELLIPSE
  5
5B3
100
AcDbEntity
  8
RACCORDO
100
AcDbEllipse
 62
7
  6
CONTINUOUS
 10
-23.7639640519
 20
25.5117757581
 30
0.0
 11
0.0
 21
0.5
 31
0.0
 40
0.0174550649
 41
0.0174532925
 42
1.5707963268
  0
ELLIPSE
  5
5B4
100
AcDbEntity
  8
RACCORDO
100
AcDbEllipse
 62
7
  6
CONTINUOUS
 10
-23.7639640519
 20
16.6882242419
 30
0.0
 11
-0.0
 21
0.5
 31
0.0
 40
0.0174550649
 41
-4.7123889804
 42
-3.1590459461
  0
ELLIPSE
  5
5B5
100
AcDbEntity
  8
RACCORDO
100
AcDbEllipse
 62
7
  6
CONTINUOUS
 10
-25.0876678962
 20
16.6882242419
 30
0.0
 11
0.0
 21
0.5
 31
0.0
 40
0.0174550649
 41
-3.1241393611
 42
-1.5707963268
  0
ELLIPSE
  5
5B6
100
AcDbEntity
  8
RACCORDO
100
AcDbEllipse
 62
7
  6
CONTINUOUS
 10
17.7360359481
 20
16.6882242419
 30
0.0
 11
0.0
 21
0.5
 31
0.0
 40
0.0174550649
 41
-4.7123889804
 42
-3.1590459461
  0
ELLIPSE
  5
5B7
100
AcDbEntity
  8
RACCORDO
100
AcDbEllipse
 62
7
  6
CONTINUOUS
 10
16.4123321038
 20
16.6882242419
 30
0.0
 11
-0.0
 21
0.5
 31
0.0
 40
0.0174550649
 41
-3.1241393611
 42
-1.5707963268
  0
ELLIPSE
  5
5B8
100
AcDbEntity
  8
RACCORDO
100
AcDbEllipse
 62
7
  6
CONTINUOUS
 10
16.4123321038
 20
25.5117757581
 30
0.0
 11
-0.0
 21
0.5
 31
0.0
 40
0.0174550649
 41
-1.5707963268
 42
-0.0174532925
  0
ELLIPSE
  5
5B9
100
AcDbEntity
  8
RACCORDO
100
AcDbEllipse
 62
7
  6
CONTINUOUS
 10
17.7360359481
 20
25.5117757581
 30
0.0
 11
0.0
 21
0.5
 31
0.0
 40
0.0174550649
 41
0.0174532925
 42
1.5707963268
  0
ELLIPSE
  5
5BA
100
AcDbEntity
  8
0
100
AcDbEllipse
 62
7
  6
CONTINUOUS
 10
-23.8758464397
 20
13.3000304656
 30
0.0
 11
0.1414644378
 21
-0.1414644378
 31
0.0
 40
0.9996954599
 41
-0.7852458701
 42
0.7852458701
  0
ELLIPSE
  5
5BB
100
AcDbEntity
  8
0
100
AcDbEllipse
 62
7
  6
CONTINUOUS
 10
-23.8758464397
 20
28.8999695344
 30
0.0
 11
0.1414644378
 21
0.1414644378
 31
0.0
 40
0.9996954599
 41
-0.7852458701
 42
0.7852458701
  0
ELLIPSE
  5
5BC
100
AcDbEntity
  8
0
100
AcDbEllipse
 62
7
  6
CONTINUOUS
 10
16.5242144916
 20
28.8999695344
 30
0.0
 11
0.1414644378
 21
-0.1414644378
 31
0.0
 40
0.9996954599
 41
2.3563467834
 42
3.9268385237
  0
ELLIPSE
  5
5BD
100
AcDbEntity
  8
0
100
AcDbEllipse
 62
7
  6
CONTINUOUS
 10
13.4741383275
 20
1.4000456984
 30
0.0
 11
0.2121966568
 21
-0.2121966568
 31
0.0
 40
0.9996954599
 41
-0.4333306854
 42
-0.0936441867
  0
ELLIPSE
  5
5BE
100
AcDbEntity
  8
0
100
AcDbEllipse
 62
7
  6
CONTINUOUS
 10
13.4741383275
 20
1.4000456984
 30
0.0
 11
-0.2121966568
 21
0.2121966568
 31
0.0
 40
0.9996954599
 41
-3.9268385237
 42
-3.574923339
  0
ELLIPSE
  5
5BF
100
AcDbEntity
  8
0
100
AcDbEllipse
 62
7
  6
CONTINUOUS
 10
13.4741383275
 20
40.7999543016
 30
0.0
 11
0.2121966568
 21
0.2121966568
 31
0.0
 40
0.9996954599
 41
0.0936441867
 42
0.7852458701
  0
ELLIPSE
  5
5C0
100
AcDbEntity
  8
0
100
AcDbEllipse
 62
7
  6
CONTINUOUS
 10
-20.8257702756
 20
40.7999543016
 30
0.0
 11
-0.2121966568
 21
0.2121966568
 31
0.0
 40
0.9996954599
 41
-0.1570396778
 42
-0.0936441867
  0
ELLIPSE
  5
5C1
100
AcDbEntity
  8
0
100
AcDbEllipse
 62
7
  6
CONTINUOUS
 10
-20.8257702756
 20
40.7999543016
 30
0.0
 11
0.2121966568
 21
-0.2121966568
 31
0.0
 40
0.9996954599
 41
2.3563467834
 42
2.9845529758
  0
ELLIPSE
  5
5C2
100
AcDbEntity
  8
0
100
AcDbEllipse
 62
7
  6
CONTINUOUS
 10
-20.8257702756
 20
1.4000456984
 30
0.0
 11
0.2121966568
 21
0.2121966568
 31
0.0
 40
0.9996954599
 41
-3.0479484669
 42
-2.3563467834
  0
ELLIPSE
  5
5C3
100
AcDbEntity
  8
0
100
AcDbEllipse
 62
7
  6
CONTINUOUS
 10
16.5242144916
 20
13.3000304656
 30
0.0
 11
0.1414644378
 21
0.1414644378
 31
0.0
 40
0.9996954599
 41
-3.9268385237
 42
-2.3563467834
  0
ELLIPSE
  5
5C4
100
AcDbEntity
  8
0
100
AcDbEllipse
 62
7
  6
CONTINUOUS
 10
-13.4908952046
 20
1.3654869591
 30
0.0
 11
0.0
 21
0.2
 31
0.0
 40
0.0349207695
 41
-3.3381989903
 42
-3.1590459461
  0
ELLIPSE
  5
5C5
100
AcDbEntity
  8
0
100
AcDbEllipse
 62
7
  6
CONTINUOUS
 10
6.1392632565
 20
1.3654869591
 30
0.0
 11
-0.0
 21
0.2
 31
0.0
 40
0.0349207695
 41
-3.1241393611
 42
-2.9449863168
  0
ELLIPSE
  5
5C6
100
AcDbEntity
  8
RACCORDO
100
AcDbEllipse
 62
7
  6
CONTINUOUS
 10
14.3238793699
 20
39.0996953439
 30
0.0
 11
1.4146443783
 21
1.4146443783
 31
0.0
 40
0.9996954599
 41
-0.7852458701
 42
0.7852458701
  0
ELLIPSE
  5
5C7
100
AcDbEntity
  8
RACCORDO
100
AcDbEllipse
 62
7
  6
CONTINUOUS
 10
14.3238793699
 20
3.1003046561
 30
0.0
 11
1.4146443783
 21
-1.4146443783
 31
0.0
 40
0.9996954599
 41
-0.7852458701
 42
0.7852458701
  0
ELLIPSE
  5
5C8
100
AcDbEntity
  8
RACCORDO
100
AcDbEllipse
 62
7
  6
CONTINUOUS
 10
-21.675511318
 20
3.1003046561
 30
0.0
 11
1.4146443783
 21
1.4146443783
 31
0.0
 40
0.9996954599
 41
-3.9268385237
 42
-2.3563467834
  0
ELLIPSE
  5
5C9
100
AcDbEntity
  8
RACCORDO
100
AcDbEllipse
 62
7
  6
CONTINUOUS
 10
-21.675511318
 20
39.0996953439
 30
0.0
 11
1.4146443783
 21
-1.4146443783
 31
0.0
 40
0.9996954599
 41
2.3563467834
 42
3.9268385237
  0
ELLIPSE
  5
5CA
100
AcDbEntity
  8
0
100
AcDbEllipse
 62
7
  6
CONTINUOUS
 10
-16.5739940957
 20
0.2198659581
 30
0.0
 11
0.2121966568
 21
-0.2121966568
 31
0.0
 40
0.9996954599
 41
-0.7852458701
 42
0.7852458701
  0
ELLIPSE
  5
5CB
100
AcDbEntity
  8
RACCORDO
100
AcDbEllipse
 62
7
  6
CONTINUOUS
 10
13.5578243136
 20
41.0336707533
 30
0.0
 11
0.2
 21
0.0
 31
0.0
 40
0.0174550649
 41
-1.5707963268
 42
-0.0174532925
  0
ELLIPSE
  5
5CC
100
AcDbEntity
  8
RACCORDO
100
AcDbEllipse
 62
7
  6
CONTINUOUS
 10
-20.9094562617
 20
1.1663292467
 30
0.0
 11
0.2
 21
-0.0
 31
0.0
 40
0.0174550649
 41
1.5707963268
 42
3.1241393611
  0
ELLIPSE
  5
5CD
100
AcDbEntity
  8
RACCORDO
100
AcDbEllipse
 62
7
  6
CONTINUOUS
 10
-20.9094562617
 20
41.0336707533
 30
0.0
 11
0.2
 21
-0.0
 31
0.0
 40
0.0174550649
 41
-3.1241393611
 42
-1.5707963268
  0
ELLIPSE
  5
5CE
100
AcDbEntity
  8
0
100
AcDbEllipse
 62
7
  6
CONTINUOUS
 10
-19.7776378524
 20
0.2198659581
 30
0.0
 11
0.2121966568
 21
0.2121966568
 31
0.0
 40
0.9996954599
 41
-3.9268385237
 42
-2.3563467834
  0
ELLIPSE
  5
5CF
100
AcDbEntity
  8
0
100
AcDbEllipse
 62
7
  6
CONTINUOUS
 10
-20.2755112019
 20
42.3996952279
 30
0.0
 11
0.3539842723
 21
-0.3539842723
 31
0.0
 40
0.998782766
 41
2.3568034778
 42
3.9263818294
  0
ELLIPSE
  5
5D0
100
AcDbEntity
  8
RACCORDO
100
AcDbEllipse
 62
7
  6
CONTINUOUS
 10
13.5578243136
 20
1.1663292467
 30
0.0
 11
0.2
 21
0.0
 31
0.0
 40
0.0174550649
 41
0.0174532925
 42
1.5707963268
  0
ELLIPSE
  5
5D1
100
AcDbEntity
  8
0
100
AcDbEllipse
 62
7
  6
CONTINUOUS
 10
-6.2761207462
 20
42.3996952279
 30
0.0
 11
0.3539842723
 21
0.3539842723
 31
0.0
 40
0.998782766
 41
-0.7847891758
 42
0.7847891758
  0
ELLIPSE
  5
5D2
100
AcDbEntity
  8
RACCORDO
100
AcDbEllipse
 62
7
  6
CONTINUOUS
 10
-21.5360992906
 20
18.5441437922
 30
0.0
 11
0.5
 21
-0.0
 31
0.0
 40
0.0174550649
 41
-3.1241393611
 42
-1.5707963268
  0
ELLIPSE
  5
5D3
100
AcDbEntity
  8
RACCORDO
100
AcDbEllipse
 62
7
  6
CONTINUOUS
 10
14.1844673425
 20
18.5441437922
 30
0.0
 11
0.5
 21
0.0
 31
0.0
 40
0.0174550649
 41
-1.5707963268
 42
-0.0174532925
  0
ELLIPSE
  5
5D4
100
AcDbEntity
  8
RACCORDO
100
AcDbEllipse
 62
7
  6
CONTINUOUS
 10
-21.5360992906
 20
23.6558562078
 30
0.0
 11
0.5
 21
0.0
 31
0.0
 40
0.0174550649
 41
1.5707963268
 42
3.1241393611
  0
ELLIPSE
  5
5D5
100
AcDbEntity
  8
RACCORDO
100
AcDbEllipse
 62
7
  6
CONTINUOUS
 10
14.1844673425
 20
23.6558562078
 30
0.0
 11
0.5
 21
0.0
 31
0.0
 40
0.0174550649
 41
0.0174532925
 42
1.5707963268
  0
ELLIPSE
  5
5D6
100
AcDbEntity
  8
RACCORDO
100
AcDbEllipse
 62
7
  6
CONTINUOUS
 10
23.175511318
 20
35.951327292
 30
0.0
 11
1.4146443783
 21
1.4146443783
 31
0.0
 40
0.9996954599
 41
-0.7852458701
 42
0.7852458701
  0
ELLIPSE
  5
5D7
100
AcDbEntity
  8
RACCORDO
100
AcDbEllipse
 62
7
  6
CONTINUOUS
 10
23.175511318
 20
32.248672708
 30
0.0
 11
1.4146443783
 21
-1.4146443783
 31
0.0
 40
0.9996954599
 41
-0.7852458701
 42
0.7852458701
  0
ELLIPSE
  5
5D8
100
AcDbEntity
  8
RACCORDO
100
AcDbEllipse
 62
7
  6
CONTINUOUS
 10
-5.5271432661
 20
-5.751327292
 30
0.0
 11
1.4146443783
 21
1.4146443783
 31
0.0
 40
0.9996954599
 41
-3.9268385237
 42
-2.3563467834
  0
ELLIPSE
  5
5D9
100
AcDbEntity
  8
RACCORDO
100
AcDbEllipse
 62
7
  6
CONTINUOUS
 10
-1.824488682
 20
-5.751327292
 30
0.0
 11
1.4146443783
 21
-1.4146443783
 31
0.0
 40
0.9996954599
 41
-0.7852458701
 42
0.7852458701
  0
ELLIPSE
  5
5DA
100
AcDbEntity
  8
RACCORDO
100
AcDbEllipse
 62
7
  6
CONTINUOUS
 10
-16.7017563636
 20
42.0626942098
 30
0.0
 11
0.1733105926
 21
0.1000609173
 31
0.0
 40
0.9993911978
 41
-1.0469338117
 42
1.0469338117
  0
ELLIPSE
  5
5DB
100
AcDbEntity
  8
RACCORDO
100
AcDbEllipse
 62
7
  6
CONTINUOUS
 10
-19.6498755845
 20
42.0626942098
 30
0.0
 11
0.1733105926
 21
-0.1000609173
 31
0.0
 40
0.9993911978
 41
2.0946588419
 42
4.1885264653
  0
ELLIPSE
  5
5DC
100
AcDbEntity
  8
RACCORDO
100
AcDbEllipse
 62
7
  6
CONTINUOUS
 10
13.6017361161
 20
38.3775520902
 30
0.0
 11
0.3643800228
 21
0.3643800228
 31
0.0
 40
0.9702875252
 41
-0.7703190329
 42
0.7703190329
  0
ELLIPSE
  5
5DD
100
AcDbEntity
  8
0
100
AcDbEllipse
 62
7
  6
CONTINUOUS
 10
-6.100443376
 20
41.0179611948
 30
0.0
 11
0.3
 21
0.0
 31
0.0
 40
0.0174550649
 41
-1.5707963268
 42
-0.034906585
  0
ELLIPSE
  5
5DE
100
AcDbEntity
  8
RACCORDO
100
AcDbEllipse
 62
7
  6
CONTINUOUS
 10
-20.9533680643
 20
38.3775520902
 30
0.0
 11
0.3643800228
 21
-0.3643800228
 31
0.0
 40
0.9702875252
 41
2.3712736207
 42
3.9119116865
  0
ELLIPSE
  5
5DF
100
AcDbEntity
  8
RACCORDO
100
AcDbEllipse
 62
7
  6
CONTINUOUS
 10
-20.9533680643
 20
3.8224479098
 30
0.0
 11
0.3643800228
 21
0.3643800228
 31
0.0
 40
0.9702875252
 41
-3.9119116865
 42
-2.3712736207
  0
ELLIPSE
  5
5E0
100
AcDbEntity
  8
RACCORDO
100
AcDbEllipse
 62
7
  6
CONTINUOUS
 10
13.6017361161
 20
3.8224479098
 30
0.0
 11
0.3643800228
 21
-0.3643800228
 31
0.0
 40
0.9702875252
 41
-0.7703190329
 42
0.7703190329
  0
ELLIPSE
  5
5E1
100
AcDbEntity
  8
RACCORDO
100
AcDbEllipse
 62
7
  6
CONTINUOUS
 10
16.2334176883
 20
25.459187964
 30
0.0
 11
0.0
 21
0.3
 31
0.0
 40
0.0174550649
 41
0.0174532925
 42
1.5707963268
  0
ELLIPSE
  5
5E2
100
AcDbEntity
  8
RACCORDO
100
AcDbEllipse
 62
7
  6
CONTINUOUS
 10
16.2334176883
 20
16.740812036
 30
0.0
 11
-0.0
 21
0.3
 31
0.0
 40
0.0174550649
 41
-4.7123889804
 42
-3.1590459461
  0
ELLIPSE
  5
5E3
100
AcDbEntity
  8
RACCORDO
100
AcDbEllipse
 62
7
  6
CONTINUOUS
 10
-23.5850496364
 20
16.740812036
 30
0.0
 11
-0.0
 21
0.3
 31
0.0
 40
0.0174550649
 41
-3.1241393611
 42
-1.5707963268
  0
ELLIPSE
  5
5E4
100
AcDbEntity
  8
RACCORDO
100
AcDbEllipse
 62
7
  6
CONTINUOUS
 10
-23.5850496364
 20
25.459187964
 30
0.0
 11
-0.0
 21
0.3
 31
0.0
 40
0.0174550649
 41
-1.5707963268
 42
-0.0174532925
  0
ELLIPSE
  5
5E5
100
AcDbEntity
  8
RACCORDO
100
AcDbEllipse
 62
7
  6
CONTINUOUS
 10
14.675587482
 20
37.9516319481
 30
0.0
 11
1.5
 21
-0.0
 31
0.0
 40
0.0174550649
 41
-0.7375601251
 42
-0.0174532925
  0
ELLIPSE
  5
5E6
100
AcDbEntity
  8
RACCORDO
100
AcDbEllipse
 62
7
  6
CONTINUOUS
 10
-7.5274479222
 20
2.748596544
 30
0.0
 11
-0.0
 21
1.5
 31
0.0
 40
0.0174550649
 41
-3.1241393611
 42
-2.4040325285
  0
ELLIPSE
  5
5E7
100
AcDbEntity
  8
RACCORDO
100
AcDbEllipse
 62
7
  6
CONTINUOUS
 10
14.675587482
 20
30.2483680519
 30
0.0
 11
1.5
 21
0.0
 31
0.0
 40
0.0174550649
 41
0.0174532925
 42
0.7375601251
  0
ELLIPSE
  5
5E8
100
AcDbEntity
  8
RACCORDO
100
AcDbEllipse
 62
7
  6
CONTINUOUS
 10
0.1758159741
 20
2.748596544
 30
0.0
 11
-0.0
 21
1.5
 31
0.0
 40
0.0174550649
 41
-3.8791527787
 42
-3.1590459461
  0
ELLIPSE
  5
5E9
100
AcDbEntity
  8
RACCORDO
100
AcDbEllipse
 62
7
  6
CONTINUOUS
 10
-22.0272194301
 20
23.6645837402
 30
0.0
 11
1.5
 21
0.0
 31
0.0
 40
0.0174550649
 41
1.5707963268
 42
1.6746077618
  0
ELLIPSE
  5
5EA
100
AcDbEntity
  8
RACCORDO
100
AcDbEllipse
 62
7
  6
CONTINUOUS
 10
14.675587482
 20
23.6645837402
 30
0.0
 11
1.5
 21
-0.0
 31
0.0
 40
0.0174550649
 41
1.4669848918
 42
1.5707963268
  0
ELLIPSE
  5
5EB
100
AcDbEntity
  8
RACCORDO
100
AcDbEllipse
 62
7
  6
CONTINUOUS
 10
-22.0272194301
 20
18.5354162598
 30
0.0
 11
1.5
 21
0.0
 31
0.0
 40
0.0174550649
 41
-1.6746077618
 42
-1.5707963268
  0
ELLIPSE
  5
5EC
100
AcDbEntity
  8
RACCORDO
100
AcDbEllipse
 62
7
  6
CONTINUOUS
 10
14.675587482
 20
18.5354162598
 30
0.0
 11
1.5
 21
0.0
 31
0.0
 40
0.0174550649
 41
-1.5707963268
 42
-1.4669848918
  0
ELLIPSE
  5
5ED
100
AcDbEntity
  8
RACCORDO
100
AcDbEllipse
 62
7
  6
CONTINUOUS
 10
-19.621113607
 20
41.212755141
 30
0.0
 11
-0.1733105926
 21
0.1000609173
 31
0.0
 40
0.9993911978
 41
2.0946588419
 42
4.1885264653
  0
ELLIPSE
  5
5EE
100
AcDbEntity
  8
RACCORDO
100
AcDbEllipse
 62
7
  6
CONTINUOUS
 10
-16.7305183411
 20
41.212755141
 30
0.0
 11
-0.1733105926
 21
-0.1000609173
 31
0.0
 40
0.9993911978
 41
-1.0469338117
 42
1.0469338117
  0
ELLIPSE
  5
5EF
100
AcDbEntity
  8
RACCORDO
100
AcDbEllipse
 62
7
  6
CONTINUOUS
 10
-19.621113607
 20
0.987244859
 30
0.0
 11
0.1733105926
 21
0.1000609173
 31
0.0
 40
0.9993911978
 41
-1.0469338117
 42
1.0469338117
  0
ELLIPSE
  5
5F0
100
AcDbEntity
  8
0
100
AcDbEllipse
 62
7
  6
CONTINUOUS
 10
-19.7601827875
 20
0.2373210231
 30
0.0
 11
0.2121966568
 21
0.2121966568
 31
0.0
 40
0.9996954599
 41
2.3563467834
 42
3.9268385237
  0
ELLIPSE
  5
5F1
100
AcDbEntity
  8
RACCORDO
100
AcDbEllipse
 62
7
  6
CONTINUOUS
 10
-16.7305183411
 20
0.987244859
 30
0.0
 11
0.1733105926
 21
-0.1000609173
 31
0.0
 40
0.9993911978
 41
2.0946588419
 42
4.1885264653
  0
ELLIPSE
  5
5F2
100
AcDbEntity
  8
0
100
AcDbEllipse
 62
7
  6
CONTINUOUS
 10
-16.5914491606
 20
0.2373210231
 30
0.0
 11
0.2121966568
 21
-0.2121966568
 31
0.0
 40
0.9996954599
 41
-0.7852458701
 42
0.7852458701
  0
ELLIPSE
  5
5F3
100
AcDbEntity
  8
RACCORDO
100
AcDbEllipse
 62
7
  6
CONTINUOUS
 10
-19.6498755845
 20
0.1373057902
 30
0.0
 11
0.1733105926
 21
0.1000609173
 31
0.0
 40
0.9993911978
 41
2.0946588419
 42
4.1885264653
  0
ELLIPSE
  5
5F4
100
AcDbEntity
  8
RACCORDO
100
AcDbEllipse
 62
7
  6
CONTINUOUS
 10
-16.7017563636
 20
0.1373057902
 30
0.0
 11
0.1733105926
 21
-0.1000609173
 31
0.0
 40
0.9993911978
 41
-1.0469338117
 42
1.0469338117
  0
ELLIPSE
  5
5F5
100
AcDbEntity
  8
0
100
AcDbEllipse
 62
7
  6
CONTINUOUS
 10
-20.4511885721
 20
41.0179611948
 30
0.0
 11
0.3
 21
0.0
 31
0.0
 40
0.0174550649
 41
-3.1066860686
 42
-1.5707963268
  0
ELLIPSE
  5
5F6
100
AcDbEntity
  8
RACCORDO
100
AcDbEllipse
 62
7
  6
CONTINUOUS
 10
13.56647072
 20
3.8577133059
 30
0.0
 11
-0.3643800228
 21
0.3643800228
 31
0.0
 40
0.9702875252
 41
2.3712736207
 42
3.9119116865
  0
ELLIPSE
  5
5F7
100
AcDbEntity
  8
RACCORDO
100
AcDbEllipse
 62
7
  6
CONTINUOUS
 10
-20.9181026681
 20
3.8577133059
 30
0.0
 11
0.3643800228
 21
0.3643800228
 31
0.0
 40
0.9702875252
 41
2.3712736207
 42
3.9119116865
  0
ELLIPSE
  5
5F8
100
AcDbEntity
  8
RACCORDO
100
AcDbEllipse
 62
7
  6
CONTINUOUS
 10
-20.9181026681
 20
38.3422866941
 30
0.0
 11
0.3643800228
 21
-0.3643800228
 31
0.0
 40
0.9702875252
 41
2.3712736207
 42
3.9119116865
  0
ELLIPSE
  5
5F9
100
AcDbEntity
  8
RACCORDO
100
AcDbEllipse
 62
7
  6
CONTINUOUS
 10
13.56647072
 20
38.3422866941
 30
0.0
 11
-0.3643800228
 21
-0.3643800228
 31
0.0
 40
0.9702875252
 41
2.3712736207
 42
3.9119116865
  0
ENDSEC
  0
SECTION
  2
OBJECTS
  0
DICTIONARY
  5
C
100
AcDbDictionary
280
0
281
1
  3
ACAD_GROUP
350
D
  3
ACAD_MLINESTYLE
350
17
  3
ACAD_LAYOUT
350
1A
  3
ACAD_PLOTSETTINGS
350
19
  3
ACAD_PLOTSTYLENAME
350
E
  0
DICTIONARY
  5
D
102
{ACAD_REACTORS
330
C
102
}
100
AcDbDictionary
280
0
281
1
  0
ACDBDICTIONARYWDFLT
  5
E
102
{ACAD_REACTORS
330
C
102
}
100
AcDbDictionary
281
1
  3
Normal
350
F
100
AcDbDictionaryWithDefault
340
F
  0
DICTIONARY
  5
17
102
{ACAD_REACTORS
330
C
102
}
100
AcDbDictionary
280
0
281
1
  3
Standard
350
18
  0
DICTIONARY
  5
19
102
{ACAD_REACTORS
330
C
102
}
100
AcDbDictionary
281
1
  0
DICTIONARY
  5
1A
102
{ACAD_REACTORS
330
C
102
}
100
AcDbDictionary
281
1
  3
Model
350
5FA
  3
Layout1
350
5FB
  0
ACDBPLACEHOLDER
  5
F
102
{ACAD_REACTORS
330
E
102
}
  0
MLINESTYLE
  5
18
102
{ACAD_REACTORS
330
17
102
}
100
AcDbMlineStyle
  2
STANDARD
 70
0
  3

 62
256
 51
90.0
 52
90.0
 71
2
 49
0.5
 62
256
  6
BYLAYER
 49
-0.5
 62
256
  6
BYLAYER
  0
LAYOUT
  5
5FA
102
{ACAD_REACTORS
330
1A
102
}
100
AcDbPlotSettings
  1

  2
none_device
  4
ISO_A4_(297.00_x_210.00_MM)
  6

 40
0.0
 41
0.0
 42
0.0
 43
0.0
 44
297.0
 45
210.0
 46
0.0
 47
0.0
 48
0.0
 49
0.0
140
0.0
141
0.0
142
1.0
143
1.0
 70
1024
 72
1
 73
0
 74
0
  7

 75
0
147
1.0
148
0.0
149
0.0
100
AcDbLayout
  1
Model
 70
0
 71
0
 10
0.0
 20
0.0
 11
297.0
 21
210.0
 12
0.0
 22
0.0
 32
0.0
 14
0.0
 24
0.0
 34
0.0
 15
0.0
 25
0.0
 35
0.0
146
0.0
 13
0.0
 23
0.0
 33
0.0
 16
1.0
 26
0.0
 36
0.0
 17
0.0
 27
1.0
 37
0.0
 76
0
330
2F2
345
0
346
0
  0
LAYOUT
  5
5FB
102
{ACAD_REACTORS
330
1A
102
}
100
AcDbPlotSettings
  1

  2
none_device
  4
ISO_A4_(297.00_x_210.00_MM)
  6

 40
0.0
 41
0.0
 42
0.0
 43
0.0
 44
297.0
 45
210.0
 46
0.0
 47
0.0
 48
0.0
 49
0.0
140
0.0
141
0.0
142
1.0
143
1.0
 70
0
 72
1
 73
0
 74
0
  7

 75
0
147
1.0
148
0.0
149
0.0
100
AcDbLayout
  1
Layout1
 70
0
 71
1
 10
0.0
 20
0.0
 11
297.0
 21
210.0
 12
0.0
 22
0.0
 32
0.0
 14
0.0
 24
0.0
 34
0.0
 15
0.0
 25
0.0
 35
0.0
146
0.0
 13
0.0
 23
0.0
 33
0.0
 16
1.0
 26
0.0
 36
0.0
 17
0.0
 27
1.0
 37
0.0
 76
0
330
2F3
345
0
346
0
  0
ENDSEC
  0
EOF
