  0
SECTION
  2
HEADER
  9
$ACADVER
  1
AC1021
  9
$DWGCODEPAGE
  3
ANSI_1252
  9
$EXTMAX
 10
297.0
 20
210.0
 30
0.0
  9
$EXTMIN
 10
0.0
 20
0.0
 30
0.0
  9
$LIMMIN
 10
0.0
 20
0.0
  9
$LIMMAX
 10
297.0
 20
210.0
  9
$VIEWCTR
 10
148.5
 20
105.0
  9
$VIEWSIZE
 40
210.0
  9
$CLAYER
  8
0
  9
$LTSCALE
 40
16.335
  9
$CELTYPE
  6
BYLAYER
  9
$DIMSCALE
 40
1.0
  9
$DIMASZ
 40
3.0
  9
$DIMEXO
 40
0.5
  9
$DIMDLI
 40
11.286
  9
$DIMEXE
 40
1.5
  9
$DIMCEN
 40
2.673
  9
$DIMLFAC
 40
1.0
  9
$DIMBLK
  1
_FILLED
  9
$DIMALT
 70
0
  9
$DIMALTF
 40
0.0393700787
  9
$DIMTXT
 40
3.0
  9
$DIMTOL
 70
1
  9
$DIMLIM
 70
0
  9
$DIMTFAC
 40
1.0
  9
$DIMTP
 40
0.01
  9
$DIMTM
 40
0.01
  9
$DIMGAP
 40
0.625
  9
$DIMDSEP
 70
44
  9
$AUNITS
 70
0
  9
$PDMODE
 70
3
  9
$PDSIZE
 40
3.0
  9
$HANDSEED
  5
A5A
  9
$TILEMODE
 70
1
  9
$MEASUREMENT
 70
1
  9
$INSUNITS
 70
4
  0
ENDSEC
  0
SECTION
  2
CLASSES
  0
CLASS
  1
ACDBDICTIONARYWDFLT
  2
AcDbDictionaryWithDefault
  3
AutoCAD 2000
 90
0
 91
1
280
0
281
0
  0
CLASS
  1
ACDBPLACEHOLDER
  2
AcDbPlaceHolder
  3
AutoCAD 2000
 90
0
 91
1
280
0
281
0
  0
CLASS
  1
LAYOUT
  2
AcDbLayout
  3
AutoCAD 2000
 90
0
 91
0
280
0
281
0
  0
ENDSEC
  0
SECTION
  2
TABLES
  0
TABLE
  2
VPORT
  5
8
100
AcDbSymbolTable
 70
2
  0
VPORT
  5
1F4
100
AcDbSymbolTableRecord
100
AcDbViewportTableRecord
  2
*ACTIVE
 70
0
 10
0.0
 20
0.0
 11
1.0
 21
1.0
 12
148.5
 22
105.0
 13
0.0
 23
0.0
 14
1.0
 24
1.0
 15
0.0
 25
0.0
 16
0.0
 26
0.0
 36
1.0
 17
0.0
 27
0.0
 37
0.0
 40
210.0
 41
1.4142857143
 42
50.0
 43
0.0
 44
0.0
 50
0.0
 51
0.0
 71
0
 72
100
 73
1
 74
1
 75
0
 76
0
 77
0
 78
0
  0
ENDTAB
  0
TABLE
  2
LTYPE
  5
5
100
AcDbSymbolTable
 70
6
  0
LTYPE
  5
14
100
AcDbSymbolTableRecord
100
AcDbLinetypeTableRecord
  2
BYBLOCK
 70
0
  3

 72
65
 73
0
 40
0.0
  0
LTYPE
  5
15
100
AcDbSymbolTableRecord
100
AcDbLinetypeTableRecord
  2
BYLAYER
 70
0
  3

 72
65
 73
0
 40
0.0
  0
LTYPE
  5
16
100
AcDbSymbolTableRecord
100
AcDbLinetypeTableRecord
  2
CONTINUOUS
 70
64
  3
Solid line
 72
65
 73
0
 40
0.0
  0
LTYPE
  5
1F5
100
AcDbSymbolTableRecord
100
AcDbLinetypeTableRecord
  2
CENTER
 70
64
  3
____ _ ____ _ ____ _ ____ _ ____ _ ____ _ ____
 72
65
 73
4
 40
0.6
 49
0.375
 74
0
 49
-0.075
 74
0
 49
0.075
 74
0
 49
-0.075
 74
0
  0
LTYPE
  5
1F6
100
AcDbSymbolTableRecord
100
AcDbLinetypeTableRecord
  2
HIDDEN
 70
64
  3
- - - - - - - - - - - - - - - - - - - -
 72
65
 73
2
 40
0.2
 49
0.1
 74
0
 49
-0.1
 74
0
  0
LTYPE
  5
1F7
100
AcDbSymbolTableRecord
100
AcDbLinetypeTableRecord
  2
PHANTOM
 70
64
  3
_____ _ _ _____ _ _ _____ _ _ _____
 72
65
 73
6
 40
0.8
 49
0.45
 74
0
 49
-0.05
 74
0
 49
0.1
 74
0
 49
-0.05
 74
0
 49
0.1
 74
0
 49
-0.05
 74
0
  0
LTYPE
  5
1F8
100
AcDbSymbolTableRecord
100
AcDbLinetypeTableRecord
  2
DOT
 70
64
  3
. . . . . . . . . . . . . . . . . . . .
 72
65
 73
2
 40
0.2
 49
0.1
 74
0
 49
-0.1
 74
0
  0
LTYPE
  5
1F9
100
AcDbSymbolTableRecord
100
AcDbLinetypeTableRecord
  2
DASHED
 70
64
  3
- - - - - - - - - - - - - - - - - - - -
 72
65
 73
2
 40
0.2
 49
0.1
 74
0
 49
-0.1
 74
0
  0
ENDTAB
  0
TABLE
  2
LAYER
  5
2
100
AcDbSymbolTable
 70
36
  0
LAYER
  5
10
100
AcDbSymbolTableRecord
100
AcDbLayerTableRecord
  2
0
 70
0
 62
7
  6
CONTINUOUS
370
-3
390
F
  0
LAYER
  5
1FA
100
AcDbSymbolTableRecord
100
AcDbLayerTableRecord
  2
DEFAULT_1
 70
0
 62
7
  6
CENTER
370
-3
390
F
  0
LAYER
  5
1FB
100
AcDbSymbolTableRecord
100
AcDbLayerTableRecord
  2
DEFAULT_2
 70
0
 62
7
  6
HIDDEN
370
-3
390
F
  0
LAYER
  5
1FC
100
AcDbSymbolTableRecord
100
AcDbLayerTableRecord
  2
DEFAULT_3
 70
0
 62
7
  6
PHANTOM
370
-3
390
F
  0
LAYER
  5
1FD
100
AcDbSymbolTableRecord
100
AcDbLayerTableRecord
  2
1615-LED-1-1-VIMAR_110000
 70
0
 62
7
  6
CONTINUOUS
370
-3
390
F
  0
LAYER
  5
1FE
100
AcDbSymbolTableRecord
100
AcDbLayerTableRecord
  2
200A_170000
 70
0
 62
7
  6
CONTINUOUS
370
-3
390
F
  0
LAYER
  5
1FF
100
AcDbSymbolTableRecord
100
AcDbLayerTableRecord
  2
2125-R1-RF-VIMAR_60000
 70
0
 62
7
  6
CONTINUOUS
370
-3
390
F
  0
LAYER
  5
200
100
AcDbSymbolTableRecord
100
AcDbLayerTableRecord
  2
2125-R1-RF-VIMAR_60000_1
 70
0
 62
7
  6
CONTINUOUS
370
-3
390
F
  0
LAYER
  5
201
100
AcDbSymbolTableRecord
100
AcDbLayerTableRecord
  2
2125-R1-RF-VIMAR_60000_2
 70
0
 62
7
  6
CONTINUOUS
370
-3
390
F
  0
LAYER
  5
202
100
AcDbSymbolTableRecord
100
AcDbLayerTableRecord
  2
2125-R1-RF-VIMAR_60000_3
 70
0
 62
7
  6
CONTINUOUS
370
-3
390
F
  0
LAYER
  5
203
100
AcDbSymbolTableRecord
100
AcDbLayerTableRecord
  2
2125-R1-RF-VIMAR_60000_4
 70
0
 62
7
  6
CONTINUOUS
370
-3
390
F
  0
LAYER
  5
204
100
AcDbSymbolTableRecord
100
AcDbLayerTableRecord
  2
2125-R1-RF-VIMAR_60000_5
 70
0
 62
7
  6
CONTINUOUS
370
-3
390
F
  0
LAYER
  5
205
100
AcDbSymbolTableRecord
100
AcDbLayerTableRecord
  2
3216-CF-RF-VIMAR_100000
 70
0
 62
7
  6
CONTINUOUS
370
-3
390
F
  0
LAYER
  5
206
100
AcDbSymbolTableRecord
100
AcDbLayerTableRecord
  2
3216-CF-RF-VIMAR_100000_1
 70
0
 62
7
  6
CONTINUOUS
370
-3
390
F
  0
LAYER
  5
207
100
AcDbSymbolTableRecord
100
AcDbLayerTableRecord
  2
3216-CF-RF-VIMAR_100000_2
 70
0
 62
7
  6
CONTINUOUS
370
-3
390
F
  0
LAYER
  5
208
100
AcDbSymbolTableRecord
100
AcDbLayerTableRecord
  2
43000460A0
 70
0
 62
7
  6
CONTINUOUS
370
-3
390
F
  0
LAYER
  5
209
100
AcDbSymbolTableRecord
100
AcDbLayerTableRecord
  2
43000460A0_
 70
0
 62
7
  6
CONTINUOUS
370
-3
390
F
  0
LAYER
  5
20A
100
AcDbSymbolTableRecord
100
AcDbLayerTableRecord
  2
43000684A0
 70
0
 62
7
  6
CONTINUOUS
370
-3
390
F
  0
LAYER
  5
20B
100
AcDbSymbolTableRecord
100
AcDbLayerTableRecord
  2
43000685A0
 70
0
 62
7
  6
CONTINUOUS
370
-3
390
F
  0
LAYER
  5
20C
100
AcDbSymbolTableRecord
100
AcDbLayerTableRecord
  2
43900681A0
 70
0
 62
7
  6
CONTINUOUS
370
-3
390
F
  0
LAYER
  5
20D
100
AcDbSymbolTableRecord
100
AcDbLayerTableRecord
  2
43900681A0_1
 70
0
 62
7
  6
CONTINUOUS
370
-3
390
F
  0
LAYER
  5
20E
100
AcDbSymbolTableRecord
100
AcDbLayerTableRecord
  2
43900682A0
 70
0
 62
7
  6
CONTINUOUS
370
-3
390
F
  0
LAYER
  5
20F
100
AcDbSymbolTableRecord
100
AcDbLayerTableRecord
  2
43900682A0_1
 70
0
 62
7
  6
CONTINUOUS
370
-3
390
F
  0
LAYER
  5
210
100
AcDbSymbolTableRecord
100
AcDbLayerTableRecord
  2
43900684A0
 70
0
 62
7
  6
CONTINUOUS
370
-3
390
F
  0
LAYER
  5
211
100
AcDbSymbolTableRecord
100
AcDbLayerTableRecord
  2
43900685A0
 70
0
 62
7
  6
CONTINUOUS
370
-3
390
F
  0
LAYER
  5
212
100
AcDbSymbolTableRecord
100
AcDbLayerTableRecord
  2
7343-CS3-RF_430000
 70
0
 62
7
  6
CONTINUOUS
370
-3
390
F
  0
LAYER
  5
213
100
AcDbSymbolTableRecord
100
AcDbLayerTableRecord
  2
7343-CS3-RF_430000_1
 70
0
 62
7
  6
CONTINUOUS
370
-3
390
F
  0
LAYER
  5
214
100
AcDbSymbolTableRecord
100
AcDbLayerTableRecord
  2
ASM0001
 70
0
 62
7
  6
CONTINUOUS
370
-3
390
F
  0
LAYER
  5
215
100
AcDbSymbolTableRecord
100
AcDbLayerTableRecord
  2
ASSI
 70
0
 62
7
  6
CONTINUOUS
370
-3
390
F
  0
LAYER
  5
216
100
AcDbSymbolTableRecord
100
AcDbLayerTableRecord
  2
CAPC1005X60N_60000
 70
0
 62
7
  6
CONTINUOUS
370
-3
390
F
  0
LAYER
  5
217
100
AcDbSymbolTableRecord
100
AcDbLayerTableRecord
  2
CAPC1005X60N_60000_1
 70
0
 62
7
  6
CONTINUOUS
370
-3
390
F
  0
LAYER
  5
218
100
AcDbSymbolTableRecord
100
AcDbLayerTableRecord
  2
CAPC1005X60N_60000_10
 70
0
 62
7
  6
CONTINUOUS
370
-3
390
F
  0
LAYER
  5
219
100
AcDbSymbolTableRecord
100
AcDbLayerTableRecord
  2
CAPC1005X60N_60000_11
 70
0
 62
7
  6
CONTINUOUS
370
-3
390
F
  0
LAYER
  5
21A
100
AcDbSymbolTableRecord
100
AcDbLayerTableRecord
  2
CAPC1005X60N_60000_12
 70
0
 62
7
  6
CONTINUOUS
370
-3
390
F
  0
LAYER
  5
21B
100
AcDbSymbolTableRecord
100
AcDbLayerTableRecord
  2
CAPC1005X60N_60000_13
 70
0
 62
7
  6
CONTINUOUS
370
-3
390
F
  0
LAYER
  5
21C
100
AcDbSymbolTableRecord
100
AcDbLayerTableRecord
  2
CAPC1005X60N_60000_14
 70
0
 62
7
  6
CONTINUOUS
370
-3
390
F
  0
LAYER
  5
21D
100
AcDbSymbolTableRecord
100
AcDbLayerTableRecord
  2
CAPC1005X60N_60000_15
 70
0
 62
7
  6
CONTINUOUS
370
-3
390
F
  0
LAYER
  5
21E
100
AcDbSymbolTableRecord
100
AcDbLayerTableRecord
  2
CAPC1005X60N_60000_16
 70
0
 62
7
  6
CONTINUOUS
370
-3
390
F
  0
LAYER
  5
21F
100
AcDbSymbolTableRecord
100
AcDbLayerTableRecord
  2
CAPC1005X60N_60000_17
 70
0
 62
7
  6
CONTINUOUS
370
-3
390
F
  0
LAYER
  5
220
100
AcDbSymbolTableRecord
100
AcDbLayerTableRecord
  2
CAPC1005X60N_60000_18
 70
0
 62
7
  6
CONTINUOUS
370
-3
390
F
  0
LAYER
  5
221
100
AcDbSymbolTableRecord
100
AcDbLayerTableRecord
  2
CAPC1005X60N_60000_19
 70
0
 62
7
  6
CONTINUOUS
370
-3
390
F
  0
LAYER
  5
222
100
AcDbSymbolTableRecord
100
AcDbLayerTableRecord
  2
CAPC1005X60N_60000_2
 70
0
 62
7
  6
CONTINUOUS
370
-3
390
F
  0
LAYER
  5
223
100
AcDbSymbolTableRecord
100
AcDbLayerTableRecord
  2
CAPC1005X60N_60000_20
 70
0
 62
7
  6
CONTINUOUS
370
-3
390
F
  0
LAYER
  5
224
100
AcDbSymbolTableRecord
100
AcDbLayerTableRecord
  2
CAPC1005X60N_60000_3
 70
0
 62
7
  6
CONTINUOUS
370
-3
390
F
  0
LAYER
  5
225
100
AcDbSymbolTableRecord
100
AcDbLayerTableRecord
  2
CAPC1005X60N_60000_4
 70
0
 62
7
  6
CONTINUOUS
370
-3
390
F
  0
LAYER
  5
226
100
AcDbSymbolTableRecord
100
AcDbLayerTableRecord
  2
CAPC1005X60N_60000_5
 70
0
 62
7
  6
CONTINUOUS
370
-3
390
F
  0
LAYER
  5
227
100
AcDbSymbolTableRecord
100
AcDbLayerTableRecord
  2
CAPC1005X60N_60000_6
 70
0
 62
7
  6
CONTINUOUS
370
-3
390
F
  0
LAYER
  5
228
100
AcDbSymbolTableRecord
100
AcDbLayerTableRecord
  2
CAPC1005X60N_60000_7
 70
0
 62
7
  6
CONTINUOUS
370
-3
390
F
  0
LAYER
  5
229
100
AcDbSymbolTableRecord
100
AcDbLayerTableRecord
  2
CAPC1005X60N_60000_8
 70
0
 62
7
  6
CONTINUOUS
370
-3
390
F
  0
LAYER
  5
22A
100
AcDbSymbolTableRecord
100
AcDbLayerTableRecord
  2
CAPC1005X60N_60000_9
 70
0
 62
7
  6
CONTINUOUS
370
-3
390
F
  0
LAYER
  5
22B
100
AcDbSymbolTableRecord
100
AcDbLayerTableRecord
  2
CAPC1608N_80000
 70
0
 62
7
  6
CONTINUOUS
370
-3
390
F
  0
LAYER
  5
22C
100
AcDbSymbolTableRecord
100
AcDbLayerTableRecord
  2
CAPC1608N_80000_1
 70
0
 62
7
  6
CONTINUOUS
370
-3
390
F
  0
LAYER
  5
22D
100
AcDbSymbolTableRecord
100
AcDbLayerTableRecord
  2
CAPC1608N_80000_2
 70
0
 62
7
  6
CONTINUOUS
370
-3
390
F
  0
LAYER
  5
22E
100
AcDbSymbolTableRecord
100
AcDbLayerTableRecord
  2
CAPC1608N_80000_3
 70
0
 62
7
  6
CONTINUOUS
370
-3
390
F
  0
LAYER
  5
22F
100
AcDbSymbolTableRecord
100
AcDbLayerTableRecord
  2
CAPC1608N_80000_4
 70
0
 62
7
  6
CONTINUOUS
370
-3
390
F
  0
LAYER
  5
230
100
AcDbSymbolTableRecord
100
AcDbLayerTableRecord
  2
CAPC1608N_80000_5
 70
0
 62
7
  6
CONTINUOUS
370
-3
390
F
  0
LAYER
  5
231
100
AcDbSymbolTableRecord
100
AcDbLayerTableRecord
  2
CAPC1608N_80000_6
 70
0
 62
7
  6
CONTINUOUS
370
-3
390
F
  0
LAYER
  5
232
100
AcDbSymbolTableRecord
100
AcDbLayerTableRecord
  2
CAPC1608N_80000_7
 70
0
 62
7
  6
CONTINUOUS
370
-3
390
F
  0
LAYER
  5
233
100
AcDbSymbolTableRecord
100
AcDbLayerTableRecord
  2
CC-20MILS-VIMAR_1000
 70
0
 62
7
  6
CONTINUOUS
370
-3
390
F
  0
LAYER
  5
234
100
AcDbSymbolTableRecord
100
AcDbLayerTableRecord
  2
CN-MSB02001-VIMAR_1000000
 70
0
 62
7
  6
CONTINUOUS
370
-3
390
F
  0
LAYER
  5
235
100
AcDbSymbolTableRecord
100
AcDbLayerTableRecord
  2
CN-MSB02001-VIMAR_1000000_1
 70
0
 62
7
  6
CONTINUOUS
370
-3
390
F
  0
LAYER
  5
236
100
AcDbSymbolTableRecord
100
AcDbLayerTableRecord
  2
CN-MSB02001-VIMAR_1000000_2
 70
0
 62
7
  6
CONTINUOUS
370
-3
390
F
  0
LAYER
  5
237
100
AcDbSymbolTableRecord
100
AcDbLayerTableRecord
  2
CN07-CRIMPWIRES-RIGHT-PIH-P2_1_
 70
0
 62
7
  6
CONTINUOUS
370
-3
390
F
  0
LAYER
  5
238
100
AcDbSymbolTableRecord
100
AcDbLayerTableRecord
  2
CN1-REF_SQUAREHOLE12_SPEA-VIMAR
 70
0
 62
7
  6
CONTINUOUS
370
-3
390
F
  0
LAYER
  5
239
100
AcDbSymbolTableRecord
100
AcDbLayerTableRecord
  2
CN1-REF_SQUAREHOLE12_SPEA-VIM_1
 70
0
 62
7
  6
CONTINUOUS
370
-3
390
F
  0
LAYER
  5
23A
100
AcDbSymbolTableRecord
100
AcDbLayerTableRecord
  2
CN1-REF_SQUAREHOLE12_SPEA-VIM_2
 70
0
 62
7
  6
CONTINUOUS
370
-3
390
F
  0
LAYER
  5
23B
100
AcDbSymbolTableRecord
100
AcDbLayerTableRecord
  2
CN1-REF_SQUAREHOLE12_SPEA-VIM_3
 70
0
 62
7
  6
CONTINUOUS
370
-3
390
F
  0
LAYER
  5
23C
100
AcDbSymbolTableRecord
100
AcDbLayerTableRecord
  2
CN1-TP10_SMD-VIMAR_01_10000
 70
0
 62
7
  6
CONTINUOUS
370
-3
390
F
  0
LAYER
  5
23D
100
AcDbSymbolTableRecord
100
AcDbLayerTableRecord
  2
CN1-TP10_SMD-VIMAR_01_10000_1
 70
0
 62
7
  6
CONTINUOUS
370
-3
390
F
  0
LAYER
  5
23E
100
AcDbSymbolTableRecord
100
AcDbLayerTableRecord
  2
CN1-TP10_SMD-VIMAR_01_10000_2
 70
0
 62
7
  6
CONTINUOUS
370
-3
390
F
  0
LAYER
  5
23F
100
AcDbSymbolTableRecord
100
AcDbLayerTableRecord
  2
CN1-TP10_SMD-VIMAR_01_10000_3
 70
0
 62
7
  6
CONTINUOUS
370
-3
390
F
  0
LAYER
  5
240
100
AcDbSymbolTableRecord
100
AcDbLayerTableRecord
  2
CN1-TP10_SMD-VIMAR_01_10000_4
 70
0
 62
7
  6
CONTINUOUS
370
-3
390
F
  0
LAYER
  5
241
100
AcDbSymbolTableRecord
100
AcDbLayerTableRecord
  2
CN1-TP10_SMD-VIMAR_01_10000_5
 70
0
 62
7
  6
CONTINUOUS
370
-3
390
F
  0
LAYER
  5
242
100
AcDbSymbolTableRecord
100
AcDbLayerTableRecord
  2
CN1-TP10_SMD-VIMAR_10000
 70
0
 62
7
  6
CONTINUOUS
370
-3
390
F
  0
LAYER
  5
243
100
AcDbSymbolTableRecord
100
AcDbLayerTableRecord
  2
CN1-TP10_SMD-VIMAR_10000_1
 70
0
 62
7
  6
CONTINUOUS
370
-3
390
F
  0
LAYER
  5
244
100
AcDbSymbolTableRecord
100
AcDbLayerTableRecord
  2
CN1-TP10_SMD-VIMAR_10000_2
 70
0
 62
7
  6
CONTINUOUS
370
-3
390
F
  0
LAYER
  5
245
100
AcDbSymbolTableRecord
100
AcDbLayerTableRecord
  2
CN1-TP10_SMD-VIMAR_10000_3
 70
0
 62
7
  6
CONTINUOUS
370
-3
390
F
  0
LAYER
  5
246
100
AcDbSymbolTableRecord
100
AcDbLayerTableRecord
  2
CN_MKDSN1_5_2_1000000
 70
0
 62
7
  6
CONTINUOUS
370
-3
390
F
  0
LAYER
  5
247
100
AcDbSymbolTableRecord
100
AcDbLayerTableRecord
  2
CN_MKDSN1_5_3_1000000
 70
0
 62
7
  6
CONTINUOUS
370
-3
390
F
  0
LAYER
  5
248
100
AcDbSymbolTableRecord
100
AcDbLayerTableRecord
  2
CN_SAURO_MTB_R1_P7_850000
 70
0
 62
7
  6
CONTINUOUS
370
-3
390
F
  0
LAYER
  5
249
100
AcDbSymbolTableRecord
100
AcDbLayerTableRecord
  2
COLOR12
 70
0
 62
7
  6
CONTINUOUS
370
-3
390
F
  0
LAYER
  5
24A
100
AcDbSymbolTableRecord
100
AcDbLayerTableRecord
  2
COLOR13
 70
0
 62
7
  6
CONTINUOUS
370
-3
390
F
  0
LAYER
  5
24B
100
AcDbSymbolTableRecord
100
AcDbLayerTableRecord
  2
COLOR17
 70
0
 62
7
  6
CONTINUOUS
370
-3
390
F
  0
LAYER
  5
24C
100
AcDbSymbolTableRecord
100
AcDbLayerTableRecord
  2
COLOR19
 70
0
 62
7
  6
CONTINUOUS
370
-3
390
F
  0
LAYER
  5
24D
100
AcDbSymbolTableRecord
100
AcDbLayerTableRecord
  2
COLOR20
 70
0
 62
7
  6
CONTINUOUS
370
-3
390
F
  0
LAYER
  5
24E
100
AcDbSymbolTableRecord
100
AcDbLayerTableRecord
  2
COLOR21
 70
0
 62
7
  6
CONTINUOUS
370
-3
390
F
  0
LAYER
  5
24F
100
AcDbSymbolTableRecord
100
AcDbLayerTableRecord
  2
COLOR24
 70
0
 62
7
  6
CONTINUOUS
370
-3
390
F
  0
LAYER
  5
250
100
AcDbSymbolTableRecord
100
AcDbLayerTableRecord
  2
COLOR27
 70
0
 62
7
  6
CONTINUOUS
370
-3
390
F
  0
LAYER
  5
251
100
AcDbSymbolTableRecord
100
AcDbLayerTableRecord
  2
COLOR31
 70
0
 62
7
  6
CONTINUOUS
370
-3
390
F
  0
LAYER
  5
252
100
AcDbSymbolTableRecord
100
AcDbLayerTableRecord
  2
COLOR5
 70
0
 62
7
  6
CONTINUOUS
370
-3
390
F
  0
LAYER
  5
253
100
AcDbSymbolTableRecord
100
AcDbLayerTableRecord
  2
COLOR6
 70
0
 62
7
  6
CONTINUOUS
370
-3
390
F
  0
LAYER
  5
254
100
AcDbSymbolTableRecord
100
AcDbLayerTableRecord
  2
COLOR7
 70
0
 62
7
  6
CONTINUOUS
370
-3
390
F
  0
LAYER
  5
255
100
AcDbSymbolTableRecord
100
AcDbLayerTableRecord
  2
COLOR8
 70
0
 62
7
  6
CONTINUOUS
370
-3
390
F
  0
LAYER
  5
256
100
AcDbSymbolTableRecord
100
AcDbLayerTableRecord
  2
COORDINATE
 70
0
 62
7
  6
CONTINUOUS
370
-3
390
F
  0
LAYER
  5
257
100
AcDbSymbolTableRecord
100
AcDbLayerTableRecord
  2
COPY_PUBLISH
 70
0
 62
7
  6
CONTINUOUS
370
-3
390
F
  0
LAYER
  5
258
100
AcDbSymbolTableRecord
100
AcDbLayerTableRecord
  2
COSMETIC
 70
0
 62
7
  6
CONTINUOUS
370
-3
390
F
  0
LAYER
  5
259
100
AcDbSymbolTableRecord
100
AcDbLayerTableRecord
  2
COSMETICI
 70
0
 62
7
  6
CONTINUOUS
370
-3
390
F
  0
LAYER
  5
25A
100
AcDbSymbolTableRecord
100
AcDbLayerTableRecord
  2
CP-CE6-RF_820000
 70
0
 62
7
  6
CONTINUOUS
370
-3
390
F
  0
LAYER
  5
25B
100
AcDbSymbolTableRecord
100
AcDbLayerTableRecord
  2
CP-DO-214AC-VIMAR_240000
 70
0
 62
7
  6
CONTINUOUS
370
-3
390
F
  0
LAYER
  5
25C
100
AcDbSymbolTableRecord
100
AcDbLayerTableRecord
  2
CURVE
 70
0
 62
7
  6
CONTINUOUS
370
-3
390
F
  0
LAYER
  5
25D
100
AcDbSymbolTableRecord
100
AcDbLayerTableRecord
  2
DL_1X0_5X0_6MM_60000
 70
0
 62
7
  6
CONTINUOUS
370
-3
390
F
  0
LAYER
  5
25E
100
AcDbSymbolTableRecord
100
AcDbLayerTableRecord
  2
DL_1X0_5X0_6MM_60000_1
 70
0
 62
7
  6
CONTINUOUS
370
-3
390
F
  0
LAYER
  5
25F
100
AcDbSymbolTableRecord
100
AcDbLayerTableRecord
  2
DL_1X0_5X0_6MM_60000_2
 70
0
 62
7
  6
CONTINUOUS
370
-3
390
F
  0
LAYER
  5
260
100
AcDbSymbolTableRecord
100
AcDbLayerTableRecord
  2
DRAFT
 70
0
 62
7
  6
CONTINUOUS
370
-3
390
F
  0
LAYER
  5
261
100
AcDbSymbolTableRecord
100
AcDbLayerTableRecord
  2
E2_MARK_10000
 70
0
 62
7
  6
CONTINUOUS
370
-3
390
F
  0
LAYER
  5
262
100
AcDbSymbolTableRecord
100
AcDbLayerTableRecord
  2
E4_MARK_10000
 70
0
 62
7
  6
CONTINUOUS
370
-3
390
F
  0
LAYER
  5
263
100
AcDbSymbolTableRecord
100
AcDbLayerTableRecord
  2
IMPORT_IGES
 70
0
 62
7
  6
CONTINUOUS
370
-3
390
F
  0
LAYER
  5
264
100
AcDbSymbolTableRecord
100
AcDbLayerTableRecord
  2
INDC1005X55N_55000
 70
0
 62
7
  6
CONTINUOUS
370
-3
390
F
  0
LAYER
  5
265
100
AcDbSymbolTableRecord
100
AcDbLayerTableRecord
  2
INTF_1
 70
0
 62
7
  6
CONTINUOUS
370
-3
390
F
  0
LAYER
  5
266
100
AcDbSymbolTableRecord
100
AcDbLayerTableRecord
  2
INTF_BLUE
 70
0
 62
7
  6
CONTINUOUS
370
-3
390
F
  0
LAYER
  5
267
100
AcDbSymbolTableRecord
100
AcDbLayerTableRecord
  2
LAYER_126
 70
0
 62
7
  6
CONTINUOUS
370
-3
390
F
  0
LAYER
  5
268
100
AcDbSymbolTableRecord
100
AcDbLayerTableRecord
  2
LAYER_22
 70
0
 62
7
  6
CONTINUOUS
370
-3
390
F
  0
LAYER
  5
269
100
AcDbSymbolTableRecord
100
AcDbLayerTableRecord
  2
LAYER_34
 70
0
 62
7
  6
CONTINUOUS
370
-3
390
F
  0
LAYER
  5
26A
100
AcDbSymbolTableRecord
100
AcDbLayerTableRecord
  2
LAYER_44
 70
0
 62
7
  6
CONTINUOUS
370
-3
390
F
  0
LAYER
  5
26B
100
AcDbSymbolTableRecord
100
AcDbLayerTableRecord
  2
LAYER_802
 70
0
 62
7
  6
CONTINUOUS
370
-3
390
F
  0
LAYER
  5
26C
100
AcDbSymbolTableRecord
100
AcDbLayerTableRecord
  2
LOGO_RESIST-RESTYLING_10000
 70
0
 62
7
  6
CONTINUOUS
370
-3
390
F
  0
LAYER
  5
26D
100
AcDbSymbolTableRecord
100
AcDbLayerTableRecord
  2
L_SRR0604-RF-VIMAR_480000
 70
0
 62
7
  6
CONTINUOUS
370
-3
390
F
  0
LAYER
  5
26E
100
AcDbSymbolTableRecord
100
AcDbLayerTableRecord
  2
L_SRR0604-RF-VIMAR_480000_1
 70
0
 62
7
  6
CONTINUOUS
370
-3
390
F
  0
LAYER
  5
26F
100
AcDbSymbolTableRecord
100
AcDbLayerTableRecord
  2
L_SRR0604-RF-VIMAR_480000_10
 70
0
 62
7
  6
CONTINUOUS
370
-3
390
F
  0
LAYER
  5
270
100
AcDbSymbolTableRecord
100
AcDbLayerTableRecord
  2
L_SRR0604-RF-VIMAR_480000_11
 70
0
 62
7
  6
CONTINUOUS
370
-3
390
F
  0
LAYER
  5
271
100
AcDbSymbolTableRecord
100
AcDbLayerTableRecord
  2
L_SRR0604-RF-VIMAR_480000_2
 70
0
 62
7
  6
CONTINUOUS
370
-3
390
F
  0
LAYER
  5
272
100
AcDbSymbolTableRecord
100
AcDbLayerTableRecord
  2
L_SRR0604-RF-VIMAR_480000_3
 70
0
 62
7
  6
CONTINUOUS
370
-3
390
F
  0
LAYER
  5
273
100
AcDbSymbolTableRecord
100
AcDbLayerTableRecord
  2
L_SRR0604-RF-VIMAR_480000_4
 70
0
 62
7
  6
CONTINUOUS
370
-3
390
F
  0
LAYER
  5
274
100
AcDbSymbolTableRecord
100
AcDbLayerTableRecord
  2
L_SRR0604-RF-VIMAR_480000_5
 70
0
 62
7
  6
CONTINUOUS
370
-3
390
F
  0
LAYER
  5
275
100
AcDbSymbolTableRecord
100
AcDbLayerTableRecord
  2
L_SRR0604-RF-VIMAR_480000_6
 70
0
 62
7
  6
CONTINUOUS
370
-3
390
F
  0
LAYER
  5
276
100
AcDbSymbolTableRecord
100
AcDbLayerTableRecord
  2
L_SRR0604-RF-VIMAR_480000_7
 70
0
 62
7
  6
CONTINUOUS
370
-3
390
F
  0
LAYER
  5
277
100
AcDbSymbolTableRecord
100
AcDbLayerTableRecord
  2
L_SRR0604-RF-VIMAR_480000_8
 70
0
 62
7
  6
CONTINUOUS
370
-3
390
F
  0
LAYER
  5
278
100
AcDbSymbolTableRecord
100
AcDbLayerTableRecord
  2
L_SRR0604-RF-VIMAR_480000_9
 70
0
 62
7
  6
CONTINUOUS
370
-3
390
F
  0
LAYER
  5
279
100
AcDbSymbolTableRecord
100
AcDbLayerTableRecord
  2
MM3-MPAK-RF-VIMAR_120000
 70
0
 62
7
  6
CONTINUOUS
370
-3
390
F
  0
LAYER
  5
27A
100
AcDbSymbolTableRecord
100
AcDbLayerTableRecord
  2
MM3-SOT323-RF-VIMAR_100000
 70
0
 62
7
  6
CONTINUOUS
370
-3
390
F
  0
LAYER
  5
27B
100
AcDbSymbolTableRecord
100
AcDbLayerTableRecord
  2
MM3-SOT323-RF-VIMAR_100000_1
 70
0
 62
7
  6
CONTINUOUS
370
-3
390
F
  0
LAYER
  5
27C
100
AcDbSymbolTableRecord
100
AcDbLayerTableRecord
  2
MM3-SOT323-RF-VIMAR_100000_2
 70
0
 62
7
  6
CONTINUOUS
370
-3
390
F
  0
LAYER
  5
27D
100
AcDbSymbolTableRecord
100
AcDbLayerTableRecord
  2
MM3-SOT323-RF-VIMAR_100000_3
 70
0
 62
7
  6
CONTINUOUS
370
-3
390
F
  0
LAYER
  5
27E
100
AcDbSymbolTableRecord
100
AcDbLayerTableRecord
  2
MM4-X-3-VIMAR_130000
 70
0
 62
7
  6
CONTINUOUS
370
-3
390
F
  0
LAYER
  5
27F
100
AcDbSymbolTableRecord
100
AcDbLayerTableRecord
  2
MM5-FMT-RF_120000
 70
0
 62
7
  6
CONTINUOUS
370
-3
390
F
  0
LAYER
  5
280
100
AcDbSymbolTableRecord
100
AcDbLayerTableRecord
  2
MM5-FMT-RF_120000_1
 70
0
 62
7
  6
CONTINUOUS
370
-3
390
F
  0
LAYER
  5
281
100
AcDbSymbolTableRecord
100
AcDbLayerTableRecord
  2
MM5-FMT-RF_120000_2
 70
0
 62
7
  6
CONTINUOUS
370
-3
390
F
  0
LAYER
  5
282
100
AcDbSymbolTableRecord
100
AcDbLayerTableRecord
  2
MM5-FMT-RF_120000_3
 70
0
 62
7
  6
CONTINUOUS
370
-3
390
F
  0
LAYER
  5
283
100
AcDbSymbolTableRecord
100
AcDbLayerTableRecord
  2
MM6-SC70-1-VIMAR_110000
 70
0
 62
7
  6
CONTINUOUS
370
-3
390
F
  0
LAYER
  5
284
100
AcDbSymbolTableRecord
100
AcDbLayerTableRecord
  2
MM6-SC70-1-VIMAR_110000_1
 70
0
 62
7
  6
CONTINUOUS
370
-3
390
F
  0
LAYER
  5
285
100
AcDbSymbolTableRecord
100
AcDbLayerTableRecord
  2
MM6-SC70-1-VIMAR_110000_10
 70
0
 62
7
  6
CONTINUOUS
370
-3
390
F
  0
LAYER
  5
286
100
AcDbSymbolTableRecord
100
AcDbLayerTableRecord
  2
MM6-SC70-1-VIMAR_110000_2
 70
0
 62
7
  6
CONTINUOUS
370
-3
390
F
  0
LAYER
  5
287
100
AcDbSymbolTableRecord
100
AcDbLayerTableRecord
  2
MM6-SC70-1-VIMAR_110000_3
 70
0
 62
7
  6
CONTINUOUS
370
-3
390
F
  0
LAYER
  5
288
100
AcDbSymbolTableRecord
100
AcDbLayerTableRecord
  2
MM6-SC70-1-VIMAR_110000_4
 70
0
 62
7
  6
CONTINUOUS
370
-3
390
F
  0
LAYER
  5
289
100
AcDbSymbolTableRecord
100
AcDbLayerTableRecord
  2
MM6-SC70-1-VIMAR_110000_5
 70
0
 62
7
  6
CONTINUOUS
370
-3
390
F
  0
LAYER
  5
28A
100
AcDbSymbolTableRecord
100
AcDbLayerTableRecord
  2
MM6-SC70-1-VIMAR_110000_6
 70
0
 62
7
  6
CONTINUOUS
370
-3
390
F
  0
LAYER
  5
28B
100
AcDbSymbolTableRecord
100
AcDbLayerTableRecord
  2
MM6-SC70-1-VIMAR_110000_7
 70
0
 62
7
  6
CONTINUOUS
370
-3
390
F
  0
LAYER
  5
28C
100
AcDbSymbolTableRecord
100
AcDbLayerTableRecord
  2
MM6-SC70-1-VIMAR_110000_8
 70
0
 62
7
  6
CONTINUOUS
370
-3
390
F
  0
LAYER
  5
28D
100
AcDbSymbolTableRecord
100
AcDbLayerTableRecord
  2
MM6-SC70-1-VIMAR_110000_9
 70
0
 62
7
  6
CONTINUOUS
370
-3
390
F
  0
LAYER
  5
28E
100
AcDbSymbolTableRecord
100
AcDbLayerTableRecord
  2
NO-PB_MARK_10000
 70
0
 62
7
  6
CONTINUOUS
370
-3
390
F
  0
LAYER
  5
28F
100
AcDbSymbolTableRecord
100
AcDbLayerTableRecord
  2
NONE
 70
0
 62
7
  6
CONTINUOUS
370
-3
390
F
  0
LAYER
  5
290
100
AcDbSymbolTableRecord
100
AcDbLayerTableRecord
  2
NONE_1
 70
0
 62
7
  6
CONTINUOUS
370
-3
390
F
  0
LAYER
  5
291
100
AcDbSymbolTableRecord
100
AcDbLayerTableRecord
  2
NONE_2
 70
0
 62
7
  6
CONTINUOUS
370
-3
390
F
  0
LAYER
  5
292
100
AcDbSymbolTableRecord
100
AcDbLayerTableRecord
  2
NOTE
 70
0
 62
7
  6
CONTINUOUS
370
-3
390
F
  0
LAYER
  5
293
100
AcDbSymbolTableRecord
100
AcDbLayerTableRecord
  2
PIANI
 70
0
 62
7
  6
CONTINUOUS
370
-3
390
F
  0
LAYER
  5
294
100
AcDbSymbolTableRecord
100
AcDbLayerTableRecord
  2
PIANI_RIFERIMENTO
 70
0
 62
7
  6
CONTINUOUS
370
-3
390
F
  0
LAYER
  5
295
100
AcDbSymbolTableRecord
100
AcDbLayerTableRecord
  2
PUNTI
 70
0
 62
7
  6
CONTINUOUS
370
-3
390
F
  0
LAYER
  5
296
100
AcDbSymbolTableRecord
100
AcDbLayerTableRecord
  2
RACCORDO
 70
0
 62
7
  6
CONTINUOUS
370
-3
390
F
  0
LAYER
  5
297
100
AcDbSymbolTableRecord
100
AcDbLayerTableRecord
  2
RESC1005X40N_50000
 70
0
 62
7
  6
CONTINUOUS
370
-3
390
F
  0
LAYER
  5
298
100
AcDbSymbolTableRecord
100
AcDbLayerTableRecord
  2
RESC1005X40N_50000_1
 70
0
 62
7
  6
CONTINUOUS
370
-3
390
F
  0
LAYER
  5
299
100
AcDbSymbolTableRecord
100
AcDbLayerTableRecord
  2
RESC1005X40N_50000_10
 70
0
 62
7
  6
CONTINUOUS
370
-3
390
F
  0
LAYER
  5
29A
100
AcDbSymbolTableRecord
100
AcDbLayerTableRecord
  2
RESC1005X40N_50000_11
 70
0
 62
7
  6
CONTINUOUS
370
-3
390
F
  0
LAYER
  5
29B
100
AcDbSymbolTableRecord
100
AcDbLayerTableRecord
  2
RESC1005X40N_50000_12
 70
0
 62
7
  6
CONTINUOUS
370
-3
390
F
  0
LAYER
  5
29C
100
AcDbSymbolTableRecord
100
AcDbLayerTableRecord
  2
RESC1005X40N_50000_13
 70
0
 62
7
  6
CONTINUOUS
370
-3
390
F
  0
LAYER
  5
29D
100
AcDbSymbolTableRecord
100
AcDbLayerTableRecord
  2
RESC1005X40N_50000_14
 70
0
 62
7
  6
CONTINUOUS
370
-3
390
F
  0
LAYER
  5
29E
100
AcDbSymbolTableRecord
100
AcDbLayerTableRecord
  2
RESC1005X40N_50000_15
 70
0
 62
7
  6
CONTINUOUS
370
-3
390
F
  0
LAYER
  5
29F
100
AcDbSymbolTableRecord
100
AcDbLayerTableRecord
  2
RESC1005X40N_50000_16
 70
0
 62
7
  6
CONTINUOUS
370
-3
390
F
  0
LAYER
  5
2A0
100
AcDbSymbolTableRecord
100
AcDbLayerTableRecord
  2
RESC1005X40N_50000_17
 70
0
 62
7
  6
CONTINUOUS
370
-3
390
F
  0
LAYER
  5
2A1
100
AcDbSymbolTableRecord
100
AcDbLayerTableRecord
  2
RESC1005X40N_50000_18
 70
0
 62
7
  6
CONTINUOUS
370
-3
390
F
  0
LAYER
  5
2A2
100
AcDbSymbolTableRecord
100
AcDbLayerTableRecord
  2
RESC1005X40N_50000_19
 70
0
 62
7
  6
CONTINUOUS
370
-3
390
F
  0
LAYER
  5
2A3
100
AcDbSymbolTableRecord
100
AcDbLayerTableRecord
  2
RESC1005X40N_50000_2
 70
0
 62
7
  6
CONTINUOUS
370
-3
390
F
  0
LAYER
  5
2A4
100
AcDbSymbolTableRecord
100
AcDbLayerTableRecord
  2
RESC1005X40N_50000_20
 70
0
 62
7
  6
CONTINUOUS
370
-3
390
F
  0
LAYER
  5
2A5
100
AcDbSymbolTableRecord
100
AcDbLayerTableRecord
  2
RESC1005X40N_50000_21
 70
0
 62
7
  6
CONTINUOUS
370
-3
390
F
  0
LAYER
  5
2A6
100
AcDbSymbolTableRecord
100
AcDbLayerTableRecord
  2
RESC1005X40N_50000_22
 70
0
 62
7
  6
CONTINUOUS
370
-3
390
F
  0
LAYER
  5
2A7
100
AcDbSymbolTableRecord
100
AcDbLayerTableRecord
  2
RESC1005X40N_50000_23
 70
0
 62
7
  6
CONTINUOUS
370
-3
390
F
  0
LAYER
  5
2A8
100
AcDbSymbolTableRecord
100
AcDbLayerTableRecord
  2
RESC1005X40N_50000_24
 70
0
 62
7
  6
CONTINUOUS
370
-3
390
F
  0
LAYER
  5
2A9
100
AcDbSymbolTableRecord
100
AcDbLayerTableRecord
  2
RESC1005X40N_50000_25
 70
0
 62
7
  6
CONTINUOUS
370
-3
390
F
  0
LAYER
  5
2AA
100
AcDbSymbolTableRecord
100
AcDbLayerTableRecord
  2
RESC1005X40N_50000_26
 70
0
 62
7
  6
CONTINUOUS
370
-3
390
F
  0
LAYER
  5
2AB
100
AcDbSymbolTableRecord
100
AcDbLayerTableRecord
  2
RESC1005X40N_50000_27
 70
0
 62
7
  6
CONTINUOUS
370
-3
390
F
  0
LAYER
  5
2AC
100
AcDbSymbolTableRecord
100
AcDbLayerTableRecord
  2
RESC1005X40N_50000_28
 70
0
 62
7
  6
CONTINUOUS
370
-3
390
F
  0
LAYER
  5
2AD
100
AcDbSymbolTableRecord
100
AcDbLayerTableRecord
  2
RESC1005X40N_50000_29
 70
0
 62
7
  6
CONTINUOUS
370
-3
390
F
  0
LAYER
  5
2AE
100
AcDbSymbolTableRecord
100
AcDbLayerTableRecord
  2
RESC1005X40N_50000_3
 70
0
 62
7
  6
CONTINUOUS
370
-3
390
F
  0
LAYER
  5
2AF
100
AcDbSymbolTableRecord
100
AcDbLayerTableRecord
  2
RESC1005X40N_50000_30
 70
0
 62
7
  6
CONTINUOUS
370
-3
390
F
  0
LAYER
  5
2B0
100
AcDbSymbolTableRecord
100
AcDbLayerTableRecord
  2
RESC1005X40N_50000_31
 70
0
 62
7
  6
CONTINUOUS
370
-3
390
F
  0
LAYER
  5
2B1
100
AcDbSymbolTableRecord
100
AcDbLayerTableRecord
  2
RESC1005X40N_50000_32
 70
0
 62
7
  6
CONTINUOUS
370
-3
390
F
  0
LAYER
  5
2B2
100
AcDbSymbolTableRecord
100
AcDbLayerTableRecord
  2
RESC1005X40N_50000_33
 70
0
 62
7
  6
CONTINUOUS
370
-3
390
F
  0
LAYER
  5
2B3
100
AcDbSymbolTableRecord
100
AcDbLayerTableRecord
  2
RESC1005X40N_50000_34
 70
0
 62
7
  6
CONTINUOUS
370
-3
390
F
  0
LAYER
  5
2B4
100
AcDbSymbolTableRecord
100
AcDbLayerTableRecord
  2
RESC1005X40N_50000_35
 70
0
 62
7
  6
CONTINUOUS
370
-3
390
F
  0
LAYER
  5
2B5
100
AcDbSymbolTableRecord
100
AcDbLayerTableRecord
  2
RESC1005X40N_50000_36
 70
0
 62
7
  6
CONTINUOUS
370
-3
390
F
  0
LAYER
  5
2B6
100
AcDbSymbolTableRecord
100
AcDbLayerTableRecord
  2
RESC1005X40N_50000_37
 70
0
 62
7
  6
CONTINUOUS
370
-3
390
F
  0
LAYER
  5
2B7
100
AcDbSymbolTableRecord
100
AcDbLayerTableRecord
  2
RESC1005X40N_50000_38
 70
0
 62
7
  6
CONTINUOUS
370
-3
390
F
  0
LAYER
  5
2B8
100
AcDbSymbolTableRecord
100
AcDbLayerTableRecord
  2
RESC1005X40N_50000_39
 70
0
 62
7
  6
CONTINUOUS
370
-3
390
F
  0
LAYER
  5
2B9
100
AcDbSymbolTableRecord
100
AcDbLayerTableRecord
  2
RESC1005X40N_50000_4
 70
0
 62
7
  6
CONTINUOUS
370
-3
390
F
  0
LAYER
  5
2BA
100
AcDbSymbolTableRecord
100
AcDbLayerTableRecord
  2
RESC1005X40N_50000_40
 70
0
 62
7
  6
CONTINUOUS
370
-3
390
F
  0
LAYER
  5
2BB
100
AcDbSymbolTableRecord
100
AcDbLayerTableRecord
  2
RESC1005X40N_50000_41
 70
0
 62
7
  6
CONTINUOUS
370
-3
390
F
  0
LAYER
  5
2BC
100
AcDbSymbolTableRecord
100
AcDbLayerTableRecord
  2
RESC1005X40N_50000_42
 70
0
 62
7
  6
CONTINUOUS
370
-3
390
F
  0
LAYER
  5
2BD
100
AcDbSymbolTableRecord
100
AcDbLayerTableRecord
  2
RESC1005X40N_50000_5
 70
0
 62
7
  6
CONTINUOUS
370
-3
390
F
  0
LAYER
  5
2BE
100
AcDbSymbolTableRecord
100
AcDbLayerTableRecord
  2
RESC1005X40N_50000_6
 70
0
 62
7
  6
CONTINUOUS
370
-3
390
F
  0
LAYER
  5
2BF
100
AcDbSymbolTableRecord
100
AcDbLayerTableRecord
  2
RESC1005X40N_50000_7
 70
0
 62
7
  6
CONTINUOUS
370
-3
390
F
  0
LAYER
  5
2C0
100
AcDbSymbolTableRecord
100
AcDbLayerTableRecord
  2
RESC1005X40N_50000_8
 70
0
 62
7
  6
CONTINUOUS
370
-3
390
F
  0
LAYER
  5
2C1
100
AcDbSymbolTableRecord
100
AcDbLayerTableRecord
  2
RESC1005X40N_50000_9
 70
0
 62
7
  6
CONTINUOUS
370
-3
390
F
  0
LAYER
  5
2C2
100
AcDbSymbolTableRecord
100
AcDbLayerTableRecord
  2
RESC1608N_45000
 70
0
 62
7
  6
CONTINUOUS
370
-3
390
F
  0
LAYER
  5
2C3
100
AcDbSymbolTableRecord
100
AcDbLayerTableRecord
  2
RESC1608N_45000_1
 70
0
 62
7
  6
CONTINUOUS
370
-3
390
F
  0
LAYER
  5
2C4
100
AcDbSymbolTableRecord
100
AcDbLayerTableRecord
  2
RESC1608N_45000_2
 70
0
 62
7
  6
CONTINUOUS
370
-3
390
F
  0
LAYER
  5
2C5
100
AcDbSymbolTableRecord
100
AcDbLayerTableRecord
  2
RESC1608N_45000_3
 70
0
 62
7
  6
CONTINUOUS
370
-3
390
F
  0
LAYER
  5
2C6
100
AcDbSymbolTableRecord
100
AcDbLayerTableRecord
  2
RESC1608N_45000_4
 70
0
 62
7
  6
CONTINUOUS
370
-3
390
F
  0
LAYER
  5
2C7
100
AcDbSymbolTableRecord
100
AcDbLayerTableRecord
  2
RESC1608N_45000_5
 70
0
 62
7
  6
CONTINUOUS
370
-3
390
F
  0
LAYER
  5
2C8
100
AcDbSymbolTableRecord
100
AcDbLayerTableRecord
  2
RESC1608N_45000_6
 70
0
 62
7
  6
CONTINUOUS
370
-3
390
F
  0
LAYER
  5
2C9
100
AcDbSymbolTableRecord
100
AcDbLayerTableRecord
  2
RESC1608N_45000_7
 70
0
 62
7
  6
CONTINUOUS
370
-3
390
F
  0
LAYER
  5
2CA
100
AcDbSymbolTableRecord
100
AcDbLayerTableRecord
  2
RESC1608N_45000_8
 70
0
 62
7
  6
CONTINUOUS
370
-3
390
F
  0
LAYER
  5
2CB
100
AcDbSymbolTableRecord
100
AcDbLayerTableRecord
  2
RY-S12CO-4-VIMAR_1910000
 70
0
 62
7
  6
CONTINUOUS
370
-3
390
F
  0
LAYER
  5
2CC
100
AcDbSymbolTableRecord
100
AcDbLayerTableRecord
  2
RY-S13-3-VIMAR_1500000
 70
0
 62
7
  6
CONTINUOUS
370
-3
390
F
  0
LAYER
  5
2CD
100
AcDbSymbolTableRecord
100
AcDbLayerTableRecord
  2
RY-S13-3-VIMAR_1500000_1
 70
0
 62
7
  6
CONTINUOUS
370
-3
390
F
  0
LAYER
  5
2CE
100
AcDbSymbolTableRecord
100
AcDbLayerTableRecord
  2
S-PB_SKRP_VIMAR_250000
 70
0
 62
7
  6
CONTINUOUS
370
-3
390
F
  0
LAYER
  5
2CF
100
AcDbSymbolTableRecord
100
AcDbLayerTableRecord
  2
SIMBOLI
 70
0
 62
7
  6
CONTINUOUS
370
-3
390
F
  0
LAYER
  5
2D0
100
AcDbSymbolTableRecord
100
AcDbLayerTableRecord
  2
SMUSSO
 70
0
 62
7
  6
CONTINUOUS
370
-3
390
F
  0
LAYER
  5
2D1
100
AcDbSymbolTableRecord
100
AcDbLayerTableRecord
  2
SNAPLINE
 70
0
 62
7
  6
CONTINUOUS
370
-3
390
F
  0
LAYER
  5
2D2
100
AcDbSymbolTableRecord
100
AcDbLayerTableRecord
  2
SODFL1608X70N_70000
 70
0
 62
7
  6
CONTINUOUS
370
-3
390
F
  0
LAYER
  5
2D3
100
AcDbSymbolTableRecord
100
AcDbLayerTableRecord
  2
SODFL1608X70N_70000_1
 70
0
 62
7
  6
CONTINUOUS
370
-3
390
F
  0
LAYER
  5
2D4
100
AcDbSymbolTableRecord
100
AcDbLayerTableRecord
  2
SODFL1608X70N_70000_2
 70
0
 62
7
  6
CONTINUOUS
370
-3
390
F
  0
LAYER
  5
2D5
100
AcDbSymbolTableRecord
100
AcDbLayerTableRecord
  2
SODFL1608X70N_70000_3
 70
0
 62
7
  6
CONTINUOUS
370
-3
390
F
  0
LAYER
  5
2D6
100
AcDbSymbolTableRecord
100
AcDbLayerTableRecord
  2
SODFL1608X70N_70000_4
 70
0
 62
7
  6
CONTINUOUS
370
-3
390
F
  0
LAYER
  5
2D7
100
AcDbSymbolTableRecord
100
AcDbLayerTableRecord
  2
SODFL1608X70N_70000_5
 70
0
 62
7
  6
CONTINUOUS
370
-3
390
F
  0
LAYER
  5
2D8
100
AcDbSymbolTableRecord
100
AcDbLayerTableRecord
  2
SODFL1608X70N_70000_6
 70
0
 62
7
  6
CONTINUOUS
370
-3
390
F
  0
LAYER
  5
2D9
100
AcDbSymbolTableRecord
100
AcDbLayerTableRecord
  2
SOT1061_65000
 70
0
 62
7
  6
CONTINUOUS
370
-3
390
F
  0
LAYER
  5
2DA
100
AcDbSymbolTableRecord
100
AcDbLayerTableRecord
  2
SOT95P280X110-6N_110000
 70
0
 62
7
  6
CONTINUOUS
370
-3
390
F
  0
LAYER
  5
2DB
100
AcDbSymbolTableRecord
100
AcDbLayerTableRecord
  2
SOT95P280X110-6N_110000_1
 70
0
 62
7
  6
CONTINUOUS
370
-3
390
F
  0
LAYER
  5
2DC
100
AcDbSymbolTableRecord
100
AcDbLayerTableRecord
  2
SUPERFICI
 70
0
 62
7
  6
CONTINUOUS
370
-3
390
F
  0
LAYER
  5
2DD
100
AcDbSymbolTableRecord
100
AcDbLayerTableRecord
  2
TP10_SMD_0
 70
0
 62
7
  6
CONTINUOUS
370
-3
390
F
  0
LAYER
  5
2DE
100
AcDbSymbolTableRecord
100
AcDbLayerTableRecord
  2
TP10_SMD_0_1
 70
0
 62
7
  6
CONTINUOUS
370
-3
390
F
  0
LAYER
  5
2DF
100
AcDbSymbolTableRecord
100
AcDbLayerTableRecord
  2
TP10_SMD_0_2
 70
0
 62
7
  6
CONTINUOUS
370
-3
390
F
  0
LAYER
  5
2E0
100
AcDbSymbolTableRecord
100
AcDbLayerTableRecord
  2
TP10_SMD_0_3
 70
0
 62
7
  6
CONTINUOUS
370
-3
390
F
  0
LAYER
  5
2E1
100
AcDbSymbolTableRecord
100
AcDbLayerTableRecord
  2
TP10_SMD_0_4
 70
0
 62
7
  6
CONTINUOUS
370
-3
390
F
  0
LAYER
  5
2E2
100
AcDbSymbolTableRecord
100
AcDbLayerTableRecord
  2
TP10_SMD_0_5
 70
0
 62
7
  6
CONTINUOUS
370
-3
390
F
  0
LAYER
  5
2E3
100
AcDbSymbolTableRecord
100
AcDbLayerTableRecord
  2
TP10_SMD_0_6
 70
0
 62
7
  6
CONTINUOUS
370
-3
390
F
  0
LAYER
  5
2E4
100
AcDbSymbolTableRecord
100
AcDbLayerTableRecord
  2
TP10_SMD_0_7
 70
0
 62
7
  6
CONTINUOUS
370
-3
390
F
  0
LAYER
  5
2E5
100
AcDbSymbolTableRecord
100
AcDbLayerTableRecord
  2
TQFP48-F1-RF-VIMAR_160000
 70
0
 62
7
  6
CONTINUOUS
370
-3
390
F
  0
LAYER
  5
2E6
100
AcDbSymbolTableRecord
100
AcDbLayerTableRecord
  2
TRASH
 70
0
 62
7
  6
CONTINUOUS
370
-3
390
F
  0
LAYER
  5
2E7
100
AcDbSymbolTableRecord
100
AcDbLayerTableRecord
  2
WIRE_0_5MMQ_0
 70
0
 62
7
  6
CONTINUOUS
370
-3
390
F
  0
LAYER
  5
2E8
100
AcDbSymbolTableRecord
100
AcDbLayerTableRecord
  2
WIRE_0_5MMQ_0_1
 70
0
 62
7
  6
CONTINUOUS
370
-3
390
F
  0
LAYER
  5
2E9
100
AcDbSymbolTableRecord
100
AcDbLayerTableRecord
  2
WIRE_0_5MMQ_0_2
 70
0
 62
7
  6
CONTINUOUS
370
-3
390
F
  0
LAYER
  5
2EA
100
AcDbSymbolTableRecord
100
AcDbLayerTableRecord
  2
WIRE_0_5MMQ_0_3
 70
0
 62
7
  6
CONTINUOUS
370
-3
390
F
  0
LAYER
  5
2EB
100
AcDbSymbolTableRecord
100
AcDbLayerTableRecord
  2
WIRE_0_5MMQ_0_4
 70
0
 62
7
  6
CONTINUOUS
370
-3
390
F
  0
LAYER
  5
2EC
100
AcDbSymbolTableRecord
100
AcDbLayerTableRecord
  2
WIRE_0_5MMQ_0_5
 70
0
 62
7
  6
CONTINUOUS
370
-3
390
F
  0
LAYER
  5
2ED
100
AcDbSymbolTableRecord
100
AcDbLayerTableRecord
  2
WIRE_0_5MMQ_0_6
 70
0
 62
7
  6
CONTINUOUS
370
-3
390
F
  0
LAYER
  5
2EE
100
AcDbSymbolTableRecord
100
AcDbLayerTableRecord
  2
_10000
 70
0
 62
7
  6
CONTINUOUS
370
-3
390
F
  0
LAYER
  5
2EF
100
AcDbSymbolTableRecord
100
AcDbLayerTableRecord
  2
_10004
 70
0
 62
7
  6
CONTINUOUS
370
-3
390
F
  0
LAYER
  5
2F0
100
AcDbSymbolTableRecord
100
AcDbLayerTableRecord
  2
_10005
 70
0
 62
7
  6
CONTINUOUS
370
-3
390
F
  0
LAYER
  5
2F1
100
AcDbSymbolTableRecord
100
AcDbLayerTableRecord
  2
_10047
 70
0
 62
7
  6
CONTINUOUS
370
-3
390
F
  0
LAYER
  5
2F2
100
AcDbSymbolTableRecord
100
AcDbLayerTableRecord
  2
_10059
 70
0
 62
7
  6
CONTINUOUS
370
-3
390
F
  0
LAYER
  5
2F3
100
AcDbSymbolTableRecord
100
AcDbLayerTableRecord
  2
_10060
 70
0
 62
7
  6
CONTINUOUS
370
-3
390
F
  0
LAYER
  5
2F4
100
AcDbSymbolTableRecord
100
AcDbLayerTableRecord
  2
_10066
 70
0
 62
7
  6
CONTINUOUS
370
-3
390
F
  0
LAYER
  5
2F5
100
AcDbSymbolTableRecord
100
AcDbLayerTableRecord
  2
_10067
 70
0
 62
7
  6
CONTINUOUS
370
-3
390
F
  0
LAYER
  5
2F6
100
AcDbSymbolTableRecord
100
AcDbLayerTableRecord
  2
_10076
 70
0
 62
7
  6
CONTINUOUS
370
-3
390
F
  0
LAYER
  5
2F7
100
AcDbSymbolTableRecord
100
AcDbLayerTableRecord
  2
_101
 70
0
 62
7
  6
CONTINUOUS
370
-3
390
F
  0
LAYER
  5
2F8
100
AcDbSymbolTableRecord
100
AcDbLayerTableRecord
  2
_1011
 70
0
 62
7
  6
CONTINUOUS
370
-3
390
F
  0
LAYER
  5
2F9
100
AcDbSymbolTableRecord
100
AcDbLayerTableRecord
  2
_10114
 70
0
 62
7
  6
CONTINUOUS
370
-3
390
F
  0
LAYER
  5
2FA
100
AcDbSymbolTableRecord
100
AcDbLayerTableRecord
  2
_10128
 70
0
 62
7
  6
CONTINUOUS
370
-3
390
F
  0
LAYER
  5
2FB
100
AcDbSymbolTableRecord
100
AcDbLayerTableRecord
  2
_1018
 70
0
 62
7
  6
CONTINUOUS
370
-3
390
F
  0
LAYER
  5
2FC
100
AcDbSymbolTableRecord
100
AcDbLayerTableRecord
  2
_10218
 70
0
 62
7
  6
CONTINUOUS
370
-3
390
F
  0
LAYER
  5
2FD
100
AcDbSymbolTableRecord
100
AcDbLayerTableRecord
  2
_1024
 70
0
 62
7
  6
CONTINUOUS
370
-3
390
F
  0
LAYER
  5
2FE
100
AcDbSymbolTableRecord
100
AcDbLayerTableRecord
  2
_10251
 70
0
 62
7
  6
CONTINUOUS
370
-3
390
F
  0
LAYER
  5
2FF
100
AcDbSymbolTableRecord
100
AcDbLayerTableRecord
  2
_10263
 70
0
 62
7
  6
CONTINUOUS
370
-3
390
F
  0
LAYER
  5
300
100
AcDbSymbolTableRecord
100
AcDbLayerTableRecord
  2
_1028
 70
0
 62
7
  6
CONTINUOUS
370
-3
390
F
  0
LAYER
  5
301
100
AcDbSymbolTableRecord
100
AcDbLayerTableRecord
  2
_10281
 70
0
 62
7
  6
CONTINUOUS
370
-3
390
F
  0
LAYER
  5
302
100
AcDbSymbolTableRecord
100
AcDbLayerTableRecord
  2
_10285
 70
0
 62
7
  6
CONTINUOUS
370
-3
390
F
  0
LAYER
  5
303
100
AcDbSymbolTableRecord
100
AcDbLayerTableRecord
  2
_10336
 70
0
 62
7
  6
CONTINUOUS
370
-3
390
F
  0
LAYER
  5
304
100
AcDbSymbolTableRecord
100
AcDbLayerTableRecord
  2
_10358
 70
0
 62
7
  6
CONTINUOUS
370
-3
390
F
  0
LAYER
  5
305
100
AcDbSymbolTableRecord
100
AcDbLayerTableRecord
  2
_10361
 70
0
 62
7
  6
CONTINUOUS
370
-3
390
F
  0
LAYER
  5
306
100
AcDbSymbolTableRecord
100
AcDbLayerTableRecord
  2
_10369
 70
0
 62
7
  6
CONTINUOUS
370
-3
390
F
  0
LAYER
  5
307
100
AcDbSymbolTableRecord
100
AcDbLayerTableRecord
  2
_1038
 70
0
 62
7
  6
CONTINUOUS
370
-3
390
F
  0
LAYER
  5
308
100
AcDbSymbolTableRecord
100
AcDbLayerTableRecord
  2
_10387
 70
0
 62
7
  6
CONTINUOUS
370
-3
390
F
  0
LAYER
  5
309
100
AcDbSymbolTableRecord
100
AcDbLayerTableRecord
  2
_1039
 70
0
 62
7
  6
CONTINUOUS
370
-3
390
F
  0
LAYER
  5
30A
100
AcDbSymbolTableRecord
100
AcDbLayerTableRecord
  2
_10393
 70
0
 62
7
  6
CONTINUOUS
370
-3
390
F
  0
LAYER
  5
30B
100
AcDbSymbolTableRecord
100
AcDbLayerTableRecord
  2
_1046
 70
0
 62
7
  6
CONTINUOUS
370
-3
390
F
  0
LAYER
  5
30C
100
AcDbSymbolTableRecord
100
AcDbLayerTableRecord
  2
_10460
 70
0
 62
7
  6
CONTINUOUS
370
-3
390
F
  0
LAYER
  5
30D
100
AcDbSymbolTableRecord
100
AcDbLayerTableRecord
  2
_10502
 70
0
 62
7
  6
CONTINUOUS
370
-3
390
F
  0
LAYER
  5
30E
100
AcDbSymbolTableRecord
100
AcDbLayerTableRecord
  2
_10508
 70
0
 62
7
  6
CONTINUOUS
370
-3
390
F
  0
LAYER
  5
30F
100
AcDbSymbolTableRecord
100
AcDbLayerTableRecord
  2
_1051
 70
0
 62
7
  6
CONTINUOUS
370
-3
390
F
  0
LAYER
  5
310
100
AcDbSymbolTableRecord
100
AcDbLayerTableRecord
  2
_10514
 70
0
 62
7
  6
CONTINUOUS
370
-3
390
F
  0
LAYER
  5
311
100
AcDbSymbolTableRecord
100
AcDbLayerTableRecord
  2
_10525
 70
0
 62
7
  6
CONTINUOUS
370
-3
390
F
  0
LAYER
  5
312
100
AcDbSymbolTableRecord
100
AcDbLayerTableRecord
  2
_10529
 70
0
 62
7
  6
CONTINUOUS
370
-3
390
F
  0
LAYER
  5
313
100
AcDbSymbolTableRecord
100
AcDbLayerTableRecord
  2
_10541
 70
0
 62
7
  6
CONTINUOUS
370
-3
390
F
  0
LAYER
  5
314
100
AcDbSymbolTableRecord
100
AcDbLayerTableRecord
  2
_10558
 70
0
 62
7
  6
CONTINUOUS
370
-3
390
F
  0
LAYER
  5
315
100
AcDbSymbolTableRecord
100
AcDbLayerTableRecord
  2
_10585
 70
0
 62
7
  6
CONTINUOUS
370
-3
390
F
  0
LAYER
  5
316
100
AcDbSymbolTableRecord
100
AcDbLayerTableRecord
  2
_10594
 70
0
 62
7
  6
CONTINUOUS
370
-3
390
F
  0
LAYER
  5
317
100
AcDbSymbolTableRecord
100
AcDbLayerTableRecord
  2
_10602
 70
0
 62
7
  6
CONTINUOUS
370
-3
390
F
  0
LAYER
  5
318
100
AcDbSymbolTableRecord
100
AcDbLayerTableRecord
  2
_10608
 70
0
 62
7
  6
CONTINUOUS
370
-3
390
F
  0
LAYER
  5
319
100
AcDbSymbolTableRecord
100
AcDbLayerTableRecord
  2
_1065
 70
0
 62
7
  6
CONTINUOUS
370
-3
390
F
  0
LAYER
  5
31A
100
AcDbSymbolTableRecord
100
AcDbLayerTableRecord
  2
_10653
 70
0
 62
7
  6
CONTINUOUS
370
-3
390
F
  0
LAYER
  5
31B
100
AcDbSymbolTableRecord
100
AcDbLayerTableRecord
  2
_10671
 70
0
 62
7
  6
CONTINUOUS
370
-3
390
F
  0
LAYER
  5
31C
100
AcDbSymbolTableRecord
100
AcDbLayerTableRecord
  2
_10673
 70
0
 62
7
  6
CONTINUOUS
370
-3
390
F
  0
LAYER
  5
31D
100
AcDbSymbolTableRecord
100
AcDbLayerTableRecord
  2
_10675
 70
0
 62
7
  6
CONTINUOUS
370
-3
390
F
  0
LAYER
  5
31E
100
AcDbSymbolTableRecord
100
AcDbLayerTableRecord
  2
_10676
 70
0
 62
7
  6
CONTINUOUS
370
-3
390
F
  0
LAYER
  5
31F
100
AcDbSymbolTableRecord
100
AcDbLayerTableRecord
  2
_10701
 70
0
 62
7
  6
CONTINUOUS
370
-3
390
F
  0
LAYER
  5
320
100
AcDbSymbolTableRecord
100
AcDbLayerTableRecord
  2
_10728
 70
0
 62
7
  6
CONTINUOUS
370
-3
390
F
  0
LAYER
  5
321
100
AcDbSymbolTableRecord
100
AcDbLayerTableRecord
  2
_10730
 70
0
 62
7
  6
CONTINUOUS
370
-3
390
F
  0
LAYER
  5
322
100
AcDbSymbolTableRecord
100
AcDbLayerTableRecord
  2
_10743
 70
0
 62
7
  6
CONTINUOUS
370
-3
390
F
  0
LAYER
  5
323
100
AcDbSymbolTableRecord
100
AcDbLayerTableRecord
  2
_10755
 70
0
 62
7
  6
CONTINUOUS
370
-3
390
F
  0
LAYER
  5
324
100
AcDbSymbolTableRecord
100
AcDbLayerTableRecord
  2
_10799
 70
0
 62
7
  6
CONTINUOUS
370
-3
390
F
  0
LAYER
  5
325
100
AcDbSymbolTableRecord
100
AcDbLayerTableRecord
  2
_10803
 70
0
 62
7
  6
CONTINUOUS
370
-3
390
F
  0
LAYER
  5
326
100
AcDbSymbolTableRecord
100
AcDbLayerTableRecord
  2
_10818
 70
0
 62
7
  6
CONTINUOUS
370
-3
390
F
  0
LAYER
  5
327
100
AcDbSymbolTableRecord
100
AcDbLayerTableRecord
  2
_10859
 70
0
 62
7
  6
CONTINUOUS
370
-3
390
F
  0
LAYER
  5
328
100
AcDbSymbolTableRecord
100
AcDbLayerTableRecord
  2
_10868
 70
0
 62
7
  6
CONTINUOUS
370
-3
390
F
  0
LAYER
  5
329
100
AcDbSymbolTableRecord
100
AcDbLayerTableRecord
  2
_10882
 70
0
 62
7
  6
CONTINUOUS
370
-3
390
F
  0
LAYER
  5
32A
100
AcDbSymbolTableRecord
100
AcDbLayerTableRecord
  2
_10884
 70
0
 62
7
  6
CONTINUOUS
370
-3
390
F
  0
LAYER
  5
32B
100
AcDbSymbolTableRecord
100
AcDbLayerTableRecord
  2
_10886
 70
0
 62
7
  6
CONTINUOUS
370
-3
390
F
  0
LAYER
  5
32C
100
AcDbSymbolTableRecord
100
AcDbLayerTableRecord
  2
_10892
 70
0
 62
7
  6
CONTINUOUS
370
-3
390
F
  0
LAYER
  5
32D
100
AcDbSymbolTableRecord
100
AcDbLayerTableRecord
  2
_109
 70
0
 62
7
  6
CONTINUOUS
370
-3
390
F
  0
LAYER
  5
32E
100
AcDbSymbolTableRecord
100
AcDbLayerTableRecord
  2
_10914
 70
0
 62
7
  6
CONTINUOUS
370
-3
390
F
  0
LAYER
  5
32F
100
AcDbSymbolTableRecord
100
AcDbLayerTableRecord
  2
_10933
 70
0
 62
7
  6
CONTINUOUS
370
-3
390
F
  0
LAYER
  5
330
100
AcDbSymbolTableRecord
100
AcDbLayerTableRecord
  2
_10946
 70
0
 62
7
  6
CONTINUOUS
370
-3
390
F
  0
LAYER
  5
331
100
AcDbSymbolTableRecord
100
AcDbLayerTableRecord
  2
_10949
 70
0
 62
7
  6
CONTINUOUS
370
-3
390
F
  0
LAYER
  5
332
100
AcDbSymbolTableRecord
100
AcDbLayerTableRecord
  2
_10981
 70
0
 62
7
  6
CONTINUOUS
370
-3
390
F
  0
LAYER
  5
333
100
AcDbSymbolTableRecord
100
AcDbLayerTableRecord
  2
_10989
 70
0
 62
7
  6
CONTINUOUS
370
-3
390
F
  0
LAYER
  5
334
100
AcDbSymbolTableRecord
100
AcDbLayerTableRecord
  2
_11011
 70
0
 62
7
  6
CONTINUOUS
370
-3
390
F
  0
LAYER
  5
335
100
AcDbSymbolTableRecord
100
AcDbLayerTableRecord
  2
_11015
 70
0
 62
7
  6
CONTINUOUS
370
-3
390
F
  0
LAYER
  5
336
100
AcDbSymbolTableRecord
100
AcDbLayerTableRecord
  2
_11027
 70
0
 62
7
  6
CONTINUOUS
370
-3
390
F
  0
LAYER
  5
337
100
AcDbSymbolTableRecord
100
AcDbLayerTableRecord
  2
_1103
 70
0
 62
7
  6
CONTINUOUS
370
-3
390
F
  0
LAYER
  5
338
100
AcDbSymbolTableRecord
100
AcDbLayerTableRecord
  2
_11064
 70
0
 62
7
  6
CONTINUOUS
370
-3
390
F
  0
LAYER
  5
339
100
AcDbSymbolTableRecord
100
AcDbLayerTableRecord
  2
_11065
 70
0
 62
7
  6
CONTINUOUS
370
-3
390
F
  0
LAYER
  5
33A
100
AcDbSymbolTableRecord
100
AcDbLayerTableRecord
  2
_11071
 70
0
 62
7
  6
CONTINUOUS
370
-3
390
F
  0
LAYER
  5
33B
100
AcDbSymbolTableRecord
100
AcDbLayerTableRecord
  2
_11073
 70
0
 62
7
  6
CONTINUOUS
370
-3
390
F
  0
LAYER
  5
33C
100
AcDbSymbolTableRecord
100
AcDbLayerTableRecord
  2
_11074
 70
0
 62
7
  6
CONTINUOUS
370
-3
390
F
  0
LAYER
  5
33D
100
AcDbSymbolTableRecord
100
AcDbLayerTableRecord
  2
_1108
 70
0
 62
7
  6
CONTINUOUS
370
-3
390
F
  0
LAYER
  5
33E
100
AcDbSymbolTableRecord
100
AcDbLayerTableRecord
  2
_11087
 70
0
 62
7
  6
CONTINUOUS
370
-3
390
F
  0
LAYER
  5
33F
100
AcDbSymbolTableRecord
100
AcDbLayerTableRecord
  2
_11093
 70
0
 62
7
  6
CONTINUOUS
370
-3
390
F
  0
LAYER
  5
340
100
AcDbSymbolTableRecord
100
AcDbLayerTableRecord
  2
_11111
 70
0
 62
7
  6
CONTINUOUS
370
-3
390
F
  0
LAYER
  5
341
100
AcDbSymbolTableRecord
100
AcDbLayerTableRecord
  2
_11114
 70
0
 62
7
  6
CONTINUOUS
370
-3
390
F
  0
LAYER
  5
342
100
AcDbSymbolTableRecord
100
AcDbLayerTableRecord
  2
_11188
 70
0
 62
7
  6
CONTINUOUS
370
-3
390
F
  0
LAYER
  5
343
100
AcDbSymbolTableRecord
100
AcDbLayerTableRecord
  2
_11197
 70
0
 62
7
  6
CONTINUOUS
370
-3
390
F
  0
LAYER
  5
344
100
AcDbSymbolTableRecord
100
AcDbLayerTableRecord
  2
_1120
 70
0
 62
7
  6
CONTINUOUS
370
-3
390
F
  0
LAYER
  5
345
100
AcDbSymbolTableRecord
100
AcDbLayerTableRecord
  2
_11205
 70
0
 62
7
  6
CONTINUOUS
370
-3
390
F
  0
LAYER
  5
346
100
AcDbSymbolTableRecord
100
AcDbLayerTableRecord
  2
_11212
 70
0
 62
7
  6
CONTINUOUS
370
-3
390
F
  0
LAYER
  5
347
100
AcDbSymbolTableRecord
100
AcDbLayerTableRecord
  2
_11242
 70
0
 62
7
  6
CONTINUOUS
370
-3
390
F
  0
LAYER
  5
348
100
AcDbSymbolTableRecord
100
AcDbLayerTableRecord
  2
_11252
 70
0
 62
7
  6
CONTINUOUS
370
-3
390
F
  0
LAYER
  5
349
100
AcDbSymbolTableRecord
100
AcDbLayerTableRecord
  2
_1126
 70
0
 62
7
  6
CONTINUOUS
370
-3
390
F
  0
LAYER
  5
34A
100
AcDbSymbolTableRecord
100
AcDbLayerTableRecord
  2
_1128
 70
0
 62
7
  6
CONTINUOUS
370
-3
390
F
  0
LAYER
  5
34B
100
AcDbSymbolTableRecord
100
AcDbLayerTableRecord
  2
_11285
 70
0
 62
7
  6
CONTINUOUS
370
-3
390
F
  0
LAYER
  5
34C
100
AcDbSymbolTableRecord
100
AcDbLayerTableRecord
  2
_11296
 70
0
 62
7
  6
CONTINUOUS
370
-3
390
F
  0
LAYER
  5
34D
100
AcDbSymbolTableRecord
100
AcDbLayerTableRecord
  2
_11298
 70
0
 62
7
  6
CONTINUOUS
370
-3
390
F
  0
LAYER
  5
34E
100
AcDbSymbolTableRecord
100
AcDbLayerTableRecord
  2
_11299
 70
0
 62
7
  6
CONTINUOUS
370
-3
390
F
  0
LAYER
  5
34F
100
AcDbSymbolTableRecord
100
AcDbLayerTableRecord
  2
_11314
 70
0
 62
7
  6
CONTINUOUS
370
-3
390
F
  0
LAYER
  5
350
100
AcDbSymbolTableRecord
100
AcDbLayerTableRecord
  2
_11334
 70
0
 62
7
  6
CONTINUOUS
370
-3
390
F
  0
LAYER
  5
351
100
AcDbSymbolTableRecord
100
AcDbLayerTableRecord
  2
_11390
 70
0
 62
7
  6
CONTINUOUS
370
-3
390
F
  0
LAYER
  5
352
100
AcDbSymbolTableRecord
100
AcDbLayerTableRecord
  2
_11392
 70
0
 62
7
  6
CONTINUOUS
370
-3
390
F
  0
LAYER
  5
353
100
AcDbSymbolTableRecord
100
AcDbLayerTableRecord
  2
_11395
 70
0
 62
7
  6
CONTINUOUS
370
-3
390
F
  0
LAYER
  5
354
100
AcDbSymbolTableRecord
100
AcDbLayerTableRecord
  2
_1142
 70
0
 62
7
  6
CONTINUOUS
370
-3
390
F
  0
LAYER
  5
355
100
AcDbSymbolTableRecord
100
AcDbLayerTableRecord
  2
_11427
 70
0
 62
7
  6
CONTINUOUS
370
-3
390
F
  0
LAYER
  5
356
100
AcDbSymbolTableRecord
100
AcDbLayerTableRecord
  2
_11447
 70
0
 62
7
  6
CONTINUOUS
370
-3
390
F
  0
LAYER
  5
357
100
AcDbSymbolTableRecord
100
AcDbLayerTableRecord
  2
_11465
 70
0
 62
7
  6
CONTINUOUS
370
-3
390
F
  0
LAYER
  5
358
100
AcDbSymbolTableRecord
100
AcDbLayerTableRecord
  2
_11488
 70
0
 62
7
  6
CONTINUOUS
370
-3
390
F
  0
LAYER
  5
359
100
AcDbSymbolTableRecord
100
AcDbLayerTableRecord
  2
_1150
 70
0
 62
7
  6
CONTINUOUS
370
-3
390
F
  0
LAYER
  5
35A
100
AcDbSymbolTableRecord
100
AcDbLayerTableRecord
  2
_11555
 70
0
 62
7
  6
CONTINUOUS
370
-3
390
F
  0
LAYER
  5
35B
100
AcDbSymbolTableRecord
100
AcDbLayerTableRecord
  2
_1156
 70
0
 62
7
  6
CONTINUOUS
370
-3
390
F
  0
LAYER
  5
35C
100
AcDbSymbolTableRecord
100
AcDbLayerTableRecord
  2
_11679
 70
0
 62
7
  6
CONTINUOUS
370
-3
390
F
  0
LAYER
  5
35D
100
AcDbSymbolTableRecord
100
AcDbLayerTableRecord
  2
_1170
 70
0
 62
7
  6
CONTINUOUS
370
-3
390
F
  0
LAYER
  5
35E
100
AcDbSymbolTableRecord
100
AcDbLayerTableRecord
  2
_11703
 70
0
 62
7
  6
CONTINUOUS
370
-3
390
F
  0
LAYER
  5
35F
100
AcDbSymbolTableRecord
100
AcDbLayerTableRecord
  2
_1174
 70
0
 62
7
  6
CONTINUOUS
370
-3
390
F
  0
LAYER
  5
360
100
AcDbSymbolTableRecord
100
AcDbLayerTableRecord
  2
_11753
 70
0
 62
7
  6
CONTINUOUS
370
-3
390
F
  0
LAYER
  5
361
100
AcDbSymbolTableRecord
100
AcDbLayerTableRecord
  2
_1178
 70
0
 62
7
  6
CONTINUOUS
370
-3
390
F
  0
LAYER
  5
362
100
AcDbSymbolTableRecord
100
AcDbLayerTableRecord
  2
_11783
 70
0
 62
7
  6
CONTINUOUS
370
-3
390
F
  0
LAYER
  5
363
100
AcDbSymbolTableRecord
100
AcDbLayerTableRecord
  2
_1179
 70
0
 62
7
  6
CONTINUOUS
370
-3
390
F
  0
LAYER
  5
364
100
AcDbSymbolTableRecord
100
AcDbLayerTableRecord
  2
_11854
 70
0
 62
7
  6
CONTINUOUS
370
-3
390
F
  0
LAYER
  5
365
100
AcDbSymbolTableRecord
100
AcDbLayerTableRecord
  2
_11858
 70
0
 62
7
  6
CONTINUOUS
370
-3
390
F
  0
LAYER
  5
366
100
AcDbSymbolTableRecord
100
AcDbLayerTableRecord
  2
_11882
 70
0
 62
7
  6
CONTINUOUS
370
-3
390
F
  0
LAYER
  5
367
100
AcDbSymbolTableRecord
100
AcDbLayerTableRecord
  2
_11897
 70
0
 62
7
  6
CONTINUOUS
370
-3
390
F
  0
LAYER
  5
368
100
AcDbSymbolTableRecord
100
AcDbLayerTableRecord
  2
_1198
 70
0
 62
7
  6
CONTINUOUS
370
-3
390
F
  0
LAYER
  5
369
100
AcDbSymbolTableRecord
100
AcDbLayerTableRecord
  2
_11989
 70
0
 62
7
  6
CONTINUOUS
370
-3
390
F
  0
LAYER
  5
36A
100
AcDbSymbolTableRecord
100
AcDbLayerTableRecord
  2
_1200
 70
0
 62
7
  6
CONTINUOUS
370
-3
390
F
  0
LAYER
  5
36B
100
AcDbSymbolTableRecord
100
AcDbLayerTableRecord
  2
_12017
 70
0
 62
7
  6
CONTINUOUS
370
-3
390
F
  0
LAYER
  5
36C
100
AcDbSymbolTableRecord
100
AcDbLayerTableRecord
  2
_1205
 70
0
 62
7
  6
CONTINUOUS
370
-3
390
F
  0
LAYER
  5
36D
100
AcDbSymbolTableRecord
100
AcDbLayerTableRecord
  2
_12054
 70
0
 62
7
  6
CONTINUOUS
370
-3
390
F
  0
LAYER
  5
36E
100
AcDbSymbolTableRecord
100
AcDbLayerTableRecord
  2
_12066
 70
0
 62
7
  6
CONTINUOUS
370
-3
390
F
  0
LAYER
  5
36F
100
AcDbSymbolTableRecord
100
AcDbLayerTableRecord
  2
_12120
 70
0
 62
7
  6
CONTINUOUS
370
-3
390
F
  0
LAYER
  5
370
100
AcDbSymbolTableRecord
100
AcDbLayerTableRecord
  2
_1219
 70
0
 62
7
  6
CONTINUOUS
370
-3
390
F
  0
LAYER
  5
371
100
AcDbSymbolTableRecord
100
AcDbLayerTableRecord
  2
_12275
 70
0
 62
7
  6
CONTINUOUS
370
-3
390
F
  0
LAYER
  5
372
100
AcDbSymbolTableRecord
100
AcDbLayerTableRecord
  2
_1229
 70
0
 62
7
  6
CONTINUOUS
370
-3
390
F
  0
LAYER
  5
373
100
AcDbSymbolTableRecord
100
AcDbLayerTableRecord
  2
_1230
 70
0
 62
7
  6
CONTINUOUS
370
-3
390
F
  0
LAYER
  5
374
100
AcDbSymbolTableRecord
100
AcDbLayerTableRecord
  2
_12325
 70
0
 62
7
  6
CONTINUOUS
370
-3
390
F
  0
LAYER
  5
375
100
AcDbSymbolTableRecord
100
AcDbLayerTableRecord
  2
_1234
 70
0
 62
7
  6
CONTINUOUS
370
-3
390
F
  0
LAYER
  5
376
100
AcDbSymbolTableRecord
100
AcDbLayerTableRecord
  2
_1237
 70
0
 62
7
  6
CONTINUOUS
370
-3
390
F
  0
LAYER
  5
377
100
AcDbSymbolTableRecord
100
AcDbLayerTableRecord
  2
_12388
 70
0
 62
7
  6
CONTINUOUS
370
-3
390
F
  0
LAYER
  5
378
100
AcDbSymbolTableRecord
100
AcDbLayerTableRecord
  2
_12416
 70
0
 62
7
  6
CONTINUOUS
370
-3
390
F
  0
LAYER
  5
379
100
AcDbSymbolTableRecord
100
AcDbLayerTableRecord
  2
_12426
 70
0
 62
7
  6
CONTINUOUS
370
-3
390
F
  0
LAYER
  5
37A
100
AcDbSymbolTableRecord
100
AcDbLayerTableRecord
  2
_12448
 70
0
 62
7
  6
CONTINUOUS
370
-3
390
F
  0
LAYER
  5
37B
100
AcDbSymbolTableRecord
100
AcDbLayerTableRecord
  2
_12462
 70
0
 62
7
  6
CONTINUOUS
370
-3
390
F
  0
LAYER
  5
37C
100
AcDbSymbolTableRecord
100
AcDbLayerTableRecord
  2
_12469
 70
0
 62
7
  6
CONTINUOUS
370
-3
390
F
  0
LAYER
  5
37D
100
AcDbSymbolTableRecord
100
AcDbLayerTableRecord
  2
_1248
 70
0
 62
7
  6
CONTINUOUS
370
-3
390
F
  0
LAYER
  5
37E
100
AcDbSymbolTableRecord
100
AcDbLayerTableRecord
  2
_12523
 70
0
 62
7
  6
CONTINUOUS
370
-3
390
F
  0
LAYER
  5
37F
100
AcDbSymbolTableRecord
100
AcDbLayerTableRecord
  2
_12546
 70
0
 62
7
  6
CONTINUOUS
370
-3
390
F
  0
LAYER
  5
380
100
AcDbSymbolTableRecord
100
AcDbLayerTableRecord
  2
_12595
 70
0
 62
7
  6
CONTINUOUS
370
-3
390
F
  0
LAYER
  5
381
100
AcDbSymbolTableRecord
100
AcDbLayerTableRecord
  2
_12634
 70
0
 62
7
  6
CONTINUOUS
370
-3
390
F
  0
LAYER
  5
382
100
AcDbSymbolTableRecord
100
AcDbLayerTableRecord
  2
_12724
 70
0
 62
7
  6
CONTINUOUS
370
-3
390
F
  0
LAYER
  5
383
100
AcDbSymbolTableRecord
100
AcDbLayerTableRecord
  2
_12757
 70
0
 62
7
  6
CONTINUOUS
370
-3
390
F
  0
LAYER
  5
384
100
AcDbSymbolTableRecord
100
AcDbLayerTableRecord
  2
_12759
 70
0
 62
7
  6
CONTINUOUS
370
-3
390
F
  0
LAYER
  5
385
100
AcDbSymbolTableRecord
100
AcDbLayerTableRecord
  2
_1279
 70
0
 62
7
  6
CONTINUOUS
370
-3
390
F
  0
LAYER
  5
386
100
AcDbSymbolTableRecord
100
AcDbLayerTableRecord
  2
_12852
 70
0
 62
7
  6
CONTINUOUS
370
-3
390
F
  0
LAYER
  5
387
100
AcDbSymbolTableRecord
100
AcDbLayerTableRecord
  2
_12877
 70
0
 62
7
  6
CONTINUOUS
370
-3
390
F
  0
LAYER
  5
388
100
AcDbSymbolTableRecord
100
AcDbLayerTableRecord
  2
_12956
 70
0
 62
7
  6
CONTINUOUS
370
-3
390
F
  0
LAYER
  5
389
100
AcDbSymbolTableRecord
100
AcDbLayerTableRecord
  2
_1308
 70
0
 62
7
  6
CONTINUOUS
370
-3
390
F
  0
LAYER
  5
38A
100
AcDbSymbolTableRecord
100
AcDbLayerTableRecord
  2
_13088
 70
0
 62
7
  6
CONTINUOUS
370
-3
390
F
  0
LAYER
  5
38B
100
AcDbSymbolTableRecord
100
AcDbLayerTableRecord
  2
_1308_1
 70
0
 62
7
  6
CONTINUOUS
370
-3
390
F
  0
LAYER
  5
38C
100
AcDbSymbolTableRecord
100
AcDbLayerTableRecord
  2
_13095
 70
0
 62
7
  6
CONTINUOUS
370
-3
390
F
  0
LAYER
  5
38D
100
AcDbSymbolTableRecord
100
AcDbLayerTableRecord
  2
_1314
 70
0
 62
7
  6
CONTINUOUS
370
-3
390
F
  0
LAYER
  5
38E
100
AcDbSymbolTableRecord
100
AcDbLayerTableRecord
  2
_1316
 70
0
 62
7
  6
CONTINUOUS
370
-3
390
F
  0
LAYER
  5
38F
100
AcDbSymbolTableRecord
100
AcDbLayerTableRecord
  2
_13187
 70
0
 62
7
  6
CONTINUOUS
370
-3
390
F
  0
LAYER
  5
390
100
AcDbSymbolTableRecord
100
AcDbLayerTableRecord
  2
_13202
 70
0
 62
7
  6
CONTINUOUS
370
-3
390
F
  0
LAYER
  5
391
100
AcDbSymbolTableRecord
100
AcDbLayerTableRecord
  2
_13251
 70
0
 62
7
  6
CONTINUOUS
370
-3
390
F
  0
LAYER
  5
392
100
AcDbSymbolTableRecord
100
AcDbLayerTableRecord
  2
_1327
 70
0
 62
7
  6
CONTINUOUS
370
-3
390
F
  0
LAYER
  5
393
100
AcDbSymbolTableRecord
100
AcDbLayerTableRecord
  2
_13289
 70
0
 62
7
  6
CONTINUOUS
370
-3
390
F
  0
LAYER
  5
394
100
AcDbSymbolTableRecord
100
AcDbLayerTableRecord
  2
_1329
 70
0
 62
7
  6
CONTINUOUS
370
-3
390
F
  0
LAYER
  5
395
100
AcDbSymbolTableRecord
100
AcDbLayerTableRecord
  2
_1330
 70
0
 62
7
  6
CONTINUOUS
370
-3
390
F
  0
LAYER
  5
396
100
AcDbSymbolTableRecord
100
AcDbLayerTableRecord
  2
_13335
 70
0
 62
7
  6
CONTINUOUS
370
-3
390
F
  0
LAYER
  5
397
100
AcDbSymbolTableRecord
100
AcDbLayerTableRecord
  2
_1339
 70
0
 62
7
  6
CONTINUOUS
370
-3
390
F
  0
LAYER
  5
398
100
AcDbSymbolTableRecord
100
AcDbLayerTableRecord
  2
_1348
 70
0
 62
7
  6
CONTINUOUS
370
-3
390
F
  0
LAYER
  5
399
100
AcDbSymbolTableRecord
100
AcDbLayerTableRecord
  2
_13508
 70
0
 62
7
  6
CONTINUOUS
370
-3
390
F
  0
LAYER
  5
39A
100
AcDbSymbolTableRecord
100
AcDbLayerTableRecord
  2
_13511
 70
0
 62
7
  6
CONTINUOUS
370
-3
390
F
  0
LAYER
  5
39B
100
AcDbSymbolTableRecord
100
AcDbLayerTableRecord
  2
_13517
 70
0
 62
7
  6
CONTINUOUS
370
-3
390
F
  0
LAYER
  5
39C
100
AcDbSymbolTableRecord
100
AcDbLayerTableRecord
  2
_13551
 70
0
 62
7
  6
CONTINUOUS
370
-3
390
F
  0
LAYER
  5
39D
100
AcDbSymbolTableRecord
100
AcDbLayerTableRecord
  2
_13622
 70
0
 62
7
  6
CONTINUOUS
370
-3
390
F
  0
LAYER
  5
39E
100
AcDbSymbolTableRecord
100
AcDbLayerTableRecord
  2
_13628
 70
0
 62
7
  6
CONTINUOUS
370
-3
390
F
  0
LAYER
  5
39F
100
AcDbSymbolTableRecord
100
AcDbLayerTableRecord
  2
_13641
 70
0
 62
7
  6
CONTINUOUS
370
-3
390
F
  0
LAYER
  5
3A0
100
AcDbSymbolTableRecord
100
AcDbLayerTableRecord
  2
_13662
 70
0
 62
7
  6
CONTINUOUS
370
-3
390
F
  0
LAYER
  5
3A1
100
AcDbSymbolTableRecord
100
AcDbLayerTableRecord
  2
_13716
 70
0
 62
7
  6
CONTINUOUS
370
-3
390
F
  0
LAYER
  5
3A2
100
AcDbSymbolTableRecord
100
AcDbLayerTableRecord
  2
_13736
 70
0
 62
7
  6
CONTINUOUS
370
-3
390
F
  0
LAYER
  5
3A3
100
AcDbSymbolTableRecord
100
AcDbLayerTableRecord
  2
_1387
 70
0
 62
7
  6
CONTINUOUS
370
-3
390
F
  0
LAYER
  5
3A4
100
AcDbSymbolTableRecord
100
AcDbLayerTableRecord
  2
_1391
 70
0
 62
7
  6
CONTINUOUS
370
-3
390
F
  0
LAYER
  5
3A5
100
AcDbSymbolTableRecord
100
AcDbLayerTableRecord
  2
_1392
 70
0
 62
7
  6
CONTINUOUS
370
-3
390
F
  0
LAYER
  5
3A6
100
AcDbSymbolTableRecord
100
AcDbLayerTableRecord
  2
_13926
 70
0
 62
7
  6
CONTINUOUS
370
-3
390
F
  0
LAYER
  5
3A7
100
AcDbSymbolTableRecord
100
AcDbLayerTableRecord
  2
_1393
 70
0
 62
7
  6
CONTINUOUS
370
-3
390
F
  0
LAYER
  5
3A8
100
AcDbSymbolTableRecord
100
AcDbLayerTableRecord
  2
_14033
 70
0
 62
7
  6
CONTINUOUS
370
-3
390
F
  0
LAYER
  5
3A9
100
AcDbSymbolTableRecord
100
AcDbLayerTableRecord
  2
_14066
 70
0
 62
7
  6
CONTINUOUS
370
-3
390
F
  0
LAYER
  5
3AA
100
AcDbSymbolTableRecord
100
AcDbLayerTableRecord
  2
_1408
 70
0
 62
7
  6
CONTINUOUS
370
-3
390
F
  0
LAYER
  5
3AB
100
AcDbSymbolTableRecord
100
AcDbLayerTableRecord
  2
_1408_1
 70
0
 62
7
  6
CONTINUOUS
370
-3
390
F
  0
LAYER
  5
3AC
100
AcDbSymbolTableRecord
100
AcDbLayerTableRecord
  2
_1410
 70
0
 62
7
  6
CONTINUOUS
370
-3
390
F
  0
LAYER
  5
3AD
100
AcDbSymbolTableRecord
100
AcDbLayerTableRecord
  2
_14116
 70
0
 62
7
  6
CONTINUOUS
370
-3
390
F
  0
LAYER
  5
3AE
100
AcDbSymbolTableRecord
100
AcDbLayerTableRecord
  2
_14121
 70
0
 62
7
  6
CONTINUOUS
370
-3
390
F
  0
LAYER
  5
3AF
100
AcDbSymbolTableRecord
100
AcDbLayerTableRecord
  2
_1423
 70
0
 62
7
  6
CONTINUOUS
370
-3
390
F
  0
LAYER
  5
3B0
100
AcDbSymbolTableRecord
100
AcDbLayerTableRecord
  2
_14236
 70
0
 62
7
  6
CONTINUOUS
370
-3
390
F
  0
LAYER
  5
3B1
100
AcDbSymbolTableRecord
100
AcDbLayerTableRecord
  2
_14246
 70
0
 62
7
  6
CONTINUOUS
370
-3
390
F
  0
LAYER
  5
3B2
100
AcDbSymbolTableRecord
100
AcDbLayerTableRecord
  2
_14254
 70
0
 62
7
  6
CONTINUOUS
370
-3
390
F
  0
LAYER
  5
3B3
100
AcDbSymbolTableRecord
100
AcDbLayerTableRecord
  2
_1426
 70
0
 62
7
  6
CONTINUOUS
370
-3
390
F
  0
LAYER
  5
3B4
100
AcDbSymbolTableRecord
100
AcDbLayerTableRecord
  2
_14299
 70
0
 62
7
  6
CONTINUOUS
370
-3
390
F
  0
LAYER
  5
3B5
100
AcDbSymbolTableRecord
100
AcDbLayerTableRecord
  2
_14313
 70
0
 62
7
  6
CONTINUOUS
370
-3
390
F
  0
LAYER
  5
3B6
100
AcDbSymbolTableRecord
100
AcDbLayerTableRecord
  2
_1444
 70
0
 62
7
  6
CONTINUOUS
370
-3
390
F
  0
LAYER
  5
3B7
100
AcDbSymbolTableRecord
100
AcDbLayerTableRecord
  2
_14475
 70
0
 62
7
  6
CONTINUOUS
370
-3
390
F
  0
LAYER
  5
3B8
100
AcDbSymbolTableRecord
100
AcDbLayerTableRecord
  2
_1449
 70
0
 62
7
  6
CONTINUOUS
370
-3
390
F
  0
LAYER
  5
3B9
100
AcDbSymbolTableRecord
100
AcDbLayerTableRecord
  2
_1452
 70
0
 62
7
  6
CONTINUOUS
370
-3
390
F
  0
LAYER
  5
3BA
100
AcDbSymbolTableRecord
100
AcDbLayerTableRecord
  2
_1454
 70
0
 62
7
  6
CONTINUOUS
370
-3
390
F
  0
LAYER
  5
3BB
100
AcDbSymbolTableRecord
100
AcDbLayerTableRecord
  2
_14551
 70
0
 62
7
  6
CONTINUOUS
370
-3
390
F
  0
LAYER
  5
3BC
100
AcDbSymbolTableRecord
100
AcDbLayerTableRecord
  2
_14600
 70
0
 62
7
  6
CONTINUOUS
370
-3
390
F
  0
LAYER
  5
3BD
100
AcDbSymbolTableRecord
100
AcDbLayerTableRecord
  2
_14607
 70
0
 62
7
  6
CONTINUOUS
370
-3
390
F
  0
LAYER
  5
3BE
100
AcDbSymbolTableRecord
100
AcDbLayerTableRecord
  2
_14659
 70
0
 62
7
  6
CONTINUOUS
370
-3
390
F
  0
LAYER
  5
3BF
100
AcDbSymbolTableRecord
100
AcDbLayerTableRecord
  2
_14678
 70
0
 62
7
  6
CONTINUOUS
370
-3
390
F
  0
LAYER
  5
3C0
100
AcDbSymbolTableRecord
100
AcDbLayerTableRecord
  2
_1469
 70
0
 62
7
  6
CONTINUOUS
370
-3
390
F
  0
LAYER
  5
3C1
100
AcDbSymbolTableRecord
100
AcDbLayerTableRecord
  2
_14776
 70
0
 62
7
  6
CONTINUOUS
370
-3
390
F
  0
LAYER
  5
3C2
100
AcDbSymbolTableRecord
100
AcDbLayerTableRecord
  2
_1478
 70
0
 62
7
  6
CONTINUOUS
370
-3
390
F
  0
LAYER
  5
3C3
100
AcDbSymbolTableRecord
100
AcDbLayerTableRecord
  2
_14796
 70
0
 62
7
  6
CONTINUOUS
370
-3
390
F
  0
LAYER
  5
3C4
100
AcDbSymbolTableRecord
100
AcDbLayerTableRecord
  2
_14839
 70
0
 62
7
  6
CONTINUOUS
370
-3
390
F
  0
LAYER
  5
3C5
100
AcDbSymbolTableRecord
100
AcDbLayerTableRecord
  2
_14846
 70
0
 62
7
  6
CONTINUOUS
370
-3
390
F
  0
LAYER
  5
3C6
100
AcDbSymbolTableRecord
100
AcDbLayerTableRecord
  2
_14927
 70
0
 62
7
  6
CONTINUOUS
370
-3
390
F
  0
LAYER
  5
3C7
100
AcDbSymbolTableRecord
100
AcDbLayerTableRecord
  2
_1498
 70
0
 62
7
  6
CONTINUOUS
370
-3
390
F
  0
LAYER
  5
3C8
100
AcDbSymbolTableRecord
100
AcDbLayerTableRecord
  2
_14989
 70
0
 62
7
  6
CONTINUOUS
370
-3
390
F
  0
LAYER
  5
3C9
100
AcDbSymbolTableRecord
100
AcDbLayerTableRecord
  2
_1504
 70
0
 62
7
  6
CONTINUOUS
370
-3
390
F
  0
LAYER
  5
3CA
100
AcDbSymbolTableRecord
100
AcDbLayerTableRecord
  2
_15093
 70
0
 62
7
  6
CONTINUOUS
370
-3
390
F
  0
LAYER
  5
3CB
100
AcDbSymbolTableRecord
100
AcDbLayerTableRecord
  2
_15127
 70
0
 62
7
  6
CONTINUOUS
370
-3
390
F
  0
LAYER
  5
3CC
100
AcDbSymbolTableRecord
100
AcDbLayerTableRecord
  2
_15232
 70
0
 62
7
  6
CONTINUOUS
370
-3
390
F
  0
LAYER
  5
3CD
100
AcDbSymbolTableRecord
100
AcDbLayerTableRecord
  2
_15272
 70
0
 62
7
  6
CONTINUOUS
370
-3
390
F
  0
LAYER
  5
3CE
100
AcDbSymbolTableRecord
100
AcDbLayerTableRecord
  2
_15273
 70
0
 62
7
  6
CONTINUOUS
370
-3
390
F
  0
LAYER
  5
3CF
100
AcDbSymbolTableRecord
100
AcDbLayerTableRecord
  2
_1529
 70
0
 62
7
  6
CONTINUOUS
370
-3
390
F
  0
LAYER
  5
3D0
100
AcDbSymbolTableRecord
100
AcDbLayerTableRecord
  2
_1530
 70
0
 62
7
  6
CONTINUOUS
370
-3
390
F
  0
LAYER
  5
3D1
100
AcDbSymbolTableRecord
100
AcDbLayerTableRecord
  2
_15304
 70
0
 62
7
  6
CONTINUOUS
370
-3
390
F
  0
LAYER
  5
3D2
100
AcDbSymbolTableRecord
100
AcDbLayerTableRecord
  2
_15389
 70
0
 62
7
  6
CONTINUOUS
370
-3
390
F
  0
LAYER
  5
3D3
100
AcDbSymbolTableRecord
100
AcDbLayerTableRecord
  2
_15392
 70
0
 62
7
  6
CONTINUOUS
370
-3
390
F
  0
LAYER
  5
3D4
100
AcDbSymbolTableRecord
100
AcDbLayerTableRecord
  2
_15438
 70
0
 62
7
  6
CONTINUOUS
370
-3
390
F
  0
LAYER
  5
3D5
100
AcDbSymbolTableRecord
100
AcDbLayerTableRecord
  2
_1545
 70
0
 62
7
  6
CONTINUOUS
370
-3
390
F
  0
LAYER
  5
3D6
100
AcDbSymbolTableRecord
100
AcDbLayerTableRecord
  2
_15487
 70
0
 62
7
  6
CONTINUOUS
370
-3
390
F
  0
LAYER
  5
3D7
100
AcDbSymbolTableRecord
100
AcDbLayerTableRecord
  2
_15519
 70
0
 62
7
  6
CONTINUOUS
370
-3
390
F
  0
LAYER
  5
3D8
100
AcDbSymbolTableRecord
100
AcDbLayerTableRecord
  2
_15521
 70
0
 62
7
  6
CONTINUOUS
370
-3
390
F
  0
LAYER
  5
3D9
100
AcDbSymbolTableRecord
100
AcDbLayerTableRecord
  2
_15540
 70
0
 62
7
  6
CONTINUOUS
370
-3
390
F
  0
LAYER
  5
3DA
100
AcDbSymbolTableRecord
100
AcDbLayerTableRecord
  2
_15550
 70
0
 62
7
  6
CONTINUOUS
370
-3
390
F
  0
LAYER
  5
3DB
100
AcDbSymbolTableRecord
100
AcDbLayerTableRecord
  2
_1556
 70
0
 62
7
  6
CONTINUOUS
370
-3
390
F
  0
LAYER
  5
3DC
100
AcDbSymbolTableRecord
100
AcDbLayerTableRecord
  2
_15568
 70
0
 62
7
  6
CONTINUOUS
370
-3
390
F
  0
LAYER
  5
3DD
100
AcDbSymbolTableRecord
100
AcDbLayerTableRecord
  2
_1557
 70
0
 62
7
  6
CONTINUOUS
370
-3
390
F
  0
LAYER
  5
3DE
100
AcDbSymbolTableRecord
100
AcDbLayerTableRecord
  2
_15572
 70
0
 62
7
  6
CONTINUOUS
370
-3
390
F
  0
LAYER
  5
3DF
100
AcDbSymbolTableRecord
100
AcDbLayerTableRecord
  2
_15603
 70
0
 62
7
  6
CONTINUOUS
370
-3
390
F
  0
LAYER
  5
3E0
100
AcDbSymbolTableRecord
100
AcDbLayerTableRecord
  2
_1562
 70
0
 62
7
  6
CONTINUOUS
370
-3
390
F
  0
LAYER
  5
3E1
100
AcDbSymbolTableRecord
100
AcDbLayerTableRecord
  2
_15642
 70
0
 62
7
  6
CONTINUOUS
370
-3
390
F
  0
LAYER
  5
3E2
100
AcDbSymbolTableRecord
100
AcDbLayerTableRecord
  2
_15656
 70
0
 62
7
  6
CONTINUOUS
370
-3
390
F
  0
LAYER
  5
3E3
100
AcDbSymbolTableRecord
100
AcDbLayerTableRecord
  2
_1566
 70
0
 62
7
  6
CONTINUOUS
370
-3
390
F
  0
LAYER
  5
3E4
100
AcDbSymbolTableRecord
100
AcDbLayerTableRecord
  2
_1567
 70
0
 62
7
  6
CONTINUOUS
370
-3
390
F
  0
LAYER
  5
3E5
100
AcDbSymbolTableRecord
100
AcDbLayerTableRecord
  2
_15699
 70
0
 62
7
  6
CONTINUOUS
370
-3
390
F
  0
LAYER
  5
3E6
100
AcDbSymbolTableRecord
100
AcDbLayerTableRecord
  2
_15702
 70
0
 62
7
  6
CONTINUOUS
370
-3
390
F
  0
LAYER
  5
3E7
100
AcDbSymbolTableRecord
100
AcDbLayerTableRecord
  2
_1576
 70
0
 62
7
  6
CONTINUOUS
370
-3
390
F
  0
LAYER
  5
3E8
100
AcDbSymbolTableRecord
100
AcDbLayerTableRecord
  2
_1581
 70
0
 62
7
  6
CONTINUOUS
370
-3
390
F
  0
LAYER
  5
3E9
100
AcDbSymbolTableRecord
100
AcDbLayerTableRecord
  2
_15839
 70
0
 62
7
  6
CONTINUOUS
370
-3
390
F
  0
LAYER
  5
3EA
100
AcDbSymbolTableRecord
100
AcDbLayerTableRecord
  2
_15852
 70
0
 62
7
  6
CONTINUOUS
370
-3
390
F
  0
LAYER
  5
3EB
100
AcDbSymbolTableRecord
100
AcDbLayerTableRecord
  2
_15909
 70
0
 62
7
  6
CONTINUOUS
370
-3
390
F
  0
LAYER
  5
3EC
100
AcDbSymbolTableRecord
100
AcDbLayerTableRecord
  2
_15910
 70
0
 62
7
  6
CONTINUOUS
370
-3
390
F
  0
LAYER
  5
3ED
100
AcDbSymbolTableRecord
100
AcDbLayerTableRecord
  2
_1595
 70
0
 62
7
  6
CONTINUOUS
370
-3
390
F
  0
LAYER
  5
3EE
100
AcDbSymbolTableRecord
100
AcDbLayerTableRecord
  2
_1598
 70
0
 62
7
  6
CONTINUOUS
370
-3
390
F
  0
LAYER
  5
3EF
100
AcDbSymbolTableRecord
100
AcDbLayerTableRecord
  2
_16019
 70
0
 62
7
  6
CONTINUOUS
370
-3
390
F
  0
LAYER
  5
3F0
100
AcDbSymbolTableRecord
100
AcDbLayerTableRecord
  2
_1603
 70
0
 62
7
  6
CONTINUOUS
370
-3
390
F
  0
LAYER
  5
3F1
100
AcDbSymbolTableRecord
100
AcDbLayerTableRecord
  2
_16030
 70
0
 62
7
  6
CONTINUOUS
370
-3
390
F
  0
LAYER
  5
3F2
100
AcDbSymbolTableRecord
100
AcDbLayerTableRecord
  2
_16041
 70
0
 62
7
  6
CONTINUOUS
370
-3
390
F
  0
LAYER
  5
3F3
100
AcDbSymbolTableRecord
100
AcDbLayerTableRecord
  2
_16054
 70
0
 62
7
  6
CONTINUOUS
370
-3
390
F
  0
LAYER
  5
3F4
100
AcDbSymbolTableRecord
100
AcDbLayerTableRecord
  2
_16157
 70
0
 62
7
  6
CONTINUOUS
370
-3
390
F
  0
LAYER
  5
3F5
100
AcDbSymbolTableRecord
100
AcDbLayerTableRecord
  2
_162
 70
0
 62
7
  6
CONTINUOUS
370
-3
390
F
  0
LAYER
  5
3F6
100
AcDbSymbolTableRecord
100
AcDbLayerTableRecord
  2
_1622
 70
0
 62
7
  6
CONTINUOUS
370
-3
390
F
  0
LAYER
  5
3F7
100
AcDbSymbolTableRecord
100
AcDbLayerTableRecord
  2
_1628
 70
0
 62
7
  6
CONTINUOUS
370
-3
390
F
  0
LAYER
  5
3F8
100
AcDbSymbolTableRecord
100
AcDbLayerTableRecord
  2
_1632
 70
0
 62
7
  6
CONTINUOUS
370
-3
390
F
  0
LAYER
  5
3F9
100
AcDbSymbolTableRecord
100
AcDbLayerTableRecord
  2
_1637
 70
0
 62
7
  6
CONTINUOUS
370
-3
390
F
  0
LAYER
  5
3FA
100
AcDbSymbolTableRecord
100
AcDbLayerTableRecord
  2
_1638
 70
0
 62
7
  6
CONTINUOUS
370
-3
390
F
  0
LAYER
  5
3FB
100
AcDbSymbolTableRecord
100
AcDbLayerTableRecord
  2
_1646
 70
0
 62
7
  6
CONTINUOUS
370
-3
390
F
  0
LAYER
  5
3FC
100
AcDbSymbolTableRecord
100
AcDbLayerTableRecord
  2
_1657
 70
0
 62
7
  6
CONTINUOUS
370
-3
390
F
  0
LAYER
  5
3FD
100
AcDbSymbolTableRecord
100
AcDbLayerTableRecord
  2
_1684
 70
0
 62
7
  6
CONTINUOUS
370
-3
390
F
  0
LAYER
  5
3FE
100
AcDbSymbolTableRecord
100
AcDbLayerTableRecord
  2
_1685
 70
0
 62
7
  6
CONTINUOUS
370
-3
390
F
  0
LAYER
  5
3FF
100
AcDbSymbolTableRecord
100
AcDbLayerTableRecord
  2
_1686
 70
0
 62
7
  6
CONTINUOUS
370
-3
390
F
  0
LAYER
  5
400
100
AcDbSymbolTableRecord
100
AcDbLayerTableRecord
  2
_1710
 70
0
 62
7
  6
CONTINUOUS
370
-3
390
F
  0
LAYER
  5
401
100
AcDbSymbolTableRecord
100
AcDbLayerTableRecord
  2
_1717
 70
0
 62
7
  6
CONTINUOUS
370
-3
390
F
  0
LAYER
  5
402
100
AcDbSymbolTableRecord
100
AcDbLayerTableRecord
  2
_1723
 70
0
 62
7
  6
CONTINUOUS
370
-3
390
F
  0
LAYER
  5
403
100
AcDbSymbolTableRecord
100
AcDbLayerTableRecord
  2
_1731
 70
0
 62
7
  6
CONTINUOUS
370
-3
390
F
  0
LAYER
  5
404
100
AcDbSymbolTableRecord
100
AcDbLayerTableRecord
  2
_1736
 70
0
 62
7
  6
CONTINUOUS
370
-3
390
F
  0
LAYER
  5
405
100
AcDbSymbolTableRecord
100
AcDbLayerTableRecord
  2
_1737
 70
0
 62
7
  6
CONTINUOUS
370
-3
390
F
  0
LAYER
  5
406
100
AcDbSymbolTableRecord
100
AcDbLayerTableRecord
  2
_1758
 70
0
 62
7
  6
CONTINUOUS
370
-3
390
F
  0
LAYER
  5
407
100
AcDbSymbolTableRecord
100
AcDbLayerTableRecord
  2
_1762
 70
0
 62
7
  6
CONTINUOUS
370
-3
390
F
  0
LAYER
  5
408
100
AcDbSymbolTableRecord
100
AcDbLayerTableRecord
  2
_1768
 70
0
 62
7
  6
CONTINUOUS
370
-3
390
F
  0
LAYER
  5
409
100
AcDbSymbolTableRecord
100
AcDbLayerTableRecord
  2
_1779
 70
0
 62
7
  6
CONTINUOUS
370
-3
390
F
  0
LAYER
  5
40A
100
AcDbSymbolTableRecord
100
AcDbLayerTableRecord
  2
_1789
 70
0
 62
7
  6
CONTINUOUS
370
-3
390
F
  0
LAYER
  5
40B
100
AcDbSymbolTableRecord
100
AcDbLayerTableRecord
  2
_1794
 70
0
 62
7
  6
CONTINUOUS
370
-3
390
F
  0
LAYER
  5
40C
100
AcDbSymbolTableRecord
100
AcDbLayerTableRecord
  2
_1797
 70
0
 62
7
  6
CONTINUOUS
370
-3
390
F
  0
LAYER
  5
40D
100
AcDbSymbolTableRecord
100
AcDbLayerTableRecord
  2
_1807
 70
0
 62
7
  6
CONTINUOUS
370
-3
390
F
  0
LAYER
  5
40E
100
AcDbSymbolTableRecord
100
AcDbLayerTableRecord
  2
_1818
 70
0
 62
7
  6
CONTINUOUS
370
-3
390
F
  0
LAYER
  5
40F
100
AcDbSymbolTableRecord
100
AcDbLayerTableRecord
  2
_1819
 70
0
 62
7
  6
CONTINUOUS
370
-3
390
F
  0
LAYER
  5
410
100
AcDbSymbolTableRecord
100
AcDbLayerTableRecord
  2
_182
 70
0
 62
7
  6
CONTINUOUS
370
-3
390
F
  0
LAYER
  5
411
100
AcDbSymbolTableRecord
100
AcDbLayerTableRecord
  2
_1854
 70
0
 62
7
  6
CONTINUOUS
370
-3
390
F
  0
LAYER
  5
412
100
AcDbSymbolTableRecord
100
AcDbLayerTableRecord
  2
_1869
 70
0
 62
7
  6
CONTINUOUS
370
-3
390
F
  0
LAYER
  5
413
100
AcDbSymbolTableRecord
100
AcDbLayerTableRecord
  2
_187
 70
0
 62
7
  6
CONTINUOUS
370
-3
390
F
  0
LAYER
  5
414
100
AcDbSymbolTableRecord
100
AcDbLayerTableRecord
  2
_1873
 70
0
 62
7
  6
CONTINUOUS
370
-3
390
F
  0
LAYER
  5
415
100
AcDbSymbolTableRecord
100
AcDbLayerTableRecord
  2
_1879
 70
0
 62
7
  6
CONTINUOUS
370
-3
390
F
  0
LAYER
  5
416
100
AcDbSymbolTableRecord
100
AcDbLayerTableRecord
  2
_1909
 70
0
 62
7
  6
CONTINUOUS
370
-3
390
F
  0
LAYER
  5
417
100
AcDbSymbolTableRecord
100
AcDbLayerTableRecord
  2
_1950
 70
0
 62
7
  6
CONTINUOUS
370
-3
390
F
  0
LAYER
  5
418
100
AcDbSymbolTableRecord
100
AcDbLayerTableRecord
  2
_1960
 70
0
 62
7
  6
CONTINUOUS
370
-3
390
F
  0
LAYER
  5
419
100
AcDbSymbolTableRecord
100
AcDbLayerTableRecord
  2
_1968
 70
0
 62
7
  6
CONTINUOUS
370
-3
390
F
  0
LAYER
  5
41A
100
AcDbSymbolTableRecord
100
AcDbLayerTableRecord
  2
_1969
 70
0
 62
7
  6
CONTINUOUS
370
-3
390
F
  0
LAYER
  5
41B
100
AcDbSymbolTableRecord
100
AcDbLayerTableRecord
  2
_198
 70
0
 62
7
  6
CONTINUOUS
370
-3
390
F
  0
LAYER
  5
41C
100
AcDbSymbolTableRecord
100
AcDbLayerTableRecord
  2
_198_1
 70
0
 62
7
  6
CONTINUOUS
370
-3
390
F
  0
LAYER
  5
41D
100
AcDbSymbolTableRecord
100
AcDbLayerTableRecord
  2
_1997
 70
0
 62
7
  6
CONTINUOUS
370
-3
390
F
  0
LAYER
  5
41E
100
AcDbSymbolTableRecord
100
AcDbLayerTableRecord
  2
_2000
 70
0
 62
7
  6
CONTINUOUS
370
-3
390
F
  0
LAYER
  5
41F
100
AcDbSymbolTableRecord
100
AcDbLayerTableRecord
  2
_2004
 70
0
 62
7
  6
CONTINUOUS
370
-3
390
F
  0
LAYER
  5
420
100
AcDbSymbolTableRecord
100
AcDbLayerTableRecord
  2
_2017
 70
0
 62
7
  6
CONTINUOUS
370
-3
390
F
  0
LAYER
  5
421
100
AcDbSymbolTableRecord
100
AcDbLayerTableRecord
  2
_2019
 70
0
 62
7
  6
CONTINUOUS
370
-3
390
F
  0
LAYER
  5
422
100
AcDbSymbolTableRecord
100
AcDbLayerTableRecord
  2
_2021
 70
0
 62
7
  6
CONTINUOUS
370
-3
390
F
  0
LAYER
  5
423
100
AcDbSymbolTableRecord
100
AcDbLayerTableRecord
  2
_2029
 70
0
 62
7
  6
CONTINUOUS
370
-3
390
F
  0
LAYER
  5
424
100
AcDbSymbolTableRecord
100
AcDbLayerTableRecord
  2
_2038
 70
0
 62
7
  6
CONTINUOUS
370
-3
390
F
  0
LAYER
  5
425
100
AcDbSymbolTableRecord
100
AcDbLayerTableRecord
  2
_2041
 70
0
 62
7
  6
CONTINUOUS
370
-3
390
F
  0
LAYER
  5
426
100
AcDbSymbolTableRecord
100
AcDbLayerTableRecord
  2
_2046
 70
0
 62
7
  6
CONTINUOUS
370
-3
390
F
  0
LAYER
  5
427
100
AcDbSymbolTableRecord
100
AcDbLayerTableRecord
  2
_2050
 70
0
 62
7
  6
CONTINUOUS
370
-3
390
F
  0
LAYER
  5
428
100
AcDbSymbolTableRecord
100
AcDbLayerTableRecord
  2
_2059
 70
0
 62
7
  6
CONTINUOUS
370
-3
390
F
  0
LAYER
  5
429
100
AcDbSymbolTableRecord
100
AcDbLayerTableRecord
  2
_2061
 70
0
 62
7
  6
CONTINUOUS
370
-3
390
F
  0
LAYER
  5
42A
100
AcDbSymbolTableRecord
100
AcDbLayerTableRecord
  2
_2062
 70
0
 62
7
  6
CONTINUOUS
370
-3
390
F
  0
LAYER
  5
42B
100
AcDbSymbolTableRecord
100
AcDbLayerTableRecord
  2
_2078
 70
0
 62
7
  6
CONTINUOUS
370
-3
390
F
  0
LAYER
  5
42C
100
AcDbSymbolTableRecord
100
AcDbLayerTableRecord
  2
_2079
 70
0
 62
7
  6
CONTINUOUS
370
-3
390
F
  0
LAYER
  5
42D
100
AcDbSymbolTableRecord
100
AcDbLayerTableRecord
  2
_2085
 70
0
 62
7
  6
CONTINUOUS
370
-3
390
F
  0
LAYER
  5
42E
100
AcDbSymbolTableRecord
100
AcDbLayerTableRecord
  2
_2100
 70
0
 62
7
  6
CONTINUOUS
370
-3
390
F
  0
LAYER
  5
42F
100
AcDbSymbolTableRecord
100
AcDbLayerTableRecord
  2
_2103
 70
0
 62
7
  6
CONTINUOUS
370
-3
390
F
  0
LAYER
  5
430
100
AcDbSymbolTableRecord
100
AcDbLayerTableRecord
  2
_2109
 70
0
 62
7
  6
CONTINUOUS
370
-3
390
F
  0
LAYER
  5
431
100
AcDbSymbolTableRecord
100
AcDbLayerTableRecord
  2
_2110
 70
0
 62
7
  6
CONTINUOUS
370
-3
390
F
  0
LAYER
  5
432
100
AcDbSymbolTableRecord
100
AcDbLayerTableRecord
  2
_2111
 70
0
 62
7
  6
CONTINUOUS
370
-3
390
F
  0
LAYER
  5
433
100
AcDbSymbolTableRecord
100
AcDbLayerTableRecord
  2
_2129
 70
0
 62
7
  6
CONTINUOUS
370
-3
390
F
  0
LAYER
  5
434
100
AcDbSymbolTableRecord
100
AcDbLayerTableRecord
  2
_2135
 70
0
 62
7
  6
CONTINUOUS
370
-3
390
F
  0
LAYER
  5
435
100
AcDbSymbolTableRecord
100
AcDbLayerTableRecord
  2
_2137
 70
0
 62
7
  6
CONTINUOUS
370
-3
390
F
  0
LAYER
  5
436
100
AcDbSymbolTableRecord
100
AcDbLayerTableRecord
  2
_2138
 70
0
 62
7
  6
CONTINUOUS
370
-3
390
F
  0
LAYER
  5
437
100
AcDbSymbolTableRecord
100
AcDbLayerTableRecord
  2
_2155
 70
0
 62
7
  6
CONTINUOUS
370
-3
390
F
  0
LAYER
  5
438
100
AcDbSymbolTableRecord
100
AcDbLayerTableRecord
  2
_2156
 70
0
 62
7
  6
CONTINUOUS
370
-3
390
F
  0
LAYER
  5
439
100
AcDbSymbolTableRecord
100
AcDbLayerTableRecord
  2
_216
 70
0
 62
7
  6
CONTINUOUS
370
-3
390
F
  0
LAYER
  5
43A
100
AcDbSymbolTableRecord
100
AcDbLayerTableRecord
  2
_2161
 70
0
 62
7
  6
CONTINUOUS
370
-3
390
F
  0
LAYER
  5
43B
100
AcDbSymbolTableRecord
100
AcDbLayerTableRecord
  2
_2171
 70
0
 62
7
  6
CONTINUOUS
370
-3
390
F
  0
LAYER
  5
43C
100
AcDbSymbolTableRecord
100
AcDbLayerTableRecord
  2
_219
 70
0
 62
7
  6
CONTINUOUS
370
-3
390
F
  0
LAYER
  5
43D
100
AcDbSymbolTableRecord
100
AcDbLayerTableRecord
  2
_2205
 70
0
 62
7
  6
CONTINUOUS
370
-3
390
F
  0
LAYER
  5
43E
100
AcDbSymbolTableRecord
100
AcDbLayerTableRecord
  2
_2207
 70
0
 62
7
  6
CONTINUOUS
370
-3
390
F
  0
LAYER
  5
43F
100
AcDbSymbolTableRecord
100
AcDbLayerTableRecord
  2
_2215
 70
0
 62
7
  6
CONTINUOUS
370
-3
390
F
  0
LAYER
  5
440
100
AcDbSymbolTableRecord
100
AcDbLayerTableRecord
  2
_222
 70
0
 62
7
  6
CONTINUOUS
370
-3
390
F
  0
LAYER
  5
441
100
AcDbSymbolTableRecord
100
AcDbLayerTableRecord
  2
_2223
 70
0
 62
7
  6
CONTINUOUS
370
-3
390
F
  0
LAYER
  5
442
100
AcDbSymbolTableRecord
100
AcDbLayerTableRecord
  2
_2227
 70
0
 62
7
  6
CONTINUOUS
370
-3
390
F
  0
LAYER
  5
443
100
AcDbSymbolTableRecord
100
AcDbLayerTableRecord
  2
_2228
 70
0
 62
7
  6
CONTINUOUS
370
-3
390
F
  0
LAYER
  5
444
100
AcDbSymbolTableRecord
100
AcDbLayerTableRecord
  2
_2231
 70
0
 62
7
  6
CONTINUOUS
370
-3
390
F
  0
LAYER
  5
445
100
AcDbSymbolTableRecord
100
AcDbLayerTableRecord
  2
_2246
 70
0
 62
7
  6
CONTINUOUS
370
-3
390
F
  0
LAYER
  5
446
100
AcDbSymbolTableRecord
100
AcDbLayerTableRecord
  2
_2263
 70
0
 62
7
  6
CONTINUOUS
370
-3
390
F
  0
LAYER
  5
447
100
AcDbSymbolTableRecord
100
AcDbLayerTableRecord
  2
_2297
 70
0
 62
7
  6
CONTINUOUS
370
-3
390
F
  0
LAYER
  5
448
100
AcDbSymbolTableRecord
100
AcDbLayerTableRecord
  2
_2298
 70
0
 62
7
  6
CONTINUOUS
370
-3
390
F
  0
LAYER
  5
449
100
AcDbSymbolTableRecord
100
AcDbLayerTableRecord
  2
_2319
 70
0
 62
7
  6
CONTINUOUS
370
-3
390
F
  0
LAYER
  5
44A
100
AcDbSymbolTableRecord
100
AcDbLayerTableRecord
  2
_2329
 70
0
 62
7
  6
CONTINUOUS
370
-3
390
F
  0
LAYER
  5
44B
100
AcDbSymbolTableRecord
100
AcDbLayerTableRecord
  2
_2347
 70
0
 62
7
  6
CONTINUOUS
370
-3
390
F
  0
LAYER
  5
44C
100
AcDbSymbolTableRecord
100
AcDbLayerTableRecord
  2
_2352
 70
0
 62
7
  6
CONTINUOUS
370
-3
390
F
  0
LAYER
  5
44D
100
AcDbSymbolTableRecord
100
AcDbLayerTableRecord
  2
_2354
 70
0
 62
7
  6
CONTINUOUS
370
-3
390
F
  0
LAYER
  5
44E
100
AcDbSymbolTableRecord
100
AcDbLayerTableRecord
  2
_236
 70
0
 62
7
  6
CONTINUOUS
370
-3
390
F
  0
LAYER
  5
44F
100
AcDbSymbolTableRecord
100
AcDbLayerTableRecord
  2
_2368
 70
0
 62
7
  6
CONTINUOUS
370
-3
390
F
  0
LAYER
  5
450
100
AcDbSymbolTableRecord
100
AcDbLayerTableRecord
  2
_2397
 70
0
 62
7
  6
CONTINUOUS
370
-3
390
F
  0
LAYER
  5
451
100
AcDbSymbolTableRecord
100
AcDbLayerTableRecord
  2
_2404
 70
0
 62
7
  6
CONTINUOUS
370
-3
390
F
  0
LAYER
  5
452
100
AcDbSymbolTableRecord
100
AcDbLayerTableRecord
  2
_2414
 70
0
 62
7
  6
CONTINUOUS
370
-3
390
F
  0
LAYER
  5
453
100
AcDbSymbolTableRecord
100
AcDbLayerTableRecord
  2
_2422
 70
0
 62
7
  6
CONTINUOUS
370
-3
390
F
  0
LAYER
  5
454
100
AcDbSymbolTableRecord
100
AcDbLayerTableRecord
  2
_243
 70
0
 62
7
  6
CONTINUOUS
370
-3
390
F
  0
LAYER
  5
455
100
AcDbSymbolTableRecord
100
AcDbLayerTableRecord
  2
_2432
 70
0
 62
7
  6
CONTINUOUS
370
-3
390
F
  0
LAYER
  5
456
100
AcDbSymbolTableRecord
100
AcDbLayerTableRecord
  2
_2433
 70
0
 62
7
  6
CONTINUOUS
370
-3
390
F
  0
LAYER
  5
457
100
AcDbSymbolTableRecord
100
AcDbLayerTableRecord
  2
_2468
 70
0
 62
7
  6
CONTINUOUS
370
-3
390
F
  0
LAYER
  5
458
100
AcDbSymbolTableRecord
100
AcDbLayerTableRecord
  2
_2490
 70
0
 62
7
  6
CONTINUOUS
370
-3
390
F
  0
LAYER
  5
459
100
AcDbSymbolTableRecord
100
AcDbLayerTableRecord
  2
_2493
 70
0
 62
7
  6
CONTINUOUS
370
-3
390
F
  0
LAYER
  5
45A
100
AcDbSymbolTableRecord
100
AcDbLayerTableRecord
  2
_2499
 70
0
 62
7
  6
CONTINUOUS
370
-3
390
F
  0
LAYER
  5
45B
100
AcDbSymbolTableRecord
100
AcDbLayerTableRecord
  2
_2511
 70
0
 62
7
  6
CONTINUOUS
370
-3
390
F
  0
LAYER
  5
45C
100
AcDbSymbolTableRecord
100
AcDbLayerTableRecord
  2
_2519
 70
0
 62
7
  6
CONTINUOUS
370
-3
390
F
  0
LAYER
  5
45D
100
AcDbSymbolTableRecord
100
AcDbLayerTableRecord
  2
_2525
 70
0
 62
7
  6
CONTINUOUS
370
-3
390
F
  0
LAYER
  5
45E
100
AcDbSymbolTableRecord
100
AcDbLayerTableRecord
  2
_2528
 70
0
 62
7
  6
CONTINUOUS
370
-3
390
F
  0
LAYER
  5
45F
100
AcDbSymbolTableRecord
100
AcDbLayerTableRecord
  2
_2547
 70
0
 62
7
  6
CONTINUOUS
370
-3
390
F
  0
LAYER
  5
460
100
AcDbSymbolTableRecord
100
AcDbLayerTableRecord
  2
_2555
 70
0
 62
7
  6
CONTINUOUS
370
-3
390
F
  0
LAYER
  5
461
100
AcDbSymbolTableRecord
100
AcDbLayerTableRecord
  2
_2576
 70
0
 62
7
  6
CONTINUOUS
370
-3
390
F
  0
LAYER
  5
462
100
AcDbSymbolTableRecord
100
AcDbLayerTableRecord
  2
_2577
 70
0
 62
7
  6
CONTINUOUS
370
-3
390
F
  0
LAYER
  5
463
100
AcDbSymbolTableRecord
100
AcDbLayerTableRecord
  2
_2599
 70
0
 62
7
  6
CONTINUOUS
370
-3
390
F
  0
LAYER
  5
464
100
AcDbSymbolTableRecord
100
AcDbLayerTableRecord
  2
_2613
 70
0
 62
7
  6
CONTINUOUS
370
-3
390
F
  0
LAYER
  5
465
100
AcDbSymbolTableRecord
100
AcDbLayerTableRecord
  2
_2619
 70
0
 62
7
  6
CONTINUOUS
370
-3
390
F
  0
LAYER
  5
466
100
AcDbSymbolTableRecord
100
AcDbLayerTableRecord
  2
_2627
 70
0
 62
7
  6
CONTINUOUS
370
-3
390
F
  0
LAYER
  5
467
100
AcDbSymbolTableRecord
100
AcDbLayerTableRecord
  2
_2628
 70
0
 62
7
  6
CONTINUOUS
370
-3
390
F
  0
LAYER
  5
468
100
AcDbSymbolTableRecord
100
AcDbLayerTableRecord
  2
_263
 70
0
 62
7
  6
CONTINUOUS
370
-3
390
F
  0
LAYER
  5
469
100
AcDbSymbolTableRecord
100
AcDbLayerTableRecord
  2
_2633
 70
0
 62
7
  6
CONTINUOUS
370
-3
390
F
  0
LAYER
  5
46A
100
AcDbSymbolTableRecord
100
AcDbLayerTableRecord
  2
_2641
 70
0
 62
7
  6
CONTINUOUS
370
-3
390
F
  0
LAYER
  5
46B
100
AcDbSymbolTableRecord
100
AcDbLayerTableRecord
  2
_2654
 70
0
 62
7
  6
CONTINUOUS
370
-3
390
F
  0
LAYER
  5
46C
100
AcDbSymbolTableRecord
100
AcDbLayerTableRecord
  2
_2680
 70
0
 62
7
  6
CONTINUOUS
370
-3
390
F
  0
LAYER
  5
46D
100
AcDbSymbolTableRecord
100
AcDbLayerTableRecord
  2
_271
 70
0
 62
7
  6
CONTINUOUS
370
-3
390
F
  0
LAYER
  5
46E
100
AcDbSymbolTableRecord
100
AcDbLayerTableRecord
  2
_2713
 70
0
 62
7
  6
CONTINUOUS
370
-3
390
F
  0
LAYER
  5
46F
100
AcDbSymbolTableRecord
100
AcDbLayerTableRecord
  2
_2717
 70
0
 62
7
  6
CONTINUOUS
370
-3
390
F
  0
LAYER
  5
470
100
AcDbSymbolTableRecord
100
AcDbLayerTableRecord
  2
_2725
 70
0
 62
7
  6
CONTINUOUS
370
-3
390
F
  0
LAYER
  5
471
100
AcDbSymbolTableRecord
100
AcDbLayerTableRecord
  2
_2762
 70
0
 62
7
  6
CONTINUOUS
370
-3
390
F
  0
LAYER
  5
472
100
AcDbSymbolTableRecord
100
AcDbLayerTableRecord
  2
_2763
 70
0
 62
7
  6
CONTINUOUS
370
-3
390
F
  0
LAYER
  5
473
100
AcDbSymbolTableRecord
100
AcDbLayerTableRecord
  2
_2792
 70
0
 62
7
  6
CONTINUOUS
370
-3
390
F
  0
LAYER
  5
474
100
AcDbSymbolTableRecord
100
AcDbLayerTableRecord
  2
_2798
 70
0
 62
7
  6
CONTINUOUS
370
-3
390
F
  0
LAYER
  5
475
100
AcDbSymbolTableRecord
100
AcDbLayerTableRecord
  2
_2810
 70
0
 62
7
  6
CONTINUOUS
370
-3
390
F
  0
LAYER
  5
476
100
AcDbSymbolTableRecord
100
AcDbLayerTableRecord
  2
_2813
 70
0
 62
7
  6
CONTINUOUS
370
-3
390
F
  0
LAYER
  5
477
100
AcDbSymbolTableRecord
100
AcDbLayerTableRecord
  2
_2828
 70
0
 62
7
  6
CONTINUOUS
370
-3
390
F
  0
LAYER
  5
478
100
AcDbSymbolTableRecord
100
AcDbLayerTableRecord
  2
_2832
 70
0
 62
7
  6
CONTINUOUS
370
-3
390
F
  0
LAYER
  5
479
100
AcDbSymbolTableRecord
100
AcDbLayerTableRecord
  2
_2840
 70
0
 62
7
  6
CONTINUOUS
370
-3
390
F
  0
LAYER
  5
47A
100
AcDbSymbolTableRecord
100
AcDbLayerTableRecord
  2
_285
 70
0
 62
7
  6
CONTINUOUS
370
-3
390
F
  0
LAYER
  5
47B
100
AcDbSymbolTableRecord
100
AcDbLayerTableRecord
  2
_2866
 70
0
 62
7
  6
CONTINUOUS
370
-3
390
F
  0
LAYER
  5
47C
100
AcDbSymbolTableRecord
100
AcDbLayerTableRecord
  2
_2870
 70
0
 62
7
  6
CONTINUOUS
370
-3
390
F
  0
LAYER
  5
47D
100
AcDbSymbolTableRecord
100
AcDbLayerTableRecord
  2
_2871
 70
0
 62
7
  6
CONTINUOUS
370
-3
390
F
  0
LAYER
  5
47E
100
AcDbSymbolTableRecord
100
AcDbLayerTableRecord
  2
_2901
 70
0
 62
7
  6
CONTINUOUS
370
-3
390
F
  0
LAYER
  5
47F
100
AcDbSymbolTableRecord
100
AcDbLayerTableRecord
  2
_2907
 70
0
 62
7
  6
CONTINUOUS
370
-3
390
F
  0
LAYER
  5
480
100
AcDbSymbolTableRecord
100
AcDbLayerTableRecord
  2
_2932
 70
0
 62
7
  6
CONTINUOUS
370
-3
390
F
  0
LAYER
  5
481
100
AcDbSymbolTableRecord
100
AcDbLayerTableRecord
  2
_2933
 70
0
 62
7
  6
CONTINUOUS
370
-3
390
F
  0
LAYER
  5
482
100
AcDbSymbolTableRecord
100
AcDbLayerTableRecord
  2
_2937
 70
0
 62
7
  6
CONTINUOUS
370
-3
390
F
  0
LAYER
  5
483
100
AcDbSymbolTableRecord
100
AcDbLayerTableRecord
  2
_2942
 70
0
 62
7
  6
CONTINUOUS
370
-3
390
F
  0
LAYER
  5
484
100
AcDbSymbolTableRecord
100
AcDbLayerTableRecord
  2
_2945
 70
0
 62
7
  6
CONTINUOUS
370
-3
390
F
  0
LAYER
  5
485
100
AcDbSymbolTableRecord
100
AcDbLayerTableRecord
  2
_2953
 70
0
 62
7
  6
CONTINUOUS
370
-3
390
F
  0
LAYER
  5
486
100
AcDbSymbolTableRecord
100
AcDbLayerTableRecord
  2
_2956
 70
0
 62
7
  6
CONTINUOUS
370
-3
390
F
  0
LAYER
  5
487
100
AcDbSymbolTableRecord
100
AcDbLayerTableRecord
  2
_2984
 70
0
 62
7
  6
CONTINUOUS
370
-3
390
F
  0
LAYER
  5
488
100
AcDbSymbolTableRecord
100
AcDbLayerTableRecord
  2
_3014
 70
0
 62
7
  6
CONTINUOUS
370
-3
390
F
  0
LAYER
  5
489
100
AcDbSymbolTableRecord
100
AcDbLayerTableRecord
  2
_3014_1
 70
0
 62
7
  6
CONTINUOUS
370
-3
390
F
  0
LAYER
  5
48A
100
AcDbSymbolTableRecord
100
AcDbLayerTableRecord
  2
_3016
 70
0
 62
7
  6
CONTINUOUS
370
-3
390
F
  0
LAYER
  5
48B
100
AcDbSymbolTableRecord
100
AcDbLayerTableRecord
  2
_3023
 70
0
 62
7
  6
CONTINUOUS
370
-3
390
F
  0
LAYER
  5
48C
100
AcDbSymbolTableRecord
100
AcDbLayerTableRecord
  2
_3042
 70
0
 62
7
  6
CONTINUOUS
370
-3
390
F
  0
LAYER
  5
48D
100
AcDbSymbolTableRecord
100
AcDbLayerTableRecord
  2
_3044
 70
0
 62
7
  6
CONTINUOUS
370
-3
390
F
  0
LAYER
  5
48E
100
AcDbSymbolTableRecord
100
AcDbLayerTableRecord
  2
_3046
 70
0
 62
7
  6
CONTINUOUS
370
-3
390
F
  0
LAYER
  5
48F
100
AcDbSymbolTableRecord
100
AcDbLayerTableRecord
  2
_3069
 70
0
 62
7
  6
CONTINUOUS
370
-3
390
F
  0
LAYER
  5
490
100
AcDbSymbolTableRecord
100
AcDbLayerTableRecord
  2
_3071
 70
0
 62
7
  6
CONTINUOUS
370
-3
390
F
  0
LAYER
  5
491
100
AcDbSymbolTableRecord
100
AcDbLayerTableRecord
  2
_3074
 70
0
 62
7
  6
CONTINUOUS
370
-3
390
F
  0
LAYER
  5
492
100
AcDbSymbolTableRecord
100
AcDbLayerTableRecord
  2
_308
 70
0
 62
7
  6
CONTINUOUS
370
-3
390
F
  0
LAYER
  5
493
100
AcDbSymbolTableRecord
100
AcDbLayerTableRecord
  2
_3087
 70
0
 62
7
  6
CONTINUOUS
370
-3
390
F
  0
LAYER
  5
494
100
AcDbSymbolTableRecord
100
AcDbLayerTableRecord
  2
_3094
 70
0
 62
7
  6
CONTINUOUS
370
-3
390
F
  0
LAYER
  5
495
100
AcDbSymbolTableRecord
100
AcDbLayerTableRecord
  2
_3095
 70
0
 62
7
  6
CONTINUOUS
370
-3
390
F
  0
LAYER
  5
496
100
AcDbSymbolTableRecord
100
AcDbLayerTableRecord
  2
_3099
 70
0
 62
7
  6
CONTINUOUS
370
-3
390
F
  0
LAYER
  5
497
100
AcDbSymbolTableRecord
100
AcDbLayerTableRecord
  2
_3101
 70
0
 62
7
  6
CONTINUOUS
370
-3
390
F
  0
LAYER
  5
498
100
AcDbSymbolTableRecord
100
AcDbLayerTableRecord
  2
_3107
 70
0
 62
7
  6
CONTINUOUS
370
-3
390
F
  0
LAYER
  5
499
100
AcDbSymbolTableRecord
100
AcDbLayerTableRecord
  2
_311
 70
0
 62
7
  6
CONTINUOUS
370
-3
390
F
  0
LAYER
  5
49A
100
AcDbSymbolTableRecord
100
AcDbLayerTableRecord
  2
_3119
 70
0
 62
7
  6
CONTINUOUS
370
-3
390
F
  0
LAYER
  5
49B
100
AcDbSymbolTableRecord
100
AcDbLayerTableRecord
  2
_3129
 70
0
 62
7
  6
CONTINUOUS
370
-3
390
F
  0
LAYER
  5
49C
100
AcDbSymbolTableRecord
100
AcDbLayerTableRecord
  2
_3142
 70
0
 62
7
  6
CONTINUOUS
370
-3
390
F
  0
LAYER
  5
49D
100
AcDbSymbolTableRecord
100
AcDbLayerTableRecord
  2
_3158
 70
0
 62
7
  6
CONTINUOUS
370
-3
390
F
  0
LAYER
  5
49E
100
AcDbSymbolTableRecord
100
AcDbLayerTableRecord
  2
_3167
 70
0
 62
7
  6
CONTINUOUS
370
-3
390
F
  0
LAYER
  5
49F
100
AcDbSymbolTableRecord
100
AcDbLayerTableRecord
  2
_3178
 70
0
 62
7
  6
CONTINUOUS
370
-3
390
F
  0
LAYER
  5
4A0
100
AcDbSymbolTableRecord
100
AcDbLayerTableRecord
  2
_3185
 70
0
 62
7
  6
CONTINUOUS
370
-3
390
F
  0
LAYER
  5
4A1
100
AcDbSymbolTableRecord
100
AcDbLayerTableRecord
  2
_319
 70
0
 62
7
  6
CONTINUOUS
370
-3
390
F
  0
LAYER
  5
4A2
100
AcDbSymbolTableRecord
100
AcDbLayerTableRecord
  2
_3192
 70
0
 62
7
  6
CONTINUOUS
370
-3
390
F
  0
LAYER
  5
4A3
100
AcDbSymbolTableRecord
100
AcDbLayerTableRecord
  2
_3196
 70
0
 62
7
  6
CONTINUOUS
370
-3
390
F
  0
LAYER
  5
4A4
100
AcDbSymbolTableRecord
100
AcDbLayerTableRecord
  2
_3198
 70
0
 62
7
  6
CONTINUOUS
370
-3
390
F
  0
LAYER
  5
4A5
100
AcDbSymbolTableRecord
100
AcDbLayerTableRecord
  2
_3203
 70
0
 62
7
  6
CONTINUOUS
370
-3
390
F
  0
LAYER
  5
4A6
100
AcDbSymbolTableRecord
100
AcDbLayerTableRecord
  2
_3211
 70
0
 62
7
  6
CONTINUOUS
370
-3
390
F
  0
LAYER
  5
4A7
100
AcDbSymbolTableRecord
100
AcDbLayerTableRecord
  2
_3220
 70
0
 62
7
  6
CONTINUOUS
370
-3
390
F
  0
LAYER
  5
4A8
100
AcDbSymbolTableRecord
100
AcDbLayerTableRecord
  2
_3228
 70
0
 62
7
  6
CONTINUOUS
370
-3
390
F
  0
LAYER
  5
4A9
100
AcDbSymbolTableRecord
100
AcDbLayerTableRecord
  2
_3231
 70
0
 62
7
  6
CONTINUOUS
370
-3
390
F
  0
LAYER
  5
4AA
100
AcDbSymbolTableRecord
100
AcDbLayerTableRecord
  2
_3239
 70
0
 62
7
  6
CONTINUOUS
370
-3
390
F
  0
LAYER
  5
4AB
100
AcDbSymbolTableRecord
100
AcDbLayerTableRecord
  2
_3242
 70
0
 62
7
  6
CONTINUOUS
370
-3
390
F
  0
LAYER
  5
4AC
100
AcDbSymbolTableRecord
100
AcDbLayerTableRecord
  2
_3245
 70
0
 62
7
  6
CONTINUOUS
370
-3
390
F
  0
LAYER
  5
4AD
100
AcDbSymbolTableRecord
100
AcDbLayerTableRecord
  2
_3249
 70
0
 62
7
  6
CONTINUOUS
370
-3
390
F
  0
LAYER
  5
4AE
100
AcDbSymbolTableRecord
100
AcDbLayerTableRecord
  2
_3262
 70
0
 62
7
  6
CONTINUOUS
370
-3
390
F
  0
LAYER
  5
4AF
100
AcDbSymbolTableRecord
100
AcDbLayerTableRecord
  2
_3281
 70
0
 62
7
  6
CONTINUOUS
370
-3
390
F
  0
LAYER
  5
4B0
100
AcDbSymbolTableRecord
100
AcDbLayerTableRecord
  2
_3313
 70
0
 62
7
  6
CONTINUOUS
370
-3
390
F
  0
LAYER
  5
4B1
100
AcDbSymbolTableRecord
100
AcDbLayerTableRecord
  2
_3317
 70
0
 62
7
  6
CONTINUOUS
370
-3
390
F
  0
LAYER
  5
4B2
100
AcDbSymbolTableRecord
100
AcDbLayerTableRecord
  2
_3318
 70
0
 62
7
  6
CONTINUOUS
370
-3
390
F
  0
LAYER
  5
4B3
100
AcDbSymbolTableRecord
100
AcDbLayerTableRecord
  2
_3325
 70
0
 62
7
  6
CONTINUOUS
370
-3
390
F
  0
LAYER
  5
4B4
100
AcDbSymbolTableRecord
100
AcDbLayerTableRecord
  2
_333
 70
0
 62
7
  6
CONTINUOUS
370
-3
390
F
  0
LAYER
  5
4B5
100
AcDbSymbolTableRecord
100
AcDbLayerTableRecord
  2
_3331
 70
0
 62
7
  6
CONTINUOUS
370
-3
390
F
  0
LAYER
  5
4B6
100
AcDbSymbolTableRecord
100
AcDbLayerTableRecord
  2
_3342
 70
0
 62
7
  6
CONTINUOUS
370
-3
390
F
  0
LAYER
  5
4B7
100
AcDbSymbolTableRecord
100
AcDbLayerTableRecord
  2
_3351
 70
0
 62
7
  6
CONTINUOUS
370
-3
390
F
  0
LAYER
  5
4B8
100
AcDbSymbolTableRecord
100
AcDbLayerTableRecord
  2
_3355
 70
0
 62
7
  6
CONTINUOUS
370
-3
390
F
  0
LAYER
  5
4B9
100
AcDbSymbolTableRecord
100
AcDbLayerTableRecord
  2
_3359
 70
0
 62
7
  6
CONTINUOUS
370
-3
390
F
  0
LAYER
  5
4BA
100
AcDbSymbolTableRecord
100
AcDbLayerTableRecord
  2
_3373
 70
0
 62
7
  6
CONTINUOUS
370
-3
390
F
  0
LAYER
  5
4BB
100
AcDbSymbolTableRecord
100
AcDbLayerTableRecord
  2
_3373_1
 70
0
 62
7
  6
CONTINUOUS
370
-3
390
F
  0
LAYER
  5
4BC
100
AcDbSymbolTableRecord
100
AcDbLayerTableRecord
  2
_3379
 70
0
 62
7
  6
CONTINUOUS
370
-3
390
F
  0
LAYER
  5
4BD
100
AcDbSymbolTableRecord
100
AcDbLayerTableRecord
  2
_3385
 70
0
 62
7
  6
CONTINUOUS
370
-3
390
F
  0
LAYER
  5
4BE
100
AcDbSymbolTableRecord
100
AcDbLayerTableRecord
  2
_3394
 70
0
 62
7
  6
CONTINUOUS
370
-3
390
F
  0
LAYER
  5
4BF
100
AcDbSymbolTableRecord
100
AcDbLayerTableRecord
  2
_3400
 70
0
 62
7
  6
CONTINUOUS
370
-3
390
F
  0
LAYER
  5
4C0
100
AcDbSymbolTableRecord
100
AcDbLayerTableRecord
  2
_3413
 70
0
 62
7
  6
CONTINUOUS
370
-3
390
F
  0
LAYER
  5
4C1
100
AcDbSymbolTableRecord
100
AcDbLayerTableRecord
  2
_3423
 70
0
 62
7
  6
CONTINUOUS
370
-3
390
F
  0
LAYER
  5
4C2
100
AcDbSymbolTableRecord
100
AcDbLayerTableRecord
  2
_3426
 70
0
 62
7
  6
CONTINUOUS
370
-3
390
F
  0
LAYER
  5
4C3
100
AcDbSymbolTableRecord
100
AcDbLayerTableRecord
  2
_3435
 70
0
 62
7
  6
CONTINUOUS
370
-3
390
F
  0
LAYER
  5
4C4
100
AcDbSymbolTableRecord
100
AcDbLayerTableRecord
  2
_3455
 70
0
 62
7
  6
CONTINUOUS
370
-3
390
F
  0
LAYER
  5
4C5
100
AcDbSymbolTableRecord
100
AcDbLayerTableRecord
  2
_3465
 70
0
 62
7
  6
CONTINUOUS
370
-3
390
F
  0
LAYER
  5
4C6
100
AcDbSymbolTableRecord
100
AcDbLayerTableRecord
  2
_3476
 70
0
 62
7
  6
CONTINUOUS
370
-3
390
F
  0
LAYER
  5
4C7
100
AcDbSymbolTableRecord
100
AcDbLayerTableRecord
  2
_3478
 70
0
 62
7
  6
CONTINUOUS
370
-3
390
F
  0
LAYER
  5
4C8
100
AcDbSymbolTableRecord
100
AcDbLayerTableRecord
  2
_3498
 70
0
 62
7
  6
CONTINUOUS
370
-3
390
F
  0
LAYER
  5
4C9
100
AcDbSymbolTableRecord
100
AcDbLayerTableRecord
  2
_352
 70
0
 62
7
  6
CONTINUOUS
370
-3
390
F
  0
LAYER
  5
4CA
100
AcDbSymbolTableRecord
100
AcDbLayerTableRecord
  2
_3528
 70
0
 62
7
  6
CONTINUOUS
370
-3
390
F
  0
LAYER
  5
4CB
100
AcDbSymbolTableRecord
100
AcDbLayerTableRecord
  2
_3544
 70
0
 62
7
  6
CONTINUOUS
370
-3
390
F
  0
LAYER
  5
4CC
100
AcDbSymbolTableRecord
100
AcDbLayerTableRecord
  2
_3545
 70
0
 62
7
  6
CONTINUOUS
370
-3
390
F
  0
LAYER
  5
4CD
100
AcDbSymbolTableRecord
100
AcDbLayerTableRecord
  2
_3546
 70
0
 62
7
  6
CONTINUOUS
370
-3
390
F
  0
LAYER
  5
4CE
100
AcDbSymbolTableRecord
100
AcDbLayerTableRecord
  2
_3551
 70
0
 62
7
  6
CONTINUOUS
370
-3
390
F
  0
LAYER
  5
4CF
100
AcDbSymbolTableRecord
100
AcDbLayerTableRecord
  2
_3552
 70
0
 62
7
  6
CONTINUOUS
370
-3
390
F
  0
LAYER
  5
4D0
100
AcDbSymbolTableRecord
100
AcDbLayerTableRecord
  2
_3557
 70
0
 62
7
  6
CONTINUOUS
370
-3
390
F
  0
LAYER
  5
4D1
100
AcDbSymbolTableRecord
100
AcDbLayerTableRecord
  2
_3558
 70
0
 62
7
  6
CONTINUOUS
370
-3
390
F
  0
LAYER
  5
4D2
100
AcDbSymbolTableRecord
100
AcDbLayerTableRecord
  2
_3570
 70
0
 62
7
  6
CONTINUOUS
370
-3
390
F
  0
LAYER
  5
4D3
100
AcDbSymbolTableRecord
100
AcDbLayerTableRecord
  2
_3583
 70
0
 62
7
  6
CONTINUOUS
370
-3
390
F
  0
LAYER
  5
4D4
100
AcDbSymbolTableRecord
100
AcDbLayerTableRecord
  2
_3585
 70
0
 62
7
  6
CONTINUOUS
370
-3
390
F
  0
LAYER
  5
4D5
100
AcDbSymbolTableRecord
100
AcDbLayerTableRecord
  2
_3587
 70
0
 62
7
  6
CONTINUOUS
370
-3
390
F
  0
LAYER
  5
4D6
100
AcDbSymbolTableRecord
100
AcDbLayerTableRecord
  2
_3588
 70
0
 62
7
  6
CONTINUOUS
370
-3
390
F
  0
LAYER
  5
4D7
100
AcDbSymbolTableRecord
100
AcDbLayerTableRecord
  2
_3589
 70
0
 62
7
  6
CONTINUOUS
370
-3
390
F
  0
LAYER
  5
4D8
100
AcDbSymbolTableRecord
100
AcDbLayerTableRecord
  2
_3617
 70
0
 62
7
  6
CONTINUOUS
370
-3
390
F
  0
LAYER
  5
4D9
100
AcDbSymbolTableRecord
100
AcDbLayerTableRecord
  2
_3625
 70
0
 62
7
  6
CONTINUOUS
370
-3
390
F
  0
LAYER
  5
4DA
100
AcDbSymbolTableRecord
100
AcDbLayerTableRecord
  2
_3633
 70
0
 62
7
  6
CONTINUOUS
370
-3
390
F
  0
LAYER
  5
4DB
100
AcDbSymbolTableRecord
100
AcDbLayerTableRecord
  2
_3635
 70
0
 62
7
  6
CONTINUOUS
370
-3
390
F
  0
LAYER
  5
4DC
100
AcDbSymbolTableRecord
100
AcDbLayerTableRecord
  2
_3640
 70
0
 62
7
  6
CONTINUOUS
370
-3
390
F
  0
LAYER
  5
4DD
100
AcDbSymbolTableRecord
100
AcDbLayerTableRecord
  2
_3656
 70
0
 62
7
  6
CONTINUOUS
370
-3
390
F
  0
LAYER
  5
4DE
100
AcDbSymbolTableRecord
100
AcDbLayerTableRecord
  2
_3665
 70
0
 62
7
  6
CONTINUOUS
370
-3
390
F
  0
LAYER
  5
4DF
100
AcDbSymbolTableRecord
100
AcDbLayerTableRecord
  2
_3667
 70
0
 62
7
  6
CONTINUOUS
370
-3
390
F
  0
LAYER
  5
4E0
100
AcDbSymbolTableRecord
100
AcDbLayerTableRecord
  2
_3688
 70
0
 62
7
  6
CONTINUOUS
370
-3
390
F
  0
LAYER
  5
4E1
100
AcDbSymbolTableRecord
100
AcDbLayerTableRecord
  2
_3692
 70
0
 62
7
  6
CONTINUOUS
370
-3
390
F
  0
LAYER
  5
4E2
100
AcDbSymbolTableRecord
100
AcDbLayerTableRecord
  2
_370
 70
0
 62
7
  6
CONTINUOUS
370
-3
390
F
  0
LAYER
  5
4E3
100
AcDbSymbolTableRecord
100
AcDbLayerTableRecord
  2
_3700
 70
0
 62
7
  6
CONTINUOUS
370
-3
390
F
  0
LAYER
  5
4E4
100
AcDbSymbolTableRecord
100
AcDbLayerTableRecord
  2
_3723
 70
0
 62
7
  6
CONTINUOUS
370
-3
390
F
  0
LAYER
  5
4E5
100
AcDbSymbolTableRecord
100
AcDbLayerTableRecord
  2
_3725
 70
0
 62
7
  6
CONTINUOUS
370
-3
390
F
  0
LAYER
  5
4E6
100
AcDbSymbolTableRecord
100
AcDbLayerTableRecord
  2
_3752
 70
0
 62
7
  6
CONTINUOUS
370
-3
390
F
  0
LAYER
  5
4E7
100
AcDbSymbolTableRecord
100
AcDbLayerTableRecord
  2
_3762
 70
0
 62
7
  6
CONTINUOUS
370
-3
390
F
  0
LAYER
  5
4E8
100
AcDbSymbolTableRecord
100
AcDbLayerTableRecord
  2
_3764
 70
0
 62
7
  6
CONTINUOUS
370
-3
390
F
  0
LAYER
  5
4E9
100
AcDbSymbolTableRecord
100
AcDbLayerTableRecord
  2
_3775
 70
0
 62
7
  6
CONTINUOUS
370
-3
390
F
  0
LAYER
  5
4EA
100
AcDbSymbolTableRecord
100
AcDbLayerTableRecord
  2
_3795
 70
0
 62
7
  6
CONTINUOUS
370
-3
390
F
  0
LAYER
  5
4EB
100
AcDbSymbolTableRecord
100
AcDbLayerTableRecord
  2
_3800
 70
0
 62
7
  6
CONTINUOUS
370
-3
390
F
  0
LAYER
  5
4EC
100
AcDbSymbolTableRecord
100
AcDbLayerTableRecord
  2
_3807
 70
0
 62
7
  6
CONTINUOUS
370
-3
390
F
  0
LAYER
  5
4ED
100
AcDbSymbolTableRecord
100
AcDbLayerTableRecord
  2
_3831
 70
0
 62
7
  6
CONTINUOUS
370
-3
390
F
  0
LAYER
  5
4EE
100
AcDbSymbolTableRecord
100
AcDbLayerTableRecord
  2
_384
 70
0
 62
7
  6
CONTINUOUS
370
-3
390
F
  0
LAYER
  5
4EF
100
AcDbSymbolTableRecord
100
AcDbLayerTableRecord
  2
_3841
 70
0
 62
7
  6
CONTINUOUS
370
-3
390
F
  0
LAYER
  5
4F0
100
AcDbSymbolTableRecord
100
AcDbLayerTableRecord
  2
_3843
 70
0
 62
7
  6
CONTINUOUS
370
-3
390
F
  0
LAYER
  5
4F1
100
AcDbSymbolTableRecord
100
AcDbLayerTableRecord
  2
_3858
 70
0
 62
7
  6
CONTINUOUS
370
-3
390
F
  0
LAYER
  5
4F2
100
AcDbSymbolTableRecord
100
AcDbLayerTableRecord
  2
_3858_1
 70
0
 62
7
  6
CONTINUOUS
370
-3
390
F
  0
LAYER
  5
4F3
100
AcDbSymbolTableRecord
100
AcDbLayerTableRecord
  2
_3864
 70
0
 62
7
  6
CONTINUOUS
370
-3
390
F
  0
LAYER
  5
4F4
100
AcDbSymbolTableRecord
100
AcDbLayerTableRecord
  2
_3878
 70
0
 62
7
  6
CONTINUOUS
370
-3
390
F
  0
LAYER
  5
4F5
100
AcDbSymbolTableRecord
100
AcDbLayerTableRecord
  2
_3881
 70
0
 62
7
  6
CONTINUOUS
370
-3
390
F
  0
LAYER
  5
4F6
100
AcDbSymbolTableRecord
100
AcDbLayerTableRecord
  2
_3897
 70
0
 62
7
  6
CONTINUOUS
370
-3
390
F
  0
LAYER
  5
4F7
100
AcDbSymbolTableRecord
100
AcDbLayerTableRecord
  2
_3919
 70
0
 62
7
  6
CONTINUOUS
370
-3
390
F
  0
LAYER
  5
4F8
100
AcDbSymbolTableRecord
100
AcDbLayerTableRecord
  2
_3955
 70
0
 62
7
  6
CONTINUOUS
370
-3
390
F
  0
LAYER
  5
4F9
100
AcDbSymbolTableRecord
100
AcDbLayerTableRecord
  2
_396
 70
0
 62
7
  6
CONTINUOUS
370
-3
390
F
  0
LAYER
  5
4FA
100
AcDbSymbolTableRecord
100
AcDbLayerTableRecord
  2
_3964
 70
0
 62
7
  6
CONTINUOUS
370
-3
390
F
  0
LAYER
  5
4FB
100
AcDbSymbolTableRecord
100
AcDbLayerTableRecord
  2
_3973
 70
0
 62
7
  6
CONTINUOUS
370
-3
390
F
  0
LAYER
  5
4FC
100
AcDbSymbolTableRecord
100
AcDbLayerTableRecord
  2
_3978
 70
0
 62
7
  6
CONTINUOUS
370
-3
390
F
  0
LAYER
  5
4FD
100
AcDbSymbolTableRecord
100
AcDbLayerTableRecord
  2
_3997
 70
0
 62
7
  6
CONTINUOUS
370
-3
390
F
  0
LAYER
  5
4FE
100
AcDbSymbolTableRecord
100
AcDbLayerTableRecord
  2
_4003
 70
0
 62
7
  6
CONTINUOUS
370
-3
390
F
  0
LAYER
  5
4FF
100
AcDbSymbolTableRecord
100
AcDbLayerTableRecord
  2
_4018
 70
0
 62
7
  6
CONTINUOUS
370
-3
390
F
  0
LAYER
  5
500
100
AcDbSymbolTableRecord
100
AcDbLayerTableRecord
  2
_4032
 70
0
 62
7
  6
CONTINUOUS
370
-3
390
F
  0
LAYER
  5
501
100
AcDbSymbolTableRecord
100
AcDbLayerTableRecord
  2
_4044
 70
0
 62
7
  6
CONTINUOUS
370
-3
390
F
  0
LAYER
  5
502
100
AcDbSymbolTableRecord
100
AcDbLayerTableRecord
  2
_4061
 70
0
 62
7
  6
CONTINUOUS
370
-3
390
F
  0
LAYER
  5
503
100
AcDbSymbolTableRecord
100
AcDbLayerTableRecord
  2
_4061_1
 70
0
 62
7
  6
CONTINUOUS
370
-3
390
F
  0
LAYER
  5
504
100
AcDbSymbolTableRecord
100
AcDbLayerTableRecord
  2
_4072
 70
0
 62
7
  6
CONTINUOUS
370
-3
390
F
  0
LAYER
  5
505
100
AcDbSymbolTableRecord
100
AcDbLayerTableRecord
  2
_4074
 70
0
 62
7
  6
CONTINUOUS
370
-3
390
F
  0
LAYER
  5
506
100
AcDbSymbolTableRecord
100
AcDbLayerTableRecord
  2
_409
 70
0
 62
7
  6
CONTINUOUS
370
-3
390
F
  0
LAYER
  5
507
100
AcDbSymbolTableRecord
100
AcDbLayerTableRecord
  2
_4106
 70
0
 62
7
  6
CONTINUOUS
370
-3
390
F
  0
LAYER
  5
508
100
AcDbSymbolTableRecord
100
AcDbLayerTableRecord
  2
_411
 70
0
 62
7
  6
CONTINUOUS
370
-3
390
F
  0
LAYER
  5
509
100
AcDbSymbolTableRecord
100
AcDbLayerTableRecord
  2
_4118
 70
0
 62
7
  6
CONTINUOUS
370
-3
390
F
  0
LAYER
  5
50A
100
AcDbSymbolTableRecord
100
AcDbLayerTableRecord
  2
_4120
 70
0
 62
7
  6
CONTINUOUS
370
-3
390
F
  0
LAYER
  5
50B
100
AcDbSymbolTableRecord
100
AcDbLayerTableRecord
  2
_4123
 70
0
 62
7
  6
CONTINUOUS
370
-3
390
F
  0
LAYER
  5
50C
100
AcDbSymbolTableRecord
100
AcDbLayerTableRecord
  2
_4151
 70
0
 62
7
  6
CONTINUOUS
370
-3
390
F
  0
LAYER
  5
50D
100
AcDbSymbolTableRecord
100
AcDbLayerTableRecord
  2
_4168
 70
0
 62
7
  6
CONTINUOUS
370
-3
390
F
  0
LAYER
  5
50E
100
AcDbSymbolTableRecord
100
AcDbLayerTableRecord
  2
_4175
 70
0
 62
7
  6
CONTINUOUS
370
-3
390
F
  0
LAYER
  5
50F
100
AcDbSymbolTableRecord
100
AcDbLayerTableRecord
  2
_4185
 70
0
 62
7
  6
CONTINUOUS
370
-3
390
F
  0
LAYER
  5
510
100
AcDbSymbolTableRecord
100
AcDbLayerTableRecord
  2
_4196
 70
0
 62
7
  6
CONTINUOUS
370
-3
390
F
  0
LAYER
  5
511
100
AcDbSymbolTableRecord
100
AcDbLayerTableRecord
  2
_4207
 70
0
 62
7
  6
CONTINUOUS
370
-3
390
F
  0
LAYER
  5
512
100
AcDbSymbolTableRecord
100
AcDbLayerTableRecord
  2
_4219
 70
0
 62
7
  6
CONTINUOUS
370
-3
390
F
  0
LAYER
  5
513
100
AcDbSymbolTableRecord
100
AcDbLayerTableRecord
  2
_422
 70
0
 62
7
  6
CONTINUOUS
370
-3
390
F
  0
LAYER
  5
514
100
AcDbSymbolTableRecord
100
AcDbLayerTableRecord
  2
_4225
 70
0
 62
7
  6
CONTINUOUS
370
-3
390
F
  0
LAYER
  5
515
100
AcDbSymbolTableRecord
100
AcDbLayerTableRecord
  2
_4225_1
 70
0
 62
7
  6
CONTINUOUS
370
-3
390
F
  0
LAYER
  5
516
100
AcDbSymbolTableRecord
100
AcDbLayerTableRecord
  2
_4246
 70
0
 62
7
  6
CONTINUOUS
370
-3
390
F
  0
LAYER
  5
517
100
AcDbSymbolTableRecord
100
AcDbLayerTableRecord
  2
_4290
 70
0
 62
7
  6
CONTINUOUS
370
-3
390
F
  0
LAYER
  5
518
100
AcDbSymbolTableRecord
100
AcDbLayerTableRecord
  2
_4298
 70
0
 62
7
  6
CONTINUOUS
370
-3
390
F
  0
LAYER
  5
519
100
AcDbSymbolTableRecord
100
AcDbLayerTableRecord
  2
_4315
 70
0
 62
7
  6
CONTINUOUS
370
-3
390
F
  0
LAYER
  5
51A
100
AcDbSymbolTableRecord
100
AcDbLayerTableRecord
  2
_4316
 70
0
 62
7
  6
CONTINUOUS
370
-3
390
F
  0
LAYER
  5
51B
100
AcDbSymbolTableRecord
100
AcDbLayerTableRecord
  2
_4320
 70
0
 62
7
  6
CONTINUOUS
370
-3
390
F
  0
LAYER
  5
51C
100
AcDbSymbolTableRecord
100
AcDbLayerTableRecord
  2
_4342
 70
0
 62
7
  6
CONTINUOUS
370
-3
390
F
  0
LAYER
  5
51D
100
AcDbSymbolTableRecord
100
AcDbLayerTableRecord
  2
_4352
 70
0
 62
7
  6
CONTINUOUS
370
-3
390
F
  0
LAYER
  5
51E
100
AcDbSymbolTableRecord
100
AcDbLayerTableRecord
  2
_4372
 70
0
 62
7
  6
CONTINUOUS
370
-3
390
F
  0
LAYER
  5
51F
100
AcDbSymbolTableRecord
100
AcDbLayerTableRecord
  2
_4385
 70
0
 62
7
  6
CONTINUOUS
370
-3
390
F
  0
LAYER
  5
520
100
AcDbSymbolTableRecord
100
AcDbLayerTableRecord
  2
_4433
 70
0
 62
7
  6
CONTINUOUS
370
-3
390
F
  0
LAYER
  5
521
100
AcDbSymbolTableRecord
100
AcDbLayerTableRecord
  2
_4440
 70
0
 62
7
  6
CONTINUOUS
370
-3
390
F
  0
LAYER
  5
522
100
AcDbSymbolTableRecord
100
AcDbLayerTableRecord
  2
_4445
 70
0
 62
7
  6
CONTINUOUS
370
-3
390
F
  0
LAYER
  5
523
100
AcDbSymbolTableRecord
100
AcDbLayerTableRecord
  2
_4460
 70
0
 62
7
  6
CONTINUOUS
370
-3
390
F
  0
LAYER
  5
524
100
AcDbSymbolTableRecord
100
AcDbLayerTableRecord
  2
_4464
 70
0
 62
7
  6
CONTINUOUS
370
-3
390
F
  0
LAYER
  5
525
100
AcDbSymbolTableRecord
100
AcDbLayerTableRecord
  2
_447
 70
0
 62
7
  6
CONTINUOUS
370
-3
390
F
  0
LAYER
  5
526
100
AcDbSymbolTableRecord
100
AcDbLayerTableRecord
  2
_4498
 70
0
 62
7
  6
CONTINUOUS
370
-3
390
F
  0
LAYER
  5
527
100
AcDbSymbolTableRecord
100
AcDbLayerTableRecord
  2
_4507
 70
0
 62
7
  6
CONTINUOUS
370
-3
390
F
  0
LAYER
  5
528
100
AcDbSymbolTableRecord
100
AcDbLayerTableRecord
  2
_4513
 70
0
 62
7
  6
CONTINUOUS
370
-3
390
F
  0
LAYER
  5
529
100
AcDbSymbolTableRecord
100
AcDbLayerTableRecord
  2
_453
 70
0
 62
7
  6
CONTINUOUS
370
-3
390
F
  0
LAYER
  5
52A
100
AcDbSymbolTableRecord
100
AcDbLayerTableRecord
  2
_4558
 70
0
 62
7
  6
CONTINUOUS
370
-3
390
F
  0
LAYER
  5
52B
100
AcDbSymbolTableRecord
100
AcDbLayerTableRecord
  2
_4563
 70
0
 62
7
  6
CONTINUOUS
370
-3
390
F
  0
LAYER
  5
52C
100
AcDbSymbolTableRecord
100
AcDbLayerTableRecord
  2
_4585
 70
0
 62
7
  6
CONTINUOUS
370
-3
390
F
  0
LAYER
  5
52D
100
AcDbSymbolTableRecord
100
AcDbLayerTableRecord
  2
_4588
 70
0
 62
7
  6
CONTINUOUS
370
-3
390
F
  0
LAYER
  5
52E
100
AcDbSymbolTableRecord
100
AcDbLayerTableRecord
  2
_460
 70
0
 62
7
  6
CONTINUOUS
370
-3
390
F
  0
LAYER
  5
52F
100
AcDbSymbolTableRecord
100
AcDbLayerTableRecord
  2
_4600
 70
0
 62
7
  6
CONTINUOUS
370
-3
390
F
  0
LAYER
  5
530
100
AcDbSymbolTableRecord
100
AcDbLayerTableRecord
  2
_462
 70
0
 62
7
  6
CONTINUOUS
370
-3
390
F
  0
LAYER
  5
531
100
AcDbSymbolTableRecord
100
AcDbLayerTableRecord
  2
_464
 70
0
 62
7
  6
CONTINUOUS
370
-3
390
F
  0
LAYER
  5
532
100
AcDbSymbolTableRecord
100
AcDbLayerTableRecord
  2
_4648
 70
0
 62
7
  6
CONTINUOUS
370
-3
390
F
  0
LAYER
  5
533
100
AcDbSymbolTableRecord
100
AcDbLayerTableRecord
  2
_4649
 70
0
 62
7
  6
CONTINUOUS
370
-3
390
F
  0
LAYER
  5
534
100
AcDbSymbolTableRecord
100
AcDbLayerTableRecord
  2
_4650
 70
0
 62
7
  6
CONTINUOUS
370
-3
390
F
  0
LAYER
  5
535
100
AcDbSymbolTableRecord
100
AcDbLayerTableRecord
  2
_4653
 70
0
 62
7
  6
CONTINUOUS
370
-3
390
F
  0
LAYER
  5
536
100
AcDbSymbolTableRecord
100
AcDbLayerTableRecord
  2
_4656
 70
0
 62
7
  6
CONTINUOUS
370
-3
390
F
  0
LAYER
  5
537
100
AcDbSymbolTableRecord
100
AcDbLayerTableRecord
  2
_4662
 70
0
 62
7
  6
CONTINUOUS
370
-3
390
F
  0
LAYER
  5
538
100
AcDbSymbolTableRecord
100
AcDbLayerTableRecord
  2
_4684
 70
0
 62
7
  6
CONTINUOUS
370
-3
390
F
  0
LAYER
  5
539
100
AcDbSymbolTableRecord
100
AcDbLayerTableRecord
  2
_4691
 70
0
 62
7
  6
CONTINUOUS
370
-3
390
F
  0
LAYER
  5
53A
100
AcDbSymbolTableRecord
100
AcDbLayerTableRecord
  2
_472
 70
0
 62
7
  6
CONTINUOUS
370
-3
390
F
  0
LAYER
  5
53B
100
AcDbSymbolTableRecord
100
AcDbLayerTableRecord
  2
_4736
 70
0
 62
7
  6
CONTINUOUS
370
-3
390
F
  0
LAYER
  5
53C
100
AcDbSymbolTableRecord
100
AcDbLayerTableRecord
  2
_4754
 70
0
 62
7
  6
CONTINUOUS
370
-3
390
F
  0
LAYER
  5
53D
100
AcDbSymbolTableRecord
100
AcDbLayerTableRecord
  2
_476
 70
0
 62
7
  6
CONTINUOUS
370
-3
390
F
  0
LAYER
  5
53E
100
AcDbSymbolTableRecord
100
AcDbLayerTableRecord
  2
_4768
 70
0
 62
7
  6
CONTINUOUS
370
-3
390
F
  0
LAYER
  5
53F
100
AcDbSymbolTableRecord
100
AcDbLayerTableRecord
  2
_4814
 70
0
 62
7
  6
CONTINUOUS
370
-3
390
F
  0
LAYER
  5
540
100
AcDbSymbolTableRecord
100
AcDbLayerTableRecord
  2
_4828
 70
0
 62
7
  6
CONTINUOUS
370
-3
390
F
  0
LAYER
  5
541
100
AcDbSymbolTableRecord
100
AcDbLayerTableRecord
  2
_4838
 70
0
 62
7
  6
CONTINUOUS
370
-3
390
F
  0
LAYER
  5
542
100
AcDbSymbolTableRecord
100
AcDbLayerTableRecord
  2
_4839
 70
0
 62
7
  6
CONTINUOUS
370
-3
390
F
  0
LAYER
  5
543
100
AcDbSymbolTableRecord
100
AcDbLayerTableRecord
  2
_4842
 70
0
 62
7
  6
CONTINUOUS
370
-3
390
F
  0
LAYER
  5
544
100
AcDbSymbolTableRecord
100
AcDbLayerTableRecord
  2
_4853
 70
0
 62
7
  6
CONTINUOUS
370
-3
390
F
  0
LAYER
  5
545
100
AcDbSymbolTableRecord
100
AcDbLayerTableRecord
  2
_4861
 70
0
 62
7
  6
CONTINUOUS
370
-3
390
F
  0
LAYER
  5
546
100
AcDbSymbolTableRecord
100
AcDbLayerTableRecord
  2
_4867
 70
0
 62
7
  6
CONTINUOUS
370
-3
390
F
  0
LAYER
  5
547
100
AcDbSymbolTableRecord
100
AcDbLayerTableRecord
  2
_4908
 70
0
 62
7
  6
CONTINUOUS
370
-3
390
F
  0
LAYER
  5
548
100
AcDbSymbolTableRecord
100
AcDbLayerTableRecord
  2
_4913
 70
0
 62
7
  6
CONTINUOUS
370
-3
390
F
  0
LAYER
  5
549
100
AcDbSymbolTableRecord
100
AcDbLayerTableRecord
  2
_4922
 70
0
 62
7
  6
CONTINUOUS
370
-3
390
F
  0
LAYER
  5
54A
100
AcDbSymbolTableRecord
100
AcDbLayerTableRecord
  2
_4930
 70
0
 62
7
  6
CONTINUOUS
370
-3
390
F
  0
LAYER
  5
54B
100
AcDbSymbolTableRecord
100
AcDbLayerTableRecord
  2
_4940
 70
0
 62
7
  6
CONTINUOUS
370
-3
390
F
  0
LAYER
  5
54C
100
AcDbSymbolTableRecord
100
AcDbLayerTableRecord
  2
_4957
 70
0
 62
7
  6
CONTINUOUS
370
-3
390
F
  0
LAYER
  5
54D
100
AcDbSymbolTableRecord
100
AcDbLayerTableRecord
  2
_4967
 70
0
 62
7
  6
CONTINUOUS
370
-3
390
F
  0
LAYER
  5
54E
100
AcDbSymbolTableRecord
100
AcDbLayerTableRecord
  2
_4985
 70
0
 62
7
  6
CONTINUOUS
370
-3
390
F
  0
LAYER
  5
54F
100
AcDbSymbolTableRecord
100
AcDbLayerTableRecord
  2
_5021
 70
0
 62
7
  6
CONTINUOUS
370
-3
390
F
  0
LAYER
  5
550
100
AcDbSymbolTableRecord
100
AcDbLayerTableRecord
  2
_504
 70
0
 62
7
  6
CONTINUOUS
370
-3
390
F
  0
LAYER
  5
551
100
AcDbSymbolTableRecord
100
AcDbLayerTableRecord
  2
_5041
 70
0
 62
7
  6
CONTINUOUS
370
-3
390
F
  0
LAYER
  5
552
100
AcDbSymbolTableRecord
100
AcDbLayerTableRecord
  2
_5069
 70
0
 62
7
  6
CONTINUOUS
370
-3
390
F
  0
LAYER
  5
553
100
AcDbSymbolTableRecord
100
AcDbLayerTableRecord
  2
_5088
 70
0
 62
7
  6
CONTINUOUS
370
-3
390
F
  0
LAYER
  5
554
100
AcDbSymbolTableRecord
100
AcDbLayerTableRecord
  2
_5097
 70
0
 62
7
  6
CONTINUOUS
370
-3
390
F
  0
LAYER
  5
555
100
AcDbSymbolTableRecord
100
AcDbLayerTableRecord
  2
_5122
 70
0
 62
7
  6
CONTINUOUS
370
-3
390
F
  0
LAYER
  5
556
100
AcDbSymbolTableRecord
100
AcDbLayerTableRecord
  2
_5123
 70
0
 62
7
  6
CONTINUOUS
370
-3
390
F
  0
LAYER
  5
557
100
AcDbSymbolTableRecord
100
AcDbLayerTableRecord
  2
_5139
 70
0
 62
7
  6
CONTINUOUS
370
-3
390
F
  0
LAYER
  5
558
100
AcDbSymbolTableRecord
100
AcDbLayerTableRecord
  2
_5140
 70
0
 62
7
  6
CONTINUOUS
370
-3
390
F
  0
LAYER
  5
559
100
AcDbSymbolTableRecord
100
AcDbLayerTableRecord
  2
_5156
 70
0
 62
7
  6
CONTINUOUS
370
-3
390
F
  0
LAYER
  5
55A
100
AcDbSymbolTableRecord
100
AcDbLayerTableRecord
  2
_5169
 70
0
 62
7
  6
CONTINUOUS
370
-3
390
F
  0
LAYER
  5
55B
100
AcDbSymbolTableRecord
100
AcDbLayerTableRecord
  2
_5175
 70
0
 62
7
  6
CONTINUOUS
370
-3
390
F
  0
LAYER
  5
55C
100
AcDbSymbolTableRecord
100
AcDbLayerTableRecord
  2
_5182
 70
0
 62
7
  6
CONTINUOUS
370
-3
390
F
  0
LAYER
  5
55D
100
AcDbSymbolTableRecord
100
AcDbLayerTableRecord
  2
_5208
 70
0
 62
7
  6
CONTINUOUS
370
-3
390
F
  0
LAYER
  5
55E
100
AcDbSymbolTableRecord
100
AcDbLayerTableRecord
  2
_5214
 70
0
 62
7
  6
CONTINUOUS
370
-3
390
F
  0
LAYER
  5
55F
100
AcDbSymbolTableRecord
100
AcDbLayerTableRecord
  2
_5258
 70
0
 62
7
  6
CONTINUOUS
370
-3
390
F
  0
LAYER
  5
560
100
AcDbSymbolTableRecord
100
AcDbLayerTableRecord
  2
_5275
 70
0
 62
7
  6
CONTINUOUS
370
-3
390
F
  0
LAYER
  5
561
100
AcDbSymbolTableRecord
100
AcDbLayerTableRecord
  2
_5275_1
 70
0
 62
7
  6
CONTINUOUS
370
-3
390
F
  0
LAYER
  5
562
100
AcDbSymbolTableRecord
100
AcDbLayerTableRecord
  2
_5276
 70
0
 62
7
  6
CONTINUOUS
370
-3
390
F
  0
LAYER
  5
563
100
AcDbSymbolTableRecord
100
AcDbLayerTableRecord
  2
_5299
 70
0
 62
7
  6
CONTINUOUS
370
-3
390
F
  0
LAYER
  5
564
100
AcDbSymbolTableRecord
100
AcDbLayerTableRecord
  2
_5300
 70
0
 62
7
  6
CONTINUOUS
370
-3
390
F
  0
LAYER
  5
565
100
AcDbSymbolTableRecord
100
AcDbLayerTableRecord
  2
_5306
 70
0
 62
7
  6
CONTINUOUS
370
-3
390
F
  0
LAYER
  5
566
100
AcDbSymbolTableRecord
100
AcDbLayerTableRecord
  2
_5317
 70
0
 62
7
  6
CONTINUOUS
370
-3
390
F
  0
LAYER
  5
567
100
AcDbSymbolTableRecord
100
AcDbLayerTableRecord
  2
_5323
 70
0
 62
7
  6
CONTINUOUS
370
-3
390
F
  0
LAYER
  5
568
100
AcDbSymbolTableRecord
100
AcDbLayerTableRecord
  2
_5373
 70
0
 62
7
  6
CONTINUOUS
370
-3
390
F
  0
LAYER
  5
569
100
AcDbSymbolTableRecord
100
AcDbLayerTableRecord
  2
_538
 70
0
 62
7
  6
CONTINUOUS
370
-3
390
F
  0
LAYER
  5
56A
100
AcDbSymbolTableRecord
100
AcDbLayerTableRecord
  2
_540
 70
0
 62
7
  6
CONTINUOUS
370
-3
390
F
  0
LAYER
  5
56B
100
AcDbSymbolTableRecord
100
AcDbLayerTableRecord
  2
_5422
 70
0
 62
7
  6
CONTINUOUS
370
-3
390
F
  0
LAYER
  5
56C
100
AcDbSymbolTableRecord
100
AcDbLayerTableRecord
  2
_5429
 70
0
 62
7
  6
CONTINUOUS
370
-3
390
F
  0
LAYER
  5
56D
100
AcDbSymbolTableRecord
100
AcDbLayerTableRecord
  2
_544
 70
0
 62
7
  6
CONTINUOUS
370
-3
390
F
  0
LAYER
  5
56E
100
AcDbSymbolTableRecord
100
AcDbLayerTableRecord
  2
_5441
 70
0
 62
7
  6
CONTINUOUS
370
-3
390
F
  0
LAYER
  5
56F
100
AcDbSymbolTableRecord
100
AcDbLayerTableRecord
  2
_5443
 70
0
 62
7
  6
CONTINUOUS
370
-3
390
F
  0
LAYER
  5
570
100
AcDbSymbolTableRecord
100
AcDbLayerTableRecord
  2
_5453
 70
0
 62
7
  6
CONTINUOUS
370
-3
390
F
  0
LAYER
  5
571
100
AcDbSymbolTableRecord
100
AcDbLayerTableRecord
  2
_5455
 70
0
 62
7
  6
CONTINUOUS
370
-3
390
F
  0
LAYER
  5
572
100
AcDbSymbolTableRecord
100
AcDbLayerTableRecord
  2
_5459
 70
0
 62
7
  6
CONTINUOUS
370
-3
390
F
  0
LAYER
  5
573
100
AcDbSymbolTableRecord
100
AcDbLayerTableRecord
  2
_5462
 70
0
 62
7
  6
CONTINUOUS
370
-3
390
F
  0
LAYER
  5
574
100
AcDbSymbolTableRecord
100
AcDbLayerTableRecord
  2
_5468
 70
0
 62
7
  6
CONTINUOUS
370
-3
390
F
  0
LAYER
  5
575
100
AcDbSymbolTableRecord
100
AcDbLayerTableRecord
  2
_5486
 70
0
 62
7
  6
CONTINUOUS
370
-3
390
F
  0
LAYER
  5
576
100
AcDbSymbolTableRecord
100
AcDbLayerTableRecord
  2
_5489
 70
0
 62
7
  6
CONTINUOUS
370
-3
390
F
  0
LAYER
  5
577
100
AcDbSymbolTableRecord
100
AcDbLayerTableRecord
  2
_55
 70
0
 62
7
  6
CONTINUOUS
370
-3
390
F
  0
LAYER
  5
578
100
AcDbSymbolTableRecord
100
AcDbLayerTableRecord
  2
_5518
 70
0
 62
7
  6
CONTINUOUS
370
-3
390
F
  0
LAYER
  5
579
100
AcDbSymbolTableRecord
100
AcDbLayerTableRecord
  2
_5533
 70
0
 62
7
  6
CONTINUOUS
370
-3
390
F
  0
LAYER
  5
57A
100
AcDbSymbolTableRecord
100
AcDbLayerTableRecord
  2
_5552
 70
0
 62
7
  6
CONTINUOUS
370
-3
390
F
  0
LAYER
  5
57B
100
AcDbSymbolTableRecord
100
AcDbLayerTableRecord
  2
_5598
 70
0
 62
7
  6
CONTINUOUS
370
-3
390
F
  0
LAYER
  5
57C
100
AcDbSymbolTableRecord
100
AcDbLayerTableRecord
  2
_560
 70
0
 62
7
  6
CONTINUOUS
370
-3
390
F
  0
LAYER
  5
57D
100
AcDbSymbolTableRecord
100
AcDbLayerTableRecord
  2
_5626
 70
0
 62
7
  6
CONTINUOUS
370
-3
390
F
  0
LAYER
  5
57E
100
AcDbSymbolTableRecord
100
AcDbLayerTableRecord
  2
_5639
 70
0
 62
7
  6
CONTINUOUS
370
-3
390
F
  0
LAYER
  5
57F
100
AcDbSymbolTableRecord
100
AcDbLayerTableRecord
  2
_5644
 70
0
 62
7
  6
CONTINUOUS
370
-3
390
F
  0
LAYER
  5
580
100
AcDbSymbolTableRecord
100
AcDbLayerTableRecord
  2
_5658
 70
0
 62
7
  6
CONTINUOUS
370
-3
390
F
  0
LAYER
  5
581
100
AcDbSymbolTableRecord
100
AcDbLayerTableRecord
  2
_5666
 70
0
 62
7
  6
CONTINUOUS
370
-3
390
F
  0
LAYER
  5
582
100
AcDbSymbolTableRecord
100
AcDbLayerTableRecord
  2
_5668
 70
0
 62
7
  6
CONTINUOUS
370
-3
390
F
  0
LAYER
  5
583
100
AcDbSymbolTableRecord
100
AcDbLayerTableRecord
  2
_5678
 70
0
 62
7
  6
CONTINUOUS
370
-3
390
F
  0
LAYER
  5
584
100
AcDbSymbolTableRecord
100
AcDbLayerTableRecord
  2
_5688
 70
0
 62
7
  6
CONTINUOUS
370
-3
390
F
  0
LAYER
  5
585
100
AcDbSymbolTableRecord
100
AcDbLayerTableRecord
  2
_569
 70
0
 62
7
  6
CONTINUOUS
370
-3
390
F
  0
LAYER
  5
586
100
AcDbSymbolTableRecord
100
AcDbLayerTableRecord
  2
_5704
 70
0
 62
7
  6
CONTINUOUS
370
-3
390
F
  0
LAYER
  5
587
100
AcDbSymbolTableRecord
100
AcDbLayerTableRecord
  2
_5707
 70
0
 62
7
  6
CONTINUOUS
370
-3
390
F
  0
LAYER
  5
588
100
AcDbSymbolTableRecord
100
AcDbLayerTableRecord
  2
_5713
 70
0
 62
7
  6
CONTINUOUS
370
-3
390
F
  0
LAYER
  5
589
100
AcDbSymbolTableRecord
100
AcDbLayerTableRecord
  2
_5737
 70
0
 62
7
  6
CONTINUOUS
370
-3
390
F
  0
LAYER
  5
58A
100
AcDbSymbolTableRecord
100
AcDbLayerTableRecord
  2
_5742
 70
0
 62
7
  6
CONTINUOUS
370
-3
390
F
  0
LAYER
  5
58B
100
AcDbSymbolTableRecord
100
AcDbLayerTableRecord
  2
_5757
 70
0
 62
7
  6
CONTINUOUS
370
-3
390
F
  0
LAYER
  5
58C
100
AcDbSymbolTableRecord
100
AcDbLayerTableRecord
  2
_5758
 70
0
 62
7
  6
CONTINUOUS
370
-3
390
F
  0
LAYER
  5
58D
100
AcDbSymbolTableRecord
100
AcDbLayerTableRecord
  2
_5759
 70
0
 62
7
  6
CONTINUOUS
370
-3
390
F
  0
LAYER
  5
58E
100
AcDbSymbolTableRecord
100
AcDbLayerTableRecord
  2
_5774
 70
0
 62
7
  6
CONTINUOUS
370
-3
390
F
  0
LAYER
  5
58F
100
AcDbSymbolTableRecord
100
AcDbLayerTableRecord
  2
_5783
 70
0
 62
7
  6
CONTINUOUS
370
-3
390
F
  0
LAYER
  5
590
100
AcDbSymbolTableRecord
100
AcDbLayerTableRecord
  2
_5788
 70
0
 62
7
  6
CONTINUOUS
370
-3
390
F
  0
LAYER
  5
591
100
AcDbSymbolTableRecord
100
AcDbLayerTableRecord
  2
_5789
 70
0
 62
7
  6
CONTINUOUS
370
-3
390
F
  0
LAYER
  5
592
100
AcDbSymbolTableRecord
100
AcDbLayerTableRecord
  2
_579
 70
0
 62
7
  6
CONTINUOUS
370
-3
390
F
  0
LAYER
  5
593
100
AcDbSymbolTableRecord
100
AcDbLayerTableRecord
  2
_5813
 70
0
 62
7
  6
CONTINUOUS
370
-3
390
F
  0
LAYER
  5
594
100
AcDbSymbolTableRecord
100
AcDbLayerTableRecord
  2
_5816
 70
0
 62
7
  6
CONTINUOUS
370
-3
390
F
  0
LAYER
  5
595
100
AcDbSymbolTableRecord
100
AcDbLayerTableRecord
  2
_5817
 70
0
 62
7
  6
CONTINUOUS
370
-3
390
F
  0
LAYER
  5
596
100
AcDbSymbolTableRecord
100
AcDbLayerTableRecord
  2
_5832
 70
0
 62
7
  6
CONTINUOUS
370
-3
390
F
  0
LAYER
  5
597
100
AcDbSymbolTableRecord
100
AcDbLayerTableRecord
  2
_5836
 70
0
 62
7
  6
CONTINUOUS
370
-3
390
F
  0
LAYER
  5
598
100
AcDbSymbolTableRecord
100
AcDbLayerTableRecord
  2
_5863
 70
0
 62
7
  6
CONTINUOUS
370
-3
390
F
  0
LAYER
  5
599
100
AcDbSymbolTableRecord
100
AcDbLayerTableRecord
  2
_5874
 70
0
 62
7
  6
CONTINUOUS
370
-3
390
F
  0
LAYER
  5
59A
100
AcDbSymbolTableRecord
100
AcDbLayerTableRecord
  2
_588
 70
0
 62
7
  6
CONTINUOUS
370
-3
390
F
  0
LAYER
  5
59B
100
AcDbSymbolTableRecord
100
AcDbLayerTableRecord
  2
_5884
 70
0
 62
7
  6
CONTINUOUS
370
-3
390
F
  0
LAYER
  5
59C
100
AcDbSymbolTableRecord
100
AcDbLayerTableRecord
  2
_5896
 70
0
 62
7
  6
CONTINUOUS
370
-3
390
F
  0
LAYER
  5
59D
100
AcDbSymbolTableRecord
100
AcDbLayerTableRecord
  2
_5903
 70
0
 62
7
  6
CONTINUOUS
370
-3
390
F
  0
LAYER
  5
59E
100
AcDbSymbolTableRecord
100
AcDbLayerTableRecord
  2
_5915
 70
0
 62
7
  6
CONTINUOUS
370
-3
390
F
  0
LAYER
  5
59F
100
AcDbSymbolTableRecord
100
AcDbLayerTableRecord
  2
_5923
 70
0
 62
7
  6
CONTINUOUS
370
-3
390
F
  0
LAYER
  5
5A0
100
AcDbSymbolTableRecord
100
AcDbLayerTableRecord
  2
_5926
 70
0
 62
7
  6
CONTINUOUS
370
-3
390
F
  0
LAYER
  5
5A1
100
AcDbSymbolTableRecord
100
AcDbLayerTableRecord
  2
_5939
 70
0
 62
7
  6
CONTINUOUS
370
-3
390
F
  0
LAYER
  5
5A2
100
AcDbSymbolTableRecord
100
AcDbLayerTableRecord
  2
_5941
 70
0
 62
7
  6
CONTINUOUS
370
-3
390
F
  0
LAYER
  5
5A3
100
AcDbSymbolTableRecord
100
AcDbLayerTableRecord
  2
_5960
 70
0
 62
7
  6
CONTINUOUS
370
-3
390
F
  0
LAYER
  5
5A4
100
AcDbSymbolTableRecord
100
AcDbLayerTableRecord
  2
_5962
 70
0
 62
7
  6
CONTINUOUS
370
-3
390
F
  0
LAYER
  5
5A5
100
AcDbSymbolTableRecord
100
AcDbLayerTableRecord
  2
_5977
 70
0
 62
7
  6
CONTINUOUS
370
-3
390
F
  0
LAYER
  5
5A6
100
AcDbSymbolTableRecord
100
AcDbLayerTableRecord
  2
_5978
 70
0
 62
7
  6
CONTINUOUS
370
-3
390
F
  0
LAYER
  5
5A7
100
AcDbSymbolTableRecord
100
AcDbLayerTableRecord
  2
_5982
 70
0
 62
7
  6
CONTINUOUS
370
-3
390
F
  0
LAYER
  5
5A8
100
AcDbSymbolTableRecord
100
AcDbLayerTableRecord
  2
_5998
 70
0
 62
7
  6
CONTINUOUS
370
-3
390
F
  0
LAYER
  5
5A9
100
AcDbSymbolTableRecord
100
AcDbLayerTableRecord
  2
_5999
 70
0
 62
7
  6
CONTINUOUS
370
-3
390
F
  0
LAYER
  5
5AA
100
AcDbSymbolTableRecord
100
AcDbLayerTableRecord
  2
_6011
 70
0
 62
7
  6
CONTINUOUS
370
-3
390
F
  0
LAYER
  5
5AB
100
AcDbSymbolTableRecord
100
AcDbLayerTableRecord
  2
_6033
 70
0
 62
7
  6
CONTINUOUS
370
-3
390
F
  0
LAYER
  5
5AC
100
AcDbSymbolTableRecord
100
AcDbLayerTableRecord
  2
_6042
 70
0
 62
7
  6
CONTINUOUS
370
-3
390
F
  0
LAYER
  5
5AD
100
AcDbSymbolTableRecord
100
AcDbLayerTableRecord
  2
_6046
 70
0
 62
7
  6
CONTINUOUS
370
-3
390
F
  0
LAYER
  5
5AE
100
AcDbSymbolTableRecord
100
AcDbLayerTableRecord
  2
_6047
 70
0
 62
7
  6
CONTINUOUS
370
-3
390
F
  0
LAYER
  5
5AF
100
AcDbSymbolTableRecord
100
AcDbLayerTableRecord
  2
_6053
 70
0
 62
7
  6
CONTINUOUS
370
-3
390
F
  0
LAYER
  5
5B0
100
AcDbSymbolTableRecord
100
AcDbLayerTableRecord
  2
_6056
 70
0
 62
7
  6
CONTINUOUS
370
-3
390
F
  0
LAYER
  5
5B1
100
AcDbSymbolTableRecord
100
AcDbLayerTableRecord
  2
_6090
 70
0
 62
7
  6
CONTINUOUS
370
-3
390
F
  0
LAYER
  5
5B2
100
AcDbSymbolTableRecord
100
AcDbLayerTableRecord
  2
_610
 70
0
 62
7
  6
CONTINUOUS
370
-3
390
F
  0
LAYER
  5
5B3
100
AcDbSymbolTableRecord
100
AcDbLayerTableRecord
  2
_6116
 70
0
 62
7
  6
CONTINUOUS
370
-3
390
F
  0
LAYER
  5
5B4
100
AcDbSymbolTableRecord
100
AcDbLayerTableRecord
  2
_6128
 70
0
 62
7
  6
CONTINUOUS
370
-3
390
F
  0
LAYER
  5
5B5
100
AcDbSymbolTableRecord
100
AcDbLayerTableRecord
  2
_617
 70
0
 62
7
  6
CONTINUOUS
370
-3
390
F
  0
LAYER
  5
5B6
100
AcDbSymbolTableRecord
100
AcDbLayerTableRecord
  2
_618
 70
0
 62
7
  6
CONTINUOUS
370
-3
390
F
  0
LAYER
  5
5B7
100
AcDbSymbolTableRecord
100
AcDbLayerTableRecord
  2
_6187
 70
0
 62
7
  6
CONTINUOUS
370
-3
390
F
  0
LAYER
  5
5B8
100
AcDbSymbolTableRecord
100
AcDbLayerTableRecord
  2
_6191
 70
0
 62
7
  6
CONTINUOUS
370
-3
390
F
  0
LAYER
  5
5B9
100
AcDbSymbolTableRecord
100
AcDbLayerTableRecord
  2
_6196
 70
0
 62
7
  6
CONTINUOUS
370
-3
390
F
  0
LAYER
  5
5BA
100
AcDbSymbolTableRecord
100
AcDbLayerTableRecord
  2
_6217
 70
0
 62
7
  6
CONTINUOUS
370
-3
390
F
  0
LAYER
  5
5BB
100
AcDbSymbolTableRecord
100
AcDbLayerTableRecord
  2
_6219
 70
0
 62
7
  6
CONTINUOUS
370
-3
390
F
  0
LAYER
  5
5BC
100
AcDbSymbolTableRecord
100
AcDbLayerTableRecord
  2
_6221
 70
0
 62
7
  6
CONTINUOUS
370
-3
390
F
  0
LAYER
  5
5BD
100
AcDbSymbolTableRecord
100
AcDbLayerTableRecord
  2
_6225
 70
0
 62
7
  6
CONTINUOUS
370
-3
390
F
  0
LAYER
  5
5BE
100
AcDbSymbolTableRecord
100
AcDbLayerTableRecord
  2
_6238
 70
0
 62
7
  6
CONTINUOUS
370
-3
390
F
  0
LAYER
  5
5BF
100
AcDbSymbolTableRecord
100
AcDbLayerTableRecord
  2
_6241
 70
0
 62
7
  6
CONTINUOUS
370
-3
390
F
  0
LAYER
  5
5C0
100
AcDbSymbolTableRecord
100
AcDbLayerTableRecord
  2
_6257
 70
0
 62
7
  6
CONTINUOUS
370
-3
390
F
  0
LAYER
  5
5C1
100
AcDbSymbolTableRecord
100
AcDbLayerTableRecord
  2
_6278
 70
0
 62
7
  6
CONTINUOUS
370
-3
390
F
  0
LAYER
  5
5C2
100
AcDbSymbolTableRecord
100
AcDbLayerTableRecord
  2
_6305
 70
0
 62
7
  6
CONTINUOUS
370
-3
390
F
  0
LAYER
  5
5C3
100
AcDbSymbolTableRecord
100
AcDbLayerTableRecord
  2
_6313
 70
0
 62
7
  6
CONTINUOUS
370
-3
390
F
  0
LAYER
  5
5C4
100
AcDbSymbolTableRecord
100
AcDbLayerTableRecord
  2
_6328
 70
0
 62
7
  6
CONTINUOUS
370
-3
390
F
  0
LAYER
  5
5C5
100
AcDbSymbolTableRecord
100
AcDbLayerTableRecord
  2
_6332
 70
0
 62
7
  6
CONTINUOUS
370
-3
390
F
  0
LAYER
  5
5C6
100
AcDbSymbolTableRecord
100
AcDbLayerTableRecord
  2
_6337
 70
0
 62
7
  6
CONTINUOUS
370
-3
390
F
  0
LAYER
  5
5C7
100
AcDbSymbolTableRecord
100
AcDbLayerTableRecord
  2
_6339
 70
0
 62
7
  6
CONTINUOUS
370
-3
390
F
  0
LAYER
  5
5C8
100
AcDbSymbolTableRecord
100
AcDbLayerTableRecord
  2
_6345
 70
0
 62
7
  6
CONTINUOUS
370
-3
390
F
  0
LAYER
  5
5C9
100
AcDbSymbolTableRecord
100
AcDbLayerTableRecord
  2
_6371
 70
0
 62
7
  6
CONTINUOUS
370
-3
390
F
  0
LAYER
  5
5CA
100
AcDbSymbolTableRecord
100
AcDbLayerTableRecord
  2
_6380
 70
0
 62
7
  6
CONTINUOUS
370
-3
390
F
  0
LAYER
  5
5CB
100
AcDbSymbolTableRecord
100
AcDbLayerTableRecord
  2
_6400
 70
0
 62
7
  6
CONTINUOUS
370
-3
390
F
  0
LAYER
  5
5CC
100
AcDbSymbolTableRecord
100
AcDbLayerTableRecord
  2
_6416
 70
0
 62
7
  6
CONTINUOUS
370
-3
390
F
  0
LAYER
  5
5CD
100
AcDbSymbolTableRecord
100
AcDbLayerTableRecord
  2
_644
 70
0
 62
7
  6
CONTINUOUS
370
-3
390
F
  0
LAYER
  5
5CE
100
AcDbSymbolTableRecord
100
AcDbLayerTableRecord
  2
_6452
 70
0
 62
7
  6
CONTINUOUS
370
-3
390
F
  0
LAYER
  5
5CF
100
AcDbSymbolTableRecord
100
AcDbLayerTableRecord
  2
_646
 70
0
 62
7
  6
CONTINUOUS
370
-3
390
F
  0
LAYER
  5
5D0
100
AcDbSymbolTableRecord
100
AcDbLayerTableRecord
  2
_6469
 70
0
 62
7
  6
CONTINUOUS
370
-3
390
F
  0
LAYER
  5
5D1
100
AcDbSymbolTableRecord
100
AcDbLayerTableRecord
  2
_6470
 70
0
 62
7
  6
CONTINUOUS
370
-3
390
F
  0
LAYER
  5
5D2
100
AcDbSymbolTableRecord
100
AcDbLayerTableRecord
  2
_6481
 70
0
 62
7
  6
CONTINUOUS
370
-3
390
F
  0
LAYER
  5
5D3
100
AcDbSymbolTableRecord
100
AcDbLayerTableRecord
  2
_6491
 70
0
 62
7
  6
CONTINUOUS
370
-3
390
F
  0
LAYER
  5
5D4
100
AcDbSymbolTableRecord
100
AcDbLayerTableRecord
  2
_6495
 70
0
 62
7
  6
CONTINUOUS
370
-3
390
F
  0
LAYER
  5
5D5
100
AcDbSymbolTableRecord
100
AcDbLayerTableRecord
  2
_6505
 70
0
 62
7
  6
CONTINUOUS
370
-3
390
F
  0
LAYER
  5
5D6
100
AcDbSymbolTableRecord
100
AcDbLayerTableRecord
  2
_651
 70
0
 62
7
  6
CONTINUOUS
370
-3
390
F
  0
LAYER
  5
5D7
100
AcDbSymbolTableRecord
100
AcDbLayerTableRecord
  2
_6528
 70
0
 62
7
  6
CONTINUOUS
370
-3
390
F
  0
LAYER
  5
5D8
100
AcDbSymbolTableRecord
100
AcDbLayerTableRecord
  2
_6529
 70
0
 62
7
  6
CONTINUOUS
370
-3
390
F
  0
LAYER
  5
5D9
100
AcDbSymbolTableRecord
100
AcDbLayerTableRecord
  2
_6542
 70
0
 62
7
  6
CONTINUOUS
370
-3
390
F
  0
LAYER
  5
5DA
100
AcDbSymbolTableRecord
100
AcDbLayerTableRecord
  2
_6553
 70
0
 62
7
  6
CONTINUOUS
370
-3
390
F
  0
LAYER
  5
5DB
100
AcDbSymbolTableRecord
100
AcDbLayerTableRecord
  2
_6563
 70
0
 62
7
  6
CONTINUOUS
370
-3
390
F
  0
LAYER
  5
5DC
100
AcDbSymbolTableRecord
100
AcDbLayerTableRecord
  2
_6569
 70
0
 62
7
  6
CONTINUOUS
370
-3
390
F
  0
LAYER
  5
5DD
100
AcDbSymbolTableRecord
100
AcDbLayerTableRecord
  2
_6571
 70
0
 62
7
  6
CONTINUOUS
370
-3
390
F
  0
LAYER
  5
5DE
100
AcDbSymbolTableRecord
100
AcDbLayerTableRecord
  2
_660
 70
0
 62
7
  6
CONTINUOUS
370
-3
390
F
  0
LAYER
  5
5DF
100
AcDbSymbolTableRecord
100
AcDbLayerTableRecord
  2
_6607
 70
0
 62
7
  6
CONTINUOUS
370
-3
390
F
  0
LAYER
  5
5E0
100
AcDbSymbolTableRecord
100
AcDbLayerTableRecord
  2
_6640
 70
0
 62
7
  6
CONTINUOUS
370
-3
390
F
  0
LAYER
  5
5E1
100
AcDbSymbolTableRecord
100
AcDbLayerTableRecord
  2
_6659
 70
0
 62
7
  6
CONTINUOUS
370
-3
390
F
  0
LAYER
  5
5E2
100
AcDbSymbolTableRecord
100
AcDbLayerTableRecord
  2
_6664
 70
0
 62
7
  6
CONTINUOUS
370
-3
390
F
  0
LAYER
  5
5E3
100
AcDbSymbolTableRecord
100
AcDbLayerTableRecord
  2
_6676
 70
0
 62
7
  6
CONTINUOUS
370
-3
390
F
  0
LAYER
  5
5E4
100
AcDbSymbolTableRecord
100
AcDbLayerTableRecord
  2
_6686
 70
0
 62
7
  6
CONTINUOUS
370
-3
390
F
  0
LAYER
  5
5E5
100
AcDbSymbolTableRecord
100
AcDbLayerTableRecord
  2
_669
 70
0
 62
7
  6
CONTINUOUS
370
-3
390
F
  0
LAYER
  5
5E6
100
AcDbSymbolTableRecord
100
AcDbLayerTableRecord
  2
_6691
 70
0
 62
7
  6
CONTINUOUS
370
-3
390
F
  0
LAYER
  5
5E7
100
AcDbSymbolTableRecord
100
AcDbLayerTableRecord
  2
_6699
 70
0
 62
7
  6
CONTINUOUS
370
-3
390
F
  0
LAYER
  5
5E8
100
AcDbSymbolTableRecord
100
AcDbLayerTableRecord
  2
_6705
 70
0
 62
7
  6
CONTINUOUS
370
-3
390
F
  0
LAYER
  5
5E9
100
AcDbSymbolTableRecord
100
AcDbLayerTableRecord
  2
_6711
 70
0
 62
7
  6
CONTINUOUS
370
-3
390
F
  0
LAYER
  5
5EA
100
AcDbSymbolTableRecord
100
AcDbLayerTableRecord
  2
_6722
 70
0
 62
7
  6
CONTINUOUS
370
-3
390
F
  0
LAYER
  5
5EB
100
AcDbSymbolTableRecord
100
AcDbLayerTableRecord
  2
_6723
 70
0
 62
7
  6
CONTINUOUS
370
-3
390
F
  0
LAYER
  5
5EC
100
AcDbSymbolTableRecord
100
AcDbLayerTableRecord
  2
_6725
 70
0
 62
7
  6
CONTINUOUS
370
-3
390
F
  0
LAYER
  5
5ED
100
AcDbSymbolTableRecord
100
AcDbLayerTableRecord
  2
_6734
 70
0
 62
7
  6
CONTINUOUS
370
-3
390
F
  0
LAYER
  5
5EE
100
AcDbSymbolTableRecord
100
AcDbLayerTableRecord
  2
_6735
 70
0
 62
7
  6
CONTINUOUS
370
-3
390
F
  0
LAYER
  5
5EF
100
AcDbSymbolTableRecord
100
AcDbLayerTableRecord
  2
_6753
 70
0
 62
7
  6
CONTINUOUS
370
-3
390
F
  0
LAYER
  5
5F0
100
AcDbSymbolTableRecord
100
AcDbLayerTableRecord
  2
_6756
 70
0
 62
7
  6
CONTINUOUS
370
-3
390
F
  0
LAYER
  5
5F1
100
AcDbSymbolTableRecord
100
AcDbLayerTableRecord
  2
_6774
 70
0
 62
7
  6
CONTINUOUS
370
-3
390
F
  0
LAYER
  5
5F2
100
AcDbSymbolTableRecord
100
AcDbLayerTableRecord
  2
_6785
 70
0
 62
7
  6
CONTINUOUS
370
-3
390
F
  0
LAYER
  5
5F3
100
AcDbSymbolTableRecord
100
AcDbLayerTableRecord
  2
_679
 70
0
 62
7
  6
CONTINUOUS
370
-3
390
F
  0
LAYER
  5
5F4
100
AcDbSymbolTableRecord
100
AcDbLayerTableRecord
  2
_6818
 70
0
 62
7
  6
CONTINUOUS
370
-3
390
F
  0
LAYER
  5
5F5
100
AcDbSymbolTableRecord
100
AcDbLayerTableRecord
  2
_6819
 70
0
 62
7
  6
CONTINUOUS
370
-3
390
F
  0
LAYER
  5
5F6
100
AcDbSymbolTableRecord
100
AcDbLayerTableRecord
  2
_6820
 70
0
 62
7
  6
CONTINUOUS
370
-3
390
F
  0
LAYER
  5
5F7
100
AcDbSymbolTableRecord
100
AcDbLayerTableRecord
  2
_683
 70
0
 62
7
  6
CONTINUOUS
370
-3
390
F
  0
LAYER
  5
5F8
100
AcDbSymbolTableRecord
100
AcDbLayerTableRecord
  2
_6834
 70
0
 62
7
  6
CONTINUOUS
370
-3
390
F
  0
LAYER
  5
5F9
100
AcDbSymbolTableRecord
100
AcDbLayerTableRecord
  2
_6848
 70
0
 62
7
  6
CONTINUOUS
370
-3
390
F
  0
LAYER
  5
5FA
100
AcDbSymbolTableRecord
100
AcDbLayerTableRecord
  2
_6864
 70
0
 62
7
  6
CONTINUOUS
370
-3
390
F
  0
LAYER
  5
5FB
100
AcDbSymbolTableRecord
100
AcDbLayerTableRecord
  2
_6908
 70
0
 62
7
  6
CONTINUOUS
370
-3
390
F
  0
LAYER
  5
5FC
100
AcDbSymbolTableRecord
100
AcDbLayerTableRecord
  2
_691
 70
0
 62
7
  6
CONTINUOUS
370
-3
390
F
  0
LAYER
  5
5FD
100
AcDbSymbolTableRecord
100
AcDbLayerTableRecord
  2
_6914
 70
0
 62
7
  6
CONTINUOUS
370
-3
390
F
  0
LAYER
  5
5FE
100
AcDbSymbolTableRecord
100
AcDbLayerTableRecord
  2
_6924
 70
0
 62
7
  6
CONTINUOUS
370
-3
390
F
  0
LAYER
  5
5FF
100
AcDbSymbolTableRecord
100
AcDbLayerTableRecord
  2
_6926
 70
0
 62
7
  6
CONTINUOUS
370
-3
390
F
  0
LAYER
  5
600
100
AcDbSymbolTableRecord
100
AcDbLayerTableRecord
  2
_6934
 70
0
 62
7
  6
CONTINUOUS
370
-3
390
F
  0
LAYER
  5
601
100
AcDbSymbolTableRecord
100
AcDbLayerTableRecord
  2
_6983
 70
0
 62
7
  6
CONTINUOUS
370
-3
390
F
  0
LAYER
  5
602
100
AcDbSymbolTableRecord
100
AcDbLayerTableRecord
  2
_6994
 70
0
 62
7
  6
CONTINUOUS
370
-3
390
F
  0
LAYER
  5
603
100
AcDbSymbolTableRecord
100
AcDbLayerTableRecord
  2
_7015
 70
0
 62
7
  6
CONTINUOUS
370
-3
390
F
  0
LAYER
  5
604
100
AcDbSymbolTableRecord
100
AcDbLayerTableRecord
  2
_7023
 70
0
 62
7
  6
CONTINUOUS
370
-3
390
F
  0
LAYER
  5
605
100
AcDbSymbolTableRecord
100
AcDbLayerTableRecord
  2
_7024
 70
0
 62
7
  6
CONTINUOUS
370
-3
390
F
  0
LAYER
  5
606
100
AcDbSymbolTableRecord
100
AcDbLayerTableRecord
  2
_703
 70
0
 62
7
  6
CONTINUOUS
370
-3
390
F
  0
LAYER
  5
607
100
AcDbSymbolTableRecord
100
AcDbLayerTableRecord
  2
_7030
 70
0
 62
7
  6
CONTINUOUS
370
-3
390
F
  0
LAYER
  5
608
100
AcDbSymbolTableRecord
100
AcDbLayerTableRecord
  2
_7032
 70
0
 62
7
  6
CONTINUOUS
370
-3
390
F
  0
LAYER
  5
609
100
AcDbSymbolTableRecord
100
AcDbLayerTableRecord
  2
_7036
 70
0
 62
7
  6
CONTINUOUS
370
-3
390
F
  0
LAYER
  5
60A
100
AcDbSymbolTableRecord
100
AcDbLayerTableRecord
  2
_7059
 70
0
 62
7
  6
CONTINUOUS
370
-3
390
F
  0
LAYER
  5
60B
100
AcDbSymbolTableRecord
100
AcDbLayerTableRecord
  2
_7068
 70
0
 62
7
  6
CONTINUOUS
370
-3
390
F
  0
LAYER
  5
60C
100
AcDbSymbolTableRecord
100
AcDbLayerTableRecord
  2
_7080
 70
0
 62
7
  6
CONTINUOUS
370
-3
390
F
  0
LAYER
  5
60D
100
AcDbSymbolTableRecord
100
AcDbLayerTableRecord
  2
_7084
 70
0
 62
7
  6
CONTINUOUS
370
-3
390
F
  0
LAYER
  5
60E
100
AcDbSymbolTableRecord
100
AcDbLayerTableRecord
  2
_7086
 70
0
 62
7
  6
CONTINUOUS
370
-3
390
F
  0
LAYER
  5
60F
100
AcDbSymbolTableRecord
100
AcDbLayerTableRecord
  2
_7131
 70
0
 62
7
  6
CONTINUOUS
370
-3
390
F
  0
LAYER
  5
610
100
AcDbSymbolTableRecord
100
AcDbLayerTableRecord
  2
_7137
 70
0
 62
7
  6
CONTINUOUS
370
-3
390
F
  0
LAYER
  5
611
100
AcDbSymbolTableRecord
100
AcDbLayerTableRecord
  2
_7155
 70
0
 62
7
  6
CONTINUOUS
370
-3
390
F
  0
LAYER
  5
612
100
AcDbSymbolTableRecord
100
AcDbLayerTableRecord
  2
_7172
 70
0
 62
7
  6
CONTINUOUS
370
-3
390
F
  0
LAYER
  5
613
100
AcDbSymbolTableRecord
100
AcDbLayerTableRecord
  2
_72
 70
0
 62
7
  6
CONTINUOUS
370
-3
390
F
  0
LAYER
  5
614
100
AcDbSymbolTableRecord
100
AcDbLayerTableRecord
  2
_7218
 70
0
 62
7
  6
CONTINUOUS
370
-3
390
F
  0
LAYER
  5
615
100
AcDbSymbolTableRecord
100
AcDbLayerTableRecord
  2
_7232
 70
0
 62
7
  6
CONTINUOUS
370
-3
390
F
  0
LAYER
  5
616
100
AcDbSymbolTableRecord
100
AcDbLayerTableRecord
  2
_7239
 70
0
 62
7
  6
CONTINUOUS
370
-3
390
F
  0
LAYER
  5
617
100
AcDbSymbolTableRecord
100
AcDbLayerTableRecord
  2
_728
 70
0
 62
7
  6
CONTINUOUS
370
-3
390
F
  0
LAYER
  5
618
100
AcDbSymbolTableRecord
100
AcDbLayerTableRecord
  2
_7282
 70
0
 62
7
  6
CONTINUOUS
370
-3
390
F
  0
LAYER
  5
619
100
AcDbSymbolTableRecord
100
AcDbLayerTableRecord
  2
_7287
 70
0
 62
7
  6
CONTINUOUS
370
-3
390
F
  0
LAYER
  5
61A
100
AcDbSymbolTableRecord
100
AcDbLayerTableRecord
  2
_7291
 70
0
 62
7
  6
CONTINUOUS
370
-3
390
F
  0
LAYER
  5
61B
100
AcDbSymbolTableRecord
100
AcDbLayerTableRecord
  2
_7307
 70
0
 62
7
  6
CONTINUOUS
370
-3
390
F
  0
LAYER
  5
61C
100
AcDbSymbolTableRecord
100
AcDbLayerTableRecord
  2
_7320
 70
0
 62
7
  6
CONTINUOUS
370
-3
390
F
  0
LAYER
  5
61D
100
AcDbSymbolTableRecord
100
AcDbLayerTableRecord
  2
_7328
 70
0
 62
7
  6
CONTINUOUS
370
-3
390
F
  0
LAYER
  5
61E
100
AcDbSymbolTableRecord
100
AcDbLayerTableRecord
  2
_7328_1
 70
0
 62
7
  6
CONTINUOUS
370
-3
390
F
  0
LAYER
  5
61F
100
AcDbSymbolTableRecord
100
AcDbLayerTableRecord
  2
_7345
 70
0
 62
7
  6
CONTINUOUS
370
-3
390
F
  0
LAYER
  5
620
100
AcDbSymbolTableRecord
100
AcDbLayerTableRecord
  2
_7349
 70
0
 62
7
  6
CONTINUOUS
370
-3
390
F
  0
LAYER
  5
621
100
AcDbSymbolTableRecord
100
AcDbLayerTableRecord
  2
_7371
 70
0
 62
7
  6
CONTINUOUS
370
-3
390
F
  0
LAYER
  5
622
100
AcDbSymbolTableRecord
100
AcDbLayerTableRecord
  2
_7376
 70
0
 62
7
  6
CONTINUOUS
370
-3
390
F
  0
LAYER
  5
623
100
AcDbSymbolTableRecord
100
AcDbLayerTableRecord
  2
_7378
 70
0
 62
7
  6
CONTINUOUS
370
-3
390
F
  0
LAYER
  5
624
100
AcDbSymbolTableRecord
100
AcDbLayerTableRecord
  2
_7403
 70
0
 62
7
  6
CONTINUOUS
370
-3
390
F
  0
LAYER
  5
625
100
AcDbSymbolTableRecord
100
AcDbLayerTableRecord
  2
_7411
 70
0
 62
7
  6
CONTINUOUS
370
-3
390
F
  0
LAYER
  5
626
100
AcDbSymbolTableRecord
100
AcDbLayerTableRecord
  2
_7413
 70
0
 62
7
  6
CONTINUOUS
370
-3
390
F
  0
LAYER
  5
627
100
AcDbSymbolTableRecord
100
AcDbLayerTableRecord
  2
_7428
 70
0
 62
7
  6
CONTINUOUS
370
-3
390
F
  0
LAYER
  5
628
100
AcDbSymbolTableRecord
100
AcDbLayerTableRecord
  2
_7430
 70
0
 62
7
  6
CONTINUOUS
370
-3
390
F
  0
LAYER
  5
629
100
AcDbSymbolTableRecord
100
AcDbLayerTableRecord
  2
_7435
 70
0
 62
7
  6
CONTINUOUS
370
-3
390
F
  0
LAYER
  5
62A
100
AcDbSymbolTableRecord
100
AcDbLayerTableRecord
  2
_7439
 70
0
 62
7
  6
CONTINUOUS
370
-3
390
F
  0
LAYER
  5
62B
100
AcDbSymbolTableRecord
100
AcDbLayerTableRecord
  2
_7441
 70
0
 62
7
  6
CONTINUOUS
370
-3
390
F
  0
LAYER
  5
62C
100
AcDbSymbolTableRecord
100
AcDbLayerTableRecord
  2
_7446
 70
0
 62
7
  6
CONTINUOUS
370
-3
390
F
  0
LAYER
  5
62D
100
AcDbSymbolTableRecord
100
AcDbLayerTableRecord
  2
_745
 70
0
 62
7
  6
CONTINUOUS
370
-3
390
F
  0
LAYER
  5
62E
100
AcDbSymbolTableRecord
100
AcDbLayerTableRecord
  2
_7456
 70
0
 62
7
  6
CONTINUOUS
370
-3
390
F
  0
LAYER
  5
62F
100
AcDbSymbolTableRecord
100
AcDbLayerTableRecord
  2
_7465
 70
0
 62
7
  6
CONTINUOUS
370
-3
390
F
  0
LAYER
  5
630
100
AcDbSymbolTableRecord
100
AcDbLayerTableRecord
  2
_7501
 70
0
 62
7
  6
CONTINUOUS
370
-3
390
F
  0
LAYER
  5
631
100
AcDbSymbolTableRecord
100
AcDbLayerTableRecord
  2
_7506
 70
0
 62
7
  6
CONTINUOUS
370
-3
390
F
  0
LAYER
  5
632
100
AcDbSymbolTableRecord
100
AcDbLayerTableRecord
  2
_7507
 70
0
 62
7
  6
CONTINUOUS
370
-3
390
F
  0
LAYER
  5
633
100
AcDbSymbolTableRecord
100
AcDbLayerTableRecord
  2
_7513
 70
0
 62
7
  6
CONTINUOUS
370
-3
390
F
  0
LAYER
  5
634
100
AcDbSymbolTableRecord
100
AcDbLayerTableRecord
  2
_7520
 70
0
 62
7
  6
CONTINUOUS
370
-3
390
F
  0
LAYER
  5
635
100
AcDbSymbolTableRecord
100
AcDbLayerTableRecord
  2
_7530
 70
0
 62
7
  6
CONTINUOUS
370
-3
390
F
  0
LAYER
  5
636
100
AcDbSymbolTableRecord
100
AcDbLayerTableRecord
  2
_7534
 70
0
 62
7
  6
CONTINUOUS
370
-3
390
F
  0
LAYER
  5
637
100
AcDbSymbolTableRecord
100
AcDbLayerTableRecord
  2
_7543
 70
0
 62
7
  6
CONTINUOUS
370
-3
390
F
  0
LAYER
  5
638
100
AcDbSymbolTableRecord
100
AcDbLayerTableRecord
  2
_7545
 70
0
 62
7
  6
CONTINUOUS
370
-3
390
F
  0
LAYER
  5
639
100
AcDbSymbolTableRecord
100
AcDbLayerTableRecord
  2
_7563
 70
0
 62
7
  6
CONTINUOUS
370
-3
390
F
  0
LAYER
  5
63A
100
AcDbSymbolTableRecord
100
AcDbLayerTableRecord
  2
_7579
 70
0
 62
7
  6
CONTINUOUS
370
-3
390
F
  0
LAYER
  5
63B
100
AcDbSymbolTableRecord
100
AcDbLayerTableRecord
  2
_7588
 70
0
 62
7
  6
CONTINUOUS
370
-3
390
F
  0
LAYER
  5
63C
100
AcDbSymbolTableRecord
100
AcDbLayerTableRecord
  2
_7594
 70
0
 62
7
  6
CONTINUOUS
370
-3
390
F
  0
LAYER
  5
63D
100
AcDbSymbolTableRecord
100
AcDbLayerTableRecord
  2
_7598
 70
0
 62
7
  6
CONTINUOUS
370
-3
390
F
  0
LAYER
  5
63E
100
AcDbSymbolTableRecord
100
AcDbLayerTableRecord
  2
_7603
 70
0
 62
7
  6
CONTINUOUS
370
-3
390
F
  0
LAYER
  5
63F
100
AcDbSymbolTableRecord
100
AcDbLayerTableRecord
  2
_7625
 70
0
 62
7
  6
CONTINUOUS
370
-3
390
F
  0
LAYER
  5
640
100
AcDbSymbolTableRecord
100
AcDbLayerTableRecord
  2
_7631
 70
0
 62
7
  6
CONTINUOUS
370
-3
390
F
  0
LAYER
  5
641
100
AcDbSymbolTableRecord
100
AcDbLayerTableRecord
  2
_7634
 70
0
 62
7
  6
CONTINUOUS
370
-3
390
F
  0
LAYER
  5
642
100
AcDbSymbolTableRecord
100
AcDbLayerTableRecord
  2
_7667
 70
0
 62
7
  6
CONTINUOUS
370
-3
390
F
  0
LAYER
  5
643
100
AcDbSymbolTableRecord
100
AcDbLayerTableRecord
  2
_7668
 70
0
 62
7
  6
CONTINUOUS
370
-3
390
F
  0
LAYER
  5
644
100
AcDbSymbolTableRecord
100
AcDbLayerTableRecord
  2
_7679
 70
0
 62
7
  6
CONTINUOUS
370
-3
390
F
  0
LAYER
  5
645
100
AcDbSymbolTableRecord
100
AcDbLayerTableRecord
  2
_7685
 70
0
 62
7
  6
CONTINUOUS
370
-3
390
F
  0
LAYER
  5
646
100
AcDbSymbolTableRecord
100
AcDbLayerTableRecord
  2
_7708
 70
0
 62
7
  6
CONTINUOUS
370
-3
390
F
  0
LAYER
  5
647
100
AcDbSymbolTableRecord
100
AcDbLayerTableRecord
  2
_7710
 70
0
 62
7
  6
CONTINUOUS
370
-3
390
F
  0
LAYER
  5
648
100
AcDbSymbolTableRecord
100
AcDbLayerTableRecord
  2
_7711
 70
0
 62
7
  6
CONTINUOUS
370
-3
390
F
  0
LAYER
  5
649
100
AcDbSymbolTableRecord
100
AcDbLayerTableRecord
  2
_7725
 70
0
 62
7
  6
CONTINUOUS
370
-3
390
F
  0
LAYER
  5
64A
100
AcDbSymbolTableRecord
100
AcDbLayerTableRecord
  2
_7750
 70
0
 62
7
  6
CONTINUOUS
370
-3
390
F
  0
LAYER
  5
64B
100
AcDbSymbolTableRecord
100
AcDbLayerTableRecord
  2
_7755
 70
0
 62
7
  6
CONTINUOUS
370
-3
390
F
  0
LAYER
  5
64C
100
AcDbSymbolTableRecord
100
AcDbLayerTableRecord
  2
_7764
 70
0
 62
7
  6
CONTINUOUS
370
-3
390
F
  0
LAYER
  5
64D
100
AcDbSymbolTableRecord
100
AcDbLayerTableRecord
  2
_7768
 70
0
 62
7
  6
CONTINUOUS
370
-3
390
F
  0
LAYER
  5
64E
100
AcDbSymbolTableRecord
100
AcDbLayerTableRecord
  2
_7790
 70
0
 62
7
  6
CONTINUOUS
370
-3
390
F
  0
LAYER
  5
64F
100
AcDbSymbolTableRecord
100
AcDbLayerTableRecord
  2
_788
 70
0
 62
7
  6
CONTINUOUS
370
-3
390
F
  0
LAYER
  5
650
100
AcDbSymbolTableRecord
100
AcDbLayerTableRecord
  2
_7893
 70
0
 62
7
  6
CONTINUOUS
370
-3
390
F
  0
LAYER
  5
651
100
AcDbSymbolTableRecord
100
AcDbLayerTableRecord
  2
_7947
 70
0
 62
7
  6
CONTINUOUS
370
-3
390
F
  0
LAYER
  5
652
100
AcDbSymbolTableRecord
100
AcDbLayerTableRecord
  2
_7960
 70
0
 62
7
  6
CONTINUOUS
370
-3
390
F
  0
LAYER
  5
653
100
AcDbSymbolTableRecord
100
AcDbLayerTableRecord
  2
_7963
 70
0
 62
7
  6
CONTINUOUS
370
-3
390
F
  0
LAYER
  5
654
100
AcDbSymbolTableRecord
100
AcDbLayerTableRecord
  2
_797
 70
0
 62
7
  6
CONTINUOUS
370
-3
390
F
  0
LAYER
  5
655
100
AcDbSymbolTableRecord
100
AcDbLayerTableRecord
  2
_7982
 70
0
 62
7
  6
CONTINUOUS
370
-3
390
F
  0
LAYER
  5
656
100
AcDbSymbolTableRecord
100
AcDbLayerTableRecord
  2
_7992
 70
0
 62
7
  6
CONTINUOUS
370
-3
390
F
  0
LAYER
  5
657
100
AcDbSymbolTableRecord
100
AcDbLayerTableRecord
  2
_7993
 70
0
 62
7
  6
CONTINUOUS
370
-3
390
F
  0
LAYER
  5
658
100
AcDbSymbolTableRecord
100
AcDbLayerTableRecord
  2
_8003
 70
0
 62
7
  6
CONTINUOUS
370
-3
390
F
  0
LAYER
  5
659
100
AcDbSymbolTableRecord
100
AcDbLayerTableRecord
  2
_8008
 70
0
 62
7
  6
CONTINUOUS
370
-3
390
F
  0
LAYER
  5
65A
100
AcDbSymbolTableRecord
100
AcDbLayerTableRecord
  2
_8029
 70
0
 62
7
  6
CONTINUOUS
370
-3
390
F
  0
LAYER
  5
65B
100
AcDbSymbolTableRecord
100
AcDbLayerTableRecord
  2
_8048
 70
0
 62
7
  6
CONTINUOUS
370
-3
390
F
  0
LAYER
  5
65C
100
AcDbSymbolTableRecord
100
AcDbLayerTableRecord
  2
_805
 70
0
 62
7
  6
CONTINUOUS
370
-3
390
F
  0
LAYER
  5
65D
100
AcDbSymbolTableRecord
100
AcDbLayerTableRecord
  2
_8055
 70
0
 62
7
  6
CONTINUOUS
370
-3
390
F
  0
LAYER
  5
65E
100
AcDbSymbolTableRecord
100
AcDbLayerTableRecord
  2
_8088
 70
0
 62
7
  6
CONTINUOUS
370
-3
390
F
  0
LAYER
  5
65F
100
AcDbSymbolTableRecord
100
AcDbLayerTableRecord
  2
_8101
 70
0
 62
7
  6
CONTINUOUS
370
-3
390
F
  0
LAYER
  5
660
100
AcDbSymbolTableRecord
100
AcDbLayerTableRecord
  2
_8109
 70
0
 62
7
  6
CONTINUOUS
370
-3
390
F
  0
LAYER
  5
661
100
AcDbSymbolTableRecord
100
AcDbLayerTableRecord
  2
_8132
 70
0
 62
7
  6
CONTINUOUS
370
-3
390
F
  0
LAYER
  5
662
100
AcDbSymbolTableRecord
100
AcDbLayerTableRecord
  2
_817
 70
0
 62
7
  6
CONTINUOUS
370
-3
390
F
  0
LAYER
  5
663
100
AcDbSymbolTableRecord
100
AcDbLayerTableRecord
  2
_8176
 70
0
 62
7
  6
CONTINUOUS
370
-3
390
F
  0
LAYER
  5
664
100
AcDbSymbolTableRecord
100
AcDbLayerTableRecord
  2
_8178
 70
0
 62
7
  6
CONTINUOUS
370
-3
390
F
  0
LAYER
  5
665
100
AcDbSymbolTableRecord
100
AcDbLayerTableRecord
  2
_8180
 70
0
 62
7
  6
CONTINUOUS
370
-3
390
F
  0
LAYER
  5
666
100
AcDbSymbolTableRecord
100
AcDbLayerTableRecord
  2
_8181
 70
0
 62
7
  6
CONTINUOUS
370
-3
390
F
  0
LAYER
  5
667
100
AcDbSymbolTableRecord
100
AcDbLayerTableRecord
  2
_8191
 70
0
 62
7
  6
CONTINUOUS
370
-3
390
F
  0
LAYER
  5
668
100
AcDbSymbolTableRecord
100
AcDbLayerTableRecord
  2
_8193
 70
0
 62
7
  6
CONTINUOUS
370
-3
390
F
  0
LAYER
  5
669
100
AcDbSymbolTableRecord
100
AcDbLayerTableRecord
  2
_8209
 70
0
 62
7
  6
CONTINUOUS
370
-3
390
F
  0
LAYER
  5
66A
100
AcDbSymbolTableRecord
100
AcDbLayerTableRecord
  2
_8228
 70
0
 62
7
  6
CONTINUOUS
370
-3
390
F
  0
LAYER
  5
66B
100
AcDbSymbolTableRecord
100
AcDbLayerTableRecord
  2
_8232
 70
0
 62
7
  6
CONTINUOUS
370
-3
390
F
  0
LAYER
  5
66C
100
AcDbSymbolTableRecord
100
AcDbLayerTableRecord
  2
_8250
 70
0
 62
7
  6
CONTINUOUS
370
-3
390
F
  0
LAYER
  5
66D
100
AcDbSymbolTableRecord
100
AcDbLayerTableRecord
  2
_8265
 70
0
 62
7
  6
CONTINUOUS
370
-3
390
F
  0
LAYER
  5
66E
100
AcDbSymbolTableRecord
100
AcDbLayerTableRecord
  2
_8269
 70
0
 62
7
  6
CONTINUOUS
370
-3
390
F
  0
LAYER
  5
66F
100
AcDbSymbolTableRecord
100
AcDbLayerTableRecord
  2
_827
 70
0
 62
7
  6
CONTINUOUS
370
-3
390
F
  0
LAYER
  5
670
100
AcDbSymbolTableRecord
100
AcDbLayerTableRecord
  2
_8287
 70
0
 62
7
  6
CONTINUOUS
370
-3
390
F
  0
LAYER
  5
671
100
AcDbSymbolTableRecord
100
AcDbLayerTableRecord
  2
_8289
 70
0
 62
7
  6
CONTINUOUS
370
-3
390
F
  0
LAYER
  5
672
100
AcDbSymbolTableRecord
100
AcDbLayerTableRecord
  2
_8294
 70
0
 62
7
  6
CONTINUOUS
370
-3
390
F
  0
LAYER
  5
673
100
AcDbSymbolTableRecord
100
AcDbLayerTableRecord
  2
_8299
 70
0
 62
7
  6
CONTINUOUS
370
-3
390
F
  0
LAYER
  5
674
100
AcDbSymbolTableRecord
100
AcDbLayerTableRecord
  2
_831
 70
0
 62
7
  6
CONTINUOUS
370
-3
390
F
  0
LAYER
  5
675
100
AcDbSymbolTableRecord
100
AcDbLayerTableRecord
  2
_8318
 70
0
 62
7
  6
CONTINUOUS
370
-3
390
F
  0
LAYER
  5
676
100
AcDbSymbolTableRecord
100
AcDbLayerTableRecord
  2
_8324
 70
0
 62
7
  6
CONTINUOUS
370
-3
390
F
  0
LAYER
  5
677
100
AcDbSymbolTableRecord
100
AcDbLayerTableRecord
  2
_8325
 70
0
 62
7
  6
CONTINUOUS
370
-3
390
F
  0
LAYER
  5
678
100
AcDbSymbolTableRecord
100
AcDbLayerTableRecord
  2
_8326
 70
0
 62
7
  6
CONTINUOUS
370
-3
390
F
  0
LAYER
  5
679
100
AcDbSymbolTableRecord
100
AcDbLayerTableRecord
  2
_8332
 70
0
 62
7
  6
CONTINUOUS
370
-3
390
F
  0
LAYER
  5
67A
100
AcDbSymbolTableRecord
100
AcDbLayerTableRecord
  2
_834
 70
0
 62
7
  6
CONTINUOUS
370
-3
390
F
  0
LAYER
  5
67B
100
AcDbSymbolTableRecord
100
AcDbLayerTableRecord
  2
_8352
 70
0
 62
7
  6
CONTINUOUS
370
-3
390
F
  0
LAYER
  5
67C
100
AcDbSymbolTableRecord
100
AcDbLayerTableRecord
  2
_8353
 70
0
 62
7
  6
CONTINUOUS
370
-3
390
F
  0
LAYER
  5
67D
100
AcDbSymbolTableRecord
100
AcDbLayerTableRecord
  2
_8392
 70
0
 62
7
  6
CONTINUOUS
370
-3
390
F
  0
LAYER
  5
67E
100
AcDbSymbolTableRecord
100
AcDbLayerTableRecord
  2
_84
 70
0
 62
7
  6
CONTINUOUS
370
-3
390
F
  0
LAYER
  5
67F
100
AcDbSymbolTableRecord
100
AcDbLayerTableRecord
  2
_8406
 70
0
 62
7
  6
CONTINUOUS
370
-3
390
F
  0
LAYER
  5
680
100
AcDbSymbolTableRecord
100
AcDbLayerTableRecord
  2
_8414
 70
0
 62
7
  6
CONTINUOUS
370
-3
390
F
  0
LAYER
  5
681
100
AcDbSymbolTableRecord
100
AcDbLayerTableRecord
  2
_8428
 70
0
 62
7
  6
CONTINUOUS
370
-3
390
F
  0
LAYER
  5
682
100
AcDbSymbolTableRecord
100
AcDbLayerTableRecord
  2
_8436
 70
0
 62
7
  6
CONTINUOUS
370
-3
390
F
  0
LAYER
  5
683
100
AcDbSymbolTableRecord
100
AcDbLayerTableRecord
  2
_844
 70
0
 62
7
  6
CONTINUOUS
370
-3
390
F
  0
LAYER
  5
684
100
AcDbSymbolTableRecord
100
AcDbLayerTableRecord
  2
_8442
 70
0
 62
7
  6
CONTINUOUS
370
-3
390
F
  0
LAYER
  5
685
100
AcDbSymbolTableRecord
100
AcDbLayerTableRecord
  2
_8451
 70
0
 62
7
  6
CONTINUOUS
370
-3
390
F
  0
LAYER
  5
686
100
AcDbSymbolTableRecord
100
AcDbLayerTableRecord
  2
_8451_1
 70
0
 62
7
  6
CONTINUOUS
370
-3
390
F
  0
LAYER
  5
687
100
AcDbSymbolTableRecord
100
AcDbLayerTableRecord
  2
_8475
 70
0
 62
7
  6
CONTINUOUS
370
-3
390
F
  0
LAYER
  5
688
100
AcDbSymbolTableRecord
100
AcDbLayerTableRecord
  2
_848
 70
0
 62
7
  6
CONTINUOUS
370
-3
390
F
  0
LAYER
  5
689
100
AcDbSymbolTableRecord
100
AcDbLayerTableRecord
  2
_8507
 70
0
 62
7
  6
CONTINUOUS
370
-3
390
F
  0
LAYER
  5
68A
100
AcDbSymbolTableRecord
100
AcDbLayerTableRecord
  2
_8510
 70
0
 62
7
  6
CONTINUOUS
370
-3
390
F
  0
LAYER
  5
68B
100
AcDbSymbolTableRecord
100
AcDbLayerTableRecord
  2
_8513
 70
0
 62
7
  6
CONTINUOUS
370
-3
390
F
  0
LAYER
  5
68C
100
AcDbSymbolTableRecord
100
AcDbLayerTableRecord
  2
_8528
 70
0
 62
7
  6
CONTINUOUS
370
-3
390
F
  0
LAYER
  5
68D
100
AcDbSymbolTableRecord
100
AcDbLayerTableRecord
  2
_8529
 70
0
 62
7
  6
CONTINUOUS
370
-3
390
F
  0
LAYER
  5
68E
100
AcDbSymbolTableRecord
100
AcDbLayerTableRecord
  2
_8539
 70
0
 62
7
  6
CONTINUOUS
370
-3
390
F
  0
LAYER
  5
68F
100
AcDbSymbolTableRecord
100
AcDbLayerTableRecord
  2
_8543
 70
0
 62
7
  6
CONTINUOUS
370
-3
390
F
  0
LAYER
  5
690
100
AcDbSymbolTableRecord
100
AcDbLayerTableRecord
  2
_8554
 70
0
 62
7
  6
CONTINUOUS
370
-3
390
F
  0
LAYER
  5
691
100
AcDbSymbolTableRecord
100
AcDbLayerTableRecord
  2
_8572
 70
0
 62
7
  6
CONTINUOUS
370
-3
390
F
  0
LAYER
  5
692
100
AcDbSymbolTableRecord
100
AcDbLayerTableRecord
  2
_8576
 70
0
 62
7
  6
CONTINUOUS
370
-3
390
F
  0
LAYER
  5
693
100
AcDbSymbolTableRecord
100
AcDbLayerTableRecord
  2
_8590
 70
0
 62
7
  6
CONTINUOUS
370
-3
390
F
  0
LAYER
  5
694
100
AcDbSymbolTableRecord
100
AcDbLayerTableRecord
  2
_863
 70
0
 62
7
  6
CONTINUOUS
370
-3
390
F
  0
LAYER
  5
695
100
AcDbSymbolTableRecord
100
AcDbLayerTableRecord
  2
_8658
 70
0
 62
7
  6
CONTINUOUS
370
-3
390
F
  0
LAYER
  5
696
100
AcDbSymbolTableRecord
100
AcDbLayerTableRecord
  2
_8664
 70
0
 62
7
  6
CONTINUOUS
370
-3
390
F
  0
LAYER
  5
697
100
AcDbSymbolTableRecord
100
AcDbLayerTableRecord
  2
_8737
 70
0
 62
7
  6
CONTINUOUS
370
-3
390
F
  0
LAYER
  5
698
100
AcDbSymbolTableRecord
100
AcDbLayerTableRecord
  2
_8752
 70
0
 62
7
  6
CONTINUOUS
370
-3
390
F
  0
LAYER
  5
699
100
AcDbSymbolTableRecord
100
AcDbLayerTableRecord
  2
_8766
 70
0
 62
7
  6
CONTINUOUS
370
-3
390
F
  0
LAYER
  5
69A
100
AcDbSymbolTableRecord
100
AcDbLayerTableRecord
  2
_8782
 70
0
 62
7
  6
CONTINUOUS
370
-3
390
F
  0
LAYER
  5
69B
100
AcDbSymbolTableRecord
100
AcDbLayerTableRecord
  2
_883
 70
0
 62
7
  6
CONTINUOUS
370
-3
390
F
  0
LAYER
  5
69C
100
AcDbSymbolTableRecord
100
AcDbLayerTableRecord
  2
_8837
 70
0
 62
7
  6
CONTINUOUS
370
-3
390
F
  0
LAYER
  5
69D
100
AcDbSymbolTableRecord
100
AcDbLayerTableRecord
  2
_8885
 70
0
 62
7
  6
CONTINUOUS
370
-3
390
F
  0
LAYER
  5
69E
100
AcDbSymbolTableRecord
100
AcDbLayerTableRecord
  2
_8906
 70
0
 62
7
  6
CONTINUOUS
370
-3
390
F
  0
LAYER
  5
69F
100
AcDbSymbolTableRecord
100
AcDbLayerTableRecord
  2
_8912
 70
0
 62
7
  6
CONTINUOUS
370
-3
390
F
  0
LAYER
  5
6A0
100
AcDbSymbolTableRecord
100
AcDbLayerTableRecord
  2
_8921
 70
0
 62
7
  6
CONTINUOUS
370
-3
390
F
  0
LAYER
  5
6A1
100
AcDbSymbolTableRecord
100
AcDbLayerTableRecord
  2
_8924
 70
0
 62
7
  6
CONTINUOUS
370
-3
390
F
  0
LAYER
  5
6A2
100
AcDbSymbolTableRecord
100
AcDbLayerTableRecord
  2
_8969
 70
0
 62
7
  6
CONTINUOUS
370
-3
390
F
  0
LAYER
  5
6A3
100
AcDbSymbolTableRecord
100
AcDbLayerTableRecord
  2
_8972
 70
0
 62
7
  6
CONTINUOUS
370
-3
390
F
  0
LAYER
  5
6A4
100
AcDbSymbolTableRecord
100
AcDbLayerTableRecord
  2
_8973
 70
0
 62
7
  6
CONTINUOUS
370
-3
390
F
  0
LAYER
  5
6A5
100
AcDbSymbolTableRecord
100
AcDbLayerTableRecord
  2
_8977
 70
0
 62
7
  6
CONTINUOUS
370
-3
390
F
  0
LAYER
  5
6A6
100
AcDbSymbolTableRecord
100
AcDbLayerTableRecord
  2
_8981
 70
0
 62
7
  6
CONTINUOUS
370
-3
390
F
  0
LAYER
  5
6A7
100
AcDbSymbolTableRecord
100
AcDbLayerTableRecord
  2
_8985
 70
0
 62
7
  6
CONTINUOUS
370
-3
390
F
  0
LAYER
  5
6A8
100
AcDbSymbolTableRecord
100
AcDbLayerTableRecord
  2
_8987
 70
0
 62
7
  6
CONTINUOUS
370
-3
390
F
  0
LAYER
  5
6A9
100
AcDbSymbolTableRecord
100
AcDbLayerTableRecord
  2
_8994
 70
0
 62
7
  6
CONTINUOUS
370
-3
390
F
  0
LAYER
  5
6AA
100
AcDbSymbolTableRecord
100
AcDbLayerTableRecord
  2
_9018
 70
0
 62
7
  6
CONTINUOUS
370
-3
390
F
  0
LAYER
  5
6AB
100
AcDbSymbolTableRecord
100
AcDbLayerTableRecord
  2
_9028
 70
0
 62
7
  6
CONTINUOUS
370
-3
390
F
  0
LAYER
  5
6AC
100
AcDbSymbolTableRecord
100
AcDbLayerTableRecord
  2
_9047
 70
0
 62
7
  6
CONTINUOUS
370
-3
390
F
  0
LAYER
  5
6AD
100
AcDbSymbolTableRecord
100
AcDbLayerTableRecord
  2
_9056
 70
0
 62
7
  6
CONTINUOUS
370
-3
390
F
  0
LAYER
  5
6AE
100
AcDbSymbolTableRecord
100
AcDbLayerTableRecord
  2
_907
 70
0
 62
7
  6
CONTINUOUS
370
-3
390
F
  0
LAYER
  5
6AF
100
AcDbSymbolTableRecord
100
AcDbLayerTableRecord
  2
_9078
 70
0
 62
7
  6
CONTINUOUS
370
-3
390
F
  0
LAYER
  5
6B0
100
AcDbSymbolTableRecord
100
AcDbLayerTableRecord
  2
_908
 70
0
 62
7
  6
CONTINUOUS
370
-3
390
F
  0
LAYER
  5
6B1
100
AcDbSymbolTableRecord
100
AcDbLayerTableRecord
  2
_9081
 70
0
 62
7
  6
CONTINUOUS
370
-3
390
F
  0
LAYER
  5
6B2
100
AcDbSymbolTableRecord
100
AcDbLayerTableRecord
  2
_9103
 70
0
 62
7
  6
CONTINUOUS
370
-3
390
F
  0
LAYER
  5
6B3
100
AcDbSymbolTableRecord
100
AcDbLayerTableRecord
  2
_9138
 70
0
 62
7
  6
CONTINUOUS
370
-3
390
F
  0
LAYER
  5
6B4
100
AcDbSymbolTableRecord
100
AcDbLayerTableRecord
  2
_9145
 70
0
 62
7
  6
CONTINUOUS
370
-3
390
F
  0
LAYER
  5
6B5
100
AcDbSymbolTableRecord
100
AcDbLayerTableRecord
  2
_9168
 70
0
 62
7
  6
CONTINUOUS
370
-3
390
F
  0
LAYER
  5
6B6
100
AcDbSymbolTableRecord
100
AcDbLayerTableRecord
  2
_9171
 70
0
 62
7
  6
CONTINUOUS
370
-3
390
F
  0
LAYER
  5
6B7
100
AcDbSymbolTableRecord
100
AcDbLayerTableRecord
  2
_9173
 70
0
 62
7
  6
CONTINUOUS
370
-3
390
F
  0
LAYER
  5
6B8
100
AcDbSymbolTableRecord
100
AcDbLayerTableRecord
  2
_9184
 70
0
 62
7
  6
CONTINUOUS
370
-3
390
F
  0
LAYER
  5
6B9
100
AcDbSymbolTableRecord
100
AcDbLayerTableRecord
  2
_9185
 70
0
 62
7
  6
CONTINUOUS
370
-3
390
F
  0
LAYER
  5
6BA
100
AcDbSymbolTableRecord
100
AcDbLayerTableRecord
  2
_9220
 70
0
 62
7
  6
CONTINUOUS
370
-3
390
F
  0
LAYER
  5
6BB
100
AcDbSymbolTableRecord
100
AcDbLayerTableRecord
  2
_9224
 70
0
 62
7
  6
CONTINUOUS
370
-3
390
F
  0
LAYER
  5
6BC
100
AcDbSymbolTableRecord
100
AcDbLayerTableRecord
  2
_9231
 70
0
 62
7
  6
CONTINUOUS
370
-3
390
F
  0
LAYER
  5
6BD
100
AcDbSymbolTableRecord
100
AcDbLayerTableRecord
  2
_9240
 70
0
 62
7
  6
CONTINUOUS
370
-3
390
F
  0
LAYER
  5
6BE
100
AcDbSymbolTableRecord
100
AcDbLayerTableRecord
  2
_9250
 70
0
 62
7
  6
CONTINUOUS
370
-3
390
F
  0
LAYER
  5
6BF
100
AcDbSymbolTableRecord
100
AcDbLayerTableRecord
  2
_9251
 70
0
 62
7
  6
CONTINUOUS
370
-3
390
F
  0
LAYER
  5
6C0
100
AcDbSymbolTableRecord
100
AcDbLayerTableRecord
  2
_9256
 70
0
 62
7
  6
CONTINUOUS
370
-3
390
F
  0
LAYER
  5
6C1
100
AcDbSymbolTableRecord
100
AcDbLayerTableRecord
  2
_9273
 70
0
 62
7
  6
CONTINUOUS
370
-3
390
F
  0
LAYER
  5
6C2
100
AcDbSymbolTableRecord
100
AcDbLayerTableRecord
  2
_9302
 70
0
 62
7
  6
CONTINUOUS
370
-3
390
F
  0
LAYER
  5
6C3
100
AcDbSymbolTableRecord
100
AcDbLayerTableRecord
  2
_9305
 70
0
 62
7
  6
CONTINUOUS
370
-3
390
F
  0
LAYER
  5
6C4
100
AcDbSymbolTableRecord
100
AcDbLayerTableRecord
  2
_9315
 70
0
 62
7
  6
CONTINUOUS
370
-3
390
F
  0
LAYER
  5
6C5
100
AcDbSymbolTableRecord
100
AcDbLayerTableRecord
  2
_9343
 70
0
 62
7
  6
CONTINUOUS
370
-3
390
F
  0
LAYER
  5
6C6
100
AcDbSymbolTableRecord
100
AcDbLayerTableRecord
  2
_9354
 70
0
 62
7
  6
CONTINUOUS
370
-3
390
F
  0
LAYER
  5
6C7
100
AcDbSymbolTableRecord
100
AcDbLayerTableRecord
  2
_9362
 70
0
 62
7
  6
CONTINUOUS
370
-3
390
F
  0
LAYER
  5
6C8
100
AcDbSymbolTableRecord
100
AcDbLayerTableRecord
  2
_9370
 70
0
 62
7
  6
CONTINUOUS
370
-3
390
F
  0
LAYER
  5
6C9
100
AcDbSymbolTableRecord
100
AcDbLayerTableRecord
  2
_9391
 70
0
 62
7
  6
CONTINUOUS
370
-3
390
F
  0
LAYER
  5
6CA
100
AcDbSymbolTableRecord
100
AcDbLayerTableRecord
  2
_9413
 70
0
 62
7
  6
CONTINUOUS
370
-3
390
F
  0
LAYER
  5
6CB
100
AcDbSymbolTableRecord
100
AcDbLayerTableRecord
  2
_9425
 70
0
 62
7
  6
CONTINUOUS
370
-3
390
F
  0
LAYER
  5
6CC
100
AcDbSymbolTableRecord
100
AcDbLayerTableRecord
  2
_9433
 70
0
 62
7
  6
CONTINUOUS
370
-3
390
F
  0
LAYER
  5
6CD
100
AcDbSymbolTableRecord
100
AcDbLayerTableRecord
  2
_9439
 70
0
 62
7
  6
CONTINUOUS
370
-3
390
F
  0
LAYER
  5
6CE
100
AcDbSymbolTableRecord
100
AcDbLayerTableRecord
  2
_9440
 70
0
 62
7
  6
CONTINUOUS
370
-3
390
F
  0
LAYER
  5
6CF
100
AcDbSymbolTableRecord
100
AcDbLayerTableRecord
  2
_9447
 70
0
 62
7
  6
CONTINUOUS
370
-3
390
F
  0
LAYER
  5
6D0
100
AcDbSymbolTableRecord
100
AcDbLayerTableRecord
  2
_9455
 70
0
 62
7
  6
CONTINUOUS
370
-3
390
F
  0
LAYER
  5
6D1
100
AcDbSymbolTableRecord
100
AcDbLayerTableRecord
  2
_947
 70
0
 62
7
  6
CONTINUOUS
370
-3
390
F
  0
LAYER
  5
6D2
100
AcDbSymbolTableRecord
100
AcDbLayerTableRecord
  2
_9499
 70
0
 62
7
  6
CONTINUOUS
370
-3
390
F
  0
LAYER
  5
6D3
100
AcDbSymbolTableRecord
100
AcDbLayerTableRecord
  2
_9501
 70
0
 62
7
  6
CONTINUOUS
370
-3
390
F
  0
LAYER
  5
6D4
100
AcDbSymbolTableRecord
100
AcDbLayerTableRecord
  2
_9526
 70
0
 62
7
  6
CONTINUOUS
370
-3
390
F
  0
LAYER
  5
6D5
100
AcDbSymbolTableRecord
100
AcDbLayerTableRecord
  2
_9533
 70
0
 62
7
  6
CONTINUOUS
370
-3
390
F
  0
LAYER
  5
6D6
100
AcDbSymbolTableRecord
100
AcDbLayerTableRecord
  2
_9540
 70
0
 62
7
  6
CONTINUOUS
370
-3
390
F
  0
LAYER
  5
6D7
100
AcDbSymbolTableRecord
100
AcDbLayerTableRecord
  2
_961
 70
0
 62
7
  6
CONTINUOUS
370
-3
390
F
  0
LAYER
  5
6D8
100
AcDbSymbolTableRecord
100
AcDbLayerTableRecord
  2
_9633
 70
0
 62
7
  6
CONTINUOUS
370
-3
390
F
  0
LAYER
  5
6D9
100
AcDbSymbolTableRecord
100
AcDbLayerTableRecord
  2
_9637
 70
0
 62
7
  6
CONTINUOUS
370
-3
390
F
  0
LAYER
  5
6DA
100
AcDbSymbolTableRecord
100
AcDbLayerTableRecord
  2
_9639
 70
0
 62
7
  6
CONTINUOUS
370
-3
390
F
  0
LAYER
  5
6DB
100
AcDbSymbolTableRecord
100
AcDbLayerTableRecord
  2
_9640
 70
0
 62
7
  6
CONTINUOUS
370
-3
390
F
  0
LAYER
  5
6DC
100
AcDbSymbolTableRecord
100
AcDbLayerTableRecord
  2
_9647
 70
0
 62
7
  6
CONTINUOUS
370
-3
390
F
  0
LAYER
  5
6DD
100
AcDbSymbolTableRecord
100
AcDbLayerTableRecord
  2
_9651
 70
0
 62
7
  6
CONTINUOUS
370
-3
390
F
  0
LAYER
  5
6DE
100
AcDbSymbolTableRecord
100
AcDbLayerTableRecord
  2
_9674
 70
0
 62
7
  6
CONTINUOUS
370
-3
390
F
  0
LAYER
  5
6DF
100
AcDbSymbolTableRecord
100
AcDbLayerTableRecord
  2
_9686
 70
0
 62
7
  6
CONTINUOUS
370
-3
390
F
  0
LAYER
  5
6E0
100
AcDbSymbolTableRecord
100
AcDbLayerTableRecord
  2
_9689
 70
0
 62
7
  6
CONTINUOUS
370
-3
390
F
  0
LAYER
  5
6E1
100
AcDbSymbolTableRecord
100
AcDbLayerTableRecord
  2
_9729
 70
0
 62
7
  6
CONTINUOUS
370
-3
390
F
  0
LAYER
  5
6E2
100
AcDbSymbolTableRecord
100
AcDbLayerTableRecord
  2
_973
 70
0
 62
7
  6
CONTINUOUS
370
-3
390
F
  0
LAYER
  5
6E3
100
AcDbSymbolTableRecord
100
AcDbLayerTableRecord
  2
_974
 70
0
 62
7
  6
CONTINUOUS
370
-3
390
F
  0
LAYER
  5
6E4
100
AcDbSymbolTableRecord
100
AcDbLayerTableRecord
  2
_9767
 70
0
 62
7
  6
CONTINUOUS
370
-3
390
F
  0
LAYER
  5
6E5
100
AcDbSymbolTableRecord
100
AcDbLayerTableRecord
  2
_9793
 70
0
 62
7
  6
CONTINUOUS
370
-3
390
F
  0
LAYER
  5
6E6
100
AcDbSymbolTableRecord
100
AcDbLayerTableRecord
  2
_9851
 70
0
 62
7
  6
CONTINUOUS
370
-3
390
F
  0
LAYER
  5
6E7
100
AcDbSymbolTableRecord
100
AcDbLayerTableRecord
  2
_9857
 70
0
 62
7
  6
CONTINUOUS
370
-3
390
F
  0
LAYER
  5
6E8
100
AcDbSymbolTableRecord
100
AcDbLayerTableRecord
  2
_9888
 70
0
 62
7
  6
CONTINUOUS
370
-3
390
F
  0
LAYER
  5
6E9
100
AcDbSymbolTableRecord
100
AcDbLayerTableRecord
  2
_9893
 70
0
 62
7
  6
CONTINUOUS
370
-3
390
F
  0
LAYER
  5
6EA
100
AcDbSymbolTableRecord
100
AcDbLayerTableRecord
  2
_9922
 70
0
 62
7
  6
CONTINUOUS
370
-3
390
F
  0
LAYER
  5
6EB
100
AcDbSymbolTableRecord
100
AcDbLayerTableRecord
  2
_9929
 70
0
 62
7
  6
CONTINUOUS
370
-3
390
F
  0
LAYER
  5
6EC
100
AcDbSymbolTableRecord
100
AcDbLayerTableRecord
  2
_9976
 70
0
 62
7
  6
CONTINUOUS
370
-3
390
F
  0
LAYER
  5
6ED
100
AcDbSymbolTableRecord
100
AcDbLayerTableRecord
  2
_998
 70
0
 62
7
  6
CONTINUOUS
370
-3
390
F
  0
LAYER
  5
6EE
100
AcDbSymbolTableRecord
100
AcDbLayerTableRecord
  2
_9981
 70
0
 62
7
  6
CONTINUOUS
370
-3
390
F
  0
LAYER
  5
6EF
100
AcDbSymbolTableRecord
100
AcDbLayerTableRecord
  2
_9983
 70
0
 62
7
  6
CONTINUOUS
370
-3
390
F
  0
LAYER
  5
6F0
100
AcDbSymbolTableRecord
100
AcDbLayerTableRecord
  2
_9986
 70
0
 62
7
  6
CONTINUOUS
370
-3
390
F
  0
LAYER
  5
6F1
100
AcDbSymbolTableRecord
100
AcDbLayerTableRecord
  2
_9988
 70
0
 62
7
  6
CONTINUOUS
370
-3
390
F
  0
LAYER
  5
6F2
100
AcDbSymbolTableRecord
100
AcDbLayerTableRecord
  2
___SHELL
 70
0
 62
7
  6
CONTINUOUS
370
-3
390
F
  0
ENDTAB
  0
TABLE
  2
STYLE
  5
3
100
AcDbSymbolTable
 70
1
  0
STYLE
  5
11
100
AcDbSymbolTableRecord
100
AcDbTextStyleTableRecord
  2
STANDARD
 70
0
 40
0.0
 41
0.8
 50
0.0
 71
0
 42
0.2
  3
txt
  4

  0
STYLE
  5
6F3
100
AcDbSymbolTableRecord
100
AcDbTextStyleTableRecord
  2
TEXTSTYLE_1
 70
0
 40
0.0
 41
0.8
 50
0.0
 71
0
 42
0.2
  3
gdt
  4

  0
ENDTAB
  0
TABLE
  2
VIEW
  5
6
100
AcDbSymbolTable
 70
0
  0
ENDTAB
  0
TABLE
  2
UCS
  5
7
100
AcDbSymbolTable
 70
0
  0
ENDTAB
  0
TABLE
  2
APPID
  5
9
100
AcDbSymbolTable
 70
1
  0
APPID
  5
6F4
100
AcDbSymbolTableRecord
100
AcDbRegAppTableRecord
  2
ACAD
 70
0
  0
ENDTAB
  0
TABLE
  2
BLOCK_RECORD
  5
1
100
AcDbSymbolTable
 70
0
  0
BLOCK_RECORD
  5
6F5
100
AcDbSymbolTableRecord
100
AcDbBlockTableRecord
  2
*Model_Space
  0
BLOCK_RECORD
  5
6F6
100
AcDbSymbolTableRecord
100
AcDbBlockTableRecord
  2
*Paper_Space
  0
ENDTAB
  0
TABLE
  2
DIMSTYLE
  5
A
100
AcDbSymbolTable
 70
1
100
AcDbDimStyleTable
 71
0
  0
DIMSTYLE
105
6F7
100
AcDbSymbolTableRecord
100
AcDbDimStyleTableRecord
  2
STANDARD
 70
0
  3

  4

 40
1.0
 41
3.0
 42
0.5
 43
0.38
 44
1.5
 45
0.0
 46
0.0
 47
0.01
 48
0.01
140
3.0
141
0.09
142
0.0
143
25.4
144
1.0
145
0.0
146
1.0
147
0.625
 71
1.0
 72
0.0
 73
0
 74
0
 75
0
 76
0
 77
1
 78
8
170
0
171
2
172
0
173
0
174
0
175
0
176
0
177
0
178
0
270
2
271
2
272
2
273
2
274
2
275
0
280
0
281
0
282
0
283
1
284
8
285
0
286
0
287
3
288
0
340
11
278
44
  0
ENDTAB
  0
ENDSEC
  0
SECTION
  2
BLOCKS
  0
BLOCK
  5
20
100
AcDbEntity
  8
0
100
AcDbBlockBegin
  2
*Model_Space
 70
0
 10
0.0
 20
0.0
 30
0.0
  3
*Model_Space
  1

  0
ENDBLK
  5
21
100
AcDbEntity
  8
0
100
AcDbBlockEnd
  0
BLOCK
  5
1C
100
AcDbEntity
  8
0
100
AcDbBlockBegin
  2
*Paper_Space
 70
0
 10
0.0
 20
0.0
 30
0.0
  3
*Paper_Space
  1

  0
ENDBLK
  5
1D
100
AcDbEntity
  8
0
100
AcDbBlockEnd
  0
ENDSEC
  0
SECTION
  2
ENTITIES
  0
LINE
  5
6F8
100
AcDbEntity
  8
0
100
AcDbLine
 62
7
  6
CONTINUOUS
 10
142.6341245688
 20
42.0635347264
 11
144.2141245688
 21
42.0635347264
  0
LINE
  5
6F9
100
AcDbEntity
  8
0
100
AcDbLine
 62
7
  6
CONTINUOUS
 10
144.6341245688
 20
42.0635347264
 11
146.2141245688
 21
42.0635347264
  0
LINE
  5
6FA
100
AcDbEntity
  8
0
100
AcDbLine
 62
7
  6
CONTINUOUS
 10
146.6341245688
 20
42.0635347264
 11
148.2141245688
 21
42.0635347264
  0
LINE
  5
6FB
100
AcDbEntity
  8
0
100
AcDbLine
 62
7
  6
CONTINUOUS
 10
148.6341245688
 20
42.0635347264
 11
150.2141245688
 21
42.0635347264
  0
LINE
  5
6FC
100
AcDbEntity
  8
0
100
AcDbLine
 62
7
  6
CONTINUOUS
 10
150.6441245688
 20
42.0635347264
 11
152.2041245688
 21
42.0635347264
  0
LINE
  5
6FD
100
AcDbEntity
  8
0
100
AcDbLine
 62
7
  6
CONTINUOUS
 10
152.6441245688
 20
42.0635347264
 11
154.2041245688
 21
42.0635347264
  0
LINE
  5
6FE
100
AcDbEntity
  8
ASSI
100
AcDbLine
 62
7
  6
CONTINUOUS
 10
154.6441245688
 20
42.0635347264
 11
156.2041245688
 21
42.0635347264
  0
LINE
  5
6FF
100
AcDbEntity
  8
ASSI
100
AcDbLine
 62
7
  6
CONTINUOUS
 10
156.2041245688
 20
52.0635347264
 11
154.6441245688
 21
52.0635347264
  0
LINE
  5
700
100
AcDbEntity
  8
0
100
AcDbLine
 62
7
  6
CONTINUOUS
 10
142.6341245688
 20
52.0635347264
 11
144.2141245688
 21
52.0635347264
  0
LINE
  5
701
100
AcDbEntity
  8
0
100
AcDbLine
 62
7
  6
CONTINUOUS
 10
144.6341245688
 20
52.0635347264
 11
146.2141245688
 21
52.0635347264
  0
LINE
  5
702
100
AcDbEntity
  8
0
100
AcDbLine
 62
7
  6
CONTINUOUS
 10
146.6341245688
 20
52.0635347264
 11
148.2141245688
 21
52.0635347264
  0
LINE
  5
703
100
AcDbEntity
  8
0
100
AcDbLine
 62
7
  6
CONTINUOUS
 10
148.6341245688
 20
52.0635347264
 11
150.2141245688
 21
52.0635347264
  0
LINE
  5
704
100
AcDbEntity
  8
0
100
AcDbLine
 62
7
  6
CONTINUOUS
 10
150.6441245688
 20
52.0635347264
 11
152.2041245688
 21
52.0635347264
  0
LINE
  5
705
100
AcDbEntity
  8
0
100
AcDbLine
 62
7
  6
CONTINUOUS
 10
152.6441245688
 20
52.0635347264
 11
154.2041245688
 21
52.0635347264
  0
LINE
  5
706
100
AcDbEntity
  8
0
100
AcDbLine
 62
7
  6
CONTINUOUS
 10
142.6341245688
 20
53.0635347264
 11
144.2141245688
 21
53.0635347264
  0
LINE
  5
707
100
AcDbEntity
  8
0
100
AcDbLine
 62
7
  6
CONTINUOUS
 10
144.6341245688
 20
53.0635347264
 11
146.2141245688
 21
53.0635347264
  0
LINE
  5
708
100
AcDbEntity
  8
0
100
AcDbLine
 62
7
  6
CONTINUOUS
 10
146.6341245688
 20
53.0635347264
 11
148.2141245688
 21
53.0635347264
  0
LINE
  5
709
100
AcDbEntity
  8
0
100
AcDbLine
 62
7
  6
CONTINUOUS
 10
148.6341245688
 20
53.0635347264
 11
150.2141245688
 21
53.0635347264
  0
LINE
  5
70A
100
AcDbEntity
  8
0
100
AcDbLine
 62
7
  6
CONTINUOUS
 10
150.6441245688
 20
53.0635347264
 11
152.2041245688
 21
53.0635347264
  0
LINE
  5
70B
100
AcDbEntity
  8
0
100
AcDbLine
 62
7
  6
CONTINUOUS
 10
152.6441245688
 20
53.0635347264
 11
154.2041245688
 21
53.0635347264
  0
LINE
  5
70C
100
AcDbEntity
  8
ASSI
100
AcDbLine
 62
7
  6
CONTINUOUS
 10
154.6441245688
 20
53.0635347264
 11
156.2041245688
 21
53.0635347264
  0
LINE
  5
70D
100
AcDbEntity
  8
RACCORDO
100
AcDbLine
 62
7
  6
CONTINUOUS
 10
148.2760611266
 20
77.2119027783
 11
144.5721880111
 21
77.2119027783
  0
LINE
  5
70E
100
AcDbEntity
  8
RACCORDO
100
AcDbLine
 62
253
  6
CONTINUOUS
 10
148.2583122828
 20
77.2295101597
 11
144.5899378555
 21
77.2295101597
  0
LINE
  5
70F
100
AcDbEntity
  8
RACCORDO
100
AcDbLine
 62
253
  6
CONTINUOUS
 10
148.2584537453
 20
77.7294340073
 11
144.5897953924
 21
77.7294340073
  0
LINE
  5
710
100
AcDbEntity
  8
RACCORDO
100
AcDbLine
 62
253
  6
CONTINUOUS
 10
150.2581491356
 20
79.22920555
 11
149.758225288
 21
79.22920555
  0
LINE
  5
711
100
AcDbEntity
  8
RACCORDO
100
AcDbLine
 62
253
  6
CONTINUOUS
 10
142.5901000021
 20
79.22920555
 11
143.0900238497
 21
79.22920555
  0
LWPOLYLINE
  5
712
100
AcDbEntity
  8
RACCORDO
100
AcDbPolyline
 62
253
  6
CONTINUOUS
 90
25
 70
0
 10
144.5899378412
 20
77.2295101505
 10
144.4590767856
 20
77.2337960715
 10
144.3287953023
 20
77.2466324686
 10
144.1996510665
 20
77.2679608404
 10
144.0722016481
 20
77.2976848893
 10
143.9469865707
 20
77.3356747276
 10
143.8245260107
 20
77.3817708455
 10
143.7053393048
 20
77.4357779872
 10
143.5899413706
 20
77.4974629879
 10
143.4788257135
 20
77.566561994
 10
143.3724679116
 20
77.6427790778
 10
143.2713229967
 20
77.7257878688
 10
143.1758233297
 20
77.815233505
 10
143.0863776951
 20
77.9107331725
 10
143.0033689065
 20
78.0118780868
 10
142.927151825
 20
78.1182358877
 10
142.8580528209
 20
78.2293515438
 10
142.7963678222
 20
78.3447494765
 10
142.7423606824
 20
78.4639361804
 10
142.6962645546
 20
78.5863967724
 10
142.6582747108
 20
78.7116118826
 10
142.6285506821
 20
78.8390612265
 10
142.6072223398
 20
78.9682052402
 10
142.5943859502
 20
79.0984863884
 10
142.590099993
 20
79.2293469982
  0
LWPOLYLINE
  5
713
100
AcDbEntity
  8
RACCORDO
100
AcDbPolyline
 62
253
  6
CONTINUOUS
 90
25
 70
0
 10
144.5897953924
 20
77.7294340073
 10
144.4913089072
 20
77.7327075339
 10
144.3939803176
 20
77.742270446
 10
144.2978096237
 20
77.7581227436
 10
144.202365585
 20
77.7803859949
 10
144.1080794421
 20
77.8089386317
 10
144.0162449164
 20
77.8434159494
 10
143.9269234634
 20
77.8838931884
 10
143.8400536278
 20
77.9302951084
 10
143.7567447646
 20
77.982031284
 10
143.6770420718
 20
78.0391709125
 10
143.6009003516
 20
78.1016447967
 10
143.5292933649
 20
78.1686549189
 10
143.4622791459
 20
78.2402602261
 10
143.3997996606
 20
78.3164017713
 10
143.3426545675
 20
78.3961046963
 10
143.2909135428
 20
78.479413877
 10
143.2445069102
 20
78.5662844374
 10
143.2040253001
 20
78.6556068912
 10
143.1695440529
 20
78.7474412932
 10
143.1409878281
 20
78.8417275885
 10
143.1187212345
 20
78.9371761269
 10
143.1028658084
 20
79.0333570249
 10
143.0933000134
 20
79.1307001659
 10
143.0900238497
 20
79.22920555
  0
LINE
  5
714
100
AcDbEntity
  8
RACCORDO
100
AcDbLine
 62
253
  6
CONTINUOUS
 10
130.595183643
 20
85.1846248283
 11
130.4220049423
 21
85.2846095978
  0
LINE
  5
715
100
AcDbEntity
  8
RACCORDO
100
AcDbLine
 62
253
  6
CONTINUOUS
 10
133.2530654946
 20
84.9846552893
 11
133.3982897072
 21
84.9008100511
  0
LINE
  5
716
100
AcDbEntity
  8
RACCORDO
100
AcDbLine
 62
253
  6
CONTINUOUS
 10
131.138170677
 20
86.5250450493
 11
131.3113496335
 21
86.4250607105
  0
LINE
  5
717
100
AcDbEntity
  8
0
100
AcDbLine
 62
253
  6
CONTINUOUS
 10
133.5260378371
 20
84.8833549861
 11
133.5085827721
 21
84.9008100511
  0
LWPOLYLINE
  5
718
100
AcDbEntity
  8
RACCORDO
100
AcDbPolyline
 62
7
  6
CONTINUOUS
 90
13
 70
0
 10
124.9241245688
 20
98.2635042655
 10
124.925834833
 20
98.2374021386
 10
124.9309370094
 20
98.2117469603
 10
124.9393439906
 20
98.1869774389
 10
124.9509122317
 20
98.1635169821
 10
124.9654440189
 20
98.1417671762
 10
124.9826905966
 20
98.1221007542
 10
125.0023570186
 20
98.1048541764
 10
125.0241068245
 20
98.0903223893
 10
125.0475672813
 20
98.0787541482
 10
125.0723368028
 20
98.070347167
 10
125.097991981
 20
98.0652449906
 10
125.1240941079
 20
98.0635347264
  0
LWPOLYLINE
  5
719
100
AcDbEntity
  8
RACCORDO
100
AcDbPolyline
 62
253
  6
CONTINUOUS
 90
25
 70
0
 10
128.0727211128
 20
88.212055118
 10
128.0738122017
 20
88.1792244692
 10
128.0770003016
 20
88.1467792327
 10
128.0822854126
 20
88.1147194086
 10
128.0897079207
 20
88.0829011668
 10
128.0992274399
 20
88.0514683372
 10
128.1107228122
 20
88.0208524103
 10
128.124219376
 20
87.9910736337
 10
128.1396917929
 20
87.9621117598
 10
128.1569428901
 20
87.9343375354
 10
128.1759961056
 20
87.9077660092
 10
128.1968280014
 20
87.8823821327
 10
128.2191710905
 20
87.8585115074
 10
128.2430444083
 20
87.8361741814
 10
128.2684289195
 20
87.8153501067
 10
128.2950000308
 20
87.7963047413
 10
128.3227728992
 20
87.7790610842
 10
128.3517323677
 20
87.7635961364
 10
128.3815083726
 20
87.7501063583
 10
128.4121229882
 20
87.7386167892
 10
128.4435541401
 20
87.7291023898
 10
128.4753655419
 20
87.7216845039
 10
128.5074117649
 20
87.7164035793
 10
128.5398382377
 20
87.7132191681
 10
128.5726449604
 20
87.7121312704
  0
LWPOLYLINE
  5
71A
100
AcDbEntity
  8
RACCORDO
100
AcDbPolyline
 62
253
  6
CONTINUOUS
 90
25
 70
0
 10
126.5729495437
 20
88.2121840861
 10
126.577254902
 20
88.0813550987
 10
126.5901079297
 20
87.9511011733
 10
126.611450705
 20
87.8219799158
 10
126.641187721
 20
87.6945483809
 10
126.6791895231
 20
87.5693467167
 10
126.7252962939
 20
87.4468967486
 10
126.7793127635
 20
87.3277182713
 10
126.8410061273
 20
87.2123259143
 10
126.9101123506
 20
87.101213605
 10
126.9863356052
 20
86.9948569579
 10
127.0693495903
 20
86.8937111857
 10
127.1587990227
 20
86.7982091833
 10
127.2543010266
 20
86.7087597525
 10
127.3554468006
 20
86.6257457687
 10
127.4618034492
 20
86.5495225149
 10
127.5729157592
 20
86.4804162915
 10
127.6883081166
 20
86.4187229271
 10
127.8074865949
 20
86.3647064569
 10
127.9299410894
 20
86.3185981498
 10
128.0551474621
 20
86.2805954098
 10
128.1825697708
 20
86.2508608677
 10
128.3116626121
 20
86.2295218381
 10
128.4418734521
 20
86.2166697628
 10
128.5726449604
 20
86.2123597276
  0
LINE
  5
71B
100
AcDbEntity
  8
RACCORDO
100
AcDbLine
 62
253
  6
CONTINUOUS
 10
125.040867146
 20
113.5043378426
 11
125.0449822113
 21
113.3797336335
  0
LINE
  5
71C
100
AcDbEntity
  8
RACCORDO
100
AcDbLine
 62
253
  6
CONTINUOUS
 10
126.3073819917
 20
98.6227316102
 11
126.3032669264
 21
98.7473358193
  0
LINE
  5
71D
100
AcDbEntity
  8
RACCORDO
100
AcDbLine
 62
253
  6
CONTINUOUS
 10
125.2408399814
 20
113.6853478034
 11
125.2449543819
 21
113.5521935658
  0
LINE
  5
71E
100
AcDbEntity
  8
RACCORDO
100
AcDbLine
 62
253
  6
CONTINUOUS
 10
126.1074091563
 20
98.4417216494
 11
126.1032947558
 21
98.574875887
  0
LINE
  5
71F
100
AcDbEntity
  8
RACCORDO
100
AcDbLine
 62
253
  6
CONTINUOUS
 10
125.0449822113
 20
113.3797336335
 11
125.0491158383
 21
113.2239546327
  0
LINE
  5
720
100
AcDbEntity
  8
RACCORDO
100
AcDbLine
 62
253
  6
CONTINUOUS
 10
126.3032669264
 20
98.7473358193
 11
126.2991332994
 21
98.9031148201
  0
LINE
  5
721
100
AcDbEntity
  8
RACCORDO
100
AcDbLine
 62
253
  6
CONTINUOUS
 10
125.2449543819
 20
113.5521935658
 11
125.2490870338
 21
113.3850856556
  0
LINE
  5
722
100
AcDbEntity
  8
RACCORDO
100
AcDbLine
 62
253
  6
CONTINUOUS
 10
126.1032947558
 20
98.574875887
 11
126.0991621039
 21
98.7419837973
  0
LINE
  5
723
100
AcDbEntity
  8
RACCORDO
100
AcDbLine
 62
253
  6
CONTINUOUS
 10
125.0491158383
 20
113.2239546327
 11
125.0550758958
 21
112.9279864557
  0
LINE
  5
724
100
AcDbEntity
  8
RACCORDO
100
AcDbLine
 62
253
  6
CONTINUOUS
 10
126.2991332994
 20
98.9031148201
 11
126.2931732419
 21
99.1990829971
  0
LINE
  5
725
100
AcDbEntity
  8
RACCORDO
100
AcDbLine
 62
253
  6
CONTINUOUS
 10
125.2490870338
 20
113.3850856556
 11
125.2550450775
 21
113.0680739874
  0
LINE
  5
726
100
AcDbEntity
  8
RACCORDO
100
AcDbLine
 62
253
  6
CONTINUOUS
 10
126.0991621039
 20
98.7419837973
 11
126.0932040602
 21
99.0589954654
  0
LINE
  5
727
100
AcDbEntity
  8
RACCORDO
100
AcDbLine
 62
253
  6
CONTINUOUS
 10
125.0550758958
 20
112.9279864557
 11
125.0601231209
 21
112.58128923
  0
LINE
  5
728
100
AcDbEntity
  8
RACCORDO
100
AcDbLine
 62
253
  6
CONTINUOUS
 10
126.2931732419
 20
99.1990829971
 11
126.2881260168
 21
99.5457802229
  0
LINE
  5
729
100
AcDbEntity
  8
RACCORDO
100
AcDbLine
 62
253
  6
CONTINUOUS
 10
125.2550450775
 20
113.0680739874
 11
125.2614808644
 21
112.5690274069
  0
LINE
  5
72A
100
AcDbEntity
  8
RACCORDO
100
AcDbLine
 62
253
  6
CONTINUOUS
 10
126.0932040602
 20
99.0589954654
 11
126.0867682733
 21
99.5580420459
  0
LINE
  5
72B
100
AcDbEntity
  8
RACCORDO
100
AcDbLine
 62
253
  6
CONTINUOUS
 10
125.0601231209
 20
112.58128923
 11
125.0648513129
 21
112.1046425181
  0
LINE
  5
72C
100
AcDbEntity
  8
RACCORDO
100
AcDbLine
 62
253
  6
CONTINUOUS
 10
126.2881260168
 20
99.5457802229
 11
126.2833978248
 21
100.0224269347
  0
LINE
  5
72D
100
AcDbEntity
  8
RACCORDO
100
AcDbLine
 62
253
  6
CONTINUOUS
 10
125.2614808644
 20
112.5690274069
 11
125.2664043106
 21
111.9375203763
  0
LINE
  5
72E
100
AcDbEntity
  8
RACCORDO
100
AcDbLine
 62
253
  6
CONTINUOUS
 10
126.0867682733
 20
99.5580420459
 11
126.0818448271
 21
100.1895490766
  0
LINE
  5
72F
100
AcDbEntity
  8
RACCORDO
100
AcDbLine
 62
253
  6
CONTINUOUS
 10
125.0648513129
 20
112.1046425181
 11
125.0683687855
 21
111.4382095096
  0
LINE
  5
730
100
AcDbEntity
  8
RACCORDO
100
AcDbLine
 62
253
  6
CONTINUOUS
 10
126.2833978248
 20
100.0224269347
 11
126.2798803522
 21
100.6888599433
  0
LINE
  5
731
100
AcDbEntity
  8
RACCORDO
100
AcDbLine
 62
253
  6
CONTINUOUS
 10
125.2664043106
 20
111.9375203763
 11
125.2689419577
 21
111.1577790435
  0
LINE
  5
732
100
AcDbEntity
  8
RACCORDO
100
AcDbLine
 62
253
  6
CONTINUOUS
 10
126.0818448271
 20
100.1895490766
 11
126.07930718
 21
100.9692904094
  0
LINE
  5
733
100
AcDbEntity
  8
RACCORDO
100
AcDbLine
 62
7
  6
CONTINUOUS
 10
124.9241245688
 20
98.2635042655
 11
124.9241245688
 21
101.0635347264
  0
LINE
  5
734
100
AcDbEntity
  8
RACCORDO
100
AcDbLine
 62
7
  6
CONTINUOUS
 10
124.9241245688
 20
111.0635347264
 11
124.9241245688
 21
113.8635651874
  0
LINE
  5
735
100
AcDbEntity
  8
RACCORDO
100
AcDbLine
 62
7
  6
CONTINUOUS
 10
125.020127426
 20
110.4761832378
 11
125.020127426
 21
101.6508862151
  0
LINE
  5
736
100
AcDbEntity
  8
RACCORDO
100
AcDbLine
 62
253
  6
CONTINUOUS
 10
125.0683687855
 20
111.4382095096
 11
125.0690625343
 21
101.1599945677
  0
LINE
  5
737
100
AcDbEntity
  8
RACCORDO
100
AcDbLine
 62
253
  6
CONTINUOUS
 10
126.2798803522
 20
100.6888599433
 11
126.2791866034
 21
110.9670748852
  0
LINE
  5
738
100
AcDbEntity
  8
RACCORDO
100
AcDbLine
 62
7
  6
CONTINUOUS
 10
126.3281217117
 20
110.4761832378
 11
126.3281217117
 21
101.6508862151
  0
LINE
  5
739
100
AcDbEntity
  8
DRAFT
100
AcDbLine
 62
7
  6
CONTINUOUS
 10
126.4241245688
 20
111.0635347264
 11
126.4241245688
 21
110.7711776482
  0
LINE
  5
73A
100
AcDbEntity
  8
DRAFT
100
AcDbLine
 62
7
  6
CONTINUOUS
 10
126.4241245688
 20
101.3558918047
 11
126.4241245688
 21
101.0635347264
  0
LINE
  5
73B
100
AcDbEntity
  8
RACCORDO
100
AcDbLine
 62
7
  6
CONTINUOUS
 10
126.4241245688
 20
88.0632301167
 11
126.4241245688
 21
101.3135347264
  0
LINE
  5
73C
100
AcDbEntity
  8
RACCORDO
100
AcDbLine
 62
7
  6
CONTINUOUS
 10
126.4241245688
 20
110.8135347264
 11
126.4241245688
 21
124.0638393361
  0
LINE
  5
73D
100
AcDbEntity
  8
RACCORDO
100
AcDbLine
 62
7
  6
CONTINUOUS
 10
126.520127426
 20
110.4227226904
 11
126.520127426
 21
101.7043467625
  0
LINE
  5
73E
100
AcDbEntity
  8
RACCORDO
100
AcDbLine
 62
253
  6
CONTINUOUS
 10
126.5729495701
 20
88.2121841166
 11
126.5729495701
 21
123.9150143349
  0
LINE
  5
73F
100
AcDbEntity
  8
RACCORDO
100
AcDbLine
 62
253
  6
CONTINUOUS
 10
125.2689419577
 20
111.1577790435
 11
125.2690192404
 21
101.0666184897
  0
LINE
  5
740
100
AcDbEntity
  8
RACCORDO
100
AcDbLine
 62
253
  6
CONTINUOUS
 10
126.07930718
 20
100.9692904094
 11
126.0792298973
 21
111.0604509632
  0
LINE
  5
741
100
AcDbEntity
  8
RACCORDO
100
AcDbLine
 62
253
  6
CONTINUOUS
 10
125.0690625343
 20
101.1599945677
 11
125.0675852586
 21
100.4773320791
  0
LINE
  5
742
100
AcDbEntity
  8
RACCORDO
100
AcDbLine
 62
253
  6
CONTINUOUS
 10
126.2791866034
 20
110.9670748852
 11
126.2806638791
 21
111.6497373738
  0
LINE
  5
743
100
AcDbEntity
  8
RACCORDO
100
AcDbLine
 62
253
  6
CONTINUOUS
 10
125.2690192404
 20
101.0666184897
 11
125.2670334868
 21
100.3103157859
  0
LINE
  5
744
100
AcDbEntity
  8
RACCORDO
100
AcDbLine
 62
253
  6
CONTINUOUS
 10
126.0792298973
 20
111.0604509632
 11
126.0812156508
 21
111.8167536669
  0
LINE
  5
745
100
AcDbEntity
  8
RACCORDO
100
AcDbLine
 62
253
  6
CONTINUOUS
 10
125.0675852586
 20
100.4773320791
 11
125.0638726998
 21
99.904360784
  0
LINE
  5
746
100
AcDbEntity
  8
RACCORDO
100
AcDbLine
 62
253
  6
CONTINUOUS
 10
126.2806638791
 20
111.6497373738
 11
126.2843764379
 21
112.2227086689
  0
LINE
  5
747
100
AcDbEntity
  8
RACCORDO
100
AcDbLine
 62
253
  6
CONTINUOUS
 10
125.2670334868
 20
100.3103157859
 11
125.2627265977
 21
99.6864678901
  0
LINE
  5
748
100
AcDbEntity
  8
RACCORDO
100
AcDbLine
 62
253
  6
CONTINUOUS
 10
126.0812156508
 20
111.8167536669
 11
126.08552254
 21
112.4406015628
  0
LINE
  5
749
100
AcDbEntity
  8
RACCORDO
100
AcDbLine
 62
253
  6
CONTINUOUS
 10
125.0638726998
 20
99.904360784
 11
125.0585706431
 21
99.4274553801
  0
LINE
  5
74A
100
AcDbEntity
  8
RACCORDO
100
AcDbLine
 62
253
  6
CONTINUOUS
 10
126.2843764379
 20
112.2227086689
 11
126.2896784946
 21
112.6996140728
  0
LINE
  5
74B
100
AcDbEntity
  8
RACCORDO
100
AcDbLine
 62
253
  6
CONTINUOUS
 10
125.2627265977
 20
99.6864678901
 11
125.2568426542
 21
99.1781825679
  0
LINE
  5
74C
100
AcDbEntity
  8
RACCORDO
100
AcDbLine
 62
253
  6
CONTINUOUS
 10
126.08552254
 20
112.4406015628
 11
126.0914064835
 21
112.948886885
  0
LINE
  5
74D
100
AcDbEntity
  8
RACCORDO
100
AcDbLine
 62
253
  6
CONTINUOUS
 10
125.0585706431
 20
99.4274553801
 11
125.0531657351
 21
99.0939288179
  0
LINE
  5
74E
100
AcDbEntity
  8
RACCORDO
100
AcDbLine
 62
253
  6
CONTINUOUS
 10
126.2896784946
 20
112.6996140728
 11
126.2950834026
 21
113.0331406349
  0
LINE
  5
74F
100
AcDbEntity
  8
RACCORDO
100
AcDbLine
 62
253
  6
CONTINUOUS
 10
125.2568426542
 20
99.1781825679
 11
125.2511246928
 21
98.8393857922
  0
LINE
  5
750
100
AcDbEntity
  8
RACCORDO
100
AcDbLine
 62
253
  6
CONTINUOUS
 10
126.0914064835
 20
112.948886885
 11
126.0971244448
 21
113.2876836606
  0
LINE
  5
751
100
AcDbEntity
  8
RACCORDO
100
AcDbLine
 62
253
  6
CONTINUOUS
 10
125.0531657351
 20
99.0939288179
 11
125.0491158383
 21
98.9031148203
  0
LINE
  5
752
100
AcDbEntity
  8
RACCORDO
100
AcDbLine
 62
253
  6
CONTINUOUS
 10
126.2950834026
 20
113.0331406349
 11
126.2991332994
 21
113.2239546326
  0
LINE
  5
753
100
AcDbEntity
  8
RACCORDO
100
AcDbLine
 62
253
  6
CONTINUOUS
 10
125.2511246928
 20
98.8393857922
 11
125.2470341067
 21
98.6541394681
  0
LINE
  5
754
100
AcDbEntity
  8
RACCORDO
100
AcDbLine
 62
253
  6
CONTINUOUS
 10
126.0971244448
 20
113.2876836606
 11
126.101215031
 21
113.4729299847
  0
LINE
  5
755
100
AcDbEntity
  8
RACCORDO
100
AcDbLine
 62
253
  6
CONTINUOUS
 10
125.0491158383
 20
98.9031148203
 11
125.0449822113
 21
98.7473358183
  0
LINE
  5
756
100
AcDbEntity
  8
RACCORDO
100
AcDbLine
 62
253
  6
CONTINUOUS
 10
126.2991332994
 20
113.2239546326
 11
126.3032669264
 21
113.3797336345
  0
LWPOLYLINE
  5
757
100
AcDbEntity
  8
RACCORDO
100
AcDbPolyline
 62
253
  6
CONTINUOUS
 90
14
 70
0
 10
125.2470341067
 20
98.6541394681
 10
125.2428878123
 20
98.5041732822
 10
125.2408399814
 20
98.4417216494
 10
125.2388053055
 20
98.3869679963
 10
125.2368069862
 20
98.3394265268
 10
125.2348477336
 20
98.298648321
 10
125.2329248376
 20
98.2641679994
 10
125.2310533688
 20
98.2354906937
 10
125.229235529
 20
98.2121688817
 10
125.2274691164
 20
98.1937537406
 10
125.225762597
 20
98.1797858093
 10
125.2241187927
 20
98.1698447424
 10
125.2225348816
 20
98.1635318496
 10
125.2210108636
 20
98.1604514822
  0
LWPOLYLINE
  5
758
100
AcDbEntity
  8
RACCORDO
100
AcDbPolyline
 62
253
  6
CONTINUOUS
 90
14
 70
0
 10
126.101215031
 20
113.4729299847
 10
126.1053613254
 20
113.6228961706
 10
126.1074091563
 20
113.6853478034
 10
126.1094438322
 20
113.7401014565
 10
126.1114421515
 20
113.7876429261
 10
126.1134014041
 20
113.8284211318
 10
126.1153243001
 20
113.8629014534
 10
126.1171957689
 20
113.8915787592
 10
126.1190136087
 20
113.9149005712
 10
126.1207800213
 20
113.9333157122
 10
126.1224865407
 20
113.9472836436
 10
126.124130345
 20
113.9572247104
 10
126.1257142561
 20
113.9635376033
 10
126.127238274
 20
113.9666179707
  0
LWPOLYLINE
  5
759
100
AcDbEntity
  8
RACCORDO
100
AcDbPolyline
 62
253
  6
CONTINUOUS
 90
13
 70
0
 10
125.0449822113
 20
98.7473358183
 10
125.0408671459
 20
98.6227316109
 10
125.0388322561
 20
98.571906285
 10
125.0368337684
 20
98.5273884723
 10
125.0348743899
 20
98.4891889984
 10
125.0329514136
 20
98.4572970377
 10
125.0310798906
 20
98.4304067704
 10
125.0292618767
 20
98.4084928516
 10
125.0274953161
 20
98.3915806263
 10
125.0257890922
 20
98.3784403091
 10
125.0241461662
 20
98.3686619716
 10
125.022563577
 20
98.3626555424
 10
125.0210413246
 20
98.3604210212
  0
LWPOLYLINE
  5
75A
100
AcDbEntity
  8
RACCORDO
100
AcDbPolyline
 62
253
  6
CONTINUOUS
 90
13
 70
0
 10
126.3032669264
 20
113.3797336345
 10
126.3073819917
 20
113.504337842
 10
126.3094168816
 20
113.5551631678
 10
126.3114153693
 20
113.5996809805
 10
126.3133747478
 20
113.6378804544
 10
126.3152977241
 20
113.6697724152
 10
126.3171692471
 20
113.6966626825
 10
126.318987261
 20
113.7185766012
 10
126.3207538216
 20
113.7354888266
 10
126.3224600455
 20
113.7486291437
 10
126.3241029715
 20
113.7584074812
 10
126.3256855607
 20
113.7644139105
 10
126.3272078131
 20
113.7666484316
  0
LWPOLYLINE
  5
75B
100
AcDbEntity
  8
RACCORDO
100
AcDbPolyline
 62
253
  6
CONTINUOUS
 90
13
 70
0
 10
132.4050969881
 20
124.8830331085
 10
132.4318163511
 20
124.9585914687
 10
132.4581402969
 20
125.0313530084
 10
132.4841112034
 20
125.1012655215
 10
132.5097525801
 20
125.1682426461
 10
132.5351118658
 20
125.2323078271
 10
132.5602830536
 20
125.293572079
 10
132.5853244928
 20
125.3520234058
 10
132.6102652435
 20
125.4076304
 10
132.6351711379
 20
125.4604579133
 10
132.6600963925
 20
125.5104922039
 10
132.6850584991
 20
125.5576844568
 10
132.7100726066
 20
125.6020277818
  0
LWPOLYLINE
  5
75C
100
AcDbEntity
  8
RACCORDO
100
AcDbPolyline
 62
253
  6
CONTINUOUS
 90
19
 70
0
 10
133.4262441954
 20
126.842459855
 10
133.4366642932
 20
126.8632353593
 10
133.4446027812
 20
126.8850814942
 10
133.4499523591
 20
126.9077029767
 10
133.4526407194
 20
126.9307940441
 10
133.4526315248
 20
126.9540425863
 10
133.4499248998
 20
126.9771343649
 10
133.4445574282
 20
126.9997572603
 10
133.4366016596
 20
127.0216054905
 10
133.4261651278
 20
127.0423837443
 10
133.413388898
 20
127.0618111729
 10
133.39844566
 20
127.0796251858
 10
133.3815373936
 20
127.0955850001
 10
133.3628926393
 20
127.1094748955
 10
133.3427634084
 20
127.1211071293
 10
133.3214217773
 20
127.1303244747
 10
133.2991562098
 20
127.1370023456
 10
133.276267658
 20
127.1410504808
 10
133.2530654946
 20
127.1424141635
  0
LWPOLYLINE
  5
75D
100
AcDbEntity
  8
RACCORDO
100
AcDbPolyline
 62
253
  6
CONTINUOUS
 90
13
 70
0
 10
132.5368960725
 20
125.7020027986
 10
132.5079095743
 20
125.6485388299
 10
132.4806969735
 20
125.592507439
 10
132.4552582702
 20
125.5339086257
 10
132.4316456369
 20
125.4726652
 10
132.4098069011
 20
125.4088543519
 10
132.3895855454
 20
125.3427076519
 10
132.3710182397
 20
125.2742829372
 10
132.354068314
 20
125.2035223704
 10
132.3384692417
 20
125.13048401
 10
132.3241321805
 20
125.0551872087
 10
132.3111459726
 20
124.9776126138
 10
132.299510618
 20
124.8977602251
  0
LINE
  5
75E
100
AcDbEntity
  8
RACCORDO
100
AcDbLine
 62
253
  6
CONTINUOUS
 10
133.2530654946
 20
126.9424446245
 11
132.5368960725
 21
125.7020027986
  0
LINE
  5
75F
100
AcDbEntity
  8
RACCORDO
100
AcDbLine
 62
253
  6
CONTINUOUS
 10
133.4262441954
 20
126.842459855
 11
132.7101243142
 21
125.6021038243
  0
LINE
  5
760
100
AcDbEntity
  8
RACCORDO
100
AcDbLine
 62
7
  6
CONTINUOUS
 10
133.1961379731
 20
126.2762137103
 11
133.571468408
 21
126.9263050932
  0
LINE
  5
761
100
AcDbEntity
  8
RACCORDO
100
AcDbLine
 62
253
  6
CONTINUOUS
 10
132.7101243142
 20
125.6021038243
 11
132.8367501305
 21
125.8140762775
  0
LINE
  5
762
100
AcDbEntity
  8
RACCORDO
100
AcDbLine
 62
253
  6
CONTINUOUS
 10
132.8367501305
 20
125.8140762775
 11
132.9071327014
 21
125.9305637991
  0
LWPOLYLINE
  5
763
100
AcDbEntity
  8
RACCORDO
100
AcDbPolyline
 62
253
  6
CONTINUOUS
 90
10
 70
0
 10
132.9071327014
 20
125.9305637991
 10
132.9663112681
 20
126.0273154458
 10
132.9917013308
 20
126.0683034696
 10
133.0143437074
 20
126.1044456738
 10
133.0343676488
 20
126.1359532263
 10
133.0516439041
 20
126.1626149593
 10
133.065832359
 20
126.1838727217
 10
133.0768196418
 20
126.199540463
 10
133.0847191242
 20
126.2098042337
 10
133.0895308061
 20
126.2146640337
  0
LINE
  5
764
100
AcDbEntity
  8
RACCORDO
100
AcDbLine
 62
253
  6
CONTINUOUS
 10
132.2477067168
 20
124.4149524882
 11
132.5259183768
 21
124.8382240581
  0
LINE
  5
765
100
AcDbEntity
  8
RACCORDO
100
AcDbLine
 62
253
  6
CONTINUOUS
 10
132.5259183768
 20
124.8382240581
 11
132.8263814608
 21
125.2895084881
  0
LINE
  5
766
100
AcDbEntity
  8
RACCORDO
100
AcDbLine
 62
253
  6
CONTINUOUS
 10
132.8263814608
 20
125.2895084881
 11
132.9723418222
 21
125.5059691838
  0
LINE
  5
767
100
AcDbEntity
  8
RACCORDO
100
AcDbLine
 62
253
  6
CONTINUOUS
 10
132.9723418222
 20
125.5059691838
 11
133.0537605662
 21
125.6253884385
  0
LINE
  5
768
100
AcDbEntity
  8
RACCORDO
100
AcDbLine
 62
253
  6
CONTINUOUS
 10
133.0537605662
 20
125.6253884385
 11
133.121928392
 21
125.7241235475
  0
LWPOLYLINE
  5
769
100
AcDbEntity
  8
RACCORDO
100
AcDbPolyline
 62
253
  6
CONTINUOUS
 90
8
 70
0
 10
133.121928392
 20
125.7241235475
 10
133.1768865873
 20
125.8025247903
 10
133.1998291107
 20
125.8346862856
 10
133.2196185707
 20
125.8617130418
 10
133.2358425792
 20
125.8834133441
 10
133.2483636733
 20
125.8995956475
 10
133.2573193159
 20
125.910079807
 10
133.2627095069
 20
125.9147097252
  0
LINE
  5
76A
100
AcDbEntity
  8
RACCORDO
100
AcDbLine
 62
253
  6
CONTINUOUS
 10
130.4220049423
 20
126.842459855
 11
130.595183643
 21
126.9424446245
  0
LINE
  5
76B
100
AcDbEntity
  8
RACCORDO
100
AcDbLine
 62
253
  6
CONTINUOUS
 10
133.2530654946
 20
127.1424141635
 11
133.3982897072
 21
127.2262594018
  0
LINE
  5
76C
100
AcDbEntity
  8
RACCORDO
100
AcDbLine
 62
253
  6
CONTINUOUS
 10
131.3113500704
 20
125.7020079856
 11
131.1381711992
 21
125.6020235036
  0
LINE
  5
76D
100
AcDbEntity
  8
RACCORDO
100
AcDbLine
 62
253
  6
CONTINUOUS
 10
133.4262441954
 20
126.842459855
 11
133.571468408
 21
126.9263050932
  0
LINE
  5
76E
100
AcDbEntity
  8
RACCORDO
100
AcDbLine
 62
253
  6
CONTINUOUS
 10
133.0895308061
 20
126.2146640337
 11
133.1961379731
 21
126.2762137103
  0
LINE
  5
76F
100
AcDbEntity
  8
RACCORDO
100
AcDbLine
 62
253
  6
CONTINUOUS
 10
133.2627095069
 20
125.9147097252
 11
133.3693166739
 21
125.9762594018
  0
LINE
  5
770
100
AcDbEntity
  8
RACCORDO
100
AcDbLine
 62
253
  6
CONTINUOUS
 10
133.4262441954
 20
85.2846095978
 11
133.571468408
 21
85.2007643596
  0
LINE
  5
771
100
AcDbEntity
  8
RACCORDO
100
AcDbLine
 62
253
  6
CONTINUOUS
 10
133.1961379731
 20
85.8508557425
 11
133.0895308061
 21
85.9124054191
  0
LINE
  5
772
100
AcDbEntity
  8
RACCORDO
100
AcDbLine
 62
253
  6
CONTINUOUS
 10
133.3693166739
 20
86.1508100511
 11
133.2627143803
 21
86.212356914
  0
LWPOLYLINE
  5
773
100
AcDbEntity
  8
RACCORDO
100
AcDbPolyline
 62
253
  6
CONTINUOUS
 90
9
 70
0
 10
133.2627242329
 20
86.2123569226
 10
133.258069868
 20
86.2164230115
 10
133.2500448518
 20
86.2256253526
 10
133.2386491845
 20
86.2399986402
 10
133.2239505717
 20
86.2594976595
 10
133.2058813078
 20
86.2841531362
 10
133.1842382756
 20
86.3142115367
 10
133.1589739024
 20
86.3498467198
 10
133.130135761
 20
86.3910471018
  0
LWPOLYLINE
  5
774
100
AcDbEntity
  8
RACCORDO
100
AcDbPolyline
 62
253
  6
CONTINUOUS
 90
9
 70
0
 10
133.0895308061
 20
85.9124054191
 10
133.0853237208
 20
85.9164647036
 10
133.0781955221
 20
85.9256016006
 10
133.06814621
 20
85.9398161102
 10
133.055227356
 20
85.9590150526
 10
133.0393873886
 20
85.9832916074
 10
133.0204715933
 20
86.0129253139
 10
132.9984554346
 20
86.0479513456
 10
132.9733634481
 20
86.088334529
  0
LINE
  5
775
100
AcDbEntity
  8
0
100
AcDbLine
 62
253
  6
CONTINUOUS
 10
133.8259921456
 20
85.1833092947
 11
133.8085370807
 21
85.2007643596
  0
LINE
  5
776
100
AcDbEntity
  8
DRAFT
100
AcDbLine
 62
7
  6
CONTINUOUS
 10
133.8085370807
 20
86.1508100511
 11
133.8259921456
 21
86.1333549861
  0
LINE
  5
777
100
AcDbEntity
  8
RACCORDO
100
AcDbLine
 62
253
  6
CONTINUOUS
 10
126.2241550298
 20
98.0635347264
 11
126.1272386309
 21
98.1604511253
  0
LINE
  5
778
100
AcDbEntity
  8
RACCORDO
100
AcDbLine
 62
253
  6
CONTINUOUS
 10
126.4241245688
 20
98.2635042655
 11
126.3272078131
 21
98.3604210212
  0
LINE
  5
779
100
AcDbEntity
  8
RACCORDO
100
AcDbLine
 62
253
  6
CONTINUOUS
 10
133.130135761
 20
86.3910471018
 11
133.0614719809
 21
86.4903969966
  0
LWPOLYLINE
  5
77A
100
AcDbEntity
  8
RACCORDO
100
AcDbPolyline
 62
253
  6
CONTINUOUS
 90
12
 70
0
 10
126.3272078131
 20
98.3604210212
 10
126.3256855606
 20
98.362655535
 10
126.3241029715
 20
98.3686619604
 10
126.3224600455
 20
98.3784402975
 10
126.3207538216
 20
98.3915806202
 10
126.318987261
 20
98.4084928546
 10
126.3171692471
 20
98.4304067788
 10
126.3152977241
 20
98.4572970439
 10
126.3133747478
 20
98.4891889989
 10
126.3114153693
 20
98.5273884689
 10
126.3094168816
 20
98.571906282
 10
126.3073819917
 20
98.6227316102
  0
LINE
  5
77B
100
AcDbEntity
  8
RACCORDO
100
AcDbLine
 62
253
  6
CONTINUOUS
 10
133.0614719809
 20
86.4903969966
 11
132.9783811221
 21
86.6122012271
  0
LINE
  5
77C
100
AcDbEntity
  8
RACCORDO
100
AcDbLine
 62
253
  6
CONTINUOUS
 10
132.9783811221
 20
86.6122012271
 11
132.8814067869
 21
86.755544051
  0
LINE
  5
77D
100
AcDbEntity
  8
RACCORDO
100
AcDbLine
 62
253
  6
CONTINUOUS
 10
132.8814067869
 20
86.755544051
 11
132.7121270654
 21
87.0082790024
  0
LWPOLYLINE
  5
77E
100
AcDbEntity
  8
RACCORDO
100
AcDbPolyline
 62
253
  6
CONTINUOUS
 90
4
 70
0
 10
132.7121270654
 20
87.0082790024
 10
132.4528157283
 20
87.3998010154
 10
132.3852818519
 20
87.5030484824
 10
132.2476997131
 20
87.7121277123
  0
LINE
  5
77F
100
AcDbEntity
  8
RACCORDO
100
AcDbLine
 62
253
  6
CONTINUOUS
 10
132.9733634481
 20
86.088334529
 11
132.9136462952
 21
86.185799059
  0
LINE
  5
780
100
AcDbEntity
  8
RACCORDO
100
AcDbLine
 62
253
  6
CONTINUOUS
 10
132.9136462952
 20
86.185799059
 11
132.841345028
 21
86.3053529764
  0
LINE
  5
781
100
AcDbEntity
  8
RACCORDO
100
AcDbLine
 62
253
  6
CONTINUOUS
 10
132.841345028
 20
86.3053529764
 11
132.7101171193
 21
86.5249780869
  0
LINE
  5
782
100
AcDbEntity
  8
RACCORDO
100
AcDbLine
 62
253
  6
CONTINUOUS
 10
132.5368926089
 20
86.4250726534
 11
133.2530654946
 21
85.1846248283
  0
LINE
  5
783
100
AcDbEntity
  8
RACCORDO
100
AcDbLine
 62
253
  6
CONTINUOUS
 10
132.7101171193
 20
86.5249780869
 11
133.4262441954
 21
85.2846095978
  0
LINE
  5
784
100
AcDbEntity
  8
RACCORDO
100
AcDbLine
 62
7
  6
CONTINUOUS
 10
133.571468408
 20
85.2007643596
 11
133.1961379731
 21
85.8508557425
  0
LWPOLYLINE
  5
785
100
AcDbEntity
  8
RACCORDO
100
AcDbPolyline
 62
253
  6
CONTINUOUS
 90
13
 70
0
 10
132.7100717388
 20
86.5250426216
 10
132.6851735773
 20
86.5691723657
 10
132.6603057072
 20
86.6161687908
 10
132.6354547394
 20
86.6660286577
 10
132.6106061294
 20
86.7187003679
 10
132.5857047586
 20
86.7741782782
 10
132.5606810825
 20
86.8325460695
 10
132.5355112048
 20
86.8937671452
 10
132.5101357465
 20
86.9578378947
 10
132.4844481271
 20
87.0249101541
 10
132.4583959967
 20
87.095023491
 10
132.4319597839
 20
87.1680815182
 10
132.4050976674
 20
87.2440343449
  0
LWPOLYLINE
  5
786
100
AcDbEntity
  8
RACCORDO
100
AcDbPolyline
 62
253
  6
CONTINUOUS
 90
12
 70
0
 10
126.1272386063
 20
98.1604511254
 10
126.1257144407
 20
98.163531298
 10
126.1241304188
 20
98.1698443744
 10
126.1224865407
 20
98.1797858093
 10
126.1207799967
 20
98.1937539672
 10
126.1190135964
 20
98.2121690223
 10
126.1171957689
 20
98.2354906937
 10
126.1153243001
 20
98.2641679994
 10
126.1134014041
 20
98.298648321
 10
126.1114421515
 20
98.3394265268
 10
126.1094438322
 20
98.3869679963
 10
126.1074091563
 20
98.4417216494
  0
LINE
  5
787
100
AcDbEntity
  8
RACCORDO
100
AcDbLine
 62
253
  6
CONTINUOUS
 10
132.4050995713
 20
87.2440346106
 11
132.3801512712
 21
87.3159391904
  0
LINE
  5
788
100
AcDbEntity
  8
RACCORDO
100
AcDbLine
 62
253
  6
CONTINUOUS
 10
132.3801512712
 20
87.3159391904
 11
132.3287929869
 21
87.4672977756
  0
LINE
  5
789
100
AcDbEntity
  8
RACCORDO
100
AcDbLine
 62
253
  6
CONTINUOUS
 10
132.3287929869
 20
87.4672977756
 11
132.2476973935
 21
87.7121312704
  0
LWPOLYLINE
  5
78A
100
AcDbEntity
  8
RACCORDO
100
AcDbPolyline
 62
253
  6
CONTINUOUS
 90
7
 70
0
 10
132.2476977332
 20
87.7121277123
 10
132.2552431169
 20
87.6264467042
 10
132.2632246207
 20
87.5428500597
 10
132.2716422446
 20
87.4613377787
 10
132.2804959886
 20
87.3819098612
 10
132.2897858526
 20
87.3045663072
 10
132.2995118368
 20
87.2293071168
  0
LINE
  5
78B
100
AcDbEntity
  8
RACCORDO
100
AcDbLine
 62
7
  6
CONTINUOUS
 10
127.9172834987
 20
108.6541601082
 11
127.9172834987
 21
103.4729093446
  0
LINE
  5
78C
100
AcDbEntity
  8
DRAFT
100
AcDbLine
 62
7
  6
CONTINUOUS
 10
128.0079088805
 20
108.5635347264
 11
128.0079088805
 21
103.5635347264
  0
LINE
  5
78D
100
AcDbEntity
  8
RACCORDO
100
AcDbLine
 62
253
  6
CONTINUOUS
 10
128.0727211128
 20
123.9150143349
 11
128.0727211128
 21
108.654301064
  0
LINE
  5
78E
100
AcDbEntity
  8
RACCORDO
100
AcDbLine
 62
253
  6
CONTINUOUS
 10
128.0727211128
 20
103.4727683888
 11
128.0727211128
 21
88.212055118
  0
LINE
  5
78F
100
AcDbEntity
  8
RACCORDO
100
AcDbLine
 62
253
  6
CONTINUOUS
 10
128.52020359
 20
103.4989509862
 11
128.52020359
 21
103.5635347264
  0
LINE
  5
790
100
AcDbEntity
  8
RACCORDO
100
AcDbLine
 62
253
  6
CONTINUOUS
 10
128.52020359
 20
108.5635347264
 11
128.52020359
 21
108.6281184667
  0
LINE
  5
791
100
AcDbEntity
  8
RACCORDO
100
AcDbLine
 62
253
  6
CONTINUOUS
 10
128.5726449604
 20
87.7121312704
 11
128.5726449604
 21
86.2123597276
  0
LINE
  5
792
100
AcDbEntity
  8
RACCORDO
100
AcDbLine
 62
253
  6
CONTINUOUS
 10
128.5726449604
 20
124.4149381825
 11
128.5726449612
 21
125.9147097252
  0
LINE
  5
793
100
AcDbEntity
  8
RACCORDO
100
AcDbLine
 62
7
  6
CONTINUOUS
 10
128.6388591727
 20
123.3563962461
 11
128.6388591727
 21
108.654301064
  0
LINE
  5
794
100
AcDbEntity
  8
RACCORDO
100
AcDbLine
 62
7
  6
CONTINUOUS
 10
128.6388591727
 20
103.4727683888
 11
128.6388591727
 21
88.7706732068
  0
LINE
  5
795
100
AcDbEntity
  8
RACCORDO
100
AcDbLine
 62
7
  6
CONTINUOUS
 10
128.6741245688
 20
123.3211308499
 11
128.6741245688
 21
108.6508100511
  0
LINE
  5
796
100
AcDbEntity
  8
RACCORDO
100
AcDbLine
 62
7
  6
CONTINUOUS
 10
128.6741245688
 20
103.4762594018
 11
128.6741245688
 21
88.8059386029
  0
LINE
  5
797
100
AcDbEntity
  8
DRAFT
100
AcDbLine
 62
7
  6
CONTINUOUS
 10
128.9241245688
 20
108.5635347264
 11
128.9241245688
 21
103.5635347264
  0
LINE
  5
798
100
AcDbEntity
  8
0
100
AcDbLine
 62
7
  6
CONTINUOUS
 10
129.0209916549
 20
126.0111635502
 11
129.0209916549
 21
127.5112853871
  0
LINE
  5
799
100
AcDbEntity
  8
0
100
AcDbLine
 62
253
  6
CONTINUOUS
 10
129.039518467
 20
125.9988139101
 11
129.039518467
 21
127.498935747
  0
LINE
  5
79A
100
AcDbEntity
  8
0
100
AcDbLine
 62
7
  6
CONTINUOUS
 10
129.3241245688
 20
125.9937144667
 11
129.3241245688
 21
127.3638393129
  0
LINE
  5
79B
100
AcDbEntity
  8
0
100
AcDbLine
 62
253
  6
CONTINUOUS
 10
129.3394156645
 20
127.4853861387
 11
129.3394156645
 21
127.5006355615
  0
LINE
  5
79C
100
AcDbEntity
  8
0
100
AcDbLine
 62
253
  6
CONTINUOUS
 10
129.3489347227
 20
125.9813131694
 11
129.3489347227
 21
127.3390291591
  0
LINE
  5
79D
100
AcDbEntity
  8
0
100
AcDbLine
 62
253
  6
CONTINUOUS
 10
129.6487519708
 20
125.9762594018
 11
129.6487519708
 21
127.3390291591
  0
LINE
  5
79E
100
AcDbEntity
  8
0
100
AcDbLine
 62
253
  6
CONTINUOUS
 10
129.8486301362
 20
127.8387245726
 11
129.8486301362
 21
127.5389073245
  0
LINE
  5
79F
100
AcDbEntity
  8
DRAFT
100
AcDbLine
 62
7
  6
CONTINUOUS
 10
129.9887083091
 20
103.4989509862
 11
129.9887083091
 21
108.6281184667
  0
LINE
  5
7A0
100
AcDbEntity
  8
DRAFT
100
AcDbLine
 62
7
  6
CONTINUOUS
 10
130.0113998935
 20
103.4762594018
 11
130.0113998935
 21
108.6508100511
  0
LINE
  5
7A1
100
AcDbEntity
  8
0
100
AcDbLine
 62
7
  6
CONTINUOUS
 10
130.0222569921
 20
85.1833092947
 11
130.0222569921
 21
86.1333549861
  0
LINE
  5
7A2
100
AcDbEntity
  8
0
100
AcDbLine
 62
7
  6
CONTINUOUS
 10
130.039712057
 20
85.2007643596
 11
130.039712057
 21
86.1508100511
  0
LINE
  5
7A3
100
AcDbEntity
  8
0
100
AcDbLine
 62
253
  6
CONTINUOUS
 10
130.2800227868
 20
127.9222550933
 11
130.2800227868
 21
127.8635347264
  0
LINE
  5
7A4
100
AcDbEntity
  8
0
100
AcDbLine
 62
7
  6
CONTINUOUS
 10
130.3141245688
 20
127.8635347264
 11
130.3141245688
 21
161.0635347264
  0
LINE
  5
7A5
100
AcDbEntity
  8
0
100
AcDbLine
 62
7
  6
CONTINUOUS
 10
130.3141245688
 20
162.0635347264
 11
130.3141245688
 21
172.0635347264
  0
LINE
  5
7A6
100
AcDbEntity
  8
RACCORDO
100
AcDbLine
 62
253
  6
CONTINUOUS
 10
130.595183643
 20
84.9846552893
 11
130.595183643
 21
85.1846248283
  0
LINE
  5
7A7
100
AcDbEntity
  8
RACCORDO
100
AcDbLine
 62
253
  6
CONTINUOUS
 10
130.595183643
 20
126.9424446245
 11
130.595183643
 21
127.1424141635
  0
LINE
  5
7A8
100
AcDbEntity
  8
0
100
AcDbLine
 62
7
  6
CONTINUOUS
 10
131.0241245688
 20
161.0635347264
 11
131.0241245688
 21
162.0635347264
  0
LINE
  5
7A9
100
AcDbEntity
  8
0
100
AcDbLine
 62
253
  6
CONTINUOUS
 10
129.0395785601
 20
127.5057334725
 11
129.039518467
 21
127.498935747
  0
LWPOLYLINE
  5
7AA
100
AcDbEntity
  8
0
100
AcDbPolyline
 62
253
  6
CONTINUOUS
 90
19
 70
0
 10
129.3394301131
 20
127.5006355615
 10
129.3399251908
 20
127.5344754946
 10
129.3411023808
 20
127.5681261407
 10
129.3429616833
 20
127.6013437116
 10
129.3455189097
 20
127.6338748618
 10
129.3487582486
 20
127.665491473
 10
129.3526322649
 20
127.6959888231
 10
129.3571671837
 20
127.7251346903
 10
129.36233678
 20
127.7527029983
 10
129.3680149443
 20
127.7785005343
 10
129.3741944264
 20
127.8023245402
 10
129.3808824765
 20
127.8239629413
 10
129.3879747352
 20
127.8432228148
 10
129.3955096233
 20
127.8599546898
 10
129.40344872
 20
127.8739775505
 10
129.4115724034
 20
127.8851152246
 10
129.4198074662
 20
127.893282547
 10
129.4282271155
 20
127.8984453508
 10
129.4368313516
 20
127.9005746395
  0
LWPOLYLINE
  5
7AB
100
AcDbEntity
  8
0
100
AcDbPolyline
 62
253
  6
CONTINUOUS
 90
19
 70
0
 10
129.3489347227
 20
127.3390291591
 10
129.3508659962
 20
127.3825696021
 10
129.356582078
 20
127.4257764347
 10
129.3660392285
 20
127.4683214709
 10
129.3791651913
 20
127.5098815794
 10
129.3958600593
 20
127.5501410855
 10
129.4159970947
 20
127.5887941451
 10
129.4394231365
 20
127.6255470618
 10
129.4659600167
 20
127.6601207925
 10
129.4954063638
 20
127.692252927
 10
129.527538474
 20
127.7216992576
 10
129.562112156
 20
127.7482361103
 10
129.5988650383
 20
127.7716621431
 10
129.637518104
 20
127.7917991935
 10
129.6777776387
 20
127.8084940819
 10
129.7193377755
 20
127.8216200584
 10
129.7618828303
 20
127.8310772153
 10
129.8050896794
 20
127.8367932996
 10
129.8486301362
 20
127.8387245726
  0
LWPOLYLINE
  5
7AC
100
AcDbEntity
  8
0
100
AcDbPolyline
 62
253
  6
CONTINUOUS
 90
19
 70
0
 10
129.6487519708
 20
127.3390291591
 10
129.6495432962
 20
127.3566007015
 10
129.6518003499
 20
127.3738027395
 10
129.6555231318
 20
127.390635273
 10
129.6607623503
 20
127.407228079
 10
129.6674672971
 20
127.4234513804
 10
129.675485847
 20
127.4389158465
 10
129.6848473411
 20
127.4535965148
 10
129.6955224384
 20
127.4675183476
 10
129.707270991
 20
127.4803669009
 10
129.7201177419
 20
127.4921174343
 10
129.734037948
 20
127.5027946881
 10
129.748717233
 20
127.5121584391
 10
129.7641794975
 20
127.5201793394
 10
129.7804008408
 20
127.5268867369
 10
129.7969951842
 20
127.5321284521
 10
129.8138338348
 20
127.5358537585
 10
129.8310454854
 20
127.5381133827
 10
129.8486301362
 20
127.5389073245
  0
LINE
  5
7AD
100
AcDbEntity
  8
RACCORDO
100
AcDbLine
 62
253
  6
CONTINUOUS
 10
132.2582253741
 20
124.5304109465
 11
132.2476987243
 21
124.4149524882
  0
LWPOLYLINE
  5
7AE
100
AcDbEntity
  8
RACCORDO
100
AcDbPolyline
 62
253
  6
CONTINUOUS
 90
7
 70
0
 10
132.299510618
 20
124.8977602251
 10
132.2929504705
 20
124.8486968968
 10
132.286623342
 20
124.7984995663
 10
132.2805292326
 20
124.7471682336
 10
132.2747110776
 20
124.6947182209
 10
132.2691259416
 20
124.641134206
 10
132.2582253741
 20
124.5304109465
  0
LINE
  5
7AF
100
AcDbEntity
  8
RACCORDO
100
AcDbLine
 62
253
  6
CONTINUOUS
 10
132.2476973935
 20
124.4149381825
 11
132.320793523
 21
124.6358684221
  0
LINE
  5
7B0
100
AcDbEntity
  8
RACCORDO
100
AcDbLine
 62
253
  6
CONTINUOUS
 10
132.320793523
 20
124.6358684221
 11
132.3553762371
 21
124.7386058864
  0
LWPOLYLINE
  5
7B1
100
AcDbEntity
  8
RACCORDO
100
AcDbPolyline
 62
253
  6
CONTINUOUS
 90
3
 70
0
 10
132.3553762371
 20
124.7386058864
 10
132.3888067991
 20
124.8362083624
 10
132.4050988913
 20
124.8830328429
  0
LINE
  5
7B2
100
AcDbEntity
  8
RACCORDO
100
AcDbLine
 62
253
  6
CONTINUOUS
 10
126.127238274
 20
113.9666179707
 11
126.2241550298
 21
114.0635347264
  0
LINE
  5
7B3
100
AcDbEntity
  8
RACCORDO
100
AcDbLine
 62
253
  6
CONTINUOUS
 10
126.3272078131
 20
113.7666484316
 11
126.4241245688
 21
113.8635651874
  0
LINE
  5
7B4
100
AcDbEntity
  8
RACCORDO
100
AcDbLine
 62
7
  6
CONTINUOUS
 10
126.3366969278
 20
110.9761070853
 11
126.4241245688
 21
111.0635347264
  0
LINE
  5
7B5
100
AcDbEntity
  8
0
100
AcDbLine
 62
253
  6
CONTINUOUS
 10
143.8244291553
 20
127.8635347264
 11
143.7996190015
 21
127.8387245726
  0
LINE
  5
7B6
100
AcDbEntity
  8
0
100
AcDbLine
 62
253
  6
CONTINUOUS
 10
144.3241245688
 20
127.3638393129
 11
144.299314415
 21
127.3390291591
  0
LINE
  5
7B7
100
AcDbEntity
  8
0
100
AcDbLine
 62
253
  6
CONTINUOUS
 10
144.2011262204
 20
127.8937144667
 11
144.2273031687
 21
127.9111635502
  0
LINE
  5
7B8
100
AcDbEntity
  8
0
100
AcDbLine
 62
253
  6
CONTINUOUS
 10
144.6010805345
 20
127.4938363036
 11
144.6272574828
 21
127.5112853871
  0
LINE
  5
7B9
100
AcDbEntity
  8
DRAFT
100
AcDbLine
 62
7
  6
CONTINUOUS
 10
144.6010805345
 20
125.9937144667
 11
144.6272574828
 21
126.0111635502
  0
LINE
  5
7BA
100
AcDbEntity
  8
0
100
AcDbLine
 62
7
  6
CONTINUOUS
 10
144.299314415
 20
125.9813131694
 11
144.3241245688
 21
125.9937144667
  0
LWPOLYLINE
  5
7BB
100
AcDbEntity
  8
RACCORDO
100
AcDbPolyline
 62
253
  6
CONTINUOUS
 90
16
 70
0
 10
133.2627095069
 20
86.2123597276
 10
133.2348957337
 20
86.210400109
 10
133.207622947
 20
86.2045887013
 10
133.1814216761
 20
86.1950385263
 10
133.1568016625
 20
86.1819353671
 10
133.1342417843
 20
86.1655340754
 10
133.1141807871
 20
86.1461535471
 10
133.0970089674
 20
86.1241706912
 10
133.0830604803
 20
86.1000131103
 10
133.0726067395
 20
86.0741506399
 10
133.0658512288
 20
86.0470863339
 10
133.0629255136
 20
86.0193467147
 10
133.063886641
 20
85.9914714633
 10
133.0687160326
 20
85.9640029166
 10
133.0773198483
 20
85.9374755143
 10
133.0895308061
 20
85.9124054191
  0
LWPOLYLINE
  5
7BC
100
AcDbEntity
  8
RACCORDO
100
AcDbPolyline
 62
253
  6
CONTINUOUS
 90
19
 70
0
 10
133.2530654946
 20
84.9846552893
 10
133.2763889998
 20
84.9860332572
 10
133.2994005071
 20
84.9901253002
 10
133.3217851158
 20
84.9968778166
 10
133.3432448515
 20
85.0062051838
 10
133.3634753111
 20
85.0179795478
 10
133.3821755227
 20
85.0320224883
 10
133.3990775987
 20
85.0481174498
 10
133.4139775096
 20
85.0660531807
 10
133.4267010626
 20
85.0856197698
 10
133.437085316
 20
85.1065944324
 10
133.444955718
 20
85.1286587978
 10
133.4501830932
 20
85.1514300196
 10
133.4527170731
 20
85.1745914804
 10
133.452544934
 20
85.1978274192
 10
133.4497050249
 20
85.2207447789
 10
133.4442918974
 20
85.2430181954
 10
133.4364223881
 20
85.2643933572
 10
133.4262441954
 20
85.2846095978
  0
LINE
  5
7BD
100
AcDbEntity
  8
0
100
AcDbLine
 62
7
  6
CONTINUOUS
 10
133.5260378371
 20
84.8833549861
 11
130.3222113006
 21
84.8833549861
  0
LINE
  5
7BE
100
AcDbEntity
  8
0
100
AcDbLine
 62
7
  6
CONTINUOUS
 10
133.5085827721
 20
84.9008100511
 11
133.3982897072
 21
84.9008100511
  0
LINE
  5
7BF
100
AcDbEntity
  8
0
100
AcDbLine
 62
7
  6
CONTINUOUS
 10
130.4499594305
 20
84.9008100511
 11
130.3396663655
 21
84.9008100511
  0
LINE
  5
7C0
100
AcDbEntity
  8
RACCORDO
100
AcDbLine
 62
253
  6
CONTINUOUS
 10
130.595183643
 20
84.9846552893
 11
133.2530654946
 21
84.9846552893
  0
LINE
  5
7C1
100
AcDbEntity
  8
RACCORDO
100
AcDbLine
 62
253
  6
CONTINUOUS
 10
130.595183643
 20
85.1846248283
 11
133.2530654946
 21
85.1846248283
  0
LINE
  5
7C2
100
AcDbEntity
  8
RACCORDO
100
AcDbLine
 62
7
  6
CONTINUOUS
 10
164.4244291785
 20
86.0635347264
 11
163.9241245688
 21
86.0635347264
  0
LINE
  5
7C3
100
AcDbEntity
  8
DRAFT
100
AcDbLine
 62
7
  6
CONTINUOUS
 10
163.9241245688
 20
86.0635347264
 11
156.2041245688
 21
86.0635347264
  0
LINE
  5
7C4
100
AcDbEntity
  8
DRAFT
100
AcDbLine
 62
7
  6
CONTINUOUS
 10
154.6441245688
 20
86.0635347264
 11
154.2041245688
 21
86.0635347264
  0
LINE
  5
7C5
100
AcDbEntity
  8
DRAFT
100
AcDbLine
 62
7
  6
CONTINUOUS
 10
152.6441245688
 20
86.0635347264
 11
152.2041245688
 21
86.0635347264
  0
LINE
  5
7C6
100
AcDbEntity
  8
DRAFT
100
AcDbLine
 62
7
  6
CONTINUOUS
 10
150.6441245688
 20
86.0635347264
 11
150.275756517
 21
86.0635347264
  0
LINE
  5
7C7
100
AcDbEntity
  8
DRAFT
100
AcDbLine
 62
7
  6
CONTINUOUS
 10
142.5724926207
 20
86.0635347264
 11
133.8259921456
 21
86.0635347264
  0
LINE
  5
7C8
100
AcDbEntity
  8
DRAFT
100
AcDbLine
 62
7
  6
CONTINUOUS
 10
130.0222569921
 20
86.0635347264
 11
128.9241245688
 21
86.0635347264
  0
LINE
  5
7C9
100
AcDbEntity
  8
RACCORDO
100
AcDbLine
 62
7
  6
CONTINUOUS
 10
128.9241245688
 20
86.0635347264
 11
128.4238199592
 21
86.0635347264
  0
LINE
  5
7CA
100
AcDbEntity
  8
DRAFT
100
AcDbLine
 62
7
  6
CONTINUOUS
 10
150.275756517
 20
86.1041062833
 11
150.6441245688
 21
86.1041062833
  0
LINE
  5
7CB
100
AcDbEntity
  8
DRAFT
100
AcDbLine
 62
7
  6
CONTINUOUS
 10
152.2041245688
 20
86.1041062833
 11
152.6441245688
 21
86.1041062833
  0
LINE
  5
7CC
100
AcDbEntity
  8
DRAFT
100
AcDbLine
 62
7
  6
CONTINUOUS
 10
154.2041245688
 20
86.1041062833
 11
154.6441245688
 21
86.1041062833
  0
LINE
  5
7CD
100
AcDbEntity
  8
RACCORDO
100
AcDbLine
 62
7
  6
CONTINUOUS
 10
130.0222569921
 20
86.1333549861
 11
129.1904842812
 21
86.1333549861
  0
LINE
  5
7CE
100
AcDbEntity
  8
DRAFT
100
AcDbLine
 62
7
  6
CONTINUOUS
 10
133.8259921456
 20
86.1333549861
 11
142.4939448286
 21
86.1333549861
  0
LINE
  5
7CF
100
AcDbEntity
  8
RACCORDO
100
AcDbLine
 62
7
  6
CONTINUOUS
 10
133.8259921456
 20
86.1333549861
 11
142.5724926207
 21
86.1333549861
  0
LINE
  5
7D0
100
AcDbEntity
  8
RACCORDO
100
AcDbLine
 62
7
  6
CONTINUOUS
 10
150.3543043091
 20
86.1333549861
 11
163.6577648565
 21
86.1333549861
  0
LINE
  5
7D1
100
AcDbEntity
  8
RACCORDO
100
AcDbLine
 62
7
  6
CONTINUOUS
 10
133.8085370807
 20
86.1508100511
 11
133.3693166739
 21
86.1508100511
  0
LINE
  5
7D2
100
AcDbEntity
  8
RACCORDO
100
AcDbLine
 62
7
  6
CONTINUOUS
 10
130.4789324638
 20
86.1508100511
 11
130.039712057
 21
86.1508100511
  0
LINE
  5
7D3
100
AcDbEntity
  8
RACCORDO
100
AcDbLine
 62
253
  6
CONTINUOUS
 10
164.2754772255
 20
86.2123597276
 11
150.2752995676
 21
86.2123597276
  0
LINE
  5
7D4
100
AcDbEntity
  8
RACCORDO
100
AcDbLine
 62
253
  6
CONTINUOUS
 10
128.5726449604
 20
86.2123597276
 11
130.5855396308
 21
86.2123597276
  0
LINE
  5
7D5
100
AcDbEntity
  8
RACCORDO
100
AcDbLine
 62
253
  6
CONTINUOUS
 10
142.5729495701
 20
86.2123597276
 11
133.2627143803
 21
86.212356914
  0
LINE
  5
7D6
100
AcDbEntity
  8
RACCORDO
100
AcDbLine
 62
253
  6
CONTINUOUS
 10
128.5726449604
 20
87.7121312704
 11
131.6005503783
 21
87.7121169646
  0
LINE
  5
7D7
100
AcDbEntity
  8
RACCORDO
100
AcDbLine
 62
253
  6
CONTINUOUS
 10
149.758225288
 20
87.7121312704
 11
164.2756041773
 21
87.7121312704
  0
LINE
  5
7D8
100
AcDbEntity
  8
RACCORDO
100
AcDbLine
 62
253
  6
CONTINUOUS
 10
132.2476977332
 20
87.7121277123
 11
143.0900238497
 21
87.7121312704
  0
LINE
  5
7D9
100
AcDbEntity
  8
RACCORDO
100
AcDbLine
 62
253
  6
CONTINUOUS
 10
166.2752995676
 20
88.212055118
 11
164.7755280249
 21
88.212055118
  0
LINE
  5
7DA
100
AcDbEntity
  8
RACCORDO
100
AcDbLine
 62
253
  6
CONTINUOUS
 10
128.0727211128
 20
88.212055118
 11
126.5729495701
 21
88.2120551188
  0
LINE
  5
7DB
100
AcDbEntity
  8
RACCORDO
100
AcDbLine
 62
7
  6
CONTINUOUS
 10
129.1312630492
 20
88.2782693303
 11
163.7169860885
 21
88.2782693303
  0
LINE
  5
7DC
100
AcDbEntity
  8
RACCORDO
100
AcDbLine
 62
7
  6
CONTINUOUS
 10
129.1665284454
 20
88.3135347264
 11
163.6817206923
 21
88.3135347264
  0
LWPOLYLINE
  5
7DD
100
AcDbEntity
  8
RACCORDO
100
AcDbPolyline
 62
253
  6
CONTINUOUS
 90
16
 70
0
 10
130.5855396308
 20
86.2123597276
 10
130.613354581
 20
86.2103999423
 10
130.6406284172
 20
86.2045880602
 10
130.6668305521
 20
86.1950371462
 10
130.6914512475
 20
86.1819330043
 10
130.7140115303
 20
86.1655305636
 10
130.7340725109
 20
86.1461489184
 10
130.7512439214
 20
86.1241651208
 10
130.7651917081
 20
86.1000068454
 10
130.7756445296
 20
86.074144069
 10
130.7823990361
 20
86.0470799281
 10
130.7853238248
 20
86.0193409304
 10
130.7843619968
 20
85.9914667125
 10
130.7795322636
 20
85.9639995414
 10
130.770928583
 20
85.9374737655
 10
130.7587183318
 20
85.9124054195
  0
LINE
  5
7DE
100
AcDbEntity
  8
RACCORDO
100
AcDbLine
 62
253
  6
CONTINUOUS
 10
148.2583122828
 20
77.2295101597
 11
148.2760611266
 21
77.2119027783
  0
LINE
  5
7DF
100
AcDbEntity
  8
RACCORDO
100
AcDbLine
 62
7
  6
CONTINUOUS
 10
126.3366969278
 20
101.1509623675
 11
126.4241245688
 21
101.0635347264
  0
LINE
  5
7E0
100
AcDbEntity
  8
RACCORDO
100
AcDbLine
 62
7
  6
CONTINUOUS
 10
128.0639174047
 20
103.5075262022
 11
128.0079088805
 21
103.5635347264
  0
LINE
  5
7E1
100
AcDbEntity
  8
RACCORDO
100
AcDbLine
 62
253
  6
CONTINUOUS
 10
150.2581491356
 20
79.2293480131
 11
150.275756517
 21
79.2115981686
  0
LWPOLYLINE
  5
7E2
100
AcDbEntity
  8
RACCORDO
100
AcDbPolyline
 62
253
  6
CONTINUOUS
 90
12
 70
0
 10
125.2210105314
 20
113.9666183275
 10
125.222534697
 20
113.9635381548
 10
125.2241187189
 20
113.9572250784
 10
125.225762597
 20
113.9472836436
 10
125.227469141
 20
113.9333154856
 10
125.2292355413
 20
113.9149004305
 10
125.2310533688
 20
113.8915787592
 10
125.2329248375
 20
113.8629014534
 10
125.2348477336
 20
113.8284211318
 10
125.2368069862
 20
113.7876429261
 10
125.2388053055
 20
113.7401014565
 10
125.2408399814
 20
113.6853478034
  0
LWPOLYLINE
  5
7E3
100
AcDbEntity
  8
RACCORDO
100
AcDbPolyline
 62
253
  6
CONTINUOUS
 90
13
 70
0
 10
132.2995118368
 20
87.2293071168
 10
132.3112200518
 20
87.1490358267
 10
132.3242703478
 20
87.0711388838
 10
132.3386627246
 20
86.995616288
 10
132.3543106983
 20
86.92246278
 10
132.3713007529
 20
86.851683619
 10
132.3898923401
 20
86.7832945832
 10
132.4101238083
 20
86.717231002
 10
132.4319568092
 20
86.6535575459
 10
132.455535749
 20
86.592484004
 10
132.4809087633
 20
86.5340803062
 10
132.5080277166
 20
86.4782765227
 10
132.5368926089
 20
86.4250726534
  0
LINE
  5
7E4
100
AcDbEntity
  8
RACCORDO
100
AcDbLine
 62
253
  6
CONTINUOUS
 10
131.5845963839
 20
124.5864862414
 11
131.573525355
 21
124.6948473748
  0
LWPOLYLINE
  5
7E5
100
AcDbEntity
  8
RACCORDO
100
AcDbPolyline
 62
253
  6
CONTINUOUS
 90
3
 70
0
 10
131.6005514274
 20
124.4149415892
 10
131.5953369152
 20
124.4733172121
 10
131.5845963839
 20
124.5864862414
  0
LINE
  5
7E6
100
AcDbEntity
  8
0
100
AcDbLine
 62
7
  6
CONTINUOUS
 10
132.6241245688
 20
161.0635347264
 11
132.6241245688
 21
162.0635347264
  0
LINE
  5
7E7
100
AcDbEntity
  8
RACCORDO
100
AcDbLine
 62
253
  6
CONTINUOUS
 10
133.2530654946
 20
127.1424141635
 11
133.2530654946
 21
126.9424446245
  0
LINE
  5
7E8
100
AcDbEntity
  8
RACCORDO
100
AcDbLine
 62
253
  6
CONTINUOUS
 10
133.2530654946
 20
85.1846248283
 11
133.2530654946
 21
84.9846552893
  0
LINE
  5
7E9
100
AcDbEntity
  8
0
100
AcDbLine
 62
7
  6
CONTINUOUS
 10
133.3341245688
 20
127.8635347264
 11
133.3341245688
 21
161.0635347264
  0
LINE
  5
7EA
100
AcDbEntity
  8
0
100
AcDbLine
 62
7
  6
CONTINUOUS
 10
133.3341245688
 20
162.0635347264
 11
133.3341245688
 21
172.0635347264
  0
LINE
  5
7EB
100
AcDbEntity
  8
0
100
AcDbLine
 62
253
  6
CONTINUOUS
 10
133.3682263509
 20
127.8635347264
 11
133.3682263509
 21
127.9222550933
  0
LINE
  5
7EC
100
AcDbEntity
  8
DRAFT
100
AcDbLine
 62
7
  6
CONTINUOUS
 10
133.5112783123
 20
127.8635347264
 11
133.5112783123
 21
127.8937144667
  0
LINE
  5
7ED
100
AcDbEntity
  8
0
100
AcDbLine
 62
7
  6
CONTINUOUS
 10
133.8085370807
 20
86.1508100511
 11
133.8085370807
 21
85.2007643596
  0
LINE
  5
7EE
100
AcDbEntity
  8
0
100
AcDbLine
 62
7
  6
CONTINUOUS
 10
133.8259921456
 20
86.1333549861
 11
133.8259921456
 21
85.1833092947
  0
LINE
  5
7EF
100
AcDbEntity
  8
DRAFT
100
AcDbLine
 62
7
  6
CONTINUOUS
 10
135.1369708254
 20
127.8635347264
 11
135.1369708254
 21
127.8937144667
  0
LINE
  5
7F0
100
AcDbEntity
  8
0
100
AcDbLine
 62
253
  6
CONTINUOUS
 10
135.2800227868
 20
127.9222550933
 11
135.2800227868
 21
127.8635347264
  0
LINE
  5
7F1
100
AcDbEntity
  8
0
100
AcDbLine
 62
7
  6
CONTINUOUS
 10
135.3141245688
 20
127.8635347264
 11
135.3141245688
 21
161.0635347264
  0
LINE
  5
7F2
100
AcDbEntity
  8
0
100
AcDbLine
 62
7
  6
CONTINUOUS
 10
135.3141245688
 20
162.0635347264
 11
135.3141245688
 21
172.0635347264
  0
LINE
  5
7F3
100
AcDbEntity
  8
0
100
AcDbLine
 62
7
  6
CONTINUOUS
 10
136.0241245688
 20
161.0635347264
 11
136.0241245688
 21
162.0635347264
  0
LWPOLYLINE
  5
7F4
100
AcDbEntity
  8
RACCORDO
100
AcDbPolyline
 62
253
  6
CONTINUOUS
 90
7
 70
0
 10
131.5487385197
 20
87.2293092277
 10
131.558470631
 20
87.3046400889
 10
131.5677640216
 20
87.382025788
 10
131.5766186917
 20
87.4614663252
 10
131.5850346412
 20
87.5429617003
 10
131.5930118701
 20
87.6265119134
 10
131.6005503783
 20
87.7121169646
  0
LINE
  5
7F5
100
AcDbEntity
  8
RACCORDO
100
AcDbLine
 62
7
  6
CONTINUOUS
 10
128.0639174047
 20
108.6195432506
 11
128.0079088805
 21
108.5635347264
  0
LINE
  5
7F6
100
AcDbEntity
  8
DRAFT
100
AcDbLine
 62
7
  6
CONTINUOUS
 10
129.9887083091
 20
108.6281184667
 11
130.0113998935
 21
108.6508100511
  0
LINE
  5
7F7
100
AcDbEntity
  8
RACCORDO
100
AcDbLine
 62
7
  6
CONTINUOUS
 10
125.0115522099
 20
101.1509623675
 11
124.9241245688
 21
101.0635347264
  0
LINE
  5
7F8
100
AcDbEntity
  8
DRAFT
100
AcDbLine
 62
7
  6
CONTINUOUS
 10
129.9887083091
 20
103.4989509862
 11
130.0113998935
 21
103.4762594018
  0
LINE
  5
7F9
100
AcDbEntity
  8
RACCORDO
100
AcDbLine
 62
7
  6
CONTINUOUS
 10
125.0115522099
 20
110.9761070853
 11
124.9241245688
 21
111.0635347264
  0
LINE
  5
7FA
100
AcDbEntity
  8
DRAFT
100
AcDbLine
 62
7
  6
CONTINUOUS
 10
150.3543043091
 20
86.1333549861
 11
150.275756517
 21
86.2119027783
  0
LINE
  5
7FB
100
AcDbEntity
  8
RACCORDO
100
AcDbLine
 62
7
  6
CONTINUOUS
 10
150.2752995676
 20
86.2123597276
 11
150.275756517
 21
86.2119027783
  0
LINE
  5
7FC
100
AcDbEntity
  8
RACCORDO
100
AcDbLine
 62
7
  6
CONTINUOUS
 10
127.9172834987
 20
108.6541601082
 11
128.0079088805
 21
108.5635347264
  0
LINE
  5
7FD
100
AcDbEntity
  8
DRAFT
100
AcDbLine
 62
7
  6
CONTINUOUS
 10
126.4241245688
 20
110.8135347264
 11
126.4664816471
 21
110.7711776482
  0
LINE
  5
7FE
100
AcDbEntity
  8
RACCORDO
100
AcDbLine
 62
7
  6
CONTINUOUS
 10
126.5149822963
 20
110.7226769989
 11
126.4664816471
 21
110.7711776482
  0
LWPOLYLINE
  5
7FF
100
AcDbEntity
  8
RACCORDO
100
AcDbPolyline
 62
253
  6
CONTINUOUS
 90
12
 70
0
 10
125.0210413246
 20
113.7666484316
 10
125.022563577
 20
113.7644139179
 10
125.0241461662
 20
113.7584074924
 10
125.0257890922
 20
113.7486291554
 10
125.0274953161
 20
113.7354888327
 10
125.0292618767
 20
113.7185765983
 10
125.0310798906
 20
113.696662674
 10
125.0329514136
 20
113.6697724089
 10
125.0348743899
 20
113.637880454
 10
125.0368337684
 20
113.599680984
 10
125.0388322561
 20
113.5551631708
 10
125.040867146
 20
113.5043378426
  0
LWPOLYLINE
  5
800
100
AcDbEntity
  8
RACCORDO
100
AcDbPolyline
 62
253
  6
CONTINUOUS
 90
13
 70
0
 10
131.5487373239
 20
124.8977622963
 10
131.5370285703
 20
124.9780366308
 10
131.523977783
 20
125.0559359808
 10
131.509584962
 20
125.1314603461
 10
131.4939365639
 20
125.2046149348
 10
131.4769461322
 20
125.275394539
 10
131.4583542972
 20
125.3437835344
 10
131.4381227033
 20
125.4098465789
 10
131.4162897062
 20
125.4735190146
 10
131.3927110032
 20
125.5345912441
 10
131.3673384935
 20
125.5929934016
 10
131.340220278
 20
125.6487953528
 10
131.3113563566
 20
125.7019970977
  0
LWPOLYLINE
  5
801
100
AcDbEntity
  8
RACCORDO
100
AcDbPolyline
 62
253
  6
CONTINUOUS
 90
5
 70
0
 10
131.573525355
 20
124.6948473748
 10
131.5677068192
 20
124.7472842442
 10
131.5616147575
 20
124.7985902561
 10
131.5552915924
 20
124.8487496068
 10
131.5487373239
 20
124.8977622963
  0
LINE
  5
802
100
AcDbEntity
  8
0
100
AcDbLine
 62
7
  6
CONTINUOUS
 10
137.6241245688
 20
161.0635347264
 11
137.6241245688
 21
162.0635347264
  0
LINE
  5
803
100
AcDbEntity
  8
0
100
AcDbLine
 62
7
  6
CONTINUOUS
 10
138.3341245688
 20
127.8635347264
 11
138.3341245688
 21
161.0635347264
  0
LINE
  5
804
100
AcDbEntity
  8
0
100
AcDbLine
 62
7
  6
CONTINUOUS
 10
138.3341245688
 20
162.0635347264
 11
138.3341245688
 21
172.0635347264
  0
LINE
  5
805
100
AcDbEntity
  8
0
100
AcDbLine
 62
253
  6
CONTINUOUS
 10
138.3682263509
 20
127.8635347264
 11
138.3682263509
 21
127.9222550933
  0
LINE
  5
806
100
AcDbEntity
  8
DRAFT
100
AcDbLine
 62
7
  6
CONTINUOUS
 10
138.5112783123
 20
127.8635347264
 11
138.5112783123
 21
127.8937144667
  0
LINE
  5
807
100
AcDbEntity
  8
DRAFT
100
AcDbLine
 62
7
  6
CONTINUOUS
 10
140.1369708254
 20
127.8635347264
 11
140.1369708254
 21
127.8937144667
  0
LINE
  5
808
100
AcDbEntity
  8
0
100
AcDbLine
 62
253
  6
CONTINUOUS
 10
140.2800227868
 20
127.9222550933
 11
140.2800227868
 21
127.8635347264
  0
LINE
  5
809
100
AcDbEntity
  8
0
100
AcDbLine
 62
7
  6
CONTINUOUS
 10
140.3241245688
 20
127.8635347264
 11
140.3241245688
 21
161.0635347264
  0
LINE
  5
80A
100
AcDbEntity
  8
0
100
AcDbLine
 62
7
  6
CONTINUOUS
 10
140.3241245688
 20
162.0635347264
 11
140.3241245688
 21
172.0635347264
  0
LINE
  5
80B
100
AcDbEntity
  8
0
100
AcDbLine
 62
7
  6
CONTINUOUS
 10
141.0241245688
 20
161.0635347264
 11
141.0241245688
 21
162.0635347264
  0
LINE
  5
80C
100
AcDbEntity
  8
RACCORDO
100
AcDbLine
 62
253
  6
CONTINUOUS
 10
131.6005517442
 20
87.7121312704
 11
131.5194966189
 21
87.4674213332
  0
LWPOLYLINE
  5
80D
100
AcDbEntity
  8
RACCORDO
100
AcDbPolyline
 62
253
  6
CONTINUOUS
 90
3
 70
0
 10
131.5194966189
 20
87.4674213332
 10
131.4681212405
 20
87.3160081702
 10
131.4431505086
 20
87.2440365733
  0
LWPOLYLINE
  5
80E
100
AcDbEntity
  8
RACCORDO
100
AcDbPolyline
 62
253
  6
CONTINUOUS
 90
13
 70
0
 10
131.4431521496
 20
87.2440363443
 10
131.4164327866
 20
87.1684779841
 10
131.3901088408
 20
87.0957164444
 10
131.3641379343
 20
87.0258039314
 10
131.3384965576
 20
86.9588268068
 10
131.3131372719
 20
86.8947616257
 10
131.2879660841
 20
86.8334973738
 10
131.2629246449
 20
86.775046047
 10
131.2379838942
 20
86.7194390528
 10
131.2130779998
 20
86.6666115396
 10
131.1881527452
 20
86.6165772489
 10
131.1631906386
 20
86.569384996
 10
131.138176531
 20
86.5250416711
  0
LINE
  5
80F
100
AcDbEntity
  8
RACCORDO
100
AcDbLine
 62
7
  6
CONTINUOUS
 10
127.9172834987
 20
103.4729093446
 11
128.0079088805
 21
103.5635347264
  0
LINE
  5
810
100
AcDbEntity
  8
RACCORDO
100
AcDbLine
 62
7
  6
CONTINUOUS
 10
126.5149822963
 20
101.4043924539
 11
126.4664816471
 21
101.3558918047
  0
LINE
  5
811
100
AcDbEntity
  8
DRAFT
100
AcDbLine
 62
7
  6
CONTINUOUS
 10
126.4241245688
 20
101.3135347264
 11
126.4664816471
 21
101.3558918047
  0
LINE
  5
812
100
AcDbEntity
  8
RACCORDO
100
AcDbLine
 62
253
  6
CONTINUOUS
 10
125.0210413246
 20
98.3604210212
 11
124.9241245688
 21
98.2635042655
  0
LINE
  5
813
100
AcDbEntity
  8
RACCORDO
100
AcDbLine
 62
253
  6
CONTINUOUS
 10
125.2210108636
 20
98.1604514822
 11
125.1240941079
 21
98.0635347264
  0
LWPOLYLINE
  5
814
100
AcDbEntity
  8
RACCORDO
100
AcDbPolyline
 62
7
  6
CONTINUOUS
 90
13
 70
0
 10
167.7241550298
 20
98.0635347264
 10
167.7502571567
 20
98.0652449906
 10
167.7759123349
 20
98.070347167
 10
167.8006818563
 20
98.0787541482
 10
167.8241423132
 20
98.0903223893
 10
167.8458921191
 20
98.1048541764
 10
167.8655585411
 20
98.1221007542
 10
167.8828051188
 20
98.1417671762
 10
167.897336906
 20
98.1635169821
 10
167.9089051471
 20
98.1869774389
 10
167.9173121283
 20
98.2117469603
 10
167.9224143047
 20
98.2374021386
 10
167.9241245688
 20
98.2635042655
  0
LINE
  5
815
100
AcDbEntity
  8
RACCORDO
100
AcDbLine
 62
7
  6
CONTINUOUS
 10
167.7241550298
 20
98.0635347264
 11
166.6240941079
 21
98.0635347264
  0
LINE
  5
816
100
AcDbEntity
  8
RACCORDO
100
AcDbLine
 62
7
  6
CONTINUOUS
 10
126.2241550298
 20
98.0635347264
 11
125.1240941079
 21
98.0635347264
  0
LINE
  5
817
100
AcDbEntity
  8
RACCORDO
100
AcDbLine
 62
253
  6
CONTINUOUS
 10
125.2210108636
 20
98.1604514822
 11
126.1272386309
 21
98.1604511253
  0
LINE
  5
818
100
AcDbEntity
  8
RACCORDO
100
AcDbLine
 62
253
  6
CONTINUOUS
 10
166.7210108636
 20
98.1604514822
 11
167.627238274
 21
98.1604514822
  0
LWPOLYLINE
  5
819
100
AcDbEntity
  8
RACCORDO
100
AcDbPolyline
 62
253
  6
CONTINUOUS
 90
13
 70
0
 10
125.2210108636
 20
98.1604514822
 10
125.1949146322
 20
98.1621695354
 10
125.1692647416
 20
98.1672784131
 10
125.1444998987
 20
98.1756907346
 10
125.1210436726
 20
98.1872626186
 10
125.0992972506
 20
98.2017961437
 10
125.0796325759
 20
98.2190427335
 10
125.0623859861
 20
98.2387074082
 10
125.0478524611
 20
98.2604538302
 10
125.036280577
 20
98.2839100562
 10
125.0278682555
 20
98.3086748992
 10
125.0227593779
 20
98.3343247898
 10
125.0210413246
 20
98.3604210212
  0
LINE
  5
81A
100
AcDbEntity
  8
RACCORDO
100
AcDbLine
 62
253
  6
CONTINUOUS
 10
124.9241245688
 20
113.8635651874
 11
125.0210413246
 21
113.7666484316
  0
LINE
  5
81B
100
AcDbEntity
  8
RACCORDO
100
AcDbLine
 62
253
  6
CONTINUOUS
 10
125.1240941079
 20
114.0635347264
 11
125.2210105068
 21
113.9666183275
  0
LINE
  5
81C
100
AcDbEntity
  8
RACCORDO
100
AcDbLine
 62
7
  6
CONTINUOUS
 10
149.758225288
 20
87.7121312704
 11
149.8759215116
 21
87.5073360818
  0
LWPOLYLINE
  5
81D
100
AcDbEntity
  8
RACCORDO
100
AcDbPolyline
 62
7
  6
CONTINUOUS
 90
20
 70
0
 10
149.8759215116
 20
87.5073360818
 10
149.9319591518
 20
87.4080070961
 10
149.9591950702
 20
87.3589925219
 10
149.9857764772
 20
87.3104219186
 10
150.0117604184
 20
87.262269803
 10
150.0370272382
 20
87.2145329811
 10
150.0614759164
 20
87.1672146469
 10
150.0851544008
 20
87.1202988998
 10
150.10792693
 20
87.0737470915
 10
150.1296496589
 20
87.0275978703
 10
150.1503037137
 20
86.9819512803
 10
150.1697066893
 20
86.9367750123
 10
150.1876821066
 20
86.8921013755
 10
150.2041471762
 20
86.8481273411
 10
150.2188623399
 20
86.8048224466
 10
150.231603242
 20
86.7622171546
 10
150.2422055652
 20
86.7205998244
 10
150.250383442
 20
86.6800665759
 10
150.2557991203
 20
86.6405212893
 10
150.2581491356
 20
86.6019639645
  0
LINE
  5
81E
100
AcDbEntity
  8
RACCORDO
100
AcDbLine
 62
253
  6
CONTINUOUS
 10
131.4431494058
 20
124.8830347628
 11
131.4759864785
 21
124.7881478875
  0
LINE
  5
81F
100
AcDbEntity
  8
RACCORDO
100
AcDbLine
 62
253
  6
CONTINUOUS
 10
131.4759864785
 20
124.7881478875
 11
131.5099750968
 21
124.6879975734
  0
LINE
  5
820
100
AcDbEntity
  8
RACCORDO
100
AcDbLine
 62
253
  6
CONTINUOUS
 10
131.5099750968
 20
124.6879975734
 11
131.5632940385
 21
124.5280202493
  0
LINE
  5
821
100
AcDbEntity
  8
RACCORDO
100
AcDbLine
 62
253
  6
CONTINUOUS
 10
131.5632940385
 20
124.5280202493
 11
131.6005517442
 21
124.4149381825
  0
LINE
  5
822
100
AcDbEntity
  8
RACCORDO
100
AcDbLine
 62
7
  6
CONTINUOUS
 10
142.5724926207
 20
79.2115981686
 11
142.5724926207
 21
86.2119027783
  0
LINE
  5
823
100
AcDbEntity
  8
RACCORDO
100
AcDbLine
 62
253
  6
CONTINUOUS
 10
142.5901000021
 20
79.2293470125
 11
142.5901000021
 21
86.6019639645
  0
LINE
  5
824
100
AcDbEntity
  8
0
100
AcDbLine
 62
7
  6
CONTINUOUS
 10
142.6241245688
 20
161.0635347264
 11
142.6241245688
 21
162.0635347264
  0
LINE
  5
825
100
AcDbEntity
  8
0
100
AcDbLine
 62
7
  6
CONTINUOUS
 10
142.6341245688
 20
78.7220524333
 11
142.6341245688
 21
53.0635347264
  0
LINE
  5
826
100
AcDbEntity
  8
0
100
AcDbLine
 62
7
  6
CONTINUOUS
 10
142.6341245688
 20
52.0635347264
 11
142.6341245688
 21
42.0635347264
  0
LINE
  5
827
100
AcDbEntity
  8
0
100
AcDbLine
 62
7
  6
CONTINUOUS
 10
143.0341245688
 20
52.0635347264
 11
143.0341245688
 21
53.0635347264
  0
LINE
  5
828
100
AcDbEntity
  8
RACCORDO
100
AcDbLine
 62
253
  6
CONTINUOUS
 10
143.0900238497
 20
79.22920555
 11
143.0900238497
 21
87.7121312704
  0
LINE
  5
829
100
AcDbEntity
  8
0
100
AcDbLine
 62
7
  6
CONTINUOUS
 10
143.3241245688
 20
127.8635347264
 11
143.3241245688
 21
161.0635347264
  0
LINE
  5
82A
100
AcDbEntity
  8
0
100
AcDbLine
 62
7
  6
CONTINUOUS
 10
143.3241245688
 20
162.0635347264
 11
143.3241245688
 21
172.0635347264
  0
LINE
  5
82B
100
AcDbEntity
  8
0
100
AcDbLine
 62
253
  6
CONTINUOUS
 10
143.3682263509
 20
127.8635347264
 11
143.3682263509
 21
127.9222550933
  0
LINE
  5
82C
100
AcDbEntity
  8
DRAFT
100
AcDbLine
 62
7
  6
CONTINUOUS
 10
143.5112783123
 20
127.8635347264
 11
143.5112783123
 21
127.8937144667
  0
LINE
  5
82D
100
AcDbEntity
  8
0
100
AcDbLine
 62
253
  6
CONTINUOUS
 10
143.7996190015
 20
127.8387245726
 11
143.7996190015
 21
127.5389073245
  0
LINE
  5
82E
100
AcDbEntity
  8
0
100
AcDbLine
 62
7
  6
CONTINUOUS
 10
143.8141245688
 20
52.0635347264
 11
143.8141245688
 21
53.0635347264
  0
LINE
  5
82F
100
AcDbEntity
  8
0
100
AcDbLine
 62
253
  6
CONTINUOUS
 10
143.9994971669
 20
127.3390291591
 11
143.9994971669
 21
125.9762594018
  0
LINE
  5
830
100
AcDbEntity
  8
0
100
AcDbLine
 62
7
  6
CONTINUOUS
 10
144.2141245688
 20
77.2450297637
 11
144.2141245688
 21
53.0635347264
  0
LINE
  5
831
100
AcDbEntity
  8
0
100
AcDbLine
 62
7
  6
CONTINUOUS
 10
144.2141245688
 20
52.0635347264
 11
144.2141245688
 21
42.0635347264
  0
LINE
  5
832
100
AcDbEntity
  8
0
100
AcDbLine
 62
253
  6
CONTINUOUS
 10
144.299314415
 20
127.3390291591
 11
144.299314415
 21
125.9813131694
  0
LINE
  5
833
100
AcDbEntity
  8
0
100
AcDbLine
 62
7
  6
CONTINUOUS
 10
144.3241245688
 20
127.3638393129
 11
144.3241245688
 21
125.9937144667
  0
LINE
  5
834
100
AcDbEntity
  8
RACCORDO
100
AcDbLine
 62
253
  6
CONTINUOUS
 10
144.5897953924
 20
77.2295101597
 11
144.5897953924
 21
77.7294340073
  0
LINE
  5
835
100
AcDbEntity
  8
0
100
AcDbLine
 62
7
  6
CONTINUOUS
 10
144.6010805345
 20
125.9937144667
 11
144.6010805345
 21
127.4938363036
  0
LINE
  5
836
100
AcDbEntity
  8
0
100
AcDbLine
 62
7
  6
CONTINUOUS
 10
144.6272574828
 20
126.0111635502
 11
144.6272574828
 21
127.5112853871
  0
LINE
  5
837
100
AcDbEntity
  8
0
100
AcDbLine
 62
7
  6
CONTINUOUS
 10
144.6341245688
 20
77.2119027783
 11
144.6341245688
 21
53.0635347264
  0
LINE
  5
838
100
AcDbEntity
  8
0
100
AcDbLine
 62
7
  6
CONTINUOUS
 10
144.6341245688
 20
52.0635347264
 11
144.6341245688
 21
42.0635347264
  0
LINE
  5
839
100
AcDbEntity
  8
0
100
AcDbLine
 62
7
  6
CONTINUOUS
 10
145.0341245688
 20
52.0635347264
 11
145.0341245688
 21
53.0635347264
  0
LINE
  5
83A
100
AcDbEntity
  8
0
100
AcDbLine
 62
7
  6
CONTINUOUS
 10
145.8141245688
 20
52.0635347264
 11
145.8141245688
 21
53.0635347264
  0
LWPOLYLINE
  5
83B
100
AcDbEntity
  8
RACCORDO
100
AcDbPolyline
 62
7
  6
CONTINUOUS
 90
19
 70
0
 10
142.5901000021
 20
86.6019639645
 10
142.5925823767
 20
86.6418772629
 10
142.598313372
 20
86.6827172971
 10
142.6069409858
 20
86.724484067
 10
142.6180973917
 20
86.7673807409
 10
142.6314429587
 20
86.8112041506
 10
142.6467015773
 20
86.8553447912
 10
142.6634990772
 20
86.899540898
 10
142.6816043104
 20
86.9440542357
 10
142.7010931545
 20
86.9890605934
 10
142.7218384065
 20
87.0345779231
 10
142.7436245302
 20
87.0805882729
 10
142.7665381589
 20
87.1272135758
 10
142.7905338848
 20
87.1745722914
 10
142.8154189353
 20
87.22254596
 10
142.8411088565
 20
87.2709011356
 10
142.8675055987
 20
87.3196665643
 10
142.8944769001
 20
87.3688134999
 10
142.9218923195
 20
87.4180222576
  0
LWPOLYLINE
  5
83C
100
AcDbEntity
  8
RACCORDO
100
AcDbPolyline
 62
253
  6
CONTINUOUS
 90
19
 70
0
 10
130.4220049423
 20
85.2846095978
 10
130.4115365449
 20
85.2637218659
 10
130.4035746045
 20
85.2417472946
 10
130.3982301508
 20
85.2189853965
 10
130.39557802
 20
85.1957370366
 10
130.3956596884
 20
85.1723297627
 10
130.3984711259
 20
85.1491134342
 10
130.4039587334
 20
85.1264283263
 10
130.4120415766
 20
85.1045567594
 10
130.4226249633
 20
85.0837545448
 10
130.4355974273
 20
85.0642741862
 10
130.4507705272
 20
85.0464260354
 10
130.4678772961
 20
85.0305133848
 10
130.4866687196
 20
85.0167381634
 10
130.5068777025
 20
85.0052692709
 10
130.5281446727
 20
84.9962700245
 10
130.550140581
 20
84.9898212222
 10
130.5725867688
 20
84.9859488362
 10
130.595183643
 20
84.9846552893
  0
LWPOLYLINE
  5
83D
100
AcDbEntity
  8
RACCORDO
100
AcDbPolyline
 62
253
  6
CONTINUOUS
 90
13
 70
0
 10
131.3113530652
 20
86.4250666543
 10
131.3403395634
 20
86.4785306229
 10
131.3675521642
 20
86.5345620138
 10
131.3929908675
 20
86.5931608271
 10
131.4166035008
 20
86.6544042528
 10
131.4384422366
 20
86.7182151009
 10
131.4586635923
 20
86.784361801
 10
131.477230898
 20
86.8527865157
 10
131.4941808237
 20
86.9235470824
 10
131.509779896
 20
86.9965854428
 10
131.5241169572
 20
87.0718822441
 10
131.5371031651
 20
87.1494568391
 10
131.5487385197
 20
87.2293092277
  0
LINE
  5
83E
100
AcDbEntity
  8
RACCORDO
100
AcDbLine
 62
7
  6
CONTINUOUS
 10
130.6521111646
 20
85.8508557425
 11
130.2767807297
 21
85.2007643596
  0
LINE
  5
83F
100
AcDbEntity
  8
RACCORDO
100
AcDbLine
 62
253
  6
CONTINUOUS
 10
130.4220049423
 20
85.2846095978
 11
131.1381248235
 21
86.5249656286
  0
LINE
  5
840
100
AcDbEntity
  8
RACCORDO
100
AcDbLine
 62
253
  6
CONTINUOUS
 10
130.595183643
 20
85.1846248283
 11
131.3113530652
 21
86.4250666543
  0
LINE
  5
841
100
AcDbEntity
  8
RACCORDO
100
AcDbLine
 62
253
  6
CONTINUOUS
 10
131.1381248235
 20
86.5249656286
 11
131.0114990072
 21
86.3129931753
  0
LINE
  5
842
100
AcDbEntity
  8
RACCORDO
100
AcDbLine
 62
253
  6
CONTINUOUS
 10
131.0114990072
 20
86.3129931753
 11
130.9411164363
 21
86.1965056537
  0
LWPOLYLINE
  5
843
100
AcDbEntity
  8
RACCORDO
100
AcDbPolyline
 62
253
  6
CONTINUOUS
 90
10
 70
0
 10
130.9411164363
 20
86.1965056537
 10
130.8819378695
 20
86.099754007
 10
130.8565478069
 20
86.0587659833
 10
130.8339054303
 20
86.0226237791
 10
130.8138814889
 20
85.9911162265
 10
130.7966052336
 20
85.9644544935
 10
130.7824167787
 20
85.9431967312
 10
130.7714294959
 20
85.9275289898
 10
130.7635300135
 20
85.9172652191
 10
130.7587183316
 20
85.9124054191
  0
LINE
  5
844
100
AcDbEntity
  8
RACCORDO
100
AcDbLine
 62
253
  6
CONTINUOUS
 10
131.6005424209
 20
87.7121169646
 11
131.3223307609
 21
87.2888453947
  0
LINE
  5
845
100
AcDbEntity
  8
RACCORDO
100
AcDbLine
 62
253
  6
CONTINUOUS
 10
131.3223307609
 20
87.2888453947
 11
131.0218676769
 21
86.8375609647
  0
LINE
  5
846
100
AcDbEntity
  8
RACCORDO
100
AcDbLine
 62
253
  6
CONTINUOUS
 10
131.0218676769
 20
86.8375609647
 11
130.8759073155
 21
86.6211002691
  0
LINE
  5
847
100
AcDbEntity
  8
RACCORDO
100
AcDbLine
 62
253
  6
CONTINUOUS
 10
130.8759073155
 20
86.6211002691
 11
130.7944885715
 21
86.5016810144
  0
LWPOLYLINE
  5
848
100
AcDbEntity
  8
RACCORDO
100
AcDbPolyline
 62
253
  6
CONTINUOUS
 90
10
 70
0
 10
130.7944885715
 20
86.5016810144
 10
130.7263207457
 20
86.4029459054
 10
130.6972651163
 20
86.3614258775
 10
130.6713625504
 20
86.3245446626
 10
130.648420027
 20
86.2923831672
 10
130.628630567
 20
86.2653564111
 10
130.6124065585
 20
86.2436561087
 10
130.5998854644
 20
86.2274738053
 10
130.5909298218
 20
86.2169896459
 10
130.5855396308
 20
86.2123597276
  0
LINE
  5
849
100
AcDbEntity
  8
RACCORDO
100
AcDbLine
 62
7
  6
CONTINUOUS
 10
164.7755280249
 20
122.3976354456
 11
164.9803232135
 21
122.5153316692
  0
LWPOLYLINE
  5
84A
100
AcDbEntity
  8
RACCORDO
100
AcDbPolyline
 62
7
  6
CONTINUOUS
 90
20
 70
0
 10
164.9803232135
 20
122.5153316692
 10
165.0796521991
 20
122.5713693094
 10
165.1286667734
 20
122.5986052278
 10
165.1772373767
 20
122.6251866348
 10
165.2253894922
 20
122.6511705759
 10
165.2731263142
 20
122.6764373958
 10
165.3204446484
 20
122.700886074
 10
165.3673603955
 20
122.7245645584
 10
165.4139122037
 20
122.7473370875
 10
165.460061425
 20
122.7690598164
 10
165.505708015
 20
122.7897138713
 10
165.550884283
 20
122.8091168469
 10
165.5955579198
 20
122.8270922642
 10
165.6395319541
 20
122.8435573337
 10
165.6828368487
 20
122.8582724975
 10
165.7254421407
 20
122.8710133996
 10
165.7670594709
 20
122.8816157228
 10
165.8075927194
 20
122.8897935996
 10
165.847138006
 20
122.8952092779
 10
165.8856953307
 20
122.8975592932
  0
LWPOLYLINE
  5
84B
100
AcDbEntity
  8
RACCORDO
100
AcDbPolyline
 62
253
  6
CONTINUOUS
 90
13
 70
0
 10
126.127238274
 20
98.1604514822
 10
126.1533345548
 20
98.1621695419
 10
126.1789844858
 20
98.1672784371
 10
126.2037493587
 20
98.1756907842
 10
126.2272056048
 20
98.1872626993
 10
126.2489520351
 20
98.2017962573
 10
126.2686167034
 20
98.219042875
 10
126.2858632741
 20
98.2387075679
 10
126.300396772
 20
98.2604539953
 10
126.311968624
 20
98.2839102091
 10
126.3203809146
 20
98.3086750198
 10
126.325489769
 20
98.3343248589
 10
126.3272078131
 20
98.3604210212
  0
LINE
  5
84C
100
AcDbEntity
  8
0
100
AcDbLine
 62
7
  6
CONTINUOUS
 10
166.3817674906
 20
101.3558918047
 11
166.5184985174
 21
101.3600256019
  0
LINE
  5
84D
100
AcDbEntity
  8
RACCORDO
100
AcDbLine
 62
253
  6
CONTINUOUS
 10
125.0690625343
 20
101.1599945677
 11
126.2791866034
 21
101.1599945677
  0
LINE
  5
84E
100
AcDbEntity
  8
RACCORDO
100
AcDbLine
 62
253
  6
CONTINUOUS
 10
166.5690625343
 20
101.1599945677
 11
167.7791866034
 21
101.1599945677
  0
LINE
  5
84F
100
AcDbEntity
  8
RACCORDO
100
AcDbLine
 62
253
  6
CONTINUOUS
 10
126.3292589274
 20
101.4043924539
 11
126.5149822963
 21
101.4043924539
  0
LINE
  5
850
100
AcDbEntity
  8
RACCORDO
100
AcDbLine
 62
253
  6
CONTINUOUS
 10
166.3332668414
 20
101.4043924539
 11
166.5189902103
 21
101.4043924539
  0
LINE
  5
851
100
AcDbEntity
  8
RACCORDO
100
AcDbLine
 62
253
  6
CONTINUOUS
 10
126.3281217117
 20
101.7043467625
 11
126.520127426
 21
101.7043467625
  0
LINE
  5
852
100
AcDbEntity
  8
RACCORDO
100
AcDbLine
 62
253
  6
CONTINUOUS
 10
166.3281217117
 20
101.7043467625
 11
166.520127426
 21
101.7043467625
  0
LINE
  5
853
100
AcDbEntity
  8
0
100
AcDbLine
 62
7
  6
CONTINUOUS
 10
126.3297506203
 20
101.3600256019
 11
126.4664816471
 21
101.3558918047
  0
LWPOLYLINE
  5
854
100
AcDbEntity
  8
RACCORDO
100
AcDbPolyline
 62
253
  6
CONTINUOUS
 90
13
 70
0
 10
166.7210108636
 20
98.1604514822
 10
166.6949146322
 20
98.1621695354
 10
166.6692647416
 20
98.1672784131
 10
166.6444998987
 20
98.1756907346
 10
166.6210436726
 20
98.1872626186
 10
166.5992972506
 20
98.2017961437
 10
166.5796325759
 20
98.2190427335
 10
166.5623859861
 20
98.2387074082
 10
166.5478524611
 20
98.2604538302
 10
166.536280577
 20
98.2839100562
 10
166.5278682555
 20
98.3086748992
 10
166.5227593779
 20
98.3343247898
 10
166.5210413246
 20
98.3604210212
  0
LINE
  5
855
100
AcDbEntity
  8
RACCORDO
100
AcDbLine
 62
253
  6
CONTINUOUS
 10
164.4244291785
 20
86.0635347264
 11
164.2754772255
 21
86.2123597276
  0
LINE
  5
856
100
AcDbEntity
  8
RACCORDO
100
AcDbLine
 62
7
  6
CONTINUOUS
 10
163.8577343955
 20
86.1299248997
 11
163.9241245688
 21
86.0635347264
  0
LINE
  5
857
100
AcDbEntity
  8
RACCORDO
100
AcDbLine
 62
253
  6
CONTINUOUS
 10
126.4241245688
 20
124.0638393361
 11
126.5729495701
 21
123.9150143349
  0
LINE
  5
858
100
AcDbEntity
  8
RACCORDO
100
AcDbLine
 62
253
  6
CONTINUOUS
 10
130.7179183934
 20
125.7363018136
 11
130.7864184589
 21
125.6371951524
  0
LINE
  5
859
100
AcDbEntity
  8
RACCORDO
100
AcDbLine
 62
253
  6
CONTINUOUS
 10
130.7864184589
 20
125.6371951524
 11
130.869306469
 21
125.515695394
  0
LINE
  5
85A
100
AcDbEntity
  8
RACCORDO
100
AcDbLine
 62
253
  6
CONTINUOUS
 10
130.869306469
 20
125.515695394
 11
130.9660266587
 21
125.372731035
  0
LINE
  5
85B
100
AcDbEntity
  8
RACCORDO
100
AcDbLine
 62
253
  6
CONTINUOUS
 10
130.9660266587
 20
125.372731035
 11
131.135118911
 21
125.1202953277
  0
LWPOLYLINE
  5
85C
100
AcDbEntity
  8
RACCORDO
100
AcDbPolyline
 62
253
  6
CONTINUOUS
 90
4
 70
0
 10
131.135118911
 20
125.1202953277
 10
131.3948530545
 20
124.7281488304
 10
131.4625603196
 20
124.6246355775
 10
131.6005495274
 20
124.4149415892
  0
LINE
  5
85D
100
AcDbEntity
  8
RACCORDO
100
AcDbLine
 62
253
  6
CONTINUOUS
 10
130.874964257
 20
126.0386078535
 11
130.934667992
 21
125.9411632804
  0
LINE
  5
85E
100
AcDbEntity
  8
RACCORDO
100
AcDbLine
 62
253
  6
CONTINUOUS
 10
130.934667992
 20
125.9411632804
 11
131.0069482453
 21
125.8216431123
  0
LINE
  5
85F
100
AcDbEntity
  8
RACCORDO
100
AcDbLine
 62
253
  6
CONTINUOUS
 10
131.0069482453
 20
125.8216431123
 11
131.1381297362
 21
125.6020953195
  0
LINE
  5
860
100
AcDbEntity
  8
RACCORDO
100
AcDbLine
 62
7
  6
CONTINUOUS
 10
130.2767807297
 20
126.9263050932
 11
130.6521111646
 21
126.2762137103
  0
LINE
  5
861
100
AcDbEntity
  8
RACCORDO
100
AcDbLine
 62
253
  6
CONTINUOUS
 10
131.1381297362
 20
125.6020953195
 11
130.4220049423
 21
126.842459855
  0
LINE
  5
862
100
AcDbEntity
  8
RACCORDO
100
AcDbLine
 62
253
  6
CONTINUOUS
 10
131.3113563566
 20
125.7019970977
 11
130.595183643
 21
126.9424446245
  0
LWPOLYLINE
  5
863
100
AcDbEntity
  8
RACCORDO
100
AcDbPolyline
 62
253
  6
CONTINUOUS
 90
13
 70
0
 10
131.1381772803
 20
125.6020270129
 10
131.1630744764
 20
125.5578990788
 10
131.187941562
 20
125.5109043001
 10
131.2127919195
 20
125.4610458719
 10
131.2376400788
 20
125.4083753928
 10
131.2625411752
 20
125.3528984258
 10
131.2875647797
 20
125.2945311498
 10
131.3127347594
 20
125.2333101606
 10
131.3381104675
 20
125.16923907
 10
131.3637985198
 20
125.1021658914
 10
131.3898512894
 20
125.0320509825
 10
131.4162883422
 20
124.958990747
 10
131.4431514987
 20
124.8830350547
  0
LINE
  5
864
100
AcDbEntity
  8
0
100
AcDbLine
 62
7
  6
CONTINUOUS
 10
146.2141245688
 20
83.0219427644
 11
146.2141245688
 21
80.1051266885
  0
LINE
  5
865
100
AcDbEntity
  8
0
100
AcDbLine
 62
7
  6
CONTINUOUS
 10
146.2141245688
 20
77.2119027783
 11
146.2141245688
 21
53.0635347264
  0
LINE
  5
866
100
AcDbEntity
  8
0
100
AcDbLine
 62
7
  6
CONTINUOUS
 10
146.2141245688
 20
52.0635347264
 11
146.2141245688
 21
42.0635347264
  0
LINE
  5
867
100
AcDbEntity
  8
0
100
AcDbLine
 62
7
  6
CONTINUOUS
 10
146.6341245688
 20
83.0219427644
 11
146.6341245688
 21
80.1051266885
  0
LINE
  5
868
100
AcDbEntity
  8
0
100
AcDbLine
 62
7
  6
CONTINUOUS
 10
146.6341245688
 20
77.2119027783
 11
146.6341245688
 21
53.0635347264
  0
LINE
  5
869
100
AcDbEntity
  8
0
100
AcDbLine
 62
7
  6
CONTINUOUS
 10
146.6341245688
 20
52.0635347264
 11
146.6341245688
 21
42.0635347264
  0
LINE
  5
86A
100
AcDbEntity
  8
0
100
AcDbLine
 62
7
  6
CONTINUOUS
 10
147.0341245688
 20
52.0635347264
 11
147.0341245688
 21
53.0635347264
  0
LINE
  5
86B
100
AcDbEntity
  8
0
100
AcDbLine
 62
7
  6
CONTINUOUS
 10
147.8141245688
 20
52.0635347264
 11
147.8141245688
 21
53.0635347264
  0
LINE
  5
86C
100
AcDbEntity
  8
0
100
AcDbLine
 62
7
  6
CONTINUOUS
 10
148.2141245688
 20
77.2119027783
 11
148.2141245688
 21
53.0635347264
  0
LINE
  5
86D
100
AcDbEntity
  8
0
100
AcDbLine
 62
7
  6
CONTINUOUS
 10
148.2141245688
 20
52.0635347264
 11
148.2141245688
 21
42.0635347264
  0
LINE
  5
86E
100
AcDbEntity
  8
RACCORDO
100
AcDbLine
 62
253
  6
CONTINUOUS
 10
148.2584537453
 20
77.2295101597
 11
148.2584537453
 21
77.7294340073
  0
LINE
  5
86F
100
AcDbEntity
  8
0
100
AcDbLine
 62
7
  6
CONTINUOUS
 10
148.6341245688
 20
77.245029763
 11
148.6341245688
 21
53.0635347264
  0
LINE
  5
870
100
AcDbEntity
  8
0
100
AcDbLine
 62
7
  6
CONTINUOUS
 10
148.6341245688
 20
52.0635347264
 11
148.6341245688
 21
42.0635347264
  0
LINE
  5
871
100
AcDbEntity
  8
0
100
AcDbLine
 62
7
  6
CONTINUOUS
 10
149.0341245688
 20
52.0635347264
 11
149.0341245688
 21
53.0635347264
  0
LINE
  5
872
100
AcDbEntity
  8
RACCORDO
100
AcDbLine
 62
253
  6
CONTINUOUS
 10
149.758225288
 20
87.7121312704
 11
149.758225288
 21
79.22920555
  0
LINE
  5
873
100
AcDbEntity
  8
0
100
AcDbLine
 62
7
  6
CONTINUOUS
 10
149.8141245688
 20
52.0635347264
 11
149.8141245688
 21
53.0635347264
  0
LINE
  5
874
100
AcDbEntity
  8
0
100
AcDbLine
 62
7
  6
CONTINUOUS
 10
150.2141245688
 20
78.7220524451
 11
150.2141245688
 21
53.0635347264
  0
LINE
  5
875
100
AcDbEntity
  8
0
100
AcDbLine
 62
7
  6
CONTINUOUS
 10
150.2141245688
 20
52.0635347264
 11
150.2141245688
 21
42.0635347264
  0
LINE
  5
876
100
AcDbEntity
  8
RACCORDO
100
AcDbLine
 62
253
  6
CONTINUOUS
 10
150.2581491356
 20
86.6019639645
 11
150.2581491356
 21
79.2293480131
  0
LINE
  5
877
100
AcDbEntity
  8
RACCORDO
100
AcDbLine
 62
7
  6
CONTINUOUS
 10
150.275756517
 20
86.2119027783
 11
150.275756517
 21
79.2115981686
  0
LINE
  5
878
100
AcDbEntity
  8
0
100
AcDbLine
 62
7
  6
CONTINUOUS
 10
150.6441245688
 20
86.1333549861
 11
150.6441245688
 21
53.0635347264
  0
LINE
  5
879
100
AcDbEntity
  8
0
100
AcDbLine
 62
7
  6
CONTINUOUS
 10
150.6441245688
 20
52.0635347264
 11
150.6441245688
 21
42.0635347264
  0
LWPOLYLINE
  5
87A
100
AcDbEntity
  8
RACCORDO
100
AcDbPolyline
 62
253
  6
CONTINUOUS
 90
25
 70
0
 10
149.758225288
 20
79.22920555
 10
149.7549517614
 20
79.1307190647
 10
149.7453888493
 20
79.0333904752
 10
149.7295365517
 20
78.9372197813
 10
149.7072733004
 20
78.8417757426
 10
149.6787206636
 20
78.7474895996
 10
149.6442433459
 20
78.6556550739
 10
149.6037661069
 20
78.566333621
 10
149.5573641869
 20
78.4794637854
 10
149.5056280113
 20
78.3961549222
 10
149.4484883827
 20
78.3164522294
 10
149.3860144986
 20
78.2403105091
 10
149.3190043764
 20
78.1687035224
 10
149.2473990692
 20
78.1016893035
 10
149.171257524
 20
78.0392098182
 10
149.091554599
 20
77.9820647251
 10
149.0082454183
 20
77.9303237003
 10
148.9213748579
 20
77.8839170678
 10
148.832052404
 20
77.8434354576
 10
148.7402180021
 20
77.8089542104
 10
148.6459317067
 20
77.7803979857
 10
148.5504831683
 20
77.7581313921
 10
148.4543022704
 20
77.742275966
 10
148.3569591293
 20
77.732710171
 10
148.2584537453
 20
77.7294340073
  0
LINE
  5
87B
100
AcDbEntity
  8
RACCORDO
100
AcDbLine
 62
253
  6
CONTINUOUS
 10
126.4241245688
 20
88.0632301167
 11
126.5729495701
 21
88.2121841166
  0
LINE
  5
87C
100
AcDbEntity
  8
RACCORDO
100
AcDbLine
 62
253
  6
CONTINUOUS
 10
166.4241245688
 20
124.0638393361
 11
166.2752995676
 21
123.9148853362
  0
LINE
  5
87D
100
AcDbEntity
  8
RACCORDO
100
AcDbLine
 62
7
  6
CONTINUOUS
 10
163.8577343955
 20
125.9971445531
 11
163.9241245688
 21
126.0635347264
  0
LINE
  5
87E
100
AcDbEntity
  8
RACCORDO
100
AcDbLine
 62
253
  6
CONTINUOUS
 10
164.4244291785
 20
126.0635347264
 11
164.2756041773
 21
125.9147097252
  0
LINE
  5
87F
100
AcDbEntity
  8
RACCORDO
100
AcDbLine
 62
253
  6
CONTINUOUS
 10
163.7169860885
 20
123.8488001226
 11
163.6817206923
 21
123.8135347264
  0
LINE
  5
880
100
AcDbEntity
  8
RACCORDO
100
AcDbLine
 62
253
  6
CONTINUOUS
 10
128.6388591727
 20
88.7706732068
 11
128.6741245688
 21
88.8059386029
  0
LINE
  5
881
100
AcDbEntity
  8
RACCORDO
100
AcDbLine
 62
253
  6
CONTINUOUS
 10
164.209389965
 20
123.3563962461
 11
164.1741245688
 21
123.3211308499
  0
LINE
  5
882
100
AcDbEntity
  8
RACCORDO
100
AcDbLine
 62
253
  6
CONTINUOUS
 10
129.1312630492
 20
88.2782693303
 11
129.1665284454
 21
88.3135347264
  0
LINE
  5
883
100
AcDbEntity
  8
RACCORDO
100
AcDbLine
 62
253
  6
CONTINUOUS
 10
128.4238199592
 20
86.0635347264
 11
128.5726449604
 21
86.2123597276
  0
LINE
  5
884
100
AcDbEntity
  8
RACCORDO
100
AcDbLine
 62
7
  6
CONTINUOUS
 10
128.9905147422
 20
86.1299248997
 11
128.9241245688
 21
86.0635347264
  0
LINE
  5
885
100
AcDbEntity
  8
DRAFT
100
AcDbLine
 62
7
  6
CONTINUOUS
 10
166.4241245688
 20
123.0635347264
 11
166.275756517
 21
122.9151666745
  0
LINE
  5
886
100
AcDbEntity
  8
RACCORDO
100
AcDbLine
 62
7
  6
CONTINUOUS
 10
166.2752995676
 20
122.9147097252
 11
166.275756517
 21
122.9151666745
  0
LINE
  5
887
100
AcDbEntity
  8
DRAFT
100
AcDbLine
 62
7
  6
CONTINUOUS
 10
130.039712057
 20
86.1508100511
 11
130.0222569921
 21
86.1333549861
  0
LINE
  5
888
100
AcDbEntity
  8
DRAFT
100
AcDbLine
 62
7
  6
CONTINUOUS
 10
128.6741245688
 20
103.4762594018
 11
128.6388591727
 21
103.4727683888
  0
LINE
  5
889
100
AcDbEntity
  8
DRAFT
100
AcDbLine
 62
7
  6
CONTINUOUS
 10
164.1741245688
 20
108.6508100511
 11
164.209389965
 21
108.654301064
  0
LINE
  5
88A
100
AcDbEntity
  8
RACCORDO
100
AcDbLine
 62
7
  6
CONTINUOUS
 10
164.7755280249
 20
103.4727683888
 11
164.209389965
 21
103.4727683888
  0
LINE
  5
88B
100
AcDbEntity
  8
RACCORDO
100
AcDbLine
 62
7
  6
CONTINUOUS
 10
128.6388591727
 20
103.4727683888
 11
128.0727211128
 21
103.4727683888
  0
LINE
  5
88C
100
AcDbEntity
  8
DRAFT
100
AcDbLine
 62
7
  6
CONTINUOUS
 10
164.1741245688
 20
103.4762594018
 11
162.8368492442
 21
103.4762594018
  0
LINE
  5
88D
100
AcDbEntity
  8
DRAFT
100
AcDbLine
 62
7
  6
CONTINUOUS
 10
128.6741245688
 20
103.4762594018
 11
130.0113998935
 21
103.4762594018
  0
LINE
  5
88E
100
AcDbEntity
  8
RACCORDO
100
AcDbLine
 62
7
  6
CONTINUOUS
 10
164.2844078854
 20
103.4989509862
 11
162.8595408286
 21
103.4989509862
  0
LINE
  5
88F
100
AcDbEntity
  8
RACCORDO
100
AcDbLine
 62
7
  6
CONTINUOUS
 10
128.5638412523
 20
103.4989509862
 11
129.9887083091
 21
103.4989509862
  0
LINE
  5
890
100
AcDbEntity
  8
0
100
AcDbLine
 62
7
  6
CONTINUOUS
 10
164.8403402572
 20
103.5635347264
 11
163.9241245688
 21
103.5635347264
  0
LINE
  5
891
100
AcDbEntity
  8
0
100
AcDbLine
 62
7
  6
CONTINUOUS
 10
128.9241245688
 20
103.5635347264
 11
128.0079088805
 21
103.5635347264
  0
LINE
  5
892
100
AcDbEntity
  8
DRAFT
100
AcDbLine
 62
7
  6
CONTINUOUS
 10
164.1741245688
 20
103.4762594018
 11
164.209389965
 21
103.4727683888
  0
LINE
  5
893
100
AcDbEntity
  8
DRAFT
100
AcDbLine
 62
7
  6
CONTINUOUS
 10
128.6741245688
 20
108.6508100511
 11
128.6388591727
 21
108.654301064
  0
LWPOLYLINE
  5
894
100
AcDbEntity
  8
RACCORDO
100
AcDbPolyline
 62
253
  6
CONTINUOUS
 90
9
 70
0
 10
130.7587183316
 20
126.2146640337
 10
130.7629490797
 20
126.2105714873
 10
130.7700969863
 20
126.2014059314
 10
130.7801620513
 20
126.1871673662
 10
130.7930926283
 20
126.167948411
 10
130.8089403637
 20
126.1436564464
 10
130.8278601971
 20
126.1140136141
 10
130.8498761781
 20
126.0789861677
 10
130.874964257
 20
126.0386078535
  0
LINE
  5
895
100
AcDbEntity
  8
RACCORDO
100
AcDbLine
 62
253
  6
CONTINUOUS
 10
128.4238199592
 20
126.0635347264
 11
128.572773959
 21
125.9147097252
  0
LINE
  5
896
100
AcDbEntity
  8
RACCORDO
100
AcDbLine
 62
253
  6
CONTINUOUS
 10
163.7169860885
 20
88.2782693303
 11
163.6817206923
 21
88.3135347264
  0
LINE
  5
897
100
AcDbEntity
  8
RACCORDO
100
AcDbLine
 62
253
  6
CONTINUOUS
 10
128.6388591727
 20
123.3563962461
 11
128.6741245688
 21
123.3211308499
  0
LINE
  5
898
100
AcDbEntity
  8
RACCORDO
100
AcDbLine
 62
253
  6
CONTINUOUS
 10
164.209389965
 20
88.7706732068
 11
164.1741245688
 21
88.8059386029
  0
LINE
  5
899
100
AcDbEntity
  8
RACCORDO
100
AcDbLine
 62
253
  6
CONTINUOUS
 10
129.1312630492
 20
123.8488001226
 11
129.1665284454
 21
123.8135347264
  0
LINE
  5
89A
100
AcDbEntity
  8
0
100
AcDbLine
 62
7
  6
CONTINUOUS
 10
128.9241245688
 20
126.0635347264
 11
128.9887996989
 21
125.9988595963
  0
LINE
  5
89B
100
AcDbEntity
  8
RACCORDO
100
AcDbLine
 62
7
  6
CONTINUOUS
 10
128.9905147422
 20
125.9971445531
 11
128.9241245688
 21
126.0635347264
  0
LINE
  5
89C
100
AcDbEntity
  8
0
100
AcDbLine
 62
253
  6
CONTINUOUS
 10
129.3241245688
 20
127.3638393129
 11
129.3489347227
 21
127.3390291591
  0
LINE
  5
89D
100
AcDbEntity
  8
0
100
AcDbLine
 62
253
  6
CONTINUOUS
 10
129.8238199824
 20
127.8635347264
 11
129.8486301362
 21
127.8387245726
  0
LINE
  5
89E
100
AcDbEntity
  8
RACCORDO
100
AcDbLine
 62
253
  6
CONTINUOUS
 10
166.4241245688
 20
88.0632301167
 11
166.2752995676
 21
88.2121794572
  0
LINE
  5
89F
100
AcDbEntity
  8
0
100
AcDbLine
 62
7
  6
CONTINUOUS
 10
151.0341245688
 20
52.0635347264
 11
151.0341245688
 21
53.0635347264
  0
LINE
  5
8A0
100
AcDbEntity
  8
0
100
AcDbLine
 62
7
  6
CONTINUOUS
 10
151.8141245688
 20
52.0635347264
 11
151.8141245688
 21
53.0635347264
  0
LINE
  5
8A1
100
AcDbEntity
  8
0
100
AcDbLine
 62
7
  6
CONTINUOUS
 10
152.2041245688
 20
86.1333549861
 11
152.2041245688
 21
53.0635347264
  0
LINE
  5
8A2
100
AcDbEntity
  8
0
100
AcDbLine
 62
7
  6
CONTINUOUS
 10
152.2041245688
 20
52.0635347264
 11
152.2041245688
 21
42.0635347264
  0
LINE
  5
8A3
100
AcDbEntity
  8
0
100
AcDbLine
 62
7
  6
CONTINUOUS
 10
152.6441245688
 20
86.1333549861
 11
152.6441245688
 21
53.0635347264
  0
LINE
  5
8A4
100
AcDbEntity
  8
0
100
AcDbLine
 62
7
  6
CONTINUOUS
 10
152.6441245688
 20
52.0635347264
 11
152.6441245688
 21
42.0635347264
  0
LINE
  5
8A5
100
AcDbEntity
  8
0
100
AcDbLine
 62
7
  6
CONTINUOUS
 10
153.0341245688
 20
52.0635347264
 11
153.0341245688
 21
53.0635347264
  0
LINE
  5
8A6
100
AcDbEntity
  8
0
100
AcDbLine
 62
7
  6
CONTINUOUS
 10
153.8141245688
 20
52.0635347264
 11
153.8141245688
 21
53.0635347264
  0
LINE
  5
8A7
100
AcDbEntity
  8
0
100
AcDbLine
 62
7
  6
CONTINUOUS
 10
154.2041245688
 20
86.1333549861
 11
154.2041245688
 21
53.0635347264
  0
LINE
  5
8A8
100
AcDbEntity
  8
0
100
AcDbLine
 62
7
  6
CONTINUOUS
 10
154.2041245688
 20
52.0635347264
 11
154.2041245688
 21
42.0635347264
  0
LINE
  5
8A9
100
AcDbEntity
  8
ASSI
100
AcDbLine
 62
7
  6
CONTINUOUS
 10
154.6441245688
 20
86.1333549861
 11
154.6441245688
 21
53.0635347264
  0
LINE
  5
8AA
100
AcDbEntity
  8
ASSI
100
AcDbLine
 62
7
  6
CONTINUOUS
 10
154.6441245688
 20
52.0635347264
 11
154.6441245688
 21
42.0635347264
  0
LINE
  5
8AB
100
AcDbEntity
  8
ASSI
100
AcDbLine
 62
7
  6
CONTINUOUS
 10
155.0341245688
 20
52.0635347264
 11
155.0341245688
 21
53.0635347264
  0
LWPOLYLINE
  5
8AC
100
AcDbEntity
  8
RACCORDO
100
AcDbPolyline
 62
253
  6
CONTINUOUS
 90
25
 70
0
 10
150.2581491448
 20
79.2293479987
 10
150.2538632238
 20
79.0984869431
 10
150.2410268267
 20
78.9682054599
 10
150.2196984549
 20
78.8390612241
 10
150.1899744059
 20
78.7116118057
 10
150.1519845677
 20
78.5863967283
 10
150.1058884498
 20
78.4639361683
 10
150.051881308
 20
78.3447494624
 10
149.9901963074
 20
78.2293515282
 10
149.9210973013
 20
78.1182358711
 10
149.8448802174
 20
78.0118780691
 10
149.7618714265
 20
77.9107331543
 10
149.6724257902
 20
77.8152334873
 10
149.5769261228
 20
77.7257878527
 10
149.4757812085
 20
77.6427790641
 10
149.3694234076
 20
77.5665619826
 10
149.2583077515
 20
77.4974629785
 10
149.1429098187
 20
77.4357779798
 10
149.0237231148
 20
77.38177084
 10
148.9012625228
 20
77.3356747121
 10
148.7760474127
 20
77.2976848684
 10
148.6485980688
 20
77.2679608397
 10
148.5194540551
 20
77.2466324973
 10
148.3891729069
 20
77.2337961078
 10
148.258312297
 20
77.2295101505
  0
LINE
  5
8AD
100
AcDbEntity
  8
RACCORDO
100
AcDbLine
 62
7
  6
CONTINUOUS
 10
142.9218923195
 20
87.4180222576
 11
142.9775736685
 21
87.5165456291
  0
LINE
  5
8AE
100
AcDbEntity
  8
RACCORDO
100
AcDbLine
 62
7
  6
CONTINUOUS
 10
142.9775736685
 20
87.5165456291
 11
143.0900238497
 21
87.7121312704
  0
LINE
  5
8AF
100
AcDbEntity
  8
0
100
AcDbLine
 62
253
  6
CONTINUOUS
 10
130.039712057
 20
85.2007643596
 11
130.0222569921
 21
85.1833092947
  0
LINE
  5
8B0
100
AcDbEntity
  8
0
100
AcDbLine
 62
253
  6
CONTINUOUS
 10
130.3396663655
 20
84.9008100511
 11
130.3222113006
 21
84.8833549861
  0
LINE
  5
8B1
100
AcDbEntity
  8
RACCORDO
100
AcDbLine
 62
253
  6
CONTINUOUS
 10
173.2583112822
 20
122.8975592932
 11
173.2760611266
 21
122.9151666745
  0
LINE
  5
8B2
100
AcDbEntity
  8
0
100
AcDbLine
 62
7
  6
CONTINUOUS
 10
126.3297506203
 20
110.7670438509
 11
126.4664816471
 21
110.7711776482
  0
LINE
  5
8B3
100
AcDbEntity
  8
0
100
AcDbLine
 62
7
  6
CONTINUOUS
 10
164.8403402572
 20
108.5635347264
 11
163.9241245688
 21
108.5635347264
  0
LINE
  5
8B4
100
AcDbEntity
  8
0
100
AcDbLine
 62
7
  6
CONTINUOUS
 10
128.9241245688
 20
108.5635347264
 11
128.0079088805
 21
108.5635347264
  0
LINE
  5
8B5
100
AcDbEntity
  8
RACCORDO
100
AcDbLine
 62
7
  6
CONTINUOUS
 10
164.2844078854
 20
108.6281184667
 11
162.8595408286
 21
108.6281184667
  0
LINE
  5
8B6
100
AcDbEntity
  8
RACCORDO
100
AcDbLine
 62
7
  6
CONTINUOUS
 10
128.5638412523
 20
108.6281184667
 11
129.9887083091
 21
108.6281184667
  0
LINE
  5
8B7
100
AcDbEntity
  8
DRAFT
100
AcDbLine
 62
7
  6
CONTINUOUS
 10
164.1741245688
 20
108.6508100511
 11
162.8368492442
 21
108.6508100511
  0
LINE
  5
8B8
100
AcDbEntity
  8
DRAFT
100
AcDbLine
 62
7
  6
CONTINUOUS
 10
128.6741245688
 20
108.6508100511
 11
130.0113998935
 21
108.6508100511
  0
LINE
  5
8B9
100
AcDbEntity
  8
RACCORDO
100
AcDbLine
 62
7
  6
CONTINUOUS
 10
128.0727211128
 20
108.654301064
 11
128.6388591727
 21
108.654301064
  0
LINE
  5
8BA
100
AcDbEntity
  8
RACCORDO
100
AcDbLine
 62
7
  6
CONTINUOUS
 10
164.209389965
 20
108.654301064
 11
164.7755280249
 21
108.654301064
  0
LINE
  5
8BB
100
AcDbEntity
  8
RACCORDO
100
AcDbLine
 62
253
  6
CONTINUOUS
 10
166.520127426
 20
110.4227226904
 11
166.3281217117
 21
110.4227226904
  0
LINE
  5
8BC
100
AcDbEntity
  8
RACCORDO
100
AcDbLine
 62
253
  6
CONTINUOUS
 10
126.520127426
 20
110.4227226904
 11
126.3281217117
 21
110.4227226904
  0
LINE
  5
8BD
100
AcDbEntity
  8
RACCORDO
100
AcDbLine
 62
253
  6
CONTINUOUS
 10
166.5189902103
 20
110.7226769989
 11
166.3332668414
 21
110.7226769989
  0
LINE
  5
8BE
100
AcDbEntity
  8
RACCORDO
100
AcDbLine
 62
253
  6
CONTINUOUS
 10
126.5149822963
 20
110.7226769989
 11
126.3292589274
 21
110.7226769989
  0
LINE
  5
8BF
100
AcDbEntity
  8
RACCORDO
100
AcDbLine
 62
253
  6
CONTINUOUS
 10
167.7791866034
 20
110.9670748852
 11
166.5690625343
 21
110.9670748852
  0
LINE
  5
8C0
100
AcDbEntity
  8
RACCORDO
100
AcDbLine
 62
253
  6
CONTINUOUS
 10
125.0690625343
 20
110.9670748852
 11
126.2791866034
 21
110.9670748852
  0
LINE
  5
8C1
100
AcDbEntity
  8
0
100
AcDbLine
 62
7
  6
CONTINUOUS
 10
166.3817674906
 20
110.7711776482
 11
166.5184985174
 21
110.7670438509
  0
LINE
  5
8C2
100
AcDbEntity
  8
0
100
AcDbLine
 62
7
  6
CONTINUOUS
 10
129.039518467
 20
125.9988139101
 11
129.0209916549
 21
126.0111635502
  0
LWPOLYLINE
  5
8C3
100
AcDbEntity
  8
RACCORDO
100
AcDbPolyline
 62
253
  6
CONTINUOUS
 90
9
 70
0
 10
130.5855396308
 20
125.9147097252
 10
130.5902067902
 20
125.9106315383
 10
130.5982335163
 20
125.9014188667
 10
130.6096198089
 20
125.8870447804
 10
130.6242980369
 20
125.8675655636
 10
130.6423358315
 20
125.842956098
 10
130.6639360862
 20
125.8129624911
 10
130.6891460098
 20
125.7774058294
 10
130.7179183934
 20
125.7363018136
  0
LINE
  5
8C4
100
AcDbEntity
  8
ASSI
100
AcDbLine
 62
7
  6
CONTINUOUS
 10
155.8141245688
 20
52.0635347264
 11
155.8141245688
 21
53.0635347264
  0
LINE
  5
8C5
100
AcDbEntity
  8
ASSI
100
AcDbLine
 62
7
  6
CONTINUOUS
 10
156.2041245688
 20
86.1333549861
 11
156.2041245688
 21
53.0635347264
  0
LINE
  5
8C6
100
AcDbEntity
  8
ASSI
100
AcDbLine
 62
7
  6
CONTINUOUS
 10
156.2041245688
 20
52.0635347264
 11
156.2041245688
 21
42.0635347264
  0
LINE
  5
8C7
100
AcDbEntity
  8
RACCORDO
100
AcDbLine
 62
253
  6
CONTINUOUS
 10
175.2581491356
 20
120.8977224404
 11
175.275756517
 21
120.9154712842
  0
LINE
  5
8C8
100
AcDbEntity
  8
RACCORDO
100
AcDbLine
 62
253
  6
CONTINUOUS
 10
167.7241550298
 20
114.0635347264
 11
167.627238274
 21
113.9666179707
  0
LINE
  5
8C9
100
AcDbEntity
  8
RACCORDO
100
AcDbLine
 62
253
  6
CONTINUOUS
 10
167.9241245688
 20
113.8635651874
 11
167.8272078131
 21
113.7666484316
  0
LINE
  5
8CA
100
AcDbEntity
  8
DRAFT
100
AcDbLine
 62
7
  6
CONTINUOUS
 10
166.4241245688
 20
110.8135347264
 11
166.3817674906
 21
110.7711776482
  0
LINE
  5
8CB
100
AcDbEntity
  8
RACCORDO
100
AcDbLine
 62
7
  6
CONTINUOUS
 10
166.3332668414
 20
110.7226769989
 11
166.3817674906
 21
110.7711776482
  0
LINE
  5
8CC
100
AcDbEntity
  8
RACCORDO
100
AcDbLine
 62
7
  6
CONTINUOUS
 10
164.8403402572
 20
108.5635347264
 11
164.930965639
 21
108.6541601082
  0
LINE
  5
8CD
100
AcDbEntity
  8
RACCORDO
100
AcDbLine
 62
7
  6
CONTINUOUS
 10
142.5729495701
 20
86.2123597276
 11
142.5724926207
 21
86.2119027783
  0
LINE
  5
8CE
100
AcDbEntity
  8
DRAFT
100
AcDbLine
 62
7
  6
CONTINUOUS
 10
142.4939448286
 20
86.1333549861
 11
142.5724926207
 21
86.2119027783
  0
LINE
  5
8CF
100
AcDbEntity
  8
RACCORDO
100
AcDbLine
 62
7
  6
CONTINUOUS
 10
167.8366969278
 20
110.9761070853
 11
167.9241245688
 21
111.0635347264
  0
LINE
  5
8D0
100
AcDbEntity
  8
RACCORDO
100
AcDbLine
 62
253
  6
CONTINUOUS
 10
130.5855396308
 20
86.2123597276
 11
130.4789324638
 21
86.1508100511
  0
LINE
  5
8D1
100
AcDbEntity
  8
RACCORDO
100
AcDbLine
 62
253
  6
CONTINUOUS
 10
130.7587183316
 20
85.9124054191
 11
130.6521111646
 21
85.8508557425
  0
LINE
  5
8D2
100
AcDbEntity
  8
RACCORDO
100
AcDbLine
 62
253
  6
CONTINUOUS
 10
130.4220049423
 20
85.2846095978
 11
130.2767807297
 21
85.2007643596
  0
LINE
  5
8D3
100
AcDbEntity
  8
RACCORDO
100
AcDbLine
 62
253
  6
CONTINUOUS
 10
132.5368989446
 20
86.4250616797
 11
132.7100778305
 21
86.525046137
  0
LINE
  5
8D4
100
AcDbEntity
  8
RACCORDO
100
AcDbLine
 62
253
  6
CONTINUOUS
 10
130.595183643
 20
84.9846552893
 11
130.4499594305
 21
84.9008100511
  0
LWPOLYLINE
  5
8D5
100
AcDbEntity
  8
RACCORDO
100
AcDbPolyline
 62
253
  6
CONTINUOUS
 90
13
 70
0
 10
166.7210108636
 20
113.9666179707
 10
166.6949145829
 20
113.9648999109
 10
166.6692646519
 20
113.9597910157
 10
166.644499779
 20
113.9513786686
 10
166.6210435329
 20
113.9398067535
 10
166.5992971026
 20
113.9252731955
 10
166.5796324343
 20
113.9080265778
 10
166.5623858636
 20
113.888361885
 10
166.5478523657
 20
113.8666154575
 10
166.5362805137
 20
113.8431592437
 10
166.5278682231
 20
113.8183944331
 10
166.5227593687
 20
113.792744594
 10
166.5210413246
 20
113.7666484316
  0
LWPOLYLINE
  5
8D6
100
AcDbEntity
  8
RACCORDO
100
AcDbPolyline
 62
253
  6
CONTINUOUS
 90
13
 70
0
 10
125.2210108636
 20
113.9666179707
 10
125.1949145829
 20
113.9648999109
 10
125.1692646519
 20
113.9597910157
 10
125.144499779
 20
113.9513786686
 10
125.1210435329
 20
113.9398067535
 10
125.0992971026
 20
113.9252731955
 10
125.0796324343
 20
113.9080265778
 10
125.0623858636
 20
113.888361885
 10
125.0478523657
 20
113.8666154575
 10
125.0362805137
 20
113.8431592437
 10
125.0278682231
 20
113.8183944331
 10
125.0227593687
 20
113.792744594
 10
125.0210413246
 20
113.7666484316
  0
LWPOLYLINE
  5
8D7
100
AcDbEntity
  8
RACCORDO
100
AcDbPolyline
 62
7
  6
CONTINUOUS
 90
13
 70
0
 10
125.1240941079
 20
114.0635347264
 10
125.097991981
 20
114.0618244622
 10
125.0723368028
 20
114.0567222859
 10
125.0475672813
 20
114.0483153047
 10
125.0241068245
 20
114.0367470636
 10
125.0023570186
 20
114.0222152764
 10
124.9826905966
 20
114.0049686986
 10
124.9654440189
 20
113.9853022767
 10
124.9509122317
 20
113.9635524708
 10
124.9393439906
 20
113.9400920139
 10
124.9309370094
 20
113.9153224925
 10
124.925834833
 20
113.8896673142
 10
124.9241245688
 20
113.8635651874
  0
LINE
  5
8D8
100
AcDbEntity
  8
RACCORDO
100
AcDbLine
 62
253
  6
CONTINUOUS
 10
126.127238274
 20
113.9666179707
 11
125.2210105068
 21
113.9666183275
  0
LINE
  5
8D9
100
AcDbEntity
  8
RACCORDO
100
AcDbLine
 62
253
  6
CONTINUOUS
 10
167.627238274
 20
113.9666179707
 11
166.7210105068
 21
113.9666183275
  0
LINE
  5
8DA
100
AcDbEntity
  8
RACCORDO
100
AcDbLine
 62
7
  6
CONTINUOUS
 10
125.1240941079
 20
114.0635347264
 11
126.2241550298
 21
114.0635347264
  0
LINE
  5
8DB
100
AcDbEntity
  8
RACCORDO
100
AcDbLine
 62
7
  6
CONTINUOUS
 10
166.6240941079
 20
114.0635347264
 11
167.7241550298
 21
114.0635347264
  0
LINE
  5
8DC
100
AcDbEntity
  8
RACCORDO
100
AcDbLine
 62
7
  6
CONTINUOUS
 10
173.2760611266
 20
115.2119027783
 11
166.275756517
 21
115.2119027783
  0
LINE
  5
8DD
100
AcDbEntity
  8
RACCORDO
100
AcDbLine
 62
253
  6
CONTINUOUS
 10
173.2583122828
 20
115.2295101597
 11
165.8856953307
 21
115.2295101597
  0
LINE
  5
8DE
100
AcDbEntity
  8
RACCORDO
100
AcDbLine
 62
253
  6
CONTINUOUS
 10
173.2584537453
 20
115.7294340073
 11
164.7755280249
 21
115.7294340073
  0
LWPOLYLINE
  5
8DF
100
AcDbEntity
  8
RACCORDO
100
AcDbPolyline
 62
7
  6
CONTINUOUS
 90
19
 70
0
 10
165.8856953307
 20
115.2295101597
 10
165.8457820324
 20
115.2319925343
 10
165.8049419982
 20
115.2377235296
 10
165.7631752283
 20
115.2463511434
 10
165.7202785544
 20
115.2575075492
 10
165.6764551446
 20
115.2708531162
 10
165.632314504
 20
115.2861117349
 10
165.5881183972
 20
115.3029092347
 10
165.5436050596
 20
115.3210144679
 10
165.4985987019
 20
115.3405033121
 10
165.4530813721
 20
115.3612485641
 10
165.4070710223
 20
115.3830346878
 10
165.3604457195
 20
115.4059483164
 10
165.3130870039
 20
115.4299440423
 10
165.2651133352
 20
115.4548290928
 10
165.2167581596
 20
115.4805190141
 10
165.1679927309
 20
115.5069157562
 10
165.1188457953
 20
115.5338870577
 10
165.0696370376
 20
115.5613024771
  0
LWPOLYLINE
  5
8E0
100
AcDbEntity
  8
RACCORDO
100
AcDbPolyline
 62
253
  6
CONTINUOUS
 90
13
 70
0
 10
126.127238274
 20
113.9666179707
 10
126.1533345055
 20
113.9648999174
 10
126.1789843961
 20
113.9597910398
 10
126.203749239
 20
113.9513787182
 10
126.2272054651
 20
113.9398068342
 10
126.2489518871
 20
113.9252733091
 10
126.2686165618
 20
113.9080267194
 10
126.2858631516
 20
113.8883620446
 10
126.3003966766
 20
113.8666156226
 10
126.3119685607
 20
113.8431593966
 10
126.3203808822
 20
113.8183945537
 10
126.3254897598
 20
113.7927446631
 10
126.3272078131
 20
113.7666484316
  0
LINE
  5
8E1
100
AcDbEntity
  8
0
100
AcDbLine
 62
7
  6
CONTINUOUS
 10
129.3489347227
 20
125.9813131694
 11
129.3241245688
 21
125.9937144667
  0
LINE
  5
8E2
100
AcDbEntity
  8
RACCORDO
100
AcDbLine
 62
253
  6
CONTINUOUS
 10
130.4789324638
 20
125.9762594018
 11
130.5855396308
 21
125.9147097252
  0
LINE
  5
8E3
100
AcDbEntity
  8
RACCORDO
100
AcDbLine
 62
253
  6
CONTINUOUS
 10
130.6521111646
 20
126.2762137103
 11
130.7587183316
 21
126.2146640337
  0
LINE
  5
8E4
100
AcDbEntity
  8
RACCORDO
100
AcDbLine
 62
253
  6
CONTINUOUS
 10
130.4220049423
 20
126.842459855
 11
130.2767807297
 21
126.9263050932
  0
LINE
  5
8E5
100
AcDbEntity
  8
RACCORDO
100
AcDbLine
 62
253
  6
CONTINUOUS
 10
132.7100784607
 20
125.6020244036
 11
132.5368995042
 21
125.7020087424
  0
LINE
  5
8E6
100
AcDbEntity
  8
RACCORDO
100
AcDbLine
 62
253
  6
CONTINUOUS
 10
130.595183643
 20
127.1424141635
 11
130.4499594305
 21
127.2262594018
  0
LINE
  5
8E7
100
AcDbEntity
  8
RACCORDO
100
AcDbLine
 62
253
  6
CONTINUOUS
 10
133.2530654946
 20
126.9424446245
 11
133.4262441954
 21
126.842459855
  0
LINE
  5
8E8
100
AcDbEntity
  8
0
100
AcDbLine
 62
253
  6
CONTINUOUS
 10
129.0209916549
 20
127.5112853871
 11
129.039518467
 21
127.498935747
  0
LINE
  5
8E9
100
AcDbEntity
  8
0
100
AcDbLine
 62
253
  6
CONTINUOUS
 10
129.420945969
 20
127.9111635502
 11
129.4368313516
 21
127.9005746395
  0
LINE
  5
8EA
100
AcDbEntity
  8
RACCORDO
100
AcDbLine
 62
253
  6
CONTINUOUS
 10
167.627238274
 20
98.1604514822
 11
167.7241550298
 21
98.0635347264
  0
LINE
  5
8EB
100
AcDbEntity
  8
RACCORDO
100
AcDbLine
 62
253
  6
CONTINUOUS
 10
167.8272078131
 20
98.3604210212
 11
167.9241245688
 21
98.2635042655
  0
LINE
  5
8EC
100
AcDbEntity
  8
DRAFT
100
AcDbLine
 62
7
  6
CONTINUOUS
 10
166.4241245688
 20
101.3135347264
 11
166.3817674906
 21
101.3558918047
  0
LINE
  5
8ED
100
AcDbEntity
  8
RACCORDO
100
AcDbLine
 62
7
  6
CONTINUOUS
 10
166.3332668414
 20
101.4043924539
 11
166.3817674906
 21
101.3558918047
  0
LINE
  5
8EE
100
AcDbEntity
  8
RACCORDO
100
AcDbLine
 62
7
  6
CONTINUOUS
 10
164.8403402572
 20
103.5635347264
 11
164.930965639
 21
103.4729093446
  0
LINE
  5
8EF
100
AcDbEntity
  8
RACCORDO
100
AcDbLine
 62
7
  6
CONTINUOUS
 10
167.8366969278
 20
101.1509623675
 11
167.9241245688
 21
101.0635347264
  0
LINE
  5
8F0
100
AcDbEntity
  8
DRAFT
100
AcDbLine
 62
7
  6
CONTINUOUS
 10
162.8368492442
 20
108.6508100511
 11
162.8368492442
 21
103.4762594018
  0
LINE
  5
8F1
100
AcDbEntity
  8
DRAFT
100
AcDbLine
 62
7
  6
CONTINUOUS
 10
162.8595408286
 20
108.6281184667
 11
162.8595408286
 21
103.4989509862
  0
LINE
  5
8F2
100
AcDbEntity
  8
DRAFT
100
AcDbLine
 62
7
  6
CONTINUOUS
 10
163.9241245688
 20
108.5635347264
 11
163.9241245688
 21
103.5635347264
  0
LINE
  5
8F3
100
AcDbEntity
  8
RACCORDO
100
AcDbLine
 62
7
  6
CONTINUOUS
 10
164.1741245688
 20
88.8059386029
 11
164.1741245688
 21
103.4762594018
  0
LINE
  5
8F4
100
AcDbEntity
  8
RACCORDO
100
AcDbLine
 62
7
  6
CONTINUOUS
 10
164.1741245688
 20
108.6508100511
 11
164.1741245688
 21
123.3211308499
  0
LINE
  5
8F5
100
AcDbEntity
  8
RACCORDO
100
AcDbLine
 62
7
  6
CONTINUOUS
 10
164.209389965
 20
88.7706732068
 11
164.209389965
 21
103.4727683888
  0
LINE
  5
8F6
100
AcDbEntity
  8
RACCORDO
100
AcDbLine
 62
7
  6
CONTINUOUS
 10
164.209389965
 20
108.654301064
 11
164.209389965
 21
123.3563962461
  0
LINE
  5
8F7
100
AcDbEntity
  8
RACCORDO
100
AcDbLine
 62
253
  6
CONTINUOUS
 10
164.2756041773
 20
86.2123597276
 11
164.2756041773
 21
87.7121312704
  0
LINE
  5
8F8
100
AcDbEntity
  8
RACCORDO
100
AcDbLine
 62
253
  6
CONTINUOUS
 10
164.2756041773
 20
124.4149381825
 11
164.2756041773
 21
125.9147097252
  0
LINE
  5
8F9
100
AcDbEntity
  8
RACCORDO
100
AcDbLine
 62
253
  6
CONTINUOUS
 10
164.3280455477
 20
108.6281184667
 11
164.3280455477
 21
108.5635347264
  0
LINE
  5
8FA
100
AcDbEntity
  8
RACCORDO
100
AcDbLine
 62
253
  6
CONTINUOUS
 10
164.3280455477
 20
103.5635347264
 11
164.3280455477
 21
103.4989509862
  0
LWPOLYLINE
  5
8FB
100
AcDbEntity
  8
RACCORDO
100
AcDbPolyline
 62
253
  6
CONTINUOUS
 90
12
 70
0
 10
167.627238274
 20
113.9666179707
 10
167.6257029848
 20
113.9635041594
 10
167.6241076554
 20
113.9571116103
 10
167.6224522858
 20
113.9470401652
 10
167.6207340468
 20
113.932887326
 10
167.6189557676
 20
113.9142279497
 10
167.617125936
 20
113.8905951637
 10
167.6152423274
 20
113.8615348721
 10
167.6133071665
 20
113.8265936564
 10
167.6113356138
 20
113.7852647921
 10
167.6093247035
 20
113.7370703884
 10
167.6052177671
 20
113.6182478737
  0
LWPOLYLINE
  5
8FC
100
AcDbEntity
  8
RACCORDO
100
AcDbPolyline
 62
253
  6
CONTINUOUS
 90
14
 70
0
 10
167.8272078131
 20
113.7666484316
 10
167.8256742148
 20
113.7643892101
 10
167.8240801588
 20
113.7583066899
 10
167.8224256452
 20
113.748400871
 10
167.8207077071
 20
113.7350869645
 10
167.8189293113
 20
113.7179497594
 10
167.8170993585
 20
113.6957436221
 10
167.815215766
 20
113.6684959778
 10
167.8132806164
 20
113.6361794013
 10
167.8113090591
 20
113.5974659838
 10
167.8092981345
 20
113.5523388069
 10
167.8072508021
 20
113.500814789
 10
167.8051910904
 20
113.4416167765
 10
167.8010221484
 20
113.2996916418
  0
LINE
  5
8FD
100
AcDbEntity
  8
RACCORDO
100
AcDbLine
 62
253
  6
CONTINUOUS
 10
142.5901000021
 20
79.2293470125
 11
142.5724926207
 21
79.2115981686
  0
LINE
  5
8FE
100
AcDbEntity
  8
DRAFT
100
AcDbLine
 62
7
  6
CONTINUOUS
 10
162.8595408286
 20
103.4989509862
 11
162.8368492442
 21
103.4762594018
  0
LINE
  5
8FF
100
AcDbEntity
  8
RACCORDO
100
AcDbLine
 62
7
  6
CONTINUOUS
 10
164.784331733
 20
103.5075262022
 11
164.8403402572
 21
103.5635347264
  0
LINE
  5
900
100
AcDbEntity
  8
RACCORDO
100
AcDbLine
 62
253
  6
CONTINUOUS
 10
133.4262441954
 20
85.2846095978
 11
133.2530654946
 21
85.1846248283
  0
LINE
  5
901
100
AcDbEntity
  8
RACCORDO
100
AcDbLine
 62
253
  6
CONTINUOUS
 10
175.2581491356
 20
117.22920555
 11
174.758225288
 21
117.22920555
  0
LINE
  5
902
100
AcDbEntity
  8
RACCORDO
100
AcDbLine
 62
253
  6
CONTINUOUS
 10
175.2581491356
 20
120.8978639028
 11
174.758225288
 21
120.8978639028
  0
LINE
  5
903
100
AcDbEntity
  8
DRAFT
100
AcDbLine
 62
7
  6
CONTINUOUS
 10
162.8595408286
 20
108.6281184667
 11
162.8368492442
 21
108.6508100511
  0
LINE
  5
904
100
AcDbEntity
  8
RACCORDO
100
AcDbLine
 62
7
  6
CONTINUOUS
 10
164.784331733
 20
108.6195432506
 11
164.8403402572
 21
108.5635347264
  0
LINE
  5
905
100
AcDbEntity
  8
RACCORDO
100
AcDbLine
 62
7
  6
CONTINUOUS
 10
166.5115522099
 20
110.9761070853
 11
166.4241245688
 21
111.0635347264
  0
LWPOLYLINE
  5
906
100
AcDbEntity
  8
RACCORDO
100
AcDbPolyline
 62
253
  6
CONTINUOUS
 90
13
 70
0
 10
167.8272078131
 20
113.7666484316
 10
167.825489773
 20
113.7927445631
 10
167.820380929
 20
113.8183943791
 10
167.8119686524
 20
113.8431591752
 10
167.8003968148
 20
113.8666153834
 10
167.7858633292
 20
113.8883618131
 10
167.7686167672
 20
113.908026514
 10
167.748952102
 20
113.9252731442
 10
167.727205668
 20
113.939806717
 10
167.7037494129
 20
113.9513786462
 10
167.6789845265
 20
113.9597910048
 10
167.6533345771
 20
113.964899908
 10
167.627238274
 20
113.9666179707
  0
LWPOLYLINE
  5
907
100
AcDbEntity
  8
RACCORDO
100
AcDbPolyline
 62
7
  6
CONTINUOUS
 90
13
 70
0
 10
167.9241245688
 20
113.8635651874
 10
167.9224143047
 20
113.8896673142
 10
167.9173121283
 20
113.9153224925
 10
167.9089051471
 20
113.9400920139
 10
167.897336906
 20
113.9635524708
 10
167.8828051188
 20
113.9853022767
 10
167.8655585411
 20
114.0049686986
 10
167.8458921191
 20
114.0222152764
 10
167.8241423132
 20
114.0367470636
 10
167.8006818563
 20
114.0483153047
 10
167.7759123349
 20
114.0567222859
 10
167.7502571567
 20
114.0618244622
 10
167.7241550298
 20
114.0635347264
  0
LWPOLYLINE
  5
908
100
AcDbEntity
  8
RACCORDO
100
AcDbPolyline
 62
253
  6
CONTINUOUS
 90
11
 70
0
 10
167.6093247035
 20
98.3899990644
 10
167.6113356139
 20
98.3418046607
 10
167.6133071665
 20
98.3004757964
 10
167.6152423274
 20
98.2655345808
 10
167.6171259359
 20
98.2364742892
 10
167.6189557676
 20
98.2128415032
 10
167.6207340468
 20
98.1941821269
 10
167.6224522859
 20
98.1800292876
 10
167.6241076555
 20
98.1699578425
 10
167.6257029849
 20
98.1635652934
 10
167.627238274
 20
98.1604514822
  0
LWPOLYLINE
  5
909
100
AcDbEntity
  8
RACCORDO
100
AcDbPolyline
 62
253
  6
CONTINUOUS
 90
12
 70
0
 10
167.8072508021
 20
98.6262546645
 10
167.8092981345
 20
98.5747306504
 10
167.8113090592
 20
98.5296034745
 10
167.8132806164
 20
98.4908900512
 10
167.8152157659
 20
98.4585734662
 10
167.8170993585
 20
98.4313258186
 10
167.8189293113
 20
98.4091196892
 10
167.8207077071
 20
98.3919824972
 10
167.8224256453
 20
98.3786685988
 10
167.8240801589
 20
98.3687627794
 10
167.8256742148
 20
98.3626802535
 10
167.8272078131
 20
98.3604210212
  0
LWPOLYLINE
  5
90A
100
AcDbEntity
  8
RACCORDO
100
AcDbPolyline
 62
253
  6
CONTINUOUS
 90
25
 70
0
 10
164.7755280249
 20
123.9150143349
 10
164.774436936
 20
123.9478449837
 10
164.7712488361
 20
123.9802902201
 10
164.7659637251
 20
124.0123500442
 10
164.758541217
 20
124.0441682861
 10
164.7490216978
 20
124.0756011156
 10
164.7375263255
 20
124.1062170425
 10
164.7240297617
 20
124.1359958191
 10
164.7085573448
 20
124.1649576931
 10
164.6913062476
 20
124.1927319174
 10
164.6722530321
 20
124.2193034436
 10
164.6514211363
 20
124.2446873202
 10
164.6290780472
 20
124.2685579454
 10
164.6052047294
 20
124.2908952714
 10
164.5798202182
 20
124.3117193461
 10
164.5532491069
 20
124.3307647116
 10
164.5254762385
 20
124.3480083686
 10
164.49651677
 20
124.3634733165
 10
164.4667407651
 20
124.3769630945
 10
164.4361261495
 20
124.3884526637
 10
164.4046949976
 20
124.397967063
 10
164.3728835957
 20
124.4053849489
 10
164.3408373728
 20
124.4106658735
 10
164.3084109
 20
124.4138502847
 10
164.2756041773
 20
124.4149381825
  0
LWPOLYLINE
  5
90B
100
AcDbEntity
  8
RACCORDO
100
AcDbPolyline
 62
253
  6
CONTINUOUS
 90
25
 70
0
 10
166.275299594
 20
123.9148853667
 10
166.2709942357
 20
124.0457143541
 10
166.258141208
 20
124.1759682795
 10
166.2367984327
 20
124.3050895371
 10
166.2070614167
 20
124.432521072
 10
166.1690596146
 20
124.5577227361
 10
166.1229528438
 20
124.6801727043
 10
166.0689363742
 20
124.7993511815
 10
166.0072430104
 20
124.9147435385
 10
165.9381367871
 20
125.0258558478
 10
165.8619135325
 20
125.132212495
 10
165.7788995474
 20
125.2333582672
 10
165.689450115
 20
125.3288602695
 10
165.5939481111
 20
125.4183097004
 10
165.4928023371
 20
125.5013236842
 10
165.3864456885
 20
125.577546938
 10
165.2753333785
 20
125.6466531613
 10
165.1599410211
 20
125.7083465258
 10
165.0407625428
 20
125.762362996
 10
164.9183080483
 20
125.8084713031
 10
164.7931016756
 20
125.846474043
 10
164.6656793669
 20
125.8762085851
 10
164.5365865256
 20
125.8975476148
 10
164.4063756856
 20
125.91039969
 10
164.2756041773
 20
125.9147097252
  0
LINE
  5
90C
100
AcDbEntity
  8
RACCORDO
100
AcDbLine
 62
253
  6
CONTINUOUS
 10
167.6052177671
 20
98.5088215791
 11
167.6093247035
 21
98.3899990644
  0
LINE
  5
90D
100
AcDbEntity
  8
RACCORDO
100
AcDbLine
 62
253
  6
CONTINUOUS
 10
166.540867146
 20
113.5043378426
 11
166.5449822113
 21
113.3797336335
  0
LINE
  5
90E
100
AcDbEntity
  8
RACCORDO
100
AcDbLine
 62
253
  6
CONTINUOUS
 10
167.8031128091
 20
98.7525782447
 11
167.8072508021
 21
98.6262546645
  0
LINE
  5
90F
100
AcDbEntity
  8
RACCORDO
100
AcDbLine
 62
253
  6
CONTINUOUS
 10
166.7408399814
 20
113.6853478034
 11
166.7449543819
 21
113.5521935658
  0
LINE
  5
910
100
AcDbEntity
  8
RACCORDO
100
AcDbLine
 62
253
  6
CONTINUOUS
 10
167.6010490879
 20
98.66088259
 11
167.6052177671
 21
98.5088215791
  0
LINE
  5
911
100
AcDbEntity
  8
RACCORDO
100
AcDbLine
 62
253
  6
CONTINUOUS
 10
166.5449822113
 20
113.3797336335
 11
166.5491158383
 21
113.2239546327
  0
LINE
  5
912
100
AcDbEntity
  8
RACCORDO
100
AcDbLine
 62
253
  6
CONTINUOUS
 10
167.7989617079
 20
98.9103678354
 11
167.8031128091
 21
98.7525782447
  0
LINE
  5
913
100
AcDbEntity
  8
RACCORDO
100
AcDbLine
 62
253
  6
CONTINUOUS
 10
166.7449543819
 20
113.5521935658
 11
166.7490870338
 21
113.3850856556
  0
LINE
  5
914
100
AcDbEntity
  8
RACCORDO
100
AcDbLine
 62
253
  6
CONTINUOUS
 10
167.5969484751
 20
98.8482858529
 11
167.6010490879
 21
98.66088259
  0
LINE
  5
915
100
AcDbEntity
  8
RACCORDO
100
AcDbLine
 62
253
  6
CONTINUOUS
 10
166.5491158383
 20
113.2239546327
 11
166.5550758958
 21
112.9279864557
  0
LINE
  5
916
100
AcDbEntity
  8
RACCORDO
100
AcDbLine
 62
253
  6
CONTINUOUS
 10
167.7930043074
 20
99.2089971256
 11
167.7989617079
 21
98.9103678354
  0
LINE
  5
917
100
AcDbEntity
  8
RACCORDO
100
AcDbLine
 62
253
  6
CONTINUOUS
 10
166.7490870338
 20
113.3850856556
 11
166.7550450775
 21
113.0680739874
  0
LINE
  5
918
100
AcDbEntity
  8
RACCORDO
100
AcDbLine
 62
253
  6
CONTINUOUS
 10
167.5912444024
 20
99.1895349068
 11
167.5969484751
 21
98.8482858529
  0
LINE
  5
919
100
AcDbEntity
  8
RACCORDO
100
AcDbLine
 62
253
  6
CONTINUOUS
 10
166.5550758958
 20
112.9279864557
 11
166.5601231209
 21
112.58128923
  0
LINE
  5
91A
100
AcDbEntity
  8
RACCORDO
100
AcDbLine
 62
253
  6
CONTINUOUS
 10
167.7879912278
 20
99.5567800268
 11
167.7930043074
 21
99.2089971256
  0
LINE
  5
91B
100
AcDbEntity
  8
RACCORDO
100
AcDbLine
 62
253
  6
CONTINUOUS
 10
166.7550450775
 20
113.0680739874
 11
166.7614808644
 21
112.5690274069
  0
LINE
  5
91C
100
AcDbEntity
  8
RACCORDO
100
AcDbLine
 62
253
  6
CONTINUOUS
 10
167.5854185194
 20
99.6978314412
 11
167.5912444024
 21
99.1895349068
  0
LINE
  5
91D
100
AcDbEntity
  8
RACCORDO
100
AcDbLine
 62
253
  6
CONTINUOUS
 10
166.5601231209
 20
112.58128923
 11
166.5648513129
 21
112.1046425181
  0
LINE
  5
91E
100
AcDbEntity
  8
RACCORDO
100
AcDbLine
 62
253
  6
CONTINUOUS
 10
167.7833240644
 20
100.0319670154
 11
167.7879912278
 21
99.5567800268
  0
LINE
  5
91F
100
AcDbEntity
  8
RACCORDO
100
AcDbLine
 62
253
  6
CONTINUOUS
 10
166.7614808644
 20
112.5690274069
 11
166.7664043106
 21
111.9375203763
  0
LINE
  5
920
100
AcDbEntity
  8
RACCORDO
100
AcDbLine
 62
253
  6
CONTINUOUS
 10
167.580666716
 20
100.4353045127
 11
167.5854185194
 21
99.6978314412
  0
LINE
  5
921
100
AcDbEntity
  8
RACCORDO
100
AcDbLine
 62
253
  6
CONTINUOUS
 10
166.5648513129
 20
112.1046425181
 11
166.5683687855
 21
111.4382095096
  0
LINE
  5
922
100
AcDbEntity
  8
RACCORDO
100
AcDbLine
 62
253
  6
CONTINUOUS
 10
167.7798662601
 20
100.6936140097
 11
167.7833240644
 21
100.0319670154
  0
LINE
  5
923
100
AcDbEntity
  8
RACCORDO
100
AcDbLine
 62
253
  6
CONTINUOUS
 10
166.7664043106
 20
111.9375203763
 11
166.7689419577
 21
111.1577790435
  0
LINE
  5
924
100
AcDbEntity
  8
RACCORDO
100
AcDbLine
 62
253
  6
CONTINUOUS
 10
164.7755280249
 20
103.4727683888
 11
164.7755280249
 21
88.212055118
  0
LINE
  5
925
100
AcDbEntity
  8
RACCORDO
100
AcDbLine
 62
253
  6
CONTINUOUS
 10
164.7755280249
 20
108.654301064
 11
164.7755280249
 21
115.7294340073
  0
LINE
  5
926
100
AcDbEntity
  8
RACCORDO
100
AcDbLine
 62
253
  6
CONTINUOUS
 10
164.7755280249
 20
122.3976354456
 11
164.7755280249
 21
123.9150143349
  0
LINE
  5
927
100
AcDbEntity
  8
DRAFT
100
AcDbLine
 62
7
  6
CONTINUOUS
 10
164.8403402572
 20
108.5635347264
 11
164.8403402572
 21
103.5635347264
  0
LINE
  5
928
100
AcDbEntity
  8
RACCORDO
100
AcDbLine
 62
7
  6
CONTINUOUS
 10
164.930965639
 20
103.4729093446
 11
164.930965639
 21
108.6541601082
  0
LINE
  5
929
100
AcDbEntity
  8
RACCORDO
100
AcDbLine
 62
253
  6
CONTINUOUS
 10
166.2752995676
 20
115.2123597276
 11
166.2752995676
 21
88.2121794572
  0
LINE
  5
92A
100
AcDbEntity
  8
RACCORDO
100
AcDbLine
 62
253
  6
CONTINUOUS
 10
166.2752995676
 20
122.9147097252
 11
166.2752995676
 21
123.9148853362
  0
LINE
  5
92B
100
AcDbEntity
  8
RACCORDO
100
AcDbLine
 62
7
  6
CONTINUOUS
 10
166.3281217117
 20
110.4227226904
 11
166.3281217117
 21
101.7043467625
  0
LINE
  5
92C
100
AcDbEntity
  8
RACCORDO
100
AcDbLine
 62
7
  6
CONTINUOUS
 10
166.4241245688
 20
124.0638393361
 11
166.4241245688
 21
122.9151666745
  0
LINE
  5
92D
100
AcDbEntity
  8
RACCORDO
100
AcDbLine
 62
7
  6
CONTINUOUS
 10
166.4241245688
 20
115.2119027783
 11
166.4241245688
 21
114.2635042655
  0
LINE
  5
92E
100
AcDbEntity
  8
DRAFT
100
AcDbLine
 62
7
  6
CONTINUOUS
 10
166.4241245688
 20
101.0635347264
 11
166.4241245688
 21
101.3558918047
  0
LINE
  5
92F
100
AcDbEntity
  8
RACCORDO
100
AcDbLine
 62
7
  6
CONTINUOUS
 10
166.4241245688
 20
88.0632301167
 11
166.4241245688
 21
101.3135347264
  0
LINE
  5
930
100
AcDbEntity
  8
RACCORDO
100
AcDbLine
 62
7
  6
CONTINUOUS
 10
166.4241245688
 20
111.0635347264
 11
166.4241245688
 21
113.8635651874
  0
LINE
  5
931
100
AcDbEntity
  8
DRAFT
100
AcDbLine
 62
7
  6
CONTINUOUS
 10
166.4241245688
 20
110.7711776482
 11
166.4241245688
 21
115.0635347264
  0
LINE
  5
932
100
AcDbEntity
  8
RACCORDO
100
AcDbLine
 62
7
  6
CONTINUOUS
 10
166.520127426
 20
110.4761832378
 11
166.520127426
 21
101.6508862151
  0
LINE
  5
933
100
AcDbEntity
  8
RACCORDO
100
AcDbLine
 62
253
  6
CONTINUOUS
 10
166.5683687855
 20
111.4382095096
 11
166.5690625343
 21
101.1599945677
  0
LINE
  5
934
100
AcDbEntity
  8
RACCORDO
100
AcDbLine
 62
7
  6
CONTINUOUS
 10
167.8281217117
 20
110.4761832378
 11
167.8281217117
 21
101.6508862151
  0
LINE
  5
935
100
AcDbEntity
  8
RACCORDO
100
AcDbLine
 62
7
  6
CONTINUOUS
 10
167.9241245688
 20
113.8635651874
 11
167.9241245688
 21
111.0635347264
  0
LINE
  5
936
100
AcDbEntity
  8
RACCORDO
100
AcDbLine
 62
7
  6
CONTINUOUS
 10
167.9241245688
 20
101.0635347264
 11
167.9241245688
 21
98.2635042655
  0
LINE
  5
937
100
AcDbEntity
  8
RACCORDO
100
AcDbLine
 62
253
  6
CONTINUOUS
 10
166.7689419577
 20
111.1577790435
 11
166.7690192404
 21
101.0666184897
  0
LINE
  5
938
100
AcDbEntity
  8
RACCORDO
100
AcDbLine
 62
253
  6
CONTINUOUS
 10
167.579229496
 20
111.0594296217
 11
167.580666716
 21
100.4353045127
  0
LINE
  5
939
100
AcDbEntity
  8
RACCORDO
100
AcDbLine
 62
253
  6
CONTINUOUS
 10
167.7794132108
 20
111.2363919764
 11
167.7798662601
 21
100.6936140097
  0
LINE
  5
93A
100
AcDbEntity
  8
RACCORDO
100
AcDbLine
 62
253
  6
CONTINUOUS
 10
166.5690625343
 20
101.1599945677
 11
166.5675852586
 21
100.4773320791
  0
LINE
  5
93B
100
AcDbEntity
  8
RACCORDO
100
AcDbLine
 62
253
  6
CONTINUOUS
 10
167.5811777499
 20
111.808842507
 11
167.579229496
 21
111.0594296217
  0
LINE
  5
93C
100
AcDbEntity
  8
RACCORDO
100
AcDbLine
 62
253
  6
CONTINUOUS
 10
166.7690192404
 20
101.0666184897
 11
166.7670334868
 21
100.3103157859
  0
LINE
  5
93D
100
AcDbEntity
  8
RACCORDO
100
AcDbLine
 62
253
  6
CONTINUOUS
 10
167.7824905694
 20
111.9786380824
 11
167.7794132108
 21
111.2363919764
  0
LINE
  5
93E
100
AcDbEntity
  8
RACCORDO
100
AcDbLine
 62
253
  6
CONTINUOUS
 10
166.5675852586
 20
100.4773320791
 11
166.5638726998
 21
99.904360784
  0
LINE
  5
93F
100
AcDbEntity
  8
RACCORDO
100
AcDbLine
 62
253
  6
CONTINUOUS
 10
166.7670334868
 20
100.3103157859
 11
166.7627265977
 21
99.6864678901
  0
LINE
  5
940
100
AcDbEntity
  8
RACCORDO
100
AcDbLine
 62
253
  6
CONTINUOUS
 10
167.5854185194
 20
112.4292380116
 11
167.5811777499
 21
111.808842507
  0
LINE
  5
941
100
AcDbEntity
  8
RACCORDO
100
AcDbLine
 62
253
  6
CONTINUOUS
 10
167.7866162726
 20
112.4514474208
 11
167.7824905694
 21
111.9786380824
  0
LINE
  5
942
100
AcDbEntity
  8
RACCORDO
100
AcDbLine
 62
253
  6
CONTINUOUS
 10
166.5638726998
 20
99.904360784
 11
166.5585706431
 21
99.4274553801
  0
LINE
  5
943
100
AcDbEntity
  8
RACCORDO
100
AcDbLine
 62
253
  6
CONTINUOUS
 10
167.5912444024
 20
112.937534546
 11
167.5854185194
 21
112.4292380116
  0
LINE
  5
944
100
AcDbEntity
  8
RACCORDO
100
AcDbLine
 62
253
  6
CONTINUOUS
 10
166.7627265977
 20
99.6864678901
 11
166.7568426542
 21
99.1781825679
  0
LINE
  5
945
100
AcDbEntity
  8
RACCORDO
100
AcDbLine
 62
253
  6
CONTINUOUS
 10
167.7912147983
 20
112.8061518045
 11
167.7866162726
 21
112.4514474208
  0
LINE
  5
946
100
AcDbEntity
  8
RACCORDO
100
AcDbLine
 62
253
  6
CONTINUOUS
 10
166.5585706431
 20
99.4274553801
 11
166.5531657351
 21
99.0939288179
  0
LINE
  5
947
100
AcDbEntity
  8
RACCORDO
100
AcDbLine
 62
253
  6
CONTINUOUS
 10
167.5969484751
 20
113.2787836
 11
167.5912444024
 21
112.937534546
  0
LINE
  5
948
100
AcDbEntity
  8
RACCORDO
100
AcDbLine
 62
253
  6
CONTINUOUS
 10
166.7568426542
 20
99.1781825679
 11
166.7511246928
 21
98.8393857922
  0
LINE
  5
949
100
AcDbEntity
  8
RACCORDO
100
AcDbLine
 62
253
  6
CONTINUOUS
 10
167.7969207861
 20
113.1244393312
 11
167.7912147983
 21
112.8061518045
  0
LINE
  5
94A
100
AcDbEntity
  8
RACCORDO
100
AcDbLine
 62
253
  6
CONTINUOUS
 10
166.5531657351
 20
99.0939288179
 11
166.5491158383
 21
98.9031148203
  0
LINE
  5
94B
100
AcDbEntity
  8
RACCORDO
100
AcDbLine
 62
253
  6
CONTINUOUS
 10
167.6010490879
 20
113.4661868628
 11
167.5969484751
 21
113.2787836
  0
LINE
  5
94C
100
AcDbEntity
  8
RACCORDO
100
AcDbLine
 62
253
  6
CONTINUOUS
 10
166.7511246928
 20
98.8393857922
 11
166.7470341067
 21
98.6541394681
  0
LINE
  5
94D
100
AcDbEntity
  8
RACCORDO
100
AcDbLine
 62
253
  6
CONTINUOUS
 10
167.8010221484
 20
113.2996916418
 11
167.7969207861
 21
113.1244393312
  0
LINE
  5
94E
100
AcDbEntity
  8
RACCORDO
100
AcDbLine
 62
253
  6
CONTINUOUS
 10
166.5491158383
 20
98.9031148203
 11
166.5449822113
 21
98.7473358183
  0
LINE
  5
94F
100
AcDbEntity
  8
RACCORDO
100
AcDbLine
 62
253
  6
CONTINUOUS
 10
167.6052177671
 20
113.6182478737
 11
167.6010490879
 21
113.4661868628
  0
LWPOLYLINE
  5
950
100
AcDbEntity
  8
RACCORDO
100
AcDbPolyline
 62
253
  6
CONTINUOUS
 90
14
 70
0
 10
166.7470341067
 20
98.6541394681
 10
166.7428878123
 20
98.5041732822
 10
166.7408399814
 20
98.4417216494
 10
166.7388053055
 20
98.3869679963
 10
166.7368069862
 20
98.3394265268
 10
166.7348477336
 20
98.298648321
 10
166.7329248376
 20
98.2641679994
 10
166.7310533688
 20
98.2354906937
 10
166.729235529
 20
98.2121688817
 10
166.7274691164
 20
98.1937537406
 10
166.725762597
 20
98.1797858093
 10
166.7241187927
 20
98.1698447424
 10
166.7225348816
 20
98.1635318496
 10
166.7210108636
 20
98.1604514822
  0
LWPOLYLINE
  5
951
100
AcDbEntity
  8
RACCORDO
100
AcDbPolyline
 62
253
  6
CONTINUOUS
 90
25
 70
0
 10
166.2752995931
 20
88.2121794278
 10
166.2709940658
 20
88.0813525153
 10
166.2581410722
 20
87.9511001449
 10
166.2367984317
 20
87.8219799127
 10
166.2070615044
 20
87.6945487099
 10
166.1690596676
 20
87.5693468747
 10
166.1229528406
 20
87.4468967429
 10
166.0689363707
 20
87.327718267
 10
166.007243007
 20
87.2123259121
 10
165.9381367842
 20
87.1012136042
 10
165.8619135301
 20
86.9948569573
 10
165.7788995456
 20
86.8937111847
 10
165.689450114
 20
86.798209182
 10
165.593948111
 20
86.7087597507
 10
165.492802338
 20
86.6257457664
 10
165.3864456907
 20
86.5495225125
 10
165.2753333827
 20
86.4804162897
 10
165.1599410277
 20
86.4187229259
 10
165.0407625515
 20
86.364706456
 10
164.9183125107
 20
86.3185996601
 10
164.7931107699
 20
86.2805978424
 10
164.6656793799
 20
86.2508608649
 10
164.5365585726
 20
86.2295181484
 10
164.4063053306
 20
86.216665135
 10
164.2754772555
 20
86.2123597017
  0
LWPOLYLINE
  5
952
100
AcDbEntity
  8
RACCORDO
100
AcDbPolyline
 62
253
  6
CONTINUOUS
 90
25
 70
0
 10
164.7755280249
 20
88.212055118
 10
164.7744361988
 20
88.1792216733
 10
164.7712478599
 20
88.146775265
 10
164.7659630081
 20
88.1147158933
 10
164.7585411849
 20
88.082900225
 10
164.7490228489
 20
88.0514715932
 10
164.7375293762
 20
88.020859997
 10
164.724035617
 20
87.9910854333
 10
164.7085667211
 20
87.9621279051
 10
164.6913195139
 20
87.9343574206
 10
164.6722707245
 20
87.9077889387
 10
164.6514436237
 20
87.8824075006
 10
164.6291048497
 20
87.8585382375
 10
164.6052350267
 20
87.8362008297
 10
164.5798535304
 20
87.815375597
 10
164.5532851263
 20
87.79632863
 10
164.5255147481
 20
87.7790830401
 10
164.4965574621
 20
87.7636157159
 10
164.4667832328
 20
87.7501234145
 10
164.4361715963
 20
87.7386312523
 10
164.4047430165
 20
87.7291141128
 10
164.3729288492
 20
87.721693404
 10
164.3408728795
 20
87.7164095954
 10
164.3084313222
 20
87.7132222175
 10
164.2756041773
 20
87.7121312704
  0
LWPOLYLINE
  5
953
100
AcDbEntity
  8
RACCORDO
100
AcDbPolyline
 62
253
  6
CONTINUOUS
 90
13
 70
0
 10
166.5449822113
 20
98.7473358183
 10
166.5408671459
 20
98.6227316109
 10
166.5388322561
 20
98.571906285
 10
166.5368337684
 20
98.5273884723
 10
166.5348743899
 20
98.4891889984
 10
166.5329514136
 20
98.4572970377
 10
166.5310798906
 20
98.4304067704
 10
166.5292618767
 20
98.4084928516
 10
166.5274953161
 20
98.3915806263
 10
166.5257890922
 20
98.3784403091
 10
166.5241461662
 20
98.3686619716
 10
166.522563577
 20
98.3626555424
 10
166.5210413246
 20
98.3604210212
  0
LWPOLYLINE
  5
954
100
AcDbEntity
  8
RACCORDO
100
AcDbPolyline
 62
253
  6
CONTINUOUS
 90
13
 70
0
 10
167.8272078131
 20
98.3604210212
 10
167.8254897598
 20
98.3343247898
 10
167.8203808822
 20
98.3086748992
 10
167.8119685607
 20
98.2839100563
 10
167.8003966766
 20
98.2604538302
 10
167.7858631516
 20
98.2387074082
 10
167.7686165618
 20
98.2190427335
 10
167.7489518871
 20
98.2017961437
 10
167.7272054651
 20
98.1872626186
 10
167.703749239
 20
98.1756907346
 10
167.6789843961
 20
98.1672784131
 10
167.6533345055
 20
98.1621695354
 10
167.627238274
 20
98.1604514822
  0
LINE
  5
955
100
AcDbEntity
  8
RACCORDO
100
AcDbLine
 62
7
  6
CONTINUOUS
 10
166.5115522099
 20
101.1509623675
 11
166.4241245688
 21
101.0635347264
  0
LINE
  5
956
100
AcDbEntity
  8
RACCORDO
100
AcDbLine
 62
253
  6
CONTINUOUS
 10
166.5210413246
 20
98.3604210212
 11
166.4241245688
 21
98.2635042655
  0
LINE
  5
957
100
AcDbEntity
  8
RACCORDO
100
AcDbLine
 62
253
  6
CONTINUOUS
 10
166.7210108636
 20
98.1604514822
 11
166.6240941079
 21
98.0635347264
  0
LINE
  5
958
100
AcDbEntity
  8
RACCORDO
100
AcDbLine
 62
253
  6
CONTINUOUS
 10
144.5899378555
 20
77.2295101597
 11
144.5721880111
 21
77.2119027783
  0
LWPOLYLINE
  5
959
100
AcDbEntity
  8
RACCORDO
100
AcDbPolyline
 62
253
  6
CONTINUOUS
 90
25
 70
0
 10
128.5726449604
 20
124.4149381825
 10
128.5398143116
 20
124.4138470936
 10
128.5073690752
 20
124.4106589937
 10
128.4753092511
 20
124.4053738826
 10
128.4434910092
 20
124.3979513746
 10
128.4120581797
 20
124.3884318554
 10
128.3814422527
 20
124.3769364831
 10
128.3516634762
 20
124.3634399193
 10
128.3227016022
 20
124.3479675024
 10
128.2949273779
 20
124.3307164052
 10
128.2683558517
 20
124.3116631897
 10
128.2429719751
 20
124.2908312939
 10
128.2191013498
 20
124.2684882048
 10
128.1967640238
 20
124.244614887
 10
128.1759399491
 20
124.2192303758
 10
128.1568945837
 20
124.1926592645
 10
128.1396509266
 20
124.1648863961
 10
128.1241859788
 20
124.1359269276
 10
128.1106962008
 20
124.1061509226
 10
128.0992066316
 20
124.0755363071
 10
128.0896922323
 20
124.0441051552
 10
128.0822743463
 20
124.0122937533
 10
128.0769934217
 20
123.9802475304
 10
128.0738090106
 20
123.9478210576
 10
128.0727211128
 20
123.9150143349
  0
LINE
  5
95A
100
AcDbEntity
  8
RACCORDO
100
AcDbLine
 62
253
  6
CONTINUOUS
 10
164.7755280249
 20
122.3976354456
 11
173.2584537453
 21
122.3976354456
  0
LINE
  5
95B
100
AcDbEntity
  8
RACCORDO
100
AcDbLine
 62
253
  6
CONTINUOUS
 10
165.8856953307
 20
122.8975592932
 11
173.2583112822
 21
122.8975592932
  0
LINE
  5
95C
100
AcDbEntity
  8
RACCORDO
100
AcDbLine
 62
7
  6
CONTINUOUS
 10
166.275756517
 20
122.9151666745
 11
173.2760611266
 21
122.9151666745
  0
LINE
  5
95D
100
AcDbEntity
  8
RACCORDO
100
AcDbLine
 62
7
  6
CONTINUOUS
 10
163.6817206923
 20
123.8135347264
 11
129.1665284454
 21
123.8135347264
  0
LINE
  5
95E
100
AcDbEntity
  8
RACCORDO
100
AcDbLine
 62
7
  6
CONTINUOUS
 10
163.7169860885
 20
123.8488001226
 11
129.1312630492
 21
123.8488001226
  0
LINE
  5
95F
100
AcDbEntity
  8
RACCORDO
100
AcDbLine
 62
253
  6
CONTINUOUS
 10
128.0727211128
 20
123.9150143349
 11
126.5729495701
 21
123.9150143349
  0
LINE
  5
960
100
AcDbEntity
  8
RACCORDO
100
AcDbLine
 62
253
  6
CONTINUOUS
 10
164.7755280249
 20
123.9150143349
 11
166.2752995676
 21
123.9150143341
  0
LINE
  5
961
100
AcDbEntity
  8
RACCORDO
100
AcDbLine
 62
253
  6
CONTINUOUS
 10
164.2756041773
 20
124.4149381825
 11
132.2476987243
 21
124.4149524882
  0
LINE
  5
962
100
AcDbEntity
  8
RACCORDO
100
AcDbLine
 62
253
  6
CONTINUOUS
 10
131.6005514274
 20
124.4149415892
 11
128.5726449604
 21
124.4149381825
  0
LINE
  5
963
100
AcDbEntity
  8
RACCORDO
100
AcDbLine
 62
253
  6
CONTINUOUS
 10
164.2756041773
 20
125.9147097252
 11
133.2627095069
 21
125.9147097252
  0
LINE
  5
964
100
AcDbEntity
  8
RACCORDO
100
AcDbLine
 62
253
  6
CONTINUOUS
 10
130.5855396308
 20
125.9147097252
 11
128.572773959
 21
125.9147097252
  0
LINE
  5
965
100
AcDbEntity
  8
0
100
AcDbLine
 62
7
  6
CONTINUOUS
 10
143.9994971669
 20
125.9762594018
 11
133.3693166739
 21
125.9762594018
  0
LINE
  5
966
100
AcDbEntity
  8
0
100
AcDbLine
 62
7
  6
CONTINUOUS
 10
130.4789324638
 20
125.9762594018
 11
129.6487519708
 21
125.9762594018
  0
LINE
  5
967
100
AcDbEntity
  8
RACCORDO
100
AcDbLine
 62
7
  6
CONTINUOUS
 10
163.6577648565
 20
125.9937144667
 11
144.3241245688
 21
125.9937144667
  0
LINE
  5
968
100
AcDbEntity
  8
RACCORDO
100
AcDbLine
 62
7
  6
CONTINUOUS
 10
129.3241245688
 20
125.9937144667
 11
129.1904842812
 21
125.9937144667
  0
LINE
  5
969
100
AcDbEntity
  8
RACCORDO
100
AcDbLine
 62
7
  6
CONTINUOUS
 10
164.4244291785
 20
126.0635347264
 11
163.9241245688
 21
126.0635347264
  0
LINE
  5
96A
100
AcDbEntity
  8
RACCORDO
100
AcDbLine
 62
7
  6
CONTINUOUS
 10
128.9241245688
 20
126.0635347264
 11
128.4238199592
 21
126.0635347264
  0
LINE
  5
96B
100
AcDbEntity
  8
DRAFT
100
AcDbLine
 62
7
  6
CONTINUOUS
 10
128.9241245688
 20
126.0635347264
 11
129.0209916549
 21
126.0635347264
  0
LINE
  5
96C
100
AcDbEntity
  8
DRAFT
100
AcDbLine
 62
7
  6
CONTINUOUS
 10
144.6272574828
 20
126.0635347264
 11
163.9241245688
 21
126.0635347264
  0
LINE
  5
96D
100
AcDbEntity
  8
0
100
AcDbLine
 62
7
  6
CONTINUOUS
 10
129.3241245688
 20
125.9937257419
 11
129.1971115673
 21
125.9939647715
  0
LINE
  5
96E
100
AcDbEntity
  8
0
100
AcDbLine
 62
7
  6
CONTINUOUS
 10
129.2647336988
 20
125.993848747
 11
129.2372823604
 21
125.9940165327
  0
LINE
  5
96F
100
AcDbEntity
  8
0
100
AcDbLine
 62
7
  6
CONTINUOUS
 10
129.1971115673
 20
125.9939647715
 11
129.1400939491
 21
125.9944019154
  0
LINE
  5
970
100
AcDbEntity
  8
0
100
AcDbLine
 62
7
  6
CONTINUOUS
 10
129.1400939491
 20
125.9944019154
 11
129.0900426981
 21
125.9950290459
  0
LWPOLYLINE
  5
971
100
AcDbEntity
  8
0
100
AcDbPolyline
 62
7
  6
CONTINUOUS
 90
8
 70
0
 10
129.0900426981
 20
125.9950290459
 10
129.0479959948
 20
125.9958267939
 10
129.0308801609
 20
125.9962769898
 10
129.0163188663
 20
125.9967606036
 10
129.0047830763
 20
125.9972622134
 10
128.9964297792
 20
125.9977766784
 10
128.9911019868
 20
125.9983091394
 10
128.9887996989
 20
125.9988595963
  0
LWPOLYLINE
  5
972
100
AcDbEntity
  8
RACCORDO
100
AcDbPolyline
 62
253
  6
CONTINUOUS
 90
25
 70
0
 10
173.2583112965
 20
122.8975593023
 10
173.3891723521
 20
122.8932733814
 10
173.5194538354
 20
122.8804369843
 10
173.6485980712
 20
122.8591086124
 10
173.7760474896
 20
122.8293845635
 10
173.901262567
 20
122.7913947253
 10
174.023723127
 20
122.7452986074
 10
174.1429098329
 20
122.6912914656
 10
174.2583077671
 20
122.629606465
 10
174.3694234242
 20
122.5605074589
 10
174.4757812261
 20
122.484290375
 10
174.576926141
 20
122.4012815841
 10
174.672425808
 20
122.3118359478
 10
174.7618714426
 20
122.2163362803
 10
174.8448802312
 20
122.1151913661
 10
174.9210973127
 20
122.0088335651
 10
174.9901963168
 20
121.897717909
 10
175.0518813155
 20
121.7823199763
 10
175.1058884553
 20
121.6631332724
 10
175.1519845831
 20
121.5406726804
 10
175.1899744269
 20
121.4154575702
 10
175.2196984556
 20
121.2880082263
 10
175.2410267979
 20
121.1588642127
 10
175.2538631875
 20
121.0285830644
 10
175.2581491447
 20
120.8977224546
  0
LWPOLYLINE
  5
973
100
AcDbEntity
  8
RACCORDO
100
AcDbPolyline
 62
253
  6
CONTINUOUS
 90
25
 70
0
 10
173.2584537453
 20
122.3976354456
 10
173.3569402305
 20
122.394361919
 10
173.4542688201
 20
122.3847990068
 10
173.550439514
 20
122.3689467092
 10
173.6458835527
 20
122.346683458
 10
173.7401696956
 20
122.3181308212
 10
173.8320042213
 20
122.2836535034
 10
173.9213256743
 20
122.2431762644
 10
174.0081955099
 20
122.1967743444
 10
174.0915043731
 20
122.1450381689
 10
174.1712070659
 20
122.0878985403
 10
174.2473487861
 20
122.0254246562
 10
174.3189557728
 20
121.958414534
 10
174.3859699917
 20
121.8868092268
 10
174.4484494771
 20
121.8106676815
 10
174.5055945702
 20
121.7309647566
 10
174.5573355949
 20
121.6476555759
 10
174.6037422275
 20
121.5607850155
 10
174.6442238376
 20
121.4714625616
 10
174.6787050848
 20
121.3796281597
 10
174.7072613096
 20
121.2853418643
 10
174.7295279032
 20
121.1898933259
 10
174.7453833293
 20
121.0937124279
 10
174.7549491242
 20
120.9963692869
 10
174.758225288
 20
120.8978639028
  0
LWPOLYLINE
  5
974
100
AcDbEntity
  8
RACCORDO
100
AcDbPolyline
 62
253
  6
CONTINUOUS
 90
16
 70
0
 10
133.2627095069
 20
125.9147097252
 10
133.2348945567
 20
125.9166695106
 10
133.2076207205
 20
125.9224813926
 10
133.1814185856
 20
125.9320323067
 10
133.1567978902
 20
125.9451364485
 10
133.1342376074
 20
125.9615388893
 10
133.1141766268
 20
125.9809205345
 10
133.0970052163
 20
126.002904332
 10
133.0830574296
 20
126.0270626074
 10
133.0726046081
 20
126.0529253838
 10
133.0658501016
 20
126.0799895248
 10
133.0629253129
 20
126.1077285224
 10
133.0638871409
 20
126.1356027404
 10
133.0687168741
 20
126.1630699115
 10
133.0773205547
 20
126.1895956873
 10
133.0895308059
 20
126.2146640334
  0
LINE
  5
975
100
AcDbEntity
  8
0
100
AcDbLine
 62
7
  6
CONTINUOUS
 10
133.3682263509
 20
127.9222550933
 11
133.5112783123
 21
127.8937144667
  0
LINE
  5
976
100
AcDbEntity
  8
0
100
AcDbLine
 62
7
  6
CONTINUOUS
 10
138.3682263509
 20
127.9222550933
 11
138.5112783123
 21
127.8937144667
  0
LINE
  5
977
100
AcDbEntity
  8
0
100
AcDbLine
 62
7
  6
CONTINUOUS
 10
143.3682263509
 20
127.9222550933
 11
143.5112783123
 21
127.8937144667
  0
LINE
  5
978
100
AcDbEntity
  8
RACCORDO
100
AcDbLine
 62
7
  6
CONTINUOUS
 10
165.0696370376
 20
115.5613024771
 11
164.9711136662
 21
115.6169838261
  0
LINE
  5
979
100
AcDbEntity
  8
RACCORDO
100
AcDbLine
 62
7
  6
CONTINUOUS
 10
164.9711136662
 20
115.6169838261
 11
164.7755280249
 21
115.7294340073
  0
LINE
  5
97A
100
AcDbEntity
  8
RACCORDO
100
AcDbLine
 62
253
  6
CONTINUOUS
 10
166.4241245688
 20
113.8635651874
 11
166.5210413246
 21
113.7666484316
  0
LINE
  5
97B
100
AcDbEntity
  8
RACCORDO
100
AcDbLine
 62
253
  6
CONTINUOUS
 10
166.6240941079
 20
114.0635347264
 11
166.7210105068
 21
113.9666183275
  0
LINE
  5
97C
100
AcDbEntity
  8
DRAFT
100
AcDbLine
 62
7
  6
CONTINUOUS
 10
166.4241245688
 20
115.0635347264
 11
166.275756517
 21
115.2119027783
  0
LINE
  5
97D
100
AcDbEntity
  8
RACCORDO
100
AcDbLine
 62
7
  6
CONTINUOUS
 10
166.2752995676
 20
115.2123597276
 11
166.275756517
 21
115.2119027783
  0
LWPOLYLINE
  5
97E
100
AcDbEntity
  8
RACCORDO
100
AcDbPolyline
 62
253
  6
CONTINUOUS
 90
12
 70
0
 10
166.5210413246
 20
113.7666484316
 10
166.522563577
 20
113.7644139179
 10
166.5241461662
 20
113.7584074924
 10
166.5257890922
 20
113.7486291554
 10
166.5274953161
 20
113.7354888327
 10
166.5292618767
 20
113.7185765983
 10
166.5310798906
 20
113.696662674
 10
166.5329514136
 20
113.6697724089
 10
166.5348743899
 20
113.637880454
 10
166.5368337684
 20
113.599680984
 10
166.5388322561
 20
113.5551631708
 10
166.540867146
 20
113.5043378426
  0
LWPOLYLINE
  5
97F
100
AcDbEntity
  8
RACCORDO
100
AcDbPolyline
 62
253
  6
CONTINUOUS
 90
12
 70
0
 10
166.7210105314
 20
113.9666183275
 10
166.722534697
 20
113.9635381548
 10
166.7241187189
 20
113.9572250784
 10
166.725762597
 20
113.9472836436
 10
166.727469141
 20
113.9333154856
 10
166.7292355413
 20
113.9149004305
 10
166.7310533688
 20
113.8915787592
 10
166.7329248375
 20
113.8629014534
 10
166.7348477336
 20
113.8284211318
 10
166.7368069862
 20
113.7876429261
 10
166.7388053055
 20
113.7401014565
 10
166.7408399814
 20
113.6853478034
  0
LINE
  5
980
100
AcDbEntity
  8
RACCORDO
100
AcDbLine
 62
253
  6
CONTINUOUS
 10
173.2584537453
 20
122.8975592932
 11
173.2584537453
 21
122.3976354456
  0
LINE
  5
981
100
AcDbEntity
  8
RACCORDO
100
AcDbLine
 62
253
  6
CONTINUOUS
 10
173.2584537453
 20
115.2295101597
 11
173.2584537453
 21
115.7294340073
  0
LINE
  5
982
100
AcDbEntity
  8
DRAFT
100
AcDbLine
 62
7
  6
CONTINUOUS
 10
156.2076345543
 20
86.1140841598
 11
156.2461879533
 21
86.1333549861
  0
LINE
  5
983
100
AcDbEntity
  8
0
100
AcDbLine
 62
7
  6
CONTINUOUS
 10
140.1369708254
 20
127.8937144667
 11
140.2800227868
 21
127.9222550933
  0
LINE
  5
984
100
AcDbEntity
  8
0
100
AcDbLine
 62
7
  6
CONTINUOUS
 10
135.1369708254
 20
127.8937144667
 11
135.2800227868
 21
127.9222550933
  0
LINE
  5
985
100
AcDbEntity
  8
0
100
AcDbLine
 62
253
  6
CONTINUOUS
 10
129.7402329231
 20
127.9207623954
 11
129.7340888547
 21
127.9203513211
  0
LINE
  5
986
100
AcDbEntity
  8
0
100
AcDbLine
 62
253
  6
CONTINUOUS
 10
129.7228606588
 20
127.9186648465
 11
129.7036629419
 21
127.9152238337
  0
LWPOLYLINE
  5
987
100
AcDbEntity
  8
RACCORDO
100
AcDbPolyline
 62
253
  6
CONTINUOUS
 90
16
 70
0
 10
130.5855396308
 20
125.9147097252
 10
130.6133535378
 20
125.9166693627
 10
130.6406264425
 20
125.9224808239
 10
130.6668278093
 20
125.9320310816
 10
130.691447897
 20
125.9451343496
 10
130.7140078176
 20
125.9615357673
 10
130.7340688105
 20
125.9809164169
 10
130.7512405827
 20
126.0028993732
 10
130.7651889907
 20
126.0270570261
 10
130.7756426299
 20
126.0529195259
 10
130.7823980308
 20
126.0799838099
 10
130.7853236459
 20
126.1077233577
 10
130.7843624437
 20
126.1355984952
 10
130.779533016
 20
126.163066894
 10
130.7709292148
 20
126.1895941232
 10
130.7587183316
 20
126.2146640337
  0
LWPOLYLINE
  5
988
100
AcDbEntity
  8
0
100
AcDbPolyline
 62
253
  6
CONTINUOUS
 90
4
 70
0
 10
129.855770575
 20
127.9297733195
 10
129.822731409
 20
127.9275208141
 10
129.7981163632
 20
127.9252276725
 10
129.7819254378
 20
127.9228938947
  0
LWPOLYLINE
  5
989
100
AcDbEntity
  8
0
100
AcDbPolyline
 62
7
  6
CONTINUOUS
 90
11
 70
0
 10
129.8190593795
 20
127.9283219443
 10
129.8075041044
 20
127.9275455565
 10
129.7965253325
 20
127.9267480063
 10
129.7860268075
 20
127.9259201064
 10
129.7756591499
 20
127.9250275427
 10
129.7654435902
 20
127.9240605224
 10
129.755326079
 20
127.9229999696
 10
129.7448067867
 20
127.9217676886
 10
129.7340888547
 20
127.9203513211
 10
129.7228606588
 20
127.9186648465
 10
129.7097869245
 20
127.9164026004
  0
LWPOLYLINE
  5
98A
100
AcDbEntity
  8
RACCORDO
100
AcDbPolyline
 62
253
  6
CONTINUOUS
 90
19
 70
0
 10
130.595183643
 20
127.1424141635
 10
130.5718601379
 20
127.1410361956
 10
130.5488486306
 20
127.1369441526
 10
130.5264640219
 20
127.1301916363
 10
130.5050042862
 20
127.120864269
 10
130.4847738266
 20
127.1090899051
 10
130.466073615
 20
127.0950469645
 10
130.449171539
 20
127.0789520031
 10
130.4342716281
 20
127.0610162721
 10
130.4215480751
 20
127.0414496831
 10
130.4111638217
 20
127.0204750204
 10
130.4032934197
 20
126.998410655
 10
130.3980660445
 20
126.9756394333
 10
130.3955320646
 20
126.9524779724
 10
130.3957042037
 20
126.9292420337
 10
130.3985441128
 20
126.9063246739
 10
130.4039572403
 20
126.8840512574
 10
130.4118267496
 20
126.8626760956
 10
130.4220049423
 20
126.842459855
  0
LINE
  5
98B
100
AcDbEntity
  8
0
100
AcDbLine
 62
7
  6
CONTINUOUS
 10
129.8439323566
 20
127.9298195293
 11
129.8190593795
 21
127.9283219443
  0
LINE
  5
98C
100
AcDbEntity
  8
0
100
AcDbLine
 62
253
  6
CONTINUOUS
 10
129.8974485003
 20
127.9319951066
 11
129.8717103356
 21
127.9312804671
  0
LINE
  5
98D
100
AcDbEntity
  8
0
100
AcDbLine
 62
253
  6
CONTINUOUS
 10
129.7819254378
 20
127.9228938947
 11
129.7402329231
 21
127.9207623954
  0
LINE
  5
98E
100
AcDbEntity
  8
0
100
AcDbLine
 62
7
  6
CONTINUOUS
 10
129.8717103356
 20
127.9312804671
 11
129.8439323566
 21
127.9298195293
  0
LWPOLYLINE
  5
98F
100
AcDbEntity
  8
0
100
AcDbPolyline
 62
253
  6
CONTINUOUS
 90
19
 70
0
 10
129.4368313516
 20
127.9005746395
 10
129.4022160118
 20
127.8988875843
 10
129.3678218274
 20
127.8941664351
 10
129.3339140404
 20
127.8864357843
 10
129.3007104158
 20
127.8757249832
 10
129.2685182236
 20
127.862115293
 10
129.2377153429
 20
127.8457801427
 10
129.2085635824
 20
127.8268971176
 10
129.1812275214
 20
127.805611991
 10
129.1558990958
 20
127.7821146223
 10
129.1327558188
 20
127.7566119529
 10
129.1119390495
 20
127.72930536
 10
129.0935621855
 20
127.7003912796
 10
129.0777420805
 20
127.6700961966
 10
129.0645734979
 20
127.6386490535
 10
129.0541204467
 20
127.6062529344
 10
129.0464432131
 20
127.5731346797
 10
129.0415887469
 20
127.5395470551
 10
129.0395785601
 20
127.5057334725
  0
LINE
  5
990
100
AcDbEntity
  8
0
100
AcDbLine
 62
7
  6
CONTINUOUS
 10
129.9027401148
 20
127.9327203476
 11
129.8717103356
 21
127.9312804671
  0
LINE
  5
991
100
AcDbEntity
  8
0
100
AcDbLine
 62
253
  6
CONTINUOUS
 10
129.9475505458
 20
127.9341762575
 11
129.9373056493
 21
127.9341466339
  0
LINE
  5
992
100
AcDbEntity
  8
0
100
AcDbLine
 62
7
  6
CONTINUOUS
 10
129.9373056493
 20
127.9341466339
 11
129.9027401148
 21
127.9327203476
  0
LINE
  5
993
100
AcDbEntity
  8
0
100
AcDbLine
 62
7
  6
CONTINUOUS
 10
129.9963220388
 20
127.9362665693
 11
129.9373056493
 21
127.9341466339
  0
LWPOLYLINE
  5
994
100
AcDbEntity
  8
RACCORDO
100
AcDbPolyline
 62
253
  6
CONTINUOUS
 90
25
 70
0
 10
128.5727739285
 20
125.9147097515
 10
128.4419449412
 20
125.9104043933
 10
128.3116910157
 20
125.8975513656
 10
128.1825697582
 20
125.8762085903
 10
128.0551382233
 20
125.8464715742
 10
127.9299365592
 20
125.8084697722
 10
127.807486591
 20
125.7623630014
 10
127.6883081138
 20
125.7083465318
 10
127.5729157568
 20
125.6466531679
 10
127.4618034475
 20
125.5775469447
 10
127.3554468003
 20
125.5013236901
 10
127.2543010281
 20
125.4183097049
 10
127.1587990257
 20
125.3288602726
 10
127.0693495949
 20
125.2333582686
 10
126.9863356111
 20
125.1322124946
 10
126.9101123573
 20
125.025855846
 10
126.841006134
 20
124.914743536
 10
126.7793127695
 20
124.7993511787
 10
126.7252962993
 20
124.6801727004
 10
126.6791879922
 20
124.5577182058
 10
126.6411852522
 20
124.4325118332
 10
126.6114507102
 20
124.3050895245
 10
126.5901116805
 20
124.1759966832
 10
126.5772596052
 20
124.0457858432
 10
126.5729495701
 20
123.9150143349
  0
LINE
  5
995
100
AcDbEntity
  8
0
100
AcDbLine
 62
7
  6
CONTINUOUS
 10
135.0580883167
 20
127.9381768402
 11
135.0083008971
 21
127.9366633088
  0
LINE
  5
996
100
AcDbEntity
  8
0
100
AcDbLine
 62
7
  6
CONTINUOUS
 10
130.0643729094
 20
127.9383572229
 11
129.9963220388
 21
127.9362665693
  0
LINE
  5
997
100
AcDbEntity
  8
0
100
AcDbLine
 62
7
  6
CONTINUOUS
 10
135.0083008971
 20
127.9366633088
 11
134.9743452799
 21
127.9357084054
  0
LINE
  5
998
100
AcDbEntity
  8
0
100
AcDbLine
 62
7
  6
CONTINUOUS
 10
140.1155982285
 20
127.9397464024
 11
139.9736019719
 21
127.9356931655
  0
LINE
  5
999
100
AcDbEntity
  8
0
100
AcDbLine
 62
253
  6
CONTINUOUS
 10
140.1155982285
 20
127.9397464024
 11
140.0949989841
 21
127.9389925002
  0
LINE
  5
99A
100
AcDbEntity
  8
0
100
AcDbLine
 62
7
  6
CONTINUOUS
 10
130.169657509
 20
127.9410769364
 11
130.0643729094
 21
127.9383572229
  0
LINE
  5
99B
100
AcDbEntity
  8
0
100
AcDbLine
 62
253
  6
CONTINUOUS
 10
139.9736019719
 20
127.9356931655
 11
139.9889520358
 21
127.9358935404
  0
LINE
  5
99C
100
AcDbEntity
  8
0
100
AcDbLine
 62
253
  6
CONTINUOUS
 10
130.169657509
 20
127.9410769364
 11
130.1447413609
 21
127.9402945216
  0
LINE
  5
99D
100
AcDbEntity
  8
0
100
AcDbLine
 62
7
  6
CONTINUOUS
 10
135.2377207111
 20
127.9425893405
 11
135.0580883167
 21
127.9381768402
  0
LINE
  5
99E
100
AcDbEntity
  8
0
100
AcDbLine
 62
7
  6
CONTINUOUS
 10
140.2707887396
 20
127.9432681228
 11
140.1155982285
 21
127.9397464024
  0
LINE
  5
99F
100
AcDbEntity
  8
0
100
AcDbLine
 62
7
  6
CONTINUOUS
 10
135.3141245688
 20
127.944081428
 11
135.2377207111
 21
127.9425893405
  0
LINE
  5
9A0
100
AcDbEntity
  8
0
100
AcDbLine
 62
7
  6
CONTINUOUS
 10
130.3141245688
 20
127.9441057381
 11
130.169657509
 21
127.9410769364
  0
LINE
  5
9A1
100
AcDbEntity
  8
0
100
AcDbLine
 62
253
  6
CONTINUOUS
 10
140.2707887396
 20
127.9432681228
 11
140.2526399727
 21
127.9427531427
  0
LINE
  5
9A2
100
AcDbEntity
  8
0
100
AcDbLine
 62
7
  6
CONTINUOUS
 10
134.9743452799
 20
127.9357084054
 11
134.8881667748
 21
127.9338780125
  0
LINE
  5
9A3
100
AcDbEntity
  8
0
100
AcDbLine
 62
7
  6
CONTINUOUS
 10
139.9736019719
 20
127.9356931655
 11
139.8866976448
 21
127.9338540016
  0
LINE
  5
9A4
100
AcDbEntity
  8
0
100
AcDbLine
 62
7
  6
CONTINUOUS
 10
140.3241245688
 20
127.9442910315
 11
140.2707887396
 21
127.9432681228
  0
LINE
  5
9A5
100
AcDbEntity
  8
0
100
AcDbLine
 62
253
  6
CONTINUOUS
 10
130.3141245688
 20
127.9439732883
 11
130.3124067551
 21
127.9439426345
  0
LINE
  5
9A6
100
AcDbEntity
  8
0
100
AcDbLine
 62
253
  6
CONTINUOUS
 10
139.8866976448
 20
127.9338540016
 11
139.9002419839
 21
127.93397206
  0
LINE
  5
9A7
100
AcDbEntity
  8
0
100
AcDbLine
 62
253
  6
CONTINUOUS
 10
134.8881667748
 20
127.9338780125
 11
134.9005146987
 21
127.9339770232
  0
LINE
  5
9A8
100
AcDbEntity
  8
0
100
AcDbLine
 62
7
  6
CONTINUOUS
 10
139.8866976448
 20
127.9338540016
 11
139.778578493
 21
127.9322464498
  0
LINE
  5
9A9
100
AcDbEntity
  8
0
100
AcDbLine
 62
7
  6
CONTINUOUS
 10
134.8881667748
 20
127.9338780125
 11
134.7807000646
 21
127.9322794988
  0
LINE
  5
9AA
100
AcDbEntity
  8
0
100
AcDbLine
 62
253
  6
CONTINUOUS
 10
139.778578493
 20
127.9322464498
 11
139.7919257332
 21
127.9323353651
  0
LINE
  5
9AB
100
AcDbEntity
  8
0
100
AcDbLine
 62
253
  6
CONTINUOUS
 10
134.7807000646
 20
127.9322794988
 11
134.7924921715
 21
127.9323424594
  0
LINE
  5
9AC
100
AcDbEntity
  8
0
100
AcDbLine
 62
253
  6
CONTINUOUS
 10
135.0258789548
 20
127.9369570378
 11
135.0130285763
 21
127.9368114403
  0
LINE
  5
9AD
100
AcDbEntity
  8
0
100
AcDbLine
 62
253
  6
CONTINUOUS
 10
140.0258789528
 20
127.9369423938
 11
140.0131084477
 21
127.9367999456
  0
LINE
  5
9AE
100
AcDbEntity
  8
0
100
AcDbLine
 62
7
  6
CONTINUOUS
 10
139.778578493
 20
127.9322464498
 11
139.5844261945
 21
127.9305162285
  0
LINE
  5
9AF
100
AcDbEntity
  8
0
100
AcDbLine
 62
7
  6
CONTINUOUS
 10
134.7807000646
 20
127.9322794988
 11
134.5872022412
 21
127.9305395565
  0
LINE
  5
9B0
100
AcDbEntity
  8
0
100
AcDbLine
 62
253
  6
CONTINUOUS
 10
139.5844261945
 20
127.9305162285
 11
139.6032196519
 21
127.9305751894
  0
LINE
  5
9B1
100
AcDbEntity
  8
0
100
AcDbLine
 62
253
  6
CONTINUOUS
 10
134.5872022412
 20
127.9305395565
 11
134.6039266572
 21
127.9305798687
  0
LINE
  5
9B2
100
AcDbEntity
  8
0
100
AcDbLine
 62
7
  6
CONTINUOUS
 10
139.5844261945
 20
127.9305162285
 11
139.3664768829
 21
127.9297689056
  0
LINE
  5
9B3
100
AcDbEntity
  8
0
100
AcDbLine
 62
7
  6
CONTINUOUS
 10
134.5872022412
 20
127.9305395565
 11
134.3694542596
 21
127.9297795422
  0
LINE
  5
9B4
100
AcDbEntity
  8
0
100
AcDbLine
 62
253
  6
CONTINUOUS
 10
134.3694542596
 20
127.9297795422
 11
134.3953862081
 21
127.9297534719
  0
LINE
  5
9B5
100
AcDbEntity
  8
RACCORDO
100
AcDbLine
 62
253
  6
CONTINUOUS
 10
133.2530654946
 20
126.9424446245
 11
130.595183643
 21
126.9424446245
  0
LINE
  5
9B6
100
AcDbEntity
  8
RACCORDO
100
AcDbLine
 62
253
  6
CONTINUOUS
 10
133.2530654946
 20
127.1424141635
 11
130.595183643
 21
127.1424141635
  0
LINE
  5
9B7
100
AcDbEntity
  8
RACCORDO
100
AcDbLine
 62
7
  6
CONTINUOUS
 10
133.3982897072
 20
127.2262594018
 11
130.4499594305
 21
127.2262594018
  0
LINE
  5
9B8
100
AcDbEntity
  8
0
100
AcDbLine
 62
253
  6
CONTINUOUS
 10
144.299314415
 20
127.3390291591
 11
143.9994971669
 21
127.3390291591
  0
LINE
  5
9B9
100
AcDbEntity
  8
0
100
AcDbLine
 62
253
  6
CONTINUOUS
 10
129.3489347227
 20
127.3390291591
 11
129.6487519708
 21
127.3390291591
  0
LINE
  5
9BA
100
AcDbEntity
  8
0
100
AcDbLine
 62
253
  6
CONTINUOUS
 10
129.039518467
 20
127.4989357494
 11
129.3394156645
 21
127.498935747
  0
LINE
  5
9BB
100
AcDbEntity
  8
0
100
AcDbLine
 62
253
  6
CONTINUOUS
 10
129.8486301362
 20
127.5389073245
 11
143.7996190015
 21
127.5389073245
  0
LINE
  5
9BC
100
AcDbEntity
  8
0
100
AcDbLine
 62
253
  6
CONTINUOUS
 10
129.8486301362
 20
127.8387245726
 11
143.7996190015
 21
127.8387245726
  0
LINE
  5
9BD
100
AcDbEntity
  8
0
100
AcDbLine
 62
7
  6
CONTINUOUS
 10
129.8238199824
 20
127.8635347264
 11
143.8244291553
 21
127.8635347264
  0
LINE
  5
9BE
100
AcDbEntity
  8
0
100
AcDbLine
 62
7
  6
CONTINUOUS
 10
133.5112783123
 20
127.8937144667
 11
135.1369708254
 21
127.8937144667
  0
LINE
  5
9BF
100
AcDbEntity
  8
0
100
AcDbLine
 62
7
  6
CONTINUOUS
 10
138.5112783123
 20
127.8937144667
 11
140.1369708254
 21
127.8937144667
  0
LINE
  5
9C0
100
AcDbEntity
  8
0
100
AcDbLine
 62
7
  6
CONTINUOUS
 10
143.5112783123
 20
127.8937144667
 11
144.2011262204
 21
127.8937144667
  0
LINE
  5
9C1
100
AcDbEntity
  8
0
100
AcDbLine
 62
253
  6
CONTINUOUS
 10
130.1713555357
 20
127.9005746395
 11
129.4368313516
 21
127.9005746395
  0
LINE
  5
9C2
100
AcDbEntity
  8
0
100
AcDbLine
 62
7
  6
CONTINUOUS
 10
144.2273031687
 20
127.9111635502
 11
143.9251187927
 21
127.9111635502
  0
LINE
  5
9C3
100
AcDbEntity
  8
0
100
AcDbLine
 62
7
  6
CONTINUOUS
 10
129.723130345
 20
127.9111635502
 11
129.420945969
 21
127.9111635502
  0
LINE
  5
9C4
100
AcDbEntity
  8
0
100
AcDbLine
 62
7
  6
CONTINUOUS
 10
134.3694542596
 20
127.9297795422
 11
134.1473998359
 21
127.9301055935
  0
LINE
  5
9C5
100
AcDbEntity
  8
0
100
AcDbLine
 62
7
  6
CONTINUOUS
 10
139.3664768829
 20
127.9297689056
 11
139.1446844227
 21
127.9301100692
  0
LINE
  5
9C6
100
AcDbEntity
  8
0
100
AcDbLine
 62
7
  6
CONTINUOUS
 10
134.1473998359
 20
127.9301055935
 11
133.9414820811
 21
127.9314750632
  0
LINE
  5
9C7
100
AcDbEntity
  8
0
100
AcDbLine
 62
7
  6
CONTINUOUS
 10
139.1446844227
 20
127.9301100692
 11
138.9394023444
 21
127.9314934623
  0
LINE
  5
9C8
100
AcDbEntity
  8
0
100
AcDbLine
 62
253
  6
CONTINUOUS
 10
133.9414820811
 20
127.9314750632
 11
133.9784391808
 21
127.9310687403
  0
LINE
  5
9C9
100
AcDbEntity
  8
0
100
AcDbLine
 62
253
  6
CONTINUOUS
 10
133.6351459252
 20
127.9368125604
 11
133.6223650043
 21
127.9369558823
  0
LINE
  5
9CA
100
AcDbEntity
  8
0
100
AcDbLine
 62
253
  6
CONTINUOUS
 10
138.6352254766
 20
127.936810005
 11
138.6223650027
 21
127.9369558824
  0
LINE
  5
9CB
100
AcDbEntity
  8
0
100
AcDbLine
 62
7
  6
CONTINUOUS
 10
138.9394023444
 20
127.9314934623
 11
138.820756013
 21
127.932896518
  0
LINE
  5
9CC
100
AcDbEntity
  8
0
100
AcDbLine
 62
7
  6
CONTINUOUS
 10
133.9414820811
 20
127.9314750632
 11
133.8222848102
 21
127.9328806098
  0
LINE
  5
9CD
100
AcDbEntity
  8
0
100
AcDbLine
 62
253
  6
CONTINUOUS
 10
129.0395947479
 20
127.5057332028
 11
129.3394301177
 21
127.5006358742
  0
LWPOLYLINE
  5
9CE
100
AcDbEntity
  8
0
100
AcDbPolyline
 62
7
  6
CONTINUOUS
 90
3
 70
0
 10
133.8222848102
 20
127.9328806098
 10
133.7223417979
 20
127.9345997113
 10
133.6808085802
 20
127.935538427
  0
LINE
  5
9CF
100
AcDbEntity
  8
0
100
AcDbLine
 62
7
  6
CONTINUOUS
 10
138.820756013
 20
127.932896518
 11
138.7214365572
 21
127.9346208496
  0
LINE
  5
9D0
100
AcDbEntity
  8
0
100
AcDbLine
 62
253
  6
CONTINUOUS
 10
133.3390463508
 20
127.9440161139
 11
133.3341245688
 21
127.9439513366
  0
LINE
  5
9D1
100
AcDbEntity
  8
0
100
AcDbLine
 62
253
  6
CONTINUOUS
 10
143.3465312453
 20
127.9438736201
 11
143.3241245688
 21
127.9441518825
  0
LINE
  5
9D2
100
AcDbEntity
  8
0
100
AcDbLine
 62
7
  6
CONTINUOUS
 10
133.4751633394
 20
127.9411571467
 11
133.3390463508
 21
127.9440161139
  0
LINE
  5
9D3
100
AcDbEntity
  8
0
100
AcDbLine
 62
7
  6
CONTINUOUS
 10
138.7214365572
 20
127.9346208496
 11
138.6801928413
 21
127.935549863
  0
LINE
  5
9D4
100
AcDbEntity
  8
0
100
AcDbLine
 62
7
  6
CONTINUOUS
 10
138.508207496
 20
127.9403636244
 11
138.3341245688
 21
127.9440845346
  0
LINE
  5
9D5
100
AcDbEntity
  8
0
100
AcDbLine
 62
7
  6
CONTINUOUS
 10
143.5084020548
 20
127.9403588362
 11
143.3465312453
 21
127.9438736201
  0
LINE
  5
9D6
100
AcDbEntity
  8
0
100
AcDbLine
 62
253
  6
CONTINUOUS
 10
138.508207496
 20
127.9403636244
 11
138.4794594404
 21
127.9408821526
  0
LINE
  5
9D7
100
AcDbEntity
  8
0
100
AcDbLine
 62
253
  6
CONTINUOUS
 10
143.5084020548
 20
127.9403588362
 11
143.503393306
 21
127.9402974158
  0
LINE
  5
9D8
100
AcDbEntity
  8
0
100
AcDbLine
 62
7
  6
CONTINUOUS
 10
143.6000057478
 20
127.9378896176
 11
143.5084020548
 21
127.9403588362
  0
LINE
  5
9D9
100
AcDbEntity
  8
0
100
AcDbLine
 62
253
  6
CONTINUOUS
 10
133.6355799554
 20
127.9367856159
 11
133.5532642434
 21
127.9389922166
  0
LINE
  5
9DA
100
AcDbEntity
  8
0
100
AcDbLine
 62
7
  6
CONTINUOUS
 10
133.6808085802
 20
127.935538427
 11
133.4751633394
 21
127.9411571467
  0
LINE
  5
9DB
100
AcDbEntity
  8
0
100
AcDbLine
 62
7
  6
CONTINUOUS
 10
138.6801928413
 20
127.935549863
 11
138.508207496
 21
127.9403636244
  0
LINE
  5
9DC
100
AcDbEntity
  8
0
100
AcDbLine
 62
253
  6
CONTINUOUS
 10
143.6000057478
 20
127.9378896176
 11
143.5769501386
 21
127.9383289637
  0
LINE
  5
9DD
100
AcDbEntity
  8
0
100
AcDbLine
 62
7
  6
CONTINUOUS
 10
133.6355761063
 20
127.9367984966
 11
133.6351459252
 21
127.9368125604
  0
LINE
  5
9DE
100
AcDbEntity
  8
0
100
AcDbLine
 62
7
  6
CONTINUOUS
 10
138.6354876422
 20
127.9368014379
 11
138.6352254766
 21
127.936810005
  0
LINE
  5
9DF
100
AcDbEntity
  8
0
100
AcDbLine
 62
7
  6
CONTINUOUS
 10
143.6601858974
 20
127.935989663
 11
143.6000057478
 21
127.9378896176
  0
LINE
  5
9E0
100
AcDbEntity
  8
0
100
AcDbLine
 62
253
  6
CONTINUOUS
 10
143.6601858974
 20
127.935989663
 11
143.642726372
 21
127.9362901218
  0
LINE
  5
9E1
100
AcDbEntity
  8
0
100
AcDbLine
 62
7
  6
CONTINUOUS
 10
143.7132541419
 20
127.9340561458
 11
143.6601858974
 21
127.935989663
  0
LINE
  5
9E2
100
AcDbEntity
  8
0
100
AcDbLine
 62
7
  6
CONTINUOUS
 10
143.7448484725
 20
127.9327491821
 11
143.7132541419
 21
127.9340561458
  0
LINE
  5
9E3
100
AcDbEntity
  8
0
100
AcDbLine
 62
253
  6
CONTINUOUS
 10
143.7132541419
 20
127.9340561458
 11
143.7006189947
 21
127.9341796083
  0
LWPOLYLINE
  5
9E4
100
AcDbEntity
  8
0
100
AcDbPolyline
 62
253
  6
CONTINUOUS
 90
19
 70
0
 10
143.7996190015
 20
127.8387245726
 10
143.8431594445
 20
127.8367932991
 10
143.8863662772
 20
127.8310772173
 10
143.9289113133
 20
127.8216200667
 10
143.9704714219
 20
127.808494104
 10
144.0107309279
 20
127.7917992359
 10
144.0493839876
 20
127.7716622006
 10
144.0861369042
 20
127.7482361588
 10
144.120710635
 20
127.7216992786
 10
144.1528427694
 20
127.6922529314
 10
144.1822891
 20
127.6601208213
 10
144.2088259527
 20
127.6255471393
 10
144.2322519855
 20
127.588794257
 10
144.252389036
 20
127.5501411913
 10
144.2690839244
 20
127.5098816566
 10
144.2822099008
 20
127.4683215198
 10
144.2916670578
 20
127.4257764649
 10
144.297383142
 20
127.3825696159
 10
144.299314415
 20
127.3390291591
  0
LWPOLYLINE
  5
9E5
100
AcDbEntity
  8
0
100
AcDbPolyline
 62
253
  6
CONTINUOUS
 90
19
 70
0
 10
143.7996190015
 20
127.5389073245
 10
143.817190544
 20
127.538115999
 10
143.8343925819
 20
127.5358589454
 10
143.8512251154
 20
127.5321361634
 10
143.8678179214
 20
127.5268969449
 10
143.8840412229
 20
127.5201919982
 10
143.8995056889
 20
127.5121734482
 10
143.9141863572
 20
127.5028119541
 10
143.92810819
 20
127.4921368569
 10
143.9409567433
 20
127.4803883043
 10
143.9527072767
 20
127.4675415534
 10
143.9633845305
 20
127.4536213472
 10
143.9727482815
 20
127.4389420623
 10
143.9807691818
 20
127.4234797978
 10
143.9874765794
 20
127.4072584545
 10
143.9927182946
 20
127.3906641111
 10
143.996443601
 20
127.3738254605
 10
143.9987032251
 20
127.3566138098
 10
143.9994971669
 20
127.3390291591
  0
LINE
  5
9E6
100
AcDbEntity
  8
0
100
AcDbLine
 62
7
  6
CONTINUOUS
 10
143.7735771301
 20
127.9314257508
 11
143.7448484725
 21
127.9327491821
  0
LINE
  5
9E7
100
AcDbEntity
  8
0
100
AcDbLine
 62
253
  6
CONTINUOUS
 10
143.8663236999
 20
127.9228938947
 11
143.9080157204
 21
127.9207624468
  0
LINE
  5
9E8
100
AcDbEntity
  8
0
100
AcDbLine
 62
253
  6
CONTINUOUS
 10
143.7735771301
 20
127.9314257508
 11
143.7507310182
 21
127.9319987052
  0
LINE
  5
9E9
100
AcDbEntity
  8
0
100
AcDbLine
 62
7
  6
CONTINUOUS
 10
143.7996565115
 20
127.9300783836
 11
143.7735771301
 21
127.9314257508
  0
LINE
  5
9EA
100
AcDbEntity
  8
0
100
AcDbLine
 62
7
  6
CONTINUOUS
 10
143.8233030723
 20
127.9286959902
 11
143.7996565115
 21
127.9300783836
  0
LINE
  5
9EB
100
AcDbEntity
  8
0
100
AcDbLine
 62
7
  6
CONTINUOUS
 10
143.834305438
 20
127.9279853642
 11
143.8233030723
 21
127.9286959902
  0
LINE
  5
9EC
100
AcDbEntity
  8
0
100
AcDbLine
 62
253
  6
CONTINUOUS
 10
143.8233030723
 20
127.9286959902
 11
143.7924215861
 21
127.9297767486
  0
LWPOLYLINE
  5
9ED
100
AcDbEntity
  8
0
100
AcDbPolyline
 62
7
  6
CONTINUOUS
 90
6
 70
0
 10
143.8833451987
 20
127.9240065229
 10
143.8739692361
 20
127.9249021299
 10
143.8646040145
 20
127.9257218403
 10
143.8549117181
 20
127.9265035782
 10
143.8447985218
 20
127.9272582036
 10
143.834305438
 20
127.9279853642
  0
LWPOLYLINE
  5
9EE
100
AcDbEntity
  8
0
100
AcDbPolyline
 62
253
  6
CONTINUOUS
 90
3
 70
0
 10
143.8663236999
 20
127.9228938947
 10
143.8501111175
 20
127.9252292327
 10
143.8254770796
 20
127.9275235174
  0
LINE
  5
9EF
100
AcDbEntity
  8
0
100
AcDbLine
 62
253
  6
CONTINUOUS
 10
143.9080157204
 20
127.9207624468
 11
143.9443453369
 21
127.9152718105
  0
LWPOLYLINE
  5
9F0
100
AcDbEntity
  8
0
100
AcDbPolyline
 62
7
  6
CONTINUOUS
 90
7
 70
0
 10
143.944345066
 20
127.9152704462
 10
143.9339432777
 20
127.917223958
 10
143.9226628946
 20
127.919095384
 10
143.9120859567
 20
127.9206396568
 10
143.9020708662
 20
127.9219367785
 10
143.8926823174
 20
127.9230265158
 10
143.8833451987
 20
127.9240065229
  0
LINE
  5
9F1
100
AcDbEntity
  8
0
100
AcDbLine
 62
253
  6
CONTINUOUS
 10
143.9251187927
 20
127.9111635502
 11
143.8663236999
 21
127.9228938947
  0
LINE
  5
9F2
100
AcDbEntity
  8
0
100
AcDbLine
 62
7
  6
CONTINUOUS
 10
143.9649372387
 20
127.9111635502
 11
143.9445861955
 21
127.9152238337
  0
LINE
  5
9F3
100
AcDbEntity
  8
RACCORDO
100
AcDbLine
 62
253
  6
CONTINUOUS
 10
173.2583122828
 20
115.2295101597
 11
173.2760611266
 21
115.2119027783
  0
LINE
  5
9F4
100
AcDbEntity
  8
RACCORDO
100
AcDbLine
 62
253
  6
CONTINUOUS
 10
174.758225288
 20
120.8978639028
 11
174.758225288
 21
117.22920555
  0
LINE
  5
9F5
100
AcDbEntity
  8
RACCORDO
100
AcDbLine
 62
253
  6
CONTINUOUS
 10
175.2581491356
 20
120.8977224404
 11
175.2581491356
 21
117.2293480131
  0
LINE
  5
9F6
100
AcDbEntity
  8
RACCORDO
100
AcDbLine
 62
7
  6
CONTINUOUS
 10
175.275756517
 20
120.9154712842
 11
175.275756517
 21
117.2115981686
  0
LWPOLYLINE
  5
9F7
100
AcDbEntity
  8
RACCORDO
100
AcDbPolyline
 62
253
  6
CONTINUOUS
 90
25
 70
0
 10
175.2581491448
 20
117.2293479987
 10
175.2538632238
 20
117.0984869431
 10
175.2410268267
 20
116.9682054599
 10
175.2196984549
 20
116.8390612241
 10
175.1899744059
 20
116.7116118057
 10
175.1519845677
 20
116.5863967283
 10
175.1058884498
 20
116.4639361683
 10
175.051881308
 20
116.3447494624
 10
174.9901963074
 20
116.2293515282
 10
174.9210973013
 20
116.1182358711
 10
174.8448802174
 20
116.0118780691
 10
174.7618714265
 20
115.9107331543
 10
174.6724257902
 20
115.8152334873
 10
174.5769261228
 20
115.7257878527
 10
174.4757812085
 20
115.6427790641
 10
174.3694234076
 20
115.5665619826
 10
174.2583077515
 20
115.4974629785
 10
174.1429098187
 20
115.4357779798
 10
174.0237231148
 20
115.38177084
 10
173.9012625228
 20
115.3356747121
 10
173.7760474127
 20
115.2976848684
 10
173.6485980688
 20
115.2679608397
 10
173.5194540551
 20
115.2466324973
 10
173.3891729069
 20
115.2337961078
 10
173.258312297
 20
115.2295101505
  0
LWPOLYLINE
  5
9F8
100
AcDbEntity
  8
RACCORDO
100
AcDbPolyline
 62
253
  6
CONTINUOUS
 90
25
 70
0
 10
174.758225288
 20
117.22920555
 10
174.7549517614
 20
117.1307190647
 10
174.7453888493
 20
117.0333904752
 10
174.7295365517
 20
116.9372197813
 10
174.7072733004
 20
116.8417757426
 10
174.6787206636
 20
116.7474895996
 10
174.6442433459
 20
116.6556550739
 10
174.6037661069
 20
116.566333621
 10
174.5573641869
 20
116.4794637854
 10
174.5056280113
 20
116.3961549222
 10
174.4484883827
 20
116.3164522294
 10
174.3860144986
 20
116.2403105091
 10
174.3190043764
 20
116.1687035224
 10
174.2473990692
 20
116.1016893035
 10
174.171257524
 20
116.0392098182
 10
174.091554599
 20
115.9820647251
 10
174.0082454183
 20
115.9303237003
 10
173.9213748579
 20
115.8839170678
 10
173.832052404
 20
115.8434354576
 10
173.7402180021
 20
115.8089542104
 10
173.6459317067
 20
115.7803979857
 10
173.5504831683
 20
115.7581313921
 10
173.4543022704
 20
115.742275966
 10
173.3569591293
 20
115.732710171
 10
173.2584537453
 20
115.7294340073
  0
LINE
  5
9F9
100
AcDbEntity
  8
0
100
AcDbLine
 62
7
  6
CONTINUOUS
 10
130.1713555357
 20
127.9005746395
 11
130.2800227868
 21
127.9222550933
  0
LINE
  5
9FA
100
AcDbEntity
  8
0
100
AcDbLine
 62
253
  6
CONTINUOUS
 10
129.7819254378
 20
127.9228938947
 11
129.723130345
 21
127.9111635502
  0
LINE
  5
9FB
100
AcDbEntity
  8
0
100
AcDbLine
 62
7
  6
CONTINUOUS
 10
129.7036629419
 20
127.9152238337
 11
129.683311899
 21
127.9111635502
  0
LINE
  5
9FC
100
AcDbEntity
  8
0
100
AcDbLine
 62
7
  6
CONTINUOUS
 10
129.7097869245
 20
127.9164026004
 11
129.7033039854
 21
127.9151498155
  0
LINE
  5
9FD
100
AcDbEntity
  8
RACCORDO
100
AcDbLine
 62
253
  6
CONTINUOUS
 10
175.2581491356
 20
117.2293480131
 11
175.275756517
 21
117.2115981686
  0
LINE
  5
9FE
100
AcDbEntity
  8
0
100
AcDbLine
 62
7
  6
CONTINUOUS
 10
130.3141245688
 20
161.0635347264
 11
133.3341245688
 21
161.0635347264
  0
LINE
  5
9FF
100
AcDbEntity
  8
0
100
AcDbLine
 62
7
  6
CONTINUOUS
 10
135.3141245688
 20
161.0635347264
 11
138.3341245688
 21
161.0635347264
  0
LINE
  5
A00
100
AcDbEntity
  8
0
100
AcDbLine
 62
7
  6
CONTINUOUS
 10
140.3241245688
 20
161.0635347264
 11
143.3241245688
 21
161.0635347264
  0
LINE
  5
A01
100
AcDbEntity
  8
0
100
AcDbLine
 62
7
  6
CONTINUOUS
 10
130.3141245688
 20
162.0635347264
 11
133.3341245688
 21
162.0635347264
  0
LINE
  5
A02
100
AcDbEntity
  8
0
100
AcDbLine
 62
7
  6
CONTINUOUS
 10
135.3141245688
 20
162.0635347264
 11
138.3341245688
 21
162.0635347264
  0
LINE
  5
A03
100
AcDbEntity
  8
0
100
AcDbLine
 62
7
  6
CONTINUOUS
 10
140.3241245688
 20
162.0635347264
 11
143.3241245688
 21
162.0635347264
  0
LINE
  5
A04
100
AcDbEntity
  8
0
100
AcDbLine
 62
7
  6
CONTINUOUS
 10
130.3141245688
 20
172.0635347264
 11
133.3341245688
 21
172.0635347264
  0
LINE
  5
A05
100
AcDbEntity
  8
0
100
AcDbLine
 62
7
  6
CONTINUOUS
 10
135.3141245688
 20
172.0635347264
 11
138.3341245688
 21
172.0635347264
  0
LINE
  5
A06
100
AcDbEntity
  8
0
100
AcDbLine
 62
7
  6
CONTINUOUS
 10
140.3241245688
 20
172.0635347264
 11
143.3241245688
 21
172.0635347264
  0
CIRCLE
  5
A07
100
AcDbEntity
  8
DRAFT
100
AcDbCircle
 62
7
  6
CONTINUOUS
 10
146.4241245688
 20
81.5635347264
 40
1.4738174026
  0
CIRCLE
  5
A08
100
AcDbEntity
  8
DRAFT
100
AcDbCircle
 62
7
  6
CONTINUOUS
 10
170.9241245688
 20
119.0635347264
 40
1.4738174026
  0
ELLIPSE
  5
A09
100
AcDbEntity
  8
RACCORDO
100
AcDbEllipse
 62
7
  6
CONTINUOUS
 10
166.6241550345
 20
97.8635042608
 30
0.0
 11
0.1414644378
 21
-0.1414644378
 31
0.0
 40
0.9996954599
 41
2.3563467836
 42
3.9268385237
  0
ELLIPSE
  5
A0A
100
AcDbEntity
  8
RACCORDO
100
AcDbEllipse
 62
7
  6
CONTINUOUS
 10
164.4238199128
 20
88.0638393825
 30
0.0
 11
-1.4146443783
 21
1.4146443783
 31
0.0
 40
0.9996954599
 41
8.6395320906
 42
10.2100238309
  0
ELLIPSE
  5
A0B
100
AcDbEntity
  8
RACCORDO
100
AcDbEllipse
 62
7
  6
CONTINUOUS
 10
164.4238199128
 20
124.0632300703
 30
0.0
 11
-1.4146443783
 21
-1.4146443783
 31
0.0
 40
0.9996954599
 41
8.6395320906
 42
10.2100238309
  0
ELLIPSE
  5
A0C
100
AcDbEntity
  8
RACCORDO
100
AcDbEllipse
 62
7
  6
CONTINUOUS
 10
126.2240941032
 20
114.263565192
 30
0.0
 11
0.1414644378
 21
-0.1414644378
 31
0.0
 40
0.9996954599
 41
-0.78524587
 42
0.7852458701
  0
ELLIPSE
  5
A0D
100
AcDbEntity
  8
RACCORDO
100
AcDbEllipse
 62
7
  6
CONTINUOUS
 10
166.6241550345
 20
114.263565192
 30
0.0
 11
0.1414644378
 21
0.1414644378
 31
0.0
 40
0.9996954599
 41
-3.9268385237
 42
-2.3563467836
  0
ELLIPSE
  5
A0E
100
AcDbEntity
  8
0
100
AcDbEllipse
 62
7
  6
CONTINUOUS
 10
144.2271203658
 20
127.511102619
 30
0.0
 11
-0.3329978928
 21
-0.2219704135
 31
0.0
 40
0.9995051766
 41
2.553877046
 42
4.1242165221
  0
ELLIPSE
  5
A0F
100
AcDbEntity
  8
RACCORDO
100
AcDbEllipse
 62
7
  6
CONTINUOUS
 10
126.2240941032
 20
97.8635042608
 30
0.0
 11
0.1414644378
 21
0.1414644378
 31
0.0
 40
0.9996954599
 41
-0.7852458701
 42
0.78524587
  0
ELLIPSE
  5
A10
100
AcDbEntity
  8
0
100
AcDbEllipse
 62
7
  6
CONTINUOUS
 10
129.4211287719
 20
127.511102619
 30
0.0
 11
-0.3329978928
 21
0.2219704135
 31
0.0
 40
0.9995051766
 41
-0.9826238685
 42
0.5877156075
  0
ELLIPSE
  5
A11
100
AcDbEntity
  8
RACCORDO
100
AcDbEllipse
 62
7
  6
CONTINUOUS
 10
125.0113998935
 20
110.4761832378
 30
0.0
 11
0.0
 21
0.5
 31
0.0
 40
0.0174550649
 41
-1.5707963268
 42
-0.0174532925
  0
ELLIPSE
  5
A12
100
AcDbEntity
  8
RACCORDO
100
AcDbEllipse
 62
7
  6
CONTINUOUS
 10
126.3368492442
 20
110.4761832378
 30
0.0
 11
-0.0
 21
0.5
 31
0.0
 40
0.0174550649
 41
0.0174532925
 42
1.5707963268
  0
ELLIPSE
  5
A13
100
AcDbEntity
  8
RACCORDO
100
AcDbEllipse
 62
7
  6
CONTINUOUS
 10
126.3368492442
 20
101.6508862151
 30
0.0
 11
0.0
 21
0.5
 31
0.0
 40
0.0174550649
 41
-4.7123889804
 42
-3.1590459461
  0
ELLIPSE
  5
A14
100
AcDbEntity
  8
RACCORDO
100
AcDbEllipse
 62
7
  6
CONTINUOUS
 10
125.0113998935
 20
101.6508862151
 30
0.0
 11
0.0
 21
0.5
 31
0.0
 40
0.0174550649
 41
-3.1241393611
 42
-1.5707963268
  0
ELLIPSE
  5
A15
100
AcDbEntity
  8
RACCORDO
100
AcDbEllipse
 62
7
  6
CONTINUOUS
 10
167.8368492442
 20
101.6508862151
 30
0.0
 11
0.0
 21
0.5
 31
0.0
 40
0.0174550649
 41
-4.7123889804
 42
-3.1590459461
  0
ELLIPSE
  5
A16
100
AcDbEntity
  8
RACCORDO
100
AcDbEllipse
 62
7
  6
CONTINUOUS
 10
166.5113998935
 20
101.6508862151
 30
0.0
 11
0.0
 21
0.5
 31
0.0
 40
0.0174550649
 41
-3.1241393611
 42
-1.5707963268
  0
ELLIPSE
  5
A17
100
AcDbEntity
  8
RACCORDO
100
AcDbEllipse
 62
7
  6
CONTINUOUS
 10
166.5113998935
 20
110.4761832378
 30
0.0
 11
0.0
 21
0.5
 31
0.0
 40
0.0174550649
 41
-1.5707963268
 42
-0.0174532925
  0
ELLIPSE
  5
A18
100
AcDbEntity
  8
RACCORDO
100
AcDbEllipse
 62
7
  6
CONTINUOUS
 10
167.8368492442
 20
110.4761832378
 30
0.0
 11
0.0
 21
0.5
 31
0.0
 40
0.0174550649
 41
0.0174532925
 42
1.5707963268
  0
ELLIPSE
  5
A19
100
AcDbEntity
  8
0
100
AcDbEllipse
 62
7
  6
CONTINUOUS
 10
144.2009434175
 20
127.4936535355
 30
0.0
 11
-0.3329978928
 21
-0.2219704135
 31
0.0
 40
0.9995051766
 41
2.5538770461
 42
4.1242165221
  0
ELLIPSE
  5
A1A
100
AcDbEntity
  8
0
100
AcDbEllipse
 62
7
  6
CONTINUOUS
 10
130.1719662908
 20
127.5006355615
 30
0.0
 11
0.0
 21
0.4
 31
0.0
 40
0.0874886635
 41
0.0174532925
 42
0.4335693756
  0
ELLIPSE
  5
A1B
100
AcDbEntity
  8
0
100
AcDbEllipse
 62
7
  6
CONTINUOUS
 10
141.8241245688
 20
127.9198970641
 30
0.0
 11
1.55
 21
0.0
 31
0.0
 40
0.0174550649
 41
2.8885393263
 42
3.054326191
  0
ELLIPSE
  5
A1C
100
AcDbEntity
  8
0
100
AcDbEllipse
 62
7
  6
CONTINUOUS
 10
141.8241245688
 20
127.9198970641
 30
0.0
 11
1.55
 21
0.0
 31
0.0
 40
0.0174550649
 41
0.0872664626
 42
0.2530533273
  0
ELLIPSE
  5
A1D
100
AcDbEntity
  8
RACCORDO
100
AcDbEllipse
 62
7
  6
CONTINUOUS
 10
166.6241550345
 20
98.263565192
 30
0.0
 11
0.1414644378
 21
0.1414644378
 31
0.0
 40
0.9996954599
 41
-3.9268385237
 42
-2.3563467836
  0
ELLIPSE
  5
A1E
100
AcDbEntity
  8
RACCORDO
100
AcDbEllipse
 62
7
  6
CONTINUOUS
 10
163.5594951302
 20
125.9989509862
 30
0.0
 11
0.3
 21
0.0
 31
0.0
 40
0.0174550649
 41
4.7123889804
 42
6.2657320147
  0
ELLIPSE
  5
A1F
100
AcDbEntity
  8
RACCORDO
100
AcDbEllipse
 62
7
  6
CONTINUOUS
 10
166.6241550345
 20
113.8635042608
 30
0.0
 11
0.1414644378
 21
-0.1414644378
 31
0.0
 40
0.9996954599
 41
2.3563467836
 42
3.9268385237
  0
ELLIPSE
  5
A20
100
AcDbEntity
  8
RACCORDO
100
AcDbEllipse
 62
7
  6
CONTINUOUS
 10
126.2240941032
 20
113.8635042608
 30
0.0
 11
0.1414644378
 21
0.1414644378
 31
0.0
 40
0.9996954599
 41
-0.7852458701
 42
0.78524587
  0
ELLIPSE
  5
A21
100
AcDbEntity
  8
RACCORDO
100
AcDbEllipse
 62
7
  6
CONTINUOUS
 10
163.5594951302
 20
86.1281184667
 30
0.0
 11
0.3
 21
0.0
 31
0.0
 40
0.0174550649
 41
6.3006385997
 42
7.853981634
  0
ELLIPSE
  5
A22
100
AcDbEntity
  8
RACCORDO
100
AcDbEllipse
 62
7
  6
CONTINUOUS
 10
129.2887540075
 20
86.1281184667
 30
0.0
 11
0.3
 21
0.0
 31
0.0
 40
0.0174550649
 41
7.853981634
 42
9.4073246682
  0
ELLIPSE
  5
A23
100
AcDbEntity
  8
RACCORDO
100
AcDbEllipse
 62
7
  6
CONTINUOUS
 10
126.2240941032
 20
98.263565192
 30
0.0
 11
0.1414644378
 21
-0.1414644378
 31
0.0
 40
0.9996954599
 41
-0.78524587
 42
0.7852458701
  0
ELLIPSE
  5
A24
100
AcDbEntity
  8
RACCORDO
100
AcDbEllipse
 62
7
  6
CONTINUOUS
 10
164.4238199128
 20
124.0632300703
 30
0.0
 11
1.4146443783
 21
1.4146443783
 31
0.0
 40
0.9996954599
 41
-0.7852458701
 42
0.7852458701
  0
ELLIPSE
  5
A25
100
AcDbEntity
  8
RACCORDO
100
AcDbEllipse
 62
7
  6
CONTINUOUS
 10
164.4238199128
 20
88.0638393825
 30
0.0
 11
1.4146443783
 21
-1.4146443783
 31
0.0
 40
0.9996954599
 41
-0.7852458701
 42
0.7852458701
  0
ELLIPSE
  5
A26
100
AcDbEntity
  8
RACCORDO
100
AcDbEllipse
 62
7
  6
CONTINUOUS
 10
128.4244292249
 20
88.0638393825
 30
0.0
 11
1.4146443783
 21
1.4146443783
 31
0.0
 40
0.9996954599
 41
-3.9268385237
 42
-2.3563467834
  0
ELLIPSE
  5
A27
100
AcDbEntity
  8
RACCORDO
100
AcDbEllipse
 62
7
  6
CONTINUOUS
 10
128.4244292249
 20
124.0632300703
 30
0.0
 11
1.4146443783
 21
-1.4146443783
 31
0.0
 40
0.9996954599
 41
2.3563467834
 42
3.9268385237
  0
ELLIPSE
  5
A28
100
AcDbEntity
  8
0
100
AcDbEllipse
 62
7
  6
CONTINUOUS
 10
133.5259464472
 20
85.1834006845
 30
0.0
 11
0.2121966568
 21
-0.2121966568
 31
0.0
 40
0.9996954599
 41
-0.7852458701
 42
0.7852458701
  0
ELLIPSE
  5
A29
100
AcDbEntity
  8
RACCORDO
100
AcDbEllipse
 62
7
  6
CONTINUOUS
 10
163.6577648565
 20
125.9972054797
 30
0.0
 11
0.2
 21
0.0
 31
0.0
 40
0.0174550649
 41
-1.5707963268
 42
-0.0174532925
  0
ELLIPSE
  5
A2A
100
AcDbEntity
  8
RACCORDO
100
AcDbEllipse
 62
7
  6
CONTINUOUS
 10
129.1904842812
 20
86.1298639731
 30
0.0
 11
0.2
 21
0.0
 31
0.0
 40
0.0174550649
 41
1.5707963268
 42
3.1241393611
  0
ELLIPSE
  5
A2B
100
AcDbEntity
  8
RACCORDO
100
AcDbEllipse
 62
7
  6
CONTINUOUS
 10
129.1904842812
 20
125.9972054797
 30
0.0
 11
0.2
 21
0.0
 31
0.0
 40
0.0174550649
 41
-3.1241393611
 42
-1.5707963268
  0
ELLIPSE
  5
A2C
100
AcDbEntity
  8
0
100
AcDbEllipse
 62
7
  6
CONTINUOUS
 10
130.3223026905
 20
85.1834006845
 30
0.0
 11
0.2121966568
 21
0.2121966568
 31
0.0
 40
0.9996954599
 41
-3.9268385237
 42
-2.3563467834
  0
ELLIPSE
  5
A2D
100
AcDbEntity
  8
0
100
AcDbEllipse
 62
7
  6
CONTINUOUS
 10
129.824429341
 20
127.3632299543
 30
0.0
 11
0.3539842723
 21
-0.3539842723
 31
0.0
 40
0.998782766
 41
2.3568034778
 42
3.9263818294
  0
ELLIPSE
  5
A2E
100
AcDbEntity
  8
RACCORDO
100
AcDbEllipse
 62
7
  6
CONTINUOUS
 10
163.6577648565
 20
86.1298639731
 30
0.0
 11
0.2
 21
0.0
 31
0.0
 40
0.0174550649
 41
0.0174532925
 42
1.5707963268
  0
ELLIPSE
  5
A2F
100
AcDbEntity
  8
0
100
AcDbEllipse
 62
7
  6
CONTINUOUS
 10
143.8238197967
 20
127.3632299543
 30
0.0
 11
0.3539842723
 21
0.3539842723
 31
0.0
 40
0.998782766
 41
-0.7847891758
 42
0.7847891758
  0
ELLIPSE
  5
A30
100
AcDbEntity
  8
RACCORDO
100
AcDbEllipse
 62
7
  6
CONTINUOUS
 10
128.5638412523
 20
103.5076785187
 30
0.0
 11
0.5
 21
0.0
 31
0.0
 40
0.0174550649
 41
-3.1241393611
 42
-1.5707963268
  0
ELLIPSE
  5
A31
100
AcDbEntity
  8
RACCORDO
100
AcDbEllipse
 62
7
  6
CONTINUOUS
 10
164.2844078854
 20
103.5076785187
 30
0.0
 11
0.5
 21
-0.0
 31
0.0
 40
0.0174550649
 41
-1.5707963268
 42
-0.0174532925
  0
ELLIPSE
  5
A32
100
AcDbEntity
  8
RACCORDO
100
AcDbEllipse
 62
7
  6
CONTINUOUS
 10
128.5638412523
 20
108.6193909342
 30
0.0
 11
0.5
 21
-0.0
 31
0.0
 40
0.0174550649
 41
1.5707963268
 42
3.1241393611
  0
ELLIPSE
  5
A33
100
AcDbEntity
  8
RACCORDO
100
AcDbEllipse
 62
7
  6
CONTINUOUS
 10
164.2844078854
 20
108.6193909342
 30
0.0
 11
0.5
 21
0.0
 31
0.0
 40
0.0174550649
 41
0.0174532925
 42
1.5707963268
  0
ELLIPSE
  5
A34
100
AcDbEntity
  8
RACCORDO
100
AcDbEllipse
 62
7
  6
CONTINUOUS
 10
173.2754518609
 20
120.9148620184
 30
0.0
 11
1.4146443783
 21
1.4146443783
 31
0.0
 40
0.9996954599
 41
-0.7852458701
 42
0.7852458701
  0
ELLIPSE
  5
A35
100
AcDbEntity
  8
RACCORDO
100
AcDbEllipse
 62
7
  6
CONTINUOUS
 10
173.2754518609
 20
117.2122074344
 30
0.0
 11
-1.4146443783
 21
1.4146443783
 31
0.0
 40
0.9996954599
 41
-3.9268385237
 42
-2.3563467834
  0
ELLIPSE
  5
A36
100
AcDbEntity
  8
RACCORDO
100
AcDbEllipse
 62
7
  6
CONTINUOUS
 10
144.5727972768
 20
79.2122074344
 30
0.0
 11
1.4146443783
 21
1.4146443783
 31
0.0
 40
0.9996954599
 41
-3.9268385237
 42
-2.3563467834
  0
ELLIPSE
  5
A37
100
AcDbEntity
  8
RACCORDO
100
AcDbEllipse
 62
7
  6
CONTINUOUS
 10
148.2754518609
 20
79.2122074344
 30
0.0
 11
-1.4146443783
 21
1.4146443783
 31
0.0
 40
0.9996954599
 41
-3.9268385237
 42
-2.3563467834
  0
ELLIPSE
  5
A38
100
AcDbEntity
  8
RACCORDO
100
AcDbEllipse
 62
7
  6
CONTINUOUS
 10
133.3981841793
 20
127.0262289362
 30
0.0
 11
0.1733105926
 21
0.1000609173
 31
0.0
 40
0.9993911978
 41
-1.0469338117
 42
1.0469338117
  0
ELLIPSE
  5
A39
100
AcDbEntity
  8
RACCORDO
100
AcDbEllipse
 62
7
  6
CONTINUOUS
 10
130.4500649584
 20
127.0262289362
 30
0.0
 11
0.1733105926
 21
-0.1000609173
 31
0.0
 40
0.9993911978
 41
2.0946588419
 42
4.1885264653
  0
ELLIPSE
  5
A3A
100
AcDbEntity
  8
RACCORDO
100
AcDbEllipse
 62
7
  6
CONTINUOUS
 10
163.701676659
 20
123.3410868166
 30
0.0
 11
0.3643800228
 21
0.3643800228
 31
0.0
 40
0.9702875252
 41
-0.7703190329
 42
0.7703190329
  0
ELLIPSE
  5
A3B
100
AcDbEntity
  8
0
100
AcDbEllipse
 62
7
  6
CONTINUOUS
 10
143.9994971669
 20
125.9814959213
 30
0.0
 11
0.3
 21
-0.0
 31
0.0
 40
0.0174550649
 41
-1.5707963268
 42
-0.034906585
  0
ELLIPSE
  5
A3C
100
AcDbEntity
  8
RACCORDO
100
AcDbEllipse
 62
7
  6
CONTINUOUS
 10
129.1465724786
 20
123.3410868166
 30
0.0
 11
0.3643800228
 21
-0.3643800228
 31
0.0
 40
0.9702875252
 41
2.3712736207
 42
3.9119116865
  0
ELLIPSE
  5
A3D
100
AcDbEntity
  8
RACCORDO
100
AcDbEllipse
 62
7
  6
CONTINUOUS
 10
129.1465724786
 20
88.7859826362
 30
0.0
 11
0.3643800228
 21
0.3643800228
 31
0.0
 40
0.9702875252
 41
-3.9119116865
 42
-2.3712736207
  0
ELLIPSE
  5
A3E
100
AcDbEntity
  8
RACCORDO
100
AcDbEllipse
 62
7
  6
CONTINUOUS
 10
163.701676659
 20
88.7859826362
 30
0.0
 11
-0.3643800228
 21
0.3643800228
 31
0.0
 40
0.9702875252
 41
-3.9119116865
 42
-2.3712736207
  0
ELLIPSE
  5
A3F
100
AcDbEntity
  8
RACCORDO
100
AcDbEllipse
 62
7
  6
CONTINUOUS
 10
166.3333582312
 20
110.4227226904
 30
0.0
 11
0.0
 21
0.3
 31
0.0
 40
0.0174550649
 41
0.0174532925
 42
1.5707963268
  0
ELLIPSE
  5
A40
100
AcDbEntity
  8
RACCORDO
100
AcDbEllipse
 62
7
  6
CONTINUOUS
 10
166.3333582312
 20
101.7043467625
 30
0.0
 11
0.0
 21
0.3
 31
0.0
 40
0.0174550649
 41
-4.7123889804
 42
-3.1590459461
  0
ELLIPSE
  5
A41
100
AcDbEntity
  8
RACCORDO
100
AcDbEllipse
 62
7
  6
CONTINUOUS
 10
126.5148909065
 20
101.7043467625
 30
0.0
 11
0.0
 21
0.3
 31
0.0
 40
0.0174550649
 41
-3.1241393611
 42
-1.5707963268
  0
ELLIPSE
  5
A42
100
AcDbEntity
  8
RACCORDO
100
AcDbEllipse
 62
7
  6
CONTINUOUS
 10
126.5148909065
 20
110.4227226904
 30
0.0
 11
0.0
 21
0.3
 31
0.0
 40
0.0174550649
 41
-1.5707963268
 42
-0.0174532925
  0
ELLIPSE
  5
A43
100
AcDbEntity
  8
RACCORDO
100
AcDbEllipse
 62
7
  6
CONTINUOUS
 10
164.7755280249
 20
122.9151666745
 30
0.0
 11
1.5
 21
-0.0
 31
0.0
 40
0.0174550649
 41
-0.7375601251
 42
-0.0174532925
  0
ELLIPSE
  5
A44
100
AcDbEntity
  8
RACCORDO
100
AcDbEllipse
 62
7
  6
CONTINUOUS
 10
142.5724926207
 20
87.7121312704
 30
0.0
 11
-0.0
 21
1.5
 31
0.0
 40
0.0174550649
 41
-3.1241393611
 42
-2.4040325285
  0
ELLIPSE
  5
A45
100
AcDbEntity
  8
RACCORDO
100
AcDbEllipse
 62
7
  6
CONTINUOUS
 10
164.7755280249
 20
115.2119027783
 30
0.0
 11
1.5
 21
0.0
 31
0.0
 40
0.0174550649
 41
0.0174532925
 42
0.7375601251
  0
ELLIPSE
  5
A46
100
AcDbEntity
  8
RACCORDO
100
AcDbEllipse
 62
7
  6
CONTINUOUS
 10
150.275756517
 20
87.7121312704
 30
0.0
 11
-0.0
 21
1.5
 31
0.0
 40
0.0174550649
 41
-3.8791527787
 42
-3.1590459461
  0
ELLIPSE
  5
A47
100
AcDbEntity
  8
RACCORDO
100
AcDbEllipse
 62
7
  6
CONTINUOUS
 10
128.0727211128
 20
108.6281184667
 30
0.0
 11
1.5
 21
0.0
 31
0.0
 40
0.0174550649
 41
1.5707963268
 42
1.6746077618
  0
ELLIPSE
  5
A48
100
AcDbEntity
  8
RACCORDO
100
AcDbEllipse
 62
7
  6
CONTINUOUS
 10
164.7755280249
 20
108.6281184667
 30
0.0
 11
1.5
 21
-0.0
 31
0.0
 40
0.0174550649
 41
1.4669848918
 42
1.5707963268
  0
ELLIPSE
  5
A49
100
AcDbEntity
  8
RACCORDO
100
AcDbEllipse
 62
7
  6
CONTINUOUS
 10
128.0727211128
 20
103.4989509862
 30
0.0
 11
1.5
 21
0.0
 31
0.0
 40
0.0174550649
 41
-1.6746077618
 42
-1.5707963268
  0
ELLIPSE
  5
A4A
100
AcDbEntity
  8
RACCORDO
100
AcDbEllipse
 62
7
  6
CONTINUOUS
 10
164.7755280249
 20
103.4989509862
 30
0.0
 11
1.5
 21
-0.0
 31
0.0
 40
0.0174550649
 41
-1.5707963268
 42
-1.4669848918
  0
ELLIPSE
  5
A4B
100
AcDbEntity
  8
RACCORDO
100
AcDbEllipse
 62
7
  6
CONTINUOUS
 10
130.4788269359
 20
126.1762898674
 30
0.0
 11
-0.1733105926
 21
0.1000609173
 31
0.0
 40
0.9993911978
 41
2.0946588419
 42
4.1885264653
  0
ELLIPSE
  5
A4C
100
AcDbEntity
  8
RACCORDO
100
AcDbEllipse
 62
7
  6
CONTINUOUS
 10
133.3694222018
 20
126.1762898674
 30
0.0
 11
-0.1733105926
 21
-0.1000609173
 31
0.0
 40
0.9993911978
 41
-1.0469338117
 42
1.0469338117
  0
ELLIPSE
  5
A4D
100
AcDbEntity
  8
RACCORDO
100
AcDbEllipse
 62
7
  6
CONTINUOUS
 10
130.4788269359
 20
85.9507795855
 30
0.0
 11
0.1733105926
 21
0.1000609173
 31
0.0
 40
0.9993911978
 41
-1.0469338117
 42
1.0469338117
  0
ELLIPSE
  5
A4E
100
AcDbEntity
  8
0
100
AcDbEllipse
 62
7
  6
CONTINUOUS
 10
130.3397577554
 20
85.2008557495
 30
0.0
 11
0.2121966568
 21
0.2121966568
 31
0.0
 40
0.9996954599
 41
2.3563467834
 42
3.9268385237
  0
ELLIPSE
  5
A4F
100
AcDbEntity
  8
RACCORDO
100
AcDbEllipse
 62
7
  6
CONTINUOUS
 10
133.3694222018
 20
85.9507795855
 30
0.0
 11
0.1733105926
 21
-0.1000609173
 31
0.0
 40
0.9993911978
 41
2.0946588419
 42
4.1885264653
  0
ELLIPSE
  5
A50
100
AcDbEntity
  8
0
100
AcDbEllipse
 62
7
  6
CONTINUOUS
 10
133.5084913823
 20
85.2008557495
 30
0.0
 11
0.2121966568
 21
-0.2121966568
 31
0.0
 40
0.9996954599
 41
-0.7852458701
 42
0.7852458701
  0
ELLIPSE
  5
A51
100
AcDbEntity
  8
RACCORDO
100
AcDbEllipse
 62
7
  6
CONTINUOUS
 10
130.4500649584
 20
85.1008405167
 30
0.0
 11
0.1733105926
 21
0.1000609173
 31
0.0
 40
0.9993911978
 41
2.0946588419
 42
4.1885264653
  0
ELLIPSE
  5
A52
100
AcDbEntity
  8
RACCORDO
100
AcDbEllipse
 62
7
  6
CONTINUOUS
 10
133.3981841793
 20
85.1008405167
 30
0.0
 11
0.1733105926
 21
-0.1000609173
 31
0.0
 40
0.9993911978
 41
-1.0469338117
 42
1.0469338117
  0
ELLIPSE
  5
A53
100
AcDbEntity
  8
0
100
AcDbEllipse
 62
7
  6
CONTINUOUS
 10
129.6487519708
 20
125.9814959213
 30
0.0
 11
0.3
 21
-0.0
 31
0.0
 40
0.0174550649
 41
-3.1066860685
 42
-1.5707963268
  0
ELLIPSE
  5
A54
100
AcDbEntity
  8
RACCORDO
100
AcDbEllipse
 62
7
  6
CONTINUOUS
 10
163.6664112629
 20
88.8212480324
 30
0.0
 11
-0.3643800228
 21
0.3643800228
 31
0.0
 40
0.9702875252
 41
2.3712736207
 42
3.9119116865
  0
ELLIPSE
  5
A55
100
AcDbEntity
  8
RACCORDO
100
AcDbEllipse
 62
7
  6
CONTINUOUS
 10
129.1818378748
 20
88.8212480324
 30
0.0
 11
0.3643800228
 21
0.3643800228
 31
0.0
 40
0.9702875252
 41
2.3712736207
 42
3.9119116865
  0
ELLIPSE
  5
A56
100
AcDbEntity
  8
RACCORDO
100
AcDbEllipse
 62
7
  6
CONTINUOUS
 10
129.1818378748
 20
123.3058214205
 30
0.0
 11
0.3643800228
 21
-0.3643800228
 31
0.0
 40
0.9702875252
 41
2.3712736207
 42
3.9119116865
  0
ELLIPSE
  5
A57
100
AcDbEntity
  8
RACCORDO
100
AcDbEllipse
 62
7
  6
CONTINUOUS
 10
163.6664112629
 20
123.3058214205
 30
0.0
 11
-0.3643800228
 21
-0.3643800228
 31
0.0
 40
0.9702875252
 41
2.3712736207
 42
3.9119116865
  0
ENDSEC
  0
SECTION
  2
OBJECTS
  0
DICTIONARY
  5
C
100
AcDbDictionary
280
0
281
1
  3
ACAD_GROUP
350
D
  3
ACAD_MLINESTYLE
350
17
  3
ACAD_LAYOUT
350
1A
  3
ACAD_PLOTSETTINGS
350
19
  3
ACAD_PLOTSTYLENAME
350
E
  0
DICTIONARY
  5
D
102
{ACAD_REACTORS
330
C
102
}
100
AcDbDictionary
280
0
281
1
  0
ACDBDICTIONARYWDFLT
  5
E
102
{ACAD_REACTORS
330
C
102
}
100
AcDbDictionary
281
1
  3
Normal
350
F
100
AcDbDictionaryWithDefault
340
F
  0
DICTIONARY
  5
17
102
{ACAD_REACTORS
330
C
102
}
100
AcDbDictionary
280
0
281
1
  3
Standard
350
18
  0
DICTIONARY
  5
19
102
{ACAD_REACTORS
330
C
102
}
100
AcDbDictionary
281
1
  0
DICTIONARY
  5
1A
102
{ACAD_REACTORS
330
C
102
}
100
AcDbDictionary
281
1
  3
Model
350
A58
  3
Layout1
350
A59
  0
ACDBPLACEHOLDER
  5
F
102
{ACAD_REACTORS
330
E
102
}
  0
MLINESTYLE
  5
18
102
{ACAD_REACTORS
330
17
102
}
100
AcDbMlineStyle
  2
STANDARD
 70
0
  3

 62
256
 51
90.0
 52
90.0
 71
2
 49
0.5
 62
256
  6
BYLAYER
 49
-0.5
 62
256
  6
BYLAYER
  0
LAYOUT
  5
A58
102
{ACAD_REACTORS
330
1A
102
}
100
AcDbPlotSettings
  1

  2
none_device
  4
ISO_A4_(297.00_x_210.00_MM)
  6

 40
0.0
 41
0.0
 42
0.0
 43
0.0
 44
297.0
 45
210.0
 46
0.0
 47
0.0
 48
0.0
 49
0.0
140
0.0
141
0.0
142
1.0
143
1.0
 70
1024
 72
1
 73
0
 74
0
  7

 75
0
147
1.0
148
0.0
149
0.0
100
AcDbLayout
  1
Model
 70
0
 71
0
 10
0.0
 20
0.0
 11
297.0
 21
210.0
 12
0.0
 22
0.0
 32
0.0
 14
0.0
 24
0.0
 34
0.0
 15
0.0
 25
0.0
 35
0.0
146
0.0
 13
0.0
 23
0.0
 33
0.0
 16
1.0
 26
0.0
 36
0.0
 17
0.0
 27
1.0
 37
0.0
 76
0
330
6F5
345
0
346
0
  0
LAYOUT
  5
A59
102
{ACAD_REACTORS
330
1A
102
}
100
AcDbPlotSettings
  1

  2
none_device
  4
ISO_A4_(297.00_x_210.00_MM)
  6

 40
0.0
 41
0.0
 42
0.0
 43
0.0
 44
297.0
 45
210.0
 46
0.0
 47
0.0
 48
0.0
 49
0.0
140
0.0
141
0.0
142
1.0
143
1.0
 70
0
 72
1
 73
0
 74
0
  7

 75
0
147
1.0
148
0.0
149
0.0
100
AcDbLayout
  1
Layout1
 70
0
 71
1
 10
0.0
 20
0.0
 11
297.0
 21
210.0
 12
0.0
 22
0.0
 32
0.0
 14
0.0
 24
0.0
 34
0.0
 15
0.0
 25
0.0
 35
0.0
146
0.0
 13
0.0
 23
0.0
 33
0.0
 16
1.0
 26
0.0
 36
0.0
 17
0.0
 27
1.0
 37
0.0
 76
0
330
6F6
345
0
346
0
  0
ENDSEC
  0
EOF
